  0
SECTION
  2
HEADER
  9
$EXTMAX
 10
210.0
 20
297.0
 30
0.0
  9
$EXTMIN
 10
0.0
 20
0.0
 30
0.0
  9
$LIMMIN
 10
0.0
 20
0.0
  9
$LIMMAX
 10
210.0
 20
297.0
  9
$VIEWCTR
 10
105.0
 20
148.5
  9
$VIEWSIZE
 40
297.0
  9
$CLAYER
  8
0
  9
$LTSCALE
 40
19.36
  9
$CELTYPE
  6
BYLAYER
  9
$DIMSCALE
 40
1.0
  9
$DIMASZ
 40
3.5
  9
$DIMEXO
 40
2.2
  9
$DIMDLI
 40
13.376
  9
$DIMEXE
 40
6.336
  9
$DIMCEN
 40
3.168
  9
$DIMLFAC
 40
1.0
  9
$DIMBLK
  1
_FILLED
  9
$DIMTXT
 40
3.5
  9
$PDMODE
 70
3
  9
$PDSIZE
 40
0.3125
  9
$TILEMODE
 70
1
  0
ENDSEC
  0
SECTION
  2
TABLES
  0
TABLE
  2
LTYPE
 70
6
  0
LTYPE
  2
BYBLOCK
 70
0
  3

 72
65
 73
0
 40
0.0
  0
LTYPE
  2
BYLAYER
 70
0
  3

 72
65
 73
0
 40
0.0
  0
LTYPE
  2
CONTINUOUS
 70
64
  3
Solid line
 72
65
 73
0
 40
0.0
  0
LTYPE
  2
CENTER
 70
64
  3
____ _ ____ _ ____ _ ____ _ ____ _ ____ _ ____
 72
65
 73
4
 40
0.6
 49
0.375
 49
-0.075
 49
0.075
 49
-0.075
  0
LTYPE
  2
HIDDEN
 70
64
  3
- - - - - - - - - - - - - - - - - - - -
 72
65
 73
2
 40
0.2
 49
0.1
 49
-0.1
  0
LTYPE
  2
PHANTOM
 70
64
  3
_____ _ _ _____ _ _ _____ _ _ _____
 72
65
 73
6
 40
0.8
 49
0.45
 49
-0.05
 49
0.1
 49
-0.05
 49
0.1
 49
-0.05
  0
LTYPE
  2
DOT
 70
64
  3
. . . . . . . . . . . . . . . . . . . .
 72
65
 73
2
 40
0.2
 49
0.1
 49
-0.1
  0
LTYPE
  2
DASHED
 70
64
  3
- - - - - - - - - - - - - - - - - - - -
 72
65
 73
2
 40
0.2
 49
0.1
 49
-0.1
  0
ENDTAB
  0
TABLE
  2
LAYER
 70
36
  0
LAYER
  2
0
 70
0
 62
7
  6
CONTINUOUS
  0
LAYER
  2
DEFAULT_1
 70
0
 62
7
  6
CENTER
  0
LAYER
  2
DEFAULT_2
 70
0
 62
8
  6
HIDDEN
  0
LAYER
  2
DEFAULT_3
 70
0
 62
7
  6
PHANTOM
  0
LAYER
  2
BLANK_CURVE
 70
0
 62
7
  6
CONTINUOUS
  0
LAYER
  2
HUB_SQ_NAV
 70
0
 62
7
  6
CONTINUOUS
  0
LAYER
  2
LAY0001
 70
0
 62
7
  6
CONTINUOUS
  0
ENDTAB
  0
TABLE
  2
STYLE
 70
1
  0
STYLE
  2
STANDARD
 70
0
 40
0.0
 41
0.8
 50
0.0
 71
0
 42
0.2
  3
txt
  4

  0
STYLE
  2
TEXTSTYLE_1
 70
0
 40
0.0
 41
0.8
 50
0.0
 71
0
 42
0.2
  3
gdt
  4

  0
STYLE
  2
TEXTSTYLE_2
 70
0
 40
0.0
 41
0.6
 50
0.0
 71
0
 42
0.2
  3
txt
  4

  0
STYLE
  2
TEXTSTYLE_3
 70
0
 40
0.0
 41
1.0
 50
0.0
 71
0
 42
0.2
  3
ftb_____.ttf
  4

  0
STYLE
  2
TEXTSTYLE_4
 70
0
 40
0.0
 41
1.0
 50
0.0
 71
0
 42
0.2
  3
fti_____.ttf
  4

  0
STYLE
  2
TEXTSTYLE_5
 70
0
 40
0.0
 41
1.0
 50
0.0
 71
0
 42
0.2
  3
frutiger light.ttf
  4

  0
STYLE
  2
TEXTSTYLE_6
 70
0
 40
0.0
 41
0.7
 50
0.0
 71
0
 42
0.2
  3
txt
  4

  0
STYLE
  2
TEXTSTYLE_7
 70
0
 40
0.0
 41
0.8
 50
0.0
 71
0
 42
0.2
  3
txt
  4

  0
ENDTAB
  0
ENDSEC
  0
SECTION
  2
BLOCKS
  0
BLOCK
  8
0
 62
2
  6
CONTINUOUS
  2
SYMBOL_8_BL1
 70
64
 10
173.5956734183
 20
35.5937998301
  0
TEXT
  8
0
 62
7
  6
CONTINUOUS
 10
164.6539584268
 20
30.6865562072
  7
TEXTSTYLE_4
 40
1.0655737705
  1
The brand for plastic modular belts and chains
 41
1.0
 72
0
  0
LINE
  8
0
 62
7
  6
CONTINUOUS
 10
149.5737418074
 20
36.1675703219
 11
149.5737418074
 21
34.0364227809
  0
LINE
  8
0
 62
7
  6
CONTINUOUS
 10
149.8628043005
 20
31.0454914852
 11
149.8628043005
 21
31.1422825445
  0
LINE
  8
0
 62
7
  6
CONTINUOUS
 10
149.5737418074
 20
31.1100188581
 11
149.6315543091
 21
30.9164367395
  0
LINE
  8
0
 62
7
  6
CONTINUOUS
 10
150.9671844304
 20
33.9544555678
 11
150.9671844304
 21
36.1675703219
  0
LINE
  8
0
 62
7
  6
CONTINUOUS
 10
151.8862417523
 20
32.1101932727
 11
151.8862417523
 21
30.5937998301
  0
LINE
  8
0
 62
7
  6
CONTINUOUS
 10
152.1753043074
 20
30.5937998301
 11
152.1753043074
 21
31.3358647082
  0
LINE
  8
0
 62
7
  6
CONTINUOUS
 10
152.1753043074
 20
31.4649194539
 11
152.1753043074
 21
32.1101932727
  0
LINE
  8
0
 62
7
  6
CONTINUOUS
 10
149.6315543091
 20
31.3036010218
 11
149.5737418074
 21
31.1100188581
  0
LINE
  8
0
 62
7
  6
CONTINUOUS
 10
149.9784292936
 20
30.8841730531
 11
149.8628043005
 21
31.0454914852
  0
LINE
  8
0
 62
7
  6
CONTINUOUS
 10
151.0768668626
 20
31.400392081
 11
151.1346793074
 21
31.3036010218
  0
LINE
  8
0
 62
7
  6
CONTINUOUS
 10
151.4237418626
 20
31.3036010218
 11
151.3659292523
 21
31.4326557675
  0
LINE
  8
0
 62
7
  6
CONTINUOUS
 10
152.852430332
 20
36.1675703219
 11
152.852430332
 21
34.3642916334
  0
LINE
  8
0
 62
7
  6
CONTINUOUS
 10
152.852430332
 20
33.0528162235
 11
152.852430332
 21
32.3970785186
  0
LINE
  8
0
 62
7
  6
CONTINUOUS
 10
153.2159293074
 20
31.2390736489
 11
153.2159293074
 21
30.5937998301
  0
LINE
  8
0
 62
7
  6
CONTINUOUS
 10
153.5049916972
 20
30.5937998301
 11
153.5049916972
 21
31.2390736489
  0
LINE
  8
0
 62
7
  6
CONTINUOUS
 10
149.8628043005
 20
31.1422825445
 11
149.9206168074
 21
31.2713373354
  0
LINE
  8
0
 62
7
  6
CONTINUOUS
 10
149.6315543091
 20
30.9164367395
 11
149.7471793074
 21
30.7873819712
  0
LINE
  8
0
 62
7
  6
CONTINUOUS
 10
153.1581166972
 20
31.3681283946
 11
153.2159293074
 21
31.2390736489
  0
LINE
  8
0
 62
7
  6
CONTINUOUS
 10
153.9674919177
 20
30.8841730531
 11
154.0253041972
 21
30.7551182848
  0
LINE
  8
0
 62
7
  6
CONTINUOUS
 10
153.5049916972
 20
31.2390736489
 11
153.4471794177
 21
31.400392081
  0
LINE
  8
0
 62
7
  6
CONTINUOUS
 10
153.9674919177
 20
31.4326557675
 11
153.9674919177
 21
31.3681283946
  0
LINE
  8
0
 62
7
  6
CONTINUOUS
 10
153.9674919177
 20
30.9809641124
 11
153.9674919177
 21
30.8841730531
  0
LINE
  8
0
 62
7
  6
CONTINUOUS
 10
154.245872955
 20
32.3970785186
 11
154.245872955
 21
36.1675703219
  0
LINE
  8
0
 62
7
  6
CONTINUOUS
 10
154.2565543074
 20
30.8519093441
 11
154.2565543074
 21
30.9164367395
  0
LINE
  8
0
 62
7
  6
CONTINUOUS
 10
154.5737418074
 20
36.1675703219
 11
154.5737418074
 21
32.3970785186
  0
LINE
  8
0
 62
7
  6
CONTINUOUS
 10
151.3659292523
 20
30.7873819712
 11
151.4237418626
 21
30.9164367395
  0
LINE
  8
0
 62
7
  6
CONTINUOUS
 10
155.759679528
 20
30.6905909007
 11
155.7018665869
 21
30.8519093441
  0
LINE
  8
0
 62
7
  6
CONTINUOUS
 10
155.412804528
 20
31.3681283946
 11
155.412804528
 21
31.2713373354
  0
LINE
  8
0
 62
7
  6
CONTINUOUS
 10
155.412804528
 20
31.1422825445
 11
155.412804528
 21
30.9487004259
  0
LINE
  8
0
 62
7
  6
CONTINUOUS
 10
155.7018665869
 20
30.8519093441
 11
155.7018665869
 21
31.3681283946
  0
LINE
  8
0
 62
7
  6
CONTINUOUS
 10
155.9671844304
 20
32.3970785186
 11
155.9671844304
 21
34.2003572071
  0
LINE
  8
0
 62
7
  6
CONTINUOUS
 10
155.9671844304
 20
35.511832617
 11
155.9671844304
 21
36.1675703219
  0
LINE
  8
0
 62
7
  6
CONTINUOUS
 10
156.279992028
 20
32.1101932727
 11
156.279992028
 21
31.9488748406
  0
LINE
  8
0
 62
7
  6
CONTINUOUS
 10
156.279992028
 20
31.626237886
 11
156.279992028
 21
30.5937998301
  0
LINE
  8
0
 62
7
  6
CONTINUOUS
 10
156.5690540869
 20
30.5937998301
 11
156.5690540869
 21
31.626237886
  0
LINE
  8
0
 62
7
  6
CONTINUOUS
 10
156.5690540869
 20
31.9488748406
 11
156.5690540869
 21
32.1101932727
  0
LINE
  8
0
 62
7
  6
CONTINUOUS
 10
151.1346793074
 20
30.9164367395
 11
151.0768668626
 21
30.8196456577
  0
LINE
  8
0
 62
7
  6
CONTINUOUS
 10
153.4471794177
 20
31.400392081
 11
153.3893668074
 21
31.4649194539
  0
LINE
  8
0
 62
7
  6
CONTINUOUS
 10
154.3143669177
 20
30.7873819712
 11
154.2565543074
 21
30.8519093441
  0
LINE
  8
0
 62
7
  6
CONTINUOUS
 10
155.4706168074
 20
30.6583272086
 11
155.5284290869
 21
30.5937998301
  0
LINE
  8
0
 62
7
  6
CONTINUOUS
 10
155.412804528
 20
30.7551182848
 11
155.4706168074
 21
30.6583272086
  0
LINE
  8
0
 62
7
  6
CONTINUOUS
 10
155.8174918074
 20
30.5937998301
 11
155.759679528
 21
30.6905909007
  0
LINE
  8
0
 62
7
  6
CONTINUOUS
 10
155.7018665869
 20
31.3681283946
 11
155.6440543074
 21
31.4649194539
  0
LINE
  8
0
 62
7
  6
CONTINUOUS
 10
157.0315543074
 20
31.626237886
 11
157.0315543074
 21
30.5937998301
  0
LINE
  8
0
 62
7
  6
CONTINUOUS
 10
157.320617028
 20
30.5937998301
 11
157.320617028
 21
31.3358647082
  0
LINE
  8
0
 62
7
  6
CONTINUOUS
 10
157.320617028
 20
31.4649194539
 11
157.320617028
 21
31.626237886
  0
LINE
  8
0
 62
7
  6
CONTINUOUS
 10
157.852430332
 20
34.6101932727
 11
157.852430332
 21
32.3970785186
  0
LINE
  8
0
 62
7
  6
CONTINUOUS
 10
149.7471793074
 20
31.4326557675
 11
149.6315543091
 21
31.3036010218
  0
LINE
  8
0
 62
7
  6
CONTINUOUS
 10
149.9206168074
 20
31.2713373354
 11
149.9784292936
 21
31.3358647082
  0
LINE
  8
0
 62
7
  6
CONTINUOUS
 10
149.7471793074
 20
30.7873819712
 11
149.8628043005
 21
30.7228545871
  0
LINE
  8
0
 62
7
  6
CONTINUOUS
 10
150.1518667936
 20
30.7873819712
 11
149.9784292936
 21
30.8841730531
  0
LINE
  8
0
 62
7
  6
CONTINUOUS
 10
155.3549915869
 20
31.4326557675
 11
155.412804528
 21
31.3681283946
  0
LINE
  8
0
 62
7
  6
CONTINUOUS
 10
158.3034290869
 20
31.3681283946
 11
158.361242028
 21
31.2068099625
  0
LINE
  8
0
 62
7
  6
CONTINUOUS
 10
158.6503040869
 20
31.2068099625
 11
158.5924918074
 21
31.3681283946
  0
LINE
  8
0
 62
7
  6
CONTINUOUS
 10
158.361242028
 20
31.2068099625
 11
158.361242028
 21
30.5937998301
  0
LINE
  8
0
 62
7
  6
CONTINUOUS
 10
158.6503040869
 20
30.5937998301
 11
158.6503040869
 21
31.2068099625
  0
LINE
  8
0
 62
7
  6
CONTINUOUS
 10
159.1128043074
 20
31.4326557675
 11
159.1128043074
 21
31.3681283946
  0
LINE
  8
0
 62
7
  6
CONTINUOUS
 10
159.245872955
 20
32.3970785186
 11
159.245872955
 21
34.5282260596
  0
LINE
  8
0
 62
7
  6
CONTINUOUS
 10
159.5737418074
 20
36.1675703219
 11
159.5737418074
 21
32.3970785186
  0
LINE
  8
0
 62
7
  6
CONTINUOUS
 10
154.2565543074
 20
30.9164367395
 11
154.3143669177
 21
31.0132277988
  0
LINE
  8
0
 62
7
  6
CONTINUOUS
 10
149.8628043005
 20
30.7228545871
 11
150.0362418212
 21
30.6583272086
  0
LINE
  8
0
 62
7
  6
CONTINUOUS
 10
151.3659292523
 20
31.4326557675
 11
151.1924917523
 21
31.5294468267
  0
LINE
  8
0
 62
7
  6
CONTINUOUS
 10
154.0253041972
 20
30.7551182848
 11
154.1987416972
 21
30.6583272086
  0
LINE
  8
0
 62
7
  6
CONTINUOUS
 10
153.0424918074
 20
31.4326557675
 11
153.1581166972
 21
31.3681283946
  0
LINE
  8
0
 62
7
  6
CONTINUOUS
 10
153.3893668074
 20
31.4649194539
 11
153.2737419177
 21
31.5294468267
  0
LINE
  8
0
 62
7
  6
CONTINUOUS
 10
159.1128043074
 20
30.8519093441
 11
159.228429528
 21
30.7228545871
  0
LINE
  8
0
 62
7
  6
CONTINUOUS
 10
159.4596793074
 20
30.7873819712
 11
159.401867028
 21
30.8519093441
  0
LINE
  8
0
 62
7
  6
CONTINUOUS
 10
159.1128043074
 20
31.3681283946
 11
159.228429528
 21
31.2390736489
  0
LINE
  8
0
 62
7
  6
CONTINUOUS
 10
158.5924918074
 20
31.3681283946
 11
158.534679528
 21
31.4649194539
  0
LINE
  8
0
 62
7
  6
CONTINUOUS
 10
160.9628038663
 20
30.7873819712
 11
160.9628038663
 21
30.8519093441
  0
LINE
  8
0
 62
7
  6
CONTINUOUS
 10
160.9671844304
 20
32.3970785186
 11
160.9671844304
 21
36.1675703219
  0
LINE
  8
0
 62
7
  6
CONTINUOUS
 10
154.0253041972
 20
31.4971831403
 11
153.9674919177
 21
31.4326557675
  0
LINE
  8
0
 62
7
  6
CONTINUOUS
 10
150.9034292799
 20
31.4649194539
 11
151.0768668626
 21
31.400392081
  0
LINE
  8
0
 62
7
  6
CONTINUOUS
 10
155.6440543074
 20
31.4649194539
 11
155.5284290869
 21
31.5294468267
  0
LINE
  8
0
 62
7
  6
CONTINUOUS
 10
159.4596793074
 20
31.3036010218
 11
159.401867028
 21
31.3681283946
  0
LINE
  8
0
 62
7
  6
CONTINUOUS
 10
160.615929528
 20
30.9164367395
 11
160.6737418074
 21
30.8519093441
  0
LINE
  8
0
 62
7
  6
CONTINUOUS
 10
160.9628038663
 20
30.8519093441
 11
160.8471793074
 21
30.9809641124
  0
LINE
  8
0
 62
7
  6
CONTINUOUS
 10
160.615929528
 20
31.4326557675
 11
160.6737418074
 21
31.3681283946
  0
LINE
  8
0
 62
7
  6
CONTINUOUS
 10
160.9628038663
 20
31.3681283946
 11
160.8471793074
 21
31.4971831403
  0
LINE
  8
0
 62
7
  6
CONTINUOUS
 10
154.2565543074
 20
31.3681283946
 11
154.3143669177
 21
31.4326557675
  0
LINE
  8
0
 62
7
  6
CONTINUOUS
 10
154.0831168074
 20
31.1100188581
 11
153.9674919177
 21
30.9809641124
  0
LINE
  8
0
 62
7
  6
CONTINUOUS
 10
155.412804528
 20
30.9487004259
 11
155.3549915869
 21
30.8841730531
  0
LINE
  8
0
 62
7
  6
CONTINUOUS
 10
155.3549915869
 20
30.6905909007
 11
155.412804528
 21
30.7551182848
  0
LINE
  8
0
 62
7
  6
CONTINUOUS
 10
154.1987416972
 20
30.6583272086
 11
154.3143669177
 21
30.6260635193
  0
LINE
  8
0
 62
7
  6
CONTINUOUS
 10
151.1924917523
 20
31.5294468267
 11
150.9612418074
 21
31.5939741996
  0
LINE
  8
0
 62
7
  6
CONTINUOUS
 10
154.5456166972
 20
30.7228545871
 11
154.3143669177
 21
30.7873819712
  0
LINE
  8
0
 62
7
  6
CONTINUOUS
 10
153.2737419177
 20
31.5294468267
 11
153.1003044177
 21
31.5939741996
  0
LINE
  8
0
 62
7
  6
CONTINUOUS
 10
155.5284290869
 20
31.5294468267
 11
155.3549915869
 21
31.5939741996
  0
LINE
  8
0
 62
7
  6
CONTINUOUS
 10
158.187804528
 20
31.4326557675
 11
158.3034290869
 21
31.3681283946
  0
LINE
  8
0
 62
7
  6
CONTINUOUS
 10
158.534679528
 20
31.4649194539
 11
158.4190543074
 21
31.5294468267
  0
LINE
  8
0
 62
7
  6
CONTINUOUS
 10
150.0362418212
 20
30.6583272086
 11
150.2096793212
 21
30.6260635193
  0
LINE
  8
0
 62
7
  6
CONTINUOUS
 10
150.498741835
 20
30.7228545871
 11
150.1518667936
 21
30.7873819712
  0
LINE
  8
0
 62
7
  6
CONTINUOUS
 10
152.9268669177
 20
31.4649194539
 11
153.0424918074
 21
31.4326557675
  0
LINE
  8
0
 62
7
  6
CONTINUOUS
 10
155.239367028
 20
31.4649194539
 11
155.3549915869
 21
31.4326557675
  0
LINE
  8
0
 62
7
  6
CONTINUOUS
 10
159.575304528
 20
30.7551182848
 11
159.4596793074
 21
30.7873819712
  0
LINE
  8
0
 62
7
  6
CONTINUOUS
 10
158.0721793074
 20
31.4649194539
 11
158.187804528
 21
31.4326557675
  0
LINE
  8
0
 62
7
  6
CONTINUOUS
 10
159.228429528
 20
30.7228545871
 11
159.401867028
 21
30.6583272086
  0
LINE
  8
0
 62
7
  6
CONTINUOUS
 10
158.4190543074
 20
31.5294468267
 11
158.2456168074
 21
31.5939741996
  0
LINE
  8
0
 62
7
  6
CONTINUOUS
 10
159.6331168074
 20
31.2390736489
 11
159.4596793074
 21
31.3036010218
  0
LINE
  8
0
 62
7
  6
CONTINUOUS
 10
160.442492028
 20
30.9809641124
 11
160.615929528
 21
30.9164367395
  0
LINE
  8
0
 62
7
  6
CONTINUOUS
 10
160.8471793074
 20
31.4971831403
 11
160.6737418074
 21
31.5617105132
  0
LINE
  8
0
 62
7
  6
CONTINUOUS
 10
159.228429528
 20
31.2390736489
 11
159.4596793074
 21
31.1422825445
  0
LINE
  8
0
 62
7
  6
CONTINUOUS
 10
160.8471793074
 20
30.9809641124
 11
160.615929528
 21
31.0777551716
  0
LINE
  8
0
 62
7
  6
CONTINUOUS
 10
159.401867028
 20
31.3681283946
 11
159.4596793074
 21
31.4326557675
  0
LINE
  8
0
 62
7
  6
CONTINUOUS
 10
149.8628043005
 20
31.4971831403
 11
149.7471793074
 21
31.4326557675
  0
LINE
  8
0
 62
7
  6
CONTINUOUS
 10
149.9784292936
 20
31.3358647082
 11
150.1518667936
 21
31.4326557675
  0
LINE
  8
0
 62
7
  6
CONTINUOUS
 10
152.2909293626
 20
31.5294468267
 11
152.1753043074
 21
31.4649194539
  0
LINE
  8
0
 62
7
  6
CONTINUOUS
 10
152.1753043074
 20
31.3358647082
 11
152.2909293626
 21
31.400392081
  0
LINE
  8
0
 62
7
  6
CONTINUOUS
 10
151.1924917523
 20
30.6905909007
 11
151.3659292523
 21
30.7873819712
  0
LINE
  8
0
 62
7
  6
CONTINUOUS
 10
150.2096793212
 20
30.6260635193
 11
150.5565542799
 21
30.5937998301
  0
LINE
  8
0
 62
7
  6
CONTINUOUS
 10
154.3143669177
 20
30.6260635193
 11
154.5456166972
 21
30.5937998301
  0
LINE
  8
0
 62
7
  6
CONTINUOUS
 10
152.6956168074
 20
31.4971831403
 11
152.9268669177
 21
31.4649194539
  0
LINE
  8
0
 62
7
  6
CONTINUOUS
 10
155.0081169177
 20
31.4971831403
 11
155.239367028
 21
31.4649194539
  0
LINE
  8
0
 62
7
  6
CONTINUOUS
 10
159.4596793074
 20
31.1422825445
 11
160.442492028
 21
30.9809641124
  0
LINE
  8
0
 62
7
  6
CONTINUOUS
 10
160.615929528
 20
31.0777551716
 11
159.6331168074
 21
31.2390736489
  0
LINE
  8
0
 62
7
  6
CONTINUOUS
 10
153.1003044177
 20
31.5939741996
 11
152.9268669177
 21
31.626237886
  0
LINE
  8
0
 62
7
  6
CONTINUOUS
 10
159.401867028
 20
30.6583272086
 11
159.575304528
 21
30.6260635193
  0
LINE
  8
0
 62
7
  6
CONTINUOUS
 10
158.2456168074
 20
31.5939741996
 11
158.0721793074
 21
31.626237886
  0
LINE
  8
0
 62
7
  6
CONTINUOUS
 10
160.5003043074
 20
31.4649194539
 11
160.615929528
 21
31.4326557675
  0
LINE
  8
0
 62
7
  6
CONTINUOUS
 10
160.6737418074
 20
30.8519093441
 11
160.615929528
 21
30.7873819712
  0
LINE
  8
0
 62
7
  6
CONTINUOUS
 10
159.228429528
 20
31.5294468267
 11
159.1128043074
 21
31.4326557675
  0
LINE
  8
0
 62
7
  6
CONTINUOUS
 10
154.1409294177
 20
31.5617105132
 11
154.0253041972
 21
31.4971831403
  0
LINE
  8
0
 62
7
  6
CONTINUOUS
 10
154.1987416972
 20
31.1745462761
 11
154.0831168074
 21
31.1100188581
  0
LINE
  8
0
 62
7
  6
CONTINUOUS
 10
154.3143669177
 20
31.0132277988
 11
154.4299918074
 21
31.0777551716
  0
LINE
  8
0
 62
7
  6
CONTINUOUS
 10
151.8862417523
 20
30.5937998301
 11
152.1753043074
 21
30.5937998301
  0
LINE
  8
0
 62
7
  6
CONTINUOUS
 10
153.2159293074
 20
30.5937998301
 11
153.5049916972
 21
30.5937998301
  0
LINE
  8
0
 62
7
  6
CONTINUOUS
 10
154.5456166972
 20
30.5937998301
 11
154.8924916972
 21
30.5937998301
  0
LINE
  8
0
 62
7
  6
CONTINUOUS
 10
155.5284290869
 20
30.5937998301
 11
155.8174918074
 21
30.5937998301
  0
LINE
  8
0
 62
7
  6
CONTINUOUS
 10
156.279992028
 20
30.5937998301
 11
156.5690540869
 21
30.5937998301
  0
LINE
  8
0
 62
7
  6
CONTINUOUS
 10
157.0315543074
 20
30.5937998301
 11
157.320617028
 21
30.5937998301
  0
LINE
  8
0
 62
7
  6
CONTINUOUS
 10
158.361242028
 20
30.5937998301
 11
158.6503040869
 21
30.5937998301
  0
LINE
  8
0
 62
7
  6
CONTINUOUS
 10
159.922179528
 20
30.5937998301
 11
160.269054528
 21
30.5937998301
  0
LINE
  8
0
 62
7
  6
CONTINUOUS
 10
160.269054528
 20
30.7228545871
 11
159.922179528
 21
30.7228545871
  0
LINE
  8
0
 62
7
  6
CONTINUOUS
 10
154.8924916972
 20
30.7228545871
 11
154.5456166972
 21
30.7228545871
  0
LINE
  8
0
 62
7
  6
CONTINUOUS
 10
159.401867028
 20
30.8519093441
 11
159.1128043074
 21
30.8519093441
  0
LINE
  8
0
 62
7
  6
CONTINUOUS
 10
151.4237418626
 20
30.9164367395
 11
151.1346793074
 21
30.9164367395
  0
LINE
  8
0
 62
7
  6
CONTINUOUS
 10
150.498741835
 20
31.4971831403
 11
150.9034292799
 21
31.4649194539
  0
LINE
  8
0
 62
7
  6
CONTINUOUS
 10
150.9612418074
 20
31.5939741996
 11
150.5565542799
 21
31.626237886
  0
LINE
  8
0
 62
7
  6
CONTINUOUS
 10
159.575304528
 20
30.6260635193
 11
159.922179528
 21
30.5937998301
  0
LINE
  8
0
 62
7
  6
CONTINUOUS
 10
159.922179528
 20
30.7228545871
 11
159.575304528
 21
30.7551182848
  0
LINE
  8
0
 62
7
  6
CONTINUOUS
 10
155.3549915869
 20
31.5939741996
 11
155.0081169177
 21
31.626237886
  0
LINE
  8
0
 62
7
  6
CONTINUOUS
 10
160.1534293074
 20
31.4971831403
 11
160.5003043074
 21
31.4649194539
  0
LINE
  8
0
 62
7
  6
CONTINUOUS
 10
160.5003043074
 20
31.5939741996
 11
160.1534293074
 21
31.626237886
  0
LINE
  8
0
 62
7
  6
CONTINUOUS
 10
157.840929528
 20
31.4971831403
 11
158.0721793074
 21
31.4649194539
  0
LINE
  8
0
 62
7
  6
CONTINUOUS
 10
160.6737418074
 20
31.5617105132
 11
160.5003043074
 21
31.5939741996
  0
LINE
  8
0
 62
7
  6
CONTINUOUS
 10
160.8471793074
 20
30.6905909007
 11
160.9628038663
 21
30.7873819712
  0
LINE
  8
0
 62
7
  6
CONTINUOUS
 10
155.3549915869
 20
30.8841730531
 11
155.1815540869
 21
30.7873819712
  0
LINE
  8
0
 62
7
  6
CONTINUOUS
 10
157.4362415869
 20
31.5294468267
 11
157.320617028
 21
31.4649194539
  0
LINE
  8
0
 62
7
  6
CONTINUOUS
 10
157.320617028
 20
31.3358647082
 11
157.4362415869
 21
31.400392081
  0
LINE
  8
0
 62
7
  6
CONTINUOUS
 10
150.0362418212
 20
31.5617105132
 11
149.8628043005
 21
31.4971831403
  0
LINE
  8
0
 62
7
  6
CONTINUOUS
 10
152.4643666972
 20
31.5939741996
 11
152.2909293626
 21
31.5294468267
  0
LINE
  8
0
 62
7
  6
CONTINUOUS
 10
152.2909293626
 20
31.400392081
 11
152.4643666972
 21
31.4649194539
  0
LINE
  8
0
 62
7
  6
CONTINUOUS
 10
151.0768668626
 20
30.8196456577
 11
150.9034292799
 21
30.7551182848
  0
LINE
  8
0
 62
7
  6
CONTINUOUS
 10
160.5003043074
 20
30.7551182848
 11
160.269054528
 21
30.7228545871
  0
LINE
  8
0
 62
7
  6
CONTINUOUS
 10
154.8924916972
 20
30.5937998301
 11
155.1815540869
 21
30.6260635193
  0
LINE
  8
0
 62
7
  6
CONTINUOUS
 10
160.269054528
 20
30.5937998301
 11
160.615929528
 21
30.6260635193
  0
LINE
  8
0
 62
7
  6
CONTINUOUS
 10
150.5565542799
 20
30.5937998301
 11
150.9612418074
 21
30.6260635193
  0
LINE
  8
0
 62
7
  6
CONTINUOUS
 10
150.9034292799
 20
30.7551182848
 11
150.498741835
 21
30.7228545871
  0
LINE
  8
0
 62
7
  6
CONTINUOUS
 10
154.7768668074
 20
31.1422825445
 11
155.412804528
 21
31.1422825445
  0
LINE
  8
0
 62
7
  6
CONTINUOUS
 10
155.412804528
 20
31.2713373354
 11
154.7768668074
 21
31.2713373354
  0
LINE
  8
0
 62
7
  6
CONTINUOUS
 10
151.1346793074
 20
31.3036010218
 11
151.4237418626
 21
31.3036010218
  0
LINE
  8
0
 62
7
  6
CONTINUOUS
 10
153.9674919177
 20
31.3681283946
 11
154.2565543074
 21
31.3681283946
  0
LINE
  8
0
 62
7
  6
CONTINUOUS
 10
160.6737418074
 20
31.3681283946
 11
160.9628038663
 21
31.3681283946
  0
LINE
  8
0
 62
7
  6
CONTINUOUS
 10
154.6612419177
 20
31.4971831403
 11
155.0081169177
 21
31.4971831403
  0
LINE
  8
0
 62
7
  6
CONTINUOUS
 10
159.8065543074
 20
31.4971831403
 11
160.1534293074
 21
31.4971831403
  0
LINE
  8
0
 62
7
  6
CONTINUOUS
 10
160.1534293074
 20
31.626237886
 11
159.8065543074
 21
31.626237886
  0
LINE
  8
0
 62
7
  6
CONTINUOUS
 10
158.0721793074
 20
31.626237886
 11
157.840929528
 21
31.626237886
  0
LINE
  8
0
 62
7
  6
CONTINUOUS
 10
157.320617028
 20
31.626237886
 11
157.0315543074
 21
31.626237886
  0
LINE
  8
0
 62
7
  6
CONTINUOUS
 10
156.5690540869
 20
31.626237886
 11
156.279992028
 21
31.626237886
  0
LINE
  8
0
 62
7
  6
CONTINUOUS
 10
155.0081169177
 20
31.626237886
 11
154.6612419177
 21
31.626237886
  0
LINE
  8
0
 62
7
  6
CONTINUOUS
 10
152.9268669177
 20
31.626237886
 11
152.6956168074
 21
31.626237886
  0
LINE
  8
0
 62
7
  6
CONTINUOUS
 10
156.279992028
 20
31.9488748406
 11
156.5690540869
 21
31.9488748406
  0
LINE
  8
0
 62
7
  6
CONTINUOUS
 10
156.5690540869
 20
32.1101932727
 11
156.279992028
 21
32.1101932727
  0
LINE
  8
0
 62
7
  6
CONTINUOUS
 10
152.1753043074
 20
32.1101932727
 11
151.8862417523
 21
32.1101932727
  0
LINE
  8
0
 62
7
  6
CONTINUOUS
 10
151.2130860697
 20
32.3970785186
 11
151.6256574183
 21
32.3970785186
  0
LINE
  8
0
 62
7
  6
CONTINUOUS
 10
152.852430332
 20
32.3970785186
 11
154.245872955
 21
32.3970785186
  0
LINE
  8
0
 62
7
  6
CONTINUOUS
 10
154.5737418074
 20
32.3970785186
 11
155.9671844304
 21
32.3970785186
  0
LINE
  8
0
 62
7
  6
CONTINUOUS
 10
157.852430332
 20
32.3970785186
 11
159.245872955
 21
32.3970785186
  0
LINE
  8
0
 62
7
  6
CONTINUOUS
 10
159.5737418074
 20
32.3970785186
 11
160.9671844304
 21
32.3970785186
  0
LINE
  8
0
 62
7
  6
CONTINUOUS
 10
157.6096790869
 20
31.5939741996
 11
157.4362415869
 21
31.5294468267
  0
LINE
  8
0
 62
7
  6
CONTINUOUS
 10
155.1815540869
 20
30.6260635193
 11
155.3549915869
 21
30.6905909007
  0
LINE
  8
0
 62
7
  6
CONTINUOUS
 10
160.615929528
 20
30.6260635193
 11
160.8471793074
 21
30.6905909007
  0
LINE
  8
0
 62
7
  6
CONTINUOUS
 10
160.615929528
 20
30.7873819712
 11
160.5003043074
 21
30.7551182848
  0
LINE
  8
0
 62
7
  6
CONTINUOUS
 10
159.575304528
 20
31.4649194539
 11
159.8065543074
 21
31.4971831403
  0
LINE
  8
0
 62
7
  6
CONTINUOUS
 10
157.6096790869
 20
31.4649194539
 11
157.840929528
 21
31.4971831403
  0
LINE
  8
0
 62
7
  6
CONTINUOUS
 10
154.5456166972
 20
31.1100188581
 11
154.7768668074
 21
31.1422825445
  0
LINE
  8
0
 62
7
  6
CONTINUOUS
 10
157.840929528
 20
31.626237886
 11
157.6096790869
 21
31.5939741996
  0
LINE
  8
0
 62
7
  6
CONTINUOUS
 10
154.4299918074
 20
31.4649194539
 11
154.6612419177
 21
31.4971831403
  0
LINE
  8
0
 62
7
  6
CONTINUOUS
 10
159.8065543074
 20
31.626237886
 11
159.4596793074
 21
31.5939741996
  0
LINE
  8
0
 62
7
  6
CONTINUOUS
 10
154.7768668074
 20
31.2713373354
 11
154.4299918074
 21
31.2390736489
  0
LINE
  8
0
 62
7
  6
CONTINUOUS
 10
150.5565542799
 20
31.626237886
 11
150.2096793212
 21
31.5939741996
  0
LINE
  8
0
 62
7
  6
CONTINUOUS
 10
154.6612419177
 20
31.626237886
 11
154.2565543074
 21
31.5939741996
  0
LINE
  8
0
 62
7
  6
CONTINUOUS
 10
152.0327582009
 20
33.5446195022
 11
151.3770204959
 21
33.5446195022
  0
LINE
  8
0
 62
7
  6
CONTINUOUS
 10
157.4362415869
 20
31.400392081
 11
157.6096790869
 21
31.4649194539
  0
LINE
  8
0
 62
7
  6
CONTINUOUS
 10
159.4596793074
 20
31.4326557675
 11
159.575304528
 21
31.4649194539
  0
LINE
  8
0
 62
7
  6
CONTINUOUS
 10
159.4596793074
 20
31.5939741996
 11
159.228429528
 21
31.5294468267
  0
LINE
  8
0
 62
7
  6
CONTINUOUS
 10
155.1815540869
 20
30.7873819712
 11
154.8924916972
 21
30.7228545871
  0
LINE
  8
0
 62
7
  6
CONTINUOUS
 10
152.4643666972
 20
31.4649194539
 11
152.6956168074
 21
31.4971831403
  0
LINE
  8
0
 62
7
  6
CONTINUOUS
 10
152.6956168074
 20
31.626237886
 11
152.4643666972
 21
31.5939741996
  0
LINE
  8
0
 62
7
  6
CONTINUOUS
 10
150.2674918074
 20
31.4649194539
 11
150.498741835
 21
31.4971831403
  0
LINE
  8
0
 62
7
  6
CONTINUOUS
 10
156.7868565615
 20
35.0200293383
 11
157.4425942664
 21
35.0200293383
  0
LINE
  8
0
 62
7
  6
CONTINUOUS
 10
154.4299918074
 20
31.0777551716
 11
154.5456166972
 21
31.1100188581
  0
LINE
  8
0
 62
7
  6
CONTINUOUS
 10
154.4299918074
 20
31.2390736489
 11
154.1987416972
 21
31.1745462761
  0
LINE
  8
0
 62
7
  6
CONTINUOUS
 10
154.3143669177
 20
31.4326557675
 11
154.4299918074
 21
31.4649194539
  0
LINE
  8
0
 62
7
  6
CONTINUOUS
 10
150.9612418074
 20
30.6260635193
 11
151.1924917523
 21
30.6905909007
  0
LINE
  8
0
 62
7
  6
CONTINUOUS
 10
154.2565543074
 20
31.5939741996
 11
154.1409294177
 21
31.5617105132
  0
LINE
  8
0
 62
7
  6
CONTINUOUS
 10
150.2096793212
 20
31.5939741996
 11
150.0362418212
 21
31.5617105132
  0
LINE
  8
0
 62
7
  6
CONTINUOUS
 10
160.9671844304
 20
36.1675703219
 11
159.5737418074
 21
36.1675703219
  0
LINE
  8
0
 62
7
  6
CONTINUOUS
 10
157.6065286927
 20
36.1675703219
 11
157.1939573441
 21
36.1675703219
  0
LINE
  8
0
 62
7
  6
CONTINUOUS
 10
155.9671844304
 20
36.1675703219
 11
154.5737418074
 21
36.1675703219
  0
LINE
  8
0
 62
7
  6
CONTINUOUS
 10
154.245872955
 20
36.1675703219
 11
152.852430332
 21
36.1675703219
  0
LINE
  8
0
 62
7
  6
CONTINUOUS
 10
150.9671844304
 20
36.1675703219
 11
149.5737418074
 21
36.1675703219
  0
LINE
  8
0
 62
7
  6
CONTINUOUS
 10
150.1518667936
 20
31.4326557675
 11
150.2674918074
 21
31.4649194539
  0
CIRCLE
  8
0
 62
7
  6
CONTINUOUS
 10
160.2704631189
 20
38.5036358957
 40
2.0901639344
  0
ARC
  8
0
 62
7
  6
CONTINUOUS
 10
151.2130860697
 20
34.0364227809
 40
1.6393442623
 50
180.0
 51
270.0
  0
ARC
  8
0
 62
7
  6
CONTINUOUS
 10
157.6065286927
 20
34.5282260596
 40
1.6393442623
 50
0.0
 51
90.0
  0
ARC
  8
0
 62
7
  6
CONTINUOUS
 10
151.6256574183
 20
33.8724883547
 40
1.4754098361
 50
270.0
 51
326.2510114041
  0
ARC
  8
0
 62
7
  6
CONTINUOUS
 10
157.1939573441
 20
34.6921604858
 40
1.4754098361
 50
90.0
 51
146.2510114041
  0
ARC
  8
0
 62
7
  6
CONTINUOUS
 10
152.0327582009
 20
34.3642916334
 40
0.8196721311
 50
270.0
 51
360.0
  0
ARC
  8
0
 62
7
  6
CONTINUOUS
 10
156.7868565615
 20
34.2003572071
 40
0.8196721311
 50
90.0
 51
180.0
  0
ARC
  8
0
 62
7
  6
CONTINUOUS
 10
151.3770204959
 20
33.9544555678
 40
0.4098360656
 50
180.0
 51
270.0
  0
ARC
  8
0
 62
7
  6
CONTINUOUS
 10
157.4425942664
 20
34.6101932727
 40
0.4098360656
 50
0.0
 51
90.0
  0
SOLID
  8
0
 62
7
  6
CONTINUOUS
 10
156.279992028
 20
31.9488752009
 11
156.279992028
 21
32.1101936845
 12
156.5690540869
 22
31.9488752009
 13
156.5690540869
 23
32.1101936845
  0
SOLID
  8
0
 62
7
  6
CONTINUOUS
 10
150.5565542799
 20
31.6262382337
 11
150.9612418074
 21
31.5939740028
 12
150.2096793212
 22
31.5939740028
 13
150.2096793212
 23
31.5939740028
  0
SOLID
  8
0
 62
7
  6
CONTINUOUS
 10
150.0362418212
 20
31.5617111435
 11
150.2096793212
 21
31.5939740028
 12
150.9612418074
 22
31.5939740028
 13
150.9612418074
 23
31.5939740028
  0
SOLID
  8
0
 62
7
  6
CONTINUOUS
 10
150.9612418074
 20
31.5939740028
 11
151.1924917523
 21
31.5294468402
 12
150.0362418212
 22
31.5617111435
 13
150.0362418212
 23
31.5617111435
  0
SOLID
  8
0
 62
7
  6
CONTINUOUS
 10
149.8628043005
 20
31.49718259
 11
150.0362418212
 21
31.5617111435
 12
151.1924917523
 22
31.5294468402
 13
151.1924917523
 23
31.5294468402
  0
SOLID
  8
0
 62
7
  6
CONTINUOUS
 10
149.8628043005
 20
31.49718259
 11
151.1924917523
 21
31.5294468402
 12
150.498741835
 22
31.49718259
 13
150.498741835
 23
31.49718259
  0
SOLID
  8
0
 62
7
  6
CONTINUOUS
 10
150.498741835
 20
31.49718259
 11
151.1924917523
 21
31.5294468402
 12
150.9034292799
 22
31.4649197501
 13
150.9034292799
 23
31.4649197501
  0
SOLID
  8
0
 62
7
  6
CONTINUOUS
 10
151.1924917523
 20
31.5294468402
 11
151.3659292523
 21
31.4326554468
 12
150.9034292799
 22
31.4649197501
 13
150.9034292799
 23
31.4649197501
  0
SOLID
  8
0
 62
7
  6
CONTINUOUS
 10
151.0768668626
 20
31.4003926599
 11
150.9034292799
 21
31.4649197501
 12
151.3659292523
 22
31.4326554468
 13
151.3659292523
 23
31.4326554468
  0
SOLID
  8
0
 62
7
  6
CONTINUOUS
 10
151.0768668626
 20
31.4003926599
 11
151.3659292523
 21
31.4326554468
 12
151.1346793074
 22
31.3036013776
 13
151.1346793074
 23
31.3036013776
  0
SOLID
  8
0
 62
7
  6
CONTINUOUS
 10
151.3659292523
 20
31.4326554468
 11
151.4237418626
 21
31.3036013776
 12
151.1346793074
 22
31.3036013776
 13
151.1346793074
 23
31.3036013776
  0
SOLID
  8
0
 62
7
  6
CONTINUOUS
 10
152.4643666972
 20
31.5939739754
 11
152.6956168074
 21
31.6262382787
 12
152.9268669177
 22
31.6262382787
 13
152.9268669177
 23
31.6262382787
  0
SOLID
  8
0
 62
7
  6
CONTINUOUS
 10
152.9268669177
 20
31.6262382787
 11
153.1003044177
 21
31.5939739754
 12
152.4643666972
 22
31.5939739754
 13
152.4643666972
 23
31.5939739754
  0
SOLID
  8
0
 62
7
  6
CONTINUOUS
 10
152.2909293626
 20
31.5294468852
 11
152.4643666972
 21
31.5939739754
 12
153.1003044177
 22
31.5939739754
 13
153.1003044177
 23
31.5939739754
  0
SOLID
  8
0
 62
7
  6
CONTINUOUS
 10
153.1003044177
 20
31.5939739754
 11
153.2737419177
 21
31.5294468852
 12
152.2909293626
 22
31.5294468852
 13
152.2909293626
 23
31.5294468852
  0
SOLID
  8
0
 62
7
  6
CONTINUOUS
 10
153.2737419177
 20
31.5294468852
 11
152.6956168074
 21
31.4971825369
 12
152.2909293626
 22
31.5294468852
 13
152.2909293626
 23
31.5294468852
  0
SOLID
  8
0
 62
7
  6
CONTINUOUS
 10
152.1753043074
 20
31.4649197951
 11
152.2909293626
 21
31.5294468852
 12
152.6956168074
 22
31.4971825369
 13
152.6956168074
 23
31.4971825369
  0
SOLID
  8
0
 62
7
  6
CONTINUOUS
 10
152.6956168074
 20
31.4971825369
 11
152.4643666972
 21
31.4649197951
 12
152.1753043074
 22
31.4649197951
 13
152.1753043074
 23
31.4649197951
  0
SOLID
  8
0
 62
7
  6
CONTINUOUS
 10
152.6956168074
 20
31.4971825369
 11
153.2737419177
 21
31.5294468852
 12
152.9268669177
 22
31.4649197951
 13
152.9268669177
 23
31.4649197951
  0
SOLID
  8
0
 62
7
  6
CONTINUOUS
 10
153.2737419177
 20
31.5294468852
 11
153.3893668074
 21
31.4649197951
 12
152.9268669177
 22
31.4649197951
 13
152.9268669177
 23
31.4649197951
  0
SOLID
  8
0
 62
7
  6
CONTINUOUS
 10
153.0424918074
 20
31.4326554468
 11
152.9268669177
 21
31.4649197951
 12
153.3893668074
 22
31.4649197951
 13
153.3893668074
 23
31.4649197951
  0
SOLID
  8
0
 62
7
  6
CONTINUOUS
 10
153.3893668074
 20
31.4649197951
 11
153.4471794177
 21
31.4003927049
 12
153.0424918074
 22
31.4326554468
 13
153.0424918074
 23
31.4326554468
  0
SOLID
  8
0
 62
7
  6
CONTINUOUS
 10
153.1581166972
 20
31.3681283566
 11
153.0424918074
 21
31.4326554468
 12
153.4471794177
 22
31.4003927049
 13
153.4471794177
 23
31.4003927049
  0
SOLID
  8
0
 62
7
  6
CONTINUOUS
 10
153.1581166972
 20
31.3681283566
 11
153.4471794177
 21
31.4003927049
 12
153.2159293074
 22
31.2390742213
 13
153.2159293074
 23
31.2390742213
  0
SOLID
  8
0
 62
7
  6
CONTINUOUS
 10
153.4471794177
 20
31.4003927049
 11
153.5049916972
 21
31.2390742213
 12
153.2159293074
 22
31.2390742213
 13
153.2159293074
 23
31.2390742213
  0
SOLID
  8
0
 62
7
  6
CONTINUOUS
 10
152.4643666972
 20
31.4649197951
 11
152.2909293626
 21
31.4003927049
 12
152.1753043074
 22
31.4649197951
 13
152.1753043074
 23
31.4649197951
  0
SOLID
  8
0
 62
7
  6
CONTINUOUS
 10
152.2909293626
 20
31.4003927049
 11
152.1753043074
 21
31.3358640533
 12
152.1753043074
 22
31.4649197951
 13
152.1753043074
 23
31.4649197951
  0
SOLID
  8
0
 62
7
  6
CONTINUOUS
 10
152.1753043074
 20
31.3358640533
 11
151.8862417523
 21
30.5938002869
 12
152.1753043074
 22
31.4649197951
 13
152.1753043074
 23
31.4649197951
  0
SOLID
  8
0
 62
7
  6
CONTINUOUS
 10
152.1753043074
 20
31.4649197951
 11
151.8862417523
 21
30.5938002869
 12
152.1753043074
 22
32.1101937295
 13
152.1753043074
 23
32.1101937295
  0
SOLID
  8
0
 62
7
  6
CONTINUOUS
 10
151.8862417523
 20
30.5938002869
 11
151.8862417523
 21
32.1101937295
 12
152.1753043074
 22
32.1101937295
 13
152.1753043074
 23
32.1101937295
  0
SOLID
  8
0
 62
7
  6
CONTINUOUS
 10
152.1753043074
 20
31.3358640533
 11
152.1753043074
 21
30.5938002869
 12
151.8862417523
 22
30.5938002869
 13
151.8862417523
 23
30.5938002869
  0
SOLID
  8
0
 62
7
  6
CONTINUOUS
 10
153.2159293074
 20
30.5938002869
 11
153.2159293074
 21
31.2390742213
 12
153.5049916972
 22
31.2390742213
 13
153.5049916972
 23
31.2390742213
  0
SOLID
  8
0
 62
7
  6
CONTINUOUS
 10
153.5049916972
 20
31.2390742213
 11
153.5049916972
 21
30.5938002869
 12
153.2159293074
 22
30.5938002869
 13
153.2159293074
 23
30.5938002869
  0
SOLID
  8
0
 62
7
  6
CONTINUOUS
 10
154.2565543074
 20
31.5939738288
 11
154.6612419177
 21
31.6262385959
 12
155.0081169177
 22
31.6262385959
 13
155.0081169177
 23
31.6262385959
  0
SOLID
  8
0
 62
7
  6
CONTINUOUS
 10
155.0081169177
 20
31.6262385959
 11
155.3549915869
 21
31.5939738288
 12
154.2565543074
 22
31.5939738288
 13
154.2565543074
 23
31.5939738288
  0
SOLID
  8
0
 62
7
  6
CONTINUOUS
 10
154.1409294177
 20
31.5617111435
 11
154.2565543074
 21
31.5939738288
 12
155.3549915869
 22
31.5939738288
 13
155.3549915869
 23
31.5939738288
  0
SOLID
  8
0
 62
7
  6
CONTINUOUS
 10
155.3549915869
 20
31.5939738288
 11
155.5284290869
 21
31.5294468402
 12
154.1409294177
 22
31.5617111435
 13
154.1409294177
 23
31.5617111435
  0
SOLID
  8
0
 62
7
  6
CONTINUOUS
 10
154.0253041972
 20
31.4971826249
 11
154.1409294177
 21
31.5617111435
 12
155.5284290869
 22
31.5294468402
 13
155.5284290869
 23
31.5294468402
  0
SOLID
  8
0
 62
7
  6
CONTINUOUS
 10
154.0253041972
 20
31.4971826249
 11
155.5284290869
 21
31.5294468402
 12
154.6612419177
 22
31.4971826249
 13
154.6612419177
 23
31.4971826249
  0
SOLID
  8
0
 62
7
  6
CONTINUOUS
 10
154.6612419177
 20
31.4971826249
 11
155.5284290869
 21
31.5294468402
 12
155.0081169177
 22
31.4971826249
 13
155.0081169177
 23
31.4971826249
  0
SOLID
  8
0
 62
7
  6
CONTINUOUS
 10
155.0081169177
 20
31.4971826249
 11
155.5284290869
 21
31.5294468402
 12
155.239367028
 22
31.4649194065
 13
155.239367028
 23
31.4649194065
  0
SOLID
  8
0
 62
7
  6
CONTINUOUS
 10
155.5284290869
 20
31.5294468402
 11
155.6440543074
 21
31.4649194065
 12
155.239367028
 22
31.4649194065
 13
155.239367028
 23
31.4649194065
  0
SOLID
  8
0
 62
7
  6
CONTINUOUS
 10
153.9674919177
 20
31.4326554138
 11
154.0253041972
 21
31.4971826249
 12
154.6612419177
 22
31.4971826249
 13
154.6612419177
 23
31.4971826249
  0
SOLID
  8
0
 62
7
  6
CONTINUOUS
 10
155.3549915869
 20
31.4326554138
 11
155.239367028
 21
31.4649194065
 12
155.6440543074
 22
31.4649194065
 13
155.6440543074
 23
31.4649194065
  0
SOLID
  8
0
 62
7
  6
CONTINUOUS
 10
155.3549915869
 20
31.4326554138
 11
155.6440543074
 21
31.4649194065
 12
155.412804528
 22
31.3681282026
 13
155.412804528
 23
31.3681282026
  0
SOLID
  8
0
 62
7
  6
CONTINUOUS
 10
155.6440543074
 20
31.4649194065
 11
155.7018665869
 21
31.3681282026
 12
155.412804528
 22
31.3681282026
 13
155.412804528
 23
31.3681282026
  0
SOLID
  8
0
 62
7
  6
CONTINUOUS
 10
155.412804528
 20
31.2713369632
 11
155.412804528
 21
31.3681282026
 12
155.7018665869
 22
31.3681282026
 13
155.7018665869
 23
31.3681282026
  0
SOLID
  8
0
 62
7
  6
CONTINUOUS
 10
155.412804528
 20
31.2713369632
 11
155.7018665869
 21
31.3681282026
 12
155.412804528
 22
31.1422827828
 13
155.412804528
 23
31.1422827828
  0
SOLID
  8
0
 62
7
  6
CONTINUOUS
 10
155.412804528
 20
31.1422827828
 11
155.7018665869
 21
31.3681282026
 12
155.412804528
 22
30.9487004259
 13
155.412804528
 23
30.9487004259
  0
SOLID
  8
0
 62
7
  6
CONTINUOUS
 10
155.7018665869
 20
31.3681282026
 11
155.7018665869
 21
30.8519086025
 12
155.412804528
 22
30.9487004259
 13
155.412804528
 23
30.9487004259
  0
SOLID
  8
0
 62
7
  6
CONTINUOUS
 10
157.6096790869
 20
31.5939736268
 11
157.840929528
 21
31.6262383465
 12
158.0721793074
 22
31.6262383465
 13
158.0721793074
 23
31.6262383465
  0
SOLID
  8
0
 62
7
  6
CONTINUOUS
 10
158.0721793074
 20
31.6262383465
 11
158.2456168074
 21
31.5939736268
 12
157.6096790869
 22
31.5939736268
 13
157.6096790869
 23
31.5939736268
  0
SOLID
  8
0
 62
7
  6
CONTINUOUS
 10
157.4362415869
 20
31.5294472848
 11
157.6096790869
 21
31.5939736268
 12
158.2456168074
 22
31.5939736268
 13
158.2456168074
 23
31.5939736268
  0
SOLID
  8
0
 62
7
  6
CONTINUOUS
 10
158.2456168074
 20
31.5939736268
 11
158.4190543074
 21
31.5294472848
 12
157.4362415869
 22
31.5294472848
 13
157.4362415869
 23
31.5294472848
  0
SOLID
  8
0
 62
7
  6
CONTINUOUS
 10
158.4190543074
 20
31.5294472848
 11
157.840929528
 21
31.4971825369
 12
157.4362415869
 22
31.5294472848
 13
157.4362415869
 23
31.5294472848
  0
SOLID
  8
0
 62
7
  6
CONTINUOUS
 10
157.320617028
 20
31.4649199103
 11
157.4362415869
 21
31.5294472848
 12
157.840929528
 22
31.4971825369
 13
157.840929528
 23
31.4971825369
  0
SOLID
  8
0
 62
7
  6
CONTINUOUS
 10
157.840929528
 20
31.4971825369
 11
157.6096790869
 21
31.4649199103
 12
157.320617028
 22
31.4649199103
 13
157.320617028
 23
31.4649199103
  0
SOLID
  8
0
 62
7
  6
CONTINUOUS
 10
157.840929528
 20
31.4971825369
 11
158.4190543074
 21
31.5294472848
 12
158.0721793074
 22
31.4649199103
 13
158.0721793074
 23
31.4649199103
  0
SOLID
  8
0
 62
7
  6
CONTINUOUS
 10
158.4190543074
 20
31.5294472848
 11
158.534679528
 21
31.4649199103
 12
158.0721793074
 22
31.4649199103
 13
158.0721793074
 23
31.4649199103
  0
SOLID
  8
0
 62
7
  6
CONTINUOUS
 10
158.187804528
 20
31.4326554468
 11
158.0721793074
 21
31.4649199103
 12
158.534679528
 22
31.4649199103
 13
158.534679528
 23
31.4649199103
  0
SOLID
  8
0
 62
7
  6
CONTINUOUS
 10
158.187804528
 20
31.4326554468
 11
158.534679528
 21
31.4649199103
 12
158.3034290869
 22
31.3681288486
 13
158.3034290869
 23
31.3681288486
  0
SOLID
  8
0
 62
7
  6
CONTINUOUS
 10
158.534679528
 20
31.4649199103
 11
158.5924918074
 21
31.3681288486
 12
158.3034290869
 22
31.3681288486
 13
158.3034290869
 23
31.3681288486
  0
SOLID
  8
0
 62
7
  6
CONTINUOUS
 10
158.361242028
 20
31.2068093799
 11
158.3034290869
 21
31.3681288486
 12
158.5924918074
 22
31.3681288486
 13
158.5924918074
 23
31.3681288486
  0
SOLID
  8
0
 62
7
  6
CONTINUOUS
 10
158.5924918074
 20
31.3681288486
 11
158.6503040869
 21
31.2068093799
 12
158.361242028
 22
31.2068093799
 13
158.361242028
 23
31.2068093799
  0
SOLID
  8
0
 62
7
  6
CONTINUOUS
 10
157.6096790869
 20
31.4649199103
 11
157.4362415869
 21
31.4003926599
 12
157.320617028
 22
31.4649199103
 13
157.320617028
 23
31.4649199103
  0
SOLID
  8
0
 62
7
  6
CONTINUOUS
 10
157.4362415869
 20
31.4003926599
 11
157.320617028
 21
31.3358640533
 12
157.320617028
 22
31.4649199103
 13
157.320617028
 23
31.4649199103
  0
SOLID
  8
0
 62
7
  6
CONTINUOUS
 10
157.320617028
 20
31.3358640533
 11
157.0315543074
 21
30.5938003547
 12
157.320617028
 22
31.4649199103
 13
157.320617028
 23
31.4649199103
  0
SOLID
  8
0
 62
7
  6
CONTINUOUS
 10
157.320617028
 20
31.4649199103
 11
157.0315543074
 21
30.5938003547
 12
157.320617028
 22
31.6262383465
 13
157.320617028
 23
31.6262383465
  0
SOLID
  8
0
 62
7
  6
CONTINUOUS
 10
157.0315543074
 20
30.5938003547
 11
157.0315543074
 21
31.6262383465
 12
157.320617028
 22
31.6262383465
 13
157.320617028
 23
31.6262383465
  0
SOLID
  8
0
 62
7
  6
CONTINUOUS
 10
157.320617028
 20
31.3358640533
 11
157.320617028
 21
30.5938003547
 12
157.0315543074
 22
30.5938003547
 13
157.0315543074
 23
30.5938003547
  0
SOLID
  8
0
 62
7
  6
CONTINUOUS
 10
158.361242028
 20
30.5938003547
 11
158.361242028
 21
31.2068093799
 12
158.6503040869
 22
31.2068093799
 13
158.6503040869
 23
31.2068093799
  0
SOLID
  8
0
 62
7
  6
CONTINUOUS
 10
158.6503040869
 20
31.2068093799
 11
158.6503040869
 21
30.5938003547
 12
158.361242028
 22
30.5938003547
 13
158.361242028
 23
30.5938003547
  0
SOLID
  8
0
 62
7
  6
CONTINUOUS
 10
159.4596793074
 20
31.5939739474
 11
159.8065543074
 21
31.6262381969
 12
160.1534293074
 22
31.6262381969
 13
160.1534293074
 23
31.6262381969
  0
SOLID
  8
0
 62
7
  6
CONTINUOUS
 10
160.1534293074
 20
31.6262381969
 11
160.5003043074
 21
31.5939739474
 12
159.4596793074
 22
31.5939739474
 13
159.4596793074
 23
31.5939739474
  0
SOLID
  8
0
 62
7
  6
CONTINUOUS
 10
159.228429528
 20
31.5294468402
 11
159.4596793074
 21
31.5939739474
 12
160.5003043074
 22
31.5939739474
 13
160.5003043074
 23
31.5939739474
  0
SOLID
  8
0
 62
7
  6
CONTINUOUS
 10
159.228429528
 20
31.5294468402
 11
160.5003043074
 21
31.5939739304
 12
160.6737418074
 22
31.5617111435
 13
160.6737418074
 23
31.5617111435
  0
SOLID
  8
0
 62
7
  6
CONTINUOUS
 10
159.228429528
 20
31.5294468402
 11
160.6737418074
 21
31.5617111435
 12
159.8065543074
 22
31.4971825592
 13
159.8065543074
 23
31.4971825592
  0
SOLID
  8
0
 62
7
  6
CONTINUOUS
 10
159.8065543074
 20
31.4971825592
 11
160.6737418074
 21
31.5617111435
 12
160.1534293074
 22
31.4971825592
 13
160.1534293074
 23
31.4971825592
  0
SOLID
  8
0
 62
7
  6
CONTINUOUS
 10
160.6737418074
 20
31.5617111435
 11
160.8471793074
 21
31.4971825592
 12
160.1534293074
 22
31.4971825592
 13
160.1534293074
 23
31.4971825592
  0
SOLID
  8
0
 62
7
  6
CONTINUOUS
 10
160.5003043074
 20
31.4649197501
 11
160.1534293074
 21
31.4971825592
 12
160.8471793074
 22
31.4971825592
 13
160.8471793074
 23
31.4971825592
  0
SOLID
  8
0
 62
7
  6
CONTINUOUS
 10
159.1128043074
 20
31.4326555427
 11
159.228429528
 21
31.5294468402
 12
159.8065543074
 22
31.4971825592
 13
159.8065543074
 23
31.4971825592
  0
SOLID
  8
0
 62
7
  6
CONTINUOUS
 10
160.5003043074
 20
31.4649197501
 11
160.8471793074
 21
31.4971825592
 12
160.615929528
 22
31.4326555427
 13
160.615929528
 23
31.4326555427
  0
SOLID
  8
0
 62
7
  6
CONTINUOUS
 10
160.615929528
 20
31.4326555427
 11
160.8471793074
 21
31.4971825592
 12
160.6737418074
 22
31.3681283005
 13
160.6737418074
 23
31.3681283005
  0
SOLID
  8
0
 62
7
  6
CONTINUOUS
 10
160.8471793074
 20
31.4971825592
 11
160.9628038663
 21
31.3681283005
 12
160.6737418074
 22
31.3681283005
 13
160.6737418074
 23
31.3681283005
  0
SOLID
  8
0
 62
7
  6
CONTINUOUS
 10
150.2674918074
 20
31.4649197501
 11
149.7471793074
 21
31.4326554237
 12
150.498741835
 22
31.4971824493
 13
150.498741835
 23
31.4971824493
  0
SOLID
  8
0
 62
7
  6
CONTINUOUS
 10
149.7471793074
 20
31.4326554237
 11
149.8628043005
 21
31.4971824493
 12
150.498741835
 22
31.4971824493
 13
150.498741835
 23
31.4971824493
  0
SOLID
  8
0
 62
7
  6
CONTINUOUS
 10
150.2674918074
 20
31.4649197501
 11
150.1518667936
 21
31.4326554237
 12
149.7471793074
 22
31.4326554237
 13
149.7471793074
 23
31.4326554237
  0
SOLID
  8
0
 62
7
  6
CONTINUOUS
 10
149.6315543091
 20
31.3036012664
 11
149.7471793074
 21
31.4326554237
 12
150.1518667936
 22
31.4326554237
 13
150.1518667936
 23
31.4326554237
  0
SOLID
  8
0
 62
7
  6
CONTINUOUS
 10
153.9674919177
 20
31.4326554237
 11
154.6612419177
 21
31.4971825369
 12
154.4299918074
 22
31.4649197501
 13
154.4299918074
 23
31.4649197501
  0
SOLID
  8
0
 62
7
  6
CONTINUOUS
 10
154.4299918074
 20
31.4649197501
 11
154.3143669177
 21
31.4326554237
 12
153.9674919177
 22
31.4326554237
 13
153.9674919177
 23
31.4326554237
  0
SOLID
  8
0
 62
7
  6
CONTINUOUS
 10
153.9674919177
 20
31.3681283335
 11
153.9674919177
 21
31.4326554237
 12
154.3143669177
 22
31.4326554237
 13
154.3143669177
 23
31.4326554237
  0
SOLID
  8
0
 62
7
  6
CONTINUOUS
 10
154.3143669177
 20
31.4326554237
 11
154.2565543074
 21
31.3681283335
 12
153.9674919177
 22
31.3681283335
 13
153.9674919177
 23
31.3681283335
  0
SOLID
  8
0
 62
7
  6
CONTINUOUS
 10
159.1128043074
 20
31.4326555528
 11
159.8065543074
 21
31.4971825369
 12
159.575304528
 22
31.4649197501
 13
159.575304528
 23
31.4649197501
  0
SOLID
  8
0
 62
7
  6
CONTINUOUS
 10
159.575304528
 20
31.4649197501
 11
159.4596793074
 21
31.4326555528
 12
159.1128043074
 22
31.4326555528
 13
159.1128043074
 23
31.4326555528
  0
SOLID
  8
0
 62
7
  6
CONTINUOUS
 10
159.1128043074
 20
31.3681284626
 11
159.1128043074
 21
31.4326555528
 12
159.4596793074
 22
31.4326555528
 13
159.4596793074
 23
31.4326555528
  0
SOLID
  8
0
 62
7
  6
CONTINUOUS
 10
159.4596793074
 20
31.4326555528
 11
159.401867028
 21
31.3681284626
 12
159.1128043074
 22
31.3681284626
 13
159.1128043074
 23
31.3681284626
  0
SOLID
  8
0
 62
7
  6
CONTINUOUS
 10
159.228429528
 20
31.2390741763
 11
159.1128043074
 21
31.3681284626
 12
159.401867028
 22
31.3681284626
 13
159.401867028
 23
31.3681284626
  0
SOLID
  8
0
 62
7
  6
CONTINUOUS
 10
149.6315543091
 20
31.3036012664
 11
150.1518667936
 21
31.4326554468
 12
149.9784292936
 22
31.3358640533
 13
149.9784292936
 23
31.3358640533
  0
SOLID
  8
0
 62
7
  6
CONTINUOUS
 10
149.9784292936
 20
31.3358640533
 11
149.9206168074
 21
31.2713369632
 12
149.6315543091
 22
31.3036012664
 13
149.6315543091
 23
31.3036012664
  0
SOLID
  8
0
 62
7
  6
CONTINUOUS
 10
149.5737418074
 20
31.1100184796
 11
149.6315543091
 21
31.3036012664
 12
149.9206168074
 22
31.2713369632
 13
149.9206168074
 23
31.2713369632
  0
SOLID
  8
0
 62
7
  6
CONTINUOUS
 10
154.4299918074
 20
31.2390741763
 11
154.7768668074
 21
31.271336924
 12
155.412804528
 22
31.271336924
 13
155.412804528
 23
31.271336924
  0
SOLID
  8
0
 62
7
  6
CONTINUOUS
 10
154.4299918074
 20
31.2390741763
 11
155.412804528
 21
31.271336924
 12
154.1987416972
 22
31.1745462761
 13
154.1987416972
 23
31.1745462761
  0
SOLID
  8
0
 62
7
  6
CONTINUOUS
 10
154.1987416972
 20
31.1745462761
 11
155.412804528
 21
31.271336924
 12
154.7768668074
 22
31.1422827436
 13
154.7768668074
 23
31.1422827436
  0
SOLID
  8
0
 62
7
  6
CONTINUOUS
 10
155.412804528
 20
31.271336924
 11
155.412804528
 21
31.1422827436
 12
154.7768668074
 22
31.1422827436
 13
154.7768668074
 23
31.1422827436
  0
SOLID
  8
0
 62
7
  6
CONTINUOUS
 10
159.228429528
 20
31.2390745501
 11
159.401867028
 21
31.3681283566
 12
159.4596793074
 22
31.3036012664
 13
159.4596793074
 23
31.3036012664
  0
SOLID
  8
0
 62
7
  6
CONTINUOUS
 10
159.4596793074
 20
31.3036012664
 11
159.6331168074
 21
31.2390745501
 12
159.228429528
 22
31.2390745501
 13
159.228429528
 23
31.2390745501
  0
SOLID
  8
0
 62
7
  6
CONTINUOUS
 10
159.4596793074
 20
31.1422827828
 11
159.228429528
 21
31.2390745501
 12
159.6331168074
 22
31.2390745501
 13
159.6331168074
 23
31.2390745501
  0
SOLID
  8
0
 62
7
  6
CONTINUOUS
 10
159.6331168074
 20
31.2390745501
 11
160.615929528
 21
31.0777556927
 12
159.4596793074
 22
31.1422827828
 13
159.4596793074
 23
31.1422827828
  0
SOLID
  8
0
 62
7
  6
CONTINUOUS
 10
160.442492028
 20
30.9809646623
 11
159.4596793074
 21
31.1422827828
 12
160.615929528
 22
31.0777556927
 13
160.615929528
 23
31.0777556927
  0
SOLID
  8
0
 62
7
  6
CONTINUOUS
 10
160.615929528
 20
31.0777556927
 11
160.8471793074
 21
30.9809646623
 12
160.442492028
 22
30.9809646623
 13
160.442492028
 23
30.9809646623
  0
SOLID
  8
0
 62
7
  6
CONTINUOUS
 10
160.615929528
 20
30.9164372091
 11
160.442492028
 21
30.9809646623
 12
160.8471793074
 22
30.9809646623
 13
160.8471793074
 23
30.9809646623
  0
SOLID
  8
0
 62
7
  6
CONTINUOUS
 10
160.615929528
 20
30.9164372091
 11
160.8471793074
 21
30.9809646623
 12
160.6737418074
 22
30.8519089441
 13
160.6737418074
 23
30.8519089441
  0
SOLID
  8
0
 62
7
  6
CONTINUOUS
 10
160.8471793074
 20
30.9809646623
 11
160.9628038663
 21
30.8519089441
 12
160.6737418074
 22
30.8519089441
 13
160.6737418074
 23
30.8519089441
  0
SOLID
  8
0
 62
7
  6
CONTINUOUS
 10
160.615929528
 20
30.7873818593
 11
160.6737418074
 21
30.8519089441
 12
160.9628038663
 22
30.8519089441
 13
160.9628038663
 23
30.8519089441
  0
SOLID
  8
0
 62
7
  6
CONTINUOUS
 10
160.9628038663
 20
30.8519089441
 11
160.9628038663
 21
30.7873818593
 12
160.615929528
 22
30.7873818593
 13
160.615929528
 23
30.7873818593
  0
SOLID
  8
0
 62
7
  6
CONTINUOUS
 10
160.5003043074
 20
30.7551187255
 11
160.615929528
 21
30.7873818593
 12
160.9628038663
 22
30.7873818593
 13
160.9628038663
 23
30.7873818593
  0
SOLID
  8
0
 62
7
  6
CONTINUOUS
 10
160.5003043074
 20
30.7551187255
 11
160.9628038663
 21
30.7873818593
 12
160.269054528
 22
30.7228547745
 13
160.269054528
 23
30.7228547745
  0
SOLID
  8
0
 62
7
  6
CONTINUOUS
 10
160.9628038663
 20
30.7873818593
 11
160.8471793074
 21
30.6905916353
 12
160.269054528
 22
30.7228547745
 13
160.269054528
 23
30.7228547745
  0
SOLID
  8
0
 62
7
  6
CONTINUOUS
 10
160.8471793074
 20
30.6905916353
 11
159.401867028
 21
30.658327332
 12
160.269054528
 22
30.7228547745
 13
160.269054528
 23
30.7228547745
  0
SOLID
  8
0
 62
7
  6
CONTINUOUS
 10
160.269054528
 20
30.7228547745
 11
159.401867028
 21
30.658327332
 12
159.922179528
 22
30.7228547745
 13
159.922179528
 23
30.7228547745
  0
SOLID
  8
0
 62
7
  6
CONTINUOUS
 10
159.401867028
 20
30.658327332
 11
159.228429528
 21
30.7228547745
 12
159.922179528
 22
30.7228547745
 13
159.922179528
 23
30.7228547745
  0
SOLID
  8
0
 62
7
  6
CONTINUOUS
 10
159.401867028
 20
30.658327332
 11
160.8471793074
 21
30.6905916353
 12
159.575304528
 22
30.6260629858
 13
159.575304528
 23
30.6260629858
  0
SOLID
  8
0
 62
7
  6
CONTINUOUS
 10
160.8471793074
 20
30.6905916353
 11
160.615929528
 21
30.6260629858
 12
159.575304528
 22
30.6260629858
 13
159.575304528
 23
30.6260629858
  0
SOLID
  8
0
 62
7
  6
CONTINUOUS
 10
159.922179528
 20
30.5938006049
 11
159.575304528
 21
30.6260629858
 12
160.615929528
 22
30.6260629858
 13
160.615929528
 23
30.6260629858
  0
SOLID
  8
0
 62
7
  6
CONTINUOUS
 10
160.615929528
 20
30.6260629858
 11
160.269054528
 21
30.5938006049
 12
159.922179528
 22
30.5938006049
 13
159.922179528
 23
30.5938006049
  0
SOLID
  8
0
 62
7
  6
CONTINUOUS
 10
149.5737418074
 20
31.1100184796
 11
149.9206168074
 21
31.2713369632
 12
149.8628043005
 22
31.1422827828
 13
149.8628043005
 23
31.1422827828
  0
SOLID
  8
0
 62
7
  6
CONTINUOUS
 10
149.8628043005
 20
31.1422827828
 11
149.8628043005
 21
31.0454914852
 12
149.5737418074
 22
31.1100184796
 13
149.5737418074
 23
31.1100184796
  0
SOLID
  8
0
 62
7
  6
CONTINUOUS
 10
149.6315543091
 20
30.9164372091
 11
149.5737418074
 21
31.1100184796
 12
149.8628043005
 22
31.0454914852
 13
149.8628043005
 23
31.0454914852
  0
SOLID
  8
0
 62
7
  6
CONTINUOUS
 10
149.8628043005
 20
31.0454914852
 11
149.9784292936
 21
30.8841729058
 12
149.6315543091
 22
30.9164372091
 13
149.6315543091
 23
30.9164372091
  0
SOLID
  8
0
 62
7
  6
CONTINUOUS
 10
149.7471793074
 20
30.7873813202
 11
149.6315543091
 21
30.9164372091
 12
149.9784292936
 22
30.8841729058
 13
149.9784292936
 23
30.8841729058
  0
SOLID
  8
0
 62
7
  6
CONTINUOUS
 10
149.9784292936
 20
30.8841729058
 11
150.1518667936
 21
30.7873813202
 12
149.7471793074
 22
30.7873813202
 13
149.7471793074
 23
30.7873813202
  0
SOLID
  8
0
 62
7
  6
CONTINUOUS
 10
149.8628043005
 20
30.7228547004
 11
149.7471793074
 21
30.7873813202
 12
150.1518667936
 22
30.7873813202
 13
150.1518667936
 23
30.7873813202
  0
SOLID
  8
0
 62
7
  6
CONTINUOUS
 10
150.1518667936
 20
30.7873813202
 11
150.498741835
 21
30.7228547004
 12
149.8628043005
 22
30.7228547004
 13
149.8628043005
 23
30.7228547004
  0
SOLID
  8
0
 62
7
  6
CONTINUOUS
 10
150.0362418212
 20
30.658327332
 11
149.8628043005
 21
30.7228547004
 12
150.498741835
 22
30.7228547004
 13
150.498741835
 23
30.7228547004
  0
SOLID
  8
0
 62
7
  6
CONTINUOUS
 10
154.0831168074
 20
31.1100184386
 11
154.1987416972
 21
31.1745462761
 12
154.7768668074
 22
31.1422827828
 13
154.7768668074
 23
31.1422827828
  0
SOLID
  8
0
 62
7
  6
CONTINUOUS
 10
154.7768668074
 20
31.1422827828
 11
154.5456166972
 21
31.1100184386
 12
154.0831168074
 22
31.1100184386
 13
154.0831168074
 23
31.1100184386
  0
SOLID
  8
0
 62
7
  6
CONTINUOUS
 10
153.9674919177
 20
30.9809642992
 11
154.0831168074
 21
31.1100184386
 12
154.5456166972
 22
31.1100184386
 13
154.5456166972
 23
31.1100184386
  0
SOLID
  8
0
 62
7
  6
CONTINUOUS
 10
154.3143669177
 20
31.0132277988
 11
153.9674919177
 21
30.9809642992
 12
154.4299918074
 22
31.0777556927
 13
154.4299918074
 23
31.0777556927
  0
SOLID
  8
0
 62
7
  6
CONTINUOUS
 10
153.9674919177
 20
30.9809642992
 11
154.5456166972
 21
31.1100184796
 12
154.4299918074
 22
31.0777556927
 13
154.4299918074
 23
31.0777556927
  0
SOLID
  8
0
 62
7
  6
CONTINUOUS
 10
154.3143669177
 20
31.0132277988
 11
154.2565543074
 21
30.9164372091
 12
153.9674919177
 22
30.9809642992
 13
153.9674919177
 23
30.9809642992
  0
SOLID
  8
0
 62
7
  6
CONTINUOUS
 10
153.9674919177
 20
30.8841729058
 11
153.9674919177
 21
30.9809642992
 12
154.2565543074
 22
30.9164372091
 13
154.2565543074
 23
30.9164372091
  0
SOLID
  8
0
 62
7
  6
CONTINUOUS
 10
154.2565543074
 20
30.9164372091
 11
154.2565543074
 21
30.8519086025
 12
153.9674919177
 22
30.8841729058
 13
153.9674919177
 23
30.8841729058
  0
SOLID
  8
0
 62
7
  6
CONTINUOUS
 10
154.0253041972
 20
30.7551187255
 11
153.9674919177
 21
30.8841729058
 12
154.2565543074
 22
30.8519086025
 13
154.2565543074
 23
30.8519086025
  0
SOLID
  8
0
 62
7
  6
CONTINUOUS
 10
155.412804528
 20
30.9487004259
 11
155.7018665869
 21
30.8519086025
 12
155.3549915869
 22
30.8841729058
 13
155.3549915869
 23
30.8841729058
  0
SOLID
  8
0
 62
7
  6
CONTINUOUS
 10
155.1815540869
 20
30.7873815123
 11
155.3549915869
 21
30.8841729058
 12
155.7018665869
 22
30.8519086025
 13
155.7018665869
 23
30.8519086025
  0
SOLID
  8
0
 62
7
  6
CONTINUOUS
 10
155.1815540869
 20
30.7873815123
 11
155.7018665869
 21
30.8519086025
 12
155.412804528
 22
30.7551187255
 13
155.412804528
 23
30.7551187255
  0
SOLID
  8
0
 62
7
  6
CONTINUOUS
 10
155.7018665869
 20
30.8519086025
 11
155.759679528
 21
30.6905916353
 12
155.412804528
 22
30.7551187255
 13
155.412804528
 23
30.7551187255
  0
SOLID
  8
0
 62
7
  6
CONTINUOUS
 10
155.4706168074
 20
30.658327332
 11
155.412804528
 21
30.7551187255
 12
155.759679528
 22
30.6905916353
 13
155.759679528
 23
30.6905916353
  0
SOLID
  8
0
 62
7
  6
CONTINUOUS
 10
155.4706168074
 20
30.658327332
 11
155.759679528
 21
30.6905916353
 12
155.5284290869
 22
30.5938002079
 13
155.5284290869
 23
30.5938002079
  0
SOLID
  8
0
 62
7
  6
CONTINUOUS
 10
155.759679528
 20
30.6905916353
 11
155.8174918074
 21
30.5938002079
 12
155.5284290869
 22
30.5938002079
 13
155.5284290869
 23
30.5938002079
  0
SOLID
  8
0
 62
7
  6
CONTINUOUS
 10
151.0768668626
 20
30.8196456577
 11
151.1346793074
 21
30.9164373395
 12
151.4237418626
 22
30.9164373395
 13
151.4237418626
 23
30.9164373395
  0
SOLID
  8
0
 62
7
  6
CONTINUOUS
 10
151.4237418626
 20
30.9164373395
 11
151.3659292523
 21
30.7873815123
 12
151.0768668626
 22
30.8196456577
 13
151.0768668626
 23
30.8196456577
  0
SOLID
  8
0
 62
7
  6
CONTINUOUS
 10
150.9034292799
 20
30.7551187255
 11
151.0768668626
 21
30.8196456577
 12
151.3659292523
 22
30.7873815123
 13
151.3659292523
 23
30.7873815123
  0
SOLID
  8
0
 62
7
  6
CONTINUOUS
 10
150.9034292799
 20
30.7551187255
 11
151.3659292523
 21
30.7873815123
 12
150.498741835
 22
30.7228544222
 13
150.498741835
 23
30.7228544222
  0
SOLID
  8
0
 62
7
  6
CONTINUOUS
 10
151.3659292523
 20
30.7873815123
 11
151.1924917523
 21
30.6905916353
 12
150.498741835
 22
30.7228544222
 13
150.498741835
 23
30.7228544222
  0
SOLID
  8
0
 62
7
  6
CONTINUOUS
 10
150.0362418212
 20
30.658327332
 11
150.498741835
 21
30.7228544222
 12
151.1924917523
 22
30.6905916353
 13
151.1924917523
 23
30.6905916353
  0
SOLID
  8
0
 62
7
  6
CONTINUOUS
 10
150.0362418212
 20
30.658327332
 11
151.1924917523
 21
30.6905916353
 12
150.2096793212
 22
30.6260631011
 13
150.2096793212
 23
30.6260631011
  0
SOLID
  8
0
 62
7
  6
CONTINUOUS
 10
151.1924917523
 20
30.6905916353
 11
150.9612418074
 21
30.6260631011
 12
150.2096793212
 22
30.6260631011
 13
150.2096793212
 23
30.6260631011
  0
SOLID
  8
0
 62
7
  6
CONTINUOUS
 10
150.5565542799
 20
30.5938002419
 11
150.2096793212
 21
30.6260631011
 12
150.9612418074
 22
30.6260631011
 13
150.9612418074
 23
30.6260631011
  0
SOLID
  8
0
 62
7
  6
CONTINUOUS
 10
154.0253041972
 20
30.7551187255
 11
154.2565543074
 21
30.8519086025
 12
154.3143669177
 22
30.7873815123
 13
154.3143669177
 23
30.7873815123
  0
SOLID
  8
0
 62
7
  6
CONTINUOUS
 10
154.3143669177
 20
30.7873815123
 11
154.5456166972
 21
30.7228544222
 12
154.0253041972
 22
30.7551187255
 13
154.0253041972
 23
30.7551187255
  0
SOLID
  8
0
 62
7
  6
CONTINUOUS
 10
154.1987416972
 20
30.658327332
 11
154.0253041972
 21
30.7551187255
 12
154.5456166972
 22
30.7228544222
 13
154.5456166972
 23
30.7228544222
  0
SOLID
  8
0
 62
7
  6
CONTINUOUS
 10
154.8924916972
 20
30.7228544637
 11
155.1815540869
 21
30.7873815123
 12
155.412804528
 22
30.7551187255
 13
155.412804528
 23
30.7551187255
  0
SOLID
  8
0
 62
7
  6
CONTINUOUS
 10
155.412804528
 20
30.7551187255
 11
155.3549915869
 21
30.6905916353
 12
154.8924916972
 22
30.7228544637
 13
154.8924916972
 23
30.7228544637
  0
SOLID
  8
0
 62
7
  6
CONTINUOUS
 10
155.3549915869
 20
30.6905916353
 11
154.1987416972
 21
30.658327332
 12
154.8924916972
 22
30.7228544637
 13
154.8924916972
 23
30.7228544637
  0
SOLID
  8
0
 62
7
  6
CONTINUOUS
 10
154.1987416972
 20
30.658327332
 11
154.5456166972
 21
30.7228544637
 12
154.8924916972
 22
30.7228544637
 13
154.8924916972
 23
30.7228544637
  0
SOLID
  8
0
 62
7
  6
CONTINUOUS
 10
154.1987416972
 20
30.658327332
 11
155.3549915869
 21
30.6905916353
 12
154.3143669177
 22
30.6260630541
 13
154.3143669177
 23
30.6260630541
  0
SOLID
  8
0
 62
7
  6
CONTINUOUS
 10
155.3549915869
 20
30.6905916353
 11
155.1815540869
 21
30.6260630541
 12
154.3143669177
 22
30.6260630541
 13
154.3143669177
 23
30.6260630541
  0
SOLID
  8
0
 62
7
  6
CONTINUOUS
 10
154.5456166972
 20
30.5938002188
 11
154.3143669177
 21
30.6260630541
 12
155.1815540869
 22
30.6260630541
 13
155.1815540869
 23
30.6260630541
  0
SOLID
  8
0
 62
7
  6
CONTINUOUS
 10
155.1815540869
 20
30.6260630541
 11
154.8924916972
 21
30.5938002188
 12
154.5456166972
 22
30.5938002188
 13
154.5456166972
 23
30.5938002188
  0
SOLID
  8
0
 62
7
  6
CONTINUOUS
 10
159.575304528
 20
30.7551187255
 11
159.228429528
 21
30.7228544637
 12
159.4596793074
 22
30.7873815123
 13
159.4596793074
 23
30.7873815123
  0
SOLID
  8
0
 62
7
  6
CONTINUOUS
 10
159.4596793074
 20
30.7873815123
 11
159.228429528
 21
30.7228544637
 12
159.401867028
 22
30.851908644
 13
159.401867028
 23
30.851908644
  0
SOLID
  8
0
 62
7
  6
CONTINUOUS
 10
159.228429528
 20
30.7228544637
 11
159.1128043074
 21
30.851908644
 12
159.401867028
 22
30.851908644
 13
159.401867028
 23
30.851908644
  0
SOLID
  8
0
 62
7
  6
CONTINUOUS
 10
159.575304528
 20
30.7551187255
 11
159.922179528
 21
30.7228544637
 12
159.228429528
 22
30.7228544637
 13
159.228429528
 23
30.7228544637
  0
SOLID
  8
0
 62
7
  6
CONTINUOUS
 10
156.279992028
 20
30.5938002419
 11
156.279992028
 21
31.6262382337
 12
156.5690540869
 22
30.5938002419
 13
156.5690540869
 23
31.6262382337
  0
ENDBLK
  8
0
  6
BYBLOCK
 62
0
  0
BLOCK
  8
0
 62
2
  6
CONTINUOUS
  2
SYMBOL_3_BL0
 70
64
 10
32.1213064866
 20
19.8534310916
  0
TEXT
  8
0
 62
7
  6
CONTINUOUS
 10
18.3860103289
 20
19.2268451992
  7
TEXTSTYLE_3
 40
2.7338706658
  1
Ammeraal Beltech
 41
1.0
 51
15.0
 72
0
  0
TEXT
  8
0
 62
7
  6
CONTINUOUS
 10
29.1868111546
 20
16.9533085264
  7
TEXTSTYLE_4
 40
1.0935482663
  1
Innovation & Service in Belting
 41
1.0
 72
0
  0
LINE
  8
0
 62
7
  6
CONTINUOUS
 10
12.3614696776
 20
19.9934385078
 11
13.1396216709
 21
23.6543558055
  0
LINE
  8
0
 62
7
  6
CONTINUOUS
 10
23.2347899607
 20
27.3177497171
 11
13.6274394139
 21
24.1961322958
  0
LINE
  8
0
 62
7
  6
CONTINUOUS
 10
12.5867530099
 20
19.3000877048
 11
20.093828271
 21
12.5406867788
  0
LINE
  8
0
 62
7
  6
CONTINUOUS
 10
12.8492874206
 20
20.5352149982
 11
23.6575567857
 21
24.0470345971
  0
LINE
  8
0
 62
7
  6
CONTINUOUS
 10
23.6533516486
 20
13.6972460334
 11
15.2078919798
 21
21.3015720751
  0
LINE
  8
0
 62
7
  6
CONTINUOUS
 10
24.1731743684
 20
26.4728246013
 11
23.1966148312
 21
21.8784731989
  0
LINE
  8
0
 62
7
  6
CONTINUOUS
 10
22.4968128835
 20
18.5861638851
 11
21.810364672
 21
15.3566789607
  0
LINE
  8
0
 62
7
  6
CONTINUOUS
 10
24.8542704669
 20
14.087448211
 11
25.8105020025
 21
18.5861638851
  0
LINE
  8
0
 62
7
  6
CONTINUOUS
 10
26.5103039502
 20
21.8784731989
 11
26.9545457526
 21
23.9684665583
  0
LINE
  8
0
 62
7
  6
CONTINUOUS
 10
20.8069293463
 20
12.3891124661
 11
24.3664527239
 21
13.5456717207
  0
LINE
  8
0
 62
7
  6
CONTINUOUS
 10
23.9478910361
 20
27.1661754044
 11
26.7292624203
 21
24.6618173613
  0
ARC
  8
0
 62
7
  6
CONTINUOUS
 10
13.8527227462
 20
23.5027814928
 40
0.7290321776
 50
108.0
 51
168.0
  0
ARC
  8
0
 62
7
  6
CONTINUOUS
 10
23.4600732931
 20
26.624398914
 40
0.7290321776
 50
348.0
 51
108.0
  0
ARC
  8
0
 62
7
  6
CONTINUOUS
 10
26.2414446773
 20
24.120040871
 40
0.7290321776
 50
348.0
 51
48.0
  0
ARC
  8
0
 62
7
  6
CONTINUOUS
 10
20.581646014
 20
13.0824632691
 40
0.7290321776
 50
228.0
 51
288.0
  0
ARC
  8
0
 62
7
  6
CONTINUOUS
 10
13.0745707529
 20
19.8418641951
 40
0.7290321776
 50
108.0
 51
228.0
  0
ARC
  8
0
 62
7
  6
CONTINUOUS
 10
24.1411693916
 20
14.2390225237
 40
0.7290321776
 50
228.0
 51
348.0
  0
ENDBLK
  8
0
  6
BYBLOCK
 62
0
  0
ENDSEC
  0
SECTION
  2
ENTITIES
  0
TEXT
  8
0
 62
5
  6
CONTINUOUS
 10
96.0
 20
25.636
  7
TEXTSTYLE_2
 40
2.8
  1
Scale :
 41
0.6
 51
0.000019
 72
0
  0
TEXT
  8
0
 62
5
  6
CONTINUOUS
 10
116.0
 20
25.636
  7
TEXTSTYLE_2
 40
2.8
  1
Belt type:
 41
0.6
 51
0.000019
 72
0
  0
INSERT
  8
0
 62
2
  6
CONTINUOUS
  2
SYMBOL_3_BL0
 10
32.1213064866
 20
19.8534310916
  0
INSERT
  8
0
 62
2
  6
CONTINUOUS
  2
SYMBOL_8_BL1
 10
173.5956734183
 20
35.5937998301
  0
LINE
  8
0
 62
2
  6
CONTINUOUS
 10
10.0
 20
30.0
 11
200.0
 21
30.0
  0
LINE
  8
0
 62
2
  6
CONTINUOUS
 10
10.0
 20
30.0
 11
10.0
 21
10.0
  0
LINE
  8
0
 62
2
  6
CONTINUOUS
 10
10.0
 20
10.0
 11
200.0
 21
10.0
  0
LINE
  8
0
 62
2
  6
CONTINUOUS
 10
95.0
 20
30.0
 11
95.0
 21
10.0
  0
LINE
  8
0
 62
2
  6
CONTINUOUS
 10
115.0
 20
30.0
 11
115.0
 21
10.0
  0
LINE
  8
0
 62
2
  6
CONTINUOUS
 10
200.0
 20
30.0
 11
200.0
 21
10.0
  0
TEXT
  8
0
 62
5
  6
CONTINUOUS
 10
13.0
 20
23.303
  7
TEXTSTYLE_5
 40
1.52
  1
                                                                     Ammeraal Beltech Modular A/S
 41
1.0
 72
0
  0
TEXT
  8
0
 62
5
  6
CONTINUOUS
 10
13.0
 20
20.595
  7
TEXTSTYLE_5
 40
1.5
  1
                                                                      Hjulmagervej 21,  7100 Vejle,  DK
 41
1.0
 72
0
  0
TEXT
  8
0
 62
5
  6
CONTINUOUS
 10
13.0
 20
17.881
  7
TEXTSTYLE_5
 40
1.495
  1
                                                                      tel: 
 41
1.0
 72
0
  0
TEXT
  8
0
 62
5
  6
CONTINUOUS
 10
57.9869465649
 20
17.881
  7
TEXTSTYLE_5
 40
1.51
  1
+45 75723100     fax: +45 75723348
 41
1.0
 72
0
  0
TEXT
  8
0
 62
5
  6
CONTINUOUS
 10
13.0
 20
15.177
  7
TEXTSTYLE_5
 40
1.5
  1
                                                                      admin@unichains.dk  www.unichains.com
 41
1.0
 72
0
  0
TEXT
  8
0
 62
5
  6
CONTINUOUS
 10
99.75
 20
13.75
  7
TEXTSTYLE_6
 40
5.0
  1
1:1
 41
0.7
 72
1
 11
105.0
 21
13.75
  0
TEXT
  8
0
 62
5
  6
CONTINUOUS
 10
118.0
 20
13.75
  7
TEXTSTYLE_7
 40
7.5
  1
Sprocket Z12
 41
0.6361111111
 72
0
  0
LINE
  8
0
 62
7
  6
CONTINUOUS
 10
210.0
 20
0.0
 11
0.0
 21
0.0
  0
LINE
  8
0
 62
7
  6
CONTINUOUS
 10
10.0
 20
10.0
 11
200.0
 21
10.0
  0
LINE
  8
0
 62
7
  6
CONTINUOUS
 10
10.0
 20
30.0
 11
200.0
 21
30.0
  0
LINE
  8
0
 62
7
  6
CONTINUOUS
 10
0.0
 20
0.0
 11
0.0
 21
297.0
  0
LINE
  8
0
 62
7
  6
CONTINUOUS
 10
10.0
 20
10.0
 11
10.0
 21
287.0
  0
LINE
  8
0
 62
7
  6
CONTINUOUS
 10
200.0
 20
287.0
 11
200.0
 21
10.0
  0
LINE
  8
0
 62
7
  6
CONTINUOUS
 10
210.0
 20
0.0
 11
210.0
 21
297.0
  0
LINE
  8
0
 62
7
  6
CONTINUOUS
 10
10.0
 20
287.0
 11
200.0
 21
287.0
  0
LINE
  8
0
 62
7
  6
CONTINUOUS
 10
0.0
 20
297.0
 11
210.0
 21
297.0
  0
LINE
  8
0
 62
7
  6
CONTINUOUS
 10
26.0844600621
 20
206.4742102357
 11
25.7942273145
 21
203.7530500924
  0
LINE
  8
0
 62
7
  6
CONTINUOUS
 10
40.8232819967
 20
242.7260132864
 11
39.2113529927
 21
240.5145358484
  0
LINE
  8
0
 62
7
  6
CONTINUOUS
 10
71.7133777394
 20
266.7515846941
 11
69.2116675537
 21
265.6423535549
  0
LINE
  8
0
 62
7
  6
CONTINUOUS
 10
91.7235418286
 20
122.0808992161
 11
94.4447019719
 21
121.7906664685
  0
LINE
  8
0
 62
7
  6
CONTINUOUS
 10
55.4717387779
 20
136.8197211507
 11
57.6832162159
 21
135.2077921467
  0
LINE
  8
0
 62
7
  6
CONTINUOUS
 10
31.4461673702
 20
167.7098168934
 11
32.5553985094
 21
165.2081067077
  0
LINE
  8
0
 62
7
  6
CONTINUOUS
 10
39.5306564551
 20
197.7970956091
 11
39.5306564551
 21
195.4199694521
  0
LINE
  8
0
 62
7
  6
CONTINUOUS
 10
39.5306564551
 20
182.7742199536
 11
39.5306564551
 21
180.0970956092
  0
LINE
  8
0
 62
7
  6
CONTINUOUS
 10
40.0306564551
 20
194.0970956091
 11
40.0306564551
 21
184.0970956091
  0
LINE
  8
0
 62
7
  6
CONTINUOUS
 10
48.1294723441
 20
228.4883133918
 11
46.9409080029
 21
226.4296595647
  0
LINE
  8
0
 62
7
  6
CONTINUOUS
 10
40.6180345164
 20
215.4781214362
 11
39.2794723441
 21
213.1596637448
  0
LINE
  8
0
 62
7
  6
CONTINUOUS
 10
46.712485046
 20
225.0340193978
 11
41.712485046
 21
216.37376536
  0
LINE
  8
0
 62
7
  6
CONTINUOUS
 10
70.9218742378
 20
250.7682797202
 11
68.8632247849
 21
249.5797179044
  0
LINE
  8
0
 62
7
  6
CONTINUOUS
 10
57.9116822822
 20
243.2568418924
 11
55.5932245908
 21
241.9182797202
  0
LINE
  8
0
 62
7
  6
CONTINUOUS
 10
67.9675802438
 20
248.4852670183
 11
59.3073262059
 21
243.4852670183
  0
LINE
  8
0
 62
7
  6
CONTINUOUS
 10
100.4006564551
 20
135.5270956091
 11
102.7777826122
 21
135.5270956091
  0
LINE
  8
0
 62
7
  6
CONTINUOUS
 10
115.4235321107
 20
135.5270956091
 11
118.1006564551
 21
135.5270956091
  0
LINE
  8
0
 62
7
  6
CONTINUOUS
 10
104.1006564551
 20
136.0270956091
 11
114.1006564551
 21
136.0270956091
  0
LINE
  8
0
 62
7
  6
CONTINUOUS
 10
69.7094386725
 20
144.1259114981
 11
71.7680924996
 21
142.9373471569
  0
LINE
  8
0
 62
7
  6
CONTINUOUS
 10
82.7196306281
 20
136.6144736704
 11
85.0380883195
 21
135.2759114982
  0
LINE
  8
0
 62
7
  6
CONTINUOUS
 10
73.1637326665
 20
142.7089242
 11
81.8239867043
 21
137.7089242
  0
LINE
  8
0
 62
7
  6
CONTINUOUS
 10
47.4294723441
 20
166.9183133918
 11
48.6180341599
 21
164.8596639389
  0
LINE
  8
0
 62
7
  6
CONTINUOUS
 10
54.9409101719
 20
153.9081214362
 11
56.2794723441
 21
151.5896637448
  0
LINE
  8
0
 62
7
  6
CONTINUOUS
 10
49.712485046
 20
163.9640193978
 11
54.712485046
 21
155.30376536
  0
LINE
  8
0
 62
7
  6
CONTINUOUS
 10
58.4154116697
 20
221.1640829073
 11
52.6654116697
 21
211.2047907637
  0
LINE
  8
0
 62
7
  6
CONTINUOUS
 10
65.5314370735
 20
231.4894004546
 11
56.0748319287
 21
222.5154172508
  0
LINE
  8
0
 62
7
  6
CONTINUOUS
 10
68.0604333192
 20
234.273992848
 11
67.7555664175
 21
233.989972867
  0
LINE
  8
0
 62
7
  6
CONTINUOUS
 10
66.5360990942
 20
232.8538932073
 11
66.2312322579
 21
232.5698732872
  0
LINE
  8
0
 62
7
  6
CONTINUOUS
 10
69.9917365048
 20
235.8883721154
 11
69.7330989807
 21
235.6780917115
  0
LINE
  8
0
 62
7
  6
CONTINUOUS
 10
69.1511648291
 20
235.2049610285
 11
68.8278680166
 21
234.942110599
  0
LINE
  8
0
 62
7
  6
CONTINUOUS
 10
70.8437589056
 20
238.1527109793
 11
70.50935271
 21
237.9041481603
  0
LINE
  8
0
 62
7
  6
CONTINUOUS
 10
70.7632041661
 20
237.5626268497
 11
71.0976103618
 21
237.8111896687
  0
LINE
  8
0
 62
7
  6
CONTINUOUS
 10
71.6053134163
 20
237.128146856
 11
71.2709072207
 21
236.879584037
  0
LINE
  8
0
 62
7
  6
CONTINUOUS
 10
81.5377076668
 20
242.810495192
 11
81.1119766551
 21
242.5348211084
  0
LINE
  8
0
 62
7
  6
CONTINUOUS
 10
77.8046496711
 20
242.490333739
 11
75.1770367245
 21
241.0426976651
  0
LINE
  8
0
 62
7
  6
CONTINUOUS
 10
75.8613783264
 20
240.8367171299
 11
78.051055782
 21
242.0430805248
  0
LINE
  8
0
 62
7
  6
CONTINUOUS
 10
78.292978253
 20
240.9131829258
 11
76.3952583484
 21
239.8676682903
  0
LINE
  8
0
 62
7
  6
CONTINUOUS
 10
78.9658453069
 20
243.0437335523
 11
78.5912089696
 21
242.8613630756
  0
LINE
  8
0
 62
7
  6
CONTINUOUS
 10
91.9928218159
 20
246.6761310424
 11
92.3071689556
 21
246.8159184002
  0
LINE
  8
0
 62
7
  6
CONTINUOUS
 10
92.2215571059
 20
247.3193287897
 11
91.8250555508
 21
247.1655699454
  0
LINE
  8
0
 62
7
  6
CONTINUOUS
 10
86.1695240723
 20
244.5469128193
 11
85.6970476249
 21
244.3833096205
  0
LINE
  8
0
 62
7
  6
CONTINUOUS
 10
83.9646333836
 20
243.783431017
 11
83.4921569362
 21
243.6198278183
  0
LINE
  8
0
 62
7
  6
CONTINUOUS
 10
101.6006564551
 20
148.0970956091
 11
113.1006564551
 21
148.0970956091
  0
LINE
  8
0
 62
7
  6
CONTINUOUS
 10
89.1006564551
 20
149.0970956091
 11
101.6006564551
 21
145.3944269221
  0
LINE
  8
0
 62
7
  6
CONTINUOUS
 10
62.4880422183
 20
218.8127485637
 11
65.5314370735
 21
231.4894004546
  0
LINE
  8
0
 62
7
  6
CONTINUOUS
 10
69.2490895506
 20
231.7755621212
 11
69.3130237672
 21
231.9514408186
  0
LINE
  8
0
 62
7
  6
CONTINUOUS
 10
54.3974624773
 20
210.2047907637
 11
60.1474624773
 21
220.1640829073
  0
LINE
  8
0
 62
7
  6
CONTINUOUS
 10
69.0170392196
 20
232.0246448274
 11
68.8311583971
 21
231.7351582513
  0
LINE
  8
0
 62
7
  6
CONTINUOUS
 10
69.0632087129
 20
231.4860755615
 11
69.2490895506
 21
231.7755621212
  0
LINE
  8
0
 62
7
  6
CONTINUOUS
 10
69.7330989807
 20
235.6780917115
 11
69.5281500384
 21
235.4017762345
  0
LINE
  8
0
 62
7
  6
CONTINUOUS
 10
69.7429043654
 20
235.1376359419
 11
69.9478533077
 21
235.4139514189
  0
LINE
  8
0
 62
7
  6
CONTINUOUS
 10
81.2034929141
 20
242.1109736214
 11
81.3229927346
 21
242.254989084
  0
LINE
  8
0
 62
7
  6
CONTINUOUS
 10
91.7748977332
 20
246.4664134395
 11
91.9928218159
 21
246.6761310424
  0
LINE
  8
0
 62
7
  6
CONTINUOUS
 10
68.8311583971
 20
231.7351582513
 11
68.5872648932
 21
231.5079422828
  0
LINE
  8
0
 62
7
  6
CONTINUOUS
 10
68.819315209
 20
231.258859593
 11
69.0632087129
 21
231.4860755615
  0
LINE
  8
0
 62
7
  6
CONTINUOUS
 10
69.7339157396
 20
232.1109193734
 11
70.0387826413
 21
232.3949393543
  0
LINE
  8
0
 62
7
  6
CONTINUOUS
 10
81.1119766551
 20
242.5348211084
 11
80.9159185987
 21
242.3578908022
  0
LINE
  8
0
 62
7
  6
CONTINUOUS
 10
70.5459027827
 20
232.8289880728
 11
70.8691995952
 21
233.0918385024
  0
LINE
  8
0
 62
7
  6
CONTINUOUS
 10
72.0330678985
 20
234.0380998683
 11
72.356364526
 21
234.3009501475
  0
LINE
  8
0
 62
7
  6
CONTINUOUS
 10
81.3229927346
 20
242.254989084
 11
81.5956090268
 21
242.4648342337
  0
LINE
  8
0
 62
7
  6
CONTINUOUS
 10
91.8250555508
 20
247.1655699454
 11
91.524978933
 21
246.9418811757
  0
LINE
  8
0
 62
7
  6
CONTINUOUS
 10
72.8955566823
 20
234.6938474575
 11
73.229962878
 21
234.9424102765
  0
LINE
  8
0
 62
7
  6
CONTINUOUS
 10
82.90465592
 20
240.8969463086
 11
82.4023666842
 21
240.5883573541
  0
LINE
  8
0
 62
7
  6
CONTINUOUS
 10
82.6133845277
 20
240.3085260556
 11
83.1156720201
 21
240.6171142363
  0
LINE
  8
0
 62
7
  6
CONTINUOUS
 10
76.6416644593
 20
239.4204150761
 11
78.5393843639
 21
240.4659297116
  0
LINE
  8
0
 62
7
  6
CONTINUOUS
 10
77.1072181564
 20
237.5392137362
 11
77.5451536475
 21
237.7804864152
  0
LINE
  8
0
 62
7
  6
CONTINUOUS
 10
68.5174091697
 20
231.0939143375
 11
68.819315209
 21
231.258859593
  0
LINE
  8
0
 62
7
  6
CONTINUOUS
 10
80.3419642101
 20
239.2648569811
 11
80.7166005475
 21
239.4472274578
  0
LINE
  8
0
 62
7
  6
CONTINUOUS
 10
69.9478533077
 20
235.4139514189
 11
70.2601794135
 21
235.5581967495
  0
LINE
  8
0
 62
7
  6
CONTINUOUS
 10
93.7781483042
 20
244.1309156739
 11
93.4638011645
 21
243.9911283161
  0
LINE
  8
0
 62
7
  6
CONTINUOUS
 10
82.7066618039
 20
242.2014022706
 11
81.0989511166
 21
241.5101958284
  0
LINE
  8
0
 62
7
  6
CONTINUOUS
 10
81.1568542759
 20
241.1645355139
 11
83.2239108739
 21
242.0532295111
  0
LINE
  8
0
 62
7
  6
CONTINUOUS
 10
83.4256002677
 20
241.5841103391
 11
83.0428108406
 21
241.4195368744
  0
LINE
  8
0
 62
7
  6
CONTINUOUS
 10
93.5494130242
 20
243.4877178678
 11
93.9459126977
 21
243.6414763997
  0
LINE
  8
0
 62
7
  6
CONTINUOUS
 10
70.2394031371
 20
235.9800472699
 11
69.9917365048
 21
235.8883721154
  0
LINE
  8
0
 62
7
  6
CONTINUOUS
 10
84.3832722034
 20
241.0463391649
 11
84.8557486508
 21
241.2099423637
  0
LINE
  8
0
 62
7
  6
CONTINUOUS
 10
86.5881628921
 20
241.8098209672
 11
87.0606393395
 21
241.9734241659
  0
LINE
  8
0
 62
7
  6
CONTINUOUS
 10
114.2981764123
 20
245.6618633645
 11
114.5856587801
 21
245.7558115789
  0
LINE
  8
0
 62
7
  6
CONTINUOUS
 10
68.5872648932
 20
231.5079422828
 11
68.2273462648
 21
231.4052677107
  0
LINE
  8
0
 62
7
  6
CONTINUOUS
 10
113.1006564551
 20
150.0970956091
 11
101.6006564551
 21
150.0970956091
  0
LINE
  8
0
 62
7
  6
CONTINUOUS
 10
69.4415493364
 20
235.111996011
 11
69.4196077378
 21
234.8747856627
  0
LINE
  8
0
 62
7
  6
CONTINUOUS
 10
69.6343620648
 20
234.6106453701
 11
69.6563036633
 21
234.8478557183
  0
LINE
  8
0
 62
7
  6
CONTINUOUS
 10
69.083934178
 20
232.3195981175
 11
69.0170392196
 21
232.0246448274
  0
LINE
  8
0
 62
7
  6
CONTINUOUS
 10
69.5281500384
 20
235.4017762345
 11
69.4415493364
 21
235.111996011
  0
LINE
  8
0
 62
7
  6
CONTINUOUS
 10
69.6563036633
 20
234.8478557183
 11
69.7429043654
 21
235.1376359419
  0
LINE
  8
0
 62
7
  6
CONTINUOUS
 10
81.0746646556
 20
241.777670258
 11
81.2034929141
 21
242.1109736214
  0
LINE
  8
0
 62
7
  6
CONTINUOUS
 10
80.7534754413
 20
242.1027739674
 11
80.6675887675
 21
241.8805712229
  0
LINE
  8
0
 62
7
  6
CONTINUOUS
 10
80.9159185987
 20
242.3578908022
 11
80.7534754413
 21
242.1027739674
  0
LINE
  8
0
 62
7
  6
CONTINUOUS
 10
83.0670990774
 20
241.1520631434
 11
82.90465592
 21
240.8969463086
  0
LINE
  8
0
 62
7
  6
CONTINUOUS
 10
91.524978933
 20
246.9418811757
 11
91.2534377181
 21
246.5503886231
  0
LINE
  8
0
 62
7
  6
CONTINUOUS
 10
83.1156720201
 20
240.6171142363
 11
83.3546734045
 21
240.9051459353
  0
LINE
  8
0
 62
7
  6
CONTINUOUS
 10
93.9960723769
 20
244.3406333356
 11
93.7781483042
 21
244.1309156739
  0
LINE
  8
0
 62
7
  6
CONTINUOUS
 10
93.9459126977
 20
243.6414763997
 11
94.2459911921
 21
243.8651655112
  0
LINE
  8
0
 62
7
  6
CONTINUOUS
 10
110.6347515374
 20
246.7804967952
 11
107.2826992615
 21
244.4048505603
  0
LINE
  8
0
 62
7
  6
CONTINUOUS
 10
114.2564631587
 20
246.116962885
 11
113.8415876343
 21
245.8827021803
  0
LINE
  8
0
 62
7
  6
CONTINUOUS
 10
115.6859807419
 20
244.462500119
 11
112.8528666034
 21
243.0679193443
  0
LINE
  8
0
 62
7
  6
CONTINUOUS
 10
113.4932197841
 20
242.8824633014
 11
116.0151726991
 21
244.1013498741
  0
LINE
  8
0
 62
7
  6
CONTINUOUS
 10
118.5415789777
 20
240.8416620459
 11
118.9435832318
 21
240.9628672716
  0
LINE
  8
LAY0001
 62
7
  6
CONTINUOUS
 10
128.653221356
 20
161.8141961181
 11
128.7309274995
 21
161.8362364152
  0
LINE
  8
LAY0001
 62
7
  6
CONTINUOUS
 10
128.7889242699
 20
161.9777319552
 11
128.7112184118
 21
161.9556919435
  0
LINE
  8
LAY0001
 62
7
  6
CONTINUOUS
 10
129.9000495802
 20
163.0610243423
 11
129.9777557236
 21
163.0830646394
  0
LINE
  8
LAY0001
 62
7
  6
CONTINUOUS
 10
130.8725755208
 20
164.0335502829
 11
130.9502815216
 21
164.0555904373
  0
LINE
  8
LAY0001
 62
7
  6
CONTINUOUS
 10
131.0082784347
 20
164.19708612
 11
130.9305724339
 21
164.1750459656
  0
LINE
  8
LAY0001
 62
7
  6
CONTINUOUS
 10
130.2921111958
 20
164.0654103263
 11
130.175552116
 21
164.0323500306
  0
LINE
  8
LAY0001
 62
7
  6
CONTINUOUS
 10
131.7314387733
 20
164.9202464586
 11
131.8479978458
 21
164.9533067616
  0
LINE
  8
LAY0001
 62
7
  6
CONTINUOUS
 10
131.9767773086
 20
165.7222435159
 11
132.0933363909
 21
165.7553038092
  0
LINE
  8
LAY0001
 62
7
  6
CONTINUOUS
 10
132.1513332408
 20
165.896799448
 11
132.0736271905
 21
165.8747592539
  0
LINE
  8
LAY0001
 62
7
  6
CONTINUOUS
 10
127.5641366283
 20
160.8086101599
 11
127.6696754095
 21
160.8028172485
  0
LINE
  8
LAY0001
 62
7
  6
CONTINUOUS
 10
127.7415886415
 20
160.9303963268
 11
127.6888192509
 21
160.9332927826
  0
LINE
  8
LAY0001
 62
7
  6
CONTINUOUS
 10
127.3414732136
 20
161.0312735745
 11
127.4470120046
 21
161.0254806534
  0
LINE
  8
LAY0001
 62
7
  6
CONTINUOUS
 10
127.5189252366
 20
161.1530597317
 11
127.4661558363
 21
161.1559561972
  0
LINE
  8
0
 62
7
  6
CONTINUOUS
 10
69.3130237672
 20
231.9514408186
 11
69.3219060341
 21
232.3086647271
  0
LINE
  8
0
 62
7
  6
CONTINUOUS
 10
85.6970476249
 20
244.3833096205
 11
85.1928551487
 21
243.0378903328
  0
LINE
  8
0
 62
7
  6
CONTINUOUS
 10
84.8557486508
 20
241.2099423637
 11
85.3599392857
 21
242.5553611399
  0
LINE
  8
0
 62
7
  6
CONTINUOUS
 10
83.3546734045
 20
240.9051459353
 11
83.4835016512
 21
241.2384493261
  0
LINE
  8
0
 62
7
  6
CONTINUOUS
 10
85.040159013
 20
242.7148240807
 11
84.3832722034
 21
241.0463391649
  0
LINE
  8
0
 62
7
  6
CONTINUOUS
 10
85.5126354604
 20
242.8784272794
 11
86.1695240723
 21
244.5469128193
  0
LINE
  8
0
 62
7
  6
CONTINUOUS
 10
91.6533967475
 20
246.1867653564
 11
91.7748977332
 21
246.4664134395
  0
LINE
  8
0
 62
7
  6
CONTINUOUS
 10
94.2459911921
 20
243.8651655112
 11
94.5175324019
 21
244.2566580932
  0
LINE
  8
0
 62
7
  6
CONTINUOUS
 10
114.0670616265
 20
245.4629864939
 11
114.2981764123
 21
245.6618633645
  0
LINE
  8
0
 62
7
  6
CONTINUOUS
 10
112.4872808248
 20
246.8097176026
 11
111.8668919799
 21
246.3406447711
  0
LINE
  8
0
 62
7
  6
CONTINUOUS
 10
111.7148802719
 20
245.6769800772
 11
112.3352691701
 21
246.1460531411
  0
LINE
  8
0
 62
7
  6
CONTINUOUS
 10
107.7479802885
 20
244.1548786724
 11
111.0178306641
 21
246.5442026307
  0
LINE
  8
0
 62
7
  6
CONTINUOUS
 10
119.5745230153
 20
242.6350276995
 11
119.9286054014
 21
242.8652779525
  0
LINE
  8
0
 62
7
  6
CONTINUOUS
 10
123.145243752
 20
241.0177419576
 11
123.5165512365
 21
241.2190384232
  0
LINE
  8
0
 62
7
  6
CONTINUOUS
 10
119.490843362
 20
243.1214175463
 11
119.2748170803
 21
243.0210022784
  0
LINE
  8
0
 62
7
  6
CONTINUOUS
 10
118.8599036101
 20
241.449257202
 11
118.6438773073
 21
241.3488418784
  0
LINE
  8
0
 62
7
  6
CONTINUOUS
 10
123.1005968485
 20
241.5092539324
 11
122.8772544554
 21
241.4263759747
  0
LINE
  8
0
 62
7
  6
CONTINUOUS
 10
122.3383887752
 20
239.8927007967
 11
122.1150463567
 21
239.8098227851
  0
LINE
  8
0
 62
7
  6
CONTINUOUS
 10
130.0556866706
 20
236.8034329542
 11
130.4549999703
 21
236.9410498277
  0
LINE
  8
LAY0001
 62
7
  6
CONTINUOUS
 10
128.1846541419
 20
161.4847935199
 11
128.2374235326
 21
161.4818970642
  0
LINE
  8
LAY0001
 62
7
  6
CONTINUOUS
 10
128.3621064406
 20
161.6065799722
 11
128.2565673739
 21
161.6123725983
  0
LINE
  8
LAY0001
 62
7
  6
CONTINUOUS
 10
127.9619907273
 20
161.7074569346
 11
128.0147601179
 21
161.7045604788
  0
LINE
  8
LAY0001
 62
7
  6
CONTINUOUS
 10
128.1394430259
 20
161.8292433869
 11
128.0339039544
 21
161.8350360178
  0
LINE
  8
LAY0001
 62
7
  6
CONTINUOUS
 10
130.0108160266
 20
163.1996237119
 11
129.9580463506
 21
163.2025198822
  0
LINE
  8
LAY0001
 62
7
  6
CONTINUOUS
 10
129.6269476917
 20
163.4837456063
 11
129.5741782986
 21
163.4866420644
  0
LINE
  8
LAY0001
 62
7
  6
CONTINUOUS
 10
130.1813447494
 20
163.9268109566
 11
130.2341142827
 21
163.9239146436
  0
LINE
  8
LAY0001
 62
7
  6
CONTINUOUS
 10
130.8198059875
 20
164.0364465959
 11
130.8725755208
 21
164.0335502829
  0
LINE
  8
LAY0001
 62
7
  6
CONTINUOUS
 10
132.2568722213
 20
165.8910067164
 11
132.1513332408
 21
165.896799448
  0
LINE
  8
LAY0001
 62
7
  6
CONTINUOUS
 10
128.5865355038
 20
161.8310090354
 11
128.653221356
 21
161.8141961181
  0
LINE
  8
0
 62
7
  6
CONTINUOUS
 10
80.6675887675
 20
241.8805712229
 11
80.6489336439
 21
241.5019961744
  0
LINE
  8
0
 62
7
  6
CONTINUOUS
 10
81.0653362176
 20
241.588382357
 11
81.0746646556
 21
241.777670258
  0
LINE
  8
0
 62
7
  6
CONTINUOUS
 10
91.2534377181
 20
246.5503886231
 11
91.1462053341
 21
246.1868390436
  0
LINE
  8
0
 62
7
  6
CONTINUOUS
 10
94.1175734025
 20
244.6202811836
 11
93.9960723769
 21
244.3406333356
  0
LINE
  8
0
 62
7
  6
CONTINUOUS
 10
115.9407670551
 20
244.7431250997
 11
115.6859807419
 21
244.462500119
  0
LINE
  8
0
 62
7
  6
CONTINUOUS
 10
116.0151726991
 20
244.1013498741
 11
116.2462874849
 21
244.3002267447
  0
LINE
  8
0
 62
7
  6
CONTINUOUS
 10
118.9435832318
 20
240.9628672716
 11
119.2976656285
 21
241.1931175525
  0
LINE
  8
0
 62
7
  6
CONTINUOUS
 10
122.3830356406
 20
239.401188741
 11
122.7543431378
 21
239.6024852336
  0
LINE
  8
LAY0001
 62
7
  6
CONTINUOUS
 10
132.0933363909
 20
165.7553038092
 11
132.212791821
 21
165.7355946234
  0
LINE
  8
LAY0001
 62
7
  6
CONTINUOUS
 10
129.8333637279
 20
163.0778372596
 11
129.9000495802
 21
163.0610243423
  0
LINE
  8
LAY0001
 62
7
  6
CONTINUOUS
 10
129.4494953906
 20
163.3619591564
 11
129.5161812477
 21
163.3451462342
  0
LINE
  8
LAY0001
 62
7
  6
CONTINUOUS
 10
129.6936335512
 20
163.4669326816
 11
129.6269476917
 21
163.4837456063
  0
LINE
  8
LAY0001
 62
7
  6
CONTINUOUS
 10
131.842205077
 20
165.0588456855
 11
131.7755191535
 21
165.0756585315
  0
LINE
  8
LAY0001
 62
7
  6
CONTINUOUS
 10
130.3727135194
 20
164.0346809376
 11
130.2921111958
 21
164.0654103263
  0
LINE
  8
0
 62
7
  6
CONTINUOUS
 10
69.031843124
 20
232.6200181057
 11
69.083934178
 21
232.3195981175
  0
LINE
  8
0
 62
7
  6
CONTINUOUS
 10
83.0428108406
 20
241.4195368744
 11
83.0670990774
 21
241.1520631434
  0
LINE
  8
0
 62
7
  6
CONTINUOUS
 10
89.787534638
 20
127.5255195103
 11
89.9743545746
 21
123.9607827637
  0
LINE
  8
0
 62
7
  6
CONTINUOUS
 10
94.5175324019
 20
244.2566580932
 11
94.624764776
 21
244.6202077315
  0
LINE
  8
0
 62
7
  6
CONTINUOUS
 10
56.517417516
 20
142.5029042348
 11
54.8968399537
 21
139.3223416862
  0
LINE
  8
0
 62
7
  6
CONTINUOUS
 10
119.6589442145
 20
243.3308792091
 11
119.490843362
 21
243.1214175463
  0
LINE
  8
0
 62
7
  6
CONTINUOUS
 10
119.9286054014
 20
242.8652779525
 11
120.0967062539
 21
243.0747396153
  0
LINE
  8
0
 62
7
  6
CONTINUOUS
 10
119.0280044625
 20
241.6587188648
 11
118.8599036101
 21
241.449257202
  0
LINE
  8
0
 62
7
  6
CONTINUOUS
 10
119.2976656285
 20
241.1931175525
 11
119.465766502
 21
241.402579271
  0
LINE
  8
0
 62
7
  6
CONTINUOUS
 10
123.28485756
 20
241.704651156
 11
123.1005968485
 21
241.5092539324
  0
LINE
  8
0
 62
7
  6
CONTINUOUS
 10
123.5165512365
 20
241.2190384232
 11
123.7008119481
 21
241.4144356467
  0
LINE
  8
0
 62
7
  6
CONTINUOUS
 10
122.5226494868
 20
240.0880980203
 11
122.3383887752
 21
239.8927007967
  0
LINE
  8
0
 62
7
  6
CONTINUOUS
 10
122.7543431378
 20
239.6024852336
 11
122.9386038748
 21
239.7978825111
  0
LINE
  8
0
 62
7
  6
CONTINUOUS
 10
130.3061642489
 20
237.4581053712
 11
130.0923257943
 21
237.2956066452
  0
LINE
  8
0
 62
7
  6
CONTINUOUS
 10
130.4549999703
 20
236.9410498277
 11
130.6688384248
 21
237.1035485537
  0
LINE
  8
0
 62
7
  6
CONTINUOUS
 10
35.1933432637
 20
172.1087584495
 11
32.1996006516
 21
170.1645992651
  0
LINE
  8
0
 62
7
  6
CONTINUOUS
 10
131.2280133026
 20
234.9356883898
 11
133.2664455687
 21
236.2347309504
  0
LINE
  8
0
 62
7
  6
CONTINUOUS
 10
130.0415155043
 20
234.1482466247
 11
130.9474873398
 21
234.7255972284
  0
LINE
  8
0
 62
7
  6
CONTINUOUS
 10
133.2250787979
 20
236.7093740012
 11
129.6552347933
 21
234.4657166427
  0
LINE
  8
0
 62
7
  6
CONTINUOUS
 10
135.0376513003
 20
233.5685653257
 11
135.2751520363
 21
233.6939696427
  0
LINE
  8
0
 62
7
  6
CONTINUOUS
 10
134.0902200524
 20
232.59050265
 11
134.3277207054
 21
232.7159068814
  0
LINE
  8
0
 62
7
  6
CONTINUOUS
 10
135.408963536
 20
230.9575936351
 11
135.1714629659
 21
230.8321894893
  0
LINE
  8
0
 62
7
  6
CONTINUOUS
 10
135.213371953
 20
234.1092814294
 11
134.7975905747
 21
233.9195965701
  0
LINE
  8
0
 62
7
  6
CONTINUOUS
 10
135.2332430077
 20
230.4168776599
 11
135.6490242616
 21
230.6065623907
  0
LINE
  8
0
 62
7
  6
CONTINUOUS
 10
170.672232554
 20
185.783973792
 11
174.2369693005
 21
185.9707937286
  0
LINE
  8
LAY0001
 62
7
  6
CONTINUOUS
 10
130.9305724339
 20
164.1750459656
 11
130.8499699774
 21
164.2057752018
  0
LINE
  8
LAY0001
 62
7
  6
CONTINUOUS
 10
131.6508363168
 20
164.9509756948
 11
131.7314387733
 21
164.9202464586
  0
LINE
  8
LAY0001
 62
7
  6
CONTINUOUS
 10
128.4920167284
 20
161.8756548759
 11
128.5865355038
 21
161.8310090354
  0
LINE
  8
LAY0001
 62
7
  6
CONTINUOUS
 10
128.7112184118
 20
161.9556919435
 11
128.6166993511
 21
162.0003374986
  0
LINE
  8
LAY0001
 62
7
  6
CONTINUOUS
 10
129.5161812477
 20
163.3451462342
 11
129.6107003133
 21
163.3005006742
  0
LINE
  8
LAY0001
 62
7
  6
CONTINUOUS
 10
130.7252872121
 20
164.0810924364
 11
130.8198059875
 21
164.0364465959
  0
LINE
  8
0
 62
7
  6
CONTINUOUS
 10
155.6948478295
 20
152.51385667
 11
158.8754103781
 21
150.8932791077
  0
LINE
  8
0
 62
7
  6
CONTINUOUS
 10
126.0889936148
 20
131.1897824177
 11
128.0331527991
 21
128.1960398056
  0
LINE
  8
0
 62
7
  6
CONTINUOUS
 10
91.1462053341
 20
246.1868390436
 11
91.1353941667
 21
245.7533586641
  0
LINE
  8
0
 62
7
  6
CONTINUOUS
 10
94.624764776
 20
244.6202077315
 11
94.6355759833
 21
245.0536878759
  0
LINE
  8
0
 62
7
  6
CONTINUOUS
 10
91.6283168986
 20
245.8371869436
 11
91.6533967475
 21
246.1867653564
  0
LINE
  8
0
 62
7
  6
CONTINUOUS
 10
94.1426532515
 20
244.9698595965
 11
94.1175734025
 21
244.6202811836
  0
LINE
  8
0
 62
7
  6
CONTINUOUS
 10
105.6109119802
 20
270.75858753
 11
103.7702719612
 21
260.3197992538
  0
LINE
  8
0
 62
7
  6
CONTINUOUS
 10
113.8415876343
 20
245.8827021803
 11
113.6668440946
 21
245.5788955921
  0
LINE
  8
0
 62
7
  6
CONTINUOUS
 10
116.2462874849
 20
244.3002267447
 11
116.4210310246
 21
244.6040333329
  0
LINE
  8
0
 62
7
  6
CONTINUOUS
 10
141.8373982778
 20
258.6346911308
 11
135.0239631241
 21
250.5147553084
  0
LINE
  8
0
 62
7
  6
CONTINUOUS
 10
134.7975905747
 20
233.9195965701
 11
134.3232322134
 21
233.5496767768
  0
LINE
  8
0
 62
7
  6
CONTINUOUS
 10
134.6225073868
 20
233.2597744442
 11
135.0376513003
 21
233.5685653257
  0
LINE
  8
0
 62
7
  6
CONTINUOUS
 10
137.5359012406
 20
231.9894004546
 11
136.0326447469
 21
231.1214949133
  0
LINE
  8
0
 62
7
  6
CONTINUOUS
 10
167.1485075018
 20
230.0218457074
 11
157.1879316604
 21
226.3964925849
  0
LINE
  8
0
 62
7
  6
CONTINUOUS
 10
27.4391645343
 20
201.6073511342
 11
37.8779528105
 21
199.7667111152
  0
LINE
  8
LAY0001
 62
7
  6
CONTINUOUS
 10
132.3653075541
 20
165.8324445102
 11
132.2568722213
 21
165.8910067164
  0
LINE
  8
0
 62
7
  6
CONTINUOUS
 10
52.6654116697
 20
211.2047907637
 11
54.3974624773
 21
210.2047907637
  0
LINE
  8
0
 62
7
  6
CONTINUOUS
 10
39.5630609335
 20
237.8338374318
 11
47.6829967559
 21
231.020402278
  0
LINE
  8
LAY0001
 62
7
  6
CONTINUOUS
 10
128.0060694793
 20
160.3628983265
 11
129.632415076
 21
158.7365527298
  0
LINE
  8
LAY0001
 62
7
  6
CONTINUOUS
 10
127.3136402904
 20
161.0591064977
 11
127.3414732136
 21
161.0312735745
  0
LINE
  8
LAY0001
 62
7
  6
CONTINUOUS
 10
130.23345584
 20
159.3375934938
 11
128.6071102433
 21
160.9639390905
  0
LINE
  8
0
 62
7
  6
CONTINUOUS
 10
68.1759063569
 20
263.1449466558
 11
71.8012594793
 21
253.1843708144
  0
LINE
  8
0
 62
7
  6
CONTINUOUS
 10
80.6489336439
 20
241.5019961744
 11
80.7740648489
 21
240.9999620493
  0
LINE
  8
0
 62
7
  6
CONTINUOUS
 10
83.4835016512
 20
241.2384493261
 11
83.4256002677
 21
241.5841103391
  0
LINE
  8
0
 62
7
  6
CONTINUOUS
 10
95.1940627679
 20
247.7813133369
 11
95.5270598709
 21
243.7951983198
  0
LINE
  8
0
 62
7
  6
CONTINUOUS
 10
96.025324248
 20
243.8368229577
 11
95.7348374084
 21
247.3140722886
  0
LINE
  8
0
 62
7
  6
CONTINUOUS
 10
99.5096015195
 20
248.0943361638
 11
99.5167432706
 21
244.0943425394
  0
LINE
  8
0
 62
7
  6
CONTINUOUS
 10
100.0158307607
 20
244.605872741
 11
100.0133995263
 21
245.9675727147
  0
LINE
  8
0
 62
7
  6
CONTINUOUS
 10
100.0124878135
 20
246.4782101378
 11
100.0105124353
 21
247.5845914596
  0
LINE
  8
DEFAULT_1
 62
2
  6
CENTER
 10
101.1006564551
 20
271.329321663
 11
101.1006564551
 21
199.0971956091
  0
LINE
  8
0
 62
2
  6
CONTINUOUS
 10
101.1006564551
 20
197.9770956091
 11
101.1006564551
 21
196.2170956091
  0
LINE
  8
DEFAULT_1
 62
2
  6
CENTER
 10
101.1006564551
 20
116.0054704595
 11
101.1006564551
 21
195.0969956091
  0
LINE
  8
0
 62
7
  6
CONTINUOUS
 10
101.6006564551
 20
145.3944269221
 11
101.6006564551
 21
148.0970956091
  0
LINE
  8
0
 62
7
  6
CONTINUOUS
 10
101.6006564551
 20
150.0970956091
 11
101.6006564551
 21
152.7997642962
  0
LINE
  8
0
 62
7
  6
CONTINUOUS
 10
107.8274883872
 20
247.6789847377
 11
107.7576436363
 21
247.2592239985
  0
LINE
  8
0
 62
7
  6
CONTINUOUS
 10
107.2826992615
 20
244.4048505603
 11
107.1709476503
 21
243.7332333187
  0
LINE
  8
0
 62
7
  6
CONTINUOUS
 10
111.8668919799
 20
246.3406447711
 11
111.7148802719
 21
245.6769800772
  0
LINE
  8
0
 62
7
  6
CONTINUOUS
 10
112.3352691701
 20
246.1460531411
 11
111.5942122468
 21
242.9106884266
  0
LINE
  8
0
 62
7
  6
CONTINUOUS
 10
112.0815908938
 20
242.7990548544
 11
112.9746594718
 21
246.6980840304
  0
LINE
  8
0
 62
7
  6
CONTINUOUS
 10
112.8528666034
 20
243.0679193443
 11
112.7344906291
 21
242.6591840425
  0
LINE
  8
0
 62
7
  6
CONTINUOUS
 10
117.6625702259
 20
245.3576358714
 11
116.2504668975
 21
241.6151815711
  0
LINE
  8
0
 62
7
  6
CONTINUOUS
 10
116.8985421946
 20
241.9164287773
 11
117.349213479
 21
243.1108291108
  0
LINE
  8
0
 62
7
  6
CONTINUOUS
 10
117.5294819676
 20
243.5885891773
 11
117.9501085249
 21
244.7033628888
  0
LINE
  8
0
 62
7
  6
CONTINUOUS
 10
121.4563724514
 20
243.8840762814
 11
119.7504781027
 21
240.2660762164
  0
LINE
  8
0
 62
7
  6
CONTINUOUS
 10
120.4205018569
 20
240.5147117704
 11
120.9649362349
 21
241.6693926663
  0
LINE
  8
0
 62
7
  6
CONTINUOUS
 10
121.1827099556
 20
242.13126496
 11
121.6908487389
 21
243.2089671942
  0
LINE
  8
0
 62
7
  6
CONTINUOUS
 10
128.8602249483
 20
239.908111681
 11
126.5835842435
 21
236.6192050084
  0
LINE
  8
0
 62
7
  6
CONTINUOUS
 10
126.9946975776
 20
236.3346249203
 11
128.0119200346
 21
237.8041364332
  0
LINE
  8
0
 62
7
  6
CONTINUOUS
 10
128.3025549835
 20
238.2239968094
 11
129.0291424916
 21
239.2736479461
  0
LINE
  8
0
 62
7
  6
CONTINUOUS
 10
134.3232322134
 20
233.5496767768
 11
133.9087310787
 21
233.1217743936
  0
LINE
  8
0
 62
7
  6
CONTINUOUS
 10
134.5040784912
 20
233.1375166205
 11
134.6225073868
 21
233.2597744442
  0
LINE
  8
0
 62
7
  6
CONTINUOUS
 10
133.912576709
 20
232.4071159144
 11
134.0902200524
 21
232.59050265
  0
LINE
  8
0
 62
7
  6
CONTINUOUS
 10
145.6264809816
 20
223.3814426546
 11
143.2859012406
 21
222.030108311
  0
LINE
  8
0
 62
7
  6
CONTINUOUS
 10
141.553850433
 20
221.030108311
 11
139.213270692
 21
219.6787739675
  0
LINE
  8
DEFAULT_1
 62
2
  6
CENTER
 10
176.8129102845
 20
197.0970956091
 11
103.1007564551
 21
197.0970956091
  0
LINE
  8
0
 62
2
  6
CONTINUOUS
 10
101.9806564551
 20
197.0970956091
 11
100.2206564551
 21
197.0970956091
  0
LINE
  8
DEFAULT_1
 62
2
  6
CENTER
 10
32.2122538293
 20
197.0970956091
 11
99.1005564551
 21
197.0970956091
  0
LINE
  8
0
 62
7
  6
CONTINUOUS
 10
56.0748319287
 20
222.5154172508
 11
58.4154116697
 21
221.1640829073
  0
LINE
  8
0
 62
7
  6
CONTINUOUS
 10
60.1474624773
 20
220.1640829073
 11
62.4880422183
 21
218.8127485637
  0
LINE
  8
LAY0001
 62
7
  6
CONTINUOUS
 10
128.7485315995
 20
161.1053604468
 11
129.6677704151
 21
160.1861216312
  0
LINE
  8
LAY0001
 62
7
  6
CONTINUOUS
 10
128.3899393638
 20
161.578747049
 11
128.3621064406
 21
161.6065799722
  0
LINE
  8
LAY0001
 62
7
  6
CONTINUOUS
 10
128.2276039193
 20
162.1400676851
 11
128.4920167284
 21
161.8756548759
  0
LINE
  8
LAY0001
 62
7
  6
CONTINUOUS
 10
128.6166993511
 20
162.0003374986
 11
128.3522865419
 21
162.2647503077
  0
LINE
  8
LAY0001
 62
7
  6
CONTINUOUS
 10
130.3041665181
 20
160.7518070562
 11
129.3495723635
 21
161.7064012108
  0
LINE
  8
LAY0001
 62
7
  6
CONTINUOUS
 10
128.8011446683
 20
162.7136084342
 11
129.1212233239
 21
162.3935297787
  0
LINE
  8
LAY0001
 62
7
  6
CONTINUOUS
 10
129.1768891702
 20
162.3378639323
 11
129.2464714781
 21
162.2682816244
  0
LINE
  8
LAY0001
 62
7
  6
CONTINUOUS
 10
129.3711543862
 20
162.3929645324
 11
128.9258275764
 21
162.8382913422
  0
LINE
  8
LAY0001
 62
7
  6
CONTINUOUS
 10
129.1253201721
 20
163.037783938
 11
129.5706469819
 21
162.5924571282
  0
LINE
  8
LAY0001
 62
7
  6
CONTINUOUS
 10
129.7098116368
 20
162.4532924733
 11
129.7793939447
 21
162.3837101654
  0
LINE
  8
LAY0001
 62
7
  6
CONTINUOUS
 10
129.9040765674
 20
162.508392788
 11
129.8344942595
 21
162.577975096
  0
LINE
  8
LAY0001
 62
7
  6
CONTINUOUS
 10
129.6953296046
 20
162.7171397508
 11
129.2500027948
 21
163.1624665606
  0
LINE
  8
LAY0001
 62
7
  6
CONTINUOUS
 10
130.1627451619
 20
162.5195740091
 11
130.9405626212
 21
161.7417565498
  0
LINE
  8
LAY0001
 62
7
  6
CONTINUOUS
 10
131.5062480462
 20
161.1760711249
 11
131.7890907586
 21
160.8932284124
  0
LINE
  8
LAY0001
 62
7
  6
CONTINUOUS
 10
129.6107003133
 20
163.3005006742
 11
129.8333637279
 21
163.0778372596
  0
LINE
  8
LAY0001
 62
7
  6
CONTINUOUS
 10
129.8606311
 20
163.2999351328
 11
129.7771323305
 21
163.3834339024
  0
LINE
  8
LAY0001
 62
7
  6
CONTINUOUS
 10
129.9580463506
 20
163.2025198822
 11
129.9162969658
 21
163.244269267
  0
LINE
  8
LAY0001
 62
7
  6
CONTINUOUS
 10
132.3901315226
 20
161.4942691764
 11
130.7637859259
 21
163.1206147731
  0
LINE
  8
LAY0001
 62
7
  6
CONTINUOUS
 10
130.2341142827
 20
163.9239146436
 11
130.2619472156
 21
163.8960817107
  0
LINE
  8
LAY0001
 62
7
  6
CONTINUOUS
 10
130.9052072822
 20
163.2620361294
 11
132.5315528789
 21
161.6356905326
  0
LINE
  8
LAY0001
 62
7
  6
CONTINUOUS
 10
130.6092933858
 20
163.7981010711
 11
130.5814604627
 21
163.8259339943
  0
LINE
  8
LAY0001
 62
7
  6
CONTINUOUS
 10
130.4144629041
 20
163.9929315528
 11
130.3727135194
 21
164.0346809376
  0
LINE
  8
LAY0001
 62
7
  6
CONTINUOUS
 10
130.4469579413
 20
164.3594217072
 11
130.7252872121
 21
164.0810924364
  0
LINE
  8
LAY0001
 62
7
  6
CONTINUOUS
 10
130.8499699774
 20
164.2057752018
 11
130.5716407067
 21
164.4841044725
  0
LINE
  8
LAY0001
 62
7
  6
CONTINUOUS
 10
133.1325936429
 20
162.2367312967
 11
132.3547761836
 21
163.014548756
  0
LINE
  8
LAY0001
 62
7
  6
CONTINUOUS
 10
131.7890907586
 20
163.5802341809
 11
131.5062480462
 21
163.8630768934
  0
LINE
  8
LAY0001
 62
7
  6
CONTINUOUS
 10
131.0204988331
 20
164.9329625989
 11
131.3405774886
 21
164.6128839434
  0
LINE
  8
LAY0001
 62
7
  6
CONTINUOUS
 10
131.396243335
 20
164.5572180971
 11
131.6745726057
 21
164.2788888263
  0
LINE
  8
LAY0001
 62
7
  6
CONTINUOUS
 10
131.7992554424
 20
164.403571663
 11
131.1451816698
 21
165.0576454356
  0
LINE
  8
LAY0001
 62
7
  6
CONTINUOUS
 10
132.9911722867
 20
164.0044982496
 11
133.9457664413
 21
163.049904095
  0
LINE
  8
LAY0001
 62
7
  6
CONTINUOUS
 10
132.212791821
 20
165.7355946234
 11
132.2545412058
 21
165.6938452386
  0
LINE
  8
LAY0001
 62
7
  6
CONTINUOUS
 10
134.5468072053
 20
163.650944859
 11
133.6275683897
 21
164.5701836746
  0
LINE
  8
0
 62
7
  6
CONTINUOUS
 10
66.2312322579
 20
232.5698732872
 11
67.3914838167
 21
231.3244598599
  0
LINE
  8
0
 62
7
  6
CONTINUOUS
 10
67.696350653
 20
231.60847978
 11
66.5360990942
 21
232.8538932073
  0
LINE
  8
0
 62
7
  6
CONTINUOUS
 10
67.7555664175
 20
233.989972867
 11
69.031843124
 21
232.6200181057
  0
LINE
  8
0
 62
7
  6
CONTINUOUS
 10
68.8278680166
 20
234.942110599
 11
70.5459027827
 21
232.8289880728
  0
LINE
  8
0
 62
7
  6
CONTINUOUS
 10
70.8691995952
 20
233.0918385024
 11
69.6343620648
 21
234.6106453701
  0
LINE
  8
0
 62
7
  6
CONTINUOUS
 10
69.4196077378
 20
234.8747856627
 11
69.1511648291
 21
235.2049610285
  0
LINE
  8
0
 62
7
  6
CONTINUOUS
 10
71.012984695
 20
235.2927664434
 11
72.0330678985
 21
234.0380998683
  0
LINE
  8
0
 62
7
  6
CONTINUOUS
 10
70.50935271
 20
237.9041481603
 11
70.7632041661
 21
237.5626268497
  0
LINE
  8
0
 62
7
  6
CONTINUOUS
 10
71.2709072207
 20
236.879584037
 11
72.8955566823
 21
234.6938474575
  0
LINE
  8
0
 62
7
  6
CONTINUOUS
 10
73.229962878
 20
234.9424102765
 11
71.6053134163
 21
237.128146856
  0
LINE
  8
0
 62
7
  6
CONTINUOUS
 10
71.0976103618
 20
237.8111896687
 11
70.8437589056
 21
238.1527109793
  0
LINE
  8
0
 62
7
  6
CONTINUOUS
 10
75.1770367245
 20
241.0426976651
 11
77.1072181564
 21
237.5392137362
  0
LINE
  8
0
 62
7
  6
CONTINUOUS
 10
77.5451536475
 20
237.7804864152
 11
76.6416644593
 21
239.4204150761
  0
LINE
  8
0
 62
7
  6
CONTINUOUS
 10
76.3952583484
 20
239.8676682903
 11
75.8613783264
 21
240.8367171299
  0
LINE
  8
0
 62
7
  6
CONTINUOUS
 10
78.5912089696
 20
242.8613630756
 11
80.3419642101
 21
239.2648569811
  0
LINE
  8
0
 62
7
  6
CONTINUOUS
 10
80.7166005475
 20
239.4472274578
 11
78.9658453069
 21
243.0437335523
  0
LINE
  8
0
 62
7
  6
CONTINUOUS
 10
81.2240840738
 20
241.0081624566
 11
81.1568542759
 21
241.1645355139
  0
LINE
  8
0
 62
7
  6
CONTINUOUS
 10
81.0989511166
 20
241.5101958284
 11
81.0653362176
 21
241.588382357
  0
LINE
  8
0
 62
7
  6
CONTINUOUS
 10
82.639432006
 20
242.357775328
 11
82.7066618039
 21
242.2014022706
  0
LINE
  8
0
 62
7
  6
CONTINUOUS
 10
91.1353941667
 20
245.7533586641
 11
91.349423811
 21
244.4948325728
  0
LINE
  8
0
 62
7
  6
CONTINUOUS
 10
91.8423465428
 20
244.5786608522
 11
91.6283168986
 21
245.8371869436
  0
LINE
  8
0
 62
7
  6
CONTINUOUS
 10
98.0175596378
 20
248.017186179
 11
98.3009614286
 21
244.6247478552
  0
LINE
  8
0
 62
7
  6
CONTINUOUS
 10
98.848821118
 20
244.0726957998
 11
98.5158240149
 21
248.0588108169
  0
LINE
  8
0
 62
7
  6
CONTINUOUS
 10
102.1800640111
 20
245.9714411655
 11
102.1791522983
 21
246.4820785886
  0
LINE
  8
0
 62
7
  6
CONTINUOUS
 10
102.5167384889
 20
244.0996988527
 11
102.515826776
 21
244.6103363354
  0
LINE
  8
0
 62
7
  6
CONTINUOUS
 10
102.5105084506
 20
247.5890550541
 11
102.5095967378
 21
248.0996924772
  0
LINE
  8
0
 62
7
  6
CONTINUOUS
 10
110.4590725785
 20
243.1861162466
 11
110.5428862894
 21
243.6898291925
  0
LINE
  8
0
 62
7
  6
CONTINUOUS
 10
111.0178306641
 20
246.5442026307
 11
111.1156133154
 21
247.1318676656
  0
LINE
  8
0
 62
7
  6
CONTINUOUS
 10
115.9881175045
 20
244.9066194265
 11
115.9407670551
 21
244.7431250997
  0
LINE
  8
0
 62
7
  6
CONTINUOUS
 10
115.6160744461
 20
241.8246334415
 11
115.7344504204
 21
242.2333687432
  0
LINE
  8
0
 62
7
  6
CONTINUOUS
 10
116.4210310246
 20
244.6040333329
 11
116.468381474
 21
244.7675276597
  0
LINE
  8
0
 62
7
  6
CONTINUOUS
 10
119.7190337106
 20
243.4901325646
 11
119.6589442145
 21
243.3308792091
  0
LINE
  8
0
 62
7
  6
CONTINUOUS
 10
119.1181387068
 20
241.8975988981
 11
119.0280044625
 21
241.6587188648
  0
LINE
  8
0
 62
7
  6
CONTINUOUS
 10
119.465766502
 20
241.402579271
 11
119.6159902424
 21
241.8007126598
  0
LINE
  8
0
 62
7
  6
CONTINUOUS
 10
120.0967062539
 20
243.0747396153
 11
120.2168853304
 21
243.3932465494
  0
LINE
  8
0
 62
7
  6
CONTINUOUS
 10
123.3574488003
 20
241.8586085872
 11
123.28485756
 21
241.704651156
  0
LINE
  8
0
 62
7
  6
CONTINUOUS
 10
122.6315363472
 20
240.3190341671
 11
122.5226494868
 21
240.0880980203
  0
LINE
  8
0
 62
7
  6
CONTINUOUS
 10
122.9386038748
 20
239.7978825111
 11
123.1200819754
 21
240.1827760891
  0
LINE
  8
0
 62
7
  6
CONTINUOUS
 10
123.7008119481
 20
241.4144356467
 11
123.8459945302
 21
241.7223507248
  0
LINE
  8
0
 62
7
  6
CONTINUOUS
 10
130.451481859
 20
237.6680357553
 11
130.3061642489
 21
237.4581053712
  0
LINE
  8
0
 62
7
  6
CONTINUOUS
 10
130.6688384248
 20
237.1035485537
 11
130.8625951931
 21
237.3834556672
  0
LINE
  8
0
 62
7
  6
CONTINUOUS
 10
133.9087310787
 20
233.1217743936
 11
133.5540870877
 21
232.635889335
  0
LINE
  8
0
 62
7
  6
CONTINUOUS
 10
135.5866068794
 20
231.1409803707
 11
135.408963536
 21
230.9575936351
  0
LINE
  8
0
 62
7
  6
CONTINUOUS
 10
135.6490242616
 20
230.6065623907
 11
135.8845217064
 21
230.8496737104
  0
LINE
  8
0
 62
7
  6
CONTINUOUS
 10
69.5687603619
 20
232.6549553751
 11
68.0604333192
 21
234.273992848
  0
LINE
  8
0
 62
7
  6
CONTINUOUS
 10
72.356364526
 20
234.3009501475
 11
71.3362813225
 21
235.5556167226
  0
LINE
  8
0
 62
7
  6
CONTINUOUS
 10
80.7740648489
 20
240.9999620493
 11
81.0523124785
 21
240.5637577209
  0
LINE
  8
0
 62
7
  6
CONTINUOUS
 10
78.5393843639
 20
240.4659297116
 11
78.292978253
 21
240.9131829258
  0
LINE
  8
0
 62
7
  6
CONTINUOUS
 10
78.051055782
 20
242.0430805248
 11
77.8046496711
 21
242.490333739
  0
LINE
  8
0
 62
7
  6
CONTINUOUS
 10
83.2239108739
 20
242.0532295111
 11
83.089451231
 21
242.3659757353
  0
LINE
  8
0
 62
7
  6
CONTINUOUS
 10
91.349423811
 20
244.4948325728
 11
91.5029214345
 21
244.0892954013
  0
LINE
  8
0
 62
7
  6
CONTINUOUS
 10
93.9286236073
 20
246.2283856878
 11
94.1426532515
 21
244.9698595965
  0
LINE
  8
0
 62
7
  6
CONTINUOUS
 10
94.6355759833
 20
245.0536878759
 11
94.4215463391
 21
246.3122139673
  0
LINE
  8
0
 62
7
  6
CONTINUOUS
 10
112.4137782723
 20
266.668671708
 11
112.2269583357
 21
270.2334084546
  0
LINE
  8
0
 62
7
  6
CONTINUOUS
 10
113.1006564551
 20
148.0970956091
 11
113.1006564551
 21
150.0970956091
  0
LINE
  8
0
 62
7
  6
CONTINUOUS
 10
116.468381474
 20
244.7675276597
 11
116.4830394665
 21
245.1176974627
  0
LINE
  8
0
 62
7
  6
CONTINUOUS
 10
96.5904009301
 20
123.4356036883
 11
98.4310409491
 21
133.8743919645
  0
LINE
  8
0
 62
7
  6
CONTINUOUS
 10
133.7947905922
 20
232.1657465889
 11
133.912576709
 21
232.4071159144
  0
LINE
  8
0
 62
7
  6
CONTINUOUS
 10
145.6838953943
 20
251.6912869835
 11
147.3044729565
 21
254.8718495321
  0
LINE
  8
0
 62
7
  6
CONTINUOUS
 10
60.3639146325
 20
135.5595000875
 11
67.1773497863
 21
143.6794359099
  0
LINE
  8
0
 62
7
  6
CONTINUOUS
 10
167.0079696466
 20
222.0854327688
 11
170.0017122586
 21
224.0295919532
  0
LINE
  8
0
 62
7
  6
CONTINUOUS
 10
35.0528054085
 20
164.1723455109
 11
45.0133812499
 21
167.7976986334
  0
LINE
  8
0
 62
7
  6
CONTINUOUS
 10
31.5290803563
 20
208.4102174263
 11
27.9643436097
 21
208.2233974897
  0
LINE
  8
0
 62
7
  6
CONTINUOUS
 10
174.762148376
 20
192.5868400841
 11
164.3233600999
 21
194.4274801031
  0
LINE
  8
0
 62
7
  6
CONTINUOUS
 10
46.5064650808
 20
241.6803345483
 11
43.3259025322
 21
243.3009121105
  0
LINE
  8
0
 62
7
  6
CONTINUOUS
 10
67.9313617506
 20
231.4784717711
 11
67.696350653
 21
231.60847978
  0
LINE
  8
0
 62
7
  6
CONTINUOUS
 10
67.3914838167
 20
231.3244598599
 11
67.6845075234
 21
231.1321811354
  0
LINE
  8
0
 62
7
  6
CONTINUOUS
 10
69.8617839984
 20
232.4626766055
 11
69.5687603619
 21
232.6549553751
  0
LINE
  8
0
 62
7
  6
CONTINUOUS
 10
70.6798823128
 20
235.5703716331
 11
71.012984695
 21
235.2927664434
  0
LINE
  8
0
 62
7
  6
CONTINUOUS
 10
71.3362813225
 20
235.5556167226
 11
71.0031793103
 21
235.833222213
  0
LINE
  8
0
 62
7
  6
CONTINUOUS
 10
162.6382519768
 20
156.3603537865
 11
154.5183161543
 21
163.1737889403
  0
LINE
  8
0
 62
7
  6
CONTINUOUS
 10
81.4014852543
 20
240.8065169609
 11
81.2240840738
 21
241.0081624566
  0
LINE
  8
0
 62
7
  6
CONTINUOUS
 10
83.089451231
 20
242.3659757353
 11
82.8784333993
 21
242.6458070064
  0
LINE
  8
0
 62
7
  6
CONTINUOUS
 10
76.1123192955
 20
263.0044088006
 11
74.1681601111
 21
265.9981514127
  0
LINE
  8
LAY0001
 62
7
  6
CONTINUOUS
 10
132.4238697798
 20
165.7240091578
 11
132.3653075541
 21
165.8324445102
  0
LINE
  8
0
 62
7
  6
CONTINUOUS
 10
91.9815755247
 20
244.2570254124
 11
91.8423465428
 21
244.5786608522
  0
LINE
  8
0
 62
7
  6
CONTINUOUS
 10
93.7893946254
 20
246.5500211276
 11
93.9286236073
 21
246.2283856878
  0
LINE
  8
0
 62
7
  6
CONTINUOUS
 10
94.4215463391
 20
246.3122139673
 11
94.2680486756
 21
246.7177513737
  0
LINE
  8
0
 62
7
  6
CONTINUOUS
 10
134.0254065533
 20
131.0492445625
 11
130.4000534309
 21
141.0098204039
  0
LINE
  8
0
 62
7
  6
CONTINUOUS
 10
119.1303063849
 20
242.1658974133
 11
119.1181387068
 21
241.8975988981
  0
LINE
  8
0
 62
7
  6
CONTINUOUS
 10
119.6159902424
 20
241.8007126598
 11
119.6281579205
 21
242.069011175
  0
LINE
  8
0
 62
7
  6
CONTINUOUS
 10
119.7312014308
 20
243.7584311913
 11
119.7190337106
 21
243.4901325646
  0
LINE
  8
0
 62
7
  6
CONTINUOUS
 10
120.2168853304
 20
243.3932465494
 11
120.2290529665
 21
243.661544953
  0
LINE
  8
0
 62
7
  6
CONTINUOUS
 10
122.6650494071
 20
240.5855093451
 11
122.6315363472
 21
240.3190341671
  0
LINE
  8
0
 62
7
  6
CONTINUOUS
 10
123.1200819754
 20
240.1827760891
 11
123.1535950354
 21
240.4492512671
  0
LINE
  8
0
 62
7
  6
CONTINUOUS
 10
123.3909619111
 20
242.125083873
 11
123.3574488003
 21
241.8586085872
  0
LINE
  8
0
 62
7
  6
CONTINUOUS
 10
123.8459945302
 20
241.7223507248
 11
123.8795075393
 21
241.988825795
  0
LINE
  8
0
 62
7
  6
CONTINUOUS
 10
130.5282783534
 20
237.9253974056
 11
130.451481859
 21
237.6680357553
  0
LINE
  8
0
 62
7
  6
CONTINUOUS
 10
130.8625951931
 20
237.3834556672
 11
130.9393916875
 21
237.6408173175
  0
LINE
  8
0
 62
7
  6
CONTINUOUS
 10
132.2304414979
 20
232.3492482414
 11
133.7401177811
 21
236.2860822586
  0
LINE
  8
0
 62
7
  6
CONTINUOUS
 10
132.2350877451
 20
233.6673654498
 11
131.8441607869
 21
232.6667182594
  0
LINE
  8
0
 62
7
  6
CONTINUOUS
 10
133.2664455687
 20
236.2347309504
 11
132.3868554355
 21
233.9832783359
  0
LINE
  8
0
 62
7
  6
CONTINUOUS
 10
133.5540870877
 20
232.635889335
 11
133.3777237806
 21
232.2142848615
  0
LINE
  8
0
 62
7
  6
CONTINUOUS
 10
136.0326447469
 20
231.1214949133
 11
136.1214598493
 21
231.3338114665
  0
LINE
  8
0
 62
7
  6
CONTINUOUS
 10
135.7043930791
 20
231.3823497818
 11
135.5866068794
 21
231.1409803707
  0
LINE
  8
0
 62
7
  6
CONTINUOUS
 10
136.8912478367
 20
232.1284874921
 11
137.0090339535
 21
232.3698568176
  0
LINE
  8
0
 62
7
  6
CONTINUOUS
 10
67.6845075234
 20
231.1321811354
 11
67.8615060416
 21
231.0644437884
  0
LINE
  8
0
 62
7
  6
CONTINUOUS
 10
70.0387826413
 20
232.3949393543
 11
69.8617839984
 21
232.4626766055
  0
LINE
  8
0
 62
7
  6
CONTINUOUS
 10
69.3219060341
 20
232.3086647271
 11
69.7339157396
 21
232.1109193734
  0
LINE
  8
0
 62
7
  6
CONTINUOUS
 10
71.0031793103
 20
235.833222213
 11
70.7774540916
 21
235.9787572564
  0
LINE
  8
0
 62
7
  6
CONTINUOUS
 10
81.0523124785
 20
240.5637577209
 11
81.3398868173
 21
240.3168404853
  0
LINE
  8
0
 62
7
  6
CONTINUOUS
 10
81.5452732881
 20
240.6830587471
 11
81.4014852543
 21
240.8065169609
  0
LINE
  8
0
 62
7
  6
CONTINUOUS
 10
91.5029214345
 20
244.0892954013
 11
91.7243029614
 21
243.7816310695
  0
LINE
  8
LAY0001
 62
7
  6
CONTINUOUS
 10
131.4531095123
 20
165.1985757196
 11
131.4838387583
 21
165.1179732533
  0
LINE
  8
LAY0001
 62
7
  6
CONTINUOUS
 10
132.2545412058
 20
165.6938452386
 11
132.2852705061
 21
165.6132428072
  0
LINE
  8
LAY0001
 62
7
  6
CONTINUOUS
 10
130.2619472156
 20
163.8960817107
 11
130.2787599902
 21
163.8293957158
  0
LINE
  8
LAY0001
 62
7
  6
CONTINUOUS
 10
131.6085215949
 20
165.24265609
 11
131.5917087392
 21
165.3093420233
  0
LINE
  8
LAY0001
 62
7
  6
CONTINUOUS
 10
127.4661558363
 20
161.1559561972
 11
127.4632593805
 21
161.2087255878
  0
LINE
  8
LAY0001
 62
7
  6
CONTINUOUS
 10
128.2374235326
 20
161.4818970642
 11
128.2403199883
 21
161.4291276736
  0
LINE
  8
LAY0001
 62
7
  6
CONTINUOUS
 10
129.690737376
 20
163.5197023625
 11
129.6936335512
 21
163.4669326816
  0
LINE
  8
LAY0001
 62
7
  6
CONTINUOUS
 10
129.7771323305
 20
163.3834339024
 11
129.7742361601
 21
163.4362035784
  0
LINE
  8
LAY0001
 62
7
  6
CONTINUOUS
 10
130.4202556729
 20
163.8873926289
 11
130.4144629041
 21
163.9929315528
  0
LINE
  8
LAY0001
 62
7
  6
CONTINUOUS
 10
130.4567776973
 20
163.701251229
 11
130.4596740104
 21
163.6484816956
  0
LINE
  8
LAY0001
 62
7
  6
CONTINUOUS
 10
130.6121898416
 20
163.7453316805
 11
130.6092933858
 21
163.7981010711
  0
LINE
  8
LAY0001
 62
7
  6
CONTINUOUS
 10
127.3217638357
 20
161.1507288223
 11
127.3136402904
 21
161.0591064977
  0
LINE
  8
0
 62
7
  6
CONTINUOUS
 10
133.3777237806
 20
232.2142848615
 11
133.3204321687
 21
231.7958267314
  0
LINE
  8
0
 62
7
  6
CONTINUOUS
 10
133.7368561807
 20
231.8663999391
 11
133.7947905922
 21
232.1657465889
  0
LINE
  8
0
 62
7
  6
CONTINUOUS
 10
136.6499015534
 20
232.7177417399
 11
136.5919671833
 21
232.4183951329
  0
LINE
  8
0
 62
7
  6
CONTINUOUS
 10
135.1714629659
 20
230.8321894893
 11
134.8741106076
 21
230.7647625822
  0
LINE
  8
0
 62
7
  6
CONTINUOUS
 10
135.2751520363
 20
233.6939696427
 11
135.5725043531
 21
233.761396507
  0
LINE
  8
0
 62
7
  6
CONTINUOUS
 10
134.8168189957
 20
230.3463044521
 11
135.2332430077
 21
230.4168776599
  0
LINE
  8
0
 62
7
  6
CONTINUOUS
 10
68.2273462648
 20
231.4052677107
 11
67.9313617506
 21
231.4784717711
  0
LINE
  8
0
 62
7
  6
CONTINUOUS
 10
82.3854725897
 20
242.5265059801
 11
82.639432006
 21
242.357775328
  0
LINE
  8
0
 62
7
  6
CONTINUOUS
 10
92.1886884
 20
244.0332628709
 11
91.9815755247
 21
244.2570254124
  0
LINE
  8
0
 62
7
  6
CONTINUOUS
 10
93.58228171
 20
246.7737839042
 11
93.7893946254
 21
246.5500211276
  0
LINE
  8
0
 62
7
  6
CONTINUOUS
 10
98.3009614286
 20
244.6247478552
 11
95.9414593336
 21
247.8437502937
  0
LINE
  8
0
 62
7
  6
CONTINUOUS
 10
94.2680486756
 20
246.7177513737
 11
94.0466671586
 21
247.0254156469
  0
LINE
  8
0
 62
7
  6
CONTINUOUS
 10
95.7348374084
 20
247.3140722886
 11
98.1014245523
 21
244.010258843
  0
LINE
  8
0
 62
7
  6
CONTINUOUS
 10
115.899057532
 20
245.198223788
 11
115.9881175045
 21
244.9066194265
  0
LINE
  8
LAY0001
 62
7
  6
CONTINUOUS
 10
132.2852705061
 20
165.6132428072
 11
132.2881668726
 21
165.5604733274
  0
LINE
  8
LAY0001
 62
7
  6
CONTINUOUS
 10
132.4296625018
 20
165.618470187
 11
132.4238697798
 21
165.7240091578
  0
LINE
  8
0
 62
7
  6
CONTINUOUS
 10
130.9393916875
 20
237.6408173175
 11
130.9275916531
 21
238.063014279
  0
LINE
  8
0
 62
7
  6
CONTINUOUS
 10
135.7031130014
 20
231.6205674769
 11
135.7043930791
 21
231.3823497818
  0
LINE
  8
0
 62
7
  6
CONTINUOUS
 10
136.1214598493
 20
231.3338114665
 11
136.1195369927
 21
231.6911406633
  0
LINE
  8
LAY0001
 62
7
  6
CONTINUOUS
 10
128.3818155282
 20
161.487124444
 11
128.3899393638
 21
161.578747049
  0
LINE
  8
0
 62
7
  6
CONTINUOUS
 10
137.0090339535
 20
232.3698568176
 11
137.0663255447
 21
232.7883149263
  0
LINE
  8
LAY0001
 62
7
  6
CONTINUOUS
 10
129.1212233239
 20
162.3935297787
 11
129.0991833121
 21
162.3158239206
  0
LINE
  8
0
 62
7
  6
CONTINUOUS
 10
130.0923257943
 20
237.2956066452
 11
129.858411791
 21
237.2505117683
  0
LINE
  8
0
 62
7
  6
CONTINUOUS
 10
135.6297959443
 20
234.1798546157
 11
135.213371953
 21
234.1092814294
  0
LINE
  8
0
 62
7
  6
CONTINUOUS
 10
134.3277207054
 20
232.7159068814
 11
134.5658585744
 21
232.7222048338
  0
LINE
  8
0
 62
7
  6
CONTINUOUS
 10
67.8615060416
 20
231.0644437884
 11
68.2184638788
 21
231.0480437115
  0
LINE
  8
0
 62
7
  6
CONTINUOUS
 10
70.4431865723
 20
235.5973017279
 11
70.6798823128
 21
235.5703716331
  0
LINE
  8
0
 62
7
  6
CONTINUOUS
 10
70.7774540916
 20
235.9787572564
 11
70.5407583511
 21
236.0056873512
  0
LINE
  8
0
 62
7
  6
CONTINUOUS
 10
81.3398868173
 20
240.3168404853
 11
81.5602330988
 21
240.2262970878
  0
LINE
  8
0
 62
7
  6
CONTINUOUS
 10
81.8757909639
 20
240.5472428838
 11
81.5452732881
 21
240.6830587471
  0
LINE
  8
0
 62
7
  6
CONTINUOUS
 10
83.4921569362
 20
243.6198278183
 11
85.040159013
 21
242.7148240807
  0
LINE
  8
0
 62
7
  6
CONTINUOUS
 10
87.0606393395
 20
241.9734241659
 11
85.5126354604
 21
242.8784272794
  0
LINE
  8
0
 62
7
  6
CONTINUOUS
 10
82.8784333993
 20
242.6458070064
 11
82.5143008481
 21
242.8598093436
  0
LINE
  8
0
 62
7
  6
CONTINUOUS
 10
85.3599392857
 20
242.5553611399
 11
86.5881628921
 21
241.8098209672
  0
LINE
  8
0
 62
7
  6
CONTINUOUS
 10
85.1928551487
 20
243.0378903328
 11
83.9646333836
 21
243.783431017
  0
LINE
  8
0
 62
7
  6
CONTINUOUS
 10
91.7243029614
 20
243.7816310695
 11
92.1099933142
 21
243.50190974
  0
LINE
  8
0
 62
7
  6
CONTINUOUS
 10
94.0466671586
 20
247.0254156469
 11
93.6609768108
 21
247.3051369469
  0
LINE
  8
0
 62
7
  6
CONTINUOUS
 10
116.4830394665
 20
245.1176974627
 11
116.2575654744
 21
245.5374131491
  0
LINE
  8
0
 62
7
  6
CONTINUOUS
 10
119.0344590956
 20
242.3839888564
 11
119.1303063849
 21
242.1658974133
  0
LINE
  8
0
 62
7
  6
CONTINUOUS
 10
119.6353541415
 20
243.9765226344
 11
119.7312014308
 21
243.7584311913
  0
LINE
  8
0
 62
7
  6
CONTINUOUS
 10
122.5868894945
 20
240.8105462498
 11
122.6650494071
 21
240.5855093451
  0
LINE
  8
0
 62
7
  6
CONTINUOUS
 10
123.3128019985
 20
242.3501207777
 11
123.3909619111
 21
242.125083873
  0
LINE
  8
0
 62
7
  6
CONTINUOUS
 10
119.6281579205
 20
242.069011175
 11
119.5144335191
 21
242.475774344
  0
LINE
  8
0
 62
7
  6
CONTINUOUS
 10
120.2290529665
 20
243.661544953
 11
120.115328565
 21
244.0683081221
  0
LINE
  8
0
 62
7
  6
CONTINUOUS
 10
123.1535950354
 20
240.4492512671
 11
123.0726525117
 21
240.8637845263
  0
LINE
  8
0
 62
7
  6
CONTINUOUS
 10
123.8795075393
 20
241.988825795
 11
123.7985650157
 21
242.4033590542
  0
LINE
  8
0
 62
7
  6
CONTINUOUS
 10
130.4881209828
 20
238.1602094462
 11
130.5282783534
 21
237.9253974056
  0
LINE
  8
LAY0001
 62
7
  6
CONTINUOUS
 10
129.1548491585
 20
162.2601580742
 11
129.1768891702
 21
162.3378639323
  0
LINE
  8
LAY0001
 62
7
  6
CONTINUOUS
 10
129.7742361601
 20
163.4362035784
 11
129.8072964533
 21
163.5527626606
  0
LINE
  8
LAY0001
 62
7
  6
CONTINUOUS
 10
130.2787599902
 20
163.8293957158
 11
130.2567198358
 21
163.751689715
  0
LINE
  8
LAY0001
 62
7
  6
CONTINUOUS
 10
130.3982155379
 20
163.8096866086
 11
130.4202556729
 21
163.8873926289
  0
LINE
  8
LAY0001
 62
7
  6
CONTINUOUS
 10
130.5901495444
 20
163.667625537
 11
130.6121898416
 21
163.7453316805
  0
LINE
  8
LAY0001
 62
7
  6
CONTINUOUS
 10
131.4861698104
 20
165.315134797
 11
131.4531095123
 21
165.1985757196
  0
LINE
  8
LAY0001
 62
7
  6
CONTINUOUS
 10
131.3405774886
 20
164.6128839434
 11
131.3185372629
 21
164.5351778713
  0
LINE
  8
LAY0001
 62
7
  6
CONTINUOUS
 10
131.3742031092
 20
164.479512025
 11
131.396243335
 21
164.5572180971
  0
LINE
  8
LAY0001
 62
7
  6
CONTINUOUS
 10
132.2881668726
 20
165.5604733274
 11
132.2551065696
 21
165.4439142549
  0
LINE
  8
LAY0001
 62
7
  6
CONTINUOUS
 10
132.4076223027
 20
165.5407641417
 11
132.4296625018
 21
165.618470187
  0
LINE
  8
LAY0001
 62
7
  6
CONTINUOUS
 10
129.0991833121
 20
162.3158239206
 11
129.0522065476
 21
162.2131813097
  0
LINE
  8
LAY0001
 62
7
  6
CONTINUOUS
 10
129.7377141369
 20
163.6223449771
 11
129.690737376
 21
163.5197023625
  0
LINE
  8
LAY0001
 62
7
  6
CONTINUOUS
 10
129.1078723939
 20
162.1575154633
 11
129.1548491585
 21
162.2601580742
  0
LINE
  8
LAY0001
 62
7
  6
CONTINUOUS
 10
131.5917087392
 20
165.3093420233
 11
131.6386855395
 21
165.4119846699
  0
LINE
  8
LAY0001
 62
7
  6
CONTINUOUS
 10
131.3185372629
 20
164.5351778713
 11
131.2715605696
 21
164.4325353318
  0
LINE
  8
LAY0001
 62
7
  6
CONTINUOUS
 10
131.327226416
 20
164.3768694854
 11
131.3742031092
 21
164.479512025
  0
LINE
  8
LAY0001
 62
7
  6
CONTINUOUS
 10
132.3606455293
 20
165.4381215219
 11
132.4076223027
 21
165.5407641417
  0
LINE
  8
LAY0001
 62
7
  6
CONTINUOUS
 10
127.3936770641
 20
161.2783079043
 11
127.3217638357
 21
161.1507288223
  0
LINE
  8
LAY0001
 62
7
  6
CONTINUOUS
 10
127.4632593805
 20
161.2087255878
 11
127.4992161392
 21
161.2725152697
  0
LINE
  8
LAY0001
 62
7
  6
CONTINUOUS
 10
128.2403199883
 20
161.4291276736
 11
128.2043632296
 21
161.3653379917
  0
LINE
  8
LAY0001
 62
7
  6
CONTINUOUS
 10
128.3099022962
 20
161.3595453656
 11
128.3818155282
 21
161.487124444
  0
LINE
  8
LAY0001
 62
7
  6
CONTINUOUS
 10
130.2567198358
 20
163.751689715
 11
130.2207632198
 21
163.6879001758
  0
LINE
  8
LAY0001
 62
7
  6
CONTINUOUS
 10
130.3263021632
 20
163.6821073876
 11
130.3982155379
 21
163.8096866086
  0
LINE
  8
LAY0001
 62
7
  6
CONTINUOUS
 10
130.4596740104
 20
163.6484816956
 11
130.4237173943
 21
163.5846921565
  0
LINE
  8
LAY0001
 62
7
  6
CONTINUOUS
 10
131.5580831101
 20
165.4427139503
 11
131.4861698104
 21
165.315134797
  0
LINE
  8
LAY0001
 62
7
  6
CONTINUOUS
 10
130.5541929284
 20
163.6038359978
 11
130.5901495444
 21
163.667625537
  0
LINE
  8
LAY0001
 62
7
  6
CONTINUOUS
 10
132.2551065696
 20
165.4439142549
 11
132.2191499001
 21
165.3801246622
  0
LINE
  8
LAY0001
 62
7
  6
CONTINUOUS
 10
129.8072964533
 20
163.5527626606
 11
129.9041462906
 21
163.705278354
  0
LINE
  8
LAY0001
 62
7
  6
CONTINUOUS
 10
127.4992161392
 20
161.2725152697
 11
127.585045828
 21
161.3861778914
  0
LINE
  8
LAY0001
 62
7
  6
CONTINUOUS
 10
128.2043632296
 20
161.3653379917
 11
128.118533536
 21
161.2516753749
  0
LINE
  8
LAY0001
 62
7
  6
CONTINUOUS
 10
129.0522065476
 20
162.2131813097
 11
128.9663765686
 21
162.0995184075
  0
LINE
  8
LAY0001
 62
7
  6
CONTINUOUS
 10
130.2207632198
 20
163.6879001758
 11
130.1349333835
 21
163.5742374163
  0
LINE
  8
LAY0001
 62
7
  6
CONTINUOUS
 10
129.0220424149
 20
162.0438525612
 11
129.1078723939
 21
162.1575154633
  0
LINE
  8
LAY0001
 62
7
  6
CONTINUOUS
 10
129.8484804394
 20
163.7609442052
 11
129.7377141369
 21
163.6223449771
  0
LINE
  8
LAY0001
 62
7
  6
CONTINUOUS
 10
127.5293799768
 20
161.4418437426
 11
127.3936770641
 21
161.2783079043
  0
LINE
  8
LAY0001
 62
7
  6
CONTINUOUS
 10
131.9709845683
 20
165.8277824829
 11
131.8822584177
 21
165.7668892579
  0
LINE
  8
LAY0001
 62
7
  6
CONTINUOUS
 10
131.7993249873
 20
165.6004570507
 11
131.9767773086
 21
165.7222435159
  0
LINE
  8
LAY0001
 62
7
  6
CONTINUOUS
 10
130.175552116
 20
164.0323500306
 11
130.1117624329
 21
163.9963932731
  0
LINE
  8
LAY0001
 62
7
  6
CONTINUOUS
 10
131.8479978458
 20
164.9533067616
 11
131.9755769955
 21
165.0252200649
  0
LINE
  8
LAY0001
 62
7
  6
CONTINUOUS
 10
130.0537656661
 20
163.8548977295
 11
130.1813447494
 21
163.9268109566
  0
LINE
  8
LAY0001
 62
7
  6
CONTINUOUS
 10
131.0720679739
 20
164.233042736
 11
131.0082784347
 21
164.19708612
  0
LINE
  8
LAY0001
 62
7
  6
CONTINUOUS
 10
132.0736271905
 20
165.8747592539
 11
131.9709845683
 21
165.8277824829
  0
LINE
  8
LAY0001
 62
7
  6
CONTINUOUS
 10
131.9448477236
 20
165.1058224857
 11
131.842205077
 21
165.0588456855
  0
LINE
  8
LAY0001
 62
7
  6
CONTINUOUS
 10
130.9502815216
 20
164.0555904373
 11
131.0529241325
 21
164.1025672019
  0
LINE
  8
LAY0001
 62
7
  6
CONTINUOUS
 10
129.9777557236
 20
163.0830646394
 11
130.0803983345
 21
163.1300414039
  0
LINE
  8
LAY0001
 62
7
  6
CONTINUOUS
 10
128.0339039544
 20
161.8350360178
 11
127.9312613411
 21
161.7880592557
  0
LINE
  8
LAY0001
 62
7
  6
CONTINUOUS
 10
128.2565673739
 20
161.6123725983
 11
128.1150718145
 21
161.5543758473
  0
LINE
  8
LAY0001
 62
7
  6
CONTINUOUS
 10
127.4470120046
 20
161.0254806534
 11
127.5885075446
 21
161.0834774238
  0
LINE
  8
0
 62
7
  6
CONTINUOUS
 10
101.6006564551
 20
152.7997642962
 11
89.1006564551
 21
149.0970956091
  0
LINE
  8
0
 62
7
  6
CONTINUOUS
 10
121.9726499154
 20
239.3124098941
 11
122.3830356406
 21
239.401188741
  0
LINE
  8
0
 62
7
  6
CONTINUOUS
 10
68.2184638788
 20
231.0480437115
 11
68.5174091697
 21
231.0939143375
  0
LINE
  8
0
 62
7
  6
CONTINUOUS
 10
119.3885414817
 20
242.6142391094
 11
119.5745230153
 21
242.6350276995
  0
LINE
  8
0
 62
7
  6
CONTINUOUS
 10
70.5407583511
 20
236.0056873512
 11
70.2394031371
 21
235.9800472699
  0
LINE
  8
0
 62
7
  6
CONTINUOUS
 10
129.636291549
 20
236.7832242723
 11
130.0556866706
 21
236.8034329542
  0
LINE
  8
0
 62
7
  6
CONTINUOUS
 10
122.958196979
 20
241.0118427154
 11
123.145243752
 21
241.0177419576
  0
LINE
  8
0
 62
7
  6
CONTINUOUS
 10
82.0625205823
 20
240.534885289
 11
81.8757909639
 21
240.5472428838
  0
LINE
  8
0
 62
7
  6
CONTINUOUS
 10
82.5143008481
 20
242.8598093436
 11
82.0306684765
 21
242.9297962182
  0
LINE
  8
0
 62
7
  6
CONTINUOUS
 10
134.8741106076
 20
230.7647625822
 11
134.5761155119
 21
230.8164472196
  0
LINE
  8
0
 62
7
  6
CONTINUOUS
 10
134.5658585744
 20
232.7222048338
 11
134.8638536701
 21
232.6705201964
  0
LINE
  8
0
 62
7
  6
CONTINUOUS
 10
135.1000686825
 20
233.0341473456
 11
134.5040784912
 21
233.1375166205
  0
LINE
  8
0
 62
7
  6
CONTINUOUS
 10
135.5725043531
 20
233.761396507
 11
135.8704994488
 21
233.7097118696
  0
LINE
  8
0
 62
7
  6
CONTINUOUS
 10
81.5602330988
 20
240.2262970878
 11
81.8571358579
 21
240.1686677943
  0
LINE
  8
0
 62
7
  6
CONTINUOUS
 10
82.0885698364
 20
242.58413526
 11
82.3854725897
 21
242.5265059801
  0
LINE
  8
0
 62
7
  6
CONTINUOUS
 10
134.3398949833
 20
230.4528253413
 11
134.8168189957
 21
230.3463044521
  0
LINE
  8
0
 62
7
  6
CONTINUOUS
 10
136.1067144612
 20
234.0733390188
 11
135.6297959443
 21
234.1798546157
  0
LINE
  8
0
 62
7
  6
CONTINUOUS
 10
92.1099933142
 20
243.50190974
 11
92.4671445022
 21
243.3899915612
  0
LINE
  8
0
 62
7
  6
CONTINUOUS
 10
92.4636870592
 20
243.9073734887
 11
92.1886884
 21
244.0332628709
  0
LINE
  8
0
 62
7
  6
CONTINUOUS
 10
93.3072830609
 20
246.8996732276
 11
93.58228171
 21
246.7737839042
  0
LINE
  8
0
 62
7
  6
CONTINUOUS
 10
139.213270692
 20
219.6787739675
 11
148.6698758368
 21
210.7047907637
  0
LINE
  8
0
 62
7
  6
CONTINUOUS
 10
115.7062759303
 20
245.4312637692
 11
115.899057532
 21
245.198223788
  0
LINE
  8
0
 62
7
  6
CONTINUOUS
 10
120.115328565
 20
244.0683081221
 11
119.8935928073
 21
244.4248629838
  0
LINE
  8
0
 62
7
  6
CONTINUOUS
 10
123.7985650157
 20
242.4033590542
 11
123.6059530208
 21
242.7764525212
  0
LINE
  8
0
 62
7
  6
CONTINUOUS
 10
130.9275916531
 20
238.063014279
 11
130.7988314805
 21
238.4626659733
  0
LINE
  8
0
 62
7
  6
CONTINUOUS
 10
133.3204321687
 20
231.7958267314
 11
133.4420639831
 21
231.3225376472
  0
LINE
  8
0
 62
7
  6
CONTINUOUS
 10
136.1195369927
 20
231.6911406633
 11
135.9978996827
 21
232.1644350397
  0
LINE
  8
0
 62
7
  6
CONTINUOUS
 10
133.7979934851
 20
231.5701996542
 11
133.7368561807
 21
231.8663999391
  0
LINE
  8
0
 62
7
  6
CONTINUOUS
 10
135.6419756969
 20
231.9167677619
 11
135.7031130014
 21
231.6205674769
  0
LINE
  8
0
 62
7
  6
CONTINUOUS
 10
136.588764249
 20
233.0139420249
 11
136.6499015534
 21
232.7177417399
  0
LINE
  8
LAY0001
 62
7
  6
CONTINUOUS
 10
132.2997523031
 20
165.3493953725
 11
132.3606455293
 21
165.4381215219
  0
LINE
  8
LAY0001
 62
7
  6
CONTINUOUS
 10
130.4237173943
 20
163.5846921565
 11
130.337887558
 21
163.471029397
  0
LINE
  8
LAY0001
 62
7
  6
CONTINUOUS
 10
131.2715605696
 20
164.4325353318
 11
131.1857307333
 21
164.3188725723
  0
LINE
  8
LAY0001
 62
7
  6
CONTINUOUS
 10
131.2413965797
 20
164.2632067259
 11
131.327226416
 21
164.3768694854
  0
LINE
  8
LAY0001
 62
7
  6
CONTINUOUS
 10
132.2191499001
 20
165.3801246622
 11
132.1333200995
 21
165.2664619384
  0
LINE
  8
LAY0001
 62
7
  6
CONTINUOUS
 10
128.1741993823
 20
161.1960095286
 11
128.3099022962
 21
161.3595453656
  0
LINE
  8
LAY0001
 62
7
  6
CONTINUOUS
 10
130.1905992493
 20
163.5185715505
 11
130.3263021632
 21
163.6821073876
  0
LINE
  8
LAY0001
 62
7
  6
CONTINUOUS
 10
132.1640494071
 20
165.1858595533
 11
132.2997523031
 21
165.3493953725
  0
LINE
  8
LAY0001
 62
7
  6
CONTINUOUS
 10
131.7187225973
 20
165.6311863631
 11
131.5580831101
 21
165.4427139503
  0
LINE
  8
LAY0001
 62
7
  6
CONTINUOUS
 10
131.6386855395
 20
165.4119846699
 11
131.7993249873
 21
165.6004570507
  0
LINE
  8
LAY0001
 62
7
  6
CONTINUOUS
 10
130.3935534044
 20
163.4153635506
 11
130.5541929284
 21
163.6038359978
  0
LINE
  8
LAY0001
 62
7
  6
CONTINUOUS
 10
131.1451816698
 20
165.0576454356
 11
131.0204988331
 21
164.9329625989
  0
LINE
  8
LAY0001
 62
7
  6
CONTINUOUS
 10
130.5716407067
 20
164.4841044725
 11
130.4469579413
 21
164.3594217072
  0
LINE
  8
LAY0001
 62
7
  6
CONTINUOUS
 10
129.9980998149
 20
163.9105635807
 11
129.8484804394
 21
163.7609442052
  0
LINE
  8
LAY0001
 62
7
  6
CONTINUOUS
 10
129.5741782986
 20
163.4866420644
 11
129.4494953906
 21
163.3619591564
  0
LINE
  8
LAY0001
 62
7
  6
CONTINUOUS
 10
129.2500027948
 20
163.1624665606
 11
129.1253201721
 21
163.037783938
  0
LINE
  8
LAY0001
 62
7
  6
CONTINUOUS
 10
128.9258275764
 20
162.8382913422
 11
128.8011446683
 21
162.7136084342
  0
LINE
  8
LAY0001
 62
7
  6
CONTINUOUS
 10
128.3522865419
 20
162.2647503077
 11
128.2276039193
 21
162.1400676851
  0
LINE
  8
LAY0001
 62
7
  6
CONTINUOUS
 10
127.6789993522
 20
161.5914631181
 11
127.5293799768
 21
161.4418437426
  0
LINE
  8
LAY0001
 62
7
  6
CONTINUOUS
 10
127.585045828
 20
161.3861778914
 11
127.7346652035
 21
161.5357972668
  0
LINE
  8
LAY0001
 62
7
  6
CONTINUOUS
 10
129.9041462906
 20
163.705278354
 11
130.0537656661
 21
163.8548977295
  0
LINE
  8
LAY0001
 62
7
  6
CONTINUOUS
 10
128.0147601179
 20
161.7045604788
 11
128.1394430259
 21
161.8292433869
  0
LINE
  8
LAY0001
 62
7
  6
CONTINUOUS
 10
131.4838387583
 20
165.1179732533
 11
131.6085215949
 21
165.24265609
  0
LINE
  8
LAY0001
 62
7
  6
CONTINUOUS
 10
130.1349333835
 20
163.5742374163
 11
129.8606311
 21
163.2999351328
  0
LINE
  8
LAY0001
 62
7
  6
CONTINUOUS
 10
129.9162969658
 20
163.244269267
 11
130.1905992493
 21
163.5185715505
  0
LINE
  8
LAY0001
 62
7
  6
CONTINUOUS
 10
131.7755191535
 20
165.0756585315
 11
131.6508363168
 21
164.9509756948
  0
LINE
  8
LAY0001
 62
7
  6
CONTINUOUS
 10
130.5814604627
 20
163.8259339943
 11
130.4567776973
 21
163.701251229
  0
LINE
  8
LAY0001
 62
7
  6
CONTINUOUS
 10
127.6888192509
 20
160.9332927826
 11
127.5641366283
 21
160.8086101599
  0
LINE
  8
LAY0001
 62
7
  6
CONTINUOUS
 10
130.337887558
 20
163.471029397
 11
130.1882681826
 21
163.3214100215
  0
LINE
  8
LAY0001
 62
7
  6
CONTINUOUS
 10
128.118533536
 20
161.2516753749
 11
127.9689141605
 21
161.1020559994
  0
LINE
  8
LAY0001
 62
7
  6
CONTINUOUS
 10
128.0245800068
 20
161.0463901531
 11
128.1741993823
 21
161.1960095286
  0
LINE
  8
LAY0001
 62
7
  6
CONTINUOUS
 10
128.9222962597
 20
161.944106406
 11
129.0220424149
 21
162.0438525612
  0
LINE
  8
LAY0001
 62
7
  6
CONTINUOUS
 10
129.2464714781
 20
162.2682816244
 11
129.3711543862
 21
162.3929645324
  0
LINE
  8
LAY0001
 62
7
  6
CONTINUOUS
 10
129.5706469819
 20
162.5924571282
 11
129.6953296046
 21
162.7171397508
  0
LINE
  8
LAY0001
 62
7
  6
CONTINUOUS
 10
130.2439340289
 20
163.2657441752
 11
130.3935534044
 21
163.4153635506
  0
LINE
  8
LAY0001
 62
7
  6
CONTINUOUS
 10
131.1416502818
 20
164.163460428
 11
131.2413965797
 21
164.2632067259
  0
LINE
  8
LAY0001
 62
7
  6
CONTINUOUS
 10
129.8344942595
 20
162.577975096
 11
129.7098116368
 21
162.4532924733
  0
LINE
  8
LAY0001
 62
7
  6
CONTINUOUS
 10
129.7793939447
 20
162.3837101654
 11
129.9040765674
 21
162.508392788
  0
LINE
  8
LAY0001
 62
7
  6
CONTINUOUS
 10
131.6745726057
 20
164.2788888263
 11
131.7992554424
 21
164.403571663
  0
LINE
  8
LAY0001
 62
7
  6
CONTINUOUS
 10
132.2133548274
 20
164.5701836746
 11
132.0353983084
 21
164.3922271556
  0
LINE
  8
LAY0001
 62
7
  6
CONTINUOUS
 10
131.5062480462
 20
163.8630768934
 11
130.9052072822
 21
163.2620361294
  0
LINE
  8
LAY0001
 62
7
  6
CONTINUOUS
 10
130.7637859259
 20
163.1206147731
 11
130.1627451619
 21
162.5195740091
  0
LINE
  8
LAY0001
 62
7
  6
CONTINUOUS
 10
129.3495723635
 20
161.7064012108
 11
128.7485315995
 21
161.1053604468
  0
LINE
  8
LAY0001
 62
7
  6
CONTINUOUS
 10
128.6071102433
 20
160.9639390905
 11
128.0060694793
 21
160.3628983265
  0
LINE
  8
LAY0001
 62
7
  6
CONTINUOUS
 10
132.3547761836
 20
163.7216555371
 11
132.6376188961
 21
164.0044982496
  0
LINE
  8
LAY0001
 62
7
  6
CONTINUOUS
 10
130.9405626212
 20
161.0346497686
 11
130.6577199087
 21
160.7518070562
  0
LINE
  8
LAY0001
 62
7
  6
CONTINUOUS
 10
129.632415076
 20
158.7365527298
 11
130.23345584
 21
159.3375934938
  0
LINE
  8
LAY0001
 62
7
  6
CONTINUOUS
 10
131.0819839775
 20
160.1861216312
 11
131.2599404964
 21
160.3640781502
  0
LINE
  8
LAY0001
 62
7
  6
CONTINUOUS
 10
131.7890907586
 20
160.8932284124
 11
132.3901315226
 21
161.4942691764
  0
LINE
  8
LAY0001
 62
7
  6
CONTINUOUS
 10
132.5315528789
 20
161.6356905326
 11
133.1325936429
 21
162.2367312967
  0
LINE
  8
LAY0001
 62
7
  6
CONTINUOUS
 10
133.9457664413
 20
163.049904095
 11
134.5468072053
 21
163.650944859
  0
LINE
  8
LAY0001
 62
7
  6
CONTINUOUS
 10
132.1333200995
 20
165.2664619384
 11
131.9448477236
 21
165.1058224857
  0
LINE
  8
LAY0001
 62
7
  6
CONTINUOUS
 10
131.9755769955
 20
165.0252200649
 11
132.1640494071
 21
165.1858595533
  0
LINE
  8
LAY0001
 62
7
  6
CONTINUOUS
 10
131.8822584177
 20
165.7668892579
 11
131.7187225973
 21
165.6311863631
  0
LINE
  8
LAY0001
 62
7
  6
CONTINUOUS
 10
127.8425351905
 20
161.7271660307
 11
127.6789993522
 21
161.5914631181
  0
LINE
  8
LAY0001
 62
7
  6
CONTINUOUS
 10
127.7346652035
 20
161.5357972668
 11
127.8982010454
 21
161.6715001759
  0
LINE
  8
LAY0001
 62
7
  6
CONTINUOUS
 10
130.0803983345
 20
163.1300414039
 11
130.2439340289
 21
163.2657441752
  0
LINE
  8
LAY0001
 62
7
  6
CONTINUOUS
 10
127.9689141605
 20
161.1020559994
 11
127.8053783234
 21
160.9663530855
  0
LINE
  8
LAY0001
 62
7
  6
CONTINUOUS
 10
127.8610441698
 20
160.9106872392
 11
128.0245800068
 21
161.0463901531
  0
LINE
  8
LAY0001
 62
7
  6
CONTINUOUS
 10
130.1117624329
 20
163.9963932731
 11
129.9980998149
 21
163.9105635807
  0
LINE
  8
LAY0001
 62
7
  6
CONTINUOUS
 10
131.1857307333
 20
164.3188725723
 11
131.0720679739
 21
164.233042736
  0
LINE
  8
LAY0001
 62
7
  6
CONTINUOUS
 10
130.1882681826
 20
163.3214100215
 11
130.0746054231
 21
163.2355801852
  0
LINE
  8
LAY0001
 62
7
  6
CONTINUOUS
 10
128.9663765686
 20
162.0995184075
 11
128.8527139518
 21
162.0136887139
  0
LINE
  8
LAY0001
 62
7
  6
CONTINUOUS
 10
128.1150718145
 20
161.5543758473
 11
127.6215678476
 21
161.2000364963
  0
LINE
  8
LAY0001
 62
7
  6
CONTINUOUS
 10
127.5885075446
 20
161.0834774238
 11
128.082011531
 21
161.4378167553
  0
LINE
  8
LAY0001
 62
7
  6
CONTINUOUS
 10
131.0529241325
 20
164.1025672019
 11
131.1416502818
 21
164.163460428
  0
LINE
  8
LAY0001
 62
7
  6
CONTINUOUS
 10
127.9312613411
 20
161.7880592557
 11
127.8425351905
 21
161.7271660307
  0
LINE
  8
LAY0001
 62
7
  6
CONTINUOUS
 10
128.8335701104
 20
161.8832131798
 11
128.9222962597
 21
161.944106406
  0
LINE
  8
LAY0001
 62
7
  6
CONTINUOUS
 10
127.7723180204
 20
160.849794013
 11
127.8610441698
 21
160.9106872392
  0
LINE
  8
LAY0001
 62
7
  6
CONTINUOUS
 10
130.0746054231
 20
163.2355801852
 11
130.0108160266
 21
163.1996237119
  0
LINE
  8
LAY0001
 62
7
  6
CONTINUOUS
 10
127.8982010454
 20
161.6715001759
 11
127.9619907273
 21
161.7074569346
  0
LINE
  8
LAY0001
 62
7
  6
CONTINUOUS
 10
128.8527139518
 20
162.0136887139
 11
128.7889242699
 21
161.9777319552
  0
LINE
  8
LAY0001
 62
7
  6
CONTINUOUS
 10
127.8053783234
 20
160.9663530855
 11
127.7415886415
 21
160.9303963268
  0
LINE
  8
LAY0001
 62
7
  6
CONTINUOUS
 10
128.7309274995
 20
161.8362364152
 11
128.8335701104
 21
161.8832131798
  0
LINE
  8
LAY0001
 62
7
  6
CONTINUOUS
 10
128.082011531
 20
161.4378167553
 11
128.1846541419
 21
161.4847935199
  0
LINE
  8
LAY0001
 62
7
  6
CONTINUOUS
 10
127.6215678476
 20
161.2000364963
 11
127.5189252366
 21
161.1530597317
  0
LINE
  8
LAY0001
 62
7
  6
CONTINUOUS
 10
127.6696754095
 20
160.8028172485
 11
127.7723180204
 21
160.849794013
  0
LINE
  8
0
 62
7
  6
CONTINUOUS
 10
82.1204237151
 20
240.1892250362
 11
82.6133845277
 21
240.3085260556
  0
LINE
  8
0
 62
7
  6
CONTINUOUS
 10
81.5956090268
 20
242.4648342337
 11
82.0885698364
 21
242.58413526
  0
LINE
  8
0
 62
7
  6
CONTINUOUS
 10
82.0306684765
 20
242.9297962182
 11
81.5377076668
 21
242.810495192
  0
LINE
  8
0
 62
7
  6
CONTINUOUS
 10
70.2601794135
 20
235.5581967495
 11
70.4431865723
 21
235.5973017279
  0
LINE
  8
0
 62
7
  6
CONTINUOUS
 10
114.6239919642
 20
246.1877284308
 11
114.2564631587
 21
246.116962885
  0
LINE
  8
0
 62
7
  6
CONTINUOUS
 10
92.8921833418
 20
243.3759469351
 11
93.5494130242
 21
243.4877178678
  0
LINE
  8
0
 62
7
  6
CONTINUOUS
 10
93.4638011645
 20
243.9911283161
 11
92.8065714821
 21
243.8793573834
  0
LINE
  8
0
 62
7
  6
CONTINUOUS
 10
92.3071689556
 20
246.8159184002
 11
92.9643986379
 21
246.9276893329
  0
LINE
  8
0
 62
7
  6
CONTINUOUS
 10
82.4023666842
 20
240.5883573541
 11
82.0625205823
 21
240.534885289
  0
LINE
  8
0
 62
7
  6
CONTINUOUS
 10
95.5270598709
 20
243.7951983198
 11
96.025324248
 21
243.8368229577
  0
LINE
  8
0
 62
7
  6
CONTINUOUS
 10
98.1014245523
 20
244.010258843
 11
98.848821118
 21
244.0726957998
  0
LINE
  8
0
 62
7
  6
CONTINUOUS
 10
81.8571358579
 20
240.1686677943
 11
82.1204237151
 21
240.1892250362
  0
LINE
  8
0
 62
7
  6
CONTINUOUS
 10
99.5167432706
 20
244.0943425394
 11
102.5167384889
 21
244.0996988527
  0
LINE
  8
0
 62
7
  6
CONTINUOUS
 10
102.515826776
 20
244.6103363354
 11
100.0158307607
 21
244.605872741
  0
LINE
  8
0
 62
7
  6
CONTINUOUS
 10
100.0133995263
 20
245.9675727147
 11
102.1800640111
 21
245.9714411655
  0
LINE
  8
0
 62
7
  6
CONTINUOUS
 10
102.1791522983
 20
246.4820785886
 11
100.0124878135
 21
246.4782101378
  0
LINE
  8
0
 62
7
  6
CONTINUOUS
 10
100.0105124353
 20
247.5845914596
 11
102.5105084506
 21
247.5890550541
  0
LINE
  8
0
 62
7
  6
CONTINUOUS
 10
118.6438773073
 20
241.3488418784
 11
118.3799291654
 21
241.3574716586
  0
LINE
  8
0
 62
7
  6
CONTINUOUS
 10
119.2748170803
 20
243.0210022784
 11
119.0108689384
 21
243.0296320587
  0
LINE
  8
0
 62
7
  6
CONTINUOUS
 10
92.4671445022
 20
243.3899915612
 11
92.8921833418
 21
243.3759469351
  0
LINE
  8
0
 62
7
  6
CONTINUOUS
 10
93.3038237463
 20
247.4170547839
 11
92.8787867882
 21
247.4310997225
  0
LINE
  8
0
 62
7
  6
CONTINUOUS
 10
114.5856587801
 20
245.7558115789
 11
115.0095551676
 21
245.7216484684
  0
LINE
  8
0
 62
7
  6
CONTINUOUS
 10
92.8065714821
 20
243.8793573834
 11
92.4636870592
 21
243.9073734887
  0
LINE
  8
0
 62
7
  6
CONTINUOUS
 10
92.9643986379
 20
246.9276893329
 11
93.3072830609
 21
246.8996732276
  0
LINE
  8
0
 62
7
  6
CONTINUOUS
 10
122.1150463567
 20
239.8098227851
 11
121.8526257326
 21
239.8394624663
  0
LINE
  8
0
 62
7
  6
CONTINUOUS
 10
122.8772544554
 20
241.4263759747
 11
122.6148338312
 21
241.4560156559
  0
LINE
  8
0
 62
7
  6
CONTINUOUS
 10
115.2079738988
 20
246.1072021054
 11
114.6239919642
 21
246.1877284308
  0
LINE
  8
0
 62
7
  6
CONTINUOUS
 10
118.1216940476
 20
240.9091299068
 11
118.5415789777
 21
240.8416620459
  0
LINE
  8
0
 62
7
  6
CONTINUOUS
 10
107.1709476503
 20
243.7332333187
 11
110.4590725785
 21
243.1861162466
  0
LINE
  8
0
 62
7
  6
CONTINUOUS
 10
110.5428862894
 20
243.6898291925
 11
107.7479802885
 21
244.1548786724
  0
LINE
  8
0
 62
7
  6
CONTINUOUS
 10
107.7576436363
 20
247.2592239985
 11
110.6347515374
 21
246.7804967952
  0
LINE
  8
0
 62
7
  6
CONTINUOUS
 10
111.5942122468
 20
242.9106884266
 11
112.0815908938
 21
242.7990548544
  0
LINE
  8
0
 62
7
  6
CONTINUOUS
 10
121.5594781352
 20
239.413129042
 11
121.9726499154
 21
239.3124098941
  0
LINE
  8
0
 62
7
  6
CONTINUOUS
 10
129.858411791
 20
237.2505117683
 11
129.6044159658
 21
237.322825083
  0
LINE
  8
0
 62
7
  6
CONTINUOUS
 10
112.7344906291
 20
242.6591840425
 11
115.6160744461
 21
241.8246334415
  0
LINE
  8
0
 62
7
  6
CONTINUOUS
 10
115.7344504204
 20
242.2333687432
 11
113.4932197841
 21
242.8824633014
  0
LINE
  8
0
 62
7
  6
CONTINUOUS
 10
113.6668440946
 20
245.5788955921
 11
114.0670616265
 21
245.4629864939
  0
LINE
  8
0
 62
7
  6
CONTINUOUS
 10
115.0095551676
 20
245.7216484684
 11
115.3297299259
 21
245.6289209775
  0
LINE
  8
0
 62
7
  6
CONTINUOUS
 10
93.6609768108
 20
247.3051369469
 11
93.3038237463
 21
247.4170547839
  0
LINE
  8
0
 62
7
  6
CONTINUOUS
 10
116.2504668975
 20
241.6151815711
 11
118.1216940476
 21
240.9091299068
  0
LINE
  8
0
 62
7
  6
CONTINUOUS
 10
118.3799291654
 20
241.3574716586
 11
116.8985421946
 21
241.9164287773
  0
LINE
  8
0
 62
7
  6
CONTINUOUS
 10
117.349213479
 20
243.1108291108
 11
118.8306004499
 21
242.5518719922
  0
LINE
  8
0
 62
7
  6
CONTINUOUS
 10
119.0108689384
 20
243.0296320587
 11
117.5294819676
 21
243.5885891773
  0
LINE
  8
0
 62
7
  6
CONTINUOUS
 10
117.9501085249
 20
244.7033628888
 11
119.4314954958
 21
244.1444057702
  0
LINE
  8
0
 62
7
  6
CONTINUOUS
 10
129.2452600368
 20
236.9503961689
 11
129.636291549
 21
236.7832242723
  0
LINE
  8
0
 62
7
  6
CONTINUOUS
 10
119.7504781027
 20
240.2660762164
 11
121.5594781352
 21
239.413129042
  0
LINE
  8
0
 62
7
  6
CONTINUOUS
 10
121.8526257326
 20
239.8394624663
 11
120.4205018569
 21
240.5147117704
  0
LINE
  8
0
 62
7
  6
CONTINUOUS
 10
120.9649362349
 20
241.6693926663
 11
122.3970601105
 21
240.9941433622
  0
LINE
  8
0
 62
7
  6
CONTINUOUS
 10
122.6148338312
 20
241.4560156559
 11
121.1827099556
 21
242.13126496
  0
LINE
  8
0
 62
7
  6
CONTINUOUS
 10
121.6908487389
 20
243.2089671942
 11
123.1229726145
 21
242.5337178901
  0
LINE
  8
0
 62
7
  6
CONTINUOUS
 10
134.5761155119
 20
230.8164472196
 11
134.3373348641
 21
230.9292607689
  0
LINE
  8
0
 62
7
  6
CONTINUOUS
 10
134.8638536701
 20
232.6705201964
 11
135.102634318
 21
232.5577066471
  0
LINE
  8
0
 62
7
  6
CONTINUOUS
 10
135.8704994488
 20
233.7097118696
 11
136.1092800966
 21
233.5968983203
  0
LINE
  8
0
 62
7
  6
CONTINUOUS
 10
115.984737435
 20
245.7936357989
 11
115.5281486571
 21
246.0144746146
  0
LINE
  8
0
 62
7
  6
CONTINUOUS
 10
115.3297299259
 20
245.6289209775
 11
115.7062759303
 21
245.4312637692
  0
LINE
  8
0
 62
7
  6
CONTINUOUS
 10
119.8935928073
 20
244.4248629838
 11
119.5337973761
 21
244.6515842071
  0
LINE
  8
0
 62
7
  6
CONTINUOUS
 10
133.9814053569
 20
230.6815987566
 11
134.3398949833
 21
230.4528253413
  0
LINE
  8
0
 62
7
  6
CONTINUOUS
 10
135.4585637837
 20
232.8053686167
 11
135.1000686825
 21
233.0341473456
  0
LINE
  8
0
 62
7
  6
CONTINUOUS
 10
136.4652095623
 20
233.8445602898
 11
136.1067144612
 21
234.0733390188
  0
LINE
  8
0
 62
7
  6
CONTINUOUS
 10
126.5835842435
 20
236.6192050084
 11
126.9946975776
 21
236.3346249203
  0
LINE
  8
0
 62
7
  6
CONTINUOUS
 10
128.0119200346
 20
237.8041364332
 11
129.2452600368
 21
236.9503961689
  0
LINE
  8
0
 62
7
  6
CONTINUOUS
 10
129.6044159658
 20
237.322825083
 11
128.3025549835
 21
238.2239968094
  0
LINE
  8
0
 62
7
  6
CONTINUOUS
 10
129.0291424916
 20
239.2736479461
 11
130.3310034739
 21
238.3724762197
  0
LINE
  8
0
 62
7
  6
CONTINUOUS
 10
123.6059530208
 20
242.7764525212
 11
123.265372484
 21
243.0311291071
  0
LINE
  8
0
 62
7
  6
CONTINUOUS
 10
129.6552347933
 20
234.4657166427
 11
130.0415155043
 21
234.1482466247
  0
LINE
  8
0
 62
7
  6
CONTINUOUS
 10
131.8441607869
 20
232.6667182594
 11
132.2304414979
 21
232.3492482414
  0
LINE
  8
0
 62
7
  6
CONTINUOUS
 10
130.9474873398
 20
234.7255972284
 11
132.2350877451
 21
233.6673654498
  0
LINE
  8
0
 62
7
  6
CONTINUOUS
 10
132.3868554355
 20
233.9832783359
 11
131.2280133026
 21
234.9356883898
  0
LINE
  8
0
 62
7
  6
CONTINUOUS
 10
118.8306004499
 20
242.5518719922
 11
119.0344590956
 21
242.3839888564
  0
LINE
  8
0
 62
7
  6
CONTINUOUS
 10
119.4314954958
 20
244.1444057702
 11
119.6353541415
 21
243.9765226344
  0
LINE
  8
0
 62
7
  6
CONTINUOUS
 10
116.2575654744
 20
245.5374131491
 11
115.984737435
 21
245.7936357989
  0
LINE
  8
0
 62
7
  6
CONTINUOUS
 10
122.3970601105
 20
240.9941433622
 11
122.5868894945
 21
240.8105462498
  0
LINE
  8
0
 62
7
  6
CONTINUOUS
 10
123.1229726145
 20
242.5337178901
 11
123.3128019985
 21
242.3501207777
  0
LINE
  8
0
 62
7
  6
CONTINUOUS
 10
133.6821301835
 20
230.9715010891
 11
133.9814053569
 21
230.6815987566
  0
LINE
  8
0
 62
7
  6
CONTINUOUS
 10
134.3373348641
 20
230.9292607689
 11
133.9183452373
 21
231.3351282811
  0
LINE
  8
0
 62
7
  6
CONTINUOUS
 10
135.102634318
 20
232.5577066471
 11
135.5216239447
 21
232.1518391349
  0
LINE
  8
0
 62
7
  6
CONTINUOUS
 10
135.7578389571
 20
232.5154662841
 11
135.4585637837
 21
232.8053686167
  0
LINE
  8
0
 62
7
  6
CONTINUOUS
 10
136.5919671833
 20
232.4183951329
 11
136.8912478367
 21
232.1284874921
  0
LINE
  8
0
 62
7
  6
CONTINUOUS
 10
136.1092800966
 20
233.5968983203
 11
136.4684124967
 21
233.2490133979
  0
LINE
  8
0
 62
7
  6
CONTINUOUS
 10
130.7988314805
 20
238.4626659733
 11
130.5046782846
 21
238.7697913287
  0
LINE
  8
0
 62
7
  6
CONTINUOUS
 10
119.5144335191
 20
242.475774344
 11
119.3885414817
 21
242.6142391094
  0
LINE
  8
0
 62
7
  6
CONTINUOUS
 10
123.0726525117
 20
240.8637845263
 11
122.958196979
 21
241.0118427154
  0
LINE
  8
0
 62
7
  6
CONTINUOUS
 10
130.3310034739
 20
238.3724762197
 11
130.4881209828
 21
238.1602094462
  0
LINE
  8
0
 62
7
  6
CONTINUOUS
 10
133.4420639831
 20
231.3225376472
 11
133.6821301835
 21
230.9715010891
  0
LINE
  8
0
 62
7
  6
CONTINUOUS
 10
136.9446937147
 20
233.2616039944
 11
136.7046275091
 21
233.6126405471
  0
LINE
  8
0
 62
7
  6
CONTINUOUS
 10
135.9978996827
 20
232.1644350397
 11
135.7578389571
 21
232.5154662841
  0
LINE
  8
0
 62
7
  6
CONTINUOUS
 10
135.8845217064
 20
230.8496737104
 11
141.553850433
 21
221.030108311
  0
LINE
  8
0
 62
7
  6
CONTINUOUS
 10
143.2859012406
 20
222.030108311
 11
137.5359012406
 21
231.9894004546
  0
LINE
  8
0
 62
7
  6
CONTINUOUS
 10
133.9183452373
 20
231.3351282811
 11
133.7979934851
 21
231.5701996542
  0
LINE
  8
0
 62
7
  6
CONTINUOUS
 10
135.5216239447
 20
232.1518391349
 11
135.6419756969
 21
231.9167677619
  0
LINE
  8
0
 62
7
  6
CONTINUOUS
 10
136.4684124967
 20
233.2490133979
 11
136.588764249
 21
233.0139420249
  0
LINE
  8
0
 62
7
  6
CONTINUOUS
 10
137.0663255447
 20
232.7883149263
 11
136.9446937147
 21
233.2616039944
  0
LINE
  8
0
 62
7
  6
CONTINUOUS
 10
148.6698758368
 20
210.7047907637
 11
145.6264809816
 21
223.3814426546
  0
LINE
  8
0
 62
7
  6
CONTINUOUS
 10
92.8787867882
 20
247.4310997225
 11
92.2215571059
 21
247.3193287897
  0
LINE
  8
0
 62
7
  6
CONTINUOUS
 10
98.5158240149
 20
248.0588108169
 11
98.0175596378
 21
248.017186179
  0
LINE
  8
0
 62
7
  6
CONTINUOUS
 10
95.9414593336
 20
247.8437502937
 11
95.1940627679
 21
247.7813133369
  0
LINE
  8
0
 62
7
  6
CONTINUOUS
 10
102.5095967378
 20
248.0996924772
 11
99.5096015195
 21
248.0943361638
  0
LINE
  8
0
 62
7
  6
CONTINUOUS
 10
111.1156133154
 20
247.1318676656
 11
107.8274883872
 21
247.6789847377
  0
LINE
  8
0
 62
7
  6
CONTINUOUS
 10
112.9746594718
 20
246.6980840304
 11
112.4872808248
 21
246.8097176026
  0
LINE
  8
0
 62
7
  6
CONTINUOUS
 10
115.5281486571
 20
246.0144746146
 11
115.2079738988
 21
246.1072021054
  0
LINE
  8
0
 62
7
  6
CONTINUOUS
 10
119.5337973761
 20
244.6515842071
 11
117.6625702259
 21
245.3576358714
  0
LINE
  8
0
 62
7
  6
CONTINUOUS
 10
123.265372484
 20
243.0311291071
 11
121.4563724514
 21
243.8840762814
  0
LINE
  8
0
 62
7
  6
CONTINUOUS
 10
130.5046782846
 20
238.7697913287
 11
128.8602249483
 21
239.908111681
  0
LINE
  8
0
 62
7
  6
CONTINUOUS
 10
133.7401177811
 20
236.2860822586
 11
133.2250787979
 21
236.7093740012
  0
LINE
  8
0
 62
7
  6
CONTINUOUS
 10
136.7046275091
 20
233.6126405471
 11
136.4652095623
 21
233.8445602898
  0
LINE
  8
0
 62
7
  6
CONTINUOUS
 10
162.1706564551
 20
200.0970956091
 11
162.1706564551
 21
210.0970956091
  0
LINE
  8
0
 62
7
  6
CONTINUOUS
 10
162.6706564551
 20
196.3970956091
 11
162.6706564551
 21
198.7742217662
  0
LINE
  8
0
 62
7
  6
CONTINUOUS
 10
162.6706564551
 20
211.4199712647
 11
162.6706564551
 21
214.0970956091
  0
LINE
  8
0
 62
7
  6
CONTINUOUS
 10
155.4888278643
 20
169.1601718205
 11
160.4888278643
 21
177.8204258583
  0
LINE
  8
0
 62
7
  6
CONTINUOUS
 10
154.0718405662
 20
165.7058778265
 11
155.2604049074
 21
167.7645316536
  0
LINE
  8
0
 62
7
  6
CONTINUOUS
 10
161.5832783939
 20
178.7160697821
 11
162.9218405661
 21
181.0345274735
  0
LINE
  8
0
 62
7
  6
CONTINUOUS
 10
134.2337326665
 20
145.7089242
 11
142.8939867043
 21
150.7089242
  0
LINE
  8
0
 62
7
  6
CONTINUOUS
 10
131.2794386725
 20
143.4259114981
 11
133.3380881254
 21
144.6144733139
  0
LINE
  8
0
 62
7
  6
CONTINUOUS
 10
144.2896306281
 20
150.9373493259
 11
146.6080883195
 21
152.2759114981
  0
LINE
  8
0
 62
7
  6
CONTINUOUS
 10
98.1006564551
 20
258.1670956091
 11
88.1006564551
 21
258.1670956091
  0
LINE
  8
0
 62
7
  6
CONTINUOUS
 10
101.8006564551
 20
258.6670956091
 11
99.4235302981
 21
258.6670956091
  0
LINE
  8
0
 62
7
  6
CONTINUOUS
 10
86.7777807996
 20
258.6670956091
 11
84.1006564552
 21
258.6670956091
  0
LINE
  8
0
 62
7
  6
CONTINUOUS
 10
129.0375802438
 20
251.4852670183
 11
120.3773262059
 21
256.4852670183
  0
LINE
  8
0
 62
7
  6
CONTINUOUS
 10
132.4918742378
 20
250.0682797202
 11
130.4332204107
 21
251.2568440614
  0
LINE
  8
0
 62
7
  6
CONTINUOUS
 10
119.4816822822
 20
257.5797175479
 11
117.1632245908
 21
258.9182797201
  0
LINE
  8
0
 62
7
  6
CONTINUOUS
 10
152.4888278643
 20
230.2301718205
 11
147.4888278643
 21
238.8904258583
  0
LINE
  8
0
 62
7
  6
CONTINUOUS
 10
154.7718405662
 20
227.2758778265
 11
153.5832787503
 21
229.3345272794
  0
LINE
  8
0
 62
7
  6
CONTINUOUS
 10
147.2604027384
 20
240.2860697821
 11
145.9218405662
 21
242.6045274735
  0
LINE
  8
0
 62
7
  6
CONTINUOUS
 10
176.1168528482
 20
187.7199809826
 11
176.4070855958
 21
190.4411411259
  0
LINE
  8
0
 62
7
  6
CONTINUOUS
 10
161.3780309136
 20
151.4681779319
 11
162.9899599176
 21
153.6796553699
  0
LINE
  8
0
 62
7
  6
CONTINUOUS
 10
130.4879351709
 20
127.4426065242
 11
132.9896453566
 21
128.5518376634
  0
LINE
  8
0
 62
7
  6
CONTINUOUS
 10
110.4777710817
 20
272.1132920022
 11
107.7566109384
 21
272.4035247498
  0
LINE
  8
0
 62
7
  6
CONTINUOUS
 10
146.7295741324
 20
257.3744700676
 11
144.5180966944
 21
258.9863990716
  0
LINE
  8
0
 62
7
  6
CONTINUOUS
 10
170.7551455401
 20
226.4843743249
 11
169.6459144009
 21
228.9860845106
  0
POLYLINE
  8
0
 62
7
  6
CONTINUOUS
 66
1
 70
0
  0
VERTEX
  8
0
 62
7
  6
CONTINUOUS
 10
25.7864645705
 20
78.9520032201
  0
VERTEX
  8
0
 62
7
  6
CONTINUOUS
 10
25.7918398459
 20
78.8484463343
  0
VERTEX
  8
0
 62
7
  6
CONTINUOUS
 10
25.8079083565
 20
78.745998596
  0
VERTEX
  8
0
 62
7
  6
CONTINUOUS
 10
25.8334491249
 20
78.6490429782
  0
VERTEX
  8
0
 62
7
  6
CONTINUOUS
 10
25.8673014199
 20
78.5580728366
  0
VERTEX
  8
0
 62
7
  6
CONTINUOUS
 10
25.9083887173
 20
78.4734121189
  0
VERTEX
  8
0
 62
7
  6
CONTINUOUS
 10
25.9557291102
 20
78.3952479063
  0
VERTEX
  8
0
 62
7
  6
CONTINUOUS
 10
26.0084399791
 20
78.3236603718
  0
VERTEX
  8
0
 62
7
  6
CONTINUOUS
 10
26.0656277578
 20
78.2587642839
  0
VERTEX
  8
0
 62
7
  6
CONTINUOUS
 10
26.1263216766
 20
78.2006983172
  0
VERTEX
  8
0
 62
7
  6
CONTINUOUS
 10
26.1896031658
 20
78.149454925
  0
VERTEX
  8
0
 62
7
  6
CONTINUOUS
 10
26.2546229587
 20
78.1049034475
  0
VERTEX
  8
0
 62
7
  6
CONTINUOUS
 10
26.3206344954
 20
78.0667996312
  0
VERTEX
  8
0
 62
7
  6
CONTINUOUS
 10
26.3864366577
 20
78.0350590769
  0
VERTEX
  8
0
 62
7
  6
CONTINUOUS
 10
26.448436951
 20
78.0102462275
  0
VERTEX
  8
0
 62
7
  6
CONTINUOUS
 10
26.502537741
 20
77.992238212
  0
VERTEX
  8
0
 62
7
  6
CONTINUOUS
 10
26.5437786753
 20
77.9805300486
  0
VERTEX
  8
0
 62
7
  6
CONTINUOUS
 10
26.5763418463
 20
77.9723023347
  0
VERTEX
  8
0
 62
7
  6
CONTINUOUS
 10
26.6058840935
 20
77.9654124458
  0
VERTEX
  8
0
 62
7
  6
CONTINUOUS
 10
26.6358488189
 20
77.9588047511
  0
VERTEX
  8
0
 62
7
  6
CONTINUOUS
 10
26.6690957169
 20
77.9517695849
  0
VERTEX
  8
0
 62
7
  6
CONTINUOUS
 10
26.7075122505
 20
77.9438963434
  0
SEQEND
  0
LINE
  8
0
 62
7
  6
CONTINUOUS
 10
25.7864608896
 20
84.8208795599
 11
25.7864608896
 21
78.9515493241
  0
POLYLINE
  8
0
 62
7
  6
CONTINUOUS
 66
1
 70
0
  0
VERTEX
  8
0
 62
7
  6
CONTINUOUS
 10
38.8486368326
 20
78.9211022769
  0
VERTEX
  8
0
 62
7
  6
CONTINUOUS
 10
38.8623439598
 20
78.7552400575
  0
VERTEX
  8
0
 62
7
  6
CONTINUOUS
 10
38.9074975839
 20
78.581189904
  0
VERTEX
  8
0
 62
7
  6
CONTINUOUS
 10
38.9788870572
 20
78.4245262079
  0
VERTEX
  8
0
 62
7
  6
CONTINUOUS
 10
39.0685763598
 20
78.2908892059
  0
VERTEX
  8
0
 62
7
  6
CONTINUOUS
 10
39.1671829153
 20
78.1829692812
  0
VERTEX
  8
0
 62
7
  6
CONTINUOUS
 10
39.2663008742
 20
78.0996480087
  0
VERTEX
  8
0
 62
7
  6
CONTINUOUS
 10
39.3631096563
 20
78.0353814253
  0
VERTEX
  8
0
 62
7
  6
CONTINUOUS
 10
39.4583166167
 20
77.9846134805
  0
VERTEX
  8
0
 62
7
  6
CONTINUOUS
 10
39.5551023269
 20
77.9426190423
  0
VERTEX
  8
0
 62
7
  6
CONTINUOUS
 10
39.6554968032
 20
77.9065293704
  0
VERTEX
  8
0
 62
7
  6
CONTINUOUS
 10
39.7639319614
 20
77.873427578
  0
VERTEX
  8
0
 62
7
  6
CONTINUOUS
 10
39.8850957481
 20
77.8412697188
  0
VERTEX
  8
0
 62
7
  6
CONTINUOUS
 10
39.9826902875
 20
77.817973252
  0
SEQEND
  0
LINE
  8
0
 62
7
  6
CONTINUOUS
 10
38.8486361529
 20
84.8515051065
 11
38.8486361529
 21
78.9209237776
  0
LINE
  8
0
 62
7
  6
CONTINUOUS
 10
46.1006564551
 20
99.886214442
 11
46.1006564551
 21
87.886214442
  0
LINE
  8
0
 62
7
  6
CONTINUOUS
 10
46.1006564551
 20
75.886214442
 11
46.1006564551
 21
63.886214442
  0
LINE
  8
0
 62
7
  6
CONTINUOUS
 10
52.6654116697
 20
101.536214442
 11
52.6654116697
 21
101.386214442
  0
LINE
  8
0
 62
7
  6
CONTINUOUS
 10
52.6654116697
 20
62.386214442
 11
52.6654116697
 21
62.236214442
  0
LINE
  8
0
 62
7
  6
CONTINUOUS
 10
56.0748319287
 20
101.536214442
 11
56.0748319287
 21
101.386214442
  0
LINE
  8
0
 62
7
  6
CONTINUOUS
 10
56.0748319287
 20
62.386214442
 11
56.0748319287
 21
62.236214442
  0
POLYLINE
  8
0
 62
7
  6
CONTINUOUS
 66
1
 70
0
  0
VERTEX
  8
0
 62
7
  6
CONTINUOUS
 10
68.0552953149
 20
78.8517312459
  0
VERTEX
  8
0
 62
7
  6
CONTINUOUS
 10
68.0565438037
 20
78.8011295089
  0
VERTEX
  8
0
 62
7
  6
CONTINUOUS
 10
68.0836693508
 20
78.612076632
  0
VERTEX
  8
0
 62
7
  6
CONTINUOUS
 10
68.1453891485
 20
78.4309876667
  0
VERTEX
  8
0
 62
7
  6
CONTINUOUS
 10
68.2372789511
 20
78.2672803781
  0
VERTEX
  8
0
 62
7
  6
CONTINUOUS
 10
68.3511830341
 20
78.1282090884
  0
VERTEX
  8
0
 62
7
  6
CONTINUOUS
 10
68.476582371
 20
78.0172774691
  0
VERTEX
  8
0
 62
7
  6
CONTINUOUS
 10
68.6002698175
 20
77.9351227774
  0
VERTEX
  8
0
 62
7
  6
CONTINUOUS
 10
68.6596757393
 20
77.902737712
  0
SEQEND
  0
LINE
  8
0
 62
7
  6
CONTINUOUS
 10
65.5314370735
 20
101.536214442
 11
65.5314370735
 21
101.386214442
  0
LINE
  8
0
 62
7
  6
CONTINUOUS
 10
65.5314370735
 20
62.386214442
 11
65.5314370735
 21
62.236214442
  0
LINE
  8
0
 62
7
  6
CONTINUOUS
 10
66.2312322579
 20
62.386214442
 11
66.2312322579
 21
62.236214442
  0
LINE
  8
0
 62
7
  6
CONTINUOUS
 10
66.5360990942
 20
62.386214442
 11
66.5360990942
 21
62.236214442
  0
LINE
  8
0
 62
7
  6
CONTINUOUS
 10
67.696350653
 20
62.386214442
 11
67.696350653
 21
62.236214442
  0
LINE
  8
0
 62
7
  6
CONTINUOUS
 10
67.7555664175
 20
62.386214442
 11
67.7555664175
 21
62.236214442
  0
LINE
  8
0
 62
7
  6
CONTINUOUS
 10
68.0552915985
 20
84.9209155604
 11
68.0552915985
 21
78.8515133235
  0
LINE
  8
0
 62
7
  6
CONTINUOUS
 10
68.0604333192
 20
62.386214442
 11
68.0604333192
 21
62.236214442
  0
LINE
  8
0
 62
7
  6
CONTINUOUS
 10
68.8278680166
 20
62.386214442
 11
68.8278680166
 21
62.236214442
  0
LINE
  8
0
 62
7
  6
CONTINUOUS
 10
69.1511648291
 20
62.386214442
 11
69.1511648291
 21
62.236214442
  0
LINE
  8
0
 62
7
  6
CONTINUOUS
 10
69.4196077378
 20
62.386214442
 11
69.4196077378
 21
62.236214442
  0
LINE
  8
0
 62
7
  6
CONTINUOUS
 10
69.4415493364
 20
62.386214442
 11
69.4415493364
 21
62.236214442
  0
LINE
  8
0
 62
7
  6
CONTINUOUS
 10
69.5281500384
 20
62.386214442
 11
69.5281500384
 21
62.236214442
  0
LINE
  8
0
 62
7
  6
CONTINUOUS
 10
69.7330989807
 20
62.386214442
 11
69.7330989807
 21
62.236214442
  0
LINE
  8
0
 62
7
  6
CONTINUOUS
 10
69.9917365048
 20
62.386214442
 11
69.9917365048
 21
62.236214442
  0
LINE
  8
0
 62
7
  6
CONTINUOUS
 10
70.2394031371
 20
62.386214442
 11
70.2394031371
 21
62.236214442
  0
LINE
  8
0
 62
7
  6
CONTINUOUS
 10
70.50935271
 20
62.386214442
 11
70.50935271
 21
62.236214442
  0
LINE
  8
0
 62
7
  6
CONTINUOUS
 10
70.8437589056
 20
62.386214442
 11
70.8437589056
 21
62.236214442
  0
LINE
  8
0
 62
7
  6
CONTINUOUS
 10
71.0976103618
 20
62.386214442
 11
71.0976103618
 21
62.236214442
  0
LINE
  8
0
 62
7
  6
CONTINUOUS
 10
71.2709072207
 20
62.386214442
 11
71.2709072207
 21
62.236214442
  0
LINE
  8
0
 62
7
  6
CONTINUOUS
 10
71.6053134163
 20
62.386214442
 11
71.6053134163
 21
62.236214442
  0
LINE
  8
0
 62
7
  6
CONTINUOUS
 10
73.229962878
 20
62.386214442
 11
73.229962878
 21
62.236214442
  0
LINE
  8
0
 62
7
  6
CONTINUOUS
 10
75.1770367245
 20
62.386214442
 11
75.1770367245
 21
62.236214442
  0
LINE
  8
0
 62
7
  6
CONTINUOUS
 10
77.8046496711
 20
62.386214442
 11
77.8046496711
 21
62.236214442
  0
LINE
  8
0
 62
7
  6
CONTINUOUS
 10
78.051055782
 20
62.386214442
 11
78.051055782
 21
62.236214442
  0
LINE
  8
0
 62
7
  6
CONTINUOUS
 10
78.292978253
 20
62.386214442
 11
78.292978253
 21
62.236214442
  0
LINE
  8
0
 62
7
  6
CONTINUOUS
 10
78.5393843639
 20
62.386214442
 11
78.5393843639
 21
62.236214442
  0
LINE
  8
0
 62
7
  6
CONTINUOUS
 10
78.5912089696
 20
62.386214442
 11
78.5912089696
 21
62.236214442
  0
LINE
  8
0
 62
7
  6
CONTINUOUS
 10
78.9658453069
 20
62.386214442
 11
78.9658453069
 21
62.236214442
  0
LINE
  8
0
 62
7
  6
CONTINUOUS
 10
80.6489336439
 20
62.386214442
 11
80.6489336439
 21
62.236214442
  0
LINE
  8
0
 62
7
  6
CONTINUOUS
 10
80.6675887675
 20
62.386214442
 11
80.6675887675
 21
62.236214442
  0
LINE
  8
0
 62
7
  6
CONTINUOUS
 10
80.7534754413
 20
62.386214442
 11
80.7534754413
 21
62.236214442
  0
LINE
  8
0
 62
7
  6
CONTINUOUS
 10
80.9159185987
 20
62.386214442
 11
80.9159185987
 21
62.236214442
  0
LINE
  8
0
 62
7
  6
CONTINUOUS
 10
169.9459679474
 20
77.8936867382
 11
170.0335847698
 21
77.9165574806
  0
LINE
  8
0
 62
7
  6
CONTINUOUS
 10
81.1119766551
 20
62.386214442
 11
81.1119766551
 21
62.236214442
  0
LINE
  8
0
 62
7
  6
CONTINUOUS
 10
81.5377076668
 20
62.386214442
 11
81.5377076668
 21
62.236214442
  0
LINE
  8
0
 62
7
  6
CONTINUOUS
 10
82.0306684765
 20
62.386214442
 11
82.0306684765
 21
62.236214442
  0
LINE
  8
0
 62
7
  6
CONTINUOUS
 10
82.5143008481
 20
62.386214442
 11
82.5143008481
 21
62.236214442
  0
LINE
  8
0
 62
7
  6
CONTINUOUS
 10
82.8784333993
 20
62.386214442
 11
82.8784333993
 21
62.236214442
  0
LINE
  8
0
 62
7
  6
CONTINUOUS
 10
83.089451231
 20
62.386214442
 11
83.089451231
 21
62.236214442
  0
LINE
  8
0
 62
7
  6
CONTINUOUS
 10
83.2239108739
 20
62.386214442
 11
83.2239108739
 21
62.236214442
  0
LINE
  8
0
 62
7
  6
CONTINUOUS
 10
83.4256002677
 20
62.386214442
 11
83.4256002677
 21
62.236214442
  0
LINE
  8
0
 62
7
  6
CONTINUOUS
 10
83.4835016512
 20
62.386214442
 11
83.4835016512
 21
62.236214442
  0
LINE
  8
0
 62
7
  6
CONTINUOUS
 10
83.4921569362
 20
62.386214442
 11
83.4921569362
 21
62.236214442
  0
LINE
  8
0
 62
7
  6
CONTINUOUS
 10
83.9646333836
 20
62.386214442
 11
83.9646333836
 21
62.236214442
  0
LINE
  8
0
 62
7
  6
CONTINUOUS
 10
85.1928551487
 20
62.386214442
 11
85.1928551487
 21
62.236214442
  0
LINE
  8
0
 62
7
  6
CONTINUOUS
 10
85.6970476249
 20
62.386214442
 11
85.6970476249
 21
62.236214442
  0
LINE
  8
0
 62
7
  6
CONTINUOUS
 10
86.1695240723
 20
62.386214442
 11
86.1695240723
 21
62.236214442
  0
POLYLINE
  8
0
 62
7
  6
CONTINUOUS
 66
1
 70
0
  0
VERTEX
  8
0
 62
7
  6
CONTINUOUS
 10
68.659677609
 20
85.8696921296
  0
VERTEX
  8
0
 62
7
  6
CONTINUOUS
 10
68.6045296801
 20
85.8397639325
  0
VERTEX
  8
0
 62
7
  6
CONTINUOUS
 10
68.4803085841
 20
85.7579687288
  0
VERTEX
  8
0
 62
7
  6
CONTINUOUS
 10
68.3541251364
 20
85.6472402356
  0
VERTEX
  8
0
 62
7
  6
CONTINUOUS
 10
68.2393325295
 20
85.5081304483
  0
VERTEX
  8
0
 62
7
  6
CONTINUOUS
 10
68.1465816497
 20
85.3440932547
  0
VERTEX
  8
0
 62
7
  6
CONTINUOUS
 10
68.0841539899
 20
85.1623624648
  0
VERTEX
  8
0
 62
7
  6
CONTINUOUS
 10
68.0565988242
 20
84.9724013856
  0
VERTEX
  8
0
 62
7
  6
CONTINUOUS
 10
68.0552953151
 20
84.92069723
  0
SEQEND
  0
LINE
  8
0
 62
7
  6
CONTINUOUS
 10
69.1852785826
 20
86.139285648
 11
68.6591732553
 21
85.8694353393
  0
POLYLINE
  8
0
 62
7
  6
CONTINUOUS
 66
1
 70
0
  0
VERTEX
  8
0
 62
7
  6
CONTINUOUS
 10
169.7376168659
 20
77.8456723269
  0
VERTEX
  8
0
 62
7
  6
CONTINUOUS
 10
169.8478789461
 20
77.8701978655
  0
VERTEX
  8
0
 62
7
  6
CONTINUOUS
 10
169.9459679474
 20
77.8936867382
  0
SEQEND
  0
LINE
  8
0
 62
7
  6
CONTINUOUS
 10
168.275370982
 20
77.5435658659
 11
169.7376168659
 21
77.8456723269
  0
POLYLINE
  8
0
 62
7
  6
CONTINUOUS
 66
1
 70
0
  0
VERTEX
  8
0
 62
7
  6
CONTINUOUS
 10
175.4818425748
 20
77.9414868812
  0
VERTEX
  8
0
 62
7
  6
CONTINUOUS
 10
175.5248266744
 20
77.9502368368
  0
VERTEX
  8
0
 62
7
  6
CONTINUOUS
 10
175.5626263241
 20
77.9581938404
  0
VERTEX
  8
0
 62
7
  6
CONTINUOUS
 10
175.5970000972
 20
77.9657681818
  0
VERTEX
  8
0
 62
7
  6
CONTINUOUS
 10
175.6311775027
 20
77.9738124575
  0
VERTEX
  8
0
 62
7
  6
CONTINUOUS
 10
175.6693071545
 20
77.9837115741
  0
VERTEX
  8
0
 62
7
  6
CONTINUOUS
 10
175.714452976
 20
77.9971296652
  0
VERTEX
  8
0
 62
7
  6
CONTINUOUS
 10
175.7664436041
 20
78.0152794288
  0
VERTEX
  8
0
 62
7
  6
CONTINUOUS
 10
175.8234494816
 20
78.0388668401
  0
VERTEX
  8
0
 62
7
  6
CONTINUOUS
 10
175.8842871671
 20
78.0687136157
  0
VERTEX
  8
0
 62
7
  6
CONTINUOUS
 10
175.9471419747
 20
78.1051879171
  0
VERTEX
  8
0
 62
7
  6
CONTINUOUS
 10
176.0103746927
 20
78.1484625801
  0
VERTEX
  8
0
 62
7
  6
CONTINUOUS
 10
176.0722339173
 20
78.1982824471
  0
VERTEX
  8
0
 62
7
  6
CONTINUOUS
 10
176.1317852408
 20
78.2547292102
  0
VERTEX
  8
0
 62
7
  6
CONTINUOUS
 10
176.1883561325
 20
78.3181055221
  0
VERTEX
  8
0
 62
7
  6
CONTINUOUS
 10
176.2411356237
 20
78.3886646709
  0
VERTEX
  8
0
 62
7
  6
CONTINUOUS
 10
176.2891351223
 20
78.4665223773
  0
VERTEX
  8
0
 62
7
  6
CONTINUOUS
 10
176.3311899561
 20
78.5515513409
  0
VERTEX
  8
0
 62
7
  6
CONTINUOUS
 10
176.3660661564
 20
78.6434437101
  0
VERTEX
  8
0
 62
7
  6
CONTINUOUS
 10
176.3924898512
 20
78.7416993889
  0
VERTEX
  8
0
 62
7
  6
CONTINUOUS
 10
176.4091731822
 20
78.8456048214
  0
VERTEX
  8
0
 62
7
  6
CONTINUOUS
 10
176.4148483398
 20
78.9520032202
  0
SEQEND
  0
LINE
  8
0
 62
7
  6
CONTINUOUS
 10
175.3773597412
 20
77.92098078
 11
175.4818425748
 21
77.9414868812
  0
LINE
  8
0
 62
7
  6
CONTINUOUS
 10
175.2466887674
 20
77.896182283
 11
175.3773597412
 21
77.92098078
  0
LINE
  8
0
 62
7
  6
CONTINUOUS
 10
175.0043258017
 20
77.8515110485
 11
175.2466887674
 21
77.896182283
  0
LINE
  8
0
 62
7
  6
CONTINUOUS
 10
173.249220536
 20
77.5384396114
 11
175.0043258017
 21
77.8515110485
  0
LINE
  8
0
 62
7
  6
CONTINUOUS
 10
167.785756412
 20
77.4590178779
 11
168.2753664474
 21
77.5435650864
  0
LINE
  8
0
 62
7
  6
CONTINUOUS
 10
148.6698758368
 20
62.236214442
 11
126.5835842435
 21
62.236214442
  0
LINE
  8
0
 62
7
  6
CONTINUOUS
 10
123.8795075393
 20
62.236214442
 11
102.515826776
 21
62.236214442
  0
LINE
  8
0
 62
7
  6
CONTINUOUS
 10
102.5095967378
 20
62.236214442
 11
89.1006564551
 21
62.236214442
  0
LINE
  8
0
 62
7
  6
CONTINUOUS
 10
87.0606393395
 20
62.236214442
 11
83.4921569362
 21
62.236214442
  0
LINE
  8
0
 62
7
  6
CONTINUOUS
 10
83.4835016512
 20
62.236214442
 11
78.5912089696
 21
62.236214442
  0
LINE
  8
0
 62
7
  6
CONTINUOUS
 10
78.5393843639
 20
62.236214442
 11
75.1770367245
 21
62.236214442
  0
LINE
  8
0
 62
7
  6
CONTINUOUS
 10
73.229962878
 20
62.236214442
 11
66.2312322579
 21
62.236214442
  0
LINE
  8
0
 62
7
  6
CONTINUOUS
 10
65.5314370735
 20
62.236214442
 11
52.6654116697
 21
62.236214442
  0
LINE
  8
0
 62
7
  6
CONTINUOUS
 10
47.6006571833
 20
62.386214442
 11
154.6006557246
 21
62.386214442
  0
POLYLINE
  8
0
 62
7
  6
CONTINUOUS
 66
1
 70
0
  0
VERTEX
  8
0
 62
7
  6
CONTINUOUS
 10
28.9520926634
 20
77.538439725
  0
VERTEX
  8
0
 62
7
  6
CONTINUOUS
 10
29.4935382381
 20
77.4574916932
  0
VERTEX
  8
0
 62
7
  6
CONTINUOUS
 10
30.1205461919
 20
77.4018603498
  0
VERTEX
  8
0
 62
7
  6
CONTINUOUS
 10
30.6747632069
 20
77.386214613
  0
SEQEND
  0
LINE
  8
0
 62
7
  6
CONTINUOUS
 10
27.1875259419
 20
77.8532319374
 11
28.9520923743
 21
77.5384396114
  0
LINE
  8
0
 62
7
  6
CONTINUOUS
 10
26.9357599275
 20
77.8997222684
 11
27.1875259419
 21
77.8532319374
  0
LINE
  8
0
 62
7
  6
CONTINUOUS
 10
26.8054321793
 20
77.9245593751
 11
26.9357599275
 21
77.8997222684
  0
POLYLINE
  8
0
 62
7
  6
CONTINUOUS
 66
1
 70
0
  0
VERTEX
  8
0
 62
7
  6
CONTINUOUS
 10
41.1608312685
 20
77.5481709754
  0
VERTEX
  8
0
 62
7
  6
CONTINUOUS
 10
41.6096749949
 20
77.4619553385
  0
VERTEX
  8
0
 62
7
  6
CONTINUOUS
 10
42.1291156647
 20
77.4028112871
  0
VERTEX
  8
0
 62
7
  6
CONTINUOUS
 10
42.5876127625
 20
77.3862146131
  0
SEQEND
  0
LINE
  8
0
 62
7
  6
CONTINUOUS
 10
26.7075122505
 20
77.9438963434
 11
26.8054321793
 21
77.9245593751
  0
LINE
  8
0
 62
7
  6
CONTINUOUS
 10
39.9825980654
 20
77.817993952
 11
41.1608212931
 21
77.5481730945
  0
LINE
  8
0
 62
7
  6
CONTINUOUS
 10
39.9826901997
 20
77.8179728618
 11
39.9825980654
 21
77.817993952
  0
LINE
  8
0
 62
7
  6
CONTINUOUS
 10
69.1855121448
 20
77.6330236597
 11
69.5025634485
 21
77.4986904142
  0
LINE
  8
0
 62
7
  6
CONTINUOUS
 10
68.6591732621
 20
77.9029935413
 11
69.1852785826
 21
77.633143236
  0
LINE
  8
0
 62
7
  6
CONTINUOUS
 10
87.0606393395
 20
62.386214442
 11
87.0606393395
 21
62.236214442
  0
LINE
  8
0
 62
7
  6
CONTINUOUS
 10
89.1006564551
 20
101.536214442
 11
89.1006564551
 21
101.386214442
  0
LINE
  8
0
 62
7
  6
CONTINUOUS
 10
89.1006564551
 20
62.386214442
 11
89.1006564551
 21
62.236214442
  0
LINE
  8
0
 62
7
  6
CONTINUOUS
 10
91.1353941667
 20
62.386214442
 11
91.1353941667
 21
62.236214442
  0
LINE
  8
0
 62
7
  6
CONTINUOUS
 10
91.1462053341
 20
62.386214442
 11
91.1462053341
 21
62.236214442
  0
LINE
  8
0
 62
7
  6
CONTINUOUS
 10
91.2534377181
 20
62.386214442
 11
91.2534377181
 21
62.236214442
  0
POLYLINE
  8
0
 62
7
  6
CONTINUOUS
 66
1
 70
0
  0
VERTEX
  8
0
 62
7
  6
CONTINUOUS
 10
69.5025634485
 20
77.4986904142
  0
VERTEX
  8
0
 62
7
  6
CONTINUOUS
 10
69.8674032847
 20
77.4098058379
  0
VERTEX
  8
0
 62
7
  6
CONTINUOUS
 10
70.1786740345
 20
77.3862146743
  0
SEQEND
  0
LINE
  8
0
 62
7
  6
CONTINUOUS
 10
91.524978933
 20
62.386214442
 11
91.524978933
 21
62.236214442
  0
LINE
  8
0
 62
7
  6
CONTINUOUS
 10
91.8250555508
 20
62.386214442
 11
91.8250555508
 21
62.236214442
  0
LINE
  8
0
 62
7
  6
CONTINUOUS
 10
92.2215571059
 20
62.386214442
 11
92.2215571059
 21
62.236214442
  0
LINE
  8
0
 62
7
  6
CONTINUOUS
 10
92.8787867882
 20
62.386214442
 11
92.8787867882
 21
62.236214442
  0
LINE
  8
0
 62
7
  6
CONTINUOUS
 10
93.3038237463
 20
62.386214442
 11
93.3038237463
 21
62.236214442
  0
LINE
  8
0
 62
7
  6
CONTINUOUS
 10
93.6609768108
 20
62.386214442
 11
93.6609768108
 21
62.236214442
  0
LINE
  8
0
 62
7
  6
CONTINUOUS
 10
94.0466671586
 20
62.386214442
 11
94.0466671586
 21
62.236214442
  0
LINE
  8
0
 62
7
  6
CONTINUOUS
 10
94.2680486756
 20
62.386214442
 11
94.2680486756
 21
62.236214442
  0
LINE
  8
0
 62
7
  6
CONTINUOUS
 10
94.4215463391
 20
62.386214442
 11
94.4215463391
 21
62.236214442
  0
LINE
  8
0
 62
7
  6
CONTINUOUS
 10
94.6355759833
 20
62.386214442
 11
94.6355759833
 21
62.236214442
  0
LINE
  8
0
 62
7
  6
CONTINUOUS
 10
95.1940627679
 20
62.386214442
 11
95.1940627679
 21
62.236214442
  0
LINE
  8
0
 62
7
  6
CONTINUOUS
 10
95.9414593336
 20
62.386214442
 11
95.9414593336
 21
62.236214442
  0
POLYLINE
  8
0
 62
7
  6
CONTINUOUS
 66
1
 70
0
  0
VERTEX
  8
0
 62
7
  6
CONTINUOUS
 10
146.3058248254
 20
77.3862144457
  0
VERTEX
  8
0
 62
7
  6
CONTINUOUS
 10
146.4332573444
 20
77.3940985858
  0
VERTEX
  8
0
 62
7
  6
CONTINUOUS
 10
146.6268619508
 20
77.4372467667
  0
VERTEX
  8
0
 62
7
  6
CONTINUOUS
 10
146.8070127596
 20
77.515555798
  0
VERTEX
  8
0
 62
7
  6
CONTINUOUS
 10
146.9677403125
 20
77.6255213403
  0
VERTEX
  8
0
 62
7
  6
CONTINUOUS
 10
147.1035663422
 20
77.7626550503
  0
VERTEX
  8
0
 62
7
  6
CONTINUOUS
 10
147.2099679479
 20
77.9217179475
  0
VERTEX
  8
0
 62
7
  6
CONTINUOUS
 10
147.2834345202
 20
78.0967263068
  0
VERTEX
  8
0
 62
7
  6
CONTINUOUS
 10
147.3203625881
 20
78.2746202819
  0
SEQEND
  0
POLYLINE
  8
0
 62
7
  6
CONTINUOUS
 66
1
 70
0
  0
VERTEX
  8
0
 62
7
  6
CONTINUOUS
 10
144.9411030509
 20
77.3862146094
  0
VERTEX
  8
0
 62
7
  6
CONTINUOUS
 10
145.2800288929
 20
77.4058650873
  0
VERTEX
  8
0
 62
7
  6
CONTINUOUS
 10
145.6738332633
 20
77.4785911959
  0
SEQEND
  0
POLYLINE
  8
0
 62
7
  6
CONTINUOUS
 66
1
 70
0
  0
VERTEX
  8
0
 62
7
  6
CONTINUOUS
 10
166.7369105156
 20
77.3862146
  0
VERTEX
  8
0
 62
7
  6
CONTINUOUS
 10
167.2262720624
 20
77.4020130346
  0
VERTEX
  8
0
 62
7
  6
CONTINUOUS
 10
167.785756412
 20
77.4590178779
  0
SEQEND
  0
POLYLINE
  8
0
 62
7
  6
CONTINUOUS
 66
1
 70
0
  0
VERTEX
  8
0
 62
7
  6
CONTINUOUS
 10
171.5265497034
 20
77.386214613
  0
VERTEX
  8
0
 62
7
  6
CONTINUOUS
 10
172.0807667184
 20
77.4018603498
  0
VERTEX
  8
0
 62
7
  6
CONTINUOUS
 10
172.7077746722
 20
77.4574916932
  0
VERTEX
  8
0
 62
7
  6
CONTINUOUS
 10
173.2492202468
 20
77.538439725
  0
SEQEND
  0
LINE
  8
0
 62
7
  6
CONTINUOUS
 10
171.5265494336
 20
77.386214442
 11
30.6747810437
 21
77.386214442
  0
LINE
  8
0
 62
7
  6
CONTINUOUS
 10
98.0175596378
 20
62.386214442
 11
98.0175596378
 21
62.236214442
  0
LINE
  8
0
 62
7
  6
CONTINUOUS
 10
98.5158240149
 20
62.386214442
 11
98.5158240149
 21
62.236214442
  0
LINE
  8
0
 62
7
  6
CONTINUOUS
 10
98.848821118
 20
62.386214442
 11
98.848821118
 21
62.236214442
  0
LINE
  8
0
 62
7
  6
CONTINUOUS
 10
99.5096015195
 20
62.386214442
 11
99.5096015195
 21
62.236214442
  0
LINE
  8
DEFAULT_1
 62
2
  6
CENTER
 10
101.1006564551
 20
60.236214442
 11
101.1006564551
 21
103.536214442
  0
LINE
  8
0
 62
7
  6
CONTINUOUS
 10
101.6006564551
 20
101.536214442
 11
101.6006564551
 21
101.386214442
  0
LINE
  8
0
 62
7
  6
CONTINUOUS
 10
102.5095967378
 20
62.386214442
 11
102.5095967378
 21
62.236214442
  0
LINE
  8
0
 62
7
  6
CONTINUOUS
 10
102.515826776
 20
62.386214442
 11
102.515826776
 21
62.236214442
  0
LINE
  8
0
 62
7
  6
CONTINUOUS
 10
30.6747634767
 20
86.386214442
 11
42.5785104498
 21
86.386214442
  0
LINE
  8
0
 62
7
  6
CONTINUOUS
 10
42.5876234239
 20
86.386214442
 11
171.5265321917
 21
86.386214442
  0
LINE
  8
0
 62
7
  6
CONTINUOUS
 10
107.1709476503
 20
62.386214442
 11
107.1709476503
 21
62.236214442
  0
LINE
  8
0
 62
7
  6
CONTINUOUS
 10
107.2826992615
 20
62.386214442
 11
107.2826992615
 21
62.236214442
  0
LINE
  8
0
 62
7
  6
CONTINUOUS
 10
107.7576436363
 20
62.386214442
 11
107.7576436363
 21
62.236214442
  0
LINE
  8
0
 62
7
  6
CONTINUOUS
 10
107.8274883872
 20
62.386214442
 11
107.8274883872
 21
62.236214442
  0
LINE
  8
0
 62
7
  6
CONTINUOUS
 10
111.1156133154
 20
62.386214442
 11
111.1156133154
 21
62.236214442
  0
LINE
  8
0
 62
7
  6
CONTINUOUS
 10
111.5942122468
 20
62.386214442
 11
111.5942122468
 21
62.236214442
  0
LINE
  8
0
 62
7
  6
CONTINUOUS
 10
111.7148802719
 20
62.386214442
 11
111.7148802719
 21
62.236214442
  0
LINE
  8
0
 62
7
  6
CONTINUOUS
 10
111.8668919799
 20
62.386214442
 11
111.8668919799
 21
62.236214442
  0
LINE
  8
0
 62
7
  6
CONTINUOUS
 10
70.1786526847
 20
86.3862142112
 11
69.8713014294
 21
86.3632113619
  0
POLYLINE
  8
0
 62
7
  6
CONTINUOUS
 66
1
 70
0
  0
VERTEX
  8
0
 62
7
  6
CONTINUOUS
 10
42.5876123103
 20
86.3862142807
  0
VERTEX
  8
0
 62
7
  6
CONTINUOUS
 10
42.1347372552
 20
86.3700223976
  0
VERTEX
  8
0
 62
7
  6
CONTINUOUS
 10
41.6152561578
 20
86.3113390485
  0
SEQEND
  0
POLYLINE
  8
0
 62
7
  6
CONTINUOUS
 66
1
 70
0
  0
VERTEX
  8
0
 62
7
  6
CONTINUOUS
 10
30.674763205
 20
86.3862142808
  0
VERTEX
  8
0
 62
7
  6
CONTINUOUS
 10
30.1273335777
 20
86.3709496839
  0
VERTEX
  8
0
 62
7
  6
CONTINUOUS
 10
29.5002882711
 20
86.3157524554
  0
SEQEND
  0
LINE
  8
0
 62
7
  6
CONTINUOUS
 10
112.4872808248
 20
62.386214442
 11
112.4872808248
 21
62.236214442
  0
LINE
  8
0
 62
7
  6
CONTINUOUS
 10
112.9746594718
 20
62.386214442
 11
112.9746594718
 21
62.236214442
  0
LINE
  8
0
 62
7
  6
CONTINUOUS
 10
113.1006564551
 20
101.536214442
 11
113.1006564551
 21
101.386214442
  0
LINE
  8
0
 62
7
  6
CONTINUOUS
 10
113.6668440946
 20
62.386214442
 11
113.6668440946
 21
62.236214442
  0
LINE
  8
0
 62
7
  6
CONTINUOUS
 10
113.8415876343
 20
62.386214442
 11
113.8415876343
 21
62.236214442
  0
LINE
  8
0
 62
7
  6
CONTINUOUS
 10
114.2564631587
 20
62.386214442
 11
114.2564631587
 21
62.236214442
  0
LINE
  8
0
 62
7
  6
CONTINUOUS
 10
114.6239919642
 20
62.386214442
 11
114.6239919642
 21
62.236214442
  0
LINE
  8
0
 62
7
  6
CONTINUOUS
 10
115.2079738988
 20
62.386214442
 11
115.2079738988
 21
62.236214442
  0
LINE
  8
0
 62
7
  6
CONTINUOUS
 10
115.5281486571
 20
62.386214442
 11
115.5281486571
 21
62.236214442
  0
LINE
  8
0
 62
7
  6
CONTINUOUS
 10
115.984737435
 20
62.386214442
 11
115.984737435
 21
62.236214442
  0
LINE
  8
0
 62
7
  6
CONTINUOUS
 10
116.2575654744
 20
62.386214442
 11
116.2575654744
 21
62.236214442
  0
LINE
  8
0
 62
7
  6
CONTINUOUS
 10
116.4830394665
 20
62.386214442
 11
116.4830394665
 21
62.236214442
  0
POLYLINE
  8
0
 62
7
  6
CONTINUOUS
 66
1
 70
0
  0
VERTEX
  8
0
 62
7
  6
CONTINUOUS
 10
69.8713014294
 20
86.3632113619
  0
VERTEX
  8
0
 62
7
  6
CONTINUOUS
 10
69.5062482489
 20
86.274978386
  0
VERTEX
  8
0
 62
7
  6
CONTINUOUS
 10
69.1854975937
 20
86.1393977571
  0
SEQEND
  0
LINE
  8
0
 62
7
  6
CONTINUOUS
 10
41.6152561578
 20
86.3113390485
 11
41.160830884
 21
86.2242578106
  0
LINE
  8
0
 62
7
  6
CONTINUOUS
 10
29.5002882711
 20
86.3157524554
 11
28.9520926634
 21
86.2339891491
  0
POLYLINE
  8
0
 62
7
  6
CONTINUOUS
 66
1
 70
0
  0
VERTEX
  8
0
 62
7
  6
CONTINUOUS
 10
173.2492202469
 20
86.2339891491
  0
VERTEX
  8
0
 62
7
  6
CONTINUOUS
 10
172.7010246392
 20
86.3157524554
  0
VERTEX
  8
0
 62
7
  6
CONTINUOUS
 10
172.0739793326
 20
86.3709496839
  0
VERTEX
  8
0
 62
7
  6
CONTINUOUS
 10
171.5265497053
 20
86.3862142808
  0
SEQEND
  0
POLYLINE
  8
0
 62
7
  6
CONTINUOUS
 66
1
 70
0
  0
VERTEX
  8
0
 62
7
  6
CONTINUOUS
 10
168.2753662042
 20
86.228863838
  0
VERTEX
  8
0
 62
7
  6
CONTINUOUS
 10
167.7917003216
 20
86.3125801714
  0
VERTEX
  8
0
 62
7
  6
CONTINUOUS
 10
167.2322520857
 20
86.3700270211
  0
VERTEX
  8
0
 62
7
  6
CONTINUOUS
 10
166.7369102503
 20
86.3862142934
  0
SEQEND
  0
POLYLINE
  8
0
 62
7
  6
CONTINUOUS
 66
1
 70
0
  0
VERTEX
  8
0
 62
7
  6
CONTINUOUS
 10
145.6779137619
 20
86.2927979878
  0
VERTEX
  8
0
 62
7
  6
CONTINUOUS
 10
145.2842085699
 20
86.3660754786
  0
VERTEX
  8
0
 62
7
  6
CONTINUOUS
 10
144.9410953565
 20
86.3862142851
  0
SEQEND
  0
LINE
  8
0
 62
7
  6
CONTINUOUS
 10
117.6625702259
 20
62.386214442
 11
117.6625702259
 21
62.236214442
  0
LINE
  8
0
 62
7
  6
CONTINUOUS
 10
119.5337973761
 20
62.386214442
 11
119.5337973761
 21
62.236214442
  0
LINE
  8
0
 62
7
  6
CONTINUOUS
 10
119.8935928073
 20
62.386214442
 11
119.8935928073
 21
62.236214442
  0
LINE
  8
0
 62
7
  6
CONTINUOUS
 10
120.115328565
 20
62.386214442
 11
120.115328565
 21
62.236214442
  0
LINE
  8
0
 62
7
  6
CONTINUOUS
 10
120.2290529665
 20
62.386214442
 11
120.2290529665
 21
62.236214442
  0
LINE
  8
0
 62
7
  6
CONTINUOUS
 10
121.4563724514
 20
62.386214442
 11
121.4563724514
 21
62.236214442
  0
POLYLINE
  8
0
 62
7
  6
CONTINUOUS
 66
1
 70
0
  0
VERTEX
  8
0
 62
7
  6
CONTINUOUS
 10
146.7694325919
 20
77.8740136033
  0
VERTEX
  8
0
 62
7
  6
CONTINUOUS
 10
146.8420391057
 20
77.9035916195
  0
VERTEX
  8
0
 62
7
  6
CONTINUOUS
 10
146.9619560944
 20
77.9625514188
  0
VERTEX
  8
0
 62
7
  6
CONTINUOUS
 10
147.0858135205
 20
78.0412625751
  0
VERTEX
  8
0
 62
7
  6
CONTINUOUS
 10
147.2106804679
 20
78.1467826138
  0
VERTEX
  8
0
 62
7
  6
CONTINUOUS
 10
147.3287885962
 20
78.2844410369
  0
VERTEX
  8
0
 62
7
  6
CONTINUOUS
 10
147.4275757487
 20
78.4536028576
  0
VERTEX
  8
0
 62
7
  6
CONTINUOUS
 10
147.4941181836
 20
78.64473369
  0
VERTEX
  8
0
 62
7
  6
CONTINUOUS
 10
147.521674558
 20
78.8435727813
  0
VERTEX
  8
0
 62
7
  6
CONTINUOUS
 10
147.5224578919
 20
78.8835406208
  0
SEQEND
  0
LINE
  8
0
 62
7
  6
CONTINUOUS
 10
146.0204322368
 20
77.5884630423
 11
146.0205197738
 21
77.5884963947
  0
LINE
  8
0
 62
7
  6
CONTINUOUS
 10
146.0205197738
 20
77.5884963947
 11
146.7698268052
 21
77.8741632065
  0
LINE
  8
0
 62
7
  6
CONTINUOUS
 10
145.6738332633
 20
77.4785911959
 11
146.0204321851
 21
77.5884631782
  0
POLYLINE
  8
0
 62
7
  6
CONTINUOUS
 66
1
 70
0
  0
VERTEX
  8
0
 62
7
  6
CONTINUOUS
 10
39.9826995107
 20
85.9544577421
  0
VERTEX
  8
0
 62
7
  6
CONTINUOUS
 10
39.8871439306
 20
85.9316691696
  0
VERTEX
  8
0
 62
7
  6
CONTINUOUS
 10
39.7643049627
 20
85.8991071348
  0
VERTEX
  8
0
 62
7
  6
CONTINUOUS
 10
39.6544672807
 20
85.8655596703
  0
VERTEX
  8
0
 62
7
  6
CONTINUOUS
 10
39.5531919481
 20
85.8290575422
  0
VERTEX
  8
0
 62
7
  6
CONTINUOUS
 10
39.4562707815
 20
85.7868327966
  0
VERTEX
  8
0
 62
7
  6
CONTINUOUS
 10
39.3616084275
 20
85.7361568398
  0
VERTEX
  8
0
 62
7
  6
CONTINUOUS
 10
39.2654050451
 20
85.6721151781
  0
VERTEX
  8
0
 62
7
  6
CONTINUOUS
 10
39.1666028403
 20
85.5889076233
  0
VERTEX
  8
0
 62
7
  6
CONTINUOUS
 10
39.068258382
 20
85.4811378186
  0
VERTEX
  8
0
 62
7
  6
CONTINUOUS
 10
38.9791933539
 20
85.3484469407
  0
VERTEX
  8
0
 62
7
  6
CONTINUOUS
 10
38.908204841
 20
85.1932148204
  0
VERTEX
  8
0
 62
7
  6
CONTINUOUS
 10
38.8628497033
 20
85.0202002895
  0
VERTEX
  8
0
 62
7
  6
CONTINUOUS
 10
38.8486368325
 20
84.8513264557
  0
SEQEND
  0
LINE
  8
0
 62
7
  6
CONTINUOUS
 10
41.1608212931
 20
86.2242557896
 11
39.9825980598
 21
85.9544349307
  0
POLYLINE
  8
0
 62
7
  6
CONTINUOUS
 66
1
 70
0
  0
VERTEX
  8
0
 62
7
  6
CONTINUOUS
 10
26.7044362195
 20
85.8279099305
  0
VERTEX
  8
0
 62
7
  6
CONTINUOUS
 10
26.6655569569
 20
85.8199218415
  0
VERTEX
  8
0
 62
7
  6
CONTINUOUS
 10
26.6309481397
 20
85.8125637373
  0
VERTEX
  8
0
 62
7
  6
CONTINUOUS
 10
26.5989141008
 20
85.8054301682
  0
VERTEX
  8
0
 62
7
  6
CONTINUOUS
 10
26.566536305
 20
85.7977291146
  0
VERTEX
  8
0
 62
7
  6
CONTINUOUS
 10
26.5304584668
 20
85.7882900673
  0
VERTEX
  8
0
 62
7
  6
CONTINUOUS
 10
26.4882635907
 20
85.7757476912
  0
VERTEX
  8
0
 62
7
  6
CONTINUOUS
 10
26.4394250086
 20
85.7588635476
  0
VERTEX
  8
0
 62
7
  6
CONTINUOUS
 10
26.3855553677
 20
85.7369827509
  0
VERTEX
  8
0
 62
7
  6
CONTINUOUS
 10
26.3279858659
 20
85.7094705496
  0
VERTEX
  8
0
 62
7
  6
CONTINUOUS
 10
26.2684465179
 20
85.6760645364
  0
VERTEX
  8
0
 62
7
  6
CONTINUOUS
 10
26.208323745
 20
85.6365800804
  0
VERTEX
  8
0
 62
7
  6
CONTINUOUS
 10
26.1492094342
 20
85.5912565626
  0
VERTEX
  8
0
 62
7
  6
CONTINUOUS
 10
26.0920470602
 20
85.5401448481
  0
VERTEX
  8
0
 62
7
  6
CONTINUOUS
 10
26.0373431691
 20
85.4829797374
  0
VERTEX
  8
0
 62
7
  6
CONTINUOUS
 10
25.9857181427
 20
85.4195288903
  0
VERTEX
  8
0
 62
7
  6
CONTINUOUS
 10
25.9379118569
 20
85.3496175259
  0
VERTEX
  8
0
 62
7
  6
CONTINUOUS
 10
25.8948309022
 20
85.2732475804
  0
VERTEX
  8
0
 62
7
  6
CONTINUOUS
 10
25.8574789176
 20
85.1905906727
  0
VERTEX
  8
0
 62
7
  6
CONTINUOUS
 10
25.8269026021
 20
85.1019584686
  0
VERTEX
  8
0
 62
7
  6
CONTINUOUS
 10
25.8041756163
 20
85.0078202397
  0
VERTEX
  8
0
 62
7
  6
CONTINUOUS
 10
25.790377948
 20
84.9088175934
  0
VERTEX
  8
0
 62
7
  6
CONTINUOUS
 10
25.7864645705
 20
84.8204256643
  0
SEQEND
  0
LINE
  8
0
 62
7
  6
CONTINUOUS
 10
26.7982498503
 20
85.846476275
 11
26.7044362195
 21
85.8279099305
  0
LINE
  8
0
 62
7
  6
CONTINUOUS
 10
26.9151754323
 20
85.8688302403
 11
26.7982498503
 21
85.846476275
  0
LINE
  8
0
 62
7
  6
CONTINUOUS
 10
27.1331681835
 20
85.9092780887
 11
26.9151754323
 21
85.8688302403
  0
LINE
  8
0
 62
7
  6
CONTINUOUS
 10
28.9520923743
 20
86.2339892727
 11
27.1331681835
 21
85.9092780887
  0
LINE
  8
0
 62
7
  6
CONTINUOUS
 10
47.600877194
 20
101.386214442
 11
154.6006557262
 21
101.386214442
  0
LINE
  8
0
 62
7
  6
CONTINUOUS
 10
148.6698758368
 20
101.536214442
 11
135.803850433
 21
101.536214442
  0
LINE
  8
0
 62
7
  6
CONTINUOUS
 10
113.1006564551
 20
101.536214442
 11
89.1006564551
 21
101.536214442
  0
LINE
  8
0
 62
7
  6
CONTINUOUS
 10
65.5314370735
 20
101.536214442
 11
52.6654116697
 21
101.536214442
  0
LINE
  8
0
 62
7
  6
CONTINUOUS
 10
175.0107550708
 20
85.9197485903
 11
173.249220536
 21
86.2339892727
  0
LINE
  8
0
 62
7
  6
CONTINUOUS
 10
175.2631713497
 20
85.8731541813
 11
175.0107550708
 21
85.9197485903
  0
LINE
  8
0
 62
7
  6
CONTINUOUS
 10
175.3939915792
 20
85.8482354434
 11
175.2631713497
 21
85.8731541813
  0
POLYLINE
  8
0
 62
7
  6
CONTINUOUS
 66
1
 70
0
  0
VERTEX
  8
0
 62
7
  6
CONTINUOUS
 10
169.9483269418
 20
85.8781528807
  0
VERTEX
  8
0
 62
7
  6
CONTINUOUS
 10
169.850606419
 20
85.9016016906
  0
VERTEX
  8
0
 62
7
  6
CONTINUOUS
 10
169.7407902773
 20
85.9260732958
  0
VERTEX
  8
0
 62
7
  6
CONTINUOUS
 10
168.2753709821
 20
86.2288630181
  0
SEQEND
  0
LINE
  8
0
 62
7
  6
CONTINUOUS
 10
170.0356757791
 20
85.8552974451
 11
169.9483269418
 21
85.8781528807
  0
LINE
  8
0
 62
7
  6
CONTINUOUS
 10
146.0204263432
 20
86.1839679214
 11
145.6779137619
 21
86.2927979878
  0
LINE
  8
0
 62
7
  6
CONTINUOUS
 10
146.7698267967
 20
85.8982656808
 11
146.0205197739
 21
86.1839324893
  0
LINE
  8
0
 62
7
  6
CONTINUOUS
 10
123.265372484
 20
62.386214442
 11
123.265372484
 21
62.236214442
  0
LINE
  8
0
 62
7
  6
CONTINUOUS
 10
123.6059530208
 20
62.386214442
 11
123.6059530208
 21
62.236214442
  0
LINE
  8
0
 62
7
  6
CONTINUOUS
 10
123.7985650157
 20
62.386214442
 11
123.7985650157
 21
62.236214442
  0
LINE
  8
0
 62
7
  6
CONTINUOUS
 10
123.8795075393
 20
62.386214442
 11
123.8795075393
 21
62.236214442
  0
LINE
  8
0
 62
7
  6
CONTINUOUS
 10
126.5835842435
 20
62.386214442
 11
126.5835842435
 21
62.236214442
  0
POLYLINE
  8
0
 62
7
  6
CONTINUOUS
 66
1
 70
0
  0
VERTEX
  8
0
 62
7
  6
CONTINUOUS
 10
170.0335847698
 20
77.9165574806
  0
VERTEX
  8
0
 62
7
  6
CONTINUOUS
 10
170.1127631533
 20
77.9394812805
  0
VERTEX
  8
0
 62
7
  6
CONTINUOUS
 10
170.1870538865
 20
77.9638693874
  0
VERTEX
  8
0
 62
7
  6
CONTINUOUS
 10
170.2611770638
 20
77.9921627613
  0
VERTEX
  8
0
 62
7
  6
CONTINUOUS
 10
170.3384926133
 20
78.0273000122
  0
VERTEX
  8
0
 62
7
  6
CONTINUOUS
 10
170.4216539895
 20
78.0731785447
  0
VERTEX
  8
0
 62
7
  6
CONTINUOUS
 10
170.5090672789
 20
78.1326025933
  0
VERTEX
  8
0
 62
7
  6
CONTINUOUS
 10
170.5978410351
 20
78.2079229349
  0
VERTEX
  8
0
 62
7
  6
CONTINUOUS
 10
170.6830985519
 20
78.2995807777
  0
VERTEX
  8
0
 62
7
  6
CONTINUOUS
 10
170.7599230298
 20
78.4065931371
  0
VERTEX
  8
0
 62
7
  6
CONTINUOUS
 10
170.824728639
 20
78.528356244
  0
VERTEX
  8
0
 62
7
  6
CONTINUOUS
 10
170.8741817337
 20
78.6643769473
  0
VERTEX
  8
0
 62
7
  6
CONTINUOUS
 10
170.9045554317
 20
78.8134202503
  0
VERTEX
  8
0
 62
7
  6
CONTINUOUS
 10
170.9124341648
 20
78.9389956832
  0
SEQEND
  0
LINE
  8
0
 62
7
  6
CONTINUOUS
 10
128.8602249483
 20
62.386214442
 11
128.8602249483
 21
62.236214442
  0
LINE
  8
0
 62
7
  6
CONTINUOUS
 10
130.5046782846
 20
62.386214442
 11
130.5046782846
 21
62.236214442
  0
LINE
  8
0
 62
7
  6
CONTINUOUS
 10
130.7988314805
 20
62.386214442
 11
130.7988314805
 21
62.236214442
  0
LINE
  8
0
 62
7
  6
CONTINUOUS
 10
130.9275916531
 20
62.386214442
 11
130.9275916531
 21
62.236214442
  0
LINE
  8
0
 62
7
  6
CONTINUOUS
 10
130.9393916875
 20
62.386214442
 11
130.9393916875
 21
62.236214442
  0
LINE
  8
0
 62
7
  6
CONTINUOUS
 10
133.2250787979
 20
62.386214442
 11
133.2250787979
 21
62.236214442
  0
LINE
  8
0
 62
7
  6
CONTINUOUS
 10
133.7401177811
 20
62.386214442
 11
133.7401177811
 21
62.236214442
  0
LINE
  8
0
 62
7
  6
CONTINUOUS
 10
133.9087310787
 20
62.386214442
 11
133.9087310787
 21
62.236214442
  0
LINE
  8
0
 62
7
  6
CONTINUOUS
 10
134.3232322134
 20
62.386214442
 11
134.3232322134
 21
62.236214442
  0
LINE
  8
0
 62
7
  6
CONTINUOUS
 10
134.7975905747
 20
62.386214442
 11
134.7975905747
 21
62.236214442
  0
LINE
  8
0
 62
7
  6
CONTINUOUS
 10
135.213371953
 20
62.386214442
 11
135.213371953
 21
62.236214442
  0
LINE
  8
0
 62
7
  6
CONTINUOUS
 10
135.6297959443
 20
62.386214442
 11
135.6297959443
 21
62.236214442
  0
LINE
  8
0
 62
7
  6
CONTINUOUS
 10
135.803850433
 20
101.536214442
 11
135.803850433
 21
101.386214442
  0
LINE
  8
0
 62
7
  6
CONTINUOUS
 10
136.1067144612
 20
62.386214442
 11
136.1067144612
 21
62.236214442
  0
LINE
  8
0
 62
7
  6
CONTINUOUS
 10
136.4652095623
 20
62.386214442
 11
136.4652095623
 21
62.236214442
  0
LINE
  8
0
 62
7
  6
CONTINUOUS
 10
136.7046275091
 20
62.386214442
 11
136.7046275091
 21
62.236214442
  0
LINE
  8
0
 62
7
  6
CONTINUOUS
 10
136.9446937147
 20
62.386214442
 11
136.9446937147
 21
62.236214442
  0
LINE
  8
0
 62
7
  6
CONTINUOUS
 10
137.0663255447
 20
62.386214442
 11
137.0663255447
 21
62.236214442
  0
LINE
  8
0
 62
7
  6
CONTINUOUS
 10
137.5359012406
 20
101.536214442
 11
137.5359012406
 21
101.386214442
  0
LINE
  8
0
 62
7
  6
CONTINUOUS
 10
137.5359012406
 20
62.386214442
 11
137.5359012406
 21
62.236214442
  0
LINE
  8
0
 62
7
  6
CONTINUOUS
 10
143.2859012406
 20
101.536214442
 11
143.2859012406
 21
101.386214442
  0
LINE
  8
0
 62
7
  6
CONTINUOUS
 10
143.2859012406
 20
62.386214442
 11
143.2859012406
 21
62.236214442
  0
POLYLINE
  8
0
 62
7
  6
CONTINUOUS
 66
1
 70
0
  0
VERTEX
  8
0
 62
7
  6
CONTINUOUS
 10
147.5224578922
 20
84.8888884447
  0
VERTEX
  8
0
 62
7
  6
CONTINUOUS
 10
147.5216922859
 20
84.9284015098
  0
VERTEX
  8
0
 62
7
  6
CONTINUOUS
 10
147.4943664489
 20
85.1266610065
  0
VERTEX
  8
0
 62
7
  6
CONTINUOUS
 10
147.4282738617
 20
85.3173153936
  0
VERTEX
  8
0
 62
7
  6
CONTINUOUS
 10
147.3300042593
 20
85.4862920154
  0
VERTEX
  8
0
 62
7
  6
CONTINUOUS
 10
147.2122515942
 20
85.6241000993
  0
VERTEX
  8
0
 62
7
  6
CONTINUOUS
 10
147.0875693669
 20
85.7298880507
  0
VERTEX
  8
0
 62
7
  6
CONTINUOUS
 10
146.963944231
 20
85.8087728908
  0
VERTEX
  8
0
 62
7
  6
CONTINUOUS
 10
146.8445919768
 20
85.8677226569
  0
VERTEX
  8
0
 62
7
  6
CONTINUOUS
 10
146.7694271462
 20
85.8984173544
  0
SEQEND
  0
LINE
  8
0
 62
7
  6
CONTINUOUS
 10
145.6264809816
 20
101.536214442
 11
145.6264809816
 21
101.386214442
  0
LINE
  8
0
 62
7
  6
CONTINUOUS
 10
145.6264809816
 20
62.386214442
 11
145.6264809816
 21
62.236214442
  0
LINE
  8
0
 62
7
  6
CONTINUOUS
 10
147.5224599082
 20
84.8891425405
 11
147.5224599082
 21
78.8832863434
  0
POLYLINE
  8
0
 62
7
  6
CONTINUOUS
 66
1
 70
0
  0
VERTEX
  8
0
 62
7
  6
CONTINUOUS
 10
147.3204061635
 20
85.4975248413
  0
VERTEX
  8
0
 62
7
  6
CONTINUOUS
 10
147.2835052412
 20
85.6754753984
  0
VERTEX
  8
0
 62
7
  6
CONTINUOUS
 10
147.2100826796
 20
85.8504974587
  0
VERTEX
  8
0
 62
7
  6
CONTINUOUS
 10
147.1036949579
 20
86.0096166069
  0
VERTEX
  8
0
 62
7
  6
CONTINUOUS
 10
146.9678564904
 20
86.1468108747
  0
VERTEX
  8
0
 62
7
  6
CONTINUOUS
 10
146.8071030699
 20
86.256823186
  0
VERTEX
  8
0
 62
7
  6
CONTINUOUS
 10
146.6269220176
 20
86.3351627529
  0
VERTEX
  8
0
 62
7
  6
CONTINUOUS
 10
146.4332844161
 20
86.3783269674
  0
VERTEX
  8
0
 62
7
  6
CONTINUOUS
 10
146.3072916443
 20
86.3862126326
  0
SEQEND
  0
LINE
  8
0
 62
7
  6
CONTINUOUS
 10
148.6698758368
 20
101.536214442
 11
148.6698758368
 21
101.386214442
  0
LINE
  8
0
 62
7
  6
CONTINUOUS
 10
148.6698758368
 20
62.386214442
 11
148.6698758368
 21
62.236214442
  0
LINE
  8
0
 62
7
  6
CONTINUOUS
 10
156.1006564551
 20
99.886214442
 11
156.1006564551
 21
87.886214442
  0
LINE
  8
0
 62
7
  6
CONTINUOUS
 10
156.1006564551
 20
75.886214442
 11
156.1006564551
 21
63.886214442
  0
POLYLINE
  8
0
 62
7
  6
CONTINUOUS
 66
1
 70
0
  0
VERTEX
  8
0
 62
7
  6
CONTINUOUS
 10
170.9124341648
 20
84.8334331979
  0
VERTEX
  8
0
 62
7
  6
CONTINUOUS
 10
170.9046389781
 20
84.9583436168
  0
VERTEX
  8
0
 62
7
  6
CONTINUOUS
 10
170.8744388218
 20
85.1071451829
  0
VERTEX
  8
0
 62
7
  6
CONTINUOUS
 10
170.8252135275
 20
85.2429869958
  0
VERTEX
  8
0
 62
7
  6
CONTINUOUS
 10
170.7606743462
 20
85.3646287665
  0
VERTEX
  8
0
 62
7
  6
CONTINUOUS
 10
170.6841467173
 20
85.4715700127
  0
VERTEX
  8
0
 62
7
  6
CONTINUOUS
 10
170.5991958406
 20
85.5632154097
  0
VERTEX
  8
0
 62
7
  6
CONTINUOUS
 10
170.5107142636
 20
85.6385786389
  0
VERTEX
  8
0
 62
7
  6
CONTINUOUS
 10
170.4235546015
 20
85.6980893131
  0
VERTEX
  8
0
 62
7
  6
CONTINUOUS
 10
170.3405402515
 20
85.7441069455
  0
VERTEX
  8
0
 62
7
  6
CONTINUOUS
 10
170.2632086783
 20
85.7794225411
  0
VERTEX
  8
0
 62
7
  6
CONTINUOUS
 10
170.1889913517
 20
85.8078758831
  0
VERTEX
  8
0
 62
7
  6
CONTINUOUS
 10
170.1147181938
 20
85.8323463022
  0
VERTEX
  8
0
 62
7
  6
CONTINUOUS
 10
170.0356757791
 20
85.8552974451
  0
SEQEND
  0
POLYLINE
  8
0
 62
7
  6
CONTINUOUS
 66
1
 70
0
  0
VERTEX
  8
0
 62
7
  6
CONTINUOUS
 10
176.4148483397
 20
84.8204256639
  0
VERTEX
  8
0
 62
7
  6
CONTINUOUS
 10
176.4094274475
 20
84.9244198508
  0
VERTEX
  8
0
 62
7
  6
CONTINUOUS
 10
176.3932876878
 20
85.0269847828
  0
VERTEX
  8
0
 62
7
  6
CONTINUOUS
 10
176.3676559509
 20
85.1240390931
  0
VERTEX
  8
0
 62
7
  6
CONTINUOUS
 10
176.3336973549
 20
85.2150884462
  0
VERTEX
  8
0
 62
7
  6
CONTINUOUS
 10
176.2924922716
 20
85.2998086479
  0
VERTEX
  8
0
 62
7
  6
CONTINUOUS
 10
176.2450258946
 20
85.3780128772
  0
VERTEX
  8
0
 62
7
  6
CONTINUOUS
 10
176.1921837397
 20
85.4496213584
  0
VERTEX
  8
0
 62
7
  6
CONTINUOUS
 10
176.1348644564
 20
85.5145175065
  0
VERTEX
  8
0
 62
7
  6
CONTINUOUS
 10
176.0740424897
 20
85.5725638393
  0
VERTEX
  8
0
 62
7
  6
CONTINUOUS
 10
176.0106389276
 20
85.6237701708
  0
VERTEX
  8
0
 62
7
  6
CONTINUOUS
 10
175.9455055986
 20
85.6682691897
  0
VERTEX
  8
0
 62
7
  6
CONTINUOUS
 10
175.8793847492
 20
85.7063108216
  0
VERTEX
  8
0
 62
7
  6
CONTINUOUS
 10
175.8135314207
 20
85.7379585304
  0
VERTEX
  8
0
 62
7
  6
CONTINUOUS
 10
175.7515662746
 20
85.7626571612
  0
VERTEX
  8
0
 62
7
  6
CONTINUOUS
 10
175.6976503697
 20
85.780531817
  0
VERTEX
  8
0
 62
7
  6
CONTINUOUS
 10
175.6566471401
 20
85.7921337489
  0
VERTEX
  8
0
 62
7
  6
CONTINUOUS
 10
175.6241776493
 20
85.8003178449
  0
VERTEX
  8
0
 62
7
  6
CONTINUOUS
 10
175.5946173438
 20
85.8071997445
  0
VERTEX
  8
0
 62
7
  6
CONTINUOUS
 10
175.5645442834
 20
85.813822392
  0
VERTEX
  8
0
 62
7
  6
CONTINUOUS
 10
175.5311099592
 20
85.8208895584
  0
VERTEX
  8
0
 62
7
  6
CONTINUOUS
 10
175.4924528829
 20
85.8288049655
  0
VERTEX
  8
0
 62
7
  6
CONTINUOUS
 10
175.3939915792
 20
85.8482354434
  0
SEQEND
  0
LINE
  8
0
 62
7
  6
CONTINUOUS
 10
170.9124341886
 20
84.8336135895
 11
170.9124341886
 21
78.9388152945
  0
LINE
  8
0
 62
7
  6
CONTINUOUS
 10
176.4148520207
 20
84.8208795599
 11
176.4148520207
 21
78.9515493241
  0
ARC
  8
0
 62
7
  6
CONTINUOUS
 10
48.0305803731
 20
146.8271637448
 40
9.525
 50
333.0
 51
30.0
  0
ARC
  8
0
 62
7
  6
CONTINUOUS
 10
58.8318257462
 20
136.8450753069
 40
2.0
 50
234.9490410048
 51
320.0
  0
ARC
  8
0
 62
7
  6
CONTINUOUS
 10
56.6788530021
 20
138.4143606867
 40
2.0
 50
153.0
 51
232.8749159104
  0
ARC
  8
0
 62
7
  6
CONTINUOUS
 10
53.4134469403
 20
154.55376536
 40
1.5
 50
348.5903739739
 51
30.0
  0
ARC
  8
0
 62
7
  6
CONTINUOUS
 10
55.3739228738
 20
154.1581214362
 40
0.5
 50
168.5903896413
 51
209.9994825528
  0
ARC
  8
0
 62
7
  6
CONTINUOUS
 10
30.0056564551
 20
180.0970956091
 40
9.525
 50
303.0
 51
360.0
  0
ARC
  8
0
 62
7
  6
CONTINUOUS
 10
45.6974215366
 20
165.9183133918
 40
2.0
 50
30.0
 51
110.0
  0
ARC
  8
0
 62
7
  6
CONTINUOUS
 10
34.3687651218
 20
166.0517307525
 40
2.0
 50
204.9490410048
 51
290.0
  0
ARC
  8
0
 62
7
  6
CONTINUOUS
 10
33.2888787217
 20
168.4872581293
 40
2.0
 50
123.0
 51
202.8749159104
  0
ARC
  8
0
 62
7
  6
CONTINUOUS
 10
48.4134469403
 20
163.2140193978
 40
1.5
 50
30.0
 51
71.409574621
  0
ARC
  8
0
 62
7
  6
CONTINUOUS
 10
38.5306564551
 20
184.0970956091
 40
1.5
 50
318.5903069365
 51
360.0
  0
ARC
  8
0
 62
7
  6
CONTINUOUS
 10
38.5306564551
 20
194.0970956091
 40
1.5
 50
0.0
 51
41.4096906751
  0
ARC
  8
0
 62
7
  6
CONTINUOUS
 10
49.0510472183
 20
165.1096633215
 40
0.5
 50
209.9999183123
 51
251.4097645741
  0
ARC
  8
0
 62
7
  6
CONTINUOUS
 10
40.0306564551
 20
182.7742199536
 40
0.5
 50
138.5905656179
 51
179.999814678
  0
ARC
  8
0
 62
7
  6
CONTINUOUS
 10
40.0306564551
 20
195.4199712647
 40
0.5
 50
180.0002108588
 51
221.4094141757
  0
ARC
  8
0
 62
7
  6
CONTINUOUS
 10
80.2755883195
 20
127.0270195271
 40
9.525
 50
3.0
 51
60.0
  0
ARC
  8
0
 62
7
  6
CONTINUOUS
 10
100.4006564551
 20
133.5270956091
 40
2.0
 50
90.0
 51
170.0
  0
ARC
  8
0
 62
7
  6
CONTINUOUS
 10
94.6207854241
 20
123.7829000436
 40
2.0
 50
264.9490410048
 51
350.0
  0
ARC
  8
0
 62
7
  6
CONTINUOUS
 10
91.9716136441
 20
124.0654546762
 40
2.0
 50
183.0
 51
262.8749159104
  0
ARC
  8
0
 62
7
  6
CONTINUOUS
 10
68.7094386725
 20
142.3938606906
 40
2.0
 50
60.0
 51
140.0
  0
ARC
  8
0
 62
7
  6
CONTINUOUS
 10
81.0739867043
 20
136.4098860944
 40
1.5
 50
18.5904270198
 51
60.0
  0
ARC
  8
0
 62
7
  6
CONTINUOUS
 10
72.4137326665
 20
141.4098860944
 40
1.5
 50
60.0
 51
101.4096258871
  0
ARC
  8
0
 62
7
  6
CONTINUOUS
 10
82.9696306281
 20
137.0474863723
 40
0.5
 50
198.5902305035
 51
240.0000826702
  0
ARC
  8
0
 62
7
  6
CONTINUOUS
 10
72.0180887428
 20
143.3703620278
 40
0.5
 50
240.0004971029
 51
281.4096107758
  0
ARC
  8
0
 62
7
  6
CONTINUOUS
 10
31.0305803731
 20
217.9221637448
 40
9.525
 50
273.0
 51
330.0
  0
ARC
  8
0
 62
7
  6
CONTINUOUS
 10
37.5306564551
 20
197.7970956091
 40
2.0
 50
0.0
 51
80.0
  0
ARC
  8
0
 62
7
  6
CONTINUOUS
 10
27.7864608896
 20
203.5769666402
 40
2.0
 50
174.9490410048
 51
260.0
  0
ARC
  8
0
 62
7
  6
CONTINUOUS
 10
28.0690155222
 20
206.2261384201
 40
2.0
 50
93.0
 51
172.8749159104
  0
ARC
  8
0
 62
7
  6
CONTINUOUS
 10
46.3974215366
 20
229.4883133918
 40
2.0
 50
330.0
 51
50.0
  0
ARC
  8
0
 62
7
  6
CONTINUOUS
 10
40.4134469403
 20
217.12376536
 40
1.5
 50
288.5904270198
 51
330.0
  0
ARC
  8
0
 62
7
  6
CONTINUOUS
 10
45.4134469403
 20
225.7840193978
 40
1.5
 50
330.0
 51
11.4096258871
  0
ARC
  8
0
 62
7
  6
CONTINUOUS
 10
41.0510472183
 20
215.2281214362
 40
0.5
 50
108.5902477693
 51
150.0000778088
  0
ARC
  8
0
 62
7
  6
CONTINUOUS
 10
47.3739228738
 20
226.1796633215
 40
0.5
 50
150.0005036097
 51
191.4096106433
  0
ARC
  8
0
 62
7
  6
CONTINUOUS
 10
50.8307245908
 20
250.1671716912
 40
9.525
 50
243.0
 51
300.0
  0
ARC
  8
0
 62
7
  6
CONTINUOUS
 10
40.8486361529
 20
239.365926318
 40
2.0
 50
144.9490410048
 51
230.0
  0
ARC
  8
0
 62
7
  6
CONTINUOUS
 10
42.4179215327
 20
241.5188990622
 40
2.0
 50
63.0
 51
142.8749159104
  0
ARC
  8
0
 62
7
  6
CONTINUOUS
 10
58.5573262059
 20
244.7843051239
 40
1.5
 50
258.5903739739
 51
300.0
  0
ARC
  8
0
 62
7
  6
CONTINUOUS
 10
58.1616822822
 20
242.8238291905
 40
0.5
 50
78.5903896413
 51
119.9994825528
  0
ARC
  8
0
 62
7
  6
CONTINUOUS
 10
84.1006564551
 20
268.1920956091
 40
9.525
 50
213.0
 51
270.0
  0
ARC
  8
0
 62
7
  6
CONTINUOUS
 10
72.4908189752
 20
264.9088733426
 40
2.0
 50
33.0
 51
112.8749159104
  0
ARC
  8
0
 62
7
  6
CONTINUOUS
 10
69.9218742378
 20
252.5003305277
 40
2.0
 50
300.0
 51
20.0
  0
ARC
  8
0
 62
7
  6
CONTINUOUS
 10
70.0552915985
 20
263.8289869424
 40
2.0
 50
114.9490410048
 51
200.0
  0
ARC
  8
0
 62
7
  6
CONTINUOUS
 10
88.1006564551
 20
259.6670956091
 40
1.5
 50
228.5903069365
 51
270.0
  0
ARC
  8
0
 62
7
  6
CONTINUOUS
 10
98.1006564551
 20
259.6670956091
 40
1.5
 50
270.0
 51
311.4096906751
  0
ARC
  8
0
 62
7
  6
CONTINUOUS
 10
96.7536219301
 20
253.429619881
 40
1.5
 50
274.4126215233
 51
311.9725537093
  0
ARC
  8
0
 62
7
  6
CONTINUOUS
 10
67.2175802438
 20
249.7843051239
 40
1.5
 50
300.0
 51
341.409574621
  0
ARC
  8
0
 62
7
  6
CONTINUOUS
 10
86.7777807996
 20
258.1670956091
 40
0.5
 50
48.5905656179
 51
89.999814678
  0
ARC
  8
0
 62
7
  6
CONTINUOUS
 10
99.4235321107
 20
258.1670956091
 40
0.5
 50
90.0002077088
 51
131.4094164119
  0
ARC
  8
0
 62
7
  6
CONTINUOUS
 10
69.1132241675
 20
249.146704846
 40
0.5
 50
119.9999183123
 51
161.4097645741
  0
ARC
  8
0
 62
7
  6
CONTINUOUS
 10
118.1006564551
 20
126.0020956091
 40
9.525
 50
33.0
 51
90.0
  0
ARC
  8
0
 62
7
  6
CONTINUOUS
 10
132.2794386725
 20
141.6938606906
 40
2.0
 50
120.0
 51
200.0
  0
ARC
  8
0
 62
7
  6
CONTINUOUS
 10
132.1460213118
 20
130.3652042759
 40
2.0
 50
294.9490410048
 51
20.0
  0
ARC
  8
0
 62
7
  6
CONTINUOUS
 10
129.710493935
 20
129.2853178757
 40
2.0
 50
213.0
 51
292.8749159104
  0
ARC
  8
0
 62
7
  6
CONTINUOUS
 10
134.9837326665
 20
144.4098860944
 40
1.5
 50
120.0
 51
161.409574621
  0
ARC
  8
0
 62
7
  6
CONTINUOUS
 10
114.1006564551
 20
134.5270956091
 40
1.5
 50
48.5903069365
 51
90.0
  0
ARC
  8
0
 62
7
  6
CONTINUOUS
 10
104.1006564551
 20
134.5270956091
 40
1.5
 50
90.0
 51
131.4096906751
  0
CIRCLE
  8
LAY0001
 62
7
  6
CONTINUOUS
 10
130.9405626212
 20
158.0294459486
 40
1.275
  0
ARC
  8
LAY0001
 62
7
  6
CONTINUOUS
 10
130.3748771963
 20
160.8932284124
 40
1.0
 50
225.0
 51
315.0
  0
ARC
  8
LAY0001
 62
7
  6
CONTINUOUS
 10
130.6235443934
 20
161.0004742533
 40
0.9
 50
315.0
 51
11.2510114041
  0
ARC
  8
0
 62
7
  6
CONTINUOUS
 10
133.0880887428
 20
145.0474863723
 40
0.5
 50
299.9999183123
 51
341.4097645741
  0
ARC
  8
0
 62
7
  6
CONTINUOUS
 10
115.4235321107
 20
136.0270956091
 40
0.5
 50
228.5905907533
 51
269.9997826101
  0
ARC
  8
0
 62
7
  6
CONTINUOUS
 10
102.7777807996
 20
136.0270956091
 40
0.5
 50
270.0002077088
 51
311.4094164119
  0
ARC
  8
LAY0001
 62
7
  6
CONTINUOUS
 10
130.4809432134
 20
160.9285837515
 40
0.25
 50
225.0
 51
315.0
  0
ARC
  8
LAY0001
 62
7
  6
CONTINUOUS
 10
132.9204616085
 20
163.8630768934
 40
1.0
 50
45.0
 51
135.0
  0
ARC
  8
LAY0001
 62
7
  6
CONTINUOUS
 10
132.6717944114
 20
163.7558310525
 40
0.9
 50
135.0
 51
191.2510114041
  0
ARC
  8
LAY0001
 62
7
  6
CONTINUOUS
 10
130.5870092306
 20
161.3882031592
 40
0.5
 50
315.0
 51
45.0
  0
ARC
  8
LAY0001
 62
7
  6
CONTINUOUS
 10
132.7083295742
 20
163.3681021465
 40
0.5
 50
135.0
 51
225.0
  0
ARC
  8
LAY0001
 62
7
  6
CONTINUOUS
 10
132.8143955914
 20
163.8277215543
 40
0.25
 50
45.0
 51
135.0
  0
ARC
  8
0
 62
7
  6
CONTINUOUS
 10
151.3705883195
 20
144.0270195271
 40
9.525
 50
63.0
 51
120.0
  0
ARC
  8
0
 62
7
  6
CONTINUOUS
 10
161.3526767574
 20
154.8282649002
 40
2.0
 50
324.9490410048
 51
50.0
  0
ARC
  8
0
 62
7
  6
CONTINUOUS
 10
159.7833913776
 20
152.6752921561
 40
2.0
 50
243.0
 51
322.8749159104
  0
ARC
  8
0
 62
7
  6
CONTINUOUS
 10
143.6439867043
 20
149.4098860944
 40
1.5
 50
78.5903739739
 51
120.0
  0
ARC
  8
0
 62
7
  6
CONTINUOUS
 10
144.0396306281
 20
151.3703620278
 40
0.5
 50
258.5903896413
 51
299.9994825528
  0
ARC
  8
0
 62
7
  6
CONTINUOUS
 10
171.1707325372
 20
176.2720274735
 40
9.525
 50
93.0
 51
150.0
  0
ARC
  8
0
 62
7
  6
CONTINUOUS
 10
164.6706564551
 20
196.3970956091
 40
2.0
 50
180.0
 51
260.0
  0
ARC
  8
0
 62
7
  6
CONTINUOUS
 10
174.4148520207
 20
190.6172245781
 40
2.0
 50
354.9490410048
 51
80.0
  0
ARC
  8
0
 62
7
  6
CONTINUOUS
 10
174.1322973881
 20
187.9680527981
 40
2.0
 50
273.0
 51
352.8749159104
  0
ARC
  8
0
 62
7
  6
CONTINUOUS
 10
155.8038913737
 20
164.7058778265
 40
2.0
 50
150.0
 51
230.0
  0
ARC
  8
0
 62
7
  6
CONTINUOUS
 10
161.7878659699
 20
177.0704258583
 40
1.5
 50
108.5904270198
 51
150.0
  0
ARC
  8
0
 62
7
  6
CONTINUOUS
 10
156.7878659699
 20
168.4101718205
 40
1.5
 50
150.0
 51
191.4096258871
  0
ARC
  8
0
 62
7
  6
CONTINUOUS
 10
161.150265692
 20
178.9660697821
 40
0.5
 50
288.5902305035
 51
330.0000826702
  0
ARC
  8
0
 62
7
  6
CONTINUOUS
 10
154.8273900365
 20
168.0145278968
 40
0.5
 50
330.0004971029
 51
11.4096107758
  0
ARC
  8
0
 62
7
  6
CONTINUOUS
 10
101.1006564551
 20
197.0970956091
 40
75.6
 50
82.8749159104
 51
84.9490410048
  0
ARC
  8
0
 62
7
  6
CONTINUOUS
 10
101.1006564551
 20
197.0970956091
 40
75.6
 50
292.8749159104
 51
294.9490410048
  0
ARC
  8
0
 62
7
  6
CONTINUOUS
 10
101.1006564551
 20
197.0970956091
 40
75.6
 50
262.8749159104
 51
264.9490410048
  0
ARC
  8
0
 62
7
  6
CONTINUOUS
 10
101.1006564551
 20
197.0970956091
 40
75.6
 50
232.8749159104
 51
234.9490410048
  0
ARC
  8
0
 62
7
  6
CONTINUOUS
 10
101.1006564551
 20
197.0970956091
 40
75.6
 50
202.8749159104
 51
204.9490410048
  0
ARC
  8
0
 62
7
  6
CONTINUOUS
 10
101.1006564551
 20
197.0970956091
 40
75.6
 50
172.8749159104
 51
174.9490410048
  0
ARC
  8
0
 62
7
  6
CONTINUOUS
 10
101.1006564551
 20
197.0970956091
 40
75.6
 50
142.8749159104
 51
144.9490410048
  0
ARC
  8
0
 62
7
  6
CONTINUOUS
 10
101.1006564551
 20
197.0970956091
 40
75.6
 50
112.8749159104
 51
114.9490410048
  0
ARC
  8
0
 62
7
  6
CONTINUOUS
 10
101.1006564551
 20
197.0970956091
 40
75.6
 50
52.8749159104
 51
54.9490410048
  0
ARC
  8
0
 62
7
  6
CONTINUOUS
 10
101.1006564551
 20
197.0970956091
 40
75.6
 50
22.8749159104
 51
24.9490410048
  0
ARC
  8
0
 62
7
  6
CONTINUOUS
 10
101.1006564551
 20
197.0970956091
 40
75.6
 50
352.8749159104
 51
354.9490410048
  0
ARC
  8
0
 62
7
  6
CONTINUOUS
 10
101.1006564551
 20
197.0970956091
 40
75.6
 50
322.8749159104
 51
324.9490410048
  0
ARC
  8
0
 62
7
  6
CONTINUOUS
 10
101.1006564551
 20
197.0970956091
 40
55.0
 50
94.4126215233
 51
85.5873784767
  0
CIRCLE
  8
0
 62
4
  6
CONTINUOUS
 10
101.1006564551
 20
197.0970956091
 40
9.525
  0
ARC
  8
0
 62
7
  6
CONTINUOUS
 10
121.9257245908
 20
267.1671716912
 40
9.525
 50
183.0
 51
240.0
  0
ARC
  8
0
 62
7
  6
CONTINUOUS
 10
101.1006564551
 20
248.5970956091
 40
5.0
 50
48.0274462907
 51
131.9725537093
  0
ARC
  8
0
 62
7
  6
CONTINUOUS
 10
101.8006564551
 20
260.6670956091
 40
2.0
 50
270.0
 51
350.0
  0
ARC
  8
0
 62
7
  6
CONTINUOUS
 10
107.5805274862
 20
270.4112911747
 40
2.0
 50
84.9490410048
 51
170.0
  0
ARC
  8
0
 62
7
  6
CONTINUOUS
 10
110.2296992661
 20
270.1287365421
 40
2.0
 50
3.0
 51
82.8749159104
  0
ARC
  8
0
 62
7
  6
CONTINUOUS
 10
133.4918742378
 20
251.8003305277
 40
2.0
 50
240.0
 51
320.0
  0
ARC
  8
0
 62
7
  6
CONTINUOUS
 10
121.1273262059
 20
257.7843051239
 40
1.5
 50
198.5904270198
 51
240.0
  0
ARC
  8
0
 62
7
  6
CONTINUOUS
 10
129.7875802438
 20
252.7843051239
 40
1.5
 50
240.0
 51
281.4096258871
  0
ARC
  8
0
 62
7
  6
CONTINUOUS
 10
105.4476909802
 20
253.429619881
 40
1.5
 50
228.0274462907
 51
265.5873784767
  0
ARC
  8
0
 62
7
  6
CONTINUOUS
 10
119.2316822822
 20
257.146704846
 40
0.5
 50
18.5902305035
 51
60.0000826702
  0
ARC
  8
0
 62
7
  6
CONTINUOUS
 10
130.1832241675
 20
250.8238291905
 40
0.5
 50
60.0004971029
 51
101.4096107758
  0
ARC
  8
0
 62
7
  6
CONTINUOUS
 10
172.1956564551
 20
214.0970956091
 40
9.525
 50
123.0
 51
180.0
  0
ARC
  8
0
 62
7
  6
CONTINUOUS
 10
156.5038913737
 20
228.2758778265
 40
2.0
 50
210.0
 51
290.0
  0
ARC
  8
0
 62
7
  6
CONTINUOUS
 10
167.8325477884
 20
228.1424604658
 40
2.0
 50
24.9490410048
 51
110.0
  0
ARC
  8
0
 62
7
  6
CONTINUOUS
 10
168.9124341886
 20
225.706933089
 40
2.0
 50
303.0
 51
22.8749159104
  0
ARC
  8
0
 62
7
  6
CONTINUOUS
 10
153.7878659699
 20
230.9801718205
 40
1.5
 50
210.0
 51
251.409574621
  0
ARC
  8
0
 62
7
  6
CONTINUOUS
 10
163.6706564551
 20
210.0970956091
 40
1.5
 50
138.5903069365
 51
180.0
  0
ARC
  8
0
 62
7
  6
CONTINUOUS
 10
163.6706564551
 20
200.0970956091
 40
1.5
 50
180.0
 51
221.4096906751
  0
ARC
  8
0
 62
7
  6
CONTINUOUS
 10
153.150265692
 20
229.0845278968
 40
0.5
 50
29.9999183123
 51
71.4097645741
  0
ARC
  8
0
 62
7
  6
CONTINUOUS
 10
162.1706564551
 20
211.4199712647
 40
0.5
 50
318.5905907533
 51
359.9997826101
  0
ARC
  8
0
 62
7
  6
CONTINUOUS
 10
162.1706564551
 20
198.7742199536
 40
0.5
 50
0.0002077088
 51
41.4094164119
  0
ARC
  8
0
 62
7
  6
CONTINUOUS
 10
154.1707325372
 20
247.3670274735
 40
9.525
 50
153.0
 51
210.0
  0
ARC
  8
0
 62
7
  6
CONTINUOUS
 10
143.369487164
 20
257.3491159114
 40
2.0
 50
54.9490410048
 51
140.0
  0
ARC
  8
0
 62
7
  6
CONTINUOUS
 10
145.5224599082
 20
255.7798305316
 40
2.0
 50
333.0
 51
52.8749159104
  0
ARC
  8
0
 62
7
  6
CONTINUOUS
 10
148.7878659699
 20
239.6404258583
 40
1.5
 50
168.5903739739
 51
210.0
  0
ARC
  8
0
 62
7
  6
CONTINUOUS
 10
146.8273900365
 20
240.0360697821
 40
0.5
 50
348.5903896413
 51
29.9994825528
  0
ARC
  8
0
 62
7
  6
CONTINUOUS
 10
154.6006564551
 20
99.886214442
 40
1.5
 50
0.0
 51
90.0
  0
ARC
  8
0
 62
7
  6
CONTINUOUS
 10
47.6006564551
 20
99.886214442
 40
1.5
 50
90.0
 51
180.0
  0
ARC
  8
0
 62
7
  6
CONTINUOUS
 10
157.6006564551
 20
87.886214442
 40
1.5
 50
180.0
 51
267.3061404531
  0
ARC
  8
0
 62
7
  6
CONTINUOUS
 10
44.6006564551
 20
87.886214442
 40
1.5
 50
270.0
 51
360.0
  0
ARC
  8
0
 62
7
  6
CONTINUOUS
 10
157.6006564551
 20
75.886214442
 40
1.5
 50
92.6938595469
 51
180.0
  0
ARC
  8
0
 62
7
  6
CONTINUOUS
 10
44.6006564551
 20
75.886214442
 40
1.5
 50
0.0
 51
90.0
  0
ARC
  8
0
 62
7
  6
CONTINUOUS
 10
154.6006564551
 20
63.886214442
 40
1.5
 50
270.0
 51
360.0
  0
ARC
  8
0
 62
7
  6
CONTINUOUS
 10
47.6006564551
 20
63.886214442
 40
1.5
 50
180.0
 51
270.0
  0
ENDSEC
  0
EOF
