  0
SECTION
  2
HEADER
  9
$EXTMAX
 10
210.0
 20
297.0
 30
0.0
  9
$EXTMIN
 10
0.0
 20
0.0
 30
0.0
  9
$LIMMIN
 10
0.0
 20
0.0
  9
$LIMMAX
 10
210.0
 20
297.0
  9
$VIEWCTR
 10
105.0
 20
148.5
  9
$VIEWSIZE
 40
297.0
  9
$CLAYER
  8
0
  9
$LTSCALE
 40
19.36
  9
$CELTYPE
  6
BYLAYER
  9
$DIMSCALE
 40
1.0
  9
$DIMASZ
 40
3.5
  9
$DIMEXO
 40
2.2
  9
$DIMDLI
 40
13.376
  9
$DIMEXE
 40
6.336
  9
$DIMCEN
 40
3.168
  9
$DIMLFAC
 40
1.0
  9
$DIMBLK
  1
_FILLED
  9
$DIMTXT
 40
3.5
  9
$PDMODE
 70
3
  9
$PDSIZE
 40
0.3125
  9
$TILEMODE
 70
1
  0
ENDSEC
  0
SECTION
  2
TABLES
  0
TABLE
  2
LTYPE
 70
6
  0
LTYPE
  2
BYBLOCK
 70
0
  3

 72
65
 73
0
 40
0.0
  0
LTYPE
  2
BYLAYER
 70
0
  3

 72
65
 73
0
 40
0.0
  0
LTYPE
  2
CONTINUOUS
 70
64
  3
Solid line
 72
65
 73
0
 40
0.0
  0
LTYPE
  2
CENTER
 70
64
  3
____ _ ____ _ ____ _ ____ _ ____ _ ____ _ ____
 72
65
 73
4
 40
0.6
 49
0.375
 49
-0.075
 49
0.075
 49
-0.075
  0
LTYPE
  2
HIDDEN
 70
64
  3
- - - - - - - - - - - - - - - - - - - -
 72
65
 73
2
 40
0.2
 49
0.1
 49
-0.1
  0
LTYPE
  2
PHANTOM
 70
64
  3
_____ _ _ _____ _ _ _____ _ _ _____
 72
65
 73
6
 40
0.8
 49
0.45
 49
-0.05
 49
0.1
 49
-0.05
 49
0.1
 49
-0.05
  0
LTYPE
  2
DOT
 70
64
  3
. . . . . . . . . . . . . . . . . . . .
 72
65
 73
2
 40
0.2
 49
0.1
 49
-0.1
  0
LTYPE
  2
DASHED
 70
64
  3
- - - - - - - - - - - - - - - - - - - -
 72
65
 73
2
 40
0.2
 49
0.1
 49
-0.1
  0
ENDTAB
  0
TABLE
  2
LAYER
 70
36
  0
LAYER
  2
0
 70
0
 62
7
  6
CONTINUOUS
  0
LAYER
  2
DEFAULT_1
 70
0
 62
7
  6
CENTER
  0
LAYER
  2
DEFAULT_2
 70
0
 62
8
  6
HIDDEN
  0
LAYER
  2
DEFAULT_3
 70
0
 62
7
  6
PHANTOM
  0
ENDTAB
  0
TABLE
  2
STYLE
 70
1
  0
STYLE
  2
STANDARD
 70
0
 40
0.0
 41
0.8
 50
0.0
 71
0
 42
0.2
  3
txt
  4

  0
STYLE
  2
TEXTSTYLE_1
 70
0
 40
0.0
 41
0.8
 50
0.0
 71
0
 42
0.2
  3
gdt
  4

  0
STYLE
  2
TEXTSTYLE_2
 70
0
 40
0.0
 41
0.6
 50
0.0
 71
0
 42
0.2
  3
txt
  4

  0
STYLE
  2
TEXTSTYLE_3
 70
0
 40
0.0
 41
1.0
 50
0.0
 71
0
 42
0.2
  3
ftb_____.ttf
  4

  0
STYLE
  2
TEXTSTYLE_4
 70
0
 40
0.0
 41
1.0
 50
0.0
 71
0
 42
0.2
  3
fti_____.ttf
  4

  0
STYLE
  2
TEXTSTYLE_5
 70
0
 40
0.0
 41
1.0
 50
0.0
 71
0
 42
0.2
  3
frutiger light.ttf
  4

  0
STYLE
  2
TEXTSTYLE_6
 70
0
 40
0.0
 41
0.7
 50
0.0
 71
0
 42
0.2
  3
txt
  4

  0
STYLE
  2
TEXTSTYLE_7
 70
0
 40
0.0
 41
0.8
 50
0.0
 71
0
 42
0.2
  3
txt
  4

  0
ENDTAB
  0
ENDSEC
  0
SECTION
  2
BLOCKS
  0
BLOCK
  8
0
 62
2
  6
CONTINUOUS
  2
SYMBOL_8_BL1
 70
64
 10
173.5956734183
 20
35.5937998301
  0
TEXT
  8
0
 62
7
  6
CONTINUOUS
 10
164.6539584268
 20
30.6865562072
  7
TEXTSTYLE_4
 40
1.0655737705
  1
The brand for plastic modular belts and chains
 41
1.0
 72
0
  0
LINE
  8
0
 62
7
  6
CONTINUOUS
 10
149.5737418074
 20
36.1675703219
 11
149.5737418074
 21
34.0364227809
  0
LINE
  8
0
 62
7
  6
CONTINUOUS
 10
149.8628043005
 20
31.0454914852
 11
149.8628043005
 21
31.1422825445
  0
LINE
  8
0
 62
7
  6
CONTINUOUS
 10
149.5737418074
 20
31.1100188581
 11
149.6315543091
 21
30.9164367395
  0
LINE
  8
0
 62
7
  6
CONTINUOUS
 10
150.9671844304
 20
33.9544555678
 11
150.9671844304
 21
36.1675703219
  0
LINE
  8
0
 62
7
  6
CONTINUOUS
 10
151.8862417523
 20
32.1101932727
 11
151.8862417523
 21
30.5937998301
  0
LINE
  8
0
 62
7
  6
CONTINUOUS
 10
152.1753043074
 20
30.5937998301
 11
152.1753043074
 21
31.3358647082
  0
LINE
  8
0
 62
7
  6
CONTINUOUS
 10
152.1753043074
 20
31.4649194539
 11
152.1753043074
 21
32.1101932727
  0
LINE
  8
0
 62
7
  6
CONTINUOUS
 10
149.6315543091
 20
31.3036010218
 11
149.5737418074
 21
31.1100188581
  0
LINE
  8
0
 62
7
  6
CONTINUOUS
 10
149.9784292936
 20
30.8841730531
 11
149.8628043005
 21
31.0454914852
  0
LINE
  8
0
 62
7
  6
CONTINUOUS
 10
151.0768668626
 20
31.400392081
 11
151.1346793074
 21
31.3036010218
  0
LINE
  8
0
 62
7
  6
CONTINUOUS
 10
151.4237418626
 20
31.3036010218
 11
151.3659292523
 21
31.4326557675
  0
LINE
  8
0
 62
7
  6
CONTINUOUS
 10
152.852430332
 20
36.1675703219
 11
152.852430332
 21
34.3642916334
  0
LINE
  8
0
 62
7
  6
CONTINUOUS
 10
152.852430332
 20
33.0528162235
 11
152.852430332
 21
32.3970785186
  0
LINE
  8
0
 62
7
  6
CONTINUOUS
 10
153.2159293074
 20
31.2390736489
 11
153.2159293074
 21
30.5937998301
  0
LINE
  8
0
 62
7
  6
CONTINUOUS
 10
153.5049916972
 20
30.5937998301
 11
153.5049916972
 21
31.2390736489
  0
LINE
  8
0
 62
7
  6
CONTINUOUS
 10
149.8628043005
 20
31.1422825445
 11
149.9206168074
 21
31.2713373354
  0
LINE
  8
0
 62
7
  6
CONTINUOUS
 10
149.6315543091
 20
30.9164367395
 11
149.7471793074
 21
30.7873819712
  0
LINE
  8
0
 62
7
  6
CONTINUOUS
 10
153.1581166972
 20
31.3681283946
 11
153.2159293074
 21
31.2390736489
  0
LINE
  8
0
 62
7
  6
CONTINUOUS
 10
153.9674919177
 20
30.8841730531
 11
154.0253041972
 21
30.7551182848
  0
LINE
  8
0
 62
7
  6
CONTINUOUS
 10
153.5049916972
 20
31.2390736489
 11
153.4471794177
 21
31.400392081
  0
LINE
  8
0
 62
7
  6
CONTINUOUS
 10
153.9674919177
 20
31.4326557675
 11
153.9674919177
 21
31.3681283946
  0
LINE
  8
0
 62
7
  6
CONTINUOUS
 10
153.9674919177
 20
30.9809641124
 11
153.9674919177
 21
30.8841730531
  0
LINE
  8
0
 62
7
  6
CONTINUOUS
 10
154.245872955
 20
32.3970785186
 11
154.245872955
 21
36.1675703219
  0
LINE
  8
0
 62
7
  6
CONTINUOUS
 10
154.2565543074
 20
30.8519093441
 11
154.2565543074
 21
30.9164367395
  0
LINE
  8
0
 62
7
  6
CONTINUOUS
 10
154.5737418074
 20
36.1675703219
 11
154.5737418074
 21
32.3970785186
  0
LINE
  8
0
 62
7
  6
CONTINUOUS
 10
151.3659292523
 20
30.7873819712
 11
151.4237418626
 21
30.9164367395
  0
LINE
  8
0
 62
7
  6
CONTINUOUS
 10
155.759679528
 20
30.6905909007
 11
155.7018665869
 21
30.8519093441
  0
LINE
  8
0
 62
7
  6
CONTINUOUS
 10
155.412804528
 20
31.3681283946
 11
155.412804528
 21
31.2713373354
  0
LINE
  8
0
 62
7
  6
CONTINUOUS
 10
155.412804528
 20
31.1422825445
 11
155.412804528
 21
30.9487004259
  0
LINE
  8
0
 62
7
  6
CONTINUOUS
 10
155.7018665869
 20
30.8519093441
 11
155.7018665869
 21
31.3681283946
  0
LINE
  8
0
 62
7
  6
CONTINUOUS
 10
155.9671844304
 20
32.3970785186
 11
155.9671844304
 21
34.2003572071
  0
LINE
  8
0
 62
7
  6
CONTINUOUS
 10
155.9671844304
 20
35.511832617
 11
155.9671844304
 21
36.1675703219
  0
LINE
  8
0
 62
7
  6
CONTINUOUS
 10
156.279992028
 20
32.1101932727
 11
156.279992028
 21
31.9488748406
  0
LINE
  8
0
 62
7
  6
CONTINUOUS
 10
156.279992028
 20
31.626237886
 11
156.279992028
 21
30.5937998301
  0
LINE
  8
0
 62
7
  6
CONTINUOUS
 10
156.5690540869
 20
30.5937998301
 11
156.5690540869
 21
31.626237886
  0
LINE
  8
0
 62
7
  6
CONTINUOUS
 10
156.5690540869
 20
31.9488748406
 11
156.5690540869
 21
32.1101932727
  0
LINE
  8
0
 62
7
  6
CONTINUOUS
 10
151.1346793074
 20
30.9164367395
 11
151.0768668626
 21
30.8196456577
  0
LINE
  8
0
 62
7
  6
CONTINUOUS
 10
153.4471794177
 20
31.400392081
 11
153.3893668074
 21
31.4649194539
  0
LINE
  8
0
 62
7
  6
CONTINUOUS
 10
154.3143669177
 20
30.7873819712
 11
154.2565543074
 21
30.8519093441
  0
LINE
  8
0
 62
7
  6
CONTINUOUS
 10
155.4706168074
 20
30.6583272086
 11
155.5284290869
 21
30.5937998301
  0
LINE
  8
0
 62
7
  6
CONTINUOUS
 10
155.412804528
 20
30.7551182848
 11
155.4706168074
 21
30.6583272086
  0
LINE
  8
0
 62
7
  6
CONTINUOUS
 10
155.8174918074
 20
30.5937998301
 11
155.759679528
 21
30.6905909007
  0
LINE
  8
0
 62
7
  6
CONTINUOUS
 10
155.7018665869
 20
31.3681283946
 11
155.6440543074
 21
31.4649194539
  0
LINE
  8
0
 62
7
  6
CONTINUOUS
 10
157.0315543074
 20
31.626237886
 11
157.0315543074
 21
30.5937998301
  0
LINE
  8
0
 62
7
  6
CONTINUOUS
 10
157.320617028
 20
30.5937998301
 11
157.320617028
 21
31.3358647082
  0
LINE
  8
0
 62
7
  6
CONTINUOUS
 10
157.320617028
 20
31.4649194539
 11
157.320617028
 21
31.626237886
  0
LINE
  8
0
 62
7
  6
CONTINUOUS
 10
157.852430332
 20
34.6101932727
 11
157.852430332
 21
32.3970785186
  0
LINE
  8
0
 62
7
  6
CONTINUOUS
 10
149.7471793074
 20
31.4326557675
 11
149.6315543091
 21
31.3036010218
  0
LINE
  8
0
 62
7
  6
CONTINUOUS
 10
149.9206168074
 20
31.2713373354
 11
149.9784292936
 21
31.3358647082
  0
LINE
  8
0
 62
7
  6
CONTINUOUS
 10
149.7471793074
 20
30.7873819712
 11
149.8628043005
 21
30.7228545871
  0
LINE
  8
0
 62
7
  6
CONTINUOUS
 10
150.1518667936
 20
30.7873819712
 11
149.9784292936
 21
30.8841730531
  0
LINE
  8
0
 62
7
  6
CONTINUOUS
 10
155.3549915869
 20
31.4326557675
 11
155.412804528
 21
31.3681283946
  0
LINE
  8
0
 62
7
  6
CONTINUOUS
 10
158.3034290869
 20
31.3681283946
 11
158.361242028
 21
31.2068099625
  0
LINE
  8
0
 62
7
  6
CONTINUOUS
 10
158.6503040869
 20
31.2068099625
 11
158.5924918074
 21
31.3681283946
  0
LINE
  8
0
 62
7
  6
CONTINUOUS
 10
158.361242028
 20
31.2068099625
 11
158.361242028
 21
30.5937998301
  0
LINE
  8
0
 62
7
  6
CONTINUOUS
 10
158.6503040869
 20
30.5937998301
 11
158.6503040869
 21
31.2068099625
  0
LINE
  8
0
 62
7
  6
CONTINUOUS
 10
159.1128043074
 20
31.4326557675
 11
159.1128043074
 21
31.3681283946
  0
LINE
  8
0
 62
7
  6
CONTINUOUS
 10
159.245872955
 20
32.3970785186
 11
159.245872955
 21
34.5282260596
  0
LINE
  8
0
 62
7
  6
CONTINUOUS
 10
159.5737418074
 20
36.1675703219
 11
159.5737418074
 21
32.3970785186
  0
LINE
  8
0
 62
7
  6
CONTINUOUS
 10
154.2565543074
 20
30.9164367395
 11
154.3143669177
 21
31.0132277988
  0
LINE
  8
0
 62
7
  6
CONTINUOUS
 10
149.8628043005
 20
30.7228545871
 11
150.0362418212
 21
30.6583272086
  0
LINE
  8
0
 62
7
  6
CONTINUOUS
 10
151.3659292523
 20
31.4326557675
 11
151.1924917523
 21
31.5294468267
  0
LINE
  8
0
 62
7
  6
CONTINUOUS
 10
154.0253041972
 20
30.7551182848
 11
154.1987416972
 21
30.6583272086
  0
LINE
  8
0
 62
7
  6
CONTINUOUS
 10
153.0424918074
 20
31.4326557675
 11
153.1581166972
 21
31.3681283946
  0
LINE
  8
0
 62
7
  6
CONTINUOUS
 10
153.3893668074
 20
31.4649194539
 11
153.2737419177
 21
31.5294468267
  0
LINE
  8
0
 62
7
  6
CONTINUOUS
 10
159.1128043074
 20
30.8519093441
 11
159.228429528
 21
30.7228545871
  0
LINE
  8
0
 62
7
  6
CONTINUOUS
 10
159.4596793074
 20
30.7873819712
 11
159.401867028
 21
30.8519093441
  0
LINE
  8
0
 62
7
  6
CONTINUOUS
 10
159.1128043074
 20
31.3681283946
 11
159.228429528
 21
31.2390736489
  0
LINE
  8
0
 62
7
  6
CONTINUOUS
 10
158.5924918074
 20
31.3681283946
 11
158.534679528
 21
31.4649194539
  0
LINE
  8
0
 62
7
  6
CONTINUOUS
 10
160.9628038663
 20
30.7873819712
 11
160.9628038663
 21
30.8519093441
  0
LINE
  8
0
 62
7
  6
CONTINUOUS
 10
160.9671844304
 20
32.3970785186
 11
160.9671844304
 21
36.1675703219
  0
LINE
  8
0
 62
7
  6
CONTINUOUS
 10
154.0253041972
 20
31.4971831403
 11
153.9674919177
 21
31.4326557675
  0
LINE
  8
0
 62
7
  6
CONTINUOUS
 10
150.9034292799
 20
31.4649194539
 11
151.0768668626
 21
31.400392081
  0
LINE
  8
0
 62
7
  6
CONTINUOUS
 10
155.6440543074
 20
31.4649194539
 11
155.5284290869
 21
31.5294468267
  0
LINE
  8
0
 62
7
  6
CONTINUOUS
 10
159.4596793074
 20
31.3036010218
 11
159.401867028
 21
31.3681283946
  0
LINE
  8
0
 62
7
  6
CONTINUOUS
 10
160.615929528
 20
30.9164367395
 11
160.6737418074
 21
30.8519093441
  0
LINE
  8
0
 62
7
  6
CONTINUOUS
 10
160.9628038663
 20
30.8519093441
 11
160.8471793074
 21
30.9809641124
  0
LINE
  8
0
 62
7
  6
CONTINUOUS
 10
160.615929528
 20
31.4326557675
 11
160.6737418074
 21
31.3681283946
  0
LINE
  8
0
 62
7
  6
CONTINUOUS
 10
160.9628038663
 20
31.3681283946
 11
160.8471793074
 21
31.4971831403
  0
LINE
  8
0
 62
7
  6
CONTINUOUS
 10
154.2565543074
 20
31.3681283946
 11
154.3143669177
 21
31.4326557675
  0
LINE
  8
0
 62
7
  6
CONTINUOUS
 10
154.0831168074
 20
31.1100188581
 11
153.9674919177
 21
30.9809641124
  0
LINE
  8
0
 62
7
  6
CONTINUOUS
 10
155.412804528
 20
30.9487004259
 11
155.3549915869
 21
30.8841730531
  0
LINE
  8
0
 62
7
  6
CONTINUOUS
 10
155.3549915869
 20
30.6905909007
 11
155.412804528
 21
30.7551182848
  0
LINE
  8
0
 62
7
  6
CONTINUOUS
 10
154.1987416972
 20
30.6583272086
 11
154.3143669177
 21
30.6260635193
  0
LINE
  8
0
 62
7
  6
CONTINUOUS
 10
151.1924917523
 20
31.5294468267
 11
150.9612418074
 21
31.5939741996
  0
LINE
  8
0
 62
7
  6
CONTINUOUS
 10
154.5456166972
 20
30.7228545871
 11
154.3143669177
 21
30.7873819712
  0
LINE
  8
0
 62
7
  6
CONTINUOUS
 10
153.2737419177
 20
31.5294468267
 11
153.1003044177
 21
31.5939741996
  0
LINE
  8
0
 62
7
  6
CONTINUOUS
 10
155.5284290869
 20
31.5294468267
 11
155.3549915869
 21
31.5939741996
  0
LINE
  8
0
 62
7
  6
CONTINUOUS
 10
158.187804528
 20
31.4326557675
 11
158.3034290869
 21
31.3681283946
  0
LINE
  8
0
 62
7
  6
CONTINUOUS
 10
158.534679528
 20
31.4649194539
 11
158.4190543074
 21
31.5294468267
  0
LINE
  8
0
 62
7
  6
CONTINUOUS
 10
150.0362418212
 20
30.6583272086
 11
150.2096793212
 21
30.6260635193
  0
LINE
  8
0
 62
7
  6
CONTINUOUS
 10
150.498741835
 20
30.7228545871
 11
150.1518667936
 21
30.7873819712
  0
LINE
  8
0
 62
7
  6
CONTINUOUS
 10
152.9268669177
 20
31.4649194539
 11
153.0424918074
 21
31.4326557675
  0
LINE
  8
0
 62
7
  6
CONTINUOUS
 10
155.239367028
 20
31.4649194539
 11
155.3549915869
 21
31.4326557675
  0
LINE
  8
0
 62
7
  6
CONTINUOUS
 10
159.575304528
 20
30.7551182848
 11
159.4596793074
 21
30.7873819712
  0
LINE
  8
0
 62
7
  6
CONTINUOUS
 10
158.0721793074
 20
31.4649194539
 11
158.187804528
 21
31.4326557675
  0
LINE
  8
0
 62
7
  6
CONTINUOUS
 10
159.228429528
 20
30.7228545871
 11
159.401867028
 21
30.6583272086
  0
LINE
  8
0
 62
7
  6
CONTINUOUS
 10
158.4190543074
 20
31.5294468267
 11
158.2456168074
 21
31.5939741996
  0
LINE
  8
0
 62
7
  6
CONTINUOUS
 10
159.6331168074
 20
31.2390736489
 11
159.4596793074
 21
31.3036010218
  0
LINE
  8
0
 62
7
  6
CONTINUOUS
 10
160.442492028
 20
30.9809641124
 11
160.615929528
 21
30.9164367395
  0
LINE
  8
0
 62
7
  6
CONTINUOUS
 10
160.8471793074
 20
31.4971831403
 11
160.6737418074
 21
31.5617105132
  0
LINE
  8
0
 62
7
  6
CONTINUOUS
 10
159.228429528
 20
31.2390736489
 11
159.4596793074
 21
31.1422825445
  0
LINE
  8
0
 62
7
  6
CONTINUOUS
 10
160.8471793074
 20
30.9809641124
 11
160.615929528
 21
31.0777551716
  0
LINE
  8
0
 62
7
  6
CONTINUOUS
 10
159.401867028
 20
31.3681283946
 11
159.4596793074
 21
31.4326557675
  0
LINE
  8
0
 62
7
  6
CONTINUOUS
 10
149.8628043005
 20
31.4971831403
 11
149.7471793074
 21
31.4326557675
  0
LINE
  8
0
 62
7
  6
CONTINUOUS
 10
149.9784292936
 20
31.3358647082
 11
150.1518667936
 21
31.4326557675
  0
LINE
  8
0
 62
7
  6
CONTINUOUS
 10
152.2909293626
 20
31.5294468267
 11
152.1753043074
 21
31.4649194539
  0
LINE
  8
0
 62
7
  6
CONTINUOUS
 10
152.1753043074
 20
31.3358647082
 11
152.2909293626
 21
31.400392081
  0
LINE
  8
0
 62
7
  6
CONTINUOUS
 10
151.1924917523
 20
30.6905909007
 11
151.3659292523
 21
30.7873819712
  0
LINE
  8
0
 62
7
  6
CONTINUOUS
 10
150.2096793212
 20
30.6260635193
 11
150.5565542799
 21
30.5937998301
  0
LINE
  8
0
 62
7
  6
CONTINUOUS
 10
154.3143669177
 20
30.6260635193
 11
154.5456166972
 21
30.5937998301
  0
LINE
  8
0
 62
7
  6
CONTINUOUS
 10
152.6956168074
 20
31.4971831403
 11
152.9268669177
 21
31.4649194539
  0
LINE
  8
0
 62
7
  6
CONTINUOUS
 10
155.0081169177
 20
31.4971831403
 11
155.239367028
 21
31.4649194539
  0
LINE
  8
0
 62
7
  6
CONTINUOUS
 10
159.4596793074
 20
31.1422825445
 11
160.442492028
 21
30.9809641124
  0
LINE
  8
0
 62
7
  6
CONTINUOUS
 10
160.615929528
 20
31.0777551716
 11
159.6331168074
 21
31.2390736489
  0
LINE
  8
0
 62
7
  6
CONTINUOUS
 10
153.1003044177
 20
31.5939741996
 11
152.9268669177
 21
31.626237886
  0
LINE
  8
0
 62
7
  6
CONTINUOUS
 10
159.401867028
 20
30.6583272086
 11
159.575304528
 21
30.6260635193
  0
LINE
  8
0
 62
7
  6
CONTINUOUS
 10
158.2456168074
 20
31.5939741996
 11
158.0721793074
 21
31.626237886
  0
LINE
  8
0
 62
7
  6
CONTINUOUS
 10
160.5003043074
 20
31.4649194539
 11
160.615929528
 21
31.4326557675
  0
LINE
  8
0
 62
7
  6
CONTINUOUS
 10
160.6737418074
 20
30.8519093441
 11
160.615929528
 21
30.7873819712
  0
LINE
  8
0
 62
7
  6
CONTINUOUS
 10
159.228429528
 20
31.5294468267
 11
159.1128043074
 21
31.4326557675
  0
LINE
  8
0
 62
7
  6
CONTINUOUS
 10
154.1409294177
 20
31.5617105132
 11
154.0253041972
 21
31.4971831403
  0
LINE
  8
0
 62
7
  6
CONTINUOUS
 10
154.1987416972
 20
31.1745462761
 11
154.0831168074
 21
31.1100188581
  0
LINE
  8
0
 62
7
  6
CONTINUOUS
 10
154.3143669177
 20
31.0132277988
 11
154.4299918074
 21
31.0777551716
  0
LINE
  8
0
 62
7
  6
CONTINUOUS
 10
151.8862417523
 20
30.5937998301
 11
152.1753043074
 21
30.5937998301
  0
LINE
  8
0
 62
7
  6
CONTINUOUS
 10
153.2159293074
 20
30.5937998301
 11
153.5049916972
 21
30.5937998301
  0
LINE
  8
0
 62
7
  6
CONTINUOUS
 10
154.5456166972
 20
30.5937998301
 11
154.8924916972
 21
30.5937998301
  0
LINE
  8
0
 62
7
  6
CONTINUOUS
 10
155.5284290869
 20
30.5937998301
 11
155.8174918074
 21
30.5937998301
  0
LINE
  8
0
 62
7
  6
CONTINUOUS
 10
156.279992028
 20
30.5937998301
 11
156.5690540869
 21
30.5937998301
  0
LINE
  8
0
 62
7
  6
CONTINUOUS
 10
157.0315543074
 20
30.5937998301
 11
157.320617028
 21
30.5937998301
  0
LINE
  8
0
 62
7
  6
CONTINUOUS
 10
158.361242028
 20
30.5937998301
 11
158.6503040869
 21
30.5937998301
  0
LINE
  8
0
 62
7
  6
CONTINUOUS
 10
159.922179528
 20
30.5937998301
 11
160.269054528
 21
30.5937998301
  0
LINE
  8
0
 62
7
  6
CONTINUOUS
 10
160.269054528
 20
30.7228545871
 11
159.922179528
 21
30.7228545871
  0
LINE
  8
0
 62
7
  6
CONTINUOUS
 10
154.8924916972
 20
30.7228545871
 11
154.5456166972
 21
30.7228545871
  0
LINE
  8
0
 62
7
  6
CONTINUOUS
 10
159.401867028
 20
30.8519093441
 11
159.1128043074
 21
30.8519093441
  0
LINE
  8
0
 62
7
  6
CONTINUOUS
 10
151.4237418626
 20
30.9164367395
 11
151.1346793074
 21
30.9164367395
  0
LINE
  8
0
 62
7
  6
CONTINUOUS
 10
150.498741835
 20
31.4971831403
 11
150.9034292799
 21
31.4649194539
  0
LINE
  8
0
 62
7
  6
CONTINUOUS
 10
150.9612418074
 20
31.5939741996
 11
150.5565542799
 21
31.626237886
  0
LINE
  8
0
 62
7
  6
CONTINUOUS
 10
159.575304528
 20
30.6260635193
 11
159.922179528
 21
30.5937998301
  0
LINE
  8
0
 62
7
  6
CONTINUOUS
 10
159.922179528
 20
30.7228545871
 11
159.575304528
 21
30.7551182848
  0
LINE
  8
0
 62
7
  6
CONTINUOUS
 10
155.3549915869
 20
31.5939741996
 11
155.0081169177
 21
31.626237886
  0
LINE
  8
0
 62
7
  6
CONTINUOUS
 10
160.1534293074
 20
31.4971831403
 11
160.5003043074
 21
31.4649194539
  0
LINE
  8
0
 62
7
  6
CONTINUOUS
 10
160.5003043074
 20
31.5939741996
 11
160.1534293074
 21
31.626237886
  0
LINE
  8
0
 62
7
  6
CONTINUOUS
 10
157.840929528
 20
31.4971831403
 11
158.0721793074
 21
31.4649194539
  0
LINE
  8
0
 62
7
  6
CONTINUOUS
 10
160.6737418074
 20
31.5617105132
 11
160.5003043074
 21
31.5939741996
  0
LINE
  8
0
 62
7
  6
CONTINUOUS
 10
160.8471793074
 20
30.6905909007
 11
160.9628038663
 21
30.7873819712
  0
LINE
  8
0
 62
7
  6
CONTINUOUS
 10
155.3549915869
 20
30.8841730531
 11
155.1815540869
 21
30.7873819712
  0
LINE
  8
0
 62
7
  6
CONTINUOUS
 10
157.4362415869
 20
31.5294468267
 11
157.320617028
 21
31.4649194539
  0
LINE
  8
0
 62
7
  6
CONTINUOUS
 10
157.320617028
 20
31.3358647082
 11
157.4362415869
 21
31.400392081
  0
LINE
  8
0
 62
7
  6
CONTINUOUS
 10
150.0362418212
 20
31.5617105132
 11
149.8628043005
 21
31.4971831403
  0
LINE
  8
0
 62
7
  6
CONTINUOUS
 10
152.4643666972
 20
31.5939741996
 11
152.2909293626
 21
31.5294468267
  0
LINE
  8
0
 62
7
  6
CONTINUOUS
 10
152.2909293626
 20
31.400392081
 11
152.4643666972
 21
31.4649194539
  0
LINE
  8
0
 62
7
  6
CONTINUOUS
 10
151.0768668626
 20
30.8196456577
 11
150.9034292799
 21
30.7551182848
  0
LINE
  8
0
 62
7
  6
CONTINUOUS
 10
160.5003043074
 20
30.7551182848
 11
160.269054528
 21
30.7228545871
  0
LINE
  8
0
 62
7
  6
CONTINUOUS
 10
154.8924916972
 20
30.5937998301
 11
155.1815540869
 21
30.6260635193
  0
LINE
  8
0
 62
7
  6
CONTINUOUS
 10
160.269054528
 20
30.5937998301
 11
160.615929528
 21
30.6260635193
  0
LINE
  8
0
 62
7
  6
CONTINUOUS
 10
150.5565542799
 20
30.5937998301
 11
150.9612418074
 21
30.6260635193
  0
LINE
  8
0
 62
7
  6
CONTINUOUS
 10
150.9034292799
 20
30.7551182848
 11
150.498741835
 21
30.7228545871
  0
LINE
  8
0
 62
7
  6
CONTINUOUS
 10
154.7768668074
 20
31.1422825445
 11
155.412804528
 21
31.1422825445
  0
LINE
  8
0
 62
7
  6
CONTINUOUS
 10
155.412804528
 20
31.2713373354
 11
154.7768668074
 21
31.2713373354
  0
LINE
  8
0
 62
7
  6
CONTINUOUS
 10
151.1346793074
 20
31.3036010218
 11
151.4237418626
 21
31.3036010218
  0
LINE
  8
0
 62
7
  6
CONTINUOUS
 10
153.9674919177
 20
31.3681283946
 11
154.2565543074
 21
31.3681283946
  0
LINE
  8
0
 62
7
  6
CONTINUOUS
 10
160.6737418074
 20
31.3681283946
 11
160.9628038663
 21
31.3681283946
  0
LINE
  8
0
 62
7
  6
CONTINUOUS
 10
154.6612419177
 20
31.4971831403
 11
155.0081169177
 21
31.4971831403
  0
LINE
  8
0
 62
7
  6
CONTINUOUS
 10
159.8065543074
 20
31.4971831403
 11
160.1534293074
 21
31.4971831403
  0
LINE
  8
0
 62
7
  6
CONTINUOUS
 10
160.1534293074
 20
31.626237886
 11
159.8065543074
 21
31.626237886
  0
LINE
  8
0
 62
7
  6
CONTINUOUS
 10
158.0721793074
 20
31.626237886
 11
157.840929528
 21
31.626237886
  0
LINE
  8
0
 62
7
  6
CONTINUOUS
 10
157.320617028
 20
31.626237886
 11
157.0315543074
 21
31.626237886
  0
LINE
  8
0
 62
7
  6
CONTINUOUS
 10
156.5690540869
 20
31.626237886
 11
156.279992028
 21
31.626237886
  0
LINE
  8
0
 62
7
  6
CONTINUOUS
 10
155.0081169177
 20
31.626237886
 11
154.6612419177
 21
31.626237886
  0
LINE
  8
0
 62
7
  6
CONTINUOUS
 10
152.9268669177
 20
31.626237886
 11
152.6956168074
 21
31.626237886
  0
LINE
  8
0
 62
7
  6
CONTINUOUS
 10
156.279992028
 20
31.9488748406
 11
156.5690540869
 21
31.9488748406
  0
LINE
  8
0
 62
7
  6
CONTINUOUS
 10
156.5690540869
 20
32.1101932727
 11
156.279992028
 21
32.1101932727
  0
LINE
  8
0
 62
7
  6
CONTINUOUS
 10
152.1753043074
 20
32.1101932727
 11
151.8862417523
 21
32.1101932727
  0
LINE
  8
0
 62
7
  6
CONTINUOUS
 10
151.2130860697
 20
32.3970785186
 11
151.6256574183
 21
32.3970785186
  0
LINE
  8
0
 62
7
  6
CONTINUOUS
 10
152.852430332
 20
32.3970785186
 11
154.245872955
 21
32.3970785186
  0
LINE
  8
0
 62
7
  6
CONTINUOUS
 10
154.5737418074
 20
32.3970785186
 11
155.9671844304
 21
32.3970785186
  0
LINE
  8
0
 62
7
  6
CONTINUOUS
 10
157.852430332
 20
32.3970785186
 11
159.245872955
 21
32.3970785186
  0
LINE
  8
0
 62
7
  6
CONTINUOUS
 10
159.5737418074
 20
32.3970785186
 11
160.9671844304
 21
32.3970785186
  0
LINE
  8
0
 62
7
  6
CONTINUOUS
 10
157.6096790869
 20
31.5939741996
 11
157.4362415869
 21
31.5294468267
  0
LINE
  8
0
 62
7
  6
CONTINUOUS
 10
155.1815540869
 20
30.6260635193
 11
155.3549915869
 21
30.6905909007
  0
LINE
  8
0
 62
7
  6
CONTINUOUS
 10
160.615929528
 20
30.6260635193
 11
160.8471793074
 21
30.6905909007
  0
LINE
  8
0
 62
7
  6
CONTINUOUS
 10
160.615929528
 20
30.7873819712
 11
160.5003043074
 21
30.7551182848
  0
LINE
  8
0
 62
7
  6
CONTINUOUS
 10
159.575304528
 20
31.4649194539
 11
159.8065543074
 21
31.4971831403
  0
LINE
  8
0
 62
7
  6
CONTINUOUS
 10
157.6096790869
 20
31.4649194539
 11
157.840929528
 21
31.4971831403
  0
LINE
  8
0
 62
7
  6
CONTINUOUS
 10
154.5456166972
 20
31.1100188581
 11
154.7768668074
 21
31.1422825445
  0
LINE
  8
0
 62
7
  6
CONTINUOUS
 10
157.840929528
 20
31.626237886
 11
157.6096790869
 21
31.5939741996
  0
LINE
  8
0
 62
7
  6
CONTINUOUS
 10
154.4299918074
 20
31.4649194539
 11
154.6612419177
 21
31.4971831403
  0
LINE
  8
0
 62
7
  6
CONTINUOUS
 10
159.8065543074
 20
31.626237886
 11
159.4596793074
 21
31.5939741996
  0
LINE
  8
0
 62
7
  6
CONTINUOUS
 10
154.7768668074
 20
31.2713373354
 11
154.4299918074
 21
31.2390736489
  0
LINE
  8
0
 62
7
  6
CONTINUOUS
 10
150.5565542799
 20
31.626237886
 11
150.2096793212
 21
31.5939741996
  0
LINE
  8
0
 62
7
  6
CONTINUOUS
 10
154.6612419177
 20
31.626237886
 11
154.2565543074
 21
31.5939741996
  0
LINE
  8
0
 62
7
  6
CONTINUOUS
 10
152.0327582009
 20
33.5446195022
 11
151.3770204959
 21
33.5446195022
  0
LINE
  8
0
 62
7
  6
CONTINUOUS
 10
157.4362415869
 20
31.400392081
 11
157.6096790869
 21
31.4649194539
  0
LINE
  8
0
 62
7
  6
CONTINUOUS
 10
159.4596793074
 20
31.4326557675
 11
159.575304528
 21
31.4649194539
  0
LINE
  8
0
 62
7
  6
CONTINUOUS
 10
159.4596793074
 20
31.5939741996
 11
159.228429528
 21
31.5294468267
  0
LINE
  8
0
 62
7
  6
CONTINUOUS
 10
155.1815540869
 20
30.7873819712
 11
154.8924916972
 21
30.7228545871
  0
LINE
  8
0
 62
7
  6
CONTINUOUS
 10
152.4643666972
 20
31.4649194539
 11
152.6956168074
 21
31.4971831403
  0
LINE
  8
0
 62
7
  6
CONTINUOUS
 10
152.6956168074
 20
31.626237886
 11
152.4643666972
 21
31.5939741996
  0
LINE
  8
0
 62
7
  6
CONTINUOUS
 10
150.2674918074
 20
31.4649194539
 11
150.498741835
 21
31.4971831403
  0
LINE
  8
0
 62
7
  6
CONTINUOUS
 10
156.7868565615
 20
35.0200293383
 11
157.4425942664
 21
35.0200293383
  0
LINE
  8
0
 62
7
  6
CONTINUOUS
 10
154.4299918074
 20
31.0777551716
 11
154.5456166972
 21
31.1100188581
  0
LINE
  8
0
 62
7
  6
CONTINUOUS
 10
154.4299918074
 20
31.2390736489
 11
154.1987416972
 21
31.1745462761
  0
LINE
  8
0
 62
7
  6
CONTINUOUS
 10
154.3143669177
 20
31.4326557675
 11
154.4299918074
 21
31.4649194539
  0
LINE
  8
0
 62
7
  6
CONTINUOUS
 10
150.9612418074
 20
30.6260635193
 11
151.1924917523
 21
30.6905909007
  0
LINE
  8
0
 62
7
  6
CONTINUOUS
 10
154.2565543074
 20
31.5939741996
 11
154.1409294177
 21
31.5617105132
  0
LINE
  8
0
 62
7
  6
CONTINUOUS
 10
150.2096793212
 20
31.5939741996
 11
150.0362418212
 21
31.5617105132
  0
LINE
  8
0
 62
7
  6
CONTINUOUS
 10
160.9671844304
 20
36.1675703219
 11
159.5737418074
 21
36.1675703219
  0
LINE
  8
0
 62
7
  6
CONTINUOUS
 10
157.6065286927
 20
36.1675703219
 11
157.1939573441
 21
36.1675703219
  0
LINE
  8
0
 62
7
  6
CONTINUOUS
 10
155.9671844304
 20
36.1675703219
 11
154.5737418074
 21
36.1675703219
  0
LINE
  8
0
 62
7
  6
CONTINUOUS
 10
154.245872955
 20
36.1675703219
 11
152.852430332
 21
36.1675703219
  0
LINE
  8
0
 62
7
  6
CONTINUOUS
 10
150.9671844304
 20
36.1675703219
 11
149.5737418074
 21
36.1675703219
  0
LINE
  8
0
 62
7
  6
CONTINUOUS
 10
150.1518667936
 20
31.4326557675
 11
150.2674918074
 21
31.4649194539
  0
CIRCLE
  8
0
 62
7
  6
CONTINUOUS
 10
160.2704631189
 20
38.5036358957
 40
2.0901639344
  0
ARC
  8
0
 62
7
  6
CONTINUOUS
 10
151.2130860697
 20
34.0364227809
 40
1.6393442623
 50
180.0
 51
270.0
  0
ARC
  8
0
 62
7
  6
CONTINUOUS
 10
157.6065286927
 20
34.5282260596
 40
1.6393442623
 50
0.0
 51
90.0
  0
ARC
  8
0
 62
7
  6
CONTINUOUS
 10
151.6256574183
 20
33.8724883547
 40
1.4754098361
 50
270.0
 51
326.2510114041
  0
ARC
  8
0
 62
7
  6
CONTINUOUS
 10
157.1939573441
 20
34.6921604858
 40
1.4754098361
 50
90.0
 51
146.2510114041
  0
ARC
  8
0
 62
7
  6
CONTINUOUS
 10
152.0327582009
 20
34.3642916334
 40
0.8196721311
 50
270.0
 51
360.0
  0
ARC
  8
0
 62
7
  6
CONTINUOUS
 10
156.7868565615
 20
34.2003572071
 40
0.8196721311
 50
90.0
 51
180.0
  0
ARC
  8
0
 62
7
  6
CONTINUOUS
 10
151.3770204959
 20
33.9544555678
 40
0.4098360656
 50
180.0
 51
270.0
  0
ARC
  8
0
 62
7
  6
CONTINUOUS
 10
157.4425942664
 20
34.6101932727
 40
0.4098360656
 50
0.0
 51
90.0
  0
SOLID
  8
0
 62
7
  6
CONTINUOUS
 10
156.279992028
 20
31.9488752009
 11
156.279992028
 21
32.1101936845
 12
156.5690540869
 22
31.9488752009
 13
156.5690540869
 23
32.1101936845
  0
SOLID
  8
0
 62
7
  6
CONTINUOUS
 10
150.5565542799
 20
31.6262382337
 11
150.9612418074
 21
31.5939740028
 12
150.2096793212
 22
31.5939740028
 13
150.2096793212
 23
31.5939740028
  0
SOLID
  8
0
 62
7
  6
CONTINUOUS
 10
150.0362418212
 20
31.5617111435
 11
150.2096793212
 21
31.5939740028
 12
150.9612418074
 22
31.5939740028
 13
150.9612418074
 23
31.5939740028
  0
SOLID
  8
0
 62
7
  6
CONTINUOUS
 10
150.9612418074
 20
31.5939740028
 11
151.1924917523
 21
31.5294468402
 12
150.0362418212
 22
31.5617111435
 13
150.0362418212
 23
31.5617111435
  0
SOLID
  8
0
 62
7
  6
CONTINUOUS
 10
149.8628043005
 20
31.49718259
 11
150.0362418212
 21
31.5617111435
 12
151.1924917523
 22
31.5294468402
 13
151.1924917523
 23
31.5294468402
  0
SOLID
  8
0
 62
7
  6
CONTINUOUS
 10
149.8628043005
 20
31.49718259
 11
151.1924917523
 21
31.5294468402
 12
150.498741835
 22
31.49718259
 13
150.498741835
 23
31.49718259
  0
SOLID
  8
0
 62
7
  6
CONTINUOUS
 10
150.498741835
 20
31.49718259
 11
151.1924917523
 21
31.5294468402
 12
150.9034292799
 22
31.4649197501
 13
150.9034292799
 23
31.4649197501
  0
SOLID
  8
0
 62
7
  6
CONTINUOUS
 10
151.1924917523
 20
31.5294468402
 11
151.3659292523
 21
31.4326554468
 12
150.9034292799
 22
31.4649197501
 13
150.9034292799
 23
31.4649197501
  0
SOLID
  8
0
 62
7
  6
CONTINUOUS
 10
151.0768668626
 20
31.4003926599
 11
150.9034292799
 21
31.4649197501
 12
151.3659292523
 22
31.4326554468
 13
151.3659292523
 23
31.4326554468
  0
SOLID
  8
0
 62
7
  6
CONTINUOUS
 10
151.0768668626
 20
31.4003926599
 11
151.3659292523
 21
31.4326554468
 12
151.1346793074
 22
31.3036013776
 13
151.1346793074
 23
31.3036013776
  0
SOLID
  8
0
 62
7
  6
CONTINUOUS
 10
151.3659292523
 20
31.4326554468
 11
151.4237418626
 21
31.3036013776
 12
151.1346793074
 22
31.3036013776
 13
151.1346793074
 23
31.3036013776
  0
SOLID
  8
0
 62
7
  6
CONTINUOUS
 10
152.4643666972
 20
31.5939739754
 11
152.6956168074
 21
31.6262382787
 12
152.9268669177
 22
31.6262382787
 13
152.9268669177
 23
31.6262382787
  0
SOLID
  8
0
 62
7
  6
CONTINUOUS
 10
152.9268669177
 20
31.6262382787
 11
153.1003044177
 21
31.5939739754
 12
152.4643666972
 22
31.5939739754
 13
152.4643666972
 23
31.5939739754
  0
SOLID
  8
0
 62
7
  6
CONTINUOUS
 10
152.2909293626
 20
31.5294468852
 11
152.4643666972
 21
31.5939739754
 12
153.1003044177
 22
31.5939739754
 13
153.1003044177
 23
31.5939739754
  0
SOLID
  8
0
 62
7
  6
CONTINUOUS
 10
153.1003044177
 20
31.5939739754
 11
153.2737419177
 21
31.5294468852
 12
152.2909293626
 22
31.5294468852
 13
152.2909293626
 23
31.5294468852
  0
SOLID
  8
0
 62
7
  6
CONTINUOUS
 10
153.2737419177
 20
31.5294468852
 11
152.6956168074
 21
31.4971825369
 12
152.2909293626
 22
31.5294468852
 13
152.2909293626
 23
31.5294468852
  0
SOLID
  8
0
 62
7
  6
CONTINUOUS
 10
152.1753043074
 20
31.4649197951
 11
152.2909293626
 21
31.5294468852
 12
152.6956168074
 22
31.4971825369
 13
152.6956168074
 23
31.4971825369
  0
SOLID
  8
0
 62
7
  6
CONTINUOUS
 10
152.6956168074
 20
31.4971825369
 11
152.4643666972
 21
31.4649197951
 12
152.1753043074
 22
31.4649197951
 13
152.1753043074
 23
31.4649197951
  0
SOLID
  8
0
 62
7
  6
CONTINUOUS
 10
152.6956168074
 20
31.4971825369
 11
153.2737419177
 21
31.5294468852
 12
152.9268669177
 22
31.4649197951
 13
152.9268669177
 23
31.4649197951
  0
SOLID
  8
0
 62
7
  6
CONTINUOUS
 10
153.2737419177
 20
31.5294468852
 11
153.3893668074
 21
31.4649197951
 12
152.9268669177
 22
31.4649197951
 13
152.9268669177
 23
31.4649197951
  0
SOLID
  8
0
 62
7
  6
CONTINUOUS
 10
153.0424918074
 20
31.4326554468
 11
152.9268669177
 21
31.4649197951
 12
153.3893668074
 22
31.4649197951
 13
153.3893668074
 23
31.4649197951
  0
SOLID
  8
0
 62
7
  6
CONTINUOUS
 10
153.3893668074
 20
31.4649197951
 11
153.4471794177
 21
31.4003927049
 12
153.0424918074
 22
31.4326554468
 13
153.0424918074
 23
31.4326554468
  0
SOLID
  8
0
 62
7
  6
CONTINUOUS
 10
153.1581166972
 20
31.3681283566
 11
153.0424918074
 21
31.4326554468
 12
153.4471794177
 22
31.4003927049
 13
153.4471794177
 23
31.4003927049
  0
SOLID
  8
0
 62
7
  6
CONTINUOUS
 10
153.1581166972
 20
31.3681283566
 11
153.4471794177
 21
31.4003927049
 12
153.2159293074
 22
31.2390742213
 13
153.2159293074
 23
31.2390742213
  0
SOLID
  8
0
 62
7
  6
CONTINUOUS
 10
153.4471794177
 20
31.4003927049
 11
153.5049916972
 21
31.2390742213
 12
153.2159293074
 22
31.2390742213
 13
153.2159293074
 23
31.2390742213
  0
SOLID
  8
0
 62
7
  6
CONTINUOUS
 10
152.4643666972
 20
31.4649197951
 11
152.2909293626
 21
31.4003927049
 12
152.1753043074
 22
31.4649197951
 13
152.1753043074
 23
31.4649197951
  0
SOLID
  8
0
 62
7
  6
CONTINUOUS
 10
152.2909293626
 20
31.4003927049
 11
152.1753043074
 21
31.3358640533
 12
152.1753043074
 22
31.4649197951
 13
152.1753043074
 23
31.4649197951
  0
SOLID
  8
0
 62
7
  6
CONTINUOUS
 10
152.1753043074
 20
31.3358640533
 11
151.8862417523
 21
30.5938002869
 12
152.1753043074
 22
31.4649197951
 13
152.1753043074
 23
31.4649197951
  0
SOLID
  8
0
 62
7
  6
CONTINUOUS
 10
152.1753043074
 20
31.4649197951
 11
151.8862417523
 21
30.5938002869
 12
152.1753043074
 22
32.1101937295
 13
152.1753043074
 23
32.1101937295
  0
SOLID
  8
0
 62
7
  6
CONTINUOUS
 10
151.8862417523
 20
30.5938002869
 11
151.8862417523
 21
32.1101937295
 12
152.1753043074
 22
32.1101937295
 13
152.1753043074
 23
32.1101937295
  0
SOLID
  8
0
 62
7
  6
CONTINUOUS
 10
152.1753043074
 20
31.3358640533
 11
152.1753043074
 21
30.5938002869
 12
151.8862417523
 22
30.5938002869
 13
151.8862417523
 23
30.5938002869
  0
SOLID
  8
0
 62
7
  6
CONTINUOUS
 10
153.2159293074
 20
30.5938002869
 11
153.2159293074
 21
31.2390742213
 12
153.5049916972
 22
31.2390742213
 13
153.5049916972
 23
31.2390742213
  0
SOLID
  8
0
 62
7
  6
CONTINUOUS
 10
153.5049916972
 20
31.2390742213
 11
153.5049916972
 21
30.5938002869
 12
153.2159293074
 22
30.5938002869
 13
153.2159293074
 23
30.5938002869
  0
SOLID
  8
0
 62
7
  6
CONTINUOUS
 10
154.2565543074
 20
31.5939738288
 11
154.6612419177
 21
31.6262385959
 12
155.0081169177
 22
31.6262385959
 13
155.0081169177
 23
31.6262385959
  0
SOLID
  8
0
 62
7
  6
CONTINUOUS
 10
155.0081169177
 20
31.6262385959
 11
155.3549915869
 21
31.5939738288
 12
154.2565543074
 22
31.5939738288
 13
154.2565543074
 23
31.5939738288
  0
SOLID
  8
0
 62
7
  6
CONTINUOUS
 10
154.1409294177
 20
31.5617111435
 11
154.2565543074
 21
31.5939738288
 12
155.3549915869
 22
31.5939738288
 13
155.3549915869
 23
31.5939738288
  0
SOLID
  8
0
 62
7
  6
CONTINUOUS
 10
155.3549915869
 20
31.5939738288
 11
155.5284290869
 21
31.5294468402
 12
154.1409294177
 22
31.5617111435
 13
154.1409294177
 23
31.5617111435
  0
SOLID
  8
0
 62
7
  6
CONTINUOUS
 10
154.0253041972
 20
31.4971826249
 11
154.1409294177
 21
31.5617111435
 12
155.5284290869
 22
31.5294468402
 13
155.5284290869
 23
31.5294468402
  0
SOLID
  8
0
 62
7
  6
CONTINUOUS
 10
154.0253041972
 20
31.4971826249
 11
155.5284290869
 21
31.5294468402
 12
154.6612419177
 22
31.4971826249
 13
154.6612419177
 23
31.4971826249
  0
SOLID
  8
0
 62
7
  6
CONTINUOUS
 10
154.6612419177
 20
31.4971826249
 11
155.5284290869
 21
31.5294468402
 12
155.0081169177
 22
31.4971826249
 13
155.0081169177
 23
31.4971826249
  0
SOLID
  8
0
 62
7
  6
CONTINUOUS
 10
155.0081169177
 20
31.4971826249
 11
155.5284290869
 21
31.5294468402
 12
155.239367028
 22
31.4649194065
 13
155.239367028
 23
31.4649194065
  0
SOLID
  8
0
 62
7
  6
CONTINUOUS
 10
155.5284290869
 20
31.5294468402
 11
155.6440543074
 21
31.4649194065
 12
155.239367028
 22
31.4649194065
 13
155.239367028
 23
31.4649194065
  0
SOLID
  8
0
 62
7
  6
CONTINUOUS
 10
153.9674919177
 20
31.4326554138
 11
154.0253041972
 21
31.4971826249
 12
154.6612419177
 22
31.4971826249
 13
154.6612419177
 23
31.4971826249
  0
SOLID
  8
0
 62
7
  6
CONTINUOUS
 10
155.3549915869
 20
31.4326554138
 11
155.239367028
 21
31.4649194065
 12
155.6440543074
 22
31.4649194065
 13
155.6440543074
 23
31.4649194065
  0
SOLID
  8
0
 62
7
  6
CONTINUOUS
 10
155.3549915869
 20
31.4326554138
 11
155.6440543074
 21
31.4649194065
 12
155.412804528
 22
31.3681282026
 13
155.412804528
 23
31.3681282026
  0
SOLID
  8
0
 62
7
  6
CONTINUOUS
 10
155.6440543074
 20
31.4649194065
 11
155.7018665869
 21
31.3681282026
 12
155.412804528
 22
31.3681282026
 13
155.412804528
 23
31.3681282026
  0
SOLID
  8
0
 62
7
  6
CONTINUOUS
 10
155.412804528
 20
31.2713369632
 11
155.412804528
 21
31.3681282026
 12
155.7018665869
 22
31.3681282026
 13
155.7018665869
 23
31.3681282026
  0
SOLID
  8
0
 62
7
  6
CONTINUOUS
 10
155.412804528
 20
31.2713369632
 11
155.7018665869
 21
31.3681282026
 12
155.412804528
 22
31.1422827828
 13
155.412804528
 23
31.1422827828
  0
SOLID
  8
0
 62
7
  6
CONTINUOUS
 10
155.412804528
 20
31.1422827828
 11
155.7018665869
 21
31.3681282026
 12
155.412804528
 22
30.9487004259
 13
155.412804528
 23
30.9487004259
  0
SOLID
  8
0
 62
7
  6
CONTINUOUS
 10
155.7018665869
 20
31.3681282026
 11
155.7018665869
 21
30.8519086025
 12
155.412804528
 22
30.9487004259
 13
155.412804528
 23
30.9487004259
  0
SOLID
  8
0
 62
7
  6
CONTINUOUS
 10
157.6096790869
 20
31.5939736268
 11
157.840929528
 21
31.6262383465
 12
158.0721793074
 22
31.6262383465
 13
158.0721793074
 23
31.6262383465
  0
SOLID
  8
0
 62
7
  6
CONTINUOUS
 10
158.0721793074
 20
31.6262383465
 11
158.2456168074
 21
31.5939736268
 12
157.6096790869
 22
31.5939736268
 13
157.6096790869
 23
31.5939736268
  0
SOLID
  8
0
 62
7
  6
CONTINUOUS
 10
157.4362415869
 20
31.5294472848
 11
157.6096790869
 21
31.5939736268
 12
158.2456168074
 22
31.5939736268
 13
158.2456168074
 23
31.5939736268
  0
SOLID
  8
0
 62
7
  6
CONTINUOUS
 10
158.2456168074
 20
31.5939736268
 11
158.4190543074
 21
31.5294472848
 12
157.4362415869
 22
31.5294472848
 13
157.4362415869
 23
31.5294472848
  0
SOLID
  8
0
 62
7
  6
CONTINUOUS
 10
158.4190543074
 20
31.5294472848
 11
157.840929528
 21
31.4971825369
 12
157.4362415869
 22
31.5294472848
 13
157.4362415869
 23
31.5294472848
  0
SOLID
  8
0
 62
7
  6
CONTINUOUS
 10
157.320617028
 20
31.4649199103
 11
157.4362415869
 21
31.5294472848
 12
157.840929528
 22
31.4971825369
 13
157.840929528
 23
31.4971825369
  0
SOLID
  8
0
 62
7
  6
CONTINUOUS
 10
157.840929528
 20
31.4971825369
 11
157.6096790869
 21
31.4649199103
 12
157.320617028
 22
31.4649199103
 13
157.320617028
 23
31.4649199103
  0
SOLID
  8
0
 62
7
  6
CONTINUOUS
 10
157.840929528
 20
31.4971825369
 11
158.4190543074
 21
31.5294472848
 12
158.0721793074
 22
31.4649199103
 13
158.0721793074
 23
31.4649199103
  0
SOLID
  8
0
 62
7
  6
CONTINUOUS
 10
158.4190543074
 20
31.5294472848
 11
158.534679528
 21
31.4649199103
 12
158.0721793074
 22
31.4649199103
 13
158.0721793074
 23
31.4649199103
  0
SOLID
  8
0
 62
7
  6
CONTINUOUS
 10
158.187804528
 20
31.4326554468
 11
158.0721793074
 21
31.4649199103
 12
158.534679528
 22
31.4649199103
 13
158.534679528
 23
31.4649199103
  0
SOLID
  8
0
 62
7
  6
CONTINUOUS
 10
158.187804528
 20
31.4326554468
 11
158.534679528
 21
31.4649199103
 12
158.3034290869
 22
31.3681288486
 13
158.3034290869
 23
31.3681288486
  0
SOLID
  8
0
 62
7
  6
CONTINUOUS
 10
158.534679528
 20
31.4649199103
 11
158.5924918074
 21
31.3681288486
 12
158.3034290869
 22
31.3681288486
 13
158.3034290869
 23
31.3681288486
  0
SOLID
  8
0
 62
7
  6
CONTINUOUS
 10
158.361242028
 20
31.2068093799
 11
158.3034290869
 21
31.3681288486
 12
158.5924918074
 22
31.3681288486
 13
158.5924918074
 23
31.3681288486
  0
SOLID
  8
0
 62
7
  6
CONTINUOUS
 10
158.5924918074
 20
31.3681288486
 11
158.6503040869
 21
31.2068093799
 12
158.361242028
 22
31.2068093799
 13
158.361242028
 23
31.2068093799
  0
SOLID
  8
0
 62
7
  6
CONTINUOUS
 10
157.6096790869
 20
31.4649199103
 11
157.4362415869
 21
31.4003926599
 12
157.320617028
 22
31.4649199103
 13
157.320617028
 23
31.4649199103
  0
SOLID
  8
0
 62
7
  6
CONTINUOUS
 10
157.4362415869
 20
31.4003926599
 11
157.320617028
 21
31.3358640533
 12
157.320617028
 22
31.4649199103
 13
157.320617028
 23
31.4649199103
  0
SOLID
  8
0
 62
7
  6
CONTINUOUS
 10
157.320617028
 20
31.3358640533
 11
157.0315543074
 21
30.5938003547
 12
157.320617028
 22
31.4649199103
 13
157.320617028
 23
31.4649199103
  0
SOLID
  8
0
 62
7
  6
CONTINUOUS
 10
157.320617028
 20
31.4649199103
 11
157.0315543074
 21
30.5938003547
 12
157.320617028
 22
31.6262383465
 13
157.320617028
 23
31.6262383465
  0
SOLID
  8
0
 62
7
  6
CONTINUOUS
 10
157.0315543074
 20
30.5938003547
 11
157.0315543074
 21
31.6262383465
 12
157.320617028
 22
31.6262383465
 13
157.320617028
 23
31.6262383465
  0
SOLID
  8
0
 62
7
  6
CONTINUOUS
 10
157.320617028
 20
31.3358640533
 11
157.320617028
 21
30.5938003547
 12
157.0315543074
 22
30.5938003547
 13
157.0315543074
 23
30.5938003547
  0
SOLID
  8
0
 62
7
  6
CONTINUOUS
 10
158.361242028
 20
30.5938003547
 11
158.361242028
 21
31.2068093799
 12
158.6503040869
 22
31.2068093799
 13
158.6503040869
 23
31.2068093799
  0
SOLID
  8
0
 62
7
  6
CONTINUOUS
 10
158.6503040869
 20
31.2068093799
 11
158.6503040869
 21
30.5938003547
 12
158.361242028
 22
30.5938003547
 13
158.361242028
 23
30.5938003547
  0
SOLID
  8
0
 62
7
  6
CONTINUOUS
 10
159.4596793074
 20
31.5939739474
 11
159.8065543074
 21
31.6262381969
 12
160.1534293074
 22
31.6262381969
 13
160.1534293074
 23
31.6262381969
  0
SOLID
  8
0
 62
7
  6
CONTINUOUS
 10
160.1534293074
 20
31.6262381969
 11
160.5003043074
 21
31.5939739474
 12
159.4596793074
 22
31.5939739474
 13
159.4596793074
 23
31.5939739474
  0
SOLID
  8
0
 62
7
  6
CONTINUOUS
 10
159.228429528
 20
31.5294468402
 11
159.4596793074
 21
31.5939739474
 12
160.5003043074
 22
31.5939739474
 13
160.5003043074
 23
31.5939739474
  0
SOLID
  8
0
 62
7
  6
CONTINUOUS
 10
159.228429528
 20
31.5294468402
 11
160.5003043074
 21
31.5939739304
 12
160.6737418074
 22
31.5617111435
 13
160.6737418074
 23
31.5617111435
  0
SOLID
  8
0
 62
7
  6
CONTINUOUS
 10
159.228429528
 20
31.5294468402
 11
160.6737418074
 21
31.5617111435
 12
159.8065543074
 22
31.4971825592
 13
159.8065543074
 23
31.4971825592
  0
SOLID
  8
0
 62
7
  6
CONTINUOUS
 10
159.8065543074
 20
31.4971825592
 11
160.6737418074
 21
31.5617111435
 12
160.1534293074
 22
31.4971825592
 13
160.1534293074
 23
31.4971825592
  0
SOLID
  8
0
 62
7
  6
CONTINUOUS
 10
160.6737418074
 20
31.5617111435
 11
160.8471793074
 21
31.4971825592
 12
160.1534293074
 22
31.4971825592
 13
160.1534293074
 23
31.4971825592
  0
SOLID
  8
0
 62
7
  6
CONTINUOUS
 10
160.5003043074
 20
31.4649197501
 11
160.1534293074
 21
31.4971825592
 12
160.8471793074
 22
31.4971825592
 13
160.8471793074
 23
31.4971825592
  0
SOLID
  8
0
 62
7
  6
CONTINUOUS
 10
159.1128043074
 20
31.4326555427
 11
159.228429528
 21
31.5294468402
 12
159.8065543074
 22
31.4971825592
 13
159.8065543074
 23
31.4971825592
  0
SOLID
  8
0
 62
7
  6
CONTINUOUS
 10
160.5003043074
 20
31.4649197501
 11
160.8471793074
 21
31.4971825592
 12
160.615929528
 22
31.4326555427
 13
160.615929528
 23
31.4326555427
  0
SOLID
  8
0
 62
7
  6
CONTINUOUS
 10
160.615929528
 20
31.4326555427
 11
160.8471793074
 21
31.4971825592
 12
160.6737418074
 22
31.3681283005
 13
160.6737418074
 23
31.3681283005
  0
SOLID
  8
0
 62
7
  6
CONTINUOUS
 10
160.8471793074
 20
31.4971825592
 11
160.9628038663
 21
31.3681283005
 12
160.6737418074
 22
31.3681283005
 13
160.6737418074
 23
31.3681283005
  0
SOLID
  8
0
 62
7
  6
CONTINUOUS
 10
150.2674918074
 20
31.4649197501
 11
149.7471793074
 21
31.4326554237
 12
150.498741835
 22
31.4971824493
 13
150.498741835
 23
31.4971824493
  0
SOLID
  8
0
 62
7
  6
CONTINUOUS
 10
149.7471793074
 20
31.4326554237
 11
149.8628043005
 21
31.4971824493
 12
150.498741835
 22
31.4971824493
 13
150.498741835
 23
31.4971824493
  0
SOLID
  8
0
 62
7
  6
CONTINUOUS
 10
150.2674918074
 20
31.4649197501
 11
150.1518667936
 21
31.4326554237
 12
149.7471793074
 22
31.4326554237
 13
149.7471793074
 23
31.4326554237
  0
SOLID
  8
0
 62
7
  6
CONTINUOUS
 10
149.6315543091
 20
31.3036012664
 11
149.7471793074
 21
31.4326554237
 12
150.1518667936
 22
31.4326554237
 13
150.1518667936
 23
31.4326554237
  0
SOLID
  8
0
 62
7
  6
CONTINUOUS
 10
153.9674919177
 20
31.4326554237
 11
154.6612419177
 21
31.4971825369
 12
154.4299918074
 22
31.4649197501
 13
154.4299918074
 23
31.4649197501
  0
SOLID
  8
0
 62
7
  6
CONTINUOUS
 10
154.4299918074
 20
31.4649197501
 11
154.3143669177
 21
31.4326554237
 12
153.9674919177
 22
31.4326554237
 13
153.9674919177
 23
31.4326554237
  0
SOLID
  8
0
 62
7
  6
CONTINUOUS
 10
153.9674919177
 20
31.3681283335
 11
153.9674919177
 21
31.4326554237
 12
154.3143669177
 22
31.4326554237
 13
154.3143669177
 23
31.4326554237
  0
SOLID
  8
0
 62
7
  6
CONTINUOUS
 10
154.3143669177
 20
31.4326554237
 11
154.2565543074
 21
31.3681283335
 12
153.9674919177
 22
31.3681283335
 13
153.9674919177
 23
31.3681283335
  0
SOLID
  8
0
 62
7
  6
CONTINUOUS
 10
159.1128043074
 20
31.4326555528
 11
159.8065543074
 21
31.4971825369
 12
159.575304528
 22
31.4649197501
 13
159.575304528
 23
31.4649197501
  0
SOLID
  8
0
 62
7
  6
CONTINUOUS
 10
159.575304528
 20
31.4649197501
 11
159.4596793074
 21
31.4326555528
 12
159.1128043074
 22
31.4326555528
 13
159.1128043074
 23
31.4326555528
  0
SOLID
  8
0
 62
7
  6
CONTINUOUS
 10
159.1128043074
 20
31.3681284626
 11
159.1128043074
 21
31.4326555528
 12
159.4596793074
 22
31.4326555528
 13
159.4596793074
 23
31.4326555528
  0
SOLID
  8
0
 62
7
  6
CONTINUOUS
 10
159.4596793074
 20
31.4326555528
 11
159.401867028
 21
31.3681284626
 12
159.1128043074
 22
31.3681284626
 13
159.1128043074
 23
31.3681284626
  0
SOLID
  8
0
 62
7
  6
CONTINUOUS
 10
159.228429528
 20
31.2390741763
 11
159.1128043074
 21
31.3681284626
 12
159.401867028
 22
31.3681284626
 13
159.401867028
 23
31.3681284626
  0
SOLID
  8
0
 62
7
  6
CONTINUOUS
 10
149.6315543091
 20
31.3036012664
 11
150.1518667936
 21
31.4326554468
 12
149.9784292936
 22
31.3358640533
 13
149.9784292936
 23
31.3358640533
  0
SOLID
  8
0
 62
7
  6
CONTINUOUS
 10
149.9784292936
 20
31.3358640533
 11
149.9206168074
 21
31.2713369632
 12
149.6315543091
 22
31.3036012664
 13
149.6315543091
 23
31.3036012664
  0
SOLID
  8
0
 62
7
  6
CONTINUOUS
 10
149.5737418074
 20
31.1100184796
 11
149.6315543091
 21
31.3036012664
 12
149.9206168074
 22
31.2713369632
 13
149.9206168074
 23
31.2713369632
  0
SOLID
  8
0
 62
7
  6
CONTINUOUS
 10
154.4299918074
 20
31.2390741763
 11
154.7768668074
 21
31.271336924
 12
155.412804528
 22
31.271336924
 13
155.412804528
 23
31.271336924
  0
SOLID
  8
0
 62
7
  6
CONTINUOUS
 10
154.4299918074
 20
31.2390741763
 11
155.412804528
 21
31.271336924
 12
154.1987416972
 22
31.1745462761
 13
154.1987416972
 23
31.1745462761
  0
SOLID
  8
0
 62
7
  6
CONTINUOUS
 10
154.1987416972
 20
31.1745462761
 11
155.412804528
 21
31.271336924
 12
154.7768668074
 22
31.1422827436
 13
154.7768668074
 23
31.1422827436
  0
SOLID
  8
0
 62
7
  6
CONTINUOUS
 10
155.412804528
 20
31.271336924
 11
155.412804528
 21
31.1422827436
 12
154.7768668074
 22
31.1422827436
 13
154.7768668074
 23
31.1422827436
  0
SOLID
  8
0
 62
7
  6
CONTINUOUS
 10
159.228429528
 20
31.2390745501
 11
159.401867028
 21
31.3681283566
 12
159.4596793074
 22
31.3036012664
 13
159.4596793074
 23
31.3036012664
  0
SOLID
  8
0
 62
7
  6
CONTINUOUS
 10
159.4596793074
 20
31.3036012664
 11
159.6331168074
 21
31.2390745501
 12
159.228429528
 22
31.2390745501
 13
159.228429528
 23
31.2390745501
  0
SOLID
  8
0
 62
7
  6
CONTINUOUS
 10
159.4596793074
 20
31.1422827828
 11
159.228429528
 21
31.2390745501
 12
159.6331168074
 22
31.2390745501
 13
159.6331168074
 23
31.2390745501
  0
SOLID
  8
0
 62
7
  6
CONTINUOUS
 10
159.6331168074
 20
31.2390745501
 11
160.615929528
 21
31.0777556927
 12
159.4596793074
 22
31.1422827828
 13
159.4596793074
 23
31.1422827828
  0
SOLID
  8
0
 62
7
  6
CONTINUOUS
 10
160.442492028
 20
30.9809646623
 11
159.4596793074
 21
31.1422827828
 12
160.615929528
 22
31.0777556927
 13
160.615929528
 23
31.0777556927
  0
SOLID
  8
0
 62
7
  6
CONTINUOUS
 10
160.615929528
 20
31.0777556927
 11
160.8471793074
 21
30.9809646623
 12
160.442492028
 22
30.9809646623
 13
160.442492028
 23
30.9809646623
  0
SOLID
  8
0
 62
7
  6
CONTINUOUS
 10
160.615929528
 20
30.9164372091
 11
160.442492028
 21
30.9809646623
 12
160.8471793074
 22
30.9809646623
 13
160.8471793074
 23
30.9809646623
  0
SOLID
  8
0
 62
7
  6
CONTINUOUS
 10
160.615929528
 20
30.9164372091
 11
160.8471793074
 21
30.9809646623
 12
160.6737418074
 22
30.8519089441
 13
160.6737418074
 23
30.8519089441
  0
SOLID
  8
0
 62
7
  6
CONTINUOUS
 10
160.8471793074
 20
30.9809646623
 11
160.9628038663
 21
30.8519089441
 12
160.6737418074
 22
30.8519089441
 13
160.6737418074
 23
30.8519089441
  0
SOLID
  8
0
 62
7
  6
CONTINUOUS
 10
160.615929528
 20
30.7873818593
 11
160.6737418074
 21
30.8519089441
 12
160.9628038663
 22
30.8519089441
 13
160.9628038663
 23
30.8519089441
  0
SOLID
  8
0
 62
7
  6
CONTINUOUS
 10
160.9628038663
 20
30.8519089441
 11
160.9628038663
 21
30.7873818593
 12
160.615929528
 22
30.7873818593
 13
160.615929528
 23
30.7873818593
  0
SOLID
  8
0
 62
7
  6
CONTINUOUS
 10
160.5003043074
 20
30.7551187255
 11
160.615929528
 21
30.7873818593
 12
160.9628038663
 22
30.7873818593
 13
160.9628038663
 23
30.7873818593
  0
SOLID
  8
0
 62
7
  6
CONTINUOUS
 10
160.5003043074
 20
30.7551187255
 11
160.9628038663
 21
30.7873818593
 12
160.269054528
 22
30.7228547745
 13
160.269054528
 23
30.7228547745
  0
SOLID
  8
0
 62
7
  6
CONTINUOUS
 10
160.9628038663
 20
30.7873818593
 11
160.8471793074
 21
30.6905916353
 12
160.269054528
 22
30.7228547745
 13
160.269054528
 23
30.7228547745
  0
SOLID
  8
0
 62
7
  6
CONTINUOUS
 10
160.8471793074
 20
30.6905916353
 11
159.401867028
 21
30.658327332
 12
160.269054528
 22
30.7228547745
 13
160.269054528
 23
30.7228547745
  0
SOLID
  8
0
 62
7
  6
CONTINUOUS
 10
160.269054528
 20
30.7228547745
 11
159.401867028
 21
30.658327332
 12
159.922179528
 22
30.7228547745
 13
159.922179528
 23
30.7228547745
  0
SOLID
  8
0
 62
7
  6
CONTINUOUS
 10
159.401867028
 20
30.658327332
 11
159.228429528
 21
30.7228547745
 12
159.922179528
 22
30.7228547745
 13
159.922179528
 23
30.7228547745
  0
SOLID
  8
0
 62
7
  6
CONTINUOUS
 10
159.401867028
 20
30.658327332
 11
160.8471793074
 21
30.6905916353
 12
159.575304528
 22
30.6260629858
 13
159.575304528
 23
30.6260629858
  0
SOLID
  8
0
 62
7
  6
CONTINUOUS
 10
160.8471793074
 20
30.6905916353
 11
160.615929528
 21
30.6260629858
 12
159.575304528
 22
30.6260629858
 13
159.575304528
 23
30.6260629858
  0
SOLID
  8
0
 62
7
  6
CONTINUOUS
 10
159.922179528
 20
30.5938006049
 11
159.575304528
 21
30.6260629858
 12
160.615929528
 22
30.6260629858
 13
160.615929528
 23
30.6260629858
  0
SOLID
  8
0
 62
7
  6
CONTINUOUS
 10
160.615929528
 20
30.6260629858
 11
160.269054528
 21
30.5938006049
 12
159.922179528
 22
30.5938006049
 13
159.922179528
 23
30.5938006049
  0
SOLID
  8
0
 62
7
  6
CONTINUOUS
 10
149.5737418074
 20
31.1100184796
 11
149.9206168074
 21
31.2713369632
 12
149.8628043005
 22
31.1422827828
 13
149.8628043005
 23
31.1422827828
  0
SOLID
  8
0
 62
7
  6
CONTINUOUS
 10
149.8628043005
 20
31.1422827828
 11
149.8628043005
 21
31.0454914852
 12
149.5737418074
 22
31.1100184796
 13
149.5737418074
 23
31.1100184796
  0
SOLID
  8
0
 62
7
  6
CONTINUOUS
 10
149.6315543091
 20
30.9164372091
 11
149.5737418074
 21
31.1100184796
 12
149.8628043005
 22
31.0454914852
 13
149.8628043005
 23
31.0454914852
  0
SOLID
  8
0
 62
7
  6
CONTINUOUS
 10
149.8628043005
 20
31.0454914852
 11
149.9784292936
 21
30.8841729058
 12
149.6315543091
 22
30.9164372091
 13
149.6315543091
 23
30.9164372091
  0
SOLID
  8
0
 62
7
  6
CONTINUOUS
 10
149.7471793074
 20
30.7873813202
 11
149.6315543091
 21
30.9164372091
 12
149.9784292936
 22
30.8841729058
 13
149.9784292936
 23
30.8841729058
  0
SOLID
  8
0
 62
7
  6
CONTINUOUS
 10
149.9784292936
 20
30.8841729058
 11
150.1518667936
 21
30.7873813202
 12
149.7471793074
 22
30.7873813202
 13
149.7471793074
 23
30.7873813202
  0
SOLID
  8
0
 62
7
  6
CONTINUOUS
 10
149.8628043005
 20
30.7228547004
 11
149.7471793074
 21
30.7873813202
 12
150.1518667936
 22
30.7873813202
 13
150.1518667936
 23
30.7873813202
  0
SOLID
  8
0
 62
7
  6
CONTINUOUS
 10
150.1518667936
 20
30.7873813202
 11
150.498741835
 21
30.7228547004
 12
149.8628043005
 22
30.7228547004
 13
149.8628043005
 23
30.7228547004
  0
SOLID
  8
0
 62
7
  6
CONTINUOUS
 10
150.0362418212
 20
30.658327332
 11
149.8628043005
 21
30.7228547004
 12
150.498741835
 22
30.7228547004
 13
150.498741835
 23
30.7228547004
  0
SOLID
  8
0
 62
7
  6
CONTINUOUS
 10
154.0831168074
 20
31.1100184386
 11
154.1987416972
 21
31.1745462761
 12
154.7768668074
 22
31.1422827828
 13
154.7768668074
 23
31.1422827828
  0
SOLID
  8
0
 62
7
  6
CONTINUOUS
 10
154.7768668074
 20
31.1422827828
 11
154.5456166972
 21
31.1100184386
 12
154.0831168074
 22
31.1100184386
 13
154.0831168074
 23
31.1100184386
  0
SOLID
  8
0
 62
7
  6
CONTINUOUS
 10
153.9674919177
 20
30.9809642992
 11
154.0831168074
 21
31.1100184386
 12
154.5456166972
 22
31.1100184386
 13
154.5456166972
 23
31.1100184386
  0
SOLID
  8
0
 62
7
  6
CONTINUOUS
 10
154.3143669177
 20
31.0132277988
 11
153.9674919177
 21
30.9809642992
 12
154.4299918074
 22
31.0777556927
 13
154.4299918074
 23
31.0777556927
  0
SOLID
  8
0
 62
7
  6
CONTINUOUS
 10
153.9674919177
 20
30.9809642992
 11
154.5456166972
 21
31.1100184796
 12
154.4299918074
 22
31.0777556927
 13
154.4299918074
 23
31.0777556927
  0
SOLID
  8
0
 62
7
  6
CONTINUOUS
 10
154.3143669177
 20
31.0132277988
 11
154.2565543074
 21
30.9164372091
 12
153.9674919177
 22
30.9809642992
 13
153.9674919177
 23
30.9809642992
  0
SOLID
  8
0
 62
7
  6
CONTINUOUS
 10
153.9674919177
 20
30.8841729058
 11
153.9674919177
 21
30.9809642992
 12
154.2565543074
 22
30.9164372091
 13
154.2565543074
 23
30.9164372091
  0
SOLID
  8
0
 62
7
  6
CONTINUOUS
 10
154.2565543074
 20
30.9164372091
 11
154.2565543074
 21
30.8519086025
 12
153.9674919177
 22
30.8841729058
 13
153.9674919177
 23
30.8841729058
  0
SOLID
  8
0
 62
7
  6
CONTINUOUS
 10
154.0253041972
 20
30.7551187255
 11
153.9674919177
 21
30.8841729058
 12
154.2565543074
 22
30.8519086025
 13
154.2565543074
 23
30.8519086025
  0
SOLID
  8
0
 62
7
  6
CONTINUOUS
 10
155.412804528
 20
30.9487004259
 11
155.7018665869
 21
30.8519086025
 12
155.3549915869
 22
30.8841729058
 13
155.3549915869
 23
30.8841729058
  0
SOLID
  8
0
 62
7
  6
CONTINUOUS
 10
155.1815540869
 20
30.7873815123
 11
155.3549915869
 21
30.8841729058
 12
155.7018665869
 22
30.8519086025
 13
155.7018665869
 23
30.8519086025
  0
SOLID
  8
0
 62
7
  6
CONTINUOUS
 10
155.1815540869
 20
30.7873815123
 11
155.7018665869
 21
30.8519086025
 12
155.412804528
 22
30.7551187255
 13
155.412804528
 23
30.7551187255
  0
SOLID
  8
0
 62
7
  6
CONTINUOUS
 10
155.7018665869
 20
30.8519086025
 11
155.759679528
 21
30.6905916353
 12
155.412804528
 22
30.7551187255
 13
155.412804528
 23
30.7551187255
  0
SOLID
  8
0
 62
7
  6
CONTINUOUS
 10
155.4706168074
 20
30.658327332
 11
155.412804528
 21
30.7551187255
 12
155.759679528
 22
30.6905916353
 13
155.759679528
 23
30.6905916353
  0
SOLID
  8
0
 62
7
  6
CONTINUOUS
 10
155.4706168074
 20
30.658327332
 11
155.759679528
 21
30.6905916353
 12
155.5284290869
 22
30.5938002079
 13
155.5284290869
 23
30.5938002079
  0
SOLID
  8
0
 62
7
  6
CONTINUOUS
 10
155.759679528
 20
30.6905916353
 11
155.8174918074
 21
30.5938002079
 12
155.5284290869
 22
30.5938002079
 13
155.5284290869
 23
30.5938002079
  0
SOLID
  8
0
 62
7
  6
CONTINUOUS
 10
151.0768668626
 20
30.8196456577
 11
151.1346793074
 21
30.9164373395
 12
151.4237418626
 22
30.9164373395
 13
151.4237418626
 23
30.9164373395
  0
SOLID
  8
0
 62
7
  6
CONTINUOUS
 10
151.4237418626
 20
30.9164373395
 11
151.3659292523
 21
30.7873815123
 12
151.0768668626
 22
30.8196456577
 13
151.0768668626
 23
30.8196456577
  0
SOLID
  8
0
 62
7
  6
CONTINUOUS
 10
150.9034292799
 20
30.7551187255
 11
151.0768668626
 21
30.8196456577
 12
151.3659292523
 22
30.7873815123
 13
151.3659292523
 23
30.7873815123
  0
SOLID
  8
0
 62
7
  6
CONTINUOUS
 10
150.9034292799
 20
30.7551187255
 11
151.3659292523
 21
30.7873815123
 12
150.498741835
 22
30.7228544222
 13
150.498741835
 23
30.7228544222
  0
SOLID
  8
0
 62
7
  6
CONTINUOUS
 10
151.3659292523
 20
30.7873815123
 11
151.1924917523
 21
30.6905916353
 12
150.498741835
 22
30.7228544222
 13
150.498741835
 23
30.7228544222
  0
SOLID
  8
0
 62
7
  6
CONTINUOUS
 10
150.0362418212
 20
30.658327332
 11
150.498741835
 21
30.7228544222
 12
151.1924917523
 22
30.6905916353
 13
151.1924917523
 23
30.6905916353
  0
SOLID
  8
0
 62
7
  6
CONTINUOUS
 10
150.0362418212
 20
30.658327332
 11
151.1924917523
 21
30.6905916353
 12
150.2096793212
 22
30.6260631011
 13
150.2096793212
 23
30.6260631011
  0
SOLID
  8
0
 62
7
  6
CONTINUOUS
 10
151.1924917523
 20
30.6905916353
 11
150.9612418074
 21
30.6260631011
 12
150.2096793212
 22
30.6260631011
 13
150.2096793212
 23
30.6260631011
  0
SOLID
  8
0
 62
7
  6
CONTINUOUS
 10
150.5565542799
 20
30.5938002419
 11
150.2096793212
 21
30.6260631011
 12
150.9612418074
 22
30.6260631011
 13
150.9612418074
 23
30.6260631011
  0
SOLID
  8
0
 62
7
  6
CONTINUOUS
 10
154.0253041972
 20
30.7551187255
 11
154.2565543074
 21
30.8519086025
 12
154.3143669177
 22
30.7873815123
 13
154.3143669177
 23
30.7873815123
  0
SOLID
  8
0
 62
7
  6
CONTINUOUS
 10
154.3143669177
 20
30.7873815123
 11
154.5456166972
 21
30.7228544222
 12
154.0253041972
 22
30.7551187255
 13
154.0253041972
 23
30.7551187255
  0
SOLID
  8
0
 62
7
  6
CONTINUOUS
 10
154.1987416972
 20
30.658327332
 11
154.0253041972
 21
30.7551187255
 12
154.5456166972
 22
30.7228544222
 13
154.5456166972
 23
30.7228544222
  0
SOLID
  8
0
 62
7
  6
CONTINUOUS
 10
154.8924916972
 20
30.7228544637
 11
155.1815540869
 21
30.7873815123
 12
155.412804528
 22
30.7551187255
 13
155.412804528
 23
30.7551187255
  0
SOLID
  8
0
 62
7
  6
CONTINUOUS
 10
155.412804528
 20
30.7551187255
 11
155.3549915869
 21
30.6905916353
 12
154.8924916972
 22
30.7228544637
 13
154.8924916972
 23
30.7228544637
  0
SOLID
  8
0
 62
7
  6
CONTINUOUS
 10
155.3549915869
 20
30.6905916353
 11
154.1987416972
 21
30.658327332
 12
154.8924916972
 22
30.7228544637
 13
154.8924916972
 23
30.7228544637
  0
SOLID
  8
0
 62
7
  6
CONTINUOUS
 10
154.1987416972
 20
30.658327332
 11
154.5456166972
 21
30.7228544637
 12
154.8924916972
 22
30.7228544637
 13
154.8924916972
 23
30.7228544637
  0
SOLID
  8
0
 62
7
  6
CONTINUOUS
 10
154.1987416972
 20
30.658327332
 11
155.3549915869
 21
30.6905916353
 12
154.3143669177
 22
30.6260630541
 13
154.3143669177
 23
30.6260630541
  0
SOLID
  8
0
 62
7
  6
CONTINUOUS
 10
155.3549915869
 20
30.6905916353
 11
155.1815540869
 21
30.6260630541
 12
154.3143669177
 22
30.6260630541
 13
154.3143669177
 23
30.6260630541
  0
SOLID
  8
0
 62
7
  6
CONTINUOUS
 10
154.5456166972
 20
30.5938002188
 11
154.3143669177
 21
30.6260630541
 12
155.1815540869
 22
30.6260630541
 13
155.1815540869
 23
30.6260630541
  0
SOLID
  8
0
 62
7
  6
CONTINUOUS
 10
155.1815540869
 20
30.6260630541
 11
154.8924916972
 21
30.5938002188
 12
154.5456166972
 22
30.5938002188
 13
154.5456166972
 23
30.5938002188
  0
SOLID
  8
0
 62
7
  6
CONTINUOUS
 10
159.575304528
 20
30.7551187255
 11
159.228429528
 21
30.7228544637
 12
159.4596793074
 22
30.7873815123
 13
159.4596793074
 23
30.7873815123
  0
SOLID
  8
0
 62
7
  6
CONTINUOUS
 10
159.4596793074
 20
30.7873815123
 11
159.228429528
 21
30.7228544637
 12
159.401867028
 22
30.851908644
 13
159.401867028
 23
30.851908644
  0
SOLID
  8
0
 62
7
  6
CONTINUOUS
 10
159.228429528
 20
30.7228544637
 11
159.1128043074
 21
30.851908644
 12
159.401867028
 22
30.851908644
 13
159.401867028
 23
30.851908644
  0
SOLID
  8
0
 62
7
  6
CONTINUOUS
 10
159.575304528
 20
30.7551187255
 11
159.922179528
 21
30.7228544637
 12
159.228429528
 22
30.7228544637
 13
159.228429528
 23
30.7228544637
  0
SOLID
  8
0
 62
7
  6
CONTINUOUS
 10
156.279992028
 20
30.5938002419
 11
156.279992028
 21
31.6262382337
 12
156.5690540869
 22
30.5938002419
 13
156.5690540869
 23
31.6262382337
  0
ENDBLK
  8
0
  6
BYBLOCK
 62
0
  0
BLOCK
  8
0
 62
2
  6
CONTINUOUS
  2
SYMBOL_3_BL0
 70
64
 10
32.1213064866
 20
19.8534310916
  0
TEXT
  8
0
 62
7
  6
CONTINUOUS
 10
18.3860103289
 20
19.2268451992
  7
TEXTSTYLE_3
 40
2.7338706658
  1
Ammeraal Beltech
 41
1.0
 51
15.0
 72
0
  0
TEXT
  8
0
 62
7
  6
CONTINUOUS
 10
29.1868111546
 20
16.9533085264
  7
TEXTSTYLE_4
 40
1.0935482663
  1
Innovation & Service in Belting
 41
1.0
 72
0
  0
LINE
  8
0
 62
7
  6
CONTINUOUS
 10
12.3614696776
 20
19.9934385078
 11
13.1396216709
 21
23.6543558055
  0
LINE
  8
0
 62
7
  6
CONTINUOUS
 10
23.2347899607
 20
27.3177497171
 11
13.6274394139
 21
24.1961322958
  0
LINE
  8
0
 62
7
  6
CONTINUOUS
 10
12.5867530099
 20
19.3000877048
 11
20.093828271
 21
12.5406867788
  0
LINE
  8
0
 62
7
  6
CONTINUOUS
 10
12.8492874206
 20
20.5352149982
 11
23.6575567857
 21
24.0470345971
  0
LINE
  8
0
 62
7
  6
CONTINUOUS
 10
23.6533516486
 20
13.6972460334
 11
15.2078919798
 21
21.3015720751
  0
LINE
  8
0
 62
7
  6
CONTINUOUS
 10
24.1731743684
 20
26.4728246013
 11
23.1966148312
 21
21.8784731989
  0
LINE
  8
0
 62
7
  6
CONTINUOUS
 10
22.4968128835
 20
18.5861638851
 11
21.810364672
 21
15.3566789607
  0
LINE
  8
0
 62
7
  6
CONTINUOUS
 10
24.8542704669
 20
14.087448211
 11
25.8105020025
 21
18.5861638851
  0
LINE
  8
0
 62
7
  6
CONTINUOUS
 10
26.5103039502
 20
21.8784731989
 11
26.9545457526
 21
23.9684665583
  0
LINE
  8
0
 62
7
  6
CONTINUOUS
 10
20.8069293463
 20
12.3891124661
 11
24.3664527239
 21
13.5456717207
  0
LINE
  8
0
 62
7
  6
CONTINUOUS
 10
23.9478910361
 20
27.1661754044
 11
26.7292624203
 21
24.6618173613
  0
ARC
  8
0
 62
7
  6
CONTINUOUS
 10
13.8527227462
 20
23.5027814928
 40
0.7290321776
 50
108.0
 51
168.0
  0
ARC
  8
0
 62
7
  6
CONTINUOUS
 10
23.4600732931
 20
26.624398914
 40
0.7290321776
 50
348.0
 51
108.0
  0
ARC
  8
0
 62
7
  6
CONTINUOUS
 10
26.2414446773
 20
24.120040871
 40
0.7290321776
 50
348.0
 51
48.0
  0
ARC
  8
0
 62
7
  6
CONTINUOUS
 10
20.581646014
 20
13.0824632691
 40
0.7290321776
 50
228.0
 51
288.0
  0
ARC
  8
0
 62
7
  6
CONTINUOUS
 10
13.0745707529
 20
19.8418641951
 40
0.7290321776
 50
108.0
 51
228.0
  0
ARC
  8
0
 62
7
  6
CONTINUOUS
 10
24.1411693916
 20
14.2390225237
 40
0.7290321776
 50
228.0
 51
348.0
  0
ENDBLK
  8
0
  6
BYBLOCK
 62
0
  0
ENDSEC
  0
SECTION
  2
ENTITIES
  0
TEXT
  8
0
 62
5
  6
CONTINUOUS
 10
96.0
 20
25.636
  7
TEXTSTYLE_2
 40
2.8
  1
Scale :
 41
0.6
 51
0.000019
 72
0
  0
TEXT
  8
0
 62
5
  6
CONTINUOUS
 10
116.0
 20
25.636
  7
TEXTSTYLE_2
 40
2.8
  1
Belt type:
 41
0.6
 51
0.000019
 72
0
  0
INSERT
  8
0
 62
2
  6
CONTINUOUS
  2
SYMBOL_3_BL0
 10
32.1213064866
 20
19.8534310916
  0
INSERT
  8
0
 62
2
  6
CONTINUOUS
  2
SYMBOL_8_BL1
 10
173.5956734183
 20
35.5937998301
  0
LINE
  8
0
 62
2
  6
CONTINUOUS
 10
10.0
 20
30.0
 11
200.0
 21
30.0
  0
LINE
  8
0
 62
2
  6
CONTINUOUS
 10
10.0
 20
30.0
 11
10.0
 21
10.0
  0
LINE
  8
0
 62
2
  6
CONTINUOUS
 10
10.0
 20
10.0
 11
200.0
 21
10.0
  0
LINE
  8
0
 62
2
  6
CONTINUOUS
 10
95.0
 20
30.0
 11
95.0
 21
10.0
  0
LINE
  8
0
 62
2
  6
CONTINUOUS
 10
115.0
 20
30.0
 11
115.0
 21
10.0
  0
LINE
  8
0
 62
2
  6
CONTINUOUS
 10
200.0
 20
30.0
 11
200.0
 21
10.0
  0
TEXT
  8
0
 62
5
  6
CONTINUOUS
 10
13.0
 20
23.303
  7
TEXTSTYLE_5
 40
1.52
  1
                                                                     Ammeraal Beltech Modular A/S
 41
1.0
 72
0
  0
TEXT
  8
0
 62
5
  6
CONTINUOUS
 10
13.0
 20
20.595
  7
TEXTSTYLE_5
 40
1.5
  1
                                                                      Hjulmagervej 21,  7100 Vejle,  DK
 41
1.0
 72
0
  0
TEXT
  8
0
 62
5
  6
CONTINUOUS
 10
13.0
 20
17.881
  7
TEXTSTYLE_5
 40
1.495
  1
                                                                      tel: 
 41
1.0
 72
0
  0
TEXT
  8
0
 62
5
  6
CONTINUOUS
 10
57.9869465649
 20
17.881
  7
TEXTSTYLE_5
 40
1.51
  1
+45 75723100     fax: +45 75723348
 41
1.0
 72
0
  0
TEXT
  8
0
 62
5
  6
CONTINUOUS
 10
13.0
 20
15.177
  7
TEXTSTYLE_5
 40
1.5
  1
                                                                      admin@unichains.dk  www.unichains.com
 41
1.0
 72
0
  0
TEXT
  8
0
 62
5
  6
CONTINUOUS
 10
99.75
 20
13.75
  7
TEXTSTYLE_6
 40
5.0
  1
1:1
 41
0.7
 72
1
 11
105.0
 21
13.75
  0
TEXT
  8
0
 62
5
  6
CONTINUOUS
 10
118.0
 20
13.75
  7
TEXTSTYLE_7
 40
7.5
  1
Sprocket Z11 Idlers
 41
0.5763157895
 72
0
  0
LINE
  8
0
 62
7
  6
CONTINUOUS
 10
210.0
 20
0.0
 11
0.0
 21
0.0
  0
LINE
  8
0
 62
7
  6
CONTINUOUS
 10
10.0
 20
10.0
 11
200.0
 21
10.0
  0
LINE
  8
0
 62
7
  6
CONTINUOUS
 10
10.0
 20
30.0
 11
200.0
 21
30.0
  0
LINE
  8
0
 62
7
  6
CONTINUOUS
 10
0.0
 20
0.0
 11
0.0
 21
297.0
  0
LINE
  8
0
 62
7
  6
CONTINUOUS
 10
10.0
 20
10.0
 11
10.0
 21
287.0
  0
LINE
  8
0
 62
7
  6
CONTINUOUS
 10
200.0
 20
287.0
 11
200.0
 21
10.0
  0
LINE
  8
0
 62
7
  6
CONTINUOUS
 10
210.0
 20
0.0
 11
210.0
 21
297.0
  0
LINE
  8
0
 62
7
  6
CONTINUOUS
 10
10.0
 20
287.0
 11
200.0
 21
287.0
  0
LINE
  8
0
 62
7
  6
CONTINUOUS
 10
0.0
 20
297.0
 11
210.0
 21
297.0
  0
LINE
  8
0
 62
7
  6
CONTINUOUS
 10
71.5129874158
 20
247.2811945893
 11
71.289210449
 21
247.01989365
  0
LINE
  8
0
 62
7
  6
CONTINUOUS
 10
71.4849602246
 20
246.7413769709
 11
71.7087371915
 21
247.0026779102
  0
LINE
  8
0
 62
7
  6
CONTINUOUS
 10
69.7434362497
 20
245.9945328784
 11
69.4198312299
 21
245.7320619877
  0
LINE
  8
0
 62
7
  6
CONTINUOUS
 10
68.1254114514
 20
244.6821786688
 11
67.801806501
 21
244.4197078344
  0
LINE
  8
0
 62
7
  6
CONTINUOUS
 10
70.3384521795
 20
243.4088696563
 11
70.0795681821
 21
243.1988929587
  0
LINE
  8
0
 62
7
  6
CONTINUOUS
 10
71.7857018266
 20
247.4728663588
 11
71.5129874158
 21
247.2811945893
  0
LINE
  8
0
 62
7
  6
CONTINUOUS
 10
70.8993802842
 20
246.8499333135
 11
70.5584873683
 21
246.6103436701
  0
LINE
  8
0
 62
7
  6
CONTINUOUS
 10
83.563110149
 20
253.0020871586
 11
83.850877465
 21
253.1906199185
  0
LINE
  8
0
 62
7
  6
CONTINUOUS
 10
72.7978623976
 20
249.6731168563
 11
72.446674927
 21
249.448888537
  0
LINE
  8
0
 62
7
  6
CONTINUOUS
 10
72.6756741217
 20
249.0902288985
 11
73.0268615922
 21
249.3144572178
  0
LINE
  8
0
 62
7
  6
CONTINUOUS
 10
73.4848601099
 20
248.59713774
 11
73.1336726393
 21
248.3729094207
  0
LINE
  8
0
 62
7
  6
CONTINUOUS
 10
83.8193975952
 20
253.5396802046
 11
83.3739579035
 21
253.2971382994
  0
LINE
  8
0
 62
7
  6
CONTINUOUS
 10
80.0656435671
 20
253.4988698507
 11
77.3383106455
 21
252.2492078425
  0
LINE
  8
0
 62
7
  6
CONTINUOUS
 10
78.005574534
 20
251.9932580189
 11
80.2783519686
 21
253.0346430257
  0
LINE
  8
0
 62
7
  6
CONTINUOUS
 10
80.4361827021
 20
251.8899664226
 11
78.4664428367
 21
250.9874330148
  0
LINE
  8
0
 62
7
  6
CONTINUOUS
 10
78.6791512382
 20
250.5232061899
 11
80.6488911036
 21
251.4257395976
  0
LINE
  8
0
 62
7
  6
CONTINUOUS
 10
81.2692023632
 20
253.965224303
 11
80.8819533844
 21
253.8114400243
  0
LINE
  8
0
 62
7
  6
CONTINUOUS
 10
71.7087371915
 20
247.0026779102
 11
72.0303890461
 21
247.12472051
  0
LINE
  8
0
 62
7
  6
CONTINUOUS
 10
94.5599906162
 20
256.5766747246
 11
94.8846393532
 21
256.6905071772
  0
LINE
  8
0
 62
7
  6
CONTINUOUS
 10
84.9387121579
 20
252.8435603363
 11
83.2831458972
 21
252.2764621467
  0
LINE
  8
0
 62
7
  6
CONTINUOUS
 10
83.3146276101
 20
251.9274023659
 11
85.4432128024
 21
252.6565286096
  0
LINE
  8
0
 62
7
  6
CONTINUOUS
 10
85.6086882422
 20
252.173445503
 11
85.2145045962
 21
252.0384217125
  0
LINE
  8
0
 62
7
  6
CONTINUOUS
 10
94.8401374862
 20
257.1992025604
 11
94.4324718455
 21
257.0781075941
  0
LINE
  8
0
 62
7
  6
CONTINUOUS
 10
70.5437250065
 20
243.684944328
 11
70.3384521795
 21
243.4088696563
  0
LINE
  8
0
 62
7
  6
CONTINUOUS
 10
70.552896434
 20
243.1444775286
 11
70.7581692751
 21
243.420552183
  0
LINE
  8
0
 62
7
  6
CONTINUOUS
 10
83.4330170133
 20
252.8675641622
 11
83.563110149
 21
253.0020871586
  0
LINE
  8
0
 62
7
  6
CONTINUOUS
 10
94.3257757608
 20
256.3853222219
 11
94.5599906162
 21
256.5766747246
  0
LINE
  8
0
 62
7
  6
CONTINUOUS
 10
70.2940124366
 20
242.9345008311
 11
70.552896434
 21
243.1444775286
  0
LINE
  8
0
 62
7
  6
CONTINUOUS
 10
71.264827311
 20
243.7219133531
 11
71.5884323308
 21
243.9843842438
  0
LINE
  8
0
 62
7
  6
CONTINUOUS
 10
83.3739579035
 20
253.2971382994
 11
83.1650276777
 21
253.1356104212
  0
LINE
  8
0
 62
7
  6
CONTINUOUS
 10
72.1244857103
 20
244.3822100428
 11
72.4653786262
 21
244.6217996862
  0
LINE
  8
0
 62
7
  6
CONTINUOUS
 10
73.6925928895
 20
245.4843222378
 11
74.0334856103
 21
245.723911744
  0
LINE
  8
0
 62
7
  6
CONTINUOUS
 10
74.5992676135
 20
246.0774875335
 11
74.950455084
 21
246.3017158528
  0
LINE
  8
0
 62
7
  6
CONTINUOUS
 10
94.4324718455
 20
257.0781075941
 11
94.1152419865
 21
256.8794927439
  0
LINE
  8
0
 62
7
  6
CONTINUOUS
 10
85.0370560639
 20
251.5278341098
 11
84.5127792919
 21
251.2582872947
  0
LINE
  8
0
 62
7
  6
CONTINUOUS
 10
84.7019333515
 20
250.9632367438
 11
85.2262083264
 21
251.2327829197
  0
LINE
  8
0
 62
7
  6
CONTINUOUS
 10
69.9815174219
 20
242.790622203
 11
70.2940124366
 21
242.9345008311
  0
LINE
  8
0
 62
7
  6
CONTINUOUS
 10
79.0045266564
 20
248.612763947
 11
79.4590821433
 21
248.8210409484
  0
LINE
  8
0
 62
7
  6
CONTINUOUS
 10
82.3582813339
 20
250.0938526634
 11
82.7455303128
 21
250.2476369422
  0
LINE
  8
0
 62
7
  6
CONTINUOUS
 10
96.1330118799
 20
253.8950490897
 11
95.8083631429
 21
253.7812166371
  0
LINE
  8
0
 62
7
  6
CONTINUOUS
 10
95.8528650151
 20
253.2725211945
 11
96.260528755
 21
253.393616002
  0
LINE
  8
0
 62
7
  6
CONTINUOUS
 10
72.0391749811
 20
247.5469909476
 11
71.7857018266
 21
247.4728663588
  0
LINE
  8
0
 62
7
  6
CONTINUOUS
 10
127.0822421438
 20
172.1355906622
 11
127.1599482872
 21
172.1576309593
  0
LINE
  8
0
 62
7
  6
CONTINUOUS
 10
127.2179450577
 20
172.2991264992
 11
127.1402391996
 21
172.2770864875
  0
LINE
  8
0
 62
7
  6
CONTINUOUS
 10
70.6306658635
 20
243.9746228846
 11
70.5437250065
 21
243.684944328
  0
LINE
  8
0
 62
7
  6
CONTINUOUS
 10
71.289210449
 20
247.01989365
 11
71.1825498213
 21
246.736881689
  0
LINE
  8
0
 62
7
  6
CONTINUOUS
 10
71.3782995969
 20
246.4583650099
 11
71.4849602246
 21
246.7413769709
  0
LINE
  8
0
 62
7
  6
CONTINUOUS
 10
70.7581692751
 20
243.420552183
 11
70.8340002565
 21
243.5916386012
  0
LINE
  8
0
 62
7
  6
CONTINUOUS
 10
83.1650276777
 20
253.1356104212
 11
82.9836766918
 21
252.8935686919
  0
LINE
  8
0
 62
7
  6
CONTINUOUS
 10
85.2184070498
 20
251.7698758391
 11
85.0370560639
 21
251.5278341098
  0
LINE
  8
0
 62
7
  6
CONTINUOUS
 10
85.2262083264
 20
251.2327829197
 11
85.4863963951
 21
251.5018295519
  0
LINE
  8
0
 62
7
  6
CONTINUOUS
 10
96.3672267301
 20
254.0864016518
 11
96.1330118799
 21
253.8950490897
  0
LINE
  8
0
 62
7
  6
CONTINUOUS
 10
96.260528755
 20
253.393616002
 11
96.5777605122
 21
253.5922310407
  0
LINE
  8
0
 62
7
  6
CONTINUOUS
 10
128.3290703679
 20
173.3824188863
 11
128.4067765114
 21
173.4044591834
  0
LINE
  8
0
 62
7
  6
CONTINUOUS
 10
129.3015963085
 20
174.3549448269
 11
129.3793023093
 21
174.3769849814
  0
LINE
  8
0
 62
7
  6
CONTINUOUS
 10
129.4372992224
 20
174.518480664
 11
129.3595932217
 21
174.4964405096
  0
LINE
  8
0
 62
7
  6
CONTINUOUS
 10
128.7211319835
 20
174.3868048703
 11
128.6045729037
 21
174.3537445746
  0
LINE
  8
0
 62
7
  6
CONTINUOUS
 10
130.160459561
 20
175.2416410026
 11
130.2770186335
 21
175.2747013056
  0
LINE
  8
0
 62
7
  6
CONTINUOUS
 10
130.4057980964
 20
176.04363806
 11
130.5223571786
 21
176.0766983532
  0
LINE
  8
0
 62
7
  6
CONTINUOUS
 10
130.5803540285
 20
176.2181939921
 11
130.5026479783
 21
176.1961537979
  0
LINE
  8
0
 62
7
  6
CONTINUOUS
 10
70.8340002565
 20
243.5916386012
 11
70.8673299338
 21
243.9474151436
  0
LINE
  8
0
 62
7
  6
CONTINUOUS
 10
71.1825498213
 20
246.736881689
 11
71.1440675037
 21
246.5017874647
  0
LINE
  8
0
 62
7
  6
CONTINUOUS
 10
71.3398172793
 20
246.2232707856
 11
71.3782995969
 21
246.4583650099
  0
LINE
  8
0
 62
7
  6
CONTINUOUS
 10
82.9836766918
 20
252.8935686919
 11
82.8811609916
 21
252.6785312263
  0
LINE
  8
0
 62
7
  6
CONTINUOUS
 10
83.2792452674
 20
252.5450085818
 11
83.4330170133
 21
252.8675641622
  0
LINE
  8
0
 62
7
  6
CONTINUOUS
 10
85.4863963951
 20
251.5018295519
 11
85.6401681313
 21
251.8243851604
  0
LINE
  8
0
 62
7
  6
CONTINUOUS
 10
87.3071948902
 20
253.176595992
 11
86.5229286658
 21
251.5640611292
  0
LINE
  8
0
 62
7
  6
CONTINUOUS
 10
87.7909332699
 20
253.3030759506
 11
88.5752013397
 21
254.915611296
  0
LINE
  8
0
 62
7
  6
CONTINUOUS
 10
94.1152419865
 20
256.8794927439
 11
93.812844183
 21
256.5113125997
  0
LINE
  8
0
 62
7
  6
CONTINUOUS
 10
96.5777605122
 20
253.5922310407
 11
96.8801583131
 21
253.9604112146
  0
LINE
  8
0
 62
40
  6
CONTINUOUS
 10
64.5117436761
 20
217.0897051573
 11
89.8584622387
 21
242.43642372
  0
LINE
  8
0
 62
7
  6
CONTINUOUS
 10
115.0163998635
 20
254.9596451925
 11
114.3564656826
 21
254.5480646815
  0
LINE
  8
0
 62
7
  6
CONTINUOUS
 10
114.1455826024
 20
253.9006956123
 11
114.8055168572
 21
254.31227635
  0
LINE
  8
0
 62
7
  6
CONTINUOUS
 10
110.0566901322
 20
252.7371682453
 11
113.5247939089
 21
254.8283513196
  0
LINE
  8
0
 62
7
  6
CONTINUOUS
 10
113.164082119
 20
255.0975567323
 11
109.6153057548
 21
253.0272582489
  0
LINE
  8
0
 62
7
  6
CONTINUOUS
 10
116.7283620591
 20
254.3674543653
 11
116.0539519415
 21
253.9800493661
  0
LINE
  8
0
 62
7
  6
CONTINUOUS
 10
115.8197570303
 20
253.3407441739
 11
116.49416723
 21
253.7281493969
  0
LINE
  8
0
 62
7
  6
CONTINUOUS
 10
122.7239322351
 20
249.9863428584
 11
122.3803282421
 21
249.8882401149
  0
LINE
  8
0
 62
7
  6
CONTINUOUS
 10
122.9622976242
 20
247.2059918913
 11
123.1913647504
 21
247.2713949921
  0
LINE
  8
0
 62
7
  6
CONTINUOUS
 10
125.993157416
 20
171.1300047039
 11
126.0986961973
 21
171.1242117925
  0
LINE
  8
0
 62
7
  6
CONTINUOUS
 10
126.1706094293
 20
171.2517908709
 11
126.1178400387
 21
171.2546873266
  0
LINE
  8
0
 62
7
  6
CONTINUOUS
 10
125.7704940014
 20
171.3526681186
 11
125.8760327924
 21
171.3468751974
  0
LINE
  8
0
 62
7
  6
CONTINUOUS
 10
125.9479460244
 20
171.4744542758
 11
125.895176624
 21
171.4773507412
  0
LINE
  8
0
 62
7
  6
CONTINUOUS
 10
126.6136749297
 20
171.8061880639
 11
126.6664443203
 21
171.8032916082
  0
LINE
  8
0
 62
7
  6
CONTINUOUS
 10
126.7911272283
 20
171.9279745162
 11
126.6855881617
 21
171.9337671423
  0
LINE
  8
0
 62
7
  6
CONTINUOUS
 10
126.391011515
 20
172.0288514786
 11
126.4437809057
 21
172.0259550229
  0
LINE
  8
0
 62
7
  6
CONTINUOUS
 10
126.5684638137
 20
172.1506379309
 11
126.4629247422
 21
172.1564305618
  0
LINE
  8
0
 62
7
  6
CONTINUOUS
 10
128.4398368143
 20
173.5210182559
 11
128.3870671383
 21
173.5239144263
  0
LINE
  8
0
 62
7
  6
CONTINUOUS
 10
128.0559684794
 20
173.8051401503
 11
128.0031990863
 21
173.8080366084
  0
LINE
  8
0
 62
7
  6
CONTINUOUS
 10
128.6103655371
 20
174.2482055007
 11
128.6631350704
 21
174.2453091876
  0
LINE
  8
0
 62
7
  6
CONTINUOUS
 10
129.2488267752
 20
174.35784114
 11
129.3015963085
 21
174.3549448269
  0
LINE
  8
0
 62
40
  6
CONTINUOUS
 10
64.5117436761
 20
197.747275149
 11
89.8584622387
 21
172.4005565863
  0
LINE
  8
0
 62
7
  6
CONTINUOUS
 10
88.0914629599
 20
254.7891313374
 11
87.4844785468
 21
253.4868514001
  0
LINE
  8
0
 62
7
  6
CONTINUOUS
 10
87.0066670455
 20
251.6905410878
 11
87.6136495831
 21
252.9928206579
  0
LINE
  8
0
 62
7
  6
CONTINUOUS
 10
94.1819948077
 20
256.1164494315
 11
94.3257757608
 21
256.3853222219
  0
LINE
  8
0
 62
40
  6
CONTINUOUS
 10
95.3973725604
 20
245.7125923419
 11
93.9831589981
 21
244.2983787795
  0
LINE
  8
0
 62
40
  6
CONTINUOUS
 10
61.2355750542
 20
211.5507948356
 11
62.6497886165
 21
212.965008398
  0
LINE
  8
0
 62
7
  6
CONTINUOUS
 10
122.5014612253
 20
249.4274482724
 11
122.7726543297
 21
249.5668006405
  0
LINE
  8
0
 62
7
  6
CONTINUOUS
 10
130.685893009
 20
176.2124012604
 11
130.5803540285
 21
176.2181939921
  0
LINE
  8
0
 62
7
  6
CONTINUOUS
 10
130.5223571786
 20
176.0766983532
 11
130.6418126088
 21
176.0569891674
  0
LINE
  8
0
 62
7
  6
CONTINUOUS
 10
127.0155562915
 20
172.1524035795
 11
127.0822421438
 21
172.1355906622
  0
LINE
  8
0
 62
7
  6
CONTINUOUS
 10
128.2623845157
 20
173.3992318036
 11
128.3290703679
 21
173.3824188863
  0
LINE
  8
0
 62
7
  6
CONTINUOUS
 10
127.8785161783
 20
173.6833537004
 11
127.9452020354
 21
173.6665407782
  0
LINE
  8
0
 62
7
  6
CONTINUOUS
 10
128.1226543389
 20
173.7883272257
 11
128.0559684794
 21
173.8051401503
  0
LINE
  8
0
 62
40
  6
CONTINUOUS
 10
93.9831589981
 20
170.5386015268
 11
95.3973725604
 21
169.1243879644
  0
LINE
  8
0
 62
40
  6
CONTINUOUS
 10
62.6497886165
 20
201.8719719083
 11
61.2355750542
 21
203.2861854707
  0
LINE
  8
0
 62
7
  6
CONTINUOUS
 10
70.5992746015
 20
244.2779053205
 11
70.6306658635
 21
243.9746228846
  0
LINE
  8
0
 62
7
  6
CONTINUOUS
 10
82.8811609916
 20
252.6785312263
 11
82.8338055757
 21
252.3024666765
  0
LINE
  8
0
 62
7
  6
CONTINUOUS
 10
83.2555666573
 20
252.3569759979
 11
83.2792452674
 21
252.5450085818
  0
LINE
  8
0
 62
7
  6
CONTINUOUS
 10
93.812844183
 20
256.5113125997
 11
93.676480187
 21
256.157657483
  0
LINE
  8
0
 62
7
  6
CONTINUOUS
 10
96.5110077039
 20
254.3552742046
 11
96.3672267301
 21
254.0864016518
  0
LINE
  8
0
 62
7
  6
CONTINUOUS
 10
122.3803282421
 20
249.8882401149
 11
122.2236686972
 21
249.7815892908
  0
LINE
  8
0
 62
7
  6
CONTINUOUS
 10
126.4146514529
 20
247.4540065484
 11
126.0823268696
 21
247.2717243044
  0
LINE
  8
0
 62
7
  6
CONTINUOUS
 10
126.37390762
 20
246.9621556488
 11
126.54007303
 21
247.0532945735
  0
LINE
  8
0
 62
7
  6
CONTINUOUS
 10
123.5586575816
 20
247.7477904068
 11
123.2874611332
 21
247.6084398751
  0
LINE
  8
0
 62
7
  6
CONTINUOUS
 10
131.0080464045
 20
243.7233034939
 11
131.1838965948
 21
243.7939714334
  0
LINE
  8
0
 62
7
  6
CONTINUOUS
 10
130.2712258648
 20
175.3802402295
 11
130.2045399412
 21
175.3970530755
  0
LINE
  8
0
 62
7
  6
CONTINUOUS
 10
128.8017343071
 20
174.3560754816
 11
128.7211319835
 21
174.3868048703
  0
LINE
  8
0
 62
7
  6
CONTINUOUS
 10
96.8801583131
 20
253.9604112146
 11
97.0165223039
 21
254.3140663907
  0
LINE
  8
0
 62
7
  6
CONTINUOUS
 10
122.3026723803
 20
249.2468500563
 11
122.5014612253
 21
249.4274482724
  0
LINE
  8
0
 62
7
  6
CONTINUOUS
 10
123.1913647504
 20
247.2713949921
 11
123.3480276247
 21
247.3780439539
  0
LINE
  8
0
 62
7
  6
CONTINUOUS
 10
131.4585320137
 20
241.4844609623
 11
131.2826818234
 21
241.4137930227
  0
LINE
  8
0
 62
7
  6
CONTINUOUS
 10
129.3595932217
 20
174.4964405096
 11
129.2789907652
 21
174.5271697458
  0
LINE
  8
0
 62
7
  6
CONTINUOUS
 10
130.0798571045
 20
175.2723702388
 11
130.160459561
 21
175.2416410026
  0
LINE
  8
0
 62
7
  6
CONTINUOUS
 10
126.9210375162
 20
172.19704942
 11
127.0155562915
 21
172.1524035795
  0
LINE
  8
0
 62
7
  6
CONTINUOUS
 10
127.1402391996
 20
172.2770864875
 11
127.0457201388
 21
172.3217320426
  0
LINE
  8
0
 62
7
  6
CONTINUOUS
 10
127.9452020354
 20
173.6665407782
 11
128.039721101
 21
173.6218952183
  0
LINE
  8
0
 62
7
  6
CONTINUOUS
 10
129.1543079998
 20
174.4024869804
 11
129.2488267752
 21
174.35784114
  0
LINE
  8
0
 62
7
  6
CONTINUOUS
 10
85.6401681313
 20
251.8243851604
 11
85.6086882422
 21
252.173445503
  0
LINE
  8
0
 62
7
  6
CONTINUOUS
 10
85.2145045962
 20
252.0384217125
 11
85.2184070498
 21
251.7698758391
  0
LINE
  8
0
 62
7
  6
CONTINUOUS
 10
93.676480187
 20
256.157657483
 11
93.6305481932
 21
255.7264819124
  0
LINE
  8
0
 62
7
  6
CONTINUOUS
 10
94.1286458153
 20
255.7700566623
 11
94.1819948077
 21
256.1164494315
  0
LINE
  8
0
 62
7
  6
CONTINUOUS
 10
96.5643566964
 20
254.7016669738
 11
96.5110077039
 21
254.3552742046
  0
LINE
  8
0
 62
7
  6
CONTINUOUS
 10
122.2236686972
 20
249.7815892908
 11
121.9827571813
 21
249.5270399062
  0
LINE
  8
0
 62
7
  6
CONTINUOUS
 10
127.3416111729
 20
244.7186015551
 11
127.6058160128
 21
244.948883102
  0
LINE
  8
0
 62
7
  6
CONTINUOUS
 10
127.2652108871
 20
245.1888837668
 11
127.0500273042
 21
245.028172408
  0
LINE
  8
0
 62
7
  6
CONTINUOUS
 10
139.4403259956
 20
236.0000657027
 11
139.0402380252
 21
235.8328770232
  0
LINE
  8
0
 62
7
  6
CONTINUOUS
 10
138.3315732484
 20
237.0456506615
 11
138.0800217996
 21
236.9515518349
  0
LINE
  8
0
 62
7
  6
CONTINUOUS
 10
138.3253418122
 20
236.5076360928
 11
138.5768932611
 21
236.6017349194
  0
LINE
  8
0
 62
7
  6
CONTINUOUS
 10
139.3180927131
 20
235.4171887116
 11
139.6474250365
 21
235.5370828493
  0
LINE
  8
0
 62
7
  6
CONTINUOUS
 10
139.5534175045
 20
232.7678916036
 11
139.2240851811
 21
232.6479974659
  0
LINE
  8
0
 62
7
  6
CONTINUOUS
 10
130.7943283419
 20
176.1538390542
 11
130.685893009
 21
176.2124012604
  0
LINE
  8
0
 62
7
  6
CONTINUOUS
 10
97.0165223039
 20
254.3140663907
 11
97.0624543185
 21
254.7452417238
  0
LINE
  8
0
 62
7
  6
CONTINUOUS
 10
126.0823268696
 20
247.2717243044
 11
125.7200763631
 21
246.90230453
  0
LINE
  8
0
 62
7
  6
CONTINUOUS
 10
139.4311844202
 20
232.185014745
 11
139.8312721924
 21
232.352203292
  0
LINE
  8
0
 62
7
  6
CONTINUOUS
 10
126.435090267
 20
170.6842928705
 11
128.0614358638
 21
169.0579472738
  0
LINE
  8
0
 62
7
  6
CONTINUOUS
 10
125.7426610782
 20
171.3805010417
 11
125.7704940014
 21
171.3526681186
  0
LINE
  8
0
 62
7
  6
CONTINUOUS
 10
128.6624766278
 20
169.6589880378
 11
127.036131031
 21
171.2853336345
  0
LINE
  8
0
 62
7
  6
CONTINUOUS
 10
127.1775523873
 20
171.4267549908
 11
128.0967912028
 21
170.5075161752
  0
LINE
  8
0
 62
7
  6
CONTINUOUS
 10
126.8189601515
 20
171.9001415931
 11
126.7911272283
 21
171.9279745162
  0
LINE
  8
0
 62
7
  6
CONTINUOUS
 10
126.656624707
 20
172.4614622291
 11
126.9210375162
 21
172.19704942
  0
LINE
  8
0
 62
7
  6
CONTINUOUS
 10
127.0457201388
 20
172.3217320426
 11
126.7813073296
 21
172.5861448518
  0
LINE
  8
0
 62
7
  6
CONTINUOUS
 10
128.7331873059
 20
171.0732016002
 11
127.7785931513
 21
172.0277957548
  0
LINE
  8
0
 62
7
  6
CONTINUOUS
 10
127.2301654561
 20
173.0350029782
 11
127.5502441116
 21
172.7149243227
  0
LINE
  8
0
 62
7
  6
CONTINUOUS
 10
127.605909958
 20
172.6592584763
 11
127.6754922659
 21
172.5896761684
  0
LINE
  8
0
 62
7
  6
CONTINUOUS
 10
127.8001751739
 20
172.7143590764
 11
127.3548483641
 21
173.1596858862
  0
LINE
  8
0
 62
7
  6
CONTINUOUS
 10
82.8338055757
 20
252.3024666765
 11
82.9204439641
 21
251.7923785754
  0
LINE
  8
0
 62
7
  6
CONTINUOUS
 10
93.6305481932
 20
255.7264819124
 11
93.7418028709
 21
254.4547433356
  0
LINE
  8
0
 62
7
  6
CONTINUOUS
 10
94.2399004931
 20
254.4983180855
 11
94.1286458153
 21
255.7700566623
  0
LINE
  8
0
 62
7
  6
CONTINUOUS
 10
97.8478265472
 20
257.4179816895
 11
97.8490413265
 21
253.417981874
  0
LINE
  8
0
 62
7
  6
CONTINUOUS
 10
98.3490413035
 20
253.4181337214
 11
98.3479816023
 21
256.9074953235
  0
LINE
  8
DEFAULT_1
 62
2
  6
CENTER
 10
99.5296772429
 20
269.0547045952
 11
99.5296772429
 21
209.4185901532
  0
LINE
  8
0
 62
2
  6
CONTINUOUS
 10
99.5296772429
 20
208.2984901532
 11
99.5296772429
 21
206.5384901532
  0
LINE
  8
DEFAULT_1
 62
2
  6
CENTER
 10
99.5296772429
 20
146.5503282276
 11
99.5296772429
 21
205.4183901532
  0
LINE
  8
0
 62
7
  6
CONTINUOUS
 10
102.1815589749
 20
257.370642492
 11
101.8498218342
 21
253.3844224191
  0
LINE
  8
0
 62
7
  6
CONTINUOUS
 10
102.3904487654
 20
253.8518344335
 11
102.5033805594
 21
255.2088455385
  0
LINE
  8
0
 62
7
  6
CONTINUOUS
 10
102.5457299766
 20
255.7177246361
 11
102.6374870669
 21
256.8202962518
  0
LINE
  8
0
 62
7
  6
CONTINUOUS
 10
110.4471472672
 20
256.2404792966
 11
110.3405009329
 21
255.8285279321
  0
LINE
  8
0
 62
7
  6
CONTINUOUS
 10
109.6153057548
 20
253.0272582489
 11
109.4446716049
 21
252.3681360078
  0
LINE
  8
0
 62
7
  6
CONTINUOUS
 10
114.3564656826
 20
254.5480646815
 11
114.1455826024
 21
253.9006956123
  0
LINE
  8
0
 62
7
  6
CONTINUOUS
 10
114.8055168572
 20
254.31227635
 11
113.7774620538
 21
251.1563527894
  0
LINE
  8
0
 62
7
  6
CONTINUOUS
 10
114.2528736042
 20
251.0014855632
 11
115.4918114138
 21
254.8047779663
  0
LINE
  8
0
 62
7
  6
CONTINUOUS
 10
116.0539519415
 20
253.9800493661
 11
115.8197570303
 21
253.3407441739
  0
LINE
  8
0
 62
7
  6
CONTINUOUS
 10
116.49416723
 20
253.7281493969
 11
115.3524672738
 21
250.6115372283
  0
LINE
  8
0
 62
7
  6
CONTINUOUS
 10
115.821956916
 20
250.4395503802
 11
117.1978517013
 21
254.1954675171
  0
LINE
  8
0
 62
7
  6
CONTINUOUS
 10
121.9018900962
 20
252.1347801608
 11
120.0942717424
 21
248.566515052
  0
LINE
  8
0
 62
7
  6
CONTINUOUS
 10
120.540304881
 20
248.3405627577
 11
122.3479232348
 21
251.9088278666
  0
LINE
  8
0
 62
7
  6
CONTINUOUS
 10
121.9827571813
 20
249.5270399062
 11
121.6457492384
 21
248.9354455609
  0
LINE
  8
0
 62
7
  6
CONTINUOUS
 10
122.0499164084
 20
248.8031542714
 11
122.3026723803
 21
249.2468500563
  0
LINE
  8
0
 62
7
  6
CONTINUOUS
 10
126.1592019408
 20
249.7376562296
 11
124.0147707631
 21
246.3610581007
  0
LINE
  8
0
 62
7
  6
CONTINUOUS
 10
124.3665008083
 20
246.1376791713
 11
126.5109319859
 21
249.5142773003
  0
LINE
  8
0
 62
7
  6
CONTINUOUS
 10
125.9626389749
 20
246.5231634891
 11
126.0606814888
 21
246.6623038652
  0
LINE
  8
0
 62
7
  6
CONTINUOUS
 10
126.324886363
 20
246.8925854607
 11
126.37390762
 21
246.9621556488
  0
LINE
  8
0
 62
7
  6
CONTINUOUS
 10
129.3376938587
 20
245.967352087
 11
127.6388043217
 21
243.8388069009
  0
LINE
  8
0
 62
7
  6
CONTINUOUS
 10
127.9644586716
 20
243.5788872284
 11
129.0262646881
 21
244.9092280395
  0
LINE
  8
0
 62
7
  6
CONTINUOUS
 10
129.3448064484
 20
245.308330227
 11
129.6633482087
 21
245.7074324144
  0
LINE
  8
0
 62
7
  6
CONTINUOUS
 10
130.8124425454
 20
244.1286681456
 11
130.6985032527
 21
244.0022157184
  0
LINE
  8
0
 62
7
  6
CONTINUOUS
 10
137.6517245525
 20
239.8080910917
 11
134.5250388805
 21
237.3133292377
  0
LINE
  8
0
 62
7
  6
CONTINUOUS
 10
134.8368841122
 20
236.9224935286
 11
136.2339139004
 21
238.0371743729
  0
LINE
  8
0
 62
7
  6
CONTINUOUS
 10
136.6330652152
 20
238.3556545716
 11
137.6309436886
 21
239.1518552171
  0
LINE
  8
0
 62
7
  6
CONTINUOUS
 10
139.0402380252
 20
235.8328770232
 11
137.9789061932
 21
235.1234608171
  0
LINE
  8
0
 62
7
  6
CONTINUOUS
 10
138.2567608811
 20
234.7077725055
 11
139.3180927131
 21
235.4171887116
  0
LINE
  8
0
 62
7
  6
CONTINUOUS
 10
142.5777150598
 20
232.9305743509
 11
139.0578651249
 21
231.0304016125
  0
LINE
  8
0
 62
7
  6
CONTINUOUS
 10
139.2953867172
 20
230.5904203707
 11
142.0663324999
 21
232.0863010853
  0
LINE
  8
DEFAULT_1
 62
2
  6
CENTER
 10
162.1903719912
 20
207.4184901532
 11
101.5297772429
 21
207.4184901532
  0
LINE
  8
0
 62
2
  6
CONTINUOUS
 10
100.4096772429
 20
207.4184901532
 11
98.6496772429
 21
207.4184901532
  0
LINE
  8
DEFAULT_1
 62
2
  6
CENTER
 10
37.7363238512
 20
207.4184901532
 11
97.5295772429
 21
207.4184901532
  0
LINE
  8
0
 62
7
  6
CONTINUOUS
 10
127.5543409599
 20
173.359178482
 11
127.9996677697
 21
172.9138516722
  0
LINE
  8
0
 62
7
  6
CONTINUOUS
 10
128.1388324245
 20
172.7746870173
 11
128.2084147325
 21
172.7051047094
  0
LINE
  8
0
 62
7
  6
CONTINUOUS
 10
128.3330973551
 20
172.829787332
 11
128.2635150472
 21
172.89936964
  0
LINE
  8
0
 62
7
  6
CONTINUOUS
 10
128.1243503923
 20
173.0385342949
 11
127.6790235825
 21
173.4838611046
  0
LINE
  8
0
 62
7
  6
CONTINUOUS
 10
128.5917659497
 20
172.8409685532
 11
129.369583409
 21
172.0631510938
  0
LINE
  8
0
 62
7
  6
CONTINUOUS
 10
129.9352688339
 20
171.4974656689
 11
130.2181115464
 21
171.2146229564
  0
LINE
  8
0
 62
7
  6
CONTINUOUS
 10
128.039721101
 20
173.6218952183
 11
128.2623845157
 21
173.3992318036
  0
LINE
  8
0
 62
7
  6
CONTINUOUS
 10
128.3870671383
 20
173.5239144263
 11
128.3453177536
 21
173.565663811
  0
LINE
  8
0
 62
7
  6
CONTINUOUS
 10
128.2896518877
 20
173.6213296769
 11
128.2061531182
 21
173.7048284464
  0
LINE
  8
0
 62
7
  6
CONTINUOUS
 10
130.8191523104
 20
171.8156637204
 11
129.1928067137
 21
173.4420093172
  0
LINE
  8
0
 62
7
  6
CONTINUOUS
 10
128.6631350704
 20
174.2453091876
 11
128.6909680033
 21
174.2174762547
  0
LINE
  8
0
 62
7
  6
CONTINUOUS
 10
129.3342280699
 20
173.5834306734
 11
130.9605736666
 21
171.9570850767
  0
LINE
  8
0
 62
7
  6
CONTINUOUS
 10
129.0383141736
 20
174.1194956152
 11
129.0104812504
 21
174.1473285383
  0
LINE
  8
0
 62
7
  6
CONTINUOUS
 10
128.8434836919
 20
174.3143260969
 11
128.8017343071
 21
174.3560754816
  0
LINE
  8
0
 62
7
  6
CONTINUOUS
 10
128.8759787291
 20
174.6808162512
 11
129.1543079998
 21
174.4024869804
  0
LINE
  8
0
 62
7
  6
CONTINUOUS
 10
129.2789907652
 20
174.5271697458
 11
129.0006614944
 21
174.8054990165
  0
LINE
  8
0
 62
7
  6
CONTINUOUS
 10
131.5616144306
 20
172.5581258407
 11
130.7837969713
 21
173.3359433
  0
LINE
  8
0
 62
7
  6
CONTINUOUS
 10
130.2181115464
 20
173.9016287249
 11
129.9352688339
 21
174.1844714374
  0
LINE
  8
0
 62
7
  6
CONTINUOUS
 10
129.4495196209
 20
175.254357143
 11
129.7695982764
 21
174.9342784875
  0
LINE
  8
0
 62
7
  6
CONTINUOUS
 10
129.8252641227
 20
174.8786126411
 11
130.1035933935
 21
174.6002833704
  0
LINE
  8
0
 62
7
  6
CONTINUOUS
 10
130.2282762301
 20
174.7249662071
 11
129.5742024575
 21
175.3790399797
  0
LINE
  8
0
 62
7
  6
CONTINUOUS
 10
131.4201930744
 20
174.3258927936
 11
132.374787229
 21
173.371298639
  0
LINE
  8
0
 62
7
  6
CONTINUOUS
 10
130.6418126088
 20
176.0569891674
 11
130.6835619935
 21
176.0152397827
  0
LINE
  8
0
 62
7
  6
CONTINUOUS
 10
132.975827993
 20
173.972339403
 11
132.0565891775
 21
174.8915782186
  0
LINE
  8
0
 62
7
  6
CONTINUOUS
 10
67.801806501
 20
244.4197078344
 11
68.8740277548
 21
243.0977472195
  0
LINE
  8
0
 62
7
  6
CONTINUOUS
 10
69.1976327052
 20
243.3602180539
 11
68.1254114514
 21
244.6821786688
  0
LINE
  8
0
 62
7
  6
CONTINUOUS
 10
70.5584873683
 20
246.6103436701
 11
72.1244857103
 21
244.3822100428
  0
LINE
  8
0
 62
7
  6
CONTINUOUS
 10
72.4653786262
 20
244.6217996862
 11
71.3398172793
 21
246.2232707856
  0
LINE
  8
0
 62
7
  6
CONTINUOUS
 10
71.1440675037
 20
246.5017874647
 11
70.8993802842
 21
246.8499333135
  0
LINE
  8
0
 62
7
  6
CONTINUOUS
 10
72.446674927
 20
249.448888537
 11
72.6756741217
 21
249.0902288985
  0
LINE
  8
0
 62
7
  6
CONTINUOUS
 10
73.1336726393
 20
248.3729094207
 11
74.5992676135
 21
246.0774875335
  0
LINE
  8
0
 62
7
  6
CONTINUOUS
 10
74.950455084
 20
246.3017158528
 11
73.4848601099
 21
248.59713774
  0
LINE
  8
0
 62
7
  6
CONTINUOUS
 10
73.0268615922
 20
249.3144572178
 11
72.7978623976
 21
249.6731168563
  0
LINE
  8
0
 62
7
  6
CONTINUOUS
 10
77.3383106455
 20
252.2492078425
 11
79.0045266564
 21
248.612763947
  0
LINE
  8
0
 62
7
  6
CONTINUOUS
 10
79.4590821433
 20
248.8210409484
 11
78.6791512382
 21
250.5232061899
  0
LINE
  8
0
 62
7
  6
CONTINUOUS
 10
78.4664428367
 20
250.9874330148
 11
78.005574534
 21
251.9932580189
  0
LINE
  8
0
 62
7
  6
CONTINUOUS
 10
80.8819533844
 20
253.8114400243
 11
82.3582813339
 21
250.0938526634
  0
LINE
  8
0
 62
7
  6
CONTINUOUS
 10
82.7455303128
 20
250.2476369422
 11
81.2692023632
 21
253.965224303
  0
LINE
  8
0
 62
7
  6
CONTINUOUS
 10
83.36978609
 20
251.7663746637
 11
83.3146276101
 21
251.9274023659
  0
LINE
  8
0
 62
7
  6
CONTINUOUS
 10
83.2831458972
 20
252.2764621467
 11
83.2555666573
 21
252.3569759979
  0
LINE
  8
0
 62
7
  6
CONTINUOUS
 10
96.4531020186
 20
255.9734055507
 11
96.5643566964
 21
254.7016669738
  0
LINE
  8
0
 62
7
  6
CONTINUOUS
 10
97.0624543185
 20
254.7452417238
 11
96.9511996407
 21
256.0169803006
  0
LINE
  8
0
 62
7
  6
CONTINUOUS
 10
100.6811584783
 20
257.4188421579
 11
100.682192333
 21
254.0145869843
  0
LINE
  8
0
 62
7
  6
CONTINUOUS
 10
101.1823732346
 20
253.4189941897
 11
101.1811584552
 21
257.4189940053
  0
LINE
  8
0
 62
7
  6
CONTINUOUS
 10
104.662584366
 20
255.0291544819
 11
104.7049337832
 21
255.5380335794
  0
LINE
  8
0
 62
7
  6
CONTINUOUS
 10
104.8394868889
 20
253.1356195635
 11
104.881836311
 21
253.6444987205
  0
LINE
  8
0
 62
7
  6
CONTINUOUS
 10
105.1288746124
 20
256.6129605388
 11
105.1712240296
 21
257.1218396364
  0
LINE
  8
0
 62
7
  6
CONTINUOUS
 10
112.6716231146
 20
251.5327399412
 11
112.7995987308
 21
252.0270816365
  0
LINE
  8
0
 62
7
  6
CONTINUOUS
 10
113.5247939089
 20
254.8283513196
 11
113.6740987769
 21
255.40508323
  0
LINE
  8
0
 62
7
  6
CONTINUOUS
 10
125.075193236
 20
250.4099648052
 11
124.1905474229
 21
248.8570297135
  0
LINE
  8
0
 62
7
  6
CONTINUOUS
 10
123.9799174955
 20
248.4872833125
 11
123.5586575816
 21
247.7477904068
  0
LINE
  8
0
 62
7
  6
CONTINUOUS
 10
123.3480276247
 20
247.3780439539
 11
123.0952716823
 21
246.9343482208
  0
LINE
  8
0
 62
7
  6
CONTINUOUS
 10
123.4573128668
 20
246.7281076511
 11
125.4372344205
 21
250.2037242355
  0
LINE
  8
0
 62
7
  6
CONTINUOUS
 10
127.8534660391
 20
246.0237261208
 11
127.7554235252
 21
245.8845857447
  0
LINE
  8
0
 62
7
  6
CONTINUOUS
 10
127.8999435545
 20
245.3663042302
 11
128.0960286509
 21
245.6445850799
  0
LINE
  8
0
 62
7
  6
CONTINUOUS
 10
130.2446022257
 20
244.699052778
 11
130.5100536926
 21
245.0316379342
  0
LINE
  8
0
 62
7
  6
CONTINUOUS
 10
131.6541358728
 20
241.0790963105
 11
131.7680751655
 21
241.2055487378
  0
LINE
  8
0
 62
7
  6
CONTINUOUS
 10
138.5311490922
 20
237.2048909096
 11
138.3315732484
 21
237.0456506615
  0
LINE
  8
0
 62
7
  6
CONTINUOUS
 10
138.5768932611
 20
236.6017349194
 11
138.842994324
 21
236.8140552006
  0
LINE
  8
0
 62
7
  6
CONTINUOUS
 10
140.6147493365
 20
233.4773078097
 11
139.5534175045
 21
232.7678916036
  0
LINE
  8
0
 62
7
  6
CONTINUOUS
 10
139.8312721924
 20
232.352203292
 11
140.8926040244
 21
233.0616194981
  0
LINE
  8
0
 62
7
  6
CONTINUOUS
 10
143.4914620537
 20
229.4464136341
 11
140.720516271
 21
227.9505329195
  0
LINE
  8
0
 62
7
  6
CONTINUOUS
 10
140.9580378633
 20
227.5105516776
 11
144.4778877982
 21
229.4107244161
  0
LINE
  8
0
 62
7
  6
CONTINUOUS
 10
69.4198312299
 20
245.7320619877
 11
70.5992746015
 21
244.2779053205
  0
LINE
  8
0
 62
7
  6
CONTINUOUS
 10
71.1373238947
 20
244.2759840605
 11
69.7434362497
 21
245.9945328784
  0
LINE
  8
0
 62
7
  6
CONTINUOUS
 10
72.7627813182
 20
246.8072766582
 11
73.6925928895
 21
245.4843222378
  0
LINE
  8
0
 62
7
  6
CONTINUOUS
 10
74.0334856103
 20
245.723911744
 11
73.1036740391
 21
247.0468661645
  0
LINE
  8
0
 62
7
  6
CONTINUOUS
 10
80.6488911036
 20
251.4257395976
 11
80.4361827021
 21
251.8899664226
  0
LINE
  8
0
 62
7
  6
CONTINUOUS
 10
80.2783519686
 20
253.0346430257
 11
80.0656435671
 21
253.4988698507
  0
LINE
  8
0
 62
7
  6
CONTINUOUS
 10
84.8835536779
 20
253.0045880385
 11
84.9387121579
 21
252.8435603363
  0
LINE
  8
0
 62
7
  6
CONTINUOUS
 10
85.4432128024
 20
252.6565286096
 11
85.3328958039
 21
252.9785841268
  0
LINE
  8
0
 62
7
  6
CONTINUOUS
 10
121.6457492384
 20
248.9354455609
 11
121.549652841
 21
248.598400652
  0
LINE
  8
0
 62
7
  6
CONTINUOUS
 10
125.7200763631
 20
246.90230453
 11
125.4940717176
 21
246.4368819504
  0
LINE
  8
0
 62
7
  6
CONTINUOUS
 10
138.0200496135
 20
234.4493113686
 11
138.2567608811
 21
234.7077725055
  0
LINE
  8
0
 62
7
  6
CONTINUOUS
 10
137.9789061932
 20
235.1234608171
 11
137.6714394768
 21
234.8177052709
  0
LINE
  8
0
 62
7
  6
CONTINUOUS
 10
140.8926040244
 20
233.0616194981
 11
141.200070939
 21
233.3673751768
  0
LINE
  8
0
 62
7
  6
CONTINUOUS
 10
68.8740277548
 20
243.0977472195
 11
69.1531930217
 21
242.8858492384
  0
LINE
  8
0
 62
7
  6
CONTINUOUS
 10
72.4499153985
 20
247.1075044961
 11
72.7627813182
 21
246.8072766582
  0
LINE
  8
0
 62
7
  6
CONTINUOUS
 10
73.1036740391
 20
247.0468661645
 11
72.7908085095
 21
247.3470942765
  0
LINE
  8
0
 62
7
  6
CONTINUOUS
 10
82.9204439641
 20
251.7923785754
 11
83.164756494
 21
251.3363003505
  0
LINE
  8
0
 62
7
  6
CONTINUOUS
 10
94.3525853081
 20
254.1664503437
 11
94.2399004931
 21
254.4983180855
  0
LINE
  8
0
 62
7
  6
CONTINUOUS
 10
93.7418028709
 20
254.4547433356
 11
93.8619046638
 21
254.0380930299
  0
LINE
  8
0
 62
7
  6
CONTINUOUS
 10
96.9511996407
 20
256.0169803006
 11
96.8310978271
 21
256.4336308437
  0
LINE
  8
0
 62
7
  6
CONTINUOUS
 10
121.984104914
 20
248.3509104578
 11
122.0499164084
 21
248.8031542714
  0
LINE
  8
0
 62
7
  6
CONTINUOUS
 10
125.8836949819
 20
246.2664536709
 11
125.9626389749
 21
246.5231634891
  0
LINE
  8
0
 62
7
  6
CONTINUOUS
 10
128.0960286509
 20
245.6445850799
 11
128.2239939009
 21
245.9708650861
  0
LINE
  8
0
 62
7
  6
CONTINUOUS
 10
138.6787489582
 20
237.4292722817
 11
138.5311490922
 21
237.2048909096
  0
LINE
  8
0
 62
7
  6
CONTINUOUS
 10
142.0663324999
 20
232.0863010853
 11
139.8496061821
 21
229.5637929973
  0
LINE
  8
0
 62
7
  6
CONTINUOUS
 10
140.3824036227
 20
229.4726226853
 11
142.9339974482
 21
232.2706024882
  0
LINE
  8
0
 62
7
  6
CONTINUOUS
 10
140.8514606041
 20
233.7357689466
 11
140.6147493365
 21
233.4773078097
  0
LINE
  8
0
 62
7
  6
CONTINUOUS
 10
144.1216054098
 20
230.0706962788
 11
140.3824036227
 21
229.4726226853
  0
LINE
  8
0
 62
7
  6
CONTINUOUS
 10
140.1663004304
 20
228.9771535793
 11
143.4914620537
 21
229.4464136341
  0
LINE
  8
0
 62
7
  6
CONTINUOUS
 10
69.4231868814
 20
243.2144181499
 11
69.1976327052
 21
243.3602180539
  0
LINE
  8
0
 62
7
  6
CONTINUOUS
 10
72.7908085095
 20
247.3470942765
 11
72.5758174775
 21
247.5080637749
  0
LINE
  8
0
 62
7
  6
CONTINUOUS
 10
71.4164890885
 20
244.0640860393
 11
71.1373238947
 21
244.2759840605
  0
LINE
  8
0
 62
7
  6
CONTINUOUS
 10
83.5313590956
 20
251.551837374
 11
83.36978609
 21
251.7663746637
  0
LINE
  8
0
 62
7
  6
CONTINUOUS
 10
85.3328958039
 20
252.9785841268
 11
85.1437417539
 21
253.2736346495
  0
LINE
  8
0
 62
7
  6
CONTINUOUS
 10
130.8528905676
 20
176.0454037018
 11
130.7943283419
 21
176.1538390542
  0
LINE
  8
0
 62
7
  6
CONTINUOUS
 10
96.3404172036
 20
256.3052732924
 11
96.4531020186
 21
255.9734055507
  0
LINE
  8
0
 62
7
  6
CONTINUOUS
 10
121.549652841
 20
248.598400652
 11
121.537808444
 21
248.4092543553
  0
LINE
  8
0
 62
7
  6
CONTINUOUS
 10
125.4940717176
 20
246.4368819504
 11
125.4342262111
 21
246.0626026414
  0
LINE
  8
0
 62
7
  6
CONTINUOUS
 10
125.8537753641
 20
246.0793118435
 11
125.8836949819
 21
246.2664536709
  0
LINE
  8
0
 62
7
  6
CONTINUOUS
 10
129.7869887913
 20
242.9905961673
 11
129.6829263131
 21
242.6261274222
  0
LINE
  8
0
 62
7
  6
CONTINUOUS
 10
130.044503548
 20
242.5294470278
 11
130.0965319432
 21
242.7116839428
  0
LINE
  8
0
 62
7
  6
CONTINUOUS
 10
130.6985032527
 20
244.0022157184
 11
130.5944407944
 21
243.6377469954
  0
LINE
  8
0
 62
7
  6
CONTINUOUS
 10
130.9560180094
 20
243.5410665789
 11
131.0080464045
 21
243.7233034939
  0
LINE
  8
0
 62
7
  6
CONTINUOUS
 10
131.5105604487
 20
241.6666979216
 11
131.4585320137
 21
241.4844609623
  0
LINE
  8
0
 62
7
  6
CONTINUOUS
 10
137.6714394768
 20
234.8177052709
 11
137.4810344478
 21
234.4899669443
  0
LINE
  8
0
 62
7
  6
CONTINUOUS
 10
138.842994324
 20
236.8140552006
 11
138.9905941899
 21
237.0384365727
  0
LINE
  8
0
 62
7
  6
CONTINUOUS
 10
139.0555457591
 20
232.1343977308
 11
139.4311844202
 21
232.185014745
  0
LINE
  8
0
 62
7
  6
CONTINUOUS
 10
69.1531930217
 20
242.8858492384
 11
69.3251361331
 21
242.8061473559
  0
LINE
  8
0
 62
7
  6
CONTINUOUS
 10
71.5884323308
 20
243.9843842438
 11
71.4164890885
 21
244.0640860393
  0
LINE
  8
0
 62
7
  6
CONTINUOUS
 10
70.8673299338
 20
243.9474151436
 11
71.264827311
 21
243.7219133531
  0
LINE
  8
0
 62
7
  6
CONTINUOUS
 10
83.164756494
 20
251.3363003505
 11
83.432745849
 21
251.0682540351
  0
LINE
  8
0
 62
7
  6
CONTINUOUS
 10
83.6653546656
 20
251.4178145536
 11
83.5313590956
 21
251.551837374
  0
LINE
  8
0
 62
7
  6
CONTINUOUS
 10
93.8619046638
 20
254.0380930299
 11
94.0576044876
 21
253.7134875763
  0
LINE
  8
0
 62
7
  6
CONTINUOUS
 10
129.8821303
 20
175.5199702636
 11
129.912859546
 21
175.4393677974
  0
LINE
  8
0
 62
7
  6
CONTINUOUS
 10
130.6835619935
 20
176.0152397827
 11
130.7142912938
 21
175.9346373513
  0
LINE
  8
0
 62
7
  6
CONTINUOUS
 10
128.6909680033
 20
174.2174762547
 11
128.707780778
 21
174.1507902598
  0
LINE
  8
0
 62
7
  6
CONTINUOUS
 10
125.895176624
 20
171.4773507412
 11
125.8922801683
 21
171.5301201319
  0
LINE
  8
0
 62
7
  6
CONTINUOUS
 10
126.6664443203
 20
171.8032916082
 11
126.669340776
 21
171.7505222176
  0
LINE
  8
0
 62
7
  6
CONTINUOUS
 10
128.1197581637
 20
173.8410969065
 11
128.1226543389
 21
173.7883272257
  0
LINE
  8
0
 62
7
  6
CONTINUOUS
 10
124.1905474229
 20
248.8570297135
 11
124.2023885053
 21
249.0461778985
  0
LINE
  8
0
 62
7
  6
CONTINUOUS
 10
131.7680751655
 20
241.2055487378
 11
131.8721376637
 21
241.570017505
  0
LINE
  8
0
 62
7
  6
CONTINUOUS
 10
132.4220748702
 20
242.6783174283
 11
132.370046475
 21
242.4960805133
  0
LINE
  8
0
 62
7
  6
CONTINUOUS
 10
132.6795896269
 20
242.2171682888
 11
132.7836520851
 21
242.5816370118
  0
LINE
  8
0
 62
7
  6
CONTINUOUS
 10
137.900400083
 20
234.1688674844
 11
138.0200496135
 21
234.4493113686
  0
LINE
  8
0
 62
7
  6
CONTINUOUS
 10
141.200070939
 20
233.3673751768
 11
141.3904759184
 21
233.6951134703
  0
LINE
  8
0
 62
7
  6
CONTINUOUS
 10
131.3594107867
 20
241.0009815158
 11
131.6541358728
 21
241.0790963105
  0
LINE
  8
0
 62
7
  6
CONTINUOUS
 10
139.8159646071
 20
236.0506826838
 11
139.4403259956
 21
236.0000657027
  0
LINE
  8
0
 62
7
  6
CONTINUOUS
 10
139.2240851811
 20
232.6479974659
 11
138.9192020185
 21
232.6446748942
  0
LINE
  8
0
 62
7
  6
CONTINUOUS
 10
69.7134620944
 20
243.1211123741
 11
69.4231868814
 21
243.2144181499
  0
LINE
  8
0
 62
7
  6
CONTINUOUS
 10
94.5408681489
 20
253.9266275133
 11
94.3525853081
 21
254.1664503437
  0
LINE
  8
0
 62
7
  6
CONTINUOUS
 10
100.682192333
 20
254.0145869843
 11
98.5978265126
 21
257.4182094607
  0
LINE
  8
0
 62
7
  6
CONTINUOUS
 10
96.8310978271
 20
256.4336308437
 11
96.6353980084
 21
256.758236238
  0
LINE
  8
0
 62
7
  6
CONTINUOUS
 10
98.3479816023
 20
256.9074953235
 11
100.4323732692
 21
253.4187664186
  0
LINE
  8
0
 62
7
  6
CONTINUOUS
 10
130.0375423827
 20
175.564050634
 11
130.020729527
 21
175.6307365674
  0
LINE
  8
0
 62
7
  6
CONTINUOUS
 10
123.9614769894
 20
248.7916285139
 11
123.9799174955
 21
248.4872833125
  0
LINE
  8
0
 62
7
  6
CONTINUOUS
 10
128.2061531182
 20
173.7048284464
 11
128.2032569479
 21
173.7575981224
  0
LINE
  8
0
 62
7
  6
CONTINUOUS
 10
128.8492764606
 20
174.2087871729
 11
128.8434836919
 21
174.3143260969
  0
LINE
  8
0
 62
7
  6
CONTINUOUS
 10
128.8857984851
 20
174.022645773
 11
128.8886947981
 21
173.9698762397
  0
LINE
  8
0
 62
7
  6
CONTINUOUS
 10
129.0412106293
 20
174.0667262245
 11
129.0383141736
 21
174.1194956152
  0
LINE
  8
0
 62
7
  6
CONTINUOUS
 10
130.7142912938
 20
175.9346373513
 11
130.7171876604
 21
175.8818678715
  0
LINE
  8
0
 62
7
  6
CONTINUOUS
 10
130.8586832895
 20
175.9398647311
 11
130.8528905676
 21
176.0454037018
  0
LINE
  8
0
 62
7
  6
CONTINUOUS
 10
128.2239939009
 20
245.9708650861
 11
128.2157164769
 21
246.3931457977
  0
LINE
  8
0
 62
7
  6
CONTINUOUS
 10
127.8642902543
 20
246.328435193
 11
127.8534660391
 21
246.0237261208
  0
LINE
  8
0
 62
7
  6
CONTINUOUS
 10
125.7507846235
 20
171.4721233663
 11
125.7426610782
 21
171.3805010417
  0
LINE
  8
0
 62
7
  6
CONTINUOUS
 10
126.810836316
 20
171.808518988
 11
126.8189601515
 21
171.9001415931
  0
LINE
  8
0
 62
7
  6
CONTINUOUS
 10
137.4810344478
 20
234.4899669443
 11
137.3832504994
 21
234.023661635
  0
LINE
  8
0
 62
7
  6
CONTINUOUS
 10
138.9905941899
 20
237.0384365727
 11
139.1007724506
 21
237.4461745597
  0
LINE
  8
0
 62
7
  6
CONTINUOUS
 10
140.9711103328
 20
234.0162129633
 11
140.8514606041
 21
233.7357689466
  0
LINE
  8
0
 62
40
  6
CONTINUOUS
 10
137.8237794316
 20
203.2861854707
 11
136.4095658692
 21
201.8719719083
  0
LINE
  8
0
 62
40
  6
CONTINUOUS
 10
103.6619819253
 20
169.1243879644
 11
105.0761954877
 21
170.5386015268
  0
LINE
  8
0
 62
40
  6
CONTINUOUS
 10
109.200892247
 20
172.4005565863
 11
134.5476108097
 21
197.747275149
  0
LINE
  8
0
 62
7
  6
CONTINUOUS
 10
129.0262646881
 20
244.9092280395
 11
129.4340196642
 21
245.0193434091
  0
LINE
  8
0
 62
7
  6
CONTINUOUS
 10
131.1071676116
 20
244.2067829182
 11
130.8124425454
 21
244.1286681456
  0
LINE
  8
0
 62
7
  6
CONTINUOUS
 10
126.9901849332
 20
244.6538909261
 11
127.3416111729
 21
244.7186015551
  0
LINE
  8
0
 62
7
  6
CONTINUOUS
 10
137.9033183198
 20
236.4907338148
 11
138.3253418122
 21
236.5076360928
  0
LINE
  8
0
 62
7
  6
CONTINUOUS
 10
139.6474250365
 20
235.5370828493
 11
139.9523083973
 21
235.5404055535
  0
LINE
  8
0
 62
7
  6
CONTINUOUS
 10
69.3251361331
 20
242.8061473559
 11
69.680132292
 21
242.7653357494
  0
LINE
  8
0
 62
7
  6
CONTINUOUS
 10
138.587286067
 20
232.2223477323
 11
139.0555457591
 21
232.1343977308
  0
LINE
  8
0
 62
7
  6
CONTINUOUS
 10
83.432745849
 20
251.0682540351
 11
83.6455785187
 21
250.9612360681
  0
LINE
  8
0
 62
7
  6
CONTINUOUS
 10
85.8340165725
 20
254.1988913696
 11
87.3071948902
 21
253.176595992
  0
LINE
  8
0
 62
7
  6
CONTINUOUS
 10
89.2641134329
 20
252.2807810555
 11
87.7909332699
 21
253.3030759506
  0
LINE
  8
0
 62
7
  6
CONTINUOUS
 10
85.1437417539
 20
253.2736346495
 11
84.7969153282
 21
253.5146760268
  0
LINE
  8
0
 62
7
  6
CONTINUOUS
 10
87.6136495831
 20
252.9928206579
 11
88.7803750531
 21
252.1543010969
  0
LINE
  8
0
 62
7
  6
CONTINUOUS
 10
87.4844785468
 20
253.4868514001
 11
86.3177549523
 21
254.3253713282
  0
LINE
  8
0
 62
7
  6
CONTINUOUS
 10
84.6431435823
 20
253.1921204464
 11
84.8835536779
 21
253.0045880385
  0
LINE
  8
0
 62
7
  6
CONTINUOUS
 10
94.0576044876
 20
253.7134875763
 11
94.4193381163
 21
253.4034071798
  0
LINE
  8
0
 62
40
  6
CONTINUOUS
 10
136.4095658692
 20
212.965008398
 11
137.8237794316
 21
211.5507948356
  0
LINE
  8
0
 62
40
  6
CONTINUOUS
 10
105.0761954877
 20
244.2983787795
 11
103.6619819253
 21
245.7125923419
  0
LINE
  8
0
 62
40
  6
CONTINUOUS
 10
109.200892247
 20
242.43642372
 11
134.5476108097
 21
217.0897051573
  0
LINE
  8
0
 62
7
  6
CONTINUOUS
 10
96.152134342
 20
256.5450963603
 11
96.3404172036
 21
256.3052732924
  0
LINE
  8
0
 62
7
  6
CONTINUOUS
 10
121.537808444
 20
248.4092543553
 11
121.6286565093
 21
248.0636613916
  0
LINE
  8
0
 62
7
  6
CONTINUOUS
 10
125.4342262111
 20
246.0626026414
 11
125.472426354
 21
245.8274615355
  0
LINE
  8
0
 62
7
  6
CONTINUOUS
 10
138.707852572
 20
237.6657089297
 11
138.6787489582
 21
237.4292722817
  0
LINE
  8
0
 62
7
  6
CONTINUOUS
 10
141.3904759184
 20
233.6951134703
 11
141.488259842
 21
234.161418763
  0
LINE
  8
0
 62
7
  6
CONTINUOUS
 10
127.5502441116
 20
172.7149243227
 11
127.5282040999
 21
172.6372184646
  0
LINE
  8
0
 62
7
  6
CONTINUOUS
 10
127.5838699462
 20
172.5815526183
 11
127.605909958
 21
172.6592584763
  0
LINE
  8
0
 62
7
  6
CONTINUOUS
 10
128.2032569479
 20
173.7575981224
 11
128.2363172411
 21
173.8741572046
  0
LINE
  8
0
 62
7
  6
CONTINUOUS
 10
128.707780778
 20
174.1507902598
 11
128.6857406235
 21
174.073084259
  0
LINE
  8
0
 62
7
  6
CONTINUOUS
 10
126.54007303
 20
247.0532945735
 11
126.8914992526
 21
247.1180051782
  0
LINE
  8
0
 62
7
  6
CONTINUOUS
 10
126.6489366408
 20
247.4971462191
 11
126.4146514529
 21
247.4540065484
  0
LINE
  8
0
 62
7
  6
CONTINUOUS
 10
129.581250564
 20
245.3373949926
 11
129.3448064484
 21
245.308330227
  0
LINE
  8
0
 62
7
  6
CONTINUOUS
 10
138.0800217996
 20
236.9515518349
 11
137.8430245369
 21
236.9756683504
  0
LINE
  8
0
 62
7
  6
CONTINUOUS
 10
72.2156835004
 20
247.1509270879
 11
72.4499153985
 21
247.1075044961
  0
LINE
  8
0
 62
7
  6
CONTINUOUS
 10
72.5758174775
 20
247.5080637749
 11
72.3415855794
 21
247.5514863667
  0
LINE
  8
0
 62
7
  6
CONTINUOUS
 10
140.2842242744
 20
235.9627326657
 11
139.8159646071
 21
236.0506826838
  0
LINE
  8
0
 62
7
  6
CONTINUOUS
 10
83.9846018707
 20
251.2572869709
 11
83.6653546656
 21
251.4178145536
  0
LINE
  8
0
 62
7
  6
CONTINUOUS
 10
96.6353980084
 20
256.758236238
 11
96.2736643824
 21
257.0683166048
  0
LINE
  8
0
 62
7
  6
CONTINUOUS
 10
124.2023885053
 20
249.0461778985
 11
124.1418253283
 21
249.2765719315
  0
LINE
  8
0
 62
7
  6
CONTINUOUS
 10
130.5944407944
 20
243.6377469954
 11
130.6711696978
 21
243.2249354221
  0
LINE
  8
0
 62
7
  6
CONTINUOUS
 10
125.9110740107
 20
245.7266012712
 11
125.8537753641
 21
246.0793118435
  0
LINE
  8
0
 62
7
  6
CONTINUOUS
 10
139.1007724506
 20
237.4461745597
 11
139.0924544591
 21
237.8659678226
  0
LINE
  8
0
 62
7
  6
CONTINUOUS
 10
137.8978164796
 20
233.8664344768
 11
137.900400083
 21
234.1688674844
  0
LINE
  8
0
 62
7
  6
CONTINUOUS
 10
140.9736938866
 20
234.3186459377
 11
140.9711103328
 21
234.0162129633
  0
LINE
  8
0
 62
7
  6
CONTINUOUS
 10
128.8272363257
 20
174.1310811527
 11
128.8492764606
 21
174.2087871729
  0
LINE
  8
0
 62
7
  6
CONTINUOUS
 10
129.0191703322
 20
173.9890200811
 11
129.0412106293
 21
174.0667262245
  0
LINE
  8
0
 62
7
  6
CONTINUOUS
 10
129.9151905981
 20
175.636529341
 11
129.8821303
 21
175.5199702636
  0
LINE
  8
0
 62
7
  6
CONTINUOUS
 10
129.7695982764
 20
174.9342784875
 11
129.7475580506
 21
174.8565724153
  0
LINE
  8
0
 62
7
  6
CONTINUOUS
 10
129.803223897
 20
174.800906569
 11
129.8252641227
 21
174.8786126411
  0
LINE
  8
0
 62
7
  6
CONTINUOUS
 10
130.7171876604
 20
175.8818678715
 11
130.6841273574
 21
175.765308799
  0
LINE
  8
0
 62
7
  6
CONTINUOUS
 10
130.8366430905
 20
175.8621586857
 11
130.8586832895
 21
175.9398647311
  0
LINE
  8
0
 62
7
  6
CONTINUOUS
 10
127.5282040999
 20
172.6372184646
 11
127.4812273353
 21
172.5345758537
  0
LINE
  8
0
 62
7
  6
CONTINUOUS
 10
128.1667349246
 20
173.9437395211
 11
128.1197581637
 21
173.8410969065
  0
LINE
  8
0
 62
7
  6
CONTINUOUS
 10
127.5368931817
 20
172.4789100073
 11
127.5838699462
 21
172.5815526183
  0
LINE
  8
0
 62
7
  6
CONTINUOUS
 10
130.020729527
 20
175.6307365674
 11
130.0677063272
 21
175.7333792139
  0
LINE
  8
0
 62
7
  6
CONTINUOUS
 10
129.7475580506
 20
174.8565724153
 11
129.7005813574
 21
174.7539298758
  0
LINE
  8
0
 62
7
  6
CONTINUOUS
 10
129.7562472037
 20
174.6982640294
 11
129.803223897
 21
174.800906569
  0
LINE
  8
0
 62
7
  6
CONTINUOUS
 10
130.789666317
 20
175.7595160659
 11
130.8366430905
 21
175.8621586857
  0
LINE
  8
0
 62
7
  6
CONTINUOUS
 10
125.8226978518
 20
171.5997024483
 11
125.7507846235
 21
171.4721233663
  0
LINE
  8
0
 62
7
  6
CONTINUOUS
 10
125.8922801683
 20
171.5301201319
 11
125.928236927
 21
171.5939098137
  0
LINE
  8
0
 62
7
  6
CONTINUOUS
 10
126.669340776
 20
171.7505222176
 11
126.6333840173
 21
171.6867325357
  0
LINE
  8
0
 62
7
  6
CONTINUOUS
 10
126.738923084
 20
171.6809399096
 11
126.810836316
 21
171.808518988
  0
LINE
  8
0
 62
7
  6
CONTINUOUS
 10
128.6857406235
 20
174.073084259
 11
128.6497840075
 21
174.0092947198
  0
LINE
  8
0
 62
7
  6
CONTINUOUS
 10
128.755322951
 20
174.0035019316
 11
128.8272363257
 21
174.1310811527
  0
LINE
  8
0
 62
7
  6
CONTINUOUS
 10
128.8886947981
 20
173.9698762397
 11
128.8527381821
 21
173.9060867005
  0
LINE
  8
0
 62
7
  6
CONTINUOUS
 10
129.9871038979
 20
175.7641084944
 11
129.9151905981
 21
175.636529341
  0
LINE
  8
0
 62
7
  6
CONTINUOUS
 10
128.9832137162
 20
173.9252305419
 11
129.0191703322
 21
173.9890200811
  0
LINE
  8
0
 62
7
  6
CONTINUOUS
 10
128.2363172411
 20
173.8741572046
 11
128.3331670784
 21
174.026672898
  0
LINE
  8
0
 62
7
  6
CONTINUOUS
 10
130.5026479783
 20
176.1961537979
 11
130.400005356
 21
176.1491770269
  0
LINE
  8
0
 62
7
  6
CONTINUOUS
 10
130.3738685114
 20
175.4272170298
 11
130.2712258648
 21
175.3802402295
  0
LINE
  8
0
 62
7
  6
CONTINUOUS
 10
70.0795681821
 20
243.1988929587
 11
69.7134620944
 21
243.1211123741
  0
LINE
  8
0
 62
7
  6
CONTINUOUS
 10
69.680132292
 20
242.7653357494
 11
69.9815174219
 21
242.790622203
  0
LINE
  8
0
 62
7
  6
CONTINUOUS
 10
123.2874611332
 20
247.6084398751
 11
122.9859831257
 21
247.5842864118
  0
LINE
  8
0
 62
7
  6
CONTINUOUS
 10
123.0254102426
 20
250.0104963217
 11
122.7239322351
 21
249.9863428584
  0
LINE
  8
0
 62
7
  6
CONTINUOUS
 10
72.3415855794
 20
247.5514863667
 11
72.0391749811
 21
247.5469909476
  0
LINE
  8
0
 62
7
  6
CONTINUOUS
 10
127.0500273042
 20
245.028172408
 11
126.7476223385
 21
245.0330319913
  0
LINE
  8
0
 62
7
  6
CONTINUOUS
 10
126.9513416064
 20
247.4922866358
 11
126.6489366408
 21
247.4971462191
  0
LINE
  8
0
 62
7
  6
CONTINUOUS
 10
122.7753531724
 20
247.2145399654
 11
122.9622976242
 21
247.2059918913
  0
LINE
  8
0
 62
7
  6
CONTINUOUS
 10
129.8828249534
 20
245.3144762997
 11
129.581250564
 21
245.3373949926
  0
LINE
  8
0
 62
7
  6
CONTINUOUS
 10
126.6196570585
 20
244.7067519425
 11
126.9901849332
 21
244.6538909261
  0
LINE
  8
0
 62
7
  6
CONTINUOUS
 10
84.1698534864
 20
251.2307822652
 11
83.9846018707
 21
251.2572869709
  0
LINE
  8
0
 62
7
  6
CONTINUOUS
 10
84.7969153282
 20
253.5146760268
 11
84.3199957667
 21
253.6211944077
  0
LINE
  8
0
 62
7
  6
CONTINUOUS
 10
137.4958490135
 20
236.592046879
 11
137.9033183198
 21
236.4907338148
  0
LINE
  8
0
 62
7
  6
CONTINUOUS
 10
130.9978335567
 20
241.0976619158
 11
131.3594107867
 21
241.0009815158
  0
LINE
  8
0
 62
7
  6
CONTINUOUS
 10
131.2826818234
 20
241.4137930227
 11
131.1018960499
 21
241.4621306775
  0
LINE
  8
0
 62
7
  6
CONTINUOUS
 10
83.6455785187
 20
250.9612360681
 11
83.9372464693
 21
250.8812223789
  0
LINE
  8
0
 62
7
  6
CONTINUOUS
 10
84.3514756366
 20
253.2721341216
 11
84.6431435823
 21
253.1921204464
  0
LINE
  8
0
 62
7
  6
CONTINUOUS
 10
138.9192020185
 20
232.6446748942
 11
138.6387637273
 21
232.7579301982
  0
LINE
  8
0
 62
7
  6
CONTINUOUS
 10
139.9523083973
 20
235.5404055535
 11
140.232746639
 21
235.4271502163
  0
LINE
  8
0
 62
7
  6
CONTINUOUS
 10
94.4193381163
 20
253.4034071798
 11
94.7662358886
 21
253.2628917522
  0
LINE
  8
0
 62
7
  6
CONTINUOUS
 10
138.2605415186
 20
232.4048802137
 11
138.587286067
 21
232.2223477323
  0
LINE
  8
0
 62
7
  6
CONTINUOUS
 10
94.8047509208
 20
253.7788497012
 11
94.5408681489
 21
253.9266275133
  0
LINE
  8
0
 62
7
  6
CONTINUOUS
 10
95.8882515753
 20
256.6928741131
 11
96.152134342
 21
256.5450963603
  0
LINE
  8
0
 62
7
  6
CONTINUOUS
 10
125.9982923094
 20
245.561032575
 11
125.9110740107
 21
245.7266012712
  0
LINE
  8
0
 62
7
  6
CONTINUOUS
 10
121.6286565093
 20
248.0636613916
 11
121.7616305638
 21
247.7920177147
  0
LINE
  8
0
 62
7
  6
CONTINUOUS
 10
122.1170789796
 20
248.0792668002
 11
121.984104914
 21
248.3509104578
  0
LINE
  8
0
 62
7
  6
CONTINUOUS
 10
123.8285029238
 20
249.0632721714
 11
123.9614769894
 21
248.7916285139
  0
LINE
  8
0
 62
7
  6
CONTINUOUS
 10
128.2157164769
 20
246.3931457977
 11
128.0221751221
 21
246.8418570267
  0
LINE
  8
0
 62
7
  6
CONTINUOUS
 10
130.1113500288
 20
242.3546569458
 11
130.044503548
 21
242.5294470278
  0
LINE
  8
0
 62
7
  6
CONTINUOUS
 10
125.472426354
 20
245.8274615355
 11
125.5787462832
 21
245.5443211878
  0
LINE
  8
0
 62
7
  6
CONTINUOUS
 10
127.7579703165
 20
246.6115755285
 11
127.8642902543
 21
246.328435193
  0
LINE
  8
0
 62
7
  6
CONTINUOUS
 10
129.6829263131
 20
242.6261274222
 11
129.7547140351
 21
242.3323266277
  0
LINE
  8
0
 62
7
  6
CONTINUOUS
 10
131.0278057414
 20
243.2472657955
 11
130.9560180094
 21
243.5410665789
  0
LINE
  8
0
 62
7
  6
CONTINUOUS
 10
131.4387727167
 20
241.9604987049
 11
131.5105604487
 21
241.6666979216
  0
LINE
  8
0
 62
7
  6
CONTINUOUS
 10
132.7836520851
 20
242.5816370118
 11
132.7118643531
 21
242.8754377952
  0
LINE
  8
0
 62
7
  6
CONTINUOUS
 10
131.8721376637
 20
241.570017505
 11
131.7954086805
 21
241.9828289897
  0
LINE
  8
0
 62
7
  6
CONTINUOUS
 10
137.3832504994
 20
234.023661635
 11
137.426977455
 21
233.6519451486
  0
LINE
  8
0
 62
7
  6
CONTINUOUS
 10
130.6841273574
 20
175.765308799
 11
130.6481706879
 21
175.7015192063
  0
LINE
  8
0
 62
7
  6
CONTINUOUS
 10
130.7287730909
 20
175.6707899165
 11
130.789666317
 21
175.7595160659
  0
LINE
  8
0
 62
7
  6
CONTINUOUS
 10
125.928236927
 20
171.5939098137
 11
126.0140666157
 21
171.7075724354
  0
LINE
  8
0
 62
7
  6
CONTINUOUS
 10
126.6333840173
 20
171.6867325357
 11
126.5475543237
 21
171.5730699189
  0
LINE
  8
0
 62
7
  6
CONTINUOUS
 10
127.4812273353
 20
172.5345758537
 11
127.3953973563
 21
172.4209129515
  0
LINE
  8
0
 62
7
  6
CONTINUOUS
 10
128.6497840075
 20
174.0092947198
 11
128.5639541712
 21
173.8956319604
  0
LINE
  8
0
 62
7
  6
CONTINUOUS
 10
127.4510632027
 20
172.3652471052
 11
127.5368931817
 21
172.4789100073
  0
LINE
  8
0
 62
7
  6
CONTINUOUS
 10
128.8527381821
 20
173.9060867005
 11
128.7669083458
 21
173.792423941
  0
LINE
  8
0
 62
7
  6
CONTINUOUS
 10
129.7005813574
 20
174.7539298758
 11
129.6147515211
 21
174.6402671163
  0
LINE
  8
0
 62
7
  6
CONTINUOUS
 10
129.6704173674
 20
174.58460127
 11
129.7562472037
 21
174.6982640294
  0
LINE
  8
0
 62
7
  6
CONTINUOUS
 10
130.6481706879
 20
175.7015192063
 11
130.5623408872
 21
175.5878564825
  0
LINE
  8
0
 62
7
  6
CONTINUOUS
 10
128.2775012272
 20
174.0823387493
 11
128.1667349246
 21
173.9437395211
  0
LINE
  8
0
 62
7
  6
CONTINUOUS
 10
125.9584007645
 20
171.7632382866
 11
125.8226978518
 21
171.5997024483
  0
LINE
  8
0
 62
7
  6
CONTINUOUS
 10
126.6032201701
 20
171.5174040726
 11
126.738923084
 21
171.6809399096
  0
LINE
  8
0
 62
7
  6
CONTINUOUS
 10
128.6196200371
 20
173.8399660945
 11
128.755322951
 21
174.0035019316
  0
LINE
  8
0
 62
7
  6
CONTINUOUS
 10
130.5930701948
 20
175.5072540973
 11
130.7287730909
 21
175.6707899165
  0
LINE
  8
0
 62
7
  6
CONTINUOUS
 10
130.147743385
 20
175.9525809071
 11
129.9871038979
 21
175.7641084944
  0
LINE
  8
0
 62
7
  6
CONTINUOUS
 10
130.0677063272
 20
175.7333792139
 11
130.228345775
 21
175.9218515947
  0
LINE
  8
0
 62
7
  6
CONTINUOUS
 10
128.8225741921
 20
173.7367580947
 11
128.9832137162
 21
173.9252305419
  0
LINE
  8
0
 62
7
  6
CONTINUOUS
 10
129.5742024575
 20
175.3790399797
 11
129.4495196209
 21
175.254357143
  0
LINE
  8
0
 62
7
  6
CONTINUOUS
 10
129.0006614944
 20
174.8054990165
 11
128.8759787291
 21
174.6808162512
  0
LINE
  8
0
 62
7
  6
CONTINUOUS
 10
128.4271206026
 20
174.2319581247
 11
128.2775012272
 21
174.0823387493
  0
LINE
  8
0
 62
7
  6
CONTINUOUS
 10
128.0031990863
 20
173.8080366084
 11
127.8785161783
 21
173.6833537004
  0
LINE
  8
0
 62
7
  6
CONTINUOUS
 10
127.6790235825
 20
173.4838611046
 11
127.5543409599
 21
173.359178482
  0
LINE
  8
0
 62
7
  6
CONTINUOUS
 10
127.3548483641
 20
173.1596858862
 11
127.2301654561
 21
173.0350029782
  0
LINE
  8
0
 62
7
  6
CONTINUOUS
 10
126.7813073296
 20
172.5861448518
 11
126.656624707
 21
172.4614622291
  0
LINE
  8
0
 62
7
  6
CONTINUOUS
 10
126.10802014
 20
171.9128576621
 11
125.9584007645
 21
171.7632382866
  0
LINE
  8
0
 62
7
  6
CONTINUOUS
 10
126.0140666157
 20
171.7075724354
 11
126.1636859912
 21
171.8571918109
  0
LINE
  8
0
 62
7
  6
CONTINUOUS
 10
128.3331670784
 20
174.026672898
 11
128.4827864539
 21
174.1762922735
  0
LINE
  8
0
 62
7
  6
CONTINUOUS
 10
126.4437809057
 20
172.0259550229
 11
126.5684638137
 21
172.1506379309
  0
LINE
  8
0
 62
7
  6
CONTINUOUS
 10
129.912859546
 20
175.4393677974
 11
130.0375423827
 21
175.564050634
  0
LINE
  8
0
 62
7
  6
CONTINUOUS
 10
128.5639541712
 20
173.8956319604
 11
128.2896518877
 21
173.6213296769
  0
LINE
  8
0
 62
7
  6
CONTINUOUS
 10
128.3453177536
 20
173.565663811
 11
128.6196200371
 21
173.8399660945
  0
LINE
  8
0
 62
7
  6
CONTINUOUS
 10
130.2045399412
 20
175.3970530755
 11
130.0798571045
 21
175.2723702388
  0
LINE
  8
0
 62
7
  6
CONTINUOUS
 10
129.0104812504
 20
174.1473285383
 11
128.8857984851
 21
174.022645773
  0
LINE
  8
0
 62
7
  6
CONTINUOUS
 10
126.1178400387
 20
171.2546873266
 11
125.993157416
 21
171.1300047039
  0
LINE
  8
0
 62
7
  6
CONTINUOUS
 10
128.7669083458
 20
173.792423941
 11
128.6172889703
 21
173.6428045655
  0
LINE
  8
0
 62
7
  6
CONTINUOUS
 10
126.5475543237
 20
171.5730699189
 11
126.3979349482
 21
171.4234505434
  0
LINE
  8
0
 62
7
  6
CONTINUOUS
 10
126.4536007946
 20
171.3677846971
 11
126.6032201701
 21
171.5174040726
  0
LINE
  8
0
 62
7
  6
CONTINUOUS
 10
127.3513170475
 20
172.26550095
 11
127.4510632027
 21
172.3652471052
  0
LINE
  8
0
 62
7
  6
CONTINUOUS
 10
127.6754922659
 20
172.5896761684
 11
127.8001751739
 21
172.7143590764
  0
LINE
  8
0
 62
7
  6
CONTINUOUS
 10
127.9996677697
 20
172.9138516722
 11
128.1243503923
 21
173.0385342949
  0
LINE
  8
0
 62
7
  6
CONTINUOUS
 10
128.6729548167
 20
173.5871387192
 11
128.8225741921
 21
173.7367580947
  0
LINE
  8
0
 62
7
  6
CONTINUOUS
 10
129.5706710696
 20
174.4848549721
 11
129.6704173674
 21
174.58460127
  0
LINE
  8
0
 62
7
  6
CONTINUOUS
 10
128.2635150472
 20
172.89936964
 11
128.1388324245
 21
172.7746870173
  0
LINE
  8
0
 62
7
  6
CONTINUOUS
 10
128.2084147325
 20
172.7051047094
 11
128.3330973551
 21
172.829787332
  0
LINE
  8
0
 62
7
  6
CONTINUOUS
 10
130.1035933935
 20
174.6002833704
 11
130.2282762301
 21
174.7249662071
  0
LINE
  8
0
 62
7
  6
CONTINUOUS
 10
130.6423756151
 20
174.8915782186
 11
130.4644190961
 21
174.7136216996
  0
LINE
  8
0
 62
7
  6
CONTINUOUS
 10
129.9352688339
 20
174.1844714374
 11
129.3342280699
 21
173.5834306734
  0
LINE
  8
0
 62
7
  6
CONTINUOUS
 10
129.1928067137
 20
173.4420093172
 11
128.5917659497
 21
172.8409685532
  0
LINE
  8
0
 62
7
  6
CONTINUOUS
 10
127.7785931513
 20
172.0277957548
 11
127.1775523873
 21
171.4267549908
  0
LINE
  8
0
 62
7
  6
CONTINUOUS
 10
127.036131031
 20
171.2853336345
 11
126.435090267
 21
170.6842928705
  0
LINE
  8
0
 62
7
  6
CONTINUOUS
 10
130.7837969713
 20
174.0430500812
 11
131.0666396838
 21
174.3258927936
  0
LINE
  8
0
 62
7
  6
CONTINUOUS
 10
129.369583409
 20
171.3560443127
 11
129.0867406965
 21
171.0732016002
  0
LINE
  8
0
 62
7
  6
CONTINUOUS
 10
128.0614358638
 20
169.0579472738
 11
128.6624766278
 21
169.6589880378
  0
LINE
  8
0
 62
7
  6
CONTINUOUS
 10
129.5110047652
 20
170.5075161752
 11
129.6889612842
 21
170.6854726942
  0
LINE
  8
0
 62
7
  6
CONTINUOUS
 10
130.2181115464
 20
171.2146229564
 11
130.8191523104
 21
171.8156637204
  0
LINE
  8
0
 62
7
  6
CONTINUOUS
 10
130.9605736666
 20
171.9570850767
 11
131.5616144306
 21
172.5581258407
  0
LINE
  8
0
 62
7
  6
CONTINUOUS
 10
132.374787229
 20
173.371298639
 11
132.975827993
 21
173.972339403
  0
LINE
  8
0
 62
7
  6
CONTINUOUS
 10
130.5623408872
 20
175.5878564825
 11
130.3738685114
 21
175.4272170298
  0
LINE
  8
0
 62
7
  6
CONTINUOUS
 10
130.4045977833
 20
175.3466146089
 11
130.5930701948
 21
175.5072540973
  0
LINE
  8
0
 62
7
  6
CONTINUOUS
 10
130.3112792055
 20
176.0882838019
 11
130.147743385
 21
175.9525809071
  0
LINE
  8
0
 62
7
  6
CONTINUOUS
 10
126.2715559783
 20
172.0485605748
 11
126.10802014
 21
171.9128576621
  0
LINE
  8
0
 62
7
  6
CONTINUOUS
 10
126.1636859912
 20
171.8571918109
 11
126.3272218331
 21
171.9928947199
  0
LINE
  8
0
 62
7
  6
CONTINUOUS
 10
128.5094191223
 20
173.451435948
 11
128.6729548167
 21
173.5871387192
  0
LINE
  8
0
 62
7
  6
CONTINUOUS
 10
126.3979349482
 20
171.4234505434
 11
126.2343991112
 21
171.2877476296
  0
LINE
  8
0
 62
7
  6
CONTINUOUS
 10
126.2900649575
 20
171.2320817832
 11
126.4536007946
 21
171.3677846971
  0
LINE
  8
0
 62
7
  6
CONTINUOUS
 10
128.5407832206
 20
174.3177878171
 11
128.4271206026
 21
174.2319581247
  0
LINE
  8
0
 62
7
  6
CONTINUOUS
 10
129.6147515211
 20
174.6402671163
 11
129.5010887616
 21
174.55443728
  0
LINE
  8
0
 62
7
  6
CONTINUOUS
 10
128.6172889703
 20
173.6428045655
 11
128.5036262108
 21
173.5569747292
  0
LINE
  8
0
 62
7
  6
CONTINUOUS
 10
127.3953973563
 20
172.4209129515
 11
127.2817347395
 21
172.3350832579
  0
LINE
  8
0
 62
7
  6
CONTINUOUS
 10
126.5440926022
 20
171.8757703914
 11
126.0505886353
 21
171.5214310403
  0
LINE
  8
0
 62
7
  6
CONTINUOUS
 10
126.0175283323
 20
171.4048719678
 11
126.5110323188
 21
171.7592112994
  0
LINE
  8
0
 62
7
  6
CONTINUOUS
 10
130.400005356
 20
176.1491770269
 11
130.3112792055
 21
176.0882838019
  0
LINE
  8
0
 62
7
  6
CONTINUOUS
 10
130.228345775
 20
175.9218515947
 11
130.4057980964
 21
176.04363806
  0
LINE
  8
0
 62
7
  6
CONTINUOUS
 10
129.4819449202
 20
174.4239617459
 11
129.5706710696
 21
174.4848549721
  0
LINE
  8
0
 62
7
  6
CONTINUOUS
 10
126.3602821288
 20
172.1094537997
 11
126.2715559783
 21
172.0485605748
  0
LINE
  8
0
 62
7
  6
CONTINUOUS
 10
127.2625908981
 20
172.2046077238
 11
127.3513170475
 21
172.26550095
  0
LINE
  8
0
 62
7
  6
CONTINUOUS
 10
126.2013388082
 20
171.171188557
 11
126.2900649575
 21
171.2320817832
  0
LINE
  8
0
 62
7
  6
CONTINUOUS
 10
128.6045729037
 20
174.3537445746
 11
128.5407832206
 21
174.3177878171
  0
LINE
  8
0
 62
7
  6
CONTINUOUS
 10
130.2770186335
 20
175.2747013056
 11
130.4045977833
 21
175.3466146089
  0
LINE
  8
0
 62
7
  6
CONTINUOUS
 10
128.4827864539
 20
174.1762922735
 11
128.6103655371
 21
174.2482055007
  0
LINE
  8
0
 62
7
  6
CONTINUOUS
 10
129.5010887616
 20
174.55443728
 11
129.4372992224
 21
174.518480664
  0
LINE
  8
0
 62
7
  6
CONTINUOUS
 10
128.5036262108
 20
173.5569747292
 11
128.4398368143
 21
173.5210182559
  0
LINE
  8
0
 62
7
  6
CONTINUOUS
 10
126.3272218331
 20
171.9928947199
 11
126.391011515
 21
172.0288514786
  0
LINE
  8
0
 62
7
  6
CONTINUOUS
 10
127.2817347395
 20
172.3350832579
 11
127.2179450577
 21
172.2991264992
  0
LINE
  8
0
 62
7
  6
CONTINUOUS
 10
126.2343991112
 20
171.2877476296
 11
126.1706094293
 21
171.2517908709
  0
LINE
  8
0
 62
7
  6
CONTINUOUS
 10
129.3793023093
 20
174.3769849814
 11
129.4819449202
 21
174.4239617459
  0
LINE
  8
0
 62
7
  6
CONTINUOUS
 10
128.4067765114
 20
173.4044591834
 11
128.5094191223
 21
173.451435948
  0
LINE
  8
0
 62
7
  6
CONTINUOUS
 10
126.4629247422
 20
172.1564305618
 11
126.3602821288
 21
172.1094537997
  0
LINE
  8
0
 62
7
  6
CONTINUOUS
 10
127.1599482872
 20
172.1576309593
 11
127.2625908981
 21
172.2046077238
  0
LINE
  8
0
 62
7
  6
CONTINUOUS
 10
126.5110323188
 20
171.7592112994
 11
126.6136749297
 21
171.8061880639
  0
LINE
  8
0
 62
7
  6
CONTINUOUS
 10
126.0505886353
 20
171.5214310403
 11
125.9479460244
 21
171.4744542758
  0
LINE
  8
0
 62
7
  6
CONTINUOUS
 10
126.0986961973
 20
171.1242117925
 11
126.2013388082
 21
171.171188557
  0
LINE
  8
0
 62
7
  6
CONTINUOUS
 10
126.6855881617
 20
171.9337671423
 11
126.5440926022
 21
171.8757703914
  0
LINE
  8
0
 62
7
  6
CONTINUOUS
 10
125.8760327924
 20
171.3468751974
 11
126.0175283323
 21
171.4048719678
  0
LINE
  8
0
 62
7
  6
CONTINUOUS
 10
86.5229286658
 20
251.5640611292
 11
87.0066670455
 21
251.6905410878
  0
LINE
  8
0
 62
7
  6
CONTINUOUS
 10
88.7803750531
 20
252.1543010969
 11
89.2641134329
 21
252.2807810555
  0
LINE
  8
0
 62
7
  6
CONTINUOUS
 10
84.2013351775
 20
250.8817225478
 11
84.7019333515
 21
250.9632367438
  0
LINE
  8
0
 62
7
  6
CONTINUOUS
 10
72.0303890461
 20
247.12472051
 11
72.2156835004
 21
247.1509270879
  0
LINE
  8
0
 62
7
  6
CONTINUOUS
 10
95.1887354856
 20
253.2144215834
 11
95.8528650151
 21
253.2725211945
  0
LINE
  8
0
 62
7
  6
CONTINUOUS
 10
95.8083631429
 20
253.7812166371
 11
95.1442336134
 21
253.723117026
  0
LINE
  8
0
 62
7
  6
CONTINUOUS
 10
84.5127792919
 20
251.2582872947
 11
84.1698534864
 21
251.2307822652
  0
LINE
  8
0
 62
7
  6
CONTINUOUS
 10
83.9372464693
 20
250.8812223789
 11
84.2013351775
 21
250.8817225478
  0
LINE
  8
0
 62
7
  6
CONTINUOUS
 10
97.8490413265
 20
253.417981874
 11
98.3490413035
 21
253.4181337214
  0
LINE
  8
0
 62
7
  6
CONTINUOUS
 10
100.4323732692
 20
253.4187664186
 11
101.1823732346
 21
253.4189941897
  0
LINE
  8
0
 62
7
  6
CONTINUOUS
 10
122.7726543297
 20
249.5668006405
 11
123.1465432258
 21
249.5497044793
  0
LINE
  8
0
 62
7
  6
CONTINUOUS
 10
101.8498218342
 20
253.3844224191
 11
104.8394868889
 21
253.1356195635
  0
LINE
  8
0
 62
7
  6
CONTINUOUS
 10
104.881836311
 20
253.6444987205
 11
102.3904487654
 21
253.8518344335
  0
LINE
  8
0
 62
7
  6
CONTINUOUS
 10
94.7662358886
 20
253.2628917522
 11
95.1887354856
 21
253.2144215834
  0
LINE
  8
0
 62
7
  6
CONTINUOUS
 10
126.8914992526
 20
247.1180051782
 11
127.0767600651
 21
247.0915768582
  0
LINE
  8
0
 62
7
  6
CONTINUOUS
 10
95.1442336134
 20
253.723117026
 11
94.8047509208
 21
253.7788497012
  0
LINE
  8
0
 62
7
  6
CONTINUOUS
 10
129.4340196642
 20
245.0193434091
 11
129.8007273087
 21
244.9444388779
  0
LINE
  8
0
 62
7
  6
CONTINUOUS
 10
109.4446716049
 20
252.3681360078
 11
112.6716231146
 21
251.5327399412
  0
LINE
  8
0
 62
7
  6
CONTINUOUS
 10
112.7995987308
 20
252.0270816365
 11
110.0566901322
 21
252.7371682453
  0
LINE
  8
0
 62
7
  6
CONTINUOUS
 10
131.1838965948
 20
243.7939714334
 11
131.3646823683
 21
243.7456337787
  0
LINE
  8
0
 62
7
  6
CONTINUOUS
 10
131.4687448266
 20
244.1101025016
 11
131.1071676116
 21
244.2067829182
  0
LINE
  8
0
 62
7
  6
CONTINUOUS
 10
122.4435935728
 20
247.3055835122
 11
122.7753531724
 21
247.2145399654
  0
LINE
  8
0
 62
7
  6
CONTINUOUS
 10
122.9859831257
 20
247.5842864118
 11
122.6542235297
 21
247.675329965
  0
LINE
  8
0
 62
7
  6
CONTINUOUS
 10
123.3571731532
 20
249.9194508803
 11
123.0254102426
 21
250.0104963217
  0
LINE
  8
0
 62
7
  6
CONTINUOUS
 10
127.2047253151
 20
247.4178568644
 11
126.9513416064
 21
247.4922866358
  0
LINE
  8
0
 62
7
  6
CONTINUOUS
 10
113.7774620538
 20
251.1563527894
 11
114.2528736042
 21
251.0014855632
  0
LINE
  8
0
 62
7
  6
CONTINUOUS
 10
130.1313090493
 20
245.2250405755
 11
129.8828249534
 21
245.3144762997
  0
LINE
  8
0
 62
7
  6
CONTINUOUS
 10
115.3524672738
 20
250.6115372283
 11
115.821956916
 21
250.4395503802
  0
LINE
  8
0
 62
7
  6
CONTINUOUS
 10
127.0767600651
 20
247.0915768582
 11
127.3982666699
 21
246.9691456355
  0
LINE
  8
0
 62
7
  6
CONTINUOUS
 10
96.2736643824
 20
257.0683166048
 11
95.9267647119
 21
257.2088318439
  0
LINE
  8
0
 62
7
  6
CONTINUOUS
 10
126.093791116
 20
244.9731809213
 11
126.6196570585
 21
244.7067519425
  0
LINE
  8
0
 62
7
  6
CONTINUOUS
 10
126.7476223385
 20
245.0330319913
 11
126.2217563831
 21
245.2994609519
  0
LINE
  8
0
 62
7
  6
CONTINUOUS
 10
120.0942717424
 20
248.566515052
 11
120.540304881
 21
248.3405627577
  0
LINE
  8
0
 62
7
  6
CONTINUOUS
 10
130.5100536926
 20
245.0316379342
 11
130.1313090493
 21
245.2250405755
  0
LINE
  8
0
 62
7
  6
CONTINUOUS
 10
131.1018960499
 20
241.4621306775
 11
130.7972884613
 21
241.6220372855
  0
LINE
  8
0
 62
7
  6
CONTINUOUS
 10
131.3646823683
 20
243.7456337787
 11
131.6692899369
 21
243.5857271485
  0
LINE
  8
0
 62
7
  6
CONTINUOUS
 10
129.8007273087
 20
244.9444388779
 11
130.2446022257
 21
244.699052778
  0
LINE
  8
0
 62
7
  6
CONTINUOUS
 10
140.610973044
 20
235.7801938289
 11
140.2842242744
 21
235.9627326657
  0
LINE
  8
0
 62
7
  6
CONTINUOUS
 10
122.0091414997
 20
247.5530737064
 11
122.4435935728
 21
247.3055835122
  0
LINE
  8
0
 62
7
  6
CONTINUOUS
 10
123.0952716823
 20
246.9343482208
 11
123.4573128668
 21
246.7281076511
  0
LINE
  8
0
 62
7
  6
CONTINUOUS
 10
122.6542235297
 20
247.675329965
 11
122.3645866046
 21
247.8403246866
  0
LINE
  8
0
 62
7
  6
CONTINUOUS
 10
130.569409856
 20
241.3691324088
 11
130.9978335567
 21
241.0976619158
  0
LINE
  8
0
 62
7
  6
CONTINUOUS
 10
124.0147707631
 20
246.3610581007
 11
124.3665008083
 21
246.1376791713
  0
LINE
  8
0
 62
7
  6
CONTINUOUS
 10
137.8430245369
 20
236.9756683504
 11
137.6205767019
 21
237.1180061718
  0
LINE
  8
0
 62
7
  6
CONTINUOUS
 10
127.6058160128
 20
244.948883102
 11
127.2652108871
 21
245.1888837668
  0
LINE
  8
0
 62
7
  6
CONTINUOUS
 10
126.0606814888
 20
246.6623038652
 11
127.8999435545
 21
245.3663042302
  0
LINE
  8
0
 62
7
  6
CONTINUOUS
 10
127.6388043217
 20
243.8388069009
 11
127.9644586716
 21
243.5788872284
  0
LINE
  8
0
 62
7
  6
CONTINUOUS
 10
137.1694495957
 20
236.8646672458
 11
137.4958490135
 21
236.592046879
  0
LINE
  8
0
 62
7
  6
CONTINUOUS
 10
138.6387637273
 20
232.7579301982
 11
138.3827704066
 21
232.9877634443
  0
LINE
  8
0
 62
7
  6
CONTINUOUS
 10
130.1979558066
 20
241.703829121
 11
130.569409856
 21
241.3691324088
  0
LINE
  8
0
 62
7
  6
CONTINUOUS
 10
130.7972884613
 20
241.6220372855
 11
130.4258344119
 21
241.9567339977
  0
LINE
  8
0
 62
7
  6
CONTINUOUS
 10
130.0965319432
 20
242.7116839428
 11
129.7869887913
 21
242.9905961673
  0
LINE
  8
0
 62
7
  6
CONTINUOUS
 10
121.7616305638
 20
247.7920177147
 11
122.0091414997
 21
247.5530737064
  0
LINE
  8
0
 62
7
  6
CONTINUOUS
 10
122.3645866046
 20
247.8403246866
 11
122.1170789796
 21
248.0792668002
  0
LINE
  8
0
 62
7
  6
CONTINUOUS
 10
123.5809952988
 20
249.3022142851
 11
123.8285029238
 21
249.0632721714
  0
LINE
  8
0
 62
7
  6
CONTINUOUS
 10
124.0391328512
 20
249.4330185725
 11
123.7916252262
 21
249.6719606861
  0
LINE
  8
0
 62
7
  6
CONTINUOUS
 10
137.9582376638
 20
232.7039969552
 11
138.2605415186
 21
232.4048802137
  0
LINE
  8
0
 62
7
  6
CONTINUOUS
 10
125.7340874738
 20
245.3307510343
 11
126.093791116
 21
244.9731809213
  0
LINE
  8
0
 62
7
  6
CONTINUOUS
 10
126.2217563831
 20
245.2994609519
 11
125.9982923094
 21
245.561032575
  0
LINE
  8
0
 62
7
  6
CONTINUOUS
 10
134.5250388805
 20
237.3133292377
 11
134.8368841122
 21
236.9224935286
  0
LINE
  8
0
 62
7
  6
CONTINUOUS
 10
129.8834714085
 20
242.1017520524
 11
130.1979558066
 21
241.703829121
  0
LINE
  8
0
 62
7
  6
CONTINUOUS
 10
130.4258344119
 20
241.9567339977
 11
130.1113500288
 21
242.3546569458
  0
LINE
  8
0
 62
7
  6
CONTINUOUS
 10
125.5787462832
 20
245.5443211878
 11
125.7340874738
 21
245.3307510343
  0
LINE
  8
0
 62
7
  6
CONTINUOUS
 10
137.5877661599
 20
233.2582459231
 11
137.9582376638
 21
232.7039969552
  0
LINE
  8
0
 62
7
  6
CONTINUOUS
 10
138.3827704066
 20
232.9877634443
 11
138.0122989026
 21
233.5420124121
  0
LINE
  8
0
 62
7
  6
CONTINUOUS
 10
124.1418253283
 20
249.2765719315
 11
124.0391328512
 21
249.4330185725
  0
LINE
  8
0
 62
7
  6
CONTINUOUS
 10
130.6711696978
 20
243.2249354221
 11
131.4387727167
 21
241.9604987049
  0
LINE
  8
0
 62
7
  6
CONTINUOUS
 10
131.7954086805
 20
241.9828289897
 11
131.0278057414
 21
243.2472657955
  0
LINE
  8
0
 62
7
  6
CONTINUOUS
 10
129.7547140351
 20
242.3323266277
 11
129.8834714085
 21
242.1017520524
  0
LINE
  8
0
 62
7
  6
CONTINUOUS
 10
132.7118643531
 20
242.8754377952
 11
132.5831069748
 21
243.1060123649
  0
LINE
  8
0
 62
7
  6
CONTINUOUS
 10
139.0578651249
 20
231.0304016125
 11
139.2953867172
 21
230.5904203707
  0
LINE
  8
0
 62
7
  6
CONTINUOUS
 10
139.8496061821
 20
229.5637929973
 11
140.1663004304
 21
228.9771535793
  0
LINE
  8
0
 62
7
  6
CONTINUOUS
 10
140.720516271
 20
227.9505329195
 11
140.9580378633
 21
227.5105516776
  0
LINE
  8
0
 62
7
  6
CONTINUOUS
 10
137.426977455
 20
233.6519451486
 11
137.5877661599
 21
233.2582459231
  0
LINE
  8
0
 62
7
  6
CONTINUOUS
 10
132.3552283894
 20
242.8531075104
 11
132.4220748702
 21
242.6783174283
  0
LINE
  8
0
 62
7
  6
CONTINUOUS
 10
138.6184551753
 20
237.9142068173
 11
138.707852572
 21
237.6657089297
  0
LINE
  8
0
 62
7
  6
CONTINUOUS
 10
138.0122989026
 20
233.5420124121
 11
137.8978164796
 21
233.8664344768
  0
LINE
  8
0
 62
7
  6
CONTINUOUS
 10
141.488259842
 20
234.161418763
 11
141.4445371077
 21
234.5331288941
  0
LINE
  8
0
 62
7
  6
CONTINUOUS
 10
88.5752013397
 20
254.915611296
 11
88.0914629599
 21
254.7891313374
  0
LINE
  8
0
 62
7
  6
CONTINUOUS
 10
86.3177549523
 20
254.3253713282
 11
85.8340165725
 21
254.1988913696
  0
LINE
  8
0
 62
7
  6
CONTINUOUS
 10
83.850877465
 20
253.1906199185
 11
84.3514756366
 21
253.2721341216
  0
LINE
  8
0
 62
7
  6
CONTINUOUS
 10
84.3199957667
 20
253.6211944077
 11
83.8193975952
 21
253.5396802046
  0
LINE
  8
0
 62
7
  6
CONTINUOUS
 10
94.8846393532
 20
256.6905071772
 11
95.5487688827
 21
256.7486067883
  0
LINE
  8
0
 62
7
  6
CONTINUOUS
 10
95.5042670157
 20
257.2573021715
 11
94.8401374862
 21
257.1992025604
  0
LINE
  8
0
 62
7
  6
CONTINUOUS
 10
101.1811584552
 20
257.4189940053
 11
100.6811584783
 21
257.4188421579
  0
LINE
  8
0
 62
7
  6
CONTINUOUS
 10
98.5978265126
 20
257.4182094607
 11
97.8478265472
 21
257.4179816895
  0
LINE
  8
0
 62
7
  6
CONTINUOUS
 10
102.5033805594
 20
255.2088455385
 11
104.662584366
 21
255.0291544819
  0
LINE
  8
0
 62
7
  6
CONTINUOUS
 10
104.7049337832
 20
255.5380335794
 11
102.5457299766
 21
255.7177246361
  0
LINE
  8
0
 62
7
  6
CONTINUOUS
 10
102.6374870669
 20
256.8202962518
 11
105.1288746124
 21
256.6129605388
  0
LINE
  8
0
 62
7
  6
CONTINUOUS
 10
105.1712240296
 20
257.1218396364
 11
102.1815589749
 21
257.370642492
  0
LINE
  8
0
 62
7
  6
CONTINUOUS
 10
95.9267647119
 20
257.2088318439
 11
95.5042670157
 21
257.2573021715
  0
LINE
  8
0
 62
7
  6
CONTINUOUS
 10
95.5487688827
 20
256.7486067883
 11
95.8882515753
 21
256.6928741131
  0
LINE
  8
0
 62
7
  6
CONTINUOUS
 10
110.3405009329
 20
255.8285279321
 11
113.164082119
 21
255.0975567323
  0
LINE
  8
0
 62
7
  6
CONTINUOUS
 10
113.6740987769
 20
255.40508323
 11
110.4471472672
 21
256.2404792966
  0
LINE
  8
0
 62
7
  6
CONTINUOUS
 10
115.4918114138
 20
254.8047779663
 11
115.0163998635
 21
254.9596451925
  0
LINE
  8
0
 62
7
  6
CONTINUOUS
 10
117.1978517013
 20
254.1954675171
 11
116.7283620591
 21
254.3674543653
  0
LINE
  8
0
 62
7
  6
CONTINUOUS
 10
127.6624714755
 20
247.1994271336
 11
127.2047253151
 21
247.4178568644
  0
LINE
  8
0
 62
7
  6
CONTINUOUS
 10
122.3479232348
 20
251.9088278666
 11
121.9018900962
 21
252.1347801608
  0
LINE
  8
0
 62
7
  6
CONTINUOUS
 10
123.1465432258
 20
249.5497044793
 11
123.5809952988
 21
249.3022142851
  0
LINE
  8
0
 62
7
  6
CONTINUOUS
 10
123.7916252262
 20
249.6719606861
 11
123.3571731532
 21
249.9194508803
  0
LINE
  8
0
 62
7
  6
CONTINUOUS
 10
125.4372344205
 20
250.2037242355
 11
125.075193236
 21
250.4099648052
  0
LINE
  8
0
 62
7
  6
CONTINUOUS
 10
131.8971685223
 20
243.838632003
 11
131.4687448266
 21
244.1101025016
  0
LINE
  8
0
 62
7
  6
CONTINUOUS
 10
126.5109319859
 20
249.5142773003
 11
126.1592019408
 21
249.7376562296
  0
LINE
  8
0
 62
7
  6
CONTINUOUS
 10
127.7554235252
 20
245.8845857447
 11
126.324886363
 21
246.8925854607
  0
LINE
  8
0
 62
7
  6
CONTINUOUS
 10
129.6633482087
 20
245.7074324144
 11
129.3376938587
 21
245.967352087
  0
LINE
  8
0
 62
7
  6
CONTINUOUS
 10
140.232746639
 20
235.4271502163
 11
140.4887399597
 21
235.1973169703
  0
LINE
  8
0
 62
7
  6
CONTINUOUS
 10
132.370046475
 20
242.4960805133
 11
132.6795896269
 21
242.2171682888
  0
LINE
  8
0
 62
7
  6
CONTINUOUS
 10
131.6692899369
 20
243.5857271485
 11
132.0407439863
 21
243.2510304362
  0
LINE
  8
0
 62
7
  6
CONTINUOUS
 10
132.2686225717
 20
243.5039352908
 11
131.8971685223
 21
243.838632003
  0
LINE
  8
0
 62
7
  6
CONTINUOUS
 10
140.9132726528
 20
235.4810834262
 11
140.610973044
 21
235.7801938289
  0
LINE
  8
0
 62
7
  6
CONTINUOUS
 10
127.3982666699
 20
246.9691456355
 11
127.7579703165
 21
246.6115755285
  0
LINE
  8
0
 62
7
  6
CONTINUOUS
 10
128.0221751221
 20
246.8418570267
 11
127.6624714755
 21
247.1994271336
  0
LINE
  8
0
 62
7
  6
CONTINUOUS
 10
136.2339139004
 20
238.0371743729
 11
137.1694495957
 21
236.8646672458
  0
LINE
  8
0
 62
7
  6
CONTINUOUS
 10
137.6205767019
 20
237.1180061718
 11
136.6330652152
 21
238.3556545716
  0
LINE
  8
0
 62
7
  6
CONTINUOUS
 10
137.6309436886
 20
239.1518552171
 11
138.6184551753
 21
237.9142068173
  0
LINE
  8
0
 62
7
  6
CONTINUOUS
 10
138.8991054795
 20
238.2447482556
 11
137.6517245525
 21
239.8080910917
  0
LINE
  8
0
 62
7
  6
CONTINUOUS
 10
132.0407439863
 20
243.2510304362
 11
132.3552283894
 21
242.8531075104
  0
LINE
  8
0
 62
7
  6
CONTINUOUS
 10
132.5831069748
 20
243.1060123649
 11
132.2686225717
 21
243.5039352908
  0
LINE
  8
0
 62
7
  6
CONTINUOUS
 10
140.4887399597
 20
235.1973169703
 11
140.8592114636
 21
234.6430680024
  0
LINE
  8
0
 62
7
  6
CONTINUOUS
 10
141.2837441568
 20
234.9268344584
 11
140.9132726528
 21
235.4810834262
  0
LINE
  8
0
 62
7
  6
CONTINUOUS
 10
144.4778877982
 20
229.4107244161
 11
144.1216054098
 21
230.0706962788
  0
LINE
  8
0
 62
7
  6
CONTINUOUS
 10
142.9339974482
 20
232.2706024882
 11
142.5777150598
 21
232.9305743509
  0
LINE
  8
0
 62
7
  6
CONTINUOUS
 10
139.0924544591
 20
237.8659678226
 11
138.8991054795
 21
238.2447482556
  0
LINE
  8
0
 62
7
  6
CONTINUOUS
 10
141.4445371077
 20
234.5331288941
 11
141.2837441568
 21
234.9268344584
  0
LINE
  8
0
 62
7
  6
CONTINUOUS
 10
140.8592114636
 20
234.6430680024
 11
140.9736938866
 21
234.3186459377
  0
LINE
  8
0
 62
7
  6
CONTINUOUS
 10
44.1796772429
 20
92.9141137856
 11
44.1796772429
 21
76.9141137856
  0
LINE
  8
0
 62
7
  6
CONTINUOUS
 10
152.8796339165
 20
74.9141137856
 11
46.1797205693
 21
74.9141137856
  0
LINE
  8
DEFAULT_1
 62
2
  6
CENTER
 10
99.5296772429
 20
72.9141137856
 11
99.5296772429
 21
96.9141137856
  0
LINE
  8
0
 62
7
  6
CONTINUOUS
 10
152.8796339176
 20
94.9141137856
 11
46.1797205681
 21
94.9141137856
  0
LINE
  8
0
 62
7
  6
CONTINUOUS
 10
154.8796772429
 20
92.9141137856
 11
154.8796772429
 21
76.9141137856
  0
ARC
  8
0
 62
40
  6
CONTINUOUS
 10
93.1346308606
 20
166.8616462646
 40
3.2
 50
2.2544307753
 51
45.0
  0
ARC
  8
0
 62
40
  6
CONTINUOUS
 10
91.7204172983
 20
168.275859827
 40
3.2
 50
45.0
 51
86.4096221093
  0
ARC
  8
0
 62
40
  6
CONTINUOUS
 10
92.1212039385
 20
174.6632982861
 40
3.2
 50
225.0
 51
266.4096221093
  0
ARC
  8
0
 62
40
  6
CONTINUOUS
 10
66.7744853758
 20
200.0100168488
 40
3.2
 50
183.5903778907
 51
225.0
  0
ARC
  8
0
 62
40
  6
CONTINUOUS
 10
60.3870469167
 20
199.6092302085
 40
3.2
 50
3.5903778907
 51
45.0
  0
ARC
  8
0
 62
40
  6
CONTINUOUS
 10
58.9728333544
 20
201.0234437709
 40
3.2
 50
45.0
 51
87.7455692247
  0
ARC
  8
0
 62
40
  6
CONTINUOUS
 10
59.2245907153
 20
207.4184901532
 40
3.2
 50
92.2544307753
 51
267.7455692247
  0
ARC
  8
0
 62
40
  6
CONTINUOUS
 10
58.9728333544
 20
213.8135365354
 40
3.2
 50
272.2544307753
 51
315.0
  0
ARC
  8
0
 62
40
  6
CONTINUOUS
 10
60.3870469167
 20
215.2277500978
 40
3.2
 50
315.0
 51
356.4096221093
  0
ARC
  8
0
 62
40
  6
CONTINUOUS
 10
66.7744853758
 20
214.8269634575
 40
3.2
 50
135.0
 51
176.4096221093
  0
ARC
  8
0
 62
40
  6
CONTINUOUS
 10
92.1212039385
 20
240.1736820202
 40
3.2
 50
93.5903778907
 51
135.0
  0
ARC
  8
0
 62
40
  6
CONTINUOUS
 10
91.7204172983
 20
246.5611204793
 40
3.2
 50
273.5903778907
 51
315.0
  0
ARC
  8
0
 62
40
  6
CONTINUOUS
 10
93.1346308606
 20
247.9753340417
 40
3.2
 50
315.0
 51
357.7455692247
  0
ARC
  8
0
 62
40
  6
CONTINUOUS
 10
140.0865211314
 20
201.0234437709
 40
3.2
 50
92.2544307753
 51
135.0
  0
ARC
  8
0
 62
40
  6
CONTINUOUS
 10
138.672307569
 20
199.6092302085
 40
3.2
 50
135.0
 51
176.4096221093
  0
ARC
  8
0
 62
40
  6
CONTINUOUS
 10
132.2848691099
 20
200.0100168488
 40
3.2
 50
315.0
 51
356.4096221093
  0
ARC
  8
0
 62
40
  6
CONTINUOUS
 10
106.9381505472
 20
174.6632982861
 40
3.2
 50
273.5903778907
 51
315.0
  0
ARC
  8
0
 62
40
  6
CONTINUOUS
 10
107.3389371875
 20
168.275859827
 40
3.2
 50
93.5903778907
 51
135.0
  0
ARC
  8
0
 62
40
  6
CONTINUOUS
 10
105.9247236251
 20
166.8616462646
 40
3.2
 50
135.0
 51
177.7455692247
  0
ARC
  8
0
 62
40
  6
CONTINUOUS
 10
99.5296772429
 20
167.1134036255
 40
3.2
 50
182.2544307753
 51
357.7455692247
  0
CIRCLE
  8
0
 62
7
  6
CONTINUOUS
 10
129.369583409
 20
168.3508404926
 40
1.275
  0
ARC
  8
0
 62
7
  6
CONTINUOUS
 10
131.3494823963
 20
174.1844714374
 40
1.0
 50
45.0
 51
135.0
  0
ARC
  8
0
 62
7
  6
CONTINUOUS
 10
128.803897984
 20
171.2146229564
 40
1.0
 50
225.0
 51
315.0
  0
ARC
  8
0
 62
7
  6
CONTINUOUS
 10
131.1008151992
 20
174.0772255965
 40
0.9
 50
135.0
 51
191.2510114041
  0
ARC
  8
0
 62
7
  6
CONTINUOUS
 10
129.0525651811
 20
171.3218687973
 40
0.9
 50
315.0
 51
11.2510114041
  0
ARC
  8
0
 62
7
  6
CONTINUOUS
 10
131.1373503619
 20
173.6894966906
 40
0.5
 50
135.0
 51
225.0
  0
ARC
  8
0
 62
7
  6
CONTINUOUS
 10
129.0160300184
 20
171.7095977033
 40
0.5
 50
315.0
 51
45.0
  0
ARC
  8
0
 62
7
  6
CONTINUOUS
 10
131.2434163791
 20
174.1491160983
 40
0.25
 50
45.0
 51
135.0
  0
ARC
  8
0
 62
7
  6
CONTINUOUS
 10
128.9099640012
 20
171.2499782955
 40
0.25
 50
225.0
 51
315.0
  0
CIRCLE
  8
0
 62
7
  6
CONTINUOUS
 10
99.5296772429
 20
207.4184901532
 40
55.35
  0
CIRCLE
  8
0
 62
4
  6
CONTINUOUS
 10
99.5296772429
 20
207.4184901532
 40
9.525
  0
ARC
  8
0
 62
40
  6
CONTINUOUS
 10
139.8347637705
 20
207.4184901532
 40
3.2
 50
272.2544307753
 51
87.7455692247
  0
ARC
  8
0
 62
40
  6
CONTINUOUS
 10
99.5296772429
 20
247.7235766808
 40
3.2
 50
2.2544307753
 51
177.7455692247
  0
ARC
  8
0
 62
40
  6
CONTINUOUS
 10
105.9247236251
 20
247.9753340417
 40
3.2
 50
182.2544307753
 51
225.0
  0
ARC
  8
0
 62
40
  6
CONTINUOUS
 10
107.3389371875
 20
246.5611204793
 40
3.2
 50
225.0
 51
266.4096221093
  0
ARC
  8
0
 62
40
  6
CONTINUOUS
 10
106.9381505472
 20
240.1736820202
 40
3.2
 50
45.0
 51
86.4096221093
  0
ARC
  8
0
 62
40
  6
CONTINUOUS
 10
132.2848691099
 20
214.8269634575
 40
3.2
 50
3.5903778907
 51
45.0
  0
ARC
  8
0
 62
40
  6
CONTINUOUS
 10
138.672307569
 20
215.2277500978
 40
3.2
 50
183.5903778907
 51
225.0
  0
ARC
  8
0
 62
40
  6
CONTINUOUS
 10
140.0865211314
 20
213.8135365354
 40
3.2
 50
225.0
 51
267.7455692247
  0
ARC
  8
0
 62
7
  6
CONTINUOUS
 10
46.1796772429
 20
92.9141137856
 40
2.0
 50
89.9999999982
 51
180.0
  0
ARC
  8
0
 62
7
  6
CONTINUOUS
 10
152.8796772429
 20
92.9141137856
 40
2.0
 50
0.0
 51
90.0000000018
  0
ARC
  8
0
 62
7
  6
CONTINUOUS
 10
46.1796772429
 20
76.9141137856
 40
2.0
 50
180.0
 51
270.0000000326
  0
ARC
  8
0
 62
7
  6
CONTINUOUS
 10
152.8796772429
 20
76.9141137856
 40
2.0
 50
269.9999999674
 51
360.0
  0
ENDSEC
  0
EOF
