  0
SECTION
  2
HEADER
  9
$EXTMAX
 10
210.0
 20
297.0
 30
0.0
  9
$EXTMIN
 10
0.0
 20
0.0
 30
0.0
  9
$LIMMIN
 10
0.0
 20
0.0
  9
$LIMMAX
 10
210.0
 20
297.0
  9
$VIEWCTR
 10
105.0
 20
148.5
  9
$VIEWSIZE
 40
297.0
  9
$CLAYER
  8
0
  9
$LTSCALE
 40
19.36
  9
$CELTYPE
  6
BYLAYER
  9
$DIMSCALE
 40
1.0
  9
$DIMASZ
 40
3.5
  9
$DIMEXO
 40
2.2
  9
$DIMDLI
 40
13.376
  9
$DIMEXE
 40
6.336
  9
$DIMCEN
 40
3.168
  9
$DIMLFAC
 40
1.0
  9
$DIMBLK
  1
_FILLED
  9
$DIMTXT
 40
3.5
  9
$PDMODE
 70
3
  9
$PDSIZE
 40
0.3125
  9
$TILEMODE
 70
1
  0
ENDSEC
  0
SECTION
  2
TABLES
  0
TABLE
  2
LTYPE
 70
6
  0
LTYPE
  2
BYBLOCK
 70
0
  3

 72
65
 73
0
 40
0.0
  0
LTYPE
  2
BYLAYER
 70
0
  3

 72
65
 73
0
 40
0.0
  0
LTYPE
  2
CONTINUOUS
 70
64
  3
Solid line
 72
65
 73
0
 40
0.0
  0
LTYPE
  2
CENTER
 70
64
  3
____ _ ____ _ ____ _ ____ _ ____ _ ____ _ ____
 72
65
 73
4
 40
0.6
 49
0.375
 49
-0.075
 49
0.075
 49
-0.075
  0
LTYPE
  2
HIDDEN
 70
64
  3
- - - - - - - - - - - - - - - - - - - -
 72
65
 73
2
 40
0.2
 49
0.1
 49
-0.1
  0
LTYPE
  2
PHANTOM
 70
64
  3
_____ _ _ _____ _ _ _____ _ _ _____
 72
65
 73
6
 40
0.8
 49
0.45
 49
-0.05
 49
0.1
 49
-0.05
 49
0.1
 49
-0.05
  0
LTYPE
  2
DOT
 70
64
  3
. . . . . . . . . . . . . . . . . . . .
 72
65
 73
2
 40
0.2
 49
0.1
 49
-0.1
  0
LTYPE
  2
DASHED
 70
64
  3
- - - - - - - - - - - - - - - - - - - -
 72
65
 73
2
 40
0.2
 49
0.1
 49
-0.1
  0
ENDTAB
  0
TABLE
  2
LAYER
 70
36
  0
LAYER
  2
0
 70
0
 62
7
  6
CONTINUOUS
  0
LAYER
  2
DEFAULT_1
 70
0
 62
7
  6
CENTER
  0
LAYER
  2
DEFAULT_2
 70
0
 62
8
  6
HIDDEN
  0
LAYER
  2
DEFAULT_3
 70
0
 62
7
  6
PHANTOM
  0
LAYER
  2
BLANK_CURVE
 70
0
 62
7
  6
CONTINUOUS
  0
LAYER
  2
HUB_SQ_NAV
 70
0
 62
7
  6
CONTINUOUS
  0
LAYER
  2
LAY0001
 70
0
 62
7
  6
CONTINUOUS
  0
ENDTAB
  0
TABLE
  2
STYLE
 70
1
  0
STYLE
  2
STANDARD
 70
0
 40
0.0
 41
0.8
 50
0.0
 71
0
 42
0.2
  3
txt
  4

  0
STYLE
  2
TEXTSTYLE_1
 70
0
 40
0.0
 41
0.8
 50
0.0
 71
0
 42
0.2
  3
gdt
  4

  0
STYLE
  2
TEXTSTYLE_2
 70
0
 40
0.0
 41
0.6
 50
0.0
 71
0
 42
0.2
  3
txt
  4

  0
STYLE
  2
TEXTSTYLE_3
 70
0
 40
0.0
 41
1.0
 50
0.0
 71
0
 42
0.2
  3
ftb_____.ttf
  4

  0
STYLE
  2
TEXTSTYLE_4
 70
0
 40
0.0
 41
1.0
 50
0.0
 71
0
 42
0.2
  3
fti_____.ttf
  4

  0
STYLE
  2
TEXTSTYLE_5
 70
0
 40
0.0
 41
1.0
 50
0.0
 71
0
 42
0.2
  3
frutiger light.ttf
  4

  0
STYLE
  2
TEXTSTYLE_6
 70
0
 40
0.0
 41
0.7
 50
0.0
 71
0
 42
0.2
  3
txt
  4

  0
STYLE
  2
TEXTSTYLE_7
 70
0
 40
0.0
 41
0.8
 50
0.0
 71
0
 42
0.2
  3
txt
  4

  0
ENDTAB
  0
ENDSEC
  0
SECTION
  2
BLOCKS
  0
BLOCK
  8
0
 62
2
  6
CONTINUOUS
  2
SYMBOL_8_BL1
 70
64
 10
173.5956734183
 20
35.5937998301
  0
TEXT
  8
0
 62
7
  6
CONTINUOUS
 10
164.6539584268
 20
30.6865562072
  7
TEXTSTYLE_4
 40
1.0655737705
  1
The brand for plastic modular belts and chains
 41
1.0
 72
0
  0
LINE
  8
0
 62
7
  6
CONTINUOUS
 10
149.5737418074
 20
36.1675703219
 11
149.5737418074
 21
34.0364227809
  0
LINE
  8
0
 62
7
  6
CONTINUOUS
 10
149.8628043005
 20
31.0454914852
 11
149.8628043005
 21
31.1422825445
  0
LINE
  8
0
 62
7
  6
CONTINUOUS
 10
149.5737418074
 20
31.1100188581
 11
149.6315543091
 21
30.9164367395
  0
LINE
  8
0
 62
7
  6
CONTINUOUS
 10
150.9671844304
 20
33.9544555678
 11
150.9671844304
 21
36.1675703219
  0
LINE
  8
0
 62
7
  6
CONTINUOUS
 10
151.8862417523
 20
32.1101932727
 11
151.8862417523
 21
30.5937998301
  0
LINE
  8
0
 62
7
  6
CONTINUOUS
 10
152.1753043074
 20
30.5937998301
 11
152.1753043074
 21
31.3358647082
  0
LINE
  8
0
 62
7
  6
CONTINUOUS
 10
152.1753043074
 20
31.4649194539
 11
152.1753043074
 21
32.1101932727
  0
LINE
  8
0
 62
7
  6
CONTINUOUS
 10
149.6315543091
 20
31.3036010218
 11
149.5737418074
 21
31.1100188581
  0
LINE
  8
0
 62
7
  6
CONTINUOUS
 10
149.9784292936
 20
30.8841730531
 11
149.8628043005
 21
31.0454914852
  0
LINE
  8
0
 62
7
  6
CONTINUOUS
 10
151.0768668626
 20
31.400392081
 11
151.1346793074
 21
31.3036010218
  0
LINE
  8
0
 62
7
  6
CONTINUOUS
 10
151.4237418626
 20
31.3036010218
 11
151.3659292523
 21
31.4326557675
  0
LINE
  8
0
 62
7
  6
CONTINUOUS
 10
152.852430332
 20
36.1675703219
 11
152.852430332
 21
34.3642916334
  0
LINE
  8
0
 62
7
  6
CONTINUOUS
 10
152.852430332
 20
33.0528162235
 11
152.852430332
 21
32.3970785186
  0
LINE
  8
0
 62
7
  6
CONTINUOUS
 10
153.2159293074
 20
31.2390736489
 11
153.2159293074
 21
30.5937998301
  0
LINE
  8
0
 62
7
  6
CONTINUOUS
 10
153.5049916972
 20
30.5937998301
 11
153.5049916972
 21
31.2390736489
  0
LINE
  8
0
 62
7
  6
CONTINUOUS
 10
149.8628043005
 20
31.1422825445
 11
149.9206168074
 21
31.2713373354
  0
LINE
  8
0
 62
7
  6
CONTINUOUS
 10
149.6315543091
 20
30.9164367395
 11
149.7471793074
 21
30.7873819712
  0
LINE
  8
0
 62
7
  6
CONTINUOUS
 10
153.1581166972
 20
31.3681283946
 11
153.2159293074
 21
31.2390736489
  0
LINE
  8
0
 62
7
  6
CONTINUOUS
 10
153.9674919177
 20
30.8841730531
 11
154.0253041972
 21
30.7551182848
  0
LINE
  8
0
 62
7
  6
CONTINUOUS
 10
153.5049916972
 20
31.2390736489
 11
153.4471794177
 21
31.400392081
  0
LINE
  8
0
 62
7
  6
CONTINUOUS
 10
153.9674919177
 20
31.4326557675
 11
153.9674919177
 21
31.3681283946
  0
LINE
  8
0
 62
7
  6
CONTINUOUS
 10
153.9674919177
 20
30.9809641124
 11
153.9674919177
 21
30.8841730531
  0
LINE
  8
0
 62
7
  6
CONTINUOUS
 10
154.245872955
 20
32.3970785186
 11
154.245872955
 21
36.1675703219
  0
LINE
  8
0
 62
7
  6
CONTINUOUS
 10
154.2565543074
 20
30.8519093441
 11
154.2565543074
 21
30.9164367395
  0
LINE
  8
0
 62
7
  6
CONTINUOUS
 10
154.5737418074
 20
36.1675703219
 11
154.5737418074
 21
32.3970785186
  0
LINE
  8
0
 62
7
  6
CONTINUOUS
 10
151.3659292523
 20
30.7873819712
 11
151.4237418626
 21
30.9164367395
  0
LINE
  8
0
 62
7
  6
CONTINUOUS
 10
155.759679528
 20
30.6905909007
 11
155.7018665869
 21
30.8519093441
  0
LINE
  8
0
 62
7
  6
CONTINUOUS
 10
155.412804528
 20
31.3681283946
 11
155.412804528
 21
31.2713373354
  0
LINE
  8
0
 62
7
  6
CONTINUOUS
 10
155.412804528
 20
31.1422825445
 11
155.412804528
 21
30.9487004259
  0
LINE
  8
0
 62
7
  6
CONTINUOUS
 10
155.7018665869
 20
30.8519093441
 11
155.7018665869
 21
31.3681283946
  0
LINE
  8
0
 62
7
  6
CONTINUOUS
 10
155.9671844304
 20
32.3970785186
 11
155.9671844304
 21
34.2003572071
  0
LINE
  8
0
 62
7
  6
CONTINUOUS
 10
155.9671844304
 20
35.511832617
 11
155.9671844304
 21
36.1675703219
  0
LINE
  8
0
 62
7
  6
CONTINUOUS
 10
156.279992028
 20
32.1101932727
 11
156.279992028
 21
31.9488748406
  0
LINE
  8
0
 62
7
  6
CONTINUOUS
 10
156.279992028
 20
31.626237886
 11
156.279992028
 21
30.5937998301
  0
LINE
  8
0
 62
7
  6
CONTINUOUS
 10
156.5690540869
 20
30.5937998301
 11
156.5690540869
 21
31.626237886
  0
LINE
  8
0
 62
7
  6
CONTINUOUS
 10
156.5690540869
 20
31.9488748406
 11
156.5690540869
 21
32.1101932727
  0
LINE
  8
0
 62
7
  6
CONTINUOUS
 10
151.1346793074
 20
30.9164367395
 11
151.0768668626
 21
30.8196456577
  0
LINE
  8
0
 62
7
  6
CONTINUOUS
 10
153.4471794177
 20
31.400392081
 11
153.3893668074
 21
31.4649194539
  0
LINE
  8
0
 62
7
  6
CONTINUOUS
 10
154.3143669177
 20
30.7873819712
 11
154.2565543074
 21
30.8519093441
  0
LINE
  8
0
 62
7
  6
CONTINUOUS
 10
155.4706168074
 20
30.6583272086
 11
155.5284290869
 21
30.5937998301
  0
LINE
  8
0
 62
7
  6
CONTINUOUS
 10
155.412804528
 20
30.7551182848
 11
155.4706168074
 21
30.6583272086
  0
LINE
  8
0
 62
7
  6
CONTINUOUS
 10
155.8174918074
 20
30.5937998301
 11
155.759679528
 21
30.6905909007
  0
LINE
  8
0
 62
7
  6
CONTINUOUS
 10
155.7018665869
 20
31.3681283946
 11
155.6440543074
 21
31.4649194539
  0
LINE
  8
0
 62
7
  6
CONTINUOUS
 10
157.0315543074
 20
31.626237886
 11
157.0315543074
 21
30.5937998301
  0
LINE
  8
0
 62
7
  6
CONTINUOUS
 10
157.320617028
 20
30.5937998301
 11
157.320617028
 21
31.3358647082
  0
LINE
  8
0
 62
7
  6
CONTINUOUS
 10
157.320617028
 20
31.4649194539
 11
157.320617028
 21
31.626237886
  0
LINE
  8
0
 62
7
  6
CONTINUOUS
 10
157.852430332
 20
34.6101932727
 11
157.852430332
 21
32.3970785186
  0
LINE
  8
0
 62
7
  6
CONTINUOUS
 10
149.7471793074
 20
31.4326557675
 11
149.6315543091
 21
31.3036010218
  0
LINE
  8
0
 62
7
  6
CONTINUOUS
 10
149.9206168074
 20
31.2713373354
 11
149.9784292936
 21
31.3358647082
  0
LINE
  8
0
 62
7
  6
CONTINUOUS
 10
149.7471793074
 20
30.7873819712
 11
149.8628043005
 21
30.7228545871
  0
LINE
  8
0
 62
7
  6
CONTINUOUS
 10
150.1518667936
 20
30.7873819712
 11
149.9784292936
 21
30.8841730531
  0
LINE
  8
0
 62
7
  6
CONTINUOUS
 10
155.3549915869
 20
31.4326557675
 11
155.412804528
 21
31.3681283946
  0
LINE
  8
0
 62
7
  6
CONTINUOUS
 10
158.3034290869
 20
31.3681283946
 11
158.361242028
 21
31.2068099625
  0
LINE
  8
0
 62
7
  6
CONTINUOUS
 10
158.6503040869
 20
31.2068099625
 11
158.5924918074
 21
31.3681283946
  0
LINE
  8
0
 62
7
  6
CONTINUOUS
 10
158.361242028
 20
31.2068099625
 11
158.361242028
 21
30.5937998301
  0
LINE
  8
0
 62
7
  6
CONTINUOUS
 10
158.6503040869
 20
30.5937998301
 11
158.6503040869
 21
31.2068099625
  0
LINE
  8
0
 62
7
  6
CONTINUOUS
 10
159.1128043074
 20
31.4326557675
 11
159.1128043074
 21
31.3681283946
  0
LINE
  8
0
 62
7
  6
CONTINUOUS
 10
159.245872955
 20
32.3970785186
 11
159.245872955
 21
34.5282260596
  0
LINE
  8
0
 62
7
  6
CONTINUOUS
 10
159.5737418074
 20
36.1675703219
 11
159.5737418074
 21
32.3970785186
  0
LINE
  8
0
 62
7
  6
CONTINUOUS
 10
154.2565543074
 20
30.9164367395
 11
154.3143669177
 21
31.0132277988
  0
LINE
  8
0
 62
7
  6
CONTINUOUS
 10
149.8628043005
 20
30.7228545871
 11
150.0362418212
 21
30.6583272086
  0
LINE
  8
0
 62
7
  6
CONTINUOUS
 10
151.3659292523
 20
31.4326557675
 11
151.1924917523
 21
31.5294468267
  0
LINE
  8
0
 62
7
  6
CONTINUOUS
 10
154.0253041972
 20
30.7551182848
 11
154.1987416972
 21
30.6583272086
  0
LINE
  8
0
 62
7
  6
CONTINUOUS
 10
153.0424918074
 20
31.4326557675
 11
153.1581166972
 21
31.3681283946
  0
LINE
  8
0
 62
7
  6
CONTINUOUS
 10
153.3893668074
 20
31.4649194539
 11
153.2737419177
 21
31.5294468267
  0
LINE
  8
0
 62
7
  6
CONTINUOUS
 10
159.1128043074
 20
30.8519093441
 11
159.228429528
 21
30.7228545871
  0
LINE
  8
0
 62
7
  6
CONTINUOUS
 10
159.4596793074
 20
30.7873819712
 11
159.401867028
 21
30.8519093441
  0
LINE
  8
0
 62
7
  6
CONTINUOUS
 10
159.1128043074
 20
31.3681283946
 11
159.228429528
 21
31.2390736489
  0
LINE
  8
0
 62
7
  6
CONTINUOUS
 10
158.5924918074
 20
31.3681283946
 11
158.534679528
 21
31.4649194539
  0
LINE
  8
0
 62
7
  6
CONTINUOUS
 10
160.9628038663
 20
30.7873819712
 11
160.9628038663
 21
30.8519093441
  0
LINE
  8
0
 62
7
  6
CONTINUOUS
 10
160.9671844304
 20
32.3970785186
 11
160.9671844304
 21
36.1675703219
  0
LINE
  8
0
 62
7
  6
CONTINUOUS
 10
154.0253041972
 20
31.4971831403
 11
153.9674919177
 21
31.4326557675
  0
LINE
  8
0
 62
7
  6
CONTINUOUS
 10
150.9034292799
 20
31.4649194539
 11
151.0768668626
 21
31.400392081
  0
LINE
  8
0
 62
7
  6
CONTINUOUS
 10
155.6440543074
 20
31.4649194539
 11
155.5284290869
 21
31.5294468267
  0
LINE
  8
0
 62
7
  6
CONTINUOUS
 10
159.4596793074
 20
31.3036010218
 11
159.401867028
 21
31.3681283946
  0
LINE
  8
0
 62
7
  6
CONTINUOUS
 10
160.615929528
 20
30.9164367395
 11
160.6737418074
 21
30.8519093441
  0
LINE
  8
0
 62
7
  6
CONTINUOUS
 10
160.9628038663
 20
30.8519093441
 11
160.8471793074
 21
30.9809641124
  0
LINE
  8
0
 62
7
  6
CONTINUOUS
 10
160.615929528
 20
31.4326557675
 11
160.6737418074
 21
31.3681283946
  0
LINE
  8
0
 62
7
  6
CONTINUOUS
 10
160.9628038663
 20
31.3681283946
 11
160.8471793074
 21
31.4971831403
  0
LINE
  8
0
 62
7
  6
CONTINUOUS
 10
154.2565543074
 20
31.3681283946
 11
154.3143669177
 21
31.4326557675
  0
LINE
  8
0
 62
7
  6
CONTINUOUS
 10
154.0831168074
 20
31.1100188581
 11
153.9674919177
 21
30.9809641124
  0
LINE
  8
0
 62
7
  6
CONTINUOUS
 10
155.412804528
 20
30.9487004259
 11
155.3549915869
 21
30.8841730531
  0
LINE
  8
0
 62
7
  6
CONTINUOUS
 10
155.3549915869
 20
30.6905909007
 11
155.412804528
 21
30.7551182848
  0
LINE
  8
0
 62
7
  6
CONTINUOUS
 10
154.1987416972
 20
30.6583272086
 11
154.3143669177
 21
30.6260635193
  0
LINE
  8
0
 62
7
  6
CONTINUOUS
 10
151.1924917523
 20
31.5294468267
 11
150.9612418074
 21
31.5939741996
  0
LINE
  8
0
 62
7
  6
CONTINUOUS
 10
154.5456166972
 20
30.7228545871
 11
154.3143669177
 21
30.7873819712
  0
LINE
  8
0
 62
7
  6
CONTINUOUS
 10
153.2737419177
 20
31.5294468267
 11
153.1003044177
 21
31.5939741996
  0
LINE
  8
0
 62
7
  6
CONTINUOUS
 10
155.5284290869
 20
31.5294468267
 11
155.3549915869
 21
31.5939741996
  0
LINE
  8
0
 62
7
  6
CONTINUOUS
 10
158.187804528
 20
31.4326557675
 11
158.3034290869
 21
31.3681283946
  0
LINE
  8
0
 62
7
  6
CONTINUOUS
 10
158.534679528
 20
31.4649194539
 11
158.4190543074
 21
31.5294468267
  0
LINE
  8
0
 62
7
  6
CONTINUOUS
 10
150.0362418212
 20
30.6583272086
 11
150.2096793212
 21
30.6260635193
  0
LINE
  8
0
 62
7
  6
CONTINUOUS
 10
150.498741835
 20
30.7228545871
 11
150.1518667936
 21
30.7873819712
  0
LINE
  8
0
 62
7
  6
CONTINUOUS
 10
152.9268669177
 20
31.4649194539
 11
153.0424918074
 21
31.4326557675
  0
LINE
  8
0
 62
7
  6
CONTINUOUS
 10
155.239367028
 20
31.4649194539
 11
155.3549915869
 21
31.4326557675
  0
LINE
  8
0
 62
7
  6
CONTINUOUS
 10
159.575304528
 20
30.7551182848
 11
159.4596793074
 21
30.7873819712
  0
LINE
  8
0
 62
7
  6
CONTINUOUS
 10
158.0721793074
 20
31.4649194539
 11
158.187804528
 21
31.4326557675
  0
LINE
  8
0
 62
7
  6
CONTINUOUS
 10
159.228429528
 20
30.7228545871
 11
159.401867028
 21
30.6583272086
  0
LINE
  8
0
 62
7
  6
CONTINUOUS
 10
158.4190543074
 20
31.5294468267
 11
158.2456168074
 21
31.5939741996
  0
LINE
  8
0
 62
7
  6
CONTINUOUS
 10
159.6331168074
 20
31.2390736489
 11
159.4596793074
 21
31.3036010218
  0
LINE
  8
0
 62
7
  6
CONTINUOUS
 10
160.442492028
 20
30.9809641124
 11
160.615929528
 21
30.9164367395
  0
LINE
  8
0
 62
7
  6
CONTINUOUS
 10
160.8471793074
 20
31.4971831403
 11
160.6737418074
 21
31.5617105132
  0
LINE
  8
0
 62
7
  6
CONTINUOUS
 10
159.228429528
 20
31.2390736489
 11
159.4596793074
 21
31.1422825445
  0
LINE
  8
0
 62
7
  6
CONTINUOUS
 10
160.8471793074
 20
30.9809641124
 11
160.615929528
 21
31.0777551716
  0
LINE
  8
0
 62
7
  6
CONTINUOUS
 10
159.401867028
 20
31.3681283946
 11
159.4596793074
 21
31.4326557675
  0
LINE
  8
0
 62
7
  6
CONTINUOUS
 10
149.8628043005
 20
31.4971831403
 11
149.7471793074
 21
31.4326557675
  0
LINE
  8
0
 62
7
  6
CONTINUOUS
 10
149.9784292936
 20
31.3358647082
 11
150.1518667936
 21
31.4326557675
  0
LINE
  8
0
 62
7
  6
CONTINUOUS
 10
152.2909293626
 20
31.5294468267
 11
152.1753043074
 21
31.4649194539
  0
LINE
  8
0
 62
7
  6
CONTINUOUS
 10
152.1753043074
 20
31.3358647082
 11
152.2909293626
 21
31.400392081
  0
LINE
  8
0
 62
7
  6
CONTINUOUS
 10
151.1924917523
 20
30.6905909007
 11
151.3659292523
 21
30.7873819712
  0
LINE
  8
0
 62
7
  6
CONTINUOUS
 10
150.2096793212
 20
30.6260635193
 11
150.5565542799
 21
30.5937998301
  0
LINE
  8
0
 62
7
  6
CONTINUOUS
 10
154.3143669177
 20
30.6260635193
 11
154.5456166972
 21
30.5937998301
  0
LINE
  8
0
 62
7
  6
CONTINUOUS
 10
152.6956168074
 20
31.4971831403
 11
152.9268669177
 21
31.4649194539
  0
LINE
  8
0
 62
7
  6
CONTINUOUS
 10
155.0081169177
 20
31.4971831403
 11
155.239367028
 21
31.4649194539
  0
LINE
  8
0
 62
7
  6
CONTINUOUS
 10
159.4596793074
 20
31.1422825445
 11
160.442492028
 21
30.9809641124
  0
LINE
  8
0
 62
7
  6
CONTINUOUS
 10
160.615929528
 20
31.0777551716
 11
159.6331168074
 21
31.2390736489
  0
LINE
  8
0
 62
7
  6
CONTINUOUS
 10
153.1003044177
 20
31.5939741996
 11
152.9268669177
 21
31.626237886
  0
LINE
  8
0
 62
7
  6
CONTINUOUS
 10
159.401867028
 20
30.6583272086
 11
159.575304528
 21
30.6260635193
  0
LINE
  8
0
 62
7
  6
CONTINUOUS
 10
158.2456168074
 20
31.5939741996
 11
158.0721793074
 21
31.626237886
  0
LINE
  8
0
 62
7
  6
CONTINUOUS
 10
160.5003043074
 20
31.4649194539
 11
160.615929528
 21
31.4326557675
  0
LINE
  8
0
 62
7
  6
CONTINUOUS
 10
160.6737418074
 20
30.8519093441
 11
160.615929528
 21
30.7873819712
  0
LINE
  8
0
 62
7
  6
CONTINUOUS
 10
159.228429528
 20
31.5294468267
 11
159.1128043074
 21
31.4326557675
  0
LINE
  8
0
 62
7
  6
CONTINUOUS
 10
154.1409294177
 20
31.5617105132
 11
154.0253041972
 21
31.4971831403
  0
LINE
  8
0
 62
7
  6
CONTINUOUS
 10
154.1987416972
 20
31.1745462761
 11
154.0831168074
 21
31.1100188581
  0
LINE
  8
0
 62
7
  6
CONTINUOUS
 10
154.3143669177
 20
31.0132277988
 11
154.4299918074
 21
31.0777551716
  0
LINE
  8
0
 62
7
  6
CONTINUOUS
 10
151.8862417523
 20
30.5937998301
 11
152.1753043074
 21
30.5937998301
  0
LINE
  8
0
 62
7
  6
CONTINUOUS
 10
153.2159293074
 20
30.5937998301
 11
153.5049916972
 21
30.5937998301
  0
LINE
  8
0
 62
7
  6
CONTINUOUS
 10
154.5456166972
 20
30.5937998301
 11
154.8924916972
 21
30.5937998301
  0
LINE
  8
0
 62
7
  6
CONTINUOUS
 10
155.5284290869
 20
30.5937998301
 11
155.8174918074
 21
30.5937998301
  0
LINE
  8
0
 62
7
  6
CONTINUOUS
 10
156.279992028
 20
30.5937998301
 11
156.5690540869
 21
30.5937998301
  0
LINE
  8
0
 62
7
  6
CONTINUOUS
 10
157.0315543074
 20
30.5937998301
 11
157.320617028
 21
30.5937998301
  0
LINE
  8
0
 62
7
  6
CONTINUOUS
 10
158.361242028
 20
30.5937998301
 11
158.6503040869
 21
30.5937998301
  0
LINE
  8
0
 62
7
  6
CONTINUOUS
 10
159.922179528
 20
30.5937998301
 11
160.269054528
 21
30.5937998301
  0
LINE
  8
0
 62
7
  6
CONTINUOUS
 10
160.269054528
 20
30.7228545871
 11
159.922179528
 21
30.7228545871
  0
LINE
  8
0
 62
7
  6
CONTINUOUS
 10
154.8924916972
 20
30.7228545871
 11
154.5456166972
 21
30.7228545871
  0
LINE
  8
0
 62
7
  6
CONTINUOUS
 10
159.401867028
 20
30.8519093441
 11
159.1128043074
 21
30.8519093441
  0
LINE
  8
0
 62
7
  6
CONTINUOUS
 10
151.4237418626
 20
30.9164367395
 11
151.1346793074
 21
30.9164367395
  0
LINE
  8
0
 62
7
  6
CONTINUOUS
 10
150.498741835
 20
31.4971831403
 11
150.9034292799
 21
31.4649194539
  0
LINE
  8
0
 62
7
  6
CONTINUOUS
 10
150.9612418074
 20
31.5939741996
 11
150.5565542799
 21
31.626237886
  0
LINE
  8
0
 62
7
  6
CONTINUOUS
 10
159.575304528
 20
30.6260635193
 11
159.922179528
 21
30.5937998301
  0
LINE
  8
0
 62
7
  6
CONTINUOUS
 10
159.922179528
 20
30.7228545871
 11
159.575304528
 21
30.7551182848
  0
LINE
  8
0
 62
7
  6
CONTINUOUS
 10
155.3549915869
 20
31.5939741996
 11
155.0081169177
 21
31.626237886
  0
LINE
  8
0
 62
7
  6
CONTINUOUS
 10
160.1534293074
 20
31.4971831403
 11
160.5003043074
 21
31.4649194539
  0
LINE
  8
0
 62
7
  6
CONTINUOUS
 10
160.5003043074
 20
31.5939741996
 11
160.1534293074
 21
31.626237886
  0
LINE
  8
0
 62
7
  6
CONTINUOUS
 10
157.840929528
 20
31.4971831403
 11
158.0721793074
 21
31.4649194539
  0
LINE
  8
0
 62
7
  6
CONTINUOUS
 10
160.6737418074
 20
31.5617105132
 11
160.5003043074
 21
31.5939741996
  0
LINE
  8
0
 62
7
  6
CONTINUOUS
 10
160.8471793074
 20
30.6905909007
 11
160.9628038663
 21
30.7873819712
  0
LINE
  8
0
 62
7
  6
CONTINUOUS
 10
155.3549915869
 20
30.8841730531
 11
155.1815540869
 21
30.7873819712
  0
LINE
  8
0
 62
7
  6
CONTINUOUS
 10
157.4362415869
 20
31.5294468267
 11
157.320617028
 21
31.4649194539
  0
LINE
  8
0
 62
7
  6
CONTINUOUS
 10
157.320617028
 20
31.3358647082
 11
157.4362415869
 21
31.400392081
  0
LINE
  8
0
 62
7
  6
CONTINUOUS
 10
150.0362418212
 20
31.5617105132
 11
149.8628043005
 21
31.4971831403
  0
LINE
  8
0
 62
7
  6
CONTINUOUS
 10
152.4643666972
 20
31.5939741996
 11
152.2909293626
 21
31.5294468267
  0
LINE
  8
0
 62
7
  6
CONTINUOUS
 10
152.2909293626
 20
31.400392081
 11
152.4643666972
 21
31.4649194539
  0
LINE
  8
0
 62
7
  6
CONTINUOUS
 10
151.0768668626
 20
30.8196456577
 11
150.9034292799
 21
30.7551182848
  0
LINE
  8
0
 62
7
  6
CONTINUOUS
 10
160.5003043074
 20
30.7551182848
 11
160.269054528
 21
30.7228545871
  0
LINE
  8
0
 62
7
  6
CONTINUOUS
 10
154.8924916972
 20
30.5937998301
 11
155.1815540869
 21
30.6260635193
  0
LINE
  8
0
 62
7
  6
CONTINUOUS
 10
160.269054528
 20
30.5937998301
 11
160.615929528
 21
30.6260635193
  0
LINE
  8
0
 62
7
  6
CONTINUOUS
 10
150.5565542799
 20
30.5937998301
 11
150.9612418074
 21
30.6260635193
  0
LINE
  8
0
 62
7
  6
CONTINUOUS
 10
150.9034292799
 20
30.7551182848
 11
150.498741835
 21
30.7228545871
  0
LINE
  8
0
 62
7
  6
CONTINUOUS
 10
154.7768668074
 20
31.1422825445
 11
155.412804528
 21
31.1422825445
  0
LINE
  8
0
 62
7
  6
CONTINUOUS
 10
155.412804528
 20
31.2713373354
 11
154.7768668074
 21
31.2713373354
  0
LINE
  8
0
 62
7
  6
CONTINUOUS
 10
151.1346793074
 20
31.3036010218
 11
151.4237418626
 21
31.3036010218
  0
LINE
  8
0
 62
7
  6
CONTINUOUS
 10
153.9674919177
 20
31.3681283946
 11
154.2565543074
 21
31.3681283946
  0
LINE
  8
0
 62
7
  6
CONTINUOUS
 10
160.6737418074
 20
31.3681283946
 11
160.9628038663
 21
31.3681283946
  0
LINE
  8
0
 62
7
  6
CONTINUOUS
 10
154.6612419177
 20
31.4971831403
 11
155.0081169177
 21
31.4971831403
  0
LINE
  8
0
 62
7
  6
CONTINUOUS
 10
159.8065543074
 20
31.4971831403
 11
160.1534293074
 21
31.4971831403
  0
LINE
  8
0
 62
7
  6
CONTINUOUS
 10
160.1534293074
 20
31.626237886
 11
159.8065543074
 21
31.626237886
  0
LINE
  8
0
 62
7
  6
CONTINUOUS
 10
158.0721793074
 20
31.626237886
 11
157.840929528
 21
31.626237886
  0
LINE
  8
0
 62
7
  6
CONTINUOUS
 10
157.320617028
 20
31.626237886
 11
157.0315543074
 21
31.626237886
  0
LINE
  8
0
 62
7
  6
CONTINUOUS
 10
156.5690540869
 20
31.626237886
 11
156.279992028
 21
31.626237886
  0
LINE
  8
0
 62
7
  6
CONTINUOUS
 10
155.0081169177
 20
31.626237886
 11
154.6612419177
 21
31.626237886
  0
LINE
  8
0
 62
7
  6
CONTINUOUS
 10
152.9268669177
 20
31.626237886
 11
152.6956168074
 21
31.626237886
  0
LINE
  8
0
 62
7
  6
CONTINUOUS
 10
156.279992028
 20
31.9488748406
 11
156.5690540869
 21
31.9488748406
  0
LINE
  8
0
 62
7
  6
CONTINUOUS
 10
156.5690540869
 20
32.1101932727
 11
156.279992028
 21
32.1101932727
  0
LINE
  8
0
 62
7
  6
CONTINUOUS
 10
152.1753043074
 20
32.1101932727
 11
151.8862417523
 21
32.1101932727
  0
LINE
  8
0
 62
7
  6
CONTINUOUS
 10
151.2130860697
 20
32.3970785186
 11
151.6256574183
 21
32.3970785186
  0
LINE
  8
0
 62
7
  6
CONTINUOUS
 10
152.852430332
 20
32.3970785186
 11
154.245872955
 21
32.3970785186
  0
LINE
  8
0
 62
7
  6
CONTINUOUS
 10
154.5737418074
 20
32.3970785186
 11
155.9671844304
 21
32.3970785186
  0
LINE
  8
0
 62
7
  6
CONTINUOUS
 10
157.852430332
 20
32.3970785186
 11
159.245872955
 21
32.3970785186
  0
LINE
  8
0
 62
7
  6
CONTINUOUS
 10
159.5737418074
 20
32.3970785186
 11
160.9671844304
 21
32.3970785186
  0
LINE
  8
0
 62
7
  6
CONTINUOUS
 10
157.6096790869
 20
31.5939741996
 11
157.4362415869
 21
31.5294468267
  0
LINE
  8
0
 62
7
  6
CONTINUOUS
 10
155.1815540869
 20
30.6260635193
 11
155.3549915869
 21
30.6905909007
  0
LINE
  8
0
 62
7
  6
CONTINUOUS
 10
160.615929528
 20
30.6260635193
 11
160.8471793074
 21
30.6905909007
  0
LINE
  8
0
 62
7
  6
CONTINUOUS
 10
160.615929528
 20
30.7873819712
 11
160.5003043074
 21
30.7551182848
  0
LINE
  8
0
 62
7
  6
CONTINUOUS
 10
159.575304528
 20
31.4649194539
 11
159.8065543074
 21
31.4971831403
  0
LINE
  8
0
 62
7
  6
CONTINUOUS
 10
157.6096790869
 20
31.4649194539
 11
157.840929528
 21
31.4971831403
  0
LINE
  8
0
 62
7
  6
CONTINUOUS
 10
154.5456166972
 20
31.1100188581
 11
154.7768668074
 21
31.1422825445
  0
LINE
  8
0
 62
7
  6
CONTINUOUS
 10
157.840929528
 20
31.626237886
 11
157.6096790869
 21
31.5939741996
  0
LINE
  8
0
 62
7
  6
CONTINUOUS
 10
154.4299918074
 20
31.4649194539
 11
154.6612419177
 21
31.4971831403
  0
LINE
  8
0
 62
7
  6
CONTINUOUS
 10
159.8065543074
 20
31.626237886
 11
159.4596793074
 21
31.5939741996
  0
LINE
  8
0
 62
7
  6
CONTINUOUS
 10
154.7768668074
 20
31.2713373354
 11
154.4299918074
 21
31.2390736489
  0
LINE
  8
0
 62
7
  6
CONTINUOUS
 10
150.5565542799
 20
31.626237886
 11
150.2096793212
 21
31.5939741996
  0
LINE
  8
0
 62
7
  6
CONTINUOUS
 10
154.6612419177
 20
31.626237886
 11
154.2565543074
 21
31.5939741996
  0
LINE
  8
0
 62
7
  6
CONTINUOUS
 10
152.0327582009
 20
33.5446195022
 11
151.3770204959
 21
33.5446195022
  0
LINE
  8
0
 62
7
  6
CONTINUOUS
 10
157.4362415869
 20
31.400392081
 11
157.6096790869
 21
31.4649194539
  0
LINE
  8
0
 62
7
  6
CONTINUOUS
 10
159.4596793074
 20
31.4326557675
 11
159.575304528
 21
31.4649194539
  0
LINE
  8
0
 62
7
  6
CONTINUOUS
 10
159.4596793074
 20
31.5939741996
 11
159.228429528
 21
31.5294468267
  0
LINE
  8
0
 62
7
  6
CONTINUOUS
 10
155.1815540869
 20
30.7873819712
 11
154.8924916972
 21
30.7228545871
  0
LINE
  8
0
 62
7
  6
CONTINUOUS
 10
152.4643666972
 20
31.4649194539
 11
152.6956168074
 21
31.4971831403
  0
LINE
  8
0
 62
7
  6
CONTINUOUS
 10
152.6956168074
 20
31.626237886
 11
152.4643666972
 21
31.5939741996
  0
LINE
  8
0
 62
7
  6
CONTINUOUS
 10
150.2674918074
 20
31.4649194539
 11
150.498741835
 21
31.4971831403
  0
LINE
  8
0
 62
7
  6
CONTINUOUS
 10
156.7868565615
 20
35.0200293383
 11
157.4425942664
 21
35.0200293383
  0
LINE
  8
0
 62
7
  6
CONTINUOUS
 10
154.4299918074
 20
31.0777551716
 11
154.5456166972
 21
31.1100188581
  0
LINE
  8
0
 62
7
  6
CONTINUOUS
 10
154.4299918074
 20
31.2390736489
 11
154.1987416972
 21
31.1745462761
  0
LINE
  8
0
 62
7
  6
CONTINUOUS
 10
154.3143669177
 20
31.4326557675
 11
154.4299918074
 21
31.4649194539
  0
LINE
  8
0
 62
7
  6
CONTINUOUS
 10
150.9612418074
 20
30.6260635193
 11
151.1924917523
 21
30.6905909007
  0
LINE
  8
0
 62
7
  6
CONTINUOUS
 10
154.2565543074
 20
31.5939741996
 11
154.1409294177
 21
31.5617105132
  0
LINE
  8
0
 62
7
  6
CONTINUOUS
 10
150.2096793212
 20
31.5939741996
 11
150.0362418212
 21
31.5617105132
  0
LINE
  8
0
 62
7
  6
CONTINUOUS
 10
160.9671844304
 20
36.1675703219
 11
159.5737418074
 21
36.1675703219
  0
LINE
  8
0
 62
7
  6
CONTINUOUS
 10
157.6065286927
 20
36.1675703219
 11
157.1939573441
 21
36.1675703219
  0
LINE
  8
0
 62
7
  6
CONTINUOUS
 10
155.9671844304
 20
36.1675703219
 11
154.5737418074
 21
36.1675703219
  0
LINE
  8
0
 62
7
  6
CONTINUOUS
 10
154.245872955
 20
36.1675703219
 11
152.852430332
 21
36.1675703219
  0
LINE
  8
0
 62
7
  6
CONTINUOUS
 10
150.9671844304
 20
36.1675703219
 11
149.5737418074
 21
36.1675703219
  0
LINE
  8
0
 62
7
  6
CONTINUOUS
 10
150.1518667936
 20
31.4326557675
 11
150.2674918074
 21
31.4649194539
  0
CIRCLE
  8
0
 62
7
  6
CONTINUOUS
 10
160.2704631189
 20
38.5036358957
 40
2.0901639344
  0
ARC
  8
0
 62
7
  6
CONTINUOUS
 10
151.2130860697
 20
34.0364227809
 40
1.6393442623
 50
180.0
 51
270.0
  0
ARC
  8
0
 62
7
  6
CONTINUOUS
 10
157.6065286927
 20
34.5282260596
 40
1.6393442623
 50
0.0
 51
90.0
  0
ARC
  8
0
 62
7
  6
CONTINUOUS
 10
151.6256574183
 20
33.8724883547
 40
1.4754098361
 50
270.0
 51
326.2510114041
  0
ARC
  8
0
 62
7
  6
CONTINUOUS
 10
157.1939573441
 20
34.6921604858
 40
1.4754098361
 50
90.0
 51
146.2510114041
  0
ARC
  8
0
 62
7
  6
CONTINUOUS
 10
152.0327582009
 20
34.3642916334
 40
0.8196721311
 50
270.0
 51
360.0
  0
ARC
  8
0
 62
7
  6
CONTINUOUS
 10
156.7868565615
 20
34.2003572071
 40
0.8196721311
 50
90.0
 51
180.0
  0
ARC
  8
0
 62
7
  6
CONTINUOUS
 10
151.3770204959
 20
33.9544555678
 40
0.4098360656
 50
180.0
 51
270.0
  0
ARC
  8
0
 62
7
  6
CONTINUOUS
 10
157.4425942664
 20
34.6101932727
 40
0.4098360656
 50
0.0
 51
90.0
  0
SOLID
  8
0
 62
7
  6
CONTINUOUS
 10
156.279992028
 20
31.9488752009
 11
156.279992028
 21
32.1101936845
 12
156.5690540869
 22
31.9488752009
 13
156.5690540869
 23
32.1101936845
  0
SOLID
  8
0
 62
7
  6
CONTINUOUS
 10
150.5565542799
 20
31.6262382337
 11
150.9612418074
 21
31.5939740028
 12
150.2096793212
 22
31.5939740028
 13
150.2096793212
 23
31.5939740028
  0
SOLID
  8
0
 62
7
  6
CONTINUOUS
 10
150.0362418212
 20
31.5617111435
 11
150.2096793212
 21
31.5939740028
 12
150.9612418074
 22
31.5939740028
 13
150.9612418074
 23
31.5939740028
  0
SOLID
  8
0
 62
7
  6
CONTINUOUS
 10
150.9612418074
 20
31.5939740028
 11
151.1924917523
 21
31.5294468402
 12
150.0362418212
 22
31.5617111435
 13
150.0362418212
 23
31.5617111435
  0
SOLID
  8
0
 62
7
  6
CONTINUOUS
 10
149.8628043005
 20
31.49718259
 11
150.0362418212
 21
31.5617111435
 12
151.1924917523
 22
31.5294468402
 13
151.1924917523
 23
31.5294468402
  0
SOLID
  8
0
 62
7
  6
CONTINUOUS
 10
149.8628043005
 20
31.49718259
 11
151.1924917523
 21
31.5294468402
 12
150.498741835
 22
31.49718259
 13
150.498741835
 23
31.49718259
  0
SOLID
  8
0
 62
7
  6
CONTINUOUS
 10
150.498741835
 20
31.49718259
 11
151.1924917523
 21
31.5294468402
 12
150.9034292799
 22
31.4649197501
 13
150.9034292799
 23
31.4649197501
  0
SOLID
  8
0
 62
7
  6
CONTINUOUS
 10
151.1924917523
 20
31.5294468402
 11
151.3659292523
 21
31.4326554468
 12
150.9034292799
 22
31.4649197501
 13
150.9034292799
 23
31.4649197501
  0
SOLID
  8
0
 62
7
  6
CONTINUOUS
 10
151.0768668626
 20
31.4003926599
 11
150.9034292799
 21
31.4649197501
 12
151.3659292523
 22
31.4326554468
 13
151.3659292523
 23
31.4326554468
  0
SOLID
  8
0
 62
7
  6
CONTINUOUS
 10
151.0768668626
 20
31.4003926599
 11
151.3659292523
 21
31.4326554468
 12
151.1346793074
 22
31.3036013776
 13
151.1346793074
 23
31.3036013776
  0
SOLID
  8
0
 62
7
  6
CONTINUOUS
 10
151.3659292523
 20
31.4326554468
 11
151.4237418626
 21
31.3036013776
 12
151.1346793074
 22
31.3036013776
 13
151.1346793074
 23
31.3036013776
  0
SOLID
  8
0
 62
7
  6
CONTINUOUS
 10
152.4643666972
 20
31.5939739754
 11
152.6956168074
 21
31.6262382787
 12
152.9268669177
 22
31.6262382787
 13
152.9268669177
 23
31.6262382787
  0
SOLID
  8
0
 62
7
  6
CONTINUOUS
 10
152.9268669177
 20
31.6262382787
 11
153.1003044177
 21
31.5939739754
 12
152.4643666972
 22
31.5939739754
 13
152.4643666972
 23
31.5939739754
  0
SOLID
  8
0
 62
7
  6
CONTINUOUS
 10
152.2909293626
 20
31.5294468852
 11
152.4643666972
 21
31.5939739754
 12
153.1003044177
 22
31.5939739754
 13
153.1003044177
 23
31.5939739754
  0
SOLID
  8
0
 62
7
  6
CONTINUOUS
 10
153.1003044177
 20
31.5939739754
 11
153.2737419177
 21
31.5294468852
 12
152.2909293626
 22
31.5294468852
 13
152.2909293626
 23
31.5294468852
  0
SOLID
  8
0
 62
7
  6
CONTINUOUS
 10
153.2737419177
 20
31.5294468852
 11
152.6956168074
 21
31.4971825369
 12
152.2909293626
 22
31.5294468852
 13
152.2909293626
 23
31.5294468852
  0
SOLID
  8
0
 62
7
  6
CONTINUOUS
 10
152.1753043074
 20
31.4649197951
 11
152.2909293626
 21
31.5294468852
 12
152.6956168074
 22
31.4971825369
 13
152.6956168074
 23
31.4971825369
  0
SOLID
  8
0
 62
7
  6
CONTINUOUS
 10
152.6956168074
 20
31.4971825369
 11
152.4643666972
 21
31.4649197951
 12
152.1753043074
 22
31.4649197951
 13
152.1753043074
 23
31.4649197951
  0
SOLID
  8
0
 62
7
  6
CONTINUOUS
 10
152.6956168074
 20
31.4971825369
 11
153.2737419177
 21
31.5294468852
 12
152.9268669177
 22
31.4649197951
 13
152.9268669177
 23
31.4649197951
  0
SOLID
  8
0
 62
7
  6
CONTINUOUS
 10
153.2737419177
 20
31.5294468852
 11
153.3893668074
 21
31.4649197951
 12
152.9268669177
 22
31.4649197951
 13
152.9268669177
 23
31.4649197951
  0
SOLID
  8
0
 62
7
  6
CONTINUOUS
 10
153.0424918074
 20
31.4326554468
 11
152.9268669177
 21
31.4649197951
 12
153.3893668074
 22
31.4649197951
 13
153.3893668074
 23
31.4649197951
  0
SOLID
  8
0
 62
7
  6
CONTINUOUS
 10
153.3893668074
 20
31.4649197951
 11
153.4471794177
 21
31.4003927049
 12
153.0424918074
 22
31.4326554468
 13
153.0424918074
 23
31.4326554468
  0
SOLID
  8
0
 62
7
  6
CONTINUOUS
 10
153.1581166972
 20
31.3681283566
 11
153.0424918074
 21
31.4326554468
 12
153.4471794177
 22
31.4003927049
 13
153.4471794177
 23
31.4003927049
  0
SOLID
  8
0
 62
7
  6
CONTINUOUS
 10
153.1581166972
 20
31.3681283566
 11
153.4471794177
 21
31.4003927049
 12
153.2159293074
 22
31.2390742213
 13
153.2159293074
 23
31.2390742213
  0
SOLID
  8
0
 62
7
  6
CONTINUOUS
 10
153.4471794177
 20
31.4003927049
 11
153.5049916972
 21
31.2390742213
 12
153.2159293074
 22
31.2390742213
 13
153.2159293074
 23
31.2390742213
  0
SOLID
  8
0
 62
7
  6
CONTINUOUS
 10
152.4643666972
 20
31.4649197951
 11
152.2909293626
 21
31.4003927049
 12
152.1753043074
 22
31.4649197951
 13
152.1753043074
 23
31.4649197951
  0
SOLID
  8
0
 62
7
  6
CONTINUOUS
 10
152.2909293626
 20
31.4003927049
 11
152.1753043074
 21
31.3358640533
 12
152.1753043074
 22
31.4649197951
 13
152.1753043074
 23
31.4649197951
  0
SOLID
  8
0
 62
7
  6
CONTINUOUS
 10
152.1753043074
 20
31.3358640533
 11
151.8862417523
 21
30.5938002869
 12
152.1753043074
 22
31.4649197951
 13
152.1753043074
 23
31.4649197951
  0
SOLID
  8
0
 62
7
  6
CONTINUOUS
 10
152.1753043074
 20
31.4649197951
 11
151.8862417523
 21
30.5938002869
 12
152.1753043074
 22
32.1101937295
 13
152.1753043074
 23
32.1101937295
  0
SOLID
  8
0
 62
7
  6
CONTINUOUS
 10
151.8862417523
 20
30.5938002869
 11
151.8862417523
 21
32.1101937295
 12
152.1753043074
 22
32.1101937295
 13
152.1753043074
 23
32.1101937295
  0
SOLID
  8
0
 62
7
  6
CONTINUOUS
 10
152.1753043074
 20
31.3358640533
 11
152.1753043074
 21
30.5938002869
 12
151.8862417523
 22
30.5938002869
 13
151.8862417523
 23
30.5938002869
  0
SOLID
  8
0
 62
7
  6
CONTINUOUS
 10
153.2159293074
 20
30.5938002869
 11
153.2159293074
 21
31.2390742213
 12
153.5049916972
 22
31.2390742213
 13
153.5049916972
 23
31.2390742213
  0
SOLID
  8
0
 62
7
  6
CONTINUOUS
 10
153.5049916972
 20
31.2390742213
 11
153.5049916972
 21
30.5938002869
 12
153.2159293074
 22
30.5938002869
 13
153.2159293074
 23
30.5938002869
  0
SOLID
  8
0
 62
7
  6
CONTINUOUS
 10
154.2565543074
 20
31.5939738288
 11
154.6612419177
 21
31.6262385959
 12
155.0081169177
 22
31.6262385959
 13
155.0081169177
 23
31.6262385959
  0
SOLID
  8
0
 62
7
  6
CONTINUOUS
 10
155.0081169177
 20
31.6262385959
 11
155.3549915869
 21
31.5939738288
 12
154.2565543074
 22
31.5939738288
 13
154.2565543074
 23
31.5939738288
  0
SOLID
  8
0
 62
7
  6
CONTINUOUS
 10
154.1409294177
 20
31.5617111435
 11
154.2565543074
 21
31.5939738288
 12
155.3549915869
 22
31.5939738288
 13
155.3549915869
 23
31.5939738288
  0
SOLID
  8
0
 62
7
  6
CONTINUOUS
 10
155.3549915869
 20
31.5939738288
 11
155.5284290869
 21
31.5294468402
 12
154.1409294177
 22
31.5617111435
 13
154.1409294177
 23
31.5617111435
  0
SOLID
  8
0
 62
7
  6
CONTINUOUS
 10
154.0253041972
 20
31.4971826249
 11
154.1409294177
 21
31.5617111435
 12
155.5284290869
 22
31.5294468402
 13
155.5284290869
 23
31.5294468402
  0
SOLID
  8
0
 62
7
  6
CONTINUOUS
 10
154.0253041972
 20
31.4971826249
 11
155.5284290869
 21
31.5294468402
 12
154.6612419177
 22
31.4971826249
 13
154.6612419177
 23
31.4971826249
  0
SOLID
  8
0
 62
7
  6
CONTINUOUS
 10
154.6612419177
 20
31.4971826249
 11
155.5284290869
 21
31.5294468402
 12
155.0081169177
 22
31.4971826249
 13
155.0081169177
 23
31.4971826249
  0
SOLID
  8
0
 62
7
  6
CONTINUOUS
 10
155.0081169177
 20
31.4971826249
 11
155.5284290869
 21
31.5294468402
 12
155.239367028
 22
31.4649194065
 13
155.239367028
 23
31.4649194065
  0
SOLID
  8
0
 62
7
  6
CONTINUOUS
 10
155.5284290869
 20
31.5294468402
 11
155.6440543074
 21
31.4649194065
 12
155.239367028
 22
31.4649194065
 13
155.239367028
 23
31.4649194065
  0
SOLID
  8
0
 62
7
  6
CONTINUOUS
 10
153.9674919177
 20
31.4326554138
 11
154.0253041972
 21
31.4971826249
 12
154.6612419177
 22
31.4971826249
 13
154.6612419177
 23
31.4971826249
  0
SOLID
  8
0
 62
7
  6
CONTINUOUS
 10
155.3549915869
 20
31.4326554138
 11
155.239367028
 21
31.4649194065
 12
155.6440543074
 22
31.4649194065
 13
155.6440543074
 23
31.4649194065
  0
SOLID
  8
0
 62
7
  6
CONTINUOUS
 10
155.3549915869
 20
31.4326554138
 11
155.6440543074
 21
31.4649194065
 12
155.412804528
 22
31.3681282026
 13
155.412804528
 23
31.3681282026
  0
SOLID
  8
0
 62
7
  6
CONTINUOUS
 10
155.6440543074
 20
31.4649194065
 11
155.7018665869
 21
31.3681282026
 12
155.412804528
 22
31.3681282026
 13
155.412804528
 23
31.3681282026
  0
SOLID
  8
0
 62
7
  6
CONTINUOUS
 10
155.412804528
 20
31.2713369632
 11
155.412804528
 21
31.3681282026
 12
155.7018665869
 22
31.3681282026
 13
155.7018665869
 23
31.3681282026
  0
SOLID
  8
0
 62
7
  6
CONTINUOUS
 10
155.412804528
 20
31.2713369632
 11
155.7018665869
 21
31.3681282026
 12
155.412804528
 22
31.1422827828
 13
155.412804528
 23
31.1422827828
  0
SOLID
  8
0
 62
7
  6
CONTINUOUS
 10
155.412804528
 20
31.1422827828
 11
155.7018665869
 21
31.3681282026
 12
155.412804528
 22
30.9487004259
 13
155.412804528
 23
30.9487004259
  0
SOLID
  8
0
 62
7
  6
CONTINUOUS
 10
155.7018665869
 20
31.3681282026
 11
155.7018665869
 21
30.8519086025
 12
155.412804528
 22
30.9487004259
 13
155.412804528
 23
30.9487004259
  0
SOLID
  8
0
 62
7
  6
CONTINUOUS
 10
157.6096790869
 20
31.5939736268
 11
157.840929528
 21
31.6262383465
 12
158.0721793074
 22
31.6262383465
 13
158.0721793074
 23
31.6262383465
  0
SOLID
  8
0
 62
7
  6
CONTINUOUS
 10
158.0721793074
 20
31.6262383465
 11
158.2456168074
 21
31.5939736268
 12
157.6096790869
 22
31.5939736268
 13
157.6096790869
 23
31.5939736268
  0
SOLID
  8
0
 62
7
  6
CONTINUOUS
 10
157.4362415869
 20
31.5294472848
 11
157.6096790869
 21
31.5939736268
 12
158.2456168074
 22
31.5939736268
 13
158.2456168074
 23
31.5939736268
  0
SOLID
  8
0
 62
7
  6
CONTINUOUS
 10
158.2456168074
 20
31.5939736268
 11
158.4190543074
 21
31.5294472848
 12
157.4362415869
 22
31.5294472848
 13
157.4362415869
 23
31.5294472848
  0
SOLID
  8
0
 62
7
  6
CONTINUOUS
 10
158.4190543074
 20
31.5294472848
 11
157.840929528
 21
31.4971825369
 12
157.4362415869
 22
31.5294472848
 13
157.4362415869
 23
31.5294472848
  0
SOLID
  8
0
 62
7
  6
CONTINUOUS
 10
157.320617028
 20
31.4649199103
 11
157.4362415869
 21
31.5294472848
 12
157.840929528
 22
31.4971825369
 13
157.840929528
 23
31.4971825369
  0
SOLID
  8
0
 62
7
  6
CONTINUOUS
 10
157.840929528
 20
31.4971825369
 11
157.6096790869
 21
31.4649199103
 12
157.320617028
 22
31.4649199103
 13
157.320617028
 23
31.4649199103
  0
SOLID
  8
0
 62
7
  6
CONTINUOUS
 10
157.840929528
 20
31.4971825369
 11
158.4190543074
 21
31.5294472848
 12
158.0721793074
 22
31.4649199103
 13
158.0721793074
 23
31.4649199103
  0
SOLID
  8
0
 62
7
  6
CONTINUOUS
 10
158.4190543074
 20
31.5294472848
 11
158.534679528
 21
31.4649199103
 12
158.0721793074
 22
31.4649199103
 13
158.0721793074
 23
31.4649199103
  0
SOLID
  8
0
 62
7
  6
CONTINUOUS
 10
158.187804528
 20
31.4326554468
 11
158.0721793074
 21
31.4649199103
 12
158.534679528
 22
31.4649199103
 13
158.534679528
 23
31.4649199103
  0
SOLID
  8
0
 62
7
  6
CONTINUOUS
 10
158.187804528
 20
31.4326554468
 11
158.534679528
 21
31.4649199103
 12
158.3034290869
 22
31.3681288486
 13
158.3034290869
 23
31.3681288486
  0
SOLID
  8
0
 62
7
  6
CONTINUOUS
 10
158.534679528
 20
31.4649199103
 11
158.5924918074
 21
31.3681288486
 12
158.3034290869
 22
31.3681288486
 13
158.3034290869
 23
31.3681288486
  0
SOLID
  8
0
 62
7
  6
CONTINUOUS
 10
158.361242028
 20
31.2068093799
 11
158.3034290869
 21
31.3681288486
 12
158.5924918074
 22
31.3681288486
 13
158.5924918074
 23
31.3681288486
  0
SOLID
  8
0
 62
7
  6
CONTINUOUS
 10
158.5924918074
 20
31.3681288486
 11
158.6503040869
 21
31.2068093799
 12
158.361242028
 22
31.2068093799
 13
158.361242028
 23
31.2068093799
  0
SOLID
  8
0
 62
7
  6
CONTINUOUS
 10
157.6096790869
 20
31.4649199103
 11
157.4362415869
 21
31.4003926599
 12
157.320617028
 22
31.4649199103
 13
157.320617028
 23
31.4649199103
  0
SOLID
  8
0
 62
7
  6
CONTINUOUS
 10
157.4362415869
 20
31.4003926599
 11
157.320617028
 21
31.3358640533
 12
157.320617028
 22
31.4649199103
 13
157.320617028
 23
31.4649199103
  0
SOLID
  8
0
 62
7
  6
CONTINUOUS
 10
157.320617028
 20
31.3358640533
 11
157.0315543074
 21
30.5938003547
 12
157.320617028
 22
31.4649199103
 13
157.320617028
 23
31.4649199103
  0
SOLID
  8
0
 62
7
  6
CONTINUOUS
 10
157.320617028
 20
31.4649199103
 11
157.0315543074
 21
30.5938003547
 12
157.320617028
 22
31.6262383465
 13
157.320617028
 23
31.6262383465
  0
SOLID
  8
0
 62
7
  6
CONTINUOUS
 10
157.0315543074
 20
30.5938003547
 11
157.0315543074
 21
31.6262383465
 12
157.320617028
 22
31.6262383465
 13
157.320617028
 23
31.6262383465
  0
SOLID
  8
0
 62
7
  6
CONTINUOUS
 10
157.320617028
 20
31.3358640533
 11
157.320617028
 21
30.5938003547
 12
157.0315543074
 22
30.5938003547
 13
157.0315543074
 23
30.5938003547
  0
SOLID
  8
0
 62
7
  6
CONTINUOUS
 10
158.361242028
 20
30.5938003547
 11
158.361242028
 21
31.2068093799
 12
158.6503040869
 22
31.2068093799
 13
158.6503040869
 23
31.2068093799
  0
SOLID
  8
0
 62
7
  6
CONTINUOUS
 10
158.6503040869
 20
31.2068093799
 11
158.6503040869
 21
30.5938003547
 12
158.361242028
 22
30.5938003547
 13
158.361242028
 23
30.5938003547
  0
SOLID
  8
0
 62
7
  6
CONTINUOUS
 10
159.4596793074
 20
31.5939739474
 11
159.8065543074
 21
31.6262381969
 12
160.1534293074
 22
31.6262381969
 13
160.1534293074
 23
31.6262381969
  0
SOLID
  8
0
 62
7
  6
CONTINUOUS
 10
160.1534293074
 20
31.6262381969
 11
160.5003043074
 21
31.5939739474
 12
159.4596793074
 22
31.5939739474
 13
159.4596793074
 23
31.5939739474
  0
SOLID
  8
0
 62
7
  6
CONTINUOUS
 10
159.228429528
 20
31.5294468402
 11
159.4596793074
 21
31.5939739474
 12
160.5003043074
 22
31.5939739474
 13
160.5003043074
 23
31.5939739474
  0
SOLID
  8
0
 62
7
  6
CONTINUOUS
 10
159.228429528
 20
31.5294468402
 11
160.5003043074
 21
31.5939739304
 12
160.6737418074
 22
31.5617111435
 13
160.6737418074
 23
31.5617111435
  0
SOLID
  8
0
 62
7
  6
CONTINUOUS
 10
159.228429528
 20
31.5294468402
 11
160.6737418074
 21
31.5617111435
 12
159.8065543074
 22
31.4971825592
 13
159.8065543074
 23
31.4971825592
  0
SOLID
  8
0
 62
7
  6
CONTINUOUS
 10
159.8065543074
 20
31.4971825592
 11
160.6737418074
 21
31.5617111435
 12
160.1534293074
 22
31.4971825592
 13
160.1534293074
 23
31.4971825592
  0
SOLID
  8
0
 62
7
  6
CONTINUOUS
 10
160.6737418074
 20
31.5617111435
 11
160.8471793074
 21
31.4971825592
 12
160.1534293074
 22
31.4971825592
 13
160.1534293074
 23
31.4971825592
  0
SOLID
  8
0
 62
7
  6
CONTINUOUS
 10
160.5003043074
 20
31.4649197501
 11
160.1534293074
 21
31.4971825592
 12
160.8471793074
 22
31.4971825592
 13
160.8471793074
 23
31.4971825592
  0
SOLID
  8
0
 62
7
  6
CONTINUOUS
 10
159.1128043074
 20
31.4326555427
 11
159.228429528
 21
31.5294468402
 12
159.8065543074
 22
31.4971825592
 13
159.8065543074
 23
31.4971825592
  0
SOLID
  8
0
 62
7
  6
CONTINUOUS
 10
160.5003043074
 20
31.4649197501
 11
160.8471793074
 21
31.4971825592
 12
160.615929528
 22
31.4326555427
 13
160.615929528
 23
31.4326555427
  0
SOLID
  8
0
 62
7
  6
CONTINUOUS
 10
160.615929528
 20
31.4326555427
 11
160.8471793074
 21
31.4971825592
 12
160.6737418074
 22
31.3681283005
 13
160.6737418074
 23
31.3681283005
  0
SOLID
  8
0
 62
7
  6
CONTINUOUS
 10
160.8471793074
 20
31.4971825592
 11
160.9628038663
 21
31.3681283005
 12
160.6737418074
 22
31.3681283005
 13
160.6737418074
 23
31.3681283005
  0
SOLID
  8
0
 62
7
  6
CONTINUOUS
 10
150.2674918074
 20
31.4649197501
 11
149.7471793074
 21
31.4326554237
 12
150.498741835
 22
31.4971824493
 13
150.498741835
 23
31.4971824493
  0
SOLID
  8
0
 62
7
  6
CONTINUOUS
 10
149.7471793074
 20
31.4326554237
 11
149.8628043005
 21
31.4971824493
 12
150.498741835
 22
31.4971824493
 13
150.498741835
 23
31.4971824493
  0
SOLID
  8
0
 62
7
  6
CONTINUOUS
 10
150.2674918074
 20
31.4649197501
 11
150.1518667936
 21
31.4326554237
 12
149.7471793074
 22
31.4326554237
 13
149.7471793074
 23
31.4326554237
  0
SOLID
  8
0
 62
7
  6
CONTINUOUS
 10
149.6315543091
 20
31.3036012664
 11
149.7471793074
 21
31.4326554237
 12
150.1518667936
 22
31.4326554237
 13
150.1518667936
 23
31.4326554237
  0
SOLID
  8
0
 62
7
  6
CONTINUOUS
 10
153.9674919177
 20
31.4326554237
 11
154.6612419177
 21
31.4971825369
 12
154.4299918074
 22
31.4649197501
 13
154.4299918074
 23
31.4649197501
  0
SOLID
  8
0
 62
7
  6
CONTINUOUS
 10
154.4299918074
 20
31.4649197501
 11
154.3143669177
 21
31.4326554237
 12
153.9674919177
 22
31.4326554237
 13
153.9674919177
 23
31.4326554237
  0
SOLID
  8
0
 62
7
  6
CONTINUOUS
 10
153.9674919177
 20
31.3681283335
 11
153.9674919177
 21
31.4326554237
 12
154.3143669177
 22
31.4326554237
 13
154.3143669177
 23
31.4326554237
  0
SOLID
  8
0
 62
7
  6
CONTINUOUS
 10
154.3143669177
 20
31.4326554237
 11
154.2565543074
 21
31.3681283335
 12
153.9674919177
 22
31.3681283335
 13
153.9674919177
 23
31.3681283335
  0
SOLID
  8
0
 62
7
  6
CONTINUOUS
 10
159.1128043074
 20
31.4326555528
 11
159.8065543074
 21
31.4971825369
 12
159.575304528
 22
31.4649197501
 13
159.575304528
 23
31.4649197501
  0
SOLID
  8
0
 62
7
  6
CONTINUOUS
 10
159.575304528
 20
31.4649197501
 11
159.4596793074
 21
31.4326555528
 12
159.1128043074
 22
31.4326555528
 13
159.1128043074
 23
31.4326555528
  0
SOLID
  8
0
 62
7
  6
CONTINUOUS
 10
159.1128043074
 20
31.3681284626
 11
159.1128043074
 21
31.4326555528
 12
159.4596793074
 22
31.4326555528
 13
159.4596793074
 23
31.4326555528
  0
SOLID
  8
0
 62
7
  6
CONTINUOUS
 10
159.4596793074
 20
31.4326555528
 11
159.401867028
 21
31.3681284626
 12
159.1128043074
 22
31.3681284626
 13
159.1128043074
 23
31.3681284626
  0
SOLID
  8
0
 62
7
  6
CONTINUOUS
 10
159.228429528
 20
31.2390741763
 11
159.1128043074
 21
31.3681284626
 12
159.401867028
 22
31.3681284626
 13
159.401867028
 23
31.3681284626
  0
SOLID
  8
0
 62
7
  6
CONTINUOUS
 10
149.6315543091
 20
31.3036012664
 11
150.1518667936
 21
31.4326554468
 12
149.9784292936
 22
31.3358640533
 13
149.9784292936
 23
31.3358640533
  0
SOLID
  8
0
 62
7
  6
CONTINUOUS
 10
149.9784292936
 20
31.3358640533
 11
149.9206168074
 21
31.2713369632
 12
149.6315543091
 22
31.3036012664
 13
149.6315543091
 23
31.3036012664
  0
SOLID
  8
0
 62
7
  6
CONTINUOUS
 10
149.5737418074
 20
31.1100184796
 11
149.6315543091
 21
31.3036012664
 12
149.9206168074
 22
31.2713369632
 13
149.9206168074
 23
31.2713369632
  0
SOLID
  8
0
 62
7
  6
CONTINUOUS
 10
154.4299918074
 20
31.2390741763
 11
154.7768668074
 21
31.271336924
 12
155.412804528
 22
31.271336924
 13
155.412804528
 23
31.271336924
  0
SOLID
  8
0
 62
7
  6
CONTINUOUS
 10
154.4299918074
 20
31.2390741763
 11
155.412804528
 21
31.271336924
 12
154.1987416972
 22
31.1745462761
 13
154.1987416972
 23
31.1745462761
  0
SOLID
  8
0
 62
7
  6
CONTINUOUS
 10
154.1987416972
 20
31.1745462761
 11
155.412804528
 21
31.271336924
 12
154.7768668074
 22
31.1422827436
 13
154.7768668074
 23
31.1422827436
  0
SOLID
  8
0
 62
7
  6
CONTINUOUS
 10
155.412804528
 20
31.271336924
 11
155.412804528
 21
31.1422827436
 12
154.7768668074
 22
31.1422827436
 13
154.7768668074
 23
31.1422827436
  0
SOLID
  8
0
 62
7
  6
CONTINUOUS
 10
159.228429528
 20
31.2390745501
 11
159.401867028
 21
31.3681283566
 12
159.4596793074
 22
31.3036012664
 13
159.4596793074
 23
31.3036012664
  0
SOLID
  8
0
 62
7
  6
CONTINUOUS
 10
159.4596793074
 20
31.3036012664
 11
159.6331168074
 21
31.2390745501
 12
159.228429528
 22
31.2390745501
 13
159.228429528
 23
31.2390745501
  0
SOLID
  8
0
 62
7
  6
CONTINUOUS
 10
159.4596793074
 20
31.1422827828
 11
159.228429528
 21
31.2390745501
 12
159.6331168074
 22
31.2390745501
 13
159.6331168074
 23
31.2390745501
  0
SOLID
  8
0
 62
7
  6
CONTINUOUS
 10
159.6331168074
 20
31.2390745501
 11
160.615929528
 21
31.0777556927
 12
159.4596793074
 22
31.1422827828
 13
159.4596793074
 23
31.1422827828
  0
SOLID
  8
0
 62
7
  6
CONTINUOUS
 10
160.442492028
 20
30.9809646623
 11
159.4596793074
 21
31.1422827828
 12
160.615929528
 22
31.0777556927
 13
160.615929528
 23
31.0777556927
  0
SOLID
  8
0
 62
7
  6
CONTINUOUS
 10
160.615929528
 20
31.0777556927
 11
160.8471793074
 21
30.9809646623
 12
160.442492028
 22
30.9809646623
 13
160.442492028
 23
30.9809646623
  0
SOLID
  8
0
 62
7
  6
CONTINUOUS
 10
160.615929528
 20
30.9164372091
 11
160.442492028
 21
30.9809646623
 12
160.8471793074
 22
30.9809646623
 13
160.8471793074
 23
30.9809646623
  0
SOLID
  8
0
 62
7
  6
CONTINUOUS
 10
160.615929528
 20
30.9164372091
 11
160.8471793074
 21
30.9809646623
 12
160.6737418074
 22
30.8519089441
 13
160.6737418074
 23
30.8519089441
  0
SOLID
  8
0
 62
7
  6
CONTINUOUS
 10
160.8471793074
 20
30.9809646623
 11
160.9628038663
 21
30.8519089441
 12
160.6737418074
 22
30.8519089441
 13
160.6737418074
 23
30.8519089441
  0
SOLID
  8
0
 62
7
  6
CONTINUOUS
 10
160.615929528
 20
30.7873818593
 11
160.6737418074
 21
30.8519089441
 12
160.9628038663
 22
30.8519089441
 13
160.9628038663
 23
30.8519089441
  0
SOLID
  8
0
 62
7
  6
CONTINUOUS
 10
160.9628038663
 20
30.8519089441
 11
160.9628038663
 21
30.7873818593
 12
160.615929528
 22
30.7873818593
 13
160.615929528
 23
30.7873818593
  0
SOLID
  8
0
 62
7
  6
CONTINUOUS
 10
160.5003043074
 20
30.7551187255
 11
160.615929528
 21
30.7873818593
 12
160.9628038663
 22
30.7873818593
 13
160.9628038663
 23
30.7873818593
  0
SOLID
  8
0
 62
7
  6
CONTINUOUS
 10
160.5003043074
 20
30.7551187255
 11
160.9628038663
 21
30.7873818593
 12
160.269054528
 22
30.7228547745
 13
160.269054528
 23
30.7228547745
  0
SOLID
  8
0
 62
7
  6
CONTINUOUS
 10
160.9628038663
 20
30.7873818593
 11
160.8471793074
 21
30.6905916353
 12
160.269054528
 22
30.7228547745
 13
160.269054528
 23
30.7228547745
  0
SOLID
  8
0
 62
7
  6
CONTINUOUS
 10
160.8471793074
 20
30.6905916353
 11
159.401867028
 21
30.658327332
 12
160.269054528
 22
30.7228547745
 13
160.269054528
 23
30.7228547745
  0
SOLID
  8
0
 62
7
  6
CONTINUOUS
 10
160.269054528
 20
30.7228547745
 11
159.401867028
 21
30.658327332
 12
159.922179528
 22
30.7228547745
 13
159.922179528
 23
30.7228547745
  0
SOLID
  8
0
 62
7
  6
CONTINUOUS
 10
159.401867028
 20
30.658327332
 11
159.228429528
 21
30.7228547745
 12
159.922179528
 22
30.7228547745
 13
159.922179528
 23
30.7228547745
  0
SOLID
  8
0
 62
7
  6
CONTINUOUS
 10
159.401867028
 20
30.658327332
 11
160.8471793074
 21
30.6905916353
 12
159.575304528
 22
30.6260629858
 13
159.575304528
 23
30.6260629858
  0
SOLID
  8
0
 62
7
  6
CONTINUOUS
 10
160.8471793074
 20
30.6905916353
 11
160.615929528
 21
30.6260629858
 12
159.575304528
 22
30.6260629858
 13
159.575304528
 23
30.6260629858
  0
SOLID
  8
0
 62
7
  6
CONTINUOUS
 10
159.922179528
 20
30.5938006049
 11
159.575304528
 21
30.6260629858
 12
160.615929528
 22
30.6260629858
 13
160.615929528
 23
30.6260629858
  0
SOLID
  8
0
 62
7
  6
CONTINUOUS
 10
160.615929528
 20
30.6260629858
 11
160.269054528
 21
30.5938006049
 12
159.922179528
 22
30.5938006049
 13
159.922179528
 23
30.5938006049
  0
SOLID
  8
0
 62
7
  6
CONTINUOUS
 10
149.5737418074
 20
31.1100184796
 11
149.9206168074
 21
31.2713369632
 12
149.8628043005
 22
31.1422827828
 13
149.8628043005
 23
31.1422827828
  0
SOLID
  8
0
 62
7
  6
CONTINUOUS
 10
149.8628043005
 20
31.1422827828
 11
149.8628043005
 21
31.0454914852
 12
149.5737418074
 22
31.1100184796
 13
149.5737418074
 23
31.1100184796
  0
SOLID
  8
0
 62
7
  6
CONTINUOUS
 10
149.6315543091
 20
30.9164372091
 11
149.5737418074
 21
31.1100184796
 12
149.8628043005
 22
31.0454914852
 13
149.8628043005
 23
31.0454914852
  0
SOLID
  8
0
 62
7
  6
CONTINUOUS
 10
149.8628043005
 20
31.0454914852
 11
149.9784292936
 21
30.8841729058
 12
149.6315543091
 22
30.9164372091
 13
149.6315543091
 23
30.9164372091
  0
SOLID
  8
0
 62
7
  6
CONTINUOUS
 10
149.7471793074
 20
30.7873813202
 11
149.6315543091
 21
30.9164372091
 12
149.9784292936
 22
30.8841729058
 13
149.9784292936
 23
30.8841729058
  0
SOLID
  8
0
 62
7
  6
CONTINUOUS
 10
149.9784292936
 20
30.8841729058
 11
150.1518667936
 21
30.7873813202
 12
149.7471793074
 22
30.7873813202
 13
149.7471793074
 23
30.7873813202
  0
SOLID
  8
0
 62
7
  6
CONTINUOUS
 10
149.8628043005
 20
30.7228547004
 11
149.7471793074
 21
30.7873813202
 12
150.1518667936
 22
30.7873813202
 13
150.1518667936
 23
30.7873813202
  0
SOLID
  8
0
 62
7
  6
CONTINUOUS
 10
150.1518667936
 20
30.7873813202
 11
150.498741835
 21
30.7228547004
 12
149.8628043005
 22
30.7228547004
 13
149.8628043005
 23
30.7228547004
  0
SOLID
  8
0
 62
7
  6
CONTINUOUS
 10
150.0362418212
 20
30.658327332
 11
149.8628043005
 21
30.7228547004
 12
150.498741835
 22
30.7228547004
 13
150.498741835
 23
30.7228547004
  0
SOLID
  8
0
 62
7
  6
CONTINUOUS
 10
154.0831168074
 20
31.1100184386
 11
154.1987416972
 21
31.1745462761
 12
154.7768668074
 22
31.1422827828
 13
154.7768668074
 23
31.1422827828
  0
SOLID
  8
0
 62
7
  6
CONTINUOUS
 10
154.7768668074
 20
31.1422827828
 11
154.5456166972
 21
31.1100184386
 12
154.0831168074
 22
31.1100184386
 13
154.0831168074
 23
31.1100184386
  0
SOLID
  8
0
 62
7
  6
CONTINUOUS
 10
153.9674919177
 20
30.9809642992
 11
154.0831168074
 21
31.1100184386
 12
154.5456166972
 22
31.1100184386
 13
154.5456166972
 23
31.1100184386
  0
SOLID
  8
0
 62
7
  6
CONTINUOUS
 10
154.3143669177
 20
31.0132277988
 11
153.9674919177
 21
30.9809642992
 12
154.4299918074
 22
31.0777556927
 13
154.4299918074
 23
31.0777556927
  0
SOLID
  8
0
 62
7
  6
CONTINUOUS
 10
153.9674919177
 20
30.9809642992
 11
154.5456166972
 21
31.1100184796
 12
154.4299918074
 22
31.0777556927
 13
154.4299918074
 23
31.0777556927
  0
SOLID
  8
0
 62
7
  6
CONTINUOUS
 10
154.3143669177
 20
31.0132277988
 11
154.2565543074
 21
30.9164372091
 12
153.9674919177
 22
30.9809642992
 13
153.9674919177
 23
30.9809642992
  0
SOLID
  8
0
 62
7
  6
CONTINUOUS
 10
153.9674919177
 20
30.8841729058
 11
153.9674919177
 21
30.9809642992
 12
154.2565543074
 22
30.9164372091
 13
154.2565543074
 23
30.9164372091
  0
SOLID
  8
0
 62
7
  6
CONTINUOUS
 10
154.2565543074
 20
30.9164372091
 11
154.2565543074
 21
30.8519086025
 12
153.9674919177
 22
30.8841729058
 13
153.9674919177
 23
30.8841729058
  0
SOLID
  8
0
 62
7
  6
CONTINUOUS
 10
154.0253041972
 20
30.7551187255
 11
153.9674919177
 21
30.8841729058
 12
154.2565543074
 22
30.8519086025
 13
154.2565543074
 23
30.8519086025
  0
SOLID
  8
0
 62
7
  6
CONTINUOUS
 10
155.412804528
 20
30.9487004259
 11
155.7018665869
 21
30.8519086025
 12
155.3549915869
 22
30.8841729058
 13
155.3549915869
 23
30.8841729058
  0
SOLID
  8
0
 62
7
  6
CONTINUOUS
 10
155.1815540869
 20
30.7873815123
 11
155.3549915869
 21
30.8841729058
 12
155.7018665869
 22
30.8519086025
 13
155.7018665869
 23
30.8519086025
  0
SOLID
  8
0
 62
7
  6
CONTINUOUS
 10
155.1815540869
 20
30.7873815123
 11
155.7018665869
 21
30.8519086025
 12
155.412804528
 22
30.7551187255
 13
155.412804528
 23
30.7551187255
  0
SOLID
  8
0
 62
7
  6
CONTINUOUS
 10
155.7018665869
 20
30.8519086025
 11
155.759679528
 21
30.6905916353
 12
155.412804528
 22
30.7551187255
 13
155.412804528
 23
30.7551187255
  0
SOLID
  8
0
 62
7
  6
CONTINUOUS
 10
155.4706168074
 20
30.658327332
 11
155.412804528
 21
30.7551187255
 12
155.759679528
 22
30.6905916353
 13
155.759679528
 23
30.6905916353
  0
SOLID
  8
0
 62
7
  6
CONTINUOUS
 10
155.4706168074
 20
30.658327332
 11
155.759679528
 21
30.6905916353
 12
155.5284290869
 22
30.5938002079
 13
155.5284290869
 23
30.5938002079
  0
SOLID
  8
0
 62
7
  6
CONTINUOUS
 10
155.759679528
 20
30.6905916353
 11
155.8174918074
 21
30.5938002079
 12
155.5284290869
 22
30.5938002079
 13
155.5284290869
 23
30.5938002079
  0
SOLID
  8
0
 62
7
  6
CONTINUOUS
 10
151.0768668626
 20
30.8196456577
 11
151.1346793074
 21
30.9164373395
 12
151.4237418626
 22
30.9164373395
 13
151.4237418626
 23
30.9164373395
  0
SOLID
  8
0
 62
7
  6
CONTINUOUS
 10
151.4237418626
 20
30.9164373395
 11
151.3659292523
 21
30.7873815123
 12
151.0768668626
 22
30.8196456577
 13
151.0768668626
 23
30.8196456577
  0
SOLID
  8
0
 62
7
  6
CONTINUOUS
 10
150.9034292799
 20
30.7551187255
 11
151.0768668626
 21
30.8196456577
 12
151.3659292523
 22
30.7873815123
 13
151.3659292523
 23
30.7873815123
  0
SOLID
  8
0
 62
7
  6
CONTINUOUS
 10
150.9034292799
 20
30.7551187255
 11
151.3659292523
 21
30.7873815123
 12
150.498741835
 22
30.7228544222
 13
150.498741835
 23
30.7228544222
  0
SOLID
  8
0
 62
7
  6
CONTINUOUS
 10
151.3659292523
 20
30.7873815123
 11
151.1924917523
 21
30.6905916353
 12
150.498741835
 22
30.7228544222
 13
150.498741835
 23
30.7228544222
  0
SOLID
  8
0
 62
7
  6
CONTINUOUS
 10
150.0362418212
 20
30.658327332
 11
150.498741835
 21
30.7228544222
 12
151.1924917523
 22
30.6905916353
 13
151.1924917523
 23
30.6905916353
  0
SOLID
  8
0
 62
7
  6
CONTINUOUS
 10
150.0362418212
 20
30.658327332
 11
151.1924917523
 21
30.6905916353
 12
150.2096793212
 22
30.6260631011
 13
150.2096793212
 23
30.6260631011
  0
SOLID
  8
0
 62
7
  6
CONTINUOUS
 10
151.1924917523
 20
30.6905916353
 11
150.9612418074
 21
30.6260631011
 12
150.2096793212
 22
30.6260631011
 13
150.2096793212
 23
30.6260631011
  0
SOLID
  8
0
 62
7
  6
CONTINUOUS
 10
150.5565542799
 20
30.5938002419
 11
150.2096793212
 21
30.6260631011
 12
150.9612418074
 22
30.6260631011
 13
150.9612418074
 23
30.6260631011
  0
SOLID
  8
0
 62
7
  6
CONTINUOUS
 10
154.0253041972
 20
30.7551187255
 11
154.2565543074
 21
30.8519086025
 12
154.3143669177
 22
30.7873815123
 13
154.3143669177
 23
30.7873815123
  0
SOLID
  8
0
 62
7
  6
CONTINUOUS
 10
154.3143669177
 20
30.7873815123
 11
154.5456166972
 21
30.7228544222
 12
154.0253041972
 22
30.7551187255
 13
154.0253041972
 23
30.7551187255
  0
SOLID
  8
0
 62
7
  6
CONTINUOUS
 10
154.1987416972
 20
30.658327332
 11
154.0253041972
 21
30.7551187255
 12
154.5456166972
 22
30.7228544222
 13
154.5456166972
 23
30.7228544222
  0
SOLID
  8
0
 62
7
  6
CONTINUOUS
 10
154.8924916972
 20
30.7228544637
 11
155.1815540869
 21
30.7873815123
 12
155.412804528
 22
30.7551187255
 13
155.412804528
 23
30.7551187255
  0
SOLID
  8
0
 62
7
  6
CONTINUOUS
 10
155.412804528
 20
30.7551187255
 11
155.3549915869
 21
30.6905916353
 12
154.8924916972
 22
30.7228544637
 13
154.8924916972
 23
30.7228544637
  0
SOLID
  8
0
 62
7
  6
CONTINUOUS
 10
155.3549915869
 20
30.6905916353
 11
154.1987416972
 21
30.658327332
 12
154.8924916972
 22
30.7228544637
 13
154.8924916972
 23
30.7228544637
  0
SOLID
  8
0
 62
7
  6
CONTINUOUS
 10
154.1987416972
 20
30.658327332
 11
154.5456166972
 21
30.7228544637
 12
154.8924916972
 22
30.7228544637
 13
154.8924916972
 23
30.7228544637
  0
SOLID
  8
0
 62
7
  6
CONTINUOUS
 10
154.1987416972
 20
30.658327332
 11
155.3549915869
 21
30.6905916353
 12
154.3143669177
 22
30.6260630541
 13
154.3143669177
 23
30.6260630541
  0
SOLID
  8
0
 62
7
  6
CONTINUOUS
 10
155.3549915869
 20
30.6905916353
 11
155.1815540869
 21
30.6260630541
 12
154.3143669177
 22
30.6260630541
 13
154.3143669177
 23
30.6260630541
  0
SOLID
  8
0
 62
7
  6
CONTINUOUS
 10
154.5456166972
 20
30.5938002188
 11
154.3143669177
 21
30.6260630541
 12
155.1815540869
 22
30.6260630541
 13
155.1815540869
 23
30.6260630541
  0
SOLID
  8
0
 62
7
  6
CONTINUOUS
 10
155.1815540869
 20
30.6260630541
 11
154.8924916972
 21
30.5938002188
 12
154.5456166972
 22
30.5938002188
 13
154.5456166972
 23
30.5938002188
  0
SOLID
  8
0
 62
7
  6
CONTINUOUS
 10
159.575304528
 20
30.7551187255
 11
159.228429528
 21
30.7228544637
 12
159.4596793074
 22
30.7873815123
 13
159.4596793074
 23
30.7873815123
  0
SOLID
  8
0
 62
7
  6
CONTINUOUS
 10
159.4596793074
 20
30.7873815123
 11
159.228429528
 21
30.7228544637
 12
159.401867028
 22
30.851908644
 13
159.401867028
 23
30.851908644
  0
SOLID
  8
0
 62
7
  6
CONTINUOUS
 10
159.228429528
 20
30.7228544637
 11
159.1128043074
 21
30.851908644
 12
159.401867028
 22
30.851908644
 13
159.401867028
 23
30.851908644
  0
SOLID
  8
0
 62
7
  6
CONTINUOUS
 10
159.575304528
 20
30.7551187255
 11
159.922179528
 21
30.7228544637
 12
159.228429528
 22
30.7228544637
 13
159.228429528
 23
30.7228544637
  0
SOLID
  8
0
 62
7
  6
CONTINUOUS
 10
156.279992028
 20
30.5938002419
 11
156.279992028
 21
31.6262382337
 12
156.5690540869
 22
30.5938002419
 13
156.5690540869
 23
31.6262382337
  0
ENDBLK
  8
0
  6
BYBLOCK
 62
0
  0
BLOCK
  8
0
 62
2
  6
CONTINUOUS
  2
SYMBOL_3_BL0
 70
64
 10
32.1213064866
 20
19.8534310916
  0
TEXT
  8
0
 62
7
  6
CONTINUOUS
 10
18.3860103289
 20
19.2268451992
  7
TEXTSTYLE_3
 40
2.7338706658
  1
Ammeraal Beltech
 41
1.0
 51
15.0
 72
0
  0
TEXT
  8
0
 62
7
  6
CONTINUOUS
 10
29.1868111546
 20
16.9533085264
  7
TEXTSTYLE_4
 40
1.0935482663
  1
Innovation & Service in Belting
 41
1.0
 72
0
  0
LINE
  8
0
 62
7
  6
CONTINUOUS
 10
12.3614696776
 20
19.9934385078
 11
13.1396216709
 21
23.6543558055
  0
LINE
  8
0
 62
7
  6
CONTINUOUS
 10
23.2347899607
 20
27.3177497171
 11
13.6274394139
 21
24.1961322958
  0
LINE
  8
0
 62
7
  6
CONTINUOUS
 10
12.5867530099
 20
19.3000877048
 11
20.093828271
 21
12.5406867788
  0
LINE
  8
0
 62
7
  6
CONTINUOUS
 10
12.8492874206
 20
20.5352149982
 11
23.6575567857
 21
24.0470345971
  0
LINE
  8
0
 62
7
  6
CONTINUOUS
 10
23.6533516486
 20
13.6972460334
 11
15.2078919798
 21
21.3015720751
  0
LINE
  8
0
 62
7
  6
CONTINUOUS
 10
24.1731743684
 20
26.4728246013
 11
23.1966148312
 21
21.8784731989
  0
LINE
  8
0
 62
7
  6
CONTINUOUS
 10
22.4968128835
 20
18.5861638851
 11
21.810364672
 21
15.3566789607
  0
LINE
  8
0
 62
7
  6
CONTINUOUS
 10
24.8542704669
 20
14.087448211
 11
25.8105020025
 21
18.5861638851
  0
LINE
  8
0
 62
7
  6
CONTINUOUS
 10
26.5103039502
 20
21.8784731989
 11
26.9545457526
 21
23.9684665583
  0
LINE
  8
0
 62
7
  6
CONTINUOUS
 10
20.8069293463
 20
12.3891124661
 11
24.3664527239
 21
13.5456717207
  0
LINE
  8
0
 62
7
  6
CONTINUOUS
 10
23.9478910361
 20
27.1661754044
 11
26.7292624203
 21
24.6618173613
  0
ARC
  8
0
 62
7
  6
CONTINUOUS
 10
13.8527227462
 20
23.5027814928
 40
0.7290321776
 50
108.0
 51
168.0
  0
ARC
  8
0
 62
7
  6
CONTINUOUS
 10
23.4600732931
 20
26.624398914
 40
0.7290321776
 50
348.0
 51
108.0
  0
ARC
  8
0
 62
7
  6
CONTINUOUS
 10
26.2414446773
 20
24.120040871
 40
0.7290321776
 50
348.0
 51
48.0
  0
ARC
  8
0
 62
7
  6
CONTINUOUS
 10
20.581646014
 20
13.0824632691
 40
0.7290321776
 50
228.0
 51
288.0
  0
ARC
  8
0
 62
7
  6
CONTINUOUS
 10
13.0745707529
 20
19.8418641951
 40
0.7290321776
 50
108.0
 51
228.0
  0
ARC
  8
0
 62
7
  6
CONTINUOUS
 10
24.1411693916
 20
14.2390225237
 40
0.7290321776
 50
228.0
 51
348.0
  0
ENDBLK
  8
0
  6
BYBLOCK
 62
0
  0
ENDSEC
  0
SECTION
  2
ENTITIES
  0
TEXT
  8
0
 62
5
  6
CONTINUOUS
 10
96.0
 20
25.636
  7
TEXTSTYLE_2
 40
2.8
  1
Scale :
 41
0.6
 51
0.000019
 72
0
  0
TEXT
  8
0
 62
5
  6
CONTINUOUS
 10
116.0
 20
25.636
  7
TEXTSTYLE_2
 40
2.8
  1
Belt type:
 41
0.6
 51
0.000019
 72
0
  0
INSERT
  8
0
 62
2
  6
CONTINUOUS
  2
SYMBOL_3_BL0
 10
32.1213064866
 20
19.8534310916
  0
INSERT
  8
0
 62
2
  6
CONTINUOUS
  2
SYMBOL_8_BL1
 10
173.5956734183
 20
35.5937998301
  0
LINE
  8
0
 62
2
  6
CONTINUOUS
 10
10.0
 20
30.0
 11
200.0
 21
30.0
  0
LINE
  8
0
 62
2
  6
CONTINUOUS
 10
10.0
 20
30.0
 11
10.0
 21
10.0
  0
LINE
  8
0
 62
2
  6
CONTINUOUS
 10
10.0
 20
10.0
 11
200.0
 21
10.0
  0
LINE
  8
0
 62
2
  6
CONTINUOUS
 10
95.0
 20
30.0
 11
95.0
 21
10.0
  0
LINE
  8
0
 62
2
  6
CONTINUOUS
 10
115.0
 20
30.0
 11
115.0
 21
10.0
  0
LINE
  8
0
 62
2
  6
CONTINUOUS
 10
200.0
 20
30.0
 11
200.0
 21
10.0
  0
TEXT
  8
0
 62
5
  6
CONTINUOUS
 10
13.0
 20
23.303
  7
TEXTSTYLE_5
 40
1.52
  1
                                                                     Ammeraal Beltech Modular A/S
 41
1.0
 72
0
  0
TEXT
  8
0
 62
5
  6
CONTINUOUS
 10
13.0
 20
20.595
  7
TEXTSTYLE_5
 40
1.5
  1
                                                                      Hjulmagervej 21,  7100 Vejle,  DK
 41
1.0
 72
0
  0
TEXT
  8
0
 62
5
  6
CONTINUOUS
 10
13.0
 20
17.881
  7
TEXTSTYLE_5
 40
1.495
  1
                                                                      tel: 
 41
1.0
 72
0
  0
TEXT
  8
0
 62
5
  6
CONTINUOUS
 10
57.9869465649
 20
17.881
  7
TEXTSTYLE_5
 40
1.51
  1
+45 75723100     fax: +45 75723348
 41
1.0
 72
0
  0
TEXT
  8
0
 62
5
  6
CONTINUOUS
 10
13.0
 20
15.177
  7
TEXTSTYLE_5
 40
1.5
  1
                                                                      admin@unichains.dk  www.unichains.com
 41
1.0
 72
0
  0
TEXT
  8
0
 62
5
  6
CONTINUOUS
 10
99.75
 20
13.75
  7
TEXTSTYLE_6
 40
5.0
  1
1:1
 41
0.7
 72
1
 11
105.0
 21
13.75
  0
TEXT
  8
0
 62
5
  6
CONTINUOUS
 10
118.0
 20
13.75
  7
TEXTSTYLE_7
 40
7.5
  1
Sprocket Z11
 41
0.6027777778
 72
0
  0
LINE
  8
0
 62
7
  6
CONTINUOUS
 10
210.0
 20
0.0
 11
0.0
 21
0.0
  0
LINE
  8
0
 62
7
  6
CONTINUOUS
 10
10.0
 20
10.0
 11
200.0
 21
10.0
  0
LINE
  8
0
 62
7
  6
CONTINUOUS
 10
10.0
 20
30.0
 11
200.0
 21
30.0
  0
LINE
  8
0
 62
7
  6
CONTINUOUS
 10
0.0
 20
0.0
 11
0.0
 21
297.0
  0
LINE
  8
0
 62
7
  6
CONTINUOUS
 10
10.0
 20
10.0
 11
10.0
 21
287.0
  0
LINE
  8
0
 62
7
  6
CONTINUOUS
 10
200.0
 20
287.0
 11
200.0
 21
10.0
  0
LINE
  8
0
 62
7
  6
CONTINUOUS
 10
210.0
 20
0.0
 11
210.0
 21
297.0
  0
LINE
  8
0
 62
7
  6
CONTINUOUS
 10
10.0
 20
287.0
 11
200.0
 21
287.0
  0
LINE
  8
0
 62
7
  6
CONTINUOUS
 10
0.0
 20
297.0
 11
210.0
 21
297.0
  0
LINE
  8
0
 62
7
  6
CONTINUOUS
 10
27.0964315061
 20
207.9589833745
 11
27.1694430097
 21
205.2700466604
  0
LINE
  8
0
 62
7
  6
CONTINUOUS
 10
37.8217685699
 20
245.5638688828
 11
36.4294408121
 21
243.2623183736
  0
LINE
  8
0
 62
7
  6
CONTINUOUS
 10
67.1752323072
 20
271.4005566707
 11
64.7596195133
 21
270.217118391
  0
LINE
  8
0
 62
7
  6
CONTINUOUS
 10
106.9040774614
 20
139.8830064369
 11
109.5552540565
 21
140.3379503822
  0
LINE
  8
0
 62
7
  6
CONTINUOUS
 10
68.1555808561
 20
145.1474418346
 11
70.6318537994
 21
144.0968307543
  0
LINE
  8
0
 62
7
  6
CONTINUOUS
 10
38.4044398519
 20
170.5251855912
 11
39.9196099804
 21
168.3025810799
  0
LINE
  8
0
 62
7
  6
CONTINUOUS
 10
46.436998952
 20
232.1278177095
 11
45.4495042288
 21
229.965505883
  0
LINE
  8
0
 62
7
  6
CONTINUOUS
 10
40.1962708663
 20
218.462529351
 11
39.0841532219
 21
216.0273313918
  0
LINE
  8
0
 62
7
  6
CONTINUOUS
 10
45.3547794016
 20
228.5544718202
 11
41.2006292716
 21
219.4581518667
  0
LINE
  8
0
 62
7
  6
CONTINUOUS
 10
67.1587476126
 20
255.4396859576
 11
65.1589841999
 21
254.1545160486
  0
LINE
  8
0
 62
7
  6
CONTINUOUS
 10
54.5207003941
 20
247.3177061826
 11
52.2685600815
 21
245.8703434886
  0
LINE
  8
0
 62
7
  6
CONTINUOUS
 10
64.3164299499
 20
253.0186881666
 11
55.9038946216
 21
247.612279992
  0
LINE
  8
0
 62
7
  6
CONTINUOUS
 10
80.2287972831
 20
155.5871310434
 11
82.5096343606
 21
154.9174168513
  0
LINE
  8
0
 62
7
  6
CONTINUOUS
 10
94.6431409181
 20
151.3546978738
 11
97.2118229161
 21
150.6004647873
  0
LINE
  8
0
 62
7
  6
CONTINUOUS
 10
83.9197875639
 20
155.0244670699
 11
93.5147173001
 21
152.2071415014
  0
LINE
  8
0
 62
7
  6
CONTINUOUS
 10
54.2051979316
 20
172.7803374213
 11
55.7618820293
 21
170.9838282044
  0
LINE
  8
0
 62
7
  6
CONTINUOUS
 10
64.0430893093
 20
161.4268055391
 11
65.7962329224
 21
159.4035699553
  0
LINE
  8
0
 62
7
  6
CONTINUOUS
 10
57.0060574343
 20
170.3114943632
 11
63.5546647738
 21
162.7539986196
  0
LINE
  8
0
 62
7
  6
CONTINUOUS
 10
41.6081021909
 20
201.313603054
 11
41.946402426
 21
198.9606732362
  0
LINE
  8
0
 62
7
  6
CONTINUOUS
 10
43.7460803102
 20
186.4436386115
 11
44.1270748284
 21
183.7937635328
  0
LINE
  8
0
 62
7
  6
CONTINUOUS
 10
42.6295778135
 20
197.7224211382
 11
44.0527261962
 21
187.8242067194
  0
LINE
  8
0
 62
7
  6
CONTINUOUS
 10
59.8712724269
 20
229.0648416412
 11
54.1212724269
 21
219.1055494977
  0
LINE
  8
0
 62
7
  6
CONTINUOUS
 10
55.8533232344
 20
218.1055494977
 11
61.6033232344
 21
228.0648416412
  0
LINE
  8
0
 62
7
  6
CONTINUOUS
 10
72.2885179218
 20
240.7433885874
 11
72.1281525335
 21
240.5412570558
  0
LINE
  8
0
 62
7
  6
CONTINUOUS
 10
73.0770788368
 20
243.415016052
 11
72.9050013711
 21
243.2227567318
  0
LINE
  8
0
 62
7
  6
CONTINUOUS
 10
73.0472114392
 20
243.0107092163
 11
73.2192889048
 21
243.2029685365
  0
LINE
  8
0
 62
7
  6
CONTINUOUS
 10
66.9872978307
 20
239.3901591885
 11
57.5306926859
 21
230.4161759848
  0
LINE
  8
0
 62
7
  6
CONTINUOUS
 10
81.9241619158
 20
247.868157851
 11
81.7695453671
 21
247.7443668431
  0
LINE
  8
0
 62
7
  6
CONTINUOUS
 10
71.7428593309
 20
242.4935325017
 11
71.494107974
 21
242.3043789934
  0
LINE
  8
0
 62
7
  6
CONTINUOUS
 10
70.4991027778
 20
241.547765136
 11
70.2503514743
 21
241.3586116683
  0
LINE
  8
0
 62
7
  6
CONTINUOUS
 10
72.1281525335
 20
240.5412570558
 11
71.9291514622
 21
240.38993426
  0
LINE
  8
0
 62
7
  6
CONTINUOUS
 10
72.0836938686
 20
240.186699154
 11
72.2826949399
 21
240.3380219499
  0
LINE
  8
0
 62
7
  6
CONTINUOUS
 10
72.8299477969
 20
240.7541595707
 11
73.0786991538
 21
240.9433130791
  0
LINE
  8
0
 62
7
  6
CONTINUOUS
 10
82.0697657258
 20
247.6493119839
 11
82.2831574077
 21
247.7943584224
  0
LINE
  8
0
 62
7
  6
CONTINUOUS
 10
73.2847088195
 20
243.5542634932
 11
73.0770788368
 21
243.415016052
  0
LINE
  8
0
 62
7
  6
CONTINUOUS
 10
72.6099115986
 20
243.1017094585
 11
72.3503741945
 21
242.9276502067
  0
LINE
  8
0
 62
7
  6
CONTINUOUS
 10
73.4880548383
 20
241.2312699343
 11
73.7475922423
 21
241.4053291861
  0
LINE
  8
0
 62
7
  6
CONTINUOUS
 10
74.6819267188
 20
242.031942373
 11
74.9414639744
 21
242.2060015252
  0
LINE
  8
0
 62
7
  6
CONTINUOUS
 10
74.0611215908
 20
245.1826625531
 11
73.7951129068
 21
245.0186639083
  0
LINE
  8
0
 62
7
  6
CONTINUOUS
 10
73.9626009284
 20
244.7469953938
 11
74.2286096124
 21
244.9109940386
  0
LINE
  8
0
 62
7
  6
CONTINUOUS
 10
74.5635857495
 20
244.3676568574
 11
74.2975770655
 21
244.2036582125
  0
LINE
  8
0
 62
7
  6
CONTINUOUS
 10
75.3695004977
 20
242.4649795673
 11
75.6355091818
 21
242.6289782122
  0
LINE
  8
0
 62
7
  6
CONTINUOUS
 10
82.2551025186
 20
248.0557146641
 11
81.9241619158
 21
247.868157851
  0
LINE
  8
0
 62
7
  6
CONTINUOUS
 10
83.1938533224
 20
246.5625656729
 11
82.8041375939
 21
246.3537534083
  0
LINE
  8
0
 62
7
  6
CONTINUOUS
 10
82.9497427568
 20
246.1349080066
 11
83.3394571457
 21
246.343719769
  0
LINE
  8
0
 62
7
  6
CONTINUOUS
 10
79.4751052336
 20
248.0024274186
 11
77.4327025334
 21
247.0584511423
  0
LINE
  8
0
 62
7
  6
CONTINUOUS
 10
77.9337797773
 20
246.8681375503
 11
79.6357820274
 21
247.6547844472
  0
LINE
  8
0
 62
7
  6
CONTINUOUS
 10
79.7569810896
 20
246.796671394
 11
78.2819129056
 21
246.11491095
  0
LINE
  8
0
 62
7
  6
CONTINUOUS
 10
78.4425896994
 20
245.7672679787
 11
79.9176578834
 21
246.4490284226
  0
LINE
  8
0
 62
7
  6
CONTINUOUS
 10
78.6913375685
 20
244.335247542
 11
79.0317380185
 21
244.4925769214
  0
LINE
  8
0
 62
7
  6
CONTINUOUS
 10
80.3539945914
 20
248.3540167778
 11
80.0647720785
 21
248.2356667162
  0
LINE
  8
0
 62
7
  6
CONTINUOUS
 10
81.200931803
 20
245.4591327113
 11
81.4901543158
 21
245.5774827728
  0
LINE
  8
0
 62
7
  6
CONTINUOUS
 10
90.160878959
 20
250.5800523575
 11
90.3997580806
 21
250.6775779669
  0
LINE
  8
0
 62
7
  6
CONTINUOUS
 10
91.4404134844
 20
248.6307853503
 11
91.2015343628
 21
248.533259741
  0
LINE
  8
0
 62
7
  6
CONTINUOUS
 10
83.1033385357
 20
247.54796459
 11
81.8690701562
 21
247.1016039541
  0
LINE
  8
0
 62
7
  6
CONTINUOUS
 10
81.8971264209
 20
246.8402481148
 11
83.4840429088
 21
247.414140361
  0
LINE
  8
0
 62
7
  6
CONTINUOUS
 10
83.6142879421
 20
247.0539891443
 11
83.3204136216
 21
246.9477124781
  0
LINE
  8
0
 62
7
  6
CONTINUOUS
 10
73.2192889048
 20
243.2029685365
 11
73.4624714045
 21
243.2892040989
  0
LINE
  8
0
 62
7
  6
CONTINUOUS
 10
90.3472143919
 20
251.056935092
 11
90.0464258154
 21
250.9508345782
  0
LINE
  8
0
 62
7
  6
CONTINUOUS
 10
91.2540780576
 20
248.1539025715
 11
91.5548652164
 21
248.2600028947
  0
LINE
  8
0
 62
7
  6
CONTINUOUS
 10
85.7769915617
 20
249.1653307315
 11
85.4169024332
 21
249.060636799
  0
LINE
  8
0
 62
7
  6
CONTINUOUS
 10
84.0965751706
 20
248.6767589134
 11
83.7364860421
 21
248.5720649809
  0
LINE
  8
0
 62
7
  6
CONTINUOUS
 10
84.3067338265
 20
246.610728513
 11
84.6668229551
 21
246.7154224455
  0
LINE
  8
0
 62
7
  6
CONTINUOUS
 10
85.9871502176
 20
247.0993003311
 11
86.3472393462
 21
247.2039942636
  0
LINE
  8
0
 62
7
  6
CONTINUOUS
 10
96.9943393858
 20
166.4978543431
 11
108.4943393858
 21
166.4978543431
  0
LINE
  8
0
 62
7
  6
CONTINUOUS
 10
108.4943393858
 20
168.4978543431
 11
96.9943393858
 21
168.4978543431
  0
LINE
  8
0
 62
7
  6
CONTINUOUS
 10
84.4943393858
 20
167.4978543431
 11
96.9943393858
 21
163.7951856561
  0
LINE
  8
0
 62
7
  6
CONTINUOUS
 10
63.9439029754
 20
226.7135072977
 11
66.9872978307
 21
239.3901591885
  0
LINE
  8
0
 62
7
  6
CONTINUOUS
 10
72.360497511
 20
240.9584982148
 11
72.2885179218
 21
240.7433885874
  0
LINE
  8
0
 62
7
  6
CONTINUOUS
 10
72.9050013711
 20
243.2227567318
 11
72.8203841409
 21
243.0122975425
  0
LINE
  8
0
 62
7
  6
CONTINUOUS
 10
72.9625942089
 20
242.800250027
 11
73.0472114392
 21
243.0107092163
  0
LINE
  8
0
 62
7
  6
CONTINUOUS
 10
72.4430603384
 20
240.5401534681
 11
72.503925308
 21
240.6666236695
  0
LINE
  8
0
 62
7
  6
CONTINUOUS
 10
81.7695453671
 20
247.7443668431
 11
81.6366363239
 21
247.5605506324
  0
LINE
  8
0
 62
7
  6
CONTINUOUS
 10
83.3267623655
 20
246.7463818836
 11
83.1938533224
 21
246.5625656729
  0
LINE
  8
0
 62
7
  6
CONTINUOUS
 10
72.2826949399
 20
240.3380219499
 11
72.4430603384
 21
240.5401534681
  0
LINE
  8
0
 62
7
  6
CONTINUOUS
 10
81.9739243103
 20
247.5467764065
 11
82.0697657258
 21
247.6493119839
  0
LINE
  8
0
 62
7
  6
CONTINUOUS
 10
83.3394571457
 20
246.343719769
 11
83.5311413163
 21
246.548791426
  0
LINE
  8
0
 62
7
  6
CONTINUOUS
 10
89.9926665739
 20
250.4278754652
 11
90.160878959
 21
250.5800523575
  0
LINE
  8
0
 62
7
  6
CONTINUOUS
 10
91.6086258634
 20
248.7829622869
 11
91.4404134844
 21
248.6307853503
  0
LINE
  8
0
 62
7
  6
CONTINUOUS
 10
90.0464258154
 20
250.9508345782
 11
89.8163053923
 21
250.7900829776
  0
LINE
  8
0
 62
7
  6
CONTINUOUS
 10
91.5548652164
 20
248.2600028947
 11
91.7849870542
 21
248.4207547081
  0
LINE
  8
0
 62
7
  6
CONTINUOUS
 10
71.8460572314
 20
240.0861851618
 11
72.0836938686
 21
240.186699154
  0
LINE
  8
LAY0001
 62
7
  6
CONTINUOUS
 10
120.5113703808
 20
176.7504887581
 11
120.5890765242
 21
176.7725290552
  0
LINE
  8
LAY0001
 62
7
  6
CONTINUOUS
 10
120.6470732947
 20
176.9140245951
 11
120.5693674366
 21
176.8919845834
  0
LINE
  8
LAY0001
 62
7
  6
CONTINUOUS
 10
121.7581986049
 20
177.9973169822
 11
121.8359047484
 21
178.0193572793
  0
LINE
  8
LAY0001
 62
7
  6
CONTINUOUS
 10
122.7307245455
 20
178.9698429228
 11
122.8084305463
 21
178.9918830772
  0
LINE
  8
LAY0001
 62
7
  6
CONTINUOUS
 10
122.8664274594
 20
179.1333787599
 11
122.7887214587
 21
179.1113386055
  0
LINE
  8
LAY0001
 62
7
  6
CONTINUOUS
 10
122.1502602205
 20
179.0017029662
 11
122.0337011407
 21
178.9686426705
  0
LINE
  8
LAY0001
 62
7
  6
CONTINUOUS
 10
123.589587798
 20
179.8565390985
 11
123.7061468705
 21
179.8895994015
  0
LINE
  8
LAY0001
 62
7
  6
CONTINUOUS
 10
123.8349263334
 20
180.6585361558
 11
123.9514854156
 21
180.6915964491
  0
LINE
  8
LAY0001
 62
7
  6
CONTINUOUS
 10
124.0094822655
 20
180.833092088
 11
123.9317762153
 21
180.8110518938
  0
LINE
  8
LAY0001
 62
7
  6
CONTINUOUS
 10
119.422285653
 20
175.7449027998
 11
119.5278244343
 21
175.7391098884
  0
LINE
  8
LAY0001
 62
7
  6
CONTINUOUS
 10
119.5997376663
 20
175.8666889668
 11
119.5469682757
 21
175.8695854225
  0
LINE
  8
LAY0001
 62
7
  6
CONTINUOUS
 10
119.1996222384
 20
175.9675662145
 11
119.3051610294
 21
175.9617732933
  0
LINE
  8
0
 62
7
  6
CONTINUOUS
 10
72.503925308
 20
240.6666236695
 11
72.5372692075
 21
240.9325420416
  0
LINE
  8
0
 62
7
  6
CONTINUOUS
 10
72.8203841409
 20
243.0122975425
 11
72.7876741836
 21
242.8366500641
  0
LINE
  8
0
 62
7
  6
CONTINUOUS
 10
72.9298842516
 20
242.6246025487
 11
72.9625942089
 21
242.800250027
  0
LINE
  8
0
 62
7
  6
CONTINUOUS
 10
85.4169024332
 20
249.060636799
 11
84.9884012572
 21
248.0719047862
  0
LINE
  8
0
 62
7
  6
CONTINUOUS
 10
84.861817443
 20
247.8356824563
 11
84.3067338265
 21
246.610728513
  0
LINE
  8
0
 62
7
  6
CONTINUOUS
 10
85.2219065716
 20
247.9403763888
 11
85.7769915617
 21
249.1653307315
  0
LINE
  8
0
 62
7
  6
CONTINUOUS
 10
81.6366363239
 20
247.5605506324
 11
81.5625010687
 21
247.3979893657
  0
LINE
  8
0
 62
7
  6
CONTINUOUS
 10
81.8627227727
 20
247.302934993
 11
81.9739243103
 21
247.5467764065
  0
LINE
  8
0
 62
7
  6
CONTINUOUS
 10
83.5311413163
 20
246.548791426
 11
83.6423428463
 21
246.7926328605
  0
LINE
  8
0
 62
7
  6
CONTINUOUS
 10
89.8163053923
 20
250.7900829776
 11
89.603698115
 21
250.5028788057
  0
LINE
  8
0
 62
7
  6
CONTINUOUS
 10
91.7849870542
 20
248.4207547081
 11
91.9975943284
 21
248.7079589022
  0
LINE
  8
0
 62
7
  6
CONTINUOUS
 10
105.4262972781
 20
250.5599528192
 11
104.966665621
 21
250.2007849791
  0
LINE
  8
0
 62
7
  6
CONTINUOUS
 10
104.8605958343
 20
249.7012844365
 11
105.3202275285
 21
250.0604524515
  0
LINE
  8
0
 62
7
  6
CONTINUOUS
 10
101.9089317748
 20
248.525754412
 11
104.3455227948
 21
250.3391679978
  0
LINE
  8
0
 62
7
  6
CONTINUOUS
 10
106.736160983
 20
250.2603385888
 11
106.2655315853
 21
249.9157072385
  0
LINE
  8
0
 62
7
  6
CONTINUOUS
 10
106.1439067584
 20
249.4197647084
 11
106.6145361987
 21
249.7643962324
  0
LINE
  8
0
 62
7
  6
CONTINUOUS
 10
104.056671558
 20
250.5138642259
 11
101.55834159
 21
248.7101683088
  0
LINE
  8
0
 62
7
  6
CONTINUOUS
 10
109.219660547
 20
248.4408275221
 11
109.0632643707
 21
248.3544421209
  0
LINE
  8
0
 62
7
  6
CONTINUOUS
 10
108.8347259148
 20
247.1568626679
 11
108.6783297257
 21
247.0704772239
  0
LINE
  8
0
 62
7
  6
CONTINUOUS
 10
111.9943942286
 20
247.4481201304
 11
111.8323155226
 21
247.3729357268
  0
LINE
  8
0
 62
7
  6
CONTINUOUS
 10
111.5202063238
 20
246.1943712525
 11
111.3581276019
 21
246.1191868071
  0
LINE
  8
0
 62
7
  6
CONTINUOUS
 10
108.6282176373
 20
246.68568122
 11
108.9226770348
 21
246.7973116806
  0
LINE
  8
0
 62
7
  6
CONTINUOUS
 10
111.2811056547
 20
245.7388622015
 11
111.5826800218
 21
245.8295297129
  0
LINE
  8
0
 62
7
  6
CONTINUOUS
 10
117.4710970958
 20
244.7931782699
 11
117.2998397583
 21
244.7422555261
  0
LINE
  8
0
 62
7
  6
CONTINUOUS
 10
121.8150933798
 20
242.9438941857
 11
121.5111838425
 21
242.854546016
  0
LINE
  8
LAY0001
 62
7
  6
CONTINUOUS
 10
119.3770742614
 20
176.0893523716
 11
119.324304861
 21
176.0922488371
  0
LINE
  8
LAY0001
 62
7
  6
CONTINUOUS
 10
120.0428031667
 20
176.4210861598
 11
120.0955725573
 21
176.4181897041
  0
LINE
  8
LAY0001
 62
7
  6
CONTINUOUS
 10
120.2202554653
 20
176.5428726121
 11
120.1147163987
 21
176.5486652382
  0
LINE
  8
LAY0001
 62
7
  6
CONTINUOUS
 10
119.820139752
 20
176.6437495745
 11
119.8729091427
 21
176.6408531188
  0
LINE
  8
LAY0001
 62
7
  6
CONTINUOUS
 10
119.9975920507
 20
176.7655360268
 11
119.8920529792
 21
176.7713286577
  0
LINE
  8
LAY0001
 62
7
  6
CONTINUOUS
 10
121.8689650513
 20
178.1359163518
 11
121.8161953753
 21
178.1388125222
  0
LINE
  8
LAY0001
 62
7
  6
CONTINUOUS
 10
121.4850967164
 20
178.4200382462
 11
121.4323273233
 21
178.4229347043
  0
LINE
  8
LAY0001
 62
7
  6
CONTINUOUS
 10
122.0394937741
 20
178.8631035966
 11
122.0922633074
 21
178.8602072835
  0
LINE
  8
LAY0001
 62
7
  6
CONTINUOUS
 10
122.6779550122
 20
178.9727392359
 11
122.7307245455
 21
178.9698429228
  0
LINE
  8
LAY0001
 62
7
  6
CONTINUOUS
 10
124.115021246
 20
180.8272993563
 11
124.0094822655
 21
180.833092088
  0
LINE
  8
0
 62
7
  6
CONTINUOUS
 10
72.3440911893
 20
241.1865859373
 11
72.360497511
 21
240.9584982148
  0
LINE
  8
0
 62
7
  6
CONTINUOUS
 10
89.603698115
 20
250.5028788057
 11
89.5149097478
 21
250.2328244428
  0
LINE
  8
0
 62
7
  6
CONTINUOUS
 10
84.6668229551
 20
246.7154224455
 11
85.0953227324
 21
247.7041541448
  0
LINE
  8
0
 62
7
  6
CONTINUOUS
 10
89.8951209497
 20
250.2210471127
 11
89.9926665739
 21
250.4278754652
  0
LINE
  8
0
 62
7
  6
CONTINUOUS
 10
91.706171512
 20
248.9897904623
 11
91.6086258634
 21
248.7829622869
  0
LINE
  8
0
 62
7
  6
CONTINUOUS
 10
109.3076116862
 20
248.081276599
 11
109.5605347997
 21
248.2719962911
  0
LINE
  8
0
 62
7
  6
CONTINUOUS
 10
108.9226770348
 20
246.7973116806
 11
109.1756001547
 21
246.988031394
  0
LINE
  8
0
 62
7
  6
CONTINUOUS
 10
112.0568679504
 20
247.0832786535
 11
112.3225650463
 21
247.2557580884
  0
LINE
  8
0
 62
7
  6
CONTINUOUS
 10
111.5826800218
 20
245.8295297129
 11
111.8483771257
 21
246.0020091687
  0
LINE
  8
0
 62
7
  6
CONTINUOUS
 10
117.4800827299
 20
244.4231356675
 11
117.7679548757
 21
244.5553239042
  0
LINE
  8
0
 62
7
  6
CONTINUOUS
 10
121.5938848399
 20
242.5506880466
 11
121.8093902108
 21
242.6271741577
  0
LINE
  8
0
 62
7
  6
CONTINUOUS
 10
121.769467865
 20
240.4101337485
 11
121.553962467
 21
240.3336476017
  0
LINE
  8
0
 62
7
  6
CONTINUOUS
 10
121.5482592844
 20
240.016927556
 11
121.8521688352
 21
240.1062757434
  0
LINE
  8
LAY0001
 62
7
  6
CONTINUOUS
 10
123.9514854156
 20
180.6915964491
 11
124.0709408458
 21
180.6718872633
  0
LINE
  8
LAY0001
 62
7
  6
CONTINUOUS
 10
120.4446845285
 20
176.7673016754
 11
120.5113703808
 21
176.7504887581
  0
LINE
  8
LAY0001
 62
7
  6
CONTINUOUS
 10
121.6915127527
 20
178.0141298995
 11
121.7581986049
 21
177.9973169822
  0
LINE
  8
LAY0001
 62
7
  6
CONTINUOUS
 10
121.3076444153
 20
178.2982517963
 11
121.3743302724
 21
178.2814388741
  0
LINE
  8
LAY0001
 62
7
  6
CONTINUOUS
 10
121.5517825759
 20
178.4032253216
 11
121.4850967164
 21
178.4200382462
  0
LINE
  8
LAY0001
 62
7
  6
CONTINUOUS
 10
123.7003541018
 20
179.9951383254
 11
123.6336681782
 21
180.0119511714
  0
LINE
  8
0
 62
7
  6
CONTINUOUS
 10
81.5625010687
 20
247.3979893657
 11
81.5317821698
 21
247.1153781799
  0
LINE
  8
0
 62
7
  6
CONTINUOUS
 10
81.8473626507
 20
247.1616291569
 11
81.8627227727
 21
247.302934993
  0
LINE
  8
0
 62
7
  6
CONTINUOUS
 10
67.8648075595
 20
150.9645037388
 11
67.0264142471
 21
147.4353630772
  0
LINE
  8
0
 62
7
  6
CONTINUOUS
 10
91.9975943284
 20
248.7079589022
 11
92.0863826895
 21
248.9780133093
  0
LINE
  8
0
 62
7
  6
CONTINUOUS
 10
41.304766892
 20
175.5760133815
 11
38.6914680638
 21
173.0603809779
  0
LINE
  8
0
 62
7
  6
CONTINUOUS
 10
118.489094005
 20
243.128654357
 11
119.9035677298
 21
244.2625823863
  0
LINE
  8
0
 62
7
  6
CONTINUOUS
 10
117.6683203601
 20
242.4452865932
 11
118.2969769284
 21
242.9492535367
  0
LINE
  8
0
 62
7
  6
CONTINUOUS
 10
119.8342205977
 20
244.6131204302
 11
117.3545556494
 21
242.6506562753
  0
LINE
  8
0
 62
7
  6
CONTINUOUS
 10
121.4280773885
 20
242.4363087964
 11
121.5938848399
 21
242.5506880466
  0
LINE
  8
0
 62
7
  6
CONTINUOUS
 10
120.8088519217
 20
241.6241723299
 11
120.9746593189
 21
241.7385515089
  0
LINE
  8
0
 62
7
  6
CONTINUOUS
 10
121.5111838425
 20
242.854546016
 11
121.2182751867
 21
242.6765427132
  0
LINE
  8
0
 62
7
  6
CONTINUOUS
 10
121.8521688352
 20
240.1062757434
 11
122.1450774098
 21
240.2842789396
  0
LINE
  8
0
 62
7
  6
CONTINUOUS
 10
157.5164906289
 20
188.3475793571
 11
161.1290255358
 21
188.0199687622
  0
LINE
  8
LAY0001
 62
7
  6
CONTINUOUS
 10
122.2308625441
 20
178.9709735775
 11
122.1502602205
 21
179.0017029662
  0
LINE
  8
LAY0001
 62
7
  6
CONTINUOUS
 10
122.7887214587
 20
179.1113386055
 11
122.7081190022
 21
179.1420678417
  0
LINE
  8
LAY0001
 62
7
  6
CONTINUOUS
 10
123.5089853415
 20
179.8872683347
 11
123.589587798
 21
179.8565390985
  0
LINE
  8
LAY0001
 62
7
  6
CONTINUOUS
 10
120.3501657532
 20
176.8119475158
 11
120.4446845285
 21
176.7673016754
  0
LINE
  8
LAY0001
 62
7
  6
CONTINUOUS
 10
120.5693674366
 20
176.8919845834
 11
120.4748483758
 21
176.9366301385
  0
LINE
  8
LAY0001
 62
7
  6
CONTINUOUS
 10
121.3743302724
 20
178.2814388741
 11
121.468849338
 21
178.2367933141
  0
LINE
  8
LAY0001
 62
7
  6
CONTINUOUS
 10
122.5834362368
 20
179.0173850763
 11
122.6779550122
 21
178.9727392359
  0
LINE
  8
0
 62
7
  6
CONTINUOUS
 10
136.9353785596
 20
158.5552985926
 11
139.7973166527
 21
156.3266111971
  0
LINE
  8
0
 62
7
  6
CONTINUOUS
 10
103.5145222954
 20
144.6194264017
 11
104.7172184515
 21
141.1972547065
  0
LINE
  8
0
 62
7
  6
CONTINUOUS
 10
83.6423428463
 20
246.7926328605
 11
83.6142879421
 21
247.0539891443
  0
LINE
  8
0
 62
7
  6
CONTINUOUS
 10
83.3204136216
 20
246.9477124781
 11
83.3267623655
 21
246.7463818836
  0
LINE
  8
0
 62
7
  6
CONTINUOUS
 10
89.5149097478
 20
250.2328244428
 11
89.4967867245
 21
249.9081184235
  0
LINE
  8
0
 62
7
  6
CONTINUOUS
 10
92.0863826895
 20
248.9780133093
 11
92.1045057373
 21
249.3027191515
  0
LINE
  8
0
 62
7
  6
CONTINUOUS
 10
89.8682406205
 20
249.9595674581
 11
89.8951209497
 21
250.2210471127
  0
LINE
  8
0
 62
7
  6
CONTINUOUS
 10
91.7330518413
 20
249.2512701169
 11
91.706171512
 21
248.9897904623
  0
LINE
  8
0
 62
7
  6
CONTINUOUS
 10
101.0034839672
 20
275.9330457894
 11
99.1639548918
 21
265.5005579878
  0
LINE
  8
0
 62
7
  6
CONTINUOUS
 10
109.3345177036
 20
248.6063029924
 11
109.219660547
 21
248.4408275221
  0
LINE
  8
0
 62
7
  6
CONTINUOUS
 10
109.5605347997
 20
248.2719962911
 11
109.6753919563
 21
248.4374717614
  0
LINE
  8
0
 62
7
  6
CONTINUOUS
 10
108.9495830714
 20
247.3223381382
 11
108.8347259148
 21
247.1568626679
  0
LINE
  8
0
 62
7
  6
CONTINUOUS
 10
109.1756001547
 20
246.988031394
 11
109.2904573241
 21
247.1535069071
  0
LINE
  8
0
 62
7
  6
CONTINUOUS
 10
112.1205929935
 20
247.6051174853
 11
111.9943942286
 21
247.4481201304
  0
LINE
  8
0
 62
7
  6
CONTINUOUS
 10
112.3225650463
 20
247.2557580884
 11
112.4487638111
 21
247.4127554433
  0
LINE
  8
0
 62
7
  6
CONTINUOUS
 10
111.6464050886
 20
246.3513686074
 11
111.5202063238
 21
246.1943712525
  0
LINE
  8
0
 62
7
  6
CONTINUOUS
 10
111.8483771257
 20
246.0020091687
 11
111.9745759063
 21
246.1590065654
  0
LINE
  8
0
 62
7
  6
CONTINUOUS
 10
136.7458902237
 20
262.790119772
 11
129.5581511572
 21
255.0082770557
  0
LINE
  8
0
 62
7
  6
CONTINUOUS
 10
121.2182751867
 20
242.6765427132
 11
120.8976614905
 21
242.3591295064
  0
LINE
  8
0
 62
7
  6
CONTINUOUS
 10
121.1461652807
 20
242.1696541143
 11
121.4280773885
 21
242.4363087964
  0
LINE
  8
0
 62
7
  6
CONTINUOUS
 10
117.6187017956
 20
244.9302458004
 11
117.4710970958
 21
244.7931782699
  0
LINE
  8
0
 62
7
  6
CONTINUOUS
 10
117.7679548757
 20
244.5553239042
 11
117.9155595755
 21
244.6923914347
  0
LINE
  8
0
 62
7
  6
CONTINUOUS
 10
121.9352752079
 20
240.5245128564
 11
121.769467865
 21
240.4101337485
  0
LINE
  8
0
 62
7
  6
CONTINUOUS
 10
126.8674063448
 20
239.8901591885
 11
125.1353555372
 21
238.8901591885
  0
LINE
  8
0
 62
7
  6
CONTINUOUS
 10
29.1038227731
 20
203.3640739697
 11
39.6919151742
 21
203.0279664622
  0
LINE
  8
LAY0001
 62
7
  6
CONTINUOUS
 10
124.2234565789
 20
180.7687371501
 11
124.115021246
 21
180.8272993563
  0
LINE
  8
0
 62
7
  6
CONTINUOUS
 10
54.1212724269
 20
219.1055494977
 11
55.8533232344
 21
218.1055494977
  0
LINE
  8
0
 62
7
  6
CONTINUOUS
 10
37.0262979883
 20
240.6131074574
 11
45.7518546891
 21
234.6060008984
  0
LINE
  8
LAY0001
 62
7
  6
CONTINUOUS
 10
119.864218504
 20
175.2991909664
 11
121.4905641008
 21
173.6728453697
  0
LINE
  8
LAY0001
 62
7
  6
CONTINUOUS
 10
119.1717893152
 20
175.9953991376
 11
119.1996222384
 21
175.9675662145
  0
LINE
  8
LAY0001
 62
7
  6
CONTINUOUS
 10
122.0916048648
 20
174.2738861337
 11
120.465259268
 21
175.9002317304
  0
LINE
  8
0
 62
7
  6
CONTINUOUS
 10
63.8294561662
 20
267.6657749969
 11
67.9221745659
 21
257.8948832746
  0
LINE
  8
0
 62
7
  6
CONTINUOUS
 10
81.5317821698
 20
247.1153781799
 11
81.6032521003
 21
246.7339714486
  0
LINE
  8
0
 62
7
  6
CONTINUOUS
 10
92.5553947257
 20
251.3353054084
 11
92.7431665416
 21
248.3411875508
  0
LINE
  8
0
 62
7
  6
CONTINUOUS
 10
93.1174312738
 20
248.3646590278
 11
92.9536303251
 21
250.9765491194
  0
LINE
  8
0
 62
7
  6
CONTINUOUS
 10
95.7668508701
 20
251.5064161124
 11
95.7391208638
 21
248.506544274
  0
LINE
  8
0
 62
7
  6
CONTINUOUS
 10
96.1176448444
 20
248.8860403846
 11
96.1270848466
 21
249.9072733632
  0
LINE
  8
0
 62
7
  6
CONTINUOUS
 10
96.130624847
 20
250.2902356799
 11
96.1382948495
 21
251.1199875449
  0
LINE
  8
0
 62
7
  6
CONTINUOUS
 10
101.9454001775
 20
251.1692550121
 11
101.8957772879
 21
250.8539875257
  0
LINE
  8
0
 62
7
  6
CONTINUOUS
 10
101.55834159
 20
248.7101683088
 11
101.4789449596
 21
248.2057402864
  0
LINE
  8
0
 62
7
  6
CONTINUOUS
 10
104.966665621
 20
250.2007849791
 11
104.8605958343
 21
249.7012844365
  0
LINE
  8
0
 62
7
  6
CONTINUOUS
 10
106.2655315853
 20
249.9157072385
 11
106.1439067584
 21
249.4197647084
  0
LINE
  8
0
 62
7
  6
CONTINUOUS
 10
107.7352519668
 20
250.018678002
 11
106.8737315543
 21
247.145042225
  0
LINE
  8
0
 62
7
  6
CONTINUOUS
 10
107.3429173554
 20
247.404199293
 11
107.6178706843
 21
248.3213171133
  0
LINE
  8
0
 62
7
  6
CONTINUOUS
 10
107.7278520004
 20
248.68816419
 11
107.9844751228
 21
249.5441408736
  0
LINE
  8
0
 62
7
  6
CONTINUOUS
 10
110.6245047025
 20
249.12635839
 11
109.563226955
 21
246.3203488492
  0
LINE
  8
0
 62
7
  6
CONTINUOUS
 10
110.0494604129
 20
246.5459031138
 11
110.388166084
 21
247.4414380923
  0
LINE
  8
0
 62
7
  6
CONTINUOUS
 10
110.5236483335
 20
247.7996520335
 11
110.8397736456
 21
248.6354847303
  0
LINE
  8
0
 62
7
  6
CONTINUOUS
 10
116.3586569655
 20
246.6520913734
 11
114.9022494524
 21
244.0293300126
  0
LINE
  8
0
 62
7
  6
CONTINUOUS
 10
115.2300946225
 20
243.8472790734
 11
115.8808299036
 21
245.0191511874
  0
LINE
  8
0
 62
7
  6
CONTINUOUS
 10
116.0667542448
 20
245.3539717468
 11
116.5315651846
 21
246.1910233015
  0
LINE
  8
0
 62
7
  6
CONTINUOUS
 10
120.8976614905
 20
242.3591295064
 11
120.6267503725
 21
242.0038198334
  0
LINE
  8
0
 62
7
  6
CONTINUOUS
 10
121.0687621041
 20
242.0681370649
 11
121.1461652807
 21
242.1696541143
  0
LINE
  8
0
 62
7
  6
CONTINUOUS
 10
120.6927471569
 20
241.4718967558
 11
120.8088519217
 21
241.6241723299
  0
LINE
  8
0
 62
7
  6
CONTINUOUS
 10
134.9579860857
 20
231.2822013885
 11
132.6174063448
 21
229.930867045
  0
LINE
  8
0
 62
7
  6
CONTINUOUS
 10
130.8853555372
 20
228.930867045
 11
128.5447757962
 21
227.5795327015
  0
LINE
  8
DEFAULT_1
 62
2
  6
CENTER
 10
165.7054945055
 20
208.4978543431
 11
98.4944393858
 21
208.4978543431
  0
LINE
  8
0
 62
2
  6
CONTINUOUS
 10
97.3743393858
 20
208.4978543431
 11
95.6143393858
 21
208.4978543431
  0
LINE
  8
DEFAULT_1
 62
2
  6
CENTER
 10
20.7956043956
 20
208.4978543431
 11
94.4942393858
 21
208.4978543431
  0
LINE
  8
0
 62
7
  6
CONTINUOUS
 10
57.5306926859
 20
230.4161759848
 11
59.8712724269
 21
229.0648416412
  0
LINE
  8
0
 62
7
  6
CONTINUOUS
 10
61.6033232344
 20
228.0648416412
 11
63.9439029754
 21
226.7135072977
  0
LINE
  8
LAY0001
 62
7
  6
CONTINUOUS
 10
120.6066806243
 20
176.0416530867
 11
121.5259194398
 21
175.1224142711
  0
LINE
  8
LAY0001
 62
7
  6
CONTINUOUS
 10
120.2480883885
 20
176.515039689
 11
120.2202554653
 21
176.5428726121
  0
LINE
  8
LAY0001
 62
7
  6
CONTINUOUS
 10
120.085752944
 20
177.076360325
 11
120.3501657532
 21
176.8119475158
  0
LINE
  8
LAY0001
 62
7
  6
CONTINUOUS
 10
120.4748483758
 20
176.9366301385
 11
120.2104355666
 21
177.2010429477
  0
LINE
  8
LAY0001
 62
7
  6
CONTINUOUS
 10
122.1623155429
 20
175.6880996961
 11
121.2077213883
 21
176.6426938507
  0
LINE
  8
LAY0001
 62
7
  6
CONTINUOUS
 10
120.6592936931
 20
177.6499010741
 11
120.9793723486
 21
177.3298224186
  0
LINE
  8
LAY0001
 62
7
  6
CONTINUOUS
 10
121.035038195
 20
177.2741565722
 11
121.1046205029
 21
177.2045742643
  0
LINE
  8
LAY0001
 62
7
  6
CONTINUOUS
 10
121.2293034109
 20
177.3292571723
 11
120.7839766011
 21
177.7745839821
  0
LINE
  8
LAY0001
 62
7
  6
CONTINUOUS
 10
120.9834691969
 20
177.9740765779
 11
121.4287960067
 21
177.5287497681
  0
LINE
  8
LAY0001
 62
7
  6
CONTINUOUS
 10
121.5679606615
 20
177.3895851132
 11
121.6375429695
 21
177.3200028053
  0
LINE
  8
LAY0001
 62
7
  6
CONTINUOUS
 10
121.7622255921
 20
177.4446854279
 11
121.6926432842
 21
177.5142677359
  0
LINE
  8
LAY0001
 62
7
  6
CONTINUOUS
 10
121.5534786293
 20
177.6534323907
 11
121.1081518195
 21
178.0987592005
  0
LINE
  8
LAY0001
 62
7
  6
CONTINUOUS
 10
122.0208941867
 20
177.455866649
 11
122.798711646
 21
176.6780491897
  0
LINE
  8
LAY0001
 62
7
  6
CONTINUOUS
 10
123.3643970709
 20
176.1123637648
 11
123.6472397834
 21
175.8295210523
  0
LINE
  8
LAY0001
 62
7
  6
CONTINUOUS
 10
121.468849338
 20
178.2367933141
 11
121.6915127527
 21
178.0141298995
  0
LINE
  8
LAY0001
 62
7
  6
CONTINUOUS
 10
121.8161953753
 20
178.1388125222
 11
121.7744459906
 21
178.1805619069
  0
LINE
  8
LAY0001
 62
7
  6
CONTINUOUS
 10
121.7187801247
 20
178.2362277728
 11
121.6352813552
 21
178.3197265423
  0
LINE
  8
LAY0001
 62
7
  6
CONTINUOUS
 10
124.2482805474
 20
176.4305618163
 11
122.6219349507
 21
178.0569074131
  0
LINE
  8
LAY0001
 62
7
  6
CONTINUOUS
 10
122.0922633074
 20
178.8602072835
 11
122.1200962403
 21
178.8323743506
  0
LINE
  8
LAY0001
 62
7
  6
CONTINUOUS
 10
122.7633563069
 20
178.1983287693
 11
124.3897019036
 21
176.5719831726
  0
LINE
  8
LAY0001
 62
7
  6
CONTINUOUS
 10
122.4674424106
 20
178.734393711
 11
122.4396094874
 21
178.7622266342
  0
LINE
  8
LAY0001
 62
7
  6
CONTINUOUS
 10
122.2726119289
 20
178.9292241928
 11
122.2308625441
 21
178.9709735775
  0
LINE
  8
LAY0001
 62
7
  6
CONTINUOUS
 10
122.3051069661
 20
179.2957143471
 11
122.5834362368
 21
179.0173850763
  0
LINE
  8
LAY0001
 62
7
  6
CONTINUOUS
 10
122.7081190022
 20
179.1420678417
 11
122.4297897314
 21
179.4203971124
  0
LINE
  8
LAY0001
 62
7
  6
CONTINUOUS
 10
124.9907426676
 20
177.1730239366
 11
124.2129252083
 21
177.9508413959
  0
LINE
  8
LAY0001
 62
7
  6
CONTINUOUS
 10
123.6472397834
 20
178.5165268208
 11
123.3643970709
 21
178.7993695333
  0
LINE
  8
LAY0001
 62
7
  6
CONTINUOUS
 10
122.8786478579
 20
179.8692552389
 11
123.1987265134
 21
179.5491765834
  0
LINE
  8
LAY0001
 62
7
  6
CONTINUOUS
 10
123.2543923597
 20
179.493510737
 11
123.5327216305
 21
179.2151814663
  0
LINE
  8
LAY0001
 62
7
  6
CONTINUOUS
 10
123.6574044671
 20
179.339864303
 11
123.0033306945
 21
179.9939380755
  0
LINE
  8
LAY0001
 62
7
  6
CONTINUOUS
 10
124.8493213114
 20
178.9407908895
 11
125.803915466
 21
177.9861967349
  0
LINE
  8
LAY0001
 62
7
  6
CONTINUOUS
 10
124.0709408458
 20
180.6718872633
 11
124.1126902305
 21
180.6301378786
  0
LINE
  8
LAY0001
 62
7
  6
CONTINUOUS
 10
126.40495623
 20
178.5872374989
 11
125.4857174145
 21
179.5064763145
  0
LINE
  8
0
 62
7
  6
CONTINUOUS
 10
70.2503514743
 20
241.3586116683
 11
71.0230634931
 21
240.3424361563
  0
LINE
  8
0
 62
7
  6
CONTINUOUS
 10
71.2718147966
 20
240.531589624
 11
70.4991027778
 21
241.547765136
  0
LINE
  8
0
 62
7
  6
CONTINUOUS
 10
72.3503741945
 20
242.9276502067
 11
73.4880548383
 21
241.2312699343
  0
LINE
  8
0
 62
7
  6
CONTINUOUS
 10
73.7475922423
 20
241.4053291861
 11
72.9298842516
 21
242.6246025487
  0
LINE
  8
0
 62
7
  6
CONTINUOUS
 10
72.7876741836
 20
242.8366500641
 11
72.6099115986
 21
243.1017094585
  0
LINE
  8
0
 62
7
  6
CONTINUOUS
 10
73.7951129068
 20
245.0186639083
 11
73.9626009284
 21
244.7469953938
  0
LINE
  8
0
 62
7
  6
CONTINUOUS
 10
74.2975770655
 20
244.2036582125
 11
75.3695004977
 21
242.4649795673
  0
LINE
  8
0
 62
7
  6
CONTINUOUS
 10
75.6355091818
 20
242.6289782122
 11
74.5635857495
 21
244.3676568574
  0
LINE
  8
0
 62
7
  6
CONTINUOUS
 10
74.2286096124
 20
244.9109940386
 11
74.0611215908
 21
245.1826625531
  0
LINE
  8
0
 62
7
  6
CONTINUOUS
 10
77.4327025334
 20
247.0584511423
 11
78.6913375685
 21
244.335247542
  0
LINE
  8
0
 62
7
  6
CONTINUOUS
 10
79.0317380185
 20
244.4925769214
 11
78.4425896994
 21
245.7672679787
  0
LINE
  8
0
 62
7
  6
CONTINUOUS
 10
78.2819129056
 20
246.11491095
 11
77.9337797773
 21
246.8681375503
  0
LINE
  8
0
 62
7
  6
CONTINUOUS
 10
80.0647720785
 20
248.2356667162
 11
81.200931803
 21
245.4591327113
  0
LINE
  8
0
 62
7
  6
CONTINUOUS
 10
81.940541432
 20
246.7201977092
 11
81.8971264209
 21
246.8402481148
  0
LINE
  8
0
 62
7
  6
CONTINUOUS
 10
81.8690701562
 20
247.1016039541
 11
81.8473626507
 21
247.1616291569
  0
LINE
  8
0
 62
7
  6
CONTINUOUS
 10
89.4967867245
 20
249.9081184235
 11
89.6281459584
 21
248.9597255221
  0
LINE
  8
0
 62
7
  6
CONTINUOUS
 10
89.9995998544
 20
249.0111745567
 11
89.8682406205
 21
249.9595674581
  0
LINE
  8
0
 62
7
  6
CONTINUOUS
 10
94.6762272563
 20
251.4683103851
 11
94.8360330577
 21
248.9201249658
  0
LINE
  8
0
 62
7
  6
CONTINUOUS
 10
95.2382638045
 20
248.4976640045
 11
95.0504919885
 21
251.491781862
  0
LINE
  8
DEFAULT_1
 62
2
  6
CENTER
 10
96.4943393858
 20
276.4384615385
 11
96.4943393858
 21
210.4979543431
  0
LINE
  8
0
 62
2
  6
CONTINUOUS
 10
96.4943393858
 20
209.3778543431
 11
96.4943393858
 21
207.6178543431
  0
LINE
  8
DEFAULT_1
 62
2
  6
CENTER
 10
96.4943393858
 20
140.9934065934
 11
96.4943393858
 21
206.4977543431
  0
LINE
  8
0
 62
7
  6
CONTINUOUS
 10
96.9943393858
 20
163.7951856561
 11
96.9943393858
 21
166.4978543431
  0
LINE
  8
0
 62
7
  6
CONTINUOUS
 10
96.9943393858
 20
168.4978543431
 11
96.9943393858
 21
171.2005230302
  0
LINE
  8
0
 62
7
  6
CONTINUOUS
 10
97.7520163794
 20
249.8922529343
 11
97.7555563798
 21
250.275215251
  0
LINE
  8
0
 62
7
  6
CONTINUOUS
 10
97.9890247426
 20
248.4857467693
 11
97.9925647434
 21
248.8687091307
  0
LINE
  8
0
 62
7
  6
CONTINUOUS
 10
98.0132147485
 20
251.102656291
 11
98.0167547489
 21
251.4856186077
  0
LINE
  8
0
 62
7
  6
CONTINUOUS
 10
103.9485396224
 20
247.8170277531
 11
104.0080870968
 21
248.195348781
  0
LINE
  8
0
 62
7
  6
CONTINUOUS
 10
104.3455227948
 20
250.3391679978
 11
104.4149948402
 21
250.7805424788
  0
LINE
  8
0
 62
7
  6
CONTINUOUS
 10
105.3202275285
 20
250.0604524515
 11
104.8031374251
 21
247.6253878093
  0
LINE
  8
0
 62
7
  6
CONTINUOUS
 10
105.1699580514
 20
247.5474928276
 11
105.7931179043
 21
250.4820578376
  0
LINE
  8
0
 62
7
  6
CONTINUOUS
 10
106.6145361987
 20
249.7643962324
 11
106.0216152901
 21
247.3466768973
  0
LINE
  8
0
 62
7
  6
CONTINUOUS
 10
106.3858230016
 20
247.2573586857
 11
107.1003686944
 21
250.1710203772
  0
LINE
  8
0
 62
7
  6
CONTINUOUS
 10
109.3711781423
 20
248.7285853513
 11
109.3345177036
 21
248.6063029924
  0
LINE
  8
0
 62
7
  6
CONTINUOUS
 10
109.0045737294
 20
247.5057616765
 11
108.9495830714
 21
247.3223381382
  0
LINE
  8
0
 62
7
  6
CONTINUOUS
 10
109.2904573241
 20
247.1535069071
 11
109.3821084209
 21
247.4592128044
  0
LINE
  8
0
 62
7
  6
CONTINUOUS
 10
109.6753919563
 20
248.4374717614
 11
109.7487128851
 21
248.6820366505
  0
LINE
  8
0
 62
7
  6
CONTINUOUS
 10
112.1657537433
 20
247.7245221324
 11
112.1205929935
 21
247.6051174853
  0
LINE
  8
0
 62
7
  6
CONTINUOUS
 10
111.7141462134
 20
246.530475578
 11
111.6464050886
 21
246.3513686074
  0
LINE
  8
0
 62
7
  6
CONTINUOUS
 10
111.9745759063
 20
246.1590065654
 11
112.0874777809
 21
246.4575181831
  0
LINE
  8
0
 62
7
  6
CONTINUOUS
 10
112.4487638111
 20
247.4127554433
 11
112.5390853741
 21
247.6515649047
  0
LINE
  8
0
 62
7
  6
CONTINUOUS
 10
117.711664053
 20
245.0976562364
 11
117.6187017956
 21
244.9302458004
  0
LINE
  8
0
 62
7
  6
CONTINUOUS
 10
117.9155595755
 20
244.6923914347
 11
118.0395092231
 21
244.9156052973
  0
LINE
  8
0
 62
7
  6
CONTINUOUS
 10
120.6267503725
 20
242.0038198334
 11
120.4055417785
 21
241.6106136231
  0
LINE
  8
0
 62
7
  6
CONTINUOUS
 10
122.0513799728
 20
240.6767884306
 11
121.9352752079
 21
240.5245128564
  0
LINE
  8
0
 62
7
  6
CONTINUOUS
 10
122.1450774098
 20
240.2842789396
 11
122.3385854054
 21
240.5380716343
  0
LINE
  8
0
 62
7
  6
CONTINUOUS
 10
159.7087134931
 20
232.4097830917
 11
149.4548208029
 21
229.7492655393
  0
LINE
  8
0
 62
7
  6
CONTINUOUS
 10
162.6014196348
 20
194.4375779874
 11
152.5369117995
 21
197.7430811234
  0
LINE
  8
0
 62
7
  6
CONTINUOUS
 10
71.494107974
 20
242.3043789934
 11
72.3440911893
 21
241.1865859373
  0
LINE
  8
0
 62
7
  6
CONTINUOUS
 10
72.7473849661
 20
241.1725043219
 11
71.7428593309
 21
242.4935325017
  0
LINE
  8
0
 62
7
  6
CONTINUOUS
 10
74.0064287961
 20
243.0391682201
 11
74.6819267188
 21
242.031942373
  0
LINE
  8
0
 62
7
  6
CONTINUOUS
 10
74.9414639744
 20
242.2060015252
 11
74.2659660517
 21
243.2132273723
  0
LINE
  8
0
 62
7
  6
CONTINUOUS
 10
81.6032521003
 20
246.7339714486
 11
81.7922722668
 21
246.3950756624
  0
LINE
  8
0
 62
7
  6
CONTINUOUS
 10
79.9176578834
 20
246.4490284226
 11
79.7569810896
 21
246.796671394
  0
LINE
  8
0
 62
7
  6
CONTINUOUS
 10
79.6357820274
 20
247.6547844472
 11
79.4751052336
 21
248.0024274186
  0
LINE
  8
0
 62
7
  6
CONTINUOUS
 10
81.4901543158
 20
245.5774827728
 11
80.3539945914
 21
248.3540167778
  0
LINE
  8
0
 62
7
  6
CONTINUOUS
 10
83.0599235246
 20
247.6680149956
 11
83.1033385357
 21
247.54796459
  0
LINE
  8
0
 62
7
  6
CONTINUOUS
 10
83.4840429088
 20
247.414140361
 11
83.3972128562
 21
247.6542412563
  0
LINE
  8
0
 62
7
  6
CONTINUOUS
 10
91.6016926074
 20
250.1996630183
 11
91.7330518413
 21
249.2512701169
  0
LINE
  8
0
 62
7
  6
CONTINUOUS
 10
92.1045057373
 20
249.3027191515
 11
91.9731465034
 21
250.2511120529
  0
LINE
  8
0
 62
7
  6
CONTINUOUS
 10
108.4943393858
 20
166.4978543431
 11
108.4943393858
 21
168.4978543431
  0
LINE
  8
0
 62
7
  6
CONTINUOUS
 10
120.6263449701
 20
241.2817247154
 11
120.6927471569
 21
241.4718967558
  0
LINE
  8
0
 62
7
  6
CONTINUOUS
 10
73.1691579358
 20
145.0646348082
 11
77.8733446208
 21
154.5562783212
  0
LINE
  8
0
 62
7
  6
CONTINUOUS
 10
42.5773604238
 20
167.744979477
 11
51.6663439997
 21
173.1865827799
  0
LINE
  8
0
 62
7
  6
CONTINUOUS
 10
71.4374718591
 20
240.4169940069
 11
71.2718147966
 21
240.531589624
  0
LINE
  8
0
 62
7
  6
CONTINUOUS
 10
71.0230634931
 20
240.3424361563
 11
71.2273561765
 21
240.1770317282
  0
LINE
  8
0
 62
7
  6
CONTINUOUS
 10
72.9516775938
 20
241.0070998654
 11
72.7473849661
 21
241.1725043219
  0
LINE
  8
0
 62
7
  6
CONTINUOUS
 10
73.7767586412
 20
243.2694157043
 11
74.0064287961
 21
243.0391682201
  0
LINE
  8
0
 62
7
  6
CONTINUOUS
 10
74.2659660517
 20
243.2132273723
 11
74.0362961938
 21
243.4434750557
  0
LINE
  8
0
 62
7
  6
CONTINUOUS
 10
144.5055948878
 20
160.9294112808
 11
137.8258820327
 21
169.1514612152
  0
LINE
  8
0
 62
7
  6
CONTINUOUS
 10
82.0644377365
 20
246.5613770449
 11
81.940541432
 21
246.7201977092
  0
LINE
  8
0
 62
7
  6
CONTINUOUS
 10
83.3972128562
 20
247.6542412563
 11
83.2516077009
 21
247.8730866369
  0
LINE
  8
LAY0001
 62
7
  6
CONTINUOUS
 10
124.2820188046
 20
180.6603017977
 11
124.2234565789
 21
180.7687371501
  0
LINE
  8
0
 62
7
  6
CONTINUOUS
 10
90.0965384351
 20
248.7668447111
 11
89.9995998544
 21
249.0111745567
  0
LINE
  8
0
 62
7
  6
CONTINUOUS
 10
91.5047540267
 20
250.4439928639
 11
91.6016926074
 21
250.1996630183
  0
LINE
  8
0
 62
7
  6
CONTINUOUS
 10
89.6281459584
 20
248.9597255221
 11
89.7338418206
 21
248.652169489
  0
LINE
  8
0
 62
7
  6
CONTINUOUS
 10
91.9731465034
 20
250.2511120529
 11
91.8674506167
 21
250.5586682631
  0
LINE
  8
0
 62
7
  6
CONTINUOUS
 10
111.1665357502
 20
142.523889144
 11
109.9923795102
 21
153.0520431168
  0
LINE
  8
0
 62
7
  6
CONTINUOUS
 10
107.7551560416
 20
271.7665711991
 11
107.56532095
 21
275.3888405303
  0
LINE
  8
0
 62
7
  6
CONTINUOUS
 10
108.9996979147
 20
247.7071333686
 11
109.0045737294
 21
247.5057616765
  0
LINE
  8
0
 62
7
  6
CONTINUOUS
 10
109.3821084209
 20
247.4592128044
 11
109.3772326062
 21
247.6605844965
  0
LINE
  8
0
 62
7
  6
CONTINUOUS
 10
109.3663023532
 20
248.929957129
 11
109.3711781423
 21
248.7285853513
  0
LINE
  8
0
 62
7
  6
CONTINUOUS
 10
109.7487128851
 20
248.6820366505
 11
109.7438370447
 21
248.8834082569
  0
LINE
  8
0
 62
7
  6
CONTINUOUS
 10
111.7234297297
 20
246.731692248
 11
111.7141462134
 21
246.530475578
  0
LINE
  8
0
 62
7
  6
CONTINUOUS
 10
112.0874777809
 20
246.4575181831
 11
112.0967612972
 21
246.658734853
  0
LINE
  8
0
 62
7
  6
CONTINUOUS
 10
112.1750372912
 20
247.9257388859
 11
112.1657537433
 21
247.7245221324
  0
LINE
  8
0
 62
7
  6
CONTINUOUS
 10
112.5390853741
 20
247.6515649047
 11
112.5483688587
 21
247.852781491
  0
LINE
  8
0
 62
7
  6
CONTINUOUS
 10
117.7499836944
 20
245.2954092652
 11
117.711664053
 21
245.0976562364
  0
LINE
  8
0
 62
7
  6
CONTINUOUS
 10
118.0395092231
 20
244.9156052973
 11
118.0778288645
 21
245.1133583261
  0
LINE
  8
0
 62
7
  6
CONTINUOUS
 10
119.446321983
 20
241.2815240164
 11
120.2525719493
 21
244.3392952319
  0
LINE
  8
0
 62
7
  6
CONTINUOUS
 10
119.3428577014
 20
242.264688974
 11
119.1325572723
 21
241.4868936985
  0
LINE
  8
0
 62
7
  6
CONTINUOUS
 10
119.9035677298
 20
244.2625823863
 11
119.430388137
 21
242.5125453105
  0
LINE
  8
0
 62
7
  6
CONTINUOUS
 10
120.4055417785
 20
241.6106136231
 11
120.3114344159
 21
241.2810315011
  0
LINE
  8
0
 62
7
  6
CONTINUOUS
 10
122.3385854054
 20
240.5380716343
 11
122.4326927409
 21
240.8676537208
  0
LINE
  8
0
 62
7
  6
CONTINUOUS
 10
122.1177822137
 20
240.866960542
 11
122.0513799728
 21
240.6767884306
  0
LINE
  8
0
 62
7
  6
CONTINUOUS
 10
122.935813497
 20
241.5275146843
 11
123.0022156837
 21
241.7176867246
  0
LINE
  8
0
 62
7
  6
CONTINUOUS
 10
140.1731919804
 20
255.6348287939
 11
141.9718982949
 21
258.78481177
  0
LINE
  8
0
 62
7
  6
CONTINUOUS
 10
158.7235008405
 20
224.5374300546
 11
161.9396782532
 21
226.2149103094
  0
LINE
  8
0
 62
7
  6
CONTINUOUS
 10
32.2670255403
 20
210.639974915
 11
28.7085251097
 21
209.9365462829
  0
LINE
  8
0
 62
7
  6
CONTINUOUS
 10
43.6210025261
 20
245.0238283024
 11
40.2470992365
 21
246.3559370623
  0
LINE
  8
0
 62
7
  6
CONTINUOUS
 10
71.2273561765
 20
240.1770317282
 11
71.3543776363
 21
240.1132448797
  0
LINE
  8
0
 62
7
  6
CONTINUOUS
 10
73.0786991538
 20
240.9433130791
 11
72.9516775938
 21
241.0070998654
  0
LINE
  8
0
 62
7
  6
CONTINUOUS
 10
72.5372692075
 20
240.9325420416
 11
72.8299477969
 21
240.7541595707
  0
LINE
  8
0
 62
7
  6
CONTINUOUS
 10
74.0362961938
 20
243.4434750557
 11
73.8777310728
 21
243.5676987822
  0
LINE
  8
0
 62
7
  6
CONTINUOUS
 10
81.7922722668
 20
246.3950756624
 11
81.9966512252
 21
246.1974851838
  0
LINE
  8
0
 62
7
  6
CONTINUOUS
 10
82.1666278807
 20
246.4625820699
 11
82.0644377365
 21
246.5613770449
  0
LINE
  8
0
 62
7
  6
CONTINUOUS
 10
71.7618903797
 20
267.8109430379
 11
69.6437746868
 21
270.7556540707
  0
LINE
  8
0
 62
7
  6
CONTINUOUS
 10
89.7338418206
 20
248.652169489
 11
89.8926884455
 21
248.4164143074
  0
LINE
  8
0
 62
7
  6
CONTINUOUS
 10
91.8674506167
 20
250.5586682631
 11
91.7086039979
 21
250.7944234004
  0
LINE
  8
LAY0001
 62
7
  6
CONTINUOUS
 10
123.311258537
 20
180.1348683595
 11
123.341987783
 21
180.0542658933
  0
LINE
  8
LAY0001
 62
7
  6
CONTINUOUS
 10
124.1126902305
 20
180.6301378786
 11
124.1434195308
 21
180.5495354472
  0
LINE
  8
LAY0001
 62
7
  6
CONTINUOUS
 10
122.1200962403
 20
178.8323743506
 11
122.136909015
 21
178.7656883557
  0
LINE
  8
LAY0001
 62
7
  6
CONTINUOUS
 10
123.4666706197
 20
180.1789487299
 11
123.449857764
 21
180.2456346633
  0
LINE
  8
LAY0001
 62
7
  6
CONTINUOUS
 10
119.324304861
 20
176.0922488371
 11
119.3214084053
 21
176.1450182277
  0
LINE
  8
LAY0001
 62
7
  6
CONTINUOUS
 10
120.0955725573
 20
176.4181897041
 11
120.098469013
 21
176.3654203135
  0
LINE
  8
LAY0001
 62
7
  6
CONTINUOUS
 10
121.5488864007
 20
178.4559950024
 11
121.5517825759
 21
178.4032253216
  0
LINE
  8
LAY0001
 62
7
  6
CONTINUOUS
 10
121.6352813552
 20
178.3197265423
 11
121.6323851849
 21
178.3724962183
  0
LINE
  8
LAY0001
 62
7
  6
CONTINUOUS
 10
122.2784046976
 20
178.8236852688
 11
122.2726119289
 21
178.9292241928
  0
LINE
  8
LAY0001
 62
7
  6
CONTINUOUS
 10
122.3149267221
 20
178.6375438689
 11
122.3178230351
 21
178.5847743356
  0
LINE
  8
LAY0001
 62
7
  6
CONTINUOUS
 10
122.4703388663
 20
178.6816243204
 11
122.4674424106
 21
178.734393711
  0
LINE
  8
0
 62
7
  6
CONTINUOUS
 10
120.3114344159
 20
241.2810315011
 11
120.3057312333
 21
240.9643114553
  0
LINE
  8
0
 62
7
  6
CONTINUOUS
 10
120.6096407842
 20
241.0536596428
 11
120.6263449701
 21
241.2817247154
  0
LINE
  8
0
 62
7
  6
CONTINUOUS
 10
122.7040093155
 20
241.9450585829
 11
122.6873051566
 21
241.7169935458
  0
LINE
  8
LAY0001
 62
7
  6
CONTINUOUS
 10
119.1799128605
 20
176.0870214622
 11
119.1717893152
 21
175.9953991376
  0
LINE
  8
0
 62
7
  6
CONTINUOUS
 10
71.6528792165
 20
240.3402290531
 11
71.4374718591
 21
240.4169940069
  0
LINE
  8
0
 62
7
  6
CONTINUOUS
 10
83.7364860421
 20
248.5720649809
 11
84.861817443
 21
247.8356824563
  0
LINE
  8
0
 62
7
  6
CONTINUOUS
 10
83.2516077009
 20
247.8730866369
 11
82.9884536245
 21
248.0494216429
  0
LINE
  8
0
 62
7
  6
CONTINUOUS
 10
85.0953227324
 20
247.7041541448
 11
85.9871502176
 21
247.0993003311
  0
LINE
  8
0
 62
7
  6
CONTINUOUS
 10
84.9884012572
 20
248.0719047862
 11
84.0965751706
 21
248.6767589134
  0
LINE
  8
0
 62
7
  6
CONTINUOUS
 10
82.8772520869
 20
247.8055802294
 11
83.0599235246
 21
247.6680149956
  0
LINE
  8
0
 62
7
  6
CONTINUOUS
 10
90.2466277724
 20
248.5943157613
 11
90.0965384351
 21
248.7668447111
  0
LINE
  8
0
 62
7
  6
CONTINUOUS
 10
91.3546646648
 20
250.6165219908
 11
91.5047540267
 21
250.4439928639
  0
LINE
  8
0
 62
7
  6
CONTINUOUS
 10
94.8360330577
 20
248.9201249658
 11
93.1167918239
 21
251.3705126239
  0
LINE
  8
0
 62
7
  6
CONTINUOUS
 10
92.9536303251
 20
250.9765491194
 11
94.6768667062
 21
248.462456789
  0
LINE
  8
0
 62
7
  6
CONTINUOUS
 10
109.3772326062
 20
247.6605844965
 11
109.2709512475
 21
247.9589942401
  0
LINE
  8
0
 62
7
  6
CONTINUOUS
 10
112.0967612972
 20
246.658734853
 11
112.0117072005
 21
246.9638740064
  0
LINE
  8
LAY0001
 62
7
  6
CONTINUOUS
 10
124.1434195308
 20
180.5495354472
 11
124.1463158974
 21
180.4967659674
  0
LINE
  8
LAY0001
 62
7
  6
CONTINUOUS
 10
124.2878115265
 20
180.554762827
 11
124.2820188046
 21
180.6603017977
  0
LINE
  8
0
 62
7
  6
CONTINUOUS
 10
123.0022156837
 20
241.7176867246
 11
123.0079188528
 21
242.0344067526
  0
LINE
  8
LAY0001
 62
7
  6
CONTINUOUS
 10
120.239964553
 20
176.4234170839
 11
120.2480883885
 21
176.515039689
  0
LINE
  8
LAY0001
 62
7
  6
CONTINUOUS
 10
120.9793723486
 20
177.3298224186
 11
120.9573323369
 21
177.2521165605
  0
LINE
  8
LAY0001
 62
7
  6
CONTINUOUS
 10
121.0129981832
 20
177.1964507142
 11
121.035038195
 21
177.2741565722
  0
LINE
  8
0
 62
7
  6
CONTINUOUS
 10
117.1685579463
 20
244.3770922177
 11
117.4800827299
 21
244.4231356675
  0
LINE
  8
0
 62
7
  6
CONTINUOUS
 10
120.9746593189
 20
241.7385515089
 11
121.1514631015
 21
241.7642790954
  0
LINE
  8
0
 62
7
  6
CONTINUOUS
 10
71.6195352213
 20
240.0743106223
 11
71.8460572314
 21
240.0861851618
  0
LINE
  8
0
 62
7
  6
CONTINUOUS
 10
121.553962467
 20
240.3336476017
 11
121.3274561063
 21
240.3458164815
  0
LINE
  8
0
 62
7
  6
CONTINUOUS
 10
71.3543776363
 20
240.1132448797
 11
71.6195352213
 21
240.0743106223
  0
LINE
  8
0
 62
7
  6
CONTINUOUS
 10
73.6018387643
 20
243.305815841
 11
73.7767586412
 21
243.2694157043
  0
LINE
  8
0
 62
7
  6
CONTINUOUS
 10
73.8777310728
 20
243.5676987822
 11
73.702811196
 21
243.6040989189
  0
LINE
  8
0
 62
7
  6
CONTINUOUS
 10
82.1576165102
 20
246.1199456183
 11
82.3773555793
 21
246.0636610073
  0
LINE
  8
0
 62
7
  6
CONTINUOUS
 10
81.9966512252
 20
246.1974851838
 11
82.1576165102
 21
246.1199456183
  0
LINE
  8
0
 62
7
  6
CONTINUOUS
 10
82.4080744668
 20
246.3462722246
 11
82.1666278807
 21
246.4625820699
  0
LINE
  8
0
 62
7
  6
CONTINUOUS
 10
90.4498692894
 20
248.4935878593
 11
90.2466277724
 21
248.5943157613
  0
LINE
  8
0
 62
7
  6
CONTINUOUS
 10
86.3472393462
 20
247.2039942636
 11
85.2219065716
 21
247.9403763888
  0
LINE
  8
0
 62
7
  6
CONTINUOUS
 10
89.8926884455
 20
248.4164143074
 11
90.1753539773
 21
248.197808957
  0
LINE
  8
0
 62
7
  6
CONTINUOUS
 10
91.7086039979
 20
250.7944234004
 11
91.4259384692
 21
251.0130287287
  0
LINE
  8
0
 62
7
  6
CONTINUOUS
 10
108.9166226158
 20
247.8653126852
 11
108.9996979147
 21
247.7071333686
  0
LINE
  8
0
 62
7
  6
CONTINUOUS
 10
109.2832270544
 20
249.0881364456
 11
109.3663023532
 21
248.929957129
  0
LINE
  8
0
 62
7
  6
CONTINUOUS
 10
111.6516725233
 20
246.8953171385
 11
111.7234297297
 21
246.731692248
  0
LINE
  8
0
 62
7
  6
CONTINUOUS
 10
112.1032800848
 20
248.0893637765
 11
112.1750372912
 21
247.9257388859
  0
LINE
  8
0
 62
7
  6
CONTINUOUS
 10
109.7438370447
 20
248.8834082569
 11
109.637555686
 21
249.1818180005
  0
LINE
  8
0
 62
7
  6
CONTINUOUS
 10
112.5483688587
 20
247.852781491
 11
112.4633147621
 21
248.1579206444
  0
LINE
  8
0
 62
7
  6
CONTINUOUS
 10
117.7026759177
 20
245.4677002277
 11
117.7499836944
 21
245.2954092652
  0
LINE
  8
0
 62
7
  6
CONTINUOUS
 10
118.0778288645
 20
245.1133583261
 11
118.0378558403
 21
245.4275975019
  0
LINE
  8
0
 62
7
  6
CONTINUOUS
 10
122.0957847843
 20
241.0442670544
 11
122.1177822137
 21
240.866960542
  0
LINE
  8
0
 62
7
  6
CONTINUOUS
 10
122.4326927409
 20
240.8676537208
 11
122.3996943216
 21
241.1336152241
  0
LINE
  8
LAY0001
 62
7
  6
CONTINUOUS
 10
121.6323851849
 20
178.3724962183
 11
121.6654454781
 21
178.4890553005
  0
LINE
  8
LAY0001
 62
7
  6
CONTINUOUS
 10
122.136909015
 20
178.7656883557
 11
122.1148688605
 21
178.6879823549
  0
LINE
  8
LAY0001
 62
7
  6
CONTINUOUS
 10
122.2563645627
 20
178.7459792486
 11
122.2784046976
 21
178.8236852688
  0
LINE
  8
LAY0001
 62
7
  6
CONTINUOUS
 10
122.4482985692
 20
178.603918177
 11
122.4703388663
 21
178.6816243204
  0
LINE
  8
LAY0001
 62
7
  6
CONTINUOUS
 10
123.3443188351
 20
180.2514274369
 11
123.311258537
 21
180.1348683595
  0
LINE
  8
LAY0001
 62
7
  6
CONTINUOUS
 10
123.1987265134
 20
179.5491765834
 11
123.1766862876
 21
179.4714705112
  0
LINE
  8
LAY0001
 62
7
  6
CONTINUOUS
 10
123.232352134
 20
179.4158046649
 11
123.2543923597
 21
179.493510737
  0
LINE
  8
LAY0001
 62
7
  6
CONTINUOUS
 10
124.1463158974
 20
180.4967659674
 11
124.1132555944
 21
180.3802068949
  0
LINE
  8
LAY0001
 62
7
  6
CONTINUOUS
 10
124.2657713275
 20
180.4770567816
 11
124.2878115265
 21
180.554762827
  0
LINE
  8
LAY0001
 62
7
  6
CONTINUOUS
 10
120.9573323369
 20
177.2521165605
 11
120.9103555723
 21
177.1494739496
  0
LINE
  8
LAY0001
 62
7
  6
CONTINUOUS
 10
121.5958631616
 20
178.558637617
 11
121.5488864007
 21
178.4559950024
  0
LINE
  8
LAY0001
 62
7
  6
CONTINUOUS
 10
120.9660214187
 20
177.0938081032
 11
121.0129981832
 21
177.1964507142
  0
LINE
  8
LAY0001
 62
7
  6
CONTINUOUS
 10
123.449857764
 20
180.2456346633
 11
123.4968345642
 21
180.3482773098
  0
LINE
  8
LAY0001
 62
7
  6
CONTINUOUS
 10
123.1766862876
 20
179.4714705112
 11
123.1297095944
 21
179.3688279717
  0
LINE
  8
LAY0001
 62
7
  6
CONTINUOUS
 10
123.1853754407
 20
179.3131621253
 11
123.232352134
 21
179.4158046649
  0
LINE
  8
LAY0001
 62
7
  6
CONTINUOUS
 10
124.218794554
 20
180.3744141618
 11
124.2657713275
 21
180.4770567816
  0
LINE
  8
LAY0001
 62
7
  6
CONTINUOUS
 10
119.2518260888
 20
176.2146005442
 11
119.1799128605
 21
176.0870214622
  0
LINE
  8
LAY0001
 62
7
  6
CONTINUOUS
 10
119.3214084053
 20
176.1450182277
 11
119.357365164
 21
176.2088079096
  0
LINE
  8
LAY0001
 62
7
  6
CONTINUOUS
 10
120.098469013
 20
176.3654203135
 11
120.0625122543
 21
176.3016306316
  0
LINE
  8
LAY0001
 62
7
  6
CONTINUOUS
 10
120.168051321
 20
176.2958380055
 11
120.239964553
 21
176.4234170839
  0
LINE
  8
LAY0001
 62
7
  6
CONTINUOUS
 10
122.1148688605
 20
178.6879823549
 11
122.0789122445
 21
178.6241928157
  0
LINE
  8
LAY0001
 62
7
  6
CONTINUOUS
 10
122.184451188
 20
178.6184000275
 11
122.2563645627
 21
178.7459792486
  0
LINE
  8
LAY0001
 62
7
  6
CONTINUOUS
 10
122.3178230351
 20
178.5847743356
 11
122.2818664191
 21
178.5209847964
  0
LINE
  8
LAY0001
 62
7
  6
CONTINUOUS
 10
123.4162321349
 20
180.3790065902
 11
123.3443188351
 21
180.2514274369
  0
LINE
  8
LAY0001
 62
7
  6
CONTINUOUS
 10
122.4123419532
 20
178.5401286378
 11
122.4482985692
 21
178.603918177
  0
LINE
  8
LAY0001
 62
7
  6
CONTINUOUS
 10
124.1132555944
 20
180.3802068949
 11
124.0772989249
 21
180.3164173022
  0
LINE
  8
LAY0001
 62
7
  6
CONTINUOUS
 10
121.6654454781
 20
178.4890553005
 11
121.7622953154
 21
178.6415709939
  0
LINE
  8
LAY0001
 62
7
  6
CONTINUOUS
 10
119.357365164
 20
176.2088079096
 11
119.4431948527
 21
176.3224705313
  0
LINE
  8
LAY0001
 62
7
  6
CONTINUOUS
 10
120.0625122543
 20
176.3016306316
 11
119.9766825607
 21
176.1879680148
  0
LINE
  8
LAY0001
 62
7
  6
CONTINUOUS
 10
120.9103555723
 20
177.1494739496
 11
120.8245255933
 21
177.0358110474
  0
LINE
  8
LAY0001
 62
7
  6
CONTINUOUS
 10
122.0789122445
 20
178.6241928157
 11
121.9930824082
 21
178.5105300563
  0
LINE
  8
LAY0001
 62
7
  6
CONTINUOUS
 10
120.8801914397
 20
176.9801452011
 11
120.9660214187
 21
177.0938081032
  0
LINE
  8
LAY0001
 62
7
  6
CONTINUOUS
 10
122.2818664191
 20
178.5209847964
 11
122.1960365828
 21
178.4073220369
  0
LINE
  8
LAY0001
 62
7
  6
CONTINUOUS
 10
121.7066294642
 20
178.6972368452
 11
121.5958631616
 21
178.558637617
  0
LINE
  8
LAY0001
 62
7
  6
CONTINUOUS
 10
119.3875290015
 20
176.3781363825
 11
119.2518260888
 21
176.2146005442
  0
LINE
  8
LAY0001
 62
7
  6
CONTINUOUS
 10
123.576871622
 20
180.567479003
 11
123.4162321349
 21
180.3790065902
  0
LINE
  8
LAY0001
 62
7
  6
CONTINUOUS
 10
123.7404074425
 20
180.7031818978
 11
123.576871622
 21
180.567479003
  0
LINE
  8
LAY0001
 62
7
  6
CONTINUOUS
 10
123.829133593
 20
180.7640751228
 11
123.7404074425
 21
180.7031818978
  0
LINE
  8
LAY0001
 62
7
  6
CONTINUOUS
 10
123.657474012
 20
180.5367496906
 11
123.8349263334
 21
180.6585361558
  0
LINE
  8
LAY0001
 62
7
  6
CONTINUOUS
 10
122.0337011407
 20
178.9686426705
 11
121.9699114576
 21
178.932685913
  0
LINE
  8
LAY0001
 62
7
  6
CONTINUOUS
 10
123.7061468705
 20
179.8895994015
 11
123.8337260203
 21
179.9615127048
  0
LINE
  8
LAY0001
 62
7
  6
CONTINUOUS
 10
121.9119146909
 20
178.7911903694
 11
122.0394937741
 21
178.8631035966
  0
LINE
  8
LAY0001
 62
7
  6
CONTINUOUS
 10
122.9302169986
 20
179.1693353759
 11
122.8664274594
 21
179.1333787599
  0
LINE
  8
LAY0001
 62
7
  6
CONTINUOUS
 10
121.9327544478
 20
178.1718728251
 11
121.8689650513
 21
178.1359163518
  0
LINE
  8
LAY0001
 62
7
  6
CONTINUOUS
 10
123.9317762153
 20
180.8110518938
 11
123.829133593
 21
180.7640751228
  0
LINE
  8
LAY0001
 62
7
  6
CONTINUOUS
 10
123.8029967484
 20
180.0421151257
 11
123.7003541018
 21
179.9951383254
  0
LINE
  8
LAY0001
 62
7
  6
CONTINUOUS
 10
122.8084305463
 20
178.9918830772
 11
122.9110731572
 21
179.0388598418
  0
LINE
  8
LAY0001
 62
7
  6
CONTINUOUS
 10
121.8359047484
 20
178.0193572793
 11
121.9385473593
 21
178.0663340439
  0
LINE
  8
LAY0001
 62
7
  6
CONTINUOUS
 10
119.8920529792
 20
176.7713286577
 11
119.7894103658
 21
176.7243518956
  0
LINE
  8
LAY0001
 62
7
  6
CONTINUOUS
 10
120.5890765242
 20
176.7725290552
 11
120.6917191351
 21
176.8195058197
  0
LINE
  8
LAY0001
 62
7
  6
CONTINUOUS
 10
119.9401605557
 20
176.3741093953
 11
120.0428031667
 21
176.4210861598
  0
LINE
  8
LAY0001
 62
7
  6
CONTINUOUS
 10
119.4797168723
 20
176.1363291362
 11
119.3770742614
 21
176.0893523716
  0
LINE
  8
LAY0001
 62
7
  6
CONTINUOUS
 10
120.1147163987
 20
176.5486652382
 11
119.9732208392
 21
176.4906684873
  0
LINE
  8
LAY0001
 62
7
  6
CONTINUOUS
 10
119.3051610294
 20
175.9617732933
 11
119.4466565693
 21
176.0197700637
  0
LINE
  8
0
 62
7
  6
CONTINUOUS
 10
96.9943393858
 20
171.2005230302
 11
84.4943393858
 21
167.4978543431
  0
LINE
  8
0
 62
7
  6
CONTINUOUS
 10
73.4759837492
 20
243.6056871455
 11
73.2847088195
 21
243.5542634932
  0
LINE
  8
0
 62
7
  6
CONTINUOUS
 10
109.1695457293
 20
248.0560323773
 11
109.3076116862
 21
248.081276599
  0
LINE
  8
0
 62
7
  6
CONTINUOUS
 10
82.575387141
 20
246.0674016044
 11
82.9497427568
 21
246.1349080066
  0
LINE
  8
0
 62
7
  6
CONTINUOUS
 10
71.9291514622
 20
240.38993426
 11
71.6528792165
 21
240.3402290531
  0
LINE
  8
0
 62
7
  6
CONTINUOUS
 10
90.7588066686
 20
248.0853039242
 11
91.2540780576
 21
248.1539025715
  0
LINE
  8
0
 62
7
  6
CONTINUOUS
 10
73.4624714045
 20
243.2892040989
 11
73.6018387643
 21
243.305815841
  0
LINE
  8
0
 62
7
  6
CONTINUOUS
 10
111.9173696192
 20
247.0677965735
 11
112.0568679504
 21
247.0832786535
  0
LINE
  8
0
 62
7
  6
CONTINUOUS
 10
82.8041375939
 20
246.3537534083
 11
82.5473308934
 21
246.3287573964
  0
LINE
  8
0
 62
7
  6
CONTINUOUS
 10
92.7431665416
 20
248.3411875508
 11
93.1174312738
 21
248.3646590278
  0
LINE
  8
0
 62
7
  6
CONTINUOUS
 10
94.6768667062
 20
248.462456789
 11
95.2382638045
 21
248.4976640045
  0
LINE
  8
0
 62
7
  6
CONTINUOUS
 10
108.6783297257
 20
247.0704772239
 11
108.4803972702
 21
247.0631810702
  0
LINE
  8
0
 62
7
  6
CONTINUOUS
 10
109.0632643707
 20
248.3544421209
 11
108.8653319153
 21
248.3471459672
  0
LINE
  8
0
 62
7
  6
CONTINUOUS
 10
82.3773555793
 20
246.0636610073
 11
82.575387141
 21
246.0674016044
  0
LINE
  8
0
 62
7
  6
CONTINUOUS
 10
73.702811196
 20
243.6040989189
 11
73.4759837492
 21
243.6056871455
  0
LINE
  8
0
 62
7
  6
CONTINUOUS
 10
95.7391208638
 20
248.506544274
 11
97.9890247426
 21
248.4857467693
  0
LINE
  8
0
 62
7
  6
CONTINUOUS
 10
111.3581276019
 20
246.1191868071
 11
111.1601716307
 21
246.1258143428
  0
LINE
  8
0
 62
7
  6
CONTINUOUS
 10
111.8323155226
 20
247.3729357268
 11
111.6343595514
 21
247.3795632625
  0
LINE
  8
0
 62
7
  6
CONTINUOUS
 10
121.1514631015
 20
241.7642790954
 11
121.3779694622
 21
241.7521102157
  0
LINE
  8
0
 62
7
  6
CONTINUOUS
 10
121.5217748255
 20
242.0437993055
 11
121.0687621041
 21
242.0681370649
  0
LINE
  8
0
 62
7
  6
CONTINUOUS
 10
121.8093902108
 20
242.6271741577
 11
122.0358965715
 21
242.615005278
  0
LINE
  8
0
 62
7
  6
CONTINUOUS
 10
90.4405035284
 20
248.1056557909
 11
90.7588066686
 21
248.0853039242
  0
LINE
  8
0
 62
7
  6
CONTINUOUS
 10
108.3105494427
 20
246.7142820187
 11
108.6282176373
 21
246.68568122
  0
LINE
  8
0
 62
7
  6
CONTINUOUS
 10
121.183646169
 20
240.05413083
 11
121.5482592844
 21
240.016927556
  0
LINE
  8
0
 62
7
  6
CONTINUOUS
 10
122.1797019348
 20
242.9066943678
 11
121.8150933798
 21
242.9438941857
  0
LINE
  8
0
 62
7
  6
CONTINUOUS
 10
90.7062629739
 20
248.4646610936
 11
90.4498692894
 21
248.4935878593
  0
LINE
  8
0
 62
7
  6
CONTINUOUS
 10
82.5473308934
 20
246.3287573964
 11
82.4080744668
 21
246.3462722246
  0
LINE
  8
0
 62
7
  6
CONTINUOUS
 10
110.9662317253
 20
245.7897099755
 11
111.2811056547
 21
245.7388622015
  0
LINE
  8
0
 62
7
  6
CONTINUOUS
 10
117.2998397583
 20
244.7422555261
 11
117.104929783
 21
244.7774775692
  0
LINE
  8
0
 62
7
  6
CONTINUOUS
 10
82.9884536245
 20
248.0494216429
 11
82.6294581326
 21
248.1232210716
  0
LINE
  8
0
 62
7
  6
CONTINUOUS
 10
82.6575130216
 20
247.8618648298
 11
82.8772520869
 21
247.8055802294
  0
LINE
  8
0
 62
7
  6
CONTINUOUS
 10
121.3274561063
 20
240.3458164815
 11
121.1396513339
 21
240.4087438859
  0
LINE
  8
0
 62
7
  6
CONTINUOUS
 10
121.3779694622
 20
241.7521102157
 11
121.5657742346
 21
241.6891828113
  0
LINE
  8
0
 62
7
  6
CONTINUOUS
 10
90.1753539773
 20
248.197808957
 11
90.4405035284
 21
248.1056557909
  0
LINE
  8
0
 62
7
  6
CONTINUOUS
 10
91.4259384692
 20
251.0130287287
 11
91.1607875033
 21
251.1051816819
  0
LINE
  8
0
 62
7
  6
CONTINUOUS
 10
120.8964407872
 20
240.192847693
 11
121.183646169
 21
240.05413083
  0
LINE
  8
0
 62
7
  6
CONTINUOUS
 10
91.151423154
 20
250.7172498485
 11
91.3546646648
 21
250.6165219908
  0
LINE
  8
0
 62
7
  6
CONTINUOUS
 10
108.7553505991
 20
247.9802988905
 11
108.9166226158
 21
247.8653126852
  0
LINE
  8
0
 62
7
  6
CONTINUOUS
 10
111.4988773019
 20
247.0213493213
 11
111.6516725233
 21
246.8953171385
  0
LINE
  8
0
 62
7
  6
CONTINUOUS
 10
128.5447757962
 20
227.5795327015
 11
138.001380941
 21
218.6055494977
  0
LINE
  8
0
 62
7
  6
CONTINUOUS
 10
109.2709512475
 20
247.9589942401
 11
109.1695457293
 21
248.0560323773
  0
LINE
  8
0
 62
7
  6
CONTINUOUS
 10
112.0117072005
 20
246.9638740064
 11
111.9173696192
 21
247.0677965735
  0
LINE
  8
0
 62
7
  6
CONTINUOUS
 10
120.4381302484
 20
240.6225604757
 11
120.6479369971
 21
240.3823230851
  0
LINE
  8
0
 62
7
  6
CONTINUOUS
 10
109.637555686
 20
249.1818180005
 11
109.4530776095
 21
249.4370346327
  0
LINE
  8
0
 62
7
  6
CONTINUOUS
 10
120.7917423875
 20
240.6740122104
 11
120.6813407917
 21
240.8384566642
  0
LINE
  8
0
 62
7
  6
CONTINUOUS
 10
112.4633147621
 20
248.1579206444
 11
112.2972226504
 21
248.4254670899
  0
LINE
  8
0
 62
7
  6
CONTINUOUS
 10
118.0378558403
 20
245.4275975019
 11
117.9122553979
 21
245.7163746113
  0
LINE
  8
0
 62
7
  6
CONTINUOUS
 10
122.3996943216
 20
241.1336152241
 11
122.2672907461
 21
241.4753696597
  0
LINE
  8
0
 62
7
  6
CONTINUOUS
 10
120.3057312333
 20
240.9643114553
 11
120.4381302484
 21
240.6225604757
  0
LINE
  8
0
 62
7
  6
CONTINUOUS
 10
123.0079188528
 20
242.0344067526
 11
122.8755198275
 21
242.3761577188
  0
LINE
  8
0
 62
7
  6
CONTINUOUS
 10
120.6813407917
 20
240.8384566642
 11
120.6096407842
 21
241.0536596428
  0
LINE
  8
0
 62
7
  6
CONTINUOUS
 10
122.0240847768
 20
241.2594700329
 11
122.0957847843
 21
241.0442670544
  0
LINE
  8
0
 62
7
  6
CONTINUOUS
 10
122.6323093079
 20
242.1602615615
 11
122.7040093155
 21
241.9450585829
  0
LINE
  8
LAY0001
 62
7
  6
CONTINUOUS
 10
124.1579013279
 20
180.2856880124
 11
124.218794554
 21
180.3744141618
  0
LINE
  8
LAY0001
 62
7
  6
CONTINUOUS
 10
123.1297095944
 20
179.3688279717
 11
123.0438797581
 21
179.2551652122
  0
LINE
  8
LAY0001
 62
7
  6
CONTINUOUS
 10
123.0995456044
 20
179.1994993658
 11
123.1853754407
 21
179.3131621253
  0
LINE
  8
LAY0001
 62
7
  6
CONTINUOUS
 10
124.0772989249
 20
180.3164173022
 11
123.9914691242
 21
180.2027545784
  0
LINE
  8
LAY0001
 62
7
  6
CONTINUOUS
 10
120.0323484071
 20
176.1323021685
 11
120.168051321
 21
176.2958380055
  0
LINE
  8
LAY0001
 62
7
  6
CONTINUOUS
 10
122.0487482741
 20
178.4548641904
 11
122.184451188
 21
178.6184000275
  0
LINE
  8
LAY0001
 62
7
  6
CONTINUOUS
 10
124.0221984318
 20
180.1221521932
 11
124.1579013279
 21
180.2856880124
  0
LINE
  8
LAY0001
 62
7
  6
CONTINUOUS
 10
123.4968345642
 20
180.3482773098
 11
123.657474012
 21
180.5367496906
  0
LINE
  8
LAY0001
 62
7
  6
CONTINUOUS
 10
122.2517024291
 20
178.3516561906
 11
122.4123419532
 21
178.5401286378
  0
LINE
  8
LAY0001
 62
7
  6
CONTINUOUS
 10
123.0033306945
 20
179.9939380755
 11
122.8786478579
 21
179.8692552389
  0
LINE
  8
LAY0001
 62
7
  6
CONTINUOUS
 10
122.4297897314
 20
179.4203971124
 11
122.3051069661
 21
179.2957143471
  0
LINE
  8
LAY0001
 62
7
  6
CONTINUOUS
 10
121.8562488396
 20
178.8468562206
 11
121.7066294642
 21
178.6972368452
  0
LINE
  8
LAY0001
 62
7
  6
CONTINUOUS
 10
121.4323273233
 20
178.4229347043
 11
121.3076444153
 21
178.2982517963
  0
LINE
  8
LAY0001
 62
7
  6
CONTINUOUS
 10
121.1081518195
 20
178.0987592005
 11
120.9834691969
 21
177.9740765779
  0
LINE
  8
LAY0001
 62
7
  6
CONTINUOUS
 10
120.7839766011
 20
177.7745839821
 11
120.6592936931
 21
177.6499010741
  0
LINE
  8
LAY0001
 62
7
  6
CONTINUOUS
 10
120.2104355666
 20
177.2010429477
 11
120.085752944
 21
177.076360325
  0
LINE
  8
LAY0001
 62
7
  6
CONTINUOUS
 10
119.537148377
 20
176.527755758
 11
119.3875290015
 21
176.3781363825
  0
LINE
  8
LAY0001
 62
7
  6
CONTINUOUS
 10
119.4431948527
 20
176.3224705313
 11
119.5928142282
 21
176.4720899068
  0
LINE
  8
LAY0001
 62
7
  6
CONTINUOUS
 10
121.7622953154
 20
178.6415709939
 11
121.9119146909
 21
178.7911903694
  0
LINE
  8
LAY0001
 62
7
  6
CONTINUOUS
 10
119.8729091427
 20
176.6408531188
 11
119.9975920507
 21
176.7655360268
  0
LINE
  8
LAY0001
 62
7
  6
CONTINUOUS
 10
123.341987783
 20
180.0542658933
 11
123.4666706197
 21
180.1789487299
  0
LINE
  8
LAY0001
 62
7
  6
CONTINUOUS
 10
121.9930824082
 20
178.5105300563
 11
121.7187801247
 21
178.2362277728
  0
LINE
  8
LAY0001
 62
7
  6
CONTINUOUS
 10
121.7744459906
 20
178.1805619069
 11
122.0487482741
 21
178.4548641904
  0
LINE
  8
LAY0001
 62
7
  6
CONTINUOUS
 10
123.6336681782
 20
180.0119511714
 11
123.5089853415
 21
179.8872683347
  0
LINE
  8
LAY0001
 62
7
  6
CONTINUOUS
 10
122.4396094874
 20
178.7622266342
 11
122.3149267221
 21
178.6375438689
  0
LINE
  8
LAY0001
 62
7
  6
CONTINUOUS
 10
119.5469682757
 20
175.8695854225
 11
119.422285653
 21
175.7449027998
  0
LINE
  8
LAY0001
 62
7
  6
CONTINUOUS
 10
122.1960365828
 20
178.4073220369
 11
122.0464172073
 21
178.2577026614
  0
LINE
  8
LAY0001
 62
7
  6
CONTINUOUS
 10
119.9766825607
 20
176.1879680148
 11
119.8270631852
 21
176.0383486393
  0
LINE
  8
LAY0001
 62
7
  6
CONTINUOUS
 10
119.8827290316
 20
175.982682793
 11
120.0323484071
 21
176.1323021685
  0
LINE
  8
LAY0001
 62
7
  6
CONTINUOUS
 10
120.7804452845
 20
176.8803990459
 11
120.8801914397
 21
176.9801452011
  0
LINE
  8
LAY0001
 62
7
  6
CONTINUOUS
 10
121.1046205029
 20
177.2045742643
 11
121.2293034109
 21
177.3292571723
  0
LINE
  8
LAY0001
 62
7
  6
CONTINUOUS
 10
121.4287960067
 20
177.5287497681
 11
121.5534786293
 21
177.6534323907
  0
LINE
  8
LAY0001
 62
7
  6
CONTINUOUS
 10
122.1020830537
 20
178.2020368151
 11
122.2517024291
 21
178.3516561906
  0
LINE
  8
LAY0001
 62
7
  6
CONTINUOUS
 10
122.9997993066
 20
179.099753068
 11
123.0995456044
 21
179.1994993658
  0
LINE
  8
LAY0001
 62
7
  6
CONTINUOUS
 10
121.6926432842
 20
177.5142677359
 11
121.5679606615
 21
177.3895851132
  0
LINE
  8
LAY0001
 62
7
  6
CONTINUOUS
 10
121.6375429695
 20
177.3200028053
 11
121.7622255921
 21
177.4446854279
  0
LINE
  8
LAY0001
 62
7
  6
CONTINUOUS
 10
123.5327216305
 20
179.2151814663
 11
123.6574044671
 21
179.339864303
  0
LINE
  8
LAY0001
 62
7
  6
CONTINUOUS
 10
124.0715038521
 20
179.5064763145
 11
123.8935473331
 21
179.3285197955
  0
LINE
  8
LAY0001
 62
7
  6
CONTINUOUS
 10
123.3643970709
 20
178.7993695333
 11
122.7633563069
 21
178.1983287693
  0
LINE
  8
LAY0001
 62
7
  6
CONTINUOUS
 10
122.6219349507
 20
178.0569074131
 11
122.0208941867
 21
177.455866649
  0
LINE
  8
LAY0001
 62
7
  6
CONTINUOUS
 10
121.2077213883
 20
176.6426938507
 11
120.6066806243
 21
176.0416530867
  0
LINE
  8
LAY0001
 62
7
  6
CONTINUOUS
 10
120.465259268
 20
175.9002317304
 11
119.864218504
 21
175.2991909664
  0
LINE
  8
LAY0001
 62
7
  6
CONTINUOUS
 10
124.2129252083
 20
178.6579481771
 11
124.4957679208
 21
178.9407908895
  0
LINE
  8
LAY0001
 62
7
  6
CONTINUOUS
 10
122.798711646
 20
175.9709424086
 11
122.5158689335
 21
175.6880996961
  0
LINE
  8
LAY0001
 62
7
  6
CONTINUOUS
 10
121.4905641008
 20
173.6728453697
 11
122.0916048648
 21
174.2738861337
  0
LINE
  8
LAY0001
 62
7
  6
CONTINUOUS
 10
122.9401330022
 20
175.1224142711
 11
123.1180895212
 21
175.3003707901
  0
LINE
  8
LAY0001
 62
7
  6
CONTINUOUS
 10
123.6472397834
 20
175.8295210523
 11
124.2482805474
 21
176.4305618163
  0
LINE
  8
LAY0001
 62
7
  6
CONTINUOUS
 10
124.3897019036
 20
176.5719831726
 11
124.9907426676
 21
177.1730239366
  0
LINE
  8
LAY0001
 62
7
  6
CONTINUOUS
 10
125.803915466
 20
177.9861967349
 11
126.40495623
 21
178.5872374989
  0
LINE
  8
LAY0001
 62
7
  6
CONTINUOUS
 10
123.9914691242
 20
180.2027545784
 11
123.8029967484
 21
180.0421151257
  0
LINE
  8
LAY0001
 62
7
  6
CONTINUOUS
 10
123.8337260203
 20
179.9615127048
 11
124.0221984318
 21
180.1221521932
  0
LINE
  8
LAY0001
 62
7
  6
CONTINUOUS
 10
119.7006842153
 20
176.6634586707
 11
119.537148377
 21
176.527755758
  0
LINE
  8
LAY0001
 62
7
  6
CONTINUOUS
 10
119.5928142282
 20
176.4720899068
 11
119.7563500701
 21
176.6077928158
  0
LINE
  8
LAY0001
 62
7
  6
CONTINUOUS
 10
121.9385473593
 20
178.0663340439
 11
122.1020830537
 21
178.2020368151
  0
LINE
  8
LAY0001
 62
7
  6
CONTINUOUS
 10
119.8270631852
 20
176.0383486393
 11
119.6635273482
 21
175.9026457255
  0
LINE
  8
LAY0001
 62
7
  6
CONTINUOUS
 10
119.7191931945
 20
175.8469798791
 11
119.8827290316
 21
175.982682793
  0
LINE
  8
LAY0001
 62
7
  6
CONTINUOUS
 10
121.9699114576
 20
178.932685913
 11
121.8562488396
 21
178.8468562206
  0
LINE
  8
LAY0001
 62
7
  6
CONTINUOUS
 10
123.0438797581
 20
179.2551652122
 11
122.9302169986
 21
179.1693353759
  0
LINE
  8
LAY0001
 62
7
  6
CONTINUOUS
 10
122.0464172073
 20
178.2577026614
 11
121.9327544478
 21
178.1718728251
  0
LINE
  8
LAY0001
 62
7
  6
CONTINUOUS
 10
120.8245255933
 20
177.0358110474
 11
120.7108629765
 21
176.9499813538
  0
LINE
  8
LAY0001
 62
7
  6
CONTINUOUS
 10
119.9732208392
 20
176.4906684873
 11
119.4797168723
 21
176.1363291362
  0
LINE
  8
LAY0001
 62
7
  6
CONTINUOUS
 10
119.4466565693
 20
176.0197700637
 11
119.9401605557
 21
176.3741093953
  0
LINE
  8
LAY0001
 62
7
  6
CONTINUOUS
 10
122.9110731572
 20
179.0388598418
 11
122.9997993066
 21
179.099753068
  0
LINE
  8
LAY0001
 62
7
  6
CONTINUOUS
 10
119.7894103658
 20
176.7243518956
 11
119.7006842153
 21
176.6634586707
  0
LINE
  8
LAY0001
 62
7
  6
CONTINUOUS
 10
120.6917191351
 20
176.8195058197
 11
120.7804452845
 21
176.8803990459
  0
LINE
  8
LAY0001
 62
7
  6
CONTINUOUS
 10
119.6304670452
 20
175.7860866529
 11
119.7191931945
 21
175.8469798791
  0
LINE
  8
LAY0001
 62
7
  6
CONTINUOUS
 10
119.7563500701
 20
176.6077928158
 11
119.820139752
 21
176.6437495745
  0
LINE
  8
LAY0001
 62
7
  6
CONTINUOUS
 10
120.7108629765
 20
176.9499813538
 11
120.6470732947
 21
176.9140245951
  0
LINE
  8
LAY0001
 62
7
  6
CONTINUOUS
 10
119.6635273482
 20
175.9026457255
 11
119.5997376663
 21
175.8666889668
  0
LINE
  8
LAY0001
 62
7
  6
CONTINUOUS
 10
119.5278244343
 20
175.7391098884
 11
119.6304670452
 21
175.7860866529
  0
LINE
  8
0
 62
7
  6
CONTINUOUS
 10
82.2831574077
 20
247.7943584224
 11
82.6575130216
 21
247.8618648298
  0
LINE
  8
0
 62
7
  6
CONTINUOUS
 10
82.6294581326
 20
248.1232210716
 11
82.2551025186
 21
248.0557146641
  0
LINE
  8
0
 62
7
  6
CONTINUOUS
 10
91.2015343628
 20
248.533259741
 11
90.7062629739
 21
248.4646610936
  0
LINE
  8
0
 62
7
  6
CONTINUOUS
 10
90.3997580806
 20
250.6775779669
 11
90.8950294695
 21
250.7461766142
  0
LINE
  8
0
 62
7
  6
CONTINUOUS
 10
90.8424857809
 20
251.1255337394
 11
90.3472143919
 21
251.056935092
  0
LINE
  8
0
 62
7
  6
CONTINUOUS
 10
95.0504919885
 20
251.491781862
 11
94.6762272563
 21
251.4683103851
  0
LINE
  8
0
 62
7
  6
CONTINUOUS
 10
93.1167918239
 20
251.3705126239
 11
92.5553947257
 21
251.3353054084
  0
LINE
  8
0
 62
7
  6
CONTINUOUS
 10
97.9925647434
 20
248.8687091307
 11
96.1176448444
 21
248.8860403846
  0
LINE
  8
0
 62
7
  6
CONTINUOUS
 10
96.1270848466
 20
249.9072733632
 11
97.7520163794
 21
249.8922529343
  0
LINE
  8
0
 62
7
  6
CONTINUOUS
 10
97.7555563798
 20
250.275215251
 11
96.130624847
 21
250.2902356799
  0
LINE
  8
0
 62
7
  6
CONTINUOUS
 10
96.1382948495
 20
251.1199875449
 11
98.0132147485
 21
251.102656291
  0
LINE
  8
0
 62
7
  6
CONTINUOUS
 10
98.0167547489
 20
251.4856186077
 11
95.7668508701
 21
251.5064161124
  0
LINE
  8
0
 62
7
  6
CONTINUOUS
 10
91.1607875033
 20
251.1051816819
 11
90.8424857809
 21
251.1255337394
  0
LINE
  8
0
 62
7
  6
CONTINUOUS
 10
90.8950294695
 20
250.7461766142
 11
91.151423154
 21
250.7172498485
  0
LINE
  8
0
 62
7
  6
CONTINUOUS
 10
101.4789449596
 20
248.2057402864
 11
103.9485396224
 21
247.8170277531
  0
LINE
  8
0
 62
7
  6
CONTINUOUS
 10
104.0080870968
 20
248.195348781
 11
101.9089317748
 21
248.525754412
  0
LINE
  8
0
 62
7
  6
CONTINUOUS
 10
101.8957772879
 20
250.8539875257
 11
104.056671558
 21
250.5138642259
  0
LINE
  8
0
 62
7
  6
CONTINUOUS
 10
104.4149948402
 20
250.7805424788
 11
101.9454001775
 21
251.1692550121
  0
LINE
  8
0
 62
7
  6
CONTINUOUS
 10
104.8031374251
 20
247.6253878093
 11
105.1699580514
 21
247.5474928276
  0
LINE
  8
0
 62
7
  6
CONTINUOUS
 10
105.7931179043
 20
250.4820578376
 11
105.4262972781
 21
250.5599528192
  0
LINE
  8
0
 62
7
  6
CONTINUOUS
 10
106.0216152901
 20
247.3466768973
 11
106.3858230016
 21
247.2573586857
  0
LINE
  8
0
 62
7
  6
CONTINUOUS
 10
107.1003686944
 20
250.1710203772
 11
106.736160983
 21
250.2603385888
  0
LINE
  8
0
 62
7
  6
CONTINUOUS
 10
106.8737315543
 20
247.145042225
 11
108.3105494427
 21
246.7142820187
  0
LINE
  8
0
 62
7
  6
CONTINUOUS
 10
108.4803972702
 20
247.0631810702
 11
107.3429173554
 21
247.404199293
  0
LINE
  8
0
 62
7
  6
CONTINUOUS
 10
107.6178706843
 20
248.3213171133
 11
108.7553505991
 21
247.9802988905
  0
LINE
  8
0
 62
7
  6
CONTINUOUS
 10
108.8653319153
 20
248.3471459672
 11
107.7278520004
 21
248.68816419
  0
LINE
  8
0
 62
7
  6
CONTINUOUS
 10
107.9844751228
 20
249.5441408736
 11
109.1219550377
 21
249.2031226509
  0
LINE
  8
0
 62
7
  6
CONTINUOUS
 10
109.1720698553
 20
249.5879177957
 11
107.7352519668
 21
250.018678002
  0
LINE
  8
0
 62
7
  6
CONTINUOUS
 10
116.8643654139
 20
244.47299837
 11
117.1685579463
 21
244.3770922177
  0
LINE
  8
0
 62
7
  6
CONTINUOUS
 10
122.0358965715
 20
242.615005278
 11
122.2237013439
 21
242.5520778736
  0
LINE
  8
0
 62
7
  6
CONTINUOUS
 10
109.563226955
 20
246.3203488492
 11
110.9662317253
 21
245.7897099755
  0
LINE
  8
0
 62
7
  6
CONTINUOUS
 10
111.1601716307
 20
246.1258143428
 11
110.0494604129
 21
246.5459031138
  0
LINE
  8
0
 62
7
  6
CONTINUOUS
 10
110.388166084
 20
247.4414380923
 11
111.4988773019
 21
247.0213493213
  0
LINE
  8
0
 62
7
  6
CONTINUOUS
 10
111.6343595514
 20
247.3795632625
 11
110.5236483335
 21
247.7996520335
  0
LINE
  8
0
 62
7
  6
CONTINUOUS
 10
110.8397736456
 20
248.6354847303
 11
111.9504848635
 21
248.2153959593
  0
LINE
  8
0
 62
7
  6
CONTINUOUS
 10
112.0275094729
 20
248.5957195162
 11
110.6245047025
 21
249.12635839
  0
LINE
  8
0
 62
7
  6
CONTINUOUS
 10
121.8089847541
 20
241.9050789687
 11
121.5217748255
 21
242.0437993055
  0
LINE
  8
0
 62
7
  6
CONTINUOUS
 10
122.4669118634
 20
242.767974031
 11
122.1797019348
 21
242.9066943678
  0
LINE
  8
0
 62
7
  6
CONTINUOUS
 10
109.4530776095
 20
249.4370346327
 11
109.1720698553
 21
249.5879177957
  0
LINE
  8
0
 62
7
  6
CONTINUOUS
 10
114.9022494524
 20
244.0293300126
 11
115.2300946225
 21
243.8472790734
  0
LINE
  8
0
 62
7
  6
CONTINUOUS
 10
115.8808299036
 20
245.0191511874
 11
116.8643654139
 21
244.47299837
  0
LINE
  8
0
 62
7
  6
CONTINUOUS
 10
117.104929783
 20
244.7774775692
 11
116.0667542448
 21
245.3539717468
  0
LINE
  8
0
 62
7
  6
CONTINUOUS
 10
116.5315651846
 20
246.1910233015
 11
117.5697407229
 21
245.6145291238
  0
LINE
  8
0
 62
7
  6
CONTINUOUS
 10
117.670037646
 20
245.9238876168
 11
116.3586569655
 21
246.6520913734
  0
LINE
  8
0
 62
7
  6
CONTINUOUS
 10
112.2972226504
 20
248.4254670899
 11
112.0275094729
 21
248.5957195162
  0
LINE
  8
0
 62
7
  6
CONTINUOUS
 10
117.3545556494
 20
242.6506562753
 11
117.6683203601
 21
242.4452865932
  0
LINE
  8
0
 62
7
  6
CONTINUOUS
 10
119.1325572723
 20
241.4868936985
 11
119.446321983
 21
241.2815240164
  0
LINE
  8
0
 62
7
  6
CONTINUOUS
 10
118.2969769284
 20
242.9492535367
 11
119.3428577014
 21
242.264688974
  0
LINE
  8
0
 62
7
  6
CONTINUOUS
 10
119.430388137
 20
242.5125453105
 11
118.489094005
 21
243.128654357
  0
LINE
  8
0
 62
7
  6
CONTINUOUS
 10
120.2525719493
 20
244.3392952319
 11
119.8342205977
 21
244.6131204302
  0
LINE
  8
0
 62
7
  6
CONTINUOUS
 10
109.1219550377
 20
249.2031226509
 11
109.2832270544
 21
249.0881364456
  0
LINE
  8
0
 62
7
  6
CONTINUOUS
 10
120.6479369971
 20
240.3823230851
 11
120.8964407872
 21
240.192847693
  0
LINE
  8
0
 62
7
  6
CONTINUOUS
 10
121.1396513339
 20
240.4087438859
 11
120.7917423875
 21
240.6740122104
  0
LINE
  8
0
 62
7
  6
CONTINUOUS
 10
121.5657742346
 20
241.6891828113
 11
121.9136831809
 21
241.4239144868
  0
LINE
  8
0
 62
7
  6
CONTINUOUS
 10
122.0574885442
 20
241.7156035766
 11
121.8089847541
 21
241.9050789687
  0
LINE
  8
0
 62
7
  6
CONTINUOUS
 10
122.6873051566
 20
241.7169935458
 11
122.935813497
 21
241.5275146843
  0
LINE
  8
0
 62
7
  6
CONTINUOUS
 10
122.2237013439
 20
242.5520778736
 11
122.5219077121
 21
242.3247060153
  0
LINE
  8
0
 62
7
  6
CONTINUOUS
 10
122.6657130754
 20
242.6163951051
 11
122.4669118634
 21
242.767974031
  0
LINE
  8
0
 62
7
  6
CONTINUOUS
 10
111.9504848635
 20
248.2153959593
 11
112.1032800848
 21
248.0893637765
  0
LINE
  8
0
 62
7
  6
CONTINUOUS
 10
117.9122553979
 20
245.7163746113
 11
117.670037646
 21
245.9238876168
  0
LINE
  8
0
 62
7
  6
CONTINUOUS
 10
117.5697407229
 20
245.6145291238
 11
117.7026759177
 21
245.4677002277
  0
LINE
  8
0
 62
7
  6
CONTINUOUS
 10
122.2672907461
 20
241.4753696597
 11
122.0574885442
 21
241.7156035766
  0
LINE
  8
0
 62
7
  6
CONTINUOUS
 10
122.8755198275
 20
242.3761577188
 11
122.6657130754
 21
242.6163951051
  0
LINE
  8
0
 62
7
  6
CONTINUOUS
 10
121.9136831809
 20
241.4239144868
 11
122.0240847768
 21
241.2594700329
  0
LINE
  8
0
 62
7
  6
CONTINUOUS
 10
122.5219077121
 20
242.3247060153
 11
122.6323093079
 21
242.1602615615
  0
LINE
  8
0
 62
7
  6
CONTINUOUS
 10
125.1353555372
 20
238.8901591885
 11
130.8853555372
 21
228.930867045
  0
LINE
  8
0
 62
7
  6
CONTINUOUS
 10
132.6174063448
 20
229.930867045
 11
126.8674063448
 21
239.8901591885
  0
LINE
  8
0
 62
7
  6
CONTINUOUS
 10
138.001380941
 20
218.6055494977
 11
134.9579860857
 21
231.2822013885
  0
LINE
  8
0
 62
7
  6
CONTINUOUS
 10
151.2129899878
 20
203.6613497895
 11
152.6361383705
 21
213.5595642083
  0
LINE
  8
0
 62
7
  6
CONTINUOUS
 10
151.1813358071
 20
199.9278530354
 11
151.5196362212
 21
202.2807840982
  0
LINE
  8
0
 62
7
  6
CONTINUOUS
 10
153.3193139265
 20
214.797817478
 11
153.7003084446
 21
217.4476925567
  0
LINE
  8
0
 62
7
  6
CONTINUOUS
 10
139.911785741
 20
174.8459918093
 11
146.4603930804
 21
182.4034875528
  0
LINE
  8
0
 62
7
  6
CONTINUOUS
 10
137.8666758126
 20
171.7222880172
 11
139.4233648745
 21
173.5188029631
  0
LINE
  8
0
 62
7
  6
CONTINUOUS
 10
147.7045671903
 20
183.0758198995
 11
149.4577108034
 21
185.0990554833
  0
LINE
  8
0
 62
7
  6
CONTINUOUS
 10
114.8258490494
 20
156.7148624109
 11
124.4207787856
 21
159.5321879793
  0
LINE
  8
0
 62
7
  6
CONTINUOUS
 10
111.4165913255
 20
155.1927054638
 11
113.6974259382
 21
155.8624189321
  0
LINE
  8
0
 62
7
  6
CONTINUOUS
 10
125.8309318624
 20
159.4251377237
 11
128.3996169584
 21
160.1793717199
  0
LINE
  8
0
 62
7
  6
CONTINUOUS
 10
93.4943393858
 20
263.3478543431
 11
83.4943393858
 21
263.3478543431
  0
LINE
  8
0
 62
7
  6
CONTINUOUS
 10
97.1943393858
 20
263.8478543431
 11
94.8172132288
 21
263.8478543431
  0
LINE
  8
0
 62
7
  6
CONTINUOUS
 10
82.1714637303
 20
263.8478543431
 11
79.4943393858
 21
263.8478543431
  0
LINE
  8
0
 62
7
  6
CONTINUOUS
 10
123.6247276248
 20
256.2625330713
 11
115.2121922965
 21
261.6689412458
  0
LINE
  8
0
 62
7
  6
CONTINUOUS
 10
127.007686105
 20
254.6827888131
 11
125.0079179625
 21
255.9679617617
  0
LINE
  8
0
 62
7
  6
CONTINUOUS
 10
114.3696388865
 20
262.8047685881
 11
112.1174985739
 21
264.2521312821
  0
LINE
  8
0
 62
7
  6
CONTINUOUS
 10
145.141409292
 20
234.0122637924
 11
140.987259162
 21
243.1085837459
  0
LINE
  8
0
 62
7
  6
CONTINUOUS
 10
147.1332608378
 20
230.854332916
 11
146.1457677742
 21
233.0166411084
  0
LINE
  8
0
 62
7
  6
CONTINUOUS
 10
140.892532752
 20
244.5196212745
 11
139.7804151077
 21
246.9548192338
  0
LINE
  8
0
 62
7
  6
CONTINUOUS
 10
163.2329618758
 20
189.4632472249
 11
163.9204688667
 21
192.0638328261
  0
LINE
  8
0
 62
7
  6
CONTINUOUS
 10
142.3475557794
 20
156.40330044
 11
144.3319061897
 21
158.2193579229
  0
LINE
  8
0
 62
7
  6
CONTINUOUS
 10
105.837305383
 20
277.2660809189
 11
103.1653475473
 21
277.5764881608
  0
LINE
  8
0
 62
7
  6
CONTINUOUS
 10
141.533052769
 20
261.2981791223
 11
139.4530776251
 21
263.0038797797
  0
LINE
  8
0
 62
7
  6
CONTINUOUS
 10
162.9293268841
 20
228.5665472777
 11
162.1017118438
 21
231.1259934437
  0
POLYLINE
  8
0
 62
7
  6
CONTINUOUS
 66
1
 70
0
  0
VERTEX
  8
0
 62
7
  6
CONTINUOUS
 10
27.0963785894
 20
77.3543735872
  0
VERTEX
  8
0
 62
7
  6
CONTINUOUS
 10
27.1068296481
 20
77.2101757601
  0
VERTEX
  8
0
 62
7
  6
CONTINUOUS
 10
27.1483665536
 20
77.0361382894
  0
VERTEX
  8
0
 62
7
  6
CONTINUOUS
 10
27.2202520995
 20
76.8722910977
  0
VERTEX
  8
0
 62
7
  6
CONTINUOUS
 10
27.3201812906
 20
76.7238819498
  0
VERTEX
  8
0
 62
7
  6
CONTINUOUS
 10
27.4449463554
 20
76.5956648183
  0
VERTEX
  8
0
 62
7
  6
CONTINUOUS
 10
27.5905336579
 20
76.4917465399
  0
VERTEX
  8
0
 62
7
  6
CONTINUOUS
 10
27.7521073578
 20
76.4154985722
  0
VERTEX
  8
0
 62
7
  6
CONTINUOUS
 10
27.922732894
 20
76.369565065
  0
SEQEND
  0
LINE
  8
0
 62
7
  6
CONTINUOUS
 10
27.0963712145
 20
83.2215469217
 11
27.0963712145
 21
77.3542772541
  0
POLYLINE
  8
0
 62
7
  6
CONTINUOUS
 66
1
 70
0
  0
VERTEX
  8
0
 62
7
  6
CONTINUOUS
 10
36.1604208945
 20
77.3309832227
  0
VERTEX
  8
0
 62
7
  6
CONTINUOUS
 10
36.1771066709
 20
77.1483457124
  0
VERTEX
  8
0
 62
7
  6
CONTINUOUS
 10
36.225240673
 20
76.9752867603
  0
VERTEX
  8
0
 62
7
  6
CONTINUOUS
 10
36.2980485824
 20
76.8222684058
  0
VERTEX
  8
0
 62
7
  6
CONTINUOUS
 10
36.3895072714
 20
76.6904801791
  0
VERTEX
  8
0
 62
7
  6
CONTINUOUS
 10
36.493961527
 20
76.5803944577
  0
VERTEX
  8
0
 62
7
  6
CONTINUOUS
 10
36.603208752
 20
76.4935022057
  0
VERTEX
  8
0
 62
7
  6
CONTINUOUS
 10
36.7092479282
 20
76.4284641041
  0
VERTEX
  8
0
 62
7
  6
CONTINUOUS
 10
36.805756562
 20
76.381632915
  0
VERTEX
  8
0
 62
7
  6
CONTINUOUS
 10
36.8933793851
 20
76.3467828929
  0
VERTEX
  8
0
 62
7
  6
CONTINUOUS
 10
36.9782375883
 20
76.3180850138
  0
VERTEX
  8
0
 62
7
  6
CONTINUOUS
 10
37.067098326
 20
76.2917674523
  0
SEQEND
  0
LINE
  8
0
 62
7
  6
CONTINUOUS
 10
36.1604177161
 20
83.2452574628
 11
36.1604177161
 21
77.3305667131
  0
LINE
  8
0
 62
7
  6
CONTINUOUS
 10
48.9943393858
 20
98.2879120879
 11
48.9943393858
 21
86.2879120879
  0
LINE
  8
0
 62
7
  6
CONTINUOUS
 10
48.9943393858
 20
74.2879120879
 11
48.9943393858
 21
62.2879120879
  0
LINE
  8
0
 62
7
  6
CONTINUOUS
 10
54.1212724269
 20
99.9379120879
 11
54.1212724269
 21
99.7879120879
  0
LINE
  8
0
 62
7
  6
CONTINUOUS
 10
54.1212724269
 20
60.7879120879
 11
54.1212724269
 21
60.6379120879
  0
LINE
  8
0
 62
7
  6
CONTINUOUS
 10
57.5306926859
 20
99.9379120879
 11
57.5306926859
 21
99.7879120879
  0
LINE
  8
0
 62
7
  6
CONTINUOUS
 10
57.5306926859
 20
60.7879120879
 11
57.5306926859
 21
60.6379120879
  0
POLYLINE
  8
0
 62
7
  6
CONTINUOUS
 66
1
 70
0
  0
VERTEX
  8
0
 62
7
  6
CONTINUOUS
 10
63.6741659194
 20
77.2597438375
  0
VERTEX
  8
0
 62
7
  6
CONTINUOUS
 10
63.675840326
 20
77.2011746714
  0
VERTEX
  8
0
 62
7
  6
CONTINUOUS
 10
63.7077005978
 20
76.9996526666
  0
VERTEX
  8
0
 62
7
  6
CONTINUOUS
 10
63.7779453607
 20
76.8099161488
  0
VERTEX
  8
0
 62
7
  6
CONTINUOUS
 10
63.8803527695
 20
76.6418087639
  0
VERTEX
  8
0
 62
7
  6
CONTINUOUS
 10
64.0052011314
 20
76.5020683427
  0
VERTEX
  8
0
 62
7
  6
CONTINUOUS
 10
64.140079842
 20
76.3936440802
  0
VERTEX
  8
0
 62
7
  6
CONTINUOUS
 10
64.2699748521
 20
76.3158814536
  0
VERTEX
  8
0
 62
7
  6
CONTINUOUS
 10
64.3388084036
 20
76.2824087821
  0
SEQEND
  0
LINE
  8
0
 62
7
  6
CONTINUOUS
 10
63.6741647544
 20
83.3163179299
 11
63.6741647544
 21
77.259506246
  0
LINE
  8
0
 62
7
  6
CONTINUOUS
 10
66.9872978307
 20
99.9379120879
 11
66.9872978307
 21
99.7879120879
  0
LINE
  8
0
 62
7
  6
CONTINUOUS
 10
66.9872978307
 20
60.7879120879
 11
66.9872978307
 21
60.6379120879
  0
LINE
  8
0
 62
7
  6
CONTINUOUS
 10
70.2503514743
 20
60.7879120879
 11
70.2503514743
 21
60.6379120879
  0
LINE
  8
0
 62
7
  6
CONTINUOUS
 10
70.4991027778
 20
60.7879120879
 11
70.4991027778
 21
60.6379120879
  0
LINE
  8
0
 62
7
  6
CONTINUOUS
 10
71.2718147966
 20
60.7879120879
 11
71.2718147966
 21
60.6379120879
  0
LINE
  8
0
 62
7
  6
CONTINUOUS
 10
71.4374718591
 20
60.7879120879
 11
71.4374718591
 21
60.6379120879
  0
LINE
  8
0
 62
7
  6
CONTINUOUS
 10
71.494107974
 20
60.7879120879
 11
71.494107974
 21
60.6379120879
  0
LINE
  8
0
 62
7
  6
CONTINUOUS
 10
71.7428593309
 20
60.7879120879
 11
71.7428593309
 21
60.6379120879
  0
LINE
  8
0
 62
7
  6
CONTINUOUS
 10
72.3503741945
 20
60.7879120879
 11
72.3503741945
 21
60.6379120879
  0
LINE
  8
0
 62
7
  6
CONTINUOUS
 10
72.6099115986
 20
60.7879120879
 11
72.6099115986
 21
60.6379120879
  0
LINE
  8
0
 62
7
  6
CONTINUOUS
 10
72.7876741836
 20
60.7879120879
 11
72.7876741836
 21
60.6379120879
  0
LINE
  8
0
 62
7
  6
CONTINUOUS
 10
72.8203841409
 20
60.7879120879
 11
72.8203841409
 21
60.6379120879
  0
LINE
  8
0
 62
7
  6
CONTINUOUS
 10
72.9050013711
 20
60.7879120879
 11
72.9050013711
 21
60.6379120879
  0
LINE
  8
0
 62
7
  6
CONTINUOUS
 10
73.0770788368
 20
60.7879120879
 11
73.0770788368
 21
60.6379120879
  0
LINE
  8
0
 62
7
  6
CONTINUOUS
 10
73.2847088195
 20
60.7879120879
 11
73.2847088195
 21
60.6379120879
  0
LINE
  8
0
 62
7
  6
CONTINUOUS
 10
73.4759837492
 20
60.7879120879
 11
73.4759837492
 21
60.6379120879
  0
LINE
  8
0
 62
7
  6
CONTINUOUS
 10
73.702811196
 20
60.7879120879
 11
73.702811196
 21
60.6379120879
  0
LINE
  8
0
 62
7
  6
CONTINUOUS
 10
73.7951129068
 20
60.7879120879
 11
73.7951129068
 21
60.6379120879
  0
LINE
  8
0
 62
7
  6
CONTINUOUS
 10
74.0611215908
 20
60.7879120879
 11
74.0611215908
 21
60.6379120879
  0
LINE
  8
0
 62
7
  6
CONTINUOUS
 10
74.2286096124
 20
60.7879120879
 11
74.2286096124
 21
60.6379120879
  0
LINE
  8
0
 62
7
  6
CONTINUOUS
 10
74.2659660517
 20
60.7879120879
 11
74.2659660517
 21
60.6379120879
  0
LINE
  8
0
 62
7
  6
CONTINUOUS
 10
74.2975770655
 20
60.7879120879
 11
74.2975770655
 21
60.6379120879
  0
LINE
  8
0
 62
7
  6
CONTINUOUS
 10
74.5635857495
 20
60.7879120879
 11
74.5635857495
 21
60.6379120879
  0
LINE
  8
0
 62
7
  6
CONTINUOUS
 10
75.6355091818
 20
60.7879120879
 11
75.6355091818
 21
60.6379120879
  0
POLYLINE
  8
0
 62
7
  6
CONTINUOUS
 66
1
 70
0
  0
VERTEX
  8
0
 62
7
  6
CONTINUOUS
 10
37.0695599125
 20
84.2847434135
  0
VERTEX
  8
0
 62
7
  6
CONTINUOUS
 10
36.9804245206
 20
84.2584271819
  0
VERTEX
  8
0
 62
7
  6
CONTINUOUS
 10
36.8953935589
 20
84.2297733182
  0
VERTEX
  8
0
 62
7
  6
CONTINUOUS
 10
36.8076959278
 20
84.195033234
  0
VERTEX
  8
0
 62
7
  6
CONTINUOUS
 10
36.7111370469
 20
84.1483787444
  0
VERTEX
  8
0
 62
7
  6
CONTINUOUS
 10
36.6049138731
 20
84.0835021797
  0
VERTEX
  8
0
 62
7
  6
CONTINUOUS
 10
36.4953667266
 20
83.996705967
  0
VERTEX
  8
0
 62
7
  6
CONTINUOUS
 10
36.3905477578
 20
83.8866146251
  0
VERTEX
  8
0
 62
7
  6
CONTINUOUS
 10
36.298738145
 20
83.7547368239
  0
VERTEX
  8
0
 62
7
  6
CONTINUOUS
 10
36.2256241428
 20
83.6015535757
  0
VERTEX
  8
0
 62
7
  6
CONTINUOUS
 10
36.1772475517
 20
83.4282415454
  0
VERTEX
  8
0
 62
7
  6
CONTINUOUS
 10
36.1604208946
 20
83.2448409263
  0
SEQEND
  0
POLYLINE
  8
0
 62
7
  6
CONTINUOUS
 66
1
 70
0
  0
VERTEX
  8
0
 62
7
  6
CONTINUOUS
 10
162.1058080759
 20
76.3248801696
  0
VERTEX
  8
0
 62
7
  6
CONTINUOUS
 10
162.1694930398
 20
76.3413035926
  0
VERTEX
  8
0
 62
7
  6
CONTINUOUS
 10
162.2300566544
 20
76.3583427441
  0
SEQEND
  0
LINE
  8
0
 62
7
  6
CONTINUOUS
 10
138.001380941
 20
60.6379120879
 11
125.1353555372
 21
60.6379120879
  0
LINE
  8
LAY0001
 62
7
  6
CONTINUOUS
 10
125.1353555372
 20
60.6379120879
 11
124.2878115265
 21
60.6379120879
  0
LINE
  8
LAY0001
 62
7
  6
CONTINUOUS
 10
124.2820188046
 20
60.6379120879
 11
123.0033306945
 21
60.6379120879
  0
LINE
  8
0
 62
7
  6
CONTINUOUS
 10
123.0079188528
 20
60.6379120879
 11
120.3057312333
 21
60.6379120879
  0
LINE
  8
LAY0001
 62
7
  6
CONTINUOUS
 10
120.3057312333
 20
60.6379120879
 11
120.2525719493
 21
60.6379120879
  0
LINE
  8
0
 62
7
  6
CONTINUOUS
 10
120.2525719493
 20
60.6379120879
 11
114.9022494524
 21
60.6379120879
  0
LINE
  8
0
 62
7
  6
CONTINUOUS
 10
112.5483688587
 20
60.6379120879
 11
107.7352519668
 21
60.6379120879
  0
LINE
  8
0
 62
7
  6
CONTINUOUS
 10
107.7278520004
 20
60.6379120879
 11
83.7364860421
 21
60.6379120879
  0
LINE
  8
0
 62
7
  6
CONTINUOUS
 10
83.6423428463
 20
60.6379120879
 11
81.5317821698
 21
60.6379120879
  0
LINE
  8
0
 62
7
  6
CONTINUOUS
 10
81.4901543158
 20
60.6379120879
 11
80.0647720785
 21
60.6379120879
  0
LINE
  8
0
 62
7
  6
CONTINUOUS
 10
79.9176578834
 20
60.6379120879
 11
77.4327025334
 21
60.6379120879
  0
LINE
  8
0
 62
7
  6
CONTINUOUS
 10
75.6355091818
 20
60.6379120879
 11
70.2503514743
 21
60.6379120879
  0
LINE
  8
0
 62
7
  6
CONTINUOUS
 10
66.9872978307
 20
60.6379120879
 11
54.1212724269
 21
60.6379120879
  0
LINE
  8
0
 62
7
  6
CONTINUOUS
 10
50.4943677016
 20
60.7879120879
 11
142.4943110629
 21
60.7879120879
  0
POLYLINE
  8
0
 62
7
  6
CONTINUOUS
 66
1
 70
0
  0
VERTEX
  8
0
 62
7
  6
CONTINUOUS
 10
37.067098326
 20
76.2917674523
  0
VERTEX
  8
0
 62
7
  6
CONTINUOUS
 10
37.1669585157
 20
76.2653463726
  0
VERTEX
  8
0
 62
7
  6
CONTINUOUS
 10
37.2845369235
 20
76.2372253625
  0
VERTEX
  8
0
 62
7
  6
CONTINUOUS
 10
37.3849114299
 20
76.2151038671
  0
SEQEND
  0
LINE
  8
0
 62
7
  6
CONTINUOUS
 10
77.4327025334
 20
60.7879120879
 11
77.4327025334
 21
60.6379120879
  0
LINE
  8
0
 62
7
  6
CONTINUOUS
 10
79.4751052336
 20
60.7879120879
 11
79.4751052336
 21
60.6379120879
  0
LINE
  8
0
 62
7
  6
CONTINUOUS
 10
79.6357820274
 20
60.7879120879
 11
79.6357820274
 21
60.6379120879
  0
LINE
  8
0
 62
7
  6
CONTINUOUS
 10
79.7569810896
 20
60.7879120879
 11
79.7569810896
 21
60.6379120879
  0
LINE
  8
0
 62
7
  6
CONTINUOUS
 10
79.9176578834
 20
60.7879120879
 11
79.9176578834
 21
60.6379120879
  0
LINE
  8
0
 62
7
  6
CONTINUOUS
 10
80.0647720785
 20
60.7879120879
 11
80.0647720785
 21
60.6379120879
  0
LINE
  8
0
 62
7
  6
CONTINUOUS
 10
80.3539945914
 20
60.7879120879
 11
80.3539945914
 21
60.6379120879
  0
LINE
  8
0
 62
7
  6
CONTINUOUS
 10
81.4901543158
 20
60.7879120879
 11
81.4901543158
 21
60.6379120879
  0
LINE
  8
0
 62
7
  6
CONTINUOUS
 10
81.5317821698
 20
60.7879120879
 11
81.5317821698
 21
60.6379120879
  0
LINE
  8
0
 62
7
  6
CONTINUOUS
 10
81.5625010687
 20
60.7879120879
 11
81.5625010687
 21
60.6379120879
  0
LINE
  8
0
 62
7
  6
CONTINUOUS
 10
81.6366363239
 20
60.7879120879
 11
81.6366363239
 21
60.6379120879
  0
LINE
  8
0
 62
7
  6
CONTINUOUS
 10
81.7695453671
 20
60.7879120879
 11
81.7695453671
 21
60.6379120879
  0
LINE
  8
0
 62
7
  6
CONTINUOUS
 10
81.9241619158
 20
60.7879120879
 11
81.9241619158
 21
60.6379120879
  0
POLYLINE
  8
0
 62
7
  6
CONTINUOUS
 66
1
 70
0
  0
VERTEX
  8
0
 62
7
  6
CONTINUOUS
 10
64.33882268
 20
84.2934218649
  0
VERTEX
  8
0
 62
7
  6
CONTINUOUS
 10
64.273907788
 20
84.2619827673
  0
VERTEX
  8
0
 62
7
  6
CONTINUOUS
 10
64.1435589824
 20
84.1845582796
  0
VERTEX
  8
0
 62
7
  6
CONTINUOUS
 10
64.0079587981
 20
84.0763400194
  0
VERTEX
  8
0
 62
7
  6
CONTINUOUS
 10
63.8822601931
 20
83.9365630525
  0
VERTEX
  8
0
 62
7
  6
CONTINUOUS
 10
63.7790395873
 20
83.7681515527
  0
VERTEX
  8
0
 62
7
  6
CONTINUOUS
 10
63.7081396539
 20
83.5778411956
  0
VERTEX
  8
0
 62
7
  6
CONTINUOUS
 10
63.6758917468
 20
83.375541004
  0
VERTEX
  8
0
 62
7
  6
CONTINUOUS
 10
63.6741659198
 20
83.3160799582
  0
SEQEND
  0
LINE
  8
0
 62
7
  6
CONTINUOUS
 10
64.9290753729
 20
84.5616217051
 11
64.3380992298
 21
84.2930950111
  0
LINE
  8
0
 62
7
  6
CONTINUOUS
 10
65.2580694348
 20
84.6853817556
 11
64.9292301607
 21
84.5616918358
  0
POLYLINE
  8
0
 62
7
  6
CONTINUOUS
 66
1
 70
0
  0
VERTEX
  8
0
 62
7
  6
CONTINUOUS
 10
161.7504230837
 20
76.2468170872
  0
VERTEX
  8
0
 62
7
  6
CONTINUOUS
 10
161.8600267786
 20
76.269295819
  0
VERTEX
  8
0
 62
7
  6
CONTINUOUS
 10
161.9540908602
 20
76.2895257898
  0
VERTEX
  8
0
 62
7
  6
CONTINUOUS
 10
162.035077207
 20
76.307875266
  0
VERTEX
  8
0
 62
7
  6
CONTINUOUS
 10
162.1058080759
 20
76.3248801696
  0
SEQEND
  0
POLYLINE
  8
0
 62
7
  6
CONTINUOUS
 66
1
 70
0
  0
VERTEX
  8
0
 62
7
  6
CONTINUOUS
 10
162.6449813167
 20
76.2426266084
  0
VERTEX
  8
0
 62
7
  6
CONTINUOUS
 10
162.7434377005
 20
76.2619400019
  0
VERTEX
  8
0
 62
7
  6
CONTINUOUS
 10
162.8341133554
 20
76.2803044216
  0
VERTEX
  8
0
 62
7
  6
CONTINUOUS
 10
162.9166237561
 20
76.297625316
  0
VERTEX
  8
0
 62
7
  6
CONTINUOUS
 10
162.9916340299
 20
76.3140395261
  0
VERTEX
  8
0
 62
7
  6
CONTINUOUS
 10
163.0589817279
 20
76.329525925
  0
VERTEX
  8
0
 62
7
  6
CONTINUOUS
 10
163.1190988605
 20
76.3442091588
  0
VERTEX
  8
0
 62
7
  6
CONTINUOUS
 10
163.1738159047
 20
76.3586099786
  0
VERTEX
  8
0
 62
7
  6
CONTINUOUS
 10
163.2266026205
 20
76.3738786427
  0
VERTEX
  8
0
 62
7
  6
CONTINUOUS
 10
163.2823182324
 20
76.392069322
  0
VERTEX
  8
0
 62
7
  6
CONTINUOUS
 10
163.3441621423
 20
76.4155532264
  0
VERTEX
  8
0
 62
7
  6
CONTINUOUS
 10
163.4137485111
 20
76.4470590258
  0
VERTEX
  8
0
 62
7
  6
CONTINUOUS
 10
163.4885144997
 20
76.4879854048
  0
VERTEX
  8
0
 62
7
  6
CONTINUOUS
 10
163.5654701326
 20
76.5391542513
  0
VERTEX
  8
0
 62
7
  6
CONTINUOUS
 10
163.6417775327
 20
76.6009107626
  0
VERTEX
  8
0
 62
7
  6
CONTINUOUS
 10
163.7151220149
 20
76.6734700688
  0
VERTEX
  8
0
 62
7
  6
CONTINUOUS
 10
163.7829132174
 20
76.7562135777
  0
VERTEX
  8
0
 62
7
  6
CONTINUOUS
 10
163.8429610272
 20
76.8481732106
  0
VERTEX
  8
0
 62
7
  6
CONTINUOUS
 10
163.8939976399
 20
76.9493366756
  0
VERTEX
  8
0
 62
7
  6
CONTINUOUS
 10
163.934480811
 20
77.0595030918
  0
VERTEX
  8
0
 62
7
  6
CONTINUOUS
 10
163.9626123058
 20
77.1782221869
  0
VERTEX
  8
0
 62
7
  6
CONTINUOUS
 10
163.9763531466
 20
77.3047108345
  0
VERTEX
  8
0
 62
7
  6
CONTINUOUS
 10
163.9773521111
 20
77.3494353667
  0
SEQEND
  0
LINE
  8
0
 62
7
  6
CONTINUOUS
 10
160.1917471322
 20
75.9430601042
 11
161.7504230837
 21
76.2468170872
  0
LINE
  8
0
 62
7
  6
CONTINUOUS
 10
162.4710974772
 20
76.2097855195
 11
162.6449813167
 21
76.2426266084
  0
LINE
  8
0
 62
7
  6
CONTINUOUS
 10
161.0179518093
 20
75.9412843498
 11
162.4711005306
 21
76.2097859643
  0
LINE
  8
0
 62
7
  6
CONTINUOUS
 10
159.6802535085
 20
75.8597183576
 11
160.1917445438
 21
75.9430597551
  0
POLYLINE
  8
0
 62
7
  6
CONTINUOUS
 66
1
 70
0
  0
VERTEX
  8
0
 62
7
  6
CONTINUOUS
 10
38.6447352246
 20
75.9466026206
  0
VERTEX
  8
0
 62
7
  6
CONTINUOUS
 10
39.1169313508
 20
75.8621685642
  0
VERTEX
  8
0
 62
7
  6
CONTINUOUS
 10
39.6636074524
 20
75.8041950393
  0
VERTEX
  8
0
 62
7
  6
CONTINUOUS
 10
40.1464132288
 20
75.7879122596
  0
SEQEND
  0
POLYLINE
  8
0
 62
7
  6
CONTINUOUS
 66
1
 70
0
  0
VERTEX
  8
0
 62
7
  6
CONTINUOUS
 10
30.3624888746
 20
75.9398345574
  0
VERTEX
  8
0
 62
7
  6
CONTINUOUS
 10
27.9332972183
 20
76.3675349519
  0
VERTEX
  8
0
 62
7
  6
CONTINUOUS
 10
27.9227340006
 20
76.3695648466
  0
SEQEND
  0
LINE
  8
0
 62
7
  6
CONTINUOUS
 10
37.3848933899
 20
76.2151073824
 11
38.6447292485
 21
75.9466037286
  0
LINE
  8
0
 62
7
  6
CONTINUOUS
 10
64.9292401436
 20
76.014127797
 11
65.2542225453
 21
75.8915996258
  0
LINE
  8
0
 62
7
  6
CONTINUOUS
 10
64.3380992366
 20
76.2827291616
 11
64.9290753729
 21
76.0142024707
  0
LINE
  8
0
 62
7
  6
CONTINUOUS
 10
82.2551025186
 20
60.7879120879
 11
82.2551025186
 21
60.6379120879
  0
LINE
  8
0
 62
7
  6
CONTINUOUS
 10
82.6294581326
 20
60.7879120879
 11
82.6294581326
 21
60.6379120879
  0
LINE
  8
0
 62
7
  6
CONTINUOUS
 10
82.9884536245
 20
60.7879120879
 11
82.9884536245
 21
60.6379120879
  0
LINE
  8
0
 62
7
  6
CONTINUOUS
 10
83.2516077009
 20
60.7879120879
 11
83.2516077009
 21
60.6379120879
  0
LINE
  8
0
 62
7
  6
CONTINUOUS
 10
83.3972128562
 20
60.7879120879
 11
83.3972128562
 21
60.6379120879
  0
LINE
  8
0
 62
7
  6
CONTINUOUS
 10
83.4840429088
 20
60.7879120879
 11
83.4840429088
 21
60.6379120879
  0
LINE
  8
0
 62
7
  6
CONTINUOUS
 10
83.6142879421
 20
60.7879120879
 11
83.6142879421
 21
60.6379120879
  0
LINE
  8
0
 62
7
  6
CONTINUOUS
 10
83.6423428463
 20
60.7879120879
 11
83.6423428463
 21
60.6379120879
  0
LINE
  8
0
 62
7
  6
CONTINUOUS
 10
83.7364860421
 20
60.7879120879
 11
83.7364860421
 21
60.6379120879
  0
LINE
  8
0
 62
7
  6
CONTINUOUS
 10
84.0965751706
 20
60.7879120879
 11
84.0965751706
 21
60.6379120879
  0
LINE
  8
0
 62
7
  6
CONTINUOUS
 10
84.4943393858
 20
99.9379120879
 11
84.4943393858
 21
99.7879120879
  0
LINE
  8
0
 62
7
  6
CONTINUOUS
 10
84.9884012572
 20
60.7879120879
 11
84.9884012572
 21
60.6379120879
  0
LINE
  8
0
 62
7
  6
CONTINUOUS
 10
85.4169024332
 20
60.7879120879
 11
85.4169024332
 21
60.6379120879
  0
LINE
  8
0
 62
7
  6
CONTINUOUS
 10
85.7769915617
 20
60.7879120879
 11
85.7769915617
 21
60.6379120879
  0
LINE
  8
0
 62
7
  6
CONTINUOUS
 10
86.3472393462
 20
60.7879120879
 11
86.3472393462
 21
60.6379120879
  0
POLYLINE
  8
0
 62
7
  6
CONTINUOUS
 66
1
 70
0
  0
VERTEX
  8
0
 62
7
  6
CONTINUOUS
 10
65.2542225453
 20
75.8915996258
  0
VERTEX
  8
0
 62
7
  6
CONTINUOUS
 10
65.6277226764
 20
75.8099130246
  0
VERTEX
  8
0
 62
7
  6
CONTINUOUS
 10
65.9491045137
 20
75.7879122875
  0
SEQEND
  0
LINE
  8
0
 62
7
  6
CONTINUOUS
 10
89.4967867245
 20
60.7879120879
 11
89.4967867245
 21
60.6379120879
  0
LINE
  8
0
 62
7
  6
CONTINUOUS
 10
89.5149097478
 20
60.7879120879
 11
89.5149097478
 21
60.6379120879
  0
LINE
  8
0
 62
7
  6
CONTINUOUS
 10
89.603698115
 20
60.7879120879
 11
89.603698115
 21
60.6379120879
  0
LINE
  8
0
 62
7
  6
CONTINUOUS
 10
89.8163053923
 20
60.7879120879
 11
89.8163053923
 21
60.6379120879
  0
LINE
  8
0
 62
7
  6
CONTINUOUS
 10
90.0464258154
 20
60.7879120879
 11
90.0464258154
 21
60.6379120879
  0
LINE
  8
0
 62
7
  6
CONTINUOUS
 10
90.3472143919
 20
60.7879120879
 11
90.3472143919
 21
60.6379120879
  0
LINE
  8
0
 62
7
  6
CONTINUOUS
 10
90.8424857809
 20
60.7879120879
 11
90.8424857809
 21
60.6379120879
  0
LINE
  8
0
 62
7
  6
CONTINUOUS
 10
91.1607875033
 20
60.7879120879
 11
91.1607875033
 21
60.6379120879
  0
POLYLINE
  8
0
 62
7
  6
CONTINUOUS
 66
1
 70
0
  0
VERTEX
  8
0
 62
7
  6
CONTINUOUS
 10
139.9093223828
 20
75.7879120881
  0
VERTEX
  8
0
 62
7
  6
CONTINUOUS
 10
140.038629627
 20
75.795906597
  0
VERTEX
  8
0
 62
7
  6
CONTINUOUS
 10
140.2338756622
 20
75.8393050904
  0
VERTEX
  8
0
 62
7
  6
CONTINUOUS
 10
140.4153249072
 20
75.9178892616
  0
VERTEX
  8
0
 62
7
  6
CONTINUOUS
 10
140.4329227482
 20
75.9298840947
  0
SEQEND
  0
POLYLINE
  8
0
 62
7
  6
CONTINUOUS
 66
1
 70
0
  0
VERTEX
  8
0
 62
7
  6
CONTINUOUS
 10
139.4855247271
 20
75.7879122485
  0
VERTEX
  8
0
 62
7
  6
CONTINUOUS
 10
139.8387856589
 20
75.8067707043
  0
VERTEX
  8
0
 62
7
  6
CONTINUOUS
 10
140.2472224729
 20
75.8760304006
  0
SEQEND
  0
POLYLINE
  8
0
 62
7
  6
CONTINUOUS
 66
1
 70
0
  0
VERTEX
  8
0
 62
7
  6
CONTINUOUS
 10
158.5840487755
 20
75.7879122436
  0
VERTEX
  8
0
 62
7
  6
CONTINUOUS
 10
159.0957346684
 20
75.8035078913
  0
VERTEX
  8
0
 62
7
  6
CONTINUOUS
 10
159.6802535085
 20
75.8597183576
  0
SEQEND
  0
POLYLINE
  8
0
 62
7
  6
CONTINUOUS
 66
1
 70
0
  0
VERTEX
  8
0
 62
7
  6
CONTINUOUS
 10
159.344554018
 20
75.7879122595
  0
VERTEX
  8
0
 62
7
  6
CONTINUOUS
 10
159.8828659341
 20
75.8036720346
  0
VERTEX
  8
0
 62
7
  6
CONTINUOUS
 10
160.4919801976
 20
75.8597226963
  0
VERTEX
  8
0
 62
7
  6
CONTINUOUS
 10
161.0179507801
 20
75.9412843252
  0
SEQEND
  0
LINE
  8
0
 62
7
  6
CONTINUOUS
 10
159.3445359766
 20
75.7879120879
 11
32.094347734
 21
75.7879120879
  0
POLYLINE
  8
0
 62
7
  6
CONTINUOUS
 66
1
 70
0
  0
VERTEX
  8
0
 62
7
  6
CONTINUOUS
 10
32.1035722039
 20
75.7879120879
  0
VERTEX
  8
0
 62
7
  6
CONTINUOUS
 10
31.5210907141
 20
75.8047901638
  0
VERTEX
  8
0
 62
7
  6
CONTINUOUS
 10
30.9405138635
 20
75.8553965643
  0
VERTEX
  8
0
 62
7
  6
CONTINUOUS
 10
30.3624888746
 20
75.9398345574
  0
SEQEND
  0
LINE
  8
0
 62
7
  6
CONTINUOUS
 10
91.4259384692
 20
60.7879120879
 11
91.4259384692
 21
60.6379120879
  0
LINE
  8
0
 62
7
  6
CONTINUOUS
 10
91.7086039979
 20
60.7879120879
 11
91.7086039979
 21
60.6379120879
  0
LINE
  8
0
 62
7
  6
CONTINUOUS
 10
91.8674506167
 20
60.7879120879
 11
91.8674506167
 21
60.6379120879
  0
LINE
  8
0
 62
7
  6
CONTINUOUS
 10
91.9731465034
 20
60.7879120879
 11
91.9731465034
 21
60.6379120879
  0
LINE
  8
0
 62
7
  6
CONTINUOUS
 10
92.1045057373
 20
60.7879120879
 11
92.1045057373
 21
60.6379120879
  0
LINE
  8
0
 62
7
  6
CONTINUOUS
 10
92.5553947257
 20
60.7879120879
 11
92.5553947257
 21
60.6379120879
  0
LINE
  8
0
 62
7
  6
CONTINUOUS
 10
93.1167918239
 20
60.7879120879
 11
93.1167918239
 21
60.6379120879
  0
LINE
  8
0
 62
7
  6
CONTINUOUS
 10
94.6762272563
 20
60.7879120879
 11
94.6762272563
 21
60.6379120879
  0
LINE
  8
0
 62
7
  6
CONTINUOUS
 10
95.0504919885
 20
60.7879120879
 11
95.0504919885
 21
60.6379120879
  0
LINE
  8
0
 62
7
  6
CONTINUOUS
 10
95.2382638045
 20
60.7879120879
 11
95.2382638045
 21
60.6379120879
  0
LINE
  8
0
 62
7
  6
CONTINUOUS
 10
95.7391208638
 20
60.7879120879
 11
95.7391208638
 21
60.6379120879
  0
LINE
  8
0
 62
7
  6
CONTINUOUS
 10
95.7668508701
 20
60.7879120879
 11
95.7668508701
 21
60.6379120879
  0
LINE
  8
DEFAULT_1
 62
2
  6
CENTER
 10
96.4943393858
 20
58.6379120879
 11
96.4943393858
 21
101.9379120879
  0
LINE
  8
0
 62
7
  6
CONTINUOUS
 10
96.9943393858
 20
99.9379120879
 11
96.9943393858
 21
99.7879120879
  0
LINE
  8
0
 62
7
  6
CONTINUOUS
 10
98.0167547489
 20
60.7879120879
 11
98.0167547489
 21
60.6379120879
  0
LINE
  8
0
 62
7
  6
CONTINUOUS
 10
32.0943476167
 20
84.7879120879
 11
159.3445362914
 21
84.7879120879
  0
LINE
  8
0
 62
7
  6
CONTINUOUS
 10
101.4789449596
 20
60.7879120879
 11
101.4789449596
 21
60.6379120879
  0
LINE
  8
0
 62
7
  6
CONTINUOUS
 10
101.55834159
 20
60.7879120879
 11
101.55834159
 21
60.6379120879
  0
LINE
  8
0
 62
7
  6
CONTINUOUS
 10
101.8957772879
 20
60.7879120879
 11
101.8957772879
 21
60.6379120879
  0
LINE
  8
0
 62
7
  6
CONTINUOUS
 10
101.9454001775
 20
60.7879120879
 11
101.9454001775
 21
60.6379120879
  0
LINE
  8
0
 62
7
  6
CONTINUOUS
 10
104.4149948402
 20
60.7879120879
 11
104.4149948402
 21
60.6379120879
  0
LINE
  8
0
 62
7
  6
CONTINUOUS
 10
104.8031374251
 20
60.7879120879
 11
104.8031374251
 21
60.6379120879
  0
LINE
  8
0
 62
7
  6
CONTINUOUS
 10
104.8605958343
 20
60.7879120879
 11
104.8605958343
 21
60.6379120879
  0
LINE
  8
0
 62
7
  6
CONTINUOUS
 10
104.966665621
 20
60.7879120879
 11
104.966665621
 21
60.6379120879
  0
LINE
  8
0
 62
7
  6
CONTINUOUS
 10
105.4262972781
 20
60.7879120879
 11
105.4262972781
 21
60.6379120879
  0
POLYLINE
  8
0
 62
7
  6
CONTINUOUS
 66
1
 70
0
  0
VERTEX
  8
0
 62
7
  6
CONTINUOUS
 10
65.9490905051
 20
84.7879118944
  0
VERTEX
  8
0
 62
7
  6
CONTINUOUS
 10
65.6317274533
 20
84.7664569151
  0
VERTEX
  8
0
 62
7
  6
CONTINUOUS
 10
65.2580694348
 20
84.6853817556
  0
SEQEND
  0
POLYLINE
  8
0
 62
7
  6
CONTINUOUS
 66
1
 70
0
  0
VERTEX
  8
0
 62
7
  6
CONTINUOUS
 10
40.1464130041
 20
84.7879119261
  0
VERTEX
  8
0
 62
7
  6
CONTINUOUS
 10
39.6695281137
 20
84.7720263403
  0
VERTEX
  8
0
 62
7
  6
CONTINUOUS
 10
39.1228134971
 20
84.7145050113
  0
SEQEND
  0
LINE
  8
0
 62
7
  6
CONTINUOUS
 10
31.5210873746
 20
84.7710338183
 11
32.1035722038
 21
84.7879120879
  0
LINE
  8
0
 62
7
  6
CONTINUOUS
 10
105.7931179043
 20
60.7879120879
 11
105.7931179043
 21
60.6379120879
  0
LINE
  8
0
 62
7
  6
CONTINUOUS
 10
106.0216152901
 20
60.7879120879
 11
106.0216152901
 21
60.6379120879
  0
LINE
  8
0
 62
7
  6
CONTINUOUS
 10
106.1439067584
 20
60.7879120879
 11
106.1439067584
 21
60.6379120879
  0
LINE
  8
0
 62
7
  6
CONTINUOUS
 10
106.2655315853
 20
60.7879120879
 11
106.2655315853
 21
60.6379120879
  0
LINE
  8
0
 62
7
  6
CONTINUOUS
 10
106.736160983
 20
60.7879120879
 11
106.736160983
 21
60.6379120879
  0
LINE
  8
0
 62
7
  6
CONTINUOUS
 10
107.1003686944
 20
60.7879120879
 11
107.1003686944
 21
60.6379120879
  0
LINE
  8
0
 62
7
  6
CONTINUOUS
 10
107.7352519668
 20
60.7879120879
 11
107.7352519668
 21
60.6379120879
  0
LINE
  8
0
 62
7
  6
CONTINUOUS
 10
108.4943393858
 20
99.9379120879
 11
108.4943393858
 21
99.7879120879
  0
LINE
  8
0
 62
7
  6
CONTINUOUS
 10
109.1720698553
 20
60.7879120879
 11
109.1720698553
 21
60.6379120879
  0
LINE
  8
0
 62
7
  6
CONTINUOUS
 10
109.4530776095
 20
60.7879120879
 11
109.4530776095
 21
60.6379120879
  0
LINE
  8
0
 62
7
  6
CONTINUOUS
 10
109.637555686
 20
60.7879120879
 11
109.637555686
 21
60.6379120879
  0
LINE
  8
0
 62
7
  6
CONTINUOUS
 10
109.7438370447
 20
60.7879120879
 11
109.7438370447
 21
60.6379120879
  0
LINE
  8
0
 62
7
  6
CONTINUOUS
 10
109.7487128851
 20
60.7879120879
 11
109.7487128851
 21
60.6379120879
  0
LINE
  8
0
 62
7
  6
CONTINUOUS
 10
39.1228134971
 20
84.7145050113
 11
38.6447350309
 21
84.6292215039
  0
POLYLINE
  8
0
 62
7
  6
CONTINUOUS
 66
1
 70
0
  0
VERTEX
  8
0
 62
7
  6
CONTINUOUS
 10
30.3624888745
 20
84.6359896184
  0
VERTEX
  8
0
 62
7
  6
CONTINUOUS
 10
30.940510545
 20
84.720427225
  0
VERTEX
  8
0
 62
7
  6
CONTINUOUS
 10
31.5210873746
 20
84.7710338183
  0
SEQEND
  0
POLYLINE
  8
0
 62
7
  6
CONTINUOUS
 66
1
 70
0
  0
VERTEX
  8
0
 62
7
  6
CONTINUOUS
 10
161.0179507925
 20
84.6345398383
  0
VERTEX
  8
0
 62
7
  6
CONTINUOUS
 10
160.4854200651
 20
84.7169232697
  0
VERTEX
  8
0
 62
7
  6
CONTINUOUS
 10
159.8762685343
 20
84.7725363481
  0
VERTEX
  8
0
 62
7
  6
CONTINUOUS
 10
159.3445540335
 20
84.7879119261
  0
SEQEND
  0
POLYLINE
  8
0
 62
7
  6
CONTINUOUS
 66
1
 70
0
  0
VERTEX
  8
0
 62
7
  6
CONTINUOUS
 10
160.1917444128
 20
84.6327644365
  0
VERTEX
  8
0
 62
7
  6
CONTINUOUS
 10
159.6864535742
 20
84.7152879857
  0
VERTEX
  8
0
 62
7
  6
CONTINUOUS
 10
159.1019699059
 20
84.7719335248
  0
VERTEX
  8
0
 62
7
  6
CONTINUOUS
 10
158.5840486365
 20
84.7879119415
  0
SEQEND
  0
LINE
  8
0
 62
7
  6
CONTINUOUS
 10
110.6245047025
 20
60.7879120879
 11
110.6245047025
 21
60.6379120879
  0
LINE
  8
0
 62
7
  6
CONTINUOUS
 10
112.0275094729
 20
60.7879120879
 11
112.0275094729
 21
60.6379120879
  0
LINE
  8
0
 62
7
  6
CONTINUOUS
 10
112.2972226504
 20
60.7879120879
 11
112.2972226504
 21
60.6379120879
  0
LINE
  8
0
 62
7
  6
CONTINUOUS
 10
112.4633147621
 20
60.7879120879
 11
112.4633147621
 21
60.6379120879
  0
LINE
  8
0
 62
7
  6
CONTINUOUS
 10
112.5483688587
 20
60.7879120879
 11
112.5483688587
 21
60.6379120879
  0
LINE
  8
0
 62
7
  6
CONTINUOUS
 10
114.9022494524
 20
60.7879120879
 11
114.9022494524
 21
60.6379120879
  0
LINE
  8
0
 62
7
  6
CONTINUOUS
 10
140.606398469
 20
75.9801961764
 11
141.4324768842
 21
76.2678234171
  0
LINE
  8
0
 62
7
  6
CONTINUOUS
 10
140.2472224729
 20
75.8760304006
 11
140.6063345554
 21
75.9801740923
  0
LINE
  8
0
 62
7
  6
CONTINUOUS
 10
37.1697819177
 20
84.3111867771
 11
37.0695599125
 21
84.2847434135
  0
POLYLINE
  8
0
 62
7
  6
CONTINUOUS
 66
1
 70
0
  0
VERTEX
  8
0
 62
7
  6
CONTINUOUS
 10
37.3849122193
 20
84.3607204769
  0
VERTEX
  8
0
 62
7
  6
CONTINUOUS
 10
37.2877891703
 20
84.3393400549
  0
VERTEX
  8
0
 62
7
  6
CONTINUOUS
 10
37.1697819177
 20
84.3111867771
  0
SEQEND
  0
LINE
  8
0
 62
7
  6
CONTINUOUS
 10
38.6447292485
 20
84.6292204473
 11
37.3848933852
 21
84.3607167924
  0
LINE
  8
0
 62
7
  6
CONTINUOUS
 10
27.9227340005
 20
84.2062593292
 11
27.9332972179
 21
84.2082892239
  0
LINE
  8
0
 62
7
  6
CONTINUOUS
 10
27.9332972179
 20
84.2082892239
 11
30.3624888745
 21
84.6359896184
  0
LINE
  8
0
 62
7
  6
CONTINUOUS
 10
50.4943677082
 20
99.7879120879
 11
142.4943110696
 21
99.7879120879
  0
POLYLINE
  8
0
 62
7
  6
CONTINUOUS
 66
1
 70
0
  0
VERTEX
  8
0
 62
7
  6
CONTINUOUS
 10
162.1078670738
 20
84.2504316844
  0
VERTEX
  8
0
 62
7
  6
CONTINUOUS
 10
162.0374256858
 20
84.2674007996
  0
VERTEX
  8
0
 62
7
  6
CONTINUOUS
 10
161.9567657186
 20
84.2857076856
  0
VERTEX
  8
0
 62
7
  6
CONTINUOUS
 10
161.8630507096
 20
84.3058928837
  0
VERTEX
  8
0
 62
7
  6
CONTINUOUS
 10
161.753808224
 20
84.3283276456
  0
VERTEX
  8
0
 62
7
  6
CONTINUOUS
 10
160.1917471323
 20
84.6327640716
  0
SEQEND
  0
POLYLINE
  8
0
 62
7
  6
CONTINUOUS
 66
1
 70
0
  0
VERTEX
  8
0
 62
7
  6
CONTINUOUS
 10
140.6063303518
 20
84.5956515361
  0
VERTEX
  8
0
 62
7
  6
CONTINUOUS
 10
140.251476703
 20
84.698800162
  0
VERTEX
  8
0
 62
7
  6
CONTINUOUS
 10
139.8431190733
 20
84.7685873786
  0
VERTEX
  8
0
 62
7
  6
CONTINUOUS
 10
139.4855193376
 20
84.7879119372
  0
SEQEND
  0
LINE
  8
0
 62
7
  6
CONTINUOUS
 10
141.432476872
 20
84.3080007629
 11
140.606398469
 21
84.5956279994
  0
LINE
  8
0
 62
7
  6
CONTINUOUS
 10
116.3586569655
 20
60.7879120879
 11
116.3586569655
 21
60.6379120879
  0
LINE
  8
0
 62
7
  6
CONTINUOUS
 10
117.670037646
 20
60.7879120879
 11
117.670037646
 21
60.6379120879
  0
LINE
  8
0
 62
7
  6
CONTINUOUS
 10
117.9122553979
 20
60.7879120879
 11
117.9122553979
 21
60.6379120879
  0
LINE
  8
0
 62
7
  6
CONTINUOUS
 10
118.0378558403
 20
60.7879120879
 11
118.0378558403
 21
60.6379120879
  0
LINE
  8
0
 62
7
  6
CONTINUOUS
 10
118.0778288645
 20
60.7879120879
 11
118.0778288645
 21
60.6379120879
  0
LINE
  8
0
 62
7
  6
CONTINUOUS
 10
119.8342205977
 20
60.7879120879
 11
119.8342205977
 21
60.6379120879
  0
POLYLINE
  8
0
 62
7
  6
CONTINUOUS
 66
1
 70
0
  0
VERTEX
  8
0
 62
7
  6
CONTINUOUS
 10
141.4321766867
 20
76.2677196203
  0
VERTEX
  8
0
 62
7
  6
CONTINUOUS
 10
141.5040281402
 20
76.2943184965
  0
VERTEX
  8
0
 62
7
  6
CONTINUOUS
 10
141.6165099622
 20
76.3436708858
  0
VERTEX
  8
0
 62
7
  6
CONTINUOUS
 10
141.7307965479
 20
76.4067692084
  0
VERTEX
  8
0
 62
7
  6
CONTINUOUS
 10
141.8469785606
 20
76.4893703035
  0
VERTEX
  8
0
 62
7
  6
CONTINUOUS
 10
141.9614487622
 20
76.5967201551
  0
VERTEX
  8
0
 62
7
  6
CONTINUOUS
 10
142.0670234576
 20
76.7320340354
  0
VERTEX
  8
0
 62
7
  6
CONTINUOUS
 10
142.1535949598
 20
76.8938172586
  0
VERTEX
  8
0
 62
7
  6
CONTINUOUS
 10
142.2113567842
 20
77.0745925293
  0
VERTEX
  8
0
 62
7
  6
CONTINUOUS
 10
142.2346803466
 20
77.2638582946
  0
VERTEX
  8
0
 62
7
  6
CONTINUOUS
 10
142.2351042562
 20
77.2932337623
  0
SEQEND
  0
POLYLINE
  8
0
 62
7
  6
CONTINUOUS
 66
1
 70
0
  0
VERTEX
  8
0
 62
7
  6
CONTINUOUS
 10
162.2300566544
 20
76.3583427441
  0
VERTEX
  8
0
 62
7
  6
CONTINUOUS
 10
162.2920332407
 20
76.3778609251
  0
VERTEX
  8
0
 62
7
  6
CONTINUOUS
 10
162.3614600658
 20
76.4032416118
  0
VERTEX
  8
0
 62
7
  6
CONTINUOUS
 10
162.4426912692
 20
76.4391504962
  0
VERTEX
  8
0
 62
7
  6
CONTINUOUS
 10
162.5319743503
 20
76.4882454988
  0
VERTEX
  8
0
 62
7
  6
CONTINUOUS
 10
162.6235326003
 20
76.5515132411
  0
VERTEX
  8
0
 62
7
  6
CONTINUOUS
 10
162.7130206034
 20
76.6295452017
  0
VERTEX
  8
0
 62
7
  6
CONTINUOUS
 10
162.7967793559
 20
76.7225296671
  0
VERTEX
  8
0
 62
7
  6
CONTINUOUS
 10
162.8709776734
 20
76.8294763744
  0
VERTEX
  8
0
 62
7
  6
CONTINUOUS
 10
162.9329864452
 20
76.9502877379
  0
VERTEX
  8
0
 62
7
  6
CONTINUOUS
 10
162.9798202595
 20
77.0845263015
  0
VERTEX
  8
0
 62
7
  6
CONTINUOUS
 10
163.0080547996
 20
77.2310934344
  0
VERTEX
  8
0
 62
7
  6
CONTINUOUS
 10
163.0147724628
 20
77.3469615398
  0
SEQEND
  0
POLYLINE
  8
0
 62
7
  6
CONTINUOUS
 66
1
 70
0
  0
VERTEX
  8
0
 62
7
  6
CONTINUOUS
 10
27.9227328941
 20
84.2062591108
  0
VERTEX
  8
0
 62
7
  6
CONTINUOUS
 10
27.752107488
 20
84.1603256513
  0
VERTEX
  8
0
 62
7
  6
CONTINUOUS
 10
27.5905337632
 20
84.0840776975
  0
VERTEX
  8
0
 62
7
  6
CONTINUOUS
 10
27.4449464349
 20
83.9801594257
  0
VERTEX
  8
0
 62
7
  6
CONTINUOUS
 10
27.3201813458
 20
83.8519422938
  0
VERTEX
  8
0
 62
7
  6
CONTINUOUS
 10
27.2202521335
 20
83.7035331393
  0
VERTEX
  8
0
 62
7
  6
CONTINUOUS
 10
27.1483665706
 20
83.5396859362
  0
VERTEX
  8
0
 62
7
  6
CONTINUOUS
 10
27.1068296536
 20
83.3656484504
  0
VERTEX
  8
0
 62
7
  6
CONTINUOUS
 10
27.0963785898
 20
83.2214505887
  0
SEQEND
  0
LINE
  8
0
 62
7
  6
CONTINUOUS
 10
138.001380941
 20
99.9379120879
 11
125.1353555372
 21
99.9379120879
  0
LINE
  8
0
 62
7
  6
CONTINUOUS
 10
108.4943393858
 20
99.9379120879
 11
84.4943393858
 21
99.9379120879
  0
LINE
  8
0
 62
7
  6
CONTINUOUS
 10
66.9872978307
 20
99.9379120879
 11
54.1212724269
 21
99.9379120879
  0
LINE
  8
0
 62
7
  6
CONTINUOUS
 10
120.2525719493
 20
60.7879120879
 11
120.2525719493
 21
60.6379120879
  0
LINE
  8
0
 62
7
  6
CONTINUOUS
 10
120.3057312333
 20
60.7879120879
 11
120.3057312333
 21
60.6379120879
  0
LINE
  8
0
 62
7
  6
CONTINUOUS
 10
120.3114344159
 20
60.7879120879
 11
120.3114344159
 21
60.6379120879
  0
LINE
  8
0
 62
7
  6
CONTINUOUS
 10
120.4055417785
 20
60.7879120879
 11
120.4055417785
 21
60.6379120879
  0
LINE
  8
0
 62
7
  6
CONTINUOUS
 10
120.6267503725
 20
60.7879120879
 11
120.6267503725
 21
60.6379120879
  0
LINE
  8
0
 62
7
  6
CONTINUOUS
 10
120.8976614905
 20
60.7879120879
 11
120.8976614905
 21
60.6379120879
  0
LINE
  8
0
 62
7
  6
CONTINUOUS
 10
121.2182751867
 20
60.7879120879
 11
121.2182751867
 21
60.6379120879
  0
LINE
  8
0
 62
7
  6
CONTINUOUS
 10
121.5111838425
 20
60.7879120879
 11
121.5111838425
 21
60.6379120879
  0
LINE
  8
0
 62
7
  6
CONTINUOUS
 10
121.8150933798
 20
60.7879120879
 11
121.8150933798
 21
60.6379120879
  0
LINE
  8
0
 62
7
  6
CONTINUOUS
 10
122.1797019348
 20
60.7879120879
 11
122.1797019348
 21
60.6379120879
  0
LINE
  8
0
 62
7
  6
CONTINUOUS
 10
122.4669118634
 20
60.7879120879
 11
122.4669118634
 21
60.6379120879
  0
LINE
  8
0
 62
7
  6
CONTINUOUS
 10
122.6657130754
 20
60.7879120879
 11
122.6657130754
 21
60.6379120879
  0
LINE
  8
0
 62
7
  6
CONTINUOUS
 10
122.8755198275
 20
60.7879120879
 11
122.8755198275
 21
60.6379120879
  0
LINE
  8
0
 62
7
  6
CONTINUOUS
 10
123.0079188528
 20
60.7879120879
 11
123.0079188528
 21
60.6379120879
  0
LINE
  8
LAY0001
 62
7
  6
CONTINUOUS
 10
123.311258537
 20
60.7879120879
 11
123.311258537
 21
60.6379120879
  0
LINE
  8
LAY0001
 62
7
  6
CONTINUOUS
 10
123.3443188351
 20
60.7879120879
 11
123.3443188351
 21
60.6379120879
  0
LINE
  8
LAY0001
 62
7
  6
CONTINUOUS
 10
123.4162321349
 20
60.7879120879
 11
123.4162321349
 21
60.6379120879
  0
LINE
  8
LAY0001
 62
7
  6
CONTINUOUS
 10
123.576871622
 20
60.7879120879
 11
123.576871622
 21
60.6379120879
  0
LINE
  8
LAY0001
 62
7
  6
CONTINUOUS
 10
123.7404074425
 20
60.7879120879
 11
123.7404074425
 21
60.6379120879
  0
LINE
  8
LAY0001
 62
7
  6
CONTINUOUS
 10
123.829133593
 20
60.7879120879
 11
123.829133593
 21
60.6379120879
  0
LINE
  8
LAY0001
 62
7
  6
CONTINUOUS
 10
123.9317762153
 20
60.7879120879
 11
123.9317762153
 21
60.6379120879
  0
LINE
  8
LAY0001
 62
7
  6
CONTINUOUS
 10
124.0094822655
 20
60.7879120879
 11
124.0094822655
 21
60.6379120879
  0
LINE
  8
LAY0001
 62
7
  6
CONTINUOUS
 10
124.115021246
 20
60.7879120879
 11
124.115021246
 21
60.6379120879
  0
LINE
  8
LAY0001
 62
7
  6
CONTINUOUS
 10
124.2234565789
 20
60.7879120879
 11
124.2234565789
 21
60.6379120879
  0
LINE
  8
LAY0001
 62
7
  6
CONTINUOUS
 10
124.2820188046
 20
60.7879120879
 11
124.2820188046
 21
60.6379120879
  0
LINE
  8
LAY0001
 62
7
  6
CONTINUOUS
 10
124.2878115265
 20
60.7879120879
 11
124.2878115265
 21
60.6379120879
  0
POLYLINE
  8
0
 62
7
  6
CONTINUOUS
 66
1
 70
0
  0
VERTEX
  8
0
 62
7
  6
CONTINUOUS
 10
140.4326462056
 20
84.6461379298
  0
VERTEX
  8
0
 62
7
  6
CONTINUOUS
 10
140.4154214317
 20
84.6578817597
  0
VERTEX
  8
0
 62
7
  6
CONTINUOUS
 10
140.2339406296
 20
84.736498193
  0
VERTEX
  8
0
 62
7
  6
CONTINUOUS
 10
140.0386595325
 20
84.7799138968
  0
VERTEX
  8
0
 62
7
  6
CONTINUOUS
 10
139.9096073044
 20
84.7879119004
  0
SEQEND
  0
LINE
  8
0
 62
7
  6
CONTINUOUS
 10
125.1353555372
 20
99.9379120879
 11
125.1353555372
 21
99.7879120879
  0
LINE
  8
0
 62
7
  6
CONTINUOUS
 10
125.1353555372
 20
60.7879120879
 11
125.1353555372
 21
60.6379120879
  0
LINE
  8
0
 62
7
  6
CONTINUOUS
 10
126.8674063448
 20
99.9379120879
 11
126.8674063448
 21
99.7879120879
  0
LINE
  8
0
 62
7
  6
CONTINUOUS
 10
126.8674063448
 20
60.7879120879
 11
126.8674063448
 21
60.6379120879
  0
LINE
  8
0
 62
7
  6
CONTINUOUS
 10
132.6174063448
 20
99.9379120879
 11
132.6174063448
 21
99.7879120879
  0
LINE
  8
0
 62
7
  6
CONTINUOUS
 10
132.6174063448
 20
60.7879120879
 11
132.6174063448
 21
60.6379120879
  0
LINE
  8
0
 62
7
  6
CONTINUOUS
 10
134.9579860857
 20
99.9379120879
 11
134.9579860857
 21
99.7879120879
  0
LINE
  8
0
 62
7
  6
CONTINUOUS
 10
134.9579860857
 20
60.7879120879
 11
134.9579860857
 21
60.6379120879
  0
LINE
  8
0
 62
7
  6
CONTINUOUS
 10
138.001380941
 20
99.9379120879
 11
138.001380941
 21
99.7879120879
  0
LINE
  8
0
 62
7
  6
CONTINUOUS
 10
138.001380941
 20
60.7879120879
 11
138.001380941
 21
60.6379120879
  0
POLYLINE
  8
0
 62
7
  6
CONTINUOUS
 66
1
 70
0
  0
VERTEX
  8
0
 62
7
  6
CONTINUOUS
 10
142.2351042565
 20
83.2825906055
  0
VERTEX
  8
0
 62
7
  6
CONTINUOUS
 10
142.2347023277
 20
83.3111943815
  0
VERTEX
  8
0
 62
7
  6
CONTINUOUS
 10
142.2116506018
 20
83.49989013
  0
VERTEX
  8
0
 62
7
  6
CONTINUOUS
 10
142.1543061865
 20
83.6803302964
  0
VERTEX
  8
0
 62
7
  6
CONTINUOUS
 10
142.0681863903
 20
83.8420121772
  0
VERTEX
  8
0
 62
7
  6
CONTINUOUS
 10
141.963010014
 20
83.977405072
  0
VERTEX
  8
0
 62
7
  6
CONTINUOUS
 10
141.8488840443
 20
84.0849059717
  0
VERTEX
  8
0
 62
7
  6
CONTINUOUS
 10
141.7329996472
 20
84.167680674
  0
VERTEX
  8
0
 62
7
  6
CONTINUOUS
 10
141.6190141375
 20
84.2309258029
  0
VERTEX
  8
0
 62
7
  6
CONTINUOUS
 10
141.5069511415
 20
84.2803513478
  0
VERTEX
  8
0
 62
7
  6
CONTINUOUS
 10
141.4321842744
 20
84.3081019159
  0
SEQEND
  0
LINE
  8
0
 62
7
  6
CONTINUOUS
 10
142.2351071383
 20
83.2829108364
 11
142.2351071383
 21
77.2929133393
  0
LINE
  8
0
 62
7
  6
CONTINUOUS
 10
143.9943393858
 20
98.2879120879
 11
143.9943393858
 21
86.2879120879
  0
LINE
  8
0
 62
7
  6
CONTINUOUS
 10
143.9943393858
 20
74.2879120879
 11
143.9943393858
 21
62.2879120879
  0
POLYLINE
  8
0
 62
7
  6
CONTINUOUS
 66
1
 70
0
  0
VERTEX
  8
0
 62
7
  6
CONTINUOUS
 10
163.0147724627
 20
83.2288626335
  0
VERTEX
  8
0
 62
7
  6
CONTINUOUS
 10
163.0081216439
 20
83.3441547432
  0
VERTEX
  8
0
 62
7
  6
CONTINUOUS
 10
162.9800338955
 20
83.4905087053
  0
VERTEX
  8
0
 62
7
  6
CONTINUOUS
 10
162.9333947789
 20
83.6245866891
  0
VERTEX
  8
0
 62
7
  6
CONTINUOUS
 10
162.8716156719
 20
83.7452863594
  0
VERTEX
  8
0
 62
7
  6
CONTINUOUS
 10
162.7976770576
 20
83.8521625702
  0
VERTEX
  8
0
 62
7
  6
CONTINUOUS
 10
162.714201945
 20
83.9451186303
  0
VERTEX
  8
0
 62
7
  6
CONTINUOUS
 10
162.6249809635
 20
84.0231875408
  0
VERTEX
  8
0
 62
7
  6
CONTINUOUS
 10
162.5336486295
 20
84.0865479082
  0
VERTEX
  8
0
 62
7
  6
CONTINUOUS
 10
162.4444887864
 20
84.1357913524
  0
VERTEX
  8
0
 62
7
  6
CONTINUOUS
 10
162.3631846711
 20
84.1718951017
  0
VERTEX
  8
0
 62
7
  6
CONTINUOUS
 10
162.2936831976
 20
84.1974074618
  0
VERTEX
  8
0
 62
7
  6
CONTINUOUS
 10
162.2317476268
 20
84.2169802554
  0
VERTEX
  8
0
 62
7
  6
CONTINUOUS
 10
162.1713237248
 20
84.2340285047
  0
VERTEX
  8
0
 62
7
  6
CONTINUOUS
 10
162.1078670738
 20
84.2504316844
  0
SEQEND
  0
POLYLINE
  8
0
 62
7
  6
CONTINUOUS
 66
1
 70
0
  0
VERTEX
  8
0
 62
7
  6
CONTINUOUS
 10
163.977352111
 20
83.226388839
  0
VERTEX
  8
0
 62
7
  6
CONTINUOUS
 10
163.9757687513
 20
83.2826876378
  0
VERTEX
  8
0
 62
7
  6
CONTINUOUS
 10
163.9596149196
 20
83.4140645388
  0
VERTEX
  8
0
 62
7
  6
CONTINUOUS
 10
163.92803993
 20
83.5368297793
  0
VERTEX
  8
0
 62
7
  6
CONTINUOUS
 10
163.8833459519
 20
83.6501081217
  0
VERTEX
  8
0
 62
7
  6
CONTINUOUS
 10
163.8275625398
 20
83.7534158142
  0
VERTEX
  8
0
 62
7
  6
CONTINUOUS
 10
163.7624130135
 20
83.846575813
  0
VERTEX
  8
0
 62
7
  6
CONTINUOUS
 10
163.6896133295
 20
83.9293003266
  0
VERTEX
  8
0
 62
7
  6
CONTINUOUS
 10
163.6119121962
 20
84.0005534592
  0
VERTEX
  8
0
 62
7
  6
CONTINUOUS
 10
163.5320482959
 20
84.0601283377
  0
VERTEX
  8
0
 62
7
  6
CONTINUOUS
 10
163.452835523
 20
84.1083580815
  0
VERTEX
  8
0
 62
7
  6
CONTINUOUS
 10
163.3771912001
 20
84.1460439093
  0
VERTEX
  8
0
 62
7
  6
CONTINUOUS
 10
163.3088763632
 20
84.1741404324
  0
VERTEX
  8
0
 62
7
  6
CONTINUOUS
 10
163.248363134
 20
84.1951311281
  0
VERTEX
  8
0
 62
7
  6
CONTINUOUS
 10
163.1926927898
 20
84.2119361786
  0
VERTEX
  8
0
 62
7
  6
CONTINUOUS
 10
163.1367605213
 20
84.2270943246
  0
VERTEX
  8
0
 62
7
  6
CONTINUOUS
 10
163.07601743
 20
84.2422340369
  0
VERTEX
  8
0
 62
7
  6
CONTINUOUS
 10
163.0078112066
 20
84.2581392103
  0
VERTEX
  8
0
 62
7
  6
CONTINUOUS
 10
162.9312063387
 20
84.2750639604
  0
VERTEX
  8
0
 62
7
  6
CONTINUOUS
 10
162.8464439478
 20
84.292972113
  0
VERTEX
  8
0
 62
7
  6
CONTINUOUS
 10
162.7528267287
 20
84.3120104442
  0
VERTEX
  8
0
 62
7
  6
CONTINUOUS
 10
162.6506370071
 20
84.3321035952
  0
VERTEX
  8
0
 62
7
  6
CONTINUOUS
 10
162.5406958383
 20
84.35306876
  0
VERTEX
  8
0
 62
7
  6
CONTINUOUS
 10
161.0179518093
 20
84.6345398261
  0
SEQEND
  0
LINE
  8
0
 62
7
  6
CONTINUOUS
 10
163.0147739303
 20
83.2290273227
 11
163.0147739303
 21
77.3467968531
  0
LINE
  8
0
 62
7
  6
CONTINUOUS
 10
163.9773527434
 20
83.2268348055
 11
163.9773527434
 21
77.3489893704
  0
ARC
  8
0
 62
7
  6
CONTINUOUS
 10
58.5977182267
 20
153.1660214644
 40
9.525
 50
346.6363636364
 51
40.9090909091
  0
ARC
  8
0
 62
7
  6
CONTINUOUS
 10
52.6936987828
 20
171.4706159534
 40
2.0
 50
40.9090909091
 51
120.9090909091
  0
ARC
  8
0
 62
7
  6
CONTINUOUS
 10
41.5500056407
 20
169.4609463034
 40
2.0
 50
215.3930724276
 51
300.9090909091
  0
ARC
  8
0
 62
7
  6
CONTINUOUS
 10
40.0785003572
 20
171.6194988117
 40
2.0
 50
133.9090909091
 51
213.1721623881
  0
ARC
  8
0
 62
7
  6
CONTINUOUS
 10
55.8724330728
 20
169.3292032623
 40
1.5
 50
40.9090909091
 51
82.3186847232
  0
ARC
  8
0
 62
7
  6
CONTINUOUS
 10
56.1397581116
 20
171.3112570768
 40
0.5
 50
220.9088642835
 51
262.318797904
  0
ARC
  8
0
 62
7
  6
CONTINUOUS
 10
34.6990255944
 20
182.4382146982
 40
9.525
 50
313.9090909091
 51
8.1818181818
  0
ARC
  8
0
 62
7
  6
CONTINUOUS
 10
39.6284593072
 20
201.0289733775
 40
2.0
 50
8.1818181818
 51
88.1818181818
  0
ARC
  8
0
 62
7
  6
CONTINUOUS
 10
29.1672786401
 20
205.3630670545
 40
2.0
 50
182.6657997003
 51
268.1818181818
  0
ARC
  8
0
 62
7
  6
CONTINUOUS
 10
29.0963712145
 20
207.9745127972
 40
2.0
 50
101.1818181818
 51
180.4448896608
  0
ARC
  8
0
 62
7
  6
CONTINUOUS
 10
42.5679940334
 20
187.610734462
 40
1.5
 50
326.7721474778
 51
8.1818181818
  0
ARC
  8
0
 62
7
  6
CONTINUOUS
 10
41.1448456507
 20
197.5089488808
 40
1.5
 50
8.1818181818
 51
49.5913437458
  0
ARC
  8
0
 62
7
  6
CONTINUOUS
 10
44.2409910312
 20
186.5147960306
 40
0.5
 50
146.7723418567
 51
188.1815260678
  0
ARC
  8
0
 62
7
  6
CONTINUOUS
 10
42.4413129785
 20
199.031831827
 40
0.5
 50
188.1819538219
 51
229.5917299268
  0
ARC
  8
0
 62
7
  6
CONTINUOUS
 10
94.5283203122
 20
141.4612942136
 40
9.525
 50
19.3636363636
 51
73.6363636364
  0
ARC
  8
0
 62
7
  6
CONTINUOUS
 10
79.6653321694
 20
153.6681450961
 40
2.0
 50
73.6363636364
 51
153.6363636364
  0
ARC
  8
0
 62
7
  6
CONTINUOUS
 10
71.3771703872
 20
145.9527680334
 40
2.0
 50
248.1203451549
 51
333.6363636364
  0
ARC
  8
0
 62
7
  6
CONTINUOUS
 10
68.9722597763
 20
146.9731021375
 40
2.0
 50
166.6363636364
 51
245.8994351154
  0
ARC
  8
0
 62
7
  6
CONTINUOUS
 10
93.0921184648
 20
150.767902041
 40
1.5
 50
32.2268196388
 51
73.6363636364
  0
ARC
  8
0
 62
7
  6
CONTINUOUS
 10
83.4971887286
 20
153.5852276094
 40
1.5
 50
73.6363636364
 51
115.0460148131
  0
ARC
  8
0
 62
7
  6
CONTINUOUS
 10
62.4210404122
 20
161.7717075187
 40
1.5
 50
359.4994839141
 51
40.9090909091
  0
ARC
  8
0
 62
7
  6
CONTINUOUS
 10
94.7840071965
 20
151.8344443606
 40
0.5
 50
212.2265071919
 51
253.6362988498
  0
ARC
  8
0
 62
7
  6
CONTINUOUS
 10
82.6504976675
 20
155.3971642107
 40
0.5
 50
253.6367185247
 51
295.0458985434
  0
ARC
  8
0
 62
7
  6
CONTINUOUS
 10
64.4209640965
 20
161.754235906
 40
0.5
 50
179.499423457
 51
220.9084231866
  0
ARC
  8
0
 62
7
  6
CONTINUOUS
 10
30.4199084662
 20
219.9841593906
 40
9.525
 50
281.1818181818
 51
335.4545454545
  0
ARC
  8
0
 62
7
  6
CONTINUOUS
 10
44.6177349613
 20
232.9586477355
 40
2.0
 50
335.4545454545
 51
55.4545454545
  0
ARC
  8
0
 62
7
  6
CONTINUOUS
 10
38.1604177161
 20
242.2604606203
 40
2.0
 50
149.9385269731
 51
235.4545454545
  0
ARC
  8
0
 62
7
  6
CONTINUOUS
 10
39.5126207548
 20
244.4956840257
 40
2.0
 50
68.4545454545
 51
147.7176169336
  0
ARC
  8
0
 62
7
  6
CONTINUOUS
 10
39.8361812786
 20
220.0812743862
 40
1.5
 50
294.044983299
 51
335.4545454545
  0
ARC
  8
0
 62
7
  6
CONTINUOUS
 10
43.9903314086
 20
229.1775943397
 40
1.5
 50
335.4545454545
 51
16.8641809945
  0
ARC
  8
0
 62
7
  6
CONTINUOUS
 10
40.651086864
 20
218.2548218445
 40
0.5
 50
114.0447645721
 51
155.4545682693
  0
ARC
  8
0
 62
7
  6
CONTINUOUS
 10
45.9043218093
 20
229.7578018424
 40
0.5
 50
155.4549878801
 51
196.8641268257
  0
ARC
  8
0
 62
7
  6
CONTINUOUS
 10
47.1189562953
 20
253.8832833888
 40
9.525
 50
248.4545454545
 51
302.7272727273
  0
ARC
  8
0
 62
7
  6
CONTINUOUS
 10
55.0929333954
 20
248.8741602913
 40
1.5
 50
261.3176515413
 51
302.7272727273
  0
ARC
  8
0
 62
7
  6
CONTINUOUS
 10
54.7910208029
 20
246.8970794162
 40
0.5
 50
81.3176480927
 51
122.7267945112
  0
ARC
  8
0
 62
7
  6
CONTINUOUS
 10
79.4943393858
 20
273.3728543431
 40
9.525
 50
215.7272727273
 51
270.0
  0
ARC
  8
0
 62
7
  6
CONTINUOUS
 10
68.0201633469
 20
269.5877986786
 40
2.0
 50
35.7272727273
 51
114.9903442063
  0
ARC
  8
0
 62
7
  6
CONTINUOUS
 10
66.0774659777
 20
257.1221930232
 40
2.0
 50
302.7272727273
 51
22.7272727273
  0
ARC
  8
0
 62
7
  6
CONTINUOUS
 10
65.6741647544
 20
268.4384652483
 40
2.0
 50
117.2112542458
 51
202.7272727273
  0
ARC
  8
0
 62
7
  6
CONTINUOUS
 10
83.4943393858
 20
264.8478543431
 40
1.5
 50
228.5903069365
 51
270.0
  0
ARC
  8
0
 62
7
  6
CONTINUOUS
 10
93.4943393858
 20
264.8478543431
 40
1.5
 50
270.0
 51
311.4096906751
  0
ARC
  8
0
 62
7
  6
CONTINUOUS
 10
63.5054687237
 20
254.2805684658
 40
1.5
 50
302.7272727273
 51
344.1368523199
  0
ARC
  8
0
 62
7
  6
CONTINUOUS
 10
92.1157777084
 20
257.3018316159
 40
1.5
 50
275.1266974889
 51
312.3474545627
  0
ARC
  8
0
 62
7
  6
CONTINUOUS
 10
82.1714637303
 20
263.3478543431
 40
0.5
 50
48.5905656179
 51
89.999814678
  0
ARC
  8
0
 62
7
  6
CONTINUOUS
 10
94.8172150414
 20
263.3478543431
 40
0.5
 50
90.0002077088
 51
131.4094164119
  0
ARC
  8
0
 62
7
  6
CONTINUOUS
 10
65.4293037686
 20
253.7338887424
 40
0.5
 50
122.7271577162
 51
164.1370237571
  0
ARC
  8
0
 62
7
  6
CONTINUOUS
 10
111.9800564391
 20
153.2737195166
 40
2.0
 50
106.3636363636
 51
186.3636363636
  0
ARC
  8
0
 62
7
  6
CONTINUOUS
 10
109.1788588213
 20
142.3022127442
 40
2.0
 50
280.8476178822
 51
6.3636363636
  0
ARC
  8
0
 62
7
  6
CONTINUOUS
 10
106.6040850097
 20
141.8603795754
 40
2.0
 50
199.3636363636
 51
278.6267078427
  0
ARC
  8
0
 62
7
  6
CONTINUOUS
 10
124.8433776208
 20
158.0929485189
 40
1.5
 50
64.9539841699
 51
106.3636363636
  0
ARC
  8
0
 62
7
  6
CONTINUOUS
 10
115.2484478847
 20
155.2756229505
 40
1.5
 50
106.3636363636
 51
147.7731829745
  0
CIRCLE
  8
LAY0001
 62
7
  6
CONTINUOUS
 10
122.798711646
 20
172.9657385885
 40
1.275
  0
ARC
  8
0
 62
7
  6
CONTINUOUS
 10
125.690068682
 20
159.9048851201
 40
0.5
 50
244.9541045078
 51
286.3632663711
  0
ARC
  8
0
 62
7
  6
CONTINUOUS
 10
113.556559153
 20
156.3421652701
 40
0.5
 50
286.3636968923
 51
327.7734849683
  0
ARC
  8
0
 62
7
  6
CONTINUOUS
 10
96.4943393858
 20
208.4978543431
 40
69.4
 50
82.263071479
 51
84.4839815185
  0
ARC
  8
0
 62
7
  6
CONTINUOUS
 10
96.4943393858
 20
208.4978543431
 40
69.4
 50
311.3539805699
 51
313.5748906094
  0
ARC
  8
0
 62
7
  6
CONTINUOUS
 10
96.4943393858
 20
208.4978543431
 40
69.4
 50
278.6267078427
 51
280.8476178822
  0
ARC
  8
0
 62
7
  6
CONTINUOUS
 10
96.4943393858
 20
208.4978543431
 40
69.4
 50
245.8994351154
 51
248.1203451549
  0
ARC
  8
0
 62
7
  6
CONTINUOUS
 10
96.4943393858
 20
208.4978543431
 40
69.4
 50
213.1721623881
 51
215.3930724276
  0
ARC
  8
0
 62
7
  6
CONTINUOUS
 10
96.4943393858
 20
208.4978543431
 40
69.4
 50
180.4448896608
 51
182.6657997003
  0
ARC
  8
0
 62
7
  6
CONTINUOUS
 10
96.4943393858
 20
208.4978543431
 40
69.4
 50
147.7176169336
 51
149.9385269731
  0
ARC
  8
0
 62
7
  6
CONTINUOUS
 10
96.4943393858
 20
208.4978543431
 40
69.4
 50
114.9903442063
 51
117.2112542458
  0
ARC
  8
0
 62
7
  6
CONTINUOUS
 10
96.4943393858
 20
208.4978543431
 40
69.4
 50
49.5357987517
 51
51.7567087913
  0
ARC
  8
0
 62
7
  6
CONTINUOUS
 10
96.4943393858
 20
208.4978543431
 40
69.4
 50
16.8085260245
 51
19.029436064
  0
ARC
  8
0
 62
7
  6
CONTINUOUS
 10
96.4943393858
 20
208.4978543431
 40
69.4
 50
344.0812532972
 51
346.3021633367
  0
ARC
  8
0
 62
7
  6
CONTINUOUS
 10
96.4943393858
 20
208.4978543431
 40
47.5
 50
95.1266974889
 51
84.8733025111
  0
CIRCLE
  8
0
 62
4
  6
CONTINUOUS
 10
96.4943393858
 20
208.4978543431
 40
9.525
  0
ARC
  8
LAY0001
 62
7
  6
CONTINUOUS
 10
122.233026221
 20
175.8295210523
 40
1.0
 50
225.0
 51
315.0
  0
ARC
  8
LAY0001
 62
7
  6
CONTINUOUS
 10
124.7786106333
 20
178.7993695333
 40
1.0
 50
45.0
 51
135.0
  0
ARC
  8
LAY0001
 62
7
  6
CONTINUOUS
 10
122.4816934181
 20
175.9367668932
 40
0.9
 50
315.0
 51
11.2510114041
  0
ARC
  8
LAY0001
 62
7
  6
CONTINUOUS
 10
124.5299434362
 20
178.6921236924
 40
0.9
 50
135.0
 51
191.2510114041
  0
ARC
  8
LAY0001
 62
7
  6
CONTINUOUS
 10
122.4451582554
 20
176.3244957991
 40
0.5
 50
315.0
 51
45.0
  0
ARC
  8
LAY0001
 62
7
  6
CONTINUOUS
 10
124.5664785989
 20
178.3043947865
 40
0.5
 50
135.0
 51
225.0
  0
ARC
  8
LAY0001
 62
7
  6
CONTINUOUS
 10
122.3390922382
 20
175.8648763914
 40
0.25
 50
225.0
 51
315.0
  0
ARC
  8
LAY0001
 62
7
  6
CONTINUOUS
 10
124.6725446161
 20
178.7640141942
 40
0.25
 50
45.0
 51
135.0
  0
ARC
  8
0
 62
7
  6
CONTINUOUS
 10
131.0831195624
 20
151.0402011462
 40
9.525
 50
52.0909090909
 51
106.3636363636
  0
ARC
  8
0
 62
7
  6
CONTINUOUS
 10
139.3781749613
 20
170.4125665493
 40
2.0
 50
139.0909090909
 51
219.0909090909
  0
ARC
  8
0
 62
7
  6
CONTINUOUS
 10
142.9533019592
 20
159.6683059467
 40
2.0
 50
313.5748906094
 51
39.0909090909
  0
ARC
  8
0
 62
7
  6
CONTINUOUS
 10
141.0261374395
 20
157.9045844142
 40
2.0
 50
232.0909090909
 51
311.3539805699
  0
ARC
  8
0
 62
7
  6
CONTINUOUS
 10
141.0454101025
 20
173.8637007084
 40
1.5
 50
139.0909090909
 51
180.5005165854
  0
ARC
  8
0
 62
7
  6
CONTINUOUS
 10
139.0454864183
 20
173.8462290957
 40
0.5
 50
319.0915511288
 51
0.5005750445
  0
ARC
  8
0
 62
7
  6
CONTINUOUS
 10
156.6562254991
 20
178.8615069925
 40
9.525
 50
84.8181818182
 51
139.0909090909
  0
ARC
  8
0
 62
7
  6
CONTINUOUS
 10
153.1609786909
 20
199.6432233588
 40
2.0
 50
171.8181818182
 51
251.8181818182
  0
ARC
  8
0
 62
7
  6
CONTINUOUS
 10
161.9773527434
 20
192.5374357519
 40
2.0
 50
346.3021633367
 51
71.8181818182
  0
ARC
  8
0
 62
7
  6
CONTINUOUS
 10
161.309658634
 20
190.0117949804
 40
2.0
 50
264.8181818182
 51
344.0812532972
  0
ARC
  8
0
 62
7
  6
CONTINUOUS
 10
152.6977221506
 20
203.4478775321
 40
1.5
 50
171.8181818182
 51
213.227850884
  0
ARC
  8
0
 62
7
  6
CONTINUOUS
 10
147.594017442
 20
181.4211964519
 40
1.5
 50
97.6813162513
 51
139.0909090909
  0
ARC
  8
0
 62
7
  6
CONTINUOUS
 10
151.0247251528
 20
202.3519391007
 40
0.5
 50
351.8184615956
 51
33.2276630578
  0
ARC
  8
0
 62
7
  6
CONTINUOUS
 10
147.3266924031
 20
183.4032502664
 40
0.5
 50
277.6811991726
 51
319.0911420396
  0
ARC
  8
0
 62
7
  6
CONTINUOUS
 10
117.2671023601
 20
272.2650711823
 40
9.525
 50
183.0
 51
237.2727272727
  0
ARC
  8
0
 62
7
  6
CONTINUOUS
 10
96.4943393858
 20
252.4978543431
 40
5.0
 50
47.6525454373
 51
132.3474545627
  0
ARC
  8
0
 62
7
  6
CONTINUOUS
 10
97.1943393858
 20
265.8478543431
 40
2.0
 50
270.0
 51
350.0
  0
ARC
  8
0
 62
7
  6
CONTINUOUS
 10
102.9730994732
 20
275.5857494341
 40
2.0
 50
84.4839815185
 51
170.0
  0
ARC
  8
0
 62
7
  6
CONTINUOUS
 10
105.5680556425
 20
275.2842876458
 40
2.0
 50
2.9965854195
 51
82.263071479
  0
ARC
  8
0
 62
7
  6
CONTINUOUS
 10
128.0889677399
 20
256.3652958788
 40
2.0
 50
237.2727272727
 51
317.2727272727
  0
ARC
  8
0
 62
7
  6
CONTINUOUS
 10
116.0231535226
 20
262.9308215451
 40
1.5
 50
195.8631491484
 51
237.2727272727
  0
ARC
  8
0
 62
7
  6
CONTINUOUS
 10
124.435688851
 20
257.5244133705
 40
1.5
 50
237.2727272727
 51
278.6823484821
  0
ARC
  8
0
 62
7
  6
CONTINUOUS
 10
100.8729010633
 20
257.3018316159
 40
1.5
 50
227.6525454373
 51
264.8733025111
  0
ARC
  8
0
 62
7
  6
CONTINUOUS
 10
114.0993184777
 20
262.3841418216
 40
0.5
 50
15.8629732088
 51
57.272843886
  0
ARC
  8
0
 62
7
  6
CONTINUOUS
 10
124.7376014435
 20
255.5473324955
 40
0.5
 50
57.273257112
 51
98.6823520817
  0
ARC
  8
0
 62
7
  6
CONTINUOUS
 10
163.1283576785
 20
216.0921437221
 40
9.525
 50
117.5454545455
 51
171.8181818182
  0
ARC
  8
0
 62
7
  6
CONTINUOUS
 10
148.9525248285
 20
231.685162942
 40
2.0
 50
204.5454545455
 51
284.5454545455
  0
ARC
  8
0
 62
7
  6
CONTINUOUS
 10
160.2110094674
 20
230.4738856889
 40
2.0
 50
19.029436064
 51
104.5454545455
  0
ARC
  8
0
 62
7
  6
CONTINUOUS
 10
161.0147739303
 20
227.9881987781
 40
2.0
 50
297.5454545455
 51
16.8085260245
  0
ARC
  8
0
 62
7
  6
CONTINUOUS
 10
142.351707155
 20
243.7317062654
 40
1.5
 50
163.1358185313
 51
204.5454545455
  0
ARC
  8
0
 62
7
  6
CONTINUOUS
 10
146.505857285
 20
234.6353863119
 40
1.5
 50
204.5454545455
 51
245.955018705
  0
ARC
  8
0
 62
7
  6
CONTINUOUS
 10
154.1208705334
 20
213.3460919509
 40
1.5
 50
130.4086595982
 51
171.8181818182
  0
ARC
  8
0
 62
7
  6
CONTINUOUS
 10
140.4377167543
 20
244.311913768
 40
0.5
 50
343.1358741508
 51
24.5449998094
  0
ARC
  8
0
 62
7
  6
CONTINUOUS
 10
145.6909516997
 20
232.8089337702
 40
0.5
 50
24.5454333413
 51
65.9552505039
  0
ARC
  8
0
 62
7
  6
CONTINUOUS
 10
152.8244032055
 20
214.8689748971
 40
0.5
 50
310.4082600412
 51
351.8180391526
  0
ARC
  8
0
 62
7
  6
CONTINUOUS
 10
148.4446598634
 20
250.9116472327
 40
9.525
 50
150.2727272727
 51
204.5454545455
  0
ARC
  8
0
 62
7
  6
CONTINUOUS
 10
138.215073641
 20
261.4331009488
 40
2.0
 50
51.7567087913
 51
137.2727272727
  0
ARC
  8
0
 62
7
  6
CONTINUOUS
 10
140.2351071383
 20
259.7765559299
 40
2.0
 50
330.2727272727
 51
49.5357987517
  0
ARC
  8
0
 62
7
  6
CONTINUOUS
 10
32.0943393858
 20
74.7879120879
 40
10.0
 50
89.9999465783
 51
99.9999999912
  0
ARC
  8
0
 62
7
  6
CONTINUOUS
 10
32.0943393858
 20
85.7879120879
 40
10.0
 50
260.000000009
 51
270.000054485
  0
ARC
  8
0
 62
7
  6
CONTINUOUS
 10
142.4943393858
 20
98.2879120879
 40
1.5
 50
0.0
 51
90.0
  0
ARC
  8
0
 62
7
  6
CONTINUOUS
 10
50.4943393858
 20
98.2879120879
 40
1.5
 50
90.0
 51
180.0
  0
ARC
  8
0
 62
7
  6
CONTINUOUS
 10
145.4943393858
 20
86.2879120879
 40
1.5
 50
180.0
 51
270.0
  0
ARC
  8
0
 62
7
  6
CONTINUOUS
 10
47.4943393858
 20
86.2879120879
 40
1.5
 50
270.0
 51
360.0
  0
ARC
  8
0
 62
7
  6
CONTINUOUS
 10
145.4943393858
 20
74.2879120879
 40
1.5
 50
90.0
 51
180.0
  0
ARC
  8
0
 62
7
  6
CONTINUOUS
 10
47.4943393858
 20
74.2879120879
 40
1.5
 50
0.0
 51
90.0
  0
ARC
  8
0
 62
7
  6
CONTINUOUS
 10
142.4943393858
 20
62.2879120879
 40
1.5
 50
270.0
 51
360.0
  0
ARC
  8
0
 62
7
  6
CONTINUOUS
 10
50.4943393858
 20
62.2879120879
 40
1.5
 50
180.0
 51
270.0
  0
ENDSEC
  0
EOF
