  0
SECTION
  2
HEADER
  9
$EXTMAX
 10
210.0
 20
297.0
 30
0.0
  9
$EXTMIN
 10
0.0
 20
0.0
 30
0.0
  9
$LIMMIN
 10
0.0
 20
0.0
  9
$LIMMAX
 10
210.0
 20
297.0
  9
$VIEWCTR
 10
105.0
 20
148.5
  9
$VIEWSIZE
 40
297.0
  9
$CLAYER
  8
0
  9
$LTSCALE
 40
19.36
  9
$CELTYPE
  6
BYLAYER
  9
$DIMSCALE
 40
1.0
  9
$DIMASZ
 40
3.5
  9
$DIMEXO
 40
2.2
  9
$DIMDLI
 40
13.376
  9
$DIMEXE
 40
6.336
  9
$DIMCEN
 40
3.168
  9
$DIMLFAC
 40
1.0
  9
$DIMBLK
  1
_FILLED
  9
$DIMTXT
 40
3.5
  9
$PDMODE
 70
3
  9
$PDSIZE
 40
0.3125
  9
$TILEMODE
 70
1
  0
ENDSEC
  0
SECTION
  2
TABLES
  0
TABLE
  2
LTYPE
 70
6
  0
LTYPE
  2
BYBLOCK
 70
0
  3

 72
65
 73
0
 40
0.0
  0
LTYPE
  2
BYLAYER
 70
0
  3

 72
65
 73
0
 40
0.0
  0
LTYPE
  2
CONTINUOUS
 70
64
  3
Solid line
 72
65
 73
0
 40
0.0
  0
LTYPE
  2
CENTER
 70
64
  3
____ _ ____ _ ____ _ ____ _ ____ _ ____ _ ____
 72
65
 73
4
 40
0.6
 49
0.375
 49
-0.075
 49
0.075
 49
-0.075
  0
LTYPE
  2
HIDDEN
 70
64
  3
- - - - - - - - - - - - - - - - - - - -
 72
65
 73
2
 40
0.2
 49
0.1
 49
-0.1
  0
LTYPE
  2
PHANTOM
 70
64
  3
_____ _ _ _____ _ _ _____ _ _ _____
 72
65
 73
6
 40
0.8
 49
0.45
 49
-0.05
 49
0.1
 49
-0.05
 49
0.1
 49
-0.05
  0
LTYPE
  2
DOT
 70
64
  3
. . . . . . . . . . . . . . . . . . . .
 72
65
 73
2
 40
0.2
 49
0.1
 49
-0.1
  0
LTYPE
  2
DASHED
 70
64
  3
- - - - - - - - - - - - - - - - - - - -
 72
65
 73
2
 40
0.2
 49
0.1
 49
-0.1
  0
ENDTAB
  0
TABLE
  2
LAYER
 70
36
  0
LAYER
  2
0
 70
0
 62
7
  6
CONTINUOUS
  0
LAYER
  2
DEFAULT_1
 70
0
 62
7
  6
CENTER
  0
LAYER
  2
DEFAULT_2
 70
0
 62
8
  6
HIDDEN
  0
LAYER
  2
DEFAULT_3
 70
0
 62
7
  6
PHANTOM
  0
LAYER
  2
BLANK_CURVE
 70
0
 62
7
  6
CONTINUOUS
  0
LAYER
  2
HUB_SQ_NAV
 70
0
 62
7
  6
CONTINUOUS
  0
LAYER
  2
LAY0001
 70
0
 62
7
  6
CONTINUOUS
  0
ENDTAB
  0
TABLE
  2
STYLE
 70
1
  0
STYLE
  2
STANDARD
 70
0
 40
0.0
 41
0.8
 50
0.0
 71
0
 42
0.2
  3
txt
  4

  0
STYLE
  2
TEXTSTYLE_1
 70
0
 40
0.0
 41
0.8
 50
0.0
 71
0
 42
0.2
  3
gdt
  4

  0
STYLE
  2
TEXTSTYLE_2
 70
0
 40
0.0
 41
0.6
 50
0.0
 71
0
 42
0.2
  3
txt
  4

  0
STYLE
  2
TEXTSTYLE_3
 70
0
 40
0.0
 41
1.0
 50
0.0
 71
0
 42
0.2
  3
ftb_____.ttf
  4

  0
STYLE
  2
TEXTSTYLE_4
 70
0
 40
0.0
 41
1.0
 50
0.0
 71
0
 42
0.2
  3
fti_____.ttf
  4

  0
STYLE
  2
TEXTSTYLE_5
 70
0
 40
0.0
 41
1.0
 50
0.0
 71
0
 42
0.2
  3
frutiger light.ttf
  4

  0
STYLE
  2
TEXTSTYLE_6
 70
0
 40
0.0
 41
0.7
 50
0.0
 71
0
 42
0.2
  3
txt
  4

  0
STYLE
  2
TEXTSTYLE_7
 70
0
 40
0.0
 41
0.8
 50
0.0
 71
0
 42
0.2
  3
txt
  4

  0
ENDTAB
  0
ENDSEC
  0
SECTION
  2
BLOCKS
  0
BLOCK
  8
0
 62
2
  6
CONTINUOUS
  2
SYMBOL_8_BL1
 70
64
 10
173.5956734183
 20
35.5937998301
  0
TEXT
  8
0
 62
7
  6
CONTINUOUS
 10
164.6539584268
 20
30.6865562072
  7
TEXTSTYLE_4
 40
1.0655737705
  1
The brand for plastic modular belts and chains
 41
1.0
 72
0
  0
LINE
  8
0
 62
7
  6
CONTINUOUS
 10
149.5737418074
 20
36.1675703219
 11
149.5737418074
 21
34.0364227809
  0
LINE
  8
0
 62
7
  6
CONTINUOUS
 10
149.8628043005
 20
31.0454914852
 11
149.8628043005
 21
31.1422825445
  0
LINE
  8
0
 62
7
  6
CONTINUOUS
 10
149.5737418074
 20
31.1100188581
 11
149.6315543091
 21
30.9164367395
  0
LINE
  8
0
 62
7
  6
CONTINUOUS
 10
150.9671844304
 20
33.9544555678
 11
150.9671844304
 21
36.1675703219
  0
LINE
  8
0
 62
7
  6
CONTINUOUS
 10
151.8862417523
 20
32.1101932727
 11
151.8862417523
 21
30.5937998301
  0
LINE
  8
0
 62
7
  6
CONTINUOUS
 10
152.1753043074
 20
30.5937998301
 11
152.1753043074
 21
31.3358647082
  0
LINE
  8
0
 62
7
  6
CONTINUOUS
 10
152.1753043074
 20
31.4649194539
 11
152.1753043074
 21
32.1101932727
  0
LINE
  8
0
 62
7
  6
CONTINUOUS
 10
149.6315543091
 20
31.3036010218
 11
149.5737418074
 21
31.1100188581
  0
LINE
  8
0
 62
7
  6
CONTINUOUS
 10
149.9784292936
 20
30.8841730531
 11
149.8628043005
 21
31.0454914852
  0
LINE
  8
0
 62
7
  6
CONTINUOUS
 10
151.0768668626
 20
31.400392081
 11
151.1346793074
 21
31.3036010218
  0
LINE
  8
0
 62
7
  6
CONTINUOUS
 10
151.4237418626
 20
31.3036010218
 11
151.3659292523
 21
31.4326557675
  0
LINE
  8
0
 62
7
  6
CONTINUOUS
 10
152.852430332
 20
36.1675703219
 11
152.852430332
 21
34.3642916334
  0
LINE
  8
0
 62
7
  6
CONTINUOUS
 10
152.852430332
 20
33.0528162235
 11
152.852430332
 21
32.3970785186
  0
LINE
  8
0
 62
7
  6
CONTINUOUS
 10
153.2159293074
 20
31.2390736489
 11
153.2159293074
 21
30.5937998301
  0
LINE
  8
0
 62
7
  6
CONTINUOUS
 10
153.5049916972
 20
30.5937998301
 11
153.5049916972
 21
31.2390736489
  0
LINE
  8
0
 62
7
  6
CONTINUOUS
 10
149.8628043005
 20
31.1422825445
 11
149.9206168074
 21
31.2713373354
  0
LINE
  8
0
 62
7
  6
CONTINUOUS
 10
149.6315543091
 20
30.9164367395
 11
149.7471793074
 21
30.7873819712
  0
LINE
  8
0
 62
7
  6
CONTINUOUS
 10
153.1581166972
 20
31.3681283946
 11
153.2159293074
 21
31.2390736489
  0
LINE
  8
0
 62
7
  6
CONTINUOUS
 10
153.9674919177
 20
30.8841730531
 11
154.0253041972
 21
30.7551182848
  0
LINE
  8
0
 62
7
  6
CONTINUOUS
 10
153.5049916972
 20
31.2390736489
 11
153.4471794177
 21
31.400392081
  0
LINE
  8
0
 62
7
  6
CONTINUOUS
 10
153.9674919177
 20
31.4326557675
 11
153.9674919177
 21
31.3681283946
  0
LINE
  8
0
 62
7
  6
CONTINUOUS
 10
153.9674919177
 20
30.9809641124
 11
153.9674919177
 21
30.8841730531
  0
LINE
  8
0
 62
7
  6
CONTINUOUS
 10
154.245872955
 20
32.3970785186
 11
154.245872955
 21
36.1675703219
  0
LINE
  8
0
 62
7
  6
CONTINUOUS
 10
154.2565543074
 20
30.8519093441
 11
154.2565543074
 21
30.9164367395
  0
LINE
  8
0
 62
7
  6
CONTINUOUS
 10
154.5737418074
 20
36.1675703219
 11
154.5737418074
 21
32.3970785186
  0
LINE
  8
0
 62
7
  6
CONTINUOUS
 10
151.3659292523
 20
30.7873819712
 11
151.4237418626
 21
30.9164367395
  0
LINE
  8
0
 62
7
  6
CONTINUOUS
 10
155.759679528
 20
30.6905909007
 11
155.7018665869
 21
30.8519093441
  0
LINE
  8
0
 62
7
  6
CONTINUOUS
 10
155.412804528
 20
31.3681283946
 11
155.412804528
 21
31.2713373354
  0
LINE
  8
0
 62
7
  6
CONTINUOUS
 10
155.412804528
 20
31.1422825445
 11
155.412804528
 21
30.9487004259
  0
LINE
  8
0
 62
7
  6
CONTINUOUS
 10
155.7018665869
 20
30.8519093441
 11
155.7018665869
 21
31.3681283946
  0
LINE
  8
0
 62
7
  6
CONTINUOUS
 10
155.9671844304
 20
32.3970785186
 11
155.9671844304
 21
34.2003572071
  0
LINE
  8
0
 62
7
  6
CONTINUOUS
 10
155.9671844304
 20
35.511832617
 11
155.9671844304
 21
36.1675703219
  0
LINE
  8
0
 62
7
  6
CONTINUOUS
 10
156.279992028
 20
32.1101932727
 11
156.279992028
 21
31.9488748406
  0
LINE
  8
0
 62
7
  6
CONTINUOUS
 10
156.279992028
 20
31.626237886
 11
156.279992028
 21
30.5937998301
  0
LINE
  8
0
 62
7
  6
CONTINUOUS
 10
156.5690540869
 20
30.5937998301
 11
156.5690540869
 21
31.626237886
  0
LINE
  8
0
 62
7
  6
CONTINUOUS
 10
156.5690540869
 20
31.9488748406
 11
156.5690540869
 21
32.1101932727
  0
LINE
  8
0
 62
7
  6
CONTINUOUS
 10
151.1346793074
 20
30.9164367395
 11
151.0768668626
 21
30.8196456577
  0
LINE
  8
0
 62
7
  6
CONTINUOUS
 10
153.4471794177
 20
31.400392081
 11
153.3893668074
 21
31.4649194539
  0
LINE
  8
0
 62
7
  6
CONTINUOUS
 10
154.3143669177
 20
30.7873819712
 11
154.2565543074
 21
30.8519093441
  0
LINE
  8
0
 62
7
  6
CONTINUOUS
 10
155.4706168074
 20
30.6583272086
 11
155.5284290869
 21
30.5937998301
  0
LINE
  8
0
 62
7
  6
CONTINUOUS
 10
155.412804528
 20
30.7551182848
 11
155.4706168074
 21
30.6583272086
  0
LINE
  8
0
 62
7
  6
CONTINUOUS
 10
155.8174918074
 20
30.5937998301
 11
155.759679528
 21
30.6905909007
  0
LINE
  8
0
 62
7
  6
CONTINUOUS
 10
155.7018665869
 20
31.3681283946
 11
155.6440543074
 21
31.4649194539
  0
LINE
  8
0
 62
7
  6
CONTINUOUS
 10
157.0315543074
 20
31.626237886
 11
157.0315543074
 21
30.5937998301
  0
LINE
  8
0
 62
7
  6
CONTINUOUS
 10
157.320617028
 20
30.5937998301
 11
157.320617028
 21
31.3358647082
  0
LINE
  8
0
 62
7
  6
CONTINUOUS
 10
157.320617028
 20
31.4649194539
 11
157.320617028
 21
31.626237886
  0
LINE
  8
0
 62
7
  6
CONTINUOUS
 10
157.852430332
 20
34.6101932727
 11
157.852430332
 21
32.3970785186
  0
LINE
  8
0
 62
7
  6
CONTINUOUS
 10
149.7471793074
 20
31.4326557675
 11
149.6315543091
 21
31.3036010218
  0
LINE
  8
0
 62
7
  6
CONTINUOUS
 10
149.9206168074
 20
31.2713373354
 11
149.9784292936
 21
31.3358647082
  0
LINE
  8
0
 62
7
  6
CONTINUOUS
 10
149.7471793074
 20
30.7873819712
 11
149.8628043005
 21
30.7228545871
  0
LINE
  8
0
 62
7
  6
CONTINUOUS
 10
150.1518667936
 20
30.7873819712
 11
149.9784292936
 21
30.8841730531
  0
LINE
  8
0
 62
7
  6
CONTINUOUS
 10
155.3549915869
 20
31.4326557675
 11
155.412804528
 21
31.3681283946
  0
LINE
  8
0
 62
7
  6
CONTINUOUS
 10
158.3034290869
 20
31.3681283946
 11
158.361242028
 21
31.2068099625
  0
LINE
  8
0
 62
7
  6
CONTINUOUS
 10
158.6503040869
 20
31.2068099625
 11
158.5924918074
 21
31.3681283946
  0
LINE
  8
0
 62
7
  6
CONTINUOUS
 10
158.361242028
 20
31.2068099625
 11
158.361242028
 21
30.5937998301
  0
LINE
  8
0
 62
7
  6
CONTINUOUS
 10
158.6503040869
 20
30.5937998301
 11
158.6503040869
 21
31.2068099625
  0
LINE
  8
0
 62
7
  6
CONTINUOUS
 10
159.1128043074
 20
31.4326557675
 11
159.1128043074
 21
31.3681283946
  0
LINE
  8
0
 62
7
  6
CONTINUOUS
 10
159.245872955
 20
32.3970785186
 11
159.245872955
 21
34.5282260596
  0
LINE
  8
0
 62
7
  6
CONTINUOUS
 10
159.5737418074
 20
36.1675703219
 11
159.5737418074
 21
32.3970785186
  0
LINE
  8
0
 62
7
  6
CONTINUOUS
 10
154.2565543074
 20
30.9164367395
 11
154.3143669177
 21
31.0132277988
  0
LINE
  8
0
 62
7
  6
CONTINUOUS
 10
149.8628043005
 20
30.7228545871
 11
150.0362418212
 21
30.6583272086
  0
LINE
  8
0
 62
7
  6
CONTINUOUS
 10
151.3659292523
 20
31.4326557675
 11
151.1924917523
 21
31.5294468267
  0
LINE
  8
0
 62
7
  6
CONTINUOUS
 10
154.0253041972
 20
30.7551182848
 11
154.1987416972
 21
30.6583272086
  0
LINE
  8
0
 62
7
  6
CONTINUOUS
 10
153.0424918074
 20
31.4326557675
 11
153.1581166972
 21
31.3681283946
  0
LINE
  8
0
 62
7
  6
CONTINUOUS
 10
153.3893668074
 20
31.4649194539
 11
153.2737419177
 21
31.5294468267
  0
LINE
  8
0
 62
7
  6
CONTINUOUS
 10
159.1128043074
 20
30.8519093441
 11
159.228429528
 21
30.7228545871
  0
LINE
  8
0
 62
7
  6
CONTINUOUS
 10
159.4596793074
 20
30.7873819712
 11
159.401867028
 21
30.8519093441
  0
LINE
  8
0
 62
7
  6
CONTINUOUS
 10
159.1128043074
 20
31.3681283946
 11
159.228429528
 21
31.2390736489
  0
LINE
  8
0
 62
7
  6
CONTINUOUS
 10
158.5924918074
 20
31.3681283946
 11
158.534679528
 21
31.4649194539
  0
LINE
  8
0
 62
7
  6
CONTINUOUS
 10
160.9628038663
 20
30.7873819712
 11
160.9628038663
 21
30.8519093441
  0
LINE
  8
0
 62
7
  6
CONTINUOUS
 10
160.9671844304
 20
32.3970785186
 11
160.9671844304
 21
36.1675703219
  0
LINE
  8
0
 62
7
  6
CONTINUOUS
 10
154.0253041972
 20
31.4971831403
 11
153.9674919177
 21
31.4326557675
  0
LINE
  8
0
 62
7
  6
CONTINUOUS
 10
150.9034292799
 20
31.4649194539
 11
151.0768668626
 21
31.400392081
  0
LINE
  8
0
 62
7
  6
CONTINUOUS
 10
155.6440543074
 20
31.4649194539
 11
155.5284290869
 21
31.5294468267
  0
LINE
  8
0
 62
7
  6
CONTINUOUS
 10
159.4596793074
 20
31.3036010218
 11
159.401867028
 21
31.3681283946
  0
LINE
  8
0
 62
7
  6
CONTINUOUS
 10
160.615929528
 20
30.9164367395
 11
160.6737418074
 21
30.8519093441
  0
LINE
  8
0
 62
7
  6
CONTINUOUS
 10
160.9628038663
 20
30.8519093441
 11
160.8471793074
 21
30.9809641124
  0
LINE
  8
0
 62
7
  6
CONTINUOUS
 10
160.615929528
 20
31.4326557675
 11
160.6737418074
 21
31.3681283946
  0
LINE
  8
0
 62
7
  6
CONTINUOUS
 10
160.9628038663
 20
31.3681283946
 11
160.8471793074
 21
31.4971831403
  0
LINE
  8
0
 62
7
  6
CONTINUOUS
 10
154.2565543074
 20
31.3681283946
 11
154.3143669177
 21
31.4326557675
  0
LINE
  8
0
 62
7
  6
CONTINUOUS
 10
154.0831168074
 20
31.1100188581
 11
153.9674919177
 21
30.9809641124
  0
LINE
  8
0
 62
7
  6
CONTINUOUS
 10
155.412804528
 20
30.9487004259
 11
155.3549915869
 21
30.8841730531
  0
LINE
  8
0
 62
7
  6
CONTINUOUS
 10
155.3549915869
 20
30.6905909007
 11
155.412804528
 21
30.7551182848
  0
LINE
  8
0
 62
7
  6
CONTINUOUS
 10
154.1987416972
 20
30.6583272086
 11
154.3143669177
 21
30.6260635193
  0
LINE
  8
0
 62
7
  6
CONTINUOUS
 10
151.1924917523
 20
31.5294468267
 11
150.9612418074
 21
31.5939741996
  0
LINE
  8
0
 62
7
  6
CONTINUOUS
 10
154.5456166972
 20
30.7228545871
 11
154.3143669177
 21
30.7873819712
  0
LINE
  8
0
 62
7
  6
CONTINUOUS
 10
153.2737419177
 20
31.5294468267
 11
153.1003044177
 21
31.5939741996
  0
LINE
  8
0
 62
7
  6
CONTINUOUS
 10
155.5284290869
 20
31.5294468267
 11
155.3549915869
 21
31.5939741996
  0
LINE
  8
0
 62
7
  6
CONTINUOUS
 10
158.187804528
 20
31.4326557675
 11
158.3034290869
 21
31.3681283946
  0
LINE
  8
0
 62
7
  6
CONTINUOUS
 10
158.534679528
 20
31.4649194539
 11
158.4190543074
 21
31.5294468267
  0
LINE
  8
0
 62
7
  6
CONTINUOUS
 10
150.0362418212
 20
30.6583272086
 11
150.2096793212
 21
30.6260635193
  0
LINE
  8
0
 62
7
  6
CONTINUOUS
 10
150.498741835
 20
30.7228545871
 11
150.1518667936
 21
30.7873819712
  0
LINE
  8
0
 62
7
  6
CONTINUOUS
 10
152.9268669177
 20
31.4649194539
 11
153.0424918074
 21
31.4326557675
  0
LINE
  8
0
 62
7
  6
CONTINUOUS
 10
155.239367028
 20
31.4649194539
 11
155.3549915869
 21
31.4326557675
  0
LINE
  8
0
 62
7
  6
CONTINUOUS
 10
159.575304528
 20
30.7551182848
 11
159.4596793074
 21
30.7873819712
  0
LINE
  8
0
 62
7
  6
CONTINUOUS
 10
158.0721793074
 20
31.4649194539
 11
158.187804528
 21
31.4326557675
  0
LINE
  8
0
 62
7
  6
CONTINUOUS
 10
159.228429528
 20
30.7228545871
 11
159.401867028
 21
30.6583272086
  0
LINE
  8
0
 62
7
  6
CONTINUOUS
 10
158.4190543074
 20
31.5294468267
 11
158.2456168074
 21
31.5939741996
  0
LINE
  8
0
 62
7
  6
CONTINUOUS
 10
159.6331168074
 20
31.2390736489
 11
159.4596793074
 21
31.3036010218
  0
LINE
  8
0
 62
7
  6
CONTINUOUS
 10
160.442492028
 20
30.9809641124
 11
160.615929528
 21
30.9164367395
  0
LINE
  8
0
 62
7
  6
CONTINUOUS
 10
160.8471793074
 20
31.4971831403
 11
160.6737418074
 21
31.5617105132
  0
LINE
  8
0
 62
7
  6
CONTINUOUS
 10
159.228429528
 20
31.2390736489
 11
159.4596793074
 21
31.1422825445
  0
LINE
  8
0
 62
7
  6
CONTINUOUS
 10
160.8471793074
 20
30.9809641124
 11
160.615929528
 21
31.0777551716
  0
LINE
  8
0
 62
7
  6
CONTINUOUS
 10
159.401867028
 20
31.3681283946
 11
159.4596793074
 21
31.4326557675
  0
LINE
  8
0
 62
7
  6
CONTINUOUS
 10
149.8628043005
 20
31.4971831403
 11
149.7471793074
 21
31.4326557675
  0
LINE
  8
0
 62
7
  6
CONTINUOUS
 10
149.9784292936
 20
31.3358647082
 11
150.1518667936
 21
31.4326557675
  0
LINE
  8
0
 62
7
  6
CONTINUOUS
 10
152.2909293626
 20
31.5294468267
 11
152.1753043074
 21
31.4649194539
  0
LINE
  8
0
 62
7
  6
CONTINUOUS
 10
152.1753043074
 20
31.3358647082
 11
152.2909293626
 21
31.400392081
  0
LINE
  8
0
 62
7
  6
CONTINUOUS
 10
151.1924917523
 20
30.6905909007
 11
151.3659292523
 21
30.7873819712
  0
LINE
  8
0
 62
7
  6
CONTINUOUS
 10
150.2096793212
 20
30.6260635193
 11
150.5565542799
 21
30.5937998301
  0
LINE
  8
0
 62
7
  6
CONTINUOUS
 10
154.3143669177
 20
30.6260635193
 11
154.5456166972
 21
30.5937998301
  0
LINE
  8
0
 62
7
  6
CONTINUOUS
 10
152.6956168074
 20
31.4971831403
 11
152.9268669177
 21
31.4649194539
  0
LINE
  8
0
 62
7
  6
CONTINUOUS
 10
155.0081169177
 20
31.4971831403
 11
155.239367028
 21
31.4649194539
  0
LINE
  8
0
 62
7
  6
CONTINUOUS
 10
159.4596793074
 20
31.1422825445
 11
160.442492028
 21
30.9809641124
  0
LINE
  8
0
 62
7
  6
CONTINUOUS
 10
160.615929528
 20
31.0777551716
 11
159.6331168074
 21
31.2390736489
  0
LINE
  8
0
 62
7
  6
CONTINUOUS
 10
153.1003044177
 20
31.5939741996
 11
152.9268669177
 21
31.626237886
  0
LINE
  8
0
 62
7
  6
CONTINUOUS
 10
159.401867028
 20
30.6583272086
 11
159.575304528
 21
30.6260635193
  0
LINE
  8
0
 62
7
  6
CONTINUOUS
 10
158.2456168074
 20
31.5939741996
 11
158.0721793074
 21
31.626237886
  0
LINE
  8
0
 62
7
  6
CONTINUOUS
 10
160.5003043074
 20
31.4649194539
 11
160.615929528
 21
31.4326557675
  0
LINE
  8
0
 62
7
  6
CONTINUOUS
 10
160.6737418074
 20
30.8519093441
 11
160.615929528
 21
30.7873819712
  0
LINE
  8
0
 62
7
  6
CONTINUOUS
 10
159.228429528
 20
31.5294468267
 11
159.1128043074
 21
31.4326557675
  0
LINE
  8
0
 62
7
  6
CONTINUOUS
 10
154.1409294177
 20
31.5617105132
 11
154.0253041972
 21
31.4971831403
  0
LINE
  8
0
 62
7
  6
CONTINUOUS
 10
154.1987416972
 20
31.1745462761
 11
154.0831168074
 21
31.1100188581
  0
LINE
  8
0
 62
7
  6
CONTINUOUS
 10
154.3143669177
 20
31.0132277988
 11
154.4299918074
 21
31.0777551716
  0
LINE
  8
0
 62
7
  6
CONTINUOUS
 10
151.8862417523
 20
30.5937998301
 11
152.1753043074
 21
30.5937998301
  0
LINE
  8
0
 62
7
  6
CONTINUOUS
 10
153.2159293074
 20
30.5937998301
 11
153.5049916972
 21
30.5937998301
  0
LINE
  8
0
 62
7
  6
CONTINUOUS
 10
154.5456166972
 20
30.5937998301
 11
154.8924916972
 21
30.5937998301
  0
LINE
  8
0
 62
7
  6
CONTINUOUS
 10
155.5284290869
 20
30.5937998301
 11
155.8174918074
 21
30.5937998301
  0
LINE
  8
0
 62
7
  6
CONTINUOUS
 10
156.279992028
 20
30.5937998301
 11
156.5690540869
 21
30.5937998301
  0
LINE
  8
0
 62
7
  6
CONTINUOUS
 10
157.0315543074
 20
30.5937998301
 11
157.320617028
 21
30.5937998301
  0
LINE
  8
0
 62
7
  6
CONTINUOUS
 10
158.361242028
 20
30.5937998301
 11
158.6503040869
 21
30.5937998301
  0
LINE
  8
0
 62
7
  6
CONTINUOUS
 10
159.922179528
 20
30.5937998301
 11
160.269054528
 21
30.5937998301
  0
LINE
  8
0
 62
7
  6
CONTINUOUS
 10
160.269054528
 20
30.7228545871
 11
159.922179528
 21
30.7228545871
  0
LINE
  8
0
 62
7
  6
CONTINUOUS
 10
154.8924916972
 20
30.7228545871
 11
154.5456166972
 21
30.7228545871
  0
LINE
  8
0
 62
7
  6
CONTINUOUS
 10
159.401867028
 20
30.8519093441
 11
159.1128043074
 21
30.8519093441
  0
LINE
  8
0
 62
7
  6
CONTINUOUS
 10
151.4237418626
 20
30.9164367395
 11
151.1346793074
 21
30.9164367395
  0
LINE
  8
0
 62
7
  6
CONTINUOUS
 10
150.498741835
 20
31.4971831403
 11
150.9034292799
 21
31.4649194539
  0
LINE
  8
0
 62
7
  6
CONTINUOUS
 10
150.9612418074
 20
31.5939741996
 11
150.5565542799
 21
31.626237886
  0
LINE
  8
0
 62
7
  6
CONTINUOUS
 10
159.575304528
 20
30.6260635193
 11
159.922179528
 21
30.5937998301
  0
LINE
  8
0
 62
7
  6
CONTINUOUS
 10
159.922179528
 20
30.7228545871
 11
159.575304528
 21
30.7551182848
  0
LINE
  8
0
 62
7
  6
CONTINUOUS
 10
155.3549915869
 20
31.5939741996
 11
155.0081169177
 21
31.626237886
  0
LINE
  8
0
 62
7
  6
CONTINUOUS
 10
160.1534293074
 20
31.4971831403
 11
160.5003043074
 21
31.4649194539
  0
LINE
  8
0
 62
7
  6
CONTINUOUS
 10
160.5003043074
 20
31.5939741996
 11
160.1534293074
 21
31.626237886
  0
LINE
  8
0
 62
7
  6
CONTINUOUS
 10
157.840929528
 20
31.4971831403
 11
158.0721793074
 21
31.4649194539
  0
LINE
  8
0
 62
7
  6
CONTINUOUS
 10
160.6737418074
 20
31.5617105132
 11
160.5003043074
 21
31.5939741996
  0
LINE
  8
0
 62
7
  6
CONTINUOUS
 10
160.8471793074
 20
30.6905909007
 11
160.9628038663
 21
30.7873819712
  0
LINE
  8
0
 62
7
  6
CONTINUOUS
 10
155.3549915869
 20
30.8841730531
 11
155.1815540869
 21
30.7873819712
  0
LINE
  8
0
 62
7
  6
CONTINUOUS
 10
157.4362415869
 20
31.5294468267
 11
157.320617028
 21
31.4649194539
  0
LINE
  8
0
 62
7
  6
CONTINUOUS
 10
157.320617028
 20
31.3358647082
 11
157.4362415869
 21
31.400392081
  0
LINE
  8
0
 62
7
  6
CONTINUOUS
 10
150.0362418212
 20
31.5617105132
 11
149.8628043005
 21
31.4971831403
  0
LINE
  8
0
 62
7
  6
CONTINUOUS
 10
152.4643666972
 20
31.5939741996
 11
152.2909293626
 21
31.5294468267
  0
LINE
  8
0
 62
7
  6
CONTINUOUS
 10
152.2909293626
 20
31.400392081
 11
152.4643666972
 21
31.4649194539
  0
LINE
  8
0
 62
7
  6
CONTINUOUS
 10
151.0768668626
 20
30.8196456577
 11
150.9034292799
 21
30.7551182848
  0
LINE
  8
0
 62
7
  6
CONTINUOUS
 10
160.5003043074
 20
30.7551182848
 11
160.269054528
 21
30.7228545871
  0
LINE
  8
0
 62
7
  6
CONTINUOUS
 10
154.8924916972
 20
30.5937998301
 11
155.1815540869
 21
30.6260635193
  0
LINE
  8
0
 62
7
  6
CONTINUOUS
 10
160.269054528
 20
30.5937998301
 11
160.615929528
 21
30.6260635193
  0
LINE
  8
0
 62
7
  6
CONTINUOUS
 10
150.5565542799
 20
30.5937998301
 11
150.9612418074
 21
30.6260635193
  0
LINE
  8
0
 62
7
  6
CONTINUOUS
 10
150.9034292799
 20
30.7551182848
 11
150.498741835
 21
30.7228545871
  0
LINE
  8
0
 62
7
  6
CONTINUOUS
 10
154.7768668074
 20
31.1422825445
 11
155.412804528
 21
31.1422825445
  0
LINE
  8
0
 62
7
  6
CONTINUOUS
 10
155.412804528
 20
31.2713373354
 11
154.7768668074
 21
31.2713373354
  0
LINE
  8
0
 62
7
  6
CONTINUOUS
 10
151.1346793074
 20
31.3036010218
 11
151.4237418626
 21
31.3036010218
  0
LINE
  8
0
 62
7
  6
CONTINUOUS
 10
153.9674919177
 20
31.3681283946
 11
154.2565543074
 21
31.3681283946
  0
LINE
  8
0
 62
7
  6
CONTINUOUS
 10
160.6737418074
 20
31.3681283946
 11
160.9628038663
 21
31.3681283946
  0
LINE
  8
0
 62
7
  6
CONTINUOUS
 10
154.6612419177
 20
31.4971831403
 11
155.0081169177
 21
31.4971831403
  0
LINE
  8
0
 62
7
  6
CONTINUOUS
 10
159.8065543074
 20
31.4971831403
 11
160.1534293074
 21
31.4971831403
  0
LINE
  8
0
 62
7
  6
CONTINUOUS
 10
160.1534293074
 20
31.626237886
 11
159.8065543074
 21
31.626237886
  0
LINE
  8
0
 62
7
  6
CONTINUOUS
 10
158.0721793074
 20
31.626237886
 11
157.840929528
 21
31.626237886
  0
LINE
  8
0
 62
7
  6
CONTINUOUS
 10
157.320617028
 20
31.626237886
 11
157.0315543074
 21
31.626237886
  0
LINE
  8
0
 62
7
  6
CONTINUOUS
 10
156.5690540869
 20
31.626237886
 11
156.279992028
 21
31.626237886
  0
LINE
  8
0
 62
7
  6
CONTINUOUS
 10
155.0081169177
 20
31.626237886
 11
154.6612419177
 21
31.626237886
  0
LINE
  8
0
 62
7
  6
CONTINUOUS
 10
152.9268669177
 20
31.626237886
 11
152.6956168074
 21
31.626237886
  0
LINE
  8
0
 62
7
  6
CONTINUOUS
 10
156.279992028
 20
31.9488748406
 11
156.5690540869
 21
31.9488748406
  0
LINE
  8
0
 62
7
  6
CONTINUOUS
 10
156.5690540869
 20
32.1101932727
 11
156.279992028
 21
32.1101932727
  0
LINE
  8
0
 62
7
  6
CONTINUOUS
 10
152.1753043074
 20
32.1101932727
 11
151.8862417523
 21
32.1101932727
  0
LINE
  8
0
 62
7
  6
CONTINUOUS
 10
151.2130860697
 20
32.3970785186
 11
151.6256574183
 21
32.3970785186
  0
LINE
  8
0
 62
7
  6
CONTINUOUS
 10
152.852430332
 20
32.3970785186
 11
154.245872955
 21
32.3970785186
  0
LINE
  8
0
 62
7
  6
CONTINUOUS
 10
154.5737418074
 20
32.3970785186
 11
155.9671844304
 21
32.3970785186
  0
LINE
  8
0
 62
7
  6
CONTINUOUS
 10
157.852430332
 20
32.3970785186
 11
159.245872955
 21
32.3970785186
  0
LINE
  8
0
 62
7
  6
CONTINUOUS
 10
159.5737418074
 20
32.3970785186
 11
160.9671844304
 21
32.3970785186
  0
LINE
  8
0
 62
7
  6
CONTINUOUS
 10
157.6096790869
 20
31.5939741996
 11
157.4362415869
 21
31.5294468267
  0
LINE
  8
0
 62
7
  6
CONTINUOUS
 10
155.1815540869
 20
30.6260635193
 11
155.3549915869
 21
30.6905909007
  0
LINE
  8
0
 62
7
  6
CONTINUOUS
 10
160.615929528
 20
30.6260635193
 11
160.8471793074
 21
30.6905909007
  0
LINE
  8
0
 62
7
  6
CONTINUOUS
 10
160.615929528
 20
30.7873819712
 11
160.5003043074
 21
30.7551182848
  0
LINE
  8
0
 62
7
  6
CONTINUOUS
 10
159.575304528
 20
31.4649194539
 11
159.8065543074
 21
31.4971831403
  0
LINE
  8
0
 62
7
  6
CONTINUOUS
 10
157.6096790869
 20
31.4649194539
 11
157.840929528
 21
31.4971831403
  0
LINE
  8
0
 62
7
  6
CONTINUOUS
 10
154.5456166972
 20
31.1100188581
 11
154.7768668074
 21
31.1422825445
  0
LINE
  8
0
 62
7
  6
CONTINUOUS
 10
157.840929528
 20
31.626237886
 11
157.6096790869
 21
31.5939741996
  0
LINE
  8
0
 62
7
  6
CONTINUOUS
 10
154.4299918074
 20
31.4649194539
 11
154.6612419177
 21
31.4971831403
  0
LINE
  8
0
 62
7
  6
CONTINUOUS
 10
159.8065543074
 20
31.626237886
 11
159.4596793074
 21
31.5939741996
  0
LINE
  8
0
 62
7
  6
CONTINUOUS
 10
154.7768668074
 20
31.2713373354
 11
154.4299918074
 21
31.2390736489
  0
LINE
  8
0
 62
7
  6
CONTINUOUS
 10
150.5565542799
 20
31.626237886
 11
150.2096793212
 21
31.5939741996
  0
LINE
  8
0
 62
7
  6
CONTINUOUS
 10
154.6612419177
 20
31.626237886
 11
154.2565543074
 21
31.5939741996
  0
LINE
  8
0
 62
7
  6
CONTINUOUS
 10
152.0327582009
 20
33.5446195022
 11
151.3770204959
 21
33.5446195022
  0
LINE
  8
0
 62
7
  6
CONTINUOUS
 10
157.4362415869
 20
31.400392081
 11
157.6096790869
 21
31.4649194539
  0
LINE
  8
0
 62
7
  6
CONTINUOUS
 10
159.4596793074
 20
31.4326557675
 11
159.575304528
 21
31.4649194539
  0
LINE
  8
0
 62
7
  6
CONTINUOUS
 10
159.4596793074
 20
31.5939741996
 11
159.228429528
 21
31.5294468267
  0
LINE
  8
0
 62
7
  6
CONTINUOUS
 10
155.1815540869
 20
30.7873819712
 11
154.8924916972
 21
30.7228545871
  0
LINE
  8
0
 62
7
  6
CONTINUOUS
 10
152.4643666972
 20
31.4649194539
 11
152.6956168074
 21
31.4971831403
  0
LINE
  8
0
 62
7
  6
CONTINUOUS
 10
152.6956168074
 20
31.626237886
 11
152.4643666972
 21
31.5939741996
  0
LINE
  8
0
 62
7
  6
CONTINUOUS
 10
150.2674918074
 20
31.4649194539
 11
150.498741835
 21
31.4971831403
  0
LINE
  8
0
 62
7
  6
CONTINUOUS
 10
156.7868565615
 20
35.0200293383
 11
157.4425942664
 21
35.0200293383
  0
LINE
  8
0
 62
7
  6
CONTINUOUS
 10
154.4299918074
 20
31.0777551716
 11
154.5456166972
 21
31.1100188581
  0
LINE
  8
0
 62
7
  6
CONTINUOUS
 10
154.4299918074
 20
31.2390736489
 11
154.1987416972
 21
31.1745462761
  0
LINE
  8
0
 62
7
  6
CONTINUOUS
 10
154.3143669177
 20
31.4326557675
 11
154.4299918074
 21
31.4649194539
  0
LINE
  8
0
 62
7
  6
CONTINUOUS
 10
150.9612418074
 20
30.6260635193
 11
151.1924917523
 21
30.6905909007
  0
LINE
  8
0
 62
7
  6
CONTINUOUS
 10
154.2565543074
 20
31.5939741996
 11
154.1409294177
 21
31.5617105132
  0
LINE
  8
0
 62
7
  6
CONTINUOUS
 10
150.2096793212
 20
31.5939741996
 11
150.0362418212
 21
31.5617105132
  0
LINE
  8
0
 62
7
  6
CONTINUOUS
 10
160.9671844304
 20
36.1675703219
 11
159.5737418074
 21
36.1675703219
  0
LINE
  8
0
 62
7
  6
CONTINUOUS
 10
157.6065286927
 20
36.1675703219
 11
157.1939573441
 21
36.1675703219
  0
LINE
  8
0
 62
7
  6
CONTINUOUS
 10
155.9671844304
 20
36.1675703219
 11
154.5737418074
 21
36.1675703219
  0
LINE
  8
0
 62
7
  6
CONTINUOUS
 10
154.245872955
 20
36.1675703219
 11
152.852430332
 21
36.1675703219
  0
LINE
  8
0
 62
7
  6
CONTINUOUS
 10
150.9671844304
 20
36.1675703219
 11
149.5737418074
 21
36.1675703219
  0
LINE
  8
0
 62
7
  6
CONTINUOUS
 10
150.1518667936
 20
31.4326557675
 11
150.2674918074
 21
31.4649194539
  0
CIRCLE
  8
0
 62
7
  6
CONTINUOUS
 10
160.2704631189
 20
38.5036358957
 40
2.0901639344
  0
ARC
  8
0
 62
7
  6
CONTINUOUS
 10
151.2130860697
 20
34.0364227809
 40
1.6393442623
 50
180.0
 51
270.0
  0
ARC
  8
0
 62
7
  6
CONTINUOUS
 10
157.6065286927
 20
34.5282260596
 40
1.6393442623
 50
0.0
 51
90.0
  0
ARC
  8
0
 62
7
  6
CONTINUOUS
 10
151.6256574183
 20
33.8724883547
 40
1.4754098361
 50
270.0
 51
326.2510114041
  0
ARC
  8
0
 62
7
  6
CONTINUOUS
 10
157.1939573441
 20
34.6921604858
 40
1.4754098361
 50
90.0
 51
146.2510114041
  0
ARC
  8
0
 62
7
  6
CONTINUOUS
 10
152.0327582009
 20
34.3642916334
 40
0.8196721311
 50
270.0
 51
360.0
  0
ARC
  8
0
 62
7
  6
CONTINUOUS
 10
156.7868565615
 20
34.2003572071
 40
0.8196721311
 50
90.0
 51
180.0
  0
ARC
  8
0
 62
7
  6
CONTINUOUS
 10
151.3770204959
 20
33.9544555678
 40
0.4098360656
 50
180.0
 51
270.0
  0
ARC
  8
0
 62
7
  6
CONTINUOUS
 10
157.4425942664
 20
34.6101932727
 40
0.4098360656
 50
0.0
 51
90.0
  0
SOLID
  8
0
 62
7
  6
CONTINUOUS
 10
156.279992028
 20
31.9488752009
 11
156.279992028
 21
32.1101936845
 12
156.5690540869
 22
31.9488752009
 13
156.5690540869
 23
32.1101936845
  0
SOLID
  8
0
 62
7
  6
CONTINUOUS
 10
150.5565542799
 20
31.6262382337
 11
150.9612418074
 21
31.5939740028
 12
150.2096793212
 22
31.5939740028
 13
150.2096793212
 23
31.5939740028
  0
SOLID
  8
0
 62
7
  6
CONTINUOUS
 10
150.0362418212
 20
31.5617111435
 11
150.2096793212
 21
31.5939740028
 12
150.9612418074
 22
31.5939740028
 13
150.9612418074
 23
31.5939740028
  0
SOLID
  8
0
 62
7
  6
CONTINUOUS
 10
150.9612418074
 20
31.5939740028
 11
151.1924917523
 21
31.5294468402
 12
150.0362418212
 22
31.5617111435
 13
150.0362418212
 23
31.5617111435
  0
SOLID
  8
0
 62
7
  6
CONTINUOUS
 10
149.8628043005
 20
31.49718259
 11
150.0362418212
 21
31.5617111435
 12
151.1924917523
 22
31.5294468402
 13
151.1924917523
 23
31.5294468402
  0
SOLID
  8
0
 62
7
  6
CONTINUOUS
 10
149.8628043005
 20
31.49718259
 11
151.1924917523
 21
31.5294468402
 12
150.498741835
 22
31.49718259
 13
150.498741835
 23
31.49718259
  0
SOLID
  8
0
 62
7
  6
CONTINUOUS
 10
150.498741835
 20
31.49718259
 11
151.1924917523
 21
31.5294468402
 12
150.9034292799
 22
31.4649197501
 13
150.9034292799
 23
31.4649197501
  0
SOLID
  8
0
 62
7
  6
CONTINUOUS
 10
151.1924917523
 20
31.5294468402
 11
151.3659292523
 21
31.4326554468
 12
150.9034292799
 22
31.4649197501
 13
150.9034292799
 23
31.4649197501
  0
SOLID
  8
0
 62
7
  6
CONTINUOUS
 10
151.0768668626
 20
31.4003926599
 11
150.9034292799
 21
31.4649197501
 12
151.3659292523
 22
31.4326554468
 13
151.3659292523
 23
31.4326554468
  0
SOLID
  8
0
 62
7
  6
CONTINUOUS
 10
151.0768668626
 20
31.4003926599
 11
151.3659292523
 21
31.4326554468
 12
151.1346793074
 22
31.3036013776
 13
151.1346793074
 23
31.3036013776
  0
SOLID
  8
0
 62
7
  6
CONTINUOUS
 10
151.3659292523
 20
31.4326554468
 11
151.4237418626
 21
31.3036013776
 12
151.1346793074
 22
31.3036013776
 13
151.1346793074
 23
31.3036013776
  0
SOLID
  8
0
 62
7
  6
CONTINUOUS
 10
152.4643666972
 20
31.5939739754
 11
152.6956168074
 21
31.6262382787
 12
152.9268669177
 22
31.6262382787
 13
152.9268669177
 23
31.6262382787
  0
SOLID
  8
0
 62
7
  6
CONTINUOUS
 10
152.9268669177
 20
31.6262382787
 11
153.1003044177
 21
31.5939739754
 12
152.4643666972
 22
31.5939739754
 13
152.4643666972
 23
31.5939739754
  0
SOLID
  8
0
 62
7
  6
CONTINUOUS
 10
152.2909293626
 20
31.5294468852
 11
152.4643666972
 21
31.5939739754
 12
153.1003044177
 22
31.5939739754
 13
153.1003044177
 23
31.5939739754
  0
SOLID
  8
0
 62
7
  6
CONTINUOUS
 10
153.1003044177
 20
31.5939739754
 11
153.2737419177
 21
31.5294468852
 12
152.2909293626
 22
31.5294468852
 13
152.2909293626
 23
31.5294468852
  0
SOLID
  8
0
 62
7
  6
CONTINUOUS
 10
153.2737419177
 20
31.5294468852
 11
152.6956168074
 21
31.4971825369
 12
152.2909293626
 22
31.5294468852
 13
152.2909293626
 23
31.5294468852
  0
SOLID
  8
0
 62
7
  6
CONTINUOUS
 10
152.1753043074
 20
31.4649197951
 11
152.2909293626
 21
31.5294468852
 12
152.6956168074
 22
31.4971825369
 13
152.6956168074
 23
31.4971825369
  0
SOLID
  8
0
 62
7
  6
CONTINUOUS
 10
152.6956168074
 20
31.4971825369
 11
152.4643666972
 21
31.4649197951
 12
152.1753043074
 22
31.4649197951
 13
152.1753043074
 23
31.4649197951
  0
SOLID
  8
0
 62
7
  6
CONTINUOUS
 10
152.6956168074
 20
31.4971825369
 11
153.2737419177
 21
31.5294468852
 12
152.9268669177
 22
31.4649197951
 13
152.9268669177
 23
31.4649197951
  0
SOLID
  8
0
 62
7
  6
CONTINUOUS
 10
153.2737419177
 20
31.5294468852
 11
153.3893668074
 21
31.4649197951
 12
152.9268669177
 22
31.4649197951
 13
152.9268669177
 23
31.4649197951
  0
SOLID
  8
0
 62
7
  6
CONTINUOUS
 10
153.0424918074
 20
31.4326554468
 11
152.9268669177
 21
31.4649197951
 12
153.3893668074
 22
31.4649197951
 13
153.3893668074
 23
31.4649197951
  0
SOLID
  8
0
 62
7
  6
CONTINUOUS
 10
153.3893668074
 20
31.4649197951
 11
153.4471794177
 21
31.4003927049
 12
153.0424918074
 22
31.4326554468
 13
153.0424918074
 23
31.4326554468
  0
SOLID
  8
0
 62
7
  6
CONTINUOUS
 10
153.1581166972
 20
31.3681283566
 11
153.0424918074
 21
31.4326554468
 12
153.4471794177
 22
31.4003927049
 13
153.4471794177
 23
31.4003927049
  0
SOLID
  8
0
 62
7
  6
CONTINUOUS
 10
153.1581166972
 20
31.3681283566
 11
153.4471794177
 21
31.4003927049
 12
153.2159293074
 22
31.2390742213
 13
153.2159293074
 23
31.2390742213
  0
SOLID
  8
0
 62
7
  6
CONTINUOUS
 10
153.4471794177
 20
31.4003927049
 11
153.5049916972
 21
31.2390742213
 12
153.2159293074
 22
31.2390742213
 13
153.2159293074
 23
31.2390742213
  0
SOLID
  8
0
 62
7
  6
CONTINUOUS
 10
152.4643666972
 20
31.4649197951
 11
152.2909293626
 21
31.4003927049
 12
152.1753043074
 22
31.4649197951
 13
152.1753043074
 23
31.4649197951
  0
SOLID
  8
0
 62
7
  6
CONTINUOUS
 10
152.2909293626
 20
31.4003927049
 11
152.1753043074
 21
31.3358640533
 12
152.1753043074
 22
31.4649197951
 13
152.1753043074
 23
31.4649197951
  0
SOLID
  8
0
 62
7
  6
CONTINUOUS
 10
152.1753043074
 20
31.3358640533
 11
151.8862417523
 21
30.5938002869
 12
152.1753043074
 22
31.4649197951
 13
152.1753043074
 23
31.4649197951
  0
SOLID
  8
0
 62
7
  6
CONTINUOUS
 10
152.1753043074
 20
31.4649197951
 11
151.8862417523
 21
30.5938002869
 12
152.1753043074
 22
32.1101937295
 13
152.1753043074
 23
32.1101937295
  0
SOLID
  8
0
 62
7
  6
CONTINUOUS
 10
151.8862417523
 20
30.5938002869
 11
151.8862417523
 21
32.1101937295
 12
152.1753043074
 22
32.1101937295
 13
152.1753043074
 23
32.1101937295
  0
SOLID
  8
0
 62
7
  6
CONTINUOUS
 10
152.1753043074
 20
31.3358640533
 11
152.1753043074
 21
30.5938002869
 12
151.8862417523
 22
30.5938002869
 13
151.8862417523
 23
30.5938002869
  0
SOLID
  8
0
 62
7
  6
CONTINUOUS
 10
153.2159293074
 20
30.5938002869
 11
153.2159293074
 21
31.2390742213
 12
153.5049916972
 22
31.2390742213
 13
153.5049916972
 23
31.2390742213
  0
SOLID
  8
0
 62
7
  6
CONTINUOUS
 10
153.5049916972
 20
31.2390742213
 11
153.5049916972
 21
30.5938002869
 12
153.2159293074
 22
30.5938002869
 13
153.2159293074
 23
30.5938002869
  0
SOLID
  8
0
 62
7
  6
CONTINUOUS
 10
154.2565543074
 20
31.5939738288
 11
154.6612419177
 21
31.6262385959
 12
155.0081169177
 22
31.6262385959
 13
155.0081169177
 23
31.6262385959
  0
SOLID
  8
0
 62
7
  6
CONTINUOUS
 10
155.0081169177
 20
31.6262385959
 11
155.3549915869
 21
31.5939738288
 12
154.2565543074
 22
31.5939738288
 13
154.2565543074
 23
31.5939738288
  0
SOLID
  8
0
 62
7
  6
CONTINUOUS
 10
154.1409294177
 20
31.5617111435
 11
154.2565543074
 21
31.5939738288
 12
155.3549915869
 22
31.5939738288
 13
155.3549915869
 23
31.5939738288
  0
SOLID
  8
0
 62
7
  6
CONTINUOUS
 10
155.3549915869
 20
31.5939738288
 11
155.5284290869
 21
31.5294468402
 12
154.1409294177
 22
31.5617111435
 13
154.1409294177
 23
31.5617111435
  0
SOLID
  8
0
 62
7
  6
CONTINUOUS
 10
154.0253041972
 20
31.4971826249
 11
154.1409294177
 21
31.5617111435
 12
155.5284290869
 22
31.5294468402
 13
155.5284290869
 23
31.5294468402
  0
SOLID
  8
0
 62
7
  6
CONTINUOUS
 10
154.0253041972
 20
31.4971826249
 11
155.5284290869
 21
31.5294468402
 12
154.6612419177
 22
31.4971826249
 13
154.6612419177
 23
31.4971826249
  0
SOLID
  8
0
 62
7
  6
CONTINUOUS
 10
154.6612419177
 20
31.4971826249
 11
155.5284290869
 21
31.5294468402
 12
155.0081169177
 22
31.4971826249
 13
155.0081169177
 23
31.4971826249
  0
SOLID
  8
0
 62
7
  6
CONTINUOUS
 10
155.0081169177
 20
31.4971826249
 11
155.5284290869
 21
31.5294468402
 12
155.239367028
 22
31.4649194065
 13
155.239367028
 23
31.4649194065
  0
SOLID
  8
0
 62
7
  6
CONTINUOUS
 10
155.5284290869
 20
31.5294468402
 11
155.6440543074
 21
31.4649194065
 12
155.239367028
 22
31.4649194065
 13
155.239367028
 23
31.4649194065
  0
SOLID
  8
0
 62
7
  6
CONTINUOUS
 10
153.9674919177
 20
31.4326554138
 11
154.0253041972
 21
31.4971826249
 12
154.6612419177
 22
31.4971826249
 13
154.6612419177
 23
31.4971826249
  0
SOLID
  8
0
 62
7
  6
CONTINUOUS
 10
155.3549915869
 20
31.4326554138
 11
155.239367028
 21
31.4649194065
 12
155.6440543074
 22
31.4649194065
 13
155.6440543074
 23
31.4649194065
  0
SOLID
  8
0
 62
7
  6
CONTINUOUS
 10
155.3549915869
 20
31.4326554138
 11
155.6440543074
 21
31.4649194065
 12
155.412804528
 22
31.3681282026
 13
155.412804528
 23
31.3681282026
  0
SOLID
  8
0
 62
7
  6
CONTINUOUS
 10
155.6440543074
 20
31.4649194065
 11
155.7018665869
 21
31.3681282026
 12
155.412804528
 22
31.3681282026
 13
155.412804528
 23
31.3681282026
  0
SOLID
  8
0
 62
7
  6
CONTINUOUS
 10
155.412804528
 20
31.2713369632
 11
155.412804528
 21
31.3681282026
 12
155.7018665869
 22
31.3681282026
 13
155.7018665869
 23
31.3681282026
  0
SOLID
  8
0
 62
7
  6
CONTINUOUS
 10
155.412804528
 20
31.2713369632
 11
155.7018665869
 21
31.3681282026
 12
155.412804528
 22
31.1422827828
 13
155.412804528
 23
31.1422827828
  0
SOLID
  8
0
 62
7
  6
CONTINUOUS
 10
155.412804528
 20
31.1422827828
 11
155.7018665869
 21
31.3681282026
 12
155.412804528
 22
30.9487004259
 13
155.412804528
 23
30.9487004259
  0
SOLID
  8
0
 62
7
  6
CONTINUOUS
 10
155.7018665869
 20
31.3681282026
 11
155.7018665869
 21
30.8519086025
 12
155.412804528
 22
30.9487004259
 13
155.412804528
 23
30.9487004259
  0
SOLID
  8
0
 62
7
  6
CONTINUOUS
 10
157.6096790869
 20
31.5939736268
 11
157.840929528
 21
31.6262383465
 12
158.0721793074
 22
31.6262383465
 13
158.0721793074
 23
31.6262383465
  0
SOLID
  8
0
 62
7
  6
CONTINUOUS
 10
158.0721793074
 20
31.6262383465
 11
158.2456168074
 21
31.5939736268
 12
157.6096790869
 22
31.5939736268
 13
157.6096790869
 23
31.5939736268
  0
SOLID
  8
0
 62
7
  6
CONTINUOUS
 10
157.4362415869
 20
31.5294472848
 11
157.6096790869
 21
31.5939736268
 12
158.2456168074
 22
31.5939736268
 13
158.2456168074
 23
31.5939736268
  0
SOLID
  8
0
 62
7
  6
CONTINUOUS
 10
158.2456168074
 20
31.5939736268
 11
158.4190543074
 21
31.5294472848
 12
157.4362415869
 22
31.5294472848
 13
157.4362415869
 23
31.5294472848
  0
SOLID
  8
0
 62
7
  6
CONTINUOUS
 10
158.4190543074
 20
31.5294472848
 11
157.840929528
 21
31.4971825369
 12
157.4362415869
 22
31.5294472848
 13
157.4362415869
 23
31.5294472848
  0
SOLID
  8
0
 62
7
  6
CONTINUOUS
 10
157.320617028
 20
31.4649199103
 11
157.4362415869
 21
31.5294472848
 12
157.840929528
 22
31.4971825369
 13
157.840929528
 23
31.4971825369
  0
SOLID
  8
0
 62
7
  6
CONTINUOUS
 10
157.840929528
 20
31.4971825369
 11
157.6096790869
 21
31.4649199103
 12
157.320617028
 22
31.4649199103
 13
157.320617028
 23
31.4649199103
  0
SOLID
  8
0
 62
7
  6
CONTINUOUS
 10
157.840929528
 20
31.4971825369
 11
158.4190543074
 21
31.5294472848
 12
158.0721793074
 22
31.4649199103
 13
158.0721793074
 23
31.4649199103
  0
SOLID
  8
0
 62
7
  6
CONTINUOUS
 10
158.4190543074
 20
31.5294472848
 11
158.534679528
 21
31.4649199103
 12
158.0721793074
 22
31.4649199103
 13
158.0721793074
 23
31.4649199103
  0
SOLID
  8
0
 62
7
  6
CONTINUOUS
 10
158.187804528
 20
31.4326554468
 11
158.0721793074
 21
31.4649199103
 12
158.534679528
 22
31.4649199103
 13
158.534679528
 23
31.4649199103
  0
SOLID
  8
0
 62
7
  6
CONTINUOUS
 10
158.187804528
 20
31.4326554468
 11
158.534679528
 21
31.4649199103
 12
158.3034290869
 22
31.3681288486
 13
158.3034290869
 23
31.3681288486
  0
SOLID
  8
0
 62
7
  6
CONTINUOUS
 10
158.534679528
 20
31.4649199103
 11
158.5924918074
 21
31.3681288486
 12
158.3034290869
 22
31.3681288486
 13
158.3034290869
 23
31.3681288486
  0
SOLID
  8
0
 62
7
  6
CONTINUOUS
 10
158.361242028
 20
31.2068093799
 11
158.3034290869
 21
31.3681288486
 12
158.5924918074
 22
31.3681288486
 13
158.5924918074
 23
31.3681288486
  0
SOLID
  8
0
 62
7
  6
CONTINUOUS
 10
158.5924918074
 20
31.3681288486
 11
158.6503040869
 21
31.2068093799
 12
158.361242028
 22
31.2068093799
 13
158.361242028
 23
31.2068093799
  0
SOLID
  8
0
 62
7
  6
CONTINUOUS
 10
157.6096790869
 20
31.4649199103
 11
157.4362415869
 21
31.4003926599
 12
157.320617028
 22
31.4649199103
 13
157.320617028
 23
31.4649199103
  0
SOLID
  8
0
 62
7
  6
CONTINUOUS
 10
157.4362415869
 20
31.4003926599
 11
157.320617028
 21
31.3358640533
 12
157.320617028
 22
31.4649199103
 13
157.320617028
 23
31.4649199103
  0
SOLID
  8
0
 62
7
  6
CONTINUOUS
 10
157.320617028
 20
31.3358640533
 11
157.0315543074
 21
30.5938003547
 12
157.320617028
 22
31.4649199103
 13
157.320617028
 23
31.4649199103
  0
SOLID
  8
0
 62
7
  6
CONTINUOUS
 10
157.320617028
 20
31.4649199103
 11
157.0315543074
 21
30.5938003547
 12
157.320617028
 22
31.6262383465
 13
157.320617028
 23
31.6262383465
  0
SOLID
  8
0
 62
7
  6
CONTINUOUS
 10
157.0315543074
 20
30.5938003547
 11
157.0315543074
 21
31.6262383465
 12
157.320617028
 22
31.6262383465
 13
157.320617028
 23
31.6262383465
  0
SOLID
  8
0
 62
7
  6
CONTINUOUS
 10
157.320617028
 20
31.3358640533
 11
157.320617028
 21
30.5938003547
 12
157.0315543074
 22
30.5938003547
 13
157.0315543074
 23
30.5938003547
  0
SOLID
  8
0
 62
7
  6
CONTINUOUS
 10
158.361242028
 20
30.5938003547
 11
158.361242028
 21
31.2068093799
 12
158.6503040869
 22
31.2068093799
 13
158.6503040869
 23
31.2068093799
  0
SOLID
  8
0
 62
7
  6
CONTINUOUS
 10
158.6503040869
 20
31.2068093799
 11
158.6503040869
 21
30.5938003547
 12
158.361242028
 22
30.5938003547
 13
158.361242028
 23
30.5938003547
  0
SOLID
  8
0
 62
7
  6
CONTINUOUS
 10
159.4596793074
 20
31.5939739474
 11
159.8065543074
 21
31.6262381969
 12
160.1534293074
 22
31.6262381969
 13
160.1534293074
 23
31.6262381969
  0
SOLID
  8
0
 62
7
  6
CONTINUOUS
 10
160.1534293074
 20
31.6262381969
 11
160.5003043074
 21
31.5939739474
 12
159.4596793074
 22
31.5939739474
 13
159.4596793074
 23
31.5939739474
  0
SOLID
  8
0
 62
7
  6
CONTINUOUS
 10
159.228429528
 20
31.5294468402
 11
159.4596793074
 21
31.5939739474
 12
160.5003043074
 22
31.5939739474
 13
160.5003043074
 23
31.5939739474
  0
SOLID
  8
0
 62
7
  6
CONTINUOUS
 10
159.228429528
 20
31.5294468402
 11
160.5003043074
 21
31.5939739304
 12
160.6737418074
 22
31.5617111435
 13
160.6737418074
 23
31.5617111435
  0
SOLID
  8
0
 62
7
  6
CONTINUOUS
 10
159.228429528
 20
31.5294468402
 11
160.6737418074
 21
31.5617111435
 12
159.8065543074
 22
31.4971825592
 13
159.8065543074
 23
31.4971825592
  0
SOLID
  8
0
 62
7
  6
CONTINUOUS
 10
159.8065543074
 20
31.4971825592
 11
160.6737418074
 21
31.5617111435
 12
160.1534293074
 22
31.4971825592
 13
160.1534293074
 23
31.4971825592
  0
SOLID
  8
0
 62
7
  6
CONTINUOUS
 10
160.6737418074
 20
31.5617111435
 11
160.8471793074
 21
31.4971825592
 12
160.1534293074
 22
31.4971825592
 13
160.1534293074
 23
31.4971825592
  0
SOLID
  8
0
 62
7
  6
CONTINUOUS
 10
160.5003043074
 20
31.4649197501
 11
160.1534293074
 21
31.4971825592
 12
160.8471793074
 22
31.4971825592
 13
160.8471793074
 23
31.4971825592
  0
SOLID
  8
0
 62
7
  6
CONTINUOUS
 10
159.1128043074
 20
31.4326555427
 11
159.228429528
 21
31.5294468402
 12
159.8065543074
 22
31.4971825592
 13
159.8065543074
 23
31.4971825592
  0
SOLID
  8
0
 62
7
  6
CONTINUOUS
 10
160.5003043074
 20
31.4649197501
 11
160.8471793074
 21
31.4971825592
 12
160.615929528
 22
31.4326555427
 13
160.615929528
 23
31.4326555427
  0
SOLID
  8
0
 62
7
  6
CONTINUOUS
 10
160.615929528
 20
31.4326555427
 11
160.8471793074
 21
31.4971825592
 12
160.6737418074
 22
31.3681283005
 13
160.6737418074
 23
31.3681283005
  0
SOLID
  8
0
 62
7
  6
CONTINUOUS
 10
160.8471793074
 20
31.4971825592
 11
160.9628038663
 21
31.3681283005
 12
160.6737418074
 22
31.3681283005
 13
160.6737418074
 23
31.3681283005
  0
SOLID
  8
0
 62
7
  6
CONTINUOUS
 10
150.2674918074
 20
31.4649197501
 11
149.7471793074
 21
31.4326554237
 12
150.498741835
 22
31.4971824493
 13
150.498741835
 23
31.4971824493
  0
SOLID
  8
0
 62
7
  6
CONTINUOUS
 10
149.7471793074
 20
31.4326554237
 11
149.8628043005
 21
31.4971824493
 12
150.498741835
 22
31.4971824493
 13
150.498741835
 23
31.4971824493
  0
SOLID
  8
0
 62
7
  6
CONTINUOUS
 10
150.2674918074
 20
31.4649197501
 11
150.1518667936
 21
31.4326554237
 12
149.7471793074
 22
31.4326554237
 13
149.7471793074
 23
31.4326554237
  0
SOLID
  8
0
 62
7
  6
CONTINUOUS
 10
149.6315543091
 20
31.3036012664
 11
149.7471793074
 21
31.4326554237
 12
150.1518667936
 22
31.4326554237
 13
150.1518667936
 23
31.4326554237
  0
SOLID
  8
0
 62
7
  6
CONTINUOUS
 10
153.9674919177
 20
31.4326554237
 11
154.6612419177
 21
31.4971825369
 12
154.4299918074
 22
31.4649197501
 13
154.4299918074
 23
31.4649197501
  0
SOLID
  8
0
 62
7
  6
CONTINUOUS
 10
154.4299918074
 20
31.4649197501
 11
154.3143669177
 21
31.4326554237
 12
153.9674919177
 22
31.4326554237
 13
153.9674919177
 23
31.4326554237
  0
SOLID
  8
0
 62
7
  6
CONTINUOUS
 10
153.9674919177
 20
31.3681283335
 11
153.9674919177
 21
31.4326554237
 12
154.3143669177
 22
31.4326554237
 13
154.3143669177
 23
31.4326554237
  0
SOLID
  8
0
 62
7
  6
CONTINUOUS
 10
154.3143669177
 20
31.4326554237
 11
154.2565543074
 21
31.3681283335
 12
153.9674919177
 22
31.3681283335
 13
153.9674919177
 23
31.3681283335
  0
SOLID
  8
0
 62
7
  6
CONTINUOUS
 10
159.1128043074
 20
31.4326555528
 11
159.8065543074
 21
31.4971825369
 12
159.575304528
 22
31.4649197501
 13
159.575304528
 23
31.4649197501
  0
SOLID
  8
0
 62
7
  6
CONTINUOUS
 10
159.575304528
 20
31.4649197501
 11
159.4596793074
 21
31.4326555528
 12
159.1128043074
 22
31.4326555528
 13
159.1128043074
 23
31.4326555528
  0
SOLID
  8
0
 62
7
  6
CONTINUOUS
 10
159.1128043074
 20
31.3681284626
 11
159.1128043074
 21
31.4326555528
 12
159.4596793074
 22
31.4326555528
 13
159.4596793074
 23
31.4326555528
  0
SOLID
  8
0
 62
7
  6
CONTINUOUS
 10
159.4596793074
 20
31.4326555528
 11
159.401867028
 21
31.3681284626
 12
159.1128043074
 22
31.3681284626
 13
159.1128043074
 23
31.3681284626
  0
SOLID
  8
0
 62
7
  6
CONTINUOUS
 10
159.228429528
 20
31.2390741763
 11
159.1128043074
 21
31.3681284626
 12
159.401867028
 22
31.3681284626
 13
159.401867028
 23
31.3681284626
  0
SOLID
  8
0
 62
7
  6
CONTINUOUS
 10
149.6315543091
 20
31.3036012664
 11
150.1518667936
 21
31.4326554468
 12
149.9784292936
 22
31.3358640533
 13
149.9784292936
 23
31.3358640533
  0
SOLID
  8
0
 62
7
  6
CONTINUOUS
 10
149.9784292936
 20
31.3358640533
 11
149.9206168074
 21
31.2713369632
 12
149.6315543091
 22
31.3036012664
 13
149.6315543091
 23
31.3036012664
  0
SOLID
  8
0
 62
7
  6
CONTINUOUS
 10
149.5737418074
 20
31.1100184796
 11
149.6315543091
 21
31.3036012664
 12
149.9206168074
 22
31.2713369632
 13
149.9206168074
 23
31.2713369632
  0
SOLID
  8
0
 62
7
  6
CONTINUOUS
 10
154.4299918074
 20
31.2390741763
 11
154.7768668074
 21
31.271336924
 12
155.412804528
 22
31.271336924
 13
155.412804528
 23
31.271336924
  0
SOLID
  8
0
 62
7
  6
CONTINUOUS
 10
154.4299918074
 20
31.2390741763
 11
155.412804528
 21
31.271336924
 12
154.1987416972
 22
31.1745462761
 13
154.1987416972
 23
31.1745462761
  0
SOLID
  8
0
 62
7
  6
CONTINUOUS
 10
154.1987416972
 20
31.1745462761
 11
155.412804528
 21
31.271336924
 12
154.7768668074
 22
31.1422827436
 13
154.7768668074
 23
31.1422827436
  0
SOLID
  8
0
 62
7
  6
CONTINUOUS
 10
155.412804528
 20
31.271336924
 11
155.412804528
 21
31.1422827436
 12
154.7768668074
 22
31.1422827436
 13
154.7768668074
 23
31.1422827436
  0
SOLID
  8
0
 62
7
  6
CONTINUOUS
 10
159.228429528
 20
31.2390745501
 11
159.401867028
 21
31.3681283566
 12
159.4596793074
 22
31.3036012664
 13
159.4596793074
 23
31.3036012664
  0
SOLID
  8
0
 62
7
  6
CONTINUOUS
 10
159.4596793074
 20
31.3036012664
 11
159.6331168074
 21
31.2390745501
 12
159.228429528
 22
31.2390745501
 13
159.228429528
 23
31.2390745501
  0
SOLID
  8
0
 62
7
  6
CONTINUOUS
 10
159.4596793074
 20
31.1422827828
 11
159.228429528
 21
31.2390745501
 12
159.6331168074
 22
31.2390745501
 13
159.6331168074
 23
31.2390745501
  0
SOLID
  8
0
 62
7
  6
CONTINUOUS
 10
159.6331168074
 20
31.2390745501
 11
160.615929528
 21
31.0777556927
 12
159.4596793074
 22
31.1422827828
 13
159.4596793074
 23
31.1422827828
  0
SOLID
  8
0
 62
7
  6
CONTINUOUS
 10
160.442492028
 20
30.9809646623
 11
159.4596793074
 21
31.1422827828
 12
160.615929528
 22
31.0777556927
 13
160.615929528
 23
31.0777556927
  0
SOLID
  8
0
 62
7
  6
CONTINUOUS
 10
160.615929528
 20
31.0777556927
 11
160.8471793074
 21
30.9809646623
 12
160.442492028
 22
30.9809646623
 13
160.442492028
 23
30.9809646623
  0
SOLID
  8
0
 62
7
  6
CONTINUOUS
 10
160.615929528
 20
30.9164372091
 11
160.442492028
 21
30.9809646623
 12
160.8471793074
 22
30.9809646623
 13
160.8471793074
 23
30.9809646623
  0
SOLID
  8
0
 62
7
  6
CONTINUOUS
 10
160.615929528
 20
30.9164372091
 11
160.8471793074
 21
30.9809646623
 12
160.6737418074
 22
30.8519089441
 13
160.6737418074
 23
30.8519089441
  0
SOLID
  8
0
 62
7
  6
CONTINUOUS
 10
160.8471793074
 20
30.9809646623
 11
160.9628038663
 21
30.8519089441
 12
160.6737418074
 22
30.8519089441
 13
160.6737418074
 23
30.8519089441
  0
SOLID
  8
0
 62
7
  6
CONTINUOUS
 10
160.615929528
 20
30.7873818593
 11
160.6737418074
 21
30.8519089441
 12
160.9628038663
 22
30.8519089441
 13
160.9628038663
 23
30.8519089441
  0
SOLID
  8
0
 62
7
  6
CONTINUOUS
 10
160.9628038663
 20
30.8519089441
 11
160.9628038663
 21
30.7873818593
 12
160.615929528
 22
30.7873818593
 13
160.615929528
 23
30.7873818593
  0
SOLID
  8
0
 62
7
  6
CONTINUOUS
 10
160.5003043074
 20
30.7551187255
 11
160.615929528
 21
30.7873818593
 12
160.9628038663
 22
30.7873818593
 13
160.9628038663
 23
30.7873818593
  0
SOLID
  8
0
 62
7
  6
CONTINUOUS
 10
160.5003043074
 20
30.7551187255
 11
160.9628038663
 21
30.7873818593
 12
160.269054528
 22
30.7228547745
 13
160.269054528
 23
30.7228547745
  0
SOLID
  8
0
 62
7
  6
CONTINUOUS
 10
160.9628038663
 20
30.7873818593
 11
160.8471793074
 21
30.6905916353
 12
160.269054528
 22
30.7228547745
 13
160.269054528
 23
30.7228547745
  0
SOLID
  8
0
 62
7
  6
CONTINUOUS
 10
160.8471793074
 20
30.6905916353
 11
159.401867028
 21
30.658327332
 12
160.269054528
 22
30.7228547745
 13
160.269054528
 23
30.7228547745
  0
SOLID
  8
0
 62
7
  6
CONTINUOUS
 10
160.269054528
 20
30.7228547745
 11
159.401867028
 21
30.658327332
 12
159.922179528
 22
30.7228547745
 13
159.922179528
 23
30.7228547745
  0
SOLID
  8
0
 62
7
  6
CONTINUOUS
 10
159.401867028
 20
30.658327332
 11
159.228429528
 21
30.7228547745
 12
159.922179528
 22
30.7228547745
 13
159.922179528
 23
30.7228547745
  0
SOLID
  8
0
 62
7
  6
CONTINUOUS
 10
159.401867028
 20
30.658327332
 11
160.8471793074
 21
30.6905916353
 12
159.575304528
 22
30.6260629858
 13
159.575304528
 23
30.6260629858
  0
SOLID
  8
0
 62
7
  6
CONTINUOUS
 10
160.8471793074
 20
30.6905916353
 11
160.615929528
 21
30.6260629858
 12
159.575304528
 22
30.6260629858
 13
159.575304528
 23
30.6260629858
  0
SOLID
  8
0
 62
7
  6
CONTINUOUS
 10
159.922179528
 20
30.5938006049
 11
159.575304528
 21
30.6260629858
 12
160.615929528
 22
30.6260629858
 13
160.615929528
 23
30.6260629858
  0
SOLID
  8
0
 62
7
  6
CONTINUOUS
 10
160.615929528
 20
30.6260629858
 11
160.269054528
 21
30.5938006049
 12
159.922179528
 22
30.5938006049
 13
159.922179528
 23
30.5938006049
  0
SOLID
  8
0
 62
7
  6
CONTINUOUS
 10
149.5737418074
 20
31.1100184796
 11
149.9206168074
 21
31.2713369632
 12
149.8628043005
 22
31.1422827828
 13
149.8628043005
 23
31.1422827828
  0
SOLID
  8
0
 62
7
  6
CONTINUOUS
 10
149.8628043005
 20
31.1422827828
 11
149.8628043005
 21
31.0454914852
 12
149.5737418074
 22
31.1100184796
 13
149.5737418074
 23
31.1100184796
  0
SOLID
  8
0
 62
7
  6
CONTINUOUS
 10
149.6315543091
 20
30.9164372091
 11
149.5737418074
 21
31.1100184796
 12
149.8628043005
 22
31.0454914852
 13
149.8628043005
 23
31.0454914852
  0
SOLID
  8
0
 62
7
  6
CONTINUOUS
 10
149.8628043005
 20
31.0454914852
 11
149.9784292936
 21
30.8841729058
 12
149.6315543091
 22
30.9164372091
 13
149.6315543091
 23
30.9164372091
  0
SOLID
  8
0
 62
7
  6
CONTINUOUS
 10
149.7471793074
 20
30.7873813202
 11
149.6315543091
 21
30.9164372091
 12
149.9784292936
 22
30.8841729058
 13
149.9784292936
 23
30.8841729058
  0
SOLID
  8
0
 62
7
  6
CONTINUOUS
 10
149.9784292936
 20
30.8841729058
 11
150.1518667936
 21
30.7873813202
 12
149.7471793074
 22
30.7873813202
 13
149.7471793074
 23
30.7873813202
  0
SOLID
  8
0
 62
7
  6
CONTINUOUS
 10
149.8628043005
 20
30.7228547004
 11
149.7471793074
 21
30.7873813202
 12
150.1518667936
 22
30.7873813202
 13
150.1518667936
 23
30.7873813202
  0
SOLID
  8
0
 62
7
  6
CONTINUOUS
 10
150.1518667936
 20
30.7873813202
 11
150.498741835
 21
30.7228547004
 12
149.8628043005
 22
30.7228547004
 13
149.8628043005
 23
30.7228547004
  0
SOLID
  8
0
 62
7
  6
CONTINUOUS
 10
150.0362418212
 20
30.658327332
 11
149.8628043005
 21
30.7228547004
 12
150.498741835
 22
30.7228547004
 13
150.498741835
 23
30.7228547004
  0
SOLID
  8
0
 62
7
  6
CONTINUOUS
 10
154.0831168074
 20
31.1100184386
 11
154.1987416972
 21
31.1745462761
 12
154.7768668074
 22
31.1422827828
 13
154.7768668074
 23
31.1422827828
  0
SOLID
  8
0
 62
7
  6
CONTINUOUS
 10
154.7768668074
 20
31.1422827828
 11
154.5456166972
 21
31.1100184386
 12
154.0831168074
 22
31.1100184386
 13
154.0831168074
 23
31.1100184386
  0
SOLID
  8
0
 62
7
  6
CONTINUOUS
 10
153.9674919177
 20
30.9809642992
 11
154.0831168074
 21
31.1100184386
 12
154.5456166972
 22
31.1100184386
 13
154.5456166972
 23
31.1100184386
  0
SOLID
  8
0
 62
7
  6
CONTINUOUS
 10
154.3143669177
 20
31.0132277988
 11
153.9674919177
 21
30.9809642992
 12
154.4299918074
 22
31.0777556927
 13
154.4299918074
 23
31.0777556927
  0
SOLID
  8
0
 62
7
  6
CONTINUOUS
 10
153.9674919177
 20
30.9809642992
 11
154.5456166972
 21
31.1100184796
 12
154.4299918074
 22
31.0777556927
 13
154.4299918074
 23
31.0777556927
  0
SOLID
  8
0
 62
7
  6
CONTINUOUS
 10
154.3143669177
 20
31.0132277988
 11
154.2565543074
 21
30.9164372091
 12
153.9674919177
 22
30.9809642992
 13
153.9674919177
 23
30.9809642992
  0
SOLID
  8
0
 62
7
  6
CONTINUOUS
 10
153.9674919177
 20
30.8841729058
 11
153.9674919177
 21
30.9809642992
 12
154.2565543074
 22
30.9164372091
 13
154.2565543074
 23
30.9164372091
  0
SOLID
  8
0
 62
7
  6
CONTINUOUS
 10
154.2565543074
 20
30.9164372091
 11
154.2565543074
 21
30.8519086025
 12
153.9674919177
 22
30.8841729058
 13
153.9674919177
 23
30.8841729058
  0
SOLID
  8
0
 62
7
  6
CONTINUOUS
 10
154.0253041972
 20
30.7551187255
 11
153.9674919177
 21
30.8841729058
 12
154.2565543074
 22
30.8519086025
 13
154.2565543074
 23
30.8519086025
  0
SOLID
  8
0
 62
7
  6
CONTINUOUS
 10
155.412804528
 20
30.9487004259
 11
155.7018665869
 21
30.8519086025
 12
155.3549915869
 22
30.8841729058
 13
155.3549915869
 23
30.8841729058
  0
SOLID
  8
0
 62
7
  6
CONTINUOUS
 10
155.1815540869
 20
30.7873815123
 11
155.3549915869
 21
30.8841729058
 12
155.7018665869
 22
30.8519086025
 13
155.7018665869
 23
30.8519086025
  0
SOLID
  8
0
 62
7
  6
CONTINUOUS
 10
155.1815540869
 20
30.7873815123
 11
155.7018665869
 21
30.8519086025
 12
155.412804528
 22
30.7551187255
 13
155.412804528
 23
30.7551187255
  0
SOLID
  8
0
 62
7
  6
CONTINUOUS
 10
155.7018665869
 20
30.8519086025
 11
155.759679528
 21
30.6905916353
 12
155.412804528
 22
30.7551187255
 13
155.412804528
 23
30.7551187255
  0
SOLID
  8
0
 62
7
  6
CONTINUOUS
 10
155.4706168074
 20
30.658327332
 11
155.412804528
 21
30.7551187255
 12
155.759679528
 22
30.6905916353
 13
155.759679528
 23
30.6905916353
  0
SOLID
  8
0
 62
7
  6
CONTINUOUS
 10
155.4706168074
 20
30.658327332
 11
155.759679528
 21
30.6905916353
 12
155.5284290869
 22
30.5938002079
 13
155.5284290869
 23
30.5938002079
  0
SOLID
  8
0
 62
7
  6
CONTINUOUS
 10
155.759679528
 20
30.6905916353
 11
155.8174918074
 21
30.5938002079
 12
155.5284290869
 22
30.5938002079
 13
155.5284290869
 23
30.5938002079
  0
SOLID
  8
0
 62
7
  6
CONTINUOUS
 10
151.0768668626
 20
30.8196456577
 11
151.1346793074
 21
30.9164373395
 12
151.4237418626
 22
30.9164373395
 13
151.4237418626
 23
30.9164373395
  0
SOLID
  8
0
 62
7
  6
CONTINUOUS
 10
151.4237418626
 20
30.9164373395
 11
151.3659292523
 21
30.7873815123
 12
151.0768668626
 22
30.8196456577
 13
151.0768668626
 23
30.8196456577
  0
SOLID
  8
0
 62
7
  6
CONTINUOUS
 10
150.9034292799
 20
30.7551187255
 11
151.0768668626
 21
30.8196456577
 12
151.3659292523
 22
30.7873815123
 13
151.3659292523
 23
30.7873815123
  0
SOLID
  8
0
 62
7
  6
CONTINUOUS
 10
150.9034292799
 20
30.7551187255
 11
151.3659292523
 21
30.7873815123
 12
150.498741835
 22
30.7228544222
 13
150.498741835
 23
30.7228544222
  0
SOLID
  8
0
 62
7
  6
CONTINUOUS
 10
151.3659292523
 20
30.7873815123
 11
151.1924917523
 21
30.6905916353
 12
150.498741835
 22
30.7228544222
 13
150.498741835
 23
30.7228544222
  0
SOLID
  8
0
 62
7
  6
CONTINUOUS
 10
150.0362418212
 20
30.658327332
 11
150.498741835
 21
30.7228544222
 12
151.1924917523
 22
30.6905916353
 13
151.1924917523
 23
30.6905916353
  0
SOLID
  8
0
 62
7
  6
CONTINUOUS
 10
150.0362418212
 20
30.658327332
 11
151.1924917523
 21
30.6905916353
 12
150.2096793212
 22
30.6260631011
 13
150.2096793212
 23
30.6260631011
  0
SOLID
  8
0
 62
7
  6
CONTINUOUS
 10
151.1924917523
 20
30.6905916353
 11
150.9612418074
 21
30.6260631011
 12
150.2096793212
 22
30.6260631011
 13
150.2096793212
 23
30.6260631011
  0
SOLID
  8
0
 62
7
  6
CONTINUOUS
 10
150.5565542799
 20
30.5938002419
 11
150.2096793212
 21
30.6260631011
 12
150.9612418074
 22
30.6260631011
 13
150.9612418074
 23
30.6260631011
  0
SOLID
  8
0
 62
7
  6
CONTINUOUS
 10
154.0253041972
 20
30.7551187255
 11
154.2565543074
 21
30.8519086025
 12
154.3143669177
 22
30.7873815123
 13
154.3143669177
 23
30.7873815123
  0
SOLID
  8
0
 62
7
  6
CONTINUOUS
 10
154.3143669177
 20
30.7873815123
 11
154.5456166972
 21
30.7228544222
 12
154.0253041972
 22
30.7551187255
 13
154.0253041972
 23
30.7551187255
  0
SOLID
  8
0
 62
7
  6
CONTINUOUS
 10
154.1987416972
 20
30.658327332
 11
154.0253041972
 21
30.7551187255
 12
154.5456166972
 22
30.7228544222
 13
154.5456166972
 23
30.7228544222
  0
SOLID
  8
0
 62
7
  6
CONTINUOUS
 10
154.8924916972
 20
30.7228544637
 11
155.1815540869
 21
30.7873815123
 12
155.412804528
 22
30.7551187255
 13
155.412804528
 23
30.7551187255
  0
SOLID
  8
0
 62
7
  6
CONTINUOUS
 10
155.412804528
 20
30.7551187255
 11
155.3549915869
 21
30.6905916353
 12
154.8924916972
 22
30.7228544637
 13
154.8924916972
 23
30.7228544637
  0
SOLID
  8
0
 62
7
  6
CONTINUOUS
 10
155.3549915869
 20
30.6905916353
 11
154.1987416972
 21
30.658327332
 12
154.8924916972
 22
30.7228544637
 13
154.8924916972
 23
30.7228544637
  0
SOLID
  8
0
 62
7
  6
CONTINUOUS
 10
154.1987416972
 20
30.658327332
 11
154.5456166972
 21
30.7228544637
 12
154.8924916972
 22
30.7228544637
 13
154.8924916972
 23
30.7228544637
  0
SOLID
  8
0
 62
7
  6
CONTINUOUS
 10
154.1987416972
 20
30.658327332
 11
155.3549915869
 21
30.6905916353
 12
154.3143669177
 22
30.6260630541
 13
154.3143669177
 23
30.6260630541
  0
SOLID
  8
0
 62
7
  6
CONTINUOUS
 10
155.3549915869
 20
30.6905916353
 11
155.1815540869
 21
30.6260630541
 12
154.3143669177
 22
30.6260630541
 13
154.3143669177
 23
30.6260630541
  0
SOLID
  8
0
 62
7
  6
CONTINUOUS
 10
154.5456166972
 20
30.5938002188
 11
154.3143669177
 21
30.6260630541
 12
155.1815540869
 22
30.6260630541
 13
155.1815540869
 23
30.6260630541
  0
SOLID
  8
0
 62
7
  6
CONTINUOUS
 10
155.1815540869
 20
30.6260630541
 11
154.8924916972
 21
30.5938002188
 12
154.5456166972
 22
30.5938002188
 13
154.5456166972
 23
30.5938002188
  0
SOLID
  8
0
 62
7
  6
CONTINUOUS
 10
159.575304528
 20
30.7551187255
 11
159.228429528
 21
30.7228544637
 12
159.4596793074
 22
30.7873815123
 13
159.4596793074
 23
30.7873815123
  0
SOLID
  8
0
 62
7
  6
CONTINUOUS
 10
159.4596793074
 20
30.7873815123
 11
159.228429528
 21
30.7228544637
 12
159.401867028
 22
30.851908644
 13
159.401867028
 23
30.851908644
  0
SOLID
  8
0
 62
7
  6
CONTINUOUS
 10
159.228429528
 20
30.7228544637
 11
159.1128043074
 21
30.851908644
 12
159.401867028
 22
30.851908644
 13
159.401867028
 23
30.851908644
  0
SOLID
  8
0
 62
7
  6
CONTINUOUS
 10
159.575304528
 20
30.7551187255
 11
159.922179528
 21
30.7228544637
 12
159.228429528
 22
30.7228544637
 13
159.228429528
 23
30.7228544637
  0
SOLID
  8
0
 62
7
  6
CONTINUOUS
 10
156.279992028
 20
30.5938002419
 11
156.279992028
 21
31.6262382337
 12
156.5690540869
 22
30.5938002419
 13
156.5690540869
 23
31.6262382337
  0
ENDBLK
  8
0
  6
BYBLOCK
 62
0
  0
BLOCK
  8
0
 62
2
  6
CONTINUOUS
  2
SYMBOL_3_BL0
 70
64
 10
32.1213064866
 20
19.8534310916
  0
TEXT
  8
0
 62
7
  6
CONTINUOUS
 10
18.3860103289
 20
19.2268451992
  7
TEXTSTYLE_3
 40
2.7338706658
  1
Ammeraal Beltech
 41
1.0
 51
15.0
 72
0
  0
TEXT
  8
0
 62
7
  6
CONTINUOUS
 10
29.1868111546
 20
16.9533085264
  7
TEXTSTYLE_4
 40
1.0935482663
  1
Innovation & Service in Belting
 41
1.0
 72
0
  0
LINE
  8
0
 62
7
  6
CONTINUOUS
 10
12.3614696776
 20
19.9934385078
 11
13.1396216709
 21
23.6543558055
  0
LINE
  8
0
 62
7
  6
CONTINUOUS
 10
23.2347899607
 20
27.3177497171
 11
13.6274394139
 21
24.1961322958
  0
LINE
  8
0
 62
7
  6
CONTINUOUS
 10
12.5867530099
 20
19.3000877048
 11
20.093828271
 21
12.5406867788
  0
LINE
  8
0
 62
7
  6
CONTINUOUS
 10
12.8492874206
 20
20.5352149982
 11
23.6575567857
 21
24.0470345971
  0
LINE
  8
0
 62
7
  6
CONTINUOUS
 10
23.6533516486
 20
13.6972460334
 11
15.2078919798
 21
21.3015720751
  0
LINE
  8
0
 62
7
  6
CONTINUOUS
 10
24.1731743684
 20
26.4728246013
 11
23.1966148312
 21
21.8784731989
  0
LINE
  8
0
 62
7
  6
CONTINUOUS
 10
22.4968128835
 20
18.5861638851
 11
21.810364672
 21
15.3566789607
  0
LINE
  8
0
 62
7
  6
CONTINUOUS
 10
24.8542704669
 20
14.087448211
 11
25.8105020025
 21
18.5861638851
  0
LINE
  8
0
 62
7
  6
CONTINUOUS
 10
26.5103039502
 20
21.8784731989
 11
26.9545457526
 21
23.9684665583
  0
LINE
  8
0
 62
7
  6
CONTINUOUS
 10
20.8069293463
 20
12.3891124661
 11
24.3664527239
 21
13.5456717207
  0
LINE
  8
0
 62
7
  6
CONTINUOUS
 10
23.9478910361
 20
27.1661754044
 11
26.7292624203
 21
24.6618173613
  0
ARC
  8
0
 62
7
  6
CONTINUOUS
 10
13.8527227462
 20
23.5027814928
 40
0.7290321776
 50
108.0
 51
168.0
  0
ARC
  8
0
 62
7
  6
CONTINUOUS
 10
23.4600732931
 20
26.624398914
 40
0.7290321776
 50
348.0
 51
108.0
  0
ARC
  8
0
 62
7
  6
CONTINUOUS
 10
26.2414446773
 20
24.120040871
 40
0.7290321776
 50
348.0
 51
48.0
  0
ARC
  8
0
 62
7
  6
CONTINUOUS
 10
20.581646014
 20
13.0824632691
 40
0.7290321776
 50
228.0
 51
288.0
  0
ARC
  8
0
 62
7
  6
CONTINUOUS
 10
13.0745707529
 20
19.8418641951
 40
0.7290321776
 50
108.0
 51
228.0
  0
ARC
  8
0
 62
7
  6
CONTINUOUS
 10
24.1411693916
 20
14.2390225237
 40
0.7290321776
 50
228.0
 51
348.0
  0
ENDBLK
  8
0
  6
BYBLOCK
 62
0
  0
ENDSEC
  0
SECTION
  2
ENTITIES
  0
TEXT
  8
0
 62
5
  6
CONTINUOUS
 10
96.0
 20
25.636
  7
TEXTSTYLE_2
 40
2.8
  1
Scale :
 41
0.6
 51
0.000019
 72
0
  0
TEXT
  8
0
 62
5
  6
CONTINUOUS
 10
116.0
 20
25.636
  7
TEXTSTYLE_2
 40
2.8
  1
Belt type:
 41
0.6
 51
0.000019
 72
0
  0
INSERT
  8
0
 62
2
  6
CONTINUOUS
  2
SYMBOL_3_BL0
 10
32.1213064866
 20
19.8534310916
  0
INSERT
  8
0
 62
2
  6
CONTINUOUS
  2
SYMBOL_8_BL1
 10
173.5956734183
 20
35.5937998301
  0
LINE
  8
0
 62
2
  6
CONTINUOUS
 10
10.0
 20
30.0
 11
200.0
 21
30.0
  0
LINE
  8
0
 62
2
  6
CONTINUOUS
 10
10.0
 20
30.0
 11
10.0
 21
10.0
  0
LINE
  8
0
 62
2
  6
CONTINUOUS
 10
10.0
 20
10.0
 11
200.0
 21
10.0
  0
LINE
  8
0
 62
2
  6
CONTINUOUS
 10
95.0
 20
30.0
 11
95.0
 21
10.0
  0
LINE
  8
0
 62
2
  6
CONTINUOUS
 10
115.0
 20
30.0
 11
115.0
 21
10.0
  0
LINE
  8
0
 62
2
  6
CONTINUOUS
 10
200.0
 20
30.0
 11
200.0
 21
10.0
  0
TEXT
  8
0
 62
5
  6
CONTINUOUS
 10
13.0
 20
23.303
  7
TEXTSTYLE_5
 40
1.52
  1
                                                                     Ammeraal Beltech Modular A/S
 41
1.0
 72
0
  0
TEXT
  8
0
 62
5
  6
CONTINUOUS
 10
13.0
 20
20.595
  7
TEXTSTYLE_5
 40
1.5
  1
                                                                      Hjulmagervej 21,  7100 Vejle,  DK
 41
1.0
 72
0
  0
TEXT
  8
0
 62
5
  6
CONTINUOUS
 10
13.0
 20
17.881
  7
TEXTSTYLE_5
 40
1.495
  1
                                                                      tel: 
 41
1.0
 72
0
  0
TEXT
  8
0
 62
5
  6
CONTINUOUS
 10
57.9869465649
 20
17.881
  7
TEXTSTYLE_5
 40
1.51
  1
+45 75723100     fax: +45 75723348
 41
1.0
 72
0
  0
TEXT
  8
0
 62
5
  6
CONTINUOUS
 10
13.0
 20
15.177
  7
TEXTSTYLE_5
 40
1.5
  1
                                                                      admin@unichains.dk  www.unichains.com
 41
1.0
 72
0
  0
TEXT
  8
0
 62
5
  6
CONTINUOUS
 10
99.75
 20
13.75
  7
TEXTSTYLE_6
 40
5.0
  1
1:1
 41
0.7
 72
1
 11
105.0
 21
13.75
  0
TEXT
  8
0
 62
5
  6
CONTINUOUS
 10
118.0
 20
13.75
  7
TEXTSTYLE_7
 40
7.5
  1
Sprocket Z11
 41
0.6027777778
 72
0
  0
LINE
  8
0
 62
7
  6
CONTINUOUS
 10
210.0
 20
0.0
 11
0.0
 21
0.0
  0
LINE
  8
0
 62
7
  6
CONTINUOUS
 10
10.0
 20
10.0
 11
200.0
 21
10.0
  0
LINE
  8
0
 62
7
  6
CONTINUOUS
 10
10.0
 20
30.0
 11
200.0
 21
30.0
  0
LINE
  8
0
 62
7
  6
CONTINUOUS
 10
0.0
 20
0.0
 11
0.0
 21
297.0
  0
LINE
  8
0
 62
7
  6
CONTINUOUS
 10
10.0
 20
10.0
 11
10.0
 21
287.0
  0
LINE
  8
0
 62
7
  6
CONTINUOUS
 10
200.0
 20
287.0
 11
200.0
 21
10.0
  0
LINE
  8
0
 62
7
  6
CONTINUOUS
 10
210.0
 20
0.0
 11
210.0
 21
297.0
  0
LINE
  8
0
 62
7
  6
CONTINUOUS
 10
10.0
 20
287.0
 11
200.0
 21
287.0
  0
LINE
  8
0
 62
7
  6
CONTINUOUS
 10
0.0
 20
297.0
 11
210.0
 21
297.0
  0
LINE
  8
0
 62
7
  6
CONTINUOUS
 10
31.2179269554
 20
205.2211371124
 11
31.290938459
 21
202.5322003984
  0
LINE
  8
0
 62
7
  6
CONTINUOUS
 10
41.9432640192
 20
242.8260226207
 11
40.5509362614
 21
240.5244721115
  0
LINE
  8
0
 62
7
  6
CONTINUOUS
 10
71.2967277565
 20
268.6627104087
 11
68.8811149626
 21
267.479272129
  0
LINE
  8
0
 62
7
  6
CONTINUOUS
 10
111.0255729107
 20
137.1451601748
 11
113.6767495058
 21
137.6001041201
  0
LINE
  8
0
 62
7
  6
CONTINUOUS
 10
72.2770763054
 20
142.4095955726
 11
74.7533492487
 21
141.3589844922
  0
LINE
  8
0
 62
7
  6
CONTINUOUS
 10
42.5259353012
 20
167.7873393292
 11
44.0411054297
 21
165.5647348179
  0
LINE
  8
0
 62
7
  6
CONTINUOUS
 10
50.5584944013
 20
229.3899714475
 11
49.5709996781
 21
227.2276596209
  0
LINE
  8
0
 62
7
  6
CONTINUOUS
 10
44.3177663156
 20
215.724683089
 11
43.2056486712
 21
213.2894851297
  0
LINE
  8
0
 62
7
  6
CONTINUOUS
 10
49.4762748509
 20
225.8166255582
 11
45.3221247209
 21
216.7203056046
  0
LINE
  8
0
 62
7
  6
CONTINUOUS
 10
71.2802430619
 20
252.7018396955
 11
69.2804796492
 21
251.4166697866
  0
LINE
  8
0
 62
7
  6
CONTINUOUS
 10
58.6421958434
 20
244.5798599206
 11
56.3900555308
 21
243.1324972266
  0
LINE
  8
0
 62
7
  6
CONTINUOUS
 10
68.4379253992
 20
250.2808419045
 11
60.0253900709
 21
244.87443373
  0
LINE
  8
0
 62
7
  6
CONTINUOUS
 10
101.1158348351
 20
154.7600080811
 11
112.6158348351
 21
154.7600080811
  0
LINE
  8
0
 62
7
  6
CONTINUOUS
 10
84.3502927324
 20
152.8492847813
 11
86.6311298099
 21
152.1795705893
  0
LINE
  8
0
 62
7
  6
CONTINUOUS
 10
98.7646363674
 20
148.6168516118
 11
101.3333183654
 21
147.8626185252
  0
LINE
  8
0
 62
7
  6
CONTINUOUS
 10
88.0412830132
 20
152.2866208078
 11
97.6362127494
 21
149.4692952394
  0
LINE
  8
0
 62
7
  6
CONTINUOUS
 10
88.6158348351
 20
155.7600080811
 11
101.1158348351
 21
152.0573393941
  0
LINE
  8
0
 62
7
  6
CONTINUOUS
 10
58.3266933808
 20
170.0424911593
 11
59.8833774786
 21
168.2459819424
  0
LINE
  8
0
 62
7
  6
CONTINUOUS
 10
68.1645847586
 20
158.688959277
 11
69.9177283717
 21
156.6657236932
  0
LINE
  8
0
 62
7
  6
CONTINUOUS
 10
61.1275528836
 20
167.5736481011
 11
67.6761602231
 21
160.0161523576
  0
LINE
  8
0
 62
7
  6
CONTINUOUS
 10
45.7295976402
 20
198.575756792
 11
46.0678978753
 21
196.2228269742
  0
LINE
  8
0
 62
7
  6
CONTINUOUS
 10
47.8675757595
 20
183.7057923494
 11
48.2485702777
 21
181.0559172707
  0
LINE
  8
0
 62
7
  6
CONTINUOUS
 10
46.7510732628
 20
194.9845748762
 11
48.1742216455
 21
185.0863604573
  0
LINE
  8
0
 62
7
  6
CONTINUOUS
 10
56.1985392421
 20
230.8269953792
 11
50.4485392421
 21
220.8677032357
  0
LINE
  8
0
 62
7
  6
CONTINUOUS
 10
52.1805900497
 20
219.8677032357
 11
57.9305900497
 21
229.8269953792
  0
LINE
  8
0
 62
7
  6
CONTINUOUS
 10
63.3145646459
 20
241.1523129265
 11
53.8579595011
 21
232.1783297227
  0
LINE
  8
0
 62
7
  6
CONTINUOUS
 10
70.6073263723
 20
240.277832747
 11
70.2999511324
 21
239.9965292822
  0
LINE
  8
0
 62
7
  6
CONTINUOUS
 10
69.0704504589
 20
238.8713156849
 11
68.763075285
 21
238.5900122805
  0
LINE
  8
0
 62
7
  6
CONTINUOUS
 10
72.5738973771
 20
241.8763554006
 11
72.3121056702
 21
241.6700151009
  0
LINE
  8
0
 62
7
  6
CONTINUOUS
 10
71.7230746105
 20
241.205749648
 11
71.3958350705
 21
240.9478243472
  0
LINE
  8
0
 62
7
  6
CONTINUOUS
 10
73.4761868371
 20
244.1329530982
 11
73.1370744343
 21
243.8908503164
  0
LINE
  8
0
 62
7
  6
CONTINUOUS
 10
73.3843284039
 20
243.5445226653
 11
73.7234408067
 21
243.7866254471
  0
LINE
  8
0
 62
7
  6
CONTINUOUS
 10
74.2179488844
 20
243.0939699508
 11
73.8788364816
 21
242.851867169
  0
LINE
  8
0
 62
7
  6
CONTINUOUS
 10
80.5926761206
 20
248.3079000981
 11
77.920364731
 21
246.9445396039
  0
LINE
  8
0
 62
7
  6
CONTINUOUS
 10
78.5978112957
 20
246.716904894
 11
80.8247374537
 21
247.8530386392
  0
LINE
  8
0
 62
7
  6
CONTINUOUS
 10
81.0306130629
 20
246.7160204776
 11
79.100610959
 21
245.7313715207
  0
LINE
  8
0
 62
7
  6
CONTINUOUS
 10
81.7908148315
 20
248.8257952526
 11
81.4097728886
 21
248.6572176331
  0
LINE
  8
0
 62
7
  6
CONTINUOUS
 10
95.3360041631
 20
252.4636963613
 11
94.9306123296
 21
252.3351945063
  0
LINE
  8
0
 62
7
  6
CONTINUOUS
 10
89.0883535074
 20
250.0291147853
 11
88.6086229075
 21
249.8881944124
  0
LINE
  8
0
 62
7
  6
CONTINUOUS
 10
86.8496100978
 20
249.3714861992
 11
86.3698794978
 21
249.2305658263
  0
LINE
  8
0
 62
7
  6
CONTINUOUS
 10
112.6158348351
 20
156.7600080811
 11
101.1158348351
 21
156.7600080811
  0
LINE
  8
0
 62
7
  6
CONTINUOUS
 10
60.2711697907
 20
228.4756610357
 11
63.3145646459
 21
241.1523129265
  0
LINE
  8
0
 62
7
  6
CONTINUOUS
 10
71.5439343025
 20
238.0200845432
 11
71.3554919474
 21
237.7322588378
  0
LINE
  8
0
 62
7
  6
CONTINUOUS
 10
71.5853228122
 20
237.4811267828
 11
71.7737651823
 21
237.7689524717
  0
LINE
  8
0
 62
7
  6
CONTINUOUS
 10
72.3121056702
 20
241.6700151009
 11
72.1029965615
 21
241.3968344053
  0
LINE
  8
0
 62
7
  6
CONTINUOUS
 10
72.3137269548
 20
241.1294728214
 11
72.5228360634
 21
241.4026535171
  0
LINE
  8
0
 62
7
  6
CONTINUOUS
 10
84.0029814183
 20
247.8130377529
 11
84.1282659027
 21
247.9520501931
  0
LINE
  8
0
 62
7
  6
CONTINUOUS
 10
71.3554919474
 20
237.7322588378
 11
71.1095917732
 21
237.5072160821
  0
LINE
  8
0
 62
7
  6
CONTINUOUS
 10
71.3394226379
 20
237.2560840271
 11
71.5853228122
 21
237.4811267828
  0
LINE
  8
0
 62
7
  6
CONTINUOUS
 10
72.2615481816
 20
238.0999942603
 11
72.5689234214
 21
238.381297725
  0
LINE
  8
0
 62
7
  6
CONTINUOUS
 10
83.9288599594
 20
248.2402706252
 11
83.7257362764
 21
248.0714989923
  0
LINE
  8
0
 62
7
  6
CONTINUOUS
 10
73.0816783637
 20
238.8089314891
 11
73.4089179037
 21
239.0668567899
  0
LINE
  8
0
 62
7
  6
CONTINUOUS
 10
74.5869800231
 20
239.9953876956
 11
74.9142193758
 21
240.2533128489
  0
LINE
  8
0
 62
7
  6
CONTINUOUS
 10
75.4612620257
 20
240.6353700078
 11
75.8003744285
 21
240.8774727896
  0
LINE
  8
0
 62
7
  6
CONTINUOUS
 10
84.1282659027
 20
247.9520501931
 11
84.4092287845
 21
248.1505810188
  0
LINE
  8
0
 62
7
  6
CONTINUOUS
 10
94.9306123296
 20
252.3351945063
 11
94.617053551
 21
252.1308332219
  0
LINE
  8
0
 62
7
  6
CONTINUOUS
 10
84.3654994571
 20
248.4983191551
 11
83.9288599594
 21
248.2402706252
  0
LINE
  8
0
 62
7
  6
CONTINUOUS
 10
85.6531187013
 20
246.5305149124
 11
85.1386400155
 21
246.2427071619
  0
LINE
  8
0
 62
7
  6
CONTINUOUS
 10
85.338047751
 20
245.9544873831
 11
85.8525246631
 21
246.2422944316
  0
LINE
  8
0
 62
7
  6
CONTINUOUS
 10
71.0360647914
 20
237.0938243254
 11
71.3394226379
 21
237.2560840271
  0
LINE
  8
0
 62
7
  6
CONTINUOUS
 10
79.332672292
 20
245.2765100618
 11
81.2626743959
 21
246.2611590187
  0
LINE
  8
0
 62
7
  6
CONTINUOUS
 10
79.7381787233
 20
243.3814577511
 11
80.1835639549
 21
243.6086845002
  0
LINE
  8
0
 62
7
  6
CONTINUOUS
 10
72.5228360634
 20
241.4026535171
 11
72.8373103686
 21
241.5421534208
  0
LINE
  8
0
 62
7
  6
CONTINUOUS
 10
83.0281168014
 20
244.9992177725
 11
83.4091587443
 21
245.1677953921
  0
LINE
  8
0
 62
7
  6
CONTINUOUS
 10
85.5085898963
 20
247.8419715267
 11
83.8739791942
 21
247.2170332477
  0
LINE
  8
0
 62
7
  6
CONTINUOUS
 10
83.9177103457
 20
246.8692956811
 11
86.019352677
 21
247.6727877541
  0
LINE
  8
0
 62
7
  6
CONTINUOUS
 10
86.2017054661
 20
247.1958193386
 11
85.8125112541
 21
247.0470240562
  0
LINE
  8
0
 62
7
  6
CONTINUOUS
 10
95.067245205
 20
251.8361680372
 11
95.3897662238
 21
251.9558961546
  0
LINE
  8
0
 62
7
  6
CONTINUOUS
 10
96.6888601349
 20
249.1836452831
 11
96.3663391161
 21
249.0639171657
  0
LINE
  8
0
 62
7
  6
CONTINUOUS
 10
72.8229236619
 20
241.9642701556
 11
72.5738973771
 21
241.8763554006
  0
LINE
  8
0
 62
7
  6
CONTINUOUS
 10
96.4201011831
 20
248.5561168998
 11
96.8254911191
 21
248.6846185614
  0
LINE
  8
0
 62
7
  6
CONTINUOUS
 10
87.13744576
 20
246.6175651946
 11
87.61717636
 21
246.7584855675
  0
LINE
  8
0
 62
7
  6
CONTINUOUS
 10
89.3761891697
 20
247.2751937807
 11
89.8559197696
 21
247.4161141536
  0
LINE
  8
LAY0001
 62
7
  6
CONTINUOUS
 10
128.168399736
 20
170.4771085901
 11
128.2461058795
 21
170.4991488872
  0
LINE
  8
LAY0001
 62
7
  6
CONTINUOUS
 10
128.3041026499
 20
170.6406444271
 11
128.2263967918
 21
170.6186044154
  0
LINE
  8
LAY0001
 62
7
  6
CONTINUOUS
 10
129.4152279601
 20
171.7239368142
 11
129.4929341036
 21
171.7459771113
  0
LINE
  8
LAY0001
 62
7
  6
CONTINUOUS
 10
130.3877539008
 20
172.6964627548
 11
130.4654599015
 21
172.7185029093
  0
LINE
  8
LAY0001
 62
7
  6
CONTINUOUS
 10
130.5234568147
 20
172.8599985919
 11
130.4457508139
 21
172.8379584375
  0
LINE
  8
LAY0001
 62
7
  6
CONTINUOUS
 10
129.8072895758
 20
172.7283227982
 11
129.690730496
 21
172.6952625025
  0
LINE
  8
LAY0001
 62
7
  6
CONTINUOUS
 10
131.2466171533
 20
173.5831589305
 11
131.3631762258
 21
173.6162192335
  0
LINE
  8
LAY0001
 62
7
  6
CONTINUOUS
 10
131.4919556886
 20
174.3851559879
 11
131.6085147709
 21
174.4182162811
  0
LINE
  8
LAY0001
 62
7
  6
CONTINUOUS
 10
131.6665116207
 20
174.55971192
 11
131.5888055705
 21
174.5376717258
  0
LINE
  8
0
 62
7
  6
CONTINUOUS
 10
71.6134439889
 20
238.3144326064
 11
71.5439343025
 21
238.0200845432
  0
LINE
  8
0
 62
7
  6
CONTINUOUS
 10
72.1029965615
 20
241.3968344053
 11
72.0120182588
 21
241.10839861
  0
LINE
  8
0
 62
7
  6
CONTINUOUS
 10
72.2227486521
 20
240.8410370261
 11
72.3137269548
 21
241.1294728214
  0
LINE
  8
0
 62
7
  6
CONTINUOUS
 10
71.7737651823
 20
237.7689524717
 11
71.8392575973
 21
237.9442569036
  0
LINE
  8
0
 62
7
  6
CONTINUOUS
 10
83.7257362764
 20
248.0714989923
 11
83.5530047248
 21
247.8232326235
  0
LINE
  8
0
 62
7
  6
CONTINUOUS
 10
85.8258502528
 20
246.7787812812
 11
85.6531187013
 21
246.5305149124
  0
LINE
  8
0
 62
7
  6
CONTINUOUS
 10
94.617053551
 20
252.1308332219
 11
94.3214135625
 21
251.7572050012
  0
LINE
  8
0
 62
7
  6
CONTINUOUS
 10
85.8525246631
 20
246.2422944316
 11
86.1030954054
 21
246.520320014
  0
LINE
  8
0
 62
7
  6
CONTINUOUS
 10
94.8365553444
 20
251.6405802896
 11
95.067245205
 21
251.8361680372
  0
LINE
  8
0
 62
7
  6
CONTINUOUS
 10
96.9195499892
 20
249.37923309
 11
96.6888601349
 21
249.1836452831
  0
LINE
  8
0
 62
7
  6
CONTINUOUS
 10
96.8254911191
 20
248.6846185614
 11
97.1390517921
 21
248.8889800688
  0
LINE
  8
LAY0001
 62
7
  6
CONTINUOUS
 10
127.0793150082
 20
169.4715226318
 11
127.1848537895
 21
169.4657297204
  0
LINE
  8
LAY0001
 62
7
  6
CONTINUOUS
 10
127.2567670215
 20
169.5933087988
 11
127.2039976309
 21
169.5962052545
  0
LINE
  8
LAY0001
 62
7
  6
CONTINUOUS
 10
126.8566515936
 20
169.6941860465
 11
126.9621903846
 21
169.6883931253
  0
LINE
  8
LAY0001
 62
7
  6
CONTINUOUS
 10
127.0341036166
 20
169.8159722037
 11
126.9813342162
 21
169.8188686691
  0
LINE
  8
LAY0001
 62
7
  6
CONTINUOUS
 10
127.6998325219
 20
170.1477059918
 11
127.7526019125
 21
170.1448095361
  0
LINE
  8
LAY0001
 62
7
  6
CONTINUOUS
 10
127.8772848206
 20
170.2694924442
 11
127.7717457539
 21
170.2752850702
  0
LINE
  8
LAY0001
 62
7
  6
CONTINUOUS
 10
127.4771691073
 20
170.3703694065
 11
127.5299384979
 21
170.3674729508
  0
LINE
  8
LAY0001
 62
7
  6
CONTINUOUS
 10
127.6546214059
 20
170.4921558588
 11
127.5490823344
 21
170.4979484897
  0
LINE
  8
LAY0001
 62
7
  6
CONTINUOUS
 10
129.5259944066
 20
171.8625361838
 11
129.4732247306
 21
171.8654323542
  0
LINE
  8
LAY0001
 62
7
  6
CONTINUOUS
 10
129.1421260716
 20
172.1466580782
 11
129.0893566786
 21
172.1495545364
  0
LINE
  8
LAY0001
 62
7
  6
CONTINUOUS
 10
129.6965231293
 20
172.5897234286
 11
129.7492926627
 21
172.5868271155
  0
LINE
  8
LAY0001
 62
7
  6
CONTINUOUS
 10
130.3349843674
 20
172.6993590679
 11
130.3877539008
 21
172.6964627548
  0
LINE
  8
0
 62
7
  6
CONTINUOUS
 10
71.8392575973
 20
237.9442569036
 11
71.8513094544
 21
238.3013879275
  0
LINE
  8
0
 62
7
  6
CONTINUOUS
 10
72.0120182588
 20
241.10839861
 11
71.986487602
 21
240.8715476682
  0
LINE
  8
0
 62
7
  6
CONTINUOUS
 10
72.1972179952
 20
240.6041860843
 11
72.2227486521
 21
240.8410370261
  0
LINE
  8
0
 62
7
  6
CONTINUOUS
 10
88.6086229075
 20
249.8881944124
 11
88.0409393543
 21
248.5683086234
  0
LINE
  8
0
 62
7
  6
CONTINUOUS
 10
87.61717636
 20
246.7584855675
 11
88.1848580495
 21
248.0783709334
  0
LINE
  8
0
 62
7
  6
CONTINUOUS
 10
83.5530047248
 20
247.8232326235
 11
83.4581105904
 21
247.6047247662
  0
LINE
  8
0
 62
7
  6
CONTINUOUS
 10
83.8606419983
 20
247.4852766482
 11
84.0029814183
 21
247.8130377529
  0
LINE
  8
0
 62
7
  6
CONTINUOUS
 10
86.1030954054
 20
246.520320014
 11
86.2454348148
 21
246.8480811466
  0
LINE
  8
0
 62
7
  6
CONTINUOUS
 10
87.8730334187
 20
248.2528795347
 11
87.13744576
 21
246.6175651946
  0
LINE
  8
0
 62
7
  6
CONTINUOUS
 10
88.3527640187
 20
248.3937999077
 11
89.0883535074
 21
250.0291147853
  0
LINE
  8
0
 62
7
  6
CONTINUOUS
 10
97.1390517921
 20
248.8889800688
 11
97.4346917774
 21
249.2626083192
  0
LINE
  8
0
 62
7
  6
CONTINUOUS
 10
115.6123481753
 20
250.3032969992
 11
114.948396336
 21
249.8982296033
  0
LINE
  8
0
 62
7
  6
CONTINUOUS
 10
114.7311539015
 20
249.2529667809
 11
115.3951058169
 21
249.6580344027
  0
LINE
  8
0
 62
7
  6
CONTINUOUS
 10
110.6259020374
 20
248.1196033248
 11
114.1055419134
 21
250.1915340161
  0
LINE
  8
0
 62
7
  6
CONTINUOUS
 10
113.7463276024
 20
250.4627343632
 11
110.1861321203
 21
248.4121350305
  0
LINE
  8
0
 62
7
  6
CONTINUOUS
 10
117.327134067
 20
249.6887285038
 11
116.6479845638
 21
249.3096934232
  0
LINE
  8
0
 62
7
  6
CONTINUOUS
 10
116.4059014045
 20
248.6733333606
 11
117.0850509925
 21
249.0523686641
  0
LINE
  8
0
 62
7
  6
CONTINUOUS
 10
129.5462823501
 20
241.6173073608
 11
129.8381310025
 21
241.7055707057
  0
LINE
  8
LAY0001
 62
7
  6
CONTINUOUS
 10
131.7720506013
 20
174.5539191883
 11
131.6665116207
 21
174.55971192
  0
LINE
  8
LAY0001
 62
7
  6
CONTINUOUS
 10
131.6085147709
 20
174.4182162811
 11
131.727970201
 21
174.3985070953
  0
LINE
  8
LAY0001
 62
7
  6
CONTINUOUS
 10
128.1017138838
 20
170.4939215074
 11
128.168399736
 21
170.4771085901
  0
LINE
  8
LAY0001
 62
7
  6
CONTINUOUS
 10
129.3485421079
 20
171.7407497315
 11
129.4152279601
 21
171.7239368142
  0
LINE
  8
LAY0001
 62
7
  6
CONTINUOUS
 10
128.9646737705
 20
172.0248716283
 11
129.0313596276
 21
172.0080587061
  0
LINE
  8
LAY0001
 62
7
  6
CONTINUOUS
 10
129.2088119312
 20
172.1298451536
 11
129.1421260716
 21
172.1466580782
  0
LINE
  8
0
 62
7
  6
CONTINUOUS
 10
83.4581105904
 20
247.6047247662
 11
83.4240025007
 21
247.2272281183
  0
LINE
  8
0
 62
7
  6
CONTINUOUS
 10
83.8435870626
 20
247.2965279837
 11
83.8606419983
 21
247.4852766482
  0
LINE
  8
0
 62
7
  6
CONTINUOUS
 10
94.3214135625
 20
251.7572050012
 11
94.1915152036
 21
251.4011242556
  0
LINE
  8
0
 62
7
  6
CONTINUOUS
 10
94.6976966671
 20
251.3691326748
 11
94.8365553444
 21
251.6405802896
  0
LINE
  8
0
 62
7
  6
CONTINUOUS
 10
97.0584086916
 20
249.6506804677
 11
96.9195499892
 21
249.37923309
  0
LINE
  8
0
 62
7
  6
CONTINUOUS
 10
124.0689925336
 20
244.3335109327
 11
124.4550158458
 21
244.5049038078
  0
LINE
  8
0
 62
7
  6
CONTINUOUS
 10
129.6450349882
 20
238.755350057
 11
129.3531892182
 21
238.6670842126
  0
LINE
  8
LAY0001
 62
7
  6
CONTINUOUS
 10
131.357383457
 20
173.7217581574
 11
131.2906975335
 21
173.7385710034
  0
LINE
  8
LAY0001
 62
7
  6
CONTINUOUS
 10
129.8878918993
 20
172.6975934095
 11
129.8072895758
 21
172.7283227982
  0
LINE
  8
LAY0001
 62
7
  6
CONTINUOUS
 10
130.4457508139
 20
172.8379584375
 11
130.3651483574
 21
172.8686876737
  0
LINE
  8
LAY0001
 62
7
  6
CONTINUOUS
 10
131.1660146968
 20
173.6138881667
 11
131.2466171533
 21
173.5831589305
  0
LINE
  8
LAY0001
 62
7
  6
CONTINUOUS
 10
128.0071951084
 20
170.5385673479
 11
128.1017138838
 21
170.4939215074
  0
LINE
  8
LAY0001
 62
7
  6
CONTINUOUS
 10
128.2263967918
 20
170.6186044154
 11
128.131877731
 21
170.6632499705
  0
LINE
  8
0
 62
7
  6
CONTINUOUS
 10
71.5640208584
 20
238.6153030127
 11
71.6134439889
 21
238.3144326064
  0
LINE
  8
0
 62
7
  6
CONTINUOUS
 10
71.9863030088
 20
148.2266574767
 11
71.1479096964
 21
144.6975168152
  0
LINE
  8
0
 62
7
  6
CONTINUOUS
 10
97.4346917774
 20
249.2626083192
 11
97.5645901301
 21
249.618689124
  0
LINE
  8
0
 62
7
  6
CONTINUOUS
 10
45.4262623413
 20
172.8381671195
 11
42.8129635131
 21
170.3225347159
  0
LINE
  8
0
 62
7
  6
CONTINUOUS
 10
124.2623331468
 20
245.0072732569
 11
124.0632394083
 21
244.8270129783
  0
LINE
  8
0
 62
7
  6
CONTINUOUS
 10
125.4011092174
 20
242.5596450735
 11
127.3316933143
 21
244.0141424858
  0
LINE
  8
0
 62
7
  6
CONTINUOUS
 10
124.2798321725
 20
241.6818167722
 11
125.1378684837
 21
242.328260762
  0
LINE
  8
0
 62
7
  6
CONTINUOUS
 10
127.2533231811
 20
244.4841004029
 11
123.8699041363
 21
241.9681016044
  0
LINE
  8
0
 62
7
  6
CONTINUOUS
 10
129.3182375726
 20
241.4754349323
 11
129.5462823501
 21
241.6173073608
  0
LINE
  8
0
 62
7
  6
CONTINUOUS
 10
128.4422720744
 20
240.4328818099
 11
128.6703167752
 21
240.5747541472
  0
LINE
  8
0
 62
7
  6
CONTINUOUS
 10
129.4553185157
 20
242.0272142972
 11
129.0539740323
 21
241.808631641
  0
LINE
  8
0
 62
7
  6
CONTINUOUS
 10
129.7360017049
 20
238.345440621
 11
130.1373431526
 21
238.5640255943
  0
LINE
  8
0
 62
7
  6
CONTINUOUS
 10
161.6379860782
 20
185.609733095
 11
165.2505209851
 21
185.2821225001
  0
LINE
  8
LAY0001
 62
7
  6
CONTINUOUS
 10
129.0313596276
 20
172.0080587061
 11
129.1258786933
 21
171.9634131462
  0
LINE
  8
LAY0001
 62
7
  6
CONTINUOUS
 10
130.2404655921
 20
172.7440049084
 11
130.3349843674
 21
172.6993590679
  0
LINE
  8
LAY0001
 62
7
  6
CONTINUOUS
 10
131.8804859341
 20
174.4953569821
 11
131.7720506013
 21
174.5539191883
  0
LINE
  8
0
 62
7
  6
CONTINUOUS
 10
141.0568740089
 20
155.8174523305
 11
143.918812102
 21
153.588764935
  0
LINE
  8
0
 62
7
  6
CONTINUOUS
 10
107.6360177447
 20
141.8815801396
 11
108.8387139008
 21
138.4594084445
  0
LINE
  8
0
 62
7
  6
CONTINUOUS
 10
85.8125112541
 20
247.0470240562
 11
85.8258502528
 21
246.7787812812
  0
LINE
  8
0
 62
7
  6
CONTINUOUS
 10
94.1915152036
 20
251.4011242556
 11
94.1534461312
 21
250.969183442
  0
LINE
  8
0
 62
7
  6
CONTINUOUS
 10
97.5645901301
 20
249.618689124
 11
97.6026592276
 21
250.0506297005
  0
LINE
  8
0
 62
7
  6
CONTINUOUS
 10
94.6506672261
 20
251.021825466
 11
94.6976966671
 21
251.3691326748
  0
LINE
  8
0
 62
7
  6
CONTINUOUS
 10
97.1054381326
 20
249.9979876765
 11
97.0584086916
 21
249.6506804677
  0
LINE
  8
0
 62
7
  6
CONTINUOUS
 10
105.1249794165
 20
273.1951995273
 11
103.2854503411
 21
262.7627117257
  0
LINE
  8
0
 62
7
  6
CONTINUOUS
 10
140.867385673
 20
260.0522735099
 11
133.6796466065
 21
252.2704307936
  0
LINE
  8
0
 62
7
  6
CONTINUOUS
 10
124.4550158458
 20
244.5049038078
 11
124.6541095843
 21
244.6851640864
  0
LINE
  8
0
 62
7
  6
CONTINUOUS
 10
129.0539740323
 20
241.808631641
 11
128.6069380528
 21
241.4061211372
  0
LINE
  8
0
 62
7
  6
CONTINUOUS
 10
128.925949432
 20
241.1380839929
 11
129.3182375726
 21
241.4754349323
  0
LINE
  8
0
 62
7
  6
CONTINUOUS
 10
129.873082533
 20
238.8972198491
 11
129.6450349882
 21
238.755350057
  0
LINE
  8
0
 62
7
  6
CONTINUOUS
 10
138.7831304281
 20
241.6523129265
 11
137.0510796206
 21
240.6523129265
  0
LINE
  8
0
 62
7
  6
CONTINUOUS
 10
33.2253182224
 20
200.6262277076
 11
43.8134106235
 21
200.2901202002
  0
LINE
  8
0
 62
7
  6
CONTINUOUS
 10
50.4485392421
 20
220.8677032357
 11
52.1805900497
 21
219.8677032357
  0
LINE
  8
0
 62
7
  6
CONTINUOUS
 10
41.1477934376
 20
237.8752611954
 11
49.8733501384
 21
231.8681546363
  0
LINE
  8
LAY0001
 62
7
  6
CONTINUOUS
 10
127.5212478593
 20
169.0258107984
 11
129.147593456
 21
167.3994652017
  0
LINE
  8
LAY0001
 62
7
  6
CONTINUOUS
 10
126.8288186704
 20
169.7220189697
 11
126.8566515936
 21
169.6941860465
  0
LINE
  8
LAY0001
 62
7
  6
CONTINUOUS
 10
129.74863422
 20
168.0005059657
 11
128.1222886233
 21
169.6268515625
  0
LINE
  8
0
 62
7
  6
CONTINUOUS
 10
67.9509516155
 20
264.9279287349
 11
72.0436700152
 21
255.1570370126
  0
LINE
  8
0
 62
7
  6
CONTINUOUS
 10
83.4240025007
 20
247.2272281183
 11
83.5285161336
 21
246.7205003987
  0
LINE
  8
0
 62
7
  6
CONTINUOUS
 10
86.2454348148
 20
246.8480811466
 11
86.2017054661
 21
247.1958193386
  0
LINE
  8
0
 62
7
  6
CONTINUOUS
 10
94.1534461312
 20
250.969183442
 11
94.2878512954
 21
249.6996828067
  0
LINE
  8
0
 62
7
  6
CONTINUOUS
 10
94.7850723904
 20
249.7523248308
 11
94.6506672261
 21
251.021825466
  0
LINE
  8
0
 62
7
  6
CONTINUOUS
 10
98.3638672052
 20
252.7356019299
 11
98.4136911113
 21
248.7359122447
  0
LINE
  8
0
 62
7
  6
CONTINUOUS
 10
98.913652322
 20
248.7421402329
 11
98.8701889138
 21
252.2312312958
  0
LINE
  8
0
 62
7
  6
CONTINUOUS
 10
102.7211886895
 20
252.7367841002
 11
102.4147252952
 21
248.7485413558
  0
LINE
  8
0
 62
7
  6
CONTINUOUS
 10
102.9523786247
 20
249.2193708019
 11
103.0567065899
 21
250.577070476
  0
LINE
  8
0
 62
7
  6
CONTINUOUS
 10
103.0958295718
 20
251.0862077869
 11
103.1805960507
 21
252.189338865
  0
LINE
  8
0
 62
7
  6
CONTINUOUS
 10
111.0357685639
 20
251.620696658
 11
110.9268408284
 21
251.2093426549
  0
LINE
  8
0
 62
7
  6
CONTINUOUS
 10
110.1861321203
 20
248.4121350305
 11
110.0118477283
 21
247.7539685679
  0
LINE
  8
0
 62
7
  6
CONTINUOUS
 10
114.948396336
 20
249.8982296033
 11
114.7311539015
 21
249.2529667809
  0
LINE
  8
0
 62
7
  6
CONTINUOUS
 10
116.6479845638
 20
249.3096934232
 11
116.4059014045
 21
248.6733333606
  0
LINE
  8
0
 62
7
  6
CONTINUOUS
 10
122.6113842548
 20
247.3240855985
 11
120.6255285982
 21
243.8518561547
  0
LINE
  8
0
 62
7
  6
CONTINUOUS
 10
121.0595572786
 20
243.6036241976
 11
121.9468544995
 21
245.155045886
  0
LINE
  8
0
 62
7
  6
CONTINUOUS
 10
122.2003679574
 20
245.5983091664
 11
122.8341517204
 21
246.7064675744
  0
LINE
  8
0
 62
7
  6
CONTINUOUS
 10
128.6069380528
 20
241.4061211372
 11
128.2237031809
 21
240.9500041861
  0
LINE
  8
0
 62
7
  6
CONTINUOUS
 10
128.8164537543
 20
241.007764864
 11
128.925949432
 21
241.1380839929
  0
LINE
  8
0
 62
7
  6
CONTINUOUS
 10
128.2780285578
 20
240.2374031166
 11
128.4422720744
 21
240.4328818099
  0
LINE
  8
0
 62
7
  6
CONTINUOUS
 10
146.8737101691
 20
233.0443551265
 11
144.5331304281
 21
231.693020783
  0
LINE
  8
0
 62
7
  6
CONTINUOUS
 10
142.8010796206
 20
230.693020783
 11
140.4604998796
 21
229.3416864395
  0
LINE
  8
DEFAULT_1
 62
2
  6
CENTER
 10
165.7647702407
 20
205.7600080811
 11
102.6159348351
 21
205.7600080811
  0
LINE
  8
0
 62
2
  6
CONTINUOUS
 10
101.4958348351
 20
205.7600080811
 11
99.7358348351
 21
205.7600080811
  0
LINE
  8
DEFAULT_1
 62
2
  6
CENTER
 10
26.363238512
 20
205.7600080811
 11
98.6157348351
 21
205.7600080811
  0
LINE
  8
0
 62
7
  6
CONTINUOUS
 10
53.8579595011
 20
232.1783297227
 11
56.1985392421
 21
230.8269953792
  0
LINE
  8
0
 62
7
  6
CONTINUOUS
 10
57.9305900497
 20
229.8269953792
 11
60.2711697907
 21
228.4756610357
  0
LINE
  8
LAY0001
 62
7
  6
CONTINUOUS
 10
128.2637099795
 20
169.7682729187
 11
129.1829487951
 21
168.8490341031
  0
LINE
  8
LAY0001
 62
7
  6
CONTINUOUS
 10
127.9051177437
 20
170.241659521
 11
127.8772848206
 21
170.2694924442
  0
LINE
  8
LAY0001
 62
7
  6
CONTINUOUS
 10
127.7427822992
 20
170.802980157
 11
128.0071951084
 21
170.5385673479
  0
LINE
  8
LAY0001
 62
7
  6
CONTINUOUS
 10
128.131877731
 20
170.6632499705
 11
127.8674649219
 21
170.9276627797
  0
LINE
  8
LAY0001
 62
7
  6
CONTINUOUS
 10
129.8193448981
 20
169.4147195281
 11
128.8647507435
 21
170.3693136827
  0
LINE
  8
LAY0001
 62
7
  6
CONTINUOUS
 10
128.3163230483
 20
171.3765209061
 11
128.6364017038
 21
171.0564422506
  0
LINE
  8
LAY0001
 62
7
  6
CONTINUOUS
 10
128.6920675502
 20
171.0007764043
 11
128.7616498581
 21
170.9311940963
  0
LINE
  8
LAY0001
 62
7
  6
CONTINUOUS
 10
128.8863327661
 20
171.0558770043
 11
128.4410059564
 21
171.5012038141
  0
LINE
  8
LAY0001
 62
7
  6
CONTINUOUS
 10
128.6404985521
 20
171.7006964099
 11
129.0858253619
 21
171.2553696001
  0
LINE
  8
LAY0001
 62
7
  6
CONTINUOUS
 10
129.2249900168
 20
171.1162049452
 11
129.2945723247
 21
171.0466226373
  0
LINE
  8
LAY0001
 62
7
  6
CONTINUOUS
 10
129.4192549474
 20
171.17130526
 11
129.3496726394
 21
171.2408875679
  0
LINE
  8
LAY0001
 62
7
  6
CONTINUOUS
 10
129.2105079846
 20
171.3800522228
 11
128.7651811748
 21
171.8253790326
  0
LINE
  8
LAY0001
 62
7
  6
CONTINUOUS
 10
129.6779235419
 20
171.1824864811
 11
130.4557410012
 21
170.4046690218
  0
LINE
  8
LAY0001
 62
7
  6
CONTINUOUS
 10
131.0214264261
 20
169.8389835968
 11
131.3042691386
 21
169.5561408843
  0
LINE
  8
LAY0001
 62
7
  6
CONTINUOUS
 10
129.1258786933
 20
171.9634131462
 11
129.3485421079
 21
171.7407497315
  0
LINE
  8
LAY0001
 62
7
  6
CONTINUOUS
 10
129.4732247306
 20
171.8654323542
 11
129.4314753458
 21
171.9071817389
  0
LINE
  8
LAY0001
 62
7
  6
CONTINUOUS
 10
129.37580948
 20
171.9628476048
 11
129.2923107104
 21
172.0463463743
  0
LINE
  8
LAY0001
 62
7
  6
CONTINUOUS
 10
131.9053099026
 20
170.1571816483
 11
130.2789643059
 21
171.7835272451
  0
LINE
  8
LAY0001
 62
7
  6
CONTINUOUS
 10
129.7492926627
 20
172.5868271155
 11
129.7771255956
 21
172.5589941826
  0
LINE
  8
LAY0001
 62
7
  6
CONTINUOUS
 10
130.4203856621
 20
171.9249486013
 11
132.0467312589
 21
170.2986030046
  0
LINE
  8
LAY0001
 62
7
  6
CONTINUOUS
 10
130.1244717658
 20
172.4610135431
 11
130.0966388426
 21
172.4888464662
  0
LINE
  8
LAY0001
 62
7
  6
CONTINUOUS
 10
129.9296412841
 20
172.6558440248
 11
129.8878918993
 21
172.6975934095
  0
LINE
  8
LAY0001
 62
7
  6
CONTINUOUS
 10
129.9621363213
 20
173.0223341791
 11
130.2404655921
 21
172.7440049084
  0
LINE
  8
LAY0001
 62
7
  6
CONTINUOUS
 10
130.3651483574
 20
172.8686876737
 11
130.0868190867
 21
173.1470169444
  0
LINE
  8
LAY0001
 62
7
  6
CONTINUOUS
 10
132.6477720229
 20
170.8996437686
 11
131.8699545636
 21
171.6774612279
  0
LINE
  8
LAY0001
 62
7
  6
CONTINUOUS
 10
131.3042691386
 20
172.2431466528
 11
131.0214264261
 21
172.5259893653
  0
LINE
  8
LAY0001
 62
7
  6
CONTINUOUS
 10
130.5356772131
 20
173.5958750709
 11
130.8557558686
 21
173.2757964154
  0
LINE
  8
LAY0001
 62
7
  6
CONTINUOUS
 10
130.911421715
 20
173.220130569
 11
131.1897509857
 21
172.9418012983
  0
LINE
  8
LAY0001
 62
7
  6
CONTINUOUS
 10
131.3144338224
 20
173.066484135
 11
130.6603600498
 21
173.7205579076
  0
LINE
  8
LAY0001
 62
7
  6
CONTINUOUS
 10
132.5063506666
 20
172.6674107216
 11
133.4609448212
 21
171.712816567
  0
LINE
  8
LAY0001
 62
7
  6
CONTINUOUS
 10
131.727970201
 20
174.3985070953
 11
131.7697195858
 21
174.3567577106
  0
LINE
  8
LAY0001
 62
7
  6
CONTINUOUS
 10
134.0619855852
 20
172.313857331
 11
133.1427467697
 21
173.2330961465
  0
LINE
  8
0
 62
7
  6
CONTINUOUS
 10
68.763075285
 20
238.5900122805
 11
69.9122295886
 21
237.3343520275
  0
LINE
  8
0
 62
7
  6
CONTINUOUS
 10
70.2196047625
 20
237.6156554319
 11
69.0704504589
 21
238.8713156849
  0
LINE
  8
0
 62
7
  6
CONTINUOUS
 10
71.3958350705
 20
240.9478243472
 11
73.0816783637
 21
238.8089314891
  0
LINE
  8
0
 62
7
  6
CONTINUOUS
 10
73.4089179037
 20
239.0668567899
 11
72.1972179952
 21
240.6041860843
  0
LINE
  8
0
 62
7
  6
CONTINUOUS
 10
71.986487602
 20
240.8715476682
 11
71.7230746105
 21
241.205749648
  0
LINE
  8
0
 62
7
  6
CONTINUOUS
 10
73.1370744343
 20
243.8908503164
 11
73.3843284039
 21
243.5445226653
  0
LINE
  8
0
 62
7
  6
CONTINUOUS
 10
73.8788364816
 20
242.851867169
 11
75.4612620257
 21
240.6353700078
  0
LINE
  8
0
 62
7
  6
CONTINUOUS
 10
75.8003744285
 20
240.8774727896
 11
74.2179488844
 21
243.0939699508
  0
LINE
  8
0
 62
7
  6
CONTINUOUS
 10
73.7234408067
 20
243.7866254471
 11
73.4761868371
 21
244.1329530982
  0
LINE
  8
0
 62
7
  6
CONTINUOUS
 10
77.920364731
 20
246.9445396039
 11
79.7381787233
 21
243.3814577511
  0
LINE
  8
0
 62
7
  6
CONTINUOUS
 10
80.1835639549
 20
243.6086845002
 11
79.332672292
 21
245.2765100618
  0
LINE
  8
0
 62
7
  6
CONTINUOUS
 10
79.100610959
 20
245.7313715207
 11
78.5978112957
 21
246.716904894
  0
LINE
  8
0
 62
7
  6
CONTINUOUS
 10
81.4097728886
 20
248.6572176331
 11
83.0281168014
 21
244.9992177725
  0
LINE
  8
0
 62
7
  6
CONTINUOUS
 10
83.9784946087
 20
246.7103062093
 11
83.9177103457
 21
246.8692956811
  0
LINE
  8
0
 62
7
  6
CONTINUOUS
 10
83.8739791942
 20
247.2170332477
 11
83.8435870626
 21
247.2965279837
  0
LINE
  8
0
 62
7
  6
CONTINUOUS
 10
96.9710329684
 20
251.2674883117
 11
97.1054381326
 21
249.9979876765
  0
LINE
  8
0
 62
7
  6
CONTINUOUS
 10
97.6026592276
 20
250.0506297005
 11
97.4682540634
 21
251.3201303358
  0
LINE
  8
0
 62
7
  6
CONTINUOUS
 10
101.1969794608
 20
252.7708938476
 11
101.2393827853
 21
249.3669026147
  0
LINE
  8
0
 62
7
  6
CONTINUOUS
 10
101.7467645776
 20
248.7774321506
 11
101.6969406715
 21
252.7771218359
  0
LINE
  8
DEFAULT_1
 62
2
  6
CENTER
 10
100.6158348351
 20
273.6039387309
 11
100.6158348351
 21
207.7601080811
  0
LINE
  8
0
 62
2
  6
CONTINUOUS
 10
100.6158348351
 20
206.6400080811
 11
100.6158348351
 21
204.8800080811
  0
LINE
  8
DEFAULT_1
 62
2
  6
CENTER
 10
100.6158348351
 20
132.5776805252
 11
100.6158348351
 21
203.7599080811
  0
LINE
  8
0
 62
7
  6
CONTINUOUS
 10
101.1158348351
 20
152.0573393941
 11
101.1158348351
 21
154.7600080811
  0
LINE
  8
0
 62
7
  6
CONTINUOUS
 10
101.1158348351
 20
156.7600080811
 11
101.1158348351
 21
159.4626767681
  0
LINE
  8
0
 62
7
  6
CONTINUOUS
 10
105.217006011
 20
250.4110693733
 11
105.2561289928
 21
250.9202066842
  0
LINE
  8
0
 62
7
  6
CONTINUOUS
 10
105.4059073535
 20
248.5186938101
 11
105.4450303399
 21
249.0278311804
  0
LINE
  8
0
 62
7
  6
CONTINUOUS
 10
105.673247766
 20
251.9977992435
 11
105.7123707478
 21
252.5069365544
  0
LINE
  8
0
 62
7
  6
CONTINUOUS
 10
113.2341199075
 20
246.9007015304
 11
113.3648332053
 21
247.3943263917
  0
LINE
  8
0
 62
7
  6
CONTINUOUS
 10
114.1055419134
 20
250.1915340161
 11
114.2580407431
 21
250.7674296205
  0
LINE
  8
0
 62
7
  6
CONTINUOUS
 10
115.3951058169
 20
249.6580344027
 11
114.3360491676
 21
246.5123787934
  0
LINE
  8
0
 62
7
  6
CONTINUOUS
 10
114.8099139433
 20
246.3528414174
 11
116.086212951
 21
250.1437596232
  0
LINE
  8
0
 62
7
  6
CONTINUOUS
 10
117.0850509925
 20
249.0523686641
 11
115.9048958345
 21
245.9501139998
  0
LINE
  8
0
 62
7
  6
CONTINUOUS
 10
116.3722226475
 20
245.7723342207
 11
117.79446088
 21
249.5109487248
  0
LINE
  8
0
 62
7
  6
CONTINUOUS
 10
124.3890899941
 20
245.2289051041
 11
124.2623331468
 21
245.0072732569
  0
LINE
  8
0
 62
7
  6
CONTINUOUS
 10
124.6541095843
 20
244.6851640864
 11
124.8231186746
 21
244.980673147
  0
LINE
  8
0
 62
7
  6
CONTINUOUS
 10
128.2237031809
 20
240.9500041861
 11
127.9042693398
 21
240.4402806964
  0
LINE
  8
0
 62
7
  6
CONTINUOUS
 10
130.0373260495
 20
239.0926985424
 11
129.873082533
 21
238.8972198491
  0
LINE
  8
0
 62
7
  6
CONTINUOUS
 10
130.1373431526
 20
238.5640255943
 11
130.4110824236
 21
238.8898235077
  0
LINE
  8
0
 62
7
  6
CONTINUOUS
 10
163.8302089424
 20
229.6719368296
 11
153.5763162522
 21
227.0114192772
  0
LINE
  8
0
 62
7
  6
CONTINUOUS
 10
166.7229150841
 20
191.6997317253
 11
156.6584072488
 21
195.0052348613
  0
LINE
  8
0
 62
7
  6
CONTINUOUS
 10
70.2999511324
 20
239.9965292822
 11
71.5640208584
 21
238.6153030127
  0
LINE
  8
0
 62
7
  6
CONTINUOUS
 10
72.1012269831
 20
238.6454744004
 11
70.6073263723
 21
240.277832747
  0
LINE
  8
0
 62
7
  6
CONTINUOUS
 10
73.5860105078
 20
241.2653554063
 11
74.5869800231
 21
239.9953876956
  0
LINE
  8
0
 62
7
  6
CONTINUOUS
 10
74.9142193758
 20
240.2533128489
 11
73.9132498605
 21
241.5232805595
  0
LINE
  8
0
 62
7
  6
CONTINUOUS
 10
83.5285161336
 20
246.7205003987
 11
83.7887081215
 21
246.273291176
  0
LINE
  8
0
 62
7
  6
CONTINUOUS
 10
81.2626743959
 20
246.2611590187
 11
81.0306130629
 21
246.7160204776
  0
LINE
  8
0
 62
7
  6
CONTINUOUS
 10
80.8247374537
 20
247.8530386392
 11
80.5926761206
 21
248.3079000981
  0
LINE
  8
0
 62
7
  6
CONTINUOUS
 10
83.4091587443
 20
245.1677953921
 11
81.7908148315
 21
248.8257952526
  0
LINE
  8
0
 62
7
  6
CONTINUOUS
 10
85.4478056332
 20
248.0009609985
 11
85.5085898963
 21
247.8419715267
  0
LINE
  8
0
 62
7
  6
CONTINUOUS
 10
86.019352677
 20
247.6727877541
 11
85.8977841083
 21
247.9907668091
  0
LINE
  8
0
 62
7
  6
CONTINUOUS
 10
112.6158348351
 20
154.7600080811
 11
112.6158348351
 21
156.7600080811
  0
LINE
  8
0
 62
7
  6
CONTINUOUS
 10
128.1775861489
 20
239.988317976
 11
128.2780285578
 21
240.2374031166
  0
LINE
  8
0
 62
7
  6
CONTINUOUS
 10
77.2906533851
 20
142.3267885461
 11
81.9948400702
 21
151.8184320593
  0
LINE
  8
0
 62
7
  6
CONTINUOUS
 10
46.6988558731
 20
165.0071332149
 11
55.787839449
 21
170.4487365178
  0
LINE
  8
0
 62
7
  6
CONTINUOUS
 10
70.4534529395
 20
237.483567096
 11
70.2196047625
 21
237.6156554319
  0
LINE
  8
0
 62
7
  6
CONTINUOUS
 10
69.9122295886
 20
237.3343520275
 11
70.2035355116
 21
237.1394806344
  0
LINE
  8
0
 62
7
  6
CONTINUOUS
 10
72.3925328355
 20
238.450602963
 11
72.1012269831
 21
238.6454744004
  0
LINE
  8
0
 62
7
  6
CONTINUOUS
 10
73.2571494959
 20
241.5479722374
 11
73.5860105078
 21
241.2653554063
  0
LINE
  8
0
 62
7
  6
CONTINUOUS
 10
73.9132498605
 20
241.5232805595
 11
73.5843892232
 21
241.8058976858
  0
LINE
  8
0
 62
7
  6
CONTINUOUS
 10
148.6270903371
 20
158.1915650188
 11
141.947377482
 21
166.4136149531
  0
LINE
  8
0
 62
7
  6
CONTINUOUS
 10
84.1475084204
 20
246.5015805131
 11
83.9784946087
 21
246.7103062093
  0
LINE
  8
0
 62
7
  6
CONTINUOUS
 10
85.8977841083
 20
247.9907668091
 11
85.6983763835
 21
248.2789865601
  0
LINE
  8
LAY0001
 62
7
  6
CONTINUOUS
 10
131.9390481598
 20
174.3869216298
 11
131.8804859341
 21
174.4953569821
  0
LINE
  8
0
 62
7
  6
CONTINUOUS
 10
94.9037845789
 20
249.4225650972
 11
94.7850723904
 21
249.7523248308
  0
LINE
  8
0
 62
7
  6
CONTINUOUS
 10
96.8523207798
 20
251.5972480453
 11
96.9710329684
 21
251.2674883117
  0
LINE
  8
0
 62
7
  6
CONTINUOUS
 10
94.2878512954
 20
249.6996828067
 11
94.4155238274
 21
249.2852897054
  0
LINE
  8
0
 62
7
  6
CONTINUOUS
 10
97.4682540634
 20
251.3201303358
 11
97.3405815063
 21
251.7345236742
  0
LINE
  8
0
 62
7
  6
CONTINUOUS
 10
115.2880311995
 20
139.786042882
 11
114.1138749595
 21
150.3141968547
  0
LINE
  8
0
 62
7
  6
CONTINUOUS
 10
111.8766514909
 20
269.028724937
 11
111.6868163993
 21
272.6509942683
  0
LINE
  8
0
 62
7
  6
CONTINUOUS
 10
124.4435097134
 20
245.4919081059
 11
124.3890899941
 21
245.2289051041
  0
LINE
  8
0
 62
7
  6
CONTINUOUS
 10
124.8231186746
 20
244.980673147
 11
124.8775383939
 21
245.2436761488
  0
LINE
  8
0
 62
7
  6
CONTINUOUS
 10
126.6027566685
 20
240.0595367846
 11
127.7998949386
 21
244.1023865653
  0
LINE
  8
0
 62
7
  6
CONTINUOUS
 10
126.5042963135
 20
241.3739772601
 11
126.1928286323
 21
240.3458216168
  0
LINE
  8
0
 62
7
  6
CONTINUOUS
 10
127.3316933143
 20
244.0141424858
 11
126.630893326
 21
241.700790577
  0
LINE
  8
0
 62
7
  6
CONTINUOUS
 10
127.9042693398
 20
240.4402806964
 11
127.758135243
 21
240.0072674801
  0
LINE
  8
0
 62
7
  6
CONTINUOUS
 10
130.4110824236
 20
238.8898235077
 11
130.5572194027
 21
239.3228342245
  0
LINE
  8
0
 62
7
  6
CONTINUOUS
 10
130.1377656145
 20
239.3417862282
 11
130.0373260495
 21
239.0926985424
  0
LINE
  8
0
 62
7
  6
CONTINUOUS
 10
131.2689414611
 20
240.1699087448
 11
131.3693809494
 21
240.4189963394
  0
LINE
  8
0
 62
7
  6
CONTINUOUS
 10
144.2946874297
 20
252.8969825319
 11
146.0933937442
 21
256.046965508
  0
LINE
  8
0
 62
7
  6
CONTINUOUS
 10
162.8449962898
 20
221.7995837925
 11
166.0611737025
 21
223.4770640473
  0
LINE
  8
0
 62
7
  6
CONTINUOUS
 10
36.3885209896
 20
207.9021286529
 11
32.830020559
 21
207.1987000208
  0
LINE
  8
0
 62
7
  6
CONTINUOUS
 10
70.2035355116
 20
237.1394806344
 11
70.3799259719
 21
237.0701753018
  0
LINE
  8
0
 62
7
  6
CONTINUOUS
 10
72.5689234214
 20
238.381297725
 11
72.3925328355
 21
238.450602963
  0
LINE
  8
0
 62
7
  6
CONTINUOUS
 10
47.7424979754
 20
242.2859820403
 11
44.3685946858
 21
243.6180908002
  0
LINE
  8
0
 62
7
  6
CONTINUOUS
 10
71.8513094544
 20
238.3013879275
 11
72.2615481816
 21
238.0999942603
  0
LINE
  8
0
 62
7
  6
CONTINUOUS
 10
73.5843892232
 20
241.8058976858
 11
73.3608934079
 21
241.9548337249
  0
LINE
  8
0
 62
7
  6
CONTINUOUS
 10
83.7887081215
 20
246.273291176
 11
84.0659532848
 21
246.0148298809
  0
LINE
  8
0
 62
7
  6
CONTINUOUS
 10
84.2861318822
 20
246.372350234
 11
84.1475084204
 21
246.5015805131
  0
LINE
  8
0
 62
7
  6
CONTINUOUS
 10
75.883385829
 20
265.0730967758
 11
73.7652701361
 21
268.0178078087
  0
LINE
  8
0
 62
7
  6
CONTINUOUS
 10
94.4155238274
 20
249.2852897054
 11
94.6171049402
 21
248.9643034494
  0
LINE
  8
LAY0001
 62
7
  6
CONTINUOUS
 10
130.9682878923
 20
173.8614881915
 11
130.9990171382
 21
173.7808857253
  0
LINE
  8
LAY0001
 62
7
  6
CONTINUOUS
 10
131.7697195858
 20
174.3567577106
 11
131.8004488861
 21
174.2761552792
  0
LINE
  8
LAY0001
 62
7
  6
CONTINUOUS
 10
126.9813342162
 20
169.8188686691
 11
126.9784377605
 21
169.8716380598
  0
LINE
  8
LAY0001
 62
7
  6
CONTINUOUS
 10
127.7526019125
 20
170.1448095361
 11
127.7554983682
 21
170.0920401455
  0
LINE
  8
0
 62
7
  6
CONTINUOUS
 10
127.758135243
 20
240.0072674801
 11
127.7305501118
 21
239.5858074037
  0
LINE
  8
0
 62
7
  6
CONTINUOUS
 10
128.1409477298
 20
239.6856238885
 11
128.1775861489
 21
239.988317976
  0
LINE
  8
0
 62
7
  6
CONTINUOUS
 10
129.325604087
 20
238.2456241362
 11
129.7360017049
 21
238.345440621
  0
LINE
  8
0
 62
7
  6
CONTINUOUS
 10
70.7487762004
 20
237.4077394051
 11
70.4534529395
 21
237.483567096
  0
LINE
  8
0
 62
7
  6
CONTINUOUS
 10
85.2009526228
 20
248.179927502
 11
85.4478056332
 21
248.0009609985
  0
LINE
  8
0
 62
7
  6
CONTINUOUS
 10
95.096405342
 20
249.1862122683
 11
94.9037845789
 21
249.4225650972
  0
LINE
  8
0
 62
7
  6
CONTINUOUS
 10
96.6596999916
 20
251.8336011113
 11
96.8523207798
 21
251.5972480453
  0
LINE
  8
0
 62
7
  6
CONTINUOUS
 10
101.2393827853
 20
249.3669026147
 11
99.1138090212
 21
252.7449439123
  0
LINE
  8
0
 62
7
  6
CONTINUOUS
 10
97.3405815063
 20
251.7345236742
 11
97.1390003997
 21
252.0555098709
  0
LINE
  8
0
 62
7
  6
CONTINUOUS
 10
98.8701889138
 20
252.2312312958
 11
100.9968227616
 21
248.7680901682
  0
LINE
  8
LAY0001
 62
7
  6
CONTINUOUS
 10
129.7771255956
 20
172.5589941826
 11
129.7939383702
 21
172.4923081877
  0
LINE
  8
LAY0001
 62
7
  6
CONTINUOUS
 10
131.1236999749
 20
173.905568562
 11
131.1068871192
 21
173.9722544953
  0
LINE
  8
0
 62
7
  6
CONTINUOUS
 10
130.1196590771
 20
239.5793182517
 11
130.1377656145
 21
239.3417862282
  0
LINE
  8
LAY0001
 62
7
  6
CONTINUOUS
 10
129.2059157559
 20
172.1826148345
 11
129.2088119312
 21
172.1298451536
  0
LINE
  8
LAY0001
 62
7
  6
CONTINUOUS
 10
129.2923107104
 20
172.0463463743
 11
129.2894145401
 21
172.0991160503
  0
LINE
  8
LAY0001
 62
7
  6
CONTINUOUS
 10
129.9354340528
 20
172.5503051008
 11
129.9296412841
 21
172.6558440248
  0
LINE
  8
LAY0001
 62
7
  6
CONTINUOUS
 10
129.9719560773
 20
172.3641637009
 11
129.9748523903
 21
172.3113941676
  0
LINE
  8
LAY0001
 62
7
  6
CONTINUOUS
 10
130.1273682215
 20
172.4082441524
 11
130.1244717658
 21
172.4610135431
  0
LINE
  8
LAY0001
 62
7
  6
CONTINUOUS
 10
131.8004488861
 20
174.2761552792
 11
131.8033452526
 21
174.2233857994
  0
LINE
  8
LAY0001
 62
7
  6
CONTINUOUS
 10
131.9448408817
 20
174.281382659
 11
131.9390481598
 21
174.3869216298
  0
LINE
  8
0
 62
7
  6
CONTINUOUS
 10
131.3693809494
 20
240.4189963394
 11
131.3969660614
 21
240.8404563929
  0
LINE
  8
LAY0001
 62
7
  6
CONTINUOUS
 10
126.8369422157
 20
169.8136412942
 11
126.8288186704
 21
169.7220189697
  0
LINE
  8
LAY0001
 62
7
  6
CONTINUOUS
 10
127.8969939082
 20
170.1500369159
 11
127.9051177437
 21
170.241659521
  0
LINE
  8
0
 62
7
  6
CONTINUOUS
 10
130.9865684627
 20
240.7406399309
 11
130.9499271613
 21
240.437948343
  0
LINE
  8
0
 62
7
  6
CONTINUOUS
 10
124.0632394083
 20
244.8270129783
 11
123.8340575917
 21
244.7620031685
  0
LINE
  8
0
 62
7
  6
CONTINUOUS
 10
129.8657161145
 20
242.1270307592
 11
129.4553185157
 21
242.0272142972
  0
LINE
  8
0
 62
7
  6
CONTINUOUS
 10
128.6703167752
 20
240.5747541472
 11
128.9074175887
 21
240.5978579276
  0
LINE
  8
0
 62
7
  6
CONTINUOUS
 10
70.3799259719
 20
237.0701753018
 11
70.7367242233
 21
237.0506082916
  0
LINE
  8
0
 62
7
  6
CONTINUOUS
 10
73.0208886331
 20
241.5784830271
 11
73.2571494959
 21
241.5479722374
  0
LINE
  8
0
 62
7
  6
CONTINUOUS
 10
73.3608934079
 20
241.9548337249
 11
73.1246325451
 21
241.9853445146
  0
LINE
  8
0
 62
7
  6
CONTINUOUS
 10
84.0659532848
 20
246.0148298809
 11
84.2824159559
 21
245.9153587667
  0
LINE
  8
0
 62
7
  6
CONTINUOUS
 10
84.6108241127
 20
246.2231428676
 11
84.2861318822
 21
246.372350234
  0
LINE
  8
0
 62
7
  6
CONTINUOUS
 10
85.6983763835
 20
248.2789865601
 11
85.3432920428
 21
248.5076886067
  0
LINE
  8
0
 62
7
  6
CONTINUOUS
 10
86.3698794978
 20
249.2305658263
 11
87.8730334187
 21
248.2528795347
  0
LINE
  8
0
 62
7
  6
CONTINUOUS
 10
89.8559197696
 20
247.4161141536
 11
88.3527640187
 21
248.3937999077
  0
LINE
  8
0
 62
7
  6
CONTINUOUS
 10
88.1848580495
 20
248.0783709334
 11
89.3761891697
 21
247.2751937807
  0
LINE
  8
0
 62
7
  6
CONTINUOUS
 10
88.0409393543
 20
248.5683086234
 11
86.8496100978
 21
249.3714861992
  0
LINE
  8
0
 62
7
  6
CONTINUOUS
 10
94.6171049402
 20
248.9643034494
 11
94.9844276794
 21
248.6608646983
  0
LINE
  8
0
 62
7
  6
CONTINUOUS
 10
124.8775383939
 20
245.2436761488
 11
124.8295330256
 21
245.6633009809
  0
LINE
  8
0
 62
7
  6
CONTINUOUS
 10
130.5572194027
 20
239.3228342245
 11
130.5300566758
 21
239.6791347136
  0
LINE
  8
LAY0001
 62
7
  6
CONTINUOUS
 10
128.6364017038
 20
171.0564422506
 11
128.6143616921
 21
170.9787363925
  0
LINE
  8
LAY0001
 62
7
  6
CONTINUOUS
 10
128.6700275384
 20
170.9230705462
 11
128.6920675502
 21
171.0007764043
  0
LINE
  8
LAY0001
 62
7
  6
CONTINUOUS
 10
129.2894145401
 20
172.0991160503
 11
129.3224748333
 21
172.2156751326
  0
LINE
  8
LAY0001
 62
7
  6
CONTINUOUS
 10
129.7939383702
 20
172.4923081877
 11
129.7718982158
 21
172.4146021869
  0
LINE
  8
LAY0001
 62
7
  6
CONTINUOUS
 10
129.9133939179
 20
172.4725990806
 11
129.9354340528
 21
172.5503051008
  0
LINE
  8
LAY0001
 62
7
  6
CONTINUOUS
 10
130.1053279244
 20
172.330538009
 11
130.1273682215
 21
172.4082441524
  0
LINE
  8
LAY0001
 62
7
  6
CONTINUOUS
 10
131.0013481904
 20
173.9780472689
 11
130.9682878923
 21
173.8614881915
  0
LINE
  8
LAY0001
 62
7
  6
CONTINUOUS
 10
130.8557558686
 20
173.2757964154
 11
130.8337156428
 21
173.1980903433
  0
LINE
  8
LAY0001
 62
7
  6
CONTINUOUS
 10
130.8893814892
 20
173.1424244969
 11
130.911421715
 21
173.220130569
  0
LINE
  8
LAY0001
 62
7
  6
CONTINUOUS
 10
131.8033452526
 20
174.2233857994
 11
131.7702849496
 21
174.1068267269
  0
LINE
  8
0
 62
7
  6
CONTINUOUS
 10
71.1095917732
 20
237.5072160821
 11
70.7487762004
 21
237.4077394051
  0
LINE
  8
0
 62
7
  6
CONTINUOUS
 10
70.7367242233
 20
237.0506082916
 11
71.0360647914
 21
237.0938243254
  0
LINE
  8
0
 62
7
  6
CONTINUOUS
 10
123.6528844548
 20
244.2773666326
 11
124.0689925336
 21
244.3335109327
  0
LINE
  8
0
 62
7
  6
CONTINUOUS
 10
73.1246325451
 20
241.9853445146
 11
72.8229236619
 21
241.9642701556
  0
LINE
  8
0
 62
7
  6
CONTINUOUS
 10
129.3531892182
 20
238.6670842126
 11
129.0522843765
 21
238.6975893334
  0
LINE
  8
0
 62
7
  6
CONTINUOUS
 10
128.9074175887
 20
240.5978579276
 11
129.2083195097
 21
240.5673552607
  0
LINE
  8
0
 62
7
  6
CONTINUOUS
 10
129.4182575964
 20
240.9467595302
 11
128.8164537543
 21
241.007764864
  0
LINE
  8
0
 62
7
  6
CONTINUOUS
 10
129.8381310025
 20
241.7055707057
 11
130.1390329235
 21
241.6750680388
  0
LINE
  8
0
 62
7
  6
CONTINUOUS
 10
84.79689286
 20
246.203165836
 11
84.6108241127
 21
246.2231428676
  0
LINE
  8
0
 62
7
  6
CONTINUOUS
 10
128.8423491769
 20
238.31818257
 11
129.325604087
 21
238.2456241362
  0
LINE
  8
0
 62
7
  6
CONTINUOUS
 10
85.3432920428
 20
248.5076886067
 11
84.8629232178
 21
248.5973782132
  0
LINE
  8
0
 62
7
  6
CONTINUOUS
 10
84.2824159559
 20
245.9153587667
 11
84.5767160388
 21
245.8456461779
  0
LINE
  8
0
 62
7
  6
CONTINUOUS
 10
84.9066525452
 20
248.2496400768
 11
85.2009526228
 21
248.179927502
  0
LINE
  8
0
 62
7
  6
CONTINUOUS
 10
94.9844276794
 20
248.6608646983
 11
95.3338278341
 21
248.5266924893
  0
LINE
  8
0
 62
7
  6
CONTINUOUS
 10
95.3629365827
 20
249.0432664855
 11
95.096405342
 21
249.1862122683
  0
LINE
  8
0
 62
7
  6
CONTINUOUS
 10
96.3931687573
 20
251.9765468349
 11
96.6596999916
 21
251.8336011113
  0
LINE
  8
0
 62
7
  6
CONTINUOUS
 10
97.1390003997
 20
252.0555098709
 11
96.7716776637
 21
252.3589485924
  0
LINE
  8
0
 62
7
  6
CONTINUOUS
 10
124.8295330256
 20
245.6633009809
 11
124.6669384047
 21
246.0504199612
  0
LINE
  8
0
 62
7
  6
CONTINUOUS
 10
127.7305501118
 20
239.5858074037
 11
127.8853179601
 21
239.122291549
  0
LINE
  8
0
 62
7
  6
CONTINUOUS
 10
128.2228582954
 20
239.3944829638
 11
128.1409477298
 21
239.6856238885
  0
LINE
  8
0
 62
7
  6
CONTINUOUS
 10
130.0377455908
 20
239.8704616303
 11
130.1196590771
 21
239.5793182517
  0
LINE
  8
0
 62
7
  6
CONTINUOUS
 10
130.904657897
 20
241.0317808556
 11
130.9865684627
 21
240.7406399309
  0
LINE
  8
0
 62
7
  6
CONTINUOUS
 10
124.3833368688
 20
245.7224071497
 11
124.4435097134
 21
245.4919081059
  0
LINE
  8
LAY0001
 62
7
  6
CONTINUOUS
 10
131.9228006827
 20
174.2036766136
 11
131.9448408817
 21
174.281382659
  0
LINE
  8
LAY0001
 62
7
  6
CONTINUOUS
 10
128.6143616921
 20
170.9787363925
 11
128.5673849275
 21
170.8760937816
  0
LINE
  8
LAY0001
 62
7
  6
CONTINUOUS
 10
129.2528925169
 20
172.285257449
 11
129.2059157559
 21
172.1826148345
  0
LINE
  8
LAY0001
 62
7
  6
CONTINUOUS
 10
128.6230507739
 20
170.8204279353
 11
128.6700275384
 21
170.9230705462
  0
LINE
  8
LAY0001
 62
7
  6
CONTINUOUS
 10
131.1068871192
 20
173.9722544953
 11
131.1538639194
 21
174.0748971419
  0
LINE
  8
LAY0001
 62
7
  6
CONTINUOUS
 10
130.8337156428
 20
173.1980903433
 11
130.7867389496
 21
173.0954478037
  0
LINE
  8
LAY0001
 62
7
  6
CONTINUOUS
 10
130.842404796
 20
173.0397819573
 11
130.8893814892
 21
173.1424244969
  0
LINE
  8
LAY0001
 62
7
  6
CONTINUOUS
 10
131.8758239092
 20
174.1010339938
 11
131.9228006827
 21
174.2036766136
  0
LINE
  8
LAY0001
 62
7
  6
CONTINUOUS
 10
126.9088554441
 20
169.9412203762
 11
126.8369422157
 21
169.8136412942
  0
LINE
  8
LAY0001
 62
7
  6
CONTINUOUS
 10
126.9784377605
 20
169.8716380598
 11
127.0143945192
 21
169.9354277416
  0
LINE
  8
LAY0001
 62
7
  6
CONTINUOUS
 10
127.7554983682
 20
170.0920401455
 11
127.7195416096
 21
170.0282504636
  0
LINE
  8
LAY0001
 62
7
  6
CONTINUOUS
 10
127.8250806762
 20
170.0224578376
 11
127.8969939082
 21
170.1500369159
  0
LINE
  8
LAY0001
 62
7
  6
CONTINUOUS
 10
129.7718982158
 20
172.4146021869
 11
129.7359415998
 21
172.3508126478
  0
LINE
  8
LAY0001
 62
7
  6
CONTINUOUS
 10
129.8414805432
 20
172.3450198595
 11
129.9133939179
 21
172.4725990806
  0
LINE
  8
LAY0001
 62
7
  6
CONTINUOUS
 10
129.9748523903
 20
172.3113941676
 11
129.9388957743
 21
172.2476046284
  0
LINE
  8
LAY0001
 62
7
  6
CONTINUOUS
 10
131.0732614901
 20
174.1056264223
 11
131.0013481904
 21
173.9780472689
  0
LINE
  8
LAY0001
 62
7
  6
CONTINUOUS
 10
130.0693713084
 20
172.2667484698
 11
130.1053279244
 21
172.330538009
  0
LINE
  8
LAY0001
 62
7
  6
CONTINUOUS
 10
131.7702849496
 20
174.1068267269
 11
131.7343282801
 21
174.0430371342
  0
LINE
  8
LAY0001
 62
7
  6
CONTINUOUS
 10
129.3224748333
 20
172.2156751326
 11
129.4193246706
 21
172.3681908259
  0
LINE
  8
LAY0001
 62
7
  6
CONTINUOUS
 10
131.8149306831
 20
174.0123078445
 11
131.8758239092
 21
174.1010339938
  0
LINE
  8
LAY0001
 62
7
  6
CONTINUOUS
 10
127.0143945192
 20
169.9354277416
 11
127.100224208
 21
170.0490903633
  0
LINE
  8
LAY0001
 62
7
  6
CONTINUOUS
 10
127.7195416096
 20
170.0282504636
 11
127.6337119159
 21
169.9145878468
  0
LINE
  8
LAY0001
 62
7
  6
CONTINUOUS
 10
128.5673849275
 20
170.8760937816
 11
128.4815549485
 21
170.7624308794
  0
LINE
  8
LAY0001
 62
7
  6
CONTINUOUS
 10
129.7359415998
 20
172.3508126478
 11
129.6501117635
 21
172.2371498883
  0
LINE
  8
LAY0001
 62
7
  6
CONTINUOUS
 10
128.5372207949
 20
170.7067650331
 11
128.6230507739
 21
170.8204279353
  0
LINE
  8
LAY0001
 62
7
  6
CONTINUOUS
 10
129.9388957743
 20
172.2476046284
 11
129.853065938
 21
172.1339418689
  0
LINE
  8
LAY0001
 62
7
  6
CONTINUOUS
 10
130.7867389496
 20
173.0954478037
 11
130.7009091133
 21
172.9817850442
  0
LINE
  8
LAY0001
 62
7
  6
CONTINUOUS
 10
130.7565749597
 20
172.9261191979
 11
130.842404796
 21
173.0397819573
  0
LINE
  8
LAY0001
 62
7
  6
CONTINUOUS
 10
131.7343282801
 20
174.0430371342
 11
131.6484984795
 21
173.9293744104
  0
LINE
  8
LAY0001
 62
7
  6
CONTINUOUS
 10
129.3636588194
 20
172.4238566772
 11
129.2528925169
 21
172.285257449
  0
LINE
  8
LAY0001
 62
7
  6
CONTINUOUS
 10
127.0445583567
 20
170.1047562145
 11
126.9088554441
 21
169.9412203762
  0
LINE
  8
LAY0001
 62
7
  6
CONTINUOUS
 10
127.6893777623
 20
169.8589220005
 11
127.8250806762
 21
170.0224578376
  0
LINE
  8
LAY0001
 62
7
  6
CONTINUOUS
 10
129.7057776293
 20
172.1814840224
 11
129.8414805432
 21
172.3450198595
  0
LINE
  8
LAY0001
 62
7
  6
CONTINUOUS
 10
131.679227787
 20
173.8487720252
 11
131.8149306831
 21
174.0123078445
  0
LINE
  8
LAY0001
 62
7
  6
CONTINUOUS
 10
131.2339009772
 20
174.294098835
 11
131.0732614901
 21
174.1056264223
  0
LINE
  8
LAY0001
 62
7
  6
CONTINUOUS
 10
131.1538639194
 20
174.0748971419
 11
131.3145033673
 21
174.2633695226
  0
LINE
  8
LAY0001
 62
7
  6
CONTINUOUS
 10
129.9087317844
 20
172.0782760226
 11
130.0693713084
 21
172.2667484698
  0
LINE
  8
LAY0001
 62
7
  6
CONTINUOUS
 10
130.6603600498
 20
173.7205579076
 11
130.5356772131
 21
173.5958750709
  0
LINE
  8
LAY0001
 62
7
  6
CONTINUOUS
 10
130.0868190867
 20
173.1470169444
 11
129.9621363213
 21
173.0223341791
  0
LINE
  8
LAY0001
 62
7
  6
CONTINUOUS
 10
129.5132781949
 20
172.5734760527
 11
129.3636588194
 21
172.4238566772
  0
LINE
  8
LAY0001
 62
7
  6
CONTINUOUS
 10
129.0893566786
 20
172.1495545364
 11
128.9646737705
 21
172.0248716283
  0
LINE
  8
LAY0001
 62
7
  6
CONTINUOUS
 10
128.7651811748
 20
171.8253790326
 11
128.6404985521
 21
171.7006964099
  0
LINE
  8
LAY0001
 62
7
  6
CONTINUOUS
 10
128.4410059564
 20
171.5012038141
 11
128.3163230483
 21
171.3765209061
  0
LINE
  8
LAY0001
 62
7
  6
CONTINUOUS
 10
127.8674649219
 20
170.9276627797
 11
127.7427822992
 21
170.802980157
  0
LINE
  8
LAY0001
 62
7
  6
CONTINUOUS
 10
127.1941777322
 20
170.25437559
 11
127.0445583567
 21
170.1047562145
  0
LINE
  8
LAY0001
 62
7
  6
CONTINUOUS
 10
127.100224208
 20
170.0490903633
 11
127.2498435834
 21
170.1987097388
  0
LINE
  8
LAY0001
 62
7
  6
CONTINUOUS
 10
129.4193246706
 20
172.3681908259
 11
129.5689440461
 21
172.5178102014
  0
LINE
  8
LAY0001
 62
7
  6
CONTINUOUS
 10
127.5299384979
 20
170.3674729508
 11
127.6546214059
 21
170.4921558588
  0
LINE
  8
LAY0001
 62
7
  6
CONTINUOUS
 10
130.9990171382
 20
173.7808857253
 11
131.1236999749
 21
173.905568562
  0
LINE
  8
LAY0001
 62
7
  6
CONTINUOUS
 10
129.6501117635
 20
172.2371498883
 11
129.37580948
 21
171.9628476048
  0
LINE
  8
LAY0001
 62
7
  6
CONTINUOUS
 10
129.4314753458
 20
171.9071817389
 11
129.7057776293
 21
172.1814840224
  0
LINE
  8
LAY0001
 62
7
  6
CONTINUOUS
 10
131.2906975335
 20
173.7385710034
 11
131.1660146968
 21
173.6138881667
  0
LINE
  8
LAY0001
 62
7
  6
CONTINUOUS
 10
130.0966388426
 20
172.4888464662
 11
129.9719560773
 21
172.3641637009
  0
LINE
  8
LAY0001
 62
7
  6
CONTINUOUS
 10
127.2039976309
 20
169.5962052545
 11
127.0793150082
 21
169.4715226318
  0
LINE
  8
LAY0001
 62
7
  6
CONTINUOUS
 10
129.853065938
 20
172.1339418689
 11
129.7034465625
 21
171.9843224934
  0
LINE
  8
LAY0001
 62
7
  6
CONTINUOUS
 10
127.6337119159
 20
169.9145878468
 11
127.4840925405
 21
169.7649684714
  0
LINE
  8
LAY0001
 62
7
  6
CONTINUOUS
 10
127.5397583868
 20
169.709302625
 11
127.6893777623
 21
169.8589220005
  0
LINE
  8
LAY0001
 62
7
  6
CONTINUOUS
 10
128.4374746397
 20
170.6070188779
 11
128.5372207949
 21
170.7067650331
  0
LINE
  8
LAY0001
 62
7
  6
CONTINUOUS
 10
128.7616498581
 20
170.9311940963
 11
128.8863327661
 21
171.0558770043
  0
LINE
  8
LAY0001
 62
7
  6
CONTINUOUS
 10
129.0858253619
 20
171.2553696001
 11
129.2105079846
 21
171.3800522228
  0
LINE
  8
LAY0001
 62
7
  6
CONTINUOUS
 10
129.7591124089
 20
171.9286566471
 11
129.9087317844
 21
172.0782760226
  0
LINE
  8
LAY0001
 62
7
  6
CONTINUOUS
 10
130.6568286618
 20
172.8263729
 11
130.7565749597
 21
172.9261191979
  0
LINE
  8
LAY0001
 62
7
  6
CONTINUOUS
 10
129.3496726394
 20
171.2408875679
 11
129.2249900168
 21
171.1162049452
  0
LINE
  8
LAY0001
 62
7
  6
CONTINUOUS
 10
129.2945723247
 20
171.0466226373
 11
129.4192549474
 21
171.17130526
  0
LINE
  8
LAY0001
 62
7
  6
CONTINUOUS
 10
131.1897509857
 20
172.9418012983
 11
131.3144338224
 21
173.066484135
  0
LINE
  8
LAY0001
 62
7
  6
CONTINUOUS
 10
131.7285332073
 20
173.2330961465
 11
131.5505766884
 21
173.0551396275
  0
LINE
  8
LAY0001
 62
7
  6
CONTINUOUS
 10
131.0214264261
 20
172.5259893653
 11
130.4203856621
 21
171.9249486013
  0
LINE
  8
LAY0001
 62
7
  6
CONTINUOUS
 10
130.2789643059
 20
171.7835272451
 11
129.6779235419
 21
171.1824864811
  0
LINE
  8
LAY0001
 62
7
  6
CONTINUOUS
 10
128.8647507435
 20
170.3693136827
 11
128.2637099795
 21
169.7682729187
  0
LINE
  8
LAY0001
 62
7
  6
CONTINUOUS
 10
128.1222886233
 20
169.6268515625
 11
127.5212478593
 21
169.0258107984
  0
LINE
  8
LAY0001
 62
7
  6
CONTINUOUS
 10
131.6484984795
 20
173.9293744104
 11
131.4600261036
 21
173.7687349577
  0
LINE
  8
LAY0001
 62
7
  6
CONTINUOUS
 10
131.4907553755
 20
173.6881325369
 11
131.679227787
 21
173.8487720252
  0
LINE
  8
LAY0001
 62
7
  6
CONTINUOUS
 10
131.3974367977
 20
174.4298017299
 11
131.2339009772
 21
174.294098835
  0
LINE
  8
LAY0001
 62
7
  6
CONTINUOUS
 10
127.3577135705
 20
170.3900785027
 11
127.1941777322
 21
170.25437559
  0
LINE
  8
LAY0001
 62
7
  6
CONTINUOUS
 10
127.2498435834
 20
170.1987097388
 11
127.4133794254
 21
170.3344126478
  0
LINE
  8
LAY0001
 62
7
  6
CONTINUOUS
 10
129.5955767145
 20
171.7929538759
 11
129.7591124089
 21
171.9286566471
  0
LINE
  8
LAY0001
 62
7
  6
CONTINUOUS
 10
127.4840925405
 20
169.7649684714
 11
127.3205567034
 21
169.6292655575
  0
LINE
  8
LAY0001
 62
7
  6
CONTINUOUS
 10
127.3762225497
 20
169.5735997111
 11
127.5397583868
 21
169.709302625
  0
LINE
  8
LAY0001
 62
7
  6
CONTINUOUS
 10
129.6269408129
 20
172.659305745
 11
129.5132781949
 21
172.5734760527
  0
LINE
  8
LAY0001
 62
7
  6
CONTINUOUS
 10
130.7009091133
 20
172.9817850442
 11
130.5872463538
 21
172.8959552079
  0
LINE
  8
LAY0001
 62
7
  6
CONTINUOUS
 10
129.7034465625
 20
171.9843224934
 11
129.5897838031
 21
171.8984926571
  0
LINE
  8
LAY0001
 62
7
  6
CONTINUOUS
 10
128.4815549485
 20
170.7624308794
 11
128.3678923318
 21
170.6766011858
  0
LINE
  8
LAY0001
 62
7
  6
CONTINUOUS
 10
127.6302501945
 20
170.2172883193
 11
127.1367462275
 21
169.8629489682
  0
LINE
  8
LAY0001
 62
7
  6
CONTINUOUS
 10
127.1036859246
 20
169.7463898957
 11
127.597189911
 21
170.1007292273
  0
LINE
  8
LAY0001
 62
7
  6
CONTINUOUS
 10
131.4861629482
 20
174.4906949548
 11
131.3974367977
 21
174.4298017299
  0
LINE
  8
LAY0001
 62
7
  6
CONTINUOUS
 10
131.3145033673
 20
174.2633695226
 11
131.4919556886
 21
174.3851559879
  0
LINE
  8
LAY0001
 62
7
  6
CONTINUOUS
 10
130.5681025125
 20
172.7654796738
 11
130.6568286618
 21
172.8263729
  0
LINE
  8
LAY0001
 62
7
  6
CONTINUOUS
 10
127.446439721
 20
170.4509717276
 11
127.3577135705
 21
170.3900785027
  0
LINE
  8
LAY0001
 62
7
  6
CONTINUOUS
 10
128.3487484904
 20
170.5461256517
 11
128.4374746397
 21
170.6070188779
  0
LINE
  8
LAY0001
 62
7
  6
CONTINUOUS
 10
127.2874964004
 20
169.512706485
 11
127.3762225497
 21
169.5735997111
  0
LINE
  8
LAY0001
 62
7
  6
CONTINUOUS
 10
129.690730496
 20
172.6952625025
 11
129.6269408129
 21
172.659305745
  0
LINE
  8
LAY0001
 62
7
  6
CONTINUOUS
 10
131.3631762258
 20
173.6162192335
 11
131.4907553755
 21
173.6881325369
  0
LINE
  8
LAY0001
 62
7
  6
CONTINUOUS
 10
129.5689440461
 20
172.5178102014
 11
129.6965231293
 21
172.5897234286
  0
LINE
  8
LAY0001
 62
7
  6
CONTINUOUS
 10
130.5872463538
 20
172.8959552079
 11
130.5234568147
 21
172.8599985919
  0
LINE
  8
LAY0001
 62
7
  6
CONTINUOUS
 10
129.5897838031
 20
171.8984926571
 11
129.5259944066
 21
171.8625361838
  0
LINE
  8
LAY0001
 62
7
  6
CONTINUOUS
 10
127.4133794254
 20
170.3344126478
 11
127.4771691073
 21
170.3703694065
  0
LINE
  8
LAY0001
 62
7
  6
CONTINUOUS
 10
128.3678923318
 20
170.6766011858
 11
128.3041026499
 21
170.6406444271
  0
LINE
  8
LAY0001
 62
7
  6
CONTINUOUS
 10
127.3205567034
 20
169.6292655575
 11
127.2567670215
 21
169.5933087988
  0
LINE
  8
LAY0001
 62
7
  6
CONTINUOUS
 10
131.5888055705
 20
174.5376717258
 11
131.4861629482
 21
174.4906949548
  0
LINE
  8
LAY0001
 62
7
  6
CONTINUOUS
 10
131.4600261036
 20
173.7687349577
 11
131.357383457
 21
173.7217581574
  0
LINE
  8
LAY0001
 62
7
  6
CONTINUOUS
 10
130.4654599015
 20
172.7185029093
 11
130.5681025125
 21
172.7654796738
  0
LINE
  8
LAY0001
 62
7
  6
CONTINUOUS
 10
129.4929341036
 20
171.7459771113
 11
129.5955767145
 21
171.7929538759
  0
LINE
  8
LAY0001
 62
7
  6
CONTINUOUS
 10
127.5490823344
 20
170.4979484897
 11
127.446439721
 21
170.4509717276
  0
LINE
  8
LAY0001
 62
7
  6
CONTINUOUS
 10
128.2461058795
 20
170.4991488872
 11
128.3487484904
 21
170.5461256517
  0
LINE
  8
LAY0001
 62
7
  6
CONTINUOUS
 10
127.597189911
 20
170.1007292273
 11
127.6998325219
 21
170.1477059918
  0
LINE
  8
LAY0001
 62
7
  6
CONTINUOUS
 10
127.1367462275
 20
169.8629489682
 11
127.0341036166
 21
169.8159722037
  0
LINE
  8
LAY0001
 62
7
  6
CONTINUOUS
 10
127.1848537895
 20
169.4657297204
 11
127.2874964004
 21
169.512706485
  0
LINE
  8
LAY0001
 62
7
  6
CONTINUOUS
 10
127.7717457539
 20
170.2752850702
 11
127.6302501945
 21
170.2172883193
  0
LINE
  8
LAY0001
 62
7
  6
CONTINUOUS
 10
126.9621903846
 20
169.6883931253
 11
127.1036859246
 21
169.7463898957
  0
LINE
  8
0
 62
7
  6
CONTINUOUS
 10
101.1158348351
 20
159.4626767681
 11
88.6158348351
 21
155.7600080811
  0
LINE
  8
0
 62
7
  6
CONTINUOUS
 10
84.8406239876
 20
245.855428332
 11
85.338047751
 21
245.9544873831
  0
LINE
  8
0
 62
7
  6
CONTINUOUS
 10
84.4092287845
 20
248.1505810188
 11
84.9066525452
 21
248.2496400768
  0
LINE
  8
0
 62
7
  6
CONTINUOUS
 10
84.8629232178
 20
248.5973782132
 11
84.3654994571
 21
248.4983191551
  0
LINE
  8
0
 62
7
  6
CONTINUOUS
 10
72.8373103686
 20
241.5421534208
 11
73.0208886331
 21
241.5784830271
  0
LINE
  8
0
 62
7
  6
CONTINUOUS
 10
85.1386400155
 20
246.2427071619
 11
84.79689286
 21
246.203165836
  0
LINE
  8
0
 62
7
  6
CONTINUOUS
 10
95.7571403553
 20
248.4859276013
 11
96.4201011831
 21
248.5561168998
  0
LINE
  8
0
 62
7
  6
CONTINUOUS
 10
96.3663391161
 20
249.0639171657
 11
95.7033782884
 21
248.9937278673
  0
LINE
  8
0
 62
7
  6
CONTINUOUS
 10
95.3897662238
 20
251.9558961546
 11
96.0527270516
 21
252.026085453
  0
LINE
  8
0
 62
7
  6
CONTINUOUS
 10
84.5767160388
 20
245.8456461779
 11
84.8406239876
 21
245.855428332
  0
LINE
  8
0
 62
7
  6
CONTINUOUS
 10
98.4136911113
 20
248.7359122447
 11
98.913652322
 21
248.7421402329
  0
LINE
  8
0
 62
7
  6
CONTINUOUS
 10
100.9968227616
 20
248.7680901682
 11
101.7467645776
 21
248.7774321506
  0
LINE
  8
0
 62
7
  6
CONTINUOUS
 10
102.4147252952
 20
248.7485413558
 11
105.4059073535
 21
248.5186938101
  0
LINE
  8
0
 62
7
  6
CONTINUOUS
 10
105.4450303399
 20
249.0278311804
 11
102.9523786247
 21
249.2193708019
  0
LINE
  8
0
 62
7
  6
CONTINUOUS
 10
103.0567065899
 20
250.577070476
 11
105.217006011
 21
250.4110693733
  0
LINE
  8
0
 62
7
  6
CONTINUOUS
 10
105.2561289928
 20
250.9202066842
 11
103.0958295718
 21
251.0862077869
  0
LINE
  8
0
 62
7
  6
CONTINUOUS
 10
103.1805960507
 20
252.189338865
 11
105.673247766
 21
251.9977992435
  0
LINE
  8
0
 62
7
  6
CONTINUOUS
 10
95.3338278341
 20
248.5266924893
 11
95.7571403553
 21
248.4859276013
  0
LINE
  8
0
 62
7
  6
CONTINUOUS
 10
96.4222756146
 20
252.4931205783
 11
95.9989649909
 21
252.5338856597
  0
LINE
  8
0
 62
7
  6
CONTINUOUS
 10
95.7033782884
 20
248.9937278673
 11
95.3629365827
 21
249.0432664855
  0
LINE
  8
0
 62
7
  6
CONTINUOUS
 10
96.0527270516
 20
252.026085453
 11
96.3931687573
 21
251.9765468349
  0
LINE
  8
0
 62
7
  6
CONTINUOUS
 10
130.3489710102
 20
242.0544723083
 11
129.8657161145
 21
242.1270307592
  0
LINE
  8
0
 62
7
  6
CONTINUOUS
 10
123.8340575917
 20
244.7620031685
 11
123.5747910085
 21
244.8122419336
  0
LINE
  8
0
 62
7
  6
CONTINUOUS
 10
110.0118477283
 20
247.7539685679
 11
113.2341199075
 21
246.9007015304
  0
LINE
  8
0
 62
7
  6
CONTINUOUS
 10
113.3648332053
 20
247.3943263917
 11
110.6259020374
 21
248.1196033248
  0
LINE
  8
0
 62
7
  6
CONTINUOUS
 10
123.248940541
 20
244.4103500147
 11
123.6528844548
 21
244.2773666326
  0
LINE
  8
0
 62
7
  6
CONTINUOUS
 10
114.3360491676
 20
246.5123787934
 11
114.8099139433
 21
246.3528414174
  0
LINE
  8
0
 62
7
  6
CONTINUOUS
 10
115.9048958345
 20
245.9501139998
 11
116.3722226475
 21
245.7723342207
  0
LINE
  8
0
 62
7
  6
CONTINUOUS
 10
96.7716776637
 20
252.3589485924
 11
96.4222756146
 21
252.4931205783
  0
LINE
  8
0
 62
7
  6
CONTINUOUS
 10
129.0522843765
 20
238.6975893334
 11
128.8061302943
 21
238.7932515648
  0
LINE
  8
0
 62
7
  6
CONTINUOUS
 10
129.2083195097
 20
240.5673552607
 11
129.454473592
 21
240.4716930294
  0
LINE
  8
0
 62
7
  6
CONTINUOUS
 10
130.1390329235
 20
241.6750680388
 11
130.3851870057
 21
241.5794058074
  0
LINE
  8
0
 62
7
  6
CONTINUOUS
 10
128.4685899541
 20
238.5210601442
 11
128.8423491769
 21
238.31818257
  0
LINE
  8
0
 62
7
  6
CONTINUOUS
 10
129.7920138938
 20
240.7438844043
 11
129.4182575964
 21
240.9467595302
  0
LINE
  8
0
 62
7
  6
CONTINUOUS
 10
130.7227273076
 20
241.8515971823
 11
130.3489710102
 21
242.0544723083
  0
LINE
  8
0
 62
7
  6
CONTINUOUS
 10
120.6255285982
 20
243.8518561547
 11
121.0595572786
 21
243.6036241976
  0
LINE
  8
0
 62
7
  6
CONTINUOUS
 10
121.9468544995
 20
245.155045886
 11
123.248940541
 21
244.4103500147
  0
LINE
  8
0
 62
7
  6
CONTINUOUS
 10
123.5747910085
 20
244.8122419336
 11
122.2003679574
 21
245.5983091664
  0
LINE
  8
0
 62
7
  6
CONTINUOUS
 10
123.8699041363
 20
241.9681016044
 11
124.2798321725
 21
241.6818167722
  0
LINE
  8
0
 62
7
  6
CONTINUOUS
 10
126.1928286323
 20
240.3458216168
 11
126.6027566685
 21
240.0595367846
  0
LINE
  8
0
 62
7
  6
CONTINUOUS
 10
125.1378684837
 20
242.328260762
 11
126.5042963135
 21
241.3739772601
  0
LINE
  8
0
 62
7
  6
CONTINUOUS
 10
126.630893326
 20
241.700790577
 11
125.4011092174
 21
242.5596450735
  0
LINE
  8
0
 62
7
  6
CONTINUOUS
 10
128.149578575
 20
238.7890972885
 11
128.4685899541
 21
238.5210601442
  0
LINE
  8
0
 62
7
  6
CONTINUOUS
 10
128.8061302943
 20
238.7932515648
 11
128.3595167
 21
239.1685016036
  0
LINE
  8
0
 62
7
  6
CONTINUOUS
 10
129.454473592
 20
240.4716930294
 11
129.9010871863
 21
240.0964429905
  0
LINE
  8
0
 62
7
  6
CONTINUOUS
 10
130.1110252729
 20
240.47584726
 11
129.7920138938
 21
240.7438844043
  0
LINE
  8
0
 62
7
  6
CONTINUOUS
 10
140.4604998796
 20
229.3416864395
 11
149.9171050243
 21
220.3677032357
  0
LINE
  8
0
 62
7
  6
CONTINUOUS
 10
124.2085747715
 20
245.9204003416
 11
124.3833368688
 21
245.7224071497
  0
LINE
  8
0
 62
7
  6
CONTINUOUS
 10
127.8853179601
 20
239.122291549
 11
128.149578575
 21
238.7890972885
  0
LINE
  8
0
 62
7
  6
CONTINUOUS
 10
130.3752888132
 20
240.1426505513
 11
130.1110252729
 21
240.47584726
  0
LINE
  8
0
 62
7
  6
CONTINUOUS
 10
128.3595167
 20
239.1685016036
 11
128.2228582954
 21
239.3944829638
  0
LINE
  8
0
 62
7
  6
CONTINUOUS
 10
129.9010871863
 20
240.0964429905
 11
130.0377455908
 21
239.8704616303
  0
LINE
  8
0
 62
7
  6
CONTINUOUS
 10
130.7679994925
 20
241.2577622158
 11
130.904657897
 21
241.0317808556
  0
LINE
  8
0
 62
7
  6
CONTINUOUS
 10
130.5300566758
 20
239.6791347136
 11
130.3752888132
 21
240.1426505513
  0
LINE
  8
0
 62
7
  6
CONTINUOUS
 10
131.3969660614
 20
240.8404563929
 11
131.2421981988
 21
241.3039722305
  0
LINE
  8
LAY0001
 62
7
  6
CONTINUOUS
 10
131.8699545636
 20
172.3845680091
 11
132.152797276
 21
172.6674107216
  0
LINE
  8
LAY0001
 62
7
  6
CONTINUOUS
 10
130.4557410012
 20
169.6975622406
 11
130.1728982887
 21
169.4147195281
  0
LINE
  8
LAY0001
 62
7
  6
CONTINUOUS
 10
129.147593456
 20
167.3994652017
 11
129.74863422
 21
168.0005059657
  0
LINE
  8
LAY0001
 62
7
  6
CONTINUOUS
 10
130.5971623574
 20
168.8490341031
 11
130.7751188764
 21
169.0269906221
  0
LINE
  8
LAY0001
 62
7
  6
CONTINUOUS
 10
131.3042691386
 20
169.5561408843
 11
131.9053099026
 21
170.1571816483
  0
LINE
  8
LAY0001
 62
7
  6
CONTINUOUS
 10
132.0467312589
 20
170.2986030046
 11
132.6477720229
 21
170.8996437686
  0
LINE
  8
LAY0001
 62
7
  6
CONTINUOUS
 10
133.4609448212
 20
171.712816567
 11
134.0619855852
 21
172.313857331
  0
LINE
  8
0
 62
7
  6
CONTINUOUS
 10
95.9989649909
 20
252.5338856597
 11
95.3360041631
 21
252.4636963613
  0
LINE
  8
0
 62
7
  6
CONTINUOUS
 10
101.6969406715
 20
252.7771218359
 11
101.1969794608
 21
252.7708938476
  0
LINE
  8
0
 62
7
  6
CONTINUOUS
 10
99.1138090212
 20
252.7449439123
 11
98.3638672052
 21
252.7356019299
  0
LINE
  8
0
 62
7
  6
CONTINUOUS
 10
105.7123707478
 20
252.5069365544
 11
102.7211886895
 21
252.7367841002
  0
LINE
  8
0
 62
7
  6
CONTINUOUS
 10
110.9268408284
 20
251.2093426549
 11
113.7463276024
 21
250.4627343632
  0
LINE
  8
0
 62
7
  6
CONTINUOUS
 10
114.2580407431
 20
250.7674296205
 11
111.0357685639
 21
251.620696658
  0
LINE
  8
0
 62
7
  6
CONTINUOUS
 10
116.086212951
 20
250.1437596232
 11
115.6123481753
 21
250.3032969992
  0
LINE
  8
0
 62
7
  6
CONTINUOUS
 10
117.79446088
 20
249.5109487248
 11
117.327134067
 21
249.6887285038
  0
LINE
  8
0
 62
7
  6
CONTINUOUS
 10
122.8341517204
 20
246.7064675744
 11
124.2085747715
 21
245.9204003416
  0
LINE
  8
0
 62
7
  6
CONTINUOUS
 10
124.3474989768
 20
246.3311577702
 11
122.6113842548
 21
247.3240855985
  0
LINE
  8
0
 62
7
  6
CONTINUOUS
 10
127.7998949386
 20
244.1023865653
 11
127.2533231811
 21
244.4841004029
  0
LINE
  8
0
 62
7
  6
CONTINUOUS
 10
130.9499271613
 20
240.437948343
 11
131.2689414611
 21
240.1699087448
  0
LINE
  8
0
 62
7
  6
CONTINUOUS
 10
130.3851870057
 20
241.5794058074
 11
130.7679994925
 21
241.2577622158
  0
LINE
  8
0
 62
7
  6
CONTINUOUS
 10
130.9779375791
 20
241.6371664853
 11
130.7227273076
 21
241.8515971823
  0
LINE
  8
0
 62
7
  6
CONTINUOUS
 10
124.6669384047
 20
246.0504199612
 11
124.3474989768
 21
246.3311577702
  0
LINE
  8
0
 62
7
  6
CONTINUOUS
 10
131.2421981988
 20
241.3039722305
 11
130.9779375791
 21
241.6371664853
  0
LINE
  8
0
 62
7
  6
CONTINUOUS
 10
137.0510796206
 20
240.6523129265
 11
142.8010796206
 21
230.693020783
  0
LINE
  8
0
 62
7
  6
CONTINUOUS
 10
144.5331304281
 20
231.693020783
 11
138.7831304281
 21
241.6523129265
  0
LINE
  8
0
 62
7
  6
CONTINUOUS
 10
149.9171050243
 20
220.3677032357
 11
146.8737101691
 21
233.0443551265
  0
LINE
  8
0
 62
7
  6
CONTINUOUS
 10
155.3344854371
 20
200.9235035274
 11
156.7576338198
 21
210.8217179462
  0
LINE
  8
0
 62
7
  6
CONTINUOUS
 10
155.3028312564
 20
197.1900067733
 11
155.6411316705
 21
199.5429378362
  0
LINE
  8
0
 62
7
  6
CONTINUOUS
 10
157.4408093758
 20
212.0599712159
 11
157.8218038939
 21
214.7098462946
  0
LINE
  8
0
 62
7
  6
CONTINUOUS
 10
144.0332811903
 20
172.1081455472
 11
150.5818885297
 21
179.6656412908
  0
LINE
  8
0
 62
7
  6
CONTINUOUS
 10
141.9881712619
 20
168.9844417552
 11
143.5448603238
 21
170.780956701
  0
LINE
  8
0
 62
7
  6
CONTINUOUS
 10
151.8260626396
 20
180.3379736374
 11
153.5792062527
 21
182.3612092212
  0
LINE
  8
0
 62
7
  6
CONTINUOUS
 10
118.9473444987
 20
153.9770161489
 11
128.5422742349
 21
156.7943417173
  0
LINE
  8
0
 62
7
  6
CONTINUOUS
 10
115.5380867748
 20
152.4548592017
 11
117.8189213875
 21
153.12457267
  0
LINE
  8
0
 62
7
  6
CONTINUOUS
 10
129.9524273117
 20
156.6872914616
 11
132.5211124077
 21
157.4415254578
  0
LINE
  8
0
 62
7
  6
CONTINUOUS
 10
97.6158348351
 20
260.6100080811
 11
87.6158348351
 21
260.6100080811
  0
LINE
  8
0
 62
7
  6
CONTINUOUS
 10
101.3158348351
 20
261.1100080811
 11
98.9387086781
 21
261.1100080811
  0
LINE
  8
0
 62
7
  6
CONTINUOUS
 10
86.2929591796
 20
261.1100080811
 11
83.6158348351
 21
261.1100080811
  0
LINE
  8
0
 62
7
  6
CONTINUOUS
 10
127.7462230741
 20
253.5246868092
 11
119.3336877458
 21
258.9310949838
  0
LINE
  8
0
 62
7
  6
CONTINUOUS
 10
131.1291815543
 20
251.9449425511
 11
129.1294134118
 21
253.2301154996
  0
LINE
  8
0
 62
7
  6
CONTINUOUS
 10
118.4911343358
 20
260.066922326
 11
116.2389940232
 21
261.51428502
  0
LINE
  8
0
 62
7
  6
CONTINUOUS
 10
149.2629047413
 20
231.2744175303
 11
145.1087546113
 21
240.3707374838
  0
LINE
  8
0
 62
7
  6
CONTINUOUS
 10
151.2547562871
 20
228.116486654
 11
150.2672632235
 21
230.2787948463
  0
LINE
  8
0
 62
7
  6
CONTINUOUS
 10
145.0140282013
 20
241.7817750125
 11
143.901910557
 21
244.2169729717
  0
LINE
  8
0
 62
7
  6
CONTINUOUS
 10
167.3544573251
 20
186.7254009628
 11
168.041964316
 21
189.325986564
  0
LINE
  8
0
 62
7
  6
CONTINUOUS
 10
146.4690512287
 20
153.665454178
 11
148.453401639
 21
155.4815116608
  0
LINE
  8
0
 62
7
  6
CONTINUOUS
 10
109.9588008323
 20
274.5282346568
 11
107.2868429966
 21
274.8386418987
  0
LINE
  8
0
 62
7
  6
CONTINUOUS
 10
145.6545482183
 20
258.5603328603
 11
143.5745730744
 21
260.2660335177
  0
LINE
  8
0
 62
7
  6
CONTINUOUS
 10
167.0508223334
 20
225.8287010156
 11
166.2232072931
 21
228.3881471817
  0
POLYLINE
  8
0
 62
7
  6
CONTINUOUS
 66
1
 70
0
  0
VERTEX
  8
0
 62
7
  6
CONTINUOUS
 10
31.2178740387
 20
82.3635214249
  0
VERTEX
  8
0
 62
7
  6
CONTINUOUS
 10
31.2283250979
 20
82.2193235948
  0
VERTEX
  8
0
 62
7
  6
CONTINUOUS
 10
31.2698620043
 20
82.0452861228
  0
VERTEX
  8
0
 62
7
  6
CONTINUOUS
 10
31.3417475517
 20
81.8814389303
  0
VERTEX
  8
0
 62
7
  6
CONTINUOUS
 10
31.4416767445
 20
81.7330297818
  0
VERTEX
  8
0
 62
7
  6
CONTINUOUS
 10
31.5664418113
 20
81.6048126502
  0
VERTEX
  8
0
 62
7
  6
CONTINUOUS
 10
31.7120291159
 20
81.5008943725
  0
VERTEX
  8
0
 62
7
  6
CONTINUOUS
 10
31.8736028178
 20
81.424646406
  0
VERTEX
  8
0
 62
7
  6
CONTINUOUS
 10
32.0442283433
 20
81.3787129027
  0
SEQEND
  0
LINE
  8
0
 62
7
  6
CONTINUOUS
 10
31.2178666638
 20
88.2306947594
 11
31.2178666638
 21
82.3634250918
  0
POLYLINE
  8
0
 62
7
  6
CONTINUOUS
 66
1
 70
0
  0
VERTEX
  8
0
 62
7
  6
CONTINUOUS
 10
40.2819163438
 20
82.3401310604
  0
VERTEX
  8
0
 62
7
  6
CONTINUOUS
 10
40.2986021202
 20
82.1574935501
  0
VERTEX
  8
0
 62
7
  6
CONTINUOUS
 10
40.3467361223
 20
81.984434598
  0
VERTEX
  8
0
 62
7
  6
CONTINUOUS
 10
40.4195440317
 20
81.8314162435
  0
VERTEX
  8
0
 62
7
  6
CONTINUOUS
 10
40.5110027207
 20
81.6996280168
  0
VERTEX
  8
0
 62
7
  6
CONTINUOUS
 10
40.6154569763
 20
81.5895422954
  0
VERTEX
  8
0
 62
7
  6
CONTINUOUS
 10
40.7247042013
 20
81.5026500434
  0
VERTEX
  8
0
 62
7
  6
CONTINUOUS
 10
40.8307433775
 20
81.4376119418
  0
VERTEX
  8
0
 62
7
  6
CONTINUOUS
 10
40.9272520113
 20
81.3907807527
  0
VERTEX
  8
0
 62
7
  6
CONTINUOUS
 10
41.0148748344
 20
81.3559307306
  0
VERTEX
  8
0
 62
7
  6
CONTINUOUS
 10
41.0997330376
 20
81.3272328515
  0
VERTEX
  8
0
 62
7
  6
CONTINUOUS
 10
41.1885937753
 20
81.30091529
  0
SEQEND
  0
LINE
  8
0
 62
7
  6
CONTINUOUS
 10
40.2819131654
 20
88.2544053005
 11
40.2819131654
 21
82.3397145507
  0
LINE
  8
0
 62
7
  6
CONTINUOUS
 10
50.4485392421
 20
89.9470599256
 11
50.4485392421
 21
89.7970599256
  0
LINE
  8
0
 62
7
  6
CONTINUOUS
 10
50.4485392421
 20
80.7970599256
 11
50.4485392421
 21
80.6470599256
  0
LINE
  8
0
 62
7
  6
CONTINUOUS
 10
53.8579595011
 20
89.9470599256
 11
53.8579595011
 21
89.7970599256
  0
LINE
  8
0
 62
7
  6
CONTINUOUS
 10
53.8579595011
 20
80.7970599256
 11
53.8579595011
 21
80.6470599256
  0
LINE
  8
0
 62
7
  6
CONTINUOUS
 10
63.3145646459
 20
89.9470599256
 11
63.3145646459
 21
89.7970599256
  0
LINE
  8
0
 62
7
  6
CONTINUOUS
 10
63.3145646459
 20
80.7970599256
 11
63.3145646459
 21
80.6470599256
  0
LINE
  8
0
 62
7
  6
CONTINUOUS
 10
65.6158348351
 20
103.2970599256
 11
65.6158348351
 21
91.2970599256
  0
LINE
  8
0
 62
7
  6
CONTINUOUS
 10
65.6158348351
 20
79.2970599256
 11
65.6158348351
 21
67.2970599256
  0
POLYLINE
  8
0
 62
7
  6
CONTINUOUS
 66
1
 70
0
  0
VERTEX
  8
0
 62
7
  6
CONTINUOUS
 10
67.7956613687
 20
82.2688916752
  0
VERTEX
  8
0
 62
7
  6
CONTINUOUS
 10
67.7973357753
 20
82.2103225091
  0
VERTEX
  8
0
 62
7
  6
CONTINUOUS
 10
67.8291960471
 20
82.0088005043
  0
VERTEX
  8
0
 62
7
  6
CONTINUOUS
 10
67.89944081
 20
81.8190639865
  0
VERTEX
  8
0
 62
7
  6
CONTINUOUS
 10
68.0018482188
 20
81.6509566016
  0
VERTEX
  8
0
 62
7
  6
CONTINUOUS
 10
68.1266965807
 20
81.5112161804
  0
VERTEX
  8
0
 62
7
  6
CONTINUOUS
 10
68.2615752913
 20
81.4027919179
  0
VERTEX
  8
0
 62
7
  6
CONTINUOUS
 10
68.3914703014
 20
81.3250292913
  0
VERTEX
  8
0
 62
7
  6
CONTINUOUS
 10
68.4603038529
 20
81.2915566198
  0
SEQEND
  0
LINE
  8
0
 62
7
  6
CONTINUOUS
 10
67.7956602037
 20
88.3254657675
 11
67.7956602037
 21
82.2686540837
  0
LINE
  8
0
 62
7
  6
CONTINUOUS
 10
68.763075285
 20
80.7970599256
 11
68.763075285
 21
80.6470599256
  0
LINE
  8
0
 62
7
  6
CONTINUOUS
 10
69.0704504589
 20
80.7970599256
 11
69.0704504589
 21
80.6470599256
  0
LINE
  8
0
 62
7
  6
CONTINUOUS
 10
70.2196047625
 20
80.7970599256
 11
70.2196047625
 21
80.6470599256
  0
LINE
  8
0
 62
7
  6
CONTINUOUS
 10
70.2999511324
 20
80.7970599256
 11
70.2999511324
 21
80.6470599256
  0
LINE
  8
0
 62
7
  6
CONTINUOUS
 10
70.6073263723
 20
80.7970599256
 11
70.6073263723
 21
80.6470599256
  0
LINE
  8
0
 62
7
  6
CONTINUOUS
 10
71.3958350705
 20
80.7970599256
 11
71.3958350705
 21
80.6470599256
  0
LINE
  8
0
 62
7
  6
CONTINUOUS
 10
71.7230746105
 20
80.7970599256
 11
71.7230746105
 21
80.6470599256
  0
LINE
  8
0
 62
7
  6
CONTINUOUS
 10
71.986487602
 20
80.7970599256
 11
71.986487602
 21
80.6470599256
  0
LINE
  8
0
 62
7
  6
CONTINUOUS
 10
72.0120182588
 20
80.7970599256
 11
72.0120182588
 21
80.6470599256
  0
LINE
  8
0
 62
7
  6
CONTINUOUS
 10
72.1029965615
 20
80.7970599256
 11
72.1029965615
 21
80.6470599256
  0
LINE
  8
0
 62
7
  6
CONTINUOUS
 10
72.3121056702
 20
80.7970599256
 11
72.3121056702
 21
80.6470599256
  0
LINE
  8
0
 62
7
  6
CONTINUOUS
 10
72.5738973771
 20
80.7970599256
 11
72.5738973771
 21
80.6470599256
  0
LINE
  8
0
 62
7
  6
CONTINUOUS
 10
72.8229236619
 20
80.7970599256
 11
72.8229236619
 21
80.6470599256
  0
LINE
  8
0
 62
7
  6
CONTINUOUS
 10
73.1246325451
 20
80.7970599256
 11
73.1246325451
 21
80.6470599256
  0
LINE
  8
0
 62
7
  6
CONTINUOUS
 10
73.1370744343
 20
80.7970599256
 11
73.1370744343
 21
80.6470599256
  0
LINE
  8
0
 62
7
  6
CONTINUOUS
 10
73.4761868371
 20
80.7970599256
 11
73.4761868371
 21
80.6470599256
  0
LINE
  8
0
 62
7
  6
CONTINUOUS
 10
73.7234408067
 20
80.7970599256
 11
73.7234408067
 21
80.6470599256
  0
LINE
  8
0
 62
7
  6
CONTINUOUS
 10
73.8788364816
 20
80.7970599256
 11
73.8788364816
 21
80.6470599256
  0
LINE
  8
0
 62
7
  6
CONTINUOUS
 10
74.2179488844
 20
80.7970599256
 11
74.2179488844
 21
80.6470599256
  0
LINE
  8
0
 62
7
  6
CONTINUOUS
 10
75.8003744285
 20
80.7970599256
 11
75.8003744285
 21
80.6470599256
  0
LINE
  8
0
 62
7
  6
CONTINUOUS
 10
77.920364731
 20
80.7970599256
 11
77.920364731
 21
80.6470599256
  0
LINE
  8
0
 62
7
  6
CONTINUOUS
 10
80.5926761206
 20
80.7970599256
 11
80.5926761206
 21
80.6470599256
  0
LINE
  8
0
 62
7
  6
CONTINUOUS
 10
80.8247374537
 20
80.7970599256
 11
80.8247374537
 21
80.6470599256
  0
LINE
  8
0
 62
7
  6
CONTINUOUS
 10
81.0306130629
 20
80.7970599256
 11
81.0306130629
 21
80.6470599256
  0
LINE
  8
0
 62
7
  6
CONTINUOUS
 10
81.2626743959
 20
80.7970599256
 11
81.2626743959
 21
80.6470599256
  0
POLYLINE
  8
0
 62
7
  6
CONTINUOUS
 66
1
 70
0
  0
VERTEX
  8
0
 62
7
  6
CONTINUOUS
 10
41.1910553618
 20
89.2938912512
  0
VERTEX
  8
0
 62
7
  6
CONTINUOUS
 10
41.1019199699
 20
89.2675750196
  0
VERTEX
  8
0
 62
7
  6
CONTINUOUS
 10
41.0168890082
 20
89.2389211559
  0
VERTEX
  8
0
 62
7
  6
CONTINUOUS
 10
40.9291913771
 20
89.2041810716
  0
VERTEX
  8
0
 62
7
  6
CONTINUOUS
 10
40.8326324962
 20
89.1575265821
  0
VERTEX
  8
0
 62
7
  6
CONTINUOUS
 10
40.7264093224
 20
89.0926500174
  0
VERTEX
  8
0
 62
7
  6
CONTINUOUS
 10
40.6168621759
 20
89.0058538047
  0
VERTEX
  8
0
 62
7
  6
CONTINUOUS
 10
40.5120432071
 20
88.8957624628
  0
VERTEX
  8
0
 62
7
  6
CONTINUOUS
 10
40.4202335943
 20
88.7638846616
  0
VERTEX
  8
0
 62
7
  6
CONTINUOUS
 10
40.3471195921
 20
88.6107014134
  0
VERTEX
  8
0
 62
7
  6
CONTINUOUS
 10
40.298743001
 20
88.4373893831
  0
VERTEX
  8
0
 62
7
  6
CONTINUOUS
 10
40.2819163439
 20
88.253988764
  0
SEQEND
  0
POLYLINE
  8
0
 62
7
  6
CONTINUOUS
 66
1
 70
0
  0
VERTEX
  8
0
 62
7
  6
CONTINUOUS
 10
166.2273035252
 20
81.3340280073
  0
VERTEX
  8
0
 62
7
  6
CONTINUOUS
 10
166.2909884891
 20
81.3504514303
  0
VERTEX
  8
0
 62
7
  6
CONTINUOUS
 10
166.3515521037
 20
81.3674905818
  0
SEQEND
  0
LINE
  8
0
 62
7
  6
CONTINUOUS
 10
67.1158348969
 20
65.7970599256
 11
134.1158347735
 21
65.7970599256
  0
POLYLINE
  8
0
 62
7
  6
CONTINUOUS
 66
1
 70
0
  0
VERTEX
  8
0
 62
7
  6
CONTINUOUS
 10
41.1885937753
 20
81.30091529
  0
VERTEX
  8
0
 62
7
  6
CONTINUOUS
 10
41.288453965
 20
81.2744942103
  0
VERTEX
  8
0
 62
7
  6
CONTINUOUS
 10
41.4060323728
 20
81.2463732002
  0
VERTEX
  8
0
 62
7
  6
CONTINUOUS
 10
41.5064068792
 20
81.2242517048
  0
SEQEND
  0
LINE
  8
0
 62
7
  6
CONTINUOUS
 10
81.4097728886
 20
80.7970599256
 11
81.4097728886
 21
80.6470599256
  0
LINE
  8
0
 62
7
  6
CONTINUOUS
 10
81.7908148315
 20
80.7970599256
 11
81.7908148315
 21
80.6470599256
  0
LINE
  8
0
 62
7
  6
CONTINUOUS
 10
83.4091587443
 20
80.7970599256
 11
83.4091587443
 21
80.6470599256
  0
LINE
  8
0
 62
7
  6
CONTINUOUS
 10
83.4240025007
 20
80.7970599256
 11
83.4240025007
 21
80.6470599256
  0
LINE
  8
0
 62
7
  6
CONTINUOUS
 10
83.4581105904
 20
80.7970599256
 11
83.4581105904
 21
80.6470599256
  0
LINE
  8
0
 62
7
  6
CONTINUOUS
 10
83.5530047248
 20
80.7970599256
 11
83.5530047248
 21
80.6470599256
  0
LINE
  8
0
 62
7
  6
CONTINUOUS
 10
83.7257362764
 20
80.7970599256
 11
83.7257362764
 21
80.6470599256
  0
LINE
  8
0
 62
7
  6
CONTINUOUS
 10
83.9288599594
 20
80.7970599256
 11
83.9288599594
 21
80.6470599256
  0
LINE
  8
0
 62
7
  6
CONTINUOUS
 10
84.3654994571
 20
80.7970599256
 11
84.3654994571
 21
80.6470599256
  0
LINE
  8
0
 62
7
  6
CONTINUOUS
 10
84.8629232178
 20
80.7970599256
 11
84.8629232178
 21
80.6470599256
  0
LINE
  8
0
 62
7
  6
CONTINUOUS
 10
85.3432920428
 20
80.7970599256
 11
85.3432920428
 21
80.6470599256
  0
LINE
  8
0
 62
7
  6
CONTINUOUS
 10
85.6983763835
 20
80.7970599256
 11
85.6983763835
 21
80.6470599256
  0
LINE
  8
0
 62
7
  6
CONTINUOUS
 10
85.8977841083
 20
80.7970599256
 11
85.8977841083
 21
80.6470599256
  0
LINE
  8
0
 62
7
  6
CONTINUOUS
 10
86.019352677
 20
80.7970599256
 11
86.019352677
 21
80.6470599256
  0
POLYLINE
  8
0
 62
7
  6
CONTINUOUS
 66
1
 70
0
  0
VERTEX
  8
0
 62
7
  6
CONTINUOUS
 10
68.4603181293
 20
89.3025697026
  0
VERTEX
  8
0
 62
7
  6
CONTINUOUS
 10
68.3954032373
 20
89.271130605
  0
VERTEX
  8
0
 62
7
  6
CONTINUOUS
 10
68.2650544317
 20
89.1937061173
  0
VERTEX
  8
0
 62
7
  6
CONTINUOUS
 10
68.1294542474
 20
89.0854878571
  0
VERTEX
  8
0
 62
7
  6
CONTINUOUS
 10
68.0037556424
 20
88.9457108902
  0
VERTEX
  8
0
 62
7
  6
CONTINUOUS
 10
67.9005350366
 20
88.7772993904
  0
VERTEX
  8
0
 62
7
  6
CONTINUOUS
 10
67.8296351032
 20
88.5869890333
  0
VERTEX
  8
0
 62
7
  6
CONTINUOUS
 10
67.7973871961
 20
88.3846888417
  0
VERTEX
  8
0
 62
7
  6
CONTINUOUS
 10
67.7956613691
 20
88.3252277959
  0
SEQEND
  0
LINE
  8
0
 62
7
  6
CONTINUOUS
 10
69.0505708222
 20
89.5707695428
 11
68.4595946791
 21
89.3022428488
  0
LINE
  8
0
 62
7
  6
CONTINUOUS
 10
69.379564884
 20
89.6945295933
 11
69.05072561
 21
89.5708396735
  0
POLYLINE
  8
0
 62
7
  6
CONTINUOUS
 66
1
 70
0
  0
VERTEX
  8
0
 62
7
  6
CONTINUOUS
 10
165.871918533
 20
81.2559649249
  0
VERTEX
  8
0
 62
7
  6
CONTINUOUS
 10
165.9815222279
 20
81.2784436567
  0
VERTEX
  8
0
 62
7
  6
CONTINUOUS
 10
166.0755863095
 20
81.2986736275
  0
VERTEX
  8
0
 62
7
  6
CONTINUOUS
 10
166.1565726563
 20
81.3170231037
  0
VERTEX
  8
0
 62
7
  6
CONTINUOUS
 10
166.2273035252
 20
81.3340280073
  0
SEQEND
  0
POLYLINE
  8
0
 62
7
  6
CONTINUOUS
 66
1
 70
0
  0
VERTEX
  8
0
 62
7
  6
CONTINUOUS
 10
166.766476766
 20
81.2517744461
  0
VERTEX
  8
0
 62
7
  6
CONTINUOUS
 10
166.8649331498
 20
81.2710878396
  0
VERTEX
  8
0
 62
7
  6
CONTINUOUS
 10
166.9556088047
 20
81.2894522593
  0
VERTEX
  8
0
 62
7
  6
CONTINUOUS
 10
167.0381192054
 20
81.3067731536
  0
VERTEX
  8
0
 62
7
  6
CONTINUOUS
 10
167.1131294792
 20
81.3231873638
  0
VERTEX
  8
0
 62
7
  6
CONTINUOUS
 10
167.1804771772
 20
81.3386737627
  0
VERTEX
  8
0
 62
7
  6
CONTINUOUS
 10
167.2405943098
 20
81.3533569965
  0
VERTEX
  8
0
 62
7
  6
CONTINUOUS
 10
167.295311354
 20
81.3677578163
  0
VERTEX
  8
0
 62
7
  6
CONTINUOUS
 10
167.3480980698
 20
81.3830264803
  0
VERTEX
  8
0
 62
7
  6
CONTINUOUS
 10
167.4038136817
 20
81.4012171597
  0
VERTEX
  8
0
 62
7
  6
CONTINUOUS
 10
167.4656575916
 20
81.4247010641
  0
VERTEX
  8
0
 62
7
  6
CONTINUOUS
 10
167.5352439604
 20
81.4562068635
  0
VERTEX
  8
0
 62
7
  6
CONTINUOUS
 10
167.610009949
 20
81.4971332425
  0
VERTEX
  8
0
 62
7
  6
CONTINUOUS
 10
167.6869655819
 20
81.5483020889
  0
VERTEX
  8
0
 62
7
  6
CONTINUOUS
 10
167.763272982
 20
81.6100586003
  0
VERTEX
  8
0
 62
7
  6
CONTINUOUS
 10
167.8366174642
 20
81.6826179065
  0
VERTEX
  8
0
 62
7
  6
CONTINUOUS
 10
167.9044086667
 20
81.7653614154
  0
VERTEX
  8
0
 62
7
  6
CONTINUOUS
 10
167.9644564765
 20
81.8573210483
  0
VERTEX
  8
0
 62
7
  6
CONTINUOUS
 10
168.0154930892
 20
81.9584845133
  0
VERTEX
  8
0
 62
7
  6
CONTINUOUS
 10
168.0559762603
 20
82.0686509295
  0
VERTEX
  8
0
 62
7
  6
CONTINUOUS
 10
168.0841077551
 20
82.1873700246
  0
VERTEX
  8
0
 62
7
  6
CONTINUOUS
 10
168.0978485959
 20
82.3138586722
  0
VERTEX
  8
0
 62
7
  6
CONTINUOUS
 10
168.0988475604
 20
82.3585832044
  0
SEQEND
  0
LINE
  8
0
 62
7
  6
CONTINUOUS
 10
164.3132425815
 20
80.9522079419
 11
165.871918533
 21
81.2559649249
  0
LINE
  8
0
 62
7
  6
CONTINUOUS
 10
166.5925929265
 20
81.2189333572
 11
166.766476766
 21
81.2517744461
  0
LINE
  8
0
 62
7
  6
CONTINUOUS
 10
165.1394472586
 20
80.9504321875
 11
166.5925959799
 21
81.218933802
  0
LINE
  8
0
 62
7
  6
CONTINUOUS
 10
163.8017489581
 20
80.8688661953
 11
164.3132399931
 21
80.9522075928
  0
POLYLINE
  8
0
 62
7
  6
CONTINUOUS
 66
1
 70
0
  0
VERTEX
  8
0
 62
7
  6
CONTINUOUS
 10
42.7662306739
 20
80.9557504583
  0
VERTEX
  8
0
 62
7
  6
CONTINUOUS
 10
43.2384268
 20
80.8713164019
  0
VERTEX
  8
0
 62
7
  6
CONTINUOUS
 10
43.7851029017
 20
80.813342877
  0
VERTEX
  8
0
 62
7
  6
CONTINUOUS
 10
44.2679086781
 20
80.7970600973
  0
SEQEND
  0
POLYLINE
  8
0
 62
7
  6
CONTINUOUS
 66
1
 70
0
  0
VERTEX
  8
0
 62
7
  6
CONTINUOUS
 10
34.4839843239
 20
80.9489823951
  0
VERTEX
  8
0
 62
7
  6
CONTINUOUS
 10
32.0547926676
 20
81.3766827895
  0
VERTEX
  8
0
 62
7
  6
CONTINUOUS
 10
32.0442294499
 20
81.3787126843
  0
SEQEND
  0
LINE
  8
0
 62
7
  6
CONTINUOUS
 10
41.5063888392
 20
81.2242552201
 11
42.7662246978
 21
80.9557515662
  0
LINE
  8
0
 62
7
  6
CONTINUOUS
 10
69.0507355929
 20
81.0232756347
 11
69.3757179945
 21
80.9007474635
  0
LINE
  8
0
 62
7
  6
CONTINUOUS
 10
68.4595946859
 20
81.2918769993
 11
69.0505708222
 21
81.0233503084
  0
LINE
  8
0
 62
7
  6
CONTINUOUS
 10
86.2017054661
 20
80.7970599256
 11
86.2017054661
 21
80.6470599256
  0
LINE
  8
0
 62
7
  6
CONTINUOUS
 10
86.2454348148
 20
80.7970599256
 11
86.2454348148
 21
80.6470599256
  0
LINE
  8
0
 62
7
  6
CONTINUOUS
 10
86.3698794978
 20
80.7970599256
 11
86.3698794978
 21
80.6470599256
  0
LINE
  8
0
 62
7
  6
CONTINUOUS
 10
86.8496100978
 20
80.7970599256
 11
86.8496100978
 21
80.6470599256
  0
LINE
  8
0
 62
7
  6
CONTINUOUS
 10
88.0409393543
 20
80.7970599256
 11
88.0409393543
 21
80.6470599256
  0
LINE
  8
0
 62
7
  6
CONTINUOUS
 10
88.6086229075
 20
80.7970599256
 11
88.6086229075
 21
80.6470599256
  0
LINE
  8
0
 62
7
  6
CONTINUOUS
 10
89.0883535074
 20
80.7970599256
 11
89.0883535074
 21
80.6470599256
  0
LINE
  8
0
 62
7
  6
CONTINUOUS
 10
89.8559197696
 20
80.7970599256
 11
89.8559197696
 21
80.6470599256
  0
POLYLINE
  8
0
 62
7
  6
CONTINUOUS
 66
1
 70
0
  0
VERTEX
  8
0
 62
7
  6
CONTINUOUS
 10
69.3757179945
 20
80.9007474635
  0
VERTEX
  8
0
 62
7
  6
CONTINUOUS
 10
69.7492181256
 20
80.8190608623
  0
VERTEX
  8
0
 62
7
  6
CONTINUOUS
 10
70.070599963
 20
80.7970601252
  0
SEQEND
  0
LINE
  8
0
 62
7
  6
CONTINUOUS
 10
94.1534461312
 20
80.7970599256
 11
94.1534461312
 21
80.6470599256
  0
LINE
  8
0
 62
7
  6
CONTINUOUS
 10
94.1915152036
 20
80.7970599256
 11
94.1915152036
 21
80.6470599256
  0
LINE
  8
0
 62
7
  6
CONTINUOUS
 10
94.3214135625
 20
80.7970599256
 11
94.3214135625
 21
80.6470599256
  0
LINE
  8
0
 62
7
  6
CONTINUOUS
 10
94.617053551
 20
80.7970599256
 11
94.617053551
 21
80.6470599256
  0
LINE
  8
0
 62
7
  6
CONTINUOUS
 10
94.9306123296
 20
80.7970599256
 11
94.9306123296
 21
80.6470599256
  0
LINE
  8
0
 62
7
  6
CONTINUOUS
 10
95.3360041631
 20
80.7970599256
 11
95.3360041631
 21
80.6470599256
  0
POLYLINE
  8
0
 62
7
  6
CONTINUOUS
 66
1
 70
0
  0
VERTEX
  8
0
 62
7
  6
CONTINUOUS
 10
144.0308178321
 20
80.7970599257
  0
VERTEX
  8
0
 62
7
  6
CONTINUOUS
 10
144.1601250763
 20
80.8050544347
  0
VERTEX
  8
0
 62
7
  6
CONTINUOUS
 10
144.3553711115
 20
80.8484529281
  0
VERTEX
  8
0
 62
7
  6
CONTINUOUS
 10
144.5368203565
 20
80.9270370993
  0
VERTEX
  8
0
 62
7
  6
CONTINUOUS
 10
144.5544181975
 20
80.9390319324
  0
SEQEND
  0
POLYLINE
  8
0
 62
7
  6
CONTINUOUS
 66
1
 70
0
  0
VERTEX
  8
0
 62
7
  6
CONTINUOUS
 10
143.6070201764
 20
80.7970600861
  0
VERTEX
  8
0
 62
7
  6
CONTINUOUS
 10
143.9602811085
 20
80.815918542
  0
VERTEX
  8
0
 62
7
  6
CONTINUOUS
 10
144.3687179225
 20
80.8851782384
  0
SEQEND
  0
POLYLINE
  8
0
 62
7
  6
CONTINUOUS
 66
1
 70
0
  0
VERTEX
  8
0
 62
7
  6
CONTINUOUS
 10
162.7055442248
 20
80.7970600812
  0
VERTEX
  8
0
 62
7
  6
CONTINUOUS
 10
163.217230118
 20
80.812655729
  0
VERTEX
  8
0
 62
7
  6
CONTINUOUS
 10
163.8017489581
 20
80.8688661953
  0
SEQEND
  0
POLYLINE
  8
0
 62
7
  6
CONTINUOUS
 66
1
 70
0
  0
VERTEX
  8
0
 62
7
  6
CONTINUOUS
 10
163.4660494673
 20
80.7970600972
  0
VERTEX
  8
0
 62
7
  6
CONTINUOUS
 10
164.0043613835
 20
80.8128198723
  0
VERTEX
  8
0
 62
7
  6
CONTINUOUS
 10
164.6134756469
 20
80.868870534
  0
VERTEX
  8
0
 62
7
  6
CONTINUOUS
 10
165.1394462294
 20
80.9504321629
  0
SEQEND
  0
LINE
  8
0
 62
7
  6
CONTINUOUS
 10
149.9171050243
 20
80.6470599256
 11
137.0510796206
 21
80.6470599256
  0
LINE
  8
0
 62
7
  6
CONTINUOUS
 10
131.3969660614
 20
80.6470599256
 11
120.6255285982
 21
80.6470599256
  0
LINE
  8
0
 62
7
  6
CONTINUOUS
 10
117.79446088
 20
80.6470599256
 11
114.3360491676
 21
80.6470599256
  0
LINE
  8
0
 62
7
  6
CONTINUOUS
 10
114.2580407431
 20
80.6470599256
 11
110.0118477283
 21
80.6470599256
  0
LINE
  8
0
 62
7
  6
CONTINUOUS
 10
105.7123707478
 20
80.6470599256
 11
102.4147252952
 21
80.6470599256
  0
LINE
  8
0
 62
7
  6
CONTINUOUS
 10
101.7467645776
 20
80.6470599256
 11
98.3638672052
 21
80.6470599256
  0
LINE
  8
0
 62
7
  6
CONTINUOUS
 10
97.6026592276
 20
80.6470599256
 11
94.1534461312
 21
80.6470599256
  0
LINE
  8
0
 62
7
  6
CONTINUOUS
 10
89.8559197696
 20
80.6470599256
 11
86.3698794978
 21
80.6470599256
  0
LINE
  8
0
 62
7
  6
CONTINUOUS
 10
86.2454348148
 20
80.6470599256
 11
83.4240025007
 21
80.6470599256
  0
LINE
  8
0
 62
7
  6
CONTINUOUS
 10
83.4091587443
 20
80.6470599256
 11
81.4097728886
 21
80.6470599256
  0
LINE
  8
0
 62
7
  6
CONTINUOUS
 10
81.2626743959
 20
80.6470599256
 11
77.920364731
 21
80.6470599256
  0
LINE
  8
0
 62
7
  6
CONTINUOUS
 10
75.8003744285
 20
80.6470599256
 11
68.763075285
 21
80.6470599256
  0
LINE
  8
0
 62
7
  6
CONTINUOUS
 10
63.3145646459
 20
80.6470599256
 11
50.4485392421
 21
80.6470599256
  0
LINE
  8
0
 62
7
  6
CONTINUOUS
 10
163.4660314259
 20
80.7970599256
 11
36.2158431833
 21
80.7970599256
  0
POLYLINE
  8
0
 62
7
  6
CONTINUOUS
 66
1
 70
0
  0
VERTEX
  8
0
 62
7
  6
CONTINUOUS
 10
36.2250676532
 20
80.7970599256
  0
VERTEX
  8
0
 62
7
  6
CONTINUOUS
 10
35.6425866301
 20
80.8139379744
  0
VERTEX
  8
0
 62
7
  6
CONTINUOUS
 10
35.0620097771
 20
80.8645443479
  0
VERTEX
  8
0
 62
7
  6
CONTINUOUS
 10
34.4839843239
 20
80.9489823951
  0
SEQEND
  0
LINE
  8
0
 62
7
  6
CONTINUOUS
 10
95.9989649909
 20
80.7970599256
 11
95.9989649909
 21
80.6470599256
  0
LINE
  8
0
 62
7
  6
CONTINUOUS
 10
96.4222756146
 20
80.7970599256
 11
96.4222756146
 21
80.6470599256
  0
LINE
  8
0
 62
7
  6
CONTINUOUS
 10
96.7716776637
 20
80.7970599256
 11
96.7716776637
 21
80.6470599256
  0
LINE
  8
0
 62
7
  6
CONTINUOUS
 10
97.1390003997
 20
80.7970599256
 11
97.1390003997
 21
80.6470599256
  0
LINE
  8
0
 62
7
  6
CONTINUOUS
 10
97.3405815063
 20
80.7970599256
 11
97.3405815063
 21
80.6470599256
  0
LINE
  8
0
 62
7
  6
CONTINUOUS
 10
97.4682540634
 20
80.7970599256
 11
97.4682540634
 21
80.6470599256
  0
LINE
  8
0
 62
7
  6
CONTINUOUS
 10
97.6026592276
 20
80.7970599256
 11
97.6026592276
 21
80.6470599256
  0
LINE
  8
0
 62
7
  6
CONTINUOUS
 10
98.3638672052
 20
80.7970599256
 11
98.3638672052
 21
80.6470599256
  0
LINE
  8
0
 62
7
  6
CONTINUOUS
 10
99.1138090212
 20
80.7970599256
 11
99.1138090212
 21
80.6470599256
  0
LINE
  8
DEFAULT_1
 62
2
  6
CENTER
 10
100.6158348351
 20
63.7970599256
 11
100.6158348351
 21
106.7970599256
  0
LINE
  8
0
 62
7
  6
CONTINUOUS
 10
101.1969794608
 20
80.7970599256
 11
101.1969794608
 21
80.6470599256
  0
LINE
  8
0
 62
7
  6
CONTINUOUS
 10
101.6969406715
 20
80.7970599256
 11
101.6969406715
 21
80.6470599256
  0
LINE
  8
0
 62
7
  6
CONTINUOUS
 10
101.7467645776
 20
80.7970599256
 11
101.7467645776
 21
80.6470599256
  0
LINE
  8
0
 62
7
  6
CONTINUOUS
 10
102.4147252952
 20
80.7970599256
 11
102.4147252952
 21
80.6470599256
  0
LINE
  8
0
 62
7
  6
CONTINUOUS
 10
102.7211886895
 20
80.7970599256
 11
102.7211886895
 21
80.6470599256
  0
LINE
  8
0
 62
7
  6
CONTINUOUS
 10
36.2158430659
 20
89.7970599256
 11
163.4660317407
 21
89.7970599256
  0
LINE
  8
0
 62
7
  6
CONTINUOUS
 10
149.9171050243
 20
89.9470599256
 11
137.0510796206
 21
89.9470599256
  0
LINE
  8
0
 62
7
  6
CONTINUOUS
 10
63.3145646459
 20
89.9470599256
 11
50.4485392421
 21
89.9470599256
  0
LINE
  8
0
 62
7
  6
CONTINUOUS
 10
105.7123707478
 20
80.7970599256
 11
105.7123707478
 21
80.6470599256
  0
POLYLINE
  8
0
 62
7
  6
CONTINUOUS
 66
1
 70
0
  0
VERTEX
  8
0
 62
7
  6
CONTINUOUS
 10
70.0705859544
 20
89.7970597321
  0
VERTEX
  8
0
 62
7
  6
CONTINUOUS
 10
69.7532229026
 20
89.7756047528
  0
VERTEX
  8
0
 62
7
  6
CONTINUOUS
 10
69.379564884
 20
89.6945295933
  0
SEQEND
  0
POLYLINE
  8
0
 62
7
  6
CONTINUOUS
 66
1
 70
0
  0
VERTEX
  8
0
 62
7
  6
CONTINUOUS
 10
44.2679084534
 20
89.7970597637
  0
VERTEX
  8
0
 62
7
  6
CONTINUOUS
 10
43.791023563
 20
89.781174178
  0
VERTEX
  8
0
 62
7
  6
CONTINUOUS
 10
43.2443089463
 20
89.723652849
  0
SEQEND
  0
LINE
  8
0
 62
7
  6
CONTINUOUS
 10
35.642583291
 20
89.7801816831
 11
36.2250676531
 21
89.7970599256
  0
LINE
  8
0
 62
7
  6
CONTINUOUS
 10
110.0118477283
 20
80.7970599256
 11
110.0118477283
 21
80.6470599256
  0
LINE
  8
0
 62
7
  6
CONTINUOUS
 10
110.1861321203
 20
80.7970599256
 11
110.1861321203
 21
80.6470599256
  0
LINE
  8
0
 62
7
  6
CONTINUOUS
 10
110.9268408284
 20
80.7970599256
 11
110.9268408284
 21
80.6470599256
  0
LINE
  8
0
 62
7
  6
CONTINUOUS
 10
111.0357685639
 20
80.7970599256
 11
111.0357685639
 21
80.6470599256
  0
LINE
  8
0
 62
7
  6
CONTINUOUS
 10
114.2580407431
 20
80.7970599256
 11
114.2580407431
 21
80.6470599256
  0
LINE
  8
0
 62
7
  6
CONTINUOUS
 10
114.3360491676
 20
80.7970599256
 11
114.3360491676
 21
80.6470599256
  0
LINE
  8
0
 62
7
  6
CONTINUOUS
 10
43.2443089463
 20
89.723652849
 11
42.7662304802
 21
89.6383693416
  0
POLYLINE
  8
0
 62
7
  6
CONTINUOUS
 66
1
 70
0
  0
VERTEX
  8
0
 62
7
  6
CONTINUOUS
 10
34.4839843238
 20
89.6451374561
  0
VERTEX
  8
0
 62
7
  6
CONTINUOUS
 10
35.0620064592
 20
89.7295751168
  0
VERTEX
  8
0
 62
7
  6
CONTINUOUS
 10
35.642583291
 20
89.7801816831
  0
SEQEND
  0
POLYLINE
  8
0
 62
7
  6
CONTINUOUS
 66
1
 70
0
  0
VERTEX
  8
0
 62
7
  6
CONTINUOUS
 10
165.1394462418
 20
89.643687676
  0
VERTEX
  8
0
 62
7
  6
CONTINUOUS
 10
164.6069155145
 20
89.7260711074
  0
VERTEX
  8
0
 62
7
  6
CONTINUOUS
 10
163.9977639836
 20
89.7816841858
  0
VERTEX
  8
0
 62
7
  6
CONTINUOUS
 10
163.4660494828
 20
89.7970597638
  0
SEQEND
  0
POLYLINE
  8
0
 62
7
  6
CONTINUOUS
 66
1
 70
0
  0
VERTEX
  8
0
 62
7
  6
CONTINUOUS
 10
164.3132398621
 20
89.6419122742
  0
VERTEX
  8
0
 62
7
  6
CONTINUOUS
 10
163.8079490237
 20
89.7244358234
  0
VERTEX
  8
0
 62
7
  6
CONTINUOUS
 10
163.2234653555
 20
89.7810813625
  0
VERTEX
  8
0
 62
7
  6
CONTINUOUS
 10
162.7055440858
 20
89.7970597792
  0
SEQEND
  0
LINE
  8
0
 62
7
  6
CONTINUOUS
 10
114.7311539015
 20
80.7970599256
 11
114.7311539015
 21
80.6470599256
  0
LINE
  8
0
 62
7
  6
CONTINUOUS
 10
114.948396336
 20
80.7970599256
 11
114.948396336
 21
80.6470599256
  0
LINE
  8
0
 62
7
  6
CONTINUOUS
 10
115.6123481753
 20
80.7970599256
 11
115.6123481753
 21
80.6470599256
  0
LINE
  8
0
 62
7
  6
CONTINUOUS
 10
116.086212951
 20
80.7970599256
 11
116.086212951
 21
80.6470599256
  0
LINE
  8
0
 62
7
  6
CONTINUOUS
 10
116.4059014045
 20
80.7970599256
 11
116.4059014045
 21
80.6470599256
  0
LINE
  8
0
 62
7
  6
CONTINUOUS
 10
116.6479845638
 20
80.7970599256
 11
116.6479845638
 21
80.6470599256
  0
LINE
  8
0
 62
7
  6
CONTINUOUS
 10
117.327134067
 20
80.7970599256
 11
117.327134067
 21
80.6470599256
  0
LINE
  8
0
 62
7
  6
CONTINUOUS
 10
117.79446088
 20
80.7970599256
 11
117.79446088
 21
80.6470599256
  0
LINE
  8
0
 62
7
  6
CONTINUOUS
 10
144.7278939183
 20
80.9893440141
 11
145.5539723335
 21
81.2769712548
  0
LINE
  8
0
 62
7
  6
CONTINUOUS
 10
144.3687179225
 20
80.8851782384
 11
144.7278300047
 21
80.98932193
  0
LINE
  8
0
 62
7
  6
CONTINUOUS
 10
41.291277367
 20
89.3203346148
 11
41.1910553618
 21
89.2938912512
  0
POLYLINE
  8
0
 62
7
  6
CONTINUOUS
 66
1
 70
0
  0
VERTEX
  8
0
 62
7
  6
CONTINUOUS
 10
41.5064076686
 20
89.3698683146
  0
VERTEX
  8
0
 62
7
  6
CONTINUOUS
 10
41.4092846196
 20
89.3484878926
  0
VERTEX
  8
0
 62
7
  6
CONTINUOUS
 10
41.291277367
 20
89.3203346148
  0
SEQEND
  0
LINE
  8
0
 62
7
  6
CONTINUOUS
 10
42.7662246978
 20
89.638368285
 11
41.5063888345
 21
89.3698646301
  0
LINE
  8
0
 62
7
  6
CONTINUOUS
 10
32.0442294498
 20
89.2154071669
 11
32.0547926671
 21
89.2174370616
  0
LINE
  8
0
 62
7
  6
CONTINUOUS
 10
32.0547926671
 20
89.2174370616
 11
34.4839843238
 21
89.6451374561
  0
LINE
  8
0
 62
7
  6
CONTINUOUS
 10
67.1158348968
 20
104.7970599256
 11
134.1158347733
 21
104.7970599256
  0
POLYLINE
  8
0
 62
7
  6
CONTINUOUS
 66
1
 70
0
  0
VERTEX
  8
0
 62
7
  6
CONTINUOUS
 10
166.2293625231
 20
89.2595795221
  0
VERTEX
  8
0
 62
7
  6
CONTINUOUS
 10
166.1589211351
 20
89.2765486373
  0
VERTEX
  8
0
 62
7
  6
CONTINUOUS
 10
166.0782611679
 20
89.2948555233
  0
VERTEX
  8
0
 62
7
  6
CONTINUOUS
 10
165.9845461589
 20
89.3150407214
  0
VERTEX
  8
0
 62
7
  6
CONTINUOUS
 10
165.8753036733
 20
89.3374754832
  0
VERTEX
  8
0
 62
7
  6
CONTINUOUS
 10
164.3132425816
 20
89.6419119093
  0
SEQEND
  0
POLYLINE
  8
0
 62
7
  6
CONTINUOUS
 66
1
 70
0
  0
VERTEX
  8
0
 62
7
  6
CONTINUOUS
 10
144.7278258011
 20
89.6047993738
  0
VERTEX
  8
0
 62
7
  6
CONTINUOUS
 10
144.3729721526
 20
89.7079479996
  0
VERTEX
  8
0
 62
7
  6
CONTINUOUS
 10
143.9646145229
 20
89.7777352162
  0
VERTEX
  8
0
 62
7
  6
CONTINUOUS
 10
143.6070147869
 20
89.7970597749
  0
SEQEND
  0
LINE
  8
0
 62
7
  6
CONTINUOUS
 10
145.5539723213
 20
89.3171486006
 11
144.7278939183
 21
89.6047758371
  0
LINE
  8
0
 62
7
  6
CONTINUOUS
 10
120.6255285982
 20
80.7970599256
 11
120.6255285982
 21
80.6470599256
  0
LINE
  8
0
 62
7
  6
CONTINUOUS
 10
122.6113842548
 20
80.7970599256
 11
122.6113842548
 21
80.6470599256
  0
POLYLINE
  8
0
 62
7
  6
CONTINUOUS
 66
1
 70
0
  0
VERTEX
  8
0
 62
7
  6
CONTINUOUS
 10
145.553672136
 20
81.276867458
  0
VERTEX
  8
0
 62
7
  6
CONTINUOUS
 10
145.6255235895
 20
81.3034663342
  0
VERTEX
  8
0
 62
7
  6
CONTINUOUS
 10
145.7380054115
 20
81.3528187235
  0
VERTEX
  8
0
 62
7
  6
CONTINUOUS
 10
145.8522919972
 20
81.4159170461
  0
VERTEX
  8
0
 62
7
  6
CONTINUOUS
 10
145.9684740099
 20
81.4985181411
  0
VERTEX
  8
0
 62
7
  6
CONTINUOUS
 10
146.0829442115
 20
81.6058679928
  0
VERTEX
  8
0
 62
7
  6
CONTINUOUS
 10
146.1885189069
 20
81.7411818731
  0
VERTEX
  8
0
 62
7
  6
CONTINUOUS
 10
146.2750904091
 20
81.9029650963
  0
VERTEX
  8
0
 62
7
  6
CONTINUOUS
 10
146.3328522335
 20
82.083740367
  0
VERTEX
  8
0
 62
7
  6
CONTINUOUS
 10
146.3561757959
 20
82.2730061322
  0
VERTEX
  8
0
 62
7
  6
CONTINUOUS
 10
146.3565997055
 20
82.3023816
  0
SEQEND
  0
POLYLINE
  8
0
 62
7
  6
CONTINUOUS
 66
1
 70
0
  0
VERTEX
  8
0
 62
7
  6
CONTINUOUS
 10
166.3515521037
 20
81.3674905818
  0
VERTEX
  8
0
 62
7
  6
CONTINUOUS
 10
166.41352869
 20
81.3870087628
  0
VERTEX
  8
0
 62
7
  6
CONTINUOUS
 10
166.4829555151
 20
81.4123894495
  0
VERTEX
  8
0
 62
7
  6
CONTINUOUS
 10
166.5641867185
 20
81.4482983339
  0
VERTEX
  8
0
 62
7
  6
CONTINUOUS
 10
166.6534697996
 20
81.4973933365
  0
VERTEX
  8
0
 62
7
  6
CONTINUOUS
 10
166.7450280496
 20
81.5606610788
  0
VERTEX
  8
0
 62
7
  6
CONTINUOUS
 10
166.8345160527
 20
81.6386930394
  0
VERTEX
  8
0
 62
7
  6
CONTINUOUS
 10
166.9182748052
 20
81.7316775048
  0
VERTEX
  8
0
 62
7
  6
CONTINUOUS
 10
166.9924731227
 20
81.8386242121
  0
VERTEX
  8
0
 62
7
  6
CONTINUOUS
 10
167.0544818945
 20
81.9594355756
  0
VERTEX
  8
0
 62
7
  6
CONTINUOUS
 10
167.1013157088
 20
82.0936741392
  0
VERTEX
  8
0
 62
7
  6
CONTINUOUS
 10
167.1295502489
 20
82.2402412721
  0
VERTEX
  8
0
 62
7
  6
CONTINUOUS
 10
167.1362679121
 20
82.3561093775
  0
SEQEND
  0
POLYLINE
  8
0
 62
7
  6
CONTINUOUS
 66
1
 70
0
  0
VERTEX
  8
0
 62
7
  6
CONTINUOUS
 10
32.0442283434
 20
89.2154069485
  0
VERTEX
  8
0
 62
7
  6
CONTINUOUS
 10
31.8736029353
 20
89.1694734882
  0
VERTEX
  8
0
 62
7
  6
CONTINUOUS
 10
31.7120292108
 20
89.0932255343
  0
VERTEX
  8
0
 62
7
  6
CONTINUOUS
 10
31.566441883
 20
88.9893072623
  0
VERTEX
  8
0
 62
7
  6
CONTINUOUS
 10
31.4416767943
 20
88.8610901304
  0
VERTEX
  8
0
 62
7
  6
CONTINUOUS
 10
31.3417475823
 20
88.712680976
  0
VERTEX
  8
0
 62
7
  6
CONTINUOUS
 10
31.2698620197
 20
88.5488337731
  0
VERTEX
  8
0
 62
7
  6
CONTINUOUS
 10
31.2283251028
 20
88.3747962875
  0
VERTEX
  8
0
 62
7
  6
CONTINUOUS
 10
31.2178740391
 20
88.2305984264
  0
SEQEND
  0
LINE
  8
0
 62
7
  6
CONTINUOUS
 10
124.3474989768
 20
80.7970599256
 11
124.3474989768
 21
80.6470599256
  0
LINE
  8
0
 62
7
  6
CONTINUOUS
 10
124.6669384047
 20
80.7970599256
 11
124.6669384047
 21
80.6470599256
  0
LINE
  8
0
 62
7
  6
CONTINUOUS
 10
124.8295330256
 20
80.7970599256
 11
124.8295330256
 21
80.6470599256
  0
LINE
  8
0
 62
7
  6
CONTINUOUS
 10
124.8775383939
 20
80.7970599256
 11
124.8775383939
 21
80.6470599256
  0
LINE
  8
0
 62
7
  6
CONTINUOUS
 10
127.2533231811
 20
80.7970599256
 11
127.2533231811
 21
80.6470599256
  0
LINE
  8
0
 62
7
  6
CONTINUOUS
 10
127.7998949386
 20
80.7970599256
 11
127.7998949386
 21
80.6470599256
  0
LINE
  8
0
 62
7
  6
CONTINUOUS
 10
127.9042693398
 20
80.7970599256
 11
127.9042693398
 21
80.6470599256
  0
LINE
  8
0
 62
7
  6
CONTINUOUS
 10
128.2237031809
 20
80.7970599256
 11
128.2237031809
 21
80.6470599256
  0
LINE
  8
0
 62
7
  6
CONTINUOUS
 10
128.6069380528
 20
80.7970599256
 11
128.6069380528
 21
80.6470599256
  0
POLYLINE
  8
0
 62
7
  6
CONTINUOUS
 66
1
 70
0
  0
VERTEX
  8
0
 62
7
  6
CONTINUOUS
 10
144.5541416549
 20
89.6552857675
  0
VERTEX
  8
0
 62
7
  6
CONTINUOUS
 10
144.536916881
 20
89.6670295974
  0
VERTEX
  8
0
 62
7
  6
CONTINUOUS
 10
144.3554360789
 20
89.7456460306
  0
VERTEX
  8
0
 62
7
  6
CONTINUOUS
 10
144.1601549818
 20
89.7890617345
  0
VERTEX
  8
0
 62
7
  6
CONTINUOUS
 10
144.0311027537
 20
89.7970597381
  0
SEQEND
  0
LINE
  8
0
 62
7
  6
CONTINUOUS
 10
129.0539740323
 20
80.7970599256
 11
129.0539740323
 21
80.6470599256
  0
LINE
  8
0
 62
7
  6
CONTINUOUS
 10
129.4553185157
 20
80.7970599256
 11
129.4553185157
 21
80.6470599256
  0
LINE
  8
0
 62
7
  6
CONTINUOUS
 10
129.8657161145
 20
80.7970599256
 11
129.8657161145
 21
80.6470599256
  0
LINE
  8
0
 62
7
  6
CONTINUOUS
 10
130.3489710102
 20
80.7970599256
 11
130.3489710102
 21
80.6470599256
  0
LINE
  8
0
 62
7
  6
CONTINUOUS
 10
130.7227273076
 20
80.7970599256
 11
130.7227273076
 21
80.6470599256
  0
LINE
  8
0
 62
7
  6
CONTINUOUS
 10
130.9779375791
 20
80.7970599256
 11
130.9779375791
 21
80.6470599256
  0
LINE
  8
0
 62
7
  6
CONTINUOUS
 10
131.2421981988
 20
80.7970599256
 11
131.2421981988
 21
80.6470599256
  0
LINE
  8
0
 62
7
  6
CONTINUOUS
 10
131.3969660614
 20
80.7970599256
 11
131.3969660614
 21
80.6470599256
  0
LINE
  8
0
 62
7
  6
CONTINUOUS
 10
135.6158348351
 20
103.2970599256
 11
135.6158348351
 21
91.2970599256
  0
LINE
  8
0
 62
7
  6
CONTINUOUS
 10
135.6158348351
 20
79.2970599256
 11
135.6158348351
 21
67.2970599256
  0
LINE
  8
0
 62
7
  6
CONTINUOUS
 10
137.0510796206
 20
89.9470599256
 11
137.0510796206
 21
89.7970599256
  0
LINE
  8
0
 62
7
  6
CONTINUOUS
 10
137.0510796206
 20
80.7970599256
 11
137.0510796206
 21
80.6470599256
  0
LINE
  8
0
 62
7
  6
CONTINUOUS
 10
138.7831304281
 20
89.9470599256
 11
138.7831304281
 21
89.7970599256
  0
LINE
  8
0
 62
7
  6
CONTINUOUS
 10
138.7831304281
 20
80.7970599256
 11
138.7831304281
 21
80.6470599256
  0
POLYLINE
  8
0
 62
7
  6
CONTINUOUS
 66
1
 70
0
  0
VERTEX
  8
0
 62
7
  6
CONTINUOUS
 10
146.3565997058
 20
88.2917384432
  0
VERTEX
  8
0
 62
7
  6
CONTINUOUS
 10
146.356197777
 20
88.3203422192
  0
VERTEX
  8
0
 62
7
  6
CONTINUOUS
 10
146.3331460511
 20
88.5090379677
  0
VERTEX
  8
0
 62
7
  6
CONTINUOUS
 10
146.2758016358
 20
88.6894781341
  0
VERTEX
  8
0
 62
7
  6
CONTINUOUS
 10
146.1896818396
 20
88.8511600149
  0
VERTEX
  8
0
 62
7
  6
CONTINUOUS
 10
146.0845054633
 20
88.9865529097
  0
VERTEX
  8
0
 62
7
  6
CONTINUOUS
 10
145.9703794936
 20
89.0940538094
  0
VERTEX
  8
0
 62
7
  6
CONTINUOUS
 10
145.8544950965
 20
89.1768285117
  0
VERTEX
  8
0
 62
7
  6
CONTINUOUS
 10
145.7405095868
 20
89.2400736406
  0
VERTEX
  8
0
 62
7
  6
CONTINUOUS
 10
145.6284465908
 20
89.2894991855
  0
VERTEX
  8
0
 62
7
  6
CONTINUOUS
 10
145.5536797237
 20
89.3172497536
  0
SEQEND
  0
LINE
  8
0
 62
7
  6
CONTINUOUS
 10
144.5331304281
 20
89.9470599256
 11
144.5331304281
 21
89.7970599256
  0
LINE
  8
0
 62
7
  6
CONTINUOUS
 10
144.5331304281
 20
80.7970599256
 11
144.5331304281
 21
80.6470599256
  0
LINE
  8
0
 62
7
  6
CONTINUOUS
 10
146.3566025876
 20
88.2920586741
 11
146.3566025876
 21
82.302061177
  0
LINE
  8
0
 62
7
  6
CONTINUOUS
 10
146.8737101691
 20
89.9470599256
 11
146.8737101691
 21
89.7970599256
  0
LINE
  8
0
 62
7
  6
CONTINUOUS
 10
146.8737101691
 20
80.7970599256
 11
146.8737101691
 21
80.6470599256
  0
LINE
  8
0
 62
7
  6
CONTINUOUS
 10
149.9171050243
 20
89.9470599256
 11
149.9171050243
 21
89.7970599256
  0
LINE
  8
0
 62
7
  6
CONTINUOUS
 10
149.9171050243
 20
80.7970599256
 11
149.9171050243
 21
80.6470599256
  0
POLYLINE
  8
0
 62
7
  6
CONTINUOUS
 66
1
 70
0
  0
VERTEX
  8
0
 62
7
  6
CONTINUOUS
 10
167.136267912
 20
88.2380104712
  0
VERTEX
  8
0
 62
7
  6
CONTINUOUS
 10
167.1296170932
 20
88.3533025809
  0
VERTEX
  8
0
 62
7
  6
CONTINUOUS
 10
167.1015293448
 20
88.499656543
  0
VERTEX
  8
0
 62
7
  6
CONTINUOUS
 10
167.0548902282
 20
88.6337345267
  0
VERTEX
  8
0
 62
7
  6
CONTINUOUS
 10
166.9931111212
 20
88.754434197
  0
VERTEX
  8
0
 62
7
  6
CONTINUOUS
 10
166.9191725069
 20
88.8613104079
  0
VERTEX
  8
0
 62
7
  6
CONTINUOUS
 10
166.8356973943
 20
88.954266468
  0
VERTEX
  8
0
 62
7
  6
CONTINUOUS
 10
166.7464764128
 20
89.0323353785
  0
VERTEX
  8
0
 62
7
  6
CONTINUOUS
 10
166.6551440788
 20
89.0956957458
  0
VERTEX
  8
0
 62
7
  6
CONTINUOUS
 10
166.5659842357
 20
89.1449391901
  0
VERTEX
  8
0
 62
7
  6
CONTINUOUS
 10
166.4846801204
 20
89.1810429393
  0
VERTEX
  8
0
 62
7
  6
CONTINUOUS
 10
166.4151786469
 20
89.2065552995
  0
VERTEX
  8
0
 62
7
  6
CONTINUOUS
 10
166.3532430761
 20
89.2261280931
  0
VERTEX
  8
0
 62
7
  6
CONTINUOUS
 10
166.2928191741
 20
89.2431763424
  0
VERTEX
  8
0
 62
7
  6
CONTINUOUS
 10
166.2293625231
 20
89.2595795221
  0
SEQEND
  0
POLYLINE
  8
0
 62
7
  6
CONTINUOUS
 66
1
 70
0
  0
VERTEX
  8
0
 62
7
  6
CONTINUOUS
 10
168.0988475603
 20
88.2355366767
  0
VERTEX
  8
0
 62
7
  6
CONTINUOUS
 10
168.0972642006
 20
88.2918354755
  0
VERTEX
  8
0
 62
7
  6
CONTINUOUS
 10
168.0811103689
 20
88.4232123765
  0
VERTEX
  8
0
 62
7
  6
CONTINUOUS
 10
168.0495353793
 20
88.545977617
  0
VERTEX
  8
0
 62
7
  6
CONTINUOUS
 10
168.0048414012
 20
88.6592559594
  0
VERTEX
  8
0
 62
7
  6
CONTINUOUS
 10
167.9490579891
 20
88.7625636519
  0
VERTEX
  8
0
 62
7
  6
CONTINUOUS
 10
167.8839084628
 20
88.8557236507
  0
VERTEX
  8
0
 62
7
  6
CONTINUOUS
 10
167.8111087788
 20
88.9384481643
  0
VERTEX
  8
0
 62
7
  6
CONTINUOUS
 10
167.7334076455
 20
89.0097012969
  0
VERTEX
  8
0
 62
7
  6
CONTINUOUS
 10
167.6535437452
 20
89.0692761754
  0
VERTEX
  8
0
 62
7
  6
CONTINUOUS
 10
167.5743309723
 20
89.1175059191
  0
VERTEX
  8
0
 62
7
  6
CONTINUOUS
 10
167.4986866494
 20
89.155191747
  0
VERTEX
  8
0
 62
7
  6
CONTINUOUS
 10
167.4303718125
 20
89.1832882701
  0
VERTEX
  8
0
 62
7
  6
CONTINUOUS
 10
167.3698585833
 20
89.2042789658
  0
VERTEX
  8
0
 62
7
  6
CONTINUOUS
 10
167.3141882391
 20
89.2210840163
  0
VERTEX
  8
0
 62
7
  6
CONTINUOUS
 10
167.2582559706
 20
89.2362421623
  0
VERTEX
  8
0
 62
7
  6
CONTINUOUS
 10
167.1975128793
 20
89.2513818746
  0
VERTEX
  8
0
 62
7
  6
CONTINUOUS
 10
167.1293066559
 20
89.267287048
  0
VERTEX
  8
0
 62
7
  6
CONTINUOUS
 10
167.052701788
 20
89.2842117981
  0
VERTEX
  8
0
 62
7
  6
CONTINUOUS
 10
166.9679393971
 20
89.3021199507
  0
VERTEX
  8
0
 62
7
  6
CONTINUOUS
 10
166.874322178
 20
89.3211582819
  0
VERTEX
  8
0
 62
7
  6
CONTINUOUS
 10
166.7721324564
 20
89.3412514329
  0
VERTEX
  8
0
 62
7
  6
CONTINUOUS
 10
166.6621912876
 20
89.3622165977
  0
VERTEX
  8
0
 62
7
  6
CONTINUOUS
 10
165.1394472586
 20
89.6436876637
  0
SEQEND
  0
LINE
  8
0
 62
7
  6
CONTINUOUS
 10
167.1362693796
 20
88.2381751604
 11
167.1362693796
 21
82.3559446908
  0
LINE
  8
0
 62
7
  6
CONTINUOUS
 10
168.0988481927
 20
88.2359826431
 11
168.0988481927
 21
82.3581372081
  0
ARC
  8
0
 62
7
  6
CONTINUOUS
 10
62.719213676
 20
150.4281752024
 40
9.525
 50
346.6363636364
 51
40.9090909091
  0
ARC
  8
0
 62
7
  6
CONTINUOUS
 10
56.8151942321
 20
168.7327696914
 40
2.0
 50
40.9090909091
 51
120.9090909091
  0
ARC
  8
0
 62
7
  6
CONTINUOUS
 10
45.67150109
 20
166.7231000414
 40
2.0
 50
215.3930724276
 51
300.9090909091
  0
ARC
  8
0
 62
7
  6
CONTINUOUS
 10
44.1999958065
 20
168.8816525497
 40
2.0
 50
133.9090909091
 51
213.1721623881
  0
ARC
  8
0
 62
7
  6
CONTINUOUS
 10
59.9939285221
 20
166.5913570002
 40
1.5
 50
40.9090909091
 51
82.3186847232
  0
ARC
  8
0
 62
7
  6
CONTINUOUS
 10
60.2612535609
 20
168.5734108147
 40
0.5
 50
220.9088642835
 51
262.318797904
  0
ARC
  8
0
 62
7
  6
CONTINUOUS
 10
38.8205210437
 20
179.7003684361
 40
9.525
 50
313.9090909091
 51
8.1818181818
  0
ARC
  8
0
 62
7
  6
CONTINUOUS
 10
43.7499547565
 20
198.2911271154
 40
2.0
 50
8.1818181818
 51
88.1818181818
  0
ARC
  8
0
 62
7
  6
CONTINUOUS
 10
33.2887740894
 20
202.6252207924
 40
2.0
 50
182.6657997003
 51
268.1818181818
  0
ARC
  8
0
 62
7
  6
CONTINUOUS
 10
33.2178666638
 20
205.2366665351
 40
2.0
 50
101.1818181818
 51
180.4448896608
  0
ARC
  8
0
 62
7
  6
CONTINUOUS
 10
46.6894894827
 20
184.8728881999
 40
1.5
 50
326.7721474778
 51
8.1818181818
  0
ARC
  8
0
 62
7
  6
CONTINUOUS
 10
45.2663410999
 20
194.7711026187
 40
1.5
 50
8.1818181818
 51
49.5913437458
  0
ARC
  8
0
 62
7
  6
CONTINUOUS
 10
48.3624864805
 20
183.7769497686
 40
0.5
 50
146.7723418567
 51
188.1815260678
  0
ARC
  8
0
 62
7
  6
CONTINUOUS
 10
46.5628084278
 20
196.2939855649
 40
0.5
 50
188.1819538219
 51
229.5917299268
  0
ARC
  8
0
 62
7
  6
CONTINUOUS
 10
98.6498157615
 20
138.7234479515
 40
9.525
 50
19.3636363636
 51
73.6363636364
  0
ARC
  8
0
 62
7
  6
CONTINUOUS
 10
83.7868276187
 20
150.9302988341
 40
2.0
 50
73.6363636364
 51
153.6363636364
  0
ARC
  8
0
 62
7
  6
CONTINUOUS
 10
75.4986658365
 20
143.2149217713
 40
2.0
 50
248.1203451549
 51
333.6363636364
  0
ARC
  8
0
 62
7
  6
CONTINUOUS
 10
73.0937552256
 20
144.2352558754
 40
2.0
 50
166.6363636364
 51
245.8994351154
  0
ARC
  8
0
 62
7
  6
CONTINUOUS
 10
97.2136139141
 20
148.030055779
 40
1.5
 50
32.2268196388
 51
73.6363636364
  0
ARC
  8
0
 62
7
  6
CONTINUOUS
 10
87.6186841779
 20
150.8473813474
 40
1.5
 50
73.6363636364
 51
115.0460148131
  0
ARC
  8
0
 62
7
  6
CONTINUOUS
 10
66.5425358615
 20
159.0338612567
 40
1.5
 50
359.4994839141
 51
40.9090909091
  0
ARC
  8
0
 62
7
  6
CONTINUOUS
 10
98.9055026458
 20
149.0965980986
 40
0.5
 50
212.2265071919
 51
253.6362988498
  0
ARC
  8
0
 62
7
  6
CONTINUOUS
 10
86.7719931168
 20
152.6593179486
 40
0.5
 50
253.6367185247
 51
295.0458985434
  0
ARC
  8
0
 62
7
  6
CONTINUOUS
 10
68.5424595458
 20
159.016389644
 40
0.5
 50
179.499423457
 51
220.9084231866
  0
ARC
  8
0
 62
7
  6
CONTINUOUS
 10
34.5414039155
 20
217.2463131286
 40
9.525
 50
281.1818181818
 51
335.4545454545
  0
ARC
  8
0
 62
7
  6
CONTINUOUS
 10
48.7392304106
 20
230.2208014735
 40
2.0
 50
335.4545454545
 51
55.4545454545
  0
ARC
  8
0
 62
7
  6
CONTINUOUS
 10
42.2819131654
 20
239.5226143583
 40
2.0
 50
149.9385269731
 51
235.4545454545
  0
ARC
  8
0
 62
7
  6
CONTINUOUS
 10
43.6341162041
 20
241.7578377637
 40
2.0
 50
68.4545454545
 51
147.7176169336
  0
ARC
  8
0
 62
7
  6
CONTINUOUS
 10
43.9576767279
 20
217.3434281241
 40
1.5
 50
294.044983299
 51
335.4545454545
  0
ARC
  8
0
 62
7
  6
CONTINUOUS
 10
48.1118268579
 20
226.4397480777
 40
1.5
 50
335.4545454545
 51
16.8641809945
  0
ARC
  8
0
 62
7
  6
CONTINUOUS
 10
44.7725823133
 20
215.5169755825
 40
0.5
 50
114.0447645721
 51
155.4545682693
  0
ARC
  8
0
 62
7
  6
CONTINUOUS
 10
50.0258172586
 20
227.0199555803
 40
0.5
 50
155.4549878801
 51
196.8641268257
  0
ARC
  8
0
 62
7
  6
CONTINUOUS
 10
51.2404517446
 20
251.1454371268
 40
9.525
 50
248.4545454545
 51
302.7272727273
  0
ARC
  8
0
 62
7
  6
CONTINUOUS
 10
59.2144288447
 20
246.1363140292
 40
1.5
 50
261.3176515413
 51
302.7272727273
  0
ARC
  8
0
 62
7
  6
CONTINUOUS
 10
58.9125162522
 20
244.1592331542
 40
0.5
 50
81.3176478482
 51
122.7267213375
  0
ARC
  8
0
 62
7
  6
CONTINUOUS
 10
96.1534225298
 20
241.9861985573
 40
1.5
 50
277.022428729
 51
313.3556557296
  0
ARC
  8
0
 62
7
  6
CONTINUOUS
 10
83.6158348351
 20
270.6350080811
 40
9.525
 50
215.7272727273
 51
270.0
  0
ARC
  8
0
 62
7
  6
CONTINUOUS
 10
72.1416587962
 20
266.8499524165
 40
2.0
 50
35.7272727273
 51
114.9903442063
  0
ARC
  8
0
 62
7
  6
CONTINUOUS
 10
69.7956602037
 20
265.7006189863
 40
2.0
 50
117.2112542458
 51
202.7272727273
  0
ARC
  8
0
 62
7
  6
CONTINUOUS
 10
70.198961427
 20
254.3843467612
 40
2.0
 50
302.7272727273
 51
22.7272727273
  0
ARC
  8
0
 62
7
  6
CONTINUOUS
 10
87.6158348351
 20
262.1100080811
 40
1.5
 50
228.5903069365
 51
270.0
  0
ARC
  8
0
 62
7
  6
CONTINUOUS
 10
97.6158348351
 20
262.1100080811
 40
1.5
 50
270.0
 51
311.4096906751
  0
ARC
  8
0
 62
7
  6
CONTINUOUS
 10
67.626964173
 20
251.5427222038
 40
1.5
 50
302.7272727273
 51
344.1368523199
  0
ARC
  8
0
 62
7
  6
CONTINUOUS
 10
86.2929591796
 20
260.6100080811
 40
0.5
 50
48.5905656179
 51
89.999814678
  0
ARC
  8
0
 62
7
  6
CONTINUOUS
 10
98.9387104907
 20
260.6100080811
 40
0.5
 50
90.0002077088
 51
131.4094164119
  0
ARC
  8
0
 62
7
  6
CONTINUOUS
 10
69.5507992179
 20
250.9960424803
 40
0.5
 50
122.7271583027
 51
164.1370223866
  0
ARC
  8
0
 62
7
  6
CONTINUOUS
 10
116.1015518884
 20
150.5358732545
 40
2.0
 50
106.3636363636
 51
186.3636363636
  0
ARC
  8
0
 62
7
  6
CONTINUOUS
 10
113.3003542706
 20
139.5643664822
 40
2.0
 50
280.8476178822
 51
6.3636363636
  0
ARC
  8
0
 62
7
  6
CONTINUOUS
 10
110.725580459
 20
139.1225333133
 40
2.0
 50
199.3636363636
 51
278.6267078427
  0
ARC
  8
0
 62
7
  6
CONTINUOUS
 10
128.9648730701
 20
155.3551022568
 40
1.5
 50
64.9539841699
 51
106.3636363636
  0
ARC
  8
0
 62
7
  6
CONTINUOUS
 10
119.369943334
 20
152.5377766884
 40
1.5
 50
106.3636363636
 51
147.7731829745
  0
CIRCLE
  8
LAY0001
 62
7
  6
CONTINUOUS
 10
130.4557410012
 20
166.6923584205
 40
1.275
  0
ARC
  8
LAY0001
 62
7
  6
CONTINUOUS
 10
129.8900555762
 20
169.5561408843
 40
1.0
 50
225.0
 51
315.0
  0
ARC
  8
LAY0001
 62
7
  6
CONTINUOUS
 10
130.1387227733
 20
169.6633867252
 40
0.9
 50
315.0
 51
11.2510114041
  0
ARC
  8
LAY0001
 62
7
  6
CONTINUOUS
 10
132.1869727914
 20
172.4187435245
 40
0.9
 50
135.0
 51
191.2510114041
  0
ARC
  8
LAY0001
 62
7
  6
CONTINUOUS
 10
130.1021876106
 20
170.0511156312
 40
0.5
 50
315.0
 51
45.0
  0
ARC
  8
LAY0001
 62
7
  6
CONTINUOUS
 10
132.2235079542
 20
172.0310146185
 40
0.5
 50
135.0
 51
225.0
  0
ARC
  8
0
 62
7
  6
CONTINUOUS
 10
129.8115641313
 20
157.1670388581
 40
0.5
 50
244.9541045078
 51
286.3632663711
  0
ARC
  8
0
 62
7
  6
CONTINUOUS
 10
117.6780546023
 20
153.604319008
 40
0.5
 50
286.3636968923
 51
327.7734849683
  0
ARC
  8
LAY0001
 62
7
  6
CONTINUOUS
 10
129.9961215934
 20
169.5914962234
 40
0.25
 50
225.0
 51
315.0
  0
ARC
  8
0
 62
7
  6
CONTINUOUS
 10
100.6158348351
 20
205.7600080811
 40
69.4
 50
82.263071479
 51
84.4839815185
  0
ARC
  8
0
 62
7
  6
CONTINUOUS
 10
100.6158348351
 20
205.7600080811
 40
69.4
 50
311.3539805699
 51
313.5748906094
  0
ARC
  8
0
 62
7
  6
CONTINUOUS
 10
100.6158348351
 20
205.7600080811
 40
69.4
 50
278.6267078427
 51
280.8476178822
  0
ARC
  8
0
 62
7
  6
CONTINUOUS
 10
100.6158348351
 20
205.7600080811
 40
69.4
 50
245.8994351154
 51
248.1203451549
  0
ARC
  8
0
 62
7
  6
CONTINUOUS
 10
100.6158348351
 20
205.7600080811
 40
69.4
 50
213.1721623881
 51
215.3930724276
  0
ARC
  8
0
 62
7
  6
CONTINUOUS
 10
100.6158348351
 20
205.7600080811
 40
69.4
 50
180.4448896608
 51
182.6657997003
  0
ARC
  8
0
 62
7
  6
CONTINUOUS
 10
100.6158348351
 20
205.7600080811
 40
69.4
 50
147.7176169336
 51
149.9385269731
  0
ARC
  8
0
 62
7
  6
CONTINUOUS
 10
100.6158348351
 20
205.7600080811
 40
69.4
 50
114.9903442063
 51
117.2112542458
  0
ARC
  8
0
 62
7
  6
CONTINUOUS
 10
100.6158348351
 20
205.7600080811
 40
69.4
 50
49.5357987517
 51
51.7567087913
  0
ARC
  8
0
 62
7
  6
CONTINUOUS
 10
100.6158348351
 20
205.7600080811
 40
69.4
 50
16.8085260245
 51
19.029436064
  0
ARC
  8
0
 62
7
  6
CONTINUOUS
 10
100.6158348351
 20
205.7600080811
 40
69.4
 50
344.0812532972
 51
346.3021633367
  0
ARC
  8
0
 62
7
  6
CONTINUOUS
 10
100.6158348351
 20
205.7600080811
 40
35.0
 50
97.022428729
 51
82.977571271
  0
CIRCLE
  8
0
 62
4
  6
CONTINUOUS
 10
100.6158348351
 20
205.7600080811
 40
9.525
  0
ARC
  8
LAY0001
 62
7
  6
CONTINUOUS
 10
132.4356399885
 20
172.5259893653
 40
1.0
 50
45.0
 51
135.0
  0
ARC
  8
LAY0001
 62
7
  6
CONTINUOUS
 10
132.3295739713
 20
172.4906340263
 40
0.25
 50
45.0
 51
135.0
  0
ARC
  8
0
 62
7
  6
CONTINUOUS
 10
135.2046150117
 20
148.3023548841
 40
9.525
 50
52.0909090909
 51
106.3636363636
  0
ARC
  8
0
 62
7
  6
CONTINUOUS
 10
143.4996704106
 20
167.6747202873
 40
2.0
 50
139.0909090909
 51
219.0909090909
  0
ARC
  8
0
 62
7
  6
CONTINUOUS
 10
147.0747974085
 20
156.9304596846
 40
2.0
 50
313.5748906094
 51
39.0909090909
  0
ARC
  8
0
 62
7
  6
CONTINUOUS
 10
145.1476328888
 20
155.1667381521
 40
2.0
 50
232.0909090909
 51
311.3539805699
  0
ARC
  8
0
 62
7
  6
CONTINUOUS
 10
145.1669055518
 20
171.1258544463
 40
1.5
 50
139.0909090909
 51
180.5005165854
  0
ARC
  8
0
 62
7
  6
CONTINUOUS
 10
143.1669818676
 20
171.1083828337
 40
0.5
 50
319.0915511288
 51
0.5005750445
  0
ARC
  8
0
 62
7
  6
CONTINUOUS
 10
160.7777209484
 20
176.1236607304
 40
9.525
 50
84.8181818182
 51
139.0909090909
  0
ARC
  8
0
 62
7
  6
CONTINUOUS
 10
157.2824741402
 20
196.9053770968
 40
2.0
 50
171.8181818182
 51
251.8181818182
  0
ARC
  8
0
 62
7
  6
CONTINUOUS
 10
166.0988481927
 20
189.7995894898
 40
2.0
 50
346.3021633367
 51
71.8181818182
  0
ARC
  8
0
 62
7
  6
CONTINUOUS
 10
165.4311540833
 20
187.2739487184
 40
2.0
 50
264.8181818182
 51
344.0812532972
  0
ARC
  8
0
 62
7
  6
CONTINUOUS
 10
156.8192175999
 20
200.71003127
 40
1.5
 50
171.8181818182
 51
213.227850884
  0
ARC
  8
0
 62
7
  6
CONTINUOUS
 10
151.7155128913
 20
178.6833501899
 40
1.5
 50
97.6813162513
 51
139.0909090909
  0
ARC
  8
0
 62
7
  6
CONTINUOUS
 10
155.1462206021
 20
199.6140928386
 40
0.5
 50
351.8184615956
 51
33.2276630578
  0
ARC
  8
0
 62
7
  6
CONTINUOUS
 10
151.4481878524
 20
180.6654040044
 40
0.5
 50
277.6811991726
 51
319.0911420396
  0
ARC
  8
0
 62
7
  6
CONTINUOUS
 10
100.6158348351
 20
237.2600080811
 40
5.0
 50
46.6443442704
 51
133.3556557296
  0
ARC
  8
0
 62
7
  6
CONTINUOUS
 10
121.3885978094
 20
269.5272249203
 40
9.525
 50
183.0
 51
237.2727272727
  0
ARC
  8
0
 62
7
  6
CONTINUOUS
 10
101.3158348351
 20
263.1100080811
 40
2.0
 50
270.0
 51
350.0
  0
ARC
  8
0
 62
7
  6
CONTINUOUS
 10
107.0945949225
 20
272.847903172
 40
2.0
 50
84.4839815185
 51
170.0
  0
ARC
  8
0
 62
7
  6
CONTINUOUS
 10
109.6895510918
 20
272.5464413838
 40
2.0
 50
2.9965854194
 51
82.263071479
  0
ARC
  8
0
 62
7
  6
CONTINUOUS
 10
132.2104631892
 20
253.6274496167
 40
2.0
 50
237.2727272727
 51
317.2727272727
  0
ARC
  8
0
 62
7
  6
CONTINUOUS
 10
105.0782471405
 20
241.9861985573
 40
1.5
 50
226.6443442704
 51
262.977571271
  0
ARC
  8
0
 62
7
  6
CONTINUOUS
 10
120.1446489719
 20
260.192975283
 40
1.5
 50
195.8631491484
 51
237.2727272727
  0
ARC
  8
0
 62
7
  6
CONTINUOUS
 10
128.5571843002
 20
254.7865671085
 40
1.5
 50
237.2727272727
 51
278.6823484821
  0
ARC
  8
0
 62
7
  6
CONTINUOUS
 10
118.220813927
 20
259.6462955596
 40
0.5
 50
15.8629732087
 51
57.272843886
  0
ARC
  8
0
 62
7
  6
CONTINUOUS
 10
128.8590968928
 20
252.8094862334
 40
0.5
 50
57.273257112
 51
98.6823520817
  0
ARC
  8
0
 62
7
  6
CONTINUOUS
 10
167.2498531278
 20
213.3542974601
 40
9.525
 50
117.5454545455
 51
171.8181818182
  0
ARC
  8
0
 62
7
  6
CONTINUOUS
 10
153.0740202778
 20
228.94731668
 40
2.0
 50
204.5454545455
 51
284.5454545455
  0
ARC
  8
0
 62
7
  6
CONTINUOUS
 10
164.3325049167
 20
227.7360394268
 40
2.0
 50
19.029436064
 51
104.5454545455
  0
ARC
  8
0
 62
7
  6
CONTINUOUS
 10
165.1362693796
 20
225.2503525161
 40
2.0
 50
297.5454545455
 51
16.8085260245
  0
ARC
  8
0
 62
7
  6
CONTINUOUS
 10
146.4732026043
 20
240.9938600033
 40
1.5
 50
163.1358185313
 51
204.5454545455
  0
ARC
  8
0
 62
7
  6
CONTINUOUS
 10
150.6273527343
 20
231.8975400498
 40
1.5
 50
204.5454545455
 51
245.955018705
  0
ARC
  8
0
 62
7
  6
CONTINUOUS
 10
158.2423659827
 20
210.6082456888
 40
1.5
 50
130.4086595982
 51
171.8181818182
  0
ARC
  8
0
 62
7
  6
CONTINUOUS
 10
144.5592122036
 20
241.574067506
 40
0.5
 50
343.1358741508
 51
24.5449998094
  0
ARC
  8
0
 62
7
  6
CONTINUOUS
 10
149.812447149
 20
230.0710875082
 40
0.5
 50
24.5454333413
 51
65.9552505039
  0
ARC
  8
0
 62
7
  6
CONTINUOUS
 10
156.9458986548
 20
212.131128635
 40
0.5
 50
310.4082600412
 51
351.8180391526
  0
ARC
  8
0
 62
7
  6
CONTINUOUS
 10
152.5661553127
 20
248.1738009706
 40
9.525
 50
150.2727272727
 51
204.5454545455
  0
ARC
  8
0
 62
7
  6
CONTINUOUS
 10
142.3365690903
 20
258.6952546868
 40
2.0
 50
51.7567087913
 51
137.2727272727
  0
ARC
  8
0
 62
7
  6
CONTINUOUS
 10
144.3566025876
 20
257.0387096678
 40
2.0
 50
330.2727272727
 51
49.5357987517
  0
ARC
  8
0
 62
7
  6
CONTINUOUS
 10
36.2158348351
 20
79.7970599256
 40
10.0
 50
89.9999465785
 51
99.9999999912
  0
ARC
  8
0
 62
7
  6
CONTINUOUS
 10
36.2158348351
 20
90.7970599256
 40
10.0
 50
260.000000009
 51
270.0000544848
  0
ARC
  8
0
 62
7
  6
CONTINUOUS
 10
134.1158348351
 20
103.2970599256
 40
1.5
 50
0.0
 51
90.0
  0
ARC
  8
0
 62
7
  6
CONTINUOUS
 10
67.1158348351
 20
103.2970599256
 40
1.5
 50
90.0
 51
180.0
  0
ARC
  8
0
 62
7
  6
CONTINUOUS
 10
137.1158348351
 20
91.2970599256
 40
1.5
 50
180.0
 51
267.5328150356
  0
ARC
  8
0
 62
7
  6
CONTINUOUS
 10
64.1158348351
 20
91.2970599256
 40
1.5
 50
270.0
 51
360.0
  0
ARC
  8
0
 62
7
  6
CONTINUOUS
 10
137.1158348351
 20
79.2970599256
 40
1.5
 50
92.4671849644
 51
180.0
  0
ARC
  8
0
 62
7
  6
CONTINUOUS
 10
64.1158348351
 20
79.2970599256
 40
1.5
 50
0.0
 51
90.0
  0
ARC
  8
0
 62
7
  6
CONTINUOUS
 10
134.1158348351
 20
67.2970599256
 40
1.5
 50
270.0
 51
360.0
  0
ARC
  8
0
 62
7
  6
CONTINUOUS
 10
67.1158348351
 20
67.2970599256
 40
1.5
 50
180.0
 51
270.0
  0
ENDSEC
  0
EOF
