  0
SECTION
  2
HEADER
  9
$EXTMAX
 10
210.0
 20
297.0
 30
0.0
  9
$EXTMIN
 10
0.0
 20
0.0
 30
0.0
  9
$LIMMIN
 10
0.0
 20
0.0
  9
$LIMMAX
 10
210.0
 20
297.0
  9
$VIEWCTR
 10
105.0
 20
148.5
  9
$VIEWSIZE
 40
297.0
  9
$CLAYER
  8
0
  9
$LTSCALE
 40
19.36
  9
$CELTYPE
  6
BYLAYER
  9
$DIMSCALE
 40
1.0
  9
$DIMASZ
 40
3.5
  9
$DIMEXO
 40
2.2
  9
$DIMDLI
 40
13.376
  9
$DIMEXE
 40
6.336
  9
$DIMCEN
 40
3.168
  9
$DIMLFAC
 40
1.0
  9
$DIMBLK
  1
_FILLED
  9
$DIMTXT
 40
3.5
  9
$PDMODE
 70
3
  9
$PDSIZE
 40
0.3125
  9
$TILEMODE
 70
1
  0
ENDSEC
  0
SECTION
  2
TABLES
  0
TABLE
  2
LTYPE
 70
6
  0
LTYPE
  2
BYBLOCK
 70
0
  3

 72
65
 73
0
 40
0.0
  0
LTYPE
  2
BYLAYER
 70
0
  3

 72
65
 73
0
 40
0.0
  0
LTYPE
  2
CONTINUOUS
 70
64
  3
Solid line
 72
65
 73
0
 40
0.0
  0
LTYPE
  2
CENTER
 70
64
  3
____ _ ____ _ ____ _ ____ _ ____ _ ____ _ ____
 72
65
 73
4
 40
0.6
 49
0.375
 49
-0.075
 49
0.075
 49
-0.075
  0
LTYPE
  2
HIDDEN
 70
64
  3
- - - - - - - - - - - - - - - - - - - -
 72
65
 73
2
 40
0.2
 49
0.1
 49
-0.1
  0
LTYPE
  2
PHANTOM
 70
64
  3
_____ _ _ _____ _ _ _____ _ _ _____
 72
65
 73
6
 40
0.8
 49
0.45
 49
-0.05
 49
0.1
 49
-0.05
 49
0.1
 49
-0.05
  0
LTYPE
  2
DOT
 70
64
  3
. . . . . . . . . . . . . . . . . . . .
 72
65
 73
2
 40
0.2
 49
0.1
 49
-0.1
  0
LTYPE
  2
DASHED
 70
64
  3
- - - - - - - - - - - - - - - - - - - -
 72
65
 73
2
 40
0.2
 49
0.1
 49
-0.1
  0
ENDTAB
  0
TABLE
  2
LAYER
 70
36
  0
LAYER
  2
0
 70
0
 62
7
  6
CONTINUOUS
  0
LAYER
  2
DEFAULT_1
 70
0
 62
7
  6
CENTER
  0
LAYER
  2
DEFAULT_2
 70
0
 62
8
  6
HIDDEN
  0
LAYER
  2
DEFAULT_3
 70
0
 62
7
  6
PHANTOM
  0
ENDTAB
  0
TABLE
  2
STYLE
 70
1
  0
STYLE
  2
STANDARD
 70
0
 40
0.0
 41
0.8
 50
0.0
 71
0
 42
0.2
  3
txt
  4

  0
STYLE
  2
TEXTSTYLE_1
 70
0
 40
0.0
 41
0.8
 50
0.0
 71
0
 42
0.2
  3
gdt
  4

  0
STYLE
  2
TEXTSTYLE_2
 70
0
 40
0.0
 41
0.6
 50
0.0
 71
0
 42
0.2
  3
txt
  4

  0
STYLE
  2
TEXTSTYLE_3
 70
0
 40
0.0
 41
1.0
 50
0.0
 71
0
 42
0.2
  3
ftb_____.ttf
  4

  0
STYLE
  2
TEXTSTYLE_4
 70
0
 40
0.0
 41
1.0
 50
0.0
 71
0
 42
0.2
  3
fti_____.ttf
  4

  0
STYLE
  2
TEXTSTYLE_5
 70
0
 40
0.0
 41
1.0
 50
0.0
 71
0
 42
0.2
  3
frutiger light.ttf
  4

  0
STYLE
  2
TEXTSTYLE_6
 70
0
 40
0.0
 41
0.7
 50
0.0
 71
0
 42
0.2
  3
txt
  4

  0
STYLE
  2
TEXTSTYLE_7
 70
0
 40
0.0
 41
0.6
 50
0.0
 71
0
 42
0.2
  3
txt
  4

  0
ENDTAB
  0
ENDSEC
  0
SECTION
  2
BLOCKS
  0
BLOCK
  8
0
 62
2
  6
CONTINUOUS
  2
SYMBOL_8_BL1
 70
64
 10
173.5956734183
 20
35.5937998301
  0
TEXT
  8
0
 62
7
  6
CONTINUOUS
 10
164.6539584268
 20
30.6865562072
  7
TEXTSTYLE_4
 40
1.0655737705
  1
The brand for plastic modular belts and chains
 41
1.0
 72
0
  0
LINE
  8
0
 62
7
  6
CONTINUOUS
 10
149.5737418074
 20
36.1675703219
 11
149.5737418074
 21
34.0364227809
  0
LINE
  8
0
 62
7
  6
CONTINUOUS
 10
149.8628043005
 20
31.0454914852
 11
149.8628043005
 21
31.1422825445
  0
LINE
  8
0
 62
7
  6
CONTINUOUS
 10
149.5737418074
 20
31.1100188581
 11
149.6315543091
 21
30.9164367395
  0
LINE
  8
0
 62
7
  6
CONTINUOUS
 10
150.9671844304
 20
33.9544555678
 11
150.9671844304
 21
36.1675703219
  0
LINE
  8
0
 62
7
  6
CONTINUOUS
 10
151.8862417523
 20
32.1101932727
 11
151.8862417523
 21
30.5937998301
  0
LINE
  8
0
 62
7
  6
CONTINUOUS
 10
152.1753043074
 20
30.5937998301
 11
152.1753043074
 21
31.3358647082
  0
LINE
  8
0
 62
7
  6
CONTINUOUS
 10
152.1753043074
 20
31.4649194539
 11
152.1753043074
 21
32.1101932727
  0
LINE
  8
0
 62
7
  6
CONTINUOUS
 10
149.6315543091
 20
31.3036010218
 11
149.5737418074
 21
31.1100188581
  0
LINE
  8
0
 62
7
  6
CONTINUOUS
 10
149.9784292936
 20
30.8841730531
 11
149.8628043005
 21
31.0454914852
  0
LINE
  8
0
 62
7
  6
CONTINUOUS
 10
151.0768668626
 20
31.400392081
 11
151.1346793074
 21
31.3036010218
  0
LINE
  8
0
 62
7
  6
CONTINUOUS
 10
151.4237418626
 20
31.3036010218
 11
151.3659292523
 21
31.4326557675
  0
LINE
  8
0
 62
7
  6
CONTINUOUS
 10
152.852430332
 20
36.1675703219
 11
152.852430332
 21
34.3642916334
  0
LINE
  8
0
 62
7
  6
CONTINUOUS
 10
152.852430332
 20
33.0528162235
 11
152.852430332
 21
32.3970785186
  0
LINE
  8
0
 62
7
  6
CONTINUOUS
 10
153.2159293074
 20
31.2390736489
 11
153.2159293074
 21
30.5937998301
  0
LINE
  8
0
 62
7
  6
CONTINUOUS
 10
153.5049916972
 20
30.5937998301
 11
153.5049916972
 21
31.2390736489
  0
LINE
  8
0
 62
7
  6
CONTINUOUS
 10
149.8628043005
 20
31.1422825445
 11
149.9206168074
 21
31.2713373354
  0
LINE
  8
0
 62
7
  6
CONTINUOUS
 10
149.6315543091
 20
30.9164367395
 11
149.7471793074
 21
30.7873819712
  0
LINE
  8
0
 62
7
  6
CONTINUOUS
 10
153.1581166972
 20
31.3681283946
 11
153.2159293074
 21
31.2390736489
  0
LINE
  8
0
 62
7
  6
CONTINUOUS
 10
153.9674919177
 20
30.8841730531
 11
154.0253041972
 21
30.7551182848
  0
LINE
  8
0
 62
7
  6
CONTINUOUS
 10
153.5049916972
 20
31.2390736489
 11
153.4471794177
 21
31.400392081
  0
LINE
  8
0
 62
7
  6
CONTINUOUS
 10
153.9674919177
 20
31.4326557675
 11
153.9674919177
 21
31.3681283946
  0
LINE
  8
0
 62
7
  6
CONTINUOUS
 10
153.9674919177
 20
30.9809641124
 11
153.9674919177
 21
30.8841730531
  0
LINE
  8
0
 62
7
  6
CONTINUOUS
 10
154.245872955
 20
32.3970785186
 11
154.245872955
 21
36.1675703219
  0
LINE
  8
0
 62
7
  6
CONTINUOUS
 10
154.2565543074
 20
30.8519093441
 11
154.2565543074
 21
30.9164367395
  0
LINE
  8
0
 62
7
  6
CONTINUOUS
 10
154.5737418074
 20
36.1675703219
 11
154.5737418074
 21
32.3970785186
  0
LINE
  8
0
 62
7
  6
CONTINUOUS
 10
151.3659292523
 20
30.7873819712
 11
151.4237418626
 21
30.9164367395
  0
LINE
  8
0
 62
7
  6
CONTINUOUS
 10
155.759679528
 20
30.6905909007
 11
155.7018665869
 21
30.8519093441
  0
LINE
  8
0
 62
7
  6
CONTINUOUS
 10
155.412804528
 20
31.3681283946
 11
155.412804528
 21
31.2713373354
  0
LINE
  8
0
 62
7
  6
CONTINUOUS
 10
155.412804528
 20
31.1422825445
 11
155.412804528
 21
30.9487004259
  0
LINE
  8
0
 62
7
  6
CONTINUOUS
 10
155.7018665869
 20
30.8519093441
 11
155.7018665869
 21
31.3681283946
  0
LINE
  8
0
 62
7
  6
CONTINUOUS
 10
155.9671844304
 20
32.3970785186
 11
155.9671844304
 21
34.2003572071
  0
LINE
  8
0
 62
7
  6
CONTINUOUS
 10
155.9671844304
 20
35.511832617
 11
155.9671844304
 21
36.1675703219
  0
LINE
  8
0
 62
7
  6
CONTINUOUS
 10
156.279992028
 20
32.1101932727
 11
156.279992028
 21
31.9488748406
  0
LINE
  8
0
 62
7
  6
CONTINUOUS
 10
156.279992028
 20
31.626237886
 11
156.279992028
 21
30.5937998301
  0
LINE
  8
0
 62
7
  6
CONTINUOUS
 10
156.5690540869
 20
30.5937998301
 11
156.5690540869
 21
31.626237886
  0
LINE
  8
0
 62
7
  6
CONTINUOUS
 10
156.5690540869
 20
31.9488748406
 11
156.5690540869
 21
32.1101932727
  0
LINE
  8
0
 62
7
  6
CONTINUOUS
 10
151.1346793074
 20
30.9164367395
 11
151.0768668626
 21
30.8196456577
  0
LINE
  8
0
 62
7
  6
CONTINUOUS
 10
153.4471794177
 20
31.400392081
 11
153.3893668074
 21
31.4649194539
  0
LINE
  8
0
 62
7
  6
CONTINUOUS
 10
154.3143669177
 20
30.7873819712
 11
154.2565543074
 21
30.8519093441
  0
LINE
  8
0
 62
7
  6
CONTINUOUS
 10
155.4706168074
 20
30.6583272086
 11
155.5284290869
 21
30.5937998301
  0
LINE
  8
0
 62
7
  6
CONTINUOUS
 10
155.412804528
 20
30.7551182848
 11
155.4706168074
 21
30.6583272086
  0
LINE
  8
0
 62
7
  6
CONTINUOUS
 10
155.8174918074
 20
30.5937998301
 11
155.759679528
 21
30.6905909007
  0
LINE
  8
0
 62
7
  6
CONTINUOUS
 10
155.7018665869
 20
31.3681283946
 11
155.6440543074
 21
31.4649194539
  0
LINE
  8
0
 62
7
  6
CONTINUOUS
 10
157.0315543074
 20
31.626237886
 11
157.0315543074
 21
30.5937998301
  0
LINE
  8
0
 62
7
  6
CONTINUOUS
 10
157.320617028
 20
30.5937998301
 11
157.320617028
 21
31.3358647082
  0
LINE
  8
0
 62
7
  6
CONTINUOUS
 10
157.320617028
 20
31.4649194539
 11
157.320617028
 21
31.626237886
  0
LINE
  8
0
 62
7
  6
CONTINUOUS
 10
157.852430332
 20
34.6101932727
 11
157.852430332
 21
32.3970785186
  0
LINE
  8
0
 62
7
  6
CONTINUOUS
 10
149.7471793074
 20
31.4326557675
 11
149.6315543091
 21
31.3036010218
  0
LINE
  8
0
 62
7
  6
CONTINUOUS
 10
149.9206168074
 20
31.2713373354
 11
149.9784292936
 21
31.3358647082
  0
LINE
  8
0
 62
7
  6
CONTINUOUS
 10
149.7471793074
 20
30.7873819712
 11
149.8628043005
 21
30.7228545871
  0
LINE
  8
0
 62
7
  6
CONTINUOUS
 10
150.1518667936
 20
30.7873819712
 11
149.9784292936
 21
30.8841730531
  0
LINE
  8
0
 62
7
  6
CONTINUOUS
 10
155.3549915869
 20
31.4326557675
 11
155.412804528
 21
31.3681283946
  0
LINE
  8
0
 62
7
  6
CONTINUOUS
 10
158.3034290869
 20
31.3681283946
 11
158.361242028
 21
31.2068099625
  0
LINE
  8
0
 62
7
  6
CONTINUOUS
 10
158.6503040869
 20
31.2068099625
 11
158.5924918074
 21
31.3681283946
  0
LINE
  8
0
 62
7
  6
CONTINUOUS
 10
158.361242028
 20
31.2068099625
 11
158.361242028
 21
30.5937998301
  0
LINE
  8
0
 62
7
  6
CONTINUOUS
 10
158.6503040869
 20
30.5937998301
 11
158.6503040869
 21
31.2068099625
  0
LINE
  8
0
 62
7
  6
CONTINUOUS
 10
159.1128043074
 20
31.4326557675
 11
159.1128043074
 21
31.3681283946
  0
LINE
  8
0
 62
7
  6
CONTINUOUS
 10
159.245872955
 20
32.3970785186
 11
159.245872955
 21
34.5282260596
  0
LINE
  8
0
 62
7
  6
CONTINUOUS
 10
159.5737418074
 20
36.1675703219
 11
159.5737418074
 21
32.3970785186
  0
LINE
  8
0
 62
7
  6
CONTINUOUS
 10
154.2565543074
 20
30.9164367395
 11
154.3143669177
 21
31.0132277988
  0
LINE
  8
0
 62
7
  6
CONTINUOUS
 10
149.8628043005
 20
30.7228545871
 11
150.0362418212
 21
30.6583272086
  0
LINE
  8
0
 62
7
  6
CONTINUOUS
 10
151.3659292523
 20
31.4326557675
 11
151.1924917523
 21
31.5294468267
  0
LINE
  8
0
 62
7
  6
CONTINUOUS
 10
154.0253041972
 20
30.7551182848
 11
154.1987416972
 21
30.6583272086
  0
LINE
  8
0
 62
7
  6
CONTINUOUS
 10
153.0424918074
 20
31.4326557675
 11
153.1581166972
 21
31.3681283946
  0
LINE
  8
0
 62
7
  6
CONTINUOUS
 10
153.3893668074
 20
31.4649194539
 11
153.2737419177
 21
31.5294468267
  0
LINE
  8
0
 62
7
  6
CONTINUOUS
 10
159.1128043074
 20
30.8519093441
 11
159.228429528
 21
30.7228545871
  0
LINE
  8
0
 62
7
  6
CONTINUOUS
 10
159.4596793074
 20
30.7873819712
 11
159.401867028
 21
30.8519093441
  0
LINE
  8
0
 62
7
  6
CONTINUOUS
 10
159.1128043074
 20
31.3681283946
 11
159.228429528
 21
31.2390736489
  0
LINE
  8
0
 62
7
  6
CONTINUOUS
 10
158.5924918074
 20
31.3681283946
 11
158.534679528
 21
31.4649194539
  0
LINE
  8
0
 62
7
  6
CONTINUOUS
 10
160.9628038663
 20
30.7873819712
 11
160.9628038663
 21
30.8519093441
  0
LINE
  8
0
 62
7
  6
CONTINUOUS
 10
160.9671844304
 20
32.3970785186
 11
160.9671844304
 21
36.1675703219
  0
LINE
  8
0
 62
7
  6
CONTINUOUS
 10
154.0253041972
 20
31.4971831403
 11
153.9674919177
 21
31.4326557675
  0
LINE
  8
0
 62
7
  6
CONTINUOUS
 10
150.9034292799
 20
31.4649194539
 11
151.0768668626
 21
31.400392081
  0
LINE
  8
0
 62
7
  6
CONTINUOUS
 10
155.6440543074
 20
31.4649194539
 11
155.5284290869
 21
31.5294468267
  0
LINE
  8
0
 62
7
  6
CONTINUOUS
 10
159.4596793074
 20
31.3036010218
 11
159.401867028
 21
31.3681283946
  0
LINE
  8
0
 62
7
  6
CONTINUOUS
 10
160.615929528
 20
30.9164367395
 11
160.6737418074
 21
30.8519093441
  0
LINE
  8
0
 62
7
  6
CONTINUOUS
 10
160.9628038663
 20
30.8519093441
 11
160.8471793074
 21
30.9809641124
  0
LINE
  8
0
 62
7
  6
CONTINUOUS
 10
160.615929528
 20
31.4326557675
 11
160.6737418074
 21
31.3681283946
  0
LINE
  8
0
 62
7
  6
CONTINUOUS
 10
160.9628038663
 20
31.3681283946
 11
160.8471793074
 21
31.4971831403
  0
LINE
  8
0
 62
7
  6
CONTINUOUS
 10
154.2565543074
 20
31.3681283946
 11
154.3143669177
 21
31.4326557675
  0
LINE
  8
0
 62
7
  6
CONTINUOUS
 10
154.0831168074
 20
31.1100188581
 11
153.9674919177
 21
30.9809641124
  0
LINE
  8
0
 62
7
  6
CONTINUOUS
 10
155.412804528
 20
30.9487004259
 11
155.3549915869
 21
30.8841730531
  0
LINE
  8
0
 62
7
  6
CONTINUOUS
 10
155.3549915869
 20
30.6905909007
 11
155.412804528
 21
30.7551182848
  0
LINE
  8
0
 62
7
  6
CONTINUOUS
 10
154.1987416972
 20
30.6583272086
 11
154.3143669177
 21
30.6260635193
  0
LINE
  8
0
 62
7
  6
CONTINUOUS
 10
151.1924917523
 20
31.5294468267
 11
150.9612418074
 21
31.5939741996
  0
LINE
  8
0
 62
7
  6
CONTINUOUS
 10
154.5456166972
 20
30.7228545871
 11
154.3143669177
 21
30.7873819712
  0
LINE
  8
0
 62
7
  6
CONTINUOUS
 10
153.2737419177
 20
31.5294468267
 11
153.1003044177
 21
31.5939741996
  0
LINE
  8
0
 62
7
  6
CONTINUOUS
 10
155.5284290869
 20
31.5294468267
 11
155.3549915869
 21
31.5939741996
  0
LINE
  8
0
 62
7
  6
CONTINUOUS
 10
158.187804528
 20
31.4326557675
 11
158.3034290869
 21
31.3681283946
  0
LINE
  8
0
 62
7
  6
CONTINUOUS
 10
158.534679528
 20
31.4649194539
 11
158.4190543074
 21
31.5294468267
  0
LINE
  8
0
 62
7
  6
CONTINUOUS
 10
150.0362418212
 20
30.6583272086
 11
150.2096793212
 21
30.6260635193
  0
LINE
  8
0
 62
7
  6
CONTINUOUS
 10
150.498741835
 20
30.7228545871
 11
150.1518667936
 21
30.7873819712
  0
LINE
  8
0
 62
7
  6
CONTINUOUS
 10
152.9268669177
 20
31.4649194539
 11
153.0424918074
 21
31.4326557675
  0
LINE
  8
0
 62
7
  6
CONTINUOUS
 10
155.239367028
 20
31.4649194539
 11
155.3549915869
 21
31.4326557675
  0
LINE
  8
0
 62
7
  6
CONTINUOUS
 10
159.575304528
 20
30.7551182848
 11
159.4596793074
 21
30.7873819712
  0
LINE
  8
0
 62
7
  6
CONTINUOUS
 10
158.0721793074
 20
31.4649194539
 11
158.187804528
 21
31.4326557675
  0
LINE
  8
0
 62
7
  6
CONTINUOUS
 10
159.228429528
 20
30.7228545871
 11
159.401867028
 21
30.6583272086
  0
LINE
  8
0
 62
7
  6
CONTINUOUS
 10
158.4190543074
 20
31.5294468267
 11
158.2456168074
 21
31.5939741996
  0
LINE
  8
0
 62
7
  6
CONTINUOUS
 10
159.6331168074
 20
31.2390736489
 11
159.4596793074
 21
31.3036010218
  0
LINE
  8
0
 62
7
  6
CONTINUOUS
 10
160.442492028
 20
30.9809641124
 11
160.615929528
 21
30.9164367395
  0
LINE
  8
0
 62
7
  6
CONTINUOUS
 10
160.8471793074
 20
31.4971831403
 11
160.6737418074
 21
31.5617105132
  0
LINE
  8
0
 62
7
  6
CONTINUOUS
 10
159.228429528
 20
31.2390736489
 11
159.4596793074
 21
31.1422825445
  0
LINE
  8
0
 62
7
  6
CONTINUOUS
 10
160.8471793074
 20
30.9809641124
 11
160.615929528
 21
31.0777551716
  0
LINE
  8
0
 62
7
  6
CONTINUOUS
 10
159.401867028
 20
31.3681283946
 11
159.4596793074
 21
31.4326557675
  0
LINE
  8
0
 62
7
  6
CONTINUOUS
 10
149.8628043005
 20
31.4971831403
 11
149.7471793074
 21
31.4326557675
  0
LINE
  8
0
 62
7
  6
CONTINUOUS
 10
149.9784292936
 20
31.3358647082
 11
150.1518667936
 21
31.4326557675
  0
LINE
  8
0
 62
7
  6
CONTINUOUS
 10
152.2909293626
 20
31.5294468267
 11
152.1753043074
 21
31.4649194539
  0
LINE
  8
0
 62
7
  6
CONTINUOUS
 10
152.1753043074
 20
31.3358647082
 11
152.2909293626
 21
31.400392081
  0
LINE
  8
0
 62
7
  6
CONTINUOUS
 10
151.1924917523
 20
30.6905909007
 11
151.3659292523
 21
30.7873819712
  0
LINE
  8
0
 62
7
  6
CONTINUOUS
 10
150.2096793212
 20
30.6260635193
 11
150.5565542799
 21
30.5937998301
  0
LINE
  8
0
 62
7
  6
CONTINUOUS
 10
154.3143669177
 20
30.6260635193
 11
154.5456166972
 21
30.5937998301
  0
LINE
  8
0
 62
7
  6
CONTINUOUS
 10
152.6956168074
 20
31.4971831403
 11
152.9268669177
 21
31.4649194539
  0
LINE
  8
0
 62
7
  6
CONTINUOUS
 10
155.0081169177
 20
31.4971831403
 11
155.239367028
 21
31.4649194539
  0
LINE
  8
0
 62
7
  6
CONTINUOUS
 10
159.4596793074
 20
31.1422825445
 11
160.442492028
 21
30.9809641124
  0
LINE
  8
0
 62
7
  6
CONTINUOUS
 10
160.615929528
 20
31.0777551716
 11
159.6331168074
 21
31.2390736489
  0
LINE
  8
0
 62
7
  6
CONTINUOUS
 10
153.1003044177
 20
31.5939741996
 11
152.9268669177
 21
31.626237886
  0
LINE
  8
0
 62
7
  6
CONTINUOUS
 10
159.401867028
 20
30.6583272086
 11
159.575304528
 21
30.6260635193
  0
LINE
  8
0
 62
7
  6
CONTINUOUS
 10
158.2456168074
 20
31.5939741996
 11
158.0721793074
 21
31.626237886
  0
LINE
  8
0
 62
7
  6
CONTINUOUS
 10
160.5003043074
 20
31.4649194539
 11
160.615929528
 21
31.4326557675
  0
LINE
  8
0
 62
7
  6
CONTINUOUS
 10
160.6737418074
 20
30.8519093441
 11
160.615929528
 21
30.7873819712
  0
LINE
  8
0
 62
7
  6
CONTINUOUS
 10
159.228429528
 20
31.5294468267
 11
159.1128043074
 21
31.4326557675
  0
LINE
  8
0
 62
7
  6
CONTINUOUS
 10
154.1409294177
 20
31.5617105132
 11
154.0253041972
 21
31.4971831403
  0
LINE
  8
0
 62
7
  6
CONTINUOUS
 10
154.1987416972
 20
31.1745462761
 11
154.0831168074
 21
31.1100188581
  0
LINE
  8
0
 62
7
  6
CONTINUOUS
 10
154.3143669177
 20
31.0132277988
 11
154.4299918074
 21
31.0777551716
  0
LINE
  8
0
 62
7
  6
CONTINUOUS
 10
151.8862417523
 20
30.5937998301
 11
152.1753043074
 21
30.5937998301
  0
LINE
  8
0
 62
7
  6
CONTINUOUS
 10
153.2159293074
 20
30.5937998301
 11
153.5049916972
 21
30.5937998301
  0
LINE
  8
0
 62
7
  6
CONTINUOUS
 10
154.5456166972
 20
30.5937998301
 11
154.8924916972
 21
30.5937998301
  0
LINE
  8
0
 62
7
  6
CONTINUOUS
 10
155.5284290869
 20
30.5937998301
 11
155.8174918074
 21
30.5937998301
  0
LINE
  8
0
 62
7
  6
CONTINUOUS
 10
156.279992028
 20
30.5937998301
 11
156.5690540869
 21
30.5937998301
  0
LINE
  8
0
 62
7
  6
CONTINUOUS
 10
157.0315543074
 20
30.5937998301
 11
157.320617028
 21
30.5937998301
  0
LINE
  8
0
 62
7
  6
CONTINUOUS
 10
158.361242028
 20
30.5937998301
 11
158.6503040869
 21
30.5937998301
  0
LINE
  8
0
 62
7
  6
CONTINUOUS
 10
159.922179528
 20
30.5937998301
 11
160.269054528
 21
30.5937998301
  0
LINE
  8
0
 62
7
  6
CONTINUOUS
 10
160.269054528
 20
30.7228545871
 11
159.922179528
 21
30.7228545871
  0
LINE
  8
0
 62
7
  6
CONTINUOUS
 10
154.8924916972
 20
30.7228545871
 11
154.5456166972
 21
30.7228545871
  0
LINE
  8
0
 62
7
  6
CONTINUOUS
 10
159.401867028
 20
30.8519093441
 11
159.1128043074
 21
30.8519093441
  0
LINE
  8
0
 62
7
  6
CONTINUOUS
 10
151.4237418626
 20
30.9164367395
 11
151.1346793074
 21
30.9164367395
  0
LINE
  8
0
 62
7
  6
CONTINUOUS
 10
150.498741835
 20
31.4971831403
 11
150.9034292799
 21
31.4649194539
  0
LINE
  8
0
 62
7
  6
CONTINUOUS
 10
150.9612418074
 20
31.5939741996
 11
150.5565542799
 21
31.626237886
  0
LINE
  8
0
 62
7
  6
CONTINUOUS
 10
159.575304528
 20
30.6260635193
 11
159.922179528
 21
30.5937998301
  0
LINE
  8
0
 62
7
  6
CONTINUOUS
 10
159.922179528
 20
30.7228545871
 11
159.575304528
 21
30.7551182848
  0
LINE
  8
0
 62
7
  6
CONTINUOUS
 10
155.3549915869
 20
31.5939741996
 11
155.0081169177
 21
31.626237886
  0
LINE
  8
0
 62
7
  6
CONTINUOUS
 10
160.1534293074
 20
31.4971831403
 11
160.5003043074
 21
31.4649194539
  0
LINE
  8
0
 62
7
  6
CONTINUOUS
 10
160.5003043074
 20
31.5939741996
 11
160.1534293074
 21
31.626237886
  0
LINE
  8
0
 62
7
  6
CONTINUOUS
 10
157.840929528
 20
31.4971831403
 11
158.0721793074
 21
31.4649194539
  0
LINE
  8
0
 62
7
  6
CONTINUOUS
 10
160.6737418074
 20
31.5617105132
 11
160.5003043074
 21
31.5939741996
  0
LINE
  8
0
 62
7
  6
CONTINUOUS
 10
160.8471793074
 20
30.6905909007
 11
160.9628038663
 21
30.7873819712
  0
LINE
  8
0
 62
7
  6
CONTINUOUS
 10
155.3549915869
 20
30.8841730531
 11
155.1815540869
 21
30.7873819712
  0
LINE
  8
0
 62
7
  6
CONTINUOUS
 10
157.4362415869
 20
31.5294468267
 11
157.320617028
 21
31.4649194539
  0
LINE
  8
0
 62
7
  6
CONTINUOUS
 10
157.320617028
 20
31.3358647082
 11
157.4362415869
 21
31.400392081
  0
LINE
  8
0
 62
7
  6
CONTINUOUS
 10
150.0362418212
 20
31.5617105132
 11
149.8628043005
 21
31.4971831403
  0
LINE
  8
0
 62
7
  6
CONTINUOUS
 10
152.4643666972
 20
31.5939741996
 11
152.2909293626
 21
31.5294468267
  0
LINE
  8
0
 62
7
  6
CONTINUOUS
 10
152.2909293626
 20
31.400392081
 11
152.4643666972
 21
31.4649194539
  0
LINE
  8
0
 62
7
  6
CONTINUOUS
 10
151.0768668626
 20
30.8196456577
 11
150.9034292799
 21
30.7551182848
  0
LINE
  8
0
 62
7
  6
CONTINUOUS
 10
160.5003043074
 20
30.7551182848
 11
160.269054528
 21
30.7228545871
  0
LINE
  8
0
 62
7
  6
CONTINUOUS
 10
154.8924916972
 20
30.5937998301
 11
155.1815540869
 21
30.6260635193
  0
LINE
  8
0
 62
7
  6
CONTINUOUS
 10
160.269054528
 20
30.5937998301
 11
160.615929528
 21
30.6260635193
  0
LINE
  8
0
 62
7
  6
CONTINUOUS
 10
150.5565542799
 20
30.5937998301
 11
150.9612418074
 21
30.6260635193
  0
LINE
  8
0
 62
7
  6
CONTINUOUS
 10
150.9034292799
 20
30.7551182848
 11
150.498741835
 21
30.7228545871
  0
LINE
  8
0
 62
7
  6
CONTINUOUS
 10
154.7768668074
 20
31.1422825445
 11
155.412804528
 21
31.1422825445
  0
LINE
  8
0
 62
7
  6
CONTINUOUS
 10
155.412804528
 20
31.2713373354
 11
154.7768668074
 21
31.2713373354
  0
LINE
  8
0
 62
7
  6
CONTINUOUS
 10
151.1346793074
 20
31.3036010218
 11
151.4237418626
 21
31.3036010218
  0
LINE
  8
0
 62
7
  6
CONTINUOUS
 10
153.9674919177
 20
31.3681283946
 11
154.2565543074
 21
31.3681283946
  0
LINE
  8
0
 62
7
  6
CONTINUOUS
 10
160.6737418074
 20
31.3681283946
 11
160.9628038663
 21
31.3681283946
  0
LINE
  8
0
 62
7
  6
CONTINUOUS
 10
154.6612419177
 20
31.4971831403
 11
155.0081169177
 21
31.4971831403
  0
LINE
  8
0
 62
7
  6
CONTINUOUS
 10
159.8065543074
 20
31.4971831403
 11
160.1534293074
 21
31.4971831403
  0
LINE
  8
0
 62
7
  6
CONTINUOUS
 10
160.1534293074
 20
31.626237886
 11
159.8065543074
 21
31.626237886
  0
LINE
  8
0
 62
7
  6
CONTINUOUS
 10
158.0721793074
 20
31.626237886
 11
157.840929528
 21
31.626237886
  0
LINE
  8
0
 62
7
  6
CONTINUOUS
 10
157.320617028
 20
31.626237886
 11
157.0315543074
 21
31.626237886
  0
LINE
  8
0
 62
7
  6
CONTINUOUS
 10
156.5690540869
 20
31.626237886
 11
156.279992028
 21
31.626237886
  0
LINE
  8
0
 62
7
  6
CONTINUOUS
 10
155.0081169177
 20
31.626237886
 11
154.6612419177
 21
31.626237886
  0
LINE
  8
0
 62
7
  6
CONTINUOUS
 10
152.9268669177
 20
31.626237886
 11
152.6956168074
 21
31.626237886
  0
LINE
  8
0
 62
7
  6
CONTINUOUS
 10
156.279992028
 20
31.9488748406
 11
156.5690540869
 21
31.9488748406
  0
LINE
  8
0
 62
7
  6
CONTINUOUS
 10
156.5690540869
 20
32.1101932727
 11
156.279992028
 21
32.1101932727
  0
LINE
  8
0
 62
7
  6
CONTINUOUS
 10
152.1753043074
 20
32.1101932727
 11
151.8862417523
 21
32.1101932727
  0
LINE
  8
0
 62
7
  6
CONTINUOUS
 10
151.2130860697
 20
32.3970785186
 11
151.6256574183
 21
32.3970785186
  0
LINE
  8
0
 62
7
  6
CONTINUOUS
 10
152.852430332
 20
32.3970785186
 11
154.245872955
 21
32.3970785186
  0
LINE
  8
0
 62
7
  6
CONTINUOUS
 10
154.5737418074
 20
32.3970785186
 11
155.9671844304
 21
32.3970785186
  0
LINE
  8
0
 62
7
  6
CONTINUOUS
 10
157.852430332
 20
32.3970785186
 11
159.245872955
 21
32.3970785186
  0
LINE
  8
0
 62
7
  6
CONTINUOUS
 10
159.5737418074
 20
32.3970785186
 11
160.9671844304
 21
32.3970785186
  0
LINE
  8
0
 62
7
  6
CONTINUOUS
 10
157.6096790869
 20
31.5939741996
 11
157.4362415869
 21
31.5294468267
  0
LINE
  8
0
 62
7
  6
CONTINUOUS
 10
155.1815540869
 20
30.6260635193
 11
155.3549915869
 21
30.6905909007
  0
LINE
  8
0
 62
7
  6
CONTINUOUS
 10
160.615929528
 20
30.6260635193
 11
160.8471793074
 21
30.6905909007
  0
LINE
  8
0
 62
7
  6
CONTINUOUS
 10
160.615929528
 20
30.7873819712
 11
160.5003043074
 21
30.7551182848
  0
LINE
  8
0
 62
7
  6
CONTINUOUS
 10
159.575304528
 20
31.4649194539
 11
159.8065543074
 21
31.4971831403
  0
LINE
  8
0
 62
7
  6
CONTINUOUS
 10
157.6096790869
 20
31.4649194539
 11
157.840929528
 21
31.4971831403
  0
LINE
  8
0
 62
7
  6
CONTINUOUS
 10
154.5456166972
 20
31.1100188581
 11
154.7768668074
 21
31.1422825445
  0
LINE
  8
0
 62
7
  6
CONTINUOUS
 10
157.840929528
 20
31.626237886
 11
157.6096790869
 21
31.5939741996
  0
LINE
  8
0
 62
7
  6
CONTINUOUS
 10
154.4299918074
 20
31.4649194539
 11
154.6612419177
 21
31.4971831403
  0
LINE
  8
0
 62
7
  6
CONTINUOUS
 10
159.8065543074
 20
31.626237886
 11
159.4596793074
 21
31.5939741996
  0
LINE
  8
0
 62
7
  6
CONTINUOUS
 10
154.7768668074
 20
31.2713373354
 11
154.4299918074
 21
31.2390736489
  0
LINE
  8
0
 62
7
  6
CONTINUOUS
 10
150.5565542799
 20
31.626237886
 11
150.2096793212
 21
31.5939741996
  0
LINE
  8
0
 62
7
  6
CONTINUOUS
 10
154.6612419177
 20
31.626237886
 11
154.2565543074
 21
31.5939741996
  0
LINE
  8
0
 62
7
  6
CONTINUOUS
 10
152.0327582009
 20
33.5446195022
 11
151.3770204959
 21
33.5446195022
  0
LINE
  8
0
 62
7
  6
CONTINUOUS
 10
157.4362415869
 20
31.400392081
 11
157.6096790869
 21
31.4649194539
  0
LINE
  8
0
 62
7
  6
CONTINUOUS
 10
159.4596793074
 20
31.4326557675
 11
159.575304528
 21
31.4649194539
  0
LINE
  8
0
 62
7
  6
CONTINUOUS
 10
159.4596793074
 20
31.5939741996
 11
159.228429528
 21
31.5294468267
  0
LINE
  8
0
 62
7
  6
CONTINUOUS
 10
155.1815540869
 20
30.7873819712
 11
154.8924916972
 21
30.7228545871
  0
LINE
  8
0
 62
7
  6
CONTINUOUS
 10
152.4643666972
 20
31.4649194539
 11
152.6956168074
 21
31.4971831403
  0
LINE
  8
0
 62
7
  6
CONTINUOUS
 10
152.6956168074
 20
31.626237886
 11
152.4643666972
 21
31.5939741996
  0
LINE
  8
0
 62
7
  6
CONTINUOUS
 10
150.2674918074
 20
31.4649194539
 11
150.498741835
 21
31.4971831403
  0
LINE
  8
0
 62
7
  6
CONTINUOUS
 10
156.7868565615
 20
35.0200293383
 11
157.4425942664
 21
35.0200293383
  0
LINE
  8
0
 62
7
  6
CONTINUOUS
 10
154.4299918074
 20
31.0777551716
 11
154.5456166972
 21
31.1100188581
  0
LINE
  8
0
 62
7
  6
CONTINUOUS
 10
154.4299918074
 20
31.2390736489
 11
154.1987416972
 21
31.1745462761
  0
LINE
  8
0
 62
7
  6
CONTINUOUS
 10
154.3143669177
 20
31.4326557675
 11
154.4299918074
 21
31.4649194539
  0
LINE
  8
0
 62
7
  6
CONTINUOUS
 10
150.9612418074
 20
30.6260635193
 11
151.1924917523
 21
30.6905909007
  0
LINE
  8
0
 62
7
  6
CONTINUOUS
 10
154.2565543074
 20
31.5939741996
 11
154.1409294177
 21
31.5617105132
  0
LINE
  8
0
 62
7
  6
CONTINUOUS
 10
150.2096793212
 20
31.5939741996
 11
150.0362418212
 21
31.5617105132
  0
LINE
  8
0
 62
7
  6
CONTINUOUS
 10
160.9671844304
 20
36.1675703219
 11
159.5737418074
 21
36.1675703219
  0
LINE
  8
0
 62
7
  6
CONTINUOUS
 10
157.6065286927
 20
36.1675703219
 11
157.1939573441
 21
36.1675703219
  0
LINE
  8
0
 62
7
  6
CONTINUOUS
 10
155.9671844304
 20
36.1675703219
 11
154.5737418074
 21
36.1675703219
  0
LINE
  8
0
 62
7
  6
CONTINUOUS
 10
154.245872955
 20
36.1675703219
 11
152.852430332
 21
36.1675703219
  0
LINE
  8
0
 62
7
  6
CONTINUOUS
 10
150.9671844304
 20
36.1675703219
 11
149.5737418074
 21
36.1675703219
  0
LINE
  8
0
 62
7
  6
CONTINUOUS
 10
150.1518667936
 20
31.4326557675
 11
150.2674918074
 21
31.4649194539
  0
CIRCLE
  8
0
 62
7
  6
CONTINUOUS
 10
160.2704631189
 20
38.5036358957
 40
2.0901639344
  0
ARC
  8
0
 62
7
  6
CONTINUOUS
 10
151.2130860697
 20
34.0364227809
 40
1.6393442623
 50
180.0
 51
270.0
  0
ARC
  8
0
 62
7
  6
CONTINUOUS
 10
157.6065286927
 20
34.5282260596
 40
1.6393442623
 50
0.0
 51
90.0
  0
ARC
  8
0
 62
7
  6
CONTINUOUS
 10
151.6256574183
 20
33.8724883547
 40
1.4754098361
 50
270.0
 51
326.2510114041
  0
ARC
  8
0
 62
7
  6
CONTINUOUS
 10
157.1939573441
 20
34.6921604858
 40
1.4754098361
 50
90.0
 51
146.2510114041
  0
ARC
  8
0
 62
7
  6
CONTINUOUS
 10
152.0327582009
 20
34.3642916334
 40
0.8196721311
 50
270.0
 51
360.0
  0
ARC
  8
0
 62
7
  6
CONTINUOUS
 10
156.7868565615
 20
34.2003572071
 40
0.8196721311
 50
90.0
 51
180.0
  0
ARC
  8
0
 62
7
  6
CONTINUOUS
 10
151.3770204959
 20
33.9544555678
 40
0.4098360656
 50
180.0
 51
270.0
  0
ARC
  8
0
 62
7
  6
CONTINUOUS
 10
157.4425942664
 20
34.6101932727
 40
0.4098360656
 50
0.0
 51
90.0
  0
SOLID
  8
0
 62
7
  6
CONTINUOUS
 10
156.279992028
 20
31.9488752009
 11
156.279992028
 21
32.1101936845
 12
156.5690540869
 22
31.9488752009
 13
156.5690540869
 23
32.1101936845
  0
SOLID
  8
0
 62
7
  6
CONTINUOUS
 10
150.5565542799
 20
31.6262382337
 11
150.9612418074
 21
31.5939740028
 12
150.2096793212
 22
31.5939740028
 13
150.2096793212
 23
31.5939740028
  0
SOLID
  8
0
 62
7
  6
CONTINUOUS
 10
150.0362418212
 20
31.5617111435
 11
150.2096793212
 21
31.5939740028
 12
150.9612418074
 22
31.5939740028
 13
150.9612418074
 23
31.5939740028
  0
SOLID
  8
0
 62
7
  6
CONTINUOUS
 10
150.9612418074
 20
31.5939740028
 11
151.1924917523
 21
31.5294468402
 12
150.0362418212
 22
31.5617111435
 13
150.0362418212
 23
31.5617111435
  0
SOLID
  8
0
 62
7
  6
CONTINUOUS
 10
149.8628043005
 20
31.49718259
 11
150.0362418212
 21
31.5617111435
 12
151.1924917523
 22
31.5294468402
 13
151.1924917523
 23
31.5294468402
  0
SOLID
  8
0
 62
7
  6
CONTINUOUS
 10
149.8628043005
 20
31.49718259
 11
151.1924917523
 21
31.5294468402
 12
150.498741835
 22
31.49718259
 13
150.498741835
 23
31.49718259
  0
SOLID
  8
0
 62
7
  6
CONTINUOUS
 10
150.498741835
 20
31.49718259
 11
151.1924917523
 21
31.5294468402
 12
150.9034292799
 22
31.4649197501
 13
150.9034292799
 23
31.4649197501
  0
SOLID
  8
0
 62
7
  6
CONTINUOUS
 10
151.1924917523
 20
31.5294468402
 11
151.3659292523
 21
31.4326554468
 12
150.9034292799
 22
31.4649197501
 13
150.9034292799
 23
31.4649197501
  0
SOLID
  8
0
 62
7
  6
CONTINUOUS
 10
151.0768668626
 20
31.4003926599
 11
150.9034292799
 21
31.4649197501
 12
151.3659292523
 22
31.4326554468
 13
151.3659292523
 23
31.4326554468
  0
SOLID
  8
0
 62
7
  6
CONTINUOUS
 10
151.0768668626
 20
31.4003926599
 11
151.3659292523
 21
31.4326554468
 12
151.1346793074
 22
31.3036013776
 13
151.1346793074
 23
31.3036013776
  0
SOLID
  8
0
 62
7
  6
CONTINUOUS
 10
151.3659292523
 20
31.4326554468
 11
151.4237418626
 21
31.3036013776
 12
151.1346793074
 22
31.3036013776
 13
151.1346793074
 23
31.3036013776
  0
SOLID
  8
0
 62
7
  6
CONTINUOUS
 10
152.4643666972
 20
31.5939739754
 11
152.6956168074
 21
31.6262382787
 12
152.9268669177
 22
31.6262382787
 13
152.9268669177
 23
31.6262382787
  0
SOLID
  8
0
 62
7
  6
CONTINUOUS
 10
152.9268669177
 20
31.6262382787
 11
153.1003044177
 21
31.5939739754
 12
152.4643666972
 22
31.5939739754
 13
152.4643666972
 23
31.5939739754
  0
SOLID
  8
0
 62
7
  6
CONTINUOUS
 10
152.2909293626
 20
31.5294468852
 11
152.4643666972
 21
31.5939739754
 12
153.1003044177
 22
31.5939739754
 13
153.1003044177
 23
31.5939739754
  0
SOLID
  8
0
 62
7
  6
CONTINUOUS
 10
153.1003044177
 20
31.5939739754
 11
153.2737419177
 21
31.5294468852
 12
152.2909293626
 22
31.5294468852
 13
152.2909293626
 23
31.5294468852
  0
SOLID
  8
0
 62
7
  6
CONTINUOUS
 10
153.2737419177
 20
31.5294468852
 11
152.6956168074
 21
31.4971825369
 12
152.2909293626
 22
31.5294468852
 13
152.2909293626
 23
31.5294468852
  0
SOLID
  8
0
 62
7
  6
CONTINUOUS
 10
152.1753043074
 20
31.4649197951
 11
152.2909293626
 21
31.5294468852
 12
152.6956168074
 22
31.4971825369
 13
152.6956168074
 23
31.4971825369
  0
SOLID
  8
0
 62
7
  6
CONTINUOUS
 10
152.6956168074
 20
31.4971825369
 11
152.4643666972
 21
31.4649197951
 12
152.1753043074
 22
31.4649197951
 13
152.1753043074
 23
31.4649197951
  0
SOLID
  8
0
 62
7
  6
CONTINUOUS
 10
152.6956168074
 20
31.4971825369
 11
153.2737419177
 21
31.5294468852
 12
152.9268669177
 22
31.4649197951
 13
152.9268669177
 23
31.4649197951
  0
SOLID
  8
0
 62
7
  6
CONTINUOUS
 10
153.2737419177
 20
31.5294468852
 11
153.3893668074
 21
31.4649197951
 12
152.9268669177
 22
31.4649197951
 13
152.9268669177
 23
31.4649197951
  0
SOLID
  8
0
 62
7
  6
CONTINUOUS
 10
153.0424918074
 20
31.4326554468
 11
152.9268669177
 21
31.4649197951
 12
153.3893668074
 22
31.4649197951
 13
153.3893668074
 23
31.4649197951
  0
SOLID
  8
0
 62
7
  6
CONTINUOUS
 10
153.3893668074
 20
31.4649197951
 11
153.4471794177
 21
31.4003927049
 12
153.0424918074
 22
31.4326554468
 13
153.0424918074
 23
31.4326554468
  0
SOLID
  8
0
 62
7
  6
CONTINUOUS
 10
153.1581166972
 20
31.3681283566
 11
153.0424918074
 21
31.4326554468
 12
153.4471794177
 22
31.4003927049
 13
153.4471794177
 23
31.4003927049
  0
SOLID
  8
0
 62
7
  6
CONTINUOUS
 10
153.1581166972
 20
31.3681283566
 11
153.4471794177
 21
31.4003927049
 12
153.2159293074
 22
31.2390742213
 13
153.2159293074
 23
31.2390742213
  0
SOLID
  8
0
 62
7
  6
CONTINUOUS
 10
153.4471794177
 20
31.4003927049
 11
153.5049916972
 21
31.2390742213
 12
153.2159293074
 22
31.2390742213
 13
153.2159293074
 23
31.2390742213
  0
SOLID
  8
0
 62
7
  6
CONTINUOUS
 10
152.4643666972
 20
31.4649197951
 11
152.2909293626
 21
31.4003927049
 12
152.1753043074
 22
31.4649197951
 13
152.1753043074
 23
31.4649197951
  0
SOLID
  8
0
 62
7
  6
CONTINUOUS
 10
152.2909293626
 20
31.4003927049
 11
152.1753043074
 21
31.3358640533
 12
152.1753043074
 22
31.4649197951
 13
152.1753043074
 23
31.4649197951
  0
SOLID
  8
0
 62
7
  6
CONTINUOUS
 10
152.1753043074
 20
31.3358640533
 11
151.8862417523
 21
30.5938002869
 12
152.1753043074
 22
31.4649197951
 13
152.1753043074
 23
31.4649197951
  0
SOLID
  8
0
 62
7
  6
CONTINUOUS
 10
152.1753043074
 20
31.4649197951
 11
151.8862417523
 21
30.5938002869
 12
152.1753043074
 22
32.1101937295
 13
152.1753043074
 23
32.1101937295
  0
SOLID
  8
0
 62
7
  6
CONTINUOUS
 10
151.8862417523
 20
30.5938002869
 11
151.8862417523
 21
32.1101937295
 12
152.1753043074
 22
32.1101937295
 13
152.1753043074
 23
32.1101937295
  0
SOLID
  8
0
 62
7
  6
CONTINUOUS
 10
152.1753043074
 20
31.3358640533
 11
152.1753043074
 21
30.5938002869
 12
151.8862417523
 22
30.5938002869
 13
151.8862417523
 23
30.5938002869
  0
SOLID
  8
0
 62
7
  6
CONTINUOUS
 10
153.2159293074
 20
30.5938002869
 11
153.2159293074
 21
31.2390742213
 12
153.5049916972
 22
31.2390742213
 13
153.5049916972
 23
31.2390742213
  0
SOLID
  8
0
 62
7
  6
CONTINUOUS
 10
153.5049916972
 20
31.2390742213
 11
153.5049916972
 21
30.5938002869
 12
153.2159293074
 22
30.5938002869
 13
153.2159293074
 23
30.5938002869
  0
SOLID
  8
0
 62
7
  6
CONTINUOUS
 10
154.2565543074
 20
31.5939738288
 11
154.6612419177
 21
31.6262385959
 12
155.0081169177
 22
31.6262385959
 13
155.0081169177
 23
31.6262385959
  0
SOLID
  8
0
 62
7
  6
CONTINUOUS
 10
155.0081169177
 20
31.6262385959
 11
155.3549915869
 21
31.5939738288
 12
154.2565543074
 22
31.5939738288
 13
154.2565543074
 23
31.5939738288
  0
SOLID
  8
0
 62
7
  6
CONTINUOUS
 10
154.1409294177
 20
31.5617111435
 11
154.2565543074
 21
31.5939738288
 12
155.3549915869
 22
31.5939738288
 13
155.3549915869
 23
31.5939738288
  0
SOLID
  8
0
 62
7
  6
CONTINUOUS
 10
155.3549915869
 20
31.5939738288
 11
155.5284290869
 21
31.5294468402
 12
154.1409294177
 22
31.5617111435
 13
154.1409294177
 23
31.5617111435
  0
SOLID
  8
0
 62
7
  6
CONTINUOUS
 10
154.0253041972
 20
31.4971826249
 11
154.1409294177
 21
31.5617111435
 12
155.5284290869
 22
31.5294468402
 13
155.5284290869
 23
31.5294468402
  0
SOLID
  8
0
 62
7
  6
CONTINUOUS
 10
154.0253041972
 20
31.4971826249
 11
155.5284290869
 21
31.5294468402
 12
154.6612419177
 22
31.4971826249
 13
154.6612419177
 23
31.4971826249
  0
SOLID
  8
0
 62
7
  6
CONTINUOUS
 10
154.6612419177
 20
31.4971826249
 11
155.5284290869
 21
31.5294468402
 12
155.0081169177
 22
31.4971826249
 13
155.0081169177
 23
31.4971826249
  0
SOLID
  8
0
 62
7
  6
CONTINUOUS
 10
155.0081169177
 20
31.4971826249
 11
155.5284290869
 21
31.5294468402
 12
155.239367028
 22
31.4649194065
 13
155.239367028
 23
31.4649194065
  0
SOLID
  8
0
 62
7
  6
CONTINUOUS
 10
155.5284290869
 20
31.5294468402
 11
155.6440543074
 21
31.4649194065
 12
155.239367028
 22
31.4649194065
 13
155.239367028
 23
31.4649194065
  0
SOLID
  8
0
 62
7
  6
CONTINUOUS
 10
153.9674919177
 20
31.4326554138
 11
154.0253041972
 21
31.4971826249
 12
154.6612419177
 22
31.4971826249
 13
154.6612419177
 23
31.4971826249
  0
SOLID
  8
0
 62
7
  6
CONTINUOUS
 10
155.3549915869
 20
31.4326554138
 11
155.239367028
 21
31.4649194065
 12
155.6440543074
 22
31.4649194065
 13
155.6440543074
 23
31.4649194065
  0
SOLID
  8
0
 62
7
  6
CONTINUOUS
 10
155.3549915869
 20
31.4326554138
 11
155.6440543074
 21
31.4649194065
 12
155.412804528
 22
31.3681282026
 13
155.412804528
 23
31.3681282026
  0
SOLID
  8
0
 62
7
  6
CONTINUOUS
 10
155.6440543074
 20
31.4649194065
 11
155.7018665869
 21
31.3681282026
 12
155.412804528
 22
31.3681282026
 13
155.412804528
 23
31.3681282026
  0
SOLID
  8
0
 62
7
  6
CONTINUOUS
 10
155.412804528
 20
31.2713369632
 11
155.412804528
 21
31.3681282026
 12
155.7018665869
 22
31.3681282026
 13
155.7018665869
 23
31.3681282026
  0
SOLID
  8
0
 62
7
  6
CONTINUOUS
 10
155.412804528
 20
31.2713369632
 11
155.7018665869
 21
31.3681282026
 12
155.412804528
 22
31.1422827828
 13
155.412804528
 23
31.1422827828
  0
SOLID
  8
0
 62
7
  6
CONTINUOUS
 10
155.412804528
 20
31.1422827828
 11
155.7018665869
 21
31.3681282026
 12
155.412804528
 22
30.9487004259
 13
155.412804528
 23
30.9487004259
  0
SOLID
  8
0
 62
7
  6
CONTINUOUS
 10
155.7018665869
 20
31.3681282026
 11
155.7018665869
 21
30.8519086025
 12
155.412804528
 22
30.9487004259
 13
155.412804528
 23
30.9487004259
  0
SOLID
  8
0
 62
7
  6
CONTINUOUS
 10
157.6096790869
 20
31.5939736268
 11
157.840929528
 21
31.6262383465
 12
158.0721793074
 22
31.6262383465
 13
158.0721793074
 23
31.6262383465
  0
SOLID
  8
0
 62
7
  6
CONTINUOUS
 10
158.0721793074
 20
31.6262383465
 11
158.2456168074
 21
31.5939736268
 12
157.6096790869
 22
31.5939736268
 13
157.6096790869
 23
31.5939736268
  0
SOLID
  8
0
 62
7
  6
CONTINUOUS
 10
157.4362415869
 20
31.5294472848
 11
157.6096790869
 21
31.5939736268
 12
158.2456168074
 22
31.5939736268
 13
158.2456168074
 23
31.5939736268
  0
SOLID
  8
0
 62
7
  6
CONTINUOUS
 10
158.2456168074
 20
31.5939736268
 11
158.4190543074
 21
31.5294472848
 12
157.4362415869
 22
31.5294472848
 13
157.4362415869
 23
31.5294472848
  0
SOLID
  8
0
 62
7
  6
CONTINUOUS
 10
158.4190543074
 20
31.5294472848
 11
157.840929528
 21
31.4971825369
 12
157.4362415869
 22
31.5294472848
 13
157.4362415869
 23
31.5294472848
  0
SOLID
  8
0
 62
7
  6
CONTINUOUS
 10
157.320617028
 20
31.4649199103
 11
157.4362415869
 21
31.5294472848
 12
157.840929528
 22
31.4971825369
 13
157.840929528
 23
31.4971825369
  0
SOLID
  8
0
 62
7
  6
CONTINUOUS
 10
157.840929528
 20
31.4971825369
 11
157.6096790869
 21
31.4649199103
 12
157.320617028
 22
31.4649199103
 13
157.320617028
 23
31.4649199103
  0
SOLID
  8
0
 62
7
  6
CONTINUOUS
 10
157.840929528
 20
31.4971825369
 11
158.4190543074
 21
31.5294472848
 12
158.0721793074
 22
31.4649199103
 13
158.0721793074
 23
31.4649199103
  0
SOLID
  8
0
 62
7
  6
CONTINUOUS
 10
158.4190543074
 20
31.5294472848
 11
158.534679528
 21
31.4649199103
 12
158.0721793074
 22
31.4649199103
 13
158.0721793074
 23
31.4649199103
  0
SOLID
  8
0
 62
7
  6
CONTINUOUS
 10
158.187804528
 20
31.4326554468
 11
158.0721793074
 21
31.4649199103
 12
158.534679528
 22
31.4649199103
 13
158.534679528
 23
31.4649199103
  0
SOLID
  8
0
 62
7
  6
CONTINUOUS
 10
158.187804528
 20
31.4326554468
 11
158.534679528
 21
31.4649199103
 12
158.3034290869
 22
31.3681288486
 13
158.3034290869
 23
31.3681288486
  0
SOLID
  8
0
 62
7
  6
CONTINUOUS
 10
158.534679528
 20
31.4649199103
 11
158.5924918074
 21
31.3681288486
 12
158.3034290869
 22
31.3681288486
 13
158.3034290869
 23
31.3681288486
  0
SOLID
  8
0
 62
7
  6
CONTINUOUS
 10
158.361242028
 20
31.2068093799
 11
158.3034290869
 21
31.3681288486
 12
158.5924918074
 22
31.3681288486
 13
158.5924918074
 23
31.3681288486
  0
SOLID
  8
0
 62
7
  6
CONTINUOUS
 10
158.5924918074
 20
31.3681288486
 11
158.6503040869
 21
31.2068093799
 12
158.361242028
 22
31.2068093799
 13
158.361242028
 23
31.2068093799
  0
SOLID
  8
0
 62
7
  6
CONTINUOUS
 10
157.6096790869
 20
31.4649199103
 11
157.4362415869
 21
31.4003926599
 12
157.320617028
 22
31.4649199103
 13
157.320617028
 23
31.4649199103
  0
SOLID
  8
0
 62
7
  6
CONTINUOUS
 10
157.4362415869
 20
31.4003926599
 11
157.320617028
 21
31.3358640533
 12
157.320617028
 22
31.4649199103
 13
157.320617028
 23
31.4649199103
  0
SOLID
  8
0
 62
7
  6
CONTINUOUS
 10
157.320617028
 20
31.3358640533
 11
157.0315543074
 21
30.5938003547
 12
157.320617028
 22
31.4649199103
 13
157.320617028
 23
31.4649199103
  0
SOLID
  8
0
 62
7
  6
CONTINUOUS
 10
157.320617028
 20
31.4649199103
 11
157.0315543074
 21
30.5938003547
 12
157.320617028
 22
31.6262383465
 13
157.320617028
 23
31.6262383465
  0
SOLID
  8
0
 62
7
  6
CONTINUOUS
 10
157.0315543074
 20
30.5938003547
 11
157.0315543074
 21
31.6262383465
 12
157.320617028
 22
31.6262383465
 13
157.320617028
 23
31.6262383465
  0
SOLID
  8
0
 62
7
  6
CONTINUOUS
 10
157.320617028
 20
31.3358640533
 11
157.320617028
 21
30.5938003547
 12
157.0315543074
 22
30.5938003547
 13
157.0315543074
 23
30.5938003547
  0
SOLID
  8
0
 62
7
  6
CONTINUOUS
 10
158.361242028
 20
30.5938003547
 11
158.361242028
 21
31.2068093799
 12
158.6503040869
 22
31.2068093799
 13
158.6503040869
 23
31.2068093799
  0
SOLID
  8
0
 62
7
  6
CONTINUOUS
 10
158.6503040869
 20
31.2068093799
 11
158.6503040869
 21
30.5938003547
 12
158.361242028
 22
30.5938003547
 13
158.361242028
 23
30.5938003547
  0
SOLID
  8
0
 62
7
  6
CONTINUOUS
 10
159.4596793074
 20
31.5939739474
 11
159.8065543074
 21
31.6262381969
 12
160.1534293074
 22
31.6262381969
 13
160.1534293074
 23
31.6262381969
  0
SOLID
  8
0
 62
7
  6
CONTINUOUS
 10
160.1534293074
 20
31.6262381969
 11
160.5003043074
 21
31.5939739474
 12
159.4596793074
 22
31.5939739474
 13
159.4596793074
 23
31.5939739474
  0
SOLID
  8
0
 62
7
  6
CONTINUOUS
 10
159.228429528
 20
31.5294468402
 11
159.4596793074
 21
31.5939739474
 12
160.5003043074
 22
31.5939739474
 13
160.5003043074
 23
31.5939739474
  0
SOLID
  8
0
 62
7
  6
CONTINUOUS
 10
159.228429528
 20
31.5294468402
 11
160.5003043074
 21
31.5939739304
 12
160.6737418074
 22
31.5617111435
 13
160.6737418074
 23
31.5617111435
  0
SOLID
  8
0
 62
7
  6
CONTINUOUS
 10
159.228429528
 20
31.5294468402
 11
160.6737418074
 21
31.5617111435
 12
159.8065543074
 22
31.4971825592
 13
159.8065543074
 23
31.4971825592
  0
SOLID
  8
0
 62
7
  6
CONTINUOUS
 10
159.8065543074
 20
31.4971825592
 11
160.6737418074
 21
31.5617111435
 12
160.1534293074
 22
31.4971825592
 13
160.1534293074
 23
31.4971825592
  0
SOLID
  8
0
 62
7
  6
CONTINUOUS
 10
160.6737418074
 20
31.5617111435
 11
160.8471793074
 21
31.4971825592
 12
160.1534293074
 22
31.4971825592
 13
160.1534293074
 23
31.4971825592
  0
SOLID
  8
0
 62
7
  6
CONTINUOUS
 10
160.5003043074
 20
31.4649197501
 11
160.1534293074
 21
31.4971825592
 12
160.8471793074
 22
31.4971825592
 13
160.8471793074
 23
31.4971825592
  0
SOLID
  8
0
 62
7
  6
CONTINUOUS
 10
159.1128043074
 20
31.4326555427
 11
159.228429528
 21
31.5294468402
 12
159.8065543074
 22
31.4971825592
 13
159.8065543074
 23
31.4971825592
  0
SOLID
  8
0
 62
7
  6
CONTINUOUS
 10
160.5003043074
 20
31.4649197501
 11
160.8471793074
 21
31.4971825592
 12
160.615929528
 22
31.4326555427
 13
160.615929528
 23
31.4326555427
  0
SOLID
  8
0
 62
7
  6
CONTINUOUS
 10
160.615929528
 20
31.4326555427
 11
160.8471793074
 21
31.4971825592
 12
160.6737418074
 22
31.3681283005
 13
160.6737418074
 23
31.3681283005
  0
SOLID
  8
0
 62
7
  6
CONTINUOUS
 10
160.8471793074
 20
31.4971825592
 11
160.9628038663
 21
31.3681283005
 12
160.6737418074
 22
31.3681283005
 13
160.6737418074
 23
31.3681283005
  0
SOLID
  8
0
 62
7
  6
CONTINUOUS
 10
150.2674918074
 20
31.4649197501
 11
149.7471793074
 21
31.4326554237
 12
150.498741835
 22
31.4971824493
 13
150.498741835
 23
31.4971824493
  0
SOLID
  8
0
 62
7
  6
CONTINUOUS
 10
149.7471793074
 20
31.4326554237
 11
149.8628043005
 21
31.4971824493
 12
150.498741835
 22
31.4971824493
 13
150.498741835
 23
31.4971824493
  0
SOLID
  8
0
 62
7
  6
CONTINUOUS
 10
150.2674918074
 20
31.4649197501
 11
150.1518667936
 21
31.4326554237
 12
149.7471793074
 22
31.4326554237
 13
149.7471793074
 23
31.4326554237
  0
SOLID
  8
0
 62
7
  6
CONTINUOUS
 10
149.6315543091
 20
31.3036012664
 11
149.7471793074
 21
31.4326554237
 12
150.1518667936
 22
31.4326554237
 13
150.1518667936
 23
31.4326554237
  0
SOLID
  8
0
 62
7
  6
CONTINUOUS
 10
153.9674919177
 20
31.4326554237
 11
154.6612419177
 21
31.4971825369
 12
154.4299918074
 22
31.4649197501
 13
154.4299918074
 23
31.4649197501
  0
SOLID
  8
0
 62
7
  6
CONTINUOUS
 10
154.4299918074
 20
31.4649197501
 11
154.3143669177
 21
31.4326554237
 12
153.9674919177
 22
31.4326554237
 13
153.9674919177
 23
31.4326554237
  0
SOLID
  8
0
 62
7
  6
CONTINUOUS
 10
153.9674919177
 20
31.3681283335
 11
153.9674919177
 21
31.4326554237
 12
154.3143669177
 22
31.4326554237
 13
154.3143669177
 23
31.4326554237
  0
SOLID
  8
0
 62
7
  6
CONTINUOUS
 10
154.3143669177
 20
31.4326554237
 11
154.2565543074
 21
31.3681283335
 12
153.9674919177
 22
31.3681283335
 13
153.9674919177
 23
31.3681283335
  0
SOLID
  8
0
 62
7
  6
CONTINUOUS
 10
159.1128043074
 20
31.4326555528
 11
159.8065543074
 21
31.4971825369
 12
159.575304528
 22
31.4649197501
 13
159.575304528
 23
31.4649197501
  0
SOLID
  8
0
 62
7
  6
CONTINUOUS
 10
159.575304528
 20
31.4649197501
 11
159.4596793074
 21
31.4326555528
 12
159.1128043074
 22
31.4326555528
 13
159.1128043074
 23
31.4326555528
  0
SOLID
  8
0
 62
7
  6
CONTINUOUS
 10
159.1128043074
 20
31.3681284626
 11
159.1128043074
 21
31.4326555528
 12
159.4596793074
 22
31.4326555528
 13
159.4596793074
 23
31.4326555528
  0
SOLID
  8
0
 62
7
  6
CONTINUOUS
 10
159.4596793074
 20
31.4326555528
 11
159.401867028
 21
31.3681284626
 12
159.1128043074
 22
31.3681284626
 13
159.1128043074
 23
31.3681284626
  0
SOLID
  8
0
 62
7
  6
CONTINUOUS
 10
159.228429528
 20
31.2390741763
 11
159.1128043074
 21
31.3681284626
 12
159.401867028
 22
31.3681284626
 13
159.401867028
 23
31.3681284626
  0
SOLID
  8
0
 62
7
  6
CONTINUOUS
 10
149.6315543091
 20
31.3036012664
 11
150.1518667936
 21
31.4326554468
 12
149.9784292936
 22
31.3358640533
 13
149.9784292936
 23
31.3358640533
  0
SOLID
  8
0
 62
7
  6
CONTINUOUS
 10
149.9784292936
 20
31.3358640533
 11
149.9206168074
 21
31.2713369632
 12
149.6315543091
 22
31.3036012664
 13
149.6315543091
 23
31.3036012664
  0
SOLID
  8
0
 62
7
  6
CONTINUOUS
 10
149.5737418074
 20
31.1100184796
 11
149.6315543091
 21
31.3036012664
 12
149.9206168074
 22
31.2713369632
 13
149.9206168074
 23
31.2713369632
  0
SOLID
  8
0
 62
7
  6
CONTINUOUS
 10
154.4299918074
 20
31.2390741763
 11
154.7768668074
 21
31.271336924
 12
155.412804528
 22
31.271336924
 13
155.412804528
 23
31.271336924
  0
SOLID
  8
0
 62
7
  6
CONTINUOUS
 10
154.4299918074
 20
31.2390741763
 11
155.412804528
 21
31.271336924
 12
154.1987416972
 22
31.1745462761
 13
154.1987416972
 23
31.1745462761
  0
SOLID
  8
0
 62
7
  6
CONTINUOUS
 10
154.1987416972
 20
31.1745462761
 11
155.412804528
 21
31.271336924
 12
154.7768668074
 22
31.1422827436
 13
154.7768668074
 23
31.1422827436
  0
SOLID
  8
0
 62
7
  6
CONTINUOUS
 10
155.412804528
 20
31.271336924
 11
155.412804528
 21
31.1422827436
 12
154.7768668074
 22
31.1422827436
 13
154.7768668074
 23
31.1422827436
  0
SOLID
  8
0
 62
7
  6
CONTINUOUS
 10
159.228429528
 20
31.2390745501
 11
159.401867028
 21
31.3681283566
 12
159.4596793074
 22
31.3036012664
 13
159.4596793074
 23
31.3036012664
  0
SOLID
  8
0
 62
7
  6
CONTINUOUS
 10
159.4596793074
 20
31.3036012664
 11
159.6331168074
 21
31.2390745501
 12
159.228429528
 22
31.2390745501
 13
159.228429528
 23
31.2390745501
  0
SOLID
  8
0
 62
7
  6
CONTINUOUS
 10
159.4596793074
 20
31.1422827828
 11
159.228429528
 21
31.2390745501
 12
159.6331168074
 22
31.2390745501
 13
159.6331168074
 23
31.2390745501
  0
SOLID
  8
0
 62
7
  6
CONTINUOUS
 10
159.6331168074
 20
31.2390745501
 11
160.615929528
 21
31.0777556927
 12
159.4596793074
 22
31.1422827828
 13
159.4596793074
 23
31.1422827828
  0
SOLID
  8
0
 62
7
  6
CONTINUOUS
 10
160.442492028
 20
30.9809646623
 11
159.4596793074
 21
31.1422827828
 12
160.615929528
 22
31.0777556927
 13
160.615929528
 23
31.0777556927
  0
SOLID
  8
0
 62
7
  6
CONTINUOUS
 10
160.615929528
 20
31.0777556927
 11
160.8471793074
 21
30.9809646623
 12
160.442492028
 22
30.9809646623
 13
160.442492028
 23
30.9809646623
  0
SOLID
  8
0
 62
7
  6
CONTINUOUS
 10
160.615929528
 20
30.9164372091
 11
160.442492028
 21
30.9809646623
 12
160.8471793074
 22
30.9809646623
 13
160.8471793074
 23
30.9809646623
  0
SOLID
  8
0
 62
7
  6
CONTINUOUS
 10
160.615929528
 20
30.9164372091
 11
160.8471793074
 21
30.9809646623
 12
160.6737418074
 22
30.8519089441
 13
160.6737418074
 23
30.8519089441
  0
SOLID
  8
0
 62
7
  6
CONTINUOUS
 10
160.8471793074
 20
30.9809646623
 11
160.9628038663
 21
30.8519089441
 12
160.6737418074
 22
30.8519089441
 13
160.6737418074
 23
30.8519089441
  0
SOLID
  8
0
 62
7
  6
CONTINUOUS
 10
160.615929528
 20
30.7873818593
 11
160.6737418074
 21
30.8519089441
 12
160.9628038663
 22
30.8519089441
 13
160.9628038663
 23
30.8519089441
  0
SOLID
  8
0
 62
7
  6
CONTINUOUS
 10
160.9628038663
 20
30.8519089441
 11
160.9628038663
 21
30.7873818593
 12
160.615929528
 22
30.7873818593
 13
160.615929528
 23
30.7873818593
  0
SOLID
  8
0
 62
7
  6
CONTINUOUS
 10
160.5003043074
 20
30.7551187255
 11
160.615929528
 21
30.7873818593
 12
160.9628038663
 22
30.7873818593
 13
160.9628038663
 23
30.7873818593
  0
SOLID
  8
0
 62
7
  6
CONTINUOUS
 10
160.5003043074
 20
30.7551187255
 11
160.9628038663
 21
30.7873818593
 12
160.269054528
 22
30.7228547745
 13
160.269054528
 23
30.7228547745
  0
SOLID
  8
0
 62
7
  6
CONTINUOUS
 10
160.9628038663
 20
30.7873818593
 11
160.8471793074
 21
30.6905916353
 12
160.269054528
 22
30.7228547745
 13
160.269054528
 23
30.7228547745
  0
SOLID
  8
0
 62
7
  6
CONTINUOUS
 10
160.8471793074
 20
30.6905916353
 11
159.401867028
 21
30.658327332
 12
160.269054528
 22
30.7228547745
 13
160.269054528
 23
30.7228547745
  0
SOLID
  8
0
 62
7
  6
CONTINUOUS
 10
160.269054528
 20
30.7228547745
 11
159.401867028
 21
30.658327332
 12
159.922179528
 22
30.7228547745
 13
159.922179528
 23
30.7228547745
  0
SOLID
  8
0
 62
7
  6
CONTINUOUS
 10
159.401867028
 20
30.658327332
 11
159.228429528
 21
30.7228547745
 12
159.922179528
 22
30.7228547745
 13
159.922179528
 23
30.7228547745
  0
SOLID
  8
0
 62
7
  6
CONTINUOUS
 10
159.401867028
 20
30.658327332
 11
160.8471793074
 21
30.6905916353
 12
159.575304528
 22
30.6260629858
 13
159.575304528
 23
30.6260629858
  0
SOLID
  8
0
 62
7
  6
CONTINUOUS
 10
160.8471793074
 20
30.6905916353
 11
160.615929528
 21
30.6260629858
 12
159.575304528
 22
30.6260629858
 13
159.575304528
 23
30.6260629858
  0
SOLID
  8
0
 62
7
  6
CONTINUOUS
 10
159.922179528
 20
30.5938006049
 11
159.575304528
 21
30.6260629858
 12
160.615929528
 22
30.6260629858
 13
160.615929528
 23
30.6260629858
  0
SOLID
  8
0
 62
7
  6
CONTINUOUS
 10
160.615929528
 20
30.6260629858
 11
160.269054528
 21
30.5938006049
 12
159.922179528
 22
30.5938006049
 13
159.922179528
 23
30.5938006049
  0
SOLID
  8
0
 62
7
  6
CONTINUOUS
 10
149.5737418074
 20
31.1100184796
 11
149.9206168074
 21
31.2713369632
 12
149.8628043005
 22
31.1422827828
 13
149.8628043005
 23
31.1422827828
  0
SOLID
  8
0
 62
7
  6
CONTINUOUS
 10
149.8628043005
 20
31.1422827828
 11
149.8628043005
 21
31.0454914852
 12
149.5737418074
 22
31.1100184796
 13
149.5737418074
 23
31.1100184796
  0
SOLID
  8
0
 62
7
  6
CONTINUOUS
 10
149.6315543091
 20
30.9164372091
 11
149.5737418074
 21
31.1100184796
 12
149.8628043005
 22
31.0454914852
 13
149.8628043005
 23
31.0454914852
  0
SOLID
  8
0
 62
7
  6
CONTINUOUS
 10
149.8628043005
 20
31.0454914852
 11
149.9784292936
 21
30.8841729058
 12
149.6315543091
 22
30.9164372091
 13
149.6315543091
 23
30.9164372091
  0
SOLID
  8
0
 62
7
  6
CONTINUOUS
 10
149.7471793074
 20
30.7873813202
 11
149.6315543091
 21
30.9164372091
 12
149.9784292936
 22
30.8841729058
 13
149.9784292936
 23
30.8841729058
  0
SOLID
  8
0
 62
7
  6
CONTINUOUS
 10
149.9784292936
 20
30.8841729058
 11
150.1518667936
 21
30.7873813202
 12
149.7471793074
 22
30.7873813202
 13
149.7471793074
 23
30.7873813202
  0
SOLID
  8
0
 62
7
  6
CONTINUOUS
 10
149.8628043005
 20
30.7228547004
 11
149.7471793074
 21
30.7873813202
 12
150.1518667936
 22
30.7873813202
 13
150.1518667936
 23
30.7873813202
  0
SOLID
  8
0
 62
7
  6
CONTINUOUS
 10
150.1518667936
 20
30.7873813202
 11
150.498741835
 21
30.7228547004
 12
149.8628043005
 22
30.7228547004
 13
149.8628043005
 23
30.7228547004
  0
SOLID
  8
0
 62
7
  6
CONTINUOUS
 10
150.0362418212
 20
30.658327332
 11
149.8628043005
 21
30.7228547004
 12
150.498741835
 22
30.7228547004
 13
150.498741835
 23
30.7228547004
  0
SOLID
  8
0
 62
7
  6
CONTINUOUS
 10
154.0831168074
 20
31.1100184386
 11
154.1987416972
 21
31.1745462761
 12
154.7768668074
 22
31.1422827828
 13
154.7768668074
 23
31.1422827828
  0
SOLID
  8
0
 62
7
  6
CONTINUOUS
 10
154.7768668074
 20
31.1422827828
 11
154.5456166972
 21
31.1100184386
 12
154.0831168074
 22
31.1100184386
 13
154.0831168074
 23
31.1100184386
  0
SOLID
  8
0
 62
7
  6
CONTINUOUS
 10
153.9674919177
 20
30.9809642992
 11
154.0831168074
 21
31.1100184386
 12
154.5456166972
 22
31.1100184386
 13
154.5456166972
 23
31.1100184386
  0
SOLID
  8
0
 62
7
  6
CONTINUOUS
 10
154.3143669177
 20
31.0132277988
 11
153.9674919177
 21
30.9809642992
 12
154.4299918074
 22
31.0777556927
 13
154.4299918074
 23
31.0777556927
  0
SOLID
  8
0
 62
7
  6
CONTINUOUS
 10
153.9674919177
 20
30.9809642992
 11
154.5456166972
 21
31.1100184796
 12
154.4299918074
 22
31.0777556927
 13
154.4299918074
 23
31.0777556927
  0
SOLID
  8
0
 62
7
  6
CONTINUOUS
 10
154.3143669177
 20
31.0132277988
 11
154.2565543074
 21
30.9164372091
 12
153.9674919177
 22
30.9809642992
 13
153.9674919177
 23
30.9809642992
  0
SOLID
  8
0
 62
7
  6
CONTINUOUS
 10
153.9674919177
 20
30.8841729058
 11
153.9674919177
 21
30.9809642992
 12
154.2565543074
 22
30.9164372091
 13
154.2565543074
 23
30.9164372091
  0
SOLID
  8
0
 62
7
  6
CONTINUOUS
 10
154.2565543074
 20
30.9164372091
 11
154.2565543074
 21
30.8519086025
 12
153.9674919177
 22
30.8841729058
 13
153.9674919177
 23
30.8841729058
  0
SOLID
  8
0
 62
7
  6
CONTINUOUS
 10
154.0253041972
 20
30.7551187255
 11
153.9674919177
 21
30.8841729058
 12
154.2565543074
 22
30.8519086025
 13
154.2565543074
 23
30.8519086025
  0
SOLID
  8
0
 62
7
  6
CONTINUOUS
 10
155.412804528
 20
30.9487004259
 11
155.7018665869
 21
30.8519086025
 12
155.3549915869
 22
30.8841729058
 13
155.3549915869
 23
30.8841729058
  0
SOLID
  8
0
 62
7
  6
CONTINUOUS
 10
155.1815540869
 20
30.7873815123
 11
155.3549915869
 21
30.8841729058
 12
155.7018665869
 22
30.8519086025
 13
155.7018665869
 23
30.8519086025
  0
SOLID
  8
0
 62
7
  6
CONTINUOUS
 10
155.1815540869
 20
30.7873815123
 11
155.7018665869
 21
30.8519086025
 12
155.412804528
 22
30.7551187255
 13
155.412804528
 23
30.7551187255
  0
SOLID
  8
0
 62
7
  6
CONTINUOUS
 10
155.7018665869
 20
30.8519086025
 11
155.759679528
 21
30.6905916353
 12
155.412804528
 22
30.7551187255
 13
155.412804528
 23
30.7551187255
  0
SOLID
  8
0
 62
7
  6
CONTINUOUS
 10
155.4706168074
 20
30.658327332
 11
155.412804528
 21
30.7551187255
 12
155.759679528
 22
30.6905916353
 13
155.759679528
 23
30.6905916353
  0
SOLID
  8
0
 62
7
  6
CONTINUOUS
 10
155.4706168074
 20
30.658327332
 11
155.759679528
 21
30.6905916353
 12
155.5284290869
 22
30.5938002079
 13
155.5284290869
 23
30.5938002079
  0
SOLID
  8
0
 62
7
  6
CONTINUOUS
 10
155.759679528
 20
30.6905916353
 11
155.8174918074
 21
30.5938002079
 12
155.5284290869
 22
30.5938002079
 13
155.5284290869
 23
30.5938002079
  0
SOLID
  8
0
 62
7
  6
CONTINUOUS
 10
151.0768668626
 20
30.8196456577
 11
151.1346793074
 21
30.9164373395
 12
151.4237418626
 22
30.9164373395
 13
151.4237418626
 23
30.9164373395
  0
SOLID
  8
0
 62
7
  6
CONTINUOUS
 10
151.4237418626
 20
30.9164373395
 11
151.3659292523
 21
30.7873815123
 12
151.0768668626
 22
30.8196456577
 13
151.0768668626
 23
30.8196456577
  0
SOLID
  8
0
 62
7
  6
CONTINUOUS
 10
150.9034292799
 20
30.7551187255
 11
151.0768668626
 21
30.8196456577
 12
151.3659292523
 22
30.7873815123
 13
151.3659292523
 23
30.7873815123
  0
SOLID
  8
0
 62
7
  6
CONTINUOUS
 10
150.9034292799
 20
30.7551187255
 11
151.3659292523
 21
30.7873815123
 12
150.498741835
 22
30.7228544222
 13
150.498741835
 23
30.7228544222
  0
SOLID
  8
0
 62
7
  6
CONTINUOUS
 10
151.3659292523
 20
30.7873815123
 11
151.1924917523
 21
30.6905916353
 12
150.498741835
 22
30.7228544222
 13
150.498741835
 23
30.7228544222
  0
SOLID
  8
0
 62
7
  6
CONTINUOUS
 10
150.0362418212
 20
30.658327332
 11
150.498741835
 21
30.7228544222
 12
151.1924917523
 22
30.6905916353
 13
151.1924917523
 23
30.6905916353
  0
SOLID
  8
0
 62
7
  6
CONTINUOUS
 10
150.0362418212
 20
30.658327332
 11
151.1924917523
 21
30.6905916353
 12
150.2096793212
 22
30.6260631011
 13
150.2096793212
 23
30.6260631011
  0
SOLID
  8
0
 62
7
  6
CONTINUOUS
 10
151.1924917523
 20
30.6905916353
 11
150.9612418074
 21
30.6260631011
 12
150.2096793212
 22
30.6260631011
 13
150.2096793212
 23
30.6260631011
  0
SOLID
  8
0
 62
7
  6
CONTINUOUS
 10
150.5565542799
 20
30.5938002419
 11
150.2096793212
 21
30.6260631011
 12
150.9612418074
 22
30.6260631011
 13
150.9612418074
 23
30.6260631011
  0
SOLID
  8
0
 62
7
  6
CONTINUOUS
 10
154.0253041972
 20
30.7551187255
 11
154.2565543074
 21
30.8519086025
 12
154.3143669177
 22
30.7873815123
 13
154.3143669177
 23
30.7873815123
  0
SOLID
  8
0
 62
7
  6
CONTINUOUS
 10
154.3143669177
 20
30.7873815123
 11
154.5456166972
 21
30.7228544222
 12
154.0253041972
 22
30.7551187255
 13
154.0253041972
 23
30.7551187255
  0
SOLID
  8
0
 62
7
  6
CONTINUOUS
 10
154.1987416972
 20
30.658327332
 11
154.0253041972
 21
30.7551187255
 12
154.5456166972
 22
30.7228544222
 13
154.5456166972
 23
30.7228544222
  0
SOLID
  8
0
 62
7
  6
CONTINUOUS
 10
154.8924916972
 20
30.7228544637
 11
155.1815540869
 21
30.7873815123
 12
155.412804528
 22
30.7551187255
 13
155.412804528
 23
30.7551187255
  0
SOLID
  8
0
 62
7
  6
CONTINUOUS
 10
155.412804528
 20
30.7551187255
 11
155.3549915869
 21
30.6905916353
 12
154.8924916972
 22
30.7228544637
 13
154.8924916972
 23
30.7228544637
  0
SOLID
  8
0
 62
7
  6
CONTINUOUS
 10
155.3549915869
 20
30.6905916353
 11
154.1987416972
 21
30.658327332
 12
154.8924916972
 22
30.7228544637
 13
154.8924916972
 23
30.7228544637
  0
SOLID
  8
0
 62
7
  6
CONTINUOUS
 10
154.1987416972
 20
30.658327332
 11
154.5456166972
 21
30.7228544637
 12
154.8924916972
 22
30.7228544637
 13
154.8924916972
 23
30.7228544637
  0
SOLID
  8
0
 62
7
  6
CONTINUOUS
 10
154.1987416972
 20
30.658327332
 11
155.3549915869
 21
30.6905916353
 12
154.3143669177
 22
30.6260630541
 13
154.3143669177
 23
30.6260630541
  0
SOLID
  8
0
 62
7
  6
CONTINUOUS
 10
155.3549915869
 20
30.6905916353
 11
155.1815540869
 21
30.6260630541
 12
154.3143669177
 22
30.6260630541
 13
154.3143669177
 23
30.6260630541
  0
SOLID
  8
0
 62
7
  6
CONTINUOUS
 10
154.5456166972
 20
30.5938002188
 11
154.3143669177
 21
30.6260630541
 12
155.1815540869
 22
30.6260630541
 13
155.1815540869
 23
30.6260630541
  0
SOLID
  8
0
 62
7
  6
CONTINUOUS
 10
155.1815540869
 20
30.6260630541
 11
154.8924916972
 21
30.5938002188
 12
154.5456166972
 22
30.5938002188
 13
154.5456166972
 23
30.5938002188
  0
SOLID
  8
0
 62
7
  6
CONTINUOUS
 10
159.575304528
 20
30.7551187255
 11
159.228429528
 21
30.7228544637
 12
159.4596793074
 22
30.7873815123
 13
159.4596793074
 23
30.7873815123
  0
SOLID
  8
0
 62
7
  6
CONTINUOUS
 10
159.4596793074
 20
30.7873815123
 11
159.228429528
 21
30.7228544637
 12
159.401867028
 22
30.851908644
 13
159.401867028
 23
30.851908644
  0
SOLID
  8
0
 62
7
  6
CONTINUOUS
 10
159.228429528
 20
30.7228544637
 11
159.1128043074
 21
30.851908644
 12
159.401867028
 22
30.851908644
 13
159.401867028
 23
30.851908644
  0
SOLID
  8
0
 62
7
  6
CONTINUOUS
 10
159.575304528
 20
30.7551187255
 11
159.922179528
 21
30.7228544637
 12
159.228429528
 22
30.7228544637
 13
159.228429528
 23
30.7228544637
  0
SOLID
  8
0
 62
7
  6
CONTINUOUS
 10
156.279992028
 20
30.5938002419
 11
156.279992028
 21
31.6262382337
 12
156.5690540869
 22
30.5938002419
 13
156.5690540869
 23
31.6262382337
  0
ENDBLK
  8
0
  6
BYBLOCK
 62
0
  0
BLOCK
  8
0
 62
2
  6
CONTINUOUS
  2
SYMBOL_3_BL0
 70
64
 10
32.1213064866
 20
19.8534310916
  0
TEXT
  8
0
 62
7
  6
CONTINUOUS
 10
18.3860103289
 20
19.2268451992
  7
TEXTSTYLE_3
 40
2.7338706658
  1
Ammeraal Beltech
 41
1.0
 51
15.0
 72
0
  0
TEXT
  8
0
 62
7
  6
CONTINUOUS
 10
29.1868111546
 20
16.9533085264
  7
TEXTSTYLE_4
 40
1.0935482663
  1
Innovation & Service in Belting
 41
1.0
 72
0
  0
LINE
  8
0
 62
7
  6
CONTINUOUS
 10
12.3614696776
 20
19.9934385078
 11
13.1396216709
 21
23.6543558055
  0
LINE
  8
0
 62
7
  6
CONTINUOUS
 10
23.2347899607
 20
27.3177497171
 11
13.6274394139
 21
24.1961322958
  0
LINE
  8
0
 62
7
  6
CONTINUOUS
 10
12.5867530099
 20
19.3000877048
 11
20.093828271
 21
12.5406867788
  0
LINE
  8
0
 62
7
  6
CONTINUOUS
 10
12.8492874206
 20
20.5352149982
 11
23.6575567857
 21
24.0470345971
  0
LINE
  8
0
 62
7
  6
CONTINUOUS
 10
23.6533516486
 20
13.6972460334
 11
15.2078919798
 21
21.3015720751
  0
LINE
  8
0
 62
7
  6
CONTINUOUS
 10
24.1731743684
 20
26.4728246013
 11
23.1966148312
 21
21.8784731989
  0
LINE
  8
0
 62
7
  6
CONTINUOUS
 10
22.4968128835
 20
18.5861638851
 11
21.810364672
 21
15.3566789607
  0
LINE
  8
0
 62
7
  6
CONTINUOUS
 10
24.8542704669
 20
14.087448211
 11
25.8105020025
 21
18.5861638851
  0
LINE
  8
0
 62
7
  6
CONTINUOUS
 10
26.5103039502
 20
21.8784731989
 11
26.9545457526
 21
23.9684665583
  0
LINE
  8
0
 62
7
  6
CONTINUOUS
 10
20.8069293463
 20
12.3891124661
 11
24.3664527239
 21
13.5456717207
  0
LINE
  8
0
 62
7
  6
CONTINUOUS
 10
23.9478910361
 20
27.1661754044
 11
26.7292624203
 21
24.6618173613
  0
ARC
  8
0
 62
7
  6
CONTINUOUS
 10
13.8527227462
 20
23.5027814928
 40
0.7290321776
 50
108.0
 51
168.0
  0
ARC
  8
0
 62
7
  6
CONTINUOUS
 10
23.4600732931
 20
26.624398914
 40
0.7290321776
 50
348.0
 51
108.0
  0
ARC
  8
0
 62
7
  6
CONTINUOUS
 10
26.2414446773
 20
24.120040871
 40
0.7290321776
 50
348.0
 51
48.0
  0
ARC
  8
0
 62
7
  6
CONTINUOUS
 10
20.581646014
 20
13.0824632691
 40
0.7290321776
 50
228.0
 51
288.0
  0
ARC
  8
0
 62
7
  6
CONTINUOUS
 10
13.0745707529
 20
19.8418641951
 40
0.7290321776
 50
108.0
 51
228.0
  0
ARC
  8
0
 62
7
  6
CONTINUOUS
 10
24.1411693916
 20
14.2390225237
 40
0.7290321776
 50
228.0
 51
348.0
  0
ENDBLK
  8
0
  6
BYBLOCK
 62
0
  0
ENDSEC
  0
SECTION
  2
ENTITIES
  0
TEXT
  8
0
 62
5
  6
CONTINUOUS
 10
96.0
 20
25.636
  7
TEXTSTYLE_2
 40
2.8
  1
Scale :
 41
0.6
 51
0.000019
 72
0
  0
TEXT
  8
0
 62
5
  6
CONTINUOUS
 10
116.0
 20
25.636
  7
TEXTSTYLE_2
 40
2.8
  1
Belt type:
 41
0.6
 51
0.000019
 72
0
  0
INSERT
  8
0
 62
2
  6
CONTINUOUS
  2
SYMBOL_3_BL0
 10
32.1213064866
 20
19.8534310916
  0
INSERT
  8
0
 62
2
  6
CONTINUOUS
  2
SYMBOL_8_BL1
 10
173.5956734183
 20
35.5937998301
  0
LINE
  8
0
 62
2
  6
CONTINUOUS
 10
10.0
 20
30.0
 11
200.0
 21
30.0
  0
LINE
  8
0
 62
2
  6
CONTINUOUS
 10
10.0
 20
30.0
 11
10.0
 21
10.0
  0
LINE
  8
0
 62
2
  6
CONTINUOUS
 10
10.0
 20
10.0
 11
200.0
 21
10.0
  0
LINE
  8
0
 62
2
  6
CONTINUOUS
 10
95.0
 20
30.0
 11
95.0
 21
10.0
  0
LINE
  8
0
 62
2
  6
CONTINUOUS
 10
115.0
 20
30.0
 11
115.0
 21
10.0
  0
LINE
  8
0
 62
2
  6
CONTINUOUS
 10
200.0
 20
30.0
 11
200.0
 21
10.0
  0
TEXT
  8
0
 62
5
  6
CONTINUOUS
 10
13.0
 20
23.303
  7
TEXTSTYLE_5
 40
1.52
  1
                                                                     Ammeraal Beltech Modular A/S
 41
1.0
 72
0
  0
TEXT
  8
0
 62
5
  6
CONTINUOUS
 10
13.0
 20
20.595
  7
TEXTSTYLE_5
 40
1.5
  1
                                                                      Hjulmagervej 21,  7100 Vejle,  DK
 41
1.0
 72
0
  0
TEXT
  8
0
 62
5
  6
CONTINUOUS
 10
13.0
 20
17.881
  7
TEXTSTYLE_5
 40
1.495
  1
                                                                      tel: 
 41
1.0
 72
0
  0
TEXT
  8
0
 62
5
  6
CONTINUOUS
 10
57.9869465649
 20
17.881
  7
TEXTSTYLE_5
 40
1.51
  1
+45 75723100     fax: +45 75723348
 41
1.0
 72
0
  0
TEXT
  8
0
 62
5
  6
CONTINUOUS
 10
13.0
 20
15.177
  7
TEXTSTYLE_5
 40
1.5
  1
                                                                      admin@unichains.dk  www.unichains.com
 41
1.0
 72
0
  0
TEXT
  8
0
 62
5
  6
CONTINUOUS
 10
99.75
 20
13.75
  7
TEXTSTYLE_6
 40
5.0
  1
1:1
 41
0.7
 72
1
 11
105.0
 21
13.75
  0
TEXT
  8
0
 62
5
  6
CONTINUOUS
 10
118.0
 20
13.75
  7
TEXTSTYLE_7
 40
7.5
  1
Sprocket Z09 Idlers
 41
0.4638157895
 72
0
  0
LINE
  8
0
 62
7
  6
CONTINUOUS
 10
210.0
 20
0.0
 11
0.0
 21
0.0
  0
LINE
  8
0
 62
7
  6
CONTINUOUS
 10
10.0
 20
10.0
 11
200.0
 21
10.0
  0
LINE
  8
0
 62
7
  6
CONTINUOUS
 10
10.0
 20
30.0
 11
200.0
 21
30.0
  0
LINE
  8
0
 62
7
  6
CONTINUOUS
 10
0.0
 20
0.0
 11
0.0
 21
297.0
  0
LINE
  8
0
 62
7
  6
CONTINUOUS
 10
10.0
 20
10.0
 11
10.0
 21
287.0
  0
LINE
  8
0
 62
7
  6
CONTINUOUS
 10
200.0
 20
287.0
 11
200.0
 21
10.0
  0
LINE
  8
0
 62
7
  6
CONTINUOUS
 10
210.0
 20
0.0
 11
210.0
 21
297.0
  0
LINE
  8
0
 62
7
  6
CONTINUOUS
 10
10.0
 20
287.0
 11
200.0
 21
287.0
  0
LINE
  8
0
 62
7
  6
CONTINUOUS
 10
0.0
 20
297.0
 11
210.0
 21
297.0
  0
LINE
  8
0
 62
7
  6
CONTINUOUS
 10
80.4843297879
 20
245.4766293625
 11
80.2671361622
 21
245.3329498751
  0
LINE
  8
0
 62
7
  6
CONTINUOUS
 10
79.3983618612
 20
244.7582320592
 11
79.1811682821
 21
244.6145526027
  0
LINE
  8
0
 62
7
  6
CONTINUOUS
 10
81.8185528182
 20
246.2747975186
 11
81.6385792717
 21
246.1698578133
  0
LINE
  8
0
 62
7
  6
CONTINUOUS
 10
81.2336389853
 20
245.9337435891
 11
81.0086721165
 21
245.802568995
  0
LINE
  8
0
 62
7
  6
CONTINUOUS
 10
82.5448486685
 20
247.5875478641
 11
82.3152500806
 21
247.464660611
  0
LINE
  8
0
 62
7
  6
CONTINUOUS
 10
82.440751989
 20
247.2301768852
 11
82.6703505769
 21
247.3530641383
  0
LINE
  8
0
 62
7
  6
CONTINUOUS
 10
82.921354464
 20
246.8840965555
 11
82.6917558761
 21
246.7612093024
  0
LINE
  8
0
 62
7
  6
CONTINUOUS
 10
89.4786927273
 20
249.5877835933
 11
89.1952627061
 21
249.4458223064
  0
LINE
  8
0
 62
7
  6
CONTINUOUS
 10
87.1717013982
 20
249.6678677936
 11
85.4287847288
 21
248.9765889183
  0
LINE
  8
0
 62
7
  6
CONTINUOUS
 10
85.8369353157
 20
248.7951354324
 11
87.2893658736
 21
249.3712011618
  0
LINE
  8
0
 62
7
  6
CONTINUOUS
 10
87.3506478481
 20
248.6516144107
 11
86.0918750673
 21
248.1523575917
  0
LINE
  8
0
 62
7
  6
CONTINUOUS
 10
86.2095395427
 20
247.8556909599
 11
87.4683123235
 21
248.3549477789
  0
LINE
  8
0
 62
7
  6
CONTINUOUS
 10
96.1397076592
 20
251.379306707
 11
96.3419587202
 21
251.4522915378
  0
LINE
  8
0
 62
7
  6
CONTINUOUS
 10
87.9135608649
 20
249.9198911759
 11
87.6676359165
 21
249.8342298455
  0
LINE
  8
0
 62
7
  6
CONTINUOUS
 10
96.3112591978
 20
251.7699604826
 11
96.0571659281
 21
251.6919656215
  0
LINE
  8
0
 62
7
  6
CONTINUOUS
 10
90.1629472743
 20
249.1289957068
 11
89.1166823137
 21
248.8102188341
  0
LINE
  8
0
 62
7
  6
CONTINUOUS
 10
89.1288722538
 20
248.5915104215
 11
90.4740700603
 21
249.0013664007
  0
LINE
  8
0
 62
7
  6
CONTINUOUS
 10
80.8423195025
 20
243.9914709667
 11
80.6979119772
 21
243.832164471
  0
LINE
  8
0
 62
7
  6
CONTINUOUS
 10
80.8153011493
 20
243.6547126971
 11
80.9597086823
 21
243.8140191812
  0
LINE
  8
0
 62
7
  6
CONTINUOUS
 10
81.6385792717
 20
246.1698578133
 11
81.4853988255
 21
246.0189674428
  0
LINE
  8
0
 62
7
  6
CONTINUOUS
 10
81.5925712266
 20
245.8351647814
 11
81.7457516728
 21
245.986055152
  0
LINE
  8
0
 62
7
  6
CONTINUOUS
 10
89.222954309
 20
249.1762314371
 11
89.3070953861
 21
249.2574732039
  0
LINE
  8
0
 62
7
  6
CONTINUOUS
 10
89.1952627061
 20
249.4458223064
 11
89.061299108
 21
249.3494005727
  0
LINE
  8
0
 62
7
  6
CONTINUOUS
 10
80.6979119772
 20
243.832164471
 11
80.524157089
 21
243.7172208893
  0
LINE
  8
0
 62
7
  6
CONTINUOUS
 10
80.6415462611
 20
243.5397691154
 11
80.8153011493
 21
243.6547126971
  0
LINE
  8
0
 62
7
  6
CONTINUOUS
 10
81.293127014
 20
243.9708074954
 11
81.5103206397
 21
244.1144869827
  0
LINE
  8
0
 62
7
  6
CONTINUOUS
 10
96.0571659281
 20
251.6919656215
 11
95.8600326407
 21
251.5660360812
  0
LINE
  8
0
 62
7
  6
CONTINUOUS
 10
89.3070953861
 20
249.2574732039
 11
89.4908815053
 21
249.3690749045
  0
LINE
  8
0
 62
7
  6
CONTINUOUS
 10
81.8660514002
 20
244.3321475759
 11
82.0910182689
 21
244.4633221699
  0
LINE
  8
0
 62
7
  6
CONTINUOUS
 10
82.9008988418
 20
244.9355506184
 11
83.1258655818
 21
245.0667251374
  0
LINE
  8
0
 62
7
  6
CONTINUOUS
 10
83.4949681602
 20
245.2605133263
 11
83.7245667481
 21
245.3834005794
  0
LINE
  8
0
 62
7
  6
CONTINUOUS
 10
90.196201875
 20
248.3050437202
 11
89.8629493382
 21
248.1479024485
  0
LINE
  8
0
 62
7
  6
CONTINUOUS
 10
89.9747831639
 20
247.9595536757
 11
90.3080345644
 21
248.1166945865
  0
LINE
  8
0
 62
7
  6
CONTINUOUS
 10
86.3504898958
 20
246.6527000257
 11
86.6409760074
 21
246.7679131716
  0
LINE
  8
0
 62
7
  6
CONTINUOUS
 10
97.1380244635
 20
249.7122871629
 11
96.9357734025
 21
249.6393023321
  0
LINE
  8
0
 62
7
  6
CONTINUOUS
 10
88.4899840617
 20
247.4733521426
 11
88.7359090101
 21
247.559013473
  0
LINE
  8
0
 62
7
  6
CONTINUOUS
 10
80.438444111
 20
243.4691884978
 11
80.6415462611
 21
243.5397691154
  0
LINE
  8
0
 62
7
  6
CONTINUOUS
 10
96.9664729285
 20
249.3216333502
 11
97.2205650112
 21
249.3996281013
  0
LINE
  8
0
 62
7
  6
CONTINUOUS
 10
109.1556284904
 20
250.8070331539
 11
108.8636589775
 21
250.7173946437
  0
LINE
  8
0
 62
7
  6
CONTINUOUS
 10
90.5670870091
 20
248.6960733179
 11
90.3179755439
 21
248.6201738308
  0
LINE
  8
0
 62
7
  6
CONTINUOUS
 10
81.7457516728
 20
245.986055152
 11
81.9525183195
 21
246.045044192
  0
LINE
  8
0
 62
7
  6
CONTINUOUS
 10
80.9139410721
 20
244.1664045219
 11
80.8423195025
 21
243.9914709667
  0
LINE
  8
0
 62
7
  6
CONTINUOUS
 10
81.4853988255
 20
246.0189674428
 11
81.4040050593
 21
245.8483614457
  0
LINE
  8
0
 62
7
  6
CONTINUOUS
 10
81.5111774604
 20
245.6645587844
 11
81.5925712266
 21
245.8351647814
  0
LINE
  8
0
 62
7
  6
CONTINUOUS
 10
80.9597086823
 20
243.8140191812
 11
81.0172388644
 21
243.915853936
  0
LINE
  8
0
 62
7
  6
CONTINUOUS
 10
89.061299108
 20
249.3494005727
 11
88.9428383346
 21
249.2020966585
  0
LINE
  8
0
 62
7
  6
CONTINUOUS
 10
90.3146626484
 20
248.4523476343
 11
90.196201875
 21
248.3050437202
  0
LINE
  8
0
 62
7
  6
CONTINUOUS
 10
90.3080345644
 20
248.1166945865
 11
90.4763178548
 21
248.279178481
  0
LINE
  8
0
 62
7
  6
CONTINUOUS
 10
95.9944153939
 20
251.2583870824
 11
96.1397076592
 21
251.379306707
  0
LINE
  8
0
 62
7
  6
CONTINUOUS
 10
97.2833167252
 20
249.8332068246
 11
97.1380244635
 21
249.7122871629
  0
LINE
  8
0
 62
7
  6
CONTINUOUS
 10
97.2205650112
 20
249.3996281013
 11
97.4176994838
 21
249.5255577701
  0
LINE
  8
0
 62
7
  6
CONTINUOUS
 10
108.9619535899
 20
250.4724016366
 11
109.1397860991
 21
250.5364874902
  0
LINE
  8
0
 62
7
  6
CONTINUOUS
 10
109.3580462986
 20
248.6678118242
 11
109.1802137894
 21
248.6037259706
  0
LINE
  8
0
 62
7
  6
CONTINUOUS
 10
109.1643736988
 20
248.3331796812
 11
109.4563409063
 21
248.4228187991
  0
LINE
  8
0
 62
7
  6
CONTINUOUS
 10
111.200069815
 20
249.8496047626
 11
111.3817143624
 21
249.901917824
  0
LINE
  8
0
 62
7
  6
CONTINUOUS
 10
111.90786093
 20
248.8333100229
 11
111.7262163827
 21
248.7809969615
  0
LINE
  8
0
 62
7
  6
CONTINUOUS
 10
111.6927085709
 20
248.512066836
 11
112.0559976655
 21
248.6166929588
  0
LINE
  8
0
 62
7
  6
CONTINUOUS
 10
111.6256883822
 20
247.9742079669
 11
111.4440438348
 21
247.9218949055
  0
LINE
  8
0
 62
7
  6
CONTINUOUS
 10
81.0172388644
 20
243.915853936
 11
81.0595130661
 21
244.135150413
  0
LINE
  8
0
 62
7
  6
CONTINUOUS
 10
81.4040050593
 20
245.8483614457
 11
81.3676044866
 21
245.7039902625
  0
LINE
  8
0
 62
7
  6
CONTINUOUS
 10
81.4747768877
 20
245.5201876011
 11
81.5111774604
 21
245.6645587844
  0
LINE
  8
0
 62
7
  6
CONTINUOUS
 10
88.9428383346
 20
249.2020966585
 11
88.874198942
 21
249.0699723637
  0
LINE
  8
0
 62
7
  6
CONTINUOUS
 10
89.1199963604
 20
248.9780453425
 11
89.222954309
 21
249.1762314371
  0
LINE
  8
0
 62
7
  6
CONTINUOUS
 10
90.4763178548
 20
248.279178481
 11
90.579275798
 21
248.4773645935
  0
LINE
  8
0
 62
7
  6
CONTINUOUS
 10
95.8600326407
 20
251.5660360812
 11
95.6731313409
 21
251.3342167781
  0
LINE
  8
0
 62
7
  6
CONTINUOUS
 10
97.4176994838
 20
249.5255577701
 11
97.6046007818
 21
249.7573770919
  0
LINE
  8
0
 62
7
  6
CONTINUOUS
 10
105.8508987996
 20
249.3235771835
 11
107.9218885579
 21
250.778761087
  0
LINE
  8
0
 62
7
  6
CONTINUOUS
 10
107.6852431315
 20
250.9308582001
 11
105.5630444953
 21
249.4851738572
  0
LINE
  8
0
 62
7
  6
CONTINUOUS
 10
108.8636589775
 20
250.7173946437
 11
108.6725701521
 21
250.6017956467
  0
LINE
  8
0
 62
7
  6
CONTINUOUS
 10
109.4563409063
 20
248.4228187991
 11
109.6474297363
 21
248.5384178141
  0
LINE
  8
0
 62
7
  6
CONTINUOUS
 10
116.2339538951
 20
247.2696027993
 11
116.0222267486
 21
247.1985416797
  0
LINE
  8
0
 62
7
  6
CONTINUOUS
 10
116.4621640606
 20
245.5405038348
 11
116.6033140802
 21
245.5878786456
  0
LINE
  8
0
 62
7
  6
CONTINUOUS
 10
113.8898032367
 20
192.9695777093
 11
113.9675093801
 21
192.9916180064
  0
LINE
  8
0
 62
7
  6
CONTINUOUS
 10
114.0255061506
 20
193.1331135464
 11
113.9478002925
 21
193.1110735346
  0
LINE
  8
0
 62
7
  6
CONTINUOUS
 10
92.1466995455
 20
250.2927664567
 11
91.7503229081
 21
249.4869889426
  0
LINE
  8
0
 62
7
  6
CONTINUOUS
 10
91.4281763813
 20
248.3708148998
 11
91.8245518419
 21
249.1765922092
  0
LINE
  8
0
 62
7
  6
CONTINUOUS
 10
91.6354723336
 20
249.2954492949
 11
91.1242462812
 21
248.2981324105
  0
LINE
  8
0
 62
7
  6
CONTINUOUS
 10
91.9394024337
 20
249.3681317843
 11
92.4506296456
 21
250.3654489461
  0
LINE
  8
0
 62
7
  6
CONTINUOUS
 10
95.9060819387
 20
251.0895325157
 11
95.9944153939
 21
251.2583870824
  0
LINE
  8
0
 62
40
  6
CONTINUOUS
 10
79.2500226258
 20
224.1351099713
 11
90.4546055648
 21
235.3396929103
  0
LINE
  8
0
 62
40
  6
CONTINUOUS
 10
95.9935158865
 20
238.6158615322
 11
94.5793023241
 21
237.2016479698
  0
LINE
  8
0
 62
40
  6
CONTINUOUS
 10
75.9738540039
 20
218.5961996496
 11
77.3880675663
 21
220.010413212
  0
LINE
  8
0
 62
7
  6
CONTINUOUS
 10
108.6806565896
 20
250.2152430113
 11
108.9619535899
 21
250.4724016366
  0
LINE
  8
0
 62
7
  6
CONTINUOUS
 10
111.0513087232
 20
249.7305039549
 11
111.200069815
 21
249.8496047626
  0
LINE
  8
0
 62
7
  6
CONTINUOUS
 10
111.1180155664
 20
250.100504154
 11
110.9031742529
 21
249.947120275
  0
LINE
  8
0
 62
7
  6
CONTINUOUS
 10
111.707742625
 20
247.7233085577
 11
111.9225839443
 21
247.8766924545
  0
LINE
  8
0
 62
7
  6
CONTINUOUS
 10
116.1110128034
 20
246.9143061816
 11
116.2763525966
 21
247.009053851
  0
LINE
  8
0
 62
7
  6
CONTINUOUS
 10
121.636615794
 20
244.0134392137
 11
121.4571709559
 21
243.9492993806
  0
LINE
  8
0
 62
7
  6
CONTINUOUS
 10
120.3196692142
 20
244.3445191051
 11
120.568772249
 21
244.4318751718
  0
LINE
  8
0
 62
7
  6
CONTINUOUS
 10
115.1366314608
 20
194.2164059334
 11
115.2143376043
 21
194.2384462306
  0
LINE
  8
0
 62
7
  6
CONTINUOUS
 10
116.1091574014
 20
195.1889318741
 11
116.1868634022
 21
195.2109720285
  0
LINE
  8
0
 62
7
  6
CONTINUOUS
 10
116.2448603153
 20
195.3524677111
 11
116.1671543146
 21
195.3304275567
  0
LINE
  8
0
 62
7
  6
CONTINUOUS
 10
115.5286930764
 20
195.2207919174
 11
115.4121339966
 21
195.1877316218
  0
LINE
  8
0
 62
7
  6
CONTINUOUS
 10
116.9680206539
 20
196.0756280497
 11
117.0845797264
 21
196.1086883527
  0
LINE
  8
0
 62
7
  6
CONTINUOUS
 10
117.2133591893
 20
196.8776251071
 11
117.3299182715
 21
196.9106854003
  0
LINE
  8
0
 62
7
  6
CONTINUOUS
 10
117.3879151214
 20
197.0521810392
 11
117.3102090712
 21
197.0301408451
  0
LINE
  8
0
 62
7
  6
CONTINUOUS
 10
112.8007185089
 20
191.9639917511
 11
112.9062572902
 21
191.9581988396
  0
LINE
  8
0
 62
7
  6
CONTINUOUS
 10
112.9781705222
 20
192.085777918
 11
112.9254011316
 21
192.0886743737
  0
LINE
  8
0
 62
7
  6
CONTINUOUS
 10
112.5780550943
 20
192.1866551657
 11
112.6835938853
 21
192.1808622445
  0
LINE
  8
0
 62
7
  6
CONTINUOUS
 10
112.7555071173
 20
192.3084413229
 11
112.7027377169
 21
192.3113377884
  0
LINE
  8
0
 62
7
  6
CONTINUOUS
 10
113.4212360226
 20
192.6401751111
 11
113.4740054132
 21
192.6372786554
  0
LINE
  8
0
 62
7
  6
CONTINUOUS
 10
113.5986883212
 20
192.7619615634
 11
113.4931492546
 21
192.7677541895
  0
LINE
  8
0
 62
7
  6
CONTINUOUS
 10
113.1985726079
 20
192.8628385257
 11
113.2513419986
 21
192.85994207
  0
LINE
  8
0
 62
7
  6
CONTINUOUS
 10
113.3760249066
 20
192.984624978
 11
113.2704858351
 21
192.990417609
  0
LINE
  8
0
 62
40
  6
CONTINUOUS
 10
79.2500226258
 20
204.792679963
 11
90.4546055648
 21
193.5880970241
  0
LINE
  8
0
 62
40
  6
CONTINUOUS
 10
94.5793023241
 20
191.7261419645
 11
95.9935158865
 21
190.3119284022
  0
LINE
  8
0
 62
40
  6
CONTINUOUS
 10
77.3880675663
 20
208.9173767223
 11
75.9738540039
 21
210.3315902847
  0
LINE
  8
0
 62
7
  6
CONTINUOUS
 10
80.9127765932
 20
244.356965142
 11
80.9139410721
 21
244.1664045219
  0
LINE
  8
0
 62
7
  6
CONTINUOUS
 10
88.874198942
 20
249.0699723637
 11
88.8365663393
 21
248.8360840555
  0
LINE
  8
0
 62
7
  6
CONTINUOUS
 10
89.1011794889
 20
248.8611010146
 11
89.1199963604
 21
248.9780453425
  0
LINE
  8
0
 62
7
  6
CONTINUOUS
 10
95.6731313409
 20
251.3342167781
 11
95.5899144584
 21
251.1124175355
  0
LINE
  8
0
 62
7
  6
CONTINUOUS
 10
97.3716501948
 20
250.002061243
 11
97.2833167252
 21
249.8332068246
  0
LINE
  8
0
 62
7
  6
CONTINUOUS
 10
108.6725701521
 20
250.6017956467
 11
108.5186642
 21
250.4217035598
  0
LINE
  8
0
 62
7
  6
CONTINUOUS
 10
109.6393455799
 20
248.9249697471
 11
109.3580462986
 21
248.6678118242
  0
LINE
  8
0
 62
7
  6
CONTINUOUS
 10
112.0566220218
 20
248.9524108305
 11
111.90786093
 21
248.8333100229
  0
LINE
  8
0
 62
7
  6
CONTINUOUS
 10
111.7744494856
 20
248.0933088099
 11
111.6256883822
 21
247.9742079669
  0
LINE
  8
0
 62
7
  6
CONTINUOUS
 10
116.0222267486
 20
247.1985416797
 11
115.927461963
 21
247.1274814115
  0
LINE
  8
0
 62
7
  6
CONTINUOUS
 10
118.5962622237
 20
245.817082478
 11
118.396124522
 21
245.6903362531
  0
LINE
  8
0
 62
7
  6
CONTINUOUS
 10
118.590156248
 20
245.5086819734
 11
118.6902230675
 21
245.572056334
  0
LINE
  8
0
 62
7
  6
CONTINUOUS
 10
116.8190299038
 20
245.8958022136
 11
116.6536879702
 21
245.8010555952
  0
LINE
  8
0
 62
7
  6
CONTINUOUS
 10
121.600296671
 20
243.7071251094
 11
121.7060993197
 21
243.7603789748
  0
LINE
  8
0
 62
7
  6
CONTINUOUS
 10
121.9622094932
 20
242.0301693016
 11
122.1416543426
 21
242.0943091496
  0
LINE
  8
0
 62
7
  6
CONTINUOUS
 10
115.2473979072
 20
194.3550053031
 11
115.1946282312
 21
194.3579014734
  0
LINE
  8
0
 62
7
  6
CONTINUOUS
 10
114.8635295723
 20
194.6391271974
 11
114.8107601792
 21
194.6420236556
  0
LINE
  8
0
 62
7
  6
CONTINUOUS
 10
115.41792663
 20
195.0821925478
 11
115.4706961633
 21
195.0792962348
  0
LINE
  8
0
 62
7
  6
CONTINUOUS
 10
116.0563878681
 20
195.1918281871
 11
116.1091574014
 21
195.1889318741
  0
LINE
  8
0
 62
7
  6
CONTINUOUS
 10
117.4934541019
 20
197.0463883075
 11
117.3879151214
 21
197.0521810392
  0
LINE
  8
0
 62
7
  6
CONTINUOUS
 10
113.8231173844
 20
192.9863906266
 11
113.8898032367
 21
192.9695777093
  0
LINE
  8
0
 62
7
  6
CONTINUOUS
 10
115.0699456086
 20
194.2332188507
 11
115.1366314608
 21
194.2164059334
  0
LINE
  8
0
 62
7
  6
CONTINUOUS
 10
114.6860772712
 20
194.5173407476
 11
114.7527631283
 21
194.5005278254
  0
LINE
  8
0
 62
7
  6
CONTINUOUS
 10
114.9302154318
 20
194.6223142728
 11
114.8635295723
 21
194.6391271974
  0
LINE
  8
0
 62
7
  6
CONTINUOUS
 10
97.6046007818
 20
249.7573770919
 11
97.6878176607
 21
249.9791763715
  0
LINE
  8
0
 62
7
  6
CONTINUOUS
 10
108.5186642
 20
250.4217035598
 11
108.4284560251
 21
250.2801439315
  0
LINE
  8
0
 62
7
  6
CONTINUOUS
 10
110.9520316887
 20
249.5951499243
 11
111.0513087232
 21
249.7305039549
  0
LINE
  8
0
 62
7
  6
CONTINUOUS
 10
110.9031742529
 20
249.947120275
 11
110.7212163483
 21
249.7269485082
  0
LINE
  8
0
 62
7
  6
CONTINUOUS
 10
111.9225839443
 20
247.8766924545
 11
112.104541814
 21
248.0968641151
  0
LINE
  8
0
 62
7
  6
CONTINUOUS
 10
109.6474297363
 20
248.5384178141
 11
109.8013356977
 21
248.7185099371
  0
LINE
  8
0
 62
7
  6
CONTINUOUS
 10
115.9920561166
 20
246.7958741308
 11
116.1110128034
 21
246.9143061816
  0
LINE
  8
0
 62
7
  6
CONTINUOUS
 10
116.6033140802
 20
245.5878786456
 11
116.6980809976
 21
245.6589378461
  0
LINE
  8
0
 62
7
  6
CONTINUOUS
 10
121.9985286275
 20
242.3364834207
 11
121.8927259788
 21
242.2832295553
  0
LINE
  8
0
 62
7
  6
CONTINUOUS
 10
130.663317568
 20
236.242821217
 11
128.405091395
 21
235.5345047489
  0
LINE
  8
0
 62
7
  6
CONTINUOUS
 10
128.3162992797
 20
235.2085403847
 11
130.3301384454
 21
235.7997195115
  0
LINE
  8
0
 62
7
  6
CONTINUOUS
 10
117.3299182715
 20
196.9106854003
 11
117.4493737017
 21
196.8909762146
  0
LINE
  8
0
 62
7
  6
CONTINUOUS
 10
117.0787869577
 20
196.2142272767
 11
117.0121010341
 21
196.2310401226
  0
LINE
  8
0
 62
7
  6
CONTINUOUS
 10
115.6092954
 20
195.1900625288
 11
115.5286930764
 21
195.2207919174
  0
LINE
  8
0
 62
7
  6
CONTINUOUS
 10
116.1671543146
 20
195.3304275567
 11
116.0865518581
 21
195.3611567929
  0
LINE
  8
0
 62
7
  6
CONTINUOUS
 10
113.7285986091
 20
193.0310364671
 11
113.8231173844
 21
192.9863906266
  0
LINE
  8
0
 62
7
  6
CONTINUOUS
 10
113.9478002925
 20
193.1110735346
 11
113.8532812317
 21
193.1557190897
  0
LINE
  8
0
 62
7
  6
CONTINUOUS
 10
114.7527631283
 20
194.5005278254
 11
114.8472821939
 21
194.4558822654
  0
LINE
  8
0
 62
7
  6
CONTINUOUS
 10
90.579275798
 20
248.4773645935
 11
90.5670870091
 21
248.6960733179
  0
LINE
  8
0
 62
7
  6
CONTINUOUS
 10
90.3179755439
 20
248.6201738308
 11
90.3146626484
 21
248.4523476343
  0
LINE
  8
0
 62
7
  6
CONTINUOUS
 10
95.5899144584
 20
251.1124175355
 11
95.5636551994
 21
250.8426832362
  0
LINE
  8
0
 62
7
  6
CONTINUOUS
 10
95.8747060783
 20
250.8727431888
 11
95.9060819387
 21
251.0895325157
  0
LINE
  8
0
 62
7
  6
CONTINUOUS
 10
97.4030260552
 20
250.2188505698
 11
97.3716501948
 21
250.002061243
  0
LINE
  8
0
 62
7
  6
CONTINUOUS
 10
108.4284560251
 20
250.2801439315
 11
108.3117352551
 21
250.0355581606
  0
LINE
  8
0
 62
7
  6
CONTINUOUS
 10
109.8013356977
 20
248.7185099371
 11
109.8915438355
 21
248.8600694211
  0
LINE
  8
0
 62
7
  6
CONTINUOUS
 10
112.1558990098
 20
249.0877647195
 11
112.0566220218
 21
248.9524108305
  0
LINE
  8
0
 62
7
  6
CONTINUOUS
 10
111.8737264736
 20
248.2286626989
 11
111.7744494856
 21
248.0933088099
  0
LINE
  8
0
 62
7
  6
CONTINUOUS
 10
115.927461963
 20
247.1274814115
 11
115.7843176217
 21
246.9616754097
  0
LINE
  8
0
 62
7
  6
CONTINUOUS
 10
119.2818390976
 20
244.1472166369
 11
119.4376039249
 21
244.3012280503
  0
LINE
  8
0
 62
7
  6
CONTINUOUS
 10
119.2157272674
 20
244.4375613232
 11
119.0878094029
 21
244.3288696685
  0
LINE
  8
0
 62
7
  6
CONTINUOUS
 10
127.2829466843
 20
239.4874668677
 11
127.0483459963
 21
239.3517879
  0
LINE
  8
0
 62
7
  6
CONTINUOUS
 10
127.2538704297
 20
239.1163819586
 11
127.4484019138
 21
239.2170779501
  0
LINE
  8
0
 62
7
  6
CONTINUOUS
 10
127.611949067
 20
237.4930764805
 11
127.4174175828
 21
237.3923804889
  0
LINE
  8
0
 62
7
  6
CONTINUOUS
 10
126.5370041552
 20
240.0339305395
 11
126.3874548943
 21
239.9576949668
  0
LINE
  8
0
 62
7
  6
CONTINUOUS
 10
126.5712092952
 20
239.699393004
 11
126.7207585561
 21
239.7756285766
  0
LINE
  8
0
 62
7
  6
CONTINUOUS
 10
116.8874181974
 20
196.106357286
 11
116.9680206539
 21
196.0756280497
  0
LINE
  8
0
 62
7
  6
CONTINUOUS
 10
115.9618690927
 20
195.2364740276
 11
116.0563878681
 21
195.1918281871
  0
LINE
  8
0
 62
7
  6
CONTINUOUS
 10
97.6878176607
 20
249.9791763715
 11
97.714076934
 21
250.2489105225
  0
LINE
  8
0
 62
7
  6
CONTINUOUS
 10
108.5506771945
 20
249.9191446911
 11
108.6806565896
 21
250.2152430113
  0
LINE
  8
0
 62
7
  6
CONTINUOUS
 10
109.7693226846
 20
249.2210687336
 11
109.6393455799
 21
248.9249697471
  0
LINE
  8
0
 62
7
  6
CONTINUOUS
 10
109.8915438355
 20
248.8600694211
 11
110.008266933
 21
249.10465467
  0
LINE
  8
0
 62
7
  6
CONTINUOUS
 10
112.104541814
 20
248.0968641151
 11
112.2702123577
 21
248.4343597102
  0
LINE
  8
0
 62
7
  6
CONTINUOUS
 10
112.0228008993
 20
248.5156221412
 11
111.8737264736
 21
248.2286626989
  0
LINE
  8
0
 62
7
  6
CONTINUOUS
 10
118.396124522
 20
245.6903362531
 11
118.1846657496
 21
245.4456852906
  0
LINE
  8
0
 62
7
  6
CONTINUOUS
 10
127.5828729246
 20
237.1219916694
 11
127.8174735004
 21
237.257670539
  0
LINE
  8
0
 62
7
  6
CONTINUOUS
 10
117.6018894348
 20
196.9878261013
 11
117.4934541019
 21
197.0463883075
  0
LINE
  8
0
 62
7
  6
CONTINUOUS
 10
113.2426513599
 20
191.5182799177
 11
114.8689969567
 21
189.8919343209
  0
LINE
  8
0
 62
7
  6
CONTINUOUS
 10
112.5502221711
 20
192.2144880889
 11
112.5780550943
 21
192.1866551657
  0
LINE
  8
0
 62
7
  6
CONTINUOUS
 10
115.4700377207
 20
190.492975085
 11
113.8436921239
 21
192.1193206817
  0
LINE
  8
0
 62
7
  6
CONTINUOUS
 10
113.9851134802
 20
192.2607420379
 11
114.9043522957
 21
191.3415032224
  0
LINE
  8
0
 62
7
  6
CONTINUOUS
 10
113.6265212444
 20
192.7341286402
 11
113.5986883212
 21
192.7619615634
  0
LINE
  8
0
 62
7
  6
CONTINUOUS
 10
113.4641857999
 20
193.2954492762
 11
113.7285986091
 21
193.0310364671
  0
LINE
  8
0
 62
7
  6
CONTINUOUS
 10
113.8532812317
 20
193.1557190897
 11
113.5888684226
 21
193.4201318989
  0
LINE
  8
0
 62
7
  6
CONTINUOUS
 10
115.5407483988
 20
191.9071886473
 11
114.5861542442
 21
192.8617828019
  0
LINE
  8
0
 62
7
  6
CONTINUOUS
 10
114.037726549
 20
193.8689900253
 11
114.3578052045
 21
193.5489113698
  0
LINE
  8
0
 62
7
  6
CONTINUOUS
 10
114.4134710509
 20
193.4932455235
 11
114.4830533588
 21
193.4236632155
  0
LINE
  8
0
 62
7
  6
CONTINUOUS
 10
114.6077362668
 20
193.5483461236
 11
114.162409457
 21
193.9936729334
  0
LINE
  8
0
 62
7
  6
CONTINUOUS
 10
114.3619020528
 20
194.1931655291
 11
114.8072288626
 21
193.7478387193
  0
LINE
  8
0
 62
7
  6
CONTINUOUS
 10
114.9463935174
 20
193.6086740645
 11
115.0159758254
 21
193.5390917565
  0
LINE
  8
0
 62
7
  6
CONTINUOUS
 10
115.140658448
 20
193.6637743792
 11
115.0710761401
 21
193.7333566871
  0
LINE
  8
0
 62
7
  6
CONTINUOUS
 10
114.9319114852
 20
193.872521342
 11
114.4865846754
 21
194.3178481518
  0
LINE
  8
0
 62
7
  6
CONTINUOUS
 10
115.3993270426
 20
193.6749556003
 11
116.1771445019
 21
192.897138141
  0
LINE
  8
0
 62
7
  6
CONTINUOUS
 10
116.7428299268
 20
192.331452716
 11
117.0256726393
 21
192.0486100036
  0
LINE
  8
0
 62
7
  6
CONTINUOUS
 10
114.8472821939
 20
194.4558822654
 11
115.0699456086
 21
194.2332188507
  0
LINE
  8
0
 62
7
  6
CONTINUOUS
 10
115.1946282312
 20
194.3579014734
 11
115.1528788465
 21
194.3996508582
  0
LINE
  8
0
 62
7
  6
CONTINUOUS
 10
115.0972129806
 20
194.455316724
 11
115.0137142111
 21
194.5388154935
  0
LINE
  8
0
 62
7
  6
CONTINUOUS
 10
88.8365663393
 20
248.8360840555
 11
88.8797607886
 21
248.5156109345
  0
LINE
  8
0
 62
7
  6
CONTINUOUS
 10
95.5636551994
 20
250.8426832362
 11
95.6404040127
 21
250.0485108
  0
LINE
  8
0
 62
7
  6
CONTINUOUS
 10
95.9514548916
 20
250.0785707526
 11
95.8747060783
 21
250.8727431888
  0
LINE
  8
0
 62
7
  6
CONTINUOUS
 10
98.1503645164
 20
251.9263113602
 11
98.2126387168
 21
249.4270870957
  0
LINE
  8
0
 62
7
  6
CONTINUOUS
 10
98.5250417499
 20
249.4348713708
 11
98.4707174464
 21
251.6150457671
  0
LINE
  8
DEFAULT_1
 62
2
  6
CENTER
 10
100.1258205689
 20
259.9562363239
 11
100.1258205689
 21
216.4639949672
  0
LINE
  8
0
 62
2
  6
CONTINUOUS
 10
100.1258205689
 20
215.3438949672
 11
100.1258205689
 21
213.5838949672
  0
LINE
  8
DEFAULT_1
 62
2
  6
CENTER
 10
100.1258205689
 20
165.3971553611
 11
100.1258205689
 21
212.4637949672
  0
LINE
  8
0
 62
7
  6
CONTINUOUS
 10
100.821448303
 20
251.9691613748
 11
100.7126323533
 21
249.4715306797
  0
LINE
  8
0
 62
7
  6
CONTINUOUS
 10
101.038727588
 20
249.7767751569
 11
101.075771316
 21
250.6270324251
  0
LINE
  8
0
 62
7
  6
CONTINUOUS
 10
101.0896627122
 20
250.9458788588
 11
101.1197607437
 21
251.6367129474
  0
LINE
  8
0
 62
7
  6
CONTINUOUS
 10
105.9414157474
 20
251.5248437049
 11
105.8929066186
 21
251.2633476034
  0
LINE
  8
0
 62
7
  6
CONTINUOUS
 10
105.5630444953
 20
249.4851738572
 11
105.4854298824
 21
249.0667800582
  0
LINE
  8
0
 62
7
  6
CONTINUOUS
 10
108.3117352551
 20
250.0355581606
 11
108.1924284098
 21
249.5719398695
  0
LINE
  8
0
 62
7
  6
CONTINUOUS
 10
108.4578829816
 20
249.558552687
 11
108.5506771945
 21
249.9191446911
  0
LINE
  8
0
 62
7
  6
CONTINUOUS
 10
110.7212163483
 20
249.7269485082
 11
110.6548228159
 21
249.5248068729
  0
LINE
  8
0
 62
7
  6
CONTINUOUS
 10
110.9188349225
 20
249.4940791067
 11
110.9520316887
 21
249.5951499243
  0
LINE
  8
0
 62
7
  6
CONTINUOUS
 10
115.6824350878
 20
248.5852395886
 11
114.6358674715
 21
246.3148439789
  0
LINE
  8
0
 62
7
  6
CONTINUOUS
 10
114.9196669227
 20
246.1840230269
 11
115.966234539
 21
248.4544186366
  0
LINE
  8
0
 62
7
  6
CONTINUOUS
 10
115.7843176217
 20
246.9616754097
 11
115.5907993651
 21
246.5826924085
  0
LINE
  8
0
 62
7
  6
CONTINUOUS
 10
115.8469174156
 20
246.5116368634
 11
115.9920561166
 21
246.7958741308
  0
LINE
  8
0
 62
7
  6
CONTINUOUS
 10
118.369505492
 20
247.2272115689
 11
117.145690461
 21
245.0472398328
  0
LINE
  8
0
 62
7
  6
CONTINUOUS
 10
117.3727715432
 20
244.9197587114
 11
118.5965865741
 21
247.0997304474
  0
LINE
  8
0
 62
7
  6
CONTINUOUS
 10
118.3508505128
 20
245.2187112521
 11
118.4065444384
 21
245.3093507695
  0
LINE
  8
0
 62
7
  6
CONTINUOUS
 10
118.5623092852
 20
245.4633622147
 11
118.590156248
 21
245.5086819734
  0
LINE
  8
0
 62
7
  6
CONTINUOUS
 10
120.4652045897
 20
245.0183603528
 11
119.5039878362
 21
243.6136181207
  0
LINE
  8
0
 62
7
  6
CONTINUOUS
 10
119.7189087116
 20
243.4665551639
 11
120.3196692142
 21
244.3445191051
  0
LINE
  8
0
 62
7
  6
CONTINUOUS
 10
120.4998973397
 20
244.6079082505
 11
120.6801254652
 21
244.871297396
  0
LINE
  8
0
 62
7
  6
CONTINUOUS
 10
121.0887201922
 20
244.2694492164
 11
121.2389102967
 21
244.488940171
  0
LINE
  8
0
 62
7
  6
CONTINUOUS
 10
121.4571709559
 20
243.9492993806
 11
121.392857634
 21
243.86455782
  0
LINE
  8
0
 62
7
  6
CONTINUOUS
 10
125.919336307
 20
241.7012399175
 11
124.1542772914
 21
239.930769169
  0
LINE
  8
0
 62
7
  6
CONTINUOUS
 10
124.3755861349
 20
239.7101367921
 11
125.1642295361
 21
240.5011982015
  0
LINE
  8
0
 62
7
  6
CONTINUOUS
 10
125.3895561921
 20
240.727215717
 11
125.9528729373
 21
241.292259611
  0
LINE
  8
0
 62
7
  6
CONTINUOUS
 10
127.0483459963
 20
239.3517879
 11
126.4473095656
 21
238.8270446793
  0
LINE
  8
0
 62
7
  6
CONTINUOUS
 10
126.652833999
 20
238.5916387379
 11
127.2538704297
 21
239.1163819586
  0
LINE
  8
0
 62
7
  6
CONTINUOUS
 10
129.4496917597
 20
237.8716517668
 11
127.4449772369
 21
236.3779584642
  0
LINE
  8
0
 62
7
  6
CONTINUOUS
 10
127.6316888997
 20
236.1273691489
 11
129.2098684685
 21
237.3032554036
  0
LINE
  8
DEFAULT_1
 62
2
  6
CENTER
 10
149.1925601751
 20
214.4638949672
 11
102.1259205689
 21
214.4638949672
  0
LINE
  8
0
 62
2
  6
CONTINUOUS
 10
101.0058205689
 20
214.4638949672
 11
99.2458205689
 21
214.4638949672
  0
LINE
  8
DEFAULT_1
 62
2
  6
CENTER
 10
52.033916849
 20
214.4638949672
 11
98.1257205689
 21
214.4638949672
  0
LINE
  8
0
 62
7
  6
CONTINUOUS
 10
117.6267134033
 20
192.6496507676
 11
116.0003678066
 21
194.2759963643
  0
LINE
  8
0
 62
7
  6
CONTINUOUS
 10
115.4706961633
 20
195.0792962348
 11
115.4985290962
 21
195.0514633019
  0
LINE
  8
0
 62
7
  6
CONTINUOUS
 10
116.1417891628
 20
194.4174177205
 11
117.7681347595
 21
192.7910721238
  0
LINE
  8
0
 62
7
  6
CONTINUOUS
 10
115.8458752665
 20
194.9534826623
 11
115.8180423433
 21
194.9813155855
  0
LINE
  8
0
 62
7
  6
CONTINUOUS
 10
115.6510447848
 20
195.148313144
 11
115.6092954
 21
195.1900625288
  0
LINE
  8
0
 62
7
  6
CONTINUOUS
 10
115.683539822
 20
195.5148032983
 11
115.9618690927
 21
195.2364740276
  0
LINE
  8
0
 62
7
  6
CONTINUOUS
 10
116.0865518581
 20
195.3611567929
 11
115.8082225873
 21
195.6394860637
  0
LINE
  8
0
 62
7
  6
CONTINUOUS
 10
118.3691755235
 20
193.3921128878
 11
117.5913580642
 21
194.1699303471
  0
LINE
  8
0
 62
7
  6
CONTINUOUS
 10
117.0256726393
 20
194.7356157721
 11
116.7428299268
 21
195.0184584845
  0
LINE
  8
0
 62
7
  6
CONTINUOUS
 10
116.2570807138
 20
196.0883441901
 11
116.5771593693
 21
195.7682655346
  0
LINE
  8
0
 62
7
  6
CONTINUOUS
 10
116.6328252156
 20
195.7125996883
 11
116.9111544864
 21
195.4342704175
  0
LINE
  8
0
 62
7
  6
CONTINUOUS
 10
117.035837323
 20
195.5589532542
 11
116.3817635504
 21
196.2130270268
  0
LINE
  8
0
 62
7
  6
CONTINUOUS
 10
118.2277541673
 20
195.1598798408
 11
119.1823483219
 21
194.2052856862
  0
LINE
  8
0
 62
7
  6
CONTINUOUS
 10
117.4493737017
 20
196.8909762146
 11
117.4911230864
 21
196.8492268298
  0
LINE
  8
0
 62
7
  6
CONTINUOUS
 10
119.7833890859
 20
194.8063264502
 11
118.8641502704
 21
195.7255652657
  0
LINE
  8
0
 62
7
  6
CONTINUOUS
 10
79.1811682821
 20
244.6145526027
 11
79.7681141323
 21
243.7272937487
  0
LINE
  8
0
 62
7
  6
CONTINUOUS
 10
79.9853077114
 20
243.8709732053
 11
79.3983618612
 21
244.7582320592
  0
LINE
  8
0
 62
7
  6
CONTINUOUS
 10
80.2671361622
 20
245.3329498751
 11
80.9127765932
 21
244.356965142
  0
LINE
  8
0
 62
7
  6
CONTINUOUS
 10
81.0086721165
 20
245.802568995
 11
81.8660514002
 21
244.3321475759
  0
LINE
  8
0
 62
7
  6
CONTINUOUS
 10
82.0910182689
 20
244.4633221699
 11
81.4747768877
 21
245.5201876011
  0
LINE
  8
0
 62
7
  6
CONTINUOUS
 10
81.3676044866
 20
245.7039902625
 11
81.2336389853
 21
245.9337435891
  0
LINE
  8
0
 62
7
  6
CONTINUOUS
 10
82.3918298617
 20
245.8086133884
 11
82.9008988418
 21
244.9355506184
  0
LINE
  8
0
 62
7
  6
CONTINUOUS
 10
82.3152500806
 20
247.464660611
 11
82.440751989
 21
247.2301768852
  0
LINE
  8
0
 62
7
  6
CONTINUOUS
 10
82.6917558761
 20
246.7612093024
 11
83.4949681602
 21
245.2605133263
  0
LINE
  8
0
 62
7
  6
CONTINUOUS
 10
83.7245667481
 20
245.3834005794
 11
82.921354464
 21
246.8840965555
  0
LINE
  8
0
 62
7
  6
CONTINUOUS
 10
82.6703505769
 20
247.3530641383
 11
82.5448486685
 21
247.5875478641
  0
LINE
  8
0
 62
7
  6
CONTINUOUS
 10
85.4287847288
 20
248.9765889183
 11
86.3504898958
 21
246.6527000257
  0
LINE
  8
0
 62
7
  6
CONTINUOUS
 10
86.6409760074
 20
246.7679131716
 11
86.2095395427
 21
247.8556909599
  0
LINE
  8
0
 62
7
  6
CONTINUOUS
 10
86.0918750673
 20
248.1523575917
 11
85.8369353157
 21
248.7951354324
  0
LINE
  8
0
 62
7
  6
CONTINUOUS
 10
87.6676359165
 20
249.8342298455
 11
88.4899840617
 21
247.4733521426
  0
LINE
  8
0
 62
7
  6
CONTINUOUS
 10
88.7359090101
 20
247.559013473
 11
87.9135608649
 21
249.9198911759
  0
LINE
  8
0
 62
7
  6
CONTINUOUS
 10
89.1598779033
 20
248.4897460606
 11
89.1288722538
 21
248.5915104215
  0
LINE
  8
0
 62
7
  6
CONTINUOUS
 10
89.1166823137
 20
248.8102188341
 11
89.1011794889
 21
248.8611010146
  0
LINE
  8
0
 62
7
  6
CONTINUOUS
 10
97.3262772419
 20
251.013023006
 11
97.4030260552
 21
250.2188505698
  0
LINE
  8
0
 62
7
  6
CONTINUOUS
 10
97.714076934
 20
250.2489105225
 11
97.6373281208
 21
251.0430829587
  0
LINE
  8
0
 62
7
  6
CONTINUOUS
 10
99.9206475759
 20
251.9704222323
 11
99.9736468956
 21
249.8434228512
  0
LINE
  8
0
 62
7
  6
CONTINUOUS
 10
100.2953248094
 20
249.4789822429
 11
100.2330506089
 21
251.9782065074
  0
LINE
  8
0
 62
7
  6
CONTINUOUS
 10
102.4286554031
 20
250.5680904178
 11
102.4425467993
 21
250.8869368515
  0
LINE
  8
0
 62
7
  6
CONTINUOUS
 10
102.5858553746
 20
249.3899187175
 11
102.5997467724
 21
249.7087651884
  0
LINE
  8
0
 62
7
  6
CONTINUOUS
 10
102.6807799281
 20
251.5687029788
 11
102.6946713243
 21
251.8875494125
  0
LINE
  8
0
 62
7
  6
CONTINUOUS
 10
107.5338154732
 20
248.6867919824
 11
107.5920264346
 21
249.0005873408
  0
LINE
  8
0
 62
7
  6
CONTINUOUS
 10
107.9218885579
 20
250.778761087
 11
107.9898013382
 21
251.144855629
  0
LINE
  8
0
 62
7
  6
CONTINUOUS
 10
109.8621168976
 20
249.5816607378
 11
109.7693226846
 21
249.2210687336
  0
LINE
  8
0
 62
7
  6
CONTINUOUS
 10
110.008266933
 20
249.10465467
 11
110.1275737783
 21
249.568272961
  0
LINE
  8
0
 62
7
  6
CONTINUOUS
 10
112.1890957761
 20
249.1888355372
 11
112.1558990098
 21
249.0877647195
  0
LINE
  8
0
 62
7
  6
CONTINUOUS
 10
112.0559976655
 20
248.6166929588
 11
112.0228008993
 21
248.5156221412
  0
LINE
  8
0
 62
7
  6
CONTINUOUS
 10
112.2702123577
 20
248.4343597102
 11
112.3864010395
 21
248.7881075718
  0
LINE
  8
0
 62
7
  6
CONTINUOUS
 10
117.6898620081
 20
247.6012256192
 11
117.1818766055
 21
246.6063952826
  0
LINE
  8
0
 62
7
  6
CONTINUOUS
 10
117.0609277162
 20
246.3695309484
 11
116.8190299038
 21
245.8958022136
  0
LINE
  8
0
 62
7
  6
CONTINUOUS
 10
116.6980809976
 20
245.6589378461
 11
116.5529423136
 21
245.3747006119
  0
LINE
  8
0
 62
7
  6
CONTINUOUS
 10
116.7848705863
 20
245.2562721998
 11
117.9217902808
 21
247.4827972072
  0
LINE
  8
0
 62
7
  6
CONTINUOUS
 10
119.5498908601
 20
244.981398491
 11
119.4941969345
 21
244.8907589736
  0
LINE
  8
0
 62
7
  6
CONTINUOUS
 10
119.6046857018
 20
244.5731466025
 11
119.716073592
 21
244.7544257008
  0
LINE
  8
0
 62
7
  6
CONTINUOUS
 10
122.1416543426
 20
242.0943091496
 11
122.2059676645
 21
242.1790507101
  0
LINE
  8
0
 62
7
  6
CONTINUOUS
 10
126.6496675884
 20
240.1469394027
 11
126.5370041552
 21
240.0339305395
  0
LINE
  8
0
 62
7
  6
CONTINUOUS
 10
126.7207585561
 20
239.7756285766
 11
126.870976432
 21
239.9263070258
  0
LINE
  8
0
 62
7
  6
CONTINUOUS
 10
128.2129854977
 20
238.0178197012
 11
127.611949067
 21
237.4930764805
  0
LINE
  8
0
 62
7
  6
CONTINUOUS
 10
127.8174735004
 20
237.257670539
 11
128.4185099311
 21
237.7824137597
  0
LINE
  8
0
 62
7
  6
CONTINUOUS
 10
130.3301384454
 20
235.7997195115
 11
128.7519588766
 21
234.6238332568
  0
LINE
  8
0
 62
7
  6
CONTINUOUS
 10
128.9386705394
 20
234.3732439414
 11
130.9433850622
 21
235.8669372439
  0
LINE
  8
0
 62
7
  6
CONTINUOUS
 10
81.2473594013
 20
244.3231928399
 11
80.4843297879
 21
245.4766293625
  0
LINE
  8
0
 62
7
  6
CONTINUOUS
 10
83.1258655818
 20
245.0667251374
 11
82.6167966017
 21
245.9397879074
  0
LINE
  8
0
 62
7
  6
CONTINUOUS
 10
87.4683123235
 20
248.3549477789
 11
87.3506478481
 21
248.6516144107
  0
LINE
  8
0
 62
7
  6
CONTINUOUS
 10
87.2893658736
 20
249.3712011618
 11
87.1717013982
 21
249.6678677936
  0
LINE
  8
0
 62
7
  6
CONTINUOUS
 10
90.1319416248
 20
249.2307600678
 11
90.1629472743
 21
249.1289957068
  0
LINE
  8
0
 62
7
  6
CONTINUOUS
 10
90.4740700603
 20
249.0013664007
 11
90.4120587395
 21
249.2048951939
  0
LINE
  8
0
 62
7
  6
CONTINUOUS
 10
108.1924284098
 20
249.5719398695
 11
108.1765859999
 21
249.3013941337
  0
LINE
  8
0
 62
7
  6
CONTINUOUS
 10
110.1275737783
 20
249.568272961
 11
110.1434138607
 21
249.8388192189
  0
LINE
  8
0
 62
7
  6
CONTINUOUS
 10
108.4287865644
 20
249.2364932135
 11
108.4578829816
 21
249.558552687
  0
LINE
  8
0
 62
7
  6
CONTINUOUS
 10
109.8912156051
 20
249.9037195449
 11
109.8621168976
 21
249.5816607378
  0
LINE
  8
0
 62
7
  6
CONTINUOUS
 10
112.3864010395
 20
248.7881075718
 11
112.4531078827
 21
249.1581077709
  0
LINE
  8
0
 62
7
  6
CONTINUOUS
 10
115.5907993651
 20
246.5826924085
 11
115.5404254666
 21
246.3695154424
  0
LINE
  8
0
 62
7
  6
CONTINUOUS
 10
118.1846657496
 20
245.4456852906
 11
118.0619609293
 21
245.1464990853
  0
LINE
  8
0
 62
7
  6
CONTINUOUS
 10
126.52681275
 20
238.4124717045
 11
126.652833999
 21
238.5916387379
  0
LINE
  8
0
 62
7
  6
CONTINUOUS
 10
126.4473095656
 20
238.8270446793
 11
126.2812192249
 21
238.6128947678
  0
LINE
  8
0
 62
7
  6
CONTINUOUS
 10
128.4185099311
 20
237.7824137597
 11
128.584600384
 21
237.9965637692
  0
LINE
  8
0
 62
7
  6
CONTINUOUS
 10
79.7681141323
 20
243.7272937487
 11
79.9289420328
 21
243.5785778522
  0
LINE
  8
0
 62
7
  6
CONTINUOUS
 10
82.2128709094
 20
246.0121317511
 11
82.3918298617
 21
245.8086133884
  0
LINE
  8
0
 62
7
  6
CONTINUOUS
 10
82.6167966017
 20
245.9397879074
 11
82.4378379068
 21
246.1433064203
  0
LINE
  8
0
 62
7
  6
CONTINUOUS
 10
117.6604516605
 20
196.879390749
 11
117.6018894348
 21
196.9878261013
  0
LINE
  8
0
 62
7
  6
CONTINUOUS
 10
88.8797607886
 20
248.5156109345
 11
89.0226002584
 21
248.2254978186
  0
LINE
  8
0
 62
7
  6
CONTINUOUS
 10
96.0237634485
 20
249.8718014864
 11
95.9514548916
 21
250.0785707526
  0
LINE
  8
0
 62
7
  6
CONTINUOUS
 10
95.6404040127
 20
250.0485108
 11
95.7178291567
 21
249.7887967097
  0
LINE
  8
0
 62
7
  6
CONTINUOUS
 10
97.6373281208
 20
251.0430829587
 11
97.5599029624
 21
251.3027971973
  0
LINE
  8
0
 62
7
  6
CONTINUOUS
 10
108.1765859999
 20
249.3013941337
 11
108.1872562408
 21
249.133874757
  0
LINE
  8
0
 62
7
  6
CONTINUOUS
 10
110.1434138607
 20
249.8388192189
 11
110.1327436569
 21
250.0063387399
  0
LINE
  8
0
 62
7
  6
CONTINUOUS
 10
110.6548228159
 20
249.5248068729
 11
110.6707968427
 21
249.2396244101
  0
LINE
  8
0
 62
7
  6
CONTINUOUS
 10
112.7027377169
 20
192.3113377884
 11
112.6998412612
 21
192.364107179
  0
LINE
  8
0
 62
7
  6
CONTINUOUS
 10
113.4740054132
 20
192.6372786554
 11
113.4769018689
 21
192.5845092647
  0
LINE
  8
0
 62
7
  6
CONTINUOUS
 10
110.4384194558
 20
248.5321286159
 11
110.4381061335
 21
248.3642700167
  0
LINE
  8
0
 62
7
  6
CONTINUOUS
 10
110.9185216118
 20
249.3262205429
 11
110.9188349225
 21
249.4940791067
  0
LINE
  8
0
 62
7
  6
CONTINUOUS
 10
112.1894091333
 20
249.3566942426
 11
112.1890957761
 21
249.1888355372
  0
LINE
  8
0
 62
7
  6
CONTINUOUS
 10
115.8187410925
 20
246.2274004806
 11
115.8469174156
 21
246.5116368634
  0
LINE
  8
0
 62
7
  6
CONTINUOUS
 10
118.311686581
 20
245.0554843229
 11
118.3508505128
 21
245.2187112521
  0
LINE
  8
0
 62
7
  6
CONTINUOUS
 10
119.716073592
 20
244.7544257008
 11
119.7830844867
 21
244.9629723887
  0
LINE
  8
0
 62
7
  6
CONTINUOUS
 10
126.7254449835
 20
240.2967213455
 11
126.6496675884
 21
240.1469394027
  0
LINE
  8
0
 62
7
  6
CONTINUOUS
 10
126.870976432
 20
239.9263070258
 11
126.9467538271
 21
240.0760889685
  0
LINE
  8
0
 62
7
  6
CONTINUOUS
 10
129.2098684685
 20
237.3032554036
 11
128.0673513456
 21
235.5426581972
  0
LINE
  8
0
 62
7
  6
CONTINUOUS
 10
128.405091395
 20
235.5345047489
 11
129.7297592539
 21
237.4957677937
  0
LINE
  8
0
 62
7
  6
CONTINUOUS
 10
128.3390067466
 20
238.1969867345
 11
128.2129854977
 21
238.0178197012
  0
LINE
  8
0
 62
7
  6
CONTINUOUS
 10
80.1167883048
 20
243.7666202819
 11
79.9853077114
 21
243.8709732053
  0
LINE
  8
0
 62
7
  6
CONTINUOUS
 10
82.4378379068
 20
246.1433064203
 11
82.312465155
 21
246.2549234524
  0
LINE
  8
0
 62
7
  6
CONTINUOUS
 10
81.408187254
 20
244.1744769229
 11
81.2473594013
 21
244.3231928399
  0
LINE
  8
0
 62
7
  6
CONTINUOUS
 10
89.2562077585
 20
248.3522791386
 11
89.1598779033
 21
248.4897460606
  0
LINE
  8
0
 62
7
  6
CONTINUOUS
 10
90.4120587395
 20
249.2048951939
 11
90.3002249192
 21
249.3932439489
  0
LINE
  8
0
 62
7
  6
CONTINUOUS
 10
116.6896913929
 20
196.3539573107
 11
116.7204206389
 21
196.2733548445
  0
LINE
  8
0
 62
7
  6
CONTINUOUS
 10
117.4911230864
 20
196.8492268298
 11
117.5218523867
 21
196.7686243984
  0
LINE
  8
0
 62
7
  6
CONTINUOUS
 10
97.2539686849
 20
251.2197922722
 11
97.3262772419
 21
251.013023006
  0
LINE
  8
0
 62
7
  6
CONTINUOUS
 10
115.4985290962
 20
195.0514633019
 11
115.5153418709
 21
194.9847773069
  0
LINE
  8
0
 62
7
  6
CONTINUOUS
 10
116.8451034756
 20
196.3980376812
 11
116.8282906199
 21
196.4647236145
  0
LINE
  8
0
 62
7
  6
CONTINUOUS
 10
112.4531078827
 20
249.1581077709
 11
112.4371339023
 21
249.4432903754
  0
LINE
  8
0
 62
7
  6
CONTINUOUS
 10
114.9273192566
 20
194.6750839537
 11
114.9302154318
 21
194.6223142728
  0
LINE
  8
0
 62
7
  6
CONTINUOUS
 10
115.0137142111
 20
194.5388154935
 11
115.0108180408
 21
194.5915851695
  0
LINE
  8
0
 62
7
  6
CONTINUOUS
 10
115.6568375535
 20
195.0427742201
 11
115.6510447848
 21
195.148313144
  0
LINE
  8
0
 62
7
  6
CONTINUOUS
 10
115.693359578
 20
194.8566328201
 11
115.696255891
 21
194.8038632868
  0
LINE
  8
0
 62
7
  6
CONTINUOUS
 10
115.8487717222
 20
194.9007132717
 11
115.8458752665
 21
194.9534826623
  0
LINE
  8
0
 62
7
  6
CONTINUOUS
 10
117.5218523867
 20
196.7686243984
 11
117.5247487533
 21
196.7158549186
  0
LINE
  8
0
 62
7
  6
CONTINUOUS
 10
117.6662443824
 20
196.7738517782
 11
117.6604516605
 21
196.879390749
  0
LINE
  8
0
 62
7
  6
CONTINUOUS
 10
115.5404254666
 20
246.3695154424
 11
115.5384311407
 21
246.2510842432
  0
LINE
  8
0
 62
7
  6
CONTINUOUS
 10
117.1818766055
 20
246.6063952826
 11
117.1838688079
 21
246.7248275662
  0
LINE
  8
0
 62
7
  6
CONTINUOUS
 10
112.5583457164
 20
192.3061104134
 11
112.5502221711
 21
192.2144880889
  0
LINE
  8
0
 62
7
  6
CONTINUOUS
 10
113.6183974089
 20
192.6425060352
 11
113.6265212444
 21
192.7341286402
  0
LINE
  8
0
 62
7
  6
CONTINUOUS
 10
118.0619609293
 20
245.1464990853
 11
118.039322909
 21
244.9106872089
  0
LINE
  8
0
 62
7
  6
CONTINUOUS
 10
118.3003655492
 20
244.9375796488
 11
118.311686581
 21
245.0554843229
  0
LINE
  8
0
 62
7
  6
CONTINUOUS
 10
120.8783509907
 20
243.1866252467
 11
120.8326991906
 21
242.9541696031
  0
LINE
  8
0
 62
7
  6
CONTINUOUS
 10
121.0629660325
 20
242.9129632804
 11
121.0857900277
 21
243.0291925361
  0
LINE
  8
0
 62
7
  6
CONTINUOUS
 10
121.392857634
 20
243.86455782
 11
121.3472058452
 21
243.6321021913
  0
LINE
  8
0
 62
7
  6
CONTINUOUS
 10
121.5774726757
 20
243.5908958537
 11
121.600296671
 21
243.7071251094
  0
LINE
  8
0
 62
7
  6
CONTINUOUS
 10
122.0213526453
 20
242.4527127061
 11
121.9985286275
 21
242.3364834207
  0
LINE
  8
0
 62
7
  6
CONTINUOUS
 10
122.2059676645
 20
242.1790507101
 11
122.2516194759
 21
242.4115063685
  0
LINE
  8
0
 62
7
  6
CONTINUOUS
 10
122.535859266
 20
243.1306452497
 11
122.5130352708
 21
243.014415994
  0
LINE
  8
0
 62
7
  6
CONTINUOUS
 10
126.2812192249
 20
238.6128947678
 11
126.1894499294
 21
238.3944957811
  0
LINE
  8
0
 62
7
  6
CONTINUOUS
 10
127.3540894309
 20
237.0605275822
 11
127.5828729246
 21
237.1219916694
  0
LINE
  8
0
 62
7
  6
CONTINUOUS
 10
79.9289420328
 20
243.5785778522
 11
80.0310753318
 21
243.5185878658
  0
LINE
  8
0
 62
7
  6
CONTINUOUS
 10
81.5103206397
 20
244.1144869827
 11
81.408187254
 21
244.1744769229
  0
LINE
  8
0
 62
7
  6
CONTINUOUS
 10
81.0595130661
 20
244.135150413
 11
81.293127014
 21
243.9708074954
  0
LINE
  8
0
 62
7
  6
CONTINUOUS
 10
89.0226002584
 20
248.2254978186
 11
89.1842554703
 21
248.0523286474
  0
LINE
  8
0
 62
7
  6
CONTINUOUS
 10
89.3370359291
 20
248.2656947446
 11
89.2562077585
 21
248.3522791386
  0
LINE
  8
0
 62
7
  6
CONTINUOUS
 10
95.7178291567
 20
249.7887967097
 11
95.8419787394
 21
249.587037322
  0
LINE
  8
0
 62
7
  6
CONTINUOUS
 10
108.1872562408
 20
249.133874757
 11
108.2351116546
 21
248.9018616602
  0
LINE
  8
0
 62
7
  6
CONTINUOUS
 10
117.0407244667
 20
246.5590215643
 11
117.0609277162
 21
246.3695309484
  0
LINE
  8
0
 62
7
  6
CONTINUOUS
 10
119.5446778354
 20
245.1718930734
 11
119.5498908601
 21
244.981398491
  0
LINE
  8
0
 62
7
  6
CONTINUOUS
 10
122.7204743078
 20
242.8569832834
 11
122.7661260966
 21
243.0894389122
  0
LINE
  8
0
 62
7
  6
CONTINUOUS
 10
126.4751125742
 20
238.2290556203
 11
126.52681275
 21
238.4124717045
  0
LINE
  8
0
 62
7
  6
CONTINUOUS
 10
128.3907070347
 20
238.3804029167
 11
128.3390067466
 21
238.1969867345
  0
LINE
  8
0
 62
7
  6
CONTINUOUS
 10
114.3578052045
 20
193.5489113698
 11
114.3357651928
 21
193.4712055118
  0
LINE
  8
0
 62
7
  6
CONTINUOUS
 10
114.3914310391
 20
193.4155396654
 11
114.4134710509
 21
193.4932455235
  0
LINE
  8
0
 62
7
  6
CONTINUOUS
 10
115.0108180408
 20
194.5915851695
 11
115.043878334
 21
194.7081442518
  0
LINE
  8
0
 62
7
  6
CONTINUOUS
 10
115.5153418709
 20
194.9847773069
 11
115.4933017164
 21
194.9070713062
  0
LINE
  8
0
 62
7
  6
CONTINUOUS
 10
115.6347974186
 20
194.9650681998
 11
115.6568375535
 21
195.0427742201
  0
LINE
  8
0
 62
7
  6
CONTINUOUS
 10
115.8267314251
 20
194.8230071282
 11
115.8487717222
 21
194.9007132717
  0
LINE
  8
0
 62
7
  6
CONTINUOUS
 10
128.584600384
 20
237.9965637692
 11
128.6763696514
 21
238.2149627315
  0
LINE
  8
0
 62
40
  6
CONTINUOUS
 10
124.2777871339
 20
210.3315902847
 11
122.8635735716
 21
208.9173767223
  0
LINE
  8
0
 62
40
  6
CONTINUOUS
 10
104.2581252514
 20
190.3119284022
 11
105.6723388138
 21
191.7261419645
  0
LINE
  8
0
 62
7
  6
CONTINUOUS
 10
127.51173015
 20
239.5489309303
 11
127.2829466843
 21
239.4874668677
  0
LINE
  8
0
 62
7
  6
CONTINUOUS
 10
127.4174175828
 20
237.3923804889
 11
127.2287032088
 21
237.3658993044
  0
LINE
  8
0
 62
7
  6
CONTINUOUS
 10
127.4484019138
 20
239.2170779501
 11
127.6371164001
 21
239.2435592327
  0
LINE
  8
0
 62
7
  6
CONTINUOUS
 10
80.2917076408
 20
243.6910032229
 11
80.1167883048
 21
243.7666202819
  0
LINE
  8
0
 62
7
  6
CONTINUOUS
 10
89.9857892485
 20
249.3530470228
 11
90.1319416248
 21
249.2307600678
  0
LINE
  8
0
 62
40
  6
CONTINUOUS
 10
122.8635735716
 20
220.010413212
 11
124.2777871339
 21
218.5961996496
  0
LINE
  8
0
 62
40
  6
CONTINUOUS
 10
105.6723388138
 20
237.2016479698
 11
104.2581252514
 21
238.6158615322
  0
LINE
  8
0
 62
7
  6
CONTINUOUS
 10
96.1427964405
 20
249.72298696
 11
96.0237634485
 21
249.8718014864
  0
LINE
  8
0
 62
7
  6
CONTINUOUS
 10
97.1349356786
 20
251.368606947
 11
97.2539686849
 21
251.2197922722
  0
LINE
  8
0
 62
7
  6
CONTINUOUS
 10
99.9736468956
 20
249.8434228512
 11
98.618969066
 21
251.9379877727
  0
LINE
  8
0
 62
7
  6
CONTINUOUS
 10
98.4707174464
 20
251.6150457671
 11
99.8267202598
 21
249.4673058304
  0
LINE
  8
0
 62
7
  6
CONTINUOUS
 10
97.5599029624
 20
251.3027971973
 11
97.4357533833
 21
251.5045565479
  0
LINE
  8
0
 62
7
  6
CONTINUOUS
 10
108.5510077246
 20
248.8754939371
 11
108.4287865644
 21
249.2364932135
  0
LINE
  8
0
 62
7
  6
CONTINUOUS
 10
109.7689921638
 20
250.2647195238
 11
109.8912156051
 21
249.9037195449
  0
LINE
  8
0
 62
7
  6
CONTINUOUS
 10
110.4381061335
 20
248.3642700167
 11
110.5201603763
 21
248.1133706075
  0
LINE
  8
0
 62
7
  6
CONTINUOUS
 10
110.7350016957
 20
248.2667545042
 11
110.6858331793
 21
248.4508654409
  0
LINE
  8
0
 62
7
  6
CONTINUOUS
 10
110.9676924049
 20
249.1421088976
 11
110.9185216118
 21
249.3262205429
  0
LINE
  8
0
 62
7
  6
CONTINUOUS
 10
112.1402383402
 20
249.5408058878
 11
112.1894091333
 21
249.3566942426
  0
LINE
  8
0
 62
7
  6
CONTINUOUS
 10
110.1327436569
 20
250.0063387399
 11
110.0848882338
 21
250.2383518006
  0
LINE
  8
0
 62
7
  6
CONTINUOUS
 10
119.7830844867
 20
244.9629723887
 11
119.7613455309
 21
245.2260518864
  0
LINE
  8
0
 62
7
  6
CONTINUOUS
 10
126.1894499294
 20
238.3944957811
 11
126.1661908832
 21
238.0976257647
  0
LINE
  8
0
 62
7
  6
CONTINUOUS
 10
126.9467538271
 20
240.0760889685
 11
126.986317176
 21
240.3370835006
  0
LINE
  8
0
 62
7
  6
CONTINUOUS
 10
116.722751691
 20
196.4705163881
 11
116.6896913929
 21
196.3539573107
  0
LINE
  8
0
 62
7
  6
CONTINUOUS
 10
116.5771593693
 20
195.7682655346
 11
116.5551191435
 21
195.6905594625
  0
LINE
  8
0
 62
7
  6
CONTINUOUS
 10
116.6107849899
 20
195.6348936161
 11
116.6328252156
 21
195.7125996883
  0
LINE
  8
0
 62
7
  6
CONTINUOUS
 10
117.5247487533
 20
196.7158549186
 11
117.4916884503
 21
196.5992958461
  0
LINE
  8
0
 62
7
  6
CONTINUOUS
 10
117.6442041834
 20
196.6961457329
 11
117.6662443824
 21
196.7738517782
  0
LINE
  8
0
 62
7
  6
CONTINUOUS
 10
114.3357651928
 20
193.4712055118
 11
114.2887884282
 21
193.3685629008
  0
LINE
  8
0
 62
7
  6
CONTINUOUS
 10
114.9742960175
 20
194.7777265683
 11
114.9273192566
 21
194.6750839537
  0
LINE
  8
0
 62
7
  6
CONTINUOUS
 10
114.3444542746
 20
193.3128970545
 11
114.3914310391
 21
193.4155396654
  0
LINE
  8
0
 62
7
  6
CONTINUOUS
 10
116.8282906199
 20
196.4647236145
 11
116.8752674201
 21
196.5673662611
  0
LINE
  8
0
 62
7
  6
CONTINUOUS
 10
116.5551191435
 20
195.6905594625
 11
116.5081424503
 21
195.5879169229
  0
LINE
  8
0
 62
7
  6
CONTINUOUS
 10
116.5638082966
 20
195.5322510766
 11
116.6107849899
 21
195.6348936161
  0
LINE
  8
0
 62
7
  6
CONTINUOUS
 10
117.5972274099
 20
196.593503113
 11
117.6442041834
 21
196.6961457329
  0
LINE
  8
0
 62
7
  6
CONTINUOUS
 10
112.6302589447
 20
192.4336894955
 11
112.5583457164
 21
192.3061104134
  0
LINE
  8
0
 62
7
  6
CONTINUOUS
 10
112.6998412612
 20
192.364107179
 11
112.7357980199
 21
192.4278968609
  0
LINE
  8
0
 62
7
  6
CONTINUOUS
 10
113.4769018689
 20
192.5845092647
 11
113.4409451102
 21
192.5207195829
  0
LINE
  8
0
 62
7
  6
CONTINUOUS
 10
113.5464841769
 20
192.5149269568
 11
113.6183974089
 21
192.6425060352
  0
LINE
  8
0
 62
7
  6
CONTINUOUS
 10
115.4933017164
 20
194.9070713062
 11
115.4573451004
 21
194.843281767
  0
LINE
  8
0
 62
7
  6
CONTINUOUS
 10
115.5628840439
 20
194.8374889787
 11
115.6347974186
 21
194.9650681998
  0
LINE
  8
0
 62
7
  6
CONTINUOUS
 10
115.696255891
 20
194.8038632868
 11
115.660299275
 21
194.7400737476
  0
LINE
  8
0
 62
7
  6
CONTINUOUS
 10
116.7946649908
 20
196.5980955415
 11
116.722751691
 21
196.4705163881
  0
LINE
  8
0
 62
7
  6
CONTINUOUS
 10
115.7907748091
 20
194.759217589
 11
115.8267314251
 21
194.8230071282
  0
LINE
  8
0
 62
7
  6
CONTINUOUS
 10
117.4916884503
 20
196.5992958461
 11
117.4557317808
 21
196.5355062534
  0
LINE
  8
0
 62
7
  6
CONTINUOUS
 10
115.043878334
 20
194.7081442518
 11
115.1407281713
 21
194.8606599452
  0
LINE
  8
0
 62
7
  6
CONTINUOUS
 10
117.5363341838
 20
196.5047769637
 11
117.5972274099
 21
196.593503113
  0
LINE
  8
0
 62
7
  6
CONTINUOUS
 10
112.7357980199
 20
192.4278968609
 11
112.8216277086
 21
192.5415594825
  0
LINE
  8
0
 62
7
  6
CONTINUOUS
 10
113.4409451102
 20
192.5207195829
 11
113.3551154166
 21
192.4070569661
  0
LINE
  8
0
 62
7
  6
CONTINUOUS
 10
114.2887884282
 20
193.3685629008
 11
114.2029584492
 21
193.2548999987
  0
LINE
  8
0
 62
7
  6
CONTINUOUS
 10
115.4573451004
 20
194.843281767
 11
115.3715152641
 21
194.7296190075
  0
LINE
  8
0
 62
7
  6
CONTINUOUS
 10
114.2586242956
 20
193.1992341523
 11
114.3444542746
 21
193.3128970545
  0
LINE
  8
0
 62
7
  6
CONTINUOUS
 10
115.660299275
 20
194.7400737476
 11
115.5744694387
 21
194.6264109882
  0
LINE
  8
0
 62
7
  6
CONTINUOUS
 10
116.5081424503
 20
195.5879169229
 11
116.422312614
 21
195.4742541634
  0
LINE
  8
0
 62
7
  6
CONTINUOUS
 10
116.4779784603
 20
195.4185883171
 11
116.5638082966
 21
195.5322510766
  0
LINE
  8
0
 62
7
  6
CONTINUOUS
 10
117.4557317808
 20
196.5355062534
 11
117.3699019801
 21
196.4218435296
  0
LINE
  8
0
 62
7
  6
CONTINUOUS
 10
115.0850623201
 20
194.9163257964
 11
114.9742960175
 21
194.7777265683
  0
LINE
  8
0
 62
7
  6
CONTINUOUS
 10
112.7659618574
 20
192.5972253337
 11
112.6302589447
 21
192.4336894955
  0
LINE
  8
0
 62
7
  6
CONTINUOUS
 10
113.410781263
 20
192.3513911197
 11
113.5464841769
 21
192.5149269568
  0
LINE
  8
0
 62
7
  6
CONTINUOUS
 10
115.42718113
 20
194.6739531417
 11
115.5628840439
 21
194.8374889787
  0
LINE
  8
0
 62
7
  6
CONTINUOUS
 10
116.9553044779
 20
196.7865679543
 11
116.7946649908
 21
196.5980955415
  0
LINE
  8
0
 62
7
  6
CONTINUOUS
 10
116.8752674201
 20
196.5673662611
 11
117.0359068679
 21
196.7558386418
  0
LINE
  8
0
 62
7
  6
CONTINUOUS
 10
115.630135285
 20
194.5707451418
 11
115.7907748091
 21
194.759217589
  0
LINE
  8
0
 62
40
  6
CONTINUOUS
 10
109.7970355731
 20
193.5880970241
 11
121.001618512
 21
204.792679963
  0
LINE
  8
0
 62
7
  6
CONTINUOUS
 10
116.3817635504
 20
196.2130270268
 11
116.2570807138
 21
196.0883441901
  0
LINE
  8
0
 62
7
  6
CONTINUOUS
 10
115.8082225873
 20
195.6394860637
 11
115.683539822
 21
195.5148032983
  0
LINE
  8
0
 62
7
  6
CONTINUOUS
 10
115.2346816955
 20
195.0659451719
 11
115.0850623201
 21
194.9163257964
  0
LINE
  8
0
 62
7
  6
CONTINUOUS
 10
114.8107601792
 20
194.6420236556
 11
114.6860772712
 21
194.5173407476
  0
LINE
  8
0
 62
7
  6
CONTINUOUS
 10
114.4865846754
 20
194.3178481518
 11
114.3619020528
 21
194.1931655291
  0
LINE
  8
0
 62
7
  6
CONTINUOUS
 10
114.162409457
 20
193.9936729334
 11
114.037726549
 21
193.8689900253
  0
LINE
  8
0
 62
7
  6
CONTINUOUS
 10
113.5888684226
 20
193.4201318989
 11
113.4641857999
 21
193.2954492762
  0
LINE
  8
0
 62
7
  6
CONTINUOUS
 10
112.9155812329
 20
192.7468447092
 11
112.7659618574
 21
192.5972253337
  0
LINE
  8
0
 62
7
  6
CONTINUOUS
 10
112.8216277086
 20
192.5415594825
 11
112.9712470841
 21
192.691178858
  0
LINE
  8
0
 62
7
  6
CONTINUOUS
 10
115.1407281713
 20
194.8606599452
 11
115.2903475468
 21
195.0102793207
  0
LINE
  8
0
 62
7
  6
CONTINUOUS
 10
113.2513419986
 20
192.85994207
 11
113.3760249066
 21
192.984624978
  0
LINE
  8
0
 62
7
  6
CONTINUOUS
 10
116.7204206389
 20
196.2733548445
 11
116.8451034756
 21
196.3980376812
  0
LINE
  8
0
 62
7
  6
CONTINUOUS
 10
115.3715152641
 20
194.7296190075
 11
115.0972129806
 21
194.455316724
  0
LINE
  8
0
 62
7
  6
CONTINUOUS
 10
117.1188402984
 20
196.9222708491
 11
116.9553044779
 21
196.7865679543
  0
LINE
  8
0
 62
7
  6
CONTINUOUS
 10
115.3483443135
 20
195.1517748643
 11
115.2346816955
 21
195.0659451719
  0
LINE
  8
0
 62
7
  6
CONTINUOUS
 10
117.2075664489
 20
196.983164074
 11
117.1188402984
 21
196.9222708491
  0
LINE
  8
0
 62
7
  6
CONTINUOUS
 10
117.0359068679
 20
196.7558386418
 11
117.2133591893
 21
196.8776251071
  0
LINE
  8
0
 62
7
  6
CONTINUOUS
 10
115.4121339966
 20
195.1877316218
 11
115.3483443135
 21
195.1517748643
  0
LINE
  8
0
 62
7
  6
CONTINUOUS
 10
117.0845797264
 20
196.1086883527
 11
117.2121588762
 21
196.1806016561
  0
LINE
  8
0
 62
7
  6
CONTINUOUS
 10
115.2903475468
 20
195.0102793207
 11
115.41792663
 21
195.0821925478
  0
LINE
  8
0
 62
7
  6
CONTINUOUS
 10
116.3086498545
 20
195.3884243272
 11
116.2448603153
 21
195.3524677111
  0
LINE
  8
0
 62
7
  6
CONTINUOUS
 10
117.3102090712
 20
197.0301408451
 11
117.2075664489
 21
196.983164074
  0
LINE
  8
0
 62
7
  6
CONTINUOUS
 10
117.1814296043
 20
196.2612040769
 11
117.0787869577
 21
196.2142272767
  0
LINE
  8
0
 62
7
  6
CONTINUOUS
 10
116.1868634022
 20
195.2109720285
 11
116.2895060131
 21
195.2579487931
  0
LINE
  8
0
 62
7
  6
CONTINUOUS
 10
115.2143376043
 20
194.2384462306
 11
115.3169802152
 21
194.2854229951
  0
LINE
  8
0
 62
7
  6
CONTINUOUS
 10
119.0651713924
 20
244.093057808
 11
119.2818390976
 21
244.1472166369
  0
LINE
  8
0
 62
7
  6
CONTINUOUS
 10
126.3103371028
 20
239.6590308488
 11
126.5712092952
 21
239.699393004
  0
LINE
  8
0
 62
7
  6
CONTINUOUS
 10
127.056795716
 20
237.0775345491
 11
127.3540894309
 21
237.0605275822
  0
LINE
  8
0
 62
7
  6
CONTINUOUS
 10
80.0310753318
 20
243.5185878658
 11
80.2494333563
 21
243.4717067024
  0
LINE
  8
0
 62
7
  6
CONTINUOUS
 10
89.1842554703
 20
248.0523286474
 11
89.3149061675
 21
247.9809242024
  0
LINE
  8
0
 62
7
  6
CONTINUOUS
 10
89.5330108373
 20
248.1585877208
 11
89.3370359291
 21
248.2656947446
  0
LINE
  8
0
 62
7
  6
CONTINUOUS
 10
90.728358692
 20
249.9535814138
 11
91.6354723336
 21
249.2954492949
  0
LINE
  8
0
 62
7
  6
CONTINUOUS
 10
92.8465172348
 20
248.7099999427
 11
91.9394024337
 21
249.3681317843
  0
LINE
  8
0
 62
7
  6
CONTINUOUS
 10
90.3002249192
 20
249.3932439489
 11
90.0887471971
 21
249.5512331175
  0
LINE
  8
0
 62
7
  6
CONTINUOUS
 10
91.8245518419
 20
249.1765922092
 11
92.5425871347
 21
248.6373174533
  0
LINE
  8
0
 62
7
  6
CONTINUOUS
 10
91.7503229081
 20
249.4869889426
 11
91.0322887921
 21
250.0262639032
  0
LINE
  8
0
 62
7
  6
CONTINUOUS
 10
95.8419787394
 20
249.587037322
 11
96.0698127375
 21
249.3952980136
  0
LINE
  8
0
 62
40
  6
CONTINUOUS
 10
109.7970355731
 20
235.3396929103
 11
121.001618512
 21
224.1351099713
  0
LINE
  8
0
 62
7
  6
CONTINUOUS
 10
108.2351116546
 20
248.9018616602
 11
108.3466625785
 21
248.7083817785
  0
LINE
  8
0
 62
7
  6
CONTINUOUS
 10
110.6707968427
 20
249.2396244101
 11
110.7528510913
 21
248.9887250186
  0
LINE
  8
0
 62
7
  6
CONTINUOUS
 10
112.4371339023
 20
249.4432903754
 11
112.3550796537
 21
249.6941897669
  0
LINE
  8
0
 62
7
  6
CONTINUOUS
 10
115.5384311407
 20
246.2510842432
 11
115.6050196117
 21
246.0379081451
  0
LINE
  8
0
 62
7
  6
CONTINUOUS
 10
118.039322909
 20
244.9106872089
 11
118.0723808555
 21
244.7655136176
  0
LINE
  8
0
 62
7
  6
CONTINUOUS
 10
118.3499514483
 20
244.7198198779
 11
118.3003655492
 21
244.9375796488
  0
LINE
  8
0
 62
7
  6
CONTINUOUS
 10
126.72678538
 20
240.4456035207
 11
126.7254449835
 21
240.2967213455
  0
LINE
  8
0
 62
7
  6
CONTINUOUS
 10
128.6763696514
 20
238.2149627315
 11
128.6996286836
 21
238.5118327356
  0
LINE
  8
0
 62
7
  6
CONTINUOUS
 10
117.4006312877
 20
196.3412411445
 11
117.5363341838
 21
196.5047769637
  0
LINE
  8
0
 62
7
  6
CONTINUOUS
 10
115.1528788465
 20
194.3996508582
 11
115.42718113
 21
194.6739531417
  0
LINE
  8
0
 62
7
  6
CONTINUOUS
 10
117.0121010341
 20
196.2310401226
 11
116.8874181974
 21
196.106357286
  0
LINE
  8
0
 62
7
  6
CONTINUOUS
 10
115.8180423433
 20
194.9813155855
 11
115.693359578
 21
194.8566328201
  0
LINE
  8
0
 62
7
  6
CONTINUOUS
 10
112.9254011316
 20
192.0886743737
 11
112.8007185089
 21
191.9639917511
  0
LINE
  8
0
 62
7
  6
CONTINUOUS
 10
115.5744694387
 20
194.6264109882
 11
115.4248500632
 21
194.4767916127
  0
LINE
  8
0
 62
7
  6
CONTINUOUS
 10
113.3551154166
 20
192.4070569661
 11
113.2054960411
 21
192.2574375906
  0
LINE
  8
0
 62
7
  6
CONTINUOUS
 10
113.2611618875
 20
192.2017717442
 11
113.410781263
 21
192.3513911197
  0
LINE
  8
0
 62
7
  6
CONTINUOUS
 10
114.1588781404
 20
193.0994879971
 11
114.2586242956
 21
193.1992341523
  0
LINE
  8
0
 62
7
  6
CONTINUOUS
 10
114.4830533588
 20
193.4236632155
 11
114.6077362668
 21
193.5483461236
  0
LINE
  8
0
 62
7
  6
CONTINUOUS
 10
114.8072288626
 20
193.7478387193
 11
114.9319114852
 21
193.872521342
  0
LINE
  8
0
 62
7
  6
CONTINUOUS
 10
115.4805159096
 20
194.4211257663
 11
115.630135285
 21
194.5707451418
  0
LINE
  8
0
 62
7
  6
CONTINUOUS
 10
116.3782321625
 20
195.3188420192
 11
116.4779784603
 21
195.4185883171
  0
LINE
  8
0
 62
7
  6
CONTINUOUS
 10
115.0710761401
 20
193.7333566871
 11
114.9463935174
 21
193.6086740645
  0
LINE
  8
0
 62
7
  6
CONTINUOUS
 10
115.0159758254
 20
193.5390917565
 11
115.140658448
 21
193.6637743792
  0
LINE
  8
0
 62
7
  6
CONTINUOUS
 10
116.9111544864
 20
195.4342704175
 11
117.035837323
 21
195.5589532542
  0
LINE
  8
0
 62
7
  6
CONTINUOUS
 10
117.449936708
 20
195.7255652657
 11
117.271980189
 21
195.5476087468
  0
LINE
  8
0
 62
7
  6
CONTINUOUS
 10
116.7428299268
 20
195.0184584845
 11
116.1417891628
 21
194.4174177205
  0
LINE
  8
0
 62
7
  6
CONTINUOUS
 10
116.0003678066
 20
194.2759963643
 11
115.3993270426
 21
193.6749556003
  0
LINE
  8
0
 62
7
  6
CONTINUOUS
 10
114.5861542442
 20
192.8617828019
 11
113.9851134802
 21
192.2607420379
  0
LINE
  8
0
 62
7
  6
CONTINUOUS
 10
113.8436921239
 20
192.1193206817
 11
113.2426513599
 21
191.5182799177
  0
LINE
  8
0
 62
7
  6
CONTINUOUS
 10
117.5913580642
 20
194.8770371283
 11
117.8742007767
 21
195.1598798408
  0
LINE
  8
0
 62
7
  6
CONTINUOUS
 10
116.1771445019
 20
192.1900313598
 11
115.8943017894
 21
191.9071886473
  0
LINE
  8
0
 62
7
  6
CONTINUOUS
 10
114.8689969567
 20
189.8919343209
 11
115.4700377207
 21
190.492975085
  0
LINE
  8
0
 62
7
  6
CONTINUOUS
 10
116.3185658581
 20
191.3415032224
 11
116.4965223771
 21
191.5194597414
  0
LINE
  8
0
 62
7
  6
CONTINUOUS
 10
117.0256726393
 20
192.0486100036
 11
117.6267134033
 21
192.6496507676
  0
LINE
  8
0
 62
7
  6
CONTINUOUS
 10
117.7681347595
 20
192.7910721238
 11
118.3691755235
 21
193.3921128878
  0
LINE
  8
0
 62
7
  6
CONTINUOUS
 10
119.1823483219
 20
194.2052856862
 11
119.7833890859
 21
194.8063264502
  0
LINE
  8
0
 62
7
  6
CONTINUOUS
 10
117.3699019801
 20
196.4218435296
 11
117.1814296043
 21
196.2612040769
  0
LINE
  8
0
 62
7
  6
CONTINUOUS
 10
117.2121588762
 20
196.1806016561
 11
117.4006312877
 21
196.3412411445
  0
LINE
  8
0
 62
7
  6
CONTINUOUS
 10
113.0791170712
 20
192.8825476219
 11
112.9155812329
 21
192.7468447092
  0
LINE
  8
0
 62
7
  6
CONTINUOUS
 10
112.9712470841
 20
192.691178858
 11
113.1347829261
 21
192.826881767
  0
LINE
  8
0
 62
7
  6
CONTINUOUS
 10
115.3169802152
 20
194.2854229951
 11
115.4805159096
 21
194.4211257663
  0
LINE
  8
0
 62
7
  6
CONTINUOUS
 10
113.2054960411
 20
192.2574375906
 11
113.0419602041
 21
192.1217346767
  0
LINE
  8
0
 62
7
  6
CONTINUOUS
 10
113.0976260504
 20
192.0660688303
 11
113.2611618875
 21
192.2017717442
  0
LINE
  8
0
 62
7
  6
CONTINUOUS
 10
116.422312614
 20
195.4742541634
 11
116.3086498545
 21
195.3884243272
  0
LINE
  8
0
 62
7
  6
CONTINUOUS
 10
115.4248500632
 20
194.4767916127
 11
115.3111873037
 21
194.3909617764
  0
LINE
  8
0
 62
7
  6
CONTINUOUS
 10
114.2029584492
 20
193.2548999987
 11
114.0892958324
 21
193.1690703051
  0
LINE
  8
0
 62
7
  6
CONTINUOUS
 10
113.3516536951
 20
192.7097574385
 11
112.8581497282
 21
192.3554180875
  0
LINE
  8
0
 62
7
  6
CONTINUOUS
 10
112.8250894252
 20
192.238859015
 11
113.3185934117
 21
192.5931983465
  0
LINE
  8
0
 62
7
  6
CONTINUOUS
 10
116.2895060131
 20
195.2579487931
 11
116.3782321625
 21
195.3188420192
  0
LINE
  8
0
 62
7
  6
CONTINUOUS
 10
113.1678432217
 20
192.9434408468
 11
113.0791170712
 21
192.8825476219
  0
LINE
  8
0
 62
7
  6
CONTINUOUS
 10
114.070151991
 20
193.038594771
 11
114.1588781404
 21
193.0994879971
  0
LINE
  8
0
 62
7
  6
CONTINUOUS
 10
113.0088999011
 20
192.0051756042
 11
113.0976260504
 21
192.0660688303
  0
LINE
  8
0
 62
7
  6
CONTINUOUS
 10
115.3111873037
 20
194.3909617764
 11
115.2473979072
 21
194.3550053031
  0
LINE
  8
0
 62
7
  6
CONTINUOUS
 10
113.1347829261
 20
192.826881767
 11
113.1985726079
 21
192.8628385257
  0
LINE
  8
0
 62
7
  6
CONTINUOUS
 10
114.0892958324
 20
193.1690703051
 11
114.0255061506
 21
193.1331135464
  0
LINE
  8
0
 62
7
  6
CONTINUOUS
 10
113.0419602041
 20
192.1217346767
 11
112.9781705222
 21
192.085777918
  0
LINE
  8
0
 62
7
  6
CONTINUOUS
 10
113.2704858351
 20
192.990417609
 11
113.1678432217
 21
192.9434408468
  0
LINE
  8
0
 62
7
  6
CONTINUOUS
 10
113.9675093801
 20
192.9916180064
 11
114.070151991
 21
193.038594771
  0
LINE
  8
0
 62
7
  6
CONTINUOUS
 10
113.3185934117
 20
192.5931983465
 11
113.4212360226
 21
192.6401751111
  0
LINE
  8
0
 62
7
  6
CONTINUOUS
 10
112.8581497282
 20
192.3554180875
 11
112.7555071173
 21
192.3084413229
  0
LINE
  8
0
 62
7
  6
CONTINUOUS
 10
112.9062572902
 20
191.9581988396
 11
113.0088999011
 21
192.0051756042
  0
LINE
  8
0
 62
7
  6
CONTINUOUS
 10
113.4931492546
 20
192.7677541895
 11
113.3516536951
 21
192.7097574385
  0
LINE
  8
0
 62
7
  6
CONTINUOUS
 10
112.6835938853
 20
192.1808622445
 11
112.8250894252
 21
192.238859015
  0
LINE
  8
0
 62
7
  6
CONTINUOUS
 10
118.6902230675
 20
245.572056334
 11
118.906890763
 21
245.6262151471
  0
LINE
  8
0
 62
7
  6
CONTINUOUS
 10
118.7407080311
 20
245.8531879374
 11
118.5962622237
 21
245.817082478
  0
LINE
  8
0
 62
7
  6
CONTINUOUS
 10
120.6459393705
 20
244.6368810653
 11
120.4998973397
 21
244.6079082505
  0
LINE
  8
0
 62
7
  6
CONTINUOUS
 10
126.3874548943
 20
239.9576949668
 11
126.2385775201
 21
239.9558987985
  0
LINE
  8
0
 62
7
  6
CONTINUOUS
 10
80.2494333563
 20
243.4717067024
 11
80.438444111
 21
243.4691884978
  0
LINE
  8
0
 62
7
  6
CONTINUOUS
 10
127.8090238508
 20
239.5319239512
 11
127.51173015
 21
239.5489309303
  0
LINE
  8
0
 62
7
  6
CONTINUOUS
 10
126.050136797
 20
239.693108098
 11
126.3103371028
 21
239.6590308488
  0
LINE
  8
0
 62
7
  6
CONTINUOUS
 10
82.0692980643
 20
246.0515633042
 11
82.2128709094
 21
246.0121317511
  0
LINE
  8
0
 62
7
  6
CONTINUOUS
 10
82.312465155
 20
246.2549234524
 11
82.16889231
 21
246.2943550055
  0
LINE
  8
0
 62
7
  6
CONTINUOUS
 10
89.3149061675
 20
247.9809242024
 11
89.4953782427
 21
247.9246993858
  0
LINE
  8
0
 62
7
  6
CONTINUOUS
 10
97.4357533833
 20
251.5045565479
 11
97.2079193869
 21
251.6962958378
  0
LINE
  8
0
 62
7
  6
CONTINUOUS
 10
110.0848882338
 20
250.2383518006
 11
109.9733373053
 21
250.4318316643
  0
LINE
  8
0
 62
7
  6
CONTINUOUS
 10
115.6050196117
 20
246.0379081451
 11
115.6957978626
 21
245.8721049181
  0
LINE
  8
0
 62
7
  6
CONTINUOUS
 10
118.0723808555
 20
244.7655136176
 11
118.149813732
 21
244.5930736292
  0
LINE
  8
0
 62
7
  6
CONTINUOUS
 10
120.8326991906
 20
242.9541696031
 11
120.8928500449
 21
242.7749678323
  0
LINE
  8
0
 62
7
  6
CONTINUOUS
 10
117.1838688079
 20
246.7248275662
 11
117.1394779039
 21
246.866944231
  0
LINE
  8
0
 62
7
  6
CONTINUOUS
 10
121.3472058452
 20
243.6321021913
 11
121.4166893258
 21
243.379041893
  0
LINE
  8
0
 62
7
  6
CONTINUOUS
 10
122.2516194759
 20
242.4115063685
 11
122.1821359502
 21
242.6645666074
  0
LINE
  8
0
 62
7
  6
CONTINUOUS
 10
111.4105360129
 20
247.6529647491
 11
111.707742625
 21
247.7233085577
  0
LINE
  8
0
 62
7
  6
CONTINUOUS
 10
111.4152244393
 20
250.1708472054
 11
111.1180155664
 21
250.100504154
  0
LINE
  8
0
 62
7
  6
CONTINUOUS
 10
116.6536879702
 20
245.8010555952
 11
116.4661506016
 21
245.7773673424
  0
LINE
  8
0
 62
7
  6
CONTINUOUS
 10
116.4214912637
 20
247.2932910521
 11
116.2339538951
 21
247.2696027993
  0
LINE
  8
0
 62
7
  6
CONTINUOUS
 10
80.524157089
 20
243.7172208893
 11
80.2917076408
 21
243.6910032229
  0
LINE
  8
0
 62
7
  6
CONTINUOUS
 10
81.9525183195
 20
246.045044192
 11
82.0692980643
 21
246.0515633042
  0
LINE
  8
0
 62
7
  6
CONTINUOUS
 10
119.0878094029
 20
244.3288696685
 11
118.8989886702
 21
244.3200306141
  0
LINE
  8
0
 62
7
  6
CONTINUOUS
 10
118.9295287638
 20
245.8620269917
 11
118.7407080311
 21
245.8531879374
  0
LINE
  8
0
 62
7
  6
CONTINUOUS
 10
116.3452016975
 20
245.5405029791
 11
116.4621640606
 21
245.5405038348
  0
LINE
  8
0
 62
7
  6
CONTINUOUS
 10
116.2763525966
 20
247.009053851
 11
116.5102773185
 21
247.009055554
  0
LINE
  8
0
 62
7
  6
CONTINUOUS
 10
120.8349663635
 20
244.6364407502
 11
120.6459393705
 21
244.6368810653
  0
LINE
  8
0
 62
7
  6
CONTINUOUS
 10
82.16889231
 20
246.2943550055
 11
81.980326014
 21
246.3075515947
  0
LINE
  8
0
 62
7
  6
CONTINUOUS
 10
118.8319777585
 20
244.1114838984
 11
119.0651713924
 21
244.093057808
  0
LINE
  8
0
 62
7
  6
CONTINUOUS
 10
118.906890763
 20
245.6262151471
 11
119.023491639
 21
245.6169995995
  0
LINE
  8
0
 62
7
  6
CONTINUOUS
 10
120.568772249
 20
244.4318751718
 11
120.8007802689
 21
244.4020244195
  0
LINE
  8
0
 62
7
  6
CONTINUOUS
 10
89.6481575639
 20
248.1380651266
 11
89.5330108373
 21
248.1585877208
  0
LINE
  8
0
 62
7
  6
CONTINUOUS
 10
121.7319426542
 20
242.071375628
 11
121.9622094932
 21
242.0301693016
  0
LINE
  8
0
 62
7
  6
CONTINUOUS
 10
121.8927259788
 20
242.2832295553
 11
121.7775944627
 21
242.3038312828
  0
LINE
  8
0
 62
7
  6
CONTINUOUS
 10
121.7060993197
 20
243.7603789748
 11
121.8212308358
 21
243.7397772474
  0
LINE
  8
0
 62
7
  6
CONTINUOUS
 10
90.0887471971
 20
249.5512331175
 11
89.793128398
 21
249.6279805193
  0
LINE
  8
0
 62
7
  6
CONTINUOUS
 10
127.2287032088
 20
237.3658993044
 11
127.0458027807
 21
237.4136364944
  0
LINE
  8
0
 62
7
  6
CONTINUOUS
 10
127.6371164001
 20
239.2435592327
 11
127.8200168001
 21
239.1958220182
  0
LINE
  8
0
 62
7
  6
CONTINUOUS
 10
89.805317176
 20
249.4092718306
 11
89.9857892485
 21
249.3530470228
  0
LINE
  8
0
 62
7
  6
CONTINUOUS
 10
96.0698127375
 20
249.3952980136
 11
96.2874123746
 21
249.3094482434
  0
LINE
  8
0
 62
7
  6
CONTINUOUS
 10
126.8396433239
 20
237.1645036833
 11
127.056795716
 21
237.0775345491
  0
LINE
  8
0
 62
7
  6
CONTINUOUS
 10
96.3085550577
 20
249.632127251
 11
96.1427964405
 21
249.72298696
  0
LINE
  8
0
 62
7
  6
CONTINUOUS
 10
96.969177065
 20
251.4594666189
 11
97.1349356786
 21
251.368606947
  0
LINE
  8
0
 62
7
  6
CONTINUOUS
 10
108.3466625785
 20
248.7083817785
 11
108.5590941911
 21
248.4889414144
  0
LINE
  8
0
 62
7
  6
CONTINUOUS
 10
109.9733373053
 20
250.4318316643
 11
109.7609079982
 21
250.6512714207
  0
LINE
  8
0
 62
7
  6
CONTINUOUS
 10
108.6758149692
 20
248.7335272169
 11
108.5510077246
 21
248.8754939371
  0
LINE
  8
0
 62
7
  6
CONTINUOUS
 10
109.6441849192
 20
250.406686244
 11
109.7689921638
 21
250.2647195238
  0
LINE
  8
0
 62
7
  6
CONTINUOUS
 10
110.5201603763
 20
248.1133706075
 11
110.7177789461
 21
247.8805011928
  0
LINE
  8
0
 62
7
  6
CONTINUOUS
 10
110.7528510913
 20
248.9887250186
 11
110.9504696655
 21
248.7558556171
  0
LINE
  8
0
 62
7
  6
CONTINUOUS
 10
112.3550796537
 20
249.6941897669
 11
112.1574633447
 21
249.9270584243
  0
LINE
  8
0
 62
7
  6
CONTINUOUS
 10
110.8502527105
 20
248.1169259304
 11
110.7350016957
 21
248.2667545042
  0
LINE
  8
0
 62
7
  6
CONTINUOUS
 10
111.0829434197
 20
248.9922803238
 11
110.9676924049
 21
249.1421088976
  0
LINE
  8
0
 62
7
  6
CONTINUOUS
 10
112.0249873253
 20
249.6906344617
 11
112.1402383402
 21
249.5408058878
  0
LINE
  8
0
 62
7
  6
CONTINUOUS
 10
117.1394779039
 20
246.866944231
 11
117.0708950987
 21
246.9616891132
  0
LINE
  8
0
 62
7
  6
CONTINUOUS
 10
118.4108583987
 20
244.619964813
 11
118.3499514483
 21
244.7198198779
  0
LINE
  8
0
 62
7
  6
CONTINUOUS
 10
115.9095193498
 20
246.061597266
 11
115.8187410925
 21
246.2274004806
  0
LINE
  8
0
 62
7
  6
CONTINUOUS
 10
116.9499462094
 20
246.7248247789
 11
117.0407244667
 21
246.5590215643
  0
LINE
  8
0
 62
7
  6
CONTINUOUS
 10
119.7613455309
 20
245.2260518864
 11
119.6230097618
 21
245.4983444354
  0
LINE
  8
0
 62
7
  6
CONTINUOUS
 10
121.1137842266
 20
242.8076199924
 11
121.0629660325
 21
242.9129632804
  0
LINE
  8
0
 62
7
  6
CONTINUOUS
 10
122.4850410719
 20
243.2359885377
 11
122.535859266
 21
243.1306452497
  0
LINE
  8
0
 62
7
  6
CONTINUOUS
 10
119.467244954
 20
245.3443330538
 11
119.5446778354
 21
245.1718930734
  0
LINE
  8
0
 62
7
  6
CONTINUOUS
 10
121.6376235356
 20
243.4116940903
 11
121.5774726757
 21
243.5908958537
  0
LINE
  8
0
 62
7
  6
CONTINUOUS
 10
121.9612017854
 20
242.6319144695
 11
122.0213526453
 21
242.4527127061
  0
LINE
  8
0
 62
7
  6
CONTINUOUS
 10
122.7661260966
 20
243.0894389122
 11
122.7059752367
 21
243.2686406756
  0
LINE
  8
0
 62
7
  6
CONTINUOUS
 10
126.1661908832
 20
238.0976257647
 11
126.2230700237
 21
237.8707215077
  0
LINE
  8
0
 62
7
  6
CONTINUOUS
 10
126.986317176
 20
240.3370835006
 11
126.9514435262
 21
240.5971782652
  0
LINE
  8
0
 62
7
  6
CONTINUOUS
 10
126.4977365796
 20
238.0413868689
 11
126.4751125742
 21
238.2290556203
  0
LINE
  8
0
 62
7
  6
CONTINUOUS
 10
128.3680830013
 20
238.5680716436
 11
128.3907070347
 21
238.3804029167
  0
LINE
  8
0
 62
7
  6
CONTINUOUS
 10
91.1242462812
 20
248.2981324105
 11
91.4281763813
 21
248.3708148998
  0
LINE
  8
0
 62
7
  6
CONTINUOUS
 10
92.5425871347
 20
248.6373174533
 11
92.8465172348
 21
248.7099999427
  0
LINE
  8
0
 62
7
  6
CONTINUOUS
 10
92.4506296456
 20
250.3654489461
 11
92.1466995455
 21
250.2927664567
  0
LINE
  8
0
 62
7
  6
CONTINUOUS
 10
91.0322887921
 20
250.0262639032
 11
90.728358692
 21
249.9535814138
  0
LINE
  8
0
 62
7
  6
CONTINUOUS
 10
81.980326014
 20
246.3075515947
 11
81.8185528182
 21
246.2747975186
  0
LINE
  8
0
 62
7
  6
CONTINUOUS
 10
89.6603474918
 20
247.9193567541
 11
89.9747831639
 21
247.9595536757
  0
LINE
  8
0
 62
7
  6
CONTINUOUS
 10
89.4908815053
 20
249.3690749045
 11
89.805317176
 21
249.4092718306
  0
LINE
  8
0
 62
7
  6
CONTINUOUS
 10
89.793128398
 20
249.6279805193
 11
89.4786927273
 21
249.5877835933
  0
LINE
  8
0
 62
7
  6
CONTINUOUS
 10
96.5517388189
 20
249.2815534516
 11
96.9664729285
 21
249.3216333502
  0
LINE
  8
0
 62
7
  6
CONTINUOUS
 10
96.9357734025
 20
249.6393023321
 11
96.5210392928
 21
249.5992224335
  0
LINE
  8
0
 62
7
  6
CONTINUOUS
 10
89.8629493382
 20
248.1479024485
 11
89.6481575639
 21
248.1380651266
  0
LINE
  8
0
 62
7
  6
CONTINUOUS
 10
98.2126387168
 20
249.4270870957
 11
98.5250417499
 21
249.4348713708
  0
LINE
  8
0
 62
7
  6
CONTINUOUS
 10
99.8267202598
 20
249.4673058304
 11
100.2953248094
 21
249.4789822429
  0
LINE
  8
0
 62
7
  6
CONTINUOUS
 10
111.4440438348
 20
247.9218949055
 11
111.2789976706
 21
247.9201172529
  0
LINE
  8
0
 62
7
  6
CONTINUOUS
 10
111.7262163827
 20
248.7809969615
 11
111.5611702185
 21
248.7792193089
  0
LINE
  8
0
 62
7
  6
CONTINUOUS
 10
111.3817143624
 20
249.901917824
 11
111.5467605266
 21
249.9036954766
  0
LINE
  8
0
 62
7
  6
CONTINUOUS
 10
89.4953782427
 20
247.9246993858
 11
89.6603474918
 21
247.9193567541
  0
LINE
  8
0
 62
7
  6
CONTINUOUS
 10
100.7126323533
 20
249.4715306797
 11
102.5858553746
 21
249.3899187175
  0
LINE
  8
0
 62
7
  6
CONTINUOUS
 10
102.5997467724
 20
249.7087651884
 11
101.038727588
 21
249.7767751569
  0
LINE
  8
0
 62
7
  6
CONTINUOUS
 10
101.075771316
 20
250.6270324251
 11
102.4286554031
 21
250.5680904178
  0
LINE
  8
0
 62
7
  6
CONTINUOUS
 10
102.4425467993
 20
250.8869368515
 11
101.0896627122
 21
250.9458788588
  0
LINE
  8
0
 62
7
  6
CONTINUOUS
 10
109.1802137894
 20
248.6037259706
 11
108.9147592176
 21
248.6171131532
  0
LINE
  8
0
 62
7
  6
CONTINUOUS
 10
109.1397860991
 20
250.5364874902
 11
109.4052429797
 21
250.5230997135
  0
LINE
  8
0
 62
7
  6
CONTINUOUS
 10
108.8484776277
 20
248.3595473998
 11
109.1643736988
 21
248.3331796812
  0
LINE
  8
0
 62
7
  6
CONTINUOUS
 10
96.2874123746
 20
249.3094482434
 11
96.5517388189
 21
249.2815534516
  0
LINE
  8
0
 62
7
  6
CONTINUOUS
 10
96.9903185647
 20
251.7821454794
 11
96.7259933074
 21
251.8100403812
  0
LINE
  8
0
 62
7
  6
CONTINUOUS
 10
111.1465239048
 20
247.6836925109
 11
111.4105360129
 21
247.6529647491
  0
LINE
  8
0
 62
7
  6
CONTINUOUS
 10
111.428696441
 20
248.5427945315
 11
111.6927085709
 21
248.512066836
  0
LINE
  8
0
 62
7
  6
CONTINUOUS
 10
111.6792342808
 20
250.1401201832
 11
111.4152244393
 21
250.1708472054
  0
LINE
  8
0
 62
7
  6
CONTINUOUS
 10
96.5210392928
 20
249.5992224335
 11
96.3085550577
 21
249.632127251
  0
LINE
  8
0
 62
7
  6
CONTINUOUS
 10
96.7566928299
 20
251.4923714364
 11
96.969177065
 21
251.4594666189
  0
LINE
  8
0
 62
7
  6
CONTINUOUS
 10
121.8668826246
 20
243.9722328761
 11
121.636615794
 21
244.0134392137
  0
LINE
  8
0
 62
7
  6
CONTINUOUS
 10
105.4854298824
 20
249.0667800582
 11
107.5338154732
 21
248.6867919824
  0
LINE
  8
0
 62
7
  6
CONTINUOUS
 10
107.5920264346
 20
249.0005873408
 11
105.8508987996
 21
249.3235771835
  0
LINE
  8
0
 62
7
  6
CONTINUOUS
 10
116.1354688747
 20
245.5878730546
 11
116.3452016975
 21
245.5405029791
  0
LINE
  8
0
 62
7
  6
CONTINUOUS
 10
116.4661506016
 20
245.7773673424
 11
116.2564177809
 21
245.824737422
  0
LINE
  8
0
 62
7
  6
CONTINUOUS
 10
116.6312262078
 20
247.2459198883
 11
116.4214912637
 21
247.2932910521
  0
LINE
  8
0
 62
7
  6
CONTINUOUS
 10
119.0905025336
 20
245.8255462874
 11
118.9295287638
 21
245.8620269917
  0
LINE
  8
0
 62
7
  6
CONTINUOUS
 10
120.9939553356
 20
244.5921022441
 11
120.8349663635
 21
244.6364407502
  0
LINE
  8
0
 62
7
  6
CONTINUOUS
 10
119.023491639
 20
245.6169995995
 11
119.2288383027
 21
245.5532537385
  0
LINE
  8
0
 62
7
  6
CONTINUOUS
 10
110.948594285
 20
247.7487026045
 11
111.1465239048
 21
247.6836925109
  0
LINE
  8
0
 62
7
  6
CONTINUOUS
 10
111.2789976706
 20
247.9201172529
 11
110.9821021085
 21
248.0176327653
  0
LINE
  8
0
 62
7
  6
CONTINUOUS
 10
110.6858331793
 20
248.4508654409
 11
110.4384194558
 21
248.5321286159
  0
LINE
  8
0
 62
7
  6
CONTINUOUS
 10
111.1812827175
 20
248.6240577065
 11
111.428696441
 21
248.5427945315
  0
LINE
  8
0
 62
7
  6
CONTINUOUS
 10
111.5611702185
 20
248.7792193089
 11
111.2147928177
 21
248.8929871587
  0
LINE
  8
0
 62
7
  6
CONTINUOUS
 10
97.2079193869
 20
251.6962958378
 11
96.9903185647
 21
251.7821454794
  0
LINE
  8
0
 62
7
  6
CONTINUOUS
 10
128.0261793684
 20
239.4449512158
 11
127.8090238508
 21
239.5319239512
  0
LINE
  8
0
 62
7
  6
CONTINUOUS
 10
119.3846031105
 20
245.7072651201
 11
119.0905025336
 21
245.8255462874
  0
LINE
  8
0
 62
7
  6
CONTINUOUS
 10
121.2389102967
 20
244.488940171
 11
120.9939553356
 21
244.5921022441
  0
LINE
  8
0
 62
7
  6
CONTINUOUS
 10
121.7775944627
 20
242.3038312828
 11
121.5794842819
 21
242.3874083858
  0
LINE
  8
0
 62
7
  6
CONTINUOUS
 10
121.8212308358
 20
243.7397772474
 11
122.0193410054
 21
243.6562001295
  0
LINE
  8
0
 62
7
  6
CONTINUOUS
 10
118.4935002226
 20
244.2570327149
 11
118.8319777585
 21
244.1114838984
  0
LINE
  8
0
 62
7
  6
CONTINUOUS
 10
118.8989886702
 20
244.3200306141
 11
118.560511127
 21
244.4655794187
  0
LINE
  8
0
 62
7
  6
CONTINUOUS
 10
108.5590941911
 20
248.4889414144
 11
108.8484776277
 21
248.3595473998
  0
LINE
  8
0
 62
7
  6
CONTINUOUS
 10
120.8007802689
 20
244.4020244195
 11
121.0887201922
 21
244.2694492164
  0
LINE
  8
0
 62
7
  6
CONTINUOUS
 10
114.6358674715
 20
246.3148439789
 11
114.9196669227
 21
246.1840230269
  0
LINE
  8
0
 62
7
  6
CONTINUOUS
 10
108.9147592176
 20
248.6171131532
 11
108.6758149692
 21
248.7335272169
  0
LINE
  8
0
 62
7
  6
CONTINUOUS
 10
109.4052429797
 20
250.5230997135
 11
109.6441849192
 21
250.406686244
  0
LINE
  8
0
 62
7
  6
CONTINUOUS
 10
126.2385775201
 20
239.9558987985
 11
126.0903686557
 21
240.0285454011
  0
LINE
  8
0
 62
7
  6
CONTINUOUS
 10
115.8571532488
 20
245.7299880164
 11
116.1354688747
 21
245.5878730546
  0
LINE
  8
0
 62
7
  6
CONTINUOUS
 10
116.5529423136
 20
245.3747006119
 11
116.7848705863
 21
245.2562721998
  0
LINE
  8
0
 62
7
  6
CONTINUOUS
 10
116.2564177809
 20
245.824737422
 11
116.0708726147
 21
245.9194814527
  0
LINE
  8
0
 62
7
  6
CONTINUOUS
 10
116.5102773185
 20
247.009055554
 11
116.7885929444
 21
246.8669405922
  0
LINE
  8
0
 62
7
  6
CONTINUOUS
 10
116.9095418337
 20
247.1038049265
 11
116.6312262078
 21
247.2459198883
  0
LINE
  8
0
 62
7
  6
CONTINUOUS
 10
121.4508576267
 20
242.2179252499
 11
121.7319426542
 21
242.071375628
  0
LINE
  8
0
 62
7
  6
CONTINUOUS
 10
122.1479676493
 20
243.8256832506
 11
121.8668826246
 21
243.9722328761
  0
LINE
  8
0
 62
7
  6
CONTINUOUS
 10
117.145690461
 20
245.0472398328
 11
117.3727715432
 21
244.9197587114
  0
LINE
  8
0
 62
7
  6
CONTINUOUS
 10
110.7177789461
 20
247.8805011928
 11
110.948594285
 21
247.7487026045
  0
LINE
  8
0
 62
7
  6
CONTINUOUS
 10
110.9504696655
 20
248.7558556171
 11
111.1812827175
 21
248.6240577065
  0
LINE
  8
0
 62
7
  6
CONTINUOUS
 10
112.1574633447
 20
249.9270584243
 11
111.9266480043
 21
250.0588570082
  0
LINE
  8
0
 62
7
  6
CONTINUOUS
 10
119.4376039249
 20
244.3012280503
 11
119.2157272674
 21
244.4375613232
  0
LINE
  8
0
 62
7
  6
CONTINUOUS
 10
118.4065444384
 20
245.3093507695
 11
119.6046857018
 21
244.5731466025
  0
LINE
  8
0
 62
7
  6
CONTINUOUS
 10
119.4941969345
 20
244.8907589736
 11
118.5623092852
 21
245.4633622147
  0
LINE
  8
0
 62
7
  6
CONTINUOUS
 10
125.8281560668
 20
239.8393010707
 11
126.050136797
 21
239.693108098
  0
LINE
  8
0
 62
7
  6
CONTINUOUS
 10
119.5039878362
 20
243.6136181207
 11
119.7189087116
 21
243.4665551639
  0
LINE
  8
0
 62
7
  6
CONTINUOUS
 10
120.6801254652
 20
244.871297396
 11
120.4652045897
 21
245.0183603528
  0
LINE
  8
0
 62
7
  6
CONTINUOUS
 10
127.0458027807
 20
237.4136364944
 11
126.8687163548
 21
237.5355921079
  0
LINE
  8
0
 62
7
  6
CONTINUOUS
 10
127.8200168001
 20
239.1958220182
 11
127.9971032261
 21
239.0738664046
  0
LINE
  8
0
 62
7
  6
CONTINUOUS
 10
110.9821021085
 20
248.0176327653
 11
110.8502527105
 21
248.1169259304
  0
LINE
  8
0
 62
7
  6
CONTINUOUS
 10
111.2147928177
 20
248.8929871587
 11
111.0829434197
 21
248.9922803238
  0
LINE
  8
0
 62
7
  6
CONTINUOUS
 10
111.8931379274
 20
249.7899276267
 11
112.0249873253
 21
249.6906344617
  0
LINE
  8
0
 62
7
  6
CONTINUOUS
 10
121.2019292629
 20
242.4068456556
 11
121.4508576267
 21
242.2179252499
  0
LINE
  8
0
 62
7
  6
CONTINUOUS
 10
121.5794842819
 20
242.3874083858
 11
121.3305559181
 21
242.5763287916
  0
LINE
  8
0
 62
7
  6
CONTINUOUS
 10
121.0857900277
 20
243.0291925361
 11
120.8783509907
 21
243.1866252467
  0
LINE
  8
0
 62
7
  6
CONTINUOUS
 10
122.5130352708
 20
243.014415994
 11
122.7204743078
 21
242.8569832834
  0
LINE
  8
0
 62
7
  6
CONTINUOUS
 10
122.0193410054
 20
243.6562001295
 11
122.2682693691
 21
243.4672797237
  0
LINE
  8
0
 62
7
  6
CONTINUOUS
 10
122.396896013
 20
243.6367628448
 11
122.1479676493
 21
243.8256832506
  0
LINE
  8
0
 62
7
  6
CONTINUOUS
 10
126.6283017769
 20
237.3256948147
 11
126.8396433239
 21
237.1645036833
  0
LINE
  8
0
 62
7
  6
CONTINUOUS
 10
128.2375177759
 20
239.2837636733
 11
128.0261793684
 21
239.4449512158
  0
LINE
  8
0
 62
7
  6
CONTINUOUS
 10
118.2550935738
 20
244.4659534036
 11
118.4935002226
 21
244.2570327149
  0
LINE
  8
0
 62
7
  6
CONTINUOUS
 10
119.2288383027
 20
245.5532537385
 11
119.467244954
 21
245.3443330538
  0
LINE
  8
0
 62
7
  6
CONTINUOUS
 10
119.6230097618
 20
245.4983444354
 11
119.3846031105
 21
245.7072651201
  0
LINE
  8
0
 62
7
  6
CONTINUOUS
 10
115.6957978626
 20
245.8721049181
 11
115.8571532488
 21
245.7299880164
  0
LINE
  8
0
 62
7
  6
CONTINUOUS
 10
116.0708726147
 20
245.9194814527
 11
115.9095193498
 21
246.061597266
  0
LINE
  8
0
 62
7
  6
CONTINUOUS
 10
116.7885929444
 20
246.8669405922
 11
116.9499462094
 21
246.7248247789
  0
LINE
  8
0
 62
7
  6
CONTINUOUS
 10
117.0708950987
 20
246.9616891132
 11
116.9095418337
 21
247.1038049265
  0
LINE
  8
0
 62
7
  6
CONTINUOUS
 10
124.1542772914
 20
239.930769169
 11
124.3755861349
 21
239.7101367921
  0
LINE
  8
0
 62
7
  6
CONTINUOUS
 10
125.1642295361
 20
240.5011982015
 11
125.8281560668
 21
239.8393010707
  0
LINE
  8
0
 62
7
  6
CONTINUOUS
 10
126.0903686557
 20
240.0285454011
 11
125.3895561921
 21
240.727215717
  0
LINE
  8
0
 62
7
  6
CONTINUOUS
 10
118.560511127
 20
244.4655794187
 11
118.4108583987
 21
244.619964813
  0
LINE
  8
0
 62
7
  6
CONTINUOUS
 10
120.985157563
 20
242.6381368454
 11
121.2019292629
 21
242.4068456556
  0
LINE
  8
0
 62
7
  6
CONTINUOUS
 10
121.3305559181
 20
242.5763287916
 11
121.1137842266
 21
242.8076199924
  0
LINE
  8
0
 62
7
  6
CONTINUOUS
 10
122.2682693691
 20
243.4672797237
 11
122.4850410719
 21
243.2359885377
  0
LINE
  8
0
 62
7
  6
CONTINUOUS
 10
122.6136677158
 20
243.4054716588
 11
122.396896013
 21
243.6367628448
  0
LINE
  8
0
 62
7
  6
CONTINUOUS
 10
126.3542702443
 20
237.639568206
 11
126.6283017769
 21
237.3256948147
  0
LINE
  8
0
 62
7
  6
CONTINUOUS
 10
126.8687163548
 20
237.5355921079
 11
126.5946848222
 21
237.8494654991
  0
LINE
  8
0
 62
7
  6
CONTINUOUS
 10
118.149813732
 20
244.5930736292
 11
118.2550935738
 21
244.4659534036
  0
LINE
  8
0
 62
7
  6
CONTINUOUS
 10
127.4449772369
 20
236.3779584642
 11
127.6316888997
 21
236.1273691489
  0
LINE
  8
0
 62
7
  6
CONTINUOUS
 10
128.0673513456
 20
235.5426581972
 11
128.3162992797
 21
235.2085403847
  0
LINE
  8
0
 62
7
  6
CONTINUOUS
 10
128.7519588766
 20
234.6238332568
 11
128.9386705394
 21
234.3732439414
  0
LINE
  8
0
 62
7
  6
CONTINUOUS
 10
121.4166893258
 20
243.379041893
 11
121.9612017854
 21
242.6319144695
  0
LINE
  8
0
 62
7
  6
CONTINUOUS
 10
122.1821359502
 20
242.6645666074
 11
121.6376235356
 21
243.4116940903
  0
LINE
  8
0
 62
7
  6
CONTINUOUS
 10
120.8928500449
 20
242.7749678323
 11
120.985157563
 21
242.6381368454
  0
LINE
  8
0
 62
7
  6
CONTINUOUS
 10
122.7059752367
 20
243.2686406756
 11
122.6136677158
 21
243.4054716588
  0
LINE
  8
0
 62
7
  6
CONTINUOUS
 10
126.9514435262
 20
240.5971782652
 11
126.8045716813
 21
240.8187104096
  0
LINE
  8
0
 62
7
  6
CONTINUOUS
 10
126.2230700237
 20
237.8707215077
 11
126.3542702443
 21
237.639568206
  0
LINE
  8
0
 62
7
  6
CONTINUOUS
 10
128.6427526687
 20
238.7387333914
 11
128.5115493084
 21
238.9698902821
  0
LINE
  8
0
 62
7
  6
CONTINUOUS
 10
126.5946848222
 20
237.8494654991
 11
126.4977365796
 21
238.0413868689
  0
LINE
  8
0
 62
7
  6
CONTINUOUS
 10
128.2711347586
 20
238.7599930134
 11
128.3680830013
 21
238.5680716436
  0
LINE
  8
0
 62
7
  6
CONTINUOUS
 10
126.6536854008
 20
240.5935892951
 11
126.72678538
 21
240.4456035207
  0
LINE
  8
0
 62
7
  6
CONTINUOUS
 10
128.6996286836
 20
238.5118327356
 11
128.6427526687
 21
238.7387333914
  0
LINE
  8
0
 62
7
  6
CONTINUOUS
 10
96.3419587202
 20
251.4522915378
 11
96.7566928299
 21
251.4923714364
  0
LINE
  8
0
 62
7
  6
CONTINUOUS
 10
96.7259933074
 20
251.8100403812
 11
96.3112591978
 21
251.7699604826
  0
LINE
  8
0
 62
7
  6
CONTINUOUS
 10
100.2330506089
 20
251.9782065074
 11
99.9206475759
 21
251.9704222323
  0
LINE
  8
0
 62
7
  6
CONTINUOUS
 10
98.618969066
 20
251.9379877727
 11
98.1503645164
 21
251.9263113602
  0
LINE
  8
0
 62
7
  6
CONTINUOUS
 10
101.1197607437
 20
251.6367129474
 11
102.6807799281
 21
251.5687029788
  0
LINE
  8
0
 62
7
  6
CONTINUOUS
 10
102.6946713243
 20
251.8875494125
 11
100.821448303
 21
251.9691613748
  0
LINE
  8
0
 62
7
  6
CONTINUOUS
 10
109.4715245604
 20
250.7806654307
 11
109.1556284904
 21
250.8070331539
  0
LINE
  8
0
 62
7
  6
CONTINUOUS
 10
105.8929066186
 20
251.2633476034
 11
107.6852431315
 21
250.9308582001
  0
LINE
  8
0
 62
7
  6
CONTINUOUS
 10
107.9898013382
 20
251.144855629
 11
105.9414157474
 21
251.5248437049
  0
LINE
  8
0
 62
7
  6
CONTINUOUS
 10
111.5467605266
 20
249.9036954766
 11
111.8931379274
 21
249.7899276267
  0
LINE
  8
0
 62
7
  6
CONTINUOUS
 10
111.9266480043
 20
250.0588570082
 11
111.6792342808
 21
250.1401201832
  0
LINE
  8
0
 62
7
  6
CONTINUOUS
 10
109.7609079982
 20
250.6512714207
 11
109.4715245604
 21
250.7806654307
  0
LINE
  8
0
 62
7
  6
CONTINUOUS
 10
115.966234539
 20
248.4544186366
 11
115.6824350878
 21
248.5852395886
  0
LINE
  8
0
 62
7
  6
CONTINUOUS
 10
117.9217902808
 20
247.4827972072
 11
117.6898620081
 21
247.6012256192
  0
LINE
  8
0
 62
7
  6
CONTINUOUS
 10
118.5965865741
 20
247.0997304474
 11
118.369505492
 21
247.2272115689
  0
LINE
  8
0
 62
7
  6
CONTINUOUS
 10
125.9528729373
 20
241.292259611
 11
126.6536854008
 21
240.5935892951
  0
LINE
  8
0
 62
7
  6
CONTINUOUS
 10
126.8045716813
 20
240.8187104096
 11
125.919336307
 21
241.7012399175
  0
LINE
  8
0
 62
7
  6
CONTINUOUS
 10
127.9971032261
 20
239.0738664046
 11
128.2711347586
 21
238.7599930134
  0
LINE
  8
0
 62
7
  6
CONTINUOUS
 10
128.5115493084
 20
238.9698902821
 11
128.2375177759
 21
239.2837636733
  0
LINE
  8
0
 62
7
  6
CONTINUOUS
 10
130.9433850622
 20
235.8669372439
 11
130.663317568
 21
236.242821217
  0
LINE
  8
0
 62
7
  6
CONTINUOUS
 10
129.7297592539
 20
237.4957677937
 11
129.4496917597
 21
237.8716517668
  0
LINE
  8
0
 62
7
  6
CONTINUOUS
 10
57.3258205689
 20
130.829321663
 11
57.3258205689
 21
114.829321663
  0
LINE
  8
0
 62
7
  6
CONTINUOUS
 10
140.9258205671
 20
112.829321663
 11
59.3258205689
 21
112.829321663
  0
LINE
  8
DEFAULT_1
 62
2
  6
CENTER
 10
100.1258205689
 20
110.829321663
 11
100.1258205689
 21
134.829321663
  0
LINE
  8
0
 62
7
  6
CONTINUOUS
 10
140.9258205688
 20
132.829321663
 11
59.3258205689
 21
132.829321663
  0
LINE
  8
0
 62
7
  6
CONTINUOUS
 10
142.9258205689
 20
130.829321663
 11
142.9258205689
 21
114.829321663
  0
ARC
  8
0
 62
40
  6
CONTINUOUS
 10
93.7307741867
 20
188.0491867024
 40
3.2
 50
2.2544307753
 51
45.0
  0
ARC
  8
0
 62
40
  6
CONTINUOUS
 10
92.3165606243
 20
189.4634002648
 40
3.2
 50
45.0
 51
86.4096221093
  0
ARC
  8
0
 62
40
  6
CONTINUOUS
 10
92.7173472646
 20
195.8508387239
 40
3.2
 50
225.0
 51
266.4096221093
  0
ARC
  8
0
 62
40
  6
CONTINUOUS
 10
81.5127643256
 20
207.0554216628
 40
3.2
 50
183.5903778907
 51
225.0
  0
ARC
  8
0
 62
40
  6
CONTINUOUS
 10
75.1253258665
 20
206.6546350225
 40
3.2
 50
3.5903778907
 51
45.0
  0
ARC
  8
0
 62
40
  6
CONTINUOUS
 10
73.7111123041
 20
208.0688485849
 40
3.2
 50
45.0
 51
87.7455692247
  0
ARC
  8
0
 62
40
  6
CONTINUOUS
 10
73.962869665
 20
214.4638949672
 40
3.2
 50
92.2544307753
 51
267.7455692247
  0
ARC
  8
0
 62
40
  6
CONTINUOUS
 10
73.7111123041
 20
220.8589413494
 40
3.2
 50
272.2544307753
 51
315.0
  0
ARC
  8
0
 62
40
  6
CONTINUOUS
 10
75.1253258665
 20
222.2731549118
 40
3.2
 50
315.0
 51
356.4096221093
  0
ARC
  8
0
 62
40
  6
CONTINUOUS
 10
81.5127643256
 20
221.8723682715
 40
3.2
 50
135.0
 51
176.4096221093
  0
ARC
  8
0
 62
40
  6
CONTINUOUS
 10
92.7173472646
 20
233.0769512105
 40
3.2
 50
93.5903778907
 51
135.0
  0
ARC
  8
0
 62
40
  6
CONTINUOUS
 10
92.3165606243
 20
239.4643896696
 40
3.2
 50
273.5903778907
 51
315.0
  0
ARC
  8
0
 62
40
  6
CONTINUOUS
 10
93.7307741867
 20
240.878603232
 40
3.2
 50
315.0
 51
357.7455692247
  0
ARC
  8
0
 62
40
  6
CONTINUOUS
 10
126.5405288337
 20
208.0688485849
 40
3.2
 50
92.2544307753
 51
135.0
  0
ARC
  8
0
 62
40
  6
CONTINUOUS
 10
125.1263152714
 20
206.6546350225
 40
3.2
 50
135.0
 51
176.4096221093
  0
ARC
  8
0
 62
40
  6
CONTINUOUS
 10
118.7388768122
 20
207.0554216628
 40
3.2
 50
315.0
 51
356.4096221093
  0
ARC
  8
0
 62
40
  6
CONTINUOUS
 10
107.5342938733
 20
195.8508387239
 40
3.2
 50
273.5903778907
 51
315.0
  0
ARC
  8
0
 62
40
  6
CONTINUOUS
 10
107.9350805136
 20
189.4634002648
 40
3.2
 50
93.5903778907
 51
135.0
  0
ARC
  8
0
 62
40
  6
CONTINUOUS
 10
106.5208669512
 20
188.0491867024
 40
3.2
 50
135.0
 51
177.7455692247
  0
ARC
  8
0
 62
40
  6
CONTINUOUS
 10
100.1258205689
 20
188.3009440633
 40
3.2
 50
182.2544307753
 51
357.7455692247
  0
CIRCLE
  8
0
 62
7
  6
CONTINUOUS
 10
116.1771445019
 20
189.1848275398
 40
1.275
  0
ARC
  8
0
 62
7
  6
CONTINUOUS
 10
118.1570434892
 20
195.0184584845
 40
1.0
 50
45.0
 51
135.0
  0
ARC
  8
0
 62
7
  6
CONTINUOUS
 10
115.6114590769
 20
192.0486100036
 40
1.0
 50
225.0
 51
315.0
  0
ARC
  8
0
 62
7
  6
CONTINUOUS
 10
117.9083762921
 20
194.9112126437
 40
0.9
 50
135.0
 51
191.2510114041
  0
ARC
  8
0
 62
7
  6
CONTINUOUS
 10
115.860126274
 20
192.1558558444
 40
0.9
 50
315.0
 51
11.2510114041
  0
ARC
  8
0
 62
7
  6
CONTINUOUS
 10
117.9449114548
 20
194.5234837377
 40
0.5
 50
135.0
 51
225.0
  0
ARC
  8
0
 62
7
  6
CONTINUOUS
 10
115.8235911113
 20
192.5435847504
 40
0.5
 50
315.0
 51
45.0
  0
ARC
  8
0
 62
7
  6
CONTINUOUS
 10
118.050977472
 20
194.9831031455
 40
0.25
 50
45.0
 51
135.0
  0
ARC
  8
0
 62
7
  6
CONTINUOUS
 10
115.7175250941
 20
192.0839653426
 40
0.25
 50
225.0
 51
315.0
  0
CIRCLE
  8
0
 62
7
  6
CONTINUOUS
 10
100.1258205689
 20
214.4638949672
 40
42.8
  0
CIRCLE
  8
0
 62
4
  6
CONTINUOUS
 10
100.1258205689
 20
214.4638949672
 40
9.525
  0
ARC
  8
0
 62
40
  6
CONTINUOUS
 10
126.2887714728
 20
214.4638949672
 40
3.2
 50
272.2544307753
 51
87.7455692247
  0
ARC
  8
0
 62
40
  6
CONTINUOUS
 10
100.1258205689
 20
240.6268458711
 40
3.2
 50
2.2544307753
 51
177.7455692247
  0
ARC
  8
0
 62
40
  6
CONTINUOUS
 10
106.5208669512
 20
240.878603232
 40
3.2
 50
182.2544307753
 51
225.0
  0
ARC
  8
0
 62
40
  6
CONTINUOUS
 10
107.9350805136
 20
239.4643896696
 40
3.2
 50
225.0
 51
266.4096221093
  0
ARC
  8
0
 62
40
  6
CONTINUOUS
 10
107.5342938733
 20
233.0769512105
 40
3.2
 50
45.0
 51
86.4096221093
  0
ARC
  8
0
 62
40
  6
CONTINUOUS
 10
118.7388768122
 20
221.8723682715
 40
3.2
 50
3.5903778907
 51
45.0
  0
ARC
  8
0
 62
40
  6
CONTINUOUS
 10
125.1263152714
 20
222.2731549118
 40
3.2
 50
183.5903778907
 51
225.0
  0
ARC
  8
0
 62
40
  6
CONTINUOUS
 10
126.5405288337
 20
220.8589413494
 40
3.2
 50
225.0
 51
267.7455692247
  0
ARC
  8
0
 62
7
  6
CONTINUOUS
 10
59.3258205689
 20
130.829321663
 40
2.0
 50
89.9999999977
 51
180.0
  0
ARC
  8
0
 62
7
  6
CONTINUOUS
 10
140.9258205689
 20
130.829321663
 40
2.0
 50
0.0
 51
90.0000000023
  0
ARC
  8
0
 62
7
  6
CONTINUOUS
 10
59.3258205689
 20
114.829321663
 40
2.0
 50
180.0
 51
270.0000000531
  0
ARC
  8
0
 62
7
  6
CONTINUOUS
 10
140.9258205689
 20
114.829321663
 40
2.0
 50
269.9999999469
 51
360.0
  0
ENDSEC
  0
EOF
