  0
SECTION
  2
HEADER
  9
$EXTMAX
 10
210.0
 20
297.0
 30
0.0
  9
$EXTMIN
 10
0.0
 20
0.0
 30
0.0
  9
$LIMMIN
 10
0.0
 20
0.0
  9
$LIMMAX
 10
210.0
 20
297.0
  9
$VIEWCTR
 10
105.0
 20
148.5
  9
$VIEWSIZE
 40
297.0
  9
$CLAYER
  8
0
  9
$LTSCALE
 40
19.36
  9
$CELTYPE
  6
BYLAYER
  9
$DIMSCALE
 40
1.0
  9
$DIMASZ
 40
3.5
  9
$DIMEXO
 40
2.2
  9
$DIMDLI
 40
13.376
  9
$DIMEXE
 40
6.336
  9
$DIMCEN
 40
3.168
  9
$DIMLFAC
 40
1.0
  9
$DIMBLK
  1
_FILLED
  9
$DIMTXT
 40
3.5
  9
$PDMODE
 70
3
  9
$PDSIZE
 40
0.3125
  9
$TILEMODE
 70
1
  0
ENDSEC
  0
SECTION
  2
TABLES
  0
TABLE
  2
LTYPE
 70
6
  0
LTYPE
  2
BYBLOCK
 70
0
  3

 72
65
 73
0
 40
0.0
  0
LTYPE
  2
BYLAYER
 70
0
  3

 72
65
 73
0
 40
0.0
  0
LTYPE
  2
CONTINUOUS
 70
64
  3
Solid line
 72
65
 73
0
 40
0.0
  0
LTYPE
  2
CENTER
 70
64
  3
____ _ ____ _ ____ _ ____ _ ____ _ ____ _ ____
 72
65
 73
4
 40
0.6
 49
0.375
 49
-0.075
 49
0.075
 49
-0.075
  0
LTYPE
  2
HIDDEN
 70
64
  3
- - - - - - - - - - - - - - - - - - - -
 72
65
 73
2
 40
0.2
 49
0.1
 49
-0.1
  0
LTYPE
  2
PHANTOM
 70
64
  3
_____ _ _ _____ _ _ _____ _ _ _____
 72
65
 73
6
 40
0.8
 49
0.45
 49
-0.05
 49
0.1
 49
-0.05
 49
0.1
 49
-0.05
  0
LTYPE
  2
DOT
 70
64
  3
. . . . . . . . . . . . . . . . . . . .
 72
65
 73
2
 40
0.2
 49
0.1
 49
-0.1
  0
LTYPE
  2
DASHED
 70
64
  3
- - - - - - - - - - - - - - - - - - - -
 72
65
 73
2
 40
0.2
 49
0.1
 49
-0.1
  0
ENDTAB
  0
TABLE
  2
LAYER
 70
36
  0
LAYER
  2
0
 70
0
 62
7
  6
CONTINUOUS
  0
LAYER
  2
DEFAULT_1
 70
0
 62
7
  6
CENTER
  0
LAYER
  2
DEFAULT_2
 70
0
 62
8
  6
HIDDEN
  0
LAYER
  2
DEFAULT_3
 70
0
 62
7
  6
PHANTOM
  0
ENDTAB
  0
TABLE
  2
STYLE
 70
1
  0
STYLE
  2
STANDARD
 70
0
 40
0.0
 41
0.8
 50
0.0
 71
0
 42
0.2
  3
txt
  4

  0
STYLE
  2
TEXTSTYLE_1
 70
0
 40
0.0
 41
0.8
 50
0.0
 71
0
 42
0.2
  3
gdt
  4

  0
STYLE
  2
TEXTSTYLE_2
 70
0
 40
0.0
 41
0.6
 50
0.0
 71
0
 42
0.2
  3
txt
  4

  0
STYLE
  2
TEXTSTYLE_3
 70
0
 40
0.0
 41
1.0
 50
0.0
 71
0
 42
0.2
  3
ftb_____.ttf
  4

  0
STYLE
  2
TEXTSTYLE_4
 70
0
 40
0.0
 41
1.0
 50
0.0
 71
0
 42
0.2
  3
fti_____.ttf
  4

  0
STYLE
  2
TEXTSTYLE_5
 70
0
 40
0.0
 41
1.0
 50
0.0
 71
0
 42
0.2
  3
frutiger light.ttf
  4

  0
STYLE
  2
TEXTSTYLE_6
 70
0
 40
0.0
 41
0.7
 50
0.0
 71
0
 42
0.2
  3
txt
  4

  0
STYLE
  2
TEXTSTYLE_7
 70
0
 40
0.0
 41
0.6
 50
0.0
 71
0
 42
0.2
  3
txt
  4

  0
ENDTAB
  0
ENDSEC
  0
SECTION
  2
BLOCKS
  0
BLOCK
  8
0
 62
2
  6
CONTINUOUS
  2
SYMBOL_8_BL1
 70
64
 10
173.5956734183
 20
35.5937998301
  0
TEXT
  8
0
 62
7
  6
CONTINUOUS
 10
164.6539584268
 20
30.6865562072
  7
TEXTSTYLE_4
 40
1.0655737705
  1
The brand for plastic modular belts and chains
 41
1.0
 72
0
  0
LINE
  8
0
 62
7
  6
CONTINUOUS
 10
149.5737418074
 20
36.1675703219
 11
149.5737418074
 21
34.0364227809
  0
LINE
  8
0
 62
7
  6
CONTINUOUS
 10
149.8628043005
 20
31.0454914852
 11
149.8628043005
 21
31.1422825445
  0
LINE
  8
0
 62
7
  6
CONTINUOUS
 10
149.5737418074
 20
31.1100188581
 11
149.6315543091
 21
30.9164367395
  0
LINE
  8
0
 62
7
  6
CONTINUOUS
 10
150.9671844304
 20
33.9544555678
 11
150.9671844304
 21
36.1675703219
  0
LINE
  8
0
 62
7
  6
CONTINUOUS
 10
151.8862417523
 20
32.1101932727
 11
151.8862417523
 21
30.5937998301
  0
LINE
  8
0
 62
7
  6
CONTINUOUS
 10
152.1753043074
 20
30.5937998301
 11
152.1753043074
 21
31.3358647082
  0
LINE
  8
0
 62
7
  6
CONTINUOUS
 10
152.1753043074
 20
31.4649194539
 11
152.1753043074
 21
32.1101932727
  0
LINE
  8
0
 62
7
  6
CONTINUOUS
 10
149.6315543091
 20
31.3036010218
 11
149.5737418074
 21
31.1100188581
  0
LINE
  8
0
 62
7
  6
CONTINUOUS
 10
149.9784292936
 20
30.8841730531
 11
149.8628043005
 21
31.0454914852
  0
LINE
  8
0
 62
7
  6
CONTINUOUS
 10
151.0768668626
 20
31.400392081
 11
151.1346793074
 21
31.3036010218
  0
LINE
  8
0
 62
7
  6
CONTINUOUS
 10
151.4237418626
 20
31.3036010218
 11
151.3659292523
 21
31.4326557675
  0
LINE
  8
0
 62
7
  6
CONTINUOUS
 10
152.852430332
 20
36.1675703219
 11
152.852430332
 21
34.3642916334
  0
LINE
  8
0
 62
7
  6
CONTINUOUS
 10
152.852430332
 20
33.0528162235
 11
152.852430332
 21
32.3970785186
  0
LINE
  8
0
 62
7
  6
CONTINUOUS
 10
153.2159293074
 20
31.2390736489
 11
153.2159293074
 21
30.5937998301
  0
LINE
  8
0
 62
7
  6
CONTINUOUS
 10
153.5049916972
 20
30.5937998301
 11
153.5049916972
 21
31.2390736489
  0
LINE
  8
0
 62
7
  6
CONTINUOUS
 10
149.8628043005
 20
31.1422825445
 11
149.9206168074
 21
31.2713373354
  0
LINE
  8
0
 62
7
  6
CONTINUOUS
 10
149.6315543091
 20
30.9164367395
 11
149.7471793074
 21
30.7873819712
  0
LINE
  8
0
 62
7
  6
CONTINUOUS
 10
153.1581166972
 20
31.3681283946
 11
153.2159293074
 21
31.2390736489
  0
LINE
  8
0
 62
7
  6
CONTINUOUS
 10
153.9674919177
 20
30.8841730531
 11
154.0253041972
 21
30.7551182848
  0
LINE
  8
0
 62
7
  6
CONTINUOUS
 10
153.5049916972
 20
31.2390736489
 11
153.4471794177
 21
31.400392081
  0
LINE
  8
0
 62
7
  6
CONTINUOUS
 10
153.9674919177
 20
31.4326557675
 11
153.9674919177
 21
31.3681283946
  0
LINE
  8
0
 62
7
  6
CONTINUOUS
 10
153.9674919177
 20
30.9809641124
 11
153.9674919177
 21
30.8841730531
  0
LINE
  8
0
 62
7
  6
CONTINUOUS
 10
154.245872955
 20
32.3970785186
 11
154.245872955
 21
36.1675703219
  0
LINE
  8
0
 62
7
  6
CONTINUOUS
 10
154.2565543074
 20
30.8519093441
 11
154.2565543074
 21
30.9164367395
  0
LINE
  8
0
 62
7
  6
CONTINUOUS
 10
154.5737418074
 20
36.1675703219
 11
154.5737418074
 21
32.3970785186
  0
LINE
  8
0
 62
7
  6
CONTINUOUS
 10
151.3659292523
 20
30.7873819712
 11
151.4237418626
 21
30.9164367395
  0
LINE
  8
0
 62
7
  6
CONTINUOUS
 10
155.759679528
 20
30.6905909007
 11
155.7018665869
 21
30.8519093441
  0
LINE
  8
0
 62
7
  6
CONTINUOUS
 10
155.412804528
 20
31.3681283946
 11
155.412804528
 21
31.2713373354
  0
LINE
  8
0
 62
7
  6
CONTINUOUS
 10
155.412804528
 20
31.1422825445
 11
155.412804528
 21
30.9487004259
  0
LINE
  8
0
 62
7
  6
CONTINUOUS
 10
155.7018665869
 20
30.8519093441
 11
155.7018665869
 21
31.3681283946
  0
LINE
  8
0
 62
7
  6
CONTINUOUS
 10
155.9671844304
 20
32.3970785186
 11
155.9671844304
 21
34.2003572071
  0
LINE
  8
0
 62
7
  6
CONTINUOUS
 10
155.9671844304
 20
35.511832617
 11
155.9671844304
 21
36.1675703219
  0
LINE
  8
0
 62
7
  6
CONTINUOUS
 10
156.279992028
 20
32.1101932727
 11
156.279992028
 21
31.9488748406
  0
LINE
  8
0
 62
7
  6
CONTINUOUS
 10
156.279992028
 20
31.626237886
 11
156.279992028
 21
30.5937998301
  0
LINE
  8
0
 62
7
  6
CONTINUOUS
 10
156.5690540869
 20
30.5937998301
 11
156.5690540869
 21
31.626237886
  0
LINE
  8
0
 62
7
  6
CONTINUOUS
 10
156.5690540869
 20
31.9488748406
 11
156.5690540869
 21
32.1101932727
  0
LINE
  8
0
 62
7
  6
CONTINUOUS
 10
151.1346793074
 20
30.9164367395
 11
151.0768668626
 21
30.8196456577
  0
LINE
  8
0
 62
7
  6
CONTINUOUS
 10
153.4471794177
 20
31.400392081
 11
153.3893668074
 21
31.4649194539
  0
LINE
  8
0
 62
7
  6
CONTINUOUS
 10
154.3143669177
 20
30.7873819712
 11
154.2565543074
 21
30.8519093441
  0
LINE
  8
0
 62
7
  6
CONTINUOUS
 10
155.4706168074
 20
30.6583272086
 11
155.5284290869
 21
30.5937998301
  0
LINE
  8
0
 62
7
  6
CONTINUOUS
 10
155.412804528
 20
30.7551182848
 11
155.4706168074
 21
30.6583272086
  0
LINE
  8
0
 62
7
  6
CONTINUOUS
 10
155.8174918074
 20
30.5937998301
 11
155.759679528
 21
30.6905909007
  0
LINE
  8
0
 62
7
  6
CONTINUOUS
 10
155.7018665869
 20
31.3681283946
 11
155.6440543074
 21
31.4649194539
  0
LINE
  8
0
 62
7
  6
CONTINUOUS
 10
157.0315543074
 20
31.626237886
 11
157.0315543074
 21
30.5937998301
  0
LINE
  8
0
 62
7
  6
CONTINUOUS
 10
157.320617028
 20
30.5937998301
 11
157.320617028
 21
31.3358647082
  0
LINE
  8
0
 62
7
  6
CONTINUOUS
 10
157.320617028
 20
31.4649194539
 11
157.320617028
 21
31.626237886
  0
LINE
  8
0
 62
7
  6
CONTINUOUS
 10
157.852430332
 20
34.6101932727
 11
157.852430332
 21
32.3970785186
  0
LINE
  8
0
 62
7
  6
CONTINUOUS
 10
149.7471793074
 20
31.4326557675
 11
149.6315543091
 21
31.3036010218
  0
LINE
  8
0
 62
7
  6
CONTINUOUS
 10
149.9206168074
 20
31.2713373354
 11
149.9784292936
 21
31.3358647082
  0
LINE
  8
0
 62
7
  6
CONTINUOUS
 10
149.7471793074
 20
30.7873819712
 11
149.8628043005
 21
30.7228545871
  0
LINE
  8
0
 62
7
  6
CONTINUOUS
 10
150.1518667936
 20
30.7873819712
 11
149.9784292936
 21
30.8841730531
  0
LINE
  8
0
 62
7
  6
CONTINUOUS
 10
155.3549915869
 20
31.4326557675
 11
155.412804528
 21
31.3681283946
  0
LINE
  8
0
 62
7
  6
CONTINUOUS
 10
158.3034290869
 20
31.3681283946
 11
158.361242028
 21
31.2068099625
  0
LINE
  8
0
 62
7
  6
CONTINUOUS
 10
158.6503040869
 20
31.2068099625
 11
158.5924918074
 21
31.3681283946
  0
LINE
  8
0
 62
7
  6
CONTINUOUS
 10
158.361242028
 20
31.2068099625
 11
158.361242028
 21
30.5937998301
  0
LINE
  8
0
 62
7
  6
CONTINUOUS
 10
158.6503040869
 20
30.5937998301
 11
158.6503040869
 21
31.2068099625
  0
LINE
  8
0
 62
7
  6
CONTINUOUS
 10
159.1128043074
 20
31.4326557675
 11
159.1128043074
 21
31.3681283946
  0
LINE
  8
0
 62
7
  6
CONTINUOUS
 10
159.245872955
 20
32.3970785186
 11
159.245872955
 21
34.5282260596
  0
LINE
  8
0
 62
7
  6
CONTINUOUS
 10
159.5737418074
 20
36.1675703219
 11
159.5737418074
 21
32.3970785186
  0
LINE
  8
0
 62
7
  6
CONTINUOUS
 10
154.2565543074
 20
30.9164367395
 11
154.3143669177
 21
31.0132277988
  0
LINE
  8
0
 62
7
  6
CONTINUOUS
 10
149.8628043005
 20
30.7228545871
 11
150.0362418212
 21
30.6583272086
  0
LINE
  8
0
 62
7
  6
CONTINUOUS
 10
151.3659292523
 20
31.4326557675
 11
151.1924917523
 21
31.5294468267
  0
LINE
  8
0
 62
7
  6
CONTINUOUS
 10
154.0253041972
 20
30.7551182848
 11
154.1987416972
 21
30.6583272086
  0
LINE
  8
0
 62
7
  6
CONTINUOUS
 10
153.0424918074
 20
31.4326557675
 11
153.1581166972
 21
31.3681283946
  0
LINE
  8
0
 62
7
  6
CONTINUOUS
 10
153.3893668074
 20
31.4649194539
 11
153.2737419177
 21
31.5294468267
  0
LINE
  8
0
 62
7
  6
CONTINUOUS
 10
159.1128043074
 20
30.8519093441
 11
159.228429528
 21
30.7228545871
  0
LINE
  8
0
 62
7
  6
CONTINUOUS
 10
159.4596793074
 20
30.7873819712
 11
159.401867028
 21
30.8519093441
  0
LINE
  8
0
 62
7
  6
CONTINUOUS
 10
159.1128043074
 20
31.3681283946
 11
159.228429528
 21
31.2390736489
  0
LINE
  8
0
 62
7
  6
CONTINUOUS
 10
158.5924918074
 20
31.3681283946
 11
158.534679528
 21
31.4649194539
  0
LINE
  8
0
 62
7
  6
CONTINUOUS
 10
160.9628038663
 20
30.7873819712
 11
160.9628038663
 21
30.8519093441
  0
LINE
  8
0
 62
7
  6
CONTINUOUS
 10
160.9671844304
 20
32.3970785186
 11
160.9671844304
 21
36.1675703219
  0
LINE
  8
0
 62
7
  6
CONTINUOUS
 10
154.0253041972
 20
31.4971831403
 11
153.9674919177
 21
31.4326557675
  0
LINE
  8
0
 62
7
  6
CONTINUOUS
 10
150.9034292799
 20
31.4649194539
 11
151.0768668626
 21
31.400392081
  0
LINE
  8
0
 62
7
  6
CONTINUOUS
 10
155.6440543074
 20
31.4649194539
 11
155.5284290869
 21
31.5294468267
  0
LINE
  8
0
 62
7
  6
CONTINUOUS
 10
159.4596793074
 20
31.3036010218
 11
159.401867028
 21
31.3681283946
  0
LINE
  8
0
 62
7
  6
CONTINUOUS
 10
160.615929528
 20
30.9164367395
 11
160.6737418074
 21
30.8519093441
  0
LINE
  8
0
 62
7
  6
CONTINUOUS
 10
160.9628038663
 20
30.8519093441
 11
160.8471793074
 21
30.9809641124
  0
LINE
  8
0
 62
7
  6
CONTINUOUS
 10
160.615929528
 20
31.4326557675
 11
160.6737418074
 21
31.3681283946
  0
LINE
  8
0
 62
7
  6
CONTINUOUS
 10
160.9628038663
 20
31.3681283946
 11
160.8471793074
 21
31.4971831403
  0
LINE
  8
0
 62
7
  6
CONTINUOUS
 10
154.2565543074
 20
31.3681283946
 11
154.3143669177
 21
31.4326557675
  0
LINE
  8
0
 62
7
  6
CONTINUOUS
 10
154.0831168074
 20
31.1100188581
 11
153.9674919177
 21
30.9809641124
  0
LINE
  8
0
 62
7
  6
CONTINUOUS
 10
155.412804528
 20
30.9487004259
 11
155.3549915869
 21
30.8841730531
  0
LINE
  8
0
 62
7
  6
CONTINUOUS
 10
155.3549915869
 20
30.6905909007
 11
155.412804528
 21
30.7551182848
  0
LINE
  8
0
 62
7
  6
CONTINUOUS
 10
154.1987416972
 20
30.6583272086
 11
154.3143669177
 21
30.6260635193
  0
LINE
  8
0
 62
7
  6
CONTINUOUS
 10
151.1924917523
 20
31.5294468267
 11
150.9612418074
 21
31.5939741996
  0
LINE
  8
0
 62
7
  6
CONTINUOUS
 10
154.5456166972
 20
30.7228545871
 11
154.3143669177
 21
30.7873819712
  0
LINE
  8
0
 62
7
  6
CONTINUOUS
 10
153.2737419177
 20
31.5294468267
 11
153.1003044177
 21
31.5939741996
  0
LINE
  8
0
 62
7
  6
CONTINUOUS
 10
155.5284290869
 20
31.5294468267
 11
155.3549915869
 21
31.5939741996
  0
LINE
  8
0
 62
7
  6
CONTINUOUS
 10
158.187804528
 20
31.4326557675
 11
158.3034290869
 21
31.3681283946
  0
LINE
  8
0
 62
7
  6
CONTINUOUS
 10
158.534679528
 20
31.4649194539
 11
158.4190543074
 21
31.5294468267
  0
LINE
  8
0
 62
7
  6
CONTINUOUS
 10
150.0362418212
 20
30.6583272086
 11
150.2096793212
 21
30.6260635193
  0
LINE
  8
0
 62
7
  6
CONTINUOUS
 10
150.498741835
 20
30.7228545871
 11
150.1518667936
 21
30.7873819712
  0
LINE
  8
0
 62
7
  6
CONTINUOUS
 10
152.9268669177
 20
31.4649194539
 11
153.0424918074
 21
31.4326557675
  0
LINE
  8
0
 62
7
  6
CONTINUOUS
 10
155.239367028
 20
31.4649194539
 11
155.3549915869
 21
31.4326557675
  0
LINE
  8
0
 62
7
  6
CONTINUOUS
 10
159.575304528
 20
30.7551182848
 11
159.4596793074
 21
30.7873819712
  0
LINE
  8
0
 62
7
  6
CONTINUOUS
 10
158.0721793074
 20
31.4649194539
 11
158.187804528
 21
31.4326557675
  0
LINE
  8
0
 62
7
  6
CONTINUOUS
 10
159.228429528
 20
30.7228545871
 11
159.401867028
 21
30.6583272086
  0
LINE
  8
0
 62
7
  6
CONTINUOUS
 10
158.4190543074
 20
31.5294468267
 11
158.2456168074
 21
31.5939741996
  0
LINE
  8
0
 62
7
  6
CONTINUOUS
 10
159.6331168074
 20
31.2390736489
 11
159.4596793074
 21
31.3036010218
  0
LINE
  8
0
 62
7
  6
CONTINUOUS
 10
160.442492028
 20
30.9809641124
 11
160.615929528
 21
30.9164367395
  0
LINE
  8
0
 62
7
  6
CONTINUOUS
 10
160.8471793074
 20
31.4971831403
 11
160.6737418074
 21
31.5617105132
  0
LINE
  8
0
 62
7
  6
CONTINUOUS
 10
159.228429528
 20
31.2390736489
 11
159.4596793074
 21
31.1422825445
  0
LINE
  8
0
 62
7
  6
CONTINUOUS
 10
160.8471793074
 20
30.9809641124
 11
160.615929528
 21
31.0777551716
  0
LINE
  8
0
 62
7
  6
CONTINUOUS
 10
159.401867028
 20
31.3681283946
 11
159.4596793074
 21
31.4326557675
  0
LINE
  8
0
 62
7
  6
CONTINUOUS
 10
149.8628043005
 20
31.4971831403
 11
149.7471793074
 21
31.4326557675
  0
LINE
  8
0
 62
7
  6
CONTINUOUS
 10
149.9784292936
 20
31.3358647082
 11
150.1518667936
 21
31.4326557675
  0
LINE
  8
0
 62
7
  6
CONTINUOUS
 10
152.2909293626
 20
31.5294468267
 11
152.1753043074
 21
31.4649194539
  0
LINE
  8
0
 62
7
  6
CONTINUOUS
 10
152.1753043074
 20
31.3358647082
 11
152.2909293626
 21
31.400392081
  0
LINE
  8
0
 62
7
  6
CONTINUOUS
 10
151.1924917523
 20
30.6905909007
 11
151.3659292523
 21
30.7873819712
  0
LINE
  8
0
 62
7
  6
CONTINUOUS
 10
150.2096793212
 20
30.6260635193
 11
150.5565542799
 21
30.5937998301
  0
LINE
  8
0
 62
7
  6
CONTINUOUS
 10
154.3143669177
 20
30.6260635193
 11
154.5456166972
 21
30.5937998301
  0
LINE
  8
0
 62
7
  6
CONTINUOUS
 10
152.6956168074
 20
31.4971831403
 11
152.9268669177
 21
31.4649194539
  0
LINE
  8
0
 62
7
  6
CONTINUOUS
 10
155.0081169177
 20
31.4971831403
 11
155.239367028
 21
31.4649194539
  0
LINE
  8
0
 62
7
  6
CONTINUOUS
 10
159.4596793074
 20
31.1422825445
 11
160.442492028
 21
30.9809641124
  0
LINE
  8
0
 62
7
  6
CONTINUOUS
 10
160.615929528
 20
31.0777551716
 11
159.6331168074
 21
31.2390736489
  0
LINE
  8
0
 62
7
  6
CONTINUOUS
 10
153.1003044177
 20
31.5939741996
 11
152.9268669177
 21
31.626237886
  0
LINE
  8
0
 62
7
  6
CONTINUOUS
 10
159.401867028
 20
30.6583272086
 11
159.575304528
 21
30.6260635193
  0
LINE
  8
0
 62
7
  6
CONTINUOUS
 10
158.2456168074
 20
31.5939741996
 11
158.0721793074
 21
31.626237886
  0
LINE
  8
0
 62
7
  6
CONTINUOUS
 10
160.5003043074
 20
31.4649194539
 11
160.615929528
 21
31.4326557675
  0
LINE
  8
0
 62
7
  6
CONTINUOUS
 10
160.6737418074
 20
30.8519093441
 11
160.615929528
 21
30.7873819712
  0
LINE
  8
0
 62
7
  6
CONTINUOUS
 10
159.228429528
 20
31.5294468267
 11
159.1128043074
 21
31.4326557675
  0
LINE
  8
0
 62
7
  6
CONTINUOUS
 10
154.1409294177
 20
31.5617105132
 11
154.0253041972
 21
31.4971831403
  0
LINE
  8
0
 62
7
  6
CONTINUOUS
 10
154.1987416972
 20
31.1745462761
 11
154.0831168074
 21
31.1100188581
  0
LINE
  8
0
 62
7
  6
CONTINUOUS
 10
154.3143669177
 20
31.0132277988
 11
154.4299918074
 21
31.0777551716
  0
LINE
  8
0
 62
7
  6
CONTINUOUS
 10
151.8862417523
 20
30.5937998301
 11
152.1753043074
 21
30.5937998301
  0
LINE
  8
0
 62
7
  6
CONTINUOUS
 10
153.2159293074
 20
30.5937998301
 11
153.5049916972
 21
30.5937998301
  0
LINE
  8
0
 62
7
  6
CONTINUOUS
 10
154.5456166972
 20
30.5937998301
 11
154.8924916972
 21
30.5937998301
  0
LINE
  8
0
 62
7
  6
CONTINUOUS
 10
155.5284290869
 20
30.5937998301
 11
155.8174918074
 21
30.5937998301
  0
LINE
  8
0
 62
7
  6
CONTINUOUS
 10
156.279992028
 20
30.5937998301
 11
156.5690540869
 21
30.5937998301
  0
LINE
  8
0
 62
7
  6
CONTINUOUS
 10
157.0315543074
 20
30.5937998301
 11
157.320617028
 21
30.5937998301
  0
LINE
  8
0
 62
7
  6
CONTINUOUS
 10
158.361242028
 20
30.5937998301
 11
158.6503040869
 21
30.5937998301
  0
LINE
  8
0
 62
7
  6
CONTINUOUS
 10
159.922179528
 20
30.5937998301
 11
160.269054528
 21
30.5937998301
  0
LINE
  8
0
 62
7
  6
CONTINUOUS
 10
160.269054528
 20
30.7228545871
 11
159.922179528
 21
30.7228545871
  0
LINE
  8
0
 62
7
  6
CONTINUOUS
 10
154.8924916972
 20
30.7228545871
 11
154.5456166972
 21
30.7228545871
  0
LINE
  8
0
 62
7
  6
CONTINUOUS
 10
159.401867028
 20
30.8519093441
 11
159.1128043074
 21
30.8519093441
  0
LINE
  8
0
 62
7
  6
CONTINUOUS
 10
151.4237418626
 20
30.9164367395
 11
151.1346793074
 21
30.9164367395
  0
LINE
  8
0
 62
7
  6
CONTINUOUS
 10
150.498741835
 20
31.4971831403
 11
150.9034292799
 21
31.4649194539
  0
LINE
  8
0
 62
7
  6
CONTINUOUS
 10
150.9612418074
 20
31.5939741996
 11
150.5565542799
 21
31.626237886
  0
LINE
  8
0
 62
7
  6
CONTINUOUS
 10
159.575304528
 20
30.6260635193
 11
159.922179528
 21
30.5937998301
  0
LINE
  8
0
 62
7
  6
CONTINUOUS
 10
159.922179528
 20
30.7228545871
 11
159.575304528
 21
30.7551182848
  0
LINE
  8
0
 62
7
  6
CONTINUOUS
 10
155.3549915869
 20
31.5939741996
 11
155.0081169177
 21
31.626237886
  0
LINE
  8
0
 62
7
  6
CONTINUOUS
 10
160.1534293074
 20
31.4971831403
 11
160.5003043074
 21
31.4649194539
  0
LINE
  8
0
 62
7
  6
CONTINUOUS
 10
160.5003043074
 20
31.5939741996
 11
160.1534293074
 21
31.626237886
  0
LINE
  8
0
 62
7
  6
CONTINUOUS
 10
157.840929528
 20
31.4971831403
 11
158.0721793074
 21
31.4649194539
  0
LINE
  8
0
 62
7
  6
CONTINUOUS
 10
160.6737418074
 20
31.5617105132
 11
160.5003043074
 21
31.5939741996
  0
LINE
  8
0
 62
7
  6
CONTINUOUS
 10
160.8471793074
 20
30.6905909007
 11
160.9628038663
 21
30.7873819712
  0
LINE
  8
0
 62
7
  6
CONTINUOUS
 10
155.3549915869
 20
30.8841730531
 11
155.1815540869
 21
30.7873819712
  0
LINE
  8
0
 62
7
  6
CONTINUOUS
 10
157.4362415869
 20
31.5294468267
 11
157.320617028
 21
31.4649194539
  0
LINE
  8
0
 62
7
  6
CONTINUOUS
 10
157.320617028
 20
31.3358647082
 11
157.4362415869
 21
31.400392081
  0
LINE
  8
0
 62
7
  6
CONTINUOUS
 10
150.0362418212
 20
31.5617105132
 11
149.8628043005
 21
31.4971831403
  0
LINE
  8
0
 62
7
  6
CONTINUOUS
 10
152.4643666972
 20
31.5939741996
 11
152.2909293626
 21
31.5294468267
  0
LINE
  8
0
 62
7
  6
CONTINUOUS
 10
152.2909293626
 20
31.400392081
 11
152.4643666972
 21
31.4649194539
  0
LINE
  8
0
 62
7
  6
CONTINUOUS
 10
151.0768668626
 20
30.8196456577
 11
150.9034292799
 21
30.7551182848
  0
LINE
  8
0
 62
7
  6
CONTINUOUS
 10
160.5003043074
 20
30.7551182848
 11
160.269054528
 21
30.7228545871
  0
LINE
  8
0
 62
7
  6
CONTINUOUS
 10
154.8924916972
 20
30.5937998301
 11
155.1815540869
 21
30.6260635193
  0
LINE
  8
0
 62
7
  6
CONTINUOUS
 10
160.269054528
 20
30.5937998301
 11
160.615929528
 21
30.6260635193
  0
LINE
  8
0
 62
7
  6
CONTINUOUS
 10
150.5565542799
 20
30.5937998301
 11
150.9612418074
 21
30.6260635193
  0
LINE
  8
0
 62
7
  6
CONTINUOUS
 10
150.9034292799
 20
30.7551182848
 11
150.498741835
 21
30.7228545871
  0
LINE
  8
0
 62
7
  6
CONTINUOUS
 10
154.7768668074
 20
31.1422825445
 11
155.412804528
 21
31.1422825445
  0
LINE
  8
0
 62
7
  6
CONTINUOUS
 10
155.412804528
 20
31.2713373354
 11
154.7768668074
 21
31.2713373354
  0
LINE
  8
0
 62
7
  6
CONTINUOUS
 10
151.1346793074
 20
31.3036010218
 11
151.4237418626
 21
31.3036010218
  0
LINE
  8
0
 62
7
  6
CONTINUOUS
 10
153.9674919177
 20
31.3681283946
 11
154.2565543074
 21
31.3681283946
  0
LINE
  8
0
 62
7
  6
CONTINUOUS
 10
160.6737418074
 20
31.3681283946
 11
160.9628038663
 21
31.3681283946
  0
LINE
  8
0
 62
7
  6
CONTINUOUS
 10
154.6612419177
 20
31.4971831403
 11
155.0081169177
 21
31.4971831403
  0
LINE
  8
0
 62
7
  6
CONTINUOUS
 10
159.8065543074
 20
31.4971831403
 11
160.1534293074
 21
31.4971831403
  0
LINE
  8
0
 62
7
  6
CONTINUOUS
 10
160.1534293074
 20
31.626237886
 11
159.8065543074
 21
31.626237886
  0
LINE
  8
0
 62
7
  6
CONTINUOUS
 10
158.0721793074
 20
31.626237886
 11
157.840929528
 21
31.626237886
  0
LINE
  8
0
 62
7
  6
CONTINUOUS
 10
157.320617028
 20
31.626237886
 11
157.0315543074
 21
31.626237886
  0
LINE
  8
0
 62
7
  6
CONTINUOUS
 10
156.5690540869
 20
31.626237886
 11
156.279992028
 21
31.626237886
  0
LINE
  8
0
 62
7
  6
CONTINUOUS
 10
155.0081169177
 20
31.626237886
 11
154.6612419177
 21
31.626237886
  0
LINE
  8
0
 62
7
  6
CONTINUOUS
 10
152.9268669177
 20
31.626237886
 11
152.6956168074
 21
31.626237886
  0
LINE
  8
0
 62
7
  6
CONTINUOUS
 10
156.279992028
 20
31.9488748406
 11
156.5690540869
 21
31.9488748406
  0
LINE
  8
0
 62
7
  6
CONTINUOUS
 10
156.5690540869
 20
32.1101932727
 11
156.279992028
 21
32.1101932727
  0
LINE
  8
0
 62
7
  6
CONTINUOUS
 10
152.1753043074
 20
32.1101932727
 11
151.8862417523
 21
32.1101932727
  0
LINE
  8
0
 62
7
  6
CONTINUOUS
 10
151.2130860697
 20
32.3970785186
 11
151.6256574183
 21
32.3970785186
  0
LINE
  8
0
 62
7
  6
CONTINUOUS
 10
152.852430332
 20
32.3970785186
 11
154.245872955
 21
32.3970785186
  0
LINE
  8
0
 62
7
  6
CONTINUOUS
 10
154.5737418074
 20
32.3970785186
 11
155.9671844304
 21
32.3970785186
  0
LINE
  8
0
 62
7
  6
CONTINUOUS
 10
157.852430332
 20
32.3970785186
 11
159.245872955
 21
32.3970785186
  0
LINE
  8
0
 62
7
  6
CONTINUOUS
 10
159.5737418074
 20
32.3970785186
 11
160.9671844304
 21
32.3970785186
  0
LINE
  8
0
 62
7
  6
CONTINUOUS
 10
157.6096790869
 20
31.5939741996
 11
157.4362415869
 21
31.5294468267
  0
LINE
  8
0
 62
7
  6
CONTINUOUS
 10
155.1815540869
 20
30.6260635193
 11
155.3549915869
 21
30.6905909007
  0
LINE
  8
0
 62
7
  6
CONTINUOUS
 10
160.615929528
 20
30.6260635193
 11
160.8471793074
 21
30.6905909007
  0
LINE
  8
0
 62
7
  6
CONTINUOUS
 10
160.615929528
 20
30.7873819712
 11
160.5003043074
 21
30.7551182848
  0
LINE
  8
0
 62
7
  6
CONTINUOUS
 10
159.575304528
 20
31.4649194539
 11
159.8065543074
 21
31.4971831403
  0
LINE
  8
0
 62
7
  6
CONTINUOUS
 10
157.6096790869
 20
31.4649194539
 11
157.840929528
 21
31.4971831403
  0
LINE
  8
0
 62
7
  6
CONTINUOUS
 10
154.5456166972
 20
31.1100188581
 11
154.7768668074
 21
31.1422825445
  0
LINE
  8
0
 62
7
  6
CONTINUOUS
 10
157.840929528
 20
31.626237886
 11
157.6096790869
 21
31.5939741996
  0
LINE
  8
0
 62
7
  6
CONTINUOUS
 10
154.4299918074
 20
31.4649194539
 11
154.6612419177
 21
31.4971831403
  0
LINE
  8
0
 62
7
  6
CONTINUOUS
 10
159.8065543074
 20
31.626237886
 11
159.4596793074
 21
31.5939741996
  0
LINE
  8
0
 62
7
  6
CONTINUOUS
 10
154.7768668074
 20
31.2713373354
 11
154.4299918074
 21
31.2390736489
  0
LINE
  8
0
 62
7
  6
CONTINUOUS
 10
150.5565542799
 20
31.626237886
 11
150.2096793212
 21
31.5939741996
  0
LINE
  8
0
 62
7
  6
CONTINUOUS
 10
154.6612419177
 20
31.626237886
 11
154.2565543074
 21
31.5939741996
  0
LINE
  8
0
 62
7
  6
CONTINUOUS
 10
152.0327582009
 20
33.5446195022
 11
151.3770204959
 21
33.5446195022
  0
LINE
  8
0
 62
7
  6
CONTINUOUS
 10
157.4362415869
 20
31.400392081
 11
157.6096790869
 21
31.4649194539
  0
LINE
  8
0
 62
7
  6
CONTINUOUS
 10
159.4596793074
 20
31.4326557675
 11
159.575304528
 21
31.4649194539
  0
LINE
  8
0
 62
7
  6
CONTINUOUS
 10
159.4596793074
 20
31.5939741996
 11
159.228429528
 21
31.5294468267
  0
LINE
  8
0
 62
7
  6
CONTINUOUS
 10
155.1815540869
 20
30.7873819712
 11
154.8924916972
 21
30.7228545871
  0
LINE
  8
0
 62
7
  6
CONTINUOUS
 10
152.4643666972
 20
31.4649194539
 11
152.6956168074
 21
31.4971831403
  0
LINE
  8
0
 62
7
  6
CONTINUOUS
 10
152.6956168074
 20
31.626237886
 11
152.4643666972
 21
31.5939741996
  0
LINE
  8
0
 62
7
  6
CONTINUOUS
 10
150.2674918074
 20
31.4649194539
 11
150.498741835
 21
31.4971831403
  0
LINE
  8
0
 62
7
  6
CONTINUOUS
 10
156.7868565615
 20
35.0200293383
 11
157.4425942664
 21
35.0200293383
  0
LINE
  8
0
 62
7
  6
CONTINUOUS
 10
154.4299918074
 20
31.0777551716
 11
154.5456166972
 21
31.1100188581
  0
LINE
  8
0
 62
7
  6
CONTINUOUS
 10
154.4299918074
 20
31.2390736489
 11
154.1987416972
 21
31.1745462761
  0
LINE
  8
0
 62
7
  6
CONTINUOUS
 10
154.3143669177
 20
31.4326557675
 11
154.4299918074
 21
31.4649194539
  0
LINE
  8
0
 62
7
  6
CONTINUOUS
 10
150.9612418074
 20
30.6260635193
 11
151.1924917523
 21
30.6905909007
  0
LINE
  8
0
 62
7
  6
CONTINUOUS
 10
154.2565543074
 20
31.5939741996
 11
154.1409294177
 21
31.5617105132
  0
LINE
  8
0
 62
7
  6
CONTINUOUS
 10
150.2096793212
 20
31.5939741996
 11
150.0362418212
 21
31.5617105132
  0
LINE
  8
0
 62
7
  6
CONTINUOUS
 10
160.9671844304
 20
36.1675703219
 11
159.5737418074
 21
36.1675703219
  0
LINE
  8
0
 62
7
  6
CONTINUOUS
 10
157.6065286927
 20
36.1675703219
 11
157.1939573441
 21
36.1675703219
  0
LINE
  8
0
 62
7
  6
CONTINUOUS
 10
155.9671844304
 20
36.1675703219
 11
154.5737418074
 21
36.1675703219
  0
LINE
  8
0
 62
7
  6
CONTINUOUS
 10
154.245872955
 20
36.1675703219
 11
152.852430332
 21
36.1675703219
  0
LINE
  8
0
 62
7
  6
CONTINUOUS
 10
150.9671844304
 20
36.1675703219
 11
149.5737418074
 21
36.1675703219
  0
LINE
  8
0
 62
7
  6
CONTINUOUS
 10
150.1518667936
 20
31.4326557675
 11
150.2674918074
 21
31.4649194539
  0
CIRCLE
  8
0
 62
7
  6
CONTINUOUS
 10
160.2704631189
 20
38.5036358957
 40
2.0901639344
  0
ARC
  8
0
 62
7
  6
CONTINUOUS
 10
151.2130860697
 20
34.0364227809
 40
1.6393442623
 50
180.0
 51
270.0
  0
ARC
  8
0
 62
7
  6
CONTINUOUS
 10
157.6065286927
 20
34.5282260596
 40
1.6393442623
 50
0.0
 51
90.0
  0
ARC
  8
0
 62
7
  6
CONTINUOUS
 10
151.6256574183
 20
33.8724883547
 40
1.4754098361
 50
270.0
 51
326.2510114041
  0
ARC
  8
0
 62
7
  6
CONTINUOUS
 10
157.1939573441
 20
34.6921604858
 40
1.4754098361
 50
90.0
 51
146.2510114041
  0
ARC
  8
0
 62
7
  6
CONTINUOUS
 10
152.0327582009
 20
34.3642916334
 40
0.8196721311
 50
270.0
 51
360.0
  0
ARC
  8
0
 62
7
  6
CONTINUOUS
 10
156.7868565615
 20
34.2003572071
 40
0.8196721311
 50
90.0
 51
180.0
  0
ARC
  8
0
 62
7
  6
CONTINUOUS
 10
151.3770204959
 20
33.9544555678
 40
0.4098360656
 50
180.0
 51
270.0
  0
ARC
  8
0
 62
7
  6
CONTINUOUS
 10
157.4425942664
 20
34.6101932727
 40
0.4098360656
 50
0.0
 51
90.0
  0
SOLID
  8
0
 62
7
  6
CONTINUOUS
 10
156.279992028
 20
31.9488752009
 11
156.279992028
 21
32.1101936845
 12
156.5690540869
 22
31.9488752009
 13
156.5690540869
 23
32.1101936845
  0
SOLID
  8
0
 62
7
  6
CONTINUOUS
 10
150.5565542799
 20
31.6262382337
 11
150.9612418074
 21
31.5939740028
 12
150.2096793212
 22
31.5939740028
 13
150.2096793212
 23
31.5939740028
  0
SOLID
  8
0
 62
7
  6
CONTINUOUS
 10
150.0362418212
 20
31.5617111435
 11
150.2096793212
 21
31.5939740028
 12
150.9612418074
 22
31.5939740028
 13
150.9612418074
 23
31.5939740028
  0
SOLID
  8
0
 62
7
  6
CONTINUOUS
 10
150.9612418074
 20
31.5939740028
 11
151.1924917523
 21
31.5294468402
 12
150.0362418212
 22
31.5617111435
 13
150.0362418212
 23
31.5617111435
  0
SOLID
  8
0
 62
7
  6
CONTINUOUS
 10
149.8628043005
 20
31.49718259
 11
150.0362418212
 21
31.5617111435
 12
151.1924917523
 22
31.5294468402
 13
151.1924917523
 23
31.5294468402
  0
SOLID
  8
0
 62
7
  6
CONTINUOUS
 10
149.8628043005
 20
31.49718259
 11
151.1924917523
 21
31.5294468402
 12
150.498741835
 22
31.49718259
 13
150.498741835
 23
31.49718259
  0
SOLID
  8
0
 62
7
  6
CONTINUOUS
 10
150.498741835
 20
31.49718259
 11
151.1924917523
 21
31.5294468402
 12
150.9034292799
 22
31.4649197501
 13
150.9034292799
 23
31.4649197501
  0
SOLID
  8
0
 62
7
  6
CONTINUOUS
 10
151.1924917523
 20
31.5294468402
 11
151.3659292523
 21
31.4326554468
 12
150.9034292799
 22
31.4649197501
 13
150.9034292799
 23
31.4649197501
  0
SOLID
  8
0
 62
7
  6
CONTINUOUS
 10
151.0768668626
 20
31.4003926599
 11
150.9034292799
 21
31.4649197501
 12
151.3659292523
 22
31.4326554468
 13
151.3659292523
 23
31.4326554468
  0
SOLID
  8
0
 62
7
  6
CONTINUOUS
 10
151.0768668626
 20
31.4003926599
 11
151.3659292523
 21
31.4326554468
 12
151.1346793074
 22
31.3036013776
 13
151.1346793074
 23
31.3036013776
  0
SOLID
  8
0
 62
7
  6
CONTINUOUS
 10
151.3659292523
 20
31.4326554468
 11
151.4237418626
 21
31.3036013776
 12
151.1346793074
 22
31.3036013776
 13
151.1346793074
 23
31.3036013776
  0
SOLID
  8
0
 62
7
  6
CONTINUOUS
 10
152.4643666972
 20
31.5939739754
 11
152.6956168074
 21
31.6262382787
 12
152.9268669177
 22
31.6262382787
 13
152.9268669177
 23
31.6262382787
  0
SOLID
  8
0
 62
7
  6
CONTINUOUS
 10
152.9268669177
 20
31.6262382787
 11
153.1003044177
 21
31.5939739754
 12
152.4643666972
 22
31.5939739754
 13
152.4643666972
 23
31.5939739754
  0
SOLID
  8
0
 62
7
  6
CONTINUOUS
 10
152.2909293626
 20
31.5294468852
 11
152.4643666972
 21
31.5939739754
 12
153.1003044177
 22
31.5939739754
 13
153.1003044177
 23
31.5939739754
  0
SOLID
  8
0
 62
7
  6
CONTINUOUS
 10
153.1003044177
 20
31.5939739754
 11
153.2737419177
 21
31.5294468852
 12
152.2909293626
 22
31.5294468852
 13
152.2909293626
 23
31.5294468852
  0
SOLID
  8
0
 62
7
  6
CONTINUOUS
 10
153.2737419177
 20
31.5294468852
 11
152.6956168074
 21
31.4971825369
 12
152.2909293626
 22
31.5294468852
 13
152.2909293626
 23
31.5294468852
  0
SOLID
  8
0
 62
7
  6
CONTINUOUS
 10
152.1753043074
 20
31.4649197951
 11
152.2909293626
 21
31.5294468852
 12
152.6956168074
 22
31.4971825369
 13
152.6956168074
 23
31.4971825369
  0
SOLID
  8
0
 62
7
  6
CONTINUOUS
 10
152.6956168074
 20
31.4971825369
 11
152.4643666972
 21
31.4649197951
 12
152.1753043074
 22
31.4649197951
 13
152.1753043074
 23
31.4649197951
  0
SOLID
  8
0
 62
7
  6
CONTINUOUS
 10
152.6956168074
 20
31.4971825369
 11
153.2737419177
 21
31.5294468852
 12
152.9268669177
 22
31.4649197951
 13
152.9268669177
 23
31.4649197951
  0
SOLID
  8
0
 62
7
  6
CONTINUOUS
 10
153.2737419177
 20
31.5294468852
 11
153.3893668074
 21
31.4649197951
 12
152.9268669177
 22
31.4649197951
 13
152.9268669177
 23
31.4649197951
  0
SOLID
  8
0
 62
7
  6
CONTINUOUS
 10
153.0424918074
 20
31.4326554468
 11
152.9268669177
 21
31.4649197951
 12
153.3893668074
 22
31.4649197951
 13
153.3893668074
 23
31.4649197951
  0
SOLID
  8
0
 62
7
  6
CONTINUOUS
 10
153.3893668074
 20
31.4649197951
 11
153.4471794177
 21
31.4003927049
 12
153.0424918074
 22
31.4326554468
 13
153.0424918074
 23
31.4326554468
  0
SOLID
  8
0
 62
7
  6
CONTINUOUS
 10
153.1581166972
 20
31.3681283566
 11
153.0424918074
 21
31.4326554468
 12
153.4471794177
 22
31.4003927049
 13
153.4471794177
 23
31.4003927049
  0
SOLID
  8
0
 62
7
  6
CONTINUOUS
 10
153.1581166972
 20
31.3681283566
 11
153.4471794177
 21
31.4003927049
 12
153.2159293074
 22
31.2390742213
 13
153.2159293074
 23
31.2390742213
  0
SOLID
  8
0
 62
7
  6
CONTINUOUS
 10
153.4471794177
 20
31.4003927049
 11
153.5049916972
 21
31.2390742213
 12
153.2159293074
 22
31.2390742213
 13
153.2159293074
 23
31.2390742213
  0
SOLID
  8
0
 62
7
  6
CONTINUOUS
 10
152.4643666972
 20
31.4649197951
 11
152.2909293626
 21
31.4003927049
 12
152.1753043074
 22
31.4649197951
 13
152.1753043074
 23
31.4649197951
  0
SOLID
  8
0
 62
7
  6
CONTINUOUS
 10
152.2909293626
 20
31.4003927049
 11
152.1753043074
 21
31.3358640533
 12
152.1753043074
 22
31.4649197951
 13
152.1753043074
 23
31.4649197951
  0
SOLID
  8
0
 62
7
  6
CONTINUOUS
 10
152.1753043074
 20
31.3358640533
 11
151.8862417523
 21
30.5938002869
 12
152.1753043074
 22
31.4649197951
 13
152.1753043074
 23
31.4649197951
  0
SOLID
  8
0
 62
7
  6
CONTINUOUS
 10
152.1753043074
 20
31.4649197951
 11
151.8862417523
 21
30.5938002869
 12
152.1753043074
 22
32.1101937295
 13
152.1753043074
 23
32.1101937295
  0
SOLID
  8
0
 62
7
  6
CONTINUOUS
 10
151.8862417523
 20
30.5938002869
 11
151.8862417523
 21
32.1101937295
 12
152.1753043074
 22
32.1101937295
 13
152.1753043074
 23
32.1101937295
  0
SOLID
  8
0
 62
7
  6
CONTINUOUS
 10
152.1753043074
 20
31.3358640533
 11
152.1753043074
 21
30.5938002869
 12
151.8862417523
 22
30.5938002869
 13
151.8862417523
 23
30.5938002869
  0
SOLID
  8
0
 62
7
  6
CONTINUOUS
 10
153.2159293074
 20
30.5938002869
 11
153.2159293074
 21
31.2390742213
 12
153.5049916972
 22
31.2390742213
 13
153.5049916972
 23
31.2390742213
  0
SOLID
  8
0
 62
7
  6
CONTINUOUS
 10
153.5049916972
 20
31.2390742213
 11
153.5049916972
 21
30.5938002869
 12
153.2159293074
 22
30.5938002869
 13
153.2159293074
 23
30.5938002869
  0
SOLID
  8
0
 62
7
  6
CONTINUOUS
 10
154.2565543074
 20
31.5939738288
 11
154.6612419177
 21
31.6262385959
 12
155.0081169177
 22
31.6262385959
 13
155.0081169177
 23
31.6262385959
  0
SOLID
  8
0
 62
7
  6
CONTINUOUS
 10
155.0081169177
 20
31.6262385959
 11
155.3549915869
 21
31.5939738288
 12
154.2565543074
 22
31.5939738288
 13
154.2565543074
 23
31.5939738288
  0
SOLID
  8
0
 62
7
  6
CONTINUOUS
 10
154.1409294177
 20
31.5617111435
 11
154.2565543074
 21
31.5939738288
 12
155.3549915869
 22
31.5939738288
 13
155.3549915869
 23
31.5939738288
  0
SOLID
  8
0
 62
7
  6
CONTINUOUS
 10
155.3549915869
 20
31.5939738288
 11
155.5284290869
 21
31.5294468402
 12
154.1409294177
 22
31.5617111435
 13
154.1409294177
 23
31.5617111435
  0
SOLID
  8
0
 62
7
  6
CONTINUOUS
 10
154.0253041972
 20
31.4971826249
 11
154.1409294177
 21
31.5617111435
 12
155.5284290869
 22
31.5294468402
 13
155.5284290869
 23
31.5294468402
  0
SOLID
  8
0
 62
7
  6
CONTINUOUS
 10
154.0253041972
 20
31.4971826249
 11
155.5284290869
 21
31.5294468402
 12
154.6612419177
 22
31.4971826249
 13
154.6612419177
 23
31.4971826249
  0
SOLID
  8
0
 62
7
  6
CONTINUOUS
 10
154.6612419177
 20
31.4971826249
 11
155.5284290869
 21
31.5294468402
 12
155.0081169177
 22
31.4971826249
 13
155.0081169177
 23
31.4971826249
  0
SOLID
  8
0
 62
7
  6
CONTINUOUS
 10
155.0081169177
 20
31.4971826249
 11
155.5284290869
 21
31.5294468402
 12
155.239367028
 22
31.4649194065
 13
155.239367028
 23
31.4649194065
  0
SOLID
  8
0
 62
7
  6
CONTINUOUS
 10
155.5284290869
 20
31.5294468402
 11
155.6440543074
 21
31.4649194065
 12
155.239367028
 22
31.4649194065
 13
155.239367028
 23
31.4649194065
  0
SOLID
  8
0
 62
7
  6
CONTINUOUS
 10
153.9674919177
 20
31.4326554138
 11
154.0253041972
 21
31.4971826249
 12
154.6612419177
 22
31.4971826249
 13
154.6612419177
 23
31.4971826249
  0
SOLID
  8
0
 62
7
  6
CONTINUOUS
 10
155.3549915869
 20
31.4326554138
 11
155.239367028
 21
31.4649194065
 12
155.6440543074
 22
31.4649194065
 13
155.6440543074
 23
31.4649194065
  0
SOLID
  8
0
 62
7
  6
CONTINUOUS
 10
155.3549915869
 20
31.4326554138
 11
155.6440543074
 21
31.4649194065
 12
155.412804528
 22
31.3681282026
 13
155.412804528
 23
31.3681282026
  0
SOLID
  8
0
 62
7
  6
CONTINUOUS
 10
155.6440543074
 20
31.4649194065
 11
155.7018665869
 21
31.3681282026
 12
155.412804528
 22
31.3681282026
 13
155.412804528
 23
31.3681282026
  0
SOLID
  8
0
 62
7
  6
CONTINUOUS
 10
155.412804528
 20
31.2713369632
 11
155.412804528
 21
31.3681282026
 12
155.7018665869
 22
31.3681282026
 13
155.7018665869
 23
31.3681282026
  0
SOLID
  8
0
 62
7
  6
CONTINUOUS
 10
155.412804528
 20
31.2713369632
 11
155.7018665869
 21
31.3681282026
 12
155.412804528
 22
31.1422827828
 13
155.412804528
 23
31.1422827828
  0
SOLID
  8
0
 62
7
  6
CONTINUOUS
 10
155.412804528
 20
31.1422827828
 11
155.7018665869
 21
31.3681282026
 12
155.412804528
 22
30.9487004259
 13
155.412804528
 23
30.9487004259
  0
SOLID
  8
0
 62
7
  6
CONTINUOUS
 10
155.7018665869
 20
31.3681282026
 11
155.7018665869
 21
30.8519086025
 12
155.412804528
 22
30.9487004259
 13
155.412804528
 23
30.9487004259
  0
SOLID
  8
0
 62
7
  6
CONTINUOUS
 10
157.6096790869
 20
31.5939736268
 11
157.840929528
 21
31.6262383465
 12
158.0721793074
 22
31.6262383465
 13
158.0721793074
 23
31.6262383465
  0
SOLID
  8
0
 62
7
  6
CONTINUOUS
 10
158.0721793074
 20
31.6262383465
 11
158.2456168074
 21
31.5939736268
 12
157.6096790869
 22
31.5939736268
 13
157.6096790869
 23
31.5939736268
  0
SOLID
  8
0
 62
7
  6
CONTINUOUS
 10
157.4362415869
 20
31.5294472848
 11
157.6096790869
 21
31.5939736268
 12
158.2456168074
 22
31.5939736268
 13
158.2456168074
 23
31.5939736268
  0
SOLID
  8
0
 62
7
  6
CONTINUOUS
 10
158.2456168074
 20
31.5939736268
 11
158.4190543074
 21
31.5294472848
 12
157.4362415869
 22
31.5294472848
 13
157.4362415869
 23
31.5294472848
  0
SOLID
  8
0
 62
7
  6
CONTINUOUS
 10
158.4190543074
 20
31.5294472848
 11
157.840929528
 21
31.4971825369
 12
157.4362415869
 22
31.5294472848
 13
157.4362415869
 23
31.5294472848
  0
SOLID
  8
0
 62
7
  6
CONTINUOUS
 10
157.320617028
 20
31.4649199103
 11
157.4362415869
 21
31.5294472848
 12
157.840929528
 22
31.4971825369
 13
157.840929528
 23
31.4971825369
  0
SOLID
  8
0
 62
7
  6
CONTINUOUS
 10
157.840929528
 20
31.4971825369
 11
157.6096790869
 21
31.4649199103
 12
157.320617028
 22
31.4649199103
 13
157.320617028
 23
31.4649199103
  0
SOLID
  8
0
 62
7
  6
CONTINUOUS
 10
157.840929528
 20
31.4971825369
 11
158.4190543074
 21
31.5294472848
 12
158.0721793074
 22
31.4649199103
 13
158.0721793074
 23
31.4649199103
  0
SOLID
  8
0
 62
7
  6
CONTINUOUS
 10
158.4190543074
 20
31.5294472848
 11
158.534679528
 21
31.4649199103
 12
158.0721793074
 22
31.4649199103
 13
158.0721793074
 23
31.4649199103
  0
SOLID
  8
0
 62
7
  6
CONTINUOUS
 10
158.187804528
 20
31.4326554468
 11
158.0721793074
 21
31.4649199103
 12
158.534679528
 22
31.4649199103
 13
158.534679528
 23
31.4649199103
  0
SOLID
  8
0
 62
7
  6
CONTINUOUS
 10
158.187804528
 20
31.4326554468
 11
158.534679528
 21
31.4649199103
 12
158.3034290869
 22
31.3681288486
 13
158.3034290869
 23
31.3681288486
  0
SOLID
  8
0
 62
7
  6
CONTINUOUS
 10
158.534679528
 20
31.4649199103
 11
158.5924918074
 21
31.3681288486
 12
158.3034290869
 22
31.3681288486
 13
158.3034290869
 23
31.3681288486
  0
SOLID
  8
0
 62
7
  6
CONTINUOUS
 10
158.361242028
 20
31.2068093799
 11
158.3034290869
 21
31.3681288486
 12
158.5924918074
 22
31.3681288486
 13
158.5924918074
 23
31.3681288486
  0
SOLID
  8
0
 62
7
  6
CONTINUOUS
 10
158.5924918074
 20
31.3681288486
 11
158.6503040869
 21
31.2068093799
 12
158.361242028
 22
31.2068093799
 13
158.361242028
 23
31.2068093799
  0
SOLID
  8
0
 62
7
  6
CONTINUOUS
 10
157.6096790869
 20
31.4649199103
 11
157.4362415869
 21
31.4003926599
 12
157.320617028
 22
31.4649199103
 13
157.320617028
 23
31.4649199103
  0
SOLID
  8
0
 62
7
  6
CONTINUOUS
 10
157.4362415869
 20
31.4003926599
 11
157.320617028
 21
31.3358640533
 12
157.320617028
 22
31.4649199103
 13
157.320617028
 23
31.4649199103
  0
SOLID
  8
0
 62
7
  6
CONTINUOUS
 10
157.320617028
 20
31.3358640533
 11
157.0315543074
 21
30.5938003547
 12
157.320617028
 22
31.4649199103
 13
157.320617028
 23
31.4649199103
  0
SOLID
  8
0
 62
7
  6
CONTINUOUS
 10
157.320617028
 20
31.4649199103
 11
157.0315543074
 21
30.5938003547
 12
157.320617028
 22
31.6262383465
 13
157.320617028
 23
31.6262383465
  0
SOLID
  8
0
 62
7
  6
CONTINUOUS
 10
157.0315543074
 20
30.5938003547
 11
157.0315543074
 21
31.6262383465
 12
157.320617028
 22
31.6262383465
 13
157.320617028
 23
31.6262383465
  0
SOLID
  8
0
 62
7
  6
CONTINUOUS
 10
157.320617028
 20
31.3358640533
 11
157.320617028
 21
30.5938003547
 12
157.0315543074
 22
30.5938003547
 13
157.0315543074
 23
30.5938003547
  0
SOLID
  8
0
 62
7
  6
CONTINUOUS
 10
158.361242028
 20
30.5938003547
 11
158.361242028
 21
31.2068093799
 12
158.6503040869
 22
31.2068093799
 13
158.6503040869
 23
31.2068093799
  0
SOLID
  8
0
 62
7
  6
CONTINUOUS
 10
158.6503040869
 20
31.2068093799
 11
158.6503040869
 21
30.5938003547
 12
158.361242028
 22
30.5938003547
 13
158.361242028
 23
30.5938003547
  0
SOLID
  8
0
 62
7
  6
CONTINUOUS
 10
159.4596793074
 20
31.5939739474
 11
159.8065543074
 21
31.6262381969
 12
160.1534293074
 22
31.6262381969
 13
160.1534293074
 23
31.6262381969
  0
SOLID
  8
0
 62
7
  6
CONTINUOUS
 10
160.1534293074
 20
31.6262381969
 11
160.5003043074
 21
31.5939739474
 12
159.4596793074
 22
31.5939739474
 13
159.4596793074
 23
31.5939739474
  0
SOLID
  8
0
 62
7
  6
CONTINUOUS
 10
159.228429528
 20
31.5294468402
 11
159.4596793074
 21
31.5939739474
 12
160.5003043074
 22
31.5939739474
 13
160.5003043074
 23
31.5939739474
  0
SOLID
  8
0
 62
7
  6
CONTINUOUS
 10
159.228429528
 20
31.5294468402
 11
160.5003043074
 21
31.5939739304
 12
160.6737418074
 22
31.5617111435
 13
160.6737418074
 23
31.5617111435
  0
SOLID
  8
0
 62
7
  6
CONTINUOUS
 10
159.228429528
 20
31.5294468402
 11
160.6737418074
 21
31.5617111435
 12
159.8065543074
 22
31.4971825592
 13
159.8065543074
 23
31.4971825592
  0
SOLID
  8
0
 62
7
  6
CONTINUOUS
 10
159.8065543074
 20
31.4971825592
 11
160.6737418074
 21
31.5617111435
 12
160.1534293074
 22
31.4971825592
 13
160.1534293074
 23
31.4971825592
  0
SOLID
  8
0
 62
7
  6
CONTINUOUS
 10
160.6737418074
 20
31.5617111435
 11
160.8471793074
 21
31.4971825592
 12
160.1534293074
 22
31.4971825592
 13
160.1534293074
 23
31.4971825592
  0
SOLID
  8
0
 62
7
  6
CONTINUOUS
 10
160.5003043074
 20
31.4649197501
 11
160.1534293074
 21
31.4971825592
 12
160.8471793074
 22
31.4971825592
 13
160.8471793074
 23
31.4971825592
  0
SOLID
  8
0
 62
7
  6
CONTINUOUS
 10
159.1128043074
 20
31.4326555427
 11
159.228429528
 21
31.5294468402
 12
159.8065543074
 22
31.4971825592
 13
159.8065543074
 23
31.4971825592
  0
SOLID
  8
0
 62
7
  6
CONTINUOUS
 10
160.5003043074
 20
31.4649197501
 11
160.8471793074
 21
31.4971825592
 12
160.615929528
 22
31.4326555427
 13
160.615929528
 23
31.4326555427
  0
SOLID
  8
0
 62
7
  6
CONTINUOUS
 10
160.615929528
 20
31.4326555427
 11
160.8471793074
 21
31.4971825592
 12
160.6737418074
 22
31.3681283005
 13
160.6737418074
 23
31.3681283005
  0
SOLID
  8
0
 62
7
  6
CONTINUOUS
 10
160.8471793074
 20
31.4971825592
 11
160.9628038663
 21
31.3681283005
 12
160.6737418074
 22
31.3681283005
 13
160.6737418074
 23
31.3681283005
  0
SOLID
  8
0
 62
7
  6
CONTINUOUS
 10
150.2674918074
 20
31.4649197501
 11
149.7471793074
 21
31.4326554237
 12
150.498741835
 22
31.4971824493
 13
150.498741835
 23
31.4971824493
  0
SOLID
  8
0
 62
7
  6
CONTINUOUS
 10
149.7471793074
 20
31.4326554237
 11
149.8628043005
 21
31.4971824493
 12
150.498741835
 22
31.4971824493
 13
150.498741835
 23
31.4971824493
  0
SOLID
  8
0
 62
7
  6
CONTINUOUS
 10
150.2674918074
 20
31.4649197501
 11
150.1518667936
 21
31.4326554237
 12
149.7471793074
 22
31.4326554237
 13
149.7471793074
 23
31.4326554237
  0
SOLID
  8
0
 62
7
  6
CONTINUOUS
 10
149.6315543091
 20
31.3036012664
 11
149.7471793074
 21
31.4326554237
 12
150.1518667936
 22
31.4326554237
 13
150.1518667936
 23
31.4326554237
  0
SOLID
  8
0
 62
7
  6
CONTINUOUS
 10
153.9674919177
 20
31.4326554237
 11
154.6612419177
 21
31.4971825369
 12
154.4299918074
 22
31.4649197501
 13
154.4299918074
 23
31.4649197501
  0
SOLID
  8
0
 62
7
  6
CONTINUOUS
 10
154.4299918074
 20
31.4649197501
 11
154.3143669177
 21
31.4326554237
 12
153.9674919177
 22
31.4326554237
 13
153.9674919177
 23
31.4326554237
  0
SOLID
  8
0
 62
7
  6
CONTINUOUS
 10
153.9674919177
 20
31.3681283335
 11
153.9674919177
 21
31.4326554237
 12
154.3143669177
 22
31.4326554237
 13
154.3143669177
 23
31.4326554237
  0
SOLID
  8
0
 62
7
  6
CONTINUOUS
 10
154.3143669177
 20
31.4326554237
 11
154.2565543074
 21
31.3681283335
 12
153.9674919177
 22
31.3681283335
 13
153.9674919177
 23
31.3681283335
  0
SOLID
  8
0
 62
7
  6
CONTINUOUS
 10
159.1128043074
 20
31.4326555528
 11
159.8065543074
 21
31.4971825369
 12
159.575304528
 22
31.4649197501
 13
159.575304528
 23
31.4649197501
  0
SOLID
  8
0
 62
7
  6
CONTINUOUS
 10
159.575304528
 20
31.4649197501
 11
159.4596793074
 21
31.4326555528
 12
159.1128043074
 22
31.4326555528
 13
159.1128043074
 23
31.4326555528
  0
SOLID
  8
0
 62
7
  6
CONTINUOUS
 10
159.1128043074
 20
31.3681284626
 11
159.1128043074
 21
31.4326555528
 12
159.4596793074
 22
31.4326555528
 13
159.4596793074
 23
31.4326555528
  0
SOLID
  8
0
 62
7
  6
CONTINUOUS
 10
159.4596793074
 20
31.4326555528
 11
159.401867028
 21
31.3681284626
 12
159.1128043074
 22
31.3681284626
 13
159.1128043074
 23
31.3681284626
  0
SOLID
  8
0
 62
7
  6
CONTINUOUS
 10
159.228429528
 20
31.2390741763
 11
159.1128043074
 21
31.3681284626
 12
159.401867028
 22
31.3681284626
 13
159.401867028
 23
31.3681284626
  0
SOLID
  8
0
 62
7
  6
CONTINUOUS
 10
149.6315543091
 20
31.3036012664
 11
150.1518667936
 21
31.4326554468
 12
149.9784292936
 22
31.3358640533
 13
149.9784292936
 23
31.3358640533
  0
SOLID
  8
0
 62
7
  6
CONTINUOUS
 10
149.9784292936
 20
31.3358640533
 11
149.9206168074
 21
31.2713369632
 12
149.6315543091
 22
31.3036012664
 13
149.6315543091
 23
31.3036012664
  0
SOLID
  8
0
 62
7
  6
CONTINUOUS
 10
149.5737418074
 20
31.1100184796
 11
149.6315543091
 21
31.3036012664
 12
149.9206168074
 22
31.2713369632
 13
149.9206168074
 23
31.2713369632
  0
SOLID
  8
0
 62
7
  6
CONTINUOUS
 10
154.4299918074
 20
31.2390741763
 11
154.7768668074
 21
31.271336924
 12
155.412804528
 22
31.271336924
 13
155.412804528
 23
31.271336924
  0
SOLID
  8
0
 62
7
  6
CONTINUOUS
 10
154.4299918074
 20
31.2390741763
 11
155.412804528
 21
31.271336924
 12
154.1987416972
 22
31.1745462761
 13
154.1987416972
 23
31.1745462761
  0
SOLID
  8
0
 62
7
  6
CONTINUOUS
 10
154.1987416972
 20
31.1745462761
 11
155.412804528
 21
31.271336924
 12
154.7768668074
 22
31.1422827436
 13
154.7768668074
 23
31.1422827436
  0
SOLID
  8
0
 62
7
  6
CONTINUOUS
 10
155.412804528
 20
31.271336924
 11
155.412804528
 21
31.1422827436
 12
154.7768668074
 22
31.1422827436
 13
154.7768668074
 23
31.1422827436
  0
SOLID
  8
0
 62
7
  6
CONTINUOUS
 10
159.228429528
 20
31.2390745501
 11
159.401867028
 21
31.3681283566
 12
159.4596793074
 22
31.3036012664
 13
159.4596793074
 23
31.3036012664
  0
SOLID
  8
0
 62
7
  6
CONTINUOUS
 10
159.4596793074
 20
31.3036012664
 11
159.6331168074
 21
31.2390745501
 12
159.228429528
 22
31.2390745501
 13
159.228429528
 23
31.2390745501
  0
SOLID
  8
0
 62
7
  6
CONTINUOUS
 10
159.4596793074
 20
31.1422827828
 11
159.228429528
 21
31.2390745501
 12
159.6331168074
 22
31.2390745501
 13
159.6331168074
 23
31.2390745501
  0
SOLID
  8
0
 62
7
  6
CONTINUOUS
 10
159.6331168074
 20
31.2390745501
 11
160.615929528
 21
31.0777556927
 12
159.4596793074
 22
31.1422827828
 13
159.4596793074
 23
31.1422827828
  0
SOLID
  8
0
 62
7
  6
CONTINUOUS
 10
160.442492028
 20
30.9809646623
 11
159.4596793074
 21
31.1422827828
 12
160.615929528
 22
31.0777556927
 13
160.615929528
 23
31.0777556927
  0
SOLID
  8
0
 62
7
  6
CONTINUOUS
 10
160.615929528
 20
31.0777556927
 11
160.8471793074
 21
30.9809646623
 12
160.442492028
 22
30.9809646623
 13
160.442492028
 23
30.9809646623
  0
SOLID
  8
0
 62
7
  6
CONTINUOUS
 10
160.615929528
 20
30.9164372091
 11
160.442492028
 21
30.9809646623
 12
160.8471793074
 22
30.9809646623
 13
160.8471793074
 23
30.9809646623
  0
SOLID
  8
0
 62
7
  6
CONTINUOUS
 10
160.615929528
 20
30.9164372091
 11
160.8471793074
 21
30.9809646623
 12
160.6737418074
 22
30.8519089441
 13
160.6737418074
 23
30.8519089441
  0
SOLID
  8
0
 62
7
  6
CONTINUOUS
 10
160.8471793074
 20
30.9809646623
 11
160.9628038663
 21
30.8519089441
 12
160.6737418074
 22
30.8519089441
 13
160.6737418074
 23
30.8519089441
  0
SOLID
  8
0
 62
7
  6
CONTINUOUS
 10
160.615929528
 20
30.7873818593
 11
160.6737418074
 21
30.8519089441
 12
160.9628038663
 22
30.8519089441
 13
160.9628038663
 23
30.8519089441
  0
SOLID
  8
0
 62
7
  6
CONTINUOUS
 10
160.9628038663
 20
30.8519089441
 11
160.9628038663
 21
30.7873818593
 12
160.615929528
 22
30.7873818593
 13
160.615929528
 23
30.7873818593
  0
SOLID
  8
0
 62
7
  6
CONTINUOUS
 10
160.5003043074
 20
30.7551187255
 11
160.615929528
 21
30.7873818593
 12
160.9628038663
 22
30.7873818593
 13
160.9628038663
 23
30.7873818593
  0
SOLID
  8
0
 62
7
  6
CONTINUOUS
 10
160.5003043074
 20
30.7551187255
 11
160.9628038663
 21
30.7873818593
 12
160.269054528
 22
30.7228547745
 13
160.269054528
 23
30.7228547745
  0
SOLID
  8
0
 62
7
  6
CONTINUOUS
 10
160.9628038663
 20
30.7873818593
 11
160.8471793074
 21
30.6905916353
 12
160.269054528
 22
30.7228547745
 13
160.269054528
 23
30.7228547745
  0
SOLID
  8
0
 62
7
  6
CONTINUOUS
 10
160.8471793074
 20
30.6905916353
 11
159.401867028
 21
30.658327332
 12
160.269054528
 22
30.7228547745
 13
160.269054528
 23
30.7228547745
  0
SOLID
  8
0
 62
7
  6
CONTINUOUS
 10
160.269054528
 20
30.7228547745
 11
159.401867028
 21
30.658327332
 12
159.922179528
 22
30.7228547745
 13
159.922179528
 23
30.7228547745
  0
SOLID
  8
0
 62
7
  6
CONTINUOUS
 10
159.401867028
 20
30.658327332
 11
159.228429528
 21
30.7228547745
 12
159.922179528
 22
30.7228547745
 13
159.922179528
 23
30.7228547745
  0
SOLID
  8
0
 62
7
  6
CONTINUOUS
 10
159.401867028
 20
30.658327332
 11
160.8471793074
 21
30.6905916353
 12
159.575304528
 22
30.6260629858
 13
159.575304528
 23
30.6260629858
  0
SOLID
  8
0
 62
7
  6
CONTINUOUS
 10
160.8471793074
 20
30.6905916353
 11
160.615929528
 21
30.6260629858
 12
159.575304528
 22
30.6260629858
 13
159.575304528
 23
30.6260629858
  0
SOLID
  8
0
 62
7
  6
CONTINUOUS
 10
159.922179528
 20
30.5938006049
 11
159.575304528
 21
30.6260629858
 12
160.615929528
 22
30.6260629858
 13
160.615929528
 23
30.6260629858
  0
SOLID
  8
0
 62
7
  6
CONTINUOUS
 10
160.615929528
 20
30.6260629858
 11
160.269054528
 21
30.5938006049
 12
159.922179528
 22
30.5938006049
 13
159.922179528
 23
30.5938006049
  0
SOLID
  8
0
 62
7
  6
CONTINUOUS
 10
149.5737418074
 20
31.1100184796
 11
149.9206168074
 21
31.2713369632
 12
149.8628043005
 22
31.1422827828
 13
149.8628043005
 23
31.1422827828
  0
SOLID
  8
0
 62
7
  6
CONTINUOUS
 10
149.8628043005
 20
31.1422827828
 11
149.8628043005
 21
31.0454914852
 12
149.5737418074
 22
31.1100184796
 13
149.5737418074
 23
31.1100184796
  0
SOLID
  8
0
 62
7
  6
CONTINUOUS
 10
149.6315543091
 20
30.9164372091
 11
149.5737418074
 21
31.1100184796
 12
149.8628043005
 22
31.0454914852
 13
149.8628043005
 23
31.0454914852
  0
SOLID
  8
0
 62
7
  6
CONTINUOUS
 10
149.8628043005
 20
31.0454914852
 11
149.9784292936
 21
30.8841729058
 12
149.6315543091
 22
30.9164372091
 13
149.6315543091
 23
30.9164372091
  0
SOLID
  8
0
 62
7
  6
CONTINUOUS
 10
149.7471793074
 20
30.7873813202
 11
149.6315543091
 21
30.9164372091
 12
149.9784292936
 22
30.8841729058
 13
149.9784292936
 23
30.8841729058
  0
SOLID
  8
0
 62
7
  6
CONTINUOUS
 10
149.9784292936
 20
30.8841729058
 11
150.1518667936
 21
30.7873813202
 12
149.7471793074
 22
30.7873813202
 13
149.7471793074
 23
30.7873813202
  0
SOLID
  8
0
 62
7
  6
CONTINUOUS
 10
149.8628043005
 20
30.7228547004
 11
149.7471793074
 21
30.7873813202
 12
150.1518667936
 22
30.7873813202
 13
150.1518667936
 23
30.7873813202
  0
SOLID
  8
0
 62
7
  6
CONTINUOUS
 10
150.1518667936
 20
30.7873813202
 11
150.498741835
 21
30.7228547004
 12
149.8628043005
 22
30.7228547004
 13
149.8628043005
 23
30.7228547004
  0
SOLID
  8
0
 62
7
  6
CONTINUOUS
 10
150.0362418212
 20
30.658327332
 11
149.8628043005
 21
30.7228547004
 12
150.498741835
 22
30.7228547004
 13
150.498741835
 23
30.7228547004
  0
SOLID
  8
0
 62
7
  6
CONTINUOUS
 10
154.0831168074
 20
31.1100184386
 11
154.1987416972
 21
31.1745462761
 12
154.7768668074
 22
31.1422827828
 13
154.7768668074
 23
31.1422827828
  0
SOLID
  8
0
 62
7
  6
CONTINUOUS
 10
154.7768668074
 20
31.1422827828
 11
154.5456166972
 21
31.1100184386
 12
154.0831168074
 22
31.1100184386
 13
154.0831168074
 23
31.1100184386
  0
SOLID
  8
0
 62
7
  6
CONTINUOUS
 10
153.9674919177
 20
30.9809642992
 11
154.0831168074
 21
31.1100184386
 12
154.5456166972
 22
31.1100184386
 13
154.5456166972
 23
31.1100184386
  0
SOLID
  8
0
 62
7
  6
CONTINUOUS
 10
154.3143669177
 20
31.0132277988
 11
153.9674919177
 21
30.9809642992
 12
154.4299918074
 22
31.0777556927
 13
154.4299918074
 23
31.0777556927
  0
SOLID
  8
0
 62
7
  6
CONTINUOUS
 10
153.9674919177
 20
30.9809642992
 11
154.5456166972
 21
31.1100184796
 12
154.4299918074
 22
31.0777556927
 13
154.4299918074
 23
31.0777556927
  0
SOLID
  8
0
 62
7
  6
CONTINUOUS
 10
154.3143669177
 20
31.0132277988
 11
154.2565543074
 21
30.9164372091
 12
153.9674919177
 22
30.9809642992
 13
153.9674919177
 23
30.9809642992
  0
SOLID
  8
0
 62
7
  6
CONTINUOUS
 10
153.9674919177
 20
30.8841729058
 11
153.9674919177
 21
30.9809642992
 12
154.2565543074
 22
30.9164372091
 13
154.2565543074
 23
30.9164372091
  0
SOLID
  8
0
 62
7
  6
CONTINUOUS
 10
154.2565543074
 20
30.9164372091
 11
154.2565543074
 21
30.8519086025
 12
153.9674919177
 22
30.8841729058
 13
153.9674919177
 23
30.8841729058
  0
SOLID
  8
0
 62
7
  6
CONTINUOUS
 10
154.0253041972
 20
30.7551187255
 11
153.9674919177
 21
30.8841729058
 12
154.2565543074
 22
30.8519086025
 13
154.2565543074
 23
30.8519086025
  0
SOLID
  8
0
 62
7
  6
CONTINUOUS
 10
155.412804528
 20
30.9487004259
 11
155.7018665869
 21
30.8519086025
 12
155.3549915869
 22
30.8841729058
 13
155.3549915869
 23
30.8841729058
  0
SOLID
  8
0
 62
7
  6
CONTINUOUS
 10
155.1815540869
 20
30.7873815123
 11
155.3549915869
 21
30.8841729058
 12
155.7018665869
 22
30.8519086025
 13
155.7018665869
 23
30.8519086025
  0
SOLID
  8
0
 62
7
  6
CONTINUOUS
 10
155.1815540869
 20
30.7873815123
 11
155.7018665869
 21
30.8519086025
 12
155.412804528
 22
30.7551187255
 13
155.412804528
 23
30.7551187255
  0
SOLID
  8
0
 62
7
  6
CONTINUOUS
 10
155.7018665869
 20
30.8519086025
 11
155.759679528
 21
30.6905916353
 12
155.412804528
 22
30.7551187255
 13
155.412804528
 23
30.7551187255
  0
SOLID
  8
0
 62
7
  6
CONTINUOUS
 10
155.4706168074
 20
30.658327332
 11
155.412804528
 21
30.7551187255
 12
155.759679528
 22
30.6905916353
 13
155.759679528
 23
30.6905916353
  0
SOLID
  8
0
 62
7
  6
CONTINUOUS
 10
155.4706168074
 20
30.658327332
 11
155.759679528
 21
30.6905916353
 12
155.5284290869
 22
30.5938002079
 13
155.5284290869
 23
30.5938002079
  0
SOLID
  8
0
 62
7
  6
CONTINUOUS
 10
155.759679528
 20
30.6905916353
 11
155.8174918074
 21
30.5938002079
 12
155.5284290869
 22
30.5938002079
 13
155.5284290869
 23
30.5938002079
  0
SOLID
  8
0
 62
7
  6
CONTINUOUS
 10
151.0768668626
 20
30.8196456577
 11
151.1346793074
 21
30.9164373395
 12
151.4237418626
 22
30.9164373395
 13
151.4237418626
 23
30.9164373395
  0
SOLID
  8
0
 62
7
  6
CONTINUOUS
 10
151.4237418626
 20
30.9164373395
 11
151.3659292523
 21
30.7873815123
 12
151.0768668626
 22
30.8196456577
 13
151.0768668626
 23
30.8196456577
  0
SOLID
  8
0
 62
7
  6
CONTINUOUS
 10
150.9034292799
 20
30.7551187255
 11
151.0768668626
 21
30.8196456577
 12
151.3659292523
 22
30.7873815123
 13
151.3659292523
 23
30.7873815123
  0
SOLID
  8
0
 62
7
  6
CONTINUOUS
 10
150.9034292799
 20
30.7551187255
 11
151.3659292523
 21
30.7873815123
 12
150.498741835
 22
30.7228544222
 13
150.498741835
 23
30.7228544222
  0
SOLID
  8
0
 62
7
  6
CONTINUOUS
 10
151.3659292523
 20
30.7873815123
 11
151.1924917523
 21
30.6905916353
 12
150.498741835
 22
30.7228544222
 13
150.498741835
 23
30.7228544222
  0
SOLID
  8
0
 62
7
  6
CONTINUOUS
 10
150.0362418212
 20
30.658327332
 11
150.498741835
 21
30.7228544222
 12
151.1924917523
 22
30.6905916353
 13
151.1924917523
 23
30.6905916353
  0
SOLID
  8
0
 62
7
  6
CONTINUOUS
 10
150.0362418212
 20
30.658327332
 11
151.1924917523
 21
30.6905916353
 12
150.2096793212
 22
30.6260631011
 13
150.2096793212
 23
30.6260631011
  0
SOLID
  8
0
 62
7
  6
CONTINUOUS
 10
151.1924917523
 20
30.6905916353
 11
150.9612418074
 21
30.6260631011
 12
150.2096793212
 22
30.6260631011
 13
150.2096793212
 23
30.6260631011
  0
SOLID
  8
0
 62
7
  6
CONTINUOUS
 10
150.5565542799
 20
30.5938002419
 11
150.2096793212
 21
30.6260631011
 12
150.9612418074
 22
30.6260631011
 13
150.9612418074
 23
30.6260631011
  0
SOLID
  8
0
 62
7
  6
CONTINUOUS
 10
154.0253041972
 20
30.7551187255
 11
154.2565543074
 21
30.8519086025
 12
154.3143669177
 22
30.7873815123
 13
154.3143669177
 23
30.7873815123
  0
SOLID
  8
0
 62
7
  6
CONTINUOUS
 10
154.3143669177
 20
30.7873815123
 11
154.5456166972
 21
30.7228544222
 12
154.0253041972
 22
30.7551187255
 13
154.0253041972
 23
30.7551187255
  0
SOLID
  8
0
 62
7
  6
CONTINUOUS
 10
154.1987416972
 20
30.658327332
 11
154.0253041972
 21
30.7551187255
 12
154.5456166972
 22
30.7228544222
 13
154.5456166972
 23
30.7228544222
  0
SOLID
  8
0
 62
7
  6
CONTINUOUS
 10
154.8924916972
 20
30.7228544637
 11
155.1815540869
 21
30.7873815123
 12
155.412804528
 22
30.7551187255
 13
155.412804528
 23
30.7551187255
  0
SOLID
  8
0
 62
7
  6
CONTINUOUS
 10
155.412804528
 20
30.7551187255
 11
155.3549915869
 21
30.6905916353
 12
154.8924916972
 22
30.7228544637
 13
154.8924916972
 23
30.7228544637
  0
SOLID
  8
0
 62
7
  6
CONTINUOUS
 10
155.3549915869
 20
30.6905916353
 11
154.1987416972
 21
30.658327332
 12
154.8924916972
 22
30.7228544637
 13
154.8924916972
 23
30.7228544637
  0
SOLID
  8
0
 62
7
  6
CONTINUOUS
 10
154.1987416972
 20
30.658327332
 11
154.5456166972
 21
30.7228544637
 12
154.8924916972
 22
30.7228544637
 13
154.8924916972
 23
30.7228544637
  0
SOLID
  8
0
 62
7
  6
CONTINUOUS
 10
154.1987416972
 20
30.658327332
 11
155.3549915869
 21
30.6905916353
 12
154.3143669177
 22
30.6260630541
 13
154.3143669177
 23
30.6260630541
  0
SOLID
  8
0
 62
7
  6
CONTINUOUS
 10
155.3549915869
 20
30.6905916353
 11
155.1815540869
 21
30.6260630541
 12
154.3143669177
 22
30.6260630541
 13
154.3143669177
 23
30.6260630541
  0
SOLID
  8
0
 62
7
  6
CONTINUOUS
 10
154.5456166972
 20
30.5938002188
 11
154.3143669177
 21
30.6260630541
 12
155.1815540869
 22
30.6260630541
 13
155.1815540869
 23
30.6260630541
  0
SOLID
  8
0
 62
7
  6
CONTINUOUS
 10
155.1815540869
 20
30.6260630541
 11
154.8924916972
 21
30.5938002188
 12
154.5456166972
 22
30.5938002188
 13
154.5456166972
 23
30.5938002188
  0
SOLID
  8
0
 62
7
  6
CONTINUOUS
 10
159.575304528
 20
30.7551187255
 11
159.228429528
 21
30.7228544637
 12
159.4596793074
 22
30.7873815123
 13
159.4596793074
 23
30.7873815123
  0
SOLID
  8
0
 62
7
  6
CONTINUOUS
 10
159.4596793074
 20
30.7873815123
 11
159.228429528
 21
30.7228544637
 12
159.401867028
 22
30.851908644
 13
159.401867028
 23
30.851908644
  0
SOLID
  8
0
 62
7
  6
CONTINUOUS
 10
159.228429528
 20
30.7228544637
 11
159.1128043074
 21
30.851908644
 12
159.401867028
 22
30.851908644
 13
159.401867028
 23
30.851908644
  0
SOLID
  8
0
 62
7
  6
CONTINUOUS
 10
159.575304528
 20
30.7551187255
 11
159.922179528
 21
30.7228544637
 12
159.228429528
 22
30.7228544637
 13
159.228429528
 23
30.7228544637
  0
SOLID
  8
0
 62
7
  6
CONTINUOUS
 10
156.279992028
 20
30.5938002419
 11
156.279992028
 21
31.6262382337
 12
156.5690540869
 22
30.5938002419
 13
156.5690540869
 23
31.6262382337
  0
ENDBLK
  8
0
  6
BYBLOCK
 62
0
  0
BLOCK
  8
0
 62
2
  6
CONTINUOUS
  2
SYMBOL_3_BL0
 70
64
 10
32.1213064866
 20
19.8534310916
  0
TEXT
  8
0
 62
7
  6
CONTINUOUS
 10
18.3860103289
 20
19.2268451992
  7
TEXTSTYLE_3
 40
2.7338706658
  1
Ammeraal Beltech
 41
1.0
 51
15.0
 72
0
  0
TEXT
  8
0
 62
7
  6
CONTINUOUS
 10
29.1868111546
 20
16.9533085264
  7
TEXTSTYLE_4
 40
1.0935482663
  1
Innovation & Service in Belting
 41
1.0
 72
0
  0
LINE
  8
0
 62
7
  6
CONTINUOUS
 10
12.3614696776
 20
19.9934385078
 11
13.1396216709
 21
23.6543558055
  0
LINE
  8
0
 62
7
  6
CONTINUOUS
 10
23.2347899607
 20
27.3177497171
 11
13.6274394139
 21
24.1961322958
  0
LINE
  8
0
 62
7
  6
CONTINUOUS
 10
12.5867530099
 20
19.3000877048
 11
20.093828271
 21
12.5406867788
  0
LINE
  8
0
 62
7
  6
CONTINUOUS
 10
12.8492874206
 20
20.5352149982
 11
23.6575567857
 21
24.0470345971
  0
LINE
  8
0
 62
7
  6
CONTINUOUS
 10
23.6533516486
 20
13.6972460334
 11
15.2078919798
 21
21.3015720751
  0
LINE
  8
0
 62
7
  6
CONTINUOUS
 10
24.1731743684
 20
26.4728246013
 11
23.1966148312
 21
21.8784731989
  0
LINE
  8
0
 62
7
  6
CONTINUOUS
 10
22.4968128835
 20
18.5861638851
 11
21.810364672
 21
15.3566789607
  0
LINE
  8
0
 62
7
  6
CONTINUOUS
 10
24.8542704669
 20
14.087448211
 11
25.8105020025
 21
18.5861638851
  0
LINE
  8
0
 62
7
  6
CONTINUOUS
 10
26.5103039502
 20
21.8784731989
 11
26.9545457526
 21
23.9684665583
  0
LINE
  8
0
 62
7
  6
CONTINUOUS
 10
20.8069293463
 20
12.3891124661
 11
24.3664527239
 21
13.5456717207
  0
LINE
  8
0
 62
7
  6
CONTINUOUS
 10
23.9478910361
 20
27.1661754044
 11
26.7292624203
 21
24.6618173613
  0
ARC
  8
0
 62
7
  6
CONTINUOUS
 10
13.8527227462
 20
23.5027814928
 40
0.7290321776
 50
108.0
 51
168.0
  0
ARC
  8
0
 62
7
  6
CONTINUOUS
 10
23.4600732931
 20
26.624398914
 40
0.7290321776
 50
348.0
 51
108.0
  0
ARC
  8
0
 62
7
  6
CONTINUOUS
 10
26.2414446773
 20
24.120040871
 40
0.7290321776
 50
348.0
 51
48.0
  0
ARC
  8
0
 62
7
  6
CONTINUOUS
 10
20.581646014
 20
13.0824632691
 40
0.7290321776
 50
228.0
 51
288.0
  0
ARC
  8
0
 62
7
  6
CONTINUOUS
 10
13.0745707529
 20
19.8418641951
 40
0.7290321776
 50
108.0
 51
228.0
  0
ARC
  8
0
 62
7
  6
CONTINUOUS
 10
24.1411693916
 20
14.2390225237
 40
0.7290321776
 50
228.0
 51
348.0
  0
ENDBLK
  8
0
  6
BYBLOCK
 62
0
  0
ENDSEC
  0
SECTION
  2
ENTITIES
  0
TEXT
  8
0
 62
5
  6
CONTINUOUS
 10
96.0
 20
25.636
  7
TEXTSTYLE_2
 40
2.8
  1
Scale :
 41
0.6
 51
0.000019
 72
0
  0
TEXT
  8
0
 62
5
  6
CONTINUOUS
 10
116.0
 20
25.636
  7
TEXTSTYLE_2
 40
2.8
  1
Belt type:
 41
0.6
 51
0.000019
 72
0
  0
INSERT
  8
0
 62
2
  6
CONTINUOUS
  2
SYMBOL_3_BL0
 10
32.1213064866
 20
19.8534310916
  0
INSERT
  8
0
 62
2
  6
CONTINUOUS
  2
SYMBOL_8_BL1
 10
173.5956734183
 20
35.5937998301
  0
LINE
  8
0
 62
2
  6
CONTINUOUS
 10
10.0
 20
30.0
 11
200.0
 21
30.0
  0
LINE
  8
0
 62
2
  6
CONTINUOUS
 10
10.0
 20
30.0
 11
10.0
 21
10.0
  0
LINE
  8
0
 62
2
  6
CONTINUOUS
 10
10.0
 20
10.0
 11
200.0
 21
10.0
  0
LINE
  8
0
 62
2
  6
CONTINUOUS
 10
95.0
 20
30.0
 11
95.0
 21
10.0
  0
LINE
  8
0
 62
2
  6
CONTINUOUS
 10
115.0
 20
30.0
 11
115.0
 21
10.0
  0
LINE
  8
0
 62
2
  6
CONTINUOUS
 10
200.0
 20
30.0
 11
200.0
 21
10.0
  0
TEXT
  8
0
 62
5
  6
CONTINUOUS
 10
13.0
 20
23.303
  7
TEXTSTYLE_5
 40
1.52
  1
                                                                     Ammeraal Beltech Modular A/S
 41
1.0
 72
0
  0
TEXT
  8
0
 62
5
  6
CONTINUOUS
 10
13.0
 20
20.595
  7
TEXTSTYLE_5
 40
1.5
  1
                                                                      Hjulmagervej 21,  7100 Vejle,  DK
 41
1.0
 72
0
  0
TEXT
  8
0
 62
5
  6
CONTINUOUS
 10
13.0
 20
17.881
  7
TEXTSTYLE_5
 40
1.495
  1
                                                                      tel: 
 41
1.0
 72
0
  0
TEXT
  8
0
 62
5
  6
CONTINUOUS
 10
57.9869465649
 20
17.881
  7
TEXTSTYLE_5
 40
1.51
  1
+45 75723100     fax: +45 75723348
 41
1.0
 72
0
  0
TEXT
  8
0
 62
5
  6
CONTINUOUS
 10
13.0
 20
15.177
  7
TEXTSTYLE_5
 40
1.5
  1
                                                                      admin@unichains.dk  www.unichains.com
 41
1.0
 72
0
  0
TEXT
  8
0
 62
5
  6
CONTINUOUS
 10
99.75
 20
13.75
  7
TEXTSTYLE_6
 40
5.0
  1
1:1
 41
0.7
 72
1
 11
105.0
 21
13.75
  0
TEXT
  8
0
 62
5
  6
CONTINUOUS
 10
118.0
 20
13.75
  7
TEXTSTYLE_7
 40
7.5
  1
Sprocket Z08 Idlers
 41
0.4638157895
 72
0
  0
LINE
  8
0
 62
7
  6
CONTINUOUS
 10
210.0
 20
0.0
 11
0.0
 21
0.0
  0
LINE
  8
0
 62
7
  6
CONTINUOUS
 10
10.0
 20
10.0
 11
200.0
 21
10.0
  0
LINE
  8
0
 62
7
  6
CONTINUOUS
 10
10.0
 20
30.0
 11
200.0
 21
30.0
  0
LINE
  8
0
 62
7
  6
CONTINUOUS
 10
0.0
 20
0.0
 11
0.0
 21
297.0
  0
LINE
  8
0
 62
7
  6
CONTINUOUS
 10
10.0
 20
10.0
 11
10.0
 21
287.0
  0
LINE
  8
0
 62
7
  6
CONTINUOUS
 10
200.0
 20
287.0
 11
200.0
 21
10.0
  0
LINE
  8
0
 62
7
  6
CONTINUOUS
 10
210.0
 20
0.0
 11
210.0
 21
297.0
  0
LINE
  8
0
 62
7
  6
CONTINUOUS
 10
10.0
 20
287.0
 11
200.0
 21
287.0
  0
LINE
  8
0
 62
7
  6
CONTINUOUS
 10
0.0
 20
297.0
 11
210.0
 21
297.0
  0
LINE
  8
0
 62
7
  6
CONTINUOUS
 10
86.9736367836
 20
233.2117763357
 11
86.8581107634
 21
233.0843311392
  0
LINE
  8
0
 62
7
  6
CONTINUOUS
 10
86.952022101
 20
232.9423697201
 11
87.0675481274
 21
233.0698149073
  0
LINE
  8
0
 62
7
  6
CONTINUOUS
 10
87.610644599
 20
234.954485813
 11
87.488100242
 21
234.8337735166
  0
LINE
  8
0
 62
7
  6
CONTINUOUS
 10
87.5738381629
 20
234.6867313875
 11
87.6963825199
 21
234.807443684
  0
LINE
  8
0
 62
7
  6
CONTINUOUS
 10
93.6559913465
 20
237.5752574075
 11
93.548820468
 21
237.4981200205
  0
LINE
  8
0
 62
7
  6
CONTINUOUS
 10
86.6872450119
 20
234.3999030524
 11
86.5134901114
 21
234.2849594625
  0
LINE
  8
0
 62
7
  6
CONTINUOUS
 10
85.8184706706
 20
233.8251852097
 11
85.6447158073
 21
233.7102416445
  0
LINE
  8
0
 62
7
  6
CONTINUOUS
 10
86.8581107634
 20
233.0843311392
 11
86.7191068528
 21
232.9923762738
  0
LINE
  8
0
 62
7
  6
CONTINUOUS
 10
86.8130181905
 20
232.8504148547
 11
86.952022101
 21
232.9423697201
  0
LINE
  8
0
 62
7
  6
CONTINUOUS
 10
87.3342827928
 20
233.1952455586
 11
87.5080376934
 21
233.3101891485
  0
LINE
  8
0
 62
7
  6
CONTINUOUS
 10
93.7454574905
 20
237.4245781255
 11
93.8924863859
 21
237.513859486
  0
LINE
  8
0
 62
7
  6
CONTINUOUS
 10
87.7546234362
 20
235.0384375773
 11
87.610644599
 21
234.954485813
  0
LINE
  8
0
 62
7
  6
CONTINUOUS
 10
87.2866923698
 20
234.7655944336
 11
87.1067188749
 21
234.6606547584
  0
LINE
  8
0
 62
7
  6
CONTINUOUS
 10
87.7926223018
 20
233.484317623
 11
87.9725957967
 21
233.5892572983
  0
LINE
  8
0
 62
7
  6
CONTINUOUS
 10
88.6205002551
 20
233.9670400571
 11
88.8004736471
 21
234.0719796723
  0
LINE
  8
0
 62
7
  6
CONTINUOUS
 10
88.3356601164
 20
236.0886378536
 11
88.1519812461
 21
235.9903280511
  0
LINE
  8
0
 62
7
  6
CONTINUOUS
 10
88.2523827728
 20
235.8027410706
 11
88.4360616431
 21
235.901050873
  0
LINE
  8
0
 62
7
  6
CONTINUOUS
 10
88.6368647528
 20
235.5258768067
 11
88.4531858825
 21
235.4275670043
  0
LINE
  8
0
 62
7
  6
CONTINUOUS
 10
89.0957557098
 20
234.2270102234
 11
89.2794345801
 21
234.3253200259
  0
LINE
  8
0
 62
7
  6
CONTINUOUS
 10
93.8827353634
 20
237.688826437
 11
93.6559913465
 21
237.5752574075
  0
LINE
  8
0
 62
7
  6
CONTINUOUS
 10
94.4567426816
 20
236.6626345385
 11
94.1901406522
 21
236.5369215212
  0
LINE
  8
0
 62
7
  6
CONTINUOUS
 10
94.2796077127
 20
236.3862425029
 11
94.5462088331
 21
236.5119552316
  0
LINE
  8
0
 62
7
  6
CONTINUOUS
 10
92.0371423002
 20
237.7528937972
 11
90.6428089646
 21
237.199870697
  0
LINE
  8
0
 62
7
  6
CONTINUOUS
 10
90.9693294342
 20
237.0547079083
 11
92.1312738805
 21
237.5155604918
  0
LINE
  8
0
 62
7
  6
CONTINUOUS
 10
92.1802994601
 20
236.9398910909
 11
91.1732812355
 21
236.5404856357
  0
LINE
  8
0
 62
7
  6
CONTINUOUS
 10
91.2674128158
 20
236.3031523303
 11
92.2744310404
 21
236.7025577855
  0
LINE
  8
0
 62
7
  6
CONTINUOUS
 10
91.3801730983
 20
235.3407595829
 11
91.6125619875
 21
235.4329300996
  0
LINE
  8
0
 62
7
  6
CONTINUOUS
 10
99.211547309
 20
239.122044928
 11
99.3733481578
 21
239.1804327926
  0
LINE
  8
0
 62
7
  6
CONTINUOUS
 10
100.0102007524
 20
237.7884292927
 11
99.8483999036
 21
237.7300414281
  0
LINE
  8
0
 62
7
  6
CONTINUOUS
 10
92.6306298735
 20
237.9545125031
 11
92.4338899148
 21
237.8859834387
  0
LINE
  8
0
 62
7
  6
CONTINUOUS
 10
93.091768431
 20
235.9972812764
 11
93.2885083897
 21
236.0658103408
  0
LINE
  8
0
 62
7
  6
CONTINUOUS
 10
86.6505364704
 20
232.7939503606
 11
86.8130181905
 21
232.8504148547
  0
LINE
  8
0
 62
7
  6
CONTINUOUS
 10
99.3487885398
 20
239.4345679484
 11
99.1455139241
 21
239.3721720596
  0
LINE
  8
0
 62
7
  6
CONTINUOUS
 10
99.8729595244
 20
237.4759062426
 11
100.0762331906
 21
237.5383020434
  0
LINE
  8
0
 62
7
  6
CONTINUOUS
 10
94.4301390011
 20
237.3217961278
 11
93.5931270325
 21
237.0667746297
  0
LINE
  8
0
 62
7
  6
CONTINUOUS
 10
93.6028789846
 20
236.8918078996
 11
94.6790372299
 21
237.2196926829
  0
LINE
  8
0
 62
7
  6
CONTINUOUS
 10
94.7534507889
 20
236.9754582167
 11
94.5541616168
 21
236.914738627
  0
LINE
  8
0
 62
7
  6
CONTINUOUS
 10
87.6963825199
 20
234.807443684
 11
87.8617958373
 21
234.8546349159
  0
LINE
  8
0
 62
7
  6
CONTINUOUS
 10
87.488100242
 20
234.8337735166
 11
87.4229852291
 21
234.697288719
  0
LINE
  8
0
 62
7
  6
CONTINUOUS
 10
87.5087231499
 20
234.5502465899
 11
87.5738381629
 21
234.6867313875
  0
LINE
  8
0
 62
7
  6
CONTINUOUS
 10
87.0675481274
 20
233.0698149073
 11
87.1135722731
 21
233.1512827112
  0
LINE
  8
0
 62
7
  6
CONTINUOUS
 10
93.548820468
 20
237.4981200205
 11
93.4540518493
 21
237.3802768891
  0
LINE
  8
0
 62
7
  6
CONTINUOUS
 10
93.6781446288
 20
237.3595847121
 11
93.7454574905
 21
237.4245781255
  0
LINE
  8
0
 62
7
  6
CONTINUOUS
 10
94.5462088331
 20
236.5119552316
 11
94.6808354655
 21
236.6419423472
  0
LINE
  8
0
 62
7
  6
CONTINUOUS
 10
99.0953134967
 20
239.0253092283
 11
99.211547309
 21
239.122044928
  0
LINE
  8
0
 62
7
  6
CONTINUOUS
 10
99.1455139241
 20
239.3721720596
 11
98.9878072942
 21
239.2714284274
  0
LINE
  8
0
 62
7
  6
CONTINUOUS
 10
100.0762331906
 20
237.5383020434
 11
100.2339407687
 21
237.6390457785
  0
LINE
  8
0
 62
7
  6
CONTINUOUS
 10
109.4693440535
 20
238.3965208717
 11
109.6116100609
 21
238.4477895546
  0
LINE
  8
0
 62
7
  6
CONTINUOUS
 10
111.2465583272
 20
237.8578550454
 11
111.4447381424
 21
237.9271319516
  0
LINE
  8
0
 62
7
  6
CONTINUOUS
 10
109.6312801407
 20
236.6851433073
 11
109.8648539067
 21
236.7568546016
  0
LINE
  8
0
 62
7
  6
CONTINUOUS
 10
109.624283974
 20
238.6642260855
 11
109.3907083636
 21
238.5925152774
  0
LINE
  8
0
 62
7
  6
CONTINUOUS
 10
87.4229852291
 20
234.697288719
 11
87.3938647709
 21
234.5817917723
  0
LINE
  8
0
 62
7
  6
CONTINUOUS
 10
87.4796026918
 20
234.4347496433
 11
87.5087231499
 21
234.5502465899
  0
LINE
  8
0
 62
7
  6
CONTINUOUS
 10
87.0309340393
 20
233.3517231799
 11
86.9736367836
 21
233.2117763357
  0
LINE
  8
0
 62
7
  6
CONTINUOUS
 10
93.4540518493
 20
237.3802768891
 11
93.3991403352
 21
237.2745774534
  0
LINE
  8
0
 62
7
  6
CONTINUOUS
 10
93.5957782699
 20
237.2010358363
 11
93.6781446288
 21
237.3595847121
  0
LINE
  8
0
 62
7
  6
CONTINUOUS
 10
94.5515113003
 20
236.7804776698
 11
94.4567426816
 21
236.6626345385
  0
LINE
  8
0
 62
7
  6
CONTINUOUS
 10
98.9878072942
 20
239.2714284274
 11
98.8382862543
 21
239.0859729848
  0
LINE
  8
0
 62
7
  6
CONTINUOUS
 10
100.1264345618
 20
237.885165022
 11
100.0102007524
 21
237.7884292927
  0
LINE
  8
0
 62
7
  6
CONTINUOUS
 10
106.9805002213
 20
237.4774613091
 11
108.6372920279
 21
238.641608432
  0
LINE
  8
0
 62
7
  6
CONTINUOUS
 10
108.4479756868
 20
238.7632861225
 11
106.7502167778
 21
237.6067386481
  0
LINE
  8
0
 62
7
  6
CONTINUOUS
 10
109.3907083636
 20
238.5925152774
 11
109.2378373033
 21
238.5000360797
  0
LINE
  8
0
 62
7
  6
CONTINUOUS
 10
111.2337791057
 20
238.0860010157
 11
111.0751847613
 21
238.0037222395
  0
LINE
  8
0
 62
7
  6
CONTINUOUS
 10
109.7862182205
 20
236.9528490217
 11
109.6439522131
 21
236.9015803388
  0
LINE
  8
0
 62
7
  6
CONTINUOUS
 10
110.9682049386
 20
237.2774343614
 11
110.7700251233
 21
237.2081574552
  0
LINE
  8
0
 62
7
  6
CONTINUOUS
 10
111.9320507411
 20
237.2743867508
 11
111.7338691138
 21
237.2051104397
  0
LINE
  8
0
 62
7
  6
CONTINUOUS
 10
115.2869442977
 20
235.8342818018
 11
115.1175625805
 21
235.7774329061
  0
LINE
  8
0
 62
7
  6
CONTINUOUS
 10
113.6895465703
 20
190.5702720124
 11
113.7672527138
 21
190.5923123095
  0
LINE
  8
0
 62
7
  6
CONTINUOUS
 10
113.8252494842
 20
190.7338078495
 11
113.7475436262
 21
190.7117678377
  0
LINE
  8
0
 62
7
  6
CONTINUOUS
 10
114.9363747945
 20
191.8171002365
 11
115.0140809379
 21
191.8391405336
  0
LINE
  8
0
 62
7
  6
CONTINUOUS
 10
87.1135722731
 20
233.1512827112
 11
87.1473916345
 21
233.3267198927
  0
LINE
  8
0
 62
7
  6
CONTINUOUS
 10
96.017140818
 20
238.2528127277
 11
95.7000395081
 21
237.6081907164
  0
LINE
  8
0
 62
7
  6
CONTINUOUS
 10
95.4423222866
 20
236.7152514822
 11
95.7594226552
 21
237.3598733297
  0
LINE
  8
0
 62
7
  6
CONTINUOUS
 10
95.6081590485
 20
237.4549589983
 11
95.1991782066
 21
236.6571054907
  0
LINE
  8
0
 62
7
  6
CONTINUOUS
 10
95.8513031286
 20
237.5131049898
 11
96.2602848981
 21
238.3109587192
  0
LINE
  8
0
 62
7
  6
CONTINUOUS
 10
94.6808354655
 20
236.6419423472
 11
94.76320182
 21
236.8004912371
  0
LINE
  8
0
 62
7
  6
CONTINUOUS
 10
100.2339407687
 20
237.6390457785
 11
100.3834618071
 21
237.8245012359
  0
LINE
  8
0
 62
7
  6
CONTINUOUS
 10
110.8223897971
 20
236.9670095583
 11
110.9942628666
 21
237.0897167182
  0
LINE
  8
0
 62
7
  6
CONTINUOUS
 10
109.8648539067
 20
236.7568546016
 11
110.0177249707
 21
236.8493338137
  0
LINE
  8
0
 62
7
  6
CONTINUOUS
 10
111.9448281505
 20
237.0462413757
 11
112.1034224949
 21
237.1285201519
  0
LINE
  8
0
 62
7
  6
CONTINUOUS
 10
111.7055625646
 20
236.1842439434
 11
111.8641569136
 21
236.2665227338
  0
LINE
  8
0
 62
7
  6
CONTINUOUS
 10
118.5555165529
 20
233.4942148464
 11
118.7547989808
 21
233.5640996998
  0
LINE
  8
0
 62
7
  6
CONTINUOUS
 10
115.4695124301
 20
234.4510026302
 11
115.5824324458
 21
234.4889024789
  0
LINE
  8
0
 62
7
  6
CONTINUOUS
 10
115.9089007351
 20
192.7896261772
 11
115.9866067359
 21
192.8116663316
  0
LINE
  8
0
 62
7
  6
CONTINUOUS
 10
116.044603649
 20
192.9531620142
 11
115.9668976482
 21
192.9311218598
  0
LINE
  8
0
 62
7
  6
CONTINUOUS
 10
115.3284364101
 20
192.8214862205
 11
115.2118773303
 21
192.7884259248
  0
LINE
  8
0
 62
7
  6
CONTINUOUS
 10
116.7677639876
 20
193.6763223528
 11
116.8843230601
 21
193.7093826558
  0
LINE
  8
0
 62
7
  6
CONTINUOUS
 10
117.013102523
 20
194.4783194102
 11
117.1296616052
 21
194.5113797034
  0
LINE
  8
0
 62
7
  6
CONTINUOUS
 10
117.1876584551
 20
194.6528753423
 11
117.1099524049
 21
194.6308351482
  0
LINE
  8
0
 62
7
  6
CONTINUOUS
 10
112.6004618426
 20
189.5646860541
 11
112.7060006238
 21
189.5588931427
  0
LINE
  8
0
 62
7
  6
CONTINUOUS
 10
112.7779138559
 20
189.6864722211
 11
112.7251444652
 21
189.6893686768
  0
LINE
  8
0
 62
7
  6
CONTINUOUS
 10
112.3777984279
 20
189.7873494688
 11
112.483337219
 21
189.7815565476
  0
LINE
  8
0
 62
7
  6
CONTINUOUS
 10
112.555250451
 20
189.909135626
 11
112.5024810506
 21
189.9120320914
  0
LINE
  8
0
 62
7
  6
CONTINUOUS
 10
113.2209793562
 20
190.2408694142
 11
113.2737487469
 21
190.2379729584
  0
LINE
  8
0
 62
7
  6
CONTINUOUS
 10
113.3984316549
 20
190.3626558665
 11
113.2928925883
 21
190.3684484925
  0
LINE
  8
0
 62
7
  6
CONTINUOUS
 10
112.9983159416
 20
190.4635328288
 11
113.0510853322
 21
190.4606363731
  0
LINE
  8
0
 62
7
  6
CONTINUOUS
 10
113.1757682403
 20
190.5853192811
 11
113.0702291688
 21
190.591111912
  0
LINE
  8
0
 62
7
  6
CONTINUOUS
 10
115.0471412409
 20
191.9556996061
 11
114.9943715649
 21
191.9585957765
  0
LINE
  8
0
 62
7
  6
CONTINUOUS
 10
87.0300024562
 20
233.504171676
 11
87.0309340393
 21
233.3517231799
  0
LINE
  8
0
 62
7
  6
CONTINUOUS
 10
93.3991403352
 20
237.2745774534
 11
93.369034253
 21
237.0874668068
  0
LINE
  8
0
 62
7
  6
CONTINUOUS
 10
98.8382862543
 20
239.0859729848
 11
98.7717127483
 21
238.9085335908
  0
LINE
  8
0
 62
7
  6
CONTINUOUS
 10
99.0246467326
 20
238.8902255749
 11
99.0953134967
 21
239.0253092283
  0
LINE
  8
0
 62
7
  6
CONTINUOUS
 10
100.1971013374
 20
238.0202485567
 11
100.1264345618
 21
237.885165022
  0
LINE
  8
0
 62
7
  6
CONTINUOUS
 10
109.2378373033
 20
238.5000360797
 11
109.1147125416
 21
238.3559624102
  0
LINE
  8
0
 62
40
  6
CONTINUOUS
 10
88.5957075055
 20
219.2609305403
 11
92.7292226326
 21
223.3944456673
  0
LINE
  8
0
 62
40
  6
CONTINUOUS
 10
98.2681329543
 20
226.6706142892
 11
96.8539193919
 21
225.2564007269
  0
LINE
  8
0
 62
40
  6
CONTINUOUS
 10
85.3195388836
 20
213.7220202186
 11
86.733752446
 21
215.1362337809
  0
LINE
  8
0
 62
7
  6
CONTINUOUS
 10
109.2443064533
 20
238.1907939714
 11
109.4693440535
 21
238.3965208717
  0
LINE
  8
0
 62
7
  6
CONTINUOUS
 10
110.0112576455
 20
237.1585753601
 11
109.7862182205
 21
236.9528490217
  0
LINE
  8
0
 62
7
  6
CONTINUOUS
 10
111.1275494165
 20
237.762574286
 11
111.2465583272
 21
237.8578550454
  0
LINE
  8
0
 62
7
  6
CONTINUOUS
 10
112.0510578025
 20
237.3696679921
 11
111.9320507411
 21
237.2743867508
  0
LINE
  8
0
 62
7
  6
CONTINUOUS
 10
115.1175625805
 20
235.7774329061
 11
115.041750752
 21
235.7205846916
  0
LINE
  8
0
 62
7
  6
CONTINUOUS
 10
111.8117922305
 20
236.5076706023
 11
111.6399191704
 21
236.3849634708
  0
LINE
  8
0
 62
7
  6
CONTINUOUS
 10
117.1767909606
 20
234.6722655448
 11
117.0166807992
 21
234.5708685649
  0
LINE
  8
0
 62
7
  6
CONTINUOUS
 10
115.1885914243
 20
235.5500445076
 11
115.3208632589
 21
235.6258426432
  0
LINE
  8
0
 62
7
  6
CONTINUOUS
 10
115.7550051047
 20
234.7352413332
 11
115.6227315578
 21
234.6594440385
  0
LINE
  8
0
 62
7
  6
CONTINUOUS
 10
119.6090738168
 20
233.2293509333
 11
119.4655179464
 21
233.1780390668
  0
LINE
  8
0
 62
7
  6
CONTINUOUS
 10
119.8695487762
 20
231.6427350037
 11
120.0131046557
 21
231.694046882
  0
LINE
  8
0
 62
7
  6
CONTINUOUS
 10
114.663272906
 20
192.2398215005
 11
114.6105035129
 21
192.2427179587
  0
LINE
  8
0
 62
7
  6
CONTINUOUS
 10
115.2176699637
 20
192.6828868509
 11
115.270439497
 21
192.6799905379
  0
LINE
  8
0
 62
7
  6
CONTINUOUS
 10
115.8561312018
 20
192.7925224902
 11
115.9089007351
 21
192.7896261772
  0
LINE
  8
0
 62
7
  6
CONTINUOUS
 10
117.2931974356
 20
194.6470826106
 11
117.1876584551
 21
194.6528753423
  0
LINE
  8
0
 62
7
  6
CONTINUOUS
 10
113.6228607181
 20
190.5870849297
 11
113.6895465703
 21
190.5702720124
  0
LINE
  8
0
 62
7
  6
CONTINUOUS
 10
114.8696889423
 20
191.8339131538
 11
114.9363747945
 21
191.8171002365
  0
LINE
  8
0
 62
7
  6
CONTINUOUS
 10
114.4858206049
 20
192.1180350506
 11
114.552506462
 21
192.1012221285
  0
LINE
  8
0
 62
7
  6
CONTINUOUS
 10
114.7299587655
 20
192.2230085759
 11
114.663272906
 21
192.2398215005
  0
LINE
  8
0
 62
40
  6
CONTINUOUS
 10
88.5957075055
 20
199.918500532
 11
92.7292226326
 21
195.7849854049
  0
LINE
  8
0
 62
40
  6
CONTINUOUS
 10
96.8539193919
 20
193.9230303453
 11
98.2681329543
 21
192.508816783
  0
LINE
  8
0
 62
40
  6
CONTINUOUS
 10
86.733752446
 20
204.0431972913
 11
85.3195388836
 21
205.4574108536
  0
LINE
  8
0
 62
7
  6
CONTINUOUS
 10
93.5807247727
 20
237.1074803741
 11
93.5957782699
 21
237.2010358363
  0
LINE
  8
0
 62
7
  6
CONTINUOUS
 10
100.3834618071
 20
237.8245012359
 11
100.4500353102
 21
238.0019406595
  0
LINE
  8
0
 62
7
  6
CONTINUOUS
 10
111.0751847613
 20
238.0037222395
 11
110.9296202498
 21
237.8275842308
  0
LINE
  8
0
 62
7
  6
CONTINUOUS
 10
110.7700251233
 20
237.2081574552
 11
110.6244588183
 21
237.0320200983
  0
LINE
  8
0
 62
7
  6
CONTINUOUS
 10
110.0177249707
 20
236.8493338137
 11
110.1408497398
 21
236.9934075121
  0
LINE
  8
0
 62
7
  6
CONTINUOUS
 10
112.1034224949
 20
237.1285201519
 11
112.2357100748
 21
237.264229125
  0
LINE
  8
0
 62
7
  6
CONTINUOUS
 10
115.5824324458
 20
234.4889024789
 11
115.6582459797
 21
234.5457498393
  0
LINE
  8
0
 62
7
  6
CONTINUOUS
 10
117.1719061801
 20
234.4255451411
 11
117.2519596357
 21
234.4762446296
  0
LINE
  8
0
 62
7
  6
CONTINUOUS
 10
119.5800185184
 20
232.9842996499
 11
119.6646606374
 21
233.0269027422
  0
LINE
  8
0
 62
7
  6
CONTINUOUS
 10
119.8986040837
 20
231.8877862989
 11
119.8139619647
 21
231.8451832066
  0
LINE
  8
0
 62
7
  6
CONTINUOUS
 10
117.1296616052
 20
194.5113797034
 11
117.2491170354
 21
194.4916705177
  0
LINE
  8
0
 62
7
  6
CONTINUOUS
 10
116.8785302914
 20
193.8149215798
 11
116.8118443678
 21
193.8317344257
  0
LINE
  8
0
 62
7
  6
CONTINUOUS
 10
115.4090387337
 20
192.7907568319
 11
115.3284364101
 21
192.8214862205
  0
LINE
  8
0
 62
7
  6
CONTINUOUS
 10
115.9668976482
 20
192.9311218598
 11
115.8862951917
 21
192.961851096
  0
LINE
  8
0
 62
7
  6
CONTINUOUS
 10
113.5283419427
 20
190.6317307702
 11
113.6228607181
 21
190.5870849297
  0
LINE
  8
0
 62
7
  6
CONTINUOUS
 10
113.7475436262
 20
190.7117678377
 11
113.6530245654
 21
190.7564133928
  0
LINE
  8
0
 62
7
  6
CONTINUOUS
 10
114.552506462
 20
192.1012221285
 11
114.6470255276
 21
192.0565765685
  0
LINE
  8
0
 62
7
  6
CONTINUOUS
 10
94.5541616168
 20
236.914738627
 11
94.5515113003
 21
236.7804776698
  0
LINE
  8
0
 62
7
  6
CONTINUOUS
 10
98.7717127483
 20
238.9085335908
 11
98.7507053412
 21
238.6927461513
  0
LINE
  8
0
 62
7
  6
CONTINUOUS
 10
98.9995460443
 20
238.7167941134
 11
99.0246467326
 21
238.8902255749
  0
LINE
  8
0
 62
7
  6
CONTINUOUS
 10
109.1147125416
 20
238.3559624102
 11
109.0425460017
 21
238.2427147076
  0
LINE
  8
0
 62
7
  6
CONTINUOUS
 10
110.1408497398
 20
236.9934075121
 11
110.21301625
 21
237.1066550992
  0
LINE
  8
0
 62
7
  6
CONTINUOUS
 10
111.8641569136
 20
236.2665227338
 11
112.0097213972
 21
236.4426606575
  0
LINE
  8
0
 62
7
  6
CONTINUOUS
 10
115.041750752
 20
235.7205846916
 11
114.927235279
 21
235.5879398901
  0
LINE
  8
0
 62
7
  6
CONTINUOUS
 10
115.0934260749
 20
235.455298867
 11
115.1885914243
 21
235.5500445076
  0
LINE
  8
0
 62
7
  6
CONTINUOUS
 10
117.6723629956
 20
233.5686486209
 11
117.5700287039
 21
233.4816952972
  0
LINE
  8
0
 62
7
  6
CONTINUOUS
 10
124.1261385291
 20
229.6085730565
 11
123.9384579786
 21
229.5000298824
  0
LINE
  8
0
 62
7
  6
CONTINUOUS
 10
124.1028775254
 20
229.3117051292
 11
124.2585027127
 21
229.3922619225
  0
LINE
  8
0
 62
7
  6
CONTINUOUS
 10
123.5293845058
 20
230.045743994
 11
123.4097450971
 21
229.9847555358
  0
LINE
  8
0
 62
7
  6
CONTINUOUS
 10
123.5567486178
 20
229.7781139655
 11
123.6763880265
 21
229.8391024237
  0
LINE
  8
0
 62
7
  6
CONTINUOUS
 10
126.830435236
 20
227.0128565359
 11
125.0238542976
 21
226.4462033615
  0
LINE
  8
0
 62
7
  6
CONTINUOUS
 10
124.9528206054
 20
226.1854318701
 11
126.5638919379
 21
226.6583751716
  0
LINE
  8
0
 62
7
  6
CONTINUOUS
 10
116.6871615311
 20
193.707051589
 11
116.7677639876
 21
193.6763223528
  0
LINE
  8
0
 62
7
  6
CONTINUOUS
 10
115.7616124264
 20
192.8371683307
 11
115.8561312018
 21
192.7925224902
  0
LINE
  8
0
 62
7
  6
CONTINUOUS
 10
113.0423946936
 20
189.1189742208
 11
114.6687402903
 21
187.492628624
  0
LINE
  8
0
 62
7
  6
CONTINUOUS
 10
112.3499655048
 20
189.815182392
 11
112.3777984279
 21
189.7873494688
  0
LINE
  8
0
 62
7
  6
CONTINUOUS
 10
94.76320182
 20
236.8004912371
 11
94.7534507889
 21
236.9754582167
  0
LINE
  8
0
 62
7
  6
CONTINUOUS
 10
100.4500353102
 20
238.0019406595
 11
100.4710427288
 21
238.2177279803
  0
LINE
  8
0
 62
7
  6
CONTINUOUS
 10
100.2222020257
 20
238.1936800182
 11
100.1971013374
 21
238.0202485567
  0
LINE
  8
0
 62
7
  6
CONTINUOUS
 10
109.1403229372
 20
237.9539153153
 11
109.2443064533
 21
238.1907939714
  0
LINE
  8
0
 62
7
  6
CONTINUOUS
 10
110.1152393293
 20
237.3954545493
 11
110.0112576455
 21
237.1585753601
  0
LINE
  8
0
 62
7
  6
CONTINUOUS
 10
109.0425460017
 20
238.2427147076
 11
108.9491693857
 21
238.0470460909
  0
LINE
  8
0
 62
7
  6
CONTINUOUS
 10
110.21301625
 20
237.1066550992
 11
110.306394728
 21
237.3023232983
  0
LINE
  8
0
 62
7
  6
CONTINUOUS
 10
117.0166807992
 20
234.5708685649
 11
116.8475137813
 21
234.3751477948
  0
LINE
  8
0
 62
7
  6
CONTINUOUS
 10
117.7252524597
 20
233.3363728719
 11
117.8498643215
 21
233.4595820026
  0
LINE
  8
0
 62
7
  6
CONTINUOUS
 10
124.3660795213
 20
227.7161928978
 11
124.5537599819
 21
227.8247359936
  0
LINE
  8
0
 62
7
  6
CONTINUOUS
 10
124.3893404352
 20
228.0130607467
 11
124.2337152479
 21
227.9325039535
  0
LINE
  8
0
 62
7
  6
CONTINUOUS
 10
117.4016327685
 20
194.5885204044
 11
117.2931974356
 21
194.6470826106
  0
LINE
  8
0
 62
7
  6
CONTINUOUS
 10
115.2697810544
 20
188.093669388
 11
113.6434354576
 21
189.7200149848
  0
LINE
  8
0
 62
7
  6
CONTINUOUS
 10
113.7848568139
 20
189.861436341
 11
114.7040956294
 21
188.9421975255
  0
LINE
  8
0
 62
7
  6
CONTINUOUS
 10
113.4262645781
 20
190.3348229433
 11
113.3984316549
 21
190.3626558665
  0
LINE
  8
0
 62
7
  6
CONTINUOUS
 10
113.2639291336
 20
190.8961435793
 11
113.5283419427
 21
190.6317307702
  0
LINE
  8
0
 62
7
  6
CONTINUOUS
 10
113.6530245654
 20
190.7564133928
 11
113.3886117562
 21
191.020826202
  0
LINE
  8
0
 62
7
  6
CONTINUOUS
 10
115.3404917325
 20
189.5078829504
 11
114.3858975779
 21
190.462477105
  0
LINE
  8
0
 62
7
  6
CONTINUOUS
 10
113.8374698827
 20
191.4696843284
 11
114.1575485382
 21
191.1496056729
  0
LINE
  8
0
 62
7
  6
CONTINUOUS
 10
114.2132143845
 20
191.0939398266
 11
114.2827966925
 21
191.0243575186
  0
LINE
  8
0
 62
7
  6
CONTINUOUS
 10
114.4074796005
 20
191.1490404267
 11
113.9621527907
 21
191.5943672364
  0
LINE
  8
0
 62
7
  6
CONTINUOUS
 10
114.1616453865
 20
191.7938598322
 11
114.6069721963
 21
191.3485330224
  0
LINE
  8
0
 62
7
  6
CONTINUOUS
 10
114.7461368511
 20
191.2093683676
 11
114.8157191591
 21
191.1397860596
  0
LINE
  8
0
 62
7
  6
CONTINUOUS
 10
114.9404017817
 20
191.2644686823
 11
114.8708194738
 21
191.3340509902
  0
LINE
  8
0
 62
7
  6
CONTINUOUS
 10
114.7316548189
 20
191.4732156451
 11
114.2863280091
 21
191.9185424549
  0
LINE
  8
0
 62
7
  6
CONTINUOUS
 10
115.1990703762
 20
191.2756499034
 11
115.9768878355
 21
190.4978324441
  0
LINE
  8
0
 62
7
  6
CONTINUOUS
 10
116.5425732605
 20
189.9321470191
 11
116.825415973
 21
189.6493043066
  0
LINE
  8
0
 62
7
  6
CONTINUOUS
 10
114.6470255276
 20
192.0565765685
 11
114.8696889423
 21
191.8339131538
  0
LINE
  8
0
 62
7
  6
CONTINUOUS
 10
114.9943715649
 20
191.9585957765
 11
114.9526221802
 21
192.0003451612
  0
LINE
  8
0
 62
7
  6
CONTINUOUS
 10
114.8969563143
 20
192.0560110271
 11
114.8134575448
 21
192.1395097966
  0
LINE
  8
0
 62
7
  6
CONTINUOUS
 10
117.426456737
 20
190.2503450707
 11
115.8001111402
 21
191.8766906674
  0
LINE
  8
0
 62
7
  6
CONTINUOUS
 10
93.369034253
 20
237.0874668068
 11
93.4035898125
 21
236.83108831
  0
LINE
  8
0
 62
7
  6
CONTINUOUS
 10
98.7507053412
 20
238.6927461513
 11
98.8121043918
 21
238.0574082024
  0
LINE
  8
0
 62
7
  6
CONTINUOUS
 10
99.0609450949
 20
238.0814561645
 11
98.9995460443
 21
238.7167941134
  0
LINE
  8
0
 62
7
  6
CONTINUOUS
 10
100.8200727947
 20
239.5596486505
 11
100.8698921551
 21
237.5602692389
  0
LINE
  8
0
 62
7
  6
CONTINUOUS
 10
101.1198145815
 20
237.566496659
 11
101.0763551388
 21
239.3106361761
  0
LINE
  8
DEFAULT_1
 62
2
  6
CENTER
 10
102.4004376368
 20
249.5579868709
 11
102.4004376368
 21
211.5898155361
  0
LINE
  8
0
 62
2
  6
CONTINUOUS
 10
102.4004376368
 20
210.4697155361
 11
102.4004376368
 21
208.7097155361
  0
LINE
  8
DEFAULT_1
 62
2
  6
CENTER
 10
102.4004376368
 20
168.9715536105
 11
102.4004376368
 21
207.5896155361
  0
LINE
  8
0
 62
7
  6
CONTINUOUS
 10
102.956939824
 20
239.5939286622
 11
102.8698870643
 21
237.5958241061
  0
LINE
  8
0
 62
7
  6
CONTINUOUS
 10
103.130763252
 20
237.8400196879
 11
103.1603982344
 21
238.5202255024
  0
LINE
  8
0
 62
7
  6
CONTINUOUS
 10
103.1715113513
 20
238.7753026494
 11
103.1955897766
 21
239.3279699203
  0
LINE
  8
0
 62
7
  6
CONTINUOUS
 10
107.0529137795
 20
239.2384745263
 11
107.0141064765
 21
239.0292776451
  0
LINE
  8
0
 62
7
  6
CONTINUOUS
 10
106.7502167778
 20
237.6067386481
 11
106.6881250876
 21
237.2720236089
  0
LINE
  8
0
 62
7
  6
CONTINUOUS
 10
108.9491693857
 20
238.0470460909
 11
108.8537239095
 21
237.676151458
  0
LINE
  8
0
 62
7
  6
CONTINUOUS
 10
109.0660875669
 20
237.6654417119
 11
109.1403229372
 21
237.9539153153
  0
LINE
  8
0
 62
7
  6
CONTINUOUS
 10
110.6244588183
 20
237.0320200983
 11
110.5846226988
 21
236.9107351172
  0
LINE
  8
0
 62
7
  6
CONTINUOUS
 10
110.9296202498
 20
237.8275842308
 11
110.8897841303
 21
237.7062992497
  0
LINE
  8
0
 62
7
  6
CONTINUOUS
 10
110.7825536776
 20
236.8457245772
 11
110.8223897971
 21
236.9670095583
  0
LINE
  8
0
 62
7
  6
CONTINUOUS
 10
111.1009920035
 20
237.6817176319
 11
111.1275494165
 21
237.762574286
  0
LINE
  8
0
 62
7
  6
CONTINUOUS
 10
114.8457292518
 20
236.8867912333
 11
114.0084751588
 21
235.0704747455
  0
LINE
  8
0
 62
7
  6
CONTINUOUS
 10
114.2355147198
 20
234.9658179839
 11
115.0727688128
 21
236.7821344716
  0
LINE
  8
0
 62
7
  6
CONTINUOUS
 10
114.927235279
 20
235.5879398901
 11
114.7724206737
 21
235.2847534892
  0
LINE
  8
0
 62
7
  6
CONTINUOUS
 10
114.9773151141
 20
235.2279090531
 11
115.0934260749
 21
235.455298867
  0
LINE
  8
0
 62
7
  6
CONTINUOUS
 10
116.4516707881
 20
236.0995800577
 11
116.045282466
 21
235.3037157885
  0
LINE
  8
0
 62
7
  6
CONTINUOUS
 10
115.9485233546
 20
235.1142243211
 11
115.7550051047
 21
234.7352413332
  0
LINE
  8
0
 62
7
  6
CONTINUOUS
 10
115.6582459797
 20
234.5457498393
 11
115.5421350325
 21
234.3183600518
  0
LINE
  8
0
 62
7
  6
CONTINUOUS
 10
116.9953855752
 20
235.8003688175
 11
116.0163335504
 21
234.0563914286
  0
LINE
  8
0
 62
7
  6
CONTINUOUS
 10
116.1979984162
 20
233.9544065315
 11
117.1770504409
 21
235.6983839203
  0
LINE
  8
0
 62
7
  6
CONTINUOUS
 10
116.9804615919
 20
234.1935685641
 11
117.0250167324
 21
234.266080178
  0
LINE
  8
0
 62
7
  6
CONTINUOUS
 10
117.1496286098
 20
234.3892893341
 11
117.1719061801
 21
234.4255451411
  0
LINE
  8
0
 62
7
  6
CONTINUOUS
 10
117.9396938697
 20
234.0037183552
 11
117.8951387292
 21
233.9312067413
  0
LINE
  8
0
 62
7
  6
CONTINUOUS
 10
118.6719448534
 20
234.0332878446
 11
117.9029714505
 21
232.9094940589
  0
LINE
  8
0
 62
7
  6
CONTINUOUS
 10
118.0749081509
 20
232.7918436935
 11
118.5555165529
 21
233.4942148464
  0
LINE
  8
0
 62
7
  6
CONTINUOUS
 10
118.6996990534
 20
233.7049261628
 11
118.8438815538
 21
233.9156374792
  0
LINE
  8
0
 62
7
  6
CONTINUOUS
 10
119.1707573353
 20
233.4341589355
 11
119.290909419
 21
233.6097516992
  0
LINE
  8
0
 62
7
  6
CONTINUOUS
 10
119.4655179464
 20
233.1780390668
 11
119.4140672888
 21
233.1102458184
  0
LINE
  8
0
 62
7
  6
CONTINUOUS
 10
123.0352502273
 20
231.3795914964
 11
121.6232030147
 21
229.9632148976
  0
LINE
  8
0
 62
7
  6
CONTINUOUS
 10
121.8002500896
 20
229.786708996
 11
122.4311648105
 21
230.4195581236
  0
LINE
  8
0
 62
7
  6
CONTINUOUS
 10
122.6114261353
 20
230.6003721359
 11
123.0620795314
 21
231.0524072512
  0
LINE
  8
0
 62
7
  6
CONTINUOUS
 10
123.9384579786
 20
229.5000298824
 11
123.4576288341
 21
229.0802353058
  0
LINE
  8
0
 62
7
  6
CONTINUOUS
 10
123.6220483808
 20
228.8919105527
 11
124.1028775254
 21
229.3117051292
  0
LINE
  8
0
 62
7
  6
CONTINUOUS
 10
125.8595345894
 20
228.3159209758
 11
124.2557629711
 21
227.1209663337
  0
LINE
  8
0
 62
7
  6
CONTINUOUS
 10
124.4051323014
 20
226.9204948814
 11
125.6676759564
 21
227.8612038853
  0
LINE
  8
DEFAULT_1
 62
2
  6
CENTER
 10
144.318380744
 20
209.5897155361
 11
104.4005376368
 21
209.5897155361
  0
LINE
  8
0
 62
2
  6
CONTINUOUS
 10
103.2804376368
 20
209.5897155361
 11
101.5204376368
 21
209.5897155361
  0
LINE
  8
DEFAULT_1
 62
2
  6
CENTER
 10
64.7067833698
 20
209.5897155361
 11
100.4003376368
 21
209.5897155361
  0
LINE
  8
0
 62
7
  6
CONTINUOUS
 10
115.270439497
 20
192.6799905379
 11
115.2982724299
 21
192.6521576049
  0
LINE
  8
0
 62
7
  6
CONTINUOUS
 10
115.9415324965
 20
192.0181120236
 11
117.5678780932
 21
190.3917664269
  0
LINE
  8
0
 62
7
  6
CONTINUOUS
 10
115.6456186002
 20
192.5541769654
 11
115.617785677
 21
192.5820098885
  0
LINE
  8
0
 62
7
  6
CONTINUOUS
 10
115.4507881184
 20
192.7490074471
 11
115.4090387337
 21
192.7907568319
  0
LINE
  8
0
 62
7
  6
CONTINUOUS
 10
115.4832831557
 20
193.1154976014
 11
115.7616124264
 21
192.8371683307
  0
LINE
  8
0
 62
7
  6
CONTINUOUS
 10
115.8862951917
 20
192.961851096
 11
115.607965921
 21
193.2401803667
  0
LINE
  8
0
 62
7
  6
CONTINUOUS
 10
118.1689188572
 20
190.9928071909
 11
117.3911013979
 21
191.7706246502
  0
LINE
  8
0
 62
7
  6
CONTINUOUS
 10
116.825415973
 20
192.3363100752
 11
116.5425732605
 21
192.6191527876
  0
LINE
  8
0
 62
7
  6
CONTINUOUS
 10
116.0568240474
 20
193.6890384932
 11
116.376902703
 21
193.3689598377
  0
LINE
  8
0
 62
7
  6
CONTINUOUS
 10
116.4325685493
 20
193.3132939913
 11
116.71089782
 21
193.0349647206
  0
LINE
  8
0
 62
7
  6
CONTINUOUS
 10
116.8355806567
 20
193.1596475573
 11
116.1815068841
 21
193.8137213299
  0
LINE
  8
0
 62
7
  6
CONTINUOUS
 10
118.027497501
 20
192.7605741439
 11
118.9820916556
 21
191.8059799893
  0
LINE
  8
0
 62
7
  6
CONTINUOUS
 10
117.2491170354
 20
194.4916705177
 11
117.2908664201
 21
194.4499211329
  0
LINE
  8
0
 62
7
  6
CONTINUOUS
 10
119.5831324196
 20
192.4070207533
 11
118.6638936041
 21
193.3262595688
  0
LINE
  8
0
 62
7
  6
CONTINUOUS
 10
85.6447158073
 20
233.7102416445
 11
86.1142724874
 21
233.0004345614
  0
LINE
  8
0
 62
7
  6
CONTINUOUS
 10
86.2880273507
 20
233.1153781266
 11
85.8184706706
 21
233.8251852097
  0
LINE
  8
0
 62
7
  6
CONTINUOUS
 10
86.5134901114
 20
234.2849594625
 11
87.0300024562
 21
233.504171676
  0
LINE
  8
0
 62
7
  6
CONTINUOUS
 10
87.1067188749
 20
234.6606547584
 11
87.7926223018
 21
233.484317623
  0
LINE
  8
0
 62
7
  6
CONTINUOUS
 10
87.9725957967
 20
233.5892572983
 11
87.4796026918
 21
234.4347496433
  0
LINE
  8
0
 62
7
  6
CONTINUOUS
 10
87.3938647709
 20
234.5817917723
 11
87.2866923698
 21
234.7655944336
  0
LINE
  8
0
 62
7
  6
CONTINUOUS
 10
88.213245071
 20
234.665490273
 11
88.6205002551
 21
233.9670400571
  0
LINE
  8
0
 62
7
  6
CONTINUOUS
 10
88.1519812461
 20
235.9903280511
 11
88.2523827728
 21
235.8027410706
  0
LINE
  8
0
 62
7
  6
CONTINUOUS
 10
88.4531858825
 20
235.4275670043
 11
89.0957557098
 21
234.2270102234
  0
LINE
  8
0
 62
7
  6
CONTINUOUS
 10
89.2794345801
 20
234.3253200259
 11
88.6368647528
 21
235.5258768067
  0
LINE
  8
0
 62
7
  6
CONTINUOUS
 10
88.4360616431
 20
235.901050873
 11
88.3356601164
 21
236.0886378536
  0
LINE
  8
0
 62
7
  6
CONTINUOUS
 10
90.6428089646
 20
237.199870697
 11
91.3801730983
 21
235.3407595829
  0
LINE
  8
0
 62
7
  6
CONTINUOUS
 10
91.6125619875
 20
235.4329300996
 11
91.2674128158
 21
236.3031523303
  0
LINE
  8
0
 62
7
  6
CONTINUOUS
 10
91.1732812355
 20
236.5404856357
 11
90.9693294342
 21
237.0547079083
  0
LINE
  8
0
 62
7
  6
CONTINUOUS
 10
92.4338899148
 20
237.8859834387
 11
93.091768431
 21
235.9972812764
  0
LINE
  8
0
 62
7
  6
CONTINUOUS
 10
93.2885083897
 20
236.0658103408
 11
92.6306298735
 21
237.9545125031
  0
LINE
  8
0
 62
7
  6
CONTINUOUS
 10
93.6276835043
 20
236.8103964108
 11
93.6028789846
 21
236.8918078996
  0
LINE
  8
0
 62
7
  6
CONTINUOUS
 10
93.5931270325
 20
237.0667746297
 11
93.5807247727
 21
237.1074803741
  0
LINE
  8
0
 62
7
  6
CONTINUOUS
 10
94.4053344814
 20
237.4032076166
 11
94.4301390011
 21
237.3217961278
  0
LINE
  8
0
 62
7
  6
CONTINUOUS
 10
100.1608029751
 20
238.8290179672
 11
100.2222020257
 21
238.1936800182
  0
LINE
  8
0
 62
7
  6
CONTINUOUS
 10
100.4710427288
 20
238.2177279803
 11
100.4096436782
 21
238.8530659293
  0
LINE
  8
0
 62
7
  6
CONTINUOUS
 10
102.2362992423
 20
239.5949373482
 11
102.2786986981
 21
237.8933378433
  0
LINE
  8
0
 62
7
  6
CONTINUOUS
 10
102.5360410291
 20
237.6017853567
 11
102.4862216688
 21
239.6011647683
  0
LINE
  8
0
 62
7
  6
CONTINUOUS
 10
104.2427055041
 20
238.4730718966
 11
104.2538186211
 21
238.7281490436
  0
LINE
  8
0
 62
7
  6
CONTINUOUS
 10
104.3684654813
 20
237.5305345363
 11
104.3795785996
 21
237.7856117131
  0
LINE
  8
0
 62
7
  6
CONTINUOUS
 10
104.4444051241
 20
239.2735619454
 11
104.4555182411
 21
239.5286390924
  0
LINE
  8
0
 62
7
  6
CONTINUOUS
 10
108.3268335602
 20
236.9680331483
 11
108.3734023293
 21
237.219069435
  0
LINE
  8
0
 62
7
  6
CONTINUOUS
 10
108.6372920279
 20
238.641608432
 11
108.6916222522
 21
238.9344840656
  0
LINE
  8
0
 62
7
  6
CONTINUOUS
 10
110.1894746997
 20
237.6839281526
 11
110.1152393293
 21
237.3954545493
  0
LINE
  8
0
 62
7
  6
CONTINUOUS
 10
110.306394728
 20
237.3023232983
 11
110.4018402042
 21
237.6732179312
  0
LINE
  8
0
 62
7
  6
CONTINUOUS
 10
112.0776152155
 20
237.4505246462
 11
112.0510578025
 21
237.3696679921
  0
LINE
  8
0
 62
7
  6
CONTINUOUS
 10
111.85162835
 20
236.6289555835
 11
111.8117922305
 21
236.5076706023
  0
LINE
  8
0
 62
7
  6
CONTINUOUS
 10
112.2357100748
 20
237.264229125
 11
112.2755461943
 21
237.3855141062
  0
LINE
  8
0
 62
7
  6
CONTINUOUS
 10
112.0097213972
 20
236.4426606575
 11
112.0495575167
 21
236.5639456386
  0
LINE
  8
0
 62
7
  6
CONTINUOUS
 10
115.7276776506
 20
234.2236173222
 11
116.6372134062
 21
236.0048373281
  0
LINE
  8
0
 62
7
  6
CONTINUOUS
 10
117.983529743
 20
233.6771168444
 11
118.0726400552
 21
233.822140123
  0
LINE
  8
0
 62
7
  6
CONTINUOUS
 10
120.0131046557
 20
231.694046882
 11
120.0645553133
 21
231.7618401304
  0
LINE
  8
0
 62
7
  6
CONTINUOUS
 10
123.6195152523
 20
230.1361510846
 11
123.5293845058
 21
230.045743994
  0
LINE
  8
0
 62
7
  6
CONTINUOUS
 10
123.6763880265
 20
229.8391024237
 11
123.7965623272
 21
229.959645183
  0
LINE
  8
0
 62
7
  6
CONTINUOUS
 10
124.8701695798
 20
228.4328553233
 11
124.3893404352
 21
228.0130607467
  0
LINE
  8
0
 62
7
  6
CONTINUOUS
 10
124.5537599819
 20
227.8247359936
 11
125.0345891265
 21
228.2445305701
  0
LINE
  8
0
 62
7
  6
CONTINUOUS
 10
126.5638919379
 20
226.6583751716
 11
125.3013482829
 21
225.7176661678
  0
LINE
  8
0
 62
7
  6
CONTINUOUS
 10
125.4507176132
 20
225.5171947155
 11
127.0544892314
 21
226.7121493575
  0
LINE
  8
0
 62
7
  6
CONTINUOUS
 10
87.2976687027
 20
233.4771538343
 11
86.6872450119
 21
234.3999030524
  0
LINE
  8
0
 62
7
  6
CONTINUOUS
 10
88.8004736471
 20
234.0719796723
 11
88.393218463
 21
234.7704298882
  0
LINE
  8
0
 62
7
  6
CONTINUOUS
 10
92.2744310404
 20
236.7025577855
 11
92.1802994601
 21
236.9398910909
  0
LINE
  8
0
 62
7
  6
CONTINUOUS
 10
92.1312738805
 20
237.5155604918
 11
92.0371423002
 21
237.7528937972
  0
LINE
  8
0
 62
7
  6
CONTINUOUS
 10
94.6790372299
 20
237.2196926829
 11
94.6294281732
 21
237.3825157175
  0
LINE
  8
0
 62
7
  6
CONTINUOUS
 10
108.8537239095
 20
237.676151458
 11
108.8410499815
 21
237.4597148694
  0
LINE
  8
0
 62
7
  6
CONTINUOUS
 10
110.4018402042
 20
237.6732179312
 11
110.4145122702
 21
237.8896549374
  0
LINE
  8
0
 62
7
  6
CONTINUOUS
 10
109.0428104332
 20
237.4077941332
 11
109.0660875669
 21
237.6654417119
  0
LINE
  8
0
 62
7
  6
CONTINUOUS
 10
110.2127536657
 20
237.9415751983
 11
110.1894746997
 21
237.6839281526
  0
LINE
  8
0
 62
7
  6
CONTINUOUS
 10
114.7724206737
 20
235.2847534892
 11
114.7321215549
 21
235.1142119163
  0
LINE
  8
0
 62
7
  6
CONTINUOUS
 10
116.8475137813
 20
234.3751477948
 11
116.7493499251
 21
234.1357988306
  0
LINE
  8
0
 62
7
  6
CONTINUOUS
 10
123.5212313816
 20
228.748576926
 11
123.6220483808
 21
228.8919105527
  0
LINE
  8
0
 62
7
  6
CONTINUOUS
 10
123.4576288341
 20
229.0802353058
 11
123.3247565616
 21
228.9089153766
  0
LINE
  8
0
 62
7
  6
CONTINUOUS
 10
125.0345891265
 20
228.2445305701
 11
125.1674614888
 21
228.4158505777
  0
LINE
  8
0
 62
7
  6
CONTINUOUS
 10
86.1142724874
 20
233.0004345614
 11
86.2429348078
 21
232.8814618441
  0
LINE
  8
0
 62
7
  6
CONTINUOUS
 10
87.4263309848
 20
233.3581811007
 11
87.2976687027
 21
233.4771538343
  0
LINE
  8
0
 62
7
  6
CONTINUOUS
 10
88.0700779091
 20
234.8283049633
 11
88.213245071
 21
234.665490273
  0
LINE
  8
0
 62
7
  6
CONTINUOUS
 10
88.393218463
 20
234.7704298882
 11
88.2500515071
 21
234.9332446986
  0
LINE
  8
0
 62
7
  6
CONTINUOUS
 10
117.4601949942
 20
194.4800850521
 11
117.4016327685
 21
194.5885204044
  0
LINE
  8
0
 62
7
  6
CONTINUOUS
 10
93.4035898125
 20
236.83108831
 11
93.5178613884
 21
236.5989978172
  0
LINE
  8
0
 62
7
  6
CONTINUOUS
 10
99.1187919404
 20
237.9160407515
 11
99.0609450949
 21
238.0814561645
  0
LINE
  8
0
 62
7
  6
CONTINUOUS
 10
98.8121043918
 20
238.0574082024
 11
98.874044507
 21
237.8496369301
  0
LINE
  8
0
 62
7
  6
CONTINUOUS
 10
100.4096436782
 20
238.8530659293
 11
100.3477035515
 21
239.0608373202
  0
LINE
  8
0
 62
7
  6
CONTINUOUS
 10
108.8410499815
 20
237.4597148694
 11
108.8495861743
 21
237.325699368
  0
LINE
  8
0
 62
7
  6
CONTINUOUS
 10
110.4145122702
 20
237.8896549374
 11
110.4059761071
 21
238.0236705543
  0
LINE
  8
0
 62
7
  6
CONTINUOUS
 10
110.5846226988
 20
236.9107351172
 11
110.597401911
 21
236.6825891186
  0
LINE
  8
0
 62
7
  6
CONTINUOUS
 10
112.5024810506
 20
189.9120320914
 11
112.4995845949
 21
189.9648014821
  0
LINE
  8
0
 62
7
  6
CONTINUOUS
 10
113.2737487469
 20
190.2379729584
 11
113.2766452026
 21
190.1852035678
  0
LINE
  8
0
 62
7
  6
CONTINUOUS
 10
114.9547740556
 20
235.0005199469
 11
114.9773151141
 21
235.2279090531
  0
LINE
  8
0
 62
7
  6
CONTINUOUS
 10
116.9491304464
 20
234.0629870207
 11
116.9804615919
 21
234.1935685641
  0
LINE
  8
0
 62
7
  6
CONTINUOUS
 10
118.0726400552
 20
233.822140123
 11
118.126248771
 21
233.9889774733
  0
LINE
  8
0
 62
7
  6
CONTINUOUS
 10
123.6801371684
 20
230.2559766387
 11
123.6195152523
 21
230.1361510846
  0
LINE
  8
0
 62
7
  6
CONTINUOUS
 10
123.7965623272
 20
229.959645183
 11
123.8571842433
 21
230.0794707372
  0
LINE
  8
0
 62
7
  6
CONTINUOUS
 10
125.6676759564
 20
227.8612038853
 11
124.7536622581
 21
226.4527261202
  0
LINE
  8
0
 62
7
  6
CONTINUOUS
 10
125.0238542976
 20
226.4462033615
 11
126.0835885847
 21
228.0152137973
  0
LINE
  8
0
 62
7
  6
CONTINUOUS
 10
124.9709865789
 20
228.57618895
 11
124.8701695798
 21
228.4328553233
  0
LINE
  8
0
 62
7
  6
CONTINUOUS
 10
87.1473916345
 20
233.3267198927
 11
87.3342827928
 21
233.1952455586
  0
LINE
  8
0
 62
7
  6
CONTINUOUS
 10
86.3932118254
 20
233.0318957879
 11
86.2880273507
 21
233.1153781266
  0
LINE
  8
0
 62
7
  6
CONTINUOUS
 10
88.2500515071
 20
234.9332446986
 11
88.1497533056
 21
235.0225383243
  0
LINE
  8
0
 62
7
  6
CONTINUOUS
 10
93.7047473884
 20
236.7004228733
 11
93.6276835043
 21
236.8103964108
  0
LINE
  8
0
 62
7
  6
CONTINUOUS
 10
94.6294281732
 20
237.3825157175
 11
94.539961117
 21
237.5331947215
  0
LINE
  8
0
 62
7
  6
CONTINUOUS
 10
116.4894347266
 20
193.9546516138
 11
116.5201639726
 21
193.8740491476
  0
LINE
  8
0
 62
7
  6
CONTINUOUS
 10
117.2908664201
 20
194.4499211329
 11
117.3215957204
 21
194.3693187015
  0
LINE
  8
0
 62
7
  6
CONTINUOUS
 10
100.1029561296
 20
238.9944333802
 11
100.1608029751
 21
238.8290179672
  0
LINE
  8
0
 62
7
  6
CONTINUOUS
 10
115.2982724299
 20
192.6521576049
 11
115.3150852045
 21
192.58547161
  0
LINE
  8
0
 62
7
  6
CONTINUOUS
 10
116.6448468093
 20
193.9987319843
 11
116.6280339536
 21
194.0654179176
  0
LINE
  8
0
 62
7
  6
CONTINUOUS
 10
112.0495575167
 20
236.5639456386
 11
112.0367801259
 21
236.7920910704
  0
LINE
  8
0
 62
7
  6
CONTINUOUS
 10
112.2755461943
 20
237.3855141062
 11
112.26276701
 21
237.6136601897
  0
LINE
  8
0
 62
7
  6
CONTINUOUS
 10
114.7270625903
 20
192.2757782568
 11
114.7299587655
 21
192.2230085759
  0
LINE
  8
0
 62
7
  6
CONTINUOUS
 10
114.8134575448
 20
192.1395097966
 11
114.8105613744
 21
192.1922794726
  0
LINE
  8
0
 62
7
  6
CONTINUOUS
 10
115.4565808872
 20
192.6434685231
 11
115.4507881184
 21
192.7490074471
  0
LINE
  8
0
 62
7
  6
CONTINUOUS
 10
115.4931029117
 20
192.4573271232
 11
115.4959992247
 21
192.4045575899
  0
LINE
  8
0
 62
7
  6
CONTINUOUS
 10
115.6485150559
 20
192.5014075747
 11
115.6456186002
 21
192.5541769654
  0
LINE
  8
0
 62
7
  6
CONTINUOUS
 10
117.3215957204
 20
194.3693187015
 11
117.3244920869
 21
194.3165492217
  0
LINE
  8
0
 62
7
  6
CONTINUOUS
 10
114.7321215549
 20
235.1142119163
 11
114.7305260942
 21
235.0194669569
  0
LINE
  8
0
 62
7
  6
CONTINUOUS
 10
116.045282466
 20
235.3037157885
 11
116.046876228
 21
235.3984616153
  0
LINE
  8
0
 62
7
  6
CONTINUOUS
 10
112.35808905
 20
189.9068047165
 11
112.3499655048
 21
189.815182392
  0
LINE
  8
0
 62
7
  6
CONTINUOUS
 10
113.4181407426
 20
190.2432003382
 11
113.4262645781
 21
190.3348229433
  0
LINE
  8
0
 62
7
  6
CONTINUOUS
 10
116.7493499251
 20
234.1357988306
 11
116.7312395088
 21
233.9471493295
  0
LINE
  8
0
 62
7
  6
CONTINUOUS
 10
116.940073621
 20
233.9686632814
 11
116.9491304464
 21
234.0629870207
  0
LINE
  8
0
 62
7
  6
CONTINUOUS
 10
119.0024619742
 20
232.5678997598
 11
118.9659405341
 21
232.3819352449
  0
LINE
  8
0
 62
7
  6
CONTINUOUS
 10
119.1501540076
 20
232.3489701867
 11
119.1684132038
 21
232.4419535913
  0
LINE
  8
0
 62
7
  6
CONTINUOUS
 10
119.4140672888
 20
233.1102458184
 11
119.3775458578
 21
232.9242813154
  0
LINE
  8
0
 62
7
  6
CONTINUOUS
 10
119.5617593222
 20
232.8913162453
 11
119.5800185184
 21
232.9842996499
  0
LINE
  8
0
 62
7
  6
CONTINUOUS
 10
119.9168632978
 20
231.9807697272
 11
119.8986040837
 21
231.8877862989
  0
LINE
  8
0
 62
7
  6
CONTINUOUS
 10
120.0645553133
 20
231.7618401304
 11
120.1010767623
 21
231.9478046572
  0
LINE
  8
0
 62
7
  6
CONTINUOUS
 10
120.3284685944
 20
232.5231157621
 11
120.3102093983
 21
232.4301323576
  0
LINE
  8
0
 62
7
  6
CONTINUOUS
 10
120.4761606279
 20
232.3041861891
 11
120.5126820589
 21
232.4901506921
  0
LINE
  8
0
 62
7
  6
CONTINUOUS
 10
123.3247565616
 20
228.9089153766
 11
123.2513411252
 21
228.7341961872
  0
LINE
  8
0
 62
7
  6
CONTINUOUS
 10
125.1674614888
 20
228.4158505777
 11
125.2408769027
 21
228.5905697475
  0
LINE
  8
0
 62
7
  6
CONTINUOUS
 10
124.1830527263
 20
227.6670216281
 11
124.3660795213
 21
227.7161928978
  0
LINE
  8
0
 62
7
  6
CONTINUOUS
 10
124.3091653016
 20
229.6577443066
 11
124.1261385291
 21
229.6085730565
  0
LINE
  8
0
 62
7
  6
CONTINUOUS
 10
86.2429348078
 20
232.8814618441
 11
86.3246414471
 21
232.833469855
  0
LINE
  8
0
 62
7
  6
CONTINUOUS
 10
87.5080376934
 20
233.3101891485
 11
87.4263309848
 21
233.3581811007
  0
LINE
  8
0
 62
7
  6
CONTINUOUS
 10
93.5178613884
 20
236.5989978172
 11
93.6471855579
 21
236.4604624803
  0
LINE
  8
0
 62
7
  6
CONTINUOUS
 10
93.7694099249
 20
236.631155358
 11
93.7047473884
 21
236.7004228733
  0
LINE
  8
0
 62
7
  6
CONTINUOUS
 10
98.874044507
 20
237.8496369301
 11
98.9733641731
 21
237.68822942
  0
LINE
  8
0
 62
7
  6
CONTINUOUS
 10
100.3477035515
 20
239.0608373202
 11
100.2483838883
 21
239.2222448007
  0
LINE
  8
0
 62
7
  6
CONTINUOUS
 10
108.8495861743
 20
237.325699368
 11
108.8878705053
 21
237.1400888905
  0
LINE
  8
0
 62
7
  6
CONTINUOUS
 10
110.4059761071
 20
238.0236705543
 11
110.3676917687
 21
238.2092810029
  0
LINE
  8
0
 62
7
  6
CONTINUOUS
 10
110.8897841303
 20
237.7062992497
 11
110.9158402462
 21
237.5185822016
  0
LINE
  8
0
 62
7
  6
CONTINUOUS
 10
115.932360755
 20
235.2658168138
 11
115.9485233546
 21
235.1142243211
  0
LINE
  8
0
 62
7
  6
CONTINUOUS
 10
117.4659877161
 20
194.3745460813
 11
117.4601949942
 21
194.4800850521
  0
LINE
  8
0
 62
7
  6
CONTINUOUS
 10
117.9355234499
 20
234.156114021
 11
117.9396938697
 21
234.0037183552
  0
LINE
  8
0
 62
7
  6
CONTINUOUS
 10
123.479871241
 20
228.6018440586
 11
123.5212313816
 21
228.748576926
  0
LINE
  8
0
 62
7
  6
CONTINUOUS
 10
125.0123468094
 20
228.7229218957
 11
124.9709865789
 21
228.57618895
  0
LINE
  8
0
 62
7
  6
CONTINUOUS
 10
114.1575485382
 20
191.1496056729
 11
114.1355085264
 21
191.0718998148
  0
LINE
  8
0
 62
7
  6
CONTINUOUS
 10
114.1911743728
 20
191.0162339685
 11
114.2132143845
 21
191.0939398266
  0
LINE
  8
0
 62
7
  6
CONTINUOUS
 10
114.8105613744
 20
192.1922794726
 11
114.8436216677
 21
192.3088385549
  0
LINE
  8
0
 62
7
  6
CONTINUOUS
 10
115.3150852045
 20
192.58547161
 11
115.2930450501
 21
192.5077656093
  0
LINE
  8
0
 62
7
  6
CONTINUOUS
 10
115.4345407523
 20
192.5657625029
 11
115.4565808872
 21
192.6434685231
  0
LINE
  8
0
 62
7
  6
CONTINUOUS
 10
115.6264747588
 20
192.4237014313
 11
115.6485150559
 21
192.5014075747
  0
LINE
  8
0
 62
40
  6
CONTINUOUS
 10
119.4813363899
 20
205.4574108536
 11
118.0671228275
 21
204.0431972913
  0
LINE
  8
0
 62
40
  6
CONTINUOUS
 10
106.5327423192
 20
192.508816783
 11
107.9469558816
 21
193.9230303453
  0
LINE
  8
0
 62
40
  6
CONTINUOUS
 10
112.0716526409
 20
195.7849854049
 11
116.205167768
 21
199.918500532
  0
LINE
  8
0
 62
7
  6
CONTINUOUS
 10
123.3480508638
 20
229.7458242414
 11
123.5567486178
 21
229.7781139655
  0
LINE
  8
0
 62
7
  6
CONTINUOUS
 10
124.2337152479
 20
227.9325039535
 11
124.0827437486
 21
227.9113190059
  0
LINE
  8
0
 62
7
  6
CONTINUOUS
 10
124.2585027127
 20
229.3922619225
 11
124.4094743017
 21
229.4134469485
  0
LINE
  8
0
 62
7
  6
CONTINUOUS
 10
86.5331472942
 20
232.9714021407
 11
86.3932118254
 21
233.0318957879
  0
LINE
  8
0
 62
7
  6
CONTINUOUS
 10
94.2884125805
 20
237.5010371806
 11
94.4053344814
 21
237.4032076166
  0
LINE
  8
0
 62
40
  6
CONTINUOUS
 10
118.0671228275
 20
215.1362337809
 11
119.4813363899
 21
213.7220202186
  0
LINE
  8
0
 62
40
  6
CONTINUOUS
 10
107.9469558816
 20
225.2564007269
 11
106.5327423192
 21
226.6706142892
  0
LINE
  8
0
 62
40
  6
CONTINUOUS
 10
112.0716526409
 20
223.3944456673
 11
116.205167768
 21
219.2609305403
  0
LINE
  8
0
 62
7
  6
CONTINUOUS
 10
99.214018334
 20
237.7969891304
 11
99.1187919404
 21
237.9160407515
  0
LINE
  8
0
 62
7
  6
CONTINUOUS
 10
100.0077297245
 20
239.1134851199
 11
100.1029561296
 21
238.9944333802
  0
LINE
  8
0
 62
7
  6
CONTINUOUS
 10
102.2786986981
 20
237.8933378433
 11
101.1949564344
 21
239.5689897806
  0
LINE
  8
0
 62
7
  6
CONTINUOUS
 10
101.0763551388
 20
239.3106361761
 11
102.1611573894
 21
237.5924442267
  0
LINE
  8
0
 62
7
  6
CONTINUOUS
 10
109.1405873613
 20
237.118994712
 11
109.0428104332
 21
237.4077941332
  0
LINE
  8
0
 62
7
  6
CONTINUOUS
 10
110.1149749127
 20
238.2303751814
 11
110.2127536657
 21
237.9415751983
  0
LINE
  8
0
 62
7
  6
CONTINUOUS
 10
110.8481970672
 20
236.6450050357
 11
110.7825536776
 21
236.8457245772
  0
LINE
  8
0
 62
7
  6
CONTINUOUS
 10
111.7859849697
 20
236.8296751533
 11
111.85162835
 21
236.6289555835
  0
LINE
  8
0
 62
7
  6
CONTINUOUS
 10
111.140328638
 20
237.5344283157
 11
111.1009920035
 21
237.6817176319
  0
LINE
  8
0
 62
7
  6
CONTINUOUS
 10
112.0382804303
 20
237.5978134805
 11
112.0776152155
 21
237.4505246462
  0
LINE
  8
0
 62
7
  6
CONTINUOUS
 10
118.126248771
 20
233.9889774733
 11
118.1088576063
 21
234.1994410715
  0
LINE
  8
0
 62
7
  6
CONTINUOUS
 10
123.2513411252
 20
228.7341961872
 11
123.2327338881
 21
228.4967001741
  0
LINE
  8
0
 62
7
  6
CONTINUOUS
 10
123.8571842433
 20
230.0794707372
 11
123.8888349224
 21
230.2882663628
  0
LINE
  8
0
 62
7
  6
CONTINUOUS
 10
116.5224950247
 20
194.0712106912
 11
116.4894347266
 21
193.9546516138
  0
LINE
  8
0
 62
7
  6
CONTINUOUS
 10
116.376902703
 20
193.3689598377
 11
116.3548624772
 21
193.2912537656
  0
LINE
  8
0
 62
7
  6
CONTINUOUS
 10
116.4105283235
 20
193.2355879192
 11
116.4325685493
 21
193.3132939913
  0
LINE
  8
0
 62
7
  6
CONTINUOUS
 10
117.3244920869
 20
194.3165492217
 11
117.291431784
 21
194.1999901492
  0
LINE
  8
0
 62
7
  6
CONTINUOUS
 10
117.4439475171
 20
194.2968400359
 11
117.4659877161
 21
194.3745460813
  0
LINE
  8
0
 62
7
  6
CONTINUOUS
 10
114.1355085264
 20
191.0718998148
 11
114.0885317619
 21
190.9692572039
  0
LINE
  8
0
 62
7
  6
CONTINUOUS
 10
114.7740393512
 20
192.3784208713
 11
114.7270625903
 21
192.2757782568
  0
LINE
  8
0
 62
7
  6
CONTINUOUS
 10
114.1441976082
 20
190.9135913576
 11
114.1911743728
 21
191.0162339685
  0
LINE
  8
0
 62
7
  6
CONTINUOUS
 10
116.6280339536
 20
194.0654179176
 11
116.6750107538
 21
194.1680605642
  0
LINE
  8
0
 62
7
  6
CONTINUOUS
 10
116.3548624772
 20
193.2912537656
 11
116.307885784
 21
193.188611226
  0
LINE
  8
0
 62
7
  6
CONTINUOUS
 10
116.3635516303
 20
193.1329453796
 11
116.4105283235
 21
193.2355879192
  0
LINE
  8
0
 62
7
  6
CONTINUOUS
 10
117.3969707436
 20
194.1941974161
 11
117.4439475171
 21
194.2968400359
  0
LINE
  8
0
 62
7
  6
CONTINUOUS
 10
112.4300022784
 20
190.0343837985
 11
112.35808905
 21
189.9068047165
  0
LINE
  8
0
 62
7
  6
CONTINUOUS
 10
112.4995845949
 20
189.9648014821
 11
112.5355413536
 21
190.0285911639
  0
LINE
  8
0
 62
7
  6
CONTINUOUS
 10
113.2766452026
 20
190.1852035678
 11
113.2406884439
 21
190.1214138859
  0
LINE
  8
0
 62
7
  6
CONTINUOUS
 10
113.3462275105
 20
190.1156212599
 11
113.4181407426
 21
190.2432003382
  0
LINE
  8
0
 62
7
  6
CONTINUOUS
 10
115.2930450501
 20
192.5077656093
 11
115.2570884341
 21
192.4439760701
  0
LINE
  8
0
 62
7
  6
CONTINUOUS
 10
115.3626273776
 20
192.4381832818
 11
115.4345407523
 21
192.5657625029
  0
LINE
  8
0
 62
7
  6
CONTINUOUS
 10
115.4959992247
 20
192.4045575899
 11
115.4600426087
 21
192.3407680507
  0
LINE
  8
0
 62
7
  6
CONTINUOUS
 10
116.5944083244
 20
194.1987898446
 11
116.5224950247
 21
194.0712106912
  0
LINE
  8
0
 62
7
  6
CONTINUOUS
 10
115.5905181428
 20
192.3599118921
 11
115.6264747588
 21
192.4237014313
  0
LINE
  8
0
 62
7
  6
CONTINUOUS
 10
117.291431784
 20
194.1999901492
 11
117.2554751145
 21
194.1362005565
  0
LINE
  8
0
 62
7
  6
CONTINUOUS
 10
114.8436216677
 20
192.3088385549
 11
114.940471505
 21
192.4613542483
  0
LINE
  8
0
 62
7
  6
CONTINUOUS
 10
112.5355413536
 20
190.0285911639
 11
112.6213710423
 21
190.1422537856
  0
LINE
  8
0
 62
7
  6
CONTINUOUS
 10
113.2406884439
 20
190.1214138859
 11
113.1548587503
 21
190.0077512692
  0
LINE
  8
0
 62
7
  6
CONTINUOUS
 10
114.0885317619
 20
190.9692572039
 11
114.0027017829
 21
190.8555943018
  0
LINE
  8
0
 62
7
  6
CONTINUOUS
 10
115.2570884341
 20
192.4439760701
 11
115.1712585978
 21
192.3303133106
  0
LINE
  8
0
 62
7
  6
CONTINUOUS
 10
114.0583676292
 20
190.7999284554
 11
114.1441976082
 21
190.9135913576
  0
LINE
  8
0
 62
7
  6
CONTINUOUS
 10
115.4600426087
 20
192.3407680507
 11
115.3742127724
 21
192.2271052912
  0
LINE
  8
0
 62
7
  6
CONTINUOUS
 10
116.307885784
 20
193.188611226
 11
116.2220559477
 21
193.0749484665
  0
LINE
  8
0
 62
7
  6
CONTINUOUS
 10
116.277721794
 20
193.0192826202
 11
116.3635516303
 21
193.1329453796
  0
LINE
  8
0
 62
7
  6
CONTINUOUS
 10
114.8848056537
 20
192.5170200995
 11
114.7740393512
 21
192.3784208713
  0
LINE
  8
0
 62
7
  6
CONTINUOUS
 10
112.5657051911
 20
190.1979196368
 11
112.4300022784
 21
190.0343837985
  0
LINE
  8
0
 62
7
  6
CONTINUOUS
 10
113.2105245966
 20
189.9520854228
 11
113.3462275105
 21
190.1156212599
  0
LINE
  8
0
 62
7
  6
CONTINUOUS
 10
115.2269244637
 20
192.2746474448
 11
115.3626273776
 21
192.4381832818
  0
LINE
  8
0
 62
7
  6
CONTINUOUS
 10
116.7550478116
 20
194.3872622573
 11
116.5944083244
 21
194.1987898446
  0
LINE
  8
0
 62
7
  6
CONTINUOUS
 10
116.6750107538
 20
194.1680605642
 11
116.8356502016
 21
194.3565329449
  0
LINE
  8
0
 62
7
  6
CONTINUOUS
 10
116.1815068841
 20
193.8137213299
 11
116.0568240474
 21
193.6890384932
  0
LINE
  8
0
 62
7
  6
CONTINUOUS
 10
115.607965921
 20
193.2401803667
 11
115.4832831557
 21
193.1154976014
  0
LINE
  8
0
 62
7
  6
CONTINUOUS
 10
115.0344250292
 20
192.666639475
 11
114.8848056537
 21
192.5170200995
  0
LINE
  8
0
 62
7
  6
CONTINUOUS
 10
114.6105035129
 20
192.2427179587
 11
114.4858206049
 21
192.1180350506
  0
LINE
  8
0
 62
7
  6
CONTINUOUS
 10
114.2863280091
 20
191.9185424549
 11
114.1616453865
 21
191.7938598322
  0
LINE
  8
0
 62
7
  6
CONTINUOUS
 10
113.9621527907
 20
191.5943672364
 11
113.8374698827
 21
191.4696843284
  0
LINE
  8
0
 62
7
  6
CONTINUOUS
 10
113.3886117562
 20
191.020826202
 11
113.2639291336
 21
190.8961435793
  0
LINE
  8
0
 62
7
  6
CONTINUOUS
 10
112.7153245666
 20
190.3475390123
 11
112.5657051911
 21
190.1979196368
  0
LINE
  8
0
 62
7
  6
CONTINUOUS
 10
112.6213710423
 20
190.1422537856
 11
112.7709904178
 21
190.2918731611
  0
LINE
  8
0
 62
7
  6
CONTINUOUS
 10
114.940471505
 20
192.4613542483
 11
115.0900908804
 21
192.6109736237
  0
LINE
  8
0
 62
7
  6
CONTINUOUS
 10
113.0510853322
 20
190.4606363731
 11
113.1757682403
 21
190.5853192811
  0
LINE
  8
0
 62
7
  6
CONTINUOUS
 10
116.918583632
 20
194.5229651522
 11
116.7550478116
 21
194.3872622573
  0
LINE
  8
0
 62
7
  6
CONTINUOUS
 10
117.0073097826
 20
194.5838583771
 11
116.918583632
 21
194.5229651522
  0
LINE
  8
0
 62
7
  6
CONTINUOUS
 10
116.8356502016
 20
194.3565329449
 11
117.013102523
 21
194.4783194102
  0
LINE
  8
0
 62
7
  6
CONTINUOUS
 10
115.2118773303
 20
192.7884259248
 11
115.1480876472
 21
192.7524691674
  0
LINE
  8
0
 62
7
  6
CONTINUOUS
 10
116.8843230601
 20
193.7093826558
 11
117.0119022098
 21
193.7812959592
  0
LINE
  8
0
 62
7
  6
CONTINUOUS
 10
115.0900908804
 20
192.6109736237
 11
115.2176699637
 21
192.6828868509
  0
LINE
  8
0
 62
7
  6
CONTINUOUS
 10
117.1099524049
 20
194.6308351482
 11
117.0073097826
 21
194.5838583771
  0
LINE
  8
0
 62
7
  6
CONTINUOUS
 10
116.981172938
 20
193.86189838
 11
116.8785302914
 21
193.8149215798
  0
LINE
  8
0
 62
7
  6
CONTINUOUS
 10
115.9866067359
 20
192.8116663316
 11
116.0892493468
 21
192.8586430961
  0
LINE
  8
0
 62
7
  6
CONTINUOUS
 10
117.5519182955
 20
233.2930458087
 11
117.7252524597
 21
233.3363728719
  0
LINE
  8
0
 62
7
  6
CONTINUOUS
 10
117.2519596357
 20
234.4762446296
 11
117.425293792
 21
234.51957168
  0
LINE
  8
0
 62
7
  6
CONTINUOUS
 10
117.2923476065
 20
234.7011499122
 11
117.1767909606
 21
234.6722655448
  0
LINE
  8
0
 62
7
  6
CONTINUOUS
 10
118.816532678
 20
233.7281044146
 11
118.6996990534
 21
233.7049261628
  0
LINE
  8
0
 62
7
  6
CONTINUOUS
 10
123.4097450971
 20
229.9847555358
 11
123.2906431977
 21
229.9833186011
  0
LINE
  8
0
 62
7
  6
CONTINUOUS
 10
123.9452177544
 20
227.6806272017
 11
124.1830527263
 21
227.6670216281
  0
LINE
  8
0
 62
7
  6
CONTINUOUS
 10
86.3246414471
 20
232.833469855
 11
86.4993278666
 21
232.7959649243
  0
LINE
  8
0
 62
7
  6
CONTINUOUS
 10
87.9552196331
 20
234.8598502057
 11
88.0700779091
 21
234.8283049633
  0
LINE
  8
0
 62
7
  6
CONTINUOUS
 10
88.1497533056
 20
235.0225383243
 11
88.0348950296
 21
235.0540835667
  0
LINE
  8
0
 62
7
  6
CONTINUOUS
 10
93.6471855579
 20
236.4604624803
 11
93.7517061156
 21
236.4033389243
  0
LINE
  8
0
 62
7
  6
CONTINUOUS
 10
93.9261898515
 20
236.545469739
 11
93.7694099249
 21
236.631155358
  0
LINE
  8
0
 62
7
  6
CONTINUOUS
 10
94.8824681352
 20
237.9814646934
 11
95.6081590485
 21
237.4549589983
  0
LINE
  8
0
 62
7
  6
CONTINUOUS
 10
96.5769949695
 20
236.9865995165
 11
95.8513031286
 21
237.5131049898
  0
LINE
  8
0
 62
7
  6
CONTINUOUS
 10
94.539961117
 20
237.5331947215
 11
94.3707789393
 21
237.6595860564
  0
LINE
  8
0
 62
7
  6
CONTINUOUS
 10
95.7594226552
 20
237.3598733297
 11
96.3338508894
 21
236.928453525
  0
LINE
  8
0
 62
7
  6
CONTINUOUS
 10
95.7000395081
 20
237.6081907164
 11
95.1256122153
 21
238.0396106849
  0
LINE
  8
0
 62
7
  6
CONTINUOUS
 10
98.9733641731
 20
237.68822942
 11
99.1556313717
 21
237.5348379732
  0
LINE
  8
0
 62
7
  6
CONTINUOUS
 10
108.8878705053
 20
237.1400888905
 11
108.9771112444
 21
236.9853049852
  0
LINE
  8
0
 62
7
  6
CONTINUOUS
 10
110.597401911
 20
236.6825891186
 11
110.6763240117
 21
236.5222979183
  0
LINE
  8
0
 62
7
  6
CONTINUOUS
 10
110.9158402462
 20
237.5185822016
 11
110.9947623516
 21
237.3582910155
  0
LINE
  8
0
 62
7
  6
CONTINUOUS
 10
114.7305260942
 20
235.0194669569
 11
114.783796871
 21
234.8489260785
  0
LINE
  8
0
 62
7
  6
CONTINUOUS
 10
116.046876228
 20
235.3984616153
 11
116.0113635047
 21
235.5121549471
  0
LINE
  8
0
 62
7
  6
CONTINUOUS
 10
116.7312395088
 20
233.9471493295
 11
116.757685866
 21
233.8310104564
  0
LINE
  8
0
 62
7
  6
CONTINUOUS
 10
116.9797423403
 20
233.7944554647
 11
116.940073621
 21
233.9686632814
  0
LINE
  8
0
 62
7
  6
CONTINUOUS
 10
123.6812094856
 20
230.375082379
 11
123.6801371684
 21
230.2559766387
  0
LINE
  8
0
 62
7
  6
CONTINUOUS
 10
125.2408769027
 20
228.5905697475
 11
125.2594841285
 21
228.8280657508
  0
LINE
  8
0
 62
7
  6
CONTINUOUS
 10
117.3360775174
 20
194.1054712668
 11
117.3969707436
 21
194.1941974161
  0
LINE
  8
0
 62
7
  6
CONTINUOUS
 10
117.2554751145
 20
194.1362005565
 11
117.1696453138
 21
194.0225378327
  0
LINE
  8
0
 62
7
  6
CONTINUOUS
 10
117.2003746214
 20
193.9419354475
 11
117.3360775174
 21
194.1054712668
  0
LINE
  8
0
 62
7
  6
CONTINUOUS
 10
115.4298786187
 20
192.1714394449
 11
115.5905181428
 21
192.3599118921
  0
LINE
  8
0
 62
7
  6
CONTINUOUS
 10
116.5201639726
 20
193.8740491476
 11
116.6448468093
 21
193.9987319843
  0
LINE
  8
0
 62
7
  6
CONTINUOUS
 10
115.1712585978
 20
192.3303133106
 11
114.8969563143
 21
192.0560110271
  0
LINE
  8
0
 62
7
  6
CONTINUOUS
 10
114.9526221802
 20
192.0003451612
 11
115.2269244637
 21
192.2746474448
  0
LINE
  8
0
 62
7
  6
CONTINUOUS
 10
116.8118443678
 20
193.8317344257
 11
116.6871615311
 21
193.707051589
  0
LINE
  8
0
 62
7
  6
CONTINUOUS
 10
115.617785677
 20
192.5820098885
 11
115.4931029117
 21
192.4573271232
  0
LINE
  8
0
 62
7
  6
CONTINUOUS
 10
112.7251444652
 20
189.6893686768
 11
112.6004618426
 21
189.5646860541
  0
LINE
  8
0
 62
7
  6
CONTINUOUS
 10
115.3742127724
 20
192.2271052912
 11
115.2245933969
 21
192.0774859158
  0
LINE
  8
0
 62
7
  6
CONTINUOUS
 10
113.1548587503
 20
190.0077512692
 11
113.0052393748
 21
189.8581318937
  0
LINE
  8
0
 62
7
  6
CONTINUOUS
 10
113.0609052212
 20
189.8024660473
 11
113.2105245966
 21
189.9520854228
  0
LINE
  8
0
 62
7
  6
CONTINUOUS
 10
113.9586214741
 20
190.7001823002
 11
114.0583676292
 21
190.7999284554
  0
LINE
  8
0
 62
7
  6
CONTINUOUS
 10
114.2827966925
 20
191.0243575186
 11
114.4074796005
 21
191.1490404267
  0
LINE
  8
0
 62
7
  6
CONTINUOUS
 10
114.6069721963
 20
191.3485330224
 11
114.7316548189
 21
191.4732156451
  0
LINE
  8
0
 62
7
  6
CONTINUOUS
 10
115.2802592432
 20
192.0218200694
 11
115.4298786187
 21
192.1714394449
  0
LINE
  8
0
 62
7
  6
CONTINUOUS
 10
116.1779754961
 20
192.9195363223
 11
116.277721794
 21
193.0192826202
  0
LINE
  8
0
 62
7
  6
CONTINUOUS
 10
114.8708194738
 20
191.3340509902
 11
114.7461368511
 21
191.2093683676
  0
LINE
  8
0
 62
7
  6
CONTINUOUS
 10
114.8157191591
 20
191.1397860596
 11
114.9404017817
 21
191.2644686823
  0
LINE
  8
0
 62
7
  6
CONTINUOUS
 10
116.71089782
 20
193.0349647206
 11
116.8355806567
 21
193.1596475573
  0
LINE
  8
0
 62
7
  6
CONTINUOUS
 10
117.2496800417
 20
193.3262595688
 11
117.0717235227
 21
193.1483030498
  0
LINE
  8
0
 62
7
  6
CONTINUOUS
 10
116.5425732605
 20
192.6191527876
 11
115.9415324965
 21
192.0181120236
  0
LINE
  8
0
 62
7
  6
CONTINUOUS
 10
115.8001111402
 20
191.8766906674
 11
115.1990703762
 21
191.2756499034
  0
LINE
  8
0
 62
7
  6
CONTINUOUS
 10
114.3858975779
 20
190.462477105
 11
113.7848568139
 21
189.861436341
  0
LINE
  8
0
 62
7
  6
CONTINUOUS
 10
113.6434354576
 20
189.7200149848
 11
113.0423946936
 21
189.1189742208
  0
LINE
  8
0
 62
7
  6
CONTINUOUS
 10
117.3911013979
 20
192.4777314314
 11
117.6739441104
 21
192.7605741439
  0
LINE
  8
0
 62
7
  6
CONTINUOUS
 10
115.9768878355
 20
189.7907256629
 11
115.6940451231
 21
189.5078829504
  0
LINE
  8
0
 62
7
  6
CONTINUOUS
 10
114.6687402903
 20
187.492628624
 11
115.2697810544
 21
188.093669388
  0
LINE
  8
0
 62
7
  6
CONTINUOUS
 10
116.1183091918
 20
188.9421975255
 11
116.2962657108
 21
189.1201540444
  0
LINE
  8
0
 62
7
  6
CONTINUOUS
 10
116.825415973
 20
189.6493043066
 11
117.426456737
 21
190.2503450707
  0
LINE
  8
0
 62
7
  6
CONTINUOUS
 10
117.5678780932
 20
190.3917664269
 11
118.1689188572
 21
190.9928071909
  0
LINE
  8
0
 62
7
  6
CONTINUOUS
 10
118.9820916556
 20
191.8059799893
 11
119.5831324196
 21
192.4070207533
  0
LINE
  8
0
 62
7
  6
CONTINUOUS
 10
117.1696453138
 20
194.0225378327
 11
116.981172938
 21
193.86189838
  0
LINE
  8
0
 62
7
  6
CONTINUOUS
 10
117.0119022098
 20
193.7812959592
 11
117.2003746214
 21
193.9419354475
  0
LINE
  8
0
 62
7
  6
CONTINUOUS
 10
112.8788604049
 20
190.483241925
 11
112.7153245666
 21
190.3475390123
  0
LINE
  8
0
 62
7
  6
CONTINUOUS
 10
112.7709904178
 20
190.2918731611
 11
112.9345262597
 21
190.4275760701
  0
LINE
  8
0
 62
7
  6
CONTINUOUS
 10
115.1167235489
 20
191.8861172982
 11
115.2802592432
 21
192.0218200694
  0
LINE
  8
0
 62
7
  6
CONTINUOUS
 10
113.0052393748
 20
189.8581318937
 11
112.8417035377
 21
189.7224289798
  0
LINE
  8
0
 62
7
  6
CONTINUOUS
 10
112.8973693841
 20
189.6667631334
 11
113.0609052212
 21
189.8024660473
  0
LINE
  8
0
 62
7
  6
CONTINUOUS
 10
115.1480876472
 20
192.7524691674
 11
115.0344250292
 21
192.666639475
  0
LINE
  8
0
 62
7
  6
CONTINUOUS
 10
116.2220559477
 20
193.0749484665
 11
116.1083931882
 21
192.9891186302
  0
LINE
  8
0
 62
7
  6
CONTINUOUS
 10
115.2245933969
 20
192.0774859158
 11
115.1109306374
 21
191.9916560795
  0
LINE
  8
0
 62
7
  6
CONTINUOUS
 10
114.0027017829
 20
190.8555943018
 11
113.8890391661
 21
190.7697646081
  0
LINE
  8
0
 62
7
  6
CONTINUOUS
 10
113.1513970288
 20
190.3104517416
 11
112.6578930619
 21
189.9561123905
  0
LINE
  8
0
 62
7
  6
CONTINUOUS
 10
112.6248327589
 20
189.839553318
 11
113.1183367453
 21
190.1938926496
  0
LINE
  8
0
 62
7
  6
CONTINUOUS
 10
116.0892493468
 20
192.8586430961
 11
116.1779754961
 21
192.9195363223
  0
LINE
  8
0
 62
7
  6
CONTINUOUS
 10
112.9675865554
 20
190.5441351499
 11
112.8788604049
 21
190.483241925
  0
LINE
  8
0
 62
7
  6
CONTINUOUS
 10
113.8698953247
 20
190.6392890741
 11
113.9586214741
 21
190.7001823002
  0
LINE
  8
0
 62
7
  6
CONTINUOUS
 10
112.8086432348
 20
189.6058699073
 11
112.8973693841
 21
189.6667631334
  0
LINE
  8
0
 62
7
  6
CONTINUOUS
 10
116.1083931882
 20
192.9891186302
 11
116.044603649
 21
192.9531620142
  0
LINE
  8
0
 62
7
  6
CONTINUOUS
 10
115.1109306374
 20
191.9916560795
 11
115.0471412409
 21
191.9556996061
  0
LINE
  8
0
 62
7
  6
CONTINUOUS
 10
112.9345262597
 20
190.4275760701
 11
112.9983159416
 21
190.4635328288
  0
LINE
  8
0
 62
7
  6
CONTINUOUS
 10
113.8890391661
 20
190.7697646081
 11
113.8252494842
 21
190.7338078495
  0
LINE
  8
0
 62
7
  6
CONTINUOUS
 10
112.8417035377
 20
189.7224289798
 11
112.7779138559
 21
189.6864722211
  0
LINE
  8
0
 62
7
  6
CONTINUOUS
 10
115.0140809379
 20
191.8391405336
 11
115.1167235489
 21
191.8861172982
  0
LINE
  8
0
 62
7
  6
CONTINUOUS
 10
113.0702291688
 20
190.591111912
 11
112.9675865554
 21
190.5441351499
  0
LINE
  8
0
 62
7
  6
CONTINUOUS
 10
113.7672527138
 20
190.5923123095
 11
113.8698953247
 21
190.6392890741
  0
LINE
  8
0
 62
7
  6
CONTINUOUS
 10
113.1183367453
 20
190.1938926496
 11
113.2209793562
 21
190.2408694142
  0
LINE
  8
0
 62
7
  6
CONTINUOUS
 10
112.6578930619
 20
189.9561123905
 11
112.555250451
 21
189.909135626
  0
LINE
  8
0
 62
7
  6
CONTINUOUS
 10
112.7060006238
 20
189.5588931427
 11
112.8086432348
 21
189.6058699073
  0
LINE
  8
0
 62
7
  6
CONTINUOUS
 10
113.2928925883
 20
190.3684484925
 11
113.1513970288
 21
190.3104517416
  0
LINE
  8
0
 62
7
  6
CONTINUOUS
 10
112.483337219
 20
189.7815565476
 11
112.6248327589
 21
189.839553318
  0
LINE
  8
0
 62
7
  6
CONTINUOUS
 10
111.4677954628
 20
236.1279694917
 11
111.7055625646
 21
236.1842439434
  0
LINE
  8
0
 62
7
  6
CONTINUOUS
 10
115.6227315578
 20
234.6594440385
 11
115.4727016629
 21
234.6404934363
  0
LINE
  8
0
 62
7
  6
CONTINUOUS
 10
115.4369741926
 20
235.8532324041
 11
115.2869442977
 21
235.8342818018
  0
LINE
  8
0
 62
7
  6
CONTINUOUS
 10
117.5700287039
 20
233.4816952972
 11
117.4189721178
 21
233.4746240536
  0
LINE
  8
0
 62
7
  6
CONTINUOUS
 10
117.4434041927
 20
234.7082211558
 11
117.2923476065
 21
234.7011499122
  0
LINE
  8
0
 62
7
  6
CONTINUOUS
 10
118.9677542724
 20
233.7277521625
 11
118.816532678
 21
233.7281044146
  0
LINE
  8
0
 62
7
  6
CONTINUOUS
 10
86.4993278666
 20
232.7959649243
 11
86.6505364704
 21
232.7939503606
  0
LINE
  8
0
 62
7
  6
CONTINUOUS
 10
124.5470002623
 20
229.6441387233
 11
124.3091653016
 21
229.6577443066
  0
LINE
  8
0
 62
7
  6
CONTINUOUS
 10
88.0348950296
 20
235.0540835667
 11
87.8840419928
 21
235.0646408381
  0
LINE
  8
0
 62
7
  6
CONTINUOUS
 10
123.1398906192
 20
229.7730860408
 11
123.3480508638
 21
229.7458242414
  0
LINE
  8
0
 62
7
  6
CONTINUOUS
 10
124.0827437486
 20
227.9113190059
 11
123.9364234062
 21
227.9495087579
  0
LINE
  8
0
 62
7
  6
CONTINUOUS
 10
93.7517061156
 20
236.4033389243
 11
93.8960837758
 21
236.358359071
  0
LINE
  8
0
 62
7
  6
CONTINUOUS
 10
94.1440349224
 20
237.5460170268
 11
94.2884125805
 21
237.5010371806
  0
LINE
  8
0
 62
7
  6
CONTINUOUS
 10
99.3466252278
 20
237.7243013632
 11
99.214018334
 21
237.7969891304
  0
LINE
  8
0
 62
7
  6
CONTINUOUS
 10
100.2483838883
 20
239.2222448007
 11
100.0661166912
 21
239.3756362326
  0
LINE
  8
0
 62
7
  6
CONTINUOUS
 10
108.9771112444
 20
236.9853049852
 11
109.1470565345
 21
236.8097526939
  0
LINE
  8
0
 62
7
  6
CONTINUOUS
 10
109.240433157
 20
237.0054213358
 11
109.1405873613
 21
237.118994712
  0
LINE
  8
0
 62
7
  6
CONTINUOUS
 10
110.6763240117
 20
236.5222979183
 11
110.8344188676
 21
236.3360023865
  0
LINE
  8
0
 62
7
  6
CONTINUOUS
 10
111.2588362143
 20
237.3611352597
 11
111.140328638
 21
237.5344283157
  0
LINE
  8
0
 62
7
  6
CONTINUOUS
 10
112.0367801259
 20
236.7920910704
 11
111.9182707375
 21
236.9653847216
  0
LINE
  8
0
 62
7
  6
CONTINUOUS
 10
111.9197710419
 20
237.7711071317
 11
112.0382804303
 21
237.5978134805
  0
LINE
  8
0
 62
7
  6
CONTINUOUS
 10
110.3676917687
 20
238.2092810029
 11
110.2784510259
 21
238.3640648938
  0
LINE
  8
0
 62
7
  6
CONTINUOUS
 10
114.783796871
 20
234.8489260785
 11
114.8564194717
 21
234.7162834968
  0
LINE
  8
0
 62
7
  6
CONTINUOUS
 10
115.0273966614
 20
234.8678773752
 11
114.9547740556
 21
235.0005199469
  0
LINE
  8
0
 62
7
  6
CONTINUOUS
 10
115.8597381491
 20
235.3984593855
 11
115.932360755
 21
235.2658168138
  0
LINE
  8
0
 62
7
  6
CONTINUOUS
 10
112.26276701
 20
237.6136601897
 11
112.1838449046
 21
237.7739513758
  0
LINE
  8
0
 62
7
  6
CONTINUOUS
 10
116.757685866
 20
233.8310104564
 11
116.8196321672
 21
233.6930584657
  0
LINE
  8
0
 62
7
  6
CONTINUOUS
 10
117.8735771448
 20
234.2940660054
 11
117.9355234499
 21
234.156114021
  0
LINE
  8
0
 62
7
  6
CONTINUOUS
 10
118.9659405341
 20
232.3819352449
 11
119.0140612176
 21
232.2385738282
  0
LINE
  8
0
 62
7
  6
CONTINUOUS
 10
119.6098800101
 20
232.7479548346
 11
119.5617593222
 21
232.8913162453
  0
LINE
  8
0
 62
7
  6
CONTINUOUS
 10
119.8687426099
 20
232.124131138
 11
119.9168632978
 21
231.9807697272
  0
LINE
  8
0
 62
7
  6
CONTINUOUS
 10
120.5126820589
 20
232.4901506921
 11
120.464561371
 21
232.6335121028
  0
LINE
  8
0
 62
7
  6
CONTINUOUS
 10
119.3775458578
 20
232.9242813154
 11
119.4331326423
 21
232.7218330768
  0
LINE
  8
0
 62
7
  6
CONTINUOUS
 10
120.1010767623
 20
231.9478046572
 11
120.0454899418
 21
232.1502528483
  0
LINE
  8
0
 62
7
  6
CONTINUOUS
 10
123.8888349224
 20
230.2882663628
 11
123.8609360026
 21
230.4963421745
  0
LINE
  8
0
 62
7
  6
CONTINUOUS
 10
123.4979704453
 20
228.4517090575
 11
123.479871241
 21
228.6018440586
  0
LINE
  8
0
 62
7
  6
CONTINUOUS
 10
111.471546204
 20
238.1422754568
 11
111.2337791057
 21
238.0860010157
  0
LINE
  8
0
 62
7
  6
CONTINUOUS
 10
87.8840419928
 20
235.0646408381
 11
87.7546234362
 21
235.0384375773
  0
LINE
  8
0
 62
7
  6
CONTINUOUS
 10
111.6399191704
 20
236.3849634708
 11
111.4550162495
 21
236.3561154868
  0
LINE
  8
0
 62
7
  6
CONTINUOUS
 10
111.8523785022
 20
237.0318167885
 11
111.9448281505
 21
237.0462413757
  0
LINE
  8
0
 62
7
  6
CONTINUOUS
 10
110.9942628666
 20
237.0897167182
 11
111.1791639753
 21
237.1185652974
  0
LINE
  8
0
 62
7
  6
CONTINUOUS
 10
111.060656399
 20
237.2918583534
 11
110.9682049386
 21
237.2774343614
  0
LINE
  8
0
 62
7
  6
CONTINUOUS
 10
94.0280591751
 20
236.3540849657
 11
94.2796077127
 21
236.3862425029
  0
LINE
  8
0
 62
7
  6
CONTINUOUS
 10
86.7191068528
 20
232.9923762738
 11
86.5331472942
 21
232.9714021407
  0
LINE
  8
0
 62
7
  6
CONTINUOUS
 10
87.8617958373
 20
234.8546349159
 11
87.9552196331
 21
234.8598502057
  0
LINE
  8
0
 62
7
  6
CONTINUOUS
 10
94.1901406522
 20
236.5369215212
 11
94.0183072328
 21
236.5290516637
  0
LINE
  8
0
 62
7
  6
CONTINUOUS
 10
115.3759425396
 20
234.4510019457
 11
115.4695124301
 21
234.4510026302
  0
LINE
  8
0
 62
7
  6
CONTINUOUS
 10
115.3208632589
 20
235.6258426432
 11
115.5080030364
 21
235.6258440056
  0
LINE
  8
0
 62
7
  6
CONTINUOUS
 10
93.8960837758
 20
236.358359071
 11
94.0280591751
 21
236.3540849657
  0
LINE
  8
0
 62
7
  6
CONTINUOUS
 10
109.6439522131
 20
236.9015803388
 11
109.4315885557
 21
236.9122900849
  0
LINE
  8
0
 62
7
  6
CONTINUOUS
 10
111.4550162495
 20
236.3561154868
 11
111.2833938472
 21
236.3676952346
  0
LINE
  8
0
 62
7
  6
CONTINUOUS
 10
117.3653633884
 20
233.3077866811
 11
117.5519182955
 21
233.2930458087
  0
LINE
  8
0
 62
7
  6
CONTINUOUS
 10
117.425293792
 20
234.51957168
 11
117.5185744928
 21
234.512199242
  0
LINE
  8
0
 62
7
  6
CONTINUOUS
 10
109.3785632838
 20
236.7062374822
 11
109.6312801407
 21
236.6851433073
  0
LINE
  8
0
 62
7
  6
CONTINUOUS
 10
99.3297110813
 20
237.4661581571
 11
99.5411722367
 21
237.4438423237
  0
LINE
  8
0
 62
7
  6
CONTINUOUS
 10
111.2565857764
 20
236.1525517011
 11
111.4677954628
 21
236.1279694917
  0
LINE
  8
0
 62
7
  6
CONTINUOUS
 10
118.7547989808
 20
233.5640996998
 11
118.9404053967
 21
233.5402190979
  0
LINE
  8
0
 62
7
  6
CONTINUOUS
 10
99.5166126159
 20
237.6979775092
 11
99.3466252278
 21
237.7243013632
  0
LINE
  8
0
 62
7
  6
CONTINUOUS
 10
94.0183072328
 20
236.5290516637
 11
93.9261898515
 21
236.545469739
  0
LINE
  8
0
 62
7
  6
CONTINUOUS
 10
119.685335305
 20
231.6757000648
 11
119.8695487762
 21
231.6427350037
  0
LINE
  8
0
 62
7
  6
CONTINUOUS
 10
119.8139619647
 20
231.8451832066
 11
119.7218567518
 21
231.8616645886
  0
LINE
  8
0
 62
7
  6
CONTINUOUS
 10
119.6646606374
 20
233.0269027422
 11
119.7567658502
 21
233.0104213602
  0
LINE
  8
0
 62
7
  6
CONTINUOUS
 10
119.7932872813
 20
233.1963858633
 11
119.6090738168
 21
233.2293509333
  0
LINE
  8
0
 62
7
  6
CONTINUOUS
 10
115.2081562814
 20
234.488898006
 11
115.3759425396
 21
234.4510019457
  0
LINE
  8
0
 62
7
  6
CONTINUOUS
 10
115.4727016629
 20
234.6404934363
 11
115.3049154064
 21
234.6783895
  0
LINE
  8
0
 62
7
  6
CONTINUOUS
 10
117.5721832085
 20
234.6790365923
 11
117.4434041927
 21
234.7082211558
  0
LINE
  8
0
 62
7
  6
CONTINUOUS
 10
94.3707789393
 20
237.6595860564
 11
94.1342839
 21
237.7209839778
  0
LINE
  8
0
 62
7
  6
CONTINUOUS
 10
124.4094743017
 20
229.4134469485
 11
124.5557946217
 21
229.3752571769
  0
LINE
  8
0
 62
7
  6
CONTINUOUS
 10
119.0949454501
 20
233.6922813576
 11
118.9677542724
 21
233.7277521625
  0
LINE
  8
0
 62
7
  6
CONTINUOUS
 10
99.1556313717
 20
237.5348379732
 11
99.3297110813
 21
237.4661581571
  0
LINE
  8
0
 62
7
  6
CONTINUOUS
 10
100.0661166912
 20
239.3756362326
 11
99.8920360334
 21
239.4443159459
  0
LINE
  8
0
 62
7
  6
CONTINUOUS
 10
123.7714958408
 20
227.750202509
 11
123.9452177544
 21
227.6806272017
  0
LINE
  8
0
 62
7
  6
CONTINUOUS
 10
124.7207246764
 20
229.574560535
 11
124.5470002623
 21
229.6441387233
  0
LINE
  8
0
 62
7
  6
CONTINUOUS
 10
119.7218567518
 20
231.8616645886
 11
119.5633686071
 21
231.928526271
  0
LINE
  8
0
 62
7
  6
CONTINUOUS
 10
117.0945813597
 20
233.4242257343
 11
117.3653633884
 21
233.3077866811
  0
LINE
  8
0
 62
7
  6
CONTINUOUS
 10
117.4189721178
 20
233.4746240536
 11
117.1481900832
 21
233.5910630973
  0
LINE
  8
0
 62
7
  6
CONTINUOUS
 10
109.1470565345
 20
236.8097526939
 11
109.3785632838
 21
236.7062374822
  0
LINE
  8
0
 62
7
  6
CONTINUOUS
 10
109.4315885557
 20
236.9122900849
 11
109.240433157
 21
237.0054213358
  0
LINE
  8
0
 62
7
  6
CONTINUOUS
 10
123.2906431977
 20
229.9833186011
 11
123.1720761061
 21
230.0414358832
  0
LINE
  8
0
 62
7
  6
CONTINUOUS
 10
119.460467283
 20
231.7929397623
 11
119.685335305
 21
231.6757000648
  0
LINE
  8
0
 62
7
  6
CONTINUOUS
 10
99.8751228336
 20
239.1861728575
 11
100.0077297245
 21
239.1134851199
  0
LINE
  8
0
 62
7
  6
CONTINUOUS
 10
110.8344188676
 20
236.3360023865
 11
111.0190693266
 21
236.2305641111
  0
LINE
  8
0
 62
7
  6
CONTINUOUS
 10
111.1250501514
 20
236.4197033095
 11
110.97998335
 21
236.5121403067
  0
LINE
  8
0
 62
7
  6
CONTINUOUS
 10
123.9364234062
 20
227.9495087579
 11
123.7947542654
 21
228.0470732487
  0
LINE
  8
0
 62
7
  6
CONTINUOUS
 10
123.6024226031
 20
227.8791554141
 11
123.7714958408
 21
227.750202509
  0
LINE
  8
0
 62
7
  6
CONTINUOUS
 10
116.9038560406
 20
233.5913622852
 11
117.0945813597
 21
233.4242257343
  0
LINE
  8
0
 62
7
  6
CONTINUOUS
 10
114.8564194717
 20
234.7162834968
 11
114.9855037807
 21
234.6025899755
  0
LINE
  8
0
 62
7
  6
CONTINUOUS
 10
115.1564792734
 20
234.7541847245
 11
115.0273966614
 21
234.8678773752
  0
LINE
  8
0
 62
7
  6
CONTINUOUS
 10
110.97998335
 20
236.5121403067
 11
110.8481970672
 21
236.6450050357
  0
LINE
  8
0
 62
7
  6
CONTINUOUS
 10
110.9947623516
 20
237.3582910155
 11
111.060656399
 21
237.2918583534
  0
LINE
  8
0
 62
7
  6
CONTINUOUS
 10
111.6541968748
 20
236.9625404774
 11
111.7859849697
 21
236.8296751533
  0
LINE
  8
0
 62
7
  6
CONTINUOUS
 10
111.9182707375
 20
236.9653847216
 11
111.8523785022
 21
237.0318167885
  0
LINE
  8
0
 62
7
  6
CONTINUOUS
 10
117.1481900832
 20
233.5910630973
 11
117.0284679006
 21
233.7145714128
  0
LINE
  8
0
 62
7
  6
CONTINUOUS
 10
110.2784510259
 20
238.3640648938
 11
110.1085075801
 21
238.5396166989
  0
LINE
  8
0
 62
7
  6
CONTINUOUS
 10
119.087907232
 20
232.1291090387
 11
119.261324592
 21
231.9440760869
  0
LINE
  8
0
 62
7
  6
CONTINUOUS
 10
119.3642259161
 20
232.0796625956
 11
119.1908085629
 21
232.2646955563
  0
LINE
  8
0
 62
7
  6
CONTINUOUS
 10
110.015129117
 20
238.3439485575
 11
110.1149749127
 21
238.2303751814
  0
LINE
  8
0
 62
7
  6
CONTINUOUS
 10
112.1838449046
 20
237.7739513758
 11
112.0257518574
 21
237.9602463018
  0
LINE
  8
0
 62
7
  6
CONTINUOUS
 10
116.8196321672
 20
233.6930584657
 11
116.9038560406
 21
233.5913622852
  0
LINE
  8
0
 62
7
  6
CONTINUOUS
 10
119.4331326423
 20
232.7218330768
 11
119.8687426099
 21
232.124131138
  0
LINE
  8
0
 62
7
  6
CONTINUOUS
 10
120.0454899418
 20
232.1502528483
 11
119.6098800101
 21
232.7479548346
  0
LINE
  8
0
 62
7
  6
CONTINUOUS
 10
116.0113635047
 20
235.5121549471
 11
115.9564972605
 21
235.5879508529
  0
LINE
  8
0
 62
7
  6
CONTINUOUS
 10
119.0140612176
 20
232.2385738282
 11
119.087907232
 21
232.1291090387
  0
LINE
  8
0
 62
7
  6
CONTINUOUS
 10
120.464561371
 20
232.6335121028
 11
120.3907153543
 21
232.7429768894
  0
LINE
  8
0
 62
7
  6
CONTINUOUS
 10
117.0284679006
 20
233.7145714128
 11
116.9797423403
 21
233.7944554647
  0
LINE
  8
0
 62
7
  6
CONTINUOUS
 10
123.2782372005
 20
228.3151767685
 11
123.3831973771
 21
228.1302541271
  0
LINE
  8
0
 62
7
  6
CONTINUOUS
 10
118.1088576063
 20
234.1994410715
 11
117.9981889911
 21
234.4172751107
  0
LINE
  8
0
 62
7
  6
CONTINUOUS
 10
123.5755290394
 20
228.2981719617
 11
123.4979704453
 21
228.4517090575
  0
LINE
  8
0
 62
7
  6
CONTINUOUS
 10
119.1908085629
 20
232.2646955563
 11
119.1501540076
 21
232.3489701867
  0
LINE
  8
0
 62
7
  6
CONTINUOUS
 10
120.2878140391
 20
232.6073903925
 11
120.3284685944
 21
232.5231157621
  0
LINE
  8
0
 62
7
  6
CONTINUOUS
 10
123.2327338881
 20
228.4967001741
 11
123.2782372005
 21
228.3151767685
  0
LINE
  8
0
 62
7
  6
CONTINUOUS
 10
125.2594841285
 20
228.8280657508
 11
125.2139833166
 21
229.0095862755
  0
LINE
  8
0
 62
7
  6
CONTINUOUS
 10
124.9942475826
 20
228.8730568773
 11
125.0123468094
 21
228.7229218957
  0
LINE
  8
0
 62
7
  6
CONTINUOUS
 10
95.1991782066
 20
236.6571054907
 11
95.4423222866
 21
236.7152514822
  0
LINE
  8
0
 62
7
  6
CONTINUOUS
 10
96.3338508894
 20
236.928453525
 11
96.5769949695
 21
236.9865995165
  0
LINE
  8
0
 62
7
  6
CONTINUOUS
 10
96.2602848981
 20
238.3109587192
 11
96.017140818
 21
238.2528127277
  0
LINE
  8
0
 62
7
  6
CONTINUOUS
 10
95.1256122153
 20
238.0396106849
 11
94.8824681352
 21
237.9814646934
  0
LINE
  8
0
 62
7
  6
CONTINUOUS
 10
93.8924863859
 20
237.513859486
 11
94.1440349224
 21
237.5460170268
  0
LINE
  8
0
 62
7
  6
CONTINUOUS
 10
94.1342839
 20
237.7209839778
 11
93.8827353634
 21
237.688826437
  0
LINE
  8
0
 62
7
  6
CONTINUOUS
 10
99.5411722367
 20
237.4438423237
 11
99.8729595244
 21
237.4759062426
  0
LINE
  8
0
 62
7
  6
CONTINUOUS
 10
99.8483999036
 20
237.7300414281
 11
99.5166126159
 21
237.6979775092
  0
LINE
  8
0
 62
7
  6
CONTINUOUS
 10
99.3733481578
 20
239.1804327926
 11
99.7051354455
 21
239.2124967115
  0
LINE
  8
0
 62
7
  6
CONTINUOUS
 10
99.6805758276
 20
239.4666318673
 11
99.3487885398
 21
239.4345679484
  0
LINE
  8
0
 62
7
  6
CONTINUOUS
 10
100.8698921551
 20
237.5602692389
 11
101.1198145815
 21
237.566496659
  0
LINE
  8
0
 62
7
  6
CONTINUOUS
 10
102.1611573894
 20
237.5924442267
 11
102.5360410291
 21
237.6017853567
  0
LINE
  8
0
 62
7
  6
CONTINUOUS
 10
102.4862216688
 20
239.6011647683
 11
102.2362992423
 21
239.5949373482
  0
LINE
  8
0
 62
7
  6
CONTINUOUS
 10
101.1949564344
 20
239.5689897806
 11
100.8200727947
 21
239.5596486505
  0
LINE
  8
0
 62
7
  6
CONTINUOUS
 10
102.8698870643
 20
237.5958241061
 11
104.3684654813
 21
237.5305345363
  0
LINE
  8
0
 62
7
  6
CONTINUOUS
 10
104.3795785996
 20
237.7856117131
 11
103.130763252
 21
237.8400196879
  0
LINE
  8
0
 62
7
  6
CONTINUOUS
 10
103.1603982344
 20
238.5202255024
 11
104.2427055041
 21
238.4730718966
  0
LINE
  8
0
 62
7
  6
CONTINUOUS
 10
104.2538186211
 20
238.7281490436
 11
103.1715113513
 21
238.7753026494
  0
LINE
  8
0
 62
7
  6
CONTINUOUS
 10
103.1955897766
 20
239.3279699203
 11
104.4444051241
 21
239.2735619454
  0
LINE
  8
0
 62
7
  6
CONTINUOUS
 10
104.4555182411
 20
239.5286390924
 11
102.956939824
 21
239.5939286622
  0
LINE
  8
0
 62
7
  6
CONTINUOUS
 10
109.6116100609
 20
238.4477895546
 11
109.8239755654
 21
238.4370793331
  0
LINE
  8
0
 62
7
  6
CONTINUOUS
 10
111.1791639753
 20
237.1185652974
 11
111.3507881897
 21
237.1069849543
  0
LINE
  8
0
 62
7
  6
CONTINUOUS
 10
111.7338691138
 20
237.2051104397
 11
111.5622467115
 21
237.2166901876
  0
LINE
  8
0
 62
7
  6
CONTINUOUS
 10
111.4447381424
 20
237.9271319516
 11
111.6163623568
 21
237.9155516086
  0
LINE
  8
0
 62
7
  6
CONTINUOUS
 10
109.87700083
 20
238.643131907
 11
109.624283974
 21
238.6642260855
  0
LINE
  8
0
 62
7
  6
CONTINUOUS
 10
99.8920360334
 20
239.4443159459
 11
99.6805758276
 21
239.4666318673
  0
LINE
  8
0
 62
7
  6
CONTINUOUS
 10
111.6827558893
 20
238.1176932438
 11
111.471546204
 21
238.1422754568
  0
LINE
  8
0
 62
7
  6
CONTINUOUS
 10
99.7051354455
 20
239.2124967115
 11
99.8751228336
 21
239.1861728575
  0
LINE
  8
0
 62
7
  6
CONTINUOUS
 10
106.6881250876
 20
237.2720236089
 11
108.3268335602
 21
236.9680331483
  0
LINE
  8
0
 62
7
  6
CONTINUOUS
 10
108.3734023293
 20
237.219069435
 11
106.9805002213
 21
237.4774613091
  0
LINE
  8
0
 62
7
  6
CONTINUOUS
 10
107.0141064765
 20
239.0292776451
 11
108.4479756868
 21
238.7632861225
  0
LINE
  8
0
 62
7
  6
CONTINUOUS
 10
108.6916222522
 20
238.9344840656
 11
107.0529137795
 21
239.2384745263
  0
LINE
  8
0
 62
7
  6
CONTINUOUS
 10
115.6047621478
 20
235.815335473
 11
115.4369741926
 21
235.8532324041
  0
LINE
  8
0
 62
7
  6
CONTINUOUS
 10
117.5185744928
 20
234.512199242
 11
117.6828518238
 21
234.4612025531
  0
LINE
  8
0
 62
7
  6
CONTINUOUS
 10
111.0190693266
 20
236.2305641111
 11
111.2565857764
 21
236.1525517011
  0
LINE
  8
0
 62
7
  6
CONTINUOUS
 10
111.2833938472
 20
236.3676952346
 11
111.1250501514
 21
236.4197033095
  0
LINE
  8
0
 62
7
  6
CONTINUOUS
 10
111.3507881897
 20
237.1069849543
 11
111.5091318855
 21
237.0549768794
  0
LINE
  8
0
 62
7
  6
CONTINUOUS
 10
111.5622467115
 20
237.2166901876
 11
111.4039030157
 21
237.2686982625
  0
LINE
  8
0
 62
7
  6
CONTINUOUS
 10
111.6163623568
 20
237.9155516086
 11
111.7747060526
 21
237.8635435337
  0
LINE
  8
0
 62
7
  6
CONTINUOUS
 10
111.8410995851
 20
238.0656851689
 11
111.6827558893
 21
238.1176932438
  0
LINE
  8
0
 62
7
  6
CONTINUOUS
 10
117.80746367
 20
234.5844116585
 11
117.5721832085
 21
234.6790365923
  0
LINE
  8
0
 62
7
  6
CONTINUOUS
 10
119.290909419
 20
233.6097516992
 11
119.0949454501
 21
233.6922813576
  0
LINE
  8
0
 62
7
  6
CONTINUOUS
 10
119.7567658502
 20
233.0104213602
 11
119.9152539859
 21
232.943559666
  0
LINE
  8
0
 62
7
  6
CONTINUOUS
 10
110.1085075801
 20
238.5396166989
 11
109.87700083
 21
238.643131907
  0
LINE
  8
0
 62
7
  6
CONTINUOUS
 10
118.9404053967
 20
233.5402190979
 11
119.1707573353
 21
233.4341589355
  0
LINE
  8
0
 62
7
  6
CONTINUOUS
 10
114.0084751588
 20
235.0704747455
 11
114.2355147198
 21
234.9658179839
  0
LINE
  8
0
 62
7
  6
CONTINUOUS
 10
115.0727688128
 20
236.7821344716
 11
114.8457292518
 21
236.8867912333
  0
LINE
  8
0
 62
7
  6
CONTINUOUS
 10
109.8239755654
 20
238.4370793331
 11
110.015129117
 21
238.3439485575
  0
LINE
  8
0
 62
7
  6
CONTINUOUS
 10
114.9855037807
 20
234.6025899755
 11
115.2081562814
 21
234.488898006
  0
LINE
  8
0
 62
7
  6
CONTINUOUS
 10
115.5421350325
 20
234.3183600518
 11
115.7276776506
 21
234.2236173222
  0
LINE
  8
0
 62
7
  6
CONTINUOUS
 10
115.3049154064
 20
234.6783895
 11
115.1564792734
 21
234.7541847245
  0
LINE
  8
0
 62
7
  6
CONTINUOUS
 10
115.5080030364
 20
235.6258440056
 11
115.7306555372
 21
235.5121520361
  0
LINE
  8
0
 62
7
  6
CONTINUOUS
 10
115.8274146486
 20
235.7016435035
 11
115.6047621478
 21
235.815335473
  0
LINE
  8
0
 62
7
  6
CONTINUOUS
 10
116.6372134062
 20
236.0048373281
 11
116.4516707881
 21
236.0995800577
  0
LINE
  8
0
 62
7
  6
CONTINUOUS
 10
120.0181553011
 20
233.0791461628
 11
119.7932872813
 21
233.1963858633
  0
LINE
  8
0
 62
7
  6
CONTINUOUS
 10
116.0163335504
 20
234.0563914286
 11
116.1979984162
 21
233.9544065315
  0
LINE
  8
0
 62
7
  6
CONTINUOUS
 10
117.1770504409
 20
235.6983839203
 11
116.9953855752
 21
235.8003688175
  0
LINE
  8
0
 62
7
  6
CONTINUOUS
 10
112.0257518574
 20
237.9602463018
 11
111.8410995851
 21
238.0656851689
  0
LINE
  8
0
 62
7
  6
CONTINUOUS
 10
117.8498643215
 20
233.4595820026
 11
117.6723629956
 21
233.5686486209
  0
LINE
  8
0
 62
7
  6
CONTINUOUS
 10
117.0250167324
 20
234.266080178
 11
117.983529743
 21
233.6771168444
  0
LINE
  8
0
 62
7
  6
CONTINUOUS
 10
117.8951387292
 20
233.9312067413
 11
117.1496286098
 21
234.3892893341
  0
LINE
  8
0
 62
7
  6
CONTINUOUS
 10
111.5091318855
 20
237.0549768794
 11
111.6541968748
 21
236.9625404774
  0
LINE
  8
0
 62
7
  6
CONTINUOUS
 10
111.4039030157
 20
237.2686982625
 11
111.2588362143
 21
237.3611352597
  0
LINE
  8
0
 62
7
  6
CONTINUOUS
 10
111.7747060526
 20
237.8635435337
 11
111.9197710419
 21
237.7711071317
  0
LINE
  8
0
 62
7
  6
CONTINUOUS
 10
122.962306035
 20
229.8900404189
 11
123.1398906192
 21
229.7730860408
  0
LINE
  8
0
 62
7
  6
CONTINUOUS
 10
117.9029714505
 20
232.9094940589
 11
118.0749081509
 21
232.7918436935
  0
LINE
  8
0
 62
7
  6
CONTINUOUS
 10
118.8438815538
 20
233.9156374792
 11
118.6719448534
 21
234.0332878446
  0
LINE
  8
0
 62
7
  6
CONTINUOUS
 10
124.5557946217
 20
229.3752571769
 11
124.6974637625
 21
229.2776926861
  0
LINE
  8
0
 62
7
  6
CONTINUOUS
 10
119.261324592
 20
231.9440760869
 11
119.460467283
 21
231.7929397623
  0
LINE
  8
0
 62
7
  6
CONTINUOUS
 10
119.5633686071
 20
231.928526271
 11
119.3642259161
 21
232.0796625956
  0
LINE
  8
0
 62
7
  6
CONTINUOUS
 10
119.1684132038
 20
232.4419535913
 11
119.0024619742
 21
232.5678997598
  0
LINE
  8
0
 62
7
  6
CONTINUOUS
 10
120.3102093983
 20
232.4301323576
 11
120.4761606279
 21
232.3041861891
  0
LINE
  8
0
 62
7
  6
CONTINUOUS
 10
119.9152539859
 20
232.943559666
 11
120.1143966769
 21
232.7924233414
  0
LINE
  8
0
 62
7
  6
CONTINUOUS
 10
120.2172979921
 20
232.9280098382
 11
120.0181553011
 21
233.0791461628
  0
LINE
  8
0
 62
7
  6
CONTINUOUS
 10
124.8897954023
 20
229.445610501
 11
124.7207246764
 21
229.574560535
  0
LINE
  8
0
 62
7
  6
CONTINUOUS
 10
117.6828518238
 20
234.4612025531
 11
117.8735771448
 21
234.2940660054
  0
LINE
  8
0
 62
7
  6
CONTINUOUS
 10
117.9981889911
 20
234.4172751107
 11
117.80746367
 21
234.5844116585
  0
LINE
  8
0
 62
7
  6
CONTINUOUS
 10
115.7306555372
 20
235.5121520361
 11
115.8597381491
 21
235.3984593855
  0
LINE
  8
0
 62
7
  6
CONTINUOUS
 10
115.9564972605
 20
235.5879508529
 11
115.8274146486
 21
235.7016435035
  0
LINE
  8
0
 62
7
  6
CONTINUOUS
 10
121.6232030147
 20
229.9632148976
 11
121.8002500896
 21
229.786708996
  0
LINE
  8
0
 62
7
  6
CONTINUOUS
 10
122.4311648105
 20
230.4195581236
 11
122.962306035
 21
229.8900404189
  0
LINE
  8
0
 62
7
  6
CONTINUOUS
 10
123.1720761061
 20
230.0414358832
 11
122.6114261353
 21
230.6003721359
  0
LINE
  8
0
 62
7
  6
CONTINUOUS
 10
123.0620795314
 20
231.0524072512
 11
123.6227295023
 21
230.4934709985
  0
LINE
  8
0
 62
7
  6
CONTINUOUS
 10
123.7434385266
 20
230.6735678901
 11
123.0352502273
 21
231.3795914964
  0
LINE
  8
0
 62
7
  6
CONTINUOUS
 10
120.1143966769
 20
232.7924233414
 11
120.2878140391
 21
232.6073903925
  0
LINE
  8
0
 62
7
  6
CONTINUOUS
 10
120.3907153543
 20
232.7429768894
 11
120.2172979921
 21
232.9280098382
  0
LINE
  8
0
 62
7
  6
CONTINUOUS
 10
123.3831973771
 20
228.1302541271
 11
123.6024226031
 21
227.8791554141
  0
LINE
  8
0
 62
7
  6
CONTINUOUS
 10
123.7947542654
 20
228.0470732487
 11
123.5755290394
 21
228.2981719617
  0
LINE
  8
0
 62
7
  6
CONTINUOUS
 10
124.6974637625
 20
229.2776926861
 11
124.9166889885
 21
229.0265939731
  0
LINE
  8
0
 62
7
  6
CONTINUOUS
 10
125.1090206284
 20
229.194511788
 11
124.8897954023
 21
229.445610501
  0
LINE
  8
0
 62
7
  6
CONTINUOUS
 10
124.2557629711
 20
227.1209663337
 11
124.4051323014
 21
226.9204948814
  0
LINE
  8
0
 62
7
  6
CONTINUOUS
 10
124.7536622581
 20
226.4527261202
 11
124.9528206054
 21
226.1854318701
  0
LINE
  8
0
 62
7
  6
CONTINUOUS
 10
125.3013482829
 20
225.7176661678
 11
125.4507176132
 21
225.5171947155
  0
LINE
  8
0
 62
7
  6
CONTINUOUS
 10
127.0544892314
 20
226.7121493575
 11
126.830435236
 21
227.0128565359
  0
LINE
  8
0
 62
7
  6
CONTINUOUS
 10
126.0835885847
 20
228.0152137973
 11
125.8595345894
 21
228.3159209758
  0
LINE
  8
0
 62
7
  6
CONTINUOUS
 10
123.8609360026
 20
230.4963421745
 11
123.7434385266
 21
230.6735678901
  0
LINE
  8
0
 62
7
  6
CONTINUOUS
 10
125.2139833166
 20
229.0095862755
 11
125.1090206284
 21
229.194511788
  0
LINE
  8
0
 62
7
  6
CONTINUOUS
 10
124.9166889885
 20
229.0265939731
 11
124.9942475826
 21
228.8730568773
  0
LINE
  8
0
 62
7
  6
CONTINUOUS
 10
123.6227295023
 20
230.4934709985
 11
123.6812094856
 21
230.375082379
  0
LINE
  8
0
 62
7
  6
CONTINUOUS
 10
65.9504376368
 20
98.6597374179
 11
65.9504376368
 21
82.6597374179
  0
LINE
  8
0
 62
7
  6
CONTINUOUS
 10
136.8503716457
 20
80.6597374179
 11
67.9505036278
 21
80.6597374179
  0
LINE
  8
DEFAULT_1
 62
2
  6
CENTER
 10
102.4004376368
 20
78.6597374179
 11
102.4004376368
 21
102.6597374179
  0
LINE
  8
0
 62
7
  6
CONTINUOUS
 10
136.8503716473
 20
100.6597374179
 11
67.9505036262
 21
100.6597374179
  0
LINE
  8
0
 62
7
  6
CONTINUOUS
 10
138.8504376368
 20
98.6597374179
 11
138.8504376368
 21
82.6597374179
  0
ARC
  8
0
 62
40
  6
CONTINUOUS
 10
96.0053912545
 20
190.2460750832
 40
3.2
 50
2.2544307753
 51
45.0
  0
ARC
  8
0
 62
40
  6
CONTINUOUS
 10
94.5911776921
 20
191.6602886455
 40
3.2
 50
45.0
 51
86.4096221093
  0
ARC
  8
0
 62
40
  6
CONTINUOUS
 10
94.9919643324
 20
198.0477271047
 40
3.2
 50
225.0
 51
266.4096221093
  0
ARC
  8
0
 62
40
  6
CONTINUOUS
 10
90.8584492053
 20
202.1812422317
 40
3.2
 50
183.5903778907
 51
225.0
  0
ARC
  8
0
 62
40
  6
CONTINUOUS
 10
84.4710107462
 20
201.7804555915
 40
3.2
 50
3.5903778907
 51
45.0
  0
ARC
  8
0
 62
40
  6
CONTINUOUS
 10
83.0567971838
 20
203.1946691538
 40
3.2
 50
45.0
 51
87.7455692247
  0
ARC
  8
0
 62
40
  6
CONTINUOUS
 10
83.3085545447
 20
209.5897155361
 40
3.2
 50
92.2544307753
 51
267.7455692247
  0
ARC
  8
0
 62
40
  6
CONTINUOUS
 10
83.0567971838
 20
215.9847619184
 40
3.2
 50
272.2544307753
 51
315.0
  0
ARC
  8
0
 62
40
  6
CONTINUOUS
 10
84.4710107462
 20
217.3989754807
 40
3.2
 50
315.0
 51
356.4096221093
  0
ARC
  8
0
 62
40
  6
CONTINUOUS
 10
90.8584492053
 20
216.9981888405
 40
3.2
 50
135.0
 51
176.4096221093
  0
ARC
  8
0
 62
40
  6
CONTINUOUS
 10
94.9919643324
 20
221.1317039675
 40
3.2
 50
93.5903778907
 51
135.0
  0
ARC
  8
0
 62
40
  6
CONTINUOUS
 10
94.5911776921
 20
227.5191424267
 40
3.2
 50
273.5903778907
 51
315.0
  0
ARC
  8
0
 62
40
  6
CONTINUOUS
 10
96.0053912545
 20
228.933355989
 40
3.2
 50
315.0
 51
357.7455692247
  0
ARC
  8
0
 62
40
  6
CONTINUOUS
 10
121.7440780897
 20
203.1946691538
 40
3.2
 50
92.2544307753
 51
135.0
  0
ARC
  8
0
 62
40
  6
CONTINUOUS
 10
120.3298645273
 20
201.7804555915
 40
3.2
 50
135.0
 51
176.4096221093
  0
ARC
  8
0
 62
40
  6
CONTINUOUS
 10
113.9424260682
 20
202.1812422317
 40
3.2
 50
315.0
 51
356.4096221093
  0
ARC
  8
0
 62
40
  6
CONTINUOUS
 10
109.8089109411
 20
198.0477271047
 40
3.2
 50
273.5903778907
 51
315.0
  0
ARC
  8
0
 62
40
  6
CONTINUOUS
 10
110.2096975814
 20
191.6602886455
 40
3.2
 50
93.5903778907
 51
135.0
  0
ARC
  8
0
 62
40
  6
CONTINUOUS
 10
108.795484019
 20
190.2460750832
 40
3.2
 50
135.0
 51
177.7455692247
  0
ARC
  8
0
 62
40
  6
CONTINUOUS
 10
102.4004376368
 20
190.4978324441
 40
3.2
 50
182.2544307753
 51
357.7455692247
  0
CIRCLE
  8
0
 62
7
  6
CONTINUOUS
 10
115.9768878355
 20
186.7855218428
 40
1.275
  0
ARC
  8
0
 62
7
  6
CONTINUOUS
 10
117.9567868229
 20
192.6191527876
 40
1.0
 50
45.0
 51
135.0
  0
ARC
  8
0
 62
7
  6
CONTINUOUS
 10
115.4112024106
 20
189.6493043066
 40
1.0
 50
225.0
 51
315.0
  0
ARC
  8
0
 62
7
  6
CONTINUOUS
 10
117.7081196258
 20
192.5119069468
 40
0.9
 50
135.0
 51
191.2510114041
  0
ARC
  8
0
 62
7
  6
CONTINUOUS
 10
115.6598696077
 20
189.7565501475
 40
0.9
 50
315.0
 51
11.2510114041
  0
ARC
  8
0
 62
7
  6
CONTINUOUS
 10
117.7446547885
 20
192.1241780408
 40
0.5
 50
135.0
 51
225.0
  0
ARC
  8
0
 62
7
  6
CONTINUOUS
 10
115.6233344449
 20
190.1442790535
 40
0.5
 50
315.0
 51
45.0
  0
ARC
  8
0
 62
7
  6
CONTINUOUS
 10
117.8507208057
 20
192.5837974486
 40
0.25
 50
45.0
 51
135.0
  0
ARC
  8
0
 62
7
  6
CONTINUOUS
 10
115.5172684278
 20
189.6846596457
 40
0.25
 50
225.0
 51
315.0
  0
CIRCLE
  8
0
 62
7
  6
CONTINUOUS
 10
102.4004376368
 20
209.5897155361
 40
36.45
  0
CIRCLE
  8
0
 62
4
  6
CONTINUOUS
 10
102.4004376368
 20
209.5897155361
 40
9.525
  0
ARC
  8
0
 62
40
  6
CONTINUOUS
 10
121.4923207288
 20
209.5897155361
 40
3.2
 50
272.2544307753
 51
87.7455692247
  0
ARC
  8
0
 62
40
  6
CONTINUOUS
 10
102.4004376368
 20
228.6815986281
 40
3.2
 50
2.2544307753
 51
177.7455692247
  0
ARC
  8
0
 62
40
  6
CONTINUOUS
 10
108.795484019
 20
228.933355989
 40
3.2
 50
182.2544307753
 51
225.0
  0
ARC
  8
0
 62
40
  6
CONTINUOUS
 10
110.2096975814
 20
227.5191424267
 40
3.2
 50
225.0
 51
266.4096221093
  0
ARC
  8
0
 62
40
  6
CONTINUOUS
 10
109.8089109411
 20
221.1317039675
 40
3.2
 50
45.0
 51
86.4096221093
  0
ARC
  8
0
 62
40
  6
CONTINUOUS
 10
113.9424260682
 20
216.9981888405
 40
3.2
 50
3.5903778907
 51
45.0
  0
ARC
  8
0
 62
40
  6
CONTINUOUS
 10
120.3298645273
 20
217.3989754807
 40
3.2
 50
183.5903778907
 51
225.0
  0
ARC
  8
0
 62
40
  6
CONTINUOUS
 10
121.7440780897
 20
215.9847619184
 40
3.2
 50
225.0
 51
267.7455692247
  0
ARC
  8
0
 62
7
  6
CONTINUOUS
 10
67.9504376368
 20
98.6597374179
 40
2.0
 50
89.9999999953
 51
180.0
  0
ARC
  8
0
 62
7
  6
CONTINUOUS
 10
136.8504376368
 20
98.6597374179
 40
2.0
 50
0.0
 51
90.0000000046
  0
ARC
  8
0
 62
7
  6
CONTINUOUS
 10
67.9504376368
 20
82.6597374179
 40
2.0
 50
180.0
 51
270.0000000757
  0
ARC
  8
0
 62
7
  6
CONTINUOUS
 10
136.8504376368
 20
82.6597374179
 40
2.0
 50
269.9999999243
 51
360.0
  0
ENDSEC
  0
EOF
