  0
SECTION
  2
HEADER
  9
$EXTMAX
 10
210.0
 20
297.0
 30
0.0
  9
$EXTMIN
 10
0.0
 20
0.0
 30
0.0
  9
$LIMMIN
 10
0.0
 20
0.0
  9
$LIMMAX
 10
210.0
 20
297.0
  9
$VIEWCTR
 10
105.0
 20
148.5
  9
$VIEWSIZE
 40
297.0
  9
$CLAYER
  8
0
  9
$LTSCALE
 40
19.36
  9
$CELTYPE
  6
BYLAYER
  9
$DIMSCALE
 40
1.0
  9
$DIMASZ
 40
3.5
  9
$DIMEXO
 40
2.2
  9
$DIMDLI
 40
13.376
  9
$DIMEXE
 40
6.336
  9
$DIMCEN
 40
3.168
  9
$DIMLFAC
 40
1.0
  9
$DIMBLK
  1
_FILLED
  9
$DIMTXT
 40
3.5
  9
$PDMODE
 70
3
  9
$PDSIZE
 40
0.3125
  9
$TILEMODE
 70
1
  0
ENDSEC
  0
SECTION
  2
TABLES
  0
TABLE
  2
LTYPE
 70
6
  0
LTYPE
  2
BYBLOCK
 70
0
  3

 72
65
 73
0
 40
0.0
  0
LTYPE
  2
BYLAYER
 70
0
  3

 72
65
 73
0
 40
0.0
  0
LTYPE
  2
CONTINUOUS
 70
64
  3
Solid line
 72
65
 73
0
 40
0.0
  0
LTYPE
  2
CENTER
 70
64
  3
____ _ ____ _ ____ _ ____ _ ____ _ ____ _ ____
 72
65
 73
4
 40
0.6
 49
0.375
 49
-0.075
 49
0.075
 49
-0.075
  0
LTYPE
  2
HIDDEN
 70
64
  3
- - - - - - - - - - - - - - - - - - - -
 72
65
 73
2
 40
0.2
 49
0.1
 49
-0.1
  0
LTYPE
  2
PHANTOM
 70
64
  3
_____ _ _ _____ _ _ _____ _ _ _____
 72
65
 73
6
 40
0.8
 49
0.45
 49
-0.05
 49
0.1
 49
-0.05
 49
0.1
 49
-0.05
  0
LTYPE
  2
DOT
 70
64
  3
. . . . . . . . . . . . . . . . . . . .
 72
65
 73
2
 40
0.2
 49
0.1
 49
-0.1
  0
LTYPE
  2
DASHED
 70
64
  3
- - - - - - - - - - - - - - - - - - - -
 72
65
 73
2
 40
0.2
 49
0.1
 49
-0.1
  0
ENDTAB
  0
TABLE
  2
LAYER
 70
36
  0
LAYER
  2
0
 70
0
 62
7
  6
CONTINUOUS
  0
LAYER
  2
DEFAULT_1
 70
0
 62
7
  6
CENTER
  0
LAYER
  2
DEFAULT_2
 70
0
 62
8
  6
HIDDEN
  0
LAYER
  2
DEFAULT_3
 70
0
 62
7
  6
PHANTOM
  0
LAYER
  2
BLANK_CURVE
 70
0
 62
7
  6
CONTINUOUS
  0
LAYER
  2
HUB_SQ_NAV
 70
0
 62
7
  6
CONTINUOUS
  0
LAYER
  2
LAY0001
 70
0
 62
7
  6
CONTINUOUS
  0
ENDTAB
  0
TABLE
  2
STYLE
 70
1
  0
STYLE
  2
STANDARD
 70
0
 40
0.0
 41
0.8
 50
0.0
 71
0
 42
0.2
  3
txt
  4

  0
STYLE
  2
TEXTSTYLE_1
 70
0
 40
0.0
 41
0.8
 50
0.0
 71
0
 42
0.2
  3
gdt
  4

  0
STYLE
  2
TEXTSTYLE_2
 70
0
 40
0.0
 41
0.6
 50
0.0
 71
0
 42
0.2
  3
txt
  4

  0
STYLE
  2
TEXTSTYLE_3
 70
0
 40
0.0
 41
1.0
 50
0.0
 71
0
 42
0.2
  3
ftb_____.ttf
  4

  0
STYLE
  2
TEXTSTYLE_4
 70
0
 40
0.0
 41
1.0
 50
0.0
 71
0
 42
0.2
  3
fti_____.ttf
  4

  0
STYLE
  2
TEXTSTYLE_5
 70
0
 40
0.0
 41
1.0
 50
0.0
 71
0
 42
0.2
  3
frutiger light.ttf
  4

  0
STYLE
  2
TEXTSTYLE_6
 70
0
 40
0.0
 41
0.7
 50
0.0
 71
0
 42
0.2
  3
txt
  4

  0
STYLE
  2
TEXTSTYLE_7
 70
0
 40
0.0
 41
0.8
 50
0.0
 71
0
 42
0.2
  3
txt
  4

  0
ENDTAB
  0
ENDSEC
  0
SECTION
  2
BLOCKS
  0
BLOCK
  8
0
 62
2
  6
CONTINUOUS
  2
SYMBOL_8_BL1
 70
64
 10
173.5956734183
 20
35.5937998301
  0
TEXT
  8
0
 62
7
  6
CONTINUOUS
 10
164.6539584268
 20
30.6865562072
  7
TEXTSTYLE_4
 40
1.0655737705
  1
The brand for plastic modular belts and chains
 41
1.0
 72
0
  0
LINE
  8
0
 62
7
  6
CONTINUOUS
 10
149.5737418074
 20
36.1675703219
 11
149.5737418074
 21
34.0364227809
  0
LINE
  8
0
 62
7
  6
CONTINUOUS
 10
149.8628043005
 20
31.0454914852
 11
149.8628043005
 21
31.1422825445
  0
LINE
  8
0
 62
7
  6
CONTINUOUS
 10
149.5737418074
 20
31.1100188581
 11
149.6315543091
 21
30.9164367395
  0
LINE
  8
0
 62
7
  6
CONTINUOUS
 10
150.9671844304
 20
33.9544555678
 11
150.9671844304
 21
36.1675703219
  0
LINE
  8
0
 62
7
  6
CONTINUOUS
 10
151.8862417523
 20
32.1101932727
 11
151.8862417523
 21
30.5937998301
  0
LINE
  8
0
 62
7
  6
CONTINUOUS
 10
152.1753043074
 20
30.5937998301
 11
152.1753043074
 21
31.3358647082
  0
LINE
  8
0
 62
7
  6
CONTINUOUS
 10
152.1753043074
 20
31.4649194539
 11
152.1753043074
 21
32.1101932727
  0
LINE
  8
0
 62
7
  6
CONTINUOUS
 10
149.6315543091
 20
31.3036010218
 11
149.5737418074
 21
31.1100188581
  0
LINE
  8
0
 62
7
  6
CONTINUOUS
 10
149.9784292936
 20
30.8841730531
 11
149.8628043005
 21
31.0454914852
  0
LINE
  8
0
 62
7
  6
CONTINUOUS
 10
151.0768668626
 20
31.400392081
 11
151.1346793074
 21
31.3036010218
  0
LINE
  8
0
 62
7
  6
CONTINUOUS
 10
151.4237418626
 20
31.3036010218
 11
151.3659292523
 21
31.4326557675
  0
LINE
  8
0
 62
7
  6
CONTINUOUS
 10
152.852430332
 20
36.1675703219
 11
152.852430332
 21
34.3642916334
  0
LINE
  8
0
 62
7
  6
CONTINUOUS
 10
152.852430332
 20
33.0528162235
 11
152.852430332
 21
32.3970785186
  0
LINE
  8
0
 62
7
  6
CONTINUOUS
 10
153.2159293074
 20
31.2390736489
 11
153.2159293074
 21
30.5937998301
  0
LINE
  8
0
 62
7
  6
CONTINUOUS
 10
153.5049916972
 20
30.5937998301
 11
153.5049916972
 21
31.2390736489
  0
LINE
  8
0
 62
7
  6
CONTINUOUS
 10
149.8628043005
 20
31.1422825445
 11
149.9206168074
 21
31.2713373354
  0
LINE
  8
0
 62
7
  6
CONTINUOUS
 10
149.6315543091
 20
30.9164367395
 11
149.7471793074
 21
30.7873819712
  0
LINE
  8
0
 62
7
  6
CONTINUOUS
 10
153.1581166972
 20
31.3681283946
 11
153.2159293074
 21
31.2390736489
  0
LINE
  8
0
 62
7
  6
CONTINUOUS
 10
153.9674919177
 20
30.8841730531
 11
154.0253041972
 21
30.7551182848
  0
LINE
  8
0
 62
7
  6
CONTINUOUS
 10
153.5049916972
 20
31.2390736489
 11
153.4471794177
 21
31.400392081
  0
LINE
  8
0
 62
7
  6
CONTINUOUS
 10
153.9674919177
 20
31.4326557675
 11
153.9674919177
 21
31.3681283946
  0
LINE
  8
0
 62
7
  6
CONTINUOUS
 10
153.9674919177
 20
30.9809641124
 11
153.9674919177
 21
30.8841730531
  0
LINE
  8
0
 62
7
  6
CONTINUOUS
 10
154.245872955
 20
32.3970785186
 11
154.245872955
 21
36.1675703219
  0
LINE
  8
0
 62
7
  6
CONTINUOUS
 10
154.2565543074
 20
30.8519093441
 11
154.2565543074
 21
30.9164367395
  0
LINE
  8
0
 62
7
  6
CONTINUOUS
 10
154.5737418074
 20
36.1675703219
 11
154.5737418074
 21
32.3970785186
  0
LINE
  8
0
 62
7
  6
CONTINUOUS
 10
151.3659292523
 20
30.7873819712
 11
151.4237418626
 21
30.9164367395
  0
LINE
  8
0
 62
7
  6
CONTINUOUS
 10
155.759679528
 20
30.6905909007
 11
155.7018665869
 21
30.8519093441
  0
LINE
  8
0
 62
7
  6
CONTINUOUS
 10
155.412804528
 20
31.3681283946
 11
155.412804528
 21
31.2713373354
  0
LINE
  8
0
 62
7
  6
CONTINUOUS
 10
155.412804528
 20
31.1422825445
 11
155.412804528
 21
30.9487004259
  0
LINE
  8
0
 62
7
  6
CONTINUOUS
 10
155.7018665869
 20
30.8519093441
 11
155.7018665869
 21
31.3681283946
  0
LINE
  8
0
 62
7
  6
CONTINUOUS
 10
155.9671844304
 20
32.3970785186
 11
155.9671844304
 21
34.2003572071
  0
LINE
  8
0
 62
7
  6
CONTINUOUS
 10
155.9671844304
 20
35.511832617
 11
155.9671844304
 21
36.1675703219
  0
LINE
  8
0
 62
7
  6
CONTINUOUS
 10
156.279992028
 20
32.1101932727
 11
156.279992028
 21
31.9488748406
  0
LINE
  8
0
 62
7
  6
CONTINUOUS
 10
156.279992028
 20
31.626237886
 11
156.279992028
 21
30.5937998301
  0
LINE
  8
0
 62
7
  6
CONTINUOUS
 10
156.5690540869
 20
30.5937998301
 11
156.5690540869
 21
31.626237886
  0
LINE
  8
0
 62
7
  6
CONTINUOUS
 10
156.5690540869
 20
31.9488748406
 11
156.5690540869
 21
32.1101932727
  0
LINE
  8
0
 62
7
  6
CONTINUOUS
 10
151.1346793074
 20
30.9164367395
 11
151.0768668626
 21
30.8196456577
  0
LINE
  8
0
 62
7
  6
CONTINUOUS
 10
153.4471794177
 20
31.400392081
 11
153.3893668074
 21
31.4649194539
  0
LINE
  8
0
 62
7
  6
CONTINUOUS
 10
154.3143669177
 20
30.7873819712
 11
154.2565543074
 21
30.8519093441
  0
LINE
  8
0
 62
7
  6
CONTINUOUS
 10
155.4706168074
 20
30.6583272086
 11
155.5284290869
 21
30.5937998301
  0
LINE
  8
0
 62
7
  6
CONTINUOUS
 10
155.412804528
 20
30.7551182848
 11
155.4706168074
 21
30.6583272086
  0
LINE
  8
0
 62
7
  6
CONTINUOUS
 10
155.8174918074
 20
30.5937998301
 11
155.759679528
 21
30.6905909007
  0
LINE
  8
0
 62
7
  6
CONTINUOUS
 10
155.7018665869
 20
31.3681283946
 11
155.6440543074
 21
31.4649194539
  0
LINE
  8
0
 62
7
  6
CONTINUOUS
 10
157.0315543074
 20
31.626237886
 11
157.0315543074
 21
30.5937998301
  0
LINE
  8
0
 62
7
  6
CONTINUOUS
 10
157.320617028
 20
30.5937998301
 11
157.320617028
 21
31.3358647082
  0
LINE
  8
0
 62
7
  6
CONTINUOUS
 10
157.320617028
 20
31.4649194539
 11
157.320617028
 21
31.626237886
  0
LINE
  8
0
 62
7
  6
CONTINUOUS
 10
157.852430332
 20
34.6101932727
 11
157.852430332
 21
32.3970785186
  0
LINE
  8
0
 62
7
  6
CONTINUOUS
 10
149.7471793074
 20
31.4326557675
 11
149.6315543091
 21
31.3036010218
  0
LINE
  8
0
 62
7
  6
CONTINUOUS
 10
149.9206168074
 20
31.2713373354
 11
149.9784292936
 21
31.3358647082
  0
LINE
  8
0
 62
7
  6
CONTINUOUS
 10
149.7471793074
 20
30.7873819712
 11
149.8628043005
 21
30.7228545871
  0
LINE
  8
0
 62
7
  6
CONTINUOUS
 10
150.1518667936
 20
30.7873819712
 11
149.9784292936
 21
30.8841730531
  0
LINE
  8
0
 62
7
  6
CONTINUOUS
 10
155.3549915869
 20
31.4326557675
 11
155.412804528
 21
31.3681283946
  0
LINE
  8
0
 62
7
  6
CONTINUOUS
 10
158.3034290869
 20
31.3681283946
 11
158.361242028
 21
31.2068099625
  0
LINE
  8
0
 62
7
  6
CONTINUOUS
 10
158.6503040869
 20
31.2068099625
 11
158.5924918074
 21
31.3681283946
  0
LINE
  8
0
 62
7
  6
CONTINUOUS
 10
158.361242028
 20
31.2068099625
 11
158.361242028
 21
30.5937998301
  0
LINE
  8
0
 62
7
  6
CONTINUOUS
 10
158.6503040869
 20
30.5937998301
 11
158.6503040869
 21
31.2068099625
  0
LINE
  8
0
 62
7
  6
CONTINUOUS
 10
159.1128043074
 20
31.4326557675
 11
159.1128043074
 21
31.3681283946
  0
LINE
  8
0
 62
7
  6
CONTINUOUS
 10
159.245872955
 20
32.3970785186
 11
159.245872955
 21
34.5282260596
  0
LINE
  8
0
 62
7
  6
CONTINUOUS
 10
159.5737418074
 20
36.1675703219
 11
159.5737418074
 21
32.3970785186
  0
LINE
  8
0
 62
7
  6
CONTINUOUS
 10
154.2565543074
 20
30.9164367395
 11
154.3143669177
 21
31.0132277988
  0
LINE
  8
0
 62
7
  6
CONTINUOUS
 10
149.8628043005
 20
30.7228545871
 11
150.0362418212
 21
30.6583272086
  0
LINE
  8
0
 62
7
  6
CONTINUOUS
 10
151.3659292523
 20
31.4326557675
 11
151.1924917523
 21
31.5294468267
  0
LINE
  8
0
 62
7
  6
CONTINUOUS
 10
154.0253041972
 20
30.7551182848
 11
154.1987416972
 21
30.6583272086
  0
LINE
  8
0
 62
7
  6
CONTINUOUS
 10
153.0424918074
 20
31.4326557675
 11
153.1581166972
 21
31.3681283946
  0
LINE
  8
0
 62
7
  6
CONTINUOUS
 10
153.3893668074
 20
31.4649194539
 11
153.2737419177
 21
31.5294468267
  0
LINE
  8
0
 62
7
  6
CONTINUOUS
 10
159.1128043074
 20
30.8519093441
 11
159.228429528
 21
30.7228545871
  0
LINE
  8
0
 62
7
  6
CONTINUOUS
 10
159.4596793074
 20
30.7873819712
 11
159.401867028
 21
30.8519093441
  0
LINE
  8
0
 62
7
  6
CONTINUOUS
 10
159.1128043074
 20
31.3681283946
 11
159.228429528
 21
31.2390736489
  0
LINE
  8
0
 62
7
  6
CONTINUOUS
 10
158.5924918074
 20
31.3681283946
 11
158.534679528
 21
31.4649194539
  0
LINE
  8
0
 62
7
  6
CONTINUOUS
 10
160.9628038663
 20
30.7873819712
 11
160.9628038663
 21
30.8519093441
  0
LINE
  8
0
 62
7
  6
CONTINUOUS
 10
160.9671844304
 20
32.3970785186
 11
160.9671844304
 21
36.1675703219
  0
LINE
  8
0
 62
7
  6
CONTINUOUS
 10
154.0253041972
 20
31.4971831403
 11
153.9674919177
 21
31.4326557675
  0
LINE
  8
0
 62
7
  6
CONTINUOUS
 10
150.9034292799
 20
31.4649194539
 11
151.0768668626
 21
31.400392081
  0
LINE
  8
0
 62
7
  6
CONTINUOUS
 10
155.6440543074
 20
31.4649194539
 11
155.5284290869
 21
31.5294468267
  0
LINE
  8
0
 62
7
  6
CONTINUOUS
 10
159.4596793074
 20
31.3036010218
 11
159.401867028
 21
31.3681283946
  0
LINE
  8
0
 62
7
  6
CONTINUOUS
 10
160.615929528
 20
30.9164367395
 11
160.6737418074
 21
30.8519093441
  0
LINE
  8
0
 62
7
  6
CONTINUOUS
 10
160.9628038663
 20
30.8519093441
 11
160.8471793074
 21
30.9809641124
  0
LINE
  8
0
 62
7
  6
CONTINUOUS
 10
160.615929528
 20
31.4326557675
 11
160.6737418074
 21
31.3681283946
  0
LINE
  8
0
 62
7
  6
CONTINUOUS
 10
160.9628038663
 20
31.3681283946
 11
160.8471793074
 21
31.4971831403
  0
LINE
  8
0
 62
7
  6
CONTINUOUS
 10
154.2565543074
 20
31.3681283946
 11
154.3143669177
 21
31.4326557675
  0
LINE
  8
0
 62
7
  6
CONTINUOUS
 10
154.0831168074
 20
31.1100188581
 11
153.9674919177
 21
30.9809641124
  0
LINE
  8
0
 62
7
  6
CONTINUOUS
 10
155.412804528
 20
30.9487004259
 11
155.3549915869
 21
30.8841730531
  0
LINE
  8
0
 62
7
  6
CONTINUOUS
 10
155.3549915869
 20
30.6905909007
 11
155.412804528
 21
30.7551182848
  0
LINE
  8
0
 62
7
  6
CONTINUOUS
 10
154.1987416972
 20
30.6583272086
 11
154.3143669177
 21
30.6260635193
  0
LINE
  8
0
 62
7
  6
CONTINUOUS
 10
151.1924917523
 20
31.5294468267
 11
150.9612418074
 21
31.5939741996
  0
LINE
  8
0
 62
7
  6
CONTINUOUS
 10
154.5456166972
 20
30.7228545871
 11
154.3143669177
 21
30.7873819712
  0
LINE
  8
0
 62
7
  6
CONTINUOUS
 10
153.2737419177
 20
31.5294468267
 11
153.1003044177
 21
31.5939741996
  0
LINE
  8
0
 62
7
  6
CONTINUOUS
 10
155.5284290869
 20
31.5294468267
 11
155.3549915869
 21
31.5939741996
  0
LINE
  8
0
 62
7
  6
CONTINUOUS
 10
158.187804528
 20
31.4326557675
 11
158.3034290869
 21
31.3681283946
  0
LINE
  8
0
 62
7
  6
CONTINUOUS
 10
158.534679528
 20
31.4649194539
 11
158.4190543074
 21
31.5294468267
  0
LINE
  8
0
 62
7
  6
CONTINUOUS
 10
150.0362418212
 20
30.6583272086
 11
150.2096793212
 21
30.6260635193
  0
LINE
  8
0
 62
7
  6
CONTINUOUS
 10
150.498741835
 20
30.7228545871
 11
150.1518667936
 21
30.7873819712
  0
LINE
  8
0
 62
7
  6
CONTINUOUS
 10
152.9268669177
 20
31.4649194539
 11
153.0424918074
 21
31.4326557675
  0
LINE
  8
0
 62
7
  6
CONTINUOUS
 10
155.239367028
 20
31.4649194539
 11
155.3549915869
 21
31.4326557675
  0
LINE
  8
0
 62
7
  6
CONTINUOUS
 10
159.575304528
 20
30.7551182848
 11
159.4596793074
 21
30.7873819712
  0
LINE
  8
0
 62
7
  6
CONTINUOUS
 10
158.0721793074
 20
31.4649194539
 11
158.187804528
 21
31.4326557675
  0
LINE
  8
0
 62
7
  6
CONTINUOUS
 10
159.228429528
 20
30.7228545871
 11
159.401867028
 21
30.6583272086
  0
LINE
  8
0
 62
7
  6
CONTINUOUS
 10
158.4190543074
 20
31.5294468267
 11
158.2456168074
 21
31.5939741996
  0
LINE
  8
0
 62
7
  6
CONTINUOUS
 10
159.6331168074
 20
31.2390736489
 11
159.4596793074
 21
31.3036010218
  0
LINE
  8
0
 62
7
  6
CONTINUOUS
 10
160.442492028
 20
30.9809641124
 11
160.615929528
 21
30.9164367395
  0
LINE
  8
0
 62
7
  6
CONTINUOUS
 10
160.8471793074
 20
31.4971831403
 11
160.6737418074
 21
31.5617105132
  0
LINE
  8
0
 62
7
  6
CONTINUOUS
 10
159.228429528
 20
31.2390736489
 11
159.4596793074
 21
31.1422825445
  0
LINE
  8
0
 62
7
  6
CONTINUOUS
 10
160.8471793074
 20
30.9809641124
 11
160.615929528
 21
31.0777551716
  0
LINE
  8
0
 62
7
  6
CONTINUOUS
 10
159.401867028
 20
31.3681283946
 11
159.4596793074
 21
31.4326557675
  0
LINE
  8
0
 62
7
  6
CONTINUOUS
 10
149.8628043005
 20
31.4971831403
 11
149.7471793074
 21
31.4326557675
  0
LINE
  8
0
 62
7
  6
CONTINUOUS
 10
149.9784292936
 20
31.3358647082
 11
150.1518667936
 21
31.4326557675
  0
LINE
  8
0
 62
7
  6
CONTINUOUS
 10
152.2909293626
 20
31.5294468267
 11
152.1753043074
 21
31.4649194539
  0
LINE
  8
0
 62
7
  6
CONTINUOUS
 10
152.1753043074
 20
31.3358647082
 11
152.2909293626
 21
31.400392081
  0
LINE
  8
0
 62
7
  6
CONTINUOUS
 10
151.1924917523
 20
30.6905909007
 11
151.3659292523
 21
30.7873819712
  0
LINE
  8
0
 62
7
  6
CONTINUOUS
 10
150.2096793212
 20
30.6260635193
 11
150.5565542799
 21
30.5937998301
  0
LINE
  8
0
 62
7
  6
CONTINUOUS
 10
154.3143669177
 20
30.6260635193
 11
154.5456166972
 21
30.5937998301
  0
LINE
  8
0
 62
7
  6
CONTINUOUS
 10
152.6956168074
 20
31.4971831403
 11
152.9268669177
 21
31.4649194539
  0
LINE
  8
0
 62
7
  6
CONTINUOUS
 10
155.0081169177
 20
31.4971831403
 11
155.239367028
 21
31.4649194539
  0
LINE
  8
0
 62
7
  6
CONTINUOUS
 10
159.4596793074
 20
31.1422825445
 11
160.442492028
 21
30.9809641124
  0
LINE
  8
0
 62
7
  6
CONTINUOUS
 10
160.615929528
 20
31.0777551716
 11
159.6331168074
 21
31.2390736489
  0
LINE
  8
0
 62
7
  6
CONTINUOUS
 10
153.1003044177
 20
31.5939741996
 11
152.9268669177
 21
31.626237886
  0
LINE
  8
0
 62
7
  6
CONTINUOUS
 10
159.401867028
 20
30.6583272086
 11
159.575304528
 21
30.6260635193
  0
LINE
  8
0
 62
7
  6
CONTINUOUS
 10
158.2456168074
 20
31.5939741996
 11
158.0721793074
 21
31.626237886
  0
LINE
  8
0
 62
7
  6
CONTINUOUS
 10
160.5003043074
 20
31.4649194539
 11
160.615929528
 21
31.4326557675
  0
LINE
  8
0
 62
7
  6
CONTINUOUS
 10
160.6737418074
 20
30.8519093441
 11
160.615929528
 21
30.7873819712
  0
LINE
  8
0
 62
7
  6
CONTINUOUS
 10
159.228429528
 20
31.5294468267
 11
159.1128043074
 21
31.4326557675
  0
LINE
  8
0
 62
7
  6
CONTINUOUS
 10
154.1409294177
 20
31.5617105132
 11
154.0253041972
 21
31.4971831403
  0
LINE
  8
0
 62
7
  6
CONTINUOUS
 10
154.1987416972
 20
31.1745462761
 11
154.0831168074
 21
31.1100188581
  0
LINE
  8
0
 62
7
  6
CONTINUOUS
 10
154.3143669177
 20
31.0132277988
 11
154.4299918074
 21
31.0777551716
  0
LINE
  8
0
 62
7
  6
CONTINUOUS
 10
151.8862417523
 20
30.5937998301
 11
152.1753043074
 21
30.5937998301
  0
LINE
  8
0
 62
7
  6
CONTINUOUS
 10
153.2159293074
 20
30.5937998301
 11
153.5049916972
 21
30.5937998301
  0
LINE
  8
0
 62
7
  6
CONTINUOUS
 10
154.5456166972
 20
30.5937998301
 11
154.8924916972
 21
30.5937998301
  0
LINE
  8
0
 62
7
  6
CONTINUOUS
 10
155.5284290869
 20
30.5937998301
 11
155.8174918074
 21
30.5937998301
  0
LINE
  8
0
 62
7
  6
CONTINUOUS
 10
156.279992028
 20
30.5937998301
 11
156.5690540869
 21
30.5937998301
  0
LINE
  8
0
 62
7
  6
CONTINUOUS
 10
157.0315543074
 20
30.5937998301
 11
157.320617028
 21
30.5937998301
  0
LINE
  8
0
 62
7
  6
CONTINUOUS
 10
158.361242028
 20
30.5937998301
 11
158.6503040869
 21
30.5937998301
  0
LINE
  8
0
 62
7
  6
CONTINUOUS
 10
159.922179528
 20
30.5937998301
 11
160.269054528
 21
30.5937998301
  0
LINE
  8
0
 62
7
  6
CONTINUOUS
 10
160.269054528
 20
30.7228545871
 11
159.922179528
 21
30.7228545871
  0
LINE
  8
0
 62
7
  6
CONTINUOUS
 10
154.8924916972
 20
30.7228545871
 11
154.5456166972
 21
30.7228545871
  0
LINE
  8
0
 62
7
  6
CONTINUOUS
 10
159.401867028
 20
30.8519093441
 11
159.1128043074
 21
30.8519093441
  0
LINE
  8
0
 62
7
  6
CONTINUOUS
 10
151.4237418626
 20
30.9164367395
 11
151.1346793074
 21
30.9164367395
  0
LINE
  8
0
 62
7
  6
CONTINUOUS
 10
150.498741835
 20
31.4971831403
 11
150.9034292799
 21
31.4649194539
  0
LINE
  8
0
 62
7
  6
CONTINUOUS
 10
150.9612418074
 20
31.5939741996
 11
150.5565542799
 21
31.626237886
  0
LINE
  8
0
 62
7
  6
CONTINUOUS
 10
159.575304528
 20
30.6260635193
 11
159.922179528
 21
30.5937998301
  0
LINE
  8
0
 62
7
  6
CONTINUOUS
 10
159.922179528
 20
30.7228545871
 11
159.575304528
 21
30.7551182848
  0
LINE
  8
0
 62
7
  6
CONTINUOUS
 10
155.3549915869
 20
31.5939741996
 11
155.0081169177
 21
31.626237886
  0
LINE
  8
0
 62
7
  6
CONTINUOUS
 10
160.1534293074
 20
31.4971831403
 11
160.5003043074
 21
31.4649194539
  0
LINE
  8
0
 62
7
  6
CONTINUOUS
 10
160.5003043074
 20
31.5939741996
 11
160.1534293074
 21
31.626237886
  0
LINE
  8
0
 62
7
  6
CONTINUOUS
 10
157.840929528
 20
31.4971831403
 11
158.0721793074
 21
31.4649194539
  0
LINE
  8
0
 62
7
  6
CONTINUOUS
 10
160.6737418074
 20
31.5617105132
 11
160.5003043074
 21
31.5939741996
  0
LINE
  8
0
 62
7
  6
CONTINUOUS
 10
160.8471793074
 20
30.6905909007
 11
160.9628038663
 21
30.7873819712
  0
LINE
  8
0
 62
7
  6
CONTINUOUS
 10
155.3549915869
 20
30.8841730531
 11
155.1815540869
 21
30.7873819712
  0
LINE
  8
0
 62
7
  6
CONTINUOUS
 10
157.4362415869
 20
31.5294468267
 11
157.320617028
 21
31.4649194539
  0
LINE
  8
0
 62
7
  6
CONTINUOUS
 10
157.320617028
 20
31.3358647082
 11
157.4362415869
 21
31.400392081
  0
LINE
  8
0
 62
7
  6
CONTINUOUS
 10
150.0362418212
 20
31.5617105132
 11
149.8628043005
 21
31.4971831403
  0
LINE
  8
0
 62
7
  6
CONTINUOUS
 10
152.4643666972
 20
31.5939741996
 11
152.2909293626
 21
31.5294468267
  0
LINE
  8
0
 62
7
  6
CONTINUOUS
 10
152.2909293626
 20
31.400392081
 11
152.4643666972
 21
31.4649194539
  0
LINE
  8
0
 62
7
  6
CONTINUOUS
 10
151.0768668626
 20
30.8196456577
 11
150.9034292799
 21
30.7551182848
  0
LINE
  8
0
 62
7
  6
CONTINUOUS
 10
160.5003043074
 20
30.7551182848
 11
160.269054528
 21
30.7228545871
  0
LINE
  8
0
 62
7
  6
CONTINUOUS
 10
154.8924916972
 20
30.5937998301
 11
155.1815540869
 21
30.6260635193
  0
LINE
  8
0
 62
7
  6
CONTINUOUS
 10
160.269054528
 20
30.5937998301
 11
160.615929528
 21
30.6260635193
  0
LINE
  8
0
 62
7
  6
CONTINUOUS
 10
150.5565542799
 20
30.5937998301
 11
150.9612418074
 21
30.6260635193
  0
LINE
  8
0
 62
7
  6
CONTINUOUS
 10
150.9034292799
 20
30.7551182848
 11
150.498741835
 21
30.7228545871
  0
LINE
  8
0
 62
7
  6
CONTINUOUS
 10
154.7768668074
 20
31.1422825445
 11
155.412804528
 21
31.1422825445
  0
LINE
  8
0
 62
7
  6
CONTINUOUS
 10
155.412804528
 20
31.2713373354
 11
154.7768668074
 21
31.2713373354
  0
LINE
  8
0
 62
7
  6
CONTINUOUS
 10
151.1346793074
 20
31.3036010218
 11
151.4237418626
 21
31.3036010218
  0
LINE
  8
0
 62
7
  6
CONTINUOUS
 10
153.9674919177
 20
31.3681283946
 11
154.2565543074
 21
31.3681283946
  0
LINE
  8
0
 62
7
  6
CONTINUOUS
 10
160.6737418074
 20
31.3681283946
 11
160.9628038663
 21
31.3681283946
  0
LINE
  8
0
 62
7
  6
CONTINUOUS
 10
154.6612419177
 20
31.4971831403
 11
155.0081169177
 21
31.4971831403
  0
LINE
  8
0
 62
7
  6
CONTINUOUS
 10
159.8065543074
 20
31.4971831403
 11
160.1534293074
 21
31.4971831403
  0
LINE
  8
0
 62
7
  6
CONTINUOUS
 10
160.1534293074
 20
31.626237886
 11
159.8065543074
 21
31.626237886
  0
LINE
  8
0
 62
7
  6
CONTINUOUS
 10
158.0721793074
 20
31.626237886
 11
157.840929528
 21
31.626237886
  0
LINE
  8
0
 62
7
  6
CONTINUOUS
 10
157.320617028
 20
31.626237886
 11
157.0315543074
 21
31.626237886
  0
LINE
  8
0
 62
7
  6
CONTINUOUS
 10
156.5690540869
 20
31.626237886
 11
156.279992028
 21
31.626237886
  0
LINE
  8
0
 62
7
  6
CONTINUOUS
 10
155.0081169177
 20
31.626237886
 11
154.6612419177
 21
31.626237886
  0
LINE
  8
0
 62
7
  6
CONTINUOUS
 10
152.9268669177
 20
31.626237886
 11
152.6956168074
 21
31.626237886
  0
LINE
  8
0
 62
7
  6
CONTINUOUS
 10
156.279992028
 20
31.9488748406
 11
156.5690540869
 21
31.9488748406
  0
LINE
  8
0
 62
7
  6
CONTINUOUS
 10
156.5690540869
 20
32.1101932727
 11
156.279992028
 21
32.1101932727
  0
LINE
  8
0
 62
7
  6
CONTINUOUS
 10
152.1753043074
 20
32.1101932727
 11
151.8862417523
 21
32.1101932727
  0
LINE
  8
0
 62
7
  6
CONTINUOUS
 10
151.2130860697
 20
32.3970785186
 11
151.6256574183
 21
32.3970785186
  0
LINE
  8
0
 62
7
  6
CONTINUOUS
 10
152.852430332
 20
32.3970785186
 11
154.245872955
 21
32.3970785186
  0
LINE
  8
0
 62
7
  6
CONTINUOUS
 10
154.5737418074
 20
32.3970785186
 11
155.9671844304
 21
32.3970785186
  0
LINE
  8
0
 62
7
  6
CONTINUOUS
 10
157.852430332
 20
32.3970785186
 11
159.245872955
 21
32.3970785186
  0
LINE
  8
0
 62
7
  6
CONTINUOUS
 10
159.5737418074
 20
32.3970785186
 11
160.9671844304
 21
32.3970785186
  0
LINE
  8
0
 62
7
  6
CONTINUOUS
 10
157.6096790869
 20
31.5939741996
 11
157.4362415869
 21
31.5294468267
  0
LINE
  8
0
 62
7
  6
CONTINUOUS
 10
155.1815540869
 20
30.6260635193
 11
155.3549915869
 21
30.6905909007
  0
LINE
  8
0
 62
7
  6
CONTINUOUS
 10
160.615929528
 20
30.6260635193
 11
160.8471793074
 21
30.6905909007
  0
LINE
  8
0
 62
7
  6
CONTINUOUS
 10
160.615929528
 20
30.7873819712
 11
160.5003043074
 21
30.7551182848
  0
LINE
  8
0
 62
7
  6
CONTINUOUS
 10
159.575304528
 20
31.4649194539
 11
159.8065543074
 21
31.4971831403
  0
LINE
  8
0
 62
7
  6
CONTINUOUS
 10
157.6096790869
 20
31.4649194539
 11
157.840929528
 21
31.4971831403
  0
LINE
  8
0
 62
7
  6
CONTINUOUS
 10
154.5456166972
 20
31.1100188581
 11
154.7768668074
 21
31.1422825445
  0
LINE
  8
0
 62
7
  6
CONTINUOUS
 10
157.840929528
 20
31.626237886
 11
157.6096790869
 21
31.5939741996
  0
LINE
  8
0
 62
7
  6
CONTINUOUS
 10
154.4299918074
 20
31.4649194539
 11
154.6612419177
 21
31.4971831403
  0
LINE
  8
0
 62
7
  6
CONTINUOUS
 10
159.8065543074
 20
31.626237886
 11
159.4596793074
 21
31.5939741996
  0
LINE
  8
0
 62
7
  6
CONTINUOUS
 10
154.7768668074
 20
31.2713373354
 11
154.4299918074
 21
31.2390736489
  0
LINE
  8
0
 62
7
  6
CONTINUOUS
 10
150.5565542799
 20
31.626237886
 11
150.2096793212
 21
31.5939741996
  0
LINE
  8
0
 62
7
  6
CONTINUOUS
 10
154.6612419177
 20
31.626237886
 11
154.2565543074
 21
31.5939741996
  0
LINE
  8
0
 62
7
  6
CONTINUOUS
 10
152.0327582009
 20
33.5446195022
 11
151.3770204959
 21
33.5446195022
  0
LINE
  8
0
 62
7
  6
CONTINUOUS
 10
157.4362415869
 20
31.400392081
 11
157.6096790869
 21
31.4649194539
  0
LINE
  8
0
 62
7
  6
CONTINUOUS
 10
159.4596793074
 20
31.4326557675
 11
159.575304528
 21
31.4649194539
  0
LINE
  8
0
 62
7
  6
CONTINUOUS
 10
159.4596793074
 20
31.5939741996
 11
159.228429528
 21
31.5294468267
  0
LINE
  8
0
 62
7
  6
CONTINUOUS
 10
155.1815540869
 20
30.7873819712
 11
154.8924916972
 21
30.7228545871
  0
LINE
  8
0
 62
7
  6
CONTINUOUS
 10
152.4643666972
 20
31.4649194539
 11
152.6956168074
 21
31.4971831403
  0
LINE
  8
0
 62
7
  6
CONTINUOUS
 10
152.6956168074
 20
31.626237886
 11
152.4643666972
 21
31.5939741996
  0
LINE
  8
0
 62
7
  6
CONTINUOUS
 10
150.2674918074
 20
31.4649194539
 11
150.498741835
 21
31.4971831403
  0
LINE
  8
0
 62
7
  6
CONTINUOUS
 10
156.7868565615
 20
35.0200293383
 11
157.4425942664
 21
35.0200293383
  0
LINE
  8
0
 62
7
  6
CONTINUOUS
 10
154.4299918074
 20
31.0777551716
 11
154.5456166972
 21
31.1100188581
  0
LINE
  8
0
 62
7
  6
CONTINUOUS
 10
154.4299918074
 20
31.2390736489
 11
154.1987416972
 21
31.1745462761
  0
LINE
  8
0
 62
7
  6
CONTINUOUS
 10
154.3143669177
 20
31.4326557675
 11
154.4299918074
 21
31.4649194539
  0
LINE
  8
0
 62
7
  6
CONTINUOUS
 10
150.9612418074
 20
30.6260635193
 11
151.1924917523
 21
30.6905909007
  0
LINE
  8
0
 62
7
  6
CONTINUOUS
 10
154.2565543074
 20
31.5939741996
 11
154.1409294177
 21
31.5617105132
  0
LINE
  8
0
 62
7
  6
CONTINUOUS
 10
150.2096793212
 20
31.5939741996
 11
150.0362418212
 21
31.5617105132
  0
LINE
  8
0
 62
7
  6
CONTINUOUS
 10
160.9671844304
 20
36.1675703219
 11
159.5737418074
 21
36.1675703219
  0
LINE
  8
0
 62
7
  6
CONTINUOUS
 10
157.6065286927
 20
36.1675703219
 11
157.1939573441
 21
36.1675703219
  0
LINE
  8
0
 62
7
  6
CONTINUOUS
 10
155.9671844304
 20
36.1675703219
 11
154.5737418074
 21
36.1675703219
  0
LINE
  8
0
 62
7
  6
CONTINUOUS
 10
154.245872955
 20
36.1675703219
 11
152.852430332
 21
36.1675703219
  0
LINE
  8
0
 62
7
  6
CONTINUOUS
 10
150.9671844304
 20
36.1675703219
 11
149.5737418074
 21
36.1675703219
  0
LINE
  8
0
 62
7
  6
CONTINUOUS
 10
150.1518667936
 20
31.4326557675
 11
150.2674918074
 21
31.4649194539
  0
CIRCLE
  8
0
 62
7
  6
CONTINUOUS
 10
160.2704631189
 20
38.5036358957
 40
2.0901639344
  0
ARC
  8
0
 62
7
  6
CONTINUOUS
 10
151.2130860697
 20
34.0364227809
 40
1.6393442623
 50
180.0
 51
270.0
  0
ARC
  8
0
 62
7
  6
CONTINUOUS
 10
157.6065286927
 20
34.5282260596
 40
1.6393442623
 50
0.0
 51
90.0
  0
ARC
  8
0
 62
7
  6
CONTINUOUS
 10
151.6256574183
 20
33.8724883547
 40
1.4754098361
 50
270.0
 51
326.2510114041
  0
ARC
  8
0
 62
7
  6
CONTINUOUS
 10
157.1939573441
 20
34.6921604858
 40
1.4754098361
 50
90.0
 51
146.2510114041
  0
ARC
  8
0
 62
7
  6
CONTINUOUS
 10
152.0327582009
 20
34.3642916334
 40
0.8196721311
 50
270.0
 51
360.0
  0
ARC
  8
0
 62
7
  6
CONTINUOUS
 10
156.7868565615
 20
34.2003572071
 40
0.8196721311
 50
90.0
 51
180.0
  0
ARC
  8
0
 62
7
  6
CONTINUOUS
 10
151.3770204959
 20
33.9544555678
 40
0.4098360656
 50
180.0
 51
270.0
  0
ARC
  8
0
 62
7
  6
CONTINUOUS
 10
157.4425942664
 20
34.6101932727
 40
0.4098360656
 50
0.0
 51
90.0
  0
SOLID
  8
0
 62
7
  6
CONTINUOUS
 10
156.279992028
 20
31.9488752009
 11
156.279992028
 21
32.1101936845
 12
156.5690540869
 22
31.9488752009
 13
156.5690540869
 23
32.1101936845
  0
SOLID
  8
0
 62
7
  6
CONTINUOUS
 10
150.5565542799
 20
31.6262382337
 11
150.9612418074
 21
31.5939740028
 12
150.2096793212
 22
31.5939740028
 13
150.2096793212
 23
31.5939740028
  0
SOLID
  8
0
 62
7
  6
CONTINUOUS
 10
150.0362418212
 20
31.5617111435
 11
150.2096793212
 21
31.5939740028
 12
150.9612418074
 22
31.5939740028
 13
150.9612418074
 23
31.5939740028
  0
SOLID
  8
0
 62
7
  6
CONTINUOUS
 10
150.9612418074
 20
31.5939740028
 11
151.1924917523
 21
31.5294468402
 12
150.0362418212
 22
31.5617111435
 13
150.0362418212
 23
31.5617111435
  0
SOLID
  8
0
 62
7
  6
CONTINUOUS
 10
149.8628043005
 20
31.49718259
 11
150.0362418212
 21
31.5617111435
 12
151.1924917523
 22
31.5294468402
 13
151.1924917523
 23
31.5294468402
  0
SOLID
  8
0
 62
7
  6
CONTINUOUS
 10
149.8628043005
 20
31.49718259
 11
151.1924917523
 21
31.5294468402
 12
150.498741835
 22
31.49718259
 13
150.498741835
 23
31.49718259
  0
SOLID
  8
0
 62
7
  6
CONTINUOUS
 10
150.498741835
 20
31.49718259
 11
151.1924917523
 21
31.5294468402
 12
150.9034292799
 22
31.4649197501
 13
150.9034292799
 23
31.4649197501
  0
SOLID
  8
0
 62
7
  6
CONTINUOUS
 10
151.1924917523
 20
31.5294468402
 11
151.3659292523
 21
31.4326554468
 12
150.9034292799
 22
31.4649197501
 13
150.9034292799
 23
31.4649197501
  0
SOLID
  8
0
 62
7
  6
CONTINUOUS
 10
151.0768668626
 20
31.4003926599
 11
150.9034292799
 21
31.4649197501
 12
151.3659292523
 22
31.4326554468
 13
151.3659292523
 23
31.4326554468
  0
SOLID
  8
0
 62
7
  6
CONTINUOUS
 10
151.0768668626
 20
31.4003926599
 11
151.3659292523
 21
31.4326554468
 12
151.1346793074
 22
31.3036013776
 13
151.1346793074
 23
31.3036013776
  0
SOLID
  8
0
 62
7
  6
CONTINUOUS
 10
151.3659292523
 20
31.4326554468
 11
151.4237418626
 21
31.3036013776
 12
151.1346793074
 22
31.3036013776
 13
151.1346793074
 23
31.3036013776
  0
SOLID
  8
0
 62
7
  6
CONTINUOUS
 10
152.4643666972
 20
31.5939739754
 11
152.6956168074
 21
31.6262382787
 12
152.9268669177
 22
31.6262382787
 13
152.9268669177
 23
31.6262382787
  0
SOLID
  8
0
 62
7
  6
CONTINUOUS
 10
152.9268669177
 20
31.6262382787
 11
153.1003044177
 21
31.5939739754
 12
152.4643666972
 22
31.5939739754
 13
152.4643666972
 23
31.5939739754
  0
SOLID
  8
0
 62
7
  6
CONTINUOUS
 10
152.2909293626
 20
31.5294468852
 11
152.4643666972
 21
31.5939739754
 12
153.1003044177
 22
31.5939739754
 13
153.1003044177
 23
31.5939739754
  0
SOLID
  8
0
 62
7
  6
CONTINUOUS
 10
153.1003044177
 20
31.5939739754
 11
153.2737419177
 21
31.5294468852
 12
152.2909293626
 22
31.5294468852
 13
152.2909293626
 23
31.5294468852
  0
SOLID
  8
0
 62
7
  6
CONTINUOUS
 10
153.2737419177
 20
31.5294468852
 11
152.6956168074
 21
31.4971825369
 12
152.2909293626
 22
31.5294468852
 13
152.2909293626
 23
31.5294468852
  0
SOLID
  8
0
 62
7
  6
CONTINUOUS
 10
152.1753043074
 20
31.4649197951
 11
152.2909293626
 21
31.5294468852
 12
152.6956168074
 22
31.4971825369
 13
152.6956168074
 23
31.4971825369
  0
SOLID
  8
0
 62
7
  6
CONTINUOUS
 10
152.6956168074
 20
31.4971825369
 11
152.4643666972
 21
31.4649197951
 12
152.1753043074
 22
31.4649197951
 13
152.1753043074
 23
31.4649197951
  0
SOLID
  8
0
 62
7
  6
CONTINUOUS
 10
152.6956168074
 20
31.4971825369
 11
153.2737419177
 21
31.5294468852
 12
152.9268669177
 22
31.4649197951
 13
152.9268669177
 23
31.4649197951
  0
SOLID
  8
0
 62
7
  6
CONTINUOUS
 10
153.2737419177
 20
31.5294468852
 11
153.3893668074
 21
31.4649197951
 12
152.9268669177
 22
31.4649197951
 13
152.9268669177
 23
31.4649197951
  0
SOLID
  8
0
 62
7
  6
CONTINUOUS
 10
153.0424918074
 20
31.4326554468
 11
152.9268669177
 21
31.4649197951
 12
153.3893668074
 22
31.4649197951
 13
153.3893668074
 23
31.4649197951
  0
SOLID
  8
0
 62
7
  6
CONTINUOUS
 10
153.3893668074
 20
31.4649197951
 11
153.4471794177
 21
31.4003927049
 12
153.0424918074
 22
31.4326554468
 13
153.0424918074
 23
31.4326554468
  0
SOLID
  8
0
 62
7
  6
CONTINUOUS
 10
153.1581166972
 20
31.3681283566
 11
153.0424918074
 21
31.4326554468
 12
153.4471794177
 22
31.4003927049
 13
153.4471794177
 23
31.4003927049
  0
SOLID
  8
0
 62
7
  6
CONTINUOUS
 10
153.1581166972
 20
31.3681283566
 11
153.4471794177
 21
31.4003927049
 12
153.2159293074
 22
31.2390742213
 13
153.2159293074
 23
31.2390742213
  0
SOLID
  8
0
 62
7
  6
CONTINUOUS
 10
153.4471794177
 20
31.4003927049
 11
153.5049916972
 21
31.2390742213
 12
153.2159293074
 22
31.2390742213
 13
153.2159293074
 23
31.2390742213
  0
SOLID
  8
0
 62
7
  6
CONTINUOUS
 10
152.4643666972
 20
31.4649197951
 11
152.2909293626
 21
31.4003927049
 12
152.1753043074
 22
31.4649197951
 13
152.1753043074
 23
31.4649197951
  0
SOLID
  8
0
 62
7
  6
CONTINUOUS
 10
152.2909293626
 20
31.4003927049
 11
152.1753043074
 21
31.3358640533
 12
152.1753043074
 22
31.4649197951
 13
152.1753043074
 23
31.4649197951
  0
SOLID
  8
0
 62
7
  6
CONTINUOUS
 10
152.1753043074
 20
31.3358640533
 11
151.8862417523
 21
30.5938002869
 12
152.1753043074
 22
31.4649197951
 13
152.1753043074
 23
31.4649197951
  0
SOLID
  8
0
 62
7
  6
CONTINUOUS
 10
152.1753043074
 20
31.4649197951
 11
151.8862417523
 21
30.5938002869
 12
152.1753043074
 22
32.1101937295
 13
152.1753043074
 23
32.1101937295
  0
SOLID
  8
0
 62
7
  6
CONTINUOUS
 10
151.8862417523
 20
30.5938002869
 11
151.8862417523
 21
32.1101937295
 12
152.1753043074
 22
32.1101937295
 13
152.1753043074
 23
32.1101937295
  0
SOLID
  8
0
 62
7
  6
CONTINUOUS
 10
152.1753043074
 20
31.3358640533
 11
152.1753043074
 21
30.5938002869
 12
151.8862417523
 22
30.5938002869
 13
151.8862417523
 23
30.5938002869
  0
SOLID
  8
0
 62
7
  6
CONTINUOUS
 10
153.2159293074
 20
30.5938002869
 11
153.2159293074
 21
31.2390742213
 12
153.5049916972
 22
31.2390742213
 13
153.5049916972
 23
31.2390742213
  0
SOLID
  8
0
 62
7
  6
CONTINUOUS
 10
153.5049916972
 20
31.2390742213
 11
153.5049916972
 21
30.5938002869
 12
153.2159293074
 22
30.5938002869
 13
153.2159293074
 23
30.5938002869
  0
SOLID
  8
0
 62
7
  6
CONTINUOUS
 10
154.2565543074
 20
31.5939738288
 11
154.6612419177
 21
31.6262385959
 12
155.0081169177
 22
31.6262385959
 13
155.0081169177
 23
31.6262385959
  0
SOLID
  8
0
 62
7
  6
CONTINUOUS
 10
155.0081169177
 20
31.6262385959
 11
155.3549915869
 21
31.5939738288
 12
154.2565543074
 22
31.5939738288
 13
154.2565543074
 23
31.5939738288
  0
SOLID
  8
0
 62
7
  6
CONTINUOUS
 10
154.1409294177
 20
31.5617111435
 11
154.2565543074
 21
31.5939738288
 12
155.3549915869
 22
31.5939738288
 13
155.3549915869
 23
31.5939738288
  0
SOLID
  8
0
 62
7
  6
CONTINUOUS
 10
155.3549915869
 20
31.5939738288
 11
155.5284290869
 21
31.5294468402
 12
154.1409294177
 22
31.5617111435
 13
154.1409294177
 23
31.5617111435
  0
SOLID
  8
0
 62
7
  6
CONTINUOUS
 10
154.0253041972
 20
31.4971826249
 11
154.1409294177
 21
31.5617111435
 12
155.5284290869
 22
31.5294468402
 13
155.5284290869
 23
31.5294468402
  0
SOLID
  8
0
 62
7
  6
CONTINUOUS
 10
154.0253041972
 20
31.4971826249
 11
155.5284290869
 21
31.5294468402
 12
154.6612419177
 22
31.4971826249
 13
154.6612419177
 23
31.4971826249
  0
SOLID
  8
0
 62
7
  6
CONTINUOUS
 10
154.6612419177
 20
31.4971826249
 11
155.5284290869
 21
31.5294468402
 12
155.0081169177
 22
31.4971826249
 13
155.0081169177
 23
31.4971826249
  0
SOLID
  8
0
 62
7
  6
CONTINUOUS
 10
155.0081169177
 20
31.4971826249
 11
155.5284290869
 21
31.5294468402
 12
155.239367028
 22
31.4649194065
 13
155.239367028
 23
31.4649194065
  0
SOLID
  8
0
 62
7
  6
CONTINUOUS
 10
155.5284290869
 20
31.5294468402
 11
155.6440543074
 21
31.4649194065
 12
155.239367028
 22
31.4649194065
 13
155.239367028
 23
31.4649194065
  0
SOLID
  8
0
 62
7
  6
CONTINUOUS
 10
153.9674919177
 20
31.4326554138
 11
154.0253041972
 21
31.4971826249
 12
154.6612419177
 22
31.4971826249
 13
154.6612419177
 23
31.4971826249
  0
SOLID
  8
0
 62
7
  6
CONTINUOUS
 10
155.3549915869
 20
31.4326554138
 11
155.239367028
 21
31.4649194065
 12
155.6440543074
 22
31.4649194065
 13
155.6440543074
 23
31.4649194065
  0
SOLID
  8
0
 62
7
  6
CONTINUOUS
 10
155.3549915869
 20
31.4326554138
 11
155.6440543074
 21
31.4649194065
 12
155.412804528
 22
31.3681282026
 13
155.412804528
 23
31.3681282026
  0
SOLID
  8
0
 62
7
  6
CONTINUOUS
 10
155.6440543074
 20
31.4649194065
 11
155.7018665869
 21
31.3681282026
 12
155.412804528
 22
31.3681282026
 13
155.412804528
 23
31.3681282026
  0
SOLID
  8
0
 62
7
  6
CONTINUOUS
 10
155.412804528
 20
31.2713369632
 11
155.412804528
 21
31.3681282026
 12
155.7018665869
 22
31.3681282026
 13
155.7018665869
 23
31.3681282026
  0
SOLID
  8
0
 62
7
  6
CONTINUOUS
 10
155.412804528
 20
31.2713369632
 11
155.7018665869
 21
31.3681282026
 12
155.412804528
 22
31.1422827828
 13
155.412804528
 23
31.1422827828
  0
SOLID
  8
0
 62
7
  6
CONTINUOUS
 10
155.412804528
 20
31.1422827828
 11
155.7018665869
 21
31.3681282026
 12
155.412804528
 22
30.9487004259
 13
155.412804528
 23
30.9487004259
  0
SOLID
  8
0
 62
7
  6
CONTINUOUS
 10
155.7018665869
 20
31.3681282026
 11
155.7018665869
 21
30.8519086025
 12
155.412804528
 22
30.9487004259
 13
155.412804528
 23
30.9487004259
  0
SOLID
  8
0
 62
7
  6
CONTINUOUS
 10
157.6096790869
 20
31.5939736268
 11
157.840929528
 21
31.6262383465
 12
158.0721793074
 22
31.6262383465
 13
158.0721793074
 23
31.6262383465
  0
SOLID
  8
0
 62
7
  6
CONTINUOUS
 10
158.0721793074
 20
31.6262383465
 11
158.2456168074
 21
31.5939736268
 12
157.6096790869
 22
31.5939736268
 13
157.6096790869
 23
31.5939736268
  0
SOLID
  8
0
 62
7
  6
CONTINUOUS
 10
157.4362415869
 20
31.5294472848
 11
157.6096790869
 21
31.5939736268
 12
158.2456168074
 22
31.5939736268
 13
158.2456168074
 23
31.5939736268
  0
SOLID
  8
0
 62
7
  6
CONTINUOUS
 10
158.2456168074
 20
31.5939736268
 11
158.4190543074
 21
31.5294472848
 12
157.4362415869
 22
31.5294472848
 13
157.4362415869
 23
31.5294472848
  0
SOLID
  8
0
 62
7
  6
CONTINUOUS
 10
158.4190543074
 20
31.5294472848
 11
157.840929528
 21
31.4971825369
 12
157.4362415869
 22
31.5294472848
 13
157.4362415869
 23
31.5294472848
  0
SOLID
  8
0
 62
7
  6
CONTINUOUS
 10
157.320617028
 20
31.4649199103
 11
157.4362415869
 21
31.5294472848
 12
157.840929528
 22
31.4971825369
 13
157.840929528
 23
31.4971825369
  0
SOLID
  8
0
 62
7
  6
CONTINUOUS
 10
157.840929528
 20
31.4971825369
 11
157.6096790869
 21
31.4649199103
 12
157.320617028
 22
31.4649199103
 13
157.320617028
 23
31.4649199103
  0
SOLID
  8
0
 62
7
  6
CONTINUOUS
 10
157.840929528
 20
31.4971825369
 11
158.4190543074
 21
31.5294472848
 12
158.0721793074
 22
31.4649199103
 13
158.0721793074
 23
31.4649199103
  0
SOLID
  8
0
 62
7
  6
CONTINUOUS
 10
158.4190543074
 20
31.5294472848
 11
158.534679528
 21
31.4649199103
 12
158.0721793074
 22
31.4649199103
 13
158.0721793074
 23
31.4649199103
  0
SOLID
  8
0
 62
7
  6
CONTINUOUS
 10
158.187804528
 20
31.4326554468
 11
158.0721793074
 21
31.4649199103
 12
158.534679528
 22
31.4649199103
 13
158.534679528
 23
31.4649199103
  0
SOLID
  8
0
 62
7
  6
CONTINUOUS
 10
158.187804528
 20
31.4326554468
 11
158.534679528
 21
31.4649199103
 12
158.3034290869
 22
31.3681288486
 13
158.3034290869
 23
31.3681288486
  0
SOLID
  8
0
 62
7
  6
CONTINUOUS
 10
158.534679528
 20
31.4649199103
 11
158.5924918074
 21
31.3681288486
 12
158.3034290869
 22
31.3681288486
 13
158.3034290869
 23
31.3681288486
  0
SOLID
  8
0
 62
7
  6
CONTINUOUS
 10
158.361242028
 20
31.2068093799
 11
158.3034290869
 21
31.3681288486
 12
158.5924918074
 22
31.3681288486
 13
158.5924918074
 23
31.3681288486
  0
SOLID
  8
0
 62
7
  6
CONTINUOUS
 10
158.5924918074
 20
31.3681288486
 11
158.6503040869
 21
31.2068093799
 12
158.361242028
 22
31.2068093799
 13
158.361242028
 23
31.2068093799
  0
SOLID
  8
0
 62
7
  6
CONTINUOUS
 10
157.6096790869
 20
31.4649199103
 11
157.4362415869
 21
31.4003926599
 12
157.320617028
 22
31.4649199103
 13
157.320617028
 23
31.4649199103
  0
SOLID
  8
0
 62
7
  6
CONTINUOUS
 10
157.4362415869
 20
31.4003926599
 11
157.320617028
 21
31.3358640533
 12
157.320617028
 22
31.4649199103
 13
157.320617028
 23
31.4649199103
  0
SOLID
  8
0
 62
7
  6
CONTINUOUS
 10
157.320617028
 20
31.3358640533
 11
157.0315543074
 21
30.5938003547
 12
157.320617028
 22
31.4649199103
 13
157.320617028
 23
31.4649199103
  0
SOLID
  8
0
 62
7
  6
CONTINUOUS
 10
157.320617028
 20
31.4649199103
 11
157.0315543074
 21
30.5938003547
 12
157.320617028
 22
31.6262383465
 13
157.320617028
 23
31.6262383465
  0
SOLID
  8
0
 62
7
  6
CONTINUOUS
 10
157.0315543074
 20
30.5938003547
 11
157.0315543074
 21
31.6262383465
 12
157.320617028
 22
31.6262383465
 13
157.320617028
 23
31.6262383465
  0
SOLID
  8
0
 62
7
  6
CONTINUOUS
 10
157.320617028
 20
31.3358640533
 11
157.320617028
 21
30.5938003547
 12
157.0315543074
 22
30.5938003547
 13
157.0315543074
 23
30.5938003547
  0
SOLID
  8
0
 62
7
  6
CONTINUOUS
 10
158.361242028
 20
30.5938003547
 11
158.361242028
 21
31.2068093799
 12
158.6503040869
 22
31.2068093799
 13
158.6503040869
 23
31.2068093799
  0
SOLID
  8
0
 62
7
  6
CONTINUOUS
 10
158.6503040869
 20
31.2068093799
 11
158.6503040869
 21
30.5938003547
 12
158.361242028
 22
30.5938003547
 13
158.361242028
 23
30.5938003547
  0
SOLID
  8
0
 62
7
  6
CONTINUOUS
 10
159.4596793074
 20
31.5939739474
 11
159.8065543074
 21
31.6262381969
 12
160.1534293074
 22
31.6262381969
 13
160.1534293074
 23
31.6262381969
  0
SOLID
  8
0
 62
7
  6
CONTINUOUS
 10
160.1534293074
 20
31.6262381969
 11
160.5003043074
 21
31.5939739474
 12
159.4596793074
 22
31.5939739474
 13
159.4596793074
 23
31.5939739474
  0
SOLID
  8
0
 62
7
  6
CONTINUOUS
 10
159.228429528
 20
31.5294468402
 11
159.4596793074
 21
31.5939739474
 12
160.5003043074
 22
31.5939739474
 13
160.5003043074
 23
31.5939739474
  0
SOLID
  8
0
 62
7
  6
CONTINUOUS
 10
159.228429528
 20
31.5294468402
 11
160.5003043074
 21
31.5939739304
 12
160.6737418074
 22
31.5617111435
 13
160.6737418074
 23
31.5617111435
  0
SOLID
  8
0
 62
7
  6
CONTINUOUS
 10
159.228429528
 20
31.5294468402
 11
160.6737418074
 21
31.5617111435
 12
159.8065543074
 22
31.4971825592
 13
159.8065543074
 23
31.4971825592
  0
SOLID
  8
0
 62
7
  6
CONTINUOUS
 10
159.8065543074
 20
31.4971825592
 11
160.6737418074
 21
31.5617111435
 12
160.1534293074
 22
31.4971825592
 13
160.1534293074
 23
31.4971825592
  0
SOLID
  8
0
 62
7
  6
CONTINUOUS
 10
160.6737418074
 20
31.5617111435
 11
160.8471793074
 21
31.4971825592
 12
160.1534293074
 22
31.4971825592
 13
160.1534293074
 23
31.4971825592
  0
SOLID
  8
0
 62
7
  6
CONTINUOUS
 10
160.5003043074
 20
31.4649197501
 11
160.1534293074
 21
31.4971825592
 12
160.8471793074
 22
31.4971825592
 13
160.8471793074
 23
31.4971825592
  0
SOLID
  8
0
 62
7
  6
CONTINUOUS
 10
159.1128043074
 20
31.4326555427
 11
159.228429528
 21
31.5294468402
 12
159.8065543074
 22
31.4971825592
 13
159.8065543074
 23
31.4971825592
  0
SOLID
  8
0
 62
7
  6
CONTINUOUS
 10
160.5003043074
 20
31.4649197501
 11
160.8471793074
 21
31.4971825592
 12
160.615929528
 22
31.4326555427
 13
160.615929528
 23
31.4326555427
  0
SOLID
  8
0
 62
7
  6
CONTINUOUS
 10
160.615929528
 20
31.4326555427
 11
160.8471793074
 21
31.4971825592
 12
160.6737418074
 22
31.3681283005
 13
160.6737418074
 23
31.3681283005
  0
SOLID
  8
0
 62
7
  6
CONTINUOUS
 10
160.8471793074
 20
31.4971825592
 11
160.9628038663
 21
31.3681283005
 12
160.6737418074
 22
31.3681283005
 13
160.6737418074
 23
31.3681283005
  0
SOLID
  8
0
 62
7
  6
CONTINUOUS
 10
150.2674918074
 20
31.4649197501
 11
149.7471793074
 21
31.4326554237
 12
150.498741835
 22
31.4971824493
 13
150.498741835
 23
31.4971824493
  0
SOLID
  8
0
 62
7
  6
CONTINUOUS
 10
149.7471793074
 20
31.4326554237
 11
149.8628043005
 21
31.4971824493
 12
150.498741835
 22
31.4971824493
 13
150.498741835
 23
31.4971824493
  0
SOLID
  8
0
 62
7
  6
CONTINUOUS
 10
150.2674918074
 20
31.4649197501
 11
150.1518667936
 21
31.4326554237
 12
149.7471793074
 22
31.4326554237
 13
149.7471793074
 23
31.4326554237
  0
SOLID
  8
0
 62
7
  6
CONTINUOUS
 10
149.6315543091
 20
31.3036012664
 11
149.7471793074
 21
31.4326554237
 12
150.1518667936
 22
31.4326554237
 13
150.1518667936
 23
31.4326554237
  0
SOLID
  8
0
 62
7
  6
CONTINUOUS
 10
153.9674919177
 20
31.4326554237
 11
154.6612419177
 21
31.4971825369
 12
154.4299918074
 22
31.4649197501
 13
154.4299918074
 23
31.4649197501
  0
SOLID
  8
0
 62
7
  6
CONTINUOUS
 10
154.4299918074
 20
31.4649197501
 11
154.3143669177
 21
31.4326554237
 12
153.9674919177
 22
31.4326554237
 13
153.9674919177
 23
31.4326554237
  0
SOLID
  8
0
 62
7
  6
CONTINUOUS
 10
153.9674919177
 20
31.3681283335
 11
153.9674919177
 21
31.4326554237
 12
154.3143669177
 22
31.4326554237
 13
154.3143669177
 23
31.4326554237
  0
SOLID
  8
0
 62
7
  6
CONTINUOUS
 10
154.3143669177
 20
31.4326554237
 11
154.2565543074
 21
31.3681283335
 12
153.9674919177
 22
31.3681283335
 13
153.9674919177
 23
31.3681283335
  0
SOLID
  8
0
 62
7
  6
CONTINUOUS
 10
159.1128043074
 20
31.4326555528
 11
159.8065543074
 21
31.4971825369
 12
159.575304528
 22
31.4649197501
 13
159.575304528
 23
31.4649197501
  0
SOLID
  8
0
 62
7
  6
CONTINUOUS
 10
159.575304528
 20
31.4649197501
 11
159.4596793074
 21
31.4326555528
 12
159.1128043074
 22
31.4326555528
 13
159.1128043074
 23
31.4326555528
  0
SOLID
  8
0
 62
7
  6
CONTINUOUS
 10
159.1128043074
 20
31.3681284626
 11
159.1128043074
 21
31.4326555528
 12
159.4596793074
 22
31.4326555528
 13
159.4596793074
 23
31.4326555528
  0
SOLID
  8
0
 62
7
  6
CONTINUOUS
 10
159.4596793074
 20
31.4326555528
 11
159.401867028
 21
31.3681284626
 12
159.1128043074
 22
31.3681284626
 13
159.1128043074
 23
31.3681284626
  0
SOLID
  8
0
 62
7
  6
CONTINUOUS
 10
159.228429528
 20
31.2390741763
 11
159.1128043074
 21
31.3681284626
 12
159.401867028
 22
31.3681284626
 13
159.401867028
 23
31.3681284626
  0
SOLID
  8
0
 62
7
  6
CONTINUOUS
 10
149.6315543091
 20
31.3036012664
 11
150.1518667936
 21
31.4326554468
 12
149.9784292936
 22
31.3358640533
 13
149.9784292936
 23
31.3358640533
  0
SOLID
  8
0
 62
7
  6
CONTINUOUS
 10
149.9784292936
 20
31.3358640533
 11
149.9206168074
 21
31.2713369632
 12
149.6315543091
 22
31.3036012664
 13
149.6315543091
 23
31.3036012664
  0
SOLID
  8
0
 62
7
  6
CONTINUOUS
 10
149.5737418074
 20
31.1100184796
 11
149.6315543091
 21
31.3036012664
 12
149.9206168074
 22
31.2713369632
 13
149.9206168074
 23
31.2713369632
  0
SOLID
  8
0
 62
7
  6
CONTINUOUS
 10
154.4299918074
 20
31.2390741763
 11
154.7768668074
 21
31.271336924
 12
155.412804528
 22
31.271336924
 13
155.412804528
 23
31.271336924
  0
SOLID
  8
0
 62
7
  6
CONTINUOUS
 10
154.4299918074
 20
31.2390741763
 11
155.412804528
 21
31.271336924
 12
154.1987416972
 22
31.1745462761
 13
154.1987416972
 23
31.1745462761
  0
SOLID
  8
0
 62
7
  6
CONTINUOUS
 10
154.1987416972
 20
31.1745462761
 11
155.412804528
 21
31.271336924
 12
154.7768668074
 22
31.1422827436
 13
154.7768668074
 23
31.1422827436
  0
SOLID
  8
0
 62
7
  6
CONTINUOUS
 10
155.412804528
 20
31.271336924
 11
155.412804528
 21
31.1422827436
 12
154.7768668074
 22
31.1422827436
 13
154.7768668074
 23
31.1422827436
  0
SOLID
  8
0
 62
7
  6
CONTINUOUS
 10
159.228429528
 20
31.2390745501
 11
159.401867028
 21
31.3681283566
 12
159.4596793074
 22
31.3036012664
 13
159.4596793074
 23
31.3036012664
  0
SOLID
  8
0
 62
7
  6
CONTINUOUS
 10
159.4596793074
 20
31.3036012664
 11
159.6331168074
 21
31.2390745501
 12
159.228429528
 22
31.2390745501
 13
159.228429528
 23
31.2390745501
  0
SOLID
  8
0
 62
7
  6
CONTINUOUS
 10
159.4596793074
 20
31.1422827828
 11
159.228429528
 21
31.2390745501
 12
159.6331168074
 22
31.2390745501
 13
159.6331168074
 23
31.2390745501
  0
SOLID
  8
0
 62
7
  6
CONTINUOUS
 10
159.6331168074
 20
31.2390745501
 11
160.615929528
 21
31.0777556927
 12
159.4596793074
 22
31.1422827828
 13
159.4596793074
 23
31.1422827828
  0
SOLID
  8
0
 62
7
  6
CONTINUOUS
 10
160.442492028
 20
30.9809646623
 11
159.4596793074
 21
31.1422827828
 12
160.615929528
 22
31.0777556927
 13
160.615929528
 23
31.0777556927
  0
SOLID
  8
0
 62
7
  6
CONTINUOUS
 10
160.615929528
 20
31.0777556927
 11
160.8471793074
 21
30.9809646623
 12
160.442492028
 22
30.9809646623
 13
160.442492028
 23
30.9809646623
  0
SOLID
  8
0
 62
7
  6
CONTINUOUS
 10
160.615929528
 20
30.9164372091
 11
160.442492028
 21
30.9809646623
 12
160.8471793074
 22
30.9809646623
 13
160.8471793074
 23
30.9809646623
  0
SOLID
  8
0
 62
7
  6
CONTINUOUS
 10
160.615929528
 20
30.9164372091
 11
160.8471793074
 21
30.9809646623
 12
160.6737418074
 22
30.8519089441
 13
160.6737418074
 23
30.8519089441
  0
SOLID
  8
0
 62
7
  6
CONTINUOUS
 10
160.8471793074
 20
30.9809646623
 11
160.9628038663
 21
30.8519089441
 12
160.6737418074
 22
30.8519089441
 13
160.6737418074
 23
30.8519089441
  0
SOLID
  8
0
 62
7
  6
CONTINUOUS
 10
160.615929528
 20
30.7873818593
 11
160.6737418074
 21
30.8519089441
 12
160.9628038663
 22
30.8519089441
 13
160.9628038663
 23
30.8519089441
  0
SOLID
  8
0
 62
7
  6
CONTINUOUS
 10
160.9628038663
 20
30.8519089441
 11
160.9628038663
 21
30.7873818593
 12
160.615929528
 22
30.7873818593
 13
160.615929528
 23
30.7873818593
  0
SOLID
  8
0
 62
7
  6
CONTINUOUS
 10
160.5003043074
 20
30.7551187255
 11
160.615929528
 21
30.7873818593
 12
160.9628038663
 22
30.7873818593
 13
160.9628038663
 23
30.7873818593
  0
SOLID
  8
0
 62
7
  6
CONTINUOUS
 10
160.5003043074
 20
30.7551187255
 11
160.9628038663
 21
30.7873818593
 12
160.269054528
 22
30.7228547745
 13
160.269054528
 23
30.7228547745
  0
SOLID
  8
0
 62
7
  6
CONTINUOUS
 10
160.9628038663
 20
30.7873818593
 11
160.8471793074
 21
30.6905916353
 12
160.269054528
 22
30.7228547745
 13
160.269054528
 23
30.7228547745
  0
SOLID
  8
0
 62
7
  6
CONTINUOUS
 10
160.8471793074
 20
30.6905916353
 11
159.401867028
 21
30.658327332
 12
160.269054528
 22
30.7228547745
 13
160.269054528
 23
30.7228547745
  0
SOLID
  8
0
 62
7
  6
CONTINUOUS
 10
160.269054528
 20
30.7228547745
 11
159.401867028
 21
30.658327332
 12
159.922179528
 22
30.7228547745
 13
159.922179528
 23
30.7228547745
  0
SOLID
  8
0
 62
7
  6
CONTINUOUS
 10
159.401867028
 20
30.658327332
 11
159.228429528
 21
30.7228547745
 12
159.922179528
 22
30.7228547745
 13
159.922179528
 23
30.7228547745
  0
SOLID
  8
0
 62
7
  6
CONTINUOUS
 10
159.401867028
 20
30.658327332
 11
160.8471793074
 21
30.6905916353
 12
159.575304528
 22
30.6260629858
 13
159.575304528
 23
30.6260629858
  0
SOLID
  8
0
 62
7
  6
CONTINUOUS
 10
160.8471793074
 20
30.6905916353
 11
160.615929528
 21
30.6260629858
 12
159.575304528
 22
30.6260629858
 13
159.575304528
 23
30.6260629858
  0
SOLID
  8
0
 62
7
  6
CONTINUOUS
 10
159.922179528
 20
30.5938006049
 11
159.575304528
 21
30.6260629858
 12
160.615929528
 22
30.6260629858
 13
160.615929528
 23
30.6260629858
  0
SOLID
  8
0
 62
7
  6
CONTINUOUS
 10
160.615929528
 20
30.6260629858
 11
160.269054528
 21
30.5938006049
 12
159.922179528
 22
30.5938006049
 13
159.922179528
 23
30.5938006049
  0
SOLID
  8
0
 62
7
  6
CONTINUOUS
 10
149.5737418074
 20
31.1100184796
 11
149.9206168074
 21
31.2713369632
 12
149.8628043005
 22
31.1422827828
 13
149.8628043005
 23
31.1422827828
  0
SOLID
  8
0
 62
7
  6
CONTINUOUS
 10
149.8628043005
 20
31.1422827828
 11
149.8628043005
 21
31.0454914852
 12
149.5737418074
 22
31.1100184796
 13
149.5737418074
 23
31.1100184796
  0
SOLID
  8
0
 62
7
  6
CONTINUOUS
 10
149.6315543091
 20
30.9164372091
 11
149.5737418074
 21
31.1100184796
 12
149.8628043005
 22
31.0454914852
 13
149.8628043005
 23
31.0454914852
  0
SOLID
  8
0
 62
7
  6
CONTINUOUS
 10
149.8628043005
 20
31.0454914852
 11
149.9784292936
 21
30.8841729058
 12
149.6315543091
 22
30.9164372091
 13
149.6315543091
 23
30.9164372091
  0
SOLID
  8
0
 62
7
  6
CONTINUOUS
 10
149.7471793074
 20
30.7873813202
 11
149.6315543091
 21
30.9164372091
 12
149.9784292936
 22
30.8841729058
 13
149.9784292936
 23
30.8841729058
  0
SOLID
  8
0
 62
7
  6
CONTINUOUS
 10
149.9784292936
 20
30.8841729058
 11
150.1518667936
 21
30.7873813202
 12
149.7471793074
 22
30.7873813202
 13
149.7471793074
 23
30.7873813202
  0
SOLID
  8
0
 62
7
  6
CONTINUOUS
 10
149.8628043005
 20
30.7228547004
 11
149.7471793074
 21
30.7873813202
 12
150.1518667936
 22
30.7873813202
 13
150.1518667936
 23
30.7873813202
  0
SOLID
  8
0
 62
7
  6
CONTINUOUS
 10
150.1518667936
 20
30.7873813202
 11
150.498741835
 21
30.7228547004
 12
149.8628043005
 22
30.7228547004
 13
149.8628043005
 23
30.7228547004
  0
SOLID
  8
0
 62
7
  6
CONTINUOUS
 10
150.0362418212
 20
30.658327332
 11
149.8628043005
 21
30.7228547004
 12
150.498741835
 22
30.7228547004
 13
150.498741835
 23
30.7228547004
  0
SOLID
  8
0
 62
7
  6
CONTINUOUS
 10
154.0831168074
 20
31.1100184386
 11
154.1987416972
 21
31.1745462761
 12
154.7768668074
 22
31.1422827828
 13
154.7768668074
 23
31.1422827828
  0
SOLID
  8
0
 62
7
  6
CONTINUOUS
 10
154.7768668074
 20
31.1422827828
 11
154.5456166972
 21
31.1100184386
 12
154.0831168074
 22
31.1100184386
 13
154.0831168074
 23
31.1100184386
  0
SOLID
  8
0
 62
7
  6
CONTINUOUS
 10
153.9674919177
 20
30.9809642992
 11
154.0831168074
 21
31.1100184386
 12
154.5456166972
 22
31.1100184386
 13
154.5456166972
 23
31.1100184386
  0
SOLID
  8
0
 62
7
  6
CONTINUOUS
 10
154.3143669177
 20
31.0132277988
 11
153.9674919177
 21
30.9809642992
 12
154.4299918074
 22
31.0777556927
 13
154.4299918074
 23
31.0777556927
  0
SOLID
  8
0
 62
7
  6
CONTINUOUS
 10
153.9674919177
 20
30.9809642992
 11
154.5456166972
 21
31.1100184796
 12
154.4299918074
 22
31.0777556927
 13
154.4299918074
 23
31.0777556927
  0
SOLID
  8
0
 62
7
  6
CONTINUOUS
 10
154.3143669177
 20
31.0132277988
 11
154.2565543074
 21
30.9164372091
 12
153.9674919177
 22
30.9809642992
 13
153.9674919177
 23
30.9809642992
  0
SOLID
  8
0
 62
7
  6
CONTINUOUS
 10
153.9674919177
 20
30.8841729058
 11
153.9674919177
 21
30.9809642992
 12
154.2565543074
 22
30.9164372091
 13
154.2565543074
 23
30.9164372091
  0
SOLID
  8
0
 62
7
  6
CONTINUOUS
 10
154.2565543074
 20
30.9164372091
 11
154.2565543074
 21
30.8519086025
 12
153.9674919177
 22
30.8841729058
 13
153.9674919177
 23
30.8841729058
  0
SOLID
  8
0
 62
7
  6
CONTINUOUS
 10
154.0253041972
 20
30.7551187255
 11
153.9674919177
 21
30.8841729058
 12
154.2565543074
 22
30.8519086025
 13
154.2565543074
 23
30.8519086025
  0
SOLID
  8
0
 62
7
  6
CONTINUOUS
 10
155.412804528
 20
30.9487004259
 11
155.7018665869
 21
30.8519086025
 12
155.3549915869
 22
30.8841729058
 13
155.3549915869
 23
30.8841729058
  0
SOLID
  8
0
 62
7
  6
CONTINUOUS
 10
155.1815540869
 20
30.7873815123
 11
155.3549915869
 21
30.8841729058
 12
155.7018665869
 22
30.8519086025
 13
155.7018665869
 23
30.8519086025
  0
SOLID
  8
0
 62
7
  6
CONTINUOUS
 10
155.1815540869
 20
30.7873815123
 11
155.7018665869
 21
30.8519086025
 12
155.412804528
 22
30.7551187255
 13
155.412804528
 23
30.7551187255
  0
SOLID
  8
0
 62
7
  6
CONTINUOUS
 10
155.7018665869
 20
30.8519086025
 11
155.759679528
 21
30.6905916353
 12
155.412804528
 22
30.7551187255
 13
155.412804528
 23
30.7551187255
  0
SOLID
  8
0
 62
7
  6
CONTINUOUS
 10
155.4706168074
 20
30.658327332
 11
155.412804528
 21
30.7551187255
 12
155.759679528
 22
30.6905916353
 13
155.759679528
 23
30.6905916353
  0
SOLID
  8
0
 62
7
  6
CONTINUOUS
 10
155.4706168074
 20
30.658327332
 11
155.759679528
 21
30.6905916353
 12
155.5284290869
 22
30.5938002079
 13
155.5284290869
 23
30.5938002079
  0
SOLID
  8
0
 62
7
  6
CONTINUOUS
 10
155.759679528
 20
30.6905916353
 11
155.8174918074
 21
30.5938002079
 12
155.5284290869
 22
30.5938002079
 13
155.5284290869
 23
30.5938002079
  0
SOLID
  8
0
 62
7
  6
CONTINUOUS
 10
151.0768668626
 20
30.8196456577
 11
151.1346793074
 21
30.9164373395
 12
151.4237418626
 22
30.9164373395
 13
151.4237418626
 23
30.9164373395
  0
SOLID
  8
0
 62
7
  6
CONTINUOUS
 10
151.4237418626
 20
30.9164373395
 11
151.3659292523
 21
30.7873815123
 12
151.0768668626
 22
30.8196456577
 13
151.0768668626
 23
30.8196456577
  0
SOLID
  8
0
 62
7
  6
CONTINUOUS
 10
150.9034292799
 20
30.7551187255
 11
151.0768668626
 21
30.8196456577
 12
151.3659292523
 22
30.7873815123
 13
151.3659292523
 23
30.7873815123
  0
SOLID
  8
0
 62
7
  6
CONTINUOUS
 10
150.9034292799
 20
30.7551187255
 11
151.3659292523
 21
30.7873815123
 12
150.498741835
 22
30.7228544222
 13
150.498741835
 23
30.7228544222
  0
SOLID
  8
0
 62
7
  6
CONTINUOUS
 10
151.3659292523
 20
30.7873815123
 11
151.1924917523
 21
30.6905916353
 12
150.498741835
 22
30.7228544222
 13
150.498741835
 23
30.7228544222
  0
SOLID
  8
0
 62
7
  6
CONTINUOUS
 10
150.0362418212
 20
30.658327332
 11
150.498741835
 21
30.7228544222
 12
151.1924917523
 22
30.6905916353
 13
151.1924917523
 23
30.6905916353
  0
SOLID
  8
0
 62
7
  6
CONTINUOUS
 10
150.0362418212
 20
30.658327332
 11
151.1924917523
 21
30.6905916353
 12
150.2096793212
 22
30.6260631011
 13
150.2096793212
 23
30.6260631011
  0
SOLID
  8
0
 62
7
  6
CONTINUOUS
 10
151.1924917523
 20
30.6905916353
 11
150.9612418074
 21
30.6260631011
 12
150.2096793212
 22
30.6260631011
 13
150.2096793212
 23
30.6260631011
  0
SOLID
  8
0
 62
7
  6
CONTINUOUS
 10
150.5565542799
 20
30.5938002419
 11
150.2096793212
 21
30.6260631011
 12
150.9612418074
 22
30.6260631011
 13
150.9612418074
 23
30.6260631011
  0
SOLID
  8
0
 62
7
  6
CONTINUOUS
 10
154.0253041972
 20
30.7551187255
 11
154.2565543074
 21
30.8519086025
 12
154.3143669177
 22
30.7873815123
 13
154.3143669177
 23
30.7873815123
  0
SOLID
  8
0
 62
7
  6
CONTINUOUS
 10
154.3143669177
 20
30.7873815123
 11
154.5456166972
 21
30.7228544222
 12
154.0253041972
 22
30.7551187255
 13
154.0253041972
 23
30.7551187255
  0
SOLID
  8
0
 62
7
  6
CONTINUOUS
 10
154.1987416972
 20
30.658327332
 11
154.0253041972
 21
30.7551187255
 12
154.5456166972
 22
30.7228544222
 13
154.5456166972
 23
30.7228544222
  0
SOLID
  8
0
 62
7
  6
CONTINUOUS
 10
154.8924916972
 20
30.7228544637
 11
155.1815540869
 21
30.7873815123
 12
155.412804528
 22
30.7551187255
 13
155.412804528
 23
30.7551187255
  0
SOLID
  8
0
 62
7
  6
CONTINUOUS
 10
155.412804528
 20
30.7551187255
 11
155.3549915869
 21
30.6905916353
 12
154.8924916972
 22
30.7228544637
 13
154.8924916972
 23
30.7228544637
  0
SOLID
  8
0
 62
7
  6
CONTINUOUS
 10
155.3549915869
 20
30.6905916353
 11
154.1987416972
 21
30.658327332
 12
154.8924916972
 22
30.7228544637
 13
154.8924916972
 23
30.7228544637
  0
SOLID
  8
0
 62
7
  6
CONTINUOUS
 10
154.1987416972
 20
30.658327332
 11
154.5456166972
 21
30.7228544637
 12
154.8924916972
 22
30.7228544637
 13
154.8924916972
 23
30.7228544637
  0
SOLID
  8
0
 62
7
  6
CONTINUOUS
 10
154.1987416972
 20
30.658327332
 11
155.3549915869
 21
30.6905916353
 12
154.3143669177
 22
30.6260630541
 13
154.3143669177
 23
30.6260630541
  0
SOLID
  8
0
 62
7
  6
CONTINUOUS
 10
155.3549915869
 20
30.6905916353
 11
155.1815540869
 21
30.6260630541
 12
154.3143669177
 22
30.6260630541
 13
154.3143669177
 23
30.6260630541
  0
SOLID
  8
0
 62
7
  6
CONTINUOUS
 10
154.5456166972
 20
30.5938002188
 11
154.3143669177
 21
30.6260630541
 12
155.1815540869
 22
30.6260630541
 13
155.1815540869
 23
30.6260630541
  0
SOLID
  8
0
 62
7
  6
CONTINUOUS
 10
155.1815540869
 20
30.6260630541
 11
154.8924916972
 21
30.5938002188
 12
154.5456166972
 22
30.5938002188
 13
154.5456166972
 23
30.5938002188
  0
SOLID
  8
0
 62
7
  6
CONTINUOUS
 10
159.575304528
 20
30.7551187255
 11
159.228429528
 21
30.7228544637
 12
159.4596793074
 22
30.7873815123
 13
159.4596793074
 23
30.7873815123
  0
SOLID
  8
0
 62
7
  6
CONTINUOUS
 10
159.4596793074
 20
30.7873815123
 11
159.228429528
 21
30.7228544637
 12
159.401867028
 22
30.851908644
 13
159.401867028
 23
30.851908644
  0
SOLID
  8
0
 62
7
  6
CONTINUOUS
 10
159.228429528
 20
30.7228544637
 11
159.1128043074
 21
30.851908644
 12
159.401867028
 22
30.851908644
 13
159.401867028
 23
30.851908644
  0
SOLID
  8
0
 62
7
  6
CONTINUOUS
 10
159.575304528
 20
30.7551187255
 11
159.922179528
 21
30.7228544637
 12
159.228429528
 22
30.7228544637
 13
159.228429528
 23
30.7228544637
  0
SOLID
  8
0
 62
7
  6
CONTINUOUS
 10
156.279992028
 20
30.5938002419
 11
156.279992028
 21
31.6262382337
 12
156.5690540869
 22
30.5938002419
 13
156.5690540869
 23
31.6262382337
  0
ENDBLK
  8
0
  6
BYBLOCK
 62
0
  0
BLOCK
  8
0
 62
2
  6
CONTINUOUS
  2
SYMBOL_3_BL0
 70
64
 10
32.1213064866
 20
19.8534310916
  0
TEXT
  8
0
 62
7
  6
CONTINUOUS
 10
18.3860103289
 20
19.2268451992
  7
TEXTSTYLE_3
 40
2.7338706658
  1
Ammeraal Beltech
 41
1.0
 51
15.0
 72
0
  0
TEXT
  8
0
 62
7
  6
CONTINUOUS
 10
29.1868111546
 20
16.9533085264
  7
TEXTSTYLE_4
 40
1.0935482663
  1
Innovation & Service in Belting
 41
1.0
 72
0
  0
LINE
  8
0
 62
7
  6
CONTINUOUS
 10
12.3614696776
 20
19.9934385078
 11
13.1396216709
 21
23.6543558055
  0
LINE
  8
0
 62
7
  6
CONTINUOUS
 10
23.2347899607
 20
27.3177497171
 11
13.6274394139
 21
24.1961322958
  0
LINE
  8
0
 62
7
  6
CONTINUOUS
 10
12.5867530099
 20
19.3000877048
 11
20.093828271
 21
12.5406867788
  0
LINE
  8
0
 62
7
  6
CONTINUOUS
 10
12.8492874206
 20
20.5352149982
 11
23.6575567857
 21
24.0470345971
  0
LINE
  8
0
 62
7
  6
CONTINUOUS
 10
23.6533516486
 20
13.6972460334
 11
15.2078919798
 21
21.3015720751
  0
LINE
  8
0
 62
7
  6
CONTINUOUS
 10
24.1731743684
 20
26.4728246013
 11
23.1966148312
 21
21.8784731989
  0
LINE
  8
0
 62
7
  6
CONTINUOUS
 10
22.4968128835
 20
18.5861638851
 11
21.810364672
 21
15.3566789607
  0
LINE
  8
0
 62
7
  6
CONTINUOUS
 10
24.8542704669
 20
14.087448211
 11
25.8105020025
 21
18.5861638851
  0
LINE
  8
0
 62
7
  6
CONTINUOUS
 10
26.5103039502
 20
21.8784731989
 11
26.9545457526
 21
23.9684665583
  0
LINE
  8
0
 62
7
  6
CONTINUOUS
 10
20.8069293463
 20
12.3891124661
 11
24.3664527239
 21
13.5456717207
  0
LINE
  8
0
 62
7
  6
CONTINUOUS
 10
23.9478910361
 20
27.1661754044
 11
26.7292624203
 21
24.6618173613
  0
ARC
  8
0
 62
7
  6
CONTINUOUS
 10
13.8527227462
 20
23.5027814928
 40
0.7290321776
 50
108.0
 51
168.0
  0
ARC
  8
0
 62
7
  6
CONTINUOUS
 10
23.4600732931
 20
26.624398914
 40
0.7290321776
 50
348.0
 51
108.0
  0
ARC
  8
0
 62
7
  6
CONTINUOUS
 10
26.2414446773
 20
24.120040871
 40
0.7290321776
 50
348.0
 51
48.0
  0
ARC
  8
0
 62
7
  6
CONTINUOUS
 10
20.581646014
 20
13.0824632691
 40
0.7290321776
 50
228.0
 51
288.0
  0
ARC
  8
0
 62
7
  6
CONTINUOUS
 10
13.0745707529
 20
19.8418641951
 40
0.7290321776
 50
108.0
 51
228.0
  0
ARC
  8
0
 62
7
  6
CONTINUOUS
 10
24.1411693916
 20
14.2390225237
 40
0.7290321776
 50
228.0
 51
348.0
  0
ENDBLK
  8
0
  6
BYBLOCK
 62
0
  0
ENDSEC
  0
SECTION
  2
ENTITIES
  0
TEXT
  8
0
 62
5
  6
CONTINUOUS
 10
96.0
 20
25.636
  7
TEXTSTYLE_2
 40
2.8
  1
Scale :
 41
0.6
 51
0.000019
 72
0
  0
TEXT
  8
0
 62
5
  6
CONTINUOUS
 10
116.0
 20
25.636
  7
TEXTSTYLE_2
 40
2.8
  1
Belt type:
 41
0.6
 51
0.000019
 72
0
  0
INSERT
  8
0
 62
2
  6
CONTINUOUS
  2
SYMBOL_3_BL0
 10
32.1213064866
 20
19.8534310916
  0
INSERT
  8
0
 62
2
  6
CONTINUOUS
  2
SYMBOL_8_BL1
 10
173.5956734183
 20
35.5937998301
  0
LINE
  8
0
 62
2
  6
CONTINUOUS
 10
10.0
 20
30.0
 11
200.0
 21
30.0
  0
LINE
  8
0
 62
2
  6
CONTINUOUS
 10
10.0
 20
30.0
 11
10.0
 21
10.0
  0
LINE
  8
0
 62
2
  6
CONTINUOUS
 10
10.0
 20
10.0
 11
200.0
 21
10.0
  0
LINE
  8
0
 62
2
  6
CONTINUOUS
 10
95.0
 20
30.0
 11
95.0
 21
10.0
  0
LINE
  8
0
 62
2
  6
CONTINUOUS
 10
115.0
 20
30.0
 11
115.0
 21
10.0
  0
LINE
  8
0
 62
2
  6
CONTINUOUS
 10
200.0
 20
30.0
 11
200.0
 21
10.0
  0
TEXT
  8
0
 62
5
  6
CONTINUOUS
 10
13.0
 20
23.303
  7
TEXTSTYLE_5
 40
1.52
  1
                                                                     Ammeraal Beltech Modular A/S
 41
1.0
 72
0
  0
TEXT
  8
0
 62
5
  6
CONTINUOUS
 10
13.0
 20
20.595
  7
TEXTSTYLE_5
 40
1.5
  1
                                                                      Hjulmagervej 21,  7100 Vejle,  DK
 41
1.0
 72
0
  0
TEXT
  8
0
 62
5
  6
CONTINUOUS
 10
13.0
 20
17.881
  7
TEXTSTYLE_5
 40
1.495
  1
                                                                      tel: 
 41
1.0
 72
0
  0
TEXT
  8
0
 62
5
  6
CONTINUOUS
 10
57.9869465649
 20
17.881
  7
TEXTSTYLE_5
 40
1.51
  1
+45 75723100     fax: +45 75723348
 41
1.0
 72
0
  0
TEXT
  8
0
 62
5
  6
CONTINUOUS
 10
13.0
 20
15.177
  7
TEXTSTYLE_5
 40
1.5
  1
                                                                      admin@unichains.dk  www.unichains.com
 41
1.0
 72
0
  0
TEXT
  8
0
 62
5
  6
CONTINUOUS
 10
99.75
 20
13.75
  7
TEXTSTYLE_6
 40
5.0
  1
1:1
 41
0.7
 72
1
 11
105.0
 21
13.75
  0
TEXT
  8
0
 62
5
  6
CONTINUOUS
 10
118.0
 20
13.75
  7
TEXTSTYLE_7
 40
7.5
  1
Sprocket Z08
 41
0.6694444444
 72
0
  0
LINE
  8
0
 62
7
  6
CONTINUOUS
 10
210.0
 20
0.0
 11
0.0
 21
0.0
  0
LINE
  8
0
 62
7
  6
CONTINUOUS
 10
10.0
 20
10.0
 11
200.0
 21
10.0
  0
LINE
  8
0
 62
7
  6
CONTINUOUS
 10
10.0
 20
30.0
 11
200.0
 21
30.0
  0
LINE
  8
0
 62
7
  6
CONTINUOUS
 10
0.0
 20
0.0
 11
0.0
 21
297.0
  0
LINE
  8
0
 62
7
  6
CONTINUOUS
 10
10.0
 20
10.0
 11
10.0
 21
287.0
  0
LINE
  8
0
 62
7
  6
CONTINUOUS
 10
200.0
 20
287.0
 11
200.0
 21
10.0
  0
LINE
  8
0
 62
7
  6
CONTINUOUS
 10
210.0
 20
0.0
 11
210.0
 21
297.0
  0
LINE
  8
0
 62
7
  6
CONTINUOUS
 10
10.0
 20
287.0
 11
200.0
 21
287.0
  0
LINE
  8
0
 62
7
  6
CONTINUOUS
 10
0.0
 20
297.0
 11
210.0
 21
297.0
  0
LINE
  8
0
 62
7
  6
CONTINUOUS
 10
93.4386030536
 20
166.9699861254
 11
95.8727699522
 21
166.5824124193
  0
LINE
  8
0
 62
7
  6
CONTINUOUS
 10
73.95073453
 20
258.2241428409
 11
71.9554626136
 21
256.7769829162
  0
LINE
  8
0
 62
7
  6
CONTINUOUS
 10
61.0030148234
 20
187.9898452762
 11
62.4501747481
 21
185.9945733599
  0
LINE
  8
0
 62
7
  6
CONTINUOUS
 10
52.9308753792
 20
225.7885546107
 11
52.5433016731
 21
223.3543877121
  0
LINE
  8
0
 62
7
  6
CONTINUOUS
 10
101.894023459
 20
180.1681342053
 11
104.2711478035
 21
180.1681342053
  0
LINE
  8
0
 62
7
  6
CONTINUOUS
 10
116.9168991146
 20
180.1681342053
 11
119.594023459
 21
180.1681342053
  0
LINE
  8
0
 62
7
  6
CONTINUOUS
 10
105.594023459
 20
180.6681342053
 11
115.594023459
 21
180.6681342053
  0
LINE
  8
0
 62
7
  6
CONTINUOUS
 10
77.3043494299
 20
242.9127577281
 11
75.6234686862
 21
241.2318769844
  0
LINE
  8
0
 62
7
  6
CONTINUOUS
 10
66.6815721809
 20
232.2899804791
 11
64.7885594029
 21
230.3969677011
  0
LINE
  8
0
 62
7
  6
CONTINUOUS
 10
75.0416077301
 20
239.9429092471
 11
67.9705399182
 21
232.8718414352
  0
LINE
  8
LAY0001
 62
7
  6
CONTINUOUS
 10
113.8831323926
 20
197.6136906816
 11
113.9608385361
 21
197.6357309787
  0
LINE
  8
LAY0001
 62
7
  6
CONTINUOUS
 10
114.0188353065
 20
197.7772265186
 11
113.9411294484
 21
197.7551865069
  0
LINE
  8
LAY0001
 62
7
  6
CONTINUOUS
 10
115.1299606168
 20
198.8605189057
 11
115.2076667602
 21
198.8825592028
  0
LINE
  8
LAY0001
 62
7
  6
CONTINUOUS
 10
116.1024865574
 20
199.8330448463
 11
116.1801925582
 21
199.8550850008
  0
LINE
  8
LAY0001
 62
7
  6
CONTINUOUS
 10
116.2381894713
 20
199.9965806834
 11
116.1604834705
 21
199.974540529
  0
LINE
  8
LAY0001
 62
7
  6
CONTINUOUS
 10
115.5220222324
 20
199.8649048897
 11
115.4054631526
 21
199.831844594
  0
LINE
  8
LAY0001
 62
7
  6
CONTINUOUS
 10
116.9613498099
 20
200.719741022
 11
117.0779088824
 21
200.752801325
  0
LINE
  8
LAY0001
 62
7
  6
CONTINUOUS
 10
117.2066883452
 20
201.5217380794
 11
117.3232474275
 21
201.5547983726
  0
LINE
  8
LAY0001
 62
7
  6
CONTINUOUS
 10
117.3812442774
 20
201.6962940115
 11
117.3035382271
 21
201.6742538173
  0
LINE
  8
0
 62
7
  6
CONTINUOUS
 10
102.8606901257
 20
191.099800872
 11
108.994023459
 21
191.099800872
  0
LINE
  8
0
 62
7
  6
CONTINUOUS
 10
108.994023459
 20
192.1664675386
 11
102.8606901257
 21
192.1664675386
  0
LINE
  8
0
 62
7
  6
CONTINUOUS
 10
96.194023459
 20
191.6331342053
 11
102.8606901257
 21
189.6583775722
  0
LINE
  8
0
 62
7
  6
CONTINUOUS
 10
76.3143999362
 20
191.3434601762
 11
77.9952806799
 21
189.6625794325
  0
LINE
  8
0
 62
7
  6
CONTINUOUS
 10
86.9371771852
 20
180.7206829272
 11
88.8301899632
 21
178.8276701492
  0
LINE
  8
0
 62
7
  6
CONTINUOUS
 10
79.2842484172
 20
189.0807184764
 11
86.3553162291
 21
182.0096506645
  0
LINE
  8
0
 62
7
  6
CONTINUOUS
 10
66.129023459
 20
217.3331342053
 11
66.129023459
 21
214.9560098608
  0
LINE
  8
0
 62
7
  6
CONTINUOUS
 10
66.129023459
 20
202.3102585498
 11
66.129023459
 21
199.6331342053
  0
LINE
  8
0
 62
7
  6
CONTINUOUS
 10
66.629023459
 20
213.6331342053
 11
66.629023459
 21
203.6331342053
  0
LINE
  8
0
 62
7
  6
CONTINUOUS
 10
87.7484991072
 20
238.4179344416
 11
87.6113678151
 21
238.3232095083
  0
LINE
  8
0
 62
7
  6
CONTINUOUS
 10
87.302822555
 20
238.1100785099
 11
87.1314084889
 21
237.9916723771
  0
LINE
  8
0
 62
7
  6
CONTINUOUS
 10
88.2563064048
 20
239.5119611061
 11
88.0802017501
 21
239.4006511997
  0
LINE
  8
0
 62
7
  6
CONTINUOUS
 10
88.1938799823
 20
239.2207995903
 11
88.369984637
 21
239.3321094968
  0
LINE
  8
0
 62
7
  6
CONTINUOUS
 10
88.597341165
 20
238.9724061773
 11
88.4212365103
 21
238.8610962708
  0
LINE
  8
0
 62
7
  6
CONTINUOUS
 10
93.7302505731
 20
241.460026946
 11
93.5093105704
 21
241.335542855
  0
LINE
  8
0
 62
7
  6
CONTINUOUS
 10
94.3535856649
 20
240.4630276595
 11
94.0934268256
 21
240.3244715945
  0
LINE
  8
0
 62
7
  6
CONTINUOUS
 10
94.1901306808
 20
240.1783316415
 11
94.4502886262
 21
240.3168873739
  0
LINE
  8
0
 62
7
  6
CONTINUOUS
 10
91.8672104516
 20
241.4222040286
 11
90.5076426789
 21
240.7885042011
  0
LINE
  8
0
 62
7
  6
CONTINUOUS
 10
90.8421010952
 20
240.6627050755
 11
91.9750742392
 21
241.1907882651
  0
LINE
  8
0
 62
7
  6
CONTINUOUS
 10
92.0577157886
 20
240.6189761098
 11
91.0758060186
 21
240.1613041465
  0
LINE
  8
0
 62
7
  6
CONTINUOUS
 10
91.1836698062
 20
239.929888383
 11
92.1655795761
 21
240.3875603463
  0
LINE
  8
0
 62
7
  6
CONTINUOUS
 10
91.3525757821
 20
238.9757471708
 11
91.5791704109
 21
239.0813638087
  0
LINE
  8
0
 62
7
  6
CONTINUOUS
 10
86.823826578
 20
236.0892764676
 11
86.9810401793
 21
236.1590792757
  0
LINE
  8
0
 62
7
  6
CONTINUOUS
 10
92.4586829014
 20
241.6588354441
 11
92.2658877936
 21
241.5798867873
  0
LINE
  8
0
 62
7
  6
CONTINUOUS
 10
93.0237943204
 20
239.7290551643
 11
93.2165894282
 21
239.8080038211
  0
LINE
  8
0
 62
7
  6
CONTINUOUS
 10
99.0356830229
 20
243.0992058443
 11
99.1959847423
 21
243.1615918698
  0
LINE
  8
0
 62
7
  6
CONTINUOUS
 10
99.8671928265
 20
241.7858249278
 11
99.7068911071
 21
241.7234389023
  0
LINE
  8
0
 62
7
  6
CONTINUOUS
 10
87.7081081149
 20
238.1831606126
 11
87.8694244819
 21
238.242873322
  0
LINE
  8
0
 62
7
  6
CONTINUOUS
 10
94.2948904245
 20
241.1201095611
 11
93.4713010329
 21
240.8246006545
  0
LINE
  8
0
 62
7
  6
CONTINUOUS
 10
93.4895681174
 20
240.6503170613
 11
94.5484687638
 21
241.0302570842
  0
LINE
  8
0
 62
7
  6
CONTINUOUS
 10
94.6346962765
 20
240.7899392357
 11
94.4386029657
 21
240.7195797575
  0
LINE
  8
0
 62
7
  6
CONTINUOUS
 10
109.3536735253
 20
242.4236587347
 11
109.4967886257
 21
242.4725070992
  0
LINE
  8
0
 62
7
  6
CONTINUOUS
 10
99.1651246589
 20
243.4150391178
 11
98.9634614362
 21
243.3476168591
  0
LINE
  8
0
 62
7
  6
CONTINUOUS
 10
99.7377511941
 20
241.4699916247
 11
99.9394134697
 21
241.5374137718
  0
LINE
  8
0
 62
7
  6
CONTINUOUS
 10
109.51313165
 20
242.6886975373
 11
109.2783733663
 21
242.6209586709
  0
LINE
  8
LAY0001
 62
7
  6
CONTINUOUS
 10
112.7940476649
 20
196.6081047233
 11
112.8995864461
 21
196.6023118119
  0
LINE
  8
LAY0001
 62
7
  6
CONTINUOUS
 10
112.9714996781
 20
196.7298908903
 11
112.9187302875
 21
196.732787346
  0
LINE
  8
LAY0001
 62
7
  6
CONTINUOUS
 10
112.5713842502
 20
196.830768138
 11
112.6769230412
 21
196.8249752168
  0
LINE
  8
LAY0001
 62
7
  6
CONTINUOUS
 10
112.7488362732
 20
196.9525542952
 11
112.6960668729
 21
196.9554507606
  0
LINE
  8
LAY0001
 62
7
  6
CONTINUOUS
 10
113.4145651785
 20
197.2842880833
 11
113.4673345691
 21
197.2813916276
  0
LINE
  8
LAY0001
 62
7
  6
CONTINUOUS
 10
113.5920174772
 20
197.4060745356
 11
113.4864784105
 21
197.4118671617
  0
LINE
  8
LAY0001
 62
7
  6
CONTINUOUS
 10
113.1919017639
 20
197.506951498
 11
113.2446711545
 21
197.5040550423
  0
LINE
  8
LAY0001
 62
7
  6
CONTINUOUS
 10
113.3693540625
 20
197.6287379503
 11
113.263814991
 21
197.6345305812
  0
LINE
  8
LAY0001
 62
7
  6
CONTINUOUS
 10
115.2407270632
 20
198.9991182753
 11
115.1879573872
 21
199.0020144457
  0
LINE
  8
LAY0001
 62
7
  6
CONTINUOUS
 10
114.8568587282
 20
199.2832401697
 11
114.8040893352
 21
199.2861366278
  0
LINE
  8
LAY0001
 62
7
  6
CONTINUOUS
 10
115.411255786
 20
199.7263055201
 11
115.4640253193
 21
199.723409207
  0
LINE
  8
LAY0001
 62
7
  6
CONTINUOUS
 10
116.0497170241
 20
199.8359411594
 11
116.1024865574
 21
199.8330448463
  0
LINE
  8
0
 62
7
  6
CONTINUOUS
 10
80.3481748157
 20
229.1688607643
 11
77.2815081491
 21
223.8572382877
  0
LINE
  8
0
 62
7
  6
CONTINUOUS
 10
78.2052685798
 20
223.3239049544
 11
81.2719352464
 21
228.6355274309
  0
LINE
  8
0
 62
7
  6
CONTINUOUS
 10
87.1109995419
 20
236.5325642372
 11
87.0064910661
 21
236.3959387712
  0
LINE
  8
0
 62
7
  6
CONTINUOUS
 10
87.1119012565
 20
236.262293436
 11
87.2164097392
 21
236.3989188932
  0
LINE
  8
0
 62
7
  6
CONTINUOUS
 10
87.6113678151
 20
238.3232095083
 11
87.4984215979
 21
238.193472351
  0
LINE
  8
0
 62
7
  6
CONTINUOUS
 10
87.5951618977
 20
238.0534234553
 11
87.7081081149
 21
238.1831606126
  0
LINE
  8
0
 62
7
  6
CONTINUOUS
 10
93.5419479893
 20
241.1212060212
 11
93.6060135229
 21
241.189402594
  0
LINE
  8
0
 62
7
  6
CONTINUOUS
 10
84.1433883644
 20
234.6756967895
 11
79.0998656205
 21
229.8895724142
  0
LINE
  8
0
 62
7
  6
CONTINUOUS
 10
98.921886154
 20
242.999614844
 11
99.0356830229
 21
243.0992058443
  0
LINE
  8
0
 62
7
  6
CONTINUOUS
 10
93.5093105704
 20
241.335542855
 11
93.4060261951
 21
241.2532743222
  0
LINE
  8
0
 62
7
  6
CONTINUOUS
 10
86.7266334332
 20
237.6927056234
 11
86.5630570751
 21
237.5636879138
  0
LINE
  8
0
 62
7
  6
CONTINUOUS
 10
85.9087517947
 20
237.0476171953
 11
85.7451754716
 21
236.9185995133
  0
LINE
  8
0
 62
7
  6
CONTINUOUS
 10
87.0064910661
 20
236.3959387712
 11
86.8756299889
 21
236.2927246109
  0
LINE
  8
0
 62
7
  6
CONTINUOUS
 10
86.9810401793
 20
236.1590792757
 11
87.1119012565
 21
236.262293436
  0
LINE
  8
0
 62
7
  6
CONTINUOUS
 10
87.4717691601
 20
236.5461323307
 11
87.6353455182
 21
236.6751500404
  0
LINE
  8
0
 62
7
  6
CONTINUOUS
 10
87.9053309551
 20
236.8712811135
 11
88.0767450211
 21
236.9896872463
  0
LINE
  8
0
 62
7
  6
CONTINUOUS
 10
88.6938355413
 20
237.4159492431
 11
88.8652495093
 21
237.5343553082
  0
LINE
  8
0
 62
7
  6
CONTINUOUS
 10
93.6060135229
 20
241.189402594
 11
93.7485167398
 21
241.2857430869
  0
LINE
  8
0
 62
7
  6
CONTINUOUS
 10
98.9634614362
 20
243.3476168591
 11
98.8083040107
 21
243.2429897409
  0
LINE
  8
0
 62
7
  6
CONTINUOUS
 10
99.9394134697
 20
241.5374137718
 11
100.0945718405
 21
241.6420410164
  0
LINE
  8
0
 62
7
  6
CONTINUOUS
 10
89.1487772599
 20
237.7100458702
 11
89.3248819145
 21
237.8213557767
  0
LINE
  8
0
 62
7
  6
CONTINUOUS
 10
111.1252221446
 20
242.0753458446
 11
110.9646347966
 21
241.9970281153
  0
LINE
  8
0
 62
7
  6
CONTINUOUS
 10
109.6460162988
 20
240.9748201133
 11
109.5029011983
 21
240.9259717488
  0
LINE
  8
0
 62
7
  6
CONTINUOUS
 10
111.1323357164
 20
241.8469530046
 11
111.3321736874
 21
241.9112905075
  0
LINE
  8
0
 62
7
  6
CONTINUOUS
 10
110.8396642214
 20
241.2736187432
 11
110.6398262504
 21
241.2092812403
  0
LINE
  8
0
 62
7
  6
CONTINUOUS
 10
111.8031375591
 20
241.2466530894
 11
111.6032977914
 21
241.1823162265
  0
LINE
  8
0
 62
7
  6
CONTINUOUS
 10
115.5284445881
 20
239.5108489786
 11
115.4146380497
 21
239.4756962131
  0
LINE
  8
0
 62
7
  6
CONTINUOUS
 10
118.4438703257
 20
238.2865366727
 11
118.2413194052
 21
238.2267829835
  0
LINE
  8
0
 62
7
  6
CONTINUOUS
 10
109.486560006
 20
240.7097807789
 11
109.7213164538
 21
240.7775201626
  0
LINE
  8
0
 62
7
  6
CONTINUOUS
 10
146.6361796228
 20
205.6460549372
 11
150.3949861017
 21
205.8430456375
  0
LINE
  8
LAY0001
 62
7
  6
CONTINUOUS
 10
117.4867832579
 20
201.6905012798
 11
117.3812442774
 21
201.6962940115
  0
LINE
  8
LAY0001
 62
7
  6
CONTINUOUS
 10
117.3232474275
 20
201.5547983726
 11
117.4427028576
 21
201.5350891868
  0
LINE
  8
LAY0001
 62
7
  6
CONTINUOUS
 10
113.8164465404
 20
197.6305035989
 11
113.8831323926
 21
197.6136906816
  0
LINE
  8
LAY0001
 62
7
  6
CONTINUOUS
 10
115.0632747645
 20
198.877331823
 11
115.1299606168
 21
198.8605189057
  0
LINE
  8
LAY0001
 62
7
  6
CONTINUOUS
 10
114.6794064272
 20
199.1614537198
 11
114.7460922842
 21
199.1446407976
  0
LINE
  8
LAY0001
 62
7
  6
CONTINUOUS
 10
114.9235445878
 20
199.2664272451
 11
114.8568587282
 21
199.2832401697
  0
LINE
  8
0
 62
7
  6
CONTINUOUS
 10
82.5202444416
 20
227.9148157811
 11
84.1433883644
 21
234.6756967895
  0
LINE
  8
0
 62
7
  6
CONTINUOUS
 10
87.1564402475
 20
236.67679751
 11
87.1109995419
 21
236.5325642372
  0
LINE
  8
0
 62
7
  6
CONTINUOUS
 10
87.4984215979
 20
238.193472351
 11
87.4439434259
 21
238.0524043048
  0
LINE
  8
0
 62
7
  6
CONTINUOUS
 10
87.5406837257
 20
237.9123554091
 11
87.5951618977
 21
238.0534234553
  0
LINE
  8
0
 62
7
  6
CONTINUOUS
 10
87.2164097392
 20
236.3989188932
 11
87.2554877536
 21
236.4839373256
  0
LINE
  8
0
 62
7
  6
CONTINUOUS
 10
93.4060261951
 20
241.2532743222
 11
93.317113072
 21
241.1309528145
  0
LINE
  8
0
 62
7
  6
CONTINUOUS
 10
94.4424987881
 20
240.5853491671
 11
94.3535856649
 21
240.4630276595
  0
LINE
  8
0
 62
7
  6
CONTINUOUS
 10
98.8083040107
 20
243.2429897409
 11
98.663432333
 21
243.0538800914
  0
LINE
  8
0
 62
7
  6
CONTINUOUS
 10
94.4502886262
 20
240.3168873739
 11
94.5784205873
 21
240.4532808521
  0
LINE
  8
BLANK_CURVE
 62
4
  6
CONTINUOUS
 10
88.4357399372
 20
225.9507958188
 11
93.2763618455
 21
230.7914177271
  0
LINE
  8
0
 62
7
  6
CONTINUOUS
 10
99.9809896917
 20
241.8854159577
 11
99.8671928265
 21
241.7858249278
  0
LINE
  8
0
 62
7
  6
CONTINUOUS
 10
106.8448870755
 20
241.5349731174
 11
108.5117985287
 21
242.6845834084
  0
LINE
  8
0
 62
7
  6
CONTINUOUS
 10
110.6861904252
 20
240.9669081178
 11
110.8610556874
 21
241.0853122527
  0
LINE
  8
0
 62
7
  6
CONTINUOUS
 10
111.6638891098
 20
240.483157424
 11
111.4890238576
 21
240.3647533172
  0
LINE
  8
0
 62
7
  6
CONTINUOUS
 10
108.3235537699
 20
242.8079124323
 11
106.6157432573
 21
241.6662598465
  0
LINE
  8
0
 62
7
  6
CONTINUOUS
 10
109.2783733663
 20
242.6209586709
 11
109.1239557756
 21
242.5310855896
  0
LINE
  8
0
 62
7
  6
CONTINUOUS
 10
109.7213164538
 20
240.7775201626
 11
109.8757340485
 21
240.8673932583
  0
LINE
  8
0
 62
7
  6
CONTINUOUS
 10
111.8102493342
 20
241.0182608894
 11
111.9708366822
 21
241.0965786186
  0
LINE
  8
0
 62
7
  6
CONTINUOUS
 10
111.5496659415
 20
240.1624665862
 11
111.7102532946
 21
240.2407843295
  0
LINE
  8
0
 62
7
  6
CONTINUOUS
 10
115.537040884
 20
239.2642309632
 11
115.7280139371
 21
239.3543790178
  0
LINE
  8
0
 62
7
  6
CONTINUOUS
 10
118.2966416161
 20
238.0242623236
 11
118.4402644191
 21
238.0753865455
  0
LINE
  8
0
 62
7
  6
CONTINUOUS
 10
118.4150229641
 20
236.5973355126
 11
118.2714001431
 21
236.5462112671
  0
LINE
  8
0
 62
7
  6
CONTINUOUS
 10
118.2677942274
 20
236.335061128
 11
118.470345157
 21
236.394814829
  0
LINE
  8
LAY0001
 62
7
  6
CONTINUOUS
 10
117.0721161136
 20
200.8583402489
 11
117.0054301901
 21
200.8751530949
  0
LINE
  8
LAY0001
 62
7
  6
CONTINUOUS
 10
115.6026245559
 20
199.834175501
 11
115.5220222324
 21
199.8649048897
  0
LINE
  8
LAY0001
 62
7
  6
CONTINUOUS
 10
116.1604834705
 20
199.974540529
 11
116.079881014
 21
200.0052697652
  0
LINE
  8
LAY0001
 62
7
  6
CONTINUOUS
 10
116.8807473534
 20
200.7504702582
 11
116.9613498099
 21
200.719741022
  0
LINE
  8
LAY0001
 62
7
  6
CONTINUOUS
 10
113.721927765
 20
197.6751494394
 11
113.8164465404
 21
197.6305035989
  0
LINE
  8
LAY0001
 62
7
  6
CONTINUOUS
 10
113.9411294484
 20
197.7551865069
 11
113.8466103876
 21
197.799832062
  0
LINE
  8
LAY0001
 62
7
  6
CONTINUOUS
 10
114.7460922842
 20
199.1446407976
 11
114.8406113499
 21
199.0999952377
  0
LINE
  8
BLANK_CURVE
 62
4
  6
CONTINUOUS
 10
88.4357399372
 20
207.3154725917
 11
93.2763618455
 21
202.4748506835
  0
LINE
  8
BLANK_CURVE
 62
4
  6
CONTINUOUS
 10
97.4010586048
 20
200.6128956239
 11
98.4617187766
 21
199.5522354522
  0
LINE
  8
BLANK_CURVE
 62
4
  6
CONTINUOUS
 10
86.5737848777
 20
211.440169351
 11
85.5131247059
 21
212.5008295228
  0
LINE
  8
0
 62
7
  6
CONTINUOUS
 10
87.2554877536
 20
236.4839373256
 11
87.2745758532
 21
236.6615819099
  0
LINE
  8
0
 62
7
  6
CONTINUOUS
 10
87.4439434259
 20
238.0524043048
 11
87.4237479297
 21
237.9350173903
  0
LINE
  8
0
 62
7
  6
CONTINUOUS
 10
87.5204882295
 20
237.7949684946
 11
87.5406837257
 21
237.9123554091
  0
LINE
  8
0
 62
7
  6
CONTINUOUS
 10
95.8469997562
 20
242.1209171128
 11
95.5568704278
 21
241.4637141373
  0
LINE
  8
0
 62
7
  6
CONTINUOUS
 10
95.3363593789
 20
240.5608666864
 11
95.6264877736
 21
241.2180694592
  0
LINE
  8
0
 62
7
  6
CONTINUOUS
 10
93.317113072
 20
241.1309528145
 11
93.2674178928
 21
241.0227029449
  0
LINE
  8
0
 62
7
  6
CONTINUOUS
 10
93.4674061182
 20
240.9588315388
 11
93.5419479893
 21
241.1212060212
  0
LINE
  8
0
 62
7
  6
CONTINUOUS
 10
94.5784205873
 20
240.4532808521
 11
94.6529624533
 21
240.6156553485
  0
LINE
  8
0
 62
7
  6
CONTINUOUS
 10
95.4714155822
 20
241.3068082813
 11
95.0958323257
 21
240.4926997098
  0
LINE
  8
0
 62
7
  6
CONTINUOUS
 10
95.7119426354
 20
241.3749752579
 11
96.0875268094
 21
242.1890840894
  0
LINE
  8
0
 62
7
  6
CONTINUOUS
 10
98.8545941502
 20
242.8628187506
 11
98.921886154
 21
242.999614844
  0
LINE
  8
0
 62
7
  6
CONTINUOUS
 10
100.0945718405
 20
241.6420410164
 11
100.2394435164
 21
241.8311506807
  0
LINE
  8
0
 62
7
  6
CONTINUOUS
 10
109.1239557756
 20
242.5310855896
 11
108.9984051217
 21
242.3891209373
  0
LINE
  8
0
 62
7
  6
CONTINUOUS
 10
63.6824779217
 20
193.2596651797
 11
61.1638938313
 21
190.4624941693
  0
LINE
  8
BLANK_CURVE
 62
4
  6
CONTINUOUS
 10
98.4617187766
 20
233.7140329584
 11
97.4010586048
 21
232.6533727866
  0
LINE
  8
BLANK_CURVE
 62
4
  6
CONTINUOUS
 10
85.5131247059
 20
220.7654388877
 11
86.5737848777
 21
221.8260990595
  0
LINE
  8
0
 62
7
  6
CONTINUOUS
 10
111.9708366822
 20
241.0965786186
 11
112.1064513015
 21
241.2289629237
  0
LINE
  8
0
 62
7
  6
CONTINUOUS
 10
109.1251790051
 20
242.2217782422
 11
109.3536735253
 21
242.4236587347
  0
LINE
  8
0
 62
7
  6
CONTINUOUS
 10
109.8745126341
 20
241.1767000129
 11
109.6460162988
 21
240.9748201133
  0
LINE
  8
0
 62
7
  6
CONTINUOUS
 10
111.0109989513
 20
241.7546549367
 11
111.1323357164
 21
241.8469530046
  0
LINE
  8
0
 62
7
  6
CONTINUOUS
 10
111.9244724875
 20
241.338951685
 11
111.8031375591
 21
241.2466530894
  0
LINE
  8
0
 62
7
  6
CONTINUOUS
 10
118.2413194052
 20
238.2267829835
 11
118.0461573232
 21
238.1079327127
  0
LINE
  8
0
 62
7
  6
CONTINUOUS
 10
118.470345157
 20
236.394814829
 11
118.6655071848
 21
236.5136650287
  0
LINE
  8
DEFAULT_1
 62
2
  6
CENTER
 10
155.3665207877
 20
216.6331342053
 11
104.594123459
 21
216.6331342053
  0
LINE
  8
0
 62
2
  6
CONTINUOUS
 10
103.474023459
 20
216.6331342053
 11
101.714023459
 21
216.6331342053
  0
LINE
  8
DEFAULT_1
 62
2
  6
CENTER
 10
51.0590809628
 20
216.6331342053
 11
100.593923459
 21
216.6331342053
  0
LINE
  8
0
 62
7
  6
CONTINUOUS
 10
54.1782121211
 20
221.1185839479
 11
64.4763198144
 21
219.3027497113
  0
LINE
  8
LAY0001
 62
7
  6
CONTINUOUS
 10
115.9551982487
 20
199.8805869999
 11
116.0497170241
 21
199.8359411594
  0
LINE
  8
LAY0001
 62
7
  6
CONTINUOUS
 10
117.5952185907
 20
201.6319390736
 11
117.4867832579
 21
201.6905012798
  0
LINE
  8
0
 62
7
  6
CONTINUOUS
 10
77.2815081491
 20
223.8572382877
 11
78.2052685798
 21
223.3239049544
  0
LINE
  8
0
 62
7
  6
CONTINUOUS
 10
125.9674924846
 20
177.721588668
 11
128.764663495
 21
175.2030045776
  0
LINE
  8
0
 62
7
  6
CONTINUOUS
 10
87.1428131083
 20
236.8286385877
 11
87.1564402475
 21
236.67679751
  0
LINE
  8
0
 62
7
  6
CONTINUOUS
 10
91.606944191
 20
172.5909780416
 11
91.8039348913
 21
168.8321715627
  0
LINE
  8
0
 62
7
  6
CONTINUOUS
 10
93.2674178928
 20
241.0227029449
 11
93.2464661156
 21
240.8343474478
  0
LINE
  8
0
 62
7
  6
CONTINUOUS
 10
93.4569297808
 20
240.8646536292
 11
93.4674061182
 21
240.9588315388
  0
LINE
  8
0
 62
7
  6
CONTINUOUS
 10
98.663432333
 20
243.0538800914
 11
98.6012836619
 21
242.8748429083
  0
LINE
  8
0
 62
7
  6
CONTINUOUS
 10
100.2394435164
 20
241.8311506807
 11
100.3015921839
 21
242.0101878934
  0
LINE
  8
0
 62
7
  6
CONTINUOUS
 10
100.04828171
 20
242.0222119328
 11
99.9809896917
 21
241.8854159577
  0
LINE
  8
0
 62
7
  6
CONTINUOUS
 10
108.9984051217
 20
242.3891209373
 11
108.9243281922
 21
242.2771135262
  0
LINE
  8
0
 62
7
  6
CONTINUOUS
 10
110.0012847103
 20
241.0093579393
 11
110.0753616081
 21
241.1213652356
  0
LINE
  8
0
 62
7
  6
CONTINUOUS
 10
110.9646347966
 20
241.9970281153
 11
110.8147440399
 21
241.8245567085
  0
LINE
  8
0
 62
7
  6
CONTINUOUS
 10
110.6398262504
 20
241.2092812403
 11
110.489933717
 21
241.0368105296
  0
LINE
  8
0
 62
7
  6
CONTINUOUS
 10
111.7102532946
 20
240.2407843295
 11
111.8601440212
 21
240.4132556521
  0
LINE
  8
0
 62
7
  6
CONTINUOUS
 10
109.8757340485
 20
240.8673932583
 11
110.0012847103
 21
241.0093579393
  0
LINE
  8
0
 62
7
  6
CONTINUOUS
 10
115.625875187
 20
239.60326272
 11
115.5284445881
 21
239.5108489786
  0
LINE
  8
0
 62
7
  6
CONTINUOUS
 10
115.7280139371
 20
239.3543790178
 11
115.825444536
 21
239.4467927592
  0
LINE
  8
0
 62
7
  6
CONTINUOUS
 10
116.2201146624
 20
238.4041326613
 11
117.1587570137
 21
239.1654669872
  0
LINE
  8
0
 62
7
  6
CONTINUOUS
 10
115.6755458887
 20
237.9454322851
 11
116.0927197223
 21
238.283803425
  0
LINE
  8
0
 62
7
  6
CONTINUOUS
 10
117.1111862242
 20
239.3988927793
 11
115.4655895763
 21
238.0811464953
  0
LINE
  8
0
 62
7
  6
CONTINUOUS
 10
140.0008639024
 20
247.6965907894
 11
131.435013417
 21
241.6987177083
  0
LINE
  8
0
 62
7
  6
CONTINUOUS
 10
118.1861742195
 20
237.9479068073
 11
118.2966416161
 21
238.0242623236
  0
LINE
  8
0
 62
7
  6
CONTINUOUS
 10
117.773860529
 20
237.4060991271
 11
117.8843278895
 21
237.482454596
  0
LINE
  8
0
 62
7
  6
CONTINUOUS
 10
118.5254902885
 20
236.6736909341
 11
118.4150229641
 21
236.5973355126
  0
LINE
  8
0
 62
7
  6
CONTINUOUS
 10
121.506538769
 20
234.9423634562
 11
120.5827783383
 21
234.4090301228
  0
LINE
  8
0
 62
7
  6
CONTINUOUS
 10
151.009834797
 20
212.1476844627
 11
140.7117271037
 21
213.9635186993
  0
LINE
  8
0
 62
7
  6
CONTINUOUS
 10
79.0998656205
 20
229.8895724142
 11
80.3481748157
 21
229.1688607643
  0
LINE
  8
0
 62
7
  6
CONTINUOUS
 10
81.2719352464
 20
228.6355274309
 11
82.5202444416
 21
227.9148157811
  0
LINE
  8
LAY0001
 62
7
  6
CONTINUOUS
 10
113.2359805159
 20
196.1623928899
 11
114.8623261126
 21
194.5360472932
  0
LINE
  8
LAY0001
 62
7
  6
CONTINUOUS
 10
112.543551327
 20
196.8586010612
 11
112.5713842502
 21
196.830768138
  0
LINE
  8
LAY0001
 62
7
  6
CONTINUOUS
 10
115.4633668766
 20
195.1370880572
 11
113.8370212799
 21
196.7634336539
  0
LINE
  8
LAY0001
 62
7
  6
CONTINUOUS
 10
113.9784426361
 20
196.9048550102
 11
114.8976814517
 21
195.9856161946
  0
LINE
  8
LAY0001
 62
7
  6
CONTINUOUS
 10
113.6198504003
 20
197.3782416125
 11
113.5920174772
 21
197.4060745356
  0
LINE
  8
LAY0001
 62
7
  6
CONTINUOUS
 10
113.4575149558
 20
197.9395622485
 11
113.721927765
 21
197.6751494394
  0
LINE
  8
LAY0001
 62
7
  6
CONTINUOUS
 10
113.8466103876
 20
197.799832062
 11
113.5821975785
 21
198.0642448712
  0
LINE
  8
LAY0001
 62
7
  6
CONTINUOUS
 10
115.5340775547
 20
196.5513016196
 11
114.5794834001
 21
197.5058957742
  0
LINE
  8
LAY0001
 62
7
  6
CONTINUOUS
 10
114.0310557049
 20
198.5131029976
 11
114.3511343604
 21
198.1930243421
  0
LINE
  8
LAY0001
 62
7
  6
CONTINUOUS
 10
114.4068002068
 20
198.1373584957
 11
114.4763825147
 21
198.0677761878
  0
LINE
  8
LAY0001
 62
7
  6
CONTINUOUS
 10
114.6010654228
 20
198.1924590958
 11
114.155738613
 21
198.6377859056
  0
LINE
  8
LAY0001
 62
7
  6
CONTINUOUS
 10
114.3552312087
 20
198.8372785014
 11
114.8005580185
 21
198.3919516916
  0
LINE
  8
LAY0001
 62
7
  6
CONTINUOUS
 10
114.9397226734
 20
198.2527870367
 11
115.0093049813
 21
198.1832047288
  0
LINE
  8
LAY0001
 62
7
  6
CONTINUOUS
 10
115.133987604
 20
198.3078873515
 11
115.064405296
 21
198.3774696594
  0
LINE
  8
LAY0001
 62
7
  6
CONTINUOUS
 10
114.9252406412
 20
198.5166343143
 11
114.4799138314
 21
198.9619611241
  0
LINE
  8
LAY0001
 62
7
  6
CONTINUOUS
 10
115.3926561985
 20
198.3190685726
 11
116.1704736578
 21
197.5412511133
  0
LINE
  8
LAY0001
 62
7
  6
CONTINUOUS
 10
116.7361590828
 20
196.9755656883
 11
117.0190017952
 21
196.6927229758
  0
LINE
  8
LAY0001
 62
7
  6
CONTINUOUS
 10
114.8406113499
 20
199.0999952377
 11
115.0632747645
 21
198.877331823
  0
LINE
  8
LAY0001
 62
7
  6
CONTINUOUS
 10
115.1879573872
 20
199.0020144457
 11
115.1462080024
 21
199.0437638304
  0
LINE
  8
LAY0001
 62
7
  6
CONTINUOUS
 10
115.0905421366
 20
199.0994296963
 11
115.007043367
 21
199.1829284658
  0
LINE
  8
0
 62
7
  6
CONTINUOUS
 10
94.6529624533
 20
240.6156553485
 11
94.6346962765
 21
240.7899392357
  0
LINE
  8
0
 62
7
  6
CONTINUOUS
 10
94.4386029657
 20
240.7195797575
 11
94.4424987881
 21
240.5853491671
  0
LINE
  8
0
 62
7
  6
CONTINUOUS
 10
98.6012836619
 20
242.8748429083
 11
98.5856389092
 21
242.6586005168
  0
LINE
  8
0
 62
7
  6
CONTINUOUS
 10
100.3015921839
 20
242.0101878934
 11
100.317236951
 21
242.2264301666
  0
LINE
  8
0
 62
7
  6
CONTINUOUS
 10
98.8338060358
 20
242.6888176854
 11
98.8545941502
 21
242.8628187506
  0
LINE
  8
0
 62
7
  6
CONTINUOUS
 10
100.0690698244
 20
242.196212998
 11
100.04828171
 21
242.0222119328
  0
LINE
  8
0
 62
7
  6
CONTINUOUS
 10
107.0794732016
 20
265.0489455433
 11
105.2636389651
 21
254.75083785
  0
LINE
  8
0
 62
7
  6
CONTINUOUS
 10
109.0171927977
 20
241.9866973022
 11
109.1251790051
 21
242.2217782422
  0
LINE
  8
0
 62
7
  6
CONTINUOUS
 10
109.9824970185
 20
241.411781517
 11
109.8745126341
 21
241.1767000129
  0
LINE
  8
0
 62
7
  6
CONTINUOUS
 10
108.9243281922
 20
242.2771135262
 11
108.8276463139
 21
242.0830567964
  0
LINE
  8
0
 62
7
  6
CONTINUOUS
 10
110.0753616081
 20
241.1213652356
 11
110.1720453411
 21
241.3154215162
  0
LINE
  8
0
 62
7
  6
CONTINUOUS
 10
118.0461573232
 20
238.1079327127
 11
117.8326115852
 21
237.8961253831
  0
LINE
  8
0
 62
7
  6
CONTINUOUS
 10
117.9983980849
 20
237.7699624547
 11
118.1861742195
 21
237.9479068073
  0
LINE
  8
0
 62
7
  6
CONTINUOUS
 10
125.8215146308
 20
230.3514526295
 11
124.5732054357
 21
229.6307409796
  0
LINE
  8
0
 62
7
  6
CONTINUOUS
 10
123.649445005
 20
229.0974076463
 11
122.4011358098
 21
228.3766959964
  0
LINE
  8
0
 62
7
  6
CONTINUOUS
 10
58.5518672953
 20
227.6202134733
 11
54.7930608164
 21
227.423222773
  0
LINE
  8
LAY0001
 62
7
  6
CONTINUOUS
 10
117.6200425592
 20
197.2937637398
 11
115.9936969625
 21
198.9201093366
  0
LINE
  8
LAY0001
 62
7
  6
CONTINUOUS
 10
115.4640253193
 20
199.723409207
 11
115.4918582522
 21
199.6955762741
  0
LINE
  8
LAY0001
 62
7
  6
CONTINUOUS
 10
116.1351183187
 20
199.0615306928
 11
117.7614639155
 21
197.4351850961
  0
LINE
  8
LAY0001
 62
7
  6
CONTINUOUS
 10
115.8392044224
 20
199.5975956346
 11
115.8113714993
 21
199.6254285577
  0
LINE
  8
LAY0001
 62
7
  6
CONTINUOUS
 10
115.6443739407
 20
199.7924261163
 11
115.6026245559
 21
199.834175501
  0
LINE
  8
LAY0001
 62
7
  6
CONTINUOUS
 10
115.6768689779
 20
200.1589162706
 11
115.9551982487
 21
199.8805869999
  0
LINE
  8
LAY0001
 62
7
  6
CONTINUOUS
 10
116.079881014
 20
200.0052697652
 11
115.8015517433
 21
200.2835990359
  0
LINE
  8
LAY0001
 62
7
  6
CONTINUOUS
 10
118.3625046795
 20
198.0362258601
 11
117.5846872202
 21
198.8140433194
  0
LINE
  8
LAY0001
 62
7
  6
CONTINUOUS
 10
117.0190017952
 20
199.3797287443
 11
116.7361590828
 21
199.6625714568
  0
LINE
  8
LAY0001
 62
7
  6
CONTINUOUS
 10
116.2504098697
 20
200.7324571624
 11
116.5704885252
 21
200.4123785069
  0
LINE
  8
LAY0001
 62
7
  6
CONTINUOUS
 10
116.6261543716
 20
200.3567126605
 11
116.9044836423
 21
200.0783833898
  0
LINE
  8
LAY0001
 62
7
  6
CONTINUOUS
 10
117.029166479
 20
200.2030662265
 11
116.3750927064
 21
200.8571399991
  0
LINE
  8
LAY0001
 62
7
  6
CONTINUOUS
 10
118.2210833232
 20
199.803992813
 11
119.1756774779
 21
198.8493986584
  0
LINE
  8
LAY0001
 62
7
  6
CONTINUOUS
 10
117.4427028576
 20
201.5350891868
 11
117.4844522424
 21
201.4933398021
  0
LINE
  8
LAY0001
 62
7
  6
CONTINUOUS
 10
119.7767182419
 20
199.4504394225
 11
118.8574794263
 21
200.369678238
  0
LINE
  8
0
 62
7
  6
CONTINUOUS
 10
85.7451754716
 20
236.9185995133
 11
86.2722264143
 21
236.250372849
  0
LINE
  8
0
 62
7
  6
CONTINUOUS
 10
86.4358027373
 20
236.3793905309
 11
85.9087517947
 21
237.0476171953
  0
LINE
  8
0
 62
7
  6
CONTINUOUS
 10
86.5630570751
 20
237.5636879138
 11
87.1428131083
 21
236.8286385877
  0
LINE
  8
0
 62
7
  6
CONTINUOUS
 10
87.411799666
 20
236.8240109504
 11
86.7266334332
 21
237.6927056234
  0
LINE
  8
0
 62
7
  6
CONTINUOUS
 10
71.530566875
 20
254.0399746487
 11
77.5284399561
 21
245.4741241632
  0
LINE
  8
0
 62
7
  6
CONTINUOUS
 10
87.1314084889
 20
237.9916723771
 11
87.9053309551
 21
236.8712811135
  0
LINE
  8
0
 62
7
  6
CONTINUOUS
 10
88.0767450211
 20
236.9896872463
 11
87.5204882295
 21
237.7949684946
  0
LINE
  8
0
 62
7
  6
CONTINUOUS
 10
87.4237479297
 20
237.9350173903
 11
87.302822555
 21
238.1100785099
  0
LINE
  8
0
 62
7
  6
CONTINUOUS
 10
93.2464661156
 20
240.8343474478
 11
93.2934748067
 21
240.5799575831
  0
LINE
  8
0
 62
7
  6
CONTINUOUS
 10
100.6502567682
 20
243.5759665539
 11
100.7325634081
 21
241.5776608673
  0
LINE
  8
0
 62
7
  6
CONTINUOUS
 10
100.9823516189
 20
241.5879491973
 11
100.9105522084
 21
243.3311520607
  0
LINE
  8
0
 62
7
  6
CONTINUOUS
 10
102.0657226609
 20
243.6342670644
 11
102.1357708653
 21
241.933581368
  0
LINE
  8
0
 62
7
  6
CONTINUOUS
 10
102.3978175117
 20
241.6462497078
 11
102.3155108717
 21
243.6445553944
  0
LINE
  8
DEFAULT_1
 62
2
  6
CENTER
 10
102.594023459
 20
268.4048140044
 11
102.594023459
 21
218.6332342053
  0
LINE
  8
0
 62
2
  6
CONTINUOUS
 10
102.594023459
 20
217.5131342053
 11
102.594023459
 21
215.7531342053
  0
LINE
  8
DEFAULT_1
 62
2
  6
CENTER
 10
102.594023459
 20
167.9967177243
 11
102.594023459
 21
214.6330342053
  0
LINE
  8
0
 62
7
  6
CONTINUOUS
 10
102.8606901257
 20
189.6583775722
 11
102.8606901257
 21
191.099800872
  0
LINE
  8
0
 62
7
  6
CONTINUOUS
 10
102.8606901257
 20
192.1664675386
 11
102.8606901257
 21
193.6078908384
  0
LINE
  8
0
 62
7
  6
CONTINUOUS
 10
102.8028415356
 20
243.6427416628
 11
102.7318529811
 21
241.6440019036
  0
LINE
  8
0
 62
7
  6
CONTINUOUS
 10
102.9907578196
 20
241.8902866008
 11
103.0149241364
 21
242.5707086547
  0
LINE
  8
0
 62
7
  6
CONTINUOUS
 10
103.023986504
 20
242.8258668914
 11
103.043621638
 21
243.3787098568
  0
LINE
  8
0
 62
7
  6
CONTINUOUS
 10
104.0975754747
 20
242.5322564984
 11
104.1066378423
 21
242.7874147352
  0
LINE
  8
0
 62
7
  6
CONTINUOUS
 10
104.2309078005
 20
241.5907604877
 11
104.2399701692
 21
241.8459187542
  0
LINE
  8
0
 62
7
  6
CONTINUOUS
 10
104.2928339875
 20
243.3343420102
 11
104.3018963551
 21
243.5895002469
  0
LINE
  8
0
 62
7
  6
CONTINUOUS
 10
106.9327018037
 20
243.2952855464
 11
106.8920660977
 21
243.086436124
  0
LINE
  8
0
 62
7
  6
CONTINUOUS
 10
106.6157432573
 20
241.6662598465
 11
106.5507261221
 21
241.3321007414
  0
LINE
  8
0
 62
7
  6
CONTINUOUS
 10
108.1867128355
 20
241.0137877948
 11
108.2354756884
 21
241.264407131
  0
LINE
  8
0
 62
7
  6
CONTINUOUS
 10
108.5117985287
 20
242.6845834084
 11
108.5686885171
 21
242.9769725998
  0
LINE
  8
0
 62
7
  6
CONTINUOUS
 10
108.8276463139
 20
242.0830567964
 11
108.7259239016
 21
241.7138343452
  0
LINE
  8
0
 62
7
  6
CONTINUOUS
 10
108.9380753659
 20
241.6995242846
 11
109.0171927977
 21
241.9866973022
  0
LINE
  8
0
 62
7
  6
CONTINUOUS
 10
110.0616144503
 20
241.6989545346
 11
109.9824970185
 21
241.411781517
  0
LINE
  8
0
 62
7
  6
CONTINUOUS
 10
110.1720453411
 20
241.3154215162
 11
110.2737677534
 21
241.6846439674
  0
LINE
  8
0
 62
7
  6
CONTINUOUS
 10
110.489933717
 20
241.0368105296
 11
110.4471000345
 21
240.9165514813
  0
LINE
  8
0
 62
7
  6
CONTINUOUS
 10
110.8147440399
 20
241.8245567085
 11
110.7719103574
 21
241.7042976602
  0
LINE
  8
0
 62
7
  6
CONTINUOUS
 10
110.6433567427
 20
240.8466490695
 11
110.6861904252
 21
240.9669081178
  0
LINE
  8
0
 62
7
  6
CONTINUOUS
 10
110.982443163
 20
241.6744822378
 11
111.0109989513
 21
241.7546549367
  0
LINE
  8
0
 62
7
  6
CONTINUOUS
 10
111.9530282758
 20
241.4191243839
 11
111.9244724875
 21
241.338951685
  0
LINE
  8
0
 62
7
  6
CONTINUOUS
 10
111.7067227923
 20
240.6034164723
 11
111.6638891098
 21
240.483157424
  0
LINE
  8
0
 62
7
  6
CONTINUOUS
 10
112.1064513015
 20
241.2289629237
 11
112.149284984
 21
241.3492219721
  0
LINE
  8
0
 62
7
  6
CONTINUOUS
 10
111.8601440212
 20
240.4132556521
 11
111.9029777037
 21
240.5335147005
  0
LINE
  8
0
 62
7
  6
CONTINUOUS
 10
114.7737669098
 20
240.7422203143
 11
113.8213548414
 21
238.9835528494
  0
LINE
  8
0
 62
7
  6
CONTINUOUS
 10
114.0411882745
 20
238.8645013409
 11
114.4667340984
 21
239.6502889427
  0
LINE
  8
0
 62
7
  6
CONTINUOUS
 10
114.5883186033
 20
239.8747996561
 11
114.8922799222
 21
240.4360765445
  0
LINE
  8
0
 62
7
  6
CONTINUOUS
 10
115.6866674962
 20
239.7155181816
 11
115.625875187
 21
239.60326272
  0
LINE
  8
0
 62
7
  6
CONTINUOUS
 10
115.825444536
 20
239.4467927592
 11
115.9065009293
 21
239.596466673
  0
LINE
  8
0
 62
7
  6
CONTINUOUS
 10
117.6522243614
 20
237.6590845437
 11
117.5049956157
 21
237.3968101472
  0
LINE
  8
0
 62
7
  6
CONTINUOUS
 10
117.8326115852
 20
237.8961253831
 11
117.6522243614
 21
237.6590845437
  0
LINE
  8
0
 62
7
  6
CONTINUOUS
 10
117.9468588781
 20
237.7022365006
 11
117.9983980849
 21
237.7699624547
  0
LINE
  8
0
 62
7
  6
CONTINUOUS
 10
117.6965517188
 20
237.3045101959
 11
117.773860529
 21
237.4060991271
  0
LINE
  8
0
 62
7
  6
CONTINUOUS
 10
118.6027990987
 20
236.7752798652
 11
118.5254902885
 21
236.6736909341
  0
LINE
  8
0
 62
7
  6
CONTINUOUS
 10
118.6655071848
 20
236.5136650287
 11
118.7943552379
 21
236.6829799614
  0
LINE
  8
0
 62
7
  6
CONTINUOUS
 10
65.1871830156
 20
185.5696776212
 11
73.7530335012
 21
191.5675507024
  0
LINE
  8
0
 62
7
  6
CONTINUOUS
 10
111.3105755471
 20
240.1121099392
 11
111.5496659415
 21
240.1624665862
  0
LINE
  8
0
 62
7
  6
CONTINUOUS
 10
115.3296935685
 20
239.2313429761
 11
115.537040884
 21
239.2642309632
  0
LINE
  8
0
 62
7
  6
CONTINUOUS
 10
117.8843278895
 20
237.482454596
 11
118.002181089
 21
237.4997158407
  0
LINE
  8
0
 62
7
  6
CONTINUOUS
 10
86.6920638354
 20
236.2563331425
 11
86.5475756425
 21
236.3049600784
  0
LINE
  8
0
 62
7
  6
CONTINUOUS
 10
86.4103518803
 20
236.1425310398
 11
86.4957722372
 21
236.1015119158
  0
LINE
  8
0
 62
7
  6
CONTINUOUS
 10
87.6353455182
 20
236.6751500404
 11
87.5499250952
 21
236.7161691218
  0
LINE
  8
0
 62
7
  6
CONTINUOUS
 10
87.2745758532
 20
236.6615819099
 11
87.4717691601
 21
236.5461323307
  0
LINE
  8
0
 62
7
  6
CONTINUOUS
 10
86.5475756425
 20
236.3049600784
 11
86.4358027373
 21
236.3793905309
  0
LINE
  8
0
 62
7
  6
CONTINUOUS
 10
88.2505249668
 20
238.3509676486
 11
88.1436868699
 21
238.4323230532
  0
LINE
  8
0
 62
7
  6
CONTINUOUS
 10
86.2722264143
 20
236.250372849
 11
86.4103518803
 21
236.1425310398
  0
LINE
  8
0
 62
7
  6
CONTINUOUS
 10
87.5499250952
 20
236.7161691218
 11
87.411799666
 21
236.8240109504
  0
LINE
  8
0
 62
7
  6
CONTINUOUS
 10
88.0791108027
 20
238.2325614481
 11
88.2343190495
 21
238.0811815957
  0
LINE
  8
0
 62
7
  6
CONTINUOUS
 10
88.4057330175
 20
238.1995876608
 11
88.2505249668
 21
238.3509676486
  0
LINE
  8
0
 62
7
  6
CONTINUOUS
 10
133.6574800431
 20
179.2262937619
 11
127.659606962
 21
187.7921442474
  0
LINE
  8
0
 62
7
  6
CONTINUOUS
 10
88.2343190495
 20
238.0811815957
 11
88.6938355413
 21
237.4159492431
  0
LINE
  8
0
 62
7
  6
CONTINUOUS
 10
88.8652495093
 20
237.5343553082
 11
88.4057330175
 21
238.1995876608
  0
LINE
  8
0
 62
7
  6
CONTINUOUS
 10
88.0802017501
 20
239.4006511997
 11
88.1938799823
 21
239.2207995903
  0
LINE
  8
0
 62
7
  6
CONTINUOUS
 10
88.4212365103
 20
238.8610962708
 11
89.1487772599
 21
237.7100458702
  0
LINE
  8
0
 62
7
  6
CONTINUOUS
 10
89.3248819145
 20
237.8213557767
 11
88.597341165
 21
238.9724061773
  0
LINE
  8
0
 62
7
  6
CONTINUOUS
 10
88.369984637
 20
239.3321094968
 11
88.2563064048
 21
239.5119611061
  0
LINE
  8
0
 62
7
  6
CONTINUOUS
 10
93.2934748067
 20
240.5799575831
 11
93.418921161
 21
240.3537116946
  0
LINE
  8
0
 62
7
  6
CONTINUOUS
 10
90.5076426789
 20
240.7885042011
 11
91.3525757821
 21
238.9757471708
  0
LINE
  8
0
 62
7
  6
CONTINUOUS
 10
91.5791704109
 20
239.0813638087
 11
91.1836698062
 21
239.929888383
  0
LINE
  8
0
 62
7
  6
CONTINUOUS
 10
91.0758060186
 20
240.1613041465
 11
90.8421010952
 21
240.6627050755
  0
LINE
  8
0
 62
7
  6
CONTINUOUS
 10
92.1655795761
 20
240.3875603463
 11
92.0577157886
 21
240.6189761098
  0
LINE
  8
0
 62
7
  6
CONTINUOUS
 10
91.9750742392
 20
241.1907882651
 11
91.8672104516
 21
241.4222040286
  0
LINE
  8
0
 62
7
  6
CONTINUOUS
 10
92.2658877936
 20
241.5798867873
 11
93.0237943204
 21
239.7290551643
  0
LINE
  8
0
 62
7
  6
CONTINUOUS
 10
93.2165894282
 20
239.8080038211
 11
92.4586829014
 21
241.6588354441
  0
LINE
  8
0
 62
7
  6
CONTINUOUS
 10
93.5183106216
 20
240.5702111118
 11
93.4895681174
 21
240.6503170613
  0
LINE
  8
0
 62
7
  6
CONTINUOUS
 10
93.4713010329
 20
240.8246006545
 11
93.4569297808
 21
240.8646536292
  0
LINE
  8
0
 62
7
  6
CONTINUOUS
 10
94.2661479203
 20
241.2002155107
 11
94.2948904245
 21
241.1201095611
  0
LINE
  8
0
 62
7
  6
CONTINUOUS
 10
94.5484687638
 20
241.0302570842
 11
94.4909837353
 21
241.1904690394
  0
LINE
  8
0
 62
7
  6
CONTINUOUS
 10
98.5856389092
 20
242.6586005168
 11
98.6627891248
 21
242.0249823376
  0
LINE
  8
0
 62
7
  6
CONTINUOUS
 10
98.9109562514
 20
242.0551995062
 11
98.8338060358
 21
242.6888176854
  0
LINE
  8
0
 62
7
  6
CONTINUOUS
 10
99.9919196088
 20
242.8298311772
 11
100.0690698244
 21
242.196212998
  0
LINE
  8
0
 62
7
  6
CONTINUOUS
 10
100.317236951
 20
242.2264301666
 11
100.2400867354
 21
242.8600483458
  0
LINE
  8
0
 62
7
  6
CONTINUOUS
 10
108.7095808616
 20
241.4976438496
 11
108.7158428178
 21
241.363502845
  0
LINE
  8
0
 62
7
  6
CONTINUOUS
 10
108.994023459
 20
191.099800872
 11
108.994023459
 21
192.1664675386
  0
LINE
  8
0
 62
7
  6
CONTINUOUS
 10
110.2737677534
 20
241.6846439674
 11
110.2901089388
 21
241.9008349122
  0
LINE
  8
0
 62
7
  6
CONTINUOUS
 10
108.7259239016
 20
241.7138343452
 11
108.7095808616
 21
241.4976438496
  0
LINE
  8
0
 62
7
  6
CONTINUOUS
 10
108.9104316744
 20
241.4423085656
 11
108.9380753659
 21
241.6995242846
  0
LINE
  8
0
 62
7
  6
CONTINUOUS
 10
110.0892599647
 20
241.9561696895
 11
110.0616144503
 21
241.6989545346
  0
LINE
  8
0
 62
7
  6
CONTINUOUS
 10
98.1085737164
 20
168.2173228673
 11
99.924407953
 21
178.5154305606
  0
LINE
  8
0
 62
7
  6
CONTINUOUS
 10
117.6524014228
 20
237.1776877551
 11
117.6965517188
 21
237.3045101959
  0
LINE
  8
0
 62
7
  6
CONTINUOUS
 10
87.8755326021
 20
238.4539658838
 11
87.7484991072
 21
238.4179344416
  0
LINE
  8
0
 62
7
  6
CONTINUOUS
 10
95.0958323257
 20
240.4926997098
 11
95.3363593789
 21
240.5608666864
  0
LINE
  8
0
 62
7
  6
CONTINUOUS
 10
96.2182922129
 20
240.8108123541
 11
96.4588192661
 21
240.8789793307
  0
LINE
  8
0
 62
7
  6
CONTINUOUS
 10
96.0875268094
 20
242.1890840894
 11
95.8469997562
 21
242.1209171128
  0
LINE
  8
0
 62
7
  6
CONTINUOUS
 10
94.9650669222
 20
241.8709714451
 11
94.724539869
 21
241.8028044685
  0
LINE
  8
0
 62
7
  6
CONTINUOUS
 10
111.3643125353
 20
242.1257024812
 11
111.1252221446
 21
242.0753458446
  0
LINE
  8
0
 62
7
  6
CONTINUOUS
 10
86.8756299889
 20
236.2927246109
 11
86.6920638354
 21
236.2563331425
  0
LINE
  8
0
 62
7
  6
CONTINUOUS
 10
93.9404481727
 20
240.1339535035
 11
94.1901306808
 21
240.1783316415
  0
LINE
  8
0
 62
7
  6
CONTINUOUS
 10
93.7485167398
 20
241.2857430869
 11
93.9981992467
 21
241.3301212283
  0
LINE
  8
0
 62
7
  6
CONTINUOUS
 10
93.9799330799
 20
241.5044050874
 11
93.7302505731
 21
241.460026946
  0
LINE
  8
0
 62
7
  6
CONTINUOUS
 10
87.8694244819
 20
238.242873322
 11
87.9621751048
 21
238.255223497
  0
LINE
  8
0
 62
7
  6
CONTINUOUS
 10
111.4890238576
 20
240.3647533172
 11
111.303461984
 21
240.3405028037
  0
LINE
  8
0
 62
7
  6
CONTINUOUS
 10
111.7174701942
 20
241.0061349927
 11
111.8102493342
 21
241.0182608894
  0
LINE
  8
0
 62
7
  6
CONTINUOUS
 10
110.8610556874
 20
241.0853122527
 11
111.0466157642
 21
241.1095634061
  0
LINE
  8
0
 62
7
  6
CONTINUOUS
 10
110.9324451582
 20
241.285744
 11
110.8396642214
 21
241.2736187432
  0
LINE
  8
0
 62
7
  6
CONTINUOUS
 10
99.4068620075
 20
241.429702105
 11
99.7377511941
 21
241.4699916247
  0
LINE
  8
0
 62
7
  6
CONTINUOUS
 10
99.7068911071
 20
241.7234389023
 11
99.3760019205
 21
241.6831493826
  0
LINE
  8
0
 62
7
  6
CONTINUOUS
 10
94.0934268256
 20
240.3244715945
 11
93.9221810994
 21
240.3082370651
  0
LINE
  8
0
 62
7
  6
CONTINUOUS
 10
86.6729756726
 20
236.0786885179
 11
86.823826578
 21
236.0892764676
  0
LINE
  8
0
 62
7
  6
CONTINUOUS
 10
93.8084212919
 20
240.1317909237
 11
93.9404481727
 21
240.1339535035
  0
LINE
  8
0
 62
7
  6
CONTINUOUS
 10
88.0267511721
 20
238.4549851021
 11
87.8755326021
 21
238.4539658838
  0
LINE
  8
0
 62
7
  6
CONTINUOUS
 10
118.2714001431
 20
236.5462112671
 11
118.1203884294
 21
236.554183532
  0
LINE
  8
0
 62
7
  6
CONTINUOUS
 10
118.002181089
 20
237.4997158407
 11
118.1531928028
 21
237.4917435758
  0
LINE
  8
0
 62
7
  6
CONTINUOUS
 10
118.2488823056
 20
237.6862919708
 11
117.9468588781
 21
237.7022365006
  0
LINE
  8
0
 62
7
  6
CONTINUOUS
 10
118.4402644191
 20
238.0753865455
 11
118.5912761328
 21
238.0674142805
  0
LINE
  8
0
 62
7
  6
CONTINUOUS
 10
118.0246958751
 20
236.3596374264
 11
118.2677942274
 21
236.335061128
  0
LINE
  8
0
 62
7
  6
CONTINUOUS
 10
86.4957722372
 20
236.1015119158
 11
86.6729756726
 21
236.0786885179
  0
LINE
  8
0
 62
7
  6
CONTINUOUS
 10
87.9621751048
 20
238.255223497
 11
88.0791108027
 21
238.2325614481
  0
LINE
  8
0
 62
7
  6
CONTINUOUS
 10
88.1436868699
 20
238.4323230532
 11
88.0267511721
 21
238.4549851021
  0
LINE
  8
0
 62
7
  6
CONTINUOUS
 10
93.5548429652
 20
240.2216433656
 11
93.6620231578
 21
240.1696813221
  0
LINE
  8
0
 62
7
  6
CONTINUOUS
 10
93.8293730616
 20
240.3201464418
 11
93.6686036679
 21
240.3980898361
  0
LINE
  8
0
 62
7
  6
CONTINUOUS
 10
94.1445973783
 20
241.2922308369
 11
94.2661479203
 21
241.2002155107
  0
LINE
  8
0
 62
7
  6
CONTINUOUS
 10
79.2205544335
 20
255.5446797426
 11
76.423383423
 21
258.063263833
  0
LINE
  8
0
 62
7
  6
CONTINUOUS
 10
93.418921161
 20
240.3537116946
 11
93.5548429652
 21
240.2216433656
  0
LINE
  8
0
 62
7
  6
CONTINUOUS
 10
93.6686036679
 20
240.3980898361
 11
93.600642322
 21
240.4641238255
  0
LINE
  8
0
 62
7
  6
CONTINUOUS
 10
93.600642322
 20
240.4641238255
 11
93.5183106216
 21
240.5702111118
  0
LINE
  8
0
 62
7
  6
CONTINUOUS
 10
94.4909837353
 20
241.1904690394
 11
94.3942798852
 21
241.3366089783
  0
LINE
  8
0
 62
7
  6
CONTINUOUS
 10
98.7298673643
 20
241.8188125308
 11
98.8331628168
 21
241.6599200203
  0
LINE
  8
LAY0001
 62
7
  6
CONTINUOUS
 10
117.6537808164
 20
201.5235037212
 11
117.5952185907
 21
201.6319390736
  0
LINE
  8
LAY0001
 62
7
  6
CONTINUOUS
 10
116.6830205489
 20
200.998070283
 11
116.7137497948
 21
200.9174678168
  0
LINE
  8
LAY0001
 62
7
  6
CONTINUOUS
 10
117.4844522424
 20
201.4933398021
 11
117.5151815427
 21
201.4127373707
  0
LINE
  8
0
 62
7
  6
CONTINUOUS
 10
98.9728911437
 20
241.8912709074
 11
98.9109562514
 21
242.0551995062
  0
LINE
  8
0
 62
7
  6
CONTINUOUS
 10
99.9299847165
 20
242.993759776
 11
99.9919196088
 21
242.8298311772
  0
LINE
  8
0
 62
7
  6
CONTINUOUS
 10
98.6627891248
 20
242.0249823376
 11
98.7298673643
 21
241.8188125308
  0
LINE
  8
0
 62
7
  6
CONTINUOUS
 10
100.2400867354
 20
242.8600483458
 11
100.1730084815
 21
243.0662182709
  0
LINE
  8
LAY0001
 62
7
  6
CONTINUOUS
 10
115.4918582522
 20
199.6955762741
 11
115.5086710268
 21
199.6288902792
  0
LINE
  8
LAY0001
 62
7
  6
CONTINUOUS
 10
112.6960668729
 20
196.9554507606
 11
112.6931704171
 21
197.0082201513
  0
LINE
  8
LAY0001
 62
7
  6
CONTINUOUS
 10
113.4673345691
 20
197.2813916276
 11
113.4702310249
 21
197.228622237
  0
LINE
  8
LAY0001
 62
7
  6
CONTINUOUS
 10
114.9206484126
 20
199.3191969259
 11
114.9235445878
 21
199.2664272451
  0
LINE
  8
LAY0001
 62
7
  6
CONTINUOUS
 10
115.007043367
 20
199.1829284658
 11
115.0041471967
 21
199.2356981418
  0
LINE
  8
LAY0001
 62
7
  6
CONTINUOUS
 10
115.6501667095
 20
199.6868871923
 11
115.6443739407
 21
199.7924261163
  0
LINE
  8
LAY0001
 62
7
  6
CONTINUOUS
 10
115.6866887339
 20
199.5007457924
 11
115.6895850469
 21
199.4479762591
  0
LINE
  8
LAY0001
 62
7
  6
CONTINUOUS
 10
115.8421008781
 20
199.5448262439
 11
115.8392044224
 21
199.5975956346
  0
LINE
  8
0
 62
7
  6
CONTINUOUS
 10
113.5811027271
 20
260.675290369
 11
113.3841120268
 21
264.4340968479
  0
LINE
  8
0
 62
7
  6
CONTINUOUS
 10
110.2901089388
 20
241.9008349122
 11
110.2838470142
 21
242.0349760316
  0
LINE
  8
0
 62
7
  6
CONTINUOUS
 10
110.4471000345
 20
240.9165514813
 11
110.4542135964
 21
240.6881586132
  0
LINE
  8
0
 62
7
  6
CONTINUOUS
 10
111.9029777037
 20
240.5335147005
 11
111.8958659487
 21
240.7619069567
  0
LINE
  8
0
 62
7
  6
CONTINUOUS
 10
112.149284984
 20
241.3492219721
 11
112.1421714522
 21
241.5776149244
  0
LINE
  8
LAY0001
 62
7
  6
CONTINUOUS
 10
112.5516748723
 20
196.9502233857
 11
112.543551327
 21
196.8586010612
  0
LINE
  8
LAY0001
 62
7
  6
CONTINUOUS
 10
113.6117265648
 20
197.2866190074
 11
113.6198504003
 21
197.3782416125
  0
LINE
  8
0
 62
7
  6
CONTINUOUS
 10
115.7108214022
 20
239.8476151536
 11
115.6866674962
 21
239.7155181816
  0
LINE
  8
0
 62
7
  6
CONTINUOUS
 10
115.9065009293
 20
239.596466673
 11
115.9306548353
 21
239.7285636451
  0
LINE
  8
0
 62
7
  6
CONTINUOUS
 10
116.8652993938
 20
237.1763844033
 11
117.3911285081
 21
239.2179401538
  0
LINE
  8
0
 62
7
  6
CONTINUOUS
 10
116.7925746311
 20
237.831422379
 11
116.6553430813
 21
237.3120986136
  0
LINE
  8
0
 62
7
  6
CONTINUOUS
 10
117.1587570137
 20
239.1654669872
 11
116.8499819979
 21
237.996991066
  0
LINE
  8
0
 62
7
  6
CONTINUOUS
 10
117.5049956157
 20
237.3968101472
 11
117.4424615734
 21
237.1770305289
  0
LINE
  8
0
 62
7
  6
CONTINUOUS
 10
118.7943552379
 20
236.6829799614
 11
118.8568892622
 21
236.9027595559
  0
LINE
  8
0
 62
7
  6
CONTINUOUS
 10
118.6469494308
 20
236.9021023535
 11
118.6027990987
 21
236.7752798652
  0
LINE
  8
0
 62
7
  6
CONTINUOUS
 10
119.1918941786
 20
237.3429783524
 11
119.2360444746
 21
237.4698007933
  0
LINE
  8
0
 62
7
  6
CONTINUOUS
 10
141.5055689964
 20
240.0066032309
 11
144.0241530867
 21
242.8037742413
  0
LINE
  8
BLANK_CURVE
 62
4
  6
CONTINUOUS
 10
119.6749222122
 20
212.5008295228
 11
118.6142620404
 21
211.440169351
  0
LINE
  8
BLANK_CURVE
 62
4
  6
CONTINUOUS
 10
106.7263281415
 20
199.5522354522
 11
107.7869883133
 21
200.6128956239
  0
LINE
  8
BLANK_CURVE
 62
4
  6
CONTINUOUS
 10
111.9116850726
 20
202.4748506835
 11
116.7523069809
 21
207.3154725917
  0
LINE
  8
LAY0001
 62
7
  6
CONTINUOUS
 10
117.3035382271
 20
201.6742538173
 11
117.2008956048
 21
201.6272770463
  0
LINE
  8
LAY0001
 62
7
  6
CONTINUOUS
 10
117.1747587602
 20
200.9053170492
 11
117.0721161136
 21
200.8583402489
  0
LINE
  8
0
 62
7
  6
CONTINUOUS
 10
102.8606901257
 20
193.6078908384
 11
96.194023459
 21
191.6331342053
  0
LINE
  8
0
 62
7
  6
CONTINUOUS
 10
99.1959847423
 20
243.1615918698
 11
99.5268739288
 21
243.2018813895
  0
LINE
  8
0
 62
7
  6
CONTINUOUS
 10
99.4960138454
 20
243.4553286375
 11
99.1651246589
 21
243.4150391178
  0
LINE
  8
0
 62
7
  6
CONTINUOUS
 10
100.7325634081
 20
241.5776608673
 11
100.9823516189
 21
241.5879491973
  0
LINE
  8
0
 62
7
  6
CONTINUOUS
 10
102.0231351954
 20
241.6308172128
 11
102.3978175117
 21
241.6462497078
  0
LINE
  8
0
 62
7
  6
CONTINUOUS
 10
102.3155108717
 20
243.6445553944
 11
102.0657226609
 21
243.6342670644
  0
LINE
  8
0
 62
7
  6
CONTINUOUS
 10
101.0249390844
 20
243.5913990489
 11
100.6502567682
 21
243.5759665539
  0
LINE
  8
0
 62
7
  6
CONTINUOUS
 10
102.7318529811
 20
241.6440019036
 11
104.2309078005
 21
241.5907604877
  0
LINE
  8
0
 62
7
  6
CONTINUOUS
 10
104.2399701692
 20
241.8459187542
 11
102.9907578196
 21
241.8902866008
  0
LINE
  8
0
 62
7
  6
CONTINUOUS
 10
103.0149241364
 20
242.5707086547
 11
104.0975754747
 21
242.5322564984
  0
LINE
  8
0
 62
7
  6
CONTINUOUS
 10
104.1066378423
 20
242.7874147352
 11
103.023986504
 21
242.8258668914
  0
LINE
  8
0
 62
7
  6
CONTINUOUS
 10
103.043621638
 20
243.3787098568
 11
104.2928339875
 21
243.3343420102
  0
LINE
  8
0
 62
7
  6
CONTINUOUS
 10
104.3018963551
 20
243.5895002469
 11
102.8028415356
 21
243.6427416628
  0
LINE
  8
0
 62
7
  6
CONTINUOUS
 10
109.5029011983
 20
240.9259717488
 11
109.2907497341
 21
240.9402818094
  0
LINE
  8
0
 62
7
  6
CONTINUOUS
 10
109.4967886257
 20
242.4725070992
 11
109.7089419289
 21
242.458196532
  0
LINE
  8
0
 62
7
  6
CONTINUOUS
 10
99.1949120899
 20
241.4467622661
 11
99.4068620075
 21
241.429702105
  0
LINE
  8
0
 62
7
  6
CONTINUOUS
 10
99.7079628159
 20
243.4382683649
 11
99.4960138454
 21
243.4553286375
  0
LINE
  8
0
 62
7
  6
CONTINUOUS
 10
111.303461984
 20
240.3405028037
 11
111.1321798014
 21
240.3563379997
  0
LINE
  8
0
 62
7
  6
CONTINUOUS
 10
111.0466157642
 20
241.1095634061
 11
111.2178997436
 21
241.0937275701
  0
LINE
  8
0
 62
7
  6
CONTINUOUS
 10
111.6032977914
 20
241.1823162265
 11
111.4320156087
 21
241.1981514225
  0
LINE
  8
0
 62
7
  6
CONTINUOUS
 10
111.3321736874
 20
241.9112905075
 11
111.5034576668
 21
241.8954546715
  0
LINE
  8
0
 62
7
  6
CONTINUOUS
 10
109.2342372749
 20
240.7351581966
 11
109.486560006
 21
240.7097807789
  0
LINE
  8
0
 62
7
  6
CONTINUOUS
 10
109.7654543801
 20
242.6633201159
 11
109.51313165
 21
242.6886975373
  0
LINE
  8
0
 62
7
  6
CONTINUOUS
 10
118.6869656356
 20
238.2619626755
 11
118.4438703257
 21
238.2865366727
  0
LINE
  8
0
 62
7
  6
CONTINUOUS
 10
93.9221810994
 20
240.3082370651
 11
93.8293730616
 21
240.3201464418
  0
LINE
  8
0
 62
7
  6
CONTINUOUS
 10
99.3760019205
 20
241.6831493826
 11
99.2054135067
 21
241.7052457732
  0
LINE
  8
0
 62
7
  6
CONTINUOUS
 10
99.5268739288
 20
243.2018813895
 11
99.6974623427
 21
243.179784999
  0
LINE
  8
0
 62
7
  6
CONTINUOUS
 10
111.1000409435
 20
240.141925998
 11
111.3105755471
 21
240.1121099392
  0
LINE
  8
0
 62
7
  6
CONTINUOUS
 10
111.5748471376
 20
242.0958864188
 11
111.3643125353
 21
242.1257024812
  0
LINE
  8
0
 62
7
  6
CONTINUOUS
 10
115.4146380497
 20
239.4756962131
 11
115.284457249
 21
239.4978035151
  0
LINE
  8
0
 62
7
  6
CONTINUOUS
 10
106.5507261221
 20
241.3321007414
 11
108.1867128355
 21
241.0137877948
  0
LINE
  8
0
 62
7
  6
CONTINUOUS
 10
108.2354756884
 20
241.264407131
 11
106.8448870755
 21
241.5349731174
  0
LINE
  8
0
 62
7
  6
CONTINUOUS
 10
106.8920660977
 20
243.086436124
 11
108.3235537699
 21
242.8079124323
  0
LINE
  8
0
 62
7
  6
CONTINUOUS
 10
94.2191392493
 20
241.4546053193
 11
93.9799330799
 21
241.5044050874
  0
LINE
  8
0
 62
7
  6
CONTINUOUS
 10
93.6620231578
 20
240.1696813221
 11
93.8084212919
 21
240.1317909237
  0
LINE
  8
0
 62
7
  6
CONTINUOUS
 10
93.9981992467
 20
241.3301212283
 11
94.1445973783
 21
241.2922308369
  0
LINE
  8
0
 62
7
  6
CONTINUOUS
 10
115.1262343977
 20
239.293134417
 11
115.3296935685
 21
239.2313429761
  0
LINE
  8
0
 62
7
  6
CONTINUOUS
 10
118.1203884294
 20
236.554183532
 11
117.995146319
 21
236.596018774
  0
LINE
  8
0
 62
7
  6
CONTINUOUS
 10
118.1531928028
 20
237.4917435758
 11
118.2784349131
 21
237.4499083339
  0
LINE
  8
0
 62
7
  6
CONTINUOUS
 10
99.0191812741
 20
241.511099991
 11
99.1949120899
 21
241.4467622661
  0
LINE
  8
0
 62
7
  6
CONTINUOUS
 10
99.883694577
 20
243.3739307664
 11
99.7079628159
 21
243.4382683649
  0
LINE
  8
0
 62
7
  6
CONTINUOUS
 10
99.2054135067
 20
241.7052457732
 11
99.0710432453
 21
241.7746196345
  0
LINE
  8
0
 62
7
  6
CONTINUOUS
 10
99.6974623427
 20
243.179784999
 11
99.8318326004
 21
243.1104111672
  0
LINE
  8
0
 62
7
  6
CONTINUOUS
 10
94.724539869
 20
241.8028044685
 11
95.4714155822
 21
241.3068082813
  0
LINE
  8
0
 62
7
  6
CONTINUOUS
 10
96.4588192661
 20
240.8789793307
 11
95.7119426354
 21
241.3749752579
  0
LINE
  8
0
 62
7
  6
CONTINUOUS
 10
94.3942798852
 20
241.3366089783
 11
94.2191392493
 21
241.4546053193
  0
LINE
  8
0
 62
7
  6
CONTINUOUS
 10
95.6264877736
 20
241.2180694592
 11
96.2182922129
 21
240.8108123541
  0
LINE
  8
0
 62
7
  6
CONTINUOUS
 10
95.5568704278
 20
241.4637141373
 11
94.9650669222
 21
241.8709714451
  0
LINE
  8
0
 62
7
  6
CONTINUOUS
 10
98.8331628168
 20
241.6599200203
 11
99.0191812741
 21
241.511099991
  0
LINE
  8
0
 62
7
  6
CONTINUOUS
 10
100.0697130326
 20
243.2251107518
 11
99.883694577
 21
243.3739307664
  0
LINE
  8
BLANK_CURVE
 62
4
  6
CONTINUOUS
 10
118.6142620404
 20
221.8260990595
 11
119.6749222122
 21
220.7654388877
  0
LINE
  8
BLANK_CURVE
 62
4
  6
CONTINUOUS
 10
107.7869883133
 20
232.6533727866
 11
106.7263281415
 21
233.7140329584
  0
LINE
  8
BLANK_CURVE
 62
4
  6
CONTINUOUS
 10
111.9116850726
 20
230.7914177271
 11
116.7523069809
 21
225.9507958188
  0
LINE
  8
0
 62
7
  6
CONTINUOUS
 10
99.0710432453
 20
241.7746196345
 11
98.9728911437
 21
241.8912709074
  0
LINE
  8
0
 62
7
  6
CONTINUOUS
 10
99.8318326004
 20
243.1104111672
 11
99.9299847165
 21
242.993759776
  0
LINE
  8
0
 62
7
  6
CONTINUOUS
 10
102.1357708653
 20
241.933581368
 11
101.0249390844
 21
243.5913990489
  0
LINE
  8
0
 62
7
  6
CONTINUOUS
 10
100.9105522084
 20
243.3311520607
 11
102.0231351954
 21
241.6308172128
  0
LINE
  8
0
 62
7
  6
CONTINUOUS
 10
100.1730084815
 20
243.0662182709
 11
100.0697130326
 21
243.2251107518
  0
LINE
  8
0
 62
7
  6
CONTINUOUS
 10
109.003296272
 20
241.1518923128
 11
108.9104316744
 21
241.4423085656
  0
LINE
  8
LAY0001
 62
7
  6
CONTINUOUS
 10
116.8384326315
 20
201.0421506534
 11
116.8216197758
 21
201.1088365868
  0
LINE
  8
0
 62
7
  6
CONTINUOUS
 10
108.7158428178
 20
241.363502845
 11
108.7509735418
 21
241.1772697342
  0
LINE
  8
0
 62
7
  6
CONTINUOUS
 10
110.2838470142
 20
242.0349760316
 11
110.2487162823
 21
242.2212091137
  0
LINE
  8
0
 62
7
  6
CONTINUOUS
 10
110.7719103574
 20
241.7042976602
 11
110.7933000266
 21
241.5159918096
  0
LINE
  8
LAY0001
 62
7
  6
CONTINUOUS
 10
117.5151815427
 20
201.4127373707
 11
117.5180779092
 21
201.3599678909
  0
LINE
  8
LAY0001
 62
7
  6
CONTINUOUS
 10
117.6595735384
 20
201.4179647505
 11
117.6537808164
 21
201.5235037212
  0
LINE
  8
0
 62
7
  6
CONTINUOUS
 10
117.4424615734
 20
237.1770305289
 11
117.4388556577
 21
236.9658803899
  0
LINE
  8
0
 62
7
  6
CONTINUOUS
 10
119.2360444746
 20
237.4698007933
 11
119.2396503813
 21
237.6809509205
  0
LINE
  8
0
 62
7
  6
CONTINUOUS
 10
117.6414065872
 20
237.0256340909
 11
117.6524014228
 21
237.1776877551
  0
LINE
  8
0
 62
7
  6
CONTINUOUS
 10
119.0370994607
 20
237.6211972313
 11
119.0261046432
 21
237.4691435909
  0
LINE
  8
LAY0001
 62
7
  6
CONTINUOUS
 10
114.3511343604
 20
198.1930243421
 11
114.3290943487
 21
198.115318484
  0
LINE
  8
LAY0001
 62
7
  6
CONTINUOUS
 10
114.3847601951
 20
198.0596526377
 11
114.4068002068
 21
198.1373584957
  0
LINE
  8
LAY0001
 62
7
  6
CONTINUOUS
 10
115.0041471967
 20
199.2356981418
 11
115.0372074899
 21
199.3522572241
  0
LINE
  8
LAY0001
 62
7
  6
CONTINUOUS
 10
115.5086710268
 20
199.6288902792
 11
115.4866308724
 21
199.5511842784
  0
LINE
  8
LAY0001
 62
7
  6
CONTINUOUS
 10
115.6281265745
 20
199.6091811721
 11
115.6501667095
 21
199.6868871923
  0
LINE
  8
LAY0001
 62
7
  6
CONTINUOUS
 10
115.820060581
 20
199.4671201005
 11
115.8421008781
 21
199.5448262439
  0
LINE
  8
LAY0001
 62
7
  6
CONTINUOUS
 10
116.716080847
 20
201.1146293604
 11
116.6830205489
 21
200.998070283
  0
LINE
  8
LAY0001
 62
7
  6
CONTINUOUS
 10
116.5704885252
 20
200.4123785069
 11
116.5484482995
 21
200.3346724348
  0
LINE
  8
LAY0001
 62
7
  6
CONTINUOUS
 10
116.6041141458
 20
200.2790065884
 11
116.6261543716
 21
200.3567126605
  0
LINE
  8
LAY0001
 62
7
  6
CONTINUOUS
 10
117.5180779092
 20
201.3599678909
 11
117.4850176062
 21
201.2434088184
  0
LINE
  8
LAY0001
 62
7
  6
CONTINUOUS
 10
117.6375333393
 20
201.3402587051
 11
117.6595735384
 21
201.4179647505
  0
LINE
  8
LAY0001
 62
7
  6
CONTINUOUS
 10
114.3290943487
 20
198.115318484
 11
114.2821175841
 21
198.0126758731
  0
LINE
  8
LAY0001
 62
7
  6
CONTINUOUS
 10
114.9676251735
 20
199.4218395405
 11
114.9206484126
 21
199.3191969259
  0
LINE
  8
LAY0001
 62
7
  6
CONTINUOUS
 10
114.3377834305
 20
197.9570100267
 11
114.3847601951
 21
198.0596526377
  0
LINE
  8
LAY0001
 62
7
  6
CONTINUOUS
 10
116.8216197758
 20
201.1088365868
 11
116.8685965761
 21
201.2114792333
  0
LINE
  8
LAY0001
 62
7
  6
CONTINUOUS
 10
116.5484482995
 20
200.3346724348
 11
116.5014716062
 21
200.2320298952
  0
LINE
  8
LAY0001
 62
7
  6
CONTINUOUS
 10
116.5571374526
 20
200.1763640488
 11
116.6041141458
 21
200.2790065884
  0
LINE
  8
LAY0001
 62
7
  6
CONTINUOUS
 10
112.6235881007
 20
197.0778024677
 11
112.5516748723
 21
196.9502233857
  0
LINE
  8
LAY0001
 62
7
  6
CONTINUOUS
 10
112.6931704171
 20
197.0082201513
 11
112.7291271758
 21
197.0720098331
  0
LINE
  8
LAY0001
 62
7
  6
CONTINUOUS
 10
113.4702310249
 20
197.228622237
 11
113.4342742662
 21
197.1648325551
  0
LINE
  8
LAY0001
 62
7
  6
CONTINUOUS
 10
113.5398133328
 20
197.1590399291
 11
113.6117265648
 21
197.2866190074
  0
LINE
  8
LAY0001
 62
7
  6
CONTINUOUS
 10
115.4866308724
 20
199.5511842784
 11
115.4506742564
 21
199.4873947392
  0
LINE
  8
LAY0001
 62
7
  6
CONTINUOUS
 10
115.5562131998
 20
199.481601951
 11
115.6281265745
 21
199.6091811721
  0
LINE
  8
LAY0001
 62
7
  6
CONTINUOUS
 10
115.6895850469
 20
199.4479762591
 11
115.6536284309
 21
199.3841867199
  0
LINE
  8
LAY0001
 62
7
  6
CONTINUOUS
 10
116.7879941467
 20
201.2422085138
 11
116.716080847
 21
201.1146293604
  0
LINE
  8
LAY0001
 62
7
  6
CONTINUOUS
 10
115.784103965
 20
199.4033305613
 11
115.820060581
 21
199.4671201005
  0
LINE
  8
LAY0001
 62
7
  6
CONTINUOUS
 10
115.0372074899
 20
199.3522572241
 11
115.1340573272
 21
199.5047729174
  0
LINE
  8
LAY0001
 62
7
  6
CONTINUOUS
 10
112.7291271758
 20
197.0720098331
 11
112.8149568646
 21
197.1856724548
  0
LINE
  8
LAY0001
 62
7
  6
CONTINUOUS
 10
113.4342742662
 20
197.1648325551
 11
113.3484445726
 21
197.0511699383
  0
LINE
  8
LAY0001
 62
7
  6
CONTINUOUS
 10
114.2821175841
 20
198.0126758731
 11
114.1962876052
 21
197.8990129709
  0
LINE
  8
LAY0001
 62
7
  6
CONTINUOUS
 10
115.4506742564
 20
199.4873947392
 11
115.3648444201
 21
199.3737319798
  0
LINE
  8
LAY0001
 62
7
  6
CONTINUOUS
 10
114.2519534515
 20
197.8433471246
 11
114.3377834305
 21
197.9570100267
  0
LINE
  8
LAY0001
 62
7
  6
CONTINUOUS
 10
115.6536284309
 20
199.3841867199
 11
115.5677985946
 21
199.2705239604
  0
LINE
  8
LAY0001
 62
7
  6
CONTINUOUS
 10
116.5014716062
 20
200.2320298952
 11
116.4156417699
 21
200.1183671357
  0
LINE
  8
LAY0001
 62
7
  6
CONTINUOUS
 10
115.078391476
 20
199.5604387687
 11
114.9676251735
 21
199.4218395405
  0
LINE
  8
LAY0001
 62
7
  6
CONTINUOUS
 10
112.7592910133
 20
197.241338306
 11
112.6235881007
 21
197.0778024677
  0
LINE
  8
LAY0001
 62
7
  6
CONTINUOUS
 10
113.4041104189
 20
196.995504092
 11
113.5398133328
 21
197.1590399291
  0
LINE
  8
LAY0001
 62
7
  6
CONTINUOUS
 10
115.4205102859
 20
199.3180661139
 11
115.5562131998
 21
199.481601951
  0
LINE
  8
LAY0001
 62
7
  6
CONTINUOUS
 10
117.3939604436
 20
200.9853541167
 11
117.5296633397
 21
201.148889936
  0
LINE
  8
LAY0001
 62
7
  6
CONTINUOUS
 10
116.9486336339
 20
201.4306809265
 11
116.7879941467
 21
201.2422085138
  0
LINE
  8
LAY0001
 62
7
  6
CONTINUOUS
 10
116.8685965761
 20
201.2114792333
 11
117.0292360239
 21
201.3999516141
  0
LINE
  8
LAY0001
 62
7
  6
CONTINUOUS
 10
115.623464441
 20
199.2148581141
 11
115.784103965
 21
199.4033305613
  0
LINE
  8
LAY0001
 62
7
  6
CONTINUOUS
 10
116.3750927064
 20
200.8571399991
 11
116.2504098697
 21
200.7324571624
  0
LINE
  8
LAY0001
 62
7
  6
CONTINUOUS
 10
115.8015517433
 20
200.2835990359
 11
115.6768689779
 21
200.1589162706
  0
LINE
  8
LAY0001
 62
7
  6
CONTINUOUS
 10
115.2280108515
 20
199.7100581441
 11
115.078391476
 21
199.5604387687
  0
LINE
  8
LAY0001
 62
7
  6
CONTINUOUS
 10
114.8040893352
 20
199.2861366278
 11
114.6794064272
 21
199.1614537198
  0
LINE
  8
LAY0001
 62
7
  6
CONTINUOUS
 10
114.4799138314
 20
198.9619611241
 11
114.3552312087
 21
198.8372785014
  0
LINE
  8
LAY0001
 62
7
  6
CONTINUOUS
 10
114.155738613
 20
198.6377859056
 11
114.0310557049
 21
198.5131029976
  0
LINE
  8
LAY0001
 62
7
  6
CONTINUOUS
 10
113.5821975785
 20
198.0642448712
 11
113.4575149558
 21
197.9395622485
  0
LINE
  8
LAY0001
 62
7
  6
CONTINUOUS
 10
112.9089103888
 20
197.3909576815
 11
112.7592910133
 21
197.241338306
  0
LINE
  8
LAY0001
 62
7
  6
CONTINUOUS
 10
112.8149568646
 20
197.1856724548
 11
112.9645762401
 21
197.3352918303
  0
LINE
  8
LAY0001
 62
7
  6
CONTINUOUS
 10
115.1340573272
 20
199.5047729174
 11
115.2836767027
 21
199.6543922929
  0
LINE
  8
LAY0001
 62
7
  6
CONTINUOUS
 10
113.2446711545
 20
197.5040550423
 11
113.3693540625
 21
197.6287379503
  0
LINE
  8
LAY0001
 62
7
  6
CONTINUOUS
 10
116.7137497948
 20
200.9174678168
 11
116.8384326315
 21
201.0421506534
  0
LINE
  8
LAY0001
 62
7
  6
CONTINUOUS
 10
115.3648444201
 20
199.3737319798
 11
115.0905421366
 21
199.0994296963
  0
LINE
  8
LAY0001
 62
7
  6
CONTINUOUS
 10
115.1462080024
 20
199.0437638304
 11
115.4205102859
 21
199.3180661139
  0
LINE
  8
LAY0001
 62
7
  6
CONTINUOUS
 10
117.0054301901
 20
200.8751530949
 11
116.8807473534
 21
200.7504702582
  0
LINE
  8
LAY0001
 62
7
  6
CONTINUOUS
 10
115.8113714993
 20
199.6254285577
 11
115.6866887339
 21
199.5007457924
  0
LINE
  8
LAY0001
 62
7
  6
CONTINUOUS
 10
112.9187302875
 20
196.732787346
 11
112.7940476649
 21
196.6081047233
  0
LINE
  8
LAY0001
 62
7
  6
CONTINUOUS
 10
115.5677985946
 20
199.2705239604
 11
115.4181792192
 21
199.1209045849
  0
LINE
  8
LAY0001
 62
7
  6
CONTINUOUS
 10
113.3484445726
 20
197.0511699383
 11
113.1988251971
 21
196.9015505629
  0
LINE
  8
LAY0001
 62
7
  6
CONTINUOUS
 10
113.2544910434
 20
196.8458847165
 11
113.4041104189
 21
196.995504092
  0
LINE
  8
LAY0001
 62
7
  6
CONTINUOUS
 10
114.1522072963
 20
197.7436009694
 11
114.2519534515
 21
197.8433471246
  0
LINE
  8
LAY0001
 62
7
  6
CONTINUOUS
 10
114.4763825147
 20
198.0677761878
 11
114.6010654228
 21
198.1924590958
  0
LINE
  8
LAY0001
 62
7
  6
CONTINUOUS
 10
114.8005580185
 20
198.3919516916
 11
114.9252406412
 21
198.5166343143
  0
LINE
  8
LAY0001
 62
7
  6
CONTINUOUS
 10
115.4738450655
 20
199.0652387386
 11
115.623464441
 21
199.2148581141
  0
LINE
  8
LAY0001
 62
7
  6
CONTINUOUS
 10
116.3715613184
 20
199.9629549915
 11
116.4713076163
 21
200.0627012894
  0
LINE
  8
LAY0001
 62
7
  6
CONTINUOUS
 10
115.064405296
 20
198.3774696594
 11
114.9397226734
 21
198.2527870367
  0
LINE
  8
LAY0001
 62
7
  6
CONTINUOUS
 10
115.0093049813
 20
198.1832047288
 11
115.133987604
 21
198.3078873515
  0
LINE
  8
LAY0001
 62
7
  6
CONTINUOUS
 10
116.9044836423
 20
200.0783833898
 11
117.029166479
 21
200.2030662265
  0
LINE
  8
LAY0001
 62
7
  6
CONTINUOUS
 10
117.4432658639
 20
200.369678238
 11
117.265309345
 21
200.191721719
  0
LINE
  8
LAY0001
 62
7
  6
CONTINUOUS
 10
116.7361590828
 20
199.6625714568
 11
116.1351183187
 21
199.0615306928
  0
LINE
  8
LAY0001
 62
7
  6
CONTINUOUS
 10
115.9936969625
 20
198.9201093366
 11
115.3926561985
 21
198.3190685726
  0
LINE
  8
LAY0001
 62
7
  6
CONTINUOUS
 10
114.5794834001
 20
197.5058957742
 11
113.9784426361
 21
196.9048550102
  0
LINE
  8
LAY0001
 62
7
  6
CONTINUOUS
 10
113.8370212799
 20
196.7634336539
 11
113.2359805159
 21
196.1623928899
  0
LINE
  8
LAY0001
 62
7
  6
CONTINUOUS
 10
117.3632311361
 20
201.0659565019
 11
117.1747587602
 21
200.9053170492
  0
LINE
  8
LAY0001
 62
7
  6
CONTINUOUS
 10
117.2054880321
 20
200.8247146284
 11
117.3939604436
 21
200.9853541167
  0
LINE
  8
LAY0001
 62
7
  6
CONTINUOUS
 10
117.1121694543
 20
201.5663838214
 11
116.9486336339
 21
201.4306809265
  0
LINE
  8
LAY0001
 62
7
  6
CONTINUOUS
 10
113.0724462271
 20
197.5266605942
 11
112.9089103888
 21
197.3909576815
  0
LINE
  8
LAY0001
 62
7
  6
CONTINUOUS
 10
112.9645762401
 20
197.3352918303
 11
113.128112082
 21
197.4709947393
  0
LINE
  8
LAY0001
 62
7
  6
CONTINUOUS
 10
115.3103093711
 20
198.9295359674
 11
115.4738450655
 21
199.0652387386
  0
LINE
  8
LAY0001
 62
7
  6
CONTINUOUS
 10
113.1988251971
 20
196.9015505629
 11
113.03528936
 21
196.765847649
  0
LINE
  8
LAY0001
 62
7
  6
CONTINUOUS
 10
113.0909552064
 20
196.7101818026
 11
113.2544910434
 21
196.8458847165
  0
LINE
  8
LAY0001
 62
7
  6
CONTINUOUS
 10
115.3416734695
 20
199.7958878365
 11
115.2280108515
 21
199.7100581441
  0
LINE
  8
LAY0001
 62
7
  6
CONTINUOUS
 10
116.4156417699
 20
200.1183671357
 11
116.3019790105
 21
200.0325372994
  0
LINE
  8
LAY0001
 62
7
  6
CONTINUOUS
 10
115.4181792192
 20
199.1209045849
 11
115.3045164597
 21
199.0350747486
  0
LINE
  8
LAY0001
 62
7
  6
CONTINUOUS
 10
114.1962876052
 20
197.8990129709
 11
114.0826249884
 21
197.8131832773
  0
LINE
  8
LAY0001
 62
7
  6
CONTINUOUS
 10
113.3449828511
 20
197.3538704108
 11
112.8514788842
 21
196.9995310597
  0
LINE
  8
LAY0001
 62
7
  6
CONTINUOUS
 10
112.8184185812
 20
196.8829719872
 11
113.3119225676
 21
197.2373113188
  0
LINE
  8
LAY0001
 62
7
  6
CONTINUOUS
 10
117.2008956048
 20
201.6272770463
 11
117.1121694543
 21
201.5663838214
  0
LINE
  8
LAY0001
 62
7
  6
CONTINUOUS
 10
117.0292360239
 20
201.3999516141
 11
117.2066883452
 21
201.5217380794
  0
LINE
  8
LAY0001
 62
7
  6
CONTINUOUS
 10
116.2828351691
 20
199.9020617653
 11
116.3715613184
 21
199.9629549915
  0
LINE
  8
LAY0001
 62
7
  6
CONTINUOUS
 10
113.1611723777
 20
197.5875538191
 11
113.0724462271
 21
197.5266605942
  0
LINE
  8
LAY0001
 62
7
  6
CONTINUOUS
 10
114.063481147
 20
197.6827077432
 11
114.1522072963
 21
197.7436009694
  0
LINE
  8
LAY0001
 62
7
  6
CONTINUOUS
 10
113.002229057
 20
196.6492885765
 11
113.0909552064
 21
196.7101818026
  0
LINE
  8
LAY0001
 62
7
  6
CONTINUOUS
 10
115.4054631526
 20
199.831844594
 11
115.3416734695
 21
199.7958878365
  0
LINE
  8
LAY0001
 62
7
  6
CONTINUOUS
 10
117.0779088824
 20
200.752801325
 11
117.2054880321
 21
200.8247146284
  0
LINE
  8
LAY0001
 62
7
  6
CONTINUOUS
 10
115.2836767027
 20
199.6543922929
 11
115.411255786
 21
199.7263055201
  0
LINE
  8
LAY0001
 62
7
  6
CONTINUOUS
 10
116.3019790105
 20
200.0325372994
 11
116.2381894713
 21
199.9965806834
  0
LINE
  8
LAY0001
 62
7
  6
CONTINUOUS
 10
115.3045164597
 20
199.0350747486
 11
115.2407270632
 21
198.9991182753
  0
LINE
  8
LAY0001
 62
7
  6
CONTINUOUS
 10
113.128112082
 20
197.4709947393
 11
113.1919017639
 21
197.506951498
  0
LINE
  8
LAY0001
 62
7
  6
CONTINUOUS
 10
114.0826249884
 20
197.8131832773
 11
114.0188353065
 21
197.7772265186
  0
LINE
  8
LAY0001
 62
7
  6
CONTINUOUS
 10
113.03528936
 20
196.765847649
 11
112.9714996781
 21
196.7298908903
  0
LINE
  8
LAY0001
 62
7
  6
CONTINUOUS
 10
116.1801925582
 20
199.8550850008
 11
116.2828351691
 21
199.9020617653
  0
LINE
  8
LAY0001
 62
7
  6
CONTINUOUS
 10
115.2076667602
 20
198.8825592028
 11
115.3103093711
 21
198.9295359674
  0
LINE
  8
LAY0001
 62
7
  6
CONTINUOUS
 10
113.263814991
 20
197.6345305812
 11
113.1611723777
 21
197.5875538191
  0
LINE
  8
LAY0001
 62
7
  6
CONTINUOUS
 10
113.9608385361
 20
197.6357309787
 11
114.063481147
 21
197.6827077432
  0
LINE
  8
LAY0001
 62
7
  6
CONTINUOUS
 10
113.3119225676
 20
197.2373113188
 11
113.4145651785
 21
197.2842880833
  0
LINE
  8
LAY0001
 62
7
  6
CONTINUOUS
 10
112.8514788842
 20
196.9995310597
 11
112.7488362732
 21
196.9525542952
  0
LINE
  8
LAY0001
 62
7
  6
CONTINUOUS
 10
112.8995864461
 20
196.6023118119
 11
113.002229057
 21
196.6492885765
  0
LINE
  8
LAY0001
 62
7
  6
CONTINUOUS
 10
113.4864784105
 20
197.4118671617
 11
113.3449828511
 21
197.3538704108
  0
LINE
  8
LAY0001
 62
7
  6
CONTINUOUS
 10
112.6769230412
 20
196.8249752168
 11
112.8184185812
 21
196.8829719872
  0
LINE
  8
0
 62
7
  6
CONTINUOUS
 10
108.5686885171
 20
242.9769725998
 11
106.9327018037
 21
243.2952855464
  0
LINE
  8
0
 62
7
  6
CONTINUOUS
 10
118.5912761328
 20
238.0674142805
 11
118.7165182432
 21
238.0255790386
  0
LINE
  8
0
 62
7
  6
CONTINUOUS
 10
110.8645336124
 20
240.2258086362
 11
111.1000409435
 21
240.141925998
  0
LINE
  8
0
 62
7
  6
CONTINUOUS
 10
111.1321798014
 20
240.3563379997
 11
110.9751755129
 21
240.4122595452
  0
LINE
  8
0
 62
7
  6
CONTINUOUS
 10
111.2178997436
 20
241.0937275701
 11
111.3749040321
 21
241.0378060247
  0
LINE
  8
0
 62
7
  6
CONTINUOUS
 10
111.4320156087
 20
241.1981514225
 11
111.2750113203
 21
241.254072968
  0
LINE
  8
0
 62
7
  6
CONTINUOUS
 10
111.5034576668
 20
241.8954546715
 11
111.6604619553
 21
241.8395331261
  0
LINE
  8
0
 62
7
  6
CONTINUOUS
 10
111.7318514261
 20
242.0399648733
 11
111.5748471376
 21
242.0958864188
  0
LINE
  8
0
 62
7
  6
CONTINUOUS
 10
109.0045195262
 20
240.8425850552
 11
109.2342372749
 21
240.7351581966
  0
LINE
  8
0
 62
7
  6
CONTINUOUS
 10
109.9951721298
 20
242.555893261
 11
109.7654543801
 21
242.6633201159
  0
LINE
  8
0
 62
7
  6
CONTINUOUS
 10
117.8331397697
 20
236.4519373747
 11
118.0246958751
 21
236.3596374264
  0
LINE
  8
0
 62
7
  6
CONTINUOUS
 10
118.4404414443
 20
237.5939897094
 11
118.2488823056
 21
237.6862919708
  0
LINE
  8
0
 62
7
  6
CONTINUOUS
 10
118.8785247744
 20
238.1696604141
 11
118.6869656356
 21
238.2619626755
  0
LINE
  8
0
 62
7
  6
CONTINUOUS
 10
109.2907497341
 20
240.9402818094
 11
109.1012014114
 21
241.0366418102
  0
LINE
  8
0
 62
7
  6
CONTINUOUS
 10
109.7089419289
 20
242.458196532
 11
109.8984884127
 21
242.3618370378
  0
LINE
  8
0
 62
7
  6
CONTINUOUS
 10
113.8213548414
 20
238.9835528494
 11
114.0411882745
 21
238.8645013409
  0
LINE
  8
0
 62
7
  6
CONTINUOUS
 10
114.4667340984
 20
239.6502889427
 11
115.1262343977
 21
239.293134417
  0
LINE
  8
0
 62
7
  6
CONTINUOUS
 10
115.284457249
 20
239.4978035151
 11
114.5883186033
 21
239.8747996561
  0
LINE
  8
0
 62
7
  6
CONTINUOUS
 10
114.8922799222
 20
240.4360765445
 11
115.588418568
 21
240.0590804035
  0
LINE
  8
0
 62
7
  6
CONTINUOUS
 10
115.6531006423
 20
240.2660142801
 11
114.7737669098
 21
240.7422203143
  0
LINE
  8
0
 62
7
  6
CONTINUOUS
 10
110.6825565964
 20
240.335796761
 11
110.8645336124
 21
240.2258086362
  0
LINE
  8
0
 62
7
  6
CONTINUOUS
 10
111.9138302401
 20
241.9299761121
 11
111.7318514261
 21
242.0399648733
  0
LINE
  8
0
 62
7
  6
CONTINUOUS
 10
115.4655895763
 20
238.0811464953
 11
115.6755458887
 21
237.9454322851
  0
LINE
  8
0
 62
7
  6
CONTINUOUS
 10
116.6553430813
 20
237.3120986136
 11
116.8652993938
 21
237.1763844033
  0
LINE
  8
0
 62
7
  6
CONTINUOUS
 10
116.0927197223
 20
238.283803425
 11
116.7925746311
 21
237.831422379
  0
LINE
  8
0
 62
7
  6
CONTINUOUS
 10
116.8499819979
 20
237.996991066
 11
116.2201146624
 21
238.4041326613
  0
LINE
  8
0
 62
7
  6
CONTINUOUS
 10
110.9751755129
 20
240.4122595452
 11
110.8324473218
 21
240.5082680801
  0
LINE
  8
0
 62
7
  6
CONTINUOUS
 10
111.3749040321
 20
241.0378060247
 11
111.5176304264
 21
240.9417981298
  0
LINE
  8
0
 62
7
  6
CONTINUOUS
 10
111.2750113203
 20
241.254072968
 11
111.1322831292
 21
241.3500815029
  0
LINE
  8
0
 62
7
  6
CONTINUOUS
 10
111.6604619553
 20
241.8395331261
 11
111.8031883496
 21
241.7435252311
  0
LINE
  8
0
 62
7
  6
CONTINUOUS
 10
117.6673532701
 20
236.578100303
 11
117.8331397697
 21
236.4519373747
  0
LINE
  8
0
 62
7
  6
CONTINUOUS
 10
117.995146319
 20
236.596018774
 11
117.7630427909
 21
236.7726487217
  0
LINE
  8
0
 62
7
  6
CONTINUOUS
 10
122.4011358098
 20
228.3766959964
 11
127.4446585536
 21
223.5905716211
  0
LINE
  8
0
 62
7
  6
CONTINUOUS
 10
110.8324473218
 20
240.5082680801
 11
110.7039988216
 21
240.6443623245
  0
LINE
  8
0
 62
7
  6
CONTINUOUS
 10
110.8682200097
 20
241.3537914421
 11
110.9324451582
 21
241.285744
  0
LINE
  8
0
 62
7
  6
CONTINUOUS
 10
111.5176304264
 20
240.9417981298
 11
111.6460807234
 21
240.8057032454
  0
LINE
  8
0
 62
7
  6
CONTINUOUS
 10
111.7816935459
 20
240.9380881905
 11
111.7174701942
 21
241.0061349927
  0
LINE
  8
0
 62
7
  6
CONTINUOUS
 10
108.8375761871
 20
241.0209945004
 11
109.0045195262
 21
240.8425850552
  0
LINE
  8
0
 62
7
  6
CONTINUOUS
 10
110.1621136331
 20
242.3774843332
 11
109.9951721298
 21
242.555893261
  0
LINE
  8
0
 62
7
  6
CONTINUOUS
 10
109.1012014114
 20
241.0366418102
 11
109.003296272
 21
241.1518923128
  0
LINE
  8
0
 62
7
  6
CONTINUOUS
 10
109.8984884127
 20
242.3618370378
 11
109.9963935521
 21
242.2465865351
  0
LINE
  8
0
 62
7
  6
CONTINUOUS
 10
110.5291335744
 20
240.5259582317
 11
110.6825565964
 21
240.335796761
  0
LINE
  8
0
 62
7
  6
CONTINUOUS
 10
111.1322831292
 20
241.3500815029
 11
111.0181125232
 21
241.5262620967
  0
LINE
  8
0
 62
7
  6
CONTINUOUS
 10
111.8958659487
 20
240.7619069567
 11
111.7816935459
 21
240.9380881905
  0
LINE
  8
0
 62
7
  6
CONTINUOUS
 10
111.8031883496
 20
241.7435252311
 11
111.9173607524
 21
241.5673439973
  0
LINE
  8
0
 62
7
  6
CONTINUOUS
 10
108.7509735418
 20
241.1772697342
 11
108.8375761871
 21
241.0209945004
  0
LINE
  8
0
 62
7
  6
CONTINUOUS
 10
110.2487162823
 20
242.2212091137
 11
110.1621136331
 21
242.3774843332
  0
LINE
  8
0
 62
7
  6
CONTINUOUS
 10
110.4542135964
 20
240.6881586132
 11
110.5291335744
 21
240.5259582317
  0
LINE
  8
0
 62
7
  6
CONTINUOUS
 10
110.7933000266
 20
241.5159918096
 11
110.8682200097
 21
241.3537914421
  0
LINE
  8
0
 62
7
  6
CONTINUOUS
 10
112.1421714522
 20
241.5776149244
 11
112.0672514691
 21
241.7398152919
  0
LINE
  8
0
 62
7
  6
CONTINUOUS
 10
109.9963935521
 20
242.2465865351
 11
110.0892599647
 21
241.9561696895
  0
LINE
  8
0
 62
7
  6
CONTINUOUS
 10
110.7039988216
 20
240.6443623245
 11
110.6433567427
 21
240.8466490695
  0
LINE
  8
0
 62
7
  6
CONTINUOUS
 10
111.6460807234
 20
240.8057032454
 11
111.7067227923
 21
240.6034164723
  0
LINE
  8
0
 62
7
  6
CONTINUOUS
 10
115.6780712004
 20
239.962136197
 11
115.7108214022
 21
239.8476151536
  0
LINE
  8
0
 62
7
  6
CONTINUOUS
 10
111.0181125232
 20
241.5262620967
 11
110.982443163
 21
241.6744822378
  0
LINE
  8
0
 62
7
  6
CONTINUOUS
 10
111.9173607524
 20
241.5673439973
 11
111.9530282758
 21
241.4191243839
  0
LINE
  8
0
 62
7
  6
CONTINUOUS
 10
115.9306548353
 20
239.7285636451
 11
115.9017944553
 21
239.9377632083
  0
LINE
  8
0
 62
7
  6
CONTINUOUS
 10
118.6321746449
 20
237.0202930169
 11
118.6469494308
 21
236.9021023535
  0
LINE
  8
0
 62
7
  6
CONTINUOUS
 10
118.8568892622
 20
236.9027595559
 11
118.8347255654
 21
237.0800467061
  0
LINE
  8
LAY0001
 62
7
  6
CONTINUOUS
 10
117.5905565659
 20
201.2376160853
 11
117.6375333393
 21
201.3402587051
  0
LINE
  8
LAY0001
 62
7
  6
CONTINUOUS
 10
117.4850176062
 20
201.2434088184
 11
117.4490609367
 21
201.1796192257
  0
LINE
  8
LAY0001
 62
7
  6
CONTINUOUS
 10
117.5296633397
 20
201.148889936
 11
117.5905565659
 21
201.2376160853
  0
LINE
  8
LAY0001
 62
7
  6
CONTINUOUS
 10
116.4713076163
 20
200.0627012894
 11
116.5571374526
 21
200.1763640488
  0
LINE
  8
LAY0001
 62
7
  6
CONTINUOUS
 10
117.4490609367
 20
201.1796192257
 11
117.3632311361
 21
201.0659565019
  0
LINE
  8
LAY0001
 62
7
  6
CONTINUOUS
 10
117.5846872202
 20
199.5211501006
 11
117.8675299327
 21
199.803992813
  0
LINE
  8
LAY0001
 62
7
  6
CONTINUOUS
 10
116.1704736578
 20
196.8341443321
 11
115.8876309453
 21
196.5513016196
  0
LINE
  8
LAY0001
 62
7
  6
CONTINUOUS
 10
114.8623261126
 20
194.5360472932
 11
115.4633668766
 21
195.1370880572
  0
LINE
  8
LAY0001
 62
7
  6
CONTINUOUS
 10
116.311895014
 20
195.9856161946
 11
116.489851533
 21
196.1635727136
  0
LINE
  8
LAY0001
 62
7
  6
CONTINUOUS
 10
117.0190017952
 20
196.6927229758
 11
117.6200425592
 21
197.2937637398
  0
LINE
  8
LAY0001
 62
7
  6
CONTINUOUS
 10
117.7614639155
 20
197.4351850961
 11
118.3625046795
 21
198.0362258601
  0
LINE
  8
LAY0001
 62
7
  6
CONTINUOUS
 10
119.1756774779
 20
198.8493986584
 11
119.7767182419
 21
199.4504394225
  0
LINE
  8
0
 62
7
  6
CONTINUOUS
 10
99.594023459
 20
252.5981342053
 11
89.594023459
 21
252.5981342053
  0
LINE
  8
0
 62
7
  6
CONTINUOUS
 10
103.294023459
 20
253.0981342053
 11
100.9168991146
 21
253.0981342053
  0
LINE
  8
0
 62
7
  6
CONTINUOUS
 10
88.2711478035
 20
253.0981342053
 11
85.5940234591
 21
253.0981342053
  0
LINE
  8
0
 62
7
  6
CONTINUOUS
 10
117.3911285081
 20
239.2179401538
 11
117.1111862242
 21
239.3988927793
  0
LINE
  8
0
 62
7
  6
CONTINUOUS
 10
118.2784349131
 20
237.4499083339
 11
118.5105384412
 21
237.2732783861
  0
LINE
  8
0
 62
7
  6
CONTINUOUS
 10
118.606227944
 20
237.4678267811
 11
118.4404414443
 21
237.5939897094
  0
LINE
  8
0
 62
7
  6
CONTINUOUS
 10
119.0261046432
 20
237.4691435909
 11
119.1918941786
 21
237.3429783524
  0
LINE
  8
0
 62
7
  6
CONTINUOUS
 10
118.7165182432
 20
238.0255790386
 11
118.915463257
 21
237.8741826005
  0
LINE
  8
0
 62
7
  6
CONTINUOUS
 10
119.0111527598
 20
238.0687309955
 11
118.8785247744
 21
238.1696604141
  0
LINE
  8
0
 62
7
  6
CONTINUOUS
 10
115.8160316448
 20
240.1293859346
 11
115.6531006423
 21
240.2660142801
  0
LINE
  8
0
 62
7
  6
CONTINUOUS
 10
115.588418568
 20
240.0590804035
 11
115.6780712004
 21
239.962136197
  0
LINE
  8
0
 62
7
  6
CONTINUOUS
 10
117.5273333404
 20
236.7381285215
 11
117.6673532701
 21
236.578100303
  0
LINE
  8
0
 62
7
  6
CONTINUOUS
 10
118.7462448403
 20
237.3078008757
 11
118.606227944
 21
237.4678267811
  0
LINE
  8
0
 62
7
  6
CONTINUOUS
 10
119.1511726918
 20
237.90870278
 11
119.0111527598
 21
238.0687309955
  0
LINE
  8
0
 62
7
  6
CONTINUOUS
 10
112.0672514691
 20
241.7398152919
 11
111.9138302401
 21
241.9299761121
  0
LINE
  8
0
 62
7
  6
CONTINUOUS
 10
117.7630427909
 20
236.7726487217
 11
117.6893398874
 21
236.8822099178
  0
LINE
  8
0
 62
7
  6
CONTINUOUS
 10
118.5105384412
 20
237.2732783861
 11
118.5842413447
 21
237.16371719
  0
LINE
  8
0
 62
7
  6
CONTINUOUS
 10
118.915463257
 20
237.8741826005
 11
118.9891661606
 21
237.7646214045
  0
LINE
  8
0
 62
7
  6
CONTINUOUS
 10
120.5827783383
 20
234.4090301228
 11
123.649445005
 21
229.0974076463
  0
LINE
  8
0
 62
7
  6
CONTINUOUS
 10
124.5732054357
 20
229.6307409796
 11
121.506538769
 21
234.9423634562
  0
LINE
  8
0
 62
7
  6
CONTINUOUS
 10
115.9017944553
 20
239.9377632083
 11
115.8160316448
 21
240.1293859346
  0
LINE
  8
0
 62
7
  6
CONTINUOUS
 10
117.4388556577
 20
236.9658803899
 11
117.5273333404
 21
236.7381285215
  0
LINE
  8
0
 62
7
  6
CONTINUOUS
 10
118.8347255654
 20
237.0800467061
 11
118.7462448403
 21
237.3078008757
  0
LINE
  8
0
 62
7
  6
CONTINUOUS
 10
119.2396503813
 20
237.6809509205
 11
119.1511726918
 21
237.90870278
  0
LINE
  8
0
 62
7
  6
CONTINUOUS
 10
117.6893398874
 20
236.8822099178
 11
117.6414065872
 21
237.0256340909
  0
LINE
  8
0
 62
7
  6
CONTINUOUS
 10
118.5842413447
 20
237.16371719
 11
118.6321746449
 21
237.0202930169
  0
LINE
  8
0
 62
7
  6
CONTINUOUS
 10
118.9891661606
 20
237.7646214045
 11
119.0370994607
 21
237.6211972313
  0
LINE
  8
0
 62
7
  6
CONTINUOUS
 10
127.4446585536
 20
223.5905716211
 11
125.8215146308
 21
230.3514526295
  0
LINE
  8
0
 62
7
  6
CONTINUOUS
 10
130.146439188
 20
193.3233591635
 11
137.2175069998
 21
200.3944269753
  0
LINE
  8
0
 62
7
  6
CONTINUOUS
 10
127.8836974882
 20
190.3535106825
 11
129.5645782319
 21
192.0343914262
  0
LINE
  8
0
 62
7
  6
CONTINUOUS
 10
138.5064747371
 20
200.9762879314
 11
140.3994875151
 21
202.8693007095
  0
LINE
  8
0
 62
7
  6
CONTINUOUS
 10
125.9037985008
 20
244.1855499342
 11
118.832730689
 21
251.2566177461
  0
LINE
  8
0
 62
7
  6
CONTINUOUS
 10
128.8736469818
 20
241.9228082344
 11
127.1927662381
 21
243.6036889781
  0
LINE
  8
0
 62
7
  6
CONTINUOUS
 10
118.2508697329
 20
252.5455854834
 11
116.3578569548
 21
254.4385982614
  0
LINE
  8
0
 62
7
  6
CONTINUOUS
 10
138.559023459
 20
219.6331342053
 11
138.559023459
 21
229.6331342053
  0
LINE
  8
0
 62
7
  6
CONTINUOUS
 10
139.059023459
 20
215.9331342053
 11
139.059023459
 21
218.3102585497
  0
LINE
  8
0
 62
7
  6
CONTINUOUS
 10
139.059023459
 20
230.9560098608
 11
139.059023459
 21
233.6331342053
  0
LINE
  8
0
 62
7
  6
CONTINUOUS
 10
111.7494438645
 20
266.2962822851
 11
109.3152769659
 21
266.6838559913
  0
LINE
  8
0
 62
7
  6
CONTINUOUS
 10
131.2373123881
 20
175.0421255697
 11
133.2325843044
 21
176.4892854944
  0
LINE
  8
0
 62
7
  6
CONTINUOUS
 10
152.2571715389
 20
207.4777137999
 11
152.644745245
 21
209.9118806984
  0
LINE
  8
0
 62
7
  6
CONTINUOUS
 10
144.1850320946
 20
245.2764231344
 11
142.7378721699
 21
247.2716950507
  0
POLYLINE
  8
0
 62
7
  6
CONTINUOUS
 66
1
 70
0
  0
VERTEX
  8
0
 62
7
  6
CONTINUOUS
 10
52.5255095059
 20
86.8405772682
  0
VERTEX
  8
0
 62
7
  6
CONTINUOUS
 10
52.5285846237
 20
86.762194955
  0
VERTEX
  8
0
 62
7
  6
CONTINUOUS
 10
52.542371694
 20
86.6576623521
  0
VERTEX
  8
0
 62
7
  6
CONTINUOUS
 10
52.5669215796
 20
86.5557000577
  0
VERTEX
  8
0
 62
7
  6
CONTINUOUS
 10
52.6016041884
 20
86.4578408141
  0
VERTEX
  8
0
 62
7
  6
CONTINUOUS
 10
52.6455037172
 20
86.3654599622
  0
VERTEX
  8
0
 62
7
  6
CONTINUOUS
 10
52.6974576379
 20
86.2797265049
  0
VERTEX
  8
0
 62
7
  6
CONTINUOUS
 10
52.7561267353
 20
86.2015369462
  0
VERTEX
  8
0
 62
7
  6
CONTINUOUS
 10
52.8199896144
 20
86.1315704514
  0
VERTEX
  8
0
 62
7
  6
CONTINUOUS
 10
52.8873159154
 20
86.0703039799
  0
VERTEX
  8
0
 62
7
  6
CONTINUOUS
 10
52.9564094098
 20
86.0178068934
  0
VERTEX
  8
0
 62
7
  6
CONTINUOUS
 10
53.0255862467
 20
85.9738634201
  0
VERTEX
  8
0
 62
7
  6
CONTINUOUS
 10
53.0938860234
 20
85.937673972
  0
VERTEX
  8
0
 62
7
  6
CONTINUOUS
 10
53.1603867804
 20
85.9084458797
  0
VERTEX
  8
0
 62
7
  6
CONTINUOUS
 10
53.2218266067
 20
85.886096131
  0
VERTEX
  8
0
 62
7
  6
CONTINUOUS
 10
53.2758047536
 20
85.8696313694
  0
VERTEX
  8
0
 62
7
  6
CONTINUOUS
 10
53.3228312357
 20
85.8571761337
  0
VERTEX
  8
0
 62
7
  6
CONTINUOUS
 10
53.368790392
 20
85.8461546431
  0
VERTEX
  8
0
 62
7
  6
CONTINUOUS
 10
53.4176600472
 20
85.8352111039
  0
SEQEND
  0
LINE
  8
0
 62
7
  6
CONTINUOUS
 10
52.5255084764
 20
92.7111332472
 11
52.5255084764
 21
86.8401698163
  0
POLYLINE
  8
0
 62
7
  6
CONTINUOUS
 66
1
 70
0
  0
VERTEX
  8
0
 62
7
  6
CONTINUOUS
 10
143.5280357892
 20
85.7394949081
  0
VERTEX
  8
0
 62
7
  6
CONTINUOUS
 10
143.6141259163
 20
85.7624665344
  0
VERTEX
  8
0
 62
7
  6
CONTINUOUS
 10
143.7202153758
 20
85.7942896018
  0
VERTEX
  8
0
 62
7
  6
CONTINUOUS
 10
143.8159694073
 20
85.8277904264
  0
VERTEX
  8
0
 62
7
  6
CONTINUOUS
 10
143.91101978
 20
85.8675489607
  0
VERTEX
  8
0
 62
7
  6
CONTINUOUS
 10
144.012685713
 20
85.9200026833
  0
VERTEX
  8
0
 62
7
  6
CONTINUOUS
 10
144.1220767127
 20
85.9918288349
  0
VERTEX
  8
0
 62
7
  6
CONTINUOUS
 10
144.235171703
 20
86.0890695654
  0
VERTEX
  8
0
 62
7
  6
CONTINUOUS
 10
144.3446482271
 20
86.2168165676
  0
VERTEX
  8
0
 62
7
  6
CONTINUOUS
 10
144.4396616839
 20
86.3769539934
  0
VERTEX
  8
0
 62
7
  6
CONTINUOUS
 10
144.5073733878
 20
86.5652787902
  0
VERTEX
  8
0
 62
7
  6
CONTINUOUS
 10
144.5371239499
 20
86.7730503385
  0
VERTEX
  8
0
 62
7
  6
CONTINUOUS
 10
144.5378593161
 20
86.8115816168
  0
SEQEND
  0
LINE
  8
0
 62
7
  6
CONTINUOUS
 10
142.3649758877
 20
85.4432491337
 11
143.5281199401
 21
85.7395158998
  0
LINE
  8
0
 62
7
  6
CONTINUOUS
 10
127.4446585536
 20
70.1256515317
 11
120.5827783383
 21
70.1256515317
  0
LINE
  8
LAY0001
 62
7
  6
CONTINUOUS
 10
119.7767182419
 20
70.1256515317
 11
119.2396503813
 21
70.1256515317
  0
LINE
  8
0
 62
7
  6
CONTINUOUS
 10
119.2396503813
 20
70.1256515317
 11
117.4388556577
 21
70.1256515317
  0
LINE
  8
LAY0001
 62
7
  6
CONTINUOUS
 10
117.4424615734
 20
70.1256515317
 11
117.3911285081
 21
70.1256515317
  0
LINE
  8
0
 62
7
  6
CONTINUOUS
 10
117.3911285081
 20
70.1256515317
 11
113.8213548414
 21
70.1256515317
  0
LINE
  8
LAY0001
 62
7
  6
CONTINUOUS
 10
113.8213548414
 20
70.1256515317
 11
112.543551327
 21
70.1256515317
  0
LINE
  8
0
 62
7
  6
CONTINUOUS
 10
112.149284984
 20
70.1256515317
 11
110.4471000345
 21
70.1256515317
  0
LINE
  8
0
 62
7
  6
CONTINUOUS
 10
110.2901089388
 20
70.1256515317
 11
94.724539869
 21
70.1256515317
  0
LINE
  8
0
 62
7
  6
CONTINUOUS
 10
94.6529624533
 20
70.1256515317
 11
93.2464661156
 21
70.1256515317
  0
LINE
  8
0
 62
7
  6
CONTINUOUS
 10
93.2165894282
 20
70.1256515317
 11
92.2658877936
 21
70.1256515317
  0
LINE
  8
0
 62
7
  6
CONTINUOUS
 10
92.1655795761
 20
70.1256515317
 11
90.5076426789
 21
70.1256515317
  0
LINE
  8
0
 62
7
  6
CONTINUOUS
 10
89.3248819145
 20
70.1256515317
 11
85.7451754716
 21
70.1256515317
  0
LINE
  8
0
 62
7
  6
CONTINUOUS
 10
84.1433883644
 20
70.1256515317
 11
77.2815081491
 21
70.1256515317
  0
LINE
  8
0
 62
7
  6
CONTINUOUS
 10
74.094025219
 20
70.2756515317
 11
131.0940217039
 21
70.2756515317
  0
POLYLINE
  8
0
 62
7
  6
CONTINUOUS
 66
1
 70
0
  0
VERTEX
  8
0
 62
7
  6
CONTINUOUS
 10
71.1688741711
 20
86.7739250546
  0
VERTEX
  8
0
 62
7
  6
CONTINUOUS
 10
71.1690966294
 20
86.7526206923
  0
VERTEX
  8
0
 62
7
  6
CONTINUOUS
 10
71.1938130509
 20
86.5497512814
  0
VERTEX
  8
0
 62
7
  6
CONTINUOUS
 10
71.2589215859
 20
86.3546392207
  0
VERTEX
  8
0
 62
7
  6
CONTINUOUS
 10
71.3583319722
 20
86.1808173423
  0
VERTEX
  8
0
 62
7
  6
CONTINUOUS
 10
71.4802128829
 20
86.0377320892
  0
VERTEX
  8
0
 62
7
  6
CONTINUOUS
 10
71.6112759464
 20
85.9276835147
  0
VERTEX
  8
0
 62
7
  6
CONTINUOUS
 10
71.7409091063
 20
85.8468685676
  0
VERTEX
  8
0
 62
7
  6
CONTINUOUS
 10
71.8631931514
 20
85.788308721
  0
VERTEX
  8
0
 62
7
  6
CONTINUOUS
 10
71.9800193027
 20
85.74366855
  0
VERTEX
  8
0
 62
7
  6
CONTINUOUS
 10
72.0567958717
 20
85.7187061306
  0
SEQEND
  0
LINE
  8
0
 62
7
  6
CONTINUOUS
 10
71.1688709635
 20
92.7777728266
 11
71.1688709635
 21
86.7735302369
  0
LINE
  8
0
 62
7
  6
CONTINUOUS
 10
72.594023459
 20
107.7756515317
 11
72.594023459
 21
95.7756515317
  0
LINE
  8
0
 62
7
  6
CONTINUOUS
 10
72.594023459
 20
83.7756515317
 11
72.594023459
 21
71.7756515317
  0
LINE
  8
0
 62
7
  6
CONTINUOUS
 10
141.9411408072
 20
85.3530818098
 11
142.3649583253
 21
85.4432448155
  0
POLYLINE
  8
0
 62
7
  6
CONTINUOUS
 66
1
 70
0
  0
VERTEX
  8
0
 62
7
  6
CONTINUOUS
 10
151.6196816838
 20
85.8039769044
  0
VERTEX
  8
0
 62
7
  6
CONTINUOUS
 10
151.6824354942
 20
85.8166642438
  0
VERTEX
  8
0
 62
7
  6
CONTINUOUS
 10
151.7377758506
 20
85.8281994206
  0
VERTEX
  8
0
 62
7
  6
CONTINUOUS
 10
151.7866586272
 20
85.8387878216
  0
VERTEX
  8
0
 62
7
  6
CONTINUOUS
 10
151.8308578117
 20
85.8488557711
  0
VERTEX
  8
0
 62
7
  6
CONTINUOUS
 10
151.8729328522
 20
85.8591242335
  0
VERTEX
  8
0
 62
7
  6
CONTINUOUS
 10
151.9160233851
 20
85.8707011684
  0
VERTEX
  8
0
 62
7
  6
CONTINUOUS
 10
151.9641640135
 20
85.8854183079
  0
VERTEX
  8
0
 62
7
  6
CONTINUOUS
 10
152.0205102
 20
85.9056265102
  0
VERTEX
  8
0
 62
7
  6
CONTINUOUS
 10
152.0833474173
 20
85.9325372444
  0
VERTEX
  8
0
 62
7
  6
CONTINUOUS
 10
152.1495336674
 20
85.9664964279
  0
VERTEX
  8
0
 62
7
  6
CONTINUOUS
 10
152.2164529295
 20
86.0074749883
  0
VERTEX
  8
0
 62
7
  6
CONTINUOUS
 10
152.2832035073
 20
86.0560808772
  0
VERTEX
  8
0
 62
7
  6
CONTINUOUS
 10
152.3485754616
 20
86.1126731902
  0
VERTEX
  8
0
 62
7
  6
CONTINUOUS
 10
152.4109259438
 20
86.1770441898
  0
VERTEX
  8
0
 62
7
  6
CONTINUOUS
 10
152.4685370875
 20
86.2484425641
  0
VERTEX
  8
0
 62
7
  6
CONTINUOUS
 10
152.5201254599
 20
86.3260663982
  0
VERTEX
  8
0
 62
7
  6
CONTINUOUS
 10
152.5649597883
 20
86.4095900517
  0
VERTEX
  8
0
 62
7
  6
CONTINUOUS
 10
152.602131482
 20
86.4981862079
  0
VERTEX
  8
0
 62
7
  6
CONTINUOUS
 10
152.6308778647
 20
86.5908749079
  0
VERTEX
  8
0
 62
7
  6
CONTINUOUS
 10
152.6506110815
 20
86.6865550518
  0
VERTEX
  8
0
 62
7
  6
CONTINUOUS
 10
152.6609384346
 20
86.7840361386
  0
VERTEX
  8
0
 62
7
  6
CONTINUOUS
 10
152.6625374122
 20
86.8405772861
  0
SEQEND
  0
LINE
  8
0
 62
7
  6
CONTINUOUS
 10
151.4704842516
 20
85.7748813753
 11
151.6196816838
 21
85.8039769044
  0
LINE
  8
0
 62
7
  6
CONTINUOUS
 10
151.2901802075
 20
85.7409829046
 11
151.4704842516
 21
85.7748813753
  0
LINE
  8
0
 62
7
  6
CONTINUOUS
 10
151.0121058547
 20
85.6904363554
 11
151.2901802075
 21
85.7409829046
  0
LINE
  8
0
 62
7
  6
CONTINUOUS
 10
149.5433434961
 20
85.4279735994
 11
151.0121068298
 21
85.6904364578
  0
LINE
  8
0
 62
7
  6
CONTINUOUS
 10
77.2815081491
 20
109.4256515317
 11
77.2815081491
 21
109.2756515317
  0
LINE
  8
0
 62
7
  6
CONTINUOUS
 10
77.2815081491
 20
70.2756515317
 11
77.2815081491
 21
70.1256515317
  0
POLYLINE
  8
0
 62
7
  6
CONTINUOUS
 66
1
 70
0
  0
VERTEX
  8
0
 62
7
  6
CONTINUOUS
 10
72.0567890641
 20
93.8325948488
  0
VERTEX
  8
0
 62
7
  6
CONTINUOUS
 10
71.9816328055
 20
93.8081905447
  0
VERTEX
  8
0
 62
7
  6
CONTINUOUS
 10
71.8640405268
 20
93.763353159
  0
VERTEX
  8
0
 62
7
  6
CONTINUOUS
 10
71.7418079075
 20
93.7049200347
  0
VERTEX
  8
0
 62
7
  6
CONTINUOUS
 10
71.6125802476
 20
93.6245529483
  0
VERTEX
  8
0
 62
7
  6
CONTINUOUS
 10
71.4818099807
 20
93.5151373218
  0
VERTEX
  8
0
 62
7
  6
CONTINUOUS
 10
71.3597292675
 20
93.3724543027
  0
VERTEX
  8
0
 62
7
  6
CONTINUOUS
 10
71.2597217777
 20
93.1984394847
  0
VERTEX
  8
0
 62
7
  6
CONTINUOUS
 10
71.1940643584
 20
93.0026649107
  0
VERTEX
  8
0
 62
7
  6
CONTINUOUS
 10
71.1691044124
 20
92.7990516198
  0
VERTEX
  8
0
 62
7
  6
CONTINUOUS
 10
71.1688741713
 20
92.7773778564
  0
SEQEND
  0
POLYLINE
  8
0
 62
7
  6
CONTINUOUS
 66
1
 70
0
  0
VERTEX
  8
0
 62
7
  6
CONTINUOUS
 10
55.6447037169
 20
85.4279737142
  0
VERTEX
  8
0
 62
7
  6
CONTINUOUS
 10
56.1847359998
 20
85.3469773059
  0
VERTEX
  8
0
 62
7
  6
CONTINUOUS
 10
56.8102685035
 20
85.2913005572
  0
VERTEX
  8
0
 62
7
  6
CONTINUOUS
 10
57.3629160968
 20
85.2756517058
  0
SEQEND
  0
LINE
  8
0
 62
7
  6
CONTINUOUS
 10
53.9834082631
 20
85.7252399473
 11
55.644703422
 21
85.4279735994
  0
LINE
  8
0
 62
7
  6
CONTINUOUS
 10
53.7777549087
 20
85.7634408081
 11
53.9834082631
 21
85.7252399473
  0
POLYLINE
  8
0
 62
7
  6
CONTINUOUS
 66
1
 70
0
  0
VERTEX
  8
0
 62
7
  6
CONTINUOUS
 10
53.4176600472
 20
85.8352111039
  0
VERTEX
  8
0
 62
7
  6
CONTINUOUS
 10
53.4726640514
 20
85.8234840682
  0
VERTEX
  8
0
 62
7
  6
CONTINUOUS
 10
53.5355546851
 20
85.8105669458
  0
VERTEX
  8
0
 62
7
  6
CONTINUOUS
 10
53.607233279
 20
85.7962738167
  0
VERTEX
  8
0
 62
7
  6
CONTINUOUS
 10
53.7777549087
 20
85.7634408081
  0
SEQEND
  0
LINE
  8
0
 62
7
  6
CONTINUOUS
 10
79.0998656205
 20
109.4256515317
 11
79.0998656205
 21
109.2756515317
  0
LINE
  8
0
 62
7
  6
CONTINUOUS
 10
79.0998656205
 20
70.2756515317
 11
79.0998656205
 21
70.1256515317
  0
LINE
  8
0
 62
7
  6
CONTINUOUS
 10
72.9118483137
 20
94.0949409604
 11
72.0563834908
 21
93.8324717617
  0
POLYLINE
  8
0
 62
7
  6
CONTINUOUS
 66
1
 70
0
  0
VERTEX
  8
0
 62
7
  6
CONTINUOUS
 10
141.0338484408
 20
85.275651676
  0
VERTEX
  8
0
 62
7
  6
CONTINUOUS
 10
141.4574544773
 20
85.2924627962
  0
VERTEX
  8
0
 62
7
  6
CONTINUOUS
 10
141.9411408072
 20
85.3530818098
  0
SEQEND
  0
POLYLINE
  8
0
 62
7
  6
CONTINUOUS
 66
1
 70
0
  0
VERTEX
  8
0
 62
7
  6
CONTINUOUS
 10
147.8251308213
 20
85.2756517058
  0
VERTEX
  8
0
 62
7
  6
CONTINUOUS
 10
148.3777784146
 20
85.2913005572
  0
VERTEX
  8
0
 62
7
  6
CONTINUOUS
 10
149.0033109182
 20
85.3469773059
  0
VERTEX
  8
0
 62
7
  6
CONTINUOUS
 10
149.5433432012
 20
85.4279737142
  0
SEQEND
  0
LINE
  8
0
 62
7
  6
CONTINUOUS
 10
147.825112702
 20
85.2756515317
 11
57.3629342161
 21
85.2756515317
  0
POLYLINE
  8
0
 62
7
  6
CONTINUOUS
 66
1
 70
0
  0
VERTEX
  8
0
 62
7
  6
CONTINUOUS
 10
72.9118907139
 20
85.4563492636
  0
VERTEX
  8
0
 62
7
  6
CONTINUOUS
 10
73.2881283511
 20
85.3597390437
  0
VERTEX
  8
0
 62
7
  6
CONTINUOUS
 10
73.7224531059
 20
85.29393617
  0
VERTEX
  8
0
 62
7
  6
CONTINUOUS
 10
74.1033836165
 20
85.2756517076
  0
SEQEND
  0
LINE
  8
0
 62
7
  6
CONTINUOUS
 10
72.0563835047
 20
85.7188312975
 11
72.9118483093
 21
85.4563621044
  0
LINE
  8
0
 62
7
  6
CONTINUOUS
 10
84.1433883644
 20
109.4256515317
 11
84.1433883644
 21
109.2756515317
  0
LINE
  8
0
 62
7
  6
CONTINUOUS
 10
84.1433883644
 20
70.2756515317
 11
84.1433883644
 21
70.1256515317
  0
LINE
  8
0
 62
7
  6
CONTINUOUS
 10
85.7451754716
 20
70.2756515317
 11
85.7451754716
 21
70.1256515317
  0
LINE
  8
0
 62
7
  6
CONTINUOUS
 10
85.9087517947
 20
70.2756515317
 11
85.9087517947
 21
70.1256515317
  0
LINE
  8
0
 62
7
  6
CONTINUOUS
 10
86.4358027373
 20
70.2756515317
 11
86.4358027373
 21
70.1256515317
  0
LINE
  8
0
 62
7
  6
CONTINUOUS
 10
86.5475756425
 20
70.2756515317
 11
86.5475756425
 21
70.1256515317
  0
LINE
  8
0
 62
7
  6
CONTINUOUS
 10
86.5630570751
 20
70.2756515317
 11
86.5630570751
 21
70.1256515317
  0
LINE
  8
0
 62
7
  6
CONTINUOUS
 10
86.7266334332
 20
70.2756515317
 11
86.7266334332
 21
70.1256515317
  0
LINE
  8
0
 62
7
  6
CONTINUOUS
 10
87.1314084889
 20
70.2756515317
 11
87.1314084889
 21
70.1256515317
  0
LINE
  8
0
 62
7
  6
CONTINUOUS
 10
87.302822555
 20
70.2756515317
 11
87.302822555
 21
70.1256515317
  0
LINE
  8
0
 62
7
  6
CONTINUOUS
 10
87.4237479297
 20
70.2756515317
 11
87.4237479297
 21
70.1256515317
  0
LINE
  8
0
 62
7
  6
CONTINUOUS
 10
87.4439434259
 20
70.2756515317
 11
87.4439434259
 21
70.1256515317
  0
LINE
  8
0
 62
7
  6
CONTINUOUS
 10
87.4984215979
 20
70.2756515317
 11
87.4984215979
 21
70.1256515317
  0
LINE
  8
0
 62
7
  6
CONTINUOUS
 10
87.6113678151
 20
70.2756515317
 11
87.6113678151
 21
70.1256515317
  0
LINE
  8
0
 62
7
  6
CONTINUOUS
 10
87.7484991072
 20
70.2756515317
 11
87.7484991072
 21
70.1256515317
  0
LINE
  8
0
 62
7
  6
CONTINUOUS
 10
87.8755326021
 20
70.2756515317
 11
87.8755326021
 21
70.1256515317
  0
LINE
  8
0
 62
7
  6
CONTINUOUS
 10
88.0267511721
 20
70.2756515317
 11
88.0267511721
 21
70.1256515317
  0
LINE
  8
0
 62
7
  6
CONTINUOUS
 10
88.0802017501
 20
70.2756515317
 11
88.0802017501
 21
70.1256515317
  0
LINE
  8
0
 62
7
  6
CONTINUOUS
 10
88.2563064048
 20
70.2756515317
 11
88.2563064048
 21
70.1256515317
  0
LINE
  8
0
 62
7
  6
CONTINUOUS
 10
88.369984637
 20
70.2756515317
 11
88.369984637
 21
70.1256515317
  0
LINE
  8
0
 62
7
  6
CONTINUOUS
 10
88.4057330175
 20
70.2756515317
 11
88.4057330175
 21
70.1256515317
  0
LINE
  8
0
 62
7
  6
CONTINUOUS
 10
88.4212365103
 20
70.2756515317
 11
88.4212365103
 21
70.1256515317
  0
LINE
  8
0
 62
7
  6
CONTINUOUS
 10
88.597341165
 20
70.2756515317
 11
88.597341165
 21
70.1256515317
  0
LINE
  8
0
 62
7
  6
CONTINUOUS
 10
89.3248819145
 20
70.2756515317
 11
89.3248819145
 21
70.1256515317
  0
LINE
  8
0
 62
7
  6
CONTINUOUS
 10
90.5076426789
 20
70.2756515317
 11
90.5076426789
 21
70.1256515317
  0
LINE
  8
0
 62
7
  6
CONTINUOUS
 10
91.8672104516
 20
70.2756515317
 11
91.8672104516
 21
70.1256515317
  0
LINE
  8
0
 62
7
  6
CONTINUOUS
 10
91.9750742392
 20
70.2756515317
 11
91.9750742392
 21
70.1256515317
  0
LINE
  8
0
 62
7
  6
CONTINUOUS
 10
92.0577157886
 20
70.2756515317
 11
92.0577157886
 21
70.1256515317
  0
LINE
  8
0
 62
7
  6
CONTINUOUS
 10
92.1655795761
 20
70.2756515317
 11
92.1655795761
 21
70.1256515317
  0
LINE
  8
0
 62
7
  6
CONTINUOUS
 10
92.2658877936
 20
70.2756515317
 11
92.2658877936
 21
70.1256515317
  0
LINE
  8
0
 62
7
  6
CONTINUOUS
 10
92.4586829014
 20
70.2756515317
 11
92.4586829014
 21
70.1256515317
  0
LINE
  8
0
 62
7
  6
CONTINUOUS
 10
57.3629163744
 20
94.2756515317
 11
147.8251130326
 21
94.2756515317
  0
LINE
  8
0
 62
7
  6
CONTINUOUS
 10
93.2165894282
 20
70.2756515317
 11
93.2165894282
 21
70.1256515317
  0
LINE
  8
0
 62
7
  6
CONTINUOUS
 10
93.2464661156
 20
70.2756515317
 11
93.2464661156
 21
70.1256515317
  0
LINE
  8
0
 62
7
  6
CONTINUOUS
 10
93.2674178928
 20
70.2756515317
 11
93.2674178928
 21
70.1256515317
  0
LINE
  8
0
 62
7
  6
CONTINUOUS
 10
93.317113072
 20
70.2756515317
 11
93.317113072
 21
70.1256515317
  0
LINE
  8
0
 62
7
  6
CONTINUOUS
 10
93.4060261951
 20
70.2756515317
 11
93.4060261951
 21
70.1256515317
  0
LINE
  8
0
 62
7
  6
CONTINUOUS
 10
93.5093105704
 20
70.2756515317
 11
93.5093105704
 21
70.1256515317
  0
LINE
  8
0
 62
7
  6
CONTINUOUS
 10
93.7302505731
 20
70.2756515317
 11
93.7302505731
 21
70.1256515317
  0
LINE
  8
0
 62
7
  6
CONTINUOUS
 10
93.9799330799
 20
70.2756515317
 11
93.9799330799
 21
70.1256515317
  0
LINE
  8
0
 62
7
  6
CONTINUOUS
 10
94.2191392493
 20
70.2756515317
 11
94.2191392493
 21
70.1256515317
  0
LINE
  8
0
 62
7
  6
CONTINUOUS
 10
94.3942798852
 20
70.2756515317
 11
94.3942798852
 21
70.1256515317
  0
LINE
  8
0
 62
7
  6
CONTINUOUS
 10
94.4909837353
 20
70.2756515317
 11
94.4909837353
 21
70.1256515317
  0
LINE
  8
0
 62
7
  6
CONTINUOUS
 10
94.5484687638
 20
70.2756515317
 11
94.5484687638
 21
70.1256515317
  0
LINE
  8
0
 62
7
  6
CONTINUOUS
 10
94.6346962765
 20
70.2756515317
 11
94.6346962765
 21
70.1256515317
  0
LINE
  8
0
 62
7
  6
CONTINUOUS
 10
94.6529624533
 20
70.2756515317
 11
94.6529624533
 21
70.1256515317
  0
LINE
  8
0
 62
7
  6
CONTINUOUS
 10
94.724539869
 20
70.2756515317
 11
94.724539869
 21
70.1256515317
  0
LINE
  8
0
 62
7
  6
CONTINUOUS
 10
94.9650669222
 20
70.2756515317
 11
94.9650669222
 21
70.1256515317
  0
LINE
  8
0
 62
7
  6
CONTINUOUS
 10
95.5568704278
 20
70.2756515317
 11
95.5568704278
 21
70.1256515317
  0
LINE
  8
0
 62
7
  6
CONTINUOUS
 10
95.8469997562
 20
70.2756515317
 11
95.8469997562
 21
70.1256515317
  0
LINE
  8
0
 62
7
  6
CONTINUOUS
 10
96.0875268094
 20
70.2756515317
 11
96.0875268094
 21
70.1256515317
  0
LINE
  8
0
 62
7
  6
CONTINUOUS
 10
96.194023459
 20
109.4256515317
 11
96.194023459
 21
109.2756515317
  0
LINE
  8
0
 62
7
  6
CONTINUOUS
 10
96.4588192661
 20
70.2756515317
 11
96.4588192661
 21
70.1256515317
  0
LINE
  8
0
 62
7
  6
CONTINUOUS
 10
73.2927669816
 20
94.1925231832
 11
72.9118885034
 21
94.0949531117
  0
POLYLINE
  8
0
 62
7
  6
CONTINUOUS
 66
1
 70
0
  0
VERTEX
  8
0
 62
7
  6
CONTINUOUS
 10
74.1033808253
 20
94.2756513656
  0
VERTEX
  8
0
 62
7
  6
CONTINUOUS
 10
73.7271547093
 20
94.2578158791
  0
VERTEX
  8
0
 62
7
  6
CONTINUOUS
 10
73.2927669816
 20
94.1925231832
  0
SEQEND
  0
POLYLINE
  8
0
 62
7
  6
CONTINUOUS
 66
1
 70
0
  0
VERTEX
  8
0
 62
7
  6
CONTINUOUS
 10
57.3629160948
 20
94.2756513676
  0
VERTEX
  8
0
 62
7
  6
CONTINUOUS
 10
56.8170570958
 20
94.26038487
  0
VERTEX
  8
0
 62
7
  6
CONTINUOUS
 10
56.1914868841
 20
94.2051437611
  0
VERTEX
  8
0
 62
7
  6
CONTINUOUS
 10
55.6447037168
 20
94.1233293391
  0
SEQEND
  0
LINE
  8
0
 62
7
  6
CONTINUOUS
 10
98.5856389092
 20
70.2756515317
 11
98.5856389092
 21
70.1256515317
  0
LINE
  8
0
 62
7
  6
CONTINUOUS
 10
98.6012836619
 20
70.2756515317
 11
98.6012836619
 21
70.1256515317
  0
LINE
  8
0
 62
7
  6
CONTINUOUS
 10
98.663432333
 20
70.2756515317
 11
98.663432333
 21
70.1256515317
  0
LINE
  8
0
 62
7
  6
CONTINUOUS
 10
98.8083040107
 20
70.2756515317
 11
98.8083040107
 21
70.1256515317
  0
LINE
  8
0
 62
7
  6
CONTINUOUS
 10
98.9634614362
 20
70.2756515317
 11
98.9634614362
 21
70.1256515317
  0
LINE
  8
0
 62
7
  6
CONTINUOUS
 10
99.1651246589
 20
70.2756515317
 11
99.1651246589
 21
70.1256515317
  0
LINE
  8
0
 62
7
  6
CONTINUOUS
 10
99.4960138454
 20
70.2756515317
 11
99.4960138454
 21
70.1256515317
  0
LINE
  8
0
 62
7
  6
CONTINUOUS
 10
99.7079628159
 20
70.2756515317
 11
99.7079628159
 21
70.1256515317
  0
LINE
  8
0
 62
7
  6
CONTINUOUS
 10
99.883694577
 20
70.2756515317
 11
99.883694577
 21
70.1256515317
  0
LINE
  8
0
 62
7
  6
CONTINUOUS
 10
100.0697130326
 20
70.2756515317
 11
100.0697130326
 21
70.1256515317
  0
LINE
  8
0
 62
7
  6
CONTINUOUS
 10
100.1730084815
 20
70.2756515317
 11
100.1730084815
 21
70.1256515317
  0
LINE
  8
0
 62
7
  6
CONTINUOUS
 10
100.2400867354
 20
70.2756515317
 11
100.2400867354
 21
70.1256515317
  0
LINE
  8
0
 62
7
  6
CONTINUOUS
 10
100.317236951
 20
70.2756515317
 11
100.317236951
 21
70.1256515317
  0
LINE
  8
0
 62
7
  6
CONTINUOUS
 10
100.6502567682
 20
70.2756515317
 11
100.6502567682
 21
70.1256515317
  0
LINE
  8
0
 62
7
  6
CONTINUOUS
 10
101.0249390844
 20
70.2756515317
 11
101.0249390844
 21
70.1256515317
  0
POLYLINE
  8
0
 62
7
  6
CONTINUOUS
 66
1
 70
0
  0
VERTEX
  8
0
 62
7
  6
CONTINUOUS
 10
53.4518213545
 20
93.7234324669
  0
VERTEX
  8
0
 62
7
  6
CONTINUOUS
 10
53.4027632975
 20
93.7128197946
  0
VERTEX
  8
0
 62
7
  6
CONTINUOUS
 10
53.3584587072
 20
93.7027452376
  0
VERTEX
  8
0
 62
7
  6
CONTINUOUS
 10
53.3164329128
 20
93.6925141062
  0
VERTEX
  8
0
 62
7
  6
CONTINUOUS
 10
53.2736328526
 20
93.6810586088
  0
VERTEX
  8
0
 62
7
  6
CONTINUOUS
 10
53.2259446595
 20
93.6665600878
  0
VERTEX
  8
0
 62
7
  6
CONTINUOUS
 10
53.1698825115
 20
93.6465885307
  0
VERTEX
  8
0
 62
7
  6
CONTINUOUS
 10
53.106891506
 20
93.6197883126
  0
VERTEX
  8
0
 62
7
  6
CONTINUOUS
 10
53.0405511752
 20
93.5859452043
  0
VERTEX
  8
0
 62
7
  6
CONTINUOUS
 10
52.9734824414
 20
93.5450849133
  0
VERTEX
  8
0
 62
7
  6
CONTINUOUS
 10
52.9064768426
 20
93.496514749
  0
VERTEX
  8
0
 62
7
  6
CONTINUOUS
 10
52.8407739496
 20
93.4398573184
  0
VERTEX
  8
0
 62
7
  6
CONTINUOUS
 10
52.7780953976
 20
93.3753576956
  0
VERTEX
  8
0
 62
7
  6
CONTINUOUS
 10
52.7202278076
 20
93.3038375544
  0
VERTEX
  8
0
 62
7
  6
CONTINUOUS
 10
52.6684682947
 20
93.2261478158
  0
VERTEX
  8
0
 62
7
  6
CONTINUOUS
 10
52.6234891885
 20
93.142554473
  0
VERTEX
  8
0
 62
7
  6
CONTINUOUS
 10
52.5861940061
 20
93.0538808446
  0
VERTEX
  8
0
 62
7
  6
CONTINUOUS
 10
52.5573436715
 20
92.9611047451
  0
VERTEX
  8
0
 62
7
  6
CONTINUOUS
 10
52.5375258342
 20
92.8653245715
  0
VERTEX
  8
0
 62
7
  6
CONTINUOUS
 10
52.527134687
 20
92.7677279741
  0
VERTEX
  8
0
 62
7
  6
CONTINUOUS
 10
52.5255095057
 20
92.7107257772
  0
SEQEND
  0
POLYLINE
  8
0
 62
7
  6
CONTINUOUS
 66
1
 70
0
  0
VERTEX
  8
0
 62
7
  6
CONTINUOUS
 10
53.5703781004
 20
93.7477276849
  0
VERTEX
  8
0
 62
7
  6
CONTINUOUS
 10
53.5073787148
 20
93.7350011596
  0
VERTEX
  8
0
 62
7
  6
CONTINUOUS
 10
53.4518213545
 20
93.7234324669
  0
SEQEND
  0
LINE
  8
0
 62
7
  6
CONTINUOUS
 10
53.720128159
 20
93.7769122409
 11
53.5703781004
 21
93.7477276849
  0
LINE
  8
0
 62
7
  6
CONTINUOUS
 10
53.9010162825
 20
93.8109032355
 11
53.720128159
 21
93.7769122409
  0
LINE
  8
0
 62
7
  6
CONTINUOUS
 10
54.1759410601
 20
93.8608667075
 11
53.9010162825
 21
93.8109032355
  0
LINE
  8
0
 62
7
  6
CONTINUOUS
 10
55.6447034221
 20
94.123329464
 11
54.1759400865
 21
93.8608666053
  0
POLYLINE
  8
0
 62
7
  6
CONTINUOUS
 66
1
 70
0
  0
VERTEX
  8
0
 62
7
  6
CONTINUOUS
 10
149.5433432013
 20
94.1233293391
  0
VERTEX
  8
0
 62
7
  6
CONTINUOUS
 10
148.996560034
 20
94.2051437611
  0
VERTEX
  8
0
 62
7
  6
CONTINUOUS
 10
148.3709898222
 20
94.26038487
  0
VERTEX
  8
0
 62
7
  6
CONTINUOUS
 10
147.8251308233
 20
94.2756513676
  0
SEQEND
  0
LINE
  8
0
 62
7
  6
CONTINUOUS
 10
102.0657226609
 20
70.2756515317
 11
102.0657226609
 21
70.1256515317
  0
LINE
  8
0
 62
7
  6
CONTINUOUS
 10
102.3155108717
 20
70.2756515317
 11
102.3155108717
 21
70.1256515317
  0
LINE
  8
0
 62
7
  6
CONTINUOUS
 10
102.3978175117
 20
70.2756515317
 11
102.3978175117
 21
70.1256515317
  0
LINE
  8
DEFAULT_1
 62
2
  6
CENTER
 10
102.594023459
 20
67.9441515317
 11
102.594023459
 21
111.4256515317
  0
LINE
  8
0
 62
7
  6
CONTINUOUS
 10
102.7318529811
 20
70.2756515317
 11
102.7318529811
 21
70.1256515317
  0
LINE
  8
0
 62
7
  6
CONTINUOUS
 10
102.8028415356
 20
70.2756515317
 11
102.8028415356
 21
70.1256515317
  0
LINE
  8
0
 62
7
  6
CONTINUOUS
 10
102.8606901257
 20
109.4256515317
 11
102.8606901257
 21
109.2756515317
  0
LINE
  8
0
 62
7
  6
CONTINUOUS
 10
104.3018963551
 20
70.2756515317
 11
104.3018963551
 21
70.1256515317
  0
LINE
  8
0
 62
7
  6
CONTINUOUS
 10
151.2013220784
 20
93.8266697611
 11
149.5433434959
 21
94.123329464
  0
LINE
  8
0
 62
7
  6
CONTINUOUS
 10
151.4075730401
 20
93.788375829
 11
151.2013220784
 21
93.8266697611
  0
POLYLINE
  8
0
 62
7
  6
CONTINUOUS
 66
1
 70
0
  0
VERTEX
  8
0
 62
7
  6
CONTINUOUS
 10
142.3649572472
 20
94.1080585128
  0
VERTEX
  8
0
 62
7
  6
CONTINUOUS
 10
141.9461941274
 20
94.1973520151
  0
VERTEX
  8
0
 62
7
  6
CONTINUOUS
 10
141.4625484762
 20
94.2584330253
  0
VERTEX
  8
0
 62
7
  6
CONTINUOUS
 10
141.0338471902
 20
94.275651396
  0
SEQEND
  0
LINE
  8
0
 62
7
  6
CONTINUOUS
 10
143.5281199248
 20
93.8117871676
 11
142.3649758877
 21
94.1080539298
  0
LINE
  8
0
 62
7
  6
CONTINUOUS
 10
143.6202164893
 20
93.7871261133
 11
143.5279787551
 21
93.8118226875
  0
LINE
  8
0
 62
7
  6
CONTINUOUS
 10
106.5507261221
 20
70.2756515317
 11
106.5507261221
 21
70.1256515317
  0
LINE
  8
0
 62
7
  6
CONTINUOUS
 10
106.6157432573
 20
70.2756515317
 11
106.6157432573
 21
70.1256515317
  0
LINE
  8
0
 62
7
  6
CONTINUOUS
 10
106.8920660977
 20
70.2756515317
 11
106.8920660977
 21
70.1256515317
  0
LINE
  8
0
 62
7
  6
CONTINUOUS
 10
106.9327018037
 20
70.2756515317
 11
106.9327018037
 21
70.1256515317
  0
LINE
  8
0
 62
7
  6
CONTINUOUS
 10
108.5686885171
 20
70.2756515317
 11
108.5686885171
 21
70.1256515317
  0
LINE
  8
0
 62
7
  6
CONTINUOUS
 10
108.7095808616
 20
70.2756515317
 11
108.7095808616
 21
70.1256515317
  0
LINE
  8
0
 62
7
  6
CONTINUOUS
 10
108.7259239016
 20
70.2756515317
 11
108.7259239016
 21
70.1256515317
  0
LINE
  8
0
 62
7
  6
CONTINUOUS
 10
108.8276463139
 20
70.2756515317
 11
108.8276463139
 21
70.1256515317
  0
LINE
  8
0
 62
7
  6
CONTINUOUS
 10
108.9243281922
 20
70.2756515317
 11
108.9243281922
 21
70.1256515317
  0
LINE
  8
0
 62
7
  6
CONTINUOUS
 10
108.994023459
 20
109.4256515317
 11
108.994023459
 21
109.2756515317
  0
LINE
  8
0
 62
7
  6
CONTINUOUS
 10
108.9984051217
 20
70.2756515317
 11
108.9984051217
 21
70.1256515317
  0
LINE
  8
0
 62
7
  6
CONTINUOUS
 10
109.1239557756
 20
70.2756515317
 11
109.1239557756
 21
70.1256515317
  0
LINE
  8
0
 62
7
  6
CONTINUOUS
 10
109.2783733663
 20
70.2756515317
 11
109.2783733663
 21
70.1256515317
  0
LINE
  8
0
 62
7
  6
CONTINUOUS
 10
109.51313165
 20
70.2756515317
 11
109.51313165
 21
70.1256515317
  0
LINE
  8
0
 62
7
  6
CONTINUOUS
 10
109.7654543801
 20
70.2756515317
 11
109.7654543801
 21
70.1256515317
  0
LINE
  8
0
 62
7
  6
CONTINUOUS
 10
109.9951721298
 20
70.2756515317
 11
109.9951721298
 21
70.1256515317
  0
LINE
  8
0
 62
7
  6
CONTINUOUS
 10
110.1621136331
 20
70.2756515317
 11
110.1621136331
 21
70.1256515317
  0
LINE
  8
0
 62
7
  6
CONTINUOUS
 10
110.2487162823
 20
70.2756515317
 11
110.2487162823
 21
70.1256515317
  0
LINE
  8
0
 62
7
  6
CONTINUOUS
 10
110.2838470142
 20
70.2756515317
 11
110.2838470142
 21
70.1256515317
  0
LINE
  8
0
 62
7
  6
CONTINUOUS
 10
110.2901089388
 20
70.2756515317
 11
110.2901089388
 21
70.1256515317
  0
LINE
  8
0
 62
7
  6
CONTINUOUS
 10
110.4471000345
 20
70.2756515317
 11
110.4471000345
 21
70.1256515317
  0
LINE
  8
0
 62
7
  6
CONTINUOUS
 10
110.489933717
 20
70.2756515317
 11
110.489933717
 21
70.1256515317
  0
LINE
  8
0
 62
7
  6
CONTINUOUS
 10
110.6398262504
 20
70.2756515317
 11
110.6398262504
 21
70.1256515317
  0
LINE
  8
0
 62
7
  6
CONTINUOUS
 10
74.0940252141
 20
109.2756515317
 11
131.0936920188
 21
109.2756515317
  0
LINE
  8
0
 62
7
  6
CONTINUOUS
 10
127.4446585536
 20
109.4256515317
 11
120.5827783383
 21
109.4256515317
  0
LINE
  8
0
 62
7
  6
CONTINUOUS
 10
108.994023459
 20
109.4256515317
 11
96.194023459
 21
109.4256515317
  0
LINE
  8
0
 62
7
  6
CONTINUOUS
 10
84.1433883644
 20
109.4256515317
 11
77.2815081491
 21
109.4256515317
  0
LINE
  8
0
 62
7
  6
CONTINUOUS
 10
110.7719103574
 20
70.2756515317
 11
110.7719103574
 21
70.1256515317
  0
LINE
  8
0
 62
7
  6
CONTINUOUS
 10
110.8147440399
 20
70.2756515317
 11
110.8147440399
 21
70.1256515317
  0
LINE
  8
0
 62
7
  6
CONTINUOUS
 10
110.9646347966
 20
70.2756515317
 11
110.9646347966
 21
70.1256515317
  0
LINE
  8
0
 62
7
  6
CONTINUOUS
 10
111.1252221446
 20
70.2756515317
 11
111.1252221446
 21
70.1256515317
  0
LINE
  8
0
 62
7
  6
CONTINUOUS
 10
111.3643125353
 20
70.2756515317
 11
111.3643125353
 21
70.1256515317
  0
LINE
  8
0
 62
7
  6
CONTINUOUS
 10
111.5748471376
 20
70.2756515317
 11
111.5748471376
 21
70.1256515317
  0
LINE
  8
0
 62
7
  6
CONTINUOUS
 10
111.7318514261
 20
70.2756515317
 11
111.7318514261
 21
70.1256515317
  0
LINE
  8
0
 62
7
  6
CONTINUOUS
 10
111.9138302401
 20
70.2756515317
 11
111.9138302401
 21
70.1256515317
  0
LINE
  8
0
 62
7
  6
CONTINUOUS
 10
112.0672514691
 20
70.2756515317
 11
112.0672514691
 21
70.1256515317
  0
LINE
  8
0
 62
7
  6
CONTINUOUS
 10
112.1421714522
 20
70.2756515317
 11
112.1421714522
 21
70.1256515317
  0
LINE
  8
0
 62
7
  6
CONTINUOUS
 10
112.149284984
 20
70.2756515317
 11
112.149284984
 21
70.1256515317
  0
LINE
  8
LAY0001
 62
7
  6
CONTINUOUS
 10
112.543551327
 20
70.2756515317
 11
112.543551327
 21
70.1256515317
  0
LINE
  8
LAY0001
 62
7
  6
CONTINUOUS
 10
112.5516748723
 20
70.2756515317
 11
112.5516748723
 21
70.1256515317
  0
LINE
  8
LAY0001
 62
7
  6
CONTINUOUS
 10
112.6235881007
 20
70.2756515317
 11
112.6235881007
 21
70.1256515317
  0
LINE
  8
LAY0001
 62
7
  6
CONTINUOUS
 10
112.7592910133
 20
70.2756515317
 11
112.7592910133
 21
70.1256515317
  0
LINE
  8
LAY0001
 62
7
  6
CONTINUOUS
 10
112.9089103888
 20
70.2756515317
 11
112.9089103888
 21
70.1256515317
  0
LINE
  8
LAY0001
 62
7
  6
CONTINUOUS
 10
113.0724462271
 20
70.2756515317
 11
113.0724462271
 21
70.1256515317
  0
LINE
  8
LAY0001
 62
7
  6
CONTINUOUS
 10
113.1611723777
 20
70.2756515317
 11
113.1611723777
 21
70.1256515317
  0
LINE
  8
LAY0001
 62
7
  6
CONTINUOUS
 10
113.263814991
 20
70.2756515317
 11
113.263814991
 21
70.1256515317
  0
LINE
  8
LAY0001
 62
7
  6
CONTINUOUS
 10
113.3693540625
 20
70.2756515317
 11
113.3693540625
 21
70.1256515317
  0
LINE
  8
LAY0001
 62
7
  6
CONTINUOUS
 10
113.4575149558
 20
70.2756515317
 11
113.4575149558
 21
70.1256515317
  0
LINE
  8
LAY0001
 62
7
  6
CONTINUOUS
 10
113.5821975785
 20
70.2756515317
 11
113.5821975785
 21
70.1256515317
  0
LINE
  8
0
 62
7
  6
CONTINUOUS
 10
113.8213548414
 20
70.2756515317
 11
113.8213548414
 21
70.1256515317
  0
LINE
  8
0
 62
7
  6
CONTINUOUS
 10
114.7737669098
 20
70.2756515317
 11
114.7737669098
 21
70.1256515317
  0
LINE
  8
0
 62
7
  6
CONTINUOUS
 10
115.6531006423
 20
70.2756515317
 11
115.6531006423
 21
70.1256515317
  0
LINE
  8
0
 62
7
  6
CONTINUOUS
 10
115.8160316448
 20
70.2756515317
 11
115.8160316448
 21
70.1256515317
  0
LINE
  8
0
 62
7
  6
CONTINUOUS
 10
115.9017944553
 20
70.2756515317
 11
115.9017944553
 21
70.1256515317
  0
LINE
  8
0
 62
7
  6
CONTINUOUS
 10
115.9306548353
 20
70.2756515317
 11
115.9306548353
 21
70.1256515317
  0
LINE
  8
0
 62
7
  6
CONTINUOUS
 10
117.1111862242
 20
70.2756515317
 11
117.1111862242
 21
70.1256515317
  0
LINE
  8
0
 62
7
  6
CONTINUOUS
 10
117.3911285081
 20
70.2756515317
 11
117.3911285081
 21
70.1256515317
  0
LINE
  8
0
 62
7
  6
CONTINUOUS
 10
117.4388556577
 20
70.2756515317
 11
117.4388556577
 21
70.1256515317
  0
LINE
  8
0
 62
7
  6
CONTINUOUS
 10
117.4424615734
 20
70.2756515317
 11
117.4424615734
 21
70.1256515317
  0
LINE
  8
0
 62
7
  6
CONTINUOUS
 10
117.5049956157
 20
70.2756515317
 11
117.5049956157
 21
70.1256515317
  0
LINE
  8
0
 62
7
  6
CONTINUOUS
 10
117.6522243614
 20
70.2756515317
 11
117.6522243614
 21
70.1256515317
  0
LINE
  8
0
 62
7
  6
CONTINUOUS
 10
117.8326115852
 20
70.2756515317
 11
117.8326115852
 21
70.1256515317
  0
LINE
  8
0
 62
7
  6
CONTINUOUS
 10
118.0461573232
 20
70.2756515317
 11
118.0461573232
 21
70.1256515317
  0
LINE
  8
0
 62
7
  6
CONTINUOUS
 10
118.2413194052
 20
70.2756515317
 11
118.2413194052
 21
70.1256515317
  0
LINE
  8
0
 62
7
  6
CONTINUOUS
 10
118.4438703257
 20
70.2756515317
 11
118.4438703257
 21
70.1256515317
  0
LINE
  8
0
 62
7
  6
CONTINUOUS
 10
118.6869656356
 20
70.2756515317
 11
118.6869656356
 21
70.1256515317
  0
LINE
  8
0
 62
7
  6
CONTINUOUS
 10
118.8785247744
 20
70.2756515317
 11
118.8785247744
 21
70.1256515317
  0
LINE
  8
0
 62
7
  6
CONTINUOUS
 10
119.0111527598
 20
70.2756515317
 11
119.0111527598
 21
70.1256515317
  0
LINE
  8
0
 62
7
  6
CONTINUOUS
 10
119.1511726918
 20
70.2756515317
 11
119.1511726918
 21
70.1256515317
  0
LINE
  8
0
 62
7
  6
CONTINUOUS
 10
119.2396503813
 20
70.2756515317
 11
119.2396503813
 21
70.1256515317
  0
LINE
  8
LAY0001
 62
7
  6
CONTINUOUS
 10
119.7767182419
 20
70.2756515317
 11
119.7767182419
 21
70.1256515317
  0
LINE
  8
0
 62
7
  6
CONTINUOUS
 10
120.5827783383
 20
109.4256515317
 11
120.5827783383
 21
109.2756515317
  0
LINE
  8
0
 62
7
  6
CONTINUOUS
 10
120.5827783383
 20
70.2756515317
 11
120.5827783383
 21
70.1256515317
  0
LINE
  8
0
 62
7
  6
CONTINUOUS
 10
121.506538769
 20
109.4256515317
 11
121.506538769
 21
109.2756515317
  0
LINE
  8
0
 62
7
  6
CONTINUOUS
 10
121.506538769
 20
70.2756515317
 11
121.506538769
 21
70.1256515317
  0
LINE
  8
0
 62
7
  6
CONTINUOUS
 10
124.5732054357
 20
109.4256515317
 11
124.5732054357
 21
109.2756515317
  0
LINE
  8
0
 62
7
  6
CONTINUOUS
 10
124.5732054357
 20
70.2756515317
 11
124.5732054357
 21
70.1256515317
  0
LINE
  8
0
 62
7
  6
CONTINUOUS
 10
125.8215146308
 20
109.4256515317
 11
125.8215146308
 21
109.2756515317
  0
LINE
  8
0
 62
7
  6
CONTINUOUS
 10
125.8215146308
 20
70.2756515317
 11
125.8215146308
 21
70.1256515317
  0
LINE
  8
0
 62
7
  6
CONTINUOUS
 10
127.4446585536
 20
109.4256515317
 11
127.4446585536
 21
109.2756515317
  0
LINE
  8
0
 62
7
  6
CONTINUOUS
 10
127.4446585536
 20
70.2756515317
 11
127.4446585536
 21
70.1256515317
  0
LINE
  8
0
 62
7
  6
CONTINUOUS
 10
132.594023459
 20
107.7756515317
 11
132.594023459
 21
95.7756515317
  0
LINE
  8
0
 62
7
  6
CONTINUOUS
 10
132.594023459
 20
83.7756515317
 11
132.594023459
 21
71.7756515317
  0
POLYLINE
  8
0
 62
7
  6
CONTINUOUS
 66
1
 70
0
  0
VERTEX
  8
0
 62
7
  6
CONTINUOUS
 10
144.5378593174
 20
92.7397228022
  0
VERTEX
  8
0
 62
7
  6
CONTINUOUS
 10
144.5373503136
 20
92.7717803017
  0
VERTEX
  8
0
 62
7
  6
CONTINUOUS
 10
144.5109741593
 20
92.9712259923
  0
VERTEX
  8
0
 62
7
  6
CONTINUOUS
 10
144.4499316858
 20
93.1520666847
  0
VERTEX
  8
0
 62
7
  6
CONTINUOUS
 10
144.3633899794
 20
93.3077178073
  0
VERTEX
  8
0
 62
7
  6
CONTINUOUS
 10
144.2616477759
 20
93.4350157515
  0
VERTEX
  8
0
 62
7
  6
CONTINUOUS
 10
144.1528665116
 20
93.5356639312
  0
VERTEX
  8
0
 62
7
  6
CONTINUOUS
 10
144.0434703799
 20
93.6128993699
  0
VERTEX
  8
0
 62
7
  6
CONTINUOUS
 10
143.9368986603
 20
93.6714969443
  0
VERTEX
  8
0
 62
7
  6
CONTINUOUS
 10
143.8343654771
 20
93.7163936335
  0
VERTEX
  8
0
 62
7
  6
CONTINUOUS
 10
143.7315681031
 20
93.7533145427
  0
VERTEX
  8
0
 62
7
  6
CONTINUOUS
 10
143.6202164893
 20
93.7871261133
  0
SEQEND
  0
LINE
  8
0
 62
7
  6
CONTINUOUS
 10
144.5378634358
 20
92.7401921465
 11
144.5378634358
 21
86.811110917
  0
POLYLINE
  8
0
 62
7
  6
CONTINUOUS
 66
1
 70
0
  0
VERTEX
  8
0
 62
7
  6
CONTINUOUS
 10
152.6625374123
 20
92.710725795
  0
VERTEX
  8
0
 62
7
  6
CONTINUOUS
 10
152.6594195369
 20
92.7896503255
  0
VERTEX
  8
0
 62
7
  6
CONTINUOUS
 10
152.6455462856
 20
92.8943327691
  0
VERTEX
  8
0
 62
7
  6
CONTINUOUS
 10
152.6208821411
 20
92.9964205695
  0
VERTEX
  8
0
 62
7
  6
CONTINUOUS
 10
152.5860633569
 20
93.0943773819
  0
VERTEX
  8
0
 62
7
  6
CONTINUOUS
 10
152.5420124251
 20
93.1868256638
  0
VERTEX
  8
0
 62
7
  6
CONTINUOUS
 10
152.4898987868
 20
93.2725956327
  0
VERTEX
  8
0
 62
7
  6
CONTINUOUS
 10
152.4310677225
 20
93.3507922688
  0
VERTEX
  8
0
 62
7
  6
CONTINUOUS
 10
152.3670493332
 20
93.4207357439
  0
VERTEX
  8
0
 62
7
  6
CONTINUOUS
 10
152.2995801276
 20
93.4819531924
  0
VERTEX
  8
0
 62
7
  6
CONTINUOUS
 10
152.2303601911
 20
93.5343809729
  0
VERTEX
  8
0
 62
7
  6
CONTINUOUS
 10
152.1610816332
 20
93.5782375771
  0
VERTEX
  8
0
 62
7
  6
CONTINUOUS
 10
152.0926715332
 20
93.6143457928
  0
VERTEX
  8
0
 62
7
  6
CONTINUOUS
 10
152.026132098
 20
93.6434647687
  0
VERTEX
  8
0
 62
7
  6
CONTINUOUS
 10
151.9647748458
 20
93.6656838526
  0
VERTEX
  8
0
 62
7
  6
CONTINUOUS
 10
151.9109865569
 20
93.6820244248
  0
VERTEX
  8
0
 62
7
  6
CONTINUOUS
 10
151.8640522436
 20
93.6944178166
  0
VERTEX
  8
0
 62
7
  6
CONTINUOUS
 10
151.8180144049
 20
93.7054348842
  0
VERTEX
  8
0
 62
7
  6
CONTINUOUS
 10
151.7689777796
 20
93.7163990208
  0
VERTEX
  8
0
 62
7
  6
CONTINUOUS
 10
151.7137524969
 20
93.7281595822
  0
VERTEX
  8
0
 62
7
  6
CONTINUOUS
 10
151.6506133084
 20
93.7411159241
  0
VERTEX
  8
0
 62
7
  6
CONTINUOUS
 10
151.5786684483
 20
93.7554514825
  0
VERTEX
  8
0
 62
7
  6
CONTINUOUS
 10
151.4075730401
 20
93.788375829
  0
SEQEND
  0
LINE
  8
0
 62
7
  6
CONTINUOUS
 10
152.6625384417
 20
92.7111332472
 11
152.6625384417
 21
86.8401698163
  0
ARC
  8
0
 62
7
  6
CONTINUOUS
 10
74.9001863739
 20
189.9292466138
 40
2.0
 50
45.0
 51
125.0
  0
ARC
  8
0
 62
7
  6
CONTINUOUS
 10
64.0400301429
 20
187.2079817098
 40
2.0
 50
217.3485407434
 51
305.0
  0
ARC
  8
0
 62
7
  6
CONTINUOUS
 10
62.6501834823
 20
189.1242329566
 40
2.0
 50
138.0
 51
214.554774596
  0
ARC
  8
0
 62
7
  6
CONTINUOUS
 10
78.2235882454
 20
188.0200583046
 40
1.5
 50
45.0
 51
86.4096221095
  0
ARC
  8
0
 62
7
  6
CONTINUOUS
 10
78.3488340705
 20
190.016132823
 40
0.5
 50
225.0
 51
266.4096221086
  0
ARC
  8
0
 62
7
  6
CONTINUOUS
 10
56.604023459
 20
199.6331342053
 40
9.525
 50
318.0
 51
360.0
  0
ARC
  8
0
 62
7
  6
CONTINUOUS
 10
65.129023459
 20
203.6331342053
 40
1.5
 50
318.5902721234
 51
360.0
  0
ARC
  8
0
 62
7
  6
CONTINUOUS
 10
65.129023459
 20
213.6331342053
 40
1.5
 50
0.0
 51
41.4096221085
  0
ARC
  8
0
 62
7
  6
CONTINUOUS
 10
66.629023459
 20
202.3102585498
 40
0.5
 50
138.5906951927
 51
179.999681278
  0
ARC
  8
0
 62
7
  6
CONTINUOUS
 10
66.629023459
 20
214.9560098608
 40
0.5
 50
179.9999999969
 51
221.4096221115
  0
ARC
  8
0
 62
7
  6
CONTINUOUS
 10
82.0949978724
 20
172.0924780583
 40
9.525
 50
3.0
 51
45.0
  0
ARC
  8
0
 62
7
  6
CONTINUOUS
 10
101.894023459
 20
178.1681342053
 40
2.0
 50
90.0
 51
170.0
  0
ARC
  8
0
 62
7
  6
CONTINUOUS
 10
96.1389582104
 20
168.5646192226
 40
2.0
 50
262.3515729975
 51
350.0
  0
ARC
  8
0
 62
7
  6
CONTINUOUS
 10
93.8011939608
 20
168.9368434751
 40
2.0
 50
183.0
 51
259.554774596
  0
ARC
  8
0
 62
7
  6
CONTINUOUS
 10
85.2946560573
 20
180.9489904927
 40
1.5
 50
3.5904109277
 51
45.0
  0
ARC
  8
0
 62
7
  6
CONTINUOUS
 10
87.2907305758
 20
181.0742363178
 40
0.5
 50
183.5902787799
 51
225.0
  0
ARC
  8
BLANK_CURVE
 62
4
  6
CONTINUOUS
 10
96.1989770768
 20
197.2894937524
 40
3.2
 50
2.2544307753
 51
45.0
  0
ARC
  8
BLANK_CURVE
 62
4
  6
CONTINUOUS
 10
95.138316905
 20
198.3501539241
 40
3.2
 50
45.0
 51
86.4096221093
  0
ARC
  8
BLANK_CURVE
 62
4
  6
CONTINUOUS
 10
95.5391035453
 20
204.7375923832
 40
3.2
 50
225.0
 51
266.4096221093
  0
ARC
  8
BLANK_CURVE
 62
4
  6
CONTINUOUS
 10
90.698481637
 20
209.5782142915
 40
3.2
 50
183.5903778907
 51
225.0
  0
ARC
  8
BLANK_CURVE
 62
4
  6
CONTINUOUS
 10
84.3110431779
 20
209.1774276512
 40
3.2
 50
3.5903778907
 51
45.0
  0
ARC
  8
BLANK_CURVE
 62
4
  6
CONTINUOUS
 10
83.2503830061
 20
210.238087823
 40
3.2
 50
45.0
 51
87.7455692247
  0
ARC
  8
0
 62
7
  6
CONTINUOUS
 10
58.0533673121
 20
237.1321597919
 40
9.525
 50
273.0
 51
315.0
  0
ARC
  8
0
 62
7
  6
CONTINUOUS
 10
64.129023459
 20
217.3331342053
 40
2.0
 50
0.0
 51
80.0
  0
ARC
  8
0
 62
7
  6
CONTINUOUS
 10
54.5255084764
 20
223.0881994539
 40
2.0
 50
172.3515729975
 51
260.0
  0
ARC
  8
0
 62
7
  6
CONTINUOUS
 10
54.8977327289
 20
225.4259637035
 40
2.0
 50
93.0
 51
169.554774596
  0
ARC
  8
0
 62
7
  6
CONTINUOUS
 10
66.9098797464
 20
233.932501607
 40
1.5
 50
273.5904109277
 51
315.0
  0
ARC
  8
0
 62
7
  6
CONTINUOUS
 10
67.0351255715
 20
231.9364270885
 40
0.5
 50
93.5902787799
 51
135.0
  0
ARC
  8
0
 62
7
  6
CONTINUOUS
 10
75.0851222103
 20
256.576974182
 40
2.0
 50
48.0
 51
124.554774596
  0
ARC
  8
0
 62
7
  6
CONTINUOUS
 10
75.8901358675
 20
244.3269712905
 40
2.0
 50
315.0
 51
35.0
  0
ARC
  8
0
 62
7
  6
CONTINUOUS
 10
73.1688709635
 20
255.1871275214
 40
2.0
 50
127.3485407434
 51
215.0
  0
ARC
  8
0
 62
7
  6
CONTINUOUS
 10
73.9809475583
 20
241.0035694189
 40
1.5
 50
315.0
 51
356.4096221095
  0
ARC
  8
0
 62
7
  6
CONTINUOUS
 10
75.9770220768
 20
240.8783235938
 40
0.5
 50
135.0
 51
176.4096221086
  0
ARC
  8
BLANK_CURVE
 62
4
  6
CONTINUOUS
 10
83.502140367
 20
216.6331342053
 40
3.2
 50
92.2544307753
 51
267.7455692247
  0
ARC
  8
BLANK_CURVE
 62
4
  6
CONTINUOUS
 10
83.2503830061
 20
223.0281805875
 40
3.2
 50
272.2544307753
 51
315.0
  0
ARC
  8
BLANK_CURVE
 62
4
  6
CONTINUOUS
 10
84.3110431779
 20
224.0888407593
 40
3.2
 50
315.0
 51
356.4096221093
  0
ARC
  8
BLANK_CURVE
 62
4
  6
CONTINUOUS
 10
90.698481637
 20
223.688054119
 40
3.2
 50
135.0
 51
176.4096221093
  0
ARC
  8
BLANK_CURVE
 62
4
  6
CONTINUOUS
 10
95.5391035453
 20
228.5286760273
 40
3.2
 50
93.5903778907
 51
135.0
  0
ARC
  8
BLANK_CURVE
 62
4
  6
CONTINUOUS
 10
95.138316905
 20
234.9161144864
 40
3.2
 50
273.5903778907
 51
315.0
  0
ARC
  8
BLANK_CURVE
 62
4
  6
CONTINUOUS
 10
96.1989770768
 20
235.9767746582
 40
3.2
 50
315.0
 51
357.7455692247
  0
ARC
  8
0
 62
7
  6
CONTINUOUS
 10
85.594023459
 20
262.6231342053
 40
9.525
 50
228.0
 51
270.0
  0
ARC
  8
0
 62
7
  6
CONTINUOUS
 10
89.594023459
 20
254.0981342053
 40
1.5
 50
228.5902721234
 51
270.0
  0
ARC
  8
0
 62
7
  6
CONTINUOUS
 10
99.594023459
 20
254.0981342053
 40
1.5
 50
270.0
 51
311.4096221085
  0
ARC
  8
0
 62
7
  6
CONTINUOUS
 10
98.0775220304
 20
247.8076625072
 40
1.5
 50
278.2435375764
 51
314.0149764386
  0
ARC
  8
0
 62
7
  6
CONTINUOUS
 10
88.2711478035
 20
252.5981342053
 40
0.5
 50
48.590377888
 51
90.0000000037
  0
ARC
  8
0
 62
7
  6
CONTINUOUS
 10
100.9168991146
 20
252.5981342053
 40
0.5
 50
89.9999999969
 51
131.4096221115
  0
ARC
  8
0
 62
7
  6
CONTINUOUS
 10
119.594023459
 20
170.6431342053
 40
9.525
 50
48.0
 51
90.0
  0
ARC
  8
0
 62
7
  6
CONTINUOUS
 10
115.594023459
 20
179.1681342053
 40
1.5
 50
48.5902721234
 51
90.0
  0
ARC
  8
0
 62
7
  6
CONTINUOUS
 10
105.594023459
 20
179.1681342053
 40
1.5
 50
90.0
 51
131.4096221085
  0
ARC
  8
0
 62
7
  6
CONTINUOUS
 10
116.9168991146
 20
180.6681342053
 40
0.5
 50
228.5906951927
 51
269.999681278
  0
ARC
  8
0
 62
7
  6
CONTINUOUS
 10
104.2711478035
 20
180.6681342053
 40
0.5
 50
269.9999999969
 51
311.4096221115
  0
ARC
  8
BLANK_CURVE
 62
4
  6
CONTINUOUS
 10
114.4895652811
 20
209.5782142915
 40
3.2
 50
315.0
 51
356.4096221093
  0
ARC
  8
BLANK_CURVE
 62
4
  6
CONTINUOUS
 10
121.937663912
 20
210.238087823
 40
3.2
 50
92.2544307753
 51
135.0
  0
ARC
  8
BLANK_CURVE
 62
4
  6
CONTINUOUS
 10
109.6489433728
 20
204.7375923832
 40
3.2
 50
273.5903778907
 51
315.0
  0
ARC
  8
BLANK_CURVE
 62
4
  6
CONTINUOUS
 10
120.8770037402
 20
209.1774276512
 40
3.2
 50
135.0
 51
176.4096221093
  0
ARC
  8
BLANK_CURVE
 62
4
  6
CONTINUOUS
 10
110.0497300131
 20
198.3501539241
 40
3.2
 50
93.5903778907
 51
135.0
  0
ARC
  8
BLANK_CURVE
 62
4
  6
CONTINUOUS
 10
108.9890698413
 20
197.2894937524
 40
3.2
 50
135.0
 51
177.7455692247
  0
ARC
  8
BLANK_CURVE
 62
4
  6
CONTINUOUS
 10
102.594023459
 20
197.5412511133
 40
3.2
 50
182.2544307753
 51
357.7455692247
  0
CIRCLE
  8
LAY0001
 62
7
  6
CONTINUOUS
 10
116.1704736578
 20
193.828940512
 40
1.275
  0
ARC
  8
LAY0001
 62
7
  6
CONTINUOUS
 10
115.6047882329
 20
196.6927229758
 40
1.0
 50
225.0
 51
315.0
  0
ARC
  8
LAY0001
 62
7
  6
CONTINUOUS
 10
118.1503726451
 20
199.6625714568
 40
1.0
 50
45.0
 51
135.0
  0
ARC
  8
LAY0001
 62
7
  6
CONTINUOUS
 10
115.85345543
 20
196.7999688167
 40
0.9
 50
315.0
 51
11.2510114041
  0
ARC
  8
LAY0001
 62
7
  6
CONTINUOUS
 10
117.901705448
 20
199.555325616
 40
0.9
 50
135.0
 51
191.2510114041
  0
ARC
  8
LAY0001
 62
7
  6
CONTINUOUS
 10
115.8169202672
 20
197.1876977227
 40
0.5
 50
315.0
 51
45.0
  0
ARC
  8
LAY0001
 62
7
  6
CONTINUOUS
 10
117.9382406108
 20
199.16759671
 40
0.5
 50
135.0
 51
225.0
  0
ARC
  8
LAY0001
 62
7
  6
CONTINUOUS
 10
115.71085425
 20
196.7280783149
 40
0.25
 50
225.0
 51
315.0
  0
ARC
  8
LAY0001
 62
7
  6
CONTINUOUS
 10
118.044306628
 20
199.6272161178
 40
0.25
 50
45.0
 51
135.0
  0
ARC
  8
0
 62
7
  6
CONTINUOUS
 10
129.2979110505
 20
188.9392971201
 40
2.0
 50
135.0
 51
215.0
  0
ARC
  8
0
 62
7
  6
CONTINUOUS
 10
132.0191759545
 20
178.0791408892
 40
2.0
 50
307.3485739876
 51
35.0
  0
ARC
  8
0
 62
7
  6
CONTINUOUS
 10
130.1029247077
 20
176.6892942285
 40
2.0
 50
228.0
 51
304.554774596
  0
ARC
  8
0
 62
7
  6
CONTINUOUS
 10
131.2070993597
 20
192.2626989917
 40
1.5
 50
135.0
 51
176.4096221095
  0
ARC
  8
0
 62
7
  6
CONTINUOUS
 10
129.2110248413
 20
192.3879448168
 40
0.5
 50
315.0
 51
356.4096221086
  0
ARC
  8
0
 62
7
  6
CONTINUOUS
 10
147.134679606
 20
196.1341086187
 40
9.525
 50
93.0
 51
135.0
  0
ARC
  8
0
 62
7
  6
CONTINUOUS
 10
141.059023459
 20
215.9331342053
 40
2.0
 50
180.0
 51
260.0
  0
ARC
  8
0
 62
7
  6
CONTINUOUS
 10
150.6625384417
 20
210.1780689567
 40
2.0
 50
352.3515729975
 51
80.0
  0
ARC
  8
0
 62
7
  6
CONTINUOUS
 10
150.2903141892
 20
207.8403047071
 40
2.0
 50
273.0
 51
349.554774596
  0
ARC
  8
0
 62
7
  6
CONTINUOUS
 10
138.2781671716
 20
199.3337668036
 40
1.5
 50
93.5904109277
 51
135.0
  0
ARC
  8
0
 62
7
  6
CONTINUOUS
 10
138.1529213465
 20
201.329841322
 40
0.5
 50
273.5902787799
 51
315.0
  0
ARC
  8
0
 62
7
  6
CONTINUOUS
 10
102.594023459
 20
216.6331342053
 40
50.5
 50
79.554774596
 51
82.3515729975
  0
ARC
  8
0
 62
7
  6
CONTINUOUS
 10
102.594023459
 20
216.6331342053
 40
50.5
 50
34.554774596
 51
37.3514529083
  0
ARC
  8
0
 62
7
  6
CONTINUOUS
 10
102.594023459
 20
216.6331342053
 40
50.5
 50
349.554774596
 51
352.3515729975
  0
ARC
  8
0
 62
7
  6
CONTINUOUS
 10
102.594023459
 20
216.6331342053
 40
50.5
 50
304.554774596
 51
307.3514542249
  0
ARC
  8
0
 62
7
  6
CONTINUOUS
 10
102.594023459
 20
216.6331342053
 40
50.5
 50
259.554774596
 51
262.3515729975
  0
ARC
  8
0
 62
7
  6
CONTINUOUS
 10
102.594023459
 20
216.6331342053
 40
50.5
 50
214.554774596
 51
217.3514529083
  0
ARC
  8
0
 62
7
  6
CONTINUOUS
 10
102.594023459
 20
216.6331342053
 40
50.5
 50
169.554774596
 51
172.3515729975
  0
ARC
  8
0
 62
7
  6
CONTINUOUS
 10
102.594023459
 20
216.6331342053
 40
50.5
 50
124.554774596
 51
127.3514529002
  0
ARC
  8
0
 62
7
  6
CONTINUOUS
 10
102.594023459
 20
216.6331342053
 40
30.0
 50
98.2435375764
 51
81.7564624236
  0
CIRCLE
  8
0
 62
4
  6
CONTINUOUS
 10
102.594023459
 20
216.6331342053
 40
9.525
  0
ARC
  8
BLANK_CURVE
 62
4
  6
CONTINUOUS
 10
102.594023459
 20
235.7250172973
 40
3.2
 50
2.2544307753
 51
177.7455692247
  0
ARC
  8
BLANK_CURVE
 62
4
  6
CONTINUOUS
 10
108.9890698413
 20
235.9767746582
 40
3.2
 50
182.2544307753
 51
225.0
  0
ARC
  8
BLANK_CURVE
 62
4
  6
CONTINUOUS
 10
110.0497300131
 20
234.9161144864
 40
3.2
 50
225.0
 51
266.4096221093
  0
ARC
  8
BLANK_CURVE
 62
4
  6
CONTINUOUS
 10
109.6489433728
 20
228.5286760273
 40
3.2
 50
45.0
 51
86.4096221093
  0
ARC
  8
BLANK_CURVE
 62
4
  6
CONTINUOUS
 10
114.4895652811
 20
223.688054119
 40
3.2
 50
3.5903778907
 51
45.0
  0
ARC
  8
BLANK_CURVE
 62
4
  6
CONTINUOUS
 10
120.8770037402
 20
224.0888407593
 40
3.2
 50
183.5903778907
 51
225.0
  0
ARC
  8
BLANK_CURVE
 62
4
  6
CONTINUOUS
 10
121.937663912
 20
223.0281805875
 40
3.2
 50
225.0
 51
267.7455692247
  0
ARC
  8
BLANK_CURVE
 62
4
  6
CONTINUOUS
 10
121.6859065511
 20
216.6331342053
 40
3.2
 50
272.2544307753
 51
87.7455692247
  0
ARC
  8
0
 62
7
  6
CONTINUOUS
 10
123.0930490456
 20
261.1737903522
 40
9.525
 50
183.0
 51
225.0
  0
ARC
  8
0
 62
7
  6
CONTINUOUS
 10
102.594023459
 20
243.1331342053
 40
5.0
 50
45.9850235614
 51
134.0149764386
  0
ARC
  8
0
 62
7
  6
CONTINUOUS
 10
103.294023459
 20
255.0981342053
 40
2.0
 50
270.0
 51
350.0
  0
ARC
  8
0
 62
7
  6
CONTINUOUS
 10
109.0490887076
 20
264.7016491879
 40
2.0
 50
82.3515729975
 51
170.0
  0
ARC
  8
0
 62
7
  6
CONTINUOUS
 10
111.3868529573
 20
264.3294249354
 40
2.0
 50
3.0
 51
79.554774596
  0
ARC
  8
0
 62
7
  6
CONTINUOUS
 10
119.8933908608
 20
252.3172779179
 40
1.5
 50
183.5904109277
 51
225.0
  0
ARC
  8
0
 62
7
  6
CONTINUOUS
 10
107.1105248877
 20
247.8076625072
 40
1.5
 50
225.9850235614
 51
261.7564624236
  0
ARC
  8
0
 62
7
  6
CONTINUOUS
 10
117.8973163423
 20
252.1920320928
 40
0.5
 50
3.5902787799
 51
45.0
  0
ARC
  8
0
 62
7
  6
CONTINUOUS
 10
148.584023459
 20
233.6331342053
 40
9.525
 50
138.0
 51
180.0
  0
ARC
  8
0
 62
7
  6
CONTINUOUS
 10
140.059023459
 20
229.6331342053
 40
1.5
 50
138.5902721234
 51
180.0
  0
ARC
  8
0
 62
7
  6
CONTINUOUS
 10
140.059023459
 20
219.6331342053
 40
1.5
 50
180.0
 51
221.4096221085
  0
ARC
  8
0
 62
7
  6
CONTINUOUS
 10
138.559023459
 20
230.9560098608
 40
0.5
 50
318.5906951927
 51
359.999681278
  0
ARC
  8
0
 62
7
  6
CONTINUOUS
 10
138.559023459
 20
218.3102585498
 40
0.5
 50
0.0
 51
41.4096221115
  0
ARC
  8
0
 62
7
  6
CONTINUOUS
 10
130.2878605442
 20
243.3370217968
 40
2.0
 50
225.0
 51
305.0
  0
ARC
  8
0
 62
7
  6
CONTINUOUS
 10
141.1480167751
 20
246.0582867008
 40
2.0
 50
37.3485407434
 51
125.0
  0
ARC
  8
0
 62
7
  6
CONTINUOUS
 10
142.5378634358
 20
244.142035454
 40
2.0
 50
318.0
 51
34.554774596
  0
ARC
  8
0
 62
7
  6
CONTINUOUS
 10
126.9644586726
 20
245.246210106
 40
1.5
 50
225.0
 51
266.4096221095
  0
ARC
  8
0
 62
7
  6
CONTINUOUS
 10
126.8392128475
 20
243.2501355875
 40
0.5
 50
45.0
 51
86.4096221086
  0
ARC
  8
0
 62
7
  6
CONTINUOUS
 10
131.094023459
 20
107.7756515317
 40
1.5
 50
0.0
 51
90.0
  0
ARC
  8
0
 62
7
  6
CONTINUOUS
 10
74.094023459
 20
107.7756515317
 40
1.5
 50
90.0
 51
180.0
  0
ARC
  8
0
 62
7
  6
CONTINUOUS
 10
134.094023459
 20
95.7756515317
 40
1.5
 50
180.0
 51
270.0
  0
ARC
  8
0
 62
7
  6
CONTINUOUS
 10
71.094023459
 20
95.7756515317
 40
1.5
 50
270.0
 51
360.0
  0
ARC
  8
0
 62
7
  6
CONTINUOUS
 10
134.094023459
 20
83.7756515317
 40
1.5
 50
90.0
 51
180.0
  0
ARC
  8
0
 62
7
  6
CONTINUOUS
 10
71.094023459
 20
83.7756515317
 40
1.5
 50
0.0
 51
90.0
  0
ARC
  8
0
 62
7
  6
CONTINUOUS
 10
131.094023459
 20
71.7756515317
 40
1.5
 50
270.0
 51
360.0
  0
ARC
  8
0
 62
7
  6
CONTINUOUS
 10
74.094023459
 20
71.7756515317
 40
1.5
 50
180.0
 51
270.0
  0
ENDSEC
  0
EOF
