  0
SECTION
  2
HEADER
  9
$EXTMAX
 10
210.0
 20
297.0
 30
0.0
  9
$EXTMIN
 10
0.0
 20
0.0
 30
0.0
  9
$LIMMIN
 10
0.0
 20
0.0
  9
$LIMMAX
 10
210.0
 20
297.0
  9
$VIEWCTR
 10
105.0
 20
148.5
  9
$VIEWSIZE
 40
297.0
  9
$CLAYER
  8
0
  9
$LTSCALE
 40
19.36
  9
$CELTYPE
  6
BYLAYER
  9
$DIMSCALE
 40
1.0
  9
$DIMASZ
 40
3.5
  9
$DIMEXO
 40
2.2
  9
$DIMDLI
 40
13.376
  9
$DIMEXE
 40
6.336
  9
$DIMCEN
 40
3.168
  9
$DIMLFAC
 40
1.0
  9
$DIMBLK
  1
_FILLED
  9
$DIMTXT
 40
3.5
  9
$PDMODE
 70
3
  9
$PDSIZE
 40
0.3125
  9
$TILEMODE
 70
1
  0
ENDSEC
  0
SECTION
  2
TABLES
  0
TABLE
  2
LTYPE
 70
6
  0
LTYPE
  2
BYBLOCK
 70
0
  3

 72
65
 73
0
 40
0.0
  0
LTYPE
  2
BYLAYER
 70
0
  3

 72
65
 73
0
 40
0.0
  0
LTYPE
  2
CONTINUOUS
 70
64
  3
Solid line
 72
65
 73
0
 40
0.0
  0
LTYPE
  2
CENTER
 70
64
  3
____ _ ____ _ ____ _ ____ _ ____ _ ____ _ ____
 72
65
 73
4
 40
0.6
 49
0.375
 49
-0.075
 49
0.075
 49
-0.075
  0
LTYPE
  2
HIDDEN
 70
64
  3
- - - - - - - - - - - - - - - - - - - -
 72
65
 73
2
 40
0.2
 49
0.1
 49
-0.1
  0
LTYPE
  2
PHANTOM
 70
64
  3
_____ _ _ _____ _ _ _____ _ _ _____
 72
65
 73
6
 40
0.8
 49
0.45
 49
-0.05
 49
0.1
 49
-0.05
 49
0.1
 49
-0.05
  0
LTYPE
  2
DOT
 70
64
  3
. . . . . . . . . . . . . . . . . . . .
 72
65
 73
2
 40
0.2
 49
0.1
 49
-0.1
  0
LTYPE
  2
DASHED
 70
64
  3
- - - - - - - - - - - - - - - - - - - -
 72
65
 73
2
 40
0.2
 49
0.1
 49
-0.1
  0
ENDTAB
  0
TABLE
  2
LAYER
 70
36
  0
LAYER
  2
0
 70
0
 62
7
  6
CONTINUOUS
  0
LAYER
  2
DEFAULT_1
 70
0
 62
7
  6
CENTER
  0
LAYER
  2
DEFAULT_2
 70
0
 62
8
  6
HIDDEN
  0
LAYER
  2
DEFAULT_3
 70
0
 62
7
  6
PHANTOM
  0
LAYER
  2
BLANK-PLANS
 70
0
 62
7
  6
CONTINUOUS
  0
LAYER
  2
CURVE
 70
0
 62
7
  6
CONTINUOUS
  0
LAYER
  2
PLANS
 70
0
 62
7
  6
CONTINUOUS
  0
LAYER
  2
SURFACE
 70
0
 62
7
  6
CONTINUOUS
  0
LAYER
  2
XSEC_DATUMS
 70
0
 62
7
  6
CONTINUOUS
  0
ENDTAB
  0
TABLE
  2
STYLE
 70
1
  0
STYLE
  2
STANDARD
 70
0
 40
0.0
 41
0.8
 50
0.0
 71
0
 42
0.2
  3
txt
  4

  0
STYLE
  2
TEXTSTYLE_1
 70
0
 40
0.0
 41
0.8
 50
0.0
 71
0
 42
0.2
  3
gdt
  4

  0
STYLE
  2
TEXTSTYLE_2
 70
0
 40
0.0
 41
0.6
 50
0.0
 71
0
 42
0.2
  3
txt
  4

  0
STYLE
  2
TEXTSTYLE_3
 70
0
 40
0.0
 41
1.0
 50
0.0
 71
0
 42
0.2
  3
ftb_____.ttf
  4

  0
STYLE
  2
TEXTSTYLE_4
 70
0
 40
0.0
 41
1.0
 50
0.0
 71
0
 42
0.2
  3
fti_____.ttf
  4

  0
STYLE
  2
TEXTSTYLE_5
 70
0
 40
0.0
 41
0.35
 50
0.0
 71
0
 42
0.2
  3
txt
  4

  0
STYLE
  2
TEXTSTYLE_6
 70
0
 40
0.0
 41
0.5
 50
0.0
 71
0
 42
0.2
  3
txt
  4

  0
STYLE
  2
TEXTSTYLE_7
 70
0
 40
0.0
 41
1.0
 50
0.0
 71
0
 42
0.2
  3
frutiger light.ttf
  4

  0
STYLE
  2
TEXTSTYLE_8
 70
0
 40
0.0
 41
0.7
 50
0.0
 71
0
 42
0.2
  3
txt
  4

  0
STYLE
  2
TEXTSTYLE_9
 70
0
 40
0.0
 41
0.6
 50
0.0
 71
0
 42
0.2
  3
txt
  4

  0
ENDTAB
  0
ENDSEC
  0
SECTION
  2
BLOCKS
  0
BLOCK
  8
0
 62
2
  6
CONTINUOUS
  2
SYMBOL_8_BL1
 70
64
 10
173.5956734183
 20
35.5937998301
  0
TEXT
  8
0
 62
7
  6
CONTINUOUS
 10
164.6539584268
 20
30.6865562072
  7
TEXTSTYLE_4
 40
1.0655737705
  1
The brand for plastic modular belts and chains
 41
1.0
 72
0
  0
LINE
  8
0
 62
7
  6
CONTINUOUS
 10
149.5737418074
 20
36.1675703219
 11
149.5737418074
 21
34.0364227809
  0
LINE
  8
0
 62
7
  6
CONTINUOUS
 10
149.8628043005
 20
31.0454914852
 11
149.8628043005
 21
31.1422825445
  0
LINE
  8
0
 62
7
  6
CONTINUOUS
 10
149.5737418074
 20
31.1100188581
 11
149.6315543091
 21
30.9164367395
  0
LINE
  8
0
 62
7
  6
CONTINUOUS
 10
150.9671844304
 20
33.9544555678
 11
150.9671844304
 21
36.1675703219
  0
LINE
  8
0
 62
7
  6
CONTINUOUS
 10
151.8862417523
 20
32.1101932727
 11
151.8862417523
 21
30.5937998301
  0
LINE
  8
0
 62
7
  6
CONTINUOUS
 10
152.1753043074
 20
30.5937998301
 11
152.1753043074
 21
31.3358647082
  0
LINE
  8
0
 62
7
  6
CONTINUOUS
 10
152.1753043074
 20
31.4649194539
 11
152.1753043074
 21
32.1101932727
  0
LINE
  8
0
 62
7
  6
CONTINUOUS
 10
149.6315543091
 20
31.3036010218
 11
149.5737418074
 21
31.1100188581
  0
LINE
  8
0
 62
7
  6
CONTINUOUS
 10
149.9784292936
 20
30.8841730531
 11
149.8628043005
 21
31.0454914852
  0
LINE
  8
0
 62
7
  6
CONTINUOUS
 10
151.0768668626
 20
31.400392081
 11
151.1346793074
 21
31.3036010218
  0
LINE
  8
0
 62
7
  6
CONTINUOUS
 10
151.4237418626
 20
31.3036010218
 11
151.3659292523
 21
31.4326557675
  0
LINE
  8
0
 62
7
  6
CONTINUOUS
 10
152.852430332
 20
36.1675703219
 11
152.852430332
 21
34.3642916334
  0
LINE
  8
0
 62
7
  6
CONTINUOUS
 10
152.852430332
 20
33.0528162235
 11
152.852430332
 21
32.3970785186
  0
LINE
  8
0
 62
7
  6
CONTINUOUS
 10
153.2159293074
 20
31.2390736489
 11
153.2159293074
 21
30.5937998301
  0
LINE
  8
0
 62
7
  6
CONTINUOUS
 10
153.5049916972
 20
30.5937998301
 11
153.5049916972
 21
31.2390736489
  0
LINE
  8
0
 62
7
  6
CONTINUOUS
 10
149.8628043005
 20
31.1422825445
 11
149.9206168074
 21
31.2713373354
  0
LINE
  8
0
 62
7
  6
CONTINUOUS
 10
149.6315543091
 20
30.9164367395
 11
149.7471793074
 21
30.7873819712
  0
LINE
  8
0
 62
7
  6
CONTINUOUS
 10
153.1581166972
 20
31.3681283946
 11
153.2159293074
 21
31.2390736489
  0
LINE
  8
0
 62
7
  6
CONTINUOUS
 10
153.9674919177
 20
30.8841730531
 11
154.0253041972
 21
30.7551182848
  0
LINE
  8
0
 62
7
  6
CONTINUOUS
 10
153.5049916972
 20
31.2390736489
 11
153.4471794177
 21
31.400392081
  0
LINE
  8
0
 62
7
  6
CONTINUOUS
 10
153.9674919177
 20
31.4326557675
 11
153.9674919177
 21
31.3681283946
  0
LINE
  8
0
 62
7
  6
CONTINUOUS
 10
153.9674919177
 20
30.9809641124
 11
153.9674919177
 21
30.8841730531
  0
LINE
  8
0
 62
7
  6
CONTINUOUS
 10
154.245872955
 20
32.3970785186
 11
154.245872955
 21
36.1675703219
  0
LINE
  8
0
 62
7
  6
CONTINUOUS
 10
154.2565543074
 20
30.8519093441
 11
154.2565543074
 21
30.9164367395
  0
LINE
  8
0
 62
7
  6
CONTINUOUS
 10
154.5737418074
 20
36.1675703219
 11
154.5737418074
 21
32.3970785186
  0
LINE
  8
0
 62
7
  6
CONTINUOUS
 10
151.3659292523
 20
30.7873819712
 11
151.4237418626
 21
30.9164367395
  0
LINE
  8
0
 62
7
  6
CONTINUOUS
 10
155.759679528
 20
30.6905909007
 11
155.7018665869
 21
30.8519093441
  0
LINE
  8
0
 62
7
  6
CONTINUOUS
 10
155.412804528
 20
31.3681283946
 11
155.412804528
 21
31.2713373354
  0
LINE
  8
0
 62
7
  6
CONTINUOUS
 10
155.412804528
 20
31.1422825445
 11
155.412804528
 21
30.9487004259
  0
LINE
  8
0
 62
7
  6
CONTINUOUS
 10
155.7018665869
 20
30.8519093441
 11
155.7018665869
 21
31.3681283946
  0
LINE
  8
0
 62
7
  6
CONTINUOUS
 10
155.9671844304
 20
32.3970785186
 11
155.9671844304
 21
34.2003572071
  0
LINE
  8
0
 62
7
  6
CONTINUOUS
 10
155.9671844304
 20
35.511832617
 11
155.9671844304
 21
36.1675703219
  0
LINE
  8
0
 62
7
  6
CONTINUOUS
 10
156.279992028
 20
32.1101932727
 11
156.279992028
 21
31.9488748406
  0
LINE
  8
0
 62
7
  6
CONTINUOUS
 10
156.279992028
 20
31.626237886
 11
156.279992028
 21
30.5937998301
  0
LINE
  8
0
 62
7
  6
CONTINUOUS
 10
156.5690540869
 20
30.5937998301
 11
156.5690540869
 21
31.626237886
  0
LINE
  8
0
 62
7
  6
CONTINUOUS
 10
156.5690540869
 20
31.9488748406
 11
156.5690540869
 21
32.1101932727
  0
LINE
  8
0
 62
7
  6
CONTINUOUS
 10
151.1346793074
 20
30.9164367395
 11
151.0768668626
 21
30.8196456577
  0
LINE
  8
0
 62
7
  6
CONTINUOUS
 10
153.4471794177
 20
31.400392081
 11
153.3893668074
 21
31.4649194539
  0
LINE
  8
0
 62
7
  6
CONTINUOUS
 10
154.3143669177
 20
30.7873819712
 11
154.2565543074
 21
30.8519093441
  0
LINE
  8
0
 62
7
  6
CONTINUOUS
 10
155.4706168074
 20
30.6583272086
 11
155.5284290869
 21
30.5937998301
  0
LINE
  8
0
 62
7
  6
CONTINUOUS
 10
155.412804528
 20
30.7551182848
 11
155.4706168074
 21
30.6583272086
  0
LINE
  8
0
 62
7
  6
CONTINUOUS
 10
155.8174918074
 20
30.5937998301
 11
155.759679528
 21
30.6905909007
  0
LINE
  8
0
 62
7
  6
CONTINUOUS
 10
155.7018665869
 20
31.3681283946
 11
155.6440543074
 21
31.4649194539
  0
LINE
  8
0
 62
7
  6
CONTINUOUS
 10
157.0315543074
 20
31.626237886
 11
157.0315543074
 21
30.5937998301
  0
LINE
  8
0
 62
7
  6
CONTINUOUS
 10
157.320617028
 20
30.5937998301
 11
157.320617028
 21
31.3358647082
  0
LINE
  8
0
 62
7
  6
CONTINUOUS
 10
157.320617028
 20
31.4649194539
 11
157.320617028
 21
31.626237886
  0
LINE
  8
0
 62
7
  6
CONTINUOUS
 10
157.852430332
 20
34.6101932727
 11
157.852430332
 21
32.3970785186
  0
LINE
  8
0
 62
7
  6
CONTINUOUS
 10
149.7471793074
 20
31.4326557675
 11
149.6315543091
 21
31.3036010218
  0
LINE
  8
0
 62
7
  6
CONTINUOUS
 10
149.9206168074
 20
31.2713373354
 11
149.9784292936
 21
31.3358647082
  0
LINE
  8
0
 62
7
  6
CONTINUOUS
 10
149.7471793074
 20
30.7873819712
 11
149.8628043005
 21
30.7228545871
  0
LINE
  8
0
 62
7
  6
CONTINUOUS
 10
150.1518667936
 20
30.7873819712
 11
149.9784292936
 21
30.8841730531
  0
LINE
  8
0
 62
7
  6
CONTINUOUS
 10
155.3549915869
 20
31.4326557675
 11
155.412804528
 21
31.3681283946
  0
LINE
  8
0
 62
7
  6
CONTINUOUS
 10
158.3034290869
 20
31.3681283946
 11
158.361242028
 21
31.2068099625
  0
LINE
  8
0
 62
7
  6
CONTINUOUS
 10
158.6503040869
 20
31.2068099625
 11
158.5924918074
 21
31.3681283946
  0
LINE
  8
0
 62
7
  6
CONTINUOUS
 10
158.361242028
 20
31.2068099625
 11
158.361242028
 21
30.5937998301
  0
LINE
  8
0
 62
7
  6
CONTINUOUS
 10
158.6503040869
 20
30.5937998301
 11
158.6503040869
 21
31.2068099625
  0
LINE
  8
0
 62
7
  6
CONTINUOUS
 10
159.1128043074
 20
31.4326557675
 11
159.1128043074
 21
31.3681283946
  0
LINE
  8
0
 62
7
  6
CONTINUOUS
 10
159.245872955
 20
32.3970785186
 11
159.245872955
 21
34.5282260596
  0
LINE
  8
0
 62
7
  6
CONTINUOUS
 10
159.5737418074
 20
36.1675703219
 11
159.5737418074
 21
32.3970785186
  0
LINE
  8
0
 62
7
  6
CONTINUOUS
 10
154.2565543074
 20
30.9164367395
 11
154.3143669177
 21
31.0132277988
  0
LINE
  8
0
 62
7
  6
CONTINUOUS
 10
149.8628043005
 20
30.7228545871
 11
150.0362418212
 21
30.6583272086
  0
LINE
  8
0
 62
7
  6
CONTINUOUS
 10
151.3659292523
 20
31.4326557675
 11
151.1924917523
 21
31.5294468267
  0
LINE
  8
0
 62
7
  6
CONTINUOUS
 10
154.0253041972
 20
30.7551182848
 11
154.1987416972
 21
30.6583272086
  0
LINE
  8
0
 62
7
  6
CONTINUOUS
 10
153.0424918074
 20
31.4326557675
 11
153.1581166972
 21
31.3681283946
  0
LINE
  8
0
 62
7
  6
CONTINUOUS
 10
153.3893668074
 20
31.4649194539
 11
153.2737419177
 21
31.5294468267
  0
LINE
  8
0
 62
7
  6
CONTINUOUS
 10
159.1128043074
 20
30.8519093441
 11
159.228429528
 21
30.7228545871
  0
LINE
  8
0
 62
7
  6
CONTINUOUS
 10
159.4596793074
 20
30.7873819712
 11
159.401867028
 21
30.8519093441
  0
LINE
  8
0
 62
7
  6
CONTINUOUS
 10
159.1128043074
 20
31.3681283946
 11
159.228429528
 21
31.2390736489
  0
LINE
  8
0
 62
7
  6
CONTINUOUS
 10
158.5924918074
 20
31.3681283946
 11
158.534679528
 21
31.4649194539
  0
LINE
  8
0
 62
7
  6
CONTINUOUS
 10
160.9628038663
 20
30.7873819712
 11
160.9628038663
 21
30.8519093441
  0
LINE
  8
0
 62
7
  6
CONTINUOUS
 10
160.9671844304
 20
32.3970785186
 11
160.9671844304
 21
36.1675703219
  0
LINE
  8
0
 62
7
  6
CONTINUOUS
 10
154.0253041972
 20
31.4971831403
 11
153.9674919177
 21
31.4326557675
  0
LINE
  8
0
 62
7
  6
CONTINUOUS
 10
150.9034292799
 20
31.4649194539
 11
151.0768668626
 21
31.400392081
  0
LINE
  8
0
 62
7
  6
CONTINUOUS
 10
155.6440543074
 20
31.4649194539
 11
155.5284290869
 21
31.5294468267
  0
LINE
  8
0
 62
7
  6
CONTINUOUS
 10
159.4596793074
 20
31.3036010218
 11
159.401867028
 21
31.3681283946
  0
LINE
  8
0
 62
7
  6
CONTINUOUS
 10
160.615929528
 20
30.9164367395
 11
160.6737418074
 21
30.8519093441
  0
LINE
  8
0
 62
7
  6
CONTINUOUS
 10
160.9628038663
 20
30.8519093441
 11
160.8471793074
 21
30.9809641124
  0
LINE
  8
0
 62
7
  6
CONTINUOUS
 10
160.615929528
 20
31.4326557675
 11
160.6737418074
 21
31.3681283946
  0
LINE
  8
0
 62
7
  6
CONTINUOUS
 10
160.9628038663
 20
31.3681283946
 11
160.8471793074
 21
31.4971831403
  0
LINE
  8
0
 62
7
  6
CONTINUOUS
 10
154.2565543074
 20
31.3681283946
 11
154.3143669177
 21
31.4326557675
  0
LINE
  8
0
 62
7
  6
CONTINUOUS
 10
154.0831168074
 20
31.1100188581
 11
153.9674919177
 21
30.9809641124
  0
LINE
  8
0
 62
7
  6
CONTINUOUS
 10
155.412804528
 20
30.9487004259
 11
155.3549915869
 21
30.8841730531
  0
LINE
  8
0
 62
7
  6
CONTINUOUS
 10
155.3549915869
 20
30.6905909007
 11
155.412804528
 21
30.7551182848
  0
LINE
  8
0
 62
7
  6
CONTINUOUS
 10
154.1987416972
 20
30.6583272086
 11
154.3143669177
 21
30.6260635193
  0
LINE
  8
0
 62
7
  6
CONTINUOUS
 10
151.1924917523
 20
31.5294468267
 11
150.9612418074
 21
31.5939741996
  0
LINE
  8
0
 62
7
  6
CONTINUOUS
 10
154.5456166972
 20
30.7228545871
 11
154.3143669177
 21
30.7873819712
  0
LINE
  8
0
 62
7
  6
CONTINUOUS
 10
153.2737419177
 20
31.5294468267
 11
153.1003044177
 21
31.5939741996
  0
LINE
  8
0
 62
7
  6
CONTINUOUS
 10
155.5284290869
 20
31.5294468267
 11
155.3549915869
 21
31.5939741996
  0
LINE
  8
0
 62
7
  6
CONTINUOUS
 10
158.187804528
 20
31.4326557675
 11
158.3034290869
 21
31.3681283946
  0
LINE
  8
0
 62
7
  6
CONTINUOUS
 10
158.534679528
 20
31.4649194539
 11
158.4190543074
 21
31.5294468267
  0
LINE
  8
0
 62
7
  6
CONTINUOUS
 10
150.0362418212
 20
30.6583272086
 11
150.2096793212
 21
30.6260635193
  0
LINE
  8
0
 62
7
  6
CONTINUOUS
 10
150.498741835
 20
30.7228545871
 11
150.1518667936
 21
30.7873819712
  0
LINE
  8
0
 62
7
  6
CONTINUOUS
 10
152.9268669177
 20
31.4649194539
 11
153.0424918074
 21
31.4326557675
  0
LINE
  8
0
 62
7
  6
CONTINUOUS
 10
155.239367028
 20
31.4649194539
 11
155.3549915869
 21
31.4326557675
  0
LINE
  8
0
 62
7
  6
CONTINUOUS
 10
159.575304528
 20
30.7551182848
 11
159.4596793074
 21
30.7873819712
  0
LINE
  8
0
 62
7
  6
CONTINUOUS
 10
158.0721793074
 20
31.4649194539
 11
158.187804528
 21
31.4326557675
  0
LINE
  8
0
 62
7
  6
CONTINUOUS
 10
159.228429528
 20
30.7228545871
 11
159.401867028
 21
30.6583272086
  0
LINE
  8
0
 62
7
  6
CONTINUOUS
 10
158.4190543074
 20
31.5294468267
 11
158.2456168074
 21
31.5939741996
  0
LINE
  8
0
 62
7
  6
CONTINUOUS
 10
159.6331168074
 20
31.2390736489
 11
159.4596793074
 21
31.3036010218
  0
LINE
  8
0
 62
7
  6
CONTINUOUS
 10
160.442492028
 20
30.9809641124
 11
160.615929528
 21
30.9164367395
  0
LINE
  8
0
 62
7
  6
CONTINUOUS
 10
160.8471793074
 20
31.4971831403
 11
160.6737418074
 21
31.5617105132
  0
LINE
  8
0
 62
7
  6
CONTINUOUS
 10
159.228429528
 20
31.2390736489
 11
159.4596793074
 21
31.1422825445
  0
LINE
  8
0
 62
7
  6
CONTINUOUS
 10
160.8471793074
 20
30.9809641124
 11
160.615929528
 21
31.0777551716
  0
LINE
  8
0
 62
7
  6
CONTINUOUS
 10
159.401867028
 20
31.3681283946
 11
159.4596793074
 21
31.4326557675
  0
LINE
  8
0
 62
7
  6
CONTINUOUS
 10
149.8628043005
 20
31.4971831403
 11
149.7471793074
 21
31.4326557675
  0
LINE
  8
0
 62
7
  6
CONTINUOUS
 10
149.9784292936
 20
31.3358647082
 11
150.1518667936
 21
31.4326557675
  0
LINE
  8
0
 62
7
  6
CONTINUOUS
 10
152.2909293626
 20
31.5294468267
 11
152.1753043074
 21
31.4649194539
  0
LINE
  8
0
 62
7
  6
CONTINUOUS
 10
152.1753043074
 20
31.3358647082
 11
152.2909293626
 21
31.400392081
  0
LINE
  8
0
 62
7
  6
CONTINUOUS
 10
151.1924917523
 20
30.6905909007
 11
151.3659292523
 21
30.7873819712
  0
LINE
  8
0
 62
7
  6
CONTINUOUS
 10
150.2096793212
 20
30.6260635193
 11
150.5565542799
 21
30.5937998301
  0
LINE
  8
0
 62
7
  6
CONTINUOUS
 10
154.3143669177
 20
30.6260635193
 11
154.5456166972
 21
30.5937998301
  0
LINE
  8
0
 62
7
  6
CONTINUOUS
 10
152.6956168074
 20
31.4971831403
 11
152.9268669177
 21
31.4649194539
  0
LINE
  8
0
 62
7
  6
CONTINUOUS
 10
155.0081169177
 20
31.4971831403
 11
155.239367028
 21
31.4649194539
  0
LINE
  8
0
 62
7
  6
CONTINUOUS
 10
159.4596793074
 20
31.1422825445
 11
160.442492028
 21
30.9809641124
  0
LINE
  8
0
 62
7
  6
CONTINUOUS
 10
160.615929528
 20
31.0777551716
 11
159.6331168074
 21
31.2390736489
  0
LINE
  8
0
 62
7
  6
CONTINUOUS
 10
153.1003044177
 20
31.5939741996
 11
152.9268669177
 21
31.626237886
  0
LINE
  8
0
 62
7
  6
CONTINUOUS
 10
159.401867028
 20
30.6583272086
 11
159.575304528
 21
30.6260635193
  0
LINE
  8
0
 62
7
  6
CONTINUOUS
 10
158.2456168074
 20
31.5939741996
 11
158.0721793074
 21
31.626237886
  0
LINE
  8
0
 62
7
  6
CONTINUOUS
 10
160.5003043074
 20
31.4649194539
 11
160.615929528
 21
31.4326557675
  0
LINE
  8
0
 62
7
  6
CONTINUOUS
 10
160.6737418074
 20
30.8519093441
 11
160.615929528
 21
30.7873819712
  0
LINE
  8
0
 62
7
  6
CONTINUOUS
 10
159.228429528
 20
31.5294468267
 11
159.1128043074
 21
31.4326557675
  0
LINE
  8
0
 62
7
  6
CONTINUOUS
 10
154.1409294177
 20
31.5617105132
 11
154.0253041972
 21
31.4971831403
  0
LINE
  8
0
 62
7
  6
CONTINUOUS
 10
154.1987416972
 20
31.1745462761
 11
154.0831168074
 21
31.1100188581
  0
LINE
  8
0
 62
7
  6
CONTINUOUS
 10
154.3143669177
 20
31.0132277988
 11
154.4299918074
 21
31.0777551716
  0
LINE
  8
0
 62
7
  6
CONTINUOUS
 10
151.8862417523
 20
30.5937998301
 11
152.1753043074
 21
30.5937998301
  0
LINE
  8
0
 62
7
  6
CONTINUOUS
 10
153.2159293074
 20
30.5937998301
 11
153.5049916972
 21
30.5937998301
  0
LINE
  8
0
 62
7
  6
CONTINUOUS
 10
154.5456166972
 20
30.5937998301
 11
154.8924916972
 21
30.5937998301
  0
LINE
  8
0
 62
7
  6
CONTINUOUS
 10
155.5284290869
 20
30.5937998301
 11
155.8174918074
 21
30.5937998301
  0
LINE
  8
0
 62
7
  6
CONTINUOUS
 10
156.279992028
 20
30.5937998301
 11
156.5690540869
 21
30.5937998301
  0
LINE
  8
0
 62
7
  6
CONTINUOUS
 10
157.0315543074
 20
30.5937998301
 11
157.320617028
 21
30.5937998301
  0
LINE
  8
0
 62
7
  6
CONTINUOUS
 10
158.361242028
 20
30.5937998301
 11
158.6503040869
 21
30.5937998301
  0
LINE
  8
0
 62
7
  6
CONTINUOUS
 10
159.922179528
 20
30.5937998301
 11
160.269054528
 21
30.5937998301
  0
LINE
  8
0
 62
7
  6
CONTINUOUS
 10
160.269054528
 20
30.7228545871
 11
159.922179528
 21
30.7228545871
  0
LINE
  8
0
 62
7
  6
CONTINUOUS
 10
154.8924916972
 20
30.7228545871
 11
154.5456166972
 21
30.7228545871
  0
LINE
  8
0
 62
7
  6
CONTINUOUS
 10
159.401867028
 20
30.8519093441
 11
159.1128043074
 21
30.8519093441
  0
LINE
  8
0
 62
7
  6
CONTINUOUS
 10
151.4237418626
 20
30.9164367395
 11
151.1346793074
 21
30.9164367395
  0
LINE
  8
0
 62
7
  6
CONTINUOUS
 10
150.498741835
 20
31.4971831403
 11
150.9034292799
 21
31.4649194539
  0
LINE
  8
0
 62
7
  6
CONTINUOUS
 10
150.9612418074
 20
31.5939741996
 11
150.5565542799
 21
31.626237886
  0
LINE
  8
0
 62
7
  6
CONTINUOUS
 10
159.575304528
 20
30.6260635193
 11
159.922179528
 21
30.5937998301
  0
LINE
  8
0
 62
7
  6
CONTINUOUS
 10
159.922179528
 20
30.7228545871
 11
159.575304528
 21
30.7551182848
  0
LINE
  8
0
 62
7
  6
CONTINUOUS
 10
155.3549915869
 20
31.5939741996
 11
155.0081169177
 21
31.626237886
  0
LINE
  8
0
 62
7
  6
CONTINUOUS
 10
160.1534293074
 20
31.4971831403
 11
160.5003043074
 21
31.4649194539
  0
LINE
  8
0
 62
7
  6
CONTINUOUS
 10
160.5003043074
 20
31.5939741996
 11
160.1534293074
 21
31.626237886
  0
LINE
  8
0
 62
7
  6
CONTINUOUS
 10
157.840929528
 20
31.4971831403
 11
158.0721793074
 21
31.4649194539
  0
LINE
  8
0
 62
7
  6
CONTINUOUS
 10
160.6737418074
 20
31.5617105132
 11
160.5003043074
 21
31.5939741996
  0
LINE
  8
0
 62
7
  6
CONTINUOUS
 10
160.8471793074
 20
30.6905909007
 11
160.9628038663
 21
30.7873819712
  0
LINE
  8
0
 62
7
  6
CONTINUOUS
 10
155.3549915869
 20
30.8841730531
 11
155.1815540869
 21
30.7873819712
  0
LINE
  8
0
 62
7
  6
CONTINUOUS
 10
157.4362415869
 20
31.5294468267
 11
157.320617028
 21
31.4649194539
  0
LINE
  8
0
 62
7
  6
CONTINUOUS
 10
157.320617028
 20
31.3358647082
 11
157.4362415869
 21
31.400392081
  0
LINE
  8
0
 62
7
  6
CONTINUOUS
 10
150.0362418212
 20
31.5617105132
 11
149.8628043005
 21
31.4971831403
  0
LINE
  8
0
 62
7
  6
CONTINUOUS
 10
152.4643666972
 20
31.5939741996
 11
152.2909293626
 21
31.5294468267
  0
LINE
  8
0
 62
7
  6
CONTINUOUS
 10
152.2909293626
 20
31.400392081
 11
152.4643666972
 21
31.4649194539
  0
LINE
  8
0
 62
7
  6
CONTINUOUS
 10
151.0768668626
 20
30.8196456577
 11
150.9034292799
 21
30.7551182848
  0
LINE
  8
0
 62
7
  6
CONTINUOUS
 10
160.5003043074
 20
30.7551182848
 11
160.269054528
 21
30.7228545871
  0
LINE
  8
0
 62
7
  6
CONTINUOUS
 10
154.8924916972
 20
30.5937998301
 11
155.1815540869
 21
30.6260635193
  0
LINE
  8
0
 62
7
  6
CONTINUOUS
 10
160.269054528
 20
30.5937998301
 11
160.615929528
 21
30.6260635193
  0
LINE
  8
0
 62
7
  6
CONTINUOUS
 10
150.5565542799
 20
30.5937998301
 11
150.9612418074
 21
30.6260635193
  0
LINE
  8
0
 62
7
  6
CONTINUOUS
 10
150.9034292799
 20
30.7551182848
 11
150.498741835
 21
30.7228545871
  0
LINE
  8
0
 62
7
  6
CONTINUOUS
 10
154.7768668074
 20
31.1422825445
 11
155.412804528
 21
31.1422825445
  0
LINE
  8
0
 62
7
  6
CONTINUOUS
 10
155.412804528
 20
31.2713373354
 11
154.7768668074
 21
31.2713373354
  0
LINE
  8
0
 62
7
  6
CONTINUOUS
 10
151.1346793074
 20
31.3036010218
 11
151.4237418626
 21
31.3036010218
  0
LINE
  8
0
 62
7
  6
CONTINUOUS
 10
153.9674919177
 20
31.3681283946
 11
154.2565543074
 21
31.3681283946
  0
LINE
  8
0
 62
7
  6
CONTINUOUS
 10
160.6737418074
 20
31.3681283946
 11
160.9628038663
 21
31.3681283946
  0
LINE
  8
0
 62
7
  6
CONTINUOUS
 10
154.6612419177
 20
31.4971831403
 11
155.0081169177
 21
31.4971831403
  0
LINE
  8
0
 62
7
  6
CONTINUOUS
 10
159.8065543074
 20
31.4971831403
 11
160.1534293074
 21
31.4971831403
  0
LINE
  8
0
 62
7
  6
CONTINUOUS
 10
160.1534293074
 20
31.626237886
 11
159.8065543074
 21
31.626237886
  0
LINE
  8
0
 62
7
  6
CONTINUOUS
 10
158.0721793074
 20
31.626237886
 11
157.840929528
 21
31.626237886
  0
LINE
  8
0
 62
7
  6
CONTINUOUS
 10
157.320617028
 20
31.626237886
 11
157.0315543074
 21
31.626237886
  0
LINE
  8
0
 62
7
  6
CONTINUOUS
 10
156.5690540869
 20
31.626237886
 11
156.279992028
 21
31.626237886
  0
LINE
  8
0
 62
7
  6
CONTINUOUS
 10
155.0081169177
 20
31.626237886
 11
154.6612419177
 21
31.626237886
  0
LINE
  8
0
 62
7
  6
CONTINUOUS
 10
152.9268669177
 20
31.626237886
 11
152.6956168074
 21
31.626237886
  0
LINE
  8
0
 62
7
  6
CONTINUOUS
 10
156.279992028
 20
31.9488748406
 11
156.5690540869
 21
31.9488748406
  0
LINE
  8
0
 62
7
  6
CONTINUOUS
 10
156.5690540869
 20
32.1101932727
 11
156.279992028
 21
32.1101932727
  0
LINE
  8
0
 62
7
  6
CONTINUOUS
 10
152.1753043074
 20
32.1101932727
 11
151.8862417523
 21
32.1101932727
  0
LINE
  8
0
 62
7
  6
CONTINUOUS
 10
151.2130860697
 20
32.3970785186
 11
151.6256574183
 21
32.3970785186
  0
LINE
  8
0
 62
7
  6
CONTINUOUS
 10
152.852430332
 20
32.3970785186
 11
154.245872955
 21
32.3970785186
  0
LINE
  8
0
 62
7
  6
CONTINUOUS
 10
154.5737418074
 20
32.3970785186
 11
155.9671844304
 21
32.3970785186
  0
LINE
  8
0
 62
7
  6
CONTINUOUS
 10
157.852430332
 20
32.3970785186
 11
159.245872955
 21
32.3970785186
  0
LINE
  8
0
 62
7
  6
CONTINUOUS
 10
159.5737418074
 20
32.3970785186
 11
160.9671844304
 21
32.3970785186
  0
LINE
  8
0
 62
7
  6
CONTINUOUS
 10
157.6096790869
 20
31.5939741996
 11
157.4362415869
 21
31.5294468267
  0
LINE
  8
0
 62
7
  6
CONTINUOUS
 10
155.1815540869
 20
30.6260635193
 11
155.3549915869
 21
30.6905909007
  0
LINE
  8
0
 62
7
  6
CONTINUOUS
 10
160.615929528
 20
30.6260635193
 11
160.8471793074
 21
30.6905909007
  0
LINE
  8
0
 62
7
  6
CONTINUOUS
 10
160.615929528
 20
30.7873819712
 11
160.5003043074
 21
30.7551182848
  0
LINE
  8
0
 62
7
  6
CONTINUOUS
 10
159.575304528
 20
31.4649194539
 11
159.8065543074
 21
31.4971831403
  0
LINE
  8
0
 62
7
  6
CONTINUOUS
 10
157.6096790869
 20
31.4649194539
 11
157.840929528
 21
31.4971831403
  0
LINE
  8
0
 62
7
  6
CONTINUOUS
 10
154.5456166972
 20
31.1100188581
 11
154.7768668074
 21
31.1422825445
  0
LINE
  8
0
 62
7
  6
CONTINUOUS
 10
157.840929528
 20
31.626237886
 11
157.6096790869
 21
31.5939741996
  0
LINE
  8
0
 62
7
  6
CONTINUOUS
 10
154.4299918074
 20
31.4649194539
 11
154.6612419177
 21
31.4971831403
  0
LINE
  8
0
 62
7
  6
CONTINUOUS
 10
159.8065543074
 20
31.626237886
 11
159.4596793074
 21
31.5939741996
  0
LINE
  8
0
 62
7
  6
CONTINUOUS
 10
154.7768668074
 20
31.2713373354
 11
154.4299918074
 21
31.2390736489
  0
LINE
  8
0
 62
7
  6
CONTINUOUS
 10
150.5565542799
 20
31.626237886
 11
150.2096793212
 21
31.5939741996
  0
LINE
  8
0
 62
7
  6
CONTINUOUS
 10
154.6612419177
 20
31.626237886
 11
154.2565543074
 21
31.5939741996
  0
LINE
  8
0
 62
7
  6
CONTINUOUS
 10
152.0327582009
 20
33.5446195022
 11
151.3770204959
 21
33.5446195022
  0
LINE
  8
0
 62
7
  6
CONTINUOUS
 10
157.4362415869
 20
31.400392081
 11
157.6096790869
 21
31.4649194539
  0
LINE
  8
0
 62
7
  6
CONTINUOUS
 10
159.4596793074
 20
31.4326557675
 11
159.575304528
 21
31.4649194539
  0
LINE
  8
0
 62
7
  6
CONTINUOUS
 10
159.4596793074
 20
31.5939741996
 11
159.228429528
 21
31.5294468267
  0
LINE
  8
0
 62
7
  6
CONTINUOUS
 10
155.1815540869
 20
30.7873819712
 11
154.8924916972
 21
30.7228545871
  0
LINE
  8
0
 62
7
  6
CONTINUOUS
 10
152.4643666972
 20
31.4649194539
 11
152.6956168074
 21
31.4971831403
  0
LINE
  8
0
 62
7
  6
CONTINUOUS
 10
152.6956168074
 20
31.626237886
 11
152.4643666972
 21
31.5939741996
  0
LINE
  8
0
 62
7
  6
CONTINUOUS
 10
150.2674918074
 20
31.4649194539
 11
150.498741835
 21
31.4971831403
  0
LINE
  8
0
 62
7
  6
CONTINUOUS
 10
156.7868565615
 20
35.0200293383
 11
157.4425942664
 21
35.0200293383
  0
LINE
  8
0
 62
7
  6
CONTINUOUS
 10
154.4299918074
 20
31.0777551716
 11
154.5456166972
 21
31.1100188581
  0
LINE
  8
0
 62
7
  6
CONTINUOUS
 10
154.4299918074
 20
31.2390736489
 11
154.1987416972
 21
31.1745462761
  0
LINE
  8
0
 62
7
  6
CONTINUOUS
 10
154.3143669177
 20
31.4326557675
 11
154.4299918074
 21
31.4649194539
  0
LINE
  8
0
 62
7
  6
CONTINUOUS
 10
150.9612418074
 20
30.6260635193
 11
151.1924917523
 21
30.6905909007
  0
LINE
  8
0
 62
7
  6
CONTINUOUS
 10
154.2565543074
 20
31.5939741996
 11
154.1409294177
 21
31.5617105132
  0
LINE
  8
0
 62
7
  6
CONTINUOUS
 10
150.2096793212
 20
31.5939741996
 11
150.0362418212
 21
31.5617105132
  0
LINE
  8
0
 62
7
  6
CONTINUOUS
 10
160.9671844304
 20
36.1675703219
 11
159.5737418074
 21
36.1675703219
  0
LINE
  8
0
 62
7
  6
CONTINUOUS
 10
157.6065286927
 20
36.1675703219
 11
157.1939573441
 21
36.1675703219
  0
LINE
  8
0
 62
7
  6
CONTINUOUS
 10
155.9671844304
 20
36.1675703219
 11
154.5737418074
 21
36.1675703219
  0
LINE
  8
0
 62
7
  6
CONTINUOUS
 10
154.245872955
 20
36.1675703219
 11
152.852430332
 21
36.1675703219
  0
LINE
  8
0
 62
7
  6
CONTINUOUS
 10
150.9671844304
 20
36.1675703219
 11
149.5737418074
 21
36.1675703219
  0
LINE
  8
0
 62
7
  6
CONTINUOUS
 10
150.1518667936
 20
31.4326557675
 11
150.2674918074
 21
31.4649194539
  0
CIRCLE
  8
0
 62
7
  6
CONTINUOUS
 10
160.2704631189
 20
38.5036358957
 40
2.0901639344
  0
ARC
  8
0
 62
7
  6
CONTINUOUS
 10
151.2130860697
 20
34.0364227809
 40
1.6393442623
 50
180.0
 51
270.0
  0
ARC
  8
0
 62
7
  6
CONTINUOUS
 10
157.6065286927
 20
34.5282260596
 40
1.6393442623
 50
0.0
 51
90.0
  0
ARC
  8
0
 62
7
  6
CONTINUOUS
 10
151.6256574183
 20
33.8724883547
 40
1.4754098361
 50
270.0
 51
326.2510114041
  0
ARC
  8
0
 62
7
  6
CONTINUOUS
 10
157.1939573441
 20
34.6921604858
 40
1.4754098361
 50
90.0
 51
146.2510114041
  0
ARC
  8
0
 62
7
  6
CONTINUOUS
 10
152.0327582009
 20
34.3642916334
 40
0.8196721311
 50
270.0
 51
360.0
  0
ARC
  8
0
 62
7
  6
CONTINUOUS
 10
156.7868565615
 20
34.2003572071
 40
0.8196721311
 50
90.0
 51
180.0
  0
ARC
  8
0
 62
7
  6
CONTINUOUS
 10
151.3770204959
 20
33.9544555678
 40
0.4098360656
 50
180.0
 51
270.0
  0
ARC
  8
0
 62
7
  6
CONTINUOUS
 10
157.4425942664
 20
34.6101932727
 40
0.4098360656
 50
0.0
 51
90.0
  0
SOLID
  8
0
 62
7
  6
CONTINUOUS
 10
156.279992028
 20
31.9488752009
 11
156.279992028
 21
32.1101936845
 12
156.5690540869
 22
31.9488752009
 13
156.5690540869
 23
32.1101936845
  0
SOLID
  8
0
 62
7
  6
CONTINUOUS
 10
150.5565542799
 20
31.6262382337
 11
150.9612418074
 21
31.5939740028
 12
150.2096793212
 22
31.5939740028
 13
150.2096793212
 23
31.5939740028
  0
SOLID
  8
0
 62
7
  6
CONTINUOUS
 10
150.0362418212
 20
31.5617111435
 11
150.2096793212
 21
31.5939740028
 12
150.9612418074
 22
31.5939740028
 13
150.9612418074
 23
31.5939740028
  0
SOLID
  8
0
 62
7
  6
CONTINUOUS
 10
150.9612418074
 20
31.5939740028
 11
151.1924917523
 21
31.5294468402
 12
150.0362418212
 22
31.5617111435
 13
150.0362418212
 23
31.5617111435
  0
SOLID
  8
0
 62
7
  6
CONTINUOUS
 10
149.8628043005
 20
31.49718259
 11
150.0362418212
 21
31.5617111435
 12
151.1924917523
 22
31.5294468402
 13
151.1924917523
 23
31.5294468402
  0
SOLID
  8
0
 62
7
  6
CONTINUOUS
 10
149.8628043005
 20
31.49718259
 11
151.1924917523
 21
31.5294468402
 12
150.498741835
 22
31.49718259
 13
150.498741835
 23
31.49718259
  0
SOLID
  8
0
 62
7
  6
CONTINUOUS
 10
150.498741835
 20
31.49718259
 11
151.1924917523
 21
31.5294468402
 12
150.9034292799
 22
31.4649197501
 13
150.9034292799
 23
31.4649197501
  0
SOLID
  8
0
 62
7
  6
CONTINUOUS
 10
151.1924917523
 20
31.5294468402
 11
151.3659292523
 21
31.4326554468
 12
150.9034292799
 22
31.4649197501
 13
150.9034292799
 23
31.4649197501
  0
SOLID
  8
0
 62
7
  6
CONTINUOUS
 10
151.0768668626
 20
31.4003926599
 11
150.9034292799
 21
31.4649197501
 12
151.3659292523
 22
31.4326554468
 13
151.3659292523
 23
31.4326554468
  0
SOLID
  8
0
 62
7
  6
CONTINUOUS
 10
151.0768668626
 20
31.4003926599
 11
151.3659292523
 21
31.4326554468
 12
151.1346793074
 22
31.3036013776
 13
151.1346793074
 23
31.3036013776
  0
SOLID
  8
0
 62
7
  6
CONTINUOUS
 10
151.3659292523
 20
31.4326554468
 11
151.4237418626
 21
31.3036013776
 12
151.1346793074
 22
31.3036013776
 13
151.1346793074
 23
31.3036013776
  0
SOLID
  8
0
 62
7
  6
CONTINUOUS
 10
152.4643666972
 20
31.5939739754
 11
152.6956168074
 21
31.6262382787
 12
152.9268669177
 22
31.6262382787
 13
152.9268669177
 23
31.6262382787
  0
SOLID
  8
0
 62
7
  6
CONTINUOUS
 10
152.9268669177
 20
31.6262382787
 11
153.1003044177
 21
31.5939739754
 12
152.4643666972
 22
31.5939739754
 13
152.4643666972
 23
31.5939739754
  0
SOLID
  8
0
 62
7
  6
CONTINUOUS
 10
152.2909293626
 20
31.5294468852
 11
152.4643666972
 21
31.5939739754
 12
153.1003044177
 22
31.5939739754
 13
153.1003044177
 23
31.5939739754
  0
SOLID
  8
0
 62
7
  6
CONTINUOUS
 10
153.1003044177
 20
31.5939739754
 11
153.2737419177
 21
31.5294468852
 12
152.2909293626
 22
31.5294468852
 13
152.2909293626
 23
31.5294468852
  0
SOLID
  8
0
 62
7
  6
CONTINUOUS
 10
153.2737419177
 20
31.5294468852
 11
152.6956168074
 21
31.4971825369
 12
152.2909293626
 22
31.5294468852
 13
152.2909293626
 23
31.5294468852
  0
SOLID
  8
0
 62
7
  6
CONTINUOUS
 10
152.1753043074
 20
31.4649197951
 11
152.2909293626
 21
31.5294468852
 12
152.6956168074
 22
31.4971825369
 13
152.6956168074
 23
31.4971825369
  0
SOLID
  8
0
 62
7
  6
CONTINUOUS
 10
152.6956168074
 20
31.4971825369
 11
152.4643666972
 21
31.4649197951
 12
152.1753043074
 22
31.4649197951
 13
152.1753043074
 23
31.4649197951
  0
SOLID
  8
0
 62
7
  6
CONTINUOUS
 10
152.6956168074
 20
31.4971825369
 11
153.2737419177
 21
31.5294468852
 12
152.9268669177
 22
31.4649197951
 13
152.9268669177
 23
31.4649197951
  0
SOLID
  8
0
 62
7
  6
CONTINUOUS
 10
153.2737419177
 20
31.5294468852
 11
153.3893668074
 21
31.4649197951
 12
152.9268669177
 22
31.4649197951
 13
152.9268669177
 23
31.4649197951
  0
SOLID
  8
0
 62
7
  6
CONTINUOUS
 10
153.0424918074
 20
31.4326554468
 11
152.9268669177
 21
31.4649197951
 12
153.3893668074
 22
31.4649197951
 13
153.3893668074
 23
31.4649197951
  0
SOLID
  8
0
 62
7
  6
CONTINUOUS
 10
153.3893668074
 20
31.4649197951
 11
153.4471794177
 21
31.4003927049
 12
153.0424918074
 22
31.4326554468
 13
153.0424918074
 23
31.4326554468
  0
SOLID
  8
0
 62
7
  6
CONTINUOUS
 10
153.1581166972
 20
31.3681283566
 11
153.0424918074
 21
31.4326554468
 12
153.4471794177
 22
31.4003927049
 13
153.4471794177
 23
31.4003927049
  0
SOLID
  8
0
 62
7
  6
CONTINUOUS
 10
153.1581166972
 20
31.3681283566
 11
153.4471794177
 21
31.4003927049
 12
153.2159293074
 22
31.2390742213
 13
153.2159293074
 23
31.2390742213
  0
SOLID
  8
0
 62
7
  6
CONTINUOUS
 10
153.4471794177
 20
31.4003927049
 11
153.5049916972
 21
31.2390742213
 12
153.2159293074
 22
31.2390742213
 13
153.2159293074
 23
31.2390742213
  0
SOLID
  8
0
 62
7
  6
CONTINUOUS
 10
152.4643666972
 20
31.4649197951
 11
152.2909293626
 21
31.4003927049
 12
152.1753043074
 22
31.4649197951
 13
152.1753043074
 23
31.4649197951
  0
SOLID
  8
0
 62
7
  6
CONTINUOUS
 10
152.2909293626
 20
31.4003927049
 11
152.1753043074
 21
31.3358640533
 12
152.1753043074
 22
31.4649197951
 13
152.1753043074
 23
31.4649197951
  0
SOLID
  8
0
 62
7
  6
CONTINUOUS
 10
152.1753043074
 20
31.3358640533
 11
151.8862417523
 21
30.5938002869
 12
152.1753043074
 22
31.4649197951
 13
152.1753043074
 23
31.4649197951
  0
SOLID
  8
0
 62
7
  6
CONTINUOUS
 10
152.1753043074
 20
31.4649197951
 11
151.8862417523
 21
30.5938002869
 12
152.1753043074
 22
32.1101937295
 13
152.1753043074
 23
32.1101937295
  0
SOLID
  8
0
 62
7
  6
CONTINUOUS
 10
151.8862417523
 20
30.5938002869
 11
151.8862417523
 21
32.1101937295
 12
152.1753043074
 22
32.1101937295
 13
152.1753043074
 23
32.1101937295
  0
SOLID
  8
0
 62
7
  6
CONTINUOUS
 10
152.1753043074
 20
31.3358640533
 11
152.1753043074
 21
30.5938002869
 12
151.8862417523
 22
30.5938002869
 13
151.8862417523
 23
30.5938002869
  0
SOLID
  8
0
 62
7
  6
CONTINUOUS
 10
153.2159293074
 20
30.5938002869
 11
153.2159293074
 21
31.2390742213
 12
153.5049916972
 22
31.2390742213
 13
153.5049916972
 23
31.2390742213
  0
SOLID
  8
0
 62
7
  6
CONTINUOUS
 10
153.5049916972
 20
31.2390742213
 11
153.5049916972
 21
30.5938002869
 12
153.2159293074
 22
30.5938002869
 13
153.2159293074
 23
30.5938002869
  0
SOLID
  8
0
 62
7
  6
CONTINUOUS
 10
154.2565543074
 20
31.5939738288
 11
154.6612419177
 21
31.6262385959
 12
155.0081169177
 22
31.6262385959
 13
155.0081169177
 23
31.6262385959
  0
SOLID
  8
0
 62
7
  6
CONTINUOUS
 10
155.0081169177
 20
31.6262385959
 11
155.3549915869
 21
31.5939738288
 12
154.2565543074
 22
31.5939738288
 13
154.2565543074
 23
31.5939738288
  0
SOLID
  8
0
 62
7
  6
CONTINUOUS
 10
154.1409294177
 20
31.5617111435
 11
154.2565543074
 21
31.5939738288
 12
155.3549915869
 22
31.5939738288
 13
155.3549915869
 23
31.5939738288
  0
SOLID
  8
0
 62
7
  6
CONTINUOUS
 10
155.3549915869
 20
31.5939738288
 11
155.5284290869
 21
31.5294468402
 12
154.1409294177
 22
31.5617111435
 13
154.1409294177
 23
31.5617111435
  0
SOLID
  8
0
 62
7
  6
CONTINUOUS
 10
154.0253041972
 20
31.4971826249
 11
154.1409294177
 21
31.5617111435
 12
155.5284290869
 22
31.5294468402
 13
155.5284290869
 23
31.5294468402
  0
SOLID
  8
0
 62
7
  6
CONTINUOUS
 10
154.0253041972
 20
31.4971826249
 11
155.5284290869
 21
31.5294468402
 12
154.6612419177
 22
31.4971826249
 13
154.6612419177
 23
31.4971826249
  0
SOLID
  8
0
 62
7
  6
CONTINUOUS
 10
154.6612419177
 20
31.4971826249
 11
155.5284290869
 21
31.5294468402
 12
155.0081169177
 22
31.4971826249
 13
155.0081169177
 23
31.4971826249
  0
SOLID
  8
0
 62
7
  6
CONTINUOUS
 10
155.0081169177
 20
31.4971826249
 11
155.5284290869
 21
31.5294468402
 12
155.239367028
 22
31.4649194065
 13
155.239367028
 23
31.4649194065
  0
SOLID
  8
0
 62
7
  6
CONTINUOUS
 10
155.5284290869
 20
31.5294468402
 11
155.6440543074
 21
31.4649194065
 12
155.239367028
 22
31.4649194065
 13
155.239367028
 23
31.4649194065
  0
SOLID
  8
0
 62
7
  6
CONTINUOUS
 10
153.9674919177
 20
31.4326554138
 11
154.0253041972
 21
31.4971826249
 12
154.6612419177
 22
31.4971826249
 13
154.6612419177
 23
31.4971826249
  0
SOLID
  8
0
 62
7
  6
CONTINUOUS
 10
155.3549915869
 20
31.4326554138
 11
155.239367028
 21
31.4649194065
 12
155.6440543074
 22
31.4649194065
 13
155.6440543074
 23
31.4649194065
  0
SOLID
  8
0
 62
7
  6
CONTINUOUS
 10
155.3549915869
 20
31.4326554138
 11
155.6440543074
 21
31.4649194065
 12
155.412804528
 22
31.3681282026
 13
155.412804528
 23
31.3681282026
  0
SOLID
  8
0
 62
7
  6
CONTINUOUS
 10
155.6440543074
 20
31.4649194065
 11
155.7018665869
 21
31.3681282026
 12
155.412804528
 22
31.3681282026
 13
155.412804528
 23
31.3681282026
  0
SOLID
  8
0
 62
7
  6
CONTINUOUS
 10
155.412804528
 20
31.2713369632
 11
155.412804528
 21
31.3681282026
 12
155.7018665869
 22
31.3681282026
 13
155.7018665869
 23
31.3681282026
  0
SOLID
  8
0
 62
7
  6
CONTINUOUS
 10
155.412804528
 20
31.2713369632
 11
155.7018665869
 21
31.3681282026
 12
155.412804528
 22
31.1422827828
 13
155.412804528
 23
31.1422827828
  0
SOLID
  8
0
 62
7
  6
CONTINUOUS
 10
155.412804528
 20
31.1422827828
 11
155.7018665869
 21
31.3681282026
 12
155.412804528
 22
30.9487004259
 13
155.412804528
 23
30.9487004259
  0
SOLID
  8
0
 62
7
  6
CONTINUOUS
 10
155.7018665869
 20
31.3681282026
 11
155.7018665869
 21
30.8519086025
 12
155.412804528
 22
30.9487004259
 13
155.412804528
 23
30.9487004259
  0
SOLID
  8
0
 62
7
  6
CONTINUOUS
 10
157.6096790869
 20
31.5939736268
 11
157.840929528
 21
31.6262383465
 12
158.0721793074
 22
31.6262383465
 13
158.0721793074
 23
31.6262383465
  0
SOLID
  8
0
 62
7
  6
CONTINUOUS
 10
158.0721793074
 20
31.6262383465
 11
158.2456168074
 21
31.5939736268
 12
157.6096790869
 22
31.5939736268
 13
157.6096790869
 23
31.5939736268
  0
SOLID
  8
0
 62
7
  6
CONTINUOUS
 10
157.4362415869
 20
31.5294472848
 11
157.6096790869
 21
31.5939736268
 12
158.2456168074
 22
31.5939736268
 13
158.2456168074
 23
31.5939736268
  0
SOLID
  8
0
 62
7
  6
CONTINUOUS
 10
158.2456168074
 20
31.5939736268
 11
158.4190543074
 21
31.5294472848
 12
157.4362415869
 22
31.5294472848
 13
157.4362415869
 23
31.5294472848
  0
SOLID
  8
0
 62
7
  6
CONTINUOUS
 10
158.4190543074
 20
31.5294472848
 11
157.840929528
 21
31.4971825369
 12
157.4362415869
 22
31.5294472848
 13
157.4362415869
 23
31.5294472848
  0
SOLID
  8
0
 62
7
  6
CONTINUOUS
 10
157.320617028
 20
31.4649199103
 11
157.4362415869
 21
31.5294472848
 12
157.840929528
 22
31.4971825369
 13
157.840929528
 23
31.4971825369
  0
SOLID
  8
0
 62
7
  6
CONTINUOUS
 10
157.840929528
 20
31.4971825369
 11
157.6096790869
 21
31.4649199103
 12
157.320617028
 22
31.4649199103
 13
157.320617028
 23
31.4649199103
  0
SOLID
  8
0
 62
7
  6
CONTINUOUS
 10
157.840929528
 20
31.4971825369
 11
158.4190543074
 21
31.5294472848
 12
158.0721793074
 22
31.4649199103
 13
158.0721793074
 23
31.4649199103
  0
SOLID
  8
0
 62
7
  6
CONTINUOUS
 10
158.4190543074
 20
31.5294472848
 11
158.534679528
 21
31.4649199103
 12
158.0721793074
 22
31.4649199103
 13
158.0721793074
 23
31.4649199103
  0
SOLID
  8
0
 62
7
  6
CONTINUOUS
 10
158.187804528
 20
31.4326554468
 11
158.0721793074
 21
31.4649199103
 12
158.534679528
 22
31.4649199103
 13
158.534679528
 23
31.4649199103
  0
SOLID
  8
0
 62
7
  6
CONTINUOUS
 10
158.187804528
 20
31.4326554468
 11
158.534679528
 21
31.4649199103
 12
158.3034290869
 22
31.3681288486
 13
158.3034290869
 23
31.3681288486
  0
SOLID
  8
0
 62
7
  6
CONTINUOUS
 10
158.534679528
 20
31.4649199103
 11
158.5924918074
 21
31.3681288486
 12
158.3034290869
 22
31.3681288486
 13
158.3034290869
 23
31.3681288486
  0
SOLID
  8
0
 62
7
  6
CONTINUOUS
 10
158.361242028
 20
31.2068093799
 11
158.3034290869
 21
31.3681288486
 12
158.5924918074
 22
31.3681288486
 13
158.5924918074
 23
31.3681288486
  0
SOLID
  8
0
 62
7
  6
CONTINUOUS
 10
158.5924918074
 20
31.3681288486
 11
158.6503040869
 21
31.2068093799
 12
158.361242028
 22
31.2068093799
 13
158.361242028
 23
31.2068093799
  0
SOLID
  8
0
 62
7
  6
CONTINUOUS
 10
157.6096790869
 20
31.4649199103
 11
157.4362415869
 21
31.4003926599
 12
157.320617028
 22
31.4649199103
 13
157.320617028
 23
31.4649199103
  0
SOLID
  8
0
 62
7
  6
CONTINUOUS
 10
157.4362415869
 20
31.4003926599
 11
157.320617028
 21
31.3358640533
 12
157.320617028
 22
31.4649199103
 13
157.320617028
 23
31.4649199103
  0
SOLID
  8
0
 62
7
  6
CONTINUOUS
 10
157.320617028
 20
31.3358640533
 11
157.0315543074
 21
30.5938003547
 12
157.320617028
 22
31.4649199103
 13
157.320617028
 23
31.4649199103
  0
SOLID
  8
0
 62
7
  6
CONTINUOUS
 10
157.320617028
 20
31.4649199103
 11
157.0315543074
 21
30.5938003547
 12
157.320617028
 22
31.6262383465
 13
157.320617028
 23
31.6262383465
  0
SOLID
  8
0
 62
7
  6
CONTINUOUS
 10
157.0315543074
 20
30.5938003547
 11
157.0315543074
 21
31.6262383465
 12
157.320617028
 22
31.6262383465
 13
157.320617028
 23
31.6262383465
  0
SOLID
  8
0
 62
7
  6
CONTINUOUS
 10
157.320617028
 20
31.3358640533
 11
157.320617028
 21
30.5938003547
 12
157.0315543074
 22
30.5938003547
 13
157.0315543074
 23
30.5938003547
  0
SOLID
  8
0
 62
7
  6
CONTINUOUS
 10
158.361242028
 20
30.5938003547
 11
158.361242028
 21
31.2068093799
 12
158.6503040869
 22
31.2068093799
 13
158.6503040869
 23
31.2068093799
  0
SOLID
  8
0
 62
7
  6
CONTINUOUS
 10
158.6503040869
 20
31.2068093799
 11
158.6503040869
 21
30.5938003547
 12
158.361242028
 22
30.5938003547
 13
158.361242028
 23
30.5938003547
  0
SOLID
  8
0
 62
7
  6
CONTINUOUS
 10
159.4596793074
 20
31.5939739474
 11
159.8065543074
 21
31.6262381969
 12
160.1534293074
 22
31.6262381969
 13
160.1534293074
 23
31.6262381969
  0
SOLID
  8
0
 62
7
  6
CONTINUOUS
 10
160.1534293074
 20
31.6262381969
 11
160.5003043074
 21
31.5939739474
 12
159.4596793074
 22
31.5939739474
 13
159.4596793074
 23
31.5939739474
  0
SOLID
  8
0
 62
7
  6
CONTINUOUS
 10
159.228429528
 20
31.5294468402
 11
159.4596793074
 21
31.5939739474
 12
160.5003043074
 22
31.5939739474
 13
160.5003043074
 23
31.5939739474
  0
SOLID
  8
0
 62
7
  6
CONTINUOUS
 10
159.228429528
 20
31.5294468402
 11
160.5003043074
 21
31.5939739304
 12
160.6737418074
 22
31.5617111435
 13
160.6737418074
 23
31.5617111435
  0
SOLID
  8
0
 62
7
  6
CONTINUOUS
 10
159.228429528
 20
31.5294468402
 11
160.6737418074
 21
31.5617111435
 12
159.8065543074
 22
31.4971825592
 13
159.8065543074
 23
31.4971825592
  0
SOLID
  8
0
 62
7
  6
CONTINUOUS
 10
159.8065543074
 20
31.4971825592
 11
160.6737418074
 21
31.5617111435
 12
160.1534293074
 22
31.4971825592
 13
160.1534293074
 23
31.4971825592
  0
SOLID
  8
0
 62
7
  6
CONTINUOUS
 10
160.6737418074
 20
31.5617111435
 11
160.8471793074
 21
31.4971825592
 12
160.1534293074
 22
31.4971825592
 13
160.1534293074
 23
31.4971825592
  0
SOLID
  8
0
 62
7
  6
CONTINUOUS
 10
160.5003043074
 20
31.4649197501
 11
160.1534293074
 21
31.4971825592
 12
160.8471793074
 22
31.4971825592
 13
160.8471793074
 23
31.4971825592
  0
SOLID
  8
0
 62
7
  6
CONTINUOUS
 10
159.1128043074
 20
31.4326555427
 11
159.228429528
 21
31.5294468402
 12
159.8065543074
 22
31.4971825592
 13
159.8065543074
 23
31.4971825592
  0
SOLID
  8
0
 62
7
  6
CONTINUOUS
 10
160.5003043074
 20
31.4649197501
 11
160.8471793074
 21
31.4971825592
 12
160.615929528
 22
31.4326555427
 13
160.615929528
 23
31.4326555427
  0
SOLID
  8
0
 62
7
  6
CONTINUOUS
 10
160.615929528
 20
31.4326555427
 11
160.8471793074
 21
31.4971825592
 12
160.6737418074
 22
31.3681283005
 13
160.6737418074
 23
31.3681283005
  0
SOLID
  8
0
 62
7
  6
CONTINUOUS
 10
160.8471793074
 20
31.4971825592
 11
160.9628038663
 21
31.3681283005
 12
160.6737418074
 22
31.3681283005
 13
160.6737418074
 23
31.3681283005
  0
SOLID
  8
0
 62
7
  6
CONTINUOUS
 10
150.2674918074
 20
31.4649197501
 11
149.7471793074
 21
31.4326554237
 12
150.498741835
 22
31.4971824493
 13
150.498741835
 23
31.4971824493
  0
SOLID
  8
0
 62
7
  6
CONTINUOUS
 10
149.7471793074
 20
31.4326554237
 11
149.8628043005
 21
31.4971824493
 12
150.498741835
 22
31.4971824493
 13
150.498741835
 23
31.4971824493
  0
SOLID
  8
0
 62
7
  6
CONTINUOUS
 10
150.2674918074
 20
31.4649197501
 11
150.1518667936
 21
31.4326554237
 12
149.7471793074
 22
31.4326554237
 13
149.7471793074
 23
31.4326554237
  0
SOLID
  8
0
 62
7
  6
CONTINUOUS
 10
149.6315543091
 20
31.3036012664
 11
149.7471793074
 21
31.4326554237
 12
150.1518667936
 22
31.4326554237
 13
150.1518667936
 23
31.4326554237
  0
SOLID
  8
0
 62
7
  6
CONTINUOUS
 10
153.9674919177
 20
31.4326554237
 11
154.6612419177
 21
31.4971825369
 12
154.4299918074
 22
31.4649197501
 13
154.4299918074
 23
31.4649197501
  0
SOLID
  8
0
 62
7
  6
CONTINUOUS
 10
154.4299918074
 20
31.4649197501
 11
154.3143669177
 21
31.4326554237
 12
153.9674919177
 22
31.4326554237
 13
153.9674919177
 23
31.4326554237
  0
SOLID
  8
0
 62
7
  6
CONTINUOUS
 10
153.9674919177
 20
31.3681283335
 11
153.9674919177
 21
31.4326554237
 12
154.3143669177
 22
31.4326554237
 13
154.3143669177
 23
31.4326554237
  0
SOLID
  8
0
 62
7
  6
CONTINUOUS
 10
154.3143669177
 20
31.4326554237
 11
154.2565543074
 21
31.3681283335
 12
153.9674919177
 22
31.3681283335
 13
153.9674919177
 23
31.3681283335
  0
SOLID
  8
0
 62
7
  6
CONTINUOUS
 10
159.1128043074
 20
31.4326555528
 11
159.8065543074
 21
31.4971825369
 12
159.575304528
 22
31.4649197501
 13
159.575304528
 23
31.4649197501
  0
SOLID
  8
0
 62
7
  6
CONTINUOUS
 10
159.575304528
 20
31.4649197501
 11
159.4596793074
 21
31.4326555528
 12
159.1128043074
 22
31.4326555528
 13
159.1128043074
 23
31.4326555528
  0
SOLID
  8
0
 62
7
  6
CONTINUOUS
 10
159.1128043074
 20
31.3681284626
 11
159.1128043074
 21
31.4326555528
 12
159.4596793074
 22
31.4326555528
 13
159.4596793074
 23
31.4326555528
  0
SOLID
  8
0
 62
7
  6
CONTINUOUS
 10
159.4596793074
 20
31.4326555528
 11
159.401867028
 21
31.3681284626
 12
159.1128043074
 22
31.3681284626
 13
159.1128043074
 23
31.3681284626
  0
SOLID
  8
0
 62
7
  6
CONTINUOUS
 10
159.228429528
 20
31.2390741763
 11
159.1128043074
 21
31.3681284626
 12
159.401867028
 22
31.3681284626
 13
159.401867028
 23
31.3681284626
  0
SOLID
  8
0
 62
7
  6
CONTINUOUS
 10
149.6315543091
 20
31.3036012664
 11
150.1518667936
 21
31.4326554468
 12
149.9784292936
 22
31.3358640533
 13
149.9784292936
 23
31.3358640533
  0
SOLID
  8
0
 62
7
  6
CONTINUOUS
 10
149.9784292936
 20
31.3358640533
 11
149.9206168074
 21
31.2713369632
 12
149.6315543091
 22
31.3036012664
 13
149.6315543091
 23
31.3036012664
  0
SOLID
  8
0
 62
7
  6
CONTINUOUS
 10
149.5737418074
 20
31.1100184796
 11
149.6315543091
 21
31.3036012664
 12
149.9206168074
 22
31.2713369632
 13
149.9206168074
 23
31.2713369632
  0
SOLID
  8
0
 62
7
  6
CONTINUOUS
 10
154.4299918074
 20
31.2390741763
 11
154.7768668074
 21
31.271336924
 12
155.412804528
 22
31.271336924
 13
155.412804528
 23
31.271336924
  0
SOLID
  8
0
 62
7
  6
CONTINUOUS
 10
154.4299918074
 20
31.2390741763
 11
155.412804528
 21
31.271336924
 12
154.1987416972
 22
31.1745462761
 13
154.1987416972
 23
31.1745462761
  0
SOLID
  8
0
 62
7
  6
CONTINUOUS
 10
154.1987416972
 20
31.1745462761
 11
155.412804528
 21
31.271336924
 12
154.7768668074
 22
31.1422827436
 13
154.7768668074
 23
31.1422827436
  0
SOLID
  8
0
 62
7
  6
CONTINUOUS
 10
155.412804528
 20
31.271336924
 11
155.412804528
 21
31.1422827436
 12
154.7768668074
 22
31.1422827436
 13
154.7768668074
 23
31.1422827436
  0
SOLID
  8
0
 62
7
  6
CONTINUOUS
 10
159.228429528
 20
31.2390745501
 11
159.401867028
 21
31.3681283566
 12
159.4596793074
 22
31.3036012664
 13
159.4596793074
 23
31.3036012664
  0
SOLID
  8
0
 62
7
  6
CONTINUOUS
 10
159.4596793074
 20
31.3036012664
 11
159.6331168074
 21
31.2390745501
 12
159.228429528
 22
31.2390745501
 13
159.228429528
 23
31.2390745501
  0
SOLID
  8
0
 62
7
  6
CONTINUOUS
 10
159.4596793074
 20
31.1422827828
 11
159.228429528
 21
31.2390745501
 12
159.6331168074
 22
31.2390745501
 13
159.6331168074
 23
31.2390745501
  0
SOLID
  8
0
 62
7
  6
CONTINUOUS
 10
159.6331168074
 20
31.2390745501
 11
160.615929528
 21
31.0777556927
 12
159.4596793074
 22
31.1422827828
 13
159.4596793074
 23
31.1422827828
  0
SOLID
  8
0
 62
7
  6
CONTINUOUS
 10
160.442492028
 20
30.9809646623
 11
159.4596793074
 21
31.1422827828
 12
160.615929528
 22
31.0777556927
 13
160.615929528
 23
31.0777556927
  0
SOLID
  8
0
 62
7
  6
CONTINUOUS
 10
160.615929528
 20
31.0777556927
 11
160.8471793074
 21
30.9809646623
 12
160.442492028
 22
30.9809646623
 13
160.442492028
 23
30.9809646623
  0
SOLID
  8
0
 62
7
  6
CONTINUOUS
 10
160.615929528
 20
30.9164372091
 11
160.442492028
 21
30.9809646623
 12
160.8471793074
 22
30.9809646623
 13
160.8471793074
 23
30.9809646623
  0
SOLID
  8
0
 62
7
  6
CONTINUOUS
 10
160.615929528
 20
30.9164372091
 11
160.8471793074
 21
30.9809646623
 12
160.6737418074
 22
30.8519089441
 13
160.6737418074
 23
30.8519089441
  0
SOLID
  8
0
 62
7
  6
CONTINUOUS
 10
160.8471793074
 20
30.9809646623
 11
160.9628038663
 21
30.8519089441
 12
160.6737418074
 22
30.8519089441
 13
160.6737418074
 23
30.8519089441
  0
SOLID
  8
0
 62
7
  6
CONTINUOUS
 10
160.615929528
 20
30.7873818593
 11
160.6737418074
 21
30.8519089441
 12
160.9628038663
 22
30.8519089441
 13
160.9628038663
 23
30.8519089441
  0
SOLID
  8
0
 62
7
  6
CONTINUOUS
 10
160.9628038663
 20
30.8519089441
 11
160.9628038663
 21
30.7873818593
 12
160.615929528
 22
30.7873818593
 13
160.615929528
 23
30.7873818593
  0
SOLID
  8
0
 62
7
  6
CONTINUOUS
 10
160.5003043074
 20
30.7551187255
 11
160.615929528
 21
30.7873818593
 12
160.9628038663
 22
30.7873818593
 13
160.9628038663
 23
30.7873818593
  0
SOLID
  8
0
 62
7
  6
CONTINUOUS
 10
160.5003043074
 20
30.7551187255
 11
160.9628038663
 21
30.7873818593
 12
160.269054528
 22
30.7228547745
 13
160.269054528
 23
30.7228547745
  0
SOLID
  8
0
 62
7
  6
CONTINUOUS
 10
160.9628038663
 20
30.7873818593
 11
160.8471793074
 21
30.6905916353
 12
160.269054528
 22
30.7228547745
 13
160.269054528
 23
30.7228547745
  0
SOLID
  8
0
 62
7
  6
CONTINUOUS
 10
160.8471793074
 20
30.6905916353
 11
159.401867028
 21
30.658327332
 12
160.269054528
 22
30.7228547745
 13
160.269054528
 23
30.7228547745
  0
SOLID
  8
0
 62
7
  6
CONTINUOUS
 10
160.269054528
 20
30.7228547745
 11
159.401867028
 21
30.658327332
 12
159.922179528
 22
30.7228547745
 13
159.922179528
 23
30.7228547745
  0
SOLID
  8
0
 62
7
  6
CONTINUOUS
 10
159.401867028
 20
30.658327332
 11
159.228429528
 21
30.7228547745
 12
159.922179528
 22
30.7228547745
 13
159.922179528
 23
30.7228547745
  0
SOLID
  8
0
 62
7
  6
CONTINUOUS
 10
159.401867028
 20
30.658327332
 11
160.8471793074
 21
30.6905916353
 12
159.575304528
 22
30.6260629858
 13
159.575304528
 23
30.6260629858
  0
SOLID
  8
0
 62
7
  6
CONTINUOUS
 10
160.8471793074
 20
30.6905916353
 11
160.615929528
 21
30.6260629858
 12
159.575304528
 22
30.6260629858
 13
159.575304528
 23
30.6260629858
  0
SOLID
  8
0
 62
7
  6
CONTINUOUS
 10
159.922179528
 20
30.5938006049
 11
159.575304528
 21
30.6260629858
 12
160.615929528
 22
30.6260629858
 13
160.615929528
 23
30.6260629858
  0
SOLID
  8
0
 62
7
  6
CONTINUOUS
 10
160.615929528
 20
30.6260629858
 11
160.269054528
 21
30.5938006049
 12
159.922179528
 22
30.5938006049
 13
159.922179528
 23
30.5938006049
  0
SOLID
  8
0
 62
7
  6
CONTINUOUS
 10
149.5737418074
 20
31.1100184796
 11
149.9206168074
 21
31.2713369632
 12
149.8628043005
 22
31.1422827828
 13
149.8628043005
 23
31.1422827828
  0
SOLID
  8
0
 62
7
  6
CONTINUOUS
 10
149.8628043005
 20
31.1422827828
 11
149.8628043005
 21
31.0454914852
 12
149.5737418074
 22
31.1100184796
 13
149.5737418074
 23
31.1100184796
  0
SOLID
  8
0
 62
7
  6
CONTINUOUS
 10
149.6315543091
 20
30.9164372091
 11
149.5737418074
 21
31.1100184796
 12
149.8628043005
 22
31.0454914852
 13
149.8628043005
 23
31.0454914852
  0
SOLID
  8
0
 62
7
  6
CONTINUOUS
 10
149.8628043005
 20
31.0454914852
 11
149.9784292936
 21
30.8841729058
 12
149.6315543091
 22
30.9164372091
 13
149.6315543091
 23
30.9164372091
  0
SOLID
  8
0
 62
7
  6
CONTINUOUS
 10
149.7471793074
 20
30.7873813202
 11
149.6315543091
 21
30.9164372091
 12
149.9784292936
 22
30.8841729058
 13
149.9784292936
 23
30.8841729058
  0
SOLID
  8
0
 62
7
  6
CONTINUOUS
 10
149.9784292936
 20
30.8841729058
 11
150.1518667936
 21
30.7873813202
 12
149.7471793074
 22
30.7873813202
 13
149.7471793074
 23
30.7873813202
  0
SOLID
  8
0
 62
7
  6
CONTINUOUS
 10
149.8628043005
 20
30.7228547004
 11
149.7471793074
 21
30.7873813202
 12
150.1518667936
 22
30.7873813202
 13
150.1518667936
 23
30.7873813202
  0
SOLID
  8
0
 62
7
  6
CONTINUOUS
 10
150.1518667936
 20
30.7873813202
 11
150.498741835
 21
30.7228547004
 12
149.8628043005
 22
30.7228547004
 13
149.8628043005
 23
30.7228547004
  0
SOLID
  8
0
 62
7
  6
CONTINUOUS
 10
150.0362418212
 20
30.658327332
 11
149.8628043005
 21
30.7228547004
 12
150.498741835
 22
30.7228547004
 13
150.498741835
 23
30.7228547004
  0
SOLID
  8
0
 62
7
  6
CONTINUOUS
 10
154.0831168074
 20
31.1100184386
 11
154.1987416972
 21
31.1745462761
 12
154.7768668074
 22
31.1422827828
 13
154.7768668074
 23
31.1422827828
  0
SOLID
  8
0
 62
7
  6
CONTINUOUS
 10
154.7768668074
 20
31.1422827828
 11
154.5456166972
 21
31.1100184386
 12
154.0831168074
 22
31.1100184386
 13
154.0831168074
 23
31.1100184386
  0
SOLID
  8
0
 62
7
  6
CONTINUOUS
 10
153.9674919177
 20
30.9809642992
 11
154.0831168074
 21
31.1100184386
 12
154.5456166972
 22
31.1100184386
 13
154.5456166972
 23
31.1100184386
  0
SOLID
  8
0
 62
7
  6
CONTINUOUS
 10
154.3143669177
 20
31.0132277988
 11
153.9674919177
 21
30.9809642992
 12
154.4299918074
 22
31.0777556927
 13
154.4299918074
 23
31.0777556927
  0
SOLID
  8
0
 62
7
  6
CONTINUOUS
 10
153.9674919177
 20
30.9809642992
 11
154.5456166972
 21
31.1100184796
 12
154.4299918074
 22
31.0777556927
 13
154.4299918074
 23
31.0777556927
  0
SOLID
  8
0
 62
7
  6
CONTINUOUS
 10
154.3143669177
 20
31.0132277988
 11
154.2565543074
 21
30.9164372091
 12
153.9674919177
 22
30.9809642992
 13
153.9674919177
 23
30.9809642992
  0
SOLID
  8
0
 62
7
  6
CONTINUOUS
 10
153.9674919177
 20
30.8841729058
 11
153.9674919177
 21
30.9809642992
 12
154.2565543074
 22
30.9164372091
 13
154.2565543074
 23
30.9164372091
  0
SOLID
  8
0
 62
7
  6
CONTINUOUS
 10
154.2565543074
 20
30.9164372091
 11
154.2565543074
 21
30.8519086025
 12
153.9674919177
 22
30.8841729058
 13
153.9674919177
 23
30.8841729058
  0
SOLID
  8
0
 62
7
  6
CONTINUOUS
 10
154.0253041972
 20
30.7551187255
 11
153.9674919177
 21
30.8841729058
 12
154.2565543074
 22
30.8519086025
 13
154.2565543074
 23
30.8519086025
  0
SOLID
  8
0
 62
7
  6
CONTINUOUS
 10
155.412804528
 20
30.9487004259
 11
155.7018665869
 21
30.8519086025
 12
155.3549915869
 22
30.8841729058
 13
155.3549915869
 23
30.8841729058
  0
SOLID
  8
0
 62
7
  6
CONTINUOUS
 10
155.1815540869
 20
30.7873815123
 11
155.3549915869
 21
30.8841729058
 12
155.7018665869
 22
30.8519086025
 13
155.7018665869
 23
30.8519086025
  0
SOLID
  8
0
 62
7
  6
CONTINUOUS
 10
155.1815540869
 20
30.7873815123
 11
155.7018665869
 21
30.8519086025
 12
155.412804528
 22
30.7551187255
 13
155.412804528
 23
30.7551187255
  0
SOLID
  8
0
 62
7
  6
CONTINUOUS
 10
155.7018665869
 20
30.8519086025
 11
155.759679528
 21
30.6905916353
 12
155.412804528
 22
30.7551187255
 13
155.412804528
 23
30.7551187255
  0
SOLID
  8
0
 62
7
  6
CONTINUOUS
 10
155.4706168074
 20
30.658327332
 11
155.412804528
 21
30.7551187255
 12
155.759679528
 22
30.6905916353
 13
155.759679528
 23
30.6905916353
  0
SOLID
  8
0
 62
7
  6
CONTINUOUS
 10
155.4706168074
 20
30.658327332
 11
155.759679528
 21
30.6905916353
 12
155.5284290869
 22
30.5938002079
 13
155.5284290869
 23
30.5938002079
  0
SOLID
  8
0
 62
7
  6
CONTINUOUS
 10
155.759679528
 20
30.6905916353
 11
155.8174918074
 21
30.5938002079
 12
155.5284290869
 22
30.5938002079
 13
155.5284290869
 23
30.5938002079
  0
SOLID
  8
0
 62
7
  6
CONTINUOUS
 10
151.0768668626
 20
30.8196456577
 11
151.1346793074
 21
30.9164373395
 12
151.4237418626
 22
30.9164373395
 13
151.4237418626
 23
30.9164373395
  0
SOLID
  8
0
 62
7
  6
CONTINUOUS
 10
151.4237418626
 20
30.9164373395
 11
151.3659292523
 21
30.7873815123
 12
151.0768668626
 22
30.8196456577
 13
151.0768668626
 23
30.8196456577
  0
SOLID
  8
0
 62
7
  6
CONTINUOUS
 10
150.9034292799
 20
30.7551187255
 11
151.0768668626
 21
30.8196456577
 12
151.3659292523
 22
30.7873815123
 13
151.3659292523
 23
30.7873815123
  0
SOLID
  8
0
 62
7
  6
CONTINUOUS
 10
150.9034292799
 20
30.7551187255
 11
151.3659292523
 21
30.7873815123
 12
150.498741835
 22
30.7228544222
 13
150.498741835
 23
30.7228544222
  0
SOLID
  8
0
 62
7
  6
CONTINUOUS
 10
151.3659292523
 20
30.7873815123
 11
151.1924917523
 21
30.6905916353
 12
150.498741835
 22
30.7228544222
 13
150.498741835
 23
30.7228544222
  0
SOLID
  8
0
 62
7
  6
CONTINUOUS
 10
150.0362418212
 20
30.658327332
 11
150.498741835
 21
30.7228544222
 12
151.1924917523
 22
30.6905916353
 13
151.1924917523
 23
30.6905916353
  0
SOLID
  8
0
 62
7
  6
CONTINUOUS
 10
150.0362418212
 20
30.658327332
 11
151.1924917523
 21
30.6905916353
 12
150.2096793212
 22
30.6260631011
 13
150.2096793212
 23
30.6260631011
  0
SOLID
  8
0
 62
7
  6
CONTINUOUS
 10
151.1924917523
 20
30.6905916353
 11
150.9612418074
 21
30.6260631011
 12
150.2096793212
 22
30.6260631011
 13
150.2096793212
 23
30.6260631011
  0
SOLID
  8
0
 62
7
  6
CONTINUOUS
 10
150.5565542799
 20
30.5938002419
 11
150.2096793212
 21
30.6260631011
 12
150.9612418074
 22
30.6260631011
 13
150.9612418074
 23
30.6260631011
  0
SOLID
  8
0
 62
7
  6
CONTINUOUS
 10
154.0253041972
 20
30.7551187255
 11
154.2565543074
 21
30.8519086025
 12
154.3143669177
 22
30.7873815123
 13
154.3143669177
 23
30.7873815123
  0
SOLID
  8
0
 62
7
  6
CONTINUOUS
 10
154.3143669177
 20
30.7873815123
 11
154.5456166972
 21
30.7228544222
 12
154.0253041972
 22
30.7551187255
 13
154.0253041972
 23
30.7551187255
  0
SOLID
  8
0
 62
7
  6
CONTINUOUS
 10
154.1987416972
 20
30.658327332
 11
154.0253041972
 21
30.7551187255
 12
154.5456166972
 22
30.7228544222
 13
154.5456166972
 23
30.7228544222
  0
SOLID
  8
0
 62
7
  6
CONTINUOUS
 10
154.8924916972
 20
30.7228544637
 11
155.1815540869
 21
30.7873815123
 12
155.412804528
 22
30.7551187255
 13
155.412804528
 23
30.7551187255
  0
SOLID
  8
0
 62
7
  6
CONTINUOUS
 10
155.412804528
 20
30.7551187255
 11
155.3549915869
 21
30.6905916353
 12
154.8924916972
 22
30.7228544637
 13
154.8924916972
 23
30.7228544637
  0
SOLID
  8
0
 62
7
  6
CONTINUOUS
 10
155.3549915869
 20
30.6905916353
 11
154.1987416972
 21
30.658327332
 12
154.8924916972
 22
30.7228544637
 13
154.8924916972
 23
30.7228544637
  0
SOLID
  8
0
 62
7
  6
CONTINUOUS
 10
154.1987416972
 20
30.658327332
 11
154.5456166972
 21
30.7228544637
 12
154.8924916972
 22
30.7228544637
 13
154.8924916972
 23
30.7228544637
  0
SOLID
  8
0
 62
7
  6
CONTINUOUS
 10
154.1987416972
 20
30.658327332
 11
155.3549915869
 21
30.6905916353
 12
154.3143669177
 22
30.6260630541
 13
154.3143669177
 23
30.6260630541
  0
SOLID
  8
0
 62
7
  6
CONTINUOUS
 10
155.3549915869
 20
30.6905916353
 11
155.1815540869
 21
30.6260630541
 12
154.3143669177
 22
30.6260630541
 13
154.3143669177
 23
30.6260630541
  0
SOLID
  8
0
 62
7
  6
CONTINUOUS
 10
154.5456166972
 20
30.5938002188
 11
154.3143669177
 21
30.6260630541
 12
155.1815540869
 22
30.6260630541
 13
155.1815540869
 23
30.6260630541
  0
SOLID
  8
0
 62
7
  6
CONTINUOUS
 10
155.1815540869
 20
30.6260630541
 11
154.8924916972
 21
30.5938002188
 12
154.5456166972
 22
30.5938002188
 13
154.5456166972
 23
30.5938002188
  0
SOLID
  8
0
 62
7
  6
CONTINUOUS
 10
159.575304528
 20
30.7551187255
 11
159.228429528
 21
30.7228544637
 12
159.4596793074
 22
30.7873815123
 13
159.4596793074
 23
30.7873815123
  0
SOLID
  8
0
 62
7
  6
CONTINUOUS
 10
159.4596793074
 20
30.7873815123
 11
159.228429528
 21
30.7228544637
 12
159.401867028
 22
30.851908644
 13
159.401867028
 23
30.851908644
  0
SOLID
  8
0
 62
7
  6
CONTINUOUS
 10
159.228429528
 20
30.7228544637
 11
159.1128043074
 21
30.851908644
 12
159.401867028
 22
30.851908644
 13
159.401867028
 23
30.851908644
  0
SOLID
  8
0
 62
7
  6
CONTINUOUS
 10
159.575304528
 20
30.7551187255
 11
159.922179528
 21
30.7228544637
 12
159.228429528
 22
30.7228544637
 13
159.228429528
 23
30.7228544637
  0
SOLID
  8
0
 62
7
  6
CONTINUOUS
 10
156.279992028
 20
30.5938002419
 11
156.279992028
 21
31.6262382337
 12
156.5690540869
 22
30.5938002419
 13
156.5690540869
 23
31.6262382337
  0
ENDBLK
  8
0
  6
BYBLOCK
 62
0
  0
BLOCK
  8
0
 62
2
  6
CONTINUOUS
  2
SYMBOL_3_BL0
 70
64
 10
32.1213064866
 20
19.8534310916
  0
TEXT
  8
0
 62
7
  6
CONTINUOUS
 10
18.3860103289
 20
19.2268451992
  7
TEXTSTYLE_3
 40
2.7338706658
  1
Ammeraal Beltech
 41
1.0
 51
15.0
 72
0
  0
TEXT
  8
0
 62
7
  6
CONTINUOUS
 10
29.1868111546
 20
16.9533085264
  7
TEXTSTYLE_4
 40
1.0935482663
  1
Innovation & Service in Belting
 41
1.0
 72
0
  0
LINE
  8
0
 62
7
  6
CONTINUOUS
 10
12.3614696776
 20
19.9934385078
 11
13.1396216709
 21
23.6543558055
  0
LINE
  8
0
 62
7
  6
CONTINUOUS
 10
23.2347899607
 20
27.3177497171
 11
13.6274394139
 21
24.1961322958
  0
LINE
  8
0
 62
7
  6
CONTINUOUS
 10
12.5867530099
 20
19.3000877048
 11
20.093828271
 21
12.5406867788
  0
LINE
  8
0
 62
7
  6
CONTINUOUS
 10
12.8492874206
 20
20.5352149982
 11
23.6575567857
 21
24.0470345971
  0
LINE
  8
0
 62
7
  6
CONTINUOUS
 10
23.6533516486
 20
13.6972460334
 11
15.2078919798
 21
21.3015720751
  0
LINE
  8
0
 62
7
  6
CONTINUOUS
 10
24.1731743684
 20
26.4728246013
 11
23.1966148312
 21
21.8784731989
  0
LINE
  8
0
 62
7
  6
CONTINUOUS
 10
22.4968128835
 20
18.5861638851
 11
21.810364672
 21
15.3566789607
  0
LINE
  8
0
 62
7
  6
CONTINUOUS
 10
24.8542704669
 20
14.087448211
 11
25.8105020025
 21
18.5861638851
  0
LINE
  8
0
 62
7
  6
CONTINUOUS
 10
26.5103039502
 20
21.8784731989
 11
26.9545457526
 21
23.9684665583
  0
LINE
  8
0
 62
7
  6
CONTINUOUS
 10
20.8069293463
 20
12.3891124661
 11
24.3664527239
 21
13.5456717207
  0
LINE
  8
0
 62
7
  6
CONTINUOUS
 10
23.9478910361
 20
27.1661754044
 11
26.7292624203
 21
24.6618173613
  0
ARC
  8
0
 62
7
  6
CONTINUOUS
 10
13.8527227462
 20
23.5027814928
 40
0.7290321776
 50
108.0
 51
168.0
  0
ARC
  8
0
 62
7
  6
CONTINUOUS
 10
23.4600732931
 20
26.624398914
 40
0.7290321776
 50
348.0
 51
108.0
  0
ARC
  8
0
 62
7
  6
CONTINUOUS
 10
26.2414446773
 20
24.120040871
 40
0.7290321776
 50
348.0
 51
48.0
  0
ARC
  8
0
 62
7
  6
CONTINUOUS
 10
20.581646014
 20
13.0824632691
 40
0.7290321776
 50
228.0
 51
288.0
  0
ARC
  8
0
 62
7
  6
CONTINUOUS
 10
13.0745707529
 20
19.8418641951
 40
0.7290321776
 50
108.0
 51
228.0
  0
ARC
  8
0
 62
7
  6
CONTINUOUS
 10
24.1411693916
 20
14.2390225237
 40
0.7290321776
 50
228.0
 51
348.0
  0
ENDBLK
  8
0
  6
BYBLOCK
 62
0
  0
ENDSEC
  0
SECTION
  2
ENTITIES
  0
TEXT
  8
0
 62
5
  6
CONTINUOUS
 10
96.0
 20
25.636
  7
TEXTSTYLE_2
 40
2.8
  1
Scale :
 41
0.6
 51
0.000019
 72
0
  0
TEXT
  8
0
 62
5
  6
CONTINUOUS
 10
116.0
 20
25.636
  7
TEXTSTYLE_2
 40
2.8
  1
Belt type:
 41
0.6
 51
0.000019
 72
0
  0
INSERT
  8
0
 62
2
  6
CONTINUOUS
  2
SYMBOL_3_BL0
 10
32.1213064866
 20
19.8534310916
  0
INSERT
  8
0
 62
2
  6
CONTINUOUS
  2
SYMBOL_8_BL1
 10
173.5956734183
 20
35.5937998301
  0
LINE
  8
0
 62
2
  6
CONTINUOUS
 10
497.989032644
 20
128.9174372928
 11
583.989032644
 21
128.9174372928
  0
LINE
  8
0
 62
2
  6
CONTINUOUS
 10
497.989032644
 20
128.9174372928
 11
497.989032644
 21
108.9174372928
  0
LINE
  8
0
 62
2
  6
CONTINUOUS
 10
497.989032644
 20
123.9174372928
 11
583.989032644
 21
123.9174372928
  0
LINE
  8
0
 62
2
  6
CONTINUOUS
 10
497.989032644
 20
118.9174372928
 11
583.989032644
 21
118.9174372928
  0
LINE
  8
0
 62
2
  6
CONTINUOUS
 10
497.989032644
 20
113.9174372928
 11
583.989032644
 21
113.9174372928
  0
LINE
  8
0
 62
2
  6
CONTINUOUS
 10
497.989032644
 20
108.9174372928
 11
583.989032644
 21
108.9174372928
  0
LINE
  8
0
 62
2
  6
CONTINUOUS
 10
505.989032644
 20
128.9174372928
 11
505.989032644
 21
108.9174372928
  0
LINE
  8
0
 62
2
  6
CONTINUOUS
 10
559.989032644
 20
128.9174372928
 11
559.989032644
 21
108.9174372928
  0
LINE
  8
0
 62
2
  6
CONTINUOUS
 10
571.989032644
 20
128.9174372928
 11
571.989032644
 21
108.9174372928
  0
LINE
  8
0
 62
2
  6
CONTINUOUS
 10
583.989032644
 20
128.9174372928
 11
583.989032644
 21
108.9174372928
  0
TEXT
  8
0
 62
4
  6
CONTINUOUS
 10
500.629032644
 20
124.7174372928
  7
STANDARD
 40
3.4
  1
H
 41
0.8
 72
1
 11
501.989032644
 21
124.7174372928
  0
TEXT
  8
0
 62
4
  6
CONTINUOUS
 10
507.349032644
 20
124.7174372928
  7
TEXTSTYLE_2
 40
3.4
  1
Snapfunktion opdateret
 41
0.6
 72
0
  0
TEXT
  8
0
 62
4
  6
CONTINUOUS
 10
552.229032644
 20
124.7174372928
  7
TEXTSTYLE_2
 40
3.4
  1
 
 41
0.6
 72
0
  0
TEXT
  8
0
 62
4
  6
CONTINUOUS
 10
561.229032644
 20
124.7174372928
  7
TEXTSTYLE_5
 40
3.4
  1
29/06-06
 41
0.35
 72
1
 11
565.989032644
 21
124.7174372928
  0
TEXT
  8
0
 62
4
  6
CONTINUOUS
 10
573.909032644
 20
124.7174372928
  7
STANDARD
 40
3.4
  1
PSR
 41
0.8
 72
1
 11
577.989032644
 21
124.7174372928
  0
TEXT
  8
0
 62
4
  6
CONTINUOUS
 10
500.629032644
 20
119.7174372928
  7
STANDARD
 40
3.4
  1
G
 41
0.8
 72
1
 11
501.989032644
 21
119.7174372928
  0
TEXT
  8
0
 62
4
  6
CONTINUOUS
 10
507.349032644
 20
119.7174372928
  7
TEXTSTYLE_2
 40
3.4
  1
Betegnelse ændret
 41
0.6
 72
0
  0
TEXT
  8
0
 62
4
  6
CONTINUOUS
 10
561.229032644
 20
119.7174372928
  7
TEXTSTYLE_5
 40
3.4
  1
28/06-06
 41
0.35
 72
1
 11
565.989032644
 21
119.7174372928
  0
TEXT
  8
0
 62
4
  6
CONTINUOUS
 10
573.909032644
 20
119.7174372928
  7
STANDARD
 40
3.4
  1
PSR
 41
0.8
 72
1
 11
577.989032644
 21
119.7174372928
  0
TEXT
  8
0
 62
4
  6
CONTINUOUS
 10
500.629032644
 20
114.7174372928
  7
STANDARD
 40
3.4
  1
F
 41
0.8
 72
1
 11
501.989032644
 21
114.7174372928
  0
TEXT
  8
0
 62
4
  6
CONTINUOUS
 10
507.349032644
 20
114.7174372928
  7
TEXTSTYLE_6
 40
3.4
  1
Materiale POM-S til POM-SX
 41
0.5
 72
0
  0
TEXT
  8
0
 62
4
  6
CONTINUOUS
 10
561.229032644
 20
114.7174372928
  7
TEXTSTYLE_5
 40
3.4
  1
06/04-06
 41
0.35
 72
1
 11
565.989032644
 21
114.7174372928
  0
TEXT
  8
0
 62
4
  6
CONTINUOUS
 10
573.909032644
 20
114.7174372928
  7
STANDARD
 40
3.4
  1
MTH
 41
0.8
 72
1
 11
577.989032644
 21
114.7174372928
  0
TEXT
  8
0
 62
4
  6
CONTINUOUS
 10
500.629032644
 20
109.7174372928
  7
STANDARD
 40
3.4
  1
E
 41
0.8
 72
1
 11
501.989032644
 21
109.7174372928
  0
TEXT
  8
0
 62
4
  6
CONTINUOUS
 10
507.349032644
 20
109.7174372928
  7
TEXTSTYLE_2
 40
3.4
  1
Indløbspunkt tilføjet
 41
0.6
 72
0
  0
TEXT
  8
0
 62
4
  6
CONTINUOUS
 10
561.229032644
 20
109.7174372928
  7
TEXTSTYLE_5
 40
3.4
  1
30/03-06
 41
0.35
 72
1
 11
565.989032644
 21
109.7174372928
  0
TEXT
  8
0
 62
4
  6
CONTINUOUS
 10
573.909032644
 20
109.7174372928
  7
STANDARD
 40
3.4
  1
PSR
 41
0.8
 72
1
 11
577.989032644
 21
109.7174372928
  0
LINE
  8
0
 62
2
  6
CONTINUOUS
 10
10.0
 20
30.0
 11
200.0
 21
30.0
  0
LINE
  8
0
 62
2
  6
CONTINUOUS
 10
10.0
 20
30.0
 11
10.0
 21
10.0
  0
LINE
  8
0
 62
2
  6
CONTINUOUS
 10
10.0
 20
10.0
 11
200.0
 21
10.0
  0
LINE
  8
0
 62
2
  6
CONTINUOUS
 10
95.0
 20
30.0
 11
95.0
 21
10.0
  0
LINE
  8
0
 62
2
  6
CONTINUOUS
 10
115.0
 20
30.0
 11
115.0
 21
10.0
  0
LINE
  8
0
 62
2
  6
CONTINUOUS
 10
200.0
 20
30.0
 11
200.0
 21
10.0
  0
TEXT
  8
0
 62
5
  6
CONTINUOUS
 10
13.0
 20
23.303
  7
TEXTSTYLE_7
 40
1.52
  1
                                                                     Ammeraal Beltech Modular A/S
 41
1.0
 72
0
  0
TEXT
  8
0
 62
5
  6
CONTINUOUS
 10
13.0
 20
20.595
  7
TEXTSTYLE_7
 40
1.5
  1
                                                                      Hjulmagervej 21,  7100 Vejle,  DK
 41
1.0
 72
0
  0
TEXT
  8
0
 62
5
  6
CONTINUOUS
 10
13.0
 20
17.881
  7
TEXTSTYLE_7
 40
1.495
  1
                                                                      tel: 
 41
1.0
 72
0
  0
TEXT
  8
0
 62
5
  6
CONTINUOUS
 10
57.9869465649
 20
17.881
  7
TEXTSTYLE_7
 40
1.51
  1
+45 75723100     fax: +45 75723348
 41
1.0
 72
0
  0
TEXT
  8
0
 62
5
  6
CONTINUOUS
 10
13.0
 20
15.177
  7
TEXTSTYLE_7
 40
1.5
  1
                                                                      admin@unichains.dk  www.unichains.com
 41
1.0
 72
0
  0
TEXT
  8
0
 62
5
  6
CONTINUOUS
 10
99.75
 20
13.75
  7
TEXTSTYLE_8
 40
5.0
  1
1:1
 41
0.7
 72
1
 11
105.0
 21
13.75
  0
TEXT
  8
0
 62
5
  6
CONTINUOUS
 10
118.0
 20
13.75
  7
TEXTSTYLE_9
 40
7.5
  1
uni FLEX ONE O K750
 41
0.5427631579
 72
0
  0
LINE
  8
0
 62
7
  6
CONTINUOUS
 10
210.0
 20
0.0
 11
0.0
 21
0.0
  0
LINE
  8
0
 62
7
  6
CONTINUOUS
 10
10.0
 20
10.0
 11
200.0
 21
10.0
  0
LINE
  8
0
 62
7
  6
CONTINUOUS
 10
10.0
 20
30.0
 11
200.0
 21
30.0
  0
LINE
  8
0
 62
7
  6
CONTINUOUS
 10
0.0
 20
0.0
 11
0.0
 21
297.0
  0
LINE
  8
0
 62
7
  6
CONTINUOUS
 10
10.0
 20
10.0
 11
10.0
 21
287.0
  0
LINE
  8
0
 62
7
  6
CONTINUOUS
 10
200.0
 20
287.0
 11
200.0
 21
10.0
  0
LINE
  8
0
 62
7
  6
CONTINUOUS
 10
210.0
 20
0.0
 11
210.0
 21
297.0
  0
LINE
  8
0
 62
7
  6
CONTINUOUS
 10
10.0
 20
287.0
 11
200.0
 21
287.0
  0
LINE
  8
0
 62
7
  6
CONTINUOUS
 10
0.0
 20
297.0
 11
210.0
 21
297.0
  0
LINE
  8
0
 62
7
  6
CONTINUOUS
 10
48.9220772196
 20
35.9166650867
 11
43.9220824757
 21
35.9166650867
  0
POLYLINE
  8
0
 62
7
  6
CONTINUOUS
 66
1
 70
0
  0
VERTEX
  8
0
 62
7
  6
CONTINUOUS
 10
66.9220798477
 20
48.6166650867
  0
VERTEX
  8
0
 62
7
  6
CONTINUOUS
 10
67.5076442562
 20
48.6483977588
  0
VERTEX
  8
0
 62
7
  6
CONTINUOUS
 10
68.0267961579
 20
48.7374828369
  0
VERTEX
  8
0
 62
7
  6
CONTINUOUS
 10
68.4897397539
 20
48.8767688451
  0
VERTEX
  8
0
 62
7
  6
CONTINUOUS
 10
68.9066240637
 20
49.0624059408
  0
VERTEX
  8
0
 62
7
  6
CONTINUOUS
 10
69.2876157206
 20
49.2949630041
  0
VERTEX
  8
0
 62
7
  6
CONTINUOUS
 10
69.6386943905
 20
49.577401816
  0
VERTEX
  8
0
 62
7
  6
CONTINUOUS
 10
69.9649234003
 20
49.9167188117
  0
VERTEX
  8
0
 62
7
  6
CONTINUOUS
 10
70.2687382718
 20
50.3231266339
  0
VERTEX
  8
0
 62
7
  6
CONTINUOUS
 10
70.5483080524
 20
50.8067801517
  0
VERTEX
  8
0
 62
7
  6
CONTINUOUS
 10
70.7984470577
 20
51.3749784403
  0
VERTEX
  8
0
 62
7
  6
CONTINUOUS
 10
71.0123537484
 20
52.0295821743
  0
VERTEX
  8
0
 62
7
  6
CONTINUOUS
 10
71.1854402294
 20
52.7743241439
  0
VERTEX
  8
0
 62
7
  6
CONTINUOUS
 10
71.3138624817
 20
53.6139510485
  0
VERTEX
  8
0
 62
7
  6
CONTINUOUS
 10
71.3940737403
 20
54.5557748178
  0
VERTEX
  8
0
 62
7
  6
CONTINUOUS
 10
71.4220798477
 20
55.6166650867
  0
SEQEND
  0
LINE
  8
0
 62
7
  6
CONTINUOUS
 10
34.9220798477
 20
48.6166650867
 11
40.7138759152
 21
48.6166650867
  0
LINE
  8
0
 62
7
  6
CONTINUOUS
 10
54.1302837802
 20
48.6166650867
 11
66.9220798477
 21
48.6166650867
  0
LINE
  8
0
 62
7
  6
CONTINUOUS
 10
53.2008961397
 20
48.703800483
 11
53.195467356
 21
48.7048305767
  0
LINE
  8
0
 62
7
  6
CONTINUOUS
 10
49.9125840137
 20
71.6166650867
 11
42.1526471624
 21
71.6166650867
  0
LINE
  8
0
 62
7
  6
CONTINUOUS
 10
77.3036735193
 20
72.6166650867
 11
80.8447661669
 21
72.6166650867
  0
LINE
  8
0
 62
7
  6
CONTINUOUS
 10
34.8720798477
 20
75.6166650867
 11
38.2232695899
 21
75.6166650867
  0
LINE
  8
0
 62
7
  6
CONTINUOUS
 10
34.8720981813
 20
81.6166650867
 11
38.8463842659
 21
81.6166650867
  0
LINE
  8
0
 62
7
  6
CONTINUOUS
 10
80.8447667503
 20
84.6166650867
 11
71.6189456297
 21
84.6166650867
  0
LINE
  8
0
 62
7
  6
CONTINUOUS
 10
38.1962780665
 20
85.6166650867
 11
43.6775172011
 21
85.6166650867
  0
LINE
  8
0
 62
7
  6
CONTINUOUS
 10
43.6775172011
 20
97.6166650867
 11
38.1962780665
 21
97.6166650867
  0
LINE
  8
0
 62
7
  6
CONTINUOUS
 10
71.6189456297
 20
98.6166650867
 11
80.8447661669
 21
98.6166650867
  0
POLYLINE
  8
0
 62
7
  6
CONTINUOUS
 66
1
 70
0
  0
VERTEX
  8
0
 62
7
  6
CONTINUOUS
 10
41.8211438939
 20
97.6166659567
  0
VERTEX
  8
0
 62
7
  6
CONTINUOUS
 10
41.6797836098
 20
97.62670774
  0
VERTEX
  8
0
 62
7
  6
CONTINUOUS
 10
41.5410956276
 20
97.6566800345
  0
VERTEX
  8
0
 62
7
  6
CONTINUOUS
 10
41.4080456818
 20
97.7059794738
  0
VERTEX
  8
0
 62
7
  6
CONTINUOUS
 10
41.2833124732
 20
97.7736135493
  0
VERTEX
  8
0
 62
7
  6
CONTINUOUS
 10
41.1694072681
 20
97.8582206028
  0
VERTEX
  8
0
 62
7
  6
CONTINUOUS
 10
41.0686233263
 20
97.958097245
  0
VERTEX
  8
0
 62
7
  6
CONTINUOUS
 10
40.9829897208
 20
98.0712326615
  0
VERTEX
  8
0
 62
7
  6
CONTINUOUS
 10
40.9142304827
 20
98.1953491209
  0
VERTEX
  8
0
 62
7
  6
CONTINUOUS
 10
40.8637299148
 20
98.32794782
  0
VERTEX
  8
0
 62
7
  6
CONTINUOUS
 10
40.8325047262
 20
98.4663591873
  0
VERTEX
  8
0
 62
7
  6
CONTINUOUS
 10
40.8211835637
 20
98.6077966271
  0
VERTEX
  8
0
 62
7
  6
CONTINUOUS
 10
40.8250830229
 20
98.7053333494
  0
SEQEND
  0
LINE
  8
0
 62
7
  6
CONTINUOUS
 10
51.4044417575
 20
100.0401045678
 11
51.8395534571
 21
99.9235167392
  0
POLYLINE
  8
0
 62
7
  6
CONTINUOUS
 66
1
 70
0
  0
VERTEX
  8
0
 62
7
  6
CONTINUOUS
 10
34.1824726761
 20
88.4384994372
  0
VERTEX
  8
0
 62
7
  6
CONTINUOUS
 10
34.2527588864
 20
88.3263284836
  0
VERTEX
  8
0
 62
7
  6
CONTINUOUS
 10
34.308316425
 20
88.2039888553
  0
VERTEX
  8
0
 62
7
  6
CONTINUOUS
 10
34.3469712998
 20
88.0753053974
  0
VERTEX
  8
0
 62
7
  6
CONTINUOUS
 10
34.3680255794
 20
87.9426013753
  0
VERTEX
  8
0
 62
7
  6
CONTINUOUS
 10
34.372082711
 20
87.8526144873
  0
SEQEND
  0
LINE
  8
0
 62
7
  6
CONTINUOUS
 10
40.537744127
 20
101.6166650867
 11
34.8720979649
 21
101.6166650867
  0
POLYLINE
  8
SURFACE
 62
7
  6
CONTINUOUS
 66
1
 70
0
  0
VERTEX
  8
SURFACE
 62
7
  6
CONTINUOUS
 10
83.0811433992
 20
204.9002827173
  0
VERTEX
  8
SURFACE
 62
7
  6
CONTINUOUS
 10
83.3918607747
 20
205.1587926978
  0
VERTEX
  8
SURFACE
 62
7
  6
CONTINUOUS
 10
83.6778332164
 20
205.4175496554
  0
VERTEX
  8
SURFACE
 62
7
  6
CONTINUOUS
 10
83.9314572349
 20
205.665938792
  0
VERTEX
  8
SURFACE
 62
7
  6
CONTINUOUS
 10
84.148796347
 20
205.8947873857
  0
VERTEX
  8
SURFACE
 62
7
  6
CONTINUOUS
 10
84.32792873
 20
206.0959036535
  0
SEQEND
  0
LINE
  8
0
 62
7
  6
CONTINUOUS
 10
51.8395534571
 20
109.3098134341
 11
51.4044417575
 21
109.1932256056
  0
LINE
  8
0
 62
7
  6
CONTINUOUS
 10
34.8720979649
 20
107.6166650867
 11
41.1608766157
 21
107.6166650867
  0
LINE
  8
0
 62
7
  6
CONTINUOUS
 10
80.8447660718
 20
110.6166650867
 11
71.6189456297
 21
110.6166650867
  0
LINE
  8
0
 62
7
  6
CONTINUOUS
 10
38.1962780665
 20
111.6166650867
 11
43.6775172011
 21
111.6166650867
  0
POLYLINE
  8
0
 62
7
  6
CONTINUOUS
 66
1
 70
0
  0
VERTEX
  8
0
 62
7
  6
CONTINUOUS
 10
83.0811433992
 20
82.833047456
  0
VERTEX
  8
0
 62
7
  6
CONTINUOUS
 10
83.3918607747
 20
82.5745374755
  0
VERTEX
  8
0
 62
7
  6
CONTINUOUS
 10
83.6778332164
 20
82.3157805179
  0
VERTEX
  8
0
 62
7
  6
CONTINUOUS
 10
83.9314572349
 20
82.0673913813
  0
VERTEX
  8
0
 62
7
  6
CONTINUOUS
 10
84.148796347
 20
81.8385427876
  0
VERTEX
  8
0
 62
7
  6
CONTINUOUS
 10
84.32792873
 20
81.6374265198
  0
SEQEND
  0
POLYLINE
  8
0
 62
7
  6
CONTINUOUS
 66
1
 70
0
  0
VERTEX
  8
0
 62
7
  6
CONTINUOUS
 10
34.1824726761
 20
114.4384994372
  0
VERTEX
  8
0
 62
7
  6
CONTINUOUS
 10
34.2527588861
 20
114.3263284841
  0
VERTEX
  8
0
 62
7
  6
CONTINUOUS
 10
34.3083164249
 20
114.2039888556
  0
VERTEX
  8
0
 62
7
  6
CONTINUOUS
 10
34.3469712998
 20
114.0753053977
  0
VERTEX
  8
0
 62
7
  6
CONTINUOUS
 10
34.3680255794
 20
113.9426013755
  0
VERTEX
  8
0
 62
7
  6
CONTINUOUS
 10
34.372082711
 20
113.8526144873
  0
SEQEND
  0
POLYLINE
  8
SURFACE
 62
7
  6
CONTINUOUS
 66
1
 70
0
  0
VERTEX
  8
SURFACE
 62
7
  6
CONTINUOUS
 10
33.9231908088
 20
146.0785257238
  0
VERTEX
  8
SURFACE
 62
7
  6
CONTINUOUS
 10
33.9283395743
 20
145.7672279932
  0
VERTEX
  8
SURFACE
 62
7
  6
CONTINUOUS
 10
33.9294615309
 20
145.656189161
  0
SEQEND
  0
LINE
  8
SURFACE
 62
7
  6
CONTINUOUS
 10
33.9221749349
 20
146.1660732732
 11
33.9231908088
 21
146.0785257238
  0
LINE
  8
SURFACE
 62
7
  6
CONTINUOUS
 10
33.9294615309
 20
145.656189161
 11
33.9299847725
 21
145.5166650868
  0
LINE
  8
SURFACE
 62
7
  6
CONTINUOUS
 10
33.9220798477
 20
146.6096158618
 11
33.9221749349
 21
146.1660732732
  0
LINE
  8
0
 62
7
  6
CONTINUOUS
 10
33.9220798477
 20
120.1096158618
 11
33.9220798477
 21
115.1237143115
  0
LINE
  8
0
 62
7
  6
CONTINUOUS
 10
33.9220798477
 20
94.1096158618
 11
33.9220798477
 21
89.1237143115
  0
LINE
  8
0
 62
7
  6
CONTINUOUS
 10
33.9220798477
 20
64.9366277311
 11
33.9220798477
 21
49.6166650867
  0
LINE
  8
0
 62
7
  6
CONTINUOUS
 10
33.9220798477
 20
146.1944371723
 11
33.9220798477
 21
146.6096158618
  0
LINE
  8
0
 62
7
  6
CONTINUOUS
 10
33.9220798477
 20
167.6237143115
 11
33.9220798477
 21
172.6096158618
  0
LINE
  8
SURFACE
 62
7
  6
CONTINUOUS
 10
33.9220798477
 20
167.6237143115
 11
33.9220798477
 21
172.6096158618
  0
LINE
  8
0
 62
7
  6
CONTINUOUS
 10
33.9220798477
 20
193.6237143115
 11
33.9220798477
 21
198.6096158618
  0
LINE
  8
SURFACE
 62
7
  6
CONTINUOUS
 10
33.9220798477
 20
193.6237143115
 11
33.9220798477
 21
198.6096158618
  0
LINE
  8
0
 62
7
  6
CONTINUOUS
 10
33.9220798477
 20
222.7967024422
 11
33.9220798477
 21
238.1166650867
  0
LINE
  8
SURFACE
 62
7
  6
CONTINUOUS
 10
33.9220798477
 20
222.7967024422
 11
33.9220798477
 21
238.1166650867
  0
LINE
  8
SURFACE
 62
7
  6
CONTINUOUS
 10
33.9299836381
 20
142.2166650867
 11
33.9299836381
 21
145.5166650867
  0
LINE
  8
0
 62
7
  6
CONTINUOUS
 10
34.3720798477
 20
75.1166650867
 11
34.3720798477
 21
66.3975558827
  0
LINE
  8
SURFACE
 62
7
  6
CONTINUOUS
 10
34.3720798477
 20
82.1166650867
 11
34.3720798477
 21
87.848069869
  0
LINE
  8
SURFACE
 62
7
  6
CONTINUOUS
 10
34.3720798477
 20
95.3852598562
 11
34.3720798477
 21
101.1166650867
  0
LINE
  8
SURFACE
 62
7
  6
CONTINUOUS
 10
34.3720798477
 20
108.1166650867
 11
34.3720798477
 21
113.8480698691
  0
LINE
  8
SURFACE
 62
7
  6
CONTINUOUS
 10
34.3720798477
 20
121.3852598562
 11
34.3720798477
 21
127.1166650867
  0
LINE
  8
SURFACE
 62
7
  6
CONTINUOUS
 10
34.3720798477
 20
134.1166650867
 11
34.3720798477
 21
139.8481140681
  0
LINE
  8
SURFACE
 62
7
  6
CONTINUOUS
 10
34.3720798477
 20
147.8852161053
 11
34.3720798477
 21
153.6166650867
  0
LINE
  8
SURFACE
 62
7
  6
CONTINUOUS
 10
34.3720798477
 20
160.6166650867
 11
34.3720798477
 21
166.3480703171
  0
LINE
  8
SURFACE
 62
7
  6
CONTINUOUS
 10
34.3720798477
 20
173.8852603043
 11
34.3720798477
 21
179.6166650867
  0
LINE
  8
SURFACE
 62
7
  6
CONTINUOUS
 10
34.3720798477
 20
186.6166650867
 11
34.3720798477
 21
192.3480703171
  0
LINE
  8
SURFACE
 62
7
  6
CONTINUOUS
 10
34.3720798477
 20
199.8852603043
 11
34.3720798477
 21
205.6166650867
  0
LINE
  8
SURFACE
 62
7
  6
CONTINUOUS
 10
34.3720798477
 20
212.6166650867
 11
34.3720798477
 21
221.3357742906
  0
POLYLINE
  8
0
 62
7
  6
CONTINUOUS
 66
1
 70
0
  0
VERTEX
  8
0
 62
7
  6
CONTINUOUS
 10
33.9299847725
 20
142.2166650865
  0
VERTEX
  8
0
 62
7
  6
CONTINUOUS
 10
33.9294615309
 20
142.0771410123
  0
VERTEX
  8
0
 62
7
  6
CONTINUOUS
 10
33.9283395743
 20
141.9661021802
  0
SEQEND
  0
POLYLINE
  8
0
 62
7
  6
CONTINUOUS
 66
1
 70
0
  0
VERTEX
  8
0
 62
7
  6
CONTINUOUS
 10
33.9231908088
 20
141.6548044496
  0
VERTEX
  8
0
 62
7
  6
CONTINUOUS
 10
33.9221749349
 20
141.5672569002
  0
VERTEX
  8
0
 62
7
  6
CONTINUOUS
 10
33.9220798477
 20
141.1237143115
  0
SEQEND
  0
LINE
  8
0
 62
7
  6
CONTINUOUS
 10
33.9283395743
 20
141.9661021802
 11
33.9231908088
 21
141.6548044496
  0
POLYLINE
  8
SURFACE
 62
7
  6
CONTINUOUS
 66
1
 70
0
  0
VERTEX
  8
SURFACE
 62
7
  6
CONTINUOUS
 10
34.372082711
 20
199.880715686
  0
VERTEX
  8
SURFACE
 62
7
  6
CONTINUOUS
 10
34.3683115405
 20
199.7939518237
  0
VERTEX
  8
SURFACE
 62
7
  6
CONTINUOUS
 10
34.3475188523
 20
199.660435506
  0
VERTEX
  8
SURFACE
 62
7
  6
CONTINUOUS
 10
34.3089155393
 20
199.530941776
  0
VERTEX
  8
SURFACE
 62
7
  6
CONTINUOUS
 10
34.2532066528
 20
199.4078350549
  0
VERTEX
  8
SURFACE
 62
7
  6
CONTINUOUS
 10
34.1824726766
 20
199.2948307368
  0
SEQEND
  0
POLYLINE
  8
SURFACE
 62
7
  6
CONTINUOUS
 66
1
 70
0
  0
VERTEX
  8
SURFACE
 62
7
  6
CONTINUOUS
 10
34.372082711
 20
173.880715686
  0
VERTEX
  8
SURFACE
 62
7
  6
CONTINUOUS
 10
34.3683115405
 20
173.7939518236
  0
VERTEX
  8
SURFACE
 62
7
  6
CONTINUOUS
 10
34.3475188523
 20
173.6604355058
  0
VERTEX
  8
SURFACE
 62
7
  6
CONTINUOUS
 10
34.3089155392
 20
173.5309417756
  0
VERTEX
  8
SURFACE
 62
7
  6
CONTINUOUS
 10
34.2532066526
 20
173.4078350545
  0
VERTEX
  8
SURFACE
 62
7
  6
CONTINUOUS
 10
34.1824726766
 20
173.2948307368
  0
SEQEND
  0
POLYLINE
  8
SURFACE
 62
7
  6
CONTINUOUS
 66
1
 70
0
  0
VERTEX
  8
SURFACE
 62
7
  6
CONTINUOUS
 10
34.372082682
 20
147.8807156098
  0
VERTEX
  8
SURFACE
 62
7
  6
CONTINUOUS
 10
34.3683096562
 20
147.7939304388
  0
VERTEX
  8
SURFACE
 62
7
  6
CONTINUOUS
 10
34.3475104531
 20
147.6603983465
  0
VERTEX
  8
SURFACE
 62
7
  6
CONTINUOUS
 10
34.3088981129
 20
147.5308950714
  0
VERTEX
  8
SURFACE
 62
7
  6
CONTINUOUS
 10
34.2531798252
 20
147.4077850007
  0
VERTEX
  8
SURFACE
 62
7
  6
CONTINUOUS
 10
34.1824726243
 20
147.294830566
  0
SEQEND
  0
POLYLINE
  8
0
 62
7
  6
CONTINUOUS
 66
1
 70
0
  0
VERTEX
  8
0
 62
7
  6
CONTINUOUS
 10
34.3720827181
 20
121.3807157048
  0
VERTEX
  8
0
 62
7
  6
CONTINUOUS
 10
34.3680255405
 20
121.2907283103
  0
VERTEX
  8
0
 62
7
  6
CONTINUOUS
 10
34.3469710802
 20
121.1580238078
  0
VERTEX
  8
0
 62
7
  6
CONTINUOUS
 10
34.3083159002
 20
121.0293399287
  0
VERTEX
  8
0
 62
7
  6
CONTINUOUS
 10
34.2527579472
 20
120.9069999615
  0
VERTEX
  8
0
 62
7
  6
CONTINUOUS
 10
34.1824726881
 20
120.7948307768
  0
SEQEND
  0
POLYLINE
  8
0
 62
7
  6
CONTINUOUS
 66
1
 70
0
  0
VERTEX
  8
0
 62
7
  6
CONTINUOUS
 10
34.1824726238
 20
140.4384996079
  0
VERTEX
  8
0
 62
7
  6
CONTINUOUS
 10
34.2528326503
 20
140.3261913977
  0
VERTEX
  8
0
 62
7
  6
CONTINUOUS
 10
34.3083550298
 20
140.203886013
  0
VERTEX
  8
0
 62
7
  6
CONTINUOUS
 10
34.34698657
 20
140.0752385111
  0
VERTEX
  8
0
 62
7
  6
CONTINUOUS
 10
34.3680284377
 20
139.9425694998
  0
VERTEX
  8
0
 62
7
  6
CONTINUOUS
 10
34.372082682
 20
139.8526145636
  0
SEQEND
  0
POLYLINE
  8
SURFACE
 62
7
  6
CONTINUOUS
 66
1
 70
0
  0
VERTEX
  8
SURFACE
 62
7
  6
CONTINUOUS
 10
40.8250830229
 20
189.0279968239
  0
VERTEX
  8
SURFACE
 62
7
  6
CONTINUOUS
 10
40.8211578927
 20
189.1218909474
  0
VERTEX
  8
SURFACE
 62
7
  6
CONTINUOUS
 10
40.8320161901
 20
189.2637217231
  0
VERTEX
  8
SURFACE
 62
7
  6
CONTINUOUS
 10
40.8628884027
 20
189.4025769666
  0
VERTEX
  8
SURFACE
 62
7
  6
CONTINUOUS
 10
40.9131498673
 20
189.535647101
  0
VERTEX
  8
SURFACE
 62
7
  6
CONTINUOUS
 10
40.9817836051
 20
189.6602396041
  0
VERTEX
  8
SURFACE
 62
7
  6
CONTINUOUS
 10
41.0674008981
 20
189.7738334859
  0
VERTEX
  8
SURFACE
 62
7
  6
CONTINUOUS
 10
41.1682693841
 20
189.8741302941
  0
VERTEX
  8
SURFACE
 62
7
  6
CONTINUOUS
 10
41.2823480821
 20
189.9591006071
  0
VERTEX
  8
SURFACE
 62
7
  6
CONTINUOUS
 10
41.4073286951
 20
190.0270251254
  0
VERTEX
  8
SURFACE
 62
7
  6
CONTINUOUS
 10
41.5406823277
 20
190.0765294739
  0
VERTEX
  8
SURFACE
 62
7
  6
CONTINUOUS
 10
41.6797106708
 20
190.1066120153
  0
VERTEX
  8
SURFACE
 62
7
  6
CONTINUOUS
 10
41.8211438939
 20
190.1166642167
  0
SEQEND
  0
LINE
  8
DEFAULT_1
 62
7
  6
CENTER
 10
38.3720798477
 20
46.4359774956
 11
38.3720798477
 21
241.7307155719
  0
LINE
  8
SURFACE
 62
7
  6
CONTINUOUS
 10
41.4220798477
 20
249.3166650867
 11
41.4220798477
 21
240.6166650867
  0
LINE
  8
0
 62
7
  6
CONTINUOUS
 10
41.4220798477
 20
47.1166650867
 11
41.4220798477
 21
38.4166650867
  0
LINE
  8
SURFACE
 62
7
  6
CONTINUOUS
 10
42.3720798477
 20
124.6166650867
 11
42.3720798477
 21
127.1166650867
  0
LINE
  8
SURFACE
 62
7
  6
CONTINUOUS
 10
42.3720798477
 20
134.1166650867
 11
42.3720798477
 21
136.0240344928
  0
LINE
  8
SURFACE
 62
7
  6
CONTINUOUS
 10
42.3720798477
 20
151.7092956805
 11
42.3720798477
 21
153.6166650867
  0
LINE
  8
SURFACE
 62
7
  6
CONTINUOUS
 10
42.3720798477
 20
160.6166650867
 11
42.3720798477
 21
163.1166650867
  0
POLYLINE
  8
0
 62
7
  6
CONTINUOUS
 66
1
 70
0
  0
VERTEX
  8
0
 62
7
  6
CONTINUOUS
 10
34.3720827181
 20
95.3807157048
  0
VERTEX
  8
0
 62
7
  6
CONTINUOUS
 10
34.3680255405
 20
95.2907283103
  0
VERTEX
  8
0
 62
7
  6
CONTINUOUS
 10
34.3469710802
 20
95.1580238078
  0
VERTEX
  8
0
 62
7
  6
CONTINUOUS
 10
34.3083159002
 20
95.0293399287
  0
VERTEX
  8
0
 62
7
  6
CONTINUOUS
 10
34.2527579472
 20
94.9069999615
  0
VERTEX
  8
0
 62
7
  6
CONTINUOUS
 10
34.1824726881
 20
94.7948307768
  0
SEQEND
  0
POLYLINE
  8
0
 62
7
  6
CONTINUOUS
 66
1
 70
0
  0
VERTEX
  8
0
 62
7
  6
CONTINUOUS
 10
42.3720798292
 20
136.0240353499
  0
VERTEX
  8
0
 62
7
  6
CONTINUOUS
 10
42.3773022858
 20
136.1261021838
  0
VERTEX
  8
0
 62
7
  6
CONTINUOUS
 10
42.4028827875
 20
136.2703219541
  0
VERTEX
  8
0
 62
7
  6
CONTINUOUS
 10
42.4492561929
 20
136.4092580507
  0
VERTEX
  8
0
 62
7
  6
CONTINUOUS
 10
42.5154276016
 20
136.5399296687
  0
VERTEX
  8
0
 62
7
  6
CONTINUOUS
 10
42.599977314
 20
136.659533333
  0
VERTEX
  8
0
 62
7
  6
CONTINUOUS
 10
42.7010912992
 20
136.7655030606
  0
VERTEX
  8
0
 62
7
  6
CONTINUOUS
 10
42.8166001074
 20
136.8555654122
  0
VERTEX
  8
0
 62
7
  6
CONTINUOUS
 10
42.9440253664
 20
136.9277882669
  0
VERTEX
  8
0
 62
7
  6
CONTINUOUS
 10
43.0806336339
 20
136.9806225499
  0
SEQEND
  0
POLYLINE
  8
SURFACE
 62
7
  6
CONTINUOUS
 66
1
 70
0
  0
VERTEX
  8
SURFACE
 62
7
  6
CONTINUOUS
 10
84.6280672217
 20
206.4623388884
  0
VERTEX
  8
SURFACE
 62
7
  6
CONTINUOUS
 10
84.6197571666
 20
206.4514539862
  0
VERTEX
  8
SURFACE
 62
7
  6
CONTINUOUS
 10
84.6072328271
 20
206.4357161888
  0
SEQEND
  0
POLYLINE
  8
SURFACE
 62
7
  6
CONTINUOUS
 66
1
 70
0
  0
VERTEX
  8
SURFACE
 62
7
  6
CONTINUOUS
 10
84.5296022525
 20
206.3381673915
  0
VERTEX
  8
SURFACE
 62
7
  6
CONTINUOUS
 10
84.5021132214
 20
206.3036253063
  0
VERTEX
  8
SURFACE
 62
7
  6
CONTINUOUS
 10
84.4873211083
 20
206.2858497589
  0
SEQEND
  0
LINE
  8
SURFACE
 62
7
  6
CONTINUOUS
 10
84.4247608562
 20
206.2106716751
 11
84.37210806
 21
206.1473992905
  0
POLYLINE
  8
SURFACE
 62
7
  6
CONTINUOUS
 66
1
 70
0
  0
VERTEX
  8
SURFACE
 62
7
  6
CONTINUOUS
 10
84.32792873
 20
206.0959036535
  0
VERTEX
  8
SURFACE
 62
7
  6
CONTINUOUS
 10
84.467569711
 20
206.2614098729
  0
VERTEX
  8
SURFACE
 62
7
  6
CONTINUOUS
 10
84.5703803532
 20
206.3886251955
  0
VERTEX
  8
SURFACE
 62
7
  6
CONTINUOUS
 10
84.6421583846
 20
206.4803449212
  0
VERTEX
  8
SURFACE
 62
7
  6
CONTINUOUS
 10
84.6886462602
 20
206.5410948014
  0
VERTEX
  8
SURFACE
 62
7
  6
CONTINUOUS
 10
84.7226801489
 20
206.5862674078
  0
SEQEND
  0
POLYLINE
  8
SURFACE
 62
7
  6
CONTINUOUS
 66
1
 70
0
  0
VERTEX
  8
SURFACE
 62
7
  6
CONTINUOUS
 10
84.37210806
 20
206.1473992905
  0
VERTEX
  8
SURFACE
 62
7
  6
CONTINUOUS
 10
84.2044965278
 20
205.9560483969
  0
VERTEX
  8
SURFACE
 62
7
  6
CONTINUOUS
 10
84.0004757983
 20
205.7369210913
  0
VERTEX
  8
SURFACE
 62
7
  6
CONTINUOUS
 10
83.7526942483
 20
205.4889121617
  0
VERTEX
  8
SURFACE
 62
7
  6
CONTINUOUS
 10
83.450158377
 20
205.2098387701
  0
VERTEX
  8
SURFACE
 62
7
  6
CONTINUOUS
 10
83.0811433992
 20
204.9002827173
  0
SEQEND
  0
LINE
  8
0
 62
7
  6
CONTINUOUS
 10
43.6775172011
 20
123.6166650867
 11
38.1962780665
 21
123.6166650867
  0
LINE
  8
0
 62
7
  6
CONTINUOUS
 10
71.6189456297
 20
124.6166650867
 11
80.8447661211
 21
124.6166650867
  0
LINE
  8
0
 62
7
  6
CONTINUOUS
 10
41.8720617304
 20
127.6166650867
 11
34.8720979649
 21
127.6166650867
  0
LINE
  8
0
 62
7
  6
CONTINUOUS
 10
51.4044417575
 20
126.0401045678
 11
51.8395534571
 21
125.9235167392
  0
POLYLINE
  8
0
 62
7
  6
CONTINUOUS
 66
1
 70
0
  0
VERTEX
  8
0
 62
7
  6
CONTINUOUS
 10
84.37210806
 20
81.5859308828
  0
VERTEX
  8
0
 62
7
  6
CONTINUOUS
 10
84.2044965278
 20
81.7772817764
  0
VERTEX
  8
0
 62
7
  6
CONTINUOUS
 10
84.0004757983
 20
81.9964090821
  0
VERTEX
  8
0
 62
7
  6
CONTINUOUS
 10
83.7526942483
 20
82.2444180116
  0
VERTEX
  8
0
 62
7
  6
CONTINUOUS
 10
83.450158377
 20
82.5234914032
  0
VERTEX
  8
0
 62
7
  6
CONTINUOUS
 10
83.0811433992
 20
82.833047456
  0
SEQEND
  0
POLYLINE
  8
0
 62
7
  6
CONTINUOUS
 66
1
 70
0
  0
VERTEX
  8
0
 62
7
  6
CONTINUOUS
 10
84.32792873
 20
81.6374265198
  0
VERTEX
  8
0
 62
7
  6
CONTINUOUS
 10
84.467569711
 20
81.4719203004
  0
VERTEX
  8
0
 62
7
  6
CONTINUOUS
 10
84.5703803532
 20
81.3447049778
  0
VERTEX
  8
0
 62
7
  6
CONTINUOUS
 10
84.6421583846
 20
81.2529852521
  0
VERTEX
  8
0
 62
7
  6
CONTINUOUS
 10
84.6886462602
 20
81.1922353719
  0
SEQEND
  0
LINE
  8
0
 62
7
  6
CONTINUOUS
 10
84.4247608562
 20
81.5226584982
 11
84.37210806
 21
81.5859308828
  0
POLYLINE
  8
0
 62
7
  6
CONTINUOUS
 66
1
 70
0
  0
VERTEX
  8
0
 62
7
  6
CONTINUOUS
 10
84.5296022525
 20
81.3951627819
  0
VERTEX
  8
0
 62
7
  6
CONTINUOUS
 10
84.5021132214
 20
81.4297048671
  0
VERTEX
  8
0
 62
7
  6
CONTINUOUS
 10
84.4873211083
 20
81.4474804144
  0
SEQEND
  0
POLYLINE
  8
0
 62
7
  6
CONTINUOUS
 66
1
 70
0
  0
VERTEX
  8
0
 62
7
  6
CONTINUOUS
 10
84.6280672217
 20
81.270991285
  0
VERTEX
  8
0
 62
7
  6
CONTINUOUS
 10
84.6197571666
 20
81.2818761871
  0
VERTEX
  8
0
 62
7
  6
CONTINUOUS
 10
84.6072328271
 20
81.2976139845
  0
SEQEND
  0
LINE
  8
0
 62
7
  6
CONTINUOUS
 10
84.6886462602
 20
81.1922353719
 11
84.7226801489
 21
81.1470627655
  0
LINE
  8
SURFACE
 62
7
  6
CONTINUOUS
 10
41.893251772
 20
177.0286715299
 11
41.6588734728
 21
179.6615756459
  0
LINE
  8
SURFACE
 62
7
  6
CONTINUOUS
 10
41.0357409841
 20
186.6615756459
 11
40.8250246485
 21
189.0286715299
  0
LINE
  8
SURFACE
 62
7
  6
CONTINUOUS
 10
39.578819724
 20
203.0279969214
 11
39.3443810014
 21
205.6615798081
  0
LINE
  8
SURFACE
 62
7
  6
CONTINUOUS
 10
38.7213001945
 20
212.6609992367
 11
38.45669848
 21
215.6334200863
  0
LINE
  8
0
 62
7
  6
CONTINUOUS
 10
50.570797405
 20
73.596475618
 11
50.6103839019
 21
73.1282888251
  0
LINE
  8
0
 62
7
  6
CONTINUOUS
 10
50.6103839019
 20
73.1282888251
 11
50.6298518008
 21
72.8786064154
  0
LINE
  8
0
 62
7
  6
CONTINUOUS
 10
50.0483587015
 20
80.4335522072
 11
50.5707974148
 21
73.5964754894
  0
LINE
  8
0
 62
7
  6
CONTINUOUS
 10
50.6298518008
 20
72.8786064154
 11
50.660959289
 21
72.4160052051
  0
LINE
  8
0
 62
7
  6
CONTINUOUS
 10
49.9220798477
 20
133.261373953
 11
49.9220798477
 21
127.9719562204
  0
LINE
  8
0
 62
7
  6
CONTINUOUS
 10
49.9220798477
 20
107.261373953
 11
49.9220798477
 21
101.9719562204
  0
LINE
  8
SURFACE
 62
7
  6
CONTINUOUS
 10
49.9220798477
 20
154.4719562204
 11
49.9220798477
 21
159.761373953
  0
LINE
  8
SURFACE
 62
7
  6
CONTINUOUS
 10
49.9220798477
 20
180.4719562204
 11
49.9220798477
 21
185.761373953
  0
LINE
  8
SURFACE
 62
7
  6
CONTINUOUS
 10
50.6298518008
 20
214.8547237579
 11
50.660959289
 21
215.3173249683
  0
LINE
  8
SURFACE
 62
7
  6
CONTINUOUS
 10
50.0483587015
 20
207.2997779662
 11
50.5707974148
 21
214.1368546839
  0
POLYLINE
  8
SURFACE
 62
7
  6
CONTINUOUS
 66
1
 70
0
  0
VERTEX
  8
SURFACE
 62
7
  6
CONTINUOUS
 10
50.6298518008
 20
214.8547237579
  0
VERTEX
  8
SURFACE
 62
7
  6
CONTINUOUS
 10
50.6103839019
 20
214.6050413483
  0
VERTEX
  8
SURFACE
 62
7
  6
CONTINUOUS
 10
50.5708174715
 20
214.1371171266
  0
SEQEND
  0
LINE
  8
0
 62
7
  6
CONTINUOUS
 10
38.7213001945
 20
75.0723309367
 11
38.45669848
 21
72.099910087
  0
LINE
  8
SURFACE
 62
7
  6
CONTINUOUS
 10
39.3443810014
 20
82.0717503652
 11
39.578819724
 21
84.7053332519
  0
LINE
  8
SURFACE
 62
7
  6
CONTINUOUS
 10
40.8250246485
 20
98.7046586434
 11
41.0357409841
 21
101.0717545275
  0
LINE
  8
SURFACE
 62
7
  6
CONTINUOUS
 10
41.6588734728
 20
108.0717545275
 11
41.893251772
 21
110.7046586434
  0
LINE
  8
0
 62
7
  6
CONTINUOUS
 10
51.8395534571
 20
135.3098134341
 11
51.4044417575
 21
135.1932256056
  0
LINE
  8
0
 62
7
  6
CONTINUOUS
 10
34.8720979649
 20
133.6166650867
 11
41.8720798477
 21
133.6166650867
  0
LINE
  8
0
 62
7
  6
CONTINUOUS
 10
80.8447667503
 20
136.6166650867
 11
71.6189456297
 21
136.6166650867
  0
POLYLINE
  8
SURFACE
 62
7
  6
CONTINUOUS
 66
1
 70
0
  0
VERTEX
  8
SURFACE
 62
7
  6
CONTINUOUS
 10
34.1824726886
 20
166.9384993959
  0
VERTEX
  8
SURFACE
 62
7
  6
CONTINUOUS
 10
34.2532057154
 20
166.8254968474
  0
VERTEX
  8
SURFACE
 62
7
  6
CONTINUOUS
 10
34.3089150076
 20
166.7023898126
  0
VERTEX
  8
SURFACE
 62
7
  6
CONTINUOUS
 10
34.3475186273
 20
166.572895671
  0
VERTEX
  8
SURFACE
 62
7
  6
CONTINUOUS
 10
34.3683115009
 20
166.4393788643
  0
VERTEX
  8
SURFACE
 62
7
  6
CONTINUOUS
 10
34.3720827181
 20
166.3526144685
  0
SEQEND
  0
LINE
  8
SURFACE
 62
7
  6
CONTINUOUS
 10
51.4220798477
 20
249.3166650867
 11
51.4220798477
 21
240.5033886778
  0
LINE
  8
0
 62
7
  6
CONTINUOUS
 10
51.4220798477
 20
47.2299414956
 11
51.4220798477
 21
38.4166650867
  0
LINE
  8
DEFAULT_1
 62
7
  6
CENTER
 10
57.4220798477
 20
148.2666650867
 11
57.4220798477
 21
145.8667650867
  0
LINE
  8
0
 62
2
  6
CONTINUOUS
 10
57.4220798477
 20
144.7466650867
 11
57.4220798477
 21
142.9866650867
  0
LINE
  8
DEFAULT_1
 62
7
  6
CENTER
 10
57.4220798477
 20
139.4666650867
 11
57.4220798477
 21
141.8665650867
  0
LINE
  8
DEFAULT_1
 62
7
  6
CENTER
 10
61.8220798477
 20
143.8666650867
 11
59.4221798477
 21
143.8666650867
  0
LINE
  8
0
 62
2
  6
CONTINUOUS
 10
58.3020798477
 20
143.8666650867
 11
56.5420798477
 21
143.8666650867
  0
LINE
  8
DEFAULT_1
 62
7
  6
CENTER
 10
53.0220798477
 20
143.8666650867
 11
55.4219798477
 21
143.8666650867
  0
LINE
  8
SURFACE
 62
7
  6
CONTINUOUS
 10
80.8447667503
 20
151.1166650867
 11
71.6189456297
 21
151.1166650867
  0
LINE
  8
SURFACE
 62
7
  6
CONTINUOUS
 10
51.8395534571
 20
152.4235167392
 11
51.4044417575
 21
152.5401045678
  0
POLYLINE
  8
SURFACE
 62
7
  6
CONTINUOUS
 66
1
 70
0
  0
VERTEX
  8
SURFACE
 62
7
  6
CONTINUOUS
 10
43.0807791443
 20
150.7526633025
  0
VERTEX
  8
SURFACE
 62
7
  6
CONTINUOUS
 10
42.9437459351
 20
150.8056743094
  0
VERTEX
  8
SURFACE
 62
7
  6
CONTINUOUS
 10
42.8159595551
 20
150.8781930206
  0
VERTEX
  8
SURFACE
 62
7
  6
CONTINUOUS
 10
42.7001784447
 20
150.9686542203
  0
VERTEX
  8
SURFACE
 62
7
  6
CONTINUOUS
 10
42.5989024408
 20
151.07510502
  0
VERTEX
  8
SURFACE
 62
7
  6
CONTINUOUS
 10
42.5143181362
 20
151.1952472913
  0
VERTEX
  8
SURFACE
 62
7
  6
CONTINUOUS
 10
42.4482517187
 20
151.32648728
  0
VERTEX
  8
SURFACE
 62
7
  6
CONTINUOUS
 10
42.4021295517
 20
151.4659916048
  0
VERTEX
  8
SURFACE
 62
7
  6
CONTINUOUS
 10
42.3769473706
 20
151.6107484424
  0
VERTEX
  8
SURFACE
 62
7
  6
CONTINUOUS
 10
42.3720798292
 20
151.7092948235
  0
SEQEND
  0
POLYLINE
  8
SURFACE
 62
7
  6
CONTINUOUS
 66
1
 70
0
  0
VERTEX
  8
SURFACE
 62
7
  6
CONTINUOUS
 10
34.1824726886
 20
192.9384993959
  0
VERTEX
  8
SURFACE
 62
7
  6
CONTINUOUS
 10
34.2532057154
 20
192.8254968474
  0
VERTEX
  8
SURFACE
 62
7
  6
CONTINUOUS
 10
34.3089150076
 20
192.7023898126
  0
VERTEX
  8
SURFACE
 62
7
  6
CONTINUOUS
 10
34.3475186273
 20
192.572895671
  0
VERTEX
  8
SURFACE
 62
7
  6
CONTINUOUS
 10
34.3683115009
 20
192.4393788643
  0
VERTEX
  8
SURFACE
 62
7
  6
CONTINUOUS
 10
34.3720827181
 20
192.3526144685
  0
SEQEND
  0
LINE
  8
0
 62
7
  6
CONTINUOUS
 10
68.8635082762
 20
143.6166650867
 11
68.8635082762
 21
144.1166650867
  0
LINE
  8
SURFACE
 62
7
  6
CONTINUOUS
 10
71.4220798477
 20
232.1166650867
 11
71.4220798477
 21
223.7769191245
  0
LINE
  8
0
 62
7
  6
CONTINUOUS
 10
71.4220798477
 20
55.6166650867
 11
71.4220798477
 21
63.9564110488
  0
LINE
  8
SURFACE
 62
7
  6
CONTINUOUS
 10
34.8720979649
 20
154.1166650867
 11
41.8720798477
 21
154.1166650867
  0
LINE
  8
SURFACE
 62
7
  6
CONTINUOUS
 10
34.2769804421
 20
221.7613972625
 11
34.2789712393
 21
221.7571554048
  0
LINE
  8
DEFAULT_1
 62
7
  6
CENTER
 10
76.4720798477
 20
70.6166650867
 11
76.4720798477
 21
217.1166650867
  0
LINE
  8
SURFACE
 62
7
  6
CONTINUOUS
 10
51.4044417575
 20
161.6932256056
 11
51.8395534571
 21
161.8098134341
  0
LINE
  8
SURFACE
 62
7
  6
CONTINUOUS
 10
41.8720617304
 20
160.1166650867
 11
34.8720979649
 21
160.1166650867
  0
LINE
  8
SURFACE
 62
7
  6
CONTINUOUS
 10
71.6189456297
 20
163.1166650867
 11
80.8447661211
 21
163.1166650867
  0
LINE
  8
SURFACE
 62
7
  6
CONTINUOUS
 10
43.6775172011
 20
164.1166650867
 11
38.1962780665
 21
164.1166650867
  0
LINE
  8
0
 62
7
  6
CONTINUOUS
 10
84.9220798477
 20
133.1293157602
 11
84.9220798477
 21
128.1040144131
  0
LINE
  8
0
 62
7
  6
CONTINUOUS
 10
84.9220798477
 20
107.1293157602
 11
84.9220798477
 21
102.1040144131
  0
LINE
  8
0
 62
7
  6
CONTINUOUS
 10
84.9220798477
 20
76.1040144131
 11
84.9220798477
 21
81.1293157602
  0
LINE
  8
SURFACE
 62
7
  6
CONTINUOUS
 10
84.9220798477
 20
154.6040144131
 11
84.9220798477
 21
159.6293157602
  0
LINE
  8
SURFACE
 62
7
  6
CONTINUOUS
 10
84.9220798477
 20
180.6040144131
 11
84.9220798477
 21
185.6293157602
  0
LINE
  8
SURFACE
 62
7
  6
CONTINUOUS
 10
84.9220798477
 20
206.6040145535
 11
84.9220798477
 21
211.6293156219
  0
LINE
  8
SURFACE
 62
7
  6
CONTINUOUS
 10
38.1962780665
 20
176.1166650867
 11
43.6775172011
 21
176.1166650867
  0
LINE
  8
SURFACE
 62
7
  6
CONTINUOUS
 10
80.8447660718
 20
177.1166650867
 11
71.6189456297
 21
177.1166650867
  0
LINE
  8
SURFACE
 62
7
  6
CONTINUOUS
 10
34.8720979649
 20
180.1166650867
 11
41.1608766157
 21
180.1166650867
  0
LINE
  8
SURFACE
 62
7
  6
CONTINUOUS
 10
51.8395534571
 20
178.4235167392
 11
51.4044417575
 21
178.5401045678
  0
LINE
  8
0
 62
7
  6
CONTINUOUS
 10
52.4845170563
 20
83.0759301162
 11
52.4856949629
 21
83.0769987061
  0
POLYLINE
  8
0
 62
7
  6
CONTINUOUS
 66
1
 70
0
  0
VERTEX
  8
0
 62
7
  6
CONTINUOUS
 10
52.4845110443
 20
83.0759246813
  0
VERTEX
  8
0
 62
7
  6
CONTINUOUS
 10
52.326667515
 20
82.9428433089
  0
VERTEX
  8
0
 62
7
  6
CONTINUOUS
 10
52.1242133183
 20
82.7996266676
  0
VERTEX
  8
0
 62
7
  6
CONTINUOUS
 10
51.9133958262
 20
82.6792141933
  0
VERTEX
  8
0
 62
7
  6
CONTINUOUS
 10
51.6983114184
 20
82.5819461401
  0
VERTEX
  8
0
 62
7
  6
CONTINUOUS
 10
51.4950611205
 20
82.5099262176
  0
SEQEND
  0
LINE
  8
SURFACE
 62
7
  6
CONTINUOUS
 10
51.4044417575
 20
187.6932256056
 11
51.8395534571
 21
187.8098134341
  0
LINE
  8
SURFACE
 62
7
  6
CONTINUOUS
 10
40.537744127
 20
186.1166650867
 11
34.8720979649
 21
186.1166650867
  0
LINE
  8
SURFACE
 62
7
  6
CONTINUOUS
 10
71.6189456297
 20
189.1166650867
 11
80.8447661669
 21
189.1166650867
  0
LINE
  8
SURFACE
 62
7
  6
CONTINUOUS
 10
52.4845170563
 20
204.6574000571
 11
52.4856949629
 21
204.6563314673
  0
LINE
  8
SURFACE
 62
7
  6
CONTINUOUS
 10
43.6775172011
 20
190.1166650867
 11
38.1962780665
 21
190.1166650867
  0
LINE
  8
SURFACE
 62
7
  6
CONTINUOUS
 10
38.1962780665
 20
202.1166650867
 11
43.6775172011
 21
202.1166650867
  0
LINE
  8
SURFACE
 62
7
  6
CONTINUOUS
 10
80.8447667503
 20
203.1166650867
 11
71.6189456297
 21
203.1166650867
  0
LINE
  8
SURFACE
 62
7
  6
CONTINUOUS
 10
51.467217886
 20
205.2319340389
 11
51.4950610573
 21
205.2234039754
  0
POLYLINE
  8
SURFACE
 62
7
  6
CONTINUOUS
 66
1
 70
0
  0
VERTEX
  8
SURFACE
 62
7
  6
CONTINUOUS
 10
51.4950611205
 20
205.2234039557
  0
VERTEX
  8
SURFACE
 62
7
  6
CONTINUOUS
 10
51.6983114184
 20
205.1513840333
  0
VERTEX
  8
SURFACE
 62
7
  6
CONTINUOUS
 10
51.9133958262
 20
205.0541159801
  0
VERTEX
  8
SURFACE
 62
7
  6
CONTINUOUS
 10
52.1242133183
 20
204.9337035057
  0
VERTEX
  8
SURFACE
 62
7
  6
CONTINUOUS
 10
52.326667515
 20
204.7904868645
  0
VERTEX
  8
SURFACE
 62
7
  6
CONTINUOUS
 10
52.4845110443
 20
204.6574054921
  0
SEQEND
  0
LINE
  8
0
 62
7
  6
CONTINUOUS
 10
84.3721003031
 20
75.6473902425
 11
84.5713231391
 21
75.8898286083
  0
POLYLINE
  8
0
 62
7
  6
CONTINUOUS
 66
1
 70
0
  0
VERTEX
  8
0
 62
7
  6
CONTINUOUS
 10
84.3279170234
 20
75.5958900979
  0
VERTEX
  8
0
 62
7
  6
CONTINUOUS
 10
84.4676534484
 20
75.7615117581
  0
VERTEX
  8
0
 62
7
  6
CONTINUOUS
 10
84.5704718995
 20
75.8887408484
  0
VERTEX
  8
0
 62
7
  6
CONTINUOUS
 10
84.6421923778
 20
75.9803891458
  0
VERTEX
  8
0
 62
7
  6
CONTINUOUS
 10
84.6886439696
 20
76.0410919015
  0
VERTEX
  8
0
 62
7
  6
CONTINUOUS
 10
84.722679661
 20
76.0862668065
  0
SEQEND
  0
LINE
  8
SURFACE
 62
7
  6
CONTINUOUS
 10
34.8720981813
 20
206.1166650867
 11
38.8463842659
 21
206.1166650867
  0
POLYLINE
  8
SURFACE
 62
7
  6
CONTINUOUS
 66
1
 70
0
  0
VERTEX
  8
SURFACE
 62
7
  6
CONTINUOUS
 10
84.3279170234
 20
212.1374400755
  0
VERTEX
  8
SURFACE
 62
7
  6
CONTINUOUS
 10
84.4676534484
 20
211.9718184152
  0
VERTEX
  8
SURFACE
 62
7
  6
CONTINUOUS
 10
84.5704718995
 20
211.844589325
  0
VERTEX
  8
SURFACE
 62
7
  6
CONTINUOUS
 10
84.6421923778
 20
211.7529410276
  0
VERTEX
  8
SURFACE
 62
7
  6
CONTINUOUS
 10
84.6886439696
 20
211.6922382719
  0
SEQEND
  0
LINE
  8
SURFACE
 62
7
  6
CONTINUOUS
 10
84.3721003031
 20
212.0859399308
 11
84.5713231391
 21
211.843501565
  0
LINE
  8
SURFACE
 62
7
  6
CONTINUOUS
 10
84.6886439696
 20
211.6922382719
 11
84.722679661
 21
211.6470633668
  0
POLYLINE
  8
0
 62
7
  6
CONTINUOUS
 66
1
 70
0
  0
VERTEX
  8
0
 62
7
  6
CONTINUOUS
 10
83.0811508988
 20
74.4002878757
  0
VERTEX
  8
0
 62
7
  6
CONTINUOUS
 10
83.4758738179
 20
74.732623713
  0
VERTEX
  8
0
 62
7
  6
CONTINUOUS
 10
83.8264643303
 20
75.0608067638
  0
VERTEX
  8
0
 62
7
  6
CONTINUOUS
 10
84.1261702964
 20
75.3702176269
  0
VERTEX
  8
0
 62
7
  6
CONTINUOUS
 10
84.3721003031
 20
75.6473902425
  0
SEQEND
  0
POLYLINE
  8
0
 62
7
  6
CONTINUOUS
 66
1
 70
0
  0
VERTEX
  8
0
 62
7
  6
CONTINUOUS
 10
83.0811508988
 20
74.4002878757
  0
VERTEX
  8
0
 62
7
  6
CONTINUOUS
 10
83.3918403543
 20
74.6587738576
  0
VERTEX
  8
0
 62
7
  6
CONTINUOUS
 10
83.6778316237
 20
74.9175471693
  0
VERTEX
  8
0
 62
7
  6
CONTINUOUS
 10
83.9314453576
 20
75.1659259831
  0
VERTEX
  8
0
 62
7
  6
CONTINUOUS
 10
84.1487823568
 20
75.3947717583
  0
VERTEX
  8
0
 62
7
  6
CONTINUOUS
 10
84.3279170234
 20
75.5958900979
  0
SEQEND
  0
LINE
  8
SURFACE
 62
7
  6
CONTINUOUS
 10
34.8720798477
 20
212.1166650867
 11
38.2232695899
 21
212.1166650867
  0
LINE
  8
SURFACE
 62
7
  6
CONTINUOUS
 10
77.3036735193
 20
215.1166650867
 11
80.8447661669
 21
215.1166650867
  0
LINE
  8
SURFACE
 62
7
  6
CONTINUOUS
 10
49.9125840137
 20
216.1166650867
 11
42.1526471624
 21
216.1166650867
  0
POLYLINE
  8
SURFACE
 62
7
  6
CONTINUOUS
 66
1
 70
0
  0
VERTEX
  8
SURFACE
 62
7
  6
CONTINUOUS
 10
83.0811508988
 20
213.3330422976
  0
VERTEX
  8
SURFACE
 62
7
  6
CONTINUOUS
 10
83.3918403543
 20
213.0745563157
  0
VERTEX
  8
SURFACE
 62
7
  6
CONTINUOUS
 10
83.6778316237
 20
212.8157830041
  0
VERTEX
  8
SURFACE
 62
7
  6
CONTINUOUS
 10
83.9314453576
 20
212.5674041903
  0
VERTEX
  8
SURFACE
 62
7
  6
CONTINUOUS
 10
84.1487823568
 20
212.3385584151
  0
VERTEX
  8
SURFACE
 62
7
  6
CONTINUOUS
 10
84.3279170234
 20
212.1374400755
  0
SEQEND
  0
POLYLINE
  8
SURFACE
 62
7
  6
CONTINUOUS
 66
1
 70
0
  0
VERTEX
  8
SURFACE
 62
7
  6
CONTINUOUS
 10
83.0811508988
 20
213.3330422976
  0
VERTEX
  8
SURFACE
 62
7
  6
CONTINUOUS
 10
83.4758738179
 20
213.0007064603
  0
VERTEX
  8
SURFACE
 62
7
  6
CONTINUOUS
 10
83.8264643303
 20
212.6725234096
  0
VERTEX
  8
SURFACE
 62
7
  6
CONTINUOUS
 10
84.1261702964
 20
212.3631125465
  0
VERTEX
  8
SURFACE
 62
7
  6
CONTINUOUS
 10
84.3721003031
 20
212.0859399308
  0
SEQEND
  0
LINE
  8
SURFACE
 62
7
  6
CONTINUOUS
 10
53.1945326195
 20
239.0283274203
 11
53.1975380515
 21
239.0288983872
  0
LINE
  8
SURFACE
 62
7
  6
CONTINUOUS
 10
34.9220798477
 20
239.1166650867
 11
40.7138759152
 21
239.1166650867
  0
LINE
  8
SURFACE
 62
7
  6
CONTINUOUS
 10
54.1302837802
 20
239.1166650867
 11
66.9220798477
 21
239.1166650867
  0
POLYLINE
  8
SURFACE
 62
7
  6
CONTINUOUS
 66
1
 70
0
  0
VERTEX
  8
SURFACE
 62
7
  6
CONTINUOUS
 10
66.9220798477
 20
239.1166650867
  0
VERTEX
  8
SURFACE
 62
7
  6
CONTINUOUS
 10
67.5076442562
 20
239.0849324145
  0
VERTEX
  8
SURFACE
 62
7
  6
CONTINUOUS
 10
68.0267961579
 20
238.9958473365
  0
VERTEX
  8
SURFACE
 62
7
  6
CONTINUOUS
 10
68.4897397539
 20
238.8565613283
  0
VERTEX
  8
SURFACE
 62
7
  6
CONTINUOUS
 10
68.9066240637
 20
238.6709242326
  0
VERTEX
  8
SURFACE
 62
7
  6
CONTINUOUS
 10
69.2876157206
 20
238.4383671692
  0
VERTEX
  8
SURFACE
 62
7
  6
CONTINUOUS
 10
69.6386943905
 20
238.1559283573
  0
VERTEX
  8
SURFACE
 62
7
  6
CONTINUOUS
 10
69.9649234003
 20
237.8166113617
  0
VERTEX
  8
SURFACE
 62
7
  6
CONTINUOUS
 10
70.2687382718
 20
237.4102035394
  0
VERTEX
  8
SURFACE
 62
7
  6
CONTINUOUS
 10
70.5483080524
 20
236.9265500216
  0
VERTEX
  8
SURFACE
 62
7
  6
CONTINUOUS
 10
70.7984470577
 20
236.358351733
  0
VERTEX
  8
SURFACE
 62
7
  6
CONTINUOUS
 10
71.0123537484
 20
235.703747999
  0
VERTEX
  8
SURFACE
 62
7
  6
CONTINUOUS
 10
71.1854402294
 20
234.9590060295
  0
VERTEX
  8
SURFACE
 62
7
  6
CONTINUOUS
 10
71.3138624817
 20
234.1193791248
  0
VERTEX
  8
SURFACE
 62
7
  6
CONTINUOUS
 10
71.3940737403
 20
233.1775553555
  0
VERTEX
  8
SURFACE
 62
7
  6
CONTINUOUS
 10
71.4220798477
 20
232.1166650867
  0
SEQEND
  0
LINE
  8
SURFACE
 62
7
  6
CONTINUOUS
 10
48.9220772196
 20
251.8166650867
 11
43.9220798477
 21
251.8166650867
  0
LINE
  8
0
 62
7
  6
CONTINUOUS
 10
33.9220798477
 20
268.7305254354
 11
33.9220798477
 21
268.9805254354
  0
LINE
  8
DEFAULT_1
 62
7
  6
CENTER
 10
38.3720798477
 20
273.2555254354
 11
38.3720798477
 21
270.8556254354
  0
LINE
  8
0
 62
2
  6
CONTINUOUS
 10
38.3720798477
 20
269.7355254354
 11
38.3720798477
 21
267.9755254354
  0
LINE
  8
DEFAULT_1
 62
7
  6
CENTER
 10
38.3720798477
 20
264.4555254354
 11
38.3720798477
 21
266.8554254354
  0
LINE
  8
0
 62
7
  6
CONTINUOUS
 10
43.3221003935
 20
259.3305254354
 11
75.5220274363
 21
259.3305254354
  0
LINE
  8
0
 62
7
  6
CONTINUOUS
 10
79.9720798477
 20
262.1055254354
 11
63.8220798477
 21
262.1055254354
  0
POLYLINE
  8
0
 62
7
  6
CONTINUOUS
 66
1
 70
0
  0
VERTEX
  8
0
 62
7
  6
CONTINUOUS
 10
63.8208618728
 20
262.1055254354
  0
VERTEX
  8
0
 62
7
  6
CONTINUOUS
 10
63.7243715822
 20
262.1085759014
  0
VERTEX
  8
0
 62
7
  6
CONTINUOUS
 10
63.6309479031
 20
262.1108461365
  0
VERTEX
  8
0
 62
7
  6
CONTINUOUS
 10
63.5444799564
 20
262.1122517286
  0
VERTEX
  8
0
 62
7
  6
CONTINUOUS
 10
63.4685264571
 20
262.1127277614
  0
VERTEX
  8
0
 62
7
  6
CONTINUOUS
 10
63.4062213376
 20
262.1122517286
  0
VERTEX
  8
0
 62
7
  6
CONTINUOUS
 10
63.360053247
 20
262.1108461365
  0
VERTEX
  8
0
 62
7
  6
CONTINUOUS
 10
63.3317196791
 20
262.1085759014
  0
VERTEX
  8
0
 62
7
  6
CONTINUOUS
 10
63.3220798477
 20
262.1055254354
  0
SEQEND
  0
LINE
  8
0
 62
7
  6
CONTINUOUS
 10
76.4720798477
 20
264.6555254354
 11
64.5720798477
 21
264.6555254354
  0
POLYLINE
  8
0
 62
7
  6
CONTINUOUS
 66
1
 70
0
  0
VERTEX
  8
0
 62
7
  6
CONTINUOUS
 10
80.4195578633
 20
262.1114530019
  0
VERTEX
  8
0
 62
7
  6
CONTINUOUS
 10
80.370935313
 20
262.1124929847
  0
VERTEX
  8
0
 62
7
  6
CONTINUOUS
 10
80.308632693
 20
262.1127005289
  0
VERTEX
  8
0
 62
7
  6
CONTINUOUS
 10
80.2348726225
 20
262.1120670391
  0
VERTEX
  8
0
 62
7
  6
CONTINUOUS
 10
80.1523526982
 20
262.1106189069
  0
VERTEX
  8
0
 62
7
  6
CONTINUOUS
 10
80.064077809
 20
262.108415218
  0
VERTEX
  8
0
 62
7
  6
CONTINUOUS
 10
79.9732978225
 20
262.1055254354
  0
SEQEND
  0
POLYLINE
  8
0
 62
7
  6
CONTINUOUS
 66
1
 70
0
  0
VERTEX
  8
0
 62
7
  6
CONTINUOUS
 10
63.3220798477
 20
262.1055254354
  0
VERTEX
  8
0
 62
7
  6
CONTINUOUS
 10
63.309239515
 20
262.1083452509
  0
VERTEX
  8
0
 62
7
  6
CONTINUOUS
 10
63.2709639191
 20
262.1119740957
  0
VERTEX
  8
0
 62
7
  6
CONTINUOUS
 10
63.2085547963
 20
262.1162864432
  0
VERTEX
  8
0
 62
7
  6
CONTINUOUS
 10
63.1241847712
 20
262.1211333618
  0
VERTEX
  8
0
 62
7
  6
CONTINUOUS
 10
63.0208150719
 20
262.1263519439
  0
VERTEX
  8
0
 62
7
  6
CONTINUOUS
 10
62.9020798477
 20
262.1317160125
  0
SEQEND
  0
LINE
  8
0
 62
7
  6
CONTINUOUS
 10
44.3720798477
 20
265.9055254354
 11
48.4720798477
 21
265.9055254354
  0
LINE
  8
DEFAULT_1
 62
7
  6
CENTER
 10
42.7720798477
 20
268.8555254354
 11
40.3721798477
 21
268.8555254354
  0
LINE
  8
0
 62
2
  6
CONTINUOUS
 10
39.2520798477
 20
268.8555254354
 11
37.4920798477
 21
268.8555254354
  0
LINE
  8
DEFAULT_1
 62
7
  6
CENTER
 10
33.9720798477
 20
268.8555254354
 11
36.3719798477
 21
268.8555254354
  0
LINE
  8
0
 62
7
  6
CONTINUOUS
 10
80.4720798477
 20
268.8555254354
 11
81.3478510746
 21
268.8555254354
  0
LINE
  8
DEFAULT_1
 62
7
  6
CENTER
 10
57.4220798477
 20
257.330492209
 11
57.4220798477
 21
284.3805254354
  0
LINE
  8
DEFAULT_1
 62
7
  6
CENTER
 10
80.8720798477
 20
269.0555254354
 11
78.4721798477
 21
269.0555254354
  0
LINE
  8
0
 62
2
  6
CONTINUOUS
 10
77.3520798477
 20
269.0555254354
 11
75.5920798477
 21
269.0555254354
  0
LINE
  8
DEFAULT_1
 62
7
  6
CENTER
 10
72.0720798477
 20
269.0555254354
 11
74.4719798477
 21
269.0555254354
  0
LINE
  8
0
 62
7
  6
CONTINUOUS
 10
58.4220798477
 20
260.3305251101
 11
58.4220798477
 21
273.0388374055
  0
LINE
  8
0
 62
7
  6
CONTINUOUS
 10
48.4720798477
 20
271.8055254354
 11
44.3720798477
 21
271.8055254354
  0
LINE
  8
0
 62
7
  6
CONTINUOUS
 10
64.5720798477
 20
273.0555254354
 11
76.4720798477
 21
273.0555254354
  0
LINE
  8
0
 62
7
  6
CONTINUOUS
 10
60.5720798477
 20
268.6555254354
 11
60.5720798477
 21
269.0555254354
  0
LINE
  8
0
 62
7
  6
CONTINUOUS
 10
63.3220798477
 20
262.1055253073
 11
63.3220798477
 21
264.855854397
  0
LINE
  8
0
 62
7
  6
CONTINUOUS
 10
63.3220798387
 20
262.1055253073
 11
63.1768196676
 21
260.02820808
  0
LINE
  8
0
 62
7
  6
CONTINUOUS
 10
39.329899992
 20
275.8305254354
 11
46.1220470727
 21
275.8305254354
  0
LINE
  8
0
 62
7
  6
CONTINUOUS
 10
62.9220802713
 20
276.3805254354
 11
73.3047515353
 21
276.3805254354
  0
LINE
  8
SURFACE
 62
7
  6
CONTINUOUS
 10
66.9220798477
 20
278.3805254354
 11
67.1711587366
 21
278.3805254354
  0
LINE
  8
0
 62
7
  6
CONTINUOUS
 10
43.3220798477
 20
278.3805254354
 11
75.5219635565
 21
278.3805254354
  0
LINE
  8
0
 62
7
  6
CONTINUOUS
 10
71.4220798477
 20
277.3805254354
 11
71.4220798477
 21
276.8805254354
  0
POLYLINE
  8
0
 62
7
  6
CONTINUOUS
 66
1
 70
0
  0
VERTEX
  8
0
 62
7
  6
CONTINUOUS
 10
80.4374432048
 20
262.0956882715
  0
VERTEX
  8
0
 62
7
  6
CONTINUOUS
 10
80.4325697452
 20
262.1047545816
  0
VERTEX
  8
0
 62
7
  6
CONTINUOUS
 10
80.4265353044
 20
262.1097665296
  0
VERTEX
  8
0
 62
7
  6
CONTINUOUS
 10
80.4195578633
 20
262.1114530019
  0
SEQEND
  0
LINE
  8
DEFAULT_1
 62
7
  6
CENTER
 10
76.4720798477
 20
273.4555254354
 11
76.4720798477
 21
271.0556254354
  0
LINE
  8
0
 62
2
  6
CONTINUOUS
 10
76.4720798477
 20
269.9355254354
 11
76.4720798477
 21
268.1755254354
  0
LINE
  8
DEFAULT_1
 62
7
  6
CENTER
 10
76.4720798477
 20
264.6555254354
 11
76.4720798477
 21
267.0554254354
  0
POLYLINE
  8
0
 62
7
  6
CONTINUOUS
 66
1
 70
0
  0
VERTEX
  8
0
 62
7
  6
CONTINUOUS
 10
80.4374432048
 20
262.0956882715
  0
VERTEX
  8
0
 62
7
  6
CONTINUOUS
 10
80.4697013931
 20
261.9763699455
  0
VERTEX
  8
0
 62
7
  6
CONTINUOUS
 10
80.5141697723
 20
261.8725044339
  0
VERTEX
  8
0
 62
7
  6
CONTINUOUS
 10
80.5729364966
 20
261.7749684661
  0
VERTEX
  8
0
 62
7
  6
CONTINUOUS
 10
80.6446370163
 20
261.6860259749
  0
VERTEX
  8
0
 62
7
  6
CONTINUOUS
 10
80.7276057921
 20
261.6077398909
  0
VERTEX
  8
0
 62
7
  6
CONTINUOUS
 10
80.819916079
 20
261.541922839
  0
VERTEX
  8
0
 62
7
  6
CONTINUOUS
 10
80.9194290683
 20
261.4900958793
  0
VERTEX
  8
0
 62
7
  6
CONTINUOUS
 10
81.0238412453
 20
261.4534590925
  0
VERTEX
  8
0
 62
7
  6
CONTINUOUS
 10
81.1307327412
 20
261.4328655577
  0
VERTEX
  8
0
 62
7
  6
CONTINUOUS
 10
81.2376203134
 20
261.4287985574
  0
VERTEX
  8
0
 62
7
  6
CONTINUOUS
 10
81.342016743
 20
261.4413559791
  0
VERTEX
  8
0
 62
7
  6
CONTINUOUS
 10
81.4414939792
 20
261.4702466023
  0
VERTEX
  8
0
 62
7
  6
CONTINUOUS
 10
81.5337616606
 20
261.5148104781
  0
VERTEX
  8
0
 62
7
  6
CONTINUOUS
 10
81.6165034723
 20
261.5738515993
  0
SEQEND
  0
LINE
  8
0
 62
7
  6
CONTINUOUS
 10
80.4720798477
 20
269.0555254354
 11
80.4720798477
 21
262.2241823536
  0
LINE
  8
0
 62
7
  6
CONTINUOUS
 10
84.9220798477
 20
272.4001234376
 11
84.9220798477
 21
268.7305254354
  0
LINE
  8
0
 62
7
  6
CONTINUOUS
 10
138.3763445828
 20
35.9166650867
 11
137.4763445828
 21
35.9166650867
  0
LINE
  8
0
 62
7
  6
CONTINUOUS
 10
129.4013445828
 20
48.6166650867
 11
146.4513445828
 21
48.6166650867
  0
LINE
  8
0
 62
7
  6
CONTINUOUS
 10
135.1851522971
 20
58.4343808853
 11
129.1425255377
 21
56.815263925
  0
LINE
  8
0
 62
7
  6
CONTINUOUS
 10
129.1425255377
 20
62.4180662484
 11
135.1851632356
 21
60.7989463571
  0
LINE
  8
0
 62
7
  6
CONTINUOUS
 10
129.4013445828
 20
71.6166650867
 11
131.6070760705
 21
71.6166650867
  0
LINE
  8
0
 62
7
  6
CONTINUOUS
 10
141.1759707401
 20
71.6166650867
 11
146.4513445828
 21
71.6166650867
  0
LINE
  8
SURFACE
 62
7
  6
CONTINUOUS
 10
134.7259618326
 20
239.1426631226
 11
134.7034402764
 21
239.1166650867
  0
LINE
  8
0
 62
7
  6
CONTINUOUS
 10
132.1070874343
 20
75.6166650867
 11
140.8056421594
 21
75.6166650867
  0
LINE
  8
0
 62
7
  6
CONTINUOUS
 10
134.7034376843
 20
48.6166650867
 11
134.7256973147
 21
48.5909927735
  0
LINE
  8
0
 62
7
  6
CONTINUOUS
 10
142.2089646609
 20
85.6179644045
 11
142.2088954855
 21
85.6179547517
  0
LINE
  8
0
 62
7
  6
CONTINUOUS
 10
134.8378540418
 20
81.6166650867
 11
141.0148601707
 21
81.6166650867
  0
LINE
  8
0
 62
7
  6
CONTINUOUS
 10
129.4013445828
 20
85.6166650867
 11
133.651098353
 21
85.6166650867
  0
LINE
  8
0
 62
7
  6
CONTINUOUS
 10
142.2014378743
 20
85.6166650867
 11
146.4513445828
 21
85.6166650867
  0
LINE
  8
0
 62
7
  6
CONTINUOUS
 10
133.6437175801
 20
85.6179689556
 11
133.6437941711
 21
85.6179582678
  0
POLYLINE
  8
0
 62
7
  6
CONTINUOUS
 66
1
 70
0
  0
VERTEX
  8
0
 62
7
  6
CONTINUOUS
 10
133.6437171612
 20
85.6179659615
  0
VERTEX
  8
0
 62
7
  6
CONTINUOUS
 10
133.6626898113
 20
85.6146221867
  0
VERTEX
  8
0
 62
7
  6
CONTINUOUS
 10
133.6958968718
 20
85.6064947921
  0
VERTEX
  8
0
 62
7
  6
CONTINUOUS
 10
133.7431548389
 20
85.5910435253
  0
VERTEX
  8
0
 62
7
  6
CONTINUOUS
 10
133.801352192
 20
85.5663024522
  0
VERTEX
  8
0
 62
7
  6
CONTINUOUS
 10
133.8669723223
 20
85.530757329
  0
VERTEX
  8
0
 62
7
  6
CONTINUOUS
 10
133.9369052531
 20
85.4830702619
  0
VERTEX
  8
0
 62
7
  6
CONTINUOUS
 10
134.0076916179
 20
85.4225379252
  0
VERTEX
  8
0
 62
7
  6
CONTINUOUS
 10
134.0763257474
 20
85.3485128933
  0
VERTEX
  8
0
 62
7
  6
CONTINUOUS
 10
134.1412273708
 20
85.2582369477
  0
VERTEX
  8
0
 62
7
  6
CONTINUOUS
 10
134.197726763
 20
85.1519863034
  0
VERTEX
  8
0
 62
7
  6
CONTINUOUS
 10
134.2400485213
 20
85.0345970547
  0
VERTEX
  8
0
 62
7
  6
CONTINUOUS
 10
134.2646009641
 20
84.9130907347
  0
VERTEX
  8
0
 62
7
  6
CONTINUOUS
 10
134.2707759118
 20
84.8304614639
  0
SEQEND
  0
POLYLINE
  8
0
 62
7
  6
CONTINUOUS
 66
1
 70
0
  0
VERTEX
  8
0
 62
7
  6
CONTINUOUS
 10
134.7256973147
 20
48.5909927735
  0
VERTEX
  8
0
 62
7
  6
CONTINUOUS
 10
134.7645548031
 20
48.5393495696
  0
VERTEX
  8
0
 62
7
  6
CONTINUOUS
 10
134.8090764544
 20
48.4697523671
  0
VERTEX
  8
0
 62
7
  6
CONTINUOUS
 10
134.8570786422
 20
48.3783974499
  0
VERTEX
  8
0
 62
7
  6
CONTINUOUS
 10
134.9038482607
 20
48.2638111659
  0
VERTEX
  8
0
 62
7
  6
CONTINUOUS
 10
134.9433630321
 20
48.1266272643
  0
SEQEND
  0
POLYLINE
  8
0
 62
7
  6
CONTINUOUS
 66
1
 70
0
  0
VERTEX
  8
0
 62
7
  6
CONTINUOUS
 10
128.6578601395
 20
49.2941997988
  0
VERTEX
  8
0
 62
7
  6
CONTINUOUS
 10
128.7407485086
 20
49.1653861967
  0
VERTEX
  8
0
 62
7
  6
CONTINUOUS
 10
128.8595509784
 20
49.0222105678
  0
VERTEX
  8
0
 62
7
  6
CONTINUOUS
 10
128.9939679371
 20
48.8992585325
  0
VERTEX
  8
0
 62
7
  6
CONTINUOUS
 10
129.1422946905
 20
48.7973390594
  0
VERTEX
  8
0
 62
7
  6
CONTINUOUS
 10
129.3036021387
 20
48.7169391014
  0
VERTEX
  8
0
 62
7
  6
CONTINUOUS
 10
129.4769320949
 20
48.6591091826
  0
VERTEX
  8
0
 62
7
  6
CONTINUOUS
 10
129.6605635151
 20
48.6253667659
  0
VERTEX
  8
0
 62
7
  6
CONTINUOUS
 10
129.8161528262
 20
48.6166658278
  0
SEQEND
  0
POLYLINE
  8
SURFACE
 62
7
  6
CONTINUOUS
 66
1
 70
0
  0
VERTEX
  8
SURFACE
 62
7
  6
CONTINUOUS
 10
128.6576963819
 20
238.4388459989
  0
VERTEX
  8
SURFACE
 62
7
  6
CONTINUOUS
 10
128.5538555988
 20
238.2350651031
  0
VERTEX
  8
SURFACE
 62
7
  6
CONTINUOUS
 10
128.4682631378
 20
238.0058693084
  0
VERTEX
  8
SURFACE
 62
7
  6
CONTINUOUS
 10
128.4159854372
 20
237.7692807999
  0
VERTEX
  8
SURFACE
 62
7
  6
CONTINUOUS
 10
128.4013447791
 20
237.5646814176
  0
SEQEND
  0
LINE
  8
SURFACE
 62
7
  6
CONTINUOUS
 10
128.65769729
 20
238.43884548
 11
128.6578601156
 21
238.4391303327
  0
LINE
  8
0
 62
7
  6
CONTINUOUS
 10
128.65769729
 20
49.2944846933
 11
128.6578601395
 21
49.2941997988
  0
POLYLINE
  8
0
 62
7
  6
CONTINUOUS
 66
1
 70
0
  0
VERTEX
  8
0
 62
7
  6
CONTINUOUS
 10
133.3496858261
 20
97.6306321335
  0
VERTEX
  8
0
 62
7
  6
CONTINUOUS
 10
133.2400059911
 20
97.618205826
  0
VERTEX
  8
0
 62
7
  6
CONTINUOUS
 10
133.1864222198
 20
97.6166658617
  0
SEQEND
  0
LINE
  8
0
 62
7
  6
CONTINUOUS
 10
129.4013445828
 20
97.6166650867
 11
133.1854274702
 21
97.6166650867
  0
LINE
  8
0
 62
7
  6
CONTINUOUS
 10
146.4513445828
 20
97.6166650867
 11
142.6661265566
 21
97.616666552
  0
LINE
  8
0
 62
7
  6
CONTINUOUS
 10
142.6661265562
 20
97.616666164
 11
142.6106205914
 21
97.6183245313
  0
LINE
  8
0
 62
7
  6
CONTINUOUS
 10
142.6106205914
 20
97.6183245313
 11
142.5006384444
 21
97.6310388994
  0
POLYLINE
  8
0
 62
7
  6
CONTINUOUS
 66
1
 70
0
  0
VERTEX
  8
0
 62
7
  6
CONTINUOUS
 10
142.5006384444
 20
97.6310388994
  0
VERTEX
  8
0
 62
7
  6
CONTINUOUS
 10
142.3849415343
 20
97.6583481922
  0
VERTEX
  8
0
 62
7
  6
CONTINUOUS
 10
142.2644787133
 20
97.7032612677
  0
VERTEX
  8
0
 62
7
  6
CONTINUOUS
 10
142.1409072995
 20
97.7695426852
  0
VERTEX
  8
0
 62
7
  6
CONTINUOUS
 10
142.0207526611
 20
97.8586543537
  0
VERTEX
  8
0
 62
7
  6
CONTINUOUS
 10
141.9141473241
 20
97.9661138161
  0
VERTEX
  8
0
 62
7
  6
CONTINUOUS
 10
141.8259158305
 20
98.0870822987
  0
VERTEX
  8
0
 62
7
  6
CONTINUOUS
 10
141.7572062077
 20
98.218960616
  0
VERTEX
  8
0
 62
7
  6
CONTINUOUS
 10
141.7089487212
 20
98.3593440996
  0
SEQEND
  0
LINE
  8
0
 62
7
  6
CONTINUOUS
 10
141.1763445828
 20
101.6166650867
 11
134.6763445828
 21
101.6166650867
  0
LINE
  8
0
 62
7
  6
CONTINUOUS
 10
128.4189248968
 20
102.4916650867
 11
128.4013445828
 21
102.4916650867
  0
LINE
  8
0
 62
7
  6
CONTINUOUS
 10
128.6013445828
 20
102.7044310188
 11
128.4013445828
 21
102.7044310188
  0
LINE
  8
0
 62
7
  6
CONTINUOUS
 10
128.4101571524
 20
104.4916650867
 11
128.4253769026
 21
104.4916650867
  0
LINE
  8
0
 62
7
  6
CONTINUOUS
 10
128.4618237422
 20
105.3666650867
 11
128.4013445828
 21
105.3666650867
  0
LINE
  8
0
 62
7
  6
CONTINUOUS
 10
128.4526470936
 20
105.6166650867
 11
128.4013445828
 21
105.6166650867
  0
LINE
  8
0
 62
7
  6
CONTINUOUS
 10
134.6763445828
 20
107.6166650867
 11
141.1763445828
 21
107.6166650867
  0
LINE
  8
0
 62
7
  6
CONTINUOUS
 10
129.4013445828
 20
111.6166650867
 11
133.1763445828
 21
111.6166650867
  0
LINE
  8
0
 62
7
  6
CONTINUOUS
 10
142.6763445828
 20
111.6166650867
 11
146.4513445828
 21
111.6166650867
  0
POLYLINE
  8
0
 62
7
  6
CONTINUOUS
 66
1
 70
0
  0
VERTEX
  8
0
 62
7
  6
CONTINUOUS
 10
128.4850535458
 20
184.4916650867
  0
VERTEX
  8
0
 62
7
  6
CONTINUOUS
 10
128.4403965141
 20
184.365235762
  0
VERTEX
  8
0
 62
7
  6
CONTINUOUS
 10
128.411396667
 20
184.2333164247
  0
VERTEX
  8
0
 62
7
  6
CONTINUOUS
 10
128.4013445828
 20
184.1000751608
  0
SEQEND
  0
POLYLINE
  8
0
 62
7
  6
CONTINUOUS
 66
1
 70
0
  0
VERTEX
  8
0
 62
7
  6
CONTINUOUS
 10
128.4013445828
 20
105.8620043977
  0
VERTEX
  8
0
 62
7
  6
CONTINUOUS
 10
128.4142966566
 20
105.7383843993
  0
VERTEX
  8
0
 62
7
  6
CONTINUOUS
 10
128.4532778061
 20
105.6146632873
  0
VERTEX
  8
0
 62
7
  6
CONTINUOUS
 10
128.5182952931
 20
105.4916650867
  0
SEQEND
  0
POLYLINE
  8
0
 62
7
  6
CONTINUOUS
 66
1
 70
0
  0
VERTEX
  8
0
 62
7
  6
CONTINUOUS
 10
128.4013447791
 20
50.1686487558
  0
VERTEX
  8
0
 62
7
  6
CONTINUOUS
 10
128.4159854372
 20
49.9640493734
  0
VERTEX
  8
0
 62
7
  6
CONTINUOUS
 10
128.4682631378
 20
49.7274608649
  0
VERTEX
  8
0
 62
7
  6
CONTINUOUS
 10
128.5538555988
 20
49.4982650702
  0
VERTEX
  8
0
 62
7
  6
CONTINUOUS
 10
128.6576963819
 20
49.2944841745
  0
SEQEND
  0
LINE
  8
0
 62
7
  6
CONTINUOUS
 10
128.4580466179
 20
181.7044310188
 11
128.4463991095
 21
181.4916650867
  0
POLYLINE
  8
SURFACE
 62
7
  6
CONTINUOUS
 66
1
 70
0
  0
VERTEX
  8
SURFACE
 62
7
  6
CONTINUOUS
 10
134.9696616929
 20
239.7674693636
  0
VERTEX
  8
SURFACE
 62
7
  6
CONTINUOUS
 10
134.9438826867
 20
239.6089871217
  0
VERTEX
  8
SURFACE
 62
7
  6
CONTINUOUS
 10
134.9044373914
 20
239.471204344
  0
VERTEX
  8
SURFACE
 62
7
  6
CONTINUOUS
 10
134.8576356274
 20
239.3561207126
  0
VERTEX
  8
SURFACE
 62
7
  6
CONTINUOUS
 10
134.8095542355
 20
239.2643943851
  0
VERTEX
  8
SURFACE
 62
7
  6
CONTINUOUS
 10
134.7649335523
 20
239.1945229887
  0
VERTEX
  8
SURFACE
 62
7
  6
CONTINUOUS
 10
134.7259618326
 20
239.1426631226
  0
SEQEND
  0
LINE
  8
0
 62
7
  6
CONTINUOUS
 10
129.4013445828
 20
123.6166650867
 11
133.1763445828
 21
123.6166650867
  0
LINE
  8
0
 62
7
  6
CONTINUOUS
 10
142.6763445828
 20
123.6166650867
 11
146.4513445828
 21
123.6166650867
  0
LINE
  8
0
 62
7
  6
CONTINUOUS
 10
141.1763445828
 20
127.6166650867
 11
134.6763445828
 21
127.6166650867
  0
POLYLINE
  8
0
 62
7
  6
CONTINUOUS
 66
1
 70
0
  0
VERTEX
  8
0
 62
7
  6
CONTINUOUS
 10
134.9433630321
 20
48.1266272643
  0
VERTEX
  8
0
 62
7
  6
CONTINUOUS
 10
134.9693644499
 20
47.9687843068
  0
VERTEX
  8
0
 62
7
  6
CONTINUOUS
 10
134.9763446999
 20
47.8323482335
  0
SEQEND
  0
POLYLINE
  8
0
 62
7
  6
CONTINUOUS
 66
1
 70
0
  0
VERTEX
  8
0
 62
7
  6
CONTINUOUS
 10
128.4013445828
 20
184.7980846238
  0
VERTEX
  8
0
 62
7
  6
CONTINUOUS
 10
128.4106561087
 20
184.6954881337
  0
VERTEX
  8
0
 62
7
  6
CONTINUOUS
 10
128.438592555
 20
184.5931699661
  0
VERTEX
  8
0
 62
7
  6
CONTINUOUS
 10
128.4850535458
 20
184.4916650867
  0
SEQEND
  0
LINE
  8
SURFACE
 62
7
  6
CONTINUOUS
 10
128.4014955151
 20
152.113661161
 11
128.405420686
 21
152.0357004407
  0
POLYLINE
  8
0
 62
7
  6
CONTINUOUS
 66
1
 70
0
  0
VERTEX
  8
0
 62
7
  6
CONTINUOUS
 10
128.4013445914
 20
138.1234073801
  0
VERTEX
  8
0
 62
7
  6
CONTINUOUS
 10
128.40895913
 20
137.9412747301
  0
VERTEX
  8
0
 62
7
  6
CONTINUOUS
 10
128.4385718557
 20
137.7366775032
  0
VERTEX
  8
0
 62
7
  6
CONTINUOUS
 10
128.4944686777
 20
137.5359763439
  0
VERTEX
  8
0
 62
7
  6
CONTINUOUS
 10
128.5797360974
 20
137.34336621
  0
VERTEX
  8
0
 62
7
  6
CONTINUOUS
 10
128.6948607807
 20
137.1655175141
  0
VERTEX
  8
0
 62
7
  6
CONTINUOUS
 10
128.8366969306
 20
137.0099076277
  0
VERTEX
  8
0
 62
7
  6
CONTINUOUS
 10
129.0007225471
 20
136.8812451426
  0
VERTEX
  8
0
 62
7
  6
CONTINUOUS
 10
129.1835813572
 20
136.7814592097
  0
VERTEX
  8
0
 62
7
  6
CONTINUOUS
 10
129.3819379887
 20
136.7120962534
  0
VERTEX
  8
0
 62
7
  6
CONTINUOUS
 10
129.5923031653
 20
136.6742488323
  0
VERTEX
  8
0
 62
7
  6
CONTINUOUS
 10
129.7438283167
 20
136.6666651909
  0
SEQEND
  0
LINE
  8
SURFACE
 62
7
  6
CONTINUOUS
 10
128.4014647605
 20
152.1136584526
 11
128.4046242328
 21
152.0356603408
  0
LINE
  8
0
 62
7
  6
CONTINUOUS
 10
134.3127266768
 20
83.0947972311
 11
134.3380170093
 21
82.1036604491
  0
LINE
  8
0
 62
7
  6
CONTINUOUS
 10
128.4013413627
 20
125.6166658633
 11
128.4014183923
 21
125.6135832174
  0
LINE
  8
0
 62
7
  6
CONTINUOUS
 10
134.2707768502
 20
84.830395898
 11
134.3127266768
 21
83.0947972311
  0
LINE
  8
0
 62
7
  6
CONTINUOUS
 10
128.4013193981
 20
125.6164511145
 11
128.4013907214
 21
125.6072301248
  0
POLYLINE
  8
0
 62
7
  6
CONTINUOUS
 66
1
 70
0
  0
VERTEX
  8
0
 62
7
  6
CONTINUOUS
 10
128.4236371682
 20
183.4916650867
  0
VERTEX
  8
0
 62
7
  6
CONTINUOUS
 10
128.4254291244
 20
183.2280011132
  0
VERTEX
  8
0
 62
7
  6
CONTINUOUS
 10
128.4255513535
 20
182.9878063168
  0
VERTEX
  8
0
 62
7
  6
CONTINUOUS
 10
128.4243194963
 20
182.7638087924
  0
SEQEND
  0
LINE
  8
0
 62
7
  6
CONTINUOUS
 10
128.4103198162
 20
183.0366349051
 11
128.4091440664
 21
183.4916650867
  0
LINE
  8
0
 62
7
  6
CONTINUOUS
 10
128.4013445828
 20
190.333821881
 11
128.4013445828
 21
175.8994245962
  0
LINE
  8
0
 62
7
  6
CONTINUOUS
 10
128.4013445828
 20
49.6166650867
 11
128.4013445828
 21
112.5768045639
  0
LINE
  8
0
 62
7
  6
CONTINUOUS
 10
128.4013445828
 20
112.6166650867
 11
128.4013445828
 21
149.6099269566
  0
LINE
  8
SURFACE
 62
7
  6
CONTINUOUS
 10
128.4013445385
 20
149.6099269566
 11
128.4013445828
 21
175.8994245962
  0
LINE
  8
0
 62
7
  6
CONTINUOUS
 10
128.4013445828
 20
165.1166650867
 11
128.4013445828
 21
175.1166650867
  0
LINE
  8
0
 62
7
  6
CONTINUOUS
 10
128.4013445828
 20
191.1166650867
 11
128.4013445828
 21
201.1166650867
  0
LINE
  8
0
 62
7
  6
CONTINUOUS
 10
128.4013445828
 20
217.1166650867
 11
128.4013445828
 21
224.3493380987
  0
LINE
  8
SURFACE
 62
7
  6
CONTINUOUS
 10
128.4013445828
 20
190.333821881
 11
128.4013445828
 21
238.1166650867
  0
LINE
  8
0
 62
7
  6
CONTINUOUS
 10
128.4013445828
 20
231.8839920746
 11
128.4013445828
 21
237.564306746
  0
LINE
  8
SURFACE
 62
7
  6
CONTINUOUS
 10
131.6070760705
 20
70.6881264521
 11
131.6070760705
 21
75.1166650867
  0
LINE
  8
SURFACE
 62
7
  6
CONTINUOUS
 10
131.6070760705
 20
212.6166650867
 11
131.6070760705
 21
217.0452037213
  0
LINE
  8
0
 62
7
  6
CONTINUOUS
 10
131.6070763008
 20
70.6931901859
 11
131.6070760744
 21
70.6921264465
  0
LINE
  8
SURFACE
 62
7
  6
CONTINUOUS
 10
128.4013460559
 20
178.1166424138
 11
128.4013445828
 21
178.1138769677
  0
LINE
  8
0
 62
7
  6
CONTINUOUS
 10
128.4013445828
 20
103.0681231056
 11
128.4023552521
 21
103.3678838966
  0
LINE
  8
SURFACE
 62
7
  6
CONTINUOUS
 10
128.4013616905
 20
162.1260754059
 11
128.4013193981
 21
162.1168790588
  0
LINE
  8
0
 62
7
  6
CONTINUOUS
 10
128.4088599073
 20
182.6405139241
 11
128.4103198162
 21
183.0366349051
  0
POLYLINE
  8
0
 62
7
  6
CONTINUOUS
 66
1
 70
0
  0
VERTEX
  8
0
 62
7
  6
CONTINUOUS
 10
128.4253769026
 20
104.4916650867
  0
VERTEX
  8
0
 62
7
  6
CONTINUOUS
 10
128.4234992344
 20
104.2279007869
  0
VERTEX
  8
0
 62
7
  6
CONTINUOUS
 10
128.4197707779
 20
103.9391439328
  0
SEQEND
  0
LINE
  8
0
 62
7
  6
CONTINUOUS
 10
128.4013545432
 20
135.6196012797
 11
128.4013300736
 21
135.6165568633
  0
LINE
  8
0
 62
7
  6
CONTINUOUS
 10
128.4040189548
 20
103.0084611303
 11
128.4014765439
 21
102.7044310188
  0
LINE
  8
0
 62
7
  6
CONTINUOUS
 10
128.401756852
 20
181.7044310188
 11
128.4088599073
 21
182.6405139241
  0
POLYLINE
  8
0
 62
7
  6
CONTINUOUS
 66
1
 70
0
  0
VERTEX
  8
0
 62
7
  6
CONTINUOUS
 10
128.4023552521
 20
103.3678838966
  0
VERTEX
  8
0
 62
7
  6
CONTINUOUS
 10
128.4071336289
 20
103.9573551836
  0
VERTEX
  8
0
 62
7
  6
CONTINUOUS
 10
128.4101571524
 20
104.4916650867
  0
SEQEND
  0
LINE
  8
0
 62
7
  6
CONTINUOUS
 10
128.4243194963
 20
182.7638087924
 11
128.4189838204
 21
182.3379022235
  0
LINE
  8
0
 62
7
  6
CONTINUOUS
 10
128.4197707779
 20
103.9391439328
 11
128.4040189548
 21
103.0084611303
  0
LINE
  8
0
 62
7
  6
CONTINUOUS
 10
128.4189838204
 20
182.3379022235
 11
128.4076752784
 21
181.7044310188
  0
POLYLINE
  8
SURFACE
 62
7
  6
CONTINUOUS
 66
1
 70
0
  0
VERTEX
  8
SURFACE
 62
7
  6
CONTINUOUS
 10
134.3380170093
 20
205.6296697243
  0
VERTEX
  8
SURFACE
 62
7
  6
CONTINUOUS
 10
134.3127266768
 20
204.6385329422
  0
VERTEX
  8
SURFACE
 62
7
  6
CONTINUOUS
 10
134.2707768502
 20
202.9029342754
  0
SEQEND
  0
LINE
  8
0
 62
7
  6
CONTINUOUS
 10
128.4013429412
 20
135.6166643607
 11
128.4046242613
 21
135.6976701829
  0
LINE
  8
0
 62
7
  6
CONTINUOUS
 10
128.4289074561
 20
102.7044310188
 11
128.4189248968
 21
102.4916650867
  0
LINE
  8
SURFACE
 62
7
  6
CONTINUOUS
 10
134.9763447001
 20
239.9009803481
 11
134.9696616929
 21
239.7674693636
  0
LINE
  8
0
 62
7
  6
CONTINUOUS
 10
128.403546201
 20
135.6810474074
 11
128.4025182384
 21
135.6639019612
  0
POLYLINE
  8
SURFACE
 62
7
  6
CONTINUOUS
 66
1
 70
0
  0
VERTEX
  8
SURFACE
 62
7
  6
CONTINUOUS
 10
134.2707760159
 20
202.9028732329
  0
VERTEX
  8
SURFACE
 62
7
  6
CONTINUOUS
 10
134.2611845111
 20
202.7959871279
  0
VERTEX
  8
SURFACE
 62
7
  6
CONTINUOUS
 10
134.2326399545
 20
202.6737455816
  0
VERTEX
  8
SURFACE
 62
7
  6
CONTINUOUS
 10
134.188404395
 20
202.5611113021
  0
VERTEX
  8
SURFACE
 62
7
  6
CONTINUOUS
 10
134.1326395334
 20
202.4616320717
  0
VERTEX
  8
SURFACE
 62
7
  6
CONTINUOUS
 10
134.069877767
 20
202.3770698826
  0
VERTEX
  8
SURFACE
 62
7
  6
CONTINUOUS
 10
134.0034595574
 20
202.3067703875
  0
VERTEX
  8
SURFACE
 62
7
  6
CONTINUOUS
 10
133.9351287836
 20
202.2489104471
  0
VERTEX
  8
SURFACE
 62
7
  6
CONTINUOUS
 10
133.8675924707
 20
202.2029493399
  0
VERTEX
  8
SURFACE
 62
7
  6
CONTINUOUS
 10
133.8038933247
 20
202.1682506361
  0
VERTEX
  8
SURFACE
 62
7
  6
CONTINUOUS
 10
133.7467973064
 20
202.143652302
  0
VERTEX
  8
SURFACE
 62
7
  6
CONTINUOUS
 10
133.699367552
 20
202.1278224839
  0
VERTEX
  8
SURFACE
 62
7
  6
CONTINUOUS
 10
133.6649234181
 20
202.1191733971
  0
VERTEX
  8
SURFACE
 62
7
  6
CONTINUOUS
 10
133.645200144
 20
202.1155768364
  0
VERTEX
  8
SURFACE
 62
7
  6
CONTINUOUS
 10
133.6437226517
 20
202.1153649777
  0
SEQEND
  0
LINE
  8
0
 62
7
  6
CONTINUOUS
 10
142.340882881
 20
136.6720051111
 11
142.3531981039
 21
136.6743144459
  0
LINE
  8
0
 62
7
  6
CONTINUOUS
 10
142.3531981039
 20
136.6743144459
 11
142.3530591763
 21
136.6742924261
  0
POLYLINE
  8
0
 62
7
  6
CONTINUOUS
 66
1
 70
0
  0
VERTEX
  8
0
 62
7
  6
CONTINUOUS
 10
146.1088626228
 20
136.6666651852
  0
VERTEX
  8
0
 62
7
  6
CONTINUOUS
 10
146.2601363439
 20
136.6742234142
  0
VERTEX
  8
0
 62
7
  6
CONTINUOUS
 10
146.470320934
 20
136.7119835364
  0
VERTEX
  8
0
 62
7
  6
CONTINUOUS
 10
146.6685596461
 20
136.7812162015
  0
VERTEX
  8
0
 62
7
  6
CONTINUOUS
 10
146.8513448786
 20
136.8808362341
  0
VERTEX
  8
0
 62
7
  6
CONTINUOUS
 10
147.0153195676
 20
137.0092836283
  0
VERTEX
  8
0
 62
7
  6
CONTINUOUS
 10
147.1571276826
 20
137.1646084712
  0
VERTEX
  8
0
 62
7
  6
CONTINUOUS
 10
147.2722891724
 20
137.3421346436
  0
VERTEX
  8
0
 62
7
  6
CONTINUOUS
 10
147.3576727215
 20
137.5344380077
  0
VERTEX
  8
0
 62
7
  6
CONTINUOUS
 10
147.4137436607
 20
137.7348801495
  0
VERTEX
  8
0
 62
7
  6
CONTINUOUS
 10
147.4435554176
 20
137.939271363
  0
VERTEX
  8
0
 62
7
  6
CONTINUOUS
 10
147.4513445712
 20
138.1234095902
  0
SEQEND
  0
LINE
  8
0
 62
7
  6
CONTINUOUS
 10
134.6763445828
 20
133.6166650867
 11
141.1763445828
 21
133.6166650867
  0
LINE
  8
0
 62
7
  6
CONTINUOUS
 10
129.7435209069
 20
136.6666650867
 11
133.5336367835
 21
136.6666650867
  0
LINE
  8
0
 62
7
  6
CONTINUOUS
 10
142.2109999509
 20
136.6666650867
 11
146.1089778074
 21
136.6666650867
  0
POLYLINE
  8
0
 62
7
  6
CONTINUOUS
 66
1
 70
0
  0
VERTEX
  8
0
 62
7
  6
CONTINUOUS
 10
133.4995295481
 20
136.6743111754
  0
VERTEX
  8
0
 62
7
  6
CONTINUOUS
 10
133.5007214609
 20
136.6741138798
  0
VERTEX
  8
0
 62
7
  6
CONTINUOUS
 10
133.5151331607
 20
136.6712969546
  0
VERTEX
  8
0
 62
7
  6
CONTINUOUS
 10
133.5436920592
 20
136.6641480277
  0
VERTEX
  8
0
 62
7
  6
CONTINUOUS
 10
133.5863484325
 20
136.6505577586
  0
VERTEX
  8
0
 62
7
  6
CONTINUOUS
 10
133.6412693867
 20
136.6284905845
  0
VERTEX
  8
0
 62
7
  6
CONTINUOUS
 10
133.7059164329
 20
136.5960142019
  0
VERTEX
  8
0
 62
7
  6
CONTINUOUS
 10
133.7771016581
 20
136.5515694936
  0
VERTEX
  8
0
 62
7
  6
CONTINUOUS
 10
133.8513215007
 20
136.4940917383
  0
VERTEX
  8
0
 62
7
  6
CONTINUOUS
 10
133.9248420757
 20
136.4232344488
  0
VERTEX
  8
0
 62
7
  6
CONTINUOUS
 10
133.9943074297
 20
136.3389936819
  0
VERTEX
  8
0
 62
7
  6
CONTINUOUS
 10
134.056742376
 20
136.2414496906
  0
VERTEX
  8
0
 62
7
  6
CONTINUOUS
 10
134.1090843527
 20
136.1312081459
  0
VERTEX
  8
0
 62
7
  6
CONTINUOUS
 10
134.1482695022
 20
136.00944262
  0
VERTEX
  8
0
 62
7
  6
CONTINUOUS
 10
134.1713215246
 20
135.8779213085
  0
VERTEX
  8
0
 62
7
  6
CONTINUOUS
 10
134.1763465221
 20
135.7805874944
  0
SEQEND
  0
LINE
  8
0
 62
7
  6
CONTINUOUS
 10
141.7089487212
 20
98.3593440996
 11
141.6820285623
 21
98.5058416431
  0
LINE
  8
0
 62
7
  6
CONTINUOUS
 10
134.1763445828
 20
136.5639450188
 11
134.1763445828
 21
134.1166650867
  0
LINE
  8
0
 62
7
  6
CONTINUOUS
 10
134.1763445828
 20
127.1166650867
 11
134.1763445828
 21
124.4835955557
  0
LINE
  8
0
 62
7
  6
CONTINUOUS
 10
134.1763445828
 20
110.7497346325
 11
134.1763445828
 21
108.1166650867
  0
LINE
  8
0
 62
7
  6
CONTINUOUS
 10
134.1763445828
 20
101.1166650867
 11
134.1763445828
 21
98.4835955578
  0
LINE
  8
SURFACE
 62
7
  6
CONTINUOUS
 10
134.1763445828
 20
151.1693851545
 11
134.1763445828
 21
153.6166650867
  0
LINE
  8
SURFACE
 62
7
  6
CONTINUOUS
 10
134.1763445828
 20
160.6166650867
 11
134.1763445828
 21
163.2497346176
  0
LINE
  8
SURFACE
 62
7
  6
CONTINUOUS
 10
134.1763445828
 20
176.9835955409
 11
134.1763445828
 21
179.6166650867
  0
LINE
  8
SURFACE
 62
7
  6
CONTINUOUS
 10
134.1763445828
 20
186.6166650867
 11
134.1763445828
 21
189.2497346156
  0
LINE
  8
0
 62
7
  6
CONTINUOUS
 10
134.9763445828
 20
47.8323213054
 11
134.9763445828
 21
38.4166650867
  0
LINE
  8
SURFACE
 62
7
  6
CONTINUOUS
 10
134.9763445828
 20
239.901008868
 11
134.9763445828
 21
249.3166650867
  0
LINE
  8
SURFACE
 62
7
  6
CONTINUOUS
 10
135.9263445828
 20
228.3330204257
 11
135.9263445828
 21
227.9003097477
  0
LINE
  8
0
 62
7
  6
CONTINUOUS
 10
135.9263445828
 20
59.8330204256
 11
135.9263445828
 21
59.4003097477
  0
LINE
  8
SURFACE
 62
7
  6
CONTINUOUS
 10
137.9263445828
 20
142.2166650867
 11
137.9263445828
 21
145.5166650867
  0
LINE
  8
0
 62
7
  6
CONTINUOUS
 10
137.9263445828
 20
142.2166520456
 11
137.9263445828
 21
145.5166781278
  0
LINE
  8
DEFAULT_1
 62
7
  6
CENTER
 10
138.1263445828
 20
33.1789587852
 11
138.1263445828
 21
256.090021692
  0
LINE
  8
SURFACE
 62
7
  6
CONTINUOUS
 10
140.8763445828
 20
249.3166650867
 11
140.8763445828
 21
239.9010090716
  0
LINE
  8
0
 62
7
  6
CONTINUOUS
 10
140.8763445828
 20
47.8323211018
 11
140.8763445828
 21
38.4166650867
  0
POLYLINE
  8
SURFACE
 62
7
  6
CONTINUOUS
 66
1
 70
0
  0
VERTEX
  8
SURFACE
 62
7
  6
CONTINUOUS
 10
134.1763465223
 20
151.9527416511
  0
VERTEX
  8
SURFACE
 62
7
  6
CONTINUOUS
 10
134.1716638543
 20
151.8587772292
  0
VERTEX
  8
SURFACE
 62
7
  6
CONTINUOUS
 10
134.149010501
 20
151.7268858616
  0
VERTEX
  8
SURFACE
 62
7
  6
CONTINUOUS
 10
134.1101231612
 20
151.6047432617
  0
VERTEX
  8
SURFACE
 62
7
  6
CONTINUOUS
 10
134.0579888465
 20
151.4941273662
  0
VERTEX
  8
SURFACE
 62
7
  6
CONTINUOUS
 10
133.9956764534
 20
151.3962149428
  0
VERTEX
  8
SURFACE
 62
7
  6
CONTINUOUS
 10
133.9262486315
 20
151.3116140204
  0
VERTEX
  8
SURFACE
 62
7
  6
CONTINUOUS
 10
133.8526778976
 20
151.2404092172
  0
VERTEX
  8
SURFACE
 62
7
  6
CONTINUOUS
 10
133.7783268816
 20
151.1826118331
  0
VERTEX
  8
SURFACE
 62
7
  6
CONTINUOUS
 10
133.7069371669
 20
151.1378868481
  0
VERTEX
  8
SURFACE
 62
7
  6
CONTINUOUS
 10
133.6420339629
 20
151.1051822617
  0
VERTEX
  8
SURFACE
 62
7
  6
CONTINUOUS
 10
133.5868465566
 20
151.0829498669
  0
VERTEX
  8
SURFACE
 62
7
  6
CONTINUOUS
 10
133.5439572292
 20
151.0692564212
  0
VERTEX
  8
SURFACE
 62
7
  6
CONTINUOUS
 10
133.5152330118
 20
151.0620549646
  0
VERTEX
  8
SURFACE
 62
7
  6
CONTINUOUS
 10
133.5007375384
 20
151.0592189766
  0
VERTEX
  8
SURFACE
 62
7
  6
CONTINUOUS
 10
133.4995281642
 20
151.0590220403
  0
SEQEND
  0
POLYLINE
  8
SURFACE
 62
7
  6
CONTINUOUS
 66
1
 70
0
  0
VERTEX
  8
SURFACE
 62
7
  6
CONTINUOUS
 10
141.6815530343
 20
189.2229594797
  0
VERTEX
  8
SURFACE
 62
7
  6
CONTINUOUS
 10
141.7076777281
 20
189.3690905095
  0
VERTEX
  8
SURFACE
 62
7
  6
CONTINUOUS
 10
141.7550407464
 20
189.5092885092
  0
VERTEX
  8
SURFACE
 62
7
  6
CONTINUOUS
 10
141.8227672293
 20
189.6411349894
  0
VERTEX
  8
SURFACE
 62
7
  6
CONTINUOUS
 10
141.9099134332
 20
189.7622108381
  0
VERTEX
  8
SURFACE
 62
7
  6
CONTINUOUS
 10
142.0153223703
 20
189.8699423209
  0
VERTEX
  8
SURFACE
 62
7
  6
CONTINUOUS
 10
142.1345364437
 20
189.9597335932
  0
VERTEX
  8
SURFACE
 62
7
  6
CONTINUOUS
 10
142.2580492264
 20
190.0271569794
  0
VERTEX
  8
SURFACE
 62
7
  6
CONTINUOUS
 10
142.379164986
 20
190.07322656
  0
VERTEX
  8
SURFACE
 62
7
  6
CONTINUOUS
 10
142.4957884981
 20
190.1014386706
  0
SEQEND
  0
LINE
  8
0
 62
7
  6
CONTINUOUS
 10
132.569710039
 20
141.9166650867
 11
137.6263447912
 21
141.9166650867
  0
LINE
  8
DEFAULT_1
 62
7
  6
CENTER
 10
126.4013113565
 20
143.8666650867
 11
153.4513445828
 21
143.8666650867
  0
LINE
  8
0
 62
7
  6
CONTINUOUS
 10
146.4452575505
 20
82.5013961345
 11
146.4450408232
 21
82.502912903
  0
POLYLINE
  8
SURFACE
 62
7
  6
CONTINUOUS
 66
1
 70
0
  0
VERTEX
  8
SURFACE
 62
7
  6
CONTINUOUS
 10
147.4513445712
 20
149.609920378
  0
VERTEX
  8
SURFACE
 62
7
  6
CONTINUOUS
 10
147.4435101724
 20
149.7945739671
  0
VERTEX
  8
SURFACE
 62
7
  6
CONTINUOUS
 10
147.4135319655
 20
149.9994638348
  0
VERTEX
  8
SURFACE
 62
7
  6
CONTINUOUS
 10
147.3571395051
 20
150.2003843481
  0
VERTEX
  8
SURFACE
 62
7
  6
CONTINUOUS
 10
147.2712581287
 20
150.3931020725
  0
VERTEX
  8
SURFACE
 62
7
  6
CONTINUOUS
 10
147.1554247184
 20
150.570924041
  0
VERTEX
  8
SURFACE
 62
7
  6
CONTINUOUS
 10
147.012802218
 20
150.7263737218
  0
VERTEX
  8
SURFACE
 62
7
  6
CONTINUOUS
 10
146.8479434585
 20
150.8547217342
  0
VERTEX
  8
SURFACE
 62
7
  6
CONTINUOUS
 10
146.6642826113
 20
150.9539995525
  0
VERTEX
  8
SURFACE
 62
7
  6
CONTINUOUS
 10
146.4652532852
 20
151.022662758
  0
VERTEX
  8
SURFACE
 62
7
  6
CONTINUOUS
 10
146.2544261753
 20
151.0596760029
  0
VERTEX
  8
SURFACE
 62
7
  6
CONTINUOUS
 10
146.1088540159
 20
151.0666649826
  0
SEQEND
  0
POLYLINE
  8
SURFACE
 62
7
  6
CONTINUOUS
 66
1
 70
0
  0
VERTEX
  8
SURFACE
 62
7
  6
CONTINUOUS
 10
141.3053523595
 20
212.6336985722
  0
VERTEX
  8
SURFACE
 62
7
  6
CONTINUOUS
 10
141.2544448124
 20
214.085150625
  0
VERTEX
  8
SURFACE
 62
7
  6
CONTINUOUS
 10
141.123019446
 20
217.4880327227
  0
SEQEND
  0
LINE
  8
SURFACE
 62
7
  6
CONTINUOUS
 10
141.5819127507
 20
202.9029396349
 11
141.514697443
 21
205.6296669428
  0
LINE
  8
0
 62
7
  6
CONTINUOUS
 10
146.4453445828
 20
82.4945491655
 11
146.4452575505
 21
82.5013961345
  0
LINE
  8
SURFACE
 62
7
  6
CONTINUOUS
 10
141.6763445828
 20
189.2497346272
 11
141.6763445828
 21
186.6166650867
  0
LINE
  8
SURFACE
 62
7
  6
CONTINUOUS
 10
141.6763445828
 20
179.6166650867
 11
141.6763445828
 21
176.9835955531
  0
LINE
  8
SURFACE
 62
7
  6
CONTINUOUS
 10
141.6763445828
 20
163.2497346298
 11
141.6763445828
 21
160.6166650867
  0
LINE
  8
SURFACE
 62
7
  6
CONTINUOUS
 10
141.6763445828
 20
153.6166650867
 11
141.6763445828
 21
151.1693851592
  0
LINE
  8
0
 62
7
  6
CONTINUOUS
 10
141.6763445828
 20
98.4835955461
 11
141.6763445828
 21
101.1166650867
  0
LINE
  8
0
 62
7
  6
CONTINUOUS
 10
141.6763445828
 20
108.1166650867
 11
141.6763445828
 21
110.7497346202
  0
LINE
  8
0
 62
7
  6
CONTINUOUS
 10
141.6763445828
 20
124.4835955436
 11
141.6763445828
 21
127.1166650867
  0
LINE
  8
0
 62
7
  6
CONTINUOUS
 10
141.6763445828
 20
134.1166650867
 11
141.6763445828
 21
136.5639450142
  0
LINE
  8
0
 62
7
  6
CONTINUOUS
 10
144.9013445828
 20
49.6166650867
 11
144.9013445828
 21
70.6166650867
  0
LINE
  8
SURFACE
 62
7
  6
CONTINUOUS
 10
144.9013445828
 20
217.1166650867
 11
144.9013445828
 21
238.1166650867
  0
LINE
  8
SURFACE
 62
7
  6
CONTINUOUS
 10
145.6513445828
 20
213.759368758
 11
145.6513445828
 21
204.4739597722
  0
LINE
  8
SURFACE
 62
7
  6
CONTINUOUS
 10
145.6513445828
 20
187.8189317568
 11
145.6513445828
 21
178.4143981074
  0
LINE
  8
SURFACE
 62
7
  6
CONTINUOUS
 10
145.6513445828
 20
161.8189320853
 11
145.6513445828
 21
152.4143984354
  0
LINE
  8
0
 62
7
  6
CONTINUOUS
 10
145.6513445828
 20
83.2593704013
 11
145.6513445828
 21
73.9739597721
  0
LINE
  8
0
 62
7
  6
CONTINUOUS
 10
145.6513445828
 20
99.9143984165
 11
145.6513445828
 21
109.3189320659
  0
LINE
  8
0
 62
7
  6
CONTINUOUS
 10
145.6513445828
 20
125.914398088
 11
145.6513445828
 21
135.318931738
  0
LINE
  8
0
 62
7
  6
CONTINUOUS
 10
146.4453445828
 20
73.6166650867
 11
146.4453445828
 21
82.4945464135
  0
LINE
  8
SURFACE
 62
7
  6
CONTINUOUS
 10
146.4453445828
 20
205.2387837598
 11
146.4453445828
 21
214.1166650867
  0
LINE
  8
0
 62
7
  6
CONTINUOUS
 10
147.4513445828
 20
49.6166650867
 11
147.4513445828
 21
149.6099268553
  0
LINE
  8
SURFACE
 62
7
  6
CONTINUOUS
 10
147.4513445828
 20
149.609928206
 11
147.4513445828
 21
238.1166650867
  0
LINE
  8
SURFACE
 62
7
  6
CONTINUOUS
 10
146.4453445828
 20
205.2387810078
 11
146.4452575505
 21
205.2319340389
  0
LINE
  8
0
 62
7
  6
CONTINUOUS
 10
141.5146974438
 20
82.1036632599
 11
141.5819127562
 21
84.8303907729
  0
POLYLINE
  8
0
 62
7
  6
CONTINUOUS
 66
1
 70
0
  0
VERTEX
  8
0
 62
7
  6
CONTINUOUS
 10
141.1230189535
 20
70.245285526
  0
VERTEX
  8
0
 62
7
  6
CONTINUOUS
 10
141.2549154067
 20
73.6612250404
  0
VERTEX
  8
0
 62
7
  6
CONTINUOUS
 10
141.3053523569
 20
75.0996315281
  0
SEQEND
  0
LINE
  8
0
 62
7
  6
CONTINUOUS
 10
140.8763445038
 20
47.8323488575
 11
140.8833026832
 21
47.9685699566
  0
POLYLINE
  8
0
 62
7
  6
CONTINUOUS
 66
1
 70
0
  0
VERTEX
  8
0
 62
7
  6
CONTINUOUS
 10
141.6763423804
 20
135.7805724924
  0
VERTEX
  8
0
 62
7
  6
CONTINUOUS
 10
141.6813801953
 20
135.8780394479
  0
VERTEX
  8
0
 62
7
  6
CONTINUOUS
 10
141.7044598968
 20
136.009600338
  0
VERTEX
  8
0
 62
7
  6
CONTINUOUS
 10
141.7436653136
 20
136.1313578893
  0
VERTEX
  8
0
 62
7
  6
CONTINUOUS
 10
141.7960152265
 20
136.2415726707
  0
VERTEX
  8
0
 62
7
  6
CONTINUOUS
 10
141.8584612453
 20
136.3391030532
  0
VERTEX
  8
0
 62
7
  6
CONTINUOUS
 10
141.9279904164
 20
136.4233890531
  0
VERTEX
  8
0
 62
7
  6
CONTINUOUS
 10
142.00166691
 20
136.49434945
  0
VERTEX
  8
0
 62
7
  6
CONTINUOUS
 10
142.076126484
 20
136.5519430292
  0
VERTEX
  8
0
 62
7
  6
CONTINUOUS
 10
142.1475468287
 20
136.5964458345
  0
VERTEX
  8
0
 62
7
  6
CONTINUOUS
 10
142.212365973
 20
136.628912961
  0
VERTEX
  8
0
 62
7
  6
CONTINUOUS
 10
142.2673639679
 20
136.6509211255
  0
VERTEX
  8
0
 62
7
  6
CONTINUOUS
 10
142.309935639
 20
136.6644103028
  0
VERTEX
  8
0
 62
7
  6
CONTINUOUS
 10
142.338328973
 20
136.6714633703
  0
VERTEX
  8
0
 62
7
  6
CONTINUOUS
 10
142.340882881
 20
136.6720051111
  0
SEQEND
  0
POLYLINE
  8
0
 62
7
  6
CONTINUOUS
 66
1
 70
0
  0
VERTEX
  8
0
 62
7
  6
CONTINUOUS
 10
141.581914235
 20
84.8304778469
  0
VERTEX
  8
0
 62
7
  6
CONTINUOUS
 10
141.5880972288
 20
84.913157722
  0
VERTEX
  8
0
 62
7
  6
CONTINUOUS
 10
141.6112259953
 20
85.0294788886
  0
VERTEX
  8
0
 62
7
  6
CONTINUOUS
 10
141.6493809369
 20
85.1391667326
  0
VERTEX
  8
0
 62
7
  6
CONTINUOUS
 10
141.6993461348
 20
85.2382525309
  0
VERTEX
  8
0
 62
7
  6
CONTINUOUS
 10
141.7571836457
 20
85.3243103581
  0
VERTEX
  8
0
 62
7
  6
CONTINUOUS
 10
141.8191054045
 20
85.3966571346
  0
VERTEX
  8
0
 62
7
  6
CONTINUOUS
 10
141.8832924515
 20
85.4569881022
  0
VERTEX
  8
0
 62
7
  6
CONTINUOUS
 10
141.9480386624
 20
85.5064136023
  0
VERTEX
  8
0
 62
7
  6
CONTINUOUS
 10
142.0107166431
 20
85.5452878477
  0
VERTEX
  8
0
 62
7
  6
CONTINUOUS
 10
142.0689526227
 20
85.5744492154
  0
VERTEX
  8
0
 62
7
  6
CONTINUOUS
 10
142.1204542586
 20
85.5949901787
  0
VERTEX
  8
0
 62
7
  6
CONTINUOUS
 10
142.1623839878
 20
85.6080327021
  0
VERTEX
  8
0
 62
7
  6
CONTINUOUS
 10
142.1923321759
 20
85.6150932079
  0
VERTEX
  8
0
 62
7
  6
CONTINUOUS
 10
142.2089646609
 20
85.6179644045
  0
SEQEND
  0
POLYLINE
  8
0
 62
7
  6
CONTINUOUS
 66
1
 70
0
  0
VERTEX
  8
0
 62
7
  6
CONTINUOUS
 10
134.1707320067
 20
98.5065087019
  0
VERTEX
  8
0
 62
7
  6
CONTINUOUS
 10
134.1439554871
 20
98.3601652798
  0
VERTEX
  8
0
 62
7
  6
CONTINUOUS
 10
134.095803357
 20
98.21970758
  0
VERTEX
  8
0
 62
7
  6
CONTINUOUS
 10
134.0272167837
 20
98.0877982807
  0
VERTEX
  8
0
 62
7
  6
CONTINUOUS
 10
133.9393295966
 20
97.9670400964
  0
VERTEX
  8
0
 62
7
  6
CONTINUOUS
 10
133.8335709434
 20
97.860071787
  0
VERTEX
  8
0
 62
7
  6
CONTINUOUS
 10
133.7140455733
 20
97.7709753415
  0
VERTEX
  8
0
 62
7
  6
CONTINUOUS
 10
133.5889813774
 20
97.7036075422
  0
VERTEX
  8
0
 62
7
  6
CONTINUOUS
 10
133.4664791133
 20
97.6579678757
  0
VERTEX
  8
0
 62
7
  6
CONTINUOUS
 10
133.3496858261
 20
97.6306321335
  0
SEQEND
  0
POLYLINE
  8
0
 62
7
  6
CONTINUOUS
 66
1
 70
0
  0
VERTEX
  8
0
 62
7
  6
CONTINUOUS
 10
128.5182952931
 20
105.4916650867
  0
VERTEX
  8
0
 62
7
  6
CONTINUOUS
 10
128.4681300716
 20
105.3851199399
  0
VERTEX
  8
0
 62
7
  6
CONTINUOUS
 10
128.4314637832
 20
105.2778196504
  0
VERTEX
  8
0
 62
7
  6
CONTINUOUS
 10
128.408982435
 20
105.1700137352
  0
VERTEX
  8
0
 62
7
  6
CONTINUOUS
 10
128.4013445828
 20
105.061934685
  0
SEQEND
  0
POLYLINE
  8
SURFACE
 62
7
  6
CONTINUOUS
 66
1
 70
0
  0
VERTEX
  8
SURFACE
 62
7
  6
CONTINUOUS
 10
129.7438370471
 20
151.0666649769
  0
VERTEX
  8
SURFACE
 62
7
  6
CONTINUOUS
 10
129.598010993
 20
151.0596513612
  0
VERTEX
  8
SURFACE
 62
7
  6
CONTINUOUS
 10
129.3870005478
 20
151.0225505257
  0
VERTEX
  8
SURFACE
 62
7
  6
CONTINUOUS
 10
129.1878504531
 20
150.9537554441
  0
VERTEX
  8
SURFACE
 62
7
  6
CONTINUOUS
 10
129.0041142759
 20
150.8543093654
  0
VERTEX
  8
SURFACE
 62
7
  6
CONTINUOUS
 10
128.839204168
 20
150.7257437901
  0
VERTEX
  8
SURFACE
 62
7
  6
CONTINUOUS
 10
128.6965548392
 20
150.5700075612
  0
VERTEX
  8
SURFACE
 62
7
  6
CONTINUOUS
 10
128.5807606036
 20
150.3918631823
  0
VERTEX
  8
SURFACE
 62
7
  6
CONTINUOUS
 10
128.4949978852
 20
150.1988401204
  0
VERTEX
  8
SURFACE
 62
7
  6
CONTINUOUS
 10
128.4387815829
 20
149.997662788
  0
VERTEX
  8
SURFACE
 62
7
  6
CONTINUOUS
 10
128.4090037002
 20
149.7925690931
  0
VERTEX
  8
SURFACE
 62
7
  6
CONTINUOUS
 10
128.4013445914
 20
149.6099225696
  0
SEQEND
  0
LINE
  8
SURFACE
 62
7
  6
CONTINUOUS
 10
132.569710039
 20
145.8166650867
 11
137.6263447912
 21
145.8166650867
  0
LINE
  8
SURFACE
 62
7
  6
CONTINUOUS
 10
146.109168663
 20
151.0666650867
 11
142.3190297534
 21
151.0666650867
  0
LINE
  8
SURFACE
 62
7
  6
CONTINUOUS
 10
133.641659424
 20
151.0666650867
 11
129.7437112514
 21
151.0666650867
  0
LINE
  8
SURFACE
 62
7
  6
CONTINUOUS
 10
142.3531987966
 20
151.0590156178
 11
142.3530828561
 21
151.0590339924
  0
POLYLINE
  8
SURFACE
 62
7
  6
CONTINUOUS
 66
1
 70
0
  0
VERTEX
  8
SURFACE
 62
7
  6
CONTINUOUS
 10
142.3527892856
 20
151.0590811272
  0
VERTEX
  8
SURFACE
 62
7
  6
CONTINUOUS
 10
142.3382292624
 20
151.0618883127
  0
VERTEX
  8
SURFACE
 62
7
  6
CONTINUOUS
 10
142.3096710326
 20
151.0689935052
  0
VERTEX
  8
SURFACE
 62
7
  6
CONTINUOUS
 10
142.2668657111
 20
151.0825856895
  0
VERTEX
  8
SURFACE
 62
7
  6
CONTINUOUS
 10
142.2116011485
 20
151.1047587901
  0
VERTEX
  8
SURFACE
 62
7
  6
CONTINUOUS
 10
142.1465267324
 20
151.1374534459
  0
VERTEX
  8
SURFACE
 62
7
  6
CONTINUOUS
 10
142.0749027443
 20
151.1822359183
  0
VERTEX
  8
SURFACE
 62
7
  6
CONTINUOUS
 10
142.0003122053
 20
151.2401490122
  0
VERTEX
  8
SURFACE
 62
7
  6
CONTINUOUS
 10
141.9265850089
 20
151.3114574736
  0
VERTEX
  8
SURFACE
 62
7
  6
CONTINUOUS
 10
141.8570928692
 20
151.3961041102
  0
VERTEX
  8
SURFACE
 62
7
  6
CONTINUOUS
 10
141.7947688198
 20
151.4940035132
  0
VERTEX
  8
SURFACE
 62
7
  6
CONTINUOUS
 10
141.7426257426
 20
151.6045941769
  0
VERTEX
  8
SURFACE
 62
7
  6
CONTINUOUS
 10
141.7037180849
 20
151.7267292026
  0
VERTEX
  8
SURFACE
 62
7
  6
CONTINUOUS
 10
141.6810373296
 20
151.858659978
  0
VERTEX
  8
SURFACE
 62
7
  6
CONTINUOUS
 10
141.6763423802
 20
151.9527566558
  0
SEQEND
  0
LINE
  8
SURFACE
 62
7
  6
CONTINUOUS
 10
134.1503035082
 20
189.3474949846
 11
134.1724046654
 21
189.209739368
  0
LINE
  8
SURFACE
 62
7
  6
CONTINUOUS
 10
134.6763445828
 20
154.1166650867
 11
141.1763445828
 21
154.1166650867
  0
POLYLINE
  8
0
 62
7
  6
CONTINUOUS
 66
1
 70
0
  0
VERTEX
  8
0
 62
7
  6
CONTINUOUS
 10
140.8833026832
 20
47.9685699566
  0
VERTEX
  8
0
 62
7
  6
CONTINUOUS
 10
140.9092377084
 20
48.1262399389
  0
VERTEX
  8
0
 62
7
  6
CONTINUOUS
 10
140.9486655728
 20
48.2633103959
  0
VERTEX
  8
0
 62
7
  6
CONTINUOUS
 10
140.995354403
 20
48.3778515982
  0
VERTEX
  8
0
 62
7
  6
CONTINUOUS
 10
141.0433042907
 20
48.4692254261
  0
VERTEX
  8
0
 62
7
  6
CONTINUOUS
 10
141.0878096601
 20
48.5388846441
  0
VERTEX
  8
0
 62
7
  6
CONTINUOUS
 10
141.126682532
 20
48.5906118444
  0
SEQEND
  0
LINE
  8
SURFACE
 62
7
  6
CONTINUOUS
 10
141.1763445828
 20
160.1166650867
 11
134.6763445828
 21
160.1166650867
  0
LINE
  8
SURFACE
 62
7
  6
CONTINUOUS
 10
129.4013445828
 20
164.1166650867
 11
133.1763445828
 21
164.1166650867
  0
LINE
  8
SURFACE
 62
7
  6
CONTINUOUS
 10
142.6763445828
 20
164.1166650867
 11
146.4513445828
 21
164.1166650867
  0
POLYLINE
  8
SURFACE
 62
7
  6
CONTINUOUS
 66
1
 70
0
  0
VERTEX
  8
SURFACE
 62
7
  6
CONTINUOUS
 10
140.9087184199
 20
239.6093760899
  0
VERTEX
  8
SURFACE
 62
7
  6
CONTINUOUS
 10
140.8830058614
 20
239.7676843086
  0
VERTEX
  8
SURFACE
 62
7
  6
CONTINUOUS
 10
140.8763445036
 20
239.9009797413
  0
SEQEND
  0
LINE
  8
SURFACE
 62
7
  6
CONTINUOUS
 10
129.4013445828
 20
176.1166650867
 11
133.1763445828
 21
176.1166650867
  0
LINE
  8
SURFACE
 62
7
  6
CONTINUOUS
 10
142.6763445828
 20
176.1166650867
 11
146.4513445828
 21
176.1166650867
  0
LINE
  8
SURFACE
 62
7
  6
CONTINUOUS
 10
134.6763445828
 20
180.1166650867
 11
141.1763445828
 21
180.1166650867
  0
LINE
  8
0
 62
7
  6
CONTINUOUS
 10
128.4463991095
 20
181.4916650867
 11
128.4013445828
 21
181.4916650867
  0
LINE
  8
0
 62
7
  6
CONTINUOUS
 10
128.401756852
 20
181.7044310188
 11
128.6013445828
 21
181.7044310188
  0
LINE
  8
0
 62
7
  6
CONTINUOUS
 10
128.4091440664
 20
183.4916650867
 11
128.4236371682
 21
183.4916650867
  0
LINE
  8
0
 62
7
  6
CONTINUOUS
 10
128.4013445828
 20
184.3666650867
 11
128.4409013764
 21
184.3666650867
  0
LINE
  8
0
 62
7
  6
CONTINUOUS
 10
128.4013445828
 20
184.6166650867
 11
128.4321775635
 21
184.6166650867
  0
LINE
  8
SURFACE
 62
7
  6
CONTINUOUS
 10
141.1763445828
 20
186.1166650867
 11
134.6763445828
 21
186.1166650867
  0
POLYLINE
  8
SURFACE
 62
7
  6
CONTINUOUS
 66
1
 70
0
  0
VERTEX
  8
SURFACE
 62
7
  6
CONTINUOUS
 10
133.3440866028
 20
190.1036372765
  0
VERTEX
  8
SURFACE
 62
7
  6
CONTINUOUS
 10
133.4534025302
 20
190.0791756982
  0
VERTEX
  8
SURFACE
 62
7
  6
CONTINUOUS
 10
133.5646928397
 20
190.0402569165
  0
VERTEX
  8
SURFACE
 62
7
  6
CONTINUOUS
 10
133.6747733607
 20
189.9860316207
  0
VERTEX
  8
SURFACE
 62
7
  6
CONTINUOUS
 10
133.7812196274
 20
189.9157355384
  0
VERTEX
  8
SURFACE
 62
7
  6
CONTINUOUS
 10
133.8811585066
 20
189.8290942326
  0
VERTEX
  8
SURFACE
 62
7
  6
CONTINUOUS
 10
133.9713864644
 20
189.7265275264
  0
VERTEX
  8
SURFACE
 62
7
  6
CONTINUOUS
 10
134.0482448718
 20
189.6099197619
  0
VERTEX
  8
SURFACE
 62
7
  6
CONTINUOUS
 10
134.1085968694
 20
189.4823083756
  0
VERTEX
  8
SURFACE
 62
7
  6
CONTINUOUS
 10
134.1503035082
 20
189.3474949846
  0
SEQEND
  0
POLYLINE
  8
SURFACE
 62
7
  6
CONTINUOUS
 66
1
 70
0
  0
VERTEX
  8
SURFACE
 62
7
  6
CONTINUOUS
 10
142.4957884981
 20
190.1014386706
  0
VERTEX
  8
SURFACE
 62
7
  6
CONTINUOUS
 10
142.606557472
 20
190.1147592911
  0
VERTEX
  8
SURFACE
 62
7
  6
CONTINUOUS
 10
142.6661742839
 20
190.1166640626
  0
SEQEND
  0
LINE
  8
SURFACE
 62
7
  6
CONTINUOUS
 10
129.4013445828
 20
190.1166650867
 11
133.1854274702
 21
190.1166650867
  0
LINE
  8
SURFACE
 62
7
  6
CONTINUOUS
 10
142.6661742843
 20
190.1166636746
 11
146.4513445828
 21
190.1166650867
  0
LINE
  8
SURFACE
 62
7
  6
CONTINUOUS
 10
133.1863522224
 20
190.116664379
 11
133.2398281974
 21
190.1151343595
  0
LINE
  8
SURFACE
 62
7
  6
CONTINUOUS
 10
133.2398281974
 20
190.1151343595
 11
133.3440866028
 21
190.1036372765
  0
LINE
  8
SURFACE
 62
7
  6
CONTINUOUS
 10
129.4013445828
 20
202.1166650867
 11
133.6511680282
 21
202.1166650867
  0
LINE
  8
SURFACE
 62
7
  6
CONTINUOUS
 10
142.2014509254
 20
202.1166650867
 11
146.4513445828
 21
202.1166650867
  0
LINE
  8
SURFACE
 62
7
  6
CONTINUOUS
 10
142.2089628398
 20
202.1153660229
 11
142.2088954855
 21
202.1153754216
  0
POLYLINE
  8
SURFACE
 62
7
  6
CONTINUOUS
 66
1
 70
0
  0
VERTEX
  8
SURFACE
 62
7
  6
CONTINUOUS
 10
142.2089934094
 20
202.115361761
  0
VERTEX
  8
SURFACE
 62
7
  6
CONTINUOUS
 10
142.1921880899
 20
202.1182656855
  0
VERTEX
  8
SURFACE
 62
7
  6
CONTINUOUS
 10
142.1604911182
 20
202.1258109373
  0
VERTEX
  8
SURFACE
 62
7
  6
CONTINUOUS
 10
142.1148791943
 20
202.1403273801
  0
VERTEX
  8
SURFACE
 62
7
  6
CONTINUOUS
 10
142.0581321482
 20
202.163817385
  0
VERTEX
  8
SURFACE
 62
7
  6
CONTINUOUS
 10
141.9936962756
 20
202.1977992045
  0
VERTEX
  8
SURFACE
 62
7
  6
CONTINUOUS
 10
141.9246111854
 20
202.243630077
  0
VERTEX
  8
SURFACE
 62
7
  6
CONTINUOUS
 10
141.8542145148
 20
202.302105146
  0
VERTEX
  8
SURFACE
 62
7
  6
CONTINUOUS
 10
141.7855670888
 20
202.3738159346
  0
VERTEX
  8
SURFACE
 62
7
  6
CONTINUOUS
 10
141.7202021734
 20
202.461399211
  0
VERTEX
  8
SURFACE
 62
7
  6
CONTINUOUS
 10
141.6624182894
 20
202.5650557911
  0
VERTEX
  8
SURFACE
 62
7
  6
CONTINUOUS
 10
141.6178893844
 20
202.6807492708
  0
VERTEX
  8
SURFACE
 62
7
  6
CONTINUOUS
 10
141.5905421493
 20
202.8023237183
  0
VERTEX
  8
SURFACE
 62
7
  6
CONTINUOUS
 10
141.5819131711
 20
202.9028985435
  0
SEQEND
  0
POLYLINE
  8
SURFACE
 62
7
  6
CONTINUOUS
 66
1
 70
0
  0
VERTEX
  8
SURFACE
 62
7
  6
CONTINUOUS
 10
141.1264174309
 20
239.1430451752
  0
VERTEX
  8
SURFACE
 62
7
  6
CONTINUOUS
 10
141.0874303842
 20
239.1949893472
  0
VERTEX
  8
SURFACE
 62
7
  6
CONTINUOUS
 10
141.0428259896
 20
239.2649232692
  0
VERTEX
  8
SURFACE
 62
7
  6
CONTINUOUS
 10
140.9947970159
 20
239.3566690082
  0
VERTEX
  8
SURFACE
 62
7
  6
CONTINUOUS
 10
140.948076433
 20
239.471707452
  0
VERTEX
  8
SURFACE
 62
7
  6
CONTINUOUS
 10
140.9087184199
 20
239.6093760899
  0
SEQEND
  0
LINE
  8
0
 62
7
  6
CONTINUOUS
 10
141.126682532
 20
48.5906118444
 11
141.1492444934
 21
48.6166650867
  0
LINE
  8
SURFACE
 62
7
  6
CONTINUOUS
 10
134.8378540418
 20
206.1166650867
 11
141.0148601707
 21
206.1166650867
  0
LINE
  8
SURFACE
 62
7
  6
CONTINUOUS
 10
141.1492416447
 20
239.1166650867
 11
141.1264174309
 21
239.1430451752
  0
LINE
  8
SURFACE
 62
7
  6
CONTINUOUS
 10
132.1070874343
 20
212.1166650867
 11
140.8056421594
 21
212.1166650867
  0
LINE
  8
SURFACE
 62
7
  6
CONTINUOUS
 10
129.4013445828
 20
216.1166650867
 11
131.6070760705
 21
216.1166650867
  0
LINE
  8
SURFACE
 62
7
  6
CONTINUOUS
 10
141.1759841062
 20
216.1166650867
 11
146.4513445828
 21
216.1166650867
  0
LINE
  8
SURFACE
 62
7
  6
CONTINUOUS
 10
129.1425255377
 20
225.315263925
 11
135.1851632356
 21
226.9343838163
  0
LINE
  8
SURFACE
 62
7
  6
CONTINUOUS
 10
135.1851522971
 20
229.298949288
 11
129.1425255377
 21
230.9180662484
  0
POLYLINE
  8
SURFACE
 62
7
  6
CONTINUOUS
 66
1
 70
0
  0
VERTEX
  8
SURFACE
 62
7
  6
CONTINUOUS
 10
129.8161528646
 20
239.1166643456
  0
VERTEX
  8
SURFACE
 62
7
  6
CONTINUOUS
 10
129.6605676596
 20
239.1079638747
  0
VERTEX
  8
SURFACE
 62
7
  6
CONTINUOUS
 10
129.4769378075
 20
239.0742224616
  0
VERTEX
  8
SURFACE
 62
7
  6
CONTINUOUS
 10
129.3036073697
 20
239.0163932373
  0
VERTEX
  8
SURFACE
 62
7
  6
CONTINUOUS
 10
129.1422982356
 20
238.9359932024
  0
VERTEX
  8
SURFACE
 62
7
  6
CONTINUOUS
 10
128.9939699532
 20
238.8340732429
  0
VERTEX
  8
SURFACE
 62
7
  6
CONTINUOUS
 10
128.8595507465
 20
238.711119362
  0
VERTEX
  8
SURFACE
 62
7
  6
CONTINUOUS
 10
128.7407473436
 20
238.5679423627
  0
VERTEX
  8
SURFACE
 62
7
  6
CONTINUOUS
 10
128.6578601156
 20
238.4391303327
  0
SEQEND
  0
LINE
  8
SURFACE
 62
7
  6
CONTINUOUS
 10
129.4013445828
 20
239.1166650867
 11
146.4513445828
 21
239.1166650867
  0
LINE
  8
SURFACE
 62
7
  6
CONTINUOUS
 10
138.3763445828
 20
251.8166650867
 11
137.4763445828
 21
251.8166650867
  0
ARC
  8
0
 62
7
  6
CONTINUOUS
 10
34.9220798477
 20
49.6166650867
 40
1.0
 50
180.0
 51
270.0
  0
ARC
  8
0
 62
7
  6
CONTINUOUS
 10
34.9220798477
 20
64.9366277311
 40
1.0
 50
159.0299125367
 51
180.0
  0
ARC
  8
0
 62
7
  6
CONTINUOUS
 10
33.3720798515
 20
66.3975558941
 40
0.9999999992
 50
334.8098974458
 51
359.9999993456
  0
ARC
  8
0
 62
7
  6
CONTINUOUS
 10
34.8720798477
 20
82.1166650867
 40
0.5
 50
180.0
 51
270.0000001062
  0
ARC
  8
0
 62
7
  6
CONTINUOUS
 10
34.8720798477
 20
75.1166650867
 40
0.5
 50
90.0
 51
180.0
  0
ARC
  8
0
 62
7
  6
CONTINUOUS
 10
38.2232695899
 20
75.1166650867
 40
0.5
 50
354.913
 51
90.0
  0
ARC
  8
0
 62
7
  6
CONTINUOUS
 10
40.7138759152
 20
53.6166650867
 40
5.0
 50
270.0
 51
286.9574262942
  0
ARC
  8
0
 62
7
  6
CONTINUOUS
 10
39.9220798477
 20
47.1166650867
 40
1.5
 50
0.0
 51
89.9999977419
  0
ARC
  8
0
 62
7
  6
CONTINUOUS
 10
43.3259863867
 20
61.7157031925
 40
10.0
 50
99.6494631176
 51
159.0299125367
  0
ARC
  8
0
 62
7
  6
CONTINUOUS
 10
42.1526471624
 20
68.6166650867
 40
3.0
 50
90.0
 51
99.6494631176
  0
ARC
  8
0
 62
7
  6
CONTINUOUS
 10
40.5748809453
 20
84.6166650867
 40
1.0
 50
90.01380616
 51
174.913
  0
ARC
  8
0
 62
7
  6
CONTINUOUS
 10
39.4527596893
 20
72.011241787
 40
1.0
 50
174.913
 51
290.6165194874
  0
ARC
  8
0
 62
7
  6
CONTINUOUS
 10
38.8463999053
 20
82.1166650867
 40
0.5
 50
270.0
 51
354.912993238
  0
ARC
  8
0
 62
7
  6
CONTINUOUS
 10
38.1962780665
 20
114.6166650867
 40
3.0
 50
234.2467494986
 51
270.0
  0
ARC
  8
0
 62
7
  6
CONTINUOUS
 10
38.1962780665
 20
94.6166650867
 40
3.0
 50
90.0
 51
125.753285862
  0
ARC
  8
0
 62
7
  6
CONTINUOUS
 10
38.1962780665
 20
88.6166650867
 40
3.0
 50
234.2461301233
 51
269.999863875
  0
ARC
  8
0
 62
7
  6
CONTINUOUS
 10
34.9220798477
 20
115.1237143115
 40
1.0
 50
180.0
 51
215.0897993214
  0
ARC
  8
0
 62
7
  6
CONTINUOUS
 10
34.9220798477
 20
94.1096158618
 40
1.0
 50
144.9102006786
 51
180.0
  0
ARC
  8
0
 62
7
  6
CONTINUOUS
 10
34.9220798477
 20
89.1237143115
 40
1.0
 50
180.0
 51
215.0897993214
  0
ARC
  8
0
 62
7
  6
CONTINUOUS
 10
34.8720798477
 20
108.1166650867
 40
0.5
 50
180.0
 51
270.0000001534
  0
ARC
  8
0
 62
7
  6
CONTINUOUS
 10
34.8720798477
 20
101.1166650867
 40
0.5
 50
89.9999998466
 51
180.0
  0
ARC
  8
0
 62
7
  6
CONTINUOUS
 10
38.1962780665
 20
120.6166650867
 40
3.0
 50
90.0
 51
125.7532856806
  0
ARC
  8
0
 62
7
  6
CONTINUOUS
 10
34.9220798477
 20
141.1237143115
 40
1.0
 50
180.0
 51
215.0897993214
  0
ARC
  8
0
 62
7
  6
CONTINUOUS
 10
34.9220798477
 20
120.1096158618
 40
1.0
 50
144.9102006786
 51
180.0
  0
ARC
  8
0
 62
7
  6
CONTINUOUS
 10
34.8720798477
 20
134.1166650867
 40
0.5
 50
180.0
 51
270.0000001534
  0
ARC
  8
0
 62
7
  6
CONTINUOUS
 10
34.8720798477
 20
127.1166650867
 40
0.5
 50
89.9999998466
 51
180.0
  0
ARC
  8
0
 62
7
  6
CONTINUOUS
 10
40.5377595175
 20
101.1166650867
 40
0.5
 50
354.912993238
 51
90.0
  0
ARC
  8
0
 62
7
  6
CONTINUOUS
 10
41.1608920062
 20
108.1166650867
 40
0.5
 50
270.0
 51
354.912993238
  0
ARC
  8
0
 62
7
  6
CONTINUOUS
 10
42.2863485295
 20
88.9358796122
 40
10.0
 50
125.7532647452
 51
144.9102006786
  0
ARC
  8
0
 62
7
  6
CONTINUOUS
 10
42.2863485295
 20
94.2974505612
 40
10.0
 50
215.0897993214
 51
234.2465600504
  0
ARC
  8
0
 62
7
  6
CONTINUOUS
 10
43.6775172011
 20
94.6166650867
 40
3.0
 50
34.849904579
 51
90.0
  0
ARC
  8
0
 62
7
  6
CONTINUOUS
 10
43.6775172011
 20
88.6166650867
 40
3.0
 50
270.0
 51
325.150095421
  0
ARC
  8
0
 62
7
  6
CONTINUOUS
 10
42.2863485295
 20
114.9358796122
 40
10.0
 50
125.7532646908
 51
144.9102006786
  0
ARC
  8
0
 62
7
  6
CONTINUOUS
 10
43.6775172011
 20
114.6166650867
 40
3.0
 50
270.0
 51
325.150095421
  0
ARC
  8
0
 62
7
  6
CONTINUOUS
 10
42.8893709372
 20
110.6166650867
 40
0.9999995799
 50
90.000004576
 51
174.913
  0
ARC
  8
0
 62
7
  6
CONTINUOUS
 10
42.2863485295
 20
120.2974505612
 40
10.0
 50
215.0897993214
 51
234.246745863
  0
ARC
  8
SURFACE
 62
7
  6
CONTINUOUS
 10
42.2863485295
 20
141.4358796122
 40
10.0
 50
120.8673453759
 51
144.9102006786
  0
ARC
  8
SURFACE
 62
7
  6
CONTINUOUS
 10
40.9489940538
 20
143.6733289996
 40
7.393336087
 50
51.6064533158
 51
120.8673453759
  0
ARC
  8
0
 62
7
  6
CONTINUOUS
 10
43.6775172011
 20
140.6166650867
 40
3.0
 50
308.3935466842
 51
325.150095421
  0
ARC
  8
0
 62
7
  6
CONTINUOUS
 10
43.6775172011
 20
120.6166650867
 40
3.0
 50
34.849904579
 51
90.0
  0
ARC
  8
0
 62
7
  6
CONTINUOUS
 10
43.3720798477
 20
124.6166650867
 40
1.0
 50
180.0
 51
267.1400808166
  0
ARC
  8
0
 62
7
  6
CONTINUOUS
 10
41.8720798477
 20
134.1166650867
 40
0.5
 50
269.9999998466
 51
360.0
  0
ARC
  8
0
 62
7
  6
CONTINUOUS
 10
41.8720798477
 20
127.1166650867
 40
0.5
 50
0.0
 51
90.0000001534
  0
ARC
  8
0
 62
7
  6
CONTINUOUS
 10
47.4220798477
 20
31.6166650867
 40
18.0
 50
73.0425737058
 51
106.9574262942
  0
ARC
  8
0
 62
7
  6
CONTINUOUS
 10
54.1302837802
 20
53.6166650867
 40
5.0
 50
253.0425737058
 51
270.0
  0
ARC
  8
0
 62
7
  6
CONTINUOUS
 10
49.4220798477
 20
84.6166650867
 40
4.0
 50
18.2099568643
 51
145.150095421
  0
ARC
  8
0
 62
7
  6
CONTINUOUS
 10
50.7051003581
 20
85.0387478464
 40
2.6493351688
 50
312.2286632698
 51
18.2099568643
  0
ARC
  8
0
 62
7
  6
CONTINUOUS
 10
50.7051003581
 20
85.0387478464
 40
2.6493351688
 50
286.7181360675
 51
287.347913232
  0
ARC
  8
0
 62
7
  6
CONTINUOUS
 10
48.9220798477
 20
38.4166650867
 40
2.5
 50
269.9999999256
 51
360.0
  0
ARC
  8
0
 62
7
  6
CONTINUOUS
 10
43.9220798477
 20
38.4166650867
 40
2.5
 50
180.0
 51
270.0000000744
  0
ARC
  8
0
 62
7
  6
CONTINUOUS
 10
52.0425452638
 20
80.5859331596
 40
2.0
 50
106.7181360675
 51
184.3696273051
  0
ARC
  8
0
 62
7
  6
CONTINUOUS
 10
52.9220798477
 20
47.2299411019
 40
1.5
 50
79.4071275848
 51
180.0
  0
ARC
  8
0
 62
7
  6
CONTINUOUS
 10
49.9125840137
 20
72.3666650867
 40
0.75
 50
270.0
 51
3.871842689
  0
ARC
  8
0
 62
7
  6
CONTINUOUS
 10
49.4220798477
 20
98.6166650867
 40
4.0
 50
214.849904579
 51
341.7900431357
  0
ARC
  8
0
 62
7
  6
CONTINUOUS
 10
49.4220798477
 20
110.6166650867
 40
4.0
 50
18.2099568643
 51
145.150095421
  0
ARC
  8
0
 62
7
  6
CONTINUOUS
 10
49.4220798477
 20
124.6166650867
 40
4.0
 50
214.849904579
 51
341.7900431357
  0
ARC
  8
0
 62
7
  6
CONTINUOUS
 10
49.4220798477
 20
136.6166650867
 40
4.0
 50
18.2099568643
 51
145.150095421
  0
ARC
  8
0
 62
7
  6
CONTINUOUS
 10
51.3219153669
 20
111.2416650867
 40
2.0
 50
285.0
 51
18.2099568643
  0
ARC
  8
0
 62
7
  6
CONTINUOUS
 10
51.3219153669
 20
97.9916650867
 40
2.0
 50
341.7900431357
 51
75.0
  0
ARC
  8
0
 62
7
  6
CONTINUOUS
 10
51.9220798477
 20
101.9719562204
 40
2.0
 50
180.0
 51
255.0
  0
ARC
  8
0
 62
7
  6
CONTINUOUS
 10
51.9220798477
 20
107.261373953
 40
2.0
 50
105.0
 51
180.0
  0
ARC
  8
0
 62
7
  6
CONTINUOUS
 10
51.3219153669
 20
137.2416650867
 40
2.0
 50
285.0
 51
18.2099568643
  0
ARC
  8
0
 62
7
  6
CONTINUOUS
 10
51.3219153669
 20
123.9916650867
 40
2.0
 50
341.7900431357
 51
75.0
  0
ARC
  8
0
 62
7
  6
CONTINUOUS
 10
51.9220798477
 20
127.9719562204
 40
2.0
 50
180.0
 51
255.0
  0
ARC
  8
0
 62
7
  6
CONTINUOUS
 10
51.9220798477
 20
133.261373953
 40
2.0
 50
105.0
 51
180.0
  0
ARC
  8
SURFACE
 62
7
  6
CONTINUOUS
 10
38.1962780665
 20
167.1166650867
 40
3.0
 50
234.2467143194
 51
270.0
  0
ARC
  8
SURFACE
 62
7
  6
CONTINUOUS
 10
34.9220798477
 20
167.6237143115
 40
1.0
 50
180.0
 51
215.0897993214
  0
ARC
  8
SURFACE
 62
7
  6
CONTINUOUS
 10
34.9220798477
 20
146.6096158618
 40
1.0
 50
144.9102006786
 51
180.0
  0
ARC
  8
SURFACE
 62
7
  6
CONTINUOUS
 10
34.8720798477
 20
160.6166650867
 40
0.5
 50
180.0
 51
270.0000001534
  0
ARC
  8
SURFACE
 62
7
  6
CONTINUOUS
 10
34.8720798477
 20
153.6166650867
 40
0.5
 50
89.9999998466
 51
180.0
  0
ARC
  8
SURFACE
 62
7
  6
CONTINUOUS
 10
38.1962780665
 20
199.1166650867
 40
3.0
 50
90.000136125
 51
125.7538698767
  0
ARC
  8
SURFACE
 62
7
  6
CONTINUOUS
 10
38.1962780665
 20
193.1166650867
 40
3.0
 50
234.2467141379
 51
270.0
  0
ARC
  8
SURFACE
 62
7
  6
CONTINUOUS
 10
38.1962780665
 20
173.1166650867
 40
3.0
 50
90.0
 51
125.7532505014
  0
ARC
  8
SURFACE
 62
7
  6
CONTINUOUS
 10
34.9220798477
 20
198.6096158618
 40
1.0
 50
144.9102006786
 51
180.0
  0
ARC
  8
SURFACE
 62
7
  6
CONTINUOUS
 10
34.9220798477
 20
172.6096158618
 40
1.0
 50
144.9102006786
 51
180.0
  0
ARC
  8
SURFACE
 62
7
  6
CONTINUOUS
 10
34.9220798477
 20
193.6237143115
 40
1.0
 50
180.0
 51
215.0897993214
  0
ARC
  8
SURFACE
 62
7
  6
CONTINUOUS
 10
34.8720798477
 20
179.6166650867
 40
0.5
 50
89.9999998466
 51
180.0
  0
ARC
  8
SURFACE
 62
7
  6
CONTINUOUS
 10
34.8720798477
 20
186.6166650867
 40
0.5
 50
180.0
 51
270.0000001534
  0
ARC
  8
0
 62
7
  6
CONTINUOUS
 10
42.2863485295
 20
146.2974505612
 40
10.0
 50
215.0897993214
 51
239.1326546241
  0
ARC
  8
0
 62
7
  6
CONTINUOUS
 10
40.9489940538
 20
144.0600011737
 40
7.393336087
 50
239.1326546241
 51
308.3935466842
  0
ARC
  8
SURFACE
 62
7
  6
CONTINUOUS
 10
41.8720798477
 20
153.6166650867
 40
0.5
 50
0.0
 51
90.0000001534
  0
ARC
  8
SURFACE
 62
7
  6
CONTINUOUS
 10
42.2863485295
 20
167.4358796122
 40
10.0
 50
125.753254137
 51
144.9102006786
  0
ARC
  8
SURFACE
 62
7
  6
CONTINUOUS
 10
41.8720798477
 20
160.6166650867
 40
0.5
 50
269.9999998466
 51
360.0
  0
ARC
  8
SURFACE
 62
7
  6
CONTINUOUS
 10
43.6775172011
 20
147.1166650867
 40
3.0
 50
34.849904579
 51
51.6064533158
  0
ARC
  8
SURFACE
 62
7
  6
CONTINUOUS
 10
43.6775172011
 20
167.1166650867
 40
3.0
 50
270.0
 51
325.150095421
  0
ARC
  8
SURFACE
 62
7
  6
CONTINUOUS
 10
43.3720798477
 20
163.1166650867
 40
1.0
 50
92.8599191834
 51
180.0
  0
ARC
  8
SURFACE
 62
7
  6
CONTINUOUS
 10
41.1608920062
 20
179.6166650867
 40
0.5
 50
5.087006762
 51
90.0
  0
ARC
  8
SURFACE
 62
7
  6
CONTINUOUS
 10
40.5377595175
 20
186.6166650867
 40
0.5
 50
270.0
 51
5.087006762
  0
ARC
  8
SURFACE
 62
7
  6
CONTINUOUS
 10
42.2863485295
 20
172.7974505612
 40
10.0
 50
215.0897993214
 51
234.2467353093
  0
ARC
  8
SURFACE
 62
7
  6
CONTINUOUS
 10
43.6775172011
 20
173.1166650867
 40
3.0
 50
34.849904579
 51
90.0
  0
ARC
  8
SURFACE
 62
7
  6
CONTINUOUS
 10
42.8893709372
 20
177.1166650867
 40
0.9999995799
 50
185.087
 51
269.999995424
  0
ARC
  8
SURFACE
 62
7
  6
CONTINUOUS
 10
42.2863485295
 20
193.4358796122
 40
10.0
 50
125.7532517472
 51
144.9102006786
  0
ARC
  8
SURFACE
 62
7
  6
CONTINUOUS
 10
42.2863485295
 20
198.7974505612
 40
10.0
 50
215.0897993214
 51
234.2467352548
  0
ARC
  8
SURFACE
 62
7
  6
CONTINUOUS
 10
43.6775172011
 20
199.1166650867
 40
3.0
 50
34.849904579
 51
90.0
  0
ARC
  8
SURFACE
 62
7
  6
CONTINUOUS
 10
43.6775172011
 20
193.1166650867
 40
3.0
 50
270.0
 51
325.150095421
  0
ARC
  8
SURFACE
 62
7
  6
CONTINUOUS
 10
33.3720798515
 20
221.3357742792
 40
0.9999999992
 50
0.0000006544
 51
25.1901628753
  0
ARC
  8
SURFACE
 62
7
  6
CONTINUOUS
 10
34.8720798477
 20
205.6166650867
 40
0.5
 50
89.9999998938
 51
180.0
  0
ARC
  8
SURFACE
 62
7
  6
CONTINUOUS
 10
34.8720798477
 20
212.6166650867
 40
0.5
 50
180.0
 51
270.0
  0
ARC
  8
SURFACE
 62
7
  6
CONTINUOUS
 10
38.2232695899
 20
212.6166650867
 40
0.5
 50
270.0
 51
5.087
  0
ARC
  8
SURFACE
 62
7
  6
CONTINUOUS
 10
34.9220798477
 20
222.7967024422
 40
1.0
 50
180.0
 51
200.9700874633
  0
ARC
  8
SURFACE
 62
7
  6
CONTINUOUS
 10
34.9220798477
 20
238.1166650867
 40
1.0
 50
90.0
 51
180.0
  0
ARC
  8
SURFACE
 62
7
  6
CONTINUOUS
 10
42.1526471624
 20
219.1166650867
 40
3.0
 50
260.3505368824
 51
270.0
  0
ARC
  8
SURFACE
 62
7
  6
CONTINUOUS
 10
40.5748809453
 20
203.1166650867
 40
1.0
 50
185.087
 51
269.990439318
  0
ARC
  8
SURFACE
 62
7
  6
CONTINUOUS
 10
39.4527596893
 20
215.7220883863
 40
1.0
 50
69.3834805126
 51
185.087
  0
ARC
  8
SURFACE
 62
7
  6
CONTINUOUS
 10
38.8463999053
 20
205.6166650867
 40
0.5
 50
5.087006762
 51
90.0
  0
ARC
  8
SURFACE
 62
7
  6
CONTINUOUS
 10
40.7138759152
 20
234.1166650867
 40
5.0
 50
73.0425737058
 51
90.0
  0
ARC
  8
SURFACE
 62
7
  6
CONTINUOUS
 10
39.9220798477
 20
240.6166650867
 40
1.5
 50
270.0000022581
 51
360.0
  0
ARC
  8
SURFACE
 62
7
  6
CONTINUOUS
 10
43.3259863867
 20
226.0176269808
 40
10.0
 50
200.9700874633
 51
260.3505368824
  0
ARC
  8
SURFACE
 62
7
  6
CONTINUOUS
 10
49.4220798477
 20
151.1166650867
 40
4.0
 50
214.849904579
 51
341.7900431357
  0
ARC
  8
SURFACE
 62
7
  6
CONTINUOUS
 10
49.4220798477
 20
163.1166650867
 40
4.0
 50
18.2099568643
 51
145.150095421
  0
ARC
  8
SURFACE
 62
7
  6
CONTINUOUS
 10
49.4220798477
 20
177.1166650867
 40
4.0
 50
214.849904579
 51
341.7900431357
  0
ARC
  8
SURFACE
 62
7
  6
CONTINUOUS
 10
49.4220798477
 20
189.1166650867
 40
4.0
 50
18.2099568643
 51
145.150095421
  0
ARC
  8
SURFACE
 62
7
  6
CONTINUOUS
 10
51.9220798477
 20
154.4719562204
 40
2.0
 50
180.0
 51
255.0
  0
ARC
  8
SURFACE
 62
7
  6
CONTINUOUS
 10
51.9220798477
 20
159.761373953
 40
2.0
 50
105.0
 51
180.0
  0
ARC
  8
SURFACE
 62
7
  6
CONTINUOUS
 10
51.3219153669
 20
163.7416650867
 40
2.0
 50
285.0
 51
18.2099568643
  0
ARC
  8
SURFACE
 62
7
  6
CONTINUOUS
 10
51.3219153669
 20
150.4916650867
 40
2.0
 50
341.7900431357
 51
75.0
  0
ARC
  8
SURFACE
 62
7
  6
CONTINUOUS
 10
51.9220798477
 20
180.4719562204
 40
2.0
 50
180.0
 51
255.0
  0
ARC
  8
SURFACE
 62
7
  6
CONTINUOUS
 10
51.9220798477
 20
185.761373953
 40
2.0
 50
105.0
 51
180.0
  0
ARC
  8
SURFACE
 62
7
  6
CONTINUOUS
 10
51.3219153669
 20
189.7416650867
 40
2.0
 50
285.0
 51
18.2099568643
  0
ARC
  8
SURFACE
 62
7
  6
CONTINUOUS
 10
51.3219153669
 20
176.4916650867
 40
2.0
 50
341.7900431357
 51
75.0
  0
ARC
  8
SURFACE
 62
7
  6
CONTINUOUS
 10
43.9220798477
 20
249.3166650867
 40
2.5
 50
89.9999999256
 51
180.0
  0
ARC
  8
SURFACE
 62
7
  6
CONTINUOUS
 10
48.9220798477
 20
249.3166650867
 40
2.5
 50
0.0
 51
90.0000000744
  0
ARC
  8
SURFACE
 62
7
  6
CONTINUOUS
 10
47.4220798477
 20
256.1166650867
 40
18.0
 50
253.0425737058
 51
286.9574262942
  0
ARC
  8
SURFACE
 62
7
  6
CONTINUOUS
 10
49.4220798477
 20
203.1166650867
 40
4.0
 50
214.849904579
 51
341.7900431357
  0
ARC
  8
SURFACE
 62
7
  6
CONTINUOUS
 10
50.7051003581
 20
202.6945823269
 40
2.6493351688
 50
72.652086768
 51
73.2818639325
  0
ARC
  8
SURFACE
 62
7
  6
CONTINUOUS
 10
50.7051003581
 20
202.6945823269
 40
2.6493351688
 50
341.7900431357
 51
47.7713367302
  0
ARC
  8
SURFACE
 62
7
  6
CONTINUOUS
 10
52.0425452638
 20
207.1473970138
 40
2.0
 50
175.6303726949
 51
253.2818639325
  0
ARC
  8
SURFACE
 62
7
  6
CONTINUOUS
 10
49.9125840137
 20
215.3666650867
 40
0.75
 50
356.2279684301
 51
90.0
  0
ARC
  8
SURFACE
 62
7
  6
CONTINUOUS
 10
54.1302837802
 20
234.1166650867
 40
5.0
 50
90.0
 51
106.9574262942
  0
ARC
  8
SURFACE
 62
7
  6
CONTINUOUS
 10
52.9220798477
 20
240.5033890714
 40
1.5
 50
180.0
 51
280.5817819635
  0
ARC
  8
0
 62
7
  6
CONTINUOUS
 10
63.8635082762
 20
91.6166650867
 40
5.0
 50
335.9506016389
 51
24.0493983611
  0
ARC
  8
0
 62
7
  6
CONTINUOUS
 10
71.1690638318
 20
94.8768580295
 40
3.0
 50
152.2417561891
 51
204.0493983611
  0
ARC
  8
0
 62
7
  6
CONTINUOUS
 10
71.1690638318
 20
88.3564721438
 40
3.0
 50
155.9506016389
 51
207.7582438109
  0
ARC
  8
0
 62
7
  6
CONTINUOUS
 10
71.6189456297
 20
87.6166650867
 40
3.0
 50
214.849904579
 51
270.0
  0
ARC
  8
0
 62
7
  6
CONTINUOUS
 10
71.6189456297
 20
95.6166650867
 40
3.0
 50
90.0
 51
145.150095421
  0
ARC
  8
0
 62
7
  6
CONTINUOUS
 10
63.8635082762
 20
117.6166650867
 40
5.0
 50
335.9506016389
 51
24.0493983611
  0
ARC
  8
0
 62
7
  6
CONTINUOUS
 10
63.8635082762
 20
143.6166650867
 40
5.0
 50
335.9506016389
 51
360.0
  0
ARC
  8
0
 62
7
  6
CONTINUOUS
 10
71.1690638318
 20
140.3564721438
 40
3.0
 50
155.9506016389
 51
207.7582438109
  0
ARC
  8
0
 62
7
  6
CONTINUOUS
 10
71.1690638318
 20
120.8768580295
 40
3.0
 50
152.2417561891
 51
204.0493983611
  0
ARC
  8
0
 62
7
  6
CONTINUOUS
 10
71.1690638318
 20
114.3564721438
 40
3.0
 50
155.9506016389
 51
207.7582438109
  0
ARC
  8
0
 62
7
  6
CONTINUOUS
 10
71.6189456297
 20
113.6166650867
 40
3.0
 50
214.849904579
 51
270.0
  0
ARC
  8
0
 62
7
  6
CONTINUOUS
 10
71.6189456297
 20
121.6166650867
 40
3.0
 50
90.0
 51
145.150095421
  0
ARC
  8
0
 62
7
  6
CONTINUOUS
 10
71.6189456297
 20
139.6166650867
 40
3.0
 50
214.849904579
 51
270.0
  0
ARC
  8
0
 62
7
  6
CONTINUOUS
 10
76.3701585568
 20
76.2335538362
 40
10.0
 50
32.9545473106
 51
50.2653983352
  0
ARC
  8
0
 62
7
  6
CONTINUOUS
 10
76.3701585568
 20
80.9997763372
 40
10.0
 50
309.7345732011
 51
327.0454526894
  0
ARC
  8
0
 62
7
  6
CONTINUOUS
 10
77.3036427379
 20
69.6166650867
 40
3.0
 50
89.9994121182
 51
126.0398759373
  0
ARC
  8
0
 62
7
  6
CONTINUOUS
 10
76.3701585568
 20
102.2335538362
 40
10.0
 50
32.9545473106
 51
50.2656032201
  0
ARC
  8
0
 62
7
  6
CONTINUOUS
 10
77.3635082762
 20
91.6166650867
 40
10.0
 50
145.150095421
 51
152.2417561891
  0
ARC
  8
0
 62
7
  6
CONTINUOUS
 10
77.3635082762
 20
91.6166650867
 40
10.0
 50
207.7582438109
 51
214.849904579
  0
ARC
  8
0
 62
7
  6
CONTINUOUS
 10
81.4220798477
 20
63.9564110488
 40
10.0
 50
126.0398759373
 51
180.0
  0
ARC
  8
0
 62
7
  6
CONTINUOUS
 10
80.8447661669
 20
81.6166650867
 40
3.0
 50
50.2649302044
 51
89.9999888581
  0
ARC
  8
0
 62
7
  6
CONTINUOUS
 10
80.8447661669
 20
75.6166650867
 40
3.0
 50
270.0
 51
309.7349729967
  0
ARC
  8
0
 62
7
  6
CONTINUOUS
 10
83.9220798477
 20
81.1293157602
 40
1.0
 50
0.0
 51
32.9545473106
  0
ARC
  8
0
 62
7
  6
CONTINUOUS
 10
83.9220798477
 20
76.1040144131
 40
1.0
 50
327.0454526894
 51
360.0
  0
ARC
  8
0
 62
7
  6
CONTINUOUS
 10
83.9220798477
 20
76.6854662214
 40
1.0
 50
323.1874185471
 51
360.0
  0
ARC
  8
0
 62
7
  6
CONTINUOUS
 10
83.9220798477
 20
80.5478640025
 40
1.0
 50
0.0
 51
36.8125348039
  0
ARC
  8
0
 62
7
  6
CONTINUOUS
 10
80.8447661669
 20
101.6166650867
 40
3.0
 50
270.0
 51
309.7349729653
  0
ARC
  8
0
 62
7
  6
CONTINUOUS
 10
83.9220798477
 20
102.1040144131
 40
1.0
 50
327.0454526894
 51
360.0
  0
ARC
  8
0
 62
7
  6
CONTINUOUS
 10
76.3701585568
 20
128.2335538362
 40
10.0
 50
32.9545473106
 51
50.2653983238
  0
ARC
  8
0
 62
7
  6
CONTINUOUS
 10
76.3701585568
 20
132.9997763372
 40
10.0
 50
309.7343979543
 51
327.0454526894
  0
ARC
  8
0
 62
7
  6
CONTINUOUS
 10
76.3701585568
 20
106.9997763372
 40
10.0
 50
309.7345731911
 51
327.0454526894
  0
ARC
  8
0
 62
7
  6
CONTINUOUS
 10
77.3635082762
 20
143.6166650867
 40
10.0
 50
207.7582438109
 51
214.849904579
  0
ARC
  8
0
 62
7
  6
CONTINUOUS
 10
77.3635082762
 20
117.6166650867
 40
10.0
 50
145.150095421
 51
152.2417561891
  0
ARC
  8
0
 62
7
  6
CONTINUOUS
 10
77.3635082762
 20
117.6166650867
 40
10.0
 50
207.7582438109
 51
214.849904579
  0
ARC
  8
0
 62
7
  6
CONTINUOUS
 10
80.8447661669
 20
133.6166650867
 40
3.0
 50
50.2649301664
 51
89.9999888581
  0
ARC
  8
0
 62
7
  6
CONTINUOUS
 10
80.8447661669
 20
107.6166650867
 40
3.0
 50
50.2656131541
 51
90.0000018172
  0
ARC
  8
0
 62
7
  6
CONTINUOUS
 10
80.8447661669
 20
127.6166650867
 40
3.0
 50
269.9999991244
 51
309.7343907605
  0
ARC
  8
0
 62
7
  6
CONTINUOUS
 10
83.9220798477
 20
128.1040144131
 40
1.0
 50
327.0454526894
 51
360.0
  0
ARC
  8
0
 62
7
  6
CONTINUOUS
 10
83.9220798477
 20
107.1293157602
 40
1.0
 50
0.0
 51
32.9545473106
  0
ARC
  8
0
 62
7
  6
CONTINUOUS
 10
83.9220798477
 20
133.1293157602
 40
1.0
 50
0.0
 51
32.9545473106
  0
ARC
  8
SURFACE
 62
7
  6
CONTINUOUS
 10
63.8635082762
 20
144.1166650867
 40
5.0
 50
0.0
 51
24.0493983611
  0
ARC
  8
SURFACE
 62
7
  6
CONTINUOUS
 10
63.8635082762
 20
170.1166650867
 40
5.0
 50
335.9506016389
 51
24.0493983611
  0
ARC
  8
SURFACE
 62
7
  6
CONTINUOUS
 10
71.1690638318
 20
173.3768580295
 40
3.0
 50
152.2417561891
 51
204.0493983611
  0
ARC
  8
SURFACE
 62
7
  6
CONTINUOUS
 10
71.1690638318
 20
166.8564721438
 40
3.0
 50
155.9506016389
 51
207.7582438109
  0
ARC
  8
SURFACE
 62
7
  6
CONTINUOUS
 10
71.1690638318
 20
147.3768580295
 40
3.0
 50
152.2417561891
 51
204.0493983611
  0
ARC
  8
SURFACE
 62
7
  6
CONTINUOUS
 10
71.6189456297
 20
148.1166650867
 40
3.0
 50
90.0
 51
145.150095421
  0
ARC
  8
SURFACE
 62
7
  6
CONTINUOUS
 10
71.6189456297
 20
166.1166650867
 40
3.0
 50
214.849904579
 51
270.0
  0
ARC
  8
SURFACE
 62
7
  6
CONTINUOUS
 10
71.6189456297
 20
174.1166650867
 40
3.0
 50
90.0
 51
145.150095421
  0
ARC
  8
SURFACE
 62
7
  6
CONTINUOUS
 10
63.8635082762
 20
196.1166650867
 40
5.0
 50
335.9506016389
 51
24.0493983611
  0
ARC
  8
SURFACE
 62
7
  6
CONTINUOUS
 10
71.1690638318
 20
199.3768580295
 40
3.0
 50
152.2417561891
 51
204.0493983611
  0
ARC
  8
SURFACE
 62
7
  6
CONTINUOUS
 10
71.1690638318
 20
192.8564721438
 40
3.0
 50
155.9506016389
 51
207.7582438109
  0
ARC
  8
SURFACE
 62
7
  6
CONTINUOUS
 10
71.6189456297
 20
192.1166650867
 40
3.0
 50
214.849904579
 51
270.0
  0
ARC
  8
SURFACE
 62
7
  6
CONTINUOUS
 10
71.6189456297
 20
200.1166650867
 40
3.0
 50
90.0
 51
145.150095421
  0
ARC
  8
SURFACE
 62
7
  6
CONTINUOUS
 10
76.3701585568
 20
180.7335538362
 40
10.0
 50
32.9545473106
 51
50.2654273843
  0
ARC
  8
SURFACE
 62
7
  6
CONTINUOUS
 10
76.3701585568
 20
154.7335538362
 40
10.0
 50
32.9545473106
 51
50.2656020457
  0
ARC
  8
SURFACE
 62
7
  6
CONTINUOUS
 10
77.3635082762
 20
170.1166650867
 40
10.0
 50
145.150095421
 51
152.2417561891
  0
ARC
  8
SURFACE
 62
7
  6
CONTINUOUS
 10
77.3635082762
 20
170.1166650867
 40
10.0
 50
207.7582438109
 51
214.849904579
  0
ARC
  8
SURFACE
 62
7
  6
CONTINUOUS
 10
77.3635082762
 20
144.1166650867
 40
10.0
 50
145.150095421
 51
152.2417561891
  0
ARC
  8
SURFACE
 62
7
  6
CONTINUOUS
 10
76.3701585568
 20
159.4997763372
 40
10.0
 50
309.7346016762
 51
327.0454526894
  0
ARC
  8
SURFACE
 62
7
  6
CONTINUOUS
 10
80.8447661669
 20
160.1166650867
 40
3.0
 50
50.2656092395
 51
90.0000008756
  0
ARC
  8
SURFACE
 62
7
  6
CONTINUOUS
 10
80.8447661669
 20
180.1166650867
 40
3.0
 50
269.9999981828
 51
309.7343868459
  0
ARC
  8
SURFACE
 62
7
  6
CONTINUOUS
 10
80.8447661669
 20
154.1166650867
 40
3.0
 50
270.0000111419
 51
309.7350698336
  0
ARC
  8
SURFACE
 62
7
  6
CONTINUOUS
 10
83.9220798477
 20
154.6040144131
 40
1.0
 50
327.0454526894
 51
360.0
  0
ARC
  8
SURFACE
 62
7
  6
CONTINUOUS
 10
83.9220798477
 20
180.6040144131
 40
1.0
 50
327.0454526894
 51
360.0
  0
ARC
  8
SURFACE
 62
7
  6
CONTINUOUS
 10
83.9220798477
 20
159.6293157602
 40
1.0
 50
0.0
 51
32.9545473106
  0
ARC
  8
SURFACE
 62
7
  6
CONTINUOUS
 10
77.3635082762
 20
196.1166650867
 40
10.0
 50
145.150095421
 51
152.2417561891
  0
ARC
  8
SURFACE
 62
7
  6
CONTINUOUS
 10
77.3635082762
 20
196.1166650867
 40
10.0
 50
207.7582438109
 51
214.849904579
  0
ARC
  8
SURFACE
 62
7
  6
CONTINUOUS
 10
76.3701585568
 20
185.4997763372
 40
10.0
 50
309.7343967799
 51
327.0454526894
  0
ARC
  8
SURFACE
 62
7
  6
CONTINUOUS
 10
76.3701585568
 20
206.7335538362
 40
10.0
 50
32.9545473106
 51
50.2654267989
  0
ARC
  8
SURFACE
 62
7
  6
CONTINUOUS
 10
76.3701585568
 20
211.4997763372
 40
10.0
 50
309.7346019104
 51
327.0454526894
  0
ARC
  8
SURFACE
 62
7
  6
CONTINUOUS
 10
77.3036427379
 20
218.1166650867
 40
3.0
 50
233.9601240627
 51
270.0005878818
  0
ARC
  8
SURFACE
 62
7
  6
CONTINUOUS
 10
80.8447661669
 20
186.1166650867
 40
3.0
 50
50.2650270347
 51
90.0
  0
ARC
  8
SURFACE
 62
7
  6
CONTINUOUS
 10
83.9220798477
 20
185.6293157602
 40
1.0
 50
0.0
 51
32.9545473106
  0
ARC
  8
SURFACE
 62
7
  6
CONTINUOUS
 10
81.4220798477
 20
223.7769191245
 40
10.0
 50
180.0
 51
233.9601240627
  0
ARC
  8
SURFACE
 62
7
  6
CONTINUOUS
 10
80.8447661669
 20
212.1166650867
 40
3.0
 50
50.2650270033
 51
90.0
  0
ARC
  8
SURFACE
 62
7
  6
CONTINUOUS
 10
80.8447661669
 20
206.1166650867
 40
3.0
 50
270.0000111419
 51
309.7350697956
  0
ARC
  8
SURFACE
 62
7
  6
CONTINUOUS
 10
83.9220798477
 20
207.1854618207
 40
1.0
 50
323.1874993366
 51
0.0001245566
  0
ARC
  8
SURFACE
 62
7
  6
CONTINUOUS
 10
83.9220798477
 20
211.0478639519
 40
1.0
 50
0.0
 51
36.8125814529
  0
ARC
  8
SURFACE
 62
7
  6
CONTINUOUS
 10
83.9220798477
 20
211.6293157602
 40
1.0
 50
0.0
 51
32.9545473106
  0
ARC
  8
SURFACE
 62
7
  6
CONTINUOUS
 10
83.9220798477
 20
206.6040144131
 40
1.0
 50
327.0454526894
 51
360.0
  0
ARC
  8
SURFACE
 62
7
  6
CONTINUOUS
 10
43.3220798477
 20
268.7305254354
 40
9.4
 50
246.607304518
 51
247.6183015506
  0
ARC
  8
SURFACE
 62
7
  6
CONTINUOUS
 10
43.3220798477
 20
268.7305254354
 40
9.4
 50
186.392782909
 51
186.4505261583
  0
ARC
  8
SURFACE
 62
7
  6
CONTINUOUS
 10
43.3220798477
 20
268.7305254354
 40
9.4
 50
181.1418303525
 51
185.9769974
  0
ARC
  8
SURFACE
 62
7
  6
CONTINUOUS
 10
43.3220798477
 20
268.9805254354
 40
9.4
 50
179.0617591456
 51
180.0
  0
ARC
  8
SURFACE
 62
7
  6
CONTINUOUS
 10
43.3220798477
 20
268.9805254354
 40
9.4
 50
177.9458797265
 51
178.8872084212
  0
ARC
  8
SURFACE
 62
7
  6
CONTINUOUS
 10
43.3220798477
 20
268.9805254354
 40
9.4
 50
177.8217630003
 51
177.9196912892
  0
ARC
  8
SURFACE
 62
7
  6
CONTINUOUS
 10
43.3220798477
 20
268.9805254354
 40
9.4
 50
122.54231438
 51
127.6050141655
  0
ARC
  8
0
 62
7
  6
CONTINUOUS
 10
43.3220798477
 20
268.9805254354
 40
9.4
 50
90.0
 51
180.0
  0
ARC
  8
SURFACE
 62
7
  6
CONTINUOUS
 10
43.3220798477
 20
268.9805254354
 40
9.4
 50
175.0736963624
 51
177.8105710359
  0
ARC
  8
0
 62
7
  6
CONTINUOUS
 10
43.3220798477
 20
268.7305254354
 40
9.4
 50
179.9999798235
 51
270.0
  0
ARC
  8
0
 62
7
  6
CONTINUOUS
 10
39.329899992
 20
270.8305254354
 40
5.0
 50
90.0
 51
155.1367118331
  0
ARC
  8
0
 62
7
  6
CONTINUOUS
 10
44.3720798477
 20
268.8555254354
 40
2.95
 50
90.0
 51
270.0
  0
ARC
  8
0
 62
7
  6
CONTINUOUS
 10
48.4720798477
 20
268.8555254354
 40
2.95
 50
269.9992492165
 51
90.0008059212
  0
ARC
  8
0
 62
7
  6
CONTINUOUS
 10
57.4220772646
 20
260.3305254354
 40
1.0
 50
270.0001271585
 51
359.9999627279
  0
ARC
  8
0
 62
7
  6
CONTINUOUS
 10
62.4286506893
 20
260.0805254354
 40
0.7499975703
 50
269.9996898866
 51
355.9999783673
  0
ARC
  8
0
 62
7
  6
CONTINUOUS
 10
60.4220798477
 20
273.0388378305
 40
2.0
 50
146.4426725086
 51
180.0000121775
  0
ARC
  8
0
 62
7
  6
CONTINUOUS
 10
46.1220798477
 20
277.8305254354
 40
2.0
 50
269.9990610659
 51
338.7461164618
  0
ARC
  8
0
 62
7
  6
CONTINUOUS
 10
49.8500149329
 20
276.3805254354
 40
2.0
 50
89.9988421833
 51
158.7462651674
  0
ARC
  8
0
 62
7
  6
CONTINUOUS
 10
62.9220798477
 20
271.3805254354
 40
5.0
 50
89.9999951452
 51
146.4426831463
  0
ARC
  8
0
 62
7
  6
CONTINUOUS
 10
64.5720798477
 20
269.0555254354
 40
4.0
 50
90.0
 51
180.0
  0
ARC
  8
0
 62
7
  6
CONTINUOUS
 10
64.5720798477
 20
268.6555254354
 40
4.0
 50
180.0
 51
270.0
  0
ARC
  8
0
 62
7
  6
CONTINUOUS
 10
81.2220785799
 20
262.2241810467
 40
0.7499992394
 50
179.9998984145
 51
311.2207091966
  0
ARC
  8
0
 62
7
  6
CONTINUOUS
 10
75.5220798477
 20
268.7305254354
 40
9.4
 50
269.9996805376
 51
0.0005833686
  0
ARC
  8
SURFACE
 62
7
  6
CONTINUOUS
 10
75.5220798477
 20
268.7305254354
 40
9.4
 50
292.1971045227
 51
298.6680367087
  0
ARC
  8
SURFACE
 62
7
  6
CONTINUOUS
 10
75.5220798477
 20
268.7305254354
 40
9.4
 50
298.8192210973
 51
299.4873343067
  0
ARC
  8
SURFACE
 62
7
  6
CONTINUOUS
 10
75.5220798477
 20
268.7305254354
 40
9.4
 50
304.4181958143
 51
309.2978172612
  0
ARC
  8
SURFACE
 62
7
  6
CONTINUOUS
 10
75.5220798477
 20
268.7305254354
 40
9.4
 50
319.9162258161
 51
321.7994235174
  0
ARC
  8
SURFACE
 62
7
  6
CONTINUOUS
 10
75.5220798477
 20
268.7305254354
 40
9.4
 50
356.8672298361
 51
0.0005776788
  0
ARC
  8
SURFACE
 62
7
  6
CONTINUOUS
 10
75.5220798477
 20
268.7305254354
 40
9.4
 50
327.2515816647
 51
356.832617205
  0
ARC
  8
SURFACE
 62
7
  6
CONTINUOUS
 10
75.5220798477
 20
268.7305254354
 40
9.4
 50
318.1691119724
 51
319.7350580913
  0
ARC
  8
SURFACE
 62
7
  6
CONTINUOUS
 10
75.5220798477
 20
268.7305254354
 40
9.4
 50
315.9332241032
 51
317.601020193
  0
ARC
  8
SURFACE
 62
7
  6
CONTINUOUS
 10
75.5220798477
 20
268.7305254354
 40
9.4
 50
287.7484472555
 51
291.2662975363
  0
ARC
  8
SURFACE
 62
7
  6
CONTINUOUS
 10
75.5220798477
 20
268.7305254354
 40
9.4
 50
300.0531369665
 51
301.4084430434
  0
ARC
  8
SURFACE
 62
7
  6
CONTINUOUS
 10
75.5220798477
 20
268.7305254354
 40
9.4
 50
275.77398081
 51
280.4380341911
  0
ARC
  8
SURFACE
 62
7
  6
CONTINUOUS
 10
75.5220798477
 20
268.7305254354
 40
9.4
 50
280.484464444
 51
287.3208272614
  0
ARC
  8
0
 62
7
  6
CONTINUOUS
 10
75.5220798477
 20
268.9805254354
 40
9.4
 50
40.2650476205
 51
42.2772517769
  0
ARC
  8
0
 62
7
  6
CONTINUOUS
 10
75.5220798477
 20
268.9805254354
 40
9.4
 50
59.7737556753
 51
90.0007088282
  0
ARC
  8
0
 62
7
  6
CONTINUOUS
 10
75.5220798477
 20
268.9805254354
 40
9.4
 50
359.9994533559
 51
21.1889449228
  0
ARC
  8
SURFACE
 62
7
  6
CONTINUOUS
 10
75.5220798477
 20
268.9805254354
 40
9.4
 50
40.2650476205
 51
42.2772517769
  0
ARC
  8
SURFACE
 62
7
  6
CONTINUOUS
 10
75.5220798477
 20
268.9805254354
 40
9.4
 50
71.9464508198
 51
90.0
  0
ARC
  8
SURFACE
 62
7
  6
CONTINUOUS
 10
75.5220798477
 20
268.9805254354
 40
9.4
 50
62.2269156219
 51
71.5080262746
  0
ARC
  8
SURFACE
 62
7
  6
CONTINUOUS
 10
75.5220798477
 20
268.9805254354
 40
9.4
 50
17.2821320303
 51
17.9341748291
  0
ARC
  8
0
 62
7
  6
CONTINUOUS
 10
76.4720798477
 20
268.6555254354
 40
4.0
 50
270.0
 51
360.0
  0
ARC
  8
0
 62
7
  6
CONTINUOUS
 10
76.4720798477
 20
269.0555254354
 40
4.0
 50
0.0
 51
90.0
  0
ARC
  8
0
 62
7
  6
CONTINUOUS
 10
80.9220798477
 20
272.4002305287
 40
4.0
 50
0.0
 51
70.3774080757
  0
ARC
  8
SURFACE
 62
7
  6
CONTINUOUS
 10
80.9220798477
 20
272.4002305287
 40
4.0
 50
359.9984660336
 51
3.9968817907
  0
ARC
  8
SURFACE
 62
7
  6
CONTINUOUS
 10
86.2952487571
 20
287.471031963
 40
12.0
 50
245.5890980088
 51
248.7262986506
  0
ARC
  8
0
 62
7
  6
CONTINUOUS
 10
86.2952487571
 20
287.471031963
 40
12.0
 50
239.773361519
 51
250.3774034805
  0
ARC
  8
0
 62
7
  6
CONTINUOUS
 10
70.4220798477
 20
277.3805254354
 40
1.0
 50
0.0
 51
90.0
  0
ARC
  8
0
 62
7
  6
CONTINUOUS
 10
70.9220798477
 20
276.8805254354
 40
0.5
 50
270.0
 51
360.0
  0
ARC
  8
0
 62
7
  6
CONTINUOUS
 10
129.4013445828
 20
49.6166650867
 40
1.0
 50
180.0
 51
270.0
  0
ARC
  8
0
 62
7
  6
CONTINUOUS
 10
129.4013445828
 20
70.6166650867
 40
1.0
 50
90.0
 51
180.0
  0
ARC
  8
0
 62
7
  6
CONTINUOUS
 10
129.4013445828
 20
86.6166650867
 40
1.0
 50
180.0
 51
270.0
  0
ARC
  8
0
 62
7
  6
CONTINUOUS
 10
129.4013445828
 20
63.3839920746
 40
1.0
 50
180.0
 51
255.0
  0
ARC
  8
0
 62
7
  6
CONTINUOUS
 10
129.4013445828
 20
55.8493394197
 40
0.999999362
 50
105.0000195891
 51
180.0000756862
  0
ARC
  8
0
 62
7
  6
CONTINUOUS
 10
132.1070760705
 20
75.1166650867
 40
0.5
 50
90.0
 51
180.0
  0
ARC
  8
0
 62
7
  6
CONTINUOUS
 10
129.4013445828
 20
122.6166650867
 40
1.0
 50
90.0
 51
180.0
  0
ARC
  8
0
 62
7
  6
CONTINUOUS
 10
129.4013445828
 20
112.6166650867
 40
1.0
 50
180.0
 51
270.0
  0
ARC
  8
0
 62
7
  6
CONTINUOUS
 10
129.4013445828
 20
96.6166650867
 40
1.0
 50
90.0
 51
180.0
  0
ARC
  8
0
 62
7
  6
CONTINUOUS
 10
133.1763445828
 20
110.6166650867
 40
1.0
 50
0.0
 51
90.0
  0
ARC
  8
0
 62
7
  6
CONTINUOUS
 10
133.1763445828
 20
124.6166650867
 40
1.0
 50
270.0
 51
360.0
  0
ARC
  8
0
 62
7
  6
CONTINUOUS
 10
129.1513445828
 20
132.6732318689
 40
0.75
 50
94.0
 51
180.0
  0
ARC
  8
0
 62
7
  6
CONTINUOUS
 10
129.1513445828
 20
128.5600962758
 40
0.7499987858
 50
179.9998450274
 51
265.9999891896
  0
ARC
  8
0
 62
7
  6
CONTINUOUS
 10
137.4763445828
 20
38.4166650867
 40
2.5
 50
180.0
 51
270.0
  0
ARC
  8
0
 62
7
  6
CONTINUOUS
 10
134.9263445828
 20
59.4003097477
 40
1.0
 50
284.9993278926
 51
359.9998310285
  0
ARC
  8
0
 62
7
  6
CONTINUOUS
 10
134.9263445828
 20
59.8330204256
 40
1.0
 50
359.9993713862
 51
75.000023271
  0
ARC
  8
0
 62
7
  6
CONTINUOUS
 10
134.8378486082
 20
82.1166650867
 40
0.5
 50
181.4904282345
 51
270.0000000001
  0
ARC
  8
0
 62
7
  6
CONTINUOUS
 10
134.6763445828
 20
127.1166650867
 40
0.5
 50
90.0
 51
180.0
  0
ARC
  8
0
 62
7
  6
CONTINUOUS
 10
134.6763445828
 20
134.1166650867
 40
0.5
 50
180.0
 51
270.0
  0
ARC
  8
0
 62
7
  6
CONTINUOUS
 10
134.6763445828
 20
101.1166650867
 40
0.5
 50
90.0
 51
180.0
  0
ARC
  8
0
 62
7
  6
CONTINUOUS
 10
134.6763445828
 20
108.1166650867
 40
0.5
 50
180.0
 51
270.0
  0
ARC
  8
0
 62
7
  6
CONTINUOUS
 10
137.6263445828
 20
142.2166650867
 40
0.3
 50
270.0000398097
 51
359.9975093351
  0
ARC
  8
SURFACE
 62
7
  6
CONTINUOUS
 10
129.4013445828
 20
175.1166650867
 40
1.0
 50
90.0
 51
180.0
  0
ARC
  8
SURFACE
 62
7
  6
CONTINUOUS
 10
129.4013445828
 20
191.1166650867
 40
1.0
 50
180.0
 51
270.0
  0
ARC
  8
SURFACE
 62
7
  6
CONTINUOUS
 10
129.4013445828
 20
165.1166650867
 40
1.0
 50
180.0
 51
270.0
  0
ARC
  8
SURFACE
 62
7
  6
CONTINUOUS
 10
133.1763445828
 20
177.1166650867
 40
1.0
 50
270.0
 51
352.3950406583
  0
ARC
  8
SURFACE
 62
7
  6
CONTINUOUS
 10
133.1763445828
 20
163.1166650867
 40
1.0
 50
7.6049584911
 51
90.0
  0
ARC
  8
SURFACE
 62
7
  6
CONTINUOUS
 10
129.1513445828
 20
181.0600983044
 40
0.75
 50
180.0
 51
266.0
  0
ARC
  8
SURFACE
 62
7
  6
CONTINUOUS
 10
129.1513445828
 20
155.0600983044
 40
0.75
 50
180.0
 51
266.0
  0
ARC
  8
SURFACE
 62
7
  6
CONTINUOUS
 10
129.1513445828
 20
159.1732338975
 40
0.7499987858
 50
94.0000108104
 51
180.0001549726
  0
ARC
  8
SURFACE
 62
7
  6
CONTINUOUS
 10
129.4013445828
 20
217.1166650867
 40
1.0
 50
180.0
 51
270.0
  0
ARC
  8
SURFACE
 62
7
  6
CONTINUOUS
 10
129.4013445828
 20
201.1166650867
 40
1.0
 50
90.0
 51
180.0
  0
ARC
  8
SURFACE
 62
7
  6
CONTINUOUS
 10
129.4013449282
 20
224.3493381912
 40
1.0
 50
105.0000204856
 51
180.0000053021
  0
ARC
  8
SURFACE
 62
7
  6
CONTINUOUS
 10
129.4013445828
 20
238.1166650867
 40
1.0
 50
90.0
 51
180.0
  0
ARC
  8
SURFACE
 62
7
  6
CONTINUOUS
 10
129.4013445828
 20
231.8839907537
 40
0.999999362
 50
179.9999243138
 51
254.9999804109
  0
ARC
  8
SURFACE
 62
7
  6
CONTINUOUS
 10
132.1070760705
 20
212.6166650867
 40
0.5
 50
180.0
 51
270.0
  0
ARC
  8
SURFACE
 62
7
  6
CONTINUOUS
 10
134.6763445828
 20
179.6166650867
 40
0.5
 50
90.0
 51
180.0
  0
ARC
  8
SURFACE
 62
7
  6
CONTINUOUS
 10
134.6763445828
 20
186.6166650867
 40
0.5
 50
180.0
 51
270.0
  0
ARC
  8
SURFACE
 62
7
  6
CONTINUOUS
 10
134.6763445828
 20
160.6166650867
 40
0.5
 50
180.0
 51
270.0
  0
ARC
  8
SURFACE
 62
7
  6
CONTINUOUS
 10
134.6763445828
 20
153.6166650867
 40
0.5
 50
90.0
 51
180.0
  0
ARC
  8
SURFACE
 62
7
  6
CONTINUOUS
 10
137.6263445828
 20
145.5166650867
 40
0.3
 50
0.0024906649
 51
89.9999601903
  0
ARC
  8
SURFACE
 62
7
  6
CONTINUOUS
 10
137.4763445828
 20
249.3166650867
 40
2.5
 50
90.0
 51
180.0
  0
ARC
  8
SURFACE
 62
7
  6
CONTINUOUS
 10
134.9263445828
 20
227.9003097477
 40
1.0
 50
284.999976729
 51
0.0006286138
  0
ARC
  8
SURFACE
 62
7
  6
CONTINUOUS
 10
134.9263445828
 20
228.3330204256
 40
1.0
 50
0.0001689715
 51
75.0006721074
  0
ARC
  8
SURFACE
 62
7
  6
CONTINUOUS
 10
134.8378486082
 20
205.6166650867
 40
0.5
 50
90.0
 51
178.5095717656
  0
ARC
  8
0
 62
7
  6
CONTINUOUS
 10
138.3763445828
 20
38.4166650867
 40
2.5
 50
270.0
 51
360.0
  0
ARC
  8
0
 62
7
  6
CONTINUOUS
 10
140.8056421971
 20
75.1166650867
 40
0.5
 50
358.0475998438
 51
89.9999999981
  0
ARC
  8
0
 62
7
  6
CONTINUOUS
 10
141.0148656661
 20
82.1166650867
 40
0.5
 50
270.0
 51
358.5099162855
  0
ARC
  8
0
 62
7
  6
CONTINUOUS
 10
141.1763445828
 20
127.1166650867
 40
0.5
 50
0.0
 51
90.0
  0
ARC
  8
0
 62
7
  6
CONTINUOUS
 10
141.1763445828
 20
134.1166650867
 40
0.5
 50
270.0
 51
360.0
  0
ARC
  8
0
 62
7
  6
CONTINUOUS
 10
141.1763445828
 20
101.1166650867
 40
0.5
 50
0.0
 51
90.0
  0
ARC
  8
0
 62
7
  6
CONTINUOUS
 10
141.1763445828
 20
108.1166650867
 40
0.5
 50
270.0
 51
360.0
  0
ARC
  8
0
 62
7
  6
CONTINUOUS
 10
143.4513445828
 20
70.6166650867
 40
2.0
 50
33.9284897556
 51
34.0255857617
  0
ARC
  8
0
 62
7
  6
CONTINUOUS
 10
144.4453445828
 20
73.6166650867
 40
2.0
 50
270.0
 51
360.0
  0
ARC
  8
0
 62
7
  6
CONTINUOUS
 10
146.4513445828
 20
49.6166650867
 40
1.0
 50
270.0
 51
360.0
  0
ARC
  8
0
 62
7
  6
CONTINUOUS
 10
143.9013445828
 20
49.6166650867
 40
1.0
 50
270.0
 51
360.0
  0
ARC
  8
0
 62
7
  6
CONTINUOUS
 10
146.4513445828
 20
70.6166650867
 40
1.0
 50
0.0
 51
90.0
  0
ARC
  8
0
 62
7
  6
CONTINUOUS
 10
143.9013445828
 20
70.6166650867
 40
1.0
 50
0.0
 51
90.0
  0
ARC
  8
0
 62
7
  6
CONTINUOUS
 10
146.4513445828
 20
122.6166650867
 40
1.0
 50
0.0
 51
90.0
  0
ARC
  8
0
 62
7
  6
CONTINUOUS
 10
146.4513445828
 20
112.6166650867
 40
1.0
 50
270.0
 51
360.0
  0
ARC
  8
0
 62
7
  6
CONTINUOUS
 10
146.4513445828
 20
96.6166650867
 40
1.0
 50
0.0
 51
90.0
  0
ARC
  8
0
 62
7
  6
CONTINUOUS
 10
146.4513445828
 20
86.6166650867
 40
1.0
 50
270.0
 51
360.0
  0
ARC
  8
0
 62
7
  6
CONTINUOUS
 10
142.6763445828
 20
110.6166650867
 40
1.0
 50
90.0
 51
172.3950413596
  0
ARC
  8
0
 62
7
  6
CONTINUOUS
 10
142.6763445828
 20
124.6166650867
 40
1.0
 50
187.6049591886
 51
270.0
  0
ARC
  8
SURFACE
 62
7
  6
CONTINUOUS
 10
141.1763445828
 20
179.6166650867
 40
0.5
 50
0.0
 51
90.0
  0
ARC
  8
SURFACE
 62
7
  6
CONTINUOUS
 10
141.1763445828
 20
186.6166650867
 40
0.5
 50
270.0
 51
360.0
  0
ARC
  8
SURFACE
 62
7
  6
CONTINUOUS
 10
141.1763445828
 20
160.6166650867
 40
0.5
 50
270.0
 51
360.0
  0
ARC
  8
SURFACE
 62
7
  6
CONTINUOUS
 10
141.1763445828
 20
153.6166650867
 40
0.5
 50
0.0
 51
90.0
  0
ARC
  8
SURFACE
 62
7
  6
CONTINUOUS
 10
138.3763445828
 20
249.3166650867
 40
2.5
 50
0.0
 51
90.0
  0
ARC
  8
SURFACE
 62
7
  6
CONTINUOUS
 10
140.8056421971
 20
212.6166650867
 40
0.5
 50
270.0000000005
 51
1.9524001548
  0
ARC
  8
SURFACE
 62
7
  6
CONTINUOUS
 10
141.0148656661
 20
205.6166650867
 40
0.5
 50
1.4900837145
 51
90.0
  0
ARC
  8
SURFACE
 62
7
  6
CONTINUOUS
 10
146.4513445828
 20
201.1166650867
 40
1.0
 50
0.0
 51
90.0
  0
ARC
  8
SURFACE
 62
7
  6
CONTINUOUS
 10
146.4513445828
 20
175.1166650867
 40
1.0
 50
0.0
 51
90.0
  0
ARC
  8
SURFACE
 62
7
  6
CONTINUOUS
 10
146.4513445828
 20
191.1166650867
 40
1.0
 50
270.0
 51
360.0
  0
ARC
  8
SURFACE
 62
7
  6
CONTINUOUS
 10
146.4513445828
 20
165.1166650867
 40
1.0
 50
270.0
 51
360.0
  0
ARC
  8
SURFACE
 62
7
  6
CONTINUOUS
 10
142.6763445828
 20
177.1166650867
 40
1.0
 50
180.0
 51
270.0
  0
ARC
  8
SURFACE
 62
7
  6
CONTINUOUS
 10
142.6763445828
 20
163.1166650867
 40
1.0
 50
90.0
 51
180.0
  0
ARC
  8
SURFACE
 62
7
  6
CONTINUOUS
 10
144.4453445828
 20
214.1166650867
 40
2.0
 50
0.0
 51
90.0019407066
  0
ARC
  8
SURFACE
 62
7
  6
CONTINUOUS
 10
146.4513445828
 20
217.1166650867
 40
1.0
 50
270.0
 51
360.0
  0
ARC
  8
SURFACE
 62
7
  6
CONTINUOUS
 10
143.9013445828
 20
217.1166650867
 40
1.0
 50
270.0
 51
360.0
  0
ARC
  8
SURFACE
 62
7
  6
CONTINUOUS
 10
146.4513445828
 20
238.1166650867
 40
1.0
 50
0.0
 51
90.0
  0
ARC
  8
SURFACE
 62
7
  6
CONTINUOUS
 10
143.9013445828
 20
238.1166650867
 40
1.0
 50
0.0
 51
90.0
  0
ENDSEC
  0
EOF
