  0
SECTION
  2
HEADER
  9
$EXTMAX
 10
420.0
 20
297.0
 30
0.0
  9
$EXTMIN
 10
0.0
 20
0.0
 30
0.0
  9
$LIMMIN
 10
0.0
 20
0.0
  9
$LIMMAX
 10
420.0
 20
297.0
  9
$VIEWCTR
 10
210.0
 20
148.5
  9
$VIEWSIZE
 40
297.0
  9
$CLAYER
  8
0
  9
$LTSCALE
 40
23.1
  9
$CELTYPE
  6
BYLAYER
  9
$DIMSCALE
 40
1.0
  9
$DIMASZ
 40
3.5
  9
$DIMEXO
 40
2.625
  9
$DIMDLI
 40
15.96
  9
$DIMEXE
 40
7.56
  9
$DIMCEN
 40
3.78
  9
$DIMLFAC
 40
1.0
  9
$DIMBLK
  1
_FILLED
  9
$DIMTXT
 40
3.5
  9
$PDMODE
 70
3
  9
$PDSIZE
 40
0.3125
  9
$TILEMODE
 70
1
  0
ENDSEC
  0
SECTION
  2
TABLES
  0
TABLE
  2
LTYPE
 70
6
  0
LTYPE
  2
BYBLOCK
 70
0
  3

 72
65
 73
0
 40
0.0
  0
LTYPE
  2
BYLAYER
 70
0
  3

 72
65
 73
0
 40
0.0
  0
LTYPE
  2
CONTINUOUS
 70
64
  3
Solid line
 72
65
 73
0
 40
0.0
  0
LTYPE
  2
CENTER
 70
64
  3
____ _ ____ _ ____ _ ____ _ ____ _ ____ _ ____
 72
65
 73
4
 40
0.6
 49
0.375
 49
-0.075
 49
0.075
 49
-0.075
  0
LTYPE
  2
HIDDEN
 70
64
  3
- - - - - - - - - - - - - - - - - - - -
 72
65
 73
2
 40
0.2
 49
0.1
 49
-0.1
  0
LTYPE
  2
PHANTOM
 70
64
  3
_____ _ _ _____ _ _ _____ _ _ _____
 72
65
 73
6
 40
0.8
 49
0.45
 49
-0.05
 49
0.1
 49
-0.05
 49
0.1
 49
-0.05
  0
LTYPE
  2
DOT
 70
64
  3
. . . . . . . . . . . . . . . . . . . .
 72
65
 73
2
 40
0.2
 49
0.1
 49
-0.1
  0
LTYPE
  2
DASHED
 70
64
  3
- - - - - - - - - - - - - - - - - - - -
 72
65
 73
2
 40
0.2
 49
0.1
 49
-0.1
  0
ENDTAB
  0
TABLE
  2
LAYER
 70
36
  0
LAYER
  2
0
 70
0
 62
7
  6
CONTINUOUS
  0
LAYER
  2
DEFAULT_1
 70
0
 62
7
  6
CENTER
  0
LAYER
  2
DEFAULT_2
 70
0
 62
8
  6
HIDDEN
  0
LAYER
  2
DEFAULT_3
 70
0
 62
7
  6
PHANTOM
  0
LAYER
  2
CURVE
 70
0
 62
7
  6
CONTINUOUS
  0
LAYER
  2
SURFACE
 70
0
 62
7
  6
CONTINUOUS
  0
LAYER
  2
XSEC_DATUMS
 70
0
 62
7
  6
CONTINUOUS
  0
ENDTAB
  0
TABLE
  2
STYLE
 70
1
  0
STYLE
  2
STANDARD
 70
0
 40
0.0
 41
0.8
 50
0.0
 71
0
 42
0.2
  3
txt
  4

  0
STYLE
  2
TEXTSTYLE_1
 70
0
 40
0.0
 41
0.8
 50
0.0
 71
0
 42
0.2
  3
gdt
  4

  0
STYLE
  2
TEXTSTYLE_2
 70
0
 40
0.0
 41
0.6
 50
0.0
 71
0
 42
0.2
  3
txt
  4

  0
STYLE
  2
TEXTSTYLE_3
 70
0
 40
0.0
 41
1.0
 50
0.0
 71
0
 42
0.2
  3
ftb_____.ttf
  4

  0
STYLE
  2
TEXTSTYLE_4
 70
0
 40
0.0
 41
1.0
 50
0.0
 71
0
 42
0.2
  3
fti_____.ttf
  4

  0
STYLE
  2
TEXTSTYLE_5
 70
0
 40
0.0
 41
1.0
 50
0.0
 71
0
 42
0.2
  3
frutiger light.ttf
  4

  0
STYLE
  2
TEXTSTYLE_6
 70
0
 40
0.0
 41
0.7
 50
0.0
 71
0
 42
0.2
  3
txt
  4

  0
STYLE
  2
TEXTSTYLE_7
 70
0
 40
0.0
 41
0.6
 50
0.0
 71
0
 42
0.2
  3
txt
  4

  0
ENDTAB
  0
ENDSEC
  0
SECTION
  2
BLOCKS
  0
BLOCK
  8
0
 62
2
  6
CONTINUOUS
  2
SYMBOL_5_BL1
 70
64
 10
382.7840918555
 20
35.5067593403
  0
TEXT
  8
0
 62
7
  6
CONTINUOUS
 10
373.842376864
 20
30.5995157174
  7
TEXTSTYLE_4
 40
1.0655737705
  1
The brand for plastic modular belts and chains
 41
1.0
 72
0
  0
LINE
  8
0
 62
7
  6
CONTINUOUS
 10
358.7621602445
 20
36.0805298321
 11
358.7621602445
 21
33.9493822911
  0
LINE
  8
0
 62
7
  6
CONTINUOUS
 10
359.0512227376
 20
30.9584509954
 11
359.0512227376
 21
31.0552420547
  0
LINE
  8
0
 62
7
  6
CONTINUOUS
 10
358.7621602445
 20
31.0229783683
 11
358.8199727462
 21
30.8293962497
  0
LINE
  8
0
 62
7
  6
CONTINUOUS
 10
360.1556028675
 20
33.867415078
 11
360.1556028675
 21
36.0805298321
  0
LINE
  8
0
 62
7
  6
CONTINUOUS
 10
361.0746601894
 20
32.0231527829
 11
361.0746601894
 21
30.5067593403
  0
LINE
  8
0
 62
7
  6
CONTINUOUS
 10
361.3637227445
 20
30.5067593403
 11
361.3637227445
 21
31.2488242184
  0
LINE
  8
0
 62
7
  6
CONTINUOUS
 10
361.3637227445
 20
31.3778789641
 11
361.3637227445
 21
32.0231527829
  0
LINE
  8
0
 62
7
  6
CONTINUOUS
 10
358.8199727462
 20
31.216560532
 11
358.7621602445
 21
31.0229783683
  0
LINE
  8
0
 62
7
  6
CONTINUOUS
 10
359.1668477307
 20
30.7971325633
 11
359.0512227376
 21
30.9584509954
  0
LINE
  8
0
 62
7
  6
CONTINUOUS
 10
360.2652852997
 20
31.3133515913
 11
360.3230977445
 21
31.216560532
  0
LINE
  8
0
 62
7
  6
CONTINUOUS
 10
360.6121602997
 20
31.216560532
 11
360.5543476894
 21
31.3456152777
  0
LINE
  8
0
 62
7
  6
CONTINUOUS
 10
362.0408487691
 20
36.0805298321
 11
362.0408487691
 21
34.2772511436
  0
LINE
  8
0
 62
7
  6
CONTINUOUS
 10
362.0408487691
 20
32.9657757338
 11
362.0408487691
 21
32.3100380288
  0
LINE
  8
0
 62
7
  6
CONTINUOUS
 10
362.4043477445
 20
31.1520331591
 11
362.4043477445
 21
30.5067593403
  0
LINE
  8
0
 62
7
  6
CONTINUOUS
 10
362.6934101343
 20
30.5067593403
 11
362.6934101343
 21
31.1520331591
  0
LINE
  8
0
 62
7
  6
CONTINUOUS
 10
359.0512227376
 20
31.0552420547
 11
359.1090352445
 21
31.1842968456
  0
LINE
  8
0
 62
7
  6
CONTINUOUS
 10
358.8199727462
 20
30.8293962497
 11
358.9355977445
 21
30.7003414814
  0
LINE
  8
0
 62
7
  6
CONTINUOUS
 10
362.3465351343
 20
31.2810879048
 11
362.4043477445
 21
31.1520331591
  0
LINE
  8
0
 62
7
  6
CONTINUOUS
 10
363.1559103548
 20
30.7971325633
 11
363.2137226343
 21
30.668077795
  0
LINE
  8
0
 62
7
  6
CONTINUOUS
 10
362.6934101343
 20
31.1520331591
 11
362.6355978548
 21
31.3133515913
  0
LINE
  8
0
 62
7
  6
CONTINUOUS
 10
363.1559103548
 20
31.3456152777
 11
363.1559103548
 21
31.2810879048
  0
LINE
  8
0
 62
7
  6
CONTINUOUS
 10
363.1559103548
 20
30.8939236226
 11
363.1559103548
 21
30.7971325633
  0
LINE
  8
0
 62
7
  6
CONTINUOUS
 10
363.4342913921
 20
32.3100380288
 11
363.4342913921
 21
36.0805298321
  0
LINE
  8
0
 62
7
  6
CONTINUOUS
 10
363.4449727445
 20
30.7648688543
 11
363.4449727445
 21
30.8293962497
  0
LINE
  8
0
 62
7
  6
CONTINUOUS
 10
363.7621602445
 20
36.0805298321
 11
363.7621602445
 21
32.3100380288
  0
LINE
  8
0
 62
7
  6
CONTINUOUS
 10
360.5543476894
 20
30.7003414814
 11
360.6121602997
 21
30.8293962497
  0
LINE
  8
0
 62
7
  6
CONTINUOUS
 10
364.9480979651
 20
30.6035504109
 11
364.890285024
 21
30.7648688543
  0
LINE
  8
0
 62
7
  6
CONTINUOUS
 10
364.6012229651
 20
31.2810879048
 11
364.6012229651
 21
31.1842968456
  0
LINE
  8
0
 62
7
  6
CONTINUOUS
 10
364.6012229651
 20
31.0552420547
 11
364.6012229651
 21
30.8616599362
  0
LINE
  8
0
 62
7
  6
CONTINUOUS
 10
364.890285024
 20
30.7648688543
 11
364.890285024
 21
31.2810879048
  0
LINE
  8
0
 62
7
  6
CONTINUOUS
 10
365.1556028675
 20
32.3100380288
 11
365.1556028675
 21
34.1133167174
  0
LINE
  8
0
 62
7
  6
CONTINUOUS
 10
365.1556028675
 20
35.4247921272
 11
365.1556028675
 21
36.0805298321
  0
LINE
  8
0
 62
7
  6
CONTINUOUS
 10
365.4684104651
 20
32.0231527829
 11
365.4684104651
 21
31.8618343508
  0
LINE
  8
0
 62
7
  6
CONTINUOUS
 10
365.4684104651
 20
31.5391973962
 11
365.4684104651
 21
30.5067593403
  0
LINE
  8
0
 62
7
  6
CONTINUOUS
 10
365.757472524
 20
30.5067593403
 11
365.757472524
 21
31.5391973962
  0
LINE
  8
0
 62
7
  6
CONTINUOUS
 10
365.757472524
 20
31.8618343508
 11
365.757472524
 21
32.0231527829
  0
LINE
  8
0
 62
7
  6
CONTINUOUS
 10
360.3230977445
 20
30.8293962497
 11
360.2652852997
 21
30.7326051679
  0
LINE
  8
0
 62
7
  6
CONTINUOUS
 10
362.6355978548
 20
31.3133515913
 11
362.5777852445
 21
31.3778789641
  0
LINE
  8
0
 62
7
  6
CONTINUOUS
 10
363.5027853548
 20
30.7003414814
 11
363.4449727445
 21
30.7648688543
  0
LINE
  8
0
 62
7
  6
CONTINUOUS
 10
364.6590352445
 20
30.5712867188
 11
364.716847524
 21
30.5067593403
  0
LINE
  8
0
 62
7
  6
CONTINUOUS
 10
364.6012229651
 20
30.668077795
 11
364.6590352445
 21
30.5712867188
  0
LINE
  8
0
 62
7
  6
CONTINUOUS
 10
365.0059102445
 20
30.5067593403
 11
364.9480979651
 21
30.6035504109
  0
LINE
  8
0
 62
7
  6
CONTINUOUS
 10
364.890285024
 20
31.2810879048
 11
364.8324727445
 21
31.3778789641
  0
LINE
  8
0
 62
7
  6
CONTINUOUS
 10
366.2199727445
 20
31.5391973962
 11
366.2199727445
 21
30.5067593403
  0
LINE
  8
0
 62
7
  6
CONTINUOUS
 10
366.5090354651
 20
30.5067593403
 11
366.5090354651
 21
31.2488242184
  0
LINE
  8
0
 62
7
  6
CONTINUOUS
 10
366.5090354651
 20
31.3778789641
 11
366.5090354651
 21
31.5391973962
  0
LINE
  8
0
 62
7
  6
CONTINUOUS
 10
367.0408487691
 20
34.5231527829
 11
367.0408487691
 21
32.3100380288
  0
LINE
  8
0
 62
7
  6
CONTINUOUS
 10
358.9355977445
 20
31.3456152777
 11
358.8199727462
 21
31.216560532
  0
LINE
  8
0
 62
7
  6
CONTINUOUS
 10
359.1090352445
 20
31.1842968456
 11
359.1668477307
 21
31.2488242184
  0
LINE
  8
0
 62
7
  6
CONTINUOUS
 10
358.9355977445
 20
30.7003414814
 11
359.0512227376
 21
30.6358140973
  0
LINE
  8
0
 62
7
  6
CONTINUOUS
 10
359.3402852307
 20
30.7003414814
 11
359.1668477307
 21
30.7971325633
  0
LINE
  8
0
 62
7
  6
CONTINUOUS
 10
364.543410024
 20
31.3456152777
 11
364.6012229651
 21
31.2810879048
  0
LINE
  8
0
 62
7
  6
CONTINUOUS
 10
367.491847524
 20
31.2810879048
 11
367.5496604651
 21
31.1197694727
  0
LINE
  8
0
 62
7
  6
CONTINUOUS
 10
367.838722524
 20
31.1197694727
 11
367.7809102445
 21
31.2810879048
  0
LINE
  8
0
 62
7
  6
CONTINUOUS
 10
367.5496604651
 20
31.1197694727
 11
367.5496604651
 21
30.5067593403
  0
LINE
  8
0
 62
7
  6
CONTINUOUS
 10
367.838722524
 20
30.5067593403
 11
367.838722524
 21
31.1197694727
  0
LINE
  8
0
 62
7
  6
CONTINUOUS
 10
368.3012227445
 20
31.3456152777
 11
368.3012227445
 21
31.2810879048
  0
LINE
  8
0
 62
7
  6
CONTINUOUS
 10
368.4342913921
 20
32.3100380288
 11
368.4342913921
 21
34.4411855698
  0
LINE
  8
0
 62
7
  6
CONTINUOUS
 10
368.7621602445
 20
36.0805298321
 11
368.7621602445
 21
32.3100380288
  0
LINE
  8
0
 62
7
  6
CONTINUOUS
 10
363.4449727445
 20
30.8293962497
 11
363.5027853548
 21
30.926187309
  0
LINE
  8
0
 62
7
  6
CONTINUOUS
 10
359.0512227376
 20
30.6358140973
 11
359.2246602583
 21
30.5712867188
  0
LINE
  8
0
 62
7
  6
CONTINUOUS
 10
360.5543476894
 20
31.3456152777
 11
360.3809101894
 21
31.4424063369
  0
LINE
  8
0
 62
7
  6
CONTINUOUS
 10
363.2137226343
 20
30.668077795
 11
363.3871601343
 21
30.5712867188
  0
LINE
  8
0
 62
7
  6
CONTINUOUS
 10
362.2309102445
 20
31.3456152777
 11
362.3465351343
 21
31.2810879048
  0
LINE
  8
0
 62
7
  6
CONTINUOUS
 10
362.5777852445
 20
31.3778789641
 11
362.4621603548
 21
31.4424063369
  0
LINE
  8
0
 62
7
  6
CONTINUOUS
 10
368.3012227445
 20
30.7648688543
 11
368.4168479651
 21
30.6358140973
  0
LINE
  8
0
 62
7
  6
CONTINUOUS
 10
368.6480977445
 20
30.7003414814
 11
368.5902854651
 21
30.7648688543
  0
LINE
  8
0
 62
7
  6
CONTINUOUS
 10
368.3012227445
 20
31.2810879048
 11
368.4168479651
 21
31.1520331591
  0
LINE
  8
0
 62
7
  6
CONTINUOUS
 10
367.7809102445
 20
31.2810879048
 11
367.7230979651
 21
31.3778789641
  0
LINE
  8
0
 62
7
  6
CONTINUOUS
 10
370.1512223035
 20
30.7003414814
 11
370.1512223035
 21
30.7648688543
  0
LINE
  8
0
 62
7
  6
CONTINUOUS
 10
370.1556028675
 20
32.3100380288
 11
370.1556028675
 21
36.0805298321
  0
LINE
  8
0
 62
7
  6
CONTINUOUS
 10
363.2137226343
 20
31.4101426505
 11
363.1559103548
 21
31.3456152777
  0
LINE
  8
0
 62
7
  6
CONTINUOUS
 10
360.091847717
 20
31.3778789641
 11
360.2652852997
 21
31.3133515913
  0
LINE
  8
0
 62
7
  6
CONTINUOUS
 10
364.8324727445
 20
31.3778789641
 11
364.716847524
 21
31.4424063369
  0
LINE
  8
0
 62
7
  6
CONTINUOUS
 10
368.6480977445
 20
31.216560532
 11
368.5902854651
 21
31.2810879048
  0
LINE
  8
0
 62
7
  6
CONTINUOUS
 10
369.8043479651
 20
30.8293962497
 11
369.8621602445
 21
30.7648688543
  0
LINE
  8
0
 62
7
  6
CONTINUOUS
 10
370.1512223035
 20
30.7648688543
 11
370.0355977445
 21
30.8939236226
  0
LINE
  8
0
 62
7
  6
CONTINUOUS
 10
369.8043479651
 20
31.3456152777
 11
369.8621602445
 21
31.2810879048
  0
LINE
  8
0
 62
7
  6
CONTINUOUS
 10
370.1512223035
 20
31.2810879048
 11
370.0355977445
 21
31.4101426505
  0
LINE
  8
0
 62
7
  6
CONTINUOUS
 10
363.4449727445
 20
31.2810879048
 11
363.5027853548
 21
31.3456152777
  0
LINE
  8
0
 62
7
  6
CONTINUOUS
 10
363.2715352445
 20
31.0229783683
 11
363.1559103548
 21
30.8939236226
  0
LINE
  8
0
 62
7
  6
CONTINUOUS
 10
364.6012229651
 20
30.8616599362
 11
364.543410024
 21
30.7971325633
  0
LINE
  8
0
 62
7
  6
CONTINUOUS
 10
364.543410024
 20
30.6035504109
 11
364.6012229651
 21
30.668077795
  0
LINE
  8
0
 62
7
  6
CONTINUOUS
 10
363.3871601343
 20
30.5712867188
 11
363.5027853548
 21
30.5390230296
  0
LINE
  8
0
 62
7
  6
CONTINUOUS
 10
360.3809101894
 20
31.4424063369
 11
360.1496602445
 21
31.5069337098
  0
LINE
  8
0
 62
7
  6
CONTINUOUS
 10
363.7340351343
 20
30.6358140973
 11
363.5027853548
 21
30.7003414814
  0
LINE
  8
0
 62
7
  6
CONTINUOUS
 10
362.4621603548
 20
31.4424063369
 11
362.2887228548
 21
31.5069337098
  0
LINE
  8
0
 62
7
  6
CONTINUOUS
 10
364.716847524
 20
31.4424063369
 11
364.543410024
 21
31.5069337098
  0
LINE
  8
0
 62
7
  6
CONTINUOUS
 10
367.3762229651
 20
31.3456152777
 11
367.491847524
 21
31.2810879048
  0
LINE
  8
0
 62
7
  6
CONTINUOUS
 10
367.7230979651
 20
31.3778789641
 11
367.6074727445
 21
31.4424063369
  0
LINE
  8
0
 62
7
  6
CONTINUOUS
 10
359.2246602583
 20
30.5712867188
 11
359.3980977583
 21
30.5390230296
  0
LINE
  8
0
 62
7
  6
CONTINUOUS
 10
359.6871602721
 20
30.6358140973
 11
359.3402852307
 21
30.7003414814
  0
LINE
  8
0
 62
7
  6
CONTINUOUS
 10
362.1152853548
 20
31.3778789641
 11
362.2309102445
 21
31.3456152777
  0
LINE
  8
0
 62
7
  6
CONTINUOUS
 10
364.4277854651
 20
31.3778789641
 11
364.543410024
 21
31.3456152777
  0
LINE
  8
0
 62
7
  6
CONTINUOUS
 10
368.7637229651
 20
30.668077795
 11
368.6480977445
 21
30.7003414814
  0
LINE
  8
0
 62
7
  6
CONTINUOUS
 10
367.2605977445
 20
31.3778789641
 11
367.3762229651
 21
31.3456152777
  0
LINE
  8
0
 62
7
  6
CONTINUOUS
 10
368.4168479651
 20
30.6358140973
 11
368.5902854651
 21
30.5712867188
  0
LINE
  8
0
 62
7
  6
CONTINUOUS
 10
367.6074727445
 20
31.4424063369
 11
367.4340352445
 21
31.5069337098
  0
LINE
  8
0
 62
7
  6
CONTINUOUS
 10
368.8215352445
 20
31.1520331591
 11
368.6480977445
 21
31.216560532
  0
LINE
  8
0
 62
7
  6
CONTINUOUS
 10
369.6309104651
 20
30.8939236226
 11
369.8043479651
 21
30.8293962497
  0
LINE
  8
0
 62
7
  6
CONTINUOUS
 10
370.0355977445
 20
31.4101426505
 11
369.8621602445
 21
31.4746700234
  0
LINE
  8
0
 62
7
  6
CONTINUOUS
 10
368.4168479651
 20
31.1520331591
 11
368.6480977445
 21
31.0552420547
  0
LINE
  8
0
 62
7
  6
CONTINUOUS
 10
370.0355977445
 20
30.8939236226
 11
369.8043479651
 21
30.9907146818
  0
LINE
  8
0
 62
7
  6
CONTINUOUS
 10
368.5902854651
 20
31.2810879048
 11
368.6480977445
 21
31.3456152777
  0
LINE
  8
0
 62
7
  6
CONTINUOUS
 10
359.0512227376
 20
31.4101426505
 11
358.9355977445
 21
31.3456152777
  0
LINE
  8
0
 62
7
  6
CONTINUOUS
 10
359.1668477307
 20
31.2488242184
 11
359.3402852307
 21
31.3456152777
  0
LINE
  8
0
 62
7
  6
CONTINUOUS
 10
361.4793477997
 20
31.4424063369
 11
361.3637227445
 21
31.3778789641
  0
LINE
  8
0
 62
7
  6
CONTINUOUS
 10
361.3637227445
 20
31.2488242184
 11
361.4793477997
 21
31.3133515913
  0
LINE
  8
0
 62
7
  6
CONTINUOUS
 10
360.3809101894
 20
30.6035504109
 11
360.5543476894
 21
30.7003414814
  0
LINE
  8
0
 62
7
  6
CONTINUOUS
 10
359.3980977583
 20
30.5390230296
 11
359.744972717
 21
30.5067593403
  0
LINE
  8
0
 62
7
  6
CONTINUOUS
 10
363.5027853548
 20
30.5390230296
 11
363.7340351343
 21
30.5067593403
  0
LINE
  8
0
 62
7
  6
CONTINUOUS
 10
361.8840352445
 20
31.4101426505
 11
362.1152853548
 21
31.3778789641
  0
LINE
  8
0
 62
7
  6
CONTINUOUS
 10
364.1965353548
 20
31.4101426505
 11
364.4277854651
 21
31.3778789641
  0
LINE
  8
0
 62
7
  6
CONTINUOUS
 10
368.6480977445
 20
31.0552420547
 11
369.6309104651
 21
30.8939236226
  0
LINE
  8
0
 62
7
  6
CONTINUOUS
 10
369.8043479651
 20
30.9907146818
 11
368.8215352445
 21
31.1520331591
  0
LINE
  8
0
 62
7
  6
CONTINUOUS
 10
362.2887228548
 20
31.5069337098
 11
362.1152853548
 21
31.5391973962
  0
LINE
  8
0
 62
7
  6
CONTINUOUS
 10
368.5902854651
 20
30.5712867188
 11
368.7637229651
 21
30.5390230296
  0
LINE
  8
0
 62
7
  6
CONTINUOUS
 10
367.4340352445
 20
31.5069337098
 11
367.2605977445
 21
31.5391973962
  0
LINE
  8
0
 62
7
  6
CONTINUOUS
 10
369.6887227445
 20
31.3778789641
 11
369.8043479651
 21
31.3456152777
  0
LINE
  8
0
 62
7
  6
CONTINUOUS
 10
369.8621602445
 20
30.7648688543
 11
369.8043479651
 21
30.7003414814
  0
LINE
  8
0
 62
7
  6
CONTINUOUS
 10
368.4168479651
 20
31.4424063369
 11
368.3012227445
 21
31.3456152777
  0
LINE
  8
0
 62
7
  6
CONTINUOUS
 10
363.3293478548
 20
31.4746700234
 11
363.2137226343
 21
31.4101426505
  0
LINE
  8
0
 62
7
  6
CONTINUOUS
 10
363.3871601343
 20
31.0875057863
 11
363.2715352445
 21
31.0229783683
  0
LINE
  8
0
 62
7
  6
CONTINUOUS
 10
363.5027853548
 20
30.926187309
 11
363.6184102445
 21
30.9907146818
  0
LINE
  8
0
 62
7
  6
CONTINUOUS
 10
361.0746601894
 20
30.5067593403
 11
361.3637227445
 21
30.5067593403
  0
LINE
  8
0
 62
7
  6
CONTINUOUS
 10
362.4043477445
 20
30.5067593403
 11
362.6934101343
 21
30.5067593403
  0
LINE
  8
0
 62
7
  6
CONTINUOUS
 10
363.7340351343
 20
30.5067593403
 11
364.0809101343
 21
30.5067593403
  0
LINE
  8
0
 62
7
  6
CONTINUOUS
 10
364.716847524
 20
30.5067593403
 11
365.0059102445
 21
30.5067593403
  0
LINE
  8
0
 62
7
  6
CONTINUOUS
 10
365.4684104651
 20
30.5067593403
 11
365.757472524
 21
30.5067593403
  0
LINE
  8
0
 62
7
  6
CONTINUOUS
 10
366.2199727445
 20
30.5067593403
 11
366.5090354651
 21
30.5067593403
  0
LINE
  8
0
 62
7
  6
CONTINUOUS
 10
367.5496604651
 20
30.5067593403
 11
367.838722524
 21
30.5067593403
  0
LINE
  8
0
 62
7
  6
CONTINUOUS
 10
369.1105979651
 20
30.5067593403
 11
369.4574729651
 21
30.5067593403
  0
LINE
  8
0
 62
7
  6
CONTINUOUS
 10
369.4574729651
 20
30.6358140973
 11
369.1105979651
 21
30.6358140973
  0
LINE
  8
0
 62
7
  6
CONTINUOUS
 10
364.0809101343
 20
30.6358140973
 11
363.7340351343
 21
30.6358140973
  0
LINE
  8
0
 62
7
  6
CONTINUOUS
 10
368.5902854651
 20
30.7648688543
 11
368.3012227445
 21
30.7648688543
  0
LINE
  8
0
 62
7
  6
CONTINUOUS
 10
360.6121602997
 20
30.8293962497
 11
360.3230977445
 21
30.8293962497
  0
LINE
  8
0
 62
7
  6
CONTINUOUS
 10
359.6871602721
 20
31.4101426505
 11
360.091847717
 21
31.3778789641
  0
LINE
  8
0
 62
7
  6
CONTINUOUS
 10
360.1496602445
 20
31.5069337098
 11
359.744972717
 21
31.5391973962
  0
LINE
  8
0
 62
7
  6
CONTINUOUS
 10
368.7637229651
 20
30.5390230296
 11
369.1105979651
 21
30.5067593403
  0
LINE
  8
0
 62
7
  6
CONTINUOUS
 10
369.1105979651
 20
30.6358140973
 11
368.7637229651
 21
30.668077795
  0
LINE
  8
0
 62
7
  6
CONTINUOUS
 10
364.543410024
 20
31.5069337098
 11
364.1965353548
 21
31.5391973962
  0
LINE
  8
0
 62
7
  6
CONTINUOUS
 10
369.3418477445
 20
31.4101426505
 11
369.6887227445
 21
31.3778789641
  0
LINE
  8
0
 62
7
  6
CONTINUOUS
 10
369.6887227445
 20
31.5069337098
 11
369.3418477445
 21
31.5391973962
  0
LINE
  8
0
 62
7
  6
CONTINUOUS
 10
367.0293479651
 20
31.4101426505
 11
367.2605977445
 21
31.3778789641
  0
LINE
  8
0
 62
7
  6
CONTINUOUS
 10
369.8621602445
 20
31.4746700234
 11
369.6887227445
 21
31.5069337098
  0
LINE
  8
0
 62
7
  6
CONTINUOUS
 10
370.0355977445
 20
30.6035504109
 11
370.1512223035
 21
30.7003414814
  0
LINE
  8
0
 62
7
  6
CONTINUOUS
 10
364.543410024
 20
30.7971325633
 11
364.369972524
 21
30.7003414814
  0
LINE
  8
0
 62
7
  6
CONTINUOUS
 10
366.624660024
 20
31.4424063369
 11
366.5090354651
 21
31.3778789641
  0
LINE
  8
0
 62
7
  6
CONTINUOUS
 10
366.5090354651
 20
31.2488242184
 11
366.624660024
 21
31.3133515913
  0
LINE
  8
0
 62
7
  6
CONTINUOUS
 10
359.2246602583
 20
31.4746700234
 11
359.0512227376
 21
31.4101426505
  0
LINE
  8
0
 62
7
  6
CONTINUOUS
 10
361.6527851343
 20
31.5069337098
 11
361.4793477997
 21
31.4424063369
  0
LINE
  8
0
 62
7
  6
CONTINUOUS
 10
361.4793477997
 20
31.3133515913
 11
361.6527851343
 21
31.3778789641
  0
LINE
  8
0
 62
7
  6
CONTINUOUS
 10
360.2652852997
 20
30.7326051679
 11
360.091847717
 21
30.668077795
  0
LINE
  8
0
 62
7
  6
CONTINUOUS
 10
369.6887227445
 20
30.668077795
 11
369.4574729651
 21
30.6358140973
  0
LINE
  8
0
 62
7
  6
CONTINUOUS
 10
364.0809101343
 20
30.5067593403
 11
364.369972524
 21
30.5390230296
  0
LINE
  8
0
 62
7
  6
CONTINUOUS
 10
369.4574729651
 20
30.5067593403
 11
369.8043479651
 21
30.5390230296
  0
LINE
  8
0
 62
7
  6
CONTINUOUS
 10
359.744972717
 20
30.5067593403
 11
360.1496602445
 21
30.5390230296
  0
LINE
  8
0
 62
7
  6
CONTINUOUS
 10
360.091847717
 20
30.668077795
 11
359.6871602721
 21
30.6358140973
  0
LINE
  8
0
 62
7
  6
CONTINUOUS
 10
363.9652852445
 20
31.0552420547
 11
364.6012229651
 21
31.0552420547
  0
LINE
  8
0
 62
7
  6
CONTINUOUS
 10
364.6012229651
 20
31.1842968456
 11
363.9652852445
 21
31.1842968456
  0
LINE
  8
0
 62
7
  6
CONTINUOUS
 10
360.3230977445
 20
31.216560532
 11
360.6121602997
 21
31.216560532
  0
LINE
  8
0
 62
7
  6
CONTINUOUS
 10
363.1559103548
 20
31.2810879048
 11
363.4449727445
 21
31.2810879048
  0
LINE
  8
0
 62
7
  6
CONTINUOUS
 10
369.8621602445
 20
31.2810879048
 11
370.1512223035
 21
31.2810879048
  0
LINE
  8
0
 62
7
  6
CONTINUOUS
 10
363.8496603548
 20
31.4101426505
 11
364.1965353548
 21
31.4101426505
  0
LINE
  8
0
 62
7
  6
CONTINUOUS
 10
368.9949727445
 20
31.4101426505
 11
369.3418477445
 21
31.4101426505
  0
LINE
  8
0
 62
7
  6
CONTINUOUS
 10
369.3418477445
 20
31.5391973962
 11
368.9949727445
 21
31.5391973962
  0
LINE
  8
0
 62
7
  6
CONTINUOUS
 10
367.2605977445
 20
31.5391973962
 11
367.0293479651
 21
31.5391973962
  0
LINE
  8
0
 62
7
  6
CONTINUOUS
 10
366.5090354651
 20
31.5391973962
 11
366.2199727445
 21
31.5391973962
  0
LINE
  8
0
 62
7
  6
CONTINUOUS
 10
365.757472524
 20
31.5391973962
 11
365.4684104651
 21
31.5391973962
  0
LINE
  8
0
 62
7
  6
CONTINUOUS
 10
364.1965353548
 20
31.5391973962
 11
363.8496603548
 21
31.5391973962
  0
LINE
  8
0
 62
7
  6
CONTINUOUS
 10
362.1152853548
 20
31.5391973962
 11
361.8840352445
 21
31.5391973962
  0
LINE
  8
0
 62
7
  6
CONTINUOUS
 10
365.4684104651
 20
31.8618343508
 11
365.757472524
 21
31.8618343508
  0
LINE
  8
0
 62
7
  6
CONTINUOUS
 10
365.757472524
 20
32.0231527829
 11
365.4684104651
 21
32.0231527829
  0
LINE
  8
0
 62
7
  6
CONTINUOUS
 10
361.3637227445
 20
32.0231527829
 11
361.0746601894
 21
32.0231527829
  0
LINE
  8
0
 62
7
  6
CONTINUOUS
 10
360.4015045068
 20
32.3100380288
 11
360.8140758554
 21
32.3100380288
  0
LINE
  8
0
 62
7
  6
CONTINUOUS
 10
362.0408487691
 20
32.3100380288
 11
363.4342913921
 21
32.3100380288
  0
LINE
  8
0
 62
7
  6
CONTINUOUS
 10
363.7621602445
 20
32.3100380288
 11
365.1556028675
 21
32.3100380288
  0
LINE
  8
0
 62
7
  6
CONTINUOUS
 10
367.0408487691
 20
32.3100380288
 11
368.4342913921
 21
32.3100380288
  0
LINE
  8
0
 62
7
  6
CONTINUOUS
 10
368.7621602445
 20
32.3100380288
 11
370.1556028675
 21
32.3100380288
  0
LINE
  8
0
 62
7
  6
CONTINUOUS
 10
366.798097524
 20
31.5069337098
 11
366.624660024
 21
31.4424063369
  0
LINE
  8
0
 62
7
  6
CONTINUOUS
 10
364.369972524
 20
30.5390230296
 11
364.543410024
 21
30.6035504109
  0
LINE
  8
0
 62
7
  6
CONTINUOUS
 10
369.8043479651
 20
30.5390230296
 11
370.0355977445
 21
30.6035504109
  0
LINE
  8
0
 62
7
  6
CONTINUOUS
 10
369.8043479651
 20
30.7003414814
 11
369.6887227445
 21
30.668077795
  0
LINE
  8
0
 62
7
  6
CONTINUOUS
 10
368.7637229651
 20
31.3778789641
 11
368.9949727445
 21
31.4101426505
  0
LINE
  8
0
 62
7
  6
CONTINUOUS
 10
366.798097524
 20
31.3778789641
 11
367.0293479651
 21
31.4101426505
  0
LINE
  8
0
 62
7
  6
CONTINUOUS
 10
363.7340351343
 20
31.0229783683
 11
363.9652852445
 21
31.0552420547
  0
LINE
  8
0
 62
7
  6
CONTINUOUS
 10
367.0293479651
 20
31.5391973962
 11
366.798097524
 21
31.5069337098
  0
LINE
  8
0
 62
7
  6
CONTINUOUS
 10
363.6184102445
 20
31.3778789641
 11
363.8496603548
 21
31.4101426505
  0
LINE
  8
0
 62
7
  6
CONTINUOUS
 10
368.9949727445
 20
31.5391973962
 11
368.6480977445
 21
31.5069337098
  0
LINE
  8
0
 62
7
  6
CONTINUOUS
 10
363.9652852445
 20
31.1842968456
 11
363.6184102445
 21
31.1520331591
  0
LINE
  8
0
 62
7
  6
CONTINUOUS
 10
359.744972717
 20
31.5391973962
 11
359.3980977583
 21
31.5069337098
  0
LINE
  8
0
 62
7
  6
CONTINUOUS
 10
363.8496603548
 20
31.5391973962
 11
363.4449727445
 21
31.5069337098
  0
LINE
  8
0
 62
7
  6
CONTINUOUS
 10
361.221176638
 20
33.4575790124
 11
360.565438933
 21
33.4575790124
  0
LINE
  8
0
 62
7
  6
CONTINUOUS
 10
366.624660024
 20
31.3133515913
 11
366.798097524
 21
31.3778789641
  0
LINE
  8
0
 62
7
  6
CONTINUOUS
 10
368.6480977445
 20
31.3456152777
 11
368.7637229651
 21
31.3778789641
  0
LINE
  8
0
 62
7
  6
CONTINUOUS
 10
368.6480977445
 20
31.5069337098
 11
368.4168479651
 21
31.4424063369
  0
LINE
  8
0
 62
7
  6
CONTINUOUS
 10
364.369972524
 20
30.7003414814
 11
364.0809101343
 21
30.6358140973
  0
LINE
  8
0
 62
7
  6
CONTINUOUS
 10
361.6527851343
 20
31.3778789641
 11
361.8840352445
 21
31.4101426505
  0
LINE
  8
0
 62
7
  6
CONTINUOUS
 10
361.8840352445
 20
31.5391973962
 11
361.6527851343
 21
31.5069337098
  0
LINE
  8
0
 62
7
  6
CONTINUOUS
 10
359.4559102445
 20
31.3778789641
 11
359.6871602721
 21
31.4101426505
  0
LINE
  8
0
 62
7
  6
CONTINUOUS
 10
365.9752749986
 20
34.9329888485
 11
366.6310127035
 21
34.9329888485
  0
LINE
  8
0
 62
7
  6
CONTINUOUS
 10
363.6184102445
 20
30.9907146818
 11
363.7340351343
 21
31.0229783683
  0
LINE
  8
0
 62
7
  6
CONTINUOUS
 10
363.6184102445
 20
31.1520331591
 11
363.3871601343
 21
31.0875057863
  0
LINE
  8
0
 62
7
  6
CONTINUOUS
 10
363.5027853548
 20
31.3456152777
 11
363.6184102445
 21
31.3778789641
  0
LINE
  8
0
 62
7
  6
CONTINUOUS
 10
360.1496602445
 20
30.5390230296
 11
360.3809101894
 21
30.6035504109
  0
LINE
  8
0
 62
7
  6
CONTINUOUS
 10
363.4449727445
 20
31.5069337098
 11
363.3293478548
 21
31.4746700234
  0
LINE
  8
0
 62
7
  6
CONTINUOUS
 10
359.3980977583
 20
31.5069337098
 11
359.2246602583
 21
31.4746700234
  0
LINE
  8
0
 62
7
  6
CONTINUOUS
 10
370.1556028675
 20
36.0805298321
 11
368.7621602445
 21
36.0805298321
  0
LINE
  8
0
 62
7
  6
CONTINUOUS
 10
366.7949471298
 20
36.0805298321
 11
366.3823757812
 21
36.0805298321
  0
LINE
  8
0
 62
7
  6
CONTINUOUS
 10
365.1556028675
 20
36.0805298321
 11
363.7621602445
 21
36.0805298321
  0
LINE
  8
0
 62
7
  6
CONTINUOUS
 10
363.4342913921
 20
36.0805298321
 11
362.0408487691
 21
36.0805298321
  0
LINE
  8
0
 62
7
  6
CONTINUOUS
 10
360.1556028675
 20
36.0805298321
 11
358.7621602445
 21
36.0805298321
  0
LINE
  8
0
 62
7
  6
CONTINUOUS
 10
359.3402852307
 20
31.3456152777
 11
359.4559102445
 21
31.3778789641
  0
CIRCLE
  8
0
 62
7
  6
CONTINUOUS
 10
369.458881556
 20
38.4165954059
 40
2.0901639344
  0
ARC
  8
0
 62
7
  6
CONTINUOUS
 10
360.4015045068
 20
33.9493822911
 40
1.6393442623
 50
180.0
 51
270.0
  0
ARC
  8
0
 62
7
  6
CONTINUOUS
 10
366.7949471298
 20
34.4411855698
 40
1.6393442623
 50
0.0
 51
90.0
  0
ARC
  8
0
 62
7
  6
CONTINUOUS
 10
360.8140758554
 20
33.7854478649
 40
1.4754098361
 50
270.0
 51
326.2510114041
  0
ARC
  8
0
 62
7
  6
CONTINUOUS
 10
366.3823757812
 20
34.6051199961
 40
1.4754098361
 50
90.0
 51
146.2510114041
  0
ARC
  8
0
 62
7
  6
CONTINUOUS
 10
361.221176638
 20
34.2772511436
 40
0.8196721311
 50
270.0
 51
360.0
  0
ARC
  8
0
 62
7
  6
CONTINUOUS
 10
365.9752749986
 20
34.1133167174
 40
0.8196721311
 50
90.0
 51
180.0
  0
ARC
  8
0
 62
7
  6
CONTINUOUS
 10
360.565438933
 20
33.867415078
 40
0.4098360656
 50
180.0
 51
270.0
  0
ARC
  8
0
 62
7
  6
CONTINUOUS
 10
366.6310127035
 20
34.5231527829
 40
0.4098360656
 50
0.0
 51
90.0
  0
SOLID
  8
0
 62
7
  6
CONTINUOUS
 10
365.4684104651
 20
31.8618347111
 11
365.4684104651
 21
32.0231531947
 12
365.757472524
 22
31.8618347111
 13
365.757472524
 23
32.0231531947
  0
SOLID
  8
0
 62
7
  6
CONTINUOUS
 10
359.744972717
 20
31.5391977439
 11
360.1496602445
 21
31.5069333244
 12
359.3980977583
 22
31.5069333244
 13
359.3980977583
 23
31.5069333244
  0
SOLID
  8
0
 62
7
  6
CONTINUOUS
 10
359.2246602583
 20
31.4746706537
 11
359.3980977583
 21
31.5069333244
 12
360.1496602445
 22
31.5069333244
 13
360.1496602445
 23
31.5069333244
  0
SOLID
  8
0
 62
7
  6
CONTINUOUS
 10
360.1496602445
 20
31.5069333244
 11
360.3809101894
 21
31.4424063504
 12
359.2246602583
 22
31.4746706537
 13
359.2246602583
 23
31.4746706537
  0
SOLID
  8
0
 62
7
  6
CONTINUOUS
 10
359.0512227376
 20
31.4101419116
 11
359.2246602583
 21
31.4746706537
 12
360.3809101894
 22
31.4424063504
 13
360.3809101894
 23
31.4424063504
  0
SOLID
  8
0
 62
7
  6
CONTINUOUS
 10
359.0512227376
 20
31.4101419116
 11
360.3809101894
 21
31.4424063504
 12
359.6871602721
 22
31.4101419116
 13
359.6871602721
 23
31.4101419116
  0
SOLID
  8
0
 62
7
  6
CONTINUOUS
 10
359.6871602721
 20
31.4101419116
 11
360.3809101894
 21
31.4424063504
 12
360.091847717
 22
31.3778792603
 13
360.091847717
 23
31.3778792603
  0
SOLID
  8
0
 62
7
  6
CONTINUOUS
 10
360.3809101894
 20
31.4424063504
 11
360.5543476894
 21
31.345614957
 12
360.091847717
 22
31.3778792603
 13
360.091847717
 23
31.3778792603
  0
SOLID
  8
0
 62
7
  6
CONTINUOUS
 10
360.2652852997
 20
31.3133521701
 11
360.091847717
 21
31.3778792603
 12
360.5543476894
 22
31.345614957
 13
360.5543476894
 23
31.345614957
  0
SOLID
  8
0
 62
7
  6
CONTINUOUS
 10
360.2652852997
 20
31.3133521701
 11
360.5543476894
 21
31.345614957
 12
360.3230977445
 22
31.2165606992
 13
360.3230977445
 23
31.2165606992
  0
SOLID
  8
0
 62
7
  6
CONTINUOUS
 10
360.5543476894
 20
31.345614957
 11
360.6121602997
 21
31.2165606992
 12
360.3230977445
 22
31.2165606992
 13
360.3230977445
 23
31.2165606992
  0
SOLID
  8
0
 62
7
  6
CONTINUOUS
 10
361.6527851343
 20
31.5069329918
 11
361.8840352445
 21
31.5391972951
 12
362.1152853548
 22
31.5391972951
 13
362.1152853548
 23
31.5391972951
  0
SOLID
  8
0
 62
7
  6
CONTINUOUS
 10
362.1152853548
 20
31.5391972951
 11
362.2887228548
 21
31.5069329918
 12
361.6527851343
 22
31.5069329918
 13
361.6527851343
 23
31.5069329918
  0
SOLID
  8
0
 62
7
  6
CONTINUOUS
 10
361.4793477997
 20
31.4424059016
 11
361.6527851343
 21
31.5069329918
 12
362.2887228548
 22
31.5069329918
 13
362.2887228548
 23
31.5069329918
  0
SOLID
  8
0
 62
7
  6
CONTINUOUS
 10
362.2887228548
 20
31.5069329918
 11
362.4621603548
 21
31.4424059016
 12
361.4793477997
 22
31.4424059016
 13
361.4793477997
 23
31.4424059016
  0
SOLID
  8
0
 62
7
  6
CONTINUOUS
 10
362.4621603548
 20
31.4424059016
 11
361.8840352445
 21
31.4101420472
 12
361.4793477997
 22
31.4424059016
 13
361.4793477997
 23
31.4424059016
  0
SOLID
  8
0
 62
7
  6
CONTINUOUS
 10
361.3637227445
 20
31.3778788115
 11
361.4793477997
 21
31.4424059016
 12
361.8840352445
 22
31.4101420472
 13
361.8840352445
 23
31.4101420472
  0
SOLID
  8
0
 62
7
  6
CONTINUOUS
 10
361.8840352445
 20
31.4101420472
 11
361.6527851343
 21
31.3778788115
 12
361.3637227445
 22
31.3778788115
 13
361.3637227445
 23
31.3778788115
  0
SOLID
  8
0
 62
7
  6
CONTINUOUS
 10
361.8840352445
 20
31.4101420472
 11
362.4621603548
 21
31.4424059016
 12
362.1152853548
 22
31.3778788115
 13
362.1152853548
 23
31.3778788115
  0
SOLID
  8
0
 62
7
  6
CONTINUOUS
 10
362.4621603548
 20
31.4424059016
 11
362.5777852445
 21
31.3778788115
 12
362.1152853548
 22
31.3778788115
 13
362.1152853548
 23
31.3778788115
  0
SOLID
  8
0
 62
7
  6
CONTINUOUS
 10
362.2309102445
 20
31.345614957
 11
362.1152853548
 21
31.3778788115
 12
362.5777852445
 22
31.3778788115
 13
362.5777852445
 23
31.3778788115
  0
SOLID
  8
0
 62
7
  6
CONTINUOUS
 10
362.5777852445
 20
31.3778788115
 11
362.6355978548
 21
31.3133517213
 12
362.2309102445
 22
31.345614957
 13
362.2309102445
 23
31.345614957
  0
SOLID
  8
0
 62
7
  6
CONTINUOUS
 10
362.3465351343
 20
31.2810878668
 11
362.2309102445
 21
31.345614957
 12
362.6355978548
 22
31.3133517213
 13
362.6355978548
 23
31.3133517213
  0
SOLID
  8
0
 62
7
  6
CONTINUOUS
 10
362.3465351343
 20
31.2810878668
 11
362.6355978548
 21
31.3133517213
 12
362.4043477445
 22
31.1520332377
 13
362.4043477445
 23
31.1520332377
  0
SOLID
  8
0
 62
7
  6
CONTINUOUS
 10
362.6355978548
 20
31.3133517213
 11
362.6934101343
 21
31.1520332377
 12
362.4043477445
 22
31.1520332377
 13
362.4043477445
 23
31.1520332377
  0
SOLID
  8
0
 62
7
  6
CONTINUOUS
 10
361.6527851343
 20
31.3778788115
 11
361.4793477997
 21
31.3133517213
 12
361.3637227445
 22
31.3778788115
 13
361.3637227445
 23
31.3778788115
  0
SOLID
  8
0
 62
7
  6
CONTINUOUS
 10
361.4793477997
 20
31.3133517213
 11
361.3637227445
 21
31.2488235635
 12
361.3637227445
 22
31.3778788115
 13
361.3637227445
 23
31.3778788115
  0
SOLID
  8
0
 62
7
  6
CONTINUOUS
 10
361.3637227445
 20
31.2488235635
 11
361.0746601894
 21
30.5067593033
 12
361.3637227445
 22
31.3778788115
 13
361.3637227445
 23
31.3778788115
  0
SOLID
  8
0
 62
7
  6
CONTINUOUS
 10
361.3637227445
 20
31.3778788115
 11
361.0746601894
 21
30.5067593033
 12
361.3637227445
 22
32.0231527459
 13
361.3637227445
 23
32.0231527459
  0
SOLID
  8
0
 62
7
  6
CONTINUOUS
 10
361.0746601894
 20
30.5067593033
 11
361.0746601894
 21
32.0231527459
 12
361.3637227445
 22
32.0231527459
 13
361.3637227445
 23
32.0231527459
  0
SOLID
  8
0
 62
7
  6
CONTINUOUS
 10
361.3637227445
 20
31.2488235635
 11
361.3637227445
 21
30.5067593033
 12
361.0746601894
 22
30.5067593033
 13
361.0746601894
 23
30.5067593033
  0
SOLID
  8
0
 62
7
  6
CONTINUOUS
 10
362.4043477445
 20
30.5067593033
 11
362.4043477445
 21
31.1520332377
 12
362.6934101343
 22
31.1520332377
 13
362.6934101343
 23
31.1520332377
  0
SOLID
  8
0
 62
7
  6
CONTINUOUS
 10
362.6934101343
 20
31.1520332377
 11
362.6934101343
 21
30.5067593033
 12
362.4043477445
 22
30.5067593033
 13
362.4043477445
 23
30.5067593033
  0
SOLID
  8
0
 62
7
  6
CONTINUOUS
 10
363.4449727445
 20
31.506933758
 11
363.8496603548
 21
31.5391977507
 12
364.1965353548
 22
31.5391977507
 13
364.1965353548
 23
31.5391977507
  0
SOLID
  8
0
 62
7
  6
CONTINUOUS
 10
364.1965353548
 20
31.5391977507
 11
364.543410024
 21
31.506933758
 12
363.4449727445
 22
31.506933758
 13
363.4449727445
 23
31.506933758
  0
SOLID
  8
0
 62
7
  6
CONTINUOUS
 10
363.3293478548
 20
31.4746706537
 11
363.4449727445
 21
31.506933758
 12
364.543410024
 22
31.506933758
 13
364.543410024
 23
31.506933758
  0
SOLID
  8
0
 62
7
  6
CONTINUOUS
 10
364.543410024
 20
31.506933758
 11
364.716847524
 21
31.4424063504
 12
363.3293478548
 22
31.4746706537
 13
363.3293478548
 23
31.4746706537
  0
SOLID
  8
0
 62
7
  6
CONTINUOUS
 10
363.2137226343
 20
31.4101417797
 11
363.3293478548
 21
31.4746706537
 12
364.716847524
 22
31.4424063504
 13
364.716847524
 23
31.4424063504
  0
SOLID
  8
0
 62
7
  6
CONTINUOUS
 10
363.2137226343
 20
31.4101417797
 11
364.716847524
 21
31.4424063504
 12
363.8496603548
 22
31.4101417797
 13
363.8496603548
 23
31.4101417797
  0
SOLID
  8
0
 62
7
  6
CONTINUOUS
 10
363.8496603548
 20
31.4101417797
 11
364.716847524
 21
31.4424063504
 12
364.1965353548
 22
31.4101417797
 13
364.1965353548
 23
31.4101417797
  0
SOLID
  8
0
 62
7
  6
CONTINUOUS
 10
364.1965353548
 20
31.4101417797
 11
364.716847524
 21
31.4424063504
 12
364.4277854651
 22
31.3778793357
 13
364.4277854651
 23
31.3778793357
  0
SOLID
  8
0
 62
7
  6
CONTINUOUS
 10
364.716847524
 20
31.4424063504
 11
364.8324727445
 21
31.3778793357
 12
364.4277854651
 22
31.3778793357
 13
364.4277854651
 23
31.3778793357
  0
SOLID
  8
0
 62
7
  6
CONTINUOUS
 10
363.1559103548
 20
31.3456153429
 11
363.2137226343
 21
31.4101417797
 12
363.8496603548
 22
31.4101417797
 13
363.8496603548
 23
31.4101417797
  0
SOLID
  8
0
 62
7
  6
CONTINUOUS
 10
364.543410024
 20
31.3456153429
 11
364.4277854651
 21
31.3778793357
 12
364.8324727445
 22
31.3778793357
 13
364.8324727445
 23
31.3778793357
  0
SOLID
  8
0
 62
7
  6
CONTINUOUS
 10
364.543410024
 20
31.3456153429
 11
364.8324727445
 21
31.3778793357
 12
364.6012229651
 22
31.2810881318
 13
364.6012229651
 23
31.2810881318
  0
SOLID
  8
0
 62
7
  6
CONTINUOUS
 10
364.8324727445
 20
31.3778793357
 11
364.890285024
 21
31.2810881318
 12
364.6012229651
 22
31.2810881318
 13
364.6012229651
 23
31.2810881318
  0
SOLID
  8
0
 62
7
  6
CONTINUOUS
 10
364.6012229651
 20
31.1842964734
 11
364.6012229651
 21
31.2810881318
 12
364.890285024
 22
31.2810881318
 13
364.890285024
 23
31.2810881318
  0
SOLID
  8
0
 62
7
  6
CONTINUOUS
 10
364.6012229651
 20
31.1842964734
 11
364.890285024
 21
31.2810881318
 12
364.6012229651
 22
31.0552422931
 13
364.6012229651
 23
31.0552422931
  0
SOLID
  8
0
 62
7
  6
CONTINUOUS
 10
364.6012229651
 20
31.0552422931
 11
364.890285024
 21
31.2810881318
 12
364.6012229651
 22
30.8616599362
 13
364.6012229651
 23
30.8616599362
  0
SOLID
  8
0
 62
7
  6
CONTINUOUS
 10
364.890285024
 20
31.2810881318
 11
364.890285024
 21
30.7648681127
 12
364.6012229651
 22
30.8616599362
 13
364.6012229651
 23
30.8616599362
  0
SOLID
  8
0
 62
7
  6
CONTINUOUS
 10
366.798097524
 20
31.5069339419
 11
367.0293479651
 21
31.5391976292
 12
367.2605977445
 22
31.5391976292
 13
367.2605977445
 23
31.5391976292
  0
SOLID
  8
0
 62
7
  6
CONTINUOUS
 10
367.2605977445
 20
31.5391976292
 11
367.4340352445
 21
31.5069339419
 12
366.798097524
 22
31.5069339419
 13
366.798097524
 23
31.5069339419
  0
SOLID
  8
0
 62
7
  6
CONTINUOUS
 10
366.624660024
 20
31.4424065674
 11
366.798097524
 21
31.5069339419
 12
367.4340352445
 22
31.5069339419
 13
367.4340352445
 23
31.5069339419
  0
SOLID
  8
0
 62
7
  6
CONTINUOUS
 10
367.4340352445
 20
31.5069339419
 11
367.6074727445
 21
31.4424065674
 12
366.624660024
 22
31.4424065674
 13
366.624660024
 23
31.4424065674
  0
SOLID
  8
0
 62
7
  6
CONTINUOUS
 10
367.6074727445
 20
31.4424065674
 11
367.0293479651
 21
31.4101420472
 12
366.624660024
 22
31.4424065674
 13
366.624660024
 23
31.4424065674
  0
SOLID
  8
0
 62
7
  6
CONTINUOUS
 10
366.5090354651
 20
31.377879193
 11
366.624660024
 21
31.4424065674
 12
367.0293479651
 22
31.4101420472
 13
367.0293479651
 23
31.4101420472
  0
SOLID
  8
0
 62
7
  6
CONTINUOUS
 10
367.0293479651
 20
31.4101420472
 11
366.798097524
 21
31.377879193
 12
366.5090354651
 22
31.377879193
 13
366.5090354651
 23
31.377879193
  0
SOLID
  8
0
 62
7
  6
CONTINUOUS
 10
367.0293479651
 20
31.4101420472
 11
367.6074727445
 21
31.4424065674
 12
367.2605977445
 22
31.377879193
 13
367.2605977445
 23
31.377879193
  0
SOLID
  8
0
 62
7
  6
CONTINUOUS
 10
367.6074727445
 20
31.4424065674
 11
367.7230979651
 21
31.377879193
 12
367.2605977445
 22
31.377879193
 13
367.2605977445
 23
31.377879193
  0
SOLID
  8
0
 62
7
  6
CONTINUOUS
 10
367.3762229651
 20
31.345614957
 11
367.2605977445
 21
31.377879193
 12
367.7230979651
 22
31.377879193
 13
367.7230979651
 23
31.377879193
  0
SOLID
  8
0
 62
7
  6
CONTINUOUS
 10
367.3762229651
 20
31.345614957
 11
367.7230979651
 21
31.377879193
 12
367.491847524
 22
31.2810881312
 13
367.491847524
 23
31.2810881312
  0
SOLID
  8
0
 62
7
  6
CONTINUOUS
 10
367.7230979651
 20
31.377879193
 11
367.7809102445
 21
31.2810881312
 12
367.491847524
 22
31.2810881312
 13
367.491847524
 23
31.2810881312
  0
SOLID
  8
0
 62
7
  6
CONTINUOUS
 10
367.5496604651
 20
31.119769695
 11
367.491847524
 21
31.2810881312
 12
367.7809102445
 22
31.2810881312
 13
367.7809102445
 23
31.2810881312
  0
SOLID
  8
0
 62
7
  6
CONTINUOUS
 10
367.7809102445
 20
31.2810881312
 11
367.838722524
 21
31.119769695
 12
367.5496604651
 22
31.119769695
 13
367.5496604651
 23
31.119769695
  0
SOLID
  8
0
 62
7
  6
CONTINUOUS
 10
366.798097524
 20
31.377879193
 11
366.624660024
 21
31.3133521701
 12
366.5090354651
 22
31.377879193
 13
366.5090354651
 23
31.377879193
  0
SOLID
  8
0
 62
7
  6
CONTINUOUS
 10
366.624660024
 20
31.3133521701
 11
366.5090354651
 21
31.2488235635
 12
366.5090354651
 22
31.377879193
 13
366.5090354651
 23
31.377879193
  0
SOLID
  8
0
 62
7
  6
CONTINUOUS
 10
366.5090354651
 20
31.2488235635
 11
366.2199727445
 21
30.5067596374
 12
366.5090354651
 22
31.377879193
 13
366.5090354651
 23
31.377879193
  0
SOLID
  8
0
 62
7
  6
CONTINUOUS
 10
366.5090354651
 20
31.377879193
 11
366.2199727445
 21
30.5067596374
 12
366.5090354651
 22
31.5391976292
 13
366.5090354651
 23
31.5391976292
  0
SOLID
  8
0
 62
7
  6
CONTINUOUS
 10
366.2199727445
 20
30.5067596374
 11
366.2199727445
 21
31.5391976292
 12
366.5090354651
 22
31.5391976292
 13
366.5090354651
 23
31.5391976292
  0
SOLID
  8
0
 62
7
  6
CONTINUOUS
 10
366.5090354651
 20
31.2488235635
 11
366.5090354651
 21
30.5067596374
 12
366.2199727445
 22
30.5067596374
 13
366.2199727445
 23
30.5067596374
  0
SOLID
  8
0
 62
7
  6
CONTINUOUS
 10
367.5496604651
 20
30.5067596374
 11
367.5496604651
 21
31.119769695
 12
367.838722524
 22
31.119769695
 13
367.838722524
 23
31.119769695
  0
SOLID
  8
0
 62
7
  6
CONTINUOUS
 10
367.838722524
 20
31.119769695
 11
367.838722524
 21
30.5067596374
 12
367.5496604651
 22
30.5067596374
 13
367.5496604651
 23
30.5067596374
  0
SOLID
  8
0
 62
7
  6
CONTINUOUS
 10
368.6480977445
 20
31.5069334157
 11
368.9949727445
 21
31.539197762
 12
369.3418477445
 22
31.539197762
 13
369.3418477445
 23
31.539197762
  0
SOLID
  8
0
 62
7
  6
CONTINUOUS
 10
369.3418477445
 20
31.539197762
 11
369.6887227445
 21
31.5069334157
 12
368.6480977445
 22
31.5069334157
 13
368.6480977445
 23
31.5069334157
  0
SOLID
  8
0
 62
7
  6
CONTINUOUS
 10
368.4168479651
 20
31.4424063504
 11
368.6480977445
 21
31.5069334157
 12
369.6887227445
 22
31.5069334157
 13
369.6887227445
 23
31.5069334157
  0
SOLID
  8
0
 62
7
  6
CONTINUOUS
 10
368.4168479651
 20
31.4424063504
 11
369.6887227445
 21
31.5069334406
 12
369.8621602445
 22
31.4746706537
 13
369.8621602445
 23
31.4746706537
  0
SOLID
  8
0
 62
7
  6
CONTINUOUS
 10
368.4168479651
 20
31.4424063504
 11
369.8621602445
 21
31.4746706537
 12
368.9949727445
 22
31.4101421267
 13
368.9949727445
 23
31.4101421267
  0
SOLID
  8
0
 62
7
  6
CONTINUOUS
 10
368.9949727445
 20
31.4101421267
 11
369.8621602445
 21
31.4746706537
 12
369.3418477445
 22
31.4101421267
 13
369.3418477445
 23
31.4101421267
  0
SOLID
  8
0
 62
7
  6
CONTINUOUS
 10
369.8621602445
 20
31.4746706537
 11
370.0355977445
 21
31.4101421267
 12
369.3418477445
 22
31.4101421267
 13
369.3418477445
 23
31.4101421267
  0
SOLID
  8
0
 62
7
  6
CONTINUOUS
 10
369.6887227445
 20
31.3778792603
 11
369.3418477445
 21
31.4101421267
 12
370.0355977445
 22
31.4101421267
 13
370.0355977445
 23
31.4101421267
  0
SOLID
  8
0
 62
7
  6
CONTINUOUS
 10
368.3012227445
 20
31.3456148845
 11
368.4168479651
 21
31.4424063504
 12
368.9949727445
 22
31.4101421267
 13
368.9949727445
 23
31.4101421267
  0
SOLID
  8
0
 62
7
  6
CONTINUOUS
 10
369.6887227445
 20
31.3778792603
 11
370.0355977445
 21
31.4101421267
 12
369.8043479651
 22
31.3456148845
 13
369.8043479651
 23
31.3456148845
  0
SOLID
  8
0
 62
7
  6
CONTINUOUS
 10
369.8043479651
 20
31.3456148845
 11
370.0355977445
 21
31.4101421267
 12
369.8621602445
 22
31.281087868
 13
369.8621602445
 23
31.281087868
  0
SOLID
  8
0
 62
7
  6
CONTINUOUS
 10
370.0355977445
 20
31.4101421267
 11
370.1512223035
 21
31.281087868
 12
369.8621602445
 22
31.281087868
 13
369.8621602445
 23
31.281087868
  0
SOLID
  8
0
 62
7
  6
CONTINUOUS
 10
359.4559102445
 20
31.3778792603
 11
358.9355977445
 21
31.3456148963
 12
359.6871602721
 22
31.4101421155
 13
359.6871602721
 23
31.4101421155
  0
SOLID
  8
0
 62
7
  6
CONTINUOUS
 10
358.9355977445
 20
31.3456148963
 11
359.0512227376
 21
31.4101421155
 12
359.6871602721
 22
31.4101421155
 13
359.6871602721
 23
31.4101421155
  0
SOLID
  8
0
 62
7
  6
CONTINUOUS
 10
359.4559102445
 20
31.3778792603
 11
359.3402852307
 21
31.3456148963
 12
358.9355977445
 22
31.3456148963
 13
358.9355977445
 23
31.3456148963
  0
SOLID
  8
0
 62
7
  6
CONTINUOUS
 10
358.8199727462
 20
31.2165607767
 11
358.9355977445
 21
31.3456148963
 12
359.3402852307
 22
31.3456148963
 13
359.3402852307
 23
31.3456148963
  0
SOLID
  8
0
 62
7
  6
CONTINUOUS
 10
363.1559103548
 20
31.3456149608
 11
363.8496603548
 21
31.4101420472
 12
363.6184102445
 22
31.3778792603
 13
363.6184102445
 23
31.3778792603
  0
SOLID
  8
0
 62
7
  6
CONTINUOUS
 10
363.6184102445
 20
31.3778792603
 11
363.5027853548
 21
31.3456149608
 12
363.1559103548
 22
31.3456149608
 13
363.1559103548
 23
31.3456149608
  0
SOLID
  8
0
 62
7
  6
CONTINUOUS
 10
363.1559103548
 20
31.2810878707
 11
363.1559103548
 21
31.3456149608
 12
363.5027853548
 22
31.3456149608
 13
363.5027853548
 23
31.3456149608
  0
SOLID
  8
0
 62
7
  6
CONTINUOUS
 10
363.5027853548
 20
31.3456149608
 11
363.4449727445
 21
31.2810878707
 12
363.1559103548
 22
31.2810878707
 13
363.1559103548
 23
31.2810878707
  0
SOLID
  8
0
 62
7
  6
CONTINUOUS
 10
368.3012227445
 20
31.3456149608
 11
368.9949727445
 21
31.4101420472
 12
368.7637229651
 22
31.3778792603
 13
368.7637229651
 23
31.3778792603
  0
SOLID
  8
0
 62
7
  6
CONTINUOUS
 10
368.7637229651
 20
31.3778792603
 11
368.6480977445
 21
31.3456149608
 12
368.3012227445
 22
31.3456149608
 13
368.3012227445
 23
31.3456149608
  0
SOLID
  8
0
 62
7
  6
CONTINUOUS
 10
368.3012227445
 20
31.2810878707
 11
368.3012227445
 21
31.3456149608
 12
368.6480977445
 22
31.3456149608
 13
368.6480977445
 23
31.3456149608
  0
SOLID
  8
0
 62
7
  6
CONTINUOUS
 10
368.6480977445
 20
31.3456149608
 11
368.5902854651
 21
31.2810878707
 12
368.3012227445
 22
31.2810878707
 13
368.3012227445
 23
31.2810878707
  0
SOLID
  8
0
 62
7
  6
CONTINUOUS
 10
368.4168479651
 20
31.1520336865
 11
368.3012227445
 21
31.2810878707
 12
368.5902854651
 22
31.2810878707
 13
368.5902854651
 23
31.2810878707
  0
SOLID
  8
0
 62
7
  6
CONTINUOUS
 10
358.8199727462
 20
31.2165607767
 11
359.3402852307
 21
31.345614957
 12
359.1668477307
 22
31.2488235635
 13
359.1668477307
 23
31.2488235635
  0
SOLID
  8
0
 62
7
  6
CONTINUOUS
 10
359.1668477307
 20
31.2488235635
 11
359.1090352445
 21
31.1842964734
 12
358.8199727462
 22
31.2165607767
 13
358.8199727462
 23
31.2165607767
  0
SOLID
  8
0
 62
7
  6
CONTINUOUS
 10
358.7621602445
 20
31.0229779898
 11
358.8199727462
 21
31.2165607767
 12
359.1090352445
 22
31.1842964734
 13
359.1090352445
 23
31.1842964734
  0
SOLID
  8
0
 62
7
  6
CONTINUOUS
 10
363.6184102445
 20
31.1520336865
 11
363.9652852445
 21
31.1842964611
 12
364.6012229651
 22
31.1842964611
 13
364.6012229651
 23
31.1842964611
  0
SOLID
  8
0
 62
7
  6
CONTINUOUS
 10
363.6184102445
 20
31.1520336865
 11
364.6012229651
 21
31.1842964611
 12
363.3871601343
 22
31.0875057863
 13
363.3871601343
 23
31.0875057863
  0
SOLID
  8
0
 62
7
  6
CONTINUOUS
 10
363.3871601343
 20
31.0875057863
 11
364.6012229651
 21
31.1842964611
 12
363.9652852445
 22
31.0552422808
 13
363.9652852445
 23
31.0552422808
  0
SOLID
  8
0
 62
7
  6
CONTINUOUS
 10
364.6012229651
 20
31.1842964611
 11
364.6012229651
 21
31.0552422808
 12
363.9652852445
 22
31.0552422808
 13
363.9652852445
 23
31.0552422808
  0
SOLID
  8
0
 62
7
  6
CONTINUOUS
 10
368.4168479651
 20
31.1520338754
 11
368.5902854651
 21
31.2810878668
 12
368.6480977445
 22
31.2165607767
 13
368.6480977445
 23
31.2165607767
  0
SOLID
  8
0
 62
7
  6
CONTINUOUS
 10
368.6480977445
 20
31.2165607767
 11
368.8215352445
 21
31.1520338754
 12
368.4168479651
 22
31.1520338754
 13
368.4168479651
 23
31.1520338754
  0
SOLID
  8
0
 62
7
  6
CONTINUOUS
 10
368.6480977445
 20
31.0552422931
 11
368.4168479651
 21
31.1520338754
 12
368.8215352445
 22
31.1520338754
 13
368.8215352445
 23
31.1520338754
  0
SOLID
  8
0
 62
7
  6
CONTINUOUS
 10
368.8215352445
 20
31.1520338754
 11
369.8043479651
 21
30.9907152029
 12
368.6480977445
 22
31.0552422931
 13
368.6480977445
 23
31.0552422931
  0
SOLID
  8
0
 62
7
  6
CONTINUOUS
 10
369.6309104651
 20
30.8939239876
 11
368.6480977445
 21
31.0552422931
 12
369.8043479651
 22
30.9907152029
 13
369.8043479651
 23
30.9907152029
  0
SOLID
  8
0
 62
7
  6
CONTINUOUS
 10
369.8043479651
 20
30.9907152029
 11
370.0355977445
 21
30.8939239876
 12
369.6309104651
 22
30.8939239876
 13
369.6309104651
 23
30.8939239876
  0
SOLID
  8
0
 62
7
  6
CONTINUOUS
 10
369.8043479651
 20
30.8293967193
 11
369.6309104651
 21
30.8939239876
 12
370.0355977445
 22
30.8939239876
 13
370.0355977445
 23
30.8939239876
  0
SOLID
  8
0
 62
7
  6
CONTINUOUS
 10
369.8043479651
 20
30.8293967193
 11
370.0355977445
 21
30.8939239876
 12
369.8621602445
 22
30.7648682694
 13
369.8621602445
 23
30.7648682694
  0
SOLID
  8
0
 62
7
  6
CONTINUOUS
 10
370.0355977445
 20
30.8939239876
 11
370.1512223035
 21
30.7648682694
 12
369.8621602445
 22
30.7648682694
 13
369.8621602445
 23
30.7648682694
  0
SOLID
  8
0
 62
7
  6
CONTINUOUS
 10
369.8043479651
 20
30.7003411846
 11
369.8621602445
 21
30.7648682694
 12
370.1512223035
 22
30.7648682694
 13
370.1512223035
 23
30.7648682694
  0
SOLID
  8
0
 62
7
  6
CONTINUOUS
 10
370.1512223035
 20
30.7648682694
 11
370.1512223035
 21
30.7003411846
 12
369.8043479651
 22
30.7003411846
 13
369.8043479651
 23
30.7003411846
  0
SOLID
  8
0
 62
7
  6
CONTINUOUS
 10
369.6887227445
 20
30.6680782357
 11
369.8043479651
 21
30.7003411846
 12
370.1512223035
 22
30.7003411846
 13
370.1512223035
 23
30.7003411846
  0
SOLID
  8
0
 62
7
  6
CONTINUOUS
 10
369.6887227445
 20
30.6680782357
 11
370.1512223035
 21
30.7003411846
 12
369.4574729651
 22
30.6358140998
 13
369.4574729651
 23
30.6358140998
  0
SOLID
  8
0
 62
7
  6
CONTINUOUS
 10
370.1512223035
 20
30.7003411846
 11
370.0355977445
 21
30.6035511455
 12
369.4574729651
 22
30.6358140998
 13
369.4574729651
 23
30.6358140998
  0
SOLID
  8
0
 62
7
  6
CONTINUOUS
 10
370.0355977445
 20
30.6035511455
 11
368.5902854651
 21
30.5712868422
 12
369.4574729651
 22
30.6358140998
 13
369.4574729651
 23
30.6358140998
  0
SOLID
  8
0
 62
7
  6
CONTINUOUS
 10
369.4574729651
 20
30.6358140998
 11
368.5902854651
 21
30.5712868422
 12
369.1105979651
 22
30.6358140998
 13
369.1105979651
 23
30.6358140998
  0
SOLID
  8
0
 62
7
  6
CONTINUOUS
 10
368.5902854651
 20
30.5712868422
 11
368.4168479651
 21
30.6358140998
 12
369.1105979651
 22
30.6358140998
 13
369.1105979651
 23
30.6358140998
  0
SOLID
  8
0
 62
7
  6
CONTINUOUS
 10
368.5902854651
 20
30.5712868422
 11
370.0355977445
 21
30.6035511455
 12
368.7637229651
 22
30.5390223111
 13
368.7637229651
 23
30.5390223111
  0
SOLID
  8
0
 62
7
  6
CONTINUOUS
 10
370.0355977445
 20
30.6035511455
 11
369.8043479651
 21
30.5390223111
 12
368.7637229651
 22
30.5390223111
 13
368.7637229651
 23
30.5390223111
  0
SOLID
  8
0
 62
7
  6
CONTINUOUS
 10
369.1105979651
 20
30.5067599302
 11
368.7637229651
 21
30.5390223111
 12
369.8043479651
 22
30.5390223111
 13
369.8043479651
 23
30.5390223111
  0
SOLID
  8
0
 62
7
  6
CONTINUOUS
 10
369.8043479651
 20
30.5390223111
 11
369.4574729651
 21
30.5067599302
 12
369.1105979651
 22
30.5067599302
 13
369.1105979651
 23
30.5067599302
  0
SOLID
  8
0
 62
7
  6
CONTINUOUS
 10
358.7621602445
 20
31.0229779898
 11
359.1090352445
 21
31.1842964734
 12
359.0512227376
 22
31.0552422931
 13
359.0512227376
 23
31.0552422931
  0
SOLID
  8
0
 62
7
  6
CONTINUOUS
 10
359.0512227376
 20
31.0552422931
 11
359.0512227376
 21
30.9584509954
 12
358.7621602445
 22
31.0229779898
 13
358.7621602445
 23
31.0229779898
  0
SOLID
  8
0
 62
7
  6
CONTINUOUS
 10
358.8199727462
 20
30.8293967193
 11
358.7621602445
 21
31.0229779898
 12
359.0512227376
 22
30.9584509954
 13
359.0512227376
 23
30.9584509954
  0
SOLID
  8
0
 62
7
  6
CONTINUOUS
 10
359.0512227376
 20
30.9584509954
 11
359.1668477307
 21
30.797132416
 12
358.8199727462
 22
30.8293967193
 13
358.8199727462
 23
30.8293967193
  0
SOLID
  8
0
 62
7
  6
CONTINUOUS
 10
358.9355977445
 20
30.7003413087
 11
358.8199727462
 21
30.8293967193
 12
359.1668477307
 22
30.797132416
 13
359.1668477307
 23
30.797132416
  0
SOLID
  8
0
 62
7
  6
CONTINUOUS
 10
359.1668477307
 20
30.797132416
 11
359.3402852307
 21
30.7003413087
 12
358.9355977445
 22
30.7003413087
 13
358.9355977445
 23
30.7003413087
  0
SOLID
  8
0
 62
7
  6
CONTINUOUS
 10
359.0512227376
 20
30.6358140759
 11
358.9355977445
 21
30.7003413087
 12
359.3402852307
 22
30.7003413087
 13
359.3402852307
 23
30.7003413087
  0
SOLID
  8
0
 62
7
  6
CONTINUOUS
 10
359.3402852307
 20
30.7003413087
 11
359.6871602721
 21
30.6358140759
 12
359.0512227376
 22
30.6358140759
 13
359.0512227376
 23
30.6358140759
  0
SOLID
  8
0
 62
7
  6
CONTINUOUS
 10
359.2246602583
 20
30.5712868422
 11
359.0512227376
 21
30.6358140759
 12
359.6871602721
 22
30.6358140759
 13
359.6871602721
 23
30.6358140759
  0
SOLID
  8
0
 62
7
  6
CONTINUOUS
 10
363.2715352445
 20
31.0229779808
 11
363.3871601343
 21
31.0875057863
 12
363.9652852445
 22
31.0552422931
 13
363.9652852445
 23
31.0552422931
  0
SOLID
  8
0
 62
7
  6
CONTINUOUS
 10
363.9652852445
 20
31.0552422931
 11
363.7340351343
 21
31.0229779808
 12
363.2715352445
 22
31.0229779808
 13
363.2715352445
 23
31.0229779808
  0
SOLID
  8
0
 62
7
  6
CONTINUOUS
 10
363.1559103548
 20
30.8939238094
 11
363.2715352445
 21
31.0229779808
 12
363.7340351343
 22
31.0229779808
 13
363.7340351343
 23
31.0229779808
  0
SOLID
  8
0
 62
7
  6
CONTINUOUS
 10
363.5027853548
 20
30.926187309
 11
363.1559103548
 21
30.8939238094
 12
363.6184102445
 22
30.9907152029
 13
363.6184102445
 23
30.9907152029
  0
SOLID
  8
0
 62
7
  6
CONTINUOUS
 10
363.1559103548
 20
30.8939238094
 11
363.7340351343
 21
31.0229779898
 12
363.6184102445
 22
30.9907152029
 13
363.6184102445
 23
30.9907152029
  0
SOLID
  8
0
 62
7
  6
CONTINUOUS
 10
363.5027853548
 20
30.926187309
 11
363.4449727445
 21
30.8293967193
 12
363.1559103548
 22
30.8939238094
 13
363.1559103548
 23
30.8939238094
  0
SOLID
  8
0
 62
7
  6
CONTINUOUS
 10
363.1559103548
 20
30.797132416
 11
363.1559103548
 21
30.8939238094
 12
363.4449727445
 22
30.8293967193
 13
363.4449727445
 23
30.8293967193
  0
SOLID
  8
0
 62
7
  6
CONTINUOUS
 10
363.4449727445
 20
30.8293967193
 11
363.4449727445
 21
30.7648681127
 12
363.1559103548
 22
30.797132416
 13
363.1559103548
 23
30.797132416
  0
SOLID
  8
0
 62
7
  6
CONTINUOUS
 10
363.2137226343
 20
30.6680782357
 11
363.1559103548
 21
30.797132416
 12
363.4449727445
 22
30.7648681127
 13
363.4449727445
 23
30.7648681127
  0
SOLID
  8
0
 62
7
  6
CONTINUOUS
 10
364.6012229651
 20
30.8616599362
 11
364.890285024
 21
30.7648681127
 12
364.543410024
 22
30.797132416
 13
364.543410024
 23
30.797132416
  0
SOLID
  8
0
 62
7
  6
CONTINUOUS
 10
364.369972524
 20
30.7003410226
 11
364.543410024
 21
30.797132416
 12
364.890285024
 22
30.7648681127
 13
364.890285024
 23
30.7648681127
  0
SOLID
  8
0
 62
7
  6
CONTINUOUS
 10
364.369972524
 20
30.7003410226
 11
364.890285024
 21
30.7648681127
 12
364.6012229651
 22
30.6680782357
 13
364.6012229651
 23
30.6680782357
  0
SOLID
  8
0
 62
7
  6
CONTINUOUS
 10
364.890285024
 20
30.7648681127
 11
364.9480979651
 21
30.6035511455
 12
364.6012229651
 22
30.6680782357
 13
364.6012229651
 23
30.6680782357
  0
SOLID
  8
0
 62
7
  6
CONTINUOUS
 10
364.6590352445
 20
30.5712868422
 11
364.6012229651
 21
30.6680782357
 12
364.9480979651
 22
30.6035511455
 13
364.9480979651
 23
30.6035511455
  0
SOLID
  8
0
 62
7
  6
CONTINUOUS
 10
364.6590352445
 20
30.5712868422
 11
364.9480979651
 21
30.6035511455
 12
364.716847524
 22
30.5067598731
 13
364.716847524
 23
30.5067598731
  0
SOLID
  8
0
 62
7
  6
CONTINUOUS
 10
364.9480979651
 20
30.6035511455
 11
365.0059102445
 21
30.5067598731
 12
364.716847524
 22
30.5067598731
 13
364.716847524
 23
30.5067598731
  0
SOLID
  8
0
 62
7
  6
CONTINUOUS
 10
360.2652852997
 20
30.7326051679
 11
360.3230977445
 21
30.8293966612
 12
360.6121602997
 22
30.8293966612
 13
360.6121602997
 23
30.8293966612
  0
SOLID
  8
0
 62
7
  6
CONTINUOUS
 10
360.6121602997
 20
30.8293966612
 11
360.5543476894
 21
30.7003410226
 12
360.2652852997
 22
30.7326051679
 13
360.2652852997
 23
30.7326051679
  0
SOLID
  8
0
 62
7
  6
CONTINUOUS
 10
360.091847717
 20
30.6680782357
 11
360.2652852997
 21
30.7326051679
 12
360.5543476894
 22
30.7003410226
 13
360.5543476894
 23
30.7003410226
  0
SOLID
  8
0
 62
7
  6
CONTINUOUS
 10
360.091847717
 20
30.6680782357
 11
360.5543476894
 21
30.7003410226
 12
359.6871602721
 22
30.6358139324
 13
359.6871602721
 23
30.6358139324
  0
SOLID
  8
0
 62
7
  6
CONTINUOUS
 10
360.5543476894
 20
30.7003410226
 11
360.3809101894
 21
30.6035511455
 12
359.6871602721
 22
30.6358139324
 13
359.6871602721
 23
30.6358139324
  0
SOLID
  8
0
 62
7
  6
CONTINUOUS
 10
359.2246602583
 20
30.5712868422
 11
359.6871602721
 21
30.6358139324
 12
360.3809101894
 22
30.6035511455
 13
360.3809101894
 23
30.6035511455
  0
SOLID
  8
0
 62
7
  6
CONTINUOUS
 10
359.2246602583
 20
30.5712868422
 11
360.3809101894
 21
30.6035511455
 12
359.3980977583
 22
30.5390224228
 13
359.3980977583
 23
30.5390224228
  0
SOLID
  8
0
 62
7
  6
CONTINUOUS
 10
360.3809101894
 20
30.6035511455
 11
360.1496602445
 21
30.5390224228
 12
359.3980977583
 22
30.5390224228
 13
359.3980977583
 23
30.5390224228
  0
SOLID
  8
0
 62
7
  6
CONTINUOUS
 10
359.744972717
 20
30.5067597521
 11
359.3980977583
 21
30.5390224228
 12
360.1496602445
 22
30.5390224228
 13
360.1496602445
 23
30.5390224228
  0
SOLID
  8
0
 62
7
  6
CONTINUOUS
 10
363.2137226343
 20
30.6680782357
 11
363.4449727445
 21
30.7648681127
 12
363.5027853548
 22
30.7003410226
 13
363.5027853548
 23
30.7003410226
  0
SOLID
  8
0
 62
7
  6
CONTINUOUS
 10
363.5027853548
 20
30.7003410226
 11
363.7340351343
 21
30.6358139324
 12
363.2137226343
 22
30.6680782357
 13
363.2137226343
 23
30.6680782357
  0
SOLID
  8
0
 62
7
  6
CONTINUOUS
 10
363.3871601343
 20
30.5712868422
 11
363.2137226343
 21
30.6680782357
 12
363.7340351343
 22
30.6358139324
 13
363.7340351343
 23
30.6358139324
  0
SOLID
  8
0
 62
7
  6
CONTINUOUS
 10
364.0809101343
 20
30.6358139363
 11
364.369972524
 21
30.7003410226
 12
364.6012229651
 22
30.6680782357
 13
364.6012229651
 23
30.6680782357
  0
SOLID
  8
0
 62
7
  6
CONTINUOUS
 10
364.6012229651
 20
30.6680782357
 11
364.543410024
 21
30.6035511455
 12
364.0809101343
 22
30.6358139363
 13
364.0809101343
 23
30.6358139363
  0
SOLID
  8
0
 62
7
  6
CONTINUOUS
 10
364.543410024
 20
30.6035511455
 11
363.3871601343
 21
30.5712868422
 12
364.0809101343
 22
30.6358139363
 13
364.0809101343
 23
30.6358139363
  0
SOLID
  8
0
 62
7
  6
CONTINUOUS
 10
363.3871601343
 20
30.5712868422
 11
363.7340351343
 21
30.6358139363
 12
364.0809101343
 22
30.6358139363
 13
364.0809101343
 23
30.6358139363
  0
SOLID
  8
0
 62
7
  6
CONTINUOUS
 10
363.3871601343
 20
30.5712868422
 11
364.543410024
 21
30.6035511455
 12
363.5027853548
 22
30.5390225267
 13
363.5027853548
 23
30.5390225267
  0
SOLID
  8
0
 62
7
  6
CONTINUOUS
 10
364.543410024
 20
30.6035511455
 11
364.369972524
 21
30.5390225267
 12
363.5027853548
 22
30.5390225267
 13
363.5027853548
 23
30.5390225267
  0
SOLID
  8
0
 62
7
  6
CONTINUOUS
 10
363.7340351343
 20
30.5067596914
 11
363.5027853548
 21
30.5390225267
 12
364.369972524
 22
30.5390225267
 13
364.369972524
 23
30.5390225267
  0
SOLID
  8
0
 62
7
  6
CONTINUOUS
 10
364.369972524
 20
30.5390225267
 11
364.0809101343
 21
30.5067596914
 12
363.7340351343
 22
30.5067596914
 13
363.7340351343
 23
30.5067596914
  0
SOLID
  8
0
 62
7
  6
CONTINUOUS
 10
368.7637229651
 20
30.6680782357
 11
368.4168479651
 21
30.6358138717
 12
368.6480977445
 22
30.7003410226
 13
368.6480977445
 23
30.7003410226
  0
SOLID
  8
0
 62
7
  6
CONTINUOUS
 10
368.6480977445
 20
30.7003410226
 11
368.4168479651
 21
30.6358138717
 12
368.5902854651
 22
30.7648680521
 13
368.5902854651
 23
30.7648680521
  0
SOLID
  8
0
 62
7
  6
CONTINUOUS
 10
368.4168479651
 20
30.6358138717
 11
368.3012227445
 21
30.7648680521
 12
368.5902854651
 22
30.7648680521
 13
368.5902854651
 23
30.7648680521
  0
SOLID
  8
0
 62
7
  6
CONTINUOUS
 10
368.7637229651
 20
30.6680782357
 11
369.1105979651
 21
30.6358138717
 12
368.4168479651
 22
30.6358138717
 13
368.4168479651
 23
30.6358138717
  0
SOLID
  8
0
 62
7
  6
CONTINUOUS
 10
365.4684104651
 20
30.5067597521
 11
365.4684104651
 21
31.5391977439
 12
365.757472524
 22
30.5067597521
 13
365.757472524
 23
31.5391977439
  0
ENDBLK
  8
0
  6
BYBLOCK
 62
0
  0
BLOCK
  8
0
 62
2
  6
CONTINUOUS
  2
SYMBOL_0_BL0
 70
64
 10
240.8592468615
 20
19.762288695
  0
TEXT
  8
0
 62
7
  6
CONTINUOUS
 10
227.1239507038
 20
19.1357028027
  7
TEXTSTYLE_3
 40
2.7338706658
  1
Ammeraal Beltech
 41
1.0
 51
15.0
 72
0
  0
TEXT
  8
0
 62
7
  6
CONTINUOUS
 10
237.9247515296
 20
16.8621661299
  7
TEXTSTYLE_4
 40
1.0935482663
  1
Innovation & Service in Belting
 41
1.0
 72
0
  0
LINE
  8
0
 62
7
  6
CONTINUOUS
 10
221.0994100525
 20
19.9022961113
 11
221.8775620458
 21
23.5632134089
  0
LINE
  8
0
 62
7
  6
CONTINUOUS
 10
231.9727303357
 20
27.2266073205
 11
222.3653797889
 21
24.1049898993
  0
LINE
  8
0
 62
7
  6
CONTINUOUS
 10
221.3246933848
 20
19.2089453082
 11
228.8317686459
 21
12.4495443822
  0
LINE
  8
0
 62
7
  6
CONTINUOUS
 10
221.5872277955
 20
20.4440726016
 11
232.3954971607
 21
23.9558922005
  0
LINE
  8
0
 62
7
  6
CONTINUOUS
 10
232.3912920235
 20
13.6061036368
 11
223.9458323548
 21
21.2104296785
  0
LINE
  8
0
 62
7
  6
CONTINUOUS
 10
232.9111147433
 20
26.3816822048
 11
231.9345552061
 21
21.7873308023
  0
LINE
  8
0
 62
7
  6
CONTINUOUS
 10
231.2347532584
 20
18.4950214885
 11
230.5483050469
 21
15.2655365641
  0
LINE
  8
0
 62
7
  6
CONTINUOUS
 10
233.5922108419
 20
13.9963058145
 11
234.5484423775
 21
18.4950214885
  0
LINE
  8
0
 62
7
  6
CONTINUOUS
 10
235.2482443252
 20
21.7873308023
 11
235.6924861276
 21
23.8773241617
  0
LINE
  8
0
 62
7
  6
CONTINUOUS
 10
229.5448697213
 20
12.2979700695
 11
233.1043930989
 21
13.4545293241
  0
LINE
  8
0
 62
7
  6
CONTINUOUS
 10
232.685831411
 20
27.0750330078
 11
235.4672027953
 21
24.5706749648
  0
ARC
  8
0
 62
7
  6
CONTINUOUS
 10
222.5906631212
 20
23.4116390962
 40
0.7290321776
 50
108.0
 51
168.0
  0
ARC
  8
0
 62
7
  6
CONTINUOUS
 10
232.198013668
 20
26.5332565175
 40
0.7290321776
 50
348.0
 51
108.0
  0
ARC
  8
0
 62
7
  6
CONTINUOUS
 10
234.9793850522
 20
24.0288984744
 40
0.7290321776
 50
348.0
 51
48.0
  0
ARC
  8
0
 62
7
  6
CONTINUOUS
 10
229.319586389
 20
12.9913208726
 40
0.7290321776
 50
228.0
 51
288.0
  0
ARC
  8
0
 62
7
  6
CONTINUOUS
 10
221.8125111278
 20
19.7507217986
 40
0.7290321776
 50
108.0
 51
228.0
  0
ARC
  8
0
 62
7
  6
CONTINUOUS
 10
232.8791097665
 20
14.1478801272
 40
0.7290321776
 50
228.0
 51
348.0
  0
ENDBLK
  8
0
  6
BYBLOCK
 62
0
  0
ENDSEC
  0
SECTION
  2
ENTITIES
  0
TEXT
  8
0
 62
5
  6
CONTINUOUS
 10
304.937007874
 20
25.636
  7
TEXTSTYLE_2
 40
2.8
  1
Scale :
 41
0.6
 51
0.000019
 72
0
  0
TEXT
  8
0
 62
5
  6
CONTINUOUS
 10
324.937007874
 20
25.636
  7
TEXTSTYLE_2
 40
2.8
  1
Belt type:
 41
0.6
 51
0.000019
 72
0
  0
INSERT
  8
0
 62
2
  6
CONTINUOUS
  2
SYMBOL_0_BL0
 10
240.8592468615
 20
19.762288695
  0
INSERT
  8
0
 62
2
  6
CONTINUOUS
  2
SYMBOL_5_BL1
 10
382.7840918555
 20
35.5067593403
  0
LINE
  8
0
 62
2
  6
CONTINUOUS
 10
218.937007874
 20
30.0
 11
408.937007874
 21
30.0
  0
LINE
  8
0
 62
2
  6
CONTINUOUS
 10
218.937007874
 20
30.0
 11
218.937007874
 21
10.0
  0
LINE
  8
0
 62
2
  6
CONTINUOUS
 10
218.937007874
 20
10.0
 11
408.937007874
 21
10.0
  0
LINE
  8
0
 62
2
  6
CONTINUOUS
 10
303.937007874
 20
30.0
 11
303.937007874
 21
10.0
  0
LINE
  8
0
 62
2
  6
CONTINUOUS
 10
323.937007874
 20
30.0
 11
323.937007874
 21
10.0
  0
LINE
  8
0
 62
2
  6
CONTINUOUS
 10
408.937007874
 20
30.0
 11
408.937007874
 21
10.0
  0
TEXT
  8
0
 62
5
  6
CONTINUOUS
 10
221.937007874
 20
23.303
  7
TEXTSTYLE_5
 40
1.52
  1
                                                                     Ammeraal Beltech Modular A/S
 41
1.0
 72
0
  0
TEXT
  8
0
 62
5
  6
CONTINUOUS
 10
221.937007874
 20
20.595
  7
TEXTSTYLE_5
 40
1.5
  1
                                                                      Hjulmagervej 21, 7100 Vejle,  DK
 41
1.0
 72
0
  0
TEXT
  8
0
 62
5
  6
CONTINUOUS
 10
221.937007874
 20
17.881
  7
TEXTSTYLE_5
 40
1.495
  1
                                                                      tel: 
 41
1.0
 72
0
  0
TEXT
  8
0
 62
5
  6
CONTINUOUS
 10
266.9239544389
 20
17.881
  7
TEXTSTYLE_5
 40
1.51
  1
+45 75723100     fax: +45 75723348
 41
1.0
 72
0
  0
TEXT
  8
0
 62
5
  6
CONTINUOUS
 10
221.937007874
 20
15.177
  7
TEXTSTYLE_5
 40
1.5
  1
                                                                      admin@unichains.dk  www.unichains.com
 41
1.0
 72
0
  0
TEXT
  8
0
 62
5
  6
CONTINUOUS
 10
308.687007874
 20
13.75
  7
TEXTSTYLE_6
 40
5.0
  1
1:2
 41
0.7
 72
1
 11
313.937007874
 21
13.75
  0
TEXT
  8
0
 62
5
  6
CONTINUOUS
 10
326.937007874
 20
13.75
  7
TEXTSTYLE_7
 40
7.5
  1
uni Flex ONE O K1200
 41
0.5025
 72
0
  0
LINE
  8
0
 62
7
  6
CONTINUOUS
 10
0.0
 20
0.0
 11
0.0
 21
297.0
  0
LINE
  8
0
 62
7
  6
CONTINUOUS
 10
8.937007874
 20
10.0
 11
8.937007874
 21
287.0
  0
LINE
  8
0
 62
7
  6
CONTINUOUS
 10
0.0
 20
0.0
 11
420.0
 21
0.0
  0
LINE
  8
0
 62
7
  6
CONTINUOUS
 10
408.937007874
 20
10.0
 11
8.937007874
 21
10.0
  0
LINE
  8
0
 62
7
  6
CONTINUOUS
 10
218.937007874
 20
30.0
 11
408.937007874
 21
30.0
  0
LINE
  8
0
 62
7
  6
CONTINUOUS
 10
210.0
 20
297.0
 11
210.0
 21
292.0
  0
LINE
  8
0
 62
7
  6
CONTINUOUS
 10
210.0
 20
0.0
 11
210.0
 21
5.0
  0
LINE
  8
0
 62
7
  6
CONTINUOUS
 10
8.937007874
 20
287.0
 11
408.937007874
 21
287.0
  0
LINE
  8
0
 62
7
  6
CONTINUOUS
 10
0.0
 20
297.0
 11
420.0
 21
297.0
  0
LINE
  8
0
 62
7
  6
CONTINUOUS
 10
408.937007874
 20
287.0
 11
408.937007874
 21
10.0
  0
LINE
  8
0
 62
7
  6
CONTINUOUS
 10
420.0
 20
0.0
 11
420.0
 21
297.0
  0
LINE
  8
0
 62
7
  6
CONTINUOUS
 10
20.4893465974
 20
200.3885847192
 11
20.4893465974
 21
205.3885808489
  0
POLYLINE
  8
0
 62
7
  6
CONTINUOUS
 66
1
 70
0
  0
VERTEX
  8
0
 62
7
  6
CONTINUOUS
 10
33.1893465974
 20
182.3885833054
  0
VERTEX
  8
0
 62
7
  6
CONTINUOUS
 10
33.1919319087
 20
182.2172830824
  0
VERTEX
  8
0
 62
7
  6
CONTINUOUS
 10
33.1994475147
 20
182.0531960714
  0
VERTEX
  8
0
 62
7
  6
CONTINUOUS
 10
33.2115801609
 20
181.8956538532
  0
VERTEX
  8
0
 62
7
  6
CONTINUOUS
 10
33.2280550974
 20
181.7442040583
  0
VERTEX
  8
0
 62
7
  6
CONTINUOUS
 10
33.2486298271
 20
181.5984472974
  0
VERTEX
  8
0
 62
7
  6
CONTINUOUS
 10
33.2731133316
 20
181.4579020854
  0
VERTEX
  8
0
 62
7
  6
CONTINUOUS
 10
33.3013488322
 20
181.3221529049
  0
VERTEX
  8
0
 62
7
  6
CONTINUOUS
 10
33.3331805714
 20
181.1909449441
  0
VERTEX
  8
0
 62
7
  6
CONTINUOUS
 10
33.3684731499
 20
181.0640306994
  0
VERTEX
  8
0
 62
7
  6
CONTINUOUS
 10
33.4071264599
 20
180.9411257394
  0
VERTEX
  8
0
 62
7
  6
CONTINUOUS
 10
33.4490734834
 20
180.8219379112
  0
VERTEX
  8
0
 62
7
  6
CONTINUOUS
 10
33.4942800632
 20
180.7061770342
  0
VERTEX
  8
0
 62
7
  6
CONTINUOUS
 10
33.542743089
 20
180.5935639137
  0
VERTEX
  8
0
 62
7
  6
CONTINUOUS
 10
33.5944698671
 20
180.4838736851
  0
VERTEX
  8
0
 62
7
  6
CONTINUOUS
 10
33.6494800929
 20
180.3769163389
  0
VERTEX
  8
0
 62
7
  6
CONTINUOUS
 10
33.707818614
 20
180.2725063208
  0
VERTEX
  8
0
 62
7
  6
CONTINUOUS
 10
33.7695324731
 20
180.1705018314
  0
VERTEX
  8
0
 62
7
  6
CONTINUOUS
 10
33.8346626159
 20
180.0708058409
  0
VERTEX
  8
0
 62
7
  6
CONTINUOUS
 10
33.9032690899
 20
179.973319478
  0
VERTEX
  8
0
 62
7
  6
CONTINUOUS
 10
33.9754639822
 20
179.8779033158
  0
VERTEX
  8
0
 62
7
  6
CONTINUOUS
 10
34.0514500144
 20
179.7843481852
  0
VERTEX
  8
0
 62
7
  6
CONTINUOUS
 10
34.1314548526
 20
179.6924760284
  0
VERTEX
  8
0
 62
7
  6
CONTINUOUS
 10
34.2156693699
 20
179.6022014323
  0
VERTEX
  8
0
 62
7
  6
CONTINUOUS
 10
34.3042418126
 20
179.5135146247
  0
VERTEX
  8
0
 62
7
  6
CONTINUOUS
 10
34.3973221233
 20
179.4264217857
  0
VERTEX
  8
0
 62
7
  6
CONTINUOUS
 10
34.4951147001
 20
179.3408979425
  0
VERTEX
  8
0
 62
7
  6
CONTINUOUS
 10
34.5979727016
 20
179.2568250333
  0
VERTEX
  8
0
 62
7
  6
CONTINUOUS
 10
34.7062897282
 20
179.1741066965
  0
VERTEX
  8
0
 62
7
  6
CONTINUOUS
 10
34.8204568111
 20
179.0927002373
  0
VERTEX
  8
0
 62
7
  6
CONTINUOUS
 10
34.940855595
 20
179.0126131322
  0
VERTEX
  8
0
 62
7
  6
CONTINUOUS
 10
35.067854927
 20
178.9338970332
  0
VERTEX
  8
0
 62
7
  6
CONTINUOUS
 10
35.2017758478
 20
178.8566597444
  0
VERTEX
  8
0
 62
7
  6
CONTINUOUS
 10
35.3430433893
 20
178.7809734868
  0
VERTEX
  8
0
 62
7
  6
CONTINUOUS
 10
35.4924530425
 20
178.70676497
  0
VERTEX
  8
0
 62
7
  6
CONTINUOUS
 10
35.6508338273
 20
178.6340278912
  0
VERTEX
  8
0
 62
7
  6
CONTINUOUS
 10
35.8188238546
 20
178.562910961
  0
VERTEX
  8
0
 62
7
  6
CONTINUOUS
 10
35.9963153587
 20
178.4938839433
  0
VERTEX
  8
0
 62
7
  6
CONTINUOUS
 10
36.1844397731
 20
178.4269371668
  0
VERTEX
  8
0
 62
7
  6
CONTINUOUS
 10
36.3847736428
 20
178.3620247636
  0
VERTEX
  8
0
 62
7
  6
CONTINUOUS
 10
36.5983600268
 20
178.2993943701
  0
VERTEX
  8
0
 62
7
  6
CONTINUOUS
 10
36.8249057246
 20
178.2396958098
  0
VERTEX
  8
0
 62
7
  6
CONTINUOUS
 10
37.0665482691
 20
178.1829532556
  0
VERTEX
  8
0
 62
7
  6
CONTINUOUS
 10
37.3255107397
 20
178.1293572497
  0
VERTEX
  8
0
 62
7
  6
CONTINUOUS
 10
37.6019012827
 20
178.0796277408
  0
VERTEX
  8
0
 62
7
  6
CONTINUOUS
 10
37.8975230804
 20
178.0341886205
  0
VERTEX
  8
0
 62
7
  6
CONTINUOUS
 10
38.2147464985
 20
177.9935130369
  0
VERTEX
  8
0
 62
7
  6
CONTINUOUS
 10
38.5550021955
 20
177.9583198455
  0
VERTEX
  8
0
 62
7
  6
CONTINUOUS
 10
38.9195965776
 20
177.929392936
  0
VERTEX
  8
0
 62
7
  6
CONTINUOUS
 10
39.3121605447
 20
177.9074508281
  0
VERTEX
  8
0
 62
7
  6
CONTINUOUS
 10
39.7340332531
 20
177.893503848
  0
VERTEX
  8
0
 62
7
  6
CONTINUOUS
 10
40.1893465974
 20
177.888582784
  0
SEQEND
  0
LINE
  8
0
 62
7
  6
CONTINUOUS
 10
33.1893465974
 20
214.388582784
 11
33.1893465974
 21
208.5967867165
  0
LINE
  8
0
 62
7
  6
CONTINUOUS
 10
33.1893465974
 20
195.1803788515
 11
33.1893465974
 21
182.3885833054
  0
LINE
  8
0
 62
7
  6
CONTINUOUS
 10
56.1893465974
 20
199.2943810862
 11
56.1893465974
 21
207.1580154693
  0
LINE
  8
0
 62
7
  6
CONTINUOUS
 10
57.1893465974
 20
172.0070193023
 11
57.1893465974
 21
168.4658976514
  0
LINE
  8
0
 62
7
  6
CONTINUOUS
 10
60.1893465974
 20
210.9283427021
 11
60.1893465974
 21
214.438582784
  0
POLYLINE
  8
0
 62
7
  6
CONTINUOUS
 66
1
 70
0
  0
VERTEX
  8
0
 62
7
  6
CONTINUOUS
 10
58.3562923119
 20
167.017238225
  0
VERTEX
  8
0
 62
7
  6
CONTINUOUS
 10
58.356661358
 20
167.024380658
  0
VERTEX
  8
0
 62
7
  6
CONTINUOUS
 10
58.3598149312
 20
167.0313970548
  0
VERTEX
  8
0
 62
7
  6
CONTINUOUS
 10
58.3647023089
 20
167.0384523305
  0
VERTEX
  8
0
 62
7
  6
CONTINUOUS
 10
58.3708684659
 20
167.0458393891
  0
VERTEX
  8
0
 62
7
  6
CONTINUOUS
 10
58.3782931336
 20
167.0537441201
  0
VERTEX
  8
0
 62
7
  6
CONTINUOUS
 10
58.3869608909
 20
167.0621158296
  0
VERTEX
  8
0
 62
7
  6
CONTINUOUS
 10
58.3968202431
 20
167.0707968068
  0
VERTEX
  8
0
 62
7
  6
CONTINUOUS
 10
58.4078122565
 20
167.0796147631
  0
VERTEX
  8
0
 62
7
  6
CONTINUOUS
 10
58.4198680279
 20
167.088401449
  0
VERTEX
  8
0
 62
7
  6
CONTINUOUS
 10
58.4331204749
 20
167.0971384861
  0
VERTEX
  8
0
 62
7
  6
CONTINUOUS
 10
58.4479143168
 20
167.1059007055
  0
VERTEX
  8
0
 62
7
  6
CONTINUOUS
 10
58.4646612804
 20
167.1147194282
  0
VERTEX
  8
0
 62
7
  6
CONTINUOUS
 10
58.4837844036
 20
167.1235446795
  0
VERTEX
  8
0
 62
7
  6
CONTINUOUS
 10
58.5056902117
 20
167.1322335395
  0
VERTEX
  8
0
 62
7
  6
CONTINUOUS
 10
58.5307261122
 20
167.1405426179
  0
VERTEX
  8
0
 62
7
  6
CONTINUOUS
 10
58.5592017112
 20
167.1481725677
  0
VERTEX
  8
0
 62
7
  6
CONTINUOUS
 10
58.5912925359
 20
167.1547506688
  0
VERTEX
  8
0
 62
7
  6
CONTINUOUS
 10
58.6270007826
 20
167.1598834096
  0
VERTEX
  8
0
 62
7
  6
CONTINUOUS
 10
58.6665188508
 20
167.1632213874
  0
VERTEX
  8
0
 62
7
  6
CONTINUOUS
 10
58.7102573887
 20
167.1644196394
  0
SEQEND
  0
LINE
  8
0
 62
7
  6
CONTINUOUS
 10
66.1893465974
 20
214.4385716624
 11
66.1893465974
 21
210.5477768632
  0
LINE
  8
0
 62
7
  6
CONTINUOUS
 10
69.1893465974
 20
168.4658964647
 11
69.1893465974
 21
177.6917052098
  0
LINE
  8
0
 62
7
  6
CONTINUOUS
 10
70.1893465974
 20
211.1143845652
 11
70.1893465974
 21
205.6331693518
  0
POLYLINE
  8
0
 62
7
  6
CONTINUOUS
 66
1
 70
0
  0
VERTEX
  8
0
 62
7
  6
CONTINUOUS
 10
68.0073311719
 20
167.0100280414
  0
VERTEX
  8
0
 62
7
  6
CONTINUOUS
 10
68.0102296186
 20
167.0357841062
  0
VERTEX
  8
0
 62
7
  6
CONTINUOUS
 10
68.0121846503
 20
167.0618335128
  0
VERTEX
  8
0
 62
7
  6
CONTINUOUS
 10
68.0134415831
 20
167.0881460546
  0
SEQEND
  0
LINE
  8
0
 62
7
  6
CONTINUOUS
 10
67.2321945014
 20
197.3466490564
 11
67.0941391898
 21
197.8618784935
  0
LINE
  8
0
 62
7
  6
CONTINUOUS
 10
82.1893465974
 20
205.6331451468
 11
82.1893465974
 21
211.1143845652
  0
LINE
  8
0
 62
7
  6
CONTINUOUS
 10
83.1893465974
 20
177.6917052074
 11
83.1893465974
 21
168.4659658963
  0
LINE
  8
0
 62
7
  6
CONTINUOUS
 10
86.1893465974
 20
209.5147835524
 11
86.1893465974
 21
214.438582784
  0
LINE
  8
0
 62
7
  6
CONTINUOUS
 10
60.3789690199
 20
164.8064724069
 11
60.2148372749
 21
164.9429349139
  0
POLYLINE
  8
0
 62
7
  6
CONTINUOUS
 66
1
 70
0
  0
VERTEX
  8
0
 62
7
  6
CONTINUOUS
 10
60.2148372749
 20
164.9429349139
  0
VERTEX
  8
0
 62
7
  6
CONTINUOUS
 10
60.032732864
 20
165.1024686128
  0
VERTEX
  8
0
 62
7
  6
CONTINUOUS
 10
59.8216811094
 20
165.298488288
  0
SEQEND
  0
POLYLINE
  8
0
 62
7
  6
CONTINUOUS
 66
1
 70
0
  0
VERTEX
  8
0
 62
7
  6
CONTINUOUS
 10
67.0174224902
 20
166.5488026453
  0
VERTEX
  8
0
 62
7
  6
CONTINUOUS
 10
67.116830862
 20
166.4472408864
  0
VERTEX
  8
0
 62
7
  6
CONTINUOUS
 10
67.2149040509
 20
166.3603180271
  0
VERTEX
  8
0
 62
7
  6
CONTINUOUS
 10
67.3077470434
 20
166.2890701519
  0
VERTEX
  8
0
 62
7
  6
CONTINUOUS
 10
67.3933620558
 20
166.235459789
  0
VERTEX
  8
0
 62
7
  6
CONTINUOUS
 10
67.4697010496
 20
166.2008486796
  0
SEQEND
  0
LINE
  8
0
 62
7
  6
CONTINUOUS
 10
92.1893465974
 20
214.4385706671
 11
92.1893465974
 21
209.1342067104
  0
LINE
  8
0
 62
7
  6
CONTINUOUS
 10
95.1893465974
 20
168.4659731632
 11
95.1893465974
 21
177.6917052098
  0
LINE
  8
0
 62
7
  6
CONTINUOUS
 10
96.1893465974
 20
211.1143845652
 11
96.1893465974
 21
205.6331454306
  0
LINE
  8
0
 62
7
  6
CONTINUOUS
 10
84.6127860785
 20
197.9062208742
 11
84.4961982499
 21
197.4711091746
  0
POLYLINE
  8
0
 62
7
  6
CONTINUOUS
 66
1
 70
0
  0
VERTEX
  8
0
 62
7
  6
CONTINUOUS
 10
60.6588480634
 20
164.5879800316
  0
VERTEX
  8
0
 62
7
  6
CONTINUOUS
 10
60.6174569066
 20
164.6191475232
  0
VERTEX
  8
0
 62
7
  6
CONTINUOUS
 10
60.5623198669
 20
164.6612590734
  0
VERTEX
  8
0
 62
7
  6
CONTINUOUS
 10
60.4794457514
 20
164.7258522025
  0
VERTEX
  8
0
 62
7
  6
CONTINUOUS
 10
60.3646191042
 20
164.8179864472
  0
SEQEND
  0
LINE
  8
0
 62
7
  6
CONTINUOUS
 10
108.1893465974
 20
205.6331451467
 11
108.1893465974
 21
211.1143845652
  0
POLYLINE
  8
0
 62
7
  6
CONTINUOUS
 66
1
 70
0
  0
VERTEX
  8
0
 62
7
  6
CONTINUOUS
 10
108.189346668
 20
206.7352666835
  0
VERTEX
  8
0
 62
7
  6
CONTINUOUS
 10
108.1976238399
 20
206.863303147
  0
VERTEX
  8
0
 62
7
  6
CONTINUOUS
 10
108.2222266973
 20
206.9892263147
  0
VERTEX
  8
0
 62
7
  6
CONTINUOUS
 10
108.2627503292
 20
207.1109631137
  0
VERTEX
  8
0
 62
7
  6
CONTINUOUS
 10
108.3185277027
 20
207.226509427
  0
VERTEX
  8
0
 62
7
  6
CONTINUOUS
 10
108.3886406308
 20
207.3339630258
  0
VERTEX
  8
0
 62
7
  6
CONTINUOUS
 10
108.471934896
 20
207.4315549177
  0
VERTEX
  8
0
 62
7
  6
CONTINUOUS
 10
108.5670392588
 20
207.5176784772
  0
VERTEX
  8
0
 62
7
  6
CONTINUOUS
 10
108.6723880808
 20
207.5909159246
  0
VERTEX
  8
0
 62
7
  6
CONTINUOUS
 10
108.7862471036
 20
207.6500616347
  0
VERTEX
  8
0
 62
7
  6
CONTINUOUS
 10
108.9067419788
 20
207.6941419572
  0
VERTEX
  8
0
 62
7
  6
CONTINUOUS
 10
109.0318891212
 20
207.7224312433
  0
VERTEX
  8
0
 62
7
  6
CONTINUOUS
 10
109.1596283616
 20
207.7344637907
  0
VERTEX
  8
0
 62
7
  6
CONTINUOUS
 10
109.243634542
 20
207.7334307973
  0
SEQEND
  0
LINE
  8
0
 62
7
  6
CONTINUOUS
 10
93.8824949448
 20
197.4711091746
 11
93.7659071162
 21
197.9062208742
  0
LINE
  8
0
 62
7
  6
CONTINUOUS
 10
109.1893465974
 20
177.691717002
 11
109.1893465974
 21
168.4658964647
  0
LINE
  8
0
 62
7
  6
CONTINUOUS
 10
112.1893465974
 20
208.1012124249
 11
112.1893465974
 21
214.438582784
  0
LINE
  8
0
 62
7
  6
CONTINUOUS
 10
118.1893465974
 20
214.4385706671
 11
118.1893465974
 21
207.7206355829
  0
LINE
  8
0
 62
7
  6
CONTINUOUS
 10
110.6127860785
 20
197.9062208742
 11
110.4961982499
 21
197.4711091746
  0
LINE
  8
0
 62
7
  6
CONTINUOUS
 10
121.1893465974
 20
168.4658964647
 11
121.1893465974
 21
177.691717002
  0
LINE
  8
0
 62
7
  6
CONTINUOUS
 10
122.1893465974
 20
211.1143845652
 11
122.1893465974
 21
205.6331454306
  0
POLYLINE
  8
0
 62
7
  6
CONTINUOUS
 66
1
 70
0
  0
VERTEX
  8
0
 62
7
  6
CONTINUOUS
 10
66.5569024745
 20
165.2984828246
  0
VERTEX
  8
0
 62
7
  6
CONTINUOUS
 10
66.3458625819
 20
165.1024741575
  0
VERTEX
  8
0
 62
7
  6
CONTINUOUS
 10
66.1638042624
 20
164.9429794714
  0
SEQEND
  0
POLYLINE
  8
0
 62
7
  6
CONTINUOUS
 66
1
 70
0
  0
VERTEX
  8
0
 62
7
  6
CONTINUOUS
 10
66.1638042624
 20
164.9429794714
  0
VERTEX
  8
0
 62
7
  6
CONTINUOUS
 10
66.0140319125
 20
164.8180368198
  0
VERTEX
  8
0
 62
7
  6
CONTINUOUS
 10
65.8991851926
 20
164.7258850694
  0
VERTEX
  8
0
 62
7
  6
CONTINUOUS
 10
65.8162885156
 20
164.6612737784
  0
VERTEX
  8
0
 62
7
  6
CONTINUOUS
 10
65.761136563
 20
164.6191506939
  0
SEQEND
  0
LINE
  8
0
 62
7
  6
CONTINUOUS
 10
65.9160986204
 20
164.7392619541
 11
66.151225951
 21
164.9324864293
  0
LINE
  8
0
 62
7
  6
CONTINUOUS
 10
119.8824949448
 20
197.4711091746
 11
119.7659071162
 21
197.9062208742
  0
LINE
  8
0
 62
7
  6
CONTINUOUS
 10
134.1893465974
 20
205.6331454306
 11
134.1893465974
 21
211.1143845652
  0
LINE
  8
0
 62
7
  6
CONTINUOUS
 10
135.1893465974
 20
177.691717002
 11
135.1893465974
 21
168.4658964246
  0
LINE
  8
0
 62
7
  6
CONTINUOUS
 10
138.1893465974
 20
207.438582784
 11
138.1893465974
 21
214.438582784
  0
LINE
  8
0
 62
7
  6
CONTINUOUS
 10
136.6127860785
 20
197.9062208742
 11
136.4961982499
 21
197.4711091746
  0
LINE
  8
0
 62
7
  6
CONTINUOUS
 10
65.910017833
 20
164.7345770614
 11
65.9160986204
 21
164.7392619541
  0
LINE
  8
0
 62
7
  6
CONTINUOUS
 10
65.761136563
 20
164.6191506939
 11
65.7197412209
 21
164.5879800316
  0
POLYLINE
  8
SURFACE
 62
7
  6
CONTINUOUS
 66
1
 70
0
  0
VERTEX
  8
SURFACE
 62
7
  6
CONTINUOUS
 10
303.7089922245
 20
166.2008488162
  0
VERTEX
  8
SURFACE
 62
7
  6
CONTINUOUS
 10
303.7078822357
 20
166.2006074101
  0
VERTEX
  8
SURFACE
 62
7
  6
CONTINUOUS
 10
303.7065756743
 20
166.2005939809
  0
VERTEX
  8
SURFACE
 62
7
  6
CONTINUOUS
 10
303.7056044958
 20
166.2006343787
  0
SEQEND
  0
POLYLINE
  8
0
 62
7
  6
CONTINUOUS
 66
1
 70
0
  0
VERTEX
  8
0
 62
7
  6
CONTINUOUS
 10
67.4697009702
 20
166.2008488162
  0
VERTEX
  8
0
 62
7
  6
CONTINUOUS
 10
67.470810959
 20
166.2006074101
  0
VERTEX
  8
0
 62
7
  6
CONTINUOUS
 10
67.4721175204
 20
166.2005939809
  0
VERTEX
  8
0
 62
7
  6
CONTINUOUS
 10
67.4730886989
 20
166.2006343787
  0
SEQEND
  0
LINE
  8
0
 62
7
  6
CONTINUOUS
 10
144.1893465974
 20
214.4385706671
 11
144.1893465974
 21
207.438582784
  0
LINE
  8
0
 62
7
  6
CONTINUOUS
 10
147.1893465974
 20
168.4658964647
 11
147.1893465974
 21
177.691717002
  0
LINE
  8
0
 62
7
  6
CONTINUOUS
 10
148.1893465974
 20
211.1143845652
 11
148.1893465974
 21
205.6331454306
  0
POLYLINE
  8
SURFACE
 62
7
  6
CONTINUOUS
 66
1
 70
0
  0
VERTEX
  8
SURFACE
 62
7
  6
CONTINUOUS
 10
312.2735790454
 20
166.200676642
  0
VERTEX
  8
SURFACE
 62
7
  6
CONTINUOUS
 10
312.2721606509
 20
166.2004998444
  0
VERTEX
  8
SURFACE
 62
7
  6
CONTINUOUS
 10
312.2708595441
 20
166.2005111611
  0
VERTEX
  8
SURFACE
 62
7
  6
CONTINUOUS
 10
312.2696767882
 20
166.2006843912
  0
SEQEND
  0
POLYLINE
  8
0
 62
7
  6
CONTINUOUS
 66
1
 70
0
  0
VERTEX
  8
0
 62
7
  6
CONTINUOUS
 10
58.9051141493
 20
166.200676642
  0
VERTEX
  8
0
 62
7
  6
CONTINUOUS
 10
58.9065325438
 20
166.2004998444
  0
VERTEX
  8
0
 62
7
  6
CONTINUOUS
 10
58.9078336506
 20
166.2005111611
  0
VERTEX
  8
0
 62
7
  6
CONTINUOUS
 10
58.9090164065
 20
166.2006843912
  0
SEQEND
  0
LINE
  8
0
 62
7
  6
CONTINUOUS
 10
145.8824949448
 20
197.4711091746
 11
145.7659071162
 21
197.9062208742
  0
LINE
  8
0
 62
7
  6
CONTINUOUS
 10
160.1893465974
 20
205.6331454306
 11
160.1893465974
 21
211.1143845652
  0
LINE
  8
0
 62
7
  6
CONTINUOUS
 10
161.1893465974
 20
177.691717002
 11
161.1893465974
 21
168.4658964246
  0
LINE
  8
0
 62
7
  6
CONTINUOUS
 10
164.1893465974
 20
207.438582784
 11
164.1893465974
 21
214.438582784
  0
LINE
  8
0
 62
7
  6
CONTINUOUS
 10
162.6127860785
 20
197.9062208742
 11
162.4961982499
 21
197.4711091746
  0
POLYLINE
  8
0
 62
7
  6
CONTINUOUS
 66
1
 70
0
  0
VERTEX
  8
0
 62
7
  6
CONTINUOUS
 10
177.0111861452
 20
215.1281914893
  0
VERTEX
  8
0
 62
7
  6
CONTINUOUS
 10
176.8986550066
 20
215.0577116674
  0
VERTEX
  8
0
 62
7
  6
CONTINUOUS
 10
176.7763926203
 20
215.0022415867
  0
VERTEX
  8
0
 62
7
  6
CONTINUOUS
 10
176.647798229
 20
214.9636484443
  0
VERTEX
  8
0
 62
7
  6
CONTINUOUS
 10
176.5151894702
 20
214.942629282
  0
VERTEX
  8
0
 62
7
  6
CONTINUOUS
 10
176.4252984122
 20
214.938580831
  0
SEQEND
  0
POLYLINE
  8
0
 62
7
  6
CONTINUOUS
 66
1
 70
0
  0
VERTEX
  8
0
 62
7
  6
CONTINUOUS
 10
58.9090179521
 20
166.2006870488
  0
VERTEX
  8
0
 62
7
  6
CONTINUOUS
 10
58.9853283383
 20
166.2353187266
  0
VERTEX
  8
0
 62
7
  6
CONTINUOUS
 10
59.070861217
 20
166.2889995204
  0
VERTEX
  8
0
 62
7
  6
CONTINUOUS
 10
59.1634907551
 20
166.360425212
  0
VERTEX
  8
0
 62
7
  6
CONTINUOUS
 10
59.2608361822
 20
166.4479150061
  0
VERTEX
  8
0
 62
7
  6
CONTINUOUS
 10
59.3610217082
 20
166.5489357434
  0
SEQEND
  0
POLYLINE
  8
SURFACE
 62
7
  6
CONTINUOUS
 66
1
 70
0
  0
VERTEX
  8
SURFACE
 62
7
  6
CONTINUOUS
 10
303.5134823066
 20
167.1644189554
  0
VERTEX
  8
SURFACE
 62
7
  6
CONTINUOUS
 10
303.4601970398
 20
167.1626034236
  0
VERTEX
  8
SURFACE
 62
7
  6
CONTINUOUS
 10
303.4122920274
 20
167.1574998981
  0
VERTEX
  8
SURFACE
 62
7
  6
CONTINUOUS
 10
303.3691211363
 20
167.1495571681
  0
VERTEX
  8
SURFACE
 62
7
  6
CONTINUOUS
 10
303.3305666847
 20
167.1392510937
  0
VERTEX
  8
SURFACE
 62
7
  6
CONTINUOUS
 10
303.296865926
 20
167.1272321383
  0
VERTEX
  8
SURFACE
 62
7
  6
CONTINUOUS
 10
303.2679061862
 20
167.1141343748
  0
VERTEX
  8
SURFACE
 62
7
  6
CONTINUOUS
 10
303.2431709001
 20
167.100388711
  0
VERTEX
  8
SURFACE
 62
7
  6
CONTINUOUS
 10
303.2221151161
 20
167.0862510989
  0
VERTEX
  8
SURFACE
 62
7
  6
CONTINUOUS
 10
303.2041331444
 20
167.0716731516
  0
VERTEX
  8
SURFACE
 62
7
  6
CONTINUOUS
 10
303.1889903321
 20
167.056410032
  0
VERTEX
  8
SURFACE
 62
7
  6
CONTINUOUS
 10
303.1777248797
 20
167.0408201698
  0
VERTEX
  8
SURFACE
 62
7
  6
CONTINUOUS
 10
303.1717404799
 20
167.0253386931
  0
VERTEX
  8
SURFACE
 62
7
  6
CONTINUOUS
 10
303.1713620228
 20
167.0100280414
  0
SEQEND
  0
LINE
  8
0
 62
7
  6
CONTINUOUS
 10
169.7019972709
 20
164.388582784
 11
164.6766959238
 21
164.388582784
  0
LINE
  8
0
 62
7
  6
CONTINUOUS
 10
143.7019972709
 20
164.388582784
 11
138.6766959238
 21
164.388582784
  0
LINE
  8
0
 62
7
  6
CONTINUOUS
 10
117.7019972709
 20
164.388582784
 11
112.6766959238
 21
164.388582784
  0
LINE
  8
0
 62
7
  6
CONTINUOUS
 10
91.7019972709
 20
164.388582784
 11
86.6766959238
 21
164.388582784
  0
LINE
  8
0
 62
7
  6
CONTINUOUS
 10
60.6766959238
 20
164.388582784
 11
65.7019972709
 21
164.388582784
  0
LINE
  8
SURFACE
 62
7
  6
CONTINUOUS
 10
201.4766959238
 20
164.388582784
 11
206.5019972709
 21
164.388582784
  0
LINE
  8
SURFACE
 62
7
  6
CONTINUOUS
 10
227.4766959238
 20
164.388582784
 11
232.5019972709
 21
164.388582784
  0
LINE
  8
SURFACE
 62
7
  6
CONTINUOUS
 10
253.4766959238
 20
164.388582784
 11
258.5019972709
 21
164.388582784
  0
LINE
  8
SURFACE
 62
7
  6
CONTINUOUS
 10
279.4766959238
 20
164.388582784
 11
284.5019972709
 21
164.388582784
  0
LINE
  8
SURFACE
 62
7
  6
CONTINUOUS
 10
305.4766961735
 20
164.388582784
 11
310.5019972709
 21
164.388582784
  0
LINE
  8
SURFACE
 62
7
  6
CONTINUOUS
 10
312.4684552443
 20
167.1644197258
 11
303.5134875548
 21
167.1644189267
  0
LINE
  8
0
 62
7
  6
CONTINUOUS
 10
58.7102379504
 20
167.1644197258
 11
67.6652056399
 21
167.1644189267
  0
POLYLINE
  8
0
 62
7
  6
CONTINUOUS
 66
1
 70
0
  0
VERTEX
  8
0
 62
7
  6
CONTINUOUS
 10
67.6652108882
 20
167.1644189554
  0
VERTEX
  8
0
 62
7
  6
CONTINUOUS
 10
67.7184961549
 20
167.1626034236
  0
VERTEX
  8
0
 62
7
  6
CONTINUOUS
 10
67.7664011673
 20
167.1574998981
  0
VERTEX
  8
0
 62
7
  6
CONTINUOUS
 10
67.8095720584
 20
167.1495571681
  0
VERTEX
  8
0
 62
7
  6
CONTINUOUS
 10
67.84812651
 20
167.1392510937
  0
VERTEX
  8
0
 62
7
  6
CONTINUOUS
 10
67.8818272687
 20
167.1272321383
  0
VERTEX
  8
0
 62
7
  6
CONTINUOUS
 10
67.9107870085
 20
167.1141343748
  0
VERTEX
  8
0
 62
7
  6
CONTINUOUS
 10
67.9355222946
 20
167.100388711
  0
VERTEX
  8
0
 62
7
  6
CONTINUOUS
 10
67.9565780786
 20
167.0862510989
  0
VERTEX
  8
0
 62
7
  6
CONTINUOUS
 10
67.9745600503
 20
167.0716731516
  0
VERTEX
  8
0
 62
7
  6
CONTINUOUS
 10
67.9897028626
 20
167.056410032
  0
VERTEX
  8
0
 62
7
  6
CONTINUOUS
 10
68.000968315
 20
167.0408201698
  0
VERTEX
  8
0
 62
7
  6
CONTINUOUS
 10
68.0069527148
 20
167.0253386931
  0
VERTEX
  8
0
 62
7
  6
CONTINUOUS
 10
68.0073311719
 20
167.0100280414
  0
SEQEND
  0
LINE
  8
0
 62
7
  6
CONTINUOUS
 10
170.1893465974
 20
214.4385706671
 11
170.1893465974
 21
207.438582784
  0
LINE
  8
0
 62
7
  6
CONTINUOUS
 10
173.1893465974
 20
168.4658964647
 11
173.1893465974
 21
177.691717002
  0
LINE
  8
DEFAULT_1
 62
7
  6
CENTER
 10
55.1893465974
 20
172.838582784
 11
315.9893465974
 21
172.838582784
  0
LINE
  8
SURFACE
 62
7
  6
CONTINUOUS
 10
330.9893465974
 20
177.888582784
 11
322.6496010793
 21
177.888582784
  0
LINE
  8
0
 62
7
  6
CONTINUOUS
 10
40.1893465974
 20
177.888582784
 11
48.5290921155
 21
177.888582784
  0
LINE
  8
0
 62
7
  6
CONTINUOUS
 10
190.9893465974
 20
180.4471543555
 11
180.1893465974
 21
180.4471543555
  0
LINE
  8
0
 62
7
  6
CONTINUOUS
 10
171.8824949448
 20
197.4711091746
 11
171.7659071162
 21
197.9062208742
  0
LINE
  8
DEFAULT_1
 62
7
  6
CENTER
 10
185.5893465974
 20
197.138582784
 11
185.5893465974
 21
193.888682784
  0
LINE
  8
0
 62
2
  6
CONTINUOUS
 10
185.5893465974
 20
192.938582784
 11
185.5893465974
 21
190.838582784
  0
LINE
  8
DEFAULT_1
 62
7
  6
CENTER
 10
185.5893465974
 20
186.638582784
 11
185.5893465974
 21
189.888482784
  0
POLYLINE
  8
SURFACE
 62
7
  6
CONTINUOUS
 66
1
 70
0
  0
VERTEX
  8
SURFACE
 62
7
  6
CONTINUOUS
 10
213.8111863321
 20
215.128191543
  0
VERTEX
  8
SURFACE
 62
7
  6
CONTINUOUS
 10
213.6979309775
 20
215.0573229254
  0
VERTEX
  8
SURFACE
 62
7
  6
CONTINUOUS
 10
213.5748738259
 20
215.0016734731
  0
VERTEX
  8
SURFACE
 62
7
  6
CONTINUOUS
 10
213.4454404003
 20
214.9631133369
  0
VERTEX
  8
SURFACE
 62
7
  6
CONTINUOUS
 10
213.3119916118
 20
214.9423458499
  0
VERTEX
  8
SURFACE
 62
7
  6
CONTINUOUS
 10
213.2252985016
 20
214.9385808645
  0
SEQEND
  0
LINE
  8
DEFAULT_1
 62
7
  6
CENTER
 10
190.8393465974
 20
191.888582784
 11
187.5894465974
 21
191.888582784
  0
LINE
  8
0
 62
2
  6
CONTINUOUS
 10
186.6393465974
 20
191.888582784
 11
184.5393465974
 21
191.888582784
  0
LINE
  8
DEFAULT_1
 62
7
  6
CENTER
 10
180.3393465974
 20
191.888582784
 11
183.5892465974
 21
191.888582784
  0
LINE
  8
SURFACE
 62
7
  6
CONTINUOUS
 10
197.9893465974
 20
168.4658964647
 11
197.9893465974
 21
177.691717002
  0
LINE
  8
SURFACE
 62
7
  6
CONTINUOUS
 10
199.2961982499
 20
197.4711091746
 11
199.4127860785
 21
197.9062208742
  0
POLYLINE
  8
SURFACE
 62
7
  6
CONTINUOUS
 66
1
 70
0
  0
VERTEX
  8
SURFACE
 62
7
  6
CONTINUOUS
 10
197.6252038113
 20
206.2294200873
  0
VERTEX
  8
SURFACE
 62
7
  6
CONTINUOUS
 10
197.6719738676
 20
206.3531856205
  0
VERTEX
  8
SURFACE
 62
7
  6
CONTINUOUS
 10
197.7346738419
 20
206.4696934079
  0
VERTEX
  8
SURFACE
 62
7
  6
CONTINUOUS
 10
197.8122063829
 20
206.5769042051
  0
VERTEX
  8
SURFACE
 62
7
  6
CONTINUOUS
 10
197.9032142619
 20
206.6729410544
  0
VERTEX
  8
SURFACE
 62
7
  6
CONTINUOUS
 10
198.0061043468
 20
206.7561226784
  0
VERTEX
  8
SURFACE
 62
7
  6
CONTINUOUS
 10
198.1190754775
 20
206.8249928613
  0
VERTEX
  8
SURFACE
 62
7
  6
CONTINUOUS
 10
198.2401499981
 20
206.8783459384
  0
VERTEX
  8
SURFACE
 62
7
  6
CONTINUOUS
 10
198.3672083817
 20
206.9152479045
  0
VERTEX
  8
SURFACE
 62
7
  6
CONTINUOUS
 10
198.4980263417
 20
206.9350527678
  0
VERTEX
  8
SURFACE
 62
7
  6
CONTINUOUS
 10
198.5819763224
 20
206.9385827981
  0
SEQEND
  0
POLYLINE
  8
SURFACE
 62
7
  6
CONTINUOUS
 66
1
 70
0
  0
VERTEX
  8
SURFACE
 62
7
  6
CONTINUOUS
 10
239.8111863321
 20
215.128191543
  0
VERTEX
  8
SURFACE
 62
7
  6
CONTINUOUS
 10
239.6979309775
 20
215.0573229254
  0
VERTEX
  8
SURFACE
 62
7
  6
CONTINUOUS
 10
239.5748738259
 20
215.0016734731
  0
VERTEX
  8
SURFACE
 62
7
  6
CONTINUOUS
 10
239.4454404003
 20
214.9631133369
  0
VERTEX
  8
SURFACE
 62
7
  6
CONTINUOUS
 10
239.3119916118
 20
214.9423458499
  0
VERTEX
  8
SURFACE
 62
7
  6
CONTINUOUS
 10
239.2252985016
 20
214.9385808645
  0
SEQEND
  0
LINE
  8
SURFACE
 62
7
  6
CONTINUOUS
 10
314.4435300434
 20
210.5882176752
 11
311.5164905698
 21
210.429080041
  0
LINE
  8
SURFACE
 62
7
  6
CONTINUOUS
 10
249.9350592944
 20
207.0810133779
 11
252.5167799308
 21
207.221376676
  0
LINE
  8
SURFACE
 62
7
  6
CONTINUOUS
 10
259.5167799308
 20
207.601953518
 11
261.9350592945
 21
207.7334308213
  0
LINE
  8
SURFACE
 62
7
  6
CONTINUOUS
 10
275.9350592944
 20
208.4945845054
 11
278.5167799308
 21
208.6349478035
  0
LINE
  8
SURFACE
 62
7
  6
CONTINUOUS
 10
285.5167799308
 20
209.0155246455
 11
287.9350590693
 21
209.1470019366
  0
LINE
  8
SURFACE
 62
7
  6
CONTINUOUS
 10
301.9354169619
 20
209.9081750786
 11
304.5167671274
 21
210.0485182349
  0
LINE
  8
0
 62
7
  6
CONTINUOUS
 10
65.1051446801
 20
199.3434239101
 11
56.3950608831
 21
199.0944627355
  0
LINE
  8
SURFACE
 62
7
  6
CONTINUOUS
 10
348.1893465974
 20
197.888582784
 11
339.3748871134
 21
197.888582784
  0
LINE
  8
0
 62
7
  6
CONTINUOUS
 10
31.8038060814
 20
197.888582784
 11
22.9893465974
 21
197.888582784
  0
LINE
  8
0
 62
7
  6
CONTINUOUS
 10
169.8340554637
 20
199.388582784
 11
164.544637731
 21
199.388582784
  0
LINE
  8
0
 62
7
  6
CONTINUOUS
 10
143.8340554637
 20
199.388582784
 11
138.544637731
 21
199.388582784
  0
LINE
  8
0
 62
7
  6
CONTINUOUS
 10
117.8340554637
 20
199.388582784
 11
112.544637731
 21
199.388582784
  0
LINE
  8
0
 62
7
  6
CONTINUOUS
 10
91.8340554637
 20
199.388582784
 11
86.544637731
 21
199.388582784
  0
LINE
  8
SURFACE
 62
7
  6
CONTINUOUS
 10
201.344637731
 20
199.388582784
 11
206.6340554637
 21
199.388582784
  0
LINE
  8
SURFACE
 62
7
  6
CONTINUOUS
 10
227.344637731
 20
199.388582784
 11
232.6340554637
 21
199.388582784
  0
LINE
  8
SURFACE
 62
7
  6
CONTINUOUS
 10
253.344637731
 20
199.388582784
 11
258.6340554637
 21
199.388582784
  0
LINE
  8
SURFACE
 62
7
  6
CONTINUOUS
 10
279.344637731
 20
199.388582784
 11
284.6340554637
 21
199.388582784
  0
LINE
  8
SURFACE
 62
7
  6
CONTINUOUS
 10
314.7836323116
 20
199.0944627355
 11
306.0735485146
 21
199.3434239101
  0
LINE
  8
0
 62
7
  6
CONTINUOUS
 10
56.7351631513
 20
210.5882176752
 11
59.6622026249
 21
210.429080041
  0
LINE
  8
SURFACE
 62
7
  6
CONTINUOUS
 10
66.6619260673
 20
210.0485182349
 11
69.2432762328
 21
209.9081750786
  0
LINE
  8
SURFACE
 62
7
  6
CONTINUOUS
 10
83.2436341254
 20
209.1470019366
 11
85.6619132639
 21
209.0155246455
  0
LINE
  8
SURFACE
 62
7
  6
CONTINUOUS
 10
92.6619132639
 20
208.6349478035
 11
95.2436339003
 21
208.4945845054
  0
LINE
  8
SURFACE
 62
7
  6
CONTINUOUS
 10
109.2436339002
 20
207.7334308213
 11
111.6619132639
 21
207.601953518
  0
LINE
  8
SURFACE
 62
7
  6
CONTINUOUS
 10
118.6619132639
 20
207.221376676
 11
121.2436339003
 21
207.0810133779
  0
POLYLINE
  8
0
 62
7
  6
CONTINUOUS
 66
1
 70
0
  0
VERTEX
  8
0
 62
7
  6
CONTINUOUS
 10
95.243634542
 20
208.4945844813
  0
VERTEX
  8
0
 62
7
  6
CONTINUOUS
 10
95.3289105936
 20
208.4862722124
  0
VERTEX
  8
0
 62
7
  6
CONTINUOUS
 10
95.4561582814
 20
208.4598078425
  0
VERTEX
  8
0
 62
7
  6
CONTINUOUS
 10
95.5788988856
 20
208.4170635096
  0
VERTEX
  8
0
 62
7
  6
CONTINUOUS
 10
95.6950590411
 20
208.3587612643
  0
VERTEX
  8
0
 62
7
  6
CONTINUOUS
 10
95.80267654
 20
208.285885962
  0
VERTEX
  8
0
 62
7
  6
CONTINUOUS
 10
95.8999334764
 20
208.1996686269
  0
VERTEX
  8
0
 62
7
  6
CONTINUOUS
 10
95.9851869523
 20
208.1015656612
  0
VERTEX
  8
0
 62
7
  6
CONTINUOUS
 10
96.0569968122
 20
207.9932342772
  0
VERTEX
  8
0
 62
7
  6
CONTINUOUS
 10
96.11415
 20
207.8765045014
  0
VERTEX
  8
0
 62
7
  6
CONTINUOUS
 10
96.1556810732
 20
207.7533482411
  0
VERTEX
  8
0
 62
7
  6
CONTINUOUS
 10
96.1808885161
 20
207.6258459584
  0
VERTEX
  8
0
 62
7
  6
CONTINUOUS
 10
96.1893465877
 20
207.4961515312
  0
SEQEND
  0
POLYLINE
  8
0
 62
7
  6
CONTINUOUS
 66
1
 70
0
  0
VERTEX
  8
0
 62
7
  6
CONTINUOUS
 10
121.243634542
 20
207.0810133538
  0
VERTEX
  8
0
 62
7
  6
CONTINUOUS
 10
121.3289105936
 20
207.0727010849
  0
VERTEX
  8
0
 62
7
  6
CONTINUOUS
 10
121.4561582814
 20
207.046236715
  0
VERTEX
  8
0
 62
7
  6
CONTINUOUS
 10
121.5788988856
 20
207.0034923821
  0
VERTEX
  8
0
 62
7
  6
CONTINUOUS
 10
121.6950590411
 20
206.9451901368
  0
VERTEX
  8
0
 62
7
  6
CONTINUOUS
 10
121.80267654
 20
206.8723148345
  0
VERTEX
  8
0
 62
7
  6
CONTINUOUS
 10
121.8999334764
 20
206.7860974994
  0
VERTEX
  8
0
 62
7
  6
CONTINUOUS
 10
121.9851869523
 20
206.6879945337
  0
VERTEX
  8
0
 62
7
  6
CONTINUOUS
 10
122.0569968122
 20
206.5796631496
  0
VERTEX
  8
0
 62
7
  6
CONTINUOUS
 10
122.11415
 20
206.4629333739
  0
VERTEX
  8
0
 62
7
  6
CONTINUOUS
 10
122.1556810732
 20
206.3397771136
  0
VERTEX
  8
0
 62
7
  6
CONTINUOUS
 10
122.1808885161
 20
206.2122748309
  0
VERTEX
  8
0
 62
7
  6
CONTINUOUS
 10
122.1893465877
 20
206.0825804037
  0
SEQEND
  0
LINE
  8
SURFACE
 62
7
  6
CONTINUOUS
 10
200.9893465974
 20
214.4385706671
 11
200.9893465974
 21
207.438582784
  0
LINE
  8
SURFACE
 62
7
  6
CONTINUOUS
 10
206.9893465974
 20
207.438582784
 11
206.9893465974
 21
214.438582784
  0
POLYLINE
  8
SURFACE
 62
7
  6
CONTINUOUS
 66
1
 70
0
  0
VERTEX
  8
SURFACE
 62
7
  6
CONTINUOUS
 10
265.8111863321
 20
215.128191543
  0
VERTEX
  8
SURFACE
 62
7
  6
CONTINUOUS
 10
265.6979309773
 20
215.0573229253
  0
VERTEX
  8
SURFACE
 62
7
  6
CONTINUOUS
 10
265.5748738257
 20
215.001673473
  0
VERTEX
  8
SURFACE
 62
7
  6
CONTINUOUS
 10
265.4454404002
 20
214.9631133368
  0
VERTEX
  8
SURFACE
 62
7
  6
CONTINUOUS
 10
265.3119916117
 20
214.9423458499
  0
VERTEX
  8
SURFACE
 62
7
  6
CONTINUOUS
 10
265.2252985016
 20
214.9385808645
  0
SEQEND
  0
POLYLINE
  8
SURFACE
 62
7
  6
CONTINUOUS
 66
1
 70
0
  0
VERTEX
  8
SURFACE
 62
7
  6
CONTINUOUS
 10
187.8157592182
 20
215.3876920977
  0
VERTEX
  8
SURFACE
 62
7
  6
CONTINUOUS
 10
187.5508417171
 20
215.3831720343
  0
VERTEX
  8
SURFACE
 62
7
  6
CONTINUOUS
 10
187.4561363514
 20
215.3819211909
  0
VERTEX
  8
SURFACE
 62
7
  6
CONTINUOUS
 10
187.3595013236
 20
215.3810669993
  0
SEQEND
  0
POLYLINE
  8
SURFACE
 62
7
  6
CONTINUOUS
 66
1
 70
0
  0
VERTEX
  8
SURFACE
 62
7
  6
CONTINUOUS
 10
261.9350586527
 20
207.7334307973
  0
VERTEX
  8
SURFACE
 62
7
  6
CONTINUOUS
 10
262.0153967052
 20
207.7345661134
  0
VERTEX
  8
SURFACE
 62
7
  6
CONTINUOUS
 10
262.1435053411
 20
207.7229515678
  0
VERTEX
  8
SURFACE
 62
7
  6
CONTINUOUS
 10
262.2690631351
 20
207.6949881057
  0
VERTEX
  8
SURFACE
 62
7
  6
CONTINUOUS
 10
262.3899925344
 20
207.6511384321
  0
VERTEX
  8
SURFACE
 62
7
  6
CONTINUOUS
 10
262.5042925692
 20
207.5921281087
  0
VERTEX
  8
SURFACE
 62
7
  6
CONTINUOUS
 10
262.6100719598
 20
207.5189335491
  0
VERTEX
  8
SURFACE
 62
7
  6
CONTINUOUS
 10
262.7055804087
 20
207.4327658642
  0
VERTEX
  8
SURFACE
 62
7
  6
CONTINUOUS
 10
262.7892375393
 20
207.3350508533
  0
VERTEX
  8
SURFACE
 62
7
  6
CONTINUOUS
 10
262.8596590534
 20
207.2274054464
  0
VERTEX
  8
SURFACE
 62
7
  6
CONTINUOUS
 10
262.9156796927
 20
207.1116109144
  0
VERTEX
  8
SURFACE
 62
7
  6
CONTINUOUS
 10
262.9563725293
 20
206.9895833846
  0
VERTEX
  8
SURFACE
 62
7
  6
CONTINUOUS
 10
262.9810643113
 20
206.8633420959
  0
VERTEX
  8
SURFACE
 62
7
  6
CONTINUOUS
 10
262.9893465895
 20
206.7349760603
  0
SEQEND
  0
LINE
  8
SURFACE
 62
7
  6
CONTINUOUS
 10
187.8940014138
 20
215.3885190176
 11
187.8157592182
 21
215.3876920977
  0
LINE
  8
SURFACE
 62
7
  6
CONTINUOUS
 10
135.1893465974
 20
206.938582784
 11
137.6893465974
 21
206.938582784
  0
LINE
  8
SURFACE
 62
7
  6
CONTINUOUS
 10
144.6893465974
 20
206.938582784
 11
147.1893465974
 21
206.938582784
  0
LINE
  8
SURFACE
 62
7
  6
CONTINUOUS
 10
161.1893465974
 20
206.938582784
 11
163.6893465974
 21
206.938582784
  0
LINE
  8
SURFACE
 62
7
  6
CONTINUOUS
 10
170.6893465974
 20
206.938582784
 11
172.5967108775
 21
206.938582784
  0
LINE
  8
SURFACE
 62
7
  6
CONTINUOUS
 10
198.5819823172
 20
206.938582784
 11
200.4893465974
 21
206.938582784
  0
LINE
  8
SURFACE
 62
7
  6
CONTINUOUS
 10
207.4893465974
 20
206.938582784
 11
209.9893465974
 21
206.938582784
  0
LINE
  8
SURFACE
 62
7
  6
CONTINUOUS
 10
223.9893465974
 20
206.938582784
 11
226.4893465974
 21
206.938582784
  0
LINE
  8
SURFACE
 62
7
  6
CONTINUOUS
 10
233.4893465974
 20
206.938582784
 11
235.9893465974
 21
206.938582784
  0
LINE
  8
SURFACE
 62
7
  6
CONTINUOUS
 10
348.1893465974
 20
207.888582784
 11
339.4893465974
 21
207.888582784
  0
LINE
  8
0
 62
7
  6
CONTINUOUS
 10
31.6893465974
 20
207.888582784
 11
22.9893465974
 21
207.888582784
  0
LINE
  8
DEFAULT_1
 62
7
  6
CENTER
 10
30.2149521524
 20
210.938582784
 11
342.3457306907
 21
210.938582784
  0
LINE
  8
SURFACE
 62
7
  6
CONTINUOUS
 10
320.2084558013
 20
214.938582784
 11
311.4893465974
 21
214.938582784
  0
LINE
  8
SURFACE
 62
7
  6
CONTINUOUS
 10
50.9702373934
 20
214.938582784
 11
59.6893465974
 21
214.938582784
  0
LINE
  8
0
 62
7
  6
CONTINUOUS
 10
50.9702373934
 20
214.938582784
 11
59.6893465974
 21
214.938582784
  0
LINE
  8
SURFACE
 62
7
  6
CONTINUOUS
 10
66.6893465974
 20
214.938582784
 11
72.4215558708
 21
214.938582784
  0
LINE
  8
SURFACE
 62
7
  6
CONTINUOUS
 10
79.9571368571
 20
214.938582784
 11
85.6893465974
 21
214.938582784
  0
LINE
  8
SURFACE
 62
7
  6
CONTINUOUS
 10
92.6893465974
 20
214.938582784
 11
98.4215558708
 21
214.938582784
  0
LINE
  8
SURFACE
 62
7
  6
CONTINUOUS
 10
105.9571368571
 20
214.938582784
 11
111.6893465974
 21
214.938582784
  0
LINE
  8
SURFACE
 62
7
  6
CONTINUOUS
 10
118.6893465974
 20
214.938582784
 11
124.4215558708
 21
214.938582784
  0
LINE
  8
SURFACE
 62
7
  6
CONTINUOUS
 10
131.957136857
 20
214.938582784
 11
137.6893465974
 21
214.938582784
  0
LINE
  8
SURFACE
 62
7
  6
CONTINUOUS
 10
144.6893465974
 20
214.938582784
 11
150.4215558708
 21
214.938582784
  0
LINE
  8
SURFACE
 62
7
  6
CONTINUOUS
 10
157.957136857
 20
214.938582784
 11
163.6893465974
 21
214.938582784
  0
LINE
  8
SURFACE
 62
7
  6
CONTINUOUS
 10
170.6893465974
 20
214.938582784
 11
176.4215363723
 21
214.938582784
  0
LINE
  8
SURFACE
 62
7
  6
CONTINUOUS
 10
194.7571568224
 20
214.938582784
 11
200.4893465974
 21
214.938582784
  0
LINE
  8
SURFACE
 62
7
  6
CONTINUOUS
 10
207.4893465974
 20
214.938582784
 11
213.2215563377
 21
214.938582784
  0
LINE
  8
SURFACE
 62
7
  6
CONTINUOUS
 10
220.7571373239
 20
214.938582784
 11
226.4893465974
 21
214.938582784
  0
LINE
  8
SURFACE
 62
7
  6
CONTINUOUS
 10
233.4893465974
 20
214.938582784
 11
239.2215563377
 21
214.938582784
  0
LINE
  8
SURFACE
 62
7
  6
CONTINUOUS
 10
246.7571373239
 20
214.938582784
 11
252.4893465974
 21
214.938582784
  0
LINE
  8
SURFACE
 62
7
  6
CONTINUOUS
 10
259.4893465974
 20
214.938582784
 11
265.2215563376
 21
214.938582784
  0
LINE
  8
SURFACE
 62
7
  6
CONTINUOUS
 10
272.7571373239
 20
214.938582784
 11
278.4893465974
 21
214.938582784
  0
LINE
  8
SURFACE
 62
7
  6
CONTINUOUS
 10
285.4893465974
 20
214.938582784
 11
291.2215563376
 21
214.938582784
  0
LINE
  8
SURFACE
 62
7
  6
CONTINUOUS
 10
298.7571373239
 20
214.938582784
 11
304.4893465974
 21
214.938582784
  0
LINE
  8
SURFACE
 62
7
  6
CONTINUOUS
 10
183.9393465974
 20
215.3806789936
 11
187.3595013236
 21
215.3810669993
  0
LINE
  8
SURFACE
 62
7
  6
CONTINUOUS
 10
193.4822973725
 20
215.388582784
 11
187.8940014138
 21
215.3885190176
  0
LINE
  8
0
 62
7
  6
CONTINUOUS
 10
156.6822973725
 20
215.388582784
 11
151.6963958222
 21
215.388582784
  0
LINE
  8
0
 62
7
  6
CONTINUOUS
 10
130.6822973725
 20
215.388582784
 11
125.6963958222
 21
215.388582784
  0
LINE
  8
0
 62
7
  6
CONTINUOUS
 10
104.6822973725
 20
215.388582784
 11
99.6963958222
 21
215.388582784
  0
LINE
  8
0
 62
7
  6
CONTINUOUS
 10
78.6822973725
 20
215.388582784
 11
73.6963958222
 21
215.388582784
  0
LINE
  8
0
 62
7
  6
CONTINUOUS
 10
49.5093092418
 20
215.388582784
 11
34.1893465974
 21
215.388582784
  0
LINE
  8
0
 62
7
  6
CONTINUOUS
 10
187.9171186829
 20
215.388582784
 11
193.4822973725
 21
215.388582784
  0
LINE
  8
SURFACE
 62
7
  6
CONTINUOUS
 10
214.4963958222
 20
215.388582784
 11
219.4822973725
 21
215.388582784
  0
LINE
  8
0
 62
7
  6
CONTINUOUS
 10
214.4963958222
 20
215.388582784
 11
219.4822973725
 21
215.388582784
  0
LINE
  8
SURFACE
 62
7
  6
CONTINUOUS
 10
240.4963958222
 20
215.388582784
 11
245.4822973725
 21
215.388582784
  0
LINE
  8
SURFACE
 62
7
  6
CONTINUOUS
 10
266.4963958222
 20
215.388582784
 11
271.4822973725
 21
215.388582784
  0
LINE
  8
0
 62
7
  6
CONTINUOUS
 10
266.4963958222
 20
215.388582784
 11
271.4822973725
 21
215.388582784
  0
LINE
  8
SURFACE
 62
7
  6
CONTINUOUS
 10
292.4963958222
 20
215.388582784
 11
297.4822973725
 21
215.388582784
  0
LINE
  8
0
 62
7
  6
CONTINUOUS
 10
292.4963958222
 20
215.388582784
 11
297.4822973725
 21
215.388582784
  0
LINE
  8
SURFACE
 62
7
  6
CONTINUOUS
 10
321.6693839529
 20
215.388582784
 11
336.9893465974
 21
215.388582784
  0
LINE
  8
0
 62
7
  6
CONTINUOUS
 10
321.6693839529
 20
215.388582784
 11
336.9893465974
 21
215.388582784
  0
POLYLINE
  8
0
 62
7
  6
CONTINUOUS
 66
1
 70
0
  0
VERTEX
  8
0
 62
7
  6
CONTINUOUS
 10
183.9393465974
 20
215.380679033
  0
VERTEX
  8
0
 62
7
  6
CONTINUOUS
 10
183.8191918711
 20
215.3810669993
  0
VERTEX
  8
0
 62
7
  6
CONTINUOUS
 10
183.7225568433
 20
215.3819211909
  0
SEQEND
  0
POLYLINE
  8
0
 62
7
  6
CONTINUOUS
 66
1
 70
0
  0
VERTEX
  8
0
 62
7
  6
CONTINUOUS
 10
183.3629339765
 20
215.3876920977
  0
VERTEX
  8
0
 62
7
  6
CONTINUOUS
 10
183.2846917809
 20
215.3885190176
  0
VERTEX
  8
0
 62
7
  6
CONTINUOUS
 10
177.6963958222
 20
215.388582784
  0
SEQEND
  0
POLYLINE
  8
0
 62
7
  6
CONTINUOUS
 66
1
 70
0
  0
VERTEX
  8
0
 62
7
  6
CONTINUOUS
 10
183.7225568433
 20
215.3819211909
  0
VERTEX
  8
0
 62
7
  6
CONTINUOUS
 10
183.5357572207
 20
215.3846904706
  0
VERTEX
  8
0
 62
7
  6
CONTINUOUS
 10
183.3629339765
 20
215.3876920977
  0
SEQEND
  0
POLYLINE
  8
SURFACE
 62
7
  6
CONTINUOUS
 66
1
 70
0
  0
VERTEX
  8
SURFACE
 62
7
  6
CONTINUOUS
 10
194.7533947825
 20
214.938580831
  0
VERTEX
  8
SURFACE
 62
7
  6
CONTINUOUS
 10
194.6666843949
 20
214.9423473209
  0
VERTEX
  8
SURFACE
 62
7
  6
CONTINUOUS
 10
194.5332190593
 20
214.9631209435
  0
VERTEX
  8
SURFACE
 62
7
  6
CONTINUOUS
 10
194.4037708321
 20
215.0016916002
  0
VERTEX
  8
SURFACE
 62
7
  6
CONTINUOUS
 10
194.2807015015
 20
215.0573555365
  0
VERTEX
  8
SURFACE
 62
7
  6
CONTINUOUS
 10
194.1675070515
 20
215.1281914888
  0
SEQEND
  0
POLYLINE
  8
0
 62
7
  6
CONTINUOUS
 66
1
 70
0
  0
VERTEX
  8
0
 62
7
  6
CONTINUOUS
 10
172.5967168723
 20
206.9385827981
  0
VERTEX
  8
0
 62
7
  6
CONTINUOUS
 10
172.684249161
 20
206.9347444809
  0
VERTEX
  8
0
 62
7
  6
CONTINUOUS
 10
172.8146007451
 20
206.9145574987
  0
VERTEX
  8
0
 62
7
  6
CONTINUOUS
 10
172.9411614179
 20
206.8773894613
  0
VERTEX
  8
0
 62
7
  6
CONTINUOUS
 10
173.0617290853
 20
206.8238870588
  0
VERTEX
  8
0
 62
7
  6
CONTINUOUS
 10
173.1742059351
 20
206.7549812121
  0
VERTEX
  8
0
 62
7
  6
CONTINUOUS
 10
173.2766349447
 20
206.6718708712
  0
VERTEX
  8
0
 62
7
  6
CONTINUOUS
 10
173.367233936
 20
206.5760021521
  0
VERTEX
  8
0
 62
7
  6
CONTINUOUS
 10
173.4444265852
 20
206.4690431792
  0
VERTEX
  8
0
 62
7
  6
CONTINUOUS
 10
173.5068698366
 20
206.3528551114
  0
VERTEX
  8
0
 62
7
  6
CONTINUOUS
 10
173.5534774883
 20
206.2294592159
  0
SEQEND
  0
LINE
  8
SURFACE
 62
7
  6
CONTINUOUS
 10
301.7367540381
 20
195.883687369
 11
301.4039807437
 21
195.9316462395
  0
LINE
  8
SURFACE
 62
7
  6
CONTINUOUS
 10
208.5659071162
 20
197.9062208742
 11
208.6824949448
 21
197.4711091746
  0
LINE
  8
SURFACE
 62
7
  6
CONTINUOUS
 10
209.9893465974
 20
177.691717002
 11
209.9893465974
 21
168.4658964246
  0
LINE
  8
SURFACE
 62
7
  6
CONTINUOUS
 10
210.9893465974
 20
205.6331454306
 11
210.9893465974
 21
211.1143845652
  0
POLYLINE
  8
SURFACE
 62
7
  6
CONTINUOUS
 66
1
 70
0
  0
VERTEX
  8
SURFACE
 62
7
  6
CONTINUOUS
 10
312.2696752426
 20
166.2006870488
  0
VERTEX
  8
SURFACE
 62
7
  6
CONTINUOUS
 10
312.1933648564
 20
166.2353187266
  0
VERTEX
  8
SURFACE
 62
7
  6
CONTINUOUS
 10
312.1078319777
 20
166.2889995204
  0
VERTEX
  8
SURFACE
 62
7
  6
CONTINUOUS
 10
312.0152024396
 20
166.360425212
  0
VERTEX
  8
SURFACE
 62
7
  6
CONTINUOUS
 10
311.9178570125
 20
166.4479150061
  0
VERTEX
  8
SURFACE
 62
7
  6
CONTINUOUS
 10
311.8176714865
 20
166.5489357434
  0
SEQEND
  0
LINE
  8
SURFACE
 62
7
  6
CONTINUOUS
 10
222.9893465974
 20
211.1143845652
 11
222.9893465974
 21
205.6331454306
  0
LINE
  8
SURFACE
 62
7
  6
CONTINUOUS
 10
223.9893465974
 20
168.4658964647
 11
223.9893465974
 21
177.691717002
  0
LINE
  8
SURFACE
 62
7
  6
CONTINUOUS
 10
226.9893465974
 20
214.4385706671
 11
226.9893465974
 21
207.438582784
  0
LINE
  8
SURFACE
 62
7
  6
CONTINUOUS
 10
225.2961982499
 20
197.4711091746
 11
225.4127860785
 21
197.9062208742
  0
POLYLINE
  8
SURFACE
 62
7
  6
CONTINUOUS
 66
1
 70
0
  0
VERTEX
  8
SURFACE
 62
7
  6
CONTINUOUS
 10
291.8111863321
 20
215.128191543
  0
VERTEX
  8
SURFACE
 62
7
  6
CONTINUOUS
 10
291.6979309773
 20
215.0573229253
  0
VERTEX
  8
SURFACE
 62
7
  6
CONTINUOUS
 10
291.5748738257
 20
215.001673473
  0
VERTEX
  8
SURFACE
 62
7
  6
CONTINUOUS
 10
291.4454404002
 20
214.9631133368
  0
VERTEX
  8
SURFACE
 62
7
  6
CONTINUOUS
 10
291.3119916117
 20
214.9423458499
  0
VERTEX
  8
SURFACE
 62
7
  6
CONTINUOUS
 10
291.2252985016
 20
214.9385808645
  0
SEQEND
  0
LINE
  8
SURFACE
 62
7
  6
CONTINUOUS
 10
232.9893465974
 20
207.438582784
 11
232.9893465974
 21
214.438582784
  0
LINE
  8
SURFACE
 62
7
  6
CONTINUOUS
 10
235.9893465974
 20
177.691717002
 11
235.9893465974
 21
168.4658964246
  0
LINE
  8
SURFACE
 62
7
  6
CONTINUOUS
 10
236.9893465974
 20
205.6331454306
 11
236.9893465974
 21
211.1143845652
  0
LINE
  8
SURFACE
 62
7
  6
CONTINUOUS
 10
305.2686753617
 20
164.7345770614
 11
305.2625945743
 21
164.7392619541
  0
LINE
  8
SURFACE
 62
7
  6
CONTINUOUS
 10
305.2625945743
 20
164.7392619541
 11
305.0274672437
 21
164.9324864293
  0
POLYLINE
  8
SURFACE
 62
7
  6
CONTINUOUS
 66
1
 70
0
  0
VERTEX
  8
SURFACE
 62
7
  6
CONTINUOUS
 10
305.0148889323
 20
164.9429794714
  0
VERTEX
  8
SURFACE
 62
7
  6
CONTINUOUS
 10
305.1646612822
 20
164.8180368198
  0
VERTEX
  8
SURFACE
 62
7
  6
CONTINUOUS
 10
305.2795080021
 20
164.7258850694
  0
VERTEX
  8
SURFACE
 62
7
  6
CONTINUOUS
 10
305.3624046791
 20
164.6612737784
  0
VERTEX
  8
SURFACE
 62
7
  6
CONTINUOUS
 10
305.4175566317
 20
164.6191506939
  0
VERTEX
  8
SURFACE
 62
7
  6
CONTINUOUS
 10
305.4589519738
 20
164.5879800316
  0
SEQEND
  0
LINE
  8
SURFACE
 62
7
  6
CONTINUOUS
 10
234.5659071162
 20
197.9062208742
 11
234.6824949448
 21
197.4711091746
  0
LINE
  8
SURFACE
 62
7
  6
CONTINUOUS
 10
248.9893465974
 20
211.1143845652
 11
248.9893465974
 21
205.6331454306
  0
LINE
  8
SURFACE
 62
7
  6
CONTINUOUS
 10
249.9893465974
 20
168.4658964647
 11
249.9893465974
 21
177.691717002
  0
LINE
  8
SURFACE
 62
7
  6
CONTINUOUS
 10
252.9893465974
 20
214.4385706671
 11
252.9893465974
 21
207.7206355829
  0
POLYLINE
  8
SURFACE
 62
7
  6
CONTINUOUS
 66
1
 70
0
  0
VERTEX
  8
SURFACE
 62
7
  6
CONTINUOUS
 10
248.9893466034
 20
206.0825240295
  0
VERTEX
  8
SURFACE
 62
7
  6
CONTINUOUS
 10
248.9978412647
 20
206.2125540349
  0
VERTEX
  8
SURFACE
 62
7
  6
CONTINUOUS
 10
249.0231717161
 20
206.340375778
  0
VERTEX
  8
SURFACE
 62
7
  6
CONTINUOUS
 10
249.0649079194
 20
206.463818758
  0
VERTEX
  8
SURFACE
 62
7
  6
CONTINUOUS
 10
249.122341233
 20
206.5807868291
  0
VERTEX
  8
SURFACE
 62
7
  6
CONTINUOUS
 10
249.194496441
 20
206.6892937861
  0
VERTEX
  8
SURFACE
 62
7
  6
CONTINUOUS
 10
249.2801483183
 20
206.7874971073
  0
VERTEX
  8
SURFACE
 62
7
  6
CONTINUOUS
 10
249.3778424582
 20
206.8737292622
  0
VERTEX
  8
SURFACE
 62
7
  6
CONTINUOUS
 10
249.4859200006
 20
206.9465260283
  0
VERTEX
  8
SURFACE
 62
7
  6
CONTINUOUS
 10
249.6025457808
 20
207.0046513183
  0
VERTEX
  8
SURFACE
 62
7
  6
CONTINUOUS
 10
249.7257394876
 20
207.0471181634
  0
VERTEX
  8
SURFACE
 62
7
  6
CONTINUOUS
 10
249.8534092876
 20
207.0732054725
  0
VERTEX
  8
SURFACE
 62
7
  6
CONTINUOUS
 10
249.9350586527
 20
207.0810133538
  0
SEQEND
  0
LINE
  8
SURFACE
 62
7
  6
CONTINUOUS
 10
251.2961982499
 20
197.4711091746
 11
251.4127860785
 21
197.9062208742
  0
POLYLINE
  8
SURFACE
 62
7
  6
CONTINUOUS
 66
1
 70
0
  0
VERTEX
  8
SURFACE
 62
7
  6
CONTINUOUS
 10
304.6217907202
 20
165.2984828246
  0
VERTEX
  8
SURFACE
 62
7
  6
CONTINUOUS
 10
304.8328306128
 20
165.1024741575
  0
VERTEX
  8
SURFACE
 62
7
  6
CONTINUOUS
 10
305.0148889323
 20
164.9429794714
  0
SEQEND
  0
LINE
  8
SURFACE
 62
7
  6
CONTINUOUS
 10
258.9893465974
 20
208.1012124249
 11
258.9893465974
 21
214.438582784
  0
LINE
  8
SURFACE
 62
7
  6
CONTINUOUS
 10
261.9893465974
 20
177.691717002
 11
261.9893465974
 21
168.4658964647
  0
LINE
  8
SURFACE
 62
7
  6
CONTINUOUS
 10
262.9893465974
 20
205.6331451467
 11
262.9893465974
 21
211.1143845652
  0
LINE
  8
SURFACE
 62
7
  6
CONTINUOUS
 10
260.5659071162
 20
197.9062208742
 11
260.6824949448
 21
197.4711091746
  0
LINE
  8
SURFACE
 62
7
  6
CONTINUOUS
 10
274.9893465974
 20
211.1143845652
 11
274.9893465974
 21
205.6331451448
  0
LINE
  8
SURFACE
 62
7
  6
CONTINUOUS
 10
275.9893465974
 20
168.4659731632
 11
275.9893465974
 21
177.6917052098
  0
POLYLINE
  8
SURFACE
 62
7
  6
CONTINUOUS
 66
1
 70
0
  0
VERTEX
  8
SURFACE
 62
7
  6
CONTINUOUS
 10
274.9893466034
 20
207.4960951571
  0
VERTEX
  8
SURFACE
 62
7
  6
CONTINUOUS
 10
274.9978412647
 20
207.6261251624
  0
VERTEX
  8
SURFACE
 62
7
  6
CONTINUOUS
 10
275.0231717161
 20
207.7539469055
  0
VERTEX
  8
SURFACE
 62
7
  6
CONTINUOUS
 10
275.0649079194
 20
207.8773898855
  0
VERTEX
  8
SURFACE
 62
7
  6
CONTINUOUS
 10
275.122341233
 20
207.9943579566
  0
VERTEX
  8
SURFACE
 62
7
  6
CONTINUOUS
 10
275.194496441
 20
208.1028649136
  0
VERTEX
  8
SURFACE
 62
7
  6
CONTINUOUS
 10
275.2801483183
 20
208.2010682348
  0
VERTEX
  8
SURFACE
 62
7
  6
CONTINUOUS
 10
275.3778424582
 20
208.2873003897
  0
VERTEX
  8
SURFACE
 62
7
  6
CONTINUOUS
 10
275.4859200006
 20
208.3600971559
  0
VERTEX
  8
SURFACE
 62
7
  6
CONTINUOUS
 10
275.6025457808
 20
208.4182224458
  0
VERTEX
  8
SURFACE
 62
7
  6
CONTINUOUS
 10
275.7257394876
 20
208.460689291
  0
VERTEX
  8
SURFACE
 62
7
  6
CONTINUOUS
 10
275.8534092876
 20
208.4867766
  0
VERTEX
  8
SURFACE
 62
7
  6
CONTINUOUS
 10
275.9350586527
 20
208.4945844813
  0
SEQEND
  0
LINE
  8
SURFACE
 62
7
  6
CONTINUOUS
 10
277.2961982499
 20
197.4711091746
 11
277.4127860785
 21
197.9062208742
  0
LINE
  8
SURFACE
 62
7
  6
CONTINUOUS
 10
278.9893465974
 20
214.4385706671
 11
278.9893465974
 21
209.1342067104
  0
LINE
  8
SURFACE
 62
7
  6
CONTINUOUS
 10
284.9893465974
 20
209.5147835524
 11
284.9893465974
 21
214.438582784
  0
LINE
  8
SURFACE
 62
7
  6
CONTINUOUS
 10
310.9638559198
 20
164.9429349139
 11
310.7997241748
 21
164.8064724069
  0
POLYLINE
  8
SURFACE
 62
7
  6
CONTINUOUS
 66
1
 70
0
  0
VERTEX
  8
SURFACE
 62
7
  6
CONTINUOUS
 10
310.5612362881
 20
164.6191475232
  0
VERTEX
  8
SURFACE
 62
7
  6
CONTINUOUS
 10
310.6163733278
 20
164.6612590734
  0
VERTEX
  8
SURFACE
 62
7
  6
CONTINUOUS
 10
310.6992474433
 20
164.7258522025
  0
VERTEX
  8
SURFACE
 62
7
  6
CONTINUOUS
 10
310.8140740905
 20
164.8179864472
  0
SEQEND
  0
LINE
  8
SURFACE
 62
7
  6
CONTINUOUS
 10
310.5198451313
 20
164.5879800316
 11
310.5612362881
 21
164.6191475232
  0
LINE
  8
SURFACE
 62
7
  6
CONTINUOUS
 10
286.5659071162
 20
197.9062208742
 11
286.6824949448
 21
197.4711091746
  0
LINE
  8
SURFACE
 62
7
  6
CONTINUOUS
 10
287.9893465974
 20
177.6917052074
 11
287.9893465974
 21
168.4659658963
  0
LINE
  8
SURFACE
 62
7
  6
CONTINUOUS
 10
288.9893465974
 20
205.6331451468
 11
288.9893465974
 21
211.1143845652
  0
LINE
  8
SURFACE
 62
7
  6
CONTINUOUS
 10
303.9464986933
 20
197.3466490564
 11
304.0845540049
 21
197.8618784935
  0
POLYLINE
  8
SURFACE
 62
7
  6
CONTINUOUS
 66
1
 70
0
  0
VERTEX
  8
SURFACE
 62
7
  6
CONTINUOUS
 10
304.1612707045
 20
166.5488026453
  0
VERTEX
  8
SURFACE
 62
7
  6
CONTINUOUS
 10
304.0618623327
 20
166.4472408864
  0
VERTEX
  8
SURFACE
 62
7
  6
CONTINUOUS
 10
303.9637891438
 20
166.3603180271
  0
VERTEX
  8
SURFACE
 62
7
  6
CONTINUOUS
 10
303.8709461513
 20
166.2890701519
  0
VERTEX
  8
SURFACE
 62
7
  6
CONTINUOUS
 10
303.7853311389
 20
166.235459789
  0
VERTEX
  8
SURFACE
 62
7
  6
CONTINUOUS
 10
303.7089921451
 20
166.2008486796
  0
SEQEND
  0
POLYLINE
  8
SURFACE
 62
7
  6
CONTINUOUS
 66
1
 70
0
  0
VERTEX
  8
SURFACE
 62
7
  6
CONTINUOUS
 10
310.9638559198
 20
164.9429349139
  0
VERTEX
  8
SURFACE
 62
7
  6
CONTINUOUS
 10
311.1459603307
 20
165.1024686128
  0
VERTEX
  8
SURFACE
 62
7
  6
CONTINUOUS
 10
311.3570120853
 20
165.298488288
  0
SEQEND
  0
LINE
  8
SURFACE
 62
7
  6
CONTINUOUS
 10
300.9893465974
 20
211.1143845652
 11
300.9893465974
 21
205.6331693518
  0
LINE
  8
SURFACE
 62
7
  6
CONTINUOUS
 10
301.9893465974
 20
168.4658964647
 11
301.9893465974
 21
177.6917052098
  0
LINE
  8
SURFACE
 62
7
  6
CONTINUOUS
 10
304.9893465974
 20
214.4385716624
 11
304.9893465974
 21
210.5477768632
  0
POLYLINE
  8
SURFACE
 62
7
  6
CONTINUOUS
 66
1
 70
0
  0
VERTEX
  8
SURFACE
 62
7
  6
CONTINUOUS
 10
303.1713620228
 20
167.0100280414
  0
VERTEX
  8
SURFACE
 62
7
  6
CONTINUOUS
 10
303.1684635761
 20
167.0357841062
  0
VERTEX
  8
SURFACE
 62
7
  6
CONTINUOUS
 10
303.1665085444
 20
167.0618335128
  0
VERTEX
  8
SURFACE
 62
7
  6
CONTINUOUS
 10
303.1652516116
 20
167.0881460546
  0
SEQEND
  0
POLYLINE
  8
SURFACE
 62
7
  6
CONTINUOUS
 66
1
 70
0
  0
VERTEX
  8
SURFACE
 62
7
  6
CONTINUOUS
 10
312.8224008829
 20
167.017238225
  0
VERTEX
  8
SURFACE
 62
7
  6
CONTINUOUS
 10
312.8220318367
 20
167.024380658
  0
VERTEX
  8
SURFACE
 62
7
  6
CONTINUOUS
 10
312.8188782635
 20
167.0313970548
  0
VERTEX
  8
SURFACE
 62
7
  6
CONTINUOUS
 10
312.8139908858
 20
167.0384523305
  0
VERTEX
  8
SURFACE
 62
7
  6
CONTINUOUS
 10
312.8078247288
 20
167.0458393891
  0
VERTEX
  8
SURFACE
 62
7
  6
CONTINUOUS
 10
312.8004000611
 20
167.0537441201
  0
VERTEX
  8
SURFACE
 62
7
  6
CONTINUOUS
 10
312.7917323038
 20
167.0621158296
  0
VERTEX
  8
SURFACE
 62
7
  6
CONTINUOUS
 10
312.7818729516
 20
167.0707968068
  0
VERTEX
  8
SURFACE
 62
7
  6
CONTINUOUS
 10
312.7708809382
 20
167.0796147631
  0
VERTEX
  8
SURFACE
 62
7
  6
CONTINUOUS
 10
312.7588251669
 20
167.088401449
  0
VERTEX
  8
SURFACE
 62
7
  6
CONTINUOUS
 10
312.7455727198
 20
167.0971384861
  0
VERTEX
  8
SURFACE
 62
7
  6
CONTINUOUS
 10
312.7307788779
 20
167.1059007055
  0
VERTEX
  8
SURFACE
 62
7
  6
CONTINUOUS
 10
312.7140319143
 20
167.1147194282
  0
VERTEX
  8
SURFACE
 62
7
  6
CONTINUOUS
 10
312.6949087911
 20
167.1235446795
  0
VERTEX
  8
SURFACE
 62
7
  6
CONTINUOUS
 10
312.673002983
 20
167.1322335395
  0
VERTEX
  8
SURFACE
 62
7
  6
CONTINUOUS
 10
312.6479670825
 20
167.1405426179
  0
VERTEX
  8
SURFACE
 62
7
  6
CONTINUOUS
 10
312.6194914835
 20
167.1481725677
  0
VERTEX
  8
SURFACE
 62
7
  6
CONTINUOUS
 10
312.5874006588
 20
167.1547506688
  0
VERTEX
  8
SURFACE
 62
7
  6
CONTINUOUS
 10
312.5516924121
 20
167.1598834096
  0
VERTEX
  8
SURFACE
 62
7
  6
CONTINUOUS
 10
312.5121743439
 20
167.1632213874
  0
VERTEX
  8
SURFACE
 62
7
  6
CONTINUOUS
 10
312.468435806
 20
167.1644196394
  0
SEQEND
  0
LINE
  8
SURFACE
 62
7
  6
CONTINUOUS
 10
310.9893465974
 20
210.9283427021
 11
310.9893465974
 21
214.438582784
  0
LINE
  8
SURFACE
 62
7
  6
CONTINUOUS
 10
313.9893465974
 20
172.0070193023
 11
313.9893465974
 21
168.4658976514
  0
LINE
  8
SURFACE
 62
7
  6
CONTINUOUS
 10
314.9893465974
 20
199.2943810862
 11
314.9893465974
 21
207.1580154693
  0
LINE
  8
SURFACE
 62
7
  6
CONTINUOUS
 10
337.9893465974
 20
214.388582784
 11
337.9893465974
 21
208.5967867165
  0
LINE
  8
SURFACE
 62
7
  6
CONTINUOUS
 10
337.9893465974
 20
195.1803788515
 11
337.9893465974
 21
182.3885833054
  0
LINE
  8
SURFACE
 62
7
  6
CONTINUOUS
 10
350.6893465974
 20
200.3885847192
 11
350.6893465974
 21
205.3885808489
  0
POLYLINE
  8
SURFACE
 62
7
  6
CONTINUOUS
 66
1
 70
0
  0
VERTEX
  8
SURFACE
 62
7
  6
CONTINUOUS
 10
337.9893465974
 20
182.3885833054
  0
VERTEX
  8
SURFACE
 62
7
  6
CONTINUOUS
 10
337.986761286
 20
182.2172830824
  0
VERTEX
  8
SURFACE
 62
7
  6
CONTINUOUS
 10
337.97924568
 20
182.0531960714
  0
VERTEX
  8
SURFACE
 62
7
  6
CONTINUOUS
 10
337.9671130338
 20
181.8956538532
  0
VERTEX
  8
SURFACE
 62
7
  6
CONTINUOUS
 10
337.9506380973
 20
181.7442040583
  0
VERTEX
  8
SURFACE
 62
7
  6
CONTINUOUS
 10
337.9300633676
 20
181.5984472974
  0
VERTEX
  8
SURFACE
 62
7
  6
CONTINUOUS
 10
337.9055798631
 20
181.4579020854
  0
VERTEX
  8
SURFACE
 62
7
  6
CONTINUOUS
 10
337.8773443625
 20
181.3221529049
  0
VERTEX
  8
SURFACE
 62
7
  6
CONTINUOUS
 10
337.8455126233
 20
181.1909449441
  0
VERTEX
  8
SURFACE
 62
7
  6
CONTINUOUS
 10
337.8102200448
 20
181.0640306994
  0
VERTEX
  8
SURFACE
 62
7
  6
CONTINUOUS
 10
337.7715667348
 20
180.9411257394
  0
VERTEX
  8
SURFACE
 62
7
  6
CONTINUOUS
 10
337.7296197113
 20
180.8219379112
  0
VERTEX
  8
SURFACE
 62
7
  6
CONTINUOUS
 10
337.6844131315
 20
180.7061770342
  0
VERTEX
  8
SURFACE
 62
7
  6
CONTINUOUS
 10
337.6359501057
 20
180.5935639137
  0
VERTEX
  8
SURFACE
 62
7
  6
CONTINUOUS
 10
337.5842233276
 20
180.4838736851
  0
VERTEX
  8
SURFACE
 62
7
  6
CONTINUOUS
 10
337.5292131018
 20
180.3769163389
  0
VERTEX
  8
SURFACE
 62
7
  6
CONTINUOUS
 10
337.4708745807
 20
180.2725063208
  0
VERTEX
  8
SURFACE
 62
7
  6
CONTINUOUS
 10
337.4091607216
 20
180.1705018314
  0
VERTEX
  8
SURFACE
 62
7
  6
CONTINUOUS
 10
337.3440305788
 20
180.0708058409
  0
VERTEX
  8
SURFACE
 62
7
  6
CONTINUOUS
 10
337.2754241049
 20
179.973319478
  0
VERTEX
  8
SURFACE
 62
7
  6
CONTINUOUS
 10
337.2032292125
 20
179.8779033158
  0
VERTEX
  8
SURFACE
 62
7
  6
CONTINUOUS
 10
337.1272431803
 20
179.7843481852
  0
VERTEX
  8
SURFACE
 62
7
  6
CONTINUOUS
 10
337.0472383421
 20
179.6924760284
  0
VERTEX
  8
SURFACE
 62
7
  6
CONTINUOUS
 10
336.9630238248
 20
179.6022014323
  0
VERTEX
  8
SURFACE
 62
7
  6
CONTINUOUS
 10
336.8744513821
 20
179.5135146247
  0
VERTEX
  8
SURFACE
 62
7
  6
CONTINUOUS
 10
336.7813710714
 20
179.4264217857
  0
VERTEX
  8
SURFACE
 62
7
  6
CONTINUOUS
 10
336.6835784946
 20
179.3408979425
  0
VERTEX
  8
SURFACE
 62
7
  6
CONTINUOUS
 10
336.5807204931
 20
179.2568250333
  0
VERTEX
  8
SURFACE
 62
7
  6
CONTINUOUS
 10
336.4724034665
 20
179.1741066965
  0
VERTEX
  8
SURFACE
 62
7
  6
CONTINUOUS
 10
336.3582363836
 20
179.0927002373
  0
VERTEX
  8
SURFACE
 62
7
  6
CONTINUOUS
 10
336.2378375997
 20
179.0126131322
  0
VERTEX
  8
SURFACE
 62
7
  6
CONTINUOUS
 10
336.1108382677
 20
178.9338970332
  0
VERTEX
  8
SURFACE
 62
7
  6
CONTINUOUS
 10
335.9769173469
 20
178.8566597444
  0
VERTEX
  8
SURFACE
 62
7
  6
CONTINUOUS
 10
335.8356498054
 20
178.7809734868
  0
VERTEX
  8
SURFACE
 62
7
  6
CONTINUOUS
 10
335.6862401522
 20
178.70676497
  0
VERTEX
  8
SURFACE
 62
7
  6
CONTINUOUS
 10
335.5278593674
 20
178.6340278912
  0
VERTEX
  8
SURFACE
 62
7
  6
CONTINUOUS
 10
335.3598693401
 20
178.562910961
  0
VERTEX
  8
SURFACE
 62
7
  6
CONTINUOUS
 10
335.182377836
 20
178.4938839433
  0
VERTEX
  8
SURFACE
 62
7
  6
CONTINUOUS
 10
334.9942534216
 20
178.4269371668
  0
VERTEX
  8
SURFACE
 62
7
  6
CONTINUOUS
 10
334.7939195519
 20
178.3620247636
  0
VERTEX
  8
SURFACE
 62
7
  6
CONTINUOUS
 10
334.5803331679
 20
178.2993943701
  0
VERTEX
  8
SURFACE
 62
7
  6
CONTINUOUS
 10
334.3537874702
 20
178.2396958098
  0
VERTEX
  8
SURFACE
 62
7
  6
CONTINUOUS
 10
334.1121449256
 20
178.1829532556
  0
VERTEX
  8
SURFACE
 62
7
  6
CONTINUOUS
 10
333.853182455
 20
178.1293572497
  0
VERTEX
  8
SURFACE
 62
7
  6
CONTINUOUS
 10
333.576791912
 20
178.0796277408
  0
VERTEX
  8
SURFACE
 62
7
  6
CONTINUOUS
 10
333.2811701143
 20
178.0341886205
  0
VERTEX
  8
SURFACE
 62
7
  6
CONTINUOUS
 10
332.9639466962
 20
177.9935130369
  0
VERTEX
  8
SURFACE
 62
7
  6
CONTINUOUS
 10
332.6236909992
 20
177.9583198455
  0
VERTEX
  8
SURFACE
 62
7
  6
CONTINUOUS
 10
332.2590966171
 20
177.929392936
  0
VERTEX
  8
SURFACE
 62
7
  6
CONTINUOUS
 10
331.8665326501
 20
177.9074508281
  0
VERTEX
  8
SURFACE
 62
7
  6
CONTINUOUS
 10
331.4446599416
 20
177.893503848
  0
VERTEX
  8
SURFACE
 62
7
  6
CONTINUOUS
 10
330.9893465974
 20
177.888582784
  0
SEQEND
  0
LINE
  8
0
 62
7
  6
CONTINUOUS
 10
20.4893465974
 20
106.6033473108
 11
20.4893465974
 21
107.5033473108
  0
LINE
  8
0
 62
7
  6
CONTINUOUS
 10
33.1893465974
 20
98.5283473108
 11
33.1893465974
 21
115.5783473108
  0
LINE
  8
0
 62
7
  6
CONTINUOUS
 10
46.990747759
 20
115.8371663559
 11
45.3716295097
 21
109.794534786
  0
LINE
  8
0
 62
7
  6
CONTINUOUS
 10
43.0070654321
 20
109.7945282657
 11
41.3879454357
 21
115.8371663559
  0
LINE
  8
0
 62
7
  6
CONTINUOUS
 10
56.1893465974
 20
98.5283473108
 11
56.1893465974
 21
103.6853806732
  0
LINE
  8
0
 62
7
  6
CONTINUOUS
 10
56.1893465974
 20
113.5618762397
 11
56.1893465974
 21
115.5783473108
  0
LINE
  8
0
 62
7
  6
CONTINUOUS
 10
60.1893465974
 20
104.1138159882
 11
60.1893465974
 21
113.0616345823
  0
POLYLINE
  8
0
 62
7
  6
CONTINUOUS
 66
1
 70
0
  0
VERTEX
  8
0
 62
7
  6
CONTINUOUS
 10
70.1893471328
 20
99.3660721929
  0
VERTEX
  8
0
 62
7
  6
CONTINUOUS
 10
70.1920197596
 20
99.2878832262
  0
VERTEX
  8
0
 62
7
  6
CONTINUOUS
 10
70.2120746542
 20
99.139025823
  0
VERTEX
  8
0
 62
7
  6
CONTINUOUS
 10
70.2514497927
 20
98.9936508418
  0
VERTEX
  8
0
 62
7
  6
CONTINUOUS
 10
70.3098034052
 20
98.853331055
  0
VERTEX
  8
0
 62
7
  6
CONTINUOUS
 10
70.386522938
 20
98.7199940785
  0
VERTEX
  8
0
 62
7
  6
CONTINUOUS
 10
70.4806495703
 20
98.5954879228
  0
VERTEX
  8
0
 62
7
  6
CONTINUOUS
 10
70.590699179
 20
98.4814975372
  0
VERTEX
  8
0
 62
7
  6
CONTINUOUS
 10
70.714070065
 20
98.3796580239
  0
VERTEX
  8
0
 62
7
  6
CONTINUOUS
 10
70.8483609239
 20
98.2901903395
  0
VERTEX
  8
0
 62
7
  6
CONTINUOUS
 10
70.9926711956
 20
98.2118345163
  0
VERTEX
  8
0
 62
7
  6
CONTINUOUS
 10
71.1471935604
 20
98.1429572108
  0
VERTEX
  8
0
 62
7
  6
CONTINUOUS
 10
71.3133760583
 20
98.0818908889
  0
VERTEX
  8
0
 62
7
  6
CONTINUOUS
 10
71.4928964334
 20
98.0275038263
  0
VERTEX
  8
0
 62
7
  6
CONTINUOUS
 10
71.6868453677
 20
97.9793016063
  0
VERTEX
  8
0
 62
7
  6
CONTINUOUS
 10
71.8631051602
 20
97.9431871533
  0
SEQEND
  0
LINE
  8
0
 62
7
  6
CONTINUOUS
 10
66.1893465974
 20
110.1183277381
 11
66.1893465974
 21
103.9883277988
  0
LINE
  8
0
 62
7
  6
CONTINUOUS
 10
70.1893465974
 20
115.5783473108
 11
70.1893465974
 21
111.2411228334
  0
LINE
  8
0
 62
7
  6
CONTINUOUS
 10
70.1893465974
 20
102.8655284768
 11
70.1893465974
 21
99.3660205437
  0
LINE
  8
0
 62
7
  6
CONTINUOUS
 10
70.189353351
 20
100.8358448555
 11
70.1893465974
 21
100.8347077336
  0
POLYLINE
  8
0
 62
7
  6
CONTINUOUS
 66
1
 70
0
  0
VERTEX
  8
0
 62
7
  6
CONTINUOUS
 10
70.192493685
 20
111.257210211
  0
VERTEX
  8
0
 62
7
  6
CONTINUOUS
 10
70.1909074843
 20
111.2480109508
  0
VERTEX
  8
0
 62
7
  6
CONTINUOUS
 10
70.1861835443
 20
111.2271644354
  0
VERTEX
  8
0
 62
7
  6
CONTINUOUS
 10
70.1766534152
 20
111.194629751
  0
VERTEX
  8
0
 62
7
  6
CONTINUOUS
 10
70.1607443095
 20
111.1517964143
  0
VERTEX
  8
0
 62
7
  6
CONTINUOUS
 10
70.1372285719
 20
111.1010351859
  0
VERTEX
  8
0
 62
7
  6
CONTINUOUS
 10
70.104983096
 20
111.0445352444
  0
VERTEX
  8
0
 62
7
  6
CONTINUOUS
 10
70.0632112693
 20
110.9846929658
  0
VERTEX
  8
0
 62
7
  6
CONTINUOUS
 10
70.0115641805
 20
110.9240691507
  0
VERTEX
  8
0
 62
7
  6
CONTINUOUS
 10
69.9498811624
 20
110.8649623202
  0
VERTEX
  8
0
 62
7
  6
CONTINUOUS
 10
69.8767590475
 20
110.8085434901
  0
VERTEX
  8
0
 62
7
  6
CONTINUOUS
 10
69.791004305
 20
110.7568413231
  0
VERTEX
  8
0
 62
7
  6
CONTINUOUS
 10
69.6946949702
 20
110.7137881986
  0
VERTEX
  8
0
 62
7
  6
CONTINUOUS
 10
69.5921616788
 20
110.6828350142
  0
VERTEX
  8
0
 62
7
  6
CONTINUOUS
 10
69.4890085314
 20
110.6657499963
  0
VERTEX
  8
0
 62
7
  6
CONTINUOUS
 10
69.423899105
 20
110.6619982197
  0
SEQEND
  0
LINE
  8
0
 62
7
  6
CONTINUOUS
 10
70.1913285864
 20
102.8564371696
 11
70.1924924757
 21
102.8494684805
  0
POLYLINE
  8
0
 62
7
  6
CONTINUOUS
 66
1
 70
0
  0
VERTEX
  8
0
 62
7
  6
CONTINUOUS
 10
82.1909377316
 20
111.5871593633
  0
VERTEX
  8
0
 62
7
  6
CONTINUOUS
 10
82.1895588041
 20
111.6088054692
  0
VERTEX
  8
0
 62
7
  6
CONTINUOUS
 10
82.189412855
 20
111.6135653806
  0
SEQEND
  0
LINE
  8
0
 62
7
  6
CONTINUOUS
 10
82.1893465974
 20
100.8347077336
 11
82.1893398437
 21
100.8358448555
  0
LINE
  8
0
 62
7
  6
CONTINUOUS
 10
82.1893575537
 20
111.6167798671
 11
82.1893465975
 21
111.618942267
  0
LINE
  8
0
 62
7
  6
CONTINUOUS
 10
82.1893465974
 20
99.366014058
 11
82.1893465974
 21
102.4877478734
  0
LINE
  8
0
 62
7
  6
CONTINUOUS
 10
82.1893465974
 20
111.6189467815
 11
82.1893465974
 21
115.5783473108
  0
LINE
  8
0
 62
7
  6
CONTINUOUS
 10
86.1893465974
 20
103.8033473108
 11
86.1893465974
 21
110.3033473108
  0
LINE
  8
0
 62
7
  6
CONTINUOUS
 10
82.1893465974
 20
102.4877523689
 11
82.189365406
 21
102.4906019233
  0
LINE
  8
0
 62
7
  6
CONTINUOUS
 10
82.1894119209
 20
102.4930796365
 11
82.1895846248
 21
102.4985397036
  0
LINE
  8
0
 62
7
  6
CONTINUOUS
 10
82.1895846248
 20
102.4985397036
 11
82.1910201405
 21
102.5204750943
  0
POLYLINE
  8
0
 62
7
  6
CONTINUOUS
 66
1
 70
0
  0
VERTEX
  8
0
 62
7
  6
CONTINUOUS
 10
82.1910201405
 20
102.5204750943
  0
VERTEX
  8
0
 62
7
  6
CONTINUOUS
 10
82.1949541608
 20
102.553811971
  0
VERTEX
  8
0
 62
7
  6
CONTINUOUS
 10
82.2028480574
 20
102.5978050064
  0
VERTEX
  8
0
 62
7
  6
CONTINUOUS
 10
82.2159315132
 20
102.6502252559
  0
VERTEX
  8
0
 62
7
  6
CONTINUOUS
 10
82.2353424862
 20
102.7092807326
  0
VERTEX
  8
0
 62
7
  6
CONTINUOUS
 10
82.2620844874
 20
102.7732550407
  0
VERTEX
  8
0
 62
7
  6
CONTINUOUS
 10
82.2968190531
 20
102.8401215027
  0
VERTEX
  8
0
 62
7
  6
CONTINUOUS
 10
82.3399097971
 20
102.9078914418
  0
VERTEX
  8
0
 62
7
  6
CONTINUOUS
 10
82.3920408946
 20
102.9753977634
  0
VERTEX
  8
0
 62
7
  6
CONTINUOUS
 10
82.4538207087
 20
103.0412964478
  0
VERTEX
  8
0
 62
7
  6
CONTINUOUS
 10
82.5256518686
 20
103.1039769153
  0
VERTEX
  8
0
 62
7
  6
CONTINUOUS
 10
82.6075297109
 20
103.1615216766
  0
VERTEX
  8
0
 62
7
  6
CONTINUOUS
 10
82.6990801544
 20
103.2119078666
  0
VERTEX
  8
0
 62
7
  6
CONTINUOUS
 10
82.7995094036
 20
103.2530856163
  0
VERTEX
  8
0
 62
7
  6
CONTINUOUS
 10
82.9075429329
 20
103.2830649735
  0
VERTEX
  8
0
 62
7
  6
CONTINUOUS
 10
83.0211696529
 20
103.3000122981
  0
SEQEND
  0
LINE
  8
0
 62
7
  6
CONTINUOUS
 10
33.1893465974
 20
110.2761217412
 11
33.180811696
 21
110.2683312805
  0
LINE
  8
0
 62
7
  6
CONTINUOUS
 10
33.180811696
 20
110.2683312805
 11
33.139757942
 21
110.2352711535
  0
POLYLINE
  8
0
 62
7
  6
CONTINUOUS
 66
1
 70
0
  0
VERTEX
  8
0
 62
7
  6
CONTINUOUS
 10
33.1392999462
 20
103.8717690321
  0
VERTEX
  8
0
 62
7
  6
CONTINUOUS
 10
33.1804383437
 20
103.8386849947
  0
VERTEX
  8
0
 62
7
  6
CONTINUOUS
 10
33.1893465974
 20
103.8305649813
  0
SEQEND
  0
POLYLINE
  8
0
 62
7
  6
CONTINUOUS
 66
1
 70
0
  0
VERTEX
  8
0
 62
7
  6
CONTINUOUS
 10
96.1812446032
 20
102.4374241414
  0
VERTEX
  8
0
 62
7
  6
CONTINUOUS
 10
96.1887897345
 20
102.3450059535
  0
VERTEX
  8
0
 62
7
  6
CONTINUOUS
 10
96.1893462717
 20
102.312226668
  0
SEQEND
  0
POLYLINE
  8
0
 62
7
  6
CONTINUOUS
 66
1
 70
0
  0
VERTEX
  8
0
 62
7
  6
CONTINUOUS
 10
96.1893466063
 20
99.3660532144
  0
VERTEX
  8
0
 62
7
  6
CONTINUOUS
 10
96.1941428963
 20
99.2613733435
  0
VERTEX
  8
0
 62
7
  6
CONTINUOUS
 10
96.2186578291
 20
99.1085586046
  0
VERTEX
  8
0
 62
7
  6
CONTINUOUS
 10
96.2640022646
 20
98.9587507275
  0
VERTEX
  8
0
 62
7
  6
CONTINUOUS
 10
96.3299964418
 20
98.8142305447
  0
VERTEX
  8
0
 62
7
  6
CONTINUOUS
 10
96.4160018195
 20
98.6774547183
  0
VERTEX
  8
0
 62
7
  6
CONTINUOUS
 10
96.5205207312
 20
98.5510346312
  0
VERTEX
  8
0
 62
7
  6
CONTINUOUS
 10
96.6417218853
 20
98.4366312759
  0
VERTEX
  8
0
 62
7
  6
CONTINUOUS
 10
96.7777521921
 20
98.3348954812
  0
VERTEX
  8
0
 62
7
  6
CONTINUOUS
 10
96.9268383917
 20
98.2456413772
  0
VERTEX
  8
0
 62
7
  6
CONTINUOUS
 10
97.0886594181
 20
98.1674916439
  0
VERTEX
  8
0
 62
7
  6
CONTINUOUS
 10
97.2645238344
 20
98.0986471661
  0
VERTEX
  8
0
 62
7
  6
CONTINUOUS
 10
97.4567216799
 20
98.03763291
  0
VERTEX
  8
0
 62
7
  6
CONTINUOUS
 10
97.6670167219
 20
97.9837946502
  0
VERTEX
  8
0
 62
7
  6
CONTINUOUS
 10
97.8630979591
 20
97.9431882242
  0
SEQEND
  0
LINE
  8
0
 62
7
  6
CONTINUOUS
 10
92.1893465974
 20
110.3033473108
 11
92.1893465974
 21
103.8033473108
  0
LINE
  8
0
 62
7
  6
CONTINUOUS
 10
96.1893465974
 20
115.5783473108
 11
96.1893465974
 21
111.7944928216
  0
LINE
  8
0
 62
7
  6
CONTINUOUS
 10
96.1893465974
 20
102.31220215
 11
96.1893465974
 21
99.3660140574
  0
LINE
  8
0
 62
7
  6
CONTINUOUS
 10
96.189353351
 20
100.8358448555
 11
96.1893465974
 21
100.8347077336
  0
LINE
  8
0
 62
7
  6
CONTINUOUS
 10
96.1893463871
 20
111.7944615885
 11
96.1887184344
 21
111.7596457411
  0
LINE
  8
0
 62
7
  6
CONTINUOUS
 10
96.1887184344
 20
111.7596457411
 11
96.1809134077
 21
111.6667393646
  0
POLYLINE
  8
0
 62
7
  6
CONTINUOUS
 66
1
 70
0
  0
VERTEX
  8
0
 62
7
  6
CONTINUOUS
 10
96.1809134077
 20
111.6667393646
  0
VERTEX
  8
0
 62
7
  6
CONTINUOUS
 10
96.1629726037
 20
111.5691778186
  0
VERTEX
  8
0
 62
7
  6
CONTINUOUS
 10
96.1332190943
 20
111.4678377822
  0
VERTEX
  8
0
 62
7
  6
CONTINUOUS
 10
96.089462666
 20
111.3632065093
  0
VERTEX
  8
0
 62
7
  6
CONTINUOUS
 10
96.0292652515
 20
111.2567801109
  0
VERTEX
  8
0
 62
7
  6
CONTINUOUS
 10
95.9522319412
 20
111.1535351056
  0
VERTEX
  8
0
 62
7
  6
CONTINUOUS
 10
95.8612126354
 20
111.0599184631
  0
VERTEX
  8
0
 62
7
  6
CONTINUOUS
 10
95.7594404592
 20
110.97949347
  0
VERTEX
  8
0
 62
7
  6
CONTINUOUS
 10
95.6486941112
 20
110.9132780565
  0
VERTEX
  8
0
 62
7
  6
CONTINUOUS
 10
95.530635786
 20
110.8620352503
  0
VERTEX
  8
0
 62
7
  6
CONTINUOUS
 10
95.4069385345
 20
110.8264268729
  0
SEQEND
  0
POLYLINE
  8
0
 62
7
  6
CONTINUOUS
 66
1
 70
0
  0
VERTEX
  8
0
 62
7
  6
CONTINUOUS
 10
33.139757942
 20
110.2352711535
  0
VERTEX
  8
0
 62
7
  6
CONTINUOUS
 10
33.0841742946
 20
110.1963674368
  0
VERTEX
  8
0
 62
7
  6
CONTINUOUS
 10
33.0113746921
 20
110.1530941384
  0
VERTEX
  8
0
 62
7
  6
CONTINUOUS
 10
32.9193245857
 20
110.108269153
  0
VERTEX
  8
0
 62
7
  6
CONTINUOUS
 10
32.8077580771
 20
110.0661658449
  0
SEQEND
  0
POLYLINE
  8
0
 62
7
  6
CONTINUOUS
 66
1
 70
0
  0
VERTEX
  8
0
 62
7
  6
CONTINUOUS
 10
33.866898058
 20
116.3218425961
  0
VERTEX
  8
0
 62
7
  6
CONTINUOUS
 10
33.7381712145
 20
116.2390261188
  0
VERTEX
  8
0
 62
7
  6
CONTINUOUS
 10
33.5948476603
 20
116.120102099
  0
VERTEX
  8
0
 62
7
  6
CONTINUOUS
 10
33.4718222112
 20
115.9855760901
  0
VERTEX
  8
0
 62
7
  6
CONTINUOUS
 10
33.3697768739
 20
115.8369877151
  0
VERTEX
  8
0
 62
7
  6
CONTINUOUS
 10
33.2893593943
 20
115.6754582379
  0
VERTEX
  8
0
 62
7
  6
CONTINUOUS
 10
33.2316281716
 20
115.5021426031
  0
VERTEX
  8
0
 62
7
  6
CONTINUOUS
 10
33.1979830603
 20
115.3186023987
  0
VERTEX
  8
0
 62
7
  6
CONTINUOUS
 10
33.1893466595
 20
115.1634779162
  0
SEQEND
  0
LINE
  8
0
 62
7
  6
CONTINUOUS
 10
96.1634185292
 20
102.5356223756
 11
96.1812446032
 21
102.4374241414
  0
LINE
  8
0
 62
7
  6
CONTINUOUS
 10
108.1893465974
 20
100.8347077336
 11
108.1893398437
 21
100.8358448555
  0
LINE
  8
0
 62
7
  6
CONTINUOUS
 10
108.1893465974
 20
115.5783473108
 11
108.1893465974
 21
111.8033473108
  0
LINE
  8
0
 62
7
  6
CONTINUOUS
 10
108.1893465974
 20
99.3660140579
 11
108.1893465974
 21
102.3033473108
  0
LINE
  8
0
 62
7
  6
CONTINUOUS
 10
54.9637022959
 20
103.7104410894
 11
54.9627150546
 21
103.7096018598
  0
LINE
  8
0
 62
7
  6
CONTINUOUS
 10
33.8671751064
 20
116.3220009541
 11
33.866898058
 21
116.3218425961
  0
LINE
  8
0
 62
7
  6
CONTINUOUS
 10
112.1893465974
 20
103.8033473108
 11
112.1893465974
 21
110.3033473108
  0
LINE
  8
0
 62
7
  6
CONTINUOUS
 10
113.5271125294
 20
116.3783473108
 11
113.5271125294
 21
116.5783473108
  0
LINE
  8
0
 62
7
  6
CONTINUOUS
 10
116.1893465974
 20
116.3783473108
 11
116.1893465974
 21
116.5783473108
  0
LINE
  8
0
 62
7
  6
CONTINUOUS
 10
116.4393465974
 20
116.3783473108
 11
116.4393465974
 21
116.5783473108
  0
LINE
  8
0
 62
7
  6
CONTINUOUS
 10
118.1893465974
 20
110.3033473108
 11
118.1893465974
 21
103.8033473108
  0
POLYLINE
  8
0
 62
7
  6
CONTINUOUS
 66
1
 70
0
  0
VERTEX
  8
0
 62
7
  6
CONTINUOUS
 10
54.9627150546
 20
103.7096018598
  0
VERTEX
  8
0
 62
7
  6
CONTINUOUS
 10
54.964293736
 20
103.7105788017
  0
VERTEX
  8
0
 62
7
  6
CONTINUOUS
 10
54.964822795
 20
103.7108410286
  0
SEQEND
  0
LINE
  8
0
 62
7
  6
CONTINUOUS
 10
55.4246398919
 20
113.5713595297
 11
55.4249432842
 21
113.5711633733
  0
LINE
  8
0
 62
7
  6
CONTINUOUS
 10
55.4246407125
 20
113.5713607957
 11
55.4215279295
 21
113.5735523871
  0
LINE
  8
0
 62
7
  6
CONTINUOUS
 10
122.1893465974
 20
115.5783473108
 11
122.1893465974
 21
111.8033473108
  0
LINE
  8
0
 62
7
  6
CONTINUOUS
 10
122.1893465974
 20
102.3033473108
 11
122.1893465974
 21
98.5283473108
  0
LINE
  8
0
 62
7
  6
CONTINUOUS
 10
55.4404480637
 20
113.5618762397
 11
55.4249432842
 21
113.5711633733
  0
LINE
  8
0
 62
7
  6
CONTINUOUS
 10
134.1893465974
 20
98.5283473108
 11
134.1893465974
 21
102.3033473108
  0
LINE
  8
0
 62
7
  6
CONTINUOUS
 10
134.1893465974
 20
111.8033473108
 11
134.1893465974
 21
115.5783473108
  0
LINE
  8
0
 62
7
  6
CONTINUOUS
 10
138.1893465974
 20
103.8033473108
 11
138.1893465974
 21
110.3033473108
  0
LINE
  8
0
 62
7
  6
CONTINUOUS
 10
72.8529696546
 20
97.6888835244
 11
73.0550592342
 21
97.623339461
  0
LINE
  8
0
 62
7
  6
CONTINUOUS
 10
144.1893465974
 20
110.3033473108
 11
144.1893465974
 21
103.8033473108
  0
LINE
  8
0
 62
7
  6
CONTINUOUS
 10
148.1893465974
 20
115.5783473108
 11
148.1893465974
 21
111.8033473108
  0
LINE
  8
0
 62
7
  6
CONTINUOUS
 10
148.1893465974
 20
102.3033473108
 11
148.1893465974
 21
98.5283473108
  0
LINE
  8
SURFACE
 62
7
  6
CONTINUOUS
 10
338.373305122
 20
104.0412926157
 11
338.5041903206
 21
104.0757773897
  0
POLYLINE
  8
SURFACE
 62
7
  6
CONTINUOUS
 66
1
 70
0
  0
VERTEX
  8
SURFACE
 62
7
  6
CONTINUOUS
 10
297.8960733649
 20
97.5677607525
  0
VERTEX
  8
SURFACE
 62
7
  6
CONTINUOUS
 10
298.1236339605
 20
97.623339461
  0
VERTEX
  8
SURFACE
 62
7
  6
CONTINUOUS
 10
298.3257235401
 20
97.6888835244
  0
SEQEND
  0
POLYLINE
  8
SURFACE
 62
7
  6
CONTINUOUS
 66
1
 70
0
  0
VERTEX
  8
SURFACE
 62
7
  6
CONTINUOUS
 10
299.3155880331
 20
97.9431871531
  0
VERTEX
  8
SURFACE
 62
7
  6
CONTINUOUS
 10
299.4916745552
 20
97.9792627513
  0
VERTEX
  8
SURFACE
 62
7
  6
CONTINUOUS
 10
299.6854951916
 20
98.0274210101
  0
VERTEX
  8
SURFACE
 62
7
  6
CONTINUOUS
 10
299.8649276288
 20
98.0817609485
  0
VERTEX
  8
SURFACE
 62
7
  6
CONTINUOUS
 10
300.0310560983
 20
98.1427778908
  0
VERTEX
  8
SURFACE
 62
7
  6
CONTINUOUS
 10
300.1855523823
 20
98.2116038994
  0
VERTEX
  8
SURFACE
 62
7
  6
CONTINUOUS
 10
300.3298623436
 20
98.2899083467
  0
VERTEX
  8
SURFACE
 62
7
  6
CONTINUOUS
 10
300.4641812731
 20
98.3793312183
  0
VERTEX
  8
SURFACE
 62
7
  6
CONTINUOUS
 10
300.5876154421
 20
98.4811484436
  0
VERTEX
  8
SURFACE
 62
7
  6
CONTINUOUS
 10
300.697758653
 20
98.5951554235
  0
VERTEX
  8
SURFACE
 62
7
  6
CONTINUOUS
 10
300.7919772018
 20
98.7197028013
  0
VERTEX
  8
SURFACE
 62
7
  6
CONTINUOUS
 10
300.8687628553
 20
98.8530738531
  0
VERTEX
  8
SURFACE
 62
7
  6
CONTINUOUS
 10
300.927169053
 20
98.9934334197
  0
VERTEX
  8
SURFACE
 62
7
  6
CONTINUOUS
 10
300.9665846705
 20
99.1388582271
  0
VERTEX
  8
SURFACE
 62
7
  6
CONTINUOUS
 10
300.9866666718
 20
99.2877845143
  0
VERTEX
  8
SURFACE
 62
7
  6
CONTINUOUS
 10
300.9893460619
 20
99.3660722548
  0
SEQEND
  0
POLYLINE
  8
0
 62
7
  6
CONTINUOUS
 66
1
 70
0
  0
VERTEX
  8
0
 62
7
  6
CONTINUOUS
 10
72.0785702315
 20
97.900388147
  0
VERTEX
  8
0
 62
7
  6
CONTINUOUS
 10
72.3136894288
 20
97.8470771425
  0
VERTEX
  8
0
 62
7
  6
CONTINUOUS
 10
72.525571738
 20
97.7919171034
  0
VERTEX
  8
0
 62
7
  6
CONTINUOUS
 10
72.7135287208
 20
97.7359143019
  0
VERTEX
  8
0
 62
7
  6
CONTINUOUS
 10
72.8529733581
 20
97.6888819941
  0
SEQEND
  0
POLYLINE
  8
0
 62
7
  6
CONTINUOUS
 66
1
 70
0
  0
VERTEX
  8
0
 62
7
  6
CONTINUOUS
 10
73.0550592342
 20
97.623339461
  0
VERTEX
  8
0
 62
7
  6
CONTINUOUS
 10
73.2826198298
 20
97.5677607525
  0
VERTEX
  8
0
 62
7
  6
CONTINUOUS
 10
73.5016848685
 20
97.5360196964
  0
VERTEX
  8
0
 62
7
  6
CONTINUOUS
 10
73.6675408584
 20
97.5283480679
  0
SEQEND
  0
POLYLINE
  8
0
 62
7
  6
CONTINUOUS
 66
1
 70
0
  0
VERTEX
  8
0
 62
7
  6
CONTINUOUS
 10
32.6770269903
 20
104.0752499442
  0
VERTEX
  8
0
 62
7
  6
CONTINUOUS
 10
32.8073692281
 20
104.0406544581
  0
VERTEX
  8
0
 62
7
  6
CONTINUOUS
 10
32.9188779005
 20
103.9986193313
  0
VERTEX
  8
0
 62
7
  6
CONTINUOUS
 10
33.0108894832
 20
103.9538638906
  0
VERTEX
  8
0
 62
7
  6
CONTINUOUS
 10
33.0836768375
 20
103.9106502176
  0
VERTEX
  8
0
 62
7
  6
CONTINUOUS
 10
33.1392999462
 20
103.8717690321
  0
SEQEND
  0
LINE
  8
0
 62
7
  6
CONTINUOUS
 10
98.8529687192
 20
97.6888836873
 11
99.0550501646
 21
97.6233417993
  0
LINE
  8
0
 62
7
  6
CONTINUOUS
 10
160.1893465974
 20
115.5783473108
 11
160.1893465974
 21
111.8033473108
  0
LINE
  8
0
 62
7
  6
CONTINUOUS
 10
160.1893465974
 20
98.5283473108
 11
160.1893465974
 21
102.3033473108
  0
LINE
  8
0
 62
7
  6
CONTINUOUS
 10
164.1893465974
 20
103.8033473108
 11
164.1893465974
 21
110.3033473108
  0
POLYLINE
  8
0
 62
7
  6
CONTINUOUS
 66
1
 70
0
  0
VERTEX
  8
0
 62
7
  6
CONTINUOUS
 10
79.5257225384
 20
97.6888829987
  0
VERTEX
  8
0
 62
7
  6
CONTINUOUS
 10
79.6627566643
 20
97.7351458001
  0
VERTEX
  8
0
 62
7
  6
CONTINUOUS
 10
79.8504614642
 20
97.7911749354
  0
VERTEX
  8
0
 62
7
  6
CONTINUOUS
 10
80.0620831023
 20
97.8463660885
  0
VERTEX
  8
0
 62
7
  6
CONTINUOUS
 10
80.2969280248
 20
97.8997124623
  0
SEQEND
  0
POLYLINE
  8
SURFACE
 62
7
  6
CONTINUOUS
 66
1
 70
0
  0
VERTEX
  8
SURFACE
 62
7
  6
CONTINUOUS
 10
271.8960676746
 20
97.5677602793
  0
VERTEX
  8
SURFACE
 62
7
  6
CONTINUOUS
 10
272.1236430302
 20
97.6233417993
  0
VERTEX
  8
SURFACE
 62
7
  6
CONTINUOUS
 10
272.3257244755
 20
97.6888836873
  0
SEQEND
  0
POLYLINE
  8
SURFACE
 62
7
  6
CONTINUOUS
 66
1
 70
0
  0
VERTEX
  8
SURFACE
 62
7
  6
CONTINUOUS
 10
273.3155951358
 20
97.9431882056
  0
VERTEX
  8
SURFACE
 62
7
  6
CONTINUOUS
 10
273.5118398555
 20
97.9838320572
  0
VERTEX
  8
SURFACE
 62
7
  6
CONTINUOUS
 10
273.7222885777
 20
98.0377234244
  0
VERTEX
  8
SURFACE
 62
7
  6
CONTINUOUS
 10
273.914634715
 20
98.0988112763
  0
VERTEX
  8
SURFACE
 62
7
  6
CONTINUOUS
 10
274.090649426
 20
98.167759196
  0
VERTEX
  8
SURFACE
 62
7
  6
CONTINUOUS
 10
274.2526300596
 20
98.2460578091
  0
VERTEX
  8
SURFACE
 62
7
  6
CONTINUOUS
 10
274.4018831393
 20
98.3355251849
  0
VERTEX
  8
SURFACE
 62
7
  6
CONTINUOUS
 10
274.5380764594
 20
98.4375588933
  0
VERTEX
  8
SURFACE
 62
7
  6
CONTINUOUS
 10
274.6594019501
 20
98.552346569
  0
VERTEX
  8
SURFACE
 62
7
  6
CONTINUOUS
 10
274.7639571814
 20
98.6792060081
  0
VERTEX
  8
SURFACE
 62
7
  6
CONTINUOUS
 10
274.8499025997
 20
98.8164697874
  0
VERTEX
  8
SURFACE
 62
7
  6
CONTINUOUS
 10
274.9157302098
 20
98.9615130946
  0
VERTEX
  8
SURFACE
 62
7
  6
CONTINUOUS
 10
274.960791652
 20
99.1118644091
  0
VERTEX
  8
SURFACE
 62
7
  6
CONTINUOUS
 10
274.984898286
 20
99.2652340683
  0
VERTEX
  8
SURFACE
 62
7
  6
CONTINUOUS
 10
274.9893465879
 20
99.3660545801
  0
SEQEND
  0
LINE
  8
SURFACE
 62
7
  6
CONTINUOUS
 10
299.1001229632
 20
97.900388147
 11
299.3156082815
 21
97.9431906352
  0
LINE
  8
SURFACE
 62
7
  6
CONTINUOUS
 10
273.1002248973
 20
97.9004096784
 11
273.3156081291
 21
97.9431906036
  0
POLYLINE
  8
SURFACE
 62
7
  6
CONTINUOUS
 66
1
 70
0
  0
VERTEX
  8
SURFACE
 62
7
  6
CONTINUOUS
 10
338.5041903206
 20
104.0757773897
  0
VERTEX
  8
SURFACE
 62
7
  6
CONTINUOUS
 10
338.6526588577
 20
104.0978624078
  0
VERTEX
  8
SURFACE
 62
7
  6
CONTINUOUS
 10
338.7736651701
 20
104.1033474234
  0
SEQEND
  0
LINE
  8
0
 62
7
  6
CONTINUOUS
 10
71.8630849132
 20
97.9431906352
 11
72.0785702315
 21
97.900388147
  0
LINE
  8
0
 62
7
  6
CONTINUOUS
 10
97.8630850656
 20
97.9431906036
 11
98.0784682974
 21
97.9004096784
  0
POLYLINE
  8
0
 62
7
  6
CONTINUOUS
 66
1
 70
0
  0
VERTEX
  8
0
 62
7
  6
CONTINUOUS
 10
98.0784682974
 20
97.9004096784
  0
VERTEX
  8
0
 62
7
  6
CONTINUOUS
 10
98.3135547254
 20
97.8471099053
  0
VERTEX
  8
0
 62
7
  6
CONTINUOUS
 10
98.5254537909
 20
97.7919499815
  0
VERTEX
  8
0
 62
7
  6
CONTINUOUS
 10
98.7134677344
 20
97.7359337552
  0
VERTEX
  8
0
 62
7
  6
CONTINUOUS
 10
98.8529723718
 20
97.6888823859
  0
SEQEND
  0
POLYLINE
  8
0
 62
7
  6
CONTINUOUS
 66
1
 70
0
  0
VERTEX
  8
0
 62
7
  6
CONTINUOUS
 10
99.0550501646
 20
97.6233417993
  0
VERTEX
  8
0
 62
7
  6
CONTINUOUS
 10
99.2826255201
 20
97.5677602793
  0
VERTEX
  8
0
 62
7
  6
CONTINUOUS
 10
99.5016861184
 20
97.5360158816
  0
VERTEX
  8
0
 62
7
  6
CONTINUOUS
 10
99.6675294925
 20
97.5283473615
  0
SEQEND
  0
POLYLINE
  8
0
 62
7
  6
CONTINUOUS
 66
1
 70
0
  0
VERTEX
  8
0
 62
7
  6
CONTINUOUS
 10
173.2393466425
 20
98.870733415
  0
VERTEX
  8
0
 62
7
  6
CONTINUOUS
 10
173.2440683345
 20
98.7508156406
  0
VERTEX
  8
0
 62
7
  6
CONTINUOUS
 10
173.2702169275
 20
98.5703228486
  0
VERTEX
  8
0
 62
7
  6
CONTINUOUS
 10
173.318974728
 20
98.3984324398
  0
VERTEX
  8
0
 62
7
  6
CONTINUOUS
 10
173.3895079346
 20
98.2372561465
  0
VERTEX
  8
0
 62
7
  6
CONTINUOUS
 10
173.4809565174
 20
98.0883069238
  0
VERTEX
  8
0
 62
7
  6
CONTINUOUS
 10
173.5925894556
 20
97.9530521029
  0
VERTEX
  8
0
 62
7
  6
CONTINUOUS
 10
173.7236325185
 20
97.8332494601
  0
VERTEX
  8
0
 62
7
  6
CONTINUOUS
 10
173.8713696601
 20
97.7319147129
  0
VERTEX
  8
0
 62
7
  6
CONTINUOUS
 10
174.0312331698
 20
97.6515627462
  0
VERTEX
  8
0
 62
7
  6
CONTINUOUS
 10
174.1986977593
 20
97.5927091495
  0
VERTEX
  8
0
 62
7
  6
CONTINUOUS
 10
174.3701877039
 20
97.5541553083
  0
VERTEX
  8
0
 62
7
  6
CONTINUOUS
 10
174.5438933718
 20
97.5336015173
  0
VERTEX
  8
0
 62
7
  6
CONTINUOUS
 10
174.6960749997
 20
97.5283473139
  0
SEQEND
  0
LINE
  8
0
 62
7
  6
CONTINUOUS
 10
170.1893465974
 20
110.3033473108
 11
170.1893465974
 21
103.8033473108
  0
LINE
  8
0
 62
7
  6
CONTINUOUS
 10
173.2393465974
 20
115.2361691658
 11
173.2393465974
 21
111.4455871148
  0
LINE
  8
0
 62
7
  6
CONTINUOUS
 10
173.2393465974
 20
102.7685250558
 11
173.2393465974
 21
98.8707558165
  0
LINE
  8
0
 62
7
  6
CONTINUOUS
 10
173.2469916297
 20
111.4801567183
 11
173.2469799503
 21
111.480083038
  0
POLYLINE
  8
0
 62
7
  6
CONTINUOUS
 66
1
 70
0
  0
VERTEX
  8
0
 62
7
  6
CONTINUOUS
 10
173.2468719747
 20
111.4794179733
  0
VERTEX
  8
0
 62
7
  6
CONTINUOUS
 10
173.2445305028
 20
111.4671331391
  0
VERTEX
  8
0
 62
7
  6
CONTINUOUS
 10
173.2385689455
 20
111.4423549369
  0
VERTEX
  8
0
 62
7
  6
CONTINUOUS
 10
173.2273119361
 20
111.4051189743
  0
VERTEX
  8
0
 62
7
  6
CONTINUOUS
 10
173.2090552946
 20
111.3566541356
  0
VERTEX
  8
0
 62
7
  6
CONTINUOUS
 10
173.1821374216
 20
111.2988378536
  0
VERTEX
  8
0
 62
7
  6
CONTINUOUS
 10
173.1451717746
 20
111.2341956278
  0
VERTEX
  8
0
 62
7
  6
CONTINUOUS
 10
173.0970931511
 20
111.1655146271
  0
VERTEX
  8
0
 62
7
  6
CONTINUOUS
 10
173.0373166671
 20
111.0957978413
  0
VERTEX
  8
0
 62
7
  6
CONTINUOUS
 10
172.9657970992
 20
111.0280802914
  0
VERTEX
  8
0
 62
7
  6
CONTINUOUS
 10
172.8825108718
 20
110.9649123963
  0
VERTEX
  8
0
 62
7
  6
CONTINUOUS
 10
172.7876507582
 20
110.9087591978
  0
VERTEX
  8
0
 62
7
  6
CONTINUOUS
 10
172.6818449674
 20
110.8621507105
  0
VERTEX
  8
0
 62
7
  6
CONTINUOUS
 10
172.5661391225
 20
110.8275930555
  0
VERTEX
  8
0
 62
7
  6
CONTINUOUS
 10
172.4420884743
 20
110.807530861
  0
VERTEX
  8
0
 62
7
  6
CONTINUOUS
 10
172.3532486686
 20
110.8033472042
  0
SEQEND
  0
POLYLINE
  8
0
 62
7
  6
CONTINUOUS
 66
1
 70
0
  0
VERTEX
  8
0
 62
7
  6
CONTINUOUS
 10
105.5257225384
 20
97.6888829987
  0
VERTEX
  8
0
 62
7
  6
CONTINUOUS
 10
105.6627566343
 20
97.7351457905
  0
VERTEX
  8
0
 62
7
  6
CONTINUOUS
 10
105.8504614138
 20
97.7911749214
  0
VERTEX
  8
0
 62
7
  6
CONTINUOUS
 10
106.0620830469
 20
97.846366075
  0
VERTEX
  8
0
 62
7
  6
CONTINUOUS
 10
106.2969279851
 20
97.8997124539
  0
SEQEND
  0
LINE
  8
SURFACE
 62
7
  6
CONTINUOUS
 10
275.7773459636
 20
103.2814758306
 11
275.9043088866
 21
103.3000788089
  0
POLYLINE
  8
SURFACE
 62
7
  6
CONTINUOUS
 66
1
 70
0
  0
VERTEX
  8
SURFACE
 62
7
  6
CONTINUOUS
 10
297.5111523363
 20
97.5283480679
  0
VERTEX
  8
SURFACE
 62
7
  6
CONTINUOUS
 10
297.6770083262
 20
97.5360196964
  0
VERTEX
  8
SURFACE
 62
7
  6
CONTINUOUS
 10
297.8960733649
 20
97.5677607525
  0
SEQEND
  0
POLYLINE
  8
SURFACE
 62
7
  6
CONTINUOUS
 66
1
 70
0
  0
VERTEX
  8
SURFACE
 62
7
  6
CONTINUOUS
 10
271.5111637022
 20
97.5283473615
  0
VERTEX
  8
SURFACE
 62
7
  6
CONTINUOUS
 10
271.6770070763
 20
97.5360158816
  0
VERTEX
  8
SURFACE
 62
7
  6
CONTINUOUS
 10
271.8960676746
 20
97.5677602793
  0
SEQEND
  0
POLYLINE
  8
SURFACE
 62
7
  6
CONTINUOUS
 66
1
 70
0
  0
VERTEX
  8
SURFACE
 62
7
  6
CONTINUOUS
 10
196.4826183733
 20
97.5283473139
  0
VERTEX
  8
SURFACE
 62
7
  6
CONTINUOUS
 10
196.635131973
 20
97.5336251729
  0
VERTEX
  8
SURFACE
 62
7
  6
CONTINUOUS
 10
196.8091735887
 20
97.5542680792
  0
VERTEX
  8
SURFACE
 62
7
  6
CONTINUOUS
 10
196.9810025772
 20
97.5929962734
  0
VERTEX
  8
SURFACE
 62
7
  6
CONTINUOUS
 10
197.1487906456
 20
97.6521264321
  0
VERTEX
  8
SURFACE
 62
7
  6
CONTINUOUS
 10
197.30892842
 20
97.732861927
  0
VERTEX
  8
SURFACE
 62
7
  6
CONTINUOUS
 10
197.4568597271
 20
97.8346793823
  0
VERTEX
  8
SURFACE
 62
7
  6
CONTINUOUS
 10
197.5879881484
 20
97.9550395996
  0
VERTEX
  8
SURFACE
 62
7
  6
CONTINUOUS
 10
197.6995714147
 20
98.0908832169
  0
VERTEX
  8
SURFACE
 62
7
  6
CONTINUOUS
 10
197.7908482072
 20
98.240450631
  0
VERTEX
  8
SURFACE
 62
7
  6
CONTINUOUS
 10
197.8610939325
 20
98.4022885015
  0
VERTEX
  8
SURFACE
 62
7
  6
CONTINUOUS
 10
197.9094406456
 20
98.5748954607
  0
VERTEX
  8
SURFACE
 62
7
  6
CONTINUOUS
 10
197.9350419422
 20
98.7561624323
  0
VERTEX
  8
SURFACE
 62
7
  6
CONTINUOUS
 10
197.9393465496
 20
98.8707394167
  0
SEQEND
  0
POLYLINE
  8
0
 62
7
  6
CONTINUOUS
 66
1
 70
0
  0
VERTEX
  8
0
 62
7
  6
CONTINUOUS
 10
32.4050268149
 20
104.1033474233
  0
VERTEX
  8
0
 62
7
  6
CONTINUOUS
 10
32.5290901391
 20
104.0975807819
  0
VERTEX
  8
0
 62
7
  6
CONTINUOUS
 10
32.6770269903
 20
104.0752499442
  0
SEQEND
  0
POLYLINE
  8
0
 62
7
  6
CONTINUOUS
 66
1
 70
0
  0
VERTEX
  8
0
 62
7
  6
CONTINUOUS
 10
69.4239057344
 20
103.4446737897
  0
VERTEX
  8
0
 62
7
  6
CONTINUOUS
 10
69.4921586957
 20
103.4406024177
  0
VERTEX
  8
0
 62
7
  6
CONTINUOUS
 10
69.5967660946
 20
103.4227522287
  0
VERTEX
  8
0
 62
7
  6
CONTINUOUS
 10
69.6993107508
 20
103.3911434647
  0
VERTEX
  8
0
 62
7
  6
CONTINUOUS
 10
69.7947986704
 20
103.3478273747
  0
VERTEX
  8
0
 62
7
  6
CONTINUOUS
 10
69.879580901
 20
103.2961801897
  0
VERTEX
  8
0
 62
7
  6
CONTINUOUS
 10
69.9519489784
 20
103.2399166426
  0
VERTEX
  8
0
 62
7
  6
CONTINUOUS
 10
70.0130734383
 20
103.1809928434
  0
VERTEX
  8
0
 62
7
  6
CONTINUOUS
 10
70.0643715319
 20
103.1204666012
  0
VERTEX
  8
0
 62
7
  6
CONTINUOUS
 10
70.1059025624
 20
103.0606722428
  0
VERTEX
  8
0
 62
7
  6
CONTINUOUS
 10
70.1379393198
 20
103.0042465287
  0
VERTEX
  8
0
 62
7
  6
CONTINUOUS
 10
70.161250077
 20
102.9536478905
  0
VERTEX
  8
0
 62
7
  6
CONTINUOUS
 10
70.1769899
 20
102.9110119631
  0
VERTEX
  8
0
 62
7
  6
CONTINUOUS
 10
70.1863911871
 20
102.878689183
  0
VERTEX
  8
0
 62
7
  6
CONTINUOUS
 10
70.1910184228
 20
102.8580836886
  0
VERTEX
  8
0
 62
7
  6
CONTINUOUS
 10
70.1913285864
 20
102.8564371696
  0
SEQEND
  0
POLYLINE
  8
0
 62
7
  6
CONTINUOUS
 66
1
 70
0
  0
VERTEX
  8
0
 62
7
  6
CONTINUOUS
 10
95.2786675795
 20
103.2997216258
  0
VERTEX
  8
0
 62
7
  6
CONTINUOUS
 10
95.4062374259
 20
103.2804210672
  0
VERTEX
  8
0
 62
7
  6
CONTINUOUS
 10
95.5302042849
 20
103.2448143066
  0
VERTEX
  8
0
 62
7
  6
CONTINUOUS
 10
95.6485660884
 20
103.1934822781
  0
VERTEX
  8
0
 62
7
  6
CONTINUOUS
 10
95.7594056744
 20
103.1272251516
  0
VERTEX
  8
0
 62
7
  6
CONTINUOUS
 10
95.8608995293
 20
103.0470584368
  0
VERTEX
  8
0
 62
7
  6
CONTINUOUS
 10
95.9512709408
 20
102.9542855149
  0
VERTEX
  8
0
 62
7
  6
CONTINUOUS
 10
96.0279660427
 20
102.8519085364
  0
VERTEX
  8
0
 62
7
  6
CONTINUOUS
 10
96.0887842176
 20
102.7448783732
  0
VERTEX
  8
0
 62
7
  6
CONTINUOUS
 10
96.1333498883
 20
102.6384856561
  0
VERTEX
  8
0
 62
7
  6
CONTINUOUS
 10
96.1634185292
 20
102.5356223756
  0
SEQEND
  0
POLYLINE
  8
0
 62
7
  6
CONTINUOUS
 66
1
 70
0
  0
VERTEX
  8
0
 62
7
  6
CONTINUOUS
 10
83.0124359969
 20
110.8074729345
  0
VERTEX
  8
0
 62
7
  6
CONTINUOUS
 10
82.8906923338
 20
110.8273908231
  0
VERTEX
  8
0
 62
7
  6
CONTINUOUS
 10
82.7756786888
 20
110.8621606617
  0
VERTEX
  8
0
 62
7
  6
CONTINUOUS
 10
82.6697841764
 20
110.9094752766
  0
VERTEX
  8
0
 62
7
  6
CONTINUOUS
 10
82.5744474635
 20
110.9668560764
  0
VERTEX
  8
0
 62
7
  6
CONTINUOUS
 10
82.4905007797
 20
111.0317716766
  0
VERTEX
  8
0
 62
7
  6
CONTINUOUS
 10
82.4182505127
 20
111.101749684
  0
VERTEX
  8
0
 62
7
  6
CONTINUOUS
 10
82.3575318516
 20
111.1744972547
  0
VERTEX
  8
0
 62
7
  6
CONTINUOUS
 10
82.307807512
 20
111.2479772005
  0
VERTEX
  8
0
 62
7
  6
CONTINUOUS
 10
82.2683060265
 20
111.3203775314
  0
VERTEX
  8
0
 62
7
  6
CONTINUOUS
 10
82.2383462437
 20
111.3894413292
  0
VERTEX
  8
0
 62
7
  6
CONTINUOUS
 10
82.2170319255
 20
111.4526661912
  0
VERTEX
  8
0
 62
7
  6
CONTINUOUS
 10
82.2030395548
 20
111.5079868831
  0
VERTEX
  8
0
 62
7
  6
CONTINUOUS
 10
82.1948828828
 20
111.5533763906
  0
VERTEX
  8
0
 62
7
  6
CONTINUOUS
 10
82.1909377316
 20
111.5871593633
  0
SEQEND
  0
LINE
  8
0
 62
7
  6
CONTINUOUS
 10
173.24544518
 20
102.6350847938
 11
173.2469858015
 21
102.6265695348
  0
LINE
  8
0
 62
7
  6
CONTINUOUS
 10
183.6393465974
 20
112.4099846779
 11
183.6393465974
 21
107.3533470851
  0
LINE
  8
DEFAULT_1
 62
7
  6
CENTER
 10
185.5893465974
 20
95.5283470494
 11
185.5893465974
 21
118.5783745116
  0
POLYLINE
  8
0
 62
7
  6
CONTINUOUS
 66
1
 70
0
  0
VERTEX
  8
0
 62
7
  6
CONTINUOUS
 10
67.9335198975
 20
99.3283473113
  0
VERTEX
  8
0
 62
7
  6
CONTINUOUS
 10
68.0782286816
 20
99.3350391925
  0
VERTEX
  8
0
 62
7
  6
CONTINUOUS
 10
68.2236053842
 20
99.3542436654
  0
VERTEX
  8
0
 62
7
  6
CONTINUOUS
 10
68.3745148286
 20
99.3861744895
  0
VERTEX
  8
0
 62
7
  6
CONTINUOUS
 10
68.5338998133
 20
99.4321251232
  0
VERTEX
  8
0
 62
7
  6
CONTINUOUS
 10
68.7012706022
 20
99.4929059886
  0
VERTEX
  8
0
 62
7
  6
CONTINUOUS
 10
68.8753335274
 20
99.568635908
  0
VERTEX
  8
0
 62
7
  6
CONTINUOUS
 10
69.0547516659
 20
99.658638854
  0
VERTEX
  8
0
 62
7
  6
CONTINUOUS
 10
69.2384617666
 20
99.7613061177
  0
SEQEND
  0
POLYLINE
  8
0
 62
7
  6
CONTINUOUS
 66
1
 70
0
  0
VERTEX
  8
0
 62
7
  6
CONTINUOUS
 10
104.7111784304
 20
97.5283473763
  0
VERTEX
  8
0
 62
7
  6
CONTINUOUS
 10
104.8732438
 20
97.5356779444
  0
VERTEX
  8
0
 62
7
  6
CONTINUOUS
 10
105.0925940756
 20
97.5670807505
  0
SEQEND
  0
POLYLINE
  8
0
 62
7
  6
CONTINUOUS
 66
1
 70
0
  0
VERTEX
  8
0
 62
7
  6
CONTINUOUS
 10
78.7111784304
 20
97.5283473763
  0
VERTEX
  8
0
 62
7
  6
CONTINUOUS
 10
78.8732438
 20
97.5356779444
  0
VERTEX
  8
0
 62
7
  6
CONTINUOUS
 10
79.0925940756
 20
97.5670807505
  0
SEQEND
  0
LINE
  8
0
 62
7
  6
CONTINUOUS
 10
83.0211696529
 20
103.3000122981
 11
83.056352523
 21
103.3015223914
  0
LINE
  8
SURFACE
 62
7
  6
CONTINUOUS
 10
288.1544745279
 20
110.8064253588
 11
288.122346704
 21
110.8051002439
  0
POLYLINE
  8
SURFACE
 62
7
  6
CONTINUOUS
 66
1
 70
0
  0
VERTEX
  8
SURFACE
 62
7
  6
CONTINUOUS
 10
311.4990636748
 20
103.613906101
  0
VERTEX
  8
SURFACE
 62
7
  6
CONTINUOUS
 10
312.4637963391
 20
103.6328693157
  0
VERTEX
  8
SURFACE
 62
7
  6
CONTINUOUS
 10
316.2448263214
 20
103.7114846656
  0
SEQEND
  0
LINE
  8
SURFACE
 62
7
  6
CONTINUOUS
 10
301.7548839011
 20
103.4446752794
 11
304.4975829464
 21
103.488395628
  0
LINE
  8
0
 62
7
  6
CONTINUOUS
 10
34.1893465974
 20
97.5283473108
 11
196.4826089593
 21
97.5283473108
  0
LINE
  8
SURFACE
 62
7
  6
CONTINUOUS
 10
196.482619685
 20
97.5283473108
 11
336.9893465974
 21
97.5283473108
  0
LINE
  8
SURFACE
 62
7
  6
CONTINUOUS
 10
312.9893167028
 20
99.3283473108
 11
303.2451719674
 21
99.3283473108
  0
LINE
  8
SURFACE
 62
7
  6
CONTINUOUS
 10
286.7993697175
 20
99.3283473108
 11
277.1793249314
 21
99.3283473108
  0
LINE
  8
SURFACE
 62
7
  6
CONTINUOUS
 10
260.7993697175
 20
99.3283473108
 11
251.1793249314
 21
99.3283473108
  0
LINE
  8
SURFACE
 62
7
  6
CONTINUOUS
 10
234.7993697175
 20
99.3283473108
 11
225.1793249314
 21
99.3283473108
  0
LINE
  8
SURFACE
 62
7
  6
CONTINUOUS
 10
208.7993697175
 20
99.3283473108
 11
199.1793249301
 21
99.3283473108
  0
LINE
  8
0
 62
7
  6
CONTINUOUS
 10
58.1893764919
 20
99.3283473108
 11
67.9335212273
 21
99.3283473108
  0
LINE
  8
0
 62
7
  6
CONTINUOUS
 10
84.3793234772
 20
99.3283473108
 11
93.9993682633
 21
99.3283473108
  0
LINE
  8
0
 62
7
  6
CONTINUOUS
 10
110.3793234772
 20
99.3283473108
 11
119.9993682633
 21
99.3283473108
  0
LINE
  8
0
 62
7
  6
CONTINUOUS
 10
136.3793234772
 20
99.3283473108
 11
145.9993682633
 21
99.3283473108
  0
LINE
  8
0
 62
7
  6
CONTINUOUS
 10
162.3793234772
 20
99.3283473108
 11
171.9993682647
 21
99.3283473108
  0
LINE
  8
0
 62
7
  6
CONTINUOUS
 10
34.1893465974
 20
100.0783473108
 11
55.1893465974
 21
100.0783473108
  0
LINE
  8
SURFACE
 62
7
  6
CONTINUOUS
 10
315.9893465974
 20
100.0783473108
 11
336.9893465974
 21
100.0783473108
  0
LINE
  8
SURFACE
 62
7
  6
CONTINUOUS
 10
288.1224189995
 20
103.3033473108
 11
285.4893465974
 21
103.3033473108
  0
LINE
  8
SURFACE
 62
7
  6
CONTINUOUS
 10
278.4893465974
 20
103.3033473108
 11
275.8562744855
 21
103.3033473108
  0
LINE
  8
SURFACE
 62
7
  6
CONTINUOUS
 10
262.122418608
 20
103.3033473108
 11
259.4893465974
 21
103.3033473108
  0
LINE
  8
SURFACE
 62
7
  6
CONTINUOUS
 10
252.4893465974
 20
103.3033473108
 11
249.8562745824
 21
103.3033473108
  0
LINE
  8
SURFACE
 62
7
  6
CONTINUOUS
 10
236.122418608
 20
103.3033473108
 11
233.4893465974
 21
103.3033473108
  0
LINE
  8
SURFACE
 62
7
  6
CONTINUOUS
 10
226.4893465974
 20
103.3033473108
 11
223.8562745824
 21
103.3033473108
  0
LINE
  8
SURFACE
 62
7
  6
CONTINUOUS
 10
210.1224186081
 20
103.3033473108
 11
207.4893465974
 21
103.3033473108
  0
LINE
  8
SURFACE
 62
7
  6
CONTINUOUS
 10
200.4893465974
 20
103.3033473108
 11
198.0420665549
 21
103.3033473108
  0
LINE
  8
0
 62
7
  6
CONTINUOUS
 10
83.0562741952
 20
103.3033473108
 11
85.6893465974
 21
103.3033473108
  0
LINE
  8
0
 62
7
  6
CONTINUOUS
 10
92.6893465974
 20
103.3033473108
 11
95.3224187092
 21
103.3033473108
  0
LINE
  8
0
 62
7
  6
CONTINUOUS
 10
109.0562745867
 20
103.3033473108
 11
111.6893465974
 21
103.3033473108
  0
LINE
  8
0
 62
7
  6
CONTINUOUS
 10
118.6893465974
 20
103.3033473108
 11
121.3224186123
 21
103.3033473108
  0
LINE
  8
0
 62
7
  6
CONTINUOUS
 10
135.0562745867
 20
103.3033473108
 11
137.6893465974
 21
103.3033473108
  0
LINE
  8
0
 62
7
  6
CONTINUOUS
 10
144.6893465974
 20
103.3033473108
 11
147.3224186123
 21
103.3033473108
  0
LINE
  8
0
 62
7
  6
CONTINUOUS
 10
161.0562745866
 20
103.3033473108
 11
163.6893465974
 21
103.3033473108
  0
LINE
  8
0
 62
7
  6
CONTINUOUS
 10
170.6893465974
 20
103.3033473108
 11
173.1366266398
 21
103.3033473108
  0
LINE
  8
SURFACE
 62
7
  6
CONTINUOUS
 10
348.1893465974
 20
104.1033473108
 11
338.7736905823
 21
104.1033473108
  0
LINE
  8
0
 62
7
  6
CONTINUOUS
 10
32.4050026125
 20
104.1033473108
 11
22.9893465974
 21
104.1033473108
  0
LINE
  8
DEFAULT_1
 62
7
  6
CENTER
 10
16.528309628
 20
106.8533473108
 11
355.3945568928
 21
106.8533473108
  0
LINE
  8
SURFACE
 62
7
  6
CONTINUOUS
 10
183.9393465974
 20
107.0533473108
 11
187.2393465974
 21
107.0533473108
  0
LINE
  8
0
 62
7
  6
CONTINUOUS
 10
183.9393434933
 20
107.0533473108
 11
187.2393497014
 21
107.0533473108
  0
LINE
  8
0
 62
7
  6
CONTINUOUS
 10
66.6811102483
 20
103.488395628
 11
69.4238092936
 21
103.4446752794
  0
POLYLINE
  8
0
 62
7
  6
CONTINUOUS
 66
1
 70
0
  0
VERTEX
  8
0
 62
7
  6
CONTINUOUS
 10
54.9338668733
 20
103.7114846656
  0
VERTEX
  8
0
 62
7
  6
CONTINUOUS
 10
58.7148968556
 20
103.6328693157
  0
VERTEX
  8
0
 62
7
  6
CONTINUOUS
 10
59.67962952
 20
103.613906101
  0
SEQEND
  0
POLYLINE
  8
0
 62
7
  6
CONTINUOUS
 66
1
 70
0
  0
VERTEX
  8
0
 62
7
  6
CONTINUOUS
 10
172.3532451621
 20
103.3033473699
  0
VERTEX
  8
0
 62
7
  6
CONTINUOUS
 10
172.4346849474
 20
103.2998327585
  0
VERTEX
  8
0
 62
7
  6
CONTINUOUS
 10
172.5520760892
 20
103.2822316511
  0
VERTEX
  8
0
 62
7
  6
CONTINUOUS
 10
172.6622241036
 20
103.2515490115
  0
VERTEX
  8
0
 62
7
  6
CONTINUOUS
 10
172.7637852012
 20
103.2098174181
  0
VERTEX
  8
0
 62
7
  6
CONTINUOUS
 10
172.8558484617
 20
103.1591039331
  0
VERTEX
  8
0
 62
7
  6
CONTINUOUS
 10
172.9378069006
 20
103.1015040495
  0
VERTEX
  8
0
 62
7
  6
CONTINUOUS
 10
173.0094058285
 20
103.0390645388
  0
VERTEX
  8
0
 62
7
  6
CONTINUOUS
 10
173.0706468959
 20
102.9737973295
  0
VERTEX
  8
0
 62
7
  6
CONTINUOUS
 10
173.1214747558
 20
102.9080846538
  0
VERTEX
  8
0
 62
7
  6
CONTINUOUS
 10
173.1620763002
 20
102.8445569332
  0
VERTEX
  8
0
 62
7
  6
CONTINUOUS
 10
173.1931179638
 20
102.7857003711
  0
VERTEX
  8
0
 62
7
  6
CONTINUOUS
 10
173.2156102982
 20
102.7338033893
  0
VERTEX
  8
0
 62
7
  6
CONTINUOUS
 10
173.2308269369
 20
102.6908021176
  0
VERTEX
  8
0
 62
7
  6
CONTINUOUS
 10
173.2401775368
 20
102.6581795617
  0
VERTEX
  8
0
 62
7
  6
CONTINUOUS
 10
173.2451072619
 20
102.6367731416
  0
VERTEX
  8
0
 62
7
  6
CONTINUOUS
 10
173.24544518
 20
102.6350847938
  0
SEQEND
  0
LINE
  8
SURFACE
 62
7
  6
CONTINUOUS
 10
288.1223315502
 20
103.3014194617
 11
288.1619387311
 21
103.2996228375
  0
POLYLINE
  8
SURFACE
 62
7
  6
CONTINUOUS
 66
1
 70
0
  0
VERTEX
  8
SURFACE
 62
7
  6
CONTINUOUS
 10
303.2451732972
 20
99.3283473113
  0
VERTEX
  8
SURFACE
 62
7
  6
CONTINUOUS
 10
303.1004645131
 20
99.3350391925
  0
VERTEX
  8
SURFACE
 62
7
  6
CONTINUOUS
 10
302.9550878105
 20
99.3542436654
  0
VERTEX
  8
SURFACE
 62
7
  6
CONTINUOUS
 10
302.8041783661
 20
99.3861744895
  0
VERTEX
  8
SURFACE
 62
7
  6
CONTINUOUS
 10
302.6447933814
 20
99.4321251232
  0
VERTEX
  8
SURFACE
 62
7
  6
CONTINUOUS
 10
302.4774225925
 20
99.4929059886
  0
VERTEX
  8
SURFACE
 62
7
  6
CONTINUOUS
 10
302.3033596673
 20
99.568635908
  0
VERTEX
  8
SURFACE
 62
7
  6
CONTINUOUS
 10
302.1239415288
 20
99.658638854
  0
VERTEX
  8
SURFACE
 62
7
  6
CONTINUOUS
 10
301.9402314281
 20
99.7613061177
  0
SEQEND
  0
LINE
  8
0
 62
7
  6
CONTINUOUS
 10
83.056371015
 20
110.8053752142
 11
83.0124359969
 21
110.8074729345
  0
LINE
  8
SURFACE
 62
7
  6
CONTINUOUS
 10
187.5393465974
 20
112.4099846779
 11
187.5393465974
 21
107.3533470851
  0
LINE
  8
SURFACE
 62
7
  6
CONTINUOUS
 10
197.9393465973
 20
98.8705251478
 11
197.9393465974
 21
102.6610952428
  0
LINE
  8
SURFACE
 62
7
  6
CONTINUOUS
 10
197.9393465974
 20
111.3380603619
 11
197.9393465974
 21
115.2359394398
  0
POLYLINE
  8
0
 62
7
  6
CONTINUOUS
 66
1
 70
0
  0
VERTEX
  8
0
 62
7
  6
CONTINUOUS
 10
105.0925940756
 20
97.5670807505
  0
VERTEX
  8
0
 62
7
  6
CONTINUOUS
 10
105.3204223537
 20
97.6224123527
  0
VERTEX
  8
0
 62
7
  6
CONTINUOUS
 10
105.5257222998
 20
97.6888829134
  0
SEQEND
  0
POLYLINE
  8
0
 62
7
  6
CONTINUOUS
 66
1
 70
0
  0
VERTEX
  8
0
 62
7
  6
CONTINUOUS
 10
106.5155940043
 20
97.9431879945
  0
VERTEX
  8
0
 62
7
  6
CONTINUOUS
 10
106.70910515
 20
97.9832067721
  0
VERTEX
  8
0
 62
7
  6
CONTINUOUS
 10
106.9197491997
 20
98.0369993478
  0
VERTEX
  8
0
 62
7
  6
CONTINUOUS
 10
107.1122482082
 20
98.0979705789
  0
VERTEX
  8
0
 62
7
  6
CONTINUOUS
 10
107.2883720781
 20
98.1667705156
  0
VERTEX
  8
0
 62
7
  6
CONTINUOUS
 10
107.4504218845
 20
98.2448728525
  0
VERTEX
  8
0
 62
7
  6
CONTINUOUS
 10
107.5997200559
 20
98.3340808015
  0
VERTEX
  8
0
 62
7
  6
CONTINUOUS
 10
107.7359674604
 20
98.4357902896
  0
VERTEX
  8
0
 62
7
  6
CONTINUOUS
 10
107.8573988075
 20
98.5502109013
  0
VERTEX
  8
0
 62
7
  6
CONTINUOUS
 10
107.9621432737
 20
98.6766983649
  0
VERTEX
  8
0
 62
7
  6
CONTINUOUS
 10
108.048352347
 20
98.8135930609
  0
VERTEX
  8
0
 62
7
  6
CONTINUOUS
 10
108.1145092836
 20
98.9582700738
  0
VERTEX
  8
0
 62
7
  6
CONTINUOUS
 10
108.1599644681
 20
99.1082509774
  0
VERTEX
  8
0
 62
7
  6
CONTINUOUS
 10
108.1845374001
 20
99.2612329972
  0
VERTEX
  8
0
 62
7
  6
CONTINUOUS
 10
108.1893465884
 20
99.3660533342
  0
SEQEND
  0
POLYLINE
  8
0
 62
7
  6
CONTINUOUS
 66
1
 70
0
  0
VERTEX
  8
0
 62
7
  6
CONTINUOUS
 10
80.5155940043
 20
97.9431879945
  0
VERTEX
  8
0
 62
7
  6
CONTINUOUS
 10
80.7091051508
 20
97.9832067723
  0
VERTEX
  8
0
 62
7
  6
CONTINUOUS
 10
80.9197492012
 20
98.0369993482
  0
VERTEX
  8
0
 62
7
  6
CONTINUOUS
 10
81.1122482097
 20
98.0979705794
  0
VERTEX
  8
0
 62
7
  6
CONTINUOUS
 10
81.2883720797
 20
98.1667705163
  0
VERTEX
  8
0
 62
7
  6
CONTINUOUS
 10
81.4504218863
 20
98.2448728535
  0
VERTEX
  8
0
 62
7
  6
CONTINUOUS
 10
81.5997200578
 20
98.3340808028
  0
VERTEX
  8
0
 62
7
  6
CONTINUOUS
 10
81.7359674625
 20
98.4357902913
  0
VERTEX
  8
0
 62
7
  6
CONTINUOUS
 10
81.8573988097
 20
98.5502109037
  0
VERTEX
  8
0
 62
7
  6
CONTINUOUS
 10
81.9621432758
 20
98.6766983679
  0
VERTEX
  8
0
 62
7
  6
CONTINUOUS
 10
82.0483523489
 20
98.8135930643
  0
VERTEX
  8
0
 62
7
  6
CONTINUOUS
 10
82.1145092849
 20
98.9582700773
  0
VERTEX
  8
0
 62
7
  6
CONTINUOUS
 10
82.1599644688
 20
99.1082509805
  0
VERTEX
  8
0
 62
7
  6
CONTINUOUS
 10
82.1845374002
 20
99.2612329992
  0
VERTEX
  8
0
 62
7
  6
CONTINUOUS
 10
82.1893465884
 20
99.3660533342
  0
SEQEND
  0
LINE
  8
0
 62
7
  6
CONTINUOUS
 10
106.2969279851
 20
97.8997124539
 11
106.5156085184
 21
97.9431906764
  0
LINE
  8
0
 62
7
  6
CONTINUOUS
 10
80.2969280248
 20
97.8997124623
 11
80.5156085184
 21
97.9431906764
  0
POLYLINE
  8
0
 62
7
  6
CONTINUOUS
 66
1
 70
0
  0
VERTEX
  8
0
 62
7
  6
CONTINUOUS
 10
162.154743005
 20
116.5777533872
  0
VERTEX
  8
0
 62
7
  6
CONTINUOUS
 10
162.1454192277
 20
116.5773863995
  0
VERTEX
  8
0
 62
7
  6
CONTINUOUS
 10
162.1387291599
 20
116.5770694656
  0
VERTEX
  8
0
 62
7
  6
CONTINUOUS
 10
162.1350667713
 20
116.5768770174
  0
SEQEND
  0
POLYLINE
  8
0
 62
7
  6
CONTINUOUS
 66
1
 70
0
  0
VERTEX
  8
0
 62
7
  6
CONTINUOUS
 10
136.1547435758
 20
116.577753407
  0
VERTEX
  8
0
 62
7
  6
CONTINUOUS
 10
136.145419719
 20
116.5773864211
  0
VERTEX
  8
0
 62
7
  6
CONTINUOUS
 10
136.1387295151
 20
116.5770694836
  0
VERTEX
  8
0
 62
7
  6
CONTINUOUS
 10
136.1350669142
 20
116.5768770252
  0
SEQEND
  0
POLYLINE
  8
0
 62
7
  6
CONTINUOUS
 66
1
 70
0
  0
VERTEX
  8
0
 62
7
  6
CONTINUOUS
 10
174.69607321
 20
116.5783473079
  0
VERTEX
  8
0
 62
7
  6
CONTINUOUS
 10
174.545927207
 20
116.5732367285
  0
VERTEX
  8
0
 62
7
  6
CONTINUOUS
 10
174.3720662562
 20
116.5528549287
  0
VERTEX
  8
0
 62
7
  6
CONTINUOUS
 10
174.2003921516
 20
116.5144668218
  0
VERTEX
  8
0
 62
7
  6
CONTINUOUS
 10
174.0327033945
 20
116.455752808
  0
VERTEX
  8
0
 62
7
  6
CONTINUOUS
 10
173.8725822607
 20
116.3754935664
  0
VERTEX
  8
0
 62
7
  6
CONTINUOUS
 10
173.7245739353
 20
116.2741913133
  0
VERTEX
  8
0
 62
7
  6
CONTINUOUS
 10
173.593275908
 20
116.1543643691
  0
VERTEX
  8
0
 62
7
  6
CONTINUOUS
 10
173.4814312988
 20
116.0190521361
  0
VERTEX
  8
0
 62
7
  6
CONTINUOUS
 10
173.3898128476
 20
115.870021805
  0
VERTEX
  8
0
 62
7
  6
CONTINUOUS
 10
173.3191464954
 20
115.7087410357
  0
VERTEX
  8
0
 62
7
  6
CONTINUOUS
 10
173.2702909678
 20
115.5367196384
  0
VERTEX
  8
0
 62
7
  6
CONTINUOUS
 10
173.2440833209
 20
115.3560665388
  0
VERTEX
  8
0
 62
7
  6
CONTINUOUS
 10
173.2393466421
 20
115.2359600615
  0
SEQEND
  0
LINE
  8
0
 62
7
  6
CONTINUOUS
 10
162.1891335734
 20
116.5783724553
 11
162.1331939461
 21
116.5767705323
  0
LINE
  8
0
 62
7
  6
CONTINUOUS
 10
136.1891335734
 20
116.5783724553
 11
136.1331940671
 21
116.5767705392
  0
LINE
  8
SURFACE
 62
7
  6
CONTINUOUS
 10
198.9894266146
 20
116.5783605088
 11
198.986413836
 21
116.5783053235
  0
LINE
  8
0
 62
7
  6
CONTINUOUS
 10
69.4238189502
 20
110.6619969764
 11
66.6811095913
 21
110.6182598916
  0
POLYLINE
  8
0
 62
7
  6
CONTINUOUS
 66
1
 70
0
  0
VERTEX
  8
0
 62
7
  6
CONTINUOUS
 10
162.1894354674
 20
116.5783550884
  0
VERTEX
  8
0
 62
7
  6
CONTINUOUS
 10
162.1787719841
 20
116.5782982514
  0
VERTEX
  8
0
 62
7
  6
CONTINUOUS
 10
162.1659773661
 20
116.5780800147
  0
SEQEND
  0
POLYLINE
  8
0
 62
7
  6
CONTINUOUS
 66
1
 70
0
  0
VERTEX
  8
0
 62
7
  6
CONTINUOUS
 10
136.1894354674
 20
116.5783550884
  0
VERTEX
  8
0
 62
7
  6
CONTINUOUS
 10
136.1787725608
 20
116.5782982575
  0
VERTEX
  8
0
 62
7
  6
CONTINUOUS
 10
136.1659779554
 20
116.5780800285
  0
SEQEND
  0
LINE
  8
SURFACE
 62
7
  6
CONTINUOUS
 10
250.9891564277
 20
116.5783619891
 11
250.985938591
 21
116.5783473108
  0
LINE
  8
SURFACE
 62
7
  6
CONTINUOUS
 10
224.9891564277
 20
116.5783619891
 11
224.985938591
 21
116.5783473108
  0
LINE
  8
SURFACE
 62
7
  6
CONTINUOUS
 10
327.2057019363
 20
109.0533473108
 11
326.7729912584
 21
109.0533473108
  0
LINE
  8
0
 62
7
  6
CONTINUOUS
 10
44.4057019363
 20
109.0533473108
 11
43.9729912584
 21
109.0533473108
  0
LINE
  8
0
 62
7
  6
CONTINUOUS
 10
32.4050030425
 20
110.0033473108
 11
22.9893465974
 21
110.0033473108
  0
LINE
  8
SURFACE
 62
7
  6
CONTINUOUS
 10
338.7736901522
 20
110.0033473108
 11
348.1893465974
 21
110.0033473108
  0
LINE
  8
0
 62
7
  6
CONTINUOUS
 10
173.1366266441
 20
110.8033473108
 11
170.6893465974
 21
110.8033473108
  0
LINE
  8
0
 62
7
  6
CONTINUOUS
 10
163.6893465974
 20
110.8033473108
 11
161.0562745828
 21
110.8033473108
  0
LINE
  8
0
 62
7
  6
CONTINUOUS
 10
147.3224186085
 20
110.8033473108
 11
144.6893465974
 21
110.8033473108
  0
LINE
  8
0
 62
7
  6
CONTINUOUS
 10
137.6893465974
 20
110.8033473108
 11
135.0562745829
 21
110.8033473108
  0
LINE
  8
0
 62
7
  6
CONTINUOUS
 10
121.3224186085
 20
110.8033473108
 11
118.6893465974
 21
110.8033473108
  0
LINE
  8
0
 62
7
  6
CONTINUOUS
 10
111.6893465974
 20
110.8033473108
 11
109.0562745829
 21
110.8033473108
  0
LINE
  8
0
 62
7
  6
CONTINUOUS
 10
95.3224187053
 20
110.8033473108
 11
92.6893465974
 21
110.8033473108
  0
LINE
  8
0
 62
7
  6
CONTINUOUS
 10
85.6893465974
 20
110.8033473108
 11
83.0562741908
 21
110.8033473108
  0
LINE
  8
SURFACE
 62
7
  6
CONTINUOUS
 10
198.0420665506
 20
110.8033473108
 11
200.4893465974
 21
110.8033473108
  0
LINE
  8
SURFACE
 62
7
  6
CONTINUOUS
 10
207.4893465974
 20
110.8033473108
 11
210.1224186119
 21
110.8033473108
  0
LINE
  8
SURFACE
 62
7
  6
CONTINUOUS
 10
223.8562745862
 20
110.8033473108
 11
226.4893465974
 21
110.8033473108
  0
LINE
  8
SURFACE
 62
7
  6
CONTINUOUS
 10
233.4893465974
 20
110.8033473108
 11
236.1224186118
 21
110.8033473108
  0
LINE
  8
SURFACE
 62
7
  6
CONTINUOUS
 10
249.8562745862
 20
110.8033473108
 11
252.4893465974
 21
110.8033473108
  0
LINE
  8
SURFACE
 62
7
  6
CONTINUOUS
 10
259.4893465974
 20
110.8033473108
 11
262.1224186118
 21
110.8033473108
  0
LINE
  8
SURFACE
 62
7
  6
CONTINUOUS
 10
275.8562744894
 20
110.8033473108
 11
278.4893465974
 21
110.8033473108
  0
LINE
  8
SURFACE
 62
7
  6
CONTINUOUS
 10
285.4893465974
 20
110.8033473108
 11
288.1224190039
 21
110.8033473108
  0
LINE
  8
SURFACE
 62
7
  6
CONTINUOUS
 10
55.3243930054
 20
113.5618762397
 11
59.6893465974
 21
113.5618762397
  0
LINE
  8
SURFACE
 62
7
  6
CONTINUOUS
 10
311.4893465974
 20
113.5618762397
 11
315.8543001893
 21
113.5618762397
  0
LINE
  8
0
 62
7
  6
CONTINUOUS
 10
34.1893465974
 20
116.5783473108
 11
196.4826089876
 21
116.5783473108
  0
LINE
  8
0
 62
7
  6
CONTINUOUS
 10
211.9893465974
 20
116.5783473108
 11
221.9893465974
 21
116.5783473108
  0
LINE
  8
0
 62
7
  6
CONTINUOUS
 10
237.9893465974
 20
116.5783473108
 11
247.9893465974
 21
116.5783473108
  0
LINE
  8
0
 62
7
  6
CONTINUOUS
 10
263.9893465974
 20
116.5783473108
 11
273.9893465974
 21
116.5783473108
  0
LINE
  8
0
 62
7
  6
CONTINUOUS
 10
289.9893465974
 20
116.5783473108
 11
299.9893465974
 21
116.5783473108
  0
LINE
  8
0
 62
7
  6
CONTINUOUS
 10
315.9893465974
 20
116.5783473108
 11
323.2220196094
 21
116.5783473108
  0
LINE
  8
SURFACE
 62
7
  6
CONTINUOUS
 10
196.4826200941
 20
116.5783473108
 11
336.9893465974
 21
116.5783473108
  0
LINE
  8
0
 62
7
  6
CONTINUOUS
 10
34.741704938
 20
116.5783473108
 11
34.7414617715
 21
116.5783472798
  0
LINE
  8
0
 62
7
  6
CONTINUOUS
 10
55.3290741494
 20
113.5618759547
 11
55.3277619799
 21
113.5618762389
  0
LINE
  8
SURFACE
 62
7
  6
CONTINUOUS
 10
304.4975836034
 20
110.6182598916
 11
301.7548742445
 21
110.6619969764
  0
LINE
  8
0
 62
7
  6
CONTINUOUS
 10
120.2037919294
 20
116.5781280009
 11
120.1895367675
 21
116.5783619891
  0
LINE
  8
0
 62
7
  6
CONTINUOUS
 10
146.2037919294
 20
116.5781280009
 11
146.1895367675
 21
116.5783619891
  0
POLYLINE
  8
SURFACE
 62
7
  6
CONTINUOUS
 66
1
 70
0
  0
VERTEX
  8
SURFACE
 62
7
  6
CONTINUOUS
 10
209.0135999958
 20
116.578058886
  0
VERTEX
  8
SURFACE
 62
7
  6
CONTINUOUS
 10
209.000885911
 20
116.5782875022
  0
VERTEX
  8
SURFACE
 62
7
  6
CONTINUOUS
 10
208.9895596254
 20
116.5783724553
  0
SEQEND
  0
POLYLINE
  8
SURFACE
 62
7
  6
CONTINUOUS
 66
1
 70
0
  0
VERTEX
  8
SURFACE
 62
7
  6
CONTINUOUS
 10
235.0135999957
 20
116.578058886
  0
VERTEX
  8
SURFACE
 62
7
  6
CONTINUOUS
 10
235.0008859109
 20
116.5782875022
  0
VERTEX
  8
SURFACE
 62
7
  6
CONTINUOUS
 10
234.9895596254
 20
116.5783724553
  0
SEQEND
  0
LINE
  8
SURFACE
 62
7
  6
CONTINUOUS
 10
208.9893458271
 20
116.5783510366
 11
209.0454991762
 21
116.5767705364
  0
LINE
  8
SURFACE
 62
7
  6
CONTINUOUS
 10
234.9893458271
 20
116.5783510366
 11
235.0454992411
 21
116.5767705328
  0
POLYLINE
  8
SURFACE
 62
7
  6
CONTINUOUS
 66
1
 70
0
  0
VERTEX
  8
SURFACE
 62
7
  6
CONTINUOUS
 10
198.8254437562
 20
110.8033472041
  0
VERTEX
  8
SURFACE
 62
7
  6
CONTINUOUS
 10
198.739996144
 20
110.8072171216
  0
VERTEX
  8
SURFACE
 62
7
  6
CONTINUOUS
 10
198.6155996294
 20
110.8268961785
  0
VERTEX
  8
SURFACE
 62
7
  6
CONTINUOUS
 10
198.4995402052
 20
110.8611607787
  0
VERTEX
  8
SURFACE
 62
7
  6
CONTINUOUS
 10
198.3933821239
 20
110.9075569999
  0
VERTEX
  8
SURFACE
 62
7
  6
CONTINUOUS
 10
198.2981750685
 20
110.9635730137
  0
VERTEX
  8
SURFACE
 62
7
  6
CONTINUOUS
 10
198.2145484522
 20
111.026677956
  0
VERTEX
  8
SURFACE
 62
7
  6
CONTINUOUS
 10
198.1426972106
 20
111.0944090855
  0
VERTEX
  8
SURFACE
 62
7
  6
CONTINUOUS
 10
198.08260693
 20
111.1642142759
  0
VERTEX
  8
SURFACE
 62
7
  6
CONTINUOUS
 10
198.0342447188
 20
111.2330515965
  0
VERTEX
  8
SURFACE
 62
7
  6
CONTINUOUS
 10
197.9970346125
 20
111.2979086583
  0
VERTEX
  8
SURFACE
 62
7
  6
CONTINUOUS
 10
197.9699221799
 20
111.3559736798
  0
VERTEX
  8
SURFACE
 62
7
  6
CONTINUOUS
 10
197.9515274788
 20
111.404683836
  0
VERTEX
  8
SURFACE
 62
7
  6
CONTINUOUS
 10
197.9401853853
 20
111.4421264822
  0
VERTEX
  8
SURFACE
 62
7
  6
CONTINUOUS
 10
197.9341807566
 20
111.4670474936
  0
VERTEX
  8
SURFACE
 62
7
  6
CONTINUOUS
 10
197.9318233586
 20
111.4794049406
  0
VERTEX
  8
SURFACE
 62
7
  6
CONTINUOUS
 10
197.9317019322
 20
111.4801576403
  0
SEQEND
  0
POLYLINE
  8
SURFACE
 62
7
  6
CONTINUOUS
 66
1
 70
0
  0
VERTEX
  8
SURFACE
 62
7
  6
CONTINUOUS
 10
338.7736659661
 20
110.0033471377
  0
VERTEX
  8
SURFACE
 62
7
  6
CONTINUOUS
 10
338.6524855421
 20
110.008847998
  0
VERTEX
  8
SURFACE
 62
7
  6
CONTINUOUS
 10
338.5038871349
 20
110.0309803281
  0
SEQEND
  0
POLYLINE
  8
SURFACE
 62
7
  6
CONTINUOUS
 66
1
 70
0
  0
VERTEX
  8
SURFACE
 62
7
  6
CONTINUOUS
 10
209.0437673997
 20
116.5768693428
  0
VERTEX
  8
SURFACE
 62
7
  6
CONTINUOUS
 10
209.0403626891
 20
116.5770491666
  0
VERTEX
  8
SURFACE
 62
7
  6
CONTINUOUS
 10
209.0338800116
 20
116.5773595336
  0
VERTEX
  8
SURFACE
 62
7
  6
CONTINUOUS
 10
209.0247269202
 20
116.5777261371
  0
SEQEND
  0
POLYLINE
  8
SURFACE
 62
7
  6
CONTINUOUS
 66
1
 70
0
  0
VERTEX
  8
SURFACE
 62
7
  6
CONTINUOUS
 10
235.0437673997
 20
116.5768693428
  0
VERTEX
  8
SURFACE
 62
7
  6
CONTINUOUS
 10
235.0403626891
 20
116.5770491666
  0
VERTEX
  8
SURFACE
 62
7
  6
CONTINUOUS
 10
235.0338800115
 20
116.5773595336
  0
VERTEX
  8
SURFACE
 62
7
  6
CONTINUOUS
 10
235.0247269201
 20
116.5777261371
  0
SEQEND
  0
POLYLINE
  8
SURFACE
 62
7
  6
CONTINUOUS
 66
1
 70
0
  0
VERTEX
  8
SURFACE
 62
7
  6
CONTINUOUS
 10
301.7547790974
 20
110.6619984477
  0
VERTEX
  8
SURFACE
 62
7
  6
CONTINUOUS
 10
301.690539073
 20
110.6656655184
  0
VERTEX
  8
SURFACE
 62
7
  6
CONTINUOUS
 10
301.5865917103
 20
110.6828210215
  0
VERTEX
  8
SURFACE
 62
7
  6
CONTINUOUS
 10
301.484258077
 20
110.7136911711
  0
VERTEX
  8
SURFACE
 62
7
  6
CONTINUOUS
 10
301.3886686234
 20
110.7563282185
  0
VERTEX
  8
SURFACE
 62
7
  6
CONTINUOUS
 10
301.3036403177
 20
110.8073741604
  0
VERTEX
  8
SURFACE
 62
7
  6
CONTINUOUS
 10
301.2309271739
 20
110.863141436
  0
VERTEX
  8
SURFACE
 62
7
  6
CONTINUOUS
 10
301.1693329102
 20
110.9217352167
  0
VERTEX
  8
SURFACE
 62
7
  6
CONTINUOUS
 10
301.117480725
 20
110.9821070056
  0
VERTEX
  8
SURFACE
 62
7
  6
CONTINUOUS
 10
301.0753411353
 20
111.041957716
  0
VERTEX
  8
SURFACE
 62
7
  6
CONTINUOUS
 10
301.0426925065
 20
111.0986533516
  0
VERTEX
  8
SURFACE
 62
7
  6
CONTINUOUS
 10
301.0188176133
 20
111.1497068602
  0
VERTEX
  8
SURFACE
 62
7
  6
CONTINUOUS
 10
301.0025899599
 20
111.1929624857
  0
VERTEX
  8
SURFACE
 62
7
  6
CONTINUOUS
 10
300.9927958708
 20
111.2260496889
  0
VERTEX
  8
SURFACE
 62
7
  6
CONTINUOUS
 10
300.9878905007
 20
111.2474731062
  0
VERTEX
  8
SURFACE
 62
7
  6
CONTINUOUS
 10
300.9875543105
 20
111.2492192225
  0
SEQEND
  0
POLYLINE
  8
SURFACE
 62
7
  6
CONTINUOUS
 66
1
 70
0
  0
VERTEX
  8
SURFACE
 62
7
  6
CONTINUOUS
 10
288.1619387311
 20
103.2996228375
  0
VERTEX
  8
SURFACE
 62
7
  6
CONTINUOUS
 10
288.2834397296
 20
103.2803543058
  0
VERTEX
  8
SURFACE
 62
7
  6
CONTINUOUS
 10
288.398634915
 20
103.2461608931
  0
VERTEX
  8
SURFACE
 62
7
  6
CONTINUOUS
 10
288.5050221723
 20
103.1992427412
  0
VERTEX
  8
SURFACE
 62
7
  6
CONTINUOUS
 10
288.6009876999
 20
103.1420637209
  0
VERTEX
  8
SURFACE
 62
7
  6
CONTINUOUS
 10
288.6855483407
 20
103.0772108402
  0
VERTEX
  8
SURFACE
 62
7
  6
CONTINUOUS
 10
288.7582870771
 20
103.0072646837
  0
VERTEX
  8
SURFACE
 62
7
  6
CONTINUOUS
 10
288.8193562224
 20
102.9345942614
  0
VERTEX
  8
SURFACE
 62
7
  6
CONTINUOUS
 10
288.8693682118
 20
102.8612066834
  0
VERTEX
  8
SURFACE
 62
7
  6
CONTINUOUS
 10
288.909134111
 20
102.7888828108
  0
VERTEX
  8
SURFACE
 62
7
  6
CONTINUOUS
 10
288.9393340323
 20
102.7198900312
  0
VERTEX
  8
SURFACE
 62
7
  6
CONTINUOUS
 10
288.9609045541
 20
102.656600727
  0
VERTEX
  8
SURFACE
 62
7
  6
CONTINUOUS
 10
288.9751678197
 20
102.6009646841
  0
VERTEX
  8
SURFACE
 62
7
  6
CONTINUOUS
 10
288.9835430828
 20
102.5551461316
  0
VERTEX
  8
SURFACE
 62
7
  6
CONTINUOUS
 10
288.9876327947
 20
102.5209282319
  0
SEQEND
  0
POLYLINE
  8
SURFACE
 62
7
  6
CONTINUOUS
 66
1
 70
0
  0
VERTEX
  8
SURFACE
 62
7
  6
CONTINUOUS
 10
264.6630846763
 20
97.9431906764
  0
VERTEX
  8
SURFACE
 62
7
  6
CONTINUOUS
 10
264.8817652096
 20
97.8997124539
  0
VERTEX
  8
SURFACE
 62
7
  6
CONTINUOUS
 10
265.1166101478
 20
97.846366075
  0
VERTEX
  8
SURFACE
 62
7
  6
CONTINUOUS
 10
265.3282317809
 20
97.7911749214
  0
VERTEX
  8
SURFACE
 62
7
  6
CONTINUOUS
 10
265.5159365604
 20
97.7351457905
  0
VERTEX
  8
SURFACE
 62
7
  6
CONTINUOUS
 10
265.6529706563
 20
97.6888829987
  0
SEQEND
  0
POLYLINE
  8
SURFACE
 62
7
  6
CONTINUOUS
 66
1
 70
0
  0
VERTEX
  8
SURFACE
 62
7
  6
CONTINUOUS
 10
290.6630846763
 20
97.9431906764
  0
VERTEX
  8
SURFACE
 62
7
  6
CONTINUOUS
 10
290.8817651699
 20
97.8997124623
  0
VERTEX
  8
SURFACE
 62
7
  6
CONTINUOUS
 10
291.1166100924
 20
97.8463660885
  0
VERTEX
  8
SURFACE
 62
7
  6
CONTINUOUS
 10
291.3282317305
 20
97.7911749354
  0
VERTEX
  8
SURFACE
 62
7
  6
CONTINUOUS
 10
291.5159365304
 20
97.7351458001
  0
VERTEX
  8
SURFACE
 62
7
  6
CONTINUOUS
 10
291.6529706563
 20
97.6888829987
  0
SEQEND
  0
POLYLINE
  8
SURFACE
 62
7
  6
CONTINUOUS
 66
1
 70
0
  0
VERTEX
  8
SURFACE
 62
7
  6
CONTINUOUS
 10
265.858270841
 20
97.6224123527
  0
VERTEX
  8
SURFACE
 62
7
  6
CONTINUOUS
 10
266.0860991191
 20
97.5670807505
  0
VERTEX
  8
SURFACE
 62
7
  6
CONTINUOUS
 10
266.3054493947
 20
97.5356779444
  0
VERTEX
  8
SURFACE
 62
7
  6
CONTINUOUS
 10
266.4675147643
 20
97.5283473763
  0
SEQEND
  0
POLYLINE
  8
SURFACE
 62
7
  6
CONTINUOUS
 66
1
 70
0
  0
VERTEX
  8
SURFACE
 62
7
  6
CONTINUOUS
 10
197.9393465499
 20
115.2359540456
  0
VERTEX
  8
SURFACE
 62
7
  6
CONTINUOUS
 10
197.9350276255
 20
115.3507200522
  0
VERTEX
  8
SURFACE
 62
7
  6
CONTINUOUS
 10
197.909367692
 20
115.5321477985
  0
VERTEX
  8
SURFACE
 62
7
  6
CONTINUOUS
 10
197.8609235136
 20
115.7048859568
  0
VERTEX
  8
SURFACE
 62
7
  6
CONTINUOUS
 10
197.7905447885
 20
115.866828495
  0
VERTEX
  8
SURFACE
 62
7
  6
CONTINUOUS
 10
197.6990981156
 20
116.0164773077
  0
VERTEX
  8
SURFACE
 62
7
  6
CONTINUOUS
 10
197.5873028747
 20
116.1523787805
  0
VERTEX
  8
SURFACE
 62
7
  6
CONTINUOUS
 10
197.4559189426
 20
116.2727636468
  0
VERTEX
  8
SURFACE
 62
7
  6
CONTINUOUS
 10
197.3077159293
 20
116.3745485925
  0
VERTEX
  8
SURFACE
 62
7
  6
CONTINUOUS
 10
197.1473201396
 20
116.4551910383
  0
VERTEX
  8
SURFACE
 62
7
  6
CONTINUOUS
 10
196.9793077359
 20
116.5141810949
  0
VERTEX
  8
SURFACE
 62
7
  6
CONTINUOUS
 10
196.8072946345
 20
116.5527429974
  0
VERTEX
  8
SURFACE
 62
7
  6
CONTINUOUS
 10
196.6330979588
 20
116.5732134292
  0
VERTEX
  8
SURFACE
 62
7
  6
CONTINUOUS
 10
196.4826201769
 20
116.5783473079
  0
SEQEND
  0
LINE
  8
SURFACE
 62
7
  6
CONTINUOUS
 10
200.9893465974
 20
110.3033473108
 11
200.9893465974
 21
103.8033473108
  0
LINE
  8
SURFACE
 62
7
  6
CONTINUOUS
 10
206.9893465974
 20
103.8033473108
 11
206.9893465974
 21
110.3033473108
  0
LINE
  8
SURFACE
 62
7
  6
CONTINUOUS
 10
197.9317073435
 20
102.6265692217
 11
197.9317142932
 21
102.626613058
  0
POLYLINE
  8
SURFACE
 62
7
  6
CONTINUOUS
 66
1
 70
0
  0
VERTEX
  8
SURFACE
 62
7
  6
CONTINUOUS
 10
197.9317073435
 20
102.6265692217
  0
VERTEX
  8
SURFACE
 62
7
  6
CONTINUOUS
 10
197.9336006847
 20
102.6368458601
  0
VERTEX
  8
SURFACE
 62
7
  6
CONTINUOUS
 10
197.9385661501
 20
102.6583775867
  0
VERTEX
  8
SURFACE
 62
7
  6
CONTINUOUS
 10
197.9479875335
 20
102.6911845214
  0
VERTEX
  8
SURFACE
 62
7
  6
CONTINUOUS
 10
197.9633198824
 20
102.7344099637
  0
VERTEX
  8
SURFACE
 62
7
  6
CONTINUOUS
 10
197.9859778716
 20
102.7865435976
  0
VERTEX
  8
SURFACE
 62
7
  6
CONTINUOUS
 10
198.0172325112
 20
102.8456179305
  0
VERTEX
  8
SURFACE
 62
7
  6
CONTINUOUS
 10
198.0580853483
 20
102.9093180187
  0
VERTEX
  8
SURFACE
 62
7
  6
CONTINUOUS
 10
198.1091952295
 20
102.9751462355
  0
VERTEX
  8
SURFACE
 62
7
  6
CONTINUOUS
 10
198.1707415395
 20
103.0404671439
  0
VERTEX
  8
SURFACE
 62
7
  6
CONTINUOUS
 10
198.2426566293
 20
103.1028919543
  0
VERTEX
  8
SURFACE
 62
7
  6
CONTINUOUS
 10
198.3249382908
 20
103.1604104618
  0
VERTEX
  8
SURFACE
 62
7
  6
CONTINUOUS
 10
198.4173301612
 20
103.2109768227
  0
VERTEX
  8
SURFACE
 62
7
  6
CONTINUOUS
 10
198.5192241176
 20
103.2524939161
  0
VERTEX
  8
SURFACE
 62
7
  6
CONTINUOUS
 10
198.6297048093
 20
103.2828889714
  0
VERTEX
  8
SURFACE
 62
7
  6
CONTINUOUS
 10
198.7474202268
 20
103.3001213844
  0
VERTEX
  8
SURFACE
 62
7
  6
CONTINUOUS
 10
198.8254473903
 20
103.30334737
  0
SEQEND
  0
POLYLINE
  8
0
 62
7
  6
CONTINUOUS
 66
1
 70
0
  0
VERTEX
  8
0
 62
7
  6
CONTINUOUS
 10
79.0925940756
 20
97.5670807505
  0
VERTEX
  8
0
 62
7
  6
CONTINUOUS
 10
79.3204223537
 20
97.6224123527
  0
VERTEX
  8
0
 62
7
  6
CONTINUOUS
 10
79.5257222998
 20
97.6888829134
  0
SEQEND
  0
LINE
  8
0
 62
7
  6
CONTINUOUS
 10
95.4069385345
 20
110.8264268729
 11
95.279318989
 21
110.8070288884
  0
POLYLINE
  8
0
 62
7
  6
CONTINUOUS
 66
1
 70
0
  0
VERTEX
  8
0
 62
7
  6
CONTINUOUS
 10
34.7414617715
 20
116.5783472716
  0
VERTEX
  8
0
 62
7
  6
CONTINUOUS
 10
34.5846688978
 20
116.5697233669
  0
VERTEX
  8
0
 62
7
  6
CONTINUOUS
 10
34.3939761068
 20
116.5366164677
  0
VERTEX
  8
0
 62
7
  6
CONTINUOUS
 10
34.2075632736
 20
116.4809269389
  0
VERTEX
  8
0
 62
7
  6
CONTINUOUS
 10
34.02591519
 20
116.4050897284
  0
VERTEX
  8
0
 62
7
  6
CONTINUOUS
 10
33.8671750838
 20
116.3220009937
  0
SEQEND
  0
POLYLINE
  8
SURFACE
 62
7
  6
CONTINUOUS
 66
1
 70
0
  0
VERTEX
  8
SURFACE
 62
7
  6
CONTINUOUS
 10
275.9036595927
 20
110.8066686998
  0
VERTEX
  8
SURFACE
 62
7
  6
CONTINUOUS
 10
275.7765942126
 20
110.8253792529
  0
VERTEX
  8
SURFACE
 62
7
  6
CONTINUOUS
 10
275.6535123772
 20
110.8600933279
  0
VERTEX
  8
SURFACE
 62
7
  6
CONTINUOUS
 10
275.5359402748
 20
110.9102544212
  0
VERTEX
  8
SURFACE
 62
7
  6
CONTINUOUS
 10
275.4253844839
 20
110.975299255
  0
VERTEX
  8
SURFACE
 62
7
  6
CONTINUOUS
 10
275.3233882882
 20
111.0546324573
  0
VERTEX
  8
SURFACE
 62
7
  6
CONTINUOUS
 10
275.231670608
 20
111.1474714506
  0
VERTEX
  8
SURFACE
 62
7
  6
CONTINUOUS
 10
275.1535588512
 20
111.2504756914
  0
VERTEX
  8
SURFACE
 62
7
  6
CONTINUOUS
 10
275.0922040009
 20
111.3571536214
  0
VERTEX
  8
SURFACE
 62
7
  6
CONTINUOUS
 10
275.0474829676
 20
111.4621936208
  0
VERTEX
  8
SURFACE
 62
7
  6
CONTINUOUS
 10
275.0169670896
 20
111.5639688424
  0
SEQEND
  0
POLYLINE
  8
SURFACE
 62
7
  6
CONTINUOUS
 66
1
 70
0
  0
VERTEX
  8
SURFACE
 62
7
  6
CONTINUOUS
 10
291.858270841
 20
97.6224123527
  0
VERTEX
  8
SURFACE
 62
7
  6
CONTINUOUS
 10
292.0860991191
 20
97.5670807505
  0
VERTEX
  8
SURFACE
 62
7
  6
CONTINUOUS
 10
292.3054493947
 20
97.5356779444
  0
VERTEX
  8
SURFACE
 62
7
  6
CONTINUOUS
 10
292.4675147643
 20
97.5283473763
  0
SEQEND
  0
LINE
  8
SURFACE
 62
7
  6
CONTINUOUS
 10
265.6529708949
 20
97.6888829134
 11
265.858270841
 21
97.6224123527
  0
LINE
  8
SURFACE
 62
7
  6
CONTINUOUS
 10
210.9893465974
 20
115.5783473108
 11
210.9893465974
 21
111.8033473108
  0
LINE
  8
SURFACE
 62
7
  6
CONTINUOUS
 10
210.9893465974
 20
98.5283473108
 11
210.9893465974
 21
102.3033473108
  0
POLYLINE
  8
0
 62
7
  6
CONTINUOUS
 66
1
 70
0
  0
VERTEX
  8
0
 62
7
  6
CONTINUOUS
 10
32.6773307025
 20
110.031508512
  0
VERTEX
  8
0
 62
7
  6
CONTINUOUS
 10
32.5292639724
 20
110.0091300781
  0
VERTEX
  8
0
 62
7
  6
CONTINUOUS
 10
32.4050260155
 20
110.0033471378
  0
SEQEND
  0
LINE
  8
SURFACE
 62
7
  6
CONTINUOUS
 10
291.6529708949
 20
97.6888829134
 11
291.858270841
 21
97.6224123527
  0
LINE
  8
SURFACE
 62
7
  6
CONTINUOUS
 10
222.9893465974
 20
115.5783473108
 11
222.9893465974
 21
111.8033473108
  0
LINE
  8
SURFACE
 62
7
  6
CONTINUOUS
 10
222.9893465974
 20
102.3033473108
 11
222.9893465974
 21
98.5283473108
  0
LINE
  8
SURFACE
 62
7
  6
CONTINUOUS
 10
226.9893465974
 20
110.3033473108
 11
226.9893465974
 21
103.8033473108
  0
POLYLINE
  8
SURFACE
 62
7
  6
CONTINUOUS
 66
1
 70
0
  0
VERTEX
  8
SURFACE
 62
7
  6
CONTINUOUS
 10
272.3257208229
 20
97.6888823859
  0
VERTEX
  8
SURFACE
 62
7
  6
CONTINUOUS
 10
272.4652254603
 20
97.7359337552
  0
VERTEX
  8
SURFACE
 62
7
  6
CONTINUOUS
 10
272.6532394038
 20
97.7919499815
  0
VERTEX
  8
SURFACE
 62
7
  6
CONTINUOUS
 10
272.8651384693
 20
97.8471099053
  0
VERTEX
  8
SURFACE
 62
7
  6
CONTINUOUS
 10
273.1002248973
 20
97.9004096784
  0
SEQEND
  0
POLYLINE
  8
SURFACE
 62
7
  6
CONTINUOUS
 66
1
 70
0
  0
VERTEX
  8
SURFACE
 62
7
  6
CONTINUOUS
 10
298.3257198366
 20
97.6888819941
  0
VERTEX
  8
SURFACE
 62
7
  6
CONTINUOUS
 10
298.4651644739
 20
97.7359143019
  0
VERTEX
  8
SURFACE
 62
7
  6
CONTINUOUS
 10
298.6531214567
 20
97.7919171034
  0
VERTEX
  8
SURFACE
 62
7
  6
CONTINUOUS
 10
298.8650037659
 20
97.8470771425
  0
VERTEX
  8
SURFACE
 62
7
  6
CONTINUOUS
 10
299.1001229632
 20
97.900388147
  0
SEQEND
  0
LINE
  8
0
 62
7
  6
CONTINUOUS
 10
32.8077580771
 20
110.0661658449
 11
32.6773307025
 21
110.031508512
  0
POLYLINE
  8
SURFACE
 62
7
  6
CONTINUOUS
 66
1
 70
0
  0
VERTEX
  8
SURFACE
 62
7
  6
CONTINUOUS
 10
338.5038871349
 20
110.0309803281
  0
VERTEX
  8
SURFACE
 62
7
  6
CONTINUOUS
 10
338.3729167419
 20
110.0655268262
  0
VERTEX
  8
SURFACE
 62
7
  6
CONTINUOUS
 10
338.2608381585
 20
110.1076321537
  0
VERTEX
  8
SURFACE
 62
7
  6
CONTINUOUS
 10
338.1683409145
 20
110.1525394607
  0
VERTEX
  8
SURFACE
 62
7
  6
CONTINUOUS
 10
338.0951841946
 20
110.1959355036
  0
VERTEX
  8
SURFACE
 62
7
  6
CONTINUOUS
 10
338.0393424448
 20
110.2349639073
  0
SEQEND
  0
LINE
  8
SURFACE
 62
7
  6
CONTINUOUS
 10
232.9893465974
 20
103.8033473108
 11
232.9893465974
 21
110.3033473108
  0
LINE
  8
SURFACE
 62
7
  6
CONTINUOUS
 10
236.9893465974
 20
102.3033473108
 11
236.9893465974
 21
98.5283473108
  0
LINE
  8
SURFACE
 62
7
  6
CONTINUOUS
 10
236.9893465974
 20
111.8033473108
 11
236.9893465974
 21
115.5783473108
  0
LINE
  8
SURFACE
 62
7
  6
CONTINUOUS
 10
248.9893465974
 20
115.5783473108
 11
248.9893465974
 21
111.8033473108
  0
LINE
  8
SURFACE
 62
7
  6
CONTINUOUS
 10
248.9893465974
 20
102.3033473108
 11
248.9893465974
 21
98.5283473108
  0
LINE
  8
SURFACE
 62
7
  6
CONTINUOUS
 10
252.9893465974
 20
110.3033473108
 11
252.9893465974
 21
103.8033473108
  0
LINE
  8
SURFACE
 62
7
  6
CONTINUOUS
 10
315.7540537151
 20
113.5713597964
 11
315.7537915648
 21
113.5711902916
  0
POLYLINE
  8
SURFACE
 62
7
  6
CONTINUOUS
 66
1
 70
0
  0
VERTEX
  8
SURFACE
 62
7
  6
CONTINUOUS
 10
315.7537915648
 20
113.5711902916
  0
VERTEX
  8
SURFACE
 62
7
  6
CONTINUOUS
 10
315.7391712542
 20
113.562300941
  0
VERTEX
  8
SURFACE
 62
7
  6
CONTINUOUS
 10
315.7383369541
 20
113.5618762397
  0
SEQEND
  0
LINE
  8
SURFACE
 62
7
  6
CONTINUOUS
 10
316.2138775269
 20
103.7108411768
 11
316.2157438961
 21
103.709734048
  0
POLYLINE
  8
SURFACE
 62
7
  6
CONTINUOUS
 66
1
 70
0
  0
VERTEX
  8
SURFACE
 62
7
  6
CONTINUOUS
 10
262.9893466069
 20
99.3660547062
  0
VERTEX
  8
SURFACE
 62
7
  6
CONTINUOUS
 10
262.9938074056
 20
99.2650928473
  0
VERTEX
  8
SURFACE
 62
7
  6
CONTINUOUS
 10
263.0179718166
 20
99.1115553421
  0
VERTEX
  8
SURFACE
 62
7
  6
CONTINUOUS
 10
263.0631439086
 20
98.961030686
  0
VERTEX
  8
SURFACE
 62
7
  6
CONTINUOUS
 10
263.1291342708
 20
98.8158304301
  0
VERTEX
  8
SURFACE
 62
7
  6
CONTINUOUS
 10
263.2152834289
 20
98.678447859
  0
VERTEX
  8
SURFACE
 62
7
  6
CONTINUOUS
 10
263.3200643075
 20
98.5515212508
  0
VERTEX
  8
SURFACE
 62
7
  6
CONTINUOUS
 10
263.44162004
 20
98.4367166833
  0
VERTEX
  8
SURFACE
 62
7
  6
CONTINUOUS
 10
263.578030334
 20
98.334709754
  0
VERTEX
  8
SURFACE
 62
7
  6
CONTINUOUS
 10
263.7274953521
 20
98.2452888375
  0
VERTEX
  8
SURFACE
 62
7
  6
CONTINUOUS
 10
263.8897048313
 20
98.1670377916
  0
VERTEX
  8
SURFACE
 62
7
  6
CONTINUOUS
 10
264.065979172
 20
98.0981344927
  0
VERTEX
  8
SURFACE
 62
7
  6
CONTINUOUS
 10
264.2586267096
 20
98.0370897112
  0
VERTEX
  8
SURFACE
 62
7
  6
CONTINUOUS
 10
264.4694246364
 20
97.9832440852
  0
VERTEX
  8
SURFACE
 62
7
  6
CONTINUOUS
 10
264.6630992976
 20
97.9431879745
  0
SEQEND
  0
LINE
  8
0
 62
7
  6
CONTINUOUS
 10
254.3271125294
 20
116.5783473108
 11
254.3271125294
 21
116.3783473108
  0
LINE
  8
0
 62
7
  6
CONTINUOUS
 10
256.9893465974
 20
116.5783473108
 11
256.9893465974
 21
116.3783473108
  0
LINE
  8
0
 62
7
  6
CONTINUOUS
 10
257.2393465974
 20
116.5783473108
 11
257.2393465974
 21
116.3783473108
  0
LINE
  8
SURFACE
 62
7
  6
CONTINUOUS
 10
258.9893465974
 20
103.8033473108
 11
258.9893465974
 21
110.3033473108
  0
LINE
  8
SURFACE
 62
7
  6
CONTINUOUS
 10
262.9893465974
 20
115.5783473108
 11
262.9893465974
 21
111.8033473108
  0
LINE
  8
SURFACE
 62
7
  6
CONTINUOUS
 10
262.9893465974
 20
99.3660140579
 11
262.9893465974
 21
102.3033473108
  0
LINE
  8
SURFACE
 62
7
  6
CONTINUOUS
 10
262.9893465974
 20
100.8347077336
 11
262.989353351
 21
100.8358448555
  0
POLYLINE
  8
SURFACE
 62
7
  6
CONTINUOUS
 66
1
 70
0
  0
VERTEX
  8
SURFACE
 62
7
  6
CONTINUOUS
 10
337.3115181109
 20
116.3220009937
  0
VERTEX
  8
SURFACE
 62
7
  6
CONTINUOUS
 10
337.1527780047
 20
116.4050897284
  0
VERTEX
  8
SURFACE
 62
7
  6
CONTINUOUS
 10
336.9711299211
 20
116.4809269389
  0
VERTEX
  8
SURFACE
 62
7
  6
CONTINUOUS
 10
336.7847170879
 20
116.5366164677
  0
VERTEX
  8
SURFACE
 62
7
  6
CONTINUOUS
 10
336.5940242969
 20
116.5697233669
  0
VERTEX
  8
SURFACE
 62
7
  6
CONTINUOUS
 10
336.4372314232
 20
116.5783472716
  0
SEQEND
  0
POLYLINE
  8
SURFACE
 62
7
  6
CONTINUOUS
 66
1
 70
0
  0
VERTEX
  8
SURFACE
 62
7
  6
CONTINUOUS
 10
274.9984255518
 20
111.6619458902
  0
VERTEX
  8
SURFACE
 62
7
  6
CONTINUOUS
 10
274.9901416608
 20
111.7552842667
  0
VERTEX
  8
SURFACE
 62
7
  6
CONTINUOUS
 10
274.989346807
 20
111.7944603695
  0
SEQEND
  0
LINE
  8
SURFACE
 62
7
  6
CONTINUOUS
 10
274.9893398437
 20
100.8358448555
 11
274.9893465974
 21
100.8347077336
  0
LINE
  8
SURFACE
 62
7
  6
CONTINUOUS
 10
274.9893465974
 20
115.5783473108
 11
274.9893465974
 21
111.7944928216
  0
LINE
  8
SURFACE
 62
7
  6
CONTINUOUS
 10
274.9893465974
 20
102.31220215
 11
274.9893465974
 21
99.3660140574
  0
LINE
  8
SURFACE
 62
7
  6
CONTINUOUS
 10
274.9893469225
 20
102.3122279853
 11
274.9900633821
 21
102.3494250026
  0
LINE
  8
SURFACE
 62
7
  6
CONTINUOUS
 10
274.9900633821
 20
102.3494250026
 11
274.998088997
 21
102.4422720682
  0
POLYLINE
  8
SURFACE
 62
7
  6
CONTINUOUS
 66
1
 70
0
  0
VERTEX
  8
SURFACE
 62
7
  6
CONTINUOUS
 10
274.998088997
 20
102.4422720682
  0
VERTEX
  8
SURFACE
 62
7
  6
CONTINUOUS
 10
275.0165201874
 20
102.5408724912
  0
VERTEX
  8
SURFACE
 62
7
  6
CONTINUOUS
 10
275.047368181
 20
102.6441814561
  0
VERTEX
  8
SURFACE
 62
7
  6
CONTINUOUS
 10
275.0929542906
 20
102.7510520945
  0
VERTEX
  8
SURFACE
 62
7
  6
CONTINUOUS
 10
275.1549686803
 20
102.8583469133
  0
VERTEX
  8
SURFACE
 62
7
  6
CONTINUOUS
 10
275.2327960362
 20
102.9605202869
  0
VERTEX
  8
SURFACE
 62
7
  6
CONTINUOUS
 10
275.3239219081
 20
103.0525354712
  0
VERTEX
  8
SURFACE
 62
7
  6
CONTINUOUS
 10
275.425651624
 20
103.1315765921
  0
VERTEX
  8
SURFACE
 62
7
  6
CONTINUOUS
 10
275.5362642865
 20
103.1966036938
  0
VERTEX
  8
SURFACE
 62
7
  6
CONTINUOUS
 10
275.6540708367
 20
103.2467981103
  0
VERTEX
  8
SURFACE
 62
7
  6
CONTINUOUS
 10
275.7773459636
 20
103.2814758306
  0
SEQEND
  0
POLYLINE
  8
SURFACE
 62
7
  6
CONTINUOUS
 66
1
 70
0
  0
VERTEX
  8
SURFACE
 62
7
  6
CONTINUOUS
 10
315.7546530229
 20
113.5711913935
  0
VERTEX
  8
SURFACE
 62
7
  6
CONTINUOUS
 10
315.7572559324
 20
113.5736241704
  0
VERTEX
  8
SURFACE
 62
7
  6
CONTINUOUS
 10
315.7540528945
 20
113.5713610624
  0
SEQEND
  0
LINE
  8
SURFACE
 62
7
  6
CONTINUOUS
 10
337.3115180883
 20
116.3220009541
 11
337.3117954845
 21
116.3218423973
  0
LINE
  8
SURFACE
 62
7
  6
CONTINUOUS
 10
275.0169670896
 20
111.5639688424
 11
274.9984255518
 21
111.6619458902
  0
LINE
  8
SURFACE
 62
7
  6
CONTINUOUS
 10
278.9893465974
 20
110.3033473108
 11
278.9893465974
 21
103.8033473108
  0
LINE
  8
SURFACE
 62
7
  6
CONTINUOUS
 10
284.9893465974
 20
103.8033473108
 11
284.9893465974
 21
110.3033473108
  0
LINE
  8
SURFACE
 62
7
  6
CONTINUOUS
 10
337.9984858141
 20
103.838883757
 11
338.0398010666
 21
103.8720763406
  0
POLYLINE
  8
SURFACE
 62
7
  6
CONTINUOUS
 66
1
 70
0
  0
VERTEX
  8
SURFACE
 62
7
  6
CONTINUOUS
 10
338.0398010666
 20
103.8720763406
  0
VERTEX
  8
SURFACE
 62
7
  6
CONTINUOUS
 10
338.0956819982
 20
103.9110818284
  0
VERTEX
  8
SURFACE
 62
7
  6
CONTINUOUS
 10
338.1688261447
 20
103.9544179309
  0
VERTEX
  8
SURFACE
 62
7
  6
CONTINUOUS
 10
338.2612846062
 20
103.9992555207
  0
VERTEX
  8
SURFACE
 62
7
  6
CONTINUOUS
 10
338.373305122
 20
104.0412926157
  0
SEQEND
  0
POLYLINE
  8
SURFACE
 62
7
  6
CONTINUOUS
 66
1
 70
0
  0
VERTEX
  8
SURFACE
 62
7
  6
CONTINUOUS
 10
338.0393424448
 20
110.2349639073
  0
VERTEX
  8
SURFACE
 62
7
  6
CONTINUOUS
 10
337.9981115564
 20
110.2681330245
  0
VERTEX
  8
SURFACE
 62
7
  6
CONTINUOUS
 10
337.9893465974
 20
110.2761276772
  0
SEQEND
  0
POLYLINE
  8
SURFACE
 62
7
  6
CONTINUOUS
 66
1
 70
0
  0
VERTEX
  8
SURFACE
 62
7
  6
CONTINUOUS
 10
288.9876327947
 20
102.5209282319
  0
VERTEX
  8
SURFACE
 62
7
  6
CONTINUOUS
 10
288.9891037722
 20
102.4986601929
  0
VERTEX
  8
SURFACE
 62
7
  6
CONTINUOUS
 10
288.9892813566
 20
102.4930760447
  0
SEQEND
  0
POLYLINE
  8
SURFACE
 62
7
  6
CONTINUOUS
 66
1
 70
0
  0
VERTEX
  8
SURFACE
 62
7
  6
CONTINUOUS
 10
288.9893466069
 20
99.3660547062
  0
VERTEX
  8
SURFACE
 62
7
  6
CONTINUOUS
 10
288.9938074054
 20
99.2650928496
  0
VERTEX
  8
SURFACE
 62
7
  6
CONTINUOUS
 10
289.0179718157
 20
99.1115553458
  0
VERTEX
  8
SURFACE
 62
7
  6
CONTINUOUS
 10
289.063143907
 20
98.9610306902
  0
VERTEX
  8
SURFACE
 62
7
  6
CONTINUOUS
 10
289.1291342686
 20
98.8158304342
  0
VERTEX
  8
SURFACE
 62
7
  6
CONTINUOUS
 10
289.2152834263
 20
98.6784478626
  0
VERTEX
  8
SURFACE
 62
7
  6
CONTINUOUS
 10
289.3200643049
 20
98.5515212536
  0
VERTEX
  8
SURFACE
 62
7
  6
CONTINUOUS
 10
289.4416200376
 20
98.4367166853
  0
VERTEX
  8
SURFACE
 62
7
  6
CONTINUOUS
 10
289.5780303317
 20
98.3347097555
  0
VERTEX
  8
SURFACE
 62
7
  6
CONTINUOUS
 10
289.72749535
 20
98.2452888386
  0
VERTEX
  8
SURFACE
 62
7
  6
CONTINUOUS
 10
289.8897048294
 20
98.1670377924
  0
VERTEX
  8
SURFACE
 62
7
  6
CONTINUOUS
 10
290.0659791702
 20
98.0981344933
  0
VERTEX
  8
SURFACE
 62
7
  6
CONTINUOUS
 10
290.2586267079
 20
98.0370897117
  0
VERTEX
  8
SURFACE
 62
7
  6
CONTINUOUS
 10
290.4694246355
 20
97.9832440854
  0
VERTEX
  8
SURFACE
 62
7
  6
CONTINUOUS
 10
290.6630992976
 20
97.9431879745
  0
SEQEND
  0
LINE
  8
SURFACE
 62
7
  6
CONTINUOUS
 10
288.9893277887
 20
102.4906019233
 11
288.9893465974
 21
102.4877523689
  0
LINE
  8
SURFACE
 62
7
  6
CONTINUOUS
 10
288.9893465974
 20
99.366014058
 11
288.9893465974
 21
102.4877478734
  0
LINE
  8
SURFACE
 62
7
  6
CONTINUOUS
 10
288.9893465974
 20
111.6189467815
 11
288.9893465974
 21
115.5783473108
  0
LINE
  8
SURFACE
 62
7
  6
CONTINUOUS
 10
288.9893465972
 20
111.618942267
 11
288.989335641
 21
111.6167798671
  0
LINE
  8
SURFACE
 62
7
  6
CONTINUOUS
 10
288.9893465974
 20
100.8347077336
 11
288.989353351
 21
100.8358448555
  0
LINE
  8
SURFACE
 62
7
  6
CONTINUOUS
 10
288.9892803998
 20
111.6135679804
 11
288.9891392774
 21
111.6089354131
  0
LINE
  8
SURFACE
 62
7
  6
CONTINUOUS
 10
288.9891392774
 20
111.6089354131
 11
288.9877869377
 21
111.5875239706
  0
POLYLINE
  8
SURFACE
 62
7
  6
CONTINUOUS
 66
1
 70
0
  0
VERTEX
  8
SURFACE
 62
7
  6
CONTINUOUS
 10
288.9877869377
 20
111.5875239706
  0
VERTEX
  8
SURFACE
 62
7
  6
CONTINUOUS
 10
288.9839547114
 20
111.5543776887
  0
VERTEX
  8
SURFACE
 62
7
  6
CONTINUOUS
 10
288.9761663909
 20
111.5104099987
  0
VERTEX
  8
SURFACE
 62
7
  6
CONTINUOUS
 10
288.9631496337
 20
111.4578245941
  0
VERTEX
  8
SURFACE
 62
7
  6
CONTINUOUS
 10
288.9437073185
 20
111.3983786366
  0
VERTEX
  8
SURFACE
 62
7
  6
CONTINUOUS
 10
288.9168274872
 20
111.3339101522
  0
VERTEX
  8
SURFACE
 62
7
  6
CONTINUOUS
 10
288.8818920795
 20
111.2666041362
  0
VERTEX
  8
SURFACE
 62
7
  6
CONTINUOUS
 10
288.8385140899
 20
111.1984183963
  0
VERTEX
  8
SURFACE
 62
7
  6
CONTINUOUS
 10
288.786008984
 20
111.1305403081
  0
VERTEX
  8
SURFACE
 62
7
  6
CONTINUOUS
 10
288.7238316713
 20
111.0643928854
  0
VERTEX
  8
SURFACE
 62
7
  6
CONTINUOUS
 10
288.6516385931
 20
111.0016169108
  0
VERTEX
  8
SURFACE
 62
7
  6
CONTINUOUS
 10
288.5694323848
 20
110.9440925793
  0
VERTEX
  8
SURFACE
 62
7
  6
CONTINUOUS
 10
288.4775708645
 20
110.8938106381
  0
VERTEX
  8
SURFACE
 62
7
  6
CONTINUOUS
 10
288.3768225552
 20
110.8528017034
  0
VERTEX
  8
SURFACE
 62
7
  6
CONTINUOUS
 10
288.2684412203
 20
110.8230552742
  0
VERTEX
  8
SURFACE
 62
7
  6
CONTINUOUS
 10
288.1544745279
 20
110.8064253588
  0
SEQEND
  0
LINE
  8
SURFACE
 62
7
  6
CONTINUOUS
 10
337.9893465974
 20
103.8305592625
 11
337.9984858141
 21
103.838883757
  0
LINE
  8
SURFACE
 62
7
  6
CONTINUOUS
 10
300.9893398437
 20
100.8358448555
 11
300.9893465974
 21
100.8347077336
  0
LINE
  8
SURFACE
 62
7
  6
CONTINUOUS
 10
300.9893465974
 20
115.5783473108
 11
300.9893465974
 21
111.2411138375
  0
LINE
  8
SURFACE
 62
7
  6
CONTINUOUS
 10
300.9893465974
 20
102.8655259935
 11
300.9893465974
 21
99.3660205437
  0
LINE
  8
SURFACE
 62
7
  6
CONTINUOUS
 10
304.9893465974
 20
110.1183277381
 11
304.9893465974
 21
103.9883277988
  0
POLYLINE
  8
SURFACE
 62
7
  6
CONTINUOUS
 66
1
 70
0
  0
VERTEX
  8
SURFACE
 62
7
  6
CONTINUOUS
 10
300.9862010635
 20
102.8494709281
  0
VERTEX
  8
SURFACE
 62
7
  6
CONTINUOUS
 10
300.9876195185
 20
102.8577945171
  0
VERTEX
  8
SURFACE
 62
7
  6
CONTINUOUS
 10
300.9921727695
 20
102.878177693
  0
VERTEX
  8
SURFACE
 62
7
  6
CONTINUOUS
 10
301.0015047179
 20
102.910401867
  0
VERTEX
  8
SURFACE
 62
7
  6
CONTINUOUS
 10
301.0172065621
 20
102.9530719843
  0
VERTEX
  8
SURFACE
 62
7
  6
CONTINUOUS
 10
301.0405138416
 20
103.0037758014
  0
VERTEX
  8
SURFACE
 62
7
  6
CONTINUOUS
 10
301.0725777318
 20
103.0603323901
  0
VERTEX
  8
SURFACE
 62
7
  6
CONTINUOUS
 10
301.1142342913
 20
103.1203524943
  0
VERTEX
  8
SURFACE
 62
7
  6
CONTINUOUS
 10
301.1658758418
 20
103.1812664604
  0
VERTEX
  8
SURFACE
 62
7
  6
CONTINUOUS
 10
301.2276694281
 20
103.2407199783
  0
VERTEX
  8
SURFACE
 62
7
  6
CONTINUOUS
 10
301.3011362968
 20
103.2975788205
  0
VERTEX
  8
SURFACE
 62
7
  6
CONTINUOUS
 10
301.3874567326
 20
103.3497082421
  0
VERTEX
  8
SURFACE
 62
7
  6
CONTINUOUS
 10
301.484425841
 20
103.3930429824
  0
VERTEX
  8
SURFACE
 62
7
  6
CONTINUOUS
 10
301.5877199475
 20
103.4241121133
  0
VERTEX
  8
SURFACE
 62
7
  6
CONTINUOUS
 10
301.6917089685
 20
103.4411205937
  0
VERTEX
  8
SURFACE
 62
7
  6
CONTINUOUS
 10
301.7547969174
 20
103.4446739334
  0
SEQEND
  0
LINE
  8
SURFACE
 62
7
  6
CONTINUOUS
 10
300.9875543105
 20
111.2492192225
 11
300.9861993662
 21
111.2572112305
  0
LINE
  8
SURFACE
 62
7
  6
CONTINUOUS
 10
310.9893465974
 20
104.1138159882
 11
310.9893465974
 21
113.0616345823
  0
LINE
  8
SURFACE
 62
7
  6
CONTINUOUS
 10
314.9893465974
 20
115.5783473108
 11
314.9893465974
 21
113.5618762397
  0
LINE
  8
SURFACE
 62
7
  6
CONTINUOUS
 10
314.9893465974
 20
98.5283473108
 11
314.9893465974
 21
103.6853806732
  0
LINE
  8
SURFACE
 62
7
  6
CONTINUOUS
 10
328.1716277626
 20
109.7945282657
 11
329.790747759
 21
115.8371663559
  0
LINE
  8
SURFACE
 62
7
  6
CONTINUOUS
 10
324.1879454357
 20
115.8371663559
 11
325.807063685
 21
109.794534786
  0
POLYLINE
  8
SURFACE
 62
7
  6
CONTINUOUS
 66
1
 70
0
  0
VERTEX
  8
SURFACE
 62
7
  6
CONTINUOUS
 10
337.9893465351
 20
115.1634782423
  0
VERTEX
  8
SURFACE
 62
7
  6
CONTINUOUS
 10
337.9807070128
 20
115.318630186
  0
VERTEX
  8
SURFACE
 62
7
  6
CONTINUOUS
 10
337.9470572223
 20
115.5021729546
  0
VERTEX
  8
SURFACE
 62
7
  6
CONTINUOUS
 10
337.8893272636
 20
115.6754740532
  0
VERTEX
  8
SURFACE
 62
7
  6
CONTINUOUS
 10
337.8089193074
 20
115.8369826409
  0
VERTEX
  8
SURFACE
 62
7
  6
CONTINUOUS
 10
337.7068887467
 20
115.9855537295
  0
VERTEX
  8
SURFACE
 62
7
  6
CONTINUOUS
 10
337.5838740135
 20
116.1200749648
  0
VERTEX
  8
SURFACE
 62
7
  6
CONTINUOUS
 10
337.4405472151
 20
116.2390079063
  0
VERTEX
  8
SURFACE
 62
7
  6
CONTINUOUS
 10
337.3117954845
 20
116.3218423973
  0
SEQEND
  0
LINE
  8
SURFACE
 62
7
  6
CONTINUOUS
 10
337.9893465974
 20
98.5283473108
 11
337.9893465974
 21
115.5783473108
  0
LINE
  8
SURFACE
 62
7
  6
CONTINUOUS
 10
350.6893465974
 20
106.6033473108
 11
350.6893465974
 21
107.5033473108
  0
LINE
  8
0
 62
7
  6
CONTINUOUS
 10
384.2693504628
 20
164.388582784
 11
387.1112770209
 21
164.388582784
  0
POLYLINE
  8
0
 62
7
  6
CONTINUOUS
 66
1
 70
0
  0
VERTEX
  8
0
 62
7
  6
CONTINUOUS
 10
390.1530856268
 20
166.2006870488
  0
VERTEX
  8
0
 62
7
  6
CONTINUOUS
 10
390.285733098
 20
166.2353187266
  0
VERTEX
  8
0
 62
7
  6
CONTINUOUS
 10
390.4058224263
 20
166.2889995204
  0
VERTEX
  8
0
 62
7
  6
CONTINUOUS
 10
390.510408044
 20
166.360425212
  0
VERTEX
  8
0
 62
7
  6
CONTINUOUS
 10
390.5969558172
 20
166.4479150061
  0
VERTEX
  8
0
 62
7
  6
CONTINUOUS
 10
390.663135885
 20
166.5489357434
  0
SEQEND
  0
LINE
  8
0
 62
7
  6
CONTINUOUS
 10
384.3943504628
 20
168.838582784
 11
378.5177371646
 21
168.6333669256
  0
LINE
  8
0
 62
7
  6
CONTINUOUS
 10
384.1943504628
 20
168.838582784
 11
384.5943504628
 21
168.838582784
  0
POLYLINE
  8
0
 62
7
  6
CONTINUOUS
 66
1
 70
0
  0
VERTEX
  8
0
 62
7
  6
CONTINUOUS
 10
390.1484253254
 20
166.200676642
  0
VERTEX
  8
0
 62
7
  6
CONTINUOUS
 10
390.1497285781
 20
166.2004998444
  0
VERTEX
  8
0
 62
7
  6
CONTINUOUS
 10
390.15130085
 20
166.2005111611
  0
VERTEX
  8
0
 62
7
  6
CONTINUOUS
 10
390.1530869011
 20
166.2006843912
  0
SEQEND
  0
LINE
  8
DEFAULT_1
 62
7
  6
CENTER
 10
389.8443504628
 20
172.838582784
 11
386.5944504628
 21
172.838582784
  0
LINE
  8
0
 62
2
  6
CONTINUOUS
 10
385.6443504628
 20
172.838582784
 11
383.5443504628
 21
172.838582784
  0
LINE
  8
DEFAULT_1
 62
7
  6
CENTER
 10
379.3443504628
 20
172.838582784
 11
382.5942504628
 21
172.838582784
  0
LINE
  8
0
 62
7
  6
CONTINUOUS
 10
392.9193534775
 20
177.888582784
 11
392.4193504628
 21
177.888582784
  0
LINE
  8
0
 62
7
  6
CONTINUOUS
 10
374.8693504628
 20
173.7886174211
 11
374.8693504628
 21
205.988584179
  0
LINE
  8
0
 62
7
  6
CONTINUOUS
 10
380.1943504628
 20
172.838582784
 11
380.1943504628
 21
184.738582784
  0
LINE
  8
0
 62
7
  6
CONTINUOUS
 10
375.8344509661
 20
187.7875010612
 11
381.3925694115
 21
187.5934072882
  0
LINE
  8
0
 62
7
  6
CONTINUOUS
 10
381.4443504628
 20
204.938582784
 11
381.4443504628
 21
200.838582784
  0
LINE
  8
0
 62
7
  6
CONTINUOUS
 10
384.1943504628
 20
188.738582784
 11
384.5943504628
 21
188.738582784
  0
LINE
  8
DEFAULT_1
 62
7
  6
CENTER
 10
384.3943504628
 20
216.188582784
 11
384.3943504628
 21
212.938682784
  0
LINE
  8
0
 62
2
  6
CONTINUOUS
 10
384.3943504628
 20
211.988582784
 11
384.3943504628
 21
209.888582784
  0
LINE
  8
0
 62
7
  6
CONTINUOUS
 10
384.3943504628
 20
168.838582784
 11
384.3943504628
 21
167.5255113238
  0
LINE
  8
DEFAULT_1
 62
7
  6
CENTER
 10
384.3943504628
 20
205.688582784
 11
384.3943504628
 21
208.938482784
  0
LINE
  8
DEFAULT_1
 62
7
  6
CENTER
 10
384.5943504628
 20
178.088582784
 11
384.5943504628
 21
174.838682784
  0
LINE
  8
0
 62
2
  6
CONTINUOUS
 10
384.5943504628
 20
173.888582784
 11
384.5943504628
 21
171.788582784
  0
LINE
  8
DEFAULT_1
 62
7
  6
CENTER
 10
384.5943504628
 20
167.588582784
 11
384.5943504628
 21
170.838482784
  0
LINE
  8
0
 62
7
  6
CONTINUOUS
 10
375.8693501377
 20
190.888582784
 11
388.577662547
 21
190.888582784
  0
LINE
  8
DEFAULT_1
 62
7
  6
CENTER
 10
372.869323262
 20
191.888582784
 11
395.9193507242
 21
191.888582784
  0
LINE
  8
0
 62
7
  6
CONTINUOUS
 10
387.3443504628
 20
200.838582784
 11
387.3443504628
 21
204.938582784
  0
LINE
  8
0
 62
7
  6
CONTINUOUS
 10
388.5943504628
 20
172.838582784
 11
388.5943504628
 21
184.738582784
  0
LINE
  8
0
 62
7
  6
CONTINUOUS
 10
391.3693504628
 20
209.9807626397
 11
391.3693504628
 21
203.1885823067
  0
LINE
  8
0
 62
7
  6
CONTINUOUS
 10
391.9193504628
 20
186.3885824957
 11
391.9193504628
 21
176.0059106955
  0
LINE
  8
SURFACE
 62
7
  6
CONTINUOUS
 10
393.9193504628
 20
182.388582784
 11
393.9193504628
 21
182.1218116665
  0
LINE
  8
0
 62
7
  6
CONTINUOUS
 10
393.9193504628
 20
205.988582784
 11
393.9193504628
 21
173.788582784
  0
LINE
  8
SURFACE
 62
7
  6
CONTINUOUS
 10
393.9193507635
 20
178.8882490009
 11
393.9193508413
 21
178.8885845786
  0
POLYLINE
  8
0
 62
7
  6
CONTINUOUS
 66
1
 70
0
  0
VERTEX
  8
0
 62
7
  6
CONTINUOUS
 10
393.9176667238
 20
178.8305734798
  0
VERTEX
  8
0
 62
7
  6
CONTINUOUS
 10
393.9180624449
 20
178.8378407355
  0
VERTEX
  8
0
 62
7
  6
CONTINUOUS
 10
393.9183980498
 20
178.8449451767
  0
VERTEX
  8
0
 62
7
  6
CONTINUOUS
 10
393.918674415
 20
178.8518145217
  0
VERTEX
  8
0
 62
7
  6
CONTINUOUS
 10
393.9188942558
 20
178.8583765078
  0
VERTEX
  8
0
 62
7
  6
CONTINUOUS
 10
393.9190616935
 20
178.8645490974
  0
VERTEX
  8
0
 62
7
  6
CONTINUOUS
 10
393.9191815382
 20
178.870199716
  0
VERTEX
  8
0
 62
7
  6
CONTINUOUS
 10
393.9192599583
 20
178.875126315
  0
VERTEX
  8
0
 62
7
  6
CONTINUOUS
 10
393.9193273877
 20
178.881787913
  0
SEQEND
  0
POLYLINE
  8
0
 62
7
  6
CONTINUOUS
 66
1
 70
0
  0
VERTEX
  8
0
 62
7
  6
CONTINUOUS
 10
393.9062895209
 20
178.7274849818
  0
VERTEX
  8
0
 62
7
  6
CONTINUOUS
 10
393.9076189191
 20
178.7358522847
  0
VERTEX
  8
0
 62
7
  6
CONTINUOUS
 10
393.9088678096
 20
178.7441649589
  0
VERTEX
  8
0
 62
7
  6
CONTINUOUS
 10
393.9100371823
 20
178.7524179863
  0
VERTEX
  8
0
 62
7
  6
CONTINUOUS
 10
393.91112816
 20
178.760606348
  0
VERTEX
  8
0
 62
7
  6
CONTINUOUS
 10
393.912141997
 20
178.7687250401
  0
VERTEX
  8
0
 62
7
  6
CONTINUOUS
 10
393.9130800761
 20
178.7767690773
  0
VERTEX
  8
0
 62
7
  6
CONTINUOUS
 10
393.913943905
 20
178.7847334961
  0
VERTEX
  8
0
 62
7
  6
CONTINUOUS
 10
393.9147351119
 20
178.7926133582
  0
VERTEX
  8
0
 62
7
  6
CONTINUOUS
 10
393.915455442
 20
178.8004037542
  0
VERTEX
  8
0
 62
7
  6
CONTINUOUS
 10
393.916106753
 20
178.8080998063
  0
VERTEX
  8
0
 62
7
  6
CONTINUOUS
 10
393.9166910099
 20
178.8156966668
  0
VERTEX
  8
0
 62
7
  6
CONTINUOUS
 10
393.9172102795
 20
178.8231895074
  0
VERTEX
  8
0
 62
7
  6
CONTINUOUS
 10
393.9176667238
 20
178.8305734798
  0
SEQEND
  0
LINE
  8
0
 62
7
  6
CONTINUOUS
 10
393.8963561197
 20
178.6753828164
 11
393.9142561159
 21
178.7877302141
  0
LINE
  8
0
 62
7
  6
CONTINUOUS
 10
393.8659501602
 20
178.5661332266
 11
393.8963561197
 21
178.6753828164
  0
LINE
  8
0
 62
7
  6
CONTINUOUS
 10
391.5777934759
 20
211.377392428
 11
393.7830472143
 21
203.1472734326
  0
LINE
  8
0
 62
7
  6
CONTINUOUS
 10
393.7830537023
 20
177.1299163488
 11
391.4125847433
 21
168.2832057563
  0
POLYLINE
  8
0
 62
7
  6
CONTINUOUS
 66
1
 70
0
  0
VERTEX
  8
0
 62
7
  6
CONTINUOUS
 10
393.8701692402
 20
178.5788315849
  0
VERTEX
  8
0
 62
7
  6
CONTINUOUS
 10
393.8730546165
 20
178.5878329071
  0
VERTEX
  8
0
 62
7
  6
CONTINUOUS
 10
393.8758395394
 20
178.5968111344
  0
VERTEX
  8
0
 62
7
  6
CONTINUOUS
 10
393.8785249785
 20
178.6057643886
  0
VERTEX
  8
0
 62
7
  6
CONTINUOUS
 10
393.8811119353
 20
178.6146908108
  0
VERTEX
  8
0
 62
7
  6
CONTINUOUS
 10
393.8836014423
 20
178.6235885622
  0
VERTEX
  8
0
 62
7
  6
CONTINUOUS
 10
393.8859945623
 20
178.6324558242
  0
VERTEX
  8
0
 62
7
  6
CONTINUOUS
 10
393.8882923877
 20
178.6412907993
  0
VERTEX
  8
0
 62
7
  6
CONTINUOUS
 10
393.8904960401
 20
178.6500917111
  0
VERTEX
  8
0
 62
7
  6
CONTINUOUS
 10
393.8926066689
 20
178.6588568051
  0
VERTEX
  8
0
 62
7
  6
CONTINUOUS
 10
393.8946254514
 20
178.6675843486
  0
VERTEX
  8
0
 62
7
  6
CONTINUOUS
 10
393.8965535912
 20
178.6762726315
  0
VERTEX
  8
0
 62
7
  6
CONTINUOUS
 10
393.8983923181
 20
178.6849199664
  0
VERTEX
  8
0
 62
7
  6
CONTINUOUS
 10
393.9001428871
 20
178.6935246886
  0
VERTEX
  8
0
 62
7
  6
CONTINUOUS
 10
393.9018065775
 20
178.7020851571
  0
VERTEX
  8
0
 62
7
  6
CONTINUOUS
 10
393.9033846923
 20
178.7105997541
  0
VERTEX
  8
0
 62
7
  6
CONTINUOUS
 10
393.9048785575
 20
178.7190668858
  0
VERTEX
  8
0
 62
7
  6
CONTINUOUS
 10
393.9062895209
 20
178.7274849818
  0
SEQEND
  0
LINE
  8
0
 62
7
  6
CONTINUOUS
 10
393.8231363623
 20
178.460594761
 11
393.8658006485
 21
178.5657644124
  0
POLYLINE
  8
0
 62
7
  6
CONTINUOUS
 66
1
 70
0
  0
VERTEX
  8
0
 62
7
  6
CONTINUOUS
 10
393.8096831924
 20
178.4332691547
  0
VERTEX
  8
0
 62
7
  6
CONTINUOUS
 10
393.8142793595
 20
178.4423708366
  0
VERTEX
  8
0
 62
7
  6
CONTINUOUS
 10
393.8187643799
 20
178.4514816528
  0
VERTEX
  8
0
 62
7
  6
CONTINUOUS
 10
393.8231386337
 20
178.4605994955
  0
VERTEX
  8
0
 62
7
  6
CONTINUOUS
 10
393.8274025419
 20
178.4697222659
  0
VERTEX
  8
0
 62
7
  6
CONTINUOUS
 10
393.8315565658
 20
178.478847875
  0
VERTEX
  8
0
 62
7
  6
CONTINUOUS
 10
393.8356012065
 20
178.4879742446
  0
VERTEX
  8
0
 62
7
  6
CONTINUOUS
 10
393.8395370042
 20
178.4970993076
  0
VERTEX
  8
0
 62
7
  6
CONTINUOUS
 10
393.8433645384
 20
178.5062210092
  0
VERTEX
  8
0
 62
7
  6
CONTINUOUS
 10
393.8470844265
 20
178.5153373074
  0
VERTEX
  8
0
 62
7
  6
CONTINUOUS
 10
393.850697324
 20
178.5244461737
  0
VERTEX
  8
0
 62
7
  6
CONTINUOUS
 10
393.8542039237
 20
178.5335455939
  0
VERTEX
  8
0
 62
7
  6
CONTINUOUS
 10
393.8576049552
 20
178.542633569
  0
VERTEX
  8
0
 62
7
  6
CONTINUOUS
 10
393.860901184
 20
178.551708115
  0
VERTEX
  8
0
 62
7
  6
CONTINUOUS
 10
393.8640934113
 20
178.5607672642
  0
VERTEX
  8
0
 62
7
  6
CONTINUOUS
 10
393.8671824732
 20
178.5698090654
  0
VERTEX
  8
0
 62
7
  6
CONTINUOUS
 10
393.8701692402
 20
178.5788315849
  0
SEQEND
  0
LINE
  8
0
 62
7
  6
CONTINUOUS
 10
393.7686794109
 20
178.360719514
 11
393.8231363623
 21
178.460594761
  0
LINE
  8
0
 62
7
  6
CONTINUOUS
 10
393.7034581093
 20
178.2679277403
 11
393.7686794109
 21
178.360719514
  0
POLYLINE
  8
0
 62
7
  6
CONTINUOUS
 66
1
 70
0
  0
VERTEX
  8
0
 62
7
  6
CONTINUOUS
 10
393.7272731145
 20
178.2992914327
  0
VERTEX
  8
0
 62
7
  6
CONTINUOUS
 10
393.7335533924
 20
178.3079995629
  0
VERTEX
  8
0
 62
7
  6
CONTINUOUS
 10
393.7397219263
 20
178.3167489559
  0
VERTEX
  8
0
 62
7
  6
CONTINUOUS
 10
393.7457784498
 20
178.3255374714
  0
VERTEX
  8
0
 62
7
  6
CONTINUOUS
 10
393.7517227408
 20
178.3343629647
  0
VERTEX
  8
0
 62
7
  6
CONTINUOUS
 10
393.7575546216
 20
178.3432232881
  0
VERTEX
  8
0
 62
7
  6
CONTINUOUS
 10
393.7632739587
 20
178.3521162914
  0
VERTEX
  8
0
 62
7
  6
CONTINUOUS
 10
393.7688806627
 20
178.3610398228
  0
VERTEX
  8
0
 62
7
  6
CONTINUOUS
 10
393.7743746883
 20
178.3699917303
  0
VERTEX
  8
0
 62
7
  6
CONTINUOUS
 10
393.7797560337
 20
178.3789698622
  0
VERTEX
  8
0
 62
7
  6
CONTINUOUS
 10
393.7850247411
 20
178.3879720681
  0
VERTEX
  8
0
 62
7
  6
CONTINUOUS
 10
393.7901808955
 20
178.3969961999
  0
VERTEX
  8
0
 62
7
  6
CONTINUOUS
 10
393.7952246255
 20
178.4060401129
  0
VERTEX
  8
0
 62
7
  6
CONTINUOUS
 10
393.8001561021
 20
178.415101666
  0
VERTEX
  8
0
 62
7
  6
CONTINUOUS
 10
393.8049755391
 20
178.4241787233
  0
VERTEX
  8
0
 62
7
  6
CONTINUOUS
 10
393.8096831924
 20
178.4332691547
  0
SEQEND
  0
LINE
  8
0
 62
7
  6
CONTINUOUS
 10
393.6278831985
 20
178.182877619
 11
393.7031107858
 21
178.2675368711
  0
POLYLINE
  8
0
 62
7
  6
CONTINUOUS
 66
1
 70
0
  0
VERTEX
  8
0
 62
7
  6
CONTINUOUS
 10
393.6278711168
 20
178.1828902597
  0
VERTEX
  8
0
 62
7
  6
CONTINUOUS
 10
393.635662968
 20
178.1908006909
  0
VERTEX
  8
0
 62
7
  6
CONTINUOUS
 10
393.6433514566
 20
178.1987813542
  0
VERTEX
  8
0
 62
7
  6
CONTINUOUS
 10
393.6509356999
 20
178.2068302716
  0
VERTEX
  8
0
 62
7
  6
CONTINUOUS
 10
393.6584148581
 20
178.2149454474
  0
VERTEX
  8
0
 62
7
  6
CONTINUOUS
 10
393.6657881343
 20
178.2231248688
  0
VERTEX
  8
0
 62
7
  6
CONTINUOUS
 10
393.6730547754
 20
178.2313665067
  0
VERTEX
  8
0
 62
7
  6
CONTINUOUS
 10
393.6802140714
 20
178.2396683174
  0
VERTEX
  8
0
 62
7
  6
CONTINUOUS
 10
393.6872653567
 20
178.2480282428
  0
VERTEX
  8
0
 62
7
  6
CONTINUOUS
 10
393.6942080092
 20
178.2564442118
  0
VERTEX
  8
0
 62
7
  6
CONTINUOUS
 10
393.7010414514
 20
178.2649141412
  0
VERTEX
  8
0
 62
7
  6
CONTINUOUS
 10
393.7077651498
 20
178.2734359369
  0
VERTEX
  8
0
 62
7
  6
CONTINUOUS
 10
393.7143786154
 20
178.2820074944
  0
VERTEX
  8
0
 62
7
  6
CONTINUOUS
 10
393.7208814037
 20
178.2906267002
  0
VERTEX
  8
0
 62
7
  6
CONTINUOUS
 10
393.7272731145
 20
178.2992914327
  0
SEQEND
  0
LINE
  8
DEFAULT_1
 62
7
  6
CENTER
 10
389.6443504628
 20
210.938582784
 11
386.3944504628
 21
210.938582784
  0
LINE
  8
0
 62
2
  6
CONTINUOUS
 10
385.4443504628
 20
210.938582784
 11
383.3443504628
 21
210.938582784
  0
LINE
  8
DEFAULT_1
 62
7
  6
CENTER
 10
379.1443504628
 20
210.938582784
 11
382.3942504628
 21
210.938582784
  0
LINE
  8
0
 62
7
  6
CONTINUOUS
 10
384.2693504628
 20
215.388582784
 11
384.5193504628
 21
215.388582784
  0
ARC
  8
0
 62
7
  6
CONTINUOUS
 10
48.5290925595
 20
167.888582784
 40
10.0
 50
36.0398806399
 51
90.0000025443
  0
ARC
  8
0
 62
7
  6
CONTINUOUS
 10
65.7019972709
 20
165.388582784
 40
1.0
 50
270.0
 51
302.9545473106
  0
ARC
  8
0
 62
7
  6
CONTINUOUS
 10
60.6766959238
 20
165.388582784
 40
1.0
 50
237.0454526894
 51
270.0
  0
ARC
  8
0
 62
7
  6
CONTINUOUS
 10
61.2580435514
 20
165.388582784
 40
1.0
 50
233.1874603689
 51
269.9997806027
  0
ARC
  8
0
 62
7
  6
CONTINUOUS
 10
65.1205457329
 20
165.388582784
 40
1.0
 50
270.0
 51
306.8123004204
  0
ARC
  8
0
 62
7
  6
CONTINUOUS
 10
66.1893465974
 20
168.4658964647
 40
3.0
 50
320.2654418157
 51
0.0014648324
  0
ARC
  8
0
 62
7
  6
CONTINUOUS
 10
60.1893465974
 20
168.4658964647
 40
3.0
 50
179.9999773357
 51
219.7344194028
  0
ARC
  8
0
 62
7
  6
CONTINUOUS
 10
60.8062353468
 20
172.9405040749
 40
10.0
 50
302.9545473106
 51
320.2655518186
  0
ARC
  8
0
 62
7
  6
CONTINUOUS
 10
65.5724578479
 20
172.9405040749
 40
10.0
 50
219.7344015089
 51
237.0454526894
  0
ARC
  8
0
 62
7
  6
CONTINUOUS
 10
54.1893465974
 20
172.0070198938
 40
3.0
 50
359.9999887032
 51
36.0398916128
  0
ARC
  8
0
 62
7
  6
CONTINUOUS
 10
92.1893465974
 20
168.4658964647
 40
3.0
 50
320.2654418157
 51
359.9999901548
  0
ARC
  8
0
 62
7
  6
CONTINUOUS
 10
86.1893465974
 20
168.4658964647
 40
3.0
 50
180.0
 51
219.7345619553
  0
ARC
  8
0
 62
7
  6
CONTINUOUS
 10
86.6766959238
 20
165.388582784
 40
1.0
 50
237.0454526894
 51
270.0
  0
ARC
  8
0
 62
7
  6
CONTINUOUS
 10
91.7019972709
 20
165.388582784
 40
1.0
 50
270.0
 51
302.9545473106
  0
ARC
  8
0
 62
7
  6
CONTINUOUS
 10
86.8062353468
 20
172.9405040749
 40
10.0
 50
302.9545473106
 51
320.2655518186
  0
ARC
  8
0
 62
7
  6
CONTINUOUS
 10
91.5724578479
 20
172.9405040749
 40
10.0
 50
219.7344493127
 51
237.0454526894
  0
ARC
  8
0
 62
7
  6
CONTINUOUS
 10
76.1893465974
 20
171.9471543555
 40
10.0
 50
55.150095421
 51
61.8960195945
  0
ARC
  8
0
 62
7
  6
CONTINUOUS
 10
76.1893465974
 20
171.9471543555
 40
10.0
 50
118.1039804055
 51
124.849904579
  0
ARC
  8
0
 62
7
  6
CONTINUOUS
 10
79.4868587347
 20
178.1218133504
 40
3.0
 50
61.8960195945
 51
113.1258610961
  0
ARC
  8
0
 62
7
  6
CONTINUOUS
 10
72.89183446
 20
178.1218133504
 40
3.0
 50
66.8741389039
 51
118.1039804055
  0
ARC
  8
0
 62
7
  6
CONTINUOUS
 10
80.1893465974
 20
177.691717002
 40
3.0
 50
359.9997747394
 51
55.150095421
  0
ARC
  8
0
 62
7
  6
CONTINUOUS
 10
72.1893465974
 20
177.691717002
 40
3.0
 50
124.849904579
 51
180.0002252146
  0
ARC
  8
0
 62
7
  6
CONTINUOUS
 10
16.1893465974
 20
201.888582784
 40
18.0
 50
343.0425737058
 51
16.9574262942
  0
ARC
  8
0
 62
7
  6
CONTINUOUS
 10
38.1893465974
 20
195.1803788515
 40
5.0
 50
163.0425737058
 51
180.0
  0
ARC
  8
0
 62
7
  6
CONTINUOUS
 10
22.9893465974
 20
200.388582784
 40
2.5
 50
179.9999999368
 51
270.0
  0
ARC
  8
0
 62
7
  6
CONTINUOUS
 10
31.8026189686
 20
196.3885835096
 40
1.4999997554
 50
349.2877064648
 51
90.0
  0
ARC
  8
0
 62
7
  6
CONTINUOUS
 10
76.1893465974
 20
185.8430633555
 40
5.395909
 50
246.8741389039
 51
293.1258610961
  0
ARC
  8
0
 62
7
  6
CONTINUOUS
 10
83.1893465974
 20
199.888582784
 40
4.0
 50
124.8499019259
 51
251.7900431357
  0
ARC
  8
0
 62
7
  6
CONTINUOUS
 10
95.1893465974
 20
199.888582784
 40
4.0
 50
288.2099568643
 51
55.1500961791
  0
ARC
  8
0
 62
7
  6
CONTINUOUS
 10
69.1893465974
 20
199.888582784
 40
4.0
 50
278.4149680847
 51
55.1498268768
  0
ARC
  8
0
 62
7
  6
CONTINUOUS
 10
69.164046154
 20
197.8642871467
 40
2.0
 50
195.0
 51
277.9868894141
  0
ARC
  8
0
 62
7
  6
CONTINUOUS
 10
82.5643465974
 20
197.9887472648
 40
2.0
 50
251.7900431357
 51
345.0
  0
ARC
  8
0
 62
7
  6
CONTINUOUS
 10
95.8143465974
 20
197.9887472648
 40
2.0
 50
195.0
 51
288.2099568643
  0
ARC
  8
0
 62
7
  6
CONTINUOUS
 10
91.8340554637
 20
197.388582784
 40
2.0
 50
15.0
 51
90.0
  0
ARC
  8
0
 62
7
  6
CONTINUOUS
 10
86.544637731
 20
197.388582784
 40
2.0
 50
90.0
 51
165.0
  0
ARC
  8
0
 62
7
  6
CONTINUOUS
 10
65.1622875372
 20
197.3442404033
 40
2.0
 50
15.0
 51
91.6372450778
  0
ARC
  8
0
 62
7
  6
CONTINUOUS
 10
56.3893465974
 20
199.2943810862
 40
0.2
 50
180.0
 51
271.6372450778
  0
ARC
  8
0
 62
7
  6
CONTINUOUS
 10
118.1893465974
 20
168.4658964647
 40
3.0
 50
320.2655741164
 51
0.0000010154
  0
ARC
  8
0
 62
7
  6
CONTINUOUS
 10
138.1893465974
 20
168.4658964647
 40
3.0
 50
180.0000007673
 51
219.7344071285
  0
ARC
  8
0
 62
7
  6
CONTINUOUS
 10
112.1893465974
 20
168.4658964647
 40
3.0
 50
180.0
 51
219.7348154137
  0
ARC
  8
0
 62
7
  6
CONTINUOUS
 10
112.6766959238
 20
165.388582784
 40
1.0
 50
237.0454526894
 51
270.0
  0
ARC
  8
0
 62
7
  6
CONTINUOUS
 10
138.6766959238
 20
165.388582784
 40
1.0
 50
237.0454526894
 51
270.0
  0
ARC
  8
0
 62
7
  6
CONTINUOUS
 10
117.7019972709
 20
165.388582784
 40
1.0
 50
270.0
 51
302.9545473106
  0
ARC
  8
0
 62
7
  6
CONTINUOUS
 10
112.8062353468
 20
172.9405040749
 40
10.0
 50
302.9545473106
 51
320.2655915088
  0
ARC
  8
0
 62
7
  6
CONTINUOUS
 10
117.5724578479
 20
172.9405040749
 40
10.0
 50
219.7345253502
 51
237.0454526894
  0
ARC
  8
0
 62
7
  6
CONTINUOUS
 10
102.1893465974
 20
171.9471543555
 40
10.0
 50
55.150095421
 51
61.8960195945
  0
ARC
  8
0
 62
7
  6
CONTINUOUS
 10
102.1893465974
 20
171.9471543555
 40
10.0
 50
118.1039804055
 51
124.849904579
  0
ARC
  8
0
 62
7
  6
CONTINUOUS
 10
105.4868587347
 20
178.1218133504
 40
3.0
 50
61.8960195945
 51
113.1258610961
  0
ARC
  8
0
 62
7
  6
CONTINUOUS
 10
98.89183446
 20
178.1218133504
 40
3.0
 50
66.8741389039
 51
118.1039804055
  0
ARC
  8
0
 62
7
  6
CONTINUOUS
 10
106.1893465974
 20
177.691717002
 40
3.0
 50
0.0
 51
55.150095421
  0
ARC
  8
0
 62
7
  6
CONTINUOUS
 10
98.1893465974
 20
177.691717002
 40
3.0
 50
124.849904579
 51
180.0002252146
  0
ARC
  8
0
 62
7
  6
CONTINUOUS
 10
138.8062353468
 20
172.9405040749
 40
10.0
 50
302.9545473106
 51
320.2655915088
  0
ARC
  8
0
 62
7
  6
CONTINUOUS
 10
128.1893465974
 20
171.9471543555
 40
10.0
 50
55.150095421
 51
61.8960195945
  0
ARC
  8
0
 62
7
  6
CONTINUOUS
 10
128.1893465974
 20
171.9471543555
 40
10.0
 50
118.1039804055
 51
124.849904579
  0
ARC
  8
0
 62
7
  6
CONTINUOUS
 10
131.4868587347
 20
178.1218133504
 40
3.0
 50
61.8960195945
 51
113.1258610961
  0
ARC
  8
0
 62
7
  6
CONTINUOUS
 10
124.89183446
 20
178.1218133504
 40
3.0
 50
66.8741389039
 51
118.1039804055
  0
ARC
  8
0
 62
7
  6
CONTINUOUS
 10
132.1893465974
 20
177.691717002
 40
3.0
 50
0.0
 51
55.150095421
  0
ARC
  8
0
 62
7
  6
CONTINUOUS
 10
124.1893465974
 20
177.691717002
 40
3.0
 50
124.849904579
 51
180.0
  0
ARC
  8
0
 62
7
  6
CONTINUOUS
 10
144.1893465974
 20
168.4658964647
 40
3.0
 50
320.2655741164
 51
0.0000010154
  0
ARC
  8
0
 62
7
  6
CONTINUOUS
 10
164.1893465974
 20
168.4658964647
 40
3.0
 50
180.0000007673
 51
219.7344071285
  0
ARC
  8
0
 62
7
  6
CONTINUOUS
 10
170.1893465974
 20
168.4658964647
 40
3.0
 50
320.265120023
 51
359.9999891652
  0
ARC
  8
0
 62
7
  6
CONTINUOUS
 10
164.6766959238
 20
165.388582784
 40
1.0
 50
237.0454526894
 51
270.0
  0
ARC
  8
0
 62
7
  6
CONTINUOUS
 10
143.7019972709
 20
165.388582784
 40
1.0
 50
270.0
 51
302.9545473106
  0
ARC
  8
0
 62
7
  6
CONTINUOUS
 10
169.7019972709
 20
165.388582784
 40
1.0
 50
270.0
 51
302.9545473106
  0
ARC
  8
0
 62
7
  6
CONTINUOUS
 10
143.5724578479
 20
172.9405040749
 40
10.0
 50
219.7344028647
 51
237.0454526894
  0
ARC
  8
0
 62
7
  6
CONTINUOUS
 10
169.5724578479
 20
172.9405040749
 40
10.0
 50
219.7344028647
 51
237.0454526894
  0
ARC
  8
0
 62
7
  6
CONTINUOUS
 10
164.8062353468
 20
172.9405040749
 40
10.0
 50
302.9545473106
 51
320.2654552808
  0
ARC
  8
0
 62
7
  6
CONTINUOUS
 10
154.1893465974
 20
171.9471543555
 40
10.0
 50
55.150095421
 51
61.8960195945
  0
ARC
  8
0
 62
7
  6
CONTINUOUS
 10
154.1893465974
 20
171.9471543555
 40
10.0
 50
118.1039804055
 51
124.849904579
  0
ARC
  8
0
 62
7
  6
CONTINUOUS
 10
180.1893465974
 20
171.9471543555
 40
10.0
 50
118.1039804055
 51
124.849904579
  0
ARC
  8
0
 62
7
  6
CONTINUOUS
 10
176.89183446
 20
178.1218133504
 40
3.0
 50
66.8741389039
 51
118.1039804055
  0
ARC
  8
0
 62
7
  6
CONTINUOUS
 10
157.4868587347
 20
178.1218133504
 40
3.0
 50
61.8960195945
 51
113.1258610961
  0
ARC
  8
0
 62
7
  6
CONTINUOUS
 10
150.89183446
 20
178.1218133504
 40
3.0
 50
66.8741389039
 51
118.1039804055
  0
ARC
  8
0
 62
7
  6
CONTINUOUS
 10
176.1893465974
 20
177.691717002
 40
3.0
 50
124.849904579
 51
180.0
  0
ARC
  8
0
 62
7
  6
CONTINUOUS
 10
158.1893465974
 20
177.691717002
 40
3.0
 50
0.0
 51
55.150095421
  0
ARC
  8
0
 62
7
  6
CONTINUOUS
 10
150.1893465974
 20
177.691717002
 40
3.0
 50
124.849904579
 51
180.0
  0
ARC
  8
0
 62
7
  6
CONTINUOUS
 10
128.1893465974
 20
185.8430633555
 40
5.395909
 50
246.8741389039
 51
293.1258610961
  0
ARC
  8
0
 62
7
  6
CONTINUOUS
 10
102.1893465974
 20
185.8430633555
 40
5.395909
 50
246.8741389039
 51
293.1258610961
  0
ARC
  8
0
 62
7
  6
CONTINUOUS
 10
109.1893465974
 20
199.888582784
 40
4.0
 50
124.8499019554
 51
251.7900431357
  0
ARC
  8
0
 62
7
  6
CONTINUOUS
 10
121.1893465974
 20
199.888582784
 40
4.0
 50
288.2099568643
 51
55.150095421
  0
ARC
  8
0
 62
7
  6
CONTINUOUS
 10
135.1893465974
 20
199.888582784
 40
4.0
 50
124.849904579
 51
251.7900431357
  0
ARC
  8
0
 62
7
  6
CONTINUOUS
 10
108.5643465974
 20
197.9887472648
 40
2.0
 50
251.7900431357
 51
345.0
  0
ARC
  8
0
 62
7
  6
CONTINUOUS
 10
121.8143465974
 20
197.9887472648
 40
2.0
 50
195.0
 51
288.2099568643
  0
ARC
  8
0
 62
7
  6
CONTINUOUS
 10
134.5643465974
 20
197.9887472648
 40
2.0
 50
251.7900431357
 51
345.0
  0
ARC
  8
0
 62
7
  6
CONTINUOUS
 10
138.544637731
 20
197.388582784
 40
2.0
 50
90.0
 51
165.0
  0
ARC
  8
0
 62
7
  6
CONTINUOUS
 10
117.8340554637
 20
197.388582784
 40
2.0
 50
15.0
 51
90.0
  0
ARC
  8
0
 62
7
  6
CONTINUOUS
 10
112.544637731
 20
197.388582784
 40
2.0
 50
90.0
 51
165.0
  0
ARC
  8
0
 62
7
  6
CONTINUOUS
 10
154.1893465974
 20
185.8430633555
 40
5.395909
 50
246.8741389039
 51
293.1258610961
  0
ARC
  8
0
 62
7
  6
CONTINUOUS
 10
180.1893465974
 20
185.8430633555
 40
5.395909
 50
246.8741389039
 51
270.0
  0
ARC
  8
0
 62
7
  6
CONTINUOUS
 10
147.1893465974
 20
199.888582784
 40
4.0
 50
288.2099568643
 51
55.150095421
  0
ARC
  8
0
 62
7
  6
CONTINUOUS
 10
161.1893465974
 20
199.888582784
 40
4.0
 50
124.849904579
 51
251.7900431357
  0
ARC
  8
0
 62
7
  6
CONTINUOUS
 10
173.1893465974
 20
199.888582784
 40
4.0
 50
288.2099568643
 51
55.150095421
  0
ARC
  8
0
 62
7
  6
CONTINUOUS
 10
160.5643465974
 20
197.9887472648
 40
2.0
 50
251.7900431357
 51
345.0
  0
ARC
  8
0
 62
7
  6
CONTINUOUS
 10
173.8143465974
 20
197.9887472648
 40
2.0
 50
195.0
 51
288.2099568643
  0
ARC
  8
0
 62
7
  6
CONTINUOUS
 10
147.8143465974
 20
197.9887472648
 40
2.0
 50
195.0
 51
288.2099568643
  0
ARC
  8
0
 62
7
  6
CONTINUOUS
 10
169.8340554637
 20
197.388582784
 40
2.0
 50
15.0
 51
90.0
  0
ARC
  8
0
 62
7
  6
CONTINUOUS
 10
164.544637731
 20
197.388582784
 40
2.0
 50
90.0
 51
165.0
  0
ARC
  8
0
 62
7
  6
CONTINUOUS
 10
143.8340554637
 20
197.388582784
 40
2.0
 50
15.0
 51
90.0
  0
ARC
  8
0
 62
7
  6
CONTINUOUS
 10
22.9893465974
 20
205.388582784
 40
2.5
 50
90.0
 51
180.0000000632
  0
ARC
  8
0
 62
7
  6
CONTINUOUS
 10
31.6893465974
 20
209.388582784
 40
1.5
 50
270.0
 51
359.9999991903
  0
ARC
  8
0
 62
7
  6
CONTINUOUS
 10
38.1893465974
 20
208.5967867165
 40
5.0
 50
180.0
 51
196.9569008342
  0
ARC
  8
0
 62
7
  6
CONTINUOUS
 10
46.2883847032
 20
205.984676245
 40
10.0
 50
9.6494631176
 51
69.0299125367
  0
ARC
  8
0
 62
7
  6
CONTINUOUS
 10
53.1893465974
 20
207.1580154693
 40
3.0
 50
0.0
 51
9.6494631176
  0
ARC
  8
0
 62
7
  6
CONTINUOUS
 10
56.6808752065
 20
209.589692353
 40
1.0
 50
86.888
 51
199.1309769227
  0
ARC
  8
0
 62
7
  6
CONTINUOUS
 10
49.5093092418
 20
214.388582784
 40
1.0
 50
69.0299125367
 51
90.0
  0
ARC
  8
0
 62
7
  6
CONTINUOUS
 10
34.1893465974
 20
214.388582784
 40
1.0
 50
90.0
 51
180.0
  0
ARC
  8
0
 62
7
  6
CONTINUOUS
 10
50.970243596
 20
215.9385807116
 40
0.9999995855
 50
244.8095260078
 51
269.9996446169
  0
ARC
  8
0
 62
7
  6
CONTINUOUS
 10
59.6893465974
 20
214.438582784
 40
0.5
 50
0.0
 51
90.0
  0
ARC
  8
0
 62
7
  6
CONTINUOUS
 10
59.6893465974
 20
210.9283441323
 40
0.5
 50
266.888008897
 51
359.9998361148
  0
ARC
  8
0
 62
7
  6
CONTINUOUS
 10
99.5085611229
 20
207.0243141022
 40
10.0
 50
35.7532575362
 51
54.9102006786
  0
ARC
  8
0
 62
7
  6
CONTINUOUS
 10
73.5085611229
 20
207.0243141022
 40
10.0
 50
35.7532575358
 51
54.9102006786
  0
ARC
  8
0
 62
7
  6
CONTINUOUS
 10
78.8701320718
 20
207.0243141022
 40
10.0
 50
125.0897993214
 51
144.2466574555
  0
ARC
  8
0
 62
7
  6
CONTINUOUS
 10
99.1893465974
 20
205.6331454306
 40
3.0
 50
180.0000054582
 51
235.1500944101
  0
ARC
  8
0
 62
7
  6
CONTINUOUS
 10
79.1893465974
 20
205.6331454306
 40
3.0
 50
304.8499081166
 51
359.9999945801
  0
ARC
  8
0
 62
7
  6
CONTINUOUS
 10
73.1893465974
 20
205.6331454306
 40
3.0
 50
180.0
 51
235.1504534798
  0
ARC
  8
0
 62
7
  6
CONTINUOUS
 10
72.3183848536
 20
205.1417945977
 40
2.0
 50
209.429406625
 51
210.3117334295
  0
ARC
  8
0
 62
7
  6
CONTINUOUS
 10
83.1893465974
 20
208.1484765918
 40
1.0
 50
86.888
 51
179.9769137153
  0
ARC
  8
0
 62
7
  6
CONTINUOUS
 10
69.1893465974
 20
208.9096318194
 40
0.9999996917
 50
0.0000019722
 51
86.888
  0
ARC
  8
0
 62
7
  6
CONTINUOUS
 10
92.6893465974
 20
209.1341961627
 40
0.5
 50
180.0
 51
266.8879973892
  0
ARC
  8
0
 62
7
  6
CONTINUOUS
 10
85.6893465974
 20
209.5147730048
 40
0.5
 50
266.8879973892
 51
360.0
  0
ARC
  8
0
 62
7
  6
CONTINUOUS
 10
99.1893465974
 20
211.1143845652
 40
3.0
 50
144.2467452761
 51
180.0
  0
ARC
  8
0
 62
7
  6
CONTINUOUS
 10
79.1893465974
 20
211.1143845652
 40
3.0
 50
0.0
 51
35.7532618308
  0
ARC
  8
0
 62
7
  6
CONTINUOUS
 10
73.1893465974
 20
211.1143845652
 40
3.0
 50
144.2464548069
 51
180.0
  0
ARC
  8
0
 62
7
  6
CONTINUOUS
 10
73.6963958222
 20
214.388582784
 40
1.0
 50
90.0
 51
125.0897993214
  0
ARC
  8
0
 62
7
  6
CONTINUOUS
 10
99.6963958222
 20
214.388582784
 40
1.0
 50
90.0
 51
125.0897993214
  0
ARC
  8
0
 62
7
  6
CONTINUOUS
 10
78.6822973731
 20
214.3885827838
 40
1.0
 50
54.9102007139
 51
90.0000000349
  0
ARC
  8
0
 62
7
  6
CONTINUOUS
 10
72.425298514
 20
215.9385803904
 40
0.9999995213
 50
270.0
 51
305.865848011
  0
ARC
  8
0
 62
7
  6
CONTINUOUS
 10
98.4252985139
 20
215.9385803904
 40
0.9999995213
 50
270.0
 51
305.8658480107
  0
ARC
  8
0
 62
7
  6
CONTINUOUS
 10
79.9533946931
 20
215.9385803846
 40
0.9999995201
 50
234.1341527089
 51
270.0
  0
ARC
  8
0
 62
7
  6
CONTINUOUS
 10
66.6893465974
 20
214.438582784
 40
0.5
 50
90.0
 51
180.000000697
  0
ARC
  8
0
 62
7
  6
CONTINUOUS
 10
66.6893465974
 20
210.5477672903
 40
0.5
 50
180.0
 51
266.8879973892
  0
ARC
  8
0
 62
7
  6
CONTINUOUS
 10
92.6893465974
 20
214.438582784
 40
0.5
 50
90.0
 51
180.0000001127
  0
ARC
  8
0
 62
7
  6
CONTINUOUS
 10
85.6893465974
 20
214.438582784
 40
0.5
 50
359.9999998873
 51
90.0
  0
ARC
  8
0
 62
7
  6
CONTINUOUS
 10
63.1893465974
 20
240.4471823654
 40
45.0
 50
277.9868894141
 51
278.4149680847
  0
ARC
  8
0
 62
7
  6
CONTINUOUS
 10
105.1893465974
 20
205.6331454306
 40
3.0
 50
304.8499080772
 51
359.9999945793
  0
ARC
  8
0
 62
7
  6
CONTINUOUS
 10
104.8701320718
 20
207.0243141022
 40
10.0
 50
125.0897993214
 51
144.2467445963
  0
ARC
  8
0
 62
7
  6
CONTINUOUS
 10
118.6893465974
 20
207.7206250352
 40
0.5
 50
180.0
 51
266.8879973892
  0
ARC
  8
0
 62
7
  6
CONTINUOUS
 10
111.6893465974
 20
208.1012018773
 40
0.5
 50
266.8879973892
 51
360.0
  0
ARC
  8
0
 62
7
  6
CONTINUOUS
 10
125.1893465974
 20
205.6331454306
 40
3.0
 50
180.0
 51
235.150095421
  0
ARC
  8
0
 62
7
  6
CONTINUOUS
 10
131.1893465974
 20
205.6331454306
 40
3.0
 50
304.849904579
 51
360.0
  0
ARC
  8
0
 62
7
  6
CONTINUOUS
 10
135.1893465974
 20
205.938582784
 40
1.0
 50
90.0
 51
177.1393027869
  0
ARC
  8
0
 62
7
  6
CONTINUOUS
 10
130.8701320718
 20
207.0243141022
 40
10.0
 50
125.0897993214
 51
144.2467496531
  0
ARC
  8
0
 62
7
  6
CONTINUOUS
 10
125.5085611229
 20
207.0243141022
 40
10.0
 50
35.7532524128
 51
54.9102006786
  0
ARC
  8
0
 62
7
  6
CONTINUOUS
 10
137.6893465974
 20
207.438582784
 40
0.5
 50
270.0
 51
0.0000001127
  0
ARC
  8
0
 62
7
  6
CONTINUOUS
 10
125.1893465974
 20
211.1143845652
 40
3.0
 50
144.2467621321
 51
180.0
  0
ARC
  8
0
 62
7
  6
CONTINUOUS
 10
105.1893465974
 20
211.1143845652
 40
3.0
 50
0.0
 51
35.753261832
  0
ARC
  8
0
 62
7
  6
CONTINUOUS
 10
131.1893465974
 20
211.1143845652
 40
3.0
 50
0.0
 51
35.7532447542
  0
ARC
  8
0
 62
7
  6
CONTINUOUS
 10
125.6963958222
 20
214.388582784
 40
1.0
 50
89.9999999999
 51
125.0897993214
  0
ARC
  8
0
 62
7
  6
CONTINUOUS
 10
104.6822973725
 20
214.388582784
 40
1.0
 50
54.9102006786
 51
90.0
  0
ARC
  8
0
 62
7
  6
CONTINUOUS
 10
130.6822973725
 20
214.388582784
 40
1.0
 50
54.9102006786
 51
90.0
  0
ARC
  8
0
 62
7
  6
CONTINUOUS
 10
124.4252985139
 20
215.9385803904
 40
0.9999995213
 50
270.0
 51
305.8658480107
  0
ARC
  8
0
 62
7
  6
CONTINUOUS
 10
105.9533946931
 20
215.9385803846
 40
0.9999995201
 50
234.1341527089
 51
270.0
  0
ARC
  8
0
 62
7
  6
CONTINUOUS
 10
131.9533946931
 20
215.9385803846
 40
0.9999995201
 50
234.134152709
 51
270.0
  0
ARC
  8
0
 62
7
  6
CONTINUOUS
 10
118.6893465974
 20
214.438582784
 40
0.5
 50
90.0
 51
180.0000001127
  0
ARC
  8
0
 62
7
  6
CONTINUOUS
 10
111.6893465974
 20
214.438582784
 40
0.5
 50
359.9999998873
 51
90.0
  0
ARC
  8
0
 62
7
  6
CONTINUOUS
 10
137.6893465974
 20
214.438582784
 40
0.5
 50
359.9999998873
 51
90.0
  0
ARC
  8
0
 62
7
  6
CONTINUOUS
 10
151.1893465974
 20
205.6331454306
 40
3.0
 50
180.0
 51
235.150095421
  0
ARC
  8
0
 62
7
  6
CONTINUOUS
 10
157.1893465974
 20
205.6331454306
 40
3.0
 50
304.849904579
 51
360.0
  0
ARC
  8
0
 62
7
  6
CONTINUOUS
 10
147.1893465974
 20
205.938582784
 40
1.0
 50
2.8606972131
 51
90.0
  0
ARC
  8
0
 62
7
  6
CONTINUOUS
 10
161.1893465974
 20
205.938582784
 40
1.0
 50
90.0
 51
177.1393027869
  0
ARC
  8
0
 62
7
  6
CONTINUOUS
 10
156.8701320718
 20
207.0243141022
 40
10.0
 50
125.0897993214
 51
144.2467496304
  0
ARC
  8
0
 62
7
  6
CONTINUOUS
 10
151.5085611229
 20
207.0243141022
 40
10.0
 50
35.7532524265
 51
54.9102006786
  0
ARC
  8
0
 62
7
  6
CONTINUOUS
 10
144.6893465974
 20
207.438582784
 40
0.5
 50
179.9999998873
 51
270.0
  0
ARC
  8
0
 62
7
  6
CONTINUOUS
 10
163.6893465974
 20
207.438582784
 40
0.5
 50
270.0
 51
0.0000001127
  0
ARC
  8
0
 62
7
  6
CONTINUOUS
 10
177.1893465974
 20
205.6331454306
 40
3.0
 50
218.3935466842
 51
235.150095421
  0
ARC
  8
0
 62
7
  6
CONTINUOUS
 10
182.8701320718
 20
207.0243141022
 40
10.0
 50
125.0897993214
 51
149.1330772049
  0
ARC
  8
0
 62
7
  6
CONTINUOUS
 10
180.6326826844
 20
208.3616685779
 40
7.393336087
 50
149.1332261938
 51
218.3935466842
  0
ARC
  8
0
 62
7
  6
CONTINUOUS
 10
170.6893465974
 20
207.438582784
 40
0.5
 50
179.9999998873
 51
270.0
  0
ARC
  8
0
 62
7
  6
CONTINUOUS
 10
151.1893465974
 20
211.1143845652
 40
3.0
 50
144.2467620567
 51
180.0
  0
ARC
  8
0
 62
7
  6
CONTINUOUS
 10
157.1893465974
 20
211.1143845652
 40
3.0
 50
0.0
 51
35.7532447998
  0
ARC
  8
0
 62
7
  6
CONTINUOUS
 10
151.6963958222
 20
214.388582784
 40
1.0
 50
90.0
 51
125.0897993214
  0
ARC
  8
0
 62
7
  6
CONTINUOUS
 10
177.6963958222
 20
214.388582784
 40
1.0
 50
90.0
 51
125.0897993214
  0
ARC
  8
0
 62
7
  6
CONTINUOUS
 10
156.6822973725
 20
214.388582784
 40
1.0
 50
54.9102006786
 51
90.0
  0
ARC
  8
0
 62
7
  6
CONTINUOUS
 10
150.4252985139
 20
215.9385803904
 40
0.9999995213
 50
270.0
 51
305.8658480107
  0
ARC
  8
0
 62
7
  6
CONTINUOUS
 10
157.9533946931
 20
215.9385803846
 40
0.9999995201
 50
234.134152709
 51
270.0
  0
ARC
  8
0
 62
7
  6
CONTINUOUS
 10
144.6893465974
 20
214.438582784
 40
0.5
 50
90.0
 51
180.0000001127
  0
ARC
  8
0
 62
7
  6
CONTINUOUS
 10
170.6893465974
 20
214.438582784
 40
0.5
 50
90.0
 51
180.0000001127
  0
ARC
  8
0
 62
7
  6
CONTINUOUS
 10
163.6893465974
 20
214.438582784
 40
0.5
 50
359.9999998873
 51
90.0
  0
ARC
  8
SURFACE
 62
7
  6
CONTINUOUS
 10
200.9893465974
 20
168.4658964647
 40
3.0
 50
180.0000108348
 51
219.734879977
  0
ARC
  8
SURFACE
 62
7
  6
CONTINUOUS
 10
206.9893465974
 20
168.4658964647
 40
3.0
 50
320.2655928715
 51
359.9999992327
  0
ARC
  8
SURFACE
 62
7
  6
CONTINUOUS
 10
226.9893465974
 20
168.4658964647
 40
3.0
 50
179.9999989846
 51
219.7344258836
  0
ARC
  8
SURFACE
 62
7
  6
CONTINUOUS
 10
201.4766959238
 20
165.388582784
 40
1.0
 50
237.0454526894
 51
270.0
  0
ARC
  8
SURFACE
 62
7
  6
CONTINUOUS
 10
227.4766959238
 20
165.388582784
 40
1.0
 50
237.0454526894
 51
270.0
  0
ARC
  8
SURFACE
 62
7
  6
CONTINUOUS
 10
206.5019972709
 20
165.388582784
 40
1.0
 50
270.0
 51
302.9545473106
  0
ARC
  8
SURFACE
 62
7
  6
CONTINUOUS
 10
190.9893465974
 20
171.9471543555
 40
10.0
 50
55.150095421
 51
61.8960195945
  0
ARC
  8
SURFACE
 62
7
  6
CONTINUOUS
 10
216.9893465974
 20
171.9471543555
 40
10.0
 50
55.150095421
 51
61.8960195945
  0
ARC
  8
SURFACE
 62
7
  6
CONTINUOUS
 10
216.9893465974
 20
171.9471543555
 40
10.0
 50
118.1039804055
 51
124.849904579
  0
ARC
  8
SURFACE
 62
7
  6
CONTINUOUS
 10
206.3724578479
 20
172.9405040749
 40
10.0
 50
219.7345447192
 51
237.0454526894
  0
ARC
  8
SURFACE
 62
7
  6
CONTINUOUS
 10
201.6062353468
 20
172.9405040749
 40
10.0
 50
302.9545473106
 51
320.2655971353
  0
ARC
  8
SURFACE
 62
7
  6
CONTINUOUS
 10
227.6062353468
 20
172.9405040749
 40
10.0
 50
302.9545473106
 51
320.2655971353
  0
ARC
  8
SURFACE
 62
7
  6
CONTINUOUS
 10
220.2868587347
 20
178.1218133504
 40
3.0
 50
61.8960195945
 51
113.1258610961
  0
ARC
  8
SURFACE
 62
7
  6
CONTINUOUS
 10
213.69183446
 20
178.1218133504
 40
3.0
 50
66.8741389039
 51
118.1039804055
  0
ARC
  8
SURFACE
 62
7
  6
CONTINUOUS
 10
194.2868587347
 20
178.1218133504
 40
3.0
 50
61.8960195945
 51
113.1258610961
  0
ARC
  8
SURFACE
 62
7
  6
CONTINUOUS
 10
194.9893465974
 20
177.691717002
 40
3.0
 50
0.0
 51
55.150095421
  0
ARC
  8
SURFACE
 62
7
  6
CONTINUOUS
 10
212.9893465974
 20
177.691717002
 40
3.0
 50
124.849904579
 51
180.0
  0
ARC
  8
SURFACE
 62
7
  6
CONTINUOUS
 10
220.9893465974
 20
177.691717002
 40
3.0
 50
0.0
 51
55.150095421
  0
ARC
  8
SURFACE
 62
7
  6
CONTINUOUS
 10
258.9893465974
 20
168.4658964647
 40
3.0
 50
320.2651845863
 51
360.0
  0
ARC
  8
SURFACE
 62
7
  6
CONTINUOUS
 10
252.9893465974
 20
168.4658964647
 40
3.0
 50
179.9999989846
 51
219.7344258836
  0
ARC
  8
SURFACE
 62
7
  6
CONTINUOUS
 10
232.9893465974
 20
168.4658964647
 40
3.0
 50
320.2655928715
 51
359.9999992327
  0
ARC
  8
SURFACE
 62
7
  6
CONTINUOUS
 10
258.5019972709
 20
165.388582784
 40
1.0
 50
270.0
 51
302.9545473106
  0
ARC
  8
SURFACE
 62
7
  6
CONTINUOUS
 10
253.4766959238
 20
165.388582784
 40
1.0
 50
237.0454526894
 51
270.0
  0
ARC
  8
SURFACE
 62
7
  6
CONTINUOUS
 10
232.5019972709
 20
165.388582784
 40
1.0
 50
270.0
 51
302.9545473106
  0
ARC
  8
SURFACE
 62
7
  6
CONTINUOUS
 10
232.3724578479
 20
172.9405040749
 40
10.0
 50
219.7344084912
 51
237.0454526894
  0
ARC
  8
SURFACE
 62
7
  6
CONTINUOUS
 10
253.6062353468
 20
172.9405040749
 40
10.0
 50
302.9545473106
 51
320.2654724896
  0
ARC
  8
SURFACE
 62
7
  6
CONTINUOUS
 10
268.9893465974
 20
171.9471543555
 40
10.0
 50
55.150095421
 51
61.8960195945
  0
ARC
  8
SURFACE
 62
7
  6
CONTINUOUS
 10
268.9893465974
 20
171.9471543555
 40
10.0
 50
118.1039804055
 51
124.849904579
  0
ARC
  8
SURFACE
 62
7
  6
CONTINUOUS
 10
242.9893465974
 20
171.9471543555
 40
10.0
 50
55.150095421
 51
61.8960195945
  0
ARC
  8
SURFACE
 62
7
  6
CONTINUOUS
 10
242.9893465974
 20
171.9471543555
 40
10.0
 50
118.1039804055
 51
124.849904579
  0
ARC
  8
SURFACE
 62
7
  6
CONTINUOUS
 10
258.3724578479
 20
172.9405040749
 40
10.0
 50
219.7344084912
 51
237.0454526894
  0
ARC
  8
SURFACE
 62
7
  6
CONTINUOUS
 10
272.2868587347
 20
178.1218133504
 40
3.0
 50
61.8960195945
 51
113.1258610961
  0
ARC
  8
SURFACE
 62
7
  6
CONTINUOUS
 10
265.69183446
 20
178.1218133504
 40
3.0
 50
66.8741389039
 51
118.1039804055
  0
ARC
  8
SURFACE
 62
7
  6
CONTINUOUS
 10
246.2868587347
 20
178.1218133504
 40
3.0
 50
61.8960195945
 51
113.1258610961
  0
ARC
  8
SURFACE
 62
7
  6
CONTINUOUS
 10
239.69183446
 20
178.1218133504
 40
3.0
 50
66.8741389039
 51
118.1039804055
  0
ARC
  8
SURFACE
 62
7
  6
CONTINUOUS
 10
238.9893465974
 20
177.691717002
 40
3.0
 50
124.849904579
 51
180.0
  0
ARC
  8
SURFACE
 62
7
  6
CONTINUOUS
 10
246.9893465974
 20
177.691717002
 40
3.0
 50
0.0
 51
55.150095421
  0
ARC
  8
SURFACE
 62
7
  6
CONTINUOUS
 10
264.9893465974
 20
177.691717002
 40
3.0
 50
124.849904579
 51
180.0
  0
ARC
  8
SURFACE
 62
7
  6
CONTINUOUS
 10
190.9893465974
 20
185.8430633555
 40
5.395909
 50
270.0
 51
293.1258610961
  0
ARC
  8
SURFACE
 62
7
  6
CONTINUOUS
 10
216.9893465974
 20
185.8430633555
 40
5.395909
 50
246.8741389039
 51
293.1258610961
  0
ARC
  8
SURFACE
 62
7
  6
CONTINUOUS
 10
201.344637731
 20
197.388582784
 40
2.0
 50
90.0
 51
165.0
  0
ARC
  8
SURFACE
 62
7
  6
CONTINUOUS
 10
206.6340554637
 20
197.388582784
 40
2.0
 50
15.0
 51
90.0
  0
ARC
  8
SURFACE
 62
7
  6
CONTINUOUS
 10
197.3643465974
 20
197.9887472648
 40
2.0
 50
251.7900431357
 51
345.0
  0
ARC
  8
SURFACE
 62
7
  6
CONTINUOUS
 10
210.6143465974
 20
197.9887472648
 40
2.0
 50
195.0
 51
288.2099568643
  0
ARC
  8
SURFACE
 62
7
  6
CONTINUOUS
 10
197.9893465974
 20
199.888582784
 40
4.0
 50
124.849904579
 51
251.7900431357
  0
ARC
  8
SURFACE
 62
7
  6
CONTINUOUS
 10
209.9893465974
 20
199.888582784
 40
4.0
 50
288.2099568643
 51
55.150095421
  0
ARC
  8
SURFACE
 62
7
  6
CONTINUOUS
 10
227.344637731
 20
197.388582784
 40
2.0
 50
90.0
 51
165.0
  0
ARC
  8
SURFACE
 62
7
  6
CONTINUOUS
 10
223.3643465974
 20
197.9887472648
 40
2.0
 50
251.7900431357
 51
345.0
  0
ARC
  8
SURFACE
 62
7
  6
CONTINUOUS
 10
223.9893465974
 20
199.888582784
 40
4.0
 50
124.849904579
 51
251.7900431357
  0
ARC
  8
SURFACE
 62
7
  6
CONTINUOUS
 10
268.9893465974
 20
185.8430633555
 40
5.395909
 50
246.8741389039
 51
293.1258610961
  0
ARC
  8
SURFACE
 62
7
  6
CONTINUOUS
 10
242.9893465974
 20
185.8430633555
 40
5.395909
 50
246.8741389039
 51
293.1258610961
  0
ARC
  8
SURFACE
 62
7
  6
CONTINUOUS
 10
232.6340554637
 20
197.388582784
 40
2.0
 50
15.0
 51
90.0
  0
ARC
  8
SURFACE
 62
7
  6
CONTINUOUS
 10
236.6143465974
 20
197.9887472648
 40
2.0
 50
195.0
 51
288.2099568643
  0
ARC
  8
SURFACE
 62
7
  6
CONTINUOUS
 10
235.9893465974
 20
199.888582784
 40
4.0
 50
288.2099568643
 51
55.150095421
  0
ARC
  8
SURFACE
 62
7
  6
CONTINUOUS
 10
253.344637731
 20
197.388582784
 40
2.0
 50
90.0
 51
165.0
  0
ARC
  8
SURFACE
 62
7
  6
CONTINUOUS
 10
258.6340554637
 20
197.388582784
 40
2.0
 50
15.0
 51
90.0
  0
ARC
  8
SURFACE
 62
7
  6
CONTINUOUS
 10
249.3643465974
 20
197.9887472648
 40
2.0
 50
251.7900431357
 51
345.0
  0
ARC
  8
SURFACE
 62
7
  6
CONTINUOUS
 10
262.6143465974
 20
197.9887472648
 40
2.0
 50
195.0
 51
288.2099568643
  0
ARC
  8
SURFACE
 62
7
  6
CONTINUOUS
 10
249.9893465974
 20
199.888582784
 40
4.0
 50
124.849904579
 51
251.7900431357
  0
ARC
  8
SURFACE
 62
7
  6
CONTINUOUS
 10
261.9893465974
 20
199.888582784
 40
4.0
 50
288.2099568643
 51
55.1500980446
  0
ARC
  8
SURFACE
 62
7
  6
CONTINUOUS
 10
284.9893465974
 20
168.4658964647
 40
3.0
 50
320.2654380447
 51
0.0013260446
  0
ARC
  8
SURFACE
 62
7
  6
CONTINUOUS
 10
278.9893465974
 20
168.4658964647
 40
3.0
 50
179.9985351676
 51
219.7345581843
  0
ARC
  8
SURFACE
 62
7
  6
CONTINUOUS
 10
279.4766959238
 20
165.388582784
 40
1.0
 50
237.0454526894
 51
270.0
  0
ARC
  8
SURFACE
 62
7
  6
CONTINUOUS
 10
284.5019972709
 20
165.388582784
 40
1.0
 50
270.0
 51
302.9545473106
  0
ARC
  8
SURFACE
 62
7
  6
CONTINUOUS
 10
294.9893465974
 20
171.9471543555
 40
10.0
 50
55.150095421
 51
61.8960195945
  0
ARC
  8
SURFACE
 62
7
  6
CONTINUOUS
 10
294.9893465974
 20
171.9471543555
 40
10.0
 50
118.1039804055
 51
124.849904579
  0
ARC
  8
SURFACE
 62
7
  6
CONTINUOUS
 10
279.6062353468
 20
172.9405040749
 40
10.0
 50
302.9545473106
 51
320.2655506873
  0
ARC
  8
SURFACE
 62
7
  6
CONTINUOUS
 10
284.3724578479
 20
172.9405040749
 40
10.0
 50
219.7344481814
 51
237.0454526894
  0
ARC
  8
SURFACE
 62
7
  6
CONTINUOUS
 10
291.69183446
 20
178.1218133504
 40
3.0
 50
66.8741389039
 51
118.1039804055
  0
ARC
  8
SURFACE
 62
7
  6
CONTINUOUS
 10
272.9893465974
 20
177.691717002
 40
3.0
 50
359.9997747854
 51
55.150095421
  0
ARC
  8
SURFACE
 62
7
  6
CONTINUOUS
 10
290.9893465974
 20
177.691717002
 40
3.0
 50
124.849904579
 51
180.0002252606
  0
ARC
  8
SURFACE
 62
7
  6
CONTINUOUS
 10
306.0581487731
 20
165.388582784
 40
1.0
 50
233.18756313
 51
269.9999622863
  0
ARC
  8
SURFACE
 62
7
  6
CONTINUOUS
 10
309.9206496433
 20
165.388582784
 40
1.0
 50
270.0002193973
 51
306.8125396311
  0
ARC
  8
SURFACE
 62
7
  6
CONTINUOUS
 10
310.5019972709
 20
165.388582784
 40
1.0
 50
270.0
 51
302.9545473106
  0
ARC
  8
SURFACE
 62
7
  6
CONTINUOUS
 10
305.4766959238
 20
165.388582784
 40
1.0
 50
237.0454526894
 51
270.0
  0
ARC
  8
SURFACE
 62
7
  6
CONTINUOUS
 10
310.9893465974
 20
168.4658964647
 40
3.0
 50
320.2655805972
 51
0.0000226643
  0
ARC
  8
SURFACE
 62
7
  6
CONTINUOUS
 10
304.9893465974
 20
168.4658964647
 40
3.0
 50
180.0000098452
 51
219.7345581843
  0
ARC
  8
SURFACE
 62
7
  6
CONTINUOUS
 10
322.6496006352
 20
167.888582784
 40
10.0
 50
89.9999974557
 51
143.9601193601
  0
ARC
  8
SURFACE
 62
7
  6
CONTINUOUS
 10
305.6062353468
 20
172.9405040749
 40
10.0
 50
302.9545473106
 51
320.2655984911
  0
ARC
  8
SURFACE
 62
7
  6
CONTINUOUS
 10
310.3724578479
 20
172.9405040749
 40
10.0
 50
219.7344481814
 51
237.0454526894
  0
ARC
  8
SURFACE
 62
7
  6
CONTINUOUS
 10
298.2868587347
 20
178.1218133504
 40
3.0
 50
61.8960195945
 51
113.1258610961
  0
ARC
  8
SURFACE
 62
7
  6
CONTINUOUS
 10
298.9893465974
 20
177.691717002
 40
3.0
 50
359.9997747854
 51
55.150095421
  0
ARC
  8
SURFACE
 62
7
  6
CONTINUOUS
 10
316.9893465974
 20
172.0070198938
 40
3.0
 50
143.9601083872
 51
180.0000112968
  0
ARC
  8
SURFACE
 62
7
  6
CONTINUOUS
 10
294.9893465974
 20
185.8430633555
 40
5.395909
 50
246.8741389039
 51
293.1258610961
  0
ARC
  8
SURFACE
 62
7
  6
CONTINUOUS
 10
279.344637731
 20
197.388582784
 40
2.0
 50
90.0
 51
165.0
  0
ARC
  8
SURFACE
 62
7
  6
CONTINUOUS
 10
284.6340554637
 20
197.388582784
 40
2.0
 50
15.0
 51
90.0
  0
ARC
  8
SURFACE
 62
7
  6
CONTINUOUS
 10
288.6143465974
 20
197.9887472648
 40
2.0
 50
195.0
 51
288.2099568643
  0
ARC
  8
SURFACE
 62
7
  6
CONTINUOUS
 10
275.3643465974
 20
197.9887472648
 40
2.0
 50
251.7900431357
 51
345.0
  0
ARC
  8
SURFACE
 62
7
  6
CONTINUOUS
 10
275.9893465974
 20
199.888582784
 40
4.0
 50
124.8499038209
 51
251.7900431357
  0
ARC
  8
SURFACE
 62
7
  6
CONTINUOUS
 10
287.9893465974
 20
199.888582784
 40
4.0
 50
288.2099568643
 51
55.1500980741
  0
ARC
  8
SURFACE
 62
7
  6
CONTINUOUS
 10
306.0164056575
 20
197.3442404033
 40
2.0
 50
88.3627549222
 51
165.0
  0
ARC
  8
SURFACE
 62
7
  6
CONTINUOUS
 10
302.0146470408
 20
197.8642871467
 40
2.0
 50
262.0131105859
 51
345.0
  0
ARC
  8
SURFACE
 62
7
  6
CONTINUOUS
 10
301.9893465974
 20
199.888582784
 40
4.0
 50
124.8501731232
 51
261.5850319153
  0
ARC
  8
SURFACE
 62
7
  6
CONTINUOUS
 10
314.7893465974
 20
199.2943810862
 40
0.2
 50
268.3627549222
 51
360.0
  0
ARC
  8
SURFACE
 62
7
  6
CONTINUOUS
 10
332.9893465974
 20
195.1803788515
 40
5.0
 50
0.0
 51
16.9559559864
  0
ARC
  8
SURFACE
 62
7
  6
CONTINUOUS
 10
339.3760742261
 20
196.3885835096
 40
1.4999997554
 50
90.0
 51
190.7122935352
  0
ARC
  8
SURFACE
 62
7
  6
CONTINUOUS
 10
354.9893465974
 20
201.888582784
 40
18.0
 50
163.0425737058
 51
196.9574262942
  0
ARC
  8
SURFACE
 62
7
  6
CONTINUOUS
 10
348.1893465974
 20
200.388582784
 40
2.5
 50
270.0
 51
0.0000000632
  0
ARC
  8
SURFACE
 62
7
  6
CONTINUOUS
 10
193.9893465974
 20
205.6331454306
 40
3.0
 50
304.849904579
 51
321.6064533158
  0
ARC
  8
SURFACE
 62
7
  6
CONTINUOUS
 10
188.3085611229
 20
207.0243141022
 40
10.0
 50
30.8669227951
 51
54.9102006786
  0
ARC
  8
SURFACE
 62
7
  6
CONTINUOUS
 10
190.5460105103
 20
208.3616685779
 40
7.393336087
 50
321.6064533158
 51
30.8667738062
  0
ARC
  8
SURFACE
 62
7
  6
CONTINUOUS
 10
200.4893465974
 20
207.438582784
 40
0.5
 50
270.0
 51
0.0000001127
  0
ARC
  8
SURFACE
 62
7
  6
CONTINUOUS
 10
213.9893465974
 20
205.6331454306
 40
3.0
 50
180.0
 51
235.150095421
  0
ARC
  8
SURFACE
 62
7
  6
CONTINUOUS
 10
219.9893465974
 20
205.6331454306
 40
3.0
 50
304.849904579
 51
360.0
  0
ARC
  8
SURFACE
 62
7
  6
CONTINUOUS
 10
209.9893465974
 20
205.938582784
 40
1.0
 50
2.8606972131
 51
90.0
  0
ARC
  8
SURFACE
 62
7
  6
CONTINUOUS
 10
223.9893465974
 20
205.938582784
 40
1.0
 50
90.0
 51
177.1393027869
  0
ARC
  8
SURFACE
 62
7
  6
CONTINUOUS
 10
219.6701320718
 20
207.0243141022
 40
10.0
 50
125.0897993214
 51
144.2467475735
  0
ARC
  8
SURFACE
 62
7
  6
CONTINUOUS
 10
214.3085611229
 20
207.0243141022
 40
10.0
 50
35.7532503696
 51
54.9102006786
  0
ARC
  8
SURFACE
 62
7
  6
CONTINUOUS
 10
226.4893465974
 20
207.438582784
 40
0.5
 50
270.0
 51
0.0000001127
  0
ARC
  8
SURFACE
 62
7
  6
CONTINUOUS
 10
207.4893465974
 20
207.438582784
 40
0.5
 50
179.9999998873
 51
270.0
  0
ARC
  8
SURFACE
 62
7
  6
CONTINUOUS
 10
213.9893465974
 20
211.1143845652
 40
3.0
 50
144.2467552002
 51
180.0
  0
ARC
  8
SURFACE
 62
7
  6
CONTINUOUS
 10
219.9893465974
 20
211.1143845652
 40
3.0
 50
0.0
 51
35.7532379433
  0
ARC
  8
SURFACE
 62
7
  6
CONTINUOUS
 10
193.4822973725
 20
214.388582784
 40
1.0
 50
54.9102006786
 51
90.0
  0
ARC
  8
SURFACE
 62
7
  6
CONTINUOUS
 10
214.4963958222
 20
214.388582784
 40
1.0
 50
90.0
 51
125.0897993214
  0
ARC
  8
SURFACE
 62
7
  6
CONTINUOUS
 10
219.4822973725
 20
214.388582784
 40
1.0
 50
54.9102006786
 51
90.0
  0
ARC
  8
SURFACE
 62
7
  6
CONTINUOUS
 10
220.7533946808
 20
215.9385803904
 40
0.9999995213
 50
234.1341519881
 51
270.0
  0
ARC
  8
SURFACE
 62
7
  6
CONTINUOUS
 10
226.4893465974
 20
214.438582784
 40
0.5
 50
359.9999998873
 51
90.0
  0
ARC
  8
SURFACE
 62
7
  6
CONTINUOUS
 10
207.4893465974
 20
214.438582784
 40
0.5
 50
90.0
 51
180.0000001127
  0
ARC
  8
SURFACE
 62
7
  6
CONTINUOUS
 10
200.4893465974
 20
214.438582784
 40
0.5
 50
359.9999998873
 51
90.0
  0
ARC
  8
SURFACE
 62
7
  6
CONTINUOUS
 10
245.6701320718
 20
207.0243141022
 40
10.0
 50
125.0897993214
 51
144.2467475872
  0
ARC
  8
SURFACE
 62
7
  6
CONTINUOUS
 10
266.3085611229
 20
207.0243141022
 40
10.0
 50
35.7532554037
 51
54.9102006786
  0
ARC
  8
SURFACE
 62
7
  6
CONTINUOUS
 10
240.3085611229
 20
207.0243141022
 40
10.0
 50
35.7532503469
 51
54.9102006786
  0
ARC
  8
SURFACE
 62
7
  6
CONTINUOUS
 10
239.9893465974
 20
205.6331454306
 40
3.0
 50
180.0
 51
235.150095421
  0
ARC
  8
SURFACE
 62
7
  6
CONTINUOUS
 10
265.9893465974
 20
205.6331454306
 40
3.0
 50
180.0000054207
 51
235.1500919228
  0
ARC
  8
SURFACE
 62
7
  6
CONTINUOUS
 10
245.9893465974
 20
205.6331454306
 40
3.0
 50
304.849904579
 51
360.0
  0
ARC
  8
SURFACE
 62
7
  6
CONTINUOUS
 10
235.9893465974
 20
205.938582784
 40
1.0
 50
2.8606972131
 51
90.0
  0
ARC
  8
SURFACE
 62
7
  6
CONTINUOUS
 10
233.4893465974
 20
207.438582784
 40
0.5
 50
179.9999998873
 51
270.0
  0
ARC
  8
SURFACE
 62
7
  6
CONTINUOUS
 10
252.4893465974
 20
207.7206250352
 40
0.5
 50
273.1120026108
 51
360.0
  0
ARC
  8
SURFACE
 62
7
  6
CONTINUOUS
 10
259.4893465974
 20
208.1012018773
 40
0.5
 50
180.0
 51
273.1120026108
  0
ARC
  8
SURFACE
 62
7
  6
CONTINUOUS
 10
239.9893465974
 20
211.1143845652
 40
3.0
 50
144.2467552458
 51
180.0
  0
ARC
  8
SURFACE
 62
7
  6
CONTINUOUS
 10
265.9893465974
 20
211.1143845652
 40
3.0
 50
144.246738168
 51
180.0
  0
ARC
  8
SURFACE
 62
7
  6
CONTINUOUS
 10
245.9893465974
 20
211.1143845652
 40
3.0
 50
0.0
 51
35.7532378679
  0
ARC
  8
SURFACE
 62
7
  6
CONTINUOUS
 10
240.4963958222
 20
214.388582784
 40
1.0
 50
90.0
 51
125.0897993214
  0
ARC
  8
SURFACE
 62
7
  6
CONTINUOUS
 10
266.4963958222
 20
214.388582784
 40
1.0
 50
90.0
 51
125.0897993214
  0
ARC
  8
SURFACE
 62
7
  6
CONTINUOUS
 10
245.4822973725
 20
214.388582784
 40
1.0
 50
54.9102006786
 51
90.0000000001
  0
ARC
  8
SURFACE
 62
7
  6
CONTINUOUS
 10
246.7533946808
 20
215.9385803904
 40
0.9999995213
 50
234.1341519881
 51
270.0
  0
ARC
  8
SURFACE
 62
7
  6
CONTINUOUS
 10
252.4893465974
 20
214.438582784
 40
0.5
 50
359.9999998873
 51
90.0
  0
ARC
  8
SURFACE
 62
7
  6
CONTINUOUS
 10
259.4893465974
 20
214.438582784
 40
0.5
 50
90.0
 51
180.0000001127
  0
ARC
  8
SURFACE
 62
7
  6
CONTINUOUS
 10
233.4893465974
 20
214.438582784
 40
0.5
 50
90.0
 51
180.0000001127
  0
ARC
  8
SURFACE
 62
7
  6
CONTINUOUS
 10
292.3085611229
 20
207.0243141022
 40
10.0
 50
35.7532517471
 51
54.9102006786
  0
ARC
  8
SURFACE
 62
7
  6
CONTINUOUS
 10
297.6701320718
 20
207.0243141022
 40
10.0
 50
125.0897993214
 51
144.2467424642
  0
ARC
  8
SURFACE
 62
7
  6
CONTINUOUS
 10
271.6701320718
 20
207.0243141022
 40
10.0
 50
125.0897993214
 51
144.2467424638
  0
ARC
  8
SURFACE
 62
7
  6
CONTINUOUS
 10
297.9893465974
 20
205.6331454306
 40
3.0
 50
304.8495465202
 51
0.0004568612
  0
ARC
  8
SURFACE
 62
7
  6
CONTINUOUS
 10
291.9893465974
 20
205.6331454306
 40
3.0
 50
180.0000054199
 51
235.1500918834
  0
ARC
  8
SURFACE
 62
7
  6
CONTINUOUS
 10
271.9893465974
 20
205.6331454306
 40
3.0
 50
304.8499055899
 51
359.9999945418
  0
ARC
  8
SURFACE
 62
7
  6
CONTINUOUS
 10
287.9893465974
 20
208.1484765918
 40
1.0
 50
0.0064006401
 51
93.112
  0
ARC
  8
SURFACE
 62
7
  6
CONTINUOUS
 10
301.9893465974
 20
208.9096318194
 40
0.9999996917
 50
93.112
 51
179.9999980278
  0
ARC
  8
SURFACE
 62
7
  6
CONTINUOUS
 10
304.4893465974
 20
210.5477672903
 40
0.5
 50
273.1120026108
 51
360.0
  0
ARC
  8
SURFACE
 62
7
  6
CONTINUOUS
 10
278.4893465974
 20
209.1341961627
 40
0.5
 50
273.1120026108
 51
360.0
  0
ARC
  8
SURFACE
 62
7
  6
CONTINUOUS
 10
285.4893465974
 20
209.5147730048
 40
0.5
 50
180.0
 51
273.1120026108
  0
ARC
  8
SURFACE
 62
7
  6
CONTINUOUS
 10
297.9893465974
 20
211.1143845652
 40
3.0
 50
0.0
 51
35.7535451931
  0
ARC
  8
SURFACE
 62
7
  6
CONTINUOUS
 10
291.9893465974
 20
211.1143845652
 40
3.0
 50
144.2467381692
 51
180.0
  0
ARC
  8
SURFACE
 62
7
  6
CONTINUOUS
 10
271.9893465974
 20
211.1143845652
 40
3.0
 50
0.0
 51
35.7532547239
  0
ARC
  8
SURFACE
 62
7
  6
CONTINUOUS
 10
271.4822973725
 20
214.388582784
 40
1.0
 50
54.9102006786
 51
90.0
  0
ARC
  8
SURFACE
 62
7
  6
CONTINUOUS
 10
292.4963958216
 20
214.3885827838
 40
1.0
 50
89.9999999651
 51
125.0897992861
  0
ARC
  8
SURFACE
 62
7
  6
CONTINUOUS
 10
297.4822973725
 20
214.388582784
 40
1.0
 50
54.9102006786
 51
90.0
  0
ARC
  8
SURFACE
 62
7
  6
CONTINUOUS
 10
298.7533946808
 20
215.9385803904
 40
0.9999995213
 50
234.1341519878
 51
270.0
  0
ARC
  8
SURFACE
 62
7
  6
CONTINUOUS
 10
272.7533946808
 20
215.9385803904
 40
0.9999995213
 50
234.1341519882
 51
270.0
  0
ARC
  8
SURFACE
 62
7
  6
CONTINUOUS
 10
304.4893465974
 20
214.438582784
 40
0.5
 50
359.999999303
 51
90.0
  0
ARC
  8
SURFACE
 62
7
  6
CONTINUOUS
 10
278.4893465974
 20
214.438582784
 40
0.5
 50
359.9999998873
 51
90.0
  0
ARC
  8
SURFACE
 62
7
  6
CONTINUOUS
 10
285.4893465974
 20
214.438582784
 40
0.5
 50
90.0
 51
180.0000001127
  0
ARC
  8
SURFACE
 62
7
  6
CONTINUOUS
 10
317.9893465974
 20
207.1580154693
 40
3.0
 50
170.3505368824
 51
180.0
  0
ARC
  8
SURFACE
 62
7
  6
CONTINUOUS
 10
324.8903084915
 20
205.984676245
 40
10.0
 50
110.9700874633
 51
170.3505368824
  0
ARC
  8
SURFACE
 62
7
  6
CONTINUOUS
 10
314.4978179882
 20
209.589692353
 40
1.0
 50
340.8690230773
 51
93.112
  0
ARC
  8
SURFACE
 62
7
  6
CONTINUOUS
 10
348.1893465974
 20
205.388582784
 40
2.5
 50
359.9999999368
 51
90.0
  0
ARC
  8
SURFACE
 62
7
  6
CONTINUOUS
 10
332.9893465974
 20
208.5967867165
 40
5.0
 50
343.0425737058
 51
360.0
  0
ARC
  8
SURFACE
 62
7
  6
CONTINUOUS
 10
339.4893465974
 20
209.388582784
 40
1.5
 50
180.0000008097
 51
270.0
  0
ARC
  8
SURFACE
 62
7
  6
CONTINUOUS
 10
321.6693839529
 20
214.388582784
 40
1.0
 50
90.0
 51
110.9700874633
  0
ARC
  8
SURFACE
 62
7
  6
CONTINUOUS
 10
336.9893465974
 20
214.388582784
 40
1.0
 50
0.0
 51
90.0
  0
ARC
  8
SURFACE
 62
7
  6
CONTINUOUS
 10
320.2084495987
 20
215.9385807116
 40
0.9999995855
 50
270.0003553831
 51
295.1904739922
  0
ARC
  8
SURFACE
 62
7
  6
CONTINUOUS
 10
311.4893465974
 20
214.438582784
 40
0.5
 50
90.0
 51
180.0
  0
ARC
  8
SURFACE
 62
7
  6
CONTINUOUS
 10
311.4893465974
 20
210.9283441323
 40
0.5
 50
180.0001638852
 51
273.111991103
  0
ARC
  8
SURFACE
 62
7
  6
CONTINUOUS
 10
307.9893465974
 20
240.4471823654
 40
45.0
 50
261.5850319153
 51
262.0131105859
  0
ARC
  8
0
 62
7
  6
CONTINUOUS
 10
58.1893465974
 20
101.3283473108
 40
2.0
 50
179.9968650821
 51
270.0008564169
  0
ARC
  8
0
 62
7
  6
CONTINUOUS
 10
55.1893465974
 20
98.5283473108
 40
1.0
 50
270.0
 51
360.0
  0
ARC
  8
0
 62
7
  6
CONTINUOUS
 10
55.1893465974
 20
101.0783473108
 40
1.0
 50
270.0
 51
360.0
  0
ARC
  8
0
 62
7
  6
CONTINUOUS
 10
34.1893465974
 20
98.5283473108
 40
1.0
 50
180.0
 51
270.0
  0
ARC
  8
0
 62
7
  6
CONTINUOUS
 10
34.1893465974
 20
101.0783473108
 40
1.0
 50
180.0
 51
270.0
  0
ARC
  8
0
 62
7
  6
CONTINUOUS
 10
22.9893465974
 20
106.6033473108
 40
2.5
 50
180.0
 51
270.0
  0
ARC
  8
0
 62
7
  6
CONTINUOUS
 10
59.6893465974
 20
104.1138122901
 40
0.5
 50
268.8864580064
 51
359.9999999999
  0
ARC
  8
0
 62
7
  6
CONTINUOUS
 10
66.6893465974
 20
103.9883277974
 40
0.5
 50
180.0
 51
269.0561187397
  0
ARC
  8
0
 62
7
  6
CONTINUOUS
 10
85.6893465974
 20
103.8033473108
 40
0.5
 50
270.0
 51
360.0
  0
ARC
  8
0
 62
7
  6
CONTINUOUS
 10
92.6893465974
 20
103.8033473108
 40
0.5
 50
180.0
 51
270.0
  0
ARC
  8
0
 62
7
  6
CONTINUOUS
 10
123.1893465974
 20
98.5283473108
 40
1.0
 50
180.0
 51
270.0
  0
ARC
  8
0
 62
7
  6
CONTINUOUS
 10
149.1893465974
 20
98.5283473108
 40
1.0
 50
180.0
 51
270.0
  0
ARC
  8
0
 62
7
  6
CONTINUOUS
 10
133.1893465974
 20
98.5283473108
 40
1.0
 50
270.0
 51
360.0
  0
ARC
  8
0
 62
7
  6
CONTINUOUS
 10
159.1893465974
 20
98.5283473108
 40
1.0
 50
270.0
 51
360.0
  0
ARC
  8
0
 62
7
  6
CONTINUOUS
 10
161.1893465974
 20
102.3033473108
 40
1.0
 50
97.5474677726
 51
180.0
  0
ARC
  8
0
 62
7
  6
CONTINUOUS
 10
135.1893465974
 20
102.3033473108
 40
1.0
 50
97.5474677118
 51
180.0
  0
ARC
  8
0
 62
7
  6
CONTINUOUS
 10
147.1893465974
 20
102.3033473108
 40
1.0
 50
0.0
 51
82.4525320486
  0
ARC
  8
0
 62
7
  6
CONTINUOUS
 10
109.1893465974
 20
102.3033473108
 40
1.0
 50
97.5474677118
 51
180.0
  0
ARC
  8
0
 62
7
  6
CONTINUOUS
 10
121.1893465974
 20
102.3033473108
 40
1.0
 50
0.0
 51
82.4525320486
  0
ARC
  8
0
 62
7
  6
CONTINUOUS
 10
163.6893465974
 20
103.8033473108
 40
0.5
 50
270.0
 51
360.0
  0
ARC
  8
0
 62
7
  6
CONTINUOUS
 10
170.6893465974
 20
103.8033473108
 40
0.5
 50
180.0
 51
270.0
  0
ARC
  8
0
 62
7
  6
CONTINUOUS
 10
137.6893465974
 20
103.8033473108
 40
0.5
 50
270.0
 51
360.0
  0
ARC
  8
0
 62
7
  6
CONTINUOUS
 10
144.6893465974
 20
103.8033473108
 40
0.5
 50
180.0
 51
270.0
  0
ARC
  8
0
 62
7
  6
CONTINUOUS
 10
111.6893465974
 20
103.8033473108
 40
0.5
 50
270.0
 51
360.0
  0
ARC
  8
0
 62
7
  6
CONTINUOUS
 10
118.6893465974
 20
103.8033473108
 40
0.5
 50
180.0
 51
270.0
  0
ARC
  8
0
 62
7
  6
CONTINUOUS
 10
22.9893465974
 20
107.5033473108
 40
2.5
 50
90.0
 51
180.0
  0
ARC
  8
0
 62
7
  6
CONTINUOUS
 10
44.4057019363
 20
110.0533473108
 40
1.0
 50
270.0003290894
 51
345.0003867675
  0
ARC
  8
0
 62
7
  6
CONTINUOUS
 10
43.9729912584
 20
110.0533473108
 40
1.0
 50
195.0001477481
 51
270.0003572498
  0
ARC
  8
0
 62
7
  6
CONTINUOUS
 10
66.6893465974
 20
110.1183277384
 40
0.5
 50
90.9439146307
 51
180.0
  0
ARC
  8
0
 62
7
  6
CONTINUOUS
 10
85.6893465974
 20
110.3033473108
 40
0.5
 50
0.0
 51
90.0
  0
ARC
  8
0
 62
7
  6
CONTINUOUS
 10
92.6893465974
 20
110.3033473108
 40
0.5
 50
90.0
 51
180.0
  0
ARC
  8
0
 62
7
  6
CONTINUOUS
 10
55.1893465974
 20
115.5783473108
 40
1.0
 50
0.0
 51
90.0
  0
ARC
  8
0
 62
7
  6
CONTINUOUS
 10
71.1893465974
 20
115.5783473108
 40
1.0
 50
90.0
 51
180.0
  0
ARC
  8
0
 62
7
  6
CONTINUOUS
 10
34.1893465974
 20
115.5783473108
 40
1.0
 50
90.0
 51
180.0
  0
ARC
  8
0
 62
7
  6
CONTINUOUS
 10
97.1893465974
 20
115.5783473108
 40
1.0
 50
90.0
 51
180.0
  0
ARC
  8
0
 62
7
  6
CONTINUOUS
 10
81.1893465974
 20
115.5783473108
 40
1.0
 50
0.0
 51
90.0
  0
ARC
  8
0
 62
7
  6
CONTINUOUS
 10
47.9566735085
 20
115.578347024
 40
1.0
 50
89.9999955969
 51
164.9999829879
  0
ARC
  8
0
 62
7
  6
CONTINUOUS
 10
40.422020675
 20
115.5783473108
 40
0.9999994853
 50
15.0000158023
 51
90.0000610551
  0
ARC
  8
0
 62
7
  6
CONTINUOUS
 10
59.6893465974
 20
113.0618762397
 40
0.5
 50
0.0
 51
90.0
  0
ARC
  8
0
 62
7
  6
CONTINUOUS
 10
163.6893465974
 20
110.3033473108
 40
0.5
 50
0.0
 51
90.0
  0
ARC
  8
0
 62
7
  6
CONTINUOUS
 10
170.6893465974
 20
110.3033473108
 40
0.5
 50
90.0
 51
180.0
  0
ARC
  8
0
 62
7
  6
CONTINUOUS
 10
137.6893465974
 20
110.3033473108
 40
0.5
 50
0.0
 51
90.0
  0
ARC
  8
0
 62
7
  6
CONTINUOUS
 10
144.6893465974
 20
110.3033473108
 40
0.5
 50
90.0
 51
180.0
  0
ARC
  8
0
 62
7
  6
CONTINUOUS
 10
111.6893465974
 20
110.3033473108
 40
0.5
 50
0.0
 51
90.0
  0
ARC
  8
0
 62
7
  6
CONTINUOUS
 10
118.6893465974
 20
110.3033473108
 40
0.5
 50
90.0
 51
180.0
  0
ARC
  8
0
 62
7
  6
CONTINUOUS
 10
183.9393465974
 20
107.3533473108
 40
0.3
 50
180.0000430946
 51
269.9994071698
  0
ARC
  8
0
 62
7
  6
CONTINUOUS
 10
109.1893465974
 20
111.8033473108
 40
1.0
 50
180.0
 51
270.0
  0
ARC
  8
0
 62
7
  6
CONTINUOUS
 10
121.1893465974
 20
111.8033473108
 40
1.0
 50
270.0
 51
360.0
  0
ARC
  8
0
 62
7
  6
CONTINUOUS
 10
123.1893465974
 20
115.5783473108
 40
1.0
 50
90.0
 51
180.0
  0
ARC
  8
0
 62
7
  6
CONTINUOUS
 10
107.1893465974
 20
115.5783473108
 40
1.0
 50
0.0
 51
90.0
  0
ARC
  8
0
 62
7
  6
CONTINUOUS
 10
133.1893465974
 20
115.5783473108
 40
1.0
 50
0.0
 51
90.0
  0
ARC
  8
0
 62
7
  6
CONTINUOUS
 10
161.1893465974
 20
111.8033473108
 40
1.0
 50
180.0
 51
270.0
  0
ARC
  8
0
 62
7
  6
CONTINUOUS
 10
135.1893465974
 20
111.8033473108
 40
1.0
 50
180.0
 51
270.0
  0
ARC
  8
0
 62
7
  6
CONTINUOUS
 10
147.1893465974
 20
111.8033473108
 40
1.0
 50
270.0
 51
360.0
  0
ARC
  8
0
 62
7
  6
CONTINUOUS
 10
149.1893465974
 20
115.5783473108
 40
1.0
 50
90.0
 51
180.0
  0
ARC
  8
0
 62
7
  6
CONTINUOUS
 10
159.1893465974
 20
115.5783473108
 40
1.0
 50
0.0
 51
90.0
  0
ARC
  8
SURFACE
 62
7
  6
CONTINUOUS
 10
211.9893465974
 20
98.5283473108
 40
1.0
 50
180.0
 51
270.0
  0
ARC
  8
SURFACE
 62
7
  6
CONTINUOUS
 10
221.9893465974
 20
98.5283473108
 40
1.0
 50
270.0
 51
360.0
  0
ARC
  8
SURFACE
 62
7
  6
CONTINUOUS
 10
209.9893465974
 20
102.3033473108
 40
1.0
 50
0.0
 51
90.0
  0
ARC
  8
SURFACE
 62
7
  6
CONTINUOUS
 10
223.9893465974
 20
102.3033473108
 40
1.0
 50
90.0
 51
180.0
  0
ARC
  8
SURFACE
 62
7
  6
CONTINUOUS
 10
237.9893465974
 20
98.5283473108
 40
1.0
 50
180.0
 51
270.0
  0
ARC
  8
SURFACE
 62
7
  6
CONTINUOUS
 10
247.9893465974
 20
98.5283473108
 40
1.0
 50
270.0
 51
360.0
  0
ARC
  8
SURFACE
 62
7
  6
CONTINUOUS
 10
235.9893465974
 20
102.3033473108
 40
1.0
 50
0.0
 51
90.0
  0
ARC
  8
SURFACE
 62
7
  6
CONTINUOUS
 10
261.9893465974
 20
102.3033473108
 40
1.0
 50
0.0
 51
90.0
  0
ARC
  8
SURFACE
 62
7
  6
CONTINUOUS
 10
249.9893465974
 20
102.3033473108
 40
1.0
 50
90.0
 51
180.0
  0
ARC
  8
SURFACE
 62
7
  6
CONTINUOUS
 10
252.4893465974
 20
103.8033473108
 40
0.5
 50
270.0
 51
360.0
  0
ARC
  8
SURFACE
 62
7
  6
CONTINUOUS
 10
259.4893465974
 20
103.8033473108
 40
0.5
 50
180.0
 51
270.0
  0
ARC
  8
SURFACE
 62
7
  6
CONTINUOUS
 10
226.4893465974
 20
103.8033473108
 40
0.5
 50
270.0
 51
360.0
  0
ARC
  8
SURFACE
 62
7
  6
CONTINUOUS
 10
233.4893465974
 20
103.8033473108
 40
0.5
 50
180.0
 51
270.0
  0
ARC
  8
SURFACE
 62
7
  6
CONTINUOUS
 10
207.4893465974
 20
103.8033473108
 40
0.5
 50
180.0
 51
270.0
  0
ARC
  8
SURFACE
 62
7
  6
CONTINUOUS
 10
200.4893465974
 20
103.8033473108
 40
0.5
 50
270.0
 51
360.0
  0
ARC
  8
SURFACE
 62
7
  6
CONTINUOUS
 10
312.9893465974
 20
101.3283473108
 40
2.0
 50
269.9991435831
 51
0.0031349179
  0
ARC
  8
SURFACE
 62
7
  6
CONTINUOUS
 10
315.9893465974
 20
98.5283473108
 40
1.0
 50
180.0
 51
270.0
  0
ARC
  8
SURFACE
 62
7
  6
CONTINUOUS
 10
315.9893465974
 20
101.0783473108
 40
1.0
 50
180.0
 51
270.0
  0
ARC
  8
SURFACE
 62
7
  6
CONTINUOUS
 10
336.9893465974
 20
98.5283473108
 40
1.0
 50
270.0
 51
360.0
  0
ARC
  8
SURFACE
 62
7
  6
CONTINUOUS
 10
336.9893465974
 20
101.0783473108
 40
1.0
 50
270.0
 51
360.0
  0
ARC
  8
SURFACE
 62
7
  6
CONTINUOUS
 10
348.1893465974
 20
106.6033473108
 40
2.5
 50
270.0
 51
360.0
  0
ARC
  8
SURFACE
 62
7
  6
CONTINUOUS
 10
304.4893465974
 20
103.9883277974
 40
0.5
 50
270.9438812604
 51
360.0
  0
ARC
  8
SURFACE
 62
7
  6
CONTINUOUS
 10
311.4893465974
 20
104.1138122901
 40
0.5
 50
180.0
 51
271.1135419936
  0
ARC
  8
SURFACE
 62
7
  6
CONTINUOUS
 10
278.4893465974
 20
103.8033473108
 40
0.5
 50
270.0
 51
360.0
  0
ARC
  8
SURFACE
 62
7
  6
CONTINUOUS
 10
285.4893465974
 20
103.8033473108
 40
0.5
 50
180.0
 51
270.0
  0
ARC
  8
SURFACE
 62
7
  6
CONTINUOUS
 10
252.4893465974
 20
110.3033473108
 40
0.5
 50
0.0
 51
90.0
  0
ARC
  8
SURFACE
 62
7
  6
CONTINUOUS
 10
259.4893465974
 20
110.3033473108
 40
0.5
 50
90.0
 51
180.0
  0
ARC
  8
SURFACE
 62
7
  6
CONTINUOUS
 10
226.4893465974
 20
110.3033473108
 40
0.5
 50
0.0
 51
90.0
  0
ARC
  8
SURFACE
 62
7
  6
CONTINUOUS
 10
233.4893465974
 20
110.3033473108
 40
0.5
 50
90.0
 51
180.0
  0
ARC
  8
SURFACE
 62
7
  6
CONTINUOUS
 10
207.4893465974
 20
110.3033473108
 40
0.5
 50
90.0
 51
180.0
  0
ARC
  8
SURFACE
 62
7
  6
CONTINUOUS
 10
200.4893465974
 20
110.3033473108
 40
0.5
 50
0.0
 51
90.0
  0
ARC
  8
SURFACE
 62
7
  6
CONTINUOUS
 10
187.2393465974
 20
107.3533473108
 40
0.3
 50
270.0005928302
 51
359.9999569054
  0
ARC
  8
SURFACE
 62
7
  6
CONTINUOUS
 10
209.9893465974
 20
111.8033473108
 40
1.0
 50
277.5474679805
 51
360.0
  0
ARC
  8
SURFACE
 62
7
  6
CONTINUOUS
 10
235.9893465974
 20
111.8033473108
 40
1.0
 50
277.5474679229
 51
360.0
  0
ARC
  8
SURFACE
 62
7
  6
CONTINUOUS
 10
223.9893465974
 20
111.8033473108
 40
1.0
 50
180.0
 51
262.4525322589
  0
ARC
  8
SURFACE
 62
7
  6
CONTINUOUS
 10
211.9893465974
 20
115.5783473108
 40
1.0
 50
90.0
 51
180.0
  0
ARC
  8
SURFACE
 62
7
  6
CONTINUOUS
 10
221.9893465974
 20
115.5783473108
 40
1.0
 50
0.0
 51
90.0
  0
ARC
  8
SURFACE
 62
7
  6
CONTINUOUS
 10
261.9893465974
 20
111.8033473108
 40
1.0
 50
277.5474679229
 51
360.0
  0
ARC
  8
SURFACE
 62
7
  6
CONTINUOUS
 10
249.9893465974
 20
111.8033473108
 40
1.0
 50
180.0
 51
262.4525322589
  0
ARC
  8
SURFACE
 62
7
  6
CONTINUOUS
 10
237.9893465974
 20
115.5783473108
 40
1.0
 50
90.0
 51
180.0
  0
ARC
  8
SURFACE
 62
7
  6
CONTINUOUS
 10
263.9893465974
 20
115.5783473108
 40
1.0
 50
90.0
 51
180.0
  0
ARC
  8
SURFACE
 62
7
  6
CONTINUOUS
 10
247.9893465974
 20
115.5783473108
 40
1.0
 50
0.0
 51
90.0
  0
ARC
  8
SURFACE
 62
7
  6
CONTINUOUS
 10
348.1893465974
 20
107.5033473108
 40
2.5
 50
0.0
 51
90.0
  0
ARC
  8
SURFACE
 62
7
  6
CONTINUOUS
 10
327.2057019363
 20
110.0533473108
 40
1.0
 50
269.9996427502
 51
344.9998522519
  0
ARC
  8
SURFACE
 62
7
  6
CONTINUOUS
 10
326.7729912584
 20
110.0533473108
 40
1.0
 50
194.9996132325
 51
269.9996709106
  0
ARC
  8
SURFACE
 62
7
  6
CONTINUOUS
 10
304.4893465974
 20
110.1183277384
 40
0.5
 50
0.0
 51
89.0560853693
  0
ARC
  8
SURFACE
 62
7
  6
CONTINUOUS
 10
278.4893465974
 20
110.3033473108
 40
0.5
 50
0.0
 51
90.0
  0
ARC
  8
SURFACE
 62
7
  6
CONTINUOUS
 10
285.4893465974
 20
110.3033473108
 40
0.5
 50
90.0
 51
180.0
  0
ARC
  8
SURFACE
 62
7
  6
CONTINUOUS
 10
273.9893465974
 20
115.5783473108
 40
1.0
 50
0.0
 51
90.0
  0
ARC
  8
SURFACE
 62
7
  6
CONTINUOUS
 10
289.9893465974
 20
115.5783473108
 40
1.0
 50
90.0
 51
180.0
  0
ARC
  8
SURFACE
 62
7
  6
CONTINUOUS
 10
323.2220196862
 20
115.578347024
 40
1.0
 50
15.0000170121
 51
90.0000044031
  0
ARC
  8
SURFACE
 62
7
  6
CONTINUOUS
 10
315.9893465974
 20
115.5783473108
 40
1.0
 50
90.0
 51
180.0
  0
ARC
  8
SURFACE
 62
7
  6
CONTINUOUS
 10
299.9893465974
 20
115.5783473108
 40
1.0
 50
0.0
 51
90.0
  0
ARC
  8
SURFACE
 62
7
  6
CONTINUOUS
 10
336.9893465974
 20
115.5783473108
 40
1.0
 50
0.0
 51
90.0
  0
ARC
  8
SURFACE
 62
7
  6
CONTINUOUS
 10
330.7566725197
 20
115.5783473108
 40
0.9999994853
 50
89.9999389449
 51
164.9999841978
  0
ARC
  8
SURFACE
 62
7
  6
CONTINUOUS
 10
311.4893465974
 20
113.0618762397
 40
0.5
 50
90.0
 51
180.0
  0
ARC
  8
0
 62
7
  6
CONTINUOUS
 10
378.5526359974
 20
167.6339765943
 40
0.9999996543
 50
91.9999622961
 51
227.1125376108
  0
ARC
  8
0
 62
7
  6
CONTINUOUS
 10
375.8693504628
 20
188.7868918882
 40
1.0
 50
180.0
 51
268.0
  0
ARC
  8
0
 62
7
  6
CONTINUOUS
 10
384.1943504628
 20
172.838582784
 40
4.0
 50
180.0
 51
270.0
  0
ARC
  8
0
 62
7
  6
CONTINUOUS
 10
384.2693504628
 20
173.788582784
 40
9.4
 50
179.9997888765
 51
270.0004520863
  0
ARC
  8
SURFACE
 62
7
  6
CONTINUOUS
 10
384.2693504628
 20
173.788582784
 40
9.4
 50
217.7596295123
 51
217.8168499442
  0
ARC
  8
SURFACE
 62
7
  6
CONTINUOUS
 10
384.2693504628
 20
173.788582784
 40
9.4
 50
199.5052802551
 51
204.2991893249
  0
ARC
  8
SURFACE
 62
7
  6
CONTINUOUS
 10
384.2693504628
 20
173.788582784
 40
9.4
 50
225.5477626467
 51
226.4217893094
  0
ARC
  8
SURFACE
 62
7
  6
CONTINUOUS
 10
384.2693504628
 20
173.788582784
 40
9.4
 50
267.1639378418
 51
270.0
  0
ARC
  8
SURFACE
 62
7
  6
CONTINUOUS
 10
384.2693504628
 20
173.788582784
 40
9.4
 50
226.5639283623
 51
227.112600117
  0
ARC
  8
SURFACE
 62
7
  6
CONTINUOUS
 10
384.2693504628
 20
173.788582784
 40
9.4
 50
205.3504585
 51
215.0905282275
  0
ARC
  8
SURFACE
 62
7
  6
CONTINUOUS
 10
384.2693504628
 20
173.788582784
 40
9.4
 50
195.2676333788
 51
199.1332539271
  0
ARC
  8
SURFACE
 62
7
  6
CONTINUOUS
 10
384.2693504628
 20
173.788582784
 40
9.4
 50
189.7979494112
 51
195.0293199691
  0
ARC
  8
0
 62
7
  6
CONTINUOUS
 10
384.5943504628
 20
172.838582784
 40
4.0
 50
270.0
 51
360.0
  0
ARC
  8
0
 62
7
  6
CONTINUOUS
 10
384.5193504628
 20
173.788582784
 40
9.4
 50
311.6690789741
 51
360.0
  0
ARC
  8
0
 62
7
  6
CONTINUOUS
 10
384.5193504628
 20
173.788582784
 40
9.4
 50
270.0
 51
291.177317258
  0
ARC
  8
SURFACE
 62
7
  6
CONTINUOUS
 10
384.5193504628
 20
173.788582784
 40
9.4
 50
320.6798386911
 51
360.0
  0
ARC
  8
SURFACE
 62
7
  6
CONTINUOUS
 10
384.5193504628
 20
173.788582784
 40
9.4
 50
312.3542609941
 51
314.4881574054
  0
ARC
  8
0
 62
7
  6
CONTINUOUS
 10
384.5943504628
 20
184.738582784
 40
4.0
 50
0.0
 51
90.0
  0
ARC
  8
0
 62
7
  6
CONTINUOUS
 10
384.1943504628
 20
184.738582784
 40
4.0
 50
90.0
 51
180.0
  0
ARC
  8
0
 62
7
  6
CONTINUOUS
 10
375.8693504628
 20
191.8885835106
 40
1.0000000009
 50
180.0000207902
 51
269.9999813722
  0
ARC
  8
SURFACE
 62
7
  6
CONTINUOUS
 10
384.2693504628
 20
205.988582784
 40
9.4
 50
91.1174184215
 51
91.8486166889
  0
ARC
  8
SURFACE
 62
7
  6
CONTINUOUS
 10
384.2693504628
 20
205.988582784
 40
9.4
 50
142.9934995129
 51
143.8992334925
  0
ARC
  8
SURFACE
 62
7
  6
CONTINUOUS
 10
384.2693504628
 20
205.988582784
 40
9.4
 50
93.0534626969
 51
96.8306052375
  0
ARC
  8
0
 62
7
  6
CONTINUOUS
 10
384.2693504628
 20
205.988582784
 40
9.4
 50
90.0
 51
179.9999914969
  0
ARC
  8
0
 62
7
  6
CONTINUOUS
 10
384.3943504628
 20
200.838582784
 40
2.95
 50
180.0
 51
360.0
  0
ARC
  8
SURFACE
 62
7
  6
CONTINUOUS
 10
384.5193504628
 20
205.988582784
 40
9.4
 50
87.6090253767
 51
90.0000150732
  0
ARC
  8
SURFACE
 62
7
  6
CONTINUOUS
 10
384.5193504628
 20
205.988582784
 40
9.4
 50
33.5437572642
 51
37.6050141655
  0
ARC
  8
0
 62
7
  6
CONTINUOUS
 10
384.5193504628
 20
205.988582784
 40
9.4
 50
0.0
 51
90.0000150732
  0
ARC
  8
0
 62
7
  6
CONTINUOUS
 10
384.3943504628
 20
204.938582784
 40
2.95
 50
359.9999260971
 51
180.0000535562
  0
ARC
  8
0
 62
7
  6
CONTINUOUS
 10
389.9193504628
 20
178.1651927744
 40
4.0
 50
345.0
 51
359.9999913943
  0
ARC
  8
0
 62
7
  6
CONTINUOUS
 10
387.1112770209
 20
168.388582784
 40
4.0
 50
270.0
 51
342.1792102524
  0
ARC
  8
0
 62
7
  6
CONTINUOUS
 10
387.5488762934
 20
169.3184627362
 40
4.0
 50
324.8789266679
 51
345.0002847277
  0
ARC
  8
SURFACE
 62
7
  6
CONTINUOUS
 10
387.1112770209
 20
168.388582784
 40
4.0
 50
270.0
 51
286.4196616581
  0
ARC
  8
SURFACE
 62
7
  6
CONTINUOUS
 10
387.1112770209
 20
168.388582784
 40
4.0
 50
296.5031535943
 51
301.6233922243
  0
ARC
  8
0
 62
7
  6
CONTINUOUS
 10
386.9193504628
 20
186.388582784
 40
5.0
 50
359.9999966962
 51
56.4426853773
  0
ARC
  8
0
 62
7
  6
CONTINUOUS
 10
388.577662858
 20
188.888582784
 40
2.0
 50
56.442678086
 51
90.0000089101
  0
ARC
  8
0
 62
7
  6
CONTINUOUS
 10
392.4193504628
 20
178.388582784
 40
0.5
 50
180.0
 51
270.0
  0
ARC
  8
0
 62
7
  6
CONTINUOUS
 10
392.9193534775
 20
178.8885797693
 40
0.9999969853
 50
269.9999984625
 51
360.0
  0
ARC
  8
0
 62
7
  6
CONTINUOUS
 10
386.3693504628
 20
209.9807626397
 40
5.0
 50
0.0
 51
65.1379167491
  0
ARC
  8
0
 62
7
  6
CONTINUOUS
 10
389.9193504628
 20
202.1119727937
 40
4.0
 50
359.9992387509
 51
15.0003627009
  0
ARC
  8
0
 62
7
  6
CONTINUOUS
 10
387.7140754392
 20
210.3421712263
 40
4.0
 50
14.9991847071
 51
53.7271292093
  0
ARC
  8
0
 62
7
  6
CONTINUOUS
 10
393.3693504628
 20
203.188582784
 40
2.0
 50
180.0000136757
 51
248.7461824962
  0
ARC
  8
0
 62
7
  6
CONTINUOUS
 10
391.9193504628
 20
199.4606476988
 40
2.0
 50
0.0
 51
68.7461991331
  0
ENDSEC
  0
EOF
