  0
SECTION
  2
HEADER
  9
$EXTMAX
 10
420.0
 20
297.0
 30
0.0
  9
$EXTMIN
 10
0.0
 20
0.0
 30
0.0
  9
$LIMMIN
 10
0.0
 20
0.0
  9
$LIMMAX
 10
420.0
 20
297.0
  9
$VIEWCTR
 10
210.0
 20
148.5
  9
$VIEWSIZE
 40
297.0
  9
$CLAYER
  8
0
  9
$LTSCALE
 40
23.1
  9
$CELTYPE
  6
BYLAYER
  9
$DIMSCALE
 40
1.0
  9
$DIMASZ
 40
3.5
  9
$DIMEXO
 40
2.625
  9
$DIMDLI
 40
15.96
  9
$DIMEXE
 40
7.56
  9
$DIMCEN
 40
3.78
  9
$DIMLFAC
 40
1.0
  9
$DIMBLK
  1
_FILLED
  9
$DIMTXT
 40
3.5
  9
$PDMODE
 70
3
  9
$PDSIZE
 40
0.3125
  9
$TILEMODE
 70
1
  0
ENDSEC
  0
SECTION
  2
TABLES
  0
TABLE
  2
LTYPE
 70
6
  0
LTYPE
  2
BYBLOCK
 70
0
  3

 72
65
 73
0
 40
0.0
  0
LTYPE
  2
BYLAYER
 70
0
  3

 72
65
 73
0
 40
0.0
  0
LTYPE
  2
CONTINUOUS
 70
64
  3
Solid line
 72
65
 73
0
 40
0.0
  0
LTYPE
  2
CENTER
 70
64
  3
____ _ ____ _ ____ _ ____ _ ____ _ ____ _ ____
 72
65
 73
4
 40
0.6
 49
0.375
 49
-0.075
 49
0.075
 49
-0.075
  0
LTYPE
  2
HIDDEN
 70
64
  3
- - - - - - - - - - - - - - - - - - - -
 72
65
 73
2
 40
0.2
 49
0.1
 49
-0.1
  0
LTYPE
  2
PHANTOM
 70
64
  3
_____ _ _ _____ _ _ _____ _ _ _____
 72
65
 73
6
 40
0.8
 49
0.45
 49
-0.05
 49
0.1
 49
-0.05
 49
0.1
 49
-0.05
  0
LTYPE
  2
DOT
 70
64
  3
. . . . . . . . . . . . . . . . . . . .
 72
65
 73
2
 40
0.2
 49
0.1
 49
-0.1
  0
LTYPE
  2
DASHED
 70
64
  3
- - - - - - - - - - - - - - - - - - - -
 72
65
 73
2
 40
0.2
 49
0.1
 49
-0.1
  0
ENDTAB
  0
TABLE
  2
LAYER
 70
36
  0
LAYER
  2
0
 70
0
 62
7
  6
CONTINUOUS
  0
LAYER
  2
DEFAULT_1
 70
0
 62
7
  6
CENTER
  0
LAYER
  2
DEFAULT_2
 70
0
 62
8
  6
HIDDEN
  0
LAYER
  2
DEFAULT_3
 70
0
 62
7
  6
PHANTOM
  0
LAYER
  2
00_CURVE
 70
0
 62
7
  6
CONTINUOUS
  0
LAYER
  2
01_SURFACE
 70
0
 62
7
  6
CONTINUOUS
  0
LAYER
  2
02_QUILT
 70
0
 62
7
  6
CONTINUOUS
  0
LAYER
  2
03_COPY_GEOM_FEAT
 70
0
 62
7
  6
CONTINUOUS
  0
LAYER
  2
10_SKELETON
 70
0
 62
7
  6
CONTINUOUS
  0
LAYER
  2
11_EMNER
 70
0
 62
7
  6
CONTINUOUS
  0
LAYER
  2
12_WORKPIECE
 70
0
 62
7
  6
CONTINUOUS
  0
LAYER
  2
13_KOMPONENTER
 70
0
 62
7
  6
CONTINUOUS
  0
LAYER
  2
BLANK-PLANS
 70
0
 62
7
  6
CONTINUOUS
  0
LAYER
  2
CURVE
 70
0
 62
7
  6
CONTINUOUS
  0
LAYER
  2
PLANS
 70
0
 62
7
  6
CONTINUOUS
  0
LAYER
  2
SURFACE
 70
0
 62
7
  6
CONTINUOUS
  0
LAYER
  2
XSEC_DATUMS
 70
0
 62
7
  6
CONTINUOUS
  0
ENDTAB
  0
TABLE
  2
STYLE
 70
1
  0
STYLE
  2
STANDARD
 70
0
 40
0.0
 41
0.8
 50
0.0
 71
0
 42
0.2
  3
txt
  4

  0
STYLE
  2
TEXTSTYLE_1
 70
0
 40
0.0
 41
0.8
 50
0.0
 71
0
 42
0.2
  3
gdt
  4

  0
STYLE
  2
TEXTSTYLE_2
 70
0
 40
0.0
 41
0.6
 50
0.0
 71
0
 42
0.2
  3
txt
  4

  0
STYLE
  2
TEXTSTYLE_3
 70
0
 40
0.0
 41
1.0
 50
0.0
 71
0
 42
0.2
  3
ftb_____.ttf
  4

  0
STYLE
  2
TEXTSTYLE_4
 70
0
 40
0.0
 41
1.0
 50
0.0
 71
0
 42
0.2
  3
fti_____.ttf
  4

  0
STYLE
  2
TEXTSTYLE_5
 70
0
 40
0.0
 41
1.0
 50
0.0
 71
0
 42
0.2
  3
frutiger light.ttf
  4

  0
STYLE
  2
TEXTSTYLE_6
 70
0
 40
0.0
 41
0.7
 50
0.0
 71
0
 42
0.2
  3
txt
  4

  0
STYLE
  2
TEXTSTYLE_7
 70
0
 40
0.0
 41
0.6
 50
0.0
 71
0
 42
0.2
  3
txt
  4

  0
ENDTAB
  0
ENDSEC
  0
SECTION
  2
BLOCKS
  0
BLOCK
  8
0
 62
2
  6
CONTINUOUS
  2
SYMBOL_5_BL1
 70
64
 10
382.7840918555
 20
35.5067593403
  0
TEXT
  8
0
 62
7
  6
CONTINUOUS
 10
373.842376864
 20
30.5995157174
  7
TEXTSTYLE_4
 40
1.0655737705
  1
The brand for plastic modular belts and chains
 41
1.0
 72
0
  0
LINE
  8
0
 62
7
  6
CONTINUOUS
 10
358.7621602445
 20
36.0805298321
 11
358.7621602445
 21
33.9493822911
  0
LINE
  8
0
 62
7
  6
CONTINUOUS
 10
359.0512227376
 20
30.9584509954
 11
359.0512227376
 21
31.0552420547
  0
LINE
  8
0
 62
7
  6
CONTINUOUS
 10
358.7621602445
 20
31.0229783683
 11
358.8199727462
 21
30.8293962497
  0
LINE
  8
0
 62
7
  6
CONTINUOUS
 10
360.1556028675
 20
33.867415078
 11
360.1556028675
 21
36.0805298321
  0
LINE
  8
0
 62
7
  6
CONTINUOUS
 10
361.0746601894
 20
32.0231527829
 11
361.0746601894
 21
30.5067593403
  0
LINE
  8
0
 62
7
  6
CONTINUOUS
 10
361.3637227445
 20
30.5067593403
 11
361.3637227445
 21
31.2488242184
  0
LINE
  8
0
 62
7
  6
CONTINUOUS
 10
361.3637227445
 20
31.3778789641
 11
361.3637227445
 21
32.0231527829
  0
LINE
  8
0
 62
7
  6
CONTINUOUS
 10
358.8199727462
 20
31.216560532
 11
358.7621602445
 21
31.0229783683
  0
LINE
  8
0
 62
7
  6
CONTINUOUS
 10
359.1668477307
 20
30.7971325633
 11
359.0512227376
 21
30.9584509954
  0
LINE
  8
0
 62
7
  6
CONTINUOUS
 10
360.2652852997
 20
31.3133515913
 11
360.3230977445
 21
31.216560532
  0
LINE
  8
0
 62
7
  6
CONTINUOUS
 10
360.6121602997
 20
31.216560532
 11
360.5543476894
 21
31.3456152777
  0
LINE
  8
0
 62
7
  6
CONTINUOUS
 10
362.0408487691
 20
36.0805298321
 11
362.0408487691
 21
34.2772511436
  0
LINE
  8
0
 62
7
  6
CONTINUOUS
 10
362.0408487691
 20
32.9657757338
 11
362.0408487691
 21
32.3100380288
  0
LINE
  8
0
 62
7
  6
CONTINUOUS
 10
362.4043477445
 20
31.1520331591
 11
362.4043477445
 21
30.5067593403
  0
LINE
  8
0
 62
7
  6
CONTINUOUS
 10
362.6934101343
 20
30.5067593403
 11
362.6934101343
 21
31.1520331591
  0
LINE
  8
0
 62
7
  6
CONTINUOUS
 10
359.0512227376
 20
31.0552420547
 11
359.1090352445
 21
31.1842968456
  0
LINE
  8
0
 62
7
  6
CONTINUOUS
 10
358.8199727462
 20
30.8293962497
 11
358.9355977445
 21
30.7003414814
  0
LINE
  8
0
 62
7
  6
CONTINUOUS
 10
362.3465351343
 20
31.2810879048
 11
362.4043477445
 21
31.1520331591
  0
LINE
  8
0
 62
7
  6
CONTINUOUS
 10
363.1559103548
 20
30.7971325633
 11
363.2137226343
 21
30.668077795
  0
LINE
  8
0
 62
7
  6
CONTINUOUS
 10
362.6934101343
 20
31.1520331591
 11
362.6355978548
 21
31.3133515913
  0
LINE
  8
0
 62
7
  6
CONTINUOUS
 10
363.1559103548
 20
31.3456152777
 11
363.1559103548
 21
31.2810879048
  0
LINE
  8
0
 62
7
  6
CONTINUOUS
 10
363.1559103548
 20
30.8939236226
 11
363.1559103548
 21
30.7971325633
  0
LINE
  8
0
 62
7
  6
CONTINUOUS
 10
363.4342913921
 20
32.3100380288
 11
363.4342913921
 21
36.0805298321
  0
LINE
  8
0
 62
7
  6
CONTINUOUS
 10
363.4449727445
 20
30.7648688543
 11
363.4449727445
 21
30.8293962497
  0
LINE
  8
0
 62
7
  6
CONTINUOUS
 10
363.7621602445
 20
36.0805298321
 11
363.7621602445
 21
32.3100380288
  0
LINE
  8
0
 62
7
  6
CONTINUOUS
 10
360.5543476894
 20
30.7003414814
 11
360.6121602997
 21
30.8293962497
  0
LINE
  8
0
 62
7
  6
CONTINUOUS
 10
364.9480979651
 20
30.6035504109
 11
364.890285024
 21
30.7648688543
  0
LINE
  8
0
 62
7
  6
CONTINUOUS
 10
364.6012229651
 20
31.2810879048
 11
364.6012229651
 21
31.1842968456
  0
LINE
  8
0
 62
7
  6
CONTINUOUS
 10
364.6012229651
 20
31.0552420547
 11
364.6012229651
 21
30.8616599362
  0
LINE
  8
0
 62
7
  6
CONTINUOUS
 10
364.890285024
 20
30.7648688543
 11
364.890285024
 21
31.2810879048
  0
LINE
  8
0
 62
7
  6
CONTINUOUS
 10
365.1556028675
 20
32.3100380288
 11
365.1556028675
 21
34.1133167174
  0
LINE
  8
0
 62
7
  6
CONTINUOUS
 10
365.1556028675
 20
35.4247921272
 11
365.1556028675
 21
36.0805298321
  0
LINE
  8
0
 62
7
  6
CONTINUOUS
 10
365.4684104651
 20
32.0231527829
 11
365.4684104651
 21
31.8618343508
  0
LINE
  8
0
 62
7
  6
CONTINUOUS
 10
365.4684104651
 20
31.5391973962
 11
365.4684104651
 21
30.5067593403
  0
LINE
  8
0
 62
7
  6
CONTINUOUS
 10
365.757472524
 20
30.5067593403
 11
365.757472524
 21
31.5391973962
  0
LINE
  8
0
 62
7
  6
CONTINUOUS
 10
365.757472524
 20
31.8618343508
 11
365.757472524
 21
32.0231527829
  0
LINE
  8
0
 62
7
  6
CONTINUOUS
 10
360.3230977445
 20
30.8293962497
 11
360.2652852997
 21
30.7326051679
  0
LINE
  8
0
 62
7
  6
CONTINUOUS
 10
362.6355978548
 20
31.3133515913
 11
362.5777852445
 21
31.3778789641
  0
LINE
  8
0
 62
7
  6
CONTINUOUS
 10
363.5027853548
 20
30.7003414814
 11
363.4449727445
 21
30.7648688543
  0
LINE
  8
0
 62
7
  6
CONTINUOUS
 10
364.6590352445
 20
30.5712867188
 11
364.716847524
 21
30.5067593403
  0
LINE
  8
0
 62
7
  6
CONTINUOUS
 10
364.6012229651
 20
30.668077795
 11
364.6590352445
 21
30.5712867188
  0
LINE
  8
0
 62
7
  6
CONTINUOUS
 10
365.0059102445
 20
30.5067593403
 11
364.9480979651
 21
30.6035504109
  0
LINE
  8
0
 62
7
  6
CONTINUOUS
 10
364.890285024
 20
31.2810879048
 11
364.8324727445
 21
31.3778789641
  0
LINE
  8
0
 62
7
  6
CONTINUOUS
 10
366.2199727445
 20
31.5391973962
 11
366.2199727445
 21
30.5067593403
  0
LINE
  8
0
 62
7
  6
CONTINUOUS
 10
366.5090354651
 20
30.5067593403
 11
366.5090354651
 21
31.2488242184
  0
LINE
  8
0
 62
7
  6
CONTINUOUS
 10
366.5090354651
 20
31.3778789641
 11
366.5090354651
 21
31.5391973962
  0
LINE
  8
0
 62
7
  6
CONTINUOUS
 10
367.0408487691
 20
34.5231527829
 11
367.0408487691
 21
32.3100380288
  0
LINE
  8
0
 62
7
  6
CONTINUOUS
 10
358.9355977445
 20
31.3456152777
 11
358.8199727462
 21
31.216560532
  0
LINE
  8
0
 62
7
  6
CONTINUOUS
 10
359.1090352445
 20
31.1842968456
 11
359.1668477307
 21
31.2488242184
  0
LINE
  8
0
 62
7
  6
CONTINUOUS
 10
358.9355977445
 20
30.7003414814
 11
359.0512227376
 21
30.6358140973
  0
LINE
  8
0
 62
7
  6
CONTINUOUS
 10
359.3402852307
 20
30.7003414814
 11
359.1668477307
 21
30.7971325633
  0
LINE
  8
0
 62
7
  6
CONTINUOUS
 10
364.543410024
 20
31.3456152777
 11
364.6012229651
 21
31.2810879048
  0
LINE
  8
0
 62
7
  6
CONTINUOUS
 10
367.491847524
 20
31.2810879048
 11
367.5496604651
 21
31.1197694727
  0
LINE
  8
0
 62
7
  6
CONTINUOUS
 10
367.838722524
 20
31.1197694727
 11
367.7809102445
 21
31.2810879048
  0
LINE
  8
0
 62
7
  6
CONTINUOUS
 10
367.5496604651
 20
31.1197694727
 11
367.5496604651
 21
30.5067593403
  0
LINE
  8
0
 62
7
  6
CONTINUOUS
 10
367.838722524
 20
30.5067593403
 11
367.838722524
 21
31.1197694727
  0
LINE
  8
0
 62
7
  6
CONTINUOUS
 10
368.3012227445
 20
31.3456152777
 11
368.3012227445
 21
31.2810879048
  0
LINE
  8
0
 62
7
  6
CONTINUOUS
 10
368.4342913921
 20
32.3100380288
 11
368.4342913921
 21
34.4411855698
  0
LINE
  8
0
 62
7
  6
CONTINUOUS
 10
368.7621602445
 20
36.0805298321
 11
368.7621602445
 21
32.3100380288
  0
LINE
  8
0
 62
7
  6
CONTINUOUS
 10
363.4449727445
 20
30.8293962497
 11
363.5027853548
 21
30.926187309
  0
LINE
  8
0
 62
7
  6
CONTINUOUS
 10
359.0512227376
 20
30.6358140973
 11
359.2246602583
 21
30.5712867188
  0
LINE
  8
0
 62
7
  6
CONTINUOUS
 10
360.5543476894
 20
31.3456152777
 11
360.3809101894
 21
31.4424063369
  0
LINE
  8
0
 62
7
  6
CONTINUOUS
 10
363.2137226343
 20
30.668077795
 11
363.3871601343
 21
30.5712867188
  0
LINE
  8
0
 62
7
  6
CONTINUOUS
 10
362.2309102445
 20
31.3456152777
 11
362.3465351343
 21
31.2810879048
  0
LINE
  8
0
 62
7
  6
CONTINUOUS
 10
362.5777852445
 20
31.3778789641
 11
362.4621603548
 21
31.4424063369
  0
LINE
  8
0
 62
7
  6
CONTINUOUS
 10
368.3012227445
 20
30.7648688543
 11
368.4168479651
 21
30.6358140973
  0
LINE
  8
0
 62
7
  6
CONTINUOUS
 10
368.6480977445
 20
30.7003414814
 11
368.5902854651
 21
30.7648688543
  0
LINE
  8
0
 62
7
  6
CONTINUOUS
 10
368.3012227445
 20
31.2810879048
 11
368.4168479651
 21
31.1520331591
  0
LINE
  8
0
 62
7
  6
CONTINUOUS
 10
367.7809102445
 20
31.2810879048
 11
367.7230979651
 21
31.3778789641
  0
LINE
  8
0
 62
7
  6
CONTINUOUS
 10
370.1512223035
 20
30.7003414814
 11
370.1512223035
 21
30.7648688543
  0
LINE
  8
0
 62
7
  6
CONTINUOUS
 10
370.1556028675
 20
32.3100380288
 11
370.1556028675
 21
36.0805298321
  0
LINE
  8
0
 62
7
  6
CONTINUOUS
 10
363.2137226343
 20
31.4101426505
 11
363.1559103548
 21
31.3456152777
  0
LINE
  8
0
 62
7
  6
CONTINUOUS
 10
360.091847717
 20
31.3778789641
 11
360.2652852997
 21
31.3133515913
  0
LINE
  8
0
 62
7
  6
CONTINUOUS
 10
364.8324727445
 20
31.3778789641
 11
364.716847524
 21
31.4424063369
  0
LINE
  8
0
 62
7
  6
CONTINUOUS
 10
368.6480977445
 20
31.216560532
 11
368.5902854651
 21
31.2810879048
  0
LINE
  8
0
 62
7
  6
CONTINUOUS
 10
369.8043479651
 20
30.8293962497
 11
369.8621602445
 21
30.7648688543
  0
LINE
  8
0
 62
7
  6
CONTINUOUS
 10
370.1512223035
 20
30.7648688543
 11
370.0355977445
 21
30.8939236226
  0
LINE
  8
0
 62
7
  6
CONTINUOUS
 10
369.8043479651
 20
31.3456152777
 11
369.8621602445
 21
31.2810879048
  0
LINE
  8
0
 62
7
  6
CONTINUOUS
 10
370.1512223035
 20
31.2810879048
 11
370.0355977445
 21
31.4101426505
  0
LINE
  8
0
 62
7
  6
CONTINUOUS
 10
363.4449727445
 20
31.2810879048
 11
363.5027853548
 21
31.3456152777
  0
LINE
  8
0
 62
7
  6
CONTINUOUS
 10
363.2715352445
 20
31.0229783683
 11
363.1559103548
 21
30.8939236226
  0
LINE
  8
0
 62
7
  6
CONTINUOUS
 10
364.6012229651
 20
30.8616599362
 11
364.543410024
 21
30.7971325633
  0
LINE
  8
0
 62
7
  6
CONTINUOUS
 10
364.543410024
 20
30.6035504109
 11
364.6012229651
 21
30.668077795
  0
LINE
  8
0
 62
7
  6
CONTINUOUS
 10
363.3871601343
 20
30.5712867188
 11
363.5027853548
 21
30.5390230296
  0
LINE
  8
0
 62
7
  6
CONTINUOUS
 10
360.3809101894
 20
31.4424063369
 11
360.1496602445
 21
31.5069337098
  0
LINE
  8
0
 62
7
  6
CONTINUOUS
 10
363.7340351343
 20
30.6358140973
 11
363.5027853548
 21
30.7003414814
  0
LINE
  8
0
 62
7
  6
CONTINUOUS
 10
362.4621603548
 20
31.4424063369
 11
362.2887228548
 21
31.5069337098
  0
LINE
  8
0
 62
7
  6
CONTINUOUS
 10
364.716847524
 20
31.4424063369
 11
364.543410024
 21
31.5069337098
  0
LINE
  8
0
 62
7
  6
CONTINUOUS
 10
367.3762229651
 20
31.3456152777
 11
367.491847524
 21
31.2810879048
  0
LINE
  8
0
 62
7
  6
CONTINUOUS
 10
367.7230979651
 20
31.3778789641
 11
367.6074727445
 21
31.4424063369
  0
LINE
  8
0
 62
7
  6
CONTINUOUS
 10
359.2246602583
 20
30.5712867188
 11
359.3980977583
 21
30.5390230296
  0
LINE
  8
0
 62
7
  6
CONTINUOUS
 10
359.6871602721
 20
30.6358140973
 11
359.3402852307
 21
30.7003414814
  0
LINE
  8
0
 62
7
  6
CONTINUOUS
 10
362.1152853548
 20
31.3778789641
 11
362.2309102445
 21
31.3456152777
  0
LINE
  8
0
 62
7
  6
CONTINUOUS
 10
364.4277854651
 20
31.3778789641
 11
364.543410024
 21
31.3456152777
  0
LINE
  8
0
 62
7
  6
CONTINUOUS
 10
368.7637229651
 20
30.668077795
 11
368.6480977445
 21
30.7003414814
  0
LINE
  8
0
 62
7
  6
CONTINUOUS
 10
367.2605977445
 20
31.3778789641
 11
367.3762229651
 21
31.3456152777
  0
LINE
  8
0
 62
7
  6
CONTINUOUS
 10
368.4168479651
 20
30.6358140973
 11
368.5902854651
 21
30.5712867188
  0
LINE
  8
0
 62
7
  6
CONTINUOUS
 10
367.6074727445
 20
31.4424063369
 11
367.4340352445
 21
31.5069337098
  0
LINE
  8
0
 62
7
  6
CONTINUOUS
 10
368.8215352445
 20
31.1520331591
 11
368.6480977445
 21
31.216560532
  0
LINE
  8
0
 62
7
  6
CONTINUOUS
 10
369.6309104651
 20
30.8939236226
 11
369.8043479651
 21
30.8293962497
  0
LINE
  8
0
 62
7
  6
CONTINUOUS
 10
370.0355977445
 20
31.4101426505
 11
369.8621602445
 21
31.4746700234
  0
LINE
  8
0
 62
7
  6
CONTINUOUS
 10
368.4168479651
 20
31.1520331591
 11
368.6480977445
 21
31.0552420547
  0
LINE
  8
0
 62
7
  6
CONTINUOUS
 10
370.0355977445
 20
30.8939236226
 11
369.8043479651
 21
30.9907146818
  0
LINE
  8
0
 62
7
  6
CONTINUOUS
 10
368.5902854651
 20
31.2810879048
 11
368.6480977445
 21
31.3456152777
  0
LINE
  8
0
 62
7
  6
CONTINUOUS
 10
359.0512227376
 20
31.4101426505
 11
358.9355977445
 21
31.3456152777
  0
LINE
  8
0
 62
7
  6
CONTINUOUS
 10
359.1668477307
 20
31.2488242184
 11
359.3402852307
 21
31.3456152777
  0
LINE
  8
0
 62
7
  6
CONTINUOUS
 10
361.4793477997
 20
31.4424063369
 11
361.3637227445
 21
31.3778789641
  0
LINE
  8
0
 62
7
  6
CONTINUOUS
 10
361.3637227445
 20
31.2488242184
 11
361.4793477997
 21
31.3133515913
  0
LINE
  8
0
 62
7
  6
CONTINUOUS
 10
360.3809101894
 20
30.6035504109
 11
360.5543476894
 21
30.7003414814
  0
LINE
  8
0
 62
7
  6
CONTINUOUS
 10
359.3980977583
 20
30.5390230296
 11
359.744972717
 21
30.5067593403
  0
LINE
  8
0
 62
7
  6
CONTINUOUS
 10
363.5027853548
 20
30.5390230296
 11
363.7340351343
 21
30.5067593403
  0
LINE
  8
0
 62
7
  6
CONTINUOUS
 10
361.8840352445
 20
31.4101426505
 11
362.1152853548
 21
31.3778789641
  0
LINE
  8
0
 62
7
  6
CONTINUOUS
 10
364.1965353548
 20
31.4101426505
 11
364.4277854651
 21
31.3778789641
  0
LINE
  8
0
 62
7
  6
CONTINUOUS
 10
368.6480977445
 20
31.0552420547
 11
369.6309104651
 21
30.8939236226
  0
LINE
  8
0
 62
7
  6
CONTINUOUS
 10
369.8043479651
 20
30.9907146818
 11
368.8215352445
 21
31.1520331591
  0
LINE
  8
0
 62
7
  6
CONTINUOUS
 10
362.2887228548
 20
31.5069337098
 11
362.1152853548
 21
31.5391973962
  0
LINE
  8
0
 62
7
  6
CONTINUOUS
 10
368.5902854651
 20
30.5712867188
 11
368.7637229651
 21
30.5390230296
  0
LINE
  8
0
 62
7
  6
CONTINUOUS
 10
367.4340352445
 20
31.5069337098
 11
367.2605977445
 21
31.5391973962
  0
LINE
  8
0
 62
7
  6
CONTINUOUS
 10
369.6887227445
 20
31.3778789641
 11
369.8043479651
 21
31.3456152777
  0
LINE
  8
0
 62
7
  6
CONTINUOUS
 10
369.8621602445
 20
30.7648688543
 11
369.8043479651
 21
30.7003414814
  0
LINE
  8
0
 62
7
  6
CONTINUOUS
 10
368.4168479651
 20
31.4424063369
 11
368.3012227445
 21
31.3456152777
  0
LINE
  8
0
 62
7
  6
CONTINUOUS
 10
363.3293478548
 20
31.4746700234
 11
363.2137226343
 21
31.4101426505
  0
LINE
  8
0
 62
7
  6
CONTINUOUS
 10
363.3871601343
 20
31.0875057863
 11
363.2715352445
 21
31.0229783683
  0
LINE
  8
0
 62
7
  6
CONTINUOUS
 10
363.5027853548
 20
30.926187309
 11
363.6184102445
 21
30.9907146818
  0
LINE
  8
0
 62
7
  6
CONTINUOUS
 10
361.0746601894
 20
30.5067593403
 11
361.3637227445
 21
30.5067593403
  0
LINE
  8
0
 62
7
  6
CONTINUOUS
 10
362.4043477445
 20
30.5067593403
 11
362.6934101343
 21
30.5067593403
  0
LINE
  8
0
 62
7
  6
CONTINUOUS
 10
363.7340351343
 20
30.5067593403
 11
364.0809101343
 21
30.5067593403
  0
LINE
  8
0
 62
7
  6
CONTINUOUS
 10
364.716847524
 20
30.5067593403
 11
365.0059102445
 21
30.5067593403
  0
LINE
  8
0
 62
7
  6
CONTINUOUS
 10
365.4684104651
 20
30.5067593403
 11
365.757472524
 21
30.5067593403
  0
LINE
  8
0
 62
7
  6
CONTINUOUS
 10
366.2199727445
 20
30.5067593403
 11
366.5090354651
 21
30.5067593403
  0
LINE
  8
0
 62
7
  6
CONTINUOUS
 10
367.5496604651
 20
30.5067593403
 11
367.838722524
 21
30.5067593403
  0
LINE
  8
0
 62
7
  6
CONTINUOUS
 10
369.1105979651
 20
30.5067593403
 11
369.4574729651
 21
30.5067593403
  0
LINE
  8
0
 62
7
  6
CONTINUOUS
 10
369.4574729651
 20
30.6358140973
 11
369.1105979651
 21
30.6358140973
  0
LINE
  8
0
 62
7
  6
CONTINUOUS
 10
364.0809101343
 20
30.6358140973
 11
363.7340351343
 21
30.6358140973
  0
LINE
  8
0
 62
7
  6
CONTINUOUS
 10
368.5902854651
 20
30.7648688543
 11
368.3012227445
 21
30.7648688543
  0
LINE
  8
0
 62
7
  6
CONTINUOUS
 10
360.6121602997
 20
30.8293962497
 11
360.3230977445
 21
30.8293962497
  0
LINE
  8
0
 62
7
  6
CONTINUOUS
 10
359.6871602721
 20
31.4101426505
 11
360.091847717
 21
31.3778789641
  0
LINE
  8
0
 62
7
  6
CONTINUOUS
 10
360.1496602445
 20
31.5069337098
 11
359.744972717
 21
31.5391973962
  0
LINE
  8
0
 62
7
  6
CONTINUOUS
 10
368.7637229651
 20
30.5390230296
 11
369.1105979651
 21
30.5067593403
  0
LINE
  8
0
 62
7
  6
CONTINUOUS
 10
369.1105979651
 20
30.6358140973
 11
368.7637229651
 21
30.668077795
  0
LINE
  8
0
 62
7
  6
CONTINUOUS
 10
364.543410024
 20
31.5069337098
 11
364.1965353548
 21
31.5391973962
  0
LINE
  8
0
 62
7
  6
CONTINUOUS
 10
369.3418477445
 20
31.4101426505
 11
369.6887227445
 21
31.3778789641
  0
LINE
  8
0
 62
7
  6
CONTINUOUS
 10
369.6887227445
 20
31.5069337098
 11
369.3418477445
 21
31.5391973962
  0
LINE
  8
0
 62
7
  6
CONTINUOUS
 10
367.0293479651
 20
31.4101426505
 11
367.2605977445
 21
31.3778789641
  0
LINE
  8
0
 62
7
  6
CONTINUOUS
 10
369.8621602445
 20
31.4746700234
 11
369.6887227445
 21
31.5069337098
  0
LINE
  8
0
 62
7
  6
CONTINUOUS
 10
370.0355977445
 20
30.6035504109
 11
370.1512223035
 21
30.7003414814
  0
LINE
  8
0
 62
7
  6
CONTINUOUS
 10
364.543410024
 20
30.7971325633
 11
364.369972524
 21
30.7003414814
  0
LINE
  8
0
 62
7
  6
CONTINUOUS
 10
366.624660024
 20
31.4424063369
 11
366.5090354651
 21
31.3778789641
  0
LINE
  8
0
 62
7
  6
CONTINUOUS
 10
366.5090354651
 20
31.2488242184
 11
366.624660024
 21
31.3133515913
  0
LINE
  8
0
 62
7
  6
CONTINUOUS
 10
359.2246602583
 20
31.4746700234
 11
359.0512227376
 21
31.4101426505
  0
LINE
  8
0
 62
7
  6
CONTINUOUS
 10
361.6527851343
 20
31.5069337098
 11
361.4793477997
 21
31.4424063369
  0
LINE
  8
0
 62
7
  6
CONTINUOUS
 10
361.4793477997
 20
31.3133515913
 11
361.6527851343
 21
31.3778789641
  0
LINE
  8
0
 62
7
  6
CONTINUOUS
 10
360.2652852997
 20
30.7326051679
 11
360.091847717
 21
30.668077795
  0
LINE
  8
0
 62
7
  6
CONTINUOUS
 10
369.6887227445
 20
30.668077795
 11
369.4574729651
 21
30.6358140973
  0
LINE
  8
0
 62
7
  6
CONTINUOUS
 10
364.0809101343
 20
30.5067593403
 11
364.369972524
 21
30.5390230296
  0
LINE
  8
0
 62
7
  6
CONTINUOUS
 10
369.4574729651
 20
30.5067593403
 11
369.8043479651
 21
30.5390230296
  0
LINE
  8
0
 62
7
  6
CONTINUOUS
 10
359.744972717
 20
30.5067593403
 11
360.1496602445
 21
30.5390230296
  0
LINE
  8
0
 62
7
  6
CONTINUOUS
 10
360.091847717
 20
30.668077795
 11
359.6871602721
 21
30.6358140973
  0
LINE
  8
0
 62
7
  6
CONTINUOUS
 10
363.9652852445
 20
31.0552420547
 11
364.6012229651
 21
31.0552420547
  0
LINE
  8
0
 62
7
  6
CONTINUOUS
 10
364.6012229651
 20
31.1842968456
 11
363.9652852445
 21
31.1842968456
  0
LINE
  8
0
 62
7
  6
CONTINUOUS
 10
360.3230977445
 20
31.216560532
 11
360.6121602997
 21
31.216560532
  0
LINE
  8
0
 62
7
  6
CONTINUOUS
 10
363.1559103548
 20
31.2810879048
 11
363.4449727445
 21
31.2810879048
  0
LINE
  8
0
 62
7
  6
CONTINUOUS
 10
369.8621602445
 20
31.2810879048
 11
370.1512223035
 21
31.2810879048
  0
LINE
  8
0
 62
7
  6
CONTINUOUS
 10
363.8496603548
 20
31.4101426505
 11
364.1965353548
 21
31.4101426505
  0
LINE
  8
0
 62
7
  6
CONTINUOUS
 10
368.9949727445
 20
31.4101426505
 11
369.3418477445
 21
31.4101426505
  0
LINE
  8
0
 62
7
  6
CONTINUOUS
 10
369.3418477445
 20
31.5391973962
 11
368.9949727445
 21
31.5391973962
  0
LINE
  8
0
 62
7
  6
CONTINUOUS
 10
367.2605977445
 20
31.5391973962
 11
367.0293479651
 21
31.5391973962
  0
LINE
  8
0
 62
7
  6
CONTINUOUS
 10
366.5090354651
 20
31.5391973962
 11
366.2199727445
 21
31.5391973962
  0
LINE
  8
0
 62
7
  6
CONTINUOUS
 10
365.757472524
 20
31.5391973962
 11
365.4684104651
 21
31.5391973962
  0
LINE
  8
0
 62
7
  6
CONTINUOUS
 10
364.1965353548
 20
31.5391973962
 11
363.8496603548
 21
31.5391973962
  0
LINE
  8
0
 62
7
  6
CONTINUOUS
 10
362.1152853548
 20
31.5391973962
 11
361.8840352445
 21
31.5391973962
  0
LINE
  8
0
 62
7
  6
CONTINUOUS
 10
365.4684104651
 20
31.8618343508
 11
365.757472524
 21
31.8618343508
  0
LINE
  8
0
 62
7
  6
CONTINUOUS
 10
365.757472524
 20
32.0231527829
 11
365.4684104651
 21
32.0231527829
  0
LINE
  8
0
 62
7
  6
CONTINUOUS
 10
361.3637227445
 20
32.0231527829
 11
361.0746601894
 21
32.0231527829
  0
LINE
  8
0
 62
7
  6
CONTINUOUS
 10
360.4015045068
 20
32.3100380288
 11
360.8140758554
 21
32.3100380288
  0
LINE
  8
0
 62
7
  6
CONTINUOUS
 10
362.0408487691
 20
32.3100380288
 11
363.4342913921
 21
32.3100380288
  0
LINE
  8
0
 62
7
  6
CONTINUOUS
 10
363.7621602445
 20
32.3100380288
 11
365.1556028675
 21
32.3100380288
  0
LINE
  8
0
 62
7
  6
CONTINUOUS
 10
367.0408487691
 20
32.3100380288
 11
368.4342913921
 21
32.3100380288
  0
LINE
  8
0
 62
7
  6
CONTINUOUS
 10
368.7621602445
 20
32.3100380288
 11
370.1556028675
 21
32.3100380288
  0
LINE
  8
0
 62
7
  6
CONTINUOUS
 10
366.798097524
 20
31.5069337098
 11
366.624660024
 21
31.4424063369
  0
LINE
  8
0
 62
7
  6
CONTINUOUS
 10
364.369972524
 20
30.5390230296
 11
364.543410024
 21
30.6035504109
  0
LINE
  8
0
 62
7
  6
CONTINUOUS
 10
369.8043479651
 20
30.5390230296
 11
370.0355977445
 21
30.6035504109
  0
LINE
  8
0
 62
7
  6
CONTINUOUS
 10
369.8043479651
 20
30.7003414814
 11
369.6887227445
 21
30.668077795
  0
LINE
  8
0
 62
7
  6
CONTINUOUS
 10
368.7637229651
 20
31.3778789641
 11
368.9949727445
 21
31.4101426505
  0
LINE
  8
0
 62
7
  6
CONTINUOUS
 10
366.798097524
 20
31.3778789641
 11
367.0293479651
 21
31.4101426505
  0
LINE
  8
0
 62
7
  6
CONTINUOUS
 10
363.7340351343
 20
31.0229783683
 11
363.9652852445
 21
31.0552420547
  0
LINE
  8
0
 62
7
  6
CONTINUOUS
 10
367.0293479651
 20
31.5391973962
 11
366.798097524
 21
31.5069337098
  0
LINE
  8
0
 62
7
  6
CONTINUOUS
 10
363.6184102445
 20
31.3778789641
 11
363.8496603548
 21
31.4101426505
  0
LINE
  8
0
 62
7
  6
CONTINUOUS
 10
368.9949727445
 20
31.5391973962
 11
368.6480977445
 21
31.5069337098
  0
LINE
  8
0
 62
7
  6
CONTINUOUS
 10
363.9652852445
 20
31.1842968456
 11
363.6184102445
 21
31.1520331591
  0
LINE
  8
0
 62
7
  6
CONTINUOUS
 10
359.744972717
 20
31.5391973962
 11
359.3980977583
 21
31.5069337098
  0
LINE
  8
0
 62
7
  6
CONTINUOUS
 10
363.8496603548
 20
31.5391973962
 11
363.4449727445
 21
31.5069337098
  0
LINE
  8
0
 62
7
  6
CONTINUOUS
 10
361.221176638
 20
33.4575790124
 11
360.565438933
 21
33.4575790124
  0
LINE
  8
0
 62
7
  6
CONTINUOUS
 10
366.624660024
 20
31.3133515913
 11
366.798097524
 21
31.3778789641
  0
LINE
  8
0
 62
7
  6
CONTINUOUS
 10
368.6480977445
 20
31.3456152777
 11
368.7637229651
 21
31.3778789641
  0
LINE
  8
0
 62
7
  6
CONTINUOUS
 10
368.6480977445
 20
31.5069337098
 11
368.4168479651
 21
31.4424063369
  0
LINE
  8
0
 62
7
  6
CONTINUOUS
 10
364.369972524
 20
30.7003414814
 11
364.0809101343
 21
30.6358140973
  0
LINE
  8
0
 62
7
  6
CONTINUOUS
 10
361.6527851343
 20
31.3778789641
 11
361.8840352445
 21
31.4101426505
  0
LINE
  8
0
 62
7
  6
CONTINUOUS
 10
361.8840352445
 20
31.5391973962
 11
361.6527851343
 21
31.5069337098
  0
LINE
  8
0
 62
7
  6
CONTINUOUS
 10
359.4559102445
 20
31.3778789641
 11
359.6871602721
 21
31.4101426505
  0
LINE
  8
0
 62
7
  6
CONTINUOUS
 10
365.9752749986
 20
34.9329888485
 11
366.6310127035
 21
34.9329888485
  0
LINE
  8
0
 62
7
  6
CONTINUOUS
 10
363.6184102445
 20
30.9907146818
 11
363.7340351343
 21
31.0229783683
  0
LINE
  8
0
 62
7
  6
CONTINUOUS
 10
363.6184102445
 20
31.1520331591
 11
363.3871601343
 21
31.0875057863
  0
LINE
  8
0
 62
7
  6
CONTINUOUS
 10
363.5027853548
 20
31.3456152777
 11
363.6184102445
 21
31.3778789641
  0
LINE
  8
0
 62
7
  6
CONTINUOUS
 10
360.1496602445
 20
30.5390230296
 11
360.3809101894
 21
30.6035504109
  0
LINE
  8
0
 62
7
  6
CONTINUOUS
 10
363.4449727445
 20
31.5069337098
 11
363.3293478548
 21
31.4746700234
  0
LINE
  8
0
 62
7
  6
CONTINUOUS
 10
359.3980977583
 20
31.5069337098
 11
359.2246602583
 21
31.4746700234
  0
LINE
  8
0
 62
7
  6
CONTINUOUS
 10
370.1556028675
 20
36.0805298321
 11
368.7621602445
 21
36.0805298321
  0
LINE
  8
0
 62
7
  6
CONTINUOUS
 10
366.7949471298
 20
36.0805298321
 11
366.3823757812
 21
36.0805298321
  0
LINE
  8
0
 62
7
  6
CONTINUOUS
 10
365.1556028675
 20
36.0805298321
 11
363.7621602445
 21
36.0805298321
  0
LINE
  8
0
 62
7
  6
CONTINUOUS
 10
363.4342913921
 20
36.0805298321
 11
362.0408487691
 21
36.0805298321
  0
LINE
  8
0
 62
7
  6
CONTINUOUS
 10
360.1556028675
 20
36.0805298321
 11
358.7621602445
 21
36.0805298321
  0
LINE
  8
0
 62
7
  6
CONTINUOUS
 10
359.3402852307
 20
31.3456152777
 11
359.4559102445
 21
31.3778789641
  0
CIRCLE
  8
0
 62
7
  6
CONTINUOUS
 10
369.458881556
 20
38.4165954059
 40
2.0901639344
  0
ARC
  8
0
 62
7
  6
CONTINUOUS
 10
360.4015045068
 20
33.9493822911
 40
1.6393442623
 50
180.0
 51
270.0
  0
ARC
  8
0
 62
7
  6
CONTINUOUS
 10
366.7949471298
 20
34.4411855698
 40
1.6393442623
 50
0.0
 51
90.0
  0
ARC
  8
0
 62
7
  6
CONTINUOUS
 10
360.8140758554
 20
33.7854478649
 40
1.4754098361
 50
270.0
 51
326.2510114041
  0
ARC
  8
0
 62
7
  6
CONTINUOUS
 10
366.3823757812
 20
34.6051199961
 40
1.4754098361
 50
90.0
 51
146.2510114041
  0
ARC
  8
0
 62
7
  6
CONTINUOUS
 10
361.221176638
 20
34.2772511436
 40
0.8196721311
 50
270.0
 51
360.0
  0
ARC
  8
0
 62
7
  6
CONTINUOUS
 10
365.9752749986
 20
34.1133167174
 40
0.8196721311
 50
90.0
 51
180.0
  0
ARC
  8
0
 62
7
  6
CONTINUOUS
 10
360.565438933
 20
33.867415078
 40
0.4098360656
 50
180.0
 51
270.0
  0
ARC
  8
0
 62
7
  6
CONTINUOUS
 10
366.6310127035
 20
34.5231527829
 40
0.4098360656
 50
0.0
 51
90.0
  0
SOLID
  8
0
 62
7
  6
CONTINUOUS
 10
365.4684104651
 20
31.8618347111
 11
365.4684104651
 21
32.0231531947
 12
365.757472524
 22
31.8618347111
 13
365.757472524
 23
32.0231531947
  0
SOLID
  8
0
 62
7
  6
CONTINUOUS
 10
359.744972717
 20
31.5391977439
 11
360.1496602445
 21
31.5069333244
 12
359.3980977583
 22
31.5069333244
 13
359.3980977583
 23
31.5069333244
  0
SOLID
  8
0
 62
7
  6
CONTINUOUS
 10
359.2246602583
 20
31.4746706537
 11
359.3980977583
 21
31.5069333244
 12
360.1496602445
 22
31.5069333244
 13
360.1496602445
 23
31.5069333244
  0
SOLID
  8
0
 62
7
  6
CONTINUOUS
 10
360.1496602445
 20
31.5069333244
 11
360.3809101894
 21
31.4424063504
 12
359.2246602583
 22
31.4746706537
 13
359.2246602583
 23
31.4746706537
  0
SOLID
  8
0
 62
7
  6
CONTINUOUS
 10
359.0512227376
 20
31.4101419116
 11
359.2246602583
 21
31.4746706537
 12
360.3809101894
 22
31.4424063504
 13
360.3809101894
 23
31.4424063504
  0
SOLID
  8
0
 62
7
  6
CONTINUOUS
 10
359.0512227376
 20
31.4101419116
 11
360.3809101894
 21
31.4424063504
 12
359.6871602721
 22
31.4101419116
 13
359.6871602721
 23
31.4101419116
  0
SOLID
  8
0
 62
7
  6
CONTINUOUS
 10
359.6871602721
 20
31.4101419116
 11
360.3809101894
 21
31.4424063504
 12
360.091847717
 22
31.3778792603
 13
360.091847717
 23
31.3778792603
  0
SOLID
  8
0
 62
7
  6
CONTINUOUS
 10
360.3809101894
 20
31.4424063504
 11
360.5543476894
 21
31.345614957
 12
360.091847717
 22
31.3778792603
 13
360.091847717
 23
31.3778792603
  0
SOLID
  8
0
 62
7
  6
CONTINUOUS
 10
360.2652852997
 20
31.3133521701
 11
360.091847717
 21
31.3778792603
 12
360.5543476894
 22
31.345614957
 13
360.5543476894
 23
31.345614957
  0
SOLID
  8
0
 62
7
  6
CONTINUOUS
 10
360.2652852997
 20
31.3133521701
 11
360.5543476894
 21
31.345614957
 12
360.3230977445
 22
31.2165606992
 13
360.3230977445
 23
31.2165606992
  0
SOLID
  8
0
 62
7
  6
CONTINUOUS
 10
360.5543476894
 20
31.345614957
 11
360.6121602997
 21
31.2165606992
 12
360.3230977445
 22
31.2165606992
 13
360.3230977445
 23
31.2165606992
  0
SOLID
  8
0
 62
7
  6
CONTINUOUS
 10
361.6527851343
 20
31.5069329918
 11
361.8840352445
 21
31.5391972951
 12
362.1152853548
 22
31.5391972951
 13
362.1152853548
 23
31.5391972951
  0
SOLID
  8
0
 62
7
  6
CONTINUOUS
 10
362.1152853548
 20
31.5391972951
 11
362.2887228548
 21
31.5069329918
 12
361.6527851343
 22
31.5069329918
 13
361.6527851343
 23
31.5069329918
  0
SOLID
  8
0
 62
7
  6
CONTINUOUS
 10
361.4793477997
 20
31.4424059016
 11
361.6527851343
 21
31.5069329918
 12
362.2887228548
 22
31.5069329918
 13
362.2887228548
 23
31.5069329918
  0
SOLID
  8
0
 62
7
  6
CONTINUOUS
 10
362.2887228548
 20
31.5069329918
 11
362.4621603548
 21
31.4424059016
 12
361.4793477997
 22
31.4424059016
 13
361.4793477997
 23
31.4424059016
  0
SOLID
  8
0
 62
7
  6
CONTINUOUS
 10
362.4621603548
 20
31.4424059016
 11
361.8840352445
 21
31.4101420472
 12
361.4793477997
 22
31.4424059016
 13
361.4793477997
 23
31.4424059016
  0
SOLID
  8
0
 62
7
  6
CONTINUOUS
 10
361.3637227445
 20
31.3778788115
 11
361.4793477997
 21
31.4424059016
 12
361.8840352445
 22
31.4101420472
 13
361.8840352445
 23
31.4101420472
  0
SOLID
  8
0
 62
7
  6
CONTINUOUS
 10
361.8840352445
 20
31.4101420472
 11
361.6527851343
 21
31.3778788115
 12
361.3637227445
 22
31.3778788115
 13
361.3637227445
 23
31.3778788115
  0
SOLID
  8
0
 62
7
  6
CONTINUOUS
 10
361.8840352445
 20
31.4101420472
 11
362.4621603548
 21
31.4424059016
 12
362.1152853548
 22
31.3778788115
 13
362.1152853548
 23
31.3778788115
  0
SOLID
  8
0
 62
7
  6
CONTINUOUS
 10
362.4621603548
 20
31.4424059016
 11
362.5777852445
 21
31.3778788115
 12
362.1152853548
 22
31.3778788115
 13
362.1152853548
 23
31.3778788115
  0
SOLID
  8
0
 62
7
  6
CONTINUOUS
 10
362.2309102445
 20
31.345614957
 11
362.1152853548
 21
31.3778788115
 12
362.5777852445
 22
31.3778788115
 13
362.5777852445
 23
31.3778788115
  0
SOLID
  8
0
 62
7
  6
CONTINUOUS
 10
362.5777852445
 20
31.3778788115
 11
362.6355978548
 21
31.3133517213
 12
362.2309102445
 22
31.345614957
 13
362.2309102445
 23
31.345614957
  0
SOLID
  8
0
 62
7
  6
CONTINUOUS
 10
362.3465351343
 20
31.2810878668
 11
362.2309102445
 21
31.345614957
 12
362.6355978548
 22
31.3133517213
 13
362.6355978548
 23
31.3133517213
  0
SOLID
  8
0
 62
7
  6
CONTINUOUS
 10
362.3465351343
 20
31.2810878668
 11
362.6355978548
 21
31.3133517213
 12
362.4043477445
 22
31.1520332377
 13
362.4043477445
 23
31.1520332377
  0
SOLID
  8
0
 62
7
  6
CONTINUOUS
 10
362.6355978548
 20
31.3133517213
 11
362.6934101343
 21
31.1520332377
 12
362.4043477445
 22
31.1520332377
 13
362.4043477445
 23
31.1520332377
  0
SOLID
  8
0
 62
7
  6
CONTINUOUS
 10
361.6527851343
 20
31.3778788115
 11
361.4793477997
 21
31.3133517213
 12
361.3637227445
 22
31.3778788115
 13
361.3637227445
 23
31.3778788115
  0
SOLID
  8
0
 62
7
  6
CONTINUOUS
 10
361.4793477997
 20
31.3133517213
 11
361.3637227445
 21
31.2488235635
 12
361.3637227445
 22
31.3778788115
 13
361.3637227445
 23
31.3778788115
  0
SOLID
  8
0
 62
7
  6
CONTINUOUS
 10
361.3637227445
 20
31.2488235635
 11
361.0746601894
 21
30.5067593033
 12
361.3637227445
 22
31.3778788115
 13
361.3637227445
 23
31.3778788115
  0
SOLID
  8
0
 62
7
  6
CONTINUOUS
 10
361.3637227445
 20
31.3778788115
 11
361.0746601894
 21
30.5067593033
 12
361.3637227445
 22
32.0231527459
 13
361.3637227445
 23
32.0231527459
  0
SOLID
  8
0
 62
7
  6
CONTINUOUS
 10
361.0746601894
 20
30.5067593033
 11
361.0746601894
 21
32.0231527459
 12
361.3637227445
 22
32.0231527459
 13
361.3637227445
 23
32.0231527459
  0
SOLID
  8
0
 62
7
  6
CONTINUOUS
 10
361.3637227445
 20
31.2488235635
 11
361.3637227445
 21
30.5067593033
 12
361.0746601894
 22
30.5067593033
 13
361.0746601894
 23
30.5067593033
  0
SOLID
  8
0
 62
7
  6
CONTINUOUS
 10
362.4043477445
 20
30.5067593033
 11
362.4043477445
 21
31.1520332377
 12
362.6934101343
 22
31.1520332377
 13
362.6934101343
 23
31.1520332377
  0
SOLID
  8
0
 62
7
  6
CONTINUOUS
 10
362.6934101343
 20
31.1520332377
 11
362.6934101343
 21
30.5067593033
 12
362.4043477445
 22
30.5067593033
 13
362.4043477445
 23
30.5067593033
  0
SOLID
  8
0
 62
7
  6
CONTINUOUS
 10
363.4449727445
 20
31.506933758
 11
363.8496603548
 21
31.5391977507
 12
364.1965353548
 22
31.5391977507
 13
364.1965353548
 23
31.5391977507
  0
SOLID
  8
0
 62
7
  6
CONTINUOUS
 10
364.1965353548
 20
31.5391977507
 11
364.543410024
 21
31.506933758
 12
363.4449727445
 22
31.506933758
 13
363.4449727445
 23
31.506933758
  0
SOLID
  8
0
 62
7
  6
CONTINUOUS
 10
363.3293478548
 20
31.4746706537
 11
363.4449727445
 21
31.506933758
 12
364.543410024
 22
31.506933758
 13
364.543410024
 23
31.506933758
  0
SOLID
  8
0
 62
7
  6
CONTINUOUS
 10
364.543410024
 20
31.506933758
 11
364.716847524
 21
31.4424063504
 12
363.3293478548
 22
31.4746706537
 13
363.3293478548
 23
31.4746706537
  0
SOLID
  8
0
 62
7
  6
CONTINUOUS
 10
363.2137226343
 20
31.4101417797
 11
363.3293478548
 21
31.4746706537
 12
364.716847524
 22
31.4424063504
 13
364.716847524
 23
31.4424063504
  0
SOLID
  8
0
 62
7
  6
CONTINUOUS
 10
363.2137226343
 20
31.4101417797
 11
364.716847524
 21
31.4424063504
 12
363.8496603548
 22
31.4101417797
 13
363.8496603548
 23
31.4101417797
  0
SOLID
  8
0
 62
7
  6
CONTINUOUS
 10
363.8496603548
 20
31.4101417797
 11
364.716847524
 21
31.4424063504
 12
364.1965353548
 22
31.4101417797
 13
364.1965353548
 23
31.4101417797
  0
SOLID
  8
0
 62
7
  6
CONTINUOUS
 10
364.1965353548
 20
31.4101417797
 11
364.716847524
 21
31.4424063504
 12
364.4277854651
 22
31.3778793357
 13
364.4277854651
 23
31.3778793357
  0
SOLID
  8
0
 62
7
  6
CONTINUOUS
 10
364.716847524
 20
31.4424063504
 11
364.8324727445
 21
31.3778793357
 12
364.4277854651
 22
31.3778793357
 13
364.4277854651
 23
31.3778793357
  0
SOLID
  8
0
 62
7
  6
CONTINUOUS
 10
363.1559103548
 20
31.3456153429
 11
363.2137226343
 21
31.4101417797
 12
363.8496603548
 22
31.4101417797
 13
363.8496603548
 23
31.4101417797
  0
SOLID
  8
0
 62
7
  6
CONTINUOUS
 10
364.543410024
 20
31.3456153429
 11
364.4277854651
 21
31.3778793357
 12
364.8324727445
 22
31.3778793357
 13
364.8324727445
 23
31.3778793357
  0
SOLID
  8
0
 62
7
  6
CONTINUOUS
 10
364.543410024
 20
31.3456153429
 11
364.8324727445
 21
31.3778793357
 12
364.6012229651
 22
31.2810881318
 13
364.6012229651
 23
31.2810881318
  0
SOLID
  8
0
 62
7
  6
CONTINUOUS
 10
364.8324727445
 20
31.3778793357
 11
364.890285024
 21
31.2810881318
 12
364.6012229651
 22
31.2810881318
 13
364.6012229651
 23
31.2810881318
  0
SOLID
  8
0
 62
7
  6
CONTINUOUS
 10
364.6012229651
 20
31.1842964734
 11
364.6012229651
 21
31.2810881318
 12
364.890285024
 22
31.2810881318
 13
364.890285024
 23
31.2810881318
  0
SOLID
  8
0
 62
7
  6
CONTINUOUS
 10
364.6012229651
 20
31.1842964734
 11
364.890285024
 21
31.2810881318
 12
364.6012229651
 22
31.0552422931
 13
364.6012229651
 23
31.0552422931
  0
SOLID
  8
0
 62
7
  6
CONTINUOUS
 10
364.6012229651
 20
31.0552422931
 11
364.890285024
 21
31.2810881318
 12
364.6012229651
 22
30.8616599362
 13
364.6012229651
 23
30.8616599362
  0
SOLID
  8
0
 62
7
  6
CONTINUOUS
 10
364.890285024
 20
31.2810881318
 11
364.890285024
 21
30.7648681127
 12
364.6012229651
 22
30.8616599362
 13
364.6012229651
 23
30.8616599362
  0
SOLID
  8
0
 62
7
  6
CONTINUOUS
 10
366.798097524
 20
31.5069339419
 11
367.0293479651
 21
31.5391976292
 12
367.2605977445
 22
31.5391976292
 13
367.2605977445
 23
31.5391976292
  0
SOLID
  8
0
 62
7
  6
CONTINUOUS
 10
367.2605977445
 20
31.5391976292
 11
367.4340352445
 21
31.5069339419
 12
366.798097524
 22
31.5069339419
 13
366.798097524
 23
31.5069339419
  0
SOLID
  8
0
 62
7
  6
CONTINUOUS
 10
366.624660024
 20
31.4424065674
 11
366.798097524
 21
31.5069339419
 12
367.4340352445
 22
31.5069339419
 13
367.4340352445
 23
31.5069339419
  0
SOLID
  8
0
 62
7
  6
CONTINUOUS
 10
367.4340352445
 20
31.5069339419
 11
367.6074727445
 21
31.4424065674
 12
366.624660024
 22
31.4424065674
 13
366.624660024
 23
31.4424065674
  0
SOLID
  8
0
 62
7
  6
CONTINUOUS
 10
367.6074727445
 20
31.4424065674
 11
367.0293479651
 21
31.4101420472
 12
366.624660024
 22
31.4424065674
 13
366.624660024
 23
31.4424065674
  0
SOLID
  8
0
 62
7
  6
CONTINUOUS
 10
366.5090354651
 20
31.377879193
 11
366.624660024
 21
31.4424065674
 12
367.0293479651
 22
31.4101420472
 13
367.0293479651
 23
31.4101420472
  0
SOLID
  8
0
 62
7
  6
CONTINUOUS
 10
367.0293479651
 20
31.4101420472
 11
366.798097524
 21
31.377879193
 12
366.5090354651
 22
31.377879193
 13
366.5090354651
 23
31.377879193
  0
SOLID
  8
0
 62
7
  6
CONTINUOUS
 10
367.0293479651
 20
31.4101420472
 11
367.6074727445
 21
31.4424065674
 12
367.2605977445
 22
31.377879193
 13
367.2605977445
 23
31.377879193
  0
SOLID
  8
0
 62
7
  6
CONTINUOUS
 10
367.6074727445
 20
31.4424065674
 11
367.7230979651
 21
31.377879193
 12
367.2605977445
 22
31.377879193
 13
367.2605977445
 23
31.377879193
  0
SOLID
  8
0
 62
7
  6
CONTINUOUS
 10
367.3762229651
 20
31.345614957
 11
367.2605977445
 21
31.377879193
 12
367.7230979651
 22
31.377879193
 13
367.7230979651
 23
31.377879193
  0
SOLID
  8
0
 62
7
  6
CONTINUOUS
 10
367.3762229651
 20
31.345614957
 11
367.7230979651
 21
31.377879193
 12
367.491847524
 22
31.2810881312
 13
367.491847524
 23
31.2810881312
  0
SOLID
  8
0
 62
7
  6
CONTINUOUS
 10
367.7230979651
 20
31.377879193
 11
367.7809102445
 21
31.2810881312
 12
367.491847524
 22
31.2810881312
 13
367.491847524
 23
31.2810881312
  0
SOLID
  8
0
 62
7
  6
CONTINUOUS
 10
367.5496604651
 20
31.119769695
 11
367.491847524
 21
31.2810881312
 12
367.7809102445
 22
31.2810881312
 13
367.7809102445
 23
31.2810881312
  0
SOLID
  8
0
 62
7
  6
CONTINUOUS
 10
367.7809102445
 20
31.2810881312
 11
367.838722524
 21
31.119769695
 12
367.5496604651
 22
31.119769695
 13
367.5496604651
 23
31.119769695
  0
SOLID
  8
0
 62
7
  6
CONTINUOUS
 10
366.798097524
 20
31.377879193
 11
366.624660024
 21
31.3133521701
 12
366.5090354651
 22
31.377879193
 13
366.5090354651
 23
31.377879193
  0
SOLID
  8
0
 62
7
  6
CONTINUOUS
 10
366.624660024
 20
31.3133521701
 11
366.5090354651
 21
31.2488235635
 12
366.5090354651
 22
31.377879193
 13
366.5090354651
 23
31.377879193
  0
SOLID
  8
0
 62
7
  6
CONTINUOUS
 10
366.5090354651
 20
31.2488235635
 11
366.2199727445
 21
30.5067596374
 12
366.5090354651
 22
31.377879193
 13
366.5090354651
 23
31.377879193
  0
SOLID
  8
0
 62
7
  6
CONTINUOUS
 10
366.5090354651
 20
31.377879193
 11
366.2199727445
 21
30.5067596374
 12
366.5090354651
 22
31.5391976292
 13
366.5090354651
 23
31.5391976292
  0
SOLID
  8
0
 62
7
  6
CONTINUOUS
 10
366.2199727445
 20
30.5067596374
 11
366.2199727445
 21
31.5391976292
 12
366.5090354651
 22
31.5391976292
 13
366.5090354651
 23
31.5391976292
  0
SOLID
  8
0
 62
7
  6
CONTINUOUS
 10
366.5090354651
 20
31.2488235635
 11
366.5090354651
 21
30.5067596374
 12
366.2199727445
 22
30.5067596374
 13
366.2199727445
 23
30.5067596374
  0
SOLID
  8
0
 62
7
  6
CONTINUOUS
 10
367.5496604651
 20
30.5067596374
 11
367.5496604651
 21
31.119769695
 12
367.838722524
 22
31.119769695
 13
367.838722524
 23
31.119769695
  0
SOLID
  8
0
 62
7
  6
CONTINUOUS
 10
367.838722524
 20
31.119769695
 11
367.838722524
 21
30.5067596374
 12
367.5496604651
 22
30.5067596374
 13
367.5496604651
 23
30.5067596374
  0
SOLID
  8
0
 62
7
  6
CONTINUOUS
 10
368.6480977445
 20
31.5069334157
 11
368.9949727445
 21
31.539197762
 12
369.3418477445
 22
31.539197762
 13
369.3418477445
 23
31.539197762
  0
SOLID
  8
0
 62
7
  6
CONTINUOUS
 10
369.3418477445
 20
31.539197762
 11
369.6887227445
 21
31.5069334157
 12
368.6480977445
 22
31.5069334157
 13
368.6480977445
 23
31.5069334157
  0
SOLID
  8
0
 62
7
  6
CONTINUOUS
 10
368.4168479651
 20
31.4424063504
 11
368.6480977445
 21
31.5069334157
 12
369.6887227445
 22
31.5069334157
 13
369.6887227445
 23
31.5069334157
  0
SOLID
  8
0
 62
7
  6
CONTINUOUS
 10
368.4168479651
 20
31.4424063504
 11
369.6887227445
 21
31.5069334406
 12
369.8621602445
 22
31.4746706537
 13
369.8621602445
 23
31.4746706537
  0
SOLID
  8
0
 62
7
  6
CONTINUOUS
 10
368.4168479651
 20
31.4424063504
 11
369.8621602445
 21
31.4746706537
 12
368.9949727445
 22
31.4101421267
 13
368.9949727445
 23
31.4101421267
  0
SOLID
  8
0
 62
7
  6
CONTINUOUS
 10
368.9949727445
 20
31.4101421267
 11
369.8621602445
 21
31.4746706537
 12
369.3418477445
 22
31.4101421267
 13
369.3418477445
 23
31.4101421267
  0
SOLID
  8
0
 62
7
  6
CONTINUOUS
 10
369.8621602445
 20
31.4746706537
 11
370.0355977445
 21
31.4101421267
 12
369.3418477445
 22
31.4101421267
 13
369.3418477445
 23
31.4101421267
  0
SOLID
  8
0
 62
7
  6
CONTINUOUS
 10
369.6887227445
 20
31.3778792603
 11
369.3418477445
 21
31.4101421267
 12
370.0355977445
 22
31.4101421267
 13
370.0355977445
 23
31.4101421267
  0
SOLID
  8
0
 62
7
  6
CONTINUOUS
 10
368.3012227445
 20
31.3456148845
 11
368.4168479651
 21
31.4424063504
 12
368.9949727445
 22
31.4101421267
 13
368.9949727445
 23
31.4101421267
  0
SOLID
  8
0
 62
7
  6
CONTINUOUS
 10
369.6887227445
 20
31.3778792603
 11
370.0355977445
 21
31.4101421267
 12
369.8043479651
 22
31.3456148845
 13
369.8043479651
 23
31.3456148845
  0
SOLID
  8
0
 62
7
  6
CONTINUOUS
 10
369.8043479651
 20
31.3456148845
 11
370.0355977445
 21
31.4101421267
 12
369.8621602445
 22
31.281087868
 13
369.8621602445
 23
31.281087868
  0
SOLID
  8
0
 62
7
  6
CONTINUOUS
 10
370.0355977445
 20
31.4101421267
 11
370.1512223035
 21
31.281087868
 12
369.8621602445
 22
31.281087868
 13
369.8621602445
 23
31.281087868
  0
SOLID
  8
0
 62
7
  6
CONTINUOUS
 10
359.4559102445
 20
31.3778792603
 11
358.9355977445
 21
31.3456148963
 12
359.6871602721
 22
31.4101421155
 13
359.6871602721
 23
31.4101421155
  0
SOLID
  8
0
 62
7
  6
CONTINUOUS
 10
358.9355977445
 20
31.3456148963
 11
359.0512227376
 21
31.4101421155
 12
359.6871602721
 22
31.4101421155
 13
359.6871602721
 23
31.4101421155
  0
SOLID
  8
0
 62
7
  6
CONTINUOUS
 10
359.4559102445
 20
31.3778792603
 11
359.3402852307
 21
31.3456148963
 12
358.9355977445
 22
31.3456148963
 13
358.9355977445
 23
31.3456148963
  0
SOLID
  8
0
 62
7
  6
CONTINUOUS
 10
358.8199727462
 20
31.2165607767
 11
358.9355977445
 21
31.3456148963
 12
359.3402852307
 22
31.3456148963
 13
359.3402852307
 23
31.3456148963
  0
SOLID
  8
0
 62
7
  6
CONTINUOUS
 10
363.1559103548
 20
31.3456149608
 11
363.8496603548
 21
31.4101420472
 12
363.6184102445
 22
31.3778792603
 13
363.6184102445
 23
31.3778792603
  0
SOLID
  8
0
 62
7
  6
CONTINUOUS
 10
363.6184102445
 20
31.3778792603
 11
363.5027853548
 21
31.3456149608
 12
363.1559103548
 22
31.3456149608
 13
363.1559103548
 23
31.3456149608
  0
SOLID
  8
0
 62
7
  6
CONTINUOUS
 10
363.1559103548
 20
31.2810878707
 11
363.1559103548
 21
31.3456149608
 12
363.5027853548
 22
31.3456149608
 13
363.5027853548
 23
31.3456149608
  0
SOLID
  8
0
 62
7
  6
CONTINUOUS
 10
363.5027853548
 20
31.3456149608
 11
363.4449727445
 21
31.2810878707
 12
363.1559103548
 22
31.2810878707
 13
363.1559103548
 23
31.2810878707
  0
SOLID
  8
0
 62
7
  6
CONTINUOUS
 10
368.3012227445
 20
31.3456149608
 11
368.9949727445
 21
31.4101420472
 12
368.7637229651
 22
31.3778792603
 13
368.7637229651
 23
31.3778792603
  0
SOLID
  8
0
 62
7
  6
CONTINUOUS
 10
368.7637229651
 20
31.3778792603
 11
368.6480977445
 21
31.3456149608
 12
368.3012227445
 22
31.3456149608
 13
368.3012227445
 23
31.3456149608
  0
SOLID
  8
0
 62
7
  6
CONTINUOUS
 10
368.3012227445
 20
31.2810878707
 11
368.3012227445
 21
31.3456149608
 12
368.6480977445
 22
31.3456149608
 13
368.6480977445
 23
31.3456149608
  0
SOLID
  8
0
 62
7
  6
CONTINUOUS
 10
368.6480977445
 20
31.3456149608
 11
368.5902854651
 21
31.2810878707
 12
368.3012227445
 22
31.2810878707
 13
368.3012227445
 23
31.2810878707
  0
SOLID
  8
0
 62
7
  6
CONTINUOUS
 10
368.4168479651
 20
31.1520336865
 11
368.3012227445
 21
31.2810878707
 12
368.5902854651
 22
31.2810878707
 13
368.5902854651
 23
31.2810878707
  0
SOLID
  8
0
 62
7
  6
CONTINUOUS
 10
358.8199727462
 20
31.2165607767
 11
359.3402852307
 21
31.345614957
 12
359.1668477307
 22
31.2488235635
 13
359.1668477307
 23
31.2488235635
  0
SOLID
  8
0
 62
7
  6
CONTINUOUS
 10
359.1668477307
 20
31.2488235635
 11
359.1090352445
 21
31.1842964734
 12
358.8199727462
 22
31.2165607767
 13
358.8199727462
 23
31.2165607767
  0
SOLID
  8
0
 62
7
  6
CONTINUOUS
 10
358.7621602445
 20
31.0229779898
 11
358.8199727462
 21
31.2165607767
 12
359.1090352445
 22
31.1842964734
 13
359.1090352445
 23
31.1842964734
  0
SOLID
  8
0
 62
7
  6
CONTINUOUS
 10
363.6184102445
 20
31.1520336865
 11
363.9652852445
 21
31.1842964611
 12
364.6012229651
 22
31.1842964611
 13
364.6012229651
 23
31.1842964611
  0
SOLID
  8
0
 62
7
  6
CONTINUOUS
 10
363.6184102445
 20
31.1520336865
 11
364.6012229651
 21
31.1842964611
 12
363.3871601343
 22
31.0875057863
 13
363.3871601343
 23
31.0875057863
  0
SOLID
  8
0
 62
7
  6
CONTINUOUS
 10
363.3871601343
 20
31.0875057863
 11
364.6012229651
 21
31.1842964611
 12
363.9652852445
 22
31.0552422808
 13
363.9652852445
 23
31.0552422808
  0
SOLID
  8
0
 62
7
  6
CONTINUOUS
 10
364.6012229651
 20
31.1842964611
 11
364.6012229651
 21
31.0552422808
 12
363.9652852445
 22
31.0552422808
 13
363.9652852445
 23
31.0552422808
  0
SOLID
  8
0
 62
7
  6
CONTINUOUS
 10
368.4168479651
 20
31.1520338754
 11
368.5902854651
 21
31.2810878668
 12
368.6480977445
 22
31.2165607767
 13
368.6480977445
 23
31.2165607767
  0
SOLID
  8
0
 62
7
  6
CONTINUOUS
 10
368.6480977445
 20
31.2165607767
 11
368.8215352445
 21
31.1520338754
 12
368.4168479651
 22
31.1520338754
 13
368.4168479651
 23
31.1520338754
  0
SOLID
  8
0
 62
7
  6
CONTINUOUS
 10
368.6480977445
 20
31.0552422931
 11
368.4168479651
 21
31.1520338754
 12
368.8215352445
 22
31.1520338754
 13
368.8215352445
 23
31.1520338754
  0
SOLID
  8
0
 62
7
  6
CONTINUOUS
 10
368.8215352445
 20
31.1520338754
 11
369.8043479651
 21
30.9907152029
 12
368.6480977445
 22
31.0552422931
 13
368.6480977445
 23
31.0552422931
  0
SOLID
  8
0
 62
7
  6
CONTINUOUS
 10
369.6309104651
 20
30.8939239876
 11
368.6480977445
 21
31.0552422931
 12
369.8043479651
 22
30.9907152029
 13
369.8043479651
 23
30.9907152029
  0
SOLID
  8
0
 62
7
  6
CONTINUOUS
 10
369.8043479651
 20
30.9907152029
 11
370.0355977445
 21
30.8939239876
 12
369.6309104651
 22
30.8939239876
 13
369.6309104651
 23
30.8939239876
  0
SOLID
  8
0
 62
7
  6
CONTINUOUS
 10
369.8043479651
 20
30.8293967193
 11
369.6309104651
 21
30.8939239876
 12
370.0355977445
 22
30.8939239876
 13
370.0355977445
 23
30.8939239876
  0
SOLID
  8
0
 62
7
  6
CONTINUOUS
 10
369.8043479651
 20
30.8293967193
 11
370.0355977445
 21
30.8939239876
 12
369.8621602445
 22
30.7648682694
 13
369.8621602445
 23
30.7648682694
  0
SOLID
  8
0
 62
7
  6
CONTINUOUS
 10
370.0355977445
 20
30.8939239876
 11
370.1512223035
 21
30.7648682694
 12
369.8621602445
 22
30.7648682694
 13
369.8621602445
 23
30.7648682694
  0
SOLID
  8
0
 62
7
  6
CONTINUOUS
 10
369.8043479651
 20
30.7003411846
 11
369.8621602445
 21
30.7648682694
 12
370.1512223035
 22
30.7648682694
 13
370.1512223035
 23
30.7648682694
  0
SOLID
  8
0
 62
7
  6
CONTINUOUS
 10
370.1512223035
 20
30.7648682694
 11
370.1512223035
 21
30.7003411846
 12
369.8043479651
 22
30.7003411846
 13
369.8043479651
 23
30.7003411846
  0
SOLID
  8
0
 62
7
  6
CONTINUOUS
 10
369.6887227445
 20
30.6680782357
 11
369.8043479651
 21
30.7003411846
 12
370.1512223035
 22
30.7003411846
 13
370.1512223035
 23
30.7003411846
  0
SOLID
  8
0
 62
7
  6
CONTINUOUS
 10
369.6887227445
 20
30.6680782357
 11
370.1512223035
 21
30.7003411846
 12
369.4574729651
 22
30.6358140998
 13
369.4574729651
 23
30.6358140998
  0
SOLID
  8
0
 62
7
  6
CONTINUOUS
 10
370.1512223035
 20
30.7003411846
 11
370.0355977445
 21
30.6035511455
 12
369.4574729651
 22
30.6358140998
 13
369.4574729651
 23
30.6358140998
  0
SOLID
  8
0
 62
7
  6
CONTINUOUS
 10
370.0355977445
 20
30.6035511455
 11
368.5902854651
 21
30.5712868422
 12
369.4574729651
 22
30.6358140998
 13
369.4574729651
 23
30.6358140998
  0
SOLID
  8
0
 62
7
  6
CONTINUOUS
 10
369.4574729651
 20
30.6358140998
 11
368.5902854651
 21
30.5712868422
 12
369.1105979651
 22
30.6358140998
 13
369.1105979651
 23
30.6358140998
  0
SOLID
  8
0
 62
7
  6
CONTINUOUS
 10
368.5902854651
 20
30.5712868422
 11
368.4168479651
 21
30.6358140998
 12
369.1105979651
 22
30.6358140998
 13
369.1105979651
 23
30.6358140998
  0
SOLID
  8
0
 62
7
  6
CONTINUOUS
 10
368.5902854651
 20
30.5712868422
 11
370.0355977445
 21
30.6035511455
 12
368.7637229651
 22
30.5390223111
 13
368.7637229651
 23
30.5390223111
  0
SOLID
  8
0
 62
7
  6
CONTINUOUS
 10
370.0355977445
 20
30.6035511455
 11
369.8043479651
 21
30.5390223111
 12
368.7637229651
 22
30.5390223111
 13
368.7637229651
 23
30.5390223111
  0
SOLID
  8
0
 62
7
  6
CONTINUOUS
 10
369.1105979651
 20
30.5067599302
 11
368.7637229651
 21
30.5390223111
 12
369.8043479651
 22
30.5390223111
 13
369.8043479651
 23
30.5390223111
  0
SOLID
  8
0
 62
7
  6
CONTINUOUS
 10
369.8043479651
 20
30.5390223111
 11
369.4574729651
 21
30.5067599302
 12
369.1105979651
 22
30.5067599302
 13
369.1105979651
 23
30.5067599302
  0
SOLID
  8
0
 62
7
  6
CONTINUOUS
 10
358.7621602445
 20
31.0229779898
 11
359.1090352445
 21
31.1842964734
 12
359.0512227376
 22
31.0552422931
 13
359.0512227376
 23
31.0552422931
  0
SOLID
  8
0
 62
7
  6
CONTINUOUS
 10
359.0512227376
 20
31.0552422931
 11
359.0512227376
 21
30.9584509954
 12
358.7621602445
 22
31.0229779898
 13
358.7621602445
 23
31.0229779898
  0
SOLID
  8
0
 62
7
  6
CONTINUOUS
 10
358.8199727462
 20
30.8293967193
 11
358.7621602445
 21
31.0229779898
 12
359.0512227376
 22
30.9584509954
 13
359.0512227376
 23
30.9584509954
  0
SOLID
  8
0
 62
7
  6
CONTINUOUS
 10
359.0512227376
 20
30.9584509954
 11
359.1668477307
 21
30.797132416
 12
358.8199727462
 22
30.8293967193
 13
358.8199727462
 23
30.8293967193
  0
SOLID
  8
0
 62
7
  6
CONTINUOUS
 10
358.9355977445
 20
30.7003413087
 11
358.8199727462
 21
30.8293967193
 12
359.1668477307
 22
30.797132416
 13
359.1668477307
 23
30.797132416
  0
SOLID
  8
0
 62
7
  6
CONTINUOUS
 10
359.1668477307
 20
30.797132416
 11
359.3402852307
 21
30.7003413087
 12
358.9355977445
 22
30.7003413087
 13
358.9355977445
 23
30.7003413087
  0
SOLID
  8
0
 62
7
  6
CONTINUOUS
 10
359.0512227376
 20
30.6358140759
 11
358.9355977445
 21
30.7003413087
 12
359.3402852307
 22
30.7003413087
 13
359.3402852307
 23
30.7003413087
  0
SOLID
  8
0
 62
7
  6
CONTINUOUS
 10
359.3402852307
 20
30.7003413087
 11
359.6871602721
 21
30.6358140759
 12
359.0512227376
 22
30.6358140759
 13
359.0512227376
 23
30.6358140759
  0
SOLID
  8
0
 62
7
  6
CONTINUOUS
 10
359.2246602583
 20
30.5712868422
 11
359.0512227376
 21
30.6358140759
 12
359.6871602721
 22
30.6358140759
 13
359.6871602721
 23
30.6358140759
  0
SOLID
  8
0
 62
7
  6
CONTINUOUS
 10
363.2715352445
 20
31.0229779808
 11
363.3871601343
 21
31.0875057863
 12
363.9652852445
 22
31.0552422931
 13
363.9652852445
 23
31.0552422931
  0
SOLID
  8
0
 62
7
  6
CONTINUOUS
 10
363.9652852445
 20
31.0552422931
 11
363.7340351343
 21
31.0229779808
 12
363.2715352445
 22
31.0229779808
 13
363.2715352445
 23
31.0229779808
  0
SOLID
  8
0
 62
7
  6
CONTINUOUS
 10
363.1559103548
 20
30.8939238094
 11
363.2715352445
 21
31.0229779808
 12
363.7340351343
 22
31.0229779808
 13
363.7340351343
 23
31.0229779808
  0
SOLID
  8
0
 62
7
  6
CONTINUOUS
 10
363.5027853548
 20
30.926187309
 11
363.1559103548
 21
30.8939238094
 12
363.6184102445
 22
30.9907152029
 13
363.6184102445
 23
30.9907152029
  0
SOLID
  8
0
 62
7
  6
CONTINUOUS
 10
363.1559103548
 20
30.8939238094
 11
363.7340351343
 21
31.0229779898
 12
363.6184102445
 22
30.9907152029
 13
363.6184102445
 23
30.9907152029
  0
SOLID
  8
0
 62
7
  6
CONTINUOUS
 10
363.5027853548
 20
30.926187309
 11
363.4449727445
 21
30.8293967193
 12
363.1559103548
 22
30.8939238094
 13
363.1559103548
 23
30.8939238094
  0
SOLID
  8
0
 62
7
  6
CONTINUOUS
 10
363.1559103548
 20
30.797132416
 11
363.1559103548
 21
30.8939238094
 12
363.4449727445
 22
30.8293967193
 13
363.4449727445
 23
30.8293967193
  0
SOLID
  8
0
 62
7
  6
CONTINUOUS
 10
363.4449727445
 20
30.8293967193
 11
363.4449727445
 21
30.7648681127
 12
363.1559103548
 22
30.797132416
 13
363.1559103548
 23
30.797132416
  0
SOLID
  8
0
 62
7
  6
CONTINUOUS
 10
363.2137226343
 20
30.6680782357
 11
363.1559103548
 21
30.797132416
 12
363.4449727445
 22
30.7648681127
 13
363.4449727445
 23
30.7648681127
  0
SOLID
  8
0
 62
7
  6
CONTINUOUS
 10
364.6012229651
 20
30.8616599362
 11
364.890285024
 21
30.7648681127
 12
364.543410024
 22
30.797132416
 13
364.543410024
 23
30.797132416
  0
SOLID
  8
0
 62
7
  6
CONTINUOUS
 10
364.369972524
 20
30.7003410226
 11
364.543410024
 21
30.797132416
 12
364.890285024
 22
30.7648681127
 13
364.890285024
 23
30.7648681127
  0
SOLID
  8
0
 62
7
  6
CONTINUOUS
 10
364.369972524
 20
30.7003410226
 11
364.890285024
 21
30.7648681127
 12
364.6012229651
 22
30.6680782357
 13
364.6012229651
 23
30.6680782357
  0
SOLID
  8
0
 62
7
  6
CONTINUOUS
 10
364.890285024
 20
30.7648681127
 11
364.9480979651
 21
30.6035511455
 12
364.6012229651
 22
30.6680782357
 13
364.6012229651
 23
30.6680782357
  0
SOLID
  8
0
 62
7
  6
CONTINUOUS
 10
364.6590352445
 20
30.5712868422
 11
364.6012229651
 21
30.6680782357
 12
364.9480979651
 22
30.6035511455
 13
364.9480979651
 23
30.6035511455
  0
SOLID
  8
0
 62
7
  6
CONTINUOUS
 10
364.6590352445
 20
30.5712868422
 11
364.9480979651
 21
30.6035511455
 12
364.716847524
 22
30.5067598731
 13
364.716847524
 23
30.5067598731
  0
SOLID
  8
0
 62
7
  6
CONTINUOUS
 10
364.9480979651
 20
30.6035511455
 11
365.0059102445
 21
30.5067598731
 12
364.716847524
 22
30.5067598731
 13
364.716847524
 23
30.5067598731
  0
SOLID
  8
0
 62
7
  6
CONTINUOUS
 10
360.2652852997
 20
30.7326051679
 11
360.3230977445
 21
30.8293966612
 12
360.6121602997
 22
30.8293966612
 13
360.6121602997
 23
30.8293966612
  0
SOLID
  8
0
 62
7
  6
CONTINUOUS
 10
360.6121602997
 20
30.8293966612
 11
360.5543476894
 21
30.7003410226
 12
360.2652852997
 22
30.7326051679
 13
360.2652852997
 23
30.7326051679
  0
SOLID
  8
0
 62
7
  6
CONTINUOUS
 10
360.091847717
 20
30.6680782357
 11
360.2652852997
 21
30.7326051679
 12
360.5543476894
 22
30.7003410226
 13
360.5543476894
 23
30.7003410226
  0
SOLID
  8
0
 62
7
  6
CONTINUOUS
 10
360.091847717
 20
30.6680782357
 11
360.5543476894
 21
30.7003410226
 12
359.6871602721
 22
30.6358139324
 13
359.6871602721
 23
30.6358139324
  0
SOLID
  8
0
 62
7
  6
CONTINUOUS
 10
360.5543476894
 20
30.7003410226
 11
360.3809101894
 21
30.6035511455
 12
359.6871602721
 22
30.6358139324
 13
359.6871602721
 23
30.6358139324
  0
SOLID
  8
0
 62
7
  6
CONTINUOUS
 10
359.2246602583
 20
30.5712868422
 11
359.6871602721
 21
30.6358139324
 12
360.3809101894
 22
30.6035511455
 13
360.3809101894
 23
30.6035511455
  0
SOLID
  8
0
 62
7
  6
CONTINUOUS
 10
359.2246602583
 20
30.5712868422
 11
360.3809101894
 21
30.6035511455
 12
359.3980977583
 22
30.5390224228
 13
359.3980977583
 23
30.5390224228
  0
SOLID
  8
0
 62
7
  6
CONTINUOUS
 10
360.3809101894
 20
30.6035511455
 11
360.1496602445
 21
30.5390224228
 12
359.3980977583
 22
30.5390224228
 13
359.3980977583
 23
30.5390224228
  0
SOLID
  8
0
 62
7
  6
CONTINUOUS
 10
359.744972717
 20
30.5067597521
 11
359.3980977583
 21
30.5390224228
 12
360.1496602445
 22
30.5390224228
 13
360.1496602445
 23
30.5390224228
  0
SOLID
  8
0
 62
7
  6
CONTINUOUS
 10
363.2137226343
 20
30.6680782357
 11
363.4449727445
 21
30.7648681127
 12
363.5027853548
 22
30.7003410226
 13
363.5027853548
 23
30.7003410226
  0
SOLID
  8
0
 62
7
  6
CONTINUOUS
 10
363.5027853548
 20
30.7003410226
 11
363.7340351343
 21
30.6358139324
 12
363.2137226343
 22
30.6680782357
 13
363.2137226343
 23
30.6680782357
  0
SOLID
  8
0
 62
7
  6
CONTINUOUS
 10
363.3871601343
 20
30.5712868422
 11
363.2137226343
 21
30.6680782357
 12
363.7340351343
 22
30.6358139324
 13
363.7340351343
 23
30.6358139324
  0
SOLID
  8
0
 62
7
  6
CONTINUOUS
 10
364.0809101343
 20
30.6358139363
 11
364.369972524
 21
30.7003410226
 12
364.6012229651
 22
30.6680782357
 13
364.6012229651
 23
30.6680782357
  0
SOLID
  8
0
 62
7
  6
CONTINUOUS
 10
364.6012229651
 20
30.6680782357
 11
364.543410024
 21
30.6035511455
 12
364.0809101343
 22
30.6358139363
 13
364.0809101343
 23
30.6358139363
  0
SOLID
  8
0
 62
7
  6
CONTINUOUS
 10
364.543410024
 20
30.6035511455
 11
363.3871601343
 21
30.5712868422
 12
364.0809101343
 22
30.6358139363
 13
364.0809101343
 23
30.6358139363
  0
SOLID
  8
0
 62
7
  6
CONTINUOUS
 10
363.3871601343
 20
30.5712868422
 11
363.7340351343
 21
30.6358139363
 12
364.0809101343
 22
30.6358139363
 13
364.0809101343
 23
30.6358139363
  0
SOLID
  8
0
 62
7
  6
CONTINUOUS
 10
363.3871601343
 20
30.5712868422
 11
364.543410024
 21
30.6035511455
 12
363.5027853548
 22
30.5390225267
 13
363.5027853548
 23
30.5390225267
  0
SOLID
  8
0
 62
7
  6
CONTINUOUS
 10
364.543410024
 20
30.6035511455
 11
364.369972524
 21
30.5390225267
 12
363.5027853548
 22
30.5390225267
 13
363.5027853548
 23
30.5390225267
  0
SOLID
  8
0
 62
7
  6
CONTINUOUS
 10
363.7340351343
 20
30.5067596914
 11
363.5027853548
 21
30.5390225267
 12
364.369972524
 22
30.5390225267
 13
364.369972524
 23
30.5390225267
  0
SOLID
  8
0
 62
7
  6
CONTINUOUS
 10
364.369972524
 20
30.5390225267
 11
364.0809101343
 21
30.5067596914
 12
363.7340351343
 22
30.5067596914
 13
363.7340351343
 23
30.5067596914
  0
SOLID
  8
0
 62
7
  6
CONTINUOUS
 10
368.7637229651
 20
30.6680782357
 11
368.4168479651
 21
30.6358138717
 12
368.6480977445
 22
30.7003410226
 13
368.6480977445
 23
30.7003410226
  0
SOLID
  8
0
 62
7
  6
CONTINUOUS
 10
368.6480977445
 20
30.7003410226
 11
368.4168479651
 21
30.6358138717
 12
368.5902854651
 22
30.7648680521
 13
368.5902854651
 23
30.7648680521
  0
SOLID
  8
0
 62
7
  6
CONTINUOUS
 10
368.4168479651
 20
30.6358138717
 11
368.3012227445
 21
30.7648680521
 12
368.5902854651
 22
30.7648680521
 13
368.5902854651
 23
30.7648680521
  0
SOLID
  8
0
 62
7
  6
CONTINUOUS
 10
368.7637229651
 20
30.6680782357
 11
369.1105979651
 21
30.6358138717
 12
368.4168479651
 22
30.6358138717
 13
368.4168479651
 23
30.6358138717
  0
SOLID
  8
0
 62
7
  6
CONTINUOUS
 10
365.4684104651
 20
30.5067597521
 11
365.4684104651
 21
31.5391977439
 12
365.757472524
 22
30.5067597521
 13
365.757472524
 23
31.5391977439
  0
ENDBLK
  8
0
  6
BYBLOCK
 62
0
  0
BLOCK
  8
0
 62
2
  6
CONTINUOUS
  2
SYMBOL_0_BL0
 70
64
 10
240.8592468615
 20
19.762288695
  0
TEXT
  8
0
 62
7
  6
CONTINUOUS
 10
227.1239507038
 20
19.1357028027
  7
TEXTSTYLE_3
 40
2.7338706658
  1
Ammeraal Beltech
 41
1.0
 51
15.0
 72
0
  0
TEXT
  8
0
 62
7
  6
CONTINUOUS
 10
237.9247515296
 20
16.8621661299
  7
TEXTSTYLE_4
 40
1.0935482663
  1
Innovation & Service in Belting
 41
1.0
 72
0
  0
LINE
  8
0
 62
7
  6
CONTINUOUS
 10
221.0994100525
 20
19.9022961113
 11
221.8775620458
 21
23.5632134089
  0
LINE
  8
0
 62
7
  6
CONTINUOUS
 10
231.9727303357
 20
27.2266073205
 11
222.3653797889
 21
24.1049898993
  0
LINE
  8
0
 62
7
  6
CONTINUOUS
 10
221.3246933848
 20
19.2089453082
 11
228.8317686459
 21
12.4495443822
  0
LINE
  8
0
 62
7
  6
CONTINUOUS
 10
221.5872277955
 20
20.4440726016
 11
232.3954971607
 21
23.9558922005
  0
LINE
  8
0
 62
7
  6
CONTINUOUS
 10
232.3912920235
 20
13.6061036368
 11
223.9458323548
 21
21.2104296785
  0
LINE
  8
0
 62
7
  6
CONTINUOUS
 10
232.9111147433
 20
26.3816822048
 11
231.9345552061
 21
21.7873308023
  0
LINE
  8
0
 62
7
  6
CONTINUOUS
 10
231.2347532584
 20
18.4950214885
 11
230.5483050469
 21
15.2655365641
  0
LINE
  8
0
 62
7
  6
CONTINUOUS
 10
233.5922108419
 20
13.9963058145
 11
234.5484423775
 21
18.4950214885
  0
LINE
  8
0
 62
7
  6
CONTINUOUS
 10
235.2482443252
 20
21.7873308023
 11
235.6924861276
 21
23.8773241617
  0
LINE
  8
0
 62
7
  6
CONTINUOUS
 10
229.5448697213
 20
12.2979700695
 11
233.1043930989
 21
13.4545293241
  0
LINE
  8
0
 62
7
  6
CONTINUOUS
 10
232.685831411
 20
27.0750330078
 11
235.4672027953
 21
24.5706749648
  0
ARC
  8
0
 62
7
  6
CONTINUOUS
 10
222.5906631212
 20
23.4116390962
 40
0.7290321776
 50
108.0
 51
168.0
  0
ARC
  8
0
 62
7
  6
CONTINUOUS
 10
232.198013668
 20
26.5332565175
 40
0.7290321776
 50
348.0
 51
108.0
  0
ARC
  8
0
 62
7
  6
CONTINUOUS
 10
234.9793850522
 20
24.0288984744
 40
0.7290321776
 50
348.0
 51
48.0
  0
ARC
  8
0
 62
7
  6
CONTINUOUS
 10
229.319586389
 20
12.9913208726
 40
0.7290321776
 50
228.0
 51
288.0
  0
ARC
  8
0
 62
7
  6
CONTINUOUS
 10
221.8125111278
 20
19.7507217986
 40
0.7290321776
 50
108.0
 51
228.0
  0
ARC
  8
0
 62
7
  6
CONTINUOUS
 10
232.8791097665
 20
14.1478801272
 40
0.7290321776
 50
228.0
 51
348.0
  0
ENDBLK
  8
0
  6
BYBLOCK
 62
0
  0
ENDSEC
  0
SECTION
  2
ENTITIES
  0
TEXT
  8
0
 62
5
  6
CONTINUOUS
 10
304.937007874
 20
25.636
  7
TEXTSTYLE_2
 40
2.8
  1
Scale :
 41
0.6
 51
0.000019
 72
0
  0
TEXT
  8
0
 62
5
  6
CONTINUOUS
 10
324.937007874
 20
25.636
  7
TEXTSTYLE_2
 40
2.8
  1
Belt type:
 41
0.6
 51
0.000019
 72
0
  0
INSERT
  8
0
 62
2
  6
CONTINUOUS
  2
SYMBOL_0_BL0
 10
240.8592468615
 20
19.762288695
  0
INSERT
  8
0
 62
2
  6
CONTINUOUS
  2
SYMBOL_5_BL1
 10
382.7840918555
 20
35.5067593403
  0
LINE
  8
0
 62
2
  6
CONTINUOUS
 10
218.937007874
 20
30.0
 11
408.937007874
 21
30.0
  0
LINE
  8
0
 62
2
  6
CONTINUOUS
 10
218.937007874
 20
30.0
 11
218.937007874
 21
10.0
  0
LINE
  8
0
 62
2
  6
CONTINUOUS
 10
218.937007874
 20
10.0
 11
408.937007874
 21
10.0
  0
LINE
  8
0
 62
2
  6
CONTINUOUS
 10
303.937007874
 20
30.0
 11
303.937007874
 21
10.0
  0
LINE
  8
0
 62
2
  6
CONTINUOUS
 10
323.937007874
 20
30.0
 11
323.937007874
 21
10.0
  0
LINE
  8
0
 62
2
  6
CONTINUOUS
 10
408.937007874
 20
30.0
 11
408.937007874
 21
10.0
  0
TEXT
  8
0
 62
5
  6
CONTINUOUS
 10
221.937007874
 20
23.303
  7
TEXTSTYLE_5
 40
1.52
  1
                                                                     Ammeraal Beltech Modular A/S
 41
1.0
 72
0
  0
TEXT
  8
0
 62
5
  6
CONTINUOUS
 10
221.937007874
 20
20.595
  7
TEXTSTYLE_5
 40
1.5
  1
                                                                      Hjulmagervej 21, 7100 Vejle,  DK
 41
1.0
 72
0
  0
TEXT
  8
0
 62
5
  6
CONTINUOUS
 10
221.937007874
 20
17.881
  7
TEXTSTYLE_5
 40
1.495
  1
                                                                      tel: 
 41
1.0
 72
0
  0
TEXT
  8
0
 62
5
  6
CONTINUOUS
 10
266.9239544389
 20
17.881
  7
TEXTSTYLE_5
 40
1.51
  1
+45 75723100     fax: +45 75723348
 41
1.0
 72
0
  0
TEXT
  8
0
 62
5
  6
CONTINUOUS
 10
221.937007874
 20
15.177
  7
TEXTSTYLE_5
 40
1.5
  1
                                                                      admin@unichains.dk  www.unichains.com
 41
1.0
 72
0
  0
TEXT
  8
0
 62
5
  6
CONTINUOUS
 10
308.687007874
 20
13.75
  7
TEXTSTYLE_6
 40
5.0
  1
1:1
 41
0.7
 72
1
 11
313.937007874
 21
13.75
  0
TEXT
  8
0
 62
5
  6
CONTINUOUS
 10
326.937007874
 20
13.75
  7
TEXTSTYLE_7
 40
7.5
  1
Flex One K750 EW
 41
0.53359375
 72
0
  0
LINE
  8
0
 62
7
  6
CONTINUOUS
 10
0.0
 20
0.0
 11
0.0
 21
297.0
  0
LINE
  8
0
 62
7
  6
CONTINUOUS
 10
8.937007874
 20
10.0
 11
8.937007874
 21
287.0
  0
LINE
  8
0
 62
7
  6
CONTINUOUS
 10
0.0
 20
0.0
 11
420.0
 21
0.0
  0
LINE
  8
0
 62
7
  6
CONTINUOUS
 10
408.937007874
 20
10.0
 11
8.937007874
 21
10.0
  0
LINE
  8
0
 62
7
  6
CONTINUOUS
 10
218.937007874
 20
30.0
 11
408.937007874
 21
30.0
  0
LINE
  8
0
 62
7
  6
CONTINUOUS
 10
210.0
 20
297.0
 11
210.0
 21
292.0
  0
LINE
  8
0
 62
7
  6
CONTINUOUS
 10
210.0
 20
0.0
 11
210.0
 21
5.0
  0
LINE
  8
0
 62
7
  6
CONTINUOUS
 10
8.937007874
 20
287.0
 11
408.937007874
 21
287.0
  0
LINE
  8
0
 62
7
  6
CONTINUOUS
 10
0.0
 20
297.0
 11
420.0
 21
297.0
  0
LINE
  8
0
 62
7
  6
CONTINUOUS
 10
408.937007874
 20
287.0
 11
408.937007874
 21
10.0
  0
LINE
  8
0
 62
7
  6
CONTINUOUS
 10
420.0
 20
0.0
 11
420.0
 21
297.0
  0
POLYLINE
  8
13_KOMPONENTER
 62
7
  6
CONTINUOUS
 66
1
 70
0
  0
VERTEX
  8
13_KOMPONENTER
 62
7
  6
CONTINUOUS
 10
56.9949095023
 20
115.9637075774
  0
VERTEX
  8
13_KOMPONENTER
 62
7
  6
CONTINUOUS
 10
56.9883144486
 20
116.0748965186
  0
VERTEX
  8
13_KOMPONENTER
 62
7
  6
CONTINUOUS
 10
56.9710728302
 20
116.2392977984
  0
VERTEX
  8
13_KOMPONENTER
 62
7
  6
CONTINUOUS
 10
56.9510622284
 20
116.4423154392
  0
VERTEX
  8
13_KOMPONENTER
 62
7
  6
CONTINUOUS
 10
56.936437026
 20
116.6637655932
  0
VERTEX
  8
13_KOMPONENTER
 62
7
  6
CONTINUOUS
 10
56.9314170822
 20
116.8845977947
  0
SEQEND
  0
LINE
  8
13_KOMPONENTER
 62
7
  6
CONTINUOUS
 10
53.9949095023
 20
110.3694349971
 11
53.9949095023
 21
106.2856334842
  0
LINE
  8
13_KOMPONENTER
 62
7
  6
CONTINUOUS
 10
53.9949095023
 20
125.2019947404
 11
53.9949095023
 21
129.2856334842
  0
LINE
  8
13_KOMPONENTER
 62
7
  6
CONTINUOUS
 10
56.9314170822
 20
118.6866691737
 11
56.9314170822
 21
116.8845977947
  0
POLYLINE
  8
13_KOMPONENTER
 62
7
  6
CONTINUOUS
 66
1
 70
0
  0
VERTEX
  8
13_KOMPONENTER
 62
7
  6
CONTINUOUS
 10
56.9949095023
 20
138.7856334842
  0
VERTEX
  8
13_KOMPONENTER
 62
7
  6
CONTINUOUS
 10
57.0266617171
 20
139.3713718933
  0
VERTEX
  8
13_KOMPONENTER
 62
7
  6
CONTINUOUS
 10
57.1158752848
 20
139.8909787694
  0
VERTEX
  8
13_KOMPONENTER
 62
7
  6
CONTINUOUS
 10
57.2554153043
 20
140.3543752141
  0
VERTEX
  8
13_KOMPONENTER
 62
7
  6
CONTINUOUS
 10
57.4414224335
 20
140.7716474171
  0
VERTEX
  8
13_KOMPONENTER
 62
7
  6
CONTINUOUS
 10
57.6744591952
 20
141.1529485667
  0
VERTEX
  8
13_KOMPONENTER
 62
7
  6
CONTINUOUS
 10
57.9575273267
 20
141.5043013199
  0
VERTEX
  8
13_KOMPONENTER
 62
7
  6
CONTINUOUS
 10
58.2976649799
 20
141.8307683211
  0
VERTEX
  8
13_KOMPONENTER
 62
7
  6
CONTINUOUS
 10
58.7050405081
 20
142.134708087
  0
VERTEX
  8
13_KOMPONENTER
 62
7
  6
CONTINUOUS
 10
59.1896288315
 20
142.4141906662
  0
VERTEX
  8
13_KOMPONENTER
 62
7
  6
CONTINUOUS
 10
59.7584595916
 20
142.6639946109
  0
VERTEX
  8
13_KOMPONENTER
 62
7
  6
CONTINUOUS
 10
60.4132640174
 20
142.8774159411
  0
VERTEX
  8
13_KOMPONENTER
 62
7
  6
CONTINUOUS
 10
61.1576976451
 20
143.0499736544
  0
VERTEX
  8
13_KOMPONENTER
 62
7
  6
CONTINUOUS
 10
61.9963649977
 20
143.1779074126
  0
VERTEX
  8
13_KOMPONENTER
 62
7
  6
CONTINUOUS
 10
62.9365013578
 20
143.2577638575
  0
VERTEX
  8
13_KOMPONENTER
 62
7
  6
CONTINUOUS
 10
63.9949095023
 20
143.2856334842
  0
SEQEND
  0
LINE
  8
13_KOMPONENTER
 62
7
  6
CONTINUOUS
 10
56.9949095023
 20
115.9636115354
 11
56.9949095023
 21
106.2856334842
  0
LINE
  8
13_KOMPONENTER
 62
7
  6
CONTINUOUS
 10
56.9949095023
 20
119.6076554329
 11
56.9949095023
 21
138.7856334842
  0
POLYLINE
  8
13_KOMPONENTER
 62
7
  6
CONTINUOUS
 66
1
 70
0
  0
VERTEX
  8
13_KOMPONENTER
 62
7
  6
CONTINUOUS
 10
56.9314170822
 20
118.6866691737
  0
VERTEX
  8
13_KOMPONENTER
 62
7
  6
CONTINUOUS
 10
56.9364366039
 20
118.9074920306
  0
VERTEX
  8
13_KOMPONENTER
 62
7
  6
CONTINUOUS
 10
56.9510623721
 20
119.1289532109
  0
VERTEX
  8
13_KOMPONENTER
 62
7
  6
CONTINUOUS
 10
56.9710688094
 20
119.3319319041
  0
VERTEX
  8
13_KOMPONENTER
 62
7
  6
CONTINUOUS
 10
56.9883133931
 20
119.4963590386
  0
VERTEX
  8
13_KOMPONENTER
 62
7
  6
CONTINUOUS
 10
56.9949095023
 20
119.607559391
  0
SEQEND
  0
LINE
  8
13_KOMPONENTER
 62
7
  6
CONTINUOUS
 10
57.5255563554
 20
115.2019561082
 11
57.2123008066
 21
114.0357347544
  0
LINE
  8
13_KOMPONENTER
 62
7
  6
CONTINUOUS
 10
76.9949095023
 20
121.7761376502
 11
76.9949095023
 21
114.0162007989
  0
LINE
  8
13_KOMPONENTER
 62
7
  6
CONTINUOUS
 10
77.9949095023
 20
149.1672271558
 11
77.9949095023
 21
152.7083198034
  0
LINE
  8
13_KOMPONENTER
 62
7
  6
CONTINUOUS
 10
80.9949095023
 20
106.7356334842
 11
80.9949095023
 21
110.0868232264
  0
POLYLINE
  8
13_KOMPONENTER
 62
7
  6
CONTINUOUS
 66
1
 70
0
  0
VERTEX
  8
13_KOMPONENTER
 62
7
  6
CONTINUOUS
 10
79.7785322895
 20
154.9447045208
  0
VERTEX
  8
13_KOMPONENTER
 62
7
  6
CONTINUOUS
 10
80.0370183001
 20
155.2553940196
  0
VERTEX
  8
13_KOMPONENTER
 62
7
  6
CONTINUOUS
 10
80.2957916519
 20
155.5413853396
  0
VERTEX
  8
13_KOMPONENTER
 62
7
  6
CONTINUOUS
 10
80.5441705219
 20
155.7949991239
  0
VERTEX
  8
13_KOMPONENTER
 62
7
  6
CONTINUOUS
 10
80.773016319
 20
156.0123361282
  0
VERTEX
  8
13_KOMPONENTER
 62
7
  6
CONTINUOUS
 10
80.9741346842
 20
156.191470806
  0
SEQEND
  0
POLYLINE
  8
13_KOMPONENTER
 62
7
  6
CONTINUOUS
 66
1
 70
0
  0
VERTEX
  8
13_KOMPONENTER
 62
7
  6
CONTINUOUS
 10
79.7785322895
 20
154.9447045208
  0
VERTEX
  8
13_KOMPONENTER
 62
7
  6
CONTINUOUS
 10
80.1108680766
 20
155.3394273978
  0
VERTEX
  8
13_KOMPONENTER
 62
7
  6
CONTINUOUS
 10
80.439051746
 20
155.6900185522
  0
VERTEX
  8
13_KOMPONENTER
 62
7
  6
CONTINUOUS
 10
80.7484625507
 20
155.9897244048
  0
VERTEX
  8
13_KOMPONENTER
 62
7
  6
CONTINUOUS
 10
81.0256343525
 20
156.2356536771
  0
SEQEND
  0
LINE
  8
13_KOMPONENTER
 62
7
  6
CONTINUOUS
 10
86.9949095023
 20
106.7356518178
 11
86.9949095023
 21
110.7099379024
  0
LINE
  8
13_KOMPONENTER
 62
7
  6
CONTINUOUS
 10
89.9949095023
 20
152.7083203868
 11
89.9949095023
 21
143.4824992662
  0
POLYLINE
  8
13_KOMPONENTER
 62
7
  6
CONTINUOUS
 66
1
 70
0
  0
VERTEX
  8
13_KOMPONENTER
 62
7
  6
CONTINUOUS
 10
80.9741346842
 20
156.191470806
  0
VERTEX
  8
13_KOMPONENTER
 62
7
  6
CONTINUOUS
 10
81.1397563876
 20
156.3312072591
  0
VERTEX
  8
13_KOMPONENTER
 62
7
  6
CONTINUOUS
 10
81.2669854879
 20
156.434025714
  0
VERTEX
  8
13_KOMPONENTER
 62
7
  6
CONTINUOUS
 10
81.3586337671
 20
156.5057461715
  0
VERTEX
  8
13_KOMPONENTER
 62
7
  6
CONTINUOUS
 10
81.41933644
 20
156.5521976938
  0
SEQEND
  0
LINE
  8
13_KOMPONENTER
 62
7
  6
CONTINUOUS
 10
81.0256343525
 20
156.2356536771
 11
81.2680355532
 21
156.4348474552
  0
LINE
  8
13_KOMPONENTER
 62
7
  6
CONTINUOUS
 10
81.41933644
 20
156.5521976938
 11
81.464511179
 21
156.5862332607
  0
LINE
  8
13_KOMPONENTER
 62
7
  6
CONTINUOUS
 10
90.9949095023
 20
110.059831703
 11
90.9949095023
 21
115.5410708376
  0
LINE
  8
13_KOMPONENTER
 62
7
  6
CONTINUOUS
 10
87.8796405501
 20
123.3307715225
 11
87.88817061
 21
123.3586146826
  0
POLYLINE
  8
13_KOMPONENTER
 62
7
  6
CONTINUOUS
 66
1
 70
0
  0
VERTEX
  8
13_KOMPONENTER
 62
7
  6
CONTINUOUS
 10
87.8881706297
 20
123.3586147457
  0
VERTEX
  8
13_KOMPONENTER
 62
7
  6
CONTINUOUS
 10
87.960190582
 20
123.5618651228
  0
VERTEX
  8
13_KOMPONENTER
 62
7
  6
CONTINUOUS
 10
88.057458679
 20
123.7769496053
  0
VERTEX
  8
13_KOMPONENTER
 62
7
  6
CONTINUOUS
 10
88.1778712116
 20
123.9877671636
  0
VERTEX
  8
13_KOMPONENTER
 62
7
  6
CONTINUOUS
 10
88.3210879251
 20
124.1902214137
  0
VERTEX
  8
13_KOMPONENTER
 62
7
  6
CONTINUOUS
 10
88.4541693648
 20
124.3480649764
  0
SEQEND
  0
LINE
  8
13_KOMPONENTER
 62
7
  6
CONTINUOUS
 10
102.9949095023
 20
115.5410708376
 11
102.9949095023
 21
110.059831703
  0
LINE
  8
13_KOMPONENTER
 62
7
  6
CONTINUOUS
 10
103.9949095023
 20
143.4824992662
 11
103.9949095023
 21
152.7083198034
  0
LINE
  8
13_KOMPONENTER
 62
7
  6
CONTINUOUS
 10
106.9949095023
 20
112.4012977635
 11
106.9949095023
 21
106.7356516014
  0
LINE
  8
13_KOMPONENTER
 62
7
  6
CONTINUOUS
 10
88.4541747998
 20
124.3480709884
 11
88.4552433949
 21
124.3492489005
  0
LINE
  8
13_KOMPONENTER
 62
7
  6
CONTINUOUS
 10
105.4183489834
 20
123.267995394
 11
105.3017611548
 21
123.7031070936
  0
LINE
  8
13_KOMPONENTER
 62
7
  6
CONTINUOUS
 10
112.9949095023
 20
106.7356516014
 11
112.9949095023
 21
113.0244302522
  0
LINE
  8
13_KOMPONENTER
 62
7
  6
CONTINUOUS
 10
115.9949095023
 20
152.7083197275
 11
115.9949095023
 21
143.4824992662
  0
LINE
  8
13_KOMPONENTER
 62
7
  6
CONTINUOUS
 10
116.9949095023
 20
110.059831703
 11
116.9949095023
 21
115.5410708376
  0
POLYLINE
  8
13_KOMPONENTER
 62
7
  6
CONTINUOUS
 66
1
 70
0
  0
VERTEX
  8
13_KOMPONENTER
 62
7
  6
CONTINUOUS
 10
116.9949094869
 20
114.7527957904
  0
VERTEX
  8
13_KOMPONENTER
 62
7
  6
CONTINUOUS
 10
116.9832043711
 20
114.6003709752
  0
VERTEX
  8
13_KOMPONENTER
 62
7
  6
CONTINUOUS
 10
116.9484023392
 20
114.4515110107
  0
VERTEX
  8
13_KOMPONENTER
 62
7
  6
CONTINUOUS
 10
116.891316592
 20
114.3096949912
  0
VERTEX
  8
13_KOMPONENTER
 62
7
  6
CONTINUOUS
 10
116.8132812048
 20
114.1782374058
  0
VERTEX
  8
13_KOMPONENTER
 62
7
  6
CONTINUOUS
 10
116.716119941
 20
114.0602106395
  0
VERTEX
  8
13_KOMPONENTER
 62
7
  6
CONTINUOUS
 10
116.6021035717
 20
113.9583731099
  0
VERTEX
  8
13_KOMPONENTER
 62
7
  6
CONTINUOUS
 10
116.4738967305
 20
113.8751048005
  0
VERTEX
  8
13_KOMPONENTER
 62
7
  6
CONTINUOUS
 10
116.3344956749
 20
113.8123517225
  0
VERTEX
  8
13_KOMPONENTER
 62
7
  6
CONTINUOUS
 10
116.1871582708
 20
113.7715804456
  0
VERTEX
  8
13_KOMPONENTER
 62
7
  6
CONTINUOUS
 10
116.083577802
 20
113.75686546
  0
SEQEND
  0
LINE
  8
13_KOMPONENTER
 62
7
  6
CONTINUOUS
 10
114.6880578497
 20
123.7031070936
 11
114.5714700212
 21
123.267995394
  0
POLYLINE
  8
13_KOMPONENTER
 62
7
  6
CONTINUOUS
 66
1
 70
0
  0
VERTEX
  8
13_KOMPONENTER
 62
7
  6
CONTINUOUS
 10
88.2112918999
 20
154.9446969866
  0
VERTEX
  8
13_KOMPONENTER
 62
7
  6
CONTINUOUS
 10
87.9527818779
 20
155.2554144234
  0
VERTEX
  8
13_KOMPONENTER
 62
7
  6
CONTINUOUS
 10
87.6940248892
 20
155.5413869113
  0
VERTEX
  8
13_KOMPONENTER
 62
7
  6
CONTINUOUS
 10
87.4456356944
 20
155.7950109855
  0
VERTEX
  8
13_KOMPONENTER
 62
7
  6
CONTINUOUS
 10
87.2167870718
 20
156.0123501078
  0
VERTEX
  8
13_KOMPONENTER
 62
7
  6
CONTINUOUS
 10
87.0156707794
 20
156.1914824991
  0
SEQEND
  0
LINE
  8
13_KOMPONENTER
 62
7
  6
CONTINUOUS
 10
128.9949095023
 20
115.5410708376
 11
128.9949095023
 21
110.059831703
  0
LINE
  8
13_KOMPONENTER
 62
7
  6
CONTINUOUS
 10
129.9949095023
 20
143.4824992662
 11
129.9949095023
 21
152.70831983
  0
LINE
  8
13_KOMPONENTER
 62
7
  6
CONTINUOUS
 10
236.565934808
 20
119.1367216551
 11
239.6666479095
 21
119.5449382792
  0
LINE
  8
13_KOMPONENTER
 62
7
  6
CONTINUOUS
 10
241.4949095023
 20
119.6856334842
 11
237.2408402274
 21
119.2255746392
  0
POLYLINE
  8
13_KOMPONENTER
 62
7
  6
CONTINUOUS
 66
1
 70
0
  0
VERTEX
  8
13_KOMPONENTER
 62
7
  6
CONTINUOUS
 10
147.0330488667
 20
105.7867444454
  0
VERTEX
  8
13_KOMPONENTER
 62
7
  6
CONTINUOUS
 10
147.344346595
 20
105.7918932109
  0
VERTEX
  8
13_KOMPONENTER
 62
7
  6
CONTINUOUS
 10
147.4553854272
 20
105.7930151674
  0
SEQEND
  0
LINE
  8
13_KOMPONENTER
 62
7
  6
CONTINUOUS
 10
146.9455013156
 20
105.7857285713
 11
147.0330488667
 21
105.7867444454
  0
LINE
  8
13_KOMPONENTER
 62
7
  6
CONTINUOUS
 10
147.4553854272
 20
105.7930151674
 11
147.5949095021
 21
105.793538409
  0
LINE
  8
13_KOMPONENTER
 62
7
  6
CONTINUOUS
 10
240.4949095023
 20
105.7856334842
 11
228.1749468578
 21
105.7856334842
  0
LINE
  8
13_KOMPONENTER
 62
7
  6
CONTINUOUS
 10
203.9878602774
 20
105.7856334842
 11
199.0019587271
 21
105.7856334842
  0
LINE
  8
13_KOMPONENTER
 62
7
  6
CONTINUOUS
 10
177.9878602774
 20
105.7856334842
 11
173.0019587271
 21
105.7856334842
  0
LINE
  8
13_KOMPONENTER
 62
7
  6
CONTINUOUS
 10
146.9455013156
 20
105.7857285713
 11
146.5019587271
 21
105.7856334842
  0
LINE
  8
13_KOMPONENTER
 62
7
  6
CONTINUOUS
 10
125.4878602774
 20
105.7856334842
 11
120.5019587271
 21
105.7856334842
  0
LINE
  8
13_KOMPONENTER
 62
7
  6
CONTINUOUS
 10
99.4878602774
 20
105.7856334842
 11
94.5019587271
 21
105.7856334842
  0
LINE
  8
13_KOMPONENTER
 62
7
  6
CONTINUOUS
 10
70.3148721467
 20
105.7856334842
 11
57.9949095023
 21
105.7856334842
  0
LINE
  8
13_KOMPONENTER
 62
7
  6
CONTINUOUS
 10
54.4949095023
 20
105.7856334842
 11
56.4949095023
 21
105.7856334842
  0
LINE
  8
13_KOMPONENTER
 62
7
  6
CONTINUOUS
 10
241.9949095023
 20
105.7856334842
 11
243.9949095023
 21
105.7856334842
  0
LINE
  8
13_KOMPONENTER
 62
7
  6
CONTINUOUS
 10
226.7140187062
 20
106.2356334842
 11
217.9949095023
 21
106.2356334842
  0
LINE
  8
13_KOMPONENTER
 62
7
  6
CONTINUOUS
 10
210.9949095023
 20
106.2356334842
 11
205.2635083753
 21
106.2356334842
  0
LINE
  8
13_KOMPONENTER
 62
7
  6
CONTINUOUS
 10
197.7263110696
 20
106.2356334842
 11
191.9949095023
 21
106.2356334842
  0
LINE
  8
13_KOMPONENTER
 62
7
  6
CONTINUOUS
 10
184.9949095023
 20
106.2356334842
 11
179.2635083753
 21
106.2356334842
  0
LINE
  8
13_KOMPONENTER
 62
7
  6
CONTINUOUS
 10
171.7263110696
 20
106.2356334842
 11
165.9949095023
 21
106.2356334842
  0
LINE
  8
13_KOMPONENTER
 62
7
  6
CONTINUOUS
 10
158.9949095023
 20
106.2356334842
 11
153.2634643037
 21
106.2356334842
  0
LINE
  8
13_KOMPONENTER
 62
7
  6
CONTINUOUS
 10
145.2263547008
 20
106.2356334842
 11
139.4949095023
 21
106.2356334842
  0
LINE
  8
13_KOMPONENTER
 62
7
  6
CONTINUOUS
 10
132.4949095023
 20
106.2356334842
 11
126.7635079349
 21
106.2356334842
  0
LINE
  8
13_KOMPONENTER
 62
7
  6
CONTINUOUS
 10
119.2263106292
 20
106.2356334842
 11
113.4949095023
 21
106.2356334842
  0
LINE
  8
13_KOMPONENTER
 62
7
  6
CONTINUOUS
 10
106.4949095023
 20
106.2356334842
 11
100.7635079349
 21
106.2356334842
  0
LINE
  8
13_KOMPONENTER
 62
7
  6
CONTINUOUS
 10
93.2263106292
 20
106.2356334842
 11
87.4949095023
 21
106.2356334842
  0
LINE
  8
13_KOMPONENTER
 62
7
  6
CONTINUOUS
 10
80.4949095023
 20
106.2356334842
 11
71.7758002983
 21
106.2356334842
  0
POLYLINE
  8
13_KOMPONENTER
 62
7
  6
CONTINUOUS
 66
1
 70
0
  0
VERTEX
  8
13_KOMPONENTER
 62
7
  6
CONTINUOUS
 10
147.5949095023
 20
105.7935372746
  0
VERTEX
  8
13_KOMPONENTER
 62
7
  6
CONTINUOUS
 10
150.9244844457
 20
105.7935132799
  0
VERTEX
  8
13_KOMPONENTER
 62
7
  6
CONTINUOUS
 10
151.0344335773
 20
105.7930151674
  0
VERTEX
  8
13_KOMPONENTER
 62
7
  6
CONTINUOUS
 10
151.1454724095
 20
105.7918932109
  0
SEQEND
  0
POLYLINE
  8
13_KOMPONENTER
 62
7
  6
CONTINUOUS
 66
1
 70
0
  0
VERTEX
  8
13_KOMPONENTER
 62
7
  6
CONTINUOUS
 10
151.4567701378
 20
105.7867444454
  0
VERTEX
  8
13_KOMPONENTER
 62
7
  6
CONTINUOUS
 10
151.544317689
 20
105.7857285713
  0
VERTEX
  8
13_KOMPONENTER
 62
7
  6
CONTINUOUS
 10
151.9878602774
 20
105.7856334842
  0
SEQEND
  0
LINE
  8
13_KOMPONENTER
 62
7
  6
CONTINUOUS
 10
151.1454724095
 20
105.7918932109
 11
151.4567701378
 21
105.7867444454
  0
POLYLINE
  8
13_KOMPONENTER
 62
7
  6
CONTINUOUS
 66
1
 70
0
  0
VERTEX
  8
13_KOMPONENTER
 62
7
  6
CONTINUOUS
 10
93.2308588903
 20
106.2356363523
  0
VERTEX
  8
13_KOMPONENTER
 62
7
  6
CONTINUOUS
 10
93.3176231907
 20
106.2318651435
  0
VERTEX
  8
13_KOMPONENTER
 62
7
  6
CONTINUOUS
 10
93.451139873
 20
106.2110723115
  0
VERTEX
  8
13_KOMPONENTER
 62
7
  6
CONTINUOUS
 10
93.5806338759
 20
106.1724687767
  0
VERTEX
  8
13_KOMPONENTER
 62
7
  6
CONTINUOUS
 10
93.7037407694
 20
106.1167596199
  0
VERTEX
  8
13_KOMPONENTER
 62
7
  6
CONTINUOUS
 10
93.8167438246
 20
106.0460263212
  0
SEQEND
  0
POLYLINE
  8
13_KOMPONENTER
 62
7
  6
CONTINUOUS
 66
1
 70
0
  0
VERTEX
  8
13_KOMPONENTER
 62
7
  6
CONTINUOUS
 10
119.2308588903
 20
106.2356363523
  0
VERTEX
  8
13_KOMPONENTER
 62
7
  6
CONTINUOUS
 10
119.3176231907
 20
106.2318651435
  0
VERTEX
  8
13_KOMPONENTER
 62
7
  6
CONTINUOUS
 10
119.451139873
 20
106.2110723115
  0
VERTEX
  8
13_KOMPONENTER
 62
7
  6
CONTINUOUS
 10
119.5806338759
 20
106.1724687767
  0
VERTEX
  8
13_KOMPONENTER
 62
7
  6
CONTINUOUS
 10
119.7037407694
 20
106.1167596199
  0
VERTEX
  8
13_KOMPONENTER
 62
7
  6
CONTINUOUS
 10
119.8167438246
 20
106.0460263212
  0
SEQEND
  0
POLYLINE
  8
13_KOMPONENTER
 62
7
  6
CONTINUOUS
 66
1
 70
0
  0
VERTEX
  8
13_KOMPONENTER
 62
7
  6
CONTINUOUS
 10
145.2308589662
 20
106.2356363234
  0
VERTEX
  8
13_KOMPONENTER
 62
7
  6
CONTINUOUS
 10
145.3176523275
 20
106.2318625839
  0
VERTEX
  8
13_KOMPONENTER
 62
7
  6
CONTINUOUS
 10
145.4511922859
 20
106.2110604668
  0
VERTEX
  8
13_KOMPONENTER
 62
7
  6
CONTINUOUS
 10
145.58070266
 20
106.1724431049
  0
VERTEX
  8
13_KOMPONENTER
 62
7
  6
CONTINUOUS
 10
145.7038186426
 20
106.1167178592
  0
VERTEX
  8
13_KOMPONENTER
 62
7
  6
CONTINUOUS
 10
145.8167439949
 20
106.046026269
  0
SEQEND
  0
POLYLINE
  8
13_KOMPONENTER
 62
7
  6
CONTINUOUS
 66
1
 70
0
  0
VERTEX
  8
13_KOMPONENTER
 62
7
  6
CONTINUOUS
 10
171.7308588714
 20
106.2356363594
  0
VERTEX
  8
13_KOMPONENTER
 62
7
  6
CONTINUOUS
 10
171.8208466433
 20
106.2315791475
  0
VERTEX
  8
13_KOMPONENTER
 62
7
  6
CONTINUOUS
 10
171.953551485
 20
106.2105245569
  0
VERTEX
  8
13_KOMPONENTER
 62
7
  6
CONTINUOUS
 10
172.0822356467
 20
106.1718691642
  0
VERTEX
  8
13_KOMPONENTER
 62
7
  6
CONTINUOUS
 10
172.2045758263
 20
106.1163109323
  0
VERTEX
  8
13_KOMPONENTER
 62
7
  6
CONTINUOUS
 10
172.3167437846
 20
106.0460263327
  0
SEQEND
  0
POLYLINE
  8
13_KOMPONENTER
 62
7
  6
CONTINUOUS
 66
1
 70
0
  0
VERTEX
  8
13_KOMPONENTER
 62
7
  6
CONTINUOUS
 10
197.7308588714
 20
106.2356363594
  0
VERTEX
  8
13_KOMPONENTER
 62
7
  6
CONTINUOUS
 10
197.8208466433
 20
106.2315791475
  0
VERTEX
  8
13_KOMPONENTER
 62
7
  6
CONTINUOUS
 10
197.953551485
 20
106.2105245569
  0
VERTEX
  8
13_KOMPONENTER
 62
7
  6
CONTINUOUS
 10
198.0822356467
 20
106.1718691642
  0
VERTEX
  8
13_KOMPONENTER
 62
7
  6
CONTINUOUS
 10
198.2045758263
 20
106.1163109323
  0
VERTEX
  8
13_KOMPONENTER
 62
7
  6
CONTINUOUS
 10
198.3167437846
 20
106.0460263327
  0
SEQEND
  0
LINE
  8
13_KOMPONENTER
 62
7
  6
CONTINUOUS
 10
61.9255800853
 20
119.1524031894
 11
57.0032449973
 21
119.6847320371
  0
LINE
  8
13_KOMPONENTER
 62
7
  6
CONTINUOUS
 10
61.9238841965
 20
119.1367216551
 11
58.823171095
 21
119.5449382792
  0
LINE
  8
13_KOMPONENTER
 62
7
  6
CONTINUOUS
 10
86.9009034612
 20
156.2883140264
 11
86.9641756535
 21
156.2356613906
  0
POLYLINE
  8
13_KOMPONENTER
 62
7
  6
CONTINUOUS
 66
1
 70
0
  0
VERTEX
  8
13_KOMPONENTER
 62
7
  6
CONTINUOUS
 10
87.0156707794
 20
156.1914824991
  0
VERTEX
  8
13_KOMPONENTER
 62
7
  6
CONTINUOUS
 10
86.8501645108
 20
156.3311235138
  0
VERTEX
  8
13_KOMPONENTER
 62
7
  6
CONTINUOUS
 10
86.7229491692
 20
156.433934168
  0
VERTEX
  8
13_KOMPONENTER
 62
7
  6
CONTINUOUS
 10
86.6312294585
 20
156.5057121812
  0
VERTEX
  8
13_KOMPONENTER
 62
7
  6
CONTINUOUS
 10
86.5704796625
 20
156.5521999863
  0
VERTEX
  8
13_KOMPONENTER
 62
7
  6
CONTINUOUS
 10
86.5253072219
 20
156.5862337506
  0
SEQEND
  0
POLYLINE
  8
13_KOMPONENTER
 62
7
  6
CONTINUOUS
 66
1
 70
0
  0
VERTEX
  8
13_KOMPONENTER
 62
7
  6
CONTINUOUS
 10
86.9641756535
 20
156.2356613906
  0
VERTEX
  8
13_KOMPONENTER
 62
7
  6
CONTINUOUS
 10
87.1555810021
 20
156.0680007829
  0
VERTEX
  8
13_KOMPONENTER
 62
7
  6
CONTINUOUS
 10
87.3747493315
 20
155.8639372559
  0
VERTEX
  8
13_KOMPONENTER
 62
7
  6
CONTINUOUS
 10
87.6227697619
 20
155.6161365396
  0
VERTEX
  8
13_KOMPONENTER
 62
7
  6
CONTINUOUS
 10
87.9018184328
 20
155.3136184367
  0
VERTEX
  8
13_KOMPONENTER
 62
7
  6
CONTINUOUS
 10
88.2112918999
 20
154.9446969866
  0
SEQEND
  0
LINE
  8
13_KOMPONENTER
 62
7
  6
CONTINUOUS
 10
132.9949095023
 20
113.7356153669
 11
132.9949095023
 21
106.7356516014
  0
LINE
  8
13_KOMPONENTER
 62
7
  6
CONTINUOUS
 10
116.0835766582
 20
113.7568653716
 11
113.4499989431
 21
113.5224271093
  0
LINE
  8
13_KOMPONENTER
 62
7
  6
CONTINUOUS
 10
106.4499989431
 20
112.8992946206
 11
104.0835766579
 21
112.688638248
  0
LINE
  8
13_KOMPONENTER
 62
7
  6
CONTINUOUS
 10
90.0835776675
 20
111.4423733605
 11
87.4499947808
 21
111.2079346379
  0
LINE
  8
13_KOMPONENTER
 62
7
  6
CONTINUOUS
 10
80.4505753522
 20
110.584853831
 11
77.4781545026
 21
110.3202521165
  0
POLYLINE
  8
13_KOMPONENTER
 62
7
  6
CONTINUOUS
 66
1
 70
0
  0
VERTEX
  8
13_KOMPONENTER
 62
7
  6
CONTINUOUS
 10
219.5150989699
 20
122.4343510414
  0
VERTEX
  8
13_KOMPONENTER
 62
7
  6
CONTINUOUS
 10
219.7392167339
 20
122.4529101087
  0
VERTEX
  8
13_KOMPONENTER
 62
7
  6
CONTINUOUS
 10
219.9832841629
 20
122.4739374057
  0
VERTEX
  8
13_KOMPONENTER
 62
7
  6
CONTINUOUS
 10
220.2329665835
 20
122.4934053238
  0
SEQEND
  0
POLYLINE
  8
13_KOMPONENTER
 62
7
  6
CONTINUOUS
 66
1
 70
0
  0
VERTEX
  8
13_KOMPONENTER
 62
7
  6
CONTINUOUS
 10
104.083577802
 20
112.6886383365
  0
VERTEX
  8
13_KOMPONENTER
 62
7
  6
CONTINUOUS
 10
103.9768003481
 20
112.68486353
  0
VERTEX
  8
13_KOMPONENTER
 62
7
  6
CONTINUOUS
 10
103.822416135
 20
112.6996888668
  0
VERTEX
  8
13_KOMPONENTER
 62
7
  6
CONTINUOUS
 10
103.6721811549
 20
112.7382079123
  0
VERTEX
  8
13_KOMPONENTER
 62
7
  6
CONTINUOUS
 10
103.5297091624
 20
112.7994941228
  0
VERTEX
  8
13_KOMPONENTER
 62
7
  6
CONTINUOUS
 10
103.3984271872
 20
112.8820733294
  0
VERTEX
  8
13_KOMPONENTER
 62
7
  6
CONTINUOUS
 10
103.2814931083
 20
112.9839591926
  0
VERTEX
  8
13_KOMPONENTER
 62
7
  6
CONTINUOUS
 10
103.1817197533
 20
113.1027008997
  0
VERTEX
  8
13_KOMPONENTER
 62
7
  6
CONTINUOUS
 10
103.1015071991
 20
113.2354420308
  0
VERTEX
  8
13_KOMPONENTER
 62
7
  6
CONTINUOUS
 10
103.042784896
 20
113.3789893517
  0
VERTEX
  8
13_KOMPONENTER
 62
7
  6
CONTINUOUS
 10
103.0069652239
 20
113.5298896944
  0
VERTEX
  8
13_KOMPONENTER
 62
7
  6
CONTINUOUS
 10
102.9949095264
 20
113.6845129972
  0
SEQEND
  0
LINE
  8
DEFAULT_1
 62
2
  6
CENTER
 10
52.618847018
 20
110.2356334842
 11
247.1776705474
 21
110.2356334842
  0
LINE
  8
13_KOMPONENTER
 62
7
  6
CONTINUOUS
 10
168.4949095023
 20
114.2356334842
 11
165.9949095023
 21
114.2356334842
  0
LINE
  8
13_KOMPONENTER
 62
7
  6
CONTINUOUS
 10
158.9949095023
 20
114.2356334842
 11
157.0875400961
 21
114.2356334842
  0
LINE
  8
13_KOMPONENTER
 62
7
  6
CONTINUOUS
 10
141.4022789084
 20
114.2356334842
 11
139.4949095023
 21
114.2356334842
  0
LINE
  8
13_KOMPONENTER
 62
7
  6
CONTINUOUS
 10
132.4949095023
 20
114.2356334842
 11
129.9949095023
 21
114.2356334842
  0
POLYLINE
  8
13_KOMPONENTER
 62
7
  6
CONTINUOUS
 66
1
 70
0
  0
VERTEX
  8
13_KOMPONENTER
 62
7
  6
CONTINUOUS
 10
157.0875392391
 20
114.2356334658
  0
VERTEX
  8
13_KOMPONENTER
 62
7
  6
CONTINUOUS
 10
156.9854724052
 20
114.2408559223
  0
VERTEX
  8
13_KOMPONENTER
 62
7
  6
CONTINUOUS
 10
156.8412526348
 20
114.266436424
  0
VERTEX
  8
13_KOMPONENTER
 62
7
  6
CONTINUOUS
 10
156.7023165383
 20
114.3128098294
  0
VERTEX
  8
13_KOMPONENTER
 62
7
  6
CONTINUOUS
 10
156.5716449202
 20
114.3789812381
  0
VERTEX
  8
13_KOMPONENTER
 62
7
  6
CONTINUOUS
 10
156.4520412559
 20
114.4635309505
  0
VERTEX
  8
13_KOMPONENTER
 62
7
  6
CONTINUOUS
 10
156.3460715283
 20
114.5646449358
  0
VERTEX
  8
13_KOMPONENTER
 62
7
  6
CONTINUOUS
 10
156.2560091767
 20
114.6801537439
  0
VERTEX
  8
13_KOMPONENTER
 62
7
  6
CONTINUOUS
 10
156.183786322
 20
114.8075790029
  0
VERTEX
  8
13_KOMPONENTER
 62
7
  6
CONTINUOUS
 10
156.130952039
 20
114.9441872704
  0
SEQEND
  0
LINE
  8
13_KOMPONENTER
 62
7
  6
CONTINUOUS
 10
211.0398242237
 20
111.2079346379
 11
208.406241337
 21
111.4423733605
  0
LINE
  8
13_KOMPONENTER
 62
7
  6
CONTINUOUS
 10
194.4062423467
 20
112.688638248
 11
192.0398200615
 21
112.8992946206
  0
LINE
  8
13_KOMPONENTER
 62
7
  6
CONTINUOUS
 10
185.0398200615
 20
113.5224271093
 11
182.4062423463
 21
113.7568653716
  0
LINE
  8
13_KOMPONENTER
 62
7
  6
CONTINUOUS
 10
218.0392436523
 20
110.584853831
 11
221.0116645019
 21
110.3202521165
  0
POLYLINE
  8
13_KOMPONENTER
 62
7
  6
CONTINUOUS
 66
1
 70
0
  0
VERTEX
  8
13_KOMPONENTER
 62
7
  6
CONTINUOUS
 10
86.6492340089
 20
156.4916221797
  0
VERTEX
  8
13_KOMPONENTER
 62
7
  6
CONTINUOUS
 10
86.6601184222
 20
156.4833125008
  0
VERTEX
  8
13_KOMPONENTER
 62
7
  6
CONTINUOUS
 10
86.6758559604
 20
156.4707883724
  0
SEQEND
  0
POLYLINE
  8
13_KOMPONENTER
 62
7
  6
CONTINUOUS
 66
1
 70
0
  0
VERTEX
  8
13_KOMPONENTER
 62
7
  6
CONTINUOUS
 10
86.7734073119
 20
156.393155795
  0
VERTEX
  8
13_KOMPONENTER
 62
7
  6
CONTINUOUS
 10
86.8079487581
 20
156.3656672829
  0
VERTEX
  8
13_KOMPONENTER
 62
7
  6
CONTINUOUS
 10
86.8257243642
 20
156.350875121
  0
SEQEND
  0
LINE
  8
13_KOMPONENTER
 62
7
  6
CONTINUOUS
 10
131.4183489834
 20
123.267995394
 11
131.3017611548
 21
123.7031070936
  0
LINE
  8
13_KOMPONENTER
 62
7
  6
CONTINUOUS
 10
138.9949095023
 20
106.7356516014
 11
138.9949095023
 21
113.7356153669
  0
LINE
  8
13_KOMPONENTER
 62
7
  6
CONTINUOUS
 10
141.9949095023
 20
152.7083203868
 11
141.9949095023
 21
143.4824992662
  0
LINE
  8
13_KOMPONENTER
 62
7
  6
CONTINUOUS
 10
140.6880578497
 20
123.7031070936
 11
140.5714700212
 21
123.267995394
  0
POLYLINE
  8
13_KOMPONENTER
 62
7
  6
CONTINUOUS
 66
1
 70
0
  0
VERTEX
  8
13_KOMPONENTER
 62
7
  6
CONTINUOUS
 10
100.1730752207
 20
106.0460263333
  0
VERTEX
  8
13_KOMPONENTER
 62
7
  6
CONTINUOUS
 10
100.2860765003
 20
106.1167586792
  0
VERTEX
  8
13_KOMPONENTER
 62
7
  6
CONTINUOUS
 10
100.4091837065
 20
106.1724682425
  0
VERTEX
  8
13_KOMPONENTER
 62
7
  6
CONTINUOUS
 10
100.5386781216
 20
106.211072085
  0
VERTEX
  8
13_KOMPONENTER
 62
7
  6
CONTINUOUS
 10
100.6721952951
 20
106.2318651036
  0
VERTEX
  8
13_KOMPONENTER
 62
7
  6
CONTINUOUS
 10
100.7589601331
 20
106.2356363594
  0
SEQEND
  0
LINE
  8
13_KOMPONENTER
 62
7
  6
CONTINUOUS
 10
212.6780223818
 20
121.911912338
 11
219.5150990985
 21
122.4343510512
  0
LINE
  8
13_KOMPONENTER
 62
7
  6
CONTINUOUS
 10
220.2329665835
 20
122.4934053238
 11
220.6955694144
 21
122.5245129276
  0
LINE
  8
13_KOMPONENTER
 62
7
  6
CONTINUOUS
 10
138.6396183686
 20
121.7856334842
 11
133.3502006359
 21
121.7856334842
  0
LINE
  8
13_KOMPONENTER
 62
7
  6
CONTINUOUS
 10
112.6396183686
 20
121.7856334842
 11
107.3502006359
 21
121.7856334842
  0
LINE
  8
13_KOMPONENTER
 62
7
  6
CONTINUOUS
 10
159.8502006359
 20
121.7856334842
 11
165.1396183686
 21
121.7856334842
  0
LINE
  8
13_KOMPONENTER
 62
7
  6
CONTINUOUS
 10
185.8502006359
 20
121.7856334842
 11
191.1396183686
 21
121.7856334842
  0
LINE
  8
13_KOMPONENTER
 62
7
  6
CONTINUOUS
 10
78.256852421
 20
122.4934053238
 11
77.7942495902
 21
122.5245129276
  0
LINE
  8
13_KOMPONENTER
 62
7
  6
CONTINUOUS
 10
85.8117966228
 20
121.911912338
 11
78.974719906
 21
122.4343510512
  0
POLYLINE
  8
13_KOMPONENTER
 62
7
  6
CONTINUOUS
 66
1
 70
0
  0
VERTEX
  8
13_KOMPONENTER
 62
7
  6
CONTINUOUS
 10
78.256852421
 20
122.4934053238
  0
VERTEX
  8
13_KOMPONENTER
 62
7
  6
CONTINUOUS
 10
78.5065348416
 20
122.4739374057
  0
VERTEX
  8
13_KOMPONENTER
 62
7
  6
CONTINUOUS
 10
78.7506022706
 20
122.4529101087
  0
VERTEX
  8
13_KOMPONENTER
 62
7
  6
CONTINUOUS
 10
78.9744574365
 20
122.43437111
  0
SEQEND
  0
POLYLINE
  8
13_KOMPONENTER
 62
7
  6
CONTINUOUS
 66
1
 70
0
  0
VERTEX
  8
13_KOMPONENTER
 62
7
  6
CONTINUOUS
 10
182.4062412025
 20
113.75686546
  0
VERTEX
  8
13_KOMPONENTER
 62
7
  6
CONTINUOUS
 10
182.2991390287
 20
113.7722769247
  0
VERTEX
  8
13_KOMPONENTER
 62
7
  6
CONTINUOUS
 10
182.1523338024
 20
113.813436441
  0
VERTEX
  8
13_KOMPONENTER
 62
7
  6
CONTINUOUS
 10
182.0134920627
 20
113.8764352278
  0
VERTEX
  8
13_KOMPONENTER
 62
7
  6
CONTINUOUS
 10
181.8858412873
 20
113.9598088305
  0
VERTEX
  8
13_KOMPONENTER
 62
7
  6
CONTINUOUS
 10
181.7723488173
 20
114.0616191752
  0
VERTEX
  8
13_KOMPONENTER
 62
7
  6
CONTINUOUS
 10
181.6756528865
 20
114.1794996116
  0
VERTEX
  8
13_KOMPONENTER
 62
7
  6
CONTINUOUS
 10
181.5980013274
 20
114.3107098482
  0
VERTEX
  8
13_KOMPONENTER
 62
7
  6
CONTINUOUS
 10
181.5411992475
 20
114.4521996515
  0
VERTEX
  8
13_KOMPONENTER
 62
7
  6
CONTINUOUS
 10
181.5065670104
 20
114.6006798094
  0
VERTEX
  8
13_KOMPONENTER
 62
7
  6
CONTINUOUS
 10
181.4949095351
 20
114.7526986291
  0
SEQEND
  0
POLYLINE
  8
13_KOMPONENTER
 62
7
  6
CONTINUOUS
 66
1
 70
0
  0
VERTEX
  8
13_KOMPONENTER
 62
7
  6
CONTINUOUS
 10
142.3589112865
 20
114.9443327808
  0
VERTEX
  8
13_KOMPONENTER
 62
7
  6
CONTINUOUS
 10
142.3059002795
 20
114.8072995716
  0
VERTEX
  8
13_KOMPONENTER
 62
7
  6
CONTINUOUS
 10
142.2333815683
 20
114.6795131916
  0
VERTEX
  8
13_KOMPONENTER
 62
7
  6
CONTINUOUS
 10
142.1429203686
 20
114.5637320813
  0
VERTEX
  8
13_KOMPONENTER
 62
7
  6
CONTINUOUS
 10
142.0364695689
 20
114.4624560773
  0
VERTEX
  8
13_KOMPONENTER
 62
7
  6
CONTINUOUS
 10
141.9163272977
 20
114.3778717727
  0
VERTEX
  8
13_KOMPONENTER
 62
7
  6
CONTINUOUS
 10
141.7850873089
 20
114.3118053552
  0
VERTEX
  8
13_KOMPONENTER
 62
7
  6
CONTINUOUS
 10
141.6455829841
 20
114.2656831882
  0
VERTEX
  8
13_KOMPONENTER
 62
7
  6
CONTINUOUS
 10
141.5008261465
 20
114.2405010071
  0
VERTEX
  8
13_KOMPONENTER
 62
7
  6
CONTINUOUS
 10
141.4022797654
 20
114.2356334658
  0
SEQEND
  0
LINE
  8
13_KOMPONENTER
 62
7
  6
CONTINUOUS
 10
58.3689549883
 20
115.9665300042
 11
61.2489787771
 21
116.3456923291
  0
LINE
  8
13_KOMPONENTER
 62
7
  6
CONTINUOUS
 10
56.9949095023
 20
115.8856334842
 11
61.2489787771
 21
116.3456923291
  0
LINE
  8
13_KOMPONENTER
 62
7
  6
CONTINUOUS
 10
243.9949095023
 20
129.7856334842
 11
241.9949095023
 21
129.7856334842
  0
LINE
  8
13_KOMPONENTER
 62
7
  6
CONTINUOUS
 10
56.4949095023
 20
129.7856334842
 11
54.4949095023
 21
129.7856334842
  0
LINE
  8
13_KOMPONENTER
 62
7
  6
CONTINUOUS
 10
237.2408402274
 20
116.3456923291
 11
241.4865740072
 21
115.8865349312
  0
LINE
  8
13_KOMPONENTER
 62
7
  6
CONTINUOUS
 10
240.1208640162
 20
115.9665300042
 11
237.2408402274
 21
116.3456923291
  0
LINE
  8
13_KOMPONENTER
 62
7
  6
CONTINUOUS
 10
156.4949095023
 20
152.7083203868
 11
156.4949095023
 21
143.4824992662
  0
POLYLINE
  8
13_KOMPONENTER
 62
7
  6
CONTINUOUS
 66
1
 70
0
  0
VERTEX
  8
13_KOMPONENTER
 62
7
  6
CONTINUOUS
 10
126.1730752207
 20
106.0460263333
  0
VERTEX
  8
13_KOMPONENTER
 62
7
  6
CONTINUOUS
 10
126.2860765003
 20
106.1167586792
  0
VERTEX
  8
13_KOMPONENTER
 62
7
  6
CONTINUOUS
 10
126.4091837065
 20
106.1724682425
  0
VERTEX
  8
13_KOMPONENTER
 62
7
  6
CONTINUOUS
 10
126.5386781216
 20
106.211072085
  0
VERTEX
  8
13_KOMPONENTER
 62
7
  6
CONTINUOUS
 10
126.6721952951
 20
106.2318651036
  0
VERTEX
  8
13_KOMPONENTER
 62
7
  6
CONTINUOUS
 10
126.7589601331
 20
106.2356363594
  0
SEQEND
  0
LINE
  8
13_KOMPONENTER
 62
7
  6
CONTINUOUS
 10
157.8017611548
 20
123.7031070936
 11
157.9183489834
 21
123.267995394
  0
LINE
  8
13_KOMPONENTER
 62
7
  6
CONTINUOUS
 10
159.4949095023
 20
106.7356516014
 11
159.4949095023
 21
113.7356153669
  0
LINE
  8
13_KOMPONENTER
 62
7
  6
CONTINUOUS
 10
149.4949095023
 20
140.7270619127
 11
148.9949095023
 21
140.7270619127
  0
LINE
  8
13_KOMPONENTER
 62
7
  6
CONTINUOUS
 10
234.4949095023
 20
143.2856334842
 11
229.1551635401
 21
143.2856334842
  0
LINE
  8
13_KOMPONENTER
 62
7
  6
CONTINUOUS
 10
63.9949095023
 20
143.2856334842
 11
69.3346554644
 21
143.2856334842
  0
LINE
  8
13_KOMPONENTER
 62
7
  6
CONTINUOUS
 10
165.4949095023
 20
113.7356153669
 11
165.4949095023
 21
106.7356516014
  0
LINE
  8
13_KOMPONENTER
 62
7
  6
CONTINUOUS
 10
168.4949095023
 20
143.4824992662
 11
168.4949095023
 21
152.70831983
  0
LINE
  8
13_KOMPONENTER
 62
7
  6
CONTINUOUS
 10
169.4949095023
 20
115.5410708376
 11
169.4949095023
 21
110.059831703
  0
LINE
  8
13_KOMPONENTER
 62
7
  6
CONTINUOUS
 10
167.0714700212
 20
123.267995394
 11
167.1880578497
 21
123.7031070936
  0
POLYLINE
  8
13_KOMPONENTER
 62
7
  6
CONTINUOUS
 66
1
 70
0
  0
VERTEX
  8
13_KOMPONENTER
 62
7
  6
CONTINUOUS
 10
211.525643351
 20
156.2356613906
  0
VERTEX
  8
13_KOMPONENTER
 62
7
  6
CONTINUOUS
 10
211.3342380024
 20
156.0680007829
  0
VERTEX
  8
13_KOMPONENTER
 62
7
  6
CONTINUOUS
 10
211.115069673
 20
155.8639372559
  0
VERTEX
  8
13_KOMPONENTER
 62
7
  6
CONTINUOUS
 10
210.8670492426
 20
155.6161365396
  0
VERTEX
  8
13_KOMPONENTER
 62
7
  6
CONTINUOUS
 10
210.5880005718
 20
155.3136184367
  0
VERTEX
  8
13_KOMPONENTER
 62
7
  6
CONTINUOUS
 10
210.2785271046
 20
154.9446969866
  0
SEQEND
  0
POLYLINE
  8
13_KOMPONENTER
 62
7
  6
CONTINUOUS
 66
1
 70
0
  0
VERTEX
  8
13_KOMPONENTER
 62
7
  6
CONTINUOUS
 10
211.4741482251
 20
156.1914824991
  0
VERTEX
  8
13_KOMPONENTER
 62
7
  6
CONTINUOUS
 10
211.6396544938
 20
156.3311235138
  0
VERTEX
  8
13_KOMPONENTER
 62
7
  6
CONTINUOUS
 10
211.7668698353
 20
156.433934168
  0
VERTEX
  8
13_KOMPONENTER
 62
7
  6
CONTINUOUS
 10
211.8585895461
 20
156.5057121812
  0
VERTEX
  8
13_KOMPONENTER
 62
7
  6
CONTINUOUS
 10
211.919339342
 20
156.5521999863
  0
SEQEND
  0
LINE
  8
13_KOMPONENTER
 62
7
  6
CONTINUOUS
 10
211.5889155433
 20
156.2883140264
 11
211.525643351
 21
156.2356613906
  0
POLYLINE
  8
13_KOMPONENTER
 62
7
  6
CONTINUOUS
 66
1
 70
0
  0
VERTEX
  8
13_KOMPONENTER
 62
7
  6
CONTINUOUS
 10
211.7164116927
 20
156.393155795
  0
VERTEX
  8
13_KOMPONENTER
 62
7
  6
CONTINUOUS
 10
211.6818702464
 20
156.3656672829
  0
VERTEX
  8
13_KOMPONENTER
 62
7
  6
CONTINUOUS
 10
211.6640946403
 20
156.350875121
  0
SEQEND
  0
POLYLINE
  8
13_KOMPONENTER
 62
7
  6
CONTINUOUS
 66
1
 70
0
  0
VERTEX
  8
13_KOMPONENTER
 62
7
  6
CONTINUOUS
 10
211.8405849957
 20
156.4916221797
  0
VERTEX
  8
13_KOMPONENTER
 62
7
  6
CONTINUOUS
 10
211.8297005824
 20
156.4833125008
  0
VERTEX
  8
13_KOMPONENTER
 62
7
  6
CONTINUOUS
 10
211.8139630442
 20
156.4707883724
  0
SEQEND
  0
LINE
  8
13_KOMPONENTER
 62
7
  6
CONTINUOUS
 10
211.919339342
 20
156.5521999863
 11
211.9645117827
 21
156.5862337506
  0
LINE
  8
DEFAULT_1
 62
2
  6
CENTER
 10
75.9949095023
 20
148.3356334842
 11
222.4949095023
 21
148.3356334842
  0
POLYLINE
  8
13_KOMPONENTER
 62
7
  6
CONTINUOUS
 66
1
 70
0
  0
VERTEX
  8
13_KOMPONENTER
 62
7
  6
CONTINUOUS
 10
152.6730750091
 20
106.0460262685
  0
VERTEX
  8
13_KOMPONENTER
 62
7
  6
CONTINUOUS
 10
152.7853821003
 20
106.1163856936
  0
VERTEX
  8
13_KOMPONENTER
 62
7
  6
CONTINUOUS
 10
152.9076877291
 20
106.1719083462
  0
VERTEX
  8
13_KOMPONENTER
 62
7
  6
CONTINUOUS
 10
153.0363355085
 20
106.2105400775
  0
VERTEX
  8
13_KOMPONENTER
 62
7
  6
CONTINUOUS
 10
153.1690048126
 20
106.2315820528
  0
VERTEX
  8
13_KOMPONENTER
 62
7
  6
CONTINUOUS
 10
153.2589600383
 20
106.2356363234
  0
SEQEND
  0
LINE
  8
13_KOMPONENTER
 62
7
  6
CONTINUOUS
 10
191.0075601758
 20
156.7856334842
 11
185.9822588287
 21
156.7856334842
  0
LINE
  8
13_KOMPONENTER
 62
7
  6
CONTINUOUS
 10
138.5075601758
 20
156.7856334842
 11
133.4822588287
 21
156.7856334842
  0
LINE
  8
13_KOMPONENTER
 62
7
  6
CONTINUOUS
 10
112.5075601758
 20
156.7856334842
 11
107.4822588287
 21
156.7856334842
  0
LINE
  8
13_KOMPONENTER
 62
7
  6
CONTINUOUS
 10
81.4822589671
 20
156.7856334842
 11
86.5075600353
 21
156.7856334842
  0
LINE
  8
13_KOMPONENTER
 62
7
  6
CONTINUOUS
 10
159.9822588287
 20
156.7856334842
 11
165.0075601758
 21
156.7856334842
  0
LINE
  8
13_KOMPONENTER
 62
7
  6
CONTINUOUS
 10
211.9822589693
 20
156.7856334842
 11
217.0075600374
 21
156.7856334842
  0
LINE
  8
13_KOMPONENTER
 62
7
  6
CONTINUOUS
 10
181.4949095023
 20
110.059831703
 11
181.4949095023
 21
115.5410708376
  0
LINE
  8
13_KOMPONENTER
 62
7
  6
CONTINUOUS
 10
182.4949095023
 20
152.7083197275
 11
182.4949095023
 21
143.4824992662
  0
POLYLINE
  8
13_KOMPONENTER
 62
7
  6
CONTINUOUS
 66
1
 70
0
  0
VERTEX
  8
13_KOMPONENTER
 62
7
  6
CONTINUOUS
 10
210.2785271046
 20
154.9446969866
  0
VERTEX
  8
13_KOMPONENTER
 62
7
  6
CONTINUOUS
 10
210.5370371267
 20
155.2554144234
  0
VERTEX
  8
13_KOMPONENTER
 62
7
  6
CONTINUOUS
 10
210.7957941153
 20
155.5413869113
  0
VERTEX
  8
13_KOMPONENTER
 62
7
  6
CONTINUOUS
 10
211.0441833102
 20
155.7950109855
  0
VERTEX
  8
13_KOMPONENTER
 62
7
  6
CONTINUOUS
 10
211.2730319327
 20
156.0123501078
  0
VERTEX
  8
13_KOMPONENTER
 62
7
  6
CONTINUOUS
 10
211.4741482251
 20
156.1914824991
  0
SEQEND
  0
LINE
  8
13_KOMPONENTER
 62
7
  6
CONTINUOUS
 10
183.8017611548
 20
123.7031070936
 11
183.9183489834
 21
123.267995394
  0
LINE
  8
13_KOMPONENTER
 62
7
  6
CONTINUOUS
 10
185.4949095023
 20
106.7356516014
 11
185.4949095023
 21
113.0244302522
  0
POLYLINE
  8
13_KOMPONENTER
 62
7
  6
CONTINUOUS
 66
1
 70
0
  0
VERTEX
  8
13_KOMPONENTER
 62
7
  6
CONTINUOUS
 10
178.6730751791
 20
106.0460263207
  0
VERTEX
  8
13_KOMPONENTER
 62
7
  6
CONTINUOUS
 10
178.7852449107
 20
106.1163118738
  0
VERTEX
  8
13_KOMPONENTER
 62
7
  6
CONTINUOUS
 10
178.9075847515
 20
106.1718696906
  0
VERTEX
  8
13_KOMPONENTER
 62
7
  6
CONTINUOUS
 10
179.0362684912
 20
106.2105247773
  0
VERTEX
  8
13_KOMPONENTER
 62
7
  6
CONTINUOUS
 10
179.1689728511
 20
106.2315791866
  0
VERTEX
  8
13_KOMPONENTER
 62
7
  6
CONTINUOUS
 10
179.2589601143
 20
106.2356363523
  0
SEQEND
  0
LINE
  8
13_KOMPONENTER
 62
7
  6
CONTINUOUS
 10
191.4949095023
 20
112.4012977635
 11
191.4949095023
 21
106.7356516014
  0
LINE
  8
13_KOMPONENTER
 62
7
  6
CONTINUOUS
 10
194.4949095023
 20
143.4824992662
 11
194.4949095023
 21
152.7083198034
  0
LINE
  8
13_KOMPONENTER
 62
7
  6
CONTINUOUS
 10
195.4949095023
 20
115.5410708376
 11
195.4949095023
 21
110.059831703
  0
POLYLINE
  8
13_KOMPONENTER
 62
7
  6
CONTINUOUS
 66
1
 70
0
  0
VERTEX
  8
13_KOMPONENTER
 62
7
  6
CONTINUOUS
 10
195.4949093828
 20
113.6842246996
  0
VERTEX
  8
13_KOMPONENTER
 62
7
  6
CONTINUOUS
 10
195.4828694597
 20
113.5299897863
  0
VERTEX
  8
13_KOMPONENTER
 62
7
  6
CONTINUOUS
 10
195.447184106
 20
113.3794569084
  0
VERTEX
  8
13_KOMPONENTER
 62
7
  6
CONTINUOUS
 10
195.3887071719
 20
113.2362291277
  0
VERTEX
  8
13_KOMPONENTER
 62
7
  6
CONTINUOUS
 10
195.3088381126
 20
113.1037346509
  0
VERTEX
  8
13_KOMPONENTER
 62
7
  6
CONTINUOUS
 10
195.2094885003
 20
112.9851447951
  0
VERTEX
  8
13_KOMPONENTER
 62
7
  6
CONTINUOUS
 10
195.0930362441
 20
112.8832980258
  0
VERTEX
  8
13_KOMPONENTER
 62
7
  6
CONTINUOUS
 10
194.9622685502
 20
112.800631948
  0
VERTEX
  8
13_KOMPONENTER
 62
7
  6
CONTINUOUS
 10
194.8203151828
 20
112.7391250424
  0
VERTEX
  8
13_KOMPONENTER
 62
7
  6
CONTINUOUS
 10
194.6705736077
 20
112.7002493838
  0
VERTEX
  8
13_KOMPONENTER
 62
7
  6
CONTINUOUS
 10
194.5166276852
 20
112.6849354134
  0
VERTEX
  8
13_KOMPONENTER
 62
7
  6
CONTINUOUS
 10
194.4062412025
 20
112.6886383365
  0
SEQEND
  0
LINE
  8
13_KOMPONENTER
 62
7
  6
CONTINUOUS
 10
193.0714700212
 20
123.267995394
 11
193.1880578497
 21
123.7031070936
  0
LINE
  8
13_KOMPONENTER
 62
7
  6
CONTINUOUS
 10
210.0356442047
 20
124.3480709884
 11
210.0345756096
 21
124.3492489005
  0
POLYLINE
  8
13_KOMPONENTER
 62
7
  6
CONTINUOUS
 66
1
 70
0
  0
VERTEX
  8
13_KOMPONENTER
 62
7
  6
CONTINUOUS
 10
210.0356496397
 20
124.3480649764
  0
VERTEX
  8
13_KOMPONENTER
 62
7
  6
CONTINUOUS
 10
210.1687310794
 20
124.1902214137
  0
VERTEX
  8
13_KOMPONENTER
 62
7
  6
CONTINUOUS
 10
210.3119477929
 20
123.9877671636
  0
VERTEX
  8
13_KOMPONENTER
 62
7
  6
CONTINUOUS
 10
210.4323603255
 20
123.7769496053
  0
VERTEX
  8
13_KOMPONENTER
 62
7
  6
CONTINUOUS
 10
210.5296284225
 20
123.5618651228
  0
VERTEX
  8
13_KOMPONENTER
 62
7
  6
CONTINUOUS
 10
210.6016483748
 20
123.3586147457
  0
SEQEND
  0
POLYLINE
  8
13_KOMPONENTER
 62
7
  6
CONTINUOUS
 66
1
 70
0
  0
VERTEX
  8
13_KOMPONENTER
 62
7
  6
CONTINUOUS
 10
204.6730751791
 20
106.0460263207
  0
VERTEX
  8
13_KOMPONENTER
 62
7
  6
CONTINUOUS
 10
204.7852449107
 20
106.1163118738
  0
VERTEX
  8
13_KOMPONENTER
 62
7
  6
CONTINUOUS
 10
204.9075847515
 20
106.1718696906
  0
VERTEX
  8
13_KOMPONENTER
 62
7
  6
CONTINUOUS
 10
205.0362684912
 20
106.2105247773
  0
VERTEX
  8
13_KOMPONENTER
 62
7
  6
CONTINUOUS
 10
205.1689728511
 20
106.2315791866
  0
VERTEX
  8
13_KOMPONENTER
 62
7
  6
CONTINUOUS
 10
205.2589601143
 20
106.2356363523
  0
SEQEND
  0
LINE
  8
13_KOMPONENTER
 62
7
  6
CONTINUOUS
 10
207.4949095023
 20
110.059831703
 11
207.4949095023
 21
115.5410708376
  0
LINE
  8
13_KOMPONENTER
 62
7
  6
CONTINUOUS
 10
208.4949095023
 20
152.7083203868
 11
208.4949095023
 21
143.4824992662
  0
LINE
  8
13_KOMPONENTER
 62
7
  6
CONTINUOUS
 10
211.4949095023
 20
106.7356518178
 11
211.4949095023
 21
110.7099379024
  0
LINE
  8
13_KOMPONENTER
 62
7
  6
CONTINUOUS
 10
217.464184652
 20
156.2356536771
 11
217.2217834513
 21
156.4348474552
  0
POLYLINE
  8
13_KOMPONENTER
 62
7
  6
CONTINUOUS
 66
1
 70
0
  0
VERTEX
  8
13_KOMPONENTER
 62
7
  6
CONTINUOUS
 10
217.5156843203
 20
156.191470806
  0
VERTEX
  8
13_KOMPONENTER
 62
7
  6
CONTINUOUS
 10
217.3500626169
 20
156.3312072591
  0
VERTEX
  8
13_KOMPONENTER
 62
7
  6
CONTINUOUS
 10
217.2228335166
 20
156.434025714
  0
VERTEX
  8
13_KOMPONENTER
 62
7
  6
CONTINUOUS
 10
217.1311852374
 20
156.5057461715
  0
VERTEX
  8
13_KOMPONENTER
 62
7
  6
CONTINUOUS
 10
217.0704825645
 20
156.5521976938
  0
VERTEX
  8
13_KOMPONENTER
 62
7
  6
CONTINUOUS
 10
217.0253078255
 20
156.5862332607
  0
SEQEND
  0
LINE
  8
13_KOMPONENTER
 62
7
  6
CONTINUOUS
 10
217.4949095023
 20
106.7356334842
 11
217.4949095023
 21
110.0868232264
  0
LINE
  8
13_KOMPONENTER
 62
7
  6
CONTINUOUS
 10
220.4949095023
 20
149.1672271558
 11
220.4949095023
 21
152.7083198034
  0
LINE
  8
13_KOMPONENTER
 62
7
  6
CONTINUOUS
 10
221.4949095023
 20
121.7761376502
 11
221.4949095023
 21
114.0162007989
  0
POLYLINE
  8
13_KOMPONENTER
 62
7
  6
CONTINUOUS
 66
1
 70
0
  0
VERTEX
  8
13_KOMPONENTER
 62
7
  6
CONTINUOUS
 10
218.711286715
 20
154.9447045208
  0
VERTEX
  8
13_KOMPONENTER
 62
7
  6
CONTINUOUS
 10
218.3789509279
 20
155.3394273978
  0
VERTEX
  8
13_KOMPONENTER
 62
7
  6
CONTINUOUS
 10
218.0507672585
 20
155.6900185522
  0
VERTEX
  8
13_KOMPONENTER
 62
7
  6
CONTINUOUS
 10
217.7413564539
 20
155.9897244048
  0
VERTEX
  8
13_KOMPONENTER
 62
7
  6
CONTINUOUS
 10
217.464184652
 20
156.2356536771
  0
SEQEND
  0
POLYLINE
  8
13_KOMPONENTER
 62
7
  6
CONTINUOUS
 66
1
 70
0
  0
VERTEX
  8
13_KOMPONENTER
 62
7
  6
CONTINUOUS
 10
218.711286715
 20
154.9447045208
  0
VERTEX
  8
13_KOMPONENTER
 62
7
  6
CONTINUOUS
 10
218.4528007044
 20
155.2553940196
  0
VERTEX
  8
13_KOMPONENTER
 62
7
  6
CONTINUOUS
 10
218.1940273526
 20
155.5413853396
  0
VERTEX
  8
13_KOMPONENTER
 62
7
  6
CONTINUOUS
 10
217.9456484826
 20
155.7949991239
  0
VERTEX
  8
13_KOMPONENTER
 62
7
  6
CONTINUOUS
 10
217.7168026855
 20
156.0123361282
  0
VERTEX
  8
13_KOMPONENTER
 62
7
  6
CONTINUOUS
 10
217.5156843203
 20
156.191470806
  0
SEQEND
  0
POLYLINE
  8
13_KOMPONENTER
 62
7
  6
CONTINUOUS
 66
1
 70
0
  0
VERTEX
  8
13_KOMPONENTER
 62
7
  6
CONTINUOUS
 10
241.4949095023
 20
119.607559391
  0
VERTEX
  8
13_KOMPONENTER
 62
7
  6
CONTINUOUS
 10
241.501504556
 20
119.4963704497
  0
VERTEX
  8
13_KOMPONENTER
 62
7
  6
CONTINUOUS
 10
241.5187461743
 20
119.3319691699
  0
VERTEX
  8
13_KOMPONENTER
 62
7
  6
CONTINUOUS
 10
241.5387567761
 20
119.1289515291
  0
VERTEX
  8
13_KOMPONENTER
 62
7
  6
CONTINUOUS
 10
241.5533819785
 20
118.9075013752
  0
VERTEX
  8
13_KOMPONENTER
 62
7
  6
CONTINUOUS
 10
241.5584019223
 20
118.6866691737
  0
SEQEND
  0
POLYLINE
  8
13_KOMPONENTER
 62
7
  6
CONTINUOUS
 66
1
 70
0
  0
VERTEX
  8
13_KOMPONENTER
 62
7
  6
CONTINUOUS
 10
241.4949095023
 20
138.7856334842
  0
VERTEX
  8
13_KOMPONENTER
 62
7
  6
CONTINUOUS
 10
241.4631572874
 20
139.3713718933
  0
VERTEX
  8
13_KOMPONENTER
 62
7
  6
CONTINUOUS
 10
241.3739437197
 20
139.8909787694
  0
VERTEX
  8
13_KOMPONENTER
 62
7
  6
CONTINUOUS
 10
241.2344037003
 20
140.3543752141
  0
VERTEX
  8
13_KOMPONENTER
 62
7
  6
CONTINUOUS
 10
241.048396571
 20
140.7716474171
  0
VERTEX
  8
13_KOMPONENTER
 62
7
  6
CONTINUOUS
 10
240.8153598093
 20
141.1529485667
  0
VERTEX
  8
13_KOMPONENTER
 62
7
  6
CONTINUOUS
 10
240.5322916779
 20
141.5043013199
  0
VERTEX
  8
13_KOMPONENTER
 62
7
  6
CONTINUOUS
 10
240.1921540246
 20
141.8307683211
  0
VERTEX
  8
13_KOMPONENTER
 62
7
  6
CONTINUOUS
 10
239.7847784964
 20
142.134708087
  0
VERTEX
  8
13_KOMPONENTER
 62
7
  6
CONTINUOUS
 10
239.300190173
 20
142.4141906662
  0
VERTEX
  8
13_KOMPONENTER
 62
7
  6
CONTINUOUS
 10
238.7313594129
 20
142.6639946109
  0
VERTEX
  8
13_KOMPONENTER
 62
7
  6
CONTINUOUS
 10
238.0765549872
 20
142.8774159411
  0
VERTEX
  8
13_KOMPONENTER
 62
7
  6
CONTINUOUS
 10
237.3321213595
 20
143.0499736544
  0
VERTEX
  8
13_KOMPONENTER
 62
7
  6
CONTINUOUS
 10
236.4934540068
 20
143.1779074126
  0
VERTEX
  8
13_KOMPONENTER
 62
7
  6
CONTINUOUS
 10
235.5533176467
 20
143.2577638575
  0
VERTEX
  8
13_KOMPONENTER
 62
7
  6
CONTINUOUS
 10
234.4949095023
 20
143.2856334842
  0
SEQEND
  0
LINE
  8
13_KOMPONENTER
 62
7
  6
CONTINUOUS
 10
241.4949095023
 20
106.2856334842
 11
241.4949095023
 21
115.9636115354
  0
LINE
  8
13_KOMPONENTER
 62
7
  6
CONTINUOUS
 10
241.4949095023
 20
119.6076554329
 11
241.4949095023
 21
138.7856334842
  0
LINE
  8
13_KOMPONENTER
 62
7
  6
CONTINUOUS
 10
241.5584019223
 20
116.8845977947
 11
241.5584019223
 21
118.6866691737
  0
LINE
  8
13_KOMPONENTER
 62
7
  6
CONTINUOUS
 10
244.4949095023
 20
129.2856334842
 11
244.4949095023
 21
125.2019949916
  0
LINE
  8
13_KOMPONENTER
 62
7
  6
CONTINUOUS
 10
244.4949095023
 20
110.3692722279
 11
244.4949095023
 21
106.2856334842
  0
POLYLINE
  8
13_KOMPONENTER
 62
7
  6
CONTINUOUS
 66
1
 70
0
  0
VERTEX
  8
13_KOMPONENTER
 62
7
  6
CONTINUOUS
 10
241.5584019223
 20
116.8845977947
  0
VERTEX
  8
13_KOMPONENTER
 62
7
  6
CONTINUOUS
 10
241.5533824006
 20
116.6637749377
  0
VERTEX
  8
13_KOMPONENTER
 62
7
  6
CONTINUOUS
 10
241.5387566325
 20
116.4423137574
  0
VERTEX
  8
13_KOMPONENTER
 62
7
  6
CONTINUOUS
 10
241.5187501951
 20
116.2393350642
  0
VERTEX
  8
13_KOMPONENTER
 62
7
  6
CONTINUOUS
 10
241.5015056114
 20
116.0749079297
  0
VERTEX
  8
13_KOMPONENTER
 62
7
  6
CONTINUOUS
 10
241.4949095023
 20
115.9637075774
  0
SEQEND
  0
LINE
  8
13_KOMPONENTER
 62
7
  6
CONTINUOUS
 10
53.9949111873
 20
227.6765982741
 11
54.0516755646
 21
227.0491775453
  0
LINE
  8
13_KOMPONENTER
 62
7
  6
CONTINUOUS
 10
53.9949095115
 20
227.6765982738
 11
53.9949095023
 21
242.8952103981
  0
LINE
  8
13_KOMPONENTER
 62
7
  6
CONTINUOUS
 10
54.0516755646
 20
243.5227119759
 11
53.9949111873
 21
242.8952912471
  0
POLYLINE
  8
13_KOMPONENTER
 62
7
  6
CONTINUOUS
 66
1
 70
0
  0
VERTEX
  8
13_KOMPONENTER
 62
7
  6
CONTINUOUS
 10
56.9949102928
 20
227.1756489112
  0
VERTEX
  8
13_KOMPONENTER
 62
7
  6
CONTINUOUS
 10
57.0069023273
 20
226.9933640634
  0
VERTEX
  8
13_KOMPONENTER
 62
7
  6
CONTINUOUS
 10
57.0514794573
 20
226.7858929073
  0
VERTEX
  8
13_KOMPONENTER
 62
7
  6
CONTINUOUS
 10
57.1269554378
 20
226.5925285635
  0
VERTEX
  8
13_KOMPONENTER
 62
7
  6
CONTINUOUS
 10
57.2312187549
 20
226.4155096536
  0
VERTEX
  8
13_KOMPONENTER
 62
7
  6
CONTINUOUS
 10
57.3632203425
 20
226.2560413936
  0
VERTEX
  8
13_KOMPONENTER
 62
7
  6
CONTINUOUS
 10
57.5219734034
 20
226.1163003238
  0
VERTEX
  8
13_KOMPONENTER
 62
7
  6
CONTINUOUS
 10
57.6723546442
 20
226.0175115457
  0
SEQEND
  0
LINE
  8
13_KOMPONENTER
 62
7
  6
CONTINUOUS
 10
56.9949095023
 20
243.8109447606
 11
56.9949095023
 21
242.2359447606
  0
LINE
  8
13_KOMPONENTER
 62
7
  6
CONTINUOUS
 10
56.9949095023
 20
226.7609447606
 11
56.9949095023
 21
241.6220149732
  0
LINE
  8
13_KOMPONENTER
 62
7
  6
CONTINUOUS
 10
54.2329343302
 20
244.0326887146
 11
54.2323931535
 21
244.0311660984
  0
LINE
  8
13_KOMPONENTER
 62
7
  6
CONTINUOUS
 10
54.051494295
 20
227.0511811311
 11
54.2329343302
 21
226.5392008065
  0
LINE
  8
13_KOMPONENTER
 62
7
  6
CONTINUOUS
 10
54.2323931537
 20
226.5407234223
 11
54.4844300836
 21
226.2059701832
  0
LINE
  8
13_KOMPONENTER
 62
7
  6
CONTINUOUS
 10
56.0245938454
 20
244.5073655029
 11
56.7537281102
 21
242.8005284738
  0
LINE
  8
13_KOMPONENTER
 62
7
  6
CONTINUOUS
 10
67.7449095023
 20
228.0055213371
 11
67.7449095023
 21
226.7609447606
  0
LINE
  8
13_KOMPONENTER
 62
7
  6
CONTINUOUS
 10
71.7449095023
 20
226.7609447606
 11
71.7449095023
 21
228.0289402706
  0
POLYLINE
  8
13_KOMPONENTER
 62
7
  6
CONTINUOUS
 66
1
 70
0
  0
VERTEX
  8
13_KOMPONENTER
 62
7
  6
CONTINUOUS
 10
67.7449103878
 20
228.0056463954
  0
VERTEX
  8
13_KOMPONENTER
 62
7
  6
CONTINUOUS
 10
67.7451707179
 20
228.0078906286
  0
VERTEX
  8
13_KOMPONENTER
 62
7
  6
CONTINUOUS
 10
67.7490978479
 20
228.0318086352
  0
VERTEX
  8
13_KOMPONENTER
 62
7
  6
CONTINUOUS
 10
67.759912369
 20
228.0736624421
  0
VERTEX
  8
13_KOMPONENTER
 62
7
  6
CONTINUOUS
 10
67.778537479
 20
228.1281158542
  0
VERTEX
  8
13_KOMPONENTER
 62
7
  6
CONTINUOUS
 10
67.8046164783
 20
228.1907835751
  0
VERTEX
  8
13_KOMPONENTER
 62
7
  6
CONTINUOUS
 10
67.8374802984
 20
228.2588159145
  0
VERTEX
  8
13_KOMPONENTER
 62
7
  6
CONTINUOUS
 10
67.8761979438
 20
228.329913298
  0
VERTEX
  8
13_KOMPONENTER
 62
7
  6
CONTINUOUS
 10
67.9197722595
 20
228.4022573288
  0
VERTEX
  8
13_KOMPONENTER
 62
7
  6
CONTINUOUS
 10
67.9672758942
 20
228.4745276317
  0
VERTEX
  8
13_KOMPONENTER
 62
7
  6
CONTINUOUS
 10
68.0178001665
 20
228.5456405392
  0
VERTEX
  8
13_KOMPONENTER
 62
7
  6
CONTINUOUS
 10
68.0708288391
 20
228.6151491894
  0
VERTEX
  8
13_KOMPONENTER
 62
7
  6
CONTINUOUS
 10
68.1262034733
 20
228.6830432224
  0
VERTEX
  8
13_KOMPONENTER
 62
7
  6
CONTINUOUS
 10
68.183852952
 20
228.7493249495
  0
VERTEX
  8
13_KOMPONENTER
 62
7
  6
CONTINUOUS
 10
68.2435648778
 20
228.8137675539
  0
VERTEX
  8
13_KOMPONENTER
 62
7
  6
CONTINUOUS
 10
68.3052770003
 20
228.8762671258
  0
VERTEX
  8
13_KOMPONENTER
 62
7
  6
CONTINUOUS
 10
68.3690084731
 20
228.9367464304
  0
VERTEX
  8
13_KOMPONENTER
 62
7
  6
CONTINUOUS
 10
68.4347190904
 20
228.9950157534
  0
VERTEX
  8
13_KOMPONENTER
 62
7
  6
CONTINUOUS
 10
68.5023939456
 20
229.0508355364
  0
VERTEX
  8
13_KOMPONENTER
 62
7
  6
CONTINUOUS
 10
68.5720410029
 20
229.1039564748
  0
VERTEX
  8
13_KOMPONENTER
 62
7
  6
CONTINUOUS
 10
68.6434432497
 20
229.1538813877
  0
VERTEX
  8
13_KOMPONENTER
 62
7
  6
CONTINUOUS
 10
68.7166201918
 20
229.2002477548
  0
VERTEX
  8
13_KOMPONENTER
 62
7
  6
CONTINUOUS
 10
68.791434982
 20
229.2425239187
  0
VERTEX
  8
13_KOMPONENTER
 62
7
  6
CONTINUOUS
 10
68.8682646793
 20
229.280317725
  0
VERTEX
  8
13_KOMPONENTER
 62
7
  6
CONTINUOUS
 10
68.9468007122
 20
229.3127556121
  0
VERTEX
  8
13_KOMPONENTER
 62
7
  6
CONTINUOUS
 10
69.0271121049
 20
229.3389921144
  0
VERTEX
  8
13_KOMPONENTER
 62
7
  6
CONTINUOUS
 10
69.1093881793
 20
229.3579944054
  0
VERTEX
  8
13_KOMPONENTER
 62
7
  6
CONTINUOUS
 10
69.1907179844
 20
229.3683378593
  0
VERTEX
  8
13_KOMPONENTER
 62
7
  6
CONTINUOUS
 10
69.2449102165
 20
229.3703347204
  0
SEQEND
  0
LINE
  8
13_KOMPONENTER
 62
7
  6
CONTINUOUS
 10
56.7537281102
 20
227.7713610474
 11
56.0245938454
 21
226.0645240183
  0
POLYLINE
  8
13_KOMPONENTER
 62
7
  6
CONTINUOUS
 66
1
 70
0
  0
VERTEX
  8
13_KOMPONENTER
 62
7
  6
CONTINUOUS
 10
54.4844905092
 20
244.3659785132
  0
VERTEX
  8
13_KOMPONENTER
 62
7
  6
CONTINUOUS
 10
54.2313334172
 20
244.0297586545
  0
VERTEX
  8
13_KOMPONENTER
 62
7
  6
CONTINUOUS
 10
54.0509514845
 20
243.5191719177
  0
SEQEND
  0
POLYLINE
  8
13_KOMPONENTER
 62
7
  6
CONTINUOUS
 66
1
 70
0
  0
VERTEX
  8
13_KOMPONENTER
 62
7
  6
CONTINUOUS
 10
71.7413065203
 20
228.0289402706
  0
VERTEX
  8
13_KOMPONENTER
 62
7
  6
CONTINUOUS
 10
71.7446722388
 20
228.0076511336
  0
VERTEX
  8
13_KOMPONENTER
 62
7
  6
CONTINUOUS
 10
71.7449089291
 20
228.005650198
  0
SEQEND
  0
LINE
  8
13_KOMPONENTER
 62
7
  6
CONTINUOUS
 10
76.9949095023
 20
226.7609447606
 11
76.9949095023
 21
228.9666762482
  0
LINE
  8
13_KOMPONENTER
 62
7
  6
CONTINUOUS
 10
76.9949095023
 20
238.5355843607
 11
76.9949095023
 21
243.8109447606
  0
LINE
  8
13_KOMPONENTER
 62
7
  6
CONTINUOUS
 10
54.4844886776
 20
244.3659803839
 11
54.4851270226
 21
244.3666042179
  0
POLYLINE
  8
13_KOMPONENTER
 62
7
  6
CONTINUOUS
 66
1
 70
0
  0
VERTEX
  8
13_KOMPONENTER
 62
7
  6
CONTINUOUS
 10
54.484950942
 20
226.2054571255
  0
VERTEX
  8
13_KOMPONENTER
 62
7
  6
CONTINUOUS
 10
54.7549087973
 20
225.9734032378
  0
VERTEX
  8
13_KOMPONENTER
 62
7
  6
CONTINUOUS
 10
55.0267577789
 20
225.8183573293
  0
VERTEX
  8
13_KOMPONENTER
 62
7
  6
CONTINUOUS
 10
55.3110506067
 20
225.7609455091
  0
SEQEND
  0
LINE
  8
13_KOMPONENTER
 62
7
  6
CONTINUOUS
 10
54.4851270047
 20
226.2052853401
 11
54.688363596
 21
226.0243229025
  0
LINE
  8
13_KOMPONENTER
 62
7
  6
CONTINUOUS
 10
54.4844300836
 20
226.2059701832
 11
54.4849527663
 21
226.2054589935
  0
LINE
  8
13_KOMPONENTER
 62
7
  6
CONTINUOUS
 10
80.9949095023
 20
229.4666878313
 11
80.9949095023
 21
238.1652423375
  0
LINE
  8
13_KOMPONENTER
 62
7
  6
CONTINUOUS
 10
86.9949095023
 20
232.1974542195
 11
86.9949095023
 21
238.3744603484
  0
LINE
  8
13_KOMPONENTER
 62
7
  6
CONTINUOUS
 10
90.9949095023
 20
226.7609447606
 11
90.9949095023
 21
231.0107522548
  0
LINE
  8
13_KOMPONENTER
 62
7
  6
CONTINUOUS
 10
90.9949095023
 20
239.561230743
 11
90.9949095023
 21
243.8109447606
  0
LINE
  8
13_KOMPONENTER
 62
7
  6
CONTINUOUS
 10
90.9962097147
 20
239.5685712605
 11
90.9961991661
 21
239.5684956634
  0
POLYLINE
  8
13_KOMPONENTER
 62
7
  6
CONTINUOUS
 66
1
 70
0
  0
VERTEX
  8
13_KOMPONENTER
 62
7
  6
CONTINUOUS
 10
90.9962097147
 20
239.5685712605
  0
VERTEX
  8
13_KOMPONENTER
 62
7
  6
CONTINUOUS
 10
90.9927492572
 20
239.5490347999
  0
VERTEX
  8
13_KOMPONENTER
 62
7
  6
CONTINUOUS
 10
90.9844489552
 20
239.5153640803
  0
VERTEX
  8
13_KOMPONENTER
 62
7
  6
CONTINUOUS
 10
90.9691072975
 20
239.4686496559
  0
VERTEX
  8
13_KOMPONENTER
 62
7
  6
CONTINUOUS
 10
90.9450459018
 20
239.4119828799
  0
VERTEX
  8
13_KOMPONENTER
 62
7
  6
CONTINUOUS
 10
90.910943078
 20
239.3485367876
  0
VERTEX
  8
13_KOMPONENTER
 62
7
  6
CONTINUOUS
 10
90.8655438138
 20
239.2809864694
  0
VERTEX
  8
13_KOMPONENTER
 62
7
  6
CONTINUOUS
 10
90.8080125501
 20
239.2122495267
  0
VERTEX
  8
13_KOMPONENTER
 62
7
  6
CONTINUOUS
 10
90.7376700507
 20
239.1450918827
  0
VERTEX
  8
13_KOMPONENTER
 62
7
  6
CONTINUOUS
 10
90.6525471838
 20
239.0813532727
  0
VERTEX
  8
13_KOMPONENTER
 62
7
  6
CONTINUOUS
 10
90.5521147889
 20
239.0246750875
  0
VERTEX
  8
13_KOMPONENTER
 62
7
  6
CONTINUOUS
 10
90.4384739545
 20
238.9798524596
  0
VERTEX
  8
13_KOMPONENTER
 62
7
  6
CONTINUOUS
 10
90.3155655922
 20
238.9511020108
  0
VERTEX
  8
13_KOMPONENTER
 62
7
  6
CONTINUOUS
 10
90.2086953164
 20
238.9415137947
  0
SEQEND
  0
POLYLINE
  8
13_KOMPONENTER
 62
7
  6
CONTINUOUS
 66
1
 70
0
  0
VERTEX
  8
13_KOMPONENTER
 62
7
  6
CONTINUOUS
 10
54.8954464924
 20
244.6899940434
  0
VERTEX
  8
13_KOMPONENTER
 62
7
  6
CONTINUOUS
 10
54.6883636519
 20
244.5475666373
  0
VERTEX
  8
13_KOMPONENTER
 62
7
  6
CONTINUOUS
 10
54.4851270226
 20
244.3666042179
  0
SEQEND
  0
LINE
  8
13_KOMPONENTER
 62
7
  6
CONTINUOUS
 10
54.688363596
 20
226.0243229025
 11
54.8954465349
 21
225.8818954407
  0
LINE
  8
13_KOMPONENTER
 62
7
  6
CONTINUOUS
 10
90.9962125102
 20
231.0033239298
 11
90.9962026834
 21
231.0033943488
  0
POLYLINE
  8
13_KOMPONENTER
 62
7
  6
CONTINUOUS
 66
1
 70
0
  0
VERTEX
  8
13_KOMPONENTER
 62
7
  6
CONTINUOUS
 10
55.0267579899
 20
244.7535322217
  0
VERTEX
  8
13_KOMPONENTER
 62
7
  6
CONTINUOUS
 10
54.7549087323
 20
244.5984862593
  0
VERTEX
  8
13_KOMPONENTER
 62
7
  6
CONTINUOUS
 10
54.724927034
 20
244.5727141949
  0
SEQEND
  0
POLYLINE
  8
13_KOMPONENTER
 62
7
  6
CONTINUOUS
 66
1
 70
0
  0
VERTEX
  8
13_KOMPONENTER
 62
7
  6
CONTINUOUS
 10
57.6727578524
 20
226.0172798409
  0
VERTEX
  8
13_KOMPONENTER
 62
7
  6
CONTINUOUS
 10
57.9065593387
 20
225.9003195114
  0
VERTEX
  8
13_KOMPONENTER
 62
7
  6
CONTINUOUS
 10
58.1639764526
 20
225.8115382095
  0
VERTEX
  8
13_KOMPONENTER
 62
7
  6
CONTINUOUS
 10
58.3921089782
 20
225.7693662622
  0
SEQEND
  0
LINE
  8
13_KOMPONENTER
 62
7
  6
CONTINUOUS
 10
57.6727583712
 20
226.0172807489
 11
57.6723546442
 21
226.0175115457
  0
LINE
  8
13_KOMPONENTER
 62
7
  6
CONTINUOUS
 10
102.9949109137
 20
240.025774462
 11
102.9949095023
 21
243.8109447606
  0
LINE
  8
13_KOMPONENTER
 62
7
  6
CONTINUOUS
 10
102.9949095023
 20
226.7609447606
 11
102.9949104298
 21
230.5461649916
  0
LINE
  8
13_KOMPONENTER
 62
7
  6
CONTINUOUS
 10
102.9949104298
 20
230.5461649916
 11
102.9969505765
 21
230.607854076
  0
LINE
  8
13_KOMPONENTER
 62
7
  6
CONTINUOUS
 10
102.9969505765
 20
230.607854076
 11
103.0110653727
 21
230.721633271
  0
POLYLINE
  8
13_KOMPONENTER
 62
7
  6
CONTINUOUS
 66
1
 70
0
  0
VERTEX
  8
13_KOMPONENTER
 62
7
  6
CONTINUOUS
 10
54.8954465349
 20
225.8818954407
  0
VERTEX
  8
13_KOMPONENTER
 62
7
  6
CONTINUOUS
 10
55.1098729646
 20
225.7899649615
  0
VERTEX
  8
13_KOMPONENTER
 62
7
  6
CONTINUOUS
 10
55.3106918101
 20
225.7609458268
  0
SEQEND
  0
POLYLINE
  8
13_KOMPONENTER
 62
7
  6
CONTINUOUS
 66
1
 70
0
  0
VERTEX
  8
13_KOMPONENTER
 62
7
  6
CONTINUOUS
 10
103.0101359183
 20
239.8553886759
  0
VERTEX
  8
13_KOMPONENTER
 62
7
  6
CONTINUOUS
 10
102.9968152978
 20
239.9661576498
  0
VERTEX
  8
13_KOMPONENTER
 62
7
  6
CONTINUOUS
 10
102.9949105264
 20
240.0257744616
  0
SEQEND
  0
LINE
  8
13_KOMPONENTER
 62
7
  6
CONTINUOUS
 10
106.9949095023
 20
238.5359447606
 11
106.9949095023
 21
232.0359447606
  0
LINE
  8
13_KOMPONENTER
 62
7
  6
CONTINUOUS
 10
108.4949095023
 20
225.7609447606
 11
108.4949095023
 21
225.9609447606
  0
LINE
  8
13_KOMPONENTER
 62
7
  6
CONTINUOUS
 10
108.7449095023
 20
225.7609447606
 11
108.7449095023
 21
225.9609447606
  0
LINE
  8
13_KOMPONENTER
 62
7
  6
CONTINUOUS
 10
109.6199095023
 20
225.7687425685
 11
109.6199095023
 21
225.7832361327
  0
LINE
  8
13_KOMPONENTER
 62
7
  6
CONTINUOUS
 10
111.4071435702
 20
225.7613570413
 11
111.4071435702
 21
225.9609447606
  0
LINE
  8
13_KOMPONENTER
 62
7
  6
CONTINUOUS
 10
111.6199095023
 20
225.8059992932
 11
111.6199095023
 21
225.7609447606
  0
POLYLINE
  8
13_KOMPONENTER
 62
7
  6
CONTINUOUS
 66
1
 70
0
  0
VERTEX
  8
13_KOMPONENTER
 62
7
  6
CONTINUOUS
 10
103.0110653727
 20
230.721633271
  0
VERTEX
  8
13_KOMPONENTER
 62
7
  6
CONTINUOUS
 10
103.0407306663
 20
230.8407694543
  0
VERTEX
  8
13_KOMPONENTER
 62
7
  6
CONTINUOUS
 10
103.0876509581
 20
230.9612402812
  0
VERTEX
  8
13_KOMPONENTER
 62
7
  6
CONTINUOUS
 10
103.1528523094
 20
231.0793257393
  0
VERTEX
  8
13_KOMPONENTER
 62
7
  6
CONTINUOUS
 10
103.2371197504
 20
231.1917919855
  0
VERTEX
  8
13_KOMPONENTER
 62
7
  6
CONTINUOUS
 10
103.3404626978
 20
231.2948076279
  0
VERTEX
  8
13_KOMPONENTER
 62
7
  6
CONTINUOUS
 10
103.4613946588
 20
231.3839230228
  0
VERTEX
  8
13_KOMPONENTER
 62
7
  6
CONTINUOUS
 10
103.5965292773
 20
231.4547925966
  0
VERTEX
  8
13_KOMPONENTER
 62
7
  6
CONTINUOUS
 10
103.7412879955
 20
231.5043035295
  0
SEQEND
  0
LINE
  8
13_KOMPONENTER
 62
7
  6
CONTINUOUS
 10
112.9949095023
 20
232.0359447606
 11
112.9949095023
 21
238.5359447606
  0
LINE
  8
13_KOMPONENTER
 62
7
  6
CONTINUOUS
 10
116.9949095023
 20
226.7609447606
 11
116.9949095023
 21
230.5359447606
  0
LINE
  8
13_KOMPONENTER
 62
7
  6
CONTINUOUS
 10
116.9949095023
 20
240.0359447606
 11
116.9949095023
 21
243.8109447606
  0
LINE
  8
13_KOMPONENTER
 62
7
  6
CONTINUOUS
 10
243.178768545
 20
225.7609455134
 11
243.4630610147
 21
225.8183572995
  0
POLYLINE
  8
13_KOMPONENTER
 62
7
  6
CONTINUOUS
 66
1
 70
0
  0
VERTEX
  8
13_KOMPONENTER
 62
7
  6
CONTINUOUS
 10
240.0977100263
 20
225.7693662622
  0
VERTEX
  8
13_KOMPONENTER
 62
7
  6
CONTINUOUS
 10
240.3258425519
 20
225.8115382095
  0
VERTEX
  8
13_KOMPONENTER
 62
7
  6
CONTINUOUS
 10
240.5832596659
 20
225.9003195114
  0
VERTEX
  8
13_KOMPONENTER
 62
7
  6
CONTINUOUS
 10
240.8170611521
 20
226.0172798409
  0
SEQEND
  0
POLYLINE
  8
13_KOMPONENTER
 62
7
  6
CONTINUOUS
 66
1
 70
0
  0
VERTEX
  8
13_KOMPONENTER
 62
7
  6
CONTINUOUS
 10
243.1791270742
 20
225.7609458224
  0
VERTEX
  8
13_KOMPONENTER
 62
7
  6
CONTINUOUS
 10
243.3799457885
 20
225.7899648266
  0
VERTEX
  8
13_KOMPONENTER
 62
7
  6
CONTINUOUS
 10
243.5943725121
 20
225.8818954778
  0
SEQEND
  0
LINE
  8
13_KOMPONENTER
 62
7
  6
CONTINUOUS
 10
128.9949095023
 20
243.8109447606
 11
128.9949095023
 21
240.0359447606
  0
LINE
  8
13_KOMPONENTER
 62
7
  6
CONTINUOUS
 10
128.9949095023
 20
230.5359447606
 11
128.9949095023
 21
226.7609447606
  0
LINE
  8
13_KOMPONENTER
 62
7
  6
CONTINUOUS
 10
240.0973617746
 20
225.7693287151
 11
240.0977101159
 21
225.7693662761
  0
LINE
  8
13_KOMPONENTER
 62
7
  6
CONTINUOUS
 10
58.3921088886
 20
225.7693662761
 11
58.3919688387
 21
225.7693814141
  0
POLYLINE
  8
13_KOMPONENTER
 62
7
  6
CONTINUOUS
 66
1
 70
0
  0
VERTEX
  8
13_KOMPONENTER
 62
7
  6
CONTINUOUS
 10
108.6199095023
 20
225.8446536967
  0
VERTEX
  8
13_KOMPONENTER
 62
7
  6
CONTINUOUS
 10
108.7454133106
 20
225.8002646106
  0
VERTEX
  8
13_KOMPONENTER
 62
7
  6
CONTINUOUS
 10
108.8769514224
 20
225.7711930033
  0
VERTEX
  8
13_KOMPONENTER
 62
7
  6
CONTINUOUS
 10
109.0114966769
 20
225.7609447606
  0
SEQEND
  0
LINE
  8
13_KOMPONENTER
 62
7
  6
CONTINUOUS
 10
132.9949095023
 20
238.5359447606
 11
132.9949095023
 21
232.0359447606
  0
POLYLINE
  8
13_KOMPONENTER
 62
7
  6
CONTINUOUS
 66
1
 70
0
  0
VERTEX
  8
13_KOMPONENTER
 62
7
  6
CONTINUOUS
 10
187.2495697335
 20
225.7609447606
  0
VERTEX
  8
13_KOMPONENTER
 62
7
  6
CONTINUOUS
 10
187.3731897
 20
225.773896825
  0
VERTEX
  8
13_KOMPONENTER
 62
7
  6
CONTINUOUS
 10
187.4969109724
 20
225.8128778618
  0
VERTEX
  8
13_KOMPONENTER
 62
7
  6
CONTINUOUS
 10
187.6199095023
 20
225.8778954588
  0
SEQEND
  0
POLYLINE
  8
13_KOMPONENTER
 62
7
  6
CONTINUOUS
 66
1
 70
0
  0
VERTEX
  8
13_KOMPONENTER
 62
7
  6
CONTINUOUS
 10
240.0219653937
 20
225.7640855012
  0
VERTEX
  8
13_KOMPONENTER
 62
7
  6
CONTINUOUS
 10
240.0597265621
 20
225.7659954945
  0
VERTEX
  8
13_KOMPONENTER
 62
7
  6
CONTINUOUS
 10
240.0973616456
 20
225.7693287012
  0
SEQEND
  0
LINE
  8
13_KOMPONENTER
 62
7
  6
CONTINUOUS
 10
167.4949087256
 20
225.7609415404
 11
167.497921708
 21
225.761015377
  0
LINE
  8
13_KOMPONENTER
 62
7
  6
CONTINUOUS
 10
239.9938918986
 20
225.7635915649
 11
240.0219653937
 21
225.7640855012
  0
LINE
  8
13_KOMPONENTER
 62
7
  6
CONTINUOUS
 10
110.7658931437
 20
225.7787094051
 11
111.4071435702
 21
225.7672754429
  0
LINE
  8
13_KOMPONENTER
 62
7
  6
CONTINUOUS
 10
111.4071435702
 20
225.8176468149
 11
111.6199095023
 21
225.8059992932
  0
LINE
  8
13_KOMPONENTER
 62
7
  6
CONTINUOUS
 10
58.4959176674
 20
225.7635916011
 11
58.3919689678
 21
225.7693814002
  0
POLYLINE
  8
13_KOMPONENTER
 62
7
  6
CONTINUOUS
 66
1
 70
0
  0
VERTEX
  8
13_KOMPONENTER
 62
7
  6
CONTINUOUS
 10
142.0449096121
 20
227.1034372249
  0
VERTEX
  8
13_KOMPONENTER
 62
7
  6
CONTINUOUS
 10
142.0519232277
 20
226.9576111708
  0
VERTEX
  8
13_KOMPONENTER
 62
7
  6
CONTINUOUS
 10
142.0890240632
 20
226.7466007256
  0
VERTEX
  8
13_KOMPONENTER
 62
7
  6
CONTINUOUS
 10
142.1578191448
 20
226.5474506309
  0
VERTEX
  8
13_KOMPONENTER
 62
7
  6
CONTINUOUS
 10
142.2572652236
 20
226.3637144537
  0
VERTEX
  8
13_KOMPONENTER
 62
7
  6
CONTINUOUS
 10
142.3858307989
 20
226.1988043458
  0
VERTEX
  8
13_KOMPONENTER
 62
7
  6
CONTINUOUS
 10
142.5415670277
 20
226.056155017
  0
VERTEX
  8
13_KOMPONENTER
 62
7
  6
CONTINUOUS
 10
142.7197114067
 20
225.9403607814
  0
VERTEX
  8
13_KOMPONENTER
 62
7
  6
CONTINUOUS
 10
142.9127344686
 20
225.854598063
  0
VERTEX
  8
13_KOMPONENTER
 62
7
  6
CONTINUOUS
 10
143.1139118009
 20
225.7983817607
  0
VERTEX
  8
13_KOMPONENTER
 62
7
  6
CONTINUOUS
 10
143.3190054959
 20
225.768603878
  0
VERTEX
  8
13_KOMPONENTER
 62
7
  6
CONTINUOUS
 10
143.5016520193
 20
225.7609447692
  0
SEQEND
  0
LINE
  8
13_KOMPONENTER
 62
7
  6
CONTINUOUS
 10
138.9949095023
 20
232.0359447606
 11
138.9949095023
 21
238.5359447606
  0
LINE
  8
13_KOMPONENTER
 62
7
  6
CONTINUOUS
 10
142.0449095023
 20
243.4687687818
 11
142.0449095023
 21
239.6786299311
  0
LINE
  8
13_KOMPONENTER
 62
7
  6
CONTINUOUS
 10
142.0449095023
 20
231.0012596017
 11
142.0449095023
 21
227.1033114292
  0
LINE
  8
13_KOMPONENTER
 62
7
  6
CONTINUOUS
 10
142.0525589712
 20
239.7127989743
 11
142.0525405965
 21
239.7126830338
  0
POLYLINE
  8
13_KOMPONENTER
 62
7
  6
CONTINUOUS
 66
1
 70
0
  0
VERTEX
  8
13_KOMPONENTER
 62
7
  6
CONTINUOUS
 10
142.0524934617
 20
239.7123894634
  0
VERTEX
  8
13_KOMPONENTER
 62
7
  6
CONTINUOUS
 10
142.0496862762
 20
239.6978294402
  0
VERTEX
  8
13_KOMPONENTER
 62
7
  6
CONTINUOUS
 10
142.0425810837
 20
239.6692712104
  0
VERTEX
  8
13_KOMPONENTER
 62
7
  6
CONTINUOUS
 10
142.0289888994
 20
239.6264658889
  0
VERTEX
  8
13_KOMPONENTER
 62
7
  6
CONTINUOUS
 10
142.0068157989
 20
239.5712013263
  0
VERTEX
  8
13_KOMPONENTER
 62
7
  6
CONTINUOUS
 10
141.974121143
 20
239.5061269102
  0
VERTEX
  8
13_KOMPONENTER
 62
7
  6
CONTINUOUS
 10
141.9293386707
 20
239.434502922
  0
VERTEX
  8
13_KOMPONENTER
 62
7
  6
CONTINUOUS
 10
141.8714255767
 20
239.359912383
  0
VERTEX
  8
13_KOMPONENTER
 62
7
  6
CONTINUOUS
 10
141.8001171153
 20
239.2861851867
  0
VERTEX
  8
13_KOMPONENTER
 62
7
  6
CONTINUOUS
 10
141.7154704787
 20
239.216693047
  0
VERTEX
  8
13_KOMPONENTER
 62
7
  6
CONTINUOUS
 10
141.6175710758
 20
239.1543689976
  0
VERTEX
  8
13_KOMPONENTER
 62
7
  6
CONTINUOUS
 10
141.506980412
 20
239.1022259203
  0
VERTEX
  8
13_KOMPONENTER
 62
7
  6
CONTINUOUS
 10
141.3848453864
 20
239.0633182627
  0
VERTEX
  8
13_KOMPONENTER
 62
7
  6
CONTINUOUS
 10
141.2529146109
 20
239.0406375074
  0
VERTEX
  8
13_KOMPONENTER
 62
7
  6
CONTINUOUS
 10
141.1588179332
 20
239.0359425579
  0
SEQEND
  0
LINE
  8
13_KOMPONENTER
 62
7
  6
CONTINUOUS
 10
194.7522304893
 20
239.068548899
 11
194.6057329459
 21
239.0416287401
  0
POLYLINE
  8
13_KOMPONENTER
 62
7
  6
CONTINUOUS
 66
1
 70
0
  0
VERTEX
  8
13_KOMPONENTER
 62
7
  6
CONTINUOUS
 10
108.3134900057
 20
225.7609447606
  0
VERTEX
  8
13_KOMPONENTER
 62
7
  6
CONTINUOUS
 10
108.4160865076
 20
225.7702562876
  0
VERTEX
  8
13_KOMPONENTER
 62
7
  6
CONTINUOUS
 10
108.5184046603
 20
225.7981927251
  0
VERTEX
  8
13_KOMPONENTER
 62
7
  6
CONTINUOUS
 10
108.6199095023
 20
225.8446536967
  0
SEQEND
  0
POLYLINE
  8
13_KOMPONENTER
 62
7
  6
CONTINUOUS
 66
1
 70
0
  0
VERTEX
  8
13_KOMPONENTER
 62
7
  6
CONTINUOUS
 10
154.9881672088
 20
225.7609447692
  0
VERTEX
  8
13_KOMPONENTER
 62
7
  6
CONTINUOUS
 10
155.1702998588
 20
225.7685593078
  0
VERTEX
  8
13_KOMPONENTER
 62
7
  6
CONTINUOUS
 10
155.3748970858
 20
225.7981720334
  0
VERTEX
  8
13_KOMPONENTER
 62
7
  6
CONTINUOUS
 10
155.575598245
 20
225.8540688555
  0
VERTEX
  8
13_KOMPONENTER
 62
7
  6
CONTINUOUS
 10
155.768208379
 20
225.9393362752
  0
VERTEX
  8
13_KOMPONENTER
 62
7
  6
CONTINUOUS
 10
155.9460570748
 20
226.0544609585
  0
VERTEX
  8
13_KOMPONENTER
 62
7
  6
CONTINUOUS
 10
156.1016669612
 20
226.1962971083
  0
VERTEX
  8
13_KOMPONENTER
 62
7
  6
CONTINUOUS
 10
156.2303294463
 20
226.3603227249
  0
VERTEX
  8
13_KOMPONENTER
 62
7
  6
CONTINUOUS
 10
156.3301153793
 20
226.543181535
  0
VERTEX
  8
13_KOMPONENTER
 62
7
  6
CONTINUOUS
 10
156.3994783356
 20
226.7415381665
  0
VERTEX
  8
13_KOMPONENTER
 62
7
  6
CONTINUOUS
 10
156.4373257567
 20
226.9519033431
  0
VERTEX
  8
13_KOMPONENTER
 62
7
  6
CONTINUOUS
 10
156.444909398
 20
227.1034284944
  0
SEQEND
  0
LINE
  8
13_KOMPONENTER
 62
7
  6
CONTINUOUS
 10
140.9980245409
 20
225.7610679749
 11
141.0750490907
 21
225.7641545265
  0
LINE
  8
13_KOMPONENTER
 62
7
  6
CONTINUOUS
 10
210.0167773578
 20
231.6723268545
 11
211.0079141399
 21
231.6976171871
  0
LINE
  8
13_KOMPONENTER
 62
7
  6
CONTINUOUS
 10
208.281178691
 20
231.630377028
 11
210.0167773578
 21
231.6723268545
  0
POLYLINE
  8
13_KOMPONENTER
 62
7
  6
CONTINUOUS
 66
1
 70
0
  0
VERTEX
  8
13_KOMPONENTER
 62
7
  6
CONTINUOUS
 10
109.6199095023
 20
225.7832361327
  0
VERTEX
  8
13_KOMPONENTER
 62
7
  6
CONTINUOUS
 10
109.9031657911
 20
225.785092175
  0
VERTEX
  8
13_KOMPONENTER
 62
7
  6
CONTINUOUS
 10
110.1847977443
 20
225.784939438
  0
VERTEX
  8
13_KOMPONENTER
 62
7
  6
CONTINUOUS
 10
110.4705088718
 20
225.782744981
  0
VERTEX
  8
13_KOMPONENTER
 62
7
  6
CONTINUOUS
 10
110.7658931437
 20
225.7787094051
  0
SEQEND
  0
LINE
  8
13_KOMPONENTER
 62
7
  6
CONTINUOUS
 10
238.9080364122
 20
225.7612199266
 11
239.9936399531
 21
225.7635893522
  0
LINE
  8
13_KOMPONENTER
 62
7
  6
CONTINUOUS
 10
234.0990624561
 20
225.7609463096
 11
234.9923468702
 21
225.7622841319
  0
LINE
  8
13_KOMPONENTER
 62
7
  6
CONTINUOUS
 10
62.5990640927
 20
225.7609462944
 11
63.4974721343
 21
225.7622841319
  0
LINE
  8
13_KOMPONENTER
 62
7
  6
CONTINUOUS
 10
243.1791270751
 20
225.7609451324
 11
242.9250282605
 21
225.7609447606
  0
LINE
  8
13_KOMPONENTER
 62
7
  6
CONTINUOUS
 10
55.564790744
 20
225.7609447606
 11
55.3112956087
 21
225.7609447606
  0
LINE
  8
13_KOMPONENTER
 62
7
  6
CONTINUOUS
 10
57.9949095023
 20
225.7609447606
 11
240.4949095023
 21
225.7609447606
  0
LINE
  8
13_KOMPONENTER
 62
7
  6
CONTINUOUS
 10
241.5584019223
 20
228.3359447606
 11
241.4949095023
 21
228.3359447606
  0
LINE
  8
13_KOMPONENTER
 62
7
  6
CONTINUOUS
 10
56.9949095023
 20
228.3359447606
 11
56.9314170822
 21
228.3359447606
  0
LINE
  8
13_KOMPONENTER
 62
7
  6
CONTINUOUS
 10
222.4234473399
 20
228.9666762482
 11
217.9949095023
 21
228.9666762482
  0
LINE
  8
13_KOMPONENTER
 62
7
  6
CONTINUOUS
 10
80.4949095023
 20
228.9666762482
 11
76.0663716647
 21
228.9666762482
  0
LINE
  8
13_KOMPONENTER
 62
7
  6
CONTINUOUS
 10
69.2449102123
 20
229.3703289338
 11
70.2449095026
 21
229.3703289338
  0
LINE
  8
13_KOMPONENTER
 62
7
  6
CONTINUOUS
 10
228.244909502
 20
229.3703289338
 11
229.2449087923
 21
229.3703289338
  0
LINE
  8
13_KOMPONENTER
 62
7
  6
CONTINUOUS
 10
141.9421894365
 20
231.5359447606
 11
139.4949095023
 21
231.5359447606
  0
LINE
  8
13_KOMPONENTER
 62
7
  6
CONTINUOUS
 10
132.4949095023
 20
231.5359447606
 11
129.8618399713
 21
231.5359447606
  0
LINE
  8
13_KOMPONENTER
 62
7
  6
CONTINUOUS
 10
116.1279790481
 20
231.5359447606
 11
113.4949095023
 21
231.5359447606
  0
LINE
  8
13_KOMPONENTER
 62
7
  6
CONTINUOUS
 10
106.4949095023
 20
231.5359447606
 11
103.8618399734
 21
231.5359447606
  0
LINE
  8
13_KOMPONENTER
 62
7
  6
CONTINUOUS
 10
156.547629568
 20
231.5359447606
 11
158.9949095023
 21
231.5359447606
  0
LINE
  8
13_KOMPONENTER
 62
7
  6
CONTINUOUS
 10
165.9949095023
 20
231.5359447606
 11
168.6279790332
 21
231.5359447606
  0
LINE
  8
13_KOMPONENTER
 62
7
  6
CONTINUOUS
 10
182.3618399565
 20
231.5359447606
 11
184.9949095023
 21
231.5359447606
  0
LINE
  8
13_KOMPONENTER
 62
7
  6
CONTINUOUS
 10
191.9949095023
 20
231.5359447606
 11
194.6279790312
 21
231.5359447606
  0
LINE
  8
13_KOMPONENTER
 62
7
  6
CONTINUOUS
 10
63.4974721343
 20
225.7622841319
 11
64.1416173129
 21
225.7612582574
  0
LINE
  8
13_KOMPONENTER
 62
7
  6
CONTINUOUS
 10
234.9923468702
 20
225.7622841319
 11
235.6364972911
 21
225.7612689575
  0
LINE
  8
13_KOMPONENTER
 62
7
  6
CONTINUOUS
 10
58.4961790514
 20
225.7635893522
 11
59.5817825923
 21
225.7612199266
  0
LINE
  8
13_KOMPONENTER
 62
7
  6
CONTINUOUS
 10
190.0434645658
 20
225.7609447606
 11
189.7572524103
 21
225.7618740176
  0
LINE
  8
13_KOMPONENTER
 62
7
  6
CONTINUOUS
 10
188.9050568322
 20
225.76853631
 11
188.6199095023
 21
225.7697551711
  0
POLYLINE
  8
13_KOMPONENTER
 62
7
  6
CONTINUOUS
 66
1
 70
0
  0
VERTEX
  8
13_KOMPONENTER
 62
7
  6
CONTINUOUS
 10
110.4686568619
 20
225.768476877
  0
VERTEX
  8
13_KOMPONENTER
 62
7
  6
CONTINUOUS
 10
110.1831208607
 20
225.7697417373
  0
VERTEX
  8
13_KOMPONENTER
 62
7
  6
CONTINUOUS
 10
109.902075974
 20
225.7698220907
  0
VERTEX
  8
13_KOMPONENTER
 62
7
  6
CONTINUOUS
 10
109.6199095023
 20
225.7687425685
  0
SEQEND
  0
LINE
  8
13_KOMPONENTER
 62
7
  6
CONTINUOUS
 10
130.985499183
 20
225.7609618683
 11
130.9946955301
 21
225.7609195758
  0
POLYLINE
  8
13_KOMPONENTER
 62
7
  6
CONTINUOUS
 66
1
 70
0
  0
VERTEX
  8
13_KOMPONENTER
 62
7
  6
CONTINUOUS
 10
188.6199095023
 20
225.7849754658
  0
VERTEX
  8
13_KOMPONENTER
 62
7
  6
CONTINUOUS
 10
188.9176457406
 20
225.7827421717
  0
VERTEX
  8
13_KOMPONENTER
 62
7
  6
CONTINUOUS
 10
189.2151739916
 20
225.7787022095
  0
SEQEND
  0
LINE
  8
13_KOMPONENTER
 62
7
  6
CONTINUOUS
 10
111.4071435702
 20
225.7613570413
 11
110.4686568619
 21
225.768476877
  0
LINE
  8
13_KOMPONENTER
 62
7
  6
CONTINUOUS
 10
189.7572524103
 20
225.7618740176
 11
188.9050568322
 21
225.76853631
  0
POLYLINE
  8
13_KOMPONENTER
 62
7
  6
CONTINUOUS
 66
1
 70
0
  0
VERTEX
  8
13_KOMPONENTER
 62
7
  6
CONTINUOUS
 10
189.2151739916
 20
225.7787022095
  0
VERTEX
  8
13_KOMPONENTER
 62
7
  6
CONTINUOUS
 10
189.8103695763
 20
225.7681182897
  0
VERTEX
  8
13_KOMPONENTER
 62
7
  6
CONTINUOUS
 10
190.1084519286
 20
225.763551839
  0
VERTEX
  8
13_KOMPONENTER
 62
7
  6
CONTINUOUS
 10
190.4071435702
 20
225.761076759
  0
SEQEND
  0
POLYLINE
  8
13_KOMPONENTER
 62
7
  6
CONTINUOUS
 66
1
 70
0
  0
VERTEX
  8
13_KOMPONENTER
 62
7
  6
CONTINUOUS
 10
87.4819048647
 20
231.6976171871
  0
VERTEX
  8
13_KOMPONENTER
 62
7
  6
CONTINUOUS
 10
88.4730416467
 20
231.6723268545
  0
VERTEX
  8
13_KOMPONENTER
 62
7
  6
CONTINUOUS
 10
90.2086403135
 20
231.630377028
  0
SEQEND
  0
POLYLINE
  8
13_KOMPONENTER
 62
7
  6
CONTINUOUS
 66
1
 70
0
  0
VERTEX
  8
13_KOMPONENTER
 62
7
  6
CONTINUOUS
 10
70.2449095025
 20
229.3703348608
  0
VERTEX
  8
13_KOMPONENTER
 62
7
  6
CONTINUOUS
 10
70.3011309078
 20
229.3681903903
  0
VERTEX
  8
13_KOMPONENTER
 62
7
  6
CONTINUOUS
 10
70.3824042015
 20
229.3576371716
  0
VERTEX
  8
13_KOMPONENTER
 62
7
  6
CONTINUOUS
 10
70.464581359
 20
229.338460922
  0
VERTEX
  8
13_KOMPONENTER
 62
7
  6
CONTINUOUS
 10
70.5448249443
 20
229.3120866626
  0
VERTEX
  8
13_KOMPONENTER
 62
7
  6
CONTINUOUS
 10
70.6233123475
 20
229.2795148401
  0
VERTEX
  8
13_KOMPONENTER
 62
7
  6
CONTINUOUS
 10
70.7000423359
 20
229.2416482875
  0
VERTEX
  8
13_KOMPONENTER
 62
7
  6
CONTINUOUS
 10
70.7748331591
 20
229.1992627014
  0
VERTEX
  8
13_KOMPONENTER
 62
7
  6
CONTINUOUS
 10
70.8479186513
 20
229.1528553513
  0
VERTEX
  8
13_KOMPONENTER
 62
7
  6
CONTINUOUS
 10
70.9192727076
 20
229.102859065
  0
VERTEX
  8
13_KOMPONENTER
 62
7
  6
CONTINUOUS
 10
70.9888643499
 20
229.0496942712
  0
VERTEX
  8
13_KOMPONENTER
 62
7
  6
CONTINUOUS
 10
71.0564689248
 20
228.9938416342
  0
VERTEX
  8
13_KOMPONENTER
 62
7
  6
CONTINUOUS
 10
71.1221436282
 20
228.9355215615
  0
VERTEX
  8
13_KOMPONENTER
 62
7
  6
CONTINUOUS
 10
71.1858195506
 20
228.8750145972
  0
VERTEX
  8
13_KOMPONENTER
 62
7
  6
CONTINUOUS
 10
71.2474899278
 20
228.8124739627
  0
VERTEX
  8
13_KOMPONENTER
 62
7
  6
CONTINUOUS
 10
71.3071616165
 20
228.7479920521
  0
VERTEX
  8
13_KOMPONENTER
 62
7
  6
CONTINUOUS
 10
71.364768587
 20
228.6816740663
  0
VERTEX
  8
13_KOMPONENTER
 62
7
  6
CONTINUOUS
 10
71.4200952407
 20
228.6137485025
  0
VERTEX
  8
13_KOMPONENTER
 62
7
  6
CONTINUOUS
 10
71.4730744217
 20
228.5442061063
  0
VERTEX
  8
13_KOMPONENTER
 62
7
  6
CONTINUOUS
 10
71.5235561407
 20
228.4730457279
  0
VERTEX
  8
13_KOMPONENTER
 62
7
  6
CONTINUOUS
 10
71.5709859682
 20
228.400766973
  0
VERTEX
  8
13_KOMPONENTER
 62
7
  6
CONTINUOUS
 10
71.6144696151
 20
228.3284320553
  0
VERTEX
  8
13_KOMPONENTER
 62
7
  6
CONTINUOUS
 10
71.653088958
 20
228.2573559368
  0
VERTEX
  8
13_KOMPONENTER
 62
7
  6
CONTINUOUS
 10
71.6858074216
 20
228.1894386865
  0
VERTEX
  8
13_KOMPONENTER
 62
7
  6
CONTINUOUS
 10
71.7117354208
 20
228.1269161046
  0
VERTEX
  8
13_KOMPONENTER
 62
7
  6
CONTINUOUS
 10
71.7301936444
 20
228.0727069291
  0
VERTEX
  8
13_KOMPONENTER
 62
7
  6
CONTINUOUS
 10
71.7413065203
 20
228.0289402706
  0
SEQEND
  0
LINE
  8
13_KOMPONENTER
 62
7
  6
CONTINUOUS
 10
157.4949102283
 20
225.760943119
 11
157.4147698914
 21
225.7641545283
  0
LINE
  8
13_KOMPONENTER
 62
7
  6
CONTINUOUS
 10
190.4071435702
 20
225.7885076769
 11
190.6199095023
 21
225.7785251184
  0
POLYLINE
  8
13_KOMPONENTER
 62
7
  6
CONTINUOUS
 66
1
 70
0
  0
VERTEX
  8
13_KOMPONENTER
 62
7
  6
CONTINUOUS
 10
141.1588371331
 20
231.535946701
  0
VERTEX
  8
13_KOMPONENTER
 62
7
  6
CONTINUOUS
 10
141.2624900841
 20
231.5302460833
  0
VERTEX
  8
13_KOMPONENTER
 62
7
  6
CONTINUOUS
 10
141.4027851574
 20
231.5039803534
  0
VERTEX
  8
13_KOMPONENTER
 62
7
  6
CONTINUOUS
 10
141.5315516125
 20
231.459564051
  0
VERTEX
  8
13_KOMPONENTER
 62
7
  6
CONTINUOUS
 10
141.6467576732
 20
231.4006878965
  0
VERTEX
  8
13_KOMPONENTER
 62
7
  6
CONTINUOUS
 10
141.7471154653
 20
231.3311422173
  0
VERTEX
  8
13_KOMPONENTER
 62
7
  6
CONTINUOUS
 10
141.8321107387
 20
231.2546518079
  0
VERTEX
  8
13_KOMPONENTER
 62
7
  6
CONTINUOUS
 10
141.9017374871
 20
231.1749639899
  0
VERTEX
  8
13_KOMPONENTER
 62
7
  6
CONTINUOUS
 10
141.9560680119
 20
231.0965360952
  0
VERTEX
  8
13_KOMPONENTER
 62
7
  6
CONTINUOUS
 10
141.9960041817
 20
231.0238568655
  0
VERTEX
  8
13_KOMPONENTER
 62
7
  6
CONTINUOUS
 10
142.0232334854
 20
230.9610576616
  0
VERTEX
  8
13_KOMPONENTER
 62
7
  6
CONTINUOUS
 10
142.0399997536
 20
230.9116081018
  0
VERTEX
  8
13_KOMPONENTER
 62
7
  6
CONTINUOUS
 10
142.0488057153
 20
230.8780484932
  0
VERTEX
  8
13_KOMPONENTER
 62
7
  6
CONTINUOUS
 10
142.0522586963
 20
230.8609125047
  0
VERTEX
  8
13_KOMPONENTER
 62
7
  6
CONTINUOUS
 10
142.0525556029
 20
230.8591090659
  0
SEQEND
  0
LINE
  8
13_KOMPONENTER
 62
7
  6
CONTINUOUS
 10
157.4308557811
 20
225.7631266774
 11
157.4482589128
 21
225.7620832652
  0
LINE
  8
13_KOMPONENTER
 62
7
  6
CONTINUOUS
 10
157.4308557811
 20
225.7631266774
 11
157.4444852622
 21
225.7622075675
  0
POLYLINE
  8
13_KOMPONENTER
 62
7
  6
CONTINUOUS
 66
1
 70
0
  0
VERTEX
  8
13_KOMPONENTER
 62
7
  6
CONTINUOUS
 10
90.2086870182
 20
231.6303765242
  0
VERTEX
  8
13_KOMPONENTER
 62
7
  6
CONTINUOUS
 10
90.307250746
 20
231.6220414197
  0
VERTEX
  8
13_KOMPONENTER
 62
7
  6
CONTINUOUS
 10
90.423113873
 20
231.5967036796
  0
VERTEX
  8
13_KOMPONENTER
 62
7
  6
CONTINUOUS
 10
90.5324709856
 20
231.5563258262
  0
VERTEX
  8
13_KOMPONENTER
 62
7
  6
CONTINUOUS
 10
90.6319711499
 20
231.5036271709
  0
VERTEX
  8
13_KOMPONENTER
 62
7
  6
CONTINUOUS
 10
90.7194696285
 20
231.441851984
  0
VERTEX
  8
13_KOMPONENTER
 62
7
  6
CONTINUOUS
 10
90.7939072011
 20
231.3743919841
  0
VERTEX
  8
13_KOMPONENTER
 62
7
  6
CONTINUOUS
 10
90.855197339
 20
231.3044344191
  0
VERTEX
  8
13_KOMPONENTER
 62
7
  6
CONTINUOUS
 10
90.9037584274
 20
231.2350948053
  0
VERTEX
  8
13_KOMPONENTER
 62
7
  6
CONTINUOUS
 10
90.9403378045
 20
231.1695958829
  0
VERTEX
  8
13_KOMPONENTER
 62
7
  6
CONTINUOUS
 10
90.9662486044
 20
231.1107751603
  0
VERTEX
  8
13_KOMPONENTER
 62
7
  6
CONTINUOUS
 10
90.9829612369
 20
231.0616886907
  0
VERTEX
  8
13_KOMPONENTER
 62
7
  6
CONTINUOUS
 10
90.9921240827
 20
231.0258249855
  0
VERTEX
  8
13_KOMPONENTER
 62
7
  6
CONTINUOUS
 10
90.9959510064
 20
231.0051163675
  0
VERTEX
  8
13_KOMPONENTER
 62
7
  6
CONTINUOUS
 10
90.9962095162
 20
231.0033235109
  0
SEQEND
  0
POLYLINE
  8
13_KOMPONENTER
 62
7
  6
CONTINUOUS
 66
1
 70
0
  0
VERTEX
  8
13_KOMPONENTER
 62
7
  6
CONTINUOUS
 10
103.8886151092
 20
239.0411532121
  0
VERTEX
  8
13_KOMPONENTER
 62
7
  6
CONTINUOUS
 10
103.7424840794
 20
239.0672779059
  0
VERTEX
  8
13_KOMPONENTER
 62
7
  6
CONTINUOUS
 10
103.6022860797
 20
239.1146409242
  0
VERTEX
  8
13_KOMPONENTER
 62
7
  6
CONTINUOUS
 10
103.4704395995
 20
239.1823674071
  0
VERTEX
  8
13_KOMPONENTER
 62
7
  6
CONTINUOUS
 10
103.3493637508
 20
239.269513611
  0
VERTEX
  8
13_KOMPONENTER
 62
7
  6
CONTINUOUS
 10
103.241632268
 20
239.3749225481
  0
VERTEX
  8
13_KOMPONENTER
 62
7
  6
CONTINUOUS
 10
103.1518409958
 20
239.4941366215
  0
VERTEX
  8
13_KOMPONENTER
 62
7
  6
CONTINUOUS
 10
103.0844176095
 20
239.6176494042
  0
VERTEX
  8
13_KOMPONENTER
 62
7
  6
CONTINUOUS
 10
103.0383480289
 20
239.7387651638
  0
VERTEX
  8
13_KOMPONENTER
 62
7
  6
CONTINUOUS
 10
103.0101359183
 20
239.8553886759
  0
SEQEND
  0
LINE
  8
13_KOMPONENTER
 62
7
  6
CONTINUOUS
 10
142.0525587847
 20
230.8591095702
 11
142.0525428227
 21
230.8592102767
  0
LINE
  8
13_KOMPONENTER
 62
7
  6
CONTINUOUS
 10
147.2949095023
 20
229.9293102168
 11
147.2949095023
 21
234.985944963
  0
LINE
  8
13_KOMPONENTER
 62
7
  6
CONTINUOUS
 10
210.6101784544
 20
243.8048577283
 11
210.608661688
 21
243.8046410011
  0
LINE
  8
13_KOMPONENTER
 62
7
  6
CONTINUOUS
 10
150.8949095023
 20
235.2859447606
 11
147.5949095023
 21
235.2859447606
  0
LINE
  8
DEFAULT_1
 62
2
  6
CENTER
 10
50.2251246363
 20
235.2859447606
 11
248.5449646894
 21
235.2859447606
  0
POLYLINE
  8
13_KOMPONENTER
 62
7
  6
CONTINUOUS
 66
1
 70
0
  0
VERTEX
  8
13_KOMPONENTER
 62
7
  6
CONTINUOUS
 10
229.2449087881
 20
229.3703347204
  0
VERTEX
  8
13_KOMPONENTER
 62
7
  6
CONTINUOUS
 10
229.2990613313
 20
229.368340763
  0
VERTEX
  8
13_KOMPONENTER
 62
7
  6
CONTINUOUS
 10
229.3803608056
 20
229.3580070122
  0
VERTEX
  8
13_KOMPONENTER
 62
7
  6
CONTINUOUS
 10
229.462614317
 20
229.3390181053
  0
VERTEX
  8
13_KOMPONENTER
 62
7
  6
CONTINUOUS
 10
229.5429074076
 20
229.3127967679
  0
VERTEX
  8
13_KOMPONENTER
 62
7
  6
CONTINUOUS
 10
229.6214234797
 20
229.2803771139
  0
VERTEX
  8
13_KOMPONENTER
 62
7
  6
CONTINUOUS
 10
229.6982299902
 20
229.2426054352
  0
VERTEX
  8
13_KOMPONENTER
 62
7
  6
CONTINUOUS
 10
229.7730153848
 20
229.2003578409
  0
VERTEX
  8
13_KOMPONENTER
 62
7
  6
CONTINUOUS
 10
229.8461548271
 20
229.1540286805
  0
VERTEX
  8
13_KOMPONENTER
 62
7
  6
CONTINUOUS
 10
229.917515195
 20
229.1041486828
  0
VERTEX
  8
13_KOMPONENTER
 62
7
  6
CONTINUOUS
 10
229.9871217128
 20
229.0510763501
  0
VERTEX
  8
13_KOMPONENTER
 62
7
  6
CONTINUOUS
 10
230.0547626957
 20
228.9953043525
  0
VERTEX
  8
13_KOMPONENTER
 62
7
  6
CONTINUOUS
 10
230.1204488708
 20
228.9370783259
  0
VERTEX
  8
13_KOMPONENTER
 62
7
  6
CONTINUOUS
 10
230.1841690288
 20
228.8766328197
  0
VERTEX
  8
13_KOMPONENTER
 62
7
  6
CONTINUOUS
 10
230.245884665
 20
228.8141538023
  0
VERTEX
  8
13_KOMPONENTER
 62
7
  6
CONTINUOUS
 10
230.3056164064
 20
228.7497143362
  0
VERTEX
  8
13_KOMPONENTER
 62
7
  6
CONTINUOUS
 10
230.363303381
 20
228.683413688
  0
VERTEX
  8
13_KOMPONENTER
 62
7
  6
CONTINUOUS
 10
230.4187339789
 20
228.6154737459
  0
VERTEX
  8
13_KOMPONENTER
 62
7
  6
CONTINUOUS
 10
230.471837726
 20
228.5458863035
  0
VERTEX
  8
13_KOMPONENTER
 62
7
  6
CONTINUOUS
 10
230.5224523236
 20
228.4746603179
  0
VERTEX
  8
13_KOMPONENTER
 62
7
  6
CONTINUOUS
 10
230.5700330003
 20
228.4022791383
  0
VERTEX
  8
13_KOMPONENTER
 62
7
  6
CONTINUOUS
 10
230.613659109
 20
228.3298469971
  0
VERTEX
  8
13_KOMPONENTER
 62
7
  6
CONTINUOUS
 10
230.6524001097
 20
228.2586965195
  0
VERTEX
  8
13_KOMPONENTER
 62
7
  6
CONTINUOUS
 10
230.6852605349
 20
228.1906547055
  0
VERTEX
  8
13_KOMPONENTER
 62
7
  6
CONTINUOUS
 10
230.7113200803
 20
228.1280142742
  0
VERTEX
  8
13_KOMPONENTER
 62
7
  6
CONTINUOUS
 10
230.7299243262
 20
228.073603515
  0
VERTEX
  8
13_KOMPONENTER
 62
7
  6
CONTINUOUS
 10
230.7407256281
 20
228.0317872016
  0
VERTEX
  8
13_KOMPONENTER
 62
7
  6
CONTINUOUS
 10
230.7446485299
 20
228.0078882204
  0
VERTEX
  8
13_KOMPONENTER
 62
7
  6
CONTINUOUS
 10
230.7449086167
 20
228.0056467845
  0
SEQEND
  0
LINE
  8
13_KOMPONENTER
 62
7
  6
CONTINUOUS
 10
151.1949095023
 20
229.9293102168
 11
151.1949095023
 21
234.985944963
  0
LINE
  8
13_KOMPONENTER
 62
7
  6
CONTINUOUS
 10
156.4449095023
 20
227.1031210847
 11
156.4449095023
 21
230.8929053897
  0
LINE
  8
13_KOMPONENTER
 62
7
  6
CONTINUOUS
 10
156.4449095023
 20
239.5706001287
 11
156.4449095023
 21
243.4685779237
  0
LINE
  8
13_KOMPONENTER
 62
7
  6
CONTINUOUS
 10
103.7412879955
 20
231.5043035295
 11
103.890350632
 21
231.5309130364
  0
POLYLINE
  8
13_KOMPONENTER
 62
7
  6
CONTINUOUS
 66
1
 70
0
  0
VERTEX
  8
13_KOMPONENTER
 62
7
  6
CONTINUOUS
 10
80.4778760169
 20
238.6649525373
  0
VERTEX
  8
13_KOMPONENTER
 62
7
  6
CONTINUOUS
 10
79.0263482297
 20
238.6140422575
  0
VERTEX
  8
13_KOMPONENTER
 62
7
  6
CONTINUOUS
 10
75.6235413766
 20
238.4826196035
  0
SEQEND
  0
LINE
  8
13_KOMPONENTER
 62
7
  6
CONTINUOUS
 10
90.2086349473
 20
238.9415129283
 11
87.4819076463
 21
238.8742976208
  0
LINE
  8
13_KOMPONENTER
 62
7
  6
CONTINUOUS
 10
210.6170254234
 20
243.8049447606
 11
210.6101784544
 21
243.8048577283
  0
LINE
  8
13_KOMPONENTER
 62
7
  6
CONTINUOUS
 10
194.6279790428
 20
239.0359447606
 11
191.9949095023
 21
239.0359447606
  0
LINE
  8
13_KOMPONENTER
 62
7
  6
CONTINUOUS
 10
184.9949095023
 20
239.0359447606
 11
182.3618399687
 21
239.0359447606
  0
LINE
  8
13_KOMPONENTER
 62
7
  6
CONTINUOUS
 10
168.6279790454
 20
239.0359447606
 11
165.9949095023
 21
239.0359447606
  0
LINE
  8
13_KOMPONENTER
 62
7
  6
CONTINUOUS
 10
158.9949095023
 20
239.0359447606
 11
156.5476295727
 21
239.0359447606
  0
LINE
  8
13_KOMPONENTER
 62
7
  6
CONTINUOUS
 10
103.8618399617
 20
239.0359447606
 11
106.4949095023
 21
239.0359447606
  0
LINE
  8
13_KOMPONENTER
 62
7
  6
CONTINUOUS
 10
113.4949095023
 20
239.0359447606
 11
116.1279790358
 21
239.0359447606
  0
LINE
  8
13_KOMPONENTER
 62
7
  6
CONTINUOUS
 10
129.8618399591
 20
239.0359447606
 11
132.4949095023
 21
239.0359447606
  0
LINE
  8
13_KOMPONENTER
 62
7
  6
CONTINUOUS
 10
139.4949095023
 20
239.0359447606
 11
141.9421894319
 21
239.0359447606
  0
LINE
  8
13_KOMPONENTER
 62
7
  6
CONTINUOUS
 10
56.9314170822
 20
242.2359447606
 11
57.7844615956
 21
242.2359447606
  0
LINE
  8
13_KOMPONENTER
 62
7
  6
CONTINUOUS
 10
240.7053574048
 20
242.2359447606
 11
241.5584019223
 21
242.2359447606
  0
LINE
  8
13_KOMPONENTER
 62
7
  6
CONTINUOUS
 10
75.9949095023
 20
242.2609447606
 11
57.9949095023
 21
242.2609447606
  0
LINE
  8
13_KOMPONENTER
 62
7
  6
CONTINUOUS
 10
222.4949095023
 20
242.2609447606
 11
240.4949095023
 21
242.2609447606
  0
LINE
  8
13_KOMPONENTER
 62
7
  6
CONTINUOUS
 10
233.5449095016
 20
242.2859447606
 11
236.4449095032
 21
242.2859447606
  0
LINE
  8
13_KOMPONENTER
 62
7
  6
CONTINUOUS
 10
219.1376131736
 20
243.0109447606
 11
209.8522041878
 21
243.0109447606
  0
LINE
  8
13_KOMPONENTER
 62
7
  6
CONTINUOUS
 10
193.1971761231
 20
243.0109447606
 11
183.7926425747
 21
243.0109447606
  0
LINE
  8
13_KOMPONENTER
 62
7
  6
CONTINUOUS
 10
167.1971764521
 20
243.0109447606
 11
157.7926429032
 21
243.0109447606
  0
LINE
  8
13_KOMPONENTER
 62
7
  6
CONTINUOUS
 10
79.3522058309
 20
243.0109447606
 11
88.6376148167
 21
243.0109447606
  0
LINE
  8
13_KOMPONENTER
 62
7
  6
CONTINUOUS
 10
105.2926428815
 20
243.0109447606
 11
114.6971764298
 21
243.0109447606
  0
LINE
  8
13_KOMPONENTER
 62
7
  6
CONTINUOUS
 10
131.2926425524
 20
243.0109447606
 11
140.6971761013
 21
243.0109447606
  0
LINE
  8
13_KOMPONENTER
 62
7
  6
CONTINUOUS
 10
78.9949095023
 20
243.8049447606
 11
87.8727908291
 21
243.8049447606
  0
LINE
  8
13_KOMPONENTER
 62
7
  6
CONTINUOUS
 10
210.6170281754
 20
243.8049447606
 11
219.4949095023
 21
243.8049447606
  0
LINE
  8
13_KOMPONENTER
 62
7
  6
CONTINUOUS
 10
87.8727935811
 20
243.8049447606
 11
87.8796405501
 21
243.8048577283
  0
LINE
  8
13_KOMPONENTER
 62
7
  6
CONTINUOUS
 10
211.0079113288
 20
238.8742976216
 11
208.2811838228
 21
238.9415129338
  0
POLYLINE
  8
13_KOMPONENTER
 62
7
  6
CONTINUOUS
 66
1
 70
0
  0
VERTEX
  8
13_KOMPONENTER
 62
7
  6
CONTINUOUS
 10
222.8662895521
 20
238.4826191111
  0
VERTEX
  8
13_KOMPONENTER
 62
7
  6
CONTINUOUS
 10
219.4504261409
 20
238.6145128223
  0
VERTEX
  8
13_KOMPONENTER
 62
7
  6
CONTINUOUS
 10
218.0119430607
 20
238.6649525347
  0
SEQEND
  0
POLYLINE
  8
13_KOMPONENTER
 62
7
  6
CONTINUOUS
 66
1
 70
0
  0
VERTEX
  8
13_KOMPONENTER
 62
7
  6
CONTINUOUS
 10
157.3310020966
 20
239.0359425582
  0
VERTEX
  8
13_KOMPONENTER
 62
7
  6
CONTINUOUS
 10
157.2335351411
 20
239.040980373
  0
VERTEX
  8
13_KOMPONENTER
 62
7
  6
CONTINUOUS
 10
157.101974251
 20
239.0640600746
  0
VERTEX
  8
13_KOMPONENTER
 62
7
  6
CONTINUOUS
 10
156.9802166997
 20
239.1032654914
  0
VERTEX
  8
13_KOMPONENTER
 62
7
  6
CONTINUOUS
 10
156.8700019183
 20
239.1556154043
  0
VERTEX
  8
13_KOMPONENTER
 62
7
  6
CONTINUOUS
 10
156.7724715357
 20
239.2180614231
  0
VERTEX
  8
13_KOMPONENTER
 62
7
  6
CONTINUOUS
 10
156.6881855359
 20
239.2875905942
  0
VERTEX
  8
13_KOMPONENTER
 62
7
  6
CONTINUOUS
 10
156.6172251389
 20
239.3612670878
  0
VERTEX
  8
13_KOMPONENTER
 62
7
  6
CONTINUOUS
 10
156.5596315598
 20
239.4357266617
  0
VERTEX
  8
13_KOMPONENTER
 62
7
  6
CONTINUOUS
 10
156.5151287544
 20
239.5071470065
  0
VERTEX
  8
13_KOMPONENTER
 62
7
  6
CONTINUOUS
 10
156.4826616279
 20
239.5719661507
  0
VERTEX
  8
13_KOMPONENTER
 62
7
  6
CONTINUOUS
 10
156.4606534634
 20
239.6269641457
  0
VERTEX
  8
13_KOMPONENTER
 62
7
  6
CONTINUOUS
 10
156.4471642861
 20
239.6695358167
  0
VERTEX
  8
13_KOMPONENTER
 62
7
  6
CONTINUOUS
 10
156.4401112186
 20
239.6979291507
  0
VERTEX
  8
13_KOMPONENTER
 62
7
  6
CONTINUOUS
 10
156.4395694779
 20
239.7004830588
  0
SEQEND
  0
POLYLINE
  8
13_KOMPONENTER
 62
7
  6
CONTINUOUS
 66
1
 70
0
  0
VERTEX
  8
13_KOMPONENTER
 62
7
  6
CONTINUOUS
 10
208.2810761755
 20
238.9415148856
  0
VERTEX
  8
13_KOMPONENTER
 62
7
  6
CONTINUOUS
 10
208.1900041788
 20
238.9488005709
  0
VERTEX
  8
13_KOMPONENTER
 62
7
  6
CONTINUOUS
 10
208.065905456
 20
238.9754217269
  0
VERTEX
  8
13_KOMPONENTER
 62
7
  6
CONTINUOUS
 10
207.9501788809
 20
239.0188201056
  0
VERTEX
  8
13_KOMPONENTER
 62
7
  6
CONTINUOUS
 10
207.8473284343
 20
239.0748532079
  0
VERTEX
  8
13_KOMPONENTER
 62
7
  6
CONTINUOUS
 10
207.7599150726
 20
239.1385646686
  0
VERTEX
  8
13_KOMPONENTER
 62
7
  6
CONTINUOUS
 10
207.6877066766
 20
239.2059916956
  0
VERTEX
  8
13_KOMPONENTER
 62
7
  6
CONTINUOUS
 10
207.6285220712
 20
239.2753617717
  0
VERTEX
  8
13_KOMPONENTER
 62
7
  6
CONTINUOUS
 10
207.5817002926
 20
239.343865802
  0
VERTEX
  8
13_KOMPONENTER
 62
7
  6
CONTINUOUS
 10
207.5464903535
 20
239.4084072533
  0
VERTEX
  8
13_KOMPONENTER
 62
7
  6
CONTINUOUS
 10
207.5216425115
 20
239.4661659217
  0
VERTEX
  8
13_KOMPONENTER
 62
7
  6
CONTINUOUS
 10
207.5057693016
 20
239.5139601596
  0
VERTEX
  8
13_KOMPONENTER
 62
7
  6
CONTINUOUS
 10
207.4971919096
 20
239.5484466205
  0
VERTEX
  8
13_KOMPONENTER
 62
7
  6
CONTINUOUS
 10
207.4936090388
 20
239.5685730602
  0
SEQEND
  0
POLYLINE
  8
13_KOMPONENTER
 62
7
  6
CONTINUOUS
 66
1
 70
0
  0
VERTEX
  8
13_KOMPONENTER
 62
7
  6
CONTINUOUS
 10
194.6037512197
 20
231.53047148
  0
VERTEX
  8
13_KOMPONENTER
 62
7
  6
CONTINUOUS
 10
194.7533523343
 20
231.503045622
  0
VERTEX
  8
13_KOMPONENTER
 62
7
  6
CONTINUOUS
 10
194.8985979179
 20
231.4524900045
  0
VERTEX
  8
13_KOMPONENTER
 62
7
  6
CONTINUOUS
 10
195.0339321918
 20
231.3804476156
  0
VERTEX
  8
13_KOMPONENTER
 62
7
  6
CONTINUOUS
 10
195.1546156104
 20
231.2902503572
  0
VERTEX
  8
13_KOMPONENTER
 62
7
  6
CONTINUOUS
 10
195.2572215754
 20
231.1865325947
  0
VERTEX
  8
13_KOMPONENTER
 62
7
  6
CONTINUOUS
 10
195.3404540962
 20
231.0738743493
  0
VERTEX
  8
13_KOMPONENTER
 62
7
  6
CONTINUOUS
 10
195.4045844563
 20
230.9560222792
  0
VERTEX
  8
13_KOMPONENTER
 62
7
  6
CONTINUOUS
 10
195.4505818007
 20
230.8360029109
  0
VERTEX
  8
13_KOMPONENTER
 62
7
  6
CONTINUOUS
 10
195.4795241541
 20
230.717389924
  0
SEQEND
  0
POLYLINE
  8
13_KOMPONENTER
 62
7
  6
CONTINUOUS
 66
1
 70
0
  0
VERTEX
  8
13_KOMPONENTER
 62
7
  6
CONTINUOUS
 10
187.6199095023
 20
225.8778954588
  0
VERTEX
  8
13_KOMPONENTER
 62
7
  6
CONTINUOUS
 10
187.7049959625
 20
225.8367408126
  0
VERTEX
  8
13_KOMPONENTER
 62
7
  6
CONTINUOUS
 10
187.7905656368
 20
225.804130409
  0
VERTEX
  8
13_KOMPONENTER
 62
7
  6
CONTINUOUS
 10
187.8765807471
 20
225.7803864801
  0
VERTEX
  8
13_KOMPONENTER
 62
7
  6
CONTINUOUS
 10
187.9629816772
 20
225.7658685551
  0
VERTEX
  8
13_KOMPONENTER
 62
7
  6
CONTINUOUS
 10
188.0496900567
 20
225.7609447606
  0
SEQEND
  0
POLYLINE
  8
13_KOMPONENTER
 62
7
  6
CONTINUOUS
 66
1
 70
0
  0
VERTEX
  8
13_KOMPONENTER
 62
7
  6
CONTINUOUS
 10
156.4449093862
 20
243.4684625653
  0
VERTEX
  8
13_KOMPONENTER
 62
7
  6
CONTINUOUS
 10
156.4373532306
 20
243.6197161157
  0
VERTEX
  8
13_KOMPONENTER
 62
7
  6
CONTINUOUS
 10
156.3996041761
 20
243.8298709769
  0
VERTEX
  8
13_KOMPONENTER
 62
7
  6
CONTINUOUS
 10
156.3303926421
 20
244.0280825414
  0
VERTEX
  8
13_KOMPONENTER
 62
7
  6
CONTINUOUS
 10
156.2307994476
 20
244.2108521417
  0
VERTEX
  8
13_KOMPONENTER
 62
7
  6
CONTINUOUS
 10
156.1023759911
 20
244.3748280451
  0
VERTEX
  8
13_KOMPONENTER
 62
7
  6
CONTINUOUS
 10
155.9470606379
 20
244.5166549494
  0
VERTEX
  8
13_KOMPONENTER
 62
7
  6
CONTINUOUS
 10
155.7695254452
 20
244.6318431771
  0
VERTEX
  8
13_KOMPONENTER
 62
7
  6
CONTINUOUS
 10
155.5772014535
 20
244.7172497404
  0
VERTEX
  8
13_KOMPONENTER
 62
7
  6
CONTINUOUS
 10
155.3767312862
 20
244.7733361752
  0
VERTEX
  8
13_KOMPONENTER
 62
7
  6
CONTINUOUS
 10
155.1723179147
 20
244.8031542963
  0
VERTEX
  8
13_KOMPONENTER
 62
7
  6
CONTINUOUS
 10
154.9881677117
 20
244.8109447579
  0
SEQEND
  0
LINE
  8
13_KOMPONENTER
 62
7
  6
CONTINUOUS
 10
159.4949095023
 20
232.0359447606
 11
159.4949095023
 21
238.5359447606
  0
LINE
  8
13_KOMPONENTER
 62
7
  6
CONTINUOUS
 10
156.4372604105
 20
230.8591107737
 11
156.4372801635
 21
230.8592353857
  0
POLYLINE
  8
13_KOMPONENTER
 62
7
  6
CONTINUOUS
 66
1
 70
0
  0
VERTEX
  8
13_KOMPONENTER
 62
7
  6
CONTINUOUS
 10
156.4372635923
 20
230.8591102693
  0
VERTEX
  8
13_KOMPONENTER
 62
7
  6
CONTINUOUS
 10
156.4375569711
 20
230.860892896
  0
VERTEX
  8
13_KOMPONENTER
 62
7
  6
CONTINUOUS
 10
156.4409865917
 20
230.8779303244
  0
VERTEX
  8
13_KOMPONENTER
 62
7
  6
CONTINUOUS
 10
156.4497275015
 20
230.9112973086
  0
VERTEX
  8
13_KOMPONENTER
 62
7
  6
CONTINUOUS
 10
156.4663674989
 20
230.9604850922
  0
VERTEX
  8
13_KOMPONENTER
 62
7
  6
CONTINUOUS
 10
156.4933974736
 20
231.0229971496
  0
VERTEX
  8
13_KOMPONENTER
 62
7
  6
CONTINUOUS
 10
156.533065496
 20
231.0954195119
  0
VERTEX
  8
13_KOMPONENTER
 62
7
  6
CONTINUOUS
 10
156.587074828
 20
231.173663455
  0
VERTEX
  8
13_KOMPONENTER
 62
7
  6
CONTINUOUS
 10
156.6563410551
 20
231.2532560489
  0
VERTEX
  8
13_KOMPONENTER
 62
7
  6
CONTINUOUS
 10
156.740954799
 20
231.3297499031
  0
VERTEX
  8
13_KOMPONENTER
 62
7
  6
CONTINUOUS
 10
156.8409203986
 20
231.3993977976
  0
VERTEX
  8
13_KOMPONENTER
 62
7
  6
CONTINUOUS
 10
156.9557269073
 20
231.458473485
  0
VERTEX
  8
13_KOMPONENTER
 62
7
  6
CONTINUOUS
 10
157.0840892801
 20
231.5031909198
  0
VERTEX
  8
13_KOMPONENTER
 62
7
  6
CONTINUOUS
 10
157.2239864181
 20
231.5298716612
  0
VERTEX
  8
13_KOMPONENTER
 62
7
  6
CONTINUOUS
 10
157.3309831993
 20
231.5359467007
  0
SEQEND
  0
POLYLINE
  8
13_KOMPONENTER
 62
7
  6
CONTINUOUS
 66
1
 70
0
  0
VERTEX
  8
13_KOMPONENTER
 62
7
  6
CONTINUOUS
 10
143.5016514995
 20
244.8109447579
  0
VERTEX
  8
13_KOMPONENTER
 62
7
  6
CONTINUOUS
 10
143.3169871543
 20
244.8031091543
  0
VERTEX
  8
13_KOMPONENTER
 62
7
  6
CONTINUOUS
 10
143.1120769145
 20
244.7731250844
  0
VERTEX
  8
13_KOMPONENTER
 62
7
  6
CONTINUOUS
 10
142.9111305822
 20
244.716718309
  0
VERTEX
  8
13_KOMPONENTER
 62
7
  6
CONTINUOUS
 10
142.7183941179
 20
244.6308158045
  0
VERTEX
  8
13_KOMPONENTER
 62
7
  6
CONTINUOUS
 10
142.5405636349
 20
244.5149575565
  0
VERTEX
  8
13_KOMPONENTER
 62
7
  6
CONTINUOUS
 10
142.3851227322
 20
244.3723176739
  0
VERTEX
  8
13_KOMPONENTER
 62
7
  6
CONTINUOUS
 10
142.2567968286
 20
244.2074578268
  0
VERTEX
  8
13_KOMPONENTER
 62
7
  6
CONTINUOUS
 10
142.1575438077
 20
244.0238116326
  0
VERTEX
  8
13_KOMPONENTER
 62
7
  6
CONTINUOUS
 10
142.0889000376
 20
243.8248076652
  0
VERTEX
  8
13_KOMPONENTER
 62
7
  6
CONTINUOUS
 10
142.0518968491
 20
243.6140083797
  0
VERTEX
  8
13_KOMPONENTER
 62
7
  6
CONTINUOUS
 10
142.0449096238
 20
243.4684538985
  0
SEQEND
  0
LINE
  8
13_KOMPONENTER
 62
7
  6
CONTINUOUS
 10
55.3106919294
 20
244.8109443888
 11
55.564790744
 21
244.8109447606
  0
LINE
  8
13_KOMPONENTER
 62
7
  6
CONTINUOUS
 10
57.9949095023
 20
244.8109447606
 11
240.4949095023
 21
244.8109447606
  0
LINE
  8
13_KOMPONENTER
 62
7
  6
CONTINUOUS
 10
242.9250282605
 20
244.8109447606
 11
243.1785233958
 21
244.8109447606
  0
LINE
  8
13_KOMPONENTER
 62
7
  6
CONTINUOUS
 10
156.4395694779
 20
239.7004830588
 11
156.4372601431
 21
239.7127982816
  0
LINE
  8
13_KOMPONENTER
 62
7
  6
CONTINUOUS
 10
156.4372601431
 20
239.7127982816
 11
156.4372821629
 21
239.7126593541
  0
LINE
  8
13_KOMPONENTER
 62
7
  6
CONTINUOUS
 10
165.4949095023
 20
238.5359447606
 11
165.4949095023
 21
232.0359447606
  0
LINE
  8
13_KOMPONENTER
 62
7
  6
CONTINUOUS
 10
169.4949095023
 20
226.7609447606
 11
169.4949095023
 21
230.5359447606
  0
LINE
  8
13_KOMPONENTER
 62
7
  6
CONTINUOUS
 10
169.4949095023
 20
240.0359447606
 11
169.4949095023
 21
243.8109447606
  0
LINE
  8
13_KOMPONENTER
 62
7
  6
CONTINUOUS
 10
55.3110504595
 20
244.8109440078
 11
55.0267579899
 21
244.7535322217
  0
POLYLINE
  8
13_KOMPONENTER
 62
7
  6
CONTINUOUS
 66
1
 70
0
  0
VERTEX
  8
13_KOMPONENTER
 62
7
  6
CONTINUOUS
 10
55.3106919303
 20
244.8109436987
  0
VERTEX
  8
13_KOMPONENTER
 62
7
  6
CONTINUOUS
 10
55.1098732161
 20
244.7819246946
  0
VERTEX
  8
13_KOMPONENTER
 62
7
  6
CONTINUOUS
 10
54.8954464924
 20
244.6899940434
  0
SEQEND
  0
LINE
  8
13_KOMPONENTER
 62
7
  6
CONTINUOUS
 10
181.4949095023
 20
226.7609447606
 11
181.4949095023
 21
230.5359447606
  0
LINE
  8
13_KOMPONENTER
 62
7
  6
CONTINUOUS
 10
181.4949095023
 20
240.0359447606
 11
181.4949095023
 21
243.8109447606
  0
LINE
  8
13_KOMPONENTER
 62
7
  6
CONTINUOUS
 10
185.4949095023
 20
232.0359447606
 11
185.4949095023
 21
238.5359447606
  0
LINE
  8
13_KOMPONENTER
 62
7
  6
CONTINUOUS
 10
187.4949095023
 20
225.8122472557
 11
187.4949095023
 21
225.7609447606
  0
LINE
  8
13_KOMPONENTER
 62
7
  6
CONTINUOUS
 10
187.7449095023
 20
225.8215298556
 11
187.7449095023
 21
225.7609447606
  0
LINE
  8
13_KOMPONENTER
 62
7
  6
CONTINUOUS
 10
188.6199095023
 20
225.7697551711
 11
188.6199095023
 21
225.7849754658
  0
LINE
  8
13_KOMPONENTER
 62
7
  6
CONTINUOUS
 10
190.4071435702
 20
225.761076759
 11
190.4071435702
 21
225.9609447606
  0
LINE
  8
13_KOMPONENTER
 62
7
  6
CONTINUOUS
 10
190.6199095023
 20
225.7785251184
 11
190.6199095023
 21
225.7609447606
  0
LINE
  8
13_KOMPONENTER
 62
7
  6
CONTINUOUS
 10
191.4949095023
 20
238.5359447606
 11
191.4949095023
 21
232.0359447606
  0
POLYLINE
  8
13_KOMPONENTER
 62
7
  6
CONTINUOUS
 66
1
 70
0
  0
VERTEX
  8
13_KOMPONENTER
 62
7
  6
CONTINUOUS
 10
195.4805356895
 20
239.8602386222
  0
VERTEX
  8
13_KOMPONENTER
 62
7
  6
CONTINUOUS
 10
195.4532263967
 20
239.7445417121
  0
VERTEX
  8
13_KOMPONENTER
 62
7
  6
CONTINUOUS
 10
195.4083133213
 20
239.624078891
  0
VERTEX
  8
13_KOMPONENTER
 62
7
  6
CONTINUOUS
 10
195.3420319037
 20
239.5005074773
  0
VERTEX
  8
13_KOMPONENTER
 62
7
  6
CONTINUOUS
 10
195.2529202352
 20
239.3803528389
  0
VERTEX
  8
13_KOMPONENTER
 62
7
  6
CONTINUOUS
 10
195.1454607728
 20
239.2737475019
  0
VERTEX
  8
13_KOMPONENTER
 62
7
  6
CONTINUOUS
 10
195.0244922903
 20
239.1855160083
  0
VERTEX
  8
13_KOMPONENTER
 62
7
  6
CONTINUOUS
 10
194.8926139729
 20
239.1168063855
  0
VERTEX
  8
13_KOMPONENTER
 62
7
  6
CONTINUOUS
 10
194.7522304893
 20
239.068548899
  0
SEQEND
  0
POLYLINE
  8
13_KOMPONENTER
 62
7
  6
CONTINUOUS
 66
1
 70
0
  0
VERTEX
  8
13_KOMPONENTER
 62
7
  6
CONTINUOUS
 10
243.5943724697
 20
244.6899940805
  0
VERTEX
  8
13_KOMPONENTER
 62
7
  6
CONTINUOUS
 10
243.3799460399
 20
244.7819245597
  0
VERTEX
  8
13_KOMPONENTER
 62
7
  6
CONTINUOUS
 10
243.1791271944
 20
244.8109436943
  0
SEQEND
  0
POLYLINE
  8
13_KOMPONENTER
 62
7
  6
CONTINUOUS
 66
1
 70
0
  0
VERTEX
  8
13_KOMPONENTER
 62
7
  6
CONTINUOUS
 10
195.4795241541
 20
230.717389924
  0
VERTEX
  8
13_KOMPONENTER
 62
7
  6
CONTINUOUS
 10
195.4931109915
 20
230.6039995468
  0
VERTEX
  8
13_KOMPONENTER
 62
7
  6
CONTINUOUS
 10
195.4949085177
 20
230.5462138733
  0
SEQEND
  0
LINE
  8
13_KOMPONENTER
 62
7
  6
CONTINUOUS
 10
195.4949095023
 20
226.7609447606
 11
195.4949085177
 21
230.5462138733
  0
LINE
  8
13_KOMPONENTER
 62
7
  6
CONTINUOUS
 10
195.4949095023
 20
243.8109447606
 11
195.4949080377
 21
240.0257267344
  0
LINE
  8
13_KOMPONENTER
 62
7
  6
CONTINUOUS
 10
195.494908425
 20
240.025726734
 11
195.4932500576
 21
239.9702207692
  0
LINE
  8
13_KOMPONENTER
 62
7
  6
CONTINUOUS
 10
195.4932500576
 20
239.9702207692
 11
195.4805356895
 21
239.8602386222
  0
LINE
  8
13_KOMPONENTER
 62
7
  6
CONTINUOUS
 10
207.4949095023
 20
226.7609447606
 11
207.4949095023
 21
231.0107576188
  0
LINE
  8
13_KOMPONENTER
 62
7
  6
CONTINUOUS
 10
207.4949095023
 20
239.561267829
 11
207.4949095023
 21
243.8109447606
  0
LINE
  8
13_KOMPONENTER
 62
7
  6
CONTINUOUS
 10
233.5449665102
 20
242.2858877991
 11
233.5200254321
 21
242.2609447606
  0
LINE
  8
13_KOMPONENTER
 62
7
  6
CONTINUOUS
 10
240.8170606333
 20
226.0172807489
 11
240.8174644179
 21
226.0175115785
  0
POLYLINE
  8
13_KOMPONENTER
 62
7
  6
CONTINUOUS
 66
1
 70
0
  0
VERTEX
  8
13_KOMPONENTER
 62
7
  6
CONTINUOUS
 10
243.4630610147
 20
225.8183572995
  0
VERTEX
  8
13_KOMPONENTER
 62
7
  6
CONTINUOUS
 10
243.7349102722
 20
225.9734032618
  0
VERTEX
  8
13_KOMPONENTER
 62
7
  6
CONTINUOUS
 10
243.7648919705
 20
225.9991753262
  0
SEQEND
  0
LINE
  8
13_KOMPONENTER
 62
7
  6
CONTINUOUS
 10
207.4936090388
 20
239.5685730602
 11
207.4936198384
 21
239.5684956634
  0
LINE
  8
13_KOMPONENTER
 62
7
  6
CONTINUOUS
 10
211.4949095023
 20
232.1974542195
 11
211.4949095023
 21
238.3744603484
  0
POLYLINE
  8
13_KOMPONENTER
 62
7
  6
CONTINUOUS
 66
1
 70
0
  0
VERTEX
  8
13_KOMPONENTER
 62
7
  6
CONTINUOUS
 10
207.4936065458
 20
231.0033242992
  0
VERTEX
  8
13_KOMPONENTER
 62
7
  6
CONTINUOUS
 10
207.4938526671
 20
231.0050130699
  0
VERTEX
  8
13_KOMPONENTER
 62
7
  6
CONTINUOUS
 10
207.4975991364
 20
231.0253774339
  0
VERTEX
  8
13_KOMPONENTER
 62
7
  6
CONTINUOUS
 10
207.5065659728
 20
231.0606907067
  0
VERTEX
  8
13_KOMPONENTER
 62
7
  6
CONTINUOUS
 10
207.5229079609
 20
231.1090535055
  0
VERTEX
  8
13_KOMPONENTER
 62
7
  6
CONTINUOUS
 10
207.5482439727
 20
231.1670848211
  0
VERTEX
  8
13_KOMPONENTER
 62
7
  6
CONTINUOUS
 10
207.5838896261
 20
231.2315957341
  0
VERTEX
  8
13_KOMPONENTER
 62
7
  6
CONTINUOUS
 10
207.6310806439
 20
231.2998692219
  0
VERTEX
  8
13_KOMPONENTER
 62
7
  6
CONTINUOUS
 10
207.6905727377
 20
231.3688926951
  0
VERTEX
  8
13_KOMPONENTER
 62
7
  6
CONTINUOUS
 10
207.763091958
 20
231.4359508097
  0
VERTEX
  8
13_KOMPONENTER
 62
7
  6
CONTINUOUS
 10
207.8506863368
 20
231.4991637617
  0
VERTEX
  8
13_KOMPONENTER
 62
7
  6
CONTINUOUS
 10
207.9535136038
 20
231.5545944949
  0
VERTEX
  8
13_KOMPONENTER
 62
7
  6
CONTINUOUS
 10
208.0687979632
 20
231.5973150171
  0
VERTEX
  8
13_KOMPONENTER
 62
7
  6
CONTINUOUS
 10
208.1918123603
 20
231.6233340457
  0
VERTEX
  8
13_KOMPONENTER
 62
7
  6
CONTINUOUS
 10
208.2810789841
 20
231.6303753054
  0
SEQEND
  0
POLYLINE
  8
13_KOMPONENTER
 62
7
  6
CONTINUOUS
 66
1
 70
0
  0
VERTEX
  8
13_KOMPONENTER
 62
7
  6
CONTINUOUS
 10
243.5943725121
 20
225.8818954778
  0
VERTEX
  8
13_KOMPONENTER
 62
7
  6
CONTINUOUS
 10
243.8014553526
 20
226.0243228839
  0
VERTEX
  8
13_KOMPONENTER
 62
7
  6
CONTINUOUS
 10
244.0046919819
 20
226.2052853033
  0
SEQEND
  0
POLYLINE
  8
13_KOMPONENTER
 62
7
  6
CONTINUOUS
 66
1
 70
0
  0
VERTEX
  8
13_KOMPONENTER
 62
7
  6
CONTINUOUS
 10
240.8174644179
 20
226.0175115785
  0
VERTEX
  8
13_KOMPONENTER
 62
7
  6
CONTINUOUS
 10
240.9678472646
 20
226.1163015739
  0
VERTEX
  8
13_KOMPONENTER
 62
7
  6
CONTINUOUS
 10
241.1265979739
 20
226.2560406844
  0
VERTEX
  8
13_KOMPONENTER
 62
7
  6
CONTINUOUS
 10
241.2585984148
 20
226.4155070391
  0
VERTEX
  8
13_KOMPONENTER
 62
7
  6
CONTINUOUS
 10
241.3628613309
 20
226.5925239646
  0
VERTEX
  8
13_KOMPONENTER
 62
7
  6
CONTINUOUS
 10
241.4383378172
 20
226.7858871543
  0
VERTEX
  8
13_KOMPONENTER
 62
7
  6
CONTINUOUS
 10
241.4829160767
 20
226.9933595455
  0
VERTEX
  8
13_KOMPONENTER
 62
7
  6
CONTINUOUS
 10
241.4949087117
 20
227.1756488631
  0
SEQEND
  0
LINE
  8
13_KOMPONENTER
 62
7
  6
CONTINUOUS
 10
243.8014554086
 20
244.5475666186
 11
243.5943724697
 21
244.6899940805
  0
LINE
  8
13_KOMPONENTER
 62
7
  6
CONTINUOUS
 10
217.4949095023
 20
229.4666878313
 11
217.4949095023
 21
238.1652423375
  0
POLYLINE
  8
13_KOMPONENTER
 62
7
  6
CONTINUOUS
 66
1
 70
0
  0
VERTEX
  8
13_KOMPONENTER
 62
7
  6
CONTINUOUS
 10
244.0048680625
 20
244.3664323957
  0
VERTEX
  8
13_KOMPONENTER
 62
7
  6
CONTINUOUS
 10
243.7349102073
 20
244.5984862834
  0
VERTEX
  8
13_KOMPONENTER
 62
7
  6
CONTINUOUS
 10
243.4630612257
 20
244.7535321919
  0
VERTEX
  8
13_KOMPONENTER
 62
7
  6
CONTINUOUS
 10
243.1787683978
 20
244.810944012
  0
SEQEND
  0
LINE
  8
13_KOMPONENTER
 62
7
  6
CONTINUOUS
 10
244.0046919998
 20
244.3666041811
 11
243.8014554086
 21
244.5475666186
  0
LINE
  8
13_KOMPONENTER
 62
7
  6
CONTINUOUS
 10
236.4448524858
 20
242.2858878077
 11
236.4697935725
 21
242.2609447606
  0
LINE
  8
13_KOMPONENTER
 62
7
  6
CONTINUOUS
 10
221.4949095023
 20
226.7609447606
 11
221.4949095023
 21
228.9666762482
  0
LINE
  8
13_KOMPONENTER
 62
7
  6
CONTINUOUS
 10
221.4949095023
 20
238.5355709954
 11
221.4949095023
 21
243.8109447606
  0
LINE
  8
13_KOMPONENTER
 62
7
  6
CONTINUOUS
 10
226.7449095023
 20
226.7609447606
 11
226.7449095023
 21
228.0055216288
  0
LINE
  8
13_KOMPONENTER
 62
7
  6
CONTINUOUS
 10
244.0053303269
 20
226.2059091372
 11
244.0046919819
 21
226.2052853033
  0
LINE
  8
13_KOMPONENTER
 62
7
  6
CONTINUOUS
 10
244.0053889209
 20
244.365919338
 11
244.0048662382
 21
244.3664305277
  0
LINE
  8
13_KOMPONENTER
 62
7
  6
CONTINUOUS
 10
230.7449094974
 20
228.0056513316
 11
230.7449095023
 21
226.7609447606
  0
LINE
  8
13_KOMPONENTER
 62
7
  6
CONTINUOUS
 10
226.7449100755
 20
228.0056506085
 11
226.7451078421
 21
228.007249691
  0
POLYLINE
  8
13_KOMPONENTER
 62
7
  6
CONTINUOUS
 66
1
 70
0
  0
VERTEX
  8
13_KOMPONENTER
 62
7
  6
CONTINUOUS
 10
226.7451078421
 20
228.007249691
  0
VERTEX
  8
13_KOMPONENTER
 62
7
  6
CONTINUOUS
 10
226.7489630615
 20
228.0311558362
  0
VERTEX
  8
13_KOMPONENTER
 62
7
  6
CONTINUOUS
 10
226.7596078845
 20
228.0726483911
  0
VERTEX
  8
13_KOMPONENTER
 62
7
  6
CONTINUOUS
 10
226.7780453066
 20
228.1268148565
  0
VERTEX
  8
13_KOMPONENTER
 62
7
  6
CONTINUOUS
 10
226.8039539177
 20
228.1893101813
  0
VERTEX
  8
13_KOMPONENTER
 62
7
  6
CONTINUOUS
 10
226.8366688601
 20
228.2572366738
  0
VERTEX
  8
13_KOMPONENTER
 62
7
  6
CONTINUOUS
 10
226.8753112658
 20
228.3283654832
  0
VERTEX
  8
13_KOMPONENTER
 62
7
  6
CONTINUOUS
 10
226.9188464002
 20
228.4007882167
  0
VERTEX
  8
13_KOMPONENTER
 62
7
  6
CONTINUOUS
 10
226.9663530522
 20
228.4731777446
  0
VERTEX
  8
13_KOMPONENTER
 62
7
  6
CONTINUOUS
 10
227.0169252594
 20
228.5444516395
  0
VERTEX
  8
13_KOMPONENTER
 62
7
  6
CONTINUOUS
 10
227.0699798584
 20
228.6140733881
  0
VERTEX
  8
13_KOMPONENTER
 62
7
  6
CONTINUOUS
 10
227.1253627515
 20
228.6820452308
  0
VERTEX
  8
13_KOMPONENTER
 62
7
  6
CONTINUOUS
 10
227.1830073192
 20
228.7483822544
  0
VERTEX
  8
13_KOMPONENTER
 62
7
  6
CONTINUOUS
 10
227.242698882
 20
228.8128610731
  0
VERTEX
  8
13_KOMPONENTER
 62
7
  6
CONTINUOUS
 10
227.304372597
 20
228.8753809501
  0
VERTEX
  8
13_KOMPONENTER
 62
7
  6
CONTINUOUS
 10
227.3680372412
 20
228.9358540901
  0
VERTEX
  8
13_KOMPONENTER
 62
7
  6
CONTINUOUS
 10
227.4336874575
 20
228.9941308133
  0
VERTEX
  8
13_KOMPONENTER
 62
7
  6
CONTINUOUS
 10
227.5012577635
 20
229.0499352771
  0
VERTEX
  8
13_KOMPONENTER
 62
7
  6
CONTINUOUS
 10
227.5708089975
 20
229.1030515369
  0
VERTEX
  8
13_KOMPONENTER
 62
7
  6
CONTINUOUS
 10
227.6421206764
 20
229.1530025705
  0
VERTEX
  8
13_KOMPONENTER
 62
7
  6
CONTINUOUS
 10
227.7151690738
 20
229.1993729192
  0
VERTEX
  8
13_KOMPONENTER
 62
7
  6
CONTINUOUS
 10
227.7899302231
 20
229.2417298244
  0
VERTEX
  8
13_KOMPONENTER
 62
7
  6
CONTINUOUS
 10
227.8666374127
 20
229.2795744018
  0
VERTEX
  8
13_KOMPONENTER
 62
7
  6
CONTINUOUS
 10
227.9451047717
 20
229.3121279722
  0
VERTEX
  8
13_KOMPONENTER
 62
7
  6
CONTINUOUS
 10
228.0253302654
 20
229.3384871334
  0
VERTEX
  8
13_KOMPONENTER
 62
7
  6
CONTINUOUS
 10
228.1074848569
 20
229.3576499455
  0
VERTEX
  8
13_KOMPONENTER
 62
7
  6
CONTINUOUS
 10
228.1887278398
 20
229.3681934025
  0
VERTEX
  8
13_KOMPONENTER
 62
7
  6
CONTINUOUS
 10
228.244909502
 20
229.3703348608
  0
SEQEND
  0
LINE
  8
13_KOMPONENTER
 62
7
  6
CONTINUOUS
 10
241.7360908943
 20
242.8005284738
 11
242.4652251592
 21
244.5073655029
  0
POLYLINE
  8
13_KOMPONENTER
 62
7
  6
CONTINUOUS
 66
1
 70
0
  0
VERTEX
  8
13_KOMPONENTER
 62
7
  6
CONTINUOUS
 10
244.0053284954
 20
226.2059110079
  0
VERTEX
  8
13_KOMPONENTER
 62
7
  6
CONTINUOUS
 10
244.2584855874
 20
226.5421308666
  0
VERTEX
  8
13_KOMPONENTER
 62
7
  6
CONTINUOUS
 10
244.43886752
 20
227.0527176034
  0
SEQEND
  0
LINE
  8
13_KOMPONENTER
 62
7
  6
CONTINUOUS
 10
244.2574258509
 20
244.0311660988
 11
244.0053889209
 21
244.365919338
  0
LINE
  8
13_KOMPONENTER
 62
7
  6
CONTINUOUS
 10
242.4652251592
 20
226.0645240183
 11
241.7360908943
 21
227.7713610474
  0
LINE
  8
13_KOMPONENTER
 62
7
  6
CONTINUOUS
 10
244.4949078172
 20
242.8952912471
 11
244.4381434399
 21
243.5227119759
  0
LINE
  8
13_KOMPONENTER
 62
7
  6
CONTINUOUS
 10
241.4949095023
 20
243.8109447606
 11
241.4949095023
 21
242.2359447606
  0
LINE
  8
13_KOMPONENTER
 62
7
  6
CONTINUOUS
 10
241.4949095023
 20
226.7609447606
 11
241.4949095023
 21
241.6220040199
  0
LINE
  8
13_KOMPONENTER
 62
7
  6
CONTINUOUS
 10
244.4949095023
 20
242.8952196629
 11
244.4949095023
 21
227.6768034528
  0
LINE
  8
13_KOMPONENTER
 62
7
  6
CONTINUOUS
 10
244.4381434399
 20
227.0491775453
 11
244.4949078172
 21
227.6765982741
  0
LINE
  8
13_KOMPONENTER
 62
7
  6
CONTINUOUS
 10
244.2568846743
 20
226.5392008065
 11
244.257425851
 21
226.5407234227
  0
LINE
  8
13_KOMPONENTER
 62
7
  6
CONTINUOUS
 10
244.4383247095
 20
243.5207083901
 11
244.2568846743
 21
244.0326887146
  0
LINE
  8
13_KOMPONENTER
 62
7
  6
CONTINUOUS
 10
312.027521692
 20
238.8305427637
 11
312.027521692
 21
235.1610394482
  0
LINE
  8
13_KOMPONENTER
 62
7
  6
CONTINUOUS
 10
316.477521692
 20
235.4859447606
 11
316.477521692
 21
228.6546016789
  0
LINE
  8
DEFAULT_1
 62
2
  6
CENTER
 10
320.477521692
 20
240.7359447606
 11
320.477521692
 21
237.4860447606
  0
LINE
  8
0
 62
2
  6
CONTINUOUS
 10
320.477521692
 20
236.5359447606
 11
320.477521692
 21
234.4359447606
  0
LINE
  8
DEFAULT_1
 62
2
  6
CENTER
 10
320.477521692
 20
230.2359447606
 11
320.477521692
 21
233.4858447606
  0
POLYLINE
  8
13_KOMPONENTER
 62
7
  6
CONTINUOUS
 66
1
 70
0
  0
VERTEX
  8
13_KOMPONENTER
 62
7
  6
CONTINUOUS
 10
316.5090344841
 20
228.5145864806
  0
VERTEX
  8
13_KOMPONENTER
 62
7
  6
CONTINUOUS
 10
316.5121600062
 20
228.5261120938
  0
VERTEX
  8
13_KOMPONENTER
 62
7
  6
CONTINUOUS
 10
316.5170341977
 20
228.5351769795
  0
VERTEX
  8
13_KOMPONENTER
 62
7
  6
CONTINUOUS
 10
316.5230682174
 20
228.5401868838
  0
VERTEX
  8
13_KOMPONENTER
 62
7
  6
CONTINUOUS
 10
316.5300437744
 20
228.5418723497
  0
SEQEND
  0
POLYLINE
  8
13_KOMPONENTER
 62
7
  6
CONTINUOUS
 66
1
 70
0
  0
VERTEX
  8
13_KOMPONENTER
 62
7
  6
CONTINUOUS
 10
316.5090342882
 20
228.5145864995
  0
VERTEX
  8
13_KOMPONENTER
 62
7
  6
CONTINUOUS
 10
316.4770100247
 20
228.3986373774
  0
VERTEX
  8
13_KOMPONENTER
 62
7
  6
CONTINUOUS
 10
316.4272894522
 20
228.2874543398
  0
VERTEX
  8
13_KOMPONENTER
 62
7
  6
CONTINUOUS
 10
316.3612105378
 20
228.1840256526
  0
VERTEX
  8
13_KOMPONENTER
 62
7
  6
CONTINUOUS
 10
316.2805528334
 20
228.0911346825
  0
VERTEX
  8
13_KOMPONENTER
 62
7
  6
CONTINUOUS
 10
316.187489711
 20
228.0112778008
  0
VERTEX
  8
13_KOMPONENTER
 62
7
  6
CONTINUOUS
 10
316.0845255517
 20
227.9465957088
  0
VERTEX
  8
13_KOMPONENTER
 62
7
  6
CONTINUOUS
 10
315.9744259275
 20
227.8988213782
  0
VERTEX
  8
13_KOMPONENTER
 62
7
  6
CONTINUOUS
 10
315.8601484407
 20
227.8692393239
  0
VERTEX
  8
13_KOMPONENTER
 62
7
  6
CONTINUOUS
 10
315.744770294
 20
227.8586494837
  0
VERTEX
  8
13_KOMPONENTER
 62
7
  6
CONTINUOUS
 10
315.6314083262
 20
227.8673380966
  0
VERTEX
  8
13_KOMPONENTER
 62
7
  6
CONTINUOUS
 10
315.5231352158
 20
227.895060009
  0
VERTEX
  8
13_KOMPONENTER
 62
7
  6
CONTINUOUS
 10
315.4229211811
 20
227.9410168997
  0
VERTEX
  8
13_KOMPONENTER
 62
7
  6
CONTINUOUS
 10
315.3330950265
 20
228.0042673537
  0
SEQEND
  0
LINE
  8
13_KOMPONENTER
 62
7
  6
CONTINUOUS
 10
325.527521692
 20
243.8109447606
 11
325.527521692
 21
243.3109447606
  0
LINE
  8
13_KOMPONENTER
 62
7
  6
CONTINUOUS
 10
321.4275741033
 20
225.7609447606
 11
353.6274504864
 21
225.7609447606
  0
POLYLINE
  8
13_KOMPONENTER
 62
7
  6
CONTINUOUS
 66
1
 70
0
  0
VERTEX
  8
13_KOMPONENTER
 62
7
  6
CONTINUOUS
 10
333.1287396668
 20
228.5359447606
  0
VERTEX
  8
13_KOMPONENTER
 62
7
  6
CONTINUOUS
 10
333.2252299574
 20
228.5389952267
  0
VERTEX
  8
13_KOMPONENTER
 62
7
  6
CONTINUOUS
 10
333.3186536366
 20
228.5412654617
  0
VERTEX
  8
13_KOMPONENTER
 62
7
  6
CONTINUOUS
 10
333.4051215833
 20
228.5426710538
  0
VERTEX
  8
13_KOMPONENTER
 62
7
  6
CONTINUOUS
 10
333.4810750826
 20
228.5431470866
  0
VERTEX
  8
13_KOMPONENTER
 62
7
  6
CONTINUOUS
 10
333.543380202
 20
228.5426710538
  0
VERTEX
  8
13_KOMPONENTER
 62
7
  6
CONTINUOUS
 10
333.5895482927
 20
228.5412654617
  0
VERTEX
  8
13_KOMPONENTER
 62
7
  6
CONTINUOUS
 10
333.6178818605
 20
228.5389952267
  0
VERTEX
  8
13_KOMPONENTER
 62
7
  6
CONTINUOUS
 10
333.627521692
 20
228.5359447606
  0
SEQEND
  0
LINE
  8
13_KOMPONENTER
 62
7
  6
CONTINUOUS
 10
316.977521692
 20
228.5359447606
 11
333.127521692
 21
228.5359447606
  0
LINE
  8
13_KOMPONENTER
 62
7
  6
CONTINUOUS
 10
333.6275217009
 20
228.5359446325
 11
333.772781872
 21
226.4586274053
  0
POLYLINE
  8
13_KOMPONENTER
 62
7
  6
CONTINUOUS
 66
1
 70
0
  0
VERTEX
  8
13_KOMPONENTER
 62
7
  6
CONTINUOUS
 10
333.627521692
 20
228.5359447606
  0
VERTEX
  8
13_KOMPONENTER
 62
7
  6
CONTINUOUS
 10
333.6403620247
 20
228.5387645761
  0
VERTEX
  8
13_KOMPONENTER
 62
7
  6
CONTINUOUS
 10
333.6786376205
 20
228.542393421
  0
VERTEX
  8
13_KOMPONENTER
 62
7
  6
CONTINUOUS
 10
333.7410467433
 20
228.5467057684
  0
VERTEX
  8
13_KOMPONENTER
 62
7
  6
CONTINUOUS
 10
333.8254167685
 20
228.551552687
  0
VERTEX
  8
13_KOMPONENTER
 62
7
  6
CONTINUOUS
 10
333.9287864677
 20
228.5567712692
  0
VERTEX
  8
13_KOMPONENTER
 62
7
  6
CONTINUOUS
 10
334.047521692
 20
228.5621353377
  0
SEQEND
  0
POLYLINE
  8
13_KOMPONENTER
 62
7
  6
CONTINUOUS
 66
1
 70
0
  0
VERTEX
  8
13_KOMPONENTER
 62
7
  6
CONTINUOUS
 10
316.5300437744
 20
228.5418723497
  0
VERTEX
  8
13_KOMPONENTER
 62
7
  6
CONTINUOUS
 10
316.5786661457
 20
228.542912309
  0
VERTEX
  8
13_KOMPONENTER
 62
7
  6
CONTINUOUS
 10
316.6409687673
 20
228.5431198544
  0
VERTEX
  8
13_KOMPONENTER
 62
7
  6
CONTINUOUS
 10
316.7147288488
 20
228.5424863652
  0
VERTEX
  8
13_KOMPONENTER
 62
7
  6
CONTINUOUS
 10
316.7972487916
 20
228.5410382332
  0
VERTEX
  8
13_KOMPONENTER
 62
7
  6
CONTINUOUS
 10
316.8855237045
 20
228.538834544
  0
VERTEX
  8
13_KOMPONENTER
 62
7
  6
CONTINUOUS
 10
316.9763037171
 20
228.5359447606
  0
SEQEND
  0
LINE
  8
13_KOMPONENTER
 62
7
  6
CONTINUOUS
 10
320.477521692
 20
231.0859447606
 11
332.377521692
 21
231.0859447606
  0
LINE
  8
13_KOMPONENTER
 62
7
  6
CONTINUOUS
 10
333.627521692
 20
231.2862737222
 11
333.627521692
 21
228.5359447606
  0
LINE
  8
13_KOMPONENTER
 62
7
  6
CONTINUOUS
 10
336.377521692
 20
235.4859447606
 11
336.377521692
 21
235.0859447606
  0
LINE
  8
DEFAULT_1
 62
2
  6
CENTER
 10
363.827521692
 20
235.2859447606
 11
360.577621692
 21
235.2859447606
  0
LINE
  8
0
 62
2
  6
CONTINUOUS
 10
359.627521692
 20
235.2859447606
 11
357.527521692
 21
235.2859447606
  0
LINE
  8
13_KOMPONENTER
 62
7
  6
CONTINUOUS
 10
316.477521692
 20
235.2859447606
 11
315.6017504651
 21
235.2859447606
  0
LINE
  8
DEFAULT_1
 62
2
  6
CENTER
 10
353.327521692
 20
235.2859447606
 11
356.577421692
 21
235.2859447606
  0
LINE
  8
13_KOMPONENTER
 62
7
  6
CONTINUOUS
 10
338.527521692
 20
226.7609444343
 11
338.527521692
 21
239.4692567296
  0
LINE
  8
13_KOMPONENTER
 62
7
  6
CONTINUOUS
 10
339.027521692
 20
235.4109447606
 11
339.027521692
 21
235.1609447606
  0
LINE
  8
DEFAULT_1
 62
2
  6
CENTER
 10
325.727521692
 20
235.4859447606
 11
322.477621692
 21
235.4859447606
  0
LINE
  8
0
 62
2
  6
CONTINUOUS
 10
321.527521692
 20
235.4859447606
 11
319.427521692
 21
235.4859447606
  0
LINE
  8
DEFAULT_1
 62
2
  6
CENTER
 10
315.227521692
 20
235.4859447606
 11
318.477421692
 21
235.4859447606
  0
LINE
  8
13_KOMPONENTER
 62
7
  6
CONTINUOUS
 10
320.477521692
 20
239.4859447606
 11
332.377521692
 21
239.4859447606
  0
LINE
  8
13_KOMPONENTER
 62
7
  6
CONTINUOUS
 10
334.0275212682
 20
242.8109447606
 11
323.6448500044
 21
242.8109447606
  0
LINE
  8
13_KOMPONENTER
 62
7
  6
CONTINUOUS
 10
353.6274504144
 20
244.8109447606
 11
321.4276379832
 21
244.8109447606
  0
LINE
  8
DEFAULT_1
 62
2
  6
CENTER
 10
358.577521692
 20
240.5359447606
 11
358.577521692
 21
237.2860447606
  0
LINE
  8
0
 62
2
  6
CONTINUOUS
 10
358.577521692
 20
236.3359447606
 11
358.577521692
 21
234.2359447606
  0
LINE
  8
DEFAULT_1
 62
2
  6
CENTER
 10
358.577521692
 20
230.0359447606
 11
358.577521692
 21
233.2858447606
  0
LINE
  8
13_KOMPONENTER
 62
7
  6
CONTINUOUS
 10
363.027521692
 20
235.1609447606
 11
363.027521692
 21
235.4109447606
  0
ARC
  8
13_KOMPONENTER
 62
7
  6
CONTINUOUS
 10
63.9949095023
 20
110.3694349971
 40
10.0
 50
164.6405892458
 51
180.0009325984
  0
ARC
  8
13_KOMPONENTER
 62
7
  6
CONTINUOUS
 10
70.3148721467
 20
106.7856334842
 40
1.0
 50
270.0
 51
290.9700874633
  0
ARC
  8
13_KOMPONENTER
 62
7
  6
CONTINUOUS
 10
57.9949095023
 20
106.7856334842
 40
1.0
 50
180.0
 51
270.0
  0
ARC
  8
13_KOMPONENTER
 62
7
  6
CONTINUOUS
 10
71.7758095398
 20
105.2356365746
 40
0.9999993819
 50
90.0005295035
 51
115.1906563795
  0
ARC
  8
13_KOMPONENTER
 62
7
  6
CONTINUOUS
 10
54.4949095023
 20
106.2856334842
 40
0.5
 50
180.0
 51
270.0
  0
ARC
  8
13_KOMPONENTER
 62
7
  6
CONTINUOUS
 10
56.4949095023
 20
106.2856334842
 40
0.5
 50
270.0
 51
360.0
  0
ARC
  8
13_KOMPONENTER
 62
7
  6
CONTINUOUS
 10
61.9949095023
 20
112.5774295517
 40
5.0
 50
163.0425737058
 51
180.0
  0
ARC
  8
13_KOMPONENTER
 62
7
  6
CONTINUOUS
 10
58.4994811806
 20
114.9750851428
 40
1.0
 50
97.5
 51
166.8870779144
  0
ARC
  8
13_KOMPONENTER
 62
7
  6
CONTINUOUS
 10
62.0544100181
 20
115.443100403
 40
1.0
 50
58.4112947589
 51
81.865209803
  0
ARC
  8
13_KOMPONENTER
 62
7
  6
CONTINUOUS
 10
62.1237785822
 20
115.6356334842
 40
0.8
 50
57.4729040128
 51
83.8932579659
  0
ARC
  8
13_KOMPONENTER
 62
7
  6
CONTINUOUS
 10
67.0939476081
 20
115.1895400232
 40
10.0
 50
290.9700874633
 51
350.3505368824
  0
ARC
  8
13_KOMPONENTER
 62
7
  6
CONTINUOUS
 10
87.4949095023
 20
106.7356334842
 40
0.5
 50
179.9999998938
 51
270.0
  0
ARC
  8
13_KOMPONENTER
 62
7
  6
CONTINUOUS
 10
80.4949095023
 20
106.7356334842
 40
0.5
 50
270.0
 51
360.0
  0
ARC
  8
13_KOMPONENTER
 62
7
  6
CONTINUOUS
 10
80.4949095023
 20
110.0868232264
 40
0.5
 50
0.0
 51
95.087
  0
ARC
  8
13_KOMPONENTER
 62
7
  6
CONTINUOUS
 10
73.9949095023
 20
114.0162007989
 40
3.0
 50
350.3505368824
 51
360.0
  0
ARC
  8
13_KOMPONENTER
 62
7
  6
CONTINUOUS
 10
89.9949095023
 20
112.4384345818
 40
1.0
 50
275.087
 51
359.990439318
  0
ARC
  8
13_KOMPONENTER
 62
7
  6
CONTINUOUS
 10
77.3894862026
 20
111.3163133258
 40
1.0
 50
159.3834805126
 51
275.087
  0
ARC
  8
13_KOMPONENTER
 62
7
  6
CONTINUOUS
 10
87.4949095023
 20
110.7099535418
 40
0.5
 50
95.087006762
 51
180.0
  0
ARC
  8
13_KOMPONENTER
 62
7
  6
CONTINUOUS
 10
36.9949095023
 20
117.7856334842
 40
18.0
 50
344.6414064832
 51
15.3586002692
  0
ARC
  8
13_KOMPONENTER
 62
7
  6
CONTINUOUS
 10
39.9949095023
 20
119.2856334842
 40
18.0
 50
343.0425737058
 51
346.8870779144
  0
ARC
  8
13_KOMPONENTER
 62
7
  6
CONTINUOUS
 10
39.9949095023
 20
119.2856334842
 40
18.0
 50
3.7744503624
 51
16.9574262942
  0
ARC
  8
13_KOMPONENTER
 62
7
  6
CONTINUOUS
 10
63.4949095023
 20
117.7856334842
 40
1.75
 50
237.4729040128
 51
122.5270959872
  0
ARC
  8
13_KOMPONENTER
 62
7
  6
CONTINUOUS
 10
58.9536970484
 20
120.5363831721
 40
1.0
 50
183.7744307627
 51
262.5000138062
  0
ARC
  8
13_KOMPONENTER
 62
7
  6
CONTINUOUS
 10
62.0544100181
 20
120.1281665653
 40
1.0
 50
262.5000214184
 51
301.589454306
  0
ARC
  8
13_KOMPONENTER
 62
7
  6
CONTINUOUS
 10
62.1237785822
 20
119.9356334842
 40
0.8
 50
276.161860677
 51
302.5270959872
  0
ARC
  8
13_KOMPONENTER
 62
7
  6
CONTINUOUS
 10
61.9949095023
 20
125.9938374167
 40
5.0
 50
180.0
 51
196.9574262942
  0
ARC
  8
13_KOMPONENTER
 62
7
  6
CONTINUOUS
 10
56.4949095023
 20
129.2856334842
 40
0.5
 50
0.0
 51
90.0
  0
ARC
  8
13_KOMPONENTER
 62
7
  6
CONTINUOUS
 10
54.4949095023
 20
129.2856334842
 40
0.5
 50
90.0
 51
180.0
  0
ARC
  8
13_KOMPONENTER
 62
7
  6
CONTINUOUS
 10
89.9949095023
 20
121.2856334842
 40
4.0
 50
304.849904579
 51
71.7900431357
  0
ARC
  8
13_KOMPONENTER
 62
7
  6
CONTINUOUS
 10
90.416992262
 20
122.5686539946
 40
2.6493351688
 50
162.6520870227
 51
163.2818639325
  0
ARC
  8
13_KOMPONENTER
 62
7
  6
CONTINUOUS
 10
90.416992262
 20
122.5686539946
 40
2.6493351688
 50
71.7900431357
 51
137.771327937
  0
ARC
  8
13_KOMPONENTER
 62
7
  6
CONTINUOUS
 10
77.7449095023
 20
121.7761376502
 40
0.75
 50
86.2279707641
 51
180.0
  0
ARC
  8
13_KOMPONENTER
 62
7
  6
CONTINUOUS
 10
63.9949095023
 20
125.2018319713
 40
10.0
 50
179.999065962
 51
195.3593997075
  0
ARC
  8
13_KOMPONENTER
 62
7
  6
CONTINUOUS
 10
85.9641775752
 20
123.9060989003
 40
2.0
 50
265.6303726949
 51
343.2818639325
  0
ARC
  8
13_KOMPONENTER
 62
7
  6
CONTINUOUS
 10
93.9949095023
 20
110.059831703
 40
3.0
 50
180.000136125
 51
215.7538700088
  0
ARC
  8
13_KOMPONENTER
 62
7
  6
CONTINUOUS
 10
99.9949095023
 20
110.059831703
 40
3.0
 50
324.2467114669
 51
360.0
  0
ARC
  8
13_KOMPONENTER
 62
7
  6
CONTINUOUS
 10
119.9949095023
 20
110.059831703
 40
3.0
 50
180.0
 51
215.753319893
  0
ARC
  8
13_KOMPONENTER
 62
7
  6
CONTINUOUS
 10
94.5019587271
 20
106.7856334842
 40
1.0
 50
234.9102006786
 51
270.0
  0
ARC
  8
13_KOMPONENTER
 62
7
  6
CONTINUOUS
 10
120.5019587188
 20
106.7856334869
 40
1.0000000003
 50
234.9102011563
 51
270.0000004731
  0
ARC
  8
13_KOMPONENTER
 62
7
  6
CONTINUOUS
 10
99.4878602895
 20
106.7856334882
 40
1.0000000004
 50
269.9999993069
 51
305.0897986214
  0
ARC
  8
13_KOMPONENTER
 62
7
  6
CONTINUOUS
 10
113.4949095023
 20
106.7356334842
 40
0.5
 50
179.9999998466
 51
270.0
  0
ARC
  8
13_KOMPONENTER
 62
7
  6
CONTINUOUS
 10
106.4949095023
 20
106.7356334842
 40
0.5
 50
270.0
 51
0.0000001534
  0
ARC
  8
13_KOMPONENTER
 62
7
  6
CONTINUOUS
 10
99.6756949768
 20
114.149902166
 40
10.0
 50
215.7532517472
 51
234.9102006786
  0
ARC
  8
13_KOMPONENTER
 62
7
  6
CONTINUOUS
 10
94.3141240278
 20
114.149902166
 40
10.0
 50
305.0897993214
 51
324.2467344535
  0
ARC
  8
13_KOMPONENTER
 62
7
  6
CONTINUOUS
 10
120.3141240278
 20
114.149902166
 40
10.0
 50
305.0897993214
 51
324.2467345076
  0
ARC
  8
13_KOMPONENTER
 62
7
  6
CONTINUOUS
 10
93.9949095023
 20
115.5410708376
 40
3.0
 50
124.849904579
 51
180.0
  0
ARC
  8
13_KOMPONENTER
 62
7
  6
CONTINUOUS
 10
99.9949095023
 20
115.5410708376
 40
3.0
 50
0.0
 51
55.150095421
  0
ARC
  8
13_KOMPONENTER
 62
7
  6
CONTINUOUS
 10
119.9949095023
 20
115.5410708376
 40
3.0
 50
124.849904579
 51
180.0
  0
ARC
  8
13_KOMPONENTER
 62
7
  6
CONTINUOUS
 10
113.4949095023
 20
113.0244456427
 40
0.5
 50
95.087006762
 51
180.0
  0
ARC
  8
13_KOMPONENTER
 62
7
  6
CONTINUOUS
 10
106.4949095023
 20
112.401313154
 40
0.5
 50
0.0
 51
95.087006762
  0
ARC
  8
13_KOMPONENTER
 62
7
  6
CONTINUOUS
 10
125.9949095023
 20
110.059831703
 40
3.0
 50
324.2467116474
 51
360.0
  0
ARC
  8
13_KOMPONENTER
 62
7
  6
CONTINUOUS
 10
125.4878602774
 20
106.7856334842
 40
1.0
 50
270.0
 51
305.0897993214
  0
ARC
  8
13_KOMPONENTER
 62
7
  6
CONTINUOUS
 10
146.5019587271
 20
106.7856334842
 40
1.0
 50
234.9102006786
 51
270.0
  0
ARC
  8
13_KOMPONENTER
 62
7
  6
CONTINUOUS
 10
132.4949095023
 20
106.7356334842
 40
0.5
 50
270.0
 51
0.0000001534
  0
ARC
  8
13_KOMPONENTER
 62
7
  6
CONTINUOUS
 10
139.4949095023
 20
106.7356334842
 40
0.5
 50
179.9999998466
 51
270.0
  0
ARC
  8
13_KOMPONENTER
 62
7
  6
CONTINUOUS
 10
125.6756949768
 20
114.149902166
 40
10.0
 50
215.7532749545
 51
234.9102006786
  0
ARC
  8
13_KOMPONENTER
 62
7
  6
CONTINUOUS
 10
132.4949095023
 20
113.7356334842
 40
0.5
 50
359.9999998466
 51
90.0
  0
ARC
  8
13_KOMPONENTER
 62
7
  6
CONTINUOUS
 10
125.9949095023
 20
115.5410708376
 40
3.0
 50
0.0
 51
55.150095421
  0
ARC
  8
13_KOMPONENTER
 62
7
  6
CONTINUOUS
 10
129.9949095023
 20
115.2356334842
 40
1.0
 50
182.8599191834
 51
270.0
  0
ARC
  8
13_KOMPONENTER
 62
7
  6
CONTINUOUS
 10
146.8141240278
 20
114.149902166
 40
10.0
 50
305.0897993214
 51
329.1326554425
  0
ARC
  8
13_KOMPONENTER
 62
7
  6
CONTINUOUS
 10
149.0515734152
 20
112.8125476903
 40
7.393336087
 50
329.132655731
 51
38.3935466842
  0
ARC
  8
13_KOMPONENTER
 62
7
  6
CONTINUOUS
 10
139.4949095023
 20
113.7356334842
 40
0.5
 50
90.0
 51
180.0000001534
  0
ARC
  8
13_KOMPONENTER
 62
7
  6
CONTINUOUS
 10
145.9949095023
 20
115.5410708376
 40
3.0
 50
124.849904579
 51
141.6064533158
  0
ARC
  8
13_KOMPONENTER
 62
7
  6
CONTINUOUS
 10
115.9949095023
 20
121.2856334842
 40
4.0
 50
304.849904579
 51
71.7900431357
  0
ARC
  8
13_KOMPONENTER
 62
7
  6
CONTINUOUS
 10
103.9949095023
 20
121.2856334842
 40
4.0
 50
108.2099568643
 51
235.150095421
  0
ARC
  8
13_KOMPONENTER
 62
7
  6
CONTINUOUS
 10
103.3699095023
 20
123.1854690034
 40
2.0
 50
15.0
 51
108.2099568643
  0
ARC
  8
13_KOMPONENTER
 62
7
  6
CONTINUOUS
 10
107.3502006359
 20
123.7856334842
 40
2.0
 50
195.0
 51
270.0
  0
ARC
  8
13_KOMPONENTER
 62
7
  6
CONTINUOUS
 10
116.6199095023
 20
123.1854690034
 40
2.0
 50
71.7900431357
 51
165.0
  0
ARC
  8
13_KOMPONENTER
 62
7
  6
CONTINUOUS
 10
112.6396183686
 20
123.7856334842
 40
2.0
 50
270.0
 51
345.0
  0
ARC
  8
13_KOMPONENTER
 62
7
  6
CONTINUOUS
 10
141.9949095023
 20
121.2856334842
 40
4.0
 50
304.849904579
 51
71.7900431357
  0
ARC
  8
13_KOMPONENTER
 62
7
  6
CONTINUOUS
 10
129.9949095023
 20
121.2856334842
 40
4.0
 50
108.2099568643
 51
235.150095421
  0
ARC
  8
13_KOMPONENTER
 62
7
  6
CONTINUOUS
 10
129.3699095023
 20
123.1854690034
 40
2.0
 50
15.0
 51
108.2099568643
  0
ARC
  8
13_KOMPONENTER
 62
7
  6
CONTINUOUS
 10
133.3502006359
 20
123.7856334842
 40
2.0
 50
195.0
 51
270.0
  0
ARC
  8
13_KOMPONENTER
 62
7
  6
CONTINUOUS
 10
142.6199095023
 20
123.1854690034
 40
2.0
 50
71.7900431357
 51
165.0
  0
ARC
  8
13_KOMPONENTER
 62
7
  6
CONTINUOUS
 10
138.6396183686
 20
123.7856334842
 40
2.0
 50
270.0
 51
345.0
  0
ARC
  8
13_KOMPONENTER
 62
7
  6
CONTINUOUS
 10
93.7347165594
 20
143.0326174683
 40
3.0
 50
242.2417561891
 51
294.0493983611
  0
ARC
  8
13_KOMPONENTER
 62
7
  6
CONTINUOUS
 10
92.9949095023
 20
143.4824992662
 40
3.0
 50
180.0
 51
235.150095421
  0
ARC
  8
13_KOMPONENTER
 62
7
  6
CONTINUOUS
 10
96.9949095023
 20
135.7270619127
 40
5.0
 50
65.9506016389
 51
114.0493983611
  0
ARC
  8
13_KOMPONENTER
 62
7
  6
CONTINUOUS
 10
100.2551024451
 20
143.0326174683
 40
3.0
 50
245.9506016389
 51
297.7582438109
  0
ARC
  8
13_KOMPONENTER
 62
7
  6
CONTINUOUS
 10
100.9949095023
 20
143.4824992662
 40
3.0
 50
304.849904579
 51
360.0
  0
ARC
  8
13_KOMPONENTER
 62
7
  6
CONTINUOUS
 10
86.3780207528
 20
148.2337121933
 40
10.0
 50
122.9545473106
 51
140.2654265527
  0
ARC
  8
13_KOMPONENTER
 62
7
  6
CONTINUOUS
 10
81.6117982518
 20
148.2337121933
 40
10.0
 50
39.7346021732
 51
57.0454526894
  0
ARC
  8
13_KOMPONENTER
 62
7
  6
CONTINUOUS
 10
74.9949095023
 20
149.1671963744
 40
3.0
 50
323.9601240627
 51
0.0005878818
  0
ARC
  8
13_KOMPONENTER
 62
7
  6
CONTINUOUS
 10
69.3346554644
 20
153.2856334842
 40
10.0
 50
270.0
 51
323.9601240627
  0
ARC
  8
13_KOMPONENTER
 62
7
  6
CONTINUOUS
 10
80.9949095023
 20
152.7083198034
 40
3.0
 50
140.2650261832
 51
180.0
  0
ARC
  8
13_KOMPONENTER
 62
7
  6
CONTINUOUS
 10
86.9949095023
 20
152.7083198034
 40
3.0
 50
0.0000111419
 51
39.7350706712
  0
ARC
  8
13_KOMPONENTER
 62
7
  6
CONTINUOUS
 10
85.9261127904
 20
155.7856334842
 40
1.0
 50
53.1874989491
 51
90.0001253874
  0
ARC
  8
13_KOMPONENTER
 62
7
  6
CONTINUOUS
 10
82.0637106432
 20
155.7856334842
 40
1.0
 50
90.0
 51
126.8125849805
  0
ARC
  8
13_KOMPONENTER
 62
7
  6
CONTINUOUS
 10
81.4822588287
 20
155.7856334842
 40
1.0
 50
90.0
 51
122.9545473106
  0
ARC
  8
13_KOMPONENTER
 62
7
  6
CONTINUOUS
 10
86.5075601758
 20
155.7856334842
 40
1.0
 50
57.0454526894
 51
90.0
  0
ARC
  8
13_KOMPONENTER
 62
7
  6
CONTINUOUS
 10
96.9949095023
 20
149.2270619127
 40
10.0
 50
235.150095421
 51
242.2417561891
  0
ARC
  8
13_KOMPONENTER
 62
7
  6
CONTINUOUS
 10
96.9949095023
 20
149.2270619127
 40
10.0
 50
297.7582438109
 51
304.849904579
  0
ARC
  8
13_KOMPONENTER
 62
7
  6
CONTINUOUS
 10
107.6117982518
 20
148.2337121933
 40
10.0
 50
39.7343827775
 51
57.0454526894
  0
ARC
  8
13_KOMPONENTER
 62
7
  6
CONTINUOUS
 10
106.9949095023
 20
152.7083198034
 40
3.0
 50
140.2650262145
 51
180.0
  0
ARC
  8
13_KOMPONENTER
 62
7
  6
CONTINUOUS
 10
107.4822588287
 20
155.7856334842
 40
1.0
 50
90.0
 51
122.9545473106
  0
ARC
  8
13_KOMPONENTER
 62
7
  6
CONTINUOUS
 10
122.9949095023
 20
135.7270619127
 40
5.0
 50
65.9506016389
 51
114.0493983611
  0
ARC
  8
13_KOMPONENTER
 62
7
  6
CONTINUOUS
 10
119.7347165594
 20
143.0326174683
 40
3.0
 50
242.2417561891
 51
294.0493983611
  0
ARC
  8
13_KOMPONENTER
 62
7
  6
CONTINUOUS
 10
126.2551024451
 20
143.0326174683
 40
3.0
 50
245.9506016389
 51
297.7582438109
  0
ARC
  8
13_KOMPONENTER
 62
7
  6
CONTINUOUS
 10
126.9949095023
 20
143.4824992662
 40
3.0
 50
304.849904579
 51
360.0
  0
ARC
  8
13_KOMPONENTER
 62
7
  6
CONTINUOUS
 10
118.9949095023
 20
143.4824992662
 40
3.0
 50
180.0
 51
235.150095421
  0
ARC
  8
13_KOMPONENTER
 62
7
  6
CONTINUOUS
 10
148.9949095023
 20
135.7270619127
 40
5.0
 50
90.0
 51
114.0493983611
  0
ARC
  8
13_KOMPONENTER
 62
7
  6
CONTINUOUS
 10
145.7347165594
 20
143.0326174683
 40
3.0
 50
242.2417561891
 51
294.0493983611
  0
ARC
  8
13_KOMPONENTER
 62
7
  6
CONTINUOUS
 10
144.9949095023
 20
143.4824992662
 40
3.0
 50
180.0
 51
235.150095421
  0
ARC
  8
13_KOMPONENTER
 62
7
  6
CONTINUOUS
 10
112.3780207528
 20
148.2337121933
 40
10.0
 50
122.9545473106
 51
140.2654271383
  0
ARC
  8
13_KOMPONENTER
 62
7
  6
CONTINUOUS
 10
138.3780207528
 20
148.2337121933
 40
10.0
 50
122.9545473106
 51
140.2656063336
  0
ARC
  8
13_KOMPONENTER
 62
7
  6
CONTINUOUS
 10
122.9949095023
 20
149.2270619127
 40
10.0
 50
235.150095421
 51
242.2417561891
  0
ARC
  8
13_KOMPONENTER
 62
7
  6
CONTINUOUS
 10
122.9949095023
 20
149.2270619127
 40
10.0
 50
297.7582438109
 51
304.849904579
  0
ARC
  8
13_KOMPONENTER
 62
7
  6
CONTINUOUS
 10
148.9949095023
 20
149.2270619127
 40
10.0
 50
235.150095421
 51
242.2417561891
  0
ARC
  8
13_KOMPONENTER
 62
7
  6
CONTINUOUS
 10
133.6117982518
 20
148.2337121933
 40
10.0
 50
39.7346019389
 51
57.0454526894
  0
ARC
  8
13_KOMPONENTER
 62
7
  6
CONTINUOUS
 10
132.9949095023
 20
152.7083198034
 40
3.0
 50
140.2656235322
 51
179.9999994927
  0
ARC
  8
13_KOMPONENTER
 62
7
  6
CONTINUOUS
 10
112.9949095023
 20
152.7083198034
 40
3.0
 50
359.9999985501
 51
39.7343401712
  0
ARC
  8
13_KOMPONENTER
 62
7
  6
CONTINUOUS
 10
138.9949095023
 20
152.7083198034
 40
3.0
 50
0.0000111419
 51
39.7350707093
  0
ARC
  8
13_KOMPONENTER
 62
7
  6
CONTINUOUS
 10
138.5075601758
 20
155.7856334842
 40
1.0
 50
57.0454526894
 51
90.0
  0
ARC
  8
13_KOMPONENTER
 62
7
  6
CONTINUOUS
 10
112.5075601758
 20
155.7856334842
 40
1.0
 50
57.0454526894
 51
90.0
  0
ARC
  8
13_KOMPONENTER
 62
7
  6
CONTINUOUS
 10
133.4822588287
 20
155.7856334842
 40
1.0
 50
90.0
 51
122.9545473106
  0
ARC
  8
13_KOMPONENTER
 62
7
  6
CONTINUOUS
 10
172.4949095023
 20
110.059831703
 40
3.0
 50
180.0
 51
215.7532883526
  0
ARC
  8
13_KOMPONENTER
 62
7
  6
CONTINUOUS
 10
151.9878602774
 20
106.7856334842
 40
1.0
 50
270.0
 51
305.0897993214
  0
ARC
  8
13_KOMPONENTER
 62
7
  6
CONTINUOUS
 10
173.0019587271
 20
106.7856334842
 40
1.0
 50
234.9102006786
 51
270.0
  0
ARC
  8
13_KOMPONENTER
 62
7
  6
CONTINUOUS
 10
158.9949095023
 20
106.7356334842
 40
0.5
 50
270.0
 51
0.0000001534
  0
ARC
  8
13_KOMPONENTER
 62
7
  6
CONTINUOUS
 10
165.9949095023
 20
106.7356334842
 40
0.5
 50
179.9999998466
 51
270.0
  0
ARC
  8
13_KOMPONENTER
 62
7
  6
CONTINUOUS
 10
172.8141240278
 20
114.149902166
 40
10.0
 50
305.0897993214
 51
324.2467250455
  0
ARC
  8
13_KOMPONENTER
 62
7
  6
CONTINUOUS
 10
151.6756949768
 20
114.149902166
 40
10.0
 50
210.8673445575
 51
234.9102006786
  0
ARC
  8
13_KOMPONENTER
 62
7
  6
CONTINUOUS
 10
149.4382455893
 20
112.8125476903
 40
7.393336087
 50
141.6064533158
 51
210.867344269
  0
ARC
  8
13_KOMPONENTER
 62
7
  6
CONTINUOUS
 10
152.4949095023
 20
115.5410708376
 40
3.0
 50
38.3935466842
 51
55.150095421
  0
ARC
  8
13_KOMPONENTER
 62
7
  6
CONTINUOUS
 10
172.4949095023
 20
115.5410708376
 40
3.0
 50
124.849904579
 51
180.0
  0
ARC
  8
13_KOMPONENTER
 62
7
  6
CONTINUOUS
 10
168.4949095023
 20
115.2356334842
 40
1.0
 50
270.0
 51
357.1400808166
  0
ARC
  8
13_KOMPONENTER
 62
7
  6
CONTINUOUS
 10
158.9949095023
 20
113.7356334842
 40
0.5
 50
359.9999998466
 51
90.0
  0
ARC
  8
13_KOMPONENTER
 62
7
  6
CONTINUOUS
 10
165.9949095023
 20
113.7356334842
 40
0.5
 50
90.0
 51
180.0000001534
  0
ARC
  8
13_KOMPONENTER
 62
7
  6
CONTINUOUS
 10
178.4949095023
 20
110.059831703
 40
3.0
 50
324.246680107
 51
360.0
  0
ARC
  8
13_KOMPONENTER
 62
7
  6
CONTINUOUS
 10
198.4949095023
 20
110.059831703
 40
3.0
 50
180.0
 51
215.7532885331
  0
ARC
  8
13_KOMPONENTER
 62
7
  6
CONTINUOUS
 10
204.4949095023
 20
110.059831703
 40
3.0
 50
324.2461299912
 51
359.999863875
  0
ARC
  8
13_KOMPONENTER
 62
7
  6
CONTINUOUS
 10
177.9878602857
 20
106.7856334869
 40
1.0000000003
 50
269.9999995269
 51
305.0897988437
  0
ARC
  8
13_KOMPONENTER
 62
7
  6
CONTINUOUS
 10
199.001958715
 20
106.7856334882
 40
1.0000000004
 50
234.9102013786
 51
270.0000006931
  0
ARC
  8
13_KOMPONENTER
 62
7
  6
CONTINUOUS
 10
203.9878602774
 20
106.7856334842
 40
1.0
 50
270.0
 51
305.0897993214
  0
ARC
  8
13_KOMPONENTER
 62
7
  6
CONTINUOUS
 10
184.9949095023
 20
106.7356334842
 40
0.5
 50
270.0
 51
0.0000001534
  0
ARC
  8
13_KOMPONENTER
 62
7
  6
CONTINUOUS
 10
191.9949095023
 20
106.7356334842
 40
0.5
 50
179.9999998466
 51
270.0
  0
ARC
  8
13_KOMPONENTER
 62
7
  6
CONTINUOUS
 10
184.9949095023
 20
113.0244456427
 40
0.5
 50
0.0
 51
84.912993238
  0
ARC
  8
13_KOMPONENTER
 62
7
  6
CONTINUOUS
 10
178.1756949768
 20
114.149902166
 40
10.0
 50
215.7532654924
 51
234.9102006786
  0
ARC
  8
13_KOMPONENTER
 62
7
  6
CONTINUOUS
 10
178.4949095023
 20
115.5410708376
 40
3.0
 50
0.0
 51
55.150095421
  0
ARC
  8
13_KOMPONENTER
 62
7
  6
CONTINUOUS
 10
191.9949095023
 20
112.401313154
 40
0.5
 50
84.912993238
 51
180.0
  0
ARC
  8
13_KOMPONENTER
 62
7
  6
CONTINUOUS
 10
204.1756949768
 20
114.149902166
 40
10.0
 50
215.7532655465
 51
234.9102006786
  0
ARC
  8
13_KOMPONENTER
 62
7
  6
CONTINUOUS
 10
198.8141240278
 20
114.149902166
 40
10.0
 50
305.0897993214
 51
324.2465600108
  0
ARC
  8
13_KOMPONENTER
 62
7
  6
CONTINUOUS
 10
198.4949095023
 20
115.5410708376
 40
3.0
 50
124.849904579
 51
180.0
  0
ARC
  8
13_KOMPONENTER
 62
7
  6
CONTINUOUS
 10
204.4949095023
 20
115.5410708376
 40
3.0
 50
0.0
 51
55.150095421
  0
ARC
  8
13_KOMPONENTER
 62
7
  6
CONTINUOUS
 10
168.4949095023
 20
121.2856334842
 40
4.0
 50
304.849904579
 51
71.7900431357
  0
ARC
  8
13_KOMPONENTER
 62
7
  6
CONTINUOUS
 10
156.4949095023
 20
121.2856334842
 40
4.0
 50
108.2099568643
 51
235.150095421
  0
ARC
  8
13_KOMPONENTER
 62
7
  6
CONTINUOUS
 10
155.8699095023
 20
123.1854690034
 40
2.0
 50
15.0
 51
108.2099568643
  0
ARC
  8
13_KOMPONENTER
 62
7
  6
CONTINUOUS
 10
169.1199095023
 20
123.1854690034
 40
2.0
 50
71.7900431357
 51
165.0
  0
ARC
  8
13_KOMPONENTER
 62
7
  6
CONTINUOUS
 10
165.1396183686
 20
123.7856334842
 40
2.0
 50
270.0
 51
345.0
  0
ARC
  8
13_KOMPONENTER
 62
7
  6
CONTINUOUS
 10
159.8502006359
 20
123.7856334842
 40
2.0
 50
195.0
 51
270.0
  0
ARC
  8
13_KOMPONENTER
 62
7
  6
CONTINUOUS
 10
194.4949095023
 20
121.2856334842
 40
4.0
 50
304.849904579
 51
71.7900431357
  0
ARC
  8
13_KOMPONENTER
 62
7
  6
CONTINUOUS
 10
182.4949095023
 20
121.2856334842
 40
4.0
 50
108.2099568643
 51
235.150095421
  0
ARC
  8
13_KOMPONENTER
 62
7
  6
CONTINUOUS
 10
181.8699095023
 20
123.1854690034
 40
2.0
 50
15.0
 51
108.2099568643
  0
ARC
  8
13_KOMPONENTER
 62
7
  6
CONTINUOUS
 10
195.1199095023
 20
123.1854690034
 40
2.0
 50
71.7900431357
 51
165.0
  0
ARC
  8
13_KOMPONENTER
 62
7
  6
CONTINUOUS
 10
191.1396183686
 20
123.7856334842
 40
2.0
 50
270.0
 51
345.0
  0
ARC
  8
13_KOMPONENTER
 62
7
  6
CONTINUOUS
 10
185.8502006359
 20
123.7856334842
 40
2.0
 50
195.0
 51
270.0
  0
ARC
  8
13_KOMPONENTER
 62
7
  6
CONTINUOUS
 10
210.9949095023
 20
106.7356334842
 40
0.5
 50
270.0
 51
0.0000001062
  0
ARC
  8
13_KOMPONENTER
 62
7
  6
CONTINUOUS
 10
217.9949095023
 20
106.7356334842
 40
0.5
 50
180.0
 51
270.0
  0
ARC
  8
13_KOMPONENTER
 62
7
  6
CONTINUOUS
 10
217.9949095023
 20
110.0868232264
 40
0.5
 50
84.913
 51
180.0
  0
ARC
  8
13_KOMPONENTER
 62
7
  6
CONTINUOUS
 10
224.4949095023
 20
114.0162007989
 40
3.0
 50
180.0
 51
189.6494631176
  0
ARC
  8
13_KOMPONENTER
 62
7
  6
CONTINUOUS
 10
208.4949095023
 20
112.4384345818
 40
1.0
 50
180.01380616
 51
264.913
  0
ARC
  8
13_KOMPONENTER
 62
7
  6
CONTINUOUS
 10
221.1003328019
 20
111.3163133258
 40
1.0
 50
264.913
 51
20.6165194874
  0
ARC
  8
13_KOMPONENTER
 62
7
  6
CONTINUOUS
 10
210.9949095023
 20
110.7099535418
 40
0.5
 50
0.0
 51
84.912993238
  0
ARC
  8
13_KOMPONENTER
 62
7
  6
CONTINUOUS
 10
234.4949095023
 20
110.3694349971
 40
10.0
 50
359.9990674016
 51
15.3594107542
  0
ARC
  8
13_KOMPONENTER
 62
7
  6
CONTINUOUS
 10
240.4949095023
 20
106.7856334842
 40
1.0
 50
270.0
 51
360.0
  0
ARC
  8
13_KOMPONENTER
 62
7
  6
CONTINUOUS
 10
228.1749468578
 20
106.7856334842
 40
1.0
 50
249.0299125367
 51
270.0
  0
ARC
  8
13_KOMPONENTER
 62
7
  6
CONTINUOUS
 10
226.7140094647
 20
105.2356365746
 40
0.9999993819
 50
64.8093436205
 51
89.9994704965
  0
ARC
  8
13_KOMPONENTER
 62
7
  6
CONTINUOUS
 10
241.9949095023
 20
106.2856334842
 40
0.5
 50
180.0
 51
270.0
  0
ARC
  8
13_KOMPONENTER
 62
7
  6
CONTINUOUS
 10
243.9949095023
 20
106.2856334842
 40
0.5
 50
270.0
 51
360.0
  0
ARC
  8
13_KOMPONENTER
 62
7
  6
CONTINUOUS
 10
231.3958713964
 20
115.1895400232
 40
10.0
 50
189.6494631176
 51
249.0299125367
  0
ARC
  8
13_KOMPONENTER
 62
7
  6
CONTINUOUS
 10
236.4949095023
 20
112.5774295517
 40
5.0
 50
0.0
 51
16.9574262942
  0
ARC
  8
13_KOMPONENTER
 62
7
  6
CONTINUOUS
 10
239.990337824
 20
114.9750851428
 40
1.0
 50
13.1129220856
 51
82.5
  0
ARC
  8
13_KOMPONENTER
 62
7
  6
CONTINUOUS
 10
236.4354089864
 20
115.443100403
 40
1.0
 50
98.134790197
 51
119.9500607113
  0
ARC
  8
13_KOMPONENTER
 62
7
  6
CONTINUOUS
 10
236.3660404223
 20
115.6356334842
 40
0.8
 50
96.1428992153
 51
116.8481884049
  0
ARC
  8
13_KOMPONENTER
 62
7
  6
CONTINUOUS
 10
261.4949095023
 20
117.7856334842
 40
18.0
 50
164.6414000451
 51
195.3585938178
  0
ARC
  8
13_KOMPONENTER
 62
7
  6
CONTINUOUS
 10
258.4949095023
 20
119.2856334842
 40
18.0
 50
163.0425737058
 51
176.2255496376
  0
ARC
  8
13_KOMPONENTER
 62
7
  6
CONTINUOUS
 10
258.4949095023
 20
119.2856334842
 40
18.0
 50
193.1129220856
 51
196.9574262942
  0
ARC
  8
13_KOMPONENTER
 62
7
  6
CONTINUOUS
 10
234.4949095023
 20
125.2018319713
 40
10.0
 50
344.6406002925
 51
0.000934038
  0
ARC
  8
13_KOMPONENTER
 62
7
  6
CONTINUOUS
 10
234.9949095023
 20
117.7856334842
 40
9.5
 50
338.6430442875
 51
21.3569525187
  0
ARC
  8
13_KOMPONENTER
 62
7
  6
CONTINUOUS
 10
236.4949095023
 20
125.9938374167
 40
5.0
 50
343.0425737058
 51
360.0
  0
ARC
  8
13_KOMPONENTER
 62
7
  6
CONTINUOUS
 10
208.4949095023
 20
121.2856334842
 40
4.0
 50
108.2099568643
 51
235.150095421
  0
ARC
  8
13_KOMPONENTER
 62
7
  6
CONTINUOUS
 10
208.0728267425
 20
122.5686539946
 40
2.6493351688
 50
42.228672063
 51
108.2099568643
  0
ARC
  8
13_KOMPONENTER
 62
7
  6
CONTINUOUS
 10
208.0728267425
 20
122.5686539946
 40
2.6493351688
 50
16.7181360675
 51
17.3479129773
  0
ARC
  8
13_KOMPONENTER
 62
7
  6
CONTINUOUS
 10
212.5256414294
 20
123.9060989003
 40
2.0
 50
196.7181360675
 51
274.3696273051
  0
ARC
  8
13_KOMPONENTER
 62
7
  6
CONTINUOUS
 10
234.9949095023
 20
117.7856334842
 40
1.75
 50
58.4179556297
 51
65.1396745965
  0
ARC
  8
13_KOMPONENTER
 62
7
  6
CONTINUOUS
 10
234.9949095023
 20
117.7856334842
 40
1.75
 50
175.8811273634
 51
360.0
  0
CIRCLE
  8
13_KOMPONENTER
 62
7
  6
CONTINUOUS
 10
234.9949095023
 20
117.7856334842
 40
1.4499340656
  0
ARC
  8
13_KOMPONENTER
 62
7
  6
CONTINUOUS
 10
239.5361219562
 20
120.5363831721
 40
1.0
 50
277.4999861938
 51
356.2255692373
  0
ARC
  8
13_KOMPONENTER
 62
7
  6
CONTINUOUS
 10
236.4354089864
 20
120.1281665653
 40
1.0
 50
238.410545694
 51
277.4999785816
  0
ARC
  8
13_KOMPONENTER
 62
7
  6
CONTINUOUS
 10
236.3660404223
 20
119.9356334842
 40
0.8
 50
243.089038821
 51
263.8810141491
  0
ARC
  8
13_KOMPONENTER
 62
7
  6
CONTINUOUS
 10
220.7449095023
 20
121.7761376502
 40
0.75
 50
0.0
 51
93.8718407384
  0
ARC
  8
13_KOMPONENTER
 62
7
  6
CONTINUOUS
 10
243.9949095023
 20
129.2856334842
 40
0.5
 50
0.0
 51
90.0
  0
ARC
  8
13_KOMPONENTER
 62
7
  6
CONTINUOUS
 10
241.9949095023
 20
129.2856334842
 40
0.5
 50
90.0
 51
180.0
  0
ARC
  8
13_KOMPONENTER
 62
7
  6
CONTINUOUS
 10
149.4949095023
 20
135.7270619127
 40
5.0
 50
65.9506016389
 51
90.0
  0
ARC
  8
13_KOMPONENTER
 62
7
  6
CONTINUOUS
 10
152.7551024451
 20
143.0326174683
 40
3.0
 50
245.9506016389
 51
297.7582438109
  0
ARC
  8
13_KOMPONENTER
 62
7
  6
CONTINUOUS
 10
153.4949095023
 20
143.4824992662
 40
3.0
 50
304.849904579
 51
360.0
  0
ARC
  8
13_KOMPONENTER
 62
7
  6
CONTINUOUS
 10
175.4949095023
 20
135.7270619127
 40
5.0
 50
65.9506016389
 51
114.0493983611
  0
ARC
  8
13_KOMPONENTER
 62
7
  6
CONTINUOUS
 10
172.2347165594
 20
143.0326174683
 40
3.0
 50
242.2417561891
 51
294.0493983611
  0
ARC
  8
13_KOMPONENTER
 62
7
  6
CONTINUOUS
 10
178.7551024451
 20
143.0326174683
 40
3.0
 50
245.9506016389
 51
297.7582438109
  0
ARC
  8
13_KOMPONENTER
 62
7
  6
CONTINUOUS
 10
179.4949095023
 20
143.4824992662
 40
3.0
 50
304.849904579
 51
360.0
  0
ARC
  8
13_KOMPONENTER
 62
7
  6
CONTINUOUS
 10
171.4949095023
 20
143.4824992662
 40
3.0
 50
180.0
 51
235.150095421
  0
ARC
  8
13_KOMPONENTER
 62
7
  6
CONTINUOUS
 10
164.8780207528
 20
148.2337121933
 40
10.0
 50
122.9545473106
 51
140.2653980611
  0
ARC
  8
13_KOMPONENTER
 62
7
  6
CONTINUOUS
 10
160.1117982518
 20
148.2337121933
 40
10.0
 50
39.7343936664
 51
57.0454526894
  0
ARC
  8
13_KOMPONENTER
 62
7
  6
CONTINUOUS
 10
149.4949095023
 20
149.2270619127
 40
10.0
 50
297.7582438109
 51
304.849904579
  0
ARC
  8
13_KOMPONENTER
 62
7
  6
CONTINUOUS
 10
159.4949095023
 20
152.7083198034
 40
3.0
 50
140.2649292907
 51
179.9999888581
  0
ARC
  8
13_KOMPONENTER
 62
7
  6
CONTINUOUS
 10
165.4949095023
 20
152.7083198034
 40
3.0
 50
0.0000005073
 51
39.7343764678
  0
ARC
  8
13_KOMPONENTER
 62
7
  6
CONTINUOUS
 10
165.0075601758
 20
155.7856334842
 40
1.0
 50
57.0454526894
 51
90.0
  0
ARC
  8
13_KOMPONENTER
 62
7
  6
CONTINUOUS
 10
159.9822588287
 20
155.7856334842
 40
1.0
 50
90.0
 51
122.9545473106
  0
ARC
  8
13_KOMPONENTER
 62
7
  6
CONTINUOUS
 10
186.1117982518
 20
148.2337121933
 40
10.0
 50
39.7345734373
 51
57.0454526894
  0
ARC
  8
13_KOMPONENTER
 62
7
  6
CONTINUOUS
 10
175.4949095023
 20
149.2270619127
 40
10.0
 50
235.150095421
 51
242.2417561891
  0
ARC
  8
13_KOMPONENTER
 62
7
  6
CONTINUOUS
 10
175.4949095023
 20
149.2270619127
 40
10.0
 50
297.7582438109
 51
304.849904579
  0
ARC
  8
13_KOMPONENTER
 62
7
  6
CONTINUOUS
 10
185.4949095023
 20
152.7083198034
 40
3.0
 50
140.2656598288
 51
180.0000014499
  0
ARC
  8
13_KOMPONENTER
 62
7
  6
CONTINUOUS
 10
185.9822588287
 20
155.7856334842
 40
1.0
 50
90.0
 51
122.9545473106
  0
ARC
  8
13_KOMPONENTER
 62
7
  6
CONTINUOUS
 10
198.2347165594
 20
143.0326174683
 40
3.0
 50
242.2417561891
 51
294.0493983611
  0
ARC
  8
13_KOMPONENTER
 62
7
  6
CONTINUOUS
 10
197.4949095023
 20
143.4824992662
 40
3.0
 50
180.0
 51
235.150095421
  0
ARC
  8
13_KOMPONENTER
 62
7
  6
CONTINUOUS
 10
201.4949095023
 20
135.7270619127
 40
5.0
 50
65.9506016389
 51
114.0493983611
  0
ARC
  8
13_KOMPONENTER
 62
7
  6
CONTINUOUS
 10
204.7551024451
 20
143.0326174683
 40
3.0
 50
245.9506016389
 51
297.7582438109
  0
ARC
  8
13_KOMPONENTER
 62
7
  6
CONTINUOUS
 10
205.4949095023
 20
143.4824992662
 40
3.0
 50
304.849904579
 51
360.0
  0
ARC
  8
13_KOMPONENTER
 62
7
  6
CONTINUOUS
 10
190.8780207528
 20
148.2337121933
 40
10.0
 50
122.9545473106
 51
140.2656172225
  0
ARC
  8
13_KOMPONENTER
 62
7
  6
CONTINUOUS
 10
201.4949095023
 20
149.2270619127
 40
10.0
 50
235.150095421
 51
242.2417561891
  0
ARC
  8
13_KOMPONENTER
 62
7
  6
CONTINUOUS
 10
201.4949095023
 20
149.2270619127
 40
10.0
 50
297.7582438109
 51
304.849904579
  0
ARC
  8
13_KOMPONENTER
 62
7
  6
CONTINUOUS
 10
191.4949095023
 20
152.7083198034
 40
3.0
 50
0.0
 51
39.7349737855
  0
ARC
  8
13_KOMPONENTER
 62
7
  6
CONTINUOUS
 10
191.0075601758
 20
155.7856334842
 40
1.0
 50
57.0454526894
 51
90.0
  0
ARC
  8
13_KOMPONENTER
 62
7
  6
CONTINUOUS
 10
216.8780207528
 20
148.2337121933
 40
10.0
 50
122.9545473106
 51
140.2653980726
  0
ARC
  8
13_KOMPONENTER
 62
7
  6
CONTINUOUS
 10
212.1117982518
 20
148.2337121933
 40
10.0
 50
39.7345734473
 51
57.0454526894
  0
ARC
  8
13_KOMPONENTER
 62
7
  6
CONTINUOUS
 10
223.4949095023
 20
149.1671963744
 40
3.0
 50
179.9994121182
 51
216.0398759373
  0
ARC
  8
13_KOMPONENTER
 62
7
  6
CONTINUOUS
 10
229.1551635401
 20
153.2856334842
 40
10.0
 50
216.0398759373
 51
270.0
  0
ARC
  8
13_KOMPONENTER
 62
7
  6
CONTINUOUS
 10
211.4949095023
 20
152.7083198034
 40
3.0
 50
140.2649293288
 51
179.9999888581
  0
ARC
  8
13_KOMPONENTER
 62
7
  6
CONTINUOUS
 10
217.4949095023
 20
152.7083198034
 40
3.0
 50
0.0
 51
39.7349738168
  0
ARC
  8
13_KOMPONENTER
 62
7
  6
CONTINUOUS
 10
211.9822588287
 20
155.7856334842
 40
1.0
 50
90.0
 51
122.9545473106
  0
ARC
  8
13_KOMPONENTER
 62
7
  6
CONTINUOUS
 10
217.0075601758
 20
155.7856334842
 40
1.0
 50
57.0454526894
 51
90.0
  0
ARC
  8
13_KOMPONENTER
 62
7
  6
CONTINUOUS
 10
216.4261083613
 20
155.7856334842
 40
1.0
 50
53.1874150195
 51
90.0
  0
ARC
  8
13_KOMPONENTER
 62
7
  6
CONTINUOUS
 10
212.5637105922
 20
155.7856334842
 40
1.0
 50
90.0
 51
126.8125381278
  0
ARC
  8
13_KOMPONENTER
 62
7
  6
CONTINUOUS
 10
53.9949095023
 20
228.9498855013
 40
3.0
 50
336.8685791854
 51
359.9998022325
  0
ARC
  8
13_KOMPONENTER
 62
7
  6
CONTINUOUS
 10
75.9949095023
 20
226.7609447606
 40
1.0
 50
270.0
 51
360.0
  0
ARC
  8
13_KOMPONENTER
 62
7
  6
CONTINUOUS
 10
91.9949095023
 20
226.7609447606
 40
1.0
 50
180.0
 51
270.0
  0
ARC
  8
13_KOMPONENTER
 62
7
  6
CONTINUOUS
 10
66.7449095023
 20
226.7609447606
 40
1.0
 50
270.0
 51
360.0
  0
ARC
  8
13_KOMPONENTER
 62
7
  6
CONTINUOUS
 10
72.7449095023
 20
226.7609447606
 40
1.0
 50
180.0
 51
270.0
  0
ARC
  8
13_KOMPONENTER
 62
7
  6
CONTINUOUS
 10
57.9949095023
 20
226.7609447606
 40
1.0
 50
180.0
 51
270.0
  0
ARC
  8
13_KOMPONENTER
 62
7
  6
CONTINUOUS
 10
55.5647925047
 20
226.2609488821
 40
0.5
 50
269.9997982483
 51
336.8680656064
  0
ARC
  8
13_KOMPONENTER
 62
7
  6
CONTINUOUS
 10
80.4949095023
 20
229.4666762482
 40
0.5
 50
270.0
 51
360.0
  0
ARC
  8
13_KOMPONENTER
 62
7
  6
CONTINUOUS
 10
87.4949095023
 20
232.1974487859
 40
0.5
 50
180.0
 51
268.5095717656
  0
ARC
  8
13_KOMPONENTER
 62
7
  6
CONTINUOUS
 10
117.9949095023
 20
226.7609447606
 40
1.0
 50
180.0
 51
270.0
  0
ARC
  8
13_KOMPONENTER
 62
7
  6
CONTINUOUS
 10
101.9949095023
 20
226.7609447606
 40
1.0
 50
270.0
 51
360.0
  0
ARC
  8
13_KOMPONENTER
 62
7
  6
CONTINUOUS
 10
127.9949095023
 20
226.7609447606
 40
1.0
 50
270.0
 51
360.0
  0
ARC
  8
13_KOMPONENTER
 62
7
  6
CONTINUOUS
 10
115.9949095023
 20
230.5359447606
 40
1.0
 50
0.0
 51
82.3950406582
  0
ARC
  8
13_KOMPONENTER
 62
7
  6
CONTINUOUS
 10
129.9949095023
 20
230.5359447606
 40
1.0
 50
97.6049584911
 51
180.0
  0
ARC
  8
13_KOMPONENTER
 62
7
  6
CONTINUOUS
 10
138.0514762845
 20
226.5109447606
 40
0.75
 50
270.0
 51
356.0
  0
ARC
  8
13_KOMPONENTER
 62
7
  6
CONTINUOUS
 10
133.9383406914
 20
226.5109447606
 40
0.7499987858
 50
184.0000108104
 51
270.0001549726
  0
ARC
  8
13_KOMPONENTER
 62
7
  6
CONTINUOUS
 10
113.4949095023
 20
232.0359447606
 40
0.5
 50
180.0
 51
270.0
  0
ARC
  8
13_KOMPONENTER
 62
7
  6
CONTINUOUS
 10
106.4949095023
 20
232.0359447606
 40
0.5
 50
270.0
 51
360.0
  0
ARC
  8
13_KOMPONENTER
 62
7
  6
CONTINUOUS
 10
132.4949095023
 20
232.0359447606
 40
0.5
 50
270.0
 51
360.0
  0
ARC
  8
13_KOMPONENTER
 62
7
  6
CONTINUOUS
 10
139.4949095023
 20
232.0359447606
 40
0.5
 50
180.0
 51
270.0
  0
ARC
  8
13_KOMPONENTER
 62
7
  6
CONTINUOUS
 10
147.5949095023
 20
234.9859447606
 40
0.3
 50
90.002490681
 51
179.9999613416
  0
ARC
  8
13_KOMPONENTER
 62
7
  6
CONTINUOUS
 10
80.4949095023
 20
238.1652423751
 40
0.5
 50
0.0000000005
 51
91.9524001509
  0
ARC
  8
13_KOMPONENTER
 62
7
  6
CONTINUOUS
 10
87.4949095023
 20
238.3744658439
 40
0.5
 50
91.4900837461
 51
180.0
  0
ARC
  8
13_KOMPONENTER
 62
7
  6
CONTINUOUS
 10
53.9949095023
 20
241.6220040199
 40
3.0
 50
0.0002091927
 51
23.1314208146
  0
ARC
  8
13_KOMPONENTER
 62
7
  6
CONTINUOUS
 10
78.9949095023
 20
241.8049447606
 40
2.0
 50
90.0
 51
180.002634403
  0
ARC
  8
13_KOMPONENTER
 62
7
  6
CONTINUOUS
 10
75.9949095023
 20
241.2609447606
 40
1.0
 50
0.0
 51
90.0
  0
ARC
  8
13_KOMPONENTER
 62
7
  6
CONTINUOUS
 10
57.9949095023
 20
243.8109447606
 40
1.0
 50
90.0
 51
180.0
  0
ARC
  8
13_KOMPONENTER
 62
7
  6
CONTINUOUS
 10
91.9949095023
 20
243.8109447606
 40
1.0
 50
90.0
 51
180.0
  0
ARC
  8
13_KOMPONENTER
 62
7
  6
CONTINUOUS
 10
75.9949095023
 20
243.8109447606
 40
1.0
 50
0.0
 51
90.0
  0
ARC
  8
13_KOMPONENTER
 62
7
  6
CONTINUOUS
 10
57.9949095023
 20
241.2609447606
 40
1.0
 50
90.0
 51
180.0
  0
ARC
  8
13_KOMPONENTER
 62
7
  6
CONTINUOUS
 10
55.5647924968
 20
244.3109406576
 40
0.5
 50
23.1319320861
 51
90.0002008452
  0
ARC
  8
13_KOMPONENTER
 62
7
  6
CONTINUOUS
 10
115.9949095023
 20
240.0359447606
 40
1.0
 50
270.0
 51
360.0
  0
ARC
  8
13_KOMPONENTER
 62
7
  6
CONTINUOUS
 10
129.9949095023
 20
240.0359447606
 40
1.0
 50
180.0
 51
270.0
  0
ARC
  8
13_KOMPONENTER
 62
7
  6
CONTINUOUS
 10
113.4949095023
 20
238.5359447606
 40
0.5
 50
90.0
 51
180.0
  0
ARC
  8
13_KOMPONENTER
 62
7
  6
CONTINUOUS
 10
106.4949095023
 20
238.5359447606
 40
0.5
 50
0.0
 51
90.0
  0
ARC
  8
13_KOMPONENTER
 62
7
  6
CONTINUOUS
 10
132.4949095023
 20
238.5359447606
 40
0.5
 50
0.0
 51
90.0
  0
ARC
  8
13_KOMPONENTER
 62
7
  6
CONTINUOUS
 10
139.4949095023
 20
238.5359447606
 40
0.5
 50
90.0
 51
180.0
  0
ARC
  8
13_KOMPONENTER
 62
7
  6
CONTINUOUS
 10
117.9949095023
 20
243.8109447606
 40
1.0
 50
90.0
 51
180.0
  0
ARC
  8
13_KOMPONENTER
 62
7
  6
CONTINUOUS
 10
101.9949095023
 20
243.8109447606
 40
1.0
 50
0.0
 51
90.0
  0
ARC
  8
13_KOMPONENTER
 62
7
  6
CONTINUOUS
 10
127.9949095023
 20
243.8109447606
 40
1.0
 50
0.0
 51
90.0
  0
ARC
  8
13_KOMPONENTER
 62
7
  6
CONTINUOUS
 10
170.4949095023
 20
226.7609447606
 40
1.0
 50
180.0
 51
270.0
  0
ARC
  8
13_KOMPONENTER
 62
7
  6
CONTINUOUS
 10
180.4949095023
 20
226.7609447606
 40
1.0
 50
270.0
 51
360.0
  0
ARC
  8
13_KOMPONENTER
 62
7
  6
CONTINUOUS
 10
196.4949095023
 20
226.7609447606
 40
1.0
 50
180.0
 51
270.0
  0
ARC
  8
13_KOMPONENTER
 62
7
  6
CONTINUOUS
 10
182.4949095023
 20
230.5359447606
 40
1.0
 50
90.0
 51
180.0
  0
ARC
  8
13_KOMPONENTER
 62
7
  6
CONTINUOUS
 10
168.4949095023
 20
230.5359447606
 40
1.0
 50
0.0
 51
90.0
  0
ARC
  8
13_KOMPONENTER
 62
7
  6
CONTINUOUS
 10
160.43834272
 20
226.5109447606
 40
0.75
 50
184.0
 51
270.0
  0
ARC
  8
13_KOMPONENTER
 62
7
  6
CONTINUOUS
 10
165.9949095023
 20
232.0359447606
 40
0.5
 50
180.0
 51
270.0
  0
ARC
  8
13_KOMPONENTER
 62
7
  6
CONTINUOUS
 10
158.9949095023
 20
232.0359447606
 40
0.5
 50
270.0
 51
360.0
  0
ARC
  8
13_KOMPONENTER
 62
7
  6
CONTINUOUS
 10
191.9949095023
 20
232.0359447606
 40
0.5
 50
180.0
 51
270.0
  0
ARC
  8
13_KOMPONENTER
 62
7
  6
CONTINUOUS
 10
184.9949095023
 20
232.0359447606
 40
0.5
 50
270.0
 51
360.0
  0
ARC
  8
13_KOMPONENTER
 62
7
  6
CONTINUOUS
 10
150.8949095023
 20
234.9859447606
 40
0.3
 50
0.0000386584
 51
89.997509319
  0
ARC
  8
13_KOMPONENTER
 62
7
  6
CONTINUOUS
 10
244.4949095023
 20
228.9498855013
 40
3.0
 50
180.0002091927
 51
203.1314208146
  0
ARC
  8
13_KOMPONENTER
 62
7
  6
CONTINUOUS
 10
240.4949095023
 20
226.7609447606
 40
1.0
 50
270.0
 51
360.0
  0
ARC
  8
13_KOMPONENTER
 62
7
  6
CONTINUOUS
 10
222.4949095023
 20
226.7609447606
 40
1.0
 50
180.0
 51
270.0
  0
ARC
  8
13_KOMPONENTER
 62
7
  6
CONTINUOUS
 10
206.4949095023
 20
226.7609447606
 40
1.0
 50
270.0
 51
360.0
  0
ARC
  8
13_KOMPONENTER
 62
7
  6
CONTINUOUS
 10
231.7449095023
 20
226.7609447606
 40
1.0
 50
180.0
 51
270.0
  0
ARC
  8
13_KOMPONENTER
 62
7
  6
CONTINUOUS
 10
225.7449095023
 20
226.7609447606
 40
1.0
 50
270.0
 51
360.0
  0
ARC
  8
13_KOMPONENTER
 62
7
  6
CONTINUOUS
 10
242.9250265078
 20
226.2609488636
 40
0.5
 50
203.1319320861
 51
270.0002008452
  0
ARC
  8
13_KOMPONENTER
 62
7
  6
CONTINUOUS
 10
217.9949095023
 20
229.4666762482
 40
0.5
 50
180.0
 51
270.0
  0
ARC
  8
13_KOMPONENTER
 62
7
  6
CONTINUOUS
 10
210.9949095023
 20
232.1974487859
 40
0.5
 50
271.4904282345
 51
360.0
  0
ARC
  8
13_KOMPONENTER
 62
7
  6
CONTINUOUS
 10
182.4949095023
 20
240.0359447606
 40
1.0
 50
180.0
 51
262.3950413596
  0
ARC
  8
13_KOMPONENTER
 62
7
  6
CONTINUOUS
 10
168.4949095023
 20
240.0359447606
 40
1.0
 50
277.6049591886
 51
360.0
  0
ARC
  8
13_KOMPONENTER
 62
7
  6
CONTINUOUS
 10
165.9949095023
 20
238.5359447606
 40
0.5
 50
90.0
 51
180.0
  0
ARC
  8
13_KOMPONENTER
 62
7
  6
CONTINUOUS
 10
158.9949095023
 20
238.5359447606
 40
0.5
 50
0.0
 51
90.0
  0
ARC
  8
13_KOMPONENTER
 62
7
  6
CONTINUOUS
 10
191.9949095023
 20
238.5359447606
 40
0.5
 50
90.0
 51
180.0
  0
ARC
  8
13_KOMPONENTER
 62
7
  6
CONTINUOUS
 10
184.9949095023
 20
238.5359447606
 40
0.5
 50
0.0
 51
90.0
  0
ARC
  8
13_KOMPONENTER
 62
7
  6
CONTINUOUS
 10
170.4949095023
 20
243.8109447606
 40
1.0
 50
90.0
 51
180.0
  0
ARC
  8
13_KOMPONENTER
 62
7
  6
CONTINUOUS
 10
180.4949095023
 20
243.8109447606
 40
1.0
 50
0.0
 51
90.0
  0
ARC
  8
13_KOMPONENTER
 62
7
  6
CONTINUOUS
 10
196.4949095023
 20
243.8109447606
 40
1.0
 50
90.0
 51
180.0
  0
ARC
  8
13_KOMPONENTER
 62
7
  6
CONTINUOUS
 10
217.9949095023
 20
238.1652423751
 40
0.5
 50
88.0475998477
 51
179.9999999981
  0
ARC
  8
13_KOMPONENTER
 62
7
  6
CONTINUOUS
 10
210.9949095023
 20
238.3744658439
 40
0.5
 50
0.0
 51
88.5099162539
  0
ARC
  8
13_KOMPONENTER
 62
7
  6
CONTINUOUS
 10
244.4949095023
 20
241.6220040199
 40
3.0
 50
156.8685791854
 51
179.9998022325
  0
ARC
  8
13_KOMPONENTER
 62
7
  6
CONTINUOUS
 10
219.4949095023
 20
241.8049447606
 40
2.0
 50
0.0
 51
90.0
  0
ARC
  8
13_KOMPONENTER
 62
7
  6
CONTINUOUS
 10
222.4949095023
 20
241.2609447606
 40
1.0
 50
90.0
 51
180.0
  0
ARC
  8
13_KOMPONENTER
 62
7
  6
CONTINUOUS
 10
240.4949095023
 20
243.8109447606
 40
1.0
 50
0.0
 51
90.0
  0
ARC
  8
13_KOMPONENTER
 62
7
  6
CONTINUOUS
 10
240.4949095023
 20
241.2609447606
 40
1.0
 50
0.0
 51
90.0
  0
ARC
  8
13_KOMPONENTER
 62
7
  6
CONTINUOUS
 10
206.4949095023
 20
243.8109447606
 40
1.0
 50
0.0
 51
90.0
  0
ARC
  8
13_KOMPONENTER
 62
7
  6
CONTINUOUS
 10
222.4949095023
 20
243.8109447606
 40
1.0
 50
90.0
 51
180.0
  0
ARC
  8
13_KOMPONENTER
 62
7
  6
CONTINUOUS
 10
242.9250264999
 20
244.3109406391
 40
0.5
 50
89.9997982483
 51
156.8680656064
  0
ARC
  8
13_KOMPONENTER
 62
7
  6
CONTINUOUS
 10
315.7275229488
 20
228.6546003833
 40
0.7499992459
 50
228.7792920038
 51
0.0001007134
  0
ARC
  8
13_KOMPONENTER
 62
7
  6
CONTINUOUS
 10
316.027521692
 20
238.830649854
 40
4.0
 50
109.6225919243
 51
180.001533954
  0
ARC
  8
13_KOMPONENTER
 62
7
  6
CONTINUOUS
 10
320.477521692
 20
235.0859447606
 40
4.0
 50
180.0
 51
270.0
  0
ARC
  8
13_KOMPONENTER
 62
7
  6
CONTINUOUS
 10
320.477521692
 20
235.4859447606
 40
4.0
 50
90.0
 51
180.0
  0
ARC
  8
13_KOMPONENTER
 62
7
  6
CONTINUOUS
 10
321.427521692
 20
235.1609447606
 40
9.4
 50
179.9994228511
 51
270.0000147288
  0
ARC
  8
13_KOMPONENTER
 62
7
  6
CONTINUOUS
 10
321.427521692
 20
235.4109447606
 40
9.4
 50
137.7227526699
 51
139.7349628472
  0
ARC
  8
13_KOMPONENTER
 62
7
  6
CONTINUOUS
 10
321.427521692
 20
235.4109447606
 40
9.4
 50
89.9992911718
 51
120.2262422476
  0
ARC
  8
13_KOMPONENTER
 62
7
  6
CONTINUOUS
 10
321.427521692
 20
235.4109447606
 40
9.4
 50
158.8114740737
 51
180.0005462207
  0
ARC
  8
13_KOMPONENTER
 62
7
  6
CONTINUOUS
 10
310.6543527826
 20
253.9014512882
 40
12.0
 50
289.6225965195
 51
300.226640108
  0
ARC
  8
13_KOMPONENTER
 62
7
  6
CONTINUOUS
 10
326.527521692
 20
243.8109447606
 40
1.0
 50
90.0
 51
180.0
  0
ARC
  8
13_KOMPONENTER
 62
7
  6
CONTINUOUS
 10
326.027521692
 20
243.3109447606
 40
0.5
 50
180.0
 51
270.0
  0
ARC
  8
13_KOMPONENTER
 62
7
  6
CONTINUOUS
 10
339.5275242759
 20
226.7609447606
 40
1.0
 50
180.0000373943
 51
269.9998728114
  0
ARC
  8
13_KOMPONENTER
 62
7
  6
CONTINUOUS
 10
334.5209508503
 20
226.5109447606
 40
0.7499975703
 50
184.0000216327
 51
270.0003101134
  0
ARC
  8
13_KOMPONENTER
 62
7
  6
CONTINUOUS
 10
334.027521692
 20
237.8109447606
 40
5.0
 50
33.5573168532
 51
90.0000048559
  0
ARC
  8
13_KOMPONENTER
 62
7
  6
CONTINUOUS
 10
342.527521692
 20
238.0109447606
 40
5.0
 50
149.5621886098
 51
149.6486530155
  0
ARC
  8
13_KOMPONENTER
 62
7
  6
CONTINUOUS
 10
332.377521692
 20
235.0859447606
 40
4.0
 50
270.0
 51
360.0
  0
ARC
  8
13_KOMPONENTER
 62
7
  6
CONTINUOUS
 10
332.377521692
 20
235.4859447606
 40
4.0
 50
0.0
 51
90.0
  0
ARC
  8
13_KOMPONENTER
 62
7
  6
CONTINUOUS
 10
336.527521692
 20
239.4692571558
 40
2.0
 50
359.9999877914
 51
33.5573274902
  0
ARC
  8
13_KOMPONENTER
 62
7
  6
CONTINUOUS
 10
348.427521692
 20
235.1609447606
 40
9.4
 50
180.0
 51
270.0004371853
  0
ARC
  8
13_KOMPONENTER
 62
7
  6
CONTINUOUS
 10
348.427521692
 20
235.4109447606
 40
9.4
 50
89.9999999984
 51
180.0
  0
ARC
  8
13_KOMPONENTER
 62
7
  6
CONTINUOUS
 10
353.627521692
 20
235.1609447606
 40
9.4
 50
270.0
 51
360.0
  0
ARC
  8
13_KOMPONENTER
 62
7
  6
CONTINUOUS
 10
353.627521692
 20
235.4109447606
 40
9.4
 50
0.0
 51
90.0
  0
ARC
  8
13_KOMPONENTER
 62
7
  6
CONTINUOUS
 10
347.0995866067
 20
242.8109447606
 40
2.0
 50
75.53637873
 51
90.0011578167
  0
ENDSEC
  0
EOF
