  0
SECTION
  2
HEADER
  9
$EXTMAX
 10
420.0
 20
297.0
 30
0.0
  9
$EXTMIN
 10
0.0
 20
0.0
 30
0.0
  9
$LIMMIN
 10
0.0
 20
0.0
  9
$LIMMAX
 10
420.0
 20
297.0
  9
$VIEWCTR
 10
210.0
 20
148.5
  9
$VIEWSIZE
 40
297.0
  9
$CLAYER
  8
0
  9
$LTSCALE
 40
23.1
  9
$CELTYPE
  6
BYLAYER
  9
$DIMSCALE
 40
1.0
  9
$DIMASZ
 40
3.5
  9
$DIMEXO
 40
2.625
  9
$DIMDLI
 40
15.96
  9
$DIMEXE
 40
7.56
  9
$DIMCEN
 40
3.78
  9
$DIMLFAC
 40
1.0
  9
$DIMBLK
  1
_FILLED
  9
$DIMTXT
 40
3.5
  9
$PDMODE
 70
3
  9
$PDSIZE
 40
0.3125
  9
$TILEMODE
 70
1
  0
ENDSEC
  0
SECTION
  2
TABLES
  0
TABLE
  2
LTYPE
 70
6
  0
LTYPE
  2
BYBLOCK
 70
0
  3

 72
65
 73
0
 40
0.0
  0
LTYPE
  2
BYLAYER
 70
0
  3

 72
65
 73
0
 40
0.0
  0
LTYPE
  2
CONTINUOUS
 70
64
  3
Solid line
 72
65
 73
0
 40
0.0
  0
LTYPE
  2
CENTER
 70
64
  3
____ _ ____ _ ____ _ ____ _ ____ _ ____ _ ____
 72
65
 73
4
 40
0.6
 49
0.375
 49
-0.075
 49
0.075
 49
-0.075
  0
LTYPE
  2
HIDDEN
 70
64
  3
- - - - - - - - - - - - - - - - - - - -
 72
65
 73
2
 40
0.2
 49
0.1
 49
-0.1
  0
LTYPE
  2
PHANTOM
 70
64
  3
_____ _ _ _____ _ _ _____ _ _ _____
 72
65
 73
6
 40
0.8
 49
0.45
 49
-0.05
 49
0.1
 49
-0.05
 49
0.1
 49
-0.05
  0
LTYPE
  2
DOT
 70
64
  3
. . . . . . . . . . . . . . . . . . . .
 72
65
 73
2
 40
0.2
 49
0.1
 49
-0.1
  0
LTYPE
  2
DASHED
 70
64
  3
- - - - - - - - - - - - - - - - - - - -
 72
65
 73
2
 40
0.2
 49
0.1
 49
-0.1
  0
ENDTAB
  0
TABLE
  2
LAYER
 70
36
  0
LAYER
  2
0
 70
0
 62
7
  6
CONTINUOUS
  0
LAYER
  2
DEFAULT_1
 70
0
 62
7
  6
CENTER
  0
LAYER
  2
DEFAULT_2
 70
0
 62
8
  6
HIDDEN
  0
LAYER
  2
DEFAULT_3
 70
0
 62
7
  6
PHANTOM
  0
LAYER
  2
00_CURVE
 70
0
 62
7
  6
CONTINUOUS
  0
LAYER
  2
01_SURFACE
 70
0
 62
7
  6
CONTINUOUS
  0
LAYER
  2
02_QUILT
 70
0
 62
7
  6
CONTINUOUS
  0
LAYER
  2
03_COPY_GEOM_FEAT
 70
0
 62
7
  6
CONTINUOUS
  0
LAYER
  2
10_SKELETON
 70
0
 62
7
  6
CONTINUOUS
  0
LAYER
  2
11_EMNER
 70
0
 62
7
  6
CONTINUOUS
  0
LAYER
  2
12_WORKPIECE
 70
0
 62
7
  6
CONTINUOUS
  0
LAYER
  2
13_KOMPONENTER
 70
0
 62
7
  6
CONTINUOUS
  0
LAYER
  2
CURVE
 70
0
 62
7
  6
CONTINUOUS
  0
LAYER
  2
SURFACE
 70
0
 62
7
  6
CONTINUOUS
  0
LAYER
  2
XSEC_DATUMS
 70
0
 62
7
  6
CONTINUOUS
  0
ENDTAB
  0
TABLE
  2
STYLE
 70
1
  0
STYLE
  2
STANDARD
 70
0
 40
0.0
 41
0.8
 50
0.0
 71
0
 42
0.2
  3
txt
  4

  0
STYLE
  2
TEXTSTYLE_1
 70
0
 40
0.0
 41
0.8
 50
0.0
 71
0
 42
0.2
  3
gdt
  4

  0
STYLE
  2
TEXTSTYLE_2
 70
0
 40
0.0
 41
0.6
 50
0.0
 71
0
 42
0.2
  3
txt
  4

  0
STYLE
  2
TEXTSTYLE_3
 70
0
 40
0.0
 41
1.0
 50
0.0
 71
0
 42
0.2
  3
ftb_____.ttf
  4

  0
STYLE
  2
TEXTSTYLE_4
 70
0
 40
0.0
 41
1.0
 50
0.0
 71
0
 42
0.2
  3
fti_____.ttf
  4

  0
STYLE
  2
TEXTSTYLE_5
 70
0
 40
0.0
 41
1.0
 50
0.0
 71
0
 42
0.2
  3
frutiger light.ttf
  4

  0
STYLE
  2
TEXTSTYLE_6
 70
0
 40
0.0
 41
0.7
 50
0.0
 71
0
 42
0.2
  3
txt
  4

  0
STYLE
  2
TEXTSTYLE_7
 70
0
 40
0.0
 41
0.6
 50
0.0
 71
0
 42
0.2
  3
txt
  4

  0
ENDTAB
  0
ENDSEC
  0
SECTION
  2
BLOCKS
  0
BLOCK
  8
0
 62
2
  6
CONTINUOUS
  2
SYMBOL_5_BL1
 70
64
 10
382.7840918555
 20
35.5067593403
  0
TEXT
  8
0
 62
7
  6
CONTINUOUS
 10
373.842376864
 20
30.5995157174
  7
TEXTSTYLE_4
 40
1.0655737705
  1
The brand for plastic modular belts and chains
 41
1.0
 72
0
  0
LINE
  8
0
 62
7
  6
CONTINUOUS
 10
358.7621602445
 20
36.0805298321
 11
358.7621602445
 21
33.9493822911
  0
LINE
  8
0
 62
7
  6
CONTINUOUS
 10
359.0512227376
 20
30.9584509954
 11
359.0512227376
 21
31.0552420547
  0
LINE
  8
0
 62
7
  6
CONTINUOUS
 10
358.7621602445
 20
31.0229783683
 11
358.8199727462
 21
30.8293962497
  0
LINE
  8
0
 62
7
  6
CONTINUOUS
 10
360.1556028675
 20
33.867415078
 11
360.1556028675
 21
36.0805298321
  0
LINE
  8
0
 62
7
  6
CONTINUOUS
 10
361.0746601894
 20
32.0231527829
 11
361.0746601894
 21
30.5067593403
  0
LINE
  8
0
 62
7
  6
CONTINUOUS
 10
361.3637227445
 20
30.5067593403
 11
361.3637227445
 21
31.2488242184
  0
LINE
  8
0
 62
7
  6
CONTINUOUS
 10
361.3637227445
 20
31.3778789641
 11
361.3637227445
 21
32.0231527829
  0
LINE
  8
0
 62
7
  6
CONTINUOUS
 10
358.8199727462
 20
31.216560532
 11
358.7621602445
 21
31.0229783683
  0
LINE
  8
0
 62
7
  6
CONTINUOUS
 10
359.1668477307
 20
30.7971325633
 11
359.0512227376
 21
30.9584509954
  0
LINE
  8
0
 62
7
  6
CONTINUOUS
 10
360.2652852997
 20
31.3133515913
 11
360.3230977445
 21
31.216560532
  0
LINE
  8
0
 62
7
  6
CONTINUOUS
 10
360.6121602997
 20
31.216560532
 11
360.5543476894
 21
31.3456152777
  0
LINE
  8
0
 62
7
  6
CONTINUOUS
 10
362.0408487691
 20
36.0805298321
 11
362.0408487691
 21
34.2772511436
  0
LINE
  8
0
 62
7
  6
CONTINUOUS
 10
362.0408487691
 20
32.9657757338
 11
362.0408487691
 21
32.3100380288
  0
LINE
  8
0
 62
7
  6
CONTINUOUS
 10
362.4043477445
 20
31.1520331591
 11
362.4043477445
 21
30.5067593403
  0
LINE
  8
0
 62
7
  6
CONTINUOUS
 10
362.6934101343
 20
30.5067593403
 11
362.6934101343
 21
31.1520331591
  0
LINE
  8
0
 62
7
  6
CONTINUOUS
 10
359.0512227376
 20
31.0552420547
 11
359.1090352445
 21
31.1842968456
  0
LINE
  8
0
 62
7
  6
CONTINUOUS
 10
358.8199727462
 20
30.8293962497
 11
358.9355977445
 21
30.7003414814
  0
LINE
  8
0
 62
7
  6
CONTINUOUS
 10
362.3465351343
 20
31.2810879048
 11
362.4043477445
 21
31.1520331591
  0
LINE
  8
0
 62
7
  6
CONTINUOUS
 10
363.1559103548
 20
30.7971325633
 11
363.2137226343
 21
30.668077795
  0
LINE
  8
0
 62
7
  6
CONTINUOUS
 10
362.6934101343
 20
31.1520331591
 11
362.6355978548
 21
31.3133515913
  0
LINE
  8
0
 62
7
  6
CONTINUOUS
 10
363.1559103548
 20
31.3456152777
 11
363.1559103548
 21
31.2810879048
  0
LINE
  8
0
 62
7
  6
CONTINUOUS
 10
363.1559103548
 20
30.8939236226
 11
363.1559103548
 21
30.7971325633
  0
LINE
  8
0
 62
7
  6
CONTINUOUS
 10
363.4342913921
 20
32.3100380288
 11
363.4342913921
 21
36.0805298321
  0
LINE
  8
0
 62
7
  6
CONTINUOUS
 10
363.4449727445
 20
30.7648688543
 11
363.4449727445
 21
30.8293962497
  0
LINE
  8
0
 62
7
  6
CONTINUOUS
 10
363.7621602445
 20
36.0805298321
 11
363.7621602445
 21
32.3100380288
  0
LINE
  8
0
 62
7
  6
CONTINUOUS
 10
360.5543476894
 20
30.7003414814
 11
360.6121602997
 21
30.8293962497
  0
LINE
  8
0
 62
7
  6
CONTINUOUS
 10
364.9480979651
 20
30.6035504109
 11
364.890285024
 21
30.7648688543
  0
LINE
  8
0
 62
7
  6
CONTINUOUS
 10
364.6012229651
 20
31.2810879048
 11
364.6012229651
 21
31.1842968456
  0
LINE
  8
0
 62
7
  6
CONTINUOUS
 10
364.6012229651
 20
31.0552420547
 11
364.6012229651
 21
30.8616599362
  0
LINE
  8
0
 62
7
  6
CONTINUOUS
 10
364.890285024
 20
30.7648688543
 11
364.890285024
 21
31.2810879048
  0
LINE
  8
0
 62
7
  6
CONTINUOUS
 10
365.1556028675
 20
32.3100380288
 11
365.1556028675
 21
34.1133167174
  0
LINE
  8
0
 62
7
  6
CONTINUOUS
 10
365.1556028675
 20
35.4247921272
 11
365.1556028675
 21
36.0805298321
  0
LINE
  8
0
 62
7
  6
CONTINUOUS
 10
365.4684104651
 20
32.0231527829
 11
365.4684104651
 21
31.8618343508
  0
LINE
  8
0
 62
7
  6
CONTINUOUS
 10
365.4684104651
 20
31.5391973962
 11
365.4684104651
 21
30.5067593403
  0
LINE
  8
0
 62
7
  6
CONTINUOUS
 10
365.757472524
 20
30.5067593403
 11
365.757472524
 21
31.5391973962
  0
LINE
  8
0
 62
7
  6
CONTINUOUS
 10
365.757472524
 20
31.8618343508
 11
365.757472524
 21
32.0231527829
  0
LINE
  8
0
 62
7
  6
CONTINUOUS
 10
360.3230977445
 20
30.8293962497
 11
360.2652852997
 21
30.7326051679
  0
LINE
  8
0
 62
7
  6
CONTINUOUS
 10
362.6355978548
 20
31.3133515913
 11
362.5777852445
 21
31.3778789641
  0
LINE
  8
0
 62
7
  6
CONTINUOUS
 10
363.5027853548
 20
30.7003414814
 11
363.4449727445
 21
30.7648688543
  0
LINE
  8
0
 62
7
  6
CONTINUOUS
 10
364.6590352445
 20
30.5712867188
 11
364.716847524
 21
30.5067593403
  0
LINE
  8
0
 62
7
  6
CONTINUOUS
 10
364.6012229651
 20
30.668077795
 11
364.6590352445
 21
30.5712867188
  0
LINE
  8
0
 62
7
  6
CONTINUOUS
 10
365.0059102445
 20
30.5067593403
 11
364.9480979651
 21
30.6035504109
  0
LINE
  8
0
 62
7
  6
CONTINUOUS
 10
364.890285024
 20
31.2810879048
 11
364.8324727445
 21
31.3778789641
  0
LINE
  8
0
 62
7
  6
CONTINUOUS
 10
366.2199727445
 20
31.5391973962
 11
366.2199727445
 21
30.5067593403
  0
LINE
  8
0
 62
7
  6
CONTINUOUS
 10
366.5090354651
 20
30.5067593403
 11
366.5090354651
 21
31.2488242184
  0
LINE
  8
0
 62
7
  6
CONTINUOUS
 10
366.5090354651
 20
31.3778789641
 11
366.5090354651
 21
31.5391973962
  0
LINE
  8
0
 62
7
  6
CONTINUOUS
 10
367.0408487691
 20
34.5231527829
 11
367.0408487691
 21
32.3100380288
  0
LINE
  8
0
 62
7
  6
CONTINUOUS
 10
358.9355977445
 20
31.3456152777
 11
358.8199727462
 21
31.216560532
  0
LINE
  8
0
 62
7
  6
CONTINUOUS
 10
359.1090352445
 20
31.1842968456
 11
359.1668477307
 21
31.2488242184
  0
LINE
  8
0
 62
7
  6
CONTINUOUS
 10
358.9355977445
 20
30.7003414814
 11
359.0512227376
 21
30.6358140973
  0
LINE
  8
0
 62
7
  6
CONTINUOUS
 10
359.3402852307
 20
30.7003414814
 11
359.1668477307
 21
30.7971325633
  0
LINE
  8
0
 62
7
  6
CONTINUOUS
 10
364.543410024
 20
31.3456152777
 11
364.6012229651
 21
31.2810879048
  0
LINE
  8
0
 62
7
  6
CONTINUOUS
 10
367.491847524
 20
31.2810879048
 11
367.5496604651
 21
31.1197694727
  0
LINE
  8
0
 62
7
  6
CONTINUOUS
 10
367.838722524
 20
31.1197694727
 11
367.7809102445
 21
31.2810879048
  0
LINE
  8
0
 62
7
  6
CONTINUOUS
 10
367.5496604651
 20
31.1197694727
 11
367.5496604651
 21
30.5067593403
  0
LINE
  8
0
 62
7
  6
CONTINUOUS
 10
367.838722524
 20
30.5067593403
 11
367.838722524
 21
31.1197694727
  0
LINE
  8
0
 62
7
  6
CONTINUOUS
 10
368.3012227445
 20
31.3456152777
 11
368.3012227445
 21
31.2810879048
  0
LINE
  8
0
 62
7
  6
CONTINUOUS
 10
368.4342913921
 20
32.3100380288
 11
368.4342913921
 21
34.4411855698
  0
LINE
  8
0
 62
7
  6
CONTINUOUS
 10
368.7621602445
 20
36.0805298321
 11
368.7621602445
 21
32.3100380288
  0
LINE
  8
0
 62
7
  6
CONTINUOUS
 10
363.4449727445
 20
30.8293962497
 11
363.5027853548
 21
30.926187309
  0
LINE
  8
0
 62
7
  6
CONTINUOUS
 10
359.0512227376
 20
30.6358140973
 11
359.2246602583
 21
30.5712867188
  0
LINE
  8
0
 62
7
  6
CONTINUOUS
 10
360.5543476894
 20
31.3456152777
 11
360.3809101894
 21
31.4424063369
  0
LINE
  8
0
 62
7
  6
CONTINUOUS
 10
363.2137226343
 20
30.668077795
 11
363.3871601343
 21
30.5712867188
  0
LINE
  8
0
 62
7
  6
CONTINUOUS
 10
362.2309102445
 20
31.3456152777
 11
362.3465351343
 21
31.2810879048
  0
LINE
  8
0
 62
7
  6
CONTINUOUS
 10
362.5777852445
 20
31.3778789641
 11
362.4621603548
 21
31.4424063369
  0
LINE
  8
0
 62
7
  6
CONTINUOUS
 10
368.3012227445
 20
30.7648688543
 11
368.4168479651
 21
30.6358140973
  0
LINE
  8
0
 62
7
  6
CONTINUOUS
 10
368.6480977445
 20
30.7003414814
 11
368.5902854651
 21
30.7648688543
  0
LINE
  8
0
 62
7
  6
CONTINUOUS
 10
368.3012227445
 20
31.2810879048
 11
368.4168479651
 21
31.1520331591
  0
LINE
  8
0
 62
7
  6
CONTINUOUS
 10
367.7809102445
 20
31.2810879048
 11
367.7230979651
 21
31.3778789641
  0
LINE
  8
0
 62
7
  6
CONTINUOUS
 10
370.1512223035
 20
30.7003414814
 11
370.1512223035
 21
30.7648688543
  0
LINE
  8
0
 62
7
  6
CONTINUOUS
 10
370.1556028675
 20
32.3100380288
 11
370.1556028675
 21
36.0805298321
  0
LINE
  8
0
 62
7
  6
CONTINUOUS
 10
363.2137226343
 20
31.4101426505
 11
363.1559103548
 21
31.3456152777
  0
LINE
  8
0
 62
7
  6
CONTINUOUS
 10
360.091847717
 20
31.3778789641
 11
360.2652852997
 21
31.3133515913
  0
LINE
  8
0
 62
7
  6
CONTINUOUS
 10
364.8324727445
 20
31.3778789641
 11
364.716847524
 21
31.4424063369
  0
LINE
  8
0
 62
7
  6
CONTINUOUS
 10
368.6480977445
 20
31.216560532
 11
368.5902854651
 21
31.2810879048
  0
LINE
  8
0
 62
7
  6
CONTINUOUS
 10
369.8043479651
 20
30.8293962497
 11
369.8621602445
 21
30.7648688543
  0
LINE
  8
0
 62
7
  6
CONTINUOUS
 10
370.1512223035
 20
30.7648688543
 11
370.0355977445
 21
30.8939236226
  0
LINE
  8
0
 62
7
  6
CONTINUOUS
 10
369.8043479651
 20
31.3456152777
 11
369.8621602445
 21
31.2810879048
  0
LINE
  8
0
 62
7
  6
CONTINUOUS
 10
370.1512223035
 20
31.2810879048
 11
370.0355977445
 21
31.4101426505
  0
LINE
  8
0
 62
7
  6
CONTINUOUS
 10
363.4449727445
 20
31.2810879048
 11
363.5027853548
 21
31.3456152777
  0
LINE
  8
0
 62
7
  6
CONTINUOUS
 10
363.2715352445
 20
31.0229783683
 11
363.1559103548
 21
30.8939236226
  0
LINE
  8
0
 62
7
  6
CONTINUOUS
 10
364.6012229651
 20
30.8616599362
 11
364.543410024
 21
30.7971325633
  0
LINE
  8
0
 62
7
  6
CONTINUOUS
 10
364.543410024
 20
30.6035504109
 11
364.6012229651
 21
30.668077795
  0
LINE
  8
0
 62
7
  6
CONTINUOUS
 10
363.3871601343
 20
30.5712867188
 11
363.5027853548
 21
30.5390230296
  0
LINE
  8
0
 62
7
  6
CONTINUOUS
 10
360.3809101894
 20
31.4424063369
 11
360.1496602445
 21
31.5069337098
  0
LINE
  8
0
 62
7
  6
CONTINUOUS
 10
363.7340351343
 20
30.6358140973
 11
363.5027853548
 21
30.7003414814
  0
LINE
  8
0
 62
7
  6
CONTINUOUS
 10
362.4621603548
 20
31.4424063369
 11
362.2887228548
 21
31.5069337098
  0
LINE
  8
0
 62
7
  6
CONTINUOUS
 10
364.716847524
 20
31.4424063369
 11
364.543410024
 21
31.5069337098
  0
LINE
  8
0
 62
7
  6
CONTINUOUS
 10
367.3762229651
 20
31.3456152777
 11
367.491847524
 21
31.2810879048
  0
LINE
  8
0
 62
7
  6
CONTINUOUS
 10
367.7230979651
 20
31.3778789641
 11
367.6074727445
 21
31.4424063369
  0
LINE
  8
0
 62
7
  6
CONTINUOUS
 10
359.2246602583
 20
30.5712867188
 11
359.3980977583
 21
30.5390230296
  0
LINE
  8
0
 62
7
  6
CONTINUOUS
 10
359.6871602721
 20
30.6358140973
 11
359.3402852307
 21
30.7003414814
  0
LINE
  8
0
 62
7
  6
CONTINUOUS
 10
362.1152853548
 20
31.3778789641
 11
362.2309102445
 21
31.3456152777
  0
LINE
  8
0
 62
7
  6
CONTINUOUS
 10
364.4277854651
 20
31.3778789641
 11
364.543410024
 21
31.3456152777
  0
LINE
  8
0
 62
7
  6
CONTINUOUS
 10
368.7637229651
 20
30.668077795
 11
368.6480977445
 21
30.7003414814
  0
LINE
  8
0
 62
7
  6
CONTINUOUS
 10
367.2605977445
 20
31.3778789641
 11
367.3762229651
 21
31.3456152777
  0
LINE
  8
0
 62
7
  6
CONTINUOUS
 10
368.4168479651
 20
30.6358140973
 11
368.5902854651
 21
30.5712867188
  0
LINE
  8
0
 62
7
  6
CONTINUOUS
 10
367.6074727445
 20
31.4424063369
 11
367.4340352445
 21
31.5069337098
  0
LINE
  8
0
 62
7
  6
CONTINUOUS
 10
368.8215352445
 20
31.1520331591
 11
368.6480977445
 21
31.216560532
  0
LINE
  8
0
 62
7
  6
CONTINUOUS
 10
369.6309104651
 20
30.8939236226
 11
369.8043479651
 21
30.8293962497
  0
LINE
  8
0
 62
7
  6
CONTINUOUS
 10
370.0355977445
 20
31.4101426505
 11
369.8621602445
 21
31.4746700234
  0
LINE
  8
0
 62
7
  6
CONTINUOUS
 10
368.4168479651
 20
31.1520331591
 11
368.6480977445
 21
31.0552420547
  0
LINE
  8
0
 62
7
  6
CONTINUOUS
 10
370.0355977445
 20
30.8939236226
 11
369.8043479651
 21
30.9907146818
  0
LINE
  8
0
 62
7
  6
CONTINUOUS
 10
368.5902854651
 20
31.2810879048
 11
368.6480977445
 21
31.3456152777
  0
LINE
  8
0
 62
7
  6
CONTINUOUS
 10
359.0512227376
 20
31.4101426505
 11
358.9355977445
 21
31.3456152777
  0
LINE
  8
0
 62
7
  6
CONTINUOUS
 10
359.1668477307
 20
31.2488242184
 11
359.3402852307
 21
31.3456152777
  0
LINE
  8
0
 62
7
  6
CONTINUOUS
 10
361.4793477997
 20
31.4424063369
 11
361.3637227445
 21
31.3778789641
  0
LINE
  8
0
 62
7
  6
CONTINUOUS
 10
361.3637227445
 20
31.2488242184
 11
361.4793477997
 21
31.3133515913
  0
LINE
  8
0
 62
7
  6
CONTINUOUS
 10
360.3809101894
 20
30.6035504109
 11
360.5543476894
 21
30.7003414814
  0
LINE
  8
0
 62
7
  6
CONTINUOUS
 10
359.3980977583
 20
30.5390230296
 11
359.744972717
 21
30.5067593403
  0
LINE
  8
0
 62
7
  6
CONTINUOUS
 10
363.5027853548
 20
30.5390230296
 11
363.7340351343
 21
30.5067593403
  0
LINE
  8
0
 62
7
  6
CONTINUOUS
 10
361.8840352445
 20
31.4101426505
 11
362.1152853548
 21
31.3778789641
  0
LINE
  8
0
 62
7
  6
CONTINUOUS
 10
364.1965353548
 20
31.4101426505
 11
364.4277854651
 21
31.3778789641
  0
LINE
  8
0
 62
7
  6
CONTINUOUS
 10
368.6480977445
 20
31.0552420547
 11
369.6309104651
 21
30.8939236226
  0
LINE
  8
0
 62
7
  6
CONTINUOUS
 10
369.8043479651
 20
30.9907146818
 11
368.8215352445
 21
31.1520331591
  0
LINE
  8
0
 62
7
  6
CONTINUOUS
 10
362.2887228548
 20
31.5069337098
 11
362.1152853548
 21
31.5391973962
  0
LINE
  8
0
 62
7
  6
CONTINUOUS
 10
368.5902854651
 20
30.5712867188
 11
368.7637229651
 21
30.5390230296
  0
LINE
  8
0
 62
7
  6
CONTINUOUS
 10
367.4340352445
 20
31.5069337098
 11
367.2605977445
 21
31.5391973962
  0
LINE
  8
0
 62
7
  6
CONTINUOUS
 10
369.6887227445
 20
31.3778789641
 11
369.8043479651
 21
31.3456152777
  0
LINE
  8
0
 62
7
  6
CONTINUOUS
 10
369.8621602445
 20
30.7648688543
 11
369.8043479651
 21
30.7003414814
  0
LINE
  8
0
 62
7
  6
CONTINUOUS
 10
368.4168479651
 20
31.4424063369
 11
368.3012227445
 21
31.3456152777
  0
LINE
  8
0
 62
7
  6
CONTINUOUS
 10
363.3293478548
 20
31.4746700234
 11
363.2137226343
 21
31.4101426505
  0
LINE
  8
0
 62
7
  6
CONTINUOUS
 10
363.3871601343
 20
31.0875057863
 11
363.2715352445
 21
31.0229783683
  0
LINE
  8
0
 62
7
  6
CONTINUOUS
 10
363.5027853548
 20
30.926187309
 11
363.6184102445
 21
30.9907146818
  0
LINE
  8
0
 62
7
  6
CONTINUOUS
 10
361.0746601894
 20
30.5067593403
 11
361.3637227445
 21
30.5067593403
  0
LINE
  8
0
 62
7
  6
CONTINUOUS
 10
362.4043477445
 20
30.5067593403
 11
362.6934101343
 21
30.5067593403
  0
LINE
  8
0
 62
7
  6
CONTINUOUS
 10
363.7340351343
 20
30.5067593403
 11
364.0809101343
 21
30.5067593403
  0
LINE
  8
0
 62
7
  6
CONTINUOUS
 10
364.716847524
 20
30.5067593403
 11
365.0059102445
 21
30.5067593403
  0
LINE
  8
0
 62
7
  6
CONTINUOUS
 10
365.4684104651
 20
30.5067593403
 11
365.757472524
 21
30.5067593403
  0
LINE
  8
0
 62
7
  6
CONTINUOUS
 10
366.2199727445
 20
30.5067593403
 11
366.5090354651
 21
30.5067593403
  0
LINE
  8
0
 62
7
  6
CONTINUOUS
 10
367.5496604651
 20
30.5067593403
 11
367.838722524
 21
30.5067593403
  0
LINE
  8
0
 62
7
  6
CONTINUOUS
 10
369.1105979651
 20
30.5067593403
 11
369.4574729651
 21
30.5067593403
  0
LINE
  8
0
 62
7
  6
CONTINUOUS
 10
369.4574729651
 20
30.6358140973
 11
369.1105979651
 21
30.6358140973
  0
LINE
  8
0
 62
7
  6
CONTINUOUS
 10
364.0809101343
 20
30.6358140973
 11
363.7340351343
 21
30.6358140973
  0
LINE
  8
0
 62
7
  6
CONTINUOUS
 10
368.5902854651
 20
30.7648688543
 11
368.3012227445
 21
30.7648688543
  0
LINE
  8
0
 62
7
  6
CONTINUOUS
 10
360.6121602997
 20
30.8293962497
 11
360.3230977445
 21
30.8293962497
  0
LINE
  8
0
 62
7
  6
CONTINUOUS
 10
359.6871602721
 20
31.4101426505
 11
360.091847717
 21
31.3778789641
  0
LINE
  8
0
 62
7
  6
CONTINUOUS
 10
360.1496602445
 20
31.5069337098
 11
359.744972717
 21
31.5391973962
  0
LINE
  8
0
 62
7
  6
CONTINUOUS
 10
368.7637229651
 20
30.5390230296
 11
369.1105979651
 21
30.5067593403
  0
LINE
  8
0
 62
7
  6
CONTINUOUS
 10
369.1105979651
 20
30.6358140973
 11
368.7637229651
 21
30.668077795
  0
LINE
  8
0
 62
7
  6
CONTINUOUS
 10
364.543410024
 20
31.5069337098
 11
364.1965353548
 21
31.5391973962
  0
LINE
  8
0
 62
7
  6
CONTINUOUS
 10
369.3418477445
 20
31.4101426505
 11
369.6887227445
 21
31.3778789641
  0
LINE
  8
0
 62
7
  6
CONTINUOUS
 10
369.6887227445
 20
31.5069337098
 11
369.3418477445
 21
31.5391973962
  0
LINE
  8
0
 62
7
  6
CONTINUOUS
 10
367.0293479651
 20
31.4101426505
 11
367.2605977445
 21
31.3778789641
  0
LINE
  8
0
 62
7
  6
CONTINUOUS
 10
369.8621602445
 20
31.4746700234
 11
369.6887227445
 21
31.5069337098
  0
LINE
  8
0
 62
7
  6
CONTINUOUS
 10
370.0355977445
 20
30.6035504109
 11
370.1512223035
 21
30.7003414814
  0
LINE
  8
0
 62
7
  6
CONTINUOUS
 10
364.543410024
 20
30.7971325633
 11
364.369972524
 21
30.7003414814
  0
LINE
  8
0
 62
7
  6
CONTINUOUS
 10
366.624660024
 20
31.4424063369
 11
366.5090354651
 21
31.3778789641
  0
LINE
  8
0
 62
7
  6
CONTINUOUS
 10
366.5090354651
 20
31.2488242184
 11
366.624660024
 21
31.3133515913
  0
LINE
  8
0
 62
7
  6
CONTINUOUS
 10
359.2246602583
 20
31.4746700234
 11
359.0512227376
 21
31.4101426505
  0
LINE
  8
0
 62
7
  6
CONTINUOUS
 10
361.6527851343
 20
31.5069337098
 11
361.4793477997
 21
31.4424063369
  0
LINE
  8
0
 62
7
  6
CONTINUOUS
 10
361.4793477997
 20
31.3133515913
 11
361.6527851343
 21
31.3778789641
  0
LINE
  8
0
 62
7
  6
CONTINUOUS
 10
360.2652852997
 20
30.7326051679
 11
360.091847717
 21
30.668077795
  0
LINE
  8
0
 62
7
  6
CONTINUOUS
 10
369.6887227445
 20
30.668077795
 11
369.4574729651
 21
30.6358140973
  0
LINE
  8
0
 62
7
  6
CONTINUOUS
 10
364.0809101343
 20
30.5067593403
 11
364.369972524
 21
30.5390230296
  0
LINE
  8
0
 62
7
  6
CONTINUOUS
 10
369.4574729651
 20
30.5067593403
 11
369.8043479651
 21
30.5390230296
  0
LINE
  8
0
 62
7
  6
CONTINUOUS
 10
359.744972717
 20
30.5067593403
 11
360.1496602445
 21
30.5390230296
  0
LINE
  8
0
 62
7
  6
CONTINUOUS
 10
360.091847717
 20
30.668077795
 11
359.6871602721
 21
30.6358140973
  0
LINE
  8
0
 62
7
  6
CONTINUOUS
 10
363.9652852445
 20
31.0552420547
 11
364.6012229651
 21
31.0552420547
  0
LINE
  8
0
 62
7
  6
CONTINUOUS
 10
364.6012229651
 20
31.1842968456
 11
363.9652852445
 21
31.1842968456
  0
LINE
  8
0
 62
7
  6
CONTINUOUS
 10
360.3230977445
 20
31.216560532
 11
360.6121602997
 21
31.216560532
  0
LINE
  8
0
 62
7
  6
CONTINUOUS
 10
363.1559103548
 20
31.2810879048
 11
363.4449727445
 21
31.2810879048
  0
LINE
  8
0
 62
7
  6
CONTINUOUS
 10
369.8621602445
 20
31.2810879048
 11
370.1512223035
 21
31.2810879048
  0
LINE
  8
0
 62
7
  6
CONTINUOUS
 10
363.8496603548
 20
31.4101426505
 11
364.1965353548
 21
31.4101426505
  0
LINE
  8
0
 62
7
  6
CONTINUOUS
 10
368.9949727445
 20
31.4101426505
 11
369.3418477445
 21
31.4101426505
  0
LINE
  8
0
 62
7
  6
CONTINUOUS
 10
369.3418477445
 20
31.5391973962
 11
368.9949727445
 21
31.5391973962
  0
LINE
  8
0
 62
7
  6
CONTINUOUS
 10
367.2605977445
 20
31.5391973962
 11
367.0293479651
 21
31.5391973962
  0
LINE
  8
0
 62
7
  6
CONTINUOUS
 10
366.5090354651
 20
31.5391973962
 11
366.2199727445
 21
31.5391973962
  0
LINE
  8
0
 62
7
  6
CONTINUOUS
 10
365.757472524
 20
31.5391973962
 11
365.4684104651
 21
31.5391973962
  0
LINE
  8
0
 62
7
  6
CONTINUOUS
 10
364.1965353548
 20
31.5391973962
 11
363.8496603548
 21
31.5391973962
  0
LINE
  8
0
 62
7
  6
CONTINUOUS
 10
362.1152853548
 20
31.5391973962
 11
361.8840352445
 21
31.5391973962
  0
LINE
  8
0
 62
7
  6
CONTINUOUS
 10
365.4684104651
 20
31.8618343508
 11
365.757472524
 21
31.8618343508
  0
LINE
  8
0
 62
7
  6
CONTINUOUS
 10
365.757472524
 20
32.0231527829
 11
365.4684104651
 21
32.0231527829
  0
LINE
  8
0
 62
7
  6
CONTINUOUS
 10
361.3637227445
 20
32.0231527829
 11
361.0746601894
 21
32.0231527829
  0
LINE
  8
0
 62
7
  6
CONTINUOUS
 10
360.4015045068
 20
32.3100380288
 11
360.8140758554
 21
32.3100380288
  0
LINE
  8
0
 62
7
  6
CONTINUOUS
 10
362.0408487691
 20
32.3100380288
 11
363.4342913921
 21
32.3100380288
  0
LINE
  8
0
 62
7
  6
CONTINUOUS
 10
363.7621602445
 20
32.3100380288
 11
365.1556028675
 21
32.3100380288
  0
LINE
  8
0
 62
7
  6
CONTINUOUS
 10
367.0408487691
 20
32.3100380288
 11
368.4342913921
 21
32.3100380288
  0
LINE
  8
0
 62
7
  6
CONTINUOUS
 10
368.7621602445
 20
32.3100380288
 11
370.1556028675
 21
32.3100380288
  0
LINE
  8
0
 62
7
  6
CONTINUOUS
 10
366.798097524
 20
31.5069337098
 11
366.624660024
 21
31.4424063369
  0
LINE
  8
0
 62
7
  6
CONTINUOUS
 10
364.369972524
 20
30.5390230296
 11
364.543410024
 21
30.6035504109
  0
LINE
  8
0
 62
7
  6
CONTINUOUS
 10
369.8043479651
 20
30.5390230296
 11
370.0355977445
 21
30.6035504109
  0
LINE
  8
0
 62
7
  6
CONTINUOUS
 10
369.8043479651
 20
30.7003414814
 11
369.6887227445
 21
30.668077795
  0
LINE
  8
0
 62
7
  6
CONTINUOUS
 10
368.7637229651
 20
31.3778789641
 11
368.9949727445
 21
31.4101426505
  0
LINE
  8
0
 62
7
  6
CONTINUOUS
 10
366.798097524
 20
31.3778789641
 11
367.0293479651
 21
31.4101426505
  0
LINE
  8
0
 62
7
  6
CONTINUOUS
 10
363.7340351343
 20
31.0229783683
 11
363.9652852445
 21
31.0552420547
  0
LINE
  8
0
 62
7
  6
CONTINUOUS
 10
367.0293479651
 20
31.5391973962
 11
366.798097524
 21
31.5069337098
  0
LINE
  8
0
 62
7
  6
CONTINUOUS
 10
363.6184102445
 20
31.3778789641
 11
363.8496603548
 21
31.4101426505
  0
LINE
  8
0
 62
7
  6
CONTINUOUS
 10
368.9949727445
 20
31.5391973962
 11
368.6480977445
 21
31.5069337098
  0
LINE
  8
0
 62
7
  6
CONTINUOUS
 10
363.9652852445
 20
31.1842968456
 11
363.6184102445
 21
31.1520331591
  0
LINE
  8
0
 62
7
  6
CONTINUOUS
 10
359.744972717
 20
31.5391973962
 11
359.3980977583
 21
31.5069337098
  0
LINE
  8
0
 62
7
  6
CONTINUOUS
 10
363.8496603548
 20
31.5391973962
 11
363.4449727445
 21
31.5069337098
  0
LINE
  8
0
 62
7
  6
CONTINUOUS
 10
361.221176638
 20
33.4575790124
 11
360.565438933
 21
33.4575790124
  0
LINE
  8
0
 62
7
  6
CONTINUOUS
 10
366.624660024
 20
31.3133515913
 11
366.798097524
 21
31.3778789641
  0
LINE
  8
0
 62
7
  6
CONTINUOUS
 10
368.6480977445
 20
31.3456152777
 11
368.7637229651
 21
31.3778789641
  0
LINE
  8
0
 62
7
  6
CONTINUOUS
 10
368.6480977445
 20
31.5069337098
 11
368.4168479651
 21
31.4424063369
  0
LINE
  8
0
 62
7
  6
CONTINUOUS
 10
364.369972524
 20
30.7003414814
 11
364.0809101343
 21
30.6358140973
  0
LINE
  8
0
 62
7
  6
CONTINUOUS
 10
361.6527851343
 20
31.3778789641
 11
361.8840352445
 21
31.4101426505
  0
LINE
  8
0
 62
7
  6
CONTINUOUS
 10
361.8840352445
 20
31.5391973962
 11
361.6527851343
 21
31.5069337098
  0
LINE
  8
0
 62
7
  6
CONTINUOUS
 10
359.4559102445
 20
31.3778789641
 11
359.6871602721
 21
31.4101426505
  0
LINE
  8
0
 62
7
  6
CONTINUOUS
 10
365.9752749986
 20
34.9329888485
 11
366.6310127035
 21
34.9329888485
  0
LINE
  8
0
 62
7
  6
CONTINUOUS
 10
363.6184102445
 20
30.9907146818
 11
363.7340351343
 21
31.0229783683
  0
LINE
  8
0
 62
7
  6
CONTINUOUS
 10
363.6184102445
 20
31.1520331591
 11
363.3871601343
 21
31.0875057863
  0
LINE
  8
0
 62
7
  6
CONTINUOUS
 10
363.5027853548
 20
31.3456152777
 11
363.6184102445
 21
31.3778789641
  0
LINE
  8
0
 62
7
  6
CONTINUOUS
 10
360.1496602445
 20
30.5390230296
 11
360.3809101894
 21
30.6035504109
  0
LINE
  8
0
 62
7
  6
CONTINUOUS
 10
363.4449727445
 20
31.5069337098
 11
363.3293478548
 21
31.4746700234
  0
LINE
  8
0
 62
7
  6
CONTINUOUS
 10
359.3980977583
 20
31.5069337098
 11
359.2246602583
 21
31.4746700234
  0
LINE
  8
0
 62
7
  6
CONTINUOUS
 10
370.1556028675
 20
36.0805298321
 11
368.7621602445
 21
36.0805298321
  0
LINE
  8
0
 62
7
  6
CONTINUOUS
 10
366.7949471298
 20
36.0805298321
 11
366.3823757812
 21
36.0805298321
  0
LINE
  8
0
 62
7
  6
CONTINUOUS
 10
365.1556028675
 20
36.0805298321
 11
363.7621602445
 21
36.0805298321
  0
LINE
  8
0
 62
7
  6
CONTINUOUS
 10
363.4342913921
 20
36.0805298321
 11
362.0408487691
 21
36.0805298321
  0
LINE
  8
0
 62
7
  6
CONTINUOUS
 10
360.1556028675
 20
36.0805298321
 11
358.7621602445
 21
36.0805298321
  0
LINE
  8
0
 62
7
  6
CONTINUOUS
 10
359.3402852307
 20
31.3456152777
 11
359.4559102445
 21
31.3778789641
  0
CIRCLE
  8
0
 62
7
  6
CONTINUOUS
 10
369.458881556
 20
38.4165954059
 40
2.0901639344
  0
ARC
  8
0
 62
7
  6
CONTINUOUS
 10
360.4015045068
 20
33.9493822911
 40
1.6393442623
 50
180.0
 51
270.0
  0
ARC
  8
0
 62
7
  6
CONTINUOUS
 10
366.7949471298
 20
34.4411855698
 40
1.6393442623
 50
0.0
 51
90.0
  0
ARC
  8
0
 62
7
  6
CONTINUOUS
 10
360.8140758554
 20
33.7854478649
 40
1.4754098361
 50
270.0
 51
326.2510114041
  0
ARC
  8
0
 62
7
  6
CONTINUOUS
 10
366.3823757812
 20
34.6051199961
 40
1.4754098361
 50
90.0
 51
146.2510114041
  0
ARC
  8
0
 62
7
  6
CONTINUOUS
 10
361.221176638
 20
34.2772511436
 40
0.8196721311
 50
270.0
 51
360.0
  0
ARC
  8
0
 62
7
  6
CONTINUOUS
 10
365.9752749986
 20
34.1133167174
 40
0.8196721311
 50
90.0
 51
180.0
  0
ARC
  8
0
 62
7
  6
CONTINUOUS
 10
360.565438933
 20
33.867415078
 40
0.4098360656
 50
180.0
 51
270.0
  0
ARC
  8
0
 62
7
  6
CONTINUOUS
 10
366.6310127035
 20
34.5231527829
 40
0.4098360656
 50
0.0
 51
90.0
  0
SOLID
  8
0
 62
7
  6
CONTINUOUS
 10
365.4684104651
 20
31.8618347111
 11
365.4684104651
 21
32.0231531947
 12
365.757472524
 22
31.8618347111
 13
365.757472524
 23
32.0231531947
  0
SOLID
  8
0
 62
7
  6
CONTINUOUS
 10
359.744972717
 20
31.5391977439
 11
360.1496602445
 21
31.5069333244
 12
359.3980977583
 22
31.5069333244
 13
359.3980977583
 23
31.5069333244
  0
SOLID
  8
0
 62
7
  6
CONTINUOUS
 10
359.2246602583
 20
31.4746706537
 11
359.3980977583
 21
31.5069333244
 12
360.1496602445
 22
31.5069333244
 13
360.1496602445
 23
31.5069333244
  0
SOLID
  8
0
 62
7
  6
CONTINUOUS
 10
360.1496602445
 20
31.5069333244
 11
360.3809101894
 21
31.4424063504
 12
359.2246602583
 22
31.4746706537
 13
359.2246602583
 23
31.4746706537
  0
SOLID
  8
0
 62
7
  6
CONTINUOUS
 10
359.0512227376
 20
31.4101419116
 11
359.2246602583
 21
31.4746706537
 12
360.3809101894
 22
31.4424063504
 13
360.3809101894
 23
31.4424063504
  0
SOLID
  8
0
 62
7
  6
CONTINUOUS
 10
359.0512227376
 20
31.4101419116
 11
360.3809101894
 21
31.4424063504
 12
359.6871602721
 22
31.4101419116
 13
359.6871602721
 23
31.4101419116
  0
SOLID
  8
0
 62
7
  6
CONTINUOUS
 10
359.6871602721
 20
31.4101419116
 11
360.3809101894
 21
31.4424063504
 12
360.091847717
 22
31.3778792603
 13
360.091847717
 23
31.3778792603
  0
SOLID
  8
0
 62
7
  6
CONTINUOUS
 10
360.3809101894
 20
31.4424063504
 11
360.5543476894
 21
31.345614957
 12
360.091847717
 22
31.3778792603
 13
360.091847717
 23
31.3778792603
  0
SOLID
  8
0
 62
7
  6
CONTINUOUS
 10
360.2652852997
 20
31.3133521701
 11
360.091847717
 21
31.3778792603
 12
360.5543476894
 22
31.345614957
 13
360.5543476894
 23
31.345614957
  0
SOLID
  8
0
 62
7
  6
CONTINUOUS
 10
360.2652852997
 20
31.3133521701
 11
360.5543476894
 21
31.345614957
 12
360.3230977445
 22
31.2165606992
 13
360.3230977445
 23
31.2165606992
  0
SOLID
  8
0
 62
7
  6
CONTINUOUS
 10
360.5543476894
 20
31.345614957
 11
360.6121602997
 21
31.2165606992
 12
360.3230977445
 22
31.2165606992
 13
360.3230977445
 23
31.2165606992
  0
SOLID
  8
0
 62
7
  6
CONTINUOUS
 10
361.6527851343
 20
31.5069329918
 11
361.8840352445
 21
31.5391972951
 12
362.1152853548
 22
31.5391972951
 13
362.1152853548
 23
31.5391972951
  0
SOLID
  8
0
 62
7
  6
CONTINUOUS
 10
362.1152853548
 20
31.5391972951
 11
362.2887228548
 21
31.5069329918
 12
361.6527851343
 22
31.5069329918
 13
361.6527851343
 23
31.5069329918
  0
SOLID
  8
0
 62
7
  6
CONTINUOUS
 10
361.4793477997
 20
31.4424059016
 11
361.6527851343
 21
31.5069329918
 12
362.2887228548
 22
31.5069329918
 13
362.2887228548
 23
31.5069329918
  0
SOLID
  8
0
 62
7
  6
CONTINUOUS
 10
362.2887228548
 20
31.5069329918
 11
362.4621603548
 21
31.4424059016
 12
361.4793477997
 22
31.4424059016
 13
361.4793477997
 23
31.4424059016
  0
SOLID
  8
0
 62
7
  6
CONTINUOUS
 10
362.4621603548
 20
31.4424059016
 11
361.8840352445
 21
31.4101420472
 12
361.4793477997
 22
31.4424059016
 13
361.4793477997
 23
31.4424059016
  0
SOLID
  8
0
 62
7
  6
CONTINUOUS
 10
361.3637227445
 20
31.3778788115
 11
361.4793477997
 21
31.4424059016
 12
361.8840352445
 22
31.4101420472
 13
361.8840352445
 23
31.4101420472
  0
SOLID
  8
0
 62
7
  6
CONTINUOUS
 10
361.8840352445
 20
31.4101420472
 11
361.6527851343
 21
31.3778788115
 12
361.3637227445
 22
31.3778788115
 13
361.3637227445
 23
31.3778788115
  0
SOLID
  8
0
 62
7
  6
CONTINUOUS
 10
361.8840352445
 20
31.4101420472
 11
362.4621603548
 21
31.4424059016
 12
362.1152853548
 22
31.3778788115
 13
362.1152853548
 23
31.3778788115
  0
SOLID
  8
0
 62
7
  6
CONTINUOUS
 10
362.4621603548
 20
31.4424059016
 11
362.5777852445
 21
31.3778788115
 12
362.1152853548
 22
31.3778788115
 13
362.1152853548
 23
31.3778788115
  0
SOLID
  8
0
 62
7
  6
CONTINUOUS
 10
362.2309102445
 20
31.345614957
 11
362.1152853548
 21
31.3778788115
 12
362.5777852445
 22
31.3778788115
 13
362.5777852445
 23
31.3778788115
  0
SOLID
  8
0
 62
7
  6
CONTINUOUS
 10
362.5777852445
 20
31.3778788115
 11
362.6355978548
 21
31.3133517213
 12
362.2309102445
 22
31.345614957
 13
362.2309102445
 23
31.345614957
  0
SOLID
  8
0
 62
7
  6
CONTINUOUS
 10
362.3465351343
 20
31.2810878668
 11
362.2309102445
 21
31.345614957
 12
362.6355978548
 22
31.3133517213
 13
362.6355978548
 23
31.3133517213
  0
SOLID
  8
0
 62
7
  6
CONTINUOUS
 10
362.3465351343
 20
31.2810878668
 11
362.6355978548
 21
31.3133517213
 12
362.4043477445
 22
31.1520332377
 13
362.4043477445
 23
31.1520332377
  0
SOLID
  8
0
 62
7
  6
CONTINUOUS
 10
362.6355978548
 20
31.3133517213
 11
362.6934101343
 21
31.1520332377
 12
362.4043477445
 22
31.1520332377
 13
362.4043477445
 23
31.1520332377
  0
SOLID
  8
0
 62
7
  6
CONTINUOUS
 10
361.6527851343
 20
31.3778788115
 11
361.4793477997
 21
31.3133517213
 12
361.3637227445
 22
31.3778788115
 13
361.3637227445
 23
31.3778788115
  0
SOLID
  8
0
 62
7
  6
CONTINUOUS
 10
361.4793477997
 20
31.3133517213
 11
361.3637227445
 21
31.2488235635
 12
361.3637227445
 22
31.3778788115
 13
361.3637227445
 23
31.3778788115
  0
SOLID
  8
0
 62
7
  6
CONTINUOUS
 10
361.3637227445
 20
31.2488235635
 11
361.0746601894
 21
30.5067593033
 12
361.3637227445
 22
31.3778788115
 13
361.3637227445
 23
31.3778788115
  0
SOLID
  8
0
 62
7
  6
CONTINUOUS
 10
361.3637227445
 20
31.3778788115
 11
361.0746601894
 21
30.5067593033
 12
361.3637227445
 22
32.0231527459
 13
361.3637227445
 23
32.0231527459
  0
SOLID
  8
0
 62
7
  6
CONTINUOUS
 10
361.0746601894
 20
30.5067593033
 11
361.0746601894
 21
32.0231527459
 12
361.3637227445
 22
32.0231527459
 13
361.3637227445
 23
32.0231527459
  0
SOLID
  8
0
 62
7
  6
CONTINUOUS
 10
361.3637227445
 20
31.2488235635
 11
361.3637227445
 21
30.5067593033
 12
361.0746601894
 22
30.5067593033
 13
361.0746601894
 23
30.5067593033
  0
SOLID
  8
0
 62
7
  6
CONTINUOUS
 10
362.4043477445
 20
30.5067593033
 11
362.4043477445
 21
31.1520332377
 12
362.6934101343
 22
31.1520332377
 13
362.6934101343
 23
31.1520332377
  0
SOLID
  8
0
 62
7
  6
CONTINUOUS
 10
362.6934101343
 20
31.1520332377
 11
362.6934101343
 21
30.5067593033
 12
362.4043477445
 22
30.5067593033
 13
362.4043477445
 23
30.5067593033
  0
SOLID
  8
0
 62
7
  6
CONTINUOUS
 10
363.4449727445
 20
31.506933758
 11
363.8496603548
 21
31.5391977507
 12
364.1965353548
 22
31.5391977507
 13
364.1965353548
 23
31.5391977507
  0
SOLID
  8
0
 62
7
  6
CONTINUOUS
 10
364.1965353548
 20
31.5391977507
 11
364.543410024
 21
31.506933758
 12
363.4449727445
 22
31.506933758
 13
363.4449727445
 23
31.506933758
  0
SOLID
  8
0
 62
7
  6
CONTINUOUS
 10
363.3293478548
 20
31.4746706537
 11
363.4449727445
 21
31.506933758
 12
364.543410024
 22
31.506933758
 13
364.543410024
 23
31.506933758
  0
SOLID
  8
0
 62
7
  6
CONTINUOUS
 10
364.543410024
 20
31.506933758
 11
364.716847524
 21
31.4424063504
 12
363.3293478548
 22
31.4746706537
 13
363.3293478548
 23
31.4746706537
  0
SOLID
  8
0
 62
7
  6
CONTINUOUS
 10
363.2137226343
 20
31.4101417797
 11
363.3293478548
 21
31.4746706537
 12
364.716847524
 22
31.4424063504
 13
364.716847524
 23
31.4424063504
  0
SOLID
  8
0
 62
7
  6
CONTINUOUS
 10
363.2137226343
 20
31.4101417797
 11
364.716847524
 21
31.4424063504
 12
363.8496603548
 22
31.4101417797
 13
363.8496603548
 23
31.4101417797
  0
SOLID
  8
0
 62
7
  6
CONTINUOUS
 10
363.8496603548
 20
31.4101417797
 11
364.716847524
 21
31.4424063504
 12
364.1965353548
 22
31.4101417797
 13
364.1965353548
 23
31.4101417797
  0
SOLID
  8
0
 62
7
  6
CONTINUOUS
 10
364.1965353548
 20
31.4101417797
 11
364.716847524
 21
31.4424063504
 12
364.4277854651
 22
31.3778793357
 13
364.4277854651
 23
31.3778793357
  0
SOLID
  8
0
 62
7
  6
CONTINUOUS
 10
364.716847524
 20
31.4424063504
 11
364.8324727445
 21
31.3778793357
 12
364.4277854651
 22
31.3778793357
 13
364.4277854651
 23
31.3778793357
  0
SOLID
  8
0
 62
7
  6
CONTINUOUS
 10
363.1559103548
 20
31.3456153429
 11
363.2137226343
 21
31.4101417797
 12
363.8496603548
 22
31.4101417797
 13
363.8496603548
 23
31.4101417797
  0
SOLID
  8
0
 62
7
  6
CONTINUOUS
 10
364.543410024
 20
31.3456153429
 11
364.4277854651
 21
31.3778793357
 12
364.8324727445
 22
31.3778793357
 13
364.8324727445
 23
31.3778793357
  0
SOLID
  8
0
 62
7
  6
CONTINUOUS
 10
364.543410024
 20
31.3456153429
 11
364.8324727445
 21
31.3778793357
 12
364.6012229651
 22
31.2810881318
 13
364.6012229651
 23
31.2810881318
  0
SOLID
  8
0
 62
7
  6
CONTINUOUS
 10
364.8324727445
 20
31.3778793357
 11
364.890285024
 21
31.2810881318
 12
364.6012229651
 22
31.2810881318
 13
364.6012229651
 23
31.2810881318
  0
SOLID
  8
0
 62
7
  6
CONTINUOUS
 10
364.6012229651
 20
31.1842964734
 11
364.6012229651
 21
31.2810881318
 12
364.890285024
 22
31.2810881318
 13
364.890285024
 23
31.2810881318
  0
SOLID
  8
0
 62
7
  6
CONTINUOUS
 10
364.6012229651
 20
31.1842964734
 11
364.890285024
 21
31.2810881318
 12
364.6012229651
 22
31.0552422931
 13
364.6012229651
 23
31.0552422931
  0
SOLID
  8
0
 62
7
  6
CONTINUOUS
 10
364.6012229651
 20
31.0552422931
 11
364.890285024
 21
31.2810881318
 12
364.6012229651
 22
30.8616599362
 13
364.6012229651
 23
30.8616599362
  0
SOLID
  8
0
 62
7
  6
CONTINUOUS
 10
364.890285024
 20
31.2810881318
 11
364.890285024
 21
30.7648681127
 12
364.6012229651
 22
30.8616599362
 13
364.6012229651
 23
30.8616599362
  0
SOLID
  8
0
 62
7
  6
CONTINUOUS
 10
366.798097524
 20
31.5069339419
 11
367.0293479651
 21
31.5391976292
 12
367.2605977445
 22
31.5391976292
 13
367.2605977445
 23
31.5391976292
  0
SOLID
  8
0
 62
7
  6
CONTINUOUS
 10
367.2605977445
 20
31.5391976292
 11
367.4340352445
 21
31.5069339419
 12
366.798097524
 22
31.5069339419
 13
366.798097524
 23
31.5069339419
  0
SOLID
  8
0
 62
7
  6
CONTINUOUS
 10
366.624660024
 20
31.4424065674
 11
366.798097524
 21
31.5069339419
 12
367.4340352445
 22
31.5069339419
 13
367.4340352445
 23
31.5069339419
  0
SOLID
  8
0
 62
7
  6
CONTINUOUS
 10
367.4340352445
 20
31.5069339419
 11
367.6074727445
 21
31.4424065674
 12
366.624660024
 22
31.4424065674
 13
366.624660024
 23
31.4424065674
  0
SOLID
  8
0
 62
7
  6
CONTINUOUS
 10
367.6074727445
 20
31.4424065674
 11
367.0293479651
 21
31.4101420472
 12
366.624660024
 22
31.4424065674
 13
366.624660024
 23
31.4424065674
  0
SOLID
  8
0
 62
7
  6
CONTINUOUS
 10
366.5090354651
 20
31.377879193
 11
366.624660024
 21
31.4424065674
 12
367.0293479651
 22
31.4101420472
 13
367.0293479651
 23
31.4101420472
  0
SOLID
  8
0
 62
7
  6
CONTINUOUS
 10
367.0293479651
 20
31.4101420472
 11
366.798097524
 21
31.377879193
 12
366.5090354651
 22
31.377879193
 13
366.5090354651
 23
31.377879193
  0
SOLID
  8
0
 62
7
  6
CONTINUOUS
 10
367.0293479651
 20
31.4101420472
 11
367.6074727445
 21
31.4424065674
 12
367.2605977445
 22
31.377879193
 13
367.2605977445
 23
31.377879193
  0
SOLID
  8
0
 62
7
  6
CONTINUOUS
 10
367.6074727445
 20
31.4424065674
 11
367.7230979651
 21
31.377879193
 12
367.2605977445
 22
31.377879193
 13
367.2605977445
 23
31.377879193
  0
SOLID
  8
0
 62
7
  6
CONTINUOUS
 10
367.3762229651
 20
31.345614957
 11
367.2605977445
 21
31.377879193
 12
367.7230979651
 22
31.377879193
 13
367.7230979651
 23
31.377879193
  0
SOLID
  8
0
 62
7
  6
CONTINUOUS
 10
367.3762229651
 20
31.345614957
 11
367.7230979651
 21
31.377879193
 12
367.491847524
 22
31.2810881312
 13
367.491847524
 23
31.2810881312
  0
SOLID
  8
0
 62
7
  6
CONTINUOUS
 10
367.7230979651
 20
31.377879193
 11
367.7809102445
 21
31.2810881312
 12
367.491847524
 22
31.2810881312
 13
367.491847524
 23
31.2810881312
  0
SOLID
  8
0
 62
7
  6
CONTINUOUS
 10
367.5496604651
 20
31.119769695
 11
367.491847524
 21
31.2810881312
 12
367.7809102445
 22
31.2810881312
 13
367.7809102445
 23
31.2810881312
  0
SOLID
  8
0
 62
7
  6
CONTINUOUS
 10
367.7809102445
 20
31.2810881312
 11
367.838722524
 21
31.119769695
 12
367.5496604651
 22
31.119769695
 13
367.5496604651
 23
31.119769695
  0
SOLID
  8
0
 62
7
  6
CONTINUOUS
 10
366.798097524
 20
31.377879193
 11
366.624660024
 21
31.3133521701
 12
366.5090354651
 22
31.377879193
 13
366.5090354651
 23
31.377879193
  0
SOLID
  8
0
 62
7
  6
CONTINUOUS
 10
366.624660024
 20
31.3133521701
 11
366.5090354651
 21
31.2488235635
 12
366.5090354651
 22
31.377879193
 13
366.5090354651
 23
31.377879193
  0
SOLID
  8
0
 62
7
  6
CONTINUOUS
 10
366.5090354651
 20
31.2488235635
 11
366.2199727445
 21
30.5067596374
 12
366.5090354651
 22
31.377879193
 13
366.5090354651
 23
31.377879193
  0
SOLID
  8
0
 62
7
  6
CONTINUOUS
 10
366.5090354651
 20
31.377879193
 11
366.2199727445
 21
30.5067596374
 12
366.5090354651
 22
31.5391976292
 13
366.5090354651
 23
31.5391976292
  0
SOLID
  8
0
 62
7
  6
CONTINUOUS
 10
366.2199727445
 20
30.5067596374
 11
366.2199727445
 21
31.5391976292
 12
366.5090354651
 22
31.5391976292
 13
366.5090354651
 23
31.5391976292
  0
SOLID
  8
0
 62
7
  6
CONTINUOUS
 10
366.5090354651
 20
31.2488235635
 11
366.5090354651
 21
30.5067596374
 12
366.2199727445
 22
30.5067596374
 13
366.2199727445
 23
30.5067596374
  0
SOLID
  8
0
 62
7
  6
CONTINUOUS
 10
367.5496604651
 20
30.5067596374
 11
367.5496604651
 21
31.119769695
 12
367.838722524
 22
31.119769695
 13
367.838722524
 23
31.119769695
  0
SOLID
  8
0
 62
7
  6
CONTINUOUS
 10
367.838722524
 20
31.119769695
 11
367.838722524
 21
30.5067596374
 12
367.5496604651
 22
30.5067596374
 13
367.5496604651
 23
30.5067596374
  0
SOLID
  8
0
 62
7
  6
CONTINUOUS
 10
368.6480977445
 20
31.5069334157
 11
368.9949727445
 21
31.539197762
 12
369.3418477445
 22
31.539197762
 13
369.3418477445
 23
31.539197762
  0
SOLID
  8
0
 62
7
  6
CONTINUOUS
 10
369.3418477445
 20
31.539197762
 11
369.6887227445
 21
31.5069334157
 12
368.6480977445
 22
31.5069334157
 13
368.6480977445
 23
31.5069334157
  0
SOLID
  8
0
 62
7
  6
CONTINUOUS
 10
368.4168479651
 20
31.4424063504
 11
368.6480977445
 21
31.5069334157
 12
369.6887227445
 22
31.5069334157
 13
369.6887227445
 23
31.5069334157
  0
SOLID
  8
0
 62
7
  6
CONTINUOUS
 10
368.4168479651
 20
31.4424063504
 11
369.6887227445
 21
31.5069334406
 12
369.8621602445
 22
31.4746706537
 13
369.8621602445
 23
31.4746706537
  0
SOLID
  8
0
 62
7
  6
CONTINUOUS
 10
368.4168479651
 20
31.4424063504
 11
369.8621602445
 21
31.4746706537
 12
368.9949727445
 22
31.4101421267
 13
368.9949727445
 23
31.4101421267
  0
SOLID
  8
0
 62
7
  6
CONTINUOUS
 10
368.9949727445
 20
31.4101421267
 11
369.8621602445
 21
31.4746706537
 12
369.3418477445
 22
31.4101421267
 13
369.3418477445
 23
31.4101421267
  0
SOLID
  8
0
 62
7
  6
CONTINUOUS
 10
369.8621602445
 20
31.4746706537
 11
370.0355977445
 21
31.4101421267
 12
369.3418477445
 22
31.4101421267
 13
369.3418477445
 23
31.4101421267
  0
SOLID
  8
0
 62
7
  6
CONTINUOUS
 10
369.6887227445
 20
31.3778792603
 11
369.3418477445
 21
31.4101421267
 12
370.0355977445
 22
31.4101421267
 13
370.0355977445
 23
31.4101421267
  0
SOLID
  8
0
 62
7
  6
CONTINUOUS
 10
368.3012227445
 20
31.3456148845
 11
368.4168479651
 21
31.4424063504
 12
368.9949727445
 22
31.4101421267
 13
368.9949727445
 23
31.4101421267
  0
SOLID
  8
0
 62
7
  6
CONTINUOUS
 10
369.6887227445
 20
31.3778792603
 11
370.0355977445
 21
31.4101421267
 12
369.8043479651
 22
31.3456148845
 13
369.8043479651
 23
31.3456148845
  0
SOLID
  8
0
 62
7
  6
CONTINUOUS
 10
369.8043479651
 20
31.3456148845
 11
370.0355977445
 21
31.4101421267
 12
369.8621602445
 22
31.281087868
 13
369.8621602445
 23
31.281087868
  0
SOLID
  8
0
 62
7
  6
CONTINUOUS
 10
370.0355977445
 20
31.4101421267
 11
370.1512223035
 21
31.281087868
 12
369.8621602445
 22
31.281087868
 13
369.8621602445
 23
31.281087868
  0
SOLID
  8
0
 62
7
  6
CONTINUOUS
 10
359.4559102445
 20
31.3778792603
 11
358.9355977445
 21
31.3456148963
 12
359.6871602721
 22
31.4101421155
 13
359.6871602721
 23
31.4101421155
  0
SOLID
  8
0
 62
7
  6
CONTINUOUS
 10
358.9355977445
 20
31.3456148963
 11
359.0512227376
 21
31.4101421155
 12
359.6871602721
 22
31.4101421155
 13
359.6871602721
 23
31.4101421155
  0
SOLID
  8
0
 62
7
  6
CONTINUOUS
 10
359.4559102445
 20
31.3778792603
 11
359.3402852307
 21
31.3456148963
 12
358.9355977445
 22
31.3456148963
 13
358.9355977445
 23
31.3456148963
  0
SOLID
  8
0
 62
7
  6
CONTINUOUS
 10
358.8199727462
 20
31.2165607767
 11
358.9355977445
 21
31.3456148963
 12
359.3402852307
 22
31.3456148963
 13
359.3402852307
 23
31.3456148963
  0
SOLID
  8
0
 62
7
  6
CONTINUOUS
 10
363.1559103548
 20
31.3456149608
 11
363.8496603548
 21
31.4101420472
 12
363.6184102445
 22
31.3778792603
 13
363.6184102445
 23
31.3778792603
  0
SOLID
  8
0
 62
7
  6
CONTINUOUS
 10
363.6184102445
 20
31.3778792603
 11
363.5027853548
 21
31.3456149608
 12
363.1559103548
 22
31.3456149608
 13
363.1559103548
 23
31.3456149608
  0
SOLID
  8
0
 62
7
  6
CONTINUOUS
 10
363.1559103548
 20
31.2810878707
 11
363.1559103548
 21
31.3456149608
 12
363.5027853548
 22
31.3456149608
 13
363.5027853548
 23
31.3456149608
  0
SOLID
  8
0
 62
7
  6
CONTINUOUS
 10
363.5027853548
 20
31.3456149608
 11
363.4449727445
 21
31.2810878707
 12
363.1559103548
 22
31.2810878707
 13
363.1559103548
 23
31.2810878707
  0
SOLID
  8
0
 62
7
  6
CONTINUOUS
 10
368.3012227445
 20
31.3456149608
 11
368.9949727445
 21
31.4101420472
 12
368.7637229651
 22
31.3778792603
 13
368.7637229651
 23
31.3778792603
  0
SOLID
  8
0
 62
7
  6
CONTINUOUS
 10
368.7637229651
 20
31.3778792603
 11
368.6480977445
 21
31.3456149608
 12
368.3012227445
 22
31.3456149608
 13
368.3012227445
 23
31.3456149608
  0
SOLID
  8
0
 62
7
  6
CONTINUOUS
 10
368.3012227445
 20
31.2810878707
 11
368.3012227445
 21
31.3456149608
 12
368.6480977445
 22
31.3456149608
 13
368.6480977445
 23
31.3456149608
  0
SOLID
  8
0
 62
7
  6
CONTINUOUS
 10
368.6480977445
 20
31.3456149608
 11
368.5902854651
 21
31.2810878707
 12
368.3012227445
 22
31.2810878707
 13
368.3012227445
 23
31.2810878707
  0
SOLID
  8
0
 62
7
  6
CONTINUOUS
 10
368.4168479651
 20
31.1520336865
 11
368.3012227445
 21
31.2810878707
 12
368.5902854651
 22
31.2810878707
 13
368.5902854651
 23
31.2810878707
  0
SOLID
  8
0
 62
7
  6
CONTINUOUS
 10
358.8199727462
 20
31.2165607767
 11
359.3402852307
 21
31.345614957
 12
359.1668477307
 22
31.2488235635
 13
359.1668477307
 23
31.2488235635
  0
SOLID
  8
0
 62
7
  6
CONTINUOUS
 10
359.1668477307
 20
31.2488235635
 11
359.1090352445
 21
31.1842964734
 12
358.8199727462
 22
31.2165607767
 13
358.8199727462
 23
31.2165607767
  0
SOLID
  8
0
 62
7
  6
CONTINUOUS
 10
358.7621602445
 20
31.0229779898
 11
358.8199727462
 21
31.2165607767
 12
359.1090352445
 22
31.1842964734
 13
359.1090352445
 23
31.1842964734
  0
SOLID
  8
0
 62
7
  6
CONTINUOUS
 10
363.6184102445
 20
31.1520336865
 11
363.9652852445
 21
31.1842964611
 12
364.6012229651
 22
31.1842964611
 13
364.6012229651
 23
31.1842964611
  0
SOLID
  8
0
 62
7
  6
CONTINUOUS
 10
363.6184102445
 20
31.1520336865
 11
364.6012229651
 21
31.1842964611
 12
363.3871601343
 22
31.0875057863
 13
363.3871601343
 23
31.0875057863
  0
SOLID
  8
0
 62
7
  6
CONTINUOUS
 10
363.3871601343
 20
31.0875057863
 11
364.6012229651
 21
31.1842964611
 12
363.9652852445
 22
31.0552422808
 13
363.9652852445
 23
31.0552422808
  0
SOLID
  8
0
 62
7
  6
CONTINUOUS
 10
364.6012229651
 20
31.1842964611
 11
364.6012229651
 21
31.0552422808
 12
363.9652852445
 22
31.0552422808
 13
363.9652852445
 23
31.0552422808
  0
SOLID
  8
0
 62
7
  6
CONTINUOUS
 10
368.4168479651
 20
31.1520338754
 11
368.5902854651
 21
31.2810878668
 12
368.6480977445
 22
31.2165607767
 13
368.6480977445
 23
31.2165607767
  0
SOLID
  8
0
 62
7
  6
CONTINUOUS
 10
368.6480977445
 20
31.2165607767
 11
368.8215352445
 21
31.1520338754
 12
368.4168479651
 22
31.1520338754
 13
368.4168479651
 23
31.1520338754
  0
SOLID
  8
0
 62
7
  6
CONTINUOUS
 10
368.6480977445
 20
31.0552422931
 11
368.4168479651
 21
31.1520338754
 12
368.8215352445
 22
31.1520338754
 13
368.8215352445
 23
31.1520338754
  0
SOLID
  8
0
 62
7
  6
CONTINUOUS
 10
368.8215352445
 20
31.1520338754
 11
369.8043479651
 21
30.9907152029
 12
368.6480977445
 22
31.0552422931
 13
368.6480977445
 23
31.0552422931
  0
SOLID
  8
0
 62
7
  6
CONTINUOUS
 10
369.6309104651
 20
30.8939239876
 11
368.6480977445
 21
31.0552422931
 12
369.8043479651
 22
30.9907152029
 13
369.8043479651
 23
30.9907152029
  0
SOLID
  8
0
 62
7
  6
CONTINUOUS
 10
369.8043479651
 20
30.9907152029
 11
370.0355977445
 21
30.8939239876
 12
369.6309104651
 22
30.8939239876
 13
369.6309104651
 23
30.8939239876
  0
SOLID
  8
0
 62
7
  6
CONTINUOUS
 10
369.8043479651
 20
30.8293967193
 11
369.6309104651
 21
30.8939239876
 12
370.0355977445
 22
30.8939239876
 13
370.0355977445
 23
30.8939239876
  0
SOLID
  8
0
 62
7
  6
CONTINUOUS
 10
369.8043479651
 20
30.8293967193
 11
370.0355977445
 21
30.8939239876
 12
369.8621602445
 22
30.7648682694
 13
369.8621602445
 23
30.7648682694
  0
SOLID
  8
0
 62
7
  6
CONTINUOUS
 10
370.0355977445
 20
30.8939239876
 11
370.1512223035
 21
30.7648682694
 12
369.8621602445
 22
30.7648682694
 13
369.8621602445
 23
30.7648682694
  0
SOLID
  8
0
 62
7
  6
CONTINUOUS
 10
369.8043479651
 20
30.7003411846
 11
369.8621602445
 21
30.7648682694
 12
370.1512223035
 22
30.7648682694
 13
370.1512223035
 23
30.7648682694
  0
SOLID
  8
0
 62
7
  6
CONTINUOUS
 10
370.1512223035
 20
30.7648682694
 11
370.1512223035
 21
30.7003411846
 12
369.8043479651
 22
30.7003411846
 13
369.8043479651
 23
30.7003411846
  0
SOLID
  8
0
 62
7
  6
CONTINUOUS
 10
369.6887227445
 20
30.6680782357
 11
369.8043479651
 21
30.7003411846
 12
370.1512223035
 22
30.7003411846
 13
370.1512223035
 23
30.7003411846
  0
SOLID
  8
0
 62
7
  6
CONTINUOUS
 10
369.6887227445
 20
30.6680782357
 11
370.1512223035
 21
30.7003411846
 12
369.4574729651
 22
30.6358140998
 13
369.4574729651
 23
30.6358140998
  0
SOLID
  8
0
 62
7
  6
CONTINUOUS
 10
370.1512223035
 20
30.7003411846
 11
370.0355977445
 21
30.6035511455
 12
369.4574729651
 22
30.6358140998
 13
369.4574729651
 23
30.6358140998
  0
SOLID
  8
0
 62
7
  6
CONTINUOUS
 10
370.0355977445
 20
30.6035511455
 11
368.5902854651
 21
30.5712868422
 12
369.4574729651
 22
30.6358140998
 13
369.4574729651
 23
30.6358140998
  0
SOLID
  8
0
 62
7
  6
CONTINUOUS
 10
369.4574729651
 20
30.6358140998
 11
368.5902854651
 21
30.5712868422
 12
369.1105979651
 22
30.6358140998
 13
369.1105979651
 23
30.6358140998
  0
SOLID
  8
0
 62
7
  6
CONTINUOUS
 10
368.5902854651
 20
30.5712868422
 11
368.4168479651
 21
30.6358140998
 12
369.1105979651
 22
30.6358140998
 13
369.1105979651
 23
30.6358140998
  0
SOLID
  8
0
 62
7
  6
CONTINUOUS
 10
368.5902854651
 20
30.5712868422
 11
370.0355977445
 21
30.6035511455
 12
368.7637229651
 22
30.5390223111
 13
368.7637229651
 23
30.5390223111
  0
SOLID
  8
0
 62
7
  6
CONTINUOUS
 10
370.0355977445
 20
30.6035511455
 11
369.8043479651
 21
30.5390223111
 12
368.7637229651
 22
30.5390223111
 13
368.7637229651
 23
30.5390223111
  0
SOLID
  8
0
 62
7
  6
CONTINUOUS
 10
369.1105979651
 20
30.5067599302
 11
368.7637229651
 21
30.5390223111
 12
369.8043479651
 22
30.5390223111
 13
369.8043479651
 23
30.5390223111
  0
SOLID
  8
0
 62
7
  6
CONTINUOUS
 10
369.8043479651
 20
30.5390223111
 11
369.4574729651
 21
30.5067599302
 12
369.1105979651
 22
30.5067599302
 13
369.1105979651
 23
30.5067599302
  0
SOLID
  8
0
 62
7
  6
CONTINUOUS
 10
358.7621602445
 20
31.0229779898
 11
359.1090352445
 21
31.1842964734
 12
359.0512227376
 22
31.0552422931
 13
359.0512227376
 23
31.0552422931
  0
SOLID
  8
0
 62
7
  6
CONTINUOUS
 10
359.0512227376
 20
31.0552422931
 11
359.0512227376
 21
30.9584509954
 12
358.7621602445
 22
31.0229779898
 13
358.7621602445
 23
31.0229779898
  0
SOLID
  8
0
 62
7
  6
CONTINUOUS
 10
358.8199727462
 20
30.8293967193
 11
358.7621602445
 21
31.0229779898
 12
359.0512227376
 22
30.9584509954
 13
359.0512227376
 23
30.9584509954
  0
SOLID
  8
0
 62
7
  6
CONTINUOUS
 10
359.0512227376
 20
30.9584509954
 11
359.1668477307
 21
30.797132416
 12
358.8199727462
 22
30.8293967193
 13
358.8199727462
 23
30.8293967193
  0
SOLID
  8
0
 62
7
  6
CONTINUOUS
 10
358.9355977445
 20
30.7003413087
 11
358.8199727462
 21
30.8293967193
 12
359.1668477307
 22
30.797132416
 13
359.1668477307
 23
30.797132416
  0
SOLID
  8
0
 62
7
  6
CONTINUOUS
 10
359.1668477307
 20
30.797132416
 11
359.3402852307
 21
30.7003413087
 12
358.9355977445
 22
30.7003413087
 13
358.9355977445
 23
30.7003413087
  0
SOLID
  8
0
 62
7
  6
CONTINUOUS
 10
359.0512227376
 20
30.6358140759
 11
358.9355977445
 21
30.7003413087
 12
359.3402852307
 22
30.7003413087
 13
359.3402852307
 23
30.7003413087
  0
SOLID
  8
0
 62
7
  6
CONTINUOUS
 10
359.3402852307
 20
30.7003413087
 11
359.6871602721
 21
30.6358140759
 12
359.0512227376
 22
30.6358140759
 13
359.0512227376
 23
30.6358140759
  0
SOLID
  8
0
 62
7
  6
CONTINUOUS
 10
359.2246602583
 20
30.5712868422
 11
359.0512227376
 21
30.6358140759
 12
359.6871602721
 22
30.6358140759
 13
359.6871602721
 23
30.6358140759
  0
SOLID
  8
0
 62
7
  6
CONTINUOUS
 10
363.2715352445
 20
31.0229779808
 11
363.3871601343
 21
31.0875057863
 12
363.9652852445
 22
31.0552422931
 13
363.9652852445
 23
31.0552422931
  0
SOLID
  8
0
 62
7
  6
CONTINUOUS
 10
363.9652852445
 20
31.0552422931
 11
363.7340351343
 21
31.0229779808
 12
363.2715352445
 22
31.0229779808
 13
363.2715352445
 23
31.0229779808
  0
SOLID
  8
0
 62
7
  6
CONTINUOUS
 10
363.1559103548
 20
30.8939238094
 11
363.2715352445
 21
31.0229779808
 12
363.7340351343
 22
31.0229779808
 13
363.7340351343
 23
31.0229779808
  0
SOLID
  8
0
 62
7
  6
CONTINUOUS
 10
363.5027853548
 20
30.926187309
 11
363.1559103548
 21
30.8939238094
 12
363.6184102445
 22
30.9907152029
 13
363.6184102445
 23
30.9907152029
  0
SOLID
  8
0
 62
7
  6
CONTINUOUS
 10
363.1559103548
 20
30.8939238094
 11
363.7340351343
 21
31.0229779898
 12
363.6184102445
 22
30.9907152029
 13
363.6184102445
 23
30.9907152029
  0
SOLID
  8
0
 62
7
  6
CONTINUOUS
 10
363.5027853548
 20
30.926187309
 11
363.4449727445
 21
30.8293967193
 12
363.1559103548
 22
30.8939238094
 13
363.1559103548
 23
30.8939238094
  0
SOLID
  8
0
 62
7
  6
CONTINUOUS
 10
363.1559103548
 20
30.797132416
 11
363.1559103548
 21
30.8939238094
 12
363.4449727445
 22
30.8293967193
 13
363.4449727445
 23
30.8293967193
  0
SOLID
  8
0
 62
7
  6
CONTINUOUS
 10
363.4449727445
 20
30.8293967193
 11
363.4449727445
 21
30.7648681127
 12
363.1559103548
 22
30.797132416
 13
363.1559103548
 23
30.797132416
  0
SOLID
  8
0
 62
7
  6
CONTINUOUS
 10
363.2137226343
 20
30.6680782357
 11
363.1559103548
 21
30.797132416
 12
363.4449727445
 22
30.7648681127
 13
363.4449727445
 23
30.7648681127
  0
SOLID
  8
0
 62
7
  6
CONTINUOUS
 10
364.6012229651
 20
30.8616599362
 11
364.890285024
 21
30.7648681127
 12
364.543410024
 22
30.797132416
 13
364.543410024
 23
30.797132416
  0
SOLID
  8
0
 62
7
  6
CONTINUOUS
 10
364.369972524
 20
30.7003410226
 11
364.543410024
 21
30.797132416
 12
364.890285024
 22
30.7648681127
 13
364.890285024
 23
30.7648681127
  0
SOLID
  8
0
 62
7
  6
CONTINUOUS
 10
364.369972524
 20
30.7003410226
 11
364.890285024
 21
30.7648681127
 12
364.6012229651
 22
30.6680782357
 13
364.6012229651
 23
30.6680782357
  0
SOLID
  8
0
 62
7
  6
CONTINUOUS
 10
364.890285024
 20
30.7648681127
 11
364.9480979651
 21
30.6035511455
 12
364.6012229651
 22
30.6680782357
 13
364.6012229651
 23
30.6680782357
  0
SOLID
  8
0
 62
7
  6
CONTINUOUS
 10
364.6590352445
 20
30.5712868422
 11
364.6012229651
 21
30.6680782357
 12
364.9480979651
 22
30.6035511455
 13
364.9480979651
 23
30.6035511455
  0
SOLID
  8
0
 62
7
  6
CONTINUOUS
 10
364.6590352445
 20
30.5712868422
 11
364.9480979651
 21
30.6035511455
 12
364.716847524
 22
30.5067598731
 13
364.716847524
 23
30.5067598731
  0
SOLID
  8
0
 62
7
  6
CONTINUOUS
 10
364.9480979651
 20
30.6035511455
 11
365.0059102445
 21
30.5067598731
 12
364.716847524
 22
30.5067598731
 13
364.716847524
 23
30.5067598731
  0
SOLID
  8
0
 62
7
  6
CONTINUOUS
 10
360.2652852997
 20
30.7326051679
 11
360.3230977445
 21
30.8293966612
 12
360.6121602997
 22
30.8293966612
 13
360.6121602997
 23
30.8293966612
  0
SOLID
  8
0
 62
7
  6
CONTINUOUS
 10
360.6121602997
 20
30.8293966612
 11
360.5543476894
 21
30.7003410226
 12
360.2652852997
 22
30.7326051679
 13
360.2652852997
 23
30.7326051679
  0
SOLID
  8
0
 62
7
  6
CONTINUOUS
 10
360.091847717
 20
30.6680782357
 11
360.2652852997
 21
30.7326051679
 12
360.5543476894
 22
30.7003410226
 13
360.5543476894
 23
30.7003410226
  0
SOLID
  8
0
 62
7
  6
CONTINUOUS
 10
360.091847717
 20
30.6680782357
 11
360.5543476894
 21
30.7003410226
 12
359.6871602721
 22
30.6358139324
 13
359.6871602721
 23
30.6358139324
  0
SOLID
  8
0
 62
7
  6
CONTINUOUS
 10
360.5543476894
 20
30.7003410226
 11
360.3809101894
 21
30.6035511455
 12
359.6871602721
 22
30.6358139324
 13
359.6871602721
 23
30.6358139324
  0
SOLID
  8
0
 62
7
  6
CONTINUOUS
 10
359.2246602583
 20
30.5712868422
 11
359.6871602721
 21
30.6358139324
 12
360.3809101894
 22
30.6035511455
 13
360.3809101894
 23
30.6035511455
  0
SOLID
  8
0
 62
7
  6
CONTINUOUS
 10
359.2246602583
 20
30.5712868422
 11
360.3809101894
 21
30.6035511455
 12
359.3980977583
 22
30.5390224228
 13
359.3980977583
 23
30.5390224228
  0
SOLID
  8
0
 62
7
  6
CONTINUOUS
 10
360.3809101894
 20
30.6035511455
 11
360.1496602445
 21
30.5390224228
 12
359.3980977583
 22
30.5390224228
 13
359.3980977583
 23
30.5390224228
  0
SOLID
  8
0
 62
7
  6
CONTINUOUS
 10
359.744972717
 20
30.5067597521
 11
359.3980977583
 21
30.5390224228
 12
360.1496602445
 22
30.5390224228
 13
360.1496602445
 23
30.5390224228
  0
SOLID
  8
0
 62
7
  6
CONTINUOUS
 10
363.2137226343
 20
30.6680782357
 11
363.4449727445
 21
30.7648681127
 12
363.5027853548
 22
30.7003410226
 13
363.5027853548
 23
30.7003410226
  0
SOLID
  8
0
 62
7
  6
CONTINUOUS
 10
363.5027853548
 20
30.7003410226
 11
363.7340351343
 21
30.6358139324
 12
363.2137226343
 22
30.6680782357
 13
363.2137226343
 23
30.6680782357
  0
SOLID
  8
0
 62
7
  6
CONTINUOUS
 10
363.3871601343
 20
30.5712868422
 11
363.2137226343
 21
30.6680782357
 12
363.7340351343
 22
30.6358139324
 13
363.7340351343
 23
30.6358139324
  0
SOLID
  8
0
 62
7
  6
CONTINUOUS
 10
364.0809101343
 20
30.6358139363
 11
364.369972524
 21
30.7003410226
 12
364.6012229651
 22
30.6680782357
 13
364.6012229651
 23
30.6680782357
  0
SOLID
  8
0
 62
7
  6
CONTINUOUS
 10
364.6012229651
 20
30.6680782357
 11
364.543410024
 21
30.6035511455
 12
364.0809101343
 22
30.6358139363
 13
364.0809101343
 23
30.6358139363
  0
SOLID
  8
0
 62
7
  6
CONTINUOUS
 10
364.543410024
 20
30.6035511455
 11
363.3871601343
 21
30.5712868422
 12
364.0809101343
 22
30.6358139363
 13
364.0809101343
 23
30.6358139363
  0
SOLID
  8
0
 62
7
  6
CONTINUOUS
 10
363.3871601343
 20
30.5712868422
 11
363.7340351343
 21
30.6358139363
 12
364.0809101343
 22
30.6358139363
 13
364.0809101343
 23
30.6358139363
  0
SOLID
  8
0
 62
7
  6
CONTINUOUS
 10
363.3871601343
 20
30.5712868422
 11
364.543410024
 21
30.6035511455
 12
363.5027853548
 22
30.5390225267
 13
363.5027853548
 23
30.5390225267
  0
SOLID
  8
0
 62
7
  6
CONTINUOUS
 10
364.543410024
 20
30.6035511455
 11
364.369972524
 21
30.5390225267
 12
363.5027853548
 22
30.5390225267
 13
363.5027853548
 23
30.5390225267
  0
SOLID
  8
0
 62
7
  6
CONTINUOUS
 10
363.7340351343
 20
30.5067596914
 11
363.5027853548
 21
30.5390225267
 12
364.369972524
 22
30.5390225267
 13
364.369972524
 23
30.5390225267
  0
SOLID
  8
0
 62
7
  6
CONTINUOUS
 10
364.369972524
 20
30.5390225267
 11
364.0809101343
 21
30.5067596914
 12
363.7340351343
 22
30.5067596914
 13
363.7340351343
 23
30.5067596914
  0
SOLID
  8
0
 62
7
  6
CONTINUOUS
 10
368.7637229651
 20
30.6680782357
 11
368.4168479651
 21
30.6358138717
 12
368.6480977445
 22
30.7003410226
 13
368.6480977445
 23
30.7003410226
  0
SOLID
  8
0
 62
7
  6
CONTINUOUS
 10
368.6480977445
 20
30.7003410226
 11
368.4168479651
 21
30.6358138717
 12
368.5902854651
 22
30.7648680521
 13
368.5902854651
 23
30.7648680521
  0
SOLID
  8
0
 62
7
  6
CONTINUOUS
 10
368.4168479651
 20
30.6358138717
 11
368.3012227445
 21
30.7648680521
 12
368.5902854651
 22
30.7648680521
 13
368.5902854651
 23
30.7648680521
  0
SOLID
  8
0
 62
7
  6
CONTINUOUS
 10
368.7637229651
 20
30.6680782357
 11
369.1105979651
 21
30.6358138717
 12
368.4168479651
 22
30.6358138717
 13
368.4168479651
 23
30.6358138717
  0
SOLID
  8
0
 62
7
  6
CONTINUOUS
 10
365.4684104651
 20
30.5067597521
 11
365.4684104651
 21
31.5391977439
 12
365.757472524
 22
30.5067597521
 13
365.757472524
 23
31.5391977439
  0
ENDBLK
  8
0
  6
BYBLOCK
 62
0
  0
BLOCK
  8
0
 62
2
  6
CONTINUOUS
  2
SYMBOL_0_BL0
 70
64
 10
240.8592468615
 20
19.762288695
  0
TEXT
  8
0
 62
7
  6
CONTINUOUS
 10
227.1239507038
 20
19.1357028027
  7
TEXTSTYLE_3
 40
2.7338706658
  1
Ammeraal Beltech
 41
1.0
 51
15.0
 72
0
  0
TEXT
  8
0
 62
7
  6
CONTINUOUS
 10
237.9247515296
 20
16.8621661299
  7
TEXTSTYLE_4
 40
1.0935482663
  1
Innovation & Service in Belting
 41
1.0
 72
0
  0
LINE
  8
0
 62
7
  6
CONTINUOUS
 10
221.0994100525
 20
19.9022961113
 11
221.8775620458
 21
23.5632134089
  0
LINE
  8
0
 62
7
  6
CONTINUOUS
 10
231.9727303357
 20
27.2266073205
 11
222.3653797889
 21
24.1049898993
  0
LINE
  8
0
 62
7
  6
CONTINUOUS
 10
221.3246933848
 20
19.2089453082
 11
228.8317686459
 21
12.4495443822
  0
LINE
  8
0
 62
7
  6
CONTINUOUS
 10
221.5872277955
 20
20.4440726016
 11
232.3954971607
 21
23.9558922005
  0
LINE
  8
0
 62
7
  6
CONTINUOUS
 10
232.3912920235
 20
13.6061036368
 11
223.9458323548
 21
21.2104296785
  0
LINE
  8
0
 62
7
  6
CONTINUOUS
 10
232.9111147433
 20
26.3816822048
 11
231.9345552061
 21
21.7873308023
  0
LINE
  8
0
 62
7
  6
CONTINUOUS
 10
231.2347532584
 20
18.4950214885
 11
230.5483050469
 21
15.2655365641
  0
LINE
  8
0
 62
7
  6
CONTINUOUS
 10
233.5922108419
 20
13.9963058145
 11
234.5484423775
 21
18.4950214885
  0
LINE
  8
0
 62
7
  6
CONTINUOUS
 10
235.2482443252
 20
21.7873308023
 11
235.6924861276
 21
23.8773241617
  0
LINE
  8
0
 62
7
  6
CONTINUOUS
 10
229.5448697213
 20
12.2979700695
 11
233.1043930989
 21
13.4545293241
  0
LINE
  8
0
 62
7
  6
CONTINUOUS
 10
232.685831411
 20
27.0750330078
 11
235.4672027953
 21
24.5706749648
  0
ARC
  8
0
 62
7
  6
CONTINUOUS
 10
222.5906631212
 20
23.4116390962
 40
0.7290321776
 50
108.0
 51
168.0
  0
ARC
  8
0
 62
7
  6
CONTINUOUS
 10
232.198013668
 20
26.5332565175
 40
0.7290321776
 50
348.0
 51
108.0
  0
ARC
  8
0
 62
7
  6
CONTINUOUS
 10
234.9793850522
 20
24.0288984744
 40
0.7290321776
 50
348.0
 51
48.0
  0
ARC
  8
0
 62
7
  6
CONTINUOUS
 10
229.319586389
 20
12.9913208726
 40
0.7290321776
 50
228.0
 51
288.0
  0
ARC
  8
0
 62
7
  6
CONTINUOUS
 10
221.8125111278
 20
19.7507217986
 40
0.7290321776
 50
108.0
 51
228.0
  0
ARC
  8
0
 62
7
  6
CONTINUOUS
 10
232.8791097665
 20
14.1478801272
 40
0.7290321776
 50
228.0
 51
348.0
  0
ENDBLK
  8
0
  6
BYBLOCK
 62
0
  0
ENDSEC
  0
SECTION
  2
ENTITIES
  0
TEXT
  8
0
 62
5
  6
CONTINUOUS
 10
304.937007874
 20
25.636
  7
TEXTSTYLE_2
 40
2.8
  1
Scale :
 41
0.6
 51
0.000019
 72
0
  0
TEXT
  8
0
 62
5
  6
CONTINUOUS
 10
324.937007874
 20
25.636
  7
TEXTSTYLE_2
 40
2.8
  1
Belt type:
 41
0.6
 51
0.000019
 72
0
  0
INSERT
  8
0
 62
2
  6
CONTINUOUS
  2
SYMBOL_0_BL0
 10
240.8592468615
 20
19.762288695
  0
INSERT
  8
0
 62
2
  6
CONTINUOUS
  2
SYMBOL_5_BL1
 10
382.7840918555
 20
35.5067593403
  0
LINE
  8
0
 62
2
  6
CONTINUOUS
 10
218.937007874
 20
30.0
 11
408.937007874
 21
30.0
  0
LINE
  8
0
 62
2
  6
CONTINUOUS
 10
218.937007874
 20
30.0
 11
218.937007874
 21
10.0
  0
LINE
  8
0
 62
2
  6
CONTINUOUS
 10
218.937007874
 20
10.0
 11
408.937007874
 21
10.0
  0
LINE
  8
0
 62
2
  6
CONTINUOUS
 10
303.937007874
 20
30.0
 11
303.937007874
 21
10.0
  0
LINE
  8
0
 62
2
  6
CONTINUOUS
 10
323.937007874
 20
30.0
 11
323.937007874
 21
10.0
  0
LINE
  8
0
 62
2
  6
CONTINUOUS
 10
408.937007874
 20
30.0
 11
408.937007874
 21
10.0
  0
TEXT
  8
0
 62
5
  6
CONTINUOUS
 10
221.937007874
 20
23.303
  7
TEXTSTYLE_5
 40
1.52
  1
                                                                     Ammeraal Beltech Modular A/S
 41
1.0
 72
0
  0
TEXT
  8
0
 62
5
  6
CONTINUOUS
 10
221.937007874
 20
20.595
  7
TEXTSTYLE_5
 40
1.5
  1
                                                                      Hjulmagervej 21, 7100 Vejle,  DK
 41
1.0
 72
0
  0
TEXT
  8
0
 62
5
  6
CONTINUOUS
 10
221.937007874
 20
17.881
  7
TEXTSTYLE_5
 40
1.495
  1
                                                                      tel: 
 41
1.0
 72
0
  0
TEXT
  8
0
 62
5
  6
CONTINUOUS
 10
266.9239544389
 20
17.881
  7
TEXTSTYLE_5
 40
1.51
  1
+45 75723100     fax: +45 75723348
 41
1.0
 72
0
  0
TEXT
  8
0
 62
5
  6
CONTINUOUS
 10
221.937007874
 20
15.177
  7
TEXTSTYLE_5
 40
1.5
  1
                                                                      admin@unichains.dk  www.unichains.com
 41
1.0
 72
0
  0
TEXT
  8
0
 62
5
  6
CONTINUOUS
 10
308.687007874
 20
13.75
  7
TEXTSTYLE_6
 40
5.0
  1
1:1
 41
0.7
 72
1
 11
313.937007874
 21
13.75
  0
TEXT
  8
0
 62
5
  6
CONTINUOUS
 10
326.937007874
 20
13.75
  7
TEXTSTYLE_7
 40
7.5
  1
Flex One K1200 EW
 41
0.5169117647
 72
0
  0
LINE
  8
0
 62
7
  6
CONTINUOUS
 10
0.0
 20
0.0
 11
0.0
 21
297.0
  0
LINE
  8
0
 62
7
  6
CONTINUOUS
 10
8.937007874
 20
10.0
 11
8.937007874
 21
287.0
  0
LINE
  8
0
 62
7
  6
CONTINUOUS
 10
0.0
 20
0.0
 11
420.0
 21
0.0
  0
LINE
  8
0
 62
7
  6
CONTINUOUS
 10
408.937007874
 20
10.0
 11
8.937007874
 21
10.0
  0
LINE
  8
0
 62
7
  6
CONTINUOUS
 10
218.937007874
 20
30.0
 11
408.937007874
 21
30.0
  0
LINE
  8
0
 62
7
  6
CONTINUOUS
 10
210.0
 20
297.0
 11
210.0
 21
292.0
  0
LINE
  8
0
 62
7
  6
CONTINUOUS
 10
210.0
 20
0.0
 11
210.0
 21
5.0
  0
LINE
  8
0
 62
7
  6
CONTINUOUS
 10
8.937007874
 20
287.0
 11
408.937007874
 21
287.0
  0
LINE
  8
0
 62
7
  6
CONTINUOUS
 10
0.0
 20
297.0
 11
420.0
 21
297.0
  0
LINE
  8
0
 62
7
  6
CONTINUOUS
 10
408.937007874
 20
287.0
 11
408.937007874
 21
10.0
  0
LINE
  8
0
 62
7
  6
CONTINUOUS
 10
420.0
 20
0.0
 11
420.0
 21
297.0
  0
POLYLINE
  8
13_KOMPONENTER
 62
7
  6
CONTINUOUS
 66
1
 70
0
  0
VERTEX
  8
13_KOMPONENTER
 62
7
  6
CONTINUOUS
 10
28.1483832441
 20
115.9637075774
  0
VERTEX
  8
13_KOMPONENTER
 62
7
  6
CONTINUOUS
 10
28.1417881904
 20
116.0748965186
  0
VERTEX
  8
13_KOMPONENTER
 62
7
  6
CONTINUOUS
 10
28.124546572
 20
116.2392977984
  0
VERTEX
  8
13_KOMPONENTER
 62
7
  6
CONTINUOUS
 10
28.1045359702
 20
116.4423154392
  0
VERTEX
  8
13_KOMPONENTER
 62
7
  6
CONTINUOUS
 10
28.0899107678
 20
116.6637655932
  0
VERTEX
  8
13_KOMPONENTER
 62
7
  6
CONTINUOUS
 10
28.084890824
 20
116.8845977947
  0
SEQEND
  0
LINE
  8
13_KOMPONENTER
 62
7
  6
CONTINUOUS
 10
25.1483832441
 20
110.3694349971
 11
25.1483832441
 21
106.2856334842
  0
LINE
  8
13_KOMPONENTER
 62
7
  6
CONTINUOUS
 10
25.1483832441
 20
125.2019947404
 11
25.1483832441
 21
129.2856334842
  0
LINE
  8
13_KOMPONENTER
 62
7
  6
CONTINUOUS
 10
28.084890824
 20
118.6866691737
 11
28.084890824
 21
116.8845977947
  0
LINE
  8
13_KOMPONENTER
 62
7
  6
CONTINUOUS
 10
28.1483832441
 20
115.9636115354
 11
28.1483832441
 21
106.2856334842
  0
LINE
  8
13_KOMPONENTER
 62
7
  6
CONTINUOUS
 10
28.1483832441
 20
119.6076554329
 11
28.1483832441
 21
138.785632962
  0
POLYLINE
  8
13_KOMPONENTER
 62
7
  6
CONTINUOUS
 66
1
 70
0
  0
VERTEX
  8
13_KOMPONENTER
 62
7
  6
CONTINUOUS
 10
28.1483832441
 20
138.785632962
  0
VERTEX
  8
13_KOMPONENTER
 62
7
  6
CONTINUOUS
 10
28.1509683926
 20
138.9569278448
  0
VERTEX
  8
13_KOMPONENTER
 62
7
  6
CONTINUOUS
 10
28.1584837951
 20
139.1210142328
  0
VERTEX
  8
13_KOMPONENTER
 62
7
  6
CONTINUOUS
 10
28.1706155255
 20
139.278548615
  0
VERTEX
  8
13_KOMPONENTER
 62
7
  6
CONTINUOUS
 10
28.1870887349
 20
139.429988129
  0
VERTEX
  8
13_KOMPONENTER
 62
7
  6
CONTINUOUS
 10
28.2076626508
 20
139.5757447222
  0
VERTEX
  8
13_KOMPONENTER
 62
7
  6
CONTINUOUS
 10
28.232140405
 20
139.7162640767
  0
VERTEX
  8
13_KOMPONENTER
 62
7
  6
CONTINUOUS
 10
28.2603561849
 20
139.8519333076
  0
VERTEX
  8
13_KOMPONENTER
 62
7
  6
CONTINUOUS
 10
28.2921599163
 20
139.983051154
  0
VERTEX
  8
13_KOMPONENTER
 62
7
  6
CONTINUOUS
 10
28.3274328639
 20
140.1099258245
  0
VERTEX
  8
13_KOMPONENTER
 62
7
  6
CONTINUOUS
 10
28.3660903371
 20
140.2328720686
  0
VERTEX
  8
13_KOMPONENTER
 62
7
  6
CONTINUOUS
 10
28.4080579197
 20
140.3521376663
  0
VERTEX
  8
13_KOMPONENTER
 62
7
  6
CONTINUOUS
 10
28.453267611
 20
140.4679195633
  0
VERTEX
  8
13_KOMPONENTER
 62
7
  6
CONTINUOUS
 10
28.5016872103
 20
140.5804470939
  0
VERTEX
  8
13_KOMPONENTER
 62
7
  6
CONTINUOUS
 10
28.5533437782
 20
140.6900122922
  0
VERTEX
  8
13_KOMPONENTER
 62
7
  6
CONTINUOUS
 10
28.6083278199
 20
140.7969476341
  0
VERTEX
  8
13_KOMPONENTER
 62
7
  6
CONTINUOUS
 10
28.6667251715
 20
140.9014862713
  0
VERTEX
  8
13_KOMPONENTER
 62
7
  6
CONTINUOUS
 10
28.7285449063
 20
141.0036759344
  0
VERTEX
  8
13_KOMPONENTER
 62
7
  6
CONTINUOUS
 10
28.7937734812
 20
141.103519852
  0
VERTEX
  8
13_KOMPONENTER
 62
7
  6
CONTINUOUS
 10
28.8624121212
 20
141.2010425415
  0
VERTEX
  8
13_KOMPONENTER
 62
7
  6
CONTINUOUS
 10
28.9345500681
 20
141.2963760085
  0
VERTEX
  8
13_KOMPONENTER
 62
7
  6
CONTINUOUS
 10
29.010443546
 20
141.3898168195
  0
VERTEX
  8
13_KOMPONENTER
 62
7
  6
CONTINUOUS
 10
29.0903368841
 20
141.4815686891
  0
VERTEX
  8
13_KOMPONENTER
 62
7
  6
CONTINUOUS
 10
29.1743802413
 20
141.5716772794
  0
VERTEX
  8
13_KOMPONENTER
 62
7
  6
CONTINUOUS
 10
29.2627393653
 20
141.6601797167
  0
VERTEX
  8
13_KOMPONENTER
 62
7
  6
CONTINUOUS
 10
29.3556368878
 20
141.7471412602
  0
VERTEX
  8
13_KOMPONENTER
 62
7
  6
CONTINUOUS
 10
29.4533404966
 20
141.8326324996
  0
VERTEX
  8
13_KOMPONENTER
 62
7
  6
CONTINUOUS
 10
29.5561896585
 20
141.9167433393
  0
VERTEX
  8
13_KOMPONENTER
 62
7
  6
CONTINUOUS
 10
29.6645033095
 20
141.9995019165
  0
VERTEX
  8
13_KOMPONENTER
 62
7
  6
CONTINUOUS
 10
29.7785873384
 20
142.0808916464
  0
VERTEX
  8
13_KOMPONENTER
 62
7
  6
CONTINUOUS
 10
29.8988359291
 20
142.1609244583
  0
VERTEX
  8
13_KOMPONENTER
 62
7
  6
CONTINUOUS
 10
30.0257148908
 20
142.2396152317
  0
VERTEX
  8
13_KOMPONENTER
 62
7
  6
CONTINUOUS
 10
30.1596404317
 20
142.3169045366
  0
VERTEX
  8
13_KOMPONENTER
 62
7
  6
CONTINUOUS
 10
30.3011054161
 20
142.3927396422
  0
VERTEX
  8
13_KOMPONENTER
 62
7
  6
CONTINUOUS
 10
30.4506674119
 20
142.4670582603
  0
VERTEX
  8
13_KOMPONENTER
 62
7
  6
CONTINUOUS
 10
30.6090504019
 20
142.5398264615
  0
VERTEX
  8
13_KOMPONENTER
 62
7
  6
CONTINUOUS
 10
30.7766849637
 20
142.6108278658
  0
VERTEX
  8
13_KOMPONENTER
 62
7
  6
CONTINUOUS
 10
30.9538509254
 20
142.6797732289
  0
VERTEX
  8
13_KOMPONENTER
 62
7
  6
CONTINUOUS
 10
31.1420396075
 20
142.7467905201
  0
VERTEX
  8
13_KOMPONENTER
 62
7
  6
CONTINUOUS
 10
31.3426738101
 20
142.8118406665
  0
VERTEX
  8
13_KOMPONENTER
 62
7
  6
CONTINUOUS
 10
31.5562280533
 20
142.8744965406
  0
VERTEX
  8
13_KOMPONENTER
 62
7
  6
CONTINUOUS
 10
31.7832639486
 20
142.9343513878
  0
VERTEX
  8
13_KOMPONENTER
 62
7
  6
CONTINUOUS
 10
32.0255446922
 20
142.9912541261
  0
VERTEX
  8
13_KOMPONENTER
 62
7
  6
CONTINUOUS
 10
32.2845625734
 20
143.0448619564
  0
VERTEX
  8
13_KOMPONENTER
 62
7
  6
CONTINUOUS
 10
32.5613650609
 20
143.0946597783
  0
VERTEX
  8
13_KOMPONENTER
 62
7
  6
CONTINUOUS
 10
32.8569383266
 20
143.1400810244
  0
VERTEX
  8
13_KOMPONENTER
 62
7
  6
CONTINUOUS
 10
33.1738285595
 20
143.1807084927
  0
VERTEX
  8
13_KOMPONENTER
 62
7
  6
CONTINUOUS
 10
33.5137263371
 20
143.2158678543
  0
VERTEX
  8
13_KOMPONENTER
 62
7
  6
CONTINUOUS
 10
33.8780728893
 20
143.2447854082
  0
VERTEX
  8
13_KOMPONENTER
 62
7
  6
CONTINUOUS
 10
34.2707503014
 20
143.266745544
  0
VERTEX
  8
13_KOMPONENTER
 62
7
  6
CONTINUOUS
 10
34.6930638792
 20
143.2807122878
  0
VERTEX
  8
13_KOMPONENTER
 62
7
  6
CONTINUOUS
 10
35.1483832441
 20
143.2856334842
  0
SEQEND
  0
POLYLINE
  8
13_KOMPONENTER
 62
7
  6
CONTINUOUS
 66
1
 70
0
  0
VERTEX
  8
13_KOMPONENTER
 62
7
  6
CONTINUOUS
 10
28.084890824
 20
118.6866691737
  0
VERTEX
  8
13_KOMPONENTER
 62
7
  6
CONTINUOUS
 10
28.0899103457
 20
118.9074920306
  0
VERTEX
  8
13_KOMPONENTER
 62
7
  6
CONTINUOUS
 10
28.1045361139
 20
119.1289532109
  0
VERTEX
  8
13_KOMPONENTER
 62
7
  6
CONTINUOUS
 10
28.1245425512
 20
119.3319319041
  0
VERTEX
  8
13_KOMPONENTER
 62
7
  6
CONTINUOUS
 10
28.1417871349
 20
119.4963590386
  0
VERTEX
  8
13_KOMPONENTER
 62
7
  6
CONTINUOUS
 10
28.1483832441
 20
119.607559391
  0
SEQEND
  0
LINE
  8
13_KOMPONENTER
 62
7
  6
CONTINUOUS
 10
28.6790300972
 20
115.2019561082
 11
28.3657745484
 21
114.0357347544
  0
POLYLINE
  8
13_KOMPONENTER
 62
7
  6
CONTINUOUS
 66
1
 70
0
  0
VERTEX
  8
13_KOMPONENTER
 62
7
  6
CONTINUOUS
 10
50.3152637546
 20
154.1569494117
  0
VERTEX
  8
13_KOMPONENTER
 62
7
  6
CONTINUOUS
 10
50.3156424049
 20
154.1498156858
  0
VERTEX
  8
13_KOMPONENTER
 62
7
  6
CONTINUOUS
 10
50.3188206313
 20
154.1427914757
  0
VERTEX
  8
13_KOMPONENTER
 62
7
  6
CONTINUOUS
 10
50.3237337607
 20
154.1357253394
  0
VERTEX
  8
13_KOMPONENTER
 62
7
  6
CONTINUOUS
 10
50.3299243829
 20
154.1283254101
  0
VERTEX
  8
13_KOMPONENTER
 62
7
  6
CONTINUOUS
 10
50.3373722783
 20
154.1204073141
  0
VERTEX
  8
13_KOMPONENTER
 62
7
  6
CONTINUOUS
 10
50.3460605866
 20
154.1120257128
  0
VERTEX
  8
13_KOMPONENTER
 62
7
  6
CONTINUOUS
 10
50.355935759
 20
154.1033394373
  0
VERTEX
  8
13_KOMPONENTER
 62
7
  6
CONTINUOUS
 10
50.3669368189
 20
154.0945226915
  0
VERTEX
  8
13_KOMPONENTER
 62
7
  6
CONTINUOUS
 10
50.3789946784
 20
154.0857421683
  0
VERTEX
  8
13_KOMPONENTER
 62
7
  6
CONTINUOUS
 10
50.3922501889
 20
154.0770104343
  0
VERTEX
  8
13_KOMPONENTER
 62
7
  6
CONTINUOUS
 10
50.4070506857
 20
154.0682515574
  0
VERTEX
  8
13_KOMPONENTER
 62
7
  6
CONTINUOUS
 10
50.4238064457
 20
154.0594359487
  0
VERTEX
  8
13_KOMPONENTER
 62
7
  6
CONTINUOUS
 10
50.442939564
 20
154.0506141887
  0
VERTEX
  8
13_KOMPONENTER
 62
7
  6
CONTINUOUS
 10
50.4648548912
 20
154.0419303751
  0
VERTEX
  8
13_KOMPONENTER
 62
7
  6
CONTINUOUS
 10
50.4898948073
 20
154.0336292892
  0
VERTEX
  8
13_KOMPONENTER
 62
7
  6
CONTINUOUS
 10
50.5183676596
 20
154.0260090545
  0
VERTEX
  8
13_KOMPONENTER
 62
7
  6
CONTINUOUS
 10
50.5504448837
 20
154.0194425067
  0
VERTEX
  8
13_KOMPONENTER
 62
7
  6
CONTINUOUS
 10
50.586124773
 20
154.0143208297
  0
VERTEX
  8
13_KOMPONENTER
 62
7
  6
CONTINUOUS
 10
50.6255970733
 20
154.0109916212
  0
VERTEX
  8
13_KOMPONENTER
 62
7
  6
CONTINUOUS
 10
50.6692774412
 20
154.0097965976
  0
SEQEND
  0
LINE
  8
13_KOMPONENTER
 62
7
  6
CONTINUOUS
 10
48.1483832441
 20
121.879835182
 11
48.1483832441
 21
114.0162007989
  0
LINE
  8
13_KOMPONENTER
 62
7
  6
CONTINUOUS
 10
49.1483832441
 20
149.1671969904
 11
49.1483832441
 21
152.7083186234
  0
LINE
  8
13_KOMPONENTER
 62
7
  6
CONTINUOUS
 10
52.1483832441
 20
110.2458735661
 11
52.1483832441
 21
106.7356334842
  0
LINE
  8
13_KOMPONENTER
 62
7
  6
CONTINUOUS
 10
58.1483832441
 20
106.7356446057
 11
58.1483832441
 21
110.626439405
  0
LINE
  8
13_KOMPONENTER
 62
7
  6
CONTINUOUS
 10
61.1483832441
 20
152.708243105
 11
61.1483832441
 21
143.4825110584
  0
LINE
  8
13_KOMPONENTER
 62
7
  6
CONTINUOUS
 10
62.1483832441
 20
110.059831703
 11
62.1483832441
 21
115.5410469164
  0
LINE
  8
13_KOMPONENTER
 62
7
  6
CONTINUOUS
 10
59.1912311481
 20
123.8275672117
 11
59.0531758365
 21
123.3123377747
  0
POLYLINE
  8
13_KOMPONENTER
 62
7
  6
CONTINUOUS
 66
1
 70
0
  0
VERTEX
  8
13_KOMPONENTER
 62
7
  6
CONTINUOUS
 10
59.9663676169
 20
154.1641910802
  0
VERTEX
  8
13_KOMPONENTER
 62
7
  6
CONTINUOUS
 10
59.9692659779
 20
154.1384340551
  0
VERTEX
  8
13_KOMPONENTER
 62
7
  6
CONTINUOUS
 10
59.9712216083
 20
154.1123837272
  0
VERTEX
  8
13_KOMPONENTER
 62
7
  6
CONTINUOUS
 10
59.9724782343
 20
154.0860702248
  0
SEQEND
  0
LINE
  8
13_KOMPONENTER
 62
7
  6
CONTINUOUS
 10
74.1483832441
 20
115.5410711214
 11
74.1483832441
 21
110.059831703
  0
LINE
  8
13_KOMPONENTER
 62
7
  6
CONTINUOUS
 10
75.1483832441
 20
143.4825110608
 11
75.1483832441
 21
152.7082503719
  0
POLYLINE
  8
13_KOMPONENTER
 62
7
  6
CONTINUOUS
 66
1
 70
0
  0
VERTEX
  8
13_KOMPONENTER
 62
7
  6
CONTINUOUS
 10
58.9764591387
 20
154.6254136145
  0
VERTEX
  8
13_KOMPONENTER
 62
7
  6
CONTINUOUS
 10
59.0758664578
 20
154.7269761049
  0
VERTEX
  8
13_KOMPONENTER
 62
7
  6
CONTINUOUS
 10
59.1739407013
 20
154.8138981402
  0
VERTEX
  8
13_KOMPONENTER
 62
7
  6
CONTINUOUS
 10
59.2667839597
 20
154.8851457942
  0
VERTEX
  8
13_KOMPONENTER
 62
7
  6
CONTINUOUS
 10
59.352399039
 20
154.9387561015
  0
VERTEX
  8
13_KOMPONENTER
 62
7
  6
CONTINUOUS
 10
59.4287380243
 20
154.973367226
  0
SEQEND
  0
POLYLINE
  8
13_KOMPONENTER
 62
7
  6
CONTINUOUS
 66
1
 70
0
  0
VERTEX
  8
13_KOMPONENTER
 62
7
  6
CONTINUOUS
 10
52.1738617038
 20
156.231270881
  0
VERTEX
  8
13_KOMPONENTER
 62
7
  6
CONTINUOUS
 10
51.9917659332
 20
156.0717443874
  0
VERTEX
  8
13_KOMPONENTER
 62
7
  6
CONTINUOUS
 10
51.7807176106
 20
155.8757278003
  0
SEQEND
  0
LINE
  8
13_KOMPONENTER
 62
7
  6
CONTINUOUS
 10
78.1483832441
 20
111.6594327157
 11
78.1483832441
 21
106.7356456011
  0
LINE
  8
13_KOMPONENTER
 62
7
  6
CONTINUOUS
 10
84.1483832441
 20
106.7356456011
 11
84.1483832441
 21
112.0400095578
  0
LINE
  8
13_KOMPONENTER
 62
7
  6
CONTINUOUS
 10
52.1738617038
 20
156.231270881
 11
52.3380000248
 21
156.3677391197
  0
POLYLINE
  8
13_KOMPONENTER
 62
7
  6
CONTINUOUS
 66
1
 70
0
  0
VERTEX
  8
13_KOMPONENTER
 62
7
  6
CONTINUOUS
 10
52.576493018
 20
156.5550682733
  0
VERTEX
  8
13_KOMPONENTER
 62
7
  6
CONTINUOUS
 10
52.5213520473
 20
156.5129536911
  0
VERTEX
  8
13_KOMPONENTER
 62
7
  6
CONTINUOUS
 10
52.438472172
 20
156.4483559353
  0
VERTEX
  8
13_KOMPONENTER
 62
7
  6
CONTINUOUS
 10
52.3236412808
 20
156.3562179543
  0
SEQEND
  0
LINE
  8
13_KOMPONENTER
 62
7
  6
CONTINUOUS
 10
52.6178848253
 20
156.5862362556
 11
52.576493018
 21
156.5550682733
  0
LINE
  8
13_KOMPONENTER
 62
7
  6
CONTINUOUS
 10
76.5718227252
 20
123.267995394
 11
76.4552348966
 21
123.7031070936
  0
LINE
  8
13_KOMPONENTER
 62
7
  6
CONTINUOUS
 10
87.1483832441
 20
152.708243105
 11
87.1483832441
 21
143.4825110584
  0
LINE
  8
13_KOMPONENTER
 62
7
  6
CONTINUOUS
 10
88.1483832441
 20
110.059831703
 11
88.1483832441
 21
115.5410711234
  0
POLYLINE
  8
13_KOMPONENTER
 62
7
  6
CONTINUOUS
 66
1
 70
0
  0
VERTEX
  8
13_KOMPONENTER
 62
7
  6
CONTINUOUS
 10
88.148383238
 20
113.6781211111
  0
VERTEX
  8
13_KOMPONENTER
 62
7
  6
CONTINUOUS
 10
88.1398885767
 20
113.5480911058
  0
VERTEX
  8
13_KOMPONENTER
 62
7
  6
CONTINUOUS
 10
88.1145581253
 20
113.4202693627
  0
VERTEX
  8
13_KOMPONENTER
 62
7
  6
CONTINUOUS
 10
88.072821922
 20
113.2968263826
  0
VERTEX
  8
13_KOMPONENTER
 62
7
  6
CONTINUOUS
 10
88.0153886084
 20
113.1798583116
  0
VERTEX
  8
13_KOMPONENTER
 62
7
  6
CONTINUOUS
 10
87.9432334004
 20
113.0713513546
  0
VERTEX
  8
13_KOMPONENTER
 62
7
  6
CONTINUOUS
 10
87.8575815231
 20
112.9731480333
  0
VERTEX
  8
13_KOMPONENTER
 62
7
  6
CONTINUOUS
 10
87.7598873832
 20
112.8869158785
  0
VERTEX
  8
13_KOMPONENTER
 62
7
  6
CONTINUOUS
 10
87.6518098408
 20
112.8141191123
  0
VERTEX
  8
13_KOMPONENTER
 62
7
  6
CONTINUOUS
 10
87.5351840606
 20
112.7559938224
  0
VERTEX
  8
13_KOMPONENTER
 62
7
  6
CONTINUOUS
 10
87.4119903538
 20
112.7135269772
  0
VERTEX
  8
13_KOMPONENTER
 62
7
  6
CONTINUOUS
 10
87.2843205538
 20
112.6874396682
  0
VERTEX
  8
13_KOMPONENTER
 62
7
  6
CONTINUOUS
 10
87.2026711887
 20
112.6796317869
  0
SEQEND
  0
LINE
  8
13_KOMPONENTER
 62
7
  6
CONTINUOUS
 10
85.8415315915
 20
123.7031070936
 11
85.724943763
 21
123.267995394
  0
LINE
  8
13_KOMPONENTER
 62
7
  6
CONTINUOUS
 10
100.1483832441
 20
115.5410711214
 11
100.1483832441
 21
110.059831703
  0
LINE
  8
13_KOMPONENTER
 62
7
  6
CONTINUOUS
 10
101.1483832441
 20
143.4824992662
 11
101.1483832441
 21
152.7083198034
  0
LINE
  8
13_KOMPONENTER
 62
7
  6
CONTINUOUS
 10
104.1483832441
 20
113.0730038433
 11
104.1483832441
 21
106.7356456011
  0
LINE
  8
13_KOMPONENTER
 62
7
  6
CONTINUOUS
 10
64.8537486208
 20
106.1186146789
 11
64.9677045393
 21
106.04784412
  0
LINE
  8
13_KOMPONENTER
 62
7
  6
CONTINUOUS
 10
102.5718227252
 20
123.267995394
 11
102.4552348966
 21
123.7031070936
  0
LINE
  8
13_KOMPONENTER
 62
7
  6
CONTINUOUS
 10
110.1483832441
 20
106.7356456011
 11
110.1483832441
 21
113.4535806853
  0
LINE
  8
13_KOMPONENTER
 62
7
  6
CONTINUOUS
 10
113.1483832441
 20
152.7083197503
 11
113.1483832441
 21
143.4824992662
  0
LINE
  8
13_KOMPONENTER
 62
7
  6
CONTINUOUS
 10
114.1483832441
 20
110.059831703
 11
114.1483832441
 21
115.5410708376
  0
POLYLINE
  8
13_KOMPONENTER
 62
7
  6
CONTINUOUS
 66
1
 70
0
  0
VERTEX
  8
13_KOMPONENTER
 62
7
  6
CONTINUOUS
 10
114.148383238
 20
115.0916922386
  0
VERTEX
  8
13_KOMPONENTER
 62
7
  6
CONTINUOUS
 10
114.1398885767
 20
114.9616622333
  0
VERTEX
  8
13_KOMPONENTER
 62
7
  6
CONTINUOUS
 10
114.1145581253
 20
114.8338404902
  0
VERTEX
  8
13_KOMPONENTER
 62
7
  6
CONTINUOUS
 10
114.072821922
 20
114.7103975102
  0
VERTEX
  8
13_KOMPONENTER
 62
7
  6
CONTINUOUS
 10
114.0153886084
 20
114.5934294391
  0
VERTEX
  8
13_KOMPONENTER
 62
7
  6
CONTINUOUS
 10
113.9432334004
 20
114.4849224821
  0
VERTEX
  8
13_KOMPONENTER
 62
7
  6
CONTINUOUS
 10
113.8575815231
 20
114.3867191609
  0
VERTEX
  8
13_KOMPONENTER
 62
7
  6
CONTINUOUS
 10
113.7598873832
 20
114.300487006
  0
VERTEX
  8
13_KOMPONENTER
 62
7
  6
CONTINUOUS
 10
113.6518098408
 20
114.2276902399
  0
VERTEX
  8
13_KOMPONENTER
 62
7
  6
CONTINUOUS
 10
113.5351840606
 20
114.1695649499
  0
VERTEX
  8
13_KOMPONENTER
 62
7
  6
CONTINUOUS
 10
113.4119903538
 20
114.1270981047
  0
VERTEX
  8
13_KOMPONENTER
 62
7
  6
CONTINUOUS
 10
113.2843205538
 20
114.1010107957
  0
VERTEX
  8
13_KOMPONENTER
 62
7
  6
CONTINUOUS
 10
113.2026711887
 20
114.0932029144
  0
SEQEND
  0
LINE
  8
13_KOMPONENTER
 62
7
  6
CONTINUOUS
 10
111.8415315915
 20
123.7031070936
 11
111.724943763
 21
123.267995394
  0
LINE
  8
13_KOMPONENTER
 62
7
  6
CONTINUOUS
 10
90.8537486197
 20
106.1186146795
 11
90.967704538
 21
106.0478441209
  0
POLYLINE
  8
13_KOMPONENTER
 62
7
  6
CONTINUOUS
 66
1
 70
0
  0
VERTEX
  8
13_KOMPONENTER
 62
7
  6
CONTINUOUS
 10
58.5159390123
 20
155.875733548
  0
VERTEX
  8
13_KOMPONENTER
 62
7
  6
CONTINUOUS
 10
58.3049024643
 20
156.0717391997
  0
VERTEX
  8
13_KOMPONENTER
 62
7
  6
CONTINUOUS
 10
58.1228524618
 20
156.2312269459
  0
SEQEND
  0
LINE
  8
13_KOMPONENTER
 62
7
  6
CONTINUOUS
 10
126.1483832441
 20
115.5410708376
 11
126.1483832441
 21
110.059831703
  0
LINE
  8
13_KOMPONENTER
 62
7
  6
CONTINUOUS
 10
127.1483832441
 20
143.4824992662
 11
127.1483832441
 21
152.7083198436
  0
LINE
  8
13_KOMPONENTER
 62
7
  6
CONTINUOUS
 10
116.8537486197
 20
106.1186146795
 11
116.967704538
 21
106.0478441209
  0
LINE
  8
13_KOMPONENTER
 62
7
  6
CONTINUOUS
 10
57.8690590582
 20
156.4396356345
 11
57.875137317
 21
156.4349526885
  0
LINE
  8
13_KOMPONENTER
 62
7
  6
CONTINUOUS
 10
57.875137317
 20
156.4349526885
 11
58.1102485568
 21
156.2417413777
  0
POLYLINE
  8
13_KOMPONENTER
 62
7
  6
CONTINUOUS
 66
1
 70
0
  0
VERTEX
  8
13_KOMPONENTER
 62
7
  6
CONTINUOUS
 10
58.1228524618
 20
156.2312269459
  0
VERTEX
  8
13_KOMPONENTER
 62
7
  6
CONTINUOUS
 10
57.9730823527
 20
156.3561681929
  0
VERTEX
  8
13_KOMPONENTER
 62
7
  6
CONTINUOUS
 10
57.8582316424
 20
156.4483234645
  0
VERTEX
  8
13_KOMPONENTER
 62
7
  6
CONTINUOUS
 10
57.775329497
 20
156.5129391519
  0
VERTEX
  8
13_KOMPONENTER
 62
7
  6
CONTINUOUS
 10
57.7201738082
 20
156.5550651205
  0
VERTEX
  8
13_KOMPONENTER
 62
7
  6
CONTINUOUS
 10
57.6787778689
 20
156.5862362351
  0
SEQEND
  0
LINE
  8
13_KOMPONENTER
 62
7
  6
CONTINUOUS
 10
130.1483832441
 20
113.7356213672
 11
130.1483832441
 21
106.7356456011
  0
LINE
  8
13_KOMPONENTER
 62
7
  6
CONTINUOUS
 10
136.1483832441
 20
106.7356456011
 11
136.1483832441
 21
113.7356213672
  0
LINE
  8
13_KOMPONENTER
 62
7
  6
CONTINUOUS
 10
71.3299892463
 20
106.0485160909
 11
71.3290648085
 21
106.0478461739
  0
LINE
  8
13_KOMPONENTER
 62
7
  6
CONTINUOUS
 10
128.5718227252
 20
123.267995394
 11
128.4552348966
 21
123.7031070936
  0
LINE
  8
13_KOMPONENTER
 62
7
  6
CONTINUOUS
 10
139.1483832441
 20
152.7083197503
 11
139.1483832441
 21
143.4824992662
  0
LINE
  8
13_KOMPONENTER
 62
7
  6
CONTINUOUS
 10
140.1483832441
 20
110.059831703
 11
140.1483832441
 21
115.5410708376
  0
LINE
  8
13_KOMPONENTER
 62
7
  6
CONTINUOUS
 10
137.8415315915
 20
123.7031070936
 11
137.724943763
 21
123.267995394
  0
POLYLINE
  8
13_KOMPONENTER
 62
7
  6
CONTINUOUS
 66
1
 70
0
  0
VERTEX
  8
13_KOMPONENTER
 62
7
  6
CONTINUOUS
 10
71.3290648085
 20
106.0478461739
  0
VERTEX
  8
13_KOMPONENTER
 62
7
  6
CONTINUOUS
 10
71.4430203441
 20
106.1186159956
  0
VERTEX
  8
13_KOMPONENTER
 62
7
  6
CONTINUOUS
 10
71.5654225105
 20
106.1734972374
  0
VERTEX
  8
13_KOMPONENTER
 62
7
  6
CONTINUOUS
 10
71.6940687764
 20
106.2115023396
  0
VERTEX
  8
13_KOMPONENTER
 62
7
  6
CONTINUOUS
 10
71.8266442533
 20
106.231947417
  0
VERTEX
  8
13_KOMPONENTER
 62
7
  6
CONTINUOUS
 10
71.9124262287
 20
106.2356334842
  0
SEQEND
  0
LINE
  8
13_KOMPONENTER
 62
7
  6
CONTINUOUS
 10
142.8537486197
 20
106.1186146795
 11
142.967704538
 21
106.0478441209
  0
LINE
  8
13_KOMPONENTER
 62
7
  6
CONTINUOUS
 10
152.1483832441
 20
115.5410708376
 11
152.1483832441
 21
110.059831703
  0
LINE
  8
13_KOMPONENTER
 62
7
  6
CONTINUOUS
 10
153.1483832441
 20
143.4824992662
 11
153.1483832441
 21
152.7083198436
  0
LINE
  8
13_KOMPONENTER
 62
7
  6
CONTINUOUS
 10
156.1483832441
 20
113.7356213672
 11
156.1483832441
 21
106.7356456011
  0
LINE
  8
13_KOMPONENTER
 62
7
  6
CONTINUOUS
 10
97.3293569966
 20
106.0480588848
 11
97.3290648085
 21
106.0478461739
  0
POLYLINE
  8
13_KOMPONENTER
 62
7
  6
CONTINUOUS
 66
1
 70
0
  0
VERTEX
  8
13_KOMPONENTER
 62
7
  6
CONTINUOUS
 10
97.3290648085
 20
106.0478461739
  0
VERTEX
  8
13_KOMPONENTER
 62
7
  6
CONTINUOUS
 10
97.4430203441
 20
106.1186159956
  0
VERTEX
  8
13_KOMPONENTER
 62
7
  6
CONTINUOUS
 10
97.5654225105
 20
106.1734972374
  0
VERTEX
  8
13_KOMPONENTER
 62
7
  6
CONTINUOUS
 10
97.6940687764
 20
106.2115023396
  0
VERTEX
  8
13_KOMPONENTER
 62
7
  6
CONTINUOUS
 10
97.8266442533
 20
106.231947417
  0
VERTEX
  8
13_KOMPONENTER
 62
7
  6
CONTINUOUS
 10
97.9124262287
 20
106.2356334842
  0
SEQEND
  0
LINE
  8
13_KOMPONENTER
 62
7
  6
CONTINUOUS
 10
322.0194085632
 20
119.1367216569
 11
325.120121889
 21
119.5449383105
  0
LINE
  8
13_KOMPONENTER
 62
7
  6
CONTINUOUS
 10
326.9483832441
 20
119.6856334842
 11
322.6943139692
 21
119.2255746392
  0
LINE
  8
13_KOMPONENTER
 62
7
  6
CONTINUOUS
 10
175.2901731717
 20
105.7861655515
 11
175.6458153659
 21
105.7918667576
  0
LINE
  8
13_KOMPONENTER
 62
7
  6
CONTINUOUS
 10
175.5676482369
 20
105.7910982171
 11
175.7539205863
 21
105.7929789984
  0
LINE
  8
13_KOMPONENTER
 62
7
  6
CONTINUOUS
 10
175.2225861615
 20
105.7856340638
 11
175.3424768698
 21
105.7868376377
  0
LINE
  8
13_KOMPONENTER
 62
7
  6
CONTINUOUS
 10
175.6755073714
 20
105.7926302196
 11
175.8639333355
 21
105.7935054894
  0
LINE
  8
13_KOMPONENTER
 62
7
  6
CONTINUOUS
 10
325.9483832441
 20
105.7856334842
 11
313.6284205996
 21
105.7856334842
  0
LINE
  8
13_KOMPONENTER
 62
7
  6
CONTINUOUS
 10
289.4413340192
 20
105.7856334842
 11
284.4554324689
 21
105.7856334842
  0
LINE
  8
13_KOMPONENTER
 62
7
  6
CONTINUOUS
 10
263.4413340192
 20
105.7856334842
 11
258.4554324689
 21
105.7856334842
  0
LINE
  8
13_KOMPONENTER
 62
7
  6
CONTINUOUS
 10
211.4413340192
 20
105.7856334842
 11
206.4554324689
 21
105.7856334842
  0
LINE
  8
13_KOMPONENTER
 62
7
  6
CONTINUOUS
 10
175.2531639813
 20
105.7857519201
 11
169.6554324689
 21
105.7856334842
  0
LINE
  8
13_KOMPONENTER
 62
7
  6
CONTINUOUS
 10
148.6413340192
 20
105.7856334842
 11
143.6554324689
 21
105.7856334842
  0
LINE
  8
13_KOMPONENTER
 62
7
  6
CONTINUOUS
 10
122.6413340192
 20
105.7856334842
 11
117.6554324689
 21
105.7856334842
  0
LINE
  8
13_KOMPONENTER
 62
7
  6
CONTINUOUS
 10
96.6413340192
 20
105.7856334842
 11
91.6554324689
 21
105.7856334842
  0
LINE
  8
13_KOMPONENTER
 62
7
  6
CONTINUOUS
 10
70.6413340192
 20
105.7856334842
 11
65.6554324689
 21
105.7856334842
  0
LINE
  8
13_KOMPONENTER
 62
7
  6
CONTINUOUS
 10
41.4683458885
 20
105.7856334842
 11
29.1483832441
 21
105.7856334842
  0
LINE
  8
13_KOMPONENTER
 62
7
  6
CONTINUOUS
 10
25.6483832441
 20
105.7856334842
 11
27.6483832441
 21
105.7856334842
  0
LINE
  8
13_KOMPONENTER
 62
7
  6
CONTINUOUS
 10
232.4554324689
 20
105.7856334842
 11
237.4413340192
 21
105.7856334842
  0
LINE
  8
13_KOMPONENTER
 62
7
  6
CONTINUOUS
 10
327.4483832441
 20
105.7856334842
 11
329.4483832441
 21
105.7856334842
  0
LINE
  8
13_KOMPONENTER
 62
7
  6
CONTINUOUS
 10
312.167492448
 20
106.2356334842
 11
303.4483832441
 21
106.2356334842
  0
LINE
  8
13_KOMPONENTER
 62
7
  6
CONTINUOUS
 10
296.4483832441
 20
106.2356334842
 11
290.7124314661
 21
106.2356334842
  0
LINE
  8
13_KOMPONENTER
 62
7
  6
CONTINUOUS
 10
283.1843345928
 20
106.2356334842
 11
277.4483832441
 21
106.2356334842
  0
LINE
  8
13_KOMPONENTER
 62
7
  6
CONTINUOUS
 10
270.4483832441
 20
106.2356334842
 11
264.7124314662
 21
106.2356334842
  0
LINE
  8
13_KOMPONENTER
 62
7
  6
CONTINUOUS
 10
257.1843345928
 20
106.2356334842
 11
251.4483832441
 21
106.2356334842
  0
LINE
  8
13_KOMPONENTER
 62
7
  6
CONTINUOUS
 10
244.4483832441
 20
106.2356334842
 11
238.7124314662
 21
106.2356334842
  0
LINE
  8
13_KOMPONENTER
 62
7
  6
CONTINUOUS
 10
231.1843345928
 20
106.2356334842
 11
225.4483832441
 21
106.2356334842
  0
LINE
  8
13_KOMPONENTER
 62
7
  6
CONTINUOUS
 10
218.4483832441
 20
106.2356334842
 11
212.7124314662
 21
106.2356334842
  0
LINE
  8
13_KOMPONENTER
 62
7
  6
CONTINUOUS
 10
205.1843345928
 20
106.2356334842
 11
199.4483832441
 21
106.2356334842
  0
LINE
  8
13_KOMPONENTER
 62
7
  6
CONTINUOUS
 10
192.4483832441
 20
106.2356334842
 11
186.7161957772
 21
106.2356334842
  0
LINE
  8
13_KOMPONENTER
 62
7
  6
CONTINUOUS
 10
168.3805707109
 20
106.2356334842
 11
162.6483832441
 21
106.2356334842
  0
LINE
  8
13_KOMPONENTER
 62
7
  6
CONTINUOUS
 10
155.6483832441
 20
106.2356334842
 11
149.9124318953
 21
106.2356334842
  0
LINE
  8
13_KOMPONENTER
 62
7
  6
CONTINUOUS
 10
142.384335022
 20
106.2356334842
 11
136.6483832441
 21
106.2356334842
  0
LINE
  8
13_KOMPONENTER
 62
7
  6
CONTINUOUS
 10
129.6483832441
 20
106.2356334842
 11
123.9124318953
 21
106.2356334842
  0
LINE
  8
13_KOMPONENTER
 62
7
  6
CONTINUOUS
 10
116.384335022
 20
106.2356334842
 11
110.6483832441
 21
106.2356334842
  0
LINE
  8
13_KOMPONENTER
 62
7
  6
CONTINUOUS
 10
103.6483832441
 20
106.2356334842
 11
97.9124318953
 21
106.2356334842
  0
LINE
  8
13_KOMPONENTER
 62
7
  6
CONTINUOUS
 10
90.384335022
 20
106.2356334842
 11
84.6483832441
 21
106.2356334842
  0
LINE
  8
13_KOMPONENTER
 62
7
  6
CONTINUOUS
 10
77.6483832441
 20
106.2356334842
 11
71.9124318953
 21
106.2356334842
  0
LINE
  8
13_KOMPONENTER
 62
7
  6
CONTINUOUS
 10
64.384335022
 20
106.2356334842
 11
58.6483832441
 21
106.2356334842
  0
LINE
  8
13_KOMPONENTER
 62
7
  6
CONTINUOUS
 10
51.6483832441
 20
106.2356334842
 11
42.9292740401
 21
106.2356334842
  0
LINE
  8
13_KOMPONENTER
 62
7
  6
CONTINUOUS
 10
175.7853952463
 20
105.7936279507
 11
179.2328331526
 21
105.7935054894
  0
LINE
  8
13_KOMPONENTER
 62
7
  6
CONTINUOUS
 10
179.8436025068
 20
105.7857519201
 11
185.4413340192
 21
105.7856334842
  0
LINE
  8
13_KOMPONENTER
 62
7
  6
CONTINUOUS
 10
179.1983832441
 20
105.7939813078
 11
179.3428459018
 21
105.7929789984
  0
LINE
  8
13_KOMPONENTER
 62
7
  6
CONTINUOUS
 10
179.3113712419
 20
105.7936279507
 11
179.4509511222
 21
105.7918667576
  0
LINE
  8
13_KOMPONENTER
 62
7
  6
CONTINUOUS
 10
179.7542896183
 20
105.7868376377
 11
179.8741803266
 21
105.7856340638
  0
LINE
  8
13_KOMPONENTER
 62
7
  6
CONTINUOUS
 10
179.4212591167
 20
105.7926302196
 11
179.8065933164
 21
105.7861655515
  0
POLYLINE
  8
13_KOMPONENTER
 62
7
  6
CONTINUOUS
 66
1
 70
0
  0
VERTEX
  8
13_KOMPONENTER
 62
7
  6
CONTINUOUS
 10
64.3843402594
 20
106.2356334842
  0
VERTEX
  8
13_KOMPONENTER
 62
7
  6
CONTINUOUS
 10
64.4701229285
 20
106.2319473572
  0
VERTEX
  8
13_KOMPONENTER
 62
7
  6
CONTINUOUS
 10
64.602699071
 20
106.2115020355
  0
VERTEX
  8
13_KOMPONENTER
 62
7
  6
CONTINUOUS
 10
64.7313459433
 20
106.1734965101
  0
VERTEX
  8
13_KOMPONENTER
 62
7
  6
CONTINUOUS
 10
64.8537486208
 20
106.1186146789
  0
SEQEND
  0
POLYLINE
  8
13_KOMPONENTER
 62
7
  6
CONTINUOUS
 66
1
 70
0
  0
VERTEX
  8
13_KOMPONENTER
 62
7
  6
CONTINUOUS
 10
90.3843402594
 20
106.2356334842
  0
VERTEX
  8
13_KOMPONENTER
 62
7
  6
CONTINUOUS
 10
90.4701229282
 20
106.2319473573
  0
VERTEX
  8
13_KOMPONENTER
 62
7
  6
CONTINUOUS
 10
90.6026990704
 20
106.2115020356
  0
VERTEX
  8
13_KOMPONENTER
 62
7
  6
CONTINUOUS
 10
90.7313459424
 20
106.1734965104
  0
VERTEX
  8
13_KOMPONENTER
 62
7
  6
CONTINUOUS
 10
90.8537486197
 20
106.1186146795
  0
SEQEND
  0
POLYLINE
  8
13_KOMPONENTER
 62
7
  6
CONTINUOUS
 66
1
 70
0
  0
VERTEX
  8
13_KOMPONENTER
 62
7
  6
CONTINUOUS
 10
116.3843402594
 20
106.2356334842
  0
VERTEX
  8
13_KOMPONENTER
 62
7
  6
CONTINUOUS
 10
116.4701229282
 20
106.2319473573
  0
VERTEX
  8
13_KOMPONENTER
 62
7
  6
CONTINUOUS
 10
116.6026990704
 20
106.2115020356
  0
VERTEX
  8
13_KOMPONENTER
 62
7
  6
CONTINUOUS
 10
116.7313459424
 20
106.1734965104
  0
VERTEX
  8
13_KOMPONENTER
 62
7
  6
CONTINUOUS
 10
116.8537486197
 20
106.1186146795
  0
SEQEND
  0
POLYLINE
  8
13_KOMPONENTER
 62
7
  6
CONTINUOUS
 66
1
 70
0
  0
VERTEX
  8
13_KOMPONENTER
 62
7
  6
CONTINUOUS
 10
142.3843402594
 20
106.2356334842
  0
VERTEX
  8
13_KOMPONENTER
 62
7
  6
CONTINUOUS
 10
142.4701229282
 20
106.2319473573
  0
VERTEX
  8
13_KOMPONENTER
 62
7
  6
CONTINUOUS
 10
142.6026990704
 20
106.2115020356
  0
VERTEX
  8
13_KOMPONENTER
 62
7
  6
CONTINUOUS
 10
142.7313459424
 20
106.1734965104
  0
VERTEX
  8
13_KOMPONENTER
 62
7
  6
CONTINUOUS
 10
142.8537486197
 20
106.1186146795
  0
SEQEND
  0
POLYLINE
  8
13_KOMPONENTER
 62
7
  6
CONTINUOUS
 66
1
 70
0
  0
VERTEX
  8
13_KOMPONENTER
 62
7
  6
CONTINUOUS
 10
168.384335052
 20
106.2356354398
  0
VERTEX
  8
13_KOMPONENTER
 62
7
  6
CONTINUOUS
 10
168.4710616903
 20
106.2318675352
  0
VERTEX
  8
13_KOMPONENTER
 62
7
  6
CONTINUOUS
 10
168.6045387763
 20
106.211089006
  0
VERTEX
  8
13_KOMPONENTER
 62
7
  6
CONTINUOUS
 10
168.7339938219
 20
106.1725116746
  0
VERTEX
  8
13_KOMPONENTER
 62
7
  6
CONTINUOUS
 10
168.8570651401
 20
106.1168409871
  0
VERTEX
  8
13_KOMPONENTER
 62
7
  6
CONTINUOUS
 10
168.9702227767
 20
106.0460247837
  0
SEQEND
  0
LINE
  8
13_KOMPONENTER
 62
7
  6
CONTINUOUS
 10
33.0790538137
 20
119.1524031909
 11
28.1567187391
 21
119.6847320371
  0
LINE
  8
13_KOMPONENTER
 62
7
  6
CONTINUOUS
 10
33.077357925
 20
119.1367216569
 11
29.9766445991
 21
119.5449383105
  0
LINE
  8
13_KOMPONENTER
 62
7
  6
CONTINUOUS
 10
61.4009758033
 20
125.2905288991
 11
61.7337490977
 21
125.2425700287
  0
LINE
  8
13_KOMPONENTER
 62
7
  6
CONTINUOUS
 10
154.5718227252
 20
123.267995394
 11
154.4552348966
 21
123.7031070936
  0
LINE
  8
13_KOMPONENTER
 62
7
  6
CONTINUOUS
 10
162.1483832441
 20
106.7356456011
 11
162.1483832441
 21
113.7356213672
  0
LINE
  8
13_KOMPONENTER
 62
7
  6
CONTINUOUS
 10
165.1483832441
 20
152.7083203708
 11
165.1483832441
 21
143.4824992662
  0
LINE
  8
13_KOMPONENTER
 62
7
  6
CONTINUOUS
 10
163.8415315915
 20
123.7031070936
 11
163.724943763
 21
123.267995394
  0
LINE
  8
13_KOMPONENTER
 62
7
  6
CONTINUOUS
 10
123.3299930136
 20
106.0485188162
 11
123.3290648089
 21
106.0478461743
  0
LINE
  8
13_KOMPONENTER
 62
7
  6
CONTINUOUS
 10
113.202670547
 20
114.0932028903
 11
110.6209499106
 21
113.9528395922
  0
LINE
  8
13_KOMPONENTER
 62
7
  6
CONTINUOUS
 10
103.6209499106
 20
113.5722627502
 11
101.2026705469
 21
113.4407854468
  0
LINE
  8
13_KOMPONENTER
 62
7
  6
CONTINUOUS
 10
87.202670547
 20
112.6796317628
 11
84.6209499106
 21
112.5392684647
  0
LINE
  8
13_KOMPONENTER
 62
7
  6
CONTINUOUS
 10
77.6209499106
 20
112.1586916227
 11
75.2026707721
 21
112.0272143316
  0
LINE
  8
13_KOMPONENTER
 62
7
  6
CONTINUOUS
 10
61.2023128795
 20
111.2660411896
 11
58.620962714
 21
111.1256980333
  0
LINE
  8
13_KOMPONENTER
 62
7
  6
CONTINUOUS
 10
48.694199798
 20
110.585998593
 11
51.6212392716
 21
110.7451362272
  0
LINE
  8
13_KOMPONENTER
 62
7
  6
CONTINUOUS
 10
298.0325851613
 20
121.8307923581
 11
306.7426689583
 21
122.0797535327
  0
POLYLINE
  8
13_KOMPONENTER
 62
7
  6
CONTINUOUS
 66
1
 70
0
  0
VERTEX
  8
13_KOMPONENTER
 62
7
  6
CONTINUOUS
 10
101.2026711887
 20
113.4407854709
  0
VERTEX
  8
13_KOMPONENTER
 62
7
  6
CONTINUOUS
 10
101.1223331362
 20
113.4396501548
  0
VERTEX
  8
13_KOMPONENTER
 62
7
  6
CONTINUOUS
 10
100.9942245003
 20
113.4512647004
  0
VERTEX
  8
13_KOMPONENTER
 62
7
  6
CONTINUOUS
 10
100.8686667063
 20
113.4792281625
  0
VERTEX
  8
13_KOMPONENTER
 62
7
  6
CONTINUOUS
 10
100.747737307
 20
113.5230778361
  0
VERTEX
  8
13_KOMPONENTER
 62
7
  6
CONTINUOUS
 10
100.6334372722
 20
113.5820881595
  0
VERTEX
  8
13_KOMPONENTER
 62
7
  6
CONTINUOUS
 10
100.5276578817
 20
113.6552827191
  0
VERTEX
  8
13_KOMPONENTER
 62
7
  6
CONTINUOUS
 10
100.4321494327
 20
113.741450404
  0
VERTEX
  8
13_KOMPONENTER
 62
7
  6
CONTINUOUS
 10
100.3484923021
 20
113.8391654149
  0
VERTEX
  8
13_KOMPONENTER
 62
7
  6
CONTINUOUS
 10
100.2780707881
 20
113.9468108218
  0
VERTEX
  8
13_KOMPONENTER
 62
7
  6
CONTINUOUS
 10
100.2220501487
 20
114.0626053537
  0
VERTEX
  8
13_KOMPONENTER
 62
7
  6
CONTINUOUS
 10
100.1813573121
 20
114.1846328836
  0
VERTEX
  8
13_KOMPONENTER
 62
7
  6
CONTINUOUS
 10
100.1566655301
 20
114.3108741723
  0
VERTEX
  8
13_KOMPONENTER
 62
7
  6
CONTINUOUS
 10
100.1483832519
 20
114.4392402079
  0
SEQEND
  0
LINE
  8
DEFAULT_1
 62
2
  6
CENTER
 10
334.2877861307
 20
110.2356334842
 11
21.9166678063
 21
110.2356334842
  0
LINE
  8
13_KOMPONENTER
 62
7
  6
CONTINUOUS
 10
227.9483832441
 20
114.2356334842
 11
225.4483832441
 21
114.2356334842
  0
LINE
  8
13_KOMPONENTER
 62
7
  6
CONTINUOUS
 10
218.4483832441
 20
114.2356334842
 11
215.9483832441
 21
114.2356334842
  0
LINE
  8
13_KOMPONENTER
 62
7
  6
CONTINUOUS
 10
201.9483832441
 20
114.2356334842
 11
199.4483832441
 21
114.2356334842
  0
LINE
  8
13_KOMPONENTER
 62
7
  6
CONTINUOUS
 10
192.4483832441
 20
114.2356334842
 11
190.5410189639
 21
114.2356334842
  0
LINE
  8
13_KOMPONENTER
 62
7
  6
CONTINUOUS
 10
164.5557475242
 20
114.2356334842
 11
162.6483832441
 21
114.2356334842
  0
LINE
  8
13_KOMPONENTER
 62
7
  6
CONTINUOUS
 10
155.6483832441
 20
114.2356334842
 11
153.1483832441
 21
114.2356334842
  0
LINE
  8
13_KOMPONENTER
 62
7
  6
CONTINUOUS
 10
139.1483832441
 20
114.2356334842
 11
136.6483832441
 21
114.2356334842
  0
LINE
  8
13_KOMPONENTER
 62
7
  6
CONTINUOUS
 10
129.6483832441
 20
114.2356334842
 11
127.1483832441
 21
114.2356334842
  0
LINE
  8
13_KOMPONENTER
 62
7
  6
CONTINUOUS
 10
57.0641813268
 20
121.8307923581
 11
48.3540975298
 21
122.0797535327
  0
POLYLINE
  8
13_KOMPONENTER
 62
7
  6
CONTINUOUS
 66
1
 70
0
  0
VERTEX
  8
13_KOMPONENTER
 62
7
  6
CONTINUOUS
 10
190.5410129691
 20
114.2356334701
  0
VERTEX
  8
13_KOMPONENTER
 62
7
  6
CONTINUOUS
 10
190.4534806804
 20
114.2394717873
  0
VERTEX
  8
13_KOMPONENTER
 62
7
  6
CONTINUOUS
 10
190.3231290963
 20
114.2596587694
  0
VERTEX
  8
13_KOMPONENTER
 62
7
  6
CONTINUOUS
 10
190.1965684235
 20
114.2968268069
  0
VERTEX
  8
13_KOMPONENTER
 62
7
  6
CONTINUOUS
 10
190.0760007561
 20
114.3503292093
  0
VERTEX
  8
13_KOMPONENTER
 62
7
  6
CONTINUOUS
 10
189.9635239063
 20
114.4192350561
  0
VERTEX
  8
13_KOMPONENTER
 62
7
  6
CONTINUOUS
 10
189.8610948967
 20
114.502345397
  0
VERTEX
  8
13_KOMPONENTER
 62
7
  6
CONTINUOUS
 10
189.7704959055
 20
114.598214116
  0
VERTEX
  8
13_KOMPONENTER
 62
7
  6
CONTINUOUS
 10
189.6933032562
 20
114.705173089
  0
VERTEX
  8
13_KOMPONENTER
 62
7
  6
CONTINUOUS
 10
189.6308600048
 20
114.8213611568
  0
VERTEX
  8
13_KOMPONENTER
 62
7
  6
CONTINUOUS
 10
189.5842523532
 20
114.9447570523
  0
SEQEND
  0
LINE
  8
13_KOMPONENTER
 62
7
  6
CONTINUOUS
 10
306.4025666901
 20
110.585998593
 11
303.4755272165
 21
110.7451362272
  0
LINE
  8
13_KOMPONENTER
 62
7
  6
CONTINUOUS
 10
296.4758037741
 20
111.1256980333
 11
293.8944536086
 21
111.2660411896
  0
LINE
  8
13_KOMPONENTER
 62
7
  6
CONTINUOUS
 10
279.894095716
 20
112.0272143316
 11
277.4758165775
 21
112.1586916227
  0
LINE
  8
13_KOMPONENTER
 62
7
  6
CONTINUOUS
 10
270.4758165775
 20
112.5392684647
 11
267.8940959411
 21
112.6796317628
  0
LINE
  8
13_KOMPONENTER
 62
7
  6
CONTINUOUS
 10
253.8940959412
 20
113.4407854468
 11
251.4758165775
 21
113.5722627502
  0
LINE
  8
13_KOMPONENTER
 62
7
  6
CONTINUOUS
 10
244.4758165775
 20
113.9528395922
 11
241.8940959411
 21
114.0932028903
  0
LINE
  8
DEFAULT_1
 62
2
  6
CENTER
 10
177.5483832441
 20
134.5356334842
 11
177.5483832441
 21
131.2857334842
  0
LINE
  8
0
 62
2
  6
CONTINUOUS
 10
177.5483832441
 20
130.3356334842
 11
177.5483832441
 21
128.2356334842
  0
LINE
  8
DEFAULT_1
 62
2
  6
CENTER
 10
177.5483832441
 20
124.0356334842
 11
177.5483832441
 21
127.2855334842
  0
POLYLINE
  8
13_KOMPONENTER
 62
7
  6
CONTINUOUS
 66
1
 70
0
  0
VERTEX
  8
13_KOMPONENTER
 62
7
  6
CONTINUOUS
 10
165.5125260301
 20
114.9447961809
  0
VERTEX
  8
13_KOMPONENTER
 62
7
  6
CONTINUOUS
 10
165.4657559738
 20
114.8210306477
  0
VERTEX
  8
13_KOMPONENTER
 62
7
  6
CONTINUOUS
 10
165.4030559995
 20
114.7045228603
  0
VERTEX
  8
13_KOMPONENTER
 62
7
  6
CONTINUOUS
 10
165.3255234585
 20
114.5973120631
  0
VERTEX
  8
13_KOMPONENTER
 62
7
  6
CONTINUOUS
 10
165.2345155795
 20
114.5012752138
  0
VERTEX
  8
13_KOMPONENTER
 62
7
  6
CONTINUOUS
 10
165.1316254946
 20
114.4180935898
  0
VERTEX
  8
13_KOMPONENTER
 62
7
  6
CONTINUOUS
 10
165.0186543639
 20
114.3492234069
  0
VERTEX
  8
13_KOMPONENTER
 62
7
  6
CONTINUOUS
 10
164.8975798433
 20
114.2958703298
  0
VERTEX
  8
13_KOMPONENTER
 62
7
  6
CONTINUOUS
 10
164.7705214597
 20
114.2589683637
  0
VERTEX
  8
13_KOMPONENTER
 62
7
  6
CONTINUOUS
 10
164.6397034997
 20
114.2391635004
  0
VERTEX
  8
13_KOMPONENTER
 62
7
  6
CONTINUOUS
 10
164.555753519
 20
114.2356334701
  0
SEQEND
  0
POLYLINE
  8
13_KOMPONENTER
 62
7
  6
CONTINUOUS
 66
1
 70
0
  0
VERTEX
  8
13_KOMPONENTER
 62
7
  6
CONTINUOUS
 10
123.3290648089
 20
106.0478461743
  0
VERTEX
  8
13_KOMPONENTER
 62
7
  6
CONTINUOUS
 10
123.4430203445
 20
106.1186159958
  0
VERTEX
  8
13_KOMPONENTER
 62
7
  6
CONTINUOUS
 10
123.5654225108
 20
106.1734972375
  0
VERTEX
  8
13_KOMPONENTER
 62
7
  6
CONTINUOUS
 10
123.6940687766
 20
106.2115023397
  0
VERTEX
  8
13_KOMPONENTER
 62
7
  6
CONTINUOUS
 10
123.8266442534
 20
106.231947417
  0
VERTEX
  8
13_KOMPONENTER
 62
7
  6
CONTINUOUS
 10
123.9124262287
 20
106.2356334842
  0
SEQEND
  0
LINE
  8
13_KOMPONENTER
 62
7
  6
CONTINUOUS
 10
161.7930921104
 20
121.7856334842
 11
156.5036743777
 21
121.7856334842
  0
LINE
  8
13_KOMPONENTER
 62
7
  6
CONTINUOUS
 10
135.7930921104
 20
121.7856334842
 11
130.5036743777
 21
121.7856334842
  0
LINE
  8
13_KOMPONENTER
 62
7
  6
CONTINUOUS
 10
109.7930921104
 20
121.7856334842
 11
104.5036743777
 21
121.7856334842
  0
LINE
  8
13_KOMPONENTER
 62
7
  6
CONTINUOUS
 10
83.7930921104
 20
121.7856334842
 11
78.5036743777
 21
121.7856334842
  0
LINE
  8
13_KOMPONENTER
 62
7
  6
CONTINUOUS
 10
193.3036743777
 20
121.7856334842
 11
198.5930921104
 21
121.7856334842
  0
LINE
  8
13_KOMPONENTER
 62
7
  6
CONTINUOUS
 10
219.3036743777
 20
121.7856334842
 11
224.5930921104
 21
121.7856334842
  0
LINE
  8
13_KOMPONENTER
 62
7
  6
CONTINUOUS
 10
245.3036743777
 20
121.7856334842
 11
250.5930921104
 21
121.7856334842
  0
LINE
  8
13_KOMPONENTER
 62
7
  6
CONTINUOUS
 10
271.3036743777
 20
121.7856334842
 11
276.5930921104
 21
121.7856334842
  0
LINE
  8
DEFAULT_1
 62
2
  6
CENTER
 10
182.7983832441
 20
129.2856334842
 11
179.5484832441
 21
129.2856334842
  0
LINE
  8
0
 62
2
  6
CONTINUOUS
 10
178.5983832441
 20
129.2856334842
 11
176.4983832441
 21
129.2856334842
  0
LINE
  8
DEFAULT_1
 62
2
  6
CENTER
 10
172.2983832441
 20
129.2856334842
 11
175.5482832441
 21
129.2856334842
  0
LINE
  8
13_KOMPONENTER
 62
7
  6
CONTINUOUS
 10
329.4483832441
 20
129.7856334842
 11
327.4483832441
 21
129.7856334842
  0
LINE
  8
13_KOMPONENTER
 62
7
  6
CONTINUOUS
 10
27.6483832441
 20
129.7856334842
 11
25.6483832441
 21
129.7856334842
  0
POLYLINE
  8
13_KOMPONENTER
 62
7
  6
CONTINUOUS
 66
1
 70
0
  0
VERTEX
  8
13_KOMPONENTER
 62
7
  6
CONTINUOUS
 10
241.8940952994
 20
114.0932029144
  0
VERTEX
  8
13_KOMPONENTER
 62
7
  6
CONTINUOUS
 10
241.8088192478
 20
114.1015151833
  0
VERTEX
  8
13_KOMPONENTER
 62
7
  6
CONTINUOUS
 10
241.68157156
 20
114.1279795532
  0
VERTEX
  8
13_KOMPONENTER
 62
7
  6
CONTINUOUS
 10
241.5588309558
 20
114.1707238861
  0
VERTEX
  8
13_KOMPONENTER
 62
7
  6
CONTINUOUS
 10
241.4426708003
 20
114.2290261314
  0
VERTEX
  8
13_KOMPONENTER
 62
7
  6
CONTINUOUS
 10
241.3350533014
 20
114.3019014337
  0
VERTEX
  8
13_KOMPONENTER
 62
7
  6
CONTINUOUS
 10
241.237796365
 20
114.3881187688
  0
VERTEX
  8
13_KOMPONENTER
 62
7
  6
CONTINUOUS
 10
241.1525428891
 20
114.4862217345
  0
VERTEX
  8
13_KOMPONENTER
 62
7
  6
CONTINUOUS
 10
241.0807330292
 20
114.5945531185
  0
VERTEX
  8
13_KOMPONENTER
 62
7
  6
CONTINUOUS
 10
241.0235798414
 20
114.7112828943
  0
VERTEX
  8
13_KOMPONENTER
 62
7
  6
CONTINUOUS
 10
240.9820487682
 20
114.8344391546
  0
VERTEX
  8
13_KOMPONENTER
 62
7
  6
CONTINUOUS
 10
240.9568413253
 20
114.9619414373
  0
VERTEX
  8
13_KOMPONENTER
 62
7
  6
CONTINUOUS
 10
240.9483832537
 20
115.0916358645
  0
SEQEND
  0
POLYLINE
  8
13_KOMPONENTER
 62
7
  6
CONTINUOUS
 66
1
 70
0
  0
VERTEX
  8
13_KOMPONENTER
 62
7
  6
CONTINUOUS
 10
267.8940952994
 20
112.6796317869
  0
VERTEX
  8
13_KOMPONENTER
 62
7
  6
CONTINUOUS
 10
267.8088192478
 20
112.6879440558
  0
VERTEX
  8
13_KOMPONENTER
 62
7
  6
CONTINUOUS
 10
267.68157156
 20
112.7144084257
  0
VERTEX
  8
13_KOMPONENTER
 62
7
  6
CONTINUOUS
 10
267.5588309558
 20
112.7571527586
  0
VERTEX
  8
13_KOMPONENTER
 62
7
  6
CONTINUOUS
 10
267.4426708003
 20
112.8154550039
  0
VERTEX
  8
13_KOMPONENTER
 62
7
  6
CONTINUOUS
 10
267.3350533014
 20
112.8883303062
  0
VERTEX
  8
13_KOMPONENTER
 62
7
  6
CONTINUOUS
 10
267.237796365
 20
112.9745476413
  0
VERTEX
  8
13_KOMPONENTER
 62
7
  6
CONTINUOUS
 10
267.1525428891
 20
113.072650607
  0
VERTEX
  8
13_KOMPONENTER
 62
7
  6
CONTINUOUS
 10
267.0807330292
 20
113.180981991
  0
VERTEX
  8
13_KOMPONENTER
 62
7
  6
CONTINUOUS
 10
267.0235798414
 20
113.2977117667
  0
VERTEX
  8
13_KOMPONENTER
 62
7
  6
CONTINUOUS
 10
266.9820487682
 20
113.4208680271
  0
VERTEX
  8
13_KOMPONENTER
 62
7
  6
CONTINUOUS
 10
266.9568413253
 20
113.5483703098
  0
VERTEX
  8
13_KOMPONENTER
 62
7
  6
CONTINUOUS
 10
266.9483832537
 20
113.678064737
  0
SEQEND
  0
LINE
  8
13_KOMPONENTER
 62
7
  6
CONTINUOUS
 10
149.3294429976
 20
106.0481210535
 11
149.3290648089
 21
106.0478461743
  0
POLYLINE
  8
13_KOMPONENTER
 62
7
  6
CONTINUOUS
 66
1
 70
0
  0
VERTEX
  8
13_KOMPONENTER
 62
7
  6
CONTINUOUS
 10
149.3290648089
 20
106.0478461743
  0
VERTEX
  8
13_KOMPONENTER
 62
7
  6
CONTINUOUS
 10
149.4430203445
 20
106.1186159958
  0
VERTEX
  8
13_KOMPONENTER
 62
7
  6
CONTINUOUS
 10
149.5654225108
 20
106.1734972375
  0
VERTEX
  8
13_KOMPONENTER
 62
7
  6
CONTINUOUS
 10
149.6940687766
 20
106.2115023397
  0
VERTEX
  8
13_KOMPONENTER
 62
7
  6
CONTINUOUS
 10
149.8266442534
 20
106.231947417
  0
VERTEX
  8
13_KOMPONENTER
 62
7
  6
CONTINUOUS
 10
149.9124262287
 20
106.2356334842
  0
SEQEND
  0
LINE
  8
13_KOMPONENTER
 62
7
  6
CONTINUOUS
 10
29.5224287301
 20
115.9665300042
 11
32.4024525189
 21
116.3456923291
  0
LINE
  8
13_KOMPONENTER
 62
7
  6
CONTINUOUS
 10
28.1483832441
 20
115.8856334842
 11
32.4024525189
 21
116.3456923291
  0
LINE
  8
13_KOMPONENTER
 62
7
  6
CONTINUOUS
 10
172.1483832441
 20
140.7270619127
 11
182.9483832441
 21
140.7270619127
  0
LINE
  8
13_KOMPONENTER
 62
7
  6
CONTINUOUS
 10
322.6943139692
 20
116.3456923291
 11
326.940047749
 21
115.8865349312
  0
LINE
  8
13_KOMPONENTER
 62
7
  6
CONTINUOUS
 10
325.574337758
 20
115.9665300042
 11
322.6943139692
 21
116.3456923291
  0
LINE
  8
13_KOMPONENTER
 62
7
  6
CONTINUOUS
 10
189.9483832441
 20
152.7083203708
 11
189.9483832441
 21
143.4824992662
  0
LINE
  8
13_KOMPONENTER
 62
7
  6
CONTINUOUS
 10
192.9483832441
 20
106.7356456011
 11
192.9483832441
 21
113.7356213672
  0
LINE
  8
13_KOMPONENTER
 62
7
  6
CONTINUOUS
 10
198.9483832441
 20
113.7356213672
 11
198.9483832441
 21
106.7356456011
  0
LINE
  8
13_KOMPONENTER
 62
7
  6
CONTINUOUS
 10
319.9483832441
 20
143.2856334842
 11
314.6086377262
 21
143.2856334842
  0
LINE
  8
13_KOMPONENTER
 62
7
  6
CONTINUOUS
 10
35.1483832441
 20
143.2856334842
 11
40.4881287619
 21
143.2856334842
  0
LINE
  8
DEFAULT_1
 62
2
  6
CENTER
 10
47.1483832441
 20
148.3356334842
 11
307.9483832441
 21
148.3356334842
  0
LINE
  8
13_KOMPONENTER
 62
7
  6
CONTINUOUS
 10
191.2552348966
 20
123.7031070936
 11
191.3718227252
 21
123.267995394
  0
LINE
  8
13_KOMPONENTER
 62
7
  6
CONTINUOUS
 10
201.9483832441
 20
143.4824992662
 11
201.9483832441
 21
152.7083198436
  0
LINE
  8
13_KOMPONENTER
 62
7
  6
CONTINUOUS
 10
202.9483832441
 20
115.5410708376
 11
202.9483832441
 21
110.059831703
  0
LINE
  8
13_KOMPONENTER
 62
7
  6
CONTINUOUS
 10
200.524943763
 20
123.267995394
 11
200.6415315915
 21
123.7031070936
  0
POLYLINE
  8
13_KOMPONENTER
 62
7
  6
CONTINUOUS
 66
1
 70
0
  0
VERTEX
  8
13_KOMPONENTER
 62
7
  6
CONTINUOUS
 10
186.1265437111
 20
106.0460247833
  0
VERTEX
  8
13_KOMPONENTER
 62
7
  6
CONTINUOUS
 10
186.2390741242
 20
106.1165042155
  0
VERTEX
  8
13_KOMPONENTER
 62
7
  6
CONTINUOUS
 10
186.3613366618
 20
106.1719744706
  0
VERTEX
  8
13_KOMPONENTER
 62
7
  6
CONTINUOUS
 10
186.4899312304
 20
106.2105677373
  0
VERTEX
  8
13_KOMPONENTER
 62
7
  6
CONTINUOUS
 10
186.6225401815
 20
106.231586971
  0
VERTEX
  8
13_KOMPONENTER
 62
7
  6
CONTINUOUS
 10
186.7124314361
 20
106.2356354398
  0
SEQEND
  0
POLYLINE
  8
13_KOMPONENTER
 62
7
  6
CONTINUOUS
 66
1
 70
0
  0
VERTEX
  8
13_KOMPONENTER
 62
7
  6
CONTINUOUS
 10
59.6242474094
 20
154.0097973099
  0
VERTEX
  8
13_KOMPONENTER
 62
7
  6
CONTINUOUS
 10
59.6780462519
 20
154.0116490131
  0
VERTEX
  8
13_KOMPONENTER
 62
7
  6
CONTINUOUS
 10
59.7262875335
 20
154.0168402291
  0
VERTEX
  8
13_KOMPONENTER
 62
7
  6
CONTINUOUS
 10
59.7693213373
 20
154.0248202081
  0
VERTEX
  8
13_KOMPONENTER
 62
7
  6
CONTINUOUS
 10
59.8076344256
 20
154.0351124967
  0
VERTEX
  8
13_KOMPONENTER
 62
7
  6
CONTINUOUS
 10
59.8413879101
 20
154.04719651
  0
VERTEX
  8
13_KOMPONENTER
 62
7
  6
CONTINUOUS
 10
59.8707142896
 20
154.0605322133
  0
VERTEX
  8
13_KOMPONENTER
 62
7
  6
CONTINUOUS
 10
59.8958585022
 20
154.0746279633
  0
VERTEX
  8
13_KOMPONENTER
 62
7
  6
CONTINUOUS
 10
59.9172494848
 20
154.0891799673
  0
VERTEX
  8
13_KOMPONENTER
 62
7
  6
CONTINUOUS
 10
59.9353721939
 20
154.1041545247
  0
VERTEX
  8
13_KOMPONENTER
 62
7
  6
CONTINUOUS
 10
59.9499383128
 20
154.1192094952
  0
VERTEX
  8
13_KOMPONENTER
 62
7
  6
CONTINUOUS
 10
59.9604137433
 20
154.134127045
  0
VERTEX
  8
13_KOMPONENTER
 62
7
  6
CONTINUOUS
 10
59.966033084
 20
154.1491004484
  0
VERTEX
  8
13_KOMPONENTER
 62
7
  6
CONTINUOUS
 10
59.9663676169
 20
154.1641910802
  0
SEQEND
  0
LINE
  8
13_KOMPONENTER
 62
7
  6
CONTINUOUS
 10
304.4275096944
 20
154.0097965059
 11
295.4725241882
 21
154.0097973381
  0
LINE
  8
13_KOMPONENTER
 62
7
  6
CONTINUOUS
 10
50.6692567938
 20
154.0097965059
 11
59.6242422999
 21
154.0097973381
  0
LINE
  8
13_KOMPONENTER
 62
7
  6
CONTINUOUS
 10
302.4610339176
 20
156.7856334842
 11
297.4357328202
 21
156.7856334842
  0
LINE
  8
13_KOMPONENTER
 62
7
  6
CONTINUOUS
 10
276.4610339176
 20
156.7856334842
 11
271.4357325705
 21
156.7856334842
  0
LINE
  8
13_KOMPONENTER
 62
7
  6
CONTINUOUS
 10
250.4610339176
 20
156.7856334842
 11
245.4357325705
 21
156.7856334842
  0
LINE
  8
13_KOMPONENTER
 62
7
  6
CONTINUOUS
 10
198.4610339176
 20
156.7856334842
 11
193.4357325705
 21
156.7856334842
  0
LINE
  8
13_KOMPONENTER
 62
7
  6
CONTINUOUS
 10
161.6610339176
 20
156.7856334842
 11
156.6357325705
 21
156.7856334842
  0
LINE
  8
13_KOMPONENTER
 62
7
  6
CONTINUOUS
 10
135.6610339176
 20
156.7856334842
 11
130.6357325705
 21
156.7856334842
  0
LINE
  8
13_KOMPONENTER
 62
7
  6
CONTINUOUS
 10
109.6610339176
 20
156.7856334842
 11
104.6357325705
 21
156.7856334842
  0
LINE
  8
13_KOMPONENTER
 62
7
  6
CONTINUOUS
 10
83.6610339176
 20
156.7856334842
 11
78.6357325705
 21
156.7856334842
  0
LINE
  8
13_KOMPONENTER
 62
7
  6
CONTINUOUS
 10
52.6357325705
 20
156.7856334842
 11
57.6610336679
 21
156.7856334842
  0
LINE
  8
13_KOMPONENTER
 62
7
  6
CONTINUOUS
 10
219.4357325705
 20
156.7856334842
 11
224.4610339176
 21
156.7856334842
  0
POLYLINE
  8
13_KOMPONENTER
 62
7
  6
CONTINUOUS
 66
1
 70
0
  0
VERTEX
  8
13_KOMPONENTER
 62
7
  6
CONTINUOUS
 10
295.4725190787
 20
154.0097973099
  0
VERTEX
  8
13_KOMPONENTER
 62
7
  6
CONTINUOUS
 10
295.4187202362
 20
154.0116490131
  0
VERTEX
  8
13_KOMPONENTER
 62
7
  6
CONTINUOUS
 10
295.3704789546
 20
154.0168402291
  0
VERTEX
  8
13_KOMPONENTER
 62
7
  6
CONTINUOUS
 10
295.3274451508
 20
154.0248202081
  0
VERTEX
  8
13_KOMPONENTER
 62
7
  6
CONTINUOUS
 10
295.2891320625
 20
154.0351124967
  0
VERTEX
  8
13_KOMPONENTER
 62
7
  6
CONTINUOUS
 10
295.255378578
 20
154.04719651
  0
VERTEX
  8
13_KOMPONENTER
 62
7
  6
CONTINUOUS
 10
295.2260521985
 20
154.0605322133
  0
VERTEX
  8
13_KOMPONENTER
 62
7
  6
CONTINUOUS
 10
295.2009079859
 20
154.0746279633
  0
VERTEX
  8
13_KOMPONENTER
 62
7
  6
CONTINUOUS
 10
295.1795170033
 20
154.0891799673
  0
VERTEX
  8
13_KOMPONENTER
 62
7
  6
CONTINUOUS
 10
295.1613942943
 20
154.1041545247
  0
VERTEX
  8
13_KOMPONENTER
 62
7
  6
CONTINUOUS
 10
295.1468281754
 20
154.1192094952
  0
VERTEX
  8
13_KOMPONENTER
 62
7
  6
CONTINUOUS
 10
295.1363527448
 20
154.134127045
  0
VERTEX
  8
13_KOMPONENTER
 62
7
  6
CONTINUOUS
 10
295.1307334041
 20
154.1491004484
  0
VERTEX
  8
13_KOMPONENTER
 62
7
  6
CONTINUOUS
 10
295.1303988712
 20
154.1641910802
  0
SEQEND
  0
LINE
  8
13_KOMPONENTER
 62
7
  6
CONTINUOUS
 10
214.9483832441
 20
110.059831703
 11
214.9483832441
 21
115.5410708376
  0
LINE
  8
13_KOMPONENTER
 62
7
  6
CONTINUOUS
 10
215.9483832441
 20
152.7083197503
 11
215.9483832441
 21
143.4824992662
  0
LINE
  8
13_KOMPONENTER
 62
7
  6
CONTINUOUS
 10
218.9483832441
 20
106.7356456011
 11
218.9483832441
 21
113.7356213672
  0
LINE
  8
13_KOMPONENTER
 62
7
  6
CONTINUOUS
 10
212.1303141872
 20
106.0487509225
 11
212.1292222202
 21
106.0479592098
  0
POLYLINE
  8
13_KOMPONENTER
 62
7
  6
CONTINUOUS
 66
1
 70
0
  0
VERTEX
  8
13_KOMPONENTER
 62
7
  6
CONTINUOUS
 10
50.8642508148
 20
154.9735434703
  0
VERTEX
  8
13_KOMPONENTER
 62
7
  6
CONTINUOUS
 10
50.8655050467
 20
154.9736455543
  0
VERTEX
  8
13_KOMPONENTER
 62
7
  6
CONTINUOUS
 10
50.866806159
 20
154.9736343855
  0
VERTEX
  8
13_KOMPONENTER
 62
7
  6
CONTINUOUS
 10
50.8679906292
 20
154.9734629843
  0
SEQEND
  0
POLYLINE
  8
13_KOMPONENTER
 62
7
  6
CONTINUOUS
 66
1
 70
0
  0
VERTEX
  8
13_KOMPONENTER
 62
7
  6
CONTINUOUS
 10
304.2325156733
 20
154.9735434703
  0
VERTEX
  8
13_KOMPONENTER
 62
7
  6
CONTINUOUS
 10
304.2312614414
 20
154.9736455543
  0
VERTEX
  8
13_KOMPONENTER
 62
7
  6
CONTINUOUS
 10
304.2299603291
 20
154.9736343855
  0
VERTEX
  8
13_KOMPONENTER
 62
7
  6
CONTINUOUS
 10
304.2287758589
 20
154.9734629843
  0
SEQEND
  0
LINE
  8
13_KOMPONENTER
 62
7
  6
CONTINUOUS
 10
217.2552348966
 20
123.7031070936
 11
217.3718227252
 21
123.267995394
  0
LINE
  8
13_KOMPONENTER
 62
7
  6
CONTINUOUS
 10
224.9483832441
 20
113.7356213672
 11
224.9483832441
 21
106.7356456011
  0
LINE
  8
13_KOMPONENTER
 62
7
  6
CONTINUOUS
 10
227.9483832441
 20
143.4824992662
 11
227.9483832441
 21
152.7083198436
  0
LINE
  8
13_KOMPONENTER
 62
7
  6
CONTINUOUS
 10
228.9483832441
 20
115.5410708376
 11
228.9483832441
 21
110.059831703
  0
LINE
  8
13_KOMPONENTER
 62
7
  6
CONTINUOUS
 10
226.524943763
 20
123.267995394
 11
226.6415315915
 21
123.7031070936
  0
LINE
  8
13_KOMPONENTER
 62
7
  6
CONTINUOUS
 10
297.2277074299
 20
156.4396356345
 11
297.2216291711
 21
156.4349526885
  0
LINE
  8
13_KOMPONENTER
 62
7
  6
CONTINUOUS
 10
297.3765926799
 20
156.5550651205
 11
297.4179886192
 21
156.5862362351
  0
POLYLINE
  8
13_KOMPONENTER
 62
7
  6
CONTINUOUS
 66
1
 70
0
  0
VERTEX
  8
13_KOMPONENTER
 62
7
  6
CONTINUOUS
 10
59.4287379418
 20
154.9733670843
  0
VERTEX
  8
13_KOMPONENTER
 62
7
  6
CONTINUOUS
 10
59.4298476254
 20
154.9736085963
  0
VERTEX
  8
13_KOMPONENTER
 62
7
  6
CONTINUOUS
 10
59.43115423
 20
154.9736220538
  0
VERTEX
  8
13_KOMPONENTER
 62
7
  6
CONTINUOUS
 10
59.4321251116
 20
154.9735818315
  0
SEQEND
  0
POLYLINE
  8
13_KOMPONENTER
 62
7
  6
CONTINUOUS
 66
1
 70
0
  0
VERTEX
  8
13_KOMPONENTER
 62
7
  6
CONTINUOUS
 10
295.6680285463
 20
154.9733670843
  0
VERTEX
  8
13_KOMPONENTER
 62
7
  6
CONTINUOUS
 10
295.6669188628
 20
154.9736085963
  0
VERTEX
  8
13_KOMPONENTER
 62
7
  6
CONTINUOUS
 10
295.6656122581
 20
154.9736220538
  0
VERTEX
  8
13_KOMPONENTER
 62
7
  6
CONTINUOUS
 10
295.6646413765
 20
154.9735818315
  0
SEQEND
  0
LINE
  8
13_KOMPONENTER
 62
7
  6
CONTINUOUS
 10
240.9483832441
 20
110.059831703
 11
240.9483832441
 21
115.5410708376
  0
POLYLINE
  8
13_KOMPONENTER
 62
7
  6
CONTINUOUS
 66
1
 70
0
  0
VERTEX
  8
13_KOMPONENTER
 62
7
  6
CONTINUOUS
 10
296.5808274758
 20
155.875733548
  0
VERTEX
  8
13_KOMPONENTER
 62
7
  6
CONTINUOUS
 10
296.7918640239
 20
156.0717391997
  0
VERTEX
  8
13_KOMPONENTER
 62
7
  6
CONTINUOUS
 10
296.9739140263
 20
156.2312269459
  0
SEQEND
  0
POLYLINE
  8
13_KOMPONENTER
 62
7
  6
CONTINUOUS
 66
1
 70
0
  0
VERTEX
  8
13_KOMPONENTER
 62
7
  6
CONTINUOUS
 10
296.9739140263
 20
156.2312269459
  0
VERTEX
  8
13_KOMPONENTER
 62
7
  6
CONTINUOUS
 10
297.1236841354
 20
156.3561681929
  0
VERTEX
  8
13_KOMPONENTER
 62
7
  6
CONTINUOUS
 10
297.2385348458
 20
156.4483234645
  0
VERTEX
  8
13_KOMPONENTER
 62
7
  6
CONTINUOUS
 10
297.3214369911
 20
156.5129391519
  0
VERTEX
  8
13_KOMPONENTER
 62
7
  6
CONTINUOUS
 10
297.3765926799
 20
156.5550651205
  0
SEQEND
  0
LINE
  8
13_KOMPONENTER
 62
7
  6
CONTINUOUS
 10
297.2216291711
 20
156.4349526885
 11
296.9865179313
 21
156.2417413777
  0
LINE
  8
13_KOMPONENTER
 62
7
  6
CONTINUOUS
 10
238.1303141676
 20
106.0487509087
 11
238.1292222202
 21
106.0479592098
  0
LINE
  8
13_KOMPONENTER
 62
7
  6
CONTINUOUS
 10
243.2552348966
 20
123.7031070936
 11
243.3718227252
 21
123.267995394
  0
LINE
  8
13_KOMPONENTER
 62
7
  6
CONTINUOUS
 10
241.9483832441
 20
152.7083197503
 11
241.9483832441
 21
143.4824992662
  0
LINE
  8
13_KOMPONENTER
 62
7
  6
CONTINUOUS
 10
244.9483832441
 20
106.7356456011
 11
244.9483832441
 21
113.4535806853
  0
LINE
  8
13_KOMPONENTER
 62
7
  6
CONTINUOUS
 10
250.9483832441
 20
113.0730038433
 11
250.9483832441
 21
106.7356456011
  0
LINE
  8
13_KOMPONENTER
 62
7
  6
CONTINUOUS
 10
264.1303141559
 20
106.0487509005
 11
264.1292222202
 21
106.0479592098
  0
LINE
  8
13_KOMPONENTER
 62
7
  6
CONTINUOUS
 10
253.9483832441
 20
143.4824992662
 11
253.9483832441
 21
152.7083198034
  0
LINE
  8
13_KOMPONENTER
 62
7
  6
CONTINUOUS
 10
254.9483832441
 20
115.5410711214
 11
254.9483832441
 21
110.059831703
  0
POLYLINE
  8
13_KOMPONENTER
 62
7
  6
CONTINUOUS
 66
1
 70
0
  0
VERTEX
  8
13_KOMPONENTER
 62
7
  6
CONTINUOUS
 10
254.9483831734
 20
114.4389495847
  0
VERTEX
  8
13_KOMPONENTER
 62
7
  6
CONTINUOUS
 10
254.938675493
 20
114.3003098882
  0
VERTEX
  8
13_KOMPONENTER
 62
7
  6
CONTINUOUS
 10
254.9098399973
 20
114.1643546104
  0
VERTEX
  8
13_KOMPONENTER
 62
7
  6
CONTINUOUS
 10
254.8624335304
 20
114.0337099229
  0
VERTEX
  8
13_KOMPONENTER
 62
7
  6
CONTINUOUS
 10
254.7973716938
 20
113.9108993952
  0
VERTEX
  8
13_KOMPONENTER
 62
7
  6
CONTINUOUS
 10
254.7159111705
 20
113.7982952889
  0
VERTEX
  8
13_KOMPONENTER
 62
7
  6
CONTINUOUS
 10
254.6196254418
 20
113.698072702
  0
VERTEX
  8
13_KOMPONENTER
 62
7
  6
CONTINUOUS
 10
254.5103743625
 20
113.6121675287
  0
VERTEX
  8
13_KOMPONENTER
 62
7
  6
CONTINUOUS
 10
254.3902681754
 20
113.5422390538
  0
VERTEX
  8
13_KOMPONENTER
 62
7
  6
CONTINUOUS
 10
254.2616267806
 20
113.4896379622
  0
VERTEX
  8
13_KOMPONENTER
 62
7
  6
CONTINUOUS
 10
254.1269349339
 20
113.4553802602
  0
VERTEX
  8
13_KOMPONENTER
 62
7
  6
CONTINUOUS
 10
253.9887942558
 20
113.4401276517
  0
VERTEX
  8
13_KOMPONENTER
 62
7
  6
CONTINUOUS
 10
253.8940952994
 20
113.4407854709
  0
SEQEND
  0
LINE
  8
13_KOMPONENTER
 62
7
  6
CONTINUOUS
 10
252.524943763
 20
123.267995394
 11
252.6415315915
 21
123.7031070936
  0
LINE
  8
13_KOMPONENTER
 62
7
  6
CONTINUOUS
 10
266.9483832441
 20
110.059831703
 11
266.9483832441
 21
115.5410711234
  0
LINE
  8
13_KOMPONENTER
 62
7
  6
CONTINUOUS
 10
267.9483832441
 20
152.708243105
 11
267.9483832441
 21
143.4825110584
  0
LINE
  8
13_KOMPONENTER
 62
7
  6
CONTINUOUS
 10
270.9483832441
 20
106.7356456011
 11
270.9483832441
 21
112.0400095578
  0
LINE
  8
13_KOMPONENTER
 62
7
  6
CONTINUOUS
 10
290.1303141896
 20
106.0487509242
 11
290.1292222188
 21
106.0479592088
  0
LINE
  8
13_KOMPONENTER
 62
7
  6
CONTINUOUS
 10
269.2552348966
 20
123.7031070936
 11
269.3718227252
 21
123.267995394
  0
LINE
  8
13_KOMPONENTER
 62
7
  6
CONTINUOUS
 10
276.9483832441
 20
111.6594327157
 11
276.9483832441
 21
106.7356456011
  0
LINE
  8
13_KOMPONENTER
 62
7
  6
CONTINUOUS
 10
279.9483832441
 20
143.4824992662
 11
279.9483832441
 21
152.7082503719
  0
LINE
  8
13_KOMPONENTER
 62
7
  6
CONTINUOUS
 10
280.9483832441
 20
115.5410711214
 11
280.9483832441
 21
110.059831703
  0
LINE
  8
13_KOMPONENTER
 62
7
  6
CONTINUOUS
 10
278.524943763
 20
123.267995394
 11
278.6415315915
 21
123.7031070936
  0
POLYLINE
  8
13_KOMPONENTER
 62
7
  6
CONTINUOUS
 66
1
 70
0
  0
VERTEX
  8
13_KOMPONENTER
 62
7
  6
CONTINUOUS
 10
302.4788816628
 20
156.5862362556
  0
VERTEX
  8
13_KOMPONENTER
 62
7
  6
CONTINUOUS
 10
302.5202734701
 20
156.5550682733
  0
VERTEX
  8
13_KOMPONENTER
 62
7
  6
CONTINUOUS
 10
302.5754144408
 20
156.5129536911
  0
VERTEX
  8
13_KOMPONENTER
 62
7
  6
CONTINUOUS
 10
302.6582943161
 20
156.4483559353
  0
VERTEX
  8
13_KOMPONENTER
 62
7
  6
CONTINUOUS
 10
302.7731252073
 20
156.3562179543
  0
SEQEND
  0
LINE
  8
13_KOMPONENTER
 62
7
  6
CONTINUOUS
 10
302.7587664633
 20
156.3677391197
 11
302.9229047844
 21
156.231270881
  0
POLYLINE
  8
13_KOMPONENTER
 62
7
  6
CONTINUOUS
 66
1
 70
0
  0
VERTEX
  8
13_KOMPONENTER
 62
7
  6
CONTINUOUS
 10
302.9229047844
 20
156.231270881
  0
VERTEX
  8
13_KOMPONENTER
 62
7
  6
CONTINUOUS
 10
303.1050005549
 20
156.0717443874
  0
VERTEX
  8
13_KOMPONENTER
 62
7
  6
CONTINUOUS
 10
303.3160488775
 20
155.8757278003
  0
SEQEND
  0
POLYLINE
  8
13_KOMPONENTER
 62
7
  6
CONTINUOUS
 66
1
 70
0
  0
VERTEX
  8
13_KOMPONENTER
 62
7
  6
CONTINUOUS
 10
296.1203073494
 20
154.6254136145
  0
VERTEX
  8
13_KOMPONENTER
 62
7
  6
CONTINUOUS
 10
296.0209000303
 20
154.7269761049
  0
VERTEX
  8
13_KOMPONENTER
 62
7
  6
CONTINUOUS
 10
295.9228257868
 20
154.8138981402
  0
VERTEX
  8
13_KOMPONENTER
 62
7
  6
CONTINUOUS
 10
295.8299825284
 20
154.8851457942
  0
VERTEX
  8
13_KOMPONENTER
 62
7
  6
CONTINUOUS
 10
295.7443674491
 20
154.9387561015
  0
VERTEX
  8
13_KOMPONENTER
 62
7
  6
CONTINUOUS
 10
295.6680284639
 20
154.973367226
  0
SEQEND
  0
POLYLINE
  8
13_KOMPONENTER
 62
7
  6
CONTINUOUS
 66
1
 70
0
  0
VERTEX
  8
13_KOMPONENTER
 62
7
  6
CONTINUOUS
 10
295.1303988712
 20
154.1641910802
  0
VERTEX
  8
13_KOMPONENTER
 62
7
  6
CONTINUOUS
 10
295.1275005102
 20
154.1384340551
  0
VERTEX
  8
13_KOMPONENTER
 62
7
  6
CONTINUOUS
 10
295.1255448798
 20
154.1123837272
  0
VERTEX
  8
13_KOMPONENTER
 62
7
  6
CONTINUOUS
 10
295.1242882538
 20
154.0860702248
  0
SEQEND
  0
LINE
  8
13_KOMPONENTER
 62
7
  6
CONTINUOUS
 10
295.90553534
 20
123.8275672117
 11
296.0435906516
 21
123.3123377747
  0
LINE
  8
13_KOMPONENTER
 62
7
  6
CONTINUOUS
 10
292.9483832441
 20
110.059831703
 11
292.9483832441
 21
115.5410469164
  0
LINE
  8
13_KOMPONENTER
 62
7
  6
CONTINUOUS
 10
293.9483832441
 20
152.708243105
 11
293.9483832441
 21
143.4825110584
  0
LINE
  8
13_KOMPONENTER
 62
7
  6
CONTINUOUS
 10
296.9483832441
 20
106.7356446057
 11
296.9483832441
 21
110.626439405
  0
LINE
  8
13_KOMPONENTER
 62
7
  6
CONTINUOUS
 10
302.9483832441
 20
110.2458735661
 11
302.9483832441
 21
106.7356334842
  0
LINE
  8
13_KOMPONENTER
 62
7
  6
CONTINUOUS
 10
305.9483832441
 20
149.1671969904
 11
305.9483832441
 21
152.7083186234
  0
LINE
  8
13_KOMPONENTER
 62
7
  6
CONTINUOUS
 10
306.9483832441
 20
121.879835182
 11
306.9483832441
 21
114.0162007989
  0
POLYLINE
  8
13_KOMPONENTER
 62
7
  6
CONTINUOUS
 66
1
 70
0
  0
VERTEX
  8
13_KOMPONENTER
 62
7
  6
CONTINUOUS
 10
304.7815027335
 20
154.1569494117
  0
VERTEX
  8
13_KOMPONENTER
 62
7
  6
CONTINUOUS
 10
304.7811240832
 20
154.1498156858
  0
VERTEX
  8
13_KOMPONENTER
 62
7
  6
CONTINUOUS
 10
304.7779458568
 20
154.1427914757
  0
VERTEX
  8
13_KOMPONENTER
 62
7
  6
CONTINUOUS
 10
304.7730327274
 20
154.1357253394
  0
VERTEX
  8
13_KOMPONENTER
 62
7
  6
CONTINUOUS
 10
304.7668421052
 20
154.1283254101
  0
VERTEX
  8
13_KOMPONENTER
 62
7
  6
CONTINUOUS
 10
304.7593942098
 20
154.1204073141
  0
VERTEX
  8
13_KOMPONENTER
 62
7
  6
CONTINUOUS
 10
304.7507059015
 20
154.1120257128
  0
VERTEX
  8
13_KOMPONENTER
 62
7
  6
CONTINUOUS
 10
304.7408307291
 20
154.1033394373
  0
VERTEX
  8
13_KOMPONENTER
 62
7
  6
CONTINUOUS
 10
304.7298296692
 20
154.0945226915
  0
VERTEX
  8
13_KOMPONENTER
 62
7
  6
CONTINUOUS
 10
304.7177718097
 20
154.0857421683
  0
VERTEX
  8
13_KOMPONENTER
 62
7
  6
CONTINUOUS
 10
304.7045162993
 20
154.0770104343
  0
VERTEX
  8
13_KOMPONENTER
 62
7
  6
CONTINUOUS
 10
304.6897158024
 20
154.0682515574
  0
VERTEX
  8
13_KOMPONENTER
 62
7
  6
CONTINUOUS
 10
304.6729600425
 20
154.0594359487
  0
VERTEX
  8
13_KOMPONENTER
 62
7
  6
CONTINUOUS
 10
304.6538269241
 20
154.0506141887
  0
VERTEX
  8
13_KOMPONENTER
 62
7
  6
CONTINUOUS
 10
304.6319115969
 20
154.0419303751
  0
VERTEX
  8
13_KOMPONENTER
 62
7
  6
CONTINUOUS
 10
304.6068716808
 20
154.0336292892
  0
VERTEX
  8
13_KOMPONENTER
 62
7
  6
CONTINUOUS
 10
304.5783988285
 20
154.0260090545
  0
VERTEX
  8
13_KOMPONENTER
 62
7
  6
CONTINUOUS
 10
304.5463216044
 20
154.0194425067
  0
VERTEX
  8
13_KOMPONENTER
 62
7
  6
CONTINUOUS
 10
304.5106417151
 20
154.0143208297
  0
VERTEX
  8
13_KOMPONENTER
 62
7
  6
CONTINUOUS
 10
304.4711694148
 20
154.0109916212
  0
VERTEX
  8
13_KOMPONENTER
 62
7
  6
CONTINUOUS
 10
304.4274890469
 20
154.0097965976
  0
SEQEND
  0
POLYLINE
  8
13_KOMPONENTER
 62
7
  6
CONTINUOUS
 66
1
 70
0
  0
VERTEX
  8
13_KOMPONENTER
 62
7
  6
CONTINUOUS
 10
326.9483832441
 20
119.607559391
  0
VERTEX
  8
13_KOMPONENTER
 62
7
  6
CONTINUOUS
 10
326.9549782978
 20
119.4963704497
  0
VERTEX
  8
13_KOMPONENTER
 62
7
  6
CONTINUOUS
 10
326.9722199161
 20
119.3319691699
  0
VERTEX
  8
13_KOMPONENTER
 62
7
  6
CONTINUOUS
 10
326.9922305179
 20
119.1289515291
  0
VERTEX
  8
13_KOMPONENTER
 62
7
  6
CONTINUOUS
 10
327.0068557203
 20
118.9075013752
  0
VERTEX
  8
13_KOMPONENTER
 62
7
  6
CONTINUOUS
 10
327.0118756641
 20
118.6866691737
  0
SEQEND
  0
POLYLINE
  8
13_KOMPONENTER
 62
7
  6
CONTINUOUS
 66
1
 70
0
  0
VERTEX
  8
13_KOMPONENTER
 62
7
  6
CONTINUOUS
 10
326.9483832441
 20
138.785632962
  0
VERTEX
  8
13_KOMPONENTER
 62
7
  6
CONTINUOUS
 10
326.9457980955
 20
138.9569278448
  0
VERTEX
  8
13_KOMPONENTER
 62
7
  6
CONTINUOUS
 10
326.938282693
 20
139.1210142328
  0
VERTEX
  8
13_KOMPONENTER
 62
7
  6
CONTINUOUS
 10
326.9261509626
 20
139.278548615
  0
VERTEX
  8
13_KOMPONENTER
 62
7
  6
CONTINUOUS
 10
326.9096777532
 20
139.429988129
  0
VERTEX
  8
13_KOMPONENTER
 62
7
  6
CONTINUOUS
 10
326.8891038373
 20
139.5757447222
  0
VERTEX
  8
13_KOMPONENTER
 62
7
  6
CONTINUOUS
 10
326.8646260831
 20
139.7162640767
  0
VERTEX
  8
13_KOMPONENTER
 62
7
  6
CONTINUOUS
 10
326.8364103033
 20
139.8519333076
  0
VERTEX
  8
13_KOMPONENTER
 62
7
  6
CONTINUOUS
 10
326.8046065719
 20
139.983051154
  0
VERTEX
  8
13_KOMPONENTER
 62
7
  6
CONTINUOUS
 10
326.7693336242
 20
140.1099258245
  0
VERTEX
  8
13_KOMPONENTER
 62
7
  6
CONTINUOUS
 10
326.730676151
 20
140.2328720686
  0
VERTEX
  8
13_KOMPONENTER
 62
7
  6
CONTINUOUS
 10
326.6887085684
 20
140.3521376663
  0
VERTEX
  8
13_KOMPONENTER
 62
7
  6
CONTINUOUS
 10
326.6434988771
 20
140.4679195633
  0
VERTEX
  8
13_KOMPONENTER
 62
7
  6
CONTINUOUS
 10
326.5950792778
 20
140.5804470939
  0
VERTEX
  8
13_KOMPONENTER
 62
7
  6
CONTINUOUS
 10
326.5434227099
 20
140.6900122922
  0
VERTEX
  8
13_KOMPONENTER
 62
7
  6
CONTINUOUS
 10
326.4884386682
 20
140.7969476341
  0
VERTEX
  8
13_KOMPONENTER
 62
7
  6
CONTINUOUS
 10
326.4300413167
 20
140.9014862713
  0
VERTEX
  8
13_KOMPONENTER
 62
7
  6
CONTINUOUS
 10
326.3682215818
 20
141.0036759344
  0
VERTEX
  8
13_KOMPONENTER
 62
7
  6
CONTINUOUS
 10
326.3029930069
 20
141.103519852
  0
VERTEX
  8
13_KOMPONENTER
 62
7
  6
CONTINUOUS
 10
326.234354367
 20
141.2010425415
  0
VERTEX
  8
13_KOMPONENTER
 62
7
  6
CONTINUOUS
 10
326.16221642
 20
141.2963760085
  0
VERTEX
  8
13_KOMPONENTER
 62
7
  6
CONTINUOUS
 10
326.0863229421
 20
141.3898168195
  0
VERTEX
  8
13_KOMPONENTER
 62
7
  6
CONTINUOUS
 10
326.006429604
 20
141.4815686891
  0
VERTEX
  8
13_KOMPONENTER
 62
7
  6
CONTINUOUS
 10
325.9223862469
 20
141.5716772794
  0
VERTEX
  8
13_KOMPONENTER
 62
7
  6
CONTINUOUS
 10
325.8340271228
 20
141.6601797167
  0
VERTEX
  8
13_KOMPONENTER
 62
7
  6
CONTINUOUS
 10
325.7411296003
 20
141.7471412602
  0
VERTEX
  8
13_KOMPONENTER
 62
7
  6
CONTINUOUS
 10
325.6434259915
 20
141.8326324996
  0
VERTEX
  8
13_KOMPONENTER
 62
7
  6
CONTINUOUS
 10
325.5405768296
 20
141.9167433393
  0
VERTEX
  8
13_KOMPONENTER
 62
7
  6
CONTINUOUS
 10
325.4322631786
 20
141.9995019165
  0
VERTEX
  8
13_KOMPONENTER
 62
7
  6
CONTINUOUS
 10
325.3181791497
 20
142.0808916464
  0
VERTEX
  8
13_KOMPONENTER
 62
7
  6
CONTINUOUS
 10
325.197930559
 20
142.1609244583
  0
VERTEX
  8
13_KOMPONENTER
 62
7
  6
CONTINUOUS
 10
325.0710515973
 20
142.2396152317
  0
VERTEX
  8
13_KOMPONENTER
 62
7
  6
CONTINUOUS
 10
324.9371260564
 20
142.3169045366
  0
VERTEX
  8
13_KOMPONENTER
 62
7
  6
CONTINUOUS
 10
324.7956610721
 20
142.3927396422
  0
VERTEX
  8
13_KOMPONENTER
 62
7
  6
CONTINUOUS
 10
324.6460990762
 20
142.4670582603
  0
VERTEX
  8
13_KOMPONENTER
 62
7
  6
CONTINUOUS
 10
324.4877160862
 20
142.5398264615
  0
VERTEX
  8
13_KOMPONENTER
 62
7
  6
CONTINUOUS
 10
324.3200815244
 20
142.6108278658
  0
VERTEX
  8
13_KOMPONENTER
 62
7
  6
CONTINUOUS
 10
324.1429155627
 20
142.6797732289
  0
VERTEX
  8
13_KOMPONENTER
 62
7
  6
CONTINUOUS
 10
323.9547268807
 20
142.7467905201
  0
VERTEX
  8
13_KOMPONENTER
 62
7
  6
CONTINUOUS
 10
323.754092678
 20
142.8118406665
  0
VERTEX
  8
13_KOMPONENTER
 62
7
  6
CONTINUOUS
 10
323.5405384348
 20
142.8744965406
  0
VERTEX
  8
13_KOMPONENTER
 62
7
  6
CONTINUOUS
 10
323.3135025395
 20
142.9343513878
  0
VERTEX
  8
13_KOMPONENTER
 62
7
  6
CONTINUOUS
 10
323.0712217959
 20
142.9912541261
  0
VERTEX
  8
13_KOMPONENTER
 62
7
  6
CONTINUOUS
 10
322.8122039147
 20
143.0448619564
  0
VERTEX
  8
13_KOMPONENTER
 62
7
  6
CONTINUOUS
 10
322.5354014272
 20
143.0946597783
  0
VERTEX
  8
13_KOMPONENTER
 62
7
  6
CONTINUOUS
 10
322.2398281615
 20
143.1400810244
  0
VERTEX
  8
13_KOMPONENTER
 62
7
  6
CONTINUOUS
 10
321.9229379286
 20
143.1807084927
  0
VERTEX
  8
13_KOMPONENTER
 62
7
  6
CONTINUOUS
 10
321.583040151
 20
143.2158678543
  0
VERTEX
  8
13_KOMPONENTER
 62
7
  6
CONTINUOUS
 10
321.2186935988
 20
143.2447854082
  0
VERTEX
  8
13_KOMPONENTER
 62
7
  6
CONTINUOUS
 10
320.8260161867
 20
143.266745544
  0
VERTEX
  8
13_KOMPONENTER
 62
7
  6
CONTINUOUS
 10
320.4037026089
 20
143.2807122878
  0
VERTEX
  8
13_KOMPONENTER
 62
7
  6
CONTINUOUS
 10
319.9483832441
 20
143.2856334842
  0
SEQEND
  0
LINE
  8
13_KOMPONENTER
 62
7
  6
CONTINUOUS
 10
326.9483832441
 20
106.2856334842
 11
326.9483832441
 21
115.9636115354
  0
LINE
  8
13_KOMPONENTER
 62
7
  6
CONTINUOUS
 10
326.9483832441
 20
119.6076554329
 11
326.9483832441
 21
138.785632962
  0
LINE
  8
13_KOMPONENTER
 62
7
  6
CONTINUOUS
 10
327.0118756641
 20
116.8845977947
 11
327.0118756641
 21
118.6866691737
  0
LINE
  8
13_KOMPONENTER
 62
7
  6
CONTINUOUS
 10
329.9483832441
 20
129.2856334842
 11
329.9483832441
 21
125.2019949916
  0
LINE
  8
13_KOMPONENTER
 62
7
  6
CONTINUOUS
 10
329.9483832441
 20
110.3692722279
 11
329.9483832441
 21
106.2856334842
  0
POLYLINE
  8
13_KOMPONENTER
 62
7
  6
CONTINUOUS
 66
1
 70
0
  0
VERTEX
  8
13_KOMPONENTER
 62
7
  6
CONTINUOUS
 10
327.0118756641
 20
116.8845977947
  0
VERTEX
  8
13_KOMPONENTER
 62
7
  6
CONTINUOUS
 10
327.0068561424
 20
116.6637749377
  0
VERTEX
  8
13_KOMPONENTER
 62
7
  6
CONTINUOUS
 10
326.9922303743
 20
116.4423137574
  0
VERTEX
  8
13_KOMPONENTER
 62
7
  6
CONTINUOUS
 10
326.9722239369
 20
116.2393350642
  0
VERTEX
  8
13_KOMPONENTER
 62
7
  6
CONTINUOUS
 10
326.9549793532
 20
116.0749079297
  0
VERTEX
  8
13_KOMPONENTER
 62
7
  6
CONTINUOUS
 10
326.9483832441
 20
115.9637075774
  0
SEQEND
  0
LINE
  8
13_KOMPONENTER
 62
7
  6
CONTINUOUS
 10
25.1483849291
 20
228.1257206133
 11
25.2051493064
 21
227.4982998845
  0
LINE
  8
13_KOMPONENTER
 62
7
  6
CONTINUOUS
 10
25.1483832533
 20
228.125720613
 11
25.1483832441
 21
243.3443327373
  0
LINE
  8
13_KOMPONENTER
 62
7
  6
CONTINUOUS
 10
25.1483832441
 20
243.3443327373
 11
25.1483832537
 21
243.3444154772
  0
LINE
  8
13_KOMPONENTER
 62
7
  6
CONTINUOUS
 10
25.2051493064
 20
243.9718343151
 11
25.1483849291
 21
243.3444135863
  0
POLYLINE
  8
13_KOMPONENTER
 62
7
  6
CONTINUOUS
 66
1
 70
0
  0
VERTEX
  8
13_KOMPONENTER
 62
7
  6
CONTINUOUS
 10
28.1483833037
 20
227.6249362498
  0
VERTEX
  8
13_KOMPONENTER
 62
7
  6
CONTINUOUS
 10
28.1570226772
 20
227.4697855585
  0
VERTEX
  8
13_KOMPONENTER
 62
7
  6
CONTINUOUS
 10
28.1906721884
 20
227.2862431449
  0
VERTEX
  8
13_KOMPONENTER
 62
7
  6
CONTINUOUS
 10
28.2484021358
 20
227.1129414313
  0
VERTEX
  8
13_KOMPONENTER
 62
7
  6
CONTINUOUS
 10
28.328810565
 20
226.9514317157
  0
VERTEX
  8
13_KOMPONENTER
 62
7
  6
CONTINUOUS
 10
28.4308419286
 20
226.8028596279
  0
VERTEX
  8
13_KOMPONENTER
 62
7
  6
CONTINUOUS
 10
28.5538574459
 20
226.6683379048
  0
VERTEX
  8
13_KOMPONENTER
 62
7
  6
CONTINUOUS
 10
28.6971839193
 20
226.5494055724
  0
VERTEX
  8
13_KOMPONENTER
 62
7
  6
CONTINUOUS
 10
28.8259343071
 20
226.4665720431
  0
SEQEND
  0
LINE
  8
13_KOMPONENTER
 62
7
  6
CONTINUOUS
 10
28.1483832441
 20
244.2600670998
 11
28.1483832441
 21
242.6850670998
  0
LINE
  8
13_KOMPONENTER
 62
7
  6
CONTINUOUS
 10
28.1483832441
 20
227.2100670998
 11
28.1483832441
 21
242.0711373124
  0
LINE
  8
13_KOMPONENTER
 62
7
  6
CONTINUOUS
 10
25.386408072
 20
244.4818110539
 11
25.3858668953
 21
244.4802884377
  0
LINE
  8
13_KOMPONENTER
 62
7
  6
CONTINUOUS
 10
25.2049680368
 20
227.5003034703
 11
25.386408072
 21
226.9883231457
  0
LINE
  8
13_KOMPONENTER
 62
7
  6
CONTINUOUS
 10
38.8983832441
 20
228.4546447818
 11
38.8983832441
 21
227.2100670998
  0
LINE
  8
13_KOMPONENTER
 62
7
  6
CONTINUOUS
 10
42.8983832441
 20
227.2100670998
 11
42.8983832441
 21
228.4712900696
  0
POLYLINE
  8
13_KOMPONENTER
 62
7
  6
CONTINUOUS
 66
1
 70
0
  0
VERTEX
  8
13_KOMPONENTER
 62
7
  6
CONTINUOUS
 10
38.8984645845
 20
228.4550373275
  0
VERTEX
  8
13_KOMPONENTER
 62
7
  6
CONTINUOUS
 10
38.9007834545
 20
228.4717257998
  0
VERTEX
  8
13_KOMPONENTER
 62
7
  6
CONTINUOUS
 10
38.9079862418
 20
228.5036813534
  0
VERTEX
  8
13_KOMPONENTER
 62
7
  6
CONTINUOUS
 10
38.9214449882
 20
228.5479123633
  0
VERTEX
  8
13_KOMPONENTER
 62
7
  6
CONTINUOUS
 10
38.9413242433
 20
228.6008715683
  0
VERTEX
  8
13_KOMPONENTER
 62
7
  6
CONTINUOUS
 10
38.9672322291
 20
228.6597703147
  0
VERTEX
  8
13_KOMPONENTER
 62
7
  6
CONTINUOUS
 10
38.9983945726
 20
228.7222338058
  0
VERTEX
  8
13_KOMPONENTER
 62
7
  6
CONTINUOUS
 10
39.0338999658
 20
228.7863634052
  0
VERTEX
  8
13_KOMPONENTER
 62
7
  6
CONTINUOUS
 10
39.0728616654
 20
228.8507672492
  0
VERTEX
  8
13_KOMPONENTER
 62
7
  6
CONTINUOUS
 10
39.1146736777
 20
228.914728397
  0
VERTEX
  8
13_KOMPONENTER
 62
7
  6
CONTINUOUS
 10
39.1591557615
 20
228.9781774103
  0
VERTEX
  8
13_KOMPONENTER
 62
7
  6
CONTINUOUS
 10
39.2061280617
 20
229.0409788307
  0
VERTEX
  8
13_KOMPONENTER
 62
7
  6
CONTINUOUS
 10
39.2553446808
 20
229.1028757853
  0
VERTEX
  8
13_KOMPONENTER
 62
7
  6
CONTINUOUS
 10
39.3066495661
 20
229.163703046
  0
VERTEX
  8
13_KOMPONENTER
 62
7
  6
CONTINUOUS
 10
39.359939349
 20
229.2233323956
  0
VERTEX
  8
13_KOMPONENTER
 62
7
  6
CONTINUOUS
 10
39.4151528352
 20
229.2816509147
  0
VERTEX
  8
13_KOMPONENTER
 62
7
  6
CONTINUOUS
 10
39.4722581304
 20
229.3385446336
  0
VERTEX
  8
13_KOMPONENTER
 62
7
  6
CONTINUOUS
 10
39.5312212248
 20
229.3938562882
  0
VERTEX
  8
13_KOMPONENTER
 62
7
  6
CONTINUOUS
 10
39.5920861129
 20
229.4474587921
  0
VERTEX
  8
13_KOMPONENTER
 62
7
  6
CONTINUOUS
 10
39.6548444848
 20
229.4991489479
  0
VERTEX
  8
13_KOMPONENTER
 62
7
  6
CONTINUOUS
 10
39.7193001775
 20
229.548516077
  0
VERTEX
  8
13_KOMPONENTER
 62
7
  6
CONTINUOUS
 10
39.785568245
 20
229.5953743324
  0
VERTEX
  8
13_KOMPONENTER
 62
7
  6
CONTINUOUS
 10
39.8535259495
 20
229.6393080375
  0
VERTEX
  8
13_KOMPONENTER
 62
7
  6
CONTINUOUS
 10
39.9231836174
 20
229.6799120789
  0
VERTEX
  8
13_KOMPONENTER
 62
7
  6
CONTINUOUS
 10
39.9940857238
 20
229.7165139573
  0
VERTEX
  8
13_KOMPONENTER
 62
7
  6
CONTINUOUS
 10
40.0658514353
 20
229.7484580517
  0
VERTEX
  8
13_KOMPONENTER
 62
7
  6
CONTINUOUS
 10
40.1381237449
 20
229.7751490112
  0
VERTEX
  8
13_KOMPONENTER
 62
7
  6
CONTINUOUS
 10
40.2108256954
 20
229.7960590855
  0
VERTEX
  8
13_KOMPONENTER
 62
7
  6
CONTINUOUS
 10
40.2836417137
 20
229.8105813474
  0
VERTEX
  8
13_KOMPONENTER
 62
7
  6
CONTINUOUS
 10
40.3551040788
 20
229.8181801259
  0
VERTEX
  8
13_KOMPONENTER
 62
7
  6
CONTINUOUS
 10
40.3983839292
 20
229.8194554618
  0
SEQEND
  0
LINE
  8
13_KOMPONENTER
 62
7
  6
CONTINUOUS
 10
38.8983839802
 20
228.4546849376
 11
38.8984645845
 21
228.4550373275
  0
LINE
  8
13_KOMPONENTER
 62
7
  6
CONTINUOUS
 10
27.907201852
 20
228.2204833866
 11
27.1780675871
 21
226.5136463575
  0
LINE
  8
13_KOMPONENTER
 62
7
  6
CONTINUOUS
 10
27.1780675871
 20
244.9564878421
 11
27.907201852
 21
243.249650813
  0
LINE
  8
13_KOMPONENTER
 62
7
  6
CONTINUOUS
 10
42.8960598759
 20
228.4712900696
 11
42.8983827605
 21
228.4546901929
  0
LINE
  8
13_KOMPONENTER
 62
7
  6
CONTINUOUS
 10
48.1483832441
 20
227.2100670998
 11
48.1483832441
 21
229.2265381709
  0
LINE
  8
13_KOMPONENTER
 62
7
  6
CONTINUOUS
 10
48.1483832441
 20
239.1030337373
 11
48.1483832441
 21
244.2600670998
  0
LINE
  8
13_KOMPONENTER
 62
7
  6
CONTINUOUS
 10
52.1483832441
 20
238.6745984224
 11
52.1483832441
 21
229.7265402032
  0
POLYLINE
  8
13_KOMPONENTER
 62
7
  6
CONTINUOUS
 66
1
 70
0
  0
VERTEX
  8
13_KOMPONENTER
 62
7
  6
CONTINUOUS
 10
25.6379642509
 20
244.8151008525
  0
VERTEX
  8
13_KOMPONENTER
 62
7
  6
CONTINUOUS
 10
25.384807159
 20
244.4788809937
  0
VERTEX
  8
13_KOMPONENTER
 62
7
  6
CONTINUOUS
 10
25.2044252263
 20
243.9682942569
  0
SEQEND
  0
LINE
  8
13_KOMPONENTER
 62
7
  6
CONTINUOUS
 10
25.3858668955
 20
226.9898457615
 11
25.6379038254
 21
226.6550925224
  0
LINE
  8
13_KOMPONENTER
 62
7
  6
CONTINUOUS
 10
62.1483899977
 20
241.9525695551
 11
62.1483832441
 21
241.9537066769
  0
LINE
  8
13_KOMPONENTER
 62
7
  6
CONTINUOUS
 10
58.1483832441
 20
232.6700866725
 11
58.1483832441
 21
238.8000866118
  0
LINE
  8
13_KOMPONENTER
 62
7
  6
CONTINUOUS
 10
62.1483832441
 20
227.2100670998
 11
62.1483832441
 21
231.5473005731
  0
LINE
  8
13_KOMPONENTER
 62
7
  6
CONTINUOUS
 10
62.1483832441
 20
239.9228884171
 11
62.1483832441
 21
243.4223938669
  0
POLYLINE
  8
13_KOMPONENTER
 62
7
  6
CONTINUOUS
 66
1
 70
0
  0
VERTEX
  8
13_KOMPONENTER
 62
7
  6
CONTINUOUS
 10
62.1515287779
 20
239.9389434824
  0
VERTEX
  8
13_KOMPONENTER
 62
7
  6
CONTINUOUS
 10
62.1501103229
 20
239.9306198935
  0
VERTEX
  8
13_KOMPONENTER
 62
7
  6
CONTINUOUS
 10
62.145557072
 20
239.9102367176
  0
VERTEX
  8
13_KOMPONENTER
 62
7
  6
CONTINUOUS
 10
62.1362251235
 20
239.8780125436
  0
VERTEX
  8
13_KOMPONENTER
 62
7
  6
CONTINUOUS
 10
62.1205232793
 20
239.8353424262
  0
VERTEX
  8
13_KOMPONENTER
 62
7
  6
CONTINUOUS
 10
62.0972159998
 20
239.7846386091
  0
VERTEX
  8
13_KOMPONENTER
 62
7
  6
CONTINUOUS
 10
62.0651521096
 20
239.7280820204
  0
VERTEX
  8
13_KOMPONENTER
 62
7
  6
CONTINUOUS
 10
62.0234955501
 20
239.6680619162
  0
VERTEX
  8
13_KOMPONENTER
 62
7
  6
CONTINUOUS
 10
61.9718539996
 20
239.6071479502
  0
VERTEX
  8
13_KOMPONENTER
 62
7
  6
CONTINUOUS
 10
61.9100604133
 20
239.5476944322
  0
VERTEX
  8
13_KOMPONENTER
 62
7
  6
CONTINUOUS
 10
61.8365935446
 20
239.4908355901
  0
VERTEX
  8
13_KOMPONENTER
 62
7
  6
CONTINUOUS
 10
61.7502731088
 20
239.4387061684
  0
VERTEX
  8
13_KOMPONENTER
 62
7
  6
CONTINUOUS
 10
61.6533040005
 20
239.3953714281
  0
VERTEX
  8
13_KOMPONENTER
 62
7
  6
CONTINUOUS
 10
61.5500098939
 20
239.3643022972
  0
VERTEX
  8
13_KOMPONENTER
 62
7
  6
CONTINUOUS
 10
61.4460208729
 20
239.3472938169
  0
VERTEX
  8
13_KOMPONENTER
 62
7
  6
CONTINUOUS
 10
61.382932924
 20
239.3437404772
  0
SEQEND
  0
LINE
  8
13_KOMPONENTER
 62
7
  6
CONTINUOUS
 10
25.6379624194
 20
244.8151027231
 11
25.6386007644
 21
244.8157265571
  0
LINE
  8
13_KOMPONENTER
 62
7
  6
CONTINUOUS
 10
25.6379038254
 20
226.6550925224
 11
25.6384265081
 21
226.6545813327
  0
LINE
  8
13_KOMPONENTER
 62
7
  6
CONTINUOUS
 10
62.1501755309
 20
231.5391951881
 11
62.1515304752
 21
231.53120318
  0
POLYLINE
  8
13_KOMPONENTER
 62
7
  6
CONTINUOUS
 66
1
 70
0
  0
VERTEX
  8
13_KOMPONENTER
 62
7
  6
CONTINUOUS
 10
74.1500970467
 20
240.2674861787
  0
VERTEX
  8
13_KOMPONENTER
 62
7
  6
CONTINUOUS
 10
74.1486260692
 20
240.2897542176
  0
VERTEX
  8
13_KOMPONENTER
 62
7
  6
CONTINUOUS
 10
74.1484484848
 20
240.2953383658
  0
SEQEND
  0
POLYLINE
  8
13_KOMPONENTER
 62
7
  6
CONTINUOUS
 66
1
 70
0
  0
VERTEX
  8
13_KOMPONENTER
 62
7
  6
CONTINUOUS
 10
74.1483832345
 20
243.4223597043
  0
VERTEX
  8
13_KOMPONENTER
 62
7
  6
CONTINUOUS
 10
74.143922436
 20
243.5233215609
  0
VERTEX
  8
13_KOMPONENTER
 62
7
  6
CONTINUOUS
 10
74.1197580257
 20
243.6768590648
  0
VERTEX
  8
13_KOMPONENTER
 62
7
  6
CONTINUOUS
 10
74.0745859344
 20
243.8273837204
  0
VERTEX
  8
13_KOMPONENTER
 62
7
  6
CONTINUOUS
 10
74.0085955728
 20
243.9725839764
  0
VERTEX
  8
13_KOMPONENTER
 62
7
  6
CONTINUOUS
 10
73.9224464151
 20
244.109966548
  0
VERTEX
  8
13_KOMPONENTER
 62
7
  6
CONTINUOUS
 10
73.8176655365
 20
244.2368931569
  0
VERTEX
  8
13_KOMPONENTER
 62
7
  6
CONTINUOUS
 10
73.6961098038
 20
244.3516977253
  0
VERTEX
  8
13_KOMPONENTER
 62
7
  6
CONTINUOUS
 10
73.5596995097
 20
244.4537046551
  0
VERTEX
  8
13_KOMPONENTER
 62
7
  6
CONTINUOUS
 10
73.4102344914
 20
244.5431255719
  0
VERTEX
  8
13_KOMPONENTER
 62
7
  6
CONTINUOUS
 10
73.248025012
 20
244.6213766181
  0
VERTEX
  8
13_KOMPONENTER
 62
7
  6
CONTINUOUS
 10
73.0717506712
 20
244.6902799173
  0
VERTEX
  8
13_KOMPONENTER
 62
7
  6
CONTINUOUS
 10
72.8791031335
 20
244.7513246989
  0
VERTEX
  8
13_KOMPONENTER
 62
7
  6
CONTINUOUS
 10
72.6683052059
 20
244.8051703251
  0
VERTEX
  8
13_KOMPONENTER
 62
7
  6
CONTINUOUS
 10
72.4746305438
 20
244.845226436
  0
SEQEND
  0
LINE
  8
13_KOMPONENTER
 62
7
  6
CONTINUOUS
 10
74.1484020527
 20
240.2978124873
 11
74.1483832441
 21
240.3006620416
  0
LINE
  8
13_KOMPONENTER
 62
7
  6
CONTINUOUS
 10
74.1483832441
 20
227.2100670998
 11
74.1483832441
 21
231.169467629
  0
LINE
  8
13_KOMPONENTER
 62
7
  6
CONTINUOUS
 10
74.1483832441
 20
240.3006665371
 11
74.1483832441
 21
243.4224003526
  0
LINE
  8
13_KOMPONENTER
 62
7
  6
CONTINUOUS
 10
74.1483832442
 20
231.1694721435
 11
74.1483942004
 21
231.1716345434
  0
LINE
  8
13_KOMPONENTER
 62
7
  6
CONTINUOUS
 10
74.1483832441
 20
241.9537066769
 11
74.1483764904
 21
241.9525695551
  0
LINE
  8
13_KOMPONENTER
 62
7
  6
CONTINUOUS
 10
74.1484494416
 20
231.1748464302
 11
74.148590564
 21
231.1794789975
  0
LINE
  8
13_KOMPONENTER
 62
7
  6
CONTINUOUS
 10
74.148590564
 20
231.1794789975
 11
74.1499429037
 21
231.20089044
  0
POLYLINE
  8
13_KOMPONENTER
 62
7
  6
CONTINUOUS
 66
1
 70
0
  0
VERTEX
  8
13_KOMPONENTER
 62
7
  6
CONTINUOUS
 10
74.1499429037
 20
231.20089044
  0
VERTEX
  8
13_KOMPONENTER
 62
7
  6
CONTINUOUS
 10
74.1537751301
 20
231.2340367219
  0
VERTEX
  8
13_KOMPONENTER
 62
7
  6
CONTINUOUS
 10
74.1615634505
 20
231.2780044119
  0
VERTEX
  8
13_KOMPONENTER
 62
7
  6
CONTINUOUS
 10
74.1745802077
 20
231.3305898164
  0
VERTEX
  8
13_KOMPONENTER
 62
7
  6
CONTINUOUS
 10
74.1940225229
 20
231.3900357739
  0
VERTEX
  8
13_KOMPONENTER
 62
7
  6
CONTINUOUS
 10
74.2209023542
 20
231.4545042584
  0
VERTEX
  8
13_KOMPONENTER
 62
7
  6
CONTINUOUS
 10
74.255837762
 20
231.5218102744
  0
VERTEX
  8
13_KOMPONENTER
 62
7
  6
CONTINUOUS
 10
74.2992157515
 20
231.5899960142
  0
VERTEX
  8
13_KOMPONENTER
 62
7
  6
CONTINUOUS
 10
74.3517208574
 20
231.6578741024
  0
VERTEX
  8
13_KOMPONENTER
 62
7
  6
CONTINUOUS
 10
74.4138981701
 20
231.7240215251
  0
VERTEX
  8
13_KOMPONENTER
 62
7
  6
CONTINUOUS
 10
74.4860912483
 20
231.7867974998
  0
VERTEX
  8
13_KOMPONENTER
 62
7
  6
CONTINUOUS
 10
74.5682974566
 20
231.8443218313
  0
VERTEX
  8
13_KOMPONENTER
 62
7
  6
CONTINUOUS
 10
74.6601589769
 20
231.8946037725
  0
VERTEX
  8
13_KOMPONENTER
 62
7
  6
CONTINUOUS
 10
74.7609072862
 20
231.9356127071
  0
VERTEX
  8
13_KOMPONENTER
 62
7
  6
CONTINUOUS
 10
74.8692886211
 20
231.9653591364
  0
VERTEX
  8
13_KOMPONENTER
 62
7
  6
CONTINUOUS
 10
74.9832553135
 20
231.9819890518
  0
SEQEND
  0
POLYLINE
  8
13_KOMPONENTER
 62
7
  6
CONTINUOUS
 66
1
 70
0
  0
VERTEX
  8
13_KOMPONENTER
 62
7
  6
CONTINUOUS
 10
25.6384246838
 20
226.6545794647
  0
VERTEX
  8
13_KOMPONENTER
 62
7
  6
CONTINUOUS
 10
25.9083825391
 20
226.422525577
  0
VERTEX
  8
13_KOMPONENTER
 62
7
  6
CONTINUOUS
 10
26.1802315207
 20
226.2674796685
  0
VERTEX
  8
13_KOMPONENTER
 62
7
  6
CONTINUOUS
 10
26.4645243485
 20
226.2100678483
  0
SEQEND
  0
LINE
  8
13_KOMPONENTER
 62
7
  6
CONTINUOUS
 10
25.6386007465
 20
226.6544076793
 11
25.8418373377
 21
226.4734452418
  0
LINE
  8
13_KOMPONENTER
 62
7
  6
CONTINUOUS
 10
78.1483832441
 20
238.9850670998
 11
78.1483832441
 21
232.4850670998
  0
LINE
  8
13_KOMPONENTER
 62
7
  6
CONTINUOUS
 10
84.1483832441
 20
232.4850670998
 11
84.1483832441
 21
238.9850670998
  0
POLYLINE
  8
13_KOMPONENTER
 62
7
  6
CONTINUOUS
 66
1
 70
0
  0
VERTEX
  8
13_KOMPONENTER
 62
7
  6
CONTINUOUS
 10
26.0489202342
 20
245.1391163826
  0
VERTEX
  8
13_KOMPONENTER
 62
7
  6
CONTINUOUS
 10
25.8418373937
 20
244.9966889765
  0
VERTEX
  8
13_KOMPONENTER
 62
7
  6
CONTINUOUS
 10
25.6386007644
 20
244.8157265571
  0
SEQEND
  0
LINE
  8
13_KOMPONENTER
 62
7
  6
CONTINUOUS
 10
25.8418373377
 20
226.4734452418
 11
26.0489202766
 21
226.3310177799
  0
POLYLINE
  8
13_KOMPONENTER
 62
7
  6
CONTINUOUS
 66
1
 70
0
  0
VERTEX
  8
13_KOMPONENTER
 62
7
  6
CONTINUOUS
 10
88.1371574537
 20
231.1412754209
  0
VERTEX
  8
13_KOMPONENTER
 62
7
  6
CONTINUOUS
 10
88.1472800095
 20
231.0401151514
  0
VERTEX
  8
13_KOMPONENTER
 62
7
  6
CONTINUOUS
 10
88.1483826087
 20
230.9948389609
  0
SEQEND
  0
LINE
  8
13_KOMPONENTER
 62
7
  6
CONTINUOUS
 10
88.1483899977
 20
241.9525695551
 11
88.1483832441
 21
241.9537066769
  0
LINE
  8
13_KOMPONENTER
 62
7
  6
CONTINUOUS
 10
88.1483832441
 20
227.2100670998
 11
88.1483832441
 21
230.9939215943
  0
LINE
  8
13_KOMPONENTER
 62
7
  6
CONTINUOUS
 10
88.1483832441
 20
240.4762122558
 11
88.1483832441
 21
243.4224003531
  0
LINE
  8
13_KOMPONENTER
 62
7
  6
CONTINUOUS
 10
88.1483829219
 20
240.4761806747
 11
88.1473765615
 21
240.432091412
  0
LINE
  8
13_KOMPONENTER
 62
7
  6
CONTINUOUS
 10
88.1473765615
 20
240.432091412
 11
88.1375278233
 21
240.3313043397
  0
POLYLINE
  8
13_KOMPONENTER
 62
7
  6
CONTINUOUS
 66
1
 70
0
  0
VERTEX
  8
13_KOMPONENTER
 62
7
  6
CONTINUOUS
 10
88.1375278233
 20
240.3313043397
  0
VERTEX
  8
13_KOMPONENTER
 62
7
  6
CONTINUOUS
 10
88.1152739772
 20
240.2240904576
  0
VERTEX
  8
13_KOMPONENTER
 62
7
  6
CONTINUOUS
 10
88.0780173151
 20
240.1116530332
  0
VERTEX
  8
13_KOMPONENTER
 62
7
  6
CONTINUOUS
 10
88.0228819656
 20
239.9958496465
  0
VERTEX
  8
13_KOMPONENTER
 62
7
  6
CONTINUOUS
 10
87.9486925113
 20
239.8819430696
  0
VERTEX
  8
13_KOMPONENTER
 62
7
  6
CONTINUOUS
 10
87.8573044859
 20
239.7768246988
  0
VERTEX
  8
13_KOMPONENTER
 62
7
  6
CONTINUOUS
 10
87.7523474231
 20
239.6856291156
  0
VERTEX
  8
13_KOMPONENTER
 62
7
  6
CONTINUOUS
 10
87.6363455412
 20
239.610274527
  0
VERTEX
  8
13_KOMPONENTER
 62
7
  6
CONTINUOUS
 10
87.5113939727
 20
239.5518452302
  0
VERTEX
  8
13_KOMPONENTER
 62
7
  6
CONTINUOUS
 10
87.3796346558
 20
239.5112398346
  0
SEQEND
  0
POLYLINE
  8
13_KOMPONENTER
 62
7
  6
CONTINUOUS
 66
1
 70
0
  0
VERTEX
  8
13_KOMPONENTER
 62
7
  6
CONTINUOUS
 10
47.3843078004
 20
229.2184616697
  0
VERTEX
  8
13_KOMPONENTER
 62
7
  6
CONTINUOUS
 10
47.3804119447
 20
229.2147403244
  0
VERTEX
  8
13_KOMPONENTER
 62
7
  6
CONTINUOUS
 10
47.3836528337
 20
229.2170377175
  0
SEQEND
  0
POLYLINE
  8
13_KOMPONENTER
 62
7
  6
CONTINUOUS
 66
1
 70
0
  0
VERTEX
  8
13_KOMPONENTER
 62
7
  6
CONTINUOUS
 10
26.1802317317
 20
245.2026545609
  0
VERTEX
  8
13_KOMPONENTER
 62
7
  6
CONTINUOUS
 10
25.9083824741
 20
245.0476085986
  0
VERTEX
  8
13_KOMPONENTER
 62
7
  6
CONTINUOUS
 10
25.8784007758
 20
245.0218365341
  0
SEQEND
  0
LINE
  8
13_KOMPONENTER
 62
7
  6
CONTINUOUS
 10
28.8262253503
 20
226.4664056892
 11
28.8259343071
 21
226.4665720431
  0
LINE
  8
13_KOMPONENTER
 62
7
  6
CONTINUOUS
 10
88.1148581407
 20
231.2476009384
 11
88.1371574537
 21
231.1412754209
  0
POLYLINE
  8
13_KOMPONENTER
 62
7
  6
CONTINUOUS
 66
1
 70
0
  0
VERTEX
  8
13_KOMPONENTER
 62
7
  6
CONTINUOUS
 10
100.1483832345
 20
243.4223597043
  0
VERTEX
  8
13_KOMPONENTER
 62
7
  6
CONTINUOUS
 10
100.1439224358
 20
243.5233215633
  0
VERTEX
  8
13_KOMPONENTER
 62
7
  6
CONTINUOUS
 10
100.1197580248
 20
243.6768590685
  0
VERTEX
  8
13_KOMPONENTER
 62
7
  6
CONTINUOUS
 10
100.0745859328
 20
243.8273837246
  0
VERTEX
  8
13_KOMPONENTER
 62
7
  6
CONTINUOUS
 10
100.0085955706
 20
243.9725839804
  0
VERTEX
  8
13_KOMPONENTER
 62
7
  6
CONTINUOUS
 10
99.9224464125
 20
244.1099665516
  0
VERTEX
  8
13_KOMPONENTER
 62
7
  6
CONTINUOUS
 10
99.8176655339
 20
244.2368931598
  0
VERTEX
  8
13_KOMPONENTER
 62
7
  6
CONTINUOUS
 10
99.6961098014
 20
244.3516977273
  0
VERTEX
  8
13_KOMPONENTER
 62
7
  6
CONTINUOUS
 10
99.5596995074
 20
244.4537046566
  0
VERTEX
  8
13_KOMPONENTER
 62
7
  6
CONTINUOUS
 10
99.4102344893
 20
244.5431255731
  0
VERTEX
  8
13_KOMPONENTER
 62
7
  6
CONTINUOUS
 10
99.2480250101
 20
244.621376619
  0
VERTEX
  8
13_KOMPONENTER
 62
7
  6
CONTINUOUS
 10
99.0717506694
 20
244.6902799179
  0
VERTEX
  8
13_KOMPONENTER
 62
7
  6
CONTINUOUS
 10
98.8791031318
 20
244.7513246994
  0
VERTEX
  8
13_KOMPONENTER
 62
7
  6
CONTINUOUS
 10
98.668305205
 20
244.8051703253
  0
VERTEX
  8
13_KOMPONENTER
 62
7
  6
CONTINUOUS
 10
98.4746305438
 20
244.845226436
  0
SEQEND
  0
LINE
  8
13_KOMPONENTER
 62
7
  6
CONTINUOUS
 10
100.1483832441
 20
243.4224003526
 11
100.1483832441
 21
240.4850670998
  0
LINE
  8
13_KOMPONENTER
 62
7
  6
CONTINUOUS
 10
100.1483832441
 20
227.2100670998
 11
100.1483832441
 21
230.9850670998
  0
LINE
  8
13_KOMPONENTER
 62
7
  6
CONTINUOUS
 10
104.1483832441
 20
238.9850670998
 11
104.1483832441
 21
232.4850670998
  0
LINE
  8
13_KOMPONENTER
 62
7
  6
CONTINUOUS
 10
105.8983832441
 20
226.2100670998
 11
105.8983832441
 21
226.4100670998
  0
LINE
  8
13_KOMPONENTER
 62
7
  6
CONTINUOUS
 10
106.1483832441
 20
226.2100670998
 11
106.1483832441
 21
226.4100670998
  0
LINE
  8
13_KOMPONENTER
 62
7
  6
CONTINUOUS
 10
100.1483832441
 20
241.9537066769
 11
100.1483764904
 21
241.9525695551
  0
POLYLINE
  8
13_KOMPONENTER
 62
7
  6
CONTINUOUS
 66
1
 70
0
  0
VERTEX
  8
13_KOMPONENTER
 62
7
  6
CONTINUOUS
 10
28.8262253253
 20
226.4664056454
  0
VERTEX
  8
13_KOMPONENTER
 62
7
  6
CONTINUOUS
 10
28.9964388528
 20
226.3779120349
  0
VERTEX
  8
13_KOMPONENTER
 62
7
  6
CONTINUOUS
 10
29.1880838752
 20
226.2999131479
  0
VERTEX
  8
13_KOMPONENTER
 62
7
  6
CONTINUOUS
 10
29.3825577914
 20
226.2450726854
  0
VERTEX
  8
13_KOMPONENTER
 62
7
  6
CONTINUOUS
 10
29.5457291769
 20
226.2184715568
  0
SEQEND
  0
LINE
  8
13_KOMPONENTER
 62
7
  6
CONTINUOUS
 10
108.810617312
 20
226.2100670998
 11
108.810617312
 21
226.4100670998
  0
LINE
  8
13_KOMPONENTER
 62
7
  6
CONTINUOUS
 10
110.1483832441
 20
232.4850670998
 11
110.1483832441
 21
238.9850670998
  0
LINE
  8
13_KOMPONENTER
 62
7
  6
CONTINUOUS
 10
114.1483832441
 20
227.2100670998
 11
114.1483832441
 21
230.9850670998
  0
LINE
  8
13_KOMPONENTER
 62
7
  6
CONTINUOUS
 10
114.1483832441
 20
240.4850670998
 11
114.1483832441
 21
244.2600670998
  0
LINE
  8
13_KOMPONENTER
 62
7
  6
CONTINUOUS
 10
47.3836519862
 20
229.2170390255
 11
47.3839853421
 21
229.2172545628
  0
LINE
  8
13_KOMPONENTER
 62
7
  6
CONTINUOUS
 10
47.3839853421
 20
229.2172545628
 11
47.3994992923
 21
229.2265381709
  0
POLYLINE
  8
13_KOMPONENTER
 62
7
  6
CONTINUOUS
 66
1
 70
0
  0
VERTEX
  8
13_KOMPONENTER
 62
7
  6
CONTINUOUS
 10
26.0489202766
 20
226.3310177799
  0
VERTEX
  8
13_KOMPONENTER
 62
7
  6
CONTINUOUS
 10
26.2633467064
 20
226.2390873007
  0
VERTEX
  8
13_KOMPONENTER
 62
7
  6
CONTINUOUS
 10
26.4641655519
 20
226.2100681661
  0
SEQEND
  0
LINE
  8
13_KOMPONENTER
 62
7
  6
CONTINUOUS
 10
46.9238523145
 20
239.0775732337
 11
46.9219859453
 21
239.0786803625
  0
LINE
  8
13_KOMPONENTER
 62
7
  6
CONTINUOUS
 10
126.1483832441
 20
227.2100670998
 11
126.1483832441
 21
230.9850670998
  0
LINE
  8
13_KOMPONENTER
 62
7
  6
CONTINUOUS
 10
126.1483832441
 20
240.4850670998
 11
126.1483832441
 21
244.2600670998
  0
LINE
  8
13_KOMPONENTER
 62
7
  6
CONTINUOUS
 10
130.1483832441
 20
238.9850670998
 11
130.1483832441
 21
232.4850670998
  0
LINE
  8
13_KOMPONENTER
 62
7
  6
CONTINUOUS
 10
136.1483832441
 20
232.4850670998
 11
136.1483832441
 21
238.9850670998
  0
POLYLINE
  8
13_KOMPONENTER
 62
7
  6
CONTINUOUS
 66
1
 70
0
  0
VERTEX
  8
13_KOMPONENTER
 62
7
  6
CONTINUOUS
 10
64.8120100047
 20
245.0995324165
  0
VERTEX
  8
13_KOMPONENTER
 62
7
  6
CONTINUOUS
 10
64.6725653636
 20
245.0525001074
  0
VERTEX
  8
13_KOMPONENTER
 62
7
  6
CONTINUOUS
 10
64.4846083772
 20
244.996497305
  0
VERTEX
  8
13_KOMPONENTER
 62
7
  6
CONTINUOUS
 10
64.2727260667
 20
244.941337266
  0
VERTEX
  8
13_KOMPONENTER
 62
7
  6
CONTINUOUS
 10
64.0376068725
 20
244.8880262624
  0
SEQEND
  0
LINE
  8
13_KOMPONENTER
 62
7
  6
CONTINUOUS
 10
140.1483832441
 20
227.2100670998
 11
140.1483832441
 21
230.9850670998
  0
LINE
  8
13_KOMPONENTER
 62
7
  6
CONTINUOUS
 10
140.1483832441
 20
240.4850670998
 11
140.1483832441
 21
244.2600670998
  0
POLYLINE
  8
13_KOMPONENTER
 62
7
  6
CONTINUOUS
 66
1
 70
0
  0
VERTEX
  8
13_KOMPONENTER
 62
7
  6
CONTINUOUS
 10
90.8120090186
 20
245.099532025
  0
VERTEX
  8
13_KOMPONENTER
 62
7
  6
CONTINUOUS
 10
90.6725105745
 20
245.0524826296
  0
VERTEX
  8
13_KOMPONENTER
 62
7
  6
CONTINUOUS
 10
90.4845008126
 20
244.9964673209
  0
VERTEX
  8
13_KOMPONENTER
 62
7
  6
CONTINUOUS
 10
90.2726027424
 20
244.9413072705
  0
VERTEX
  8
13_KOMPONENTER
 62
7
  6
CONTINUOUS
 10
90.0375131488
 20
244.8880064647
  0
SEQEND
  0
LINE
  8
13_KOMPONENTER
 62
7
  6
CONTINUOUS
 10
328.6322421396
 20
226.2100678483
 11
328.9165349675
 21
226.2674796685
  0
POLYLINE
  8
13_KOMPONENTER
 62
7
  6
CONTINUOUS
 66
1
 70
0
  0
VERTEX
  8
13_KOMPONENTER
 62
7
  6
CONTINUOUS
 10
325.5510373112
 20
226.2184715568
  0
VERTEX
  8
13_KOMPONENTER
 62
7
  6
CONTINUOUS
 10
325.7142086967
 20
226.2450726854
  0
VERTEX
  8
13_KOMPONENTER
 62
7
  6
CONTINUOUS
 10
325.9086826129
 20
226.2999131479
  0
VERTEX
  8
13_KOMPONENTER
 62
7
  6
CONTINUOUS
 10
326.1003276353
 20
226.3779120349
  0
VERTEX
  8
13_KOMPONENTER
 62
7
  6
CONTINUOUS
 10
326.2705411628
 20
226.4664056454
  0
SEQEND
  0
POLYLINE
  8
13_KOMPONENTER
 62
7
  6
CONTINUOUS
 66
1
 70
0
  0
VERTEX
  8
13_KOMPONENTER
 62
7
  6
CONTINUOUS
 10
328.6326009362
 20
226.2100681661
  0
VERTEX
  8
13_KOMPONENTER
 62
7
  6
CONTINUOUS
 10
328.8334197817
 20
226.2390873007
  0
VERTEX
  8
13_KOMPONENTER
 62
7
  6
CONTINUOUS
 10
329.0478462115
 20
226.3310177799
  0
SEQEND
  0
LINE
  8
13_KOMPONENTER
 62
7
  6
CONTINUOUS
 10
152.1483832441
 20
227.2100670998
 11
152.1483832441
 21
230.9850670998
  0
LINE
  8
13_KOMPONENTER
 62
7
  6
CONTINUOUS
 10
152.1483832441
 20
240.4850670998
 11
152.1483832441
 21
244.2600670998
  0
LINE
  8
13_KOMPONENTER
 62
7
  6
CONTINUOUS
 10
156.1483832441
 20
238.9850670998
 11
156.1483832441
 21
232.4850670998
  0
LINE
  8
13_KOMPONENTER
 62
7
  6
CONTINUOUS
 10
325.5508296337
 20
226.2184491801
 11
325.5510369909
 21
226.2184715224
  0
LINE
  8
13_KOMPONENTER
 62
7
  6
CONTINUOUS
 10
29.5457294973
 20
226.2184715224
 11
29.5456777646
 21
226.2184771037
  0
LINE
  8
13_KOMPONENTER
 62
7
  6
CONTINUOUS
 10
71.4847589465
 20
245.0995314972
 11
71.2794590004
 21
245.1660020579
  0
POLYLINE
  8
13_KOMPONENTER
 62
7
  6
CONTINUOUS
 66
1
 70
0
  0
VERTEX
  8
13_KOMPONENTER
 62
7
  6
CONTINUOUS
 10
165.1983833059
 20
227.5524907237
  0
VERTEX
  8
13_KOMPONENTER
 62
7
  6
CONTINUOUS
 10
165.2037495088
 20
227.4247285544
  0
VERTEX
  8
13_KOMPONENTER
 62
7
  6
CONTINUOUS
 10
165.2340932867
 20
227.2301768378
  0
VERTEX
  8
13_KOMPONENTER
 62
7
  6
CONTINUOUS
 10
165.2911666836
 20
227.0450571599
  0
VERTEX
  8
13_KOMPONENTER
 62
7
  6
CONTINUOUS
 10
165.3742688
 20
226.8721627416
  0
VERTEX
  8
13_KOMPONENTER
 62
7
  6
CONTINUOUS
 10
165.4823021631
 20
226.7141431589
  0
VERTEX
  8
13_KOMPONENTER
 62
7
  6
CONTINUOUS
 10
165.6139450373
 20
226.5735789531
  0
VERTEX
  8
13_KOMPONENTER
 62
7
  6
CONTINUOUS
 10
165.7669526613
 20
226.453506767
  0
VERTEX
  8
13_KOMPONENTER
 62
7
  6
CONTINUOUS
 10
165.9362415647
 20
226.3575133597
  0
VERTEX
  8
13_KOMPONENTER
 62
7
  6
CONTINUOUS
 10
166.1159548682
 20
226.2869843677
  0
VERTEX
  8
13_KOMPONENTER
 62
7
  6
CONTINUOUS
 10
166.3013465844
 20
226.2408166029
  0
VERTEX
  8
13_KOMPONENTER
 62
7
  6
CONTINUOUS
 10
166.489717743
 20
226.2163058248
  0
VERTEX
  8
13_KOMPONENTER
 62
7
  6
CONTINUOUS
 10
166.6551181396
 20
226.2100671026
  0
SEQEND
  0
LINE
  8
13_KOMPONENTER
 62
7
  6
CONTINUOUS
 10
162.1483832441
 20
232.4850670998
 11
162.1483832441
 21
238.9850670998
  0
LINE
  8
13_KOMPONENTER
 62
7
  6
CONTINUOUS
 10
165.1983832441
 20
243.9178892937
 11
165.1983832441
 21
240.1272509477
  0
LINE
  8
13_KOMPONENTER
 62
7
  6
CONTINUOUS
 10
165.1983832441
 20
231.4503540487
 11
165.1983832441
 21
227.5524749708
  0
LINE
  8
13_KOMPONENTER
 62
7
  6
CONTINUOUS
 10
165.2060240505
 20
240.1618549845
 11
165.2060155482
 21
240.1618013526
  0
POLYLINE
  8
13_KOMPONENTER
 62
7
  6
CONTINUOUS
 66
1
 70
0
  0
VERTEX
  8
13_KOMPONENTER
 62
7
  6
CONTINUOUS
 10
165.2060089732
 20
240.1617600549
  0
VERTEX
  8
13_KOMPONENTER
 62
7
  6
CONTINUOUS
 10
165.2037034384
 20
240.1495021486
  0
VERTEX
  8
13_KOMPONENTER
 62
7
  6
CONTINUOUS
 10
165.1977811706
 20
240.1247328336
  0
VERTEX
  8
13_KOMPONENTER
 62
7
  6
CONTINUOUS
 10
165.1865198581
 20
240.0873499962
  0
VERTEX
  8
13_KOMPONENTER
 62
7
  6
CONTINUOUS
 10
165.1681801511
 20
240.0385855091
  0
VERTEX
  8
13_KOMPONENTER
 62
7
  6
CONTINUOUS
 10
165.1410984181
 20
239.9804106665
  0
VERTEX
  8
13_KOMPONENTER
 62
7
  6
CONTINUOUS
 10
165.1038537061
 20
239.9153538948
  0
VERTEX
  8
13_KOMPONENTER
 62
7
  6
CONTINUOUS
 10
165.0553956697
 20
239.8462858378
  0
VERTEX
  8
13_KOMPONENTER
 62
7
  6
CONTINUOUS
 10
164.9951884983
 20
239.7762924397
  0
VERTEX
  8
13_KOMPONENTER
 62
7
  6
CONTINUOUS
 10
164.9232605208
 20
239.7084646993
  0
VERTEX
  8
13_KOMPONENTER
 62
7
  6
CONTINUOUS
 10
164.8396089791
 20
239.6453291124
  0
VERTEX
  8
13_KOMPONENTER
 62
7
  6
CONTINUOUS
 10
164.7444183369
 20
239.5893129583
  0
VERTEX
  8
13_KOMPONENTER
 62
7
  6
CONTINUOUS
 10
164.638296784
 20
239.5429197722
  0
VERTEX
  8
13_KOMPONENTER
 62
7
  6
CONTINUOUS
 10
164.5222636209
 20
239.5086462317
  0
VERTEX
  8
13_KOMPONENTER
 62
7
  6
CONTINUOUS
 10
164.3978455794
 20
239.4889470938
  0
VERTEX
  8
13_KOMPONENTER
 62
7
  6
CONTINUOUS
 10
164.312285505
 20
239.4850670399
  0
SEQEND
  0
POLYLINE
  8
13_KOMPONENTER
 62
7
  6
CONTINUOUS
 66
1
 70
0
  0
VERTEX
  8
13_KOMPONENTER
 62
7
  6
CONTINUOUS
 10
284.0451357658
 20
245.22133366
  0
VERTEX
  8
13_KOMPONENTER
 62
7
  6
CONTINUOUS
 10
283.8173074877
 20
245.1660020579
  0
VERTEX
  8
13_KOMPONENTER
 62
7
  6
CONTINUOUS
 10
283.6120075416
 20
245.0995314972
  0
SEQEND
  0
POLYLINE
  8
13_KOMPONENTER
 62
7
  6
CONTINUOUS
 66
1
 70
0
  0
VERTEX
  8
13_KOMPONENTER
 62
7
  6
CONTINUOUS
 10
258.0451357658
 20
245.22133366
  0
VERTEX
  8
13_KOMPONENTER
 62
7
  6
CONTINUOUS
 10
257.8173074877
 20
245.1660020579
  0
VERTEX
  8
13_KOMPONENTER
 62
7
  6
CONTINUOUS
 10
257.6120075416
 20
245.0995314972
  0
SEQEND
  0
POLYLINE
  8
13_KOMPONENTER
 62
7
  6
CONTINUOUS
 66
1
 70
0
  0
VERTEX
  8
13_KOMPONENTER
 62
7
  6
CONTINUOUS
 10
282.6221358371
 20
244.845226416
  0
VERTEX
  8
13_KOMPONENTER
 62
7
  6
CONTINUOUS
 10
282.4286246906
 20
244.8052076383
  0
VERTEX
  8
13_KOMPONENTER
 62
7
  6
CONTINUOUS
 10
282.2179806403
 20
244.7514150623
  0
VERTEX
  8
13_KOMPONENTER
 62
7
  6
CONTINUOUS
 10
282.0254816317
 20
244.6904438311
  0
VERTEX
  8
13_KOMPONENTER
 62
7
  6
CONTINUOUS
 10
281.8493577617
 20
244.6216438942
  0
VERTEX
  8
13_KOMPONENTER
 62
7
  6
CONTINUOUS
 10
281.6873079551
 20
244.5435415571
  0
VERTEX
  8
13_KOMPONENTER
 62
7
  6
CONTINUOUS
 10
281.5380097836
 20
244.4543336078
  0
VERTEX
  8
13_KOMPONENTER
 62
7
  6
CONTINUOUS
 10
281.401762379
 20
244.3526241192
  0
VERTEX
  8
13_KOMPONENTER
 62
7
  6
CONTINUOUS
 10
281.2803310317
 20
244.2382035069
  0
VERTEX
  8
13_KOMPONENTER
 62
7
  6
CONTINUOUS
 10
281.1755865656
 20
244.1117160427
  0
VERTEX
  8
13_KOMPONENTER
 62
7
  6
CONTINUOUS
 10
281.0893774926
 20
243.9748213462
  0
VERTEX
  8
13_KOMPONENTER
 62
7
  6
CONTINUOUS
 10
281.0232205565
 20
243.8301443332
  0
VERTEX
  8
13_KOMPONENTER
 62
7
  6
CONTINUOUS
 10
280.9777653726
 20
243.6801634301
  0
VERTEX
  8
13_KOMPONENTER
 62
7
  6
CONTINUOUS
 10
280.9531924412
 20
243.5271814114
  0
VERTEX
  8
13_KOMPONENTER
 62
7
  6
CONTINUOUS
 10
280.948383253
 20
243.4223610764
  0
SEQEND
  0
LINE
  8
13_KOMPONENTER
 62
7
  6
CONTINUOUS
 10
282.8408109862
 20
244.8887038884
 11
282.6221213273
 21
244.8452237342
  0
LINE
  8
13_KOMPONENTER
 62
7
  6
CONTINUOUS
 10
267.7307913069
 20
231.9619875376
 11
267.8584108524
 21
231.9813855221
  0
POLYLINE
  8
13_KOMPONENTER
 62
7
  6
CONTINUOUS
 66
1
 70
0
  0
VERTEX
  8
13_KOMPONENTER
 62
7
  6
CONTINUOUS
 10
325.475435523
 20
226.2132064196
  0
VERTEX
  8
13_KOMPONENTER
 62
7
  6
CONTINUOUS
 10
325.5131936353
 20
226.2151160961
  0
VERTEX
  8
13_KOMPONENTER
 62
7
  6
CONTINUOUS
 10
325.5508299532
 20
226.2184492145
  0
SEQEND
  0
POLYLINE
  8
13_KOMPONENTER
 62
7
  6
CONTINUOUS
 66
1
 70
0
  0
VERTEX
  8
13_KOMPONENTER
 62
7
  6
CONTINUOUS
 10
226.9852802108
 20
226.2107432226
  0
VERTEX
  8
13_KOMPONENTER
 62
7
  6
CONTINUOUS
 10
226.9942386258
 20
226.211114755
  0
VERTEX
  8
13_KOMPONENTER
 62
7
  6
CONTINUOUS
 10
227.0003365084
 20
226.2114135888
  0
VERTEX
  8
13_KOMPONENTER
 62
7
  6
CONTINUOUS
 10
227.0030466905
 20
226.2115583227
  0
SEQEND
  0
POLYLINE
  8
13_KOMPONENTER
 62
7
  6
CONTINUOUS
 66
1
 70
0
  0
VERTEX
  8
13_KOMPONENTER
 62
7
  6
CONTINUOUS
 10
200.9852801759
 20
226.2107432213
  0
VERTEX
  8
13_KOMPONENTER
 62
7
  6
CONTINUOUS
 10
200.9942385972
 20
226.2111147537
  0
VERTEX
  8
13_KOMPONENTER
 62
7
  6
CONTINUOUS
 10
201.0003364895
 20
226.2114135878
  0
VERTEX
  8
13_KOMPONENTER
 62
7
  6
CONTINUOUS
 10
201.003046686
 20
226.2115583225
  0
SEQEND
  0
POLYLINE
  8
13_KOMPONENTER
 62
7
  6
CONTINUOUS
 66
1
 70
0
  0
VERTEX
  8
13_KOMPONENTER
 62
7
  6
CONTINUOUS
 10
188.4416484823
 20
226.2100671026
  0
VERTEX
  8
13_KOMPONENTER
 62
7
  6
CONTINUOUS
 10
188.606575761
 20
226.2162690311
  0
VERTEX
  8
13_KOMPONENTER
 62
7
  6
CONTINUOUS
 10
188.7944886046
 20
226.2406436458
  0
VERTEX
  8
13_KOMPONENTER
 62
7
  6
CONTINUOUS
 10
188.9794353474
 20
226.2865494065
  0
VERTEX
  8
13_KOMPONENTER
 62
7
  6
CONTINUOUS
 10
189.1587453349
 20
226.3566702903
  0
VERTEX
  8
13_KOMPONENTER
 62
7
  6
CONTINUOUS
 10
189.327715523
 20
226.4521056794
  0
VERTEX
  8
13_KOMPONENTER
 62
7
  6
CONTINUOUS
 10
189.4805301322
 20
226.5714847598
  0
VERTEX
  8
13_KOMPONENTER
 62
7
  6
CONTINUOUS
 10
189.6121472411
 20
226.711262698
  0
VERTEX
  8
13_KOMPONENTER
 62
7
  6
CONTINUOUS
 10
189.7203547083
 20
226.8684652733
  0
VERTEX
  8
13_KOMPONENTER
 62
7
  6
CONTINUOUS
 10
189.8038346761
 20
227.0405724345
  0
VERTEX
  8
13_KOMPONENTER
 62
7
  6
CONTINUOUS
 10
189.861469235
 20
227.2249896629
  0
VERTEX
  8
13_KOMPONENTER
 62
7
  6
CONTINUOUS
 10
189.8925146843
 20
227.4189731072
  0
VERTEX
  8
13_KOMPONENTER
 62
7
  6
CONTINUOUS
 10
189.8983831846
 20
227.552485887
  0
SEQEND
  0
LINE
  8
13_KOMPONENTER
 62
7
  6
CONTINUOUS
 10
226.948596268
 20
226.2100419553
 11
227.0045327064
 21
226.2116436991
  0
LINE
  8
13_KOMPONENTER
 62
7
  6
CONTINUOUS
 10
200.948596268
 20
226.2100419553
 11
201.0045328362
 21
226.2116437064
  0
LINE
  8
13_KOMPONENTER
 62
7
  6
CONTINUOUS
 10
164.1483032268
 20
226.2100539018
 11
164.1513152175
 21
226.2101090726
  0
LINE
  8
13_KOMPONENTER
 62
7
  6
CONTINUOUS
 10
325.4473093665
 20
226.212712375
 11
325.475435523
 21
226.2132064196
  0
POLYLINE
  8
13_KOMPONENTER
 62
7
  6
CONTINUOUS
 66
1
 70
0
  0
VERTEX
  8
13_KOMPONENTER
 62
7
  6
CONTINUOUS
 10
226.9482943691
 20
226.2100593221
  0
VERTEX
  8
13_KOMPONENTER
 62
7
  6
CONTINUOUS
 10
226.9613013848
 20
226.2101438872
  0
VERTEX
  8
13_KOMPONENTER
 62
7
  6
CONTINUOUS
 10
226.9741349423
 20
226.2103931142
  0
SEQEND
  0
POLYLINE
  8
13_KOMPONENTER
 62
7
  6
CONTINUOUS
 66
1
 70
0
  0
VERTEX
  8
13_KOMPONENTER
 62
7
  6
CONTINUOUS
 10
200.9482943691
 20
226.2100593221
  0
VERTEX
  8
13_KOMPONENTER
 62
7
  6
CONTINUOUS
 10
200.9613013488
 20
226.2101438868
  0
VERTEX
  8
13_KOMPONENTER
 62
7
  6
CONTINUOUS
 10
200.9741349059
 20
226.2103931133
  0
SEQEND
  0
LINE
  8
13_KOMPONENTER
 62
7
  6
CONTINUOUS
 10
138.1485734136
 20
226.2100524215
 11
138.1511936845
 21
226.2100670998
  0
LINE
  8
13_KOMPONENTER
 62
7
  6
CONTINUOUS
 10
112.1485734136
 20
226.2100524215
 11
112.1511936845
 21
226.2100670998
  0
LINE
  8
13_KOMPONENTER
 62
7
  6
CONTINUOUS
 10
324.3615097765
 20
226.2103422655
 11
325.4471125604
 21
226.2127116877
  0
LINE
  8
13_KOMPONENTER
 62
7
  6
CONTINUOUS
 10
33.7525434669
 20
226.2100680385
 11
34.5116549625
 21
226.2113460353
  0
POLYLINE
  8
13_KOMPONENTER
 62
7
  6
CONTINUOUS
 66
1
 70
0
  0
VERTEX
  8
13_KOMPONENTER
 62
7
  6
CONTINUOUS
 10
319.552542382
 20
226.2100680316
  0
VERTEX
  8
13_KOMPONENTER
 62
7
  6
CONTINUOUS
 10
320.5851115257
 20
226.2113460353
  0
VERTEX
  8
13_KOMPONENTER
 62
7
  6
CONTINUOUS
 10
320.8622169995
 20
226.2109033828
  0
SEQEND
  0
LINE
  8
13_KOMPONENTER
 62
7
  6
CONTINUOUS
 10
328.6326009371
 20
226.2100674717
 11
328.3785020023
 21
226.2100670998
  0
LINE
  8
13_KOMPONENTER
 62
7
  6
CONTINUOUS
 10
26.7182644858
 20
226.2100670998
 11
26.4647693505
 21
226.2100670998
  0
LINE
  8
13_KOMPONENTER
 62
7
  6
CONTINUOUS
 10
29.1483832441
 20
226.2100670998
 11
188.4474973184
 21
226.2100671007
  0
LINE
  8
13_KOMPONENTER
 62
7
  6
CONTINUOUS
 10
188.461669565
 20
226.2100670998
 11
325.9483832441
 21
226.2100670998
  0
LINE
  8
13_KOMPONENTER
 62
7
  6
CONTINUOUS
 10
34.5116549625
 20
226.2113460353
 11
35.0673299171
 21
226.2108923043
  0
LINE
  8
13_KOMPONENTER
 62
7
  6
CONTINUOUS
 10
29.6496539278
 20
226.2127116877
 11
30.7352567117
 21
226.2103422655
  0
LINE
  8
13_KOMPONENTER
 62
7
  6
CONTINUOUS
 10
128.1445457883
 20
226.2100670998
 11
128.1481702075
 21
226.2100419554
  0
LINE
  8
13_KOMPONENTER
 62
7
  6
CONTINUOUS
 10
154.1445457883
 20
226.2100670998
 11
154.1481702075
 21
226.2100419554
  0
LINE
  8
13_KOMPONENTER
 62
7
  6
CONTINUOUS
 10
216.9337580282
 20
226.2102893623
 11
216.9481930739
 21
226.2100524215
  0
POLYLINE
  8
13_KOMPONENTER
 62
7
  6
CONTINUOUS
 66
1
 70
0
  0
VERTEX
  8
13_KOMPONENTER
 62
7
  6
CONTINUOUS
 10
128.092233711
 20
226.2116437031
  0
VERTEX
  8
13_KOMPONENTER
 62
7
  6
CONTINUOUS
 10
128.1219386432
 20
226.2104112573
  0
VERTEX
  8
13_KOMPONENTER
 62
7
  6
CONTINUOUS
 10
128.1333543423
 20
226.2101811435
  0
SEQEND
  0
POLYLINE
  8
13_KOMPONENTER
 62
7
  6
CONTINUOUS
 66
1
 70
0
  0
VERTEX
  8
13_KOMPONENTER
 62
7
  6
CONTINUOUS
 10
154.0922336352
 20
226.2116437073
  0
VERTEX
  8
13_KOMPONENTER
 62
7
  6
CONTINUOUS
 10
154.1219386432
 20
226.2104112573
  0
VERTEX
  8
13_KOMPONENTER
 62
7
  6
CONTINUOUS
 10
154.1333543423
 20
226.2101811435
  0
SEQEND
  0
POLYLINE
  8
13_KOMPONENTER
 62
7
  6
CONTINUOUS
 66
1
 70
0
  0
VERTEX
  8
13_KOMPONENTER
 62
7
  6
CONTINUOUS
 10
41.398383244
 20
229.8194549278
  0
VERTEX
  8
13_KOMPONENTER
 62
7
  6
CONTINUOUS
 10
41.4460760435
 20
229.817911433
  0
VERTEX
  8
13_KOMPONENTER
 62
7
  6
CONTINUOUS
 10
41.5197661888
 20
229.8095350085
  0
VERTEX
  8
13_KOMPONENTER
 62
7
  6
CONTINUOUS
 10
41.5946167817
 20
229.7938886122
  0
VERTEX
  8
13_KOMPONENTER
 62
7
  6
CONTINUOUS
 10
41.6691851947
 20
229.7716153764
  0
VERTEX
  8
13_KOMPONENTER
 62
7
  6
CONTINUOUS
 10
41.7433220208
 20
229.7433115251
  0
VERTEX
  8
13_KOMPONENTER
 62
7
  6
CONTINUOUS
 10
41.8168914078
 20
229.7095716939
  0
VERTEX
  8
13_KOMPONENTER
 62
7
  6
CONTINUOUS
 10
41.8897276828
 20
229.6709049077
  0
VERTEX
  8
13_KOMPONENTER
 62
7
  6
CONTINUOUS
 10
41.9611365646
 20
229.6281475327
  0
VERTEX
  8
13_KOMPONENTER
 62
7
  6
CONTINUOUS
 10
42.03091267
 20
229.5818456254
  0
VERTEX
  8
13_KOMPONENTER
 62
7
  6
CONTINUOUS
 10
42.0988005366
 20
229.5325930348
  0
VERTEX
  8
13_KOMPONENTER
 62
7
  6
CONTINUOUS
 10
42.1648728307
 20
229.4806600343
  0
VERTEX
  8
13_KOMPONENTER
 62
7
  6
CONTINUOUS
 10
42.2290463435
 20
229.426418472
  0
VERTEX
  8
13_KOMPONENTER
 62
7
  6
CONTINUOUS
 10
42.29118533
 20
229.3702207752
  0
VERTEX
  8
13_KOMPONENTER
 62
7
  6
CONTINUOUS
 10
42.3513555104
 20
229.3122150265
  0
VERTEX
  8
13_KOMPONENTER
 62
7
  6
CONTINUOUS
 10
42.409520776
 20
229.2525971112
  0
VERTEX
  8
13_KOMPONENTER
 62
7
  6
CONTINUOUS
 10
42.4656492316
 20
229.1915085783
  0
VERTEX
  8
13_KOMPONENTER
 62
7
  6
CONTINUOUS
 10
42.5196921937
 20
229.1290718203
  0
VERTEX
  8
13_KOMPONENTER
 62
7
  6
CONTINUOUS
 10
42.5715495369
 20
229.0654279423
  0
VERTEX
  8
13_KOMPONENTER
 62
7
  6
CONTINUOUS
 10
42.621069412
 20
229.0007466458
  0
VERTEX
  8
13_KOMPONENTER
 62
7
  6
CONTINUOUS
 10
42.6680123841
 20
228.9352778742
  0
VERTEX
  8
13_KOMPONENTER
 62
7
  6
CONTINUOUS
 10
42.7121365369
 20
228.8692506312
  0
VERTEX
  8
13_KOMPONENTER
 62
7
  6
CONTINUOUS
 10
42.7532746195
 20
228.8027251185
  0
VERTEX
  8
13_KOMPONENTER
 62
7
  6
CONTINUOUS
 10
42.790915122
 20
228.7362291588
  0
VERTEX
  8
13_KOMPONENTER
 62
7
  6
CONTINUOUS
 10
42.8241329229
 20
228.6711328038
  0
VERTEX
  8
13_KOMPONENTER
 62
7
  6
CONTINUOUS
 10
42.8518967889
 20
228.6094578565
  0
VERTEX
  8
13_KOMPONENTER
 62
7
  6
CONTINUOUS
 10
42.873326961
 20
228.5537065997
  0
VERTEX
  8
13_KOMPONENTER
 62
7
  6
CONTINUOUS
 10
42.8879138669
 20
228.5069229498
  0
VERTEX
  8
13_KOMPONENTER
 62
7
  6
CONTINUOUS
 10
42.8960598759
 20
228.4712900696
  0
SEQEND
  0
LINE
  8
13_KOMPONENTER
 62
7
  6
CONTINUOUS
 10
128.1021039867
 20
226.2111343246
 11
128.1109008508
 21
226.2107650489
  0
LINE
  8
13_KOMPONENTER
 62
7
  6
CONTINUOUS
 10
154.1021039867
 20
226.2111343246
 11
154.1109008508
 21
226.2107650489
  0
POLYLINE
  8
13_KOMPONENTER
 62
7
  6
CONTINUOUS
 66
1
 70
0
  0
VERTEX
  8
13_KOMPONENTER
 62
7
  6
CONTINUOUS
 10
128.0949413012
 20
226.2114922356
  0
VERTEX
  8
13_KOMPONENTER
 62
7
  6
CONTINUOUS
 10
128.0936466747
 20
226.2115623286
  0
VERTEX
  8
13_KOMPONENTER
 62
7
  6
CONTINUOUS
 10
128.1021039867
 20
226.2111343246
  0
SEQEND
  0
POLYLINE
  8
13_KOMPONENTER
 62
7
  6
CONTINUOUS
 66
1
 70
0
  0
VERTEX
  8
13_KOMPONENTER
 62
7
  6
CONTINUOUS
 10
154.0949413012
 20
226.2114922356
  0
VERTEX
  8
13_KOMPONENTER
 62
7
  6
CONTINUOUS
 10
154.0936466747
 20
226.2115623285
  0
VERTEX
  8
13_KOMPONENTER
 62
7
  6
CONTINUOUS
 10
154.1021039867
 20
226.2111343246
  0
SEQEND
  0
LINE
  8
13_KOMPONENTER
 62
7
  6
CONTINUOUS
 10
29.6494493464
 20
226.2127124041
 11
29.5456774449
 21
226.2184771381
  0
POLYLINE
  8
13_KOMPONENTER
 62
7
  6
CONTINUOUS
 66
1
 70
0
  0
VERTEX
  8
13_KOMPONENTER
 62
7
  6
CONTINUOUS
 10
61.382950744
 20
232.1264159629
  0
VERTEX
  8
13_KOMPONENTER
 62
7
  6
CONTINUOUS
 10
61.4471907684
 20
232.1227488921
  0
VERTEX
  8
13_KOMPONENTER
 62
7
  6
CONTINUOUS
 10
61.5511381311
 20
232.105593389
  0
VERTEX
  8
13_KOMPONENTER
 62
7
  6
CONTINUOUS
 10
61.6534717644
 20
232.0747232395
  0
VERTEX
  8
13_KOMPONENTER
 62
7
  6
CONTINUOUS
 10
61.749061218
 20
232.0320861921
  0
VERTEX
  8
13_KOMPONENTER
 62
7
  6
CONTINUOUS
 10
61.8340895237
 20
231.9810402501
  0
VERTEX
  8
13_KOMPONENTER
 62
7
  6
CONTINUOUS
 10
61.9068026675
 20
231.9252729746
  0
VERTEX
  8
13_KOMPONENTER
 62
7
  6
CONTINUOUS
 10
61.9683969312
 20
231.8666791939
  0
VERTEX
  8
13_KOMPONENTER
 62
7
  6
CONTINUOUS
 10
62.0202491164
 20
231.806307405
  0
VERTEX
  8
13_KOMPONENTER
 62
7
  6
CONTINUOUS
 10
62.0623887062
 20
231.7464566946
  0
VERTEX
  8
13_KOMPONENTER
 62
7
  6
CONTINUOUS
 10
62.0950373349
 20
231.689761059
  0
VERTEX
  8
13_KOMPONENTER
 62
7
  6
CONTINUOUS
 10
62.1189122281
 20
231.6387075504
  0
VERTEX
  8
13_KOMPONENTER
 62
7
  6
CONTINUOUS
 10
62.1351398815
 20
231.5954519249
  0
VERTEX
  8
13_KOMPONENTER
 62
7
  6
CONTINUOUS
 10
62.1449339706
 20
231.5623647217
  0
VERTEX
  8
13_KOMPONENTER
 62
7
  6
CONTINUOUS
 10
62.1498393407
 20
231.5409413043
  0
VERTEX
  8
13_KOMPONENTER
 62
7
  6
CONTINUOUS
 10
62.1501755309
 20
231.5391951881
  0
SEQEND
  0
LINE
  8
13_KOMPONENTER
 62
7
  6
CONTINUOUS
 10
128.092233711
 20
226.2116437031
 11
128.0855792997
 21
226.2123562621
  0
LINE
  8
13_KOMPONENTER
 62
7
  6
CONTINUOUS
 10
154.0922336352
 20
226.2116437073
 11
154.0855792414
 21
226.2123562647
  0
POLYLINE
  8
13_KOMPONENTER
 62
7
  6
CONTINUOUS
 66
1
 70
0
  0
VERTEX
  8
13_KOMPONENTER
 62
7
  6
CONTINUOUS
 10
74.9757911103
 20
239.4887915731
  0
VERTEX
  8
13_KOMPONENTER
 62
7
  6
CONTINUOUS
 10
74.8542901118
 20
239.5080601047
  0
VERTEX
  8
13_KOMPONENTER
 62
7
  6
CONTINUOUS
 10
74.7390949264
 20
239.5422535174
  0
VERTEX
  8
13_KOMPONENTER
 62
7
  6
CONTINUOUS
 10
74.6327076692
 20
239.5891716693
  0
VERTEX
  8
13_KOMPONENTER
 62
7
  6
CONTINUOUS
 10
74.5367421416
 20
239.6463506897
  0
VERTEX
  8
13_KOMPONENTER
 62
7
  6
CONTINUOUS
 10
74.4521815007
 20
239.7112035703
  0
VERTEX
  8
13_KOMPONENTER
 62
7
  6
CONTINUOUS
 10
74.3794427643
 20
239.7811497268
  0
VERTEX
  8
13_KOMPONENTER
 62
7
  6
CONTINUOUS
 10
74.318373619
 20
239.8538201491
  0
VERTEX
  8
13_KOMPONENTER
 62
7
  6
CONTINUOUS
 10
74.2683616296
 20
239.9272077271
  0
VERTEX
  8
13_KOMPONENTER
 62
7
  6
CONTINUOUS
 10
74.2285957304
 20
239.9995315998
  0
VERTEX
  8
13_KOMPONENTER
 62
7
  6
CONTINUOUS
 10
74.1983958091
 20
240.0685243794
  0
VERTEX
  8
13_KOMPONENTER
 62
7
  6
CONTINUOUS
 10
74.1768252873
 20
240.1318136836
  0
VERTEX
  8
13_KOMPONENTER
 62
7
  6
CONTINUOUS
 10
74.1625620217
 20
240.1874497265
  0
VERTEX
  8
13_KOMPONENTER
 62
7
  6
CONTINUOUS
 10
74.1541867586
 20
240.233268279
  0
VERTEX
  8
13_KOMPONENTER
 62
7
  6
CONTINUOUS
 10
74.1500970467
 20
240.2674861787
  0
SEQEND
  0
POLYLINE
  8
13_KOMPONENTER
 62
7
  6
CONTINUOUS
 66
1
 70
0
  0
VERTEX
  8
13_KOMPONENTER
 62
7
  6
CONTINUOUS
 10
87.2439501575
 20
231.9808872409
  0
VERTEX
  8
13_KOMPONENTER
 62
7
  6
CONTINUOUS
 10
87.3803693881
 20
231.9587222616
  0
VERTEX
  8
13_KOMPONENTER
 62
7
  6
CONTINUOUS
 10
87.5118931567
 20
231.9180962291
  0
VERTEX
  8
13_KOMPONENTER
 62
7
  6
CONTINUOUS
 10
87.6366246227
 20
231.859704704
  0
VERTEX
  8
13_KOMPONENTER
 62
7
  6
CONTINUOUS
 10
87.7526739583
 20
231.7842590267
  0
VERTEX
  8
13_KOMPONENTER
 62
7
  6
CONTINUOUS
 10
87.8580858495
 20
231.6925276253
  0
VERTEX
  8
13_KOMPONENTER
 62
7
  6
CONTINUOUS
 10
87.9500665316
 20
231.586362938
  0
VERTEX
  8
13_KOMPONENTER
 62
7
  6
CONTINUOUS
 10
88.0240017544
 20
231.4722721237
  0
VERTEX
  8
13_KOMPONENTER
 62
7
  6
CONTINUOUS
 10
88.0781139646
 20
231.3582388518
  0
VERTEX
  8
13_KOMPONENTER
 62
7
  6
CONTINUOUS
 10
88.1148581407
 20
231.2476009384
  0
SEQEND
  0
POLYLINE
  8
13_KOMPONENTER
 62
7
  6
CONTINUOUS
 66
1
 70
0
  0
VERTEX
  8
13_KOMPONENTER
 62
7
  6
CONTINUOUS
 10
72.4746451609
 20
244.8452237342
  0
VERTEX
  8
13_KOMPONENTER
 62
7
  6
CONTINUOUS
 10
72.2559555019
 20
244.8887038884
  0
VERTEX
  8
13_KOMPONENTER
 62
7
  6
CONTINUOUS
 10
72.0211070234
 20
244.942051423
  0
VERTEX
  8
13_KOMPONENTER
 62
7
  6
CONTINUOUS
 10
71.8094865076
 20
244.9972427154
  0
VERTEX
  8
13_KOMPONENTER
 62
7
  6
CONTINUOUS
 10
71.6217863964
 20
245.0532708188
  0
VERTEX
  8
13_KOMPONENTER
 62
7
  6
CONTINUOUS
 10
71.4847591965
 20
245.0995314078
  0
SEQEND
  0
POLYLINE
  8
13_KOMPONENTER
 62
7
  6
CONTINUOUS
 66
1
 70
0
  0
VERTEX
  8
13_KOMPONENTER
 62
7
  6
CONTINUOUS
 10
71.2794590004
 20
245.1660020579
  0
VERTEX
  8
13_KOMPONENTER
 62
7
  6
CONTINUOUS
 10
71.0516307223
 20
245.22133366
  0
VERTEX
  8
13_KOMPONENTER
 62
7
  6
CONTINUOUS
 10
70.8322804467
 20
245.2527364661
  0
VERTEX
  8
13_KOMPONENTER
 62
7
  6
CONTINUOUS
 10
70.6702150771
 20
245.2600670343
  0
SEQEND
  0
POLYLINE
  8
13_KOMPONENTER
 62
7
  6
CONTINUOUS
 66
1
 70
0
  0
VERTEX
  8
13_KOMPONENTER
 62
7
  6
CONTINUOUS
 10
97.2794590004
 20
245.1660020579
  0
VERTEX
  8
13_KOMPONENTER
 62
7
  6
CONTINUOUS
 10
97.0516307223
 20
245.22133366
  0
VERTEX
  8
13_KOMPONENTER
 62
7
  6
CONTINUOUS
 10
96.8322804467
 20
245.2527364661
  0
VERTEX
  8
13_KOMPONENTER
 62
7
  6
CONTINUOUS
 10
96.6702150771
 20
245.2600670343
  0
SEQEND
  0
LINE
  8
13_KOMPONENTER
 62
7
  6
CONTINUOUS
 10
97.4847589465
 20
245.0995314972
 11
97.2794590004
 21
245.1660020579
  0
LINE
  8
13_KOMPONENTER
 62
7
  6
CONTINUOUS
 10
175.5983832441
 20
230.378432556
 11
175.5983832441
 21
235.4350670998
  0
LINE
  8
DEFAULT_1
 62
2
  6
CENTER
 10
177.5483832441
 20
224.2100398989
 11
177.5483832441
 21
247.2600673615
  0
POLYLINE
  8
13_KOMPONENTER
 62
7
  6
CONTINUOUS
 66
1
 70
0
  0
VERTEX
  8
13_KOMPONENTER
 62
7
  6
CONTINUOUS
 10
256.6221358371
 20
244.845226416
  0
VERTEX
  8
13_KOMPONENTER
 62
7
  6
CONTINUOUS
 10
256.4286246914
 20
244.8052076385
  0
VERTEX
  8
13_KOMPONENTER
 62
7
  6
CONTINUOUS
 10
256.2179806417
 20
244.7514150627
  0
VERTEX
  8
13_KOMPONENTER
 62
7
  6
CONTINUOUS
 10
256.0254816332
 20
244.6904438316
  0
VERTEX
  8
13_KOMPONENTER
 62
7
  6
CONTINUOUS
 10
255.8493577633
 20
244.6216438949
  0
VERTEX
  8
13_KOMPONENTER
 62
7
  6
CONTINUOUS
 10
255.6873079569
 20
244.5435415581
  0
VERTEX
  8
13_KOMPONENTER
 62
7
  6
CONTINUOUS
 10
255.5380097855
 20
244.454333609
  0
VERTEX
  8
13_KOMPONENTER
 62
7
  6
CONTINUOUS
 10
255.401762381
 20
244.3526241209
  0
VERTEX
  8
13_KOMPONENTER
 62
7
  6
CONTINUOUS
 10
255.2803310339
 20
244.2382035093
  0
VERTEX
  8
13_KOMPONENTER
 62
7
  6
CONTINUOUS
 10
255.1755865677
 20
244.1117160457
  0
VERTEX
  8
13_KOMPONENTER
 62
7
  6
CONTINUOUS
 10
255.0893774944
 20
243.9748213496
  0
VERTEX
  8
13_KOMPONENTER
 62
7
  6
CONTINUOUS
 10
255.0232205578
 20
243.8301443368
  0
VERTEX
  8
13_KOMPONENTER
 62
7
  6
CONTINUOUS
 10
254.9777653733
 20
243.6801634332
  0
VERTEX
  8
13_KOMPONENTER
 62
7
  6
CONTINUOUS
 10
254.9531924414
 20
243.5271814134
  0
VERTEX
  8
13_KOMPONENTER
 62
7
  6
CONTINUOUS
 10
254.948383253
 20
243.4223610764
  0
SEQEND
  0
LINE
  8
13_KOMPONENTER
 62
7
  6
CONTINUOUS
 10
256.8408110199
 20
244.8887038955
 11
256.6221213273
 21
244.8452237342
  0
LINE
  8
13_KOMPONENTER
 62
7
  6
CONTINUOUS
 10
280.1165601885
 20
239.4884021125
 11
280.0813773184
 21
239.4868920192
  0
LINE
  8
13_KOMPONENTER
 62
7
  6
CONTINUOUS
 10
74.9832553135
 20
231.9819890518
 11
75.0153831374
 21
231.9833141667
  0
LINE
  8
13_KOMPONENTER
 62
7
  6
CONTINUOUS
 10
293.7139108912
 20
232.1264174342
 11
296.4566202501
 21
232.170154519
  0
LINE
  8
13_KOMPONENTER
 62
7
  6
CONTINUOUS
 10
327.0118756641
 20
228.7850670998
 11
326.9483832441
 21
228.7850670998
  0
LINE
  8
13_KOMPONENTER
 62
7
  6
CONTINUOUS
 10
28.1483832441
 20
228.7850670998
 11
28.084890824
 21
228.7850670998
  0
LINE
  8
13_KOMPONENTER
 62
7
  6
CONTINUOUS
 10
307.8133318612
 20
229.2265381709
 11
303.4483832441
 21
229.2265381709
  0
LINE
  8
13_KOMPONENTER
 62
7
  6
CONTINUOUS
 10
51.6483832441
 20
229.2265381709
 11
47.2834346269
 21
229.2265381709
  0
LINE
  8
13_KOMPONENTER
 62
7
  6
CONTINUOUS
 10
40.3983839281
 20
229.819451273
 11
41.3983832443
 21
229.819451273
  0
LINE
  8
13_KOMPONENTER
 62
7
  6
CONTINUOUS
 10
313.6983832438
 20
229.819451273
 11
314.69838256
 21
229.819451273
  0
LINE
  8
13_KOMPONENTER
 62
7
  6
CONTINUOUS
 10
165.0956632822
 20
231.9850670998
 11
162.6483832441
 21
231.9850670998
  0
LINE
  8
13_KOMPONENTER
 62
7
  6
CONTINUOUS
 10
155.6483832441
 20
231.9850670998
 11
153.0153112295
 21
231.9850670998
  0
LINE
  8
13_KOMPONENTER
 62
7
  6
CONTINUOUS
 10
139.2814552552
 20
231.9850670998
 11
136.6483832441
 21
231.9850670998
  0
LINE
  8
13_KOMPONENTER
 62
7
  6
CONTINUOUS
 10
129.6483832441
 20
231.9850670998
 11
127.0153112296
 21
231.9850670998
  0
LINE
  8
13_KOMPONENTER
 62
7
  6
CONTINUOUS
 10
113.2814552552
 20
231.9850670998
 11
110.6483832441
 21
231.9850670998
  0
LINE
  8
13_KOMPONENTER
 62
7
  6
CONTINUOUS
 10
103.6483832441
 20
231.9850670998
 11
101.0153112296
 21
231.9850670998
  0
LINE
  8
13_KOMPONENTER
 62
7
  6
CONTINUOUS
 10
87.281455352
 20
231.9850670998
 11
84.6483832441
 21
231.9850670998
  0
LINE
  8
13_KOMPONENTER
 62
7
  6
CONTINUOUS
 10
77.6483832441
 20
231.9850670998
 11
75.0153108375
 21
231.9850670998
  0
LINE
  8
13_KOMPONENTER
 62
7
  6
CONTINUOUS
 10
190.0011032059
 20
231.9850670998
 11
192.4483832441
 21
231.9850670998
  0
LINE
  8
13_KOMPONENTER
 62
7
  6
CONTINUOUS
 10
199.4483832441
 20
231.9850670998
 11
202.0814552586
 21
231.9850670998
  0
LINE
  8
13_KOMPONENTER
 62
7
  6
CONTINUOUS
 10
215.8153112329
 20
231.9850670998
 11
218.4483832441
 21
231.9850670998
  0
LINE
  8
13_KOMPONENTER
 62
7
  6
CONTINUOUS
 10
225.4483832441
 20
231.9850670998
 11
228.0814552585
 21
231.9850670998
  0
LINE
  8
13_KOMPONENTER
 62
7
  6
CONTINUOUS
 10
241.8153112329
 20
231.9850670998
 11
244.4483832441
 21
231.9850670998
  0
LINE
  8
13_KOMPONENTER
 62
7
  6
CONTINUOUS
 10
251.4483832441
 20
231.9850670998
 11
254.0814552585
 21
231.9850670998
  0
LINE
  8
13_KOMPONENTER
 62
7
  6
CONTINUOUS
 10
267.8153111361
 20
231.9850670998
 11
270.4483832441
 21
231.9850670998
  0
LINE
  8
13_KOMPONENTER
 62
7
  6
CONTINUOUS
 10
277.4483832441
 20
231.9850670998
 11
280.0814556506
 21
231.9850670998
  0
LINE
  8
13_KOMPONENTER
 62
7
  6
CONTINUOUS
 10
179.1983832441
 20
235.7350670998
 11
175.8983832441
 21
235.7350670998
  0
LINE
  8
DEFAULT_1
 62
2
  6
CENTER
 10
21.2154980682
 20
235.9350670998
 11
336.0407104759
 21
235.9350670998
  0
LINE
  8
13_KOMPONENTER
 62
7
  6
CONTINUOUS
 10
58.640146238
 20
232.170154519
 11
61.3828555969
 21
232.1264174342
  0
LINE
  8
13_KOMPONENTER
 62
7
  6
CONTINUOUS
 10
242.9337580282
 20
226.2102893623
 11
242.9481930739
 21
226.2100524215
  0
POLYLINE
  8
13_KOMPONENTER
 62
7
  6
CONTINUOUS
 66
1
 70
0
  0
VERTEX
  8
13_KOMPONENTER
 62
7
  6
CONTINUOUS
 10
314.6983825589
 20
229.8194554614
  0
VERTEX
  8
13_KOMPONENTER
 62
7
  6
CONTINUOUS
 10
314.7440094526
 20
229.8180389485
  0
VERTEX
  8
13_KOMPONENTER
 62
7
  6
CONTINUOUS
 10
314.8177094193
 20
229.809864373
  0
VERTEX
  8
13_KOMPONENTER
 62
7
  6
CONTINUOUS
 10
314.8926063053
 20
229.7944011875
  0
VERTEX
  8
13_KOMPONENTER
 62
7
  6
CONTINUOUS
 10
314.9672389097
 20
229.7722757872
  0
VERTEX
  8
13_KOMPONENTER
 62
7
  6
CONTINUOUS
 10
315.0414042566
 20
229.7441176633
  0
VERTEX
  8
13_KOMPONENTER
 62
7
  6
CONTINUOUS
 10
315.115052436
 20
229.7104829689
  0
VERTEX
  8
13_KOMPONENTER
 62
7
  6
CONTINUOUS
 10
315.1878691286
 20
229.671952896
  0
VERTEX
  8
13_KOMPONENTER
 62
7
  6
CONTINUOUS
 10
315.2593429082
 20
229.6292814916
  0
VERTEX
  8
13_KOMPONENTER
 62
7
  6
CONTINUOUS
 10
315.3291062245
 20
229.5830994986
  0
VERTEX
  8
13_KOMPONENTER
 62
7
  6
CONTINUOUS
 10
315.3970649357
 20
229.5339031862
  0
VERTEX
  8
13_KOMPONENTER
 62
7
  6
CONTINUOUS
 10
315.463155155
 20
229.4820619251
  0
VERTEX
  8
13_KOMPONENTER
 62
7
  6
CONTINUOUS
 10
315.5273857109
 20
229.4278681267
  0
VERTEX
  8
13_KOMPONENTER
 62
7
  6
CONTINUOUS
 10
315.5895930275
 20
229.3717080091
  0
VERTEX
  8
13_KOMPONENTER
 62
7
  6
CONTINUOUS
 10
315.6498193613
 20
229.3137418524
  0
VERTEX
  8
13_KOMPONENTER
 62
7
  6
CONTINUOUS
 10
315.7080573113
 20
229.2541411529
  0
VERTEX
  8
13_KOMPONENTER
 62
7
  6
CONTINUOUS
 10
315.7642619486
 20
229.1930629679
  0
VERTEX
  8
13_KOMPONENTER
 62
7
  6
CONTINUOUS
 10
315.818384822
 20
229.1306275766
  0
VERTEX
  8
13_KOMPONENTER
 62
7
  6
CONTINUOUS
 10
315.870325349
 20
229.0669764359
  0
VERTEX
  8
13_KOMPONENTER
 62
7
  6
CONTINUOUS
 10
315.9199403251
 20
229.0022677638
  0
VERTEX
  8
13_KOMPONENTER
 62
7
  6
CONTINUOUS
 10
315.9669880914
 20
228.9367555078
  0
VERTEX
  8
13_KOMPONENTER
 62
7
  6
CONTINUOUS
 10
316.0112178446
 20
228.8706775227
  0
VERTEX
  8
13_KOMPONENTER
 62
7
  6
CONTINUOUS
 10
316.052470167
 20
228.8040798584
  0
VERTEX
  8
13_KOMPONENTER
 62
7
  6
CONTINUOUS
 10
316.0902192667
 20
228.7375200826
  0
VERTEX
  8
13_KOMPONENTER
 62
7
  6
CONTINUOUS
 10
316.1235298698
 20
228.6723857928
  0
VERTEX
  8
13_KOMPONENTER
 62
7
  6
CONTINUOUS
 10
316.1514149526
 20
228.6106086729
  0
VERTEX
  8
13_KOMPONENTER
 62
7
  6
CONTINUOUS
 10
316.1729671015
 20
228.5547388747
  0
VERTEX
  8
13_KOMPONENTER
 62
7
  6
CONTINUOUS
 10
316.1876903192
 20
228.507743833
  0
VERTEX
  8
13_KOMPONENTER
 62
7
  6
CONTINUOUS
 10
316.1959688527
 20
228.4718050864
  0
SEQEND
  0
POLYLINE
  8
13_KOMPONENTER
 62
7
  6
CONTINUOUS
 66
1
 70
0
  0
VERTEX
  8
13_KOMPONENTER
 62
7
  6
CONTINUOUS
 10
164.3122860852
 20
231.9850672065
  0
VERTEX
  8
13_KOMPONENTER
 62
7
  6
CONTINUOUS
 10
164.3977336974
 20
231.981197289
  0
VERTEX
  8
13_KOMPONENTER
 62
7
  6
CONTINUOUS
 10
164.522130212
 20
231.9615182321
  0
VERTEX
  8
13_KOMPONENTER
 62
7
  6
CONTINUOUS
 10
164.6381896362
 20
231.9272536319
  0
VERTEX
  8
13_KOMPONENTER
 62
7
  6
CONTINUOUS
 10
164.7443477175
 20
231.8808574106
  0
VERTEX
  8
13_KOMPONENTER
 62
7
  6
CONTINUOUS
 10
164.8395547729
 20
231.8248413969
  0
VERTEX
  8
13_KOMPONENTER
 62
7
  6
CONTINUOUS
 10
164.9231813892
 20
231.7617364546
  0
VERTEX
  8
13_KOMPONENTER
 62
7
  6
CONTINUOUS
 10
164.9950326308
 20
231.6940053251
  0
VERTEX
  8
13_KOMPONENTER
 62
7
  6
CONTINUOUS
 10
165.0551229114
 20
231.6242001346
  0
VERTEX
  8
13_KOMPONENTER
 62
7
  6
CONTINUOUS
 10
165.1034851226
 20
231.5553628141
  0
VERTEX
  8
13_KOMPONENTER
 62
7
  6
CONTINUOUS
 10
165.1406952289
 20
231.4905057523
  0
VERTEX
  8
13_KOMPONENTER
 62
7
  6
CONTINUOUS
 10
165.1678076615
 20
231.4324407308
  0
VERTEX
  8
13_KOMPONENTER
 62
7
  6
CONTINUOUS
 10
165.1862023626
 20
231.3837305745
  0
VERTEX
  8
13_KOMPONENTER
 62
7
  6
CONTINUOUS
 10
165.1975444562
 20
231.3462879284
  0
VERTEX
  8
13_KOMPONENTER
 62
7
  6
CONTINUOUS
 10
165.2035490848
 20
231.321366917
  0
VERTEX
  8
13_KOMPONENTER
 62
7
  6
CONTINUOUS
 10
165.2059064828
 20
231.30900947
  0
VERTEX
  8
13_KOMPONENTER
 62
7
  6
CONTINUOUS
 10
165.2060279092
 20
231.3082567703
  0
SEQEND
  0
LINE
  8
13_KOMPONENTER
 62
7
  6
CONTINUOUS
 10
75.0153982912
 20
239.4869949488
 11
74.9757911103
 21
239.4887915731
  0
LINE
  8
13_KOMPONENTER
 62
7
  6
CONTINUOUS
 10
280.0813588264
 20
231.9830391963
 11
280.1252938445
 21
231.9809414761
  0
POLYLINE
  8
13_KOMPONENTER
 62
7
  6
CONTINUOUS
 66
1
 70
0
  0
VERTEX
  8
13_KOMPONENTER
 62
7
  6
CONTINUOUS
 10
98.4746451608
 20
244.8452237342
  0
VERTEX
  8
13_KOMPONENTER
 62
7
  6
CONTINUOUS
 10
98.2559554682
 20
244.8887038955
  0
VERTEX
  8
13_KOMPONENTER
 62
7
  6
CONTINUOUS
 10
98.0211069769
 20
244.9420514343
  0
VERTEX
  8
13_KOMPONENTER
 62
7
  6
CONTINUOUS
 10
97.8094864651
 20
244.9972427273
  0
VERTEX
  8
13_KOMPONENTER
 62
7
  6
CONTINUOUS
 10
97.6217863709
 20
245.053270827
  0
VERTEX
  8
13_KOMPONENTER
 62
7
  6
CONTINUOUS
 10
97.4847591963
 20
245.0995314079
  0
SEQEND
  0
LINE
  8
13_KOMPONENTER
 62
7
  6
CONTINUOUS
 10
179.4983832441
 20
230.378432556
 11
179.4983832441
 21
235.4350670998
  0
POLYLINE
  8
13_KOMPONENTER
 62
7
  6
CONTINUOUS
 66
1
 70
0
  0
VERTEX
  8
13_KOMPONENTER
 62
7
  6
CONTINUOUS
 10
295.2041705745
 20
243.4600670998
  0
VERTEX
  8
13_KOMPONENTER
 62
7
  6
CONTINUOUS
 10
295.0594998878
 20
243.4533751028
  0
VERTEX
  8
13_KOMPONENTER
 62
7
  6
CONTINUOUS
 10
294.9141228875
 20
243.4341704748
  0
VERTEX
  8
13_KOMPONENTER
 62
7
  6
CONTINUOUS
 10
294.7632123955
 20
243.4022392671
  0
VERTEX
  8
13_KOMPONENTER
 62
7
  6
CONTINUOUS
 10
294.6038254395
 20
243.3562877925
  0
VERTEX
  8
13_KOMPONENTER
 62
7
  6
CONTINUOUS
 10
294.4364538254
 20
243.295506259
  0
VERTEX
  8
13_KOMPONENTER
 62
7
  6
CONTINUOUS
 10
294.2623927264
 20
243.2197768187
  0
VERTEX
  8
13_KOMPONENTER
 62
7
  6
CONTINUOUS
 10
294.082977265
 20
243.1297750721
  0
VERTEX
  8
13_KOMPONENTER
 62
7
  6
CONTINUOUS
 10
293.8992680748
 20
243.0271082928
  0
SEQEND
  0
POLYLINE
  8
13_KOMPONENTER
 62
7
  6
CONTINUOUS
 66
1
 70
0
  0
VERTEX
  8
13_KOMPONENTER
 62
7
  6
CONTINUOUS
 10
284.426551411
 20
245.2600670343
  0
VERTEX
  8
13_KOMPONENTER
 62
7
  6
CONTINUOUS
 10
284.2644860414
 20
245.2527364661
  0
VERTEX
  8
13_KOMPONENTER
 62
7
  6
CONTINUOUS
 10
284.0451357658
 20
245.22133366
  0
SEQEND
  0
POLYLINE
  8
13_KOMPONENTER
 62
7
  6
CONTINUOUS
 66
1
 70
0
  0
VERTEX
  8
13_KOMPONENTER
 62
7
  6
CONTINUOUS
 10
258.426551411
 20
245.2600670343
  0
VERTEX
  8
13_KOMPONENTER
 62
7
  6
CONTINUOUS
 10
258.2644860414
 20
245.2527364661
  0
VERTEX
  8
13_KOMPONENTER
 62
7
  6
CONTINUOUS
 10
258.0451357658
 20
245.22133366
  0
SEQEND
  0
POLYLINE
  8
13_KOMPONENTER
 62
7
  6
CONTINUOUS
 66
1
 70
0
  0
VERTEX
  8
13_KOMPONENTER
 62
7
  6
CONTINUOUS
 10
166.6551182506
 20
245.2600670992
  0
VERTEX
  8
13_KOMPONENTER
 62
7
  6
CONTINUOUS
 10
166.48769277
 20
245.2536695415
  0
VERTEX
  8
13_KOMPONENTER
 62
7
  6
CONTINUOUS
 10
166.2994971238
 20
245.2289724965
  0
VERTEX
  8
13_KOMPONENTER
 62
7
  6
CONTINUOUS
 10
166.1143202371
 20
245.1826312898
  0
VERTEX
  8
13_KOMPONENTER
 62
7
  6
CONTINUOUS
 10
165.9348695015
 20
245.1119686798
  0
VERTEX
  8
13_KOMPONENTER
 62
7
  6
CONTINUOUS
 10
165.7658706366
 20
245.0159026437
  0
VERTEX
  8
13_KOMPONENTER
 62
7
  6
CONTINUOUS
 10
165.613146944
 20
244.8958233985
  0
VERTEX
  8
13_KOMPONENTER
 62
7
  6
CONTINUOUS
 10
165.4817434646
 20
244.7552939014
  0
VERTEX
  8
13_KOMPONENTER
 62
7
  6
CONTINUOUS
 10
165.3738986248
 20
244.5973298359
  0
VERTEX
  8
13_KOMPONENTER
 62
7
  6
CONTINUOUS
 10
165.2909490739
 20
244.4245207299
  0
VERTEX
  8
13_KOMPONENTER
 62
7
  6
CONTINUOUS
 10
165.2339957986
 20
244.2395332139
  0
VERTEX
  8
13_KOMPONENTER
 62
7
  6
CONTINUOUS
 10
165.203729177
 20
244.0451669893
  0
VERTEX
  8
13_KOMPONENTER
 62
7
  6
CONTINUOUS
 10
165.1983833071
 20
243.9176439306
  0
SEQEND
  0
POLYLINE
  8
13_KOMPONENTER
 62
7
  6
CONTINUOUS
 66
1
 70
0
  0
VERTEX
  8
13_KOMPONENTER
 62
7
  6
CONTINUOUS
 10
51.6386661667
 20
239.1745083096
  0
VERTEX
  8
13_KOMPONENTER
 62
7
  6
CONTINUOUS
 10
50.6739335023
 20
239.1555450949
  0
VERTEX
  8
13_KOMPONENTER
 62
7
  6
CONTINUOUS
 10
46.89290352
 20
239.076929745
  0
SEQEND
  0
LINE
  8
13_KOMPONENTER
 62
7
  6
CONTINUOUS
 10
61.3828459403
 20
239.3437391312
 11
58.640146895
 21
239.3000187825
  0
LINE
  8
13_KOMPONENTER
 62
7
  6
CONTINUOUS
 10
280.0814556462
 20
239.4850670998
 11
277.4483832441
 21
239.4850670998
  0
LINE
  8
13_KOMPONENTER
 62
7
  6
CONTINUOUS
 10
270.4483832441
 20
239.4850670998
 11
267.8153111322
 21
239.4850670998
  0
LINE
  8
13_KOMPONENTER
 62
7
  6
CONTINUOUS
 10
254.0814552547
 20
239.4850670998
 11
251.4483832441
 21
239.4850670998
  0
LINE
  8
13_KOMPONENTER
 62
7
  6
CONTINUOUS
 10
244.4483832441
 20
239.4850670998
 11
241.8153112291
 21
239.4850670998
  0
LINE
  8
13_KOMPONENTER
 62
7
  6
CONTINUOUS
 10
228.0814552547
 20
239.4850670998
 11
225.4483832441
 21
239.4850670998
  0
LINE
  8
13_KOMPONENTER
 62
7
  6
CONTINUOUS
 10
218.4483832441
 20
239.4850670998
 11
215.8153112291
 21
239.4850670998
  0
LINE
  8
13_KOMPONENTER
 62
7
  6
CONTINUOUS
 10
202.0814552548
 20
239.4850670998
 11
199.4483832441
 21
239.4850670998
  0
LINE
  8
13_KOMPONENTER
 62
7
  6
CONTINUOUS
 10
192.4483832441
 20
239.4850670998
 11
190.0011032102
 21
239.4850670998
  0
LINE
  8
13_KOMPONENTER
 62
7
  6
CONTINUOUS
 10
75.0153108419
 20
239.4850670998
 11
77.6483832441
 21
239.4850670998
  0
LINE
  8
13_KOMPONENTER
 62
7
  6
CONTINUOUS
 10
84.6483832441
 20
239.4850670998
 11
87.2814553559
 21
239.4850670998
  0
LINE
  8
13_KOMPONENTER
 62
7
  6
CONTINUOUS
 10
101.0153112334
 20
239.4850670998
 11
103.6483832441
 21
239.4850670998
  0
LINE
  8
13_KOMPONENTER
 62
7
  6
CONTINUOUS
 10
110.6483832441
 20
239.4850670998
 11
113.281455259
 21
239.4850670998
  0
LINE
  8
13_KOMPONENTER
 62
7
  6
CONTINUOUS
 10
127.0153112334
 20
239.4850670998
 11
129.6483832441
 21
239.4850670998
  0
LINE
  8
13_KOMPONENTER
 62
7
  6
CONTINUOUS
 10
136.6483832441
 20
239.4850670998
 11
139.281455259
 21
239.4850670998
  0
LINE
  8
13_KOMPONENTER
 62
7
  6
CONTINUOUS
 10
153.0153112333
 20
239.4850670998
 11
155.6483832441
 21
239.4850670998
  0
LINE
  8
13_KOMPONENTER
 62
7
  6
CONTINUOUS
 10
162.6483832441
 20
239.4850670998
 11
165.0956632779
 21
239.4850670998
  0
LINE
  8
13_KOMPONENTER
 62
7
  6
CONTINUOUS
 10
327.0118756641
 20
242.6850670998
 11
326.1615833382
 21
242.6850670998
  0
LINE
  8
13_KOMPONENTER
 62
7
  6
CONTINUOUS
 10
28.084890824
 20
242.6850670998
 11
28.9351831499
 21
242.6850670998
  0
LINE
  8
13_KOMPONENTER
 62
7
  6
CONTINUOUS
 10
47.1483832441
 20
242.7100670998
 11
29.1483832441
 21
242.7100670998
  0
LINE
  8
13_KOMPONENTER
 62
7
  6
CONTINUOUS
 10
307.9483832441
 20
242.7100670998
 11
325.9483832441
 21
242.7100670998
  0
LINE
  8
13_KOMPONENTER
 62
7
  6
CONTINUOUS
 10
304.9483533495
 20
243.4600670998
 11
295.2042086159
 21
243.4600670998
  0
LINE
  8
13_KOMPONENTER
 62
7
  6
CONTINUOUS
 10
278.7584063328
 20
243.4600670998
 11
269.1383616113
 21
243.4600670998
  0
LINE
  8
13_KOMPONENTER
 62
7
  6
CONTINUOUS
 10
252.7584063328
 20
243.4600670998
 11
243.1383616113
 21
243.4600670998
  0
LINE
  8
13_KOMPONENTER
 62
7
  6
CONTINUOUS
 10
226.7584063328
 20
243.4600670998
 11
217.1383616113
 21
243.4600670998
  0
LINE
  8
13_KOMPONENTER
 62
7
  6
CONTINUOUS
 10
200.7584063328
 20
243.4600670998
 11
191.13836161
 21
243.4600670998
  0
LINE
  8
13_KOMPONENTER
 62
7
  6
CONTINUOUS
 10
50.1483832441
 20
243.4600670998
 11
59.8925578723
 21
243.4600670998
  0
LINE
  8
13_KOMPONENTER
 62
7
  6
CONTINUOUS
 10
76.3383601553
 20
243.4600670998
 11
85.9584048768
 21
243.4600670998
  0
LINE
  8
13_KOMPONENTER
 62
7
  6
CONTINUOUS
 10
102.3383601553
 20
243.4600670998
 11
111.9584048768
 21
243.4600670998
  0
LINE
  8
13_KOMPONENTER
 62
7
  6
CONTINUOUS
 10
128.3383601553
 20
243.4600670998
 11
137.9584048768
 21
243.4600670998
  0
LINE
  8
13_KOMPONENTER
 62
7
  6
CONTINUOUS
 10
154.3383601553
 20
243.4600670998
 11
163.9584048782
 21
243.4600670998
  0
LINE
  8
13_KOMPONENTER
 62
7
  6
CONTINUOUS
 10
26.4641656712
 20
245.260066728
 11
26.7182644858
 21
245.2600670998
  0
LINE
  8
13_KOMPONENTER
 62
7
  6
CONTINUOUS
 10
29.1483832441
 20
245.2600670998
 11
325.9483832441
 21
245.2600670998
  0
LINE
  8
13_KOMPONENTER
 62
7
  6
CONTINUOUS
 10
328.3785020023
 20
245.2600670998
 11
328.6319971376
 21
245.2600670998
  0
LINE
  8
13_KOMPONENTER
 62
7
  6
CONTINUOUS
 10
296.4566195931
 20
239.3000187825
 11
293.7139205478
 21
239.3437391312
  0
POLYLINE
  8
13_KOMPONENTER
 62
7
  6
CONTINUOUS
 66
1
 70
0
  0
VERTEX
  8
13_KOMPONENTER
 62
7
  6
CONTINUOUS
 10
308.2038629681
 20
239.076929745
  0
VERTEX
  8
13_KOMPONENTER
 62
7
  6
CONTINUOUS
 10
304.4228329859
 20
239.1555450949
  0
VERTEX
  8
13_KOMPONENTER
 62
7
  6
CONTINUOUS
 10
303.4581003215
 20
239.1745083096
  0
SEQEND
  0
POLYLINE
  8
13_KOMPONENTER
 62
7
  6
CONTINUOUS
 66
1
 70
0
  0
VERTEX
  8
13_KOMPONENTER
 62
7
  6
CONTINUOUS
 10
59.8925959136
 20
243.4600670998
  0
VERTEX
  8
13_KOMPONENTER
 62
7
  6
CONTINUOUS
 10
60.0372666003
 20
243.4533751028
  0
VERTEX
  8
13_KOMPONENTER
 62
7
  6
CONTINUOUS
 10
60.1826436007
 20
243.4341704748
  0
VERTEX
  8
13_KOMPONENTER
 62
7
  6
CONTINUOUS
 10
60.3335540926
 20
243.4022392671
  0
VERTEX
  8
13_KOMPONENTER
 62
7
  6
CONTINUOUS
 10
60.4929410486
 20
243.3562877925
  0
VERTEX
  8
13_KOMPONENTER
 62
7
  6
CONTINUOUS
 10
60.6603126627
 20
243.295506259
  0
VERTEX
  8
13_KOMPONENTER
 62
7
  6
CONTINUOUS
 10
60.8343737617
 20
243.2197768187
  0
VERTEX
  8
13_KOMPONENTER
 62
7
  6
CONTINUOUS
 10
61.0137892231
 20
243.1297750721
  0
VERTEX
  8
13_KOMPONENTER
 62
7
  6
CONTINUOUS
 10
61.1974984133
 20
243.0271082928
  0
SEQEND
  0
POLYLINE
  8
13_KOMPONENTER
 62
7
  6
CONTINUOUS
 66
1
 70
0
  0
VERTEX
  8
13_KOMPONENTER
 62
7
  6
CONTINUOUS
 10
190.7844818412
 20
239.4850670401
  0
VERTEX
  8
13_KOMPONENTER
 62
7
  6
CONTINUOUS
 10
190.6955287087
 20
239.4892613089
  0
VERTEX
  8
13_KOMPONENTER
 62
7
  6
CONTINUOUS
 10
190.571456511
 20
239.5093437548
  0
VERTEX
  8
13_KOMPONENTER
 62
7
  6
CONTINUOUS
 10
190.4557772366
 20
239.5439102537
  0
VERTEX
  8
13_KOMPONENTER
 62
7
  6
CONTINUOUS
 10
190.350008572
 20
239.5905153488
  0
VERTEX
  8
13_KOMPONENTER
 62
7
  6
CONTINUOUS
 10
190.2551656079
 20
239.6466681261
  0
VERTEX
  8
13_KOMPONENTER
 62
7
  6
CONTINUOUS
 10
190.1718551411
 20
239.7098660495
  0
VERTEX
  8
13_KOMPONENTER
 62
7
  6
CONTINUOUS
 10
190.1002594897
 20
239.7776795816
  0
VERTEX
  8
13_KOMPONENTER
 62
7
  6
CONTINUOUS
 10
190.0403663179
 20
239.8475844345
  0
VERTEX
  8
13_KOMPONENTER
 62
7
  6
CONTINUOUS
 10
189.9921914297
 20
239.9164968545
  0
VERTEX
  8
13_KOMPONENTER
 62
7
  6
CONTINUOUS
 10
189.9551906323
 20
239.9813395672
  0
VERTEX
  8
13_KOMPONENTER
 62
7
  6
CONTINUOUS
 10
189.9283030011
 20
240.0392661277
  0
VERTEX
  8
13_KOMPONENTER
 62
7
  6
CONTINUOUS
 10
189.9101009389
 20
240.0877856745
  0
VERTEX
  8
13_KOMPONENTER
 62
7
  6
CONTINUOUS
 10
189.898924578
 20
240.1249613307
  0
VERTEX
  8
13_KOMPONENTER
 62
7
  6
CONTINUOUS
 10
189.8930453087
 20
240.149587082
  0
VERTEX
  8
13_KOMPONENTER
 62
7
  6
CONTINUOUS
 10
189.8926200106
 20
240.1516539397
  0
SEQEND
  0
POLYLINE
  8
13_KOMPONENTER
 62
7
  6
CONTINUOUS
 66
1
 70
0
  0
VERTEX
  8
13_KOMPONENTER
 62
7
  6
CONTINUOUS
 10
293.713824107
 20
239.3437406209
  0
VERTEX
  8
13_KOMPONENTER
 62
7
  6
CONTINUOUS
 10
293.6455711457
 20
239.3478119928
  0
VERTEX
  8
13_KOMPONENTER
 62
7
  6
CONTINUOUS
 10
293.5409637468
 20
239.3656621819
  0
VERTEX
  8
13_KOMPONENTER
 62
7
  6
CONTINUOUS
 10
293.4384190906
 20
239.3972709458
  0
VERTEX
  8
13_KOMPONENTER
 62
7
  6
CONTINUOUS
 10
293.342931171
 20
239.4405870359
  0
VERTEX
  8
13_KOMPONENTER
 62
7
  6
CONTINUOUS
 10
293.2581489404
 20
239.4922342209
  0
VERTEX
  8
13_KOMPONENTER
 62
7
  6
CONTINUOUS
 10
293.185780863
 20
239.548497768
  0
VERTEX
  8
13_KOMPONENTER
 62
7
  6
CONTINUOUS
 10
293.1246564031
 20
239.6074215672
  0
VERTEX
  8
13_KOMPONENTER
 62
7
  6
CONTINUOUS
 10
293.0733583096
 20
239.6679478094
  0
VERTEX
  8
13_KOMPONENTER
 62
7
  6
CONTINUOUS
 10
293.031827279
 20
239.7277421678
  0
VERTEX
  8
13_KOMPONENTER
 62
7
  6
CONTINUOUS
 10
292.9997905216
 20
239.7841678818
  0
VERTEX
  8
13_KOMPONENTER
 62
7
  6
CONTINUOUS
 10
292.9764797645
 20
239.8347665201
  0
VERTEX
  8
13_KOMPONENTER
 62
7
  6
CONTINUOUS
 10
292.9607399414
 20
239.8774024474
  0
VERTEX
  8
13_KOMPONENTER
 62
7
  6
CONTINUOUS
 10
292.9513386543
 20
239.9097252276
  0
VERTEX
  8
13_KOMPONENTER
 62
7
  6
CONTINUOUS
 10
292.9467114186
 20
239.9303307219
  0
VERTEX
  8
13_KOMPONENTER
 62
7
  6
CONTINUOUS
 10
292.946401255
 20
239.931977241
  0
SEQEND
  0
POLYLINE
  8
13_KOMPONENTER
 62
7
  6
CONTINUOUS
 66
1
 70
0
  0
VERTEX
  8
13_KOMPONENTER
 62
7
  6
CONTINUOUS
 10
189.8983831834
 20
243.9176486985
  0
VERTEX
  8
13_KOMPONENTER
 62
7
  6
CONTINUOUS
 10
189.8925359409
 20
244.0509227731
  0
VERTEX
  8
13_KOMPONENTER
 62
7
  6
CONTINUOUS
 10
189.8615683687
 20
244.2447208923
  0
VERTEX
  8
13_KOMPONENTER
 62
7
  6
CONTINUOUS
 10
189.8040542159
 20
244.4290066349
  0
VERTEX
  8
13_KOMPONENTER
 62
7
  6
CONTINUOUS
 10
189.7207268007
 20
244.601028995
  0
VERTEX
  8
13_KOMPONENTER
 62
7
  6
CONTINUOUS
 10
189.6127075988
 20
244.7581764986
  0
VERTEX
  8
13_KOMPONENTER
 62
7
  6
CONTINUOUS
 10
189.4813293354
 20
244.8979201736
  0
VERTEX
  8
13_KOMPONENTER
 62
7
  6
CONTINUOUS
 10
189.3287980398
 20
245.0173064413
  0
VERTEX
  8
13_KOMPONENTER
 62
7
  6
CONTINUOUS
 10
189.1601173936
 20
245.1128141764
  0
VERTEX
  8
13_KOMPONENTER
 62
7
  6
CONTINUOUS
 10
188.9810695267
 20
245.1830681536
  0
VERTEX
  8
13_KOMPONENTER
 62
7
  6
CONTINUOUS
 10
188.7963375591
 20
245.2291466411
  0
VERTEX
  8
13_KOMPONENTER
 62
7
  6
CONTINUOUS
 10
188.60860048
 20
245.2537068506
  0
VERTEX
  8
13_KOMPONENTER
 62
7
  6
CONTINUOUS
 10
188.4416483652
 20
245.2600670992
  0
SEQEND
  0
LINE
  8
13_KOMPONENTER
 62
7
  6
CONTINUOUS
 10
189.8983832441
 20
227.5522452448
 11
189.8983832441
 21
231.3428272957
  0
LINE
  8
13_KOMPONENTER
 62
7
  6
CONTINUOUS
 10
189.8983832441
 20
240.0198893547
 11
189.8983832441
 21
243.9176585789
  0
LINE
  8
13_KOMPONENTER
 62
7
  6
CONTINUOUS
 10
192.9483832441
 20
232.4850670998
 11
192.9483832441
 21
238.9850670998
  0
LINE
  8
13_KOMPONENTER
 62
7
  6
CONTINUOUS
 10
198.9483832441
 20
238.9850670998
 11
198.9483832441
 21
232.4850670998
  0
LINE
  8
13_KOMPONENTER
 62
7
  6
CONTINUOUS
 10
189.8907382117
 20
231.3082576923
 11
189.8907498911
 21
231.3083313726
  0
POLYLINE
  8
13_KOMPONENTER
 62
7
  6
CONTINUOUS
 66
1
 70
0
  0
VERTEX
  8
13_KOMPONENTER
 62
7
  6
CONTINUOUS
 10
189.8908578667
 20
231.3089964373
  0
VERTEX
  8
13_KOMPONENTER
 62
7
  6
CONTINUOUS
 10
189.8931993387
 20
231.3212812715
  0
VERTEX
  8
13_KOMPONENTER
 62
7
  6
CONTINUOUS
 10
189.8991608959
 20
231.3460594737
  0
VERTEX
  8
13_KOMPONENTER
 62
7
  6
CONTINUOUS
 10
189.9104179054
 20
231.3832954363
  0
VERTEX
  8
13_KOMPONENTER
 62
7
  6
CONTINUOUS
 10
189.9286745468
 20
231.431760275
  0
VERTEX
  8
13_KOMPONENTER
 62
7
  6
CONTINUOUS
 10
189.9555924198
 20
231.489576557
  0
VERTEX
  8
13_KOMPONENTER
 62
7
  6
CONTINUOUS
 10
189.9925580668
 20
231.5542187828
  0
VERTEX
  8
13_KOMPONENTER
 62
7
  6
CONTINUOUS
 10
190.0406366903
 20
231.6228997835
  0
VERTEX
  8
13_KOMPONENTER
 62
7
  6
CONTINUOUS
 10
190.1004131743
 20
231.6926165692
  0
VERTEX
  8
13_KOMPONENTER
 62
7
  6
CONTINUOUS
 10
190.1719327422
 20
231.7603341191
  0
VERTEX
  8
13_KOMPONENTER
 62
7
  6
CONTINUOUS
 10
190.2552189696
 20
231.8235020143
  0
VERTEX
  8
13_KOMPONENTER
 62
7
  6
CONTINUOUS
 10
190.3500790833
 20
231.8796552128
  0
VERTEX
  8
13_KOMPONENTER
 62
7
  6
CONTINUOUS
 10
190.455884874
 20
231.9262637
  0
VERTEX
  8
13_KOMPONENTER
 62
7
  6
CONTINUOUS
 10
190.5715907189
 20
231.9608213551
  0
VERTEX
  8
13_KOMPONENTER
 62
7
  6
CONTINUOUS
 10
190.6956413671
 20
231.9808835496
  0
VERTEX
  8
13_KOMPONENTER
 62
7
  6
CONTINUOUS
 10
190.7844811728
 20
231.9850672064
  0
SEQEND
  0
POLYLINE
  8
13_KOMPONENTER
 62
7
  6
CONTINUOUS
 66
1
 70
0
  0
VERTEX
  8
13_KOMPONENTER
 62
7
  6
CONTINUOUS
 10
257.6120072919
 20
245.0995314079
  0
VERTEX
  8
13_KOMPONENTER
 62
7
  6
CONTINUOUS
 10
257.4749801172
 20
245.053270827
  0
VERTEX
  8
13_KOMPONENTER
 62
7
  6
CONTINUOUS
 10
257.2872800231
 20
244.9972427273
  0
VERTEX
  8
13_KOMPONENTER
 62
7
  6
CONTINUOUS
 10
257.0756595113
 20
244.9420514343
  0
VERTEX
  8
13_KOMPONENTER
 62
7
  6
CONTINUOUS
 10
256.8408110199
 20
244.8887038955
  0
SEQEND
  0
LINE
  8
13_KOMPONENTER
 62
7
  6
CONTINUOUS
 10
87.3796346558
 20
239.5112398346
 11
87.2432766006
 21
239.4891853415
  0
POLYLINE
  8
13_KOMPONENTER
 62
7
  6
CONTINUOUS
 66
1
 70
0
  0
VERTEX
  8
13_KOMPONENTER
 62
7
  6
CONTINUOUS
 10
91.6265661392
 20
245.260067049
  0
VERTEX
  8
13_KOMPONENTER
 62
7
  6
CONTINUOUS
 10
91.4607227652
 20
245.2523985289
  0
VERTEX
  8
13_KOMPONENTER
 62
7
  6
CONTINUOUS
 10
91.2416621668
 20
245.2206541313
  0
SEQEND
  0
POLYLINE
  8
13_KOMPONENTER
 62
7
  6
CONTINUOUS
 66
1
 70
0
  0
VERTEX
  8
13_KOMPONENTER
 62
7
  6
CONTINUOUS
 10
65.6265775051
 20
245.2600663427
  0
VERTEX
  8
13_KOMPONENTER
 62
7
  6
CONTINUOUS
 10
65.4607215152
 20
245.2523947142
  0
VERTEX
  8
13_KOMPONENTER
 62
7
  6
CONTINUOUS
 10
65.2416564765
 20
245.2206536581
  0
SEQEND
  0
POLYLINE
  8
13_KOMPONENTER
 62
7
  6
CONTINUOUS
 66
1
 70
0
  0
VERTEX
  8
13_KOMPONENTER
 62
7
  6
CONTINUOUS
 10
267.8590622619
 20
239.4886927848
  0
VERTEX
  8
13_KOMPONENTER
 62
7
  6
CONTINUOUS
 10
267.7314924155
 20
239.5079933434
  0
VERTEX
  8
13_KOMPONENTER
 62
7
  6
CONTINUOUS
 10
267.6075255565
 20
239.543600104
  0
VERTEX
  8
13_KOMPONENTER
 62
7
  6
CONTINUOUS
 10
267.4891637531
 20
239.5949321325
  0
VERTEX
  8
13_KOMPONENTER
 62
7
  6
CONTINUOUS
 10
267.378324167
 20
239.6611892589
  0
VERTEX
  8
13_KOMPONENTER
 62
7
  6
CONTINUOUS
 10
267.2768303121
 20
239.7413559738
  0
VERTEX
  8
13_KOMPONENTER
 62
7
  6
CONTINUOUS
 10
267.1864589006
 20
239.8341288956
  0
VERTEX
  8
13_KOMPONENTER
 62
7
  6
CONTINUOUS
 10
267.1097637987
 20
239.9365058742
  0
VERTEX
  8
13_KOMPONENTER
 62
7
  6
CONTINUOUS
 10
267.0489456238
 20
240.0435360373
  0
VERTEX
  8
13_KOMPONENTER
 62
7
  6
CONTINUOUS
 10
267.0043799531
 20
240.1499287545
  0
VERTEX
  8
13_KOMPONENTER
 62
7
  6
CONTINUOUS
 10
266.9743113122
 20
240.252792035
  0
SEQEND
  0
POLYLINE
  8
13_KOMPONENTER
 62
7
  6
CONTINUOUS
 66
1
 70
0
  0
VERTEX
  8
13_KOMPONENTER
 62
7
  6
CONTINUOUS
 10
280.1252938445
 20
231.9809414761
  0
VERTEX
  8
13_KOMPONENTER
 62
7
  6
CONTINUOUS
 10
280.2470375075
 20
231.9610235875
  0
VERTEX
  8
13_KOMPONENTER
 62
7
  6
CONTINUOUS
 10
280.3620511526
 20
231.9262537489
  0
VERTEX
  8
13_KOMPONENTER
 62
7
  6
CONTINUOUS
 10
280.467945665
 20
231.8789391339
  0
VERTEX
  8
13_KOMPONENTER
 62
7
  6
CONTINUOUS
 10
280.5632823779
 20
231.8215583342
  0
VERTEX
  8
13_KOMPONENTER
 62
7
  6
CONTINUOUS
 10
280.6472290617
 20
231.756642734
  0
VERTEX
  8
13_KOMPONENTER
 62
7
  6
CONTINUOUS
 10
280.7194793287
 20
231.6866647266
  0
VERTEX
  8
13_KOMPONENTER
 62
7
  6
CONTINUOUS
 10
280.7801979898
 20
231.6139171558
  0
VERTEX
  8
13_KOMPONENTER
 62
7
  6
CONTINUOUS
 10
280.8299223294
 20
231.54043721
  0
VERTEX
  8
13_KOMPONENTER
 62
7
  6
CONTINUOUS
 10
280.869423815
 20
231.4680368792
  0
VERTEX
  8
13_KOMPONENTER
 62
7
  6
CONTINUOUS
 10
280.8993835978
 20
231.3989730813
  0
VERTEX
  8
13_KOMPONENTER
 62
7
  6
CONTINUOUS
 10
280.9206979159
 20
231.3357482194
  0
VERTEX
  8
13_KOMPONENTER
 62
7
  6
CONTINUOUS
 10
280.9346902866
 20
231.2804275275
  0
VERTEX
  8
13_KOMPONENTER
 62
7
  6
CONTINUOUS
 10
280.9428469586
 20
231.2350380199
  0
VERTEX
  8
13_KOMPONENTER
 62
7
  6
CONTINUOUS
 10
280.9467921098
 20
231.2012550472
  0
SEQEND
  0
LINE
  8
13_KOMPONENTER
 62
7
  6
CONTINUOUS
 10
189.8926200106
 20
240.1516539397
 11
189.890742521
 21
240.1618544582
  0
LINE
  8
13_KOMPONENTER
 62
7
  6
CONTINUOUS
 10
189.890742521
 20
240.1618544582
 11
189.8907502124
 21
240.161805941
  0
LINE
  8
13_KOMPONENTER
 62
7
  6
CONTINUOUS
 10
202.9483832441
 20
227.2100670998
 11
202.9483832441
 21
230.9850670998
  0
LINE
  8
13_KOMPONENTER
 62
7
  6
CONTINUOUS
 10
202.9483832441
 20
240.4850670998
 11
202.9483832441
 21
244.2600670998
  0
POLYLINE
  8
13_KOMPONENTER
 62
7
  6
CONTINUOUS
 66
1
 70
0
  0
VERTEX
  8
13_KOMPONENTER
 62
7
  6
CONTINUOUS
 10
283.6120072916
 20
245.0995314078
  0
VERTEX
  8
13_KOMPONENTER
 62
7
  6
CONTINUOUS
 10
283.4749800917
 20
245.0532708188
  0
VERTEX
  8
13_KOMPONENTER
 62
7
  6
CONTINUOUS
 10
283.2872799805
 20
244.9972427154
  0
VERTEX
  8
13_KOMPONENTER
 62
7
  6
CONTINUOUS
 10
283.0756594647
 20
244.942051423
  0
VERTEX
  8
13_KOMPONENTER
 62
7
  6
CONTINUOUS
 10
282.8408109862
 20
244.8887038884
  0
SEQEND
  0
POLYLINE
  8
13_KOMPONENTER
 62
7
  6
CONTINUOUS
 66
1
 70
0
  0
VERTEX
  8
13_KOMPONENTER
 62
7
  6
CONTINUOUS
 10
91.2416621668
 20
245.2206541313
  0
VERTEX
  8
13_KOMPONENTER
 62
7
  6
CONTINUOUS
 10
91.0140868113
 20
245.1650726113
  0
VERTEX
  8
13_KOMPONENTER
 62
7
  6
CONTINUOUS
 10
90.8120053659
 20
245.0995307232
  0
SEQEND
  0
POLYLINE
  8
13_KOMPONENTER
 62
7
  6
CONTINUOUS
 66
1
 70
0
  0
VERTEX
  8
13_KOMPONENTER
 62
7
  6
CONTINUOUS
 10
89.8221347056
 20
244.845226205
  0
VERTEX
  8
13_KOMPONENTER
 62
7
  6
CONTINUOUS
 10
89.6258899859
 20
244.8045823534
  0
VERTEX
  8
13_KOMPONENTER
 62
7
  6
CONTINUOUS
 10
89.4154412637
 20
244.7506909862
  0
VERTEX
  8
13_KOMPONENTER
 62
7
  6
CONTINUOUS
 10
89.2230951264
 20
244.6896031343
  0
VERTEX
  8
13_KOMPONENTER
 62
7
  6
CONTINUOUS
 10
89.0470804154
 20
244.6206552145
  0
VERTEX
  8
13_KOMPONENTER
 62
7
  6
CONTINUOUS
 10
88.8850997818
 20
244.5423566015
  0
VERTEX
  8
13_KOMPONENTER
 62
7
  6
CONTINUOUS
 10
88.7358467021
 20
244.4528892256
  0
VERTEX
  8
13_KOMPONENTER
 62
7
  6
CONTINUOUS
 10
88.599653382
 20
244.3508555173
  0
VERTEX
  8
13_KOMPONENTER
 62
7
  6
CONTINUOUS
 10
88.4783278913
 20
244.2360678415
  0
VERTEX
  8
13_KOMPONENTER
 62
7
  6
CONTINUOUS
 10
88.37377266
 20
244.1092084024
  0
VERTEX
  8
13_KOMPONENTER
 62
7
  6
CONTINUOUS
 10
88.2878272417
 20
243.9719446231
  0
VERTEX
  8
13_KOMPONENTER
 62
7
  6
CONTINUOUS
 10
88.2219996316
 20
243.826901316
  0
VERTEX
  8
13_KOMPONENTER
 62
7
  6
CONTINUOUS
 10
88.1769381895
 20
243.6765500015
  0
VERTEX
  8
13_KOMPONENTER
 62
7
  6
CONTINUOUS
 10
88.1528315554
 20
243.5231803422
  0
VERTEX
  8
13_KOMPONENTER
 62
7
  6
CONTINUOUS
 10
88.1483832535
 20
243.4223598305
  0
SEQEND
  0
LINE
  8
13_KOMPONENTER
 62
7
  6
CONTINUOUS
 10
90.0375131488
 20
244.8880064647
 11
89.8221217169
 21
244.8452238069
  0
LINE
  8
13_KOMPONENTER
 62
7
  6
CONTINUOUS
 10
64.0376068725
 20
244.8880262624
 11
63.8221215598
 21
244.8452237754
  0
POLYLINE
  8
13_KOMPONENTER
 62
7
  6
CONTINUOUS
 66
1
 70
0
  0
VERTEX
  8
13_KOMPONENTER
 62
7
  6
CONTINUOUS
 10
26.4641656721
 20
245.2600660379
  0
VERTEX
  8
13_KOMPONENTER
 62
7
  6
CONTINUOUS
 10
26.2633469579
 20
245.2310470338
  0
VERTEX
  8
13_KOMPONENTER
 62
7
  6
CONTINUOUS
 10
26.0489202342
 20
245.1391163826
  0
SEQEND
  0
LINE
  8
13_KOMPONENTER
 62
7
  6
CONTINUOUS
 10
265.2746447712
 20
244.8452238069
 11
265.0592533393
 21
244.8880064647
  0
LINE
  8
13_KOMPONENTER
 62
7
  6
CONTINUOUS
 10
291.2746449283
 20
244.8452237754
 11
291.0591596156
 21
244.8880262624
  0
POLYLINE
  8
13_KOMPONENTER
 62
7
  6
CONTINUOUS
 66
1
 70
0
  0
VERTEX
  8
13_KOMPONENTER
 62
7
  6
CONTINUOUS
 10
265.0592533393
 20
244.8880064647
  0
VERTEX
  8
13_KOMPONENTER
 62
7
  6
CONTINUOUS
 10
264.8241637457
 20
244.9413072705
  0
VERTEX
  8
13_KOMPONENTER
 62
7
  6
CONTINUOUS
 10
264.6122656755
 20
244.9964673209
  0
VERTEX
  8
13_KOMPONENTER
 62
7
  6
CONTINUOUS
 10
264.4242559137
 20
245.0524826296
  0
VERTEX
  8
13_KOMPONENTER
 62
7
  6
CONTINUOUS
 10
264.2847574695
 20
245.099532025
  0
SEQEND
  0
POLYLINE
  8
13_KOMPONENTER
 62
7
  6
CONTINUOUS
 66
1
 70
0
  0
VERTEX
  8
13_KOMPONENTER
 62
7
  6
CONTINUOUS
 10
264.0826796769
 20
245.1650726113
  0
VERTEX
  8
13_KOMPONENTER
 62
7
  6
CONTINUOUS
 10
263.8551043213
 20
245.2206541313
  0
VERTEX
  8
13_KOMPONENTER
 62
7
  6
CONTINUOUS
 10
263.636043723
 20
245.2523985289
  0
VERTEX
  8
13_KOMPONENTER
 62
7
  6
CONTINUOUS
 10
263.4702003489
 20
245.260067049
  0
SEQEND
  0
LINE
  8
13_KOMPONENTER
 62
7
  6
CONTINUOUS
 10
214.9483832441
 20
227.2100670998
 11
214.9483832441
 21
230.9850670998
  0
LINE
  8
13_KOMPONENTER
 62
7
  6
CONTINUOUS
 10
214.9483832441
 20
240.4850670998
 11
214.9483832441
 21
244.2600670998
  0
LINE
  8
13_KOMPONENTER
 62
7
  6
CONTINUOUS
 10
218.9483832441
 20
232.4850670998
 11
218.9483832441
 21
238.9850670998
  0
POLYLINE
  8
13_KOMPONENTER
 62
7
  6
CONTINUOUS
 66
1
 70
0
  0
VERTEX
  8
13_KOMPONENTER
 62
7
  6
CONTINUOUS
 10
65.2416564765
 20
245.2206536581
  0
VERTEX
  8
13_KOMPONENTER
 62
7
  6
CONTINUOUS
 10
65.0140958809
 20
245.1650749495
  0
VERTEX
  8
13_KOMPONENTER
 62
7
  6
CONTINUOUS
 10
64.8120063013
 20
245.0995308862
  0
SEQEND
  0
POLYLINE
  8
13_KOMPONENTER
 62
7
  6
CONTINUOUS
 66
1
 70
0
  0
VERTEX
  8
13_KOMPONENTER
 62
7
  6
CONTINUOUS
 10
63.8221464259
 20
244.8452281186
  0
VERTEX
  8
13_KOMPONENTER
 62
7
  6
CONTINUOUS
 10
63.6317234984
 20
244.8059140977
  0
VERTEX
  8
13_KOMPONENTER
 62
7
  6
CONTINUOUS
 10
63.4257345635
 20
244.7536138911
  0
VERTEX
  8
13_KOMPONENTER
 62
7
  6
CONTINUOUS
 10
63.2361319379
 20
244.694167953
  0
VERTEX
  8
13_KOMPONENTER
 62
7
  6
CONTINUOUS
 10
63.0614270701
 20
244.6268371748
  0
VERTEX
  8
13_KOMPONENTER
 62
7
  6
CONTINUOUS
 10
62.8994965317
 20
244.5500173683
  0
VERTEX
  8
13_KOMPONENTER
 62
7
  6
CONTINUOUS
 10
62.7490622684
 20
244.4616381841
  0
VERTEX
  8
13_KOMPONENTER
 62
7
  6
CONTINUOUS
 10
62.6103426758
 20
244.3597507463
  0
VERTEX
  8
13_KOMPONENTER
 62
7
  6
CONTINUOUS
 10
62.4853676548
 20
244.2435311871
  0
VERTEX
  8
13_KOMPONENTER
 62
7
  6
CONTINUOUS
 10
62.3774564856
 20
244.1142877671
  0
VERTEX
  8
13_KOMPONENTER
 62
7
  6
CONTINUOUS
 10
62.2890668004
 20
243.9742466685
  0
VERTEX
  8
13_KOMPONENTER
 62
7
  6
CONTINUOUS
 10
62.2214918943
 20
243.8255443548
  0
VERTEX
  8
13_KOMPONENTER
 62
7
  6
CONTINUOUS
 10
62.1756000779
 20
243.6705803893
  0
VERTEX
  8
13_KOMPONENTER
 62
7
  6
CONTINUOUS
 10
62.151848847
 20
243.5113516976
  0
VERTEX
  8
13_KOMPONENTER
 62
7
  6
CONTINUOUS
 10
62.1483837833
 20
243.4223332985
  0
SEQEND
  0
LINE
  8
13_KOMPONENTER
 62
7
  6
CONTINUOUS
 10
26.4645242013
 20
245.260066347
 11
26.1802317317
 21
245.2026545609
  0
POLYLINE
  8
13_KOMPONENTER
 62
7
  6
CONTINUOUS
 66
1
 70
0
  0
VERTEX
  8
13_KOMPONENTER
 62
7
  6
CONTINUOUS
 10
291.0591596156
 20
244.8880262624
  0
VERTEX
  8
13_KOMPONENTER
 62
7
  6
CONTINUOUS
 10
290.8240404214
 20
244.941337266
  0
VERTEX
  8
13_KOMPONENTER
 62
7
  6
CONTINUOUS
 10
290.6121581109
 20
244.996497305
  0
VERTEX
  8
13_KOMPONENTER
 62
7
  6
CONTINUOUS
 10
290.4242011245
 20
245.0525001074
  0
VERTEX
  8
13_KOMPONENTER
 62
7
  6
CONTINUOUS
 10
290.2847564834
 20
245.0995324165
  0
SEQEND
  0
POLYLINE
  8
13_KOMPONENTER
 62
7
  6
CONTINUOUS
 66
1
 70
0
  0
VERTEX
  8
13_KOMPONENTER
 62
7
  6
CONTINUOUS
 10
290.0826706072
 20
245.1650749495
  0
VERTEX
  8
13_KOMPONENTER
 62
7
  6
CONTINUOUS
 10
289.8551100116
 20
245.2206536581
  0
VERTEX
  8
13_KOMPONENTER
 62
7
  6
CONTINUOUS
 10
289.636044973
 20
245.2523947142
  0
VERTEX
  8
13_KOMPONENTER
 62
7
  6
CONTINUOUS
 10
289.470188983
 20
245.2600663427
  0
SEQEND
  0
LINE
  8
13_KOMPONENTER
 62
7
  6
CONTINUOUS
 10
264.2847611222
 20
245.0995307232
 11
264.0826796769
 21
245.1650726113
  0
LINE
  8
13_KOMPONENTER
 62
7
  6
CONTINUOUS
 10
224.9483832441
 20
238.9850670998
 11
224.9483832441
 21
232.4850670998
  0
LINE
  8
13_KOMPONENTER
 62
7
  6
CONTINUOUS
 10
228.9483832441
 20
227.2100670998
 11
228.9483832441
 21
230.9850670998
  0
LINE
  8
13_KOMPONENTER
 62
7
  6
CONTINUOUS
 10
228.9483832441
 20
240.4850670998
 11
228.9483832441
 21
244.2600670998
  0
LINE
  8
13_KOMPONENTER
 62
7
  6
CONTINUOUS
 10
290.2847601868
 20
245.0995308862
 11
290.0826706072
 21
245.1650749495
  0
LINE
  8
13_KOMPONENTER
 62
7
  6
CONTINUOUS
 10
307.6972819575
 20
229.2265381709
 11
307.7127831695
 21
229.2172532552
  0
LINE
  8
13_KOMPONENTER
 62
7
  6
CONTINUOUS
 10
240.9483832441
 20
227.2100670998
 11
240.9483832441
 21
230.9850670998
  0
LINE
  8
13_KOMPONENTER
 62
7
  6
CONTINUOUS
 10
240.9483832441
 20
240.4850670998
 11
240.9483832441
 21
244.2600670998
  0
LINE
  8
13_KOMPONENTER
 62
7
  6
CONTINUOUS
 10
244.9483832441
 20
232.4850670998
 11
244.9483832441
 21
238.9850670998
  0
LINE
  8
13_KOMPONENTER
 62
7
  6
CONTINUOUS
 10
246.6983832441
 20
226.4100670998
 11
246.6983832441
 21
226.2100670998
  0
LINE
  8
13_KOMPONENTER
 62
7
  6
CONTINUOUS
 10
246.9483832441
 20
226.4100670998
 11
246.9483832441
 21
226.2100670998
  0
LINE
  8
13_KOMPONENTER
 62
7
  6
CONTINUOUS
 10
249.610617312
 20
226.4100670998
 11
249.610617312
 21
226.2100670998
  0
POLYLINE
  8
13_KOMPONENTER
 62
7
  6
CONTINUOUS
 66
1
 70
0
  0
VERTEX
  8
13_KOMPONENTER
 62
7
  6
CONTINUOUS
 10
308.1750147868
 20
239.0788125508
  0
VERTEX
  8
13_KOMPONENTER
 62
7
  6
CONTINUOUS
 10
308.1734361054
 20
239.0778356089
  0
VERTEX
  8
13_KOMPONENTER
 62
7
  6
CONTINUOUS
 10
308.1729070464
 20
239.0775733819
  0
SEQEND
  0
POLYLINE
  8
13_KOMPONENTER
 62
7
  6
CONTINUOUS
 66
1
 70
0
  0
VERTEX
  8
13_KOMPONENTER
 62
7
  6
CONTINUOUS
 10
329.0478462539
 20
245.1391163826
  0
VERTEX
  8
13_KOMPONENTER
 62
7
  6
CONTINUOUS
 10
328.8334195303
 20
245.2310470338
  0
VERTEX
  8
13_KOMPONENTER
 62
7
  6
CONTINUOUS
 10
328.632600816
 20
245.2600660379
  0
SEQEND
  0
LINE
  8
13_KOMPONENTER
 62
7
  6
CONTINUOUS
 10
307.7131139805
 20
229.2170393629
 11
307.7127831695
 21
229.2172532552
  0
LINE
  8
13_KOMPONENTER
 62
7
  6
CONTINUOUS
 10
307.713113133
 20
229.2170380548
 11
307.7163243446
 21
229.2147649084
  0
LINE
  8
13_KOMPONENTER
 62
7
  6
CONTINUOUS
 10
254.9483832441
 20
241.9537066769
 11
254.9483899977
 21
241.9525695551
  0
LINE
  8
13_KOMPONENTER
 62
7
  6
CONTINUOUS
 10
250.9483832441
 20
238.9850670998
 11
250.9483832441
 21
232.4850670998
  0
LINE
  8
13_KOMPONENTER
 62
7
  6
CONTINUOUS
 10
254.9483832441
 20
227.2100670998
 11
254.9483832441
 21
230.9850670998
  0
LINE
  8
13_KOMPONENTER
 62
7
  6
CONTINUOUS
 10
254.9483832441
 20
240.4850670998
 11
254.9483832441
 21
243.4224003526
  0
LINE
  8
13_KOMPONENTER
 62
7
  6
CONTINUOUS
 10
308.1740275455
 20
239.0779733212
 11
308.1750147868
 21
239.0788125508
  0
LINE
  8
13_KOMPONENTER
 62
7
  6
CONTINUOUS
 10
326.2705411378
 20
226.4664056892
 11
326.2708318305
 21
226.4665718426
  0
POLYLINE
  8
13_KOMPONENTER
 62
7
  6
CONTINUOUS
 66
1
 70
0
  0
VERTEX
  8
13_KOMPONENTER
 62
7
  6
CONTINUOUS
 10
266.9564852382
 20
240.3509902692
  0
VERTEX
  8
13_KOMPONENTER
 62
7
  6
CONTINUOUS
 10
266.9489401069
 20
240.443408457
  0
VERTEX
  8
13_KOMPONENTER
 62
7
  6
CONTINUOUS
 10
266.9483835697
 20
240.4761877378
  0
SEQEND
  0
POLYLINE
  8
13_KOMPONENTER
 62
7
  6
CONTINUOUS
 66
1
 70
0
  0
VERTEX
  8
13_KOMPONENTER
 62
7
  6
CONTINUOUS
 10
266.9483832351
 20
243.4223611962
  0
VERTEX
  8
13_KOMPONENTER
 62
7
  6
CONTINUOUS
 10
266.9435869451
 20
243.5270410671
  0
VERTEX
  8
13_KOMPONENTER
 62
7
  6
CONTINUOUS
 10
266.9190720123
 20
243.679855806
  0
VERTEX
  8
13_KOMPONENTER
 62
7
  6
CONTINUOUS
 10
266.8737275768
 20
243.8296636831
  0
VERTEX
  8
13_KOMPONENTER
 62
7
  6
CONTINUOUS
 10
266.8077333996
 20
243.9741838658
  0
VERTEX
  8
13_KOMPONENTER
 62
7
  6
CONTINUOUS
 10
266.7217280219
 20
244.1109596923
  0
VERTEX
  8
13_KOMPONENTER
 62
7
  6
CONTINUOUS
 10
266.6172091102
 20
244.2373797794
  0
VERTEX
  8
13_KOMPONENTER
 62
7
  6
CONTINUOUS
 10
266.4960079561
 20
244.3517831346
  0
VERTEX
  8
13_KOMPONENTER
 62
7
  6
CONTINUOUS
 10
266.3599776493
 20
244.4535189294
  0
VERTEX
  8
13_KOMPONENTER
 62
7
  6
CONTINUOUS
 10
266.2108914497
 20
244.5427730333
  0
VERTEX
  8
13_KOMPONENTER
 62
7
  6
CONTINUOUS
 10
266.0490704233
 20
244.6209227667
  0
VERTEX
  8
13_KOMPONENTER
 62
7
  6
CONTINUOUS
 10
265.873206007
 20
244.6897672445
  0
VERTEX
  8
13_KOMPONENTER
 62
7
  6
CONTINUOUS
 10
265.6810081615
 20
244.7507815005
  0
VERTEX
  8
13_KOMPONENTER
 62
7
  6
CONTINUOUS
 10
265.4707131195
 20
244.8046197604
  0
VERTEX
  8
13_KOMPONENTER
 62
7
  6
CONTINUOUS
 10
265.2746318822
 20
244.8452261864
  0
SEQEND
  0
LINE
  8
13_KOMPONENTER
 62
7
  6
CONTINUOUS
 10
266.9483832441
 20
227.2100670998
 11
266.9483832441
 21
230.9939215943
  0
LINE
  8
13_KOMPONENTER
 62
7
  6
CONTINUOUS
 10
266.9483832441
 20
240.4762122558
 11
266.9483832441
 21
243.4224003531
  0
LINE
  8
13_KOMPONENTER
 62
7
  6
CONTINUOUS
 10
266.9483764904
 20
241.9525695551
 11
266.9483832441
 21
241.9537066769
  0
LINE
  8
13_KOMPONENTER
 62
7
  6
CONTINUOUS
 10
266.9483834543
 20
230.9939528221
 11
266.949011407
 21
231.0287686694
  0
LINE
  8
13_KOMPONENTER
 62
7
  6
CONTINUOUS
 10
266.949011407
 20
231.0287686694
 11
266.9568164337
 21
231.121675046
  0
POLYLINE
  8
13_KOMPONENTER
 62
7
  6
CONTINUOUS
 66
1
 70
0
  0
VERTEX
  8
13_KOMPONENTER
 62
7
  6
CONTINUOUS
 10
266.9568164337
 20
231.121675046
  0
VERTEX
  8
13_KOMPONENTER
 62
7
  6
CONTINUOUS
 10
266.9747572377
 20
231.219236592
  0
VERTEX
  8
13_KOMPONENTER
 62
7
  6
CONTINUOUS
 10
267.0045107472
 20
231.3205766283
  0
VERTEX
  8
13_KOMPONENTER
 62
7
  6
CONTINUOUS
 10
267.0482671754
 20
231.4252079013
  0
VERTEX
  8
13_KOMPONENTER
 62
7
  6
CONTINUOUS
 10
267.1084645899
 20
231.5316342997
  0
VERTEX
  8
13_KOMPONENTER
 62
7
  6
CONTINUOUS
 10
267.1854979002
 20
231.634879305
  0
VERTEX
  8
13_KOMPONENTER
 62
7
  6
CONTINUOUS
 10
267.276517206
 20
231.7284959474
  0
VERTEX
  8
13_KOMPONENTER
 62
7
  6
CONTINUOUS
 10
267.3782893822
 20
231.8089209406
  0
VERTEX
  8
13_KOMPONENTER
 62
7
  6
CONTINUOUS
 10
267.4890357302
 20
231.8751363541
  0
VERTEX
  8
13_KOMPONENTER
 62
7
  6
CONTINUOUS
 10
267.6070940554
 20
231.9263791602
  0
VERTEX
  8
13_KOMPONENTER
 62
7
  6
CONTINUOUS
 10
267.7307913069
 20
231.9619875376
  0
SEQEND
  0
POLYLINE
  8
13_KOMPONENTER
 62
7
  6
CONTINUOUS
 66
1
 70
0
  0
VERTEX
  8
13_KOMPONENTER
 62
7
  6
CONTINUOUS
 10
326.2708318305
 20
226.4665718426
  0
VERTEX
  8
13_KOMPONENTER
 62
7
  6
CONTINUOUS
 10
326.3995571282
 20
226.5493872114
  0
VERTEX
  8
13_KOMPONENTER
 62
7
  6
CONTINUOUS
 10
326.5428803306
 20
226.6683105492
  0
VERTEX
  8
13_KOMPONENTER
 62
7
  6
CONTINUOUS
 10
326.6659066479
 20
226.8028370805
  0
VERTEX
  8
13_KOMPONENTER
 62
7
  6
CONTINUOUS
 10
326.7679528971
 20
226.9514265745
  0
VERTEX
  8
13_KOMPONENTER
 62
7
  6
CONTINUOUS
 10
326.8483709254
 20
227.1129573345
  0
VERTEX
  8
13_KOMPONENTER
 62
7
  6
CONTINUOUS
 10
326.906102152
 20
227.2862736971
  0
VERTEX
  8
13_KOMPONENTER
 62
7
  6
CONTINUOUS
 10
326.9397469541
 20
227.4698135382
  0
VERTEX
  8
13_KOMPONENTER
 62
7
  6
CONTINUOUS
 10
326.9483831845
 20
227.6249365784
  0
SEQEND
  0
POLYLINE
  8
13_KOMPONENTER
 62
7
  6
CONTINUOUS
 66
1
 70
0
  0
VERTEX
  8
13_KOMPONENTER
 62
7
  6
CONTINUOUS
 10
328.9165349675
 20
226.2674796685
  0
VERTEX
  8
13_KOMPONENTER
 62
7
  6
CONTINUOUS
 10
329.188383949
 20
226.422525577
  0
VERTEX
  8
13_KOMPONENTER
 62
7
  6
CONTINUOUS
 10
329.2183654583
 20
226.448297473
  0
SEQEND
  0
LINE
  8
13_KOMPONENTER
 62
7
  6
CONTINUOUS
 10
266.9743113122
 20
240.252792035
 11
266.9564852382
 21
240.3509902692
  0
POLYLINE
  8
13_KOMPONENTER
 62
7
  6
CONTINUOUS
 66
1
 70
0
  0
VERTEX
  8
13_KOMPONENTER
 62
7
  6
CONTINUOUS
 10
280.9467921098
 20
231.2012550472
  0
VERTEX
  8
13_KOMPONENTER
 62
7
  6
CONTINUOUS
 10
280.9481710373
 20
231.1796089414
  0
VERTEX
  8
13_KOMPONENTER
 62
7
  6
CONTINUOUS
 10
280.9483169864
 20
231.17484903
  0
SEQEND
  0
LINE
  8
13_KOMPONENTER
 62
7
  6
CONTINUOUS
 10
270.9483832441
 20
232.4850670998
 11
270.9483832441
 21
238.9850670998
  0
LINE
  8
13_KOMPONENTER
 62
7
  6
CONTINUOUS
 10
276.9483832441
 20
238.9850670998
 11
276.9483832441
 21
232.4850670998
  0
LINE
  8
13_KOMPONENTER
 62
7
  6
CONTINUOUS
 10
280.9481452166
 20
240.289874707
 11
280.9467097009
 21
240.2679393162
  0
POLYLINE
  8
13_KOMPONENTER
 62
7
  6
CONTINUOUS
 66
1
 70
0
  0
VERTEX
  8
13_KOMPONENTER
 62
7
  6
CONTINUOUS
 10
280.9467097009
 20
240.2679393162
  0
VERTEX
  8
13_KOMPONENTER
 62
7
  6
CONTINUOUS
 10
280.9427756807
 20
240.2346024396
  0
VERTEX
  8
13_KOMPONENTER
 62
7
  6
CONTINUOUS
 10
280.934881784
 20
240.1906094042
  0
VERTEX
  8
13_KOMPONENTER
 62
7
  6
CONTINUOUS
 10
280.9217983282
 20
240.1381891547
  0
VERTEX
  8
13_KOMPONENTER
 62
7
  6
CONTINUOUS
 10
280.9023873552
 20
240.0791336779
  0
VERTEX
  8
13_KOMPONENTER
 62
7
  6
CONTINUOUS
 10
280.875645354
 20
240.0151593698
  0
VERTEX
  8
13_KOMPONENTER
 62
7
  6
CONTINUOUS
 10
280.8409107884
 20
239.9482929078
  0
VERTEX
  8
13_KOMPONENTER
 62
7
  6
CONTINUOUS
 10
280.7978200443
 20
239.8805229688
  0
VERTEX
  8
13_KOMPONENTER
 62
7
  6
CONTINUOUS
 10
280.7456889469
 20
239.8130166472
  0
VERTEX
  8
13_KOMPONENTER
 62
7
  6
CONTINUOUS
 10
280.6839091327
 20
239.7471179628
  0
VERTEX
  8
13_KOMPONENTER
 62
7
  6
CONTINUOUS
 10
280.6120779728
 20
239.6844374953
  0
VERTEX
  8
13_KOMPONENTER
 62
7
  6
CONTINUOUS
 10
280.5302001306
 20
239.626892734
  0
VERTEX
  8
13_KOMPONENTER
 62
7
  6
CONTINUOUS
 10
280.438649687
 20
239.576506544
  0
VERTEX
  8
13_KOMPONENTER
 62
7
  6
CONTINUOUS
 10
280.3382204378
 20
239.5353287943
  0
VERTEX
  8
13_KOMPONENTER
 62
7
  6
CONTINUOUS
 10
280.2301869085
 20
239.505349437
  0
VERTEX
  8
13_KOMPONENTER
 62
7
  6
CONTINUOUS
 10
280.1165601885
 20
239.4884021125
  0
SEQEND
  0
POLYLINE
  8
13_KOMPONENTER
 62
7
  6
CONTINUOUS
 66
1
 70
0
  0
VERTEX
  8
13_KOMPONENTER
 62
7
  6
CONTINUOUS
 10
329.0478462115
 20
226.3310177799
  0
VERTEX
  8
13_KOMPONENTER
 62
7
  6
CONTINUOUS
 10
329.2549291504
 20
226.4734452418
  0
VERTEX
  8
13_KOMPONENTER
 62
7
  6
CONTINUOUS
 10
329.4581657416
 20
226.6544076793
  0
SEQEND
  0
LINE
  8
13_KOMPONENTER
 62
7
  6
CONTINUOUS
 10
329.2549290944
 20
244.9966889765
 11
329.0478462539
 21
245.1391163826
  0
LINE
  8
13_KOMPONENTER
 62
7
  6
CONTINUOUS
 10
280.9483832441
 20
241.9537066769
 11
280.9483899977
 21
241.9525695551
  0
LINE
  8
13_KOMPONENTER
 62
7
  6
CONTINUOUS
 10
280.9483722877
 20
231.1716345434
 11
280.9483832439
 21
231.1694721435
  0
LINE
  8
13_KOMPONENTER
 62
7
  6
CONTINUOUS
 10
280.9483832441
 20
227.2100670998
 11
280.9483832441
 21
231.169467629
  0
LINE
  8
13_KOMPONENTER
 62
7
  6
CONTINUOUS
 10
280.9483832441
 20
240.3006665371
 11
280.9483832441
 21
243.4224003526
  0
LINE
  8
13_KOMPONENTER
 62
7
  6
CONTINUOUS
 10
280.9483832441
 20
240.3006620416
 11
280.9483644354
 21
240.2978124873
  0
LINE
  8
13_KOMPONENTER
 62
7
  6
CONTINUOUS
 10
280.9483179205
 20
240.295334774
 11
280.9481452166
 21
240.289874707
  0
LINE
  8
13_KOMPONENTER
 62
7
  6
CONTINUOUS
 10
329.4588040584
 20
226.6550314854
 11
329.4581657416
 21
226.6544076793
  0
POLYLINE
  8
13_KOMPONENTER
 62
7
  6
CONTINUOUS
 66
1
 70
0
  0
VERTEX
  8
13_KOMPONENTER
 62
7
  6
CONTINUOUS
 10
329.4583418176
 20
244.8155547027
  0
VERTEX
  8
13_KOMPONENTER
 62
7
  6
CONTINUOUS
 10
329.188384014
 20
245.0476085986
  0
VERTEX
  8
13_KOMPONENTER
 62
7
  6
CONTINUOUS
 10
328.9165347564
 20
245.2026545609
  0
VERTEX
  8
13_KOMPONENTER
 62
7
  6
CONTINUOUS
 10
328.6322422868
 20
245.260066347
  0
SEQEND
  0
LINE
  8
13_KOMPONENTER
 62
7
  6
CONTINUOUS
 10
329.4581657237
 20
244.8157265571
 11
329.2549290944
 21
244.9966889765
  0
LINE
  8
13_KOMPONENTER
 62
7
  6
CONTINUOUS
 10
329.4588626627
 20
244.8150416772
 11
329.4583400029
 21
244.8155528445
  0
POLYLINE
  8
13_KOMPONENTER
 62
7
  6
CONTINUOUS
 66
1
 70
0
  0
VERTEX
  8
13_KOMPONENTER
 62
7
  6
CONTINUOUS
 10
292.9483827048
 20
243.4223333696
  0
VERTEX
  8
13_KOMPONENTER
 62
7
  6
CONTINUOUS
 10
292.9449257877
 20
243.5112471931
  0
VERTEX
  8
13_KOMPONENTER
 62
7
  6
CONTINUOUS
 10
292.921205321
 20
243.6704047751
  0
VERTEX
  8
13_KOMPONENTER
 62
7
  6
CONTINUOUS
 10
292.8753593007
 20
243.8253174154
  0
VERTEX
  8
13_KOMPONENTER
 62
7
  6
CONTINUOUS
 10
292.8078437782
 20
243.9739797283
  0
VERTEX
  8
13_KOMPONENTER
 62
7
  6
CONTINUOUS
 10
292.7195320023
 20
244.1139831863
  0
VERTEX
  8
13_KOMPONENTER
 62
7
  6
CONTINUOUS
 10
292.6117267077
 20
244.2431860664
  0
VERTEX
  8
13_KOMPONENTER
 62
7
  6
CONTINUOUS
 10
292.4868385804
 20
244.3594087565
  0
VERTEX
  8
13_KOMPONENTER
 62
7
  6
CONTINUOUS
 10
292.3481660673
 20
244.4613354257
  0
VERTEX
  8
13_KOMPONENTER
 62
7
  6
CONTINUOUS
 10
292.1977425497
 20
244.5497682765
  0
VERTEX
  8
13_KOMPONENTER
 62
7
  6
CONTINUOUS
 10
292.035793117
 20
244.6266433505
  0
VERTEX
  8
13_KOMPONENTER
 62
7
  6
CONTINUOUS
 10
291.8610383185
 20
244.6940275858
  0
VERTEX
  8
13_KOMPONENTER
 62
7
  6
CONTINUOUS
 10
291.671348397
 20
244.7535244999
  0
VERTEX
  8
13_KOMPONENTER
 62
7
  6
CONTINUOUS
 10
291.4652268748
 20
244.8058722438
  0
VERTEX
  8
13_KOMPONENTER
 62
7
  6
CONTINUOUS
 10
291.2746200624
 20
244.8452281186
  0
SEQEND
  0
LINE
  8
13_KOMPONENTER
 62
7
  6
CONTINUOUS
 10
292.9483832441
 20
227.2100670998
 11
292.9483832441
 21
231.5473319044
  0
LINE
  8
13_KOMPONENTER
 62
7
  6
CONTINUOUS
 10
292.9483832441
 20
239.9228859337
 11
292.9483832441
 21
243.4223938669
  0
LINE
  8
13_KOMPONENTER
 62
7
  6
CONTINUOUS
 10
296.9483832441
 20
232.6700866725
 11
296.9483832441
 21
238.8000866118
  0
LINE
  8
13_KOMPONENTER
 62
7
  6
CONTINUOUS
 10
292.9483764904
 20
241.9525695551
 11
292.9483832441
 21
241.9537066769
  0
LINE
  8
13_KOMPONENTER
 62
7
  6
CONTINUOUS
 10
292.9452346011
 20
231.5311931459
 11
292.9452510503
 21
231.5313094923
  0
POLYLINE
  8
13_KOMPONENTER
 62
7
  6
CONTINUOUS
 66
1
 70
0
  0
VERTEX
  8
13_KOMPONENTER
 62
7
  6
CONTINUOUS
 10
292.9452510503
 20
231.5313094923
  0
VERTEX
  8
13_KOMPONENTER
 62
7
  6
CONTINUOUS
 10
292.9472372166
 20
231.5425021439
  0
VERTEX
  8
13_KOMPONENTER
 62
7
  6
CONTINUOUS
 10
292.9530121259
 20
231.5668396321
  0
VERTEX
  8
13_KOMPONENTER
 62
7
  6
CONTINUOUS
 10
292.9646375862
 20
231.6042876032
  0
VERTEX
  8
13_KOMPONENTER
 62
7
  6
CONTINUOUS
 10
292.983923923
 20
231.6527744032
  0
VERTEX
  8
13_KOMPONENTER
 62
7
  6
CONTINUOUS
 10
293.0122966848
 20
231.7094166146
  0
VERTEX
  8
13_KOMPONENTER
 62
7
  6
CONTINUOUS
 10
293.0510226723
 20
231.7715439838
  0
VERTEX
  8
13_KOMPONENTER
 62
7
  6
CONTINUOUS
 10
293.1008326112
 20
231.8361221068
  0
VERTEX
  8
13_KOMPONENTER
 62
7
  6
CONTINUOUS
 10
293.1619055466
 20
231.9000721312
  0
VERTEX
  8
13_KOMPONENTER
 62
7
  6
CONTINUOUS
 10
293.2352092636
 20
231.9614440374
  0
VERTEX
  8
13_KOMPONENTER
 62
7
  6
CONTINUOUS
 10
293.3226892891
 20
232.0184625419
  0
VERTEX
  8
13_KOMPONENTER
 62
7
  6
CONTINUOUS
 10
293.4231135215
 20
232.066892993
  0
VERTEX
  8
13_KOMPONENTER
 62
7
  6
CONTINUOUS
 10
293.5317256352
 20
232.102234465
  0
VERTEX
  8
13_KOMPONENTER
 62
7
  6
CONTINUOUS
 10
293.6419545416
 20
232.1219623989
  0
VERTEX
  8
13_KOMPONENTER
 62
7
  6
CONTINUOUS
 10
293.7138167575
 20
232.1264159783
  0
SEQEND
  0
LINE
  8
13_KOMPONENTER
 62
7
  6
CONTINUOUS
 10
292.946401255
 20
239.931977241
 11
292.9452373658
 21
239.9389459301
  0
LINE
  8
13_KOMPONENTER
 62
7
  6
CONTINUOUS
 10
302.9483832441
 20
238.6745984224
 11
302.9483832441
 21
229.7265402032
  0
LINE
  8
13_KOMPONENTER
 62
7
  6
CONTINUOUS
 10
306.9483832441
 20
227.2100670998
 11
306.9483832441
 21
229.2265381709
  0
LINE
  8
13_KOMPONENTER
 62
7
  6
CONTINUOUS
 10
306.9483832441
 20
239.1030337373
 11
306.9483832441
 21
244.2600670998
  0
LINE
  8
13_KOMPONENTER
 62
7
  6
CONTINUOUS
 10
312.1983837276
 20
228.4546908178
 11
312.1984708469
 21
228.4551164338
  0
POLYLINE
  8
13_KOMPONENTER
 62
7
  6
CONTINUOUS
 66
1
 70
0
  0
VERTEX
  8
13_KOMPONENTER
 62
7
  6
CONTINUOUS
 10
329.4588022363
 20
226.6550333463
  0
VERTEX
  8
13_KOMPONENTER
 62
7
  6
CONTINUOUS
 10
329.7119593287
 20
226.9912532051
  0
VERTEX
  8
13_KOMPONENTER
 62
7
  6
CONTINUOUS
 10
329.8923412617
 20
227.5018399421
  0
SEQEND
  0
LINE
  8
13_KOMPONENTER
 62
7
  6
CONTINUOUS
 10
329.7108995928
 20
244.4802884377
 11
329.4588626627
 21
244.8150416772
  0
LINE
  8
13_KOMPONENTER
 62
7
  6
CONTINUOUS
 10
329.948381559
 20
243.3444135863
 11
329.8916171817
 21
243.9718343151
  0
LINE
  8
13_KOMPONENTER
 62
7
  6
CONTINUOUS
 10
312.1983832441
 20
227.2100670998
 11
312.1983832441
 21
228.4546448112
  0
LINE
  8
13_KOMPONENTER
 62
7
  6
CONTINUOUS
 10
316.1983832441
 20
228.4718050864
 11
316.1983832441
 21
227.2100670998
  0
LINE
  8
13_KOMPONENTER
 62
7
  6
CONTINUOUS
 10
326.9483832441
 20
244.2600670998
 11
326.9483832441
 21
242.6850670998
  0
LINE
  8
13_KOMPONENTER
 62
7
  6
CONTINUOUS
 10
326.9483832441
 20
227.2100670998
 11
326.9483832441
 21
242.0711367142
  0
LINE
  8
13_KOMPONENTER
 62
7
  6
CONTINUOUS
 10
329.9483832441
 20
243.3443420021
 11
329.9483832441
 21
228.125925795
  0
LINE
  8
13_KOMPONENTER
 62
7
  6
CONTINUOUS
 10
329.8916171817
 20
227.4982998845
 11
329.948381559
 21
228.1257206133
  0
POLYLINE
  8
13_KOMPONENTER
 62
7
  6
CONTINUOUS
 66
1
 70
0
  0
VERTEX
  8
13_KOMPONENTER
 62
7
  6
CONTINUOUS
 10
312.1984708469
 20
228.4551164338
  0
VERTEX
  8
13_KOMPONENTER
 62
7
  6
CONTINUOUS
 10
312.2010016049
 20
228.4729280787
  0
VERTEX
  8
13_KOMPONENTER
 62
7
  6
CONTINUOUS
 10
312.2088426537
 20
228.5068861277
  0
VERTEX
  8
13_KOMPONENTER
 62
7
  6
CONTINUOUS
 10
312.2234097968
 20
228.5536212281
  0
VERTEX
  8
13_KOMPONENTER
 62
7
  6
CONTINUOUS
 10
312.244810063
 20
228.6093150819
  0
VERTEX
  8
13_KOMPONENTER
 62
7
  6
CONTINUOUS
 10
312.2725400261
 20
228.6709382174
  0
VERTEX
  8
13_KOMPONENTER
 62
7
  6
CONTINUOUS
 10
312.3057309897
 20
228.7360056695
  0
VERTEX
  8
13_KOMPONENTER
 62
7
  6
CONTINUOUS
 10
312.3433654021
 20
228.802511725
  0
VERTEX
  8
13_KOMPONENTER
 62
7
  6
CONTINUOUS
 10
312.3845295901
 20
228.8690946923
  0
VERTEX
  8
13_KOMPONENTER
 62
7
  6
CONTINUOUS
 10
312.4286971862
 20
228.9351957124
  0
VERTEX
  8
13_KOMPONENTER
 62
7
  6
CONTINUOUS
 10
312.4756826953
 20
229.0007272469
  0
VERTEX
  8
13_KOMPONENTER
 62
7
  6
CONTINUOUS
 10
312.5252483729
 20
229.0654677116
  0
VERTEX
  8
13_KOMPONENTER
 62
7
  6
CONTINUOUS
 10
312.5771517297
 20
229.1291640084
  0
VERTEX
  8
13_KOMPONENTER
 62
7
  6
CONTINUOUS
 10
312.6312394884
 20
229.1916456343
  0
VERTEX
  8
13_KOMPONENTER
 62
7
  6
CONTINUOUS
 10
312.6874100689
 20
229.2527707168
  0
VERTEX
  8
13_KOMPONENTER
 62
7
  6
CONTINUOUS
 10
312.7456133664
 20
229.3124162523
  0
VERTEX
  8
13_KOMPONENTER
 62
7
  6
CONTINUOUS
 10
312.8058156467
 20
229.3704398184
  0
VERTEX
  8
13_KOMPONENTER
 62
7
  6
CONTINUOUS
 10
312.8679790497
 20
229.4266449561
  0
VERTEX
  8
13_KOMPONENTER
 62
7
  6
CONTINUOUS
 10
312.9321673296
 20
229.4808832829
  0
VERTEX
  8
13_KOMPONENTER
 62
7
  6
CONTINUOUS
 10
312.9982407214
 20
229.5328007716
  0
VERTEX
  8
13_KOMPONENTER
 62
7
  6
CONTINUOUS
 10
313.0661176828
 20
229.5820289735
  0
VERTEX
  8
13_KOMPONENTER
 62
7
  6
CONTINUOUS
 10
313.1358716764
 20
229.6283002796
  0
VERTEX
  8
13_KOMPONENTER
 62
7
  6
CONTINUOUS
 10
313.2072508081
 20
229.6710247566
  0
VERTEX
  8
13_KOMPONENTER
 62
7
  6
CONTINUOUS
 10
313.2800520496
 20
229.7096594026
  0
VERTEX
  8
13_KOMPONENTER
 62
7
  6
CONTINUOUS
 10
313.3535867984
 20
229.7433714486
  0
VERTEX
  8
13_KOMPONENTER
 62
7
  6
CONTINUOUS
 10
313.4276936068
 20
229.7716537022
  0
VERTEX
  8
13_KOMPONENTER
 62
7
  6
CONTINUOUS
 10
313.5022355187
 20
229.793910503
  0
VERTEX
  8
13_KOMPONENTER
 62
7
  6
CONTINUOUS
 10
313.5770606108
 20
229.8095447634
  0
VERTEX
  8
13_KOMPONENTER
 62
7
  6
CONTINUOUS
 10
313.6507223062
 20
229.8179134849
  0
VERTEX
  8
13_KOMPONENTER
 62
7
  6
CONTINUOUS
 10
313.6983832441
 20
229.8194549278
  0
SEQEND
  0
LINE
  8
13_KOMPONENTER
 62
7
  6
CONTINUOUS
 10
329.7103584161
 20
226.9883231457
 11
329.7108995927
 21
226.9898457615
  0
LINE
  8
13_KOMPONENTER
 62
7
  6
CONTINUOUS
 10
327.918698901
 20
244.9564878421
 11
327.1895646361
 21
243.249650813
  0
LINE
  8
13_KOMPONENTER
 62
7
  6
CONTINUOUS
 10
327.1895646361
 20
228.2204833866
 11
327.918698901
 21
226.5136463575
  0
LINE
  8
13_KOMPONENTER
 62
7
  6
CONTINUOUS
 10
329.8917984514
 20
243.969830729
 11
329.7103584161
 21
244.4818110539
  0
LINE
  8
13_KOMPONENTER
 62
7
  6
CONTINUOUS
 10
316.1959688527
 20
228.4718050864
 11
316.1983825077
 21
228.4546912262
  0
LINE
  8
13_KOMPONENTER
 62
7
  6
CONTINUOUS
 10
375.8186693084
 20
105.7856334842
 11
376.0686693084
 21
105.7856334842
  0
LINE
  8
DEFAULT_1
 62
2
  6
CENTER
 10
381.1936693084
 20
110.2356334842
 11
377.9437693084
 21
110.2356334842
  0
LINE
  8
0
 62
2
  6
CONTINUOUS
 10
376.9936693084
 20
110.2356334842
 11
374.8936693084
 21
110.2356334842
  0
LINE
  8
DEFAULT_1
 62
2
  6
CENTER
 10
370.6936693084
 20
110.2356334842
 11
373.9435693084
 21
110.2356334842
  0
LINE
  8
13_KOMPONENTER
 62
7
  6
CONTINUOUS
 10
366.4186693084
 20
147.385598847
 11
366.4186693084
 21
120.5363831721
  0
LINE
  8
13_KOMPONENTER
 62
7
  6
CONTINUOUS
 10
366.4186693084
 20
120.5332005101
 11
366.4186693084
 21
115.1857046897
  0
LINE
  8
13_KOMPONENTER
 62
7
  6
CONTINUOUS
 10
371.7436693084
 20
148.3356334842
 11
371.7436693084
 21
136.4356334842
  0
LINE
  8
DEFAULT_1
 62
2
  6
CENTER
 10
375.9436693084
 20
115.4856334842
 11
375.9436693084
 21
112.2357334842
  0
LINE
  8
0
 62
2
  6
CONTINUOUS
 10
375.9436693084
 20
111.2856334842
 11
375.9436693084
 21
109.1856334842
  0
LINE
  8
DEFAULT_1
 62
2
  6
CENTER
 10
375.9436693084
 20
104.9856334842
 11
375.9436693084
 21
108.2355334842
  0
LINE
  8
13_KOMPONENTER
 62
7
  6
CONTINUOUS
 10
375.9436693084
 20
152.3356334842
 11
375.9436693084
 21
153.6487049277
  0
LINE
  8
DEFAULT_1
 62
2
  6
CENTER
 10
376.1436693084
 20
153.5856334842
 11
376.1436693084
 21
150.3357334842
  0
LINE
  8
0
 62
2
  6
CONTINUOUS
 10
376.1436693084
 20
149.3856334842
 11
376.1436693084
 21
147.2856334842
  0
LINE
  8
DEFAULT_1
 62
2
  6
CENTER
 10
376.1436693084
 20
143.0856334842
 11
376.1436693084
 21
146.3355334842
  0
LINE
  8
DEFAULT_1
 62
2
  6
CENTER
 10
360.5816513095
 20
129.2856334842
 11
387.4686695701
 21
129.2856334842
  0
LINE
  8
13_KOMPONENTER
 62
7
  6
CONTINUOUS
 10
376.0686693084
 20
129.7856334842
 11
375.8186693084
 21
129.7856334842
  0
LINE
  8
13_KOMPONENTER
 62
7
  6
CONTINUOUS
 10
367.4186689822
 20
130.2856334842
 11
380.1269813923
 21
130.2856334842
  0
LINE
  8
13_KOMPONENTER
 62
7
  6
CONTINUOUS
 10
380.1436693084
 20
136.4356334842
 11
380.1436693084
 21
148.3356334842
  0
LINE
  8
13_KOMPONENTER
 62
7
  6
CONTINUOUS
 10
367.3837698117
 20
133.386715207
 11
372.941888257
 21
133.58080898
  0
LINE
  8
13_KOMPONENTER
 62
7
  6
CONTINUOUS
 10
376.1436693084
 20
132.4356334842
 11
375.7436693084
 21
132.4356334842
  0
LINE
  8
13_KOMPONENTER
 62
7
  6
CONTINUOUS
 10
383.4686693084
 20
134.7855052168
 11
383.4686693084
 21
145.168305569
  0
LINE
  8
13_KOMPONENTER
 62
7
  6
CONTINUOUS
 10
385.4649820054
 20
142.3714330233
 11
385.4643853707
 21
142.3781003275
  0
POLYLINE
  8
13_KOMPONENTER
 62
7
  6
CONTINUOUS
 66
1
 70
0
  0
VERTEX
  8
13_KOMPONENTER
 62
7
  6
CONTINUOUS
 10
385.4656285646
 20
142.3635958004
  0
VERTEX
  8
13_KOMPONENTER
 62
7
  6
CONTINUOUS
 10
385.4645225048
 20
142.3766460533
  0
VERTEX
  8
13_KOMPONENTER
 62
7
  6
CONTINUOUS
 10
385.463048174
 20
142.3915516962
  0
SEQEND
  0
LINE
  8
13_KOMPONENTER
 62
7
  6
CONTINUOUS
 10
385.4685724758
 20
142.2995520083
 11
385.4586501824
 21
142.4268097914
  0
LINE
  8
13_KOMPONENTER
 62
7
  6
CONTINUOUS
 10
385.4664676705
 20
142.3519917006
 11
385.4655196689
 21
142.3649421716
  0
LINE
  8
13_KOMPONENTER
 62
7
  6
CONTINUOUS
 10
385.4664287849
 20
142.3525397992
 11
385.4660004848
 21
142.3586471309
  0
LINE
  8
13_KOMPONENTER
 62
7
  6
CONTINUOUS
 10
385.4671071925
 20
142.3415437597
 11
385.4664676705
 21
142.3519917006
  0
LINE
  8
13_KOMPONENTER
 62
7
  6
CONTINUOUS
 10
385.4674448483
 20
142.3351080552
 11
385.4671469807
 21
142.3407940512
  0
LINE
  8
13_KOMPONENTER
 62
7
  6
CONTINUOUS
 10
385.4679584992
 20
142.3233672511
 11
385.4671071925
 21
142.3415437597
  0
LINE
  8
13_KOMPONENTER
 62
7
  6
CONTINUOUS
 10
385.4681277743
 20
142.3185420711
 11
385.4677062012
 21
142.3295147036
  0
LINE
  8
13_KOMPONENTER
 62
7
  6
CONTINUOUS
 10
385.4682869621
 20
142.3132868849
 11
385.4679584992
 21
142.3233672511
  0
LINE
  8
13_KOMPONENTER
 62
7
  6
CONTINUOUS
 10
385.4685700808
 20
142.2995827246
 11
385.4682288666
 21
142.3153448954
  0
LINE
  8
13_KOMPONENTER
 62
7
  6
CONTINUOUS
 10
385.4686590324
 20
142.2901673381
 11
385.4685716122
 21
142.2995630838
  0
LINE
  8
13_KOMPONENTER
 62
7
  6
CONTINUOUS
 10
385.4686693084
 20
115.1857047618
 11
385.4686693084
 21
147.3856334842
  0
POLYLINE
  8
13_KOMPONENTER
 62
7
  6
CONTINUOUS
 66
1
 70
0
  0
VERTEX
  8
13_KOMPONENTER
 62
7
  6
CONTINUOUS
 10
385.4637283292
 20
142.3849218643
  0
VERTEX
  8
13_KOMPONENTER
 62
7
  6
CONTINUOUS
 10
385.4630099608
 20
142.3918754175
  0
VERTEX
  8
13_KOMPONENTER
 62
7
  6
CONTINUOUS
 10
385.4622298751
 20
142.3989389385
  0
SEQEND
  0
POLYLINE
  8
13_KOMPONENTER
 62
7
  6
CONTINUOUS
 66
1
 70
0
  0
VERTEX
  8
13_KOMPONENTER
 62
7
  6
CONTINUOUS
 10
385.4342382283
 20
142.5457838755
  0
VERTEX
  8
13_KOMPONENTER
 62
7
  6
CONTINUOUS
 10
385.4320241722
 20
142.5538666162
  0
VERTEX
  8
13_KOMPONENTER
 62
7
  6
CONTINUOUS
 10
385.4297326293
 20
142.5619647003
  0
VERTEX
  8
13_KOMPONENTER
 62
7
  6
CONTINUOUS
 10
385.4273627557
 20
142.570077789
  0
VERTEX
  8
13_KOMPONENTER
 62
7
  6
CONTINUOUS
 10
385.4249136967
 20
142.578205524
  0
VERTEX
  8
13_KOMPONENTER
 62
7
  6
CONTINUOUS
 10
385.4223845868
 20
142.5863475278
  0
VERTEX
  8
13_KOMPONENTER
 62
7
  6
CONTINUOUS
 10
385.4197745502
 20
142.5945034026
  0
VERTEX
  8
13_KOMPONENTER
 62
7
  6
CONTINUOUS
 10
385.4170827008
 20
142.6026727301
  0
VERTEX
  8
13_KOMPONENTER
 62
7
  6
CONTINUOUS
 10
385.4143081421
 20
142.6108550713
  0
VERTEX
  8
13_KOMPONENTER
 62
7
  6
CONTINUOUS
 10
385.4114499681
 20
142.6190499655
  0
VERTEX
  8
13_KOMPONENTER
 62
7
  6
CONTINUOUS
 10
385.4085072629
 20
142.6272569301
  0
VERTEX
  8
13_KOMPONENTER
 62
7
  6
CONTINUOUS
 10
385.4054791013
 20
142.6354754602
  0
VERTEX
  8
13_KOMPONENTER
 62
7
  6
CONTINUOUS
 10
385.4023645488
 20
142.6437050281
  0
VERTEX
  8
13_KOMPONENTER
 62
7
  6
CONTINUOUS
 10
385.399162662
 20
142.6519450826
  0
VERTEX
  8
13_KOMPONENTER
 62
7
  6
CONTINUOUS
 10
385.3958724889
 20
142.6601950486
  0
VERTEX
  8
13_KOMPONENTER
 62
7
  6
CONTINUOUS
 10
385.3924930689
 20
142.6684543268
  0
SEQEND
  0
LINE
  8
13_KOMPONENTER
 62
7
  6
CONTINUOUS
 10
385.451753751
 20
142.4688232113
 11
385.4170246398
 21
142.6028778008
  0
LINE
  8
13_KOMPONENTER
 62
7
  6
CONTINUOUS
 10
385.4586501824
 20
142.4268097914
 11
385.4324566303
 21
142.5522878636
  0
POLYLINE
  8
13_KOMPONENTER
 62
7
  6
CONTINUOUS
 66
1
 70
0
  0
VERTEX
  8
13_KOMPONENTER
 62
7
  6
CONTINUOUS
 10
385.450768372
 20
142.4740017511
  0
VERTEX
  8
13_KOMPONENTER
 62
7
  6
CONTINUOUS
 10
385.4492309547
 20
142.4818478494
  0
VERTEX
  8
13_KOMPONENTER
 62
7
  6
CONTINUOUS
 10
385.4476192582
 20
142.4897370351
  0
VERTEX
  8
13_KOMPONENTER
 62
7
  6
CONTINUOUS
 10
385.4459328871
 20
142.497664627
  0
VERTEX
  8
13_KOMPONENTER
 62
7
  6
CONTINUOUS
 10
385.4441715723
 20
142.5056259493
  0
VERTEX
  8
13_KOMPONENTER
 62
7
  6
CONTINUOUS
 10
385.4423351727
 20
142.5136163339
  0
VERTEX
  8
13_KOMPONENTER
 62
7
  6
CONTINUOUS
 10
385.4404236767
 20
142.5216311237
  0
VERTEX
  8
13_KOMPONENTER
 62
7
  6
CONTINUOUS
 10
385.4384372006
 20
142.5296656873
  0
VERTEX
  8
13_KOMPONENTER
 62
7
  6
CONTINUOUS
 10
385.4363756306
 20
142.5377167985
  0
VERTEX
  8
13_KOMPONENTER
 62
7
  6
CONTINUOUS
 10
385.4342382283
 20
142.5457838755
  0
SEQEND
  0
LINE
  8
13_KOMPONENTER
 62
7
  6
CONTINUOUS
 10
385.4540932489
 20
142.455787128
 11
385.4474697291
 21
142.4904863188
  0
POLYLINE
  8
13_KOMPONENTER
 62
7
  6
CONTINUOUS
 66
1
 70
0
  0
VERTEX
  8
13_KOMPONENTER
 62
7
  6
CONTINUOUS
 10
385.4549407535
 20
142.4507688126
  0
VERTEX
  8
13_KOMPONENTER
 62
7
  6
CONTINUOUS
 10
385.4536225698
 20
142.4584575507
  0
VERTEX
  8
13_KOMPONENTER
 62
7
  6
CONTINUOUS
 10
385.4522320298
 20
142.4662034238
  0
SEQEND
  0
LINE
  8
13_KOMPONENTER
 62
7
  6
CONTINUOUS
 10
385.458233459
 20
142.4297638832
 11
385.4540932489
 21
142.455787128
  0
LINE
  8
13_KOMPONENTER
 62
7
  6
CONTINUOUS
 10
385.4586501824
 20
142.4268097914
 11
385.4563610925
 21
142.4420258165
  0
LINE
  8
13_KOMPONENTER
 62
7
  6
CONTINUOUS
 10
385.459509194
 20
142.420678592
 11
385.4586501824
 21
142.4268097914
  0
LINE
  8
13_KOMPONENTER
 62
7
  6
CONTINUOUS
 10
385.4610440308
 20
142.4089286086
 11
385.458233459
 21
142.4297638832
  0
LINE
  8
13_KOMPONENTER
 62
7
  6
CONTINUOUS
 10
385.4613874039
 20
142.406097392
 11
385.4604810154
 21
142.4133454763
  0
LINE
  8
13_KOMPONENTER
 62
7
  6
CONTINUOUS
 10
385.467162634
 20
142.3405440232
 11
385.451753751
 21
142.4688232113
  0
LINE
  8
13_KOMPONENTER
 62
7
  6
CONTINUOUS
 10
385.463048174
 20
142.3915516962
 11
385.4610440308
 21
142.4089286086
  0
LINE
  8
13_KOMPONENTER
 62
7
  6
CONTINUOUS
 10
384.4686649214
 20
143.2856334841
 11
383.9686693084
 21
143.2856334842
  0
LINE
  8
13_KOMPONENTER
 62
7
  6
CONTINUOUS
 10
385.364090363
 20
142.7308853356
 11
385.2939740151
 21
142.8503496685
  0
POLYLINE
  8
13_KOMPONENTER
 62
7
  6
CONTINUOUS
 66
1
 70
0
  0
VERTEX
  8
13_KOMPONENTER
 62
7
  6
CONTINUOUS
 10
385.3352551661
 20
142.7846640522
  0
VERTEX
  8
13_KOMPONENTER
 62
7
  6
CONTINUOUS
 10
385.330417083
 20
142.7929729704
  0
VERTEX
  8
13_KOMPONENTER
 62
7
  6
CONTINUOUS
 10
385.3254735226
 20
142.8012778808
  0
VERTEX
  8
13_KOMPONENTER
 62
7
  6
CONTINUOUS
 10
385.3204234378
 20
142.8095776906
  0
VERTEX
  8
13_KOMPONENTER
 62
7
  6
CONTINUOUS
 10
385.3152655008
 20
142.8178717182
  0
VERTEX
  8
13_KOMPONENTER
 62
7
  6
CONTINUOUS
 10
385.3099958215
 20
142.8261631972
  0
VERTEX
  8
13_KOMPONENTER
 62
7
  6
CONTINUOUS
 10
385.304608973
 20
142.8344572903
  0
VERTEX
  8
13_KOMPONENTER
 62
7
  6
CONTINUOUS
 10
385.2990992613
 20
142.8427589694
  0
VERTEX
  8
13_KOMPONENTER
 62
7
  6
CONTINUOUS
 10
385.2934607372
 20
142.8510729868
  0
VERTEX
  8
13_KOMPONENTER
 62
7
  6
CONTINUOUS
 10
385.2876871966
 20
142.8594038643
  0
VERTEX
  8
13_KOMPONENTER
 62
7
  6
CONTINUOUS
 10
385.2817721809
 20
142.8677558824
  0
VERTEX
  8
13_KOMPONENTER
 62
7
  6
CONTINUOUS
 10
385.2757089765
 20
142.876133068
  0
VERTEX
  8
13_KOMPONENTER
 62
7
  6
CONTINUOUS
 10
385.2694906151
 20
142.884539182
  0
VERTEX
  8
13_KOMPONENTER
 62
7
  6
CONTINUOUS
 10
385.263109873
 20
142.8929777064
  0
SEQEND
  0
LINE
  8
13_KOMPONENTER
 62
7
  6
CONTINUOUS
 10
385.3902822443
 20
142.6737226104
 11
385.3326479826
 21
142.789141626
  0
POLYLINE
  8
13_KOMPONENTER
 62
7
  6
CONTINUOUS
 66
1
 70
0
  0
VERTEX
  8
13_KOMPONENTER
 62
7
  6
CONTINUOUS
 10
385.3924930689
 20
142.6684543268
  0
VERTEX
  8
13_KOMPONENTER
 62
7
  6
CONTINUOUS
 10
385.3890234335
 20
142.676722293
  0
VERTEX
  8
13_KOMPONENTER
 62
7
  6
CONTINUOUS
 10
385.3854626063
 20
142.6849982976
  0
VERTEX
  8
13_KOMPONENTER
 62
7
  6
CONTINUOUS
 10
385.3818096036
 20
142.6932816652
  0
VERTEX
  8
13_KOMPONENTER
 62
7
  6
CONTINUOUS
 10
385.3780634342
 20
142.701571694
  0
VERTEX
  8
13_KOMPONENTER
 62
7
  6
CONTINUOUS
 10
385.3742231003
 20
142.7098676553
  0
VERTEX
  8
13_KOMPONENTER
 62
7
  6
CONTINUOUS
 10
385.3702875978
 20
142.7181687929
  0
VERTEX
  8
13_KOMPONENTER
 62
7
  6
CONTINUOUS
 10
385.3662559161
 20
142.7264743229
  0
VERTEX
  8
13_KOMPONENTER
 62
7
  6
CONTINUOUS
 10
385.3621270392
 20
142.7347834328
  0
VERTEX
  8
13_KOMPONENTER
 62
7
  6
CONTINUOUS
 10
385.3578999457
 20
142.7430952811
  0
VERTEX
  8
13_KOMPONENTER
 62
7
  6
CONTINUOUS
 10
385.3535736095
 20
142.7514089968
  0
VERTEX
  8
13_KOMPONENTER
 62
7
  6
CONTINUOUS
 10
385.3491469999
 20
142.759723679
  0
VERTEX
  8
13_KOMPONENTER
 62
7
  6
CONTINUOUS
 10
385.3446190821
 20
142.768038396
  0
VERTEX
  8
13_KOMPONENTER
 62
7
  6
CONTINUOUS
 10
385.3399888179
 20
142.7763521852
  0
VERTEX
  8
13_KOMPONENTER
 62
7
  6
CONTINUOUS
 10
385.3352551661
 20
142.7846640522
  0
SEQEND
  0
LINE
  8
13_KOMPONENTER
 62
7
  6
CONTINUOUS
 10
385.4170246398
 20
142.6028778008
 11
385.364090363
 21
142.7308853356
  0
LINE
  8
13_KOMPONENTER
 62
7
  6
CONTINUOUS
 10
385.4324566303
 20
142.5522878636
 11
385.3902822443
 21
142.6737226104
  0
LINE
  8
13_KOMPONENTER
 62
7
  6
CONTINUOUS
 10
385.3323725479
 20
144.0442999193
 11
382.9618984442
 21
152.8910297124
  0
POLYLINE
  8
13_KOMPONENTER
 62
7
  6
CONTINUOUS
 66
1
 70
0
  0
VERTEX
  8
13_KOMPONENTER
 62
7
  6
CONTINUOUS
 10
384.6284108735
 20
143.2727928772
  0
VERTEX
  8
13_KOMPONENTER
 62
7
  6
CONTINUOUS
 10
384.6068764184
 20
143.2760372912
  0
VERTEX
  8
13_KOMPONENTER
 62
7
  6
CONTINUOUS
 10
384.5849176909
 20
143.2788540463
  0
VERTEX
  8
13_KOMPONENTER
 62
7
  6
CONTINUOUS
 10
384.5625202786
 20
143.2812200578
  0
VERTEX
  8
13_KOMPONENTER
 62
7
  6
CONTINUOUS
 10
384.5396706567
 20
143.2831099456
  0
VERTEX
  8
13_KOMPONENTER
 62
7
  6
CONTINUOUS
 10
384.5163565095
 20
143.2844959667
  0
VERTEX
  8
13_KOMPONENTER
 62
7
  6
CONTINUOUS
 10
384.4925652985
 20
143.2853480175
  0
VERTEX
  8
13_KOMPONENTER
 62
7
  6
CONTINUOUS
 10
384.4686728337
 20
143.2856334842
  0
SEQEND
  0
POLYLINE
  8
13_KOMPONENTER
 62
7
  6
CONTINUOUS
 66
1
 70
0
  0
VERTEX
  8
13_KOMPONENTER
 62
7
  6
CONTINUOUS
 10
384.7426888917
 20
143.2473677868
  0
VERTEX
  8
13_KOMPONENTER
 62
7
  6
CONTINUOUS
 10
384.6071597611
 20
143.2760026655
  0
VERTEX
  8
13_KOMPONENTER
 62
7
  6
CONTINUOUS
 10
384.4689736057
 20
143.2856334497
  0
SEQEND
  0
POLYLINE
  8
13_KOMPONENTER
 62
7
  6
CONTINUOUS
 66
1
 70
0
  0
VERTEX
  8
13_KOMPONENTER
 62
7
  6
CONTINUOUS
 10
385.2080207139
 20
142.9589786133
  0
VERTEX
  8
13_KOMPONENTER
 62
7
  6
CONTINUOUS
 10
385.1078802337
 20
143.0546869525
  0
VERTEX
  8
13_KOMPONENTER
 62
7
  6
CONTINUOUS
 10
384.9954744558
 20
143.13563796
  0
VERTEX
  8
13_KOMPONENTER
 62
7
  6
CONTINUOUS
 10
384.8729603711
 20
143.2002783505
  0
VERTEX
  8
13_KOMPONENTER
 62
7
  6
CONTINUOUS
 10
384.7426888917
 20
143.2473677868
  0
SEQEND
  0
POLYLINE
  8
13_KOMPONENTER
 62
7
  6
CONTINUOUS
 66
1
 70
0
  0
VERTEX
  8
13_KOMPONENTER
 62
7
  6
CONTINUOUS
 10
385.1769611379
 20
142.9915552861
  0
VERTEX
  8
13_KOMPONENTER
 62
7
  6
CONTINUOUS
 10
385.1665514612
 20
143.0018481214
  0
VERTEX
  8
13_KOMPONENTER
 62
7
  6
CONTINUOUS
 10
385.1555097519
 20
143.0124437127
  0
VERTEX
  8
13_KOMPONENTER
 62
7
  6
CONTINUOUS
 10
385.1439126771
 20
143.0232304546
  0
VERTEX
  8
13_KOMPONENTER
 62
7
  6
CONTINUOUS
 10
385.1318429235
 20
143.0341010159
  0
VERTEX
  8
13_KOMPONENTER
 62
7
  6
CONTINUOUS
 10
385.1193870467
 20
143.0449550919
  0
VERTEX
  8
13_KOMPONENTER
 62
7
  6
CONTINUOUS
 10
385.1065922448
 20
143.0557355504
  0
VERTEX
  8
13_KOMPONENTER
 62
7
  6
CONTINUOUS
 10
385.0934628279
 20
143.0664253299
  0
VERTEX
  8
13_KOMPONENTER
 62
7
  6
CONTINUOUS
 10
385.080001696
 20
143.0770092107
  0
VERTEX
  8
13_KOMPONENTER
 62
7
  6
CONTINUOUS
 10
385.0662122917
 20
143.0874721143
  0
VERTEX
  8
13_KOMPONENTER
 62
7
  6
CONTINUOUS
 10
385.0520986043
 20
143.0977991299
  0
VERTEX
  8
13_KOMPONENTER
 62
7
  6
CONTINUOUS
 10
385.0376651722
 20
143.10797554
  0
VERTEX
  8
13_KOMPONENTER
 62
7
  6
CONTINUOUS
 10
385.0229170836
 20
143.117986847
  0
VERTEX
  8
13_KOMPONENTER
 62
7
  6
CONTINUOUS
 10
385.0078599755
 20
143.1278187993
  0
VERTEX
  8
13_KOMPONENTER
 62
7
  6
CONTINUOUS
 10
384.9925000308
 20
143.1374574184
  0
VERTEX
  8
13_KOMPONENTER
 62
7
  6
CONTINUOUS
 10
384.9768439744
 20
143.1468890247
  0
VERTEX
  8
13_KOMPONENTER
 62
7
  6
CONTINUOUS
 10
384.9608990668
 20
143.1561002643
  0
VERTEX
  8
13_KOMPONENTER
 62
7
  6
CONTINUOUS
 10
384.9446730965
 20
143.1650781347
  0
VERTEX
  8
13_KOMPONENTER
 62
7
  6
CONTINUOUS
 10
384.928174371
 20
143.173810011
  0
VERTEX
  8
13_KOMPONENTER
 62
7
  6
CONTINUOUS
 10
384.9114117053
 20
143.1822836708
  0
VERTEX
  8
13_KOMPONENTER
 62
7
  6
CONTINUOUS
 10
384.8943944099
 20
143.1904873196
  0
VERTEX
  8
13_KOMPONENTER
 62
7
  6
CONTINUOUS
 10
384.8771322766
 20
143.1984096143
  0
VERTEX
  8
13_KOMPONENTER
 62
7
  6
CONTINUOUS
 10
384.8596355628
 20
143.2060396874
  0
VERTEX
  8
13_KOMPONENTER
 62
7
  6
CONTINUOUS
 10
384.841914508
 20
143.2133673571
  0
VERTEX
  8
13_KOMPONENTER
 62
7
  6
CONTINUOUS
 10
384.8239672096
 20
143.2203876993
  0
VERTEX
  8
13_KOMPONENTER
 62
7
  6
CONTINUOUS
 10
384.8057780903
 20
143.2271002281
  0
VERTEX
  8
13_KOMPONENTER
 62
7
  6
CONTINUOUS
 10
384.7873305709
 20
143.2335031356
  0
VERTEX
  8
13_KOMPONENTER
 62
7
  6
CONTINUOUS
 10
384.7686078156
 20
143.2395929589
  0
VERTEX
  8
13_KOMPONENTER
 62
7
  6
CONTINUOUS
 10
384.7495928082
 20
143.2453645307
  0
VERTEX
  8
13_KOMPONENTER
 62
7
  6
CONTINUOUS
 10
384.7302684317
 20
143.2508109267
  0
VERTEX
  8
13_KOMPONENTER
 62
7
  6
CONTINUOUS
 10
384.7106175528
 20
143.2559234108
  0
VERTEX
  8
13_KOMPONENTER
 62
7
  6
CONTINUOUS
 10
384.6906231097
 20
143.2606913787
  0
VERTEX
  8
13_KOMPONENTER
 62
7
  6
CONTINUOUS
 10
384.6702682065
 20
143.2651022993
  0
VERTEX
  8
13_KOMPONENTER
 62
7
  6
CONTINUOUS
 10
384.6495362133
 20
143.2691416543
  0
VERTEX
  8
13_KOMPONENTER
 62
7
  6
CONTINUOUS
 10
384.6284108735
 20
143.2727928772
  0
SEQEND
  0
LINE
  8
13_KOMPONENTER
 62
7
  6
CONTINUOUS
 10
385.2603731459
 20
142.8965180474
 11
385.1743616366
 21
142.9941539456
  0
POLYLINE
  8
13_KOMPONENTER
 62
7
  6
CONTINUOUS
 66
1
 70
0
  0
VERTEX
  8
13_KOMPONENTER
 62
7
  6
CONTINUOUS
 10
385.2284673812
 20
142.93579482
  0
VERTEX
  8
13_KOMPONENTER
 62
7
  6
CONTINUOUS
 10
385.2208551175
 20
142.9445867384
  0
VERTEX
  8
13_KOMPONENTER
 62
7
  6
CONTINUOUS
 10
385.2129243342
 20
142.9535311909
  0
VERTEX
  8
13_KOMPONENTER
 62
7
  6
CONTINUOUS
 10
385.2046270985
 20
142.962663046
  0
VERTEX
  8
13_KOMPONENTER
 62
7
  6
CONTINUOUS
 10
385.1959131983
 20
142.9720147381
  0
VERTEX
  8
13_KOMPONENTER
 62
7
  6
CONTINUOUS
 10
385.1867204773
 20
142.981625886
  0
VERTEX
  8
13_KOMPONENTER
 62
7
  6
CONTINUOUS
 10
385.1769611379
 20
142.9915552861
  0
SEQEND
  0
LINE
  8
13_KOMPONENTER
 62
7
  6
CONTINUOUS
 10
385.2939740151
 20
142.8503496685
 11
385.2080207139
 21
142.9589786133
  0
POLYLINE
  8
13_KOMPONENTER
 62
7
  6
CONTINUOUS
 66
1
 70
0
  0
VERTEX
  8
13_KOMPONENTER
 62
7
  6
CONTINUOUS
 10
385.263109873
 20
142.8929777064
  0
VERTEX
  8
13_KOMPONENTER
 62
7
  6
CONTINUOUS
 10
385.2565592716
 20
142.9014518297
  0
VERTEX
  8
13_KOMPONENTER
 62
7
  6
CONTINUOUS
 10
385.2498310766
 20
142.9099644329
  0
VERTEX
  8
13_KOMPONENTER
 62
7
  6
CONTINUOUS
 10
385.2429172986
 20
142.9185180733
  0
VERTEX
  8
13_KOMPONENTER
 62
7
  6
CONTINUOUS
 10
385.2358068972
 20
142.9271183119
  0
VERTEX
  8
13_KOMPONENTER
 62
7
  6
CONTINUOUS
 10
385.2284673812
 20
142.93579482
  0
SEQEND
  0
LINE
  8
13_KOMPONENTER
 62
7
  6
CONTINUOUS
 10
385.3326479826
 20
142.789141626
 11
385.2603731459
 21
142.8965180474
  0
LINE
  8
DEFAULT_1
 62
2
  6
CENTER
 10
381.3936693084
 20
148.3356334842
 11
378.1437693084
 21
148.3356334842
  0
LINE
  8
0
 62
2
  6
CONTINUOUS
 10
377.1936693084
 20
148.3356334842
 11
375.0936693084
 21
148.3356334842
  0
LINE
  8
DEFAULT_1
 62
2
  6
CENTER
 10
370.8936693084
 20
148.3356334842
 11
374.1435693084
 21
148.3356334842
  0
LINE
  8
13_KOMPONENTER
 62
7
  6
CONTINUOUS
 10
375.7436693084
 20
152.3356334842
 11
376.1436693084
 21
152.3356334842
  0
LINE
  8
13_KOMPONENTER
 62
7
  6
CONTINUOUS
 10
375.9436693084
 20
152.3356334842
 11
370.0670560102
 21
152.5408493425
  0
POLYLINE
  8
13_KOMPONENTER
 62
7
  6
CONTINUOUS
 66
1
 70
0
  0
VERTEX
  8
13_KOMPONENTER
 62
7
  6
CONTINUOUS
 10
381.6978556087
 20
154.9735434703
  0
VERTEX
  8
13_KOMPONENTER
 62
7
  6
CONTINUOUS
 10
381.6991203654
 20
154.9736455543
  0
VERTEX
  8
13_KOMPONENTER
 62
7
  6
CONTINUOUS
 10
381.7006920943
 20
154.9736343855
  0
VERTEX
  8
13_KOMPONENTER
 62
7
  6
CONTINUOUS
 10
381.7024761542
 20
154.9734629843
  0
SEQEND
  0
LINE
  8
13_KOMPONENTER
 62
7
  6
CONTINUOUS
 10
375.8186693084
 20
156.7856334842
 11
378.6605958665
 21
156.7856334842
  0
ARC
  8
13_KOMPONENTER
 62
7
  6
CONTINUOUS
 10
55.1483832441
 20
80.7270339028
 40
45.0
 50
81.5850319153
 51
82.0131105859
  0
ARC
  8
13_KOMPONENTER
 62
7
  6
CONTINUOUS
 10
35.1483832441
 20
110.3694349971
 40
10.0
 50
164.6405887039
 51
180.000934038
  0
ARC
  8
13_KOMPONENTER
 62
7
  6
CONTINUOUS
 10
41.4683458885
 20
106.7856334842
 40
1.0
 50
270.0
 51
290.9700874633
  0
ARC
  8
13_KOMPONENTER
 62
7
  6
CONTINUOUS
 10
29.1483832441
 20
106.7856334842
 40
1.0
 50
180.0
 51
270.0
  0
ARC
  8
13_KOMPONENTER
 62
7
  6
CONTINUOUS
 10
42.9292802635
 20
105.2356355635
 40
0.9999995841
 50
90.0003565746
 51
115.1904752397
  0
ARC
  8
13_KOMPONENTER
 62
7
  6
CONTINUOUS
 10
27.6483832441
 20
106.2856334842
 40
0.5
 50
270.0
 51
360.0
  0
ARC
  8
13_KOMPONENTER
 62
7
  6
CONTINUOUS
 10
25.6483832441
 20
106.2856334842
 40
0.5
 50
180.0
 51
270.0
  0
ARC
  8
13_KOMPONENTER
 62
7
  6
CONTINUOUS
 10
8.1483832441
 20
117.7856334842
 40
18.0
 50
344.6414064832
 51
15.3586002692
  0
ARC
  8
13_KOMPONENTER
 62
7
  6
CONTINUOUS
 10
33.1483832441
 20
112.5774295517
 40
5.0
 50
163.0425737058
 51
180.0
  0
ARC
  8
13_KOMPONENTER
 62
7
  6
CONTINUOUS
 10
45.1483832441
 20
114.0162007989
 40
3.0
 50
350.3505368824
 51
360.0
  0
ARC
  8
13_KOMPONENTER
 62
7
  6
CONTINUOUS
 10
48.6399118532
 20
111.5845239152
 40
1.0
 50
160.8690230773
 51
273.112
  0
ARC
  8
13_KOMPONENTER
 62
7
  6
CONTINUOUS
 10
29.6529549223
 20
114.9750851428
 40
1.0
 50
97.5
 51
166.8870779144
  0
ARC
  8
13_KOMPONENTER
 62
7
  6
CONTINUOUS
 10
33.2078837599
 20
115.443100403
 40
1.0
 50
58.4112947589
 51
81.0756562963
  0
ARC
  8
13_KOMPONENTER
 62
7
  6
CONTINUOUS
 10
33.277252324
 20
115.6356334842
 40
0.8
 50
57.4729040128
 51
83.8937611114
  0
ARC
  8
13_KOMPONENTER
 62
7
  6
CONTINUOUS
 10
38.2474213499
 20
115.1895400232
 40
10.0
 50
290.9700874633
 51
350.3505368824
  0
ARC
  8
13_KOMPONENTER
 62
7
  6
CONTINUOUS
 10
34.6483832441
 20
117.7856334842
 40
1.75
 50
237.4729040128
 51
122.5270959872
  0
ARC
  8
13_KOMPONENTER
 62
7
  6
CONTINUOUS
 10
65.1483832441
 20
110.059831703
 40
3.0
 50
180.0
 51
215.7535451931
  0
ARC
  8
13_KOMPONENTER
 62
7
  6
CONTINUOUS
 10
71.1483832441
 20
110.059831703
 40
3.0
 50
324.2467367743
 51
360.0
  0
ARC
  8
13_KOMPONENTER
 62
7
  6
CONTINUOUS
 10
91.1483832441
 20
110.059831703
 40
3.0
 50
180.0
 51
215.7532547239
  0
ARC
  8
13_KOMPONENTER
 62
7
  6
CONTINUOUS
 10
70.6413340192
 20
106.7856334842
 40
1.0
 50
270.0
 51
305.0897993214
  0
ARC
  8
13_KOMPONENTER
 62
7
  6
CONTINUOUS
 10
65.6554324689
 20
106.7856334842
 40
1.0
 50
234.9102006786
 51
270.0
  0
ARC
  8
13_KOMPONENTER
 62
7
  6
CONTINUOUS
 10
58.6483832441
 20
110.6264489779
 40
0.5
 50
93.1120026108
 51
180.0
  0
ARC
  8
13_KOMPONENTER
 62
7
  6
CONTINUOUS
 10
58.6483832441
 20
106.7356334842
 40
0.5
 50
179.999999303
 51
270.0
  0
ARC
  8
13_KOMPONENTER
 62
7
  6
CONTINUOUS
 10
84.6483832441
 20
106.7356334842
 40
0.5
 50
179.9999998873
 51
270.0
  0
ARC
  8
13_KOMPONENTER
 62
7
  6
CONTINUOUS
 10
77.6483832441
 20
106.7356334842
 40
0.5
 50
270.0
 51
0.0000001127
  0
ARC
  8
13_KOMPONENTER
 62
7
  6
CONTINUOUS
 10
51.6483832441
 20
106.7356334842
 40
0.5
 50
270.0
 51
360.0
  0
ARC
  8
13_KOMPONENTER
 62
7
  6
CONTINUOUS
 10
51.6483832441
 20
110.2458721359
 40
0.5
 50
0.0001638852
 51
93.111991103
  0
ARC
  8
13_KOMPONENTER
 62
7
  6
CONTINUOUS
 10
75.1483832441
 20
113.0257396764
 40
1.0
 50
180.0064006402
 51
273.112
  0
ARC
  8
13_KOMPONENTER
 62
7
  6
CONTINUOUS
 10
61.1483832441
 20
112.2645844488
 40
0.9999996917
 50
273.112
 51
359.9999980278
  0
ARC
  8
13_KOMPONENTER
 62
7
  6
CONTINUOUS
 10
70.8291687185
 20
114.149902166
 40
10.0
 50
215.7532517471
 51
234.9102006786
  0
ARC
  8
13_KOMPONENTER
 62
7
  6
CONTINUOUS
 10
65.4675977696
 20
114.149902166
 40
10.0
 50
305.0897993214
 51
324.2467420457
  0
ARC
  8
13_KOMPONENTER
 62
7
  6
CONTINUOUS
 10
65.1483832441
 20
115.5410708376
 40
3.0
 50
124.8495465262
 51
180.0004568612
  0
ARC
  8
13_KOMPONENTER
 62
7
  6
CONTINUOUS
 10
71.1483832441
 20
115.5410708376
 40
3.0
 50
0.0000054199
 51
55.1500999009
  0
ARC
  8
13_KOMPONENTER
 62
7
  6
CONTINUOUS
 10
84.6483832441
 20
112.0400201054
 40
0.5
 50
93.1120026108
 51
180.0
  0
ARC
  8
13_KOMPONENTER
 62
7
  6
CONTINUOUS
 10
77.6483832441
 20
111.6594432634
 40
0.5
 50
0.0
 51
93.1120026108
  0
ARC
  8
13_KOMPONENTER
 62
7
  6
CONTINUOUS
 10
91.4675977696
 20
114.149902166
 40
10.0
 50
305.0897993214
 51
324.2467420453
  0
ARC
  8
13_KOMPONENTER
 62
7
  6
CONTINUOUS
 10
91.1483832441
 20
115.5410708376
 40
3.0
 50
124.8499001447
 51
179.9999945418
  0
ARC
  8
13_KOMPONENTER
 62
7
  6
CONTINUOUS
 10
123.1483832441
 20
110.059831703
 40
3.0
 50
324.2467542794
 51
360.0
  0
ARC
  8
13_KOMPONENTER
 62
7
  6
CONTINUOUS
 10
97.1483832441
 20
110.059831703
 40
3.0
 50
324.2467367731
 51
360.0
  0
ARC
  8
13_KOMPONENTER
 62
7
  6
CONTINUOUS
 10
117.1483832441
 20
110.059831703
 40
3.0
 50
180.0
 51
215.7532387173
  0
ARC
  8
13_KOMPONENTER
 62
7
  6
CONTINUOUS
 10
91.6554324689
 20
106.7856334842
 40
1.0
 50
234.9102006786
 51
270.0
  0
ARC
  8
13_KOMPONENTER
 62
7
  6
CONTINUOUS
 10
122.6413340192
 20
106.7856334842
 40
1.0
 50
270.0
 51
305.0897993214
  0
ARC
  8
13_KOMPONENTER
 62
7
  6
CONTINUOUS
 10
96.6413340192
 20
106.7856334842
 40
1.0
 50
270.0
 51
305.0897993214
  0
ARC
  8
13_KOMPONENTER
 62
7
  6
CONTINUOUS
 10
117.6554324689
 20
106.7856334842
 40
1.0
 50
234.9102006786
 51
270.0
  0
ARC
  8
13_KOMPONENTER
 62
7
  6
CONTINUOUS
 10
110.6483832441
 20
106.7356334842
 40
0.5
 50
179.9999998873
 51
270.0
  0
ARC
  8
13_KOMPONENTER
 62
7
  6
CONTINUOUS
 10
103.6483832441
 20
106.7356334842
 40
0.5
 50
270.0
 51
0.0000001127
  0
ARC
  8
13_KOMPONENTER
 62
7
  6
CONTINUOUS
 10
129.6483832441
 20
106.7356334842
 40
0.5
 50
270.0
 51
0.0000001127
  0
ARC
  8
13_KOMPONENTER
 62
7
  6
CONTINUOUS
 10
96.8291687185
 20
114.149902166
 40
10.0
 50
215.7532554037
 51
234.9102006786
  0
ARC
  8
13_KOMPONENTER
 62
7
  6
CONTINUOUS
 10
110.6483832441
 20
113.453591233
 40
0.5
 50
93.1120026108
 51
180.0
  0
ARC
  8
13_KOMPONENTER
 62
7
  6
CONTINUOUS
 10
103.6483832441
 20
113.0730143909
 40
0.5
 50
0.0
 51
93.1120026108
  0
ARC
  8
13_KOMPONENTER
 62
7
  6
CONTINUOUS
 10
97.1483832441
 20
115.5410708376
 40
3.0
 50
0.0000054207
 51
55.1500998873
  0
ARC
  8
13_KOMPONENTER
 62
7
  6
CONTINUOUS
 10
117.4675977696
 20
114.149902166
 40
10.0
 50
305.0897993214
 51
324.2467472973
  0
ARC
  8
13_KOMPONENTER
 62
7
  6
CONTINUOUS
 10
122.8291687185
 20
114.149902166
 40
10.0
 50
215.7532506018
 51
234.9102006786
  0
ARC
  8
13_KOMPONENTER
 62
7
  6
CONTINUOUS
 10
129.6483832441
 20
113.7356334842
 40
0.5
 50
359.9999998873
 51
90.0
  0
ARC
  8
13_KOMPONENTER
 62
7
  6
CONTINUOUS
 10
123.1483832441
 20
115.5410708376
 40
3.0
 50
0.0
 51
55.150095421
  0
ARC
  8
13_KOMPONENTER
 62
7
  6
CONTINUOUS
 10
117.1483832441
 20
115.5410708376
 40
3.0
 50
124.849904579
 51
180.0
  0
ARC
  8
13_KOMPONENTER
 62
7
  6
CONTINUOUS
 10
127.1483832441
 20
115.2356334842
 40
1.0
 50
182.8606972131
 51
270.0
  0
ARC
  8
13_KOMPONENTER
 62
7
  6
CONTINUOUS
 10
149.1483832441
 20
110.059831703
 40
3.0
 50
324.2467545505
 51
360.0
  0
ARC
  8
13_KOMPONENTER
 62
7
  6
CONTINUOUS
 10
143.1483832441
 20
110.059831703
 40
3.0
 50
180.0
 51
215.7532381184
  0
ARC
  8
13_KOMPONENTER
 62
7
  6
CONTINUOUS
 10
169.6554324689
 20
106.7856334842
 40
1.0
 50
234.9102006786
 51
270.0
  0
ARC
  8
13_KOMPONENTER
 62
7
  6
CONTINUOUS
 10
148.6413340192
 20
106.7856334842
 40
1.0
 50
270.0
 51
305.0897993214
  0
ARC
  8
13_KOMPONENTER
 62
7
  6
CONTINUOUS
 10
143.6554324689
 20
106.7856334842
 40
1.0
 50
234.9102006786
 51
270.0
  0
ARC
  8
13_KOMPONENTER
 62
7
  6
CONTINUOUS
 10
136.6483832441
 20
106.7356334842
 40
0.5
 50
179.9999998873
 51
270.0
  0
ARC
  8
13_KOMPONENTER
 62
7
  6
CONTINUOUS
 10
155.6483832441
 20
106.7356334842
 40
0.5
 50
270.0
 51
0.0000001127
  0
ARC
  8
13_KOMPONENTER
 62
7
  6
CONTINUOUS
 10
162.6483832441
 20
106.7356334842
 40
0.5
 50
179.9999998873
 51
270.0
  0
ARC
  8
13_KOMPONENTER
 62
7
  6
CONTINUOUS
 10
143.4675977696
 20
114.149902166
 40
10.0
 50
305.0897993214
 51
324.2467473786
  0
ARC
  8
13_KOMPONENTER
 62
7
  6
CONTINUOUS
 10
148.8291687185
 20
114.149902166
 40
10.0
 50
215.7532504221
 51
234.9102006786
  0
ARC
  8
13_KOMPONENTER
 62
7
  6
CONTINUOUS
 10
136.6483832441
 20
113.7356334842
 40
0.5
 50
90.0
 51
180.0000001127
  0
ARC
  8
13_KOMPONENTER
 62
7
  6
CONTINUOUS
 10
155.6483832441
 20
113.7356334842
 40
0.5
 50
359.9999998873
 51
90.0
  0
ARC
  8
13_KOMPONENTER
 62
7
  6
CONTINUOUS
 10
149.1483832441
 20
115.5410708376
 40
3.0
 50
0.0
 51
55.150095421
  0
ARC
  8
13_KOMPONENTER
 62
7
  6
CONTINUOUS
 10
143.1483832441
 20
115.5410708376
 40
3.0
 50
124.849904579
 51
180.0
  0
ARC
  8
13_KOMPONENTER
 62
7
  6
CONTINUOUS
 10
153.1483832441
 20
115.2356334842
 40
1.0
 50
182.8606972131
 51
270.0
  0
ARC
  8
13_KOMPONENTER
 62
7
  6
CONTINUOUS
 10
139.1483832441
 20
115.2356334842
 40
1.0
 50
270.0
 51
357.1393027869
  0
ARC
  8
13_KOMPONENTER
 62
7
  6
CONTINUOUS
 10
174.8291687185
 20
114.149902166
 40
10.0
 50
210.8673451152
 51
234.9102006786
  0
ARC
  8
13_KOMPONENTER
 62
7
  6
CONTINUOUS
 10
172.5917193311
 20
112.8125476903
 40
7.393336087
 50
141.6064533158
 51
210.8673450233
  0
ARC
  8
13_KOMPONENTER
 62
7
  6
CONTINUOUS
 10
162.6483832441
 20
113.7356334842
 40
0.5
 50
90.0
 51
180.0000001127
  0
ARC
  8
13_KOMPONENTER
 62
7
  6
CONTINUOUS
 10
169.1483832441
 20
115.5410708376
 40
3.0
 50
124.849904579
 51
141.6064533158
  0
ARC
  8
13_KOMPONENTER
 62
7
  6
CONTINUOUS
 10
11.1483832441
 20
119.2856334842
 40
18.0
 50
343.0425737058
 51
346.8870779144
  0
ARC
  8
13_KOMPONENTER
 62
7
  6
CONTINUOUS
 10
11.1483832441
 20
119.2856334842
 40
18.0
 50
3.7744493538
 51
16.9574262942
  0
ARC
  8
13_KOMPONENTER
 62
7
  6
CONTINUOUS
 10
30.1071707902
 20
120.5363831721
 40
1.0
 50
183.7744489174
 51
262.5000000668
  0
ARC
  8
13_KOMPONENTER
 62
7
  6
CONTINUOUS
 10
33.2078837599
 20
120.1281665653
 40
1.0
 50
262.5000206465
 51
301.5893116095
  0
ARC
  8
13_KOMPONENTER
 62
7
  6
CONTINUOUS
 10
33.277252324
 20
119.9356334842
 40
0.8
 50
276.161860677
 51
302.5270959872
  0
ARC
  8
13_KOMPONENTER
 62
7
  6
CONTINUOUS
 10
48.3483832441
 20
121.879835182
 40
0.2
 50
88.3627549222
 51
180.0
  0
ARC
  8
13_KOMPONENTER
 62
7
  6
CONTINUOUS
 10
35.1483832441
 20
125.2018319713
 40
10.0
 50
179.9990674016
 51
195.3593991417
  0
ARC
  8
13_KOMPONENTER
 62
7
  6
CONTINUOUS
 10
33.1483832441
 20
125.9938374167
 40
5.0
 50
180.0
 51
196.9574262942
  0
ARC
  8
13_KOMPONENTER
 62
7
  6
CONTINUOUS
 10
27.6483832441
 20
129.2856334842
 40
0.5
 50
0.0
 51
90.0
  0
ARC
  8
13_KOMPONENTER
 62
7
  6
CONTINUOUS
 10
25.6483832441
 20
129.2856334842
 40
0.5
 50
90.0
 51
180.0
  0
ARC
  8
13_KOMPONENTER
 62
7
  6
CONTINUOUS
 10
61.1483832441
 20
121.2856334842
 40
4.0
 50
304.8501731188
 51
81.5850319153
  0
ARC
  8
13_KOMPONENTER
 62
7
  6
CONTINUOUS
 10
57.1213241839
 20
123.8299758649
 40
2.0
 50
268.3627549222
 51
345.0
  0
ARC
  8
13_KOMPONENTER
 62
7
  6
CONTINUOUS
 10
61.1230828007
 20
123.3099291215
 40
2.0
 50
82.0131105859
 51
165.0
  0
ARC
  8
13_KOMPONENTER
 62
7
  6
CONTINUOUS
 10
87.1483832441
 20
121.2856334842
 40
4.0
 50
304.8499079048
 51
71.7900431357
  0
ARC
  8
13_KOMPONENTER
 62
7
  6
CONTINUOUS
 10
75.1483832441
 20
121.2856334842
 40
4.0
 50
108.2099568643
 51
235.150092061
  0
ARC
  8
13_KOMPONENTER
 62
7
  6
CONTINUOUS
 10
83.7930921104
 20
123.7856334842
 40
2.0
 50
270.0
 51
345.0
  0
ARC
  8
13_KOMPONENTER
 62
7
  6
CONTINUOUS
 10
78.5036743777
 20
123.7856334842
 40
2.0
 50
195.0
 51
270.0
  0
ARC
  8
13_KOMPONENTER
 62
7
  6
CONTINUOUS
 10
74.5233832441
 20
123.1854690034
 40
2.0
 50
15.0
 51
108.2099568643
  0
ARC
  8
13_KOMPONENTER
 62
7
  6
CONTINUOUS
 10
87.7733832441
 20
123.1854690034
 40
2.0
 50
71.7900431357
 51
165.0
  0
ARC
  8
13_KOMPONENTER
 62
7
  6
CONTINUOUS
 10
68.1483832441
 20
135.3311529127
 40
5.395909
 50
66.8741389039
 51
113.1258610961
  0
ARC
  8
13_KOMPONENTER
 62
7
  6
CONTINUOUS
 10
57.5314944946
 20
148.2337121933
 40
10.0
 50
122.9545473106
 51
140.2655984872
  0
ARC
  8
13_KOMPONENTER
 62
7
  6
CONTINUOUS
 10
52.7652719935
 20
148.2337121933
 40
10.0
 50
39.7344481814
 51
57.0454526894
  0
ARC
  8
13_KOMPONENTER
 62
7
  6
CONTINUOUS
 10
64.8508711067
 20
143.0524029177
 40
3.0
 50
241.8960195945
 51
293.1258610961
  0
ARC
  8
13_KOMPONENTER
 62
7
  6
CONTINUOUS
 10
64.1483832441
 20
143.4824992662
 40
3.0
 50
179.9997747854
 51
235.150095421
  0
ARC
  8
13_KOMPONENTER
 62
7
  6
CONTINUOUS
 10
46.1483832441
 20
149.1671963744
 40
3.0
 50
323.96010838
 51
0.0000117655
  0
ARC
  8
13_KOMPONENTER
 62
7
  6
CONTINUOUS
 10
40.4881292062
 20
153.2856334842
 40
10.0
 50
269.9999974544
 51
323.9601193579
  0
ARC
  8
13_KOMPONENTER
 62
7
  6
CONTINUOUS
 10
52.1483832441
 20
152.7083198034
 40
3.0
 50
140.2656123733
 51
180.0000225369
  0
ARC
  8
13_KOMPONENTER
 62
7
  6
CONTINUOUS
 10
58.1483832441
 20
152.7083198034
 40
3.0
 50
0.0000098452
 51
39.7345581843
  0
ARC
  8
13_KOMPONENTER
 62
7
  6
CONTINUOUS
 10
57.0795810685
 20
155.7856334842
 40
1.0
 50
53.1875630511
 51
89.999962334
  0
ARC
  8
13_KOMPONENTER
 62
7
  6
CONTINUOUS
 10
53.2170802879
 20
155.7856334842
 40
1.0
 50
90.0002194119
 51
126.8125378349
  0
ARC
  8
13_KOMPONENTER
 62
7
  6
CONTINUOUS
 10
52.6357325705
 20
155.7856334842
 40
1.0
 50
90.0
 51
122.9545473106
  0
ARC
  8
13_KOMPONENTER
 62
7
  6
CONTINUOUS
 10
57.6610339176
 20
155.7856334842
 40
1.0
 50
57.0454526894
 51
90.0
  0
ARC
  8
13_KOMPONENTER
 62
7
  6
CONTINUOUS
 10
68.1483832441
 20
149.2270619127
 40
10.0
 50
235.150095421
 51
241.8960195945
  0
ARC
  8
13_KOMPONENTER
 62
7
  6
CONTINUOUS
 10
68.1483832441
 20
149.2270619127
 40
10.0
 50
298.1039804055
 51
304.849904579
  0
ARC
  8
13_KOMPONENTER
 62
7
  6
CONTINUOUS
 10
83.5314944946
 20
148.2337121933
 40
10.0
 50
122.9545473106
 51
140.2655506873
  0
ARC
  8
13_KOMPONENTER
 62
7
  6
CONTINUOUS
 10
78.7652719935
 20
148.2337121933
 40
10.0
 50
39.7344481814
 51
57.0454526894
  0
ARC
  8
13_KOMPONENTER
 62
7
  6
CONTINUOUS
 10
71.4458953814
 20
143.0524029177
 40
3.0
 50
246.8741389039
 51
298.1039804055
  0
ARC
  8
13_KOMPONENTER
 62
7
  6
CONTINUOUS
 10
90.8508711067
 20
143.0524029177
 40
3.0
 50
241.8960195945
 51
293.1258610961
  0
ARC
  8
13_KOMPONENTER
 62
7
  6
CONTINUOUS
 10
90.1483832441
 20
143.4824992662
 40
3.0
 50
179.9997747854
 51
235.150095421
  0
ARC
  8
13_KOMPONENTER
 62
7
  6
CONTINUOUS
 10
72.1483832441
 20
143.4824992662
 40
3.0
 50
304.849904579
 51
0.0002252606
  0
ARC
  8
13_KOMPONENTER
 62
7
  6
CONTINUOUS
 10
78.1483832441
 20
152.7083198034
 40
3.0
 50
140.2654380447
 51
180.0013260446
  0
ARC
  8
13_KOMPONENTER
 62
7
  6
CONTINUOUS
 10
84.1483832441
 20
152.7083198034
 40
3.0
 50
359.9985351676
 51
39.7345581843
  0
ARC
  8
13_KOMPONENTER
 62
7
  6
CONTINUOUS
 10
83.6610339176
 20
155.7856334842
 40
1.0
 50
57.0454526894
 51
90.0
  0
ARC
  8
13_KOMPONENTER
 62
7
  6
CONTINUOUS
 10
78.6357325705
 20
155.7856334842
 40
1.0
 50
90.0
 51
122.9545473106
  0
ARC
  8
13_KOMPONENTER
 62
7
  6
CONTINUOUS
 10
113.1483832441
 20
121.2856334842
 40
4.0
 50
304.849904579
 51
71.7900431357
  0
ARC
  8
13_KOMPONENTER
 62
7
  6
CONTINUOUS
 10
101.1483832441
 20
121.2856334842
 40
4.0
 50
108.2099568643
 51
235.1500920712
  0
ARC
  8
13_KOMPONENTER
 62
7
  6
CONTINUOUS
 10
109.7930921104
 20
123.7856334842
 40
2.0
 50
270.0
 51
345.0
  0
ARC
  8
13_KOMPONENTER
 62
7
  6
CONTINUOUS
 10
104.5036743777
 20
123.7856334842
 40
2.0
 50
195.0
 51
270.0
  0
ARC
  8
13_KOMPONENTER
 62
7
  6
CONTINUOUS
 10
113.7733832441
 20
123.1854690034
 40
2.0
 50
71.7900431357
 51
165.0
  0
ARC
  8
13_KOMPONENTER
 62
7
  6
CONTINUOUS
 10
100.5233832441
 20
123.1854690034
 40
2.0
 50
15.0
 51
108.2099568643
  0
ARC
  8
13_KOMPONENTER
 62
7
  6
CONTINUOUS
 10
127.1483832441
 20
121.2856334842
 40
4.0
 50
108.2099568643
 51
235.150095421
  0
ARC
  8
13_KOMPONENTER
 62
7
  6
CONTINUOUS
 10
130.5036743777
 20
123.7856334842
 40
2.0
 50
195.0
 51
270.0
  0
ARC
  8
13_KOMPONENTER
 62
7
  6
CONTINUOUS
 10
126.5233832441
 20
123.1854690034
 40
2.0
 50
15.0
 51
108.2099568643
  0
ARC
  8
13_KOMPONENTER
 62
7
  6
CONTINUOUS
 10
94.1483832441
 20
135.3311529127
 40
5.395909
 50
66.8741389039
 51
113.1258610961
  0
ARC
  8
13_KOMPONENTER
 62
7
  6
CONTINUOUS
 10
120.1483832441
 20
135.3311529127
 40
5.395909
 50
66.8741389039
 51
113.1258610961
  0
ARC
  8
13_KOMPONENTER
 62
7
  6
CONTINUOUS
 10
139.1483832441
 20
121.2856334842
 40
4.0
 50
304.849904579
 51
71.7900431357
  0
ARC
  8
13_KOMPONENTER
 62
7
  6
CONTINUOUS
 10
135.7930921104
 20
123.7856334842
 40
2.0
 50
270.0
 51
345.0
  0
ARC
  8
13_KOMPONENTER
 62
7
  6
CONTINUOUS
 10
139.7733832441
 20
123.1854690034
 40
2.0
 50
71.7900431357
 51
165.0
  0
ARC
  8
13_KOMPONENTER
 62
7
  6
CONTINUOUS
 10
165.1483832441
 20
121.2856334842
 40
4.0
 50
304.849904579
 51
71.7900431357
  0
ARC
  8
13_KOMPONENTER
 62
7
  6
CONTINUOUS
 10
153.1483832441
 20
121.2856334842
 40
4.0
 50
108.2099568643
 51
235.150095421
  0
ARC
  8
13_KOMPONENTER
 62
7
  6
CONTINUOUS
 10
161.7930921104
 20
123.7856334842
 40
2.0
 50
270.0
 51
345.0
  0
ARC
  8
13_KOMPONENTER
 62
7
  6
CONTINUOUS
 10
156.5036743777
 20
123.7856334842
 40
2.0
 50
195.0
 51
270.0
  0
ARC
  8
13_KOMPONENTER
 62
7
  6
CONTINUOUS
 10
165.7733832441
 20
123.1854690034
 40
2.0
 50
71.7900431357
 51
165.0
  0
ARC
  8
13_KOMPONENTER
 62
7
  6
CONTINUOUS
 10
152.5233832441
 20
123.1854690034
 40
2.0
 50
15.0
 51
108.2099568643
  0
ARC
  8
13_KOMPONENTER
 62
7
  6
CONTINUOUS
 10
172.1483832441
 20
135.3311529127
 40
5.395909
 50
90.0
 51
113.1258610961
  0
ARC
  8
13_KOMPONENTER
 62
7
  6
CONTINUOUS
 10
146.1483832441
 20
135.3311529127
 40
5.395909
 50
66.8741389039
 51
113.1258610961
  0
ARC
  8
13_KOMPONENTER
 62
7
  6
CONTINUOUS
 10
97.4458953814
 20
143.0524029177
 40
3.0
 50
246.8741389039
 51
298.1039804055
  0
ARC
  8
13_KOMPONENTER
 62
7
  6
CONTINUOUS
 10
98.1483832441
 20
143.4824992662
 40
3.0
 50
304.849904579
 51
360.0
  0
ARC
  8
13_KOMPONENTER
 62
7
  6
CONTINUOUS
 10
109.5314944946
 20
148.2337121933
 40
10.0
 50
122.9545473106
 51
140.2654279044
  0
ARC
  8
13_KOMPONENTER
 62
7
  6
CONTINUOUS
 10
94.1483832441
 20
149.2270619127
 40
10.0
 50
235.150095421
 51
241.8960195945
  0
ARC
  8
13_KOMPONENTER
 62
7
  6
CONTINUOUS
 10
94.1483832441
 20
149.2270619127
 40
10.0
 50
298.1039804055
 51
304.849904579
  0
ARC
  8
13_KOMPONENTER
 62
7
  6
CONTINUOUS
 10
104.7652719935
 20
148.2337121933
 40
10.0
 50
39.7344084905
 51
57.0454526894
  0
ARC
  8
13_KOMPONENTER
 62
7
  6
CONTINUOUS
 10
116.8508711067
 20
143.0524029177
 40
3.0
 50
241.8960195945
 51
293.1258610961
  0
ARC
  8
13_KOMPONENTER
 62
7
  6
CONTINUOUS
 10
123.4458953814
 20
143.0524029177
 40
3.0
 50
246.8741389039
 51
298.1039804055
  0
ARC
  8
13_KOMPONENTER
 62
7
  6
CONTINUOUS
 10
124.1483832441
 20
143.4824992662
 40
3.0
 50
304.849904579
 51
360.0
  0
ARC
  8
13_KOMPONENTER
 62
7
  6
CONTINUOUS
 10
116.1483832441
 20
143.4824992662
 40
3.0
 50
180.0
 51
235.150095421
  0
ARC
  8
13_KOMPONENTER
 62
7
  6
CONTINUOUS
 10
130.7652719935
 20
148.2337121933
 40
10.0
 50
39.7344084905
 51
57.0454526894
  0
ARC
  8
13_KOMPONENTER
 62
7
  6
CONTINUOUS
 10
120.1483832441
 20
149.2270619127
 40
10.0
 50
235.150095421
 51
241.8960195945
  0
ARC
  8
13_KOMPONENTER
 62
7
  6
CONTINUOUS
 10
120.1483832441
 20
149.2270619127
 40
10.0
 50
298.1039804055
 51
304.849904579
  0
ARC
  8
13_KOMPONENTER
 62
7
  6
CONTINUOUS
 10
104.1483832441
 20
152.7083198034
 40
3.0
 50
140.2650372155
 51
180.0
  0
ARC
  8
13_KOMPONENTER
 62
7
  6
CONTINUOUS
 10
110.1483832441
 20
152.7083198034
 40
3.0
 50
359.9999989846
 51
39.7344258815
  0
ARC
  8
13_KOMPONENTER
 62
7
  6
CONTINUOUS
 10
130.1483832441
 20
152.7083198034
 40
3.0
 50
140.2656045909
 51
179.9999992327
  0
ARC
  8
13_KOMPONENTER
 62
7
  6
CONTINUOUS
 10
104.6357325705
 20
155.7856334842
 40
1.0
 50
90.0
 51
122.9545473106
  0
ARC
  8
13_KOMPONENTER
 62
7
  6
CONTINUOUS
 10
109.6610339176
 20
155.7856334842
 40
1.0
 50
57.0454526894
 51
90.0
  0
ARC
  8
13_KOMPONENTER
 62
7
  6
CONTINUOUS
 10
130.6357325705
 20
155.7856334842
 40
1.0
 50
90.0
 51
122.9545473106
  0
ARC
  8
13_KOMPONENTER
 62
7
  6
CONTINUOUS
 10
172.1483832441
 20
149.2270619127
 40
10.0
 50
235.150095421
 51
241.8960195945
  0
ARC
  8
13_KOMPONENTER
 62
7
  6
CONTINUOUS
 10
146.1483832441
 20
149.2270619127
 40
10.0
 50
235.150095421
 51
241.8960195945
  0
ARC
  8
13_KOMPONENTER
 62
7
  6
CONTINUOUS
 10
146.1483832441
 20
149.2270619127
 40
10.0
 50
298.1039804055
 51
304.849904579
  0
ARC
  8
13_KOMPONENTER
 62
7
  6
CONTINUOUS
 10
156.7652719935
 20
148.2337121933
 40
10.0
 50
39.7345447275
 51
57.0454526894
  0
ARC
  8
13_KOMPONENTER
 62
7
  6
CONTINUOUS
 10
161.5314944946
 20
148.2337121933
 40
10.0
 50
122.9545473106
 51
140.2656006512
  0
ARC
  8
13_KOMPONENTER
 62
7
  6
CONTINUOUS
 10
135.5314944946
 20
148.2337121933
 40
10.0
 50
122.9545473106
 51
140.2656006512
  0
ARC
  8
13_KOMPONENTER
 62
7
  6
CONTINUOUS
 10
142.8508711067
 20
143.0524029177
 40
3.0
 50
241.8960195945
 51
293.1258610961
  0
ARC
  8
13_KOMPONENTER
 62
7
  6
CONTINUOUS
 10
149.4458953814
 20
143.0524029177
 40
3.0
 50
246.8741389039
 51
298.1039804055
  0
ARC
  8
13_KOMPONENTER
 62
7
  6
CONTINUOUS
 10
168.8508711067
 20
143.0524029177
 40
3.0
 50
241.8960195945
 51
293.1258610961
  0
ARC
  8
13_KOMPONENTER
 62
7
  6
CONTINUOUS
 10
168.1483832441
 20
143.4824992662
 40
3.0
 50
180.0
 51
235.150095421
  0
ARC
  8
13_KOMPONENTER
 62
7
  6
CONTINUOUS
 10
150.1483832441
 20
143.4824992662
 40
3.0
 50
304.849904579
 51
360.0
  0
ARC
  8
13_KOMPONENTER
 62
7
  6
CONTINUOUS
 10
142.1483832441
 20
143.4824992662
 40
3.0
 50
180.0
 51
235.150095421
  0
ARC
  8
13_KOMPONENTER
 62
7
  6
CONTINUOUS
 10
162.1483832441
 20
152.7083198034
 40
3.0
 50
0.0000108348
 51
39.7348800045
  0
ARC
  8
13_KOMPONENTER
 62
7
  6
CONTINUOUS
 10
156.1483832441
 20
152.7083198034
 40
3.0
 50
140.2656045909
 51
179.9999992327
  0
ARC
  8
13_KOMPONENTER
 62
7
  6
CONTINUOUS
 10
136.1483832441
 20
152.7083198034
 40
3.0
 50
359.9999989846
 51
39.7344258815
  0
ARC
  8
13_KOMPONENTER
 62
7
  6
CONTINUOUS
 10
161.6610339176
 20
155.7856334842
 40
1.0
 50
57.0454526894
 51
90.0
  0
ARC
  8
13_KOMPONENTER
 62
7
  6
CONTINUOUS
 10
135.6610339176
 20
155.7856334842
 40
1.0
 50
57.0454526894
 51
90.0
  0
ARC
  8
13_KOMPONENTER
 62
7
  6
CONTINUOUS
 10
156.6357325705
 20
155.7856334842
 40
1.0
 50
90.0
 51
122.9545473106
  0
ARC
  8
13_KOMPONENTER
 62
7
  6
CONTINUOUS
 10
211.9483832441
 20
110.059831703
 40
3.0
 50
324.2467618816
 51
360.0
  0
ARC
  8
13_KOMPONENTER
 62
7
  6
CONTINUOUS
 10
205.9483832441
 20
110.059831703
 40
3.0
 50
180.0
 51
215.7532454495
  0
ARC
  8
13_KOMPONENTER
 62
7
  6
CONTINUOUS
 10
212.7124262287
 20
105.2356334842
 40
1.0
 50
90.0
 51
125.6762125204
  0
ARC
  8
13_KOMPONENTER
 62
7
  6
CONTINUOUS
 10
205.1843402594
 20
105.2356334842
 40
1.0
 50
54.3239971384
 51
90.0
  0
ARC
  8
13_KOMPONENTER
 62
7
  6
CONTINUOUS
 10
211.4413340192
 20
106.7856334842
 40
1.0
 50
270.0
 51
305.0897993214
  0
ARC
  8
13_KOMPONENTER
 62
7
  6
CONTINUOUS
 10
185.4413340192
 20
106.7856334842
 40
1.0
 50
270.0
 51
305.0897993214
  0
ARC
  8
13_KOMPONENTER
 62
7
  6
CONTINUOUS
 10
206.4554324689
 20
106.7856334842
 40
1.0
 50
234.9102006786
 51
270.0
  0
ARC
  8
13_KOMPONENTER
 62
7
  6
CONTINUOUS
 10
218.4483832441
 20
106.7356334842
 40
0.5
 50
270.0
 51
0.0000001127
  0
ARC
  8
13_KOMPONENTER
 62
7
  6
CONTINUOUS
 10
192.4483832441
 20
106.7356334842
 40
0.5
 50
270.0
 51
0.0000001127
  0
ARC
  8
13_KOMPONENTER
 62
7
  6
CONTINUOUS
 10
199.4483832441
 20
106.7356334842
 40
0.5
 50
179.9999998873
 51
270.0
  0
ARC
  8
13_KOMPONENTER
 62
7
  6
CONTINUOUS
 10
180.2675977696
 20
114.149902166
 40
10.0
 50
305.0897993214
 51
329.1326548848
  0
ARC
  8
13_KOMPONENTER
 62
7
  6
CONTINUOUS
 10
182.505047157
 20
112.8125476903
 40
7.393336087
 50
329.1326549767
 51
38.3935466842
  0
ARC
  8
13_KOMPONENTER
 62
7
  6
CONTINUOUS
 10
192.4483832441
 20
113.7356334842
 40
0.5
 50
359.9999998873
 51
90.0
  0
ARC
  8
13_KOMPONENTER
 62
7
  6
CONTINUOUS
 10
185.9483832441
 20
115.5410708376
 40
3.0
 50
38.3935466842
 51
55.150095421
  0
ARC
  8
13_KOMPONENTER
 62
7
  6
CONTINUOUS
 10
206.2675977696
 20
114.149902166
 40
10.0
 50
305.0897993214
 51
324.2467495779
  0
ARC
  8
13_KOMPONENTER
 62
7
  6
CONTINUOUS
 10
211.6291687185
 20
114.149902166
 40
10.0
 50
215.7532526214
 51
234.9102006786
  0
ARC
  8
13_KOMPONENTER
 62
7
  6
CONTINUOUS
 10
218.4483832441
 20
113.7356334842
 40
0.5
 50
359.9999998873
 51
90.0
  0
ARC
  8
13_KOMPONENTER
 62
7
  6
CONTINUOUS
 10
199.4483832441
 20
113.7356334842
 40
0.5
 50
90.0
 51
180.0000001127
  0
ARC
  8
13_KOMPONENTER
 62
7
  6
CONTINUOUS
 10
211.9483832441
 20
115.5410708376
 40
3.0
 50
0.0
 51
55.150095421
  0
ARC
  8
13_KOMPONENTER
 62
7
  6
CONTINUOUS
 10
205.9483832441
 20
115.5410708376
 40
3.0
 50
124.849904579
 51
180.0
  0
ARC
  8
13_KOMPONENTER
 62
7
  6
CONTINUOUS
 10
215.9483832441
 20
115.2356334842
 40
1.0
 50
182.8606972131
 51
270.0
  0
ARC
  8
13_KOMPONENTER
 62
7
  6
CONTINUOUS
 10
201.9483832441
 20
115.2356334842
 40
1.0
 50
270.0
 51
357.1393027869
  0
ARC
  8
13_KOMPONENTER
 62
7
  6
CONTINUOUS
 10
237.9483832441
 20
110.059831703
 40
3.0
 50
324.2467612827
 51
360.0
  0
ARC
  8
13_KOMPONENTER
 62
7
  6
CONTINUOUS
 10
257.9483832441
 20
110.059831703
 40
3.0
 50
180.0
 51
215.7532632269
  0
ARC
  8
13_KOMPONENTER
 62
7
  6
CONTINUOUS
 10
231.9483832441
 20
110.059831703
 40
3.0
 50
180.0
 51
215.7532457206
  0
ARC
  8
13_KOMPONENTER
 62
7
  6
CONTINUOUS
 10
238.7124262287
 20
105.2356334842
 40
1.0
 50
90.0
 51
125.6762125205
  0
ARC
  8
13_KOMPONENTER
 62
7
  6
CONTINUOUS
 10
257.1843402594
 20
105.2356334842
 40
1.0
 50
54.3239971062
 51
90.0
  0
ARC
  8
13_KOMPONENTER
 62
7
  6
CONTINUOUS
 10
231.1843402594
 20
105.2356334842
 40
1.0
 50
54.3239971375
 51
90.0
  0
ARC
  8
13_KOMPONENTER
 62
7
  6
CONTINUOUS
 10
237.4413340192
 20
106.7856334842
 40
1.0
 50
270.0
 51
305.0897993214
  0
ARC
  8
13_KOMPONENTER
 62
7
  6
CONTINUOUS
 10
258.4554324689
 20
106.7856334842
 40
1.0
 50
234.9102006786
 51
270.0
  0
ARC
  8
13_KOMPONENTER
 62
7
  6
CONTINUOUS
 10
232.4554324689
 20
106.7856334842
 40
1.0
 50
234.9102006786
 51
270.0
  0
ARC
  8
13_KOMPONENTER
 62
7
  6
CONTINUOUS
 10
263.4413340192
 20
106.7856334842
 40
1.0
 50
270.0
 51
305.0897993214
  0
ARC
  8
13_KOMPONENTER
 62
7
  6
CONTINUOUS
 10
244.4483832441
 20
106.7356334842
 40
0.5
 50
270.0
 51
0.0000001127
  0
ARC
  8
13_KOMPONENTER
 62
7
  6
CONTINUOUS
 10
251.4483832441
 20
106.7356334842
 40
0.5
 50
179.9999998873
 51
270.0
  0
ARC
  8
13_KOMPONENTER
 62
7
  6
CONTINUOUS
 10
225.4483832441
 20
106.7356334842
 40
0.5
 50
179.9999998873
 51
270.0
  0
ARC
  8
13_KOMPONENTER
 62
7
  6
CONTINUOUS
 10
232.2675977696
 20
114.149902166
 40
10.0
 50
305.0897993214
 51
324.2467493982
  0
ARC
  8
13_KOMPONENTER
 62
7
  6
CONTINUOUS
 10
237.6291687185
 20
114.149902166
 40
10.0
 50
215.7532527027
 51
234.9102006786
  0
ARC
  8
13_KOMPONENTER
 62
7
  6
CONTINUOUS
 10
225.4483832441
 20
113.7356334842
 40
0.5
 50
90.0
 51
180.0000001127
  0
ARC
  8
13_KOMPONENTER
 62
7
  6
CONTINUOUS
 10
237.9483832441
 20
115.5410708376
 40
3.0
 50
0.0
 51
55.150095421
  0
ARC
  8
13_KOMPONENTER
 62
7
  6
CONTINUOUS
 10
231.9483832441
 20
115.5410708376
 40
3.0
 50
124.849904579
 51
180.0
  0
ARC
  8
13_KOMPONENTER
 62
7
  6
CONTINUOUS
 10
227.9483832441
 20
115.2356334842
 40
1.0
 50
270.0
 51
357.1393027869
  0
ARC
  8
13_KOMPONENTER
 62
7
  6
CONTINUOUS
 10
258.2675977696
 20
114.149902166
 40
10.0
 50
305.0897993214
 51
324.2467445963
  0
ARC
  8
13_KOMPONENTER
 62
7
  6
CONTINUOUS
 10
244.4483832441
 20
113.453591233
 40
0.5
 50
0.0
 51
86.8879973892
  0
ARC
  8
13_KOMPONENTER
 62
7
  6
CONTINUOUS
 10
251.4483832441
 20
113.0730143909
 40
0.5
 50
86.8879973892
 51
180.0
  0
ARC
  8
13_KOMPONENTER
 62
7
  6
CONTINUOUS
 10
257.9483832441
 20
115.5410708376
 40
3.0
 50
124.8499001127
 51
179.9999945793
  0
ARC
  8
13_KOMPONENTER
 62
7
  6
CONTINUOUS
 10
299.9483832441
 20
80.7270339028
 40
45.0
 50
97.9868894141
 51
98.4149680847
  0
ARC
  8
13_KOMPONENTER
 62
7
  6
CONTINUOUS
 10
263.9483832441
 20
110.059831703
 40
3.0
 50
324.2467452761
 51
360.0
  0
ARC
  8
13_KOMPONENTER
 62
7
  6
CONTINUOUS
 10
283.9483832441
 20
110.059831703
 40
3.0
 50
180.0
 51
215.7532632257
  0
ARC
  8
13_KOMPONENTER
 62
7
  6
CONTINUOUS
 10
289.9483832441
 20
110.059831703
 40
3.0
 50
324.2464548069
 51
360.0
  0
ARC
  8
13_KOMPONENTER
 62
7
  6
CONTINUOUS
 10
290.7124262287
 20
105.2356334842
 40
1.0
 50
90.0
 51
125.6762126162
  0
ARC
  8
13_KOMPONENTER
 62
7
  6
CONTINUOUS
 10
264.7124262287
 20
105.2356334842
 40
1.0
 50
90.0
 51
125.6762125206
  0
ARC
  8
13_KOMPONENTER
 62
7
  6
CONTINUOUS
 10
283.1843402594
 20
105.2356334842
 40
1.0
 50
54.323997106
 51
90.0
  0
ARC
  8
13_KOMPONENTER
 62
7
  6
CONTINUOUS
 10
289.4413340192
 20
106.7856334842
 40
1.0
 50
270.0
 51
305.0897993214
  0
ARC
  8
13_KOMPONENTER
 62
7
  6
CONTINUOUS
 10
284.4554324689
 20
106.7856334842
 40
1.0
 50
234.9102006786
 51
270.0
  0
ARC
  8
13_KOMPONENTER
 62
7
  6
CONTINUOUS
 10
296.4483832441
 20
106.7356334842
 40
0.5
 50
270.0
 51
0.000000697
  0
ARC
  8
13_KOMPONENTER
 62
7
  6
CONTINUOUS
 10
296.4483832441
 20
110.6264489779
 40
0.5
 50
0.0
 51
86.8879973892
  0
ARC
  8
13_KOMPONENTER
 62
7
  6
CONTINUOUS
 10
270.4483832441
 20
106.7356334842
 40
0.5
 50
270.0
 51
0.0000001127
  0
ARC
  8
13_KOMPONENTER
 62
7
  6
CONTINUOUS
 10
277.4483832441
 20
106.7356334842
 40
0.5
 50
179.9999998873
 51
270.0
  0
ARC
  8
13_KOMPONENTER
 62
7
  6
CONTINUOUS
 10
303.4483832441
 20
106.7356334842
 40
0.5
 50
180.0
 51
270.0
  0
ARC
  8
13_KOMPONENTER
 62
7
  6
CONTINUOUS
 10
303.4483832441
 20
110.2458721359
 40
0.5
 50
86.888008897
 51
179.9998361148
  0
ARC
  8
13_KOMPONENTER
 62
7
  6
CONTINUOUS
 10
270.4483832441
 20
112.0400201054
 40
0.5
 50
0.0
 51
86.8879973892
  0
ARC
  8
13_KOMPONENTER
 62
7
  6
CONTINUOUS
 10
277.4483832441
 20
111.6594432634
 40
0.5
 50
86.8879973892
 51
180.0
  0
ARC
  8
13_KOMPONENTER
 62
7
  6
CONTINUOUS
 10
263.6291687185
 20
114.149902166
 40
10.0
 50
215.7532579547
 51
234.9102006786
  0
ARC
  8
13_KOMPONENTER
 62
7
  6
CONTINUOUS
 10
263.9483832441
 20
115.5410708376
 40
3.0
 50
0.0000054582
 51
55.1500998553
  0
ARC
  8
13_KOMPONENTER
 62
7
  6
CONTINUOUS
 10
279.9483832441
 20
113.0257396764
 40
1.0
 50
266.888
 51
359.9769137153
  0
ARC
  8
13_KOMPONENTER
 62
7
  6
CONTINUOUS
 10
293.9483832441
 20
112.2645844488
 40
0.9999996917
 50
180.0000019722
 51
266.888
  0
ARC
  8
13_KOMPONENTER
 62
7
  6
CONTINUOUS
 10
289.6291687185
 20
114.149902166
 40
10.0
 50
215.7532579543
 51
234.9102006786
  0
ARC
  8
13_KOMPONENTER
 62
7
  6
CONTINUOUS
 10
284.2675977696
 20
114.149902166
 40
10.0
 50
305.0897993214
 51
324.2466574555
  0
ARC
  8
13_KOMPONENTER
 62
7
  6
CONTINUOUS
 10
283.9483832441
 20
115.5410708376
 40
3.0
 50
124.8499000991
 51
179.9999945801
  0
ARC
  8
13_KOMPONENTER
 62
7
  6
CONTINUOUS
 10
289.9483832441
 20
115.5410708376
 40
3.0
 50
0.0
 51
55.1504534738
  0
ARC
  8
13_KOMPONENTER
 62
7
  6
CONTINUOUS
 10
290.8193449878
 20
116.0324216705
 40
2.0
 50
29.429406625
 51
30.3117334295
  0
ARC
  8
13_KOMPONENTER
 62
7
  6
CONTINUOUS
 10
319.9483832441
 20
110.3694349971
 40
10.0
 50
359.9990674016
 51
15.3593991417
  0
ARC
  8
13_KOMPONENTER
 62
7
  6
CONTINUOUS
 10
313.6284205996
 20
106.7856334842
 40
1.0
 50
249.0299125367
 51
270.0
  0
ARC
  8
13_KOMPONENTER
 62
7
  6
CONTINUOUS
 10
325.9483832441
 20
106.7856334842
 40
1.0
 50
270.0
 51
360.0
  0
ARC
  8
13_KOMPONENTER
 62
7
  6
CONTINUOUS
 10
312.1674862246
 20
105.2356355635
 40
0.9999995841
 50
64.8095247603
 51
89.9996434254
  0
ARC
  8
13_KOMPONENTER
 62
7
  6
CONTINUOUS
 10
327.4483832441
 20
106.2856334842
 40
0.5
 50
180.0
 51
270.0
  0
ARC
  8
13_KOMPONENTER
 62
7
  6
CONTINUOUS
 10
329.4483832441
 20
106.2856334842
 40
0.5
 50
270.0
 51
360.0
  0
ARC
  8
13_KOMPONENTER
 62
7
  6
CONTINUOUS
 10
321.9483832441
 20
112.5774295517
 40
5.0
 50
4.0698380687
 51
16.9574262942
  0
ARC
  8
13_KOMPONENTER
 62
7
  6
CONTINUOUS
 10
309.9483832441
 20
114.0162007989
 40
3.0
 50
180.0
 51
189.6494631176
  0
ARC
  8
13_KOMPONENTER
 62
7
  6
CONTINUOUS
 10
306.4568546349
 20
111.5845239152
 40
1.0
 50
266.888
 51
19.1309769227
  0
ARC
  8
13_KOMPONENTER
 62
7
  6
CONTINUOUS
 10
316.8493451382
 20
115.1895400232
 40
10.0
 50
189.6494631176
 51
249.0299125367
  0
ARC
  8
13_KOMPONENTER
 62
7
  6
CONTINUOUS
 10
320.4483832441
 20
117.7856334842
 40
1.75
 50
57.4729040128
 51
302.5270959872
  0
ARC
  8
13_KOMPONENTER
 62
7
  6
CONTINUOUS
 10
321.8888827282
 20
115.443100403
 40
1.0
 50
98.9243437179
 51
121.5887052411
  0
ARC
  8
13_KOMPONENTER
 62
7
  6
CONTINUOUS
 10
325.4438115658
 20
114.9750851428
 40
1.0
 50
13.1129220856
 51
82.5
  0
ARC
  8
13_KOMPONENTER
 62
7
  6
CONTINUOUS
 10
321.8195141641
 20
115.6356334842
 40
0.8
 50
96.162972931
 51
122.5270959872
  0
ARC
  8
13_KOMPONENTER
 62
7
  6
CONTINUOUS
 10
346.9483832441
 20
117.7856334842
 40
18.0
 50
164.6414064832
 51
195.3586002692
  0
ARC
  8
13_KOMPONENTER
 62
7
  6
CONTINUOUS
 10
215.9483832441
 20
121.2856334842
 40
4.0
 50
108.2099568643
 51
235.150095421
  0
ARC
  8
13_KOMPONENTER
 62
7
  6
CONTINUOUS
 10
201.9483832441
 20
121.2856334842
 40
4.0
 50
304.849904579
 51
71.7900431357
  0
ARC
  8
13_KOMPONENTER
 62
7
  6
CONTINUOUS
 10
189.9483832441
 20
121.2856334842
 40
4.0
 50
108.2099568643
 51
235.150095421
  0
ARC
  8
13_KOMPONENTER
 62
7
  6
CONTINUOUS
 10
202.5733832441
 20
123.1854690034
 40
2.0
 50
71.7900431357
 51
165.0
  0
ARC
  8
13_KOMPONENTER
 62
7
  6
CONTINUOUS
 10
189.3233832441
 20
123.1854690034
 40
2.0
 50
15.0
 51
108.2099568643
  0
ARC
  8
13_KOMPONENTER
 62
7
  6
CONTINUOUS
 10
215.3233832441
 20
123.1854690034
 40
2.0
 50
15.0
 51
108.2099568643
  0
ARC
  8
13_KOMPONENTER
 62
7
  6
CONTINUOUS
 10
193.3036743777
 20
123.7856334842
 40
2.0
 50
195.0
 51
270.0
  0
ARC
  8
13_KOMPONENTER
 62
7
  6
CONTINUOUS
 10
198.5930921104
 20
123.7856334842
 40
2.0
 50
270.0
 51
345.0
  0
ARC
  8
13_KOMPONENTER
 62
7
  6
CONTINUOUS
 10
219.3036743777
 20
123.7856334842
 40
2.0
 50
195.0
 51
270.0
  0
ARC
  8
13_KOMPONENTER
 62
7
  6
CONTINUOUS
 10
208.9483832441
 20
135.3311529127
 40
5.395909
 50
66.8741389039
 51
113.1258610961
  0
ARC
  8
13_KOMPONENTER
 62
7
  6
CONTINUOUS
 10
182.9483832441
 20
135.3311529127
 40
5.395909
 50
66.8741389039
 51
90.0
  0
ARC
  8
13_KOMPONENTER
 62
7
  6
CONTINUOUS
 10
253.9483832441
 20
121.2856334842
 40
4.0
 50
304.8499079288
 51
71.7900431357
  0
ARC
  8
13_KOMPONENTER
 62
7
  6
CONTINUOUS
 10
241.9483832441
 20
121.2856334842
 40
4.0
 50
108.2099568643
 51
235.150095421
  0
ARC
  8
13_KOMPONENTER
 62
7
  6
CONTINUOUS
 10
227.9483832441
 20
121.2856334842
 40
4.0
 50
304.849904579
 51
71.7900431357
  0
ARC
  8
13_KOMPONENTER
 62
7
  6
CONTINUOUS
 10
254.5733832441
 20
123.1854690034
 40
2.0
 50
71.7900431357
 51
165.0
  0
ARC
  8
13_KOMPONENTER
 62
7
  6
CONTINUOUS
 10
241.3233832441
 20
123.1854690034
 40
2.0
 50
15.0
 51
108.2099568643
  0
ARC
  8
13_KOMPONENTER
 62
7
  6
CONTINUOUS
 10
228.5733832441
 20
123.1854690034
 40
2.0
 50
71.7900431357
 51
165.0
  0
ARC
  8
13_KOMPONENTER
 62
7
  6
CONTINUOUS
 10
224.5930921104
 20
123.7856334842
 40
2.0
 50
270.0
 51
345.0
  0
ARC
  8
13_KOMPONENTER
 62
7
  6
CONTINUOUS
 10
245.3036743777
 20
123.7856334842
 40
2.0
 50
195.0
 51
270.0
  0
ARC
  8
13_KOMPONENTER
 62
7
  6
CONTINUOUS
 10
250.5930921104
 20
123.7856334842
 40
2.0
 50
270.0
 51
345.0
  0
ARC
  8
13_KOMPONENTER
 62
7
  6
CONTINUOUS
 10
234.9483832441
 20
135.3311529127
 40
5.395909
 50
66.8741389039
 51
113.1258610961
  0
ARC
  8
13_KOMPONENTER
 62
7
  6
CONTINUOUS
 10
260.9483832441
 20
135.3311529127
 40
5.395909
 50
66.8741389039
 51
113.1258610961
  0
ARC
  8
13_KOMPONENTER
 62
7
  6
CONTINUOUS
 10
219.5652719935
 20
148.2337121933
 40
10.0
 50
39.7343993488
 51
57.0454526894
  0
ARC
  8
13_KOMPONENTER
 62
7
  6
CONTINUOUS
 10
193.5652719935
 20
148.2337121933
 40
10.0
 50
39.7343993488
 51
57.0454526894
  0
ARC
  8
13_KOMPONENTER
 62
7
  6
CONTINUOUS
 10
198.3314944946
 20
148.2337121933
 40
10.0
 50
122.9545473106
 51
140.2654552725
  0
ARC
  8
13_KOMPONENTER
 62
7
  6
CONTINUOUS
 10
208.9483832441
 20
149.2270619127
 40
10.0
 50
235.150095421
 51
241.8960195945
  0
ARC
  8
13_KOMPONENTER
 62
7
  6
CONTINUOUS
 10
208.9483832441
 20
149.2270619127
 40
10.0
 50
298.1039804055
 51
304.849904579
  0
ARC
  8
13_KOMPONENTER
 62
7
  6
CONTINUOUS
 10
182.9483832441
 20
149.2270619127
 40
10.0
 50
298.1039804055
 51
304.849904579
  0
ARC
  8
13_KOMPONENTER
 62
7
  6
CONTINUOUS
 10
186.2458953814
 20
143.0524029177
 40
3.0
 50
246.8741389039
 51
298.1039804055
  0
ARC
  8
13_KOMPONENTER
 62
7
  6
CONTINUOUS
 10
205.6508711067
 20
143.0524029177
 40
3.0
 50
241.8960195945
 51
293.1258610961
  0
ARC
  8
13_KOMPONENTER
 62
7
  6
CONTINUOUS
 10
212.2458953814
 20
143.0524029177
 40
3.0
 50
246.8741389039
 51
298.1039804055
  0
ARC
  8
13_KOMPONENTER
 62
7
  6
CONTINUOUS
 10
186.9483832441
 20
143.4824992662
 40
3.0
 50
304.849904579
 51
360.0
  0
ARC
  8
13_KOMPONENTER
 62
7
  6
CONTINUOUS
 10
204.9483832441
 20
143.4824992662
 40
3.0
 50
180.0
 51
235.150095421
  0
ARC
  8
13_KOMPONENTER
 62
7
  6
CONTINUOUS
 10
212.9483832441
 20
143.4824992662
 40
3.0
 50
304.849904579
 51
360.0
  0
ARC
  8
13_KOMPONENTER
 62
7
  6
CONTINUOUS
 10
218.9483832441
 20
152.7083198034
 40
3.0
 50
140.2655741185
 51
180.0000010154
  0
ARC
  8
13_KOMPONENTER
 62
7
  6
CONTINUOUS
 10
198.9483832441
 20
152.7083198034
 40
3.0
 50
0.0000007673
 51
39.7343954091
  0
ARC
  8
13_KOMPONENTER
 62
7
  6
CONTINUOUS
 10
192.9483832441
 20
152.7083198034
 40
3.0
 50
140.2651199955
 51
179.9999891652
  0
ARC
  8
13_KOMPONENTER
 62
7
  6
CONTINUOUS
 10
198.4610339176
 20
155.7856334842
 40
1.0
 50
57.0454526894
 51
90.0
  0
ARC
  8
13_KOMPONENTER
 62
7
  6
CONTINUOUS
 10
219.4357325705
 20
155.7856334842
 40
1.0
 50
90.0
 51
122.9545473106
  0
ARC
  8
13_KOMPONENTER
 62
7
  6
CONTINUOUS
 10
193.4357325705
 20
155.7856334842
 40
1.0
 50
90.0
 51
122.9545473106
  0
ARC
  8
13_KOMPONENTER
 62
7
  6
CONTINUOUS
 10
231.6508711067
 20
143.0524029177
 40
3.0
 50
241.8960195945
 51
293.1258610961
  0
ARC
  8
13_KOMPONENTER
 62
7
  6
CONTINUOUS
 10
238.2458953814
 20
143.0524029177
 40
3.0
 50
246.8741389039
 51
298.1039804055
  0
ARC
  8
13_KOMPONENTER
 62
7
  6
CONTINUOUS
 10
230.9483832441
 20
143.4824992662
 40
3.0
 50
180.0
 51
235.150095421
  0
ARC
  8
13_KOMPONENTER
 62
7
  6
CONTINUOUS
 10
238.9483832441
 20
143.4824992662
 40
3.0
 50
304.849904579
 51
360.0
  0
ARC
  8
13_KOMPONENTER
 62
7
  6
CONTINUOUS
 10
224.3314944946
 20
148.2337121933
 40
10.0
 50
122.9545473106
 51
140.2655915095
  0
ARC
  8
13_KOMPONENTER
 62
7
  6
CONTINUOUS
 10
234.9483832441
 20
149.2270619127
 40
10.0
 50
235.150095421
 51
241.8960195945
  0
ARC
  8
13_KOMPONENTER
 62
7
  6
CONTINUOUS
 10
234.9483832441
 20
149.2270619127
 40
10.0
 50
298.1039804055
 51
304.849904579
  0
ARC
  8
13_KOMPONENTER
 62
7
  6
CONTINUOUS
 10
257.6508711067
 20
143.0524029177
 40
3.0
 50
241.8960195945
 51
293.1258610961
  0
ARC
  8
13_KOMPONENTER
 62
7
  6
CONTINUOUS
 10
256.9483832441
 20
143.4824992662
 40
3.0
 50
180.0
 51
235.150095421
  0
ARC
  8
13_KOMPONENTER
 62
7
  6
CONTINUOUS
 10
250.3314944946
 20
148.2337121933
 40
10.0
 50
122.9545473106
 51
140.2655915095
  0
ARC
  8
13_KOMPONENTER
 62
7
  6
CONTINUOUS
 10
245.5652719935
 20
148.2337121933
 40
10.0
 50
39.7345695615
 51
57.0454526894
  0
ARC
  8
13_KOMPONENTER
 62
7
  6
CONTINUOUS
 10
260.9483832441
 20
149.2270619127
 40
10.0
 50
235.150095421
 51
241.8960195945
  0
ARC
  8
13_KOMPONENTER
 62
7
  6
CONTINUOUS
 10
260.9483832441
 20
149.2270619127
 40
10.0
 50
298.1039804055
 51
304.849904579
  0
ARC
  8
13_KOMPONENTER
 62
7
  6
CONTINUOUS
 10
244.9483832441
 20
152.7083198034
 40
3.0
 50
140.2655741185
 51
180.0000010154
  0
ARC
  8
13_KOMPONENTER
 62
7
  6
CONTINUOUS
 10
224.9483832441
 20
152.7083198034
 40
3.0
 50
0.0000007673
 51
39.7343954091
  0
ARC
  8
13_KOMPONENTER
 62
7
  6
CONTINUOUS
 10
250.9483832441
 20
152.7083198034
 40
3.0
 50
0.0
 51
39.7349627845
  0
ARC
  8
13_KOMPONENTER
 62
7
  6
CONTINUOUS
 10
250.4610339176
 20
155.7856334842
 40
1.0
 50
57.0454526894
 51
90.0
  0
ARC
  8
13_KOMPONENTER
 62
7
  6
CONTINUOUS
 10
224.4610339176
 20
155.7856334842
 40
1.0
 50
57.0454526894
 51
90.0
  0
ARC
  8
13_KOMPONENTER
 62
7
  6
CONTINUOUS
 10
245.4357325705
 20
155.7856334842
 40
1.0
 50
90.0
 51
122.9545473106
  0
ARC
  8
13_KOMPONENTER
 62
7
  6
CONTINUOUS
 10
279.9483832441
 20
121.2856334842
 40
4.0
 50
304.849907939
 51
71.7900431357
  0
ARC
  8
13_KOMPONENTER
 62
7
  6
CONTINUOUS
 10
267.9483832441
 20
121.2856334842
 40
4.0
 50
108.2099568643
 51
235.1500920952
  0
ARC
  8
13_KOMPONENTER
 62
7
  6
CONTINUOUS
 10
293.9483832441
 20
121.2856334842
 40
4.0
 50
98.4149680847
 51
235.1498268812
  0
ARC
  8
13_KOMPONENTER
 62
7
  6
CONTINUOUS
 10
293.9736836875
 20
123.3099291215
 40
2.0
 50
15.0
 51
97.9868894141
  0
ARC
  8
13_KOMPONENTER
 62
7
  6
CONTINUOUS
 10
280.5733832441
 20
123.1854690034
 40
2.0
 50
71.7900431357
 51
165.0
  0
ARC
  8
13_KOMPONENTER
 62
7
  6
CONTINUOUS
 10
267.3233832441
 20
123.1854690034
 40
2.0
 50
15.0
 51
108.2099568643
  0
ARC
  8
13_KOMPONENTER
 62
7
  6
CONTINUOUS
 10
271.3036743777
 20
123.7856334842
 40
2.0
 50
195.0
 51
270.0
  0
ARC
  8
13_KOMPONENTER
 62
7
  6
CONTINUOUS
 10
276.5930921104
 20
123.7856334842
 40
2.0
 50
270.0
 51
345.0
  0
ARC
  8
13_KOMPONENTER
 62
7
  6
CONTINUOUS
 10
297.9754423042
 20
123.8299758649
 40
2.0
 50
195.0
 51
271.6372450778
  0
ARC
  8
13_KOMPONENTER
 62
7
  6
CONTINUOUS
 10
286.9483832441
 20
135.3311529127
 40
5.395909
 50
66.8741389039
 51
113.1258610961
  0
ARC
  8
13_KOMPONENTER
 62
7
  6
CONTINUOUS
 10
343.9483832441
 20
119.2856334842
 40
18.0
 50
163.0425737058
 51
176.2255506462
  0
ARC
  8
13_KOMPONENTER
 62
7
  6
CONTINUOUS
 10
343.9483832441
 20
119.2856334842
 40
18.0
 50
193.1129220856
 51
196.9574262942
  0
ARC
  8
13_KOMPONENTER
 62
7
  6
CONTINUOUS
 10
319.9483832441
 20
125.2018319713
 40
10.0
 50
344.6405887039
 51
0.000934038
  0
ARC
  8
13_KOMPONENTER
 62
7
  6
CONTINUOUS
 10
321.9483832441
 20
125.9938374167
 40
5.0
 50
343.0425737058
 51
360.0
  0
ARC
  8
13_KOMPONENTER
 62
7
  6
CONTINUOUS
 10
321.8888827282
 20
120.1281665653
 40
1.0
 50
238.4106883905
 51
277.4999793535
  0
ARC
  8
13_KOMPONENTER
 62
7
  6
CONTINUOUS
 10
324.989595698
 20
120.5363831721
 40
1.0
 50
277.4999999332
 51
356.2255510826
  0
ARC
  8
13_KOMPONENTER
 62
7
  6
CONTINUOUS
 10
321.8195141641
 20
119.9356334842
 40
0.8
 50
237.4729040128
 51
263.8948878794
  0
ARC
  8
13_KOMPONENTER
 62
7
  6
CONTINUOUS
 10
306.7483832441
 20
121.879835182
 40
0.2
 50
0.0
 51
91.6372450778
  0
ARC
  8
13_KOMPONENTER
 62
7
  6
CONTINUOUS
 10
327.4483832441
 20
129.2856334842
 40
0.5
 50
90.0
 51
180.0
  0
ARC
  8
13_KOMPONENTER
 62
7
  6
CONTINUOUS
 10
329.4483832441
 20
129.2856334842
 40
0.5
 50
0.0
 51
90.0
  0
ARC
  8
13_KOMPONENTER
 62
7
  6
CONTINUOUS
 10
276.3314944946
 20
148.2337121933
 40
10.0
 50
122.9545473106
 51
140.2655518186
  0
ARC
  8
13_KOMPONENTER
 62
7
  6
CONTINUOUS
 10
271.5652719935
 20
148.2337121933
 40
10.0
 50
39.7344493127
 51
57.0454526894
  0
ARC
  8
13_KOMPONENTER
 62
7
  6
CONTINUOUS
 10
286.9483832441
 20
149.2270619127
 40
10.0
 50
235.150095421
 51
241.8960195945
  0
ARC
  8
13_KOMPONENTER
 62
7
  6
CONTINUOUS
 10
286.9483832441
 20
149.2270619127
 40
10.0
 50
298.1039804055
 51
304.849904579
  0
ARC
  8
13_KOMPONENTER
 62
7
  6
CONTINUOUS
 10
264.2458953814
 20
143.0524029177
 40
3.0
 50
246.8741389039
 51
298.1039804055
  0
ARC
  8
13_KOMPONENTER
 62
7
  6
CONTINUOUS
 10
283.6508711067
 20
143.0524029177
 40
3.0
 50
241.8960195945
 51
293.1258610961
  0
ARC
  8
13_KOMPONENTER
 62
7
  6
CONTINUOUS
 10
264.9483832441
 20
143.4824992662
 40
3.0
 50
304.849904579
 51
0.0002252146
  0
ARC
  8
13_KOMPONENTER
 62
7
  6
CONTINUOUS
 10
282.9483832441
 20
143.4824992662
 40
3.0
 50
179.9997747394
 51
235.150095421
  0
ARC
  8
13_KOMPONENTER
 62
7
  6
CONTINUOUS
 10
270.9483832441
 20
152.7083198034
 40
3.0
 50
140.2654418157
 51
179.9999901548
  0
ARC
  8
13_KOMPONENTER
 62
7
  6
CONTINUOUS
 10
276.9483832441
 20
152.7083198034
 40
3.0
 50
0.0
 51
39.7345619553
  0
ARC
  8
13_KOMPONENTER
 62
7
  6
CONTINUOUS
 10
276.4610339176
 20
155.7856334842
 40
1.0
 50
57.0454526894
 51
90.0
  0
ARC
  8
13_KOMPONENTER
 62
7
  6
CONTINUOUS
 10
271.4357325705
 20
155.7856334842
 40
1.0
 50
90.0
 51
122.9545473106
  0
ARC
  8
13_KOMPONENTER
 62
7
  6
CONTINUOUS
 10
302.3314944946
 20
148.2337121933
 40
10.0
 50
122.9545473106
 51
140.2655518186
  0
ARC
  8
13_KOMPONENTER
 62
7
  6
CONTINUOUS
 10
297.5652719935
 20
148.2337121933
 40
10.0
 50
39.7344015128
 51
57.0454526894
  0
ARC
  8
13_KOMPONENTER
 62
7
  6
CONTINUOUS
 10
290.2458953814
 20
143.0524029177
 40
3.0
 50
246.8741389039
 51
298.1039804055
  0
ARC
  8
13_KOMPONENTER
 62
7
  6
CONTINUOUS
 10
308.9483832441
 20
149.1671963744
 40
3.0
 50
179.9999882345
 51
216.03989162
  0
ARC
  8
13_KOMPONENTER
 62
7
  6
CONTINUOUS
 10
290.9483832441
 20
143.4824992662
 40
3.0
 50
304.849904579
 51
0.0002252146
  0
ARC
  8
13_KOMPONENTER
 62
7
  6
CONTINUOUS
 10
296.9483832441
 20
152.7083198034
 40
3.0
 50
140.2654418157
 51
180.0014648324
  0
ARC
  8
13_KOMPONENTER
 62
7
  6
CONTINUOUS
 10
302.9483832441
 20
152.7083198034
 40
3.0
 50
359.9999774631
 51
39.7343876267
  0
ARC
  8
13_KOMPONENTER
 62
7
  6
CONTINUOUS
 10
297.4357325705
 20
155.7856334842
 40
1.0
 50
90.0
 51
122.9545473106
  0
ARC
  8
13_KOMPONENTER
 62
7
  6
CONTINUOUS
 10
302.4610339176
 20
155.7856334842
 40
1.0
 50
57.0454526894
 51
90.0
  0
ARC
  8
13_KOMPONENTER
 62
7
  6
CONTINUOUS
 10
301.8796862002
 20
155.7856334842
 40
1.0
 50
53.1874621651
 51
89.9997805881
  0
ARC
  8
13_KOMPONENTER
 62
7
  6
CONTINUOUS
 10
298.0171841091
 20
155.7856334842
 40
1.0
 50
90.0
 51
126.8123005607
  0
ARC
  8
13_KOMPONENTER
 62
7
  6
CONTINUOUS
 10
314.6086372819
 20
153.2856334842
 40
10.0
 50
216.0398806421
 51
270.0000025456
  0
ARC
  8
13_KOMPONENTER
 62
7
  6
CONTINUOUS
 10
47.1483832441
 20
227.2100670998
 40
1.0
 50
270.0
 51
360.0
  0
ARC
  8
13_KOMPONENTER
 62
7
  6
CONTINUOUS
 10
37.8983832441
 20
227.2100670998
 40
1.0
 50
270.0
 51
360.0
  0
ARC
  8
13_KOMPONENTER
 62
7
  6
CONTINUOUS
 10
43.8983832441
 20
227.2100670998
 40
1.0
 50
180.0
 51
270.0
  0
ARC
  8
13_KOMPONENTER
 62
7
  6
CONTINUOUS
 10
29.1483832441
 20
227.2100670998
 40
1.0
 50
180.0
 51
270.0
  0
ARC
  8
13_KOMPONENTER
 62
7
  6
CONTINUOUS
 10
26.7182644858
 20
226.7100670998
 40
0.5
 50
270.0
 51
336.8685791854
  0
ARC
  8
13_KOMPONENTER
 62
7
  6
CONTINUOUS
 10
25.1483832441
 20
229.3990078405
 40
3.0
 50
336.8685791854
 51
359.9998022325
  0
ARC
  8
13_KOMPONENTER
 62
7
  6
CONTINUOUS
 10
51.6483832441
 20
229.7265381709
 40
0.5
 50
270.0
 51
360.0
  0
ARC
  8
13_KOMPONENTER
 62
7
  6
CONTINUOUS
 10
89.1483832441
 20
227.2100670998
 40
1.0
 50
180.0
 51
270.0
  0
ARC
  8
13_KOMPONENTER
 62
7
  6
CONTINUOUS
 10
73.1483832441
 20
227.2100670998
 40
1.0
 50
270.0
 51
360.0
  0
ARC
  8
13_KOMPONENTER
 62
7
  6
CONTINUOUS
 10
63.1483832441
 20
227.2100670998
 40
1.0
 50
180.0
 51
270.0
  0
ARC
  8
13_KOMPONENTER
 62
7
  6
CONTINUOUS
 10
99.1483832441
 20
227.2100670998
 40
1.0
 50
270.0
 51
360.0
  0
ARC
  8
13_KOMPONENTER
 62
7
  6
CONTINUOUS
 10
58.6483832441
 20
232.6700866722
 40
0.5
 50
180.0
 51
269.0560853692
  0
ARC
  8
13_KOMPONENTER
 62
7
  6
CONTINUOUS
 10
84.6483832441
 20
232.4850670998
 40
0.5
 50
180.0
 51
270.0
  0
ARC
  8
13_KOMPONENTER
 62
7
  6
CONTINUOUS
 10
77.6483832441
 20
232.4850670998
 40
0.5
 50
270.0
 51
360.0
  0
ARC
  8
13_KOMPONENTER
 62
7
  6
CONTINUOUS
 10
125.1483832441
 20
227.2100670998
 40
1.0
 50
270.0
 51
360.0
  0
ARC
  8
13_KOMPONENTER
 62
7
  6
CONTINUOUS
 10
115.1483832441
 20
227.2100670998
 40
1.0
 50
180.0
 51
270.0
  0
ARC
  8
13_KOMPONENTER
 62
7
  6
CONTINUOUS
 10
101.1483832441
 20
230.9850670998
 40
1.0
 50
97.5474679229
 51
180.0
  0
ARC
  8
13_KOMPONENTER
 62
7
  6
CONTINUOUS
 10
113.1483832441
 20
230.9850670998
 40
1.0
 50
0.0
 51
82.4525322589
  0
ARC
  8
13_KOMPONENTER
 62
7
  6
CONTINUOUS
 10
151.1483832441
 20
227.2100670998
 40
1.0
 50
270.0
 51
360.0
  0
ARC
  8
13_KOMPONENTER
 62
7
  6
CONTINUOUS
 10
141.1483832441
 20
227.2100670998
 40
1.0
 50
180.0
 51
270.0
  0
ARC
  8
13_KOMPONENTER
 62
7
  6
CONTINUOUS
 10
153.1483832441
 20
230.9850670998
 40
1.0
 50
97.5474679805
 51
180.0
  0
ARC
  8
13_KOMPONENTER
 62
7
  6
CONTINUOUS
 10
127.1483832441
 20
230.9850670998
 40
1.0
 50
97.5474679229
 51
180.0
  0
ARC
  8
13_KOMPONENTER
 62
7
  6
CONTINUOUS
 10
139.1483832441
 20
230.9850670998
 40
1.0
 50
0.0
 51
82.4525322589
  0
ARC
  8
13_KOMPONENTER
 62
7
  6
CONTINUOUS
 10
110.6483832441
 20
232.4850670998
 40
0.5
 50
180.0
 51
270.0
  0
ARC
  8
13_KOMPONENTER
 62
7
  6
CONTINUOUS
 10
103.6483832441
 20
232.4850670998
 40
0.5
 50
270.0
 51
360.0
  0
ARC
  8
13_KOMPONENTER
 62
7
  6
CONTINUOUS
 10
136.6483832441
 20
232.4850670998
 40
0.5
 50
180.0
 51
270.0
  0
ARC
  8
13_KOMPONENTER
 62
7
  6
CONTINUOUS
 10
129.6483832441
 20
232.4850670998
 40
0.5
 50
270.0
 51
360.0
  0
ARC
  8
13_KOMPONENTER
 62
7
  6
CONTINUOUS
 10
155.6483832441
 20
232.4850670998
 40
0.5
 50
270.0
 51
360.0
  0
ARC
  8
13_KOMPONENTER
 62
7
  6
CONTINUOUS
 10
162.6483832441
 20
232.4850670998
 40
0.5
 50
180.0
 51
270.0
  0
ARC
  8
13_KOMPONENTER
 62
7
  6
CONTINUOUS
 10
175.8983832441
 20
235.4350670998
 40
0.3
 50
90.0005928332
 51
179.9999578078
  0
ARC
  8
13_KOMPONENTER
 62
7
  6
CONTINUOUS
 10
50.1483832441
 20
241.4600670998
 40
2.0
 50
89.9991435831
 51
180.0031424398
  0
ARC
  8
13_KOMPONENTER
 62
7
  6
CONTINUOUS
 10
47.1483832441
 20
241.7100670998
 40
1.0
 50
0.0
 51
90.0
  0
ARC
  8
13_KOMPONENTER
 62
7
  6
CONTINUOUS
 10
29.1483832441
 20
241.7100670998
 40
1.0
 50
90.0
 51
180.0
  0
ARC
  8
13_KOMPONENTER
 62
7
  6
CONTINUOUS
 10
58.6483832441
 20
238.8000866131
 40
0.5
 50
90.9438812605
 51
180.0
  0
ARC
  8
13_KOMPONENTER
 62
7
  6
CONTINUOUS
 10
51.6483832441
 20
238.6746021204
 40
0.5
 50
0.0
 51
91.1135419935
  0
ARC
  8
13_KOMPONENTER
 62
7
  6
CONTINUOUS
 10
84.6483832441
 20
238.9850670998
 40
0.5
 50
90.0
 51
180.0
  0
ARC
  8
13_KOMPONENTER
 62
7
  6
CONTINUOUS
 10
77.6483832441
 20
238.9850670998
 40
0.5
 50
0.0
 51
90.0
  0
ARC
  8
13_KOMPONENTER
 62
7
  6
CONTINUOUS
 10
25.1483832441
 20
242.0711263591
 40
3.0
 50
0.0002091927
 51
23.1314208146
  0
ARC
  8
13_KOMPONENTER
 62
7
  6
CONTINUOUS
 10
47.1483832441
 20
244.2600670998
 40
1.0
 50
0.0
 51
90.0
  0
ARC
  8
13_KOMPONENTER
 62
7
  6
CONTINUOUS
 10
29.1483832441
 20
244.2600670998
 40
1.0
 50
90.0
 51
180.0
  0
ARC
  8
13_KOMPONENTER
 62
7
  6
CONTINUOUS
 10
26.7182644858
 20
244.7600670998
 40
0.5
 50
23.1314208146
 51
90.0
  0
ARC
  8
13_KOMPONENTER
 62
7
  6
CONTINUOUS
 10
110.6483832441
 20
238.9850670998
 40
0.5
 50
90.0
 51
180.0
  0
ARC
  8
13_KOMPONENTER
 62
7
  6
CONTINUOUS
 10
103.6483832441
 20
238.9850670998
 40
0.5
 50
0.0
 51
90.0
  0
ARC
  8
13_KOMPONENTER
 62
7
  6
CONTINUOUS
 10
129.6483832441
 20
238.9850670998
 40
0.5
 50
0.0
 51
90.0
  0
ARC
  8
13_KOMPONENTER
 62
7
  6
CONTINUOUS
 10
127.1483832441
 20
240.4850670998
 40
1.0
 50
180.0
 51
270.0
  0
ARC
  8
13_KOMPONENTER
 62
7
  6
CONTINUOUS
 10
101.1483832441
 20
240.4850670998
 40
1.0
 50
180.0
 51
270.0
  0
ARC
  8
13_KOMPONENTER
 62
7
  6
CONTINUOUS
 10
113.1483832441
 20
240.4850670998
 40
1.0
 50
270.0
 51
360.0
  0
ARC
  8
13_KOMPONENTER
 62
7
  6
CONTINUOUS
 10
136.6483832441
 20
238.9850670998
 40
0.5
 50
90.0
 51
180.0
  0
ARC
  8
13_KOMPONENTER
 62
7
  6
CONTINUOUS
 10
155.6483832441
 20
238.9850670998
 40
0.5
 50
0.0
 51
90.0
  0
ARC
  8
13_KOMPONENTER
 62
7
  6
CONTINUOUS
 10
162.6483832441
 20
238.9850670998
 40
0.5
 50
90.0
 51
180.0
  0
ARC
  8
13_KOMPONENTER
 62
7
  6
CONTINUOUS
 10
153.1483832441
 20
240.4850670998
 40
1.0
 50
180.0
 51
270.0
  0
ARC
  8
13_KOMPONENTER
 62
7
  6
CONTINUOUS
 10
139.1483832441
 20
240.4850670998
 40
1.0
 50
270.0
 51
360.0
  0
ARC
  8
13_KOMPONENTER
 62
7
  6
CONTINUOUS
 10
151.1483832441
 20
244.2600670998
 40
1.0
 50
0.0
 51
90.0
  0
ARC
  8
13_KOMPONENTER
 62
7
  6
CONTINUOUS
 10
141.1483832441
 20
244.2600670998
 40
1.0
 50
90.0
 51
180.0
  0
ARC
  8
13_KOMPONENTER
 62
7
  6
CONTINUOUS
 10
125.1483832441
 20
244.2600670998
 40
1.0
 50
0.0
 51
90.0
  0
ARC
  8
13_KOMPONENTER
 62
7
  6
CONTINUOUS
 10
115.1483832441
 20
244.2600670998
 40
1.0
 50
90.0
 51
180.0
  0
ARC
  8
13_KOMPONENTER
 62
7
  6
CONTINUOUS
 10
213.9483832441
 20
227.2100670998
 40
1.0
 50
270.0
 51
360.0
  0
ARC
  8
13_KOMPONENTER
 62
7
  6
CONTINUOUS
 10
203.9483832441
 20
227.2100670998
 40
1.0
 50
180.0
 51
270.0
  0
ARC
  8
13_KOMPONENTER
 62
7
  6
CONTINUOUS
 10
201.9483832441
 20
230.9850670998
 40
1.0
 50
0.0
 51
90.0
  0
ARC
  8
13_KOMPONENTER
 62
7
  6
CONTINUOUS
 10
215.9483832441
 20
230.9850670998
 40
1.0
 50
90.0
 51
180.0
  0
ARC
  8
13_KOMPONENTER
 62
7
  6
CONTINUOUS
 10
239.9483832441
 20
227.2100670998
 40
1.0
 50
270.0
 51
360.0
  0
ARC
  8
13_KOMPONENTER
 62
7
  6
CONTINUOUS
 10
229.9483832441
 20
227.2100670998
 40
1.0
 50
180.0
 51
270.0
  0
ARC
  8
13_KOMPONENTER
 62
7
  6
CONTINUOUS
 10
227.9483832441
 20
230.9850670998
 40
1.0
 50
0.0
 51
90.0
  0
ARC
  8
13_KOMPONENTER
 62
7
  6
CONTINUOUS
 10
253.9483832441
 20
230.9850670998
 40
1.0
 50
0.0
 51
90.0
  0
ARC
  8
13_KOMPONENTER
 62
7
  6
CONTINUOUS
 10
241.9483832441
 20
230.9850670998
 40
1.0
 50
90.0
 51
180.0
  0
ARC
  8
13_KOMPONENTER
 62
7
  6
CONTINUOUS
 10
199.4483832441
 20
232.4850670998
 40
0.5
 50
180.0
 51
270.0
  0
ARC
  8
13_KOMPONENTER
 62
7
  6
CONTINUOUS
 10
192.4483832441
 20
232.4850670998
 40
0.5
 50
270.0
 51
360.0
  0
ARC
  8
13_KOMPONENTER
 62
7
  6
CONTINUOUS
 10
225.4483832441
 20
232.4850670998
 40
0.5
 50
180.0
 51
270.0
  0
ARC
  8
13_KOMPONENTER
 62
7
  6
CONTINUOUS
 10
218.4483832441
 20
232.4850670998
 40
0.5
 50
270.0
 51
360.0
  0
ARC
  8
13_KOMPONENTER
 62
7
  6
CONTINUOUS
 10
251.4483832441
 20
232.4850670998
 40
0.5
 50
180.0
 51
270.0
  0
ARC
  8
13_KOMPONENTER
 62
7
  6
CONTINUOUS
 10
244.4483832441
 20
232.4850670998
 40
0.5
 50
270.0
 51
360.0
  0
ARC
  8
13_KOMPONENTER
 62
7
  6
CONTINUOUS
 10
179.1983832441
 20
235.4350670998
 40
0.3
 50
0.0000421922
 51
89.9994071668
  0
ARC
  8
13_KOMPONENTER
 62
7
  6
CONTINUOUS
 10
291.9483832441
 20
227.2100670998
 40
1.0
 50
270.0
 51
360.0
  0
ARC
  8
13_KOMPONENTER
 62
7
  6
CONTINUOUS
 10
255.9483832441
 20
227.2100670998
 40
1.0
 50
180.0
 51
270.0
  0
ARC
  8
13_KOMPONENTER
 62
7
  6
CONTINUOUS
 10
265.9483832441
 20
227.2100670998
 40
1.0
 50
270.0
 51
360.0
  0
ARC
  8
13_KOMPONENTER
 62
7
  6
CONTINUOUS
 10
281.9483832441
 20
227.2100670998
 40
1.0
 50
180.0
 51
270.0
  0
ARC
  8
13_KOMPONENTER
 62
7
  6
CONTINUOUS
 10
307.9483832441
 20
227.2100670998
 40
1.0
 50
180.0
 51
270.0
  0
ARC
  8
13_KOMPONENTER
 62
7
  6
CONTINUOUS
 10
325.9483832441
 20
227.2100670998
 40
1.0
 50
270.0
 51
360.0
  0
ARC
  8
13_KOMPONENTER
 62
7
  6
CONTINUOUS
 10
317.1983832441
 20
227.2100670998
 40
1.0
 50
180.0
 51
270.0
  0
ARC
  8
13_KOMPONENTER
 62
7
  6
CONTINUOUS
 10
311.1983832441
 20
227.2100670998
 40
1.0
 50
270.0
 51
360.0
  0
ARC
  8
13_KOMPONENTER
 62
7
  6
CONTINUOUS
 10
328.3785020023
 20
226.7100670998
 40
0.5
 50
203.1314208146
 51
270.0
  0
ARC
  8
13_KOMPONENTER
 62
7
  6
CONTINUOUS
 10
329.9483832441
 20
229.3990078405
 40
3.0
 50
180.0002091927
 51
203.1314208146
  0
ARC
  8
13_KOMPONENTER
 62
7
  6
CONTINUOUS
 10
303.4483832441
 20
229.7265381709
 40
0.5
 50
180.0
 51
270.0
  0
ARC
  8
13_KOMPONENTER
 62
7
  6
CONTINUOUS
 10
296.4483832441
 20
232.6700866722
 40
0.5
 50
270.9439146308
 51
360.0
  0
ARC
  8
13_KOMPONENTER
 62
7
  6
CONTINUOUS
 10
277.4483832441
 20
232.4850670998
 40
0.5
 50
180.0
 51
270.0
  0
ARC
  8
13_KOMPONENTER
 62
7
  6
CONTINUOUS
 10
270.4483832441
 20
232.4850670998
 40
0.5
 50
270.0
 51
360.0
  0
ARC
  8
13_KOMPONENTER
 62
7
  6
CONTINUOUS
 10
201.9483832441
 20
240.4850670998
 40
1.0
 50
277.5474677726
 51
360.0
  0
ARC
  8
13_KOMPONENTER
 62
7
  6
CONTINUOUS
 10
227.9483832441
 20
240.4850670998
 40
1.0
 50
277.5474677118
 51
360.0
  0
ARC
  8
13_KOMPONENTER
 62
7
  6
CONTINUOUS
 10
215.9483832441
 20
240.4850670998
 40
1.0
 50
180.0
 51
262.4525320486
  0
ARC
  8
13_KOMPONENTER
 62
7
  6
CONTINUOUS
 10
253.9483832441
 20
240.4850670998
 40
1.0
 50
277.5474677118
 51
360.0
  0
ARC
  8
13_KOMPONENTER
 62
7
  6
CONTINUOUS
 10
241.9483832441
 20
240.4850670998
 40
1.0
 50
180.0
 51
262.4525320486
  0
ARC
  8
13_KOMPONENTER
 62
7
  6
CONTINUOUS
 10
199.4483832441
 20
238.9850670998
 40
0.5
 50
90.0
 51
180.0
  0
ARC
  8
13_KOMPONENTER
 62
7
  6
CONTINUOUS
 10
192.4483832441
 20
238.9850670998
 40
0.5
 50
0.0
 51
90.0
  0
ARC
  8
13_KOMPONENTER
 62
7
  6
CONTINUOUS
 10
225.4483832441
 20
238.9850670998
 40
0.5
 50
90.0
 51
180.0
  0
ARC
  8
13_KOMPONENTER
 62
7
  6
CONTINUOUS
 10
218.4483832441
 20
238.9850670998
 40
0.5
 50
0.0
 51
90.0
  0
ARC
  8
13_KOMPONENTER
 62
7
  6
CONTINUOUS
 10
251.4483832441
 20
238.9850670998
 40
0.5
 50
90.0
 51
180.0
  0
ARC
  8
13_KOMPONENTER
 62
7
  6
CONTINUOUS
 10
244.4483832441
 20
238.9850670998
 40
0.5
 50
0.0
 51
90.0
  0
ARC
  8
13_KOMPONENTER
 62
7
  6
CONTINUOUS
 10
239.9483832441
 20
244.2600670998
 40
1.0
 50
0.0
 51
90.0
  0
ARC
  8
13_KOMPONENTER
 62
7
  6
CONTINUOUS
 10
213.9483832441
 20
244.2600670998
 40
1.0
 50
0.0
 51
90.0
  0
ARC
  8
13_KOMPONENTER
 62
7
  6
CONTINUOUS
 10
229.9483832441
 20
244.2600670998
 40
1.0
 50
90.0
 51
180.0
  0
ARC
  8
13_KOMPONENTER
 62
7
  6
CONTINUOUS
 10
203.9483832441
 20
244.2600670998
 40
1.0
 50
90.0
 51
180.0
  0
ARC
  8
13_KOMPONENTER
 62
7
  6
CONTINUOUS
 10
304.9483832441
 20
241.4600670998
 40
2.0
 50
359.9968575602
 51
90.0008564169
  0
ARC
  8
13_KOMPONENTER
 62
7
  6
CONTINUOUS
 10
307.9483832441
 20
241.7100670998
 40
1.0
 50
90.0
 51
180.0
  0
ARC
  8
13_KOMPONENTER
 62
7
  6
CONTINUOUS
 10
325.9483832441
 20
241.7100670998
 40
1.0
 50
0.0
 51
90.0
  0
ARC
  8
13_KOMPONENTER
 62
7
  6
CONTINUOUS
 10
303.4483832441
 20
238.6746021204
 40
0.5
 50
88.8864580065
 51
179.9999999999
  0
ARC
  8
13_KOMPONENTER
 62
7
  6
CONTINUOUS
 10
296.4483832441
 20
238.8000866131
 40
0.5
 50
0.0
 51
89.0561187395
  0
ARC
  8
13_KOMPONENTER
 62
7
  6
CONTINUOUS
 10
277.4483832441
 20
238.9850670998
 40
0.5
 50
90.0
 51
180.0
  0
ARC
  8
13_KOMPONENTER
 62
7
  6
CONTINUOUS
 10
270.4483832441
 20
238.9850670998
 40
0.5
 50
0.0
 51
90.0
  0
ARC
  8
13_KOMPONENTER
 62
7
  6
CONTINUOUS
 10
329.9483832441
 20
242.0711263591
 40
3.0
 50
156.8685791854
 51
179.9998022325
  0
ARC
  8
13_KOMPONENTER
 62
7
  6
CONTINUOUS
 10
307.9483832441
 20
244.2600670998
 40
1.0
 50
90.0
 51
180.0
  0
ARC
  8
13_KOMPONENTER
 62
7
  6
CONTINUOUS
 10
325.9483832441
 20
244.2600670998
 40
1.0
 50
0.0
 51
90.0
  0
ARC
  8
13_KOMPONENTER
 62
7
  6
CONTINUOUS
 10
328.3785020023
 20
244.7600670998
 40
0.5
 50
90.0
 51
156.8685791854
  0
ARC
  8
13_KOMPONENTER
 62
7
  6
CONTINUOUS
 10
367.4186693084
 20
129.2856327569
 40
1.0000000009
 50
90.0000186886
 51
179.9999791915
  0
ARC
  8
13_KOMPONENTER
 62
7
  6
CONTINUOUS
 10
367.4186693084
 20
132.3873243799
 40
1.0
 50
92.0
 51
180.0
  0
ARC
  8
13_KOMPONENTER
 62
7
  6
CONTINUOUS
 10
375.8186693084
 20
120.3856334842
 40
9.4
 50
90.0
 51
180.0004371853
  0
ARC
  8
13_KOMPONENTER
 62
7
  6
CONTINUOUS
 10
375.8186693084
 20
115.1856334842
 40
9.4
 50
180.0
 51
270.0
  0
ARC
  8
13_KOMPONENTER
 62
7
  6
CONTINUOUS
 10
370.1019541523
 20
153.540239162
 40
0.9999992972
 50
132.8874134335
 51
268.0000762263
  0
ARC
  8
13_KOMPONENTER
 62
7
  6
CONTINUOUS
 10
375.7436693084
 20
136.4356334842
 40
4.0
 50
180.0
 51
270.0
  0
ARC
  8
13_KOMPONENTER
 62
7
  6
CONTINUOUS
 10
375.8186693084
 20
147.3856334842
 40
9.4
 50
90.0
 51
180.0000174624
  0
ARC
  8
13_KOMPONENTER
 62
7
  6
CONTINUOUS
 10
375.7436693084
 20
148.3356334842
 40
4.0
 50
90.0
 51
180.0
  0
ARC
  8
13_KOMPONENTER
 62
7
  6
CONTINUOUS
 10
376.0686693084
 20
120.3856334842
 40
9.4
 50
0.0
 51
90.0
  0
ARC
  8
13_KOMPONENTER
 62
7
  6
CONTINUOUS
 10
376.0686693084
 20
115.1856334842
 40
9.4
 50
270.0
 51
360.0
  0
ARC
  8
13_KOMPONENTER
 62
7
  6
CONTINUOUS
 10
378.6686693084
 20
126.2856334842
 40
5.0
 50
59.6161387484
 51
59.6389996468
  0
ARC
  8
13_KOMPONENTER
 62
7
  6
CONTINUOUS
 10
383.4686693084
 20
121.7135685694
 40
2.0
 50
345.4559309585
 51
360.0
  0
ARC
  8
13_KOMPONENTER
 62
7
  6
CONTINUOUS
 10
380.1269817036
 20
132.2856334842
 40
2.0
 50
269.9999910838
 51
303.5573219134
  0
ARC
  8
13_KOMPONENTER
 62
7
  6
CONTINUOUS
 10
378.4686693084
 20
134.7856334842
 40
5.0
 50
303.5573146225
 51
359.9985301647
  0
ARC
  8
13_KOMPONENTER
 62
7
  6
CONTINUOUS
 10
376.1436693084
 20
136.4356334842
 40
4.0
 50
270.0
 51
360.0
  0
ARC
  8
13_KOMPONENTER
 62
7
  6
CONTINUOUS
 10
376.0686693084
 20
147.3856334842
 40
9.4
 50
0.0
 51
48.35485841
  0
ARC
  8
13_KOMPONENTER
 62
7
  6
CONTINUOUS
 10
376.0686693084
 20
147.3856334842
 40
9.4
 50
68.8226746355
 51
90.0
  0
ARC
  8
13_KOMPONENTER
 62
7
  6
CONTINUOUS
 10
376.1436693084
 20
148.3356334842
 40
4.0
 50
0.0
 51
90.0
  0
ARC
  8
13_KOMPONENTER
 62
7
  6
CONTINUOUS
 10
378.6605958665
 20
152.7856334842
 40
4.0
 50
17.8207891991
 51
90.0
  0
ARC
  8
13_KOMPONENTER
 62
7
  6
CONTINUOUS
 10
379.098195139
 20
151.8557535319
 40
4.0
 50
38.2426194201
 51
40.8985643794
  0
ARC
  8
13_KOMPONENTER
 62
7
  6
CONTINUOUS
 10
379.098195139
 20
151.8557535319
 40
4.0
 50
14.9997327224
 51
35.1205719308
  0
ARC
  8
13_KOMPONENTER
 62
7
  6
CONTINUOUS
 10
381.4686693084
 20
143.0090234938
 40
4.0
 50
0.0000093329
 51
15.0
  0
ARC
  8
13_KOMPONENTER
 62
7
  6
CONTINUOUS
 10
384.468669536
 20
142.2856337117
 40
0.9999997724
 50
0.2604496152
 51
90.000013039
  0
ARC
  8
13_KOMPONENTER
 62
7
  6
CONTINUOUS
 10
383.9686693084
 20
142.7856334842
 40
0.5
 50
90.0
 51
180.0
  0
ENDSEC
  0
EOF
