  0
SECTION
  2
HEADER
  9
$EXTMAX
 10
210.0
 20
297.0
 30
0.0
  9
$EXTMIN
 10
0.0
 20
0.0
 30
0.0
  9
$LIMMIN
 10
0.0
 20
0.0
  9
$LIMMAX
 10
210.0
 20
297.0
  9
$VIEWCTR
 10
105.0
 20
148.5
  9
$VIEWSIZE
 40
297.0
  9
$CLAYER
  8
0
  9
$LTSCALE
 40
19.36
  9
$CELTYPE
  6
BYLAYER
  9
$DIMSCALE
 40
1.0
  9
$DIMASZ
 40
3.5
  9
$DIMEXO
 40
2.2
  9
$DIMDLI
 40
13.376
  9
$DIMEXE
 40
6.336
  9
$DIMCEN
 40
3.168
  9
$DIMLFAC
 40
1.0
  9
$DIMBLK
  1
_FILLED
  9
$DIMTXT
 40
3.5
  9
$PDMODE
 70
3
  9
$PDSIZE
 40
0.3125
  9
$TILEMODE
 70
1
  0
ENDSEC
  0
SECTION
  2
TABLES
  0
TABLE
  2
LTYPE
 70
6
  0
LTYPE
  2
BYBLOCK
 70
0
  3

 72
65
 73
0
 40
0.0
  0
LTYPE
  2
BYLAYER
 70
0
  3

 72
65
 73
0
 40
0.0
  0
LTYPE
  2
CONTINUOUS
 70
64
  3
Solid line
 72
65
 73
0
 40
0.0
  0
LTYPE
  2
CENTER
 70
64
  3
____ _ ____ _ ____ _ ____ _ ____ _ ____ _ ____
 72
65
 73
4
 40
0.6
 49
0.375
 49
-0.075
 49
0.075
 49
-0.075
  0
LTYPE
  2
HIDDEN
 70
64
  3
- - - - - - - - - - - - - - - - - - - -
 72
65
 73
2
 40
0.2
 49
0.1
 49
-0.1
  0
LTYPE
  2
PHANTOM
 70
64
  3
_____ _ _ _____ _ _ _____ _ _ _____
 72
65
 73
6
 40
0.8
 49
0.45
 49
-0.05
 49
0.1
 49
-0.05
 49
0.1
 49
-0.05
  0
LTYPE
  2
DOT
 70
64
  3
. . . . . . . . . . . . . . . . . . . .
 72
65
 73
2
 40
0.2
 49
0.1
 49
-0.1
  0
LTYPE
  2
DASHED
 70
64
  3
- - - - - - - - - - - - - - - - - - - -
 72
65
 73
2
 40
0.2
 49
0.1
 49
-0.1
  0
ENDTAB
  0
TABLE
  2
LAYER
 70
36
  0
LAYER
  2
0
 70
0
 62
7
  6
CONTINUOUS
  0
LAYER
  2
DEFAULT_1
 70
0
 62
7
  6
CENTER
  0
LAYER
  2
DEFAULT_2
 70
0
 62
8
  6
HIDDEN
  0
LAYER
  2
DEFAULT_3
 70
0
 62
7
  6
PHANTOM
  0
LAYER
  2
CURVE
 70
0
 62
7
  6
CONTINUOUS
  0
LAYER
  2
PLANES
 70
0
 62
7
  6
CONTINUOUS
  0
LAYER
  2
SURFACE
 70
0
 62
7
  6
CONTINUOUS
  0
ENDTAB
  0
TABLE
  2
STYLE
 70
1
  0
STYLE
  2
STANDARD
 70
0
 40
0.0
 41
0.8
 50
0.0
 71
0
 42
0.2
  3
txt
  4

  0
STYLE
  2
TEXTSTYLE_1
 70
0
 40
0.0
 41
0.8
 50
0.0
 71
0
 42
0.2
  3
gdt
  4

  0
STYLE
  2
TEXTSTYLE_2
 70
0
 40
0.0
 41
0.6
 50
0.0
 71
0
 42
0.2
  3
txt
  4

  0
STYLE
  2
TEXTSTYLE_3
 70
0
 40
0.0
 41
1.0
 50
0.0
 71
0
 42
0.2
  3
ftb_____.ttf
  4

  0
STYLE
  2
TEXTSTYLE_4
 70
0
 40
0.0
 41
1.0
 50
0.0
 71
0
 42
0.2
  3
fti_____.ttf
  4

  0
STYLE
  2
TEXTSTYLE_5
 70
0
 40
0.0
 41
1.0
 50
0.0
 71
0
 42
0.2
  3
frutiger light.ttf
  4

  0
STYLE
  2
TEXTSTYLE_6
 70
0
 40
0.0
 41
0.7
 50
0.0
 71
0
 42
0.2
  3
txt
  4

  0
STYLE
  2
TEXTSTYLE_7
 70
0
 40
0.0
 41
0.42
 50
0.0
 71
0
 42
0.2
  3
txt
  4

  0
ENDTAB
  0
ENDSEC
  0
SECTION
  2
BLOCKS
  0
BLOCK
  8
0
 62
2
  6
CONTINUOUS
  2
UNI_LOGO2_BL1
 70
64
 10
173.5956734183
 20
35.5937998301
  0
LINE
  8
0
 62
7
  6
CONTINUOUS
 10
149.5737418074
 20
36.1675703219
 11
149.5737418074
 21
34.0364227809
  0
LINE
  8
0
 62
7
  6
CONTINUOUS
 10
149.8628043005
 20
31.0454914852
 11
149.8628043005
 21
31.1422825445
  0
LINE
  8
0
 62
7
  6
CONTINUOUS
 10
149.5737418074
 20
31.1100188581
 11
149.6315543091
 21
30.9164367395
  0
LINE
  8
0
 62
7
  6
CONTINUOUS
 10
150.9671844304
 20
33.9544555678
 11
150.9671844304
 21
36.1675703219
  0
LINE
  8
0
 62
7
  6
CONTINUOUS
 10
151.8862417523
 20
32.1101932727
 11
151.8862417523
 21
30.5937998301
  0
LINE
  8
0
 62
7
  6
CONTINUOUS
 10
152.1753043074
 20
30.5937998301
 11
152.1753043074
 21
31.3358647082
  0
LINE
  8
0
 62
7
  6
CONTINUOUS
 10
152.1753043074
 20
31.4649194539
 11
152.1753043074
 21
32.1101932727
  0
LINE
  8
0
 62
7
  6
CONTINUOUS
 10
149.6315543091
 20
31.3036010218
 11
149.5737418074
 21
31.1100188581
  0
LINE
  8
0
 62
7
  6
CONTINUOUS
 10
149.9784292936
 20
30.8841730531
 11
149.8628043005
 21
31.0454914852
  0
LINE
  8
0
 62
7
  6
CONTINUOUS
 10
151.0768668626
 20
31.400392081
 11
151.1346793074
 21
31.3036010218
  0
LINE
  8
0
 62
7
  6
CONTINUOUS
 10
151.4237418626
 20
31.3036010218
 11
151.3659292523
 21
31.4326557675
  0
LINE
  8
0
 62
7
  6
CONTINUOUS
 10
152.852430332
 20
36.1675703219
 11
152.852430332
 21
34.3642916334
  0
LINE
  8
0
 62
7
  6
CONTINUOUS
 10
152.852430332
 20
33.0528162235
 11
152.852430332
 21
32.3970785186
  0
LINE
  8
0
 62
7
  6
CONTINUOUS
 10
153.2159293074
 20
31.2390736489
 11
153.2159293074
 21
30.5937998301
  0
LINE
  8
0
 62
7
  6
CONTINUOUS
 10
153.5049916972
 20
30.5937998301
 11
153.5049916972
 21
31.2390736489
  0
LINE
  8
0
 62
7
  6
CONTINUOUS
 10
149.8628043005
 20
31.1422825445
 11
149.9206168074
 21
31.2713373354
  0
LINE
  8
0
 62
7
  6
CONTINUOUS
 10
149.6315543091
 20
30.9164367395
 11
149.7471793074
 21
30.7873819712
  0
LINE
  8
0
 62
7
  6
CONTINUOUS
 10
153.1581166972
 20
31.3681283946
 11
153.2159293074
 21
31.2390736489
  0
LINE
  8
0
 62
7
  6
CONTINUOUS
 10
153.9674919177
 20
30.8841730531
 11
154.0253041972
 21
30.7551182848
  0
LINE
  8
0
 62
7
  6
CONTINUOUS
 10
153.5049916972
 20
31.2390736489
 11
153.4471794177
 21
31.400392081
  0
LINE
  8
0
 62
7
  6
CONTINUOUS
 10
153.9674919177
 20
31.4326557675
 11
153.9674919177
 21
31.3681283946
  0
LINE
  8
0
 62
7
  6
CONTINUOUS
 10
153.9674919177
 20
30.9809641124
 11
153.9674919177
 21
30.8841730531
  0
LINE
  8
0
 62
7
  6
CONTINUOUS
 10
154.245872955
 20
32.3970785186
 11
154.245872955
 21
36.1675703219
  0
LINE
  8
0
 62
7
  6
CONTINUOUS
 10
154.2565543074
 20
30.8519093441
 11
154.2565543074
 21
30.9164367395
  0
LINE
  8
0
 62
7
  6
CONTINUOUS
 10
154.5737418074
 20
36.1675703219
 11
154.5737418074
 21
32.3970785186
  0
LINE
  8
0
 62
7
  6
CONTINUOUS
 10
151.3659292523
 20
30.7873819712
 11
151.4237418626
 21
30.9164367395
  0
LINE
  8
0
 62
7
  6
CONTINUOUS
 10
155.759679528
 20
30.6905909007
 11
155.7018665869
 21
30.8519093441
  0
LINE
  8
0
 62
7
  6
CONTINUOUS
 10
155.412804528
 20
31.3681283946
 11
155.412804528
 21
31.2713373354
  0
LINE
  8
0
 62
7
  6
CONTINUOUS
 10
155.412804528
 20
31.1422825445
 11
155.412804528
 21
30.9487004259
  0
LINE
  8
0
 62
7
  6
CONTINUOUS
 10
155.7018665869
 20
30.8519093441
 11
155.7018665869
 21
31.3681283946
  0
LINE
  8
0
 62
7
  6
CONTINUOUS
 10
155.9671844304
 20
32.3970785186
 11
155.9671844304
 21
34.2003572071
  0
LINE
  8
0
 62
7
  6
CONTINUOUS
 10
155.9671844304
 20
35.511832617
 11
155.9671844304
 21
36.1675703219
  0
LINE
  8
0
 62
7
  6
CONTINUOUS
 10
156.279992028
 20
32.1101932727
 11
156.279992028
 21
31.9488748406
  0
LINE
  8
0
 62
7
  6
CONTINUOUS
 10
156.279992028
 20
31.626237886
 11
156.279992028
 21
30.5937998301
  0
LINE
  8
0
 62
7
  6
CONTINUOUS
 10
156.5690540869
 20
30.5937998301
 11
156.5690540869
 21
31.626237886
  0
LINE
  8
0
 62
7
  6
CONTINUOUS
 10
156.5690540869
 20
31.9488748406
 11
156.5690540869
 21
32.1101932727
  0
LINE
  8
0
 62
7
  6
CONTINUOUS
 10
151.1346793074
 20
30.9164367395
 11
151.0768668626
 21
30.8196456577
  0
LINE
  8
0
 62
7
  6
CONTINUOUS
 10
153.4471794177
 20
31.400392081
 11
153.3893668074
 21
31.4649194539
  0
LINE
  8
0
 62
7
  6
CONTINUOUS
 10
154.3143669177
 20
30.7873819712
 11
154.2565543074
 21
30.8519093441
  0
LINE
  8
0
 62
7
  6
CONTINUOUS
 10
155.4706168074
 20
30.6583272086
 11
155.5284290869
 21
30.5937998301
  0
LINE
  8
0
 62
7
  6
CONTINUOUS
 10
155.412804528
 20
30.7551182848
 11
155.4706168074
 21
30.6583272086
  0
LINE
  8
0
 62
7
  6
CONTINUOUS
 10
155.8174918074
 20
30.5937998301
 11
155.759679528
 21
30.6905909007
  0
LINE
  8
0
 62
7
  6
CONTINUOUS
 10
155.7018665869
 20
31.3681283946
 11
155.6440543074
 21
31.4649194539
  0
LINE
  8
0
 62
7
  6
CONTINUOUS
 10
157.0315543074
 20
31.626237886
 11
157.0315543074
 21
30.5937998301
  0
LINE
  8
0
 62
7
  6
CONTINUOUS
 10
157.320617028
 20
30.5937998301
 11
157.320617028
 21
31.3358647082
  0
LINE
  8
0
 62
7
  6
CONTINUOUS
 10
157.320617028
 20
31.4649194539
 11
157.320617028
 21
31.626237886
  0
LINE
  8
0
 62
7
  6
CONTINUOUS
 10
157.852430332
 20
34.6101932727
 11
157.852430332
 21
32.3970785186
  0
LINE
  8
0
 62
7
  6
CONTINUOUS
 10
149.7471793074
 20
31.4326557675
 11
149.6315543091
 21
31.3036010218
  0
LINE
  8
0
 62
7
  6
CONTINUOUS
 10
149.9206168074
 20
31.2713373354
 11
149.9784292936
 21
31.3358647082
  0
LINE
  8
0
 62
7
  6
CONTINUOUS
 10
149.7471793074
 20
30.7873819712
 11
149.8628043005
 21
30.7228545871
  0
LINE
  8
0
 62
7
  6
CONTINUOUS
 10
150.1518667936
 20
30.7873819712
 11
149.9784292936
 21
30.8841730531
  0
LINE
  8
0
 62
7
  6
CONTINUOUS
 10
155.3549915869
 20
31.4326557675
 11
155.412804528
 21
31.3681283946
  0
LINE
  8
0
 62
7
  6
CONTINUOUS
 10
158.3034290869
 20
31.3681283946
 11
158.361242028
 21
31.2068099625
  0
LINE
  8
0
 62
7
  6
CONTINUOUS
 10
158.6503040869
 20
31.2068099625
 11
158.5924918074
 21
31.3681283946
  0
LINE
  8
0
 62
7
  6
CONTINUOUS
 10
158.361242028
 20
31.2068099625
 11
158.361242028
 21
30.5937998301
  0
LINE
  8
0
 62
7
  6
CONTINUOUS
 10
158.6503040869
 20
30.5937998301
 11
158.6503040869
 21
31.2068099625
  0
LINE
  8
0
 62
7
  6
CONTINUOUS
 10
159.1128043074
 20
31.4326557675
 11
159.1128043074
 21
31.3681283946
  0
LINE
  8
0
 62
7
  6
CONTINUOUS
 10
159.245872955
 20
32.3970785186
 11
159.245872955
 21
34.5282260596
  0
LINE
  8
0
 62
7
  6
CONTINUOUS
 10
159.5737418074
 20
36.1675703219
 11
159.5737418074
 21
32.3970785186
  0
LINE
  8
0
 62
7
  6
CONTINUOUS
 10
154.2565543074
 20
30.9164367395
 11
154.3143669177
 21
31.0132277988
  0
LINE
  8
0
 62
7
  6
CONTINUOUS
 10
149.8628043005
 20
30.7228545871
 11
150.0362418212
 21
30.6583272086
  0
LINE
  8
0
 62
7
  6
CONTINUOUS
 10
151.3659292523
 20
31.4326557675
 11
151.1924917523
 21
31.5294468267
  0
LINE
  8
0
 62
7
  6
CONTINUOUS
 10
154.0253041972
 20
30.7551182848
 11
154.1987416972
 21
30.6583272086
  0
LINE
  8
0
 62
7
  6
CONTINUOUS
 10
153.0424918074
 20
31.4326557675
 11
153.1581166972
 21
31.3681283946
  0
LINE
  8
0
 62
7
  6
CONTINUOUS
 10
153.3893668074
 20
31.4649194539
 11
153.2737419177
 21
31.5294468267
  0
LINE
  8
0
 62
7
  6
CONTINUOUS
 10
159.1128043074
 20
30.8519093441
 11
159.228429528
 21
30.7228545871
  0
LINE
  8
0
 62
7
  6
CONTINUOUS
 10
159.4596793074
 20
30.7873819712
 11
159.401867028
 21
30.8519093441
  0
LINE
  8
0
 62
7
  6
CONTINUOUS
 10
159.1128043074
 20
31.3681283946
 11
159.228429528
 21
31.2390736489
  0
LINE
  8
0
 62
7
  6
CONTINUOUS
 10
158.5924918074
 20
31.3681283946
 11
158.534679528
 21
31.4649194539
  0
LINE
  8
0
 62
7
  6
CONTINUOUS
 10
160.9628038663
 20
30.7873819712
 11
160.9628038663
 21
30.8519093441
  0
LINE
  8
0
 62
7
  6
CONTINUOUS
 10
160.9671844304
 20
32.3970785186
 11
160.9671844304
 21
36.1675703219
  0
LINE
  8
0
 62
7
  6
CONTINUOUS
 10
154.0253041972
 20
31.4971831403
 11
153.9674919177
 21
31.4326557675
  0
LINE
  8
0
 62
7
  6
CONTINUOUS
 10
150.9034292799
 20
31.4649194539
 11
151.0768668626
 21
31.400392081
  0
LINE
  8
0
 62
7
  6
CONTINUOUS
 10
155.6440543074
 20
31.4649194539
 11
155.5284290869
 21
31.5294468267
  0
LINE
  8
0
 62
7
  6
CONTINUOUS
 10
159.4596793074
 20
31.3036010218
 11
159.401867028
 21
31.3681283946
  0
LINE
  8
0
 62
7
  6
CONTINUOUS
 10
160.615929528
 20
30.9164367395
 11
160.6737418074
 21
30.8519093441
  0
LINE
  8
0
 62
7
  6
CONTINUOUS
 10
160.9628038663
 20
30.8519093441
 11
160.8471793074
 21
30.9809641124
  0
LINE
  8
0
 62
7
  6
CONTINUOUS
 10
160.615929528
 20
31.4326557675
 11
160.6737418074
 21
31.3681283946
  0
LINE
  8
0
 62
7
  6
CONTINUOUS
 10
160.9628038663
 20
31.3681283946
 11
160.8471793074
 21
31.4971831403
  0
LINE
  8
0
 62
7
  6
CONTINUOUS
 10
154.2565543074
 20
31.3681283946
 11
154.3143669177
 21
31.4326557675
  0
LINE
  8
0
 62
7
  6
CONTINUOUS
 10
154.0831168074
 20
31.1100188581
 11
153.9674919177
 21
30.9809641124
  0
LINE
  8
0
 62
7
  6
CONTINUOUS
 10
155.412804528
 20
30.9487004259
 11
155.3549915869
 21
30.8841730531
  0
LINE
  8
0
 62
7
  6
CONTINUOUS
 10
155.3549915869
 20
30.6905909007
 11
155.412804528
 21
30.7551182848
  0
LINE
  8
0
 62
7
  6
CONTINUOUS
 10
154.1987416972
 20
30.6583272086
 11
154.3143669177
 21
30.6260635193
  0
LINE
  8
0
 62
7
  6
CONTINUOUS
 10
151.1924917523
 20
31.5294468267
 11
150.9612418074
 21
31.5939741996
  0
LINE
  8
0
 62
7
  6
CONTINUOUS
 10
154.5456166972
 20
30.7228545871
 11
154.3143669177
 21
30.7873819712
  0
LINE
  8
0
 62
7
  6
CONTINUOUS
 10
153.2737419177
 20
31.5294468267
 11
153.1003044177
 21
31.5939741996
  0
LINE
  8
0
 62
7
  6
CONTINUOUS
 10
155.5284290869
 20
31.5294468267
 11
155.3549915869
 21
31.5939741996
  0
LINE
  8
0
 62
7
  6
CONTINUOUS
 10
158.187804528
 20
31.4326557675
 11
158.3034290869
 21
31.3681283946
  0
LINE
  8
0
 62
7
  6
CONTINUOUS
 10
158.534679528
 20
31.4649194539
 11
158.4190543074
 21
31.5294468267
  0
LINE
  8
0
 62
7
  6
CONTINUOUS
 10
150.0362418212
 20
30.6583272086
 11
150.2096793212
 21
30.6260635193
  0
LINE
  8
0
 62
7
  6
CONTINUOUS
 10
150.498741835
 20
30.7228545871
 11
150.1518667936
 21
30.7873819712
  0
LINE
  8
0
 62
7
  6
CONTINUOUS
 10
152.9268669177
 20
31.4649194539
 11
153.0424918074
 21
31.4326557675
  0
LINE
  8
0
 62
7
  6
CONTINUOUS
 10
155.239367028
 20
31.4649194539
 11
155.3549915869
 21
31.4326557675
  0
LINE
  8
0
 62
7
  6
CONTINUOUS
 10
159.575304528
 20
30.7551182848
 11
159.4596793074
 21
30.7873819712
  0
LINE
  8
0
 62
7
  6
CONTINUOUS
 10
158.0721793074
 20
31.4649194539
 11
158.187804528
 21
31.4326557675
  0
LINE
  8
0
 62
7
  6
CONTINUOUS
 10
159.228429528
 20
30.7228545871
 11
159.401867028
 21
30.6583272086
  0
LINE
  8
0
 62
7
  6
CONTINUOUS
 10
158.4190543074
 20
31.5294468267
 11
158.2456168074
 21
31.5939741996
  0
LINE
  8
0
 62
7
  6
CONTINUOUS
 10
159.6331168074
 20
31.2390736489
 11
159.4596793074
 21
31.3036010218
  0
LINE
  8
0
 62
7
  6
CONTINUOUS
 10
160.442492028
 20
30.9809641124
 11
160.615929528
 21
30.9164367395
  0
LINE
  8
0
 62
7
  6
CONTINUOUS
 10
160.8471793074
 20
31.4971831403
 11
160.6737418074
 21
31.5617105132
  0
LINE
  8
0
 62
7
  6
CONTINUOUS
 10
159.228429528
 20
31.2390736489
 11
159.4596793074
 21
31.1422825445
  0
LINE
  8
0
 62
7
  6
CONTINUOUS
 10
160.8471793074
 20
30.9809641124
 11
160.615929528
 21
31.0777551716
  0
LINE
  8
0
 62
7
  6
CONTINUOUS
 10
159.401867028
 20
31.3681283946
 11
159.4596793074
 21
31.4326557675
  0
LINE
  8
0
 62
7
  6
CONTINUOUS
 10
149.8628043005
 20
31.4971831403
 11
149.7471793074
 21
31.4326557675
  0
LINE
  8
0
 62
7
  6
CONTINUOUS
 10
149.9784292936
 20
31.3358647082
 11
150.1518667936
 21
31.4326557675
  0
LINE
  8
0
 62
7
  6
CONTINUOUS
 10
152.2909293626
 20
31.5294468267
 11
152.1753043074
 21
31.4649194539
  0
LINE
  8
0
 62
7
  6
CONTINUOUS
 10
152.1753043074
 20
31.3358647082
 11
152.2909293626
 21
31.400392081
  0
LINE
  8
0
 62
7
  6
CONTINUOUS
 10
151.1924917523
 20
30.6905909007
 11
151.3659292523
 21
30.7873819712
  0
LINE
  8
0
 62
7
  6
CONTINUOUS
 10
150.2096793212
 20
30.6260635193
 11
150.5565542799
 21
30.5937998301
  0
LINE
  8
0
 62
7
  6
CONTINUOUS
 10
154.3143669177
 20
30.6260635193
 11
154.5456166972
 21
30.5937998301
  0
LINE
  8
0
 62
7
  6
CONTINUOUS
 10
152.6956168074
 20
31.4971831403
 11
152.9268669177
 21
31.4649194539
  0
LINE
  8
0
 62
7
  6
CONTINUOUS
 10
155.0081169177
 20
31.4971831403
 11
155.239367028
 21
31.4649194539
  0
LINE
  8
0
 62
7
  6
CONTINUOUS
 10
159.4596793074
 20
31.1422825445
 11
160.442492028
 21
30.9809641124
  0
LINE
  8
0
 62
7
  6
CONTINUOUS
 10
160.615929528
 20
31.0777551716
 11
159.6331168074
 21
31.2390736489
  0
LINE
  8
0
 62
7
  6
CONTINUOUS
 10
153.1003044177
 20
31.5939741996
 11
152.9268669177
 21
31.626237886
  0
LINE
  8
0
 62
7
  6
CONTINUOUS
 10
159.401867028
 20
30.6583272086
 11
159.575304528
 21
30.6260635193
  0
LINE
  8
0
 62
7
  6
CONTINUOUS
 10
158.2456168074
 20
31.5939741996
 11
158.0721793074
 21
31.626237886
  0
LINE
  8
0
 62
7
  6
CONTINUOUS
 10
160.5003043074
 20
31.4649194539
 11
160.615929528
 21
31.4326557675
  0
LINE
  8
0
 62
7
  6
CONTINUOUS
 10
160.6737418074
 20
30.8519093441
 11
160.615929528
 21
30.7873819712
  0
LINE
  8
0
 62
7
  6
CONTINUOUS
 10
159.228429528
 20
31.5294468267
 11
159.1128043074
 21
31.4326557675
  0
LINE
  8
0
 62
7
  6
CONTINUOUS
 10
154.1409294177
 20
31.5617105132
 11
154.0253041972
 21
31.4971831403
  0
LINE
  8
0
 62
7
  6
CONTINUOUS
 10
154.1987416972
 20
31.1745462761
 11
154.0831168074
 21
31.1100188581
  0
LINE
  8
0
 62
7
  6
CONTINUOUS
 10
154.3143669177
 20
31.0132277988
 11
154.4299918074
 21
31.0777551716
  0
LINE
  8
0
 62
7
  6
CONTINUOUS
 10
151.8862417523
 20
30.5937998301
 11
152.1753043074
 21
30.5937998301
  0
LINE
  8
0
 62
7
  6
CONTINUOUS
 10
153.2159293074
 20
30.5937998301
 11
153.5049916972
 21
30.5937998301
  0
LINE
  8
0
 62
7
  6
CONTINUOUS
 10
154.5456166972
 20
30.5937998301
 11
154.8924916972
 21
30.5937998301
  0
LINE
  8
0
 62
7
  6
CONTINUOUS
 10
155.5284290869
 20
30.5937998301
 11
155.8174918074
 21
30.5937998301
  0
LINE
  8
0
 62
7
  6
CONTINUOUS
 10
156.279992028
 20
30.5937998301
 11
156.5690540869
 21
30.5937998301
  0
LINE
  8
0
 62
7
  6
CONTINUOUS
 10
157.0315543074
 20
30.5937998301
 11
157.320617028
 21
30.5937998301
  0
LINE
  8
0
 62
7
  6
CONTINUOUS
 10
158.361242028
 20
30.5937998301
 11
158.6503040869
 21
30.5937998301
  0
LINE
  8
0
 62
7
  6
CONTINUOUS
 10
159.922179528
 20
30.5937998301
 11
160.269054528
 21
30.5937998301
  0
LINE
  8
0
 62
7
  6
CONTINUOUS
 10
160.269054528
 20
30.7228545871
 11
159.922179528
 21
30.7228545871
  0
LINE
  8
0
 62
7
  6
CONTINUOUS
 10
154.8924916972
 20
30.7228545871
 11
154.5456166972
 21
30.7228545871
  0
LINE
  8
0
 62
7
  6
CONTINUOUS
 10
159.401867028
 20
30.8519093441
 11
159.1128043074
 21
30.8519093441
  0
LINE
  8
0
 62
7
  6
CONTINUOUS
 10
151.4237418626
 20
30.9164367395
 11
151.1346793074
 21
30.9164367395
  0
LINE
  8
0
 62
7
  6
CONTINUOUS
 10
150.498741835
 20
31.4971831403
 11
150.9034292799
 21
31.4649194539
  0
LINE
  8
0
 62
7
  6
CONTINUOUS
 10
150.9612418074
 20
31.5939741996
 11
150.5565542799
 21
31.626237886
  0
LINE
  8
0
 62
7
  6
CONTINUOUS
 10
159.575304528
 20
30.6260635193
 11
159.922179528
 21
30.5937998301
  0
LINE
  8
0
 62
7
  6
CONTINUOUS
 10
159.922179528
 20
30.7228545871
 11
159.575304528
 21
30.7551182848
  0
LINE
  8
0
 62
7
  6
CONTINUOUS
 10
155.3549915869
 20
31.5939741996
 11
155.0081169177
 21
31.626237886
  0
LINE
  8
0
 62
7
  6
CONTINUOUS
 10
160.1534293074
 20
31.4971831403
 11
160.5003043074
 21
31.4649194539
  0
LINE
  8
0
 62
7
  6
CONTINUOUS
 10
160.5003043074
 20
31.5939741996
 11
160.1534293074
 21
31.626237886
  0
LINE
  8
0
 62
7
  6
CONTINUOUS
 10
157.840929528
 20
31.4971831403
 11
158.0721793074
 21
31.4649194539
  0
LINE
  8
0
 62
7
  6
CONTINUOUS
 10
160.6737418074
 20
31.5617105132
 11
160.5003043074
 21
31.5939741996
  0
LINE
  8
0
 62
7
  6
CONTINUOUS
 10
160.8471793074
 20
30.6905909007
 11
160.9628038663
 21
30.7873819712
  0
LINE
  8
0
 62
7
  6
CONTINUOUS
 10
155.3549915869
 20
30.8841730531
 11
155.1815540869
 21
30.7873819712
  0
LINE
  8
0
 62
7
  6
CONTINUOUS
 10
157.4362415869
 20
31.5294468267
 11
157.320617028
 21
31.4649194539
  0
LINE
  8
0
 62
7
  6
CONTINUOUS
 10
157.320617028
 20
31.3358647082
 11
157.4362415869
 21
31.400392081
  0
LINE
  8
0
 62
7
  6
CONTINUOUS
 10
150.0362418212
 20
31.5617105132
 11
149.8628043005
 21
31.4971831403
  0
LINE
  8
0
 62
7
  6
CONTINUOUS
 10
152.4643666972
 20
31.5939741996
 11
152.2909293626
 21
31.5294468267
  0
LINE
  8
0
 62
7
  6
CONTINUOUS
 10
152.2909293626
 20
31.400392081
 11
152.4643666972
 21
31.4649194539
  0
LINE
  8
0
 62
7
  6
CONTINUOUS
 10
151.0768668626
 20
30.8196456577
 11
150.9034292799
 21
30.7551182848
  0
LINE
  8
0
 62
7
  6
CONTINUOUS
 10
160.5003043074
 20
30.7551182848
 11
160.269054528
 21
30.7228545871
  0
LINE
  8
0
 62
7
  6
CONTINUOUS
 10
154.8924916972
 20
30.5937998301
 11
155.1815540869
 21
30.6260635193
  0
LINE
  8
0
 62
7
  6
CONTINUOUS
 10
160.269054528
 20
30.5937998301
 11
160.615929528
 21
30.6260635193
  0
LINE
  8
0
 62
7
  6
CONTINUOUS
 10
150.5565542799
 20
30.5937998301
 11
150.9612418074
 21
30.6260635193
  0
LINE
  8
0
 62
7
  6
CONTINUOUS
 10
150.9034292799
 20
30.7551182848
 11
150.498741835
 21
30.7228545871
  0
LINE
  8
0
 62
7
  6
CONTINUOUS
 10
154.7768668074
 20
31.1422825445
 11
155.412804528
 21
31.1422825445
  0
LINE
  8
0
 62
7
  6
CONTINUOUS
 10
155.412804528
 20
31.2713373354
 11
154.7768668074
 21
31.2713373354
  0
LINE
  8
0
 62
7
  6
CONTINUOUS
 10
151.1346793074
 20
31.3036010218
 11
151.4237418626
 21
31.3036010218
  0
LINE
  8
0
 62
7
  6
CONTINUOUS
 10
153.9674919177
 20
31.3681283946
 11
154.2565543074
 21
31.3681283946
  0
LINE
  8
0
 62
7
  6
CONTINUOUS
 10
160.6737418074
 20
31.3681283946
 11
160.9628038663
 21
31.3681283946
  0
LINE
  8
0
 62
7
  6
CONTINUOUS
 10
154.6612419177
 20
31.4971831403
 11
155.0081169177
 21
31.4971831403
  0
LINE
  8
0
 62
7
  6
CONTINUOUS
 10
159.8065543074
 20
31.4971831403
 11
160.1534293074
 21
31.4971831403
  0
LINE
  8
0
 62
7
  6
CONTINUOUS
 10
160.1534293074
 20
31.626237886
 11
159.8065543074
 21
31.626237886
  0
LINE
  8
0
 62
7
  6
CONTINUOUS
 10
158.0721793074
 20
31.626237886
 11
157.840929528
 21
31.626237886
  0
LINE
  8
0
 62
7
  6
CONTINUOUS
 10
157.320617028
 20
31.626237886
 11
157.0315543074
 21
31.626237886
  0
LINE
  8
0
 62
7
  6
CONTINUOUS
 10
156.5690540869
 20
31.626237886
 11
156.279992028
 21
31.626237886
  0
LINE
  8
0
 62
7
  6
CONTINUOUS
 10
155.0081169177
 20
31.626237886
 11
154.6612419177
 21
31.626237886
  0
LINE
  8
0
 62
7
  6
CONTINUOUS
 10
152.9268669177
 20
31.626237886
 11
152.6956168074
 21
31.626237886
  0
LINE
  8
0
 62
7
  6
CONTINUOUS
 10
156.279992028
 20
31.9488748406
 11
156.5690540869
 21
31.9488748406
  0
LINE
  8
0
 62
7
  6
CONTINUOUS
 10
156.5690540869
 20
32.1101932727
 11
156.279992028
 21
32.1101932727
  0
LINE
  8
0
 62
7
  6
CONTINUOUS
 10
152.1753043074
 20
32.1101932727
 11
151.8862417523
 21
32.1101932727
  0
LINE
  8
0
 62
7
  6
CONTINUOUS
 10
151.2130860697
 20
32.3970785186
 11
151.6256574183
 21
32.3970785186
  0
LINE
  8
0
 62
7
  6
CONTINUOUS
 10
152.852430332
 20
32.3970785186
 11
154.245872955
 21
32.3970785186
  0
LINE
  8
0
 62
7
  6
CONTINUOUS
 10
154.5737418074
 20
32.3970785186
 11
155.9671844304
 21
32.3970785186
  0
LINE
  8
0
 62
7
  6
CONTINUOUS
 10
157.852430332
 20
32.3970785186
 11
159.245872955
 21
32.3970785186
  0
LINE
  8
0
 62
7
  6
CONTINUOUS
 10
159.5737418074
 20
32.3970785186
 11
160.9671844304
 21
32.3970785186
  0
LINE
  8
0
 62
7
  6
CONTINUOUS
 10
157.6096790869
 20
31.5939741996
 11
157.4362415869
 21
31.5294468267
  0
LINE
  8
0
 62
7
  6
CONTINUOUS
 10
155.1815540869
 20
30.6260635193
 11
155.3549915869
 21
30.6905909007
  0
LINE
  8
0
 62
7
  6
CONTINUOUS
 10
160.615929528
 20
30.6260635193
 11
160.8471793074
 21
30.6905909007
  0
LINE
  8
0
 62
7
  6
CONTINUOUS
 10
160.615929528
 20
30.7873819712
 11
160.5003043074
 21
30.7551182848
  0
LINE
  8
0
 62
7
  6
CONTINUOUS
 10
159.575304528
 20
31.4649194539
 11
159.8065543074
 21
31.4971831403
  0
LINE
  8
0
 62
7
  6
CONTINUOUS
 10
157.6096790869
 20
31.4649194539
 11
157.840929528
 21
31.4971831403
  0
LINE
  8
0
 62
7
  6
CONTINUOUS
 10
154.5456166972
 20
31.1100188581
 11
154.7768668074
 21
31.1422825445
  0
LINE
  8
0
 62
7
  6
CONTINUOUS
 10
157.840929528
 20
31.626237886
 11
157.6096790869
 21
31.5939741996
  0
LINE
  8
0
 62
7
  6
CONTINUOUS
 10
154.4299918074
 20
31.4649194539
 11
154.6612419177
 21
31.4971831403
  0
LINE
  8
0
 62
7
  6
CONTINUOUS
 10
159.8065543074
 20
31.626237886
 11
159.4596793074
 21
31.5939741996
  0
LINE
  8
0
 62
7
  6
CONTINUOUS
 10
154.7768668074
 20
31.2713373354
 11
154.4299918074
 21
31.2390736489
  0
LINE
  8
0
 62
7
  6
CONTINUOUS
 10
150.5565542799
 20
31.626237886
 11
150.2096793212
 21
31.5939741996
  0
LINE
  8
0
 62
7
  6
CONTINUOUS
 10
154.6612419177
 20
31.626237886
 11
154.2565543074
 21
31.5939741996
  0
LINE
  8
0
 62
7
  6
CONTINUOUS
 10
152.0327582009
 20
33.5446195022
 11
151.3770204959
 21
33.5446195022
  0
LINE
  8
0
 62
7
  6
CONTINUOUS
 10
157.4362415869
 20
31.400392081
 11
157.6096790869
 21
31.4649194539
  0
LINE
  8
0
 62
7
  6
CONTINUOUS
 10
159.4596793074
 20
31.4326557675
 11
159.575304528
 21
31.4649194539
  0
LINE
  8
0
 62
7
  6
CONTINUOUS
 10
159.4596793074
 20
31.5939741996
 11
159.228429528
 21
31.5294468267
  0
LINE
  8
0
 62
7
  6
CONTINUOUS
 10
155.1815540869
 20
30.7873819712
 11
154.8924916972
 21
30.7228545871
  0
LINE
  8
0
 62
7
  6
CONTINUOUS
 10
152.4643666972
 20
31.4649194539
 11
152.6956168074
 21
31.4971831403
  0
LINE
  8
0
 62
7
  6
CONTINUOUS
 10
152.6956168074
 20
31.626237886
 11
152.4643666972
 21
31.5939741996
  0
LINE
  8
0
 62
7
  6
CONTINUOUS
 10
150.2674918074
 20
31.4649194539
 11
150.498741835
 21
31.4971831403
  0
LINE
  8
0
 62
7
  6
CONTINUOUS
 10
156.7868565615
 20
35.0200293383
 11
157.4425942664
 21
35.0200293383
  0
LINE
  8
0
 62
7
  6
CONTINUOUS
 10
154.4299918074
 20
31.0777551716
 11
154.5456166972
 21
31.1100188581
  0
LINE
  8
0
 62
7
  6
CONTINUOUS
 10
154.4299918074
 20
31.2390736489
 11
154.1987416972
 21
31.1745462761
  0
LINE
  8
0
 62
7
  6
CONTINUOUS
 10
154.3143669177
 20
31.4326557675
 11
154.4299918074
 21
31.4649194539
  0
LINE
  8
0
 62
7
  6
CONTINUOUS
 10
150.9612418074
 20
30.6260635193
 11
151.1924917523
 21
30.6905909007
  0
LINE
  8
0
 62
7
  6
CONTINUOUS
 10
154.2565543074
 20
31.5939741996
 11
154.1409294177
 21
31.5617105132
  0
LINE
  8
0
 62
7
  6
CONTINUOUS
 10
150.2096793212
 20
31.5939741996
 11
150.0362418212
 21
31.5617105132
  0
LINE
  8
0
 62
7
  6
CONTINUOUS
 10
160.9671844304
 20
36.1675703219
 11
159.5737418074
 21
36.1675703219
  0
LINE
  8
0
 62
7
  6
CONTINUOUS
 10
157.6065286927
 20
36.1675703219
 11
157.1939573441
 21
36.1675703219
  0
LINE
  8
0
 62
7
  6
CONTINUOUS
 10
155.9671844304
 20
36.1675703219
 11
154.5737418074
 21
36.1675703219
  0
LINE
  8
0
 62
7
  6
CONTINUOUS
 10
154.245872955
 20
36.1675703219
 11
152.852430332
 21
36.1675703219
  0
LINE
  8
0
 62
7
  6
CONTINUOUS
 10
150.9671844304
 20
36.1675703219
 11
149.5737418074
 21
36.1675703219
  0
LINE
  8
0
 62
7
  6
CONTINUOUS
 10
150.1518667936
 20
31.4326557675
 11
150.2674918074
 21
31.4649194539
  0
CIRCLE
  8
0
 62
7
  6
CONTINUOUS
 10
160.2704631189
 20
38.5036358957
 40
2.0901639344
  0
ARC
  8
0
 62
7
  6
CONTINUOUS
 10
151.2130860697
 20
34.0364227809
 40
1.6393442623
 50
180.0
 51
270.0
  0
ARC
  8
0
 62
7
  6
CONTINUOUS
 10
157.6065286927
 20
34.5282260596
 40
1.6393442623
 50
0.0
 51
90.0
  0
ARC
  8
0
 62
7
  6
CONTINUOUS
 10
151.6256574183
 20
33.8724883547
 40
1.4754098361
 50
270.0
 51
326.2510114041
  0
ARC
  8
0
 62
7
  6
CONTINUOUS
 10
157.1939573441
 20
34.6921604858
 40
1.4754098361
 50
90.0
 51
146.2510114041
  0
ARC
  8
0
 62
7
  6
CONTINUOUS
 10
152.0327582009
 20
34.3642916334
 40
0.8196721311
 50
270.0
 51
360.0
  0
ARC
  8
0
 62
7
  6
CONTINUOUS
 10
156.7868565615
 20
34.2003572071
 40
0.8196721311
 50
90.0
 51
180.0
  0
ARC
  8
0
 62
7
  6
CONTINUOUS
 10
151.3770204959
 20
33.9544555678
 40
0.4098360656
 50
180.0
 51
270.0
  0
ARC
  8
0
 62
7
  6
CONTINUOUS
 10
157.4425942664
 20
34.6101932727
 40
0.4098360656
 50
0.0
 51
90.0
  0
SOLID
  8
0
 62
7
  6
CONTINUOUS
 10
156.279992028
 20
31.9488752009
 11
156.279992028
 21
32.1101936845
 12
156.5690540869
 22
31.9488752009
 13
156.5690540869
 23
32.1101936845
  0
SOLID
  8
0
 62
7
  6
CONTINUOUS
 10
150.5565542799
 20
31.6262382337
 11
150.9612418074
 21
31.5939740028
 12
150.2096793212
 22
31.5939740028
 13
150.2096793212
 23
31.5939740028
  0
SOLID
  8
0
 62
7
  6
CONTINUOUS
 10
150.0362418212
 20
31.5617111435
 11
150.2096793212
 21
31.5939740028
 12
150.9612418074
 22
31.5939740028
 13
150.9612418074
 23
31.5939740028
  0
SOLID
  8
0
 62
7
  6
CONTINUOUS
 10
150.9612418074
 20
31.5939740028
 11
151.1924917523
 21
31.5294468402
 12
150.0362418212
 22
31.5617111435
 13
150.0362418212
 23
31.5617111435
  0
SOLID
  8
0
 62
7
  6
CONTINUOUS
 10
149.8628043005
 20
31.49718259
 11
150.0362418212
 21
31.5617111435
 12
151.1924917523
 22
31.5294468402
 13
151.1924917523
 23
31.5294468402
  0
SOLID
  8
0
 62
7
  6
CONTINUOUS
 10
149.8628043005
 20
31.49718259
 11
151.1924917523
 21
31.5294468402
 12
150.498741835
 22
31.49718259
 13
150.498741835
 23
31.49718259
  0
SOLID
  8
0
 62
7
  6
CONTINUOUS
 10
150.498741835
 20
31.49718259
 11
151.1924917523
 21
31.5294468402
 12
150.9034292799
 22
31.4649197501
 13
150.9034292799
 23
31.4649197501
  0
SOLID
  8
0
 62
7
  6
CONTINUOUS
 10
151.1924917523
 20
31.5294468402
 11
151.3659292523
 21
31.4326554468
 12
150.9034292799
 22
31.4649197501
 13
150.9034292799
 23
31.4649197501
  0
SOLID
  8
0
 62
7
  6
CONTINUOUS
 10
151.0768668626
 20
31.4003926599
 11
150.9034292799
 21
31.4649197501
 12
151.3659292523
 22
31.4326554468
 13
151.3659292523
 23
31.4326554468
  0
SOLID
  8
0
 62
7
  6
CONTINUOUS
 10
151.0768668626
 20
31.4003926599
 11
151.3659292523
 21
31.4326554468
 12
151.1346793074
 22
31.3036013776
 13
151.1346793074
 23
31.3036013776
  0
SOLID
  8
0
 62
7
  6
CONTINUOUS
 10
151.3659292523
 20
31.4326554468
 11
151.4237418626
 21
31.3036013776
 12
151.1346793074
 22
31.3036013776
 13
151.1346793074
 23
31.3036013776
  0
SOLID
  8
0
 62
7
  6
CONTINUOUS
 10
152.4643666972
 20
31.5939739754
 11
152.6956168074
 21
31.6262382787
 12
152.9268669177
 22
31.6262382787
 13
152.9268669177
 23
31.6262382787
  0
SOLID
  8
0
 62
7
  6
CONTINUOUS
 10
152.9268669177
 20
31.6262382787
 11
153.1003044177
 21
31.5939739754
 12
152.4643666972
 22
31.5939739754
 13
152.4643666972
 23
31.5939739754
  0
SOLID
  8
0
 62
7
  6
CONTINUOUS
 10
152.2909293626
 20
31.5294468852
 11
152.4643666972
 21
31.5939739754
 12
153.1003044177
 22
31.5939739754
 13
153.1003044177
 23
31.5939739754
  0
SOLID
  8
0
 62
7
  6
CONTINUOUS
 10
153.1003044177
 20
31.5939739754
 11
153.2737419177
 21
31.5294468852
 12
152.2909293626
 22
31.5294468852
 13
152.2909293626
 23
31.5294468852
  0
SOLID
  8
0
 62
7
  6
CONTINUOUS
 10
153.2737419177
 20
31.5294468852
 11
152.6956168074
 21
31.4971825369
 12
152.2909293626
 22
31.5294468852
 13
152.2909293626
 23
31.5294468852
  0
SOLID
  8
0
 62
7
  6
CONTINUOUS
 10
152.1753043074
 20
31.4649197951
 11
152.2909293626
 21
31.5294468852
 12
152.6956168074
 22
31.4971825369
 13
152.6956168074
 23
31.4971825369
  0
SOLID
  8
0
 62
7
  6
CONTINUOUS
 10
152.6956168074
 20
31.4971825369
 11
152.4643666972
 21
31.4649197951
 12
152.1753043074
 22
31.4649197951
 13
152.1753043074
 23
31.4649197951
  0
SOLID
  8
0
 62
7
  6
CONTINUOUS
 10
152.6956168074
 20
31.4971825369
 11
153.2737419177
 21
31.5294468852
 12
152.9268669177
 22
31.4649197951
 13
152.9268669177
 23
31.4649197951
  0
SOLID
  8
0
 62
7
  6
CONTINUOUS
 10
153.2737419177
 20
31.5294468852
 11
153.3893668074
 21
31.4649197951
 12
152.9268669177
 22
31.4649197951
 13
152.9268669177
 23
31.4649197951
  0
SOLID
  8
0
 62
7
  6
CONTINUOUS
 10
153.0424918074
 20
31.4326554468
 11
152.9268669177
 21
31.4649197951
 12
153.3893668074
 22
31.4649197951
 13
153.3893668074
 23
31.4649197951
  0
SOLID
  8
0
 62
7
  6
CONTINUOUS
 10
153.3893668074
 20
31.4649197951
 11
153.4471794177
 21
31.4003927049
 12
153.0424918074
 22
31.4326554468
 13
153.0424918074
 23
31.4326554468
  0
SOLID
  8
0
 62
7
  6
CONTINUOUS
 10
153.1581166972
 20
31.3681283566
 11
153.0424918074
 21
31.4326554468
 12
153.4471794177
 22
31.4003927049
 13
153.4471794177
 23
31.4003927049
  0
SOLID
  8
0
 62
7
  6
CONTINUOUS
 10
153.1581166972
 20
31.3681283566
 11
153.4471794177
 21
31.4003927049
 12
153.2159293074
 22
31.2390742213
 13
153.2159293074
 23
31.2390742213
  0
SOLID
  8
0
 62
7
  6
CONTINUOUS
 10
153.4471794177
 20
31.4003927049
 11
153.5049916972
 21
31.2390742213
 12
153.2159293074
 22
31.2390742213
 13
153.2159293074
 23
31.2390742213
  0
SOLID
  8
0
 62
7
  6
CONTINUOUS
 10
152.4643666972
 20
31.4649197951
 11
152.2909293626
 21
31.4003927049
 12
152.1753043074
 22
31.4649197951
 13
152.1753043074
 23
31.4649197951
  0
SOLID
  8
0
 62
7
  6
CONTINUOUS
 10
152.2909293626
 20
31.4003927049
 11
152.1753043074
 21
31.3358640533
 12
152.1753043074
 22
31.4649197951
 13
152.1753043074
 23
31.4649197951
  0
SOLID
  8
0
 62
7
  6
CONTINUOUS
 10
152.1753043074
 20
31.3358640533
 11
151.8862417523
 21
30.5938002869
 12
152.1753043074
 22
31.4649197951
 13
152.1753043074
 23
31.4649197951
  0
SOLID
  8
0
 62
7
  6
CONTINUOUS
 10
152.1753043074
 20
31.4649197951
 11
151.8862417523
 21
30.5938002869
 12
152.1753043074
 22
32.1101937295
 13
152.1753043074
 23
32.1101937295
  0
SOLID
  8
0
 62
7
  6
CONTINUOUS
 10
151.8862417523
 20
30.5938002869
 11
151.8862417523
 21
32.1101937295
 12
152.1753043074
 22
32.1101937295
 13
152.1753043074
 23
32.1101937295
  0
SOLID
  8
0
 62
7
  6
CONTINUOUS
 10
152.1753043074
 20
31.3358640533
 11
152.1753043074
 21
30.5938002869
 12
151.8862417523
 22
30.5938002869
 13
151.8862417523
 23
30.5938002869
  0
SOLID
  8
0
 62
7
  6
CONTINUOUS
 10
153.2159293074
 20
30.5938002869
 11
153.2159293074
 21
31.2390742213
 12
153.5049916972
 22
31.2390742213
 13
153.5049916972
 23
31.2390742213
  0
SOLID
  8
0
 62
7
  6
CONTINUOUS
 10
153.5049916972
 20
31.2390742213
 11
153.5049916972
 21
30.5938002869
 12
153.2159293074
 22
30.5938002869
 13
153.2159293074
 23
30.5938002869
  0
SOLID
  8
0
 62
7
  6
CONTINUOUS
 10
154.2565543074
 20
31.5939738288
 11
154.6612419177
 21
31.6262385959
 12
155.0081169177
 22
31.6262385959
 13
155.0081169177
 23
31.6262385959
  0
SOLID
  8
0
 62
7
  6
CONTINUOUS
 10
155.0081169177
 20
31.6262385959
 11
155.3549915869
 21
31.5939738288
 12
154.2565543074
 22
31.5939738288
 13
154.2565543074
 23
31.5939738288
  0
SOLID
  8
0
 62
7
  6
CONTINUOUS
 10
154.1409294177
 20
31.5617111435
 11
154.2565543074
 21
31.5939738288
 12
155.3549915869
 22
31.5939738288
 13
155.3549915869
 23
31.5939738288
  0
SOLID
  8
0
 62
7
  6
CONTINUOUS
 10
155.3549915869
 20
31.5939738288
 11
155.5284290869
 21
31.5294468402
 12
154.1409294177
 22
31.5617111435
 13
154.1409294177
 23
31.5617111435
  0
SOLID
  8
0
 62
7
  6
CONTINUOUS
 10
154.0253041972
 20
31.4971826249
 11
154.1409294177
 21
31.5617111435
 12
155.5284290869
 22
31.5294468402
 13
155.5284290869
 23
31.5294468402
  0
SOLID
  8
0
 62
7
  6
CONTINUOUS
 10
154.0253041972
 20
31.4971826249
 11
155.5284290869
 21
31.5294468402
 12
154.6612419177
 22
31.4971826249
 13
154.6612419177
 23
31.4971826249
  0
SOLID
  8
0
 62
7
  6
CONTINUOUS
 10
154.6612419177
 20
31.4971826249
 11
155.5284290869
 21
31.5294468402
 12
155.0081169177
 22
31.4971826249
 13
155.0081169177
 23
31.4971826249
  0
SOLID
  8
0
 62
7
  6
CONTINUOUS
 10
155.0081169177
 20
31.4971826249
 11
155.5284290869
 21
31.5294468402
 12
155.239367028
 22
31.4649194065
 13
155.239367028
 23
31.4649194065
  0
SOLID
  8
0
 62
7
  6
CONTINUOUS
 10
155.5284290869
 20
31.5294468402
 11
155.6440543074
 21
31.4649194065
 12
155.239367028
 22
31.4649194065
 13
155.239367028
 23
31.4649194065
  0
SOLID
  8
0
 62
7
  6
CONTINUOUS
 10
153.9674919177
 20
31.4326554138
 11
154.0253041972
 21
31.4971826249
 12
154.6612419177
 22
31.4971826249
 13
154.6612419177
 23
31.4971826249
  0
SOLID
  8
0
 62
7
  6
CONTINUOUS
 10
155.3549915869
 20
31.4326554138
 11
155.239367028
 21
31.4649194065
 12
155.6440543074
 22
31.4649194065
 13
155.6440543074
 23
31.4649194065
  0
SOLID
  8
0
 62
7
  6
CONTINUOUS
 10
155.3549915869
 20
31.4326554138
 11
155.6440543074
 21
31.4649194065
 12
155.412804528
 22
31.3681282026
 13
155.412804528
 23
31.3681282026
  0
SOLID
  8
0
 62
7
  6
CONTINUOUS
 10
155.6440543074
 20
31.4649194065
 11
155.7018665869
 21
31.3681282026
 12
155.412804528
 22
31.3681282026
 13
155.412804528
 23
31.3681282026
  0
SOLID
  8
0
 62
7
  6
CONTINUOUS
 10
155.412804528
 20
31.2713369632
 11
155.412804528
 21
31.3681282026
 12
155.7018665869
 22
31.3681282026
 13
155.7018665869
 23
31.3681282026
  0
SOLID
  8
0
 62
7
  6
CONTINUOUS
 10
155.412804528
 20
31.2713369632
 11
155.7018665869
 21
31.3681282026
 12
155.412804528
 22
31.1422827828
 13
155.412804528
 23
31.1422827828
  0
SOLID
  8
0
 62
7
  6
CONTINUOUS
 10
155.412804528
 20
31.1422827828
 11
155.7018665869
 21
31.3681282026
 12
155.412804528
 22
30.9487004259
 13
155.412804528
 23
30.9487004259
  0
SOLID
  8
0
 62
7
  6
CONTINUOUS
 10
155.7018665869
 20
31.3681282026
 11
155.7018665869
 21
30.8519086025
 12
155.412804528
 22
30.9487004259
 13
155.412804528
 23
30.9487004259
  0
SOLID
  8
0
 62
7
  6
CONTINUOUS
 10
157.6096790869
 20
31.5939736268
 11
157.840929528
 21
31.6262383465
 12
158.0721793074
 22
31.6262383465
 13
158.0721793074
 23
31.6262383465
  0
SOLID
  8
0
 62
7
  6
CONTINUOUS
 10
158.0721793074
 20
31.6262383465
 11
158.2456168074
 21
31.5939736268
 12
157.6096790869
 22
31.5939736268
 13
157.6096790869
 23
31.5939736268
  0
SOLID
  8
0
 62
7
  6
CONTINUOUS
 10
157.4362415869
 20
31.5294472848
 11
157.6096790869
 21
31.5939736268
 12
158.2456168074
 22
31.5939736268
 13
158.2456168074
 23
31.5939736268
  0
SOLID
  8
0
 62
7
  6
CONTINUOUS
 10
158.2456168074
 20
31.5939736268
 11
158.4190543074
 21
31.5294472848
 12
157.4362415869
 22
31.5294472848
 13
157.4362415869
 23
31.5294472848
  0
SOLID
  8
0
 62
7
  6
CONTINUOUS
 10
158.4190543074
 20
31.5294472848
 11
157.840929528
 21
31.4971825369
 12
157.4362415869
 22
31.5294472848
 13
157.4362415869
 23
31.5294472848
  0
SOLID
  8
0
 62
7
  6
CONTINUOUS
 10
157.320617028
 20
31.4649199103
 11
157.4362415869
 21
31.5294472848
 12
157.840929528
 22
31.4971825369
 13
157.840929528
 23
31.4971825369
  0
SOLID
  8
0
 62
7
  6
CONTINUOUS
 10
157.840929528
 20
31.4971825369
 11
157.6096790869
 21
31.4649199103
 12
157.320617028
 22
31.4649199103
 13
157.320617028
 23
31.4649199103
  0
SOLID
  8
0
 62
7
  6
CONTINUOUS
 10
157.840929528
 20
31.4971825369
 11
158.4190543074
 21
31.5294472848
 12
158.0721793074
 22
31.4649199103
 13
158.0721793074
 23
31.4649199103
  0
SOLID
  8
0
 62
7
  6
CONTINUOUS
 10
158.4190543074
 20
31.5294472848
 11
158.534679528
 21
31.4649199103
 12
158.0721793074
 22
31.4649199103
 13
158.0721793074
 23
31.4649199103
  0
SOLID
  8
0
 62
7
  6
CONTINUOUS
 10
158.187804528
 20
31.4326554468
 11
158.0721793074
 21
31.4649199103
 12
158.534679528
 22
31.4649199103
 13
158.534679528
 23
31.4649199103
  0
SOLID
  8
0
 62
7
  6
CONTINUOUS
 10
158.187804528
 20
31.4326554468
 11
158.534679528
 21
31.4649199103
 12
158.3034290869
 22
31.3681288486
 13
158.3034290869
 23
31.3681288486
  0
SOLID
  8
0
 62
7
  6
CONTINUOUS
 10
158.534679528
 20
31.4649199103
 11
158.5924918074
 21
31.3681288486
 12
158.3034290869
 22
31.3681288486
 13
158.3034290869
 23
31.3681288486
  0
SOLID
  8
0
 62
7
  6
CONTINUOUS
 10
158.361242028
 20
31.2068093799
 11
158.3034290869
 21
31.3681288486
 12
158.5924918074
 22
31.3681288486
 13
158.5924918074
 23
31.3681288486
  0
SOLID
  8
0
 62
7
  6
CONTINUOUS
 10
158.5924918074
 20
31.3681288486
 11
158.6503040869
 21
31.2068093799
 12
158.361242028
 22
31.2068093799
 13
158.361242028
 23
31.2068093799
  0
SOLID
  8
0
 62
7
  6
CONTINUOUS
 10
157.6096790869
 20
31.4649199103
 11
157.4362415869
 21
31.4003926599
 12
157.320617028
 22
31.4649199103
 13
157.320617028
 23
31.4649199103
  0
SOLID
  8
0
 62
7
  6
CONTINUOUS
 10
157.4362415869
 20
31.4003926599
 11
157.320617028
 21
31.3358640533
 12
157.320617028
 22
31.4649199103
 13
157.320617028
 23
31.4649199103
  0
SOLID
  8
0
 62
7
  6
CONTINUOUS
 10
157.320617028
 20
31.3358640533
 11
157.0315543074
 21
30.5938003547
 12
157.320617028
 22
31.4649199103
 13
157.320617028
 23
31.4649199103
  0
SOLID
  8
0
 62
7
  6
CONTINUOUS
 10
157.320617028
 20
31.4649199103
 11
157.0315543074
 21
30.5938003547
 12
157.320617028
 22
31.6262383465
 13
157.320617028
 23
31.6262383465
  0
SOLID
  8
0
 62
7
  6
CONTINUOUS
 10
157.0315543074
 20
30.5938003547
 11
157.0315543074
 21
31.6262383465
 12
157.320617028
 22
31.6262383465
 13
157.320617028
 23
31.6262383465
  0
SOLID
  8
0
 62
7
  6
CONTINUOUS
 10
157.320617028
 20
31.3358640533
 11
157.320617028
 21
30.5938003547
 12
157.0315543074
 22
30.5938003547
 13
157.0315543074
 23
30.5938003547
  0
SOLID
  8
0
 62
7
  6
CONTINUOUS
 10
158.361242028
 20
30.5938003547
 11
158.361242028
 21
31.2068093799
 12
158.6503040869
 22
31.2068093799
 13
158.6503040869
 23
31.2068093799
  0
SOLID
  8
0
 62
7
  6
CONTINUOUS
 10
158.6503040869
 20
31.2068093799
 11
158.6503040869
 21
30.5938003547
 12
158.361242028
 22
30.5938003547
 13
158.361242028
 23
30.5938003547
  0
SOLID
  8
0
 62
7
  6
CONTINUOUS
 10
159.4596793074
 20
31.5939739474
 11
159.8065543074
 21
31.6262381969
 12
160.1534293074
 22
31.6262381969
 13
160.1534293074
 23
31.6262381969
  0
SOLID
  8
0
 62
7
  6
CONTINUOUS
 10
160.1534293074
 20
31.6262381969
 11
160.5003043074
 21
31.5939739474
 12
159.4596793074
 22
31.5939739474
 13
159.4596793074
 23
31.5939739474
  0
SOLID
  8
0
 62
7
  6
CONTINUOUS
 10
159.228429528
 20
31.5294468402
 11
159.4596793074
 21
31.5939739474
 12
160.5003043074
 22
31.5939739474
 13
160.5003043074
 23
31.5939739474
  0
SOLID
  8
0
 62
7
  6
CONTINUOUS
 10
159.228429528
 20
31.5294468402
 11
160.5003043074
 21
31.5939739304
 12
160.6737418074
 22
31.5617111435
 13
160.6737418074
 23
31.5617111435
  0
SOLID
  8
0
 62
7
  6
CONTINUOUS
 10
159.228429528
 20
31.5294468402
 11
160.6737418074
 21
31.5617111435
 12
159.8065543074
 22
31.4971825592
 13
159.8065543074
 23
31.4971825592
  0
SOLID
  8
0
 62
7
  6
CONTINUOUS
 10
159.8065543074
 20
31.4971825592
 11
160.6737418074
 21
31.5617111435
 12
160.1534293074
 22
31.4971825592
 13
160.1534293074
 23
31.4971825592
  0
SOLID
  8
0
 62
7
  6
CONTINUOUS
 10
160.6737418074
 20
31.5617111435
 11
160.8471793074
 21
31.4971825592
 12
160.1534293074
 22
31.4971825592
 13
160.1534293074
 23
31.4971825592
  0
SOLID
  8
0
 62
7
  6
CONTINUOUS
 10
160.5003043074
 20
31.4649197501
 11
160.1534293074
 21
31.4971825592
 12
160.8471793074
 22
31.4971825592
 13
160.8471793074
 23
31.4971825592
  0
SOLID
  8
0
 62
7
  6
CONTINUOUS
 10
159.1128043074
 20
31.4326555427
 11
159.228429528
 21
31.5294468402
 12
159.8065543074
 22
31.4971825592
 13
159.8065543074
 23
31.4971825592
  0
SOLID
  8
0
 62
7
  6
CONTINUOUS
 10
160.5003043074
 20
31.4649197501
 11
160.8471793074
 21
31.4971825592
 12
160.615929528
 22
31.4326555427
 13
160.615929528
 23
31.4326555427
  0
SOLID
  8
0
 62
7
  6
CONTINUOUS
 10
160.615929528
 20
31.4326555427
 11
160.8471793074
 21
31.4971825592
 12
160.6737418074
 22
31.3681283005
 13
160.6737418074
 23
31.3681283005
  0
SOLID
  8
0
 62
7
  6
CONTINUOUS
 10
160.8471793074
 20
31.4971825592
 11
160.9628038663
 21
31.3681283005
 12
160.6737418074
 22
31.3681283005
 13
160.6737418074
 23
31.3681283005
  0
SOLID
  8
0
 62
7
  6
CONTINUOUS
 10
150.2674918074
 20
31.4649197501
 11
149.7471793074
 21
31.4326554237
 12
150.498741835
 22
31.4971824493
 13
150.498741835
 23
31.4971824493
  0
SOLID
  8
0
 62
7
  6
CONTINUOUS
 10
149.7471793074
 20
31.4326554237
 11
149.8628043005
 21
31.4971824493
 12
150.498741835
 22
31.4971824493
 13
150.498741835
 23
31.4971824493
  0
SOLID
  8
0
 62
7
  6
CONTINUOUS
 10
150.2674918074
 20
31.4649197501
 11
150.1518667936
 21
31.4326554237
 12
149.7471793074
 22
31.4326554237
 13
149.7471793074
 23
31.4326554237
  0
SOLID
  8
0
 62
7
  6
CONTINUOUS
 10
149.6315543091
 20
31.3036012664
 11
149.7471793074
 21
31.4326554237
 12
150.1518667936
 22
31.4326554237
 13
150.1518667936
 23
31.4326554237
  0
SOLID
  8
0
 62
7
  6
CONTINUOUS
 10
153.9674919177
 20
31.4326554237
 11
154.6612419177
 21
31.4971825369
 12
154.4299918074
 22
31.4649197501
 13
154.4299918074
 23
31.4649197501
  0
SOLID
  8
0
 62
7
  6
CONTINUOUS
 10
154.4299918074
 20
31.4649197501
 11
154.3143669177
 21
31.4326554237
 12
153.9674919177
 22
31.4326554237
 13
153.9674919177
 23
31.4326554237
  0
SOLID
  8
0
 62
7
  6
CONTINUOUS
 10
153.9674919177
 20
31.3681283335
 11
153.9674919177
 21
31.4326554237
 12
154.3143669177
 22
31.4326554237
 13
154.3143669177
 23
31.4326554237
  0
SOLID
  8
0
 62
7
  6
CONTINUOUS
 10
154.3143669177
 20
31.4326554237
 11
154.2565543074
 21
31.3681283335
 12
153.9674919177
 22
31.3681283335
 13
153.9674919177
 23
31.3681283335
  0
SOLID
  8
0
 62
7
  6
CONTINUOUS
 10
159.1128043074
 20
31.4326555528
 11
159.8065543074
 21
31.4971825369
 12
159.575304528
 22
31.4649197501
 13
159.575304528
 23
31.4649197501
  0
SOLID
  8
0
 62
7
  6
CONTINUOUS
 10
159.575304528
 20
31.4649197501
 11
159.4596793074
 21
31.4326555528
 12
159.1128043074
 22
31.4326555528
 13
159.1128043074
 23
31.4326555528
  0
SOLID
  8
0
 62
7
  6
CONTINUOUS
 10
159.1128043074
 20
31.3681284626
 11
159.1128043074
 21
31.4326555528
 12
159.4596793074
 22
31.4326555528
 13
159.4596793074
 23
31.4326555528
  0
SOLID
  8
0
 62
7
  6
CONTINUOUS
 10
159.4596793074
 20
31.4326555528
 11
159.401867028
 21
31.3681284626
 12
159.1128043074
 22
31.3681284626
 13
159.1128043074
 23
31.3681284626
  0
SOLID
  8
0
 62
7
  6
CONTINUOUS
 10
159.228429528
 20
31.2390741763
 11
159.1128043074
 21
31.3681284626
 12
159.401867028
 22
31.3681284626
 13
159.401867028
 23
31.3681284626
  0
SOLID
  8
0
 62
7
  6
CONTINUOUS
 10
149.6315543091
 20
31.3036012664
 11
150.1518667936
 21
31.4326554468
 12
149.9784292936
 22
31.3358640533
 13
149.9784292936
 23
31.3358640533
  0
SOLID
  8
0
 62
7
  6
CONTINUOUS
 10
149.9784292936
 20
31.3358640533
 11
149.9206168074
 21
31.2713369632
 12
149.6315543091
 22
31.3036012664
 13
149.6315543091
 23
31.3036012664
  0
SOLID
  8
0
 62
7
  6
CONTINUOUS
 10
149.5737418074
 20
31.1100184796
 11
149.6315543091
 21
31.3036012664
 12
149.9206168074
 22
31.2713369632
 13
149.9206168074
 23
31.2713369632
  0
SOLID
  8
0
 62
7
  6
CONTINUOUS
 10
154.4299918074
 20
31.2390741763
 11
154.7768668074
 21
31.271336924
 12
155.412804528
 22
31.271336924
 13
155.412804528
 23
31.271336924
  0
SOLID
  8
0
 62
7
  6
CONTINUOUS
 10
154.4299918074
 20
31.2390741763
 11
155.412804528
 21
31.271336924
 12
154.1987416972
 22
31.1745462761
 13
154.1987416972
 23
31.1745462761
  0
SOLID
  8
0
 62
7
  6
CONTINUOUS
 10
154.1987416972
 20
31.1745462761
 11
155.412804528
 21
31.271336924
 12
154.7768668074
 22
31.1422827436
 13
154.7768668074
 23
31.1422827436
  0
SOLID
  8
0
 62
7
  6
CONTINUOUS
 10
155.412804528
 20
31.271336924
 11
155.412804528
 21
31.1422827436
 12
154.7768668074
 22
31.1422827436
 13
154.7768668074
 23
31.1422827436
  0
SOLID
  8
0
 62
7
  6
CONTINUOUS
 10
159.228429528
 20
31.2390745501
 11
159.401867028
 21
31.3681283566
 12
159.4596793074
 22
31.3036012664
 13
159.4596793074
 23
31.3036012664
  0
SOLID
  8
0
 62
7
  6
CONTINUOUS
 10
159.4596793074
 20
31.3036012664
 11
159.6331168074
 21
31.2390745501
 12
159.228429528
 22
31.2390745501
 13
159.228429528
 23
31.2390745501
  0
SOLID
  8
0
 62
7
  6
CONTINUOUS
 10
159.4596793074
 20
31.1422827828
 11
159.228429528
 21
31.2390745501
 12
159.6331168074
 22
31.2390745501
 13
159.6331168074
 23
31.2390745501
  0
SOLID
  8
0
 62
7
  6
CONTINUOUS
 10
159.6331168074
 20
31.2390745501
 11
160.615929528
 21
31.0777556927
 12
159.4596793074
 22
31.1422827828
 13
159.4596793074
 23
31.1422827828
  0
SOLID
  8
0
 62
7
  6
CONTINUOUS
 10
160.442492028
 20
30.9809646623
 11
159.4596793074
 21
31.1422827828
 12
160.615929528
 22
31.0777556927
 13
160.615929528
 23
31.0777556927
  0
SOLID
  8
0
 62
7
  6
CONTINUOUS
 10
160.615929528
 20
31.0777556927
 11
160.8471793074
 21
30.9809646623
 12
160.442492028
 22
30.9809646623
 13
160.442492028
 23
30.9809646623
  0
SOLID
  8
0
 62
7
  6
CONTINUOUS
 10
160.615929528
 20
30.9164372091
 11
160.442492028
 21
30.9809646623
 12
160.8471793074
 22
30.9809646623
 13
160.8471793074
 23
30.9809646623
  0
SOLID
  8
0
 62
7
  6
CONTINUOUS
 10
160.615929528
 20
30.9164372091
 11
160.8471793074
 21
30.9809646623
 12
160.6737418074
 22
30.8519089441
 13
160.6737418074
 23
30.8519089441
  0
SOLID
  8
0
 62
7
  6
CONTINUOUS
 10
160.8471793074
 20
30.9809646623
 11
160.9628038663
 21
30.8519089441
 12
160.6737418074
 22
30.8519089441
 13
160.6737418074
 23
30.8519089441
  0
SOLID
  8
0
 62
7
  6
CONTINUOUS
 10
160.615929528
 20
30.7873818593
 11
160.6737418074
 21
30.8519089441
 12
160.9628038663
 22
30.8519089441
 13
160.9628038663
 23
30.8519089441
  0
SOLID
  8
0
 62
7
  6
CONTINUOUS
 10
160.9628038663
 20
30.8519089441
 11
160.9628038663
 21
30.7873818593
 12
160.615929528
 22
30.7873818593
 13
160.615929528
 23
30.7873818593
  0
SOLID
  8
0
 62
7
  6
CONTINUOUS
 10
160.5003043074
 20
30.7551187255
 11
160.615929528
 21
30.7873818593
 12
160.9628038663
 22
30.7873818593
 13
160.9628038663
 23
30.7873818593
  0
SOLID
  8
0
 62
7
  6
CONTINUOUS
 10
160.5003043074
 20
30.7551187255
 11
160.9628038663
 21
30.7873818593
 12
160.269054528
 22
30.7228547745
 13
160.269054528
 23
30.7228547745
  0
SOLID
  8
0
 62
7
  6
CONTINUOUS
 10
160.9628038663
 20
30.7873818593
 11
160.8471793074
 21
30.6905916353
 12
160.269054528
 22
30.7228547745
 13
160.269054528
 23
30.7228547745
  0
SOLID
  8
0
 62
7
  6
CONTINUOUS
 10
160.8471793074
 20
30.6905916353
 11
159.401867028
 21
30.658327332
 12
160.269054528
 22
30.7228547745
 13
160.269054528
 23
30.7228547745
  0
SOLID
  8
0
 62
7
  6
CONTINUOUS
 10
160.269054528
 20
30.7228547745
 11
159.401867028
 21
30.658327332
 12
159.922179528
 22
30.7228547745
 13
159.922179528
 23
30.7228547745
  0
SOLID
  8
0
 62
7
  6
CONTINUOUS
 10
159.401867028
 20
30.658327332
 11
159.228429528
 21
30.7228547745
 12
159.922179528
 22
30.7228547745
 13
159.922179528
 23
30.7228547745
  0
SOLID
  8
0
 62
7
  6
CONTINUOUS
 10
159.401867028
 20
30.658327332
 11
160.8471793074
 21
30.6905916353
 12
159.575304528
 22
30.6260629858
 13
159.575304528
 23
30.6260629858
  0
SOLID
  8
0
 62
7
  6
CONTINUOUS
 10
160.8471793074
 20
30.6905916353
 11
160.615929528
 21
30.6260629858
 12
159.575304528
 22
30.6260629858
 13
159.575304528
 23
30.6260629858
  0
SOLID
  8
0
 62
7
  6
CONTINUOUS
 10
159.922179528
 20
30.5938006049
 11
159.575304528
 21
30.6260629858
 12
160.615929528
 22
30.6260629858
 13
160.615929528
 23
30.6260629858
  0
SOLID
  8
0
 62
7
  6
CONTINUOUS
 10
160.615929528
 20
30.6260629858
 11
160.269054528
 21
30.5938006049
 12
159.922179528
 22
30.5938006049
 13
159.922179528
 23
30.5938006049
  0
SOLID
  8
0
 62
7
  6
CONTINUOUS
 10
149.5737418074
 20
31.1100184796
 11
149.9206168074
 21
31.2713369632
 12
149.8628043005
 22
31.1422827828
 13
149.8628043005
 23
31.1422827828
  0
SOLID
  8
0
 62
7
  6
CONTINUOUS
 10
149.8628043005
 20
31.1422827828
 11
149.8628043005
 21
31.0454914852
 12
149.5737418074
 22
31.1100184796
 13
149.5737418074
 23
31.1100184796
  0
SOLID
  8
0
 62
7
  6
CONTINUOUS
 10
149.6315543091
 20
30.9164372091
 11
149.5737418074
 21
31.1100184796
 12
149.8628043005
 22
31.0454914852
 13
149.8628043005
 23
31.0454914852
  0
SOLID
  8
0
 62
7
  6
CONTINUOUS
 10
149.8628043005
 20
31.0454914852
 11
149.9784292936
 21
30.8841729058
 12
149.6315543091
 22
30.9164372091
 13
149.6315543091
 23
30.9164372091
  0
SOLID
  8
0
 62
7
  6
CONTINUOUS
 10
149.7471793074
 20
30.7873813202
 11
149.6315543091
 21
30.9164372091
 12
149.9784292936
 22
30.8841729058
 13
149.9784292936
 23
30.8841729058
  0
SOLID
  8
0
 62
7
  6
CONTINUOUS
 10
149.9784292936
 20
30.8841729058
 11
150.1518667936
 21
30.7873813202
 12
149.7471793074
 22
30.7873813202
 13
149.7471793074
 23
30.7873813202
  0
SOLID
  8
0
 62
7
  6
CONTINUOUS
 10
149.8628043005
 20
30.7228547004
 11
149.7471793074
 21
30.7873813202
 12
150.1518667936
 22
30.7873813202
 13
150.1518667936
 23
30.7873813202
  0
SOLID
  8
0
 62
7
  6
CONTINUOUS
 10
150.1518667936
 20
30.7873813202
 11
150.498741835
 21
30.7228547004
 12
149.8628043005
 22
30.7228547004
 13
149.8628043005
 23
30.7228547004
  0
SOLID
  8
0
 62
7
  6
CONTINUOUS
 10
150.0362418212
 20
30.658327332
 11
149.8628043005
 21
30.7228547004
 12
150.498741835
 22
30.7228547004
 13
150.498741835
 23
30.7228547004
  0
SOLID
  8
0
 62
7
  6
CONTINUOUS
 10
154.0831168074
 20
31.1100184386
 11
154.1987416972
 21
31.1745462761
 12
154.7768668074
 22
31.1422827828
 13
154.7768668074
 23
31.1422827828
  0
SOLID
  8
0
 62
7
  6
CONTINUOUS
 10
154.7768668074
 20
31.1422827828
 11
154.5456166972
 21
31.1100184386
 12
154.0831168074
 22
31.1100184386
 13
154.0831168074
 23
31.1100184386
  0
SOLID
  8
0
 62
7
  6
CONTINUOUS
 10
153.9674919177
 20
30.9809642992
 11
154.0831168074
 21
31.1100184386
 12
154.5456166972
 22
31.1100184386
 13
154.5456166972
 23
31.1100184386
  0
SOLID
  8
0
 62
7
  6
CONTINUOUS
 10
154.3143669177
 20
31.0132277988
 11
153.9674919177
 21
30.9809642992
 12
154.4299918074
 22
31.0777556927
 13
154.4299918074
 23
31.0777556927
  0
SOLID
  8
0
 62
7
  6
CONTINUOUS
 10
153.9674919177
 20
30.9809642992
 11
154.5456166972
 21
31.1100184796
 12
154.4299918074
 22
31.0777556927
 13
154.4299918074
 23
31.0777556927
  0
SOLID
  8
0
 62
7
  6
CONTINUOUS
 10
154.3143669177
 20
31.0132277988
 11
154.2565543074
 21
30.9164372091
 12
153.9674919177
 22
30.9809642992
 13
153.9674919177
 23
30.9809642992
  0
SOLID
  8
0
 62
7
  6
CONTINUOUS
 10
153.9674919177
 20
30.8841729058
 11
153.9674919177
 21
30.9809642992
 12
154.2565543074
 22
30.9164372091
 13
154.2565543074
 23
30.9164372091
  0
SOLID
  8
0
 62
7
  6
CONTINUOUS
 10
154.2565543074
 20
30.9164372091
 11
154.2565543074
 21
30.8519086025
 12
153.9674919177
 22
30.8841729058
 13
153.9674919177
 23
30.8841729058
  0
SOLID
  8
0
 62
7
  6
CONTINUOUS
 10
154.0253041972
 20
30.7551187255
 11
153.9674919177
 21
30.8841729058
 12
154.2565543074
 22
30.8519086025
 13
154.2565543074
 23
30.8519086025
  0
SOLID
  8
0
 62
7
  6
CONTINUOUS
 10
155.412804528
 20
30.9487004259
 11
155.7018665869
 21
30.8519086025
 12
155.3549915869
 22
30.8841729058
 13
155.3549915869
 23
30.8841729058
  0
SOLID
  8
0
 62
7
  6
CONTINUOUS
 10
155.1815540869
 20
30.7873815123
 11
155.3549915869
 21
30.8841729058
 12
155.7018665869
 22
30.8519086025
 13
155.7018665869
 23
30.8519086025
  0
SOLID
  8
0
 62
7
  6
CONTINUOUS
 10
155.1815540869
 20
30.7873815123
 11
155.7018665869
 21
30.8519086025
 12
155.412804528
 22
30.7551187255
 13
155.412804528
 23
30.7551187255
  0
SOLID
  8
0
 62
7
  6
CONTINUOUS
 10
155.7018665869
 20
30.8519086025
 11
155.759679528
 21
30.6905916353
 12
155.412804528
 22
30.7551187255
 13
155.412804528
 23
30.7551187255
  0
SOLID
  8
0
 62
7
  6
CONTINUOUS
 10
155.4706168074
 20
30.658327332
 11
155.412804528
 21
30.7551187255
 12
155.759679528
 22
30.6905916353
 13
155.759679528
 23
30.6905916353
  0
SOLID
  8
0
 62
7
  6
CONTINUOUS
 10
155.4706168074
 20
30.658327332
 11
155.759679528
 21
30.6905916353
 12
155.5284290869
 22
30.5938002079
 13
155.5284290869
 23
30.5938002079
  0
SOLID
  8
0
 62
7
  6
CONTINUOUS
 10
155.759679528
 20
30.6905916353
 11
155.8174918074
 21
30.5938002079
 12
155.5284290869
 22
30.5938002079
 13
155.5284290869
 23
30.5938002079
  0
SOLID
  8
0
 62
7
  6
CONTINUOUS
 10
151.0768668626
 20
30.8196456577
 11
151.1346793074
 21
30.9164373395
 12
151.4237418626
 22
30.9164373395
 13
151.4237418626
 23
30.9164373395
  0
SOLID
  8
0
 62
7
  6
CONTINUOUS
 10
151.4237418626
 20
30.9164373395
 11
151.3659292523
 21
30.7873815123
 12
151.0768668626
 22
30.8196456577
 13
151.0768668626
 23
30.8196456577
  0
SOLID
  8
0
 62
7
  6
CONTINUOUS
 10
150.9034292799
 20
30.7551187255
 11
151.0768668626
 21
30.8196456577
 12
151.3659292523
 22
30.7873815123
 13
151.3659292523
 23
30.7873815123
  0
SOLID
  8
0
 62
7
  6
CONTINUOUS
 10
150.9034292799
 20
30.7551187255
 11
151.3659292523
 21
30.7873815123
 12
150.498741835
 22
30.7228544222
 13
150.498741835
 23
30.7228544222
  0
SOLID
  8
0
 62
7
  6
CONTINUOUS
 10
151.3659292523
 20
30.7873815123
 11
151.1924917523
 21
30.6905916353
 12
150.498741835
 22
30.7228544222
 13
150.498741835
 23
30.7228544222
  0
SOLID
  8
0
 62
7
  6
CONTINUOUS
 10
150.0362418212
 20
30.658327332
 11
150.498741835
 21
30.7228544222
 12
151.1924917523
 22
30.6905916353
 13
151.1924917523
 23
30.6905916353
  0
SOLID
  8
0
 62
7
  6
CONTINUOUS
 10
150.0362418212
 20
30.658327332
 11
151.1924917523
 21
30.6905916353
 12
150.2096793212
 22
30.6260631011
 13
150.2096793212
 23
30.6260631011
  0
SOLID
  8
0
 62
7
  6
CONTINUOUS
 10
151.1924917523
 20
30.6905916353
 11
150.9612418074
 21
30.6260631011
 12
150.2096793212
 22
30.6260631011
 13
150.2096793212
 23
30.6260631011
  0
SOLID
  8
0
 62
7
  6
CONTINUOUS
 10
150.5565542799
 20
30.5938002419
 11
150.2096793212
 21
30.6260631011
 12
150.9612418074
 22
30.6260631011
 13
150.9612418074
 23
30.6260631011
  0
SOLID
  8
0
 62
7
  6
CONTINUOUS
 10
154.0253041972
 20
30.7551187255
 11
154.2565543074
 21
30.8519086025
 12
154.3143669177
 22
30.7873815123
 13
154.3143669177
 23
30.7873815123
  0
SOLID
  8
0
 62
7
  6
CONTINUOUS
 10
154.3143669177
 20
30.7873815123
 11
154.5456166972
 21
30.7228544222
 12
154.0253041972
 22
30.7551187255
 13
154.0253041972
 23
30.7551187255
  0
SOLID
  8
0
 62
7
  6
CONTINUOUS
 10
154.1987416972
 20
30.658327332
 11
154.0253041972
 21
30.7551187255
 12
154.5456166972
 22
30.7228544222
 13
154.5456166972
 23
30.7228544222
  0
SOLID
  8
0
 62
7
  6
CONTINUOUS
 10
154.8924916972
 20
30.7228544637
 11
155.1815540869
 21
30.7873815123
 12
155.412804528
 22
30.7551187255
 13
155.412804528
 23
30.7551187255
  0
SOLID
  8
0
 62
7
  6
CONTINUOUS
 10
155.412804528
 20
30.7551187255
 11
155.3549915869
 21
30.6905916353
 12
154.8924916972
 22
30.7228544637
 13
154.8924916972
 23
30.7228544637
  0
SOLID
  8
0
 62
7
  6
CONTINUOUS
 10
155.3549915869
 20
30.6905916353
 11
154.1987416972
 21
30.658327332
 12
154.8924916972
 22
30.7228544637
 13
154.8924916972
 23
30.7228544637
  0
SOLID
  8
0
 62
7
  6
CONTINUOUS
 10
154.1987416972
 20
30.658327332
 11
154.5456166972
 21
30.7228544637
 12
154.8924916972
 22
30.7228544637
 13
154.8924916972
 23
30.7228544637
  0
SOLID
  8
0
 62
7
  6
CONTINUOUS
 10
154.1987416972
 20
30.658327332
 11
155.3549915869
 21
30.6905916353
 12
154.3143669177
 22
30.6260630541
 13
154.3143669177
 23
30.6260630541
  0
SOLID
  8
0
 62
7
  6
CONTINUOUS
 10
155.3549915869
 20
30.6905916353
 11
155.1815540869
 21
30.6260630541
 12
154.3143669177
 22
30.6260630541
 13
154.3143669177
 23
30.6260630541
  0
SOLID
  8
0
 62
7
  6
CONTINUOUS
 10
154.5456166972
 20
30.5938002188
 11
154.3143669177
 21
30.6260630541
 12
155.1815540869
 22
30.6260630541
 13
155.1815540869
 23
30.6260630541
  0
SOLID
  8
0
 62
7
  6
CONTINUOUS
 10
155.1815540869
 20
30.6260630541
 11
154.8924916972
 21
30.5938002188
 12
154.5456166972
 22
30.5938002188
 13
154.5456166972
 23
30.5938002188
  0
SOLID
  8
0
 62
7
  6
CONTINUOUS
 10
159.575304528
 20
30.7551187255
 11
159.228429528
 21
30.7228544637
 12
159.4596793074
 22
30.7873815123
 13
159.4596793074
 23
30.7873815123
  0
SOLID
  8
0
 62
7
  6
CONTINUOUS
 10
159.4596793074
 20
30.7873815123
 11
159.228429528
 21
30.7228544637
 12
159.401867028
 22
30.851908644
 13
159.401867028
 23
30.851908644
  0
SOLID
  8
0
 62
7
  6
CONTINUOUS
 10
159.228429528
 20
30.7228544637
 11
159.1128043074
 21
30.851908644
 12
159.401867028
 22
30.851908644
 13
159.401867028
 23
30.851908644
  0
SOLID
  8
0
 62
7
  6
CONTINUOUS
 10
159.575304528
 20
30.7551187255
 11
159.922179528
 21
30.7228544637
 12
159.228429528
 22
30.7228544637
 13
159.228429528
 23
30.7228544637
  0
SOLID
  8
0
 62
7
  6
CONTINUOUS
 10
156.279992028
 20
30.5938002419
 11
156.279992028
 21
31.6262382337
 12
156.5690540869
 22
30.5938002419
 13
156.5690540869
 23
31.6262382337
  0
TEXT
  8
0
 62
5
  6
CONTINUOUS
 10
164.6539584268
 20
30.6865562072
  7
TEXTSTYLE_4
 40
1.0655737705
  1
The brand for plastic modular belts and chains
 41
1.0
 72
0
  0
ENDBLK
  8
0
  6
BYBLOCK
 62
0
  0
BLOCK
  8
0
 62
2
  6
CONTINUOUS
  2
AMMEAAL_LOGO_BL0
 70
64
 10
32.1213064866
 20
19.8534310916
  0
LINE
  8
0
 62
7
  6
CONTINUOUS
 10
12.3614696776
 20
19.9934385078
 11
13.1396216709
 21
23.6543558055
  0
LINE
  8
0
 62
7
  6
CONTINUOUS
 10
23.2347899607
 20
27.3177497171
 11
13.6274394139
 21
24.1961322958
  0
LINE
  8
0
 62
7
  6
CONTINUOUS
 10
12.5867530099
 20
19.3000877048
 11
20.093828271
 21
12.5406867788
  0
LINE
  8
0
 62
7
  6
CONTINUOUS
 10
12.8492874206
 20
20.5352149982
 11
23.6575567857
 21
24.0470345971
  0
LINE
  8
0
 62
7
  6
CONTINUOUS
 10
23.6533516486
 20
13.6972460334
 11
15.2078919798
 21
21.3015720751
  0
LINE
  8
0
 62
7
  6
CONTINUOUS
 10
24.1731743684
 20
26.4728246013
 11
23.1966148312
 21
21.8784731989
  0
LINE
  8
0
 62
7
  6
CONTINUOUS
 10
22.4968128835
 20
18.5861638851
 11
21.810364672
 21
15.3566789607
  0
LINE
  8
0
 62
7
  6
CONTINUOUS
 10
24.8542704669
 20
14.087448211
 11
25.8105020025
 21
18.5861638851
  0
LINE
  8
0
 62
7
  6
CONTINUOUS
 10
26.5103039502
 20
21.8784731989
 11
26.9545457526
 21
23.9684665583
  0
LINE
  8
0
 62
7
  6
CONTINUOUS
 10
20.8069293463
 20
12.3891124661
 11
24.3664527239
 21
13.5456717207
  0
LINE
  8
0
 62
7
  6
CONTINUOUS
 10
23.9478910361
 20
27.1661754044
 11
26.7292624203
 21
24.6618173613
  0
ARC
  8
0
 62
7
  6
CONTINUOUS
 10
13.8527227462
 20
23.5027814928
 40
0.7290321776
 50
108.0
 51
168.0
  0
ARC
  8
0
 62
7
  6
CONTINUOUS
 10
23.4600732931
 20
26.624398914
 40
0.7290321776
 50
348.0
 51
108.0
  0
ARC
  8
0
 62
7
  6
CONTINUOUS
 10
26.2414446773
 20
24.120040871
 40
0.7290321776
 50
348.0
 51
48.0
  0
ARC
  8
0
 62
7
  6
CONTINUOUS
 10
20.581646014
 20
13.0824632691
 40
0.7290321776
 50
228.0
 51
288.0
  0
ARC
  8
0
 62
7
  6
CONTINUOUS
 10
13.0745707529
 20
19.8418641951
 40
0.7290321776
 50
108.0
 51
228.0
  0
ARC
  8
0
 62
7
  6
CONTINUOUS
 10
24.1411693916
 20
14.2390225237
 40
0.7290321776
 50
228.0
 51
348.0
  0
TEXT
  8
0
 62
5
  6
CONTINUOUS
 10
18.3860103289
 20
19.2268451992
  7
TEXTSTYLE_3
 40
2.7338706658
  1
Ammeraal Beltech
 41
1.0
 51
15.0
 72
0
  0
TEXT
  8
0
 62
5
  6
CONTINUOUS
 10
29.1868111546
 20
16.9533085264
  7
TEXTSTYLE_4
 40
1.0935482663
  1
Innovation 
 41
1.0
 72
0
  0
TEXT
  8
0
 62
5
  6
CONTINUOUS
 10
37.5345078442
 20
16.9533085264
  7
TEXTSTYLE_4
 40
1.0935482663
  1
& Service in Belting
 41
1.0
 72
0
  0
ENDBLK
  8
0
  6
BYBLOCK
 62
0
  0
ENDSEC
  0
SECTION
  2
ENTITIES
  0
TEXT
  8
0
 62
5
  6
CONTINUOUS
 10
96.0
 20
25.636
  7
TEXTSTYLE_2
 40
2.8
  1
Scale :
 41
0.6
 51
0.000019
 72
0
  0
TEXT
  8
0
 62
5
  6
CONTINUOUS
 10
116.0
 20
25.636
  7
TEXTSTYLE_2
 40
2.8
  1
Belt type:
 41
0.6
 51
0.000019
 72
0
  0
INSERT
  8
0
 62
2
  6
CONTINUOUS
  2
AMMEAAL_LOGO_BL0
 10
32.1213064866
 20
19.8534310916
  0
INSERT
  8
0
 62
2
  6
CONTINUOUS
  2
UNI_LOGO2_BL1
 10
173.5956734183
 20
35.5937998301
  0
LINE
  8
0
 62
2
  6
CONTINUOUS
 10
10.0
 20
30.0
 11
200.0
 21
30.0
  0
LINE
  8
0
 62
2
  6
CONTINUOUS
 10
10.0
 20
30.0
 11
10.0
 21
10.0
  0
LINE
  8
0
 62
2
  6
CONTINUOUS
 10
10.0
 20
10.0
 11
200.0
 21
10.0
  0
LINE
  8
0
 62
2
  6
CONTINUOUS
 10
95.0
 20
30.0
 11
95.0
 21
10.0
  0
LINE
  8
0
 62
2
  6
CONTINUOUS
 10
115.0
 20
30.0
 11
115.0
 21
10.0
  0
LINE
  8
0
 62
2
  6
CONTINUOUS
 10
200.0
 20
30.0
 11
200.0
 21
10.0
  0
TEXT
  8
0
 62
5
  6
CONTINUOUS
 10
13.0
 20
23.303
  7
TEXTSTYLE_5
 40
1.52
  1
                                                                     Ammeraal Beltech Modular A/S
 41
1.0
 72
0
  0
TEXT
  8
0
 62
5
  6
CONTINUOUS
 10
13.0
 20
20.595
  7
TEXTSTYLE_5
 40
1.5
  1
                                                                      Hjulmagervej 21,  7100 Vejle,  DK
 41
1.0
 72
0
  0
TEXT
  8
0
 62
5
  6
CONTINUOUS
 10
13.0
 20
17.881
  7
TEXTSTYLE_5
 40
1.495
  1
                                                                      tel: 
 41
1.0
 72
0
  0
TEXT
  8
0
 62
5
  6
CONTINUOUS
 10
57.9869465649
 20
17.881
  7
TEXTSTYLE_5
 40
1.51
  1
+45 75723100     fax: +45 75723348
 41
1.0
 72
0
  0
TEXT
  8
0
 62
5
  6
CONTINUOUS
 10
13.0
 20
15.177
  7
TEXTSTYLE_5
 40
1.5
  1
                                                                      admin@unichains.dk  www.unichains.com
 41
1.0
 72
0
  0
TEXT
  8
0
 62
5
  6
CONTINUOUS
 10
99.75
 20
13.75
  7
TEXTSTYLE_6
 40
5.0
  1
1:1
 41
0.7
 72
1
 11
105.0
 21
13.75
  0
TEXT
  8
0
 62
5
  6
CONTINUOUS
 10
118.0
 20
13.75
  7
TEXTSTYLE_7
 40
7.5
  1
uni Flex ONE Product Support
 41
0.33875
 72
0
  0
LINE
  8
0
 62
7
  6
CONTINUOUS
 10
210.0
 20
0.0
 11
0.0
 21
0.0
  0
LINE
  8
0
 62
7
  6
CONTINUOUS
 10
10.0
 20
10.0
 11
200.0
 21
10.0
  0
LINE
  8
0
 62
7
  6
CONTINUOUS
 10
10.0
 20
30.0
 11
200.0
 21
30.0
  0
LINE
  8
0
 62
7
  6
CONTINUOUS
 10
0.0
 20
0.0
 11
0.0
 21
297.0
  0
LINE
  8
0
 62
7
  6
CONTINUOUS
 10
10.0
 20
10.0
 11
10.0
 21
287.0
  0
LINE
  8
0
 62
7
  6
CONTINUOUS
 10
200.0
 20
287.0
 11
200.0
 21
10.0
  0
LINE
  8
0
 62
7
  6
CONTINUOUS
 10
210.0
 20
0.0
 11
210.0
 21
297.0
  0
LINE
  8
0
 62
7
  6
CONTINUOUS
 10
10.0
 20
287.0
 11
200.0
 21
287.0
  0
LINE
  8
0
 62
7
  6
CONTINUOUS
 10
0.0
 20
297.0
 11
210.0
 21
297.0
  0
LINE
  8
0
 62
7
  6
CONTINUOUS
 10
57.0005972165
 20
207.3630974524
 11
57.0005972165
 21
215.9462806881
  0
LINE
  8
0
 62
7
  6
CONTINUOUS
 10
63.0005972165
 20
206.1516664091
 11
63.0005972165
 21
195.5462421296
  0
LINE
  8
SURFACE
 62
7
  6
CONTINUOUS
 10
63.0005972165
 20
192.049113539
 11
63.0005972165
 21
195.5462421296
  0
LINE
  8
SURFACE
 62
7
  6
CONTINUOUS
 10
63.2900128076
 20
191.9527251797
 11
63.2905972165
 21
195.549113539
  0
LINE
  8
SURFACE
 62
7
  6
CONTINUOUS
 10
65.9005972165
 20
206.0862033748
 11
65.9005972165
 21
195.549113539
  0
POLYLINE
  8
0
 62
7
  6
CONTINUOUS
 66
1
 70
0
  0
VERTEX
  8
0
 62
7
  6
CONTINUOUS
 10
65.9005950584
 20
206.0862054906
  0
VERTEX
  8
0
 62
7
  6
CONTINUOUS
 10
65.9076287597
 20
206.191836345
  0
VERTEX
  8
0
 62
7
  6
CONTINUOUS
 10
65.939844394
 20
206.3331798688
  0
VERTEX
  8
0
 62
7
  6
CONTINUOUS
 10
65.9944571904
 20
206.4613318937
  0
VERTEX
  8
0
 62
7
  6
CONTINUOUS
 10
66.0668318296
 20
206.573160986
  0
VERTEX
  8
0
 62
7
  6
CONTINUOUS
 10
66.1508775008
 20
206.6657052543
  0
VERTEX
  8
0
 62
7
  6
CONTINUOUS
 10
66.2392969272
 20
206.737512668
  0
VERTEX
  8
0
 62
7
  6
CONTINUOUS
 10
66.3243420527
 20
206.7891446917
  0
VERTEX
  8
0
 62
7
  6
CONTINUOUS
 10
66.3970673108
 20
206.8223780863
  0
VERTEX
  8
0
 62
7
  6
CONTINUOUS
 10
66.4514762884
 20
206.8413241694
  0
VERTEX
  8
0
 62
7
  6
CONTINUOUS
 10
66.4866659153
 20
206.850878209
  0
VERTEX
  8
0
 62
7
  6
CONTINUOUS
 10
66.5058205985
 20
206.8550584366
  0
VERTEX
  8
0
 62
7
  6
CONTINUOUS
 10
66.5112336894
 20
206.8560599556
  0
SEQEND
  0
LINE
  8
SURFACE
 62
7
  6
CONTINUOUS
 10
71.1005972165
 20
195.549113539
 11
72.4367356122
 21
191.8781034674
  0
LINE
  8
SURFACE
 62
7
  6
CONTINUOUS
 10
66.9005972165
 20
195.549113539
 11
65.5644588207
 21
191.8781034674
  0
LINE
  8
0
 62
7
  6
CONTINUOUS
 10
100.5005972165
 20
191.549113539
 11
98.9066349098
 21
191.549113539
  0
LINE
  8
0
 62
7
  6
CONTINUOUS
 10
91.0946125103
 20
191.549113539
 11
89.5005972165
 21
191.549113539
  0
LINE
  8
SURFACE
 62
7
  6
CONTINUOUS
 10
74.5005972165
 20
191.549113539
 11
72.9066349098
 21
191.549113539
  0
LINE
  8
SURFACE
 62
7
  6
CONTINUOUS
 10
65.0946125103
 20
191.549113539
 11
63.5005972165
 21
191.549113539
  0
LINE
  8
SURFACE
 62
7
  6
CONTINUOUS
 10
72.1005972165
 20
206.0862033542
 11
72.1005972165
 21
195.549113539
  0
LINE
  8
SURFACE
 62
7
  6
CONTINUOUS
 10
63.0005972165
 20
195.549113539
 11
66.9005972165
 21
195.549113539
  0
LINE
  8
SURFACE
 62
7
  6
CONTINUOUS
 10
71.1005972165
 20
195.549113539
 11
75.0005972165
 21
195.549113539
  0
LINE
  8
0
 62
7
  6
CONTINUOUS
 10
89.0005972165
 20
195.549113539
 11
92.9005972165
 21
195.549113539
  0
LINE
  8
0
 62
7
  6
CONTINUOUS
 10
97.1005972165
 20
195.549113539
 11
101.0005972165
 21
195.549113539
  0
LINE
  8
0
 62
7
  6
CONTINUOUS
 10
75.0005972165
 20
206.1516640484
 11
75.0005972165
 21
195.5462421296
  0
LINE
  8
SURFACE
 62
7
  6
CONTINUOUS
 10
75.0005972165
 20
195.5462421296
 11
75.0005972165
 21
192.049113539
  0
POLYLINE
  8
0
 62
7
  6
CONTINUOUS
 66
1
 70
0
  0
VERTEX
  8
0
 62
7
  6
CONTINUOUS
 10
75.0112575628
 20
206.1504849121
  0
VERTEX
  8
0
 62
7
  6
CONTINUOUS
 10
75.0113745751
 20
206.1515427982
  0
VERTEX
  8
0
 62
7
  6
CONTINUOUS
 10
75.0295828373
 20
206.2340226176
  0
VERTEX
  8
0
 62
7
  6
CONTINUOUS
 10
75.0556189746
 20
206.3121463962
  0
VERTEX
  8
0
 62
7
  6
CONTINUOUS
 10
75.0886246333
 20
206.3853625054
  0
VERTEX
  8
0
 62
7
  6
CONTINUOUS
 10
75.1277550021
 20
206.4532537896
  0
VERTEX
  8
0
 62
7
  6
CONTINUOUS
 10
75.1721939974
 20
206.5155219997
  0
VERTEX
  8
0
 62
7
  6
CONTINUOUS
 10
75.2211353354
 20
206.5719398075
  0
VERTEX
  8
0
 62
7
  6
CONTINUOUS
 10
75.2738029238
 20
206.6223721772
  0
VERTEX
  8
0
 62
7
  6
CONTINUOUS
 10
75.3294553175
 20
206.6667645282
  0
VERTEX
  8
0
 62
7
  6
CONTINUOUS
 10
75.3873781239
 20
206.7051257581
  0
VERTEX
  8
0
 62
7
  6
CONTINUOUS
 10
75.4469394137
 20
206.737549965
  0
VERTEX
  8
0
 62
7
  6
CONTINUOUS
 10
75.5073289991
 20
206.7640796713
  0
VERTEX
  8
0
 62
7
  6
CONTINUOUS
 10
75.5645969375
 20
206.7838995511
  0
VERTEX
  8
0
 62
7
  6
CONTINUOUS
 10
75.6143965526
 20
206.7971598866
  0
VERTEX
  8
0
 62
7
  6
CONTINUOUS
 10
75.6521794582
 20
206.8047736267
  0
VERTEX
  8
0
 62
7
  6
CONTINUOUS
 10
75.6748231616
 20
206.8082397021
  0
VERTEX
  8
0
 62
7
  6
CONTINUOUS
 10
75.6816142664
 20
206.8090805085
  0
SEQEND
  0
POLYLINE
  8
0
 62
7
  6
CONTINUOUS
 66
1
 70
0
  0
VERTEX
  8
0
 62
7
  6
CONTINUOUS
 10
106.0005972165
 20
206.3630974524
  0
VERTEX
  8
0
 62
7
  6
CONTINUOUS
 10
106.2016252367
 20
206.383511961
  0
VERTEX
  8
0
 62
7
  6
CONTINUOUS
 10
106.3903689207
 20
206.4421859374
  0
VERTEX
  8
0
 62
7
  6
CONTINUOUS
 10
106.5613967044
 20
206.5351458027
  0
VERTEX
  8
0
 62
7
  6
CONTINUOUS
 10
106.7092112467
 20
206.65750114
  0
VERTEX
  8
0
 62
7
  6
CONTINUOUS
 10
106.8302485078
 20
206.8048155032
  0
VERTEX
  8
0
 62
7
  6
CONTINUOUS
 10
106.9220178746
 20
206.9745308935
  0
VERTEX
  8
0
 62
7
  6
CONTINUOUS
 10
106.9804325669
 20
207.1632908309
  0
VERTEX
  8
0
 62
7
  6
CONTINUOUS
 10
107.0005972165
 20
207.3630974524
  0
SEQEND
  0
POLYLINE
  8
0
 62
7
  6
CONTINUOUS
 66
1
 70
0
  0
VERTEX
  8
0
 62
7
  6
CONTINUOUS
 10
58.0005972165
 20
206.3630974524
  0
VERTEX
  8
0
 62
7
  6
CONTINUOUS
 10
57.7995691962
 20
206.383511961
  0
VERTEX
  8
0
 62
7
  6
CONTINUOUS
 10
57.6108255122
 20
206.4421859374
  0
VERTEX
  8
0
 62
7
  6
CONTINUOUS
 10
57.4397977285
 20
206.5351458027
  0
VERTEX
  8
0
 62
7
  6
CONTINUOUS
 10
57.2919831862
 20
206.65750114
  0
VERTEX
  8
0
 62
7
  6
CONTINUOUS
 10
57.1709459251
 20
206.8048155032
  0
VERTEX
  8
0
 62
7
  6
CONTINUOUS
 10
57.0791765583
 20
206.9745308935
  0
VERTEX
  8
0
 62
7
  6
CONTINUOUS
 10
57.020761866
 20
207.1632908309
  0
VERTEX
  8
0
 62
7
  6
CONTINUOUS
 10
57.0005972165
 20
207.3630974524
  0
SEQEND
  0
LINE
  8
0
 62
7
  6
CONTINUOUS
 10
106.0005972165
 20
206.3630974524
 11
101.0784683844
 21
206.3630974524
  0
LINE
  8
0
 62
7
  6
CONTINUOUS
 10
98.0481765754
 20
206.3630974524
 11
91.952786452
 21
206.3630974524
  0
LINE
  8
0
 62
7
  6
CONTINUOUS
 10
88.9226853884
 20
206.3630974524
 11
75.0785875971
 21
206.3630974524
  0
LINE
  8
0
 62
7
  6
CONTINUOUS
 10
72.0483031727
 20
206.3630974524
 11
65.9525939616
 21
206.3630974524
  0
LINE
  8
0
 62
7
  6
CONTINUOUS
 10
62.922639072
 20
206.3630974524
 11
58.0005972165
 21
206.3630974524
  0
POLYLINE
  8
0
 62
7
  6
CONTINUOUS
 66
1
 70
0
  0
VERTEX
  8
0
 62
7
  6
CONTINUOUS
 10
62.3161023457
 20
206.8094625606
  0
VERTEX
  8
0
 62
7
  6
CONTINUOUS
 10
62.31687634
 20
206.8093843634
  0
VERTEX
  8
0
 62
7
  6
CONTINUOUS
 10
62.3268287751
 20
206.808180851
  0
VERTEX
  8
0
 62
7
  6
CONTINUOUS
 10
62.3506052129
 20
206.8044956449
  0
VERTEX
  8
0
 62
7
  6
CONTINUOUS
 10
62.3891508399
 20
206.7966153277
  0
VERTEX
  8
0
 62
7
  6
CONTINUOUS
 10
62.4391982867
 20
206.7831083625
  0
VERTEX
  8
0
 62
7
  6
CONTINUOUS
 10
62.4964198522
 20
206.7630796564
  0
VERTEX
  8
0
 62
7
  6
CONTINUOUS
 10
62.5565668196
 20
206.7364135693
  0
VERTEX
  8
0
 62
7
  6
CONTINUOUS
 10
62.615857061
 20
206.7038954933
  0
VERTEX
  8
0
 62
7
  6
CONTINUOUS
 10
62.6735246434
 20
206.6654627196
  0
VERTEX
  8
0
 62
7
  6
CONTINUOUS
 10
62.7289216581
 20
206.6210317636
  0
VERTEX
  8
0
 62
7
  6
CONTINUOUS
 10
62.781336538
 20
206.5705957547
  0
VERTEX
  8
0
 62
7
  6
CONTINUOUS
 10
62.8300314964
 20
206.5142112528
  0
VERTEX
  8
0
 62
7
  6
CONTINUOUS
 10
62.8742350093
 20
206.4520151451
  0
VERTEX
  8
0
 62
7
  6
CONTINUOUS
 10
62.9131465655
 20
206.3842359217
  0
VERTEX
  8
0
 62
7
  6
CONTINUOUS
 10
62.9459570613
 20
206.3111715885
  0
VERTEX
  8
0
 62
7
  6
CONTINUOUS
 10
62.9718291409
 20
206.2332389552
  0
VERTEX
  8
0
 62
7
  6
CONTINUOUS
 10
62.9899130071
 20
206.1509878019
  0
SEQEND
  0
POLYLINE
  8
0
 62
7
  6
CONTINUOUS
 66
1
 70
0
  0
VERTEX
  8
0
 62
7
  6
CONTINUOUS
 10
71.4900807144
 20
206.8560652596
  0
VERTEX
  8
0
 62
7
  6
CONTINUOUS
 10
71.4887260349
 20
206.8562680519
  0
VERTEX
  8
0
 62
7
  6
CONTINUOUS
 10
71.4959836449
 20
206.8549393023
  0
VERTEX
  8
0
 62
7
  6
CONTINUOUS
 10
71.5185351838
 20
206.8499048329
  0
VERTEX
  8
0
 62
7
  6
CONTINUOUS
 10
71.5593637311
 20
206.8383278044
  0
VERTEX
  8
0
 62
7
  6
CONTINUOUS
 10
71.6185044927
 20
206.816540035
  0
VERTEX
  8
0
 62
7
  6
CONTINUOUS
 10
71.6914876778
 20
206.7812987094
  0
VERTEX
  8
0
 62
7
  6
CONTINUOUS
 10
71.7743818233
 20
206.7286126646
  0
VERTEX
  8
0
 62
7
  6
CONTINUOUS
 10
71.8602953092
 20
206.6561611462
  0
VERTEX
  8
0
 62
7
  6
CONTINUOUS
 10
71.9417872928
 20
206.5634070752
  0
VERTEX
  8
0
 62
7
  6
CONTINUOUS
 10
72.0115721819
 20
206.4521339713
  0
VERTEX
  8
0
 62
7
  6
CONTINUOUS
 10
72.0638045654
 20
206.3255218245
  0
VERTEX
  8
0
 62
7
  6
CONTINUOUS
 10
72.0941785395
 20
206.1871478321
  0
VERTEX
  8
0
 62
7
  6
CONTINUOUS
 10
72.1005992274
 20
206.086205521
  0
SEQEND
  0
POLYLINE
  8
0
 62
7
  6
CONTINUOUS
 66
1
 70
0
  0
VERTEX
  8
0
 62
7
  6
CONTINUOUS
 10
75.8005972165
 20
206.9513895212
  0
VERTEX
  8
0
 62
7
  6
CONTINUOUS
 10
75.6225800831
 20
206.9313386361
  0
VERTEX
  8
0
 62
7
  6
CONTINUOUS
 10
75.4534896469
 20
206.8721914856
  0
VERTEX
  8
0
 62
7
  6
CONTINUOUS
 10
75.3018047953
 20
206.7769140539
  0
VERTEX
  8
0
 62
7
  6
CONTINUOUS
 10
75.1751315903
 20
206.6502840274
  0
VERTEX
  8
0
 62
7
  6
CONTINUOUS
 10
75.0798218818
 20
206.4986512088
  0
VERTEX
  8
0
 62
7
  6
CONTINUOUS
 10
75.0206548179
 20
206.3296191054
  0
VERTEX
  8
0
 62
7
  6
CONTINUOUS
 10
75.0005972165
 20
206.1516636613
  0
SEQEND
  0
POLYLINE
  8
0
 62
7
  6
CONTINUOUS
 66
1
 70
0
  0
VERTEX
  8
0
 62
7
  6
CONTINUOUS
 10
88.3160799691
 20
206.8094632934
  0
VERTEX
  8
0
 62
7
  6
CONTINUOUS
 10
88.3167778331
 20
206.8093928482
  0
VERTEX
  8
0
 62
7
  6
CONTINUOUS
 10
88.3262418895
 20
206.8082591266
  0
VERTEX
  8
0
 62
7
  6
CONTINUOUS
 10
88.3493754001
 20
206.8047100354
  0
VERTEX
  8
0
 62
7
  6
CONTINUOUS
 10
88.3878903759
 20
206.7969077167
  0
VERTEX
  8
0
 62
7
  6
CONTINUOUS
 10
88.4381641723
 20
206.7834241936
  0
VERTEX
  8
0
 62
7
  6
CONTINUOUS
 10
88.4958726456
 20
206.7632947569
  0
VERTEX
  8
0
 62
7
  6
CONTINUOUS
 10
88.5565604212
 20
206.7364166918
  0
VERTEX
  8
0
 62
7
  6
CONTINUOUS
 10
88.6161998043
 20
206.7036882103
  0
VERTEX
  8
0
 62
7
  6
CONTINUOUS
 10
88.6741042729
 20
206.6650389632
  0
VERTEX
  8
0
 62
7
  6
CONTINUOUS
 10
88.7296765186
 20
206.6203687405
  0
VERTEX
  8
0
 62
7
  6
CONTINUOUS
 10
88.7822114187
 20
206.569672594
  0
VERTEX
  8
0
 62
7
  6
CONTINUOUS
 10
88.8309760027
 20
206.5130064778
  0
VERTEX
  8
0
 62
7
  6
CONTINUOUS
 10
88.8752010912
 20
206.4505046791
  0
VERTEX
  8
0
 62
7
  6
CONTINUOUS
 10
88.9140852642
 20
206.3823920014
  0
VERTEX
  8
0
 62
7
  6
CONTINUOUS
 10
88.9468140984
 20
206.3089642137
  0
VERTEX
  8
0
 62
7
  6
CONTINUOUS
 10
88.9725422067
 20
206.230635066
  0
VERTEX
  8
0
 62
7
  6
CONTINUOUS
 10
88.9900962837
 20
206.1493946648
  0
SEQEND
  0
POLYLINE
  8
0
 62
7
  6
CONTINUOUS
 66
1
 70
0
  0
VERTEX
  8
0
 62
7
  6
CONTINUOUS
 10
97.4900448227
 20
206.8560705196
  0
VERTEX
  8
0
 62
7
  6
CONTINUOUS
 10
97.4887298815
 20
206.8562674306
  0
VERTEX
  8
0
 62
7
  6
CONTINUOUS
 10
97.4961100016
 20
206.8549144388
  0
VERTEX
  8
0
 62
7
  6
CONTINUOUS
 10
97.5188546735
 20
206.8498258674
  0
VERTEX
  8
0
 62
7
  6
CONTINUOUS
 10
97.5599518001
 20
206.8381400411
  0
VERTEX
  8
0
 62
7
  6
CONTINUOUS
 10
97.6194367178
 20
206.8161493171
  0
VERTEX
  8
0
 62
7
  6
CONTINUOUS
 10
97.6927670054
 20
206.7805933793
  0
VERTEX
  8
0
 62
7
  6
CONTINUOUS
 10
97.7759065135
 20
206.7275002183
  0
VERTEX
  8
0
 62
7
  6
CONTINUOUS
 10
97.8619172746
 20
206.6545778595
  0
VERTEX
  8
0
 62
7
  6
CONTINUOUS
 10
97.9433501159
 20
206.5613136118
  0
VERTEX
  8
0
 62
7
  6
CONTINUOUS
 10
98.0129205013
 20
206.4495160555
  0
VERTEX
  8
0
 62
7
  6
CONTINUOUS
 10
98.0647842322
 20
206.3223892756
  0
VERTEX
  8
0
 62
7
  6
CONTINUOUS
 10
98.0946299812
 20
206.1835492357
  0
VERTEX
  8
0
 62
7
  6
CONTINUOUS
 10
98.1005993621
 20
206.0862054248
  0
SEQEND
  0
LINE
  8
0
 62
7
  6
CONTINUOUS
 10
89.0005972165
 20
192.049113539
 11
89.0005972165
 21
206.1516640423
  0
LINE
  8
0
 62
7
  6
CONTINUOUS
 10
89.2900128076
 20
191.9527251797
 11
89.2905972165
 21
195.549113539
  0
POLYLINE
  8
0
 62
7
  6
CONTINUOUS
 66
1
 70
0
  0
VERTEX
  8
0
 62
7
  6
CONTINUOUS
 10
89.0005972165
 20
206.1516636613
  0
VERTEX
  8
0
 62
7
  6
CONTINUOUS
 10
88.9805396262
 20
206.3296190563
  0
VERTEX
  8
0
 62
7
  6
CONTINUOUS
 10
88.9213725903
 20
206.4986511275
  0
VERTEX
  8
0
 62
7
  6
CONTINUOUS
 10
88.8260629143
 20
206.6502839376
  0
VERTEX
  8
0
 62
7
  6
CONTINUOUS
 10
88.6993897319
 20
206.7769139787
  0
VERTEX
  8
0
 62
7
  6
CONTINUOUS
 10
88.5477048801
 20
206.8721914403
  0
VERTEX
  8
0
 62
7
  6
CONTINUOUS
 10
88.3786144125
 20
206.9313386218
  0
VERTEX
  8
0
 62
7
  6
CONTINUOUS
 10
88.2005972165
 20
206.9513895212
  0
SEQEND
  0
LINE
  8
0
 62
7
  6
CONTINUOUS
 10
91.9005972165
 20
206.0862033691
 11
91.9005972165
 21
195.549113539
  0
POLYLINE
  8
0
 62
7
  6
CONTINUOUS
 66
1
 70
0
  0
VERTEX
  8
0
 62
7
  6
CONTINUOUS
 10
91.9005951003
 20
206.0862056084
  0
VERTEX
  8
0
 62
7
  6
CONTINUOUS
 10
91.9071076171
 20
206.1878641102
  0
VERTEX
  8
0
 62
7
  6
CONTINUOUS
 10
91.9386145335
 20
206.3293760695
  0
VERTEX
  8
0
 62
7
  6
CONTINUOUS
 10
91.9926028704
 20
206.457838661
  0
VERTEX
  8
0
 62
7
  6
CONTINUOUS
 10
92.0644652558
 20
206.5700857996
  0
VERTEX
  8
0
 62
7
  6
CONTINUOUS
 10
92.1481698015
 20
206.6631482728
  0
VERTEX
  8
0
 62
7
  6
CONTINUOUS
 10
92.2364689313
 20
206.7355287616
  0
VERTEX
  8
0
 62
7
  6
CONTINUOUS
 10
92.3216832303
 20
206.7877494247
  0
VERTEX
  8
0
 62
7
  6
CONTINUOUS
 10
92.3948966847
 20
206.8215191664
  0
VERTEX
  8
0
 62
7
  6
CONTINUOUS
 10
92.4499691348
 20
206.840866381
  0
VERTEX
  8
0
 62
7
  6
CONTINUOUS
 10
92.4857747522
 20
206.8506644266
  0
VERTEX
  8
0
 62
7
  6
CONTINUOUS
 10
92.5054093196
 20
206.8549781942
  0
VERTEX
  8
0
 62
7
  6
CONTINUOUS
 10
92.5110615117
 20
206.8560300418
  0
SEQEND
  0
LINE
  8
0
 62
7
  6
CONTINUOUS
 10
97.1005972165
 20
195.549113539
 11
98.4367356122
 21
191.8781034674
  0
LINE
  8
0
 62
7
  6
CONTINUOUS
 10
92.9005972165
 20
195.549113539
 11
91.5644588207
 21
191.8781034674
  0
LINE
  8
0
 62
7
  6
CONTINUOUS
 10
106.0005972165
 20
216.9462806881
 11
58.0005972165
 21
216.9462806881
  0
LINE
  8
0
 62
7
  6
CONTINUOUS
 10
98.1005972165
 20
206.0862033733
 11
98.1005972165
 21
195.549113539
  0
POLYLINE
  8
0
 62
7
  6
CONTINUOUS
 66
1
 70
0
  0
VERTEX
  8
0
 62
7
  6
CONTINUOUS
 10
101.0005972165
 20
206.1516636613
  0
VERTEX
  8
0
 62
7
  6
CONTINUOUS
 10
101.0206548867
 20
206.3296194065
  0
VERTEX
  8
0
 62
7
  6
CONTINUOUS
 10
101.0798221221
 20
206.4986517077
  0
VERTEX
  8
0
 62
7
  6
CONTINUOUS
 10
101.1751320305
 20
206.6502845792
  0
VERTEX
  8
0
 62
7
  6
CONTINUOUS
 10
101.301805375
 20
206.7769145159
  0
VERTEX
  8
0
 62
7
  6
CONTINUOUS
 10
101.4534902252
 20
206.872191764
  0
VERTEX
  8
0
 62
7
  6
CONTINUOUS
 10
101.6225804693
 20
206.9313387242
  0
VERTEX
  8
0
 62
7
  6
CONTINUOUS
 10
101.8005972165
 20
206.9513895212
  0
SEQEND
  0
POLYLINE
  8
0
 62
7
  6
CONTINUOUS
 66
1
 70
0
  0
VERTEX
  8
0
 62
7
  6
CONTINUOUS
 10
101.0106806213
 20
206.1472962935
  0
VERTEX
  8
0
 62
7
  6
CONTINUOUS
 10
101.0284065806
 20
206.2297317512
  0
VERTEX
  8
0
 62
7
  6
CONTINUOUS
 10
101.053957018
 20
206.3078676493
  0
VERTEX
  8
0
 62
7
  6
CONTINUOUS
 10
101.086480865
 20
206.3811514329
  0
VERTEX
  8
0
 62
7
  6
CONTINUOUS
 10
101.125139975
 20
206.4491638759
  0
VERTEX
  8
0
 62
7
  6
CONTINUOUS
 10
101.1691245269
 20
206.5116042821
  0
VERTEX
  8
0
 62
7
  6
CONTINUOUS
 10
101.2176352769
 20
206.5682432774
  0
VERTEX
  8
0
 62
7
  6
CONTINUOUS
 10
101.2699029688
 20
206.6189427191
  0
VERTEX
  8
0
 62
7
  6
CONTINUOUS
 10
101.3251927355
 20
206.6636440068
  0
VERTEX
  8
0
 62
7
  6
CONTINUOUS
 10
101.3827966829
 20
206.7023512377
  0
VERTEX
  8
0
 62
7
  6
CONTINUOUS
 10
101.4420750334
 20
206.7351463431
  0
VERTEX
  8
0
 62
7
  6
CONTINUOUS
 10
101.5022289518
 20
206.7620708779
  0
VERTEX
  8
0
 62
7
  6
CONTINUOUS
 10
101.5595458142
 20
206.7823521764
  0
VERTEX
  8
0
 62
7
  6
CONTINUOUS
 10
101.6098937861
 20
206.7961106414
  0
VERTEX
  8
0
 62
7
  6
CONTINUOUS
 10
101.6490229991
 20
206.8042197869
  0
VERTEX
  8
0
 62
7
  6
CONTINUOUS
 10
101.6735793062
 20
206.8080756668
  0
VERTEX
  8
0
 62
7
  6
CONTINUOUS
 10
101.6808389839
 20
206.8089954781
  0
SEQEND
  0
LINE
  8
0
 62
7
  6
CONTINUOUS
 10
101.0005972165
 20
206.1516640397
 11
101.0005972165
 21
192.049113539
  0
LINE
  8
0
 62
7
  6
CONTINUOUS
 10
107.0005972165
 20
215.9462806881
 11
107.0005972165
 21
207.3630974524
  0
LINE
  8
0
 62
7
  6
CONTINUOUS
 10
145.6271551724
 20
208.0042245249
 11
145.6271551724
 21
207.3630974524
  0
LINE
  8
SURFACE
 62
7
  6
CONTINUOUS
 10
167.6311704662
 20
191.549113539
 11
165.6231398786
 21
191.549113539
  0
LINE
  8
SURFACE
 62
7
  6
CONTINUOUS
 10
163.8171551724
 20
195.549113539
 11
164.1264609494
 21
195.549113539
  0
LINE
  8
SURFACE
 62
7
  6
CONTINUOUS
 10
169.1278493954
 20
195.549113539
 11
169.4371551724
 21
195.549113539
  0
LINE
  8
0
 62
7
  6
CONTINUOUS
 10
169.9575661064
 20
207.0215158727
 11
169.9576900238
 21
207.0215505395
  0
LINE
  8
0
 62
7
  6
CONTINUOUS
 10
169.9604885057
 20
207.0225646069
 11
169.960270349
 21
207.0224875053
  0
LINE
  8
0
 62
7
  6
CONTINUOUS
 10
169.9573380775
 20
207.0214400784
 11
169.9571204951
 21
207.0213608241
  0
LINE
  8
0
 62
7
  6
CONTINUOUS
 10
169.9604885057
 20
207.0225646069
 11
169.9576433746
 21
207.0215526562
  0
LINE
  8
0
 62
7
  6
CONTINUOUS
 10
146.6533321207
 20
206.3634401275
 11
169.6533321207
 21
206.9657163235
  0
LINE
  8
SURFACE
 62
7
  6
CONTINUOUS
 10
163.8171551724
 20
195.549113539
 11
165.1532935682
 21
191.8781034674
  0
LINE
  8
0
 62
7
  6
CONTINUOUS
 10
163.8271551724
 20
205.9919295397
 11
163.8271551724
 21
195.549113539
  0
LINE
  8
0
 62
7
  6
CONTINUOUS
 10
165.039766395
 20
210.8462770233
 11
149.5224473973
 21
210.439941725
  0
LINE
  8
0
 62
7
  6
CONTINUOUS
 10
167.7997268394
 20
216.0594839019
 11
167.4582536634
 21
213.0624123013
  0
LINE
  8
0
 62
7
  6
CONTINUOUS
 10
169.4271551724
 20
206.2683173737
 11
169.4271551724
 21
195.549113539
  0
LINE
  8
0
 62
7
  6
CONTINUOUS
 10
170.6271551724
 20
207.9653736485
 11
170.6271551724
 21
208.6276163144
  0
LINE
  8
0
 62
7
  6
CONTINUOUS
 10
170.6207270281
 20
208.7408195281
 11
169.7868705507
 21
216.0594839019
  0
LINE
  8
SURFACE
 62
7
  6
CONTINUOUS
 10
168.1010167766
 20
191.8781034674
 11
169.4371551724
 21
195.549113539
  0
POLYLINE
  8
0
 62
9
  6
CONTINUOUS
 66
1
 70
0
  0
VERTEX
  8
0
 62
9
  6
CONTINUOUS
 10
57.0005972165
 20
126.265060241
  0
VERTEX
  8
0
 62
9
  6
CONTINUOUS
 10
57.019811931
 20
126.0712240129
  0
VERTEX
  8
0
 62
9
  6
CONTINUOUS
 10
57.0767176642
 20
125.8848368004
  0
VERTEX
  8
0
 62
9
  6
CONTINUOUS
 10
57.1691276455
 20
125.7130612321
  0
VERTEX
  8
0
 62
9
  6
CONTINUOUS
 10
57.293490577
 20
125.5624987034
  0
VERTEX
  8
0
 62
9
  6
CONTINUOUS
 10
57.4450272695
 20
125.4389352454
  0
VERTEX
  8
0
 62
9
  6
CONTINUOUS
 10
57.6179142134
 20
125.3471193627
  0
VERTEX
  8
0
 62
9
  6
CONTINUOUS
 10
57.8055074686
 20
125.2905794764
  0
VERTEX
  8
0
 62
9
  6
CONTINUOUS
 10
58.0005972165
 20
125.2714883853
  0
SEQEND
  0
POLYLINE
  8
0
 62
9
  6
CONTINUOUS
 66
1
 70
0
  0
VERTEX
  8
0
 62
9
  6
CONTINUOUS
 10
57.0005972165
 20
149.265060241
  0
VERTEX
  8
0
 62
9
  6
CONTINUOUS
 10
57.0198123912
 20
149.4163606472
  0
VERTEX
  8
0
 62
9
  6
CONTINUOUS
 10
57.0767194761
 20
149.5618465382
  0
VERTEX
  8
0
 62
9
  6
CONTINUOUS
 10
57.169133418
 20
149.6959290385
  0
VERTEX
  8
0
 62
9
  6
CONTINUOUS
 10
57.2935017697
 20
149.8134524019
  0
VERTEX
  8
0
 62
9
  6
CONTINUOUS
 10
57.4450454983
 20
149.9099004616
  0
VERTEX
  8
0
 62
9
  6
CONTINUOUS
 10
57.6179389207
 20
149.9815657183
  0
VERTEX
  8
0
 62
9
  6
CONTINUOUS
 10
57.8055384898
 20
150.0256947004
  0
VERTEX
  8
0
 62
9
  6
CONTINUOUS
 10
58.0005972165
 20
150.0405914411
  0
SEQEND
  0
POLYLINE
  8
0
 62
9
  6
CONTINUOUS
 66
1
 70
0
  0
VERTEX
  8
0
 62
9
  6
CONTINUOUS
 10
57.0005972165
 20
127.0989167183
  0
VERTEX
  8
0
 62
9
  6
CONTINUOUS
 10
57.0140904037
 20
126.9362489217
  0
VERTEX
  8
0
 62
9
  6
CONTINUOUS
 10
57.048154703
 20
126.7961571652
  0
VERTEX
  8
0
 62
9
  6
CONTINUOUS
 10
57.0952081202
 20
126.6770631623
  0
VERTEX
  8
0
 62
9
  6
CONTINUOUS
 10
57.1499237033
 20
126.5766015844
  0
VERTEX
  8
0
 62
9
  6
CONTINUOUS
 10
57.2085094711
 20
126.4924332601
  0
VERTEX
  8
0
 62
9
  6
CONTINUOUS
 10
57.2684577038
 20
126.4221405728
  0
VERTEX
  8
0
 62
9
  6
CONTINUOUS
 10
57.3282487271
 20
126.3634402882
  0
VERTEX
  8
0
 62
9
  6
CONTINUOUS
 10
57.386523179
 20
126.314741696
  0
VERTEX
  8
0
 62
9
  6
CONTINUOUS
 10
57.4418538514
 20
126.2749072267
  0
VERTEX
  8
0
 62
9
  6
CONTINUOUS
 10
57.4933885788
 20
126.2426333444
  0
VERTEX
  8
0
 62
9
  6
CONTINUOUS
 10
57.542012243
 20
126.21597853
  0
VERTEX
  8
0
 62
9
  6
CONTINUOUS
 10
57.5894177577
 20
126.193221906
  0
VERTEX
  8
0
 62
9
  6
CONTINUOUS
 10
57.637553053
 20
126.1731343497
  0
VERTEX
  8
0
 62
9
  6
CONTINUOUS
 10
57.6872569045
 20
126.1553802419
  0
VERTEX
  8
0
 62
9
  6
CONTINUOUS
 10
57.7377429448
 20
126.140283274
  0
VERTEX
  8
0
 62
9
  6
CONTINUOUS
 10
57.7889259228
 20
126.1278582922
  0
VERTEX
  8
0
 62
9
  6
CONTINUOUS
 10
57.8413030959
 20
126.1180316127
  0
VERTEX
  8
0
 62
9
  6
CONTINUOUS
 10
57.8941768999
 20
126.1109871248
  0
VERTEX
  8
0
 62
9
  6
CONTINUOUS
 10
57.9467010004
 20
126.106788977
  0
VERTEX
  8
0
 62
9
  6
CONTINUOUS
 10
58.0005972165
 20
126.1053448626
  0
SEQEND
  0
LINE
  8
0
 62
7
  6
CONTINUOUS
 10
57.0005972165
 20
126.265060241
 11
57.0005972165
 21
149.265060241
  0
LINE
  8
0
 62
9
  6
CONTINUOUS
 10
58.0005972165
 20
125.265060241
 11
58.0005972165
 21
150.265060241
  0
POLYLINE
  8
0
 62
9
  6
CONTINUOUS
 66
1
 70
0
  0
VERTEX
  8
0
 62
9
  6
CONTINUOUS
 10
57.0005972165
 20
127.0989167183
  0
VERTEX
  8
0
 62
9
  6
CONTINUOUS
 10
57.0140904408
 20
127.2615847373
  0
VERTEX
  8
0
 62
9
  6
CONTINUOUS
 10
57.048154829
 20
127.4016766629
  0
SEQEND
  0
POLYLINE
  8
0
 62
9
  6
CONTINUOUS
 66
1
 70
0
  0
VERTEX
  8
0
 62
9
  6
CONTINUOUS
 10
57.0005972165
 20
127.4403898943
  0
VERTEX
  8
0
 62
9
  6
CONTINUOUS
 10
57.0198119345
 20
127.6342261398
  0
VERTEX
  8
0
 62
9
  6
CONTINUOUS
 10
57.0767176785
 20
127.8206133694
  0
VERTEX
  8
0
 62
9
  6
CONTINUOUS
 10
57.1691275973
 20
127.9923888315
  0
VERTEX
  8
0
 62
9
  6
CONTINUOUS
 10
57.2934904364
 20
128.1429512922
  0
VERTEX
  8
0
 62
9
  6
CONTINUOUS
 10
57.4450269962
 20
128.2665147084
  0
VERTEX
  8
0
 62
9
  6
CONTINUOUS
 10
57.6179137993
 20
128.3583306021
  0
VERTEX
  8
0
 62
9
  6
CONTINUOUS
 10
57.8055069034
 20
128.4148705471
  0
VERTEX
  8
0
 62
9
  6
CONTINUOUS
 10
58.0005972165
 20
128.4339617499
  0
SEQEND
  0
POLYLINE
  8
0
 62
9
  6
CONTINUOUS
 66
1
 70
0
  0
VERTEX
  8
0
 62
9
  6
CONTINUOUS
 10
57.048154829
 20
127.4016766629
  0
VERTEX
  8
0
 62
9
  6
CONTINUOUS
 10
57.0952083544
 20
127.5207707706
  0
VERTEX
  8
0
 62
9
  6
CONTINUOUS
 10
57.1499240439
 20
127.6212323999
  0
VERTEX
  8
0
 62
9
  6
CONTINUOUS
 10
57.2085099059
 20
127.7054007372
  0
VERTEX
  8
0
 62
9
  6
CONTINUOUS
 10
57.2684582073
 20
127.7756934017
  0
VERTEX
  8
0
 62
9
  6
CONTINUOUS
 10
57.3282492636
 20
127.8343936326
  0
VERTEX
  8
0
 62
9
  6
CONTINUOUS
 10
57.386523734
 20
127.8830921697
  0
VERTEX
  8
0
 62
9
  6
CONTINUOUS
 10
57.4418544406
 20
127.9229266044
  0
VERTEX
  8
0
 62
9
  6
CONTINUOUS
 10
57.4933892186
 20
127.9552004664
  0
VERTEX
  8
0
 62
9
  6
CONTINUOUS
 10
57.5420128992
 20
127.9818552431
  0
VERTEX
  8
0
 62
9
  6
CONTINUOUS
 10
57.5894183536
 20
128.0046117977
  0
VERTEX
  8
0
 62
9
  6
CONTINUOUS
 10
57.6375534758
 20
128.0246992507
  0
VERTEX
  8
0
 62
9
  6
CONTINUOUS
 10
57.687257125
 20
128.0424532671
  0
VERTEX
  8
0
 62
9
  6
CONTINUOUS
 10
57.7377431497
 20
128.0575502182
  0
VERTEX
  8
0
 62
9
  6
CONTINUOUS
 10
57.7889262369
 20
128.0699752121
  0
VERTEX
  8
0
 62
9
  6
CONTINUOUS
 10
57.8413033777
 20
128.0798018691
  0
VERTEX
  8
0
 62
9
  6
CONTINUOUS
 10
57.8941770185
 20
128.0868463245
  0
VERTEX
  8
0
 62
9
  6
CONTINUOUS
 10
57.946701003
 20
128.0910444599
  0
VERTEX
  8
0
 62
9
  6
CONTINUOUS
 10
58.0005972165
 20
128.092488574
  0
SEQEND
  0
LINE
  8
0
 62
7
  6
CONTINUOUS
 10
77.8521597045
 20
149.1247257635
 11
77.7729930001
 21
149.0578286424
  0
LINE
  8
0
 62
7
  6
CONTINUOUS
 10
77.7729930001
 20
149.0492428471
 11
77.8521597045
 21
149.1161128991
  0
LINE
  8
0
 62
7
  6
CONTINUOUS
 10
78.7427847045
 20
148.7495450799
 11
78.8219513523
 21
148.8017395794
  0
LINE
  8
0
 62
7
  6
CONTINUOUS
 10
78.7427847045
 20
148.7410491059
 11
78.8219513523
 21
148.7932321479
  0
LINE
  8
0
 62
7
  6
CONTINUOUS
 10
78.3271597045
 20
148.5196597358
 11
78.2677847045
 21
148.4837607964
  0
LINE
  8
0
 62
7
  6
CONTINUOUS
 10
78.2677847045
 20
148.4753019395
 11
78.3271597045
 21
148.5111978434
  0
LINE
  8
0
 62
7
  6
CONTINUOUS
 10
77.9511180001
 20
149.0578286424
 11
77.8917430001
 21
149.0241581149
  0
LINE
  8
0
 62
7
  6
CONTINUOUS
 10
78.3667430001
 20
148.4115390965
 11
78.2875764089
 21
148.3752165517
  0
LINE
  8
0
 62
7
  6
CONTINUOUS
 10
77.9313264089
 20
149.1579509714
 11
77.8521597045
 21
149.1247257635
  0
LINE
  8
0
 62
7
  6
CONTINUOUS
 10
77.8521597045
 20
149.1161128991
 11
77.9313264089
 21
149.1493235542
  0
LINE
  8
0
 62
7
  6
CONTINUOUS
 10
78.9011180567
 20
148.7145696998
 11
78.8417430567
 21
148.6970284283
  0
LINE
  8
0
 62
7
  6
CONTINUOUS
 10
106.0005972165
 20
125.265060241
 11
58.0005972165
 21
125.265060241
  0
LINE
  8
0
 62
9
  6
CONTINUOUS
 10
106.0005972165
 20
125.2714883853
 11
58.0005972165
 21
125.2714883853
  0
LINE
  8
0
 62
9
  6
CONTINUOUS
 10
106.0005972165
 20
126.1053448627
 11
58.0005972165
 21
126.1053448627
  0
POLYLINE
  8
0
 62
7
  6
CONTINUOUS
 66
1
 70
0
  0
VERTEX
  8
0
 62
7
  6
CONTINUOUS
 10
77.0011181134
 20
149.1745074124
  0
VERTEX
  8
0
 62
7
  6
CONTINUOUS
 10
76.8633625005
 20
148.8640314497
  0
VERTEX
  8
0
 62
7
  6
CONTINUOUS
 10
76.7240347045
 20
148.5375561662
  0
SEQEND
  0
LINE
  8
0
 62
7
  6
CONTINUOUS
 10
77.7334097045
 20
148.9817791156
 11
77.7729930001
 21
149.0492428471
  0
LINE
  8
0
 62
7
  6
CONTINUOUS
 10
77.7729930001
 20
149.0578286424
 11
77.7334097045
 21
148.990340497
  0
LINE
  8
0
 62
7
  6
CONTINUOUS
 10
78.3667430001
 20
148.5732428902
 11
78.3271597045
 21
148.5196597358
  0
LINE
  8
0
 62
7
  6
CONTINUOUS
 10
78.3271597045
 20
148.5111978434
 11
78.3667430001
 21
148.5647753492
  0
LINE
  8
0
 62
7
  6
CONTINUOUS
 10
77.8917430001
 20
149.0241581149
 11
77.8521597045
 21
148.9733767163
  0
LINE
  8
0
 62
7
  6
CONTINUOUS
 10
78.6834097045
 20
148.6794514905
 11
78.7427847045
 21
148.7495450799
  0
LINE
  8
0
 62
7
  6
CONTINUOUS
 10
78.6834097045
 20
148.6709686773
 11
78.7427847045
 21
148.7410491059
  0
LINE
  8
0
 62
7
  6
CONTINUOUS
 10
78.4459097045
 20
148.4837607964
 11
78.3667430001
 21
148.4115390965
  0
LINE
  8
0
 62
7
  6
CONTINUOUS
 10
78.8417430567
 20
148.6970284283
 11
78.8021597045
 21
148.6618389246
  0
LINE
  8
0
 62
9
  6
CONTINUOUS
 10
106.0005972165
 20
128.092488574
 11
58.0005972165
 21
128.092488574
  0
LINE
  8
0
 62
9
  6
CONTINUOUS
 10
106.0005972165
 20
128.43396175
 11
58.0005972165
 21
128.43396175
  0
POLYLINE
  8
0
 62
7
  6
CONTINUOUS
 66
1
 70
0
  0
VERTEX
  8
0
 62
7
  6
CONTINUOUS
 10
77.0802847045
 20
149.0913514126
  0
VERTEX
  8
0
 62
7
  6
CONTINUOUS
 10
76.9325593962
 20
148.733837074
  0
VERTEX
  8
0
 62
7
  6
CONTINUOUS
 10
76.7834097045
 20
148.3570023885
  0
SEQEND
  0
POLYLINE
  8
0
 62
7
  6
CONTINUOUS
 66
1
 70
0
  0
VERTEX
  8
0
 62
7
  6
CONTINUOUS
 10
76.7240347045
 20
148.5290925373
  0
VERTEX
  8
0
 62
7
  6
CONTINUOUS
 10
76.8170594469
 20
148.7484081652
  0
VERTEX
  8
0
 62
7
  6
CONTINUOUS
 10
76.9095138764
 20
148.9608770541
  0
VERTEX
  8
0
 62
7
  6
CONTINUOUS
 10
77.0011181134
 20
149.16587246
  0
SEQEND
  0
LINE
  8
0
 62
7
  6
CONTINUOUS
 10
78.4854930567
 20
148.555417209
 11
78.4459097045
 21
148.4837607964
  0
LINE
  8
0
 62
7
  6
CONTINUOUS
 10
76.6052847045
 20
149.1745074124
 11
76.6052847045
 21
148.3570023885
  0
LINE
  8
0
 62
7
  6
CONTINUOUS
 10
78.5052847045
 20
148.6441907674
 11
78.4854930567
 21
148.555417209
  0
LINE
  8
0
 62
7
  6
CONTINUOUS
 10
77.7334097045
 20
148.990340497
 11
77.7136180001
 21
148.9051567866
  0
LINE
  8
0
 62
7
  6
CONTINUOUS
 10
78.3865347045
 20
148.6441907674
 11
78.3667430001
 21
148.5732428902
  0
LINE
  8
0
 62
7
  6
CONTINUOUS
 10
77.8521597045
 20
148.9733767163
 11
77.8323680001
 21
148.9051567866
  0
LINE
  8
0
 62
7
  6
CONTINUOUS
 10
78.8021597045
 20
148.6618389246
 11
78.7823680567
 21
148.6087878157
  0
LINE
  8
0
 62
7
  6
CONTINUOUS
 10
78.6636180567
 20
148.6265070535
 11
78.6834097045
 21
148.6794514905
  0
LINE
  8
0
 62
7
  6
CONTINUOUS
 10
78.6636180567
 20
148.6180325421
 11
78.6834097045
 21
148.6709686773
  0
LINE
  8
0
 62
9
  6
CONTINUOUS
 10
106.0005972165
 20
130.8524490184
 11
57.8055068944
 21
130.8519460357
  0
LINE
  8
0
 62
7
  6
CONTINUOUS
 10
76.7240347045
 20
149.1745074124
 11
76.7240347045
 21
148.5290925373
  0
LINE
  8
0
 62
7
  6
CONTINUOUS
 10
77.0011181134
 20
149.1745074124
 11
77.0011181134
 21
149.16587246
  0
LINE
  8
0
 62
7
  6
CONTINUOUS
 10
77.1594512957
 20
149.1745074124
 11
77.1594512957
 21
149.16587246
  0
LINE
  8
0
 62
7
  6
CONTINUOUS
 10
77.4365347045
 20
149.1745074124
 11
77.4365347045
 21
148.5290925373
  0
LINE
  8
0
 62
7
  6
CONTINUOUS
 10
77.5552847045
 20
149.1745074124
 11
77.5552847045
 21
148.3570023885
  0
LINE
  8
0
 62
7
  6
CONTINUOUS
 10
77.7136180001
 20
148.9051567866
 11
77.7136180001
 21
148.6441907674
  0
LINE
  8
0
 62
7
  6
CONTINUOUS
 10
77.7334097045
 20
148.990340497
 11
77.7334097045
 21
148.9817791156
  0
LINE
  8
0
 62
7
  6
CONTINUOUS
 10
77.7729930001
 20
149.0578286424
 11
77.7729930001
 21
149.0492428471
  0
LINE
  8
0
 62
7
  6
CONTINUOUS
 10
77.8323680001
 20
148.9051567866
 11
77.8323680001
 21
148.6441907674
  0
LINE
  8
0
 62
7
  6
CONTINUOUS
 10
77.8521597045
 20
149.1247257635
 11
77.8521597045
 21
149.1161128991
  0
LINE
  8
0
 62
7
  6
CONTINUOUS
 10
77.8521597045
 20
148.5732428902
 11
77.8521597045
 21
148.5647753492
  0
LINE
  8
0
 62
7
  6
CONTINUOUS
 10
77.8917430001
 20
148.5196597358
 11
77.8917430001
 21
148.5111978434
  0
LINE
  8
0
 62
7
  6
CONTINUOUS
 10
77.9313264089
 20
149.1579509714
 11
77.9313264089
 21
149.1493235542
  0
LINE
  8
0
 62
7
  6
CONTINUOUS
 10
77.9511180001
 20
148.4837607964
 11
77.9511180001
 21
148.4753019395
  0
LINE
  8
0
 62
7
  6
CONTINUOUS
 10
78.0302847045
 20
149.1745074124
 11
78.0302847045
 21
149.16587246
  0
LINE
  8
0
 62
7
  6
CONTINUOUS
 10
78.0302847045
 20
148.4657583255
 11
78.0302847045
 21
148.4573007678
  0
LINE
  8
0
 62
7
  6
CONTINUOUS
 10
78.1886180001
 20
149.1745074124
 11
78.1886180001
 21
149.16587246
  0
LINE
  8
0
 62
7
  6
CONTINUOUS
 10
78.1886180001
 20
148.4657583255
 11
78.1886180001
 21
148.4573007678
  0
LINE
  8
0
 62
7
  6
CONTINUOUS
 10
78.2677847045
 20
148.4837607964
 11
78.2677847045
 21
148.4753019395
  0
LINE
  8
0
 62
7
  6
CONTINUOUS
 10
78.2875764089
 20
149.1579509714
 11
78.2875764089
 21
149.1493235542
  0
LINE
  8
0
 62
7
  6
CONTINUOUS
 10
78.3271597045
 20
148.5196597358
 11
78.3271597045
 21
148.5111978434
  0
LINE
  8
0
 62
7
  6
CONTINUOUS
 10
78.3667430001
 20
149.1247257635
 11
78.3667430001
 21
149.1161128991
  0
LINE
  8
0
 62
7
  6
CONTINUOUS
 10
78.3667430001
 20
148.5732428902
 11
78.3667430001
 21
148.5647753492
  0
LINE
  8
0
 62
7
  6
CONTINUOUS
 10
78.3865347045
 20
148.9051567866
 11
78.3865347045
 21
148.6441907674
  0
LINE
  8
0
 62
7
  6
CONTINUOUS
 10
78.4854930567
 20
148.990340497
 11
78.4854930567
 21
148.9817791156
  0
LINE
  8
0
 62
7
  6
CONTINUOUS
 10
78.5052847045
 20
148.9051567866
 11
78.5052847045
 21
148.6441907674
  0
POLYLINE
  8
0
 62
7
  6
CONTINUOUS
 66
1
 70
0
  0
VERTEX
  8
0
 62
7
  6
CONTINUOUS
 10
86.9765972165
 20
148.9955271108
  0
VERTEX
  8
0
 62
7
  6
CONTINUOUS
 10
87.0106928622
 20
149.0331389203
  0
VERTEX
  8
0
 62
7
  6
CONTINUOUS
 10
87.0500506639
 20
149.06683221
  0
VERTEX
  8
0
 62
7
  6
CONTINUOUS
 10
87.0941139164
 20
149.0961712159
  0
VERTEX
  8
0
 62
7
  6
CONTINUOUS
 10
87.1422499314
 20
149.1207635089
  0
VERTEX
  8
0
 62
7
  6
CONTINUOUS
 10
87.1937647485
 20
149.1402738184
  0
VERTEX
  8
0
 62
7
  6
CONTINUOUS
 10
87.2478855128
 20
149.1544215723
  0
VERTEX
  8
0
 62
7
  6
CONTINUOUS
 10
87.3037881867
 20
149.1629983946
  0
VERTEX
  8
0
 62
7
  6
CONTINUOUS
 10
87.3605972165
 20
149.16587246
  0
SEQEND
  0
POLYLINE
  8
0
 62
7
  6
CONTINUOUS
 66
1
 70
0
  0
VERTEX
  8
0
 62
7
  6
CONTINUOUS
 10
86.9765972165
 20
149.0040932385
  0
VERTEX
  8
0
 62
7
  6
CONTINUOUS
 10
87.0160875104
 20
149.046861214
  0
VERTEX
  8
0
 62
7
  6
CONTINUOUS
 10
87.0623780031
 20
149.0844080839
  0
VERTEX
  8
0
 62
7
  6
CONTINUOUS
 10
87.1145454176
 20
149.1160581604
  0
VERTEX
  8
0
 62
7
  6
CONTINUOUS
 10
87.1715903227
 20
149.141273514
  0
VERTEX
  8
0
 62
7
  6
CONTINUOUS
 10
87.2324200468
 20
149.1596196302
  0
VERTEX
  8
0
 62
7
  6
CONTINUOUS
 10
87.2958458887
 20
149.1707673005
  0
VERTEX
  8
0
 62
7
  6
CONTINUOUS
 10
87.3605972165
 20
149.1745074124
  0
SEQEND
  0
POLYLINE
  8
0
 62
7
  6
CONTINUOUS
 66
1
 70
0
  0
VERTEX
  8
0
 62
7
  6
CONTINUOUS
 10
86.0045972165
 20
148.5400964936
  0
VERTEX
  8
0
 62
7
  6
CONTINUOUS
 10
85.9474720493
 20
148.4782599029
  0
VERTEX
  8
0
 62
7
  6
CONTINUOUS
 10
85.8769295831
 20
148.4265814963
  0
VERTEX
  8
0
 62
7
  6
CONTINUOUS
 10
85.7974300807
 20
148.3885279408
  0
VERTEX
  8
0
 62
7
  6
CONTINUOUS
 10
85.7112609484
 20
148.3650091807
  0
VERTEX
  8
0
 62
7
  6
CONTINUOUS
 10
85.6212109882
 20
148.3570023885
  0
SEQEND
  0
LINE
  8
0
 62
7
  6
CONTINUOUS
 10
78.6636180567
 20
148.555417209
 11
78.6636180567
 21
148.6265070535
  0
LINE
  8
0
 62
7
  6
CONTINUOUS
 10
78.6834097045
 20
148.6794514905
 11
78.6834097045
 21
148.6709686773
  0
LINE
  8
0
 62
7
  6
CONTINUOUS
 10
78.7427847045
 20
148.7495450799
 11
78.7427847045
 21
148.7410491059
  0
LINE
  8
0
 62
7
  6
CONTINUOUS
 10
78.7823680567
 20
148.6087878157
 11
78.7823680567
 21
148.555417209
  0
LINE
  8
0
 62
7
  6
CONTINUOUS
 10
78.8021597045
 20
148.5017279392
 11
78.8021597045
 21
148.4932676374
  0
LINE
  8
0
 62
7
  6
CONTINUOUS
 10
78.8219513523
 20
148.8017395794
 11
78.8219513523
 21
148.7932321479
  0
LINE
  8
0
 62
7
  6
CONTINUOUS
 10
78.8417430567
 20
148.4657583255
 11
78.8417430567
 21
148.4573007678
  0
LINE
  8
0
 62
7
  6
CONTINUOUS
 10
78.9011180567
 20
148.4477205425
 11
78.9011180567
 21
148.4392641389
  0
LINE
  8
0
 62
7
  6
CONTINUOUS
 10
78.9209097045
 20
148.8190659366
 11
78.9209097045
 21
148.8105543805
  0
LINE
  8
0
 62
7
  6
CONTINUOUS
 10
79.2771597045
 20
148.7145696998
 11
79.2771597045
 21
148.4392641389
  0
LINE
  8
0
 62
7
  6
CONTINUOUS
 10
79.2771597045
 20
148.8105543805
 11
79.2771597045
 21
149.1745074124
  0
LINE
  8
0
 62
7
  6
CONTINUOUS
 10
79.3959097045
 20
148.3570023885
 11
79.3959097045
 21
149.1745074124
  0
LINE
  8
0
 62
7
  6
CONTINUOUS
 10
77.7136180001
 20
148.6441907674
 11
77.7334097045
 21
148.555417209
  0
POLYLINE
  8
0
 62
9
  6
CONTINUOUS
 66
1
 70
0
  0
VERTEX
  8
0
 62
9
  6
CONTINUOUS
 10
57.0005972165
 20
130.8262720701
  0
VERTEX
  8
0
 62
9
  6
CONTINUOUS
 10
57.019811936
 20
130.8313789394
  0
VERTEX
  8
0
 62
9
  6
CONTINUOUS
 10
57.0767176839
 20
130.8362895545
  0
VERTEX
  8
0
 62
9
  6
CONTINUOUS
 10
57.1691276041
 20
130.8408152033
  0
VERTEX
  8
0
 62
9
  6
CONTINUOUS
 10
57.2934904353
 20
130.8447819677
  0
VERTEX
  8
0
 62
9
  6
CONTINUOUS
 10
57.4450269834
 20
130.8480374071
  0
VERTEX
  8
0
 62
9
  6
CONTINUOUS
 10
57.6179137841
 20
130.8504564168
  0
VERTEX
  8
0
 62
9
  6
CONTINUOUS
 10
57.8055068944
 20
130.8519460357
  0
SEQEND
  0
POLYLINE
  8
0
 62
9
  6
CONTINUOUS
 66
1
 70
0
  0
VERTEX
  8
0
 62
9
  6
CONTINUOUS
 10
107.0005972165
 20
130.8262720701
  0
VERTEX
  8
0
 62
9
  6
CONTINUOUS
 10
106.9813824977
 20
130.8313789392
  0
VERTEX
  8
0
 62
9
  6
CONTINUOUS
 10
106.9244767517
 20
130.8362895543
  0
VERTEX
  8
0
 62
9
  6
CONTINUOUS
 10
106.8320668322
 20
130.8408152032
  0
VERTEX
  8
0
 62
9
  6
CONTINUOUS
 10
106.707703997
 20
130.8447819678
  0
VERTEX
  8
0
 62
9
  6
CONTINUOUS
 10
106.556167443
 20
130.8480374073
  0
VERTEX
  8
0
 62
9
  6
CONTINUOUS
 10
106.3832806411
 20
130.8504564169
  0
VERTEX
  8
0
 62
9
  6
CONTINUOUS
 10
106.1956875339
 20
130.8519460357
  0
VERTEX
  8
0
 62
9
  6
CONTINUOUS
 10
106.0005972165
 20
130.8524490185
  0
SEQEND
  0
POLYLINE
  8
0
 62
7
  6
CONTINUOUS
 66
1
 70
0
  0
VERTEX
  8
0
 62
7
  6
CONTINUOUS
 10
77.1594512957
 20
149.16587246
  0
VERTEX
  8
0
 62
7
  6
CONTINUOUS
 10
77.2510555369
 20
148.9608770445
  0
VERTEX
  8
0
 62
7
  6
CONTINUOUS
 10
77.3435099664
 20
148.7484081552
  0
SEQEND
  0
POLYLINE
  8
0
 62
7
  6
CONTINUOUS
 66
1
 70
0
  0
VERTEX
  8
0
 62
7
  6
CONTINUOUS
 10
77.1594512957
 20
149.1745074124
  0
VERTEX
  8
0
 62
7
  6
CONTINUOUS
 10
77.2972069086
 20
148.8640314497
  0
VERTEX
  8
0
 62
7
  6
CONTINUOUS
 10
77.4365347045
 20
148.5375561662
  0
SEQEND
  0
LINE
  8
0
 62
7
  6
CONTINUOUS
 10
77.3435099664
 20
148.7484081552
 11
77.4365347045
 21
148.5290925373
  0
POLYLINE
  8
0
 62
7
  6
CONTINUOUS
 66
1
 70
0
  0
VERTEX
  8
0
 62
7
  6
CONTINUOUS
 10
77.0802847045
 20
149.0913514126
  0
VERTEX
  8
0
 62
7
  6
CONTINUOUS
 10
77.2280100129
 20
148.733837074
  0
VERTEX
  8
0
 62
7
  6
CONTINUOUS
 10
77.3771597045
 20
148.3570023885
  0
SEQEND
  0
LINE
  8
0
 62
7
  6
CONTINUOUS
 10
78.3667430001
 20
148.9733767163
 11
78.3865347045
 21
148.9051567866
  0
LINE
  8
0
 62
7
  6
CONTINUOUS
 10
77.8323680001
 20
148.6441907674
 11
77.8521597045
 21
148.5732428902
  0
LINE
  8
0
 62
7
  6
CONTINUOUS
 10
78.4854930567
 20
148.990340497
 11
78.5052847045
 21
148.9051567866
  0
POLYLINE
  8
0
 62
7
  6
CONTINUOUS
 66
1
 70
0
  0
VERTEX
  8
0
 62
7
  6
CONTINUOUS
 10
84.0070972165
 20
147.6759451036
  0
VERTEX
  8
0
 62
7
  6
CONTINUOUS
 10
84.0194547569
 20
147.7972658442
  0
VERTEX
  8
0
 62
7
  6
CONTINUOUS
 10
84.0562833555
 20
147.9131787017
  0
VERTEX
  8
0
 62
7
  6
CONTINUOUS
 10
84.1162970113
 20
148.0190916354
  0
VERTEX
  8
0
 62
7
  6
CONTINUOUS
 10
84.1973038963
 20
148.1112243449
  0
VERTEX
  8
0
 62
7
  6
CONTINUOUS
 10
84.2962372474
 20
148.1863294452
  0
VERTEX
  8
0
 62
7
  6
CONTINUOUS
 10
84.4092915496
 20
148.2418269135
  0
VERTEX
  8
0
 62
7
  6
CONTINUOUS
 10
84.5320020619
 20
148.2758400504
  0
VERTEX
  8
0
 62
7
  6
CONTINUOUS
 10
84.6596192588
 20
148.2872930854
  0
VERTEX
  8
0
 62
7
  6
CONTINUOUS
 10
84.7872198341
 20
148.2758350681
  0
VERTEX
  8
0
 62
7
  6
CONTINUOUS
 10
84.9098849856
 20
148.2418337005
  0
VERTEX
  8
0
 62
7
  6
CONTINUOUS
 10
85.0229018911
 20
148.1863634802
  0
VERTEX
  8
0
 62
7
  6
CONTINUOUS
 10
85.1218291036
 20
148.1112814002
  0
VERTEX
  8
0
 62
7
  6
CONTINUOUS
 10
85.2028494295
 20
148.0191590051
  0
VERTEX
  8
0
 62
7
  6
CONTINUOUS
 10
85.2628847391
 20
147.9132390248
  0
VERTEX
  8
0
 62
7
  6
CONTINUOUS
 10
85.2997287622
 20
147.7973185853
  0
VERTEX
  8
0
 62
7
  6
CONTINUOUS
 10
85.3120972165
 20
147.6759451036
  0
SEQEND
  0
POLYLINE
  8
0
 62
7
  6
CONTINUOUS
 66
1
 70
0
  0
VERTEX
  8
0
 62
7
  6
CONTINUOUS
 10
84.0080852987
 20
147.6758291425
  0
VERTEX
  8
0
 62
7
  6
CONTINUOUS
 10
84.0234311831
 20
147.8065884233
  0
VERTEX
  8
0
 62
7
  6
CONTINUOUS
 10
84.0715481505
 20
147.93694724
  0
VERTEX
  8
0
 62
7
  6
CONTINUOUS
 10
84.1490469987
 20
148.0525210492
  0
VERTEX
  8
0
 62
7
  6
CONTINUOUS
 10
84.2521685709
 20
148.1481697592
  0
VERTEX
  8
0
 62
7
  6
CONTINUOUS
 10
84.3758945863
 20
148.2196833036
  0
VERTEX
  8
0
 62
7
  6
CONTINUOUS
 10
84.5140603848
 20
148.2638928476
  0
VERTEX
  8
0
 62
7
  6
CONTINUOUS
 10
84.6595977557
 20
148.2788405916
  0
VERTEX
  8
0
 62
7
  6
CONTINUOUS
 10
84.8051361042
 20
148.2638924195
  0
VERTEX
  8
0
 62
7
  6
CONTINUOUS
 10
84.9433006243
 20
148.2196829603
  0
VERTEX
  8
0
 62
7
  6
CONTINUOUS
 10
85.0670268838
 20
148.1481690069
  0
VERTEX
  8
0
 62
7
  6
CONTINUOUS
 10
85.170147554
 20
148.0525209093
  0
VERTEX
  8
0
 62
7
  6
CONTINUOUS
 10
85.2476460181
 20
147.9369477572
  0
VERTEX
  8
0
 62
7
  6
CONTINUOUS
 10
85.2957631999
 20
147.8065886319
  0
VERTEX
  8
0
 62
7
  6
CONTINUOUS
 10
85.3111091327
 20
147.6758291421
  0
SEQEND
  0
LINE
  8
0
 62
7
  6
CONTINUOUS
 10
77.7334097045
 20
148.555417209
 11
77.7729930001
 21
148.4837607964
  0
LINE
  8
0
 62
7
  6
CONTINUOUS
 10
78.6636180567
 20
148.555417209
 11
78.6834097045
 21
148.5017279392
  0
LINE
  8
0
 62
7
  6
CONTINUOUS
 10
78.7823680567
 20
148.555417209
 11
78.8021597045
 21
148.5017279392
  0
LINE
  8
0
 62
7
  6
CONTINUOUS
 10
84.0198064798
 20
147.5514775615
 11
84.0070972165
 21
147.6759451036
  0
LINE
  8
0
 62
7
  6
CONTINUOUS
 10
84.4425972165
 20
149.1745074124
 11
84.4425972165
 21
148.3570023885
  0
LINE
  8
0
 62
7
  6
CONTINUOUS
 10
84.8775972165
 20
149.1745074124
 11
84.8775972165
 21
148.3570023885
  0
LINE
  8
0
 62
7
  6
CONTINUOUS
 10
84.9805972165
 20
149.1745074124
 11
84.9805972165
 21
148.8074703788
  0
LINE
  8
0
 62
7
  6
CONTINUOUS
 10
85.4155972165
 20
149.1745074124
 11
85.4155972165
 21
148.7851456405
  0
LINE
  8
0
 62
9
  6
CONTINUOUS
 10
85.5435972165
 20
148.6743752979
 11
85.5435972165
 21
148.6658933411
  0
LINE
  8
0
 62
9
  6
CONTINUOUS
 10
85.7485972165
 20
148.6743752979
 11
85.7485972165
 21
148.6658933411
  0
POLYLINE
  8
0
 62
7
  6
CONTINUOUS
 66
1
 70
0
  0
VERTEX
  8
0
 62
7
  6
CONTINUOUS
 10
85.3120972165
 20
147.6759451036
  0
VERTEX
  8
0
 62
7
  6
CONTINUOUS
 10
85.2993882476
 20
147.5514789978
  0
VERTEX
  8
0
 62
7
  6
CONTINUOUS
 10
85.2617081864
 20
147.4303557069
  0
VERTEX
  8
0
 62
7
  6
CONTINUOUS
 10
85.2008756348
 20
147.3181657219
  0
VERTEX
  8
0
 62
7
  6
CONTINUOUS
 10
85.1197105833
 20
147.2195901292
  0
VERTEX
  8
0
 62
7
  6
CONTINUOUS
 10
85.0215058433
 20
147.1383959727
  0
VERTEX
  8
0
 62
7
  6
CONTINUOUS
 10
84.9095697935
 20
147.0775321515
  0
VERTEX
  8
0
 62
7
  6
CONTINUOUS
 10
84.7873229585
 20
147.0395302247
  0
VERTEX
  8
0
 62
7
  6
CONTINUOUS
 10
84.6596384609
 20
147.026590093
  0
VERTEX
  8
0
 62
7
  6
CONTINUOUS
 10
84.5318774352
 20
147.0395290057
  0
VERTEX
  8
0
 62
7
  6
CONTINUOUS
 10
84.4094464897
 20
147.0776076149
  0
VERTEX
  8
0
 62
7
  6
CONTINUOUS
 10
84.2973549123
 20
147.1386219271
  0
VERTEX
  8
0
 62
7
  6
CONTINUOUS
 10
84.1991725414
 20
147.2199022956
  0
VERTEX
  8
0
 62
7
  6
CONTINUOUS
 10
84.1181415419
 20
147.3184287665
  0
VERTEX
  8
0
 62
7
  6
CONTINUOUS
 10
84.0574347132
 20
147.4304776818
  0
VERTEX
  8
0
 62
7
  6
CONTINUOUS
 10
84.0198064798
 20
147.5514775615
  0
SEQEND
  0
LINE
  8
0
 62
7
  6
CONTINUOUS
 10
85.998235853
 20
148.8462122517
 11
86.0045972165
 21
148.8944764627
  0
LINE
  8
0
 62
7
  6
CONTINUOUS
 10
77.8521597045
 20
148.5647753492
 11
77.8917430001
 21
148.5111978434
  0
LINE
  8
0
 62
7
  6
CONTINUOUS
 10
77.8521597045
 20
148.5732428902
 11
77.8917430001
 21
148.5196597358
  0
LINE
  8
0
 62
7
  6
CONTINUOUS
 10
78.4459097045
 20
149.0492428471
 11
78.4854930567
 21
148.9817791156
  0
LINE
  8
0
 62
7
  6
CONTINUOUS
 10
78.4459097045
 20
149.0578286424
 11
78.4854930567
 21
148.990340497
  0
LINE
  8
0
 62
7
  6
CONTINUOUS
 10
86.0045972165
 20
149.1745074124
 11
86.0045972165
 21
148.8944764627
  0
LINE
  8
0
 62
7
  6
CONTINUOUS
 10
86.0045972165
 20
148.5400964936
 11
86.0045972165
 21
148.3570023885
  0
LINE
  8
0
 62
7
  6
CONTINUOUS
 10
86.4395972165
 20
149.1745074124
 11
86.4395972165
 21
148.3570023885
  0
LINE
  8
0
 62
7
  6
CONTINUOUS
 10
86.5415972165
 20
149.1745074124
 11
86.5415972165
 21
148.3570023885
  0
LINE
  8
0
 62
7
  6
CONTINUOUS
 10
86.9765972165
 20
149.1745074124
 11
86.9765972165
 21
148.9955271108
  0
LINE
  8
0
 62
7
  6
CONTINUOUS
 10
86.9765972165
 20
148.6551925185
 11
86.9765972165
 21
148.3570023885
  0
LINE
  8
0
 62
9
  6
CONTINUOUS
 10
87.3605972165
 20
149.1745074124
 11
87.3605972165
 21
149.16587246
  0
LINE
  8
0
 62
9
  6
CONTINUOUS
 10
87.4885972165
 20
149.1745074124
 11
87.4885972165
 21
149.16587246
  0
LINE
  8
0
 62
7
  6
CONTINUOUS
 10
87.5655972165
 20
148.7662090904
 11
87.5655972165
 21
148.3570023885
  0
LINE
  8
0
 62
7
  6
CONTINUOUS
 10
78.8021597045
 20
148.4932676374
 11
78.8417430567
 21
148.4573007678
  0
LINE
  8
0
 62
7
  6
CONTINUOUS
 10
78.8021597045
 20
148.5017279392
 11
78.8417430567
 21
148.4657583255
  0
LINE
  8
0
 62
7
  6
CONTINUOUS
 10
77.7729930001
 20
148.4837607964
 11
77.8521597045
 21
148.4115390965
  0
LINE
  8
0
 62
7
  6
CONTINUOUS
 10
78.7427847045
 20
148.429647462
 11
78.6834097045
 21
148.5017279392
  0
LINE
  8
0
 62
7
  6
CONTINUOUS
 10
78.3271597045
 20
149.0241581149
 11
78.3667430001
 21
148.9733767163
  0
POLYLINE
  8
0
 62
7
  6
CONTINUOUS
 66
1
 70
0
  0
VERTEX
  8
0
 62
7
  6
CONTINUOUS
 10
85.4155972165
 20
148.7851456405
  0
VERTEX
  8
0
 62
7
  6
CONTINUOUS
 10
85.4218709175
 20
148.7510451081
  0
VERTEX
  8
0
 62
7
  6
CONTINUOUS
 10
85.4401275149
 20
148.7201094741
  0
VERTEX
  8
0
 62
7
  6
CONTINUOUS
 10
85.4683451716
 20
148.6956510138
  0
VERTEX
  8
0
 62
7
  6
CONTINUOUS
 10
85.5041864016
 20
148.6797896454
  0
VERTEX
  8
0
 62
7
  6
CONTINUOUS
 10
85.5435972165
 20
148.6743752979
  0
SEQEND
  0
LINE
  8
0
 62
7
  6
CONTINUOUS
 10
88.0005972165
 20
148.7437748002
 11
88.0005972165
 21
148.3570023885
  0
LINE
  8
0
 62
7
  6
CONTINUOUS
 10
77.8917430001
 20
148.5111978434
 11
77.9511180001
 21
148.4753019395
  0
LINE
  8
0
 62
7
  6
CONTINUOUS
 10
77.8917430001
 20
148.5196597358
 11
77.9511180001
 21
148.4837607964
  0
LINE
  8
0
 62
7
  6
CONTINUOUS
 10
78.8219513523
 20
148.3752165517
 11
78.7427847045
 21
148.429647462
  0
LINE
  8
0
 62
7
  6
CONTINUOUS
 10
78.3667430001
 20
149.1247257635
 11
78.4459097045
 21
149.0578286424
  0
LINE
  8
0
 62
7
  6
CONTINUOUS
 10
78.3667430001
 20
149.1161128991
 11
78.4459097045
 21
149.0492428471
  0
POLYLINE
  8
0
 62
7
  6
CONTINUOUS
 66
1
 70
0
  0
VERTEX
  8
0
 62
7
  6
CONTINUOUS
 10
85.4180473052
 20
148.7551898741
  0
VERTEX
  8
0
 62
7
  6
CONTINUOUS
 10
85.4253066167
 20
148.7345014351
  0
VERTEX
  8
0
 62
7
  6
CONTINUOUS
 10
85.4371063215
 20
148.7153724724
  0
VERTEX
  8
0
 62
7
  6
CONTINUOUS
 10
85.4530019645
 20
148.6985541815
  0
VERTEX
  8
0
 62
7
  6
CONTINUOUS
 10
85.4723910197
 20
148.6847127994
  0
VERTEX
  8
0
 62
7
  6
CONTINUOUS
 10
85.4945323782
 20
148.6744034927
  0
VERTEX
  8
0
 62
7
  6
CONTINUOUS
 10
85.5185767933
 20
148.6680433641
  0
VERTEX
  8
0
 62
7
  6
CONTINUOUS
 10
85.5435972165
 20
148.6658933411
  0
SEQEND
  0
POLYLINE
  8
0
 62
7
  6
CONTINUOUS
 66
1
 70
0
  0
VERTEX
  8
0
 62
7
  6
CONTINUOUS
 10
87.5655972165
 20
148.7662090904
  0
VERTEX
  8
0
 62
7
  6
CONTINUOUS
 10
87.5593082917
 20
148.8002886892
  0
VERTEX
  8
0
 62
7
  6
CONTINUOUS
 10
87.5410200653
 20
148.8309473161
  0
VERTEX
  8
0
 62
7
  6
CONTINUOUS
 10
87.5127867166
 20
148.8550012298
  0
VERTEX
  8
0
 62
7
  6
CONTINUOUS
 10
87.4769631452
 20
148.8705106201
  0
VERTEX
  8
0
 62
7
  6
CONTINUOUS
 10
87.4375972165
 20
148.8757882447
  0
SEQEND
  0
LINE
  8
0
 62
9
  6
CONTINUOUS
 10
57.805506896
 20
146.3692650334
 11
106.0005972165
 21
146.3697680161
  0
LINE
  8
0
 62
7
  6
CONTINUOUS
 10
77.9511180001
 20
148.4753019395
 11
78.0302847045
 21
148.4573007678
  0
LINE
  8
0
 62
7
  6
CONTINUOUS
 10
77.9511180001
 20
148.4837607964
 11
78.0302847045
 21
148.4657583255
  0
LINE
  8
0
 62
7
  6
CONTINUOUS
 10
78.8417430567
 20
148.4573007678
 11
78.9011180567
 21
148.4392641389
  0
LINE
  8
0
 62
7
  6
CONTINUOUS
 10
78.8417430567
 20
148.4657583255
 11
78.9011180567
 21
148.4477205425
  0
LINE
  8
0
 62
7
  6
CONTINUOUS
 10
78.2875764089
 20
149.1493235542
 11
78.3667430001
 21
149.1161128991
  0
LINE
  8
0
 62
7
  6
CONTINUOUS
 10
78.2875764089
 20
149.1579509714
 11
78.3667430001
 21
149.1247257635
  0
LINE
  8
0
 62
7
  6
CONTINUOUS
 10
77.8521597045
 20
148.4115390965
 11
77.9313264089
 21
148.3752165517
  0
LINE
  8
0
 62
7
  6
CONTINUOUS
 10
78.2677847045
 20
149.0578286424
 11
78.3271597045
 21
149.0241581149
  0
LINE
  8
0
 62
7
  6
CONTINUOUS
 10
78.1886180001
 20
148.4573007678
 11
78.2677847045
 21
148.4753019395
  0
LINE
  8
0
 62
7
  6
CONTINUOUS
 10
78.2677847045
 20
148.4837607964
 11
78.1886180001
 21
148.4657583255
  0
LINE
  8
0
 62
7
  6
CONTINUOUS
 10
78.2875764089
 20
148.3752165517
 11
78.1886180001
 21
148.3570023885
  0
LINE
  8
0
 62
7
  6
CONTINUOUS
 10
78.8219513523
 20
148.7932321479
 11
78.9209097045
 21
148.8105543805
  0
LINE
  8
0
 62
7
  6
CONTINUOUS
 10
78.8219513523
 20
148.8017395794
 11
78.9209097045
 21
148.8190659366
  0
POLYLINE
  8
0
 62
7
  6
CONTINUOUS
 66
1
 70
0
  0
VERTEX
  8
0
 62
7
  6
CONTINUOUS
 10
85.7485972165
 20
148.6743752979
  0
VERTEX
  8
0
 62
7
  6
CONTINUOUS
 10
85.8056708494
 20
148.6799854176
  0
VERTEX
  8
0
 62
7
  6
CONTINUOUS
 10
85.8598175086
 20
148.6964896343
  0
VERTEX
  8
0
 62
7
  6
CONTINUOUS
 10
85.9083680539
 20
148.7229935873
  0
VERTEX
  8
0
 62
7
  6
CONTINUOUS
 10
85.948908778
 20
148.7580971747
  0
VERTEX
  8
0
 62
7
  6
CONTINUOUS
 10
85.9793982685
 20
148.7999587987
  0
VERTEX
  8
0
 62
7
  6
CONTINUOUS
 10
85.998235853
 20
148.8462122517
  0
SEQEND
  0
POLYLINE
  8
0
 62
7
  6
CONTINUOUS
 66
1
 70
0
  0
VERTEX
  8
0
 62
7
  6
CONTINUOUS
 10
87.2325972165
 20
148.8757882447
  0
VERTEX
  8
0
 62
7
  6
CONTINUOUS
 10
87.1755770417
 20
148.8703172644
  0
VERTEX
  8
0
 62
7
  6
CONTINUOUS
 10
87.1215116656
 20
148.8541948591
  0
VERTEX
  8
0
 62
7
  6
CONTINUOUS
 10
87.0730152532
 20
148.8281737942
  0
VERTEX
  8
0
 62
7
  6
CONTINUOUS
 10
87.0324786653
 20
148.7934396803
  0
VERTEX
  8
0
 62
7
  6
CONTINUOUS
 10
87.0019290934
 20
148.7515752783
  0
VERTEX
  8
0
 62
7
  6
CONTINUOUS
 10
86.9830032605
 20
148.704729093
  0
VERTEX
  8
0
 62
7
  6
CONTINUOUS
 10
86.9765972165
 20
148.6551925185
  0
SEQEND
  0
POLYLINE
  8
0
 62
7
  6
CONTINUOUS
 66
1
 70
0
  0
VERTEX
  8
0
 62
7
  6
CONTINUOUS
 10
85.7485972165
 20
148.6658933411
  0
VERTEX
  8
0
 62
7
  6
CONTINUOUS
 10
85.7986909588
 20
148.6702020351
  0
VERTEX
  8
0
 62
7
  6
CONTINUOUS
 10
85.8468398553
 20
148.682946045
  0
VERTEX
  8
0
 62
7
  6
CONTINUOUS
 10
85.8911667188
 20
148.7035825018
  0
VERTEX
  8
0
 62
7
  6
CONTINUOUS
 10
85.9299503318
 20
148.7312320897
  0
VERTEX
  8
0
 62
7
  6
CONTINUOUS
 10
85.9617064625
 20
148.7647311339
  0
VERTEX
  8
0
 62
7
  6
CONTINUOUS
 10
85.9852493836
 20
148.802706556
  0
VERTEX
  8
0
 62
7
  6
CONTINUOUS
 10
85.9997174185
 20
148.8436381938
  0
VERTEX
  8
0
 62
7
  6
CONTINUOUS
 10
86.0045972165
 20
148.8859450353
  0
SEQEND
  0
LINE
  8
0
 62
7
  6
CONTINUOUS
 10
76.6052847045
 20
148.3570023885
 11
76.7834097045
 21
148.3570023885
  0
LINE
  8
0
 62
7
  6
CONTINUOUS
 10
77.3771597045
 20
148.3570023885
 11
77.5552847045
 21
148.3570023885
  0
LINE
  8
0
 62
7
  6
CONTINUOUS
 10
78.0302847045
 20
148.3570023885
 11
78.1886180001
 21
148.3570023885
  0
LINE
  8
0
 62
7
  6
CONTINUOUS
 10
78.9209097045
 20
148.3570023885
 11
79.3959097045
 21
148.3570023885
  0
LINE
  8
0
 62
7
  6
CONTINUOUS
 10
84.4425972165
 20
148.3570023885
 11
84.8775972165
 21
148.3570023885
  0
LINE
  8
0
 62
7
  6
CONTINUOUS
 10
85.4925972165
 20
148.3570023885
 11
85.6212109882
 21
148.3570023885
  0
LINE
  8
0
 62
7
  6
CONTINUOUS
 10
86.0045972165
 20
148.3570023885
 11
86.4395972165
 21
148.3570023885
  0
LINE
  8
0
 62
7
  6
CONTINUOUS
 10
86.5415972165
 20
148.3570023885
 11
86.9765972165
 21
148.3570023885
  0
LINE
  8
0
 62
7
  6
CONTINUOUS
 10
87.5655972165
 20
148.3570023885
 11
88.0005972165
 21
148.3570023885
  0
LINE
  8
0
 62
7
  6
CONTINUOUS
 10
78.9011180567
 20
148.4392641389
 11
79.2771597045
 21
148.4392641389
  0
LINE
  8
0
 62
7
  6
CONTINUOUS
 10
78.9011180567
 20
148.4477205425
 11
79.2771597045
 21
148.4477205425
  0
LINE
  8
0
 62
7
  6
CONTINUOUS
 10
78.0302847045
 20
148.4573007678
 11
78.1886180001
 21
148.4573007678
  0
LINE
  8
0
 62
7
  6
CONTINUOUS
 10
78.0302847045
 20
148.4657583255
 11
78.1886180001
 21
148.4657583255
  0
LINE
  8
0
 62
7
  6
CONTINUOUS
 10
85.5435972165
 20
148.6658933411
 11
85.7485972165
 21
148.6658933411
  0
LINE
  8
0
 62
7
  6
CONTINUOUS
 10
85.5435972165
 20
148.6743752979
 11
85.7485972165
 21
148.6743752979
  0
LINE
  8
0
 62
7
  6
CONTINUOUS
 10
78.9011180567
 20
148.7145696998
 11
79.2771597045
 21
148.7145696998
  0
LINE
  8
0
 62
7
  6
CONTINUOUS
 10
78.9209097045
 20
148.8105543805
 11
79.2771597045
 21
148.8105543805
  0
LINE
  8
0
 62
7
  6
CONTINUOUS
 10
78.9209097045
 20
148.8190659366
 11
79.2771597045
 21
148.8190659366
  0
LINE
  8
0
 62
7
  6
CONTINUOUS
 10
87.2325972165
 20
148.8757882447
 11
87.4375972165
 21
148.8757882447
  0
LINE
  8
0
 62
7
  6
CONTINUOUS
 10
78.0302847045
 20
149.0746085373
 11
78.1886180001
 21
149.0746085373
  0
LINE
  8
0
 62
7
  6
CONTINUOUS
 10
76.6052847045
 20
149.16587246
 11
76.7240347045
 21
149.16587246
  0
LINE
  8
0
 62
7
  6
CONTINUOUS
 10
77.0011181134
 20
149.16587246
 11
77.1594512957
 21
149.16587246
  0
LINE
  8
0
 62
7
  6
CONTINUOUS
 10
77.4365347045
 20
149.16587246
 11
77.5552847045
 21
149.16587246
  0
LINE
  8
0
 62
7
  6
CONTINUOUS
 10
78.0302847045
 20
149.16587246
 11
78.1886180001
 21
149.16587246
  0
LINE
  8
0
 62
7
  6
CONTINUOUS
 10
79.2771597045
 20
149.16587246
 11
79.3959097045
 21
149.16587246
  0
LINE
  8
0
 62
7
  6
CONTINUOUS
 10
84.4425972165
 20
149.16587246
 11
84.8775972165
 21
149.16587246
  0
LINE
  8
0
 62
7
  6
CONTINUOUS
 10
84.9805972165
 20
149.16587246
 11
85.4155972165
 21
149.16587246
  0
LINE
  8
0
 62
7
  6
CONTINUOUS
 10
86.0045972165
 20
149.16587246
 11
86.4395972165
 21
149.16587246
  0
LINE
  8
0
 62
7
  6
CONTINUOUS
 10
86.5415972165
 20
149.16587246
 11
86.9765972165
 21
149.16587246
  0
LINE
  8
0
 62
7
  6
CONTINUOUS
 10
87.3605972165
 20
149.16587246
 11
87.4885972165
 21
149.16587246
  0
LINE
  8
0
 62
7
  6
CONTINUOUS
 10
76.6052847045
 20
149.1745074124
 11
76.7240347045
 21
149.1745074124
  0
LINE
  8
0
 62
7
  6
CONTINUOUS
 10
77.0011181134
 20
149.1745074124
 11
77.1594512957
 21
149.1745074124
  0
LINE
  8
0
 62
7
  6
CONTINUOUS
 10
77.4365347045
 20
149.1745074124
 11
77.5552847045
 21
149.1745074124
  0
LINE
  8
0
 62
7
  6
CONTINUOUS
 10
78.0302847045
 20
149.1745074124
 11
78.1886180001
 21
149.1745074124
  0
LINE
  8
0
 62
7
  6
CONTINUOUS
 10
79.2771597045
 20
149.1745074124
 11
79.3959097045
 21
149.1745074124
  0
LINE
  8
0
 62
7
  6
CONTINUOUS
 10
84.4425972165
 20
149.1745074124
 11
84.8775972165
 21
149.1745074124
  0
LINE
  8
0
 62
7
  6
CONTINUOUS
 10
84.9805972165
 20
149.1745074124
 11
85.4155972165
 21
149.1745074124
  0
LINE
  8
0
 62
7
  6
CONTINUOUS
 10
86.0045972165
 20
149.1745074124
 11
86.4395972165
 21
149.1745074124
  0
LINE
  8
0
 62
7
  6
CONTINUOUS
 10
86.5415972165
 20
149.1745074124
 11
86.9765972165
 21
149.1745074124
  0
LINE
  8
0
 62
7
  6
CONTINUOUS
 10
87.3605972165
 20
149.1745074124
 11
87.4885972165
 21
149.1745074124
  0
POLYLINE
  8
0
 62
7
  6
CONTINUOUS
 66
1
 70
0
  0
VERTEX
  8
0
 62
7
  6
CONTINUOUS
 10
85.4925972165
 20
148.3570023885
  0
VERTEX
  8
0
 62
7
  6
CONTINUOUS
 10
85.3935662669
 20
148.365719342
  0
VERTEX
  8
0
 62
7
  6
CONTINUOUS
 10
85.2977823444
 20
148.3916757193
  0
VERTEX
  8
0
 62
7
  6
CONTINUOUS
 10
85.2103677037
 20
148.4331909321
  0
VERTEX
  8
0
 62
7
  6
CONTINUOUS
 10
85.1333708582
 20
148.4888145215
  0
VERTEX
  8
0
 62
7
  6
CONTINUOUS
 10
85.0692530477
 20
148.5569132313
  0
VERTEX
  8
0
 62
7
  6
CONTINUOUS
 10
85.0202152757
 20
148.6364203767
  0
VERTEX
  8
0
 62
7
  6
CONTINUOUS
 10
84.9906305488
 20
148.7205331713
  0
VERTEX
  8
0
 62
7
  6
CONTINUOUS
 10
84.9805972165
 20
148.8074703788
  0
SEQEND
  0
LINE
  8
0
 62
7
  6
CONTINUOUS
 10
78.1886180001
 20
149.16587246
 11
78.2875764089
 21
149.1493235542
  0
LINE
  8
0
 62
7
  6
CONTINUOUS
 10
78.1886180001
 20
149.1745074124
 11
78.2875764089
 21
149.1579509714
  0
LINE
  8
0
 62
7
  6
CONTINUOUS
 10
77.9313264089
 20
148.3752165517
 11
78.0302847045
 21
148.3570023885
  0
LINE
  8
0
 62
7
  6
CONTINUOUS
 10
78.9209097045
 20
148.3570023885
 11
78.8219513523
 21
148.3752165517
  0
LINE
  8
0
 62
7
  6
CONTINUOUS
 10
78.1886180001
 20
149.0746085373
 11
78.2677847045
 21
149.0578286424
  0
LINE
  8
0
 62
7
  6
CONTINUOUS
 10
78.0302847045
 20
149.0746085373
 11
77.9511180001
 21
149.0578286424
  0
LINE
  8
0
 62
7
  6
CONTINUOUS
 10
78.0302847045
 20
149.1745074124
 11
77.9313264089
 21
149.1579509714
  0
LINE
  8
0
 62
7
  6
CONTINUOUS
 10
77.9313264089
 20
149.1493235542
 11
78.0302847045
 21
149.16587246
  0
LINE
  8
0
 62
9
  6
CONTINUOUS
 10
58.0005972165
 20
150.0405914414
 11
106.0005972165
 21
150.0405914414
  0
LINE
  8
0
 62
7
  6
CONTINUOUS
 10
58.0005972165
 20
150.265060241
 11
106.0005972165
 21
150.265060241
  0
POLYLINE
  8
0
 62
7
  6
CONTINUOUS
 66
1
 70
0
  0
VERTEX
  8
0
 62
7
  6
CONTINUOUS
 10
87.4885972165
 20
149.1745074124
  0
VERTEX
  8
0
 62
7
  6
CONTINUOUS
 10
87.5883037869
 20
149.1664830116
  0
VERTEX
  8
0
 62
7
  6
CONTINUOUS
 10
87.684277646
 20
149.1426364359
  0
VERTEX
  8
0
 62
7
  6
CONTINUOUS
 10
87.772573127
 20
149.1038300364
  0
VERTEX
  8
0
 62
7
  6
CONTINUOUS
 10
87.8500851358
 20
149.0512419649
  0
VERTEX
  8
0
 62
7
  6
CONTINUOUS
 10
87.9138698977
 20
148.9865245784
  0
VERTEX
  8
0
 62
7
  6
CONTINUOUS
 10
87.9614482784
 20
148.911730341
  0
VERTEX
  8
0
 62
7
  6
CONTINUOUS
 10
87.9906973293
 20
148.8299042622
  0
VERTEX
  8
0
 62
7
  6
CONTINUOUS
 10
88.0005972165
 20
148.7437748002
  0
SEQEND
  0
POLYLINE
  8
0
 62
7
  6
CONTINUOUS
 66
1
 70
0
  0
VERTEX
  8
0
 62
7
  6
CONTINUOUS
 10
87.4885972165
 20
149.16587246
  0
VERTEX
  8
0
 62
7
  6
CONTINUOUS
 10
87.6011622822
 20
149.1556204625
  0
VERTEX
  8
0
 62
7
  6
CONTINUOUS
 10
87.7095069209
 20
149.1247771081
  0
VERTEX
  8
0
 62
7
  6
CONTINUOUS
 10
87.8063379525
 20
149.0749259267
  0
VERTEX
  8
0
 62
7
  6
CONTINUOUS
 10
87.8882159597
 20
149.0072287894
  0
VERTEX
  8
0
 62
7
  6
CONTINUOUS
 10
87.949374825
 20
148.9259014007
  0
VERTEX
  8
0
 62
7
  6
CONTINUOUS
 10
87.9876865065
 20
148.8333992279
  0
VERTEX
  8
0
 62
7
  6
CONTINUOUS
 10
87.9994984788
 20
148.7436302263
  0
SEQEND
  0
POLYLINE
  8
0
 62
9
  6
CONTINUOUS
 66
1
 70
0
  0
VERTEX
  8
0
 62
9
  6
CONTINUOUS
 10
57.0005972165
 20
146.3435910678
  0
VERTEX
  8
0
 62
9
  6
CONTINUOUS
 10
57.0198119357
 20
146.348697937
  0
VERTEX
  8
0
 62
9
  6
CONTINUOUS
 10
57.0767176827
 20
146.3536085522
  0
VERTEX
  8
0
 62
9
  6
CONTINUOUS
 10
57.1691276025
 20
146.358134201
  0
VERTEX
  8
0
 62
9
  6
CONTINUOUS
 10
57.293490435
 20
146.3621009655
  0
VERTEX
  8
0
 62
9
  6
CONTINUOUS
 10
57.4450269855
 20
146.3653564049
  0
VERTEX
  8
0
 62
9
  6
CONTINUOUS
 10
57.6179137867
 20
146.3677754146
  0
VERTEX
  8
0
 62
9
  6
CONTINUOUS
 10
57.805506896
 20
146.3692650334
  0
SEQEND
  0
POLYLINE
  8
0
 62
9
  6
CONTINUOUS
 66
1
 70
0
  0
VERTEX
  8
0
 62
9
  6
CONTINUOUS
 10
107.0005972165
 20
146.3435910678
  0
VERTEX
  8
0
 62
9
  6
CONTINUOUS
 10
106.9813824969
 20
146.3486979371
  0
VERTEX
  8
0
 62
9
  6
CONTINUOUS
 10
106.924476749
 20
146.3536085522
  0
VERTEX
  8
0
 62
9
  6
CONTINUOUS
 10
106.8320668288
 20
146.3581342011
  0
VERTEX
  8
0
 62
9
  6
CONTINUOUS
 10
106.7077039976
 20
146.3621009655
  0
VERTEX
  8
0
 62
9
  6
CONTINUOUS
 10
106.5561674495
 20
146.3653564049
  0
VERTEX
  8
0
 62
9
  6
CONTINUOUS
 10
106.3832806488
 20
146.3677754146
  0
VERTEX
  8
0
 62
9
  6
CONTINUOUS
 10
106.1956875385
 20
146.3692650334
  0
VERTEX
  8
0
 62
9
  6
CONTINUOUS
 10
106.0005972165
 20
146.3697680161
  0
SEQEND
  0
POLYLINE
  8
0
 62
9
  6
CONTINUOUS
 66
1
 70
0
  0
VERTEX
  8
0
 62
9
  6
CONTINUOUS
 10
106.9530398117
 20
127.4016760176
  0
VERTEX
  8
0
 62
9
  6
CONTINUOUS
 10
106.9059864647
 20
127.5207699524
  0
VERTEX
  8
0
 62
9
  6
CONTINUOUS
 10
106.8512709505
 20
127.621231497
  0
VERTEX
  8
0
 62
9
  6
CONTINUOUS
 10
106.7926852439
 20
127.7053998129
  0
VERTEX
  8
0
 62
9
  6
CONTINUOUS
 10
106.7327370558
 20
127.775692515
  0
VERTEX
  8
0
 62
9
  6
CONTINUOUS
 10
106.6729460538
 20
127.8343928344
  0
VERTEX
  8
0
 62
9
  6
CONTINUOUS
 10
106.6146716139
 20
127.8830914624
  0
VERTEX
  8
0
 62
9
  6
CONTINUOUS
 10
106.5593409637
 20
127.9229259541
  0
VERTEX
  8
0
 62
9
  6
CONTINUOUS
 10
106.5078062692
 20
127.9551998496
  0
VERTEX
  8
0
 62
9
  6
CONTINUOUS
 10
106.4591826155
 20
127.9818546885
  0
VERTEX
  8
0
 62
9
  6
CONTINUOUS
 10
106.4117770617
 20
128.0046113574
  0
VERTEX
  8
0
 62
9
  6
CONTINUOUS
 10
106.3636416541
 20
128.0246989809
  0
VERTEX
  8
0
 62
9
  6
CONTINUOUS
 10
106.3139376714
 20
128.0424531479
  0
VERTEX
  8
0
 62
9
  6
CONTINUOUS
 10
106.2634516211
 20
128.0575501267
  0
VERTEX
  8
0
 62
9
  6
CONTINUOUS
 10
106.212268714
 20
128.0699751007
  0
VERTEX
  8
0
 62
9
  6
CONTINUOUS
 10
106.1598915199
 20
128.0798017946
  0
VERTEX
  8
0
 62
9
  6
CONTINUOUS
 10
106.1070176101
 20
128.0868463037
  0
VERTEX
  8
0
 62
9
  6
CONTINUOUS
 10
106.0544934341
 20
128.0910444596
  0
VERTEX
  8
0
 62
9
  6
CONTINUOUS
 10
106.0005972165
 20
128.0924885741
  0
SEQEND
  0
POLYLINE
  8
0
 62
9
  6
CONTINUOUS
 66
1
 70
0
  0
VERTEX
  8
0
 62
9
  6
CONTINUOUS
 10
107.0005972165
 20
127.4403898943
  0
VERTEX
  8
0
 62
9
  6
CONTINUOUS
 10
106.9813824969
 20
127.6342261476
  0
VERTEX
  8
0
 62
9
  6
CONTINUOUS
 10
106.924476749
 20
127.8206133823
  0
VERTEX
  8
0
 62
9
  6
CONTINUOUS
 10
106.8320668288
 20
127.9923888417
  0
VERTEX
  8
0
 62
9
  6
CONTINUOUS
 10
106.7077039976
 20
128.142951291
  0
VERTEX
  8
0
 62
9
  6
CONTINUOUS
 10
106.5561674495
 20
128.2665146999
  0
VERTEX
  8
0
 62
9
  6
CONTINUOUS
 10
106.3832806488
 20
128.3583305958
  0
VERTEX
  8
0
 62
9
  6
CONTINUOUS
 10
106.1956875385
 20
128.4148705454
  0
VERTEX
  8
0
 62
9
  6
CONTINUOUS
 10
106.0005972165
 20
128.43396175
  0
SEQEND
  0
POLYLINE
  8
0
 62
9
  6
CONTINUOUS
 66
1
 70
0
  0
VERTEX
  8
0
 62
9
  6
CONTINUOUS
 10
107.0005972165
 20
127.0989167183
  0
VERTEX
  8
0
 62
9
  6
CONTINUOUS
 10
106.9871040533
 20
127.2615843708
  0
VERTEX
  8
0
 62
9
  6
CONTINUOUS
 10
106.9530398117
 20
127.4016760176
  0
SEQEND
  0
LINE
  8
0
 62
9
  6
CONTINUOUS
 10
106.0005972165
 20
150.265060241
 11
106.0005972165
 21
125.265060241
  0
LINE
  8
0
 62
7
  6
CONTINUOUS
 10
107.0005972165
 20
149.265060241
 11
107.0005972165
 21
126.265060241
  0
POLYLINE
  8
0
 62
9
  6
CONTINUOUS
 66
1
 70
0
  0
VERTEX
  8
0
 62
9
  6
CONTINUOUS
 10
107.0005972165
 20
127.0989167183
  0
VERTEX
  8
0
 62
9
  6
CONTINUOUS
 10
106.9871039921
 20
126.9362486995
  0
VERTEX
  8
0
 62
9
  6
CONTINUOUS
 10
106.9530396039
 20
126.7961567738
  0
VERTEX
  8
0
 62
9
  6
CONTINUOUS
 10
106.9059860785
 20
126.6770626661
  0
VERTEX
  8
0
 62
9
  6
CONTINUOUS
 10
106.851270389
 20
126.5766010369
  0
VERTEX
  8
0
 62
9
  6
CONTINUOUS
 10
106.7926845271
 20
126.4924326996
  0
VERTEX
  8
0
 62
9
  6
CONTINUOUS
 10
106.7327362256
 20
126.4221400351
  0
VERTEX
  8
0
 62
9
  6
CONTINUOUS
 10
106.6729451694
 20
126.3634398041
  0
VERTEX
  8
0
 62
9
  6
CONTINUOUS
 10
106.614670699
 20
126.3147412671
  0
VERTEX
  8
0
 62
9
  6
CONTINUOUS
 10
106.5593399924
 20
126.2749068324
  0
VERTEX
  8
0
 62
9
  6
CONTINUOUS
 10
106.5078052144
 20
126.2426329703
  0
VERTEX
  8
0
 62
9
  6
CONTINUOUS
 10
106.4591815339
 20
126.2159781936
  0
VERTEX
  8
0
 62
9
  6
CONTINUOUS
 10
106.4117760794
 20
126.193221639
  0
VERTEX
  8
0
 62
9
  6
CONTINUOUS
 10
106.3636409572
 20
126.173134186
  0
VERTEX
  8
0
 62
9
  6
CONTINUOUS
 10
106.313937308
 20
126.1553801696
  0
VERTEX
  8
0
 62
9
  6
CONTINUOUS
 10
106.2634512832
 20
126.1402832185
  0
VERTEX
  8
0
 62
9
  6
CONTINUOUS
 10
106.212268196
 20
126.1278582246
  0
VERTEX
  8
0
 62
9
  6
CONTINUOUS
 10
106.1598910552
 20
126.1180315675
  0
VERTEX
  8
0
 62
9
  6
CONTINUOUS
 10
106.1070174144
 20
126.1109871122
  0
VERTEX
  8
0
 62
9
  6
CONTINUOUS
 10
106.0544934299
 20
126.1067889768
  0
VERTEX
  8
0
 62
9
  6
CONTINUOUS
 10
106.0005972165
 20
126.1053448627
  0
SEQEND
  0
POLYLINE
  8
0
 62
9
  6
CONTINUOUS
 66
1
 70
0
  0
VERTEX
  8
0
 62
9
  6
CONTINUOUS
 10
107.0005972165
 20
126.265060241
  0
VERTEX
  8
0
 62
9
  6
CONTINUOUS
 10
106.9813825019
 20
126.071224013
  0
VERTEX
  8
0
 62
9
  6
CONTINUOUS
 10
106.9244767687
 20
125.8848368004
  0
VERTEX
  8
0
 62
9
  6
CONTINUOUS
 10
106.8320667878
 20
125.7130612328
  0
VERTEX
  8
0
 62
9
  6
CONTINUOUS
 10
106.707703856
 20
125.5624987035
  0
VERTEX
  8
0
 62
9
  6
CONTINUOUS
 10
106.556167163
 20
125.4389352452
  0
VERTEX
  8
0
 62
9
  6
CONTINUOUS
 10
106.3832802197
 20
125.3471193628
  0
VERTEX
  8
0
 62
9
  6
CONTINUOUS
 10
106.1956869643
 20
125.2905794764
  0
VERTEX
  8
0
 62
9
  6
CONTINUOUS
 10
106.0005972165
 20
125.2714883853
  0
SEQEND
  0
POLYLINE
  8
0
 62
9
  6
CONTINUOUS
 66
1
 70
0
  0
VERTEX
  8
0
 62
9
  6
CONTINUOUS
 10
107.0005972165
 20
149.265060241
  0
VERTEX
  8
0
 62
9
  6
CONTINUOUS
 10
106.9813820419
 20
149.4163606465
  0
VERTEX
  8
0
 62
9
  6
CONTINUOUS
 10
106.9244749641
 20
149.5618465245
  0
VERTEX
  8
0
 62
9
  6
CONTINUOUS
 10
106.8320609937
 20
149.6959290631
  0
VERTEX
  8
0
 62
9
  6
CONTINUOUS
 10
106.7076926738
 20
149.8134523937
  0
VERTEX
  8
0
 62
9
  6
CONTINUOUS
 10
106.5561489894
 20
149.9099004332
  0
VERTEX
  8
0
 62
9
  6
CONTINUOUS
 10
106.3832555141
 20
149.9815657177
  0
VERTEX
  8
0
 62
9
  6
CONTINUOUS
 10
106.1956559529
 20
150.0256946989
  0
VERTEX
  8
0
 62
9
  6
CONTINUOUS
 10
106.0005972165
 20
150.0405914414
  0
SEQEND
  0
ARC
  8
SURFACE
 62
7
  6
CONTINUOUS
 10
65.0946125103
 20
192.049113539
 40
0.5
 50
270.0
 51
340.0
  0
ARC
  8
SURFACE
 62
7
  6
CONTINUOUS
 10
72.9065819226
 20
192.049113539
 40
0.5
 50
200.0
 51
270.0
  0
ARC
  8
SURFACE
 62
7
  6
CONTINUOUS
 10
74.5005972165
 20
192.049113539
 40
0.5
 50
270.0
 51
0.0055175337
  0
ARC
  8
SURFACE
 62
7
  6
CONTINUOUS
 10
63.5005972165
 20
192.049113539
 40
0.5
 50
179.9944824663
 51
270.0
  0
ARC
  8
0
 62
7
  6
CONTINUOUS
 10
58.0005972165
 20
215.9462806881
 40
1.0
 50
90.0
 51
180.0
  0
ARC
  8
0
 62
7
  6
CONTINUOUS
 10
91.0946125103
 20
192.049113539
 40
0.5
 50
270.0
 51
340.0
  0
ARC
  8
0
 62
7
  6
CONTINUOUS
 10
98.9065819226
 20
192.049113539
 40
0.5
 50
200.0
 51
270.0
  0
ARC
  8
0
 62
7
  6
CONTINUOUS
 10
89.5005972165
 20
192.049113539
 40
0.5
 50
179.9896507362
 51
270.0
  0
ARC
  8
0
 62
7
  6
CONTINUOUS
 10
100.5005972165
 20
192.049113539
 40
0.5
 50
270.0
 51
0.0103492638
  0
ARC
  8
0
 62
7
  6
CONTINUOUS
 10
106.0005972165
 20
215.9462806881
 40
1.0
 50
0.0
 51
90.0
  0
ARC
  8
0
 62
7
  6
CONTINUOUS
 10
149.6506790778
 20
205.5429714131
 40
4.8986489565
 50
91.5
 51
140.8532178872
  0
ARC
  8
0
 62
7
  6
CONTINUOUS
 10
146.6271551724
 20
208.0042245249
 40
1.0
 50
140.8532178872
 51
180.0
  0
ARC
  8
0
 62
7
  6
CONTINUOUS
 10
146.6271551724
 20
207.3630974524
 40
1.0
 50
180.0
 51
271.5
  0
ARC
  8
SURFACE
 62
7
  6
CONTINUOUS
 10
165.6231398786
 20
192.049113539
 40
0.5
 50
199.9726077199
 51
270.0
  0
ARC
  8
SURFACE
 62
7
  6
CONTINUOUS
 10
167.6311704662
 20
192.049113539
 40
0.5
 50
270.0
 51
340.0155001948
  0
ARC
  8
0
 62
7
  6
CONTINUOUS
 10
165.6231398786
 20
192.049113539
 40
0.5
 50
241.574616629
 51
270.0
  0
ARC
  8
0
 62
7
  6
CONTINUOUS
 10
165.6231398786
 20
192.049113539
 40
0.5
 50
199.9832548444
 51
213.868309717
  0
ARC
  8
0
 62
7
  6
CONTINUOUS
 10
167.6311704662
 20
192.049113539
 40
0.5
 50
326.3451249154
 51
340.0167451556
  0
ARC
  8
0
 62
7
  6
CONTINUOUS
 10
167.6311704662
 20
192.049113539
 40
0.5
 50
270.0
 51
298.3842129779
  0
ARC
  8
0
 62
7
  6
CONTINUOUS
 10
163.0271600944
 20
205.9919296686
 40
0.7999964204
 50
359.9999907691
 51
91.5002687193
  0
ARC
  8
0
 62
7
  6
CONTINUOUS
 10
164.9743240242
 20
213.3454203357
 40
2.5
 50
271.5
 51
353.5
  0
ARC
  8
0
 62
7
  6
CONTINUOUS
 10
169.6271551724
 20
208.6276163144
 40
1.0
 50
0.0
 51
6.5
  0
ARC
  8
0
 62
7
  6
CONTINUOUS
 10
169.6271551724
 20
207.9653736485
 40
1.0
 50
271.5
 51
360.0
  0
ARC
  8
0
 62
7
  6
CONTINUOUS
 10
170.2271518082
 20
206.2683118463
 40
0.7999975533
 50
109.4708615202
 51
179.999871761
  0
ARC
  8
0
 62
7
  6
CONTINUOUS
 10
168.793298695
 20
215.9462806881
 40
1.0
 50
6.5
 51
173.5
  0
ARC
  8
0
 62
7
  6
CONTINUOUS
 10
106.0005972165
 20
149.265060241
 40
1.0
 50
0.0
 51
90.0
  0
ARC
  8
0
 62
7
  6
CONTINUOUS
 10
106.0005972165
 20
126.265060241
 40
1.0
 50
270.0
 51
360.0
  0
ARC
  8
0
 62
7
  6
CONTINUOUS
 10
58.0005972165
 20
126.265060241
 40
1.0
 50
180.0
 51
270.0
  0
ARC
  8
0
 62
7
  6
CONTINUOUS
 10
58.0005972165
 20
149.265060241
 40
1.0
 50
90.0
 51
180.0
  0
ENDSEC
  0
EOF
