  0
SECTION
  2
HEADER
  9
$EXTMAX
 10
420.0
 20
297.0
 30
0.0
  9
$EXTMIN
 10
0.0
 20
0.0
 30
0.0
  9
$LIMMIN
 10
0.0
 20
0.0
  9
$LIMMAX
 10
420.0
 20
297.0
  9
$VIEWCTR
 10
210.0
 20
148.5
  9
$VIEWSIZE
 40
297.0
  9
$CLAYER
  8
0
  9
$LTSCALE
 40
23.1
  9
$CELTYPE
  6
BYLAYER
  9
$DIMSCALE
 40
1.0
  9
$DIMASZ
 40
3.5
  9
$DIMEXO
 40
2.625
  9
$DIMDLI
 40
15.96
  9
$DIMEXE
 40
7.56
  9
$DIMCEN
 40
3.78
  9
$DIMLFAC
 40
1.0
  9
$DIMBLK
  1
_FILLED
  9
$DIMTXT
 40
3.5
  9
$PDMODE
 70
3
  9
$PDSIZE
 40
0.3125
  9
$TILEMODE
 70
1
  0
ENDSEC
  0
SECTION
  2
TABLES
  0
TABLE
  2
LTYPE
 70
6
  0
LTYPE
  2
BYBLOCK
 70
0
  3

 72
65
 73
0
 40
0.0
  0
LTYPE
  2
BYLAYER
 70
0
  3

 72
65
 73
0
 40
0.0
  0
LTYPE
  2
CONTINUOUS
 70
64
  3
Solid line
 72
65
 73
0
 40
0.0
  0
LTYPE
  2
CENTER
 70
64
  3
____ _ ____ _ ____ _ ____ _ ____ _ ____ _ ____
 72
65
 73
4
 40
0.6
 49
0.375
 49
-0.075
 49
0.075
 49
-0.075
  0
LTYPE
  2
HIDDEN
 70
64
  3
- - - - - - - - - - - - - - - - - - - -
 72
65
 73
2
 40
0.2
 49
0.1
 49
-0.1
  0
LTYPE
  2
PHANTOM
 70
64
  3
_____ _ _ _____ _ _ _____ _ _ _____
 72
65
 73
6
 40
0.8
 49
0.45
 49
-0.05
 49
0.1
 49
-0.05
 49
0.1
 49
-0.05
  0
LTYPE
  2
DOT
 70
64
  3
. . . . . . . . . . . . . . . . . . . .
 72
65
 73
2
 40
0.2
 49
0.1
 49
-0.1
  0
LTYPE
  2
DASHED
 70
64
  3
- - - - - - - - - - - - - - - - - - - -
 72
65
 73
2
 40
0.2
 49
0.1
 49
-0.1
  0
ENDTAB
  0
TABLE
  2
LAYER
 70
36
  0
LAYER
  2
0
 70
0
 62
7
  6
CONTINUOUS
  0
LAYER
  2
DEFAULT_1
 70
0
 62
7
  6
CENTER
  0
LAYER
  2
DEFAULT_2
 70
0
 62
8
  6
HIDDEN
  0
LAYER
  2
DEFAULT_3
 70
0
 62
7
  6
PHANTOM
  0
LAYER
  2
CSYS
 70
0
 62
7
  6
CONTINUOUS
  0
LAYER
  2
CURVE
 70
0
 62
7
  6
CONTINUOUS
  0
LAYER
  2
PITCHLINE
 70
0
 62
7
  6
CONTINUOUS
  0
LAYER
  2
SQ
 70
0
 62
7
  6
CONTINUOUS
  0
LAYER
  2
SURFACE
 70
0
 62
7
  6
CONTINUOUS
  0
ENDTAB
  0
TABLE
  2
STYLE
 70
1
  0
STYLE
  2
STANDARD
 70
0
 40
0.0
 41
0.8
 50
0.0
 71
0
 42
0.2
  3
txt
  4

  0
STYLE
  2
TEXTSTYLE_1
 70
0
 40
0.0
 41
0.8
 50
0.0
 71
0
 42
0.2
  3
gdt
  4

  0
STYLE
  2
TEXTSTYLE_2
 70
0
 40
0.0
 41
0.6
 50
0.0
 71
0
 42
0.2
  3
txt
  4

  0
STYLE
  2
TEXTSTYLE_3
 70
0
 40
0.0
 41
1.0
 50
0.0
 71
0
 42
0.2
  3
ftb_____.ttf
  4

  0
STYLE
  2
TEXTSTYLE_4
 70
0
 40
0.0
 41
1.0
 50
0.0
 71
0
 42
0.2
  3
fti_____.ttf
  4

  0
STYLE
  2
TEXTSTYLE_5
 70
0
 40
0.0
 41
1.0
 50
0.0
 71
0
 42
0.2
  3
frutiger light.ttf
  4

  0
STYLE
  2
TEXTSTYLE_6
 70
0
 40
0.0
 41
0.7
 50
0.0
 71
0
 42
0.2
  3
txt
  4

  0
STYLE
  2
TEXTSTYLE_7
 70
0
 40
0.0
 41
0.8
 50
0.0
 71
0
 42
0.2
  3
txt
  4

  0
ENDTAB
  0
ENDSEC
  0
SECTION
  2
BLOCKS
  0
BLOCK
  8
0
 62
2
  6
CONTINUOUS
  2
SYMBOL_5_BL1
 70
64
 10
382.7840918555
 20
35.5067593403
  0
TEXT
  8
0
 62
7
  6
CONTINUOUS
 10
373.842376864
 20
30.5995157174
  7
TEXTSTYLE_4
 40
1.0655737705
  1
The brand for plastic modular belts and chains
 41
1.0
 72
0
  0
LINE
  8
0
 62
7
  6
CONTINUOUS
 10
358.7621602445
 20
36.0805298321
 11
358.7621602445
 21
33.9493822911
  0
LINE
  8
0
 62
7
  6
CONTINUOUS
 10
359.0512227376
 20
30.9584509954
 11
359.0512227376
 21
31.0552420547
  0
LINE
  8
0
 62
7
  6
CONTINUOUS
 10
358.7621602445
 20
31.0229783683
 11
358.8199727462
 21
30.8293962497
  0
LINE
  8
0
 62
7
  6
CONTINUOUS
 10
360.1556028675
 20
33.867415078
 11
360.1556028675
 21
36.0805298321
  0
LINE
  8
0
 62
7
  6
CONTINUOUS
 10
361.0746601894
 20
32.0231527829
 11
361.0746601894
 21
30.5067593403
  0
LINE
  8
0
 62
7
  6
CONTINUOUS
 10
361.3637227445
 20
30.5067593403
 11
361.3637227445
 21
31.2488242184
  0
LINE
  8
0
 62
7
  6
CONTINUOUS
 10
361.3637227445
 20
31.3778789641
 11
361.3637227445
 21
32.0231527829
  0
LINE
  8
0
 62
7
  6
CONTINUOUS
 10
358.8199727462
 20
31.216560532
 11
358.7621602445
 21
31.0229783683
  0
LINE
  8
0
 62
7
  6
CONTINUOUS
 10
359.1668477307
 20
30.7971325633
 11
359.0512227376
 21
30.9584509954
  0
LINE
  8
0
 62
7
  6
CONTINUOUS
 10
360.2652852997
 20
31.3133515913
 11
360.3230977445
 21
31.216560532
  0
LINE
  8
0
 62
7
  6
CONTINUOUS
 10
360.6121602997
 20
31.216560532
 11
360.5543476894
 21
31.3456152777
  0
LINE
  8
0
 62
7
  6
CONTINUOUS
 10
362.0408487691
 20
36.0805298321
 11
362.0408487691
 21
34.2772511436
  0
LINE
  8
0
 62
7
  6
CONTINUOUS
 10
362.0408487691
 20
32.9657757338
 11
362.0408487691
 21
32.3100380288
  0
LINE
  8
0
 62
7
  6
CONTINUOUS
 10
362.4043477445
 20
31.1520331591
 11
362.4043477445
 21
30.5067593403
  0
LINE
  8
0
 62
7
  6
CONTINUOUS
 10
362.6934101343
 20
30.5067593403
 11
362.6934101343
 21
31.1520331591
  0
LINE
  8
0
 62
7
  6
CONTINUOUS
 10
359.0512227376
 20
31.0552420547
 11
359.1090352445
 21
31.1842968456
  0
LINE
  8
0
 62
7
  6
CONTINUOUS
 10
358.8199727462
 20
30.8293962497
 11
358.9355977445
 21
30.7003414814
  0
LINE
  8
0
 62
7
  6
CONTINUOUS
 10
362.3465351343
 20
31.2810879048
 11
362.4043477445
 21
31.1520331591
  0
LINE
  8
0
 62
7
  6
CONTINUOUS
 10
363.1559103548
 20
30.7971325633
 11
363.2137226343
 21
30.668077795
  0
LINE
  8
0
 62
7
  6
CONTINUOUS
 10
362.6934101343
 20
31.1520331591
 11
362.6355978548
 21
31.3133515913
  0
LINE
  8
0
 62
7
  6
CONTINUOUS
 10
363.1559103548
 20
31.3456152777
 11
363.1559103548
 21
31.2810879048
  0
LINE
  8
0
 62
7
  6
CONTINUOUS
 10
363.1559103548
 20
30.8939236226
 11
363.1559103548
 21
30.7971325633
  0
LINE
  8
0
 62
7
  6
CONTINUOUS
 10
363.4342913921
 20
32.3100380288
 11
363.4342913921
 21
36.0805298321
  0
LINE
  8
0
 62
7
  6
CONTINUOUS
 10
363.4449727445
 20
30.7648688543
 11
363.4449727445
 21
30.8293962497
  0
LINE
  8
0
 62
7
  6
CONTINUOUS
 10
363.7621602445
 20
36.0805298321
 11
363.7621602445
 21
32.3100380288
  0
LINE
  8
0
 62
7
  6
CONTINUOUS
 10
360.5543476894
 20
30.7003414814
 11
360.6121602997
 21
30.8293962497
  0
LINE
  8
0
 62
7
  6
CONTINUOUS
 10
364.9480979651
 20
30.6035504109
 11
364.890285024
 21
30.7648688543
  0
LINE
  8
0
 62
7
  6
CONTINUOUS
 10
364.6012229651
 20
31.2810879048
 11
364.6012229651
 21
31.1842968456
  0
LINE
  8
0
 62
7
  6
CONTINUOUS
 10
364.6012229651
 20
31.0552420547
 11
364.6012229651
 21
30.8616599362
  0
LINE
  8
0
 62
7
  6
CONTINUOUS
 10
364.890285024
 20
30.7648688543
 11
364.890285024
 21
31.2810879048
  0
LINE
  8
0
 62
7
  6
CONTINUOUS
 10
365.1556028675
 20
32.3100380288
 11
365.1556028675
 21
34.1133167174
  0
LINE
  8
0
 62
7
  6
CONTINUOUS
 10
365.1556028675
 20
35.4247921272
 11
365.1556028675
 21
36.0805298321
  0
LINE
  8
0
 62
7
  6
CONTINUOUS
 10
365.4684104651
 20
32.0231527829
 11
365.4684104651
 21
31.8618343508
  0
LINE
  8
0
 62
7
  6
CONTINUOUS
 10
365.4684104651
 20
31.5391973962
 11
365.4684104651
 21
30.5067593403
  0
LINE
  8
0
 62
7
  6
CONTINUOUS
 10
365.757472524
 20
30.5067593403
 11
365.757472524
 21
31.5391973962
  0
LINE
  8
0
 62
7
  6
CONTINUOUS
 10
365.757472524
 20
31.8618343508
 11
365.757472524
 21
32.0231527829
  0
LINE
  8
0
 62
7
  6
CONTINUOUS
 10
360.3230977445
 20
30.8293962497
 11
360.2652852997
 21
30.7326051679
  0
LINE
  8
0
 62
7
  6
CONTINUOUS
 10
362.6355978548
 20
31.3133515913
 11
362.5777852445
 21
31.3778789641
  0
LINE
  8
0
 62
7
  6
CONTINUOUS
 10
363.5027853548
 20
30.7003414814
 11
363.4449727445
 21
30.7648688543
  0
LINE
  8
0
 62
7
  6
CONTINUOUS
 10
364.6590352445
 20
30.5712867188
 11
364.716847524
 21
30.5067593403
  0
LINE
  8
0
 62
7
  6
CONTINUOUS
 10
364.6012229651
 20
30.668077795
 11
364.6590352445
 21
30.5712867188
  0
LINE
  8
0
 62
7
  6
CONTINUOUS
 10
365.0059102445
 20
30.5067593403
 11
364.9480979651
 21
30.6035504109
  0
LINE
  8
0
 62
7
  6
CONTINUOUS
 10
364.890285024
 20
31.2810879048
 11
364.8324727445
 21
31.3778789641
  0
LINE
  8
0
 62
7
  6
CONTINUOUS
 10
366.2199727445
 20
31.5391973962
 11
366.2199727445
 21
30.5067593403
  0
LINE
  8
0
 62
7
  6
CONTINUOUS
 10
366.5090354651
 20
30.5067593403
 11
366.5090354651
 21
31.2488242184
  0
LINE
  8
0
 62
7
  6
CONTINUOUS
 10
366.5090354651
 20
31.3778789641
 11
366.5090354651
 21
31.5391973962
  0
LINE
  8
0
 62
7
  6
CONTINUOUS
 10
367.0408487691
 20
34.5231527829
 11
367.0408487691
 21
32.3100380288
  0
LINE
  8
0
 62
7
  6
CONTINUOUS
 10
358.9355977445
 20
31.3456152777
 11
358.8199727462
 21
31.216560532
  0
LINE
  8
0
 62
7
  6
CONTINUOUS
 10
359.1090352445
 20
31.1842968456
 11
359.1668477307
 21
31.2488242184
  0
LINE
  8
0
 62
7
  6
CONTINUOUS
 10
358.9355977445
 20
30.7003414814
 11
359.0512227376
 21
30.6358140973
  0
LINE
  8
0
 62
7
  6
CONTINUOUS
 10
359.3402852307
 20
30.7003414814
 11
359.1668477307
 21
30.7971325633
  0
LINE
  8
0
 62
7
  6
CONTINUOUS
 10
364.543410024
 20
31.3456152777
 11
364.6012229651
 21
31.2810879048
  0
LINE
  8
0
 62
7
  6
CONTINUOUS
 10
367.491847524
 20
31.2810879048
 11
367.5496604651
 21
31.1197694727
  0
LINE
  8
0
 62
7
  6
CONTINUOUS
 10
367.838722524
 20
31.1197694727
 11
367.7809102445
 21
31.2810879048
  0
LINE
  8
0
 62
7
  6
CONTINUOUS
 10
367.5496604651
 20
31.1197694727
 11
367.5496604651
 21
30.5067593403
  0
LINE
  8
0
 62
7
  6
CONTINUOUS
 10
367.838722524
 20
30.5067593403
 11
367.838722524
 21
31.1197694727
  0
LINE
  8
0
 62
7
  6
CONTINUOUS
 10
368.3012227445
 20
31.3456152777
 11
368.3012227445
 21
31.2810879048
  0
LINE
  8
0
 62
7
  6
CONTINUOUS
 10
368.4342913921
 20
32.3100380288
 11
368.4342913921
 21
34.4411855698
  0
LINE
  8
0
 62
7
  6
CONTINUOUS
 10
368.7621602445
 20
36.0805298321
 11
368.7621602445
 21
32.3100380288
  0
LINE
  8
0
 62
7
  6
CONTINUOUS
 10
363.4449727445
 20
30.8293962497
 11
363.5027853548
 21
30.926187309
  0
LINE
  8
0
 62
7
  6
CONTINUOUS
 10
359.0512227376
 20
30.6358140973
 11
359.2246602583
 21
30.5712867188
  0
LINE
  8
0
 62
7
  6
CONTINUOUS
 10
360.5543476894
 20
31.3456152777
 11
360.3809101894
 21
31.4424063369
  0
LINE
  8
0
 62
7
  6
CONTINUOUS
 10
363.2137226343
 20
30.668077795
 11
363.3871601343
 21
30.5712867188
  0
LINE
  8
0
 62
7
  6
CONTINUOUS
 10
362.2309102445
 20
31.3456152777
 11
362.3465351343
 21
31.2810879048
  0
LINE
  8
0
 62
7
  6
CONTINUOUS
 10
362.5777852445
 20
31.3778789641
 11
362.4621603548
 21
31.4424063369
  0
LINE
  8
0
 62
7
  6
CONTINUOUS
 10
368.3012227445
 20
30.7648688543
 11
368.4168479651
 21
30.6358140973
  0
LINE
  8
0
 62
7
  6
CONTINUOUS
 10
368.6480977445
 20
30.7003414814
 11
368.5902854651
 21
30.7648688543
  0
LINE
  8
0
 62
7
  6
CONTINUOUS
 10
368.3012227445
 20
31.2810879048
 11
368.4168479651
 21
31.1520331591
  0
LINE
  8
0
 62
7
  6
CONTINUOUS
 10
367.7809102445
 20
31.2810879048
 11
367.7230979651
 21
31.3778789641
  0
LINE
  8
0
 62
7
  6
CONTINUOUS
 10
370.1512223035
 20
30.7003414814
 11
370.1512223035
 21
30.7648688543
  0
LINE
  8
0
 62
7
  6
CONTINUOUS
 10
370.1556028675
 20
32.3100380288
 11
370.1556028675
 21
36.0805298321
  0
LINE
  8
0
 62
7
  6
CONTINUOUS
 10
363.2137226343
 20
31.4101426505
 11
363.1559103548
 21
31.3456152777
  0
LINE
  8
0
 62
7
  6
CONTINUOUS
 10
360.091847717
 20
31.3778789641
 11
360.2652852997
 21
31.3133515913
  0
LINE
  8
0
 62
7
  6
CONTINUOUS
 10
364.8324727445
 20
31.3778789641
 11
364.716847524
 21
31.4424063369
  0
LINE
  8
0
 62
7
  6
CONTINUOUS
 10
368.6480977445
 20
31.216560532
 11
368.5902854651
 21
31.2810879048
  0
LINE
  8
0
 62
7
  6
CONTINUOUS
 10
369.8043479651
 20
30.8293962497
 11
369.8621602445
 21
30.7648688543
  0
LINE
  8
0
 62
7
  6
CONTINUOUS
 10
370.1512223035
 20
30.7648688543
 11
370.0355977445
 21
30.8939236226
  0
LINE
  8
0
 62
7
  6
CONTINUOUS
 10
369.8043479651
 20
31.3456152777
 11
369.8621602445
 21
31.2810879048
  0
LINE
  8
0
 62
7
  6
CONTINUOUS
 10
370.1512223035
 20
31.2810879048
 11
370.0355977445
 21
31.4101426505
  0
LINE
  8
0
 62
7
  6
CONTINUOUS
 10
363.4449727445
 20
31.2810879048
 11
363.5027853548
 21
31.3456152777
  0
LINE
  8
0
 62
7
  6
CONTINUOUS
 10
363.2715352445
 20
31.0229783683
 11
363.1559103548
 21
30.8939236226
  0
LINE
  8
0
 62
7
  6
CONTINUOUS
 10
364.6012229651
 20
30.8616599362
 11
364.543410024
 21
30.7971325633
  0
LINE
  8
0
 62
7
  6
CONTINUOUS
 10
364.543410024
 20
30.6035504109
 11
364.6012229651
 21
30.668077795
  0
LINE
  8
0
 62
7
  6
CONTINUOUS
 10
363.3871601343
 20
30.5712867188
 11
363.5027853548
 21
30.5390230296
  0
LINE
  8
0
 62
7
  6
CONTINUOUS
 10
360.3809101894
 20
31.4424063369
 11
360.1496602445
 21
31.5069337098
  0
LINE
  8
0
 62
7
  6
CONTINUOUS
 10
363.7340351343
 20
30.6358140973
 11
363.5027853548
 21
30.7003414814
  0
LINE
  8
0
 62
7
  6
CONTINUOUS
 10
362.4621603548
 20
31.4424063369
 11
362.2887228548
 21
31.5069337098
  0
LINE
  8
0
 62
7
  6
CONTINUOUS
 10
364.716847524
 20
31.4424063369
 11
364.543410024
 21
31.5069337098
  0
LINE
  8
0
 62
7
  6
CONTINUOUS
 10
367.3762229651
 20
31.3456152777
 11
367.491847524
 21
31.2810879048
  0
LINE
  8
0
 62
7
  6
CONTINUOUS
 10
367.7230979651
 20
31.3778789641
 11
367.6074727445
 21
31.4424063369
  0
LINE
  8
0
 62
7
  6
CONTINUOUS
 10
359.2246602583
 20
30.5712867188
 11
359.3980977583
 21
30.5390230296
  0
LINE
  8
0
 62
7
  6
CONTINUOUS
 10
359.6871602721
 20
30.6358140973
 11
359.3402852307
 21
30.7003414814
  0
LINE
  8
0
 62
7
  6
CONTINUOUS
 10
362.1152853548
 20
31.3778789641
 11
362.2309102445
 21
31.3456152777
  0
LINE
  8
0
 62
7
  6
CONTINUOUS
 10
364.4277854651
 20
31.3778789641
 11
364.543410024
 21
31.3456152777
  0
LINE
  8
0
 62
7
  6
CONTINUOUS
 10
368.7637229651
 20
30.668077795
 11
368.6480977445
 21
30.7003414814
  0
LINE
  8
0
 62
7
  6
CONTINUOUS
 10
367.2605977445
 20
31.3778789641
 11
367.3762229651
 21
31.3456152777
  0
LINE
  8
0
 62
7
  6
CONTINUOUS
 10
368.4168479651
 20
30.6358140973
 11
368.5902854651
 21
30.5712867188
  0
LINE
  8
0
 62
7
  6
CONTINUOUS
 10
367.6074727445
 20
31.4424063369
 11
367.4340352445
 21
31.5069337098
  0
LINE
  8
0
 62
7
  6
CONTINUOUS
 10
368.8215352445
 20
31.1520331591
 11
368.6480977445
 21
31.216560532
  0
LINE
  8
0
 62
7
  6
CONTINUOUS
 10
369.6309104651
 20
30.8939236226
 11
369.8043479651
 21
30.8293962497
  0
LINE
  8
0
 62
7
  6
CONTINUOUS
 10
370.0355977445
 20
31.4101426505
 11
369.8621602445
 21
31.4746700234
  0
LINE
  8
0
 62
7
  6
CONTINUOUS
 10
368.4168479651
 20
31.1520331591
 11
368.6480977445
 21
31.0552420547
  0
LINE
  8
0
 62
7
  6
CONTINUOUS
 10
370.0355977445
 20
30.8939236226
 11
369.8043479651
 21
30.9907146818
  0
LINE
  8
0
 62
7
  6
CONTINUOUS
 10
368.5902854651
 20
31.2810879048
 11
368.6480977445
 21
31.3456152777
  0
LINE
  8
0
 62
7
  6
CONTINUOUS
 10
359.0512227376
 20
31.4101426505
 11
358.9355977445
 21
31.3456152777
  0
LINE
  8
0
 62
7
  6
CONTINUOUS
 10
359.1668477307
 20
31.2488242184
 11
359.3402852307
 21
31.3456152777
  0
LINE
  8
0
 62
7
  6
CONTINUOUS
 10
361.4793477997
 20
31.4424063369
 11
361.3637227445
 21
31.3778789641
  0
LINE
  8
0
 62
7
  6
CONTINUOUS
 10
361.3637227445
 20
31.2488242184
 11
361.4793477997
 21
31.3133515913
  0
LINE
  8
0
 62
7
  6
CONTINUOUS
 10
360.3809101894
 20
30.6035504109
 11
360.5543476894
 21
30.7003414814
  0
LINE
  8
0
 62
7
  6
CONTINUOUS
 10
359.3980977583
 20
30.5390230296
 11
359.744972717
 21
30.5067593403
  0
LINE
  8
0
 62
7
  6
CONTINUOUS
 10
363.5027853548
 20
30.5390230296
 11
363.7340351343
 21
30.5067593403
  0
LINE
  8
0
 62
7
  6
CONTINUOUS
 10
361.8840352445
 20
31.4101426505
 11
362.1152853548
 21
31.3778789641
  0
LINE
  8
0
 62
7
  6
CONTINUOUS
 10
364.1965353548
 20
31.4101426505
 11
364.4277854651
 21
31.3778789641
  0
LINE
  8
0
 62
7
  6
CONTINUOUS
 10
368.6480977445
 20
31.0552420547
 11
369.6309104651
 21
30.8939236226
  0
LINE
  8
0
 62
7
  6
CONTINUOUS
 10
369.8043479651
 20
30.9907146818
 11
368.8215352445
 21
31.1520331591
  0
LINE
  8
0
 62
7
  6
CONTINUOUS
 10
362.2887228548
 20
31.5069337098
 11
362.1152853548
 21
31.5391973962
  0
LINE
  8
0
 62
7
  6
CONTINUOUS
 10
368.5902854651
 20
30.5712867188
 11
368.7637229651
 21
30.5390230296
  0
LINE
  8
0
 62
7
  6
CONTINUOUS
 10
367.4340352445
 20
31.5069337098
 11
367.2605977445
 21
31.5391973962
  0
LINE
  8
0
 62
7
  6
CONTINUOUS
 10
369.6887227445
 20
31.3778789641
 11
369.8043479651
 21
31.3456152777
  0
LINE
  8
0
 62
7
  6
CONTINUOUS
 10
369.8621602445
 20
30.7648688543
 11
369.8043479651
 21
30.7003414814
  0
LINE
  8
0
 62
7
  6
CONTINUOUS
 10
368.4168479651
 20
31.4424063369
 11
368.3012227445
 21
31.3456152777
  0
LINE
  8
0
 62
7
  6
CONTINUOUS
 10
363.3293478548
 20
31.4746700234
 11
363.2137226343
 21
31.4101426505
  0
LINE
  8
0
 62
7
  6
CONTINUOUS
 10
363.3871601343
 20
31.0875057863
 11
363.2715352445
 21
31.0229783683
  0
LINE
  8
0
 62
7
  6
CONTINUOUS
 10
363.5027853548
 20
30.926187309
 11
363.6184102445
 21
30.9907146818
  0
LINE
  8
0
 62
7
  6
CONTINUOUS
 10
361.0746601894
 20
30.5067593403
 11
361.3637227445
 21
30.5067593403
  0
LINE
  8
0
 62
7
  6
CONTINUOUS
 10
362.4043477445
 20
30.5067593403
 11
362.6934101343
 21
30.5067593403
  0
LINE
  8
0
 62
7
  6
CONTINUOUS
 10
363.7340351343
 20
30.5067593403
 11
364.0809101343
 21
30.5067593403
  0
LINE
  8
0
 62
7
  6
CONTINUOUS
 10
364.716847524
 20
30.5067593403
 11
365.0059102445
 21
30.5067593403
  0
LINE
  8
0
 62
7
  6
CONTINUOUS
 10
365.4684104651
 20
30.5067593403
 11
365.757472524
 21
30.5067593403
  0
LINE
  8
0
 62
7
  6
CONTINUOUS
 10
366.2199727445
 20
30.5067593403
 11
366.5090354651
 21
30.5067593403
  0
LINE
  8
0
 62
7
  6
CONTINUOUS
 10
367.5496604651
 20
30.5067593403
 11
367.838722524
 21
30.5067593403
  0
LINE
  8
0
 62
7
  6
CONTINUOUS
 10
369.1105979651
 20
30.5067593403
 11
369.4574729651
 21
30.5067593403
  0
LINE
  8
0
 62
7
  6
CONTINUOUS
 10
369.4574729651
 20
30.6358140973
 11
369.1105979651
 21
30.6358140973
  0
LINE
  8
0
 62
7
  6
CONTINUOUS
 10
364.0809101343
 20
30.6358140973
 11
363.7340351343
 21
30.6358140973
  0
LINE
  8
0
 62
7
  6
CONTINUOUS
 10
368.5902854651
 20
30.7648688543
 11
368.3012227445
 21
30.7648688543
  0
LINE
  8
0
 62
7
  6
CONTINUOUS
 10
360.6121602997
 20
30.8293962497
 11
360.3230977445
 21
30.8293962497
  0
LINE
  8
0
 62
7
  6
CONTINUOUS
 10
359.6871602721
 20
31.4101426505
 11
360.091847717
 21
31.3778789641
  0
LINE
  8
0
 62
7
  6
CONTINUOUS
 10
360.1496602445
 20
31.5069337098
 11
359.744972717
 21
31.5391973962
  0
LINE
  8
0
 62
7
  6
CONTINUOUS
 10
368.7637229651
 20
30.5390230296
 11
369.1105979651
 21
30.5067593403
  0
LINE
  8
0
 62
7
  6
CONTINUOUS
 10
369.1105979651
 20
30.6358140973
 11
368.7637229651
 21
30.668077795
  0
LINE
  8
0
 62
7
  6
CONTINUOUS
 10
364.543410024
 20
31.5069337098
 11
364.1965353548
 21
31.5391973962
  0
LINE
  8
0
 62
7
  6
CONTINUOUS
 10
369.3418477445
 20
31.4101426505
 11
369.6887227445
 21
31.3778789641
  0
LINE
  8
0
 62
7
  6
CONTINUOUS
 10
369.6887227445
 20
31.5069337098
 11
369.3418477445
 21
31.5391973962
  0
LINE
  8
0
 62
7
  6
CONTINUOUS
 10
367.0293479651
 20
31.4101426505
 11
367.2605977445
 21
31.3778789641
  0
LINE
  8
0
 62
7
  6
CONTINUOUS
 10
369.8621602445
 20
31.4746700234
 11
369.6887227445
 21
31.5069337098
  0
LINE
  8
0
 62
7
  6
CONTINUOUS
 10
370.0355977445
 20
30.6035504109
 11
370.1512223035
 21
30.7003414814
  0
LINE
  8
0
 62
7
  6
CONTINUOUS
 10
364.543410024
 20
30.7971325633
 11
364.369972524
 21
30.7003414814
  0
LINE
  8
0
 62
7
  6
CONTINUOUS
 10
366.624660024
 20
31.4424063369
 11
366.5090354651
 21
31.3778789641
  0
LINE
  8
0
 62
7
  6
CONTINUOUS
 10
366.5090354651
 20
31.2488242184
 11
366.624660024
 21
31.3133515913
  0
LINE
  8
0
 62
7
  6
CONTINUOUS
 10
359.2246602583
 20
31.4746700234
 11
359.0512227376
 21
31.4101426505
  0
LINE
  8
0
 62
7
  6
CONTINUOUS
 10
361.6527851343
 20
31.5069337098
 11
361.4793477997
 21
31.4424063369
  0
LINE
  8
0
 62
7
  6
CONTINUOUS
 10
361.4793477997
 20
31.3133515913
 11
361.6527851343
 21
31.3778789641
  0
LINE
  8
0
 62
7
  6
CONTINUOUS
 10
360.2652852997
 20
30.7326051679
 11
360.091847717
 21
30.668077795
  0
LINE
  8
0
 62
7
  6
CONTINUOUS
 10
369.6887227445
 20
30.668077795
 11
369.4574729651
 21
30.6358140973
  0
LINE
  8
0
 62
7
  6
CONTINUOUS
 10
364.0809101343
 20
30.5067593403
 11
364.369972524
 21
30.5390230296
  0
LINE
  8
0
 62
7
  6
CONTINUOUS
 10
369.4574729651
 20
30.5067593403
 11
369.8043479651
 21
30.5390230296
  0
LINE
  8
0
 62
7
  6
CONTINUOUS
 10
359.744972717
 20
30.5067593403
 11
360.1496602445
 21
30.5390230296
  0
LINE
  8
0
 62
7
  6
CONTINUOUS
 10
360.091847717
 20
30.668077795
 11
359.6871602721
 21
30.6358140973
  0
LINE
  8
0
 62
7
  6
CONTINUOUS
 10
363.9652852445
 20
31.0552420547
 11
364.6012229651
 21
31.0552420547
  0
LINE
  8
0
 62
7
  6
CONTINUOUS
 10
364.6012229651
 20
31.1842968456
 11
363.9652852445
 21
31.1842968456
  0
LINE
  8
0
 62
7
  6
CONTINUOUS
 10
360.3230977445
 20
31.216560532
 11
360.6121602997
 21
31.216560532
  0
LINE
  8
0
 62
7
  6
CONTINUOUS
 10
363.1559103548
 20
31.2810879048
 11
363.4449727445
 21
31.2810879048
  0
LINE
  8
0
 62
7
  6
CONTINUOUS
 10
369.8621602445
 20
31.2810879048
 11
370.1512223035
 21
31.2810879048
  0
LINE
  8
0
 62
7
  6
CONTINUOUS
 10
363.8496603548
 20
31.4101426505
 11
364.1965353548
 21
31.4101426505
  0
LINE
  8
0
 62
7
  6
CONTINUOUS
 10
368.9949727445
 20
31.4101426505
 11
369.3418477445
 21
31.4101426505
  0
LINE
  8
0
 62
7
  6
CONTINUOUS
 10
369.3418477445
 20
31.5391973962
 11
368.9949727445
 21
31.5391973962
  0
LINE
  8
0
 62
7
  6
CONTINUOUS
 10
367.2605977445
 20
31.5391973962
 11
367.0293479651
 21
31.5391973962
  0
LINE
  8
0
 62
7
  6
CONTINUOUS
 10
366.5090354651
 20
31.5391973962
 11
366.2199727445
 21
31.5391973962
  0
LINE
  8
0
 62
7
  6
CONTINUOUS
 10
365.757472524
 20
31.5391973962
 11
365.4684104651
 21
31.5391973962
  0
LINE
  8
0
 62
7
  6
CONTINUOUS
 10
364.1965353548
 20
31.5391973962
 11
363.8496603548
 21
31.5391973962
  0
LINE
  8
0
 62
7
  6
CONTINUOUS
 10
362.1152853548
 20
31.5391973962
 11
361.8840352445
 21
31.5391973962
  0
LINE
  8
0
 62
7
  6
CONTINUOUS
 10
365.4684104651
 20
31.8618343508
 11
365.757472524
 21
31.8618343508
  0
LINE
  8
0
 62
7
  6
CONTINUOUS
 10
365.757472524
 20
32.0231527829
 11
365.4684104651
 21
32.0231527829
  0
LINE
  8
0
 62
7
  6
CONTINUOUS
 10
361.3637227445
 20
32.0231527829
 11
361.0746601894
 21
32.0231527829
  0
LINE
  8
0
 62
7
  6
CONTINUOUS
 10
360.4015045068
 20
32.3100380288
 11
360.8140758554
 21
32.3100380288
  0
LINE
  8
0
 62
7
  6
CONTINUOUS
 10
362.0408487691
 20
32.3100380288
 11
363.4342913921
 21
32.3100380288
  0
LINE
  8
0
 62
7
  6
CONTINUOUS
 10
363.7621602445
 20
32.3100380288
 11
365.1556028675
 21
32.3100380288
  0
LINE
  8
0
 62
7
  6
CONTINUOUS
 10
367.0408487691
 20
32.3100380288
 11
368.4342913921
 21
32.3100380288
  0
LINE
  8
0
 62
7
  6
CONTINUOUS
 10
368.7621602445
 20
32.3100380288
 11
370.1556028675
 21
32.3100380288
  0
LINE
  8
0
 62
7
  6
CONTINUOUS
 10
366.798097524
 20
31.5069337098
 11
366.624660024
 21
31.4424063369
  0
LINE
  8
0
 62
7
  6
CONTINUOUS
 10
364.369972524
 20
30.5390230296
 11
364.543410024
 21
30.6035504109
  0
LINE
  8
0
 62
7
  6
CONTINUOUS
 10
369.8043479651
 20
30.5390230296
 11
370.0355977445
 21
30.6035504109
  0
LINE
  8
0
 62
7
  6
CONTINUOUS
 10
369.8043479651
 20
30.7003414814
 11
369.6887227445
 21
30.668077795
  0
LINE
  8
0
 62
7
  6
CONTINUOUS
 10
368.7637229651
 20
31.3778789641
 11
368.9949727445
 21
31.4101426505
  0
LINE
  8
0
 62
7
  6
CONTINUOUS
 10
366.798097524
 20
31.3778789641
 11
367.0293479651
 21
31.4101426505
  0
LINE
  8
0
 62
7
  6
CONTINUOUS
 10
363.7340351343
 20
31.0229783683
 11
363.9652852445
 21
31.0552420547
  0
LINE
  8
0
 62
7
  6
CONTINUOUS
 10
367.0293479651
 20
31.5391973962
 11
366.798097524
 21
31.5069337098
  0
LINE
  8
0
 62
7
  6
CONTINUOUS
 10
363.6184102445
 20
31.3778789641
 11
363.8496603548
 21
31.4101426505
  0
LINE
  8
0
 62
7
  6
CONTINUOUS
 10
368.9949727445
 20
31.5391973962
 11
368.6480977445
 21
31.5069337098
  0
LINE
  8
0
 62
7
  6
CONTINUOUS
 10
363.9652852445
 20
31.1842968456
 11
363.6184102445
 21
31.1520331591
  0
LINE
  8
0
 62
7
  6
CONTINUOUS
 10
359.744972717
 20
31.5391973962
 11
359.3980977583
 21
31.5069337098
  0
LINE
  8
0
 62
7
  6
CONTINUOUS
 10
363.8496603548
 20
31.5391973962
 11
363.4449727445
 21
31.5069337098
  0
LINE
  8
0
 62
7
  6
CONTINUOUS
 10
361.221176638
 20
33.4575790124
 11
360.565438933
 21
33.4575790124
  0
LINE
  8
0
 62
7
  6
CONTINUOUS
 10
366.624660024
 20
31.3133515913
 11
366.798097524
 21
31.3778789641
  0
LINE
  8
0
 62
7
  6
CONTINUOUS
 10
368.6480977445
 20
31.3456152777
 11
368.7637229651
 21
31.3778789641
  0
LINE
  8
0
 62
7
  6
CONTINUOUS
 10
368.6480977445
 20
31.5069337098
 11
368.4168479651
 21
31.4424063369
  0
LINE
  8
0
 62
7
  6
CONTINUOUS
 10
364.369972524
 20
30.7003414814
 11
364.0809101343
 21
30.6358140973
  0
LINE
  8
0
 62
7
  6
CONTINUOUS
 10
361.6527851343
 20
31.3778789641
 11
361.8840352445
 21
31.4101426505
  0
LINE
  8
0
 62
7
  6
CONTINUOUS
 10
361.8840352445
 20
31.5391973962
 11
361.6527851343
 21
31.5069337098
  0
LINE
  8
0
 62
7
  6
CONTINUOUS
 10
359.4559102445
 20
31.3778789641
 11
359.6871602721
 21
31.4101426505
  0
LINE
  8
0
 62
7
  6
CONTINUOUS
 10
365.9752749986
 20
34.9329888485
 11
366.6310127035
 21
34.9329888485
  0
LINE
  8
0
 62
7
  6
CONTINUOUS
 10
363.6184102445
 20
30.9907146818
 11
363.7340351343
 21
31.0229783683
  0
LINE
  8
0
 62
7
  6
CONTINUOUS
 10
363.6184102445
 20
31.1520331591
 11
363.3871601343
 21
31.0875057863
  0
LINE
  8
0
 62
7
  6
CONTINUOUS
 10
363.5027853548
 20
31.3456152777
 11
363.6184102445
 21
31.3778789641
  0
LINE
  8
0
 62
7
  6
CONTINUOUS
 10
360.1496602445
 20
30.5390230296
 11
360.3809101894
 21
30.6035504109
  0
LINE
  8
0
 62
7
  6
CONTINUOUS
 10
363.4449727445
 20
31.5069337098
 11
363.3293478548
 21
31.4746700234
  0
LINE
  8
0
 62
7
  6
CONTINUOUS
 10
359.3980977583
 20
31.5069337098
 11
359.2246602583
 21
31.4746700234
  0
LINE
  8
0
 62
7
  6
CONTINUOUS
 10
370.1556028675
 20
36.0805298321
 11
368.7621602445
 21
36.0805298321
  0
LINE
  8
0
 62
7
  6
CONTINUOUS
 10
366.7949471298
 20
36.0805298321
 11
366.3823757812
 21
36.0805298321
  0
LINE
  8
0
 62
7
  6
CONTINUOUS
 10
365.1556028675
 20
36.0805298321
 11
363.7621602445
 21
36.0805298321
  0
LINE
  8
0
 62
7
  6
CONTINUOUS
 10
363.4342913921
 20
36.0805298321
 11
362.0408487691
 21
36.0805298321
  0
LINE
  8
0
 62
7
  6
CONTINUOUS
 10
360.1556028675
 20
36.0805298321
 11
358.7621602445
 21
36.0805298321
  0
LINE
  8
0
 62
7
  6
CONTINUOUS
 10
359.3402852307
 20
31.3456152777
 11
359.4559102445
 21
31.3778789641
  0
CIRCLE
  8
0
 62
7
  6
CONTINUOUS
 10
369.458881556
 20
38.4165954059
 40
2.0901639344
  0
ARC
  8
0
 62
7
  6
CONTINUOUS
 10
360.4015045068
 20
33.9493822911
 40
1.6393442623
 50
180.0
 51
270.0
  0
ARC
  8
0
 62
7
  6
CONTINUOUS
 10
366.7949471298
 20
34.4411855698
 40
1.6393442623
 50
0.0
 51
90.0
  0
ARC
  8
0
 62
7
  6
CONTINUOUS
 10
360.8140758554
 20
33.7854478649
 40
1.4754098361
 50
270.0
 51
326.2510114041
  0
ARC
  8
0
 62
7
  6
CONTINUOUS
 10
366.3823757812
 20
34.6051199961
 40
1.4754098361
 50
90.0
 51
146.2510114041
  0
ARC
  8
0
 62
7
  6
CONTINUOUS
 10
361.221176638
 20
34.2772511436
 40
0.8196721311
 50
270.0
 51
360.0
  0
ARC
  8
0
 62
7
  6
CONTINUOUS
 10
365.9752749986
 20
34.1133167174
 40
0.8196721311
 50
90.0
 51
180.0
  0
ARC
  8
0
 62
7
  6
CONTINUOUS
 10
360.565438933
 20
33.867415078
 40
0.4098360656
 50
180.0
 51
270.0
  0
ARC
  8
0
 62
7
  6
CONTINUOUS
 10
366.6310127035
 20
34.5231527829
 40
0.4098360656
 50
0.0
 51
90.0
  0
SOLID
  8
0
 62
7
  6
CONTINUOUS
 10
365.4684104651
 20
31.8618347111
 11
365.4684104651
 21
32.0231531947
 12
365.757472524
 22
31.8618347111
 13
365.757472524
 23
32.0231531947
  0
SOLID
  8
0
 62
7
  6
CONTINUOUS
 10
359.744972717
 20
31.5391977439
 11
360.1496602445
 21
31.5069333244
 12
359.3980977583
 22
31.5069333244
 13
359.3980977583
 23
31.5069333244
  0
SOLID
  8
0
 62
7
  6
CONTINUOUS
 10
359.2246602583
 20
31.4746706537
 11
359.3980977583
 21
31.5069333244
 12
360.1496602445
 22
31.5069333244
 13
360.1496602445
 23
31.5069333244
  0
SOLID
  8
0
 62
7
  6
CONTINUOUS
 10
360.1496602445
 20
31.5069333244
 11
360.3809101894
 21
31.4424063504
 12
359.2246602583
 22
31.4746706537
 13
359.2246602583
 23
31.4746706537
  0
SOLID
  8
0
 62
7
  6
CONTINUOUS
 10
359.0512227376
 20
31.4101419116
 11
359.2246602583
 21
31.4746706537
 12
360.3809101894
 22
31.4424063504
 13
360.3809101894
 23
31.4424063504
  0
SOLID
  8
0
 62
7
  6
CONTINUOUS
 10
359.0512227376
 20
31.4101419116
 11
360.3809101894
 21
31.4424063504
 12
359.6871602721
 22
31.4101419116
 13
359.6871602721
 23
31.4101419116
  0
SOLID
  8
0
 62
7
  6
CONTINUOUS
 10
359.6871602721
 20
31.4101419116
 11
360.3809101894
 21
31.4424063504
 12
360.091847717
 22
31.3778792603
 13
360.091847717
 23
31.3778792603
  0
SOLID
  8
0
 62
7
  6
CONTINUOUS
 10
360.3809101894
 20
31.4424063504
 11
360.5543476894
 21
31.345614957
 12
360.091847717
 22
31.3778792603
 13
360.091847717
 23
31.3778792603
  0
SOLID
  8
0
 62
7
  6
CONTINUOUS
 10
360.2652852997
 20
31.3133521701
 11
360.091847717
 21
31.3778792603
 12
360.5543476894
 22
31.345614957
 13
360.5543476894
 23
31.345614957
  0
SOLID
  8
0
 62
7
  6
CONTINUOUS
 10
360.2652852997
 20
31.3133521701
 11
360.5543476894
 21
31.345614957
 12
360.3230977445
 22
31.2165606992
 13
360.3230977445
 23
31.2165606992
  0
SOLID
  8
0
 62
7
  6
CONTINUOUS
 10
360.5543476894
 20
31.345614957
 11
360.6121602997
 21
31.2165606992
 12
360.3230977445
 22
31.2165606992
 13
360.3230977445
 23
31.2165606992
  0
SOLID
  8
0
 62
7
  6
CONTINUOUS
 10
361.6527851343
 20
31.5069329918
 11
361.8840352445
 21
31.5391972951
 12
362.1152853548
 22
31.5391972951
 13
362.1152853548
 23
31.5391972951
  0
SOLID
  8
0
 62
7
  6
CONTINUOUS
 10
362.1152853548
 20
31.5391972951
 11
362.2887228548
 21
31.5069329918
 12
361.6527851343
 22
31.5069329918
 13
361.6527851343
 23
31.5069329918
  0
SOLID
  8
0
 62
7
  6
CONTINUOUS
 10
361.4793477997
 20
31.4424059016
 11
361.6527851343
 21
31.5069329918
 12
362.2887228548
 22
31.5069329918
 13
362.2887228548
 23
31.5069329918
  0
SOLID
  8
0
 62
7
  6
CONTINUOUS
 10
362.2887228548
 20
31.5069329918
 11
362.4621603548
 21
31.4424059016
 12
361.4793477997
 22
31.4424059016
 13
361.4793477997
 23
31.4424059016
  0
SOLID
  8
0
 62
7
  6
CONTINUOUS
 10
362.4621603548
 20
31.4424059016
 11
361.8840352445
 21
31.4101420472
 12
361.4793477997
 22
31.4424059016
 13
361.4793477997
 23
31.4424059016
  0
SOLID
  8
0
 62
7
  6
CONTINUOUS
 10
361.3637227445
 20
31.3778788115
 11
361.4793477997
 21
31.4424059016
 12
361.8840352445
 22
31.4101420472
 13
361.8840352445
 23
31.4101420472
  0
SOLID
  8
0
 62
7
  6
CONTINUOUS
 10
361.8840352445
 20
31.4101420472
 11
361.6527851343
 21
31.3778788115
 12
361.3637227445
 22
31.3778788115
 13
361.3637227445
 23
31.3778788115
  0
SOLID
  8
0
 62
7
  6
CONTINUOUS
 10
361.8840352445
 20
31.4101420472
 11
362.4621603548
 21
31.4424059016
 12
362.1152853548
 22
31.3778788115
 13
362.1152853548
 23
31.3778788115
  0
SOLID
  8
0
 62
7
  6
CONTINUOUS
 10
362.4621603548
 20
31.4424059016
 11
362.5777852445
 21
31.3778788115
 12
362.1152853548
 22
31.3778788115
 13
362.1152853548
 23
31.3778788115
  0
SOLID
  8
0
 62
7
  6
CONTINUOUS
 10
362.2309102445
 20
31.345614957
 11
362.1152853548
 21
31.3778788115
 12
362.5777852445
 22
31.3778788115
 13
362.5777852445
 23
31.3778788115
  0
SOLID
  8
0
 62
7
  6
CONTINUOUS
 10
362.5777852445
 20
31.3778788115
 11
362.6355978548
 21
31.3133517213
 12
362.2309102445
 22
31.345614957
 13
362.2309102445
 23
31.345614957
  0
SOLID
  8
0
 62
7
  6
CONTINUOUS
 10
362.3465351343
 20
31.2810878668
 11
362.2309102445
 21
31.345614957
 12
362.6355978548
 22
31.3133517213
 13
362.6355978548
 23
31.3133517213
  0
SOLID
  8
0
 62
7
  6
CONTINUOUS
 10
362.3465351343
 20
31.2810878668
 11
362.6355978548
 21
31.3133517213
 12
362.4043477445
 22
31.1520332377
 13
362.4043477445
 23
31.1520332377
  0
SOLID
  8
0
 62
7
  6
CONTINUOUS
 10
362.6355978548
 20
31.3133517213
 11
362.6934101343
 21
31.1520332377
 12
362.4043477445
 22
31.1520332377
 13
362.4043477445
 23
31.1520332377
  0
SOLID
  8
0
 62
7
  6
CONTINUOUS
 10
361.6527851343
 20
31.3778788115
 11
361.4793477997
 21
31.3133517213
 12
361.3637227445
 22
31.3778788115
 13
361.3637227445
 23
31.3778788115
  0
SOLID
  8
0
 62
7
  6
CONTINUOUS
 10
361.4793477997
 20
31.3133517213
 11
361.3637227445
 21
31.2488235635
 12
361.3637227445
 22
31.3778788115
 13
361.3637227445
 23
31.3778788115
  0
SOLID
  8
0
 62
7
  6
CONTINUOUS
 10
361.3637227445
 20
31.2488235635
 11
361.0746601894
 21
30.5067593033
 12
361.3637227445
 22
31.3778788115
 13
361.3637227445
 23
31.3778788115
  0
SOLID
  8
0
 62
7
  6
CONTINUOUS
 10
361.3637227445
 20
31.3778788115
 11
361.0746601894
 21
30.5067593033
 12
361.3637227445
 22
32.0231527459
 13
361.3637227445
 23
32.0231527459
  0
SOLID
  8
0
 62
7
  6
CONTINUOUS
 10
361.0746601894
 20
30.5067593033
 11
361.0746601894
 21
32.0231527459
 12
361.3637227445
 22
32.0231527459
 13
361.3637227445
 23
32.0231527459
  0
SOLID
  8
0
 62
7
  6
CONTINUOUS
 10
361.3637227445
 20
31.2488235635
 11
361.3637227445
 21
30.5067593033
 12
361.0746601894
 22
30.5067593033
 13
361.0746601894
 23
30.5067593033
  0
SOLID
  8
0
 62
7
  6
CONTINUOUS
 10
362.4043477445
 20
30.5067593033
 11
362.4043477445
 21
31.1520332377
 12
362.6934101343
 22
31.1520332377
 13
362.6934101343
 23
31.1520332377
  0
SOLID
  8
0
 62
7
  6
CONTINUOUS
 10
362.6934101343
 20
31.1520332377
 11
362.6934101343
 21
30.5067593033
 12
362.4043477445
 22
30.5067593033
 13
362.4043477445
 23
30.5067593033
  0
SOLID
  8
0
 62
7
  6
CONTINUOUS
 10
363.4449727445
 20
31.506933758
 11
363.8496603548
 21
31.5391977507
 12
364.1965353548
 22
31.5391977507
 13
364.1965353548
 23
31.5391977507
  0
SOLID
  8
0
 62
7
  6
CONTINUOUS
 10
364.1965353548
 20
31.5391977507
 11
364.543410024
 21
31.506933758
 12
363.4449727445
 22
31.506933758
 13
363.4449727445
 23
31.506933758
  0
SOLID
  8
0
 62
7
  6
CONTINUOUS
 10
363.3293478548
 20
31.4746706537
 11
363.4449727445
 21
31.506933758
 12
364.543410024
 22
31.506933758
 13
364.543410024
 23
31.506933758
  0
SOLID
  8
0
 62
7
  6
CONTINUOUS
 10
364.543410024
 20
31.506933758
 11
364.716847524
 21
31.4424063504
 12
363.3293478548
 22
31.4746706537
 13
363.3293478548
 23
31.4746706537
  0
SOLID
  8
0
 62
7
  6
CONTINUOUS
 10
363.2137226343
 20
31.4101417797
 11
363.3293478548
 21
31.4746706537
 12
364.716847524
 22
31.4424063504
 13
364.716847524
 23
31.4424063504
  0
SOLID
  8
0
 62
7
  6
CONTINUOUS
 10
363.2137226343
 20
31.4101417797
 11
364.716847524
 21
31.4424063504
 12
363.8496603548
 22
31.4101417797
 13
363.8496603548
 23
31.4101417797
  0
SOLID
  8
0
 62
7
  6
CONTINUOUS
 10
363.8496603548
 20
31.4101417797
 11
364.716847524
 21
31.4424063504
 12
364.1965353548
 22
31.4101417797
 13
364.1965353548
 23
31.4101417797
  0
SOLID
  8
0
 62
7
  6
CONTINUOUS
 10
364.1965353548
 20
31.4101417797
 11
364.716847524
 21
31.4424063504
 12
364.4277854651
 22
31.3778793357
 13
364.4277854651
 23
31.3778793357
  0
SOLID
  8
0
 62
7
  6
CONTINUOUS
 10
364.716847524
 20
31.4424063504
 11
364.8324727445
 21
31.3778793357
 12
364.4277854651
 22
31.3778793357
 13
364.4277854651
 23
31.3778793357
  0
SOLID
  8
0
 62
7
  6
CONTINUOUS
 10
363.1559103548
 20
31.3456153429
 11
363.2137226343
 21
31.4101417797
 12
363.8496603548
 22
31.4101417797
 13
363.8496603548
 23
31.4101417797
  0
SOLID
  8
0
 62
7
  6
CONTINUOUS
 10
364.543410024
 20
31.3456153429
 11
364.4277854651
 21
31.3778793357
 12
364.8324727445
 22
31.3778793357
 13
364.8324727445
 23
31.3778793357
  0
SOLID
  8
0
 62
7
  6
CONTINUOUS
 10
364.543410024
 20
31.3456153429
 11
364.8324727445
 21
31.3778793357
 12
364.6012229651
 22
31.2810881318
 13
364.6012229651
 23
31.2810881318
  0
SOLID
  8
0
 62
7
  6
CONTINUOUS
 10
364.8324727445
 20
31.3778793357
 11
364.890285024
 21
31.2810881318
 12
364.6012229651
 22
31.2810881318
 13
364.6012229651
 23
31.2810881318
  0
SOLID
  8
0
 62
7
  6
CONTINUOUS
 10
364.6012229651
 20
31.1842964734
 11
364.6012229651
 21
31.2810881318
 12
364.890285024
 22
31.2810881318
 13
364.890285024
 23
31.2810881318
  0
SOLID
  8
0
 62
7
  6
CONTINUOUS
 10
364.6012229651
 20
31.1842964734
 11
364.890285024
 21
31.2810881318
 12
364.6012229651
 22
31.0552422931
 13
364.6012229651
 23
31.0552422931
  0
SOLID
  8
0
 62
7
  6
CONTINUOUS
 10
364.6012229651
 20
31.0552422931
 11
364.890285024
 21
31.2810881318
 12
364.6012229651
 22
30.8616599362
 13
364.6012229651
 23
30.8616599362
  0
SOLID
  8
0
 62
7
  6
CONTINUOUS
 10
364.890285024
 20
31.2810881318
 11
364.890285024
 21
30.7648681127
 12
364.6012229651
 22
30.8616599362
 13
364.6012229651
 23
30.8616599362
  0
SOLID
  8
0
 62
7
  6
CONTINUOUS
 10
366.798097524
 20
31.5069339419
 11
367.0293479651
 21
31.5391976292
 12
367.2605977445
 22
31.5391976292
 13
367.2605977445
 23
31.5391976292
  0
SOLID
  8
0
 62
7
  6
CONTINUOUS
 10
367.2605977445
 20
31.5391976292
 11
367.4340352445
 21
31.5069339419
 12
366.798097524
 22
31.5069339419
 13
366.798097524
 23
31.5069339419
  0
SOLID
  8
0
 62
7
  6
CONTINUOUS
 10
366.624660024
 20
31.4424065674
 11
366.798097524
 21
31.5069339419
 12
367.4340352445
 22
31.5069339419
 13
367.4340352445
 23
31.5069339419
  0
SOLID
  8
0
 62
7
  6
CONTINUOUS
 10
367.4340352445
 20
31.5069339419
 11
367.6074727445
 21
31.4424065674
 12
366.624660024
 22
31.4424065674
 13
366.624660024
 23
31.4424065674
  0
SOLID
  8
0
 62
7
  6
CONTINUOUS
 10
367.6074727445
 20
31.4424065674
 11
367.0293479651
 21
31.4101420472
 12
366.624660024
 22
31.4424065674
 13
366.624660024
 23
31.4424065674
  0
SOLID
  8
0
 62
7
  6
CONTINUOUS
 10
366.5090354651
 20
31.377879193
 11
366.624660024
 21
31.4424065674
 12
367.0293479651
 22
31.4101420472
 13
367.0293479651
 23
31.4101420472
  0
SOLID
  8
0
 62
7
  6
CONTINUOUS
 10
367.0293479651
 20
31.4101420472
 11
366.798097524
 21
31.377879193
 12
366.5090354651
 22
31.377879193
 13
366.5090354651
 23
31.377879193
  0
SOLID
  8
0
 62
7
  6
CONTINUOUS
 10
367.0293479651
 20
31.4101420472
 11
367.6074727445
 21
31.4424065674
 12
367.2605977445
 22
31.377879193
 13
367.2605977445
 23
31.377879193
  0
SOLID
  8
0
 62
7
  6
CONTINUOUS
 10
367.6074727445
 20
31.4424065674
 11
367.7230979651
 21
31.377879193
 12
367.2605977445
 22
31.377879193
 13
367.2605977445
 23
31.377879193
  0
SOLID
  8
0
 62
7
  6
CONTINUOUS
 10
367.3762229651
 20
31.345614957
 11
367.2605977445
 21
31.377879193
 12
367.7230979651
 22
31.377879193
 13
367.7230979651
 23
31.377879193
  0
SOLID
  8
0
 62
7
  6
CONTINUOUS
 10
367.3762229651
 20
31.345614957
 11
367.7230979651
 21
31.377879193
 12
367.491847524
 22
31.2810881312
 13
367.491847524
 23
31.2810881312
  0
SOLID
  8
0
 62
7
  6
CONTINUOUS
 10
367.7230979651
 20
31.377879193
 11
367.7809102445
 21
31.2810881312
 12
367.491847524
 22
31.2810881312
 13
367.491847524
 23
31.2810881312
  0
SOLID
  8
0
 62
7
  6
CONTINUOUS
 10
367.5496604651
 20
31.119769695
 11
367.491847524
 21
31.2810881312
 12
367.7809102445
 22
31.2810881312
 13
367.7809102445
 23
31.2810881312
  0
SOLID
  8
0
 62
7
  6
CONTINUOUS
 10
367.7809102445
 20
31.2810881312
 11
367.838722524
 21
31.119769695
 12
367.5496604651
 22
31.119769695
 13
367.5496604651
 23
31.119769695
  0
SOLID
  8
0
 62
7
  6
CONTINUOUS
 10
366.798097524
 20
31.377879193
 11
366.624660024
 21
31.3133521701
 12
366.5090354651
 22
31.377879193
 13
366.5090354651
 23
31.377879193
  0
SOLID
  8
0
 62
7
  6
CONTINUOUS
 10
366.624660024
 20
31.3133521701
 11
366.5090354651
 21
31.2488235635
 12
366.5090354651
 22
31.377879193
 13
366.5090354651
 23
31.377879193
  0
SOLID
  8
0
 62
7
  6
CONTINUOUS
 10
366.5090354651
 20
31.2488235635
 11
366.2199727445
 21
30.5067596374
 12
366.5090354651
 22
31.377879193
 13
366.5090354651
 23
31.377879193
  0
SOLID
  8
0
 62
7
  6
CONTINUOUS
 10
366.5090354651
 20
31.377879193
 11
366.2199727445
 21
30.5067596374
 12
366.5090354651
 22
31.5391976292
 13
366.5090354651
 23
31.5391976292
  0
SOLID
  8
0
 62
7
  6
CONTINUOUS
 10
366.2199727445
 20
30.5067596374
 11
366.2199727445
 21
31.5391976292
 12
366.5090354651
 22
31.5391976292
 13
366.5090354651
 23
31.5391976292
  0
SOLID
  8
0
 62
7
  6
CONTINUOUS
 10
366.5090354651
 20
31.2488235635
 11
366.5090354651
 21
30.5067596374
 12
366.2199727445
 22
30.5067596374
 13
366.2199727445
 23
30.5067596374
  0
SOLID
  8
0
 62
7
  6
CONTINUOUS
 10
367.5496604651
 20
30.5067596374
 11
367.5496604651
 21
31.119769695
 12
367.838722524
 22
31.119769695
 13
367.838722524
 23
31.119769695
  0
SOLID
  8
0
 62
7
  6
CONTINUOUS
 10
367.838722524
 20
31.119769695
 11
367.838722524
 21
30.5067596374
 12
367.5496604651
 22
30.5067596374
 13
367.5496604651
 23
30.5067596374
  0
SOLID
  8
0
 62
7
  6
CONTINUOUS
 10
368.6480977445
 20
31.5069334157
 11
368.9949727445
 21
31.539197762
 12
369.3418477445
 22
31.539197762
 13
369.3418477445
 23
31.539197762
  0
SOLID
  8
0
 62
7
  6
CONTINUOUS
 10
369.3418477445
 20
31.539197762
 11
369.6887227445
 21
31.5069334157
 12
368.6480977445
 22
31.5069334157
 13
368.6480977445
 23
31.5069334157
  0
SOLID
  8
0
 62
7
  6
CONTINUOUS
 10
368.4168479651
 20
31.4424063504
 11
368.6480977445
 21
31.5069334157
 12
369.6887227445
 22
31.5069334157
 13
369.6887227445
 23
31.5069334157
  0
SOLID
  8
0
 62
7
  6
CONTINUOUS
 10
368.4168479651
 20
31.4424063504
 11
369.6887227445
 21
31.5069334406
 12
369.8621602445
 22
31.4746706537
 13
369.8621602445
 23
31.4746706537
  0
SOLID
  8
0
 62
7
  6
CONTINUOUS
 10
368.4168479651
 20
31.4424063504
 11
369.8621602445
 21
31.4746706537
 12
368.9949727445
 22
31.4101421267
 13
368.9949727445
 23
31.4101421267
  0
SOLID
  8
0
 62
7
  6
CONTINUOUS
 10
368.9949727445
 20
31.4101421267
 11
369.8621602445
 21
31.4746706537
 12
369.3418477445
 22
31.4101421267
 13
369.3418477445
 23
31.4101421267
  0
SOLID
  8
0
 62
7
  6
CONTINUOUS
 10
369.8621602445
 20
31.4746706537
 11
370.0355977445
 21
31.4101421267
 12
369.3418477445
 22
31.4101421267
 13
369.3418477445
 23
31.4101421267
  0
SOLID
  8
0
 62
7
  6
CONTINUOUS
 10
369.6887227445
 20
31.3778792603
 11
369.3418477445
 21
31.4101421267
 12
370.0355977445
 22
31.4101421267
 13
370.0355977445
 23
31.4101421267
  0
SOLID
  8
0
 62
7
  6
CONTINUOUS
 10
368.3012227445
 20
31.3456148845
 11
368.4168479651
 21
31.4424063504
 12
368.9949727445
 22
31.4101421267
 13
368.9949727445
 23
31.4101421267
  0
SOLID
  8
0
 62
7
  6
CONTINUOUS
 10
369.6887227445
 20
31.3778792603
 11
370.0355977445
 21
31.4101421267
 12
369.8043479651
 22
31.3456148845
 13
369.8043479651
 23
31.3456148845
  0
SOLID
  8
0
 62
7
  6
CONTINUOUS
 10
369.8043479651
 20
31.3456148845
 11
370.0355977445
 21
31.4101421267
 12
369.8621602445
 22
31.281087868
 13
369.8621602445
 23
31.281087868
  0
SOLID
  8
0
 62
7
  6
CONTINUOUS
 10
370.0355977445
 20
31.4101421267
 11
370.1512223035
 21
31.281087868
 12
369.8621602445
 22
31.281087868
 13
369.8621602445
 23
31.281087868
  0
SOLID
  8
0
 62
7
  6
CONTINUOUS
 10
359.4559102445
 20
31.3778792603
 11
358.9355977445
 21
31.3456148963
 12
359.6871602721
 22
31.4101421155
 13
359.6871602721
 23
31.4101421155
  0
SOLID
  8
0
 62
7
  6
CONTINUOUS
 10
358.9355977445
 20
31.3456148963
 11
359.0512227376
 21
31.4101421155
 12
359.6871602721
 22
31.4101421155
 13
359.6871602721
 23
31.4101421155
  0
SOLID
  8
0
 62
7
  6
CONTINUOUS
 10
359.4559102445
 20
31.3778792603
 11
359.3402852307
 21
31.3456148963
 12
358.9355977445
 22
31.3456148963
 13
358.9355977445
 23
31.3456148963
  0
SOLID
  8
0
 62
7
  6
CONTINUOUS
 10
358.8199727462
 20
31.2165607767
 11
358.9355977445
 21
31.3456148963
 12
359.3402852307
 22
31.3456148963
 13
359.3402852307
 23
31.3456148963
  0
SOLID
  8
0
 62
7
  6
CONTINUOUS
 10
363.1559103548
 20
31.3456149608
 11
363.8496603548
 21
31.4101420472
 12
363.6184102445
 22
31.3778792603
 13
363.6184102445
 23
31.3778792603
  0
SOLID
  8
0
 62
7
  6
CONTINUOUS
 10
363.6184102445
 20
31.3778792603
 11
363.5027853548
 21
31.3456149608
 12
363.1559103548
 22
31.3456149608
 13
363.1559103548
 23
31.3456149608
  0
SOLID
  8
0
 62
7
  6
CONTINUOUS
 10
363.1559103548
 20
31.2810878707
 11
363.1559103548
 21
31.3456149608
 12
363.5027853548
 22
31.3456149608
 13
363.5027853548
 23
31.3456149608
  0
SOLID
  8
0
 62
7
  6
CONTINUOUS
 10
363.5027853548
 20
31.3456149608
 11
363.4449727445
 21
31.2810878707
 12
363.1559103548
 22
31.2810878707
 13
363.1559103548
 23
31.2810878707
  0
SOLID
  8
0
 62
7
  6
CONTINUOUS
 10
368.3012227445
 20
31.3456149608
 11
368.9949727445
 21
31.4101420472
 12
368.7637229651
 22
31.3778792603
 13
368.7637229651
 23
31.3778792603
  0
SOLID
  8
0
 62
7
  6
CONTINUOUS
 10
368.7637229651
 20
31.3778792603
 11
368.6480977445
 21
31.3456149608
 12
368.3012227445
 22
31.3456149608
 13
368.3012227445
 23
31.3456149608
  0
SOLID
  8
0
 62
7
  6
CONTINUOUS
 10
368.3012227445
 20
31.2810878707
 11
368.3012227445
 21
31.3456149608
 12
368.6480977445
 22
31.3456149608
 13
368.6480977445
 23
31.3456149608
  0
SOLID
  8
0
 62
7
  6
CONTINUOUS
 10
368.6480977445
 20
31.3456149608
 11
368.5902854651
 21
31.2810878707
 12
368.3012227445
 22
31.2810878707
 13
368.3012227445
 23
31.2810878707
  0
SOLID
  8
0
 62
7
  6
CONTINUOUS
 10
368.4168479651
 20
31.1520336865
 11
368.3012227445
 21
31.2810878707
 12
368.5902854651
 22
31.2810878707
 13
368.5902854651
 23
31.2810878707
  0
SOLID
  8
0
 62
7
  6
CONTINUOUS
 10
358.8199727462
 20
31.2165607767
 11
359.3402852307
 21
31.345614957
 12
359.1668477307
 22
31.2488235635
 13
359.1668477307
 23
31.2488235635
  0
SOLID
  8
0
 62
7
  6
CONTINUOUS
 10
359.1668477307
 20
31.2488235635
 11
359.1090352445
 21
31.1842964734
 12
358.8199727462
 22
31.2165607767
 13
358.8199727462
 23
31.2165607767
  0
SOLID
  8
0
 62
7
  6
CONTINUOUS
 10
358.7621602445
 20
31.0229779898
 11
358.8199727462
 21
31.2165607767
 12
359.1090352445
 22
31.1842964734
 13
359.1090352445
 23
31.1842964734
  0
SOLID
  8
0
 62
7
  6
CONTINUOUS
 10
363.6184102445
 20
31.1520336865
 11
363.9652852445
 21
31.1842964611
 12
364.6012229651
 22
31.1842964611
 13
364.6012229651
 23
31.1842964611
  0
SOLID
  8
0
 62
7
  6
CONTINUOUS
 10
363.6184102445
 20
31.1520336865
 11
364.6012229651
 21
31.1842964611
 12
363.3871601343
 22
31.0875057863
 13
363.3871601343
 23
31.0875057863
  0
SOLID
  8
0
 62
7
  6
CONTINUOUS
 10
363.3871601343
 20
31.0875057863
 11
364.6012229651
 21
31.1842964611
 12
363.9652852445
 22
31.0552422808
 13
363.9652852445
 23
31.0552422808
  0
SOLID
  8
0
 62
7
  6
CONTINUOUS
 10
364.6012229651
 20
31.1842964611
 11
364.6012229651
 21
31.0552422808
 12
363.9652852445
 22
31.0552422808
 13
363.9652852445
 23
31.0552422808
  0
SOLID
  8
0
 62
7
  6
CONTINUOUS
 10
368.4168479651
 20
31.1520338754
 11
368.5902854651
 21
31.2810878668
 12
368.6480977445
 22
31.2165607767
 13
368.6480977445
 23
31.2165607767
  0
SOLID
  8
0
 62
7
  6
CONTINUOUS
 10
368.6480977445
 20
31.2165607767
 11
368.8215352445
 21
31.1520338754
 12
368.4168479651
 22
31.1520338754
 13
368.4168479651
 23
31.1520338754
  0
SOLID
  8
0
 62
7
  6
CONTINUOUS
 10
368.6480977445
 20
31.0552422931
 11
368.4168479651
 21
31.1520338754
 12
368.8215352445
 22
31.1520338754
 13
368.8215352445
 23
31.1520338754
  0
SOLID
  8
0
 62
7
  6
CONTINUOUS
 10
368.8215352445
 20
31.1520338754
 11
369.8043479651
 21
30.9907152029
 12
368.6480977445
 22
31.0552422931
 13
368.6480977445
 23
31.0552422931
  0
SOLID
  8
0
 62
7
  6
CONTINUOUS
 10
369.6309104651
 20
30.8939239876
 11
368.6480977445
 21
31.0552422931
 12
369.8043479651
 22
30.9907152029
 13
369.8043479651
 23
30.9907152029
  0
SOLID
  8
0
 62
7
  6
CONTINUOUS
 10
369.8043479651
 20
30.9907152029
 11
370.0355977445
 21
30.8939239876
 12
369.6309104651
 22
30.8939239876
 13
369.6309104651
 23
30.8939239876
  0
SOLID
  8
0
 62
7
  6
CONTINUOUS
 10
369.8043479651
 20
30.8293967193
 11
369.6309104651
 21
30.8939239876
 12
370.0355977445
 22
30.8939239876
 13
370.0355977445
 23
30.8939239876
  0
SOLID
  8
0
 62
7
  6
CONTINUOUS
 10
369.8043479651
 20
30.8293967193
 11
370.0355977445
 21
30.8939239876
 12
369.8621602445
 22
30.7648682694
 13
369.8621602445
 23
30.7648682694
  0
SOLID
  8
0
 62
7
  6
CONTINUOUS
 10
370.0355977445
 20
30.8939239876
 11
370.1512223035
 21
30.7648682694
 12
369.8621602445
 22
30.7648682694
 13
369.8621602445
 23
30.7648682694
  0
SOLID
  8
0
 62
7
  6
CONTINUOUS
 10
369.8043479651
 20
30.7003411846
 11
369.8621602445
 21
30.7648682694
 12
370.1512223035
 22
30.7648682694
 13
370.1512223035
 23
30.7648682694
  0
SOLID
  8
0
 62
7
  6
CONTINUOUS
 10
370.1512223035
 20
30.7648682694
 11
370.1512223035
 21
30.7003411846
 12
369.8043479651
 22
30.7003411846
 13
369.8043479651
 23
30.7003411846
  0
SOLID
  8
0
 62
7
  6
CONTINUOUS
 10
369.6887227445
 20
30.6680782357
 11
369.8043479651
 21
30.7003411846
 12
370.1512223035
 22
30.7003411846
 13
370.1512223035
 23
30.7003411846
  0
SOLID
  8
0
 62
7
  6
CONTINUOUS
 10
369.6887227445
 20
30.6680782357
 11
370.1512223035
 21
30.7003411846
 12
369.4574729651
 22
30.6358140998
 13
369.4574729651
 23
30.6358140998
  0
SOLID
  8
0
 62
7
  6
CONTINUOUS
 10
370.1512223035
 20
30.7003411846
 11
370.0355977445
 21
30.6035511455
 12
369.4574729651
 22
30.6358140998
 13
369.4574729651
 23
30.6358140998
  0
SOLID
  8
0
 62
7
  6
CONTINUOUS
 10
370.0355977445
 20
30.6035511455
 11
368.5902854651
 21
30.5712868422
 12
369.4574729651
 22
30.6358140998
 13
369.4574729651
 23
30.6358140998
  0
SOLID
  8
0
 62
7
  6
CONTINUOUS
 10
369.4574729651
 20
30.6358140998
 11
368.5902854651
 21
30.5712868422
 12
369.1105979651
 22
30.6358140998
 13
369.1105979651
 23
30.6358140998
  0
SOLID
  8
0
 62
7
  6
CONTINUOUS
 10
368.5902854651
 20
30.5712868422
 11
368.4168479651
 21
30.6358140998
 12
369.1105979651
 22
30.6358140998
 13
369.1105979651
 23
30.6358140998
  0
SOLID
  8
0
 62
7
  6
CONTINUOUS
 10
368.5902854651
 20
30.5712868422
 11
370.0355977445
 21
30.6035511455
 12
368.7637229651
 22
30.5390223111
 13
368.7637229651
 23
30.5390223111
  0
SOLID
  8
0
 62
7
  6
CONTINUOUS
 10
370.0355977445
 20
30.6035511455
 11
369.8043479651
 21
30.5390223111
 12
368.7637229651
 22
30.5390223111
 13
368.7637229651
 23
30.5390223111
  0
SOLID
  8
0
 62
7
  6
CONTINUOUS
 10
369.1105979651
 20
30.5067599302
 11
368.7637229651
 21
30.5390223111
 12
369.8043479651
 22
30.5390223111
 13
369.8043479651
 23
30.5390223111
  0
SOLID
  8
0
 62
7
  6
CONTINUOUS
 10
369.8043479651
 20
30.5390223111
 11
369.4574729651
 21
30.5067599302
 12
369.1105979651
 22
30.5067599302
 13
369.1105979651
 23
30.5067599302
  0
SOLID
  8
0
 62
7
  6
CONTINUOUS
 10
358.7621602445
 20
31.0229779898
 11
359.1090352445
 21
31.1842964734
 12
359.0512227376
 22
31.0552422931
 13
359.0512227376
 23
31.0552422931
  0
SOLID
  8
0
 62
7
  6
CONTINUOUS
 10
359.0512227376
 20
31.0552422931
 11
359.0512227376
 21
30.9584509954
 12
358.7621602445
 22
31.0229779898
 13
358.7621602445
 23
31.0229779898
  0
SOLID
  8
0
 62
7
  6
CONTINUOUS
 10
358.8199727462
 20
30.8293967193
 11
358.7621602445
 21
31.0229779898
 12
359.0512227376
 22
30.9584509954
 13
359.0512227376
 23
30.9584509954
  0
SOLID
  8
0
 62
7
  6
CONTINUOUS
 10
359.0512227376
 20
30.9584509954
 11
359.1668477307
 21
30.797132416
 12
358.8199727462
 22
30.8293967193
 13
358.8199727462
 23
30.8293967193
  0
SOLID
  8
0
 62
7
  6
CONTINUOUS
 10
358.9355977445
 20
30.7003413087
 11
358.8199727462
 21
30.8293967193
 12
359.1668477307
 22
30.797132416
 13
359.1668477307
 23
30.797132416
  0
SOLID
  8
0
 62
7
  6
CONTINUOUS
 10
359.1668477307
 20
30.797132416
 11
359.3402852307
 21
30.7003413087
 12
358.9355977445
 22
30.7003413087
 13
358.9355977445
 23
30.7003413087
  0
SOLID
  8
0
 62
7
  6
CONTINUOUS
 10
359.0512227376
 20
30.6358140759
 11
358.9355977445
 21
30.7003413087
 12
359.3402852307
 22
30.7003413087
 13
359.3402852307
 23
30.7003413087
  0
SOLID
  8
0
 62
7
  6
CONTINUOUS
 10
359.3402852307
 20
30.7003413087
 11
359.6871602721
 21
30.6358140759
 12
359.0512227376
 22
30.6358140759
 13
359.0512227376
 23
30.6358140759
  0
SOLID
  8
0
 62
7
  6
CONTINUOUS
 10
359.2246602583
 20
30.5712868422
 11
359.0512227376
 21
30.6358140759
 12
359.6871602721
 22
30.6358140759
 13
359.6871602721
 23
30.6358140759
  0
SOLID
  8
0
 62
7
  6
CONTINUOUS
 10
363.2715352445
 20
31.0229779808
 11
363.3871601343
 21
31.0875057863
 12
363.9652852445
 22
31.0552422931
 13
363.9652852445
 23
31.0552422931
  0
SOLID
  8
0
 62
7
  6
CONTINUOUS
 10
363.9652852445
 20
31.0552422931
 11
363.7340351343
 21
31.0229779808
 12
363.2715352445
 22
31.0229779808
 13
363.2715352445
 23
31.0229779808
  0
SOLID
  8
0
 62
7
  6
CONTINUOUS
 10
363.1559103548
 20
30.8939238094
 11
363.2715352445
 21
31.0229779808
 12
363.7340351343
 22
31.0229779808
 13
363.7340351343
 23
31.0229779808
  0
SOLID
  8
0
 62
7
  6
CONTINUOUS
 10
363.5027853548
 20
30.926187309
 11
363.1559103548
 21
30.8939238094
 12
363.6184102445
 22
30.9907152029
 13
363.6184102445
 23
30.9907152029
  0
SOLID
  8
0
 62
7
  6
CONTINUOUS
 10
363.1559103548
 20
30.8939238094
 11
363.7340351343
 21
31.0229779898
 12
363.6184102445
 22
30.9907152029
 13
363.6184102445
 23
30.9907152029
  0
SOLID
  8
0
 62
7
  6
CONTINUOUS
 10
363.5027853548
 20
30.926187309
 11
363.4449727445
 21
30.8293967193
 12
363.1559103548
 22
30.8939238094
 13
363.1559103548
 23
30.8939238094
  0
SOLID
  8
0
 62
7
  6
CONTINUOUS
 10
363.1559103548
 20
30.797132416
 11
363.1559103548
 21
30.8939238094
 12
363.4449727445
 22
30.8293967193
 13
363.4449727445
 23
30.8293967193
  0
SOLID
  8
0
 62
7
  6
CONTINUOUS
 10
363.4449727445
 20
30.8293967193
 11
363.4449727445
 21
30.7648681127
 12
363.1559103548
 22
30.797132416
 13
363.1559103548
 23
30.797132416
  0
SOLID
  8
0
 62
7
  6
CONTINUOUS
 10
363.2137226343
 20
30.6680782357
 11
363.1559103548
 21
30.797132416
 12
363.4449727445
 22
30.7648681127
 13
363.4449727445
 23
30.7648681127
  0
SOLID
  8
0
 62
7
  6
CONTINUOUS
 10
364.6012229651
 20
30.8616599362
 11
364.890285024
 21
30.7648681127
 12
364.543410024
 22
30.797132416
 13
364.543410024
 23
30.797132416
  0
SOLID
  8
0
 62
7
  6
CONTINUOUS
 10
364.369972524
 20
30.7003410226
 11
364.543410024
 21
30.797132416
 12
364.890285024
 22
30.7648681127
 13
364.890285024
 23
30.7648681127
  0
SOLID
  8
0
 62
7
  6
CONTINUOUS
 10
364.369972524
 20
30.7003410226
 11
364.890285024
 21
30.7648681127
 12
364.6012229651
 22
30.6680782357
 13
364.6012229651
 23
30.6680782357
  0
SOLID
  8
0
 62
7
  6
CONTINUOUS
 10
364.890285024
 20
30.7648681127
 11
364.9480979651
 21
30.6035511455
 12
364.6012229651
 22
30.6680782357
 13
364.6012229651
 23
30.6680782357
  0
SOLID
  8
0
 62
7
  6
CONTINUOUS
 10
364.6590352445
 20
30.5712868422
 11
364.6012229651
 21
30.6680782357
 12
364.9480979651
 22
30.6035511455
 13
364.9480979651
 23
30.6035511455
  0
SOLID
  8
0
 62
7
  6
CONTINUOUS
 10
364.6590352445
 20
30.5712868422
 11
364.9480979651
 21
30.6035511455
 12
364.716847524
 22
30.5067598731
 13
364.716847524
 23
30.5067598731
  0
SOLID
  8
0
 62
7
  6
CONTINUOUS
 10
364.9480979651
 20
30.6035511455
 11
365.0059102445
 21
30.5067598731
 12
364.716847524
 22
30.5067598731
 13
364.716847524
 23
30.5067598731
  0
SOLID
  8
0
 62
7
  6
CONTINUOUS
 10
360.2652852997
 20
30.7326051679
 11
360.3230977445
 21
30.8293966612
 12
360.6121602997
 22
30.8293966612
 13
360.6121602997
 23
30.8293966612
  0
SOLID
  8
0
 62
7
  6
CONTINUOUS
 10
360.6121602997
 20
30.8293966612
 11
360.5543476894
 21
30.7003410226
 12
360.2652852997
 22
30.7326051679
 13
360.2652852997
 23
30.7326051679
  0
SOLID
  8
0
 62
7
  6
CONTINUOUS
 10
360.091847717
 20
30.6680782357
 11
360.2652852997
 21
30.7326051679
 12
360.5543476894
 22
30.7003410226
 13
360.5543476894
 23
30.7003410226
  0
SOLID
  8
0
 62
7
  6
CONTINUOUS
 10
360.091847717
 20
30.6680782357
 11
360.5543476894
 21
30.7003410226
 12
359.6871602721
 22
30.6358139324
 13
359.6871602721
 23
30.6358139324
  0
SOLID
  8
0
 62
7
  6
CONTINUOUS
 10
360.5543476894
 20
30.7003410226
 11
360.3809101894
 21
30.6035511455
 12
359.6871602721
 22
30.6358139324
 13
359.6871602721
 23
30.6358139324
  0
SOLID
  8
0
 62
7
  6
CONTINUOUS
 10
359.2246602583
 20
30.5712868422
 11
359.6871602721
 21
30.6358139324
 12
360.3809101894
 22
30.6035511455
 13
360.3809101894
 23
30.6035511455
  0
SOLID
  8
0
 62
7
  6
CONTINUOUS
 10
359.2246602583
 20
30.5712868422
 11
360.3809101894
 21
30.6035511455
 12
359.3980977583
 22
30.5390224228
 13
359.3980977583
 23
30.5390224228
  0
SOLID
  8
0
 62
7
  6
CONTINUOUS
 10
360.3809101894
 20
30.6035511455
 11
360.1496602445
 21
30.5390224228
 12
359.3980977583
 22
30.5390224228
 13
359.3980977583
 23
30.5390224228
  0
SOLID
  8
0
 62
7
  6
CONTINUOUS
 10
359.744972717
 20
30.5067597521
 11
359.3980977583
 21
30.5390224228
 12
360.1496602445
 22
30.5390224228
 13
360.1496602445
 23
30.5390224228
  0
SOLID
  8
0
 62
7
  6
CONTINUOUS
 10
363.2137226343
 20
30.6680782357
 11
363.4449727445
 21
30.7648681127
 12
363.5027853548
 22
30.7003410226
 13
363.5027853548
 23
30.7003410226
  0
SOLID
  8
0
 62
7
  6
CONTINUOUS
 10
363.5027853548
 20
30.7003410226
 11
363.7340351343
 21
30.6358139324
 12
363.2137226343
 22
30.6680782357
 13
363.2137226343
 23
30.6680782357
  0
SOLID
  8
0
 62
7
  6
CONTINUOUS
 10
363.3871601343
 20
30.5712868422
 11
363.2137226343
 21
30.6680782357
 12
363.7340351343
 22
30.6358139324
 13
363.7340351343
 23
30.6358139324
  0
SOLID
  8
0
 62
7
  6
CONTINUOUS
 10
364.0809101343
 20
30.6358139363
 11
364.369972524
 21
30.7003410226
 12
364.6012229651
 22
30.6680782357
 13
364.6012229651
 23
30.6680782357
  0
SOLID
  8
0
 62
7
  6
CONTINUOUS
 10
364.6012229651
 20
30.6680782357
 11
364.543410024
 21
30.6035511455
 12
364.0809101343
 22
30.6358139363
 13
364.0809101343
 23
30.6358139363
  0
SOLID
  8
0
 62
7
  6
CONTINUOUS
 10
364.543410024
 20
30.6035511455
 11
363.3871601343
 21
30.5712868422
 12
364.0809101343
 22
30.6358139363
 13
364.0809101343
 23
30.6358139363
  0
SOLID
  8
0
 62
7
  6
CONTINUOUS
 10
363.3871601343
 20
30.5712868422
 11
363.7340351343
 21
30.6358139363
 12
364.0809101343
 22
30.6358139363
 13
364.0809101343
 23
30.6358139363
  0
SOLID
  8
0
 62
7
  6
CONTINUOUS
 10
363.3871601343
 20
30.5712868422
 11
364.543410024
 21
30.6035511455
 12
363.5027853548
 22
30.5390225267
 13
363.5027853548
 23
30.5390225267
  0
SOLID
  8
0
 62
7
  6
CONTINUOUS
 10
364.543410024
 20
30.6035511455
 11
364.369972524
 21
30.5390225267
 12
363.5027853548
 22
30.5390225267
 13
363.5027853548
 23
30.5390225267
  0
SOLID
  8
0
 62
7
  6
CONTINUOUS
 10
363.7340351343
 20
30.5067596914
 11
363.5027853548
 21
30.5390225267
 12
364.369972524
 22
30.5390225267
 13
364.369972524
 23
30.5390225267
  0
SOLID
  8
0
 62
7
  6
CONTINUOUS
 10
364.369972524
 20
30.5390225267
 11
364.0809101343
 21
30.5067596914
 12
363.7340351343
 22
30.5067596914
 13
363.7340351343
 23
30.5067596914
  0
SOLID
  8
0
 62
7
  6
CONTINUOUS
 10
368.7637229651
 20
30.6680782357
 11
368.4168479651
 21
30.6358138717
 12
368.6480977445
 22
30.7003410226
 13
368.6480977445
 23
30.7003410226
  0
SOLID
  8
0
 62
7
  6
CONTINUOUS
 10
368.6480977445
 20
30.7003410226
 11
368.4168479651
 21
30.6358138717
 12
368.5902854651
 22
30.7648680521
 13
368.5902854651
 23
30.7648680521
  0
SOLID
  8
0
 62
7
  6
CONTINUOUS
 10
368.4168479651
 20
30.6358138717
 11
368.3012227445
 21
30.7648680521
 12
368.5902854651
 22
30.7648680521
 13
368.5902854651
 23
30.7648680521
  0
SOLID
  8
0
 62
7
  6
CONTINUOUS
 10
368.7637229651
 20
30.6680782357
 11
369.1105979651
 21
30.6358138717
 12
368.4168479651
 22
30.6358138717
 13
368.4168479651
 23
30.6358138717
  0
SOLID
  8
0
 62
7
  6
CONTINUOUS
 10
365.4684104651
 20
30.5067597521
 11
365.4684104651
 21
31.5391977439
 12
365.757472524
 22
30.5067597521
 13
365.757472524
 23
31.5391977439
  0
ENDBLK
  8
0
  6
BYBLOCK
 62
0
  0
BLOCK
  8
0
 62
2
  6
CONTINUOUS
  2
SYMBOL_0_BL0
 70
64
 10
240.8592468615
 20
19.762288695
  0
TEXT
  8
0
 62
7
  6
CONTINUOUS
 10
227.1239507038
 20
19.1357028027
  7
TEXTSTYLE_3
 40
2.7338706658
  1
Ammeraal Beltech
 41
1.0
 51
15.0
 72
0
  0
TEXT
  8
0
 62
7
  6
CONTINUOUS
 10
237.9247515296
 20
16.8621661299
  7
TEXTSTYLE_4
 40
1.0935482663
  1
Innovation & Service in Belting
 41
1.0
 72
0
  0
LINE
  8
0
 62
7
  6
CONTINUOUS
 10
221.0994100525
 20
19.9022961113
 11
221.8775620458
 21
23.5632134089
  0
LINE
  8
0
 62
7
  6
CONTINUOUS
 10
231.9727303357
 20
27.2266073205
 11
222.3653797889
 21
24.1049898993
  0
LINE
  8
0
 62
7
  6
CONTINUOUS
 10
221.3246933848
 20
19.2089453082
 11
228.8317686459
 21
12.4495443822
  0
LINE
  8
0
 62
7
  6
CONTINUOUS
 10
221.5872277955
 20
20.4440726016
 11
232.3954971607
 21
23.9558922005
  0
LINE
  8
0
 62
7
  6
CONTINUOUS
 10
232.3912920235
 20
13.6061036368
 11
223.9458323548
 21
21.2104296785
  0
LINE
  8
0
 62
7
  6
CONTINUOUS
 10
232.9111147433
 20
26.3816822048
 11
231.9345552061
 21
21.7873308023
  0
LINE
  8
0
 62
7
  6
CONTINUOUS
 10
231.2347532584
 20
18.4950214885
 11
230.5483050469
 21
15.2655365641
  0
LINE
  8
0
 62
7
  6
CONTINUOUS
 10
233.5922108419
 20
13.9963058145
 11
234.5484423775
 21
18.4950214885
  0
LINE
  8
0
 62
7
  6
CONTINUOUS
 10
235.2482443252
 20
21.7873308023
 11
235.6924861276
 21
23.8773241617
  0
LINE
  8
0
 62
7
  6
CONTINUOUS
 10
229.5448697213
 20
12.2979700695
 11
233.1043930989
 21
13.4545293241
  0
LINE
  8
0
 62
7
  6
CONTINUOUS
 10
232.685831411
 20
27.0750330078
 11
235.4672027953
 21
24.5706749648
  0
ARC
  8
0
 62
7
  6
CONTINUOUS
 10
222.5906631212
 20
23.4116390962
 40
0.7290321776
 50
108.0
 51
168.0
  0
ARC
  8
0
 62
7
  6
CONTINUOUS
 10
232.198013668
 20
26.5332565175
 40
0.7290321776
 50
348.0
 51
108.0
  0
ARC
  8
0
 62
7
  6
CONTINUOUS
 10
234.9793850522
 20
24.0288984744
 40
0.7290321776
 50
348.0
 51
48.0
  0
ARC
  8
0
 62
7
  6
CONTINUOUS
 10
229.319586389
 20
12.9913208726
 40
0.7290321776
 50
228.0
 51
288.0
  0
ARC
  8
0
 62
7
  6
CONTINUOUS
 10
221.8125111278
 20
19.7507217986
 40
0.7290321776
 50
108.0
 51
228.0
  0
ARC
  8
0
 62
7
  6
CONTINUOUS
 10
232.8791097665
 20
14.1478801272
 40
0.7290321776
 50
228.0
 51
348.0
  0
ENDBLK
  8
0
  6
BYBLOCK
 62
0
  0
ENDSEC
  0
SECTION
  2
ENTITIES
  0
TEXT
  8
0
 62
5
  6
CONTINUOUS
 10
304.937007874
 20
25.636
  7
TEXTSTYLE_2
 40
2.8
  1
Scale :
 41
0.6
 51
0.000019
 72
0
  0
TEXT
  8
0
 62
5
  6
CONTINUOUS
 10
324.937007874
 20
25.636
  7
TEXTSTYLE_2
 40
2.8
  1
Belt type:
 41
0.6
 51
0.000019
 72
0
  0
INSERT
  8
0
 62
2
  6
CONTINUOUS
  2
SYMBOL_0_BL0
 10
240.8592468615
 20
19.762288695
  0
INSERT
  8
0
 62
2
  6
CONTINUOUS
  2
SYMBOL_5_BL1
 10
382.7840918555
 20
35.5067593403
  0
LINE
  8
0
 62
2
  6
CONTINUOUS
 10
218.937007874
 20
30.0
 11
408.937007874
 21
30.0
  0
LINE
  8
0
 62
2
  6
CONTINUOUS
 10
218.937007874
 20
30.0
 11
218.937007874
 21
10.0
  0
LINE
  8
0
 62
2
  6
CONTINUOUS
 10
218.937007874
 20
10.0
 11
408.937007874
 21
10.0
  0
LINE
  8
0
 62
2
  6
CONTINUOUS
 10
303.937007874
 20
30.0
 11
303.937007874
 21
10.0
  0
LINE
  8
0
 62
2
  6
CONTINUOUS
 10
323.937007874
 20
30.0
 11
323.937007874
 21
10.0
  0
LINE
  8
0
 62
2
  6
CONTINUOUS
 10
408.937007874
 20
30.0
 11
408.937007874
 21
10.0
  0
TEXT
  8
0
 62
5
  6
CONTINUOUS
 10
221.937007874
 20
23.303
  7
TEXTSTYLE_5
 40
1.52
  1
                                                                     Ammeraal Beltech Modular A/S
 41
1.0
 72
0
  0
TEXT
  8
0
 62
5
  6
CONTINUOUS
 10
221.937007874
 20
20.595
  7
TEXTSTYLE_5
 40
1.5
  1
                                                                      Hjulmagervej 21, 7100 Vejle,  DK
 41
1.0
 72
0
  0
TEXT
  8
0
 62
5
  6
CONTINUOUS
 10
221.937007874
 20
17.881
  7
TEXTSTYLE_5
 40
1.495
  1
                                                                      tel: 
 41
1.0
 72
0
  0
TEXT
  8
0
 62
5
  6
CONTINUOUS
 10
266.9239544389
 20
17.881
  7
TEXTSTYLE_5
 40
1.51
  1
+45 75723100     fax: +45 75723348
 41
1.0
 72
0
  0
TEXT
  8
0
 62
5
  6
CONTINUOUS
 10
221.937007874
 20
15.177
  7
TEXTSTYLE_5
 40
1.5
  1
                                                                      admin@unichains.dk  www.unichains.com
 41
1.0
 72
0
  0
TEXT
  8
0
 62
5
  6
CONTINUOUS
 10
308.687007874
 20
13.75
  7
TEXTSTYLE_6
 40
5.0
  1
1:1
 41
0.7
 72
1
 11
313.937007874
 21
13.75
  0
TEXT
  8
0
 62
5
  6
CONTINUOUS
 10
326.937007874
 20
13.75
  7
TEXTSTYLE_7
 40
7.5
  1
Sprocket Z15
 41
0.6361111111
 72
0
  0
LINE
  8
0
 62
7
  6
CONTINUOUS
 10
0.0
 20
0.0
 11
0.0
 21
297.0
  0
LINE
  8
0
 62
7
  6
CONTINUOUS
 10
8.937007874
 20
10.0
 11
8.937007874
 21
287.0
  0
LINE
  8
0
 62
7
  6
CONTINUOUS
 10
0.0
 20
0.0
 11
420.0
 21
0.0
  0
LINE
  8
0
 62
7
  6
CONTINUOUS
 10
408.937007874
 20
10.0
 11
8.937007874
 21
10.0
  0
LINE
  8
0
 62
7
  6
CONTINUOUS
 10
218.937007874
 20
30.0
 11
408.937007874
 21
30.0
  0
LINE
  8
0
 62
7
  6
CONTINUOUS
 10
210.0
 20
297.0
 11
210.0
 21
292.0
  0
LINE
  8
0
 62
7
  6
CONTINUOUS
 10
210.0
 20
0.0
 11
210.0
 21
5.0
  0
LINE
  8
0
 62
7
  6
CONTINUOUS
 10
8.937007874
 20
287.0
 11
408.937007874
 21
287.0
  0
LINE
  8
0
 62
7
  6
CONTINUOUS
 10
0.0
 20
297.0
 11
420.0
 21
297.0
  0
LINE
  8
0
 62
7
  6
CONTINUOUS
 10
408.937007874
 20
287.0
 11
408.937007874
 21
10.0
  0
LINE
  8
0
 62
7
  6
CONTINUOUS
 10
420.0
 20
0.0
 11
420.0
 21
297.0
  0
LINE
  8
0
 62
7
  6
CONTINUOUS
 10
344.3578558647
 20
33.6927900218
 11
354.9014353421
 21
33.6927900218
  0
LINE
  8
0
 62
9
  6
CONTINUOUS
 10
344.611277074
 20
33.7259604098
 11
354.6480227071
 21
33.7259604098
  0
POLYLINE
  8
0
 62
7
  6
CONTINUOUS
 66
1
 70
0
  0
VERTEX
  8
0
 62
7
  6
CONTINUOUS
 10
344.3578221061
 20
33.6927900218
  0
VERTEX
  8
0
 62
7
  6
CONTINUOUS
 10
344.2397013425
 20
33.7005501004
  0
VERTEX
  8
0
 62
7
  6
CONTINUOUS
 10
344.127720581
 20
33.7234651215
  0
VERTEX
  8
0
 62
7
  6
CONTINUOUS
 10
344.0255560241
 20
33.7599218585
  0
VERTEX
  8
0
 62
7
  6
CONTINUOUS
 10
343.9345709329
 20
33.8079268283
  0
VERTEX
  8
0
 62
7
  6
CONTINUOUS
 10
343.8551284177
 20
33.8656359617
  0
VERTEX
  8
0
 62
7
  6
CONTINUOUS
 10
343.7874229571
 20
33.9312075614
  0
VERTEX
  8
0
 62
7
  6
CONTINUOUS
 10
343.7312765357
 20
34.0030513527
  0
VERTEX
  8
0
 62
7
  6
CONTINUOUS
 10
343.6863998365
 20
34.0797224574
  0
VERTEX
  8
0
 62
7
  6
CONTINUOUS
 10
343.6526861809
 20
34.159156244
  0
VERTEX
  8
0
 62
7
  6
CONTINUOUS
 10
343.6296498906
 20
34.2390938192
  0
SEQEND
  0
POLYLINE
  8
0
 62
7
  6
CONTINUOUS
 66
1
 70
0
  0
VERTEX
  8
0
 62
7
  6
CONTINUOUS
 10
344.611277074
 20
33.7259604098
  0
VERTEX
  8
0
 62
7
  6
CONTINUOUS
 10
344.4842925795
 20
33.7011853072
  0
VERTEX
  8
0
 62
7
  6
CONTINUOUS
 10
344.3578221061
 20
33.6927900218
  0
SEQEND
  0
LINE
  8
DEFAULT_2
 62
8
  6
HIDDEN
 10
343.492283693
 20
34.8789207016
 11
355.7670160881
 21
34.8789207016
  0
LINE
  8
0
 62
9
  6
CONTINUOUS
 10
344.611277074
 20
35.151408909
 11
354.6480227071
 21
35.151408909
  0
LINE
  8
0
 62
9
  6
CONTINUOUS
 10
343.492283693
 20
37.0953038266
 11
355.7670160881
 21
37.0953038266
  0
LINE
  8
DEFAULT_2
 62
8
  6
HIDDEN
 10
342.4365929331
 20
40.1709493994
 11
356.822706848
 21
40.1709493994
  0
POLYLINE
  8
0
 62
7
  6
CONTINUOUS
 66
1
 70
0
  0
VERTEX
  8
0
 62
7
  6
CONTINUOUS
 10
354.9014786696
 20
33.6927900218
  0
VERTEX
  8
0
 62
7
  6
CONTINUOUS
 10
354.7745788526
 20
33.7012416865
  0
VERTEX
  8
0
 62
7
  6
CONTINUOUS
 10
354.6480227071
 20
33.7259604098
  0
SEQEND
  0
LINE
  8
0
 62
9
  6
CONTINUOUS
 10
342.4365929331
 20
42.4518252016
 11
356.822706848
 21
42.4518252016
  0
LINE
  8
0
 62
7
  6
CONTINUOUS
 10
334.6296498906
 20
46.5166867996
 11
342.1296498906
 21
46.5166867996
  0
LINE
  8
0
 62
7
  6
CONTINUOUS
 10
357.1296498906
 20
46.5166867996
 11
364.6296498906
 21
46.5166867996
  0
LINE
  8
0
 62
7
  6
CONTINUOUS
 10
334.6296498906
 20
48.984476689
 11
342.1296498906
 21
48.984476689
  0
LINE
  8
0
 62
7
  6
CONTINUOUS
 10
357.1296498906
 20
48.984476689
 11
364.6296498906
 21
48.984476689
  0
POLYLINE
  8
0
 62
7
  6
CONTINUOUS
 66
1
 70
0
  0
VERTEX
  8
0
 62
7
  6
CONTINUOUS
 10
354.6480227071
 20
275.4227519262
  0
VERTEX
  8
0
 62
7
  6
CONTINUOUS
 10
354.7745961036
 20
275.4841685455
  0
VERTEX
  8
0
 62
7
  6
CONTINUOUS
 10
354.8993185643
 20
275.5299567742
  0
VERTEX
  8
0
 62
7
  6
CONTINUOUS
 10
355.0191192729
 20
275.5595316768
  0
VERTEX
  8
0
 62
7
  6
CONTINUOUS
 10
355.13111231
 20
275.5731340443
  0
VERTEX
  8
0
 62
7
  6
CONTINUOUS
 10
355.1740414439
 20
275.5743202941
  0
SEQEND
  0
LINE
  8
0
 62
7
  6
CONTINUOUS
 10
343.8550578335
 20
53.4939995258
 11
355.4042236054
 21
53.4939995258
  0
LINE
  8
DEFAULT_2
 62
8
  6
HIDDEN
 10
334.6296498906
 20
53.6865389141
 11
364.6296498906
 21
53.6865389141
  0
LINE
  8
0
 62
9
  6
CONTINUOUS
 10
344.611277074
 20
53.8447514616
 11
354.6480227071
 21
53.8447514616
  0
LINE
  8
DEFAULT_2
 62
8
  6
HIDDEN
 10
343.492283693
 20
54.0074198188
 11
355.7670160881
 21
54.0074198188
  0
LINE
  8
DEFAULT_2
 62
8
  6
HIDDEN
 10
334.6296498906
 20
55.0613247186
 11
364.6296498906
 21
55.0613247186
  0
LINE
  8
0
 62
9
  6
CONTINUOUS
 10
344.611277074
 20
57.8746239638
 11
354.6480227071
 21
57.8746239638
  0
LINE
  8
DEFAULT_2
 62
8
  6
HIDDEN
 10
342.4365929331
 20
58.319916001
 11
356.822706848
 21
58.319916001
  0
LINE
  8
DEFAULT_2
 62
8
  6
HIDDEN
 10
342.2678835345
 20
59.0814614155
 11
356.9914162467
 21
59.0814614155
  0
LINE
  8
0
 62
9
  6
CONTINUOUS
 10
334.6296498906
 20
59.0814614155
 11
342.2678835345
 21
59.0814614155
  0
LINE
  8
0
 62
9
  6
CONTINUOUS
 10
356.9914162467
 20
59.0814614155
 11
364.6296498906
 21
59.0814614155
  0
POLYLINE
  8
0
 62
7
  6
CONTINUOUS
 66
1
 70
0
  0
VERTEX
  8
0
 62
7
  6
CONTINUOUS
 10
355.4042551335
 20
53.4939995258
  0
VERTEX
  8
0
 62
7
  6
CONTINUOUS
 10
355.3243131469
 20
53.5001271376
  0
VERTEX
  8
0
 62
7
  6
CONTINUOUS
 10
355.2332604283
 20
53.5193746363
  0
VERTEX
  8
0
 62
7
  6
CONTINUOUS
 10
355.1311104715
 20
53.5531859357
  0
VERTEX
  8
0
 62
7
  6
CONTINUOUS
 10
355.0191202201
 20
53.6026437329
  0
VERTEX
  8
0
 62
7
  6
CONTINUOUS
 10
354.8993076139
 20
53.6682015834
  0
VERTEX
  8
0
 62
7
  6
CONTINUOUS
 10
354.7745788526
 20
53.7493355293
  0
VERTEX
  8
0
 62
7
  6
CONTINUOUS
 10
354.6480227071
 20
53.8447514616
  0
SEQEND
  0
POLYLINE
  8
0
 62
7
  6
CONTINUOUS
 66
1
 70
0
  0
VERTEX
  8
0
 62
7
  6
CONTINUOUS
 10
343.8550517219
 20
53.4939995258
  0
VERTEX
  8
0
 62
7
  6
CONTINUOUS
 10
343.7874229571
 20
53.4995303538
  0
VERTEX
  8
0
 62
7
  6
CONTINUOUS
 10
343.7312765357
 20
53.5151604262
  0
VERTEX
  8
0
 62
7
  6
CONTINUOUS
 10
343.6863998365
 20
53.5394733297
  0
VERTEX
  8
0
 62
7
  6
CONTINUOUS
 10
343.6526861809
 20
53.5708145754
  0
VERTEX
  8
0
 62
7
  6
CONTINUOUS
 10
343.6296498906
 20
53.6072899329
  0
SEQEND
  0
POLYLINE
  8
0
 62
7
  6
CONTINUOUS
 66
1
 70
0
  0
VERTEX
  8
0
 62
7
  6
CONTINUOUS
 10
344.611277074
 20
272.6341538673
  0
VERTEX
  8
0
 62
7
  6
CONTINUOUS
 10
344.4842925795
 20
272.5485828202
  0
VERTEX
  8
0
 62
7
  6
CONTINUOUS
 10
344.3594590334
 20
272.4491796754
  0
VERTEX
  8
0
 62
7
  6
CONTINUOUS
 10
344.2397013425
 20
272.338040188
  0
VERTEX
  8
0
 62
7
  6
CONTINUOUS
 10
344.127720581
 20
272.2178565396
  0
VERTEX
  8
0
 62
7
  6
CONTINUOUS
 10
344.0255560241
 20
272.09144312
  0
VERTEX
  8
0
 62
7
  6
CONTINUOUS
 10
343.9345709329
 20
271.9615180424
  0
VERTEX
  8
0
 62
7
  6
CONTINUOUS
 10
343.8551284177
 20
271.8298757347
  0
VERTEX
  8
0
 62
7
  6
CONTINUOUS
 10
343.7874229571
 20
271.6982531322
  0
VERTEX
  8
0
 62
7
  6
CONTINUOUS
 10
343.7312765357
 20
271.5678704308
  0
VERTEX
  8
0
 62
7
  6
CONTINUOUS
 10
343.6863998365
 20
271.4397571682
  0
VERTEX
  8
0
 62
7
  6
CONTINUOUS
 10
343.6526861809
 20
271.3159184241
  0
VERTEX
  8
0
 62
7
  6
CONTINUOUS
 10
343.6296498906
 20
271.1984264439
  0
SEQEND
  0
LINE
  8
0
 62
9
  6
CONTINUOUS
 10
343.492283693
 20
60.2733364162
 11
355.7670160881
 21
60.2733364162
  0
LINE
  8
0
 62
7
  6
CONTINUOUS
 10
334.6296498906
 20
63.3815036682
 11
342.1296498906
 21
63.3815036682
  0
LINE
  8
0
 62
7
  6
CONTINUOUS
 10
357.1296498906
 20
63.3815036682
 11
364.6296498906
 21
63.3815036682
  0
LINE
  8
0
 62
9
  6
CONTINUOUS
 10
342.4365929331
 20
64.7681592602
 11
356.822706848
 21
64.7681592602
  0
LINE
  8
DEFAULT_2
 62
8
  6
HIDDEN
 10
334.6296498906
 20
66.384490604
 11
364.6296498906
 21
66.384490604
  0
LINE
  8
DEFAULT_2
 62
8
  6
HIDDEN
 10
334.6296498906
 20
66.4839122077
 11
364.6296498906
 21
66.4839122077
  0
LINE
  8
0
 62
7
  6
CONTINUOUS
 10
334.6296498906
 20
70.3581700454
 11
342.1296498906
 21
70.3581700454
  0
LINE
  8
0
 62
7
  6
CONTINUOUS
 10
357.1296498906
 20
70.3581700454
 11
364.6296498906
 21
70.3581700454
  0
POLYLINE
  8
0
 62
7
  6
CONTINUOUS
 66
1
 70
0
  0
VERTEX
  8
0
 62
7
  6
CONTINUOUS
 10
343.6296498906
 20
246.2253991313
  0
VERTEX
  8
0
 62
7
  6
CONTINUOUS
 10
343.6526821202
 20
246.2372476356
  0
VERTEX
  8
0
 62
7
  6
CONTINUOUS
 10
343.6888532531
 20
246.2419544211
  0
SEQEND
  0
LINE
  8
0
 62
9
  6
CONTINUOUS
 10
334.6296498906
 20
81.6364269965
 11
364.6296498906
 21
81.6364269965
  0
POLYLINE
  8
0
 62
7
  6
CONTINUOUS
 66
1
 70
0
  0
VERTEX
  8
0
 62
7
  6
CONTINUOUS
 10
355.65545544
 20
91.0755568611
  0
VERTEX
  8
0
 62
7
  6
CONTINUOUS
 10
355.6812881087
 20
91.0814607236
  0
VERTEX
  8
0
 62
7
  6
CONTINUOUS
 10
355.7089259961
 20
91.0997757759
  0
VERTEX
  8
0
 62
7
  6
CONTINUOUS
 10
355.737561242
 20
91.1304423937
  0
VERTEX
  8
0
 62
7
  6
CONTINUOUS
 10
355.7670160881
 20
91.1733099038
  0
SEQEND
  0
LINE
  8
DEFAULT_2
 62
8
  6
HIDDEN
 10
355.6296498906
 20
91.0755568611
 11
355.6554713117
 21
91.0755568611
  0
LINE
  8
0
 62
7
  6
CONTINUOUS
 10
343.6038286124
 20
91.0755568611
 11
355.6296498906
 21
91.0755568611
  0
LINE
  8
DEFAULT_2
 62
8
  6
HIDDEN
 10
343.492283693
 20
91.1733099038
 11
355.7670160881
 21
91.1733099038
  0
LINE
  8
0
 62
9
  6
CONTINUOUS
 10
344.611277074
 20
92.029060318
 11
354.6480227071
 21
92.029060318
  0
POLYLINE
  8
0
 62
7
  6
CONTINUOUS
 66
1
 70
0
  0
VERTEX
  8
0
 62
7
  6
CONTINUOUS
 10
343.6038443412
 20
91.0755568611
  0
VERTEX
  8
0
 62
7
  6
CONTINUOUS
 10
343.5780116724
 20
91.0814607236
  0
VERTEX
  8
0
 62
7
  6
CONTINUOUS
 10
343.5503737851
 20
91.0997757759
  0
VERTEX
  8
0
 62
7
  6
CONTINUOUS
 10
343.5217385392
 20
91.1304423937
  0
VERTEX
  8
0
 62
7
  6
CONTINUOUS
 10
343.492283693
 20
91.1733099038
  0
SEQEND
  0
POLYLINE
  8
0
 62
7
  6
CONTINUOUS
 66
1
 70
0
  0
VERTEX
  8
0
 62
7
  6
CONTINUOUS
 10
344.611277074
 20
240.5249168252
  0
VERTEX
  8
0
 62
7
  6
CONTINUOUS
 10
344.4842925795
 20
240.3816950577
  0
VERTEX
  8
0
 62
7
  6
CONTINUOUS
 10
344.3594590334
 20
240.2294290098
  0
VERTEX
  8
0
 62
7
  6
CONTINUOUS
 10
344.2397013425
 20
240.0710482199
  0
VERTEX
  8
0
 62
7
  6
CONTINUOUS
 10
344.127720581
 20
239.9098299628
  0
VERTEX
  8
0
 62
7
  6
CONTINUOUS
 10
344.0255560241
 20
239.7488035649
  0
VERTEX
  8
0
 62
7
  6
CONTINUOUS
 10
343.9345709329
 20
239.5905943599
  0
VERTEX
  8
0
 62
7
  6
CONTINUOUS
 10
343.8551284177
 20
239.4365701425
  0
VERTEX
  8
0
 62
7
  6
CONTINUOUS
 10
343.7874229571
 20
239.288015641
  0
VERTEX
  8
0
 62
7
  6
CONTINUOUS
 10
343.7312765357
 20
239.1456282149
  0
VERTEX
  8
0
 62
7
  6
CONTINUOUS
 10
343.6863998365
 20
239.0099249256
  0
VERTEX
  8
0
 62
7
  6
CONTINUOUS
 10
343.6526861809
 20
238.8824313105
  0
VERTEX
  8
0
 62
7
  6
CONTINUOUS
 10
343.6296498906
 20
238.7646374422
  0
SEQEND
  0
POLYLINE
  8
0
 62
7
  6
CONTINUOUS
 66
1
 70
0
  0
VERTEX
  8
0
 62
7
  6
CONTINUOUS
 10
354.6480227071
 20
245.6199390049
  0
VERTEX
  8
0
 62
7
  6
CONTINUOUS
 10
354.7745961036
 20
245.7452078027
  0
VERTEX
  8
0
 62
7
  6
CONTINUOUS
 10
354.8993185643
 20
245.8581306608
  0
VERTEX
  8
0
 62
7
  6
CONTINUOUS
 10
355.0191192729
 20
245.9567925261
  0
VERTEX
  8
0
 62
7
  6
CONTINUOUS
 10
355.13111231
 20
246.0399465163
  0
VERTEX
  8
0
 62
7
  6
CONTINUOUS
 10
355.2332697014
 20
246.1074063289
  0
VERTEX
  8
0
 62
7
  6
CONTINUOUS
 10
355.3243211659
 20
246.1597348426
  0
VERTEX
  8
0
 62
7
  6
CONTINUOUS
 10
355.4038578215
 20
246.1980822884
  0
VERTEX
  8
0
 62
7
  6
CONTINUOUS
 10
355.4716341776
 20
246.2236659287
  0
VERTEX
  8
0
 62
7
  6
CONTINUOUS
 10
355.5277704962
 20
246.237835278
  0
VERTEX
  8
0
 62
7
  6
CONTINUOUS
 10
355.5704387101
 20
246.241954424
  0
SEQEND
  0
LINE
  8
0
 62
7
  6
CONTINUOUS
 10
343.6296498906
 20
91.0820631068
 11
343.6038443412
 21
91.0755568611
  0
LINE
  8
DEFAULT_2
 62
8
  6
HIDDEN
 10
342.4365929331
 20
93.7606038027
 11
356.822706848
 21
93.7606038027
  0
LINE
  8
DEFAULT_2
 62
8
  6
HIDDEN
 10
342.1296498906
 20
94.9797252809
 11
357.1296498906
 21
94.9797252809
  0
LINE
  8
0
 62
9
  6
CONTINUOUS
 10
334.6296498906
 20
94.9797252809
 11
342.1296498906
 21
94.9797252809
  0
LINE
  8
0
 62
9
  6
CONTINUOUS
 10
357.1296498906
 20
94.9797252809
 11
364.6296498906
 21
94.9797252809
  0
LINE
  8
0
 62
7
  6
CONTINUOUS
 10
334.6296498906
 20
96.6628472463
 11
342.1296498906
 21
96.6628472463
  0
LINE
  8
0
 62
7
  6
CONTINUOUS
 10
357.1296498906
 20
96.6628472463
 11
364.6296498906
 21
96.6628472463
  0
LINE
  8
DEFAULT_2
 62
8
  6
HIDDEN
 10
334.6296498906
 20
97.0752459318
 11
364.6296498906
 21
97.0752459318
  0
LINE
  8
0
 62
9
  6
CONTINUOUS
 10
344.611277074
 20
97.9665552573
 11
354.6480227071
 21
97.9665552573
  0
LINE
  8
0
 62
9
  6
CONTINUOUS
 10
343.492283693
 20
100.4053260699
 11
355.7670160881
 21
100.4053260699
  0
LINE
  8
0
 62
7
  6
CONTINUOUS
 10
355.6296498906
 20
91.0820631068
 11
355.65545544
 21
91.0755568611
  0
LINE
  8
0
 62
9
  6
CONTINUOUS
 10
342.4365929331
 20
103.2612546791
 11
356.822706848
 21
103.2612546791
  0
LINE
  8
0
 62
7
  6
CONTINUOUS
 10
334.6296498906
 20
106.9420611136
 11
342.1296498906
 21
106.9420611136
  0
LINE
  8
0
 62
7
  6
CONTINUOUS
 10
357.1296498906
 20
106.9420611136
 11
364.6296498906
 21
106.9420611136
  0
POLYLINE
  8
0
 62
7
  6
CONTINUOUS
 66
1
 70
0
  0
VERTEX
  8
0
 62
7
  6
CONTINUOUS
 10
355.6296498906
 20
91.0820631068
  0
VERTEX
  8
0
 62
7
  6
CONTINUOUS
 10
355.6064442128
 20
91.0954618927
  0
VERTEX
  8
0
 62
7
  6
CONTINUOUS
 10
355.5726328484
 20
91.1177113724
  0
VERTEX
  8
0
 62
7
  6
CONTINUOUS
 10
355.5277752023
 20
91.1499613589
  0
VERTEX
  8
0
 62
7
  6
CONTINUOUS
 10
355.4716404557
 20
91.1932506954
  0
VERTEX
  8
0
 62
7
  6
CONTINUOUS
 10
355.4038582655
 20
91.2487927869
  0
VERTEX
  8
0
 62
7
  6
CONTINUOUS
 10
355.3243131469
 20
91.3176929322
  0
VERTEX
  8
0
 62
7
  6
CONTINUOUS
 10
355.2332604283
 20
91.4008183591
  0
VERTEX
  8
0
 62
7
  6
CONTINUOUS
 10
355.1311104715
 20
91.4989696863
  0
VERTEX
  8
0
 62
7
  6
CONTINUOUS
 10
355.0191202201
 20
91.6121816695
  0
VERTEX
  8
0
 62
7
  6
CONTINUOUS
 10
354.8993076139
 20
91.7396555101
  0
VERTEX
  8
0
 62
7
  6
CONTINUOUS
 10
354.7745788526
 20
91.8794454582
  0
VERTEX
  8
0
 62
7
  6
CONTINUOUS
 10
354.6480227071
 20
92.029060318
  0
SEQEND
  0
POLYLINE
  8
0
 62
7
  6
CONTINUOUS
 66
1
 70
0
  0
VERTEX
  8
0
 62
7
  6
CONTINUOUS
 10
343.6296498906
 20
275.281836649
  0
VERTEX
  8
0
 62
7
  6
CONTINUOUS
 10
343.6526821202
 20
275.341335085
  0
VERTEX
  8
0
 62
7
  6
CONTINUOUS
 10
343.6863978323
 20
275.3979656077
  0
VERTEX
  8
0
 62
7
  6
CONTINUOUS
 10
343.7312802302
 20
275.4495919582
  0
VERTEX
  8
0
 62
7
  6
CONTINUOUS
 10
343.7874288472
 20
275.4943063365
  0
VERTEX
  8
0
 62
7
  6
CONTINUOUS
 10
343.855128359
 20
275.5306478758
  0
VERTEX
  8
0
 62
7
  6
CONTINUOUS
 10
343.9345619432
 20
275.5570435563
  0
VERTEX
  8
0
 62
7
  6
CONTINUOUS
 10
344.025545112
 20
275.5717809813
  0
VERTEX
  8
0
 62
7
  6
CONTINUOUS
 10
344.0852595914
 20
275.5743202943
  0
SEQEND
  0
POLYLINE
  8
0
 62
7
  6
CONTINUOUS
 66
1
 70
0
  0
VERTEX
  8
0
 62
7
  6
CONTINUOUS
 10
343.492283693
 20
202.0427892068
  0
VERTEX
  8
0
 62
7
  6
CONTINUOUS
 10
343.5217256701
 20
202.0530544512
  0
VERTEX
  8
0
 62
7
  6
CONTINUOUS
 10
343.5310269939
 20
202.053700146
  0
SEQEND
  0
LINE
  8
0
 62
9
  6
CONTINUOUS
 10
334.6296498906
 20
117.4514772027
 11
364.6296498906
 21
117.4514772027
  0
POLYLINE
  8
0
 62
7
  6
CONTINUOUS
 66
1
 70
0
  0
VERTEX
  8
0
 62
7
  6
CONTINUOUS
 10
343.6296498906
 20
53.6072899329
  0
VERTEX
  8
0
 62
7
  6
CONTINUOUS
 10
343.6044839845
 20
53.665324999
  0
VERTEX
  8
0
 62
7
  6
CONTINUOUS
 10
343.5780116724
 20
53.734760431
  0
VERTEX
  8
0
 62
7
  6
CONTINUOUS
 10
343.5503737851
 20
53.8152460454
  0
VERTEX
  8
0
 62
7
  6
CONTINUOUS
 10
343.5217385392
 20
53.9063147962
  0
VERTEX
  8
0
 62
7
  6
CONTINUOUS
 10
343.492283693
 20
54.0074198188
  0
SEQEND
  0
POLYLINE
  8
0
 62
7
  6
CONTINUOUS
 66
1
 70
0
  0
VERTEX
  8
0
 62
7
  6
CONTINUOUS
 10
343.492283693
 20
274.7502416384
  0
VERTEX
  8
0
 62
7
  6
CONTINUOUS
 10
343.5217256701
 20
274.8743852294
  0
VERTEX
  8
0
 62
7
  6
CONTINUOUS
 10
343.5503635985
 20
274.9903279364
  0
VERTEX
  8
0
 62
7
  6
CONTINUOUS
 10
343.5780082469
 20
275.0973050052
  0
VERTEX
  8
0
 62
7
  6
CONTINUOUS
 10
343.6044900584
 20
275.1946665793
  0
VERTEX
  8
0
 62
7
  6
CONTINUOUS
 10
343.6296498906
 20
275.281836649
  0
SEQEND
  0
POLYLINE
  8
0
 62
7
  6
CONTINUOUS
 66
1
 70
0
  0
VERTEX
  8
0
 62
7
  6
CONTINUOUS
 10
343.492283693
 20
245.9742219661
  0
VERTEX
  8
0
 62
7
  6
CONTINUOUS
 10
343.5217256701
 20
246.0477863598
  0
VERTEX
  8
0
 62
7
  6
CONTINUOUS
 10
343.5503635985
 20
246.1100235476
  0
VERTEX
  8
0
 62
7
  6
CONTINUOUS
 10
343.5780082469
 20
246.1605422848
  0
VERTEX
  8
0
 62
7
  6
CONTINUOUS
 10
343.6044900584
 20
246.1990648098
  0
VERTEX
  8
0
 62
7
  6
CONTINUOUS
 10
343.6296498906
 20
246.2253991313
  0
SEQEND
  0
LINE
  8
DEFAULT_2
 62
8
  6
HIDDEN
 10
355.6812881087
 20
202.0361473642
 11
355.7089259961
 21
202.0508216813
  0
POLYLINE
  8
0
 62
7
  6
CONTINUOUS
 66
1
 70
0
  0
VERTEX
  8
0
 62
7
  6
CONTINUOUS
 10
343.492283693
 20
91.1733099038
  0
VERTEX
  8
0
 62
7
  6
CONTINUOUS
 10
343.3442657535
 20
91.4338041772
  0
VERTEX
  8
0
 62
7
  6
CONTINUOUS
 10
343.1946696292
 20
91.7321352991
  0
VERTEX
  8
0
 62
7
  6
CONTINUOUS
 10
343.0438621292
 20
92.0675527532
  0
VERTEX
  8
0
 62
7
  6
CONTINUOUS
 10
342.8922355458
 20
92.4391740198
  0
VERTEX
  8
0
 62
7
  6
CONTINUOUS
 10
342.7401972501
 20
92.8459972192
  0
VERTEX
  8
0
 62
7
  6
CONTINUOUS
 10
342.5881704372
 20
93.2868935646
  0
VERTEX
  8
0
 62
7
  6
CONTINUOUS
 10
342.4365929331
 20
93.7606038027
  0
SEQEND
  0
POLYLINE
  8
0
 62
7
  6
CONTINUOUS
 66
1
 70
0
  0
VERTEX
  8
0
 62
7
  6
CONTINUOUS
 10
342.4365929331
 20
103.2612546791
  0
VERTEX
  8
0
 62
7
  6
CONTINUOUS
 10
342.3650356067
 20
103.3995121374
  0
VERTEX
  8
0
 62
7
  6
CONTINUOUS
 10
342.2933283558
 20
103.5461609824
  0
VERTEX
  8
0
 62
7
  6
CONTINUOUS
 10
342.2215139734
 20
103.7011132158
  0
SEQEND
  0
POLYLINE
  8
0
 62
7
  6
CONTINUOUS
 66
1
 70
0
  0
VERTEX
  8
0
 62
7
  6
CONTINUOUS
 10
342.4365929331
 20
103.2612546791
  0
VERTEX
  8
0
 62
7
  6
CONTINUOUS
 10
342.5881410503
 20
102.9589619625
  0
VERTEX
  8
0
 62
7
  6
CONTINUOUS
 10
342.7401390757
 20
102.6197036894
  0
VERTEX
  8
0
 62
7
  6
CONTINUOUS
 10
342.892161403
 20
102.2444128521
  0
VERTEX
  8
0
 62
7
  6
CONTINUOUS
 10
343.0437945232
 20
101.8341200649
  0
VERTEX
  8
0
 62
7
  6
CONTINUOUS
 10
343.1946321228
 20
101.3899633224
  0
VERTEX
  8
0
 62
7
  6
CONTINUOUS
 10
343.3442607606
 20
100.9132367939
  0
VERTEX
  8
0
 62
7
  6
CONTINUOUS
 10
343.492283693
 20
100.4053260699
  0
SEQEND
  0
POLYLINE
  8
0
 62
7
  6
CONTINUOUS
 66
1
 70
0
  0
VERTEX
  8
0
 62
7
  6
CONTINUOUS
 10
343.492283693
 20
54.0074198188
  0
VERTEX
  8
0
 62
7
  6
CONTINUOUS
 10
343.3442657535
 20
54.5451020173
  0
VERTEX
  8
0
 62
7
  6
CONTINUOUS
 10
343.1946696292
 20
55.1115506914
  0
VERTEX
  8
0
 62
7
  6
CONTINUOUS
 10
343.0438621292
 20
55.7053022116
  0
VERTEX
  8
0
 62
7
  6
CONTINUOUS
 10
342.8922355458
 20
56.3247600895
  0
VERTEX
  8
0
 62
7
  6
CONTINUOUS
 10
342.7401972501
 20
56.9682302681
  0
VERTEX
  8
0
 62
7
  6
CONTINUOUS
 10
342.5881704372
 20
57.6339153499
  0
SEQEND
  0
POLYLINE
  8
0
 62
7
  6
CONTINUOUS
 66
1
 70
0
  0
VERTEX
  8
0
 62
7
  6
CONTINUOUS
 10
342.4365929331
 20
64.7681592602
  0
VERTEX
  8
0
 62
7
  6
CONTINUOUS
 10
342.3650356067
 20
65.0339622364
  0
VERTEX
  8
0
 62
7
  6
CONTINUOUS
 10
342.2933283558
 20
65.3060195713
  0
VERTEX
  8
0
 62
7
  6
CONTINUOUS
 10
342.2215139734
 20
65.5841658782
  0
SEQEND
  0
POLYLINE
  8
0
 62
7
  6
CONTINUOUS
 66
1
 70
0
  0
VERTEX
  8
0
 62
7
  6
CONTINUOUS
 10
342.4365929331
 20
64.7681592602
  0
VERTEX
  8
0
 62
7
  6
CONTINUOUS
 10
342.5881410503
 20
64.1985731629
  0
VERTEX
  8
0
 62
7
  6
CONTINUOUS
 10
342.7401390757
 20
63.6019411043
  0
VERTEX
  8
0
 62
7
  6
CONTINUOUS
 10
342.892161403
 20
62.9799114096
  0
VERTEX
  8
0
 62
7
  6
CONTINUOUS
 10
343.0437945232
 20
62.3341911275
  0
VERTEX
  8
0
 62
7
  6
CONTINUOUS
 10
343.1946321228
 20
61.6665637403
  0
VERTEX
  8
0
 62
7
  6
CONTINUOUS
 10
343.3442607606
 20
60.9789562661
  0
VERTEX
  8
0
 62
7
  6
CONTINUOUS
 10
343.492283693
 20
60.2733364162
  0
SEQEND
  0
LINE
  8
0
 62
7
  6
CONTINUOUS
 10
343.6296498906
 20
34.2390938192
 11
343.6044839845
 21
34.3516316006
  0
LINE
  8
0
 62
7
  6
CONTINUOUS
 10
343.6044839845
 20
34.3516316006
 11
343.5503737851
 21
34.601335874
  0
LINE
  8
0
 62
7
  6
CONTINUOUS
 10
343.5503737851
 20
34.601335874
 11
343.492283693
 21
34.8789207016
  0
POLYLINE
  8
0
 62
7
  6
CONTINUOUS
 66
1
 70
0
  0
VERTEX
  8
0
 62
7
  6
CONTINUOUS
 10
343.6296498906
 20
271.1984264439
  0
VERTEX
  8
0
 62
7
  6
CONTINUOUS
 10
343.6044839845
 20
271.0426784368
  0
VERTEX
  8
0
 62
7
  6
CONTINUOUS
 10
343.5780116724
 20
270.8854625574
  0
VERTEX
  8
0
 62
7
  6
CONTINUOUS
 10
343.5503737851
 20
270.7276616653
  0
VERTEX
  8
0
 62
7
  6
CONTINUOUS
 10
343.5217385392
 20
270.5702826887
  0
VERTEX
  8
0
 62
7
  6
CONTINUOUS
 10
343.492283693
 20
270.4143419664
  0
SEQEND
  0
POLYLINE
  8
0
 62
7
  6
CONTINUOUS
 66
1
 70
0
  0
VERTEX
  8
0
 62
7
  6
CONTINUOUS
 10
342.2215139734
 20
276.8501962295
  0
VERTEX
  8
0
 62
7
  6
CONTINUOUS
 10
342.1704969882
 20
276.534617621
  0
VERTEX
  8
0
 62
7
  6
CONTINUOUS
 10
342.1398554095
 20
276.2164620439
  0
SEQEND
  0
POLYLINE
  8
0
 62
7
  6
CONTINUOUS
 66
1
 70
0
  0
VERTEX
  8
0
 62
7
  6
CONTINUOUS
 10
342.2215139734
 20
264.4242385454
  0
VERTEX
  8
0
 62
7
  6
CONTINUOUS
 10
342.1704969882
 20
264.1447509294
  0
VERTEX
  8
0
 62
7
  6
CONTINUOUS
 10
342.1398554095
 20
263.860244258
  0
VERTEX
  8
0
 62
7
  6
CONTINUOUS
 10
342.1296498906
 20
263.5720100829
  0
SEQEND
  0
LINE
  8
0
 62
7
  6
CONTINUOUS
 10
343.6296498906
 20
284.1153082496
 11
343.5217385392
 21
283.5485373413
  0
LINE
  8
0
 62
7
  6
CONTINUOUS
 10
343.5217385392
 20
283.5485373413
 11
343.1946696292
 21
281.8518653096
  0
LINE
  8
0
 62
7
  6
CONTINUOUS
 10
343.1946696292
 20
281.8518653096
 11
342.8922355458
 21
280.2904539224
  0
LINE
  8
0
 62
7
  6
CONTINUOUS
 10
342.2215139734
 20
276.971194032
 11
343.6296498906
 21
284.2154253201
  0
POLYLINE
  8
0
 62
7
  6
CONTINUOUS
 66
1
 70
0
  0
VERTEX
  8
0
 62
7
  6
CONTINUOUS
 10
343.492283693
 20
270.4143419664
  0
VERTEX
  8
0
 62
7
  6
CONTINUOUS
 10
343.3442657535
 20
269.6542873557
  0
VERTEX
  8
0
 62
7
  6
CONTINUOUS
 10
343.1946696292
 20
268.9044574992
  0
VERTEX
  8
0
 62
7
  6
CONTINUOUS
 10
343.0438621292
 20
268.1668331514
  0
VERTEX
  8
0
 62
7
  6
CONTINUOUS
 10
342.8922355458
 20
267.4434388607
  0
VERTEX
  8
0
 62
7
  6
CONTINUOUS
 10
342.7401972501
 20
266.7362836019
  0
VERTEX
  8
0
 62
7
  6
CONTINUOUS
 10
342.5881704372
 20
266.0473588185
  0
SEQEND
  0
LINE
  8
0
 62
7
  6
CONTINUOUS
 10
342.8922355458
 20
280.2904539224
 11
342.5881704372
 21
278.7280555565
  0
LINE
  8
0
 62
7
  6
CONTINUOUS
 10
342.2215139734
 20
276.8501962295
 11
342.5881704372
 21
278.7280555565
  0
POLYLINE
  8
0
 62
7
  6
CONTINUOUS
 66
1
 70
0
  0
VERTEX
  8
0
 62
7
  6
CONTINUOUS
 10
342.5881410503
 20
270.5897600024
  0
VERTEX
  8
0
 62
7
  6
CONTINUOUS
 10
342.2933283558
 20
269.1321818794
  0
VERTEX
  8
0
 62
7
  6
CONTINUOUS
 10
342.2215139734
 20
268.782004377
  0
SEQEND
  0
LINE
  8
DEFAULT_2
 62
8
  6
HIDDEN
 10
342.2933283558
 20
269.1321818794
 11
342.3650355097
 21
269.4851502176
  0
POLYLINE
  8
0
 62
7
  6
CONTINUOUS
 66
1
 70
0
  0
VERTEX
  8
0
 62
7
  6
CONTINUOUS
 10
342.5881410503
 20
270.5897600024
  0
VERTEX
  8
0
 62
7
  6
CONTINUOUS
 10
342.7401390757
 20
271.3262497382
  0
VERTEX
  8
0
 62
7
  6
CONTINUOUS
 10
342.892161403
 20
272.0481191768
  0
VERTEX
  8
0
 62
7
  6
CONTINUOUS
 10
343.0437945232
 20
272.7533887583
  0
VERTEX
  8
0
 62
7
  6
CONTINUOUS
 10
343.1946321228
 20
273.4401206695
  0
VERTEX
  8
0
 62
7
  6
CONTINUOUS
 10
343.3442607606
 20
274.1063586611
  0
VERTEX
  8
0
 62
7
  6
CONTINUOUS
 10
343.492283693
 20
274.7502416384
  0
SEQEND
  0
POLYLINE
  8
0
 62
7
  6
CONTINUOUS
 66
1
 70
0
  0
VERTEX
  8
0
 62
7
  6
CONTINUOUS
 10
342.2215139734
 20
264.4242385454
  0
VERTEX
  8
0
 62
7
  6
CONTINUOUS
 10
342.293327578
 20
264.7469842477
  0
VERTEX
  8
0
 62
7
  6
CONTINUOUS
 10
342.3650354128
 20
265.0651811623
  0
VERTEX
  8
0
 62
7
  6
CONTINUOUS
 10
342.5881704372
 20
266.0473588185
  0
SEQEND
  0
POLYLINE
  8
0
 62
7
  6
CONTINUOUS
 66
1
 70
0
  0
VERTEX
  8
0
 62
7
  6
CONTINUOUS
 10
343.492283693
 20
238.0521390658
  0
VERTEX
  8
0
 62
7
  6
CONTINUOUS
 10
343.3442657535
 20
237.4318386714
  0
VERTEX
  8
0
 62
7
  6
CONTINUOUS
 10
343.1946696292
 20
236.8367905635
  0
VERTEX
  8
0
 62
7
  6
CONTINUOUS
 10
343.0438621292
 20
236.2685819842
  0
VERTEX
  8
0
 62
7
  6
CONTINUOUS
 10
342.8922355458
 20
235.7287880691
  0
VERTEX
  8
0
 62
7
  6
CONTINUOUS
 10
342.7401972501
 20
235.2189202453
  0
VERTEX
  8
0
 62
7
  6
CONTINUOUS
 10
342.5881704372
 20
234.7404212729
  0
VERTEX
  8
0
 62
7
  6
CONTINUOUS
 10
342.4365929331
 20
234.2946532591
  0
SEQEND
  0
POLYLINE
  8
0
 62
7
  6
CONTINUOUS
 66
1
 70
0
  0
VERTEX
  8
0
 62
7
  6
CONTINUOUS
 10
342.4365929331
 20
242.4472542182
  0
VERTEX
  8
0
 62
7
  6
CONTINUOUS
 10
342.3650356067
 20
242.1637941834
  0
VERTEX
  8
0
 62
7
  6
CONTINUOUS
 10
342.2933283558
 20
241.8862278124
  0
VERTEX
  8
0
 62
7
  6
CONTINUOUS
 10
342.2215139734
 20
241.6147266564
  0
SEQEND
  0
POLYLINE
  8
0
 62
7
  6
CONTINUOUS
 66
1
 70
0
  0
VERTEX
  8
0
 62
7
  6
CONTINUOUS
 10
342.4365929331
 20
242.4472542182
  0
VERTEX
  8
0
 62
7
  6
CONTINUOUS
 10
342.5881410503
 20
243.0399518471
  0
VERTEX
  8
0
 62
7
  6
CONTINUOUS
 10
342.7401390757
 20
243.6055045955
  0
VERTEX
  8
0
 62
7
  6
CONTINUOUS
 10
342.892161403
 20
244.1423395316
  0
VERTEX
  8
0
 62
7
  6
CONTINUOUS
 10
343.0437945232
 20
244.6489851094
  0
VERTEX
  8
0
 62
7
  6
CONTINUOUS
 10
343.1946321228
 20
245.1240536211
  0
VERTEX
  8
0
 62
7
  6
CONTINUOUS
 10
343.3442607606
 20
245.5662036004
  0
VERTEX
  8
0
 62
7
  6
CONTINUOUS
 10
343.492283693
 20
245.9742219661
  0
SEQEND
  0
POLYLINE
  8
0
 62
7
  6
CONTINUOUS
 66
1
 70
0
  0
VERTEX
  8
0
 62
7
  6
CONTINUOUS
 10
342.2215139734
 20
233.6526922944
  0
VERTEX
  8
0
 62
7
  6
CONTINUOUS
 10
342.1704969882
 20
233.4576216188
  0
VERTEX
  8
0
 62
7
  6
CONTINUOUS
 10
342.1398554095
 20
233.2559576413
  0
VERTEX
  8
0
 62
7
  6
CONTINUOUS
 10
342.1296498906
 20
233.0485720788
  0
SEQEND
  0
POLYLINE
  8
0
 62
7
  6
CONTINUOUS
 66
1
 70
0
  0
VERTEX
  8
0
 62
7
  6
CONTINUOUS
 10
342.2215139734
 20
233.6526922944
  0
VERTEX
  8
0
 62
7
  6
CONTINUOUS
 10
342.293327578
 20
233.8740770445
  0
VERTEX
  8
0
 62
7
  6
CONTINUOUS
 10
342.3650354128
 20
234.0881089972
  0
VERTEX
  8
0
 62
7
  6
CONTINUOUS
 10
342.4365929331
 20
234.2946532591
  0
SEQEND
  0
POLYLINE
  8
0
 62
7
  6
CONTINUOUS
 66
1
 70
0
  0
VERTEX
  8
0
 62
7
  6
CONTINUOUS
 10
342.4365929331
 20
200.5082463156
  0
VERTEX
  8
0
 62
7
  6
CONTINUOUS
 10
342.3650356067
 20
200.3458821648
  0
VERTEX
  8
0
 62
7
  6
CONTINUOUS
 10
342.2933283558
 20
200.1917119858
  0
VERTEX
  8
0
 62
7
  6
CONTINUOUS
 10
342.2215139734
 20
200.0458321926
  0
SEQEND
  0
POLYLINE
  8
0
 62
7
  6
CONTINUOUS
 66
1
 70
0
  0
VERTEX
  8
0
 62
7
  6
CONTINUOUS
 10
342.4365929331
 20
200.5082463156
  0
VERTEX
  8
0
 62
7
  6
CONTINUOUS
 10
342.5881410503
 20
200.8420925653
  0
VERTEX
  8
0
 62
7
  6
CONTINUOUS
 10
342.7401390757
 20
201.1389191183
  0
VERTEX
  8
0
 62
7
  6
CONTINUOUS
 10
342.892161403
 20
201.3978959144
  0
VERTEX
  8
0
 62
7
  6
CONTINUOUS
 10
343.0437945232
 20
201.6183138654
  0
VERTEX
  8
0
 62
7
  6
CONTINUOUS
 10
343.1946321228
 20
201.799575316
  0
VERTEX
  8
0
 62
7
  6
CONTINUOUS
 10
343.3442607606
 20
201.9411855347
  0
VERTEX
  8
0
 62
7
  6
CONTINUOUS
 10
343.492283693
 20
202.0427892068
  0
SEQEND
  0
POLYLINE
  8
0
 62
7
  6
CONTINUOUS
 66
1
 70
0
  0
VERTEX
  8
0
 62
7
  6
CONTINUOUS
 10
342.2215139734
 20
189.8562373743
  0
VERTEX
  8
0
 62
7
  6
CONTINUOUS
 10
342.1704969882
 20
189.779313131
  0
VERTEX
  8
0
 62
7
  6
CONTINUOUS
 10
342.1398554095
 20
189.6953613811
  0
VERTEX
  8
0
 62
7
  6
CONTINUOUS
 10
342.1296498906
 20
189.604683279
  0
SEQEND
  0
POLYLINE
  8
0
 62
7
  6
CONTINUOUS
 66
1
 70
0
  0
VERTEX
  8
0
 62
7
  6
CONTINUOUS
 10
344.611277074
 20
194.2025010602
  0
VERTEX
  8
0
 62
7
  6
CONTINUOUS
 10
344.4842925795
 20
194.0263929172
  0
VERTEX
  8
0
 62
7
  6
CONTINUOUS
 10
344.3594590334
 20
193.8475921491
  0
VERTEX
  8
0
 62
7
  6
CONTINUOUS
 10
344.2397013425
 20
193.6693555341
  0
VERTEX
  8
0
 62
7
  6
CONTINUOUS
 10
344.127720581
 20
193.4949787697
  0
VERTEX
  8
0
 62
7
  6
CONTINUOUS
 10
344.0255560241
 20
193.3271823205
  0
VERTEX
  8
0
 62
7
  6
CONTINUOUS
 10
343.9345709329
 20
193.1680447968
  0
VERTEX
  8
0
 62
7
  6
CONTINUOUS
 10
343.8551284177
 20
193.0182708562
  0
VERTEX
  8
0
 62
7
  6
CONTINUOUS
 10
343.7874229571
 20
192.8784708786
  0
VERTEX
  8
0
 62
7
  6
CONTINUOUS
 10
343.7312765357
 20
192.7486988074
  0
VERTEX
  8
0
 62
7
  6
CONTINUOUS
 10
343.6863998365
 20
192.6288698228
  0
VERTEX
  8
0
 62
7
  6
CONTINUOUS
 10
343.6526861809
 20
192.5197661411
  0
VERTEX
  8
0
 62
7
  6
CONTINUOUS
 10
343.6296498906
 20
192.4220380146
  0
SEQEND
  0
POLYLINE
  8
0
 62
7
  6
CONTINUOUS
 66
1
 70
0
  0
VERTEX
  8
0
 62
7
  6
CONTINUOUS
 10
342.2215139734
 20
189.8562373743
  0
VERTEX
  8
0
 62
7
  6
CONTINUOUS
 10
342.293327578
 20
189.9379817375
  0
VERTEX
  8
0
 62
7
  6
CONTINUOUS
 10
342.3650354128
 20
190.0108406593
  0
VERTEX
  8
0
 62
7
  6
CONTINUOUS
 10
342.4365929331
 20
190.0747695543
  0
SEQEND
  0
LINE
  8
0
 62
9
  6
CONTINUOUS
 10
334.6296498906
 20
134.5278670895
 11
364.6296498906
 21
134.5278670895
  0
POLYLINE
  8
0
 62
7
  6
CONTINUOUS
 66
1
 70
0
  0
VERTEX
  8
0
 62
7
  6
CONTINUOUS
 10
342.2215139734
 20
94.4225395288
  0
VERTEX
  8
0
 62
7
  6
CONTINUOUS
 10
342.293327578
 20
94.2091891371
  0
VERTEX
  8
0
 62
7
  6
CONTINUOUS
 10
342.3650354128
 20
93.9884964915
  0
VERTEX
  8
0
 62
7
  6
CONTINUOUS
 10
342.4365929331
 20
93.7606038027
  0
SEQEND
  0
POLYLINE
  8
0
 62
7
  6
CONTINUOUS
 66
1
 70
0
  0
VERTEX
  8
0
 62
7
  6
CONTINUOUS
 10
342.2215139734
 20
94.4225395288
  0
VERTEX
  8
0
 62
7
  6
CONTINUOUS
 10
342.1704969882
 20
94.5990824137
  0
VERTEX
  8
0
 62
7
  6
CONTINUOUS
 10
342.1398554095
 20
94.7712397145
  0
VERTEX
  8
0
 62
7
  6
CONTINUOUS
 10
342.1296498906
 20
94.9381229027
  0
SEQEND
  0
POLYLINE
  8
0
 62
7
  6
CONTINUOUS
 66
1
 70
0
  0
VERTEX
  8
0
 62
7
  6
CONTINUOUS
 10
342.2215139734
 20
59.2866499489
  0
VERTEX
  8
0
 62
7
  6
CONTINUOUS
 10
342.293327578
 20
58.968869753
  0
VERTEX
  8
0
 62
7
  6
CONTINUOUS
 10
342.3650354128
 20
58.6465563039
  0
VERTEX
  8
0
 62
7
  6
CONTINUOUS
 10
342.5881704372
 20
57.6339153499
  0
SEQEND
  0
POLYLINE
  8
0
 62
7
  6
CONTINUOUS
 66
1
 70
0
  0
VERTEX
  8
0
 62
7
  6
CONTINUOUS
 10
343.6296498906
 20
36.3264118282
  0
VERTEX
  8
0
 62
7
  6
CONTINUOUS
 10
343.6526821202
 20
36.2168500719
  0
VERTEX
  8
0
 62
7
  6
CONTINUOUS
 10
343.6863978323
 20
36.1030483441
  0
VERTEX
  8
0
 62
7
  6
CONTINUOUS
 10
343.7312802302
 20
35.9872618027
  0
VERTEX
  8
0
 62
7
  6
CONTINUOUS
 10
343.7874288472
 20
35.8716242612
  0
VERTEX
  8
0
 62
7
  6
CONTINUOUS
 10
343.855128359
 20
35.757360861
  0
VERTEX
  8
0
 62
7
  6
CONTINUOUS
 10
343.9345619432
 20
35.6458653449
  0
VERTEX
  8
0
 62
7
  6
CONTINUOUS
 10
344.025545112
 20
35.5389794161
  0
VERTEX
  8
0
 62
7
  6
CONTINUOUS
 10
344.127717187
 20
35.4385994535
  0
VERTEX
  8
0
 62
7
  6
CONTINUOUS
 10
344.2397009792
 20
35.3473262797
  0
VERTEX
  8
0
 62
7
  6
CONTINUOUS
 10
344.3594482755
 20
35.2676815269
  0
VERTEX
  8
0
 62
7
  6
CONTINUOUS
 10
344.4842767165
 20
35.2018663666
  0
VERTEX
  8
0
 62
7
  6
CONTINUOUS
 10
344.611277074
 20
35.151408909
  0
SEQEND
  0
POLYLINE
  8
0
 62
7
  6
CONTINUOUS
 66
1
 70
0
  0
VERTEX
  8
0
 62
7
  6
CONTINUOUS
 10
343.492283693
 20
34.8789207016
  0
VERTEX
  8
0
 62
7
  6
CONTINUOUS
 10
343.3442657535
 20
35.6008206884
  0
VERTEX
  8
0
 62
7
  6
CONTINUOUS
 10
343.1946696292
 20
36.337442793
  0
VERTEX
  8
0
 62
7
  6
CONTINUOUS
 10
343.0438621292
 20
37.0868633473
  0
VERTEX
  8
0
 62
7
  6
CONTINUOUS
 10
342.8922355458
 20
37.8470479419
  0
VERTEX
  8
0
 62
7
  6
CONTINUOUS
 10
342.7401972501
 20
38.6159032601
  0
VERTEX
  8
0
 62
7
  6
CONTINUOUS
 10
342.5881704372
 20
39.3912740801
  0
SEQEND
  0
POLYLINE
  8
0
 62
7
  6
CONTINUOUS
 66
1
 70
0
  0
VERTEX
  8
0
 62
7
  6
CONTINUOUS
 10
342.5881410503
 20
41.7134323344
  0
VERTEX
  8
0
 62
7
  6
CONTINUOUS
 10
342.2933283558
 20
43.1496385864
  0
VERTEX
  8
0
 62
7
  6
CONTINUOUS
 10
342.2215139734
 20
43.5028849434
  0
SEQEND
  0
POLYLINE
  8
0
 62
7
  6
CONTINUOUS
 66
1
 70
0
  0
VERTEX
  8
0
 62
7
  6
CONTINUOUS
 10
342.5881410503
 20
41.7134323344
  0
VERTEX
  8
0
 62
7
  6
CONTINUOUS
 10
342.7401390757
 20
40.9625895934
  0
VERTEX
  8
0
 62
7
  6
CONTINUOUS
 10
342.892161403
 20
40.2013756263
  0
VERTEX
  8
0
 62
7
  6
CONTINUOUS
 10
343.0437945232
 20
39.4318787524
  0
VERTEX
  8
0
 62
7
  6
CONTINUOUS
 10
343.1946321228
 20
38.6562195609
  0
VERTEX
  8
0
 62
7
  6
CONTINUOUS
 10
343.3442607606
 20
37.8766247199
  0
SEQEND
  0
POLYLINE
  8
0
 62
7
  6
CONTINUOUS
 66
1
 70
0
  0
VERTEX
  8
0
 62
7
  6
CONTINUOUS
 10
343.492283693
 20
60.2733364162
  0
VERTEX
  8
0
 62
7
  6
CONTINUOUS
 10
343.5217256701
 20
60.1264234527
  0
VERTEX
  8
0
 62
7
  6
CONTINUOUS
 10
343.5503635985
 20
59.9754447392
  0
VERTEX
  8
0
 62
7
  6
CONTINUOUS
 10
343.5780082469
 20
59.821437156
  0
VERTEX
  8
0
 62
7
  6
CONTINUOUS
 10
343.6044900584
 20
59.6653982717
  0
VERTEX
  8
0
 62
7
  6
CONTINUOUS
 10
343.6296498906
 20
59.5083277136
  0
SEQEND
  0
POLYLINE
  8
0
 62
7
  6
CONTINUOUS
 66
1
 70
0
  0
VERTEX
  8
0
 62
7
  6
CONTINUOUS
 10
342.2215139734
 20
41.2753244871
  0
VERTEX
  8
0
 62
7
  6
CONTINUOUS
 10
342.3650354128
 20
40.5398582407
  0
VERTEX
  8
0
 62
7
  6
CONTINUOUS
 10
342.5881704372
 20
39.3912740801
  0
SEQEND
  0
POLYLINE
  8
0
 62
7
  6
CONTINUOUS
 66
1
 70
0
  0
VERTEX
  8
0
 62
7
  6
CONTINUOUS
 10
343.6296498906
 20
59.5083277136
  0
VERTEX
  8
0
 62
7
  6
CONTINUOUS
 10
343.6526821202
 20
59.3880744922
  0
VERTEX
  8
0
 62
7
  6
CONTINUOUS
 10
343.6863978323
 20
59.2595896786
  0
VERTEX
  8
0
 62
7
  6
CONTINUOUS
 10
343.7312802302
 20
59.1247177036
  0
VERTEX
  8
0
 62
7
  6
CONTINUOUS
 10
343.7874288472
 20
58.9852823026
  0
VERTEX
  8
0
 62
7
  6
CONTINUOUS
 10
343.855128359
 20
58.8420776691
  0
VERTEX
  8
0
 62
7
  6
CONTINUOUS
 10
343.9345619432
 20
58.6960688018
  0
VERTEX
  8
0
 62
7
  6
CONTINUOUS
 10
344.025545112
 20
58.5487842646
  0
VERTEX
  8
0
 62
7
  6
CONTINUOUS
 10
344.127717187
 20
58.4018415386
  0
VERTEX
  8
0
 62
7
  6
CONTINUOUS
 10
344.2397009792
 20
58.2579930728
  0
VERTEX
  8
0
 62
7
  6
CONTINUOUS
 10
344.3594482755
 20
58.1202335849
  0
VERTEX
  8
0
 62
7
  6
CONTINUOUS
 10
344.4842767165
 20
57.9915915132
  0
VERTEX
  8
0
 62
7
  6
CONTINUOUS
 10
344.611277074
 20
57.8746239638
  0
SEQEND
  0
POLYLINE
  8
0
 62
7
  6
CONTINUOUS
 66
1
 70
0
  0
VERTEX
  8
0
 62
7
  6
CONTINUOUS
 10
342.2215139734
 20
59.2866499489
  0
VERTEX
  8
0
 62
7
  6
CONTINUOUS
 10
342.1704969882
 20
59.5546867605
  0
VERTEX
  8
0
 62
7
  6
CONTINUOUS
 10
342.1398554095
 20
59.8209573028
  0
VERTEX
  8
0
 62
7
  6
CONTINUOUS
 10
342.1296498906
 20
60.084159634
  0
SEQEND
  0
LINE
  8
0
 62
7
  6
CONTINUOUS
 10
343.3442607606
 20
37.8766247199
 11
343.5217256701
 21
36.937286498
  0
LINE
  8
0
 62
7
  6
CONTINUOUS
 10
343.5217256701
 20
36.937286498
 11
343.5780082469
 21
36.6255911511
  0
LINE
  8
0
 62
7
  6
CONTINUOUS
 10
343.5780082469
 20
36.6255911511
 11
343.6296498906
 21
36.3264118282
  0
POLYLINE
  8
0
 62
7
  6
CONTINUOUS
 66
1
 70
0
  0
VERTEX
  8
0
 62
7
  6
CONTINUOUS
 10
342.2215139734
 20
41.2753244871
  0
VERTEX
  8
0
 62
7
  6
CONTINUOUS
 10
342.1704969882
 20
41.5885092256
  0
VERTEX
  8
0
 62
7
  6
CONTINUOUS
 10
342.1398554095
 20
41.9028524136
  0
VERTEX
  8
0
 62
7
  6
CONTINUOUS
 10
342.1296498906
 20
42.2168638136
  0
SEQEND
  0
LINE
  8
0
 62
7
  6
CONTINUOUS
 10
334.6296498906
 20
46.5166867996
 11
334.6296498906
 21
198.901475311
  0
LINE
  8
DEFAULT_2
 62
8
  6
HIDDEN
 10
334.6296498906
 20
198.901475311
 11
334.6296498906
 21
198.9033935562
  0
LINE
  8
0
 62
7
  6
CONTINUOUS
 10
334.6296498906
 20
198.9033935562
 11
334.6296498906
 21
271.5246163247
  0
POLYLINE
  8
0
 62
7
  6
CONTINUOUS
 66
1
 70
0
  0
VERTEX
  8
0
 62
7
  6
CONTINUOUS
 10
343.6296498906
 20
238.7646374422
  0
VERTEX
  8
0
 62
7
  6
CONTINUOUS
 10
343.6044839845
 20
238.6130370218
  0
VERTEX
  8
0
 62
7
  6
CONTINUOUS
 10
343.5780116724
 20
238.4651052184
  0
VERTEX
  8
0
 62
7
  6
CONTINUOUS
 10
343.5503737851
 20
238.3216914188
  0
VERTEX
  8
0
 62
7
  6
CONTINUOUS
 10
343.5217385392
 20
238.1837326019
  0
VERTEX
  8
0
 62
7
  6
CONTINUOUS
 10
343.492283693
 20
238.0521390658
  0
SEQEND
  0
POLYLINE
  8
0
 62
7
  6
CONTINUOUS
 66
1
 70
0
  0
VERTEX
  8
0
 62
7
  6
CONTINUOUS
 10
343.492283693
 20
191.9043231814
  0
VERTEX
  8
0
 62
7
  6
CONTINUOUS
 10
343.3442657535
 20
191.5310325768
  0
VERTEX
  8
0
 62
7
  6
CONTINUOUS
 10
343.1946696292
 20
191.1936554412
  0
VERTEX
  8
0
 62
7
  6
CONTINUOUS
 10
343.0438621292
 20
190.8931110558
  0
VERTEX
  8
0
 62
7
  6
CONTINUOUS
 10
342.8922355458
 20
190.630252788
  0
VERTEX
  8
0
 62
7
  6
CONTINUOUS
 10
342.7401972501
 20
190.4058331781
  0
VERTEX
  8
0
 62
7
  6
CONTINUOUS
 10
342.5881704372
 20
190.220496836
  0
VERTEX
  8
0
 62
7
  6
CONTINUOUS
 10
342.4365929331
 20
190.0747695543
  0
SEQEND
  0
POLYLINE
  8
0
 62
7
  6
CONTINUOUS
 66
1
 70
0
  0
VERTEX
  8
0
 62
7
  6
CONTINUOUS
 10
354.6480227071
 20
200.7229717391
  0
VERTEX
  8
0
 62
7
  6
CONTINUOUS
 10
354.7745961036
 20
200.8904326022
  0
VERTEX
  8
0
 62
7
  6
CONTINUOUS
 10
354.8993185643
 20
201.0509647017
  0
VERTEX
  8
0
 62
7
  6
CONTINUOUS
 10
355.0191192729
 20
201.2016539968
  0
VERTEX
  8
0
 62
7
  6
CONTINUOUS
 10
355.13111231
 20
201.3399815295
  0
SEQEND
  0
POLYLINE
  8
0
 62
7
  6
CONTINUOUS
 66
1
 70
0
  0
VERTEX
  8
0
 62
7
  6
CONTINUOUS
 10
355.4038578215
 20
201.6712613508
  0
VERTEX
  8
0
 62
7
  6
CONTINUOUS
 10
355.4716341776
 20
201.7543254057
  0
VERTEX
  8
0
 62
7
  6
CONTINUOUS
 10
355.5277704962
 20
201.8248456819
  0
VERTEX
  8
0
 62
7
  6
CONTINUOUS
 10
355.5726330776
 20
201.8838383419
  0
VERTEX
  8
0
 62
7
  6
CONTINUOUS
 10
355.6064467907
 20
201.9320088207
  0
VERTEX
  8
0
 62
7
  6
CONTINUOUS
 10
355.6296498906
 20
201.9701177128
  0
SEQEND
  0
LINE
  8
0
 62
7
  6
CONTINUOUS
 10
355.13111231
 20
201.3399815295
 11
355.4038578215
 21
201.6712613508
  0
POLYLINE
  8
0
 62
7
  6
CONTINUOUS
 66
1
 70
0
  0
VERTEX
  8
0
 62
7
  6
CONTINUOUS
 10
356.0688949332
 20
139.8671485373
  0
VERTEX
  8
0
 62
7
  6
CONTINUOUS
 10
356.2154376519
 20
139.8862515129
  0
VERTEX
  8
0
 62
7
  6
CONTINUOUS
 10
356.3670642354
 20
139.945779475
  0
VERTEX
  8
0
 62
7
  6
CONTINUOUS
 10
356.5191025311
 20
140.0456122682
  0
VERTEX
  8
0
 62
7
  6
CONTINUOUS
 10
356.671129344
 20
140.1854848937
  0
VERTEX
  8
0
 62
7
  6
CONTINUOUS
 10
356.822706848
 20
140.3649959151
  0
SEQEND
  0
LINE
  8
0
 62
7
  6
CONTINUOUS
 10
343.1903882947
 20
139.8671485373
 11
356.0689114865
 21
139.8671485373
  0
LINE
  8
0
 62
9
  6
CONTINUOUS
 10
343.492283693
 20
139.9502709195
 11
355.7670160881
 21
139.9502709195
  0
LINE
  8
DEFAULT_2
 62
8
  6
HIDDEN
 10
342.4365929331
 20
140.3649959151
 11
356.822706848
 21
140.3649959151
  0
LINE
  8
0
 62
7
  6
CONTINUOUS
 10
334.6296498906
 20
140.6060708776
 11
342.1296498906
 21
140.6060708776
  0
LINE
  8
0
 62
7
  6
CONTINUOUS
 10
357.1296498906
 20
140.6060708776
 11
364.6296498906
 21
140.6060708776
  0
LINE
  8
DEFAULT_2
 62
8
  6
HIDDEN
 10
342.1296498906
 20
140.8611630456
 11
357.1296498906
 21
140.8611630456
  0
LINE
  8
0
 62
9
  6
CONTINUOUS
 10
344.611277074
 20
141.6764730842
 11
354.6480227071
 21
141.6764730842
  0
POLYLINE
  8
0
 62
7
  6
CONTINUOUS
 66
1
 70
0
  0
VERTEX
  8
0
 62
7
  6
CONTINUOUS
 10
343.190404848
 20
139.8671485373
  0
VERTEX
  8
0
 62
7
  6
CONTINUOUS
 10
343.0438621292
 20
139.8862515129
  0
VERTEX
  8
0
 62
7
  6
CONTINUOUS
 10
342.8922355458
 20
139.945779475
  0
VERTEX
  8
0
 62
7
  6
CONTINUOUS
 10
342.7401972501
 20
140.0456122682
  0
VERTEX
  8
0
 62
7
  6
CONTINUOUS
 10
342.5881704372
 20
140.1854848937
  0
VERTEX
  8
0
 62
7
  6
CONTINUOUS
 10
342.4365929331
 20
140.3649959151
  0
SEQEND
  0
POLYLINE
  8
0
 62
7
  6
CONTINUOUS
 66
1
 70
0
  0
VERTEX
  8
0
 62
7
  6
CONTINUOUS
 10
355.7670160881
 20
139.9502709195
  0
VERTEX
  8
0
 62
7
  6
CONTINUOUS
 10
355.9150340277
 20
139.8885354413
  0
VERTEX
  8
0
 62
7
  6
CONTINUOUS
 10
356.0688949332
 20
139.8671485373
  0
SEQEND
  0
POLYLINE
  8
0
 62
7
  6
CONTINUOUS
 66
1
 70
0
  0
VERTEX
  8
0
 62
7
  6
CONTINUOUS
 10
342.2215139734
 20
140.6076787189
  0
VERTEX
  8
0
 62
7
  6
CONTINUOUS
 10
342.293327578
 20
140.5356483522
  0
VERTEX
  8
0
 62
7
  6
CONTINUOUS
 10
342.3650354128
 20
140.4547362736
  0
VERTEX
  8
0
 62
7
  6
CONTINUOUS
 10
342.4365929331
 20
140.3649959151
  0
SEQEND
  0
POLYLINE
  8
0
 62
7
  6
CONTINUOUS
 66
1
 70
0
  0
VERTEX
  8
0
 62
7
  6
CONTINUOUS
 10
342.2215139734
 20
140.6076787189
  0
VERTEX
  8
0
 62
7
  6
CONTINUOUS
 10
342.1704969882
 20
140.6622018084
  0
VERTEX
  8
0
 62
7
  6
CONTINUOUS
 10
342.1398554095
 20
140.7104783064
  0
VERTEX
  8
0
 62
7
  6
CONTINUOUS
 10
342.1296498906
 20
140.7521867324
  0
SEQEND
  0
POLYLINE
  8
0
 62
7
  6
CONTINUOUS
 66
1
 70
0
  0
VERTEX
  8
0
 62
7
  6
CONTINUOUS
 10
343.492283693
 20
100.4053260699
  0
VERTEX
  8
0
 62
7
  6
CONTINUOUS
 10
343.5217256701
 20
100.2949200575
  0
VERTEX
  8
0
 62
7
  6
CONTINUOUS
 10
343.5503635985
 20
100.1759934205
  0
VERTEX
  8
0
 62
7
  6
CONTINUOUS
 10
343.5780082469
 20
100.0493777124
  0
VERTEX
  8
0
 62
7
  6
CONTINUOUS
 10
343.6044900584
 20
99.9159133052
  0
VERTEX
  8
0
 62
7
  6
CONTINUOUS
 10
343.6296498906
 20
99.7764776177
  0
SEQEND
  0
POLYLINE
  8
0
 62
7
  6
CONTINUOUS
 66
1
 70
0
  0
VERTEX
  8
0
 62
7
  6
CONTINUOUS
 10
343.6296498906
 20
99.7764776177
  0
VERTEX
  8
0
 62
7
  6
CONTINUOUS
 10
343.6526821202
 20
99.6663258055
  0
VERTEX
  8
0
 62
7
  6
CONTINUOUS
 10
343.6863978323
 20
99.5453740977
  0
VERTEX
  8
0
 62
7
  6
CONTINUOUS
 10
343.7312802302
 20
99.414737279
  0
VERTEX
  8
0
 62
7
  6
CONTINUOUS
 10
343.7874288472
 20
99.2756136659
  0
VERTEX
  8
0
 62
7
  6
CONTINUOUS
 10
343.855128359
 20
99.1282291813
  0
VERTEX
  8
0
 62
7
  6
CONTINUOUS
 10
343.9345619432
 20
98.9729532224
  0
VERTEX
  8
0
 62
7
  6
CONTINUOUS
 10
344.025545112
 20
98.8107369112
  0
VERTEX
  8
0
 62
7
  6
CONTINUOUS
 10
344.127717187
 20
98.6426391542
  0
VERTEX
  8
0
 62
7
  6
CONTINUOUS
 10
344.2397009792
 20
98.4710881029
  0
VERTEX
  8
0
 62
7
  6
CONTINUOUS
 10
344.3594482755
 20
98.2990337469
  0
VERTEX
  8
0
 62
7
  6
CONTINUOUS
 10
344.4842767165
 20
98.1298081466
  0
VERTEX
  8
0
 62
7
  6
CONTINUOUS
 10
344.611277074
 20
97.9665552573
  0
SEQEND
  0
POLYLINE
  8
0
 62
7
  6
CONTINUOUS
 66
1
 70
0
  0
VERTEX
  8
0
 62
7
  6
CONTINUOUS
 10
342.1296498906
 20
104.1385085078
  0
VERTEX
  8
0
 62
7
  6
CONTINUOUS
 10
342.1398554095
 20
103.9861472157
  0
VERTEX
  8
0
 62
7
  6
CONTINUOUS
 10
342.1704969882
 20
103.8401489394
  0
VERTEX
  8
0
 62
7
  6
CONTINUOUS
 10
342.2215139734
 20
103.7011132158
  0
SEQEND
  0
POLYLINE
  8
0
 62
7
  6
CONTINUOUS
 66
1
 70
0
  0
VERTEX
  8
0
 62
7
  6
CONTINUOUS
 10
342.1296498906
 20
66.3286080652
  0
VERTEX
  8
0
 62
7
  6
CONTINUOUS
 10
342.1398554095
 20
66.0752619765
  0
VERTEX
  8
0
 62
7
  6
CONTINUOUS
 10
342.1704969882
 20
65.8267459813
  0
VERTEX
  8
0
 62
7
  6
CONTINUOUS
 10
342.2215139734
 20
65.5841658782
  0
SEQEND
  0
POLYLINE
  8
0
 62
7
  6
CONTINUOUS
 66
1
 70
0
  0
VERTEX
  8
0
 62
7
  6
CONTINUOUS
 10
342.1296498906
 20
44.4256532082
  0
VERTEX
  8
0
 62
7
  6
CONTINUOUS
 10
342.1398554095
 20
44.1151281631
  0
VERTEX
  8
0
 62
7
  6
CONTINUOUS
 10
342.1704969882
 20
43.8070651223
  0
VERTEX
  8
0
 62
7
  6
CONTINUOUS
 10
342.2215139734
 20
43.5028849434
  0
SEQEND
  0
LINE
  8
DEFAULT_2
 62
8
  6
HIDDEN
 10
342.1296498906
 20
276.0171490551
 11
342.1296498906
 21
275.8972175636
  0
LINE
  8
0
 62
7
  6
CONTINUOUS
 10
342.1296498906
 20
42.2168638136
 11
342.1296498906
 21
48.984476689
  0
LINE
  8
0
 62
7
  6
CONTINUOUS
 10
342.1296498906
 20
60.084159634
 11
342.1296498906
 21
70.3581700454
  0
LINE
  8
0
 62
7
  6
CONTINUOUS
 10
342.1296498906
 20
94.9381229027
 11
342.1296498906
 21
106.9420611136
  0
LINE
  8
DEFAULT_2
 62
8
  6
HIDDEN
 10
342.1296498906
 20
140.727088455
 11
342.1296498906
 21
140.7521867324
  0
LINE
  8
0
 62
7
  6
CONTINUOUS
 10
342.1296498906
 20
140.6060708776
 11
342.1296498906
 21
140.727088455
  0
LINE
  8
0
 62
7
  6
CONTINUOUS
 10
342.1296498906
 20
140.7521867324
 11
342.1296498906
 21
152.4104627736
  0
LINE
  8
0
 62
7
  6
CONTINUOUS
 10
342.1296498906
 20
187.6129919846
 11
342.1296498906
 21
199.7084130817
  0
LINE
  8
0
 62
7
  6
CONTINUOUS
 10
342.1296498906
 20
229.5556868635
 11
342.1296498906
 21
240.9435124869
  0
LINE
  8
0
 62
7
  6
CONTINUOUS
 10
342.1296498906
 20
259.1818825323
 11
342.1296498906
 21
267.8930541765
  0
LINE
  8
0
 62
7
  6
CONTINUOUS
 10
342.1296498906
 20
271.3689406143
 11
342.1296498906
 21
275.8972175636
  0
LINE
  8
0
 62
9
  6
CONTINUOUS
 10
342.2215139734
 20
276.971194032
 11
342.2215139734
 21
276.8501962295
  0
LINE
  8
0
 62
9
  6
CONTINUOUS
 10
342.2215139734
 20
151.2629604798
 11
342.2215139734
 21
140.6076787189
  0
LINE
  8
0
 62
9
  6
CONTINUOUS
 10
342.2215139734
 20
103.7011132158
 11
342.2215139734
 21
94.4225395288
  0
LINE
  8
0
 62
9
  6
CONTINUOUS
 10
342.2215139734
 20
65.5841658782
 11
342.2215139734
 21
59.2866499489
  0
LINE
  8
0
 62
9
  6
CONTINUOUS
 10
342.2215139734
 20
43.5028849434
 11
342.2215139734
 21
41.2753244871
  0
LINE
  8
0
 62
9
  6
CONTINUOUS
 10
342.2215139734
 20
189.8562373743
 11
342.2215139734
 21
200.0458321926
  0
LINE
  8
0
 62
9
  6
CONTINUOUS
 10
342.2215139734
 20
233.6526922944
 11
342.2215139734
 21
241.6147266564
  0
LINE
  8
0
 62
9
  6
CONTINUOUS
 10
342.2215139734
 20
264.4242385454
 11
342.2215139734
 21
268.782004377
  0
LINE
  8
0
 62
9
  6
CONTINUOUS
 10
343.6296498906
 20
284.2154253201
 11
343.6296498906
 21
284.1153082496
  0
LINE
  8
0
 62
9
  6
CONTINUOUS
 10
343.6296498906
 20
150.1681325973
 11
343.6296498906
 21
140.1836846115
  0
LINE
  8
0
 62
9
  6
CONTINUOUS
 10
343.6296498906
 20
99.7764776177
 11
343.6296498906
 21
91.0820631068
  0
LINE
  8
0
 62
9
  6
CONTINUOUS
 10
343.6296498906
 20
59.5083277136
 11
343.6296498906
 21
53.6072899329
  0
LINE
  8
0
 62
9
  6
CONTINUOUS
 10
343.6296498906
 20
36.3264118282
 11
343.6296498906
 21
34.2390938192
  0
LINE
  8
0
 62
9
  6
CONTINUOUS
 10
343.6296498906
 20
192.4220380146
 11
343.6296498906
 21
201.9701177128
  0
LINE
  8
0
 62
9
  6
CONTINUOUS
 10
343.6296498906
 20
238.7646374422
 11
343.6296498906
 21
246.2253991313
  0
LINE
  8
0
 62
9
  6
CONTINUOUS
 10
343.6296498906
 20
271.1984264439
 11
343.6296498906
 21
275.281836649
  0
LINE
  8
0
 62
7
  6
CONTINUOUS
 10
342.1398554095
 20
276.2164620439
 11
342.1296498906
 21
275.8972175636
  0
POLYLINE
  8
0
 62
7
  6
CONTINUOUS
 66
1
 70
0
  0
VERTEX
  8
0
 62
7
  6
CONTINUOUS
 10
342.1296498906
 20
267.8930541765
  0
VERTEX
  8
0
 62
7
  6
CONTINUOUS
 10
342.1398554095
 20
268.1881086912
  0
VERTEX
  8
0
 62
7
  6
CONTINUOUS
 10
342.1704969882
 20
268.4849011844
  0
VERTEX
  8
0
 62
7
  6
CONTINUOUS
 10
342.2215139734
 20
268.782004377
  0
SEQEND
  0
POLYLINE
  8
0
 62
7
  6
CONTINUOUS
 66
1
 70
0
  0
VERTEX
  8
0
 62
7
  6
CONTINUOUS
 10
342.1296498906
 20
240.9435124869
  0
VERTEX
  8
0
 62
7
  6
CONTINUOUS
 10
342.1398554095
 20
241.1633594298
  0
VERTEX
  8
0
 62
7
  6
CONTINUOUS
 10
342.1704969882
 20
241.3874707208
  0
VERTEX
  8
0
 62
7
  6
CONTINUOUS
 10
342.2215139734
 20
241.6147266564
  0
SEQEND
  0
POLYLINE
  8
0
 62
7
  6
CONTINUOUS
 66
1
 70
0
  0
VERTEX
  8
0
 62
7
  6
CONTINUOUS
 10
342.1296498906
 20
199.7084130817
  0
VERTEX
  8
0
 62
7
  6
CONTINUOUS
 10
342.1398554095
 20
199.8150389192
  0
VERTEX
  8
0
 62
7
  6
CONTINUOUS
 10
342.1704969882
 20
199.9277181297
  0
VERTEX
  8
0
 62
7
  6
CONTINUOUS
 10
342.2215139734
 20
200.0458321926
  0
SEQEND
  0
POLYLINE
  8
0
 62
7
  6
CONTINUOUS
 66
1
 70
0
  0
VERTEX
  8
0
 62
7
  6
CONTINUOUS
 10
343.6296498906
 20
192.4220380146
  0
VERTEX
  8
0
 62
7
  6
CONTINUOUS
 10
343.6044839845
 20
192.300798271
  0
VERTEX
  8
0
 62
7
  6
CONTINUOUS
 10
343.5780116724
 20
192.1877292961
  0
VERTEX
  8
0
 62
7
  6
CONTINUOUS
 10
343.5503737851
 20
192.0835001379
  0
VERTEX
  8
0
 62
7
  6
CONTINUOUS
 10
343.5217385392
 20
191.9888158135
  0
VERTEX
  8
0
 62
7
  6
CONTINUOUS
 10
343.492283693
 20
191.9043231814
  0
SEQEND
  0
POLYLINE
  8
0
 62
7
  6
CONTINUOUS
 66
1
 70
0
  0
VERTEX
  8
0
 62
7
  6
CONTINUOUS
 10
357.0377858078
 20
151.2629604798
  0
VERTEX
  8
0
 62
7
  6
CONTINUOUS
 10
357.0888032298
 20
151.2744114428
  0
VERTEX
  8
0
 62
7
  6
CONTINUOUS
 10
357.1194445868
 20
151.2926476413
  0
VERTEX
  8
0
 62
7
  6
CONTINUOUS
 10
357.1296498906
 20
151.3176792573
  0
SEQEND
  0
POLYLINE
  8
0
 62
7
  6
CONTINUOUS
 66
1
 70
0
  0
VERTEX
  8
0
 62
7
  6
CONTINUOUS
 10
356.6823099101
 20
151.2926847148
  0
VERTEX
  8
0
 62
7
  6
CONTINUOUS
 10
356.5191607055
 20
151.2693517323
  0
VERTEX
  8
0
 62
7
  6
CONTINUOUS
 10
356.3671383782
 20
151.2056909477
  0
VERTEX
  8
0
 62
7
  6
CONTINUOUS
 10
356.215505258
 20
151.1017690057
  0
VERTEX
  8
0
 62
7
  6
CONTINUOUS
 10
356.0646676584
 20
150.9578816437
  0
VERTEX
  8
0
 62
7
  6
CONTINUOUS
 10
355.9150390206
 20
150.7744664086
  0
VERTEX
  8
0
 62
7
  6
CONTINUOUS
 10
355.7670160881
 20
150.552087189
  0
SEQEND
  0
LINE
  8
0
 62
7
  6
CONTINUOUS
 10
356.9626198341
 20
151.2579850629
 11
357.0377858078
 21
151.2629604798
  0
LINE
  8
0
 62
9
  6
CONTINUOUS
 10
344.611277074
 20
148.4949436452
 11
354.6480227071
 21
148.4949436452
  0
LINE
  8
0
 62
9
  6
CONTINUOUS
 10
343.492283693
 20
150.552087189
 11
355.7670160881
 21
150.552087189
  0
LINE
  8
DEFAULT_2
 62
8
  6
HIDDEN
 10
342.2966775176
 20
151.2579850629
 11
356.9626222636
 21
151.2579850629
  0
LINE
  8
DEFAULT_2
 62
8
  6
HIDDEN
 10
342.4365929331
 20
151.2753055613
 11
356.822706848
 21
151.2753055613
  0
LINE
  8
0
 62
7
  6
CONTINUOUS
 10
342.5770051863
 20
151.2926847148
 11
356.6822945949
 21
151.2926847148
  0
LINE
  8
0
 62
7
  6
CONTINUOUS
 10
342.2966799471
 20
151.2579850629
 11
342.2215139734
 21
151.2629604798
  0
LINE
  8
0
 62
7
  6
CONTINUOUS
 10
356.822706848
 20
151.2753055613
 11
356.6823099101
 21
151.2926847148
  0
POLYLINE
  8
0
 62
7
  6
CONTINUOUS
 66
1
 70
0
  0
VERTEX
  8
0
 62
7
  6
CONTINUOUS
 10
342.5769898711
 20
151.2926847148
  0
VERTEX
  8
0
 62
7
  6
CONTINUOUS
 10
342.7401390757
 20
151.2693517323
  0
VERTEX
  8
0
 62
7
  6
CONTINUOUS
 10
342.892161403
 20
151.2056909477
  0
VERTEX
  8
0
 62
7
  6
CONTINUOUS
 10
343.0437945232
 20
151.1017690057
  0
VERTEX
  8
0
 62
7
  6
CONTINUOUS
 10
343.1946321228
 20
150.9578816437
  0
VERTEX
  8
0
 62
7
  6
CONTINUOUS
 10
343.3442607606
 20
150.7744664086
  0
VERTEX
  8
0
 62
7
  6
CONTINUOUS
 10
343.492283693
 20
150.552087189
  0
SEQEND
  0
LINE
  8
0
 62
7
  6
CONTINUOUS
 10
354.7745788526
 20
141.4985290653
 11
354.6480227071
 21
141.6764730842
  0
POLYLINE
  8
0
 62
7
  6
CONTINUOUS
 66
1
 70
0
  0
VERTEX
  8
0
 62
7
  6
CONTINUOUS
 10
343.492283693
 20
150.552087189
  0
VERTEX
  8
0
 62
7
  6
CONTINUOUS
 10
343.5217256701
 20
150.4972783302
  0
VERTEX
  8
0
 62
7
  6
CONTINUOUS
 10
343.5503635985
 20
150.4309672656
  0
VERTEX
  8
0
 62
7
  6
CONTINUOUS
 10
343.5780082469
 20
150.3536364388
  0
VERTEX
  8
0
 62
7
  6
CONTINUOUS
 10
343.6044900584
 20
150.2658237173
  0
VERTEX
  8
0
 62
7
  6
CONTINUOUS
 10
343.6296498906
 20
150.1681325973
  0
SEQEND
  0
POLYLINE
  8
0
 62
7
  6
CONTINUOUS
 66
1
 70
0
  0
VERTEX
  8
0
 62
7
  6
CONTINUOUS
 10
342.1296498906
 20
151.3176792573
  0
VERTEX
  8
0
 62
7
  6
CONTINUOUS
 10
342.1398554095
 20
151.2926474133
  0
VERTEX
  8
0
 62
7
  6
CONTINUOUS
 10
342.1704969882
 20
151.2744112842
  0
VERTEX
  8
0
 62
7
  6
CONTINUOUS
 10
342.2215139734
 20
151.2629604798
  0
SEQEND
  0
POLYLINE
  8
0
 62
7
  6
CONTINUOUS
 66
1
 70
0
  0
VERTEX
  8
0
 62
7
  6
CONTINUOUS
 10
343.6296498906
 20
150.1681325973
  0
VERTEX
  8
0
 62
7
  6
CONTINUOUS
 10
343.6526821202
 20
150.0871284435
  0
VERTEX
  8
0
 62
7
  6
CONTINUOUS
 10
343.6863978323
 20
149.9946234905
  0
VERTEX
  8
0
 62
7
  6
CONTINUOUS
 10
343.7312802302
 20
149.8908101208
  0
VERTEX
  8
0
 62
7
  6
CONTINUOUS
 10
343.7874288472
 20
149.7760540322
  0
VERTEX
  8
0
 62
7
  6
CONTINUOUS
 10
343.855128359
 20
149.6499738128
  0
VERTEX
  8
0
 62
7
  6
CONTINUOUS
 10
343.9345619432
 20
149.5122793863
  0
VERTEX
  8
0
 62
7
  6
CONTINUOUS
 10
344.025545112
 20
149.3631799751
  0
VERTEX
  8
0
 62
7
  6
CONTINUOUS
 10
344.127717187
 20
149.2029928163
  0
VERTEX
  8
0
 62
7
  6
CONTINUOUS
 10
344.2397009792
 20
149.0334019148
  0
VERTEX
  8
0
 62
7
  6
CONTINUOUS
 10
344.3594482755
 20
148.8568024519
  0
VERTEX
  8
0
 62
7
  6
CONTINUOUS
 10
344.4842767165
 20
148.6762539666
  0
VERTEX
  8
0
 62
7
  6
CONTINUOUS
 10
344.611277074
 20
148.4949436452
  0
SEQEND
  0
LINE
  8
0
 62
9
  6
CONTINUOUS
 10
344.611277074
 20
285.0246163247
 11
344.611277074
 21
284.9782333988
  0
LINE
  8
0
 62
9
  6
CONTINUOUS
 10
344.611277074
 20
275.4227519262
 11
344.611277074
 21
272.6341538673
  0
LINE
  8
0
 62
9
  6
CONTINUOUS
 10
344.611277074
 20
245.6199390049
 11
344.611277074
 21
240.5249168252
  0
LINE
  8
0
 62
9
  6
CONTINUOUS
 10
344.611277074
 20
200.7229717391
 11
344.611277074
 21
194.2025010602
  0
LINE
  8
0
 62
9
  6
CONTINUOUS
 10
344.611277074
 20
148.4949436452
 11
344.611277074
 21
141.6764730842
  0
LINE
  8
0
 62
9
  6
CONTINUOUS
 10
344.611277074
 20
97.9665552573
 11
344.611277074
 21
92.029060318
  0
LINE
  8
0
 62
9
  6
CONTINUOUS
 10
344.611277074
 20
57.8746239638
 11
344.611277074
 21
53.8447514616
  0
LINE
  8
0
 62
9
  6
CONTINUOUS
 10
344.611277074
 20
35.151408909
 11
344.611277074
 21
33.7259604098
  0
POLYLINE
  8
0
 62
7
  6
CONTINUOUS
 66
1
 70
0
  0
VERTEX
  8
0
 62
7
  6
CONTINUOUS
 10
343.6296498906
 20
140.1836846115
  0
VERTEX
  8
0
 62
7
  6
CONTINUOUS
 10
343.6044839845
 20
140.1137689977
  0
VERTEX
  8
0
 62
7
  6
CONTINUOUS
 10
343.5780116724
 20
140.0551135044
  0
VERTEX
  8
0
 62
7
  6
CONTINUOUS
 10
343.5503737851
 20
140.0080911559
  0
VERTEX
  8
0
 62
7
  6
CONTINUOUS
 10
343.5217385392
 20
139.9730531037
  0
VERTEX
  8
0
 62
7
  6
CONTINUOUS
 10
343.492283693
 20
139.9502709195
  0
SEQEND
  0
POLYLINE
  8
0
 62
7
  6
CONTINUOUS
 66
1
 70
0
  0
VERTEX
  8
0
 62
7
  6
CONTINUOUS
 10
342.4365929331
 20
151.2753055613
  0
VERTEX
  8
0
 62
7
  6
CONTINUOUS
 10
342.3650356067
 20
151.2621115313
  0
VERTEX
  8
0
 62
7
  6
CONTINUOUS
 10
342.2966799471
 20
151.2579850629
  0
SEQEND
  0
LINE
  8
0
 62
7
  6
CONTINUOUS
 10
342.4365929331
 20
151.2753055613
 11
342.5769898711
 21
151.2926847148
  0
LINE
  8
0
 62
7
  6
CONTINUOUS
 10
334.6296498906
 20
152.4104627736
 11
342.1296498906
 21
152.4104627736
  0
LINE
  8
0
 62
7
  6
CONTINUOUS
 10
357.1296498906
 20
152.4104627736
 11
364.6296498906
 21
152.4104627736
  0
LINE
  8
DEFAULT_1
 62
2
  6
CENTER
 10
332.6296498906
 20
158.3246163247
 11
369.6296498906
 21
158.3246163247
  0
LINE
  8
0
 62
9
  6
CONTINUOUS
 10
334.6296498906
 20
160.3338644838
 11
364.6296498906
 21
160.3338644838
  0
POLYLINE
  8
0
 62
7
  6
CONTINUOUS
 66
1
 70
0
  0
VERTEX
  8
0
 62
7
  6
CONTINUOUS
 10
356.822706848
 20
151.2753055613
  0
VERTEX
  8
0
 62
7
  6
CONTINUOUS
 10
356.8942641744
 20
151.2621115313
  0
VERTEX
  8
0
 62
7
  6
CONTINUOUS
 10
356.9626198341
 20
151.2579850629
  0
SEQEND
  0
POLYLINE
  8
0
 62
7
  6
CONTINUOUS
 66
1
 70
0
  0
VERTEX
  8
0
 62
7
  6
CONTINUOUS
 10
355.6296498906
 20
140.1836846115
  0
VERTEX
  8
0
 62
7
  6
CONTINUOUS
 10
355.6064442128
 20
140.2448457018
  0
VERTEX
  8
0
 62
7
  6
CONTINUOUS
 10
355.5726328484
 20
140.3168248754
  0
VERTEX
  8
0
 62
7
  6
CONTINUOUS
 10
355.5277752023
 20
140.3999695456
  0
VERTEX
  8
0
 62
7
  6
CONTINUOUS
 10
355.4716404557
 20
140.494635275
  0
VERTEX
  8
0
 62
7
  6
CONTINUOUS
 10
355.4038582655
 20
140.6016051411
  0
VERTEX
  8
0
 62
7
  6
CONTINUOUS
 10
355.3243131469
 20
140.7213645201
  0
VERTEX
  8
0
 62
7
  6
CONTINUOUS
 10
355.2332604283
 20
140.8539947337
  0
VERTEX
  8
0
 62
7
  6
CONTINUOUS
 10
355.1311104715
 20
140.9995148326
  0
VERTEX
  8
0
 62
7
  6
CONTINUOUS
 10
354.7745788526
 20
141.4985290653
  0
SEQEND
  0
POLYLINE
  8
0
 62
7
  6
CONTINUOUS
 66
1
 70
0
  0
VERTEX
  8
0
 62
7
  6
CONTINUOUS
 10
355.6296498906
 20
140.1836846115
  0
VERTEX
  8
0
 62
7
  6
CONTINUOUS
 10
355.6548157967
 20
140.1137689977
  0
VERTEX
  8
0
 62
7
  6
CONTINUOUS
 10
355.6812881087
 20
140.0551135044
  0
VERTEX
  8
0
 62
7
  6
CONTINUOUS
 10
355.7089259961
 20
140.0080911559
  0
VERTEX
  8
0
 62
7
  6
CONTINUOUS
 10
355.737561242
 20
139.9730531037
  0
VERTEX
  8
0
 62
7
  6
CONTINUOUS
 10
355.7670160881
 20
139.9502709195
  0
SEQEND
  0
LINE
  8
0
 62
9
  6
CONTINUOUS
 10
354.6480227071
 20
275.4227519262
 11
354.6480227071
 21
272.6341538673
  0
LINE
  8
0
 62
9
  6
CONTINUOUS
 10
354.6480227071
 20
245.6199390049
 11
354.6480227071
 21
240.5249168252
  0
LINE
  8
0
 62
9
  6
CONTINUOUS
 10
354.6480227071
 20
200.7229717391
 11
354.6480227071
 21
194.2025010602
  0
LINE
  8
0
 62
9
  6
CONTINUOUS
 10
354.6480227071
 20
148.4949436452
 11
354.6480227071
 21
141.6764730842
  0
LINE
  8
0
 62
9
  6
CONTINUOUS
 10
354.6480227071
 20
97.9665552573
 11
354.6480227071
 21
92.029060318
  0
LINE
  8
0
 62
9
  6
CONTINUOUS
 10
354.6480227071
 20
57.8746239638
 11
354.6480227071
 21
53.8447514616
  0
LINE
  8
0
 62
9
  6
CONTINUOUS
 10
354.6480227071
 20
35.151408909
 11
354.6480227071
 21
33.7259604098
  0
LINE
  8
0
 62
9
  6
CONTINUOUS
 10
354.6480227071
 20
284.9782333988
 11
354.6480227071
 21
285.0246163247
  0
LINE
  8
0
 62
9
  6
CONTINUOUS
 10
355.6296498906
 20
284.2154253201
 11
355.6296498906
 21
284.1153082496
  0
LINE
  8
0
 62
9
  6
CONTINUOUS
 10
355.6296498906
 20
150.1681325973
 11
355.6296498906
 21
140.1836846115
  0
LINE
  8
0
 62
9
  6
CONTINUOUS
 10
355.6296498906
 20
99.7764776177
 11
355.6296498906
 21
91.0820631068
  0
LINE
  8
0
 62
9
  6
CONTINUOUS
 10
355.6296498906
 20
59.5083277136
 11
355.6296498906
 21
53.6072899329
  0
LINE
  8
0
 62
9
  6
CONTINUOUS
 10
355.6296498906
 20
36.3264118282
 11
355.6296498906
 21
34.2390938192
  0
LINE
  8
0
 62
9
  6
CONTINUOUS
 10
355.6296498906
 20
192.4220380146
 11
355.6296498906
 21
201.9701177128
  0
LINE
  8
0
 62
9
  6
CONTINUOUS
 10
355.6296498906
 20
238.7646374422
 11
355.6296498906
 21
246.2253991313
  0
LINE
  8
0
 62
9
  6
CONTINUOUS
 10
355.6296498906
 20
271.1984264439
 11
355.6296498906
 21
275.281836649
  0
LINE
  8
0
 62
9
  6
CONTINUOUS
 10
357.0377858078
 20
276.971194032
 11
357.0377858078
 21
276.8501962295
  0
LINE
  8
0
 62
9
  6
CONTINUOUS
 10
357.0377858078
 20
151.2629604798
 11
357.0377858078
 21
140.6076787189
  0
LINE
  8
0
 62
9
  6
CONTINUOUS
 10
357.0377858078
 20
103.7011132158
 11
357.0377858078
 21
94.4225395288
  0
LINE
  8
0
 62
9
  6
CONTINUOUS
 10
357.0377858078
 20
65.5841658782
 11
357.0377858078
 21
59.2866499489
  0
LINE
  8
0
 62
9
  6
CONTINUOUS
 10
357.0377858078
 20
43.5028849434
 11
357.0377858078
 21
41.2753244871
  0
LINE
  8
0
 62
9
  6
CONTINUOUS
 10
357.0377858078
 20
189.8562373743
 11
357.0377858078
 21
200.0458321926
  0
LINE
  8
0
 62
9
  6
CONTINUOUS
 10
357.0377858078
 20
233.6526922944
 11
357.0377858078
 21
241.6147266564
  0
LINE
  8
0
 62
9
  6
CONTINUOUS
 10
357.0377858078
 20
264.4242385454
 11
357.0377858078
 21
268.782004377
  0
LINE
  8
DEFAULT_2
 62
8
  6
HIDDEN
 10
357.1296498906
 20
276.017145094
 11
357.1296498906
 21
275.8972175636
  0
LINE
  8
DEFAULT_2
 62
8
  6
HIDDEN
 10
357.1296498906
 20
140.7521867324
 11
357.1296498906
 21
140.727088455
  0
LINE
  8
0
 62
7
  6
CONTINUOUS
 10
357.1296498906
 20
42.2168638136
 11
357.1296498906
 21
48.984476689
  0
LINE
  8
0
 62
7
  6
CONTINUOUS
 10
357.1296498906
 20
60.084159634
 11
357.1296498906
 21
70.3581700454
  0
LINE
  8
0
 62
7
  6
CONTINUOUS
 10
357.1296498906
 20
94.9381229027
 11
357.1296498906
 21
106.9420611136
  0
LINE
  8
0
 62
7
  6
CONTINUOUS
 10
357.1296498906
 20
140.6060708776
 11
357.1296498906
 21
140.727088455
  0
LINE
  8
0
 62
7
  6
CONTINUOUS
 10
357.1296498906
 20
140.7521867324
 11
357.1296498906
 21
152.4104627736
  0
LINE
  8
0
 62
7
  6
CONTINUOUS
 10
357.1296498906
 20
187.6129919846
 11
357.1296498906
 21
199.7084130817
  0
LINE
  8
0
 62
7
  6
CONTINUOUS
 10
357.1296498906
 20
229.5556868635
 11
357.1296498906
 21
240.9435124869
  0
LINE
  8
0
 62
7
  6
CONTINUOUS
 10
357.1296498906
 20
259.1818825323
 11
357.1296498906
 21
267.8930541765
  0
LINE
  8
0
 62
7
  6
CONTINUOUS
 10
357.1296498906
 20
271.3689406143
 11
357.1296498906
 21
275.8972175636
  0
POLYLINE
  8
0
 62
7
  6
CONTINUOUS
 66
1
 70
0
  0
VERTEX
  8
0
 62
7
  6
CONTINUOUS
 10
355.7670160881
 20
150.552087189
  0
VERTEX
  8
0
 62
7
  6
CONTINUOUS
 10
355.7375741111
 20
150.4972783302
  0
VERTEX
  8
0
 62
7
  6
CONTINUOUS
 10
355.7089361827
 20
150.4309672656
  0
VERTEX
  8
0
 62
7
  6
CONTINUOUS
 10
355.6812915343
 20
150.3536364388
  0
VERTEX
  8
0
 62
7
  6
CONTINUOUS
 10
355.6548097228
 20
150.2658237173
  0
VERTEX
  8
0
 62
7
  6
CONTINUOUS
 10
355.6296498906
 20
150.1681325973
  0
SEQEND
  0
POLYLINE
  8
0
 62
7
  6
CONTINUOUS
 66
1
 70
0
  0
VERTEX
  8
0
 62
7
  6
CONTINUOUS
 10
354.6480227071
 20
148.4949436452
  0
VERTEX
  8
0
 62
7
  6
CONTINUOUS
 10
354.7745961036
 20
148.675641069
  0
VERTEX
  8
0
 62
7
  6
CONTINUOUS
 10
354.8993185643
 20
148.8560249515
  0
VERTEX
  8
0
 62
7
  6
CONTINUOUS
 10
355.0191192729
 20
149.0326861284
  0
VERTEX
  8
0
 62
7
  6
CONTINUOUS
 10
355.13111231
 20
149.2022691165
  0
VERTEX
  8
0
 62
7
  6
CONTINUOUS
 10
355.2332697014
 20
149.3624038029
  0
VERTEX
  8
0
 62
7
  6
CONTINUOUS
 10
355.3243211659
 20
149.5115784271
  0
VERTEX
  8
0
 62
7
  6
CONTINUOUS
 10
355.4038578215
 20
149.6494116964
  0
VERTEX
  8
0
 62
7
  6
CONTINUOUS
 10
355.4716341776
 20
149.775593636
  0
VERTEX
  8
0
 62
7
  6
CONTINUOUS
 10
355.5277704962
 20
149.8902712428
  0
VERTEX
  8
0
 62
7
  6
CONTINUOUS
 10
355.5726330776
 20
149.9939511937
  0
VERTEX
  8
0
 62
7
  6
CONTINUOUS
 10
355.6064467907
 20
150.0866041479
  0
VERTEX
  8
0
 62
7
  6
CONTINUOUS
 10
355.6296498906
 20
150.1681325973
  0
SEQEND
  0
POLYLINE
  8
0
 62
7
  6
CONTINUOUS
 66
1
 70
0
  0
VERTEX
  8
0
 62
7
  6
CONTINUOUS
 10
344.127720581
 20
140.9988523971
  0
VERTEX
  8
0
 62
7
  6
CONTINUOUS
 10
344.0255560241
 20
140.8532994271
  0
VERTEX
  8
0
 62
7
  6
CONTINUOUS
 10
343.9345709329
 20
140.7207499083
  0
VERTEX
  8
0
 62
7
  6
CONTINUOUS
 10
343.8551284177
 20
140.6011235195
  0
VERTEX
  8
0
 62
7
  6
CONTINUOUS
 10
343.7874229571
 20
140.4942507519
  0
VERTEX
  8
0
 62
7
  6
CONTINUOUS
 10
343.7312765357
 20
140.3995328056
  0
VERTEX
  8
0
 62
7
  6
CONTINUOUS
 10
343.6863998365
 20
140.3162976458
  0
VERTEX
  8
0
 62
7
  6
CONTINUOUS
 10
343.6526861809
 20
140.2444489152
  0
VERTEX
  8
0
 62
7
  6
CONTINUOUS
 10
343.6296498906
 20
140.1836846115
  0
SEQEND
  0
LINE
  8
DEFAULT_2
 62
8
  6
HIDDEN
 10
344.2397009792
 20
141.1562358337
 11
344.3594482755
 21
141.3234950392
  0
LINE
  8
0
 62
7
  6
CONTINUOUS
 10
344.611277074
 20
141.6764730842
 11
344.127720581
 21
140.9988523971
  0
POLYLINE
  8
0
 62
7
  6
CONTINUOUS
 66
1
 70
0
  0
VERTEX
  8
0
 62
7
  6
CONTINUOUS
 10
357.1296498906
 20
189.604683279
  0
VERTEX
  8
0
 62
7
  6
CONTINUOUS
 10
357.1194445868
 20
189.6953604607
  0
VERTEX
  8
0
 62
7
  6
CONTINUOUS
 10
357.0888032298
 20
189.7793122705
  0
VERTEX
  8
0
 62
7
  6
CONTINUOUS
 10
357.0377858078
 20
189.8562373743
  0
SEQEND
  0
POLYLINE
  8
0
 62
7
  6
CONTINUOUS
 66
1
 70
0
  0
VERTEX
  8
0
 62
7
  6
CONTINUOUS
 10
357.1296498906
 20
233.0485720788
  0
VERTEX
  8
0
 62
7
  6
CONTINUOUS
 10
357.1194445868
 20
233.2559554852
  0
VERTEX
  8
0
 62
7
  6
CONTINUOUS
 10
357.0888032298
 20
233.4576194963
  0
VERTEX
  8
0
 62
7
  6
CONTINUOUS
 10
357.0377858078
 20
233.6526922944
  0
SEQEND
  0
POLYLINE
  8
0
 62
7
  6
CONTINUOUS
 66
1
 70
0
  0
VERTEX
  8
0
 62
7
  6
CONTINUOUS
 10
357.1296498906
 20
263.5720100829
  0
VERTEX
  8
0
 62
7
  6
CONTINUOUS
 10
357.1194445868
 20
263.860241239
  0
VERTEX
  8
0
 62
7
  6
CONTINUOUS
 10
357.0888032298
 20
264.1447479118
  0
VERTEX
  8
0
 62
7
  6
CONTINUOUS
 10
357.0377858078
 20
264.4242385454
  0
SEQEND
  0
POLYLINE
  8
0
 62
7
  6
CONTINUOUS
 66
1
 70
0
  0
VERTEX
  8
0
 62
7
  6
CONTINUOUS
 10
357.1296498906
 20
275.8972175636
  0
VERTEX
  8
0
 62
7
  6
CONTINUOUS
 10
357.1194445868
 20
276.216458684
  0
VERTEX
  8
0
 62
7
  6
CONTINUOUS
 10
357.0888032298
 20
276.5346142302
  0
VERTEX
  8
0
 62
7
  6
CONTINUOUS
 10
357.0377858078
 20
276.8501962295
  0
SEQEND
  0
LINE
  8
0
 62
7
  6
CONTINUOUS
 10
364.6296498906
 20
46.5166867996
 11
364.6296498906
 21
198.901475311
  0
LINE
  8
DEFAULT_2
 62
8
  6
HIDDEN
 10
364.6296498906
 20
198.901475311
 11
364.6296498906
 21
198.9033935562
  0
LINE
  8
0
 62
7
  6
CONTINUOUS
 10
364.6296498906
 20
198.9033935562
 11
364.6296498906
 21
271.5246163247
  0
POLYLINE
  8
0
 62
7
  6
CONTINUOUS
 66
1
 70
0
  0
VERTEX
  8
0
 62
7
  6
CONTINUOUS
 10
357.1296498906
 20
42.2168638136
  0
VERTEX
  8
0
 62
7
  6
CONTINUOUS
 10
357.1194445868
 20
41.9028557258
  0
VERTEX
  8
0
 62
7
  6
CONTINUOUS
 10
357.0888032298
 20
41.5885125832
  0
VERTEX
  8
0
 62
7
  6
CONTINUOUS
 10
357.0377858078
 20
41.2753244871
  0
SEQEND
  0
POLYLINE
  8
0
 62
7
  6
CONTINUOUS
 66
1
 70
0
  0
VERTEX
  8
0
 62
7
  6
CONTINUOUS
 10
357.1296498906
 20
60.084159634
  0
VERTEX
  8
0
 62
7
  6
CONTINUOUS
 10
357.1194445868
 20
59.8209600938
  0
VERTEX
  8
0
 62
7
  6
CONTINUOUS
 10
357.0888032298
 20
59.5546896194
  0
VERTEX
  8
0
 62
7
  6
CONTINUOUS
 10
357.0377858078
 20
59.2866499489
  0
SEQEND
  0
POLYLINE
  8
0
 62
7
  6
CONTINUOUS
 66
1
 70
0
  0
VERTEX
  8
0
 62
7
  6
CONTINUOUS
 10
357.1296498906
 20
94.9381229027
  0
VERTEX
  8
0
 62
7
  6
CONTINUOUS
 10
357.1194445868
 20
94.7712415017
  0
VERTEX
  8
0
 62
7
  6
CONTINUOUS
 10
357.0888032298
 20
94.5990842796
  0
VERTEX
  8
0
 62
7
  6
CONTINUOUS
 10
357.0377858078
 20
94.4225395288
  0
SEQEND
  0
POLYLINE
  8
0
 62
7
  6
CONTINUOUS
 66
1
 70
0
  0
VERTEX
  8
0
 62
7
  6
CONTINUOUS
 10
357.1296498906
 20
140.7521867324
  0
VERTEX
  8
0
 62
7
  6
CONTINUOUS
 10
357.1194445868
 20
140.7104787809
  0
VERTEX
  8
0
 62
7
  6
CONTINUOUS
 10
357.0888032298
 20
140.6622023587
  0
VERTEX
  8
0
 62
7
  6
CONTINUOUS
 10
357.0377858078
 20
140.6076787189
  0
SEQEND
  0
POLYLINE
  8
0
 62
7
  6
CONTINUOUS
 66
1
 70
0
  0
VERTEX
  8
0
 62
7
  6
CONTINUOUS
 10
357.0377858078
 20
140.6076787189
  0
VERTEX
  8
0
 62
7
  6
CONTINUOUS
 10
356.9659722032
 20
140.5356483522
  0
VERTEX
  8
0
 62
7
  6
CONTINUOUS
 10
356.8942643684
 20
140.4547362736
  0
VERTEX
  8
0
 62
7
  6
CONTINUOUS
 10
356.822706848
 20
140.3649959151
  0
SEQEND
  0
POLYLINE
  8
0
 62
7
  6
CONTINUOUS
 66
1
 70
0
  0
VERTEX
  8
0
 62
7
  6
CONTINUOUS
 10
343.492283693
 20
139.9502709195
  0
VERTEX
  8
0
 62
7
  6
CONTINUOUS
 10
343.3442657535
 20
139.8885354413
  0
VERTEX
  8
0
 62
7
  6
CONTINUOUS
 10
343.190404848
 20
139.8671485373
  0
SEQEND
  0
POLYLINE
  8
0
 62
7
  6
CONTINUOUS
 66
1
 70
0
  0
VERTEX
  8
0
 62
7
  6
CONTINUOUS
 10
343.6296498906
 20
201.9701177128
  0
VERTEX
  8
0
 62
7
  6
CONTINUOUS
 10
343.6526821202
 20
201.9322675713
  0
VERTEX
  8
0
 62
7
  6
CONTINUOUS
 10
343.6863978323
 20
201.8842043199
  0
VERTEX
  8
0
 62
7
  6
CONTINUOUS
 10
343.7312802302
 20
201.8251646739
  0
VERTEX
  8
0
 62
7
  6
CONTINUOUS
 10
343.7874288472
 20
201.7546184802
  0
VERTEX
  8
0
 62
7
  6
CONTINUOUS
 10
343.855128359
 20
201.6716429413
  0
SEQEND
  0
POLYLINE
  8
0
 62
7
  6
CONTINUOUS
 66
1
 70
0
  0
VERTEX
  8
0
 62
7
  6
CONTINUOUS
 10
355.7670160881
 20
191.9043231814
  0
VERTEX
  8
0
 62
7
  6
CONTINUOUS
 10
355.9150340277
 20
191.5310325768
  0
VERTEX
  8
0
 62
7
  6
CONTINUOUS
 10
356.0646301519
 20
191.1936554412
  0
VERTEX
  8
0
 62
7
  6
CONTINUOUS
 10
356.2154376519
 20
190.8931110558
  0
VERTEX
  8
0
 62
7
  6
CONTINUOUS
 10
356.3670642354
 20
190.630252788
  0
VERTEX
  8
0
 62
7
  6
CONTINUOUS
 10
356.5191025311
 20
190.4058331781
  0
VERTEX
  8
0
 62
7
  6
CONTINUOUS
 10
356.671129344
 20
190.220496836
  0
VERTEX
  8
0
 62
7
  6
CONTINUOUS
 10
356.822706848
 20
190.0747695543
  0
SEQEND
  0
POLYLINE
  8
0
 62
7
  6
CONTINUOUS
 66
1
 70
0
  0
VERTEX
  8
0
 62
7
  6
CONTINUOUS
 10
355.6296498906
 20
192.4220380146
  0
VERTEX
  8
0
 62
7
  6
CONTINUOUS
 10
355.6064442128
 20
192.5203861012
  0
VERTEX
  8
0
 62
7
  6
CONTINUOUS
 10
355.5726328484
 20
192.6296491156
  0
VERTEX
  8
0
 62
7
  6
CONTINUOUS
 10
355.5277752023
 20
192.7493120007
  0
VERTEX
  8
0
 62
7
  6
CONTINUOUS
 10
355.4716404557
 20
192.8789855583
  0
VERTEX
  8
0
 62
7
  6
CONTINUOUS
 10
355.4038582655
 20
193.0188871375
  0
VERTEX
  8
0
 62
7
  6
CONTINUOUS
 10
355.3243131469
 20
193.1687982656
  0
VERTEX
  8
0
 62
7
  6
CONTINUOUS
 10
355.2332604283
 20
193.3280002971
  0
VERTEX
  8
0
 62
7
  6
CONTINUOUS
 10
355.1311104715
 20
193.4957274205
  0
VERTEX
  8
0
 62
7
  6
CONTINUOUS
 10
355.0191202201
 20
193.6700827176
  0
VERTEX
  8
0
 62
7
  6
CONTINUOUS
 10
354.8993076139
 20
193.8483697017
  0
VERTEX
  8
0
 62
7
  6
CONTINUOUS
 10
354.7745788526
 20
194.0269960197
  0
VERTEX
  8
0
 62
7
  6
CONTINUOUS
 10
354.6480227071
 20
194.2025010602
  0
SEQEND
  0
POLYLINE
  8
0
 62
7
  6
CONTINUOUS
 66
1
 70
0
  0
VERTEX
  8
0
 62
7
  6
CONTINUOUS
 10
355.6296498906
 20
192.4220380146
  0
VERTEX
  8
0
 62
7
  6
CONTINUOUS
 10
355.6548157967
 20
192.300798271
  0
VERTEX
  8
0
 62
7
  6
CONTINUOUS
 10
355.6812881087
 20
192.1877292961
  0
VERTEX
  8
0
 62
7
  6
CONTINUOUS
 10
355.7089259961
 20
192.0835001379
  0
VERTEX
  8
0
 62
7
  6
CONTINUOUS
 10
355.737561242
 20
191.9888158135
  0
VERTEX
  8
0
 62
7
  6
CONTINUOUS
 10
355.7670160881
 20
191.9043231814
  0
SEQEND
  0
POLYLINE
  8
0
 62
7
  6
CONTINUOUS
 66
1
 70
0
  0
VERTEX
  8
0
 62
7
  6
CONTINUOUS
 10
355.6296498906
 20
238.7646374422
  0
VERTEX
  8
0
 62
7
  6
CONTINUOUS
 10
355.6548157967
 20
238.6130370218
  0
VERTEX
  8
0
 62
7
  6
CONTINUOUS
 10
355.6812881087
 20
238.4651052184
  0
VERTEX
  8
0
 62
7
  6
CONTINUOUS
 10
355.7089259961
 20
238.3216914188
  0
VERTEX
  8
0
 62
7
  6
CONTINUOUS
 10
355.737561242
 20
238.1837326019
  0
VERTEX
  8
0
 62
7
  6
CONTINUOUS
 10
355.7670160881
 20
238.0521390658
  0
SEQEND
  0
POLYLINE
  8
0
 62
7
  6
CONTINUOUS
 66
1
 70
0
  0
VERTEX
  8
0
 62
7
  6
CONTINUOUS
 10
357.0377858078
 20
43.5028849434
  0
VERTEX
  8
0
 62
7
  6
CONTINUOUS
 10
357.0888032298
 20
43.8070683981
  0
VERTEX
  8
0
 62
7
  6
CONTINUOUS
 10
357.1194445868
 20
44.1151314239
  0
VERTEX
  8
0
 62
7
  6
CONTINUOUS
 10
357.1296498906
 20
44.4256532082
  0
SEQEND
  0
POLYLINE
  8
0
 62
7
  6
CONTINUOUS
 66
1
 70
0
  0
VERTEX
  8
0
 62
7
  6
CONTINUOUS
 10
355.7089361827
 20
36.7803612992
  0
VERTEX
  8
0
 62
7
  6
CONTINUOUS
 10
355.6812915343
 20
36.6255911511
  0
VERTEX
  8
0
 62
7
  6
CONTINUOUS
 10
355.6296498906
 20
36.3264118282
  0
SEQEND
  0
POLYLINE
  8
0
 62
7
  6
CONTINUOUS
 66
1
 70
0
  0
VERTEX
  8
0
 62
7
  6
CONTINUOUS
 10
355.7670160881
 20
60.2733364162
  0
VERTEX
  8
0
 62
7
  6
CONTINUOUS
 10
355.7375741111
 20
60.1264234527
  0
VERTEX
  8
0
 62
7
  6
CONTINUOUS
 10
355.7089361827
 20
59.9754447392
  0
VERTEX
  8
0
 62
7
  6
CONTINUOUS
 10
355.6812915343
 20
59.821437156
  0
VERTEX
  8
0
 62
7
  6
CONTINUOUS
 10
355.6548097228
 20
59.6653982717
  0
VERTEX
  8
0
 62
7
  6
CONTINUOUS
 10
355.6296498906
 20
59.5083277136
  0
SEQEND
  0
POLYLINE
  8
0
 62
7
  6
CONTINUOUS
 66
1
 70
0
  0
VERTEX
  8
0
 62
7
  6
CONTINUOUS
 10
357.0377858078
 20
65.5841658782
  0
VERTEX
  8
0
 62
7
  6
CONTINUOUS
 10
357.0888032298
 20
65.8267486087
  0
VERTEX
  8
0
 62
7
  6
CONTINUOUS
 10
357.1194445868
 20
66.0752646219
  0
VERTEX
  8
0
 62
7
  6
CONTINUOUS
 10
357.1296498906
 20
66.3286080652
  0
SEQEND
  0
POLYLINE
  8
0
 62
7
  6
CONTINUOUS
 66
1
 70
0
  0
VERTEX
  8
0
 62
7
  6
CONTINUOUS
 10
355.7670160881
 20
100.4053260699
  0
VERTEX
  8
0
 62
7
  6
CONTINUOUS
 10
355.7375741111
 20
100.2949200575
  0
VERTEX
  8
0
 62
7
  6
CONTINUOUS
 10
355.7089361827
 20
100.1759934205
  0
VERTEX
  8
0
 62
7
  6
CONTINUOUS
 10
355.6812915343
 20
100.0493777124
  0
VERTEX
  8
0
 62
7
  6
CONTINUOUS
 10
355.6548097228
 20
99.9159133052
  0
VERTEX
  8
0
 62
7
  6
CONTINUOUS
 10
355.6296498906
 20
99.7764776177
  0
SEQEND
  0
POLYLINE
  8
0
 62
7
  6
CONTINUOUS
 66
1
 70
0
  0
VERTEX
  8
0
 62
7
  6
CONTINUOUS
 10
357.0377858078
 20
94.4225395288
  0
VERTEX
  8
0
 62
7
  6
CONTINUOUS
 10
356.9659722032
 20
94.2091891371
  0
VERTEX
  8
0
 62
7
  6
CONTINUOUS
 10
356.8942643684
 20
93.9884964915
  0
VERTEX
  8
0
 62
7
  6
CONTINUOUS
 10
356.822706848
 20
93.7606038027
  0
SEQEND
  0
POLYLINE
  8
0
 62
7
  6
CONTINUOUS
 66
1
 70
0
  0
VERTEX
  8
0
 62
7
  6
CONTINUOUS
 10
357.0377858078
 20
103.7011132158
  0
VERTEX
  8
0
 62
7
  6
CONTINUOUS
 10
357.0888032298
 20
103.8401504642
  0
VERTEX
  8
0
 62
7
  6
CONTINUOUS
 10
357.1194445868
 20
103.9861487883
  0
VERTEX
  8
0
 62
7
  6
CONTINUOUS
 10
357.1296498906
 20
104.1385085078
  0
SEQEND
  0
LINE
  8
0
 62
9
  6
CONTINUOUS
 10
334.6296498906
 20
178.1906830276
 11
364.6296498906
 21
178.1906830276
  0
POLYLINE
  8
0
 62
7
  6
CONTINUOUS
 66
1
 70
0
  0
VERTEX
  8
0
 62
7
  6
CONTINUOUS
 10
357.0377858078
 20
189.8562373743
  0
VERTEX
  8
0
 62
7
  6
CONTINUOUS
 10
356.9659722032
 20
189.9379817375
  0
VERTEX
  8
0
 62
7
  6
CONTINUOUS
 10
356.8942643684
 20
190.0108406593
  0
VERTEX
  8
0
 62
7
  6
CONTINUOUS
 10
356.822706848
 20
190.0747695543
  0
SEQEND
  0
POLYLINE
  8
0
 62
7
  6
CONTINUOUS
 66
1
 70
0
  0
VERTEX
  8
0
 62
7
  6
CONTINUOUS
 10
343.855128359
 20
201.6716429413
  0
VERTEX
  8
0
 62
7
  6
CONTINUOUS
 10
344.127717187
 20
201.3405580503
  0
VERTEX
  8
0
 62
7
  6
CONTINUOUS
 10
344.2397009792
 20
201.2022511062
  0
VERTEX
  8
0
 62
7
  6
CONTINUOUS
 10
344.3594482755
 20
201.0516421879
  0
VERTEX
  8
0
 62
7
  6
CONTINUOUS
 10
344.4842767165
 20
200.890989291
  0
VERTEX
  8
0
 62
7
  6
CONTINUOUS
 10
344.611277074
 20
200.7229717391
  0
SEQEND
  0
POLYLINE
  8
0
 62
7
  6
CONTINUOUS
 66
1
 70
0
  0
VERTEX
  8
0
 62
7
  6
CONTINUOUS
 10
356.822706848
 20
200.5082463156
  0
VERTEX
  8
0
 62
7
  6
CONTINUOUS
 10
356.6711587309
 20
200.8420925653
  0
VERTEX
  8
0
 62
7
  6
CONTINUOUS
 10
356.5191607055
 20
201.1389191183
  0
VERTEX
  8
0
 62
7
  6
CONTINUOUS
 10
356.3671383782
 20
201.3978959144
  0
VERTEX
  8
0
 62
7
  6
CONTINUOUS
 10
356.215505258
 20
201.6183138654
  0
VERTEX
  8
0
 62
7
  6
CONTINUOUS
 10
356.0646676584
 20
201.799575316
  0
VERTEX
  8
0
 62
7
  6
CONTINUOUS
 10
355.9150390206
 20
201.9411855347
  0
VERTEX
  8
0
 62
7
  6
CONTINUOUS
 10
355.7670160881
 20
202.0427892068
  0
SEQEND
  0
POLYLINE
  8
0
 62
7
  6
CONTINUOUS
 66
1
 70
0
  0
VERTEX
  8
0
 62
7
  6
CONTINUOUS
 10
356.822706848
 20
200.5082463156
  0
VERTEX
  8
0
 62
7
  6
CONTINUOUS
 10
356.8942641744
 20
200.3458821648
  0
VERTEX
  8
0
 62
7
  6
CONTINUOUS
 10
356.9659714254
 20
200.1917119858
  0
VERTEX
  8
0
 62
7
  6
CONTINUOUS
 10
357.0377858078
 20
200.0458321926
  0
SEQEND
  0
POLYLINE
  8
0
 62
7
  6
CONTINUOUS
 66
1
 70
0
  0
VERTEX
  8
0
 62
7
  6
CONTINUOUS
 10
357.0377858078
 20
200.0458321926
  0
VERTEX
  8
0
 62
7
  6
CONTINUOUS
 10
357.0888032298
 20
199.9277168946
  0
VERTEX
  8
0
 62
7
  6
CONTINUOUS
 10
357.1194445868
 20
199.8150377631
  0
VERTEX
  8
0
 62
7
  6
CONTINUOUS
 10
357.1296498906
 20
199.7084130817
  0
SEQEND
  0
POLYLINE
  8
0
 62
7
  6
CONTINUOUS
 66
1
 70
0
  0
VERTEX
  8
0
 62
7
  6
CONTINUOUS
 10
356.822706848
 20
242.4472542182
  0
VERTEX
  8
0
 62
7
  6
CONTINUOUS
 10
356.6711587309
 20
243.0399518471
  0
VERTEX
  8
0
 62
7
  6
CONTINUOUS
 10
356.5191607055
 20
243.6055045955
  0
VERTEX
  8
0
 62
7
  6
CONTINUOUS
 10
356.3671383782
 20
244.1423395316
  0
VERTEX
  8
0
 62
7
  6
CONTINUOUS
 10
356.215505258
 20
244.6489851094
  0
VERTEX
  8
0
 62
7
  6
CONTINUOUS
 10
356.0646676584
 20
245.1240536211
  0
VERTEX
  8
0
 62
7
  6
CONTINUOUS
 10
355.9150390206
 20
245.5662036004
  0
VERTEX
  8
0
 62
7
  6
CONTINUOUS
 10
355.7670160881
 20
245.9742219661
  0
SEQEND
  0
POLYLINE
  8
0
 62
7
  6
CONTINUOUS
 66
1
 70
0
  0
VERTEX
  8
0
 62
7
  6
CONTINUOUS
 10
356.822706848
 20
242.4472542182
  0
VERTEX
  8
0
 62
7
  6
CONTINUOUS
 10
356.8942641744
 20
242.1637941834
  0
VERTEX
  8
0
 62
7
  6
CONTINUOUS
 10
356.9659714254
 20
241.8862278124
  0
VERTEX
  8
0
 62
7
  6
CONTINUOUS
 10
357.0377858078
 20
241.6147266564
  0
SEQEND
  0
POLYLINE
  8
0
 62
7
  6
CONTINUOUS
 66
1
 70
0
  0
VERTEX
  8
0
 62
7
  6
CONTINUOUS
 10
355.7670160881
 20
238.0521390658
  0
VERTEX
  8
0
 62
7
  6
CONTINUOUS
 10
355.9150340277
 20
237.4318386714
  0
VERTEX
  8
0
 62
7
  6
CONTINUOUS
 10
356.0646301519
 20
236.8367905635
  0
VERTEX
  8
0
 62
7
  6
CONTINUOUS
 10
356.2154376519
 20
236.2685819842
  0
VERTEX
  8
0
 62
7
  6
CONTINUOUS
 10
356.3670642354
 20
235.7287880691
  0
VERTEX
  8
0
 62
7
  6
CONTINUOUS
 10
356.5191025311
 20
235.2189202453
  0
VERTEX
  8
0
 62
7
  6
CONTINUOUS
 10
356.671129344
 20
234.7404212729
  0
VERTEX
  8
0
 62
7
  6
CONTINUOUS
 10
356.822706848
 20
234.2946532591
  0
SEQEND
  0
POLYLINE
  8
0
 62
7
  6
CONTINUOUS
 66
1
 70
0
  0
VERTEX
  8
0
 62
7
  6
CONTINUOUS
 10
357.0377858078
 20
241.6147266564
  0
VERTEX
  8
0
 62
7
  6
CONTINUOUS
 10
357.0888032298
 20
241.3874683055
  0
VERTEX
  8
0
 62
7
  6
CONTINUOUS
 10
357.1194445868
 20
241.1633570895
  0
VERTEX
  8
0
 62
7
  6
CONTINUOUS
 10
357.1296498906
 20
240.9435124869
  0
SEQEND
  0
POLYLINE
  8
0
 62
7
  6
CONTINUOUS
 66
1
 70
0
  0
VERTEX
  8
0
 62
7
  6
CONTINUOUS
 10
355.6296498906
 20
271.1984264439
  0
VERTEX
  8
0
 62
7
  6
CONTINUOUS
 10
355.6064442128
 20
271.3166430875
  0
VERTEX
  8
0
 62
7
  6
CONTINUOUS
 10
355.5726328484
 20
271.440616062
  0
VERTEX
  8
0
 62
7
  6
CONTINUOUS
 10
355.5277752023
 20
271.5685062733
  0
VERTEX
  8
0
 62
7
  6
CONTINUOUS
 10
355.4716404557
 20
271.6987540293
  0
VERTEX
  8
0
 62
7
  6
CONTINUOUS
 10
355.4038582655
 20
271.8304367949
  0
VERTEX
  8
0
 62
7
  6
CONTINUOUS
 10
355.3243131469
 20
271.9621568976
  0
VERTEX
  8
0
 62
7
  6
CONTINUOUS
 10
355.2332604283
 20
272.0920853744
  0
VERTEX
  8
0
 62
7
  6
CONTINUOUS
 10
355.1311104715
 20
272.2183967508
  0
VERTEX
  8
0
 62
7
  6
CONTINUOUS
 10
355.0191202201
 20
272.338517699
  0
VERTEX
  8
0
 62
7
  6
CONTINUOUS
 10
354.8993076139
 20
272.4496384139
  0
VERTEX
  8
0
 62
7
  6
CONTINUOUS
 10
354.7745788526
 20
272.5488971389
  0
VERTEX
  8
0
 62
7
  6
CONTINUOUS
 10
354.6480227071
 20
272.6341538673
  0
SEQEND
  0
POLYLINE
  8
0
 62
7
  6
CONTINUOUS
 66
1
 70
0
  0
VERTEX
  8
0
 62
7
  6
CONTINUOUS
 10
355.6296498906
 20
238.7646374422
  0
VERTEX
  8
0
 62
7
  6
CONTINUOUS
 10
355.6064442128
 20
238.8831672474
  0
VERTEX
  8
0
 62
7
  6
CONTINUOUS
 10
355.5726328484
 20
239.0108215348
  0
VERTEX
  8
0
 62
7
  6
CONTINUOUS
 10
355.5277752023
 20
239.1463118349
  0
VERTEX
  8
0
 62
7
  6
CONTINUOUS
 10
355.4716404557
 20
239.2885714846
  0
VERTEX
  8
0
 62
7
  6
CONTINUOUS
 10
355.4038582655
 20
239.4372145228
  0
VERTEX
  8
0
 62
7
  6
CONTINUOUS
 10
355.3243131469
 20
239.591356404
  0
VERTEX
  8
0
 62
7
  6
CONTINUOUS
 10
355.2332604283
 20
239.7496027758
  0
VERTEX
  8
0
 62
7
  6
CONTINUOUS
 10
355.1311104715
 20
239.9105353804
  0
VERTEX
  8
0
 62
7
  6
CONTINUOUS
 10
355.0191202201
 20
240.0717075711
  0
VERTEX
  8
0
 62
7
  6
CONTINUOUS
 10
354.8993076139
 20
240.2301056544
  0
VERTEX
  8
0
 62
7
  6
CONTINUOUS
 10
354.7745788526
 20
240.382197179
  0
VERTEX
  8
0
 62
7
  6
CONTINUOUS
 10
354.6480227071
 20
240.5249168252
  0
SEQEND
  0
POLYLINE
  8
0
 62
7
  6
CONTINUOUS
 66
1
 70
0
  0
VERTEX
  8
0
 62
7
  6
CONTINUOUS
 10
355.7670160881
 20
270.4143419664
  0
VERTEX
  8
0
 62
7
  6
CONTINUOUS
 10
355.9150340277
 20
269.6542873557
  0
VERTEX
  8
0
 62
7
  6
CONTINUOUS
 10
356.0646301519
 20
268.9044574992
  0
VERTEX
  8
0
 62
7
  6
CONTINUOUS
 10
356.2154376519
 20
268.1668331514
  0
VERTEX
  8
0
 62
7
  6
CONTINUOUS
 10
356.3670642354
 20
267.4434388607
  0
VERTEX
  8
0
 62
7
  6
CONTINUOUS
 10
356.5191025311
 20
266.7362836019
  0
VERTEX
  8
0
 62
7
  6
CONTINUOUS
 10
356.671129344
 20
266.0473588185
  0
VERTEX
  8
0
 62
7
  6
CONTINUOUS
 10
356.8942643684
 20
265.0651811623
  0
SEQEND
  0
POLYLINE
  8
0
 62
7
  6
CONTINUOUS
 66
1
 70
0
  0
VERTEX
  8
0
 62
7
  6
CONTINUOUS
 10
357.0377858078
 20
268.782004377
  0
VERTEX
  8
0
 62
7
  6
CONTINUOUS
 10
357.0888032298
 20
268.4848980067
  0
VERTEX
  8
0
 62
7
  6
CONTINUOUS
 10
357.1194445868
 20
268.1881055714
  0
VERTEX
  8
0
 62
7
  6
CONTINUOUS
 10
357.1296498906
 20
267.8930541765
  0
SEQEND
  0
POLYLINE
  8
0
 62
7
  6
CONTINUOUS
 66
1
 70
0
  0
VERTEX
  8
0
 62
7
  6
CONTINUOUS
 10
355.6296498906
 20
271.1984264439
  0
VERTEX
  8
0
 62
7
  6
CONTINUOUS
 10
355.6548157967
 20
271.0426784368
  0
VERTEX
  8
0
 62
7
  6
CONTINUOUS
 10
355.6812881087
 20
270.8854625574
  0
VERTEX
  8
0
 62
7
  6
CONTINUOUS
 10
355.7089259961
 20
270.7276616653
  0
VERTEX
  8
0
 62
7
  6
CONTINUOUS
 10
355.737561242
 20
270.5702826887
  0
VERTEX
  8
0
 62
7
  6
CONTINUOUS
 10
355.7670160881
 20
270.4143419664
  0
SEQEND
  0
LINE
  8
0
 62
7
  6
CONTINUOUS
 10
355.7670160881
 20
37.0953038266
 11
355.7089361827
 21
36.7803612992
  0
LINE
  8
0
 62
7
  6
CONTINUOUS
 10
357.0377858078
 20
41.2753244871
 11
356.671129344
 21
39.3912740801
  0
POLYLINE
  8
0
 62
7
  6
CONTINUOUS
 66
1
 70
0
  0
VERTEX
  8
0
 62
7
  6
CONTINUOUS
 10
356.6711587309
 20
41.7134323344
  0
VERTEX
  8
0
 62
7
  6
CONTINUOUS
 10
356.5191607055
 20
40.9625895934
  0
VERTEX
  8
0
 62
7
  6
CONTINUOUS
 10
356.3671383782
 20
40.2013756263
  0
VERTEX
  8
0
 62
7
  6
CONTINUOUS
 10
356.215505258
 20
39.4318787524
  0
VERTEX
  8
0
 62
7
  6
CONTINUOUS
 10
356.0646676584
 20
38.6562195609
  0
VERTEX
  8
0
 62
7
  6
CONTINUOUS
 10
355.9150390206
 20
37.8766247199
  0
VERTEX
  8
0
 62
7
  6
CONTINUOUS
 10
355.7670160881
 20
37.0953038266
  0
SEQEND
  0
POLYLINE
  8
0
 62
7
  6
CONTINUOUS
 66
1
 70
0
  0
VERTEX
  8
0
 62
7
  6
CONTINUOUS
 10
355.9150340277
 20
35.6008206884
  0
VERTEX
  8
0
 62
7
  6
CONTINUOUS
 10
356.0646301519
 20
36.337442793
  0
VERTEX
  8
0
 62
7
  6
CONTINUOUS
 10
356.2154376519
 20
37.0868633473
  0
VERTEX
  8
0
 62
7
  6
CONTINUOUS
 10
356.3670642354
 20
37.8470479419
  0
VERTEX
  8
0
 62
7
  6
CONTINUOUS
 10
356.5191025311
 20
38.6159032601
  0
VERTEX
  8
0
 62
7
  6
CONTINUOUS
 10
356.671129344
 20
39.3912740801
  0
SEQEND
  0
POLYLINE
  8
0
 62
7
  6
CONTINUOUS
 66
1
 70
0
  0
VERTEX
  8
0
 62
7
  6
CONTINUOUS
 10
356.6711587309
 20
41.7134323344
  0
VERTEX
  8
0
 62
7
  6
CONTINUOUS
 10
356.8942641744
 20
42.7992139463
  0
VERTEX
  8
0
 62
7
  6
CONTINUOUS
 10
357.0377858078
 20
43.5028849434
  0
SEQEND
  0
LINE
  8
0
 62
7
  6
CONTINUOUS
 10
355.737561242
 20
34.7370601434
 11
355.9150340277
 21
35.6008206884
  0
POLYLINE
  8
0
 62
7
  6
CONTINUOUS
 66
1
 70
0
  0
VERTEX
  8
0
 62
7
  6
CONTINUOUS
 10
355.6296498906
 20
34.2390938192
  0
VERTEX
  8
0
 62
7
  6
CONTINUOUS
 10
355.6548157967
 20
34.3516316006
  0
VERTEX
  8
0
 62
7
  6
CONTINUOUS
 10
355.6812881087
 20
34.4725963915
  0
VERTEX
  8
0
 62
7
  6
CONTINUOUS
 10
355.737561242
 20
34.7370601434
  0
SEQEND
  0
POLYLINE
  8
0
 62
7
  6
CONTINUOUS
 66
1
 70
0
  0
VERTEX
  8
0
 62
7
  6
CONTINUOUS
 10
357.0377858078
 20
59.2866499489
  0
VERTEX
  8
0
 62
7
  6
CONTINUOUS
 10
356.9659722032
 20
58.968869753
  0
VERTEX
  8
0
 62
7
  6
CONTINUOUS
 10
356.8942643684
 20
58.6465563039
  0
SEQEND
  0
POLYLINE
  8
0
 62
7
  6
CONTINUOUS
 66
1
 70
0
  0
VERTEX
  8
0
 62
7
  6
CONTINUOUS
 10
356.822706848
 20
64.7681592602
  0
VERTEX
  8
0
 62
7
  6
CONTINUOUS
 10
356.6711587309
 20
64.1985731629
  0
VERTEX
  8
0
 62
7
  6
CONTINUOUS
 10
356.5191607055
 20
63.6019411043
  0
VERTEX
  8
0
 62
7
  6
CONTINUOUS
 10
356.3671383782
 20
62.9799114096
  0
VERTEX
  8
0
 62
7
  6
CONTINUOUS
 10
356.215505258
 20
62.3341911275
  0
VERTEX
  8
0
 62
7
  6
CONTINUOUS
 10
356.0646676584
 20
61.6665637403
  0
VERTEX
  8
0
 62
7
  6
CONTINUOUS
 10
355.9150390206
 20
60.9789562661
  0
VERTEX
  8
0
 62
7
  6
CONTINUOUS
 10
355.7670160881
 20
60.2733364162
  0
SEQEND
  0
POLYLINE
  8
0
 62
7
  6
CONTINUOUS
 66
1
 70
0
  0
VERTEX
  8
0
 62
7
  6
CONTINUOUS
 10
356.822706848
 20
64.7681592602
  0
VERTEX
  8
0
 62
7
  6
CONTINUOUS
 10
356.8942641744
 20
65.0339622364
  0
VERTEX
  8
0
 62
7
  6
CONTINUOUS
 10
356.9659714254
 20
65.3060195713
  0
VERTEX
  8
0
 62
7
  6
CONTINUOUS
 10
357.0377858078
 20
65.5841658782
  0
SEQEND
  0
POLYLINE
  8
0
 62
7
  6
CONTINUOUS
 66
1
 70
0
  0
VERTEX
  8
0
 62
7
  6
CONTINUOUS
 10
355.7670160881
 20
54.0074198188
  0
VERTEX
  8
0
 62
7
  6
CONTINUOUS
 10
355.9150340277
 20
54.5451020173
  0
VERTEX
  8
0
 62
7
  6
CONTINUOUS
 10
356.0646301519
 20
55.1115506914
  0
VERTEX
  8
0
 62
7
  6
CONTINUOUS
 10
356.2154376519
 20
55.7053022116
  0
VERTEX
  8
0
 62
7
  6
CONTINUOUS
 10
356.3670642354
 20
56.3247600895
  0
VERTEX
  8
0
 62
7
  6
CONTINUOUS
 10
356.5191025311
 20
56.9682302681
  0
VERTEX
  8
0
 62
7
  6
CONTINUOUS
 10
356.671129344
 20
57.6339153499
  0
VERTEX
  8
0
 62
7
  6
CONTINUOUS
 10
356.8942643684
 20
58.6465563039
  0
SEQEND
  0
POLYLINE
  8
0
 62
7
  6
CONTINUOUS
 66
1
 70
0
  0
VERTEX
  8
0
 62
7
  6
CONTINUOUS
 10
356.822706848
 20
103.2612546791
  0
VERTEX
  8
0
 62
7
  6
CONTINUOUS
 10
356.6711587309
 20
102.9589619625
  0
VERTEX
  8
0
 62
7
  6
CONTINUOUS
 10
356.5191607055
 20
102.6197036894
  0
VERTEX
  8
0
 62
7
  6
CONTINUOUS
 10
356.3671383782
 20
102.2444128521
  0
VERTEX
  8
0
 62
7
  6
CONTINUOUS
 10
356.215505258
 20
101.8341200649
  0
VERTEX
  8
0
 62
7
  6
CONTINUOUS
 10
356.0646676584
 20
101.3899633224
  0
VERTEX
  8
0
 62
7
  6
CONTINUOUS
 10
355.9150390206
 20
100.9132367939
  0
VERTEX
  8
0
 62
7
  6
CONTINUOUS
 10
355.7670160881
 20
100.4053260699
  0
SEQEND
  0
POLYLINE
  8
0
 62
7
  6
CONTINUOUS
 66
1
 70
0
  0
VERTEX
  8
0
 62
7
  6
CONTINUOUS
 10
356.822706848
 20
103.2612546791
  0
VERTEX
  8
0
 62
7
  6
CONTINUOUS
 10
356.8942641744
 20
103.3995121374
  0
VERTEX
  8
0
 62
7
  6
CONTINUOUS
 10
356.9659714254
 20
103.5461609824
  0
VERTEX
  8
0
 62
7
  6
CONTINUOUS
 10
357.0377858078
 20
103.7011132158
  0
SEQEND
  0
LINE
  8
0
 62
7
  6
CONTINUOUS
 10
334.6296498906
 20
187.6129919846
 11
342.1296498906
 21
187.6129919846
  0
LINE
  8
0
 62
7
  6
CONTINUOUS
 10
357.1296498906
 20
187.6129919846
 11
364.6296498906
 21
187.6129919846
  0
LINE
  8
0
 62
9
  6
CONTINUOUS
 10
342.4365929331
 20
190.0747695543
 11
356.822706848
 21
190.0747695543
  0
LINE
  8
0
 62
9
  6
CONTINUOUS
 10
343.492283693
 20
191.9043231814
 11
355.7670160881
 21
191.9043231814
  0
LINE
  8
0
 62
9
  6
CONTINUOUS
 10
344.611277074
 20
194.2025010602
 11
354.6480227071
 21
194.2025010602
  0
POLYLINE
  8
0
 62
7
  6
CONTINUOUS
 66
1
 70
0
  0
VERTEX
  8
0
 62
7
  6
CONTINUOUS
 10
357.0377858078
 20
233.6526922944
  0
VERTEX
  8
0
 62
7
  6
CONTINUOUS
 10
356.9659722032
 20
233.8740770445
  0
VERTEX
  8
0
 62
7
  6
CONTINUOUS
 10
356.8942643684
 20
234.0881089972
  0
VERTEX
  8
0
 62
7
  6
CONTINUOUS
 10
356.822706848
 20
234.2946532591
  0
SEQEND
  0
POLYLINE
  8
0
 62
7
  6
CONTINUOUS
 66
1
 70
0
  0
VERTEX
  8
0
 62
7
  6
CONTINUOUS
 10
355.6296498906
 20
284.1153082496
  0
VERTEX
  8
0
 62
7
  6
CONTINUOUS
 10
355.6064442128
 20
284.2127710001
  0
VERTEX
  8
0
 62
7
  6
CONTINUOUS
 10
355.5726328484
 20
284.311626608
  0
VERTEX
  8
0
 62
7
  6
CONTINUOUS
 10
355.5277752023
 20
284.4098033511
  0
VERTEX
  8
0
 62
7
  6
CONTINUOUS
 10
355.4716404557
 20
284.5055181931
  0
VERTEX
  8
0
 62
7
  6
CONTINUOUS
 10
355.4038582655
 20
284.5974715396
  0
VERTEX
  8
0
 62
7
  6
CONTINUOUS
 10
355.3243131469
 20
284.6839942615
  0
VERTEX
  8
0
 62
7
  6
CONTINUOUS
 10
355.2332604283
 20
284.7631390293
  0
VERTEX
  8
0
 62
7
  6
CONTINUOUS
 10
355.1311104715
 20
284.832988793
  0
VERTEX
  8
0
 62
7
  6
CONTINUOUS
 10
355.0191202201
 20
284.8912884956
  0
VERTEX
  8
0
 62
7
  6
CONTINUOUS
 10
354.8993076139
 20
284.935918061
  0
VERTEX
  8
0
 62
7
  6
CONTINUOUS
 10
354.7745788526
 20
284.9651812509
  0
VERTEX
  8
0
 62
7
  6
CONTINUOUS
 10
354.6480227071
 20
284.9782333988
  0
SEQEND
  0
POLYLINE
  8
0
 62
7
  6
CONTINUOUS
 66
1
 70
0
  0
VERTEX
  8
0
 62
7
  6
CONTINUOUS
 10
355.7670160881
 20
274.7502416384
  0
VERTEX
  8
0
 62
7
  6
CONTINUOUS
 10
355.7375741111
 20
274.8743852294
  0
VERTEX
  8
0
 62
7
  6
CONTINUOUS
 10
355.7089361827
 20
274.9903279364
  0
VERTEX
  8
0
 62
7
  6
CONTINUOUS
 10
355.6812915343
 20
275.0973050052
  0
VERTEX
  8
0
 62
7
  6
CONTINUOUS
 10
355.6548097228
 20
275.1946665793
  0
VERTEX
  8
0
 62
7
  6
CONTINUOUS
 10
355.6296498906
 20
275.281836649
  0
SEQEND
  0
POLYLINE
  8
0
 62
7
  6
CONTINUOUS
 66
1
 70
0
  0
VERTEX
  8
0
 62
7
  6
CONTINUOUS
 10
357.0377858078
 20
264.4242385454
  0
VERTEX
  8
0
 62
7
  6
CONTINUOUS
 10
356.9659722032
 20
264.7469842477
  0
VERTEX
  8
0
 62
7
  6
CONTINUOUS
 10
356.8942643684
 20
265.0651811623
  0
SEQEND
  0
POLYLINE
  8
0
 62
7
  6
CONTINUOUS
 66
1
 70
0
  0
VERTEX
  8
0
 62
7
  6
CONTINUOUS
 10
356.6711587309
 20
270.5897600024
  0
VERTEX
  8
0
 62
7
  6
CONTINUOUS
 10
356.5191607055
 20
271.3262497382
  0
VERTEX
  8
0
 62
7
  6
CONTINUOUS
 10
356.3671383782
 20
272.0481191768
  0
VERTEX
  8
0
 62
7
  6
CONTINUOUS
 10
356.215505258
 20
272.7533887583
  0
VERTEX
  8
0
 62
7
  6
CONTINUOUS
 10
356.0646676584
 20
273.4401206695
  0
VERTEX
  8
0
 62
7
  6
CONTINUOUS
 10
355.9150390206
 20
274.1063586611
  0
VERTEX
  8
0
 62
7
  6
CONTINUOUS
 10
355.7670160881
 20
274.7502416384
  0
SEQEND
  0
POLYLINE
  8
0
 62
7
  6
CONTINUOUS
 66
1
 70
0
  0
VERTEX
  8
0
 62
7
  6
CONTINUOUS
 10
356.6711587309
 20
270.5897600024
  0
VERTEX
  8
0
 62
7
  6
CONTINUOUS
 10
356.8942641744
 20
269.4851506951
  0
VERTEX
  8
0
 62
7
  6
CONTINUOUS
 10
357.0377858078
 20
268.782004377
  0
SEQEND
  0
LINE
  8
0
 62
7
  6
CONTINUOUS
 10
357.0377858078
 20
276.8501962295
 11
356.671129344
 21
278.7280555565
  0
LINE
  8
0
 62
7
  6
CONTINUOUS
 10
356.3670642354
 20
280.2904539224
 11
356.671129344
 21
278.7280555565
  0
LINE
  8
0
 62
7
  6
CONTINUOUS
 10
355.6296498906
 20
284.2154253201
 11
357.0377858078
 21
276.971194032
  0
LINE
  8
0
 62
7
  6
CONTINUOUS
 10
356.0646301519
 20
281.8518653096
 11
356.3670642354
 21
280.2904539224
  0
LINE
  8
0
 62
7
  6
CONTINUOUS
 10
355.6296498906
 20
284.1153082496
 11
356.0646301519
 21
281.8518653096
  0
POLYLINE
  8
0
 62
7
  6
CONTINUOUS
 66
1
 70
0
  0
VERTEX
  8
0
 62
7
  6
CONTINUOUS
 10
355.6296498906
 20
34.2390938192
  0
VERTEX
  8
0
 62
7
  6
CONTINUOUS
 10
355.6064442128
 20
34.1586768081
  0
VERTEX
  8
0
 62
7
  6
CONTINUOUS
 10
355.5726328484
 20
34.0791894094
  0
VERTEX
  8
0
 62
7
  6
CONTINUOUS
 10
355.5277752023
 20
34.0026854303
  0
VERTEX
  8
0
 62
7
  6
CONTINUOUS
 10
355.4716404557
 20
33.9309443127
  0
VERTEX
  8
0
 62
7
  6
CONTINUOUS
 10
355.4038582655
 20
33.8653725601
  0
VERTEX
  8
0
 62
7
  6
CONTINUOUS
 10
355.3243131469
 20
33.8076678241
  0
VERTEX
  8
0
 62
7
  6
CONTINUOUS
 10
355.2332604283
 20
33.7597093272
  0
VERTEX
  8
0
 62
7
  6
CONTINUOUS
 10
355.1311104715
 20
33.723334318
  0
VERTEX
  8
0
 62
7
  6
CONTINUOUS
 10
355.0191202201
 20
33.7004862267
  0
VERTEX
  8
0
 62
7
  6
CONTINUOUS
 10
354.9014786696
 20
33.6927900218
  0
SEQEND
  0
POLYLINE
  8
0
 62
7
  6
CONTINUOUS
 66
1
 70
0
  0
VERTEX
  8
0
 62
7
  6
CONTINUOUS
 10
355.7670160881
 20
91.1733099038
  0
VERTEX
  8
0
 62
7
  6
CONTINUOUS
 10
355.9150340277
 20
91.4338041772
  0
VERTEX
  8
0
 62
7
  6
CONTINUOUS
 10
356.0646301519
 20
91.7321352991
  0
VERTEX
  8
0
 62
7
  6
CONTINUOUS
 10
356.2154376519
 20
92.0675527532
  0
VERTEX
  8
0
 62
7
  6
CONTINUOUS
 10
356.3670642354
 20
92.4391740198
  0
VERTEX
  8
0
 62
7
  6
CONTINUOUS
 10
356.5191025311
 20
92.8459972192
  0
VERTEX
  8
0
 62
7
  6
CONTINUOUS
 10
356.671129344
 20
93.2868935646
  0
VERTEX
  8
0
 62
7
  6
CONTINUOUS
 10
356.822706848
 20
93.7606038027
  0
SEQEND
  0
POLYLINE
  8
0
 62
7
  6
CONTINUOUS
 66
1
 70
0
  0
VERTEX
  8
0
 62
7
  6
CONTINUOUS
 10
354.6480227071
 20
97.9665552573
  0
VERTEX
  8
0
 62
7
  6
CONTINUOUS
 10
354.7745961036
 20
98.1292450157
  0
VERTEX
  8
0
 62
7
  6
CONTINUOUS
 10
354.8993185643
 20
98.2982906691
  0
VERTEX
  8
0
 62
7
  6
CONTINUOUS
 10
355.0191192729
 20
98.4703774054
  0
VERTEX
  8
0
 62
7
  6
CONTINUOUS
 10
355.13111231
 20
98.6418934096
  0
VERTEX
  8
0
 62
7
  6
CONTINUOUS
 10
355.2332697014
 20
98.8099074428
  0
VERTEX
  8
0
 62
7
  6
CONTINUOUS
 10
355.3243211659
 20
98.9721767209
  0
VERTEX
  8
0
 62
7
  6
CONTINUOUS
 10
355.4038578215
 20
99.1275837339
  0
VERTEX
  8
0
 62
7
  6
CONTINUOUS
 10
355.4716341776
 20
99.2750655546
  0
VERTEX
  8
0
 62
7
  6
CONTINUOUS
 10
355.5277704962
 20
99.414071692
  0
VERTEX
  8
0
 62
7
  6
CONTINUOUS
 10
355.5726330776
 20
99.5445117284
  0
VERTEX
  8
0
 62
7
  6
CONTINUOUS
 10
355.6064467907
 20
99.6656266205
  0
VERTEX
  8
0
 62
7
  6
CONTINUOUS
 10
355.6296498906
 20
99.7764776177
  0
SEQEND
  0
POLYLINE
  8
0
 62
7
  6
CONTINUOUS
 66
1
 70
0
  0
VERTEX
  8
0
 62
7
  6
CONTINUOUS
 10
344.611277074
 20
92.029060318
  0
VERTEX
  8
0
 62
7
  6
CONTINUOUS
 10
344.4842925795
 20
91.878952668
  0
VERTEX
  8
0
 62
7
  6
CONTINUOUS
 10
344.3594590334
 20
91.7390736802
  0
VERTEX
  8
0
 62
7
  6
CONTINUOUS
 10
344.2397013425
 20
91.611686019
  0
VERTEX
  8
0
 62
7
  6
CONTINUOUS
 10
344.127720581
 20
91.4985080072
  0
VERTEX
  8
0
 62
7
  6
CONTINUOUS
 10
344.0255560241
 20
91.4003659472
  0
VERTEX
  8
0
 62
7
  6
CONTINUOUS
 10
343.9345709329
 20
91.3173234493
  0
VERTEX
  8
0
 62
7
  6
CONTINUOUS
 10
343.8551284177
 20
91.2485291016
  0
VERTEX
  8
0
 62
7
  6
CONTINUOUS
 10
343.7874229571
 20
91.1930628166
  0
VERTEX
  8
0
 62
7
  6
CONTINUOUS
 10
343.7312765357
 20
91.1497765886
  0
VERTEX
  8
0
 62
7
  6
CONTINUOUS
 10
343.6863998365
 20
91.1175273689
  0
VERTEX
  8
0
 62
7
  6
CONTINUOUS
 10
343.6526861809
 20
91.0953568877
  0
VERTEX
  8
0
 62
7
  6
CONTINUOUS
 10
343.6296498906
 20
91.0820631068
  0
SEQEND
  0
POLYLINE
  8
0
 62
7
  6
CONTINUOUS
 66
1
 70
0
  0
VERTEX
  8
0
 62
7
  6
CONTINUOUS
 10
355.7282727873
 20
202.053700146
  0
VERTEX
  8
0
 62
7
  6
CONTINUOUS
 10
355.7089361827
 20
202.0508247446
  0
VERTEX
  8
0
 62
7
  6
CONTINUOUS
 10
355.6812915343
 20
202.0361500016
  0
VERTEX
  8
0
 62
7
  6
CONTINUOUS
 10
355.6548097228
 20
202.0091725829
  0
VERTEX
  8
0
 62
7
  6
CONTINUOUS
 10
355.6296498906
 20
201.9701177128
  0
SEQEND
  0
LINE
  8
DEFAULT_2
 62
8
  6
HIDDEN
 10
334.6296498906
 20
198.8967231716
 11
364.6296498906
 21
198.8967231716
  0
LINE
  8
0
 62
7
  6
CONTINUOUS
 10
334.6296498906
 20
198.901475311
 11
342.1296498906
 21
198.901475311
  0
LINE
  8
0
 62
7
  6
CONTINUOUS
 10
357.1296498906
 20
198.901475311
 11
364.6296498906
 21
198.901475311
  0
LINE
  8
DEFAULT_2
 62
8
  6
HIDDEN
 10
342.4365929331
 20
200.5082463156
 11
356.822706848
 21
200.5082463156
  0
LINE
  8
0
 62
9
  6
CONTINUOUS
 10
344.611277074
 20
200.7229717391
 11
354.6480227071
 21
200.7229717391
  0
LINE
  8
DEFAULT_2
 62
8
  6
HIDDEN
 10
343.492283693
 20
202.0427892068
 11
355.7670160881
 21
202.0427892068
  0
LINE
  8
0
 62
7
  6
CONTINUOUS
 10
343.5309326623
 20
202.0537001461
 11
355.7283671189
 21
202.0537001461
  0
POLYLINE
  8
0
 62
7
  6
CONTINUOUS
 66
1
 70
0
  0
VERTEX
  8
0
 62
7
  6
CONTINUOUS
 10
343.5310269939
 20
202.053700146
  0
VERTEX
  8
0
 62
7
  6
CONTINUOUS
 10
343.5503635985
 20
202.0508247446
  0
VERTEX
  8
0
 62
7
  6
CONTINUOUS
 10
343.5780082469
 20
202.0361500016
  0
VERTEX
  8
0
 62
7
  6
CONTINUOUS
 10
343.6044900584
 20
202.0091725829
  0
VERTEX
  8
0
 62
7
  6
CONTINUOUS
 10
343.6296498906
 20
201.9701177128
  0
SEQEND
  0
POLYLINE
  8
0
 62
7
  6
CONTINUOUS
 66
1
 70
0
  0
VERTEX
  8
0
 62
7
  6
CONTINUOUS
 10
355.7670160881
 20
202.0427892068
  0
VERTEX
  8
0
 62
7
  6
CONTINUOUS
 10
355.7375741111
 20
202.0530544512
  0
VERTEX
  8
0
 62
7
  6
CONTINUOUS
 10
355.7282727873
 20
202.053700146
  0
SEQEND
  0
POLYLINE
  8
0
 62
7
  6
CONTINUOUS
 66
1
 70
0
  0
VERTEX
  8
0
 62
7
  6
CONTINUOUS
 10
355.7670160881
 20
245.9742219661
  0
VERTEX
  8
0
 62
7
  6
CONTINUOUS
 10
355.7375741111
 20
246.0477863598
  0
VERTEX
  8
0
 62
7
  6
CONTINUOUS
 10
355.7089361827
 20
246.1100235476
  0
VERTEX
  8
0
 62
7
  6
CONTINUOUS
 10
355.6812915343
 20
246.1605422848
  0
VERTEX
  8
0
 62
7
  6
CONTINUOUS
 10
355.6548097228
 20
246.1990648098
  0
VERTEX
  8
0
 62
7
  6
CONTINUOUS
 10
355.6296498906
 20
246.2253991313
  0
SEQEND
  0
POLYLINE
  8
0
 62
7
  6
CONTINUOUS
 66
1
 70
0
  0
VERTEX
  8
0
 62
7
  6
CONTINUOUS
 10
355.6296498906
 20
53.6072899329
  0
VERTEX
  8
0
 62
7
  6
CONTINUOUS
 10
355.6548157967
 20
53.665324999
  0
VERTEX
  8
0
 62
7
  6
CONTINUOUS
 10
355.6812881087
 20
53.734760431
  0
VERTEX
  8
0
 62
7
  6
CONTINUOUS
 10
355.7089259961
 20
53.8152460454
  0
VERTEX
  8
0
 62
7
  6
CONTINUOUS
 10
355.737561242
 20
53.9063147962
  0
VERTEX
  8
0
 62
7
  6
CONTINUOUS
 10
355.7670160881
 20
54.0074198188
  0
SEQEND
  0
LINE
  8
DEFAULT_2
 62
8
  6
HIDDEN
 10
355.7375677607
 20
91.1304518808
 11
355.721800066
 21
91.1135631268
  0
LINE
  8
0
 62
9
  6
CONTINUOUS
 10
334.6296498906
 20
202.8688345049
 11
364.6296498906
 21
202.8688345049
  0
LINE
  8
DEFAULT_2
 62
8
  6
HIDDEN
 10
355.7089311737
 20
91.0997813209
 11
355.6884446531
 21
91.0862032165
  0
LINE
  8
0
 62
9
  6
CONTINUOUS
 10
334.6296498906
 20
218.4184755552
 11
364.6296498906
 21
218.4184755552
  0
POLYLINE
  8
0
 62
7
  6
CONTINUOUS
 66
1
 70
0
  0
VERTEX
  8
0
 62
7
  6
CONTINUOUS
 10
355.6296498906
 20
53.6072899329
  0
VERTEX
  8
0
 62
7
  6
CONTINUOUS
 10
355.6064442128
 20
53.5706096426
  0
VERTEX
  8
0
 62
7
  6
CONTINUOUS
 10
355.5726328484
 20
53.5392822913
  0
VERTEX
  8
0
 62
7
  6
CONTINUOUS
 10
355.5277752023
 20
53.5150612784
  0
VERTEX
  8
0
 62
7
  6
CONTINUOUS
 10
355.4716404557
 20
53.4994891025
  0
VERTEX
  8
0
 62
7
  6
CONTINUOUS
 10
355.4042551335
 20
53.4939995258
  0
SEQEND
  0
POLYLINE
  8
0
 62
7
  6
CONTINUOUS
 66
1
 70
0
  0
VERTEX
  8
0
 62
7
  6
CONTINUOUS
 10
354.6480227071
 20
57.8746239638
  0
VERTEX
  8
0
 62
7
  6
CONTINUOUS
 10
354.7745961036
 20
57.9911755196
  0
VERTEX
  8
0
 62
7
  6
CONTINUOUS
 10
354.8993185643
 20
58.1196534147
  0
VERTEX
  8
0
 62
7
  6
CONTINUOUS
 10
355.0191192729
 20
58.2574103503
  0
VERTEX
  8
0
 62
7
  6
CONTINUOUS
 10
355.13111231
 20
58.4012026953
  0
VERTEX
  8
0
 62
7
  6
CONTINUOUS
 10
355.2332697014
 20
58.5480449225
  0
VERTEX
  8
0
 62
7
  6
CONTINUOUS
 10
355.3243211659
 20
58.6953510223
  0
VERTEX
  8
0
 62
7
  6
CONTINUOUS
 10
355.4038578215
 20
58.8414604945
  0
VERTEX
  8
0
 62
7
  6
CONTINUOUS
 10
355.4716341776
 20
58.9847412497
  0
VERTEX
  8
0
 62
7
  6
CONTINUOUS
 10
355.5277704962
 20
59.1240404937
  0
VERTEX
  8
0
 62
7
  6
CONTINUOUS
 10
355.5726330776
 20
59.2586863482
  0
VERTEX
  8
0
 62
7
  6
CONTINUOUS
 10
355.6064467907
 20
59.3873213131
  0
VERTEX
  8
0
 62
7
  6
CONTINUOUS
 10
355.6296498906
 20
59.5083277136
  0
SEQEND
  0
LINE
  8
0
 62
7
  6
CONTINUOUS
 10
334.6296498906
 20
229.5556868635
 11
342.1296498906
 21
229.5556868635
  0
LINE
  8
0
 62
7
  6
CONTINUOUS
 10
357.1296498906
 20
229.5556868635
 11
364.6296498906
 21
229.5556868635
  0
LINE
  8
0
 62
9
  6
CONTINUOUS
 10
342.4365929331
 20
234.2946532591
 11
356.822706848
 21
234.2946532591
  0
POLYLINE
  8
0
 62
7
  6
CONTINUOUS
 66
1
 70
0
  0
VERTEX
  8
0
 62
7
  6
CONTINUOUS
 10
344.611277074
 20
53.8447514616
  0
VERTEX
  8
0
 62
7
  6
CONTINUOUS
 10
344.4842925795
 20
53.7490349588
  0
VERTEX
  8
0
 62
7
  6
CONTINUOUS
 10
344.3594590334
 20
53.6678825419
  0
VERTEX
  8
0
 62
7
  6
CONTINUOUS
 10
344.2397013425
 20
53.6024074136
  0
VERTEX
  8
0
 62
7
  6
CONTINUOUS
 10
344.127720581
 20
53.5530048415
  0
VERTEX
  8
0
 62
7
  6
CONTINUOUS
 10
344.0255560241
 20
53.5192433453
  0
VERTEX
  8
0
 62
7
  6
CONTINUOUS
 10
343.9345709329
 20
53.5000666706
  0
VERTEX
  8
0
 62
7
  6
CONTINUOUS
 10
343.8550517219
 20
53.4939995258
  0
SEQEND
  0
LINE
  8
DEFAULT_2
 62
8
  6
HIDDEN
 10
334.6296498906
 20
236.9161646046
 11
364.6296498906
 21
236.9161646046
  0
LINE
  8
DEFAULT_2
 62
8
  6
HIDDEN
 10
334.6296498906
 20
237.701704531
 11
364.6296498906
 21
237.701704531
  0
LINE
  8
0
 62
9
  6
CONTINUOUS
 10
343.492283693
 20
238.0521390658
 11
355.7670160881
 21
238.0521390658
  0
LINE
  8
0
 62
7
  6
CONTINUOUS
 10
334.6296498906
 20
238.3763803005
 11
342.1296498906
 21
238.3763803005
  0
LINE
  8
0
 62
7
  6
CONTINUOUS
 10
357.1296498906
 20
238.3763803005
 11
364.6296498906
 21
238.3763803005
  0
LINE
  8
0
 62
9
  6
CONTINUOUS
 10
344.611277074
 20
240.5249168252
 11
354.6480227071
 21
240.5249168252
  0
LINE
  8
DEFAULT_2
 62
8
  6
HIDDEN
 10
342.4365929331
 20
242.4472542182
 11
356.822706848
 21
242.4472542182
  0
LINE
  8
DEFAULT_2
 62
8
  6
HIDDEN
 10
343.6888533165
 20
246.2419544211
 11
343.6884338888
 21
246.2418998511
  0
LINE
  8
0
 62
9
  6
CONTINUOUS
 10
344.611277074
 20
245.6199390049
 11
354.6480227071
 21
245.6199390049
  0
LINE
  8
DEFAULT_2
 62
8
  6
HIDDEN
 10
343.492283693
 20
245.9742219661
 11
355.7670160881
 21
245.9742219661
  0
LINE
  8
0
 62
7
  6
CONTINUOUS
 10
343.689177843
 20
246.2419544322
 11
355.5701494826
 21
246.2419544322
  0
LINE
  8
0
 62
9
  6
CONTINUOUS
 10
334.6296498906
 20
248.2554938862
 11
364.6296498906
 21
248.2554938862
  0
POLYLINE
  8
0
 62
7
  6
CONTINUOUS
 66
1
 70
0
  0
VERTEX
  8
0
 62
7
  6
CONTINUOUS
 10
343.6888532531
 20
246.2419544211
  0
VERTEX
  8
0
 62
7
  6
CONTINUOUS
 10
343.7312802302
 20
246.2378792275
  0
VERTEX
  8
0
 62
7
  6
CONTINUOUS
 10
343.7874288472
 20
246.2237410063
  0
VERTEX
  8
0
 62
7
  6
CONTINUOUS
 10
343.855128359
 20
246.1982173725
  0
VERTEX
  8
0
 62
7
  6
CONTINUOUS
 10
343.9345619432
 20
246.1599551296
  0
VERTEX
  8
0
 62
7
  6
CONTINUOUS
 10
344.025545112
 20
246.107705708
  0
VERTEX
  8
0
 62
7
  6
CONTINUOUS
 10
344.127717187
 20
246.0402761725
  0
VERTEX
  8
0
 62
7
  6
CONTINUOUS
 10
344.2397009792
 20
245.9571677127
  0
VERTEX
  8
0
 62
7
  6
CONTINUOUS
 10
344.3594482755
 20
245.8585909893
  0
VERTEX
  8
0
 62
7
  6
CONTINUOUS
 10
344.4842767165
 20
245.7456120262
  0
VERTEX
  8
0
 62
7
  6
CONTINUOUS
 10
344.611277074
 20
245.6199390049
  0
SEQEND
  0
POLYLINE
  8
0
 62
7
  6
CONTINUOUS
 66
1
 70
0
  0
VERTEX
  8
0
 62
7
  6
CONTINUOUS
 10
355.5704387101
 20
246.241954424
  0
VERTEX
  8
0
 62
7
  6
CONTINUOUS
 10
355.6064467907
 20
246.2372991702
  0
VERTEX
  8
0
 62
7
  6
CONTINUOUS
 10
355.6296498906
 20
246.2253991313
  0
SEQEND
  0
LINE
  8
DEFAULT_2
 62
8
  6
HIDDEN
 10
334.6296498906
 20
258.6757852751
 11
364.6296498906
 21
258.6757852751
  0
LINE
  8
DEFAULT_2
 62
8
  6
HIDDEN
 10
334.6296498906
 20
258.8095548881
 11
364.6296498906
 21
258.8095548881
  0
LINE
  8
0
 62
7
  6
CONTINUOUS
 10
334.6296498906
 20
259.1818825323
 11
342.1296498906
 21
259.1818825323
  0
LINE
  8
0
 62
7
  6
CONTINUOUS
 10
357.1296498906
 20
259.1818825323
 11
364.6296498906
 21
259.1818825323
  0
LINE
  8
DEFAULT_2
 62
8
  6
HIDDEN
 10
334.6296498906
 20
262.5426464905
 11
364.6296498906
 21
262.5426464905
  0
LINE
  8
0
 62
7
  6
CONTINUOUS
 10
334.6296498906
 20
264.0096080512
 11
342.1296498906
 21
264.0096080512
  0
LINE
  8
0
 62
7
  6
CONTINUOUS
 10
357.1296498906
 20
264.0096080512
 11
364.6296498906
 21
264.0096080512
  0
LINE
  8
0
 62
9
  6
CONTINUOUS
 10
342.4365929331
 20
265.3786274118
 11
356.822706848
 21
265.3786274118
  0
LINE
  8
DEFAULT_2
 62
8
  6
HIDDEN
 10
342.4365929331
 20
269.8406937988
 11
356.822706848
 21
269.8406937988
  0
POLYLINE
  8
0
 62
7
  6
CONTINUOUS
 66
1
 70
0
  0
VERTEX
  8
0
 62
7
  6
CONTINUOUS
 10
354.6480227071
 20
35.151408909
  0
VERTEX
  8
0
 62
7
  6
CONTINUOUS
 10
354.7745961036
 20
35.2016694393
  0
VERTEX
  8
0
 62
7
  6
CONTINUOUS
 10
354.8993185643
 20
35.267364581
  0
VERTEX
  8
0
 62
7
  6
CONTINUOUS
 10
355.0191192729
 20
35.3469722902
  0
VERTEX
  8
0
 62
7
  6
CONTINUOUS
 10
355.13111231
 20
35.4381779733
  0
VERTEX
  8
0
 62
7
  6
CONTINUOUS
 10
355.2332697014
 20
35.5384580393
  0
VERTEX
  8
0
 62
7
  6
CONTINUOUS
 10
355.3243211659
 20
35.6453303978
  0
VERTEX
  8
0
 62
7
  6
CONTINUOUS
 10
355.4038578215
 20
35.7568786743
  0
VERTEX
  8
0
 62
7
  6
CONTINUOUS
 10
355.4716341776
 20
35.8711838197
  0
VERTEX
  8
0
 62
7
  6
CONTINUOUS
 10
355.5277704962
 20
35.9866900655
  0
VERTEX
  8
0
 62
7
  6
CONTINUOUS
 10
355.5726330776
 20
36.1022602468
  0
VERTEX
  8
0
 62
7
  6
CONTINUOUS
 10
355.6064467907
 20
36.2161731304
  0
VERTEX
  8
0
 62
7
  6
CONTINUOUS
 10
355.6296498906
 20
36.3264118282
  0
SEQEND
  0
POLYLINE
  8
0
 62
7
  6
CONTINUOUS
 66
1
 70
0
  0
VERTEX
  8
0
 62
7
  6
CONTINUOUS
 10
344.611277074
 20
284.9782333988
  0
VERTEX
  8
0
 62
7
  6
CONTINUOUS
 10
344.4842925795
 20
284.9651090835
  0
VERTEX
  8
0
 62
7
  6
CONTINUOUS
 10
344.3594590334
 20
284.9357565485
  0
VERTEX
  8
0
 62
7
  6
CONTINUOUS
 10
344.2397013425
 20
284.8910753907
  0
VERTEX
  8
0
 62
7
  6
CONTINUOUS
 10
344.127720581
 20
284.8327071955
  0
VERTEX
  8
0
 62
7
  6
CONTINUOUS
 10
344.0255560241
 20
284.7627647829
  0
VERTEX
  8
0
 62
7
  6
CONTINUOUS
 10
343.9345709329
 20
284.6835890591
  0
VERTEX
  8
0
 62
7
  6
CONTINUOUS
 10
343.8551284177
 20
284.597090812
  0
VERTEX
  8
0
 62
7
  6
CONTINUOUS
 10
343.7874229571
 20
284.5051588522
  0
VERTEX
  8
0
 62
7
  6
CONTINUOUS
 10
343.7312765357
 20
284.409325229
  0
VERTEX
  8
0
 62
7
  6
CONTINUOUS
 10
343.6863998365
 20
284.3109539403
  0
VERTEX
  8
0
 62
7
  6
CONTINUOUS
 10
343.6526861809
 20
284.2121829109
  0
VERTEX
  8
0
 62
7
  6
CONTINUOUS
 10
343.6296498906
 20
284.1153082496
  0
SEQEND
  0
LINE
  8
0
 62
9
  6
CONTINUOUS
 10
343.492283693
 20
270.4143419664
 11
355.7670160881
 21
270.4143419664
  0
LINE
  8
0
 62
7
  6
CONTINUOUS
 10
334.6296498906
 20
271.3689406143
 11
342.1296498906
 21
271.3689406143
  0
LINE
  8
0
 62
7
  6
CONTINUOUS
 10
357.1296498906
 20
271.3689406143
 11
364.6296498906
 21
271.3689406143
  0
LINE
  8
0
 62
7
  6
CONTINUOUS
 10
334.6296498906
 20
271.5246163247
 11
342.1296498906
 21
271.5246163247
  0
LINE
  8
0
 62
7
  6
CONTINUOUS
 10
357.1296498906
 20
271.5246163247
 11
364.6296498906
 21
271.5246163247
  0
LINE
  8
0
 62
9
  6
CONTINUOUS
 10
344.611277074
 20
272.6341538673
 11
354.6480227071
 21
272.6341538673
  0
LINE
  8
DEFAULT_2
 62
8
  6
HIDDEN
 10
343.492283693
 20
274.7502416384
 11
355.7670160881
 21
274.7502416384
  0
LINE
  8
0
 62
9
  6
CONTINUOUS
 10
344.611277074
 20
275.4227519262
 11
354.6480227071
 21
275.4227519262
  0
LINE
  8
0
 62
7
  6
CONTINUOUS
 10
344.0865070598
 20
275.5743204249
 11
355.1727910378
 21
275.5743204249
  0
LINE
  8
0
 62
9
  6
CONTINUOUS
 10
342.4365929331
 20
277.9519904924
 11
356.822706848
 21
277.9519904924
  0
LINE
  8
0
 62
9
  6
CONTINUOUS
 10
343.492283693
 20
283.3952130004
 11
355.7670160881
 21
283.3952130004
  0
LINE
  8
0
 62
9
  6
CONTINUOUS
 10
344.611277074
 20
284.9782333988
 11
354.6480227071
 21
284.9782333988
  0
LINE
  8
0
 62
7
  6
CONTINUOUS
 10
344.611277074
 20
285.0246163247
 11
354.6480227071
 21
285.0246163247
  0
POLYLINE
  8
0
 62
7
  6
CONTINUOUS
 66
1
 70
0
  0
VERTEX
  8
0
 62
7
  6
CONTINUOUS
 10
344.0852595914
 20
275.5743202943
  0
VERTEX
  8
0
 62
7
  6
CONTINUOUS
 10
344.127717187
 20
275.5731598352
  0
VERTEX
  8
0
 62
7
  6
CONTINUOUS
 10
344.2397009792
 20
275.5596200676
  0
VERTEX
  8
0
 62
7
  6
CONTINUOUS
 10
344.3594482755
 20
275.53012035
  0
VERTEX
  8
0
 62
7
  6
CONTINUOUS
 10
344.4842767165
 20
275.4843504097
  0
VERTEX
  8
0
 62
7
  6
CONTINUOUS
 10
344.611277074
 20
275.4227519262
  0
SEQEND
  0
POLYLINE
  8
0
 62
7
  6
CONTINUOUS
 66
1
 70
0
  0
VERTEX
  8
0
 62
7
  6
CONTINUOUS
 10
355.1740414439
 20
275.5743202941
  0
VERTEX
  8
0
 62
7
  6
CONTINUOUS
 10
355.2332697014
 20
275.5718226572
  0
VERTEX
  8
0
 62
7
  6
CONTINUOUS
 10
355.3243211659
 20
275.5571452867
  0
VERTEX
  8
0
 62
7
  6
CONTINUOUS
 10
355.4038578215
 20
275.5307826554
  0
VERTEX
  8
0
 62
7
  6
CONTINUOUS
 10
355.4716341776
 20
275.4944622375
  0
VERTEX
  8
0
 62
7
  6
CONTINUOUS
 10
355.5277704962
 20
275.4498306504
  0
VERTEX
  8
0
 62
7
  6
CONTINUOUS
 10
355.5726330776
 20
275.3983382028
  0
VERTEX
  8
0
 62
7
  6
CONTINUOUS
 10
355.6064467907
 20
275.341687994
  0
VERTEX
  8
0
 62
7
  6
CONTINUOUS
 10
355.6296498906
 20
275.281836649
  0
SEQEND
  0
LINE
  8
DEFAULT_1
 62
2
  6
CENTER
 10
149.1281453562
 20
288.8542122538
 11
149.1281453562
 21
160.3247163247
  0
LINE
  8
0
 62
2
  6
CONTINUOUS
 10
149.1281453562
 20
159.3746163247
 11
149.1281453562
 21
157.2746163247
  0
LINE
  8
DEFAULT_1
 62
2
  6
CENTER
 10
149.1281453562
 20
27.5317286652
 11
149.1281453562
 21
156.3245163247
  0
LINE
  8
DEFAULT_1
 62
2
  6
CENTER
 10
280.9525437637
 20
158.3246163247
 11
151.1282453562
 21
158.3246163247
  0
LINE
  8
0
 62
2
  6
CONTINUOUS
 10
150.1781453562
 20
158.3246163247
 11
148.0781453562
 21
158.3246163247
  0
LINE
  8
DEFAULT_1
 62
2
  6
CENTER
 10
26.6089989059
 20
158.3246163247
 11
147.1280453562
 21
158.3246163247
  0
ARC
  8
0
 62
7
  6
CONTINUOUS
 10
50.0942197731
 20
69.1540692069
 40
30.0
 50
24.587259002
 51
59.412740998
  0
ARC
  8
0
 62
7
  6
CONTINUOUS
 10
48.2624444353
 20
89.1778566583
 40
15.111
 50
111.2518086435
 51
132.0124198389
  0
ARC
  8
0
 62
7
  6
CONTINUOUS
 10
69.8168421606
 20
65.2392727951
 40
15.111
 50
311.9875801611
 51
332.7481913565
  0
ARC
  8
0
 62
7
  6
CONTINUOUS
 10
57.6964387421
 20
82.0152459318
 40
15.06
 50
59.412740998
 51
128.7481913565
  0
ARC
  8
0
 62
7
  6
CONTINUOUS
 10
63.6795898924
 20
75.3702833861
 40
15.06
 50
315.2518086435
 51
24.587259002
  0
ARC
  8
0
 62
7
  6
CONTINUOUS
 10
42.8612632192
 20
93.0755568611
 40
2.0
 50
211.5503924448
 51
287.9875801611
  0
ARC
  8
0
 62
7
  6
CONTINUOUS
 10
78.5877012922
 20
55.4939995258
 40
2.0
 50
235.5503924448
 51
311.9875801611
  0
ARC
  8
0
 62
7
  6
CONTINUOUS
 10
73.1286131815
 20
59.4602592023
 40
2.0
 50
156.0124198389
 51
232.4496075552
  0
ARC
  8
0
 62
7
  6
CONTINUOUS
 10
22.3872234913
 20
117.1439944921
 40
30.0
 50
0.587259002
 51
35.412740998
  0
ARC
  8
0
 62
7
  6
CONTINUOUS
 10
26.882633586
 20
154.9781485373
 40
15.111
 50
263.9875801611
 51
284.7481913565
  0
ARC
  8
0
 62
7
  6
CONTINUOUS
 10
28.8582215417
 20
136.1816847148
 40
15.111
 50
87.2518086435
 51
108.0124198389
  0
ARC
  8
0
 62
7
  6
CONTINUOUS
 10
38.8124444353
 20
105.5457367899
 40
15.111
 50
287.9875801611
 51
308.7481913565
  0
ARC
  8
0
 62
7
  6
CONTINUOUS
 10
34.5633079455
 20
125.8011630456
 40
15.06
 50
35.412740998
 51
104.7481913565
  0
ARC
  8
0
 62
7
  6
CONTINUOUS
 10
37.3264387421
 20
117.2971208819
 40
15.06
 50
291.2518086435
 51
0.587259002
  0
ARC
  8
0
 62
7
  6
CONTINUOUS
 10
25.5093344721
 20
141.9392693468
 40
2.0
 50
187.5503924448
 51
263.9875801611
  0
ARC
  8
0
 62
7
  6
CONTINUOUS
 10
24.8039968895
 20
148.6501081705
 40
2.0
 50
108.0124198389
 51
184.4496075552
  0
ARC
  8
0
 62
7
  6
CONTINUOUS
 10
39.4873612192
 20
98.9193265449
 40
2.0
 50
132.0124198389
 51
208.4496075552
  0
ARC
  8
0
 62
7
  6
CONTINUOUS
 10
94.9250814831
 20
36.5825416074
 40
30.0
 50
48.587259002
 51
83.412740998
  0
ARC
  8
0
 62
7
  6
CONTINUOUS
 10
85.1072633543
 20
54.1301315267
 40
15.111
 50
135.2518086435
 51
156.0124198389
  0
ARC
  8
0
 62
7
  6
CONTINUOUS
 10
114.5348847289
 20
41.0281103503
 40
15.111
 50
335.9875801611
 51
356.7481913565
  0
ARC
  8
0
 62
7
  6
CONTINUOUS
 10
133.0218743828
 20
37.0985793939
 40
15.111
 50
159.2518086435
 51
180.0124198389
  0
ARC
  8
0
 62
7
  6
CONTINUOUS
 10
96.6389422432
 20
51.4239122077
 40
15.06
 50
83.412740998
 51
152.7481913565
  0
ARC
  8
0
 62
7
  6
CONTINUOUS
 10
144.657305812
 20
39.3166813879
 40
15.06
 50
107.412740998
 51
176.7481913565
  0
ARC
  8
0
 62
7
  6
CONTINUOUS
 10
104.8075725581
 20
47.7870036719
 40
15.06
 50
339.2518086435
 51
48.587259002
  0
ARC
  8
0
 62
7
  6
CONTINUOUS
 10
126.5112229836
 20
35.6927900218
 40
2.0
 50
259.5503924448
 51
335.9875801611
  0
ARC
  8
0
 62
7
  6
CONTINUOUS
 10
119.9108746908
 20
37.0957373607
 40
2.0
 50
180.0124198389
 51
256.4496075552
  0
ARC
  8
0
 62
7
  6
CONTINUOUS
 10
33.7187494334
 20
224.9562621277
 40
30.0
 50
312.587259002
 51
347.412740998
  0
ARC
  8
0
 62
7
  6
CONTINUOUS
 10
16.5948840051
 20
172.2544234063
 40
30.0
 50
336.587259002
 51
11.412740998
  0
ARC
  8
0
 62
7
  6
CONTINUOUS
 10
36.0901822873
 20
204.9891949669
 40
15.111
 50
239.9875801611
 51
260.7481913565
  0
ARC
  8
0
 62
7
  6
CONTINUOUS
 10
30.2497610936
 20
187.0142268089
 40
15.111
 50
63.2518086435
 51
84.0124198389
  0
ARC
  8
0
 62
7
  6
CONTINUOUS
 10
48.2996702212
 20
221.7004444146
 40
15.06
 50
347.412740998
 51
56.7481913565
  0
ARC
  8
0
 62
7
  6
CONTINUOUS
 10
31.2394783261
 20
175.2106806977
 40
15.06
 50
11.412740998
 51
80.7481913565
  0
ARC
  8
0
 62
7
  6
CONTINUOUS
 10
43.828830677
 20
213.9567231716
 40
15.06
 50
243.2518086435
 51
312.587259002
  0
ARC
  8
0
 62
7
  6
CONTINUOUS
 10
30.304818352
 20
166.3179850629
 40
15.06
 50
267.2518086435
 51
336.587259002
  0
ARC
  8
0
 62
7
  6
CONTINUOUS
 10
29.5322211684
 20
193.6361571812
 40
2.0
 50
163.5503924448
 51
239.9875801611
  0
ARC
  8
0
 62
7
  6
CONTINUOUS
 10
31.6174072791
 20
200.0537001461
 40
2.0
 50
84.0124198389
 51
160.4496075552
  0
ARC
  8
0
 62
7
  6
CONTINUOUS
 10
70.7979478782
 20
266.1368839604
 40
30.0
 50
288.587259002
 51
323.412740998
  0
ARC
  8
0
 62
7
  6
CONTINUOUS
 10
64.8430217209
 20
246.9315118148
 40
15.111
 50
215.9875801611
 51
236.7481913565
  0
ARC
  8
0
 62
7
  6
CONTINUOUS
 10
52.1964532607
 20
232.8860746133
 40
15.111
 50
39.2518086435
 51
60.0124198389
  0
ARC
  8
0
 62
7
  6
CONTINUOUS
 10
75.5600511242
 20
251.9761646046
 40
15.06
 50
219.2518086435
 51
288.587259002
  0
ARC
  8
0
 62
7
  6
CONTINUOUS
 10
54.2343296517
 20
239.2273588062
 40
2.0
 50
139.5503924448
 51
215.9875801611
  0
ARC
  8
0
 62
7
  6
CONTINUOUS
 10
58.7494918338
 20
244.2419544322
 40
2.0
 50
60.0124198389
 51
136.4496075552
  0
ARC
  8
0
 62
7
  6
CONTINUOUS
 10
121.4211490745
 20
288.6757852751
 40
30.0
 50
264.587259002
 51
299.412740998
  0
ARC
  8
0
 62
7
  6
CONTINUOUS
 10
108.1695247374
 20
273.5528914642
 40
15.111
 50
191.9875801611
 51
212.7481913565
  0
ARC
  8
0
 62
7
  6
CONTINUOUS
 10
90.9035155879
 20
265.8655689101
 40
15.111
 50
15.2518086435
 51
36.0124198389
  0
ARC
  8
0
 62
7
  6
CONTINUOUS
 10
139.6781453562
 20
280.2502555259
 40
15.111
 50
351.2518086435
 51
12.0124198389
  0
ARC
  8
0
 62
7
  6
CONTINUOUS
 10
82.794021465
 20
257.2319517035
 40
15.06
 50
323.412740998
 51
32.7481913565
  0
ARC
  8
0
 62
7
  6
CONTINUOUS
 10
120.0118634094
 20
273.8024025424
 40
15.06
 50
195.2518086435
 51
264.587259002
  0
ARC
  8
0
 62
7
  6
CONTINUOUS
 10
128.7581453562
 20
275.6614821604
 40
15.06
 50
299.412740998
 51
8.7481913565
  0
ARC
  8
0
 62
7
  6
CONTINUOUS
 10
95.3444409535
 20
270.8297412779
 40
2.0
 50
115.5503924448
 51
191.9875801611
  0
ARC
  8
0
 62
7
  6
CONTINUOUS
 10
101.5088666468
 20
273.5743204249
 40
2.0
 50
36.0124198389
 51
112.4496075552
  0
ARC
  8
0
 62
7
  6
CONTINUOUS
 10
145.7542433562
 20
282.9789655681
 40
2.0
 50
91.5503924448
 51
167.9875801611
  0
ARC
  8
0
 62
7
  6
CONTINUOUS
 10
149.1281453562
 20
25.0613247186
 40
30.0
 50
72.587259002
 51
107.412740998
  0
ARC
  8
0
 62
7
  6
CONTINUOUS
 10
203.3312092293
 20
36.5825416074
 40
30.0
 50
96.587259002
 51
131.412740998
  0
ARC
  8
0
 62
7
  6
CONTINUOUS
 10
165.2344163296
 20
37.0985793939
 40
15.111
 50
359.9875801611
 51
20.7481913565
  0
ARC
  8
0
 62
7
  6
CONTINUOUS
 10
183.7214059835
 20
41.0281103503
 40
15.111
 50
183.2518086435
 51
204.0124198389
  0
ARC
  8
0
 62
7
  6
CONTINUOUS
 10
193.4487181543
 20
47.7870036719
 40
15.06
 50
131.412740998
 51
200.7481913565
  0
ARC
  8
0
 62
7
  6
CONTINUOUS
 10
153.5989849004
 20
39.3166813879
 40
15.06
 50
3.2518086435
 51
72.587259002
  0
ARC
  8
0
 62
7
  6
CONTINUOUS
 10
201.6173484692
 20
51.4239122077
 40
15.06
 50
27.2518086435
 51
96.587259002
  0
ARC
  8
0
 62
7
  6
CONTINUOUS
 10
178.3454160216
 20
37.0957373607
 40
2.0
 50
283.5503924448
 51
359.9875801611
  0
ARC
  8
0
 62
7
  6
CONTINUOUS
 10
171.7450677288
 20
35.6927900218
 40
2.0
 50
204.0124198389
 51
280.4496075552
  0
ARC
  8
0
 62
7
  6
CONTINUOUS
 10
248.1620709394
 20
69.1540692069
 40
30.0
 50
120.587259002
 51
155.412740998
  0
ARC
  8
0
 62
7
  6
CONTINUOUS
 10
213.1490273582
 20
54.1301315267
 40
15.111
 50
23.9875801611
 51
44.7481913565
  0
ARC
  8
0
 62
7
  6
CONTINUOUS
 10
228.4394485519
 20
65.2392727951
 40
15.111
 50
207.2518086435
 51
228.0124198389
  0
ARC
  8
0
 62
7
  6
CONTINUOUS
 10
249.9938462771
 20
89.1778566583
 40
15.111
 50
47.9875801611
 51
68.7481913565
  0
ARC
  8
0
 62
7
  6
CONTINUOUS
 10
234.5767008201
 20
75.3702833861
 40
15.06
 50
155.412740998
 51
224.7481913565
  0
ARC
  8
0
 62
7
  6
CONTINUOUS
 10
240.5598519704
 20
82.0152459318
 40
15.06
 50
51.2518086435
 51
120.587259002
  0
ARC
  8
0
 62
7
  6
CONTINUOUS
 10
225.127677531
 20
59.4602592023
 40
2.0
 50
307.5503924448
 51
23.9875801611
  0
ARC
  8
0
 62
7
  6
CONTINUOUS
 10
219.6685894202
 20
55.4939995258
 40
2.0
 50
228.0124198389
 51
304.4496075552
  0
ARC
  8
0
 62
7
  6
CONTINUOUS
 10
275.8690672211
 20
117.1439944921
 40
30.0
 50
144.587259002
 51
179.412740998
  0
ARC
  8
0
 62
7
  6
CONTINUOUS
 10
271.3736571265
 20
154.9781485373
 40
15.111
 50
255.2518086435
 51
276.0124198389
  0
ARC
  8
0
 62
7
  6
CONTINUOUS
 10
259.4438462771
 20
105.5457367899
 40
15.111
 50
231.2518086435
 51
252.0124198389
  0
ARC
  8
0
 62
7
  6
CONTINUOUS
 10
269.3980691707
 20
136.1816847148
 40
15.111
 50
71.9875801611
 51
92.7481913565
  0
ARC
  8
0
 62
7
  6
CONTINUOUS
 10
263.6929827669
 20
125.8011630456
 40
15.06
 50
75.2518086435
 51
144.587259002
  0
ARC
  8
0
 62
7
  6
CONTINUOUS
 10
260.9298519704
 20
117.2971208819
 40
15.06
 50
179.412740998
 51
248.7481913565
  0
ARC
  8
0
 62
7
  6
CONTINUOUS
 10
258.7689294932
 20
98.9193265449
 40
2.0
 50
331.5503924448
 51
47.9875801611
  0
ARC
  8
0
 62
7
  6
CONTINUOUS
 10
255.3950274932
 20
93.0755568611
 40
2.0
 50
252.0124198389
 51
328.4496075552
  0
ARC
  8
0
 62
7
  6
CONTINUOUS
 10
272.7469562404
 20
141.9392693468
 40
2.0
 50
276.0124198389
 51
352.4496075552
  0
ARC
  8
0
 62
7
  6
CONTINUOUS
 10
273.4522938229
 20
148.6501081705
 40
2.0
 50
355.5503924448
 51
71.9875801611
  0
ARC
  8
0
 62
7
  6
CONTINUOUS
 10
149.1281453562
 20
158.3246163247
 40
126.7
 50
88.4496075552
 51
91.5503924448
  0
ARC
  8
0
 62
7
  6
CONTINUOUS
 10
149.1281453562
 20
158.3246163247
 40
126.7
 50
112.4496075552
 51
115.5503924448
  0
ARC
  8
0
 62
7
  6
CONTINUOUS
 10
149.1281453562
 20
158.3246163247
 40
126.7
 50
136.4496075552
 51
139.5503924448
  0
ARC
  8
0
 62
7
  6
CONTINUOUS
 10
149.1281453562
 20
158.3246163247
 40
126.7
 50
160.4496075552
 51
163.5503924448
  0
ARC
  8
0
 62
7
  6
CONTINUOUS
 10
149.1281453562
 20
158.3246163247
 40
126.7
 50
184.4496075552
 51
187.5503924448
  0
ARC
  8
0
 62
7
  6
CONTINUOUS
 10
149.1281453562
 20
158.3246163247
 40
126.7
 50
280.4496075552
 51
283.5503924448
  0
ARC
  8
0
 62
7
  6
CONTINUOUS
 10
149.1281453562
 20
158.3246163247
 40
126.7
 50
304.4496075552
 51
307.5503924448
  0
ARC
  8
0
 62
7
  6
CONTINUOUS
 10
149.1281453562
 20
158.3246163247
 40
126.7
 50
328.4496075552
 51
331.5503924448
  0
ARC
  8
0
 62
7
  6
CONTINUOUS
 10
149.1281453562
 20
158.3246163247
 40
126.7
 50
352.4496075552
 51
355.5503924448
  0
ARC
  8
0
 62
7
  6
CONTINUOUS
 10
149.1281453562
 20
158.3246163247
 40
126.7
 50
208.4496075552
 51
211.5503924448
  0
ARC
  8
0
 62
7
  6
CONTINUOUS
 10
149.1281453562
 20
158.3246163247
 40
126.7
 50
232.4496075552
 51
235.5503924448
  0
ARC
  8
0
 62
7
  6
CONTINUOUS
 10
149.1281453562
 20
158.3246163247
 40
126.7
 50
16.4496075552
 51
19.5503924448
  0
ARC
  8
0
 62
7
  6
CONTINUOUS
 10
149.1281453562
 20
158.3246163247
 40
126.7
 50
40.4496075552
 51
43.5503924448
  0
ARC
  8
0
 62
7
  6
CONTINUOUS
 10
149.1281453562
 20
158.3246163247
 40
126.7
 50
256.4496075552
 51
259.5503924448
  0
ARC
  8
0
 62
7
  6
CONTINUOUS
 10
149.1281453562
 20
158.3246163247
 40
126.7
 50
64.4496075552
 51
67.5503924448
  0
ARC
  8
0
 62
9
  6
CONTINUOUS
 10
149.1281453562
 20
158.3246163247
 40
125.8908089954
 50
231.7148039191
 51
236.2851960809
  0
ARC
  8
0
 62
9
  6
CONTINUOUS
 10
149.1281453562
 20
158.3246163247
 40
125.8908089954
 50
207.7148039191
 51
212.2851960809
  0
ARC
  8
0
 62
9
  6
CONTINUOUS
 10
149.1281453562
 20
158.3246163247
 40
125.8908089954
 50
183.7148039191
 51
188.2851960809
  0
ARC
  8
0
 62
9
  6
CONTINUOUS
 10
149.1281453562
 20
158.3246163247
 40
125.8908089954
 50
159.7148039191
 51
164.2851960809
  0
ARC
  8
0
 62
9
  6
CONTINUOUS
 10
149.1281453562
 20
158.3246163247
 40
125.8908089954
 50
135.7148039191
 51
140.2851960809
  0
ARC
  8
0
 62
9
  6
CONTINUOUS
 10
149.1281453562
 20
158.3246163247
 40
125.8908089954
 50
111.7148039191
 51
116.2851960809
  0
ARC
  8
0
 62
9
  6
CONTINUOUS
 10
149.1281453562
 20
158.3246163247
 40
125.8908089954
 50
87.7148039191
 51
92.2851960809
  0
ARC
  8
0
 62
9
  6
CONTINUOUS
 10
149.1281453562
 20
158.3246163247
 40
125.8908089954
 50
255.7148039191
 51
260.2851960809
  0
ARC
  8
0
 62
9
  6
CONTINUOUS
 10
149.1281453562
 20
158.3246163247
 40
125.8908089954
 50
63.7148039191
 51
68.2851960809
  0
ARC
  8
0
 62
9
  6
CONTINUOUS
 10
149.1281453562
 20
158.3246163247
 40
125.8908089954
 50
39.7148039191
 51
44.2851960809
  0
ARC
  8
0
 62
9
  6
CONTINUOUS
 10
149.1281453562
 20
158.3246163247
 40
125.8908089954
 50
15.7148039191
 51
20.2851960809
  0
ARC
  8
0
 62
9
  6
CONTINUOUS
 10
149.1281453562
 20
158.3246163247
 40
125.8908089954
 50
279.7148039191
 51
284.2851960809
  0
ARC
  8
0
 62
9
  6
CONTINUOUS
 10
149.1281453562
 20
158.3246163247
 40
125.8908089954
 50
303.7148039191
 51
308.2851960809
  0
ARC
  8
0
 62
9
  6
CONTINUOUS
 10
149.1281453562
 20
158.3246163247
 40
125.8908089954
 50
327.7148039191
 51
332.2851960809
  0
ARC
  8
0
 62
9
  6
CONTINUOUS
 10
149.1281453562
 20
158.3246163247
 40
125.8908089954
 50
351.7148039191
 51
356.2851960809
  0
ARC
  8
0
 62
9
  6
CONTINUOUS
 10
149.1281453562
 20
158.3246163247
 40
118.6465777073
 50
207.4121703816
 51
212.5878296184
  0
ARC
  8
0
 62
9
  6
CONTINUOUS
 10
149.1281453562
 20
158.3246163247
 40
118.6465777073
 50
183.4121703816
 51
188.5878296184
  0
ARC
  8
0
 62
9
  6
CONTINUOUS
 10
149.1281453562
 20
158.3246163247
 40
118.6465777073
 50
159.4121703816
 51
164.5878296184
  0
ARC
  8
0
 62
9
  6
CONTINUOUS
 10
149.1281453562
 20
158.3246163247
 40
118.6465777073
 50
135.4121703816
 51
140.5878296184
  0
ARC
  8
0
 62
9
  6
CONTINUOUS
 10
149.1281453562
 20
158.3246163247
 40
118.6465777073
 50
111.4121703816
 51
116.5878296184
  0
ARC
  8
0
 62
9
  6
CONTINUOUS
 10
149.1281453562
 20
158.3246163247
 40
118.6465777073
 50
87.4121703816
 51
92.5878296184
  0
ARC
  8
0
 62
9
  6
CONTINUOUS
 10
149.1281453562
 20
158.3246163247
 40
118.6465777073
 50
63.4121703816
 51
68.5878296184
  0
ARC
  8
0
 62
9
  6
CONTINUOUS
 10
149.1281453562
 20
158.3246163247
 40
118.6465777073
 50
39.4121703816
 51
44.5878296184
  0
ARC
  8
0
 62
9
  6
CONTINUOUS
 10
149.1281453562
 20
158.3246163247
 40
118.6465777073
 50
15.4121703816
 51
20.5878296184
  0
ARC
  8
0
 62
9
  6
CONTINUOUS
 10
149.1281453562
 20
158.3246163247
 40
118.6465777073
 50
351.4121703816
 51
356.5878296184
  0
ARC
  8
0
 62
9
  6
CONTINUOUS
 10
149.1281453562
 20
158.3246163247
 40
118.6465777073
 50
327.4121703816
 51
332.5878296184
  0
ARC
  8
0
 62
9
  6
CONTINUOUS
 10
149.1281453562
 20
158.3246163247
 40
118.6465777073
 50
303.4121703816
 51
308.5878296184
  0
ARC
  8
0
 62
9
  6
CONTINUOUS
 10
149.1281453562
 20
158.3246163247
 40
118.6465777073
 50
279.4121703816
 51
284.5878296184
  0
ARC
  8
0
 62
9
  6
CONTINUOUS
 10
149.1281453562
 20
158.3246163247
 40
118.6465777073
 50
255.4121703816
 51
260.5878296184
  0
ARC
  8
0
 62
9
  6
CONTINUOUS
 10
149.1281453562
 20
158.3246163247
 40
118.6465777073
 50
231.4121703816
 51
236.5878296184
  0
ARC
  8
0
 62
9
  6
CONTINUOUS
 10
149.1281453562
 20
158.3246163247
 40
117.6925327304
 50
159.4131772017
 51
164.5868227983
  0
ARC
  8
0
 62
9
  6
CONTINUOUS
 10
149.1281453562
 20
158.3246163247
 40
117.6925327304
 50
135.4131772017
 51
140.5868227983
  0
ARC
  8
0
 62
9
  6
CONTINUOUS
 10
149.1281453562
 20
158.3246163247
 40
117.6925327304
 50
111.4131772017
 51
116.5868227983
  0
ARC
  8
0
 62
9
  6
CONTINUOUS
 10
149.1281453562
 20
158.3246163247
 40
117.6925327304
 50
87.4131772017
 51
92.5868227983
  0
ARC
  8
0
 62
9
  6
CONTINUOUS
 10
149.1281453562
 20
158.3246163247
 40
117.6925327304
 50
63.4131772017
 51
68.5868227983
  0
ARC
  8
0
 62
9
  6
CONTINUOUS
 10
149.1281453562
 20
158.3246163247
 40
117.6925327304
 50
39.4131772017
 51
44.5868227983
  0
ARC
  8
0
 62
9
  6
CONTINUOUS
 10
149.1281453562
 20
158.3246163247
 40
117.6925327304
 50
15.4131772017
 51
20.5868227983
  0
ARC
  8
0
 62
9
  6
CONTINUOUS
 10
149.1281453562
 20
158.3246163247
 40
117.6925327304
 50
351.4131772017
 51
356.5868227983
  0
ARC
  8
0
 62
9
  6
CONTINUOUS
 10
149.1281453562
 20
158.3246163247
 40
117.6925327304
 50
327.4131772017
 51
332.5868227983
  0
ARC
  8
0
 62
9
  6
CONTINUOUS
 10
149.1281453562
 20
158.3246163247
 40
117.6925327304
 50
303.4131772017
 51
308.5868227983
  0
ARC
  8
0
 62
9
  6
CONTINUOUS
 10
149.1281453562
 20
158.3246163247
 40
117.6925327304
 50
279.4131772017
 51
284.5868227983
  0
ARC
  8
0
 62
9
  6
CONTINUOUS
 10
149.1281453562
 20
158.3246163247
 40
117.6925327304
 50
255.4131772017
 51
260.5868227983
  0
ARC
  8
0
 62
9
  6
CONTINUOUS
 10
149.1281453562
 20
158.3246163247
 40
117.6925327304
 50
231.4131772017
 51
236.5868227983
  0
ARC
  8
0
 62
9
  6
CONTINUOUS
 10
149.1281453562
 20
158.3246163247
 40
117.6925327304
 50
207.4131772017
 51
212.5868227983
  0
ARC
  8
0
 62
9
  6
CONTINUOUS
 10
149.1281453562
 20
158.3246163247
 40
117.6925327304
 50
183.4131772017
 51
188.5868227983
  0
ARC
  8
0
 62
7
  6
CONTINUOUS
 10
149.1281453562
 20
158.3246163247
 40
113.2
 50
62.994791361
 51
69.005208639
  0
ARC
  8
0
 62
7
  6
CONTINUOUS
 10
149.1281453562
 20
158.3246163247
 40
113.2
 50
38.994791361
 51
45.005208639
  0
ARC
  8
0
 62
7
  6
CONTINUOUS
 10
149.1281453562
 20
158.3246163247
 40
113.2
 50
14.994791361
 51
21.005208639
  0
ARC
  8
0
 62
7
  6
CONTINUOUS
 10
149.1281453562
 20
158.3246163247
 40
113.2
 50
350.994791361
 51
357.005208639
  0
ARC
  8
0
 62
7
  6
CONTINUOUS
 10
149.1281453562
 20
158.3246163247
 40
113.2
 50
326.994791361
 51
333.005208639
  0
ARC
  8
0
 62
7
  6
CONTINUOUS
 10
149.1281453562
 20
158.3246163247
 40
113.2
 50
302.994791361
 51
309.005208639
  0
ARC
  8
0
 62
7
  6
CONTINUOUS
 10
149.1281453562
 20
158.3246163247
 40
113.2
 50
278.994791361
 51
285.005208639
  0
ARC
  8
0
 62
7
  6
CONTINUOUS
 10
149.1281453562
 20
158.3246163247
 40
113.2
 50
254.994791361
 51
261.005208639
  0
ARC
  8
0
 62
7
  6
CONTINUOUS
 10
149.1281453562
 20
158.3246163247
 40
113.2
 50
230.994791361
 51
237.005208639
  0
ARC
  8
0
 62
7
  6
CONTINUOUS
 10
149.1281453562
 20
158.3246163247
 40
113.2
 50
206.994791361
 51
213.005208639
  0
ARC
  8
0
 62
7
  6
CONTINUOUS
 10
149.1281453562
 20
158.3246163247
 40
113.2
 50
182.994791361
 51
189.005208639
  0
ARC
  8
0
 62
7
  6
CONTINUOUS
 10
149.1281453562
 20
158.3246163247
 40
113.2
 50
158.994791361
 51
165.005208639
  0
ARC
  8
0
 62
7
  6
CONTINUOUS
 10
149.1281453562
 20
158.3246163247
 40
113.2
 50
134.994791361
 51
141.005208639
  0
ARC
  8
0
 62
7
  6
CONTINUOUS
 10
149.1281453562
 20
158.3246163247
 40
113.2
 50
110.994791361
 51
117.005208639
  0
ARC
  8
0
 62
7
  6
CONTINUOUS
 10
149.1281453562
 20
158.3246163247
 40
113.2
 50
86.994791361
 51
93.005208639
  0
ARC
  8
0
 62
7
  6
CONTINUOUS
 10
176.835141638
 20
288.6757852751
 40
30.0
 50
240.587259002
 51
275.412740998
  0
ARC
  8
0
 62
7
  6
CONTINUOUS
 10
158.5781453562
 20
280.2502555259
 40
15.111
 50
167.9875801611
 51
188.7481913565
  0
ARC
  8
0
 62
7
  6
CONTINUOUS
 10
190.0867659751
 20
273.5528914642
 40
15.111
 50
327.2518086435
 51
348.0124198389
  0
ARC
  8
0
 62
7
  6
CONTINUOUS
 10
207.3527751245
 20
265.8655689101
 40
15.111
 50
143.9875801611
 51
164.7481913565
  0
ARC
  8
0
 62
7
  6
CONTINUOUS
 10
169.4981453562
 20
275.6614821604
 40
15.06
 50
171.2518086435
 51
240.587259002
  0
ARC
  8
0
 62
7
  6
CONTINUOUS
 10
178.2444273031
 20
273.8024025424
 40
15.06
 50
275.412740998
 51
344.7481913565
  0
ARC
  8
0
 62
7
  6
CONTINUOUS
 10
152.5020473562
 20
282.9789655681
 40
2.0
 50
12.0124198389
 51
88.4496075552
  0
ARC
  8
0
 62
7
  6
CONTINUOUS
 10
202.9118497589
 20
270.8297412779
 40
2.0
 50
348.0124198389
 51
64.4496075552
  0
ARC
  8
0
 62
7
  6
CONTINUOUS
 10
196.7474240656
 20
273.5743204249
 40
2.0
 50
67.5503924448
 51
143.9875801611
  0
ARC
  8
0
 62
7
  6
CONTINUOUS
 10
281.6614067073
 20
172.2544234063
 40
30.0
 50
168.587259002
 51
203.412740998
  0
ARC
  8
0
 62
7
  6
CONTINUOUS
 10
262.1661084251
 20
204.9891949669
 40
15.111
 50
279.2518086435
 51
300.0124198389
  0
ARC
  8
0
 62
7
  6
CONTINUOUS
 10
268.0065296188
 20
187.0142268089
 40
15.111
 50
95.9875801611
 51
116.7481913565
  0
ARC
  8
0
 62
7
  6
CONTINUOUS
 10
249.9566204913
 20
221.7004444146
 40
15.06
 50
123.2518086435
 51
192.587259002
  0
ARC
  8
0
 62
7
  6
CONTINUOUS
 10
267.0168123863
 20
175.2106806977
 40
15.06
 50
99.2518086435
 51
168.587259002
  0
ARC
  8
0
 62
7
  6
CONTINUOUS
 10
254.4274600355
 20
213.9567231716
 40
15.06
 50
227.412740998
 51
296.7481913565
  0
ARC
  8
0
 62
7
  6
CONTINUOUS
 10
267.9514723605
 20
166.3179850629
 40
15.06
 50
203.412740998
 51
272.7481913565
  0
ARC
  8
0
 62
7
  6
CONTINUOUS
 10
268.724069544
 20
193.6361571812
 40
2.0
 50
300.0124198389
 51
16.4496075552
  0
ARC
  8
0
 62
7
  6
CONTINUOUS
 10
266.6388834333
 20
200.0537001461
 40
2.0
 50
19.5503924448
 51
95.9875801611
  0
ARC
  8
0
 62
7
  6
CONTINUOUS
 10
227.4583428342
 20
266.1368839604
 40
30.0
 50
216.587259002
 51
251.412740998
  0
ARC
  8
0
 62
7
  6
CONTINUOUS
 10
264.537541279
 20
224.9562621277
 40
30.0
 50
192.587259002
 51
227.412740998
  0
ARC
  8
0
 62
7
  6
CONTINUOUS
 10
233.4132689915
 20
246.9315118148
 40
15.111
 50
303.2518086435
 51
324.0124198389
  0
ARC
  8
0
 62
7
  6
CONTINUOUS
 10
246.0598374517
 20
232.8860746133
 40
15.111
 50
119.9875801611
 51
140.7481913565
  0
ARC
  8
0
 62
7
  6
CONTINUOUS
 10
215.4622692474
 20
257.2319517035
 40
15.06
 50
147.2518086435
 51
216.587259002
  0
ARC
  8
0
 62
7
  6
CONTINUOUS
 10
222.6962395882
 20
251.9761646046
 40
15.06
 50
251.412740998
 51
320.7481913565
  0
ARC
  8
0
 62
7
  6
CONTINUOUS
 10
244.0219610608
 20
239.2273588062
 40
2.0
 50
324.0124198389
 51
40.4496075552
  0
ARC
  8
0
 62
7
  6
CONTINUOUS
 10
239.5067988786
 20
244.2419544322
 40
2.0
 50
43.5503924448
 51
119.9875801611
  0
ARC
  8
0
 62
7
  6
CONTINUOUS
 10
352.1296498906
 20
276.0171490551
 40
5.0
 50
0.0
 51
11.0
  0
ARC
  8
0
 62
7
  6
CONTINUOUS
 10
347.1296498906
 20
276.0171490551
 40
5.0
 50
169.0
 51
180.0
  0
ARC
  8
0
 62
7
  6
CONTINUOUS
 10
354.6480227071
 20
284.0246163247
 40
1.0
 50
11.0
 51
90.0
  0
ARC
  8
0
 62
7
  6
CONTINUOUS
 10
344.611277074
 20
284.0246163247
 40
1.0
 50
90.0
 51
169.0
  0
ENDSEC
  0
EOF
