  0
SECTION
  2
HEADER
  9
$EXTMAX
 10
420.0
 20
297.0
 30
0.0
  9
$EXTMIN
 10
0.0
 20
0.0
 30
0.0
  9
$LIMMIN
 10
0.0
 20
0.0
  9
$LIMMAX
 10
420.0
 20
297.0
  9
$VIEWCTR
 10
210.0
 20
148.5
  9
$VIEWSIZE
 40
297.0
  9
$CLAYER
  8
0
  9
$LTSCALE
 40
23.1
  9
$CELTYPE
  6
BYLAYER
  9
$DIMSCALE
 40
1.0
  9
$DIMASZ
 40
3.5
  9
$DIMEXO
 40
2.625
  9
$DIMDLI
 40
15.96
  9
$DIMEXE
 40
7.56
  9
$DIMCEN
 40
3.78
  9
$DIMLFAC
 40
1.0
  9
$DIMBLK
  1
_FILLED
  9
$DIMTXT
 40
3.5
  9
$PDMODE
 70
3
  9
$PDSIZE
 40
0.3125
  9
$TILEMODE
 70
1
  0
ENDSEC
  0
SECTION
  2
TABLES
  0
TABLE
  2
LTYPE
 70
6
  0
LTYPE
  2
BYBLOCK
 70
0
  3

 72
65
 73
0
 40
0.0
  0
LTYPE
  2
BYLAYER
 70
0
  3

 72
65
 73
0
 40
0.0
  0
LTYPE
  2
CONTINUOUS
 70
64
  3
Solid line
 72
65
 73
0
 40
0.0
  0
LTYPE
  2
CENTER
 70
64
  3
____ _ ____ _ ____ _ ____ _ ____ _ ____ _ ____
 72
65
 73
4
 40
0.6
 49
0.375
 49
-0.075
 49
0.075
 49
-0.075
  0
LTYPE
  2
HIDDEN
 70
64
  3
- - - - - - - - - - - - - - - - - - - -
 72
65
 73
2
 40
0.2
 49
0.1
 49
-0.1
  0
LTYPE
  2
PHANTOM
 70
64
  3
_____ _ _ _____ _ _ _____ _ _ _____
 72
65
 73
6
 40
0.8
 49
0.45
 49
-0.05
 49
0.1
 49
-0.05
 49
0.1
 49
-0.05
  0
LTYPE
  2
DOT
 70
64
  3
. . . . . . . . . . . . . . . . . . . .
 72
65
 73
2
 40
0.2
 49
0.1
 49
-0.1
  0
LTYPE
  2
DASHED
 70
64
  3
- - - - - - - - - - - - - - - - - - - -
 72
65
 73
2
 40
0.2
 49
0.1
 49
-0.1
  0
ENDTAB
  0
TABLE
  2
LAYER
 70
36
  0
LAYER
  2
0
 70
0
 62
7
  6
CONTINUOUS
  0
LAYER
  2
DEFAULT_1
 70
0
 62
7
  6
CENTER
  0
LAYER
  2
DEFAULT_2
 70
0
 62
8
  6
HIDDEN
  0
LAYER
  2
DEFAULT_3
 70
0
 62
7
  6
PHANTOM
  0
LAYER
  2
CSYS
 70
0
 62
7
  6
CONTINUOUS
  0
LAYER
  2
CURVE
 70
0
 62
7
  6
CONTINUOUS
  0
LAYER
  2
PITCHLINE
 70
0
 62
7
  6
CONTINUOUS
  0
LAYER
  2
SQ
 70
0
 62
7
  6
CONTINUOUS
  0
LAYER
  2
SURFACE
 70
0
 62
7
  6
CONTINUOUS
  0
ENDTAB
  0
TABLE
  2
STYLE
 70
1
  0
STYLE
  2
STANDARD
 70
0
 40
0.0
 41
0.8
 50
0.0
 71
0
 42
0.2
  3
txt
  4

  0
STYLE
  2
TEXTSTYLE_1
 70
0
 40
0.0
 41
0.8
 50
0.0
 71
0
 42
0.2
  3
gdt
  4

  0
STYLE
  2
TEXTSTYLE_2
 70
0
 40
0.0
 41
0.6
 50
0.0
 71
0
 42
0.2
  3
txt
  4

  0
STYLE
  2
TEXTSTYLE_3
 70
0
 40
0.0
 41
1.0
 50
0.0
 71
0
 42
0.2
  3
ftb_____.ttf
  4

  0
STYLE
  2
TEXTSTYLE_4
 70
0
 40
0.0
 41
1.0
 50
0.0
 71
0
 42
0.2
  3
fti_____.ttf
  4

  0
STYLE
  2
TEXTSTYLE_5
 70
0
 40
0.0
 41
1.0
 50
0.0
 71
0
 42
0.2
  3
frutiger light.ttf
  4

  0
STYLE
  2
TEXTSTYLE_6
 70
0
 40
0.0
 41
0.7
 50
0.0
 71
0
 42
0.2
  3
txt
  4

  0
STYLE
  2
TEXTSTYLE_7
 70
0
 40
0.0
 41
0.8
 50
0.0
 71
0
 42
0.2
  3
txt
  4

  0
ENDTAB
  0
ENDSEC
  0
SECTION
  2
BLOCKS
  0
BLOCK
  8
0
 62
2
  6
CONTINUOUS
  2
SYMBOL_5_BL1
 70
64
 10
382.7840918555
 20
35.5067593403
  0
TEXT
  8
0
 62
7
  6
CONTINUOUS
 10
373.842376864
 20
30.5995157174
  7
TEXTSTYLE_4
 40
1.0655737705
  1
The brand for plastic modular belts and chains
 41
1.0
 72
0
  0
LINE
  8
0
 62
7
  6
CONTINUOUS
 10
358.7621602445
 20
36.0805298321
 11
358.7621602445
 21
33.9493822911
  0
LINE
  8
0
 62
7
  6
CONTINUOUS
 10
359.0512227376
 20
30.9584509954
 11
359.0512227376
 21
31.0552420547
  0
LINE
  8
0
 62
7
  6
CONTINUOUS
 10
358.7621602445
 20
31.0229783683
 11
358.8199727462
 21
30.8293962497
  0
LINE
  8
0
 62
7
  6
CONTINUOUS
 10
360.1556028675
 20
33.867415078
 11
360.1556028675
 21
36.0805298321
  0
LINE
  8
0
 62
7
  6
CONTINUOUS
 10
361.0746601894
 20
32.0231527829
 11
361.0746601894
 21
30.5067593403
  0
LINE
  8
0
 62
7
  6
CONTINUOUS
 10
361.3637227445
 20
30.5067593403
 11
361.3637227445
 21
31.2488242184
  0
LINE
  8
0
 62
7
  6
CONTINUOUS
 10
361.3637227445
 20
31.3778789641
 11
361.3637227445
 21
32.0231527829
  0
LINE
  8
0
 62
7
  6
CONTINUOUS
 10
358.8199727462
 20
31.216560532
 11
358.7621602445
 21
31.0229783683
  0
LINE
  8
0
 62
7
  6
CONTINUOUS
 10
359.1668477307
 20
30.7971325633
 11
359.0512227376
 21
30.9584509954
  0
LINE
  8
0
 62
7
  6
CONTINUOUS
 10
360.2652852997
 20
31.3133515913
 11
360.3230977445
 21
31.216560532
  0
LINE
  8
0
 62
7
  6
CONTINUOUS
 10
360.6121602997
 20
31.216560532
 11
360.5543476894
 21
31.3456152777
  0
LINE
  8
0
 62
7
  6
CONTINUOUS
 10
362.0408487691
 20
36.0805298321
 11
362.0408487691
 21
34.2772511436
  0
LINE
  8
0
 62
7
  6
CONTINUOUS
 10
362.0408487691
 20
32.9657757338
 11
362.0408487691
 21
32.3100380288
  0
LINE
  8
0
 62
7
  6
CONTINUOUS
 10
362.4043477445
 20
31.1520331591
 11
362.4043477445
 21
30.5067593403
  0
LINE
  8
0
 62
7
  6
CONTINUOUS
 10
362.6934101343
 20
30.5067593403
 11
362.6934101343
 21
31.1520331591
  0
LINE
  8
0
 62
7
  6
CONTINUOUS
 10
359.0512227376
 20
31.0552420547
 11
359.1090352445
 21
31.1842968456
  0
LINE
  8
0
 62
7
  6
CONTINUOUS
 10
358.8199727462
 20
30.8293962497
 11
358.9355977445
 21
30.7003414814
  0
LINE
  8
0
 62
7
  6
CONTINUOUS
 10
362.3465351343
 20
31.2810879048
 11
362.4043477445
 21
31.1520331591
  0
LINE
  8
0
 62
7
  6
CONTINUOUS
 10
363.1559103548
 20
30.7971325633
 11
363.2137226343
 21
30.668077795
  0
LINE
  8
0
 62
7
  6
CONTINUOUS
 10
362.6934101343
 20
31.1520331591
 11
362.6355978548
 21
31.3133515913
  0
LINE
  8
0
 62
7
  6
CONTINUOUS
 10
363.1559103548
 20
31.3456152777
 11
363.1559103548
 21
31.2810879048
  0
LINE
  8
0
 62
7
  6
CONTINUOUS
 10
363.1559103548
 20
30.8939236226
 11
363.1559103548
 21
30.7971325633
  0
LINE
  8
0
 62
7
  6
CONTINUOUS
 10
363.4342913921
 20
32.3100380288
 11
363.4342913921
 21
36.0805298321
  0
LINE
  8
0
 62
7
  6
CONTINUOUS
 10
363.4449727445
 20
30.7648688543
 11
363.4449727445
 21
30.8293962497
  0
LINE
  8
0
 62
7
  6
CONTINUOUS
 10
363.7621602445
 20
36.0805298321
 11
363.7621602445
 21
32.3100380288
  0
LINE
  8
0
 62
7
  6
CONTINUOUS
 10
360.5543476894
 20
30.7003414814
 11
360.6121602997
 21
30.8293962497
  0
LINE
  8
0
 62
7
  6
CONTINUOUS
 10
364.9480979651
 20
30.6035504109
 11
364.890285024
 21
30.7648688543
  0
LINE
  8
0
 62
7
  6
CONTINUOUS
 10
364.6012229651
 20
31.2810879048
 11
364.6012229651
 21
31.1842968456
  0
LINE
  8
0
 62
7
  6
CONTINUOUS
 10
364.6012229651
 20
31.0552420547
 11
364.6012229651
 21
30.8616599362
  0
LINE
  8
0
 62
7
  6
CONTINUOUS
 10
364.890285024
 20
30.7648688543
 11
364.890285024
 21
31.2810879048
  0
LINE
  8
0
 62
7
  6
CONTINUOUS
 10
365.1556028675
 20
32.3100380288
 11
365.1556028675
 21
34.1133167174
  0
LINE
  8
0
 62
7
  6
CONTINUOUS
 10
365.1556028675
 20
35.4247921272
 11
365.1556028675
 21
36.0805298321
  0
LINE
  8
0
 62
7
  6
CONTINUOUS
 10
365.4684104651
 20
32.0231527829
 11
365.4684104651
 21
31.8618343508
  0
LINE
  8
0
 62
7
  6
CONTINUOUS
 10
365.4684104651
 20
31.5391973962
 11
365.4684104651
 21
30.5067593403
  0
LINE
  8
0
 62
7
  6
CONTINUOUS
 10
365.757472524
 20
30.5067593403
 11
365.757472524
 21
31.5391973962
  0
LINE
  8
0
 62
7
  6
CONTINUOUS
 10
365.757472524
 20
31.8618343508
 11
365.757472524
 21
32.0231527829
  0
LINE
  8
0
 62
7
  6
CONTINUOUS
 10
360.3230977445
 20
30.8293962497
 11
360.2652852997
 21
30.7326051679
  0
LINE
  8
0
 62
7
  6
CONTINUOUS
 10
362.6355978548
 20
31.3133515913
 11
362.5777852445
 21
31.3778789641
  0
LINE
  8
0
 62
7
  6
CONTINUOUS
 10
363.5027853548
 20
30.7003414814
 11
363.4449727445
 21
30.7648688543
  0
LINE
  8
0
 62
7
  6
CONTINUOUS
 10
364.6590352445
 20
30.5712867188
 11
364.716847524
 21
30.5067593403
  0
LINE
  8
0
 62
7
  6
CONTINUOUS
 10
364.6012229651
 20
30.668077795
 11
364.6590352445
 21
30.5712867188
  0
LINE
  8
0
 62
7
  6
CONTINUOUS
 10
365.0059102445
 20
30.5067593403
 11
364.9480979651
 21
30.6035504109
  0
LINE
  8
0
 62
7
  6
CONTINUOUS
 10
364.890285024
 20
31.2810879048
 11
364.8324727445
 21
31.3778789641
  0
LINE
  8
0
 62
7
  6
CONTINUOUS
 10
366.2199727445
 20
31.5391973962
 11
366.2199727445
 21
30.5067593403
  0
LINE
  8
0
 62
7
  6
CONTINUOUS
 10
366.5090354651
 20
30.5067593403
 11
366.5090354651
 21
31.2488242184
  0
LINE
  8
0
 62
7
  6
CONTINUOUS
 10
366.5090354651
 20
31.3778789641
 11
366.5090354651
 21
31.5391973962
  0
LINE
  8
0
 62
7
  6
CONTINUOUS
 10
367.0408487691
 20
34.5231527829
 11
367.0408487691
 21
32.3100380288
  0
LINE
  8
0
 62
7
  6
CONTINUOUS
 10
358.9355977445
 20
31.3456152777
 11
358.8199727462
 21
31.216560532
  0
LINE
  8
0
 62
7
  6
CONTINUOUS
 10
359.1090352445
 20
31.1842968456
 11
359.1668477307
 21
31.2488242184
  0
LINE
  8
0
 62
7
  6
CONTINUOUS
 10
358.9355977445
 20
30.7003414814
 11
359.0512227376
 21
30.6358140973
  0
LINE
  8
0
 62
7
  6
CONTINUOUS
 10
359.3402852307
 20
30.7003414814
 11
359.1668477307
 21
30.7971325633
  0
LINE
  8
0
 62
7
  6
CONTINUOUS
 10
364.543410024
 20
31.3456152777
 11
364.6012229651
 21
31.2810879048
  0
LINE
  8
0
 62
7
  6
CONTINUOUS
 10
367.491847524
 20
31.2810879048
 11
367.5496604651
 21
31.1197694727
  0
LINE
  8
0
 62
7
  6
CONTINUOUS
 10
367.838722524
 20
31.1197694727
 11
367.7809102445
 21
31.2810879048
  0
LINE
  8
0
 62
7
  6
CONTINUOUS
 10
367.5496604651
 20
31.1197694727
 11
367.5496604651
 21
30.5067593403
  0
LINE
  8
0
 62
7
  6
CONTINUOUS
 10
367.838722524
 20
30.5067593403
 11
367.838722524
 21
31.1197694727
  0
LINE
  8
0
 62
7
  6
CONTINUOUS
 10
368.3012227445
 20
31.3456152777
 11
368.3012227445
 21
31.2810879048
  0
LINE
  8
0
 62
7
  6
CONTINUOUS
 10
368.4342913921
 20
32.3100380288
 11
368.4342913921
 21
34.4411855698
  0
LINE
  8
0
 62
7
  6
CONTINUOUS
 10
368.7621602445
 20
36.0805298321
 11
368.7621602445
 21
32.3100380288
  0
LINE
  8
0
 62
7
  6
CONTINUOUS
 10
363.4449727445
 20
30.8293962497
 11
363.5027853548
 21
30.926187309
  0
LINE
  8
0
 62
7
  6
CONTINUOUS
 10
359.0512227376
 20
30.6358140973
 11
359.2246602583
 21
30.5712867188
  0
LINE
  8
0
 62
7
  6
CONTINUOUS
 10
360.5543476894
 20
31.3456152777
 11
360.3809101894
 21
31.4424063369
  0
LINE
  8
0
 62
7
  6
CONTINUOUS
 10
363.2137226343
 20
30.668077795
 11
363.3871601343
 21
30.5712867188
  0
LINE
  8
0
 62
7
  6
CONTINUOUS
 10
362.2309102445
 20
31.3456152777
 11
362.3465351343
 21
31.2810879048
  0
LINE
  8
0
 62
7
  6
CONTINUOUS
 10
362.5777852445
 20
31.3778789641
 11
362.4621603548
 21
31.4424063369
  0
LINE
  8
0
 62
7
  6
CONTINUOUS
 10
368.3012227445
 20
30.7648688543
 11
368.4168479651
 21
30.6358140973
  0
LINE
  8
0
 62
7
  6
CONTINUOUS
 10
368.6480977445
 20
30.7003414814
 11
368.5902854651
 21
30.7648688543
  0
LINE
  8
0
 62
7
  6
CONTINUOUS
 10
368.3012227445
 20
31.2810879048
 11
368.4168479651
 21
31.1520331591
  0
LINE
  8
0
 62
7
  6
CONTINUOUS
 10
367.7809102445
 20
31.2810879048
 11
367.7230979651
 21
31.3778789641
  0
LINE
  8
0
 62
7
  6
CONTINUOUS
 10
370.1512223035
 20
30.7003414814
 11
370.1512223035
 21
30.7648688543
  0
LINE
  8
0
 62
7
  6
CONTINUOUS
 10
370.1556028675
 20
32.3100380288
 11
370.1556028675
 21
36.0805298321
  0
LINE
  8
0
 62
7
  6
CONTINUOUS
 10
363.2137226343
 20
31.4101426505
 11
363.1559103548
 21
31.3456152777
  0
LINE
  8
0
 62
7
  6
CONTINUOUS
 10
360.091847717
 20
31.3778789641
 11
360.2652852997
 21
31.3133515913
  0
LINE
  8
0
 62
7
  6
CONTINUOUS
 10
364.8324727445
 20
31.3778789641
 11
364.716847524
 21
31.4424063369
  0
LINE
  8
0
 62
7
  6
CONTINUOUS
 10
368.6480977445
 20
31.216560532
 11
368.5902854651
 21
31.2810879048
  0
LINE
  8
0
 62
7
  6
CONTINUOUS
 10
369.8043479651
 20
30.8293962497
 11
369.8621602445
 21
30.7648688543
  0
LINE
  8
0
 62
7
  6
CONTINUOUS
 10
370.1512223035
 20
30.7648688543
 11
370.0355977445
 21
30.8939236226
  0
LINE
  8
0
 62
7
  6
CONTINUOUS
 10
369.8043479651
 20
31.3456152777
 11
369.8621602445
 21
31.2810879048
  0
LINE
  8
0
 62
7
  6
CONTINUOUS
 10
370.1512223035
 20
31.2810879048
 11
370.0355977445
 21
31.4101426505
  0
LINE
  8
0
 62
7
  6
CONTINUOUS
 10
363.4449727445
 20
31.2810879048
 11
363.5027853548
 21
31.3456152777
  0
LINE
  8
0
 62
7
  6
CONTINUOUS
 10
363.2715352445
 20
31.0229783683
 11
363.1559103548
 21
30.8939236226
  0
LINE
  8
0
 62
7
  6
CONTINUOUS
 10
364.6012229651
 20
30.8616599362
 11
364.543410024
 21
30.7971325633
  0
LINE
  8
0
 62
7
  6
CONTINUOUS
 10
364.543410024
 20
30.6035504109
 11
364.6012229651
 21
30.668077795
  0
LINE
  8
0
 62
7
  6
CONTINUOUS
 10
363.3871601343
 20
30.5712867188
 11
363.5027853548
 21
30.5390230296
  0
LINE
  8
0
 62
7
  6
CONTINUOUS
 10
360.3809101894
 20
31.4424063369
 11
360.1496602445
 21
31.5069337098
  0
LINE
  8
0
 62
7
  6
CONTINUOUS
 10
363.7340351343
 20
30.6358140973
 11
363.5027853548
 21
30.7003414814
  0
LINE
  8
0
 62
7
  6
CONTINUOUS
 10
362.4621603548
 20
31.4424063369
 11
362.2887228548
 21
31.5069337098
  0
LINE
  8
0
 62
7
  6
CONTINUOUS
 10
364.716847524
 20
31.4424063369
 11
364.543410024
 21
31.5069337098
  0
LINE
  8
0
 62
7
  6
CONTINUOUS
 10
367.3762229651
 20
31.3456152777
 11
367.491847524
 21
31.2810879048
  0
LINE
  8
0
 62
7
  6
CONTINUOUS
 10
367.7230979651
 20
31.3778789641
 11
367.6074727445
 21
31.4424063369
  0
LINE
  8
0
 62
7
  6
CONTINUOUS
 10
359.2246602583
 20
30.5712867188
 11
359.3980977583
 21
30.5390230296
  0
LINE
  8
0
 62
7
  6
CONTINUOUS
 10
359.6871602721
 20
30.6358140973
 11
359.3402852307
 21
30.7003414814
  0
LINE
  8
0
 62
7
  6
CONTINUOUS
 10
362.1152853548
 20
31.3778789641
 11
362.2309102445
 21
31.3456152777
  0
LINE
  8
0
 62
7
  6
CONTINUOUS
 10
364.4277854651
 20
31.3778789641
 11
364.543410024
 21
31.3456152777
  0
LINE
  8
0
 62
7
  6
CONTINUOUS
 10
368.7637229651
 20
30.668077795
 11
368.6480977445
 21
30.7003414814
  0
LINE
  8
0
 62
7
  6
CONTINUOUS
 10
367.2605977445
 20
31.3778789641
 11
367.3762229651
 21
31.3456152777
  0
LINE
  8
0
 62
7
  6
CONTINUOUS
 10
368.4168479651
 20
30.6358140973
 11
368.5902854651
 21
30.5712867188
  0
LINE
  8
0
 62
7
  6
CONTINUOUS
 10
367.6074727445
 20
31.4424063369
 11
367.4340352445
 21
31.5069337098
  0
LINE
  8
0
 62
7
  6
CONTINUOUS
 10
368.8215352445
 20
31.1520331591
 11
368.6480977445
 21
31.216560532
  0
LINE
  8
0
 62
7
  6
CONTINUOUS
 10
369.6309104651
 20
30.8939236226
 11
369.8043479651
 21
30.8293962497
  0
LINE
  8
0
 62
7
  6
CONTINUOUS
 10
370.0355977445
 20
31.4101426505
 11
369.8621602445
 21
31.4746700234
  0
LINE
  8
0
 62
7
  6
CONTINUOUS
 10
368.4168479651
 20
31.1520331591
 11
368.6480977445
 21
31.0552420547
  0
LINE
  8
0
 62
7
  6
CONTINUOUS
 10
370.0355977445
 20
30.8939236226
 11
369.8043479651
 21
30.9907146818
  0
LINE
  8
0
 62
7
  6
CONTINUOUS
 10
368.5902854651
 20
31.2810879048
 11
368.6480977445
 21
31.3456152777
  0
LINE
  8
0
 62
7
  6
CONTINUOUS
 10
359.0512227376
 20
31.4101426505
 11
358.9355977445
 21
31.3456152777
  0
LINE
  8
0
 62
7
  6
CONTINUOUS
 10
359.1668477307
 20
31.2488242184
 11
359.3402852307
 21
31.3456152777
  0
LINE
  8
0
 62
7
  6
CONTINUOUS
 10
361.4793477997
 20
31.4424063369
 11
361.3637227445
 21
31.3778789641
  0
LINE
  8
0
 62
7
  6
CONTINUOUS
 10
361.3637227445
 20
31.2488242184
 11
361.4793477997
 21
31.3133515913
  0
LINE
  8
0
 62
7
  6
CONTINUOUS
 10
360.3809101894
 20
30.6035504109
 11
360.5543476894
 21
30.7003414814
  0
LINE
  8
0
 62
7
  6
CONTINUOUS
 10
359.3980977583
 20
30.5390230296
 11
359.744972717
 21
30.5067593403
  0
LINE
  8
0
 62
7
  6
CONTINUOUS
 10
363.5027853548
 20
30.5390230296
 11
363.7340351343
 21
30.5067593403
  0
LINE
  8
0
 62
7
  6
CONTINUOUS
 10
361.8840352445
 20
31.4101426505
 11
362.1152853548
 21
31.3778789641
  0
LINE
  8
0
 62
7
  6
CONTINUOUS
 10
364.1965353548
 20
31.4101426505
 11
364.4277854651
 21
31.3778789641
  0
LINE
  8
0
 62
7
  6
CONTINUOUS
 10
368.6480977445
 20
31.0552420547
 11
369.6309104651
 21
30.8939236226
  0
LINE
  8
0
 62
7
  6
CONTINUOUS
 10
369.8043479651
 20
30.9907146818
 11
368.8215352445
 21
31.1520331591
  0
LINE
  8
0
 62
7
  6
CONTINUOUS
 10
362.2887228548
 20
31.5069337098
 11
362.1152853548
 21
31.5391973962
  0
LINE
  8
0
 62
7
  6
CONTINUOUS
 10
368.5902854651
 20
30.5712867188
 11
368.7637229651
 21
30.5390230296
  0
LINE
  8
0
 62
7
  6
CONTINUOUS
 10
367.4340352445
 20
31.5069337098
 11
367.2605977445
 21
31.5391973962
  0
LINE
  8
0
 62
7
  6
CONTINUOUS
 10
369.6887227445
 20
31.3778789641
 11
369.8043479651
 21
31.3456152777
  0
LINE
  8
0
 62
7
  6
CONTINUOUS
 10
369.8621602445
 20
30.7648688543
 11
369.8043479651
 21
30.7003414814
  0
LINE
  8
0
 62
7
  6
CONTINUOUS
 10
368.4168479651
 20
31.4424063369
 11
368.3012227445
 21
31.3456152777
  0
LINE
  8
0
 62
7
  6
CONTINUOUS
 10
363.3293478548
 20
31.4746700234
 11
363.2137226343
 21
31.4101426505
  0
LINE
  8
0
 62
7
  6
CONTINUOUS
 10
363.3871601343
 20
31.0875057863
 11
363.2715352445
 21
31.0229783683
  0
LINE
  8
0
 62
7
  6
CONTINUOUS
 10
363.5027853548
 20
30.926187309
 11
363.6184102445
 21
30.9907146818
  0
LINE
  8
0
 62
7
  6
CONTINUOUS
 10
361.0746601894
 20
30.5067593403
 11
361.3637227445
 21
30.5067593403
  0
LINE
  8
0
 62
7
  6
CONTINUOUS
 10
362.4043477445
 20
30.5067593403
 11
362.6934101343
 21
30.5067593403
  0
LINE
  8
0
 62
7
  6
CONTINUOUS
 10
363.7340351343
 20
30.5067593403
 11
364.0809101343
 21
30.5067593403
  0
LINE
  8
0
 62
7
  6
CONTINUOUS
 10
364.716847524
 20
30.5067593403
 11
365.0059102445
 21
30.5067593403
  0
LINE
  8
0
 62
7
  6
CONTINUOUS
 10
365.4684104651
 20
30.5067593403
 11
365.757472524
 21
30.5067593403
  0
LINE
  8
0
 62
7
  6
CONTINUOUS
 10
366.2199727445
 20
30.5067593403
 11
366.5090354651
 21
30.5067593403
  0
LINE
  8
0
 62
7
  6
CONTINUOUS
 10
367.5496604651
 20
30.5067593403
 11
367.838722524
 21
30.5067593403
  0
LINE
  8
0
 62
7
  6
CONTINUOUS
 10
369.1105979651
 20
30.5067593403
 11
369.4574729651
 21
30.5067593403
  0
LINE
  8
0
 62
7
  6
CONTINUOUS
 10
369.4574729651
 20
30.6358140973
 11
369.1105979651
 21
30.6358140973
  0
LINE
  8
0
 62
7
  6
CONTINUOUS
 10
364.0809101343
 20
30.6358140973
 11
363.7340351343
 21
30.6358140973
  0
LINE
  8
0
 62
7
  6
CONTINUOUS
 10
368.5902854651
 20
30.7648688543
 11
368.3012227445
 21
30.7648688543
  0
LINE
  8
0
 62
7
  6
CONTINUOUS
 10
360.6121602997
 20
30.8293962497
 11
360.3230977445
 21
30.8293962497
  0
LINE
  8
0
 62
7
  6
CONTINUOUS
 10
359.6871602721
 20
31.4101426505
 11
360.091847717
 21
31.3778789641
  0
LINE
  8
0
 62
7
  6
CONTINUOUS
 10
360.1496602445
 20
31.5069337098
 11
359.744972717
 21
31.5391973962
  0
LINE
  8
0
 62
7
  6
CONTINUOUS
 10
368.7637229651
 20
30.5390230296
 11
369.1105979651
 21
30.5067593403
  0
LINE
  8
0
 62
7
  6
CONTINUOUS
 10
369.1105979651
 20
30.6358140973
 11
368.7637229651
 21
30.668077795
  0
LINE
  8
0
 62
7
  6
CONTINUOUS
 10
364.543410024
 20
31.5069337098
 11
364.1965353548
 21
31.5391973962
  0
LINE
  8
0
 62
7
  6
CONTINUOUS
 10
369.3418477445
 20
31.4101426505
 11
369.6887227445
 21
31.3778789641
  0
LINE
  8
0
 62
7
  6
CONTINUOUS
 10
369.6887227445
 20
31.5069337098
 11
369.3418477445
 21
31.5391973962
  0
LINE
  8
0
 62
7
  6
CONTINUOUS
 10
367.0293479651
 20
31.4101426505
 11
367.2605977445
 21
31.3778789641
  0
LINE
  8
0
 62
7
  6
CONTINUOUS
 10
369.8621602445
 20
31.4746700234
 11
369.6887227445
 21
31.5069337098
  0
LINE
  8
0
 62
7
  6
CONTINUOUS
 10
370.0355977445
 20
30.6035504109
 11
370.1512223035
 21
30.7003414814
  0
LINE
  8
0
 62
7
  6
CONTINUOUS
 10
364.543410024
 20
30.7971325633
 11
364.369972524
 21
30.7003414814
  0
LINE
  8
0
 62
7
  6
CONTINUOUS
 10
366.624660024
 20
31.4424063369
 11
366.5090354651
 21
31.3778789641
  0
LINE
  8
0
 62
7
  6
CONTINUOUS
 10
366.5090354651
 20
31.2488242184
 11
366.624660024
 21
31.3133515913
  0
LINE
  8
0
 62
7
  6
CONTINUOUS
 10
359.2246602583
 20
31.4746700234
 11
359.0512227376
 21
31.4101426505
  0
LINE
  8
0
 62
7
  6
CONTINUOUS
 10
361.6527851343
 20
31.5069337098
 11
361.4793477997
 21
31.4424063369
  0
LINE
  8
0
 62
7
  6
CONTINUOUS
 10
361.4793477997
 20
31.3133515913
 11
361.6527851343
 21
31.3778789641
  0
LINE
  8
0
 62
7
  6
CONTINUOUS
 10
360.2652852997
 20
30.7326051679
 11
360.091847717
 21
30.668077795
  0
LINE
  8
0
 62
7
  6
CONTINUOUS
 10
369.6887227445
 20
30.668077795
 11
369.4574729651
 21
30.6358140973
  0
LINE
  8
0
 62
7
  6
CONTINUOUS
 10
364.0809101343
 20
30.5067593403
 11
364.369972524
 21
30.5390230296
  0
LINE
  8
0
 62
7
  6
CONTINUOUS
 10
369.4574729651
 20
30.5067593403
 11
369.8043479651
 21
30.5390230296
  0
LINE
  8
0
 62
7
  6
CONTINUOUS
 10
359.744972717
 20
30.5067593403
 11
360.1496602445
 21
30.5390230296
  0
LINE
  8
0
 62
7
  6
CONTINUOUS
 10
360.091847717
 20
30.668077795
 11
359.6871602721
 21
30.6358140973
  0
LINE
  8
0
 62
7
  6
CONTINUOUS
 10
363.9652852445
 20
31.0552420547
 11
364.6012229651
 21
31.0552420547
  0
LINE
  8
0
 62
7
  6
CONTINUOUS
 10
364.6012229651
 20
31.1842968456
 11
363.9652852445
 21
31.1842968456
  0
LINE
  8
0
 62
7
  6
CONTINUOUS
 10
360.3230977445
 20
31.216560532
 11
360.6121602997
 21
31.216560532
  0
LINE
  8
0
 62
7
  6
CONTINUOUS
 10
363.1559103548
 20
31.2810879048
 11
363.4449727445
 21
31.2810879048
  0
LINE
  8
0
 62
7
  6
CONTINUOUS
 10
369.8621602445
 20
31.2810879048
 11
370.1512223035
 21
31.2810879048
  0
LINE
  8
0
 62
7
  6
CONTINUOUS
 10
363.8496603548
 20
31.4101426505
 11
364.1965353548
 21
31.4101426505
  0
LINE
  8
0
 62
7
  6
CONTINUOUS
 10
368.9949727445
 20
31.4101426505
 11
369.3418477445
 21
31.4101426505
  0
LINE
  8
0
 62
7
  6
CONTINUOUS
 10
369.3418477445
 20
31.5391973962
 11
368.9949727445
 21
31.5391973962
  0
LINE
  8
0
 62
7
  6
CONTINUOUS
 10
367.2605977445
 20
31.5391973962
 11
367.0293479651
 21
31.5391973962
  0
LINE
  8
0
 62
7
  6
CONTINUOUS
 10
366.5090354651
 20
31.5391973962
 11
366.2199727445
 21
31.5391973962
  0
LINE
  8
0
 62
7
  6
CONTINUOUS
 10
365.757472524
 20
31.5391973962
 11
365.4684104651
 21
31.5391973962
  0
LINE
  8
0
 62
7
  6
CONTINUOUS
 10
364.1965353548
 20
31.5391973962
 11
363.8496603548
 21
31.5391973962
  0
LINE
  8
0
 62
7
  6
CONTINUOUS
 10
362.1152853548
 20
31.5391973962
 11
361.8840352445
 21
31.5391973962
  0
LINE
  8
0
 62
7
  6
CONTINUOUS
 10
365.4684104651
 20
31.8618343508
 11
365.757472524
 21
31.8618343508
  0
LINE
  8
0
 62
7
  6
CONTINUOUS
 10
365.757472524
 20
32.0231527829
 11
365.4684104651
 21
32.0231527829
  0
LINE
  8
0
 62
7
  6
CONTINUOUS
 10
361.3637227445
 20
32.0231527829
 11
361.0746601894
 21
32.0231527829
  0
LINE
  8
0
 62
7
  6
CONTINUOUS
 10
360.4015045068
 20
32.3100380288
 11
360.8140758554
 21
32.3100380288
  0
LINE
  8
0
 62
7
  6
CONTINUOUS
 10
362.0408487691
 20
32.3100380288
 11
363.4342913921
 21
32.3100380288
  0
LINE
  8
0
 62
7
  6
CONTINUOUS
 10
363.7621602445
 20
32.3100380288
 11
365.1556028675
 21
32.3100380288
  0
LINE
  8
0
 62
7
  6
CONTINUOUS
 10
367.0408487691
 20
32.3100380288
 11
368.4342913921
 21
32.3100380288
  0
LINE
  8
0
 62
7
  6
CONTINUOUS
 10
368.7621602445
 20
32.3100380288
 11
370.1556028675
 21
32.3100380288
  0
LINE
  8
0
 62
7
  6
CONTINUOUS
 10
366.798097524
 20
31.5069337098
 11
366.624660024
 21
31.4424063369
  0
LINE
  8
0
 62
7
  6
CONTINUOUS
 10
364.369972524
 20
30.5390230296
 11
364.543410024
 21
30.6035504109
  0
LINE
  8
0
 62
7
  6
CONTINUOUS
 10
369.8043479651
 20
30.5390230296
 11
370.0355977445
 21
30.6035504109
  0
LINE
  8
0
 62
7
  6
CONTINUOUS
 10
369.8043479651
 20
30.7003414814
 11
369.6887227445
 21
30.668077795
  0
LINE
  8
0
 62
7
  6
CONTINUOUS
 10
368.7637229651
 20
31.3778789641
 11
368.9949727445
 21
31.4101426505
  0
LINE
  8
0
 62
7
  6
CONTINUOUS
 10
366.798097524
 20
31.3778789641
 11
367.0293479651
 21
31.4101426505
  0
LINE
  8
0
 62
7
  6
CONTINUOUS
 10
363.7340351343
 20
31.0229783683
 11
363.9652852445
 21
31.0552420547
  0
LINE
  8
0
 62
7
  6
CONTINUOUS
 10
367.0293479651
 20
31.5391973962
 11
366.798097524
 21
31.5069337098
  0
LINE
  8
0
 62
7
  6
CONTINUOUS
 10
363.6184102445
 20
31.3778789641
 11
363.8496603548
 21
31.4101426505
  0
LINE
  8
0
 62
7
  6
CONTINUOUS
 10
368.9949727445
 20
31.5391973962
 11
368.6480977445
 21
31.5069337098
  0
LINE
  8
0
 62
7
  6
CONTINUOUS
 10
363.9652852445
 20
31.1842968456
 11
363.6184102445
 21
31.1520331591
  0
LINE
  8
0
 62
7
  6
CONTINUOUS
 10
359.744972717
 20
31.5391973962
 11
359.3980977583
 21
31.5069337098
  0
LINE
  8
0
 62
7
  6
CONTINUOUS
 10
363.8496603548
 20
31.5391973962
 11
363.4449727445
 21
31.5069337098
  0
LINE
  8
0
 62
7
  6
CONTINUOUS
 10
361.221176638
 20
33.4575790124
 11
360.565438933
 21
33.4575790124
  0
LINE
  8
0
 62
7
  6
CONTINUOUS
 10
366.624660024
 20
31.3133515913
 11
366.798097524
 21
31.3778789641
  0
LINE
  8
0
 62
7
  6
CONTINUOUS
 10
368.6480977445
 20
31.3456152777
 11
368.7637229651
 21
31.3778789641
  0
LINE
  8
0
 62
7
  6
CONTINUOUS
 10
368.6480977445
 20
31.5069337098
 11
368.4168479651
 21
31.4424063369
  0
LINE
  8
0
 62
7
  6
CONTINUOUS
 10
364.369972524
 20
30.7003414814
 11
364.0809101343
 21
30.6358140973
  0
LINE
  8
0
 62
7
  6
CONTINUOUS
 10
361.6527851343
 20
31.3778789641
 11
361.8840352445
 21
31.4101426505
  0
LINE
  8
0
 62
7
  6
CONTINUOUS
 10
361.8840352445
 20
31.5391973962
 11
361.6527851343
 21
31.5069337098
  0
LINE
  8
0
 62
7
  6
CONTINUOUS
 10
359.4559102445
 20
31.3778789641
 11
359.6871602721
 21
31.4101426505
  0
LINE
  8
0
 62
7
  6
CONTINUOUS
 10
365.9752749986
 20
34.9329888485
 11
366.6310127035
 21
34.9329888485
  0
LINE
  8
0
 62
7
  6
CONTINUOUS
 10
363.6184102445
 20
30.9907146818
 11
363.7340351343
 21
31.0229783683
  0
LINE
  8
0
 62
7
  6
CONTINUOUS
 10
363.6184102445
 20
31.1520331591
 11
363.3871601343
 21
31.0875057863
  0
LINE
  8
0
 62
7
  6
CONTINUOUS
 10
363.5027853548
 20
31.3456152777
 11
363.6184102445
 21
31.3778789641
  0
LINE
  8
0
 62
7
  6
CONTINUOUS
 10
360.1496602445
 20
30.5390230296
 11
360.3809101894
 21
30.6035504109
  0
LINE
  8
0
 62
7
  6
CONTINUOUS
 10
363.4449727445
 20
31.5069337098
 11
363.3293478548
 21
31.4746700234
  0
LINE
  8
0
 62
7
  6
CONTINUOUS
 10
359.3980977583
 20
31.5069337098
 11
359.2246602583
 21
31.4746700234
  0
LINE
  8
0
 62
7
  6
CONTINUOUS
 10
370.1556028675
 20
36.0805298321
 11
368.7621602445
 21
36.0805298321
  0
LINE
  8
0
 62
7
  6
CONTINUOUS
 10
366.7949471298
 20
36.0805298321
 11
366.3823757812
 21
36.0805298321
  0
LINE
  8
0
 62
7
  6
CONTINUOUS
 10
365.1556028675
 20
36.0805298321
 11
363.7621602445
 21
36.0805298321
  0
LINE
  8
0
 62
7
  6
CONTINUOUS
 10
363.4342913921
 20
36.0805298321
 11
362.0408487691
 21
36.0805298321
  0
LINE
  8
0
 62
7
  6
CONTINUOUS
 10
360.1556028675
 20
36.0805298321
 11
358.7621602445
 21
36.0805298321
  0
LINE
  8
0
 62
7
  6
CONTINUOUS
 10
359.3402852307
 20
31.3456152777
 11
359.4559102445
 21
31.3778789641
  0
CIRCLE
  8
0
 62
7
  6
CONTINUOUS
 10
369.458881556
 20
38.4165954059
 40
2.0901639344
  0
ARC
  8
0
 62
7
  6
CONTINUOUS
 10
360.4015045068
 20
33.9493822911
 40
1.6393442623
 50
180.0
 51
270.0
  0
ARC
  8
0
 62
7
  6
CONTINUOUS
 10
366.7949471298
 20
34.4411855698
 40
1.6393442623
 50
0.0
 51
90.0
  0
ARC
  8
0
 62
7
  6
CONTINUOUS
 10
360.8140758554
 20
33.7854478649
 40
1.4754098361
 50
270.0
 51
326.2510114041
  0
ARC
  8
0
 62
7
  6
CONTINUOUS
 10
366.3823757812
 20
34.6051199961
 40
1.4754098361
 50
90.0
 51
146.2510114041
  0
ARC
  8
0
 62
7
  6
CONTINUOUS
 10
361.221176638
 20
34.2772511436
 40
0.8196721311
 50
270.0
 51
360.0
  0
ARC
  8
0
 62
7
  6
CONTINUOUS
 10
365.9752749986
 20
34.1133167174
 40
0.8196721311
 50
90.0
 51
180.0
  0
ARC
  8
0
 62
7
  6
CONTINUOUS
 10
360.565438933
 20
33.867415078
 40
0.4098360656
 50
180.0
 51
270.0
  0
ARC
  8
0
 62
7
  6
CONTINUOUS
 10
366.6310127035
 20
34.5231527829
 40
0.4098360656
 50
0.0
 51
90.0
  0
SOLID
  8
0
 62
7
  6
CONTINUOUS
 10
365.4684104651
 20
31.8618347111
 11
365.4684104651
 21
32.0231531947
 12
365.757472524
 22
31.8618347111
 13
365.757472524
 23
32.0231531947
  0
SOLID
  8
0
 62
7
  6
CONTINUOUS
 10
359.744972717
 20
31.5391977439
 11
360.1496602445
 21
31.5069333244
 12
359.3980977583
 22
31.5069333244
 13
359.3980977583
 23
31.5069333244
  0
SOLID
  8
0
 62
7
  6
CONTINUOUS
 10
359.2246602583
 20
31.4746706537
 11
359.3980977583
 21
31.5069333244
 12
360.1496602445
 22
31.5069333244
 13
360.1496602445
 23
31.5069333244
  0
SOLID
  8
0
 62
7
  6
CONTINUOUS
 10
360.1496602445
 20
31.5069333244
 11
360.3809101894
 21
31.4424063504
 12
359.2246602583
 22
31.4746706537
 13
359.2246602583
 23
31.4746706537
  0
SOLID
  8
0
 62
7
  6
CONTINUOUS
 10
359.0512227376
 20
31.4101419116
 11
359.2246602583
 21
31.4746706537
 12
360.3809101894
 22
31.4424063504
 13
360.3809101894
 23
31.4424063504
  0
SOLID
  8
0
 62
7
  6
CONTINUOUS
 10
359.0512227376
 20
31.4101419116
 11
360.3809101894
 21
31.4424063504
 12
359.6871602721
 22
31.4101419116
 13
359.6871602721
 23
31.4101419116
  0
SOLID
  8
0
 62
7
  6
CONTINUOUS
 10
359.6871602721
 20
31.4101419116
 11
360.3809101894
 21
31.4424063504
 12
360.091847717
 22
31.3778792603
 13
360.091847717
 23
31.3778792603
  0
SOLID
  8
0
 62
7
  6
CONTINUOUS
 10
360.3809101894
 20
31.4424063504
 11
360.5543476894
 21
31.345614957
 12
360.091847717
 22
31.3778792603
 13
360.091847717
 23
31.3778792603
  0
SOLID
  8
0
 62
7
  6
CONTINUOUS
 10
360.2652852997
 20
31.3133521701
 11
360.091847717
 21
31.3778792603
 12
360.5543476894
 22
31.345614957
 13
360.5543476894
 23
31.345614957
  0
SOLID
  8
0
 62
7
  6
CONTINUOUS
 10
360.2652852997
 20
31.3133521701
 11
360.5543476894
 21
31.345614957
 12
360.3230977445
 22
31.2165606992
 13
360.3230977445
 23
31.2165606992
  0
SOLID
  8
0
 62
7
  6
CONTINUOUS
 10
360.5543476894
 20
31.345614957
 11
360.6121602997
 21
31.2165606992
 12
360.3230977445
 22
31.2165606992
 13
360.3230977445
 23
31.2165606992
  0
SOLID
  8
0
 62
7
  6
CONTINUOUS
 10
361.6527851343
 20
31.5069329918
 11
361.8840352445
 21
31.5391972951
 12
362.1152853548
 22
31.5391972951
 13
362.1152853548
 23
31.5391972951
  0
SOLID
  8
0
 62
7
  6
CONTINUOUS
 10
362.1152853548
 20
31.5391972951
 11
362.2887228548
 21
31.5069329918
 12
361.6527851343
 22
31.5069329918
 13
361.6527851343
 23
31.5069329918
  0
SOLID
  8
0
 62
7
  6
CONTINUOUS
 10
361.4793477997
 20
31.4424059016
 11
361.6527851343
 21
31.5069329918
 12
362.2887228548
 22
31.5069329918
 13
362.2887228548
 23
31.5069329918
  0
SOLID
  8
0
 62
7
  6
CONTINUOUS
 10
362.2887228548
 20
31.5069329918
 11
362.4621603548
 21
31.4424059016
 12
361.4793477997
 22
31.4424059016
 13
361.4793477997
 23
31.4424059016
  0
SOLID
  8
0
 62
7
  6
CONTINUOUS
 10
362.4621603548
 20
31.4424059016
 11
361.8840352445
 21
31.4101420472
 12
361.4793477997
 22
31.4424059016
 13
361.4793477997
 23
31.4424059016
  0
SOLID
  8
0
 62
7
  6
CONTINUOUS
 10
361.3637227445
 20
31.3778788115
 11
361.4793477997
 21
31.4424059016
 12
361.8840352445
 22
31.4101420472
 13
361.8840352445
 23
31.4101420472
  0
SOLID
  8
0
 62
7
  6
CONTINUOUS
 10
361.8840352445
 20
31.4101420472
 11
361.6527851343
 21
31.3778788115
 12
361.3637227445
 22
31.3778788115
 13
361.3637227445
 23
31.3778788115
  0
SOLID
  8
0
 62
7
  6
CONTINUOUS
 10
361.8840352445
 20
31.4101420472
 11
362.4621603548
 21
31.4424059016
 12
362.1152853548
 22
31.3778788115
 13
362.1152853548
 23
31.3778788115
  0
SOLID
  8
0
 62
7
  6
CONTINUOUS
 10
362.4621603548
 20
31.4424059016
 11
362.5777852445
 21
31.3778788115
 12
362.1152853548
 22
31.3778788115
 13
362.1152853548
 23
31.3778788115
  0
SOLID
  8
0
 62
7
  6
CONTINUOUS
 10
362.2309102445
 20
31.345614957
 11
362.1152853548
 21
31.3778788115
 12
362.5777852445
 22
31.3778788115
 13
362.5777852445
 23
31.3778788115
  0
SOLID
  8
0
 62
7
  6
CONTINUOUS
 10
362.5777852445
 20
31.3778788115
 11
362.6355978548
 21
31.3133517213
 12
362.2309102445
 22
31.345614957
 13
362.2309102445
 23
31.345614957
  0
SOLID
  8
0
 62
7
  6
CONTINUOUS
 10
362.3465351343
 20
31.2810878668
 11
362.2309102445
 21
31.345614957
 12
362.6355978548
 22
31.3133517213
 13
362.6355978548
 23
31.3133517213
  0
SOLID
  8
0
 62
7
  6
CONTINUOUS
 10
362.3465351343
 20
31.2810878668
 11
362.6355978548
 21
31.3133517213
 12
362.4043477445
 22
31.1520332377
 13
362.4043477445
 23
31.1520332377
  0
SOLID
  8
0
 62
7
  6
CONTINUOUS
 10
362.6355978548
 20
31.3133517213
 11
362.6934101343
 21
31.1520332377
 12
362.4043477445
 22
31.1520332377
 13
362.4043477445
 23
31.1520332377
  0
SOLID
  8
0
 62
7
  6
CONTINUOUS
 10
361.6527851343
 20
31.3778788115
 11
361.4793477997
 21
31.3133517213
 12
361.3637227445
 22
31.3778788115
 13
361.3637227445
 23
31.3778788115
  0
SOLID
  8
0
 62
7
  6
CONTINUOUS
 10
361.4793477997
 20
31.3133517213
 11
361.3637227445
 21
31.2488235635
 12
361.3637227445
 22
31.3778788115
 13
361.3637227445
 23
31.3778788115
  0
SOLID
  8
0
 62
7
  6
CONTINUOUS
 10
361.3637227445
 20
31.2488235635
 11
361.0746601894
 21
30.5067593033
 12
361.3637227445
 22
31.3778788115
 13
361.3637227445
 23
31.3778788115
  0
SOLID
  8
0
 62
7
  6
CONTINUOUS
 10
361.3637227445
 20
31.3778788115
 11
361.0746601894
 21
30.5067593033
 12
361.3637227445
 22
32.0231527459
 13
361.3637227445
 23
32.0231527459
  0
SOLID
  8
0
 62
7
  6
CONTINUOUS
 10
361.0746601894
 20
30.5067593033
 11
361.0746601894
 21
32.0231527459
 12
361.3637227445
 22
32.0231527459
 13
361.3637227445
 23
32.0231527459
  0
SOLID
  8
0
 62
7
  6
CONTINUOUS
 10
361.3637227445
 20
31.2488235635
 11
361.3637227445
 21
30.5067593033
 12
361.0746601894
 22
30.5067593033
 13
361.0746601894
 23
30.5067593033
  0
SOLID
  8
0
 62
7
  6
CONTINUOUS
 10
362.4043477445
 20
30.5067593033
 11
362.4043477445
 21
31.1520332377
 12
362.6934101343
 22
31.1520332377
 13
362.6934101343
 23
31.1520332377
  0
SOLID
  8
0
 62
7
  6
CONTINUOUS
 10
362.6934101343
 20
31.1520332377
 11
362.6934101343
 21
30.5067593033
 12
362.4043477445
 22
30.5067593033
 13
362.4043477445
 23
30.5067593033
  0
SOLID
  8
0
 62
7
  6
CONTINUOUS
 10
363.4449727445
 20
31.506933758
 11
363.8496603548
 21
31.5391977507
 12
364.1965353548
 22
31.5391977507
 13
364.1965353548
 23
31.5391977507
  0
SOLID
  8
0
 62
7
  6
CONTINUOUS
 10
364.1965353548
 20
31.5391977507
 11
364.543410024
 21
31.506933758
 12
363.4449727445
 22
31.506933758
 13
363.4449727445
 23
31.506933758
  0
SOLID
  8
0
 62
7
  6
CONTINUOUS
 10
363.3293478548
 20
31.4746706537
 11
363.4449727445
 21
31.506933758
 12
364.543410024
 22
31.506933758
 13
364.543410024
 23
31.506933758
  0
SOLID
  8
0
 62
7
  6
CONTINUOUS
 10
364.543410024
 20
31.506933758
 11
364.716847524
 21
31.4424063504
 12
363.3293478548
 22
31.4746706537
 13
363.3293478548
 23
31.4746706537
  0
SOLID
  8
0
 62
7
  6
CONTINUOUS
 10
363.2137226343
 20
31.4101417797
 11
363.3293478548
 21
31.4746706537
 12
364.716847524
 22
31.4424063504
 13
364.716847524
 23
31.4424063504
  0
SOLID
  8
0
 62
7
  6
CONTINUOUS
 10
363.2137226343
 20
31.4101417797
 11
364.716847524
 21
31.4424063504
 12
363.8496603548
 22
31.4101417797
 13
363.8496603548
 23
31.4101417797
  0
SOLID
  8
0
 62
7
  6
CONTINUOUS
 10
363.8496603548
 20
31.4101417797
 11
364.716847524
 21
31.4424063504
 12
364.1965353548
 22
31.4101417797
 13
364.1965353548
 23
31.4101417797
  0
SOLID
  8
0
 62
7
  6
CONTINUOUS
 10
364.1965353548
 20
31.4101417797
 11
364.716847524
 21
31.4424063504
 12
364.4277854651
 22
31.3778793357
 13
364.4277854651
 23
31.3778793357
  0
SOLID
  8
0
 62
7
  6
CONTINUOUS
 10
364.716847524
 20
31.4424063504
 11
364.8324727445
 21
31.3778793357
 12
364.4277854651
 22
31.3778793357
 13
364.4277854651
 23
31.3778793357
  0
SOLID
  8
0
 62
7
  6
CONTINUOUS
 10
363.1559103548
 20
31.3456153429
 11
363.2137226343
 21
31.4101417797
 12
363.8496603548
 22
31.4101417797
 13
363.8496603548
 23
31.4101417797
  0
SOLID
  8
0
 62
7
  6
CONTINUOUS
 10
364.543410024
 20
31.3456153429
 11
364.4277854651
 21
31.3778793357
 12
364.8324727445
 22
31.3778793357
 13
364.8324727445
 23
31.3778793357
  0
SOLID
  8
0
 62
7
  6
CONTINUOUS
 10
364.543410024
 20
31.3456153429
 11
364.8324727445
 21
31.3778793357
 12
364.6012229651
 22
31.2810881318
 13
364.6012229651
 23
31.2810881318
  0
SOLID
  8
0
 62
7
  6
CONTINUOUS
 10
364.8324727445
 20
31.3778793357
 11
364.890285024
 21
31.2810881318
 12
364.6012229651
 22
31.2810881318
 13
364.6012229651
 23
31.2810881318
  0
SOLID
  8
0
 62
7
  6
CONTINUOUS
 10
364.6012229651
 20
31.1842964734
 11
364.6012229651
 21
31.2810881318
 12
364.890285024
 22
31.2810881318
 13
364.890285024
 23
31.2810881318
  0
SOLID
  8
0
 62
7
  6
CONTINUOUS
 10
364.6012229651
 20
31.1842964734
 11
364.890285024
 21
31.2810881318
 12
364.6012229651
 22
31.0552422931
 13
364.6012229651
 23
31.0552422931
  0
SOLID
  8
0
 62
7
  6
CONTINUOUS
 10
364.6012229651
 20
31.0552422931
 11
364.890285024
 21
31.2810881318
 12
364.6012229651
 22
30.8616599362
 13
364.6012229651
 23
30.8616599362
  0
SOLID
  8
0
 62
7
  6
CONTINUOUS
 10
364.890285024
 20
31.2810881318
 11
364.890285024
 21
30.7648681127
 12
364.6012229651
 22
30.8616599362
 13
364.6012229651
 23
30.8616599362
  0
SOLID
  8
0
 62
7
  6
CONTINUOUS
 10
366.798097524
 20
31.5069339419
 11
367.0293479651
 21
31.5391976292
 12
367.2605977445
 22
31.5391976292
 13
367.2605977445
 23
31.5391976292
  0
SOLID
  8
0
 62
7
  6
CONTINUOUS
 10
367.2605977445
 20
31.5391976292
 11
367.4340352445
 21
31.5069339419
 12
366.798097524
 22
31.5069339419
 13
366.798097524
 23
31.5069339419
  0
SOLID
  8
0
 62
7
  6
CONTINUOUS
 10
366.624660024
 20
31.4424065674
 11
366.798097524
 21
31.5069339419
 12
367.4340352445
 22
31.5069339419
 13
367.4340352445
 23
31.5069339419
  0
SOLID
  8
0
 62
7
  6
CONTINUOUS
 10
367.4340352445
 20
31.5069339419
 11
367.6074727445
 21
31.4424065674
 12
366.624660024
 22
31.4424065674
 13
366.624660024
 23
31.4424065674
  0
SOLID
  8
0
 62
7
  6
CONTINUOUS
 10
367.6074727445
 20
31.4424065674
 11
367.0293479651
 21
31.4101420472
 12
366.624660024
 22
31.4424065674
 13
366.624660024
 23
31.4424065674
  0
SOLID
  8
0
 62
7
  6
CONTINUOUS
 10
366.5090354651
 20
31.377879193
 11
366.624660024
 21
31.4424065674
 12
367.0293479651
 22
31.4101420472
 13
367.0293479651
 23
31.4101420472
  0
SOLID
  8
0
 62
7
  6
CONTINUOUS
 10
367.0293479651
 20
31.4101420472
 11
366.798097524
 21
31.377879193
 12
366.5090354651
 22
31.377879193
 13
366.5090354651
 23
31.377879193
  0
SOLID
  8
0
 62
7
  6
CONTINUOUS
 10
367.0293479651
 20
31.4101420472
 11
367.6074727445
 21
31.4424065674
 12
367.2605977445
 22
31.377879193
 13
367.2605977445
 23
31.377879193
  0
SOLID
  8
0
 62
7
  6
CONTINUOUS
 10
367.6074727445
 20
31.4424065674
 11
367.7230979651
 21
31.377879193
 12
367.2605977445
 22
31.377879193
 13
367.2605977445
 23
31.377879193
  0
SOLID
  8
0
 62
7
  6
CONTINUOUS
 10
367.3762229651
 20
31.345614957
 11
367.2605977445
 21
31.377879193
 12
367.7230979651
 22
31.377879193
 13
367.7230979651
 23
31.377879193
  0
SOLID
  8
0
 62
7
  6
CONTINUOUS
 10
367.3762229651
 20
31.345614957
 11
367.7230979651
 21
31.377879193
 12
367.491847524
 22
31.2810881312
 13
367.491847524
 23
31.2810881312
  0
SOLID
  8
0
 62
7
  6
CONTINUOUS
 10
367.7230979651
 20
31.377879193
 11
367.7809102445
 21
31.2810881312
 12
367.491847524
 22
31.2810881312
 13
367.491847524
 23
31.2810881312
  0
SOLID
  8
0
 62
7
  6
CONTINUOUS
 10
367.5496604651
 20
31.119769695
 11
367.491847524
 21
31.2810881312
 12
367.7809102445
 22
31.2810881312
 13
367.7809102445
 23
31.2810881312
  0
SOLID
  8
0
 62
7
  6
CONTINUOUS
 10
367.7809102445
 20
31.2810881312
 11
367.838722524
 21
31.119769695
 12
367.5496604651
 22
31.119769695
 13
367.5496604651
 23
31.119769695
  0
SOLID
  8
0
 62
7
  6
CONTINUOUS
 10
366.798097524
 20
31.377879193
 11
366.624660024
 21
31.3133521701
 12
366.5090354651
 22
31.377879193
 13
366.5090354651
 23
31.377879193
  0
SOLID
  8
0
 62
7
  6
CONTINUOUS
 10
366.624660024
 20
31.3133521701
 11
366.5090354651
 21
31.2488235635
 12
366.5090354651
 22
31.377879193
 13
366.5090354651
 23
31.377879193
  0
SOLID
  8
0
 62
7
  6
CONTINUOUS
 10
366.5090354651
 20
31.2488235635
 11
366.2199727445
 21
30.5067596374
 12
366.5090354651
 22
31.377879193
 13
366.5090354651
 23
31.377879193
  0
SOLID
  8
0
 62
7
  6
CONTINUOUS
 10
366.5090354651
 20
31.377879193
 11
366.2199727445
 21
30.5067596374
 12
366.5090354651
 22
31.5391976292
 13
366.5090354651
 23
31.5391976292
  0
SOLID
  8
0
 62
7
  6
CONTINUOUS
 10
366.2199727445
 20
30.5067596374
 11
366.2199727445
 21
31.5391976292
 12
366.5090354651
 22
31.5391976292
 13
366.5090354651
 23
31.5391976292
  0
SOLID
  8
0
 62
7
  6
CONTINUOUS
 10
366.5090354651
 20
31.2488235635
 11
366.5090354651
 21
30.5067596374
 12
366.2199727445
 22
30.5067596374
 13
366.2199727445
 23
30.5067596374
  0
SOLID
  8
0
 62
7
  6
CONTINUOUS
 10
367.5496604651
 20
30.5067596374
 11
367.5496604651
 21
31.119769695
 12
367.838722524
 22
31.119769695
 13
367.838722524
 23
31.119769695
  0
SOLID
  8
0
 62
7
  6
CONTINUOUS
 10
367.838722524
 20
31.119769695
 11
367.838722524
 21
30.5067596374
 12
367.5496604651
 22
30.5067596374
 13
367.5496604651
 23
30.5067596374
  0
SOLID
  8
0
 62
7
  6
CONTINUOUS
 10
368.6480977445
 20
31.5069334157
 11
368.9949727445
 21
31.539197762
 12
369.3418477445
 22
31.539197762
 13
369.3418477445
 23
31.539197762
  0
SOLID
  8
0
 62
7
  6
CONTINUOUS
 10
369.3418477445
 20
31.539197762
 11
369.6887227445
 21
31.5069334157
 12
368.6480977445
 22
31.5069334157
 13
368.6480977445
 23
31.5069334157
  0
SOLID
  8
0
 62
7
  6
CONTINUOUS
 10
368.4168479651
 20
31.4424063504
 11
368.6480977445
 21
31.5069334157
 12
369.6887227445
 22
31.5069334157
 13
369.6887227445
 23
31.5069334157
  0
SOLID
  8
0
 62
7
  6
CONTINUOUS
 10
368.4168479651
 20
31.4424063504
 11
369.6887227445
 21
31.5069334406
 12
369.8621602445
 22
31.4746706537
 13
369.8621602445
 23
31.4746706537
  0
SOLID
  8
0
 62
7
  6
CONTINUOUS
 10
368.4168479651
 20
31.4424063504
 11
369.8621602445
 21
31.4746706537
 12
368.9949727445
 22
31.4101421267
 13
368.9949727445
 23
31.4101421267
  0
SOLID
  8
0
 62
7
  6
CONTINUOUS
 10
368.9949727445
 20
31.4101421267
 11
369.8621602445
 21
31.4746706537
 12
369.3418477445
 22
31.4101421267
 13
369.3418477445
 23
31.4101421267
  0
SOLID
  8
0
 62
7
  6
CONTINUOUS
 10
369.8621602445
 20
31.4746706537
 11
370.0355977445
 21
31.4101421267
 12
369.3418477445
 22
31.4101421267
 13
369.3418477445
 23
31.4101421267
  0
SOLID
  8
0
 62
7
  6
CONTINUOUS
 10
369.6887227445
 20
31.3778792603
 11
369.3418477445
 21
31.4101421267
 12
370.0355977445
 22
31.4101421267
 13
370.0355977445
 23
31.4101421267
  0
SOLID
  8
0
 62
7
  6
CONTINUOUS
 10
368.3012227445
 20
31.3456148845
 11
368.4168479651
 21
31.4424063504
 12
368.9949727445
 22
31.4101421267
 13
368.9949727445
 23
31.4101421267
  0
SOLID
  8
0
 62
7
  6
CONTINUOUS
 10
369.6887227445
 20
31.3778792603
 11
370.0355977445
 21
31.4101421267
 12
369.8043479651
 22
31.3456148845
 13
369.8043479651
 23
31.3456148845
  0
SOLID
  8
0
 62
7
  6
CONTINUOUS
 10
369.8043479651
 20
31.3456148845
 11
370.0355977445
 21
31.4101421267
 12
369.8621602445
 22
31.281087868
 13
369.8621602445
 23
31.281087868
  0
SOLID
  8
0
 62
7
  6
CONTINUOUS
 10
370.0355977445
 20
31.4101421267
 11
370.1512223035
 21
31.281087868
 12
369.8621602445
 22
31.281087868
 13
369.8621602445
 23
31.281087868
  0
SOLID
  8
0
 62
7
  6
CONTINUOUS
 10
359.4559102445
 20
31.3778792603
 11
358.9355977445
 21
31.3456148963
 12
359.6871602721
 22
31.4101421155
 13
359.6871602721
 23
31.4101421155
  0
SOLID
  8
0
 62
7
  6
CONTINUOUS
 10
358.9355977445
 20
31.3456148963
 11
359.0512227376
 21
31.4101421155
 12
359.6871602721
 22
31.4101421155
 13
359.6871602721
 23
31.4101421155
  0
SOLID
  8
0
 62
7
  6
CONTINUOUS
 10
359.4559102445
 20
31.3778792603
 11
359.3402852307
 21
31.3456148963
 12
358.9355977445
 22
31.3456148963
 13
358.9355977445
 23
31.3456148963
  0
SOLID
  8
0
 62
7
  6
CONTINUOUS
 10
358.8199727462
 20
31.2165607767
 11
358.9355977445
 21
31.3456148963
 12
359.3402852307
 22
31.3456148963
 13
359.3402852307
 23
31.3456148963
  0
SOLID
  8
0
 62
7
  6
CONTINUOUS
 10
363.1559103548
 20
31.3456149608
 11
363.8496603548
 21
31.4101420472
 12
363.6184102445
 22
31.3778792603
 13
363.6184102445
 23
31.3778792603
  0
SOLID
  8
0
 62
7
  6
CONTINUOUS
 10
363.6184102445
 20
31.3778792603
 11
363.5027853548
 21
31.3456149608
 12
363.1559103548
 22
31.3456149608
 13
363.1559103548
 23
31.3456149608
  0
SOLID
  8
0
 62
7
  6
CONTINUOUS
 10
363.1559103548
 20
31.2810878707
 11
363.1559103548
 21
31.3456149608
 12
363.5027853548
 22
31.3456149608
 13
363.5027853548
 23
31.3456149608
  0
SOLID
  8
0
 62
7
  6
CONTINUOUS
 10
363.5027853548
 20
31.3456149608
 11
363.4449727445
 21
31.2810878707
 12
363.1559103548
 22
31.2810878707
 13
363.1559103548
 23
31.2810878707
  0
SOLID
  8
0
 62
7
  6
CONTINUOUS
 10
368.3012227445
 20
31.3456149608
 11
368.9949727445
 21
31.4101420472
 12
368.7637229651
 22
31.3778792603
 13
368.7637229651
 23
31.3778792603
  0
SOLID
  8
0
 62
7
  6
CONTINUOUS
 10
368.7637229651
 20
31.3778792603
 11
368.6480977445
 21
31.3456149608
 12
368.3012227445
 22
31.3456149608
 13
368.3012227445
 23
31.3456149608
  0
SOLID
  8
0
 62
7
  6
CONTINUOUS
 10
368.3012227445
 20
31.2810878707
 11
368.3012227445
 21
31.3456149608
 12
368.6480977445
 22
31.3456149608
 13
368.6480977445
 23
31.3456149608
  0
SOLID
  8
0
 62
7
  6
CONTINUOUS
 10
368.6480977445
 20
31.3456149608
 11
368.5902854651
 21
31.2810878707
 12
368.3012227445
 22
31.2810878707
 13
368.3012227445
 23
31.2810878707
  0
SOLID
  8
0
 62
7
  6
CONTINUOUS
 10
368.4168479651
 20
31.1520336865
 11
368.3012227445
 21
31.2810878707
 12
368.5902854651
 22
31.2810878707
 13
368.5902854651
 23
31.2810878707
  0
SOLID
  8
0
 62
7
  6
CONTINUOUS
 10
358.8199727462
 20
31.2165607767
 11
359.3402852307
 21
31.345614957
 12
359.1668477307
 22
31.2488235635
 13
359.1668477307
 23
31.2488235635
  0
SOLID
  8
0
 62
7
  6
CONTINUOUS
 10
359.1668477307
 20
31.2488235635
 11
359.1090352445
 21
31.1842964734
 12
358.8199727462
 22
31.2165607767
 13
358.8199727462
 23
31.2165607767
  0
SOLID
  8
0
 62
7
  6
CONTINUOUS
 10
358.7621602445
 20
31.0229779898
 11
358.8199727462
 21
31.2165607767
 12
359.1090352445
 22
31.1842964734
 13
359.1090352445
 23
31.1842964734
  0
SOLID
  8
0
 62
7
  6
CONTINUOUS
 10
363.6184102445
 20
31.1520336865
 11
363.9652852445
 21
31.1842964611
 12
364.6012229651
 22
31.1842964611
 13
364.6012229651
 23
31.1842964611
  0
SOLID
  8
0
 62
7
  6
CONTINUOUS
 10
363.6184102445
 20
31.1520336865
 11
364.6012229651
 21
31.1842964611
 12
363.3871601343
 22
31.0875057863
 13
363.3871601343
 23
31.0875057863
  0
SOLID
  8
0
 62
7
  6
CONTINUOUS
 10
363.3871601343
 20
31.0875057863
 11
364.6012229651
 21
31.1842964611
 12
363.9652852445
 22
31.0552422808
 13
363.9652852445
 23
31.0552422808
  0
SOLID
  8
0
 62
7
  6
CONTINUOUS
 10
364.6012229651
 20
31.1842964611
 11
364.6012229651
 21
31.0552422808
 12
363.9652852445
 22
31.0552422808
 13
363.9652852445
 23
31.0552422808
  0
SOLID
  8
0
 62
7
  6
CONTINUOUS
 10
368.4168479651
 20
31.1520338754
 11
368.5902854651
 21
31.2810878668
 12
368.6480977445
 22
31.2165607767
 13
368.6480977445
 23
31.2165607767
  0
SOLID
  8
0
 62
7
  6
CONTINUOUS
 10
368.6480977445
 20
31.2165607767
 11
368.8215352445
 21
31.1520338754
 12
368.4168479651
 22
31.1520338754
 13
368.4168479651
 23
31.1520338754
  0
SOLID
  8
0
 62
7
  6
CONTINUOUS
 10
368.6480977445
 20
31.0552422931
 11
368.4168479651
 21
31.1520338754
 12
368.8215352445
 22
31.1520338754
 13
368.8215352445
 23
31.1520338754
  0
SOLID
  8
0
 62
7
  6
CONTINUOUS
 10
368.8215352445
 20
31.1520338754
 11
369.8043479651
 21
30.9907152029
 12
368.6480977445
 22
31.0552422931
 13
368.6480977445
 23
31.0552422931
  0
SOLID
  8
0
 62
7
  6
CONTINUOUS
 10
369.6309104651
 20
30.8939239876
 11
368.6480977445
 21
31.0552422931
 12
369.8043479651
 22
30.9907152029
 13
369.8043479651
 23
30.9907152029
  0
SOLID
  8
0
 62
7
  6
CONTINUOUS
 10
369.8043479651
 20
30.9907152029
 11
370.0355977445
 21
30.8939239876
 12
369.6309104651
 22
30.8939239876
 13
369.6309104651
 23
30.8939239876
  0
SOLID
  8
0
 62
7
  6
CONTINUOUS
 10
369.8043479651
 20
30.8293967193
 11
369.6309104651
 21
30.8939239876
 12
370.0355977445
 22
30.8939239876
 13
370.0355977445
 23
30.8939239876
  0
SOLID
  8
0
 62
7
  6
CONTINUOUS
 10
369.8043479651
 20
30.8293967193
 11
370.0355977445
 21
30.8939239876
 12
369.8621602445
 22
30.7648682694
 13
369.8621602445
 23
30.7648682694
  0
SOLID
  8
0
 62
7
  6
CONTINUOUS
 10
370.0355977445
 20
30.8939239876
 11
370.1512223035
 21
30.7648682694
 12
369.8621602445
 22
30.7648682694
 13
369.8621602445
 23
30.7648682694
  0
SOLID
  8
0
 62
7
  6
CONTINUOUS
 10
369.8043479651
 20
30.7003411846
 11
369.8621602445
 21
30.7648682694
 12
370.1512223035
 22
30.7648682694
 13
370.1512223035
 23
30.7648682694
  0
SOLID
  8
0
 62
7
  6
CONTINUOUS
 10
370.1512223035
 20
30.7648682694
 11
370.1512223035
 21
30.7003411846
 12
369.8043479651
 22
30.7003411846
 13
369.8043479651
 23
30.7003411846
  0
SOLID
  8
0
 62
7
  6
CONTINUOUS
 10
369.6887227445
 20
30.6680782357
 11
369.8043479651
 21
30.7003411846
 12
370.1512223035
 22
30.7003411846
 13
370.1512223035
 23
30.7003411846
  0
SOLID
  8
0
 62
7
  6
CONTINUOUS
 10
369.6887227445
 20
30.6680782357
 11
370.1512223035
 21
30.7003411846
 12
369.4574729651
 22
30.6358140998
 13
369.4574729651
 23
30.6358140998
  0
SOLID
  8
0
 62
7
  6
CONTINUOUS
 10
370.1512223035
 20
30.7003411846
 11
370.0355977445
 21
30.6035511455
 12
369.4574729651
 22
30.6358140998
 13
369.4574729651
 23
30.6358140998
  0
SOLID
  8
0
 62
7
  6
CONTINUOUS
 10
370.0355977445
 20
30.6035511455
 11
368.5902854651
 21
30.5712868422
 12
369.4574729651
 22
30.6358140998
 13
369.4574729651
 23
30.6358140998
  0
SOLID
  8
0
 62
7
  6
CONTINUOUS
 10
369.4574729651
 20
30.6358140998
 11
368.5902854651
 21
30.5712868422
 12
369.1105979651
 22
30.6358140998
 13
369.1105979651
 23
30.6358140998
  0
SOLID
  8
0
 62
7
  6
CONTINUOUS
 10
368.5902854651
 20
30.5712868422
 11
368.4168479651
 21
30.6358140998
 12
369.1105979651
 22
30.6358140998
 13
369.1105979651
 23
30.6358140998
  0
SOLID
  8
0
 62
7
  6
CONTINUOUS
 10
368.5902854651
 20
30.5712868422
 11
370.0355977445
 21
30.6035511455
 12
368.7637229651
 22
30.5390223111
 13
368.7637229651
 23
30.5390223111
  0
SOLID
  8
0
 62
7
  6
CONTINUOUS
 10
370.0355977445
 20
30.6035511455
 11
369.8043479651
 21
30.5390223111
 12
368.7637229651
 22
30.5390223111
 13
368.7637229651
 23
30.5390223111
  0
SOLID
  8
0
 62
7
  6
CONTINUOUS
 10
369.1105979651
 20
30.5067599302
 11
368.7637229651
 21
30.5390223111
 12
369.8043479651
 22
30.5390223111
 13
369.8043479651
 23
30.5390223111
  0
SOLID
  8
0
 62
7
  6
CONTINUOUS
 10
369.8043479651
 20
30.5390223111
 11
369.4574729651
 21
30.5067599302
 12
369.1105979651
 22
30.5067599302
 13
369.1105979651
 23
30.5067599302
  0
SOLID
  8
0
 62
7
  6
CONTINUOUS
 10
358.7621602445
 20
31.0229779898
 11
359.1090352445
 21
31.1842964734
 12
359.0512227376
 22
31.0552422931
 13
359.0512227376
 23
31.0552422931
  0
SOLID
  8
0
 62
7
  6
CONTINUOUS
 10
359.0512227376
 20
31.0552422931
 11
359.0512227376
 21
30.9584509954
 12
358.7621602445
 22
31.0229779898
 13
358.7621602445
 23
31.0229779898
  0
SOLID
  8
0
 62
7
  6
CONTINUOUS
 10
358.8199727462
 20
30.8293967193
 11
358.7621602445
 21
31.0229779898
 12
359.0512227376
 22
30.9584509954
 13
359.0512227376
 23
30.9584509954
  0
SOLID
  8
0
 62
7
  6
CONTINUOUS
 10
359.0512227376
 20
30.9584509954
 11
359.1668477307
 21
30.797132416
 12
358.8199727462
 22
30.8293967193
 13
358.8199727462
 23
30.8293967193
  0
SOLID
  8
0
 62
7
  6
CONTINUOUS
 10
358.9355977445
 20
30.7003413087
 11
358.8199727462
 21
30.8293967193
 12
359.1668477307
 22
30.797132416
 13
359.1668477307
 23
30.797132416
  0
SOLID
  8
0
 62
7
  6
CONTINUOUS
 10
359.1668477307
 20
30.797132416
 11
359.3402852307
 21
30.7003413087
 12
358.9355977445
 22
30.7003413087
 13
358.9355977445
 23
30.7003413087
  0
SOLID
  8
0
 62
7
  6
CONTINUOUS
 10
359.0512227376
 20
30.6358140759
 11
358.9355977445
 21
30.7003413087
 12
359.3402852307
 22
30.7003413087
 13
359.3402852307
 23
30.7003413087
  0
SOLID
  8
0
 62
7
  6
CONTINUOUS
 10
359.3402852307
 20
30.7003413087
 11
359.6871602721
 21
30.6358140759
 12
359.0512227376
 22
30.6358140759
 13
359.0512227376
 23
30.6358140759
  0
SOLID
  8
0
 62
7
  6
CONTINUOUS
 10
359.2246602583
 20
30.5712868422
 11
359.0512227376
 21
30.6358140759
 12
359.6871602721
 22
30.6358140759
 13
359.6871602721
 23
30.6358140759
  0
SOLID
  8
0
 62
7
  6
CONTINUOUS
 10
363.2715352445
 20
31.0229779808
 11
363.3871601343
 21
31.0875057863
 12
363.9652852445
 22
31.0552422931
 13
363.9652852445
 23
31.0552422931
  0
SOLID
  8
0
 62
7
  6
CONTINUOUS
 10
363.9652852445
 20
31.0552422931
 11
363.7340351343
 21
31.0229779808
 12
363.2715352445
 22
31.0229779808
 13
363.2715352445
 23
31.0229779808
  0
SOLID
  8
0
 62
7
  6
CONTINUOUS
 10
363.1559103548
 20
30.8939238094
 11
363.2715352445
 21
31.0229779808
 12
363.7340351343
 22
31.0229779808
 13
363.7340351343
 23
31.0229779808
  0
SOLID
  8
0
 62
7
  6
CONTINUOUS
 10
363.5027853548
 20
30.926187309
 11
363.1559103548
 21
30.8939238094
 12
363.6184102445
 22
30.9907152029
 13
363.6184102445
 23
30.9907152029
  0
SOLID
  8
0
 62
7
  6
CONTINUOUS
 10
363.1559103548
 20
30.8939238094
 11
363.7340351343
 21
31.0229779898
 12
363.6184102445
 22
30.9907152029
 13
363.6184102445
 23
30.9907152029
  0
SOLID
  8
0
 62
7
  6
CONTINUOUS
 10
363.5027853548
 20
30.926187309
 11
363.4449727445
 21
30.8293967193
 12
363.1559103548
 22
30.8939238094
 13
363.1559103548
 23
30.8939238094
  0
SOLID
  8
0
 62
7
  6
CONTINUOUS
 10
363.1559103548
 20
30.797132416
 11
363.1559103548
 21
30.8939238094
 12
363.4449727445
 22
30.8293967193
 13
363.4449727445
 23
30.8293967193
  0
SOLID
  8
0
 62
7
  6
CONTINUOUS
 10
363.4449727445
 20
30.8293967193
 11
363.4449727445
 21
30.7648681127
 12
363.1559103548
 22
30.797132416
 13
363.1559103548
 23
30.797132416
  0
SOLID
  8
0
 62
7
  6
CONTINUOUS
 10
363.2137226343
 20
30.6680782357
 11
363.1559103548
 21
30.797132416
 12
363.4449727445
 22
30.7648681127
 13
363.4449727445
 23
30.7648681127
  0
SOLID
  8
0
 62
7
  6
CONTINUOUS
 10
364.6012229651
 20
30.8616599362
 11
364.890285024
 21
30.7648681127
 12
364.543410024
 22
30.797132416
 13
364.543410024
 23
30.797132416
  0
SOLID
  8
0
 62
7
  6
CONTINUOUS
 10
364.369972524
 20
30.7003410226
 11
364.543410024
 21
30.797132416
 12
364.890285024
 22
30.7648681127
 13
364.890285024
 23
30.7648681127
  0
SOLID
  8
0
 62
7
  6
CONTINUOUS
 10
364.369972524
 20
30.7003410226
 11
364.890285024
 21
30.7648681127
 12
364.6012229651
 22
30.6680782357
 13
364.6012229651
 23
30.6680782357
  0
SOLID
  8
0
 62
7
  6
CONTINUOUS
 10
364.890285024
 20
30.7648681127
 11
364.9480979651
 21
30.6035511455
 12
364.6012229651
 22
30.6680782357
 13
364.6012229651
 23
30.6680782357
  0
SOLID
  8
0
 62
7
  6
CONTINUOUS
 10
364.6590352445
 20
30.5712868422
 11
364.6012229651
 21
30.6680782357
 12
364.9480979651
 22
30.6035511455
 13
364.9480979651
 23
30.6035511455
  0
SOLID
  8
0
 62
7
  6
CONTINUOUS
 10
364.6590352445
 20
30.5712868422
 11
364.9480979651
 21
30.6035511455
 12
364.716847524
 22
30.5067598731
 13
364.716847524
 23
30.5067598731
  0
SOLID
  8
0
 62
7
  6
CONTINUOUS
 10
364.9480979651
 20
30.6035511455
 11
365.0059102445
 21
30.5067598731
 12
364.716847524
 22
30.5067598731
 13
364.716847524
 23
30.5067598731
  0
SOLID
  8
0
 62
7
  6
CONTINUOUS
 10
360.2652852997
 20
30.7326051679
 11
360.3230977445
 21
30.8293966612
 12
360.6121602997
 22
30.8293966612
 13
360.6121602997
 23
30.8293966612
  0
SOLID
  8
0
 62
7
  6
CONTINUOUS
 10
360.6121602997
 20
30.8293966612
 11
360.5543476894
 21
30.7003410226
 12
360.2652852997
 22
30.7326051679
 13
360.2652852997
 23
30.7326051679
  0
SOLID
  8
0
 62
7
  6
CONTINUOUS
 10
360.091847717
 20
30.6680782357
 11
360.2652852997
 21
30.7326051679
 12
360.5543476894
 22
30.7003410226
 13
360.5543476894
 23
30.7003410226
  0
SOLID
  8
0
 62
7
  6
CONTINUOUS
 10
360.091847717
 20
30.6680782357
 11
360.5543476894
 21
30.7003410226
 12
359.6871602721
 22
30.6358139324
 13
359.6871602721
 23
30.6358139324
  0
SOLID
  8
0
 62
7
  6
CONTINUOUS
 10
360.5543476894
 20
30.7003410226
 11
360.3809101894
 21
30.6035511455
 12
359.6871602721
 22
30.6358139324
 13
359.6871602721
 23
30.6358139324
  0
SOLID
  8
0
 62
7
  6
CONTINUOUS
 10
359.2246602583
 20
30.5712868422
 11
359.6871602721
 21
30.6358139324
 12
360.3809101894
 22
30.6035511455
 13
360.3809101894
 23
30.6035511455
  0
SOLID
  8
0
 62
7
  6
CONTINUOUS
 10
359.2246602583
 20
30.5712868422
 11
360.3809101894
 21
30.6035511455
 12
359.3980977583
 22
30.5390224228
 13
359.3980977583
 23
30.5390224228
  0
SOLID
  8
0
 62
7
  6
CONTINUOUS
 10
360.3809101894
 20
30.6035511455
 11
360.1496602445
 21
30.5390224228
 12
359.3980977583
 22
30.5390224228
 13
359.3980977583
 23
30.5390224228
  0
SOLID
  8
0
 62
7
  6
CONTINUOUS
 10
359.744972717
 20
30.5067597521
 11
359.3980977583
 21
30.5390224228
 12
360.1496602445
 22
30.5390224228
 13
360.1496602445
 23
30.5390224228
  0
SOLID
  8
0
 62
7
  6
CONTINUOUS
 10
363.2137226343
 20
30.6680782357
 11
363.4449727445
 21
30.7648681127
 12
363.5027853548
 22
30.7003410226
 13
363.5027853548
 23
30.7003410226
  0
SOLID
  8
0
 62
7
  6
CONTINUOUS
 10
363.5027853548
 20
30.7003410226
 11
363.7340351343
 21
30.6358139324
 12
363.2137226343
 22
30.6680782357
 13
363.2137226343
 23
30.6680782357
  0
SOLID
  8
0
 62
7
  6
CONTINUOUS
 10
363.3871601343
 20
30.5712868422
 11
363.2137226343
 21
30.6680782357
 12
363.7340351343
 22
30.6358139324
 13
363.7340351343
 23
30.6358139324
  0
SOLID
  8
0
 62
7
  6
CONTINUOUS
 10
364.0809101343
 20
30.6358139363
 11
364.369972524
 21
30.7003410226
 12
364.6012229651
 22
30.6680782357
 13
364.6012229651
 23
30.6680782357
  0
SOLID
  8
0
 62
7
  6
CONTINUOUS
 10
364.6012229651
 20
30.6680782357
 11
364.543410024
 21
30.6035511455
 12
364.0809101343
 22
30.6358139363
 13
364.0809101343
 23
30.6358139363
  0
SOLID
  8
0
 62
7
  6
CONTINUOUS
 10
364.543410024
 20
30.6035511455
 11
363.3871601343
 21
30.5712868422
 12
364.0809101343
 22
30.6358139363
 13
364.0809101343
 23
30.6358139363
  0
SOLID
  8
0
 62
7
  6
CONTINUOUS
 10
363.3871601343
 20
30.5712868422
 11
363.7340351343
 21
30.6358139363
 12
364.0809101343
 22
30.6358139363
 13
364.0809101343
 23
30.6358139363
  0
SOLID
  8
0
 62
7
  6
CONTINUOUS
 10
363.3871601343
 20
30.5712868422
 11
364.543410024
 21
30.6035511455
 12
363.5027853548
 22
30.5390225267
 13
363.5027853548
 23
30.5390225267
  0
SOLID
  8
0
 62
7
  6
CONTINUOUS
 10
364.543410024
 20
30.6035511455
 11
364.369972524
 21
30.5390225267
 12
363.5027853548
 22
30.5390225267
 13
363.5027853548
 23
30.5390225267
  0
SOLID
  8
0
 62
7
  6
CONTINUOUS
 10
363.7340351343
 20
30.5067596914
 11
363.5027853548
 21
30.5390225267
 12
364.369972524
 22
30.5390225267
 13
364.369972524
 23
30.5390225267
  0
SOLID
  8
0
 62
7
  6
CONTINUOUS
 10
364.369972524
 20
30.5390225267
 11
364.0809101343
 21
30.5067596914
 12
363.7340351343
 22
30.5067596914
 13
363.7340351343
 23
30.5067596914
  0
SOLID
  8
0
 62
7
  6
CONTINUOUS
 10
368.7637229651
 20
30.6680782357
 11
368.4168479651
 21
30.6358138717
 12
368.6480977445
 22
30.7003410226
 13
368.6480977445
 23
30.7003410226
  0
SOLID
  8
0
 62
7
  6
CONTINUOUS
 10
368.6480977445
 20
30.7003410226
 11
368.4168479651
 21
30.6358138717
 12
368.5902854651
 22
30.7648680521
 13
368.5902854651
 23
30.7648680521
  0
SOLID
  8
0
 62
7
  6
CONTINUOUS
 10
368.4168479651
 20
30.6358138717
 11
368.3012227445
 21
30.7648680521
 12
368.5902854651
 22
30.7648680521
 13
368.5902854651
 23
30.7648680521
  0
SOLID
  8
0
 62
7
  6
CONTINUOUS
 10
368.7637229651
 20
30.6680782357
 11
369.1105979651
 21
30.6358138717
 12
368.4168479651
 22
30.6358138717
 13
368.4168479651
 23
30.6358138717
  0
SOLID
  8
0
 62
7
  6
CONTINUOUS
 10
365.4684104651
 20
30.5067597521
 11
365.4684104651
 21
31.5391977439
 12
365.757472524
 22
30.5067597521
 13
365.757472524
 23
31.5391977439
  0
ENDBLK
  8
0
  6
BYBLOCK
 62
0
  0
BLOCK
  8
0
 62
2
  6
CONTINUOUS
  2
SYMBOL_0_BL0
 70
64
 10
240.8592468615
 20
19.762288695
  0
TEXT
  8
0
 62
7
  6
CONTINUOUS
 10
227.1239507038
 20
19.1357028027
  7
TEXTSTYLE_3
 40
2.7338706658
  1
Ammeraal Beltech
 41
1.0
 51
15.0
 72
0
  0
TEXT
  8
0
 62
7
  6
CONTINUOUS
 10
237.9247515296
 20
16.8621661299
  7
TEXTSTYLE_4
 40
1.0935482663
  1
Innovation & Service in Belting
 41
1.0
 72
0
  0
LINE
  8
0
 62
7
  6
CONTINUOUS
 10
221.0994100525
 20
19.9022961113
 11
221.8775620458
 21
23.5632134089
  0
LINE
  8
0
 62
7
  6
CONTINUOUS
 10
231.9727303357
 20
27.2266073205
 11
222.3653797889
 21
24.1049898993
  0
LINE
  8
0
 62
7
  6
CONTINUOUS
 10
221.3246933848
 20
19.2089453082
 11
228.8317686459
 21
12.4495443822
  0
LINE
  8
0
 62
7
  6
CONTINUOUS
 10
221.5872277955
 20
20.4440726016
 11
232.3954971607
 21
23.9558922005
  0
LINE
  8
0
 62
7
  6
CONTINUOUS
 10
232.3912920235
 20
13.6061036368
 11
223.9458323548
 21
21.2104296785
  0
LINE
  8
0
 62
7
  6
CONTINUOUS
 10
232.9111147433
 20
26.3816822048
 11
231.9345552061
 21
21.7873308023
  0
LINE
  8
0
 62
7
  6
CONTINUOUS
 10
231.2347532584
 20
18.4950214885
 11
230.5483050469
 21
15.2655365641
  0
LINE
  8
0
 62
7
  6
CONTINUOUS
 10
233.5922108419
 20
13.9963058145
 11
234.5484423775
 21
18.4950214885
  0
LINE
  8
0
 62
7
  6
CONTINUOUS
 10
235.2482443252
 20
21.7873308023
 11
235.6924861276
 21
23.8773241617
  0
LINE
  8
0
 62
7
  6
CONTINUOUS
 10
229.5448697213
 20
12.2979700695
 11
233.1043930989
 21
13.4545293241
  0
LINE
  8
0
 62
7
  6
CONTINUOUS
 10
232.685831411
 20
27.0750330078
 11
235.4672027953
 21
24.5706749648
  0
ARC
  8
0
 62
7
  6
CONTINUOUS
 10
222.5906631212
 20
23.4116390962
 40
0.7290321776
 50
108.0
 51
168.0
  0
ARC
  8
0
 62
7
  6
CONTINUOUS
 10
232.198013668
 20
26.5332565175
 40
0.7290321776
 50
348.0
 51
108.0
  0
ARC
  8
0
 62
7
  6
CONTINUOUS
 10
234.9793850522
 20
24.0288984744
 40
0.7290321776
 50
348.0
 51
48.0
  0
ARC
  8
0
 62
7
  6
CONTINUOUS
 10
229.319586389
 20
12.9913208726
 40
0.7290321776
 50
228.0
 51
288.0
  0
ARC
  8
0
 62
7
  6
CONTINUOUS
 10
221.8125111278
 20
19.7507217986
 40
0.7290321776
 50
108.0
 51
228.0
  0
ARC
  8
0
 62
7
  6
CONTINUOUS
 10
232.8791097665
 20
14.1478801272
 40
0.7290321776
 50
228.0
 51
348.0
  0
ENDBLK
  8
0
  6
BYBLOCK
 62
0
  0
ENDSEC
  0
SECTION
  2
ENTITIES
  0
TEXT
  8
0
 62
5
  6
CONTINUOUS
 10
304.937007874
 20
25.636
  7
TEXTSTYLE_2
 40
2.8
  1
Scale :
 41
0.6
 51
0.000019
 72
0
  0
TEXT
  8
0
 62
5
  6
CONTINUOUS
 10
324.937007874
 20
25.636
  7
TEXTSTYLE_2
 40
2.8
  1
Belt type:
 41
0.6
 51
0.000019
 72
0
  0
INSERT
  8
0
 62
2
  6
CONTINUOUS
  2
SYMBOL_0_BL0
 10
240.8592468615
 20
19.762288695
  0
INSERT
  8
0
 62
2
  6
CONTINUOUS
  2
SYMBOL_5_BL1
 10
382.7840918555
 20
35.5067593403
  0
LINE
  8
0
 62
2
  6
CONTINUOUS
 10
218.937007874
 20
30.0
 11
408.937007874
 21
30.0
  0
LINE
  8
0
 62
2
  6
CONTINUOUS
 10
218.937007874
 20
30.0
 11
218.937007874
 21
10.0
  0
LINE
  8
0
 62
2
  6
CONTINUOUS
 10
218.937007874
 20
10.0
 11
408.937007874
 21
10.0
  0
LINE
  8
0
 62
2
  6
CONTINUOUS
 10
303.937007874
 20
30.0
 11
303.937007874
 21
10.0
  0
LINE
  8
0
 62
2
  6
CONTINUOUS
 10
323.937007874
 20
30.0
 11
323.937007874
 21
10.0
  0
LINE
  8
0
 62
2
  6
CONTINUOUS
 10
408.937007874
 20
30.0
 11
408.937007874
 21
10.0
  0
TEXT
  8
0
 62
5
  6
CONTINUOUS
 10
221.937007874
 20
23.303
  7
TEXTSTYLE_5
 40
1.52
  1
                                                                     Ammeraal Beltech Modular A/S
 41
1.0
 72
0
  0
TEXT
  8
0
 62
5
  6
CONTINUOUS
 10
221.937007874
 20
20.595
  7
TEXTSTYLE_5
 40
1.5
  1
                                                                      Hjulmagervej 21, 7100 Vejle,  DK
 41
1.0
 72
0
  0
TEXT
  8
0
 62
5
  6
CONTINUOUS
 10
221.937007874
 20
17.881
  7
TEXTSTYLE_5
 40
1.495
  1
                                                                      tel: 
 41
1.0
 72
0
  0
TEXT
  8
0
 62
5
  6
CONTINUOUS
 10
266.9239544389
 20
17.881
  7
TEXTSTYLE_5
 40
1.51
  1
+45 75723100     fax: +45 75723348
 41
1.0
 72
0
  0
TEXT
  8
0
 62
5
  6
CONTINUOUS
 10
221.937007874
 20
15.177
  7
TEXTSTYLE_5
 40
1.5
  1
                                                                      admin@unichains.dk  www.unichains.com
 41
1.0
 72
0
  0
TEXT
  8
0
 62
5
  6
CONTINUOUS
 10
308.687007874
 20
13.75
  7
TEXTSTYLE_6
 40
5.0
  1
1:1
 41
0.7
 72
1
 11
313.937007874
 21
13.75
  0
TEXT
  8
0
 62
5
  6
CONTINUOUS
 10
326.937007874
 20
13.75
  7
TEXTSTYLE_7
 40
7.5
  1
Sprocket Z12
 41
0.6361111111
 72
0
  0
LINE
  8
0
 62
7
  6
CONTINUOUS
 10
0.0
 20
0.0
 11
0.0
 21
297.0
  0
LINE
  8
0
 62
7
  6
CONTINUOUS
 10
8.937007874
 20
10.0
 11
8.937007874
 21
287.0
  0
LINE
  8
0
 62
7
  6
CONTINUOUS
 10
0.0
 20
0.0
 11
420.0
 21
0.0
  0
LINE
  8
0
 62
7
  6
CONTINUOUS
 10
408.937007874
 20
10.0
 11
8.937007874
 21
10.0
  0
LINE
  8
0
 62
7
  6
CONTINUOUS
 10
218.937007874
 20
30.0
 11
408.937007874
 21
30.0
  0
LINE
  8
0
 62
7
  6
CONTINUOUS
 10
210.0
 20
297.0
 11
210.0
 21
292.0
  0
LINE
  8
0
 62
7
  6
CONTINUOUS
 10
210.0
 20
0.0
 11
210.0
 21
5.0
  0
LINE
  8
0
 62
7
  6
CONTINUOUS
 10
8.937007874
 20
287.0
 11
408.937007874
 21
287.0
  0
LINE
  8
0
 62
7
  6
CONTINUOUS
 10
0.0
 20
297.0
 11
420.0
 21
297.0
  0
LINE
  8
0
 62
7
  6
CONTINUOUS
 10
408.937007874
 20
287.0
 11
408.937007874
 21
10.0
  0
LINE
  8
0
 62
7
  6
CONTINUOUS
 10
420.0
 20
0.0
 11
420.0
 21
297.0
  0
POLYLINE
  8
0
 62
7
  6
CONTINUOUS
 66
1
 70
0
  0
VERTEX
  8
0
 62
7
  6
CONTINUOUS
 10
314.3252655955
 20
65.0310038649
  0
VERTEX
  8
0
 62
7
  6
CONTINUOUS
 10
314.4631329997
 20
65.0474067734
  0
VERTEX
  8
0
 62
7
  6
CONTINUOUS
 10
314.5985254859
 20
65.083060054
  0
VERTEX
  8
0
 62
7
  6
CONTINUOUS
 10
314.7274622749
 20
65.1366939654
  0
VERTEX
  8
0
 62
7
  6
CONTINUOUS
 10
314.8463420324
 20
65.2058855837
  0
VERTEX
  8
0
 62
7
  6
CONTINUOUS
 10
314.9529282024
 20
65.2878032044
  0
VERTEX
  8
0
 62
7
  6
CONTINUOUS
 10
315.0460969784
 20
65.379708085
  0
VERTEX
  8
0
 62
7
  6
CONTINUOUS
 10
315.1253772381
 20
65.4790586229
  0
VERTEX
  8
0
 62
7
  6
CONTINUOUS
 10
315.1906942587
 20
65.5834764941
  0
VERTEX
  8
0
 62
7
  6
CONTINUOUS
 10
315.2424712061
 20
65.6911862392
  0
VERTEX
  8
0
 62
7
  6
CONTINUOUS
 10
315.2810261433
 20
65.8000106414
  0
VERTEX
  8
0
 62
7
  6
CONTINUOUS
 10
315.306892779
 20
65.9073378728
  0
SEQEND
  0
LINE
  8
0
 62
7
  6
CONTINUOUS
 10
304.2885199624
 20
64.972784454
 11
314.3252655955
 21
64.972784454
  0
LINE
  8
0
 62
7
  6
CONTINUOUS
 10
303.6500258104
 20
76.6992278688
 11
314.9637429683
 21
76.6992278688
  0
POLYLINE
  8
0
 62
7
  6
CONTINUOUS
 66
1
 70
0
  0
VERTEX
  8
0
 62
7
  6
CONTINUOUS
 10
314.9644340737
 20
76.6992279081
  0
VERTEX
  8
0
 62
7
  6
CONTINUOUS
 10
314.9529180015
 20
76.6993299379
  0
VERTEX
  8
0
 62
7
  6
CONTINUOUS
 10
314.8463371575
 20
76.7094017324
  0
VERTEX
  8
0
 62
7
  6
CONTINUOUS
 10
314.7274636199
 20
76.7372370709
  0
VERTEX
  8
0
 62
7
  6
CONTINUOUS
 10
314.5985172396
 20
76.7841401447
  0
VERTEX
  8
0
 62
7
  6
CONTINUOUS
 10
314.463115689
 20
76.8502077075
  0
VERTEX
  8
0
 62
7
  6
CONTINUOUS
 10
314.3252655955
 20
76.9343445288
  0
SEQEND
  0
POLYLINE
  8
0
 62
7
  6
CONTINUOUS
 66
1
 70
0
  0
VERTEX
  8
0
 62
7
  6
CONTINUOUS
 10
303.649354896
 20
76.6992279067
  0
VERTEX
  8
0
 62
7
  6
CONTINUOUS
 10
303.5673380525
 20
76.7051857946
  0
VERTEX
  8
0
 62
7
  6
CONTINUOUS
 10
303.4881463721
 20
76.7248185964
  0
VERTEX
  8
0
 62
7
  6
CONTINUOUS
 10
303.4228503277
 20
76.756126127
  0
VERTEX
  8
0
 62
7
  6
CONTINUOUS
 10
303.3710497895
 20
76.7972087879
  0
VERTEX
  8
0
 62
7
  6
CONTINUOUS
 10
303.3325839046
 20
76.8458445279
  0
VERTEX
  8
0
 62
7
  6
CONTINUOUS
 10
303.306892779
 20
76.899456631
  0
SEQEND
  0
LINE
  8
0
 62
7
  6
CONTINUOUS
 10
294.306892779
 20
78.472784454
 11
301.806892779
 21
78.472784454
  0
LINE
  8
0
 62
7
  6
CONTINUOUS
 10
316.806892779
 20
78.472784454
 11
324.306892779
 21
78.472784454
  0
LINE
  8
0
 62
7
  6
CONTINUOUS
 10
294.306892779
 20
78.6732333441
 11
301.806892779
 21
78.6732333441
  0
LINE
  8
0
 62
7
  6
CONTINUOUS
 10
316.806892779
 20
78.6732333441
 11
324.306892779
 21
78.6732333441
  0
POLYLINE
  8
0
 62
7
  6
CONTINUOUS
 66
1
 70
0
  0
VERTEX
  8
0
 62
7
  6
CONTINUOUS
 10
314.3252655955
 20
256.5112243793
  0
VERTEX
  8
0
 62
7
  6
CONTINUOUS
 10
314.4631329997
 20
256.5953707036
  0
VERTEX
  8
0
 62
7
  6
CONTINUOUS
 10
314.5985254859
 20
256.6614322755
  0
VERTEX
  8
0
 62
7
  6
CONTINUOUS
 10
314.7274622749
 20
256.7083314345
  0
VERTEX
  8
0
 62
7
  6
CONTINUOUS
 10
314.8463420324
 20
256.7361679811
  0
VERTEX
  8
0
 62
7
  6
CONTINUOUS
 10
314.9529282024
 20
256.7462391533
  0
VERTEX
  8
0
 62
7
  6
CONTINUOUS
 10
314.964434536
 20
256.7463409998
  0
SEQEND
  0
LINE
  8
0
 62
7
  6
CONTINUOUS
 10
294.306892779
 20
87.4973035907
 11
301.806892779
 21
87.4973035907
  0
LINE
  8
0
 62
7
  6
CONTINUOUS
 10
316.806892779
 20
87.4973035907
 11
324.306892779
 21
87.4973035907
  0
POLYLINE
  8
0
 62
7
  6
CONTINUOUS
 66
1
 70
0
  0
VERTEX
  8
0
 62
7
  6
CONTINUOUS
 10
304.2885199624
 20
253.0696752214
  0
VERTEX
  8
0
 62
7
  6
CONTINUOUS
 10
304.1502224654
 20
252.9567402184
  0
VERTEX
  8
0
 62
7
  6
CONTINUOUS
 10
304.0147463555
 20
252.8287832371
  0
VERTEX
  8
0
 62
7
  6
CONTINUOUS
 10
303.8858634196
 20
252.6889735889
  0
VERTEX
  8
0
 62
7
  6
CONTINUOUS
 10
303.7669790234
 20
252.5412093548
  0
VERTEX
  8
0
 62
7
  6
CONTINUOUS
 10
303.6604144317
 20
252.3891926386
  0
VERTEX
  8
0
 62
7
  6
CONTINUOUS
 10
303.5673380525
 20
252.2358668329
  0
VERTEX
  8
0
 62
7
  6
CONTINUOUS
 10
303.4881463721
 20
252.0834534896
  0
VERTEX
  8
0
 62
7
  6
CONTINUOUS
 10
303.4228503277
 20
251.9337866486
  0
VERTEX
  8
0
 62
7
  6
CONTINUOUS
 10
303.3710497895
 20
251.7879650955
  0
VERTEX
  8
0
 62
7
  6
CONTINUOUS
 10
303.3325839046
 20
251.6481870534
  0
VERTEX
  8
0
 62
7
  6
CONTINUOUS
 10
303.306892779
 20
251.5169322974
  0
SEQEND
  0
LINE
  8
0
 62
7
  6
CONTINUOUS
 10
294.306892779
 20
93.4419692113
 11
301.806892779
 21
93.4419692113
  0
LINE
  8
0
 62
7
  6
CONTINUOUS
 10
316.806892779
 20
93.4419692113
 11
324.306892779
 21
93.4419692113
  0
POLYLINE
  8
0
 62
7
  6
CONTINUOUS
 66
1
 70
0
  0
VERTEX
  8
0
 62
7
  6
CONTINUOUS
 10
315.3299354821
 20
111.9544371368
  0
VERTEX
  8
0
 62
7
  6
CONTINUOUS
 10
315.3378292462
 20
111.955014171
  0
VERTEX
  8
0
 62
7
  6
CONTINUOUS
 10
315.3706801847
 20
111.9689380091
  0
VERTEX
  8
0
 62
7
  6
CONTINUOUS
 10
315.4051713916
 20
112.0014033251
  0
VERTEX
  8
0
 62
7
  6
CONTINUOUS
 10
315.4409844292
 20
112.0521901793
  0
SEQEND
  0
LINE
  8
0
 62
7
  6
CONTINUOUS
 10
303.306892779
 20
111.9544371366
 11
315.306892779
 21
111.9544371366
  0
POLYLINE
  8
0
 62
7
  6
CONTINUOUS
 66
1
 70
0
  0
VERTEX
  8
0
 62
7
  6
CONTINUOUS
 10
303.2838500759
 20
111.9544371368
  0
VERTEX
  8
0
 62
7
  6
CONTINUOUS
 10
303.2759563118
 20
111.955014171
  0
VERTEX
  8
0
 62
7
  6
CONTINUOUS
 10
303.2431053733
 20
111.9689380091
  0
VERTEX
  8
0
 62
7
  6
CONTINUOUS
 10
303.2086141664
 20
112.0014033251
  0
VERTEX
  8
0
 62
7
  6
CONTINUOUS
 10
303.1728011288
 20
112.0521901793
  0
SEQEND
  0
LINE
  8
0
 62
7
  6
CONTINUOUS
 10
303.306892779
 20
111.9596635409
 11
303.2838500759
 21
111.9544371368
  0
LINE
  8
0
 62
7
  6
CONTINUOUS
 10
294.306892779
 20
117.5497774546
 11
301.806892779
 21
117.5497774546
  0
LINE
  8
0
 62
7
  6
CONTINUOUS
 10
316.806892779
 20
117.5497774546
 11
324.306892779
 21
117.5497774546
  0
LINE
  8
0
 62
7
  6
CONTINUOUS
 10
315.306892779
 20
111.9596635409
 11
315.3299354821
 21
111.9544371368
  0
POLYLINE
  8
0
 62
7
  6
CONTINUOUS
 66
1
 70
0
  0
VERTEX
  8
0
 62
7
  6
CONTINUOUS
 10
303.306892779
 20
256.546112277
  0
VERTEX
  8
0
 62
7
  6
CONTINUOUS
 10
303.332579712
 20
256.5997176091
  0
VERTEX
  8
0
 62
7
  6
CONTINUOUS
 10
303.3710483098
 20
256.6483586346
  0
VERTEX
  8
0
 62
7
  6
CONTINUOUS
 10
303.4228546228
 20
256.6894454617
  0
VERTEX
  8
0
 62
7
  6
CONTINUOUS
 10
303.4881500631
 20
256.720751631
  0
VERTEX
  8
0
 62
7
  6
CONTINUOUS
 10
303.5673340628
 20
256.7403825068
  0
VERTEX
  8
0
 62
7
  6
CONTINUOUS
 10
303.6493544606
 20
256.7463410012
  0
SEQEND
  0
POLYLINE
  8
0
 62
7
  6
CONTINUOUS
 66
1
 70
0
  0
VERTEX
  8
0
 62
7
  6
CONTINUOUS
 10
315.306892779
 20
111.9596635409
  0
VERTEX
  8
0
 62
7
  6
CONTINUOUS
 10
315.2810234232
 20
111.9736432293
  0
VERTEX
  8
0
 62
7
  6
CONTINUOUS
 10
315.2424713702
 20
111.9982571946
  0
VERTEX
  8
0
 62
7
  6
CONTINUOUS
 10
315.1906992502
 20
112.0350052801
  0
VERTEX
  8
0
 62
7
  6
CONTINUOUS
 10
315.1253815948
 20
112.0852953791
  0
VERTEX
  8
0
 62
7
  6
CONTINUOUS
 10
315.0460936528
 20
112.1507171192
  0
VERTEX
  8
0
 62
7
  6
CONTINUOUS
 10
314.9529180015
 20
112.2325775196
  0
VERTEX
  8
0
 62
7
  6
CONTINUOUS
 10
314.8463371575
 20
112.3319343695
  0
VERTEX
  8
0
 62
7
  6
CONTINUOUS
 10
314.7274636199
 20
112.4493342592
  0
VERTEX
  8
0
 62
7
  6
CONTINUOUS
 10
314.5985172396
 20
112.5842101377
  0
VERTEX
  8
0
 62
7
  6
CONTINUOUS
 10
314.463115689
 20
112.7342962978
  0
VERTEX
  8
0
 62
7
  6
CONTINUOUS
 10
314.3252655955
 20
112.8964251603
  0
SEQEND
  0
POLYLINE
  8
0
 62
7
  6
CONTINUOUS
 66
1
 70
0
  0
VERTEX
  8
0
 62
7
  6
CONTINUOUS
 10
303.1728011288
 20
221.3933787287
  0
VERTEX
  8
0
 62
7
  6
CONTINUOUS
 10
303.2086018194
 20
221.444150965
  0
VERTEX
  8
0
 62
7
  6
CONTINUOUS
 10
303.2430986391
 20
221.4766262627
  0
VERTEX
  8
0
 62
7
  6
CONTINUOUS
 10
303.275960621
 20
221.4905553617
  0
VERTEX
  8
0
 62
7
  6
CONTINUOUS
 10
303.2838515632
 20
221.4911317711
  0
SEQEND
  0
POLYLINE
  8
0
 62
7
  6
CONTINUOUS
 66
1
 70
0
  0
VERTEX
  8
0
 62
7
  6
CONTINUOUS
 10
304.2885199624
 20
214.5882057495
  0
VERTEX
  8
0
 62
7
  6
CONTINUOUS
 10
304.1502224654
 20
214.4090814697
  0
VERTEX
  8
0
 62
7
  6
CONTINUOUS
 10
304.0147463555
 20
214.2231988249
  0
VERTEX
  8
0
 62
7
  6
CONTINUOUS
 10
303.8858634196
 20
214.0347301576
  0
VERTEX
  8
0
 62
7
  6
CONTINUOUS
 10
303.7669790234
 20
213.8480704477
  0
VERTEX
  8
0
 62
7
  6
CONTINUOUS
 10
303.6604144317
 20
213.6667618005
  0
VERTEX
  8
0
 62
7
  6
CONTINUOUS
 10
303.5673380525
 20
213.4931018976
  0
VERTEX
  8
0
 62
7
  6
CONTINUOUS
 10
303.4881463721
 20
213.3284451314
  0
VERTEX
  8
0
 62
7
  6
CONTINUOUS
 10
303.4228503277
 20
213.1737001608
  0
VERTEX
  8
0
 62
7
  6
CONTINUOUS
 10
303.3710497895
 20
213.0290390202
  0
VERTEX
  8
0
 62
7
  6
CONTINUOUS
 10
303.3325839046
 20
212.8957170973
  0
VERTEX
  8
0
 62
7
  6
CONTINUOUS
 10
303.306892779
 20
212.7751101221
  0
SEQEND
  0
LINE
  8
0
 62
7
  6
CONTINUOUS
 10
294.306892779
 20
127.8462403435
 11
301.806892779
 21
127.8462403435
  0
LINE
  8
0
 62
7
  6
CONTINUOUS
 10
316.806892779
 20
127.8462403435
 11
324.306892779
 21
127.8462403435
  0
POLYLINE
  8
0
 62
7
  6
CONTINUOUS
 66
1
 70
0
  0
VERTEX
  8
0
 62
7
  6
CONTINUOUS
 10
303.1728011288
 20
112.0521901793
  0
VERTEX
  8
0
 62
7
  6
CONTINUOUS
 10
303.0251690565
 20
112.3126709067
  0
VERTEX
  8
0
 62
7
  6
CONTINUOUS
 10
302.8758886725
 20
112.6109859528
  0
VERTEX
  8
0
 62
7
  6
CONTINUOUS
 10
302.7253159545
 20
112.9463897733
  0
VERTEX
  8
0
 62
7
  6
CONTINUOUS
 10
302.5738353304
 20
113.3180030544
  0
VERTEX
  8
0
 62
7
  6
CONTINUOUS
 10
302.4218483423
 20
113.7248271021
  0
VERTEX
  8
0
 62
7
  6
CONTINUOUS
 10
302.2697735779
 20
114.1657392182
  0
VERTEX
  8
0
 62
7
  6
CONTINUOUS
 10
302.1180475576
 20
114.6394840782
  0
SEQEND
  0
POLYLINE
  8
0
 62
7
  6
CONTINUOUS
 66
1
 70
0
  0
VERTEX
  8
0
 62
7
  6
CONTINUOUS
 10
303.306892779
 20
76.899456631
  0
VERTEX
  8
0
 62
7
  6
CONTINUOUS
 10
303.2759563118
 20
76.9916965938
  0
VERTEX
  8
0
 62
7
  6
CONTINUOUS
 10
303.2431053733
 20
77.0999362821
  0
VERTEX
  8
0
 62
7
  6
CONTINUOUS
 10
303.2086141664
 20
77.2232917609
  0
VERTEX
  8
0
 62
7
  6
CONTINUOUS
 10
303.1728011288
 20
77.3606445089
  0
SEQEND
  0
LINE
  8
0
 62
7
  6
CONTINUOUS
 10
301.8987568618
 20
260.4193621613
 11
303.306892779
 21
267.6635934494
  0
LINE
  8
0
 62
7
  6
CONTINUOUS
 10
302.5738353304
 20
263.7273007161
 11
302.2697735779
 21
262.1648583061
  0
LINE
  8
0
 62
7
  6
CONTINUOUS
 10
301.8987568618
 20
260.266190471
 11
302.2697735779
 21
262.1648583061
  0
POLYLINE
  8
0
 62
7
  6
CONTINUOUS
 66
1
 70
0
  0
VERTEX
  8
0
 62
7
  6
CONTINUOUS
 10
301.8987568618
 20
245.0560711649
  0
VERTEX
  8
0
 62
7
  6
CONTINUOUS
 10
301.9719547637
 20
245.3640840168
  0
VERTEX
  8
0
 62
7
  6
CONTINUOUS
 10
302.0450673038
 20
245.6665598514
  0
VERTEX
  8
0
 62
7
  6
CONTINUOUS
 10
302.2697735779
 20
246.5859743003
  0
SEQEND
  0
POLYLINE
  8
0
 62
7
  6
CONTINUOUS
 66
1
 70
0
  0
VERTEX
  8
0
 62
7
  6
CONTINUOUS
 10
303.1728011288
 20
256.0849243991
  0
VERTEX
  8
0
 62
7
  6
CONTINUOUS
 10
303.2086018194
 20
256.2222313613
  0
VERTEX
  8
0
 62
7
  6
CONTINUOUS
 10
303.2430986391
 20
256.3456094672
  0
VERTEX
  8
0
 62
7
  6
CONTINUOUS
 10
303.275960621
 20
256.4538858573
  0
VERTEX
  8
0
 62
7
  6
CONTINUOUS
 10
303.306892779
 20
256.546112277
  0
SEQEND
  0
POLYLINE
  8
0
 62
7
  6
CONTINUOUS
 66
1
 70
0
  0
VERTEX
  8
0
 62
7
  6
CONTINUOUS
 10
314.3252655955
 20
220.5491437477
  0
VERTEX
  8
0
 62
7
  6
CONTINUOUS
 10
314.4631329997
 20
220.7112923653
  0
VERTEX
  8
0
 62
7
  6
CONTINUOUS
 10
314.5985254859
 20
220.8613676449
  0
VERTEX
  8
0
 62
7
  6
CONTINUOUS
 10
314.7274622749
 20
220.9962332825
  0
VERTEX
  8
0
 62
7
  6
CONTINUOUS
 10
314.8463420324
 20
221.1136392137
  0
VERTEX
  8
0
 62
7
  6
CONTINUOUS
 10
314.9529282024
 20
221.2130006164
  0
VERTEX
  8
0
 62
7
  6
CONTINUOUS
 10
315.0460969784
 20
221.2948546197
  0
VERTEX
  8
0
 62
7
  6
CONTINUOUS
 10
315.1253772381
 20
221.3602700561
  0
VERTEX
  8
0
 62
7
  6
CONTINUOUS
 10
315.1906942587
 20
221.4105599346
  0
VERTEX
  8
0
 62
7
  6
CONTINUOUS
 10
315.2424712061
 20
221.4473116026
  0
VERTEX
  8
0
 62
7
  6
CONTINUOUS
 10
315.2810261433
 20
221.4719272918
  0
VERTEX
  8
0
 62
7
  6
CONTINUOUS
 10
315.306892779
 20
221.4859053672
  0
SEQEND
  0
POLYLINE
  8
0
 62
7
  6
CONTINUOUS
 66
1
 70
0
  0
VERTEX
  8
0
 62
7
  6
CONTINUOUS
 10
302.1180475576
 20
124.1401349546
  0
VERTEX
  8
0
 62
7
  6
CONTINUOUS
 10
302.0450675701
 20
124.2810680751
  0
VERTEX
  8
0
 62
7
  6
CONTINUOUS
 10
301.9719555278
 20
124.4307070502
  0
VERTEX
  8
0
 62
7
  6
CONTINUOUS
 10
301.8987568618
 20
124.588957964
  0
SEQEND
  0
POLYLINE
  8
0
 62
7
  6
CONTINUOUS
 66
1
 70
0
  0
VERTEX
  8
0
 62
7
  6
CONTINUOUS
 10
302.1180475576
 20
124.1401349546
  0
VERTEX
  8
0
 62
7
  6
CONTINUOUS
 10
302.2697425993
 20
123.8378212736
  0
VERTEX
  8
0
 62
7
  6
CONTINUOUS
 10
302.4217893791
 20
123.4985433416
  0
VERTEX
  8
0
 62
7
  6
CONTINUOUS
 10
302.5737618678
 20
123.123239779
  0
VERTEX
  8
0
 62
7
  6
CONTINUOUS
 10
302.7252500291
 20
122.7129435557
  0
VERTEX
  8
0
 62
7
  6
CONTINUOUS
 10
302.8758535056
 20
122.2687935867
  0
VERTEX
  8
0
 62
7
  6
CONTINUOUS
 10
303.0251661421
 20
121.79208635
  0
VERTEX
  8
0
 62
7
  6
CONTINUOUS
 10
303.1728011288
 20
121.2842063454
  0
SEQEND
  0
POLYLINE
  8
0
 62
7
  6
CONTINUOUS
 66
1
 70
0
  0
VERTEX
  8
0
 62
7
  6
CONTINUOUS
 10
303.1728011288
 20
77.3606445089
  0
VERTEX
  8
0
 62
7
  6
CONTINUOUS
 10
303.0251690565
 20
77.954640823
  0
VERTEX
  8
0
 62
7
  6
CONTINUOUS
 10
302.8758886725
 20
78.5742756548
  0
VERTEX
  8
0
 62
7
  6
CONTINUOUS
 10
302.7253159545
 20
79.2179514135
  0
VERTEX
  8
0
 62
7
  6
CONTINUOUS
 10
302.5738353304
 20
79.8839359605
  0
VERTEX
  8
0
 62
7
  6
CONTINUOUS
 10
302.4218483423
 20
80.5704073084
  0
VERTEX
  8
0
 62
7
  6
CONTINUOUS
 10
302.2697735779
 20
81.2754532088
  0
SEQEND
  0
POLYLINE
  8
0
 62
7
  6
CONTINUOUS
 66
1
 70
0
  0
VERTEX
  8
0
 62
7
  6
CONTINUOUS
 10
302.0450675701
 20
87.7790079644
  0
VERTEX
  8
0
 62
7
  6
CONTINUOUS
 10
302.2697425993
 20
86.8597240147
  0
VERTEX
  8
0
 62
7
  6
CONTINUOUS
 10
302.4217893791
 20
86.2134399398
  0
VERTEX
  8
0
 62
7
  6
CONTINUOUS
 10
302.5737618678
 20
85.5452106273
  0
VERTEX
  8
0
 62
7
  6
CONTINUOUS
 10
302.7252500291
 20
84.8568706244
  0
VERTEX
  8
0
 62
7
  6
CONTINUOUS
 10
302.8758535056
 20
84.1503187469
  0
VERTEX
  8
0
 62
7
  6
CONTINUOUS
 10
303.0251661421
 20
83.4275926271
  0
VERTEX
  8
0
 62
7
  6
CONTINUOUS
 10
303.1728011288
 20
82.6907515276
  0
SEQEND
  0
POLYLINE
  8
0
 62
7
  6
CONTINUOUS
 66
1
 70
0
  0
VERTEX
  8
0
 62
7
  6
CONTINUOUS
 10
302.0450675701
 20
87.7790079644
  0
VERTEX
  8
0
 62
7
  6
CONTINUOUS
 10
301.9719555278
 20
88.0814817031
  0
VERTEX
  8
0
 62
7
  6
CONTINUOUS
 10
301.8987568618
 20
88.3894977432
  0
SEQEND
  0
POLYLINE
  8
0
 62
7
  6
CONTINUOUS
 66
1
 70
0
  0
VERTEX
  8
0
 62
7
  6
CONTINUOUS
 10
303.306892779
 20
65.9073378728
  0
VERTEX
  8
0
 62
7
  6
CONTINUOUS
 10
303.332579712
 20
65.8006191537
  0
VERTEX
  8
0
 62
7
  6
CONTINUOUS
 10
303.3710483098
 20
65.6918277655
  0
VERTEX
  8
0
 62
7
  6
CONTINUOUS
 10
303.4228546228
 20
65.5839071758
  0
VERTEX
  8
0
 62
7
  6
CONTINUOUS
 10
303.4881500631
 20
65.479424167
  0
VERTEX
  8
0
 62
7
  6
CONTINUOUS
 10
303.5673340628
 20
65.3801029515
  0
VERTEX
  8
0
 62
7
  6
CONTINUOUS
 10
303.6604029254
 20
65.2882003851
  0
VERTEX
  8
0
 62
7
  6
CONTINUOUS
 10
303.7669725784
 20
65.2062026355
  0
VERTEX
  8
0
 62
7
  6
CONTINUOUS
 10
303.8858634858
 20
65.1369228099
  0
VERTEX
  8
0
 62
7
  6
CONTINUOUS
 10
304.0147380333
 20
65.083236918
  0
VERTEX
  8
0
 62
7
  6
CONTINUOUS
 10
304.1502065548
 20
65.0474917845
  0
VERTEX
  8
0
 62
7
  6
CONTINUOUS
 10
304.2885199624
 20
65.0310038649
  0
SEQEND
  0
POLYLINE
  8
0
 62
7
  6
CONTINUOUS
 66
1
 70
0
  0
VERTEX
  8
0
 62
7
  6
CONTINUOUS
 10
301.8987568618
 20
73.179378437
  0
VERTEX
  8
0
 62
7
  6
CONTINUOUS
 10
302.4217893791
 20
70.5007503837
  0
VERTEX
  8
0
 62
7
  6
CONTINUOUS
 10
302.5737618678
 20
69.718646826
  0
SEQEND
  0
LINE
  8
0
 62
7
  6
CONTINUOUS
 10
301.8987568618
 20
73.0262067467
 11
303.306892779
 21
65.7819754586
  0
POLYLINE
  8
0
 62
7
  6
CONTINUOUS
 66
1
 70
0
  0
VERTEX
  8
0
 62
7
  6
CONTINUOUS
 10
303.306892779
 20
251.5169322974
  0
VERTEX
  8
0
 62
7
  6
CONTINUOUS
 10
303.2759563118
 20
251.324399427
  0
VERTEX
  8
0
 62
7
  6
CONTINUOUS
 10
303.2431053733
 20
251.1320368455
  0
VERTEX
  8
0
 62
7
  6
CONTINUOUS
 10
303.2086141664
 20
250.9415574647
  0
VERTEX
  8
0
 62
7
  6
CONTINUOUS
 10
303.1728011288
 20
250.7548173805
  0
SEQEND
  0
POLYLINE
  8
0
 62
7
  6
CONTINUOUS
 66
1
 70
0
  0
VERTEX
  8
0
 62
7
  6
CONTINUOUS
 10
301.8987568618
 20
260.266190471
  0
VERTEX
  8
0
 62
7
  6
CONTINUOUS
 10
301.847751291
 20
259.9507414652
  0
VERTEX
  8
0
 62
7
  6
CONTINUOUS
 10
301.8171039421
 20
259.6325461415
  0
SEQEND
  0
LINE
  8
0
 62
7
  6
CONTINUOUS
 10
303.306892779
 20
267.5382310353
 11
303.2086141664
 21
267.0190719213
  0
LINE
  8
0
 62
7
  6
CONTINUOUS
 10
303.2086141664
 20
267.0190719213
 11
302.8758886725
 21
265.2886818044
  0
LINE
  8
0
 62
7
  6
CONTINUOUS
 10
302.8758886725
 20
265.2886818044
 11
302.5738353304
 21
263.7273007161
  0
POLYLINE
  8
0
 62
7
  6
CONTINUOUS
 66
1
 70
0
  0
VERTEX
  8
0
 62
7
  6
CONTINUOUS
 10
301.8987568618
 20
245.0560711649
  0
VERTEX
  8
0
 62
7
  6
CONTINUOUS
 10
301.847751291
 20
244.7934891033
  0
VERTEX
  8
0
 62
7
  6
CONTINUOUS
 10
301.8171039421
 20
244.5252574996
  0
VERTEX
  8
0
 62
7
  6
CONTINUOUS
 10
301.806892779
 20
244.2525762456
  0
SEQEND
  0
POLYLINE
  8
0
 62
7
  6
CONTINUOUS
 66
1
 70
0
  0
VERTEX
  8
0
 62
7
  6
CONTINUOUS
 10
303.1728011288
 20
250.7548173805
  0
VERTEX
  8
0
 62
7
  6
CONTINUOUS
 10
303.0251690565
 20
250.0179906065
  0
VERTEX
  8
0
 62
7
  6
CONTINUOUS
 10
302.8758886725
 20
249.2954177594
  0
VERTEX
  8
0
 62
7
  6
CONTINUOUS
 10
302.7253159545
 20
248.5890027003
  0
VERTEX
  8
0
 62
7
  6
CONTINUOUS
 10
302.5738353304
 20
247.90068669
  0
VERTEX
  8
0
 62
7
  6
CONTINUOUS
 10
302.4218483423
 20
247.2323839145
  0
VERTEX
  8
0
 62
7
  6
CONTINUOUS
 10
302.2697735779
 20
246.5859743003
  0
SEQEND
  0
POLYLINE
  8
0
 62
7
  6
CONTINUOUS
 66
1
 70
0
  0
VERTEX
  8
0
 62
7
  6
CONTINUOUS
 10
302.0450675701
 20
251.0991283046
  0
VERTEX
  8
0
 62
7
  6
CONTINUOUS
 10
302.2697425993
 20
252.1699702234
  0
VERTEX
  8
0
 62
7
  6
CONTINUOUS
 10
302.4217893791
 20
252.8748917572
  0
VERTEX
  8
0
 62
7
  6
CONTINUOUS
 10
302.5737618678
 20
253.5613055434
  0
VERTEX
  8
0
 62
7
  6
CONTINUOUS
 10
302.7252500291
 20
254.2273316445
  0
VERTEX
  8
0
 62
7
  6
CONTINUOUS
 10
302.8758535056
 20
254.8711450869
  0
VERTEX
  8
0
 62
7
  6
CONTINUOUS
 10
303.0251661421
 20
255.4909161721
  0
VERTEX
  8
0
 62
7
  6
CONTINUOUS
 10
303.1728011288
 20
256.0849243991
  0
SEQEND
  0
POLYLINE
  8
0
 62
7
  6
CONTINUOUS
 66
1
 70
0
  0
VERTEX
  8
0
 62
7
  6
CONTINUOUS
 10
302.0450675701
 20
251.0991283046
  0
VERTEX
  8
0
 62
7
  6
CONTINUOUS
 10
301.9719555278
 20
250.7533631349
  0
VERTEX
  8
0
 62
7
  6
CONTINUOUS
 10
301.8987568618
 20
250.4114296777
  0
SEQEND
  0
POLYLINE
  8
0
 62
7
  6
CONTINUOUS
 66
1
 70
0
  0
VERTEX
  8
0
 62
7
  6
CONTINUOUS
 10
303.1728011288
 20
212.1613625626
  0
VERTEX
  8
0
 62
7
  6
CONTINUOUS
 10
303.0251690565
 20
211.6534922218
  0
VERTEX
  8
0
 62
7
  6
CONTINUOUS
 10
302.8758886725
 20
211.1768833032
  0
VERTEX
  8
0
 62
7
  6
CONTINUOUS
 10
302.7253159545
 20
210.7328118267
  0
VERTEX
  8
0
 62
7
  6
CONTINUOUS
 10
302.5738353304
 20
210.3225193165
  0
VERTEX
  8
0
 62
7
  6
CONTINUOUS
 10
302.4218483423
 20
209.9471641594
  0
VERTEX
  8
0
 62
7
  6
CONTINUOUS
 10
302.2697735779
 20
209.6078130703
  0
VERTEX
  8
0
 62
7
  6
CONTINUOUS
 10
302.1180475576
 20
209.3054339535
  0
SEQEND
  0
POLYLINE
  8
0
 62
7
  6
CONTINUOUS
 66
1
 70
0
  0
VERTEX
  8
0
 62
7
  6
CONTINUOUS
 10
302.1180475576
 20
218.8060848299
  0
VERTEX
  8
0
 62
7
  6
CONTINUOUS
 10
302.0450675701
 20
218.5739835176
  0
VERTEX
  8
0
 62
7
  6
CONTINUOUS
 10
301.9719555278
 20
218.3493615844
  0
VERTEX
  8
0
 62
7
  6
CONTINUOUS
 10
301.8987568618
 20
218.132363981
  0
SEQEND
  0
POLYLINE
  8
0
 62
7
  6
CONTINUOUS
 66
1
 70
0
  0
VERTEX
  8
0
 62
7
  6
CONTINUOUS
 10
302.1180475576
 20
218.8060848299
  0
VERTEX
  8
0
 62
7
  6
CONTINUOUS
 10
302.2697425993
 20
219.279736422
  0
VERTEX
  8
0
 62
7
  6
CONTINUOUS
 10
302.4217893791
 20
219.7205774119
  0
VERTEX
  8
0
 62
7
  6
CONTINUOUS
 10
302.5737618678
 20
220.127377407
  0
VERTEX
  8
0
 62
7
  6
CONTINUOUS
 10
302.7252500291
 20
220.4990248185
  0
VERTEX
  8
0
 62
7
  6
CONTINUOUS
 10
302.8758535056
 20
220.8345086304
  0
VERTEX
  8
0
 62
7
  6
CONTINUOUS
 10
303.0251661421
 20
221.1328925163
  0
VERTEX
  8
0
 62
7
  6
CONTINUOUS
 10
303.1728011288
 20
221.3933787287
  0
SEQEND
  0
POLYLINE
  8
0
 62
7
  6
CONTINUOUS
 66
1
 70
0
  0
VERTEX
  8
0
 62
7
  6
CONTINUOUS
 10
301.8987568618
 20
208.856610944
  0
VERTEX
  8
0
 62
7
  6
CONTINUOUS
 10
301.847751291
 20
208.717254478
  0
VERTEX
  8
0
 62
7
  6
CONTINUOUS
 10
301.8171039421
 20
208.570859036
  0
VERTEX
  8
0
 62
7
  6
CONTINUOUS
 10
301.806892779
 20
208.418015691
  0
SEQEND
  0
POLYLINE
  8
0
 62
7
  6
CONTINUOUS
 66
1
 70
0
  0
VERTEX
  8
0
 62
7
  6
CONTINUOUS
 10
301.8987568618
 20
208.856610944
  0
VERTEX
  8
0
 62
7
  6
CONTINUOUS
 10
301.9719547637
 20
209.0148602499
  0
VERTEX
  8
0
 62
7
  6
CONTINUOUS
 10
302.0450673038
 20
209.1645003033
  0
VERTEX
  8
0
 62
7
  6
CONTINUOUS
 10
302.1180475576
 20
209.3054339535
  0
SEQEND
  0
POLYLINE
  8
0
 62
7
  6
CONTINUOUS
 66
1
 70
0
  0
VERTEX
  8
0
 62
7
  6
CONTINUOUS
 10
301.8987568618
 20
115.313204927
  0
VERTEX
  8
0
 62
7
  6
CONTINUOUS
 10
301.9719547637
 20
115.0962096299
  0
VERTEX
  8
0
 62
7
  6
CONTINUOUS
 10
302.0450673038
 20
114.8715862229
  0
VERTEX
  8
0
 62
7
  6
CONTINUOUS
 10
302.1180475576
 20
114.6394840782
  0
SEQEND
  0
POLYLINE
  8
0
 62
7
  6
CONTINUOUS
 66
1
 70
0
  0
VERTEX
  8
0
 62
7
  6
CONTINUOUS
 10
301.8987568618
 20
115.313204927
  0
VERTEX
  8
0
 62
7
  6
CONTINUOUS
 10
301.847751291
 20
115.4892974668
  0
VERTEX
  8
0
 62
7
  6
CONTINUOUS
 10
301.8171039421
 20
115.6610973486
  0
VERTEX
  8
0
 62
7
  6
CONTINUOUS
 10
301.806892779
 20
115.8277084446
  0
SEQEND
  0
POLYLINE
  8
0
 62
7
  6
CONTINUOUS
 66
1
 70
0
  0
VERTEX
  8
0
 62
7
  6
CONTINUOUS
 10
301.8987568618
 20
83.0341392304
  0
VERTEX
  8
0
 62
7
  6
CONTINUOUS
 10
301.9719547637
 20
82.6922093646
  0
VERTEX
  8
0
 62
7
  6
CONTINUOUS
 10
302.0450673038
 20
82.3464418706
  0
VERTEX
  8
0
 62
7
  6
CONTINUOUS
 10
302.2697735779
 20
81.2754532088
  0
SEQEND
  0
POLYLINE
  8
0
 62
7
  6
CONTINUOUS
 66
1
 70
0
  0
VERTEX
  8
0
 62
7
  6
CONTINUOUS
 10
303.306892779
 20
81.9286366106
  0
VERTEX
  8
0
 62
7
  6
CONTINUOUS
 10
303.332579712
 20
81.7973996991
  0
VERTEX
  8
0
 62
7
  6
CONTINUOUS
 10
303.3710483098
 20
81.6576085127
  0
VERTEX
  8
0
 62
7
  6
CONTINUOUS
 10
303.4228546228
 20
81.5117713954
  0
VERTEX
  8
0
 62
7
  6
CONTINUOUS
 10
303.4881500631
 20
81.3621076848
  0
VERTEX
  8
0
 62
7
  6
CONTINUOUS
 10
303.5673340628
 20
81.2097091692
  0
VERTEX
  8
0
 62
7
  6
CONTINUOUS
 10
303.6604029254
 20
81.0563938962
  0
VERTEX
  8
0
 62
7
  6
CONTINUOUS
 10
303.7669725784
 20
80.9043681339
  0
VERTEX
  8
0
 62
7
  6
CONTINUOUS
 10
303.8858634858
 20
80.7565952422
  0
VERTEX
  8
0
 62
7
  6
CONTINUOUS
 10
304.0147380333
 20
80.6167940992
  0
VERTEX
  8
0
 62
7
  6
CONTINUOUS
 10
304.1502065548
 20
80.4888426767
  0
VERTEX
  8
0
 62
7
  6
CONTINUOUS
 10
304.2885199624
 20
80.3758936867
  0
SEQEND
  0
LINE
  8
0
 62
7
  6
CONTINUOUS
 10
302.5737618678
 20
69.718646826
 11
302.8758535056
 21
68.1570694103
  0
POLYLINE
  8
0
 62
7
  6
CONTINUOUS
 66
1
 70
0
  0
VERTEX
  8
0
 62
7
  6
CONTINUOUS
 10
303.1728011288
 20
82.6907515276
  0
VERTEX
  8
0
 62
7
  6
CONTINUOUS
 10
303.2086018194
 20
82.5040776959
  0
VERTEX
  8
0
 62
7
  6
CONTINUOUS
 10
303.2430986391
 20
82.31357035
  0
VERTEX
  8
0
 62
7
  6
CONTINUOUS
 10
303.275960621
 20
82.1211434769
  0
VERTEX
  8
0
 62
7
  6
CONTINUOUS
 10
303.306892779
 20
81.9286366106
  0
SEQEND
  0
LINE
  8
0
 62
7
  6
CONTINUOUS
 10
302.8758535056
 20
68.1570694103
 11
303.2086018194
 21
66.4265616722
  0
LINE
  8
0
 62
7
  6
CONTINUOUS
 10
303.2086018194
 20
66.4265616722
 11
303.306892779
 21
65.9073378728
  0
POLYLINE
  8
0
 62
7
  6
CONTINUOUS
 66
1
 70
0
  0
VERTEX
  8
0
 62
7
  6
CONTINUOUS
 10
301.8987568618
 20
83.0341392304
  0
VERTEX
  8
0
 62
7
  6
CONTINUOUS
 10
301.847751291
 20
83.317930874
  0
VERTEX
  8
0
 62
7
  6
CONTINUOUS
 10
301.8171039421
 20
83.6008297379
  0
VERTEX
  8
0
 62
7
  6
CONTINUOUS
 10
301.806892779
 20
83.8814598065
  0
SEQEND
  0
LINE
  8
0
 62
7
  6
CONTINUOUS
 10
294.306892779
 20
78.472784454
 11
294.306892779
 21
254.972784454
  0
POLYLINE
  8
0
 62
7
  6
CONTINUOUS
 66
1
 70
0
  0
VERTEX
  8
0
 62
7
  6
CONTINUOUS
 10
303.306892779
 20
212.7751101221
  0
VERTEX
  8
0
 62
7
  6
CONTINUOUS
 10
303.2759563118
 20
212.6060470802
  0
VERTEX
  8
0
 62
7
  6
CONTINUOUS
 10
303.2431053733
 20
212.446418117
  0
VERTEX
  8
0
 62
7
  6
CONTINUOUS
 10
303.2086141664
 20
212.2976907924
  0
VERTEX
  8
0
 62
7
  6
CONTINUOUS
 10
303.1728011288
 20
212.1613625626
  0
SEQEND
  0
POLYLINE
  8
0
 62
7
  6
CONTINUOUS
 66
1
 70
0
  0
VERTEX
  8
0
 62
7
  6
CONTINUOUS
 10
303.1728011288
 20
121.2842063454
  0
VERTEX
  8
0
 62
7
  6
CONTINUOUS
 10
303.2086018194
 20
121.1479281831
  0
VERTEX
  8
0
 62
7
  6
CONTINUOUS
 10
303.2430986391
 20
120.9991816308
  0
VERTEX
  8
0
 62
7
  6
CONTINUOUS
 10
303.275960621
 20
120.8394996198
  0
VERTEX
  8
0
 62
7
  6
CONTINUOUS
 10
303.306892779
 20
120.6704587859
  0
SEQEND
  0
POLYLINE
  8
0
 62
7
  6
CONTINUOUS
 66
1
 70
0
  0
VERTEX
  8
0
 62
7
  6
CONTINUOUS
 10
303.306892779
 20
120.6704587859
  0
VERTEX
  8
0
 62
7
  6
CONTINUOUS
 10
303.332579712
 20
120.5498685065
  0
VERTEX
  8
0
 62
7
  6
CONTINUOUS
 10
303.3710483098
 20
120.4165344575
  0
VERTEX
  8
0
 62
7
  6
CONTINUOUS
 10
303.4228546228
 20
120.2718577502
  0
VERTEX
  8
0
 62
7
  6
CONTINUOUS
 10
303.4881500631
 20
120.1171156083
  0
VERTEX
  8
0
 62
7
  6
CONTINUOUS
 10
303.5673340628
 20
119.9524748517
  0
VERTEX
  8
0
 62
7
  6
CONTINUOUS
 10
303.6604029254
 20
119.7788275757
  0
VERTEX
  8
0
 62
7
  6
CONTINUOUS
 10
303.7669725784
 20
119.597508981
  0
VERTEX
  8
0
 62
7
  6
CONTINUOUS
 10
303.8858634858
 20
119.4108386501
  0
VERTEX
  8
0
 62
7
  6
CONTINUOUS
 10
304.0147380333
 20
119.2223818594
  0
VERTEX
  8
0
 62
7
  6
CONTINUOUS
 10
304.1502065548
 20
119.0365086284
  0
VERTEX
  8
0
 62
7
  6
CONTINUOUS
 10
304.2885199624
 20
118.8573631586
  0
SEQEND
  0
POLYLINE
  8
0
 62
7
  6
CONTINUOUS
 66
1
 70
0
  0
VERTEX
  8
0
 62
7
  6
CONTINUOUS
 10
301.806892779
 20
125.0275532171
  0
VERTEX
  8
0
 62
7
  6
CONTINUOUS
 10
301.8171039421
 20
124.874709872
  0
VERTEX
  8
0
 62
7
  6
CONTINUOUS
 10
301.847751291
 20
124.72831443
  0
VERTEX
  8
0
 62
7
  6
CONTINUOUS
 10
301.8987568618
 20
124.588957964
  0
SEQEND
  0
POLYLINE
  8
0
 62
7
  6
CONTINUOUS
 66
1
 70
0
  0
VERTEX
  8
0
 62
7
  6
CONTINUOUS
 10
301.806892779
 20
89.1929926624
  0
VERTEX
  8
0
 62
7
  6
CONTINUOUS
 10
301.8171039421
 20
88.9203114085
  0
VERTEX
  8
0
 62
7
  6
CONTINUOUS
 10
301.847751291
 20
88.6520798048
  0
VERTEX
  8
0
 62
7
  6
CONTINUOUS
 10
301.8987568618
 20
88.3894977432
  0
SEQEND
  0
POLYLINE
  8
0
 62
7
  6
CONTINUOUS
 66
1
 70
0
  0
VERTEX
  8
0
 62
7
  6
CONTINUOUS
 10
301.806892779
 20
74.1324772077
  0
VERTEX
  8
0
 62
7
  6
CONTINUOUS
 10
301.8171039421
 20
73.8130227666
  0
VERTEX
  8
0
 62
7
  6
CONTINUOUS
 10
301.847751291
 20
73.4948274428
  0
VERTEX
  8
0
 62
7
  6
CONTINUOUS
 10
301.8987568618
 20
73.179378437
  0
SEQEND
  0
LINE
  8
0
 62
7
  6
CONTINUOUS
 10
301.806892779
 20
74.1324772077
 11
301.806892779
 21
78.6732333441
  0
LINE
  8
0
 62
7
  6
CONTINUOUS
 10
301.806892779
 20
83.8814598065
 11
301.806892779
 21
93.4419692113
  0
LINE
  8
0
 62
7
  6
CONTINUOUS
 10
301.806892779
 20
115.8277084446
 11
301.806892779
 21
127.8462403435
  0
LINE
  8
0
 62
7
  6
CONTINUOUS
 10
301.806892779
 20
160.7781188334
 11
301.806892779
 21
172.6674500746
  0
LINE
  8
0
 62
7
  6
CONTINUOUS
 10
301.806892779
 20
205.5993285646
 11
301.806892779
 21
217.6178604635
  0
LINE
  8
0
 62
7
  6
CONTINUOUS
 10
301.806892779
 20
240.0035996967
 11
301.806892779
 21
249.5641091015
  0
LINE
  8
0
 62
7
  6
CONTINUOUS
 10
301.806892779
 20
254.772335564
 11
301.806892779
 21
259.3130917004
  0
LINE
  8
0
 62
7
  6
CONTINUOUS
 10
301.8171039421
 20
259.6325461415
 11
301.806892779
 21
259.3130917004
  0
POLYLINE
  8
0
 62
7
  6
CONTINUOUS
 66
1
 70
0
  0
VERTEX
  8
0
 62
7
  6
CONTINUOUS
 10
301.806892779
 20
249.5641091015
  0
VERTEX
  8
0
 62
7
  6
CONTINUOUS
 10
301.8171039421
 20
249.8447391702
  0
VERTEX
  8
0
 62
7
  6
CONTINUOUS
 10
301.847751291
 20
250.127638034
  0
VERTEX
  8
0
 62
7
  6
CONTINUOUS
 10
301.8987568618
 20
250.4114296777
  0
SEQEND
  0
POLYLINE
  8
0
 62
7
  6
CONTINUOUS
 66
1
 70
0
  0
VERTEX
  8
0
 62
7
  6
CONTINUOUS
 10
301.806892779
 20
217.6178604635
  0
VERTEX
  8
0
 62
7
  6
CONTINUOUS
 10
301.8171039421
 20
217.7844715594
  0
VERTEX
  8
0
 62
7
  6
CONTINUOUS
 10
301.847751291
 20
217.9562714412
  0
VERTEX
  8
0
 62
7
  6
CONTINUOUS
 10
301.8987568618
 20
218.132363981
  0
SEQEND
  0
POLYLINE
  8
0
 62
7
  6
CONTINUOUS
 66
1
 70
0
  0
VERTEX
  8
0
 62
7
  6
CONTINUOUS
 10
301.806892779
 20
172.0343173099
  0
VERTEX
  8
0
 62
7
  6
CONTINUOUS
 10
301.8171039421
 20
172.0422661246
  0
VERTEX
  8
0
 62
7
  6
CONTINUOUS
 10
301.847751291
 20
172.0569333848
  0
VERTEX
  8
0
 62
7
  6
CONTINUOUS
 10
301.8987568618
 20
172.0781429669
  0
SEQEND
  0
POLYLINE
  8
0
 62
7
  6
CONTINUOUS
 66
1
 70
0
  0
VERTEX
  8
0
 62
7
  6
CONTINUOUS
 10
302.1180475576
 20
172.207987795
  0
VERTEX
  8
0
 62
7
  6
CONTINUOUS
 10
302.0450675701
 20
172.155351815
  0
VERTEX
  8
0
 62
7
  6
CONTINUOUS
 10
301.9719555278
 20
172.1120603839
  0
VERTEX
  8
0
 62
7
  6
CONTINUOUS
 10
301.8987568618
 20
172.0781429669
  0
SEQEND
  0
POLYLINE
  8
0
 62
7
  6
CONTINUOUS
 66
1
 70
0
  0
VERTEX
  8
0
 62
7
  6
CONTINUOUS
 10
302.1180475576
 20
172.207987795
  0
VERTEX
  8
0
 62
7
  6
CONTINUOUS
 10
302.2697425993
 20
172.3069097841
  0
VERTEX
  8
0
 62
7
  6
CONTINUOUS
 10
302.4217893791
 20
172.365547243
  0
VERTEX
  8
0
 62
7
  6
CONTINUOUS
 10
302.5660185577
 20
172.383784454
  0
SEQEND
  0
POLYLINE
  8
0
 62
7
  6
CONTINUOUS
 66
1
 70
0
  0
VERTEX
  8
0
 62
7
  6
CONTINUOUS
 10
316.0477664545
 20
161.061784454
  0
VERTEX
  8
0
 62
7
  6
CONTINUOUS
 10
316.1919372157
 20
161.0800067689
  0
VERTEX
  8
0
 62
7
  6
CONTINUOUS
 10
316.3440119801
 20
161.1386430551
  0
VERTEX
  8
0
 62
7
  6
CONTINUOUS
 10
316.4957380004
 20
161.2375811131
  0
SEQEND
  0
POLYLINE
  8
0
 62
7
  6
CONTINUOUS
 66
1
 70
0
  0
VERTEX
  8
0
 62
7
  6
CONTINUOUS
 10
302.5660191035
 20
161.061784454
  0
VERTEX
  8
0
 62
7
  6
CONTINUOUS
 10
302.4218483423
 20
161.0800067689
  0
VERTEX
  8
0
 62
7
  6
CONTINUOUS
 10
302.2697735779
 20
161.1386430551
  0
VERTEX
  8
0
 62
7
  6
CONTINUOUS
 10
302.1180475576
 20
161.2375811131
  0
SEQEND
  0
POLYLINE
  8
0
 62
7
  6
CONTINUOUS
 66
1
 70
0
  0
VERTEX
  8
0
 62
7
  6
CONTINUOUS
 10
301.8987568618
 20
161.3674259412
  0
VERTEX
  8
0
 62
7
  6
CONTINUOUS
 10
301.847751291
 20
161.3886355233
  0
VERTEX
  8
0
 62
7
  6
CONTINUOUS
 10
301.8171039421
 20
161.4033027834
  0
VERTEX
  8
0
 62
7
  6
CONTINUOUS
 10
301.806892779
 20
161.4112515981
  0
SEQEND
  0
POLYLINE
  8
0
 62
7
  6
CONTINUOUS
 66
1
 70
0
  0
VERTEX
  8
0
 62
7
  6
CONTINUOUS
 10
301.8987568618
 20
161.3674259412
  0
VERTEX
  8
0
 62
7
  6
CONTINUOUS
 10
301.9719547637
 20
161.3335089273
  0
VERTEX
  8
0
 62
7
  6
CONTINUOUS
 10
302.0450673038
 20
161.2902172679
  0
VERTEX
  8
0
 62
7
  6
CONTINUOUS
 10
302.1180475576
 20
161.2375811131
  0
SEQEND
  0
POLYLINE
  8
0
 62
7
  6
CONTINUOUS
 66
1
 70
0
  0
VERTEX
  8
0
 62
7
  6
CONTINUOUS
 10
303.306892779
 20
161.6936044744
  0
VERTEX
  8
0
 62
7
  6
CONTINUOUS
 10
303.2759563118
 20
161.5933115667
  0
VERTEX
  8
0
 62
7
  6
CONTINUOUS
 10
303.2431053733
 20
161.5091886736
  0
VERTEX
  8
0
 62
7
  6
CONTINUOUS
 10
303.2086141664
 20
161.4420647716
  0
VERTEX
  8
0
 62
7
  6
CONTINUOUS
 10
303.1728011288
 20
161.3926774353
  0
SEQEND
  0
POLYLINE
  8
0
 62
7
  6
CONTINUOUS
 66
1
 70
0
  0
VERTEX
  8
0
 62
7
  6
CONTINUOUS
 10
304.0147463555
 20
162.8899167418
  0
VERTEX
  8
0
 62
7
  6
CONTINUOUS
 10
303.8858634196
 20
162.7032890827
  0
VERTEX
  8
0
 62
7
  6
CONTINUOUS
 10
303.7669790234
 20
162.5277492156
  0
VERTEX
  8
0
 62
7
  6
CONTINUOUS
 10
303.6604144317
 20
162.3657301429
  0
VERTEX
  8
0
 62
7
  6
CONTINUOUS
 10
303.5673380525
 20
162.2182681735
  0
VERTEX
  8
0
 62
7
  6
CONTINUOUS
 10
303.4881463721
 20
162.085487632
  0
VERTEX
  8
0
 62
7
  6
CONTINUOUS
 10
303.4228503277
 20
161.9671283216
  0
VERTEX
  8
0
 62
7
  6
CONTINUOUS
 10
303.3710497895
 20
161.8623894294
  0
VERTEX
  8
0
 62
7
  6
CONTINUOUS
 10
303.3325839046
 20
161.7712471273
  0
VERTEX
  8
0
 62
7
  6
CONTINUOUS
 10
303.306892779
 20
161.6936044744
  0
SEQEND
  0
LINE
  8
0
 62
7
  6
CONTINUOUS
 10
304.2885199624
 20
163.2812352961
 11
304.0147463555
 21
162.8899167418
  0
LINE
  8
0
 62
7
  6
CONTINUOUS
 10
314.3252655955
 20
170.1643336119
 11
314.5985254859
 21
170.554913369
  0
POLYLINE
  8
0
 62
7
  6
CONTINUOUS
 66
1
 70
0
  0
VERTEX
  8
0
 62
7
  6
CONTINUOUS
 10
315.4409844292
 20
172.0528914727
  0
VERTEX
  8
0
 62
7
  6
CONTINUOUS
 10
315.4051837386
 20
172.0035246032
  0
VERTEX
  8
0
 62
7
  6
CONTINUOUS
 10
315.3706869189
 20
171.9363953631
  0
VERTEX
  8
0
 62
7
  6
CONTINUOUS
 10
315.337824937
 20
171.8522448802
  0
VERTEX
  8
0
 62
7
  6
CONTINUOUS
 10
315.306892779
 20
171.7519644336
  0
SEQEND
  0
POLYLINE
  8
0
 62
7
  6
CONTINUOUS
 66
1
 70
0
  0
VERTEX
  8
0
 62
7
  6
CONTINUOUS
 10
303.1728011288
 20
161.3926774353
  0
VERTEX
  8
0
 62
7
  6
CONTINUOUS
 10
303.0251690565
 20
161.2498469755
  0
VERTEX
  8
0
 62
7
  6
CONTINUOUS
 10
302.8758886725
 20
161.1469089602
  0
VERTEX
  8
0
 62
7
  6
CONTINUOUS
 10
302.7253159545
 20
161.0841696597
  0
VERTEX
  8
0
 62
7
  6
CONTINUOUS
 10
302.5660191035
 20
161.061784454
  0
SEQEND
  0
LINE
  8
0
 62
7
  6
CONTINUOUS
 10
294.306892779
 20
160.7781188334
 11
301.806892779
 21
160.7781188334
  0
LINE
  8
0
 62
7
  6
CONTINUOUS
 10
316.806892779
 20
160.7781188334
 11
324.306892779
 21
160.7781188334
  0
LINE
  8
0
 62
7
  6
CONTINUOUS
 10
302.5660072616
 20
161.061784454
 11
316.0477782964
 21
161.061784454
  0
LINE
  8
DEFAULT_1
 62
2
  6
CENTER
 10
292.306892779
 20
166.722784454
 11
329.306892779
 21
166.722784454
  0
POLYLINE
  8
0
 62
7
  6
CONTINUOUS
 66
1
 70
0
  0
VERTEX
  8
0
 62
7
  6
CONTINUOUS
 10
315.4409844292
 20
161.3926774353
  0
VERTEX
  8
0
 62
7
  6
CONTINUOUS
 10
315.5886165015
 20
161.2498469755
  0
VERTEX
  8
0
 62
7
  6
CONTINUOUS
 10
315.7378968855
 20
161.1469089602
  0
VERTEX
  8
0
 62
7
  6
CONTINUOUS
 10
315.8884696035
 20
161.0841696597
  0
VERTEX
  8
0
 62
7
  6
CONTINUOUS
 10
316.0477664545
 20
161.061784454
  0
SEQEND
  0
POLYLINE
  8
0
 62
7
  6
CONTINUOUS
 66
1
 70
0
  0
VERTEX
  8
0
 62
7
  6
CONTINUOUS
 10
303.1728011288
 20
172.0528914727
  0
VERTEX
  8
0
 62
7
  6
CONTINUOUS
 10
303.2086018194
 20
172.0035246032
  0
VERTEX
  8
0
 62
7
  6
CONTINUOUS
 10
303.2430986391
 20
171.9363953631
  0
VERTEX
  8
0
 62
7
  6
CONTINUOUS
 10
303.275960621
 20
171.8522448802
  0
VERTEX
  8
0
 62
7
  6
CONTINUOUS
 10
303.306892779
 20
171.7519644336
  0
SEQEND
  0
POLYLINE
  8
0
 62
7
  6
CONTINUOUS
 66
1
 70
0
  0
VERTEX
  8
0
 62
7
  6
CONTINUOUS
 10
303.306892779
 20
171.7519644336
  0
VERTEX
  8
0
 62
7
  6
CONTINUOUS
 10
303.332579712
 20
171.6743328541
  0
VERTEX
  8
0
 62
7
  6
CONTINUOUS
 10
303.3710483098
 20
171.5831826933
  0
VERTEX
  8
0
 62
7
  6
CONTINUOUS
 10
303.4228546228
 20
171.478432403
  0
VERTEX
  8
0
 62
7
  6
CONTINUOUS
 10
303.4881500631
 20
171.3600748618
  0
VERTEX
  8
0
 62
7
  6
CONTINUOUS
 10
303.5673340628
 20
171.2273072219
  0
VERTEX
  8
0
 62
7
  6
CONTINUOUS
 10
303.6604029254
 20
171.0798565904
  0
VERTEX
  8
0
 62
7
  6
CONTINUOUS
 10
303.7669725784
 20
170.9178293342
  0
VERTEX
  8
0
 62
7
  6
CONTINUOUS
 10
303.8858634858
 20
170.7422797286
  0
VERTEX
  8
0
 62
7
  6
CONTINUOUS
 10
304.0147380333
 20
170.555664135
  0
VERTEX
  8
0
 62
7
  6
CONTINUOUS
 10
304.2885199624
 20
170.1643336119
  0
SEQEND
  0
LINE
  8
0
 62
7
  6
CONTINUOUS
 10
316.806892779
 20
74.1324772077
 11
316.806892779
 21
78.6732333441
  0
LINE
  8
0
 62
7
  6
CONTINUOUS
 10
316.806892779
 20
83.8814598065
 11
316.806892779
 21
93.4419692113
  0
LINE
  8
0
 62
7
  6
CONTINUOUS
 10
316.806892779
 20
115.8277084446
 11
316.806892779
 21
127.8462403435
  0
LINE
  8
0
 62
7
  6
CONTINUOUS
 10
316.806892779
 20
160.7781188334
 11
316.806892779
 21
172.6674500746
  0
LINE
  8
0
 62
7
  6
CONTINUOUS
 10
316.806892779
 20
205.5993285646
 11
316.806892779
 21
217.6178604635
  0
LINE
  8
0
 62
7
  6
CONTINUOUS
 10
316.806892779
 20
240.0035996967
 11
316.806892779
 21
249.5641091015
  0
LINE
  8
0
 62
7
  6
CONTINUOUS
 10
316.806892779
 20
254.772335564
 11
316.806892779
 21
259.3130917004
  0
POLYLINE
  8
0
 62
7
  6
CONTINUOUS
 66
1
 70
0
  0
VERTEX
  8
0
 62
7
  6
CONTINUOUS
 10
314.5985254859
 20
170.554913369
  0
VERTEX
  8
0
 62
7
  6
CONTINUOUS
 10
314.7274622749
 20
170.7416083465
  0
VERTEX
  8
0
 62
7
  6
CONTINUOUS
 10
314.8463420324
 20
170.9171248378
  0
VERTEX
  8
0
 62
7
  6
CONTINUOUS
 10
314.9529282024
 20
171.0791526634
  0
VERTEX
  8
0
 62
7
  6
CONTINUOUS
 10
315.0460969784
 20
171.2267308326
  0
VERTEX
  8
0
 62
7
  6
CONTINUOUS
 10
315.1253772381
 20
171.359626132
  0
VERTEX
  8
0
 62
7
  6
CONTINUOUS
 10
315.1906942587
 20
171.4779815679
  0
VERTEX
  8
0
 62
7
  6
CONTINUOUS
 10
315.2424712061
 20
171.5826049891
  0
VERTEX
  8
0
 62
7
  6
CONTINUOUS
 10
315.2810261433
 20
171.6738585365
  0
VERTEX
  8
0
 62
7
  6
CONTINUOUS
 10
315.306892779
 20
171.7519644336
  0
SEQEND
  0
POLYLINE
  8
0
 62
7
  6
CONTINUOUS
 66
1
 70
0
  0
VERTEX
  8
0
 62
7
  6
CONTINUOUS
 10
316.7150286962
 20
161.3674259412
  0
VERTEX
  8
0
 62
7
  6
CONTINUOUS
 10
316.6418307943
 20
161.3335089273
  0
VERTEX
  8
0
 62
7
  6
CONTINUOUS
 10
316.5687182542
 20
161.2902172679
  0
VERTEX
  8
0
 62
7
  6
CONTINUOUS
 10
316.4957380004
 20
161.2375811131
  0
SEQEND
  0
POLYLINE
  8
0
 62
7
  6
CONTINUOUS
 66
1
 70
0
  0
VERTEX
  8
0
 62
7
  6
CONTINUOUS
 10
316.0477670003
 20
172.383784454
  0
VERTEX
  8
0
 62
7
  6
CONTINUOUS
 10
315.8885355289
 20
172.3614178148
  0
VERTEX
  8
0
 62
7
  6
CONTINUOUS
 10
315.7379320524
 20
172.2986793797
  0
VERTEX
  8
0
 62
7
  6
CONTINUOUS
 10
315.5886194159
 20
172.1957243452
  0
VERTEX
  8
0
 62
7
  6
CONTINUOUS
 10
315.4409844292
 20
172.0528914727
  0
SEQEND
  0
LINE
  8
0
 62
7
  6
CONTINUOUS
 10
302.5660073381
 20
172.383784454
 11
316.0477782199
 21
172.383784454
  0
LINE
  8
0
 62
7
  6
CONTINUOUS
 10
294.306892779
 20
172.6674500746
 11
301.806892779
 21
172.6674500746
  0
LINE
  8
0
 62
7
  6
CONTINUOUS
 10
316.806892779
 20
172.6674500746
 11
324.306892779
 21
172.6674500746
  0
POLYLINE
  8
0
 62
7
  6
CONTINUOUS
 66
1
 70
0
  0
VERTEX
  8
0
 62
7
  6
CONTINUOUS
 10
302.5660185577
 20
172.383784454
  0
VERTEX
  8
0
 62
7
  6
CONTINUOUS
 10
302.7252500291
 20
172.3614178148
  0
VERTEX
  8
0
 62
7
  6
CONTINUOUS
 10
302.8758535056
 20
172.2986793797
  0
VERTEX
  8
0
 62
7
  6
CONTINUOUS
 10
303.0251661421
 20
172.1957243452
  0
VERTEX
  8
0
 62
7
  6
CONTINUOUS
 10
303.1728011288
 20
172.0528914727
  0
SEQEND
  0
POLYLINE
  8
0
 62
7
  6
CONTINUOUS
 66
1
 70
0
  0
VERTEX
  8
0
 62
7
  6
CONTINUOUS
 10
316.7150286962
 20
172.0781429669
  0
VERTEX
  8
0
 62
7
  6
CONTINUOUS
 10
316.7660346462
 20
172.0569332179
  0
VERTEX
  8
0
 62
7
  6
CONTINUOUS
 10
316.7966818019
 20
172.0422660215
  0
VERTEX
  8
0
 62
7
  6
CONTINUOUS
 10
316.806892779
 20
172.0343173099
  0
SEQEND
  0
POLYLINE
  8
0
 62
7
  6
CONTINUOUS
 66
1
 70
0
  0
VERTEX
  8
0
 62
7
  6
CONTINUOUS
 10
316.4957380004
 20
172.207987795
  0
VERTEX
  8
0
 62
7
  6
CONTINUOUS
 10
316.3440429587
 20
172.3069097841
  0
VERTEX
  8
0
 62
7
  6
CONTINUOUS
 10
316.1919961789
 20
172.365547243
  0
VERTEX
  8
0
 62
7
  6
CONTINUOUS
 10
316.0477670003
 20
172.383784454
  0
SEQEND
  0
POLYLINE
  8
0
 62
7
  6
CONTINUOUS
 66
1
 70
0
  0
VERTEX
  8
0
 62
7
  6
CONTINUOUS
 10
316.4957380004
 20
172.207987795
  0
VERTEX
  8
0
 62
7
  6
CONTINUOUS
 10
316.5687179879
 20
172.155351815
  0
VERTEX
  8
0
 62
7
  6
CONTINUOUS
 10
316.6418300302
 20
172.1120603839
  0
VERTEX
  8
0
 62
7
  6
CONTINUOUS
 10
316.7150286962
 20
172.0781429669
  0
SEQEND
  0
POLYLINE
  8
0
 62
7
  6
CONTINUOUS
 66
1
 70
0
  0
VERTEX
  8
0
 62
7
  6
CONTINUOUS
 10
315.306892779
 20
161.6936044744
  0
VERTEX
  8
0
 62
7
  6
CONTINUOUS
 10
315.2810234232
 20
161.7717175461
  0
VERTEX
  8
0
 62
7
  6
CONTINUOUS
 10
315.2424713702
 20
161.8629635627
  0
VERTEX
  8
0
 62
7
  6
CONTINUOUS
 10
315.1906992502
 20
161.967577834
  0
VERTEX
  8
0
 62
7
  6
CONTINUOUS
 10
315.1253815948
 20
162.0859352071
  0
VERTEX
  8
0
 62
7
  6
CONTINUOUS
 10
315.0460936528
 20
162.2188434817
  0
VERTEX
  8
0
 62
7
  6
CONTINUOUS
 10
314.9529180015
 20
162.3664320447
  0
VERTEX
  8
0
 62
7
  6
CONTINUOUS
 10
314.8463371575
 20
162.5284513623
  0
VERTEX
  8
0
 62
7
  6
CONTINUOUS
 10
314.7274636199
 20
162.7039585977
  0
VERTEX
  8
0
 62
7
  6
CONTINUOUS
 10
314.5985172396
 20
162.8906673981
  0
VERTEX
  8
0
 62
7
  6
CONTINUOUS
 10
314.3252655955
 20
163.2812352961
  0
SEQEND
  0
POLYLINE
  8
0
 62
7
  6
CONTINUOUS
 66
1
 70
0
  0
VERTEX
  8
0
 62
7
  6
CONTINUOUS
 10
315.306892779
 20
161.6936044744
  0
VERTEX
  8
0
 62
7
  6
CONTINUOUS
 10
315.3378292462
 20
161.5933115667
  0
VERTEX
  8
0
 62
7
  6
CONTINUOUS
 10
315.3706801847
 20
161.5091886736
  0
VERTEX
  8
0
 62
7
  6
CONTINUOUS
 10
315.4051713916
 20
161.4420647716
  0
VERTEX
  8
0
 62
7
  6
CONTINUOUS
 10
315.4409844292
 20
161.3926774353
  0
SEQEND
  0
POLYLINE
  8
0
 62
7
  6
CONTINUOUS
 66
1
 70
0
  0
VERTEX
  8
0
 62
7
  6
CONTINUOUS
 10
316.806892779
 20
208.418015691
  0
VERTEX
  8
0
 62
7
  6
CONTINUOUS
 10
316.7966818019
 20
208.5708576732
  0
VERTEX
  8
0
 62
7
  6
CONTINUOUS
 10
316.7660346462
 20
208.7172531509
  0
VERTEX
  8
0
 62
7
  6
CONTINUOUS
 10
316.7150286962
 20
208.856610944
  0
SEQEND
  0
POLYLINE
  8
0
 62
7
  6
CONTINUOUS
 66
1
 70
0
  0
VERTEX
  8
0
 62
7
  6
CONTINUOUS
 10
316.806892779
 20
244.2525762456
  0
VERTEX
  8
0
 62
7
  6
CONTINUOUS
 10
316.7966818019
 20
244.525255036
  0
VERTEX
  8
0
 62
7
  6
CONTINUOUS
 10
316.7660346462
 20
244.7934866378
  0
VERTEX
  8
0
 62
7
  6
CONTINUOUS
 10
316.7150286962
 20
245.0560711649
  0
SEQEND
  0
POLYLINE
  8
0
 62
7
  6
CONTINUOUS
 66
1
 70
0
  0
VERTEX
  8
0
 62
7
  6
CONTINUOUS
 10
316.806892779
 20
259.3130917004
  0
VERTEX
  8
0
 62
7
  6
CONTINUOUS
 10
316.7966818019
 20
259.6325432372
  0
VERTEX
  8
0
 62
7
  6
CONTINUOUS
 10
316.7660346462
 20
259.9507385219
  0
VERTEX
  8
0
 62
7
  6
CONTINUOUS
 10
316.7150286962
 20
260.266190471
  0
SEQEND
  0
LINE
  8
0
 62
7
  6
CONTINUOUS
 10
324.306892779
 20
78.472784454
 11
324.306892779
 21
254.972784454
  0
LINE
  8
0
 62
7
  6
CONTINUOUS
 10
316.7966818019
 20
73.8130256708
 11
316.806892779
 21
74.1324772077
  0
POLYLINE
  8
0
 62
7
  6
CONTINUOUS
 66
1
 70
0
  0
VERTEX
  8
0
 62
7
  6
CONTINUOUS
 10
316.806892779
 20
83.8814598065
  0
VERTEX
  8
0
 62
7
  6
CONTINUOUS
 10
316.7966818019
 20
83.6008323046
  0
VERTEX
  8
0
 62
7
  6
CONTINUOUS
 10
316.7660346462
 20
83.3179335064
  0
VERTEX
  8
0
 62
7
  6
CONTINUOUS
 10
316.7150286962
 20
83.0341392304
  0
SEQEND
  0
POLYLINE
  8
0
 62
7
  6
CONTINUOUS
 66
1
 70
0
  0
VERTEX
  8
0
 62
7
  6
CONTINUOUS
 10
316.806892779
 20
115.8277084446
  0
VERTEX
  8
0
 62
7
  6
CONTINUOUS
 10
316.7966818019
 20
115.66109889
  0
VERTEX
  8
0
 62
7
  6
CONTINUOUS
 10
316.7660346462
 20
115.489299083
  0
VERTEX
  8
0
 62
7
  6
CONTINUOUS
 10
316.7150286962
 20
115.313204927
  0
SEQEND
  0
POLYLINE
  8
0
 62
7
  6
CONTINUOUS
 66
1
 70
0
  0
VERTEX
  8
0
 62
7
  6
CONTINUOUS
 10
316.806892779
 20
161.4112515981
  0
VERTEX
  8
0
 62
7
  6
CONTINUOUS
 10
316.7966818019
 20
161.4033028865
  0
VERTEX
  8
0
 62
7
  6
CONTINUOUS
 10
316.7660346462
 20
161.3886356902
  0
VERTEX
  8
0
 62
7
  6
CONTINUOUS
 10
316.7150286962
 20
161.3674259412
  0
SEQEND
  0
POLYLINE
  8
0
 62
7
  6
CONTINUOUS
 66
1
 70
0
  0
VERTEX
  8
0
 62
7
  6
CONTINUOUS
 10
315.306892779
 20
212.7751101221
  0
VERTEX
  8
0
 62
7
  6
CONTINUOUS
 10
315.2810234232
 20
212.8964262426
  0
VERTEX
  8
0
 62
7
  6
CONTINUOUS
 10
315.2424713702
 20
213.029855014
  0
VERTEX
  8
0
 62
7
  6
CONTINUOUS
 10
315.1906992502
 20
213.1743041617
  0
VERTEX
  8
0
 62
7
  6
CONTINUOUS
 10
315.1253815948
 20
213.3290150463
  0
VERTEX
  8
0
 62
7
  6
CONTINUOUS
 10
315.0460936528
 20
213.4937971905
  0
VERTEX
  8
0
 62
7
  6
CONTINUOUS
 10
314.9529180015
 20
213.6675676799
  0
VERTEX
  8
0
 62
7
  6
CONTINUOUS
 10
314.8463371575
 20
213.8488365199
  0
VERTEX
  8
0
 62
7
  6
CONTINUOUS
 10
314.7274636199
 20
214.0354240788
  0
VERTEX
  8
0
 62
7
  6
CONTINUOUS
 10
314.5985172396
 20
214.2239373289
  0
VERTEX
  8
0
 62
7
  6
CONTINUOUS
 10
314.463115689
 20
214.4096772737
  0
VERTEX
  8
0
 62
7
  6
CONTINUOUS
 10
314.3252655955
 20
214.5882057495
  0
SEQEND
  0
POLYLINE
  8
0
 62
7
  6
CONTINUOUS
 66
1
 70
0
  0
VERTEX
  8
0
 62
7
  6
CONTINUOUS
 10
315.306892779
 20
212.7751101221
  0
VERTEX
  8
0
 62
7
  6
CONTINUOUS
 10
315.3378292462
 20
212.6060470802
  0
VERTEX
  8
0
 62
7
  6
CONTINUOUS
 10
315.3706801847
 20
212.446418117
  0
VERTEX
  8
0
 62
7
  6
CONTINUOUS
 10
315.4051713916
 20
212.2976907924
  0
VERTEX
  8
0
 62
7
  6
CONTINUOUS
 10
315.4409844292
 20
212.1613625626
  0
SEQEND
  0
POLYLINE
  8
0
 62
7
  6
CONTINUOUS
 66
1
 70
0
  0
VERTEX
  8
0
 62
7
  6
CONTINUOUS
 10
316.7150286962
 20
73.179378437
  0
VERTEX
  8
0
 62
7
  6
CONTINUOUS
 10
316.7660346462
 20
73.4948303861
  0
VERTEX
  8
0
 62
7
  6
CONTINUOUS
 10
316.7966818019
 20
73.8130256708
  0
SEQEND
  0
POLYLINE
  8
0
 62
7
  6
CONTINUOUS
 66
1
 70
0
  0
VERTEX
  8
0
 62
7
  6
CONTINUOUS
 10
315.4409844292
 20
82.6907515276
  0
VERTEX
  8
0
 62
7
  6
CONTINUOUS
 10
315.4051837386
 20
82.5040776959
  0
VERTEX
  8
0
 62
7
  6
CONTINUOUS
 10
315.3706869189
 20
82.31357035
  0
VERTEX
  8
0
 62
7
  6
CONTINUOUS
 10
315.337824937
 20
82.1211434769
  0
VERTEX
  8
0
 62
7
  6
CONTINUOUS
 10
315.306892779
 20
81.9286366106
  0
SEQEND
  0
POLYLINE
  8
0
 62
7
  6
CONTINUOUS
 66
1
 70
0
  0
VERTEX
  8
0
 62
7
  6
CONTINUOUS
 10
316.7150286962
 20
88.3894977432
  0
VERTEX
  8
0
 62
7
  6
CONTINUOUS
 10
316.7660346462
 20
88.6520822703
  0
VERTEX
  8
0
 62
7
  6
CONTINUOUS
 10
316.7966818019
 20
88.920313872
  0
VERTEX
  8
0
 62
7
  6
CONTINUOUS
 10
316.806892779
 20
89.1929926624
  0
SEQEND
  0
POLYLINE
  8
0
 62
7
  6
CONTINUOUS
 66
1
 70
0
  0
VERTEX
  8
0
 62
7
  6
CONTINUOUS
 10
315.4409844292
 20
121.2842063454
  0
VERTEX
  8
0
 62
7
  6
CONTINUOUS
 10
315.4051837386
 20
121.1479281831
  0
VERTEX
  8
0
 62
7
  6
CONTINUOUS
 10
315.3706869189
 20
120.9991816308
  0
VERTEX
  8
0
 62
7
  6
CONTINUOUS
 10
315.337824937
 20
120.8394996198
  0
VERTEX
  8
0
 62
7
  6
CONTINUOUS
 10
315.306892779
 20
120.6704587859
  0
SEQEND
  0
POLYLINE
  8
0
 62
7
  6
CONTINUOUS
 66
1
 70
0
  0
VERTEX
  8
0
 62
7
  6
CONTINUOUS
 10
316.7150286962
 20
124.588957964
  0
VERTEX
  8
0
 62
7
  6
CONTINUOUS
 10
316.7660346462
 20
124.7283157571
  0
VERTEX
  8
0
 62
7
  6
CONTINUOUS
 10
316.7966818019
 20
124.8747112348
  0
VERTEX
  8
0
 62
7
  6
CONTINUOUS
 10
316.806892779
 20
125.0275532171
  0
SEQEND
  0
POLYLINE
  8
0
 62
7
  6
CONTINUOUS
 66
1
 70
0
  0
VERTEX
  8
0
 62
7
  6
CONTINUOUS
 10
316.4957380004
 20
218.8060848299
  0
VERTEX
  8
0
 62
7
  6
CONTINUOUS
 10
316.3440429587
 20
219.279736422
  0
VERTEX
  8
0
 62
7
  6
CONTINUOUS
 10
316.1919961789
 20
219.7205774119
  0
VERTEX
  8
0
 62
7
  6
CONTINUOUS
 10
316.0400236902
 20
220.127377407
  0
VERTEX
  8
0
 62
7
  6
CONTINUOUS
 10
315.8885355289
 20
220.4990248185
  0
VERTEX
  8
0
 62
7
  6
CONTINUOUS
 10
315.7379320524
 20
220.8345086304
  0
VERTEX
  8
0
 62
7
  6
CONTINUOUS
 10
315.5886194159
 20
221.1328925163
  0
VERTEX
  8
0
 62
7
  6
CONTINUOUS
 10
315.4409844292
 20
221.3933787287
  0
SEQEND
  0
POLYLINE
  8
0
 62
7
  6
CONTINUOUS
 66
1
 70
0
  0
VERTEX
  8
0
 62
7
  6
CONTINUOUS
 10
316.4957380004
 20
218.8060848299
  0
VERTEX
  8
0
 62
7
  6
CONTINUOUS
 10
316.5687179879
 20
218.5739835176
  0
VERTEX
  8
0
 62
7
  6
CONTINUOUS
 10
316.6418300302
 20
218.3493615844
  0
VERTEX
  8
0
 62
7
  6
CONTINUOUS
 10
316.7150286962
 20
218.132363981
  0
SEQEND
  0
POLYLINE
  8
0
 62
7
  6
CONTINUOUS
 66
1
 70
0
  0
VERTEX
  8
0
 62
7
  6
CONTINUOUS
 10
315.4409844292
 20
212.1613625626
  0
VERTEX
  8
0
 62
7
  6
CONTINUOUS
 10
315.5886165015
 20
211.6534922218
  0
VERTEX
  8
0
 62
7
  6
CONTINUOUS
 10
315.7378968855
 20
211.1768833032
  0
VERTEX
  8
0
 62
7
  6
CONTINUOUS
 10
315.8884696035
 20
210.7328118267
  0
VERTEX
  8
0
 62
7
  6
CONTINUOUS
 10
316.0399502276
 20
210.3225193165
  0
VERTEX
  8
0
 62
7
  6
CONTINUOUS
 10
316.1919372157
 20
209.9471641594
  0
VERTEX
  8
0
 62
7
  6
CONTINUOUS
 10
316.3440119801
 20
209.6078130703
  0
VERTEX
  8
0
 62
7
  6
CONTINUOUS
 10
316.4957380004
 20
209.3054339535
  0
SEQEND
  0
POLYLINE
  8
0
 62
7
  6
CONTINUOUS
 66
1
 70
0
  0
VERTEX
  8
0
 62
7
  6
CONTINUOUS
 10
316.7150286962
 20
218.132363981
  0
VERTEX
  8
0
 62
7
  6
CONTINUOUS
 10
316.7660346462
 20
217.9562698251
  0
VERTEX
  8
0
 62
7
  6
CONTINUOUS
 10
316.7966818019
 20
217.784470018
  0
VERTEX
  8
0
 62
7
  6
CONTINUOUS
 10
316.806892779
 20
217.6178604635
  0
SEQEND
  0
POLYLINE
  8
0
 62
7
  6
CONTINUOUS
 66
1
 70
0
  0
VERTEX
  8
0
 62
7
  6
CONTINUOUS
 10
315.4409844292
 20
250.7548173805
  0
VERTEX
  8
0
 62
7
  6
CONTINUOUS
 10
315.5886165015
 20
250.0179906065
  0
VERTEX
  8
0
 62
7
  6
CONTINUOUS
 10
315.7378968855
 20
249.2954177594
  0
VERTEX
  8
0
 62
7
  6
CONTINUOUS
 10
315.8884696035
 20
248.5890027003
  0
VERTEX
  8
0
 62
7
  6
CONTINUOUS
 10
316.0399502276
 20
247.90068669
  0
VERTEX
  8
0
 62
7
  6
CONTINUOUS
 10
316.1919372157
 20
247.2323839145
  0
VERTEX
  8
0
 62
7
  6
CONTINUOUS
 10
316.3440119801
 20
246.5859743003
  0
VERTEX
  8
0
 62
7
  6
CONTINUOUS
 10
316.5687182542
 20
245.6665598514
  0
SEQEND
  0
POLYLINE
  8
0
 62
7
  6
CONTINUOUS
 66
1
 70
0
  0
VERTEX
  8
0
 62
7
  6
CONTINUOUS
 10
315.306892779
 20
251.5169322974
  0
VERTEX
  8
0
 62
7
  6
CONTINUOUS
 10
315.2810234232
 20
251.6489449102
  0
VERTEX
  8
0
 62
7
  6
CONTINUOUS
 10
315.2424713702
 20
251.7888043049
  0
VERTEX
  8
0
 62
7
  6
CONTINUOUS
 10
315.1906992502
 20
251.9343832964
  0
VERTEX
  8
0
 62
7
  6
CONTINUOUS
 10
315.1253815948
 20
252.083993036
  0
VERTEX
  8
0
 62
7
  6
CONTINUOUS
 10
315.0460936528
 20
252.2364958074
  0
VERTEX
  8
0
 62
7
  6
CONTINUOUS
 10
314.9529180015
 20
252.3898865608
  0
VERTEX
  8
0
 62
7
  6
CONTINUOUS
 10
314.8463371575
 20
252.5418340839
  0
VERTEX
  8
0
 62
7
  6
CONTINUOUS
 10
314.7274636199
 20
252.6895059807
  0
VERTEX
  8
0
 62
7
  6
CONTINUOUS
 10
314.5985172396
 20
252.8293117074
  0
VERTEX
  8
0
 62
7
  6
CONTINUOUS
 10
314.463115689
 20
252.9571334367
  0
VERTEX
  8
0
 62
7
  6
CONTINUOUS
 10
314.3252655955
 20
253.0696752214
  0
SEQEND
  0
POLYLINE
  8
0
 62
7
  6
CONTINUOUS
 66
1
 70
0
  0
VERTEX
  8
0
 62
7
  6
CONTINUOUS
 10
316.7150286962
 20
250.4114296777
  0
VERTEX
  8
0
 62
7
  6
CONTINUOUS
 10
316.7660346462
 20
250.1276354016
  0
VERTEX
  8
0
 62
7
  6
CONTINUOUS
 10
316.7966818019
 20
249.8447366035
  0
VERTEX
  8
0
 62
7
  6
CONTINUOUS
 10
316.806892779
 20
249.5641091015
  0
SEQEND
  0
POLYLINE
  8
0
 62
7
  6
CONTINUOUS
 66
1
 70
0
  0
VERTEX
  8
0
 62
7
  6
CONTINUOUS
 10
315.306892779
 20
251.5169322974
  0
VERTEX
  8
0
 62
7
  6
CONTINUOUS
 10
315.3378292462
 20
251.324399427
  0
VERTEX
  8
0
 62
7
  6
CONTINUOUS
 10
315.3706801847
 20
251.1320368455
  0
VERTEX
  8
0
 62
7
  6
CONTINUOUS
 10
315.4051713916
 20
250.9415574647
  0
VERTEX
  8
0
 62
7
  6
CONTINUOUS
 10
315.4409844292
 20
250.7548173805
  0
SEQEND
  0
LINE
  8
0
 62
7
  6
CONTINUOUS
 10
315.4409844292
 20
66.6136120707
 11
315.306892779
 21
65.9073378728
  0
LINE
  8
0
 62
7
  6
CONTINUOUS
 10
315.7379320524
 20
68.1570694103
 11
315.4409844292
 21
66.6136120707
  0
LINE
  8
0
 62
7
  6
CONTINUOUS
 10
316.0400236902
 20
69.718646826
 11
315.7379320524
 21
68.1570694103
  0
LINE
  8
0
 62
7
  6
CONTINUOUS
 10
315.306892779
 20
65.7819754586
 11
316.7150286962
 21
73.0262067467
  0
LINE
  8
0
 62
7
  6
CONTINUOUS
 10
316.3440429587
 20
71.2808693056
 11
316.0400236902
 21
69.718646826
  0
LINE
  8
0
 62
7
  6
CONTINUOUS
 10
316.3440429587
 20
71.2808693056
 11
316.7150286962
 21
73.179378437
  0
POLYLINE
  8
0
 62
7
  6
CONTINUOUS
 66
1
 70
0
  0
VERTEX
  8
0
 62
7
  6
CONTINUOUS
 10
316.7150286962
 20
83.0341392304
  0
VERTEX
  8
0
 62
7
  6
CONTINUOUS
 10
316.6418307943
 20
82.6922093646
  0
VERTEX
  8
0
 62
7
  6
CONTINUOUS
 10
316.5687182542
 20
82.3464418706
  0
SEQEND
  0
POLYLINE
  8
0
 62
7
  6
CONTINUOUS
 66
1
 70
0
  0
VERTEX
  8
0
 62
7
  6
CONTINUOUS
 10
316.3440429587
 20
86.8597240147
  0
VERTEX
  8
0
 62
7
  6
CONTINUOUS
 10
316.1919961789
 20
86.2134399398
  0
VERTEX
  8
0
 62
7
  6
CONTINUOUS
 10
316.0400236902
 20
85.5452106273
  0
VERTEX
  8
0
 62
7
  6
CONTINUOUS
 10
315.8885355289
 20
84.8568706244
  0
VERTEX
  8
0
 62
7
  6
CONTINUOUS
 10
315.7379320524
 20
84.1503187469
  0
VERTEX
  8
0
 62
7
  6
CONTINUOUS
 10
315.5886194159
 20
83.4275926271
  0
VERTEX
  8
0
 62
7
  6
CONTINUOUS
 10
315.4409844292
 20
82.6907515276
  0
SEQEND
  0
POLYLINE
  8
0
 62
7
  6
CONTINUOUS
 66
1
 70
0
  0
VERTEX
  8
0
 62
7
  6
CONTINUOUS
 10
316.3440429587
 20
86.8597240147
  0
VERTEX
  8
0
 62
7
  6
CONTINUOUS
 10
316.5687179879
 20
87.7790079644
  0
VERTEX
  8
0
 62
7
  6
CONTINUOUS
 10
316.6418300302
 20
88.0814817031
  0
VERTEX
  8
0
 62
7
  6
CONTINUOUS
 10
316.7150286962
 20
88.3894977432
  0
SEQEND
  0
POLYLINE
  8
0
 62
7
  6
CONTINUOUS
 66
1
 70
0
  0
VERTEX
  8
0
 62
7
  6
CONTINUOUS
 10
315.4409844292
 20
77.3606445089
  0
VERTEX
  8
0
 62
7
  6
CONTINUOUS
 10
315.5886165015
 20
77.954640823
  0
VERTEX
  8
0
 62
7
  6
CONTINUOUS
 10
315.7378968855
 20
78.5742756548
  0
VERTEX
  8
0
 62
7
  6
CONTINUOUS
 10
315.8884696035
 20
79.2179514135
  0
VERTEX
  8
0
 62
7
  6
CONTINUOUS
 10
316.0399502276
 20
79.8839359605
  0
VERTEX
  8
0
 62
7
  6
CONTINUOUS
 10
316.1919372157
 20
80.5704073084
  0
VERTEX
  8
0
 62
7
  6
CONTINUOUS
 10
316.3440119801
 20
81.2754532088
  0
VERTEX
  8
0
 62
7
  6
CONTINUOUS
 10
316.5687182542
 20
82.3464418706
  0
SEQEND
  0
POLYLINE
  8
0
 62
7
  6
CONTINUOUS
 66
1
 70
0
  0
VERTEX
  8
0
 62
7
  6
CONTINUOUS
 10
316.7150286962
 20
115.313204927
  0
VERTEX
  8
0
 62
7
  6
CONTINUOUS
 10
316.6418307943
 20
115.0962096299
  0
VERTEX
  8
0
 62
7
  6
CONTINUOUS
 10
316.5687182542
 20
114.8715862229
  0
VERTEX
  8
0
 62
7
  6
CONTINUOUS
 10
316.4957380004
 20
114.6394840782
  0
SEQEND
  0
POLYLINE
  8
0
 62
7
  6
CONTINUOUS
 66
1
 70
0
  0
VERTEX
  8
0
 62
7
  6
CONTINUOUS
 10
316.4957380004
 20
124.1401349546
  0
VERTEX
  8
0
 62
7
  6
CONTINUOUS
 10
316.3440429587
 20
123.8378212736
  0
VERTEX
  8
0
 62
7
  6
CONTINUOUS
 10
316.1919961789
 20
123.4985433416
  0
VERTEX
  8
0
 62
7
  6
CONTINUOUS
 10
316.0400236902
 20
123.123239779
  0
VERTEX
  8
0
 62
7
  6
CONTINUOUS
 10
315.8885355289
 20
122.7129435557
  0
VERTEX
  8
0
 62
7
  6
CONTINUOUS
 10
315.7379320524
 20
122.2687935867
  0
VERTEX
  8
0
 62
7
  6
CONTINUOUS
 10
315.5886194159
 20
121.79208635
  0
VERTEX
  8
0
 62
7
  6
CONTINUOUS
 10
315.4409844292
 20
121.2842063454
  0
SEQEND
  0
POLYLINE
  8
0
 62
7
  6
CONTINUOUS
 66
1
 70
0
  0
VERTEX
  8
0
 62
7
  6
CONTINUOUS
 10
316.4957380004
 20
124.1401349546
  0
VERTEX
  8
0
 62
7
  6
CONTINUOUS
 10
316.5687179879
 20
124.2810680751
  0
VERTEX
  8
0
 62
7
  6
CONTINUOUS
 10
316.6418300302
 20
124.4307070502
  0
VERTEX
  8
0
 62
7
  6
CONTINUOUS
 10
316.7150286962
 20
124.588957964
  0
SEQEND
  0
POLYLINE
  8
0
 62
7
  6
CONTINUOUS
 66
1
 70
0
  0
VERTEX
  8
0
 62
7
  6
CONTINUOUS
 10
316.7150286962
 20
208.856610944
  0
VERTEX
  8
0
 62
7
  6
CONTINUOUS
 10
316.6418307943
 20
209.0148602499
  0
VERTEX
  8
0
 62
7
  6
CONTINUOUS
 10
316.5687182542
 20
209.1645003033
  0
VERTEX
  8
0
 62
7
  6
CONTINUOUS
 10
316.4957380004
 20
209.3054339535
  0
SEQEND
  0
POLYLINE
  8
0
 62
7
  6
CONTINUOUS
 66
1
 70
0
  0
VERTEX
  8
0
 62
7
  6
CONTINUOUS
 10
315.4409844292
 20
256.0849243991
  0
VERTEX
  8
0
 62
7
  6
CONTINUOUS
 10
315.4051837386
 20
256.2222313613
  0
VERTEX
  8
0
 62
7
  6
CONTINUOUS
 10
315.3706869189
 20
256.3456094672
  0
VERTEX
  8
0
 62
7
  6
CONTINUOUS
 10
315.337824937
 20
256.4538858573
  0
VERTEX
  8
0
 62
7
  6
CONTINUOUS
 10
315.306892779
 20
256.546112277
  0
SEQEND
  0
POLYLINE
  8
0
 62
7
  6
CONTINUOUS
 66
1
 70
0
  0
VERTEX
  8
0
 62
7
  6
CONTINUOUS
 10
315.306892779
 20
267.5382310353
  0
VERTEX
  8
0
 62
7
  6
CONTINUOUS
 10
315.2810234232
 20
267.6455674673
  0
VERTEX
  8
0
 62
7
  6
CONTINUOUS
 10
315.2424713702
 20
267.7543822734
  0
VERTEX
  8
0
 62
7
  6
CONTINUOUS
 10
315.1906992502
 20
267.8620833356
  0
VERTEX
  8
0
 62
7
  6
CONTINUOUS
 10
315.1253815948
 20
267.9665041212
  0
VERTEX
  8
0
 62
7
  6
CONTINUOUS
 10
315.0460936528
 20
268.0658645254
  0
VERTEX
  8
0
 62
7
  6
CONTINUOUS
 10
314.9529180015
 20
268.1577746143
  0
VERTEX
  8
0
 62
7
  6
CONTINUOUS
 10
314.8463371575
 20
268.2396866044
  0
VERTEX
  8
0
 62
7
  6
CONTINUOUS
 10
314.7274636199
 20
268.3088742736
  0
VERTEX
  8
0
 62
7
  6
CONTINUOUS
 10
314.5985172396
 20
268.3625116453
  0
VERTEX
  8
0
 62
7
  6
CONTINUOUS
 10
314.463115689
 20
268.3981654299
  0
VERTEX
  8
0
 62
7
  6
CONTINUOUS
 10
314.3252655955
 20
268.4145650432
  0
SEQEND
  0
POLYLINE
  8
0
 62
7
  6
CONTINUOUS
 66
1
 70
0
  0
VERTEX
  8
0
 62
7
  6
CONTINUOUS
 10
316.7150286962
 20
245.0560711649
  0
VERTEX
  8
0
 62
7
  6
CONTINUOUS
 10
316.6418307943
 20
245.3640840168
  0
VERTEX
  8
0
 62
7
  6
CONTINUOUS
 10
316.5687182542
 20
245.6665598514
  0
SEQEND
  0
POLYLINE
  8
0
 62
7
  6
CONTINUOUS
 66
1
 70
0
  0
VERTEX
  8
0
 62
7
  6
CONTINUOUS
 10
316.3440429587
 20
252.1699702234
  0
VERTEX
  8
0
 62
7
  6
CONTINUOUS
 10
316.1919961789
 20
252.8748917572
  0
VERTEX
  8
0
 62
7
  6
CONTINUOUS
 10
316.0400236902
 20
253.5613055434
  0
VERTEX
  8
0
 62
7
  6
CONTINUOUS
 10
315.8885355289
 20
254.2273316445
  0
VERTEX
  8
0
 62
7
  6
CONTINUOUS
 10
315.7379320524
 20
254.8711450869
  0
VERTEX
  8
0
 62
7
  6
CONTINUOUS
 10
315.5886194159
 20
255.4909161721
  0
VERTEX
  8
0
 62
7
  6
CONTINUOUS
 10
315.4409844292
 20
256.0849243991
  0
SEQEND
  0
POLYLINE
  8
0
 62
7
  6
CONTINUOUS
 66
1
 70
0
  0
VERTEX
  8
0
 62
7
  6
CONTINUOUS
 10
316.3440429587
 20
252.1699702234
  0
VERTEX
  8
0
 62
7
  6
CONTINUOUS
 10
316.5687179879
 20
251.0991283046
  0
VERTEX
  8
0
 62
7
  6
CONTINUOUS
 10
316.6418300302
 20
250.7533631349
  0
VERTEX
  8
0
 62
7
  6
CONTINUOUS
 10
316.7150286962
 20
250.4114296777
  0
SEQEND
  0
LINE
  8
0
 62
7
  6
CONTINUOUS
 10
316.7150286962
 20
260.266190471
 11
316.3440119801
 21
262.1648583061
  0
LINE
  8
0
 62
7
  6
CONTINUOUS
 10
315.306892779
 20
267.6635934494
 11
316.7150286962
 21
260.4193621613
  0
LINE
  8
0
 62
7
  6
CONTINUOUS
 10
316.0399502276
 20
263.7273007161
 11
316.3440119801
 21
262.1648583061
  0
LINE
  8
0
 62
7
  6
CONTINUOUS
 10
315.7378968855
 20
265.2886818044
 11
316.0399502276
 21
263.7273007161
  0
POLYLINE
  8
0
 62
7
  6
CONTINUOUS
 66
1
 70
0
  0
VERTEX
  8
0
 62
7
  6
CONTINUOUS
 10
315.306892779
 20
267.5382310353
  0
VERTEX
  8
0
 62
7
  6
CONTINUOUS
 10
315.3378292462
 20
267.3738173633
  0
VERTEX
  8
0
 62
7
  6
CONTINUOUS
 10
315.7378968855
 20
265.2886818044
  0
SEQEND
  0
POLYLINE
  8
0
 62
7
  6
CONTINUOUS
 66
1
 70
0
  0
VERTEX
  8
0
 62
7
  6
CONTINUOUS
 10
315.306892779
 20
76.899456631
  0
VERTEX
  8
0
 62
7
  6
CONTINUOUS
 10
315.3378292462
 20
76.9916965938
  0
VERTEX
  8
0
 62
7
  6
CONTINUOUS
 10
315.3706801847
 20
77.0999362821
  0
VERTEX
  8
0
 62
7
  6
CONTINUOUS
 10
315.4051713916
 20
77.2232917609
  0
VERTEX
  8
0
 62
7
  6
CONTINUOUS
 10
315.4409844292
 20
77.3606445089
  0
SEQEND
  0
POLYLINE
  8
0
 62
7
  6
CONTINUOUS
 66
1
 70
0
  0
VERTEX
  8
0
 62
7
  6
CONTINUOUS
 10
315.4409844292
 20
112.0521901793
  0
VERTEX
  8
0
 62
7
  6
CONTINUOUS
 10
315.5886165015
 20
112.3126709067
  0
VERTEX
  8
0
 62
7
  6
CONTINUOUS
 10
315.7378968855
 20
112.6109859528
  0
VERTEX
  8
0
 62
7
  6
CONTINUOUS
 10
315.8884696035
 20
112.9463897733
  0
VERTEX
  8
0
 62
7
  6
CONTINUOUS
 10
316.0399502276
 20
113.3180030544
  0
VERTEX
  8
0
 62
7
  6
CONTINUOUS
 10
316.1919372157
 20
113.7248271021
  0
VERTEX
  8
0
 62
7
  6
CONTINUOUS
 10
316.3440119801
 20
114.1657392182
  0
VERTEX
  8
0
 62
7
  6
CONTINUOUS
 10
316.4957380004
 20
114.6394840782
  0
SEQEND
  0
POLYLINE
  8
0
 62
7
  6
CONTINUOUS
 66
1
 70
0
  0
VERTEX
  8
0
 62
7
  6
CONTINUOUS
 10
314.3252655955
 20
118.8573631586
  0
VERTEX
  8
0
 62
7
  6
CONTINUOUS
 10
314.4631329997
 20
119.0359146847
  0
VERTEX
  8
0
 62
7
  6
CONTINUOUS
 10
314.5985254859
 20
119.2216432449
  0
VERTEX
  8
0
 62
7
  6
CONTINUOUS
 10
314.7274622749
 20
119.4101427939
  0
VERTEX
  8
0
 62
7
  6
CONTINUOUS
 10
314.8463420324
 20
119.5967403433
  0
VERTEX
  8
0
 62
7
  6
CONTINUOUS
 10
314.9529282024
 20
119.7780193668
  0
VERTEX
  8
0
 62
7
  6
CONTINUOUS
 10
315.0460969784
 20
119.9517782507
  0
VERTEX
  8
0
 62
7
  6
CONTINUOUS
 10
315.1253772381
 20
120.1165442249
  0
VERTEX
  8
0
 62
7
  6
CONTINUOUS
 10
315.1906942587
 20
120.2712519747
  0
VERTEX
  8
0
 62
7
  6
CONTINUOUS
 10
315.2424712061
 20
120.4157133878
  0
VERTEX
  8
0
 62
7
  6
CONTINUOUS
 10
315.2810261433
 20
120.5491534792
  0
VERTEX
  8
0
 62
7
  6
CONTINUOUS
 10
315.306892779
 20
120.6704587859
  0
SEQEND
  0
POLYLINE
  8
0
 62
7
  6
CONTINUOUS
 66
1
 70
0
  0
VERTEX
  8
0
 62
7
  6
CONTINUOUS
 10
304.2885199624
 20
112.8964251603
  0
VERTEX
  8
0
 62
7
  6
CONTINUOUS
 10
304.1502224654
 20
112.7337857639
  0
VERTEX
  8
0
 62
7
  6
CONTINUOUS
 10
304.0147463555
 20
112.5836484669
  0
VERTEX
  8
0
 62
7
  6
CONTINUOUS
 10
303.8858634196
 20
112.4488685465
  0
VERTEX
  8
0
 62
7
  6
CONTINUOUS
 10
303.7669790234
 20
112.3314842878
  0
VERTEX
  8
0
 62
7
  6
CONTINUOUS
 10
303.6604144317
 20
112.2321676693
  0
VERTEX
  8
0
 62
7
  6
CONTINUOUS
 10
303.5673380525
 20
112.1504159491
  0
VERTEX
  8
0
 62
7
  6
CONTINUOUS
 10
303.4881463721
 20
112.0850900711
  0
VERTEX
  8
0
 62
7
  6
CONTINUOUS
 10
303.4228503277
 20
112.0348307026
  0
VERTEX
  8
0
 62
7
  6
CONTINUOUS
 10
303.3710497895
 20
111.9980787603
  0
VERTEX
  8
0
 62
7
  6
CONTINUOUS
 10
303.3325839046
 20
111.9735375852
  0
VERTEX
  8
0
 62
7
  6
CONTINUOUS
 10
303.306892779
 20
111.9596635409
  0
SEQEND
  0
LINE
  8
0
 62
7
  6
CONTINUOUS
 10
294.306892779
 20
205.5993285646
 11
301.806892779
 21
205.5993285646
  0
LINE
  8
0
 62
7
  6
CONTINUOUS
 10
316.806892779
 20
205.5993285646
 11
324.306892779
 21
205.5993285646
  0
POLYLINE
  8
0
 62
7
  6
CONTINUOUS
 66
1
 70
0
  0
VERTEX
  8
0
 62
7
  6
CONTINUOUS
 10
315.4409844292
 20
221.3933787287
  0
VERTEX
  8
0
 62
7
  6
CONTINUOUS
 10
315.4051837386
 20
221.444150965
  0
VERTEX
  8
0
 62
7
  6
CONTINUOUS
 10
315.3706869189
 20
221.4766262627
  0
VERTEX
  8
0
 62
7
  6
CONTINUOUS
 10
315.337824937
 20
221.4905553617
  0
VERTEX
  8
0
 62
7
  6
CONTINUOUS
 10
315.3299339948
 20
221.4911317711
  0
SEQEND
  0
POLYLINE
  8
0
 62
7
  6
CONTINUOUS
 66
1
 70
0
  0
VERTEX
  8
0
 62
7
  6
CONTINUOUS
 10
315.306892779
 20
76.899456631
  0
VERTEX
  8
0
 62
7
  6
CONTINUOUS
 10
315.2810234232
 20
76.8455570899
  0
VERTEX
  8
0
 62
7
  6
CONTINUOUS
 10
315.2424713702
 20
76.7969437118
  0
VERTEX
  8
0
 62
7
  6
CONTINUOUS
 10
315.1906992502
 20
76.7559789917
  0
VERTEX
  8
0
 62
7
  6
CONTINUOUS
 10
315.1253815948
 20
76.7247266252
  0
VERTEX
  8
0
 62
7
  6
CONTINUOUS
 10
315.0460936528
 20
76.7051321283
  0
VERTEX
  8
0
 62
7
  6
CONTINUOUS
 10
314.9644340737
 20
76.6992279081
  0
SEQEND
  0
POLYLINE
  8
0
 62
7
  6
CONTINUOUS
 66
1
 70
0
  0
VERTEX
  8
0
 62
7
  6
CONTINUOUS
 10
303.306892779
 20
221.4859053672
  0
VERTEX
  8
0
 62
7
  6
CONTINUOUS
 10
303.332579712
 20
221.4720338067
  0
VERTEX
  8
0
 62
7
  6
CONTINUOUS
 10
303.3710483098
 20
221.447491146
  0
VERTEX
  8
0
 62
7
  6
CONTINUOUS
 10
303.4228546228
 20
221.4107350284
  0
VERTEX
  8
0
 62
7
  6
CONTINUOUS
 10
303.4881500631
 20
221.3604758954
  0
VERTEX
  8
0
 62
7
  6
CONTINUOUS
 10
303.5673340628
 20
221.2951563542
  0
VERTEX
  8
0
 62
7
  6
CONTINUOUS
 10
303.6604029254
 20
221.2134116447
  0
VERTEX
  8
0
 62
7
  6
CONTINUOUS
 10
303.7669725784
 20
221.1140907995
  0
VERTEX
  8
0
 62
7
  6
CONTINUOUS
 10
303.8858634858
 20
220.9967002942
  0
VERTEX
  8
0
 62
7
  6
CONTINUOUS
 10
304.0147380333
 20
220.8619293954
  0
VERTEX
  8
0
 62
7
  6
CONTINUOUS
 10
304.1502065548
 20
220.7118012979
  0
VERTEX
  8
0
 62
7
  6
CONTINUOUS
 10
304.2885199624
 20
220.5491437477
  0
SEQEND
  0
LINE
  8
0
 62
7
  6
CONTINUOUS
 10
315.3299339948
 20
221.4911317711
 11
315.306892779
 21
221.4859053672
  0
LINE
  8
0
 62
7
  6
CONTINUOUS
 10
294.306892779
 20
215.8957914534
 11
301.806892779
 21
215.8957914534
  0
LINE
  8
0
 62
7
  6
CONTINUOUS
 10
316.806892779
 20
215.8957914534
 11
324.306892779
 21
215.8957914534
  0
LINE
  8
0
 62
7
  6
CONTINUOUS
 10
303.306892779
 20
221.4911317714
 11
315.306892779
 21
221.4911317714
  0
LINE
  8
0
 62
7
  6
CONTINUOUS
 10
303.2838515632
 20
221.4911317711
 11
303.306892779
 21
221.4859053672
  0
POLYLINE
  8
0
 62
7
  6
CONTINUOUS
 66
1
 70
0
  0
VERTEX
  8
0
 62
7
  6
CONTINUOUS
 10
314.3252655955
 20
80.3758936867
  0
VERTEX
  8
0
 62
7
  6
CONTINUOUS
 10
314.4631329997
 20
80.488450682
  0
VERTEX
  8
0
 62
7
  6
CONTINUOUS
 10
314.5985254859
 20
80.6162655474
  0
VERTEX
  8
0
 62
7
  6
CONTINUOUS
 10
314.7274622749
 20
80.756061366
  0
VERTEX
  8
0
 62
7
  6
CONTINUOUS
 10
314.8463420324
 20
80.9037413108
  0
VERTEX
  8
0
 62
7
  6
CONTINUOUS
 10
314.9529282024
 20
81.0556979642
  0
VERTEX
  8
0
 62
7
  6
CONTINUOUS
 10
315.0460969784
 20
81.2090790101
  0
VERTEX
  8
0
 62
7
  6
CONTINUOUS
 10
315.1253772381
 20
81.3615667495
  0
VERTEX
  8
0
 62
7
  6
CONTINUOUS
 10
315.1906942587
 20
81.5111729965
  0
VERTEX
  8
0
 62
7
  6
CONTINUOUS
 10
315.2424712061
 20
81.6567640826
  0
VERTEX
  8
0
 62
7
  6
CONTINUOUS
 10
315.2810261433
 20
81.7966355532
  0
VERTEX
  8
0
 62
7
  6
CONTINUOUS
 10
315.306892779
 20
81.9286366106
  0
SEQEND
  0
POLYLINE
  8
0
 62
7
  6
CONTINUOUS
 66
1
 70
0
  0
VERTEX
  8
0
 62
7
  6
CONTINUOUS
 10
304.2885199624
 20
76.9343445288
  0
VERTEX
  8
0
 62
7
  6
CONTINUOUS
 10
304.1502224654
 20
76.8499621813
  0
VERTEX
  8
0
 62
7
  6
CONTINUOUS
 10
304.0147463555
 20
76.7839179586
  0
VERTEX
  8
0
 62
7
  6
CONTINUOUS
 10
303.8858634196
 20
76.7370999478
  0
VERTEX
  8
0
 62
7
  6
CONTINUOUS
 10
303.7669790234
 20
76.7093243149
  0
VERTEX
  8
0
 62
7
  6
CONTINUOUS
 10
303.6604144317
 20
76.6993219583
  0
VERTEX
  8
0
 62
7
  6
CONTINUOUS
 10
303.649354896
 20
76.6992279067
  0
SEQEND
  0
LINE
  8
0
 62
7
  6
CONTINUOUS
 10
294.306892779
 20
240.0035996967
 11
301.806892779
 21
240.0035996967
  0
LINE
  8
0
 62
7
  6
CONTINUOUS
 10
316.806892779
 20
240.0035996967
 11
324.306892779
 21
240.0035996967
  0
LINE
  8
0
 62
7
  6
CONTINUOUS
 10
294.306892779
 20
245.9482653173
 11
301.806892779
 21
245.9482653173
  0
LINE
  8
0
 62
7
  6
CONTINUOUS
 10
316.806892779
 20
245.9482653173
 11
324.306892779
 21
245.9482653173
  0
LINE
  8
0
 62
7
  6
CONTINUOUS
 10
294.306892779
 20
254.772335564
 11
301.806892779
 21
254.772335564
  0
LINE
  8
0
 62
7
  6
CONTINUOUS
 10
316.806892779
 20
254.772335564
 11
324.306892779
 21
254.772335564
  0
LINE
  8
0
 62
7
  6
CONTINUOUS
 10
294.306892779
 20
254.972784454
 11
301.806892779
 21
254.972784454
  0
LINE
  8
0
 62
7
  6
CONTINUOUS
 10
316.806892779
 20
254.972784454
 11
324.306892779
 21
254.972784454
  0
LINE
  8
0
 62
7
  6
CONTINUOUS
 10
303.6500253508
 20
256.7463410392
 11
314.9637433738
 21
256.7463410392
  0
POLYLINE
  8
0
 62
7
  6
CONTINUOUS
 66
1
 70
0
  0
VERTEX
  8
0
 62
7
  6
CONTINUOUS
 10
303.6493544606
 20
256.7463410012
  0
VERTEX
  8
0
 62
7
  6
CONTINUOUS
 10
303.6604029254
 20
256.7462471482
  0
VERTEX
  8
0
 62
7
  6
CONTINUOUS
 10
303.7669725784
 20
256.7362456543
  0
VERTEX
  8
0
 62
7
  6
CONTINUOUS
 10
303.8858634858
 20
256.7084689404
  0
VERTEX
  8
0
 62
7
  6
CONTINUOUS
 10
304.0147380333
 20
256.6616544899
  0
VERTEX
  8
0
 62
7
  6
CONTINUOUS
 10
304.1502065548
 20
256.5956154548
  0
VERTEX
  8
0
 62
7
  6
CONTINUOUS
 10
304.2885199624
 20
256.5112243793
  0
SEQEND
  0
POLYLINE
  8
0
 62
7
  6
CONTINUOUS
 66
1
 70
0
  0
VERTEX
  8
0
 62
7
  6
CONTINUOUS
 10
314.964434536
 20
256.7463409998
  0
VERTEX
  8
0
 62
7
  6
CONTINUOUS
 10
315.0460969784
 20
256.7404362766
  0
VERTEX
  8
0
 62
7
  6
CONTINUOUS
 10
315.1253772381
 20
256.7208438366
  0
VERTEX
  8
0
 62
7
  6
CONTINUOUS
 10
315.1906942587
 20
256.6895930254
  0
VERTEX
  8
0
 62
7
  6
CONTINUOUS
 10
315.2424712061
 20
256.6486253605
  0
VERTEX
  8
0
 62
7
  6
CONTINUOUS
 10
315.2810261433
 20
256.6000074374
  0
VERTEX
  8
0
 62
7
  6
CONTINUOUS
 10
315.306892779
 20
256.546112277
  0
SEQEND
  0
POLYLINE
  8
0
 62
7
  6
CONTINUOUS
 66
1
 70
0
  0
VERTEX
  8
0
 62
7
  6
CONTINUOUS
 10
304.2885199624
 20
268.4145650432
  0
VERTEX
  8
0
 62
7
  6
CONTINUOUS
 10
304.1502224654
 20
268.3980801598
  0
VERTEX
  8
0
 62
7
  6
CONTINUOUS
 10
304.0147463555
 20
268.362334812
  0
VERTEX
  8
0
 62
7
  6
CONTINUOUS
 10
303.8858634196
 20
268.3086460651
  0
VERTEX
  8
0
 62
7
  6
CONTINUOUS
 10
303.7669790234
 20
268.2393706139
  0
VERTEX
  8
0
 62
7
  6
CONTINUOUS
 10
303.6604144317
 20
268.1573785852
  0
VERTEX
  8
0
 62
7
  6
CONTINUOUS
 10
303.5673380525
 20
268.0654704025
  0
VERTEX
  8
0
 62
7
  6
CONTINUOUS
 10
303.4881463721
 20
267.9661395143
  0
VERTEX
  8
0
 62
7
  6
CONTINUOUS
 10
303.4228503277
 20
267.8616539122
  0
VERTEX
  8
0
 62
7
  6
CONTINUOUS
 10
303.3710497895
 20
267.7537447139
  0
VERTEX
  8
0
 62
7
  6
CONTINUOUS
 10
303.3325839046
 20
267.6449639661
  0
VERTEX
  8
0
 62
7
  6
CONTINUOUS
 10
303.306892779
 20
267.5382310353
  0
SEQEND
  0
LINE
  8
0
 62
7
  6
CONTINUOUS
 10
304.2885199624
 20
268.472784454
 11
314.3252655955
 21
268.472784454
  0
LINE
  8
DEFAULT_1
 62
2
  6
CENTER
 10
129.7422045952
 20
272.5700218818
 11
129.7422045952
 21
168.722884454
  0
LINE
  8
0
 62
2
  6
CONTINUOUS
 10
129.7422045952
 20
167.772784454
 11
129.7422045952
 21
165.672784454
  0
LINE
  8
DEFAULT_1
 62
2
  6
CENTER
 10
129.7422045952
 20
57.3860776805
 11
129.7422045952
 21
164.722684454
  0
LINE
  8
DEFAULT_1
 62
2
  6
CENTER
 10
235.5894420131
 20
166.722784454
 11
131.7423045952
 21
166.722784454
  0
LINE
  8
0
 62
2
  6
CONTINUOUS
 10
130.7922045952
 20
166.722784454
 11
128.6922045952
 21
166.722784454
  0
LINE
  8
DEFAULT_1
 62
2
  6
CENTER
 10
23.5072483589
 20
166.722784454
 11
127.7421045952
 21
166.722784454
  0
ARC
  8
0
 62
7
  6
CONTINUOUS
 10
52.7892842396
 20
89.7698640984
 40
30.0
 50
28.5422919941
 51
61.4577080059
  0
ARC
  8
0
 62
7
  6
CONTINUOUS
 10
50.4937312261
 20
110.0567369338
 40
15.111
 50
111.2518086435
 51
132.0124198389
  0
ARC
  8
0
 62
7
  6
CONTINUOUS
 10
73.076157075
 20
87.474311085
 40
15.111
 50
317.9875801611
 51
338.7481913565
  0
ARC
  8
0
 62
7
  6
CONTINUOUS
 10
59.9277255329
 20
102.8941262073
 40
15.06
 50
61.4577080059
 51
128.7481913565
  0
ARC
  8
0
 62
7
  6
CONTINUOUS
 10
65.9135463484
 20
96.9083053917
 40
15.06
 50
321.2518086435
 51
28.5422919941
  0
ARC
  8
0
 62
7
  6
CONTINUOUS
 10
24.622560494
 20
138.5560607085
 40
30.0
 50
358.5422919941
 51
31.4577080059
  0
ARC
  8
0
 62
7
  6
CONTINUOUS
 10
32.7779896863
 20
157.272784454
 40
15.111
 50
81.2518086435
 51
102.0124198389
  0
ARC
  8
0
 62
7
  6
CONTINUOUS
 10
41.0437312261
 20
126.4246170654
 40
15.111
 50
287.9875801611
 51
308.7481913565
  0
ARC
  8
0
 62
7
  6
CONTINUOUS
 10
37.3667630518
 20
146.352784454
 40
15.06
 50
31.4577080059
 51
98.7481913565
  0
ARC
  8
0
 62
7
  6
CONTINUOUS
 10
39.5577255329
 20
138.1760011574
 40
15.06
 50
291.2518086435
 51
358.5422919941
  0
ARC
  8
0
 62
7
  6
CONTINUOUS
 10
30.0492796441
 20
163.348882454
 40
2.0
 50
181.9383180254
 51
257.9875801611
  0
ARC
  8
0
 62
7
  6
CONTINUOUS
 10
45.09255001
 20
113.9544371366
 40
2.0
 50
211.9383180254
 51
287.9875801611
  0
ARC
  8
0
 62
7
  6
CONTINUOUS
 10
41.71864801
 20
119.7982068204
 40
2.0
 50
132.0124198389
 51
208.0616819746
  0
ARC
  8
0
 62
7
  6
CONTINUOUS
 10
101.5754808496
 20
61.6031403528
 40
30.0
 50
58.5422919941
 51
91.4577080059
  0
ARC
  8
0
 62
7
  6
CONTINUOUS
 10
89.4440372065
 20
78.024311085
 40
15.111
 50
141.2518086435
 51
162.0124198389
  0
ARC
  8
0
 62
7
  6
CONTINUOUS
 10
120.2922045952
 20
69.7585695452
 40
15.111
 50
347.9875801611
 51
8.7481913565
  0
ARC
  8
0
 62
7
  6
CONTINUOUS
 10
101.1954212986
 20
76.5383053917
 40
15.06
 50
91.4577080059
 51
158.7481913565
  0
ARC
  8
0
 62
7
  6
CONTINUOUS
 10
109.3722045952
 20
74.3473429107
 40
15.06
 50
351.2518086435
 51
58.5422919941
  0
ARC
  8
0
 62
7
  6
CONTINUOUS
 10
82.8176269615
 20
78.6992278688
 40
2.0
 50
241.9383180254
 51
317.9875801611
  0
ARC
  8
0
 62
7
  6
CONTINUOUS
 10
76.9738572778
 20
82.0731298688
 40
2.0
 50
162.0124198389
 51
238.0616819746
  0
ARC
  8
0
 62
7
  6
CONTINUOUS
 10
126.3683025952
 20
67.029859503
 40
2.0
 50
192.0124198389
 51
268.0616819746
  0
ARC
  8
0
 62
7
  6
CONTINUOUS
 10
24.622560494
 20
194.8895081996
 40
30.0
 50
328.5422919941
 51
1.4577080059
  0
ARC
  8
0
 62
7
  6
CONTINUOUS
 10
41.0437312261
 20
207.0209518427
 40
15.111
 50
51.2518086435
 51
72.0124198389
  0
ARC
  8
0
 62
7
  6
CONTINUOUS
 10
32.7779896863
 20
176.172784454
 40
15.111
 50
257.9875801611
 51
278.7481913565
  0
ARC
  8
0
 62
7
  6
CONTINUOUS
 10
39.5577255329
 20
195.2695677506
 40
15.06
 50
1.4577080059
 51
68.7481913565
  0
ARC
  8
0
 62
7
  6
CONTINUOUS
 10
37.3667630518
 20
187.092784454
 40
15.06
 50
261.2518086435
 51
328.5422919941
  0
ARC
  8
0
 62
7
  6
CONTINUOUS
 10
41.71864801
 20
213.6473620877
 40
2.0
 50
151.9383180254
 51
227.9875801611
  0
ARC
  8
0
 62
7
  6
CONTINUOUS
 10
45.09255001
 20
219.4911317714
 40
2.0
 50
72.0124198389
 51
148.0616819746
  0
ARC
  8
0
 62
7
  6
CONTINUOUS
 10
30.0492796441
 20
170.096686454
 40
2.0
 50
102.0124198389
 51
178.0616819746
  0
ARC
  8
0
 62
7
  6
CONTINUOUS
 10
52.7892842396
 20
243.6757048096
 40
30.0
 50
298.5422919941
 51
331.4577080059
  0
ARC
  8
0
 62
7
  6
CONTINUOUS
 10
73.076157075
 20
245.9712578231
 40
15.111
 50
21.2518086435
 51
42.0124198389
  0
ARC
  8
0
 62
7
  6
CONTINUOUS
 10
50.4937312261
 20
223.3888319742
 40
15.111
 50
227.9875801611
 51
248.7481913565
  0
ARC
  8
0
 62
7
  6
CONTINUOUS
 10
65.9135463484
 20
236.5372635164
 40
15.06
 50
331.4577080059
 51
38.7481913565
  0
ARC
  8
0
 62
7
  6
CONTINUOUS
 10
59.9277255329
 20
230.5514427008
 40
15.06
 50
231.2518086435
 51
298.5422919941
  0
ARC
  8
0
 62
7
  6
CONTINUOUS
 10
101.5754808496
 20
271.8424285552
 40
30.0
 50
268.5422919941
 51
301.4577080059
  0
ARC
  8
0
 62
7
  6
CONTINUOUS
 10
89.4440372065
 20
255.4212578231
 40
15.111
 50
197.9875801611
 51
218.7481913565
  0
ARC
  8
0
 62
7
  6
CONTINUOUS
 10
120.2922045952
 20
263.6869993629
 40
15.111
 50
351.2518086435
 51
12.0124198389
  0
ARC
  8
0
 62
7
  6
CONTINUOUS
 10
101.1954212986
 20
256.9072635164
 40
15.06
 50
201.2518086435
 51
268.5422919941
  0
ARC
  8
0
 62
7
  6
CONTINUOUS
 10
109.3722045952
 20
259.0982259974
 40
15.06
 50
301.4577080059
 51
8.7481913565
  0
ARC
  8
0
 62
7
  6
CONTINUOUS
 10
76.9738572778
 20
251.3724390392
 40
2.0
 50
121.9383180254
 51
197.9875801611
  0
ARC
  8
0
 62
7
  6
CONTINUOUS
 10
82.8176269615
 20
254.7463410392
 40
2.0
 50
42.0124198389
 51
118.0616819746
  0
ARC
  8
0
 62
7
  6
CONTINUOUS
 10
126.3683025952
 20
266.4157094051
 40
2.0
 50
91.9383180254
 51
167.9875801611
  0
ARC
  8
0
 62
7
  6
CONTINUOUS
 10
157.9089283407
 20
61.6031403528
 40
30.0
 50
88.5422919941
 51
121.4577080059
  0
ARC
  8
0
 62
7
  6
CONTINUOUS
 10
139.1922045952
 20
69.7585695452
 40
15.111
 50
171.2518086435
 51
192.0124198389
  0
ARC
  8
0
 62
7
  6
CONTINUOUS
 10
170.0403719838
 20
78.024311085
 40
15.111
 50
17.9875801611
 51
38.7481913565
  0
ARC
  8
0
 62
7
  6
CONTINUOUS
 10
150.1122045952
 20
74.3473429107
 40
15.06
 50
121.4577080059
 51
188.7481913565
  0
ARC
  8
0
 62
7
  6
CONTINUOUS
 10
158.2889878918
 20
76.5383053917
 40
15.06
 50
21.2518086435
 51
88.5422919941
  0
ARC
  8
0
 62
7
  6
CONTINUOUS
 10
133.1161065952
 20
67.029859503
 40
2.0
 50
271.9383180254
 51
347.9875801611
  0
ARC
  8
0
 62
7
  6
CONTINUOUS
 10
182.5105519126
 20
82.0731298688
 40
2.0
 50
301.9383180254
 51
17.9875801611
  0
ARC
  8
0
 62
7
  6
CONTINUOUS
 10
176.6667822288
 20
78.6992278688
 40
2.0
 50
222.0124198389
 51
298.0616819746
  0
ARC
  8
0
 62
7
  6
CONTINUOUS
 10
206.6951249508
 20
89.7698640984
 40
30.0
 50
118.5422919941
 51
151.4577080059
  0
ARC
  8
0
 62
7
  6
CONTINUOUS
 10
186.4082521154
 20
87.474311085
 40
15.111
 50
201.2518086435
 51
222.0124198389
  0
ARC
  8
0
 62
7
  6
CONTINUOUS
 10
208.9906779643
 20
110.0567369338
 40
15.111
 50
47.9875801611
 51
68.7481913565
  0
ARC
  8
0
 62
7
  6
CONTINUOUS
 10
193.5708628419
 20
96.9083053917
 40
15.06
 50
151.4577080059
 51
218.7481913565
  0
ARC
  8
0
 62
7
  6
CONTINUOUS
 10
199.5566836575
 20
102.8941262073
 40
15.06
 50
51.2518086435
 51
118.5422919941
  0
ARC
  8
0
 62
7
  6
CONTINUOUS
 10
234.8618486964
 20
138.5560607085
 40
30.0
 50
148.5422919941
 51
181.4577080059
  0
ARC
  8
0
 62
7
  6
CONTINUOUS
 10
226.706419504
 20
157.272784454
 40
15.111
 50
77.9875801611
 51
98.7481913565
  0
ARC
  8
0
 62
7
  6
CONTINUOUS
 10
218.4406779643
 20
126.4246170654
 40
15.111
 50
231.2518086435
 51
252.0124198389
  0
ARC
  8
0
 62
7
  6
CONTINUOUS
 10
222.1176461385
 20
146.352784454
 40
15.06
 50
81.2518086435
 51
148.5422919941
  0
ARC
  8
0
 62
7
  6
CONTINUOUS
 10
219.9266836575
 20
138.1760011574
 40
15.06
 50
181.4577080059
 51
248.7481913565
  0
ARC
  8
0
 62
7
  6
CONTINUOUS
 10
217.7657611804
 20
119.7982068204
 40
2.0
 50
331.9383180254
 51
47.9875801611
  0
ARC
  8
0
 62
7
  6
CONTINUOUS
 10
229.4351295462
 20
163.348882454
 40
2.0
 50
282.0124198389
 51
358.0616819746
  0
ARC
  8
0
 62
7
  6
CONTINUOUS
 10
214.3918591804
 20
113.9544371366
 40
2.0
 50
252.0124198389
 51
328.0616819746
  0
ARC
  8
0
 62
7
  6
CONTINUOUS
 10
129.7422045952
 20
166.722784454
 40
101.75
 50
268.0616819746
 51
271.9383180254
  0
ARC
  8
0
 62
7
  6
CONTINUOUS
 10
129.7422045952
 20
166.722784454
 40
101.75
 50
88.0616819746
 51
91.9383180254
  0
ARC
  8
0
 62
7
  6
CONTINUOUS
 10
129.7422045952
 20
166.722784454
 40
101.75
 50
118.0616819746
 51
121.9383180254
  0
ARC
  8
0
 62
7
  6
CONTINUOUS
 10
129.7422045952
 20
166.722784454
 40
101.75
 50
148.0616819746
 51
151.9383180254
  0
ARC
  8
0
 62
7
  6
CONTINUOUS
 10
129.7422045952
 20
166.722784454
 40
101.75
 50
178.0616819746
 51
181.9383180254
  0
ARC
  8
0
 62
7
  6
CONTINUOUS
 10
129.7422045952
 20
166.722784454
 40
101.75
 50
208.0616819746
 51
211.9383180254
  0
ARC
  8
0
 62
7
  6
CONTINUOUS
 10
129.7422045952
 20
166.722784454
 40
101.75
 50
298.0616819746
 51
301.9383180254
  0
ARC
  8
0
 62
7
  6
CONTINUOUS
 10
129.7422045952
 20
166.722784454
 40
101.75
 50
328.0616819746
 51
331.9383180254
  0
ARC
  8
0
 62
7
  6
CONTINUOUS
 10
129.7422045952
 20
166.722784454
 40
101.75
 50
358.0616819746
 51
1.9383180254
  0
ARC
  8
0
 62
7
  6
CONTINUOUS
 10
129.7422045952
 20
166.722784454
 40
101.75
 50
238.0616819746
 51
241.9383180254
  0
ARC
  8
0
 62
7
  6
CONTINUOUS
 10
129.7422045952
 20
166.722784454
 40
101.75
 50
28.0616819746
 51
31.9383180254
  0
ARC
  8
0
 62
7
  6
CONTINUOUS
 10
129.7422045952
 20
166.722784454
 40
101.75
 50
58.0616819746
 51
61.9383180254
  0
ARC
  8
0
 62
7
  6
CONTINUOUS
 10
129.7422045952
 20
166.722784454
 40
88.25
 50
56.1375369376
 51
63.8624630624
  0
ARC
  8
0
 62
7
  6
CONTINUOUS
 10
129.7422045952
 20
166.722784454
 40
88.25
 50
26.1375369376
 51
33.8624630624
  0
ARC
  8
0
 62
7
  6
CONTINUOUS
 10
129.7422045952
 20
166.722784454
 40
88.25
 50
356.1375369376
 51
3.8624630624
  0
ARC
  8
0
 62
7
  6
CONTINUOUS
 10
129.7422045952
 20
166.722784454
 40
88.25
 50
326.1375369376
 51
333.8624630624
  0
ARC
  8
0
 62
7
  6
CONTINUOUS
 10
129.7422045952
 20
166.722784454
 40
88.25
 50
296.1375369376
 51
303.8624630624
  0
ARC
  8
0
 62
7
  6
CONTINUOUS
 10
129.7422045952
 20
166.722784454
 40
88.25
 50
236.1375369376
 51
243.8624630624
  0
ARC
  8
0
 62
7
  6
CONTINUOUS
 10
129.7422045952
 20
166.722784454
 40
88.25
 50
206.1375369376
 51
213.8624630624
  0
ARC
  8
0
 62
7
  6
CONTINUOUS
 10
129.7422045952
 20
166.722784454
 40
88.25
 50
176.1375369376
 51
183.8624630624
  0
ARC
  8
0
 62
7
  6
CONTINUOUS
 10
129.7422045952
 20
166.722784454
 40
88.25
 50
146.1375369376
 51
153.8624630624
  0
ARC
  8
0
 62
7
  6
CONTINUOUS
 10
129.7422045952
 20
166.722784454
 40
88.25
 50
116.1375369376
 51
123.8624630624
  0
ARC
  8
0
 62
7
  6
CONTINUOUS
 10
129.7422045952
 20
166.722784454
 40
88.25
 50
266.1375369376
 51
273.8624630624
  0
ARC
  8
0
 62
7
  6
CONTINUOUS
 10
129.7422045952
 20
166.722784454
 40
88.25
 50
86.1375369376
 51
93.8624630624
  0
ARC
  8
0
 62
7
  6
CONTINUOUS
 10
157.9089283407
 20
271.8424285552
 40
30.0
 50
238.5422919941
 51
271.4577080059
  0
ARC
  8
0
 62
7
  6
CONTINUOUS
 10
139.1922045952
 20
263.6869993629
 40
15.111
 50
167.9875801611
 51
188.7481913565
  0
ARC
  8
0
 62
7
  6
CONTINUOUS
 10
170.0403719838
 20
255.4212578231
 40
15.111
 50
321.2518086435
 51
342.0124198389
  0
ARC
  8
0
 62
7
  6
CONTINUOUS
 10
150.1122045952
 20
259.0982259974
 40
15.06
 50
171.2518086435
 51
238.5422919941
  0
ARC
  8
0
 62
7
  6
CONTINUOUS
 10
158.2889878918
 20
256.9072635164
 40
15.06
 50
271.4577080059
 51
338.7481913565
  0
ARC
  8
0
 62
7
  6
CONTINUOUS
 10
133.1161065952
 20
266.4157094051
 40
2.0
 50
12.0124198389
 51
88.0616819746
  0
ARC
  8
0
 62
7
  6
CONTINUOUS
 10
176.6667822288
 20
254.7463410392
 40
2.0
 50
61.9383180254
 51
137.9875801611
  0
ARC
  8
0
 62
7
  6
CONTINUOUS
 10
234.8618486964
 20
194.8895081996
 40
30.0
 50
178.5422919941
 51
211.4577080059
  0
ARC
  8
0
 62
7
  6
CONTINUOUS
 10
218.4406779643
 20
207.0209518427
 40
15.111
 50
107.9875801611
 51
128.7481913565
  0
ARC
  8
0
 62
7
  6
CONTINUOUS
 10
226.706419504
 20
176.172784454
 40
15.111
 50
261.2518086435
 51
282.0124198389
  0
ARC
  8
0
 62
7
  6
CONTINUOUS
 10
219.9266836575
 20
195.2695677506
 40
15.06
 50
111.2518086435
 51
178.5422919941
  0
ARC
  8
0
 62
7
  6
CONTINUOUS
 10
222.1176461385
 20
187.092784454
 40
15.06
 50
211.4577080059
 51
278.7481913565
  0
ARC
  8
0
 62
7
  6
CONTINUOUS
 10
217.7657611804
 20
213.6473620877
 40
2.0
 50
312.0124198389
 51
28.0616819746
  0
ARC
  8
0
 62
7
  6
CONTINUOUS
 10
229.4351295462
 20
170.096686454
 40
2.0
 50
1.9383180254
 51
77.9875801611
  0
ARC
  8
0
 62
7
  6
CONTINUOUS
 10
206.6951249508
 20
243.6757048096
 40
30.0
 50
208.5422919941
 51
241.4577080059
  0
ARC
  8
0
 62
7
  6
CONTINUOUS
 10
186.4082521154
 20
245.9712578231
 40
15.111
 50
137.9875801611
 51
158.7481913565
  0
ARC
  8
0
 62
7
  6
CONTINUOUS
 10
208.9906779643
 20
223.3888319742
 40
15.111
 50
291.2518086435
 51
312.0124198389
  0
ARC
  8
0
 62
7
  6
CONTINUOUS
 10
193.5708628419
 20
236.5372635164
 40
15.06
 50
141.2518086435
 51
208.5422919941
  0
ARC
  8
0
 62
7
  6
CONTINUOUS
 10
199.5566836575
 20
230.5514427008
 40
15.06
 50
241.4577080059
 51
308.7481913565
  0
ARC
  8
0
 62
7
  6
CONTINUOUS
 10
182.5105519126
 20
251.3724390392
 40
2.0
 50
342.0124198389
 51
58.0616819746
  0
ARC
  8
0
 62
7
  6
CONTINUOUS
 10
214.3918591804
 20
219.4911317714
 40
2.0
 50
31.9383180254
 51
107.9875801611
  0
ARC
  8
0
 62
7
  6
CONTINUOUS
 10
311.806892779
 20
259.4653171845
 40
5.0
 50
0.0
 51
11.0
  0
ARC
  8
0
 62
7
  6
CONTINUOUS
 10
311.806892779
 20
73.9802517236
 40
5.0
 50
349.0
 51
360.0
  0
ARC
  8
0
 62
7
  6
CONTINUOUS
 10
306.806892779
 20
259.4653171845
 40
5.0
 50
169.0
 51
180.0
  0
ARC
  8
0
 62
7
  6
CONTINUOUS
 10
306.806892779
 20
73.9802517236
 40
5.0
 50
180.0
 51
191.0
  0
ARC
  8
0
 62
7
  6
CONTINUOUS
 10
314.3252655955
 20
267.472784454
 40
1.0
 50
11.0
 51
90.0
  0
ARC
  8
0
 62
7
  6
CONTINUOUS
 10
314.3252655955
 20
65.972784454
 40
1.0
 50
270.0
 51
349.0
  0
ARC
  8
0
 62
7
  6
CONTINUOUS
 10
304.2885199624
 20
267.472784454
 40
1.0
 50
90.0
 51
169.0
  0
ARC
  8
0
 62
7
  6
CONTINUOUS
 10
304.2885199624
 20
65.972784454
 40
1.0
 50
191.0
 51
270.0
  0
ENDSEC
  0
EOF
