  0
SECTION
  2
HEADER
  9
$EXTMAX
 10
210.0
 20
297.0
 30
0.0
  9
$EXTMIN
 10
0.0
 20
0.0
 30
0.0
  9
$LIMMIN
 10
0.0
 20
0.0
  9
$LIMMAX
 10
210.0
 20
297.0
  9
$VIEWCTR
 10
105.0
 20
148.5
  9
$VIEWSIZE
 40
297.0
  9
$CLAYER
  8
0
  9
$LTSCALE
 40
19.36
  9
$CELTYPE
  6
BYLAYER
  9
$DIMSCALE
 40
1.0
  9
$DIMASZ
 40
3.5
  9
$DIMEXO
 40
2.2
  9
$DIMDLI
 40
13.376
  9
$DIMEXE
 40
6.336
  9
$DIMCEN
 40
3.168
  9
$DIMLFAC
 40
1.0
  9
$DIMBLK
  1
_FILLED
  9
$DIMTXT
 40
3.5
  9
$PDMODE
 70
3
  9
$PDSIZE
 40
0.3125
  9
$TILEMODE
 70
1
  0
ENDSEC
  0
SECTION
  2
TABLES
  0
TABLE
  2
LTYPE
 70
6
  0
LTYPE
  2
BYBLOCK
 70
0
  3

 72
65
 73
0
 40
0.0
  0
LTYPE
  2
BYLAYER
 70
0
  3

 72
65
 73
0
 40
0.0
  0
LTYPE
  2
CONTINUOUS
 70
64
  3
Solid line
 72
65
 73
0
 40
0.0
  0
LTYPE
  2
CENTER
 70
64
  3
____ _ ____ _ ____ _ ____ _ ____ _ ____ _ ____
 72
65
 73
4
 40
0.6
 49
0.375
 49
-0.075
 49
0.075
 49
-0.075
  0
LTYPE
  2
HIDDEN
 70
64
  3
- - - - - - - - - - - - - - - - - - - -
 72
65
 73
2
 40
0.2
 49
0.1
 49
-0.1
  0
LTYPE
  2
PHANTOM
 70
64
  3
_____ _ _ _____ _ _ _____ _ _ _____
 72
65
 73
6
 40
0.8
 49
0.45
 49
-0.05
 49
0.1
 49
-0.05
 49
0.1
 49
-0.05
  0
LTYPE
  2
DOT
 70
64
  3
. . . . . . . . . . . . . . . . . . . .
 72
65
 73
2
 40
0.2
 49
0.1
 49
-0.1
  0
LTYPE
  2
DASHED
 70
64
  3
- - - - - - - - - - - - - - - - - - - -
 72
65
 73
2
 40
0.2
 49
0.1
 49
-0.1
  0
ENDTAB
  0
TABLE
  2
LAYER
 70
36
  0
LAYER
  2
0
 70
0
 62
7
  6
CONTINUOUS
  0
LAYER
  2
DEFAULT_1
 70
0
 62
7
  6
CENTER
  0
LAYER
  2
DEFAULT_2
 70
0
 62
8
  6
HIDDEN
  0
LAYER
  2
DEFAULT_3
 70
0
 62
7
  6
PHANTOM
  0
LAYER
  2
CSYS
 70
0
 62
7
  6
CONTINUOUS
  0
LAYER
  2
CURVE
 70
0
 62
7
  6
CONTINUOUS
  0
LAYER
  2
PITCHLINE
 70
0
 62
7
  6
CONTINUOUS
  0
LAYER
  2
SQ
 70
0
 62
7
  6
CONTINUOUS
  0
LAYER
  2
SURFACE
 70
0
 62
7
  6
CONTINUOUS
  0
ENDTAB
  0
TABLE
  2
STYLE
 70
1
  0
STYLE
  2
STANDARD
 70
0
 40
0.0
 41
0.8
 50
0.0
 71
0
 42
0.2
  3
txt
  4

  0
STYLE
  2
TEXTSTYLE_1
 70
0
 40
0.0
 41
0.8
 50
0.0
 71
0
 42
0.2
  3
gdt
  4

  0
STYLE
  2
TEXTSTYLE_2
 70
0
 40
0.0
 41
0.6
 50
0.0
 71
0
 42
0.2
  3
txt
  4

  0
STYLE
  2
TEXTSTYLE_3
 70
0
 40
0.0
 41
1.0
 50
0.0
 71
0
 42
0.2
  3
ftb_____.ttf
  4

  0
STYLE
  2
TEXTSTYLE_4
 70
0
 40
0.0
 41
1.0
 50
0.0
 71
0
 42
0.2
  3
fti_____.ttf
  4

  0
STYLE
  2
TEXTSTYLE_5
 70
0
 40
0.0
 41
1.0
 50
0.0
 71
0
 42
0.2
  3
frutiger light.ttf
  4

  0
STYLE
  2
TEXTSTYLE_6
 70
0
 40
0.0
 41
0.7
 50
0.0
 71
0
 42
0.2
  3
txt
  4

  0
STYLE
  2
TEXTSTYLE_7
 70
0
 40
0.0
 41
0.8
 50
0.0
 71
0
 42
0.2
  3
txt
  4

  0
ENDTAB
  0
ENDSEC
  0
SECTION
  2
BLOCKS
  0
BLOCK
  8
0
 62
2
  6
CONTINUOUS
  2
SYMBOL_8_BL1
 70
64
 10
173.5956734183
 20
35.5937998301
  0
TEXT
  8
0
 62
7
  6
CONTINUOUS
 10
164.6539584268
 20
30.6865562072
  7
TEXTSTYLE_4
 40
1.0655737705
  1
The brand for plastic modular belts and chains
 41
1.0
 72
0
  0
LINE
  8
0
 62
7
  6
CONTINUOUS
 10
149.5737418074
 20
36.1675703219
 11
149.5737418074
 21
34.0364227809
  0
LINE
  8
0
 62
7
  6
CONTINUOUS
 10
149.8628043005
 20
31.0454914852
 11
149.8628043005
 21
31.1422825445
  0
LINE
  8
0
 62
7
  6
CONTINUOUS
 10
149.5737418074
 20
31.1100188581
 11
149.6315543091
 21
30.9164367395
  0
LINE
  8
0
 62
7
  6
CONTINUOUS
 10
150.9671844304
 20
33.9544555678
 11
150.9671844304
 21
36.1675703219
  0
LINE
  8
0
 62
7
  6
CONTINUOUS
 10
151.8862417523
 20
32.1101932727
 11
151.8862417523
 21
30.5937998301
  0
LINE
  8
0
 62
7
  6
CONTINUOUS
 10
152.1753043074
 20
30.5937998301
 11
152.1753043074
 21
31.3358647082
  0
LINE
  8
0
 62
7
  6
CONTINUOUS
 10
152.1753043074
 20
31.4649194539
 11
152.1753043074
 21
32.1101932727
  0
LINE
  8
0
 62
7
  6
CONTINUOUS
 10
149.6315543091
 20
31.3036010218
 11
149.5737418074
 21
31.1100188581
  0
LINE
  8
0
 62
7
  6
CONTINUOUS
 10
149.9784292936
 20
30.8841730531
 11
149.8628043005
 21
31.0454914852
  0
LINE
  8
0
 62
7
  6
CONTINUOUS
 10
151.0768668626
 20
31.400392081
 11
151.1346793074
 21
31.3036010218
  0
LINE
  8
0
 62
7
  6
CONTINUOUS
 10
151.4237418626
 20
31.3036010218
 11
151.3659292523
 21
31.4326557675
  0
LINE
  8
0
 62
7
  6
CONTINUOUS
 10
152.852430332
 20
36.1675703219
 11
152.852430332
 21
34.3642916334
  0
LINE
  8
0
 62
7
  6
CONTINUOUS
 10
152.852430332
 20
33.0528162235
 11
152.852430332
 21
32.3970785186
  0
LINE
  8
0
 62
7
  6
CONTINUOUS
 10
153.2159293074
 20
31.2390736489
 11
153.2159293074
 21
30.5937998301
  0
LINE
  8
0
 62
7
  6
CONTINUOUS
 10
153.5049916972
 20
30.5937998301
 11
153.5049916972
 21
31.2390736489
  0
LINE
  8
0
 62
7
  6
CONTINUOUS
 10
149.8628043005
 20
31.1422825445
 11
149.9206168074
 21
31.2713373354
  0
LINE
  8
0
 62
7
  6
CONTINUOUS
 10
149.6315543091
 20
30.9164367395
 11
149.7471793074
 21
30.7873819712
  0
LINE
  8
0
 62
7
  6
CONTINUOUS
 10
153.1581166972
 20
31.3681283946
 11
153.2159293074
 21
31.2390736489
  0
LINE
  8
0
 62
7
  6
CONTINUOUS
 10
153.9674919177
 20
30.8841730531
 11
154.0253041972
 21
30.7551182848
  0
LINE
  8
0
 62
7
  6
CONTINUOUS
 10
153.5049916972
 20
31.2390736489
 11
153.4471794177
 21
31.400392081
  0
LINE
  8
0
 62
7
  6
CONTINUOUS
 10
153.9674919177
 20
31.4326557675
 11
153.9674919177
 21
31.3681283946
  0
LINE
  8
0
 62
7
  6
CONTINUOUS
 10
153.9674919177
 20
30.9809641124
 11
153.9674919177
 21
30.8841730531
  0
LINE
  8
0
 62
7
  6
CONTINUOUS
 10
154.245872955
 20
32.3970785186
 11
154.245872955
 21
36.1675703219
  0
LINE
  8
0
 62
7
  6
CONTINUOUS
 10
154.2565543074
 20
30.8519093441
 11
154.2565543074
 21
30.9164367395
  0
LINE
  8
0
 62
7
  6
CONTINUOUS
 10
154.5737418074
 20
36.1675703219
 11
154.5737418074
 21
32.3970785186
  0
LINE
  8
0
 62
7
  6
CONTINUOUS
 10
151.3659292523
 20
30.7873819712
 11
151.4237418626
 21
30.9164367395
  0
LINE
  8
0
 62
7
  6
CONTINUOUS
 10
155.759679528
 20
30.6905909007
 11
155.7018665869
 21
30.8519093441
  0
LINE
  8
0
 62
7
  6
CONTINUOUS
 10
155.412804528
 20
31.3681283946
 11
155.412804528
 21
31.2713373354
  0
LINE
  8
0
 62
7
  6
CONTINUOUS
 10
155.412804528
 20
31.1422825445
 11
155.412804528
 21
30.9487004259
  0
LINE
  8
0
 62
7
  6
CONTINUOUS
 10
155.7018665869
 20
30.8519093441
 11
155.7018665869
 21
31.3681283946
  0
LINE
  8
0
 62
7
  6
CONTINUOUS
 10
155.9671844304
 20
32.3970785186
 11
155.9671844304
 21
34.2003572071
  0
LINE
  8
0
 62
7
  6
CONTINUOUS
 10
155.9671844304
 20
35.511832617
 11
155.9671844304
 21
36.1675703219
  0
LINE
  8
0
 62
7
  6
CONTINUOUS
 10
156.279992028
 20
32.1101932727
 11
156.279992028
 21
31.9488748406
  0
LINE
  8
0
 62
7
  6
CONTINUOUS
 10
156.279992028
 20
31.626237886
 11
156.279992028
 21
30.5937998301
  0
LINE
  8
0
 62
7
  6
CONTINUOUS
 10
156.5690540869
 20
30.5937998301
 11
156.5690540869
 21
31.626237886
  0
LINE
  8
0
 62
7
  6
CONTINUOUS
 10
156.5690540869
 20
31.9488748406
 11
156.5690540869
 21
32.1101932727
  0
LINE
  8
0
 62
7
  6
CONTINUOUS
 10
151.1346793074
 20
30.9164367395
 11
151.0768668626
 21
30.8196456577
  0
LINE
  8
0
 62
7
  6
CONTINUOUS
 10
153.4471794177
 20
31.400392081
 11
153.3893668074
 21
31.4649194539
  0
LINE
  8
0
 62
7
  6
CONTINUOUS
 10
154.3143669177
 20
30.7873819712
 11
154.2565543074
 21
30.8519093441
  0
LINE
  8
0
 62
7
  6
CONTINUOUS
 10
155.4706168074
 20
30.6583272086
 11
155.5284290869
 21
30.5937998301
  0
LINE
  8
0
 62
7
  6
CONTINUOUS
 10
155.412804528
 20
30.7551182848
 11
155.4706168074
 21
30.6583272086
  0
LINE
  8
0
 62
7
  6
CONTINUOUS
 10
155.8174918074
 20
30.5937998301
 11
155.759679528
 21
30.6905909007
  0
LINE
  8
0
 62
7
  6
CONTINUOUS
 10
155.7018665869
 20
31.3681283946
 11
155.6440543074
 21
31.4649194539
  0
LINE
  8
0
 62
7
  6
CONTINUOUS
 10
157.0315543074
 20
31.626237886
 11
157.0315543074
 21
30.5937998301
  0
LINE
  8
0
 62
7
  6
CONTINUOUS
 10
157.320617028
 20
30.5937998301
 11
157.320617028
 21
31.3358647082
  0
LINE
  8
0
 62
7
  6
CONTINUOUS
 10
157.320617028
 20
31.4649194539
 11
157.320617028
 21
31.626237886
  0
LINE
  8
0
 62
7
  6
CONTINUOUS
 10
157.852430332
 20
34.6101932727
 11
157.852430332
 21
32.3970785186
  0
LINE
  8
0
 62
7
  6
CONTINUOUS
 10
149.7471793074
 20
31.4326557675
 11
149.6315543091
 21
31.3036010218
  0
LINE
  8
0
 62
7
  6
CONTINUOUS
 10
149.9206168074
 20
31.2713373354
 11
149.9784292936
 21
31.3358647082
  0
LINE
  8
0
 62
7
  6
CONTINUOUS
 10
149.7471793074
 20
30.7873819712
 11
149.8628043005
 21
30.7228545871
  0
LINE
  8
0
 62
7
  6
CONTINUOUS
 10
150.1518667936
 20
30.7873819712
 11
149.9784292936
 21
30.8841730531
  0
LINE
  8
0
 62
7
  6
CONTINUOUS
 10
155.3549915869
 20
31.4326557675
 11
155.412804528
 21
31.3681283946
  0
LINE
  8
0
 62
7
  6
CONTINUOUS
 10
158.3034290869
 20
31.3681283946
 11
158.361242028
 21
31.2068099625
  0
LINE
  8
0
 62
7
  6
CONTINUOUS
 10
158.6503040869
 20
31.2068099625
 11
158.5924918074
 21
31.3681283946
  0
LINE
  8
0
 62
7
  6
CONTINUOUS
 10
158.361242028
 20
31.2068099625
 11
158.361242028
 21
30.5937998301
  0
LINE
  8
0
 62
7
  6
CONTINUOUS
 10
158.6503040869
 20
30.5937998301
 11
158.6503040869
 21
31.2068099625
  0
LINE
  8
0
 62
7
  6
CONTINUOUS
 10
159.1128043074
 20
31.4326557675
 11
159.1128043074
 21
31.3681283946
  0
LINE
  8
0
 62
7
  6
CONTINUOUS
 10
159.245872955
 20
32.3970785186
 11
159.245872955
 21
34.5282260596
  0
LINE
  8
0
 62
7
  6
CONTINUOUS
 10
159.5737418074
 20
36.1675703219
 11
159.5737418074
 21
32.3970785186
  0
LINE
  8
0
 62
7
  6
CONTINUOUS
 10
154.2565543074
 20
30.9164367395
 11
154.3143669177
 21
31.0132277988
  0
LINE
  8
0
 62
7
  6
CONTINUOUS
 10
149.8628043005
 20
30.7228545871
 11
150.0362418212
 21
30.6583272086
  0
LINE
  8
0
 62
7
  6
CONTINUOUS
 10
151.3659292523
 20
31.4326557675
 11
151.1924917523
 21
31.5294468267
  0
LINE
  8
0
 62
7
  6
CONTINUOUS
 10
154.0253041972
 20
30.7551182848
 11
154.1987416972
 21
30.6583272086
  0
LINE
  8
0
 62
7
  6
CONTINUOUS
 10
153.0424918074
 20
31.4326557675
 11
153.1581166972
 21
31.3681283946
  0
LINE
  8
0
 62
7
  6
CONTINUOUS
 10
153.3893668074
 20
31.4649194539
 11
153.2737419177
 21
31.5294468267
  0
LINE
  8
0
 62
7
  6
CONTINUOUS
 10
159.1128043074
 20
30.8519093441
 11
159.228429528
 21
30.7228545871
  0
LINE
  8
0
 62
7
  6
CONTINUOUS
 10
159.4596793074
 20
30.7873819712
 11
159.401867028
 21
30.8519093441
  0
LINE
  8
0
 62
7
  6
CONTINUOUS
 10
159.1128043074
 20
31.3681283946
 11
159.228429528
 21
31.2390736489
  0
LINE
  8
0
 62
7
  6
CONTINUOUS
 10
158.5924918074
 20
31.3681283946
 11
158.534679528
 21
31.4649194539
  0
LINE
  8
0
 62
7
  6
CONTINUOUS
 10
160.9628038663
 20
30.7873819712
 11
160.9628038663
 21
30.8519093441
  0
LINE
  8
0
 62
7
  6
CONTINUOUS
 10
160.9671844304
 20
32.3970785186
 11
160.9671844304
 21
36.1675703219
  0
LINE
  8
0
 62
7
  6
CONTINUOUS
 10
154.0253041972
 20
31.4971831403
 11
153.9674919177
 21
31.4326557675
  0
LINE
  8
0
 62
7
  6
CONTINUOUS
 10
150.9034292799
 20
31.4649194539
 11
151.0768668626
 21
31.400392081
  0
LINE
  8
0
 62
7
  6
CONTINUOUS
 10
155.6440543074
 20
31.4649194539
 11
155.5284290869
 21
31.5294468267
  0
LINE
  8
0
 62
7
  6
CONTINUOUS
 10
159.4596793074
 20
31.3036010218
 11
159.401867028
 21
31.3681283946
  0
LINE
  8
0
 62
7
  6
CONTINUOUS
 10
160.615929528
 20
30.9164367395
 11
160.6737418074
 21
30.8519093441
  0
LINE
  8
0
 62
7
  6
CONTINUOUS
 10
160.9628038663
 20
30.8519093441
 11
160.8471793074
 21
30.9809641124
  0
LINE
  8
0
 62
7
  6
CONTINUOUS
 10
160.615929528
 20
31.4326557675
 11
160.6737418074
 21
31.3681283946
  0
LINE
  8
0
 62
7
  6
CONTINUOUS
 10
160.9628038663
 20
31.3681283946
 11
160.8471793074
 21
31.4971831403
  0
LINE
  8
0
 62
7
  6
CONTINUOUS
 10
154.2565543074
 20
31.3681283946
 11
154.3143669177
 21
31.4326557675
  0
LINE
  8
0
 62
7
  6
CONTINUOUS
 10
154.0831168074
 20
31.1100188581
 11
153.9674919177
 21
30.9809641124
  0
LINE
  8
0
 62
7
  6
CONTINUOUS
 10
155.412804528
 20
30.9487004259
 11
155.3549915869
 21
30.8841730531
  0
LINE
  8
0
 62
7
  6
CONTINUOUS
 10
155.3549915869
 20
30.6905909007
 11
155.412804528
 21
30.7551182848
  0
LINE
  8
0
 62
7
  6
CONTINUOUS
 10
154.1987416972
 20
30.6583272086
 11
154.3143669177
 21
30.6260635193
  0
LINE
  8
0
 62
7
  6
CONTINUOUS
 10
151.1924917523
 20
31.5294468267
 11
150.9612418074
 21
31.5939741996
  0
LINE
  8
0
 62
7
  6
CONTINUOUS
 10
154.5456166972
 20
30.7228545871
 11
154.3143669177
 21
30.7873819712
  0
LINE
  8
0
 62
7
  6
CONTINUOUS
 10
153.2737419177
 20
31.5294468267
 11
153.1003044177
 21
31.5939741996
  0
LINE
  8
0
 62
7
  6
CONTINUOUS
 10
155.5284290869
 20
31.5294468267
 11
155.3549915869
 21
31.5939741996
  0
LINE
  8
0
 62
7
  6
CONTINUOUS
 10
158.187804528
 20
31.4326557675
 11
158.3034290869
 21
31.3681283946
  0
LINE
  8
0
 62
7
  6
CONTINUOUS
 10
158.534679528
 20
31.4649194539
 11
158.4190543074
 21
31.5294468267
  0
LINE
  8
0
 62
7
  6
CONTINUOUS
 10
150.0362418212
 20
30.6583272086
 11
150.2096793212
 21
30.6260635193
  0
LINE
  8
0
 62
7
  6
CONTINUOUS
 10
150.498741835
 20
30.7228545871
 11
150.1518667936
 21
30.7873819712
  0
LINE
  8
0
 62
7
  6
CONTINUOUS
 10
152.9268669177
 20
31.4649194539
 11
153.0424918074
 21
31.4326557675
  0
LINE
  8
0
 62
7
  6
CONTINUOUS
 10
155.239367028
 20
31.4649194539
 11
155.3549915869
 21
31.4326557675
  0
LINE
  8
0
 62
7
  6
CONTINUOUS
 10
159.575304528
 20
30.7551182848
 11
159.4596793074
 21
30.7873819712
  0
LINE
  8
0
 62
7
  6
CONTINUOUS
 10
158.0721793074
 20
31.4649194539
 11
158.187804528
 21
31.4326557675
  0
LINE
  8
0
 62
7
  6
CONTINUOUS
 10
159.228429528
 20
30.7228545871
 11
159.401867028
 21
30.6583272086
  0
LINE
  8
0
 62
7
  6
CONTINUOUS
 10
158.4190543074
 20
31.5294468267
 11
158.2456168074
 21
31.5939741996
  0
LINE
  8
0
 62
7
  6
CONTINUOUS
 10
159.6331168074
 20
31.2390736489
 11
159.4596793074
 21
31.3036010218
  0
LINE
  8
0
 62
7
  6
CONTINUOUS
 10
160.442492028
 20
30.9809641124
 11
160.615929528
 21
30.9164367395
  0
LINE
  8
0
 62
7
  6
CONTINUOUS
 10
160.8471793074
 20
31.4971831403
 11
160.6737418074
 21
31.5617105132
  0
LINE
  8
0
 62
7
  6
CONTINUOUS
 10
159.228429528
 20
31.2390736489
 11
159.4596793074
 21
31.1422825445
  0
LINE
  8
0
 62
7
  6
CONTINUOUS
 10
160.8471793074
 20
30.9809641124
 11
160.615929528
 21
31.0777551716
  0
LINE
  8
0
 62
7
  6
CONTINUOUS
 10
159.401867028
 20
31.3681283946
 11
159.4596793074
 21
31.4326557675
  0
LINE
  8
0
 62
7
  6
CONTINUOUS
 10
149.8628043005
 20
31.4971831403
 11
149.7471793074
 21
31.4326557675
  0
LINE
  8
0
 62
7
  6
CONTINUOUS
 10
149.9784292936
 20
31.3358647082
 11
150.1518667936
 21
31.4326557675
  0
LINE
  8
0
 62
7
  6
CONTINUOUS
 10
152.2909293626
 20
31.5294468267
 11
152.1753043074
 21
31.4649194539
  0
LINE
  8
0
 62
7
  6
CONTINUOUS
 10
152.1753043074
 20
31.3358647082
 11
152.2909293626
 21
31.400392081
  0
LINE
  8
0
 62
7
  6
CONTINUOUS
 10
151.1924917523
 20
30.6905909007
 11
151.3659292523
 21
30.7873819712
  0
LINE
  8
0
 62
7
  6
CONTINUOUS
 10
150.2096793212
 20
30.6260635193
 11
150.5565542799
 21
30.5937998301
  0
LINE
  8
0
 62
7
  6
CONTINUOUS
 10
154.3143669177
 20
30.6260635193
 11
154.5456166972
 21
30.5937998301
  0
LINE
  8
0
 62
7
  6
CONTINUOUS
 10
152.6956168074
 20
31.4971831403
 11
152.9268669177
 21
31.4649194539
  0
LINE
  8
0
 62
7
  6
CONTINUOUS
 10
155.0081169177
 20
31.4971831403
 11
155.239367028
 21
31.4649194539
  0
LINE
  8
0
 62
7
  6
CONTINUOUS
 10
159.4596793074
 20
31.1422825445
 11
160.442492028
 21
30.9809641124
  0
LINE
  8
0
 62
7
  6
CONTINUOUS
 10
160.615929528
 20
31.0777551716
 11
159.6331168074
 21
31.2390736489
  0
LINE
  8
0
 62
7
  6
CONTINUOUS
 10
153.1003044177
 20
31.5939741996
 11
152.9268669177
 21
31.626237886
  0
LINE
  8
0
 62
7
  6
CONTINUOUS
 10
159.401867028
 20
30.6583272086
 11
159.575304528
 21
30.6260635193
  0
LINE
  8
0
 62
7
  6
CONTINUOUS
 10
158.2456168074
 20
31.5939741996
 11
158.0721793074
 21
31.626237886
  0
LINE
  8
0
 62
7
  6
CONTINUOUS
 10
160.5003043074
 20
31.4649194539
 11
160.615929528
 21
31.4326557675
  0
LINE
  8
0
 62
7
  6
CONTINUOUS
 10
160.6737418074
 20
30.8519093441
 11
160.615929528
 21
30.7873819712
  0
LINE
  8
0
 62
7
  6
CONTINUOUS
 10
159.228429528
 20
31.5294468267
 11
159.1128043074
 21
31.4326557675
  0
LINE
  8
0
 62
7
  6
CONTINUOUS
 10
154.1409294177
 20
31.5617105132
 11
154.0253041972
 21
31.4971831403
  0
LINE
  8
0
 62
7
  6
CONTINUOUS
 10
154.1987416972
 20
31.1745462761
 11
154.0831168074
 21
31.1100188581
  0
LINE
  8
0
 62
7
  6
CONTINUOUS
 10
154.3143669177
 20
31.0132277988
 11
154.4299918074
 21
31.0777551716
  0
LINE
  8
0
 62
7
  6
CONTINUOUS
 10
151.8862417523
 20
30.5937998301
 11
152.1753043074
 21
30.5937998301
  0
LINE
  8
0
 62
7
  6
CONTINUOUS
 10
153.2159293074
 20
30.5937998301
 11
153.5049916972
 21
30.5937998301
  0
LINE
  8
0
 62
7
  6
CONTINUOUS
 10
154.5456166972
 20
30.5937998301
 11
154.8924916972
 21
30.5937998301
  0
LINE
  8
0
 62
7
  6
CONTINUOUS
 10
155.5284290869
 20
30.5937998301
 11
155.8174918074
 21
30.5937998301
  0
LINE
  8
0
 62
7
  6
CONTINUOUS
 10
156.279992028
 20
30.5937998301
 11
156.5690540869
 21
30.5937998301
  0
LINE
  8
0
 62
7
  6
CONTINUOUS
 10
157.0315543074
 20
30.5937998301
 11
157.320617028
 21
30.5937998301
  0
LINE
  8
0
 62
7
  6
CONTINUOUS
 10
158.361242028
 20
30.5937998301
 11
158.6503040869
 21
30.5937998301
  0
LINE
  8
0
 62
7
  6
CONTINUOUS
 10
159.922179528
 20
30.5937998301
 11
160.269054528
 21
30.5937998301
  0
LINE
  8
0
 62
7
  6
CONTINUOUS
 10
160.269054528
 20
30.7228545871
 11
159.922179528
 21
30.7228545871
  0
LINE
  8
0
 62
7
  6
CONTINUOUS
 10
154.8924916972
 20
30.7228545871
 11
154.5456166972
 21
30.7228545871
  0
LINE
  8
0
 62
7
  6
CONTINUOUS
 10
159.401867028
 20
30.8519093441
 11
159.1128043074
 21
30.8519093441
  0
LINE
  8
0
 62
7
  6
CONTINUOUS
 10
151.4237418626
 20
30.9164367395
 11
151.1346793074
 21
30.9164367395
  0
LINE
  8
0
 62
7
  6
CONTINUOUS
 10
150.498741835
 20
31.4971831403
 11
150.9034292799
 21
31.4649194539
  0
LINE
  8
0
 62
7
  6
CONTINUOUS
 10
150.9612418074
 20
31.5939741996
 11
150.5565542799
 21
31.626237886
  0
LINE
  8
0
 62
7
  6
CONTINUOUS
 10
159.575304528
 20
30.6260635193
 11
159.922179528
 21
30.5937998301
  0
LINE
  8
0
 62
7
  6
CONTINUOUS
 10
159.922179528
 20
30.7228545871
 11
159.575304528
 21
30.7551182848
  0
LINE
  8
0
 62
7
  6
CONTINUOUS
 10
155.3549915869
 20
31.5939741996
 11
155.0081169177
 21
31.626237886
  0
LINE
  8
0
 62
7
  6
CONTINUOUS
 10
160.1534293074
 20
31.4971831403
 11
160.5003043074
 21
31.4649194539
  0
LINE
  8
0
 62
7
  6
CONTINUOUS
 10
160.5003043074
 20
31.5939741996
 11
160.1534293074
 21
31.626237886
  0
LINE
  8
0
 62
7
  6
CONTINUOUS
 10
157.840929528
 20
31.4971831403
 11
158.0721793074
 21
31.4649194539
  0
LINE
  8
0
 62
7
  6
CONTINUOUS
 10
160.6737418074
 20
31.5617105132
 11
160.5003043074
 21
31.5939741996
  0
LINE
  8
0
 62
7
  6
CONTINUOUS
 10
160.8471793074
 20
30.6905909007
 11
160.9628038663
 21
30.7873819712
  0
LINE
  8
0
 62
7
  6
CONTINUOUS
 10
155.3549915869
 20
30.8841730531
 11
155.1815540869
 21
30.7873819712
  0
LINE
  8
0
 62
7
  6
CONTINUOUS
 10
157.4362415869
 20
31.5294468267
 11
157.320617028
 21
31.4649194539
  0
LINE
  8
0
 62
7
  6
CONTINUOUS
 10
157.320617028
 20
31.3358647082
 11
157.4362415869
 21
31.400392081
  0
LINE
  8
0
 62
7
  6
CONTINUOUS
 10
150.0362418212
 20
31.5617105132
 11
149.8628043005
 21
31.4971831403
  0
LINE
  8
0
 62
7
  6
CONTINUOUS
 10
152.4643666972
 20
31.5939741996
 11
152.2909293626
 21
31.5294468267
  0
LINE
  8
0
 62
7
  6
CONTINUOUS
 10
152.2909293626
 20
31.400392081
 11
152.4643666972
 21
31.4649194539
  0
LINE
  8
0
 62
7
  6
CONTINUOUS
 10
151.0768668626
 20
30.8196456577
 11
150.9034292799
 21
30.7551182848
  0
LINE
  8
0
 62
7
  6
CONTINUOUS
 10
160.5003043074
 20
30.7551182848
 11
160.269054528
 21
30.7228545871
  0
LINE
  8
0
 62
7
  6
CONTINUOUS
 10
154.8924916972
 20
30.5937998301
 11
155.1815540869
 21
30.6260635193
  0
LINE
  8
0
 62
7
  6
CONTINUOUS
 10
160.269054528
 20
30.5937998301
 11
160.615929528
 21
30.6260635193
  0
LINE
  8
0
 62
7
  6
CONTINUOUS
 10
150.5565542799
 20
30.5937998301
 11
150.9612418074
 21
30.6260635193
  0
LINE
  8
0
 62
7
  6
CONTINUOUS
 10
150.9034292799
 20
30.7551182848
 11
150.498741835
 21
30.7228545871
  0
LINE
  8
0
 62
7
  6
CONTINUOUS
 10
154.7768668074
 20
31.1422825445
 11
155.412804528
 21
31.1422825445
  0
LINE
  8
0
 62
7
  6
CONTINUOUS
 10
155.412804528
 20
31.2713373354
 11
154.7768668074
 21
31.2713373354
  0
LINE
  8
0
 62
7
  6
CONTINUOUS
 10
151.1346793074
 20
31.3036010218
 11
151.4237418626
 21
31.3036010218
  0
LINE
  8
0
 62
7
  6
CONTINUOUS
 10
153.9674919177
 20
31.3681283946
 11
154.2565543074
 21
31.3681283946
  0
LINE
  8
0
 62
7
  6
CONTINUOUS
 10
160.6737418074
 20
31.3681283946
 11
160.9628038663
 21
31.3681283946
  0
LINE
  8
0
 62
7
  6
CONTINUOUS
 10
154.6612419177
 20
31.4971831403
 11
155.0081169177
 21
31.4971831403
  0
LINE
  8
0
 62
7
  6
CONTINUOUS
 10
159.8065543074
 20
31.4971831403
 11
160.1534293074
 21
31.4971831403
  0
LINE
  8
0
 62
7
  6
CONTINUOUS
 10
160.1534293074
 20
31.626237886
 11
159.8065543074
 21
31.626237886
  0
LINE
  8
0
 62
7
  6
CONTINUOUS
 10
158.0721793074
 20
31.626237886
 11
157.840929528
 21
31.626237886
  0
LINE
  8
0
 62
7
  6
CONTINUOUS
 10
157.320617028
 20
31.626237886
 11
157.0315543074
 21
31.626237886
  0
LINE
  8
0
 62
7
  6
CONTINUOUS
 10
156.5690540869
 20
31.626237886
 11
156.279992028
 21
31.626237886
  0
LINE
  8
0
 62
7
  6
CONTINUOUS
 10
155.0081169177
 20
31.626237886
 11
154.6612419177
 21
31.626237886
  0
LINE
  8
0
 62
7
  6
CONTINUOUS
 10
152.9268669177
 20
31.626237886
 11
152.6956168074
 21
31.626237886
  0
LINE
  8
0
 62
7
  6
CONTINUOUS
 10
156.279992028
 20
31.9488748406
 11
156.5690540869
 21
31.9488748406
  0
LINE
  8
0
 62
7
  6
CONTINUOUS
 10
156.5690540869
 20
32.1101932727
 11
156.279992028
 21
32.1101932727
  0
LINE
  8
0
 62
7
  6
CONTINUOUS
 10
152.1753043074
 20
32.1101932727
 11
151.8862417523
 21
32.1101932727
  0
LINE
  8
0
 62
7
  6
CONTINUOUS
 10
151.2130860697
 20
32.3970785186
 11
151.6256574183
 21
32.3970785186
  0
LINE
  8
0
 62
7
  6
CONTINUOUS
 10
152.852430332
 20
32.3970785186
 11
154.245872955
 21
32.3970785186
  0
LINE
  8
0
 62
7
  6
CONTINUOUS
 10
154.5737418074
 20
32.3970785186
 11
155.9671844304
 21
32.3970785186
  0
LINE
  8
0
 62
7
  6
CONTINUOUS
 10
157.852430332
 20
32.3970785186
 11
159.245872955
 21
32.3970785186
  0
LINE
  8
0
 62
7
  6
CONTINUOUS
 10
159.5737418074
 20
32.3970785186
 11
160.9671844304
 21
32.3970785186
  0
LINE
  8
0
 62
7
  6
CONTINUOUS
 10
157.6096790869
 20
31.5939741996
 11
157.4362415869
 21
31.5294468267
  0
LINE
  8
0
 62
7
  6
CONTINUOUS
 10
155.1815540869
 20
30.6260635193
 11
155.3549915869
 21
30.6905909007
  0
LINE
  8
0
 62
7
  6
CONTINUOUS
 10
160.615929528
 20
30.6260635193
 11
160.8471793074
 21
30.6905909007
  0
LINE
  8
0
 62
7
  6
CONTINUOUS
 10
160.615929528
 20
30.7873819712
 11
160.5003043074
 21
30.7551182848
  0
LINE
  8
0
 62
7
  6
CONTINUOUS
 10
159.575304528
 20
31.4649194539
 11
159.8065543074
 21
31.4971831403
  0
LINE
  8
0
 62
7
  6
CONTINUOUS
 10
157.6096790869
 20
31.4649194539
 11
157.840929528
 21
31.4971831403
  0
LINE
  8
0
 62
7
  6
CONTINUOUS
 10
154.5456166972
 20
31.1100188581
 11
154.7768668074
 21
31.1422825445
  0
LINE
  8
0
 62
7
  6
CONTINUOUS
 10
157.840929528
 20
31.626237886
 11
157.6096790869
 21
31.5939741996
  0
LINE
  8
0
 62
7
  6
CONTINUOUS
 10
154.4299918074
 20
31.4649194539
 11
154.6612419177
 21
31.4971831403
  0
LINE
  8
0
 62
7
  6
CONTINUOUS
 10
159.8065543074
 20
31.626237886
 11
159.4596793074
 21
31.5939741996
  0
LINE
  8
0
 62
7
  6
CONTINUOUS
 10
154.7768668074
 20
31.2713373354
 11
154.4299918074
 21
31.2390736489
  0
LINE
  8
0
 62
7
  6
CONTINUOUS
 10
150.5565542799
 20
31.626237886
 11
150.2096793212
 21
31.5939741996
  0
LINE
  8
0
 62
7
  6
CONTINUOUS
 10
154.6612419177
 20
31.626237886
 11
154.2565543074
 21
31.5939741996
  0
LINE
  8
0
 62
7
  6
CONTINUOUS
 10
152.0327582009
 20
33.5446195022
 11
151.3770204959
 21
33.5446195022
  0
LINE
  8
0
 62
7
  6
CONTINUOUS
 10
157.4362415869
 20
31.400392081
 11
157.6096790869
 21
31.4649194539
  0
LINE
  8
0
 62
7
  6
CONTINUOUS
 10
159.4596793074
 20
31.4326557675
 11
159.575304528
 21
31.4649194539
  0
LINE
  8
0
 62
7
  6
CONTINUOUS
 10
159.4596793074
 20
31.5939741996
 11
159.228429528
 21
31.5294468267
  0
LINE
  8
0
 62
7
  6
CONTINUOUS
 10
155.1815540869
 20
30.7873819712
 11
154.8924916972
 21
30.7228545871
  0
LINE
  8
0
 62
7
  6
CONTINUOUS
 10
152.4643666972
 20
31.4649194539
 11
152.6956168074
 21
31.4971831403
  0
LINE
  8
0
 62
7
  6
CONTINUOUS
 10
152.6956168074
 20
31.626237886
 11
152.4643666972
 21
31.5939741996
  0
LINE
  8
0
 62
7
  6
CONTINUOUS
 10
150.2674918074
 20
31.4649194539
 11
150.498741835
 21
31.4971831403
  0
LINE
  8
0
 62
7
  6
CONTINUOUS
 10
156.7868565615
 20
35.0200293383
 11
157.4425942664
 21
35.0200293383
  0
LINE
  8
0
 62
7
  6
CONTINUOUS
 10
154.4299918074
 20
31.0777551716
 11
154.5456166972
 21
31.1100188581
  0
LINE
  8
0
 62
7
  6
CONTINUOUS
 10
154.4299918074
 20
31.2390736489
 11
154.1987416972
 21
31.1745462761
  0
LINE
  8
0
 62
7
  6
CONTINUOUS
 10
154.3143669177
 20
31.4326557675
 11
154.4299918074
 21
31.4649194539
  0
LINE
  8
0
 62
7
  6
CONTINUOUS
 10
150.9612418074
 20
30.6260635193
 11
151.1924917523
 21
30.6905909007
  0
LINE
  8
0
 62
7
  6
CONTINUOUS
 10
154.2565543074
 20
31.5939741996
 11
154.1409294177
 21
31.5617105132
  0
LINE
  8
0
 62
7
  6
CONTINUOUS
 10
150.2096793212
 20
31.5939741996
 11
150.0362418212
 21
31.5617105132
  0
LINE
  8
0
 62
7
  6
CONTINUOUS
 10
160.9671844304
 20
36.1675703219
 11
159.5737418074
 21
36.1675703219
  0
LINE
  8
0
 62
7
  6
CONTINUOUS
 10
157.6065286927
 20
36.1675703219
 11
157.1939573441
 21
36.1675703219
  0
LINE
  8
0
 62
7
  6
CONTINUOUS
 10
155.9671844304
 20
36.1675703219
 11
154.5737418074
 21
36.1675703219
  0
LINE
  8
0
 62
7
  6
CONTINUOUS
 10
154.245872955
 20
36.1675703219
 11
152.852430332
 21
36.1675703219
  0
LINE
  8
0
 62
7
  6
CONTINUOUS
 10
150.9671844304
 20
36.1675703219
 11
149.5737418074
 21
36.1675703219
  0
LINE
  8
0
 62
7
  6
CONTINUOUS
 10
150.1518667936
 20
31.4326557675
 11
150.2674918074
 21
31.4649194539
  0
CIRCLE
  8
0
 62
7
  6
CONTINUOUS
 10
160.2704631189
 20
38.5036358957
 40
2.0901639344
  0
ARC
  8
0
 62
7
  6
CONTINUOUS
 10
151.2130860697
 20
34.0364227809
 40
1.6393442623
 50
180.0
 51
270.0
  0
ARC
  8
0
 62
7
  6
CONTINUOUS
 10
157.6065286927
 20
34.5282260596
 40
1.6393442623
 50
0.0
 51
90.0
  0
ARC
  8
0
 62
7
  6
CONTINUOUS
 10
151.6256574183
 20
33.8724883547
 40
1.4754098361
 50
270.0
 51
326.2510114041
  0
ARC
  8
0
 62
7
  6
CONTINUOUS
 10
157.1939573441
 20
34.6921604858
 40
1.4754098361
 50
90.0
 51
146.2510114041
  0
ARC
  8
0
 62
7
  6
CONTINUOUS
 10
152.0327582009
 20
34.3642916334
 40
0.8196721311
 50
270.0
 51
360.0
  0
ARC
  8
0
 62
7
  6
CONTINUOUS
 10
156.7868565615
 20
34.2003572071
 40
0.8196721311
 50
90.0
 51
180.0
  0
ARC
  8
0
 62
7
  6
CONTINUOUS
 10
151.3770204959
 20
33.9544555678
 40
0.4098360656
 50
180.0
 51
270.0
  0
ARC
  8
0
 62
7
  6
CONTINUOUS
 10
157.4425942664
 20
34.6101932727
 40
0.4098360656
 50
0.0
 51
90.0
  0
SOLID
  8
0
 62
7
  6
CONTINUOUS
 10
156.279992028
 20
31.9488752009
 11
156.279992028
 21
32.1101936845
 12
156.5690540869
 22
31.9488752009
 13
156.5690540869
 23
32.1101936845
  0
SOLID
  8
0
 62
7
  6
CONTINUOUS
 10
150.5565542799
 20
31.6262382337
 11
150.9612418074
 21
31.5939740028
 12
150.2096793212
 22
31.5939740028
 13
150.2096793212
 23
31.5939740028
  0
SOLID
  8
0
 62
7
  6
CONTINUOUS
 10
150.0362418212
 20
31.5617111435
 11
150.2096793212
 21
31.5939740028
 12
150.9612418074
 22
31.5939740028
 13
150.9612418074
 23
31.5939740028
  0
SOLID
  8
0
 62
7
  6
CONTINUOUS
 10
150.9612418074
 20
31.5939740028
 11
151.1924917523
 21
31.5294468402
 12
150.0362418212
 22
31.5617111435
 13
150.0362418212
 23
31.5617111435
  0
SOLID
  8
0
 62
7
  6
CONTINUOUS
 10
149.8628043005
 20
31.49718259
 11
150.0362418212
 21
31.5617111435
 12
151.1924917523
 22
31.5294468402
 13
151.1924917523
 23
31.5294468402
  0
SOLID
  8
0
 62
7
  6
CONTINUOUS
 10
149.8628043005
 20
31.49718259
 11
151.1924917523
 21
31.5294468402
 12
150.498741835
 22
31.49718259
 13
150.498741835
 23
31.49718259
  0
SOLID
  8
0
 62
7
  6
CONTINUOUS
 10
150.498741835
 20
31.49718259
 11
151.1924917523
 21
31.5294468402
 12
150.9034292799
 22
31.4649197501
 13
150.9034292799
 23
31.4649197501
  0
SOLID
  8
0
 62
7
  6
CONTINUOUS
 10
151.1924917523
 20
31.5294468402
 11
151.3659292523
 21
31.4326554468
 12
150.9034292799
 22
31.4649197501
 13
150.9034292799
 23
31.4649197501
  0
SOLID
  8
0
 62
7
  6
CONTINUOUS
 10
151.0768668626
 20
31.4003926599
 11
150.9034292799
 21
31.4649197501
 12
151.3659292523
 22
31.4326554468
 13
151.3659292523
 23
31.4326554468
  0
SOLID
  8
0
 62
7
  6
CONTINUOUS
 10
151.0768668626
 20
31.4003926599
 11
151.3659292523
 21
31.4326554468
 12
151.1346793074
 22
31.3036013776
 13
151.1346793074
 23
31.3036013776
  0
SOLID
  8
0
 62
7
  6
CONTINUOUS
 10
151.3659292523
 20
31.4326554468
 11
151.4237418626
 21
31.3036013776
 12
151.1346793074
 22
31.3036013776
 13
151.1346793074
 23
31.3036013776
  0
SOLID
  8
0
 62
7
  6
CONTINUOUS
 10
152.4643666972
 20
31.5939739754
 11
152.6956168074
 21
31.6262382787
 12
152.9268669177
 22
31.6262382787
 13
152.9268669177
 23
31.6262382787
  0
SOLID
  8
0
 62
7
  6
CONTINUOUS
 10
152.9268669177
 20
31.6262382787
 11
153.1003044177
 21
31.5939739754
 12
152.4643666972
 22
31.5939739754
 13
152.4643666972
 23
31.5939739754
  0
SOLID
  8
0
 62
7
  6
CONTINUOUS
 10
152.2909293626
 20
31.5294468852
 11
152.4643666972
 21
31.5939739754
 12
153.1003044177
 22
31.5939739754
 13
153.1003044177
 23
31.5939739754
  0
SOLID
  8
0
 62
7
  6
CONTINUOUS
 10
153.1003044177
 20
31.5939739754
 11
153.2737419177
 21
31.5294468852
 12
152.2909293626
 22
31.5294468852
 13
152.2909293626
 23
31.5294468852
  0
SOLID
  8
0
 62
7
  6
CONTINUOUS
 10
153.2737419177
 20
31.5294468852
 11
152.6956168074
 21
31.4971825369
 12
152.2909293626
 22
31.5294468852
 13
152.2909293626
 23
31.5294468852
  0
SOLID
  8
0
 62
7
  6
CONTINUOUS
 10
152.1753043074
 20
31.4649197951
 11
152.2909293626
 21
31.5294468852
 12
152.6956168074
 22
31.4971825369
 13
152.6956168074
 23
31.4971825369
  0
SOLID
  8
0
 62
7
  6
CONTINUOUS
 10
152.6956168074
 20
31.4971825369
 11
152.4643666972
 21
31.4649197951
 12
152.1753043074
 22
31.4649197951
 13
152.1753043074
 23
31.4649197951
  0
SOLID
  8
0
 62
7
  6
CONTINUOUS
 10
152.6956168074
 20
31.4971825369
 11
153.2737419177
 21
31.5294468852
 12
152.9268669177
 22
31.4649197951
 13
152.9268669177
 23
31.4649197951
  0
SOLID
  8
0
 62
7
  6
CONTINUOUS
 10
153.2737419177
 20
31.5294468852
 11
153.3893668074
 21
31.4649197951
 12
152.9268669177
 22
31.4649197951
 13
152.9268669177
 23
31.4649197951
  0
SOLID
  8
0
 62
7
  6
CONTINUOUS
 10
153.0424918074
 20
31.4326554468
 11
152.9268669177
 21
31.4649197951
 12
153.3893668074
 22
31.4649197951
 13
153.3893668074
 23
31.4649197951
  0
SOLID
  8
0
 62
7
  6
CONTINUOUS
 10
153.3893668074
 20
31.4649197951
 11
153.4471794177
 21
31.4003927049
 12
153.0424918074
 22
31.4326554468
 13
153.0424918074
 23
31.4326554468
  0
SOLID
  8
0
 62
7
  6
CONTINUOUS
 10
153.1581166972
 20
31.3681283566
 11
153.0424918074
 21
31.4326554468
 12
153.4471794177
 22
31.4003927049
 13
153.4471794177
 23
31.4003927049
  0
SOLID
  8
0
 62
7
  6
CONTINUOUS
 10
153.1581166972
 20
31.3681283566
 11
153.4471794177
 21
31.4003927049
 12
153.2159293074
 22
31.2390742213
 13
153.2159293074
 23
31.2390742213
  0
SOLID
  8
0
 62
7
  6
CONTINUOUS
 10
153.4471794177
 20
31.4003927049
 11
153.5049916972
 21
31.2390742213
 12
153.2159293074
 22
31.2390742213
 13
153.2159293074
 23
31.2390742213
  0
SOLID
  8
0
 62
7
  6
CONTINUOUS
 10
152.4643666972
 20
31.4649197951
 11
152.2909293626
 21
31.4003927049
 12
152.1753043074
 22
31.4649197951
 13
152.1753043074
 23
31.4649197951
  0
SOLID
  8
0
 62
7
  6
CONTINUOUS
 10
152.2909293626
 20
31.4003927049
 11
152.1753043074
 21
31.3358640533
 12
152.1753043074
 22
31.4649197951
 13
152.1753043074
 23
31.4649197951
  0
SOLID
  8
0
 62
7
  6
CONTINUOUS
 10
152.1753043074
 20
31.3358640533
 11
151.8862417523
 21
30.5938002869
 12
152.1753043074
 22
31.4649197951
 13
152.1753043074
 23
31.4649197951
  0
SOLID
  8
0
 62
7
  6
CONTINUOUS
 10
152.1753043074
 20
31.4649197951
 11
151.8862417523
 21
30.5938002869
 12
152.1753043074
 22
32.1101937295
 13
152.1753043074
 23
32.1101937295
  0
SOLID
  8
0
 62
7
  6
CONTINUOUS
 10
151.8862417523
 20
30.5938002869
 11
151.8862417523
 21
32.1101937295
 12
152.1753043074
 22
32.1101937295
 13
152.1753043074
 23
32.1101937295
  0
SOLID
  8
0
 62
7
  6
CONTINUOUS
 10
152.1753043074
 20
31.3358640533
 11
152.1753043074
 21
30.5938002869
 12
151.8862417523
 22
30.5938002869
 13
151.8862417523
 23
30.5938002869
  0
SOLID
  8
0
 62
7
  6
CONTINUOUS
 10
153.2159293074
 20
30.5938002869
 11
153.2159293074
 21
31.2390742213
 12
153.5049916972
 22
31.2390742213
 13
153.5049916972
 23
31.2390742213
  0
SOLID
  8
0
 62
7
  6
CONTINUOUS
 10
153.5049916972
 20
31.2390742213
 11
153.5049916972
 21
30.5938002869
 12
153.2159293074
 22
30.5938002869
 13
153.2159293074
 23
30.5938002869
  0
SOLID
  8
0
 62
7
  6
CONTINUOUS
 10
154.2565543074
 20
31.5939738288
 11
154.6612419177
 21
31.6262385959
 12
155.0081169177
 22
31.6262385959
 13
155.0081169177
 23
31.6262385959
  0
SOLID
  8
0
 62
7
  6
CONTINUOUS
 10
155.0081169177
 20
31.6262385959
 11
155.3549915869
 21
31.5939738288
 12
154.2565543074
 22
31.5939738288
 13
154.2565543074
 23
31.5939738288
  0
SOLID
  8
0
 62
7
  6
CONTINUOUS
 10
154.1409294177
 20
31.5617111435
 11
154.2565543074
 21
31.5939738288
 12
155.3549915869
 22
31.5939738288
 13
155.3549915869
 23
31.5939738288
  0
SOLID
  8
0
 62
7
  6
CONTINUOUS
 10
155.3549915869
 20
31.5939738288
 11
155.5284290869
 21
31.5294468402
 12
154.1409294177
 22
31.5617111435
 13
154.1409294177
 23
31.5617111435
  0
SOLID
  8
0
 62
7
  6
CONTINUOUS
 10
154.0253041972
 20
31.4971826249
 11
154.1409294177
 21
31.5617111435
 12
155.5284290869
 22
31.5294468402
 13
155.5284290869
 23
31.5294468402
  0
SOLID
  8
0
 62
7
  6
CONTINUOUS
 10
154.0253041972
 20
31.4971826249
 11
155.5284290869
 21
31.5294468402
 12
154.6612419177
 22
31.4971826249
 13
154.6612419177
 23
31.4971826249
  0
SOLID
  8
0
 62
7
  6
CONTINUOUS
 10
154.6612419177
 20
31.4971826249
 11
155.5284290869
 21
31.5294468402
 12
155.0081169177
 22
31.4971826249
 13
155.0081169177
 23
31.4971826249
  0
SOLID
  8
0
 62
7
  6
CONTINUOUS
 10
155.0081169177
 20
31.4971826249
 11
155.5284290869
 21
31.5294468402
 12
155.239367028
 22
31.4649194065
 13
155.239367028
 23
31.4649194065
  0
SOLID
  8
0
 62
7
  6
CONTINUOUS
 10
155.5284290869
 20
31.5294468402
 11
155.6440543074
 21
31.4649194065
 12
155.239367028
 22
31.4649194065
 13
155.239367028
 23
31.4649194065
  0
SOLID
  8
0
 62
7
  6
CONTINUOUS
 10
153.9674919177
 20
31.4326554138
 11
154.0253041972
 21
31.4971826249
 12
154.6612419177
 22
31.4971826249
 13
154.6612419177
 23
31.4971826249
  0
SOLID
  8
0
 62
7
  6
CONTINUOUS
 10
155.3549915869
 20
31.4326554138
 11
155.239367028
 21
31.4649194065
 12
155.6440543074
 22
31.4649194065
 13
155.6440543074
 23
31.4649194065
  0
SOLID
  8
0
 62
7
  6
CONTINUOUS
 10
155.3549915869
 20
31.4326554138
 11
155.6440543074
 21
31.4649194065
 12
155.412804528
 22
31.3681282026
 13
155.412804528
 23
31.3681282026
  0
SOLID
  8
0
 62
7
  6
CONTINUOUS
 10
155.6440543074
 20
31.4649194065
 11
155.7018665869
 21
31.3681282026
 12
155.412804528
 22
31.3681282026
 13
155.412804528
 23
31.3681282026
  0
SOLID
  8
0
 62
7
  6
CONTINUOUS
 10
155.412804528
 20
31.2713369632
 11
155.412804528
 21
31.3681282026
 12
155.7018665869
 22
31.3681282026
 13
155.7018665869
 23
31.3681282026
  0
SOLID
  8
0
 62
7
  6
CONTINUOUS
 10
155.412804528
 20
31.2713369632
 11
155.7018665869
 21
31.3681282026
 12
155.412804528
 22
31.1422827828
 13
155.412804528
 23
31.1422827828
  0
SOLID
  8
0
 62
7
  6
CONTINUOUS
 10
155.412804528
 20
31.1422827828
 11
155.7018665869
 21
31.3681282026
 12
155.412804528
 22
30.9487004259
 13
155.412804528
 23
30.9487004259
  0
SOLID
  8
0
 62
7
  6
CONTINUOUS
 10
155.7018665869
 20
31.3681282026
 11
155.7018665869
 21
30.8519086025
 12
155.412804528
 22
30.9487004259
 13
155.412804528
 23
30.9487004259
  0
SOLID
  8
0
 62
7
  6
CONTINUOUS
 10
157.6096790869
 20
31.5939736268
 11
157.840929528
 21
31.6262383465
 12
158.0721793074
 22
31.6262383465
 13
158.0721793074
 23
31.6262383465
  0
SOLID
  8
0
 62
7
  6
CONTINUOUS
 10
158.0721793074
 20
31.6262383465
 11
158.2456168074
 21
31.5939736268
 12
157.6096790869
 22
31.5939736268
 13
157.6096790869
 23
31.5939736268
  0
SOLID
  8
0
 62
7
  6
CONTINUOUS
 10
157.4362415869
 20
31.5294472848
 11
157.6096790869
 21
31.5939736268
 12
158.2456168074
 22
31.5939736268
 13
158.2456168074
 23
31.5939736268
  0
SOLID
  8
0
 62
7
  6
CONTINUOUS
 10
158.2456168074
 20
31.5939736268
 11
158.4190543074
 21
31.5294472848
 12
157.4362415869
 22
31.5294472848
 13
157.4362415869
 23
31.5294472848
  0
SOLID
  8
0
 62
7
  6
CONTINUOUS
 10
158.4190543074
 20
31.5294472848
 11
157.840929528
 21
31.4971825369
 12
157.4362415869
 22
31.5294472848
 13
157.4362415869
 23
31.5294472848
  0
SOLID
  8
0
 62
7
  6
CONTINUOUS
 10
157.320617028
 20
31.4649199103
 11
157.4362415869
 21
31.5294472848
 12
157.840929528
 22
31.4971825369
 13
157.840929528
 23
31.4971825369
  0
SOLID
  8
0
 62
7
  6
CONTINUOUS
 10
157.840929528
 20
31.4971825369
 11
157.6096790869
 21
31.4649199103
 12
157.320617028
 22
31.4649199103
 13
157.320617028
 23
31.4649199103
  0
SOLID
  8
0
 62
7
  6
CONTINUOUS
 10
157.840929528
 20
31.4971825369
 11
158.4190543074
 21
31.5294472848
 12
158.0721793074
 22
31.4649199103
 13
158.0721793074
 23
31.4649199103
  0
SOLID
  8
0
 62
7
  6
CONTINUOUS
 10
158.4190543074
 20
31.5294472848
 11
158.534679528
 21
31.4649199103
 12
158.0721793074
 22
31.4649199103
 13
158.0721793074
 23
31.4649199103
  0
SOLID
  8
0
 62
7
  6
CONTINUOUS
 10
158.187804528
 20
31.4326554468
 11
158.0721793074
 21
31.4649199103
 12
158.534679528
 22
31.4649199103
 13
158.534679528
 23
31.4649199103
  0
SOLID
  8
0
 62
7
  6
CONTINUOUS
 10
158.187804528
 20
31.4326554468
 11
158.534679528
 21
31.4649199103
 12
158.3034290869
 22
31.3681288486
 13
158.3034290869
 23
31.3681288486
  0
SOLID
  8
0
 62
7
  6
CONTINUOUS
 10
158.534679528
 20
31.4649199103
 11
158.5924918074
 21
31.3681288486
 12
158.3034290869
 22
31.3681288486
 13
158.3034290869
 23
31.3681288486
  0
SOLID
  8
0
 62
7
  6
CONTINUOUS
 10
158.361242028
 20
31.2068093799
 11
158.3034290869
 21
31.3681288486
 12
158.5924918074
 22
31.3681288486
 13
158.5924918074
 23
31.3681288486
  0
SOLID
  8
0
 62
7
  6
CONTINUOUS
 10
158.5924918074
 20
31.3681288486
 11
158.6503040869
 21
31.2068093799
 12
158.361242028
 22
31.2068093799
 13
158.361242028
 23
31.2068093799
  0
SOLID
  8
0
 62
7
  6
CONTINUOUS
 10
157.6096790869
 20
31.4649199103
 11
157.4362415869
 21
31.4003926599
 12
157.320617028
 22
31.4649199103
 13
157.320617028
 23
31.4649199103
  0
SOLID
  8
0
 62
7
  6
CONTINUOUS
 10
157.4362415869
 20
31.4003926599
 11
157.320617028
 21
31.3358640533
 12
157.320617028
 22
31.4649199103
 13
157.320617028
 23
31.4649199103
  0
SOLID
  8
0
 62
7
  6
CONTINUOUS
 10
157.320617028
 20
31.3358640533
 11
157.0315543074
 21
30.5938003547
 12
157.320617028
 22
31.4649199103
 13
157.320617028
 23
31.4649199103
  0
SOLID
  8
0
 62
7
  6
CONTINUOUS
 10
157.320617028
 20
31.4649199103
 11
157.0315543074
 21
30.5938003547
 12
157.320617028
 22
31.6262383465
 13
157.320617028
 23
31.6262383465
  0
SOLID
  8
0
 62
7
  6
CONTINUOUS
 10
157.0315543074
 20
30.5938003547
 11
157.0315543074
 21
31.6262383465
 12
157.320617028
 22
31.6262383465
 13
157.320617028
 23
31.6262383465
  0
SOLID
  8
0
 62
7
  6
CONTINUOUS
 10
157.320617028
 20
31.3358640533
 11
157.320617028
 21
30.5938003547
 12
157.0315543074
 22
30.5938003547
 13
157.0315543074
 23
30.5938003547
  0
SOLID
  8
0
 62
7
  6
CONTINUOUS
 10
158.361242028
 20
30.5938003547
 11
158.361242028
 21
31.2068093799
 12
158.6503040869
 22
31.2068093799
 13
158.6503040869
 23
31.2068093799
  0
SOLID
  8
0
 62
7
  6
CONTINUOUS
 10
158.6503040869
 20
31.2068093799
 11
158.6503040869
 21
30.5938003547
 12
158.361242028
 22
30.5938003547
 13
158.361242028
 23
30.5938003547
  0
SOLID
  8
0
 62
7
  6
CONTINUOUS
 10
159.4596793074
 20
31.5939739474
 11
159.8065543074
 21
31.6262381969
 12
160.1534293074
 22
31.6262381969
 13
160.1534293074
 23
31.6262381969
  0
SOLID
  8
0
 62
7
  6
CONTINUOUS
 10
160.1534293074
 20
31.6262381969
 11
160.5003043074
 21
31.5939739474
 12
159.4596793074
 22
31.5939739474
 13
159.4596793074
 23
31.5939739474
  0
SOLID
  8
0
 62
7
  6
CONTINUOUS
 10
159.228429528
 20
31.5294468402
 11
159.4596793074
 21
31.5939739474
 12
160.5003043074
 22
31.5939739474
 13
160.5003043074
 23
31.5939739474
  0
SOLID
  8
0
 62
7
  6
CONTINUOUS
 10
159.228429528
 20
31.5294468402
 11
160.5003043074
 21
31.5939739304
 12
160.6737418074
 22
31.5617111435
 13
160.6737418074
 23
31.5617111435
  0
SOLID
  8
0
 62
7
  6
CONTINUOUS
 10
159.228429528
 20
31.5294468402
 11
160.6737418074
 21
31.5617111435
 12
159.8065543074
 22
31.4971825592
 13
159.8065543074
 23
31.4971825592
  0
SOLID
  8
0
 62
7
  6
CONTINUOUS
 10
159.8065543074
 20
31.4971825592
 11
160.6737418074
 21
31.5617111435
 12
160.1534293074
 22
31.4971825592
 13
160.1534293074
 23
31.4971825592
  0
SOLID
  8
0
 62
7
  6
CONTINUOUS
 10
160.6737418074
 20
31.5617111435
 11
160.8471793074
 21
31.4971825592
 12
160.1534293074
 22
31.4971825592
 13
160.1534293074
 23
31.4971825592
  0
SOLID
  8
0
 62
7
  6
CONTINUOUS
 10
160.5003043074
 20
31.4649197501
 11
160.1534293074
 21
31.4971825592
 12
160.8471793074
 22
31.4971825592
 13
160.8471793074
 23
31.4971825592
  0
SOLID
  8
0
 62
7
  6
CONTINUOUS
 10
159.1128043074
 20
31.4326555427
 11
159.228429528
 21
31.5294468402
 12
159.8065543074
 22
31.4971825592
 13
159.8065543074
 23
31.4971825592
  0
SOLID
  8
0
 62
7
  6
CONTINUOUS
 10
160.5003043074
 20
31.4649197501
 11
160.8471793074
 21
31.4971825592
 12
160.615929528
 22
31.4326555427
 13
160.615929528
 23
31.4326555427
  0
SOLID
  8
0
 62
7
  6
CONTINUOUS
 10
160.615929528
 20
31.4326555427
 11
160.8471793074
 21
31.4971825592
 12
160.6737418074
 22
31.3681283005
 13
160.6737418074
 23
31.3681283005
  0
SOLID
  8
0
 62
7
  6
CONTINUOUS
 10
160.8471793074
 20
31.4971825592
 11
160.9628038663
 21
31.3681283005
 12
160.6737418074
 22
31.3681283005
 13
160.6737418074
 23
31.3681283005
  0
SOLID
  8
0
 62
7
  6
CONTINUOUS
 10
150.2674918074
 20
31.4649197501
 11
149.7471793074
 21
31.4326554237
 12
150.498741835
 22
31.4971824493
 13
150.498741835
 23
31.4971824493
  0
SOLID
  8
0
 62
7
  6
CONTINUOUS
 10
149.7471793074
 20
31.4326554237
 11
149.8628043005
 21
31.4971824493
 12
150.498741835
 22
31.4971824493
 13
150.498741835
 23
31.4971824493
  0
SOLID
  8
0
 62
7
  6
CONTINUOUS
 10
150.2674918074
 20
31.4649197501
 11
150.1518667936
 21
31.4326554237
 12
149.7471793074
 22
31.4326554237
 13
149.7471793074
 23
31.4326554237
  0
SOLID
  8
0
 62
7
  6
CONTINUOUS
 10
149.6315543091
 20
31.3036012664
 11
149.7471793074
 21
31.4326554237
 12
150.1518667936
 22
31.4326554237
 13
150.1518667936
 23
31.4326554237
  0
SOLID
  8
0
 62
7
  6
CONTINUOUS
 10
153.9674919177
 20
31.4326554237
 11
154.6612419177
 21
31.4971825369
 12
154.4299918074
 22
31.4649197501
 13
154.4299918074
 23
31.4649197501
  0
SOLID
  8
0
 62
7
  6
CONTINUOUS
 10
154.4299918074
 20
31.4649197501
 11
154.3143669177
 21
31.4326554237
 12
153.9674919177
 22
31.4326554237
 13
153.9674919177
 23
31.4326554237
  0
SOLID
  8
0
 62
7
  6
CONTINUOUS
 10
153.9674919177
 20
31.3681283335
 11
153.9674919177
 21
31.4326554237
 12
154.3143669177
 22
31.4326554237
 13
154.3143669177
 23
31.4326554237
  0
SOLID
  8
0
 62
7
  6
CONTINUOUS
 10
154.3143669177
 20
31.4326554237
 11
154.2565543074
 21
31.3681283335
 12
153.9674919177
 22
31.3681283335
 13
153.9674919177
 23
31.3681283335
  0
SOLID
  8
0
 62
7
  6
CONTINUOUS
 10
159.1128043074
 20
31.4326555528
 11
159.8065543074
 21
31.4971825369
 12
159.575304528
 22
31.4649197501
 13
159.575304528
 23
31.4649197501
  0
SOLID
  8
0
 62
7
  6
CONTINUOUS
 10
159.575304528
 20
31.4649197501
 11
159.4596793074
 21
31.4326555528
 12
159.1128043074
 22
31.4326555528
 13
159.1128043074
 23
31.4326555528
  0
SOLID
  8
0
 62
7
  6
CONTINUOUS
 10
159.1128043074
 20
31.3681284626
 11
159.1128043074
 21
31.4326555528
 12
159.4596793074
 22
31.4326555528
 13
159.4596793074
 23
31.4326555528
  0
SOLID
  8
0
 62
7
  6
CONTINUOUS
 10
159.4596793074
 20
31.4326555528
 11
159.401867028
 21
31.3681284626
 12
159.1128043074
 22
31.3681284626
 13
159.1128043074
 23
31.3681284626
  0
SOLID
  8
0
 62
7
  6
CONTINUOUS
 10
159.228429528
 20
31.2390741763
 11
159.1128043074
 21
31.3681284626
 12
159.401867028
 22
31.3681284626
 13
159.401867028
 23
31.3681284626
  0
SOLID
  8
0
 62
7
  6
CONTINUOUS
 10
149.6315543091
 20
31.3036012664
 11
150.1518667936
 21
31.4326554468
 12
149.9784292936
 22
31.3358640533
 13
149.9784292936
 23
31.3358640533
  0
SOLID
  8
0
 62
7
  6
CONTINUOUS
 10
149.9784292936
 20
31.3358640533
 11
149.9206168074
 21
31.2713369632
 12
149.6315543091
 22
31.3036012664
 13
149.6315543091
 23
31.3036012664
  0
SOLID
  8
0
 62
7
  6
CONTINUOUS
 10
149.5737418074
 20
31.1100184796
 11
149.6315543091
 21
31.3036012664
 12
149.9206168074
 22
31.2713369632
 13
149.9206168074
 23
31.2713369632
  0
SOLID
  8
0
 62
7
  6
CONTINUOUS
 10
154.4299918074
 20
31.2390741763
 11
154.7768668074
 21
31.271336924
 12
155.412804528
 22
31.271336924
 13
155.412804528
 23
31.271336924
  0
SOLID
  8
0
 62
7
  6
CONTINUOUS
 10
154.4299918074
 20
31.2390741763
 11
155.412804528
 21
31.271336924
 12
154.1987416972
 22
31.1745462761
 13
154.1987416972
 23
31.1745462761
  0
SOLID
  8
0
 62
7
  6
CONTINUOUS
 10
154.1987416972
 20
31.1745462761
 11
155.412804528
 21
31.271336924
 12
154.7768668074
 22
31.1422827436
 13
154.7768668074
 23
31.1422827436
  0
SOLID
  8
0
 62
7
  6
CONTINUOUS
 10
155.412804528
 20
31.271336924
 11
155.412804528
 21
31.1422827436
 12
154.7768668074
 22
31.1422827436
 13
154.7768668074
 23
31.1422827436
  0
SOLID
  8
0
 62
7
  6
CONTINUOUS
 10
159.228429528
 20
31.2390745501
 11
159.401867028
 21
31.3681283566
 12
159.4596793074
 22
31.3036012664
 13
159.4596793074
 23
31.3036012664
  0
SOLID
  8
0
 62
7
  6
CONTINUOUS
 10
159.4596793074
 20
31.3036012664
 11
159.6331168074
 21
31.2390745501
 12
159.228429528
 22
31.2390745501
 13
159.228429528
 23
31.2390745501
  0
SOLID
  8
0
 62
7
  6
CONTINUOUS
 10
159.4596793074
 20
31.1422827828
 11
159.228429528
 21
31.2390745501
 12
159.6331168074
 22
31.2390745501
 13
159.6331168074
 23
31.2390745501
  0
SOLID
  8
0
 62
7
  6
CONTINUOUS
 10
159.6331168074
 20
31.2390745501
 11
160.615929528
 21
31.0777556927
 12
159.4596793074
 22
31.1422827828
 13
159.4596793074
 23
31.1422827828
  0
SOLID
  8
0
 62
7
  6
CONTINUOUS
 10
160.442492028
 20
30.9809646623
 11
159.4596793074
 21
31.1422827828
 12
160.615929528
 22
31.0777556927
 13
160.615929528
 23
31.0777556927
  0
SOLID
  8
0
 62
7
  6
CONTINUOUS
 10
160.615929528
 20
31.0777556927
 11
160.8471793074
 21
30.9809646623
 12
160.442492028
 22
30.9809646623
 13
160.442492028
 23
30.9809646623
  0
SOLID
  8
0
 62
7
  6
CONTINUOUS
 10
160.615929528
 20
30.9164372091
 11
160.442492028
 21
30.9809646623
 12
160.8471793074
 22
30.9809646623
 13
160.8471793074
 23
30.9809646623
  0
SOLID
  8
0
 62
7
  6
CONTINUOUS
 10
160.615929528
 20
30.9164372091
 11
160.8471793074
 21
30.9809646623
 12
160.6737418074
 22
30.8519089441
 13
160.6737418074
 23
30.8519089441
  0
SOLID
  8
0
 62
7
  6
CONTINUOUS
 10
160.8471793074
 20
30.9809646623
 11
160.9628038663
 21
30.8519089441
 12
160.6737418074
 22
30.8519089441
 13
160.6737418074
 23
30.8519089441
  0
SOLID
  8
0
 62
7
  6
CONTINUOUS
 10
160.615929528
 20
30.7873818593
 11
160.6737418074
 21
30.8519089441
 12
160.9628038663
 22
30.8519089441
 13
160.9628038663
 23
30.8519089441
  0
SOLID
  8
0
 62
7
  6
CONTINUOUS
 10
160.9628038663
 20
30.8519089441
 11
160.9628038663
 21
30.7873818593
 12
160.615929528
 22
30.7873818593
 13
160.615929528
 23
30.7873818593
  0
SOLID
  8
0
 62
7
  6
CONTINUOUS
 10
160.5003043074
 20
30.7551187255
 11
160.615929528
 21
30.7873818593
 12
160.9628038663
 22
30.7873818593
 13
160.9628038663
 23
30.7873818593
  0
SOLID
  8
0
 62
7
  6
CONTINUOUS
 10
160.5003043074
 20
30.7551187255
 11
160.9628038663
 21
30.7873818593
 12
160.269054528
 22
30.7228547745
 13
160.269054528
 23
30.7228547745
  0
SOLID
  8
0
 62
7
  6
CONTINUOUS
 10
160.9628038663
 20
30.7873818593
 11
160.8471793074
 21
30.6905916353
 12
160.269054528
 22
30.7228547745
 13
160.269054528
 23
30.7228547745
  0
SOLID
  8
0
 62
7
  6
CONTINUOUS
 10
160.8471793074
 20
30.6905916353
 11
159.401867028
 21
30.658327332
 12
160.269054528
 22
30.7228547745
 13
160.269054528
 23
30.7228547745
  0
SOLID
  8
0
 62
7
  6
CONTINUOUS
 10
160.269054528
 20
30.7228547745
 11
159.401867028
 21
30.658327332
 12
159.922179528
 22
30.7228547745
 13
159.922179528
 23
30.7228547745
  0
SOLID
  8
0
 62
7
  6
CONTINUOUS
 10
159.401867028
 20
30.658327332
 11
159.228429528
 21
30.7228547745
 12
159.922179528
 22
30.7228547745
 13
159.922179528
 23
30.7228547745
  0
SOLID
  8
0
 62
7
  6
CONTINUOUS
 10
159.401867028
 20
30.658327332
 11
160.8471793074
 21
30.6905916353
 12
159.575304528
 22
30.6260629858
 13
159.575304528
 23
30.6260629858
  0
SOLID
  8
0
 62
7
  6
CONTINUOUS
 10
160.8471793074
 20
30.6905916353
 11
160.615929528
 21
30.6260629858
 12
159.575304528
 22
30.6260629858
 13
159.575304528
 23
30.6260629858
  0
SOLID
  8
0
 62
7
  6
CONTINUOUS
 10
159.922179528
 20
30.5938006049
 11
159.575304528
 21
30.6260629858
 12
160.615929528
 22
30.6260629858
 13
160.615929528
 23
30.6260629858
  0
SOLID
  8
0
 62
7
  6
CONTINUOUS
 10
160.615929528
 20
30.6260629858
 11
160.269054528
 21
30.5938006049
 12
159.922179528
 22
30.5938006049
 13
159.922179528
 23
30.5938006049
  0
SOLID
  8
0
 62
7
  6
CONTINUOUS
 10
149.5737418074
 20
31.1100184796
 11
149.9206168074
 21
31.2713369632
 12
149.8628043005
 22
31.1422827828
 13
149.8628043005
 23
31.1422827828
  0
SOLID
  8
0
 62
7
  6
CONTINUOUS
 10
149.8628043005
 20
31.1422827828
 11
149.8628043005
 21
31.0454914852
 12
149.5737418074
 22
31.1100184796
 13
149.5737418074
 23
31.1100184796
  0
SOLID
  8
0
 62
7
  6
CONTINUOUS
 10
149.6315543091
 20
30.9164372091
 11
149.5737418074
 21
31.1100184796
 12
149.8628043005
 22
31.0454914852
 13
149.8628043005
 23
31.0454914852
  0
SOLID
  8
0
 62
7
  6
CONTINUOUS
 10
149.8628043005
 20
31.0454914852
 11
149.9784292936
 21
30.8841729058
 12
149.6315543091
 22
30.9164372091
 13
149.6315543091
 23
30.9164372091
  0
SOLID
  8
0
 62
7
  6
CONTINUOUS
 10
149.7471793074
 20
30.7873813202
 11
149.6315543091
 21
30.9164372091
 12
149.9784292936
 22
30.8841729058
 13
149.9784292936
 23
30.8841729058
  0
SOLID
  8
0
 62
7
  6
CONTINUOUS
 10
149.9784292936
 20
30.8841729058
 11
150.1518667936
 21
30.7873813202
 12
149.7471793074
 22
30.7873813202
 13
149.7471793074
 23
30.7873813202
  0
SOLID
  8
0
 62
7
  6
CONTINUOUS
 10
149.8628043005
 20
30.7228547004
 11
149.7471793074
 21
30.7873813202
 12
150.1518667936
 22
30.7873813202
 13
150.1518667936
 23
30.7873813202
  0
SOLID
  8
0
 62
7
  6
CONTINUOUS
 10
150.1518667936
 20
30.7873813202
 11
150.498741835
 21
30.7228547004
 12
149.8628043005
 22
30.7228547004
 13
149.8628043005
 23
30.7228547004
  0
SOLID
  8
0
 62
7
  6
CONTINUOUS
 10
150.0362418212
 20
30.658327332
 11
149.8628043005
 21
30.7228547004
 12
150.498741835
 22
30.7228547004
 13
150.498741835
 23
30.7228547004
  0
SOLID
  8
0
 62
7
  6
CONTINUOUS
 10
154.0831168074
 20
31.1100184386
 11
154.1987416972
 21
31.1745462761
 12
154.7768668074
 22
31.1422827828
 13
154.7768668074
 23
31.1422827828
  0
SOLID
  8
0
 62
7
  6
CONTINUOUS
 10
154.7768668074
 20
31.1422827828
 11
154.5456166972
 21
31.1100184386
 12
154.0831168074
 22
31.1100184386
 13
154.0831168074
 23
31.1100184386
  0
SOLID
  8
0
 62
7
  6
CONTINUOUS
 10
153.9674919177
 20
30.9809642992
 11
154.0831168074
 21
31.1100184386
 12
154.5456166972
 22
31.1100184386
 13
154.5456166972
 23
31.1100184386
  0
SOLID
  8
0
 62
7
  6
CONTINUOUS
 10
154.3143669177
 20
31.0132277988
 11
153.9674919177
 21
30.9809642992
 12
154.4299918074
 22
31.0777556927
 13
154.4299918074
 23
31.0777556927
  0
SOLID
  8
0
 62
7
  6
CONTINUOUS
 10
153.9674919177
 20
30.9809642992
 11
154.5456166972
 21
31.1100184796
 12
154.4299918074
 22
31.0777556927
 13
154.4299918074
 23
31.0777556927
  0
SOLID
  8
0
 62
7
  6
CONTINUOUS
 10
154.3143669177
 20
31.0132277988
 11
154.2565543074
 21
30.9164372091
 12
153.9674919177
 22
30.9809642992
 13
153.9674919177
 23
30.9809642992
  0
SOLID
  8
0
 62
7
  6
CONTINUOUS
 10
153.9674919177
 20
30.8841729058
 11
153.9674919177
 21
30.9809642992
 12
154.2565543074
 22
30.9164372091
 13
154.2565543074
 23
30.9164372091
  0
SOLID
  8
0
 62
7
  6
CONTINUOUS
 10
154.2565543074
 20
30.9164372091
 11
154.2565543074
 21
30.8519086025
 12
153.9674919177
 22
30.8841729058
 13
153.9674919177
 23
30.8841729058
  0
SOLID
  8
0
 62
7
  6
CONTINUOUS
 10
154.0253041972
 20
30.7551187255
 11
153.9674919177
 21
30.8841729058
 12
154.2565543074
 22
30.8519086025
 13
154.2565543074
 23
30.8519086025
  0
SOLID
  8
0
 62
7
  6
CONTINUOUS
 10
155.412804528
 20
30.9487004259
 11
155.7018665869
 21
30.8519086025
 12
155.3549915869
 22
30.8841729058
 13
155.3549915869
 23
30.8841729058
  0
SOLID
  8
0
 62
7
  6
CONTINUOUS
 10
155.1815540869
 20
30.7873815123
 11
155.3549915869
 21
30.8841729058
 12
155.7018665869
 22
30.8519086025
 13
155.7018665869
 23
30.8519086025
  0
SOLID
  8
0
 62
7
  6
CONTINUOUS
 10
155.1815540869
 20
30.7873815123
 11
155.7018665869
 21
30.8519086025
 12
155.412804528
 22
30.7551187255
 13
155.412804528
 23
30.7551187255
  0
SOLID
  8
0
 62
7
  6
CONTINUOUS
 10
155.7018665869
 20
30.8519086025
 11
155.759679528
 21
30.6905916353
 12
155.412804528
 22
30.7551187255
 13
155.412804528
 23
30.7551187255
  0
SOLID
  8
0
 62
7
  6
CONTINUOUS
 10
155.4706168074
 20
30.658327332
 11
155.412804528
 21
30.7551187255
 12
155.759679528
 22
30.6905916353
 13
155.759679528
 23
30.6905916353
  0
SOLID
  8
0
 62
7
  6
CONTINUOUS
 10
155.4706168074
 20
30.658327332
 11
155.759679528
 21
30.6905916353
 12
155.5284290869
 22
30.5938002079
 13
155.5284290869
 23
30.5938002079
  0
SOLID
  8
0
 62
7
  6
CONTINUOUS
 10
155.759679528
 20
30.6905916353
 11
155.8174918074
 21
30.5938002079
 12
155.5284290869
 22
30.5938002079
 13
155.5284290869
 23
30.5938002079
  0
SOLID
  8
0
 62
7
  6
CONTINUOUS
 10
151.0768668626
 20
30.8196456577
 11
151.1346793074
 21
30.9164373395
 12
151.4237418626
 22
30.9164373395
 13
151.4237418626
 23
30.9164373395
  0
SOLID
  8
0
 62
7
  6
CONTINUOUS
 10
151.4237418626
 20
30.9164373395
 11
151.3659292523
 21
30.7873815123
 12
151.0768668626
 22
30.8196456577
 13
151.0768668626
 23
30.8196456577
  0
SOLID
  8
0
 62
7
  6
CONTINUOUS
 10
150.9034292799
 20
30.7551187255
 11
151.0768668626
 21
30.8196456577
 12
151.3659292523
 22
30.7873815123
 13
151.3659292523
 23
30.7873815123
  0
SOLID
  8
0
 62
7
  6
CONTINUOUS
 10
150.9034292799
 20
30.7551187255
 11
151.3659292523
 21
30.7873815123
 12
150.498741835
 22
30.7228544222
 13
150.498741835
 23
30.7228544222
  0
SOLID
  8
0
 62
7
  6
CONTINUOUS
 10
151.3659292523
 20
30.7873815123
 11
151.1924917523
 21
30.6905916353
 12
150.498741835
 22
30.7228544222
 13
150.498741835
 23
30.7228544222
  0
SOLID
  8
0
 62
7
  6
CONTINUOUS
 10
150.0362418212
 20
30.658327332
 11
150.498741835
 21
30.7228544222
 12
151.1924917523
 22
30.6905916353
 13
151.1924917523
 23
30.6905916353
  0
SOLID
  8
0
 62
7
  6
CONTINUOUS
 10
150.0362418212
 20
30.658327332
 11
151.1924917523
 21
30.6905916353
 12
150.2096793212
 22
30.6260631011
 13
150.2096793212
 23
30.6260631011
  0
SOLID
  8
0
 62
7
  6
CONTINUOUS
 10
151.1924917523
 20
30.6905916353
 11
150.9612418074
 21
30.6260631011
 12
150.2096793212
 22
30.6260631011
 13
150.2096793212
 23
30.6260631011
  0
SOLID
  8
0
 62
7
  6
CONTINUOUS
 10
150.5565542799
 20
30.5938002419
 11
150.2096793212
 21
30.6260631011
 12
150.9612418074
 22
30.6260631011
 13
150.9612418074
 23
30.6260631011
  0
SOLID
  8
0
 62
7
  6
CONTINUOUS
 10
154.0253041972
 20
30.7551187255
 11
154.2565543074
 21
30.8519086025
 12
154.3143669177
 22
30.7873815123
 13
154.3143669177
 23
30.7873815123
  0
SOLID
  8
0
 62
7
  6
CONTINUOUS
 10
154.3143669177
 20
30.7873815123
 11
154.5456166972
 21
30.7228544222
 12
154.0253041972
 22
30.7551187255
 13
154.0253041972
 23
30.7551187255
  0
SOLID
  8
0
 62
7
  6
CONTINUOUS
 10
154.1987416972
 20
30.658327332
 11
154.0253041972
 21
30.7551187255
 12
154.5456166972
 22
30.7228544222
 13
154.5456166972
 23
30.7228544222
  0
SOLID
  8
0
 62
7
  6
CONTINUOUS
 10
154.8924916972
 20
30.7228544637
 11
155.1815540869
 21
30.7873815123
 12
155.412804528
 22
30.7551187255
 13
155.412804528
 23
30.7551187255
  0
SOLID
  8
0
 62
7
  6
CONTINUOUS
 10
155.412804528
 20
30.7551187255
 11
155.3549915869
 21
30.6905916353
 12
154.8924916972
 22
30.7228544637
 13
154.8924916972
 23
30.7228544637
  0
SOLID
  8
0
 62
7
  6
CONTINUOUS
 10
155.3549915869
 20
30.6905916353
 11
154.1987416972
 21
30.658327332
 12
154.8924916972
 22
30.7228544637
 13
154.8924916972
 23
30.7228544637
  0
SOLID
  8
0
 62
7
  6
CONTINUOUS
 10
154.1987416972
 20
30.658327332
 11
154.5456166972
 21
30.7228544637
 12
154.8924916972
 22
30.7228544637
 13
154.8924916972
 23
30.7228544637
  0
SOLID
  8
0
 62
7
  6
CONTINUOUS
 10
154.1987416972
 20
30.658327332
 11
155.3549915869
 21
30.6905916353
 12
154.3143669177
 22
30.6260630541
 13
154.3143669177
 23
30.6260630541
  0
SOLID
  8
0
 62
7
  6
CONTINUOUS
 10
155.3549915869
 20
30.6905916353
 11
155.1815540869
 21
30.6260630541
 12
154.3143669177
 22
30.6260630541
 13
154.3143669177
 23
30.6260630541
  0
SOLID
  8
0
 62
7
  6
CONTINUOUS
 10
154.5456166972
 20
30.5938002188
 11
154.3143669177
 21
30.6260630541
 12
155.1815540869
 22
30.6260630541
 13
155.1815540869
 23
30.6260630541
  0
SOLID
  8
0
 62
7
  6
CONTINUOUS
 10
155.1815540869
 20
30.6260630541
 11
154.8924916972
 21
30.5938002188
 12
154.5456166972
 22
30.5938002188
 13
154.5456166972
 23
30.5938002188
  0
SOLID
  8
0
 62
7
  6
CONTINUOUS
 10
159.575304528
 20
30.7551187255
 11
159.228429528
 21
30.7228544637
 12
159.4596793074
 22
30.7873815123
 13
159.4596793074
 23
30.7873815123
  0
SOLID
  8
0
 62
7
  6
CONTINUOUS
 10
159.4596793074
 20
30.7873815123
 11
159.228429528
 21
30.7228544637
 12
159.401867028
 22
30.851908644
 13
159.401867028
 23
30.851908644
  0
SOLID
  8
0
 62
7
  6
CONTINUOUS
 10
159.228429528
 20
30.7228544637
 11
159.1128043074
 21
30.851908644
 12
159.401867028
 22
30.851908644
 13
159.401867028
 23
30.851908644
  0
SOLID
  8
0
 62
7
  6
CONTINUOUS
 10
159.575304528
 20
30.7551187255
 11
159.922179528
 21
30.7228544637
 12
159.228429528
 22
30.7228544637
 13
159.228429528
 23
30.7228544637
  0
SOLID
  8
0
 62
7
  6
CONTINUOUS
 10
156.279992028
 20
30.5938002419
 11
156.279992028
 21
31.6262382337
 12
156.5690540869
 22
30.5938002419
 13
156.5690540869
 23
31.6262382337
  0
ENDBLK
  8
0
  6
BYBLOCK
 62
0
  0
BLOCK
  8
0
 62
2
  6
CONTINUOUS
  2
SYMBOL_3_BL0
 70
64
 10
32.1213064866
 20
19.8534310916
  0
TEXT
  8
0
 62
7
  6
CONTINUOUS
 10
18.3860103289
 20
19.2268451992
  7
TEXTSTYLE_3
 40
2.7338706658
  1
Ammeraal Beltech
 41
1.0
 51
15.0
 72
0
  0
TEXT
  8
0
 62
7
  6
CONTINUOUS
 10
29.1868111546
 20
16.9533085264
  7
TEXTSTYLE_4
 40
1.0935482663
  1
Innovation & Service in Belting
 41
1.0
 72
0
  0
LINE
  8
0
 62
7
  6
CONTINUOUS
 10
12.3614696776
 20
19.9934385078
 11
13.1396216709
 21
23.6543558055
  0
LINE
  8
0
 62
7
  6
CONTINUOUS
 10
23.2347899607
 20
27.3177497171
 11
13.6274394139
 21
24.1961322958
  0
LINE
  8
0
 62
7
  6
CONTINUOUS
 10
12.5867530099
 20
19.3000877048
 11
20.093828271
 21
12.5406867788
  0
LINE
  8
0
 62
7
  6
CONTINUOUS
 10
12.8492874206
 20
20.5352149982
 11
23.6575567857
 21
24.0470345971
  0
LINE
  8
0
 62
7
  6
CONTINUOUS
 10
23.6533516486
 20
13.6972460334
 11
15.2078919798
 21
21.3015720751
  0
LINE
  8
0
 62
7
  6
CONTINUOUS
 10
24.1731743684
 20
26.4728246013
 11
23.1966148312
 21
21.8784731989
  0
LINE
  8
0
 62
7
  6
CONTINUOUS
 10
22.4968128835
 20
18.5861638851
 11
21.810364672
 21
15.3566789607
  0
LINE
  8
0
 62
7
  6
CONTINUOUS
 10
24.8542704669
 20
14.087448211
 11
25.8105020025
 21
18.5861638851
  0
LINE
  8
0
 62
7
  6
CONTINUOUS
 10
26.5103039502
 20
21.8784731989
 11
26.9545457526
 21
23.9684665583
  0
LINE
  8
0
 62
7
  6
CONTINUOUS
 10
20.8069293463
 20
12.3891124661
 11
24.3664527239
 21
13.5456717207
  0
LINE
  8
0
 62
7
  6
CONTINUOUS
 10
23.9478910361
 20
27.1661754044
 11
26.7292624203
 21
24.6618173613
  0
ARC
  8
0
 62
7
  6
CONTINUOUS
 10
13.8527227462
 20
23.5027814928
 40
0.7290321776
 50
108.0
 51
168.0
  0
ARC
  8
0
 62
7
  6
CONTINUOUS
 10
23.4600732931
 20
26.624398914
 40
0.7290321776
 50
348.0
 51
108.0
  0
ARC
  8
0
 62
7
  6
CONTINUOUS
 10
26.2414446773
 20
24.120040871
 40
0.7290321776
 50
348.0
 51
48.0
  0
ARC
  8
0
 62
7
  6
CONTINUOUS
 10
20.581646014
 20
13.0824632691
 40
0.7290321776
 50
228.0
 51
288.0
  0
ARC
  8
0
 62
7
  6
CONTINUOUS
 10
13.0745707529
 20
19.8418641951
 40
0.7290321776
 50
108.0
 51
228.0
  0
ARC
  8
0
 62
7
  6
CONTINUOUS
 10
24.1411693916
 20
14.2390225237
 40
0.7290321776
 50
228.0
 51
348.0
  0
ENDBLK
  8
0
  6
BYBLOCK
 62
0
  0
ENDSEC
  0
SECTION
  2
ENTITIES
  0
TEXT
  8
0
 62
5
  6
CONTINUOUS
 10
96.0
 20
25.636
  7
TEXTSTYLE_2
 40
2.8
  1
Scale :
 41
0.6
 51
0.000019
 72
0
  0
TEXT
  8
0
 62
5
  6
CONTINUOUS
 10
116.0
 20
25.636
  7
TEXTSTYLE_2
 40
2.8
  1
Belt type:
 41
0.6
 51
0.000019
 72
0
  0
INSERT
  8
0
 62
2
  6
CONTINUOUS
  2
SYMBOL_3_BL0
 10
32.1213064866
 20
19.8534310916
  0
INSERT
  8
0
 62
2
  6
CONTINUOUS
  2
SYMBOL_8_BL1
 10
173.5956734183
 20
35.5937998301
  0
LINE
  8
0
 62
2
  6
CONTINUOUS
 10
10.0
 20
30.0
 11
200.0
 21
30.0
  0
LINE
  8
0
 62
2
  6
CONTINUOUS
 10
10.0
 20
30.0
 11
10.0
 21
10.0
  0
LINE
  8
0
 62
2
  6
CONTINUOUS
 10
10.0
 20
10.0
 11
200.0
 21
10.0
  0
LINE
  8
0
 62
2
  6
CONTINUOUS
 10
95.0
 20
30.0
 11
95.0
 21
10.0
  0
LINE
  8
0
 62
2
  6
CONTINUOUS
 10
115.0
 20
30.0
 11
115.0
 21
10.0
  0
LINE
  8
0
 62
2
  6
CONTINUOUS
 10
200.0
 20
30.0
 11
200.0
 21
10.0
  0
TEXT
  8
0
 62
5
  6
CONTINUOUS
 10
13.0
 20
23.303
  7
TEXTSTYLE_5
 40
1.52
  1
                                                                     Ammeraal Beltech Modular A/S
 41
1.0
 72
0
  0
TEXT
  8
0
 62
5
  6
CONTINUOUS
 10
13.0
 20
20.595
  7
TEXTSTYLE_5
 40
1.5
  1
                                                                      Hjulmagervej 21,  7100 Vejle,  DK
 41
1.0
 72
0
  0
TEXT
  8
0
 62
5
  6
CONTINUOUS
 10
13.0
 20
17.881
  7
TEXTSTYLE_5
 40
1.495
  1
                                                                      tel: 
 41
1.0
 72
0
  0
TEXT
  8
0
 62
5
  6
CONTINUOUS
 10
57.9869465649
 20
17.881
  7
TEXTSTYLE_5
 40
1.51
  1
+45 75723100     fax: +45 75723348
 41
1.0
 72
0
  0
TEXT
  8
0
 62
5
  6
CONTINUOUS
 10
13.0
 20
15.177
  7
TEXTSTYLE_5
 40
1.5
  1
                                                                      admin@unichains.dk  www.unichains.com
 41
1.0
 72
0
  0
TEXT
  8
0
 62
5
  6
CONTINUOUS
 10
99.75
 20
13.75
  7
TEXTSTYLE_6
 40
5.0
  1
1:1
 41
0.7
 72
1
 11
105.0
 21
13.75
  0
TEXT
  8
0
 62
5
  6
CONTINUOUS
 10
118.0
 20
13.75
  7
TEXTSTYLE_7
 40
7.5
  1
Sprocket Z10
 41
0.6361111111
 72
0
  0
LINE
  8
0
 62
7
  6
CONTINUOUS
 10
210.0
 20
0.0
 11
0.0
 21
0.0
  0
LINE
  8
0
 62
7
  6
CONTINUOUS
 10
10.0
 20
10.0
 11
200.0
 21
10.0
  0
LINE
  8
0
 62
7
  6
CONTINUOUS
 10
10.0
 20
30.0
 11
200.0
 21
30.0
  0
LINE
  8
0
 62
7
  6
CONTINUOUS
 10
0.0
 20
0.0
 11
0.0
 21
297.0
  0
LINE
  8
0
 62
7
  6
CONTINUOUS
 10
10.0
 20
10.0
 11
10.0
 21
287.0
  0
LINE
  8
0
 62
7
  6
CONTINUOUS
 10
200.0
 20
287.0
 11
200.0
 21
10.0
  0
LINE
  8
0
 62
7
  6
CONTINUOUS
 10
210.0
 20
0.0
 11
210.0
 21
297.0
  0
LINE
  8
0
 62
7
  6
CONTINUOUS
 10
10.0
 20
287.0
 11
200.0
 21
287.0
  0
LINE
  8
0
 62
7
  6
CONTINUOUS
 10
0.0
 20
297.0
 11
210.0
 21
297.0
  0
LINE
  8
0
 62
7
  6
CONTINUOUS
 10
18.6932682276
 20
76.1047789121
 11
18.6932682276
 21
65.3222812112
  0
POLYLINE
  8
0
 62
7
  6
CONTINUOUS
 66
1
 70
0
  0
VERTEX
  8
0
 62
7
  6
CONTINUOUS
 10
18.693268279
 20
76.1055563156
  0
VERTEX
  8
0
 62
7
  6
CONTINUOUS
 10
18.6936514439
 20
76.1307382487
  0
VERTEX
  8
0
 62
7
  6
CONTINUOUS
 10
18.7063761459
 20
76.2503212039
  0
VERTEX
  8
0
 62
7
  6
CONTINUOUS
 10
18.7351919164
 20
76.3566205514
  0
VERTEX
  8
0
 62
7
  6
CONTINUOUS
 10
18.7777681337
 20
76.4495437537
  0
VERTEX
  8
0
 62
7
  6
CONTINUOUS
 10
18.8322863706
 20
76.5293563937
  0
VERTEX
  8
0
 62
7
  6
CONTINUOUS
 10
18.8976706526
 20
76.5965168465
  0
VERTEX
  8
0
 62
7
  6
CONTINUOUS
 10
18.9713745931
 20
76.6498916754
  0
VERTEX
  8
0
 62
7
  6
CONTINUOUS
 10
19.0490230624
 20
76.6886119186
  0
VERTEX
  8
0
 62
7
  6
CONTINUOUS
 10
19.125245632
 20
76.7133479212
  0
SEQEND
  0
POLYLINE
  8
0
 62
7
  6
CONTINUOUS
 66
1
 70
0
  0
VERTEX
  8
0
 62
7
  6
CONTINUOUS
 10
18.6932688229
 20
65.3204977957
  0
VERTEX
  8
0
 62
7
  6
CONTINUOUS
 10
18.698075189
 20
65.4136421398
  0
VERTEX
  8
0
 62
7
  6
CONTINUOUS
 10
18.7245403827
 20
65.5611734697
  0
VERTEX
  8
0
 62
7
  6
CONTINUOUS
 10
18.767377396
 20
65.6949751047
  0
SEQEND
  0
POLYLINE
  8
0
 62
7
  6
CONTINUOUS
 66
1
 70
0
  0
VERTEX
  8
0
 62
7
  6
CONTINUOUS
 10
18.767377396
 20
75.7317207378
  0
VERTEX
  8
0
 62
7
  6
CONTINUOUS
 10
18.7247176958
 20
75.8648255436
  0
VERTEX
  8
0
 62
7
  6
CONTINUOUS
 10
18.6994914726
 20
76.0001417765
  0
VERTEX
  8
0
 62
7
  6
CONTINUOUS
 10
18.693268279
 20
76.1055563156
  0
SEQEND
  0
LINE
  8
0
 62
7
  6
CONTINUOUS
 10
31.0056933042
 20
85.7133479212
 11
31.0056933042
 21
78.2133479212
  0
LINE
  8
0
 62
7
  6
CONTINUOUS
 10
31.0056933042
 20
63.2133479212
 11
31.0056933042
 21
55.7133479212
  0
POLYLINE
  8
0
 62
7
  6
CONTINUOUS
 66
1
 70
0
  0
VERTEX
  8
0
 62
7
  6
CONTINUOUS
 10
20.9033288412
 20
65.6949751047
  0
VERTEX
  8
0
 62
7
  6
CONTINUOUS
 10
20.9784918719
 20
65.5614203617
  0
VERTEX
  8
0
 62
7
  6
CONTINUOUS
 10
21.082676942
 20
65.4138663303
  0
VERTEX
  8
0
 62
7
  6
CONTINUOUS
 10
21.2065353779
 20
65.2719099438
  0
VERTEX
  8
0
 62
7
  6
CONTINUOUS
 10
21.3341116528
 20
65.1509984172
  0
VERTEX
  8
0
 62
7
  6
CONTINUOUS
 10
21.4587274584
 20
65.0514102229
  0
VERTEX
  8
0
 62
7
  6
CONTINUOUS
 10
21.580514342
 20
64.9685126404
  0
VERTEX
  8
0
 62
7
  6
CONTINUOUS
 10
21.7028232181
 20
64.8977082244
  0
VERTEX
  8
0
 62
7
  6
CONTINUOUS
 10
21.8305317838
 20
64.8358165992
  0
VERTEX
  8
0
 62
7
  6
CONTINUOUS
 10
21.9640390065
 20
64.7834015508
  0
VERTEX
  8
0
 62
7
  6
CONTINUOUS
 10
22.1014504821
 20
64.7420822209
  0
VERTEX
  8
0
 62
7
  6
CONTINUOUS
 10
22.2396287512
 20
64.7133479212
  0
SEQEND
  0
LINE
  8
0
 62
7
  6
CONTINUOUS
 10
34.6869337549
 20
85.7133479212
 11
34.6869337549
 21
78.2133479212
  0
LINE
  8
0
 62
7
  6
CONTINUOUS
 10
34.6869337549
 20
63.2133479212
 11
34.6869337549
 21
55.7133479212
  0
LINE
  8
0
 62
7
  6
CONTINUOUS
 10
46.8238723809
 20
76.6973629807
 11
46.8238723809
 21
64.7297371843
  0
POLYLINE
  8
0
 62
7
  6
CONTINUOUS
 66
1
 70
0
  0
VERTEX
  8
0
 62
7
  6
CONTINUOUS
 10
46.8238724156
 20
64.7281961535
  0
VERTEX
  8
0
 62
7
  6
CONTINUOUS
 10
46.8248432874
 20
64.7420800725
  0
VERTEX
  8
0
 62
7
  6
CONTINUOUS
 10
46.8349328042
 20
64.7833899284
  0
VERTEX
  8
0
 62
7
  6
CONTINUOUS
 10
46.8560405044
 20
64.8357943863
  0
VERTEX
  8
0
 62
7
  6
CONTINUOUS
 10
46.8878710049
 20
64.8976852615
  0
VERTEX
  8
0
 62
7
  6
CONTINUOUS
 10
46.9305248578
 20
64.9685034899
  0
VERTEX
  8
0
 62
7
  6
CONTINUOUS
 10
46.9868348255
 20
65.0514112303
  0
VERTEX
  8
0
 62
7
  6
CONTINUOUS
 10
47.0618100487
 20
65.1509765214
  0
VERTEX
  8
0
 62
7
  6
CONTINUOUS
 10
47.1619955472
 20
65.2718033519
  0
VERTEX
  8
0
 62
7
  6
CONTINUOUS
 10
47.2911832688
 20
65.4136421398
  0
VERTEX
  8
0
 62
7
  6
CONTINUOUS
 10
47.4382109894
 20
65.5611734697
  0
VERTEX
  8
0
 62
7
  6
CONTINUOUS
 10
47.582841054
 20
65.6949751047
  0
SEQEND
  0
LINE
  8
0
 62
7
  6
CONTINUOUS
 10
46.8238732111
 20
76.6989615138
 11
46.8255841132
 21
76.7133479212
  0
POLYLINE
  8
0
 62
7
  6
CONTINUOUS
 66
1
 70
0
  0
VERTEX
  8
0
 62
7
  6
CONTINUOUS
 10
46.8255841132
 20
76.7133479212
  0
VERTEX
  8
0
 62
7
  6
CONTINUOUS
 10
46.8421982299
 20
76.7435083596
  0
VERTEX
  8
0
 62
7
  6
CONTINUOUS
 10
46.8764069311
 20
76.7755031695
  0
VERTEX
  8
0
 62
7
  6
CONTINUOUS
 10
46.9280057123
 20
76.8090800308
  0
VERTEX
  8
0
 62
7
  6
CONTINUOUS
 10
46.9966051743
 20
76.8439452033
  0
SEQEND
  0
LINE
  8
0
 62
7
  6
CONTINUOUS
 10
46.8255841132
 20
64.7133479212
 11
46.8238724156
 21
64.7281961535
  0
LINE
  8
0
 62
7
  6
CONTINUOUS
 10
53.6012472447
 20
85.7133479212
 11
53.6012472447
 21
78.2133479212
  0
LINE
  8
0
 62
7
  6
CONTINUOUS
 10
53.6012472447
 20
63.2133479212
 11
53.6012472447
 21
55.7133479212
  0
POLYLINE
  8
0
 62
7
  6
CONTINUOUS
 66
1
 70
0
  0
VERTEX
  8
0
 62
7
  6
CONTINUOUS
 10
46.8255841132
 20
64.7133479212
  0
VERTEX
  8
0
 62
7
  6
CONTINUOUS
 10
46.8421982299
 20
64.6831874829
  0
VERTEX
  8
0
 62
7
  6
CONTINUOUS
 10
46.8764069311
 20
64.651192673
  0
VERTEX
  8
0
 62
7
  6
CONTINUOUS
 10
46.9280057123
 20
64.6176158117
  0
VERTEX
  8
0
 62
7
  6
CONTINUOUS
 10
46.9966051743
 20
64.5827506391
  0
SEQEND
  0
LINE
  8
0
 62
7
  6
CONTINUOUS
 10
63.2388598654
 20
85.7133479212
 11
63.2388598654
 21
78.2133479212
  0
LINE
  8
0
 62
7
  6
CONTINUOUS
 10
63.2388598654
 20
63.2133479212
 11
63.2388598654
 21
55.7133479212
  0
POLYLINE
  8
0
 62
7
  6
CONTINUOUS
 66
1
 70
0
  0
VERTEX
  8
0
 62
7
  6
CONTINUOUS
 10
46.9966051743
 20
76.8439452033
  0
VERTEX
  8
0
 62
7
  6
CONTINUOUS
 10
47.3922187839
 20
77.0158601008
  0
VERTEX
  8
0
 62
7
  6
CONTINUOUS
 10
47.8367839641
 20
77.1900294049
  0
VERTEX
  8
0
 62
7
  6
CONTINUOUS
 10
48.3287955403
 20
77.3659088269
  0
VERTEX
  8
0
 62
7
  6
CONTINUOUS
 10
48.8664826074
 20
77.5428924437
  0
VERTEX
  8
0
 62
7
  6
CONTINUOUS
 10
49.4478117394
 20
77.7203250917
  0
VERTEX
  8
0
 62
7
  6
CONTINUOUS
 10
50.070575529
 20
77.8975334155
  0
SEQEND
  0
POLYLINE
  8
0
 62
7
  6
CONTINUOUS
 66
1
 70
0
  0
VERTEX
  8
0
 62
7
  6
CONTINUOUS
 10
19.125245632
 20
64.7133479212
  0
VERTEX
  8
0
 62
7
  6
CONTINUOUS
 10
19.0393941256
 20
64.7420800725
  0
VERTEX
  8
0
 62
7
  6
CONTINUOUS
 10
18.9607203151
 20
64.7833899284
  0
VERTEX
  8
0
 62
7
  6
CONTINUOUS
 10
18.8912641718
 20
64.8357943863
  0
VERTEX
  8
0
 62
7
  6
CONTINUOUS
 10
18.8320036866
 20
64.8976852615
  0
VERTEX
  8
0
 62
7
  6
CONTINUOUS
 10
18.7827564785
 20
64.9685034899
  0
VERTEX
  8
0
 62
7
  6
CONTINUOUS
 10
18.7422796661
 20
65.0514112303
  0
VERTEX
  8
0
 62
7
  6
CONTINUOUS
 10
18.7116165594
 20
65.1509765214
  0
VERTEX
  8
0
 62
7
  6
CONTINUOUS
 10
18.6947360463
 20
65.2718033519
  0
VERTEX
  8
0
 62
7
  6
CONTINUOUS
 10
18.6932688229
 20
65.3204977957
  0
SEQEND
  0
POLYLINE
  8
0
 62
7
  6
CONTINUOUS
 66
1
 70
0
  0
VERTEX
  8
0
 62
7
  6
CONTINUOUS
 10
53.1748345356
 20
65.6949751047
  0
VERTEX
  8
0
 62
7
  6
CONTINUOUS
 10
53.3392251192
 20
65.5614203616
  0
VERTEX
  8
0
 62
7
  6
CONTINUOUS
 10
53.5343049921
 20
65.4138663303
  0
VERTEX
  8
0
 62
7
  6
CONTINUOUS
 10
53.738080729
 20
65.2719099438
  0
VERTEX
  8
0
 62
7
  6
CONTINUOUS
 10
53.9276215391
 20
65.1509984172
  0
VERTEX
  8
0
 62
7
  6
CONTINUOUS
 10
54.0985857046
 20
65.0514102229
  0
VERTEX
  8
0
 62
7
  6
CONTINUOUS
 10
54.255169993
 20
64.9685126404
  0
VERTEX
  8
0
 62
7
  6
CONTINUOUS
 10
54.4038360751
 20
64.8977082244
  0
VERTEX
  8
0
 62
7
  6
CONTINUOUS
 10
54.5512185737
 20
64.8358165992
  0
VERTEX
  8
0
 62
7
  6
CONTINUOUS
 10
54.6977750389
 20
64.7834015508
  0
VERTEX
  8
0
 62
7
  6
CONTINUOUS
 10
54.841424387
 20
64.7420822209
  0
VERTEX
  8
0
 62
7
  6
CONTINUOUS
 10
54.9791449732
 20
64.7133479212
  0
SEQEND
  0
POLYLINE
  8
0
 62
7
  6
CONTINUOUS
 66
1
 70
0
  0
VERTEX
  8
0
 62
7
  6
CONTINUOUS
 10
47.582841054
 20
75.7317207378
  0
VERTEX
  8
0
 62
7
  6
CONTINUOUS
 10
47.4389360216
 20
75.8648255436
  0
VERTEX
  8
0
 62
7
  6
CONTINUOUS
 10
47.3035388063
 20
76.0001417765
  0
VERTEX
  8
0
 62
7
  6
CONTINUOUS
 10
47.1831366618
 20
76.1307382487
  0
VERTEX
  8
0
 62
7
  6
CONTINUOUS
 10
47.0820727753
 20
76.2503212039
  0
VERTEX
  8
0
 62
7
  6
CONTINUOUS
 10
47.0003187832
 20
76.3566205514
  0
VERTEX
  8
0
 62
7
  6
CONTINUOUS
 10
46.9361039525
 20
76.4495437537
  0
VERTEX
  8
0
 62
7
  6
CONTINUOUS
 10
46.8876773988
 20
76.5293563937
  0
VERTEX
  8
0
 62
7
  6
CONTINUOUS
 10
46.8534752678
 20
76.5965168465
  0
VERTEX
  8
0
 62
7
  6
CONTINUOUS
 10
46.8328243593
 20
76.6498916754
  0
VERTEX
  8
0
 62
7
  6
CONTINUOUS
 10
46.8243854534
 20
76.6886119186
  0
VERTEX
  8
0
 62
7
  6
CONTINUOUS
 10
46.8238732111
 20
76.6989615138
  0
SEQEND
  0
POLYLINE
  8
0
 62
7
  6
CONTINUOUS
 66
1
 70
0
  0
VERTEX
  8
0
 62
7
  6
CONTINUOUS
 10
58.9458209698
 20
77.8975334155
  0
VERTEX
  8
0
 62
7
  6
CONTINUOUS
 10
59.1262194225
 20
77.9720889922
  0
VERTEX
  8
0
 62
7
  6
CONTINUOUS
 10
59.3152375102
 20
78.0467553451
  0
VERTEX
  8
0
 62
7
  6
CONTINUOUS
 10
59.5127502398
 20
78.1214838385
  0
SEQEND
  0
POLYLINE
  8
0
 62
7
  6
CONTINUOUS
 66
1
 70
0
  0
VERTEX
  8
0
 62
7
  6
CONTINUOUS
 10
58.9458209698
 20
77.8975334155
  0
VERTEX
  8
0
 62
7
  6
CONTINUOUS
 10
58.5036031914
 20
77.7203628269
  0
VERTEX
  8
0
 62
7
  6
CONTINUOUS
 10
58.0139657571
 20
77.5429583598
  0
VERTEX
  8
0
 62
7
  6
CONTINUOUS
 10
57.478738096
 20
77.3659800363
  0
VERTEX
  8
0
 62
7
  6
CONTINUOUS
 10
56.8999653769
 20
77.1900740702
  0
VERTEX
  8
0
 62
7
  6
CONTINUOUS
 10
56.2798872711
 20
77.0158647583
  0
VERTEX
  8
0
 62
7
  6
CONTINUOUS
 10
55.6208994942
 20
76.8439452033
  0
SEQEND
  0
POLYLINE
  8
0
 62
7
  6
CONTINUOUS
 66
1
 70
0
  0
VERTEX
  8
0
 62
7
  6
CONTINUOUS
 10
50.8504819958
 20
78.1214838385
  0
VERTEX
  8
0
 62
7
  6
CONTINUOUS
 10
50.5977621418
 20
78.0467560929
  0
VERTEX
  8
0
 62
7
  6
CONTINUOUS
 10
50.3377337174
 20
77.9720893453
  0
VERTEX
  8
0
 62
7
  6
CONTINUOUS
 10
50.070575529
 20
77.8975334155
  0
SEQEND
  0
POLYLINE
  8
0
 62
7
  6
CONTINUOUS
 66
1
 70
0
  0
VERTEX
  8
0
 62
7
  6
CONTINUOUS
 10
179.9055754718
 20
64.5827506391
  0
VERTEX
  8
0
 62
7
  6
CONTINUOUS
 10
180.0645535454
 20
64.6176041724
  0
VERTEX
  8
0
 62
7
  6
CONTINUOUS
 10
180.2130356966
 20
64.6511865576
  0
VERTEX
  8
0
 62
7
  6
CONTINUOUS
 10
180.3496505961
 20
64.6831917893
  0
VERTEX
  8
0
 62
7
  6
CONTINUOUS
 10
180.4732226393
 20
64.7133479212
  0
SEQEND
  0
POLYLINE
  8
0
 62
7
  6
CONTINUOUS
 66
1
 70
0
  0
VERTEX
  8
0
 62
7
  6
CONTINUOUS
 10
19.125245632
 20
64.7133479212
  0
VERTEX
  8
0
 62
7
  6
CONTINUOUS
 10
19.2488357009
 20
64.6831874829
  0
VERTEX
  8
0
 62
7
  6
CONTINUOUS
 10
19.3854059921
 20
64.651192673
  0
VERTEX
  8
0
 62
7
  6
CONTINUOUS
 10
19.5338624333
 20
64.6176158117
  0
VERTEX
  8
0
 62
7
  6
CONTINUOUS
 10
19.6928927995
 20
64.5827506391
  0
SEQEND
  0
POLYLINE
  8
0
 62
7
  6
CONTINUOUS
 66
1
 70
0
  0
VERTEX
  8
0
 62
7
  6
CONTINUOUS
 10
46.9966051743
 20
64.5827506391
  0
VERTEX
  8
0
 62
7
  6
CONTINUOUS
 10
47.3922187839
 20
64.4108357417
  0
VERTEX
  8
0
 62
7
  6
CONTINUOUS
 10
47.8367839641
 20
64.2366664375
  0
VERTEX
  8
0
 62
7
  6
CONTINUOUS
 10
48.3287955403
 20
64.0607870156
  0
VERTEX
  8
0
 62
7
  6
CONTINUOUS
 10
48.8664826074
 20
63.8838033988
  0
VERTEX
  8
0
 62
7
  6
CONTINUOUS
 10
49.4478117394
 20
63.7063707507
  0
VERTEX
  8
0
 62
7
  6
CONTINUOUS
 10
50.070575529
 20
63.529162427
  0
SEQEND
  0
POLYLINE
  8
0
 62
7
  6
CONTINUOUS
 66
1
 70
0
  0
VERTEX
  8
0
 62
7
  6
CONTINUOUS
 10
149.5278927424
 20
63.529162427
  0
VERTEX
  8
0
 62
7
  6
CONTINUOUS
 10
149.2607358014
 20
63.4546068503
  0
VERTEX
  8
0
 62
7
  6
CONTINUOUS
 10
149.000708696
 20
63.3799404973
  0
VERTEX
  8
0
 62
7
  6
CONTINUOUS
 10
148.7479862755
 20
63.305212004
  0
SEQEND
  0
POLYLINE
  8
0
 62
7
  6
CONTINUOUS
 66
1
 70
0
  0
VERTEX
  8
0
 62
7
  6
CONTINUOUS
 10
148.7479862755
 20
63.305212004
  0
VERTEX
  8
0
 62
7
  6
CONTINUOUS
 10
148.5458539413
 20
63.2542188387
  0
VERTEX
  8
0
 62
7
  6
CONTINUOUS
 10
148.3472849423
 20
63.2235652154
  0
VERTEX
  8
0
 62
7
  6
CONTINUOUS
 10
148.1533034192
 20
63.2133479212
  0
SEQEND
  0
POLYLINE
  8
0
 62
7
  6
CONTINUOUS
 66
1
 70
0
  0
VERTEX
  8
0
 62
7
  6
CONTINUOUS
 10
170.3377105608
 20
63.305212004
  0
VERTEX
  8
0
 62
7
  6
CONTINUOUS
 10
170.6914108151
 20
63.3799397495
  0
VERTEX
  8
0
 62
7
  6
CONTINUOUS
 10
171.0411363677
 20
63.4546064972
  0
SEQEND
  0
POLYLINE
  8
0
 62
7
  6
CONTINUOUS
 66
1
 70
0
  0
VERTEX
  8
0
 62
7
  6
CONTINUOUS
 10
177.3588395201
 20
64.7133479212
  0
VERTEX
  8
0
 62
7
  6
CONTINUOUS
 10
177.4970093497
 20
64.7420800725
  0
VERTEX
  8
0
 62
7
  6
CONTINUOUS
 10
177.6343957658
 20
64.7833899284
  0
VERTEX
  8
0
 62
7
  6
CONTINUOUS
 10
177.7678858667
 20
64.8357943863
  0
VERTEX
  8
0
 62
7
  6
CONTINUOUS
 10
177.8956018464
 20
64.8976852615
  0
VERTEX
  8
0
 62
7
  6
CONTINUOUS
 10
178.0179393559
 20
64.9685034899
  0
VERTEX
  8
0
 62
7
  6
CONTINUOUS
 10
178.1397421819
 20
65.0514112303
  0
VERTEX
  8
0
 62
7
  6
CONTINUOUS
 10
178.2643313539
 20
65.1509765214
  0
VERTEX
  8
0
 62
7
  6
CONTINUOUS
 10
178.3918300964
 20
65.2718033519
  0
VERTEX
  8
0
 62
7
  6
CONTINUOUS
 10
178.5156149715
 20
65.4136421398
  0
VERTEX
  8
0
 62
7
  6
CONTINUOUS
 10
178.6198211092
 20
65.5611734697
  0
VERTEX
  8
0
 62
7
  6
CONTINUOUS
 10
178.6951394302
 20
65.6949751047
  0
SEQEND
  0
POLYLINE
  8
0
 62
7
  6
CONTINUOUS
 66
1
 70
0
  0
VERTEX
  8
0
 62
7
  6
CONTINUOUS
 10
175.6726319221
 20
63.7063330155
  0
VERTEX
  8
0
 62
7
  6
CONTINUOUS
 10
176.5564936262
 20
63.8837374826
  0
VERTEX
  8
0
 62
7
  6
CONTINUOUS
 10
177.4249698991
 20
64.0607158062
  0
VERTEX
  8
0
 62
7
  6
CONTINUOUS
 10
178.2747709827
 20
64.2366217723
  0
VERTEX
  8
0
 62
7
  6
CONTINUOUS
 10
179.1026737104
 20
64.4108310842
  0
VERTEX
  8
0
 62
7
  6
CONTINUOUS
 10
179.9055754718
 20
64.5827506391
  0
SEQEND
  0
POLYLINE
  8
0
 62
7
  6
CONTINUOUS
 66
1
 70
0
  0
VERTEX
  8
0
 62
7
  6
CONTINUOUS
 10
175.6726319221
 20
63.7063330155
  0
VERTEX
  8
0
 62
7
  6
CONTINUOUS
 10
174.3980413191
 20
63.4546068503
  0
VERTEX
  8
0
 62
7
  6
CONTINUOUS
 10
173.6464026103
 20
63.305212004
  0
SEQEND
  0
POLYLINE
  8
0
 62
7
  6
CONTINUOUS
 66
1
 70
0
  0
VERTEX
  8
0
 62
7
  6
CONTINUOUS
 10
176.6113881706
 20
64.5827506391
  0
VERTEX
  8
0
 62
7
  6
CONTINUOUS
 10
175.7079149493
 20
64.4108357417
  0
VERTEX
  8
0
 62
7
  6
CONTINUOUS
 10
174.8132161919
 20
64.2366664375
  0
VERTEX
  8
0
 62
7
  6
CONTINUOUS
 10
173.9304354532
 20
64.0607870156
  0
VERTEX
  8
0
 62
7
  6
CONTINUOUS
 10
173.062864733
 20
63.8838033988
  0
VERTEX
  8
0
 62
7
  6
CONTINUOUS
 10
172.2138546743
 20
63.7063707507
  0
VERTEX
  8
0
 62
7
  6
CONTINUOUS
 10
171.0411363677
 20
63.4546064972
  0
SEQEND
  0
POLYLINE
  8
0
 62
7
  6
CONTINUOUS
 66
1
 70
0
  0
VERTEX
  8
0
 62
7
  6
CONTINUOUS
 10
173.6464026103
 20
63.305212004
  0
VERTEX
  8
0
 62
7
  6
CONTINUOUS
 10
173.3400630141
 20
63.2542188387
  0
VERTEX
  8
0
 62
7
  6
CONTINUOUS
 10
173.0329537324
 20
63.2235652154
  0
VERTEX
  8
0
 62
7
  6
CONTINUOUS
 10
172.7265455411
 20
63.2133479212
  0
SEQEND
  0
POLYLINE
  8
0
 62
7
  6
CONTINUOUS
 66
1
 70
0
  0
VERTEX
  8
0
 62
7
  6
CONTINUOUS
 10
177.3588395201
 20
64.7133479212
  0
VERTEX
  8
0
 62
7
  6
CONTINUOUS
 10
177.1754807048
 20
64.6831874829
  0
VERTEX
  8
0
 62
7
  6
CONTINUOUS
 10
176.9887140329
 20
64.651192673
  0
VERTEX
  8
0
 62
7
  6
CONTINUOUS
 10
176.8001052464
 20
64.6176158117
  0
VERTEX
  8
0
 62
7
  6
CONTINUOUS
 10
176.6113881706
 20
64.5827506391
  0
SEQEND
  0
POLYLINE
  8
0
 62
7
  6
CONTINUOUS
 66
1
 70
0
  0
VERTEX
  8
0
 62
7
  6
CONTINUOUS
 10
29.2607577105
 20
63.305212004
  0
VERTEX
  8
0
 62
7
  6
CONTINUOUS
 10
29.5542932552
 20
63.2542188387
  0
VERTEX
  8
0
 62
7
  6
CONTINUOUS
 10
29.8526375122
 20
63.2235652154
  0
VERTEX
  8
0
 62
7
  6
CONTINUOUS
 10
30.1544348572
 20
63.2133479212
  0
SEQEND
  0
POLYLINE
  8
0
 62
7
  6
CONTINUOUS
 66
1
 70
0
  0
VERTEX
  8
0
 62
7
  6
CONTINUOUS
 10
22.9870801008
 20
64.5827506391
  0
VERTEX
  8
0
 62
7
  6
CONTINUOUS
 10
22.7984271973
 20
64.6176041724
  0
VERTEX
  8
0
 62
7
  6
CONTINUOUS
 10
22.6097892495
 20
64.6511865576
  0
VERTEX
  8
0
 62
7
  6
CONTINUOUS
 10
22.4229619203
 20
64.6831917893
  0
VERTEX
  8
0
 62
7
  6
CONTINUOUS
 10
22.2396287512
 20
64.7133479212
  0
SEQEND
  0
LINE
  8
0
 62
7
  6
CONTINUOUS
 10
25.952065661
 20
63.305212004
 11
25.20042874
 21
63.4546064972
  0
POLYLINE
  8
0
 62
7
  6
CONTINUOUS
 66
1
 70
0
  0
VERTEX
  8
0
 62
7
  6
CONTINUOUS
 10
27.3847919513
 20
63.7063330155
  0
VERTEX
  8
0
 62
7
  6
CONTINUOUS
 10
26.5359228002
 20
63.8837374826
  0
VERTEX
  8
0
 62
7
  6
CONTINUOUS
 10
25.6683860589
 20
64.0607158062
  0
VERTEX
  8
0
 62
7
  6
CONTINUOUS
 10
24.7854788934
 20
64.2366217723
  0
VERTEX
  8
0
 62
7
  6
CONTINUOUS
 10
23.8905775232
 20
64.4108310842
  0
VERTEX
  8
0
 62
7
  6
CONTINUOUS
 10
22.9870801008
 20
64.5827506391
  0
SEQEND
  0
POLYLINE
  8
0
 62
7
  6
CONTINUOUS
 66
1
 70
0
  0
VERTEX
  8
0
 62
7
  6
CONTINUOUS
 10
19.6928927995
 20
64.5827506391
  0
VERTEX
  8
0
 62
7
  6
CONTINUOUS
 10
20.4957726153
 20
64.4108357417
  0
VERTEX
  8
0
 62
7
  6
CONTINUOUS
 10
21.3234832487
 20
64.2366664375
  0
VERTEX
  8
0
 62
7
  6
CONTINUOUS
 10
22.1731516268
 20
64.0607870156
  0
VERTEX
  8
0
 62
7
  6
CONTINUOUS
 10
23.0416487023
 20
63.8838033988
  0
VERTEX
  8
0
 62
7
  6
CONTINUOUS
 10
23.9256469376
 20
63.7063707507
  0
VERTEX
  8
0
 62
7
  6
CONTINUOUS
 10
25.20042874
 20
63.4546064972
  0
SEQEND
  0
POLYLINE
  8
0
 62
7
  6
CONTINUOUS
 66
1
 70
0
  0
VERTEX
  8
0
 62
7
  6
CONTINUOUS
 10
27.3847919513
 20
63.7063330155
  0
VERTEX
  8
0
 62
7
  6
CONTINUOUS
 10
28.5573302585
 20
63.4546068503
  0
VERTEX
  8
0
 62
7
  6
CONTINUOUS
 10
28.9070539353
 20
63.3799404973
  0
VERTEX
  8
0
 62
7
  6
CONTINUOUS
 10
29.2607577105
 20
63.305212004
  0
SEQEND
  0
POLYLINE
  8
0
 62
7
  6
CONTINUOUS
 66
1
 70
0
  0
VERTEX
  8
0
 62
7
  6
CONTINUOUS
 10
50.8504819958
 20
63.305212004
  0
VERTEX
  8
0
 62
7
  6
CONTINUOUS
 10
50.5977621418
 20
63.3799397495
  0
VERTEX
  8
0
 62
7
  6
CONTINUOUS
 10
50.3377337174
 20
63.4546064972
  0
VERTEX
  8
0
 62
7
  6
CONTINUOUS
 10
50.070575529
 20
63.529162427
  0
SEQEND
  0
POLYLINE
  8
0
 62
7
  6
CONTINUOUS
 66
1
 70
0
  0
VERTEX
  8
0
 62
7
  6
CONTINUOUS
 10
59.5127502398
 20
63.305212004
  0
VERTEX
  8
0
 62
7
  6
CONTINUOUS
 10
59.6813611318
 20
63.2542188387
  0
VERTEX
  8
0
 62
7
  6
CONTINUOUS
 10
59.8569829982
 20
63.2235652154
  0
VERTEX
  8
0
 62
7
  6
CONTINUOUS
 10
60.0388931688
 20
63.2133479212
  0
SEQEND
  0
POLYLINE
  8
0
 62
7
  6
CONTINUOUS
 66
1
 70
0
  0
VERTEX
  8
0
 62
7
  6
CONTINUOUS
 10
58.9458209698
 20
63.529162427
  0
VERTEX
  8
0
 62
7
  6
CONTINUOUS
 10
58.5036031914
 20
63.7063330155
  0
VERTEX
  8
0
 62
7
  6
CONTINUOUS
 10
58.0139657571
 20
63.8837374826
  0
VERTEX
  8
0
 62
7
  6
CONTINUOUS
 10
57.478738096
 20
64.0607158062
  0
VERTEX
  8
0
 62
7
  6
CONTINUOUS
 10
56.8999653769
 20
64.2366217723
  0
VERTEX
  8
0
 62
7
  6
CONTINUOUS
 10
56.2798872711
 20
64.4108310842
  0
VERTEX
  8
0
 62
7
  6
CONTINUOUS
 10
55.6208994942
 20
64.5827506391
  0
SEQEND
  0
POLYLINE
  8
0
 62
7
  6
CONTINUOUS
 66
1
 70
0
  0
VERTEX
  8
0
 62
7
  6
CONTINUOUS
 10
58.9458209698
 20
63.529162427
  0
VERTEX
  8
0
 62
7
  6
CONTINUOUS
 10
59.1262194225
 20
63.4546068503
  0
VERTEX
  8
0
 62
7
  6
CONTINUOUS
 10
59.3152375102
 20
63.3799404973
  0
VERTEX
  8
0
 62
7
  6
CONTINUOUS
 10
59.5127502398
 20
63.305212004
  0
SEQEND
  0
POLYLINE
  8
0
 62
7
  6
CONTINUOUS
 66
1
 70
0
  0
VERTEX
  8
0
 62
7
  6
CONTINUOUS
 10
143.9775687771
 20
64.5827506391
  0
VERTEX
  8
0
 62
7
  6
CONTINUOUS
 10
143.3185982129
 20
64.4108357417
  0
VERTEX
  8
0
 62
7
  6
CONTINUOUS
 10
142.6986558471
 20
64.2366664375
  0
VERTEX
  8
0
 62
7
  6
CONTINUOUS
 10
142.1199549853
 20
64.0607870156
  0
VERTEX
  8
0
 62
7
  6
CONTINUOUS
 10
141.584693148
 20
63.8838033988
  0
VERTEX
  8
0
 62
7
  6
CONTINUOUS
 10
141.0949642515
 20
63.7063707507
  0
VERTEX
  8
0
 62
7
  6
CONTINUOUS
 10
140.6526473015
 20
63.529162427
  0
SEQEND
  0
POLYLINE
  8
0
 62
7
  6
CONTINUOUS
 66
1
 70
0
  0
VERTEX
  8
0
 62
7
  6
CONTINUOUS
 10
144.6193232981
 20
64.7133479212
  0
VERTEX
  8
0
 62
7
  6
CONTINUOUS
 10
144.7570352721
 20
64.7420800725
  0
VERTEX
  8
0
 62
7
  6
CONTINUOUS
 10
144.9006573525
 20
64.7833899284
  0
VERTEX
  8
0
 62
7
  6
CONTINUOUS
 10
145.0471927296
 20
64.8357943863
  0
VERTEX
  8
0
 62
7
  6
CONTINUOUS
 10
145.1945810405
 20
64.8976852615
  0
VERTEX
  8
0
 62
7
  6
CONTINUOUS
 10
145.3432800809
 20
64.9685034899
  0
VERTEX
  8
0
 62
7
  6
CONTINUOUS
 10
145.4998843808
 20
65.0514112303
  0
VERTEX
  8
0
 62
7
  6
CONTINUOUS
 10
145.670810789
 20
65.1509765214
  0
VERTEX
  8
0
 62
7
  6
CONTINUOUS
 10
145.8602275748
 20
65.2718033519
  0
VERTEX
  8
0
 62
7
  6
CONTINUOUS
 10
146.0638548528
 20
65.4136421398
  0
VERTEX
  8
0
 62
7
  6
CONTINUOUS
 10
146.2589291191
 20
65.5611734697
  0
VERTEX
  8
0
 62
7
  6
CONTINUOUS
 10
146.4236337357
 20
65.6949751047
  0
SEQEND
  0
POLYLINE
  8
0
 62
7
  6
CONTINUOUS
 66
1
 70
0
  0
VERTEX
  8
0
 62
7
  6
CONTINUOUS
 10
144.6193232981
 20
64.7133479212
  0
VERTEX
  8
0
 62
7
  6
CONTINUOUS
 10
144.4462325715
 20
64.6831874829
  0
VERTEX
  8
0
 62
7
  6
CONTINUOUS
 10
144.2806080397
 20
64.651192673
  0
VERTEX
  8
0
 62
7
  6
CONTINUOUS
 10
144.1238890538
 20
64.6176158117
  0
VERTEX
  8
0
 62
7
  6
CONTINUOUS
 10
143.9775687771
 20
64.5827506391
  0
SEQEND
  0
LINE
  8
0
 62
7
  6
CONTINUOUS
 10
31.0056933042
 20
55.7133479212
 11
168.5927749671
 21
55.7133479212
  0
POLYLINE
  8
0
 62
7
  6
CONTINUOUS
 66
1
 70
0
  0
VERTEX
  8
0
 62
7
  6
CONTINUOUS
 10
55.6208994942
 20
64.5827506391
  0
VERTEX
  8
0
 62
7
  6
CONTINUOUS
 10
55.4746307579
 20
64.6176041724
  0
VERTEX
  8
0
 62
7
  6
CONTINUOUS
 10
55.317890298
 20
64.6511865576
  0
VERTEX
  8
0
 62
7
  6
CONTINUOUS
 10
55.1522122288
 20
64.6831917893
  0
VERTEX
  8
0
 62
7
  6
CONTINUOUS
 10
54.9791449732
 20
64.7133479212
  0
SEQEND
  0
POLYLINE
  8
0
 62
7
  6
CONTINUOUS
 66
1
 70
0
  0
VERTEX
  8
0
 62
7
  6
CONTINUOUS
 10
94.1382341357
 20
63.9772055316
  0
VERTEX
  8
0
 62
7
  6
CONTINUOUS
 10
94.1458964558
 20
63.8838033988
  0
VERTEX
  8
0
 62
7
  6
CONTINUOUS
 10
94.2025085147
 20
63.7063707507
  0
VERTEX
  8
0
 62
7
  6
CONTINUOUS
 10
94.3140307947
 20
63.529162427
  0
SEQEND
  0
LINE
  8
0
 62
7
  6
CONTINUOUS
 10
93.8428619657
 20
85.7133479212
 11
93.8428619657
 21
78.2133479212
  0
LINE
  8
0
 62
7
  6
CONTINUOUS
 10
93.8428619657
 20
63.2133479212
 11
93.8428619657
 21
55.7133479212
  0
LINE
  8
0
 62
7
  6
CONTINUOUS
 10
94.1382341357
 20
77.4495893203
 11
94.1382341357
 21
63.9771065222
  0
POLYLINE
  8
0
 62
7
  6
CONTINUOUS
 66
1
 70
0
  0
VERTEX
  8
0
 62
7
  6
CONTINUOUS
 10
94.1382341357
 20
77.4494903108
  0
VERTEX
  8
0
 62
7
  6
CONTINUOUS
 10
94.1458964558
 20
77.5428924437
  0
VERTEX
  8
0
 62
7
  6
CONTINUOUS
 10
94.2025085147
 20
77.7203250917
  0
VERTEX
  8
0
 62
7
  6
CONTINUOUS
 10
94.3140307947
 20
77.8975334155
  0
SEQEND
  0
POLYLINE
  8
0
 62
7
  6
CONTINUOUS
 66
1
 70
0
  0
VERTEX
  8
0
 62
7
  6
CONTINUOUS
 10
94.4456579412
 20
78.1214838385
  0
VERTEX
  8
0
 62
7
  6
CONTINUOUS
 10
94.4663752008
 20
78.1724766976
  0
VERTEX
  8
0
 62
7
  6
CONTINUOUS
 10
94.4805573607
 20
78.203130478
  0
VERTEX
  8
0
 62
7
  6
CONTINUOUS
 10
94.4880179459
 20
78.2133479212
  0
SEQEND
  0
POLYLINE
  8
0
 62
7
  6
CONTINUOUS
 66
1
 70
0
  0
VERTEX
  8
0
 62
7
  6
CONTINUOUS
 10
94.4456579412
 20
78.1214838385
  0
VERTEX
  8
0
 62
7
  6
CONTINUOUS
 10
94.4115368662
 20
78.0467560929
  0
VERTEX
  8
0
 62
7
  6
CONTINUOUS
 10
94.36765072
 20
77.9720893453
  0
VERTEX
  8
0
 62
7
  6
CONTINUOUS
 10
94.3140307947
 20
77.8975334155
  0
SEQEND
  0
POLYLINE
  8
0
 62
7
  6
CONTINUOUS
 66
1
 70
0
  0
VERTEX
  8
0
 62
7
  6
CONTINUOUS
 10
104.8384118765
 20
76.7133479212
  0
VERTEX
  8
0
 62
7
  6
CONTINUOUS
 10
104.7640500175
 20
76.6885820089
  0
VERTEX
  8
0
 62
7
  6
CONTINUOUS
 10
104.6727515436
 20
76.6498572563
  0
VERTEX
  8
0
 62
7
  6
CONTINUOUS
 10
104.5656931977
 20
76.59650898
  0
VERTEX
  8
0
 62
7
  6
CONTINUOUS
 10
104.4450398861
 20
76.529389067
  0
VERTEX
  8
0
 62
7
  6
CONTINUOUS
 10
104.3121829629
 20
76.4495891972
  0
VERTEX
  8
0
 62
7
  6
CONTINUOUS
 10
104.1656904324
 20
76.3566587312
  0
VERTEX
  8
0
 62
7
  6
CONTINUOUS
 10
104.0045694003
 20
76.2503442431
  0
VERTEX
  8
0
 62
7
  6
CONTINUOUS
 10
103.8283098214
 20
76.130754917
  0
VERTEX
  8
0
 62
7
  6
CONTINUOUS
 10
103.6393792879
 20
76.0001894215
  0
VERTEX
  8
0
 62
7
  6
CONTINUOUS
 10
103.2552761722
 20
75.7317207378
  0
SEQEND
  0
POLYLINE
  8
0
 62
7
  6
CONTINUOUS
 66
1
 70
0
  0
VERTEX
  8
0
 62
7
  6
CONTINUOUS
 10
139.5595751026
 20
63.2133479212
  0
VERTEX
  8
0
 62
7
  6
CONTINUOUS
 10
139.7414852731
 20
63.2235652154
  0
VERTEX
  8
0
 62
7
  6
CONTINUOUS
 10
139.9171071396
 20
63.2542188387
  0
VERTEX
  8
0
 62
7
  6
CONTINUOUS
 10
140.0857180315
 20
63.305212004
  0
SEQEND
  0
POLYLINE
  8
0
 62
7
  6
CONTINUOUS
 66
1
 70
0
  0
VERTEX
  8
0
 62
7
  6
CONTINUOUS
 10
169.4440334142
 20
63.2133479212
  0
VERTEX
  8
0
 62
7
  6
CONTINUOUS
 10
169.7458307592
 20
63.2235652154
  0
VERTEX
  8
0
 62
7
  6
CONTINUOUS
 10
170.0441750161
 20
63.2542188387
  0
VERTEX
  8
0
 62
7
  6
CONTINUOUS
 10
170.3377105608
 20
63.305212004
  0
SEQEND
  0
LINE
  8
0
 62
7
  6
CONTINUOUS
 10
26.8719227303
 20
63.2133479212
 11
34.6869337549
 21
63.2133479212
  0
LINE
  8
0
 62
7
  6
CONTINUOUS
 10
51.4451648521
 20
63.2133479212
 11
63.2388598654
 21
63.2133479212
  0
LINE
  8
0
 62
7
  6
CONTINUOUS
 10
93.8428619657
 20
63.2133479212
 11
105.7556063057
 21
63.2133479212
  0
LINE
  8
0
 62
7
  6
CONTINUOUS
 10
136.359608406
 20
63.2133479212
 11
148.1533034192
 21
63.2133479212
  0
LINE
  8
0
 62
7
  6
CONTINUOUS
 10
164.9115345164
 20
63.2133479212
 11
172.7265455411
 21
63.2133479212
  0
POLYLINE
  8
0
 62
7
  6
CONTINUOUS
 66
1
 70
0
  0
VERTEX
  8
0
 62
7
  6
CONTINUOUS
 10
26.8719227303
 20
63.2133479212
  0
VERTEX
  8
0
 62
7
  6
CONTINUOUS
 10
26.5655145389
 20
63.2235652154
  0
VERTEX
  8
0
 62
7
  6
CONTINUOUS
 10
26.2584052572
 20
63.2542188387
  0
VERTEX
  8
0
 62
7
  6
CONTINUOUS
 10
25.952065661
 20
63.305212004
  0
SEQEND
  0
POLYLINE
  8
0
 62
7
  6
CONTINUOUS
 66
1
 70
0
  0
VERTEX
  8
0
 62
7
  6
CONTINUOUS
 10
51.4451648521
 20
63.2133479212
  0
VERTEX
  8
0
 62
7
  6
CONTINUOUS
 10
51.2511833291
 20
63.2235652154
  0
VERTEX
  8
0
 62
7
  6
CONTINUOUS
 10
51.05261433
 20
63.2542188387
  0
VERTEX
  8
0
 62
7
  6
CONTINUOUS
 10
50.8504819958
 20
63.305212004
  0
SEQEND
  0
POLYLINE
  8
0
 62
7
  6
CONTINUOUS
 66
1
 70
0
  0
VERTEX
  8
0
 62
7
  6
CONTINUOUS
 10
94.4880179459
 20
63.2133479212
  0
VERTEX
  8
0
 62
7
  6
CONTINUOUS
 10
94.4805574398
 20
63.2235652154
  0
VERTEX
  8
0
 62
7
  6
CONTINUOUS
 10
94.4663753318
 20
63.2542188387
  0
VERTEX
  8
0
 62
7
  6
CONTINUOUS
 10
94.4456579412
 20
63.305212004
  0
SEQEND
  0
POLYLINE
  8
0
 62
7
  6
CONTINUOUS
 66
1
 70
0
  0
VERTEX
  8
0
 62
7
  6
CONTINUOUS
 10
94.4456579412
 20
63.305212004
  0
VERTEX
  8
0
 62
7
  6
CONTINUOUS
 10
94.4115368662
 20
63.3799397495
  0
VERTEX
  8
0
 62
7
  6
CONTINUOUS
 10
94.36765072
 20
63.4546064972
  0
VERTEX
  8
0
 62
7
  6
CONTINUOUS
 10
94.3140307947
 20
63.529162427
  0
SEQEND
  0
LINE
  8
DEFAULT_1
 62
2
  6
CENTER
 10
99.7992341357
 20
50.7133479212
 11
99.7992341357
 21
87.7133479212
  0
POLYLINE
  8
0
 62
7
  6
CONTINUOUS
 66
1
 70
0
  0
VERTEX
  8
0
 62
7
  6
CONTINUOUS
 10
94.469127117
 20
64.5827506391
  0
VERTEX
  8
0
 62
7
  6
CONTINUOUS
 10
94.3063635678
 20
64.4108357417
  0
VERTEX
  8
0
 62
7
  6
CONTINUOUS
 10
94.1979745063
 20
64.2366664375
  0
VERTEX
  8
0
 62
7
  6
CONTINUOUS
 10
94.1443975813
 20
64.0607870156
  0
VERTEX
  8
0
 62
7
  6
CONTINUOUS
 10
94.1382341357
 20
63.9772055316
  0
SEQEND
  0
POLYLINE
  8
0
 62
7
  6
CONTINUOUS
 66
1
 70
0
  0
VERTEX
  8
0
 62
7
  6
CONTINUOUS
 10
105.1293411544
 20
76.8439452033
  0
VERTEX
  8
0
 62
7
  6
CONTINUOUS
 10
105.081326271
 20
76.8090916701
  0
VERTEX
  8
0
 62
7
  6
CONTINUOUS
 10
105.0163528273
 20
76.7755092848
  0
VERTEX
  8
0
 62
7
  6
CONTINUOUS
 10
104.9351074093
 20
76.7435040532
  0
VERTEX
  8
0
 62
7
  6
CONTINUOUS
 10
104.8384118765
 20
76.7133479212
  0
SEQEND
  0
POLYLINE
  8
0
 62
7
  6
CONTINUOUS
 66
1
 70
0
  0
VERTEX
  8
0
 62
7
  6
CONTINUOUS
 10
103.6575634881
 20
65.4138663303
  0
VERTEX
  8
0
 62
7
  6
CONTINUOUS
 10
103.8634211204
 20
65.2719099438
  0
VERTEX
  8
0
 62
7
  6
CONTINUOUS
 10
104.0425283185
 20
65.1509984172
  0
VERTEX
  8
0
 62
7
  6
CONTINUOUS
 10
104.1945383437
 20
65.0514102229
  0
VERTEX
  8
0
 62
7
  6
CONTINUOUS
 10
104.3261101608
 20
64.9685126404
  0
VERTEX
  8
0
 62
7
  6
CONTINUOUS
 10
104.4443480584
 20
64.8977082244
  0
VERTEX
  8
0
 62
7
  6
CONTINUOUS
 10
104.5551093848
 20
64.8358165992
  0
VERTEX
  8
0
 62
7
  6
CONTINUOUS
 10
104.6587355041
 20
64.7834015508
  0
VERTEX
  8
0
 62
7
  6
CONTINUOUS
 10
104.7537535561
 20
64.7420822209
  0
VERTEX
  8
0
 62
7
  6
CONTINUOUS
 10
104.8384118765
 20
64.7133479212
  0
SEQEND
  0
LINE
  8
0
 62
7
  6
CONTINUOUS
 10
103.2552761722
 20
65.6949751047
 11
103.6575634881
 21
65.4138663303
  0
POLYLINE
  8
0
 62
7
  6
CONTINUOUS
 66
1
 70
0
  0
VERTEX
  8
0
 62
7
  6
CONTINUOUS
 10
105.1293411544
 20
64.5827506391
  0
VERTEX
  8
0
 62
7
  6
CONTINUOUS
 10
105.081326271
 20
64.6176041724
  0
VERTEX
  8
0
 62
7
  6
CONTINUOUS
 10
105.0163528273
 20
64.6511865576
  0
VERTEX
  8
0
 62
7
  6
CONTINUOUS
 10
104.9351074093
 20
64.6831917893
  0
VERTEX
  8
0
 62
7
  6
CONTINUOUS
 10
104.8384118765
 20
64.7133479212
  0
SEQEND
  0
POLYLINE
  8
0
 62
7
  6
CONTINUOUS
 66
1
 70
0
  0
VERTEX
  8
0
 62
7
  6
CONTINUOUS
 10
105.4602341357
 20
63.9772021479
  0
VERTEX
  8
0
 62
7
  6
CONTINUOUS
 10
105.4540811995
 20
64.0607158062
  0
VERTEX
  8
0
 62
7
  6
CONTINUOUS
 10
105.4005144337
 20
64.2366217723
  0
VERTEX
  8
0
 62
7
  6
CONTINUOUS
 10
105.2921083531
 20
64.4108310842
  0
VERTEX
  8
0
 62
7
  6
CONTINUOUS
 10
105.1293411544
 20
64.5827506391
  0
SEQEND
  0
LINE
  8
0
 62
7
  6
CONTINUOUS
 10
105.4602341357
 20
77.4495892866
 11
105.4602341357
 21
63.9771065559
  0
LINE
  8
0
 62
7
  6
CONTINUOUS
 10
105.7556063057
 20
85.7133479212
 11
105.7556063057
 21
78.2133479212
  0
LINE
  8
0
 62
7
  6
CONTINUOUS
 10
105.7556063057
 20
63.2133479212
 11
105.7556063057
 21
55.7133479212
  0
POLYLINE
  8
0
 62
7
  6
CONTINUOUS
 66
1
 70
0
  0
VERTEX
  8
0
 62
7
  6
CONTINUOUS
 10
105.4602341357
 20
77.4494936946
  0
VERTEX
  8
0
 62
7
  6
CONTINUOUS
 10
105.4540811995
 20
77.3659800363
  0
VERTEX
  8
0
 62
7
  6
CONTINUOUS
 10
105.4005144337
 20
77.1900740702
  0
VERTEX
  8
0
 62
7
  6
CONTINUOUS
 10
105.2921083531
 20
77.0158647583
  0
VERTEX
  8
0
 62
7
  6
CONTINUOUS
 10
105.1293411544
 20
76.8439452033
  0
SEQEND
  0
POLYLINE
  8
0
 62
7
  6
CONTINUOUS
 66
1
 70
0
  0
VERTEX
  8
0
 62
7
  6
CONTINUOUS
 10
94.7600563948
 20
64.7133479212
  0
VERTEX
  8
0
 62
7
  6
CONTINUOUS
 10
94.8447092199
 20
64.7420800725
  0
VERTEX
  8
0
 62
7
  6
CONTINUOUS
 10
94.9397082114
 20
64.7833899284
  0
VERTEX
  8
0
 62
7
  6
CONTINUOUS
 10
95.0433173312
 20
64.8357943863
  0
VERTEX
  8
0
 62
7
  6
CONTINUOUS
 10
95.154080648
 20
64.8976852615
  0
VERTEX
  8
0
 62
7
  6
CONTINUOUS
 10
95.2723432399
 20
64.9685034899
  0
VERTEX
  8
0
 62
7
  6
CONTINUOUS
 10
95.4039314941
 20
65.0514112303
  0
VERTEX
  8
0
 62
7
  6
CONTINUOUS
 10
95.5559070601
 20
65.1509765214
  0
VERTEX
  8
0
 62
7
  6
CONTINUOUS
 10
95.734891115
 20
65.2718033519
  0
VERTEX
  8
0
 62
7
  6
CONTINUOUS
 10
95.9405820967
 20
65.4136421398
  0
VERTEX
  8
0
 62
7
  6
CONTINUOUS
 10
96.3431920991
 20
65.6949751047
  0
SEQEND
  0
POLYLINE
  8
0
 62
7
  6
CONTINUOUS
 66
1
 70
0
  0
VERTEX
  8
0
 62
7
  6
CONTINUOUS
 10
94.7600563948
 20
64.7133479212
  0
VERTEX
  8
0
 62
7
  6
CONTINUOUS
 10
94.6633485315
 20
64.6831874829
  0
VERTEX
  8
0
 62
7
  6
CONTINUOUS
 10
94.5821290815
 20
64.651192673
  0
VERTEX
  8
0
 62
7
  6
CONTINUOUS
 10
94.5171612221
 20
64.6176158117
  0
VERTEX
  8
0
 62
7
  6
CONTINUOUS
 10
94.469127117
 20
64.5827506391
  0
SEQEND
  0
POLYLINE
  8
0
 62
7
  6
CONTINUOUS
 66
1
 70
0
  0
VERTEX
  8
0
 62
7
  6
CONTINUOUS
 10
94.7600563948
 20
76.7133479212
  0
VERTEX
  8
0
 62
7
  6
CONTINUOUS
 10
94.6633485315
 20
76.7435083596
  0
VERTEX
  8
0
 62
7
  6
CONTINUOUS
 10
94.5821290815
 20
76.7755031695
  0
VERTEX
  8
0
 62
7
  6
CONTINUOUS
 10
94.5171612221
 20
76.8090800308
  0
VERTEX
  8
0
 62
7
  6
CONTINUOUS
 10
94.469127117
 20
76.8439452033
  0
SEQEND
  0
POLYLINE
  8
0
 62
7
  6
CONTINUOUS
 66
1
 70
0
  0
VERTEX
  8
0
 62
7
  6
CONTINUOUS
 10
95.9591574928
 20
76.0001417765
  0
VERTEX
  8
0
 62
7
  6
CONTINUOUS
 10
95.7701827593
 20
76.1307382487
  0
VERTEX
  8
0
 62
7
  6
CONTINUOUS
 10
95.5939332539
 20
76.2503212039
  0
VERTEX
  8
0
 62
7
  6
CONTINUOUS
 10
95.4328367455
 20
76.3566205514
  0
VERTEX
  8
0
 62
7
  6
CONTINUOUS
 10
95.2863587496
 20
76.4495437537
  0
VERTEX
  8
0
 62
7
  6
CONTINUOUS
 10
95.1534847029
 20
76.5293563937
  0
VERTEX
  8
0
 62
7
  6
CONTINUOUS
 10
95.0327602103
 20
76.5965168465
  0
VERTEX
  8
0
 62
7
  6
CONTINUOUS
 10
94.9256423981
 20
76.6498916754
  0
VERTEX
  8
0
 62
7
  6
CONTINUOUS
 10
94.8343394921
 20
76.6886119186
  0
VERTEX
  8
0
 62
7
  6
CONTINUOUS
 10
94.7600563948
 20
76.7133479212
  0
SEQEND
  0
LINE
  8
0
 62
7
  6
CONTINUOUS
 10
96.3431920991
 20
75.7317207378
 11
95.9591574928
 21
76.0001417765
  0
POLYLINE
  8
0
 62
7
  6
CONTINUOUS
 66
1
 70
0
  0
VERTEX
  8
0
 62
7
  6
CONTINUOUS
 10
94.469127117
 20
76.8439452033
  0
VERTEX
  8
0
 62
7
  6
CONTINUOUS
 10
94.3063635678
 20
77.0158601008
  0
VERTEX
  8
0
 62
7
  6
CONTINUOUS
 10
94.1979745063
 20
77.1900294049
  0
VERTEX
  8
0
 62
7
  6
CONTINUOUS
 10
94.1443975813
 20
77.3659088269
  0
VERTEX
  8
0
 62
7
  6
CONTINUOUS
 10
94.1382341357
 20
77.4494903108
  0
SEQEND
  0
POLYLINE
  8
0
 62
7
  6
CONTINUOUS
 66
1
 70
0
  0
VERTEX
  8
0
 62
7
  6
CONTINUOUS
 10
105.1528103301
 20
63.305212004
  0
VERTEX
  8
0
 62
7
  6
CONTINUOUS
 10
105.1320929395
 20
63.2542188387
  0
VERTEX
  8
0
 62
7
  6
CONTINUOUS
 10
105.1179108315
 20
63.2235652154
  0
VERTEX
  8
0
 62
7
  6
CONTINUOUS
 10
105.1104503254
 20
63.2133479212
  0
SEQEND
  0
POLYLINE
  8
0
 62
7
  6
CONTINUOUS
 66
1
 70
0
  0
VERTEX
  8
0
 62
7
  6
CONTINUOUS
 10
105.2844374766
 20
63.529162427
  0
VERTEX
  8
0
 62
7
  6
CONTINUOUS
 10
105.3959418653
 20
63.7063330155
  0
VERTEX
  8
0
 62
7
  6
CONTINUOUS
 10
105.4525610055
 20
63.8837374826
  0
VERTEX
  8
0
 62
7
  6
CONTINUOUS
 10
105.4602341357
 20
63.9772021479
  0
SEQEND
  0
POLYLINE
  8
0
 62
7
  6
CONTINUOUS
 66
1
 70
0
  0
VERTEX
  8
0
 62
7
  6
CONTINUOUS
 10
105.2844374766
 20
63.529162427
  0
VERTEX
  8
0
 62
7
  6
CONTINUOUS
 10
105.230817782
 20
63.4546068503
  0
VERTEX
  8
0
 62
7
  6
CONTINUOUS
 10
105.1869317956
 20
63.3799404973
  0
VERTEX
  8
0
 62
7
  6
CONTINUOUS
 10
105.1528103301
 20
63.305212004
  0
SEQEND
  0
POLYLINE
  8
0
 62
7
  6
CONTINUOUS
 66
1
 70
0
  0
VERTEX
  8
0
 62
7
  6
CONTINUOUS
 10
60.0388931688
 20
78.2133479212
  0
VERTEX
  8
0
 62
7
  6
CONTINUOUS
 10
59.8569816941
 20
78.203130478
  0
VERTEX
  8
0
 62
7
  6
CONTINUOUS
 10
59.6813598412
 20
78.1724766976
  0
VERTEX
  8
0
 62
7
  6
CONTINUOUS
 10
59.5127502398
 20
78.1214838385
  0
SEQEND
  0
POLYLINE
  8
0
 62
7
  6
CONTINUOUS
 66
1
 70
0
  0
VERTEX
  8
0
 62
7
  6
CONTINUOUS
 10
30.1544348572
 20
78.2133479212
  0
VERTEX
  8
0
 62
7
  6
CONTINUOUS
 10
29.852635323
 20
78.203130478
  0
VERTEX
  8
0
 62
7
  6
CONTINUOUS
 10
29.5542910359
 20
78.1724766976
  0
VERTEX
  8
0
 62
7
  6
CONTINUOUS
 10
29.2607577105
 20
78.1214838385
  0
SEQEND
  0
LINE
  8
0
 62
7
  6
CONTINUOUS
 10
26.8719227303
 20
78.2133479212
 11
34.6869337549
 21
78.2133479212
  0
LINE
  8
0
 62
7
  6
CONTINUOUS
 10
51.4451648521
 20
78.2133479212
 11
63.2388598654
 21
78.2133479212
  0
LINE
  8
0
 62
7
  6
CONTINUOUS
 10
93.8428619657
 20
78.2133479212
 11
105.7556063057
 21
78.2133479212
  0
LINE
  8
0
 62
7
  6
CONTINUOUS
 10
136.359608406
 20
78.2133479212
 11
148.1533034192
 21
78.2133479212
  0
LINE
  8
0
 62
7
  6
CONTINUOUS
 10
164.9115345164
 20
78.2133479212
 11
172.7265455411
 21
78.2133479212
  0
POLYLINE
  8
0
 62
7
  6
CONTINUOUS
 66
1
 70
0
  0
VERTEX
  8
0
 62
7
  6
CONTINUOUS
 10
172.7265455411
 20
78.2133479212
  0
VERTEX
  8
0
 62
7
  6
CONTINUOUS
 10
173.0329559704
 20
78.203130478
  0
VERTEX
  8
0
 62
7
  6
CONTINUOUS
 10
173.3400653144
 20
78.1724766976
  0
VERTEX
  8
0
 62
7
  6
CONTINUOUS
 10
173.6464026103
 20
78.1214838385
  0
SEQEND
  0
POLYLINE
  8
0
 62
7
  6
CONTINUOUS
 66
1
 70
0
  0
VERTEX
  8
0
 62
7
  6
CONTINUOUS
 10
148.1533034192
 20
78.2133479212
  0
VERTEX
  8
0
 62
7
  6
CONTINUOUS
 10
148.3472863743
 20
78.203130478
  0
VERTEX
  8
0
 62
7
  6
CONTINUOUS
 10
148.545855444
 20
78.1724766976
  0
VERTEX
  8
0
 62
7
  6
CONTINUOUS
 10
148.7479862755
 20
78.1214838385
  0
SEQEND
  0
POLYLINE
  8
0
 62
7
  6
CONTINUOUS
 66
1
 70
0
  0
VERTEX
  8
0
 62
7
  6
CONTINUOUS
 10
105.1104503254
 20
78.2133479212
  0
VERTEX
  8
0
 62
7
  6
CONTINUOUS
 10
105.1179109106
 20
78.203130478
  0
VERTEX
  8
0
 62
7
  6
CONTINUOUS
 10
105.1320930706
 20
78.1724766976
  0
VERTEX
  8
0
 62
7
  6
CONTINUOUS
 10
105.1528103301
 20
78.1214838385
  0
SEQEND
  0
POLYLINE
  8
0
 62
7
  6
CONTINUOUS
 66
1
 70
0
  0
VERTEX
  8
0
 62
7
  6
CONTINUOUS
 10
105.2844374766
 20
77.8975334155
  0
VERTEX
  8
0
 62
7
  6
CONTINUOUS
 10
105.230817782
 20
77.9720889922
  0
VERTEX
  8
0
 62
7
  6
CONTINUOUS
 10
105.1869317956
 20
78.0467553451
  0
VERTEX
  8
0
 62
7
  6
CONTINUOUS
 10
105.1528103301
 20
78.1214838385
  0
SEQEND
  0
POLYLINE
  8
0
 62
7
  6
CONTINUOUS
 66
1
 70
0
  0
VERTEX
  8
0
 62
7
  6
CONTINUOUS
 10
105.2844374766
 20
77.8975334155
  0
VERTEX
  8
0
 62
7
  6
CONTINUOUS
 10
105.3959418653
 20
77.7203628269
  0
VERTEX
  8
0
 62
7
  6
CONTINUOUS
 10
105.4525610055
 20
77.5429583598
  0
VERTEX
  8
0
 62
7
  6
CONTINUOUS
 10
105.4602341357
 20
77.4494936946
  0
SEQEND
  0
POLYLINE
  8
0
 62
7
  6
CONTINUOUS
 66
1
 70
0
  0
VERTEX
  8
0
 62
7
  6
CONTINUOUS
 10
54.9791449732
 20
76.7133479212
  0
VERTEX
  8
0
 62
7
  6
CONTINUOUS
 10
54.8576292462
 20
76.6885820089
  0
VERTEX
  8
0
 62
7
  6
CONTINUOUS
 10
54.7183517906
 20
76.6498572563
  0
VERTEX
  8
0
 62
7
  6
CONTINUOUS
 10
54.5657715859
 20
76.59650898
  0
VERTEX
  8
0
 62
7
  6
CONTINUOUS
 10
54.4047307238
 20
76.529389067
  0
VERTEX
  8
0
 62
7
  6
CONTINUOUS
 10
54.2381790376
 20
76.4495891972
  0
VERTEX
  8
0
 62
7
  6
CONTINUOUS
 10
54.0653656172
 20
76.3566587312
  0
VERTEX
  8
0
 62
7
  6
CONTINUOUS
 10
53.8864295885
 20
76.2503442431
  0
VERTEX
  8
0
 62
7
  6
CONTINUOUS
 10
53.7023033519
 20
76.130754917
  0
VERTEX
  8
0
 62
7
  6
CONTINUOUS
 10
53.5169784119
 20
76.0001894215
  0
VERTEX
  8
0
 62
7
  6
CONTINUOUS
 10
53.3387434502
 20
75.8648967342
  0
VERTEX
  8
0
 62
7
  6
CONTINUOUS
 10
53.1748345356
 20
75.7317207378
  0
SEQEND
  0
LINE
  8
0
 62
7
  6
CONTINUOUS
 10
31.0056933042
 20
85.7133479212
 11
168.5927749671
 21
85.7133479212
  0
POLYLINE
  8
0
 62
7
  6
CONTINUOUS
 66
1
 70
0
  0
VERTEX
  8
0
 62
7
  6
CONTINUOUS
 10
144.6193232981
 20
76.7133479212
  0
VERTEX
  8
0
 62
7
  6
CONTINUOUS
 10
144.4462325715
 20
76.7435083596
  0
VERTEX
  8
0
 62
7
  6
CONTINUOUS
 10
144.2806080397
 20
76.7755031695
  0
VERTEX
  8
0
 62
7
  6
CONTINUOUS
 10
144.1238890538
 20
76.8090800308
  0
VERTEX
  8
0
 62
7
  6
CONTINUOUS
 10
143.9775687771
 20
76.8439452033
  0
SEQEND
  0
POLYLINE
  8
0
 62
7
  6
CONTINUOUS
 66
1
 70
0
  0
VERTEX
  8
0
 62
7
  6
CONTINUOUS
 10
140.0857180315
 20
63.305212004
  0
VERTEX
  8
0
 62
7
  6
CONTINUOUS
 10
140.2832288264
 20
63.3799397495
  0
VERTEX
  8
0
 62
7
  6
CONTINUOUS
 10
140.4722479747
 20
63.4546064972
  0
VERTEX
  8
0
 62
7
  6
CONTINUOUS
 10
140.6526473015
 20
63.529162427
  0
SEQEND
  0
POLYLINE
  8
0
 62
7
  6
CONTINUOUS
 66
1
 70
0
  0
VERTEX
  8
0
 62
7
  6
CONTINUOUS
 10
149.5278927424
 20
63.529162427
  0
VERTEX
  8
0
 62
7
  6
CONTINUOUS
 10
150.1505284116
 20
63.7063330155
  0
VERTEX
  8
0
 62
7
  6
CONTINUOUS
 10
150.7317775392
 20
63.8837374826
  0
VERTEX
  8
0
 62
7
  6
CONTINUOUS
 10
151.2694649258
 20
64.0607158062
  0
VERTEX
  8
0
 62
7
  6
CONTINUOUS
 10
151.7615647972
 20
64.2366217723
  0
VERTEX
  8
0
 62
7
  6
CONTINUOUS
 10
152.2062381799
 20
64.4108310842
  0
VERTEX
  8
0
 62
7
  6
CONTINUOUS
 10
152.601863097
 20
64.5827506391
  0
SEQEND
  0
POLYLINE
  8
0
 62
7
  6
CONTINUOUS
 66
1
 70
0
  0
VERTEX
  8
0
 62
7
  6
CONTINUOUS
 10
50.8504819958
 20
78.1214838385
  0
VERTEX
  8
0
 62
7
  6
CONTINUOUS
 10
51.0526128273
 20
78.1724766976
  0
VERTEX
  8
0
 62
7
  6
CONTINUOUS
 10
51.2511818971
 20
78.203130478
  0
VERTEX
  8
0
 62
7
  6
CONTINUOUS
 10
51.4451648521
 20
78.2133479212
  0
SEQEND
  0
POLYLINE
  8
0
 62
7
  6
CONTINUOUS
 66
1
 70
0
  0
VERTEX
  8
0
 62
7
  6
CONTINUOUS
 10
55.6208994942
 20
76.8439452033
  0
VERTEX
  8
0
 62
7
  6
CONTINUOUS
 10
55.4746307579
 20
76.8090916701
  0
VERTEX
  8
0
 62
7
  6
CONTINUOUS
 10
55.317890298
 20
76.7755092848
  0
VERTEX
  8
0
 62
7
  6
CONTINUOUS
 10
55.1522122288
 20
76.7435040532
  0
VERTEX
  8
0
 62
7
  6
CONTINUOUS
 10
54.9791449732
 20
76.7133479212
  0
SEQEND
  0
POLYLINE
  8
0
 62
7
  6
CONTINUOUS
 66
1
 70
0
  0
VERTEX
  8
0
 62
7
  6
CONTINUOUS
 10
22.2396287512
 20
76.7133479212
  0
VERTEX
  8
0
 62
7
  6
CONTINUOUS
 10
22.1173740337
 20
76.6885820089
  0
VERTEX
  8
0
 62
7
  6
CONTINUOUS
 10
21.9833168507
 20
76.6498572563
  0
VERTEX
  8
0
 62
7
  6
CONTINUOUS
 10
21.8434952392
 20
76.59650898
  0
VERTEX
  8
0
 62
7
  6
CONTINUOUS
 10
21.7035789625
 20
76.529389067
  0
VERTEX
  8
0
 62
7
  6
CONTINUOUS
 10
21.5669495963
 20
76.4495891972
  0
VERTEX
  8
0
 62
7
  6
CONTINUOUS
 10
21.433824139
 20
76.3566587312
  0
VERTEX
  8
0
 62
7
  6
CONTINUOUS
 10
21.305420595
 20
76.2503442431
  0
VERTEX
  8
0
 62
7
  6
CONTINUOUS
 10
21.1837576647
 20
76.130754917
  0
VERTEX
  8
0
 62
7
  6
CONTINUOUS
 10
21.0728261463
 20
76.0001894215
  0
VERTEX
  8
0
 62
7
  6
CONTINUOUS
 10
20.9782537674
 20
75.8648967342
  0
VERTEX
  8
0
 62
7
  6
CONTINUOUS
 10
20.9033288412
 20
75.7317207378
  0
SEQEND
  0
POLYLINE
  8
0
 62
7
  6
CONTINUOUS
 66
1
 70
0
  0
VERTEX
  8
0
 62
7
  6
CONTINUOUS
 10
22.9870801008
 20
76.8439452033
  0
VERTEX
  8
0
 62
7
  6
CONTINUOUS
 10
22.7984271973
 20
76.8090916701
  0
VERTEX
  8
0
 62
7
  6
CONTINUOUS
 10
22.6097892495
 20
76.7755092848
  0
VERTEX
  8
0
 62
7
  6
CONTINUOUS
 10
22.4229619203
 20
76.7435040532
  0
VERTEX
  8
0
 62
7
  6
CONTINUOUS
 10
22.2396287512
 20
76.7133479212
  0
SEQEND
  0
POLYLINE
  8
0
 62
7
  6
CONTINUOUS
 66
1
 70
0
  0
VERTEX
  8
0
 62
7
  6
CONTINUOUS
 10
25.952065661
 20
78.1214838385
  0
VERTEX
  8
0
 62
7
  6
CONTINUOUS
 10
26.2584029569
 20
78.1724766976
  0
VERTEX
  8
0
 62
7
  6
CONTINUOUS
 10
26.5655123009
 20
78.203130478
  0
VERTEX
  8
0
 62
7
  6
CONTINUOUS
 10
26.8719227303
 20
78.2133479212
  0
SEQEND
  0
POLYLINE
  8
0
 62
7
  6
CONTINUOUS
 66
1
 70
0
  0
VERTEX
  8
0
 62
7
  6
CONTINUOUS
 10
177.3588395201
 20
76.7133479212
  0
VERTEX
  8
0
 62
7
  6
CONTINUOUS
 10
177.1754807048
 20
76.7435083596
  0
VERTEX
  8
0
 62
7
  6
CONTINUOUS
 10
176.9887140329
 20
76.7755031695
  0
VERTEX
  8
0
 62
7
  6
CONTINUOUS
 10
176.8001052464
 20
76.8090800308
  0
VERTEX
  8
0
 62
7
  6
CONTINUOUS
 10
176.6113881706
 20
76.8439452033
  0
SEQEND
  0
POLYLINE
  8
0
 62
7
  6
CONTINUOUS
 66
1
 70
0
  0
VERTEX
  8
0
 62
7
  6
CONTINUOUS
 10
170.3377105608
 20
78.1214838385
  0
VERTEX
  8
0
 62
7
  6
CONTINUOUS
 10
170.0441772354
 20
78.1724766976
  0
VERTEX
  8
0
 62
7
  6
CONTINUOUS
 10
169.7458329483
 20
78.203130478
  0
VERTEX
  8
0
 62
7
  6
CONTINUOUS
 10
169.4440334142
 20
78.2133479212
  0
SEQEND
  0
POLYLINE
  8
0
 62
7
  6
CONTINUOUS
 66
1
 70
0
  0
VERTEX
  8
0
 62
7
  6
CONTINUOUS
 10
176.6113881706
 20
76.8439452033
  0
VERTEX
  8
0
 62
7
  6
CONTINUOUS
 10
175.7079149493
 20
77.0158601008
  0
VERTEX
  8
0
 62
7
  6
CONTINUOUS
 10
174.8132161919
 20
77.1900294049
  0
VERTEX
  8
0
 62
7
  6
CONTINUOUS
 10
173.9304354532
 20
77.3659088269
  0
VERTEX
  8
0
 62
7
  6
CONTINUOUS
 10
173.062864733
 20
77.5428924437
  0
VERTEX
  8
0
 62
7
  6
CONTINUOUS
 10
172.2138546743
 20
77.7203250917
  0
SEQEND
  0
LINE
  8
0
 62
7
  6
CONTINUOUS
 10
174.7766906353
 20
77.8975334155
 11
174.3980413191
 21
77.9720889922
  0
POLYLINE
  8
0
 62
7
  6
CONTINUOUS
 66
1
 70
0
  0
VERTEX
  8
0
 62
7
  6
CONTINUOUS
 10
143.9775687771
 20
76.8439452033
  0
VERTEX
  8
0
 62
7
  6
CONTINUOUS
 10
143.3185982129
 20
77.0158601008
  0
VERTEX
  8
0
 62
7
  6
CONTINUOUS
 10
142.6986558471
 20
77.1900294049
  0
VERTEX
  8
0
 62
7
  6
CONTINUOUS
 10
142.1199549853
 20
77.3659088269
  0
VERTEX
  8
0
 62
7
  6
CONTINUOUS
 10
141.584693148
 20
77.5428924437
  0
VERTEX
  8
0
 62
7
  6
CONTINUOUS
 10
141.0949642515
 20
77.7203250917
  0
VERTEX
  8
0
 62
7
  6
CONTINUOUS
 10
140.6526473015
 20
77.8975334155
  0
SEQEND
  0
POLYLINE
  8
0
 62
7
  6
CONTINUOUS
 66
1
 70
0
  0
VERTEX
  8
0
 62
7
  6
CONTINUOUS
 10
149.5278927424
 20
77.8975334155
  0
VERTEX
  8
0
 62
7
  6
CONTINUOUS
 10
149.2607358014
 20
77.9720889922
  0
VERTEX
  8
0
 62
7
  6
CONTINUOUS
 10
149.000708696
 20
78.0467553451
  0
VERTEX
  8
0
 62
7
  6
CONTINUOUS
 10
148.7479862755
 20
78.1214838385
  0
SEQEND
  0
POLYLINE
  8
0
 62
7
  6
CONTINUOUS
 66
1
 70
0
  0
VERTEX
  8
0
 62
7
  6
CONTINUOUS
 10
149.5278927424
 20
77.8975334155
  0
VERTEX
  8
0
 62
7
  6
CONTINUOUS
 10
150.1505284116
 20
77.7203628269
  0
VERTEX
  8
0
 62
7
  6
CONTINUOUS
 10
150.7317775392
 20
77.5429583598
  0
VERTEX
  8
0
 62
7
  6
CONTINUOUS
 10
151.2694649258
 20
77.3659800363
  0
VERTEX
  8
0
 62
7
  6
CONTINUOUS
 10
151.7615647972
 20
77.1900740702
  0
VERTEX
  8
0
 62
7
  6
CONTINUOUS
 10
152.2062381799
 20
77.0158647583
  0
VERTEX
  8
0
 62
7
  6
CONTINUOUS
 10
152.601863097
 20
76.8439452033
  0
SEQEND
  0
POLYLINE
  8
0
 62
7
  6
CONTINUOUS
 66
1
 70
0
  0
VERTEX
  8
0
 62
7
  6
CONTINUOUS
 10
140.0857180315
 20
78.1214838385
  0
VERTEX
  8
0
 62
7
  6
CONTINUOUS
 10
139.9171084302
 20
78.1724766976
  0
VERTEX
  8
0
 62
7
  6
CONTINUOUS
 10
139.7414865773
 20
78.203130478
  0
VERTEX
  8
0
 62
7
  6
CONTINUOUS
 10
139.5595751026
 20
78.2133479212
  0
SEQEND
  0
POLYLINE
  8
0
 62
7
  6
CONTINUOUS
 66
1
 70
0
  0
VERTEX
  8
0
 62
7
  6
CONTINUOUS
 10
140.0857180315
 20
78.1214838385
  0
VERTEX
  8
0
 62
7
  6
CONTINUOUS
 10
140.2832288264
 20
78.0467560929
  0
VERTEX
  8
0
 62
7
  6
CONTINUOUS
 10
140.4722479747
 20
77.9720893453
  0
VERTEX
  8
0
 62
7
  6
CONTINUOUS
 10
140.6526473015
 20
77.8975334155
  0
SEQEND
  0
POLYLINE
  8
0
 62
7
  6
CONTINUOUS
 66
1
 70
0
  0
VERTEX
  8
0
 62
7
  6
CONTINUOUS
 10
152.601863097
 20
64.5827506391
  0
VERTEX
  8
0
 62
7
  6
CONTINUOUS
 10
152.6704421201
 20
64.6176041724
  0
VERTEX
  8
0
 62
7
  6
CONTINUOUS
 10
152.7220533396
 20
64.6511865576
  0
VERTEX
  8
0
 62
7
  6
CONTINUOUS
 10
152.7562735612
 20
64.6831917893
  0
VERTEX
  8
0
 62
7
  6
CONTINUOUS
 10
152.7728841581
 20
64.7133479212
  0
SEQEND
  0
POLYLINE
  8
0
 62
7
  6
CONTINUOUS
 66
1
 70
0
  0
VERTEX
  8
0
 62
7
  6
CONTINUOUS
 10
19.125245632
 20
76.7133479212
  0
VERTEX
  8
0
 62
7
  6
CONTINUOUS
 10
19.2488357009
 20
76.7435083596
  0
VERTEX
  8
0
 62
7
  6
CONTINUOUS
 10
19.3854059921
 20
76.7755031695
  0
VERTEX
  8
0
 62
7
  6
CONTINUOUS
 10
19.5338624333
 20
76.8090800308
  0
VERTEX
  8
0
 62
7
  6
CONTINUOUS
 10
19.6928927995
 20
76.8439452033
  0
SEQEND
  0
POLYLINE
  8
0
 62
7
  6
CONTINUOUS
 66
1
 70
0
  0
VERTEX
  8
0
 62
7
  6
CONTINUOUS
 10
28.5573302585
 20
77.9720889922
  0
VERTEX
  8
0
 62
7
  6
CONTINUOUS
 10
27.3847919513
 20
77.7203628269
  0
VERTEX
  8
0
 62
7
  6
CONTINUOUS
 10
26.5359228002
 20
77.5429583598
  0
VERTEX
  8
0
 62
7
  6
CONTINUOUS
 10
25.6683860589
 20
77.3659800363
  0
VERTEX
  8
0
 62
7
  6
CONTINUOUS
 10
24.7854788934
 20
77.1900740702
  0
VERTEX
  8
0
 62
7
  6
CONTINUOUS
 10
23.8905775232
 20
77.0158647583
  0
VERTEX
  8
0
 62
7
  6
CONTINUOUS
 10
22.9870801008
 20
76.8439452033
  0
SEQEND
  0
POLYLINE
  8
0
 62
7
  6
CONTINUOUS
 66
1
 70
0
  0
VERTEX
  8
0
 62
7
  6
CONTINUOUS
 10
19.6928927995
 20
76.8439452033
  0
VERTEX
  8
0
 62
7
  6
CONTINUOUS
 10
20.4957726153
 20
77.0158601008
  0
VERTEX
  8
0
 62
7
  6
CONTINUOUS
 10
21.3234832487
 20
77.1900294049
  0
VERTEX
  8
0
 62
7
  6
CONTINUOUS
 10
22.1731516268
 20
77.3659088269
  0
VERTEX
  8
0
 62
7
  6
CONTINUOUS
 10
23.0416487023
 20
77.5428924437
  0
VERTEX
  8
0
 62
7
  6
CONTINUOUS
 10
23.9256469376
 20
77.7203250917
  0
VERTEX
  8
0
 62
7
  6
CONTINUOUS
 10
24.8217776361
 20
77.8975334155
  0
SEQEND
  0
POLYLINE
  8
0
 62
7
  6
CONTINUOUS
 66
1
 70
0
  0
VERTEX
  8
0
 62
7
  6
CONTINUOUS
 10
28.5573302585
 20
77.9720889922
  0
VERTEX
  8
0
 62
7
  6
CONTINUOUS
 10
28.9070539353
 20
78.0467553451
  0
VERTEX
  8
0
 62
7
  6
CONTINUOUS
 10
29.2607577105
 20
78.1214838385
  0
SEQEND
  0
POLYLINE
  8
0
 62
7
  6
CONTINUOUS
 66
1
 70
0
  0
VERTEX
  8
0
 62
7
  6
CONTINUOUS
 10
25.952065661
 20
78.1214838385
  0
VERTEX
  8
0
 62
7
  6
CONTINUOUS
 10
25.20042874
 20
77.9720893453
  0
VERTEX
  8
0
 62
7
  6
CONTINUOUS
 10
24.8217776361
 20
77.8975334155
  0
SEQEND
  0
POLYLINE
  8
0
 62
7
  6
CONTINUOUS
 66
1
 70
0
  0
VERTEX
  8
0
 62
7
  6
CONTINUOUS
 10
174.7766906353
 20
77.8975334155
  0
VERTEX
  8
0
 62
7
  6
CONTINUOUS
 10
175.6726319221
 20
77.7203628269
  0
VERTEX
  8
0
 62
7
  6
CONTINUOUS
 10
176.5564936262
 20
77.5429583598
  0
VERTEX
  8
0
 62
7
  6
CONTINUOUS
 10
177.4249698991
 20
77.3659800363
  0
VERTEX
  8
0
 62
7
  6
CONTINUOUS
 10
178.2747709827
 20
77.1900740702
  0
VERTEX
  8
0
 62
7
  6
CONTINUOUS
 10
179.1026737104
 20
77.0158647583
  0
VERTEX
  8
0
 62
7
  6
CONTINUOUS
 10
179.9055754718
 20
76.8439452033
  0
SEQEND
  0
LINE
  8
0
 62
7
  6
CONTINUOUS
 10
174.3980413191
 20
77.9720889922
 11
173.6464026103
 21
78.1214838385
  0
POLYLINE
  8
0
 62
7
  6
CONTINUOUS
 66
1
 70
0
  0
VERTEX
  8
0
 62
7
  6
CONTINUOUS
 10
170.3377105608
 20
78.1214838385
  0
VERTEX
  8
0
 62
7
  6
CONTINUOUS
 10
170.6914108151
 20
78.0467560929
  0
VERTEX
  8
0
 62
7
  6
CONTINUOUS
 10
171.0411363677
 20
77.9720893453
  0
VERTEX
  8
0
 62
7
  6
CONTINUOUS
 10
172.2138546743
 20
77.7203250917
  0
SEQEND
  0
POLYLINE
  8
0
 62
7
  6
CONTINUOUS
 66
1
 70
0
  0
VERTEX
  8
0
 62
7
  6
CONTINUOUS
 10
179.9055754718
 20
76.8439452033
  0
VERTEX
  8
0
 62
7
  6
CONTINUOUS
 10
180.0645535454
 20
76.8090916701
  0
VERTEX
  8
0
 62
7
  6
CONTINUOUS
 10
180.2130356966
 20
76.7755092848
  0
VERTEX
  8
0
 62
7
  6
CONTINUOUS
 10
180.3496505961
 20
76.7435040532
  0
VERTEX
  8
0
 62
7
  6
CONTINUOUS
 10
180.4732226393
 20
76.7133479212
  0
SEQEND
  0
POLYLINE
  8
0
 62
7
  6
CONTINUOUS
 66
1
 70
0
  0
VERTEX
  8
0
 62
7
  6
CONTINUOUS
 10
180.4732226393
 20
76.7133479212
  0
VERTEX
  8
0
 62
7
  6
CONTINUOUS
 10
180.5495192005
 20
76.6885820089
  0
VERTEX
  8
0
 62
7
  6
CONTINUOUS
 10
180.6271508235
 20
76.6498572563
  0
VERTEX
  8
0
 62
7
  6
CONTINUOUS
 10
180.7008067384
 20
76.59650898
  0
VERTEX
  8
0
 62
7
  6
CONTINUOUS
 10
180.7661551677
 20
76.529389067
  0
VERTEX
  8
0
 62
7
  6
CONTINUOUS
 10
180.8206744397
 20
76.4495891972
  0
VERTEX
  8
0
 62
7
  6
CONTINUOUS
 10
180.8632625341
 20
76.3566587312
  0
VERTEX
  8
0
 62
7
  6
CONTINUOUS
 10
180.892087804
 20
76.2503442431
  0
VERTEX
  8
0
 62
7
  6
CONTINUOUS
 10
180.9048163237
 20
76.130754917
  0
VERTEX
  8
0
 62
7
  6
CONTINUOUS
 10
180.905199993
 20
76.1055543509
  0
SEQEND
  0
POLYLINE
  8
0
 62
7
  6
CONTINUOUS
 66
1
 70
0
  0
VERTEX
  8
0
 62
7
  6
CONTINUOUS
 10
152.601863097
 20
76.8439452033
  0
VERTEX
  8
0
 62
7
  6
CONTINUOUS
 10
152.6704421201
 20
76.8090916701
  0
VERTEX
  8
0
 62
7
  6
CONTINUOUS
 10
152.7220533396
 20
76.7755092848
  0
VERTEX
  8
0
 62
7
  6
CONTINUOUS
 10
152.7562735612
 20
76.7435040532
  0
VERTEX
  8
0
 62
7
  6
CONTINUOUS
 10
152.7728841581
 20
76.7133479212
  0
SEQEND
  0
POLYLINE
  8
0
 62
7
  6
CONTINUOUS
 66
1
 70
0
  0
VERTEX
  8
0
 62
7
  6
CONTINUOUS
 10
152.0156272174
 20
65.6949751047
  0
VERTEX
  8
0
 62
7
  6
CONTINUOUS
 10
152.1600004306
 20
65.5614203617
  0
VERTEX
  8
0
 62
7
  6
CONTINUOUS
 10
152.3070713111
 20
65.4138663303
  0
VERTEX
  8
0
 62
7
  6
CONTINUOUS
 10
152.4363802202
 20
65.2719099438
  0
VERTEX
  8
0
 62
7
  6
CONTINUOUS
 10
152.5366409443
 20
65.1509984172
  0
VERTEX
  8
0
 62
7
  6
CONTINUOUS
 10
152.6116341661
 20
65.0514102229
  0
VERTEX
  8
0
 62
7
  6
CONTINUOUS
 10
152.6679375498
 20
64.9685126404
  0
VERTEX
  8
0
 62
7
  6
CONTINUOUS
 10
152.7105844049
 20
64.8977082244
  0
VERTEX
  8
0
 62
7
  6
CONTINUOUS
 10
152.742417497
 20
64.8358165992
  0
VERTEX
  8
0
 62
7
  6
CONTINUOUS
 10
152.7635316149
 20
64.7834015508
  0
VERTEX
  8
0
 62
7
  6
CONTINUOUS
 10
152.7736247045
 20
64.7420822209
  0
VERTEX
  8
0
 62
7
  6
CONTINUOUS
 10
152.7745958553
 20
64.7281954369
  0
SEQEND
  0
LINE
  8
0
 62
7
  6
CONTINUOUS
 10
136.359608406
 20
85.7133479212
 11
136.359608406
 21
78.2133479212
  0
LINE
  8
0
 62
7
  6
CONTINUOUS
 10
136.359608406
 20
63.2133479212
 11
136.359608406
 21
55.7133479212
  0
POLYLINE
  8
0
 62
7
  6
CONTINUOUS
 66
1
 70
0
  0
VERTEX
  8
0
 62
7
  6
CONTINUOUS
 10
146.4236337357
 20
75.7317207378
  0
VERTEX
  8
0
 62
7
  6
CONTINUOUS
 10
146.2598153472
 20
75.8648255436
  0
VERTEX
  8
0
 62
7
  6
CONTINUOUS
 10
146.0815549374
 20
76.0001417765
  0
VERTEX
  8
0
 62
7
  6
CONTINUOUS
 10
145.8961895402
 20
76.1307382487
  0
VERTEX
  8
0
 62
7
  6
CONTINUOUS
 10
145.7120757365
 20
76.2503212039
  0
VERTEX
  8
0
 62
7
  6
CONTINUOUS
 10
145.5331701024
 20
76.3566205514
  0
VERTEX
  8
0
 62
7
  6
CONTINUOUS
 10
145.3603785571
 20
76.4495437537
  0
VERTEX
  8
0
 62
7
  6
CONTINUOUS
 10
145.193810387
 20
76.5293563937
  0
VERTEX
  8
0
 62
7
  6
CONTINUOUS
 10
145.0326761858
 20
76.5965168465
  0
VERTEX
  8
0
 62
7
  6
CONTINUOUS
 10
144.8800068332
 20
76.6498916754
  0
VERTEX
  8
0
 62
7
  6
CONTINUOUS
 10
144.7407145341
 20
76.6886119186
  0
VERTEX
  8
0
 62
7
  6
CONTINUOUS
 10
144.6193232981
 20
76.7133479212
  0
SEQEND
  0
LINE
  8
0
 62
7
  6
CONTINUOUS
 10
145.9972210267
 20
85.7133479212
 11
145.9972210267
 21
78.2133479212
  0
LINE
  8
0
 62
7
  6
CONTINUOUS
 10
145.9972210267
 20
63.2133479212
 11
145.9972210267
 21
55.7133479212
  0
LINE
  8
0
 62
7
  6
CONTINUOUS
 10
152.7745958904
 20
76.6973598799
 11
152.7745958904
 21
64.7297373965
  0
POLYLINE
  8
0
 62
7
  6
CONTINUOUS
 66
1
 70
0
  0
VERTEX
  8
0
 62
7
  6
CONTINUOUS
 10
152.7745950741
 20
76.6989568439
  0
VERTEX
  8
0
 62
7
  6
CONTINUOUS
 10
152.7740798699
 20
76.6885820089
  0
VERTEX
  8
0
 62
7
  6
CONTINUOUS
 10
152.7656332915
 20
76.6498572563
  0
VERTEX
  8
0
 62
7
  6
CONTINUOUS
 10
152.7449894538
 20
76.59650898
  0
VERTEX
  8
0
 62
7
  6
CONTINUOUS
 10
152.7108091568
 20
76.529389067
  0
VERTEX
  8
0
 62
7
  6
CONTINUOUS
 10
152.6623938258
 20
76.4495891972
  0
VERTEX
  8
0
 62
7
  6
CONTINUOUS
 10
152.5981773526
 20
76.3566587312
  0
VERTEX
  8
0
 62
7
  6
CONTINUOUS
 10
152.516414075
 20
76.2503442431
  0
VERTEX
  8
0
 62
7
  6
CONTINUOUS
 10
152.4153463222
 20
76.130754917
  0
VERTEX
  8
0
 62
7
  6
CONTINUOUS
 10
152.2949752375
 20
76.0001894215
  0
VERTEX
  8
0
 62
7
  6
CONTINUOUS
 10
152.159606335
 20
75.8648967342
  0
VERTEX
  8
0
 62
7
  6
CONTINUOUS
 10
152.0156272174
 20
75.7317207378
  0
SEQEND
  0
LINE
  8
0
 62
7
  6
CONTINUOUS
 10
152.7745958553
 20
64.7281954369
 11
152.7728841581
 21
64.7133479212
  0
LINE
  8
0
 62
7
  6
CONTINUOUS
 10
152.7728841581
 20
76.7133479212
 11
152.7745950741
 21
76.6989568439
  0
LINE
  8
0
 62
7
  6
CONTINUOUS
 10
164.9115345164
 20
85.7133479212
 11
164.9115345164
 21
78.2133479212
  0
LINE
  8
0
 62
7
  6
CONTINUOUS
 10
164.9115345164
 20
63.2133479212
 11
164.9115345164
 21
55.7133479212
  0
LINE
  8
0
 62
7
  6
CONTINUOUS
 10
168.5927749671
 20
85.7133479212
 11
168.5927749671
 21
78.2133479212
  0
LINE
  8
0
 62
7
  6
CONTINUOUS
 10
168.5927749671
 20
63.2133479212
 11
168.5927749671
 21
55.7133479212
  0
POLYLINE
  8
0
 62
7
  6
CONTINUOUS
 66
1
 70
0
  0
VERTEX
  8
0
 62
7
  6
CONTINUOUS
 10
178.6951394302
 20
75.7317207378
  0
VERTEX
  8
0
 62
7
  6
CONTINUOUS
 10
178.6202592428
 20
75.8648255436
  0
VERTEX
  8
0
 62
7
  6
CONTINUOUS
 10
178.525678914
 20
76.0001417765
  0
VERTEX
  8
0
 62
7
  6
CONTINUOUS
 10
178.4147261345
 20
76.1307382487
  0
VERTEX
  8
0
 62
7
  6
CONTINUOUS
 10
178.2930732476
 20
76.2503212039
  0
VERTEX
  8
0
 62
7
  6
CONTINUOUS
 10
178.1646943594
 20
76.3566205514
  0
VERTEX
  8
0
 62
7
  6
CONTINUOUS
 10
178.0315897621
 20
76.4495437537
  0
VERTEX
  8
0
 62
7
  6
CONTINUOUS
 10
177.8949508481
 20
76.5293563937
  0
VERTEX
  8
0
 62
7
  6
CONTINUOUS
 10
177.7549547263
 20
76.5965168465
  0
VERTEX
  8
0
 62
7
  6
CONTINUOUS
 10
177.6150483371
 20
76.6498916754
  0
VERTEX
  8
0
 62
7
  6
CONTINUOUS
 10
177.4809715687
 20
76.6886119186
  0
VERTEX
  8
0
 62
7
  6
CONTINUOUS
 10
177.3588395201
 20
76.7133479212
  0
SEQEND
  0
LINE
  8
0
 62
7
  6
CONTINUOUS
 10
180.9052000437
 20
76.1047787849
 11
180.9052000437
 21
65.3222811331
  0
POLYLINE
  8
0
 62
7
  6
CONTINUOUS
 66
1
 70
0
  0
VERTEX
  8
0
 62
7
  6
CONTINUOUS
 10
180.9051994505
 20
65.3204996622
  0
VERTEX
  8
0
 62
7
  6
CONTINUOUS
 10
180.9037385866
 20
65.2719099438
  0
VERTEX
  8
0
 62
7
  6
CONTINUOUS
 10
180.8868566477
 20
65.1509984172
  0
VERTEX
  8
0
 62
7
  6
CONTINUOUS
 10
180.8561882044
 20
65.0514102229
  0
VERTEX
  8
0
 62
7
  6
CONTINUOUS
 10
180.8157171757
 20
64.9685126404
  0
VERTEX
  8
0
 62
7
  6
CONTINUOUS
 10
180.7664833391
 20
64.8977082244
  0
VERTEX
  8
0
 62
7
  6
CONTINUOUS
 10
180.7072290377
 20
64.8358165992
  0
VERTEX
  8
0
 62
7
  6
CONTINUOUS
 10
180.6377662789
 20
64.7834015508
  0
VERTEX
  8
0
 62
7
  6
CONTINUOUS
 10
180.5590791889
 20
64.7420822209
  0
VERTEX
  8
0
 62
7
  6
CONTINUOUS
 10
180.4732226393
 20
64.7133479212
  0
SEQEND
  0
POLYLINE
  8
0
 62
7
  6
CONTINUOUS
 66
1
 70
0
  0
VERTEX
  8
0
 62
7
  6
CONTINUOUS
 10
180.905199993
 20
76.1055543509
  0
VERTEX
  8
0
 62
7
  6
CONTINUOUS
 10
180.8989823508
 20
76.0001894215
  0
VERTEX
  8
0
 62
7
  6
CONTINUOUS
 10
180.8737687126
 20
75.8648967342
  0
VERTEX
  8
0
 62
7
  6
CONTINUOUS
 10
180.8310908753
 20
75.7317207378
  0
SEQEND
  0
POLYLINE
  8
0
 62
7
  6
CONTINUOUS
 66
1
 70
0
  0
VERTEX
  8
0
 62
7
  6
CONTINUOUS
 10
180.8310908753
 20
65.6949751047
  0
VERTEX
  8
0
 62
7
  6
CONTINUOUS
 10
180.8738651205
 20
65.5614203617
  0
VERTEX
  8
0
 62
7
  6
CONTINUOUS
 10
180.9003700089
 20
65.4138663304
  0
VERTEX
  8
0
 62
7
  6
CONTINUOUS
 10
180.9051994505
 20
65.3204996622
  0
SEQEND
  0
LINE
  8
DEFAULT_1
 62
2
  6
CENTER
 10
99.7992341357
 20
102.6827133479
 11
99.7992341357
 21
190.179194293
  0
LINE
  8
0
 62
2
  6
CONTINUOUS
 10
99.7992341357
 20
191.299294293
 11
99.7992341357
 21
193.059294293
  0
LINE
  8
DEFAULT_1
 62
2
  6
CENTER
 10
99.7992341357
 20
196.579294293
 11
99.7992341357
 21
279.1280087527
  0
LINE
  8
DEFAULT_1
 62
2
  6
CENTER
 10
180.0623632385
 20
192.179294293
 11
101.7993341357
 21
192.179294293
  0
LINE
  8
0
 62
2
  6
CONTINUOUS
 10
100.6792341357
 20
192.179294293
 11
98.9192341357
 21
192.179294293
  0
LINE
  8
DEFAULT_1
 62
2
  6
CENTER
 10
27.6630196937
 20
192.179294293
 11
97.7991341357
 21
192.179294293
  0
ARC
  8
0
 62
7
  6
CONTINUOUS
 10
25.4784258839
 20
138.1820663823
 40
30.0
 50
21.5419765156
 51
50.4580234844
  0
ARC
  8
0
 62
7
  6
CONTINUOUS
 10
71.4112114548
 20
104.8099442352
 40
30.0
 50
57.5419765156
 51
86.4580234844
  0
ARC
  8
0
 62
7
  6
CONTINUOUS
 10
21.4108081529
 20
176.6456687535
 40
15.111
 50
275.9875801611
 51
296.7481913565
  0
ARC
  8
0
 62
7
  6
CONTINUOUS
 10
27.2512293466
 20
158.6707005955
 40
15.111
 50
99.2518086435
 51
120.0124198389
  0
ARC
  8
0
 62
7
  6
CONTINUOUS
 10
45.51210136
 20
133.5367665042
 40
15.111
 50
311.9875801611
 51
332.7481913565
  0
ARC
  8
0
 62
7
  6
CONTINUOUS
 10
60.8025225537
 20
122.4276252359
 40
15.111
 50
135.2518086435
 51
156.0124198389
  0
ARC
  8
0
 62
7
  6
CONTINUOUS
 10
90.3492341357
 20
112.827316684
 40
15.111
 50
347.9875801611
 51
8.7481913565
  0
ARC
  8
0
 62
7
  6
CONTINUOUS
 10
34.9898777362
 20
149.7031723909
 40
15.06
 50
50.4580234844
 51
116.7481913565
  0
ARC
  8
0
 62
7
  6
CONTINUOUS
 10
22.4005253854
 20
188.4492148647
 40
15.06
 50
279.2518086435
 51
345.5419765156
  0
ARC
  8
0
 62
7
  6
CONTINUOUS
 10
72.3342014426
 20
119.7214059169
 40
15.06
 50
86.4580234844
 51
152.7481913565
  0
ARC
  8
0
 62
7
  6
CONTINUOUS
 10
39.3748490918
 20
143.6677770953
 40
15.06
 50
315.2518086435
 51
21.5419765156
  0
ARC
  8
0
 62
7
  6
CONTINUOUS
 10
79.4292341357
 20
117.4160900495
 40
15.06
 50
351.2518086435
 51
57.5419765156
  0
ARC
  8
0
 62
7
  6
CONTINUOUS
 10
22.7784543384
 20
163.6061954163
 40
2.0
 50
200.3538007381
 51
275.9875801611
  0
ARC
  8
0
 62
7
  6
CONTINUOUS
 10
20.6932682276
 20
170.0237383812
 40
2.0
 50
120.0124198389
 51
195.6461992619
  0
ARC
  8
0
 62
7
  6
CONTINUOUS
 10
54.2829604916
 20
123.7914932349
 40
2.0
 50
236.3538007381
 51
311.9875801611
  0
ARC
  8
0
 62
7
  6
CONTINUOUS
 10
48.8238723809
 20
127.7577529114
 40
2.0
 50
156.0124198389
 51
231.6461992619
  0
ARC
  8
0
 62
7
  6
CONTINUOUS
 10
96.4253321357
 20
110.0986066418
 40
2.0
 50
192.0124198389
 51
267.6461992619
  0
ARC
  8
0
 62
7
  6
CONTINUOUS
 10
71.4112114548
 20
279.5486443507
 40
30.0
 50
273.5419765156
 51
302.4580234844
  0
ARC
  8
0
 62
7
  6
CONTINUOUS
 10
25.4784258839
 20
246.1765222036
 40
30.0
 50
309.5419765156
 51
338.4580234844
  0
ARC
  8
0
 62
7
  6
CONTINUOUS
 10
7.9336629937
 20
192.179294293
 40
30.0
 50
345.5419765156
 51
14.4580234844
  0
ARC
  8
0
 62
7
  6
CONTINUOUS
 10
60.8025225537
 20
261.9309633501
 40
15.111
 50
203.9875801611
 51
224.7481913565
  0
ARC
  8
0
 62
7
  6
CONTINUOUS
 10
90.3492341357
 20
271.531271902
 40
15.111
 50
351.2518086435
 51
12.0124198389
  0
ARC
  8
0
 62
7
  6
CONTINUOUS
 10
45.51210136
 20
250.8218220818
 40
15.111
 50
27.2518086435
 51
48.0124198389
  0
ARC
  8
0
 62
7
  6
CONTINUOUS
 10
27.2512293466
 20
225.6878879904
 40
15.111
 50
239.9875801611
 51
260.7481913565
  0
ARC
  8
0
 62
7
  6
CONTINUOUS
 10
21.4108081529
 20
207.7129198324
 40
15.111
 50
63.2518086435
 51
84.0124198389
  0
ARC
  8
0
 62
7
  6
CONTINUOUS
 10
39.3748490918
 20
240.6908114907
 40
15.06
 50
338.4580234844
 51
44.7481913565
  0
ARC
  8
0
 62
7
  6
CONTINUOUS
 10
72.3342014426
 20
264.6371826691
 40
15.06
 50
207.2518086435
 51
273.5419765156
  0
ARC
  8
0
 62
7
  6
CONTINUOUS
 10
22.4005253854
 20
195.9093737212
 40
15.06
 50
14.4580234844
 51
80.7481913565
  0
ARC
  8
0
 62
7
  6
CONTINUOUS
 10
79.4292341357
 20
266.9424985365
 40
15.06
 50
302.4580234844
 51
8.7481913565
  0
ARC
  8
0
 62
7
  6
CONTINUOUS
 10
34.9898777362
 20
234.6554161951
 40
15.06
 50
243.2518086435
 51
309.5419765156
  0
ARC
  8
0
 62
7
  6
CONTINUOUS
 10
48.8238723809
 20
256.6008356745
 40
2.0
 50
128.3538007381
 51
203.9875801611
  0
ARC
  8
0
 62
7
  6
CONTINUOUS
 10
54.2829604916
 20
260.5670953511
 40
2.0
 50
48.0124198389
 51
123.6461992619
  0
ARC
  8
0
 62
7
  6
CONTINUOUS
 10
20.6932682276
 20
214.3348502047
 40
2.0
 50
164.3538007381
 51
239.9875801611
  0
ARC
  8
0
 62
7
  6
CONTINUOUS
 10
22.7784543384
 20
220.7523931696
 40
2.0
 50
84.0124198389
 51
159.6461992619
  0
ARC
  8
0
 62
7
  6
CONTINUOUS
 10
96.4253321357
 20
274.2599819442
 40
2.0
 50
92.3538007381
 51
167.9875801611
  0
ARC
  8
0
 62
7
  6
CONTINUOUS
 10
128.1872568165
 20
104.8099442352
 40
30.0
 50
93.5419765156
 51
122.4580234844
  0
ARC
  8
0
 62
7
  6
CONTINUOUS
 10
174.1200423875
 20
138.1820663823
 40
30.0
 50
129.5419765156
 51
158.4580234844
  0
ARC
  8
0
 62
7
  6
CONTINUOUS
 10
109.2492341357
 20
112.827316684
 40
15.111
 50
171.2518086435
 51
192.0124198389
  0
ARC
  8
0
 62
7
  6
CONTINUOUS
 10
138.7959457176
 20
122.4276252359
 40
15.111
 50
23.9875801611
 51
44.7481913565
  0
ARC
  8
0
 62
7
  6
CONTINUOUS
 10
154.0863669113
 20
133.5367665042
 40
15.111
 50
207.2518086435
 51
228.0124198389
  0
ARC
  8
0
 62
7
  6
CONTINUOUS
 10
172.3472389248
 20
158.6707005955
 40
15.111
 50
59.9875801611
 51
80.7481913565
  0
ARC
  8
0
 62
7
  6
CONTINUOUS
 10
178.1876601185
 20
176.6456687535
 40
15.111
 50
243.2518086435
 51
264.0124198389
  0
ARC
  8
0
 62
7
  6
CONTINUOUS
 10
120.1692341357
 20
117.4160900495
 40
15.06
 50
122.4580234844
 51
188.7481913565
  0
ARC
  8
0
 62
7
  6
CONTINUOUS
 10
160.2236191795
 20
143.6677770953
 40
15.06
 50
158.4580234844
 51
224.7481913565
  0
ARC
  8
0
 62
7
  6
CONTINUOUS
 10
127.2642668287
 20
119.7214059169
 40
15.06
 50
27.2518086435
 51
93.5419765156
  0
ARC
  8
0
 62
7
  6
CONTINUOUS
 10
177.197942886
 20
188.4492148647
 40
15.06
 50
194.4580234844
 51
260.7481913565
  0
ARC
  8
0
 62
7
  6
CONTINUOUS
 10
164.6085905351
 20
149.7031723909
 40
15.06
 50
63.2518086435
 51
129.5419765156
  0
ARC
  8
0
 62
7
  6
CONTINUOUS
 10
103.1731361357
 20
110.0986066418
 40
2.0
 50
272.3538007381
 51
347.9875801611
  0
ARC
  8
0
 62
7
  6
CONTINUOUS
 10
150.7745958904
 20
127.7577529114
 40
2.0
 50
308.3538007381
 51
23.9875801611
  0
ARC
  8
0
 62
7
  6
CONTINUOUS
 10
145.3155077797
 20
123.7914932349
 40
2.0
 50
228.0124198389
 51
303.6461992619
  0
ARC
  8
0
 62
7
  6
CONTINUOUS
 10
178.9052000437
 20
170.0237383812
 40
2.0
 50
344.3538007381
 51
59.9875801611
  0
ARC
  8
0
 62
7
  6
CONTINUOUS
 10
176.820013933
 20
163.6061954163
 40
2.0
 50
264.0124198389
 51
339.6461992619
  0
ARC
  8
0
 62
7
  6
CONTINUOUS
 10
99.7992341357
 20
192.179294293
 40
84.15
 50
267.6461992619
 51
272.3538007381
  0
ARC
  8
0
 62
7
  6
CONTINUOUS
 10
99.7992341357
 20
192.179294293
 40
84.15
 50
87.6461992619
 51
92.3538007381
  0
ARC
  8
0
 62
7
  6
CONTINUOUS
 10
99.7992341357
 20
192.179294293
 40
84.15
 50
123.6461992619
 51
128.3538007381
  0
ARC
  8
0
 62
7
  6
CONTINUOUS
 10
99.7992341357
 20
192.179294293
 40
84.15
 50
159.6461992619
 51
164.3538007381
  0
ARC
  8
0
 62
7
  6
CONTINUOUS
 10
99.7992341357
 20
192.179294293
 40
84.15
 50
195.6461992619
 51
200.3538007381
  0
ARC
  8
0
 62
7
  6
CONTINUOUS
 10
99.7992341357
 20
192.179294293
 40
84.15
 50
231.6461992619
 51
236.3538007381
  0
ARC
  8
0
 62
7
  6
CONTINUOUS
 10
99.7992341357
 20
192.179294293
 40
84.15
 50
303.6461992619
 51
308.3538007381
  0
ARC
  8
0
 62
7
  6
CONTINUOUS
 10
99.7992341357
 20
192.179294293
 40
84.15
 50
339.6461992619
 51
344.3538007381
  0
ARC
  8
0
 62
7
  6
CONTINUOUS
 10
99.7992341357
 20
192.179294293
 40
84.15
 50
15.6461992619
 51
20.3538007381
  0
ARC
  8
0
 62
7
  6
CONTINUOUS
 10
99.7992341357
 20
192.179294293
 40
84.15
 50
51.6461992619
 51
56.3538007381
  0
ARC
  8
0
 62
7
  6
CONTINUOUS
 10
99.7992341357
 20
192.179294293
 40
70.65
 50
49.1637569038
 51
58.8362430962
  0
ARC
  8
0
 62
7
  6
CONTINUOUS
 10
99.7992341357
 20
192.179294293
 40
70.65
 50
13.1637569038
 51
22.8362430962
  0
ARC
  8
0
 62
7
  6
CONTINUOUS
 10
99.7992341357
 20
192.179294293
 40
70.65
 50
337.1637569038
 51
346.8362430962
  0
ARC
  8
0
 62
7
  6
CONTINUOUS
 10
99.7992341357
 20
192.179294293
 40
70.65
 50
301.1637569038
 51
310.8362430962
  0
ARC
  8
0
 62
7
  6
CONTINUOUS
 10
99.7992341357
 20
192.179294293
 40
70.65
 50
229.1637569038
 51
238.8362430962
  0
ARC
  8
0
 62
7
  6
CONTINUOUS
 10
99.7992341357
 20
192.179294293
 40
70.65
 50
193.1637569038
 51
202.8362430962
  0
ARC
  8
0
 62
7
  6
CONTINUOUS
 10
99.7992341357
 20
192.179294293
 40
70.65
 50
157.1637569038
 51
166.8362430962
  0
ARC
  8
0
 62
7
  6
CONTINUOUS
 10
99.7992341357
 20
192.179294293
 40
70.65
 50
121.1637569038
 51
130.8362430962
  0
ARC
  8
0
 62
7
  6
CONTINUOUS
 10
99.7992341357
 20
192.179294293
 40
70.65
 50
265.1637569038
 51
274.8362430962
  0
ARC
  8
0
 62
7
  6
CONTINUOUS
 10
99.7992341357
 20
192.179294293
 40
70.65
 50
85.1637569038
 51
94.8362430962
  0
ARC
  8
0
 62
7
  6
CONTINUOUS
 10
128.1872568165
 20
279.5486443507
 40
30.0
 50
237.5419765156
 51
266.4580234844
  0
ARC
  8
0
 62
7
  6
CONTINUOUS
 10
109.2492341357
 20
271.531271902
 40
15.111
 50
167.9875801611
 51
188.7481913565
  0
ARC
  8
0
 62
7
  6
CONTINUOUS
 10
138.7959457176
 20
261.9309633501
 40
15.111
 50
315.2518086435
 51
336.0124198389
  0
ARC
  8
0
 62
7
  6
CONTINUOUS
 10
120.1692341357
 20
266.9424985365
 40
15.06
 50
171.2518086435
 51
237.5419765156
  0
ARC
  8
0
 62
7
  6
CONTINUOUS
 10
127.2642668287
 20
264.6371826691
 40
15.06
 50
266.4580234844
 51
332.7481913565
  0
ARC
  8
0
 62
7
  6
CONTINUOUS
 10
103.1731361357
 20
274.2599819442
 40
2.0
 50
12.0124198389
 51
87.6461992619
  0
ARC
  8
0
 62
7
  6
CONTINUOUS
 10
145.3155077797
 20
260.5670953511
 40
2.0
 50
56.3538007381
 51
131.9875801611
  0
ARC
  8
0
 62
7
  6
CONTINUOUS
 10
191.6648052776
 20
192.179294293
 40
30.0
 50
165.5419765156
 51
194.4580234844
  0
ARC
  8
0
 62
7
  6
CONTINUOUS
 10
172.3472389248
 20
225.6878879904
 40
15.111
 50
279.2518086435
 51
300.0124198389
  0
ARC
  8
0
 62
7
  6
CONTINUOUS
 10
178.1876601185
 20
207.7129198324
 40
15.111
 50
95.9875801611
 51
116.7481913565
  0
ARC
  8
0
 62
7
  6
CONTINUOUS
 10
177.197942886
 20
195.9093737212
 40
15.06
 50
99.2518086435
 51
165.5419765156
  0
ARC
  8
0
 62
7
  6
CONTINUOUS
 10
164.6085905351
 20
234.6554161951
 40
15.06
 50
230.4580234844
 51
296.7481913565
  0
ARC
  8
0
 62
7
  6
CONTINUOUS
 10
178.9052000437
 20
214.3348502047
 40
2.0
 50
300.0124198389
 51
15.6461992619
  0
ARC
  8
0
 62
7
  6
CONTINUOUS
 10
176.820013933
 20
220.7523931696
 40
2.0
 50
20.3538007381
 51
95.9875801611
  0
ARC
  8
0
 62
7
  6
CONTINUOUS
 10
174.1200423875
 20
246.1765222036
 40
30.0
 50
201.5419765156
 51
230.4580234844
  0
ARC
  8
0
 62
7
  6
CONTINUOUS
 10
154.0863669113
 20
250.8218220818
 40
15.111
 50
131.9875801611
 51
152.7481913565
  0
ARC
  8
0
 62
7
  6
CONTINUOUS
 10
160.2236191795
 20
240.6908114907
 40
15.06
 50
135.2518086435
 51
201.5419765156
  0
ARC
  8
0
 62
7
  6
CONTINUOUS
 10
150.7745958904
 20
256.6008356745
 40
2.0
 50
336.0124198389
 51
51.6461992619
  0
ENDSEC
  0
EOF
