  0
SECTION
  2
HEADER
  9
$EXTMAX
 10
420.0
 20
297.0
 30
0.0
  9
$EXTMIN
 10
0.0
 20
0.0
 30
0.0
  9
$LIMMIN
 10
0.0
 20
0.0
  9
$LIMMAX
 10
420.0
 20
297.0
  9
$VIEWCTR
 10
210.0
 20
148.5
  9
$VIEWSIZE
 40
297.0
  9
$CLAYER
  8
0
  9
$LTSCALE
 40
23.1
  9
$CELTYPE
  6
BYLAYER
  9
$DIMSCALE
 40
1.0
  9
$DIMASZ
 40
3.5
  9
$DIMEXO
 40
2.625
  9
$DIMDLI
 40
15.96
  9
$DIMEXE
 40
7.56
  9
$DIMCEN
 40
3.78
  9
$DIMLFAC
 40
1.0
  9
$DIMBLK
  1
_FILLED
  9
$DIMTXT
 40
3.5
  9
$PDMODE
 70
3
  9
$PDSIZE
 40
0.3125
  9
$TILEMODE
 70
1
  0
ENDSEC
  0
SECTION
  2
TABLES
  0
TABLE
  2
LTYPE
 70
6
  0
LTYPE
  2
BYBLOCK
 70
0
  3

 72
65
 73
0
 40
0.0
  0
LTYPE
  2
BYLAYER
 70
0
  3

 72
65
 73
0
 40
0.0
  0
LTYPE
  2
CONTINUOUS
 70
64
  3
Solid line
 72
65
 73
0
 40
0.0
  0
LTYPE
  2
CENTER
 70
64
  3
____ _ ____ _ ____ _ ____ _ ____ _ ____ _ ____
 72
65
 73
4
 40
0.6
 49
0.375
 49
-0.075
 49
0.075
 49
-0.075
  0
LTYPE
  2
HIDDEN
 70
64
  3
- - - - - - - - - - - - - - - - - - - -
 72
65
 73
2
 40
0.2
 49
0.1
 49
-0.1
  0
LTYPE
  2
PHANTOM
 70
64
  3
_____ _ _ _____ _ _ _____ _ _ _____
 72
65
 73
6
 40
0.8
 49
0.45
 49
-0.05
 49
0.1
 49
-0.05
 49
0.1
 49
-0.05
  0
LTYPE
  2
DOT
 70
64
  3
. . . . . . . . . . . . . . . . . . . .
 72
65
 73
2
 40
0.2
 49
0.1
 49
-0.1
  0
LTYPE
  2
DASHED
 70
64
  3
- - - - - - - - - - - - - - - - - - - -
 72
65
 73
2
 40
0.2
 49
0.1
 49
-0.1
  0
ENDTAB
  0
TABLE
  2
LAYER
 70
36
  0
LAYER
  2
0
 70
0
 62
7
  6
CONTINUOUS
  0
LAYER
  2
DEFAULT_1
 70
0
 62
7
  6
CENTER
  0
LAYER
  2
DEFAULT_2
 70
0
 62
8
  6
HIDDEN
  0
LAYER
  2
DEFAULT_3
 70
0
 62
7
  6
PHANTOM
  0
LAYER
  2
CURVE
 70
0
 62
7
  6
CONTINUOUS
  0
LAYER
  2
KERNETRAK
 70
0
 62
7
  6
CONTINUOUS
  0
LAYER
  2
PLAN
 70
0
 62
7
  6
CONTINUOUS
  0
LAYER
  2
SURFACE
 70
0
 62
7
  6
CONTINUOUS
  0
LAYER
  2
SURF_ARBEJDE
 70
0
 62
7
  6
CONTINUOUS
  0
ENDTAB
  0
TABLE
  2
STYLE
 70
1
  0
STYLE
  2
STANDARD
 70
0
 40
0.0
 41
0.8
 50
0.0
 71
0
 42
0.2
  3
txt
  4

  0
STYLE
  2
TEXTSTYLE_1
 70
0
 40
0.0
 41
0.8
 50
0.0
 71
0
 42
0.2
  3
gdt
  4

  0
STYLE
  2
TEXTSTYLE_2
 70
0
 40
0.0
 41
0.6
 50
0.0
 71
0
 42
0.2
  3
txt
  4

  0
STYLE
  2
TEXTSTYLE_3
 70
0
 40
0.0
 41
1.0
 50
0.0
 71
0
 42
0.2
  3
ftb_____.ttf
  4

  0
STYLE
  2
TEXTSTYLE_4
 70
0
 40
0.0
 41
1.0
 50
0.0
 71
0
 42
0.2
  3
fti_____.ttf
  4

  0
STYLE
  2
TEXTSTYLE_5
 70
0
 40
0.0
 41
1.0
 50
0.0
 71
0
 42
0.2
  3
frutiger light.ttf
  4

  0
STYLE
  2
TEXTSTYLE_6
 70
0
 40
0.0
 41
0.7
 50
0.0
 71
0
 42
0.2
  3
txt
  4

  0
STYLE
  2
TEXTSTYLE_7
 70
0
 40
0.0
 41
0.24
 50
0.0
 71
0
 42
0.2
  3
txt
  4

  0
ENDTAB
  0
ENDSEC
  0
SECTION
  2
BLOCKS
  0
BLOCK
  8
0
 62
2
  6
CONTINUOUS
  2
SYMBOL_5_BL1
 70
64
 10
382.7840918555
 20
35.5067593403
  0
TEXT
  8
0
 62
7
  6
CONTINUOUS
 10
373.842376864
 20
30.5995157174
  7
TEXTSTYLE_4
 40
1.0655737705
  1
The brand for plastic modular belts and chains
 41
1.0
 72
0
  0
LINE
  8
0
 62
7
  6
CONTINUOUS
 10
358.7621602445
 20
36.0805298321
 11
358.7621602445
 21
33.9493822911
  0
LINE
  8
0
 62
7
  6
CONTINUOUS
 10
359.0512227376
 20
30.9584509954
 11
359.0512227376
 21
31.0552420547
  0
LINE
  8
0
 62
7
  6
CONTINUOUS
 10
358.7621602445
 20
31.0229783683
 11
358.8199727462
 21
30.8293962497
  0
LINE
  8
0
 62
7
  6
CONTINUOUS
 10
360.1556028675
 20
33.867415078
 11
360.1556028675
 21
36.0805298321
  0
LINE
  8
0
 62
7
  6
CONTINUOUS
 10
361.0746601894
 20
32.0231527829
 11
361.0746601894
 21
30.5067593403
  0
LINE
  8
0
 62
7
  6
CONTINUOUS
 10
361.3637227445
 20
30.5067593403
 11
361.3637227445
 21
31.2488242184
  0
LINE
  8
0
 62
7
  6
CONTINUOUS
 10
361.3637227445
 20
31.3778789641
 11
361.3637227445
 21
32.0231527829
  0
LINE
  8
0
 62
7
  6
CONTINUOUS
 10
358.8199727462
 20
31.216560532
 11
358.7621602445
 21
31.0229783683
  0
LINE
  8
0
 62
7
  6
CONTINUOUS
 10
359.1668477307
 20
30.7971325633
 11
359.0512227376
 21
30.9584509954
  0
LINE
  8
0
 62
7
  6
CONTINUOUS
 10
360.2652852997
 20
31.3133515913
 11
360.3230977445
 21
31.216560532
  0
LINE
  8
0
 62
7
  6
CONTINUOUS
 10
360.6121602997
 20
31.216560532
 11
360.5543476894
 21
31.3456152777
  0
LINE
  8
0
 62
7
  6
CONTINUOUS
 10
362.0408487691
 20
36.0805298321
 11
362.0408487691
 21
34.2772511436
  0
LINE
  8
0
 62
7
  6
CONTINUOUS
 10
362.0408487691
 20
32.9657757338
 11
362.0408487691
 21
32.3100380288
  0
LINE
  8
0
 62
7
  6
CONTINUOUS
 10
362.4043477445
 20
31.1520331591
 11
362.4043477445
 21
30.5067593403
  0
LINE
  8
0
 62
7
  6
CONTINUOUS
 10
362.6934101343
 20
30.5067593403
 11
362.6934101343
 21
31.1520331591
  0
LINE
  8
0
 62
7
  6
CONTINUOUS
 10
359.0512227376
 20
31.0552420547
 11
359.1090352445
 21
31.1842968456
  0
LINE
  8
0
 62
7
  6
CONTINUOUS
 10
358.8199727462
 20
30.8293962497
 11
358.9355977445
 21
30.7003414814
  0
LINE
  8
0
 62
7
  6
CONTINUOUS
 10
362.3465351343
 20
31.2810879048
 11
362.4043477445
 21
31.1520331591
  0
LINE
  8
0
 62
7
  6
CONTINUOUS
 10
363.1559103548
 20
30.7971325633
 11
363.2137226343
 21
30.668077795
  0
LINE
  8
0
 62
7
  6
CONTINUOUS
 10
362.6934101343
 20
31.1520331591
 11
362.6355978548
 21
31.3133515913
  0
LINE
  8
0
 62
7
  6
CONTINUOUS
 10
363.1559103548
 20
31.3456152777
 11
363.1559103548
 21
31.2810879048
  0
LINE
  8
0
 62
7
  6
CONTINUOUS
 10
363.1559103548
 20
30.8939236226
 11
363.1559103548
 21
30.7971325633
  0
LINE
  8
0
 62
7
  6
CONTINUOUS
 10
363.4342913921
 20
32.3100380288
 11
363.4342913921
 21
36.0805298321
  0
LINE
  8
0
 62
7
  6
CONTINUOUS
 10
363.4449727445
 20
30.7648688543
 11
363.4449727445
 21
30.8293962497
  0
LINE
  8
0
 62
7
  6
CONTINUOUS
 10
363.7621602445
 20
36.0805298321
 11
363.7621602445
 21
32.3100380288
  0
LINE
  8
0
 62
7
  6
CONTINUOUS
 10
360.5543476894
 20
30.7003414814
 11
360.6121602997
 21
30.8293962497
  0
LINE
  8
0
 62
7
  6
CONTINUOUS
 10
364.9480979651
 20
30.6035504109
 11
364.890285024
 21
30.7648688543
  0
LINE
  8
0
 62
7
  6
CONTINUOUS
 10
364.6012229651
 20
31.2810879048
 11
364.6012229651
 21
31.1842968456
  0
LINE
  8
0
 62
7
  6
CONTINUOUS
 10
364.6012229651
 20
31.0552420547
 11
364.6012229651
 21
30.8616599362
  0
LINE
  8
0
 62
7
  6
CONTINUOUS
 10
364.890285024
 20
30.7648688543
 11
364.890285024
 21
31.2810879048
  0
LINE
  8
0
 62
7
  6
CONTINUOUS
 10
365.1556028675
 20
32.3100380288
 11
365.1556028675
 21
34.1133167174
  0
LINE
  8
0
 62
7
  6
CONTINUOUS
 10
365.1556028675
 20
35.4247921272
 11
365.1556028675
 21
36.0805298321
  0
LINE
  8
0
 62
7
  6
CONTINUOUS
 10
365.4684104651
 20
32.0231527829
 11
365.4684104651
 21
31.8618343508
  0
LINE
  8
0
 62
7
  6
CONTINUOUS
 10
365.4684104651
 20
31.5391973962
 11
365.4684104651
 21
30.5067593403
  0
LINE
  8
0
 62
7
  6
CONTINUOUS
 10
365.757472524
 20
30.5067593403
 11
365.757472524
 21
31.5391973962
  0
LINE
  8
0
 62
7
  6
CONTINUOUS
 10
365.757472524
 20
31.8618343508
 11
365.757472524
 21
32.0231527829
  0
LINE
  8
0
 62
7
  6
CONTINUOUS
 10
360.3230977445
 20
30.8293962497
 11
360.2652852997
 21
30.7326051679
  0
LINE
  8
0
 62
7
  6
CONTINUOUS
 10
362.6355978548
 20
31.3133515913
 11
362.5777852445
 21
31.3778789641
  0
LINE
  8
0
 62
7
  6
CONTINUOUS
 10
363.5027853548
 20
30.7003414814
 11
363.4449727445
 21
30.7648688543
  0
LINE
  8
0
 62
7
  6
CONTINUOUS
 10
364.6590352445
 20
30.5712867188
 11
364.716847524
 21
30.5067593403
  0
LINE
  8
0
 62
7
  6
CONTINUOUS
 10
364.6012229651
 20
30.668077795
 11
364.6590352445
 21
30.5712867188
  0
LINE
  8
0
 62
7
  6
CONTINUOUS
 10
365.0059102445
 20
30.5067593403
 11
364.9480979651
 21
30.6035504109
  0
LINE
  8
0
 62
7
  6
CONTINUOUS
 10
364.890285024
 20
31.2810879048
 11
364.8324727445
 21
31.3778789641
  0
LINE
  8
0
 62
7
  6
CONTINUOUS
 10
366.2199727445
 20
31.5391973962
 11
366.2199727445
 21
30.5067593403
  0
LINE
  8
0
 62
7
  6
CONTINUOUS
 10
366.5090354651
 20
30.5067593403
 11
366.5090354651
 21
31.2488242184
  0
LINE
  8
0
 62
7
  6
CONTINUOUS
 10
366.5090354651
 20
31.3778789641
 11
366.5090354651
 21
31.5391973962
  0
LINE
  8
0
 62
7
  6
CONTINUOUS
 10
367.0408487691
 20
34.5231527829
 11
367.0408487691
 21
32.3100380288
  0
LINE
  8
0
 62
7
  6
CONTINUOUS
 10
358.9355977445
 20
31.3456152777
 11
358.8199727462
 21
31.216560532
  0
LINE
  8
0
 62
7
  6
CONTINUOUS
 10
359.1090352445
 20
31.1842968456
 11
359.1668477307
 21
31.2488242184
  0
LINE
  8
0
 62
7
  6
CONTINUOUS
 10
358.9355977445
 20
30.7003414814
 11
359.0512227376
 21
30.6358140973
  0
LINE
  8
0
 62
7
  6
CONTINUOUS
 10
359.3402852307
 20
30.7003414814
 11
359.1668477307
 21
30.7971325633
  0
LINE
  8
0
 62
7
  6
CONTINUOUS
 10
364.543410024
 20
31.3456152777
 11
364.6012229651
 21
31.2810879048
  0
LINE
  8
0
 62
7
  6
CONTINUOUS
 10
367.491847524
 20
31.2810879048
 11
367.5496604651
 21
31.1197694727
  0
LINE
  8
0
 62
7
  6
CONTINUOUS
 10
367.838722524
 20
31.1197694727
 11
367.7809102445
 21
31.2810879048
  0
LINE
  8
0
 62
7
  6
CONTINUOUS
 10
367.5496604651
 20
31.1197694727
 11
367.5496604651
 21
30.5067593403
  0
LINE
  8
0
 62
7
  6
CONTINUOUS
 10
367.838722524
 20
30.5067593403
 11
367.838722524
 21
31.1197694727
  0
LINE
  8
0
 62
7
  6
CONTINUOUS
 10
368.3012227445
 20
31.3456152777
 11
368.3012227445
 21
31.2810879048
  0
LINE
  8
0
 62
7
  6
CONTINUOUS
 10
368.4342913921
 20
32.3100380288
 11
368.4342913921
 21
34.4411855698
  0
LINE
  8
0
 62
7
  6
CONTINUOUS
 10
368.7621602445
 20
36.0805298321
 11
368.7621602445
 21
32.3100380288
  0
LINE
  8
0
 62
7
  6
CONTINUOUS
 10
363.4449727445
 20
30.8293962497
 11
363.5027853548
 21
30.926187309
  0
LINE
  8
0
 62
7
  6
CONTINUOUS
 10
359.0512227376
 20
30.6358140973
 11
359.2246602583
 21
30.5712867188
  0
LINE
  8
0
 62
7
  6
CONTINUOUS
 10
360.5543476894
 20
31.3456152777
 11
360.3809101894
 21
31.4424063369
  0
LINE
  8
0
 62
7
  6
CONTINUOUS
 10
363.2137226343
 20
30.668077795
 11
363.3871601343
 21
30.5712867188
  0
LINE
  8
0
 62
7
  6
CONTINUOUS
 10
362.2309102445
 20
31.3456152777
 11
362.3465351343
 21
31.2810879048
  0
LINE
  8
0
 62
7
  6
CONTINUOUS
 10
362.5777852445
 20
31.3778789641
 11
362.4621603548
 21
31.4424063369
  0
LINE
  8
0
 62
7
  6
CONTINUOUS
 10
368.3012227445
 20
30.7648688543
 11
368.4168479651
 21
30.6358140973
  0
LINE
  8
0
 62
7
  6
CONTINUOUS
 10
368.6480977445
 20
30.7003414814
 11
368.5902854651
 21
30.7648688543
  0
LINE
  8
0
 62
7
  6
CONTINUOUS
 10
368.3012227445
 20
31.2810879048
 11
368.4168479651
 21
31.1520331591
  0
LINE
  8
0
 62
7
  6
CONTINUOUS
 10
367.7809102445
 20
31.2810879048
 11
367.7230979651
 21
31.3778789641
  0
LINE
  8
0
 62
7
  6
CONTINUOUS
 10
370.1512223035
 20
30.7003414814
 11
370.1512223035
 21
30.7648688543
  0
LINE
  8
0
 62
7
  6
CONTINUOUS
 10
370.1556028675
 20
32.3100380288
 11
370.1556028675
 21
36.0805298321
  0
LINE
  8
0
 62
7
  6
CONTINUOUS
 10
363.2137226343
 20
31.4101426505
 11
363.1559103548
 21
31.3456152777
  0
LINE
  8
0
 62
7
  6
CONTINUOUS
 10
360.091847717
 20
31.3778789641
 11
360.2652852997
 21
31.3133515913
  0
LINE
  8
0
 62
7
  6
CONTINUOUS
 10
364.8324727445
 20
31.3778789641
 11
364.716847524
 21
31.4424063369
  0
LINE
  8
0
 62
7
  6
CONTINUOUS
 10
368.6480977445
 20
31.216560532
 11
368.5902854651
 21
31.2810879048
  0
LINE
  8
0
 62
7
  6
CONTINUOUS
 10
369.8043479651
 20
30.8293962497
 11
369.8621602445
 21
30.7648688543
  0
LINE
  8
0
 62
7
  6
CONTINUOUS
 10
370.1512223035
 20
30.7648688543
 11
370.0355977445
 21
30.8939236226
  0
LINE
  8
0
 62
7
  6
CONTINUOUS
 10
369.8043479651
 20
31.3456152777
 11
369.8621602445
 21
31.2810879048
  0
LINE
  8
0
 62
7
  6
CONTINUOUS
 10
370.1512223035
 20
31.2810879048
 11
370.0355977445
 21
31.4101426505
  0
LINE
  8
0
 62
7
  6
CONTINUOUS
 10
363.4449727445
 20
31.2810879048
 11
363.5027853548
 21
31.3456152777
  0
LINE
  8
0
 62
7
  6
CONTINUOUS
 10
363.2715352445
 20
31.0229783683
 11
363.1559103548
 21
30.8939236226
  0
LINE
  8
0
 62
7
  6
CONTINUOUS
 10
364.6012229651
 20
30.8616599362
 11
364.543410024
 21
30.7971325633
  0
LINE
  8
0
 62
7
  6
CONTINUOUS
 10
364.543410024
 20
30.6035504109
 11
364.6012229651
 21
30.668077795
  0
LINE
  8
0
 62
7
  6
CONTINUOUS
 10
363.3871601343
 20
30.5712867188
 11
363.5027853548
 21
30.5390230296
  0
LINE
  8
0
 62
7
  6
CONTINUOUS
 10
360.3809101894
 20
31.4424063369
 11
360.1496602445
 21
31.5069337098
  0
LINE
  8
0
 62
7
  6
CONTINUOUS
 10
363.7340351343
 20
30.6358140973
 11
363.5027853548
 21
30.7003414814
  0
LINE
  8
0
 62
7
  6
CONTINUOUS
 10
362.4621603548
 20
31.4424063369
 11
362.2887228548
 21
31.5069337098
  0
LINE
  8
0
 62
7
  6
CONTINUOUS
 10
364.716847524
 20
31.4424063369
 11
364.543410024
 21
31.5069337098
  0
LINE
  8
0
 62
7
  6
CONTINUOUS
 10
367.3762229651
 20
31.3456152777
 11
367.491847524
 21
31.2810879048
  0
LINE
  8
0
 62
7
  6
CONTINUOUS
 10
367.7230979651
 20
31.3778789641
 11
367.6074727445
 21
31.4424063369
  0
LINE
  8
0
 62
7
  6
CONTINUOUS
 10
359.2246602583
 20
30.5712867188
 11
359.3980977583
 21
30.5390230296
  0
LINE
  8
0
 62
7
  6
CONTINUOUS
 10
359.6871602721
 20
30.6358140973
 11
359.3402852307
 21
30.7003414814
  0
LINE
  8
0
 62
7
  6
CONTINUOUS
 10
362.1152853548
 20
31.3778789641
 11
362.2309102445
 21
31.3456152777
  0
LINE
  8
0
 62
7
  6
CONTINUOUS
 10
364.4277854651
 20
31.3778789641
 11
364.543410024
 21
31.3456152777
  0
LINE
  8
0
 62
7
  6
CONTINUOUS
 10
368.7637229651
 20
30.668077795
 11
368.6480977445
 21
30.7003414814
  0
LINE
  8
0
 62
7
  6
CONTINUOUS
 10
367.2605977445
 20
31.3778789641
 11
367.3762229651
 21
31.3456152777
  0
LINE
  8
0
 62
7
  6
CONTINUOUS
 10
368.4168479651
 20
30.6358140973
 11
368.5902854651
 21
30.5712867188
  0
LINE
  8
0
 62
7
  6
CONTINUOUS
 10
367.6074727445
 20
31.4424063369
 11
367.4340352445
 21
31.5069337098
  0
LINE
  8
0
 62
7
  6
CONTINUOUS
 10
368.8215352445
 20
31.1520331591
 11
368.6480977445
 21
31.216560532
  0
LINE
  8
0
 62
7
  6
CONTINUOUS
 10
369.6309104651
 20
30.8939236226
 11
369.8043479651
 21
30.8293962497
  0
LINE
  8
0
 62
7
  6
CONTINUOUS
 10
370.0355977445
 20
31.4101426505
 11
369.8621602445
 21
31.4746700234
  0
LINE
  8
0
 62
7
  6
CONTINUOUS
 10
368.4168479651
 20
31.1520331591
 11
368.6480977445
 21
31.0552420547
  0
LINE
  8
0
 62
7
  6
CONTINUOUS
 10
370.0355977445
 20
30.8939236226
 11
369.8043479651
 21
30.9907146818
  0
LINE
  8
0
 62
7
  6
CONTINUOUS
 10
368.5902854651
 20
31.2810879048
 11
368.6480977445
 21
31.3456152777
  0
LINE
  8
0
 62
7
  6
CONTINUOUS
 10
359.0512227376
 20
31.4101426505
 11
358.9355977445
 21
31.3456152777
  0
LINE
  8
0
 62
7
  6
CONTINUOUS
 10
359.1668477307
 20
31.2488242184
 11
359.3402852307
 21
31.3456152777
  0
LINE
  8
0
 62
7
  6
CONTINUOUS
 10
361.4793477997
 20
31.4424063369
 11
361.3637227445
 21
31.3778789641
  0
LINE
  8
0
 62
7
  6
CONTINUOUS
 10
361.3637227445
 20
31.2488242184
 11
361.4793477997
 21
31.3133515913
  0
LINE
  8
0
 62
7
  6
CONTINUOUS
 10
360.3809101894
 20
30.6035504109
 11
360.5543476894
 21
30.7003414814
  0
LINE
  8
0
 62
7
  6
CONTINUOUS
 10
359.3980977583
 20
30.5390230296
 11
359.744972717
 21
30.5067593403
  0
LINE
  8
0
 62
7
  6
CONTINUOUS
 10
363.5027853548
 20
30.5390230296
 11
363.7340351343
 21
30.5067593403
  0
LINE
  8
0
 62
7
  6
CONTINUOUS
 10
361.8840352445
 20
31.4101426505
 11
362.1152853548
 21
31.3778789641
  0
LINE
  8
0
 62
7
  6
CONTINUOUS
 10
364.1965353548
 20
31.4101426505
 11
364.4277854651
 21
31.3778789641
  0
LINE
  8
0
 62
7
  6
CONTINUOUS
 10
368.6480977445
 20
31.0552420547
 11
369.6309104651
 21
30.8939236226
  0
LINE
  8
0
 62
7
  6
CONTINUOUS
 10
369.8043479651
 20
30.9907146818
 11
368.8215352445
 21
31.1520331591
  0
LINE
  8
0
 62
7
  6
CONTINUOUS
 10
362.2887228548
 20
31.5069337098
 11
362.1152853548
 21
31.5391973962
  0
LINE
  8
0
 62
7
  6
CONTINUOUS
 10
368.5902854651
 20
30.5712867188
 11
368.7637229651
 21
30.5390230296
  0
LINE
  8
0
 62
7
  6
CONTINUOUS
 10
367.4340352445
 20
31.5069337098
 11
367.2605977445
 21
31.5391973962
  0
LINE
  8
0
 62
7
  6
CONTINUOUS
 10
369.6887227445
 20
31.3778789641
 11
369.8043479651
 21
31.3456152777
  0
LINE
  8
0
 62
7
  6
CONTINUOUS
 10
369.8621602445
 20
30.7648688543
 11
369.8043479651
 21
30.7003414814
  0
LINE
  8
0
 62
7
  6
CONTINUOUS
 10
368.4168479651
 20
31.4424063369
 11
368.3012227445
 21
31.3456152777
  0
LINE
  8
0
 62
7
  6
CONTINUOUS
 10
363.3293478548
 20
31.4746700234
 11
363.2137226343
 21
31.4101426505
  0
LINE
  8
0
 62
7
  6
CONTINUOUS
 10
363.3871601343
 20
31.0875057863
 11
363.2715352445
 21
31.0229783683
  0
LINE
  8
0
 62
7
  6
CONTINUOUS
 10
363.5027853548
 20
30.926187309
 11
363.6184102445
 21
30.9907146818
  0
LINE
  8
0
 62
7
  6
CONTINUOUS
 10
361.0746601894
 20
30.5067593403
 11
361.3637227445
 21
30.5067593403
  0
LINE
  8
0
 62
7
  6
CONTINUOUS
 10
362.4043477445
 20
30.5067593403
 11
362.6934101343
 21
30.5067593403
  0
LINE
  8
0
 62
7
  6
CONTINUOUS
 10
363.7340351343
 20
30.5067593403
 11
364.0809101343
 21
30.5067593403
  0
LINE
  8
0
 62
7
  6
CONTINUOUS
 10
364.716847524
 20
30.5067593403
 11
365.0059102445
 21
30.5067593403
  0
LINE
  8
0
 62
7
  6
CONTINUOUS
 10
365.4684104651
 20
30.5067593403
 11
365.757472524
 21
30.5067593403
  0
LINE
  8
0
 62
7
  6
CONTINUOUS
 10
366.2199727445
 20
30.5067593403
 11
366.5090354651
 21
30.5067593403
  0
LINE
  8
0
 62
7
  6
CONTINUOUS
 10
367.5496604651
 20
30.5067593403
 11
367.838722524
 21
30.5067593403
  0
LINE
  8
0
 62
7
  6
CONTINUOUS
 10
369.1105979651
 20
30.5067593403
 11
369.4574729651
 21
30.5067593403
  0
LINE
  8
0
 62
7
  6
CONTINUOUS
 10
369.4574729651
 20
30.6358140973
 11
369.1105979651
 21
30.6358140973
  0
LINE
  8
0
 62
7
  6
CONTINUOUS
 10
364.0809101343
 20
30.6358140973
 11
363.7340351343
 21
30.6358140973
  0
LINE
  8
0
 62
7
  6
CONTINUOUS
 10
368.5902854651
 20
30.7648688543
 11
368.3012227445
 21
30.7648688543
  0
LINE
  8
0
 62
7
  6
CONTINUOUS
 10
360.6121602997
 20
30.8293962497
 11
360.3230977445
 21
30.8293962497
  0
LINE
  8
0
 62
7
  6
CONTINUOUS
 10
359.6871602721
 20
31.4101426505
 11
360.091847717
 21
31.3778789641
  0
LINE
  8
0
 62
7
  6
CONTINUOUS
 10
360.1496602445
 20
31.5069337098
 11
359.744972717
 21
31.5391973962
  0
LINE
  8
0
 62
7
  6
CONTINUOUS
 10
368.7637229651
 20
30.5390230296
 11
369.1105979651
 21
30.5067593403
  0
LINE
  8
0
 62
7
  6
CONTINUOUS
 10
369.1105979651
 20
30.6358140973
 11
368.7637229651
 21
30.668077795
  0
LINE
  8
0
 62
7
  6
CONTINUOUS
 10
364.543410024
 20
31.5069337098
 11
364.1965353548
 21
31.5391973962
  0
LINE
  8
0
 62
7
  6
CONTINUOUS
 10
369.3418477445
 20
31.4101426505
 11
369.6887227445
 21
31.3778789641
  0
LINE
  8
0
 62
7
  6
CONTINUOUS
 10
369.6887227445
 20
31.5069337098
 11
369.3418477445
 21
31.5391973962
  0
LINE
  8
0
 62
7
  6
CONTINUOUS
 10
367.0293479651
 20
31.4101426505
 11
367.2605977445
 21
31.3778789641
  0
LINE
  8
0
 62
7
  6
CONTINUOUS
 10
369.8621602445
 20
31.4746700234
 11
369.6887227445
 21
31.5069337098
  0
LINE
  8
0
 62
7
  6
CONTINUOUS
 10
370.0355977445
 20
30.6035504109
 11
370.1512223035
 21
30.7003414814
  0
LINE
  8
0
 62
7
  6
CONTINUOUS
 10
364.543410024
 20
30.7971325633
 11
364.369972524
 21
30.7003414814
  0
LINE
  8
0
 62
7
  6
CONTINUOUS
 10
366.624660024
 20
31.4424063369
 11
366.5090354651
 21
31.3778789641
  0
LINE
  8
0
 62
7
  6
CONTINUOUS
 10
366.5090354651
 20
31.2488242184
 11
366.624660024
 21
31.3133515913
  0
LINE
  8
0
 62
7
  6
CONTINUOUS
 10
359.2246602583
 20
31.4746700234
 11
359.0512227376
 21
31.4101426505
  0
LINE
  8
0
 62
7
  6
CONTINUOUS
 10
361.6527851343
 20
31.5069337098
 11
361.4793477997
 21
31.4424063369
  0
LINE
  8
0
 62
7
  6
CONTINUOUS
 10
361.4793477997
 20
31.3133515913
 11
361.6527851343
 21
31.3778789641
  0
LINE
  8
0
 62
7
  6
CONTINUOUS
 10
360.2652852997
 20
30.7326051679
 11
360.091847717
 21
30.668077795
  0
LINE
  8
0
 62
7
  6
CONTINUOUS
 10
369.6887227445
 20
30.668077795
 11
369.4574729651
 21
30.6358140973
  0
LINE
  8
0
 62
7
  6
CONTINUOUS
 10
364.0809101343
 20
30.5067593403
 11
364.369972524
 21
30.5390230296
  0
LINE
  8
0
 62
7
  6
CONTINUOUS
 10
369.4574729651
 20
30.5067593403
 11
369.8043479651
 21
30.5390230296
  0
LINE
  8
0
 62
7
  6
CONTINUOUS
 10
359.744972717
 20
30.5067593403
 11
360.1496602445
 21
30.5390230296
  0
LINE
  8
0
 62
7
  6
CONTINUOUS
 10
360.091847717
 20
30.668077795
 11
359.6871602721
 21
30.6358140973
  0
LINE
  8
0
 62
7
  6
CONTINUOUS
 10
363.9652852445
 20
31.0552420547
 11
364.6012229651
 21
31.0552420547
  0
LINE
  8
0
 62
7
  6
CONTINUOUS
 10
364.6012229651
 20
31.1842968456
 11
363.9652852445
 21
31.1842968456
  0
LINE
  8
0
 62
7
  6
CONTINUOUS
 10
360.3230977445
 20
31.216560532
 11
360.6121602997
 21
31.216560532
  0
LINE
  8
0
 62
7
  6
CONTINUOUS
 10
363.1559103548
 20
31.2810879048
 11
363.4449727445
 21
31.2810879048
  0
LINE
  8
0
 62
7
  6
CONTINUOUS
 10
369.8621602445
 20
31.2810879048
 11
370.1512223035
 21
31.2810879048
  0
LINE
  8
0
 62
7
  6
CONTINUOUS
 10
363.8496603548
 20
31.4101426505
 11
364.1965353548
 21
31.4101426505
  0
LINE
  8
0
 62
7
  6
CONTINUOUS
 10
368.9949727445
 20
31.4101426505
 11
369.3418477445
 21
31.4101426505
  0
LINE
  8
0
 62
7
  6
CONTINUOUS
 10
369.3418477445
 20
31.5391973962
 11
368.9949727445
 21
31.5391973962
  0
LINE
  8
0
 62
7
  6
CONTINUOUS
 10
367.2605977445
 20
31.5391973962
 11
367.0293479651
 21
31.5391973962
  0
LINE
  8
0
 62
7
  6
CONTINUOUS
 10
366.5090354651
 20
31.5391973962
 11
366.2199727445
 21
31.5391973962
  0
LINE
  8
0
 62
7
  6
CONTINUOUS
 10
365.757472524
 20
31.5391973962
 11
365.4684104651
 21
31.5391973962
  0
LINE
  8
0
 62
7
  6
CONTINUOUS
 10
364.1965353548
 20
31.5391973962
 11
363.8496603548
 21
31.5391973962
  0
LINE
  8
0
 62
7
  6
CONTINUOUS
 10
362.1152853548
 20
31.5391973962
 11
361.8840352445
 21
31.5391973962
  0
LINE
  8
0
 62
7
  6
CONTINUOUS
 10
365.4684104651
 20
31.8618343508
 11
365.757472524
 21
31.8618343508
  0
LINE
  8
0
 62
7
  6
CONTINUOUS
 10
365.757472524
 20
32.0231527829
 11
365.4684104651
 21
32.0231527829
  0
LINE
  8
0
 62
7
  6
CONTINUOUS
 10
361.3637227445
 20
32.0231527829
 11
361.0746601894
 21
32.0231527829
  0
LINE
  8
0
 62
7
  6
CONTINUOUS
 10
360.4015045068
 20
32.3100380288
 11
360.8140758554
 21
32.3100380288
  0
LINE
  8
0
 62
7
  6
CONTINUOUS
 10
362.0408487691
 20
32.3100380288
 11
363.4342913921
 21
32.3100380288
  0
LINE
  8
0
 62
7
  6
CONTINUOUS
 10
363.7621602445
 20
32.3100380288
 11
365.1556028675
 21
32.3100380288
  0
LINE
  8
0
 62
7
  6
CONTINUOUS
 10
367.0408487691
 20
32.3100380288
 11
368.4342913921
 21
32.3100380288
  0
LINE
  8
0
 62
7
  6
CONTINUOUS
 10
368.7621602445
 20
32.3100380288
 11
370.1556028675
 21
32.3100380288
  0
LINE
  8
0
 62
7
  6
CONTINUOUS
 10
366.798097524
 20
31.5069337098
 11
366.624660024
 21
31.4424063369
  0
LINE
  8
0
 62
7
  6
CONTINUOUS
 10
364.369972524
 20
30.5390230296
 11
364.543410024
 21
30.6035504109
  0
LINE
  8
0
 62
7
  6
CONTINUOUS
 10
369.8043479651
 20
30.5390230296
 11
370.0355977445
 21
30.6035504109
  0
LINE
  8
0
 62
7
  6
CONTINUOUS
 10
369.8043479651
 20
30.7003414814
 11
369.6887227445
 21
30.668077795
  0
LINE
  8
0
 62
7
  6
CONTINUOUS
 10
368.7637229651
 20
31.3778789641
 11
368.9949727445
 21
31.4101426505
  0
LINE
  8
0
 62
7
  6
CONTINUOUS
 10
366.798097524
 20
31.3778789641
 11
367.0293479651
 21
31.4101426505
  0
LINE
  8
0
 62
7
  6
CONTINUOUS
 10
363.7340351343
 20
31.0229783683
 11
363.9652852445
 21
31.0552420547
  0
LINE
  8
0
 62
7
  6
CONTINUOUS
 10
367.0293479651
 20
31.5391973962
 11
366.798097524
 21
31.5069337098
  0
LINE
  8
0
 62
7
  6
CONTINUOUS
 10
363.6184102445
 20
31.3778789641
 11
363.8496603548
 21
31.4101426505
  0
LINE
  8
0
 62
7
  6
CONTINUOUS
 10
368.9949727445
 20
31.5391973962
 11
368.6480977445
 21
31.5069337098
  0
LINE
  8
0
 62
7
  6
CONTINUOUS
 10
363.9652852445
 20
31.1842968456
 11
363.6184102445
 21
31.1520331591
  0
LINE
  8
0
 62
7
  6
CONTINUOUS
 10
359.744972717
 20
31.5391973962
 11
359.3980977583
 21
31.5069337098
  0
LINE
  8
0
 62
7
  6
CONTINUOUS
 10
363.8496603548
 20
31.5391973962
 11
363.4449727445
 21
31.5069337098
  0
LINE
  8
0
 62
7
  6
CONTINUOUS
 10
361.221176638
 20
33.4575790124
 11
360.565438933
 21
33.4575790124
  0
LINE
  8
0
 62
7
  6
CONTINUOUS
 10
366.624660024
 20
31.3133515913
 11
366.798097524
 21
31.3778789641
  0
LINE
  8
0
 62
7
  6
CONTINUOUS
 10
368.6480977445
 20
31.3456152777
 11
368.7637229651
 21
31.3778789641
  0
LINE
  8
0
 62
7
  6
CONTINUOUS
 10
368.6480977445
 20
31.5069337098
 11
368.4168479651
 21
31.4424063369
  0
LINE
  8
0
 62
7
  6
CONTINUOUS
 10
364.369972524
 20
30.7003414814
 11
364.0809101343
 21
30.6358140973
  0
LINE
  8
0
 62
7
  6
CONTINUOUS
 10
361.6527851343
 20
31.3778789641
 11
361.8840352445
 21
31.4101426505
  0
LINE
  8
0
 62
7
  6
CONTINUOUS
 10
361.8840352445
 20
31.5391973962
 11
361.6527851343
 21
31.5069337098
  0
LINE
  8
0
 62
7
  6
CONTINUOUS
 10
359.4559102445
 20
31.3778789641
 11
359.6871602721
 21
31.4101426505
  0
LINE
  8
0
 62
7
  6
CONTINUOUS
 10
365.9752749986
 20
34.9329888485
 11
366.6310127035
 21
34.9329888485
  0
LINE
  8
0
 62
7
  6
CONTINUOUS
 10
363.6184102445
 20
30.9907146818
 11
363.7340351343
 21
31.0229783683
  0
LINE
  8
0
 62
7
  6
CONTINUOUS
 10
363.6184102445
 20
31.1520331591
 11
363.3871601343
 21
31.0875057863
  0
LINE
  8
0
 62
7
  6
CONTINUOUS
 10
363.5027853548
 20
31.3456152777
 11
363.6184102445
 21
31.3778789641
  0
LINE
  8
0
 62
7
  6
CONTINUOUS
 10
360.1496602445
 20
30.5390230296
 11
360.3809101894
 21
30.6035504109
  0
LINE
  8
0
 62
7
  6
CONTINUOUS
 10
363.4449727445
 20
31.5069337098
 11
363.3293478548
 21
31.4746700234
  0
LINE
  8
0
 62
7
  6
CONTINUOUS
 10
359.3980977583
 20
31.5069337098
 11
359.2246602583
 21
31.4746700234
  0
LINE
  8
0
 62
7
  6
CONTINUOUS
 10
370.1556028675
 20
36.0805298321
 11
368.7621602445
 21
36.0805298321
  0
LINE
  8
0
 62
7
  6
CONTINUOUS
 10
366.7949471298
 20
36.0805298321
 11
366.3823757812
 21
36.0805298321
  0
LINE
  8
0
 62
7
  6
CONTINUOUS
 10
365.1556028675
 20
36.0805298321
 11
363.7621602445
 21
36.0805298321
  0
LINE
  8
0
 62
7
  6
CONTINUOUS
 10
363.4342913921
 20
36.0805298321
 11
362.0408487691
 21
36.0805298321
  0
LINE
  8
0
 62
7
  6
CONTINUOUS
 10
360.1556028675
 20
36.0805298321
 11
358.7621602445
 21
36.0805298321
  0
LINE
  8
0
 62
7
  6
CONTINUOUS
 10
359.3402852307
 20
31.3456152777
 11
359.4559102445
 21
31.3778789641
  0
CIRCLE
  8
0
 62
7
  6
CONTINUOUS
 10
369.458881556
 20
38.4165954059
 40
2.0901639344
  0
ARC
  8
0
 62
7
  6
CONTINUOUS
 10
360.4015045068
 20
33.9493822911
 40
1.6393442623
 50
180.0
 51
270.0
  0
ARC
  8
0
 62
7
  6
CONTINUOUS
 10
366.7949471298
 20
34.4411855698
 40
1.6393442623
 50
0.0
 51
90.0
  0
ARC
  8
0
 62
7
  6
CONTINUOUS
 10
360.8140758554
 20
33.7854478649
 40
1.4754098361
 50
270.0
 51
326.2510114041
  0
ARC
  8
0
 62
7
  6
CONTINUOUS
 10
366.3823757812
 20
34.6051199961
 40
1.4754098361
 50
90.0
 51
146.2510114041
  0
ARC
  8
0
 62
7
  6
CONTINUOUS
 10
361.221176638
 20
34.2772511436
 40
0.8196721311
 50
270.0
 51
360.0
  0
ARC
  8
0
 62
7
  6
CONTINUOUS
 10
365.9752749986
 20
34.1133167174
 40
0.8196721311
 50
90.0
 51
180.0
  0
ARC
  8
0
 62
7
  6
CONTINUOUS
 10
360.565438933
 20
33.867415078
 40
0.4098360656
 50
180.0
 51
270.0
  0
ARC
  8
0
 62
7
  6
CONTINUOUS
 10
366.6310127035
 20
34.5231527829
 40
0.4098360656
 50
0.0
 51
90.0
  0
SOLID
  8
0
 62
7
  6
CONTINUOUS
 10
365.4684104651
 20
31.8618347111
 11
365.4684104651
 21
32.0231531947
 12
365.757472524
 22
31.8618347111
 13
365.757472524
 23
32.0231531947
  0
SOLID
  8
0
 62
7
  6
CONTINUOUS
 10
359.744972717
 20
31.5391977439
 11
360.1496602445
 21
31.5069333244
 12
359.3980977583
 22
31.5069333244
 13
359.3980977583
 23
31.5069333244
  0
SOLID
  8
0
 62
7
  6
CONTINUOUS
 10
359.2246602583
 20
31.4746706537
 11
359.3980977583
 21
31.5069333244
 12
360.1496602445
 22
31.5069333244
 13
360.1496602445
 23
31.5069333244
  0
SOLID
  8
0
 62
7
  6
CONTINUOUS
 10
360.1496602445
 20
31.5069333244
 11
360.3809101894
 21
31.4424063504
 12
359.2246602583
 22
31.4746706537
 13
359.2246602583
 23
31.4746706537
  0
SOLID
  8
0
 62
7
  6
CONTINUOUS
 10
359.0512227376
 20
31.4101419116
 11
359.2246602583
 21
31.4746706537
 12
360.3809101894
 22
31.4424063504
 13
360.3809101894
 23
31.4424063504
  0
SOLID
  8
0
 62
7
  6
CONTINUOUS
 10
359.0512227376
 20
31.4101419116
 11
360.3809101894
 21
31.4424063504
 12
359.6871602721
 22
31.4101419116
 13
359.6871602721
 23
31.4101419116
  0
SOLID
  8
0
 62
7
  6
CONTINUOUS
 10
359.6871602721
 20
31.4101419116
 11
360.3809101894
 21
31.4424063504
 12
360.091847717
 22
31.3778792603
 13
360.091847717
 23
31.3778792603
  0
SOLID
  8
0
 62
7
  6
CONTINUOUS
 10
360.3809101894
 20
31.4424063504
 11
360.5543476894
 21
31.345614957
 12
360.091847717
 22
31.3778792603
 13
360.091847717
 23
31.3778792603
  0
SOLID
  8
0
 62
7
  6
CONTINUOUS
 10
360.2652852997
 20
31.3133521701
 11
360.091847717
 21
31.3778792603
 12
360.5543476894
 22
31.345614957
 13
360.5543476894
 23
31.345614957
  0
SOLID
  8
0
 62
7
  6
CONTINUOUS
 10
360.2652852997
 20
31.3133521701
 11
360.5543476894
 21
31.345614957
 12
360.3230977445
 22
31.2165606992
 13
360.3230977445
 23
31.2165606992
  0
SOLID
  8
0
 62
7
  6
CONTINUOUS
 10
360.5543476894
 20
31.345614957
 11
360.6121602997
 21
31.2165606992
 12
360.3230977445
 22
31.2165606992
 13
360.3230977445
 23
31.2165606992
  0
SOLID
  8
0
 62
7
  6
CONTINUOUS
 10
361.6527851343
 20
31.5069329918
 11
361.8840352445
 21
31.5391972951
 12
362.1152853548
 22
31.5391972951
 13
362.1152853548
 23
31.5391972951
  0
SOLID
  8
0
 62
7
  6
CONTINUOUS
 10
362.1152853548
 20
31.5391972951
 11
362.2887228548
 21
31.5069329918
 12
361.6527851343
 22
31.5069329918
 13
361.6527851343
 23
31.5069329918
  0
SOLID
  8
0
 62
7
  6
CONTINUOUS
 10
361.4793477997
 20
31.4424059016
 11
361.6527851343
 21
31.5069329918
 12
362.2887228548
 22
31.5069329918
 13
362.2887228548
 23
31.5069329918
  0
SOLID
  8
0
 62
7
  6
CONTINUOUS
 10
362.2887228548
 20
31.5069329918
 11
362.4621603548
 21
31.4424059016
 12
361.4793477997
 22
31.4424059016
 13
361.4793477997
 23
31.4424059016
  0
SOLID
  8
0
 62
7
  6
CONTINUOUS
 10
362.4621603548
 20
31.4424059016
 11
361.8840352445
 21
31.4101420472
 12
361.4793477997
 22
31.4424059016
 13
361.4793477997
 23
31.4424059016
  0
SOLID
  8
0
 62
7
  6
CONTINUOUS
 10
361.3637227445
 20
31.3778788115
 11
361.4793477997
 21
31.4424059016
 12
361.8840352445
 22
31.4101420472
 13
361.8840352445
 23
31.4101420472
  0
SOLID
  8
0
 62
7
  6
CONTINUOUS
 10
361.8840352445
 20
31.4101420472
 11
361.6527851343
 21
31.3778788115
 12
361.3637227445
 22
31.3778788115
 13
361.3637227445
 23
31.3778788115
  0
SOLID
  8
0
 62
7
  6
CONTINUOUS
 10
361.8840352445
 20
31.4101420472
 11
362.4621603548
 21
31.4424059016
 12
362.1152853548
 22
31.3778788115
 13
362.1152853548
 23
31.3778788115
  0
SOLID
  8
0
 62
7
  6
CONTINUOUS
 10
362.4621603548
 20
31.4424059016
 11
362.5777852445
 21
31.3778788115
 12
362.1152853548
 22
31.3778788115
 13
362.1152853548
 23
31.3778788115
  0
SOLID
  8
0
 62
7
  6
CONTINUOUS
 10
362.2309102445
 20
31.345614957
 11
362.1152853548
 21
31.3778788115
 12
362.5777852445
 22
31.3778788115
 13
362.5777852445
 23
31.3778788115
  0
SOLID
  8
0
 62
7
  6
CONTINUOUS
 10
362.5777852445
 20
31.3778788115
 11
362.6355978548
 21
31.3133517213
 12
362.2309102445
 22
31.345614957
 13
362.2309102445
 23
31.345614957
  0
SOLID
  8
0
 62
7
  6
CONTINUOUS
 10
362.3465351343
 20
31.2810878668
 11
362.2309102445
 21
31.345614957
 12
362.6355978548
 22
31.3133517213
 13
362.6355978548
 23
31.3133517213
  0
SOLID
  8
0
 62
7
  6
CONTINUOUS
 10
362.3465351343
 20
31.2810878668
 11
362.6355978548
 21
31.3133517213
 12
362.4043477445
 22
31.1520332377
 13
362.4043477445
 23
31.1520332377
  0
SOLID
  8
0
 62
7
  6
CONTINUOUS
 10
362.6355978548
 20
31.3133517213
 11
362.6934101343
 21
31.1520332377
 12
362.4043477445
 22
31.1520332377
 13
362.4043477445
 23
31.1520332377
  0
SOLID
  8
0
 62
7
  6
CONTINUOUS
 10
361.6527851343
 20
31.3778788115
 11
361.4793477997
 21
31.3133517213
 12
361.3637227445
 22
31.3778788115
 13
361.3637227445
 23
31.3778788115
  0
SOLID
  8
0
 62
7
  6
CONTINUOUS
 10
361.4793477997
 20
31.3133517213
 11
361.3637227445
 21
31.2488235635
 12
361.3637227445
 22
31.3778788115
 13
361.3637227445
 23
31.3778788115
  0
SOLID
  8
0
 62
7
  6
CONTINUOUS
 10
361.3637227445
 20
31.2488235635
 11
361.0746601894
 21
30.5067593033
 12
361.3637227445
 22
31.3778788115
 13
361.3637227445
 23
31.3778788115
  0
SOLID
  8
0
 62
7
  6
CONTINUOUS
 10
361.3637227445
 20
31.3778788115
 11
361.0746601894
 21
30.5067593033
 12
361.3637227445
 22
32.0231527459
 13
361.3637227445
 23
32.0231527459
  0
SOLID
  8
0
 62
7
  6
CONTINUOUS
 10
361.0746601894
 20
30.5067593033
 11
361.0746601894
 21
32.0231527459
 12
361.3637227445
 22
32.0231527459
 13
361.3637227445
 23
32.0231527459
  0
SOLID
  8
0
 62
7
  6
CONTINUOUS
 10
361.3637227445
 20
31.2488235635
 11
361.3637227445
 21
30.5067593033
 12
361.0746601894
 22
30.5067593033
 13
361.0746601894
 23
30.5067593033
  0
SOLID
  8
0
 62
7
  6
CONTINUOUS
 10
362.4043477445
 20
30.5067593033
 11
362.4043477445
 21
31.1520332377
 12
362.6934101343
 22
31.1520332377
 13
362.6934101343
 23
31.1520332377
  0
SOLID
  8
0
 62
7
  6
CONTINUOUS
 10
362.6934101343
 20
31.1520332377
 11
362.6934101343
 21
30.5067593033
 12
362.4043477445
 22
30.5067593033
 13
362.4043477445
 23
30.5067593033
  0
SOLID
  8
0
 62
7
  6
CONTINUOUS
 10
363.4449727445
 20
31.506933758
 11
363.8496603548
 21
31.5391977507
 12
364.1965353548
 22
31.5391977507
 13
364.1965353548
 23
31.5391977507
  0
SOLID
  8
0
 62
7
  6
CONTINUOUS
 10
364.1965353548
 20
31.5391977507
 11
364.543410024
 21
31.506933758
 12
363.4449727445
 22
31.506933758
 13
363.4449727445
 23
31.506933758
  0
SOLID
  8
0
 62
7
  6
CONTINUOUS
 10
363.3293478548
 20
31.4746706537
 11
363.4449727445
 21
31.506933758
 12
364.543410024
 22
31.506933758
 13
364.543410024
 23
31.506933758
  0
SOLID
  8
0
 62
7
  6
CONTINUOUS
 10
364.543410024
 20
31.506933758
 11
364.716847524
 21
31.4424063504
 12
363.3293478548
 22
31.4746706537
 13
363.3293478548
 23
31.4746706537
  0
SOLID
  8
0
 62
7
  6
CONTINUOUS
 10
363.2137226343
 20
31.4101417797
 11
363.3293478548
 21
31.4746706537
 12
364.716847524
 22
31.4424063504
 13
364.716847524
 23
31.4424063504
  0
SOLID
  8
0
 62
7
  6
CONTINUOUS
 10
363.2137226343
 20
31.4101417797
 11
364.716847524
 21
31.4424063504
 12
363.8496603548
 22
31.4101417797
 13
363.8496603548
 23
31.4101417797
  0
SOLID
  8
0
 62
7
  6
CONTINUOUS
 10
363.8496603548
 20
31.4101417797
 11
364.716847524
 21
31.4424063504
 12
364.1965353548
 22
31.4101417797
 13
364.1965353548
 23
31.4101417797
  0
SOLID
  8
0
 62
7
  6
CONTINUOUS
 10
364.1965353548
 20
31.4101417797
 11
364.716847524
 21
31.4424063504
 12
364.4277854651
 22
31.3778793357
 13
364.4277854651
 23
31.3778793357
  0
SOLID
  8
0
 62
7
  6
CONTINUOUS
 10
364.716847524
 20
31.4424063504
 11
364.8324727445
 21
31.3778793357
 12
364.4277854651
 22
31.3778793357
 13
364.4277854651
 23
31.3778793357
  0
SOLID
  8
0
 62
7
  6
CONTINUOUS
 10
363.1559103548
 20
31.3456153429
 11
363.2137226343
 21
31.4101417797
 12
363.8496603548
 22
31.4101417797
 13
363.8496603548
 23
31.4101417797
  0
SOLID
  8
0
 62
7
  6
CONTINUOUS
 10
364.543410024
 20
31.3456153429
 11
364.4277854651
 21
31.3778793357
 12
364.8324727445
 22
31.3778793357
 13
364.8324727445
 23
31.3778793357
  0
SOLID
  8
0
 62
7
  6
CONTINUOUS
 10
364.543410024
 20
31.3456153429
 11
364.8324727445
 21
31.3778793357
 12
364.6012229651
 22
31.2810881318
 13
364.6012229651
 23
31.2810881318
  0
SOLID
  8
0
 62
7
  6
CONTINUOUS
 10
364.8324727445
 20
31.3778793357
 11
364.890285024
 21
31.2810881318
 12
364.6012229651
 22
31.2810881318
 13
364.6012229651
 23
31.2810881318
  0
SOLID
  8
0
 62
7
  6
CONTINUOUS
 10
364.6012229651
 20
31.1842964734
 11
364.6012229651
 21
31.2810881318
 12
364.890285024
 22
31.2810881318
 13
364.890285024
 23
31.2810881318
  0
SOLID
  8
0
 62
7
  6
CONTINUOUS
 10
364.6012229651
 20
31.1842964734
 11
364.890285024
 21
31.2810881318
 12
364.6012229651
 22
31.0552422931
 13
364.6012229651
 23
31.0552422931
  0
SOLID
  8
0
 62
7
  6
CONTINUOUS
 10
364.6012229651
 20
31.0552422931
 11
364.890285024
 21
31.2810881318
 12
364.6012229651
 22
30.8616599362
 13
364.6012229651
 23
30.8616599362
  0
SOLID
  8
0
 62
7
  6
CONTINUOUS
 10
364.890285024
 20
31.2810881318
 11
364.890285024
 21
30.7648681127
 12
364.6012229651
 22
30.8616599362
 13
364.6012229651
 23
30.8616599362
  0
SOLID
  8
0
 62
7
  6
CONTINUOUS
 10
366.798097524
 20
31.5069339419
 11
367.0293479651
 21
31.5391976292
 12
367.2605977445
 22
31.5391976292
 13
367.2605977445
 23
31.5391976292
  0
SOLID
  8
0
 62
7
  6
CONTINUOUS
 10
367.2605977445
 20
31.5391976292
 11
367.4340352445
 21
31.5069339419
 12
366.798097524
 22
31.5069339419
 13
366.798097524
 23
31.5069339419
  0
SOLID
  8
0
 62
7
  6
CONTINUOUS
 10
366.624660024
 20
31.4424065674
 11
366.798097524
 21
31.5069339419
 12
367.4340352445
 22
31.5069339419
 13
367.4340352445
 23
31.5069339419
  0
SOLID
  8
0
 62
7
  6
CONTINUOUS
 10
367.4340352445
 20
31.5069339419
 11
367.6074727445
 21
31.4424065674
 12
366.624660024
 22
31.4424065674
 13
366.624660024
 23
31.4424065674
  0
SOLID
  8
0
 62
7
  6
CONTINUOUS
 10
367.6074727445
 20
31.4424065674
 11
367.0293479651
 21
31.4101420472
 12
366.624660024
 22
31.4424065674
 13
366.624660024
 23
31.4424065674
  0
SOLID
  8
0
 62
7
  6
CONTINUOUS
 10
366.5090354651
 20
31.377879193
 11
366.624660024
 21
31.4424065674
 12
367.0293479651
 22
31.4101420472
 13
367.0293479651
 23
31.4101420472
  0
SOLID
  8
0
 62
7
  6
CONTINUOUS
 10
367.0293479651
 20
31.4101420472
 11
366.798097524
 21
31.377879193
 12
366.5090354651
 22
31.377879193
 13
366.5090354651
 23
31.377879193
  0
SOLID
  8
0
 62
7
  6
CONTINUOUS
 10
367.0293479651
 20
31.4101420472
 11
367.6074727445
 21
31.4424065674
 12
367.2605977445
 22
31.377879193
 13
367.2605977445
 23
31.377879193
  0
SOLID
  8
0
 62
7
  6
CONTINUOUS
 10
367.6074727445
 20
31.4424065674
 11
367.7230979651
 21
31.377879193
 12
367.2605977445
 22
31.377879193
 13
367.2605977445
 23
31.377879193
  0
SOLID
  8
0
 62
7
  6
CONTINUOUS
 10
367.3762229651
 20
31.345614957
 11
367.2605977445
 21
31.377879193
 12
367.7230979651
 22
31.377879193
 13
367.7230979651
 23
31.377879193
  0
SOLID
  8
0
 62
7
  6
CONTINUOUS
 10
367.3762229651
 20
31.345614957
 11
367.7230979651
 21
31.377879193
 12
367.491847524
 22
31.2810881312
 13
367.491847524
 23
31.2810881312
  0
SOLID
  8
0
 62
7
  6
CONTINUOUS
 10
367.7230979651
 20
31.377879193
 11
367.7809102445
 21
31.2810881312
 12
367.491847524
 22
31.2810881312
 13
367.491847524
 23
31.2810881312
  0
SOLID
  8
0
 62
7
  6
CONTINUOUS
 10
367.5496604651
 20
31.119769695
 11
367.491847524
 21
31.2810881312
 12
367.7809102445
 22
31.2810881312
 13
367.7809102445
 23
31.2810881312
  0
SOLID
  8
0
 62
7
  6
CONTINUOUS
 10
367.7809102445
 20
31.2810881312
 11
367.838722524
 21
31.119769695
 12
367.5496604651
 22
31.119769695
 13
367.5496604651
 23
31.119769695
  0
SOLID
  8
0
 62
7
  6
CONTINUOUS
 10
366.798097524
 20
31.377879193
 11
366.624660024
 21
31.3133521701
 12
366.5090354651
 22
31.377879193
 13
366.5090354651
 23
31.377879193
  0
SOLID
  8
0
 62
7
  6
CONTINUOUS
 10
366.624660024
 20
31.3133521701
 11
366.5090354651
 21
31.2488235635
 12
366.5090354651
 22
31.377879193
 13
366.5090354651
 23
31.377879193
  0
SOLID
  8
0
 62
7
  6
CONTINUOUS
 10
366.5090354651
 20
31.2488235635
 11
366.2199727445
 21
30.5067596374
 12
366.5090354651
 22
31.377879193
 13
366.5090354651
 23
31.377879193
  0
SOLID
  8
0
 62
7
  6
CONTINUOUS
 10
366.5090354651
 20
31.377879193
 11
366.2199727445
 21
30.5067596374
 12
366.5090354651
 22
31.5391976292
 13
366.5090354651
 23
31.5391976292
  0
SOLID
  8
0
 62
7
  6
CONTINUOUS
 10
366.2199727445
 20
30.5067596374
 11
366.2199727445
 21
31.5391976292
 12
366.5090354651
 22
31.5391976292
 13
366.5090354651
 23
31.5391976292
  0
SOLID
  8
0
 62
7
  6
CONTINUOUS
 10
366.5090354651
 20
31.2488235635
 11
366.5090354651
 21
30.5067596374
 12
366.2199727445
 22
30.5067596374
 13
366.2199727445
 23
30.5067596374
  0
SOLID
  8
0
 62
7
  6
CONTINUOUS
 10
367.5496604651
 20
30.5067596374
 11
367.5496604651
 21
31.119769695
 12
367.838722524
 22
31.119769695
 13
367.838722524
 23
31.119769695
  0
SOLID
  8
0
 62
7
  6
CONTINUOUS
 10
367.838722524
 20
31.119769695
 11
367.838722524
 21
30.5067596374
 12
367.5496604651
 22
30.5067596374
 13
367.5496604651
 23
30.5067596374
  0
SOLID
  8
0
 62
7
  6
CONTINUOUS
 10
368.6480977445
 20
31.5069334157
 11
368.9949727445
 21
31.539197762
 12
369.3418477445
 22
31.539197762
 13
369.3418477445
 23
31.539197762
  0
SOLID
  8
0
 62
7
  6
CONTINUOUS
 10
369.3418477445
 20
31.539197762
 11
369.6887227445
 21
31.5069334157
 12
368.6480977445
 22
31.5069334157
 13
368.6480977445
 23
31.5069334157
  0
SOLID
  8
0
 62
7
  6
CONTINUOUS
 10
368.4168479651
 20
31.4424063504
 11
368.6480977445
 21
31.5069334157
 12
369.6887227445
 22
31.5069334157
 13
369.6887227445
 23
31.5069334157
  0
SOLID
  8
0
 62
7
  6
CONTINUOUS
 10
368.4168479651
 20
31.4424063504
 11
369.6887227445
 21
31.5069334406
 12
369.8621602445
 22
31.4746706537
 13
369.8621602445
 23
31.4746706537
  0
SOLID
  8
0
 62
7
  6
CONTINUOUS
 10
368.4168479651
 20
31.4424063504
 11
369.8621602445
 21
31.4746706537
 12
368.9949727445
 22
31.4101421267
 13
368.9949727445
 23
31.4101421267
  0
SOLID
  8
0
 62
7
  6
CONTINUOUS
 10
368.9949727445
 20
31.4101421267
 11
369.8621602445
 21
31.4746706537
 12
369.3418477445
 22
31.4101421267
 13
369.3418477445
 23
31.4101421267
  0
SOLID
  8
0
 62
7
  6
CONTINUOUS
 10
369.8621602445
 20
31.4746706537
 11
370.0355977445
 21
31.4101421267
 12
369.3418477445
 22
31.4101421267
 13
369.3418477445
 23
31.4101421267
  0
SOLID
  8
0
 62
7
  6
CONTINUOUS
 10
369.6887227445
 20
31.3778792603
 11
369.3418477445
 21
31.4101421267
 12
370.0355977445
 22
31.4101421267
 13
370.0355977445
 23
31.4101421267
  0
SOLID
  8
0
 62
7
  6
CONTINUOUS
 10
368.3012227445
 20
31.3456148845
 11
368.4168479651
 21
31.4424063504
 12
368.9949727445
 22
31.4101421267
 13
368.9949727445
 23
31.4101421267
  0
SOLID
  8
0
 62
7
  6
CONTINUOUS
 10
369.6887227445
 20
31.3778792603
 11
370.0355977445
 21
31.4101421267
 12
369.8043479651
 22
31.3456148845
 13
369.8043479651
 23
31.3456148845
  0
SOLID
  8
0
 62
7
  6
CONTINUOUS
 10
369.8043479651
 20
31.3456148845
 11
370.0355977445
 21
31.4101421267
 12
369.8621602445
 22
31.281087868
 13
369.8621602445
 23
31.281087868
  0
SOLID
  8
0
 62
7
  6
CONTINUOUS
 10
370.0355977445
 20
31.4101421267
 11
370.1512223035
 21
31.281087868
 12
369.8621602445
 22
31.281087868
 13
369.8621602445
 23
31.281087868
  0
SOLID
  8
0
 62
7
  6
CONTINUOUS
 10
359.4559102445
 20
31.3778792603
 11
358.9355977445
 21
31.3456148963
 12
359.6871602721
 22
31.4101421155
 13
359.6871602721
 23
31.4101421155
  0
SOLID
  8
0
 62
7
  6
CONTINUOUS
 10
358.9355977445
 20
31.3456148963
 11
359.0512227376
 21
31.4101421155
 12
359.6871602721
 22
31.4101421155
 13
359.6871602721
 23
31.4101421155
  0
SOLID
  8
0
 62
7
  6
CONTINUOUS
 10
359.4559102445
 20
31.3778792603
 11
359.3402852307
 21
31.3456148963
 12
358.9355977445
 22
31.3456148963
 13
358.9355977445
 23
31.3456148963
  0
SOLID
  8
0
 62
7
  6
CONTINUOUS
 10
358.8199727462
 20
31.2165607767
 11
358.9355977445
 21
31.3456148963
 12
359.3402852307
 22
31.3456148963
 13
359.3402852307
 23
31.3456148963
  0
SOLID
  8
0
 62
7
  6
CONTINUOUS
 10
363.1559103548
 20
31.3456149608
 11
363.8496603548
 21
31.4101420472
 12
363.6184102445
 22
31.3778792603
 13
363.6184102445
 23
31.3778792603
  0
SOLID
  8
0
 62
7
  6
CONTINUOUS
 10
363.6184102445
 20
31.3778792603
 11
363.5027853548
 21
31.3456149608
 12
363.1559103548
 22
31.3456149608
 13
363.1559103548
 23
31.3456149608
  0
SOLID
  8
0
 62
7
  6
CONTINUOUS
 10
363.1559103548
 20
31.2810878707
 11
363.1559103548
 21
31.3456149608
 12
363.5027853548
 22
31.3456149608
 13
363.5027853548
 23
31.3456149608
  0
SOLID
  8
0
 62
7
  6
CONTINUOUS
 10
363.5027853548
 20
31.3456149608
 11
363.4449727445
 21
31.2810878707
 12
363.1559103548
 22
31.2810878707
 13
363.1559103548
 23
31.2810878707
  0
SOLID
  8
0
 62
7
  6
CONTINUOUS
 10
368.3012227445
 20
31.3456149608
 11
368.9949727445
 21
31.4101420472
 12
368.7637229651
 22
31.3778792603
 13
368.7637229651
 23
31.3778792603
  0
SOLID
  8
0
 62
7
  6
CONTINUOUS
 10
368.7637229651
 20
31.3778792603
 11
368.6480977445
 21
31.3456149608
 12
368.3012227445
 22
31.3456149608
 13
368.3012227445
 23
31.3456149608
  0
SOLID
  8
0
 62
7
  6
CONTINUOUS
 10
368.3012227445
 20
31.2810878707
 11
368.3012227445
 21
31.3456149608
 12
368.6480977445
 22
31.3456149608
 13
368.6480977445
 23
31.3456149608
  0
SOLID
  8
0
 62
7
  6
CONTINUOUS
 10
368.6480977445
 20
31.3456149608
 11
368.5902854651
 21
31.2810878707
 12
368.3012227445
 22
31.2810878707
 13
368.3012227445
 23
31.2810878707
  0
SOLID
  8
0
 62
7
  6
CONTINUOUS
 10
368.4168479651
 20
31.1520336865
 11
368.3012227445
 21
31.2810878707
 12
368.5902854651
 22
31.2810878707
 13
368.5902854651
 23
31.2810878707
  0
SOLID
  8
0
 62
7
  6
CONTINUOUS
 10
358.8199727462
 20
31.2165607767
 11
359.3402852307
 21
31.345614957
 12
359.1668477307
 22
31.2488235635
 13
359.1668477307
 23
31.2488235635
  0
SOLID
  8
0
 62
7
  6
CONTINUOUS
 10
359.1668477307
 20
31.2488235635
 11
359.1090352445
 21
31.1842964734
 12
358.8199727462
 22
31.2165607767
 13
358.8199727462
 23
31.2165607767
  0
SOLID
  8
0
 62
7
  6
CONTINUOUS
 10
358.7621602445
 20
31.0229779898
 11
358.8199727462
 21
31.2165607767
 12
359.1090352445
 22
31.1842964734
 13
359.1090352445
 23
31.1842964734
  0
SOLID
  8
0
 62
7
  6
CONTINUOUS
 10
363.6184102445
 20
31.1520336865
 11
363.9652852445
 21
31.1842964611
 12
364.6012229651
 22
31.1842964611
 13
364.6012229651
 23
31.1842964611
  0
SOLID
  8
0
 62
7
  6
CONTINUOUS
 10
363.6184102445
 20
31.1520336865
 11
364.6012229651
 21
31.1842964611
 12
363.3871601343
 22
31.0875057863
 13
363.3871601343
 23
31.0875057863
  0
SOLID
  8
0
 62
7
  6
CONTINUOUS
 10
363.3871601343
 20
31.0875057863
 11
364.6012229651
 21
31.1842964611
 12
363.9652852445
 22
31.0552422808
 13
363.9652852445
 23
31.0552422808
  0
SOLID
  8
0
 62
7
  6
CONTINUOUS
 10
364.6012229651
 20
31.1842964611
 11
364.6012229651
 21
31.0552422808
 12
363.9652852445
 22
31.0552422808
 13
363.9652852445
 23
31.0552422808
  0
SOLID
  8
0
 62
7
  6
CONTINUOUS
 10
368.4168479651
 20
31.1520338754
 11
368.5902854651
 21
31.2810878668
 12
368.6480977445
 22
31.2165607767
 13
368.6480977445
 23
31.2165607767
  0
SOLID
  8
0
 62
7
  6
CONTINUOUS
 10
368.6480977445
 20
31.2165607767
 11
368.8215352445
 21
31.1520338754
 12
368.4168479651
 22
31.1520338754
 13
368.4168479651
 23
31.1520338754
  0
SOLID
  8
0
 62
7
  6
CONTINUOUS
 10
368.6480977445
 20
31.0552422931
 11
368.4168479651
 21
31.1520338754
 12
368.8215352445
 22
31.1520338754
 13
368.8215352445
 23
31.1520338754
  0
SOLID
  8
0
 62
7
  6
CONTINUOUS
 10
368.8215352445
 20
31.1520338754
 11
369.8043479651
 21
30.9907152029
 12
368.6480977445
 22
31.0552422931
 13
368.6480977445
 23
31.0552422931
  0
SOLID
  8
0
 62
7
  6
CONTINUOUS
 10
369.6309104651
 20
30.8939239876
 11
368.6480977445
 21
31.0552422931
 12
369.8043479651
 22
30.9907152029
 13
369.8043479651
 23
30.9907152029
  0
SOLID
  8
0
 62
7
  6
CONTINUOUS
 10
369.8043479651
 20
30.9907152029
 11
370.0355977445
 21
30.8939239876
 12
369.6309104651
 22
30.8939239876
 13
369.6309104651
 23
30.8939239876
  0
SOLID
  8
0
 62
7
  6
CONTINUOUS
 10
369.8043479651
 20
30.8293967193
 11
369.6309104651
 21
30.8939239876
 12
370.0355977445
 22
30.8939239876
 13
370.0355977445
 23
30.8939239876
  0
SOLID
  8
0
 62
7
  6
CONTINUOUS
 10
369.8043479651
 20
30.8293967193
 11
370.0355977445
 21
30.8939239876
 12
369.8621602445
 22
30.7648682694
 13
369.8621602445
 23
30.7648682694
  0
SOLID
  8
0
 62
7
  6
CONTINUOUS
 10
370.0355977445
 20
30.8939239876
 11
370.1512223035
 21
30.7648682694
 12
369.8621602445
 22
30.7648682694
 13
369.8621602445
 23
30.7648682694
  0
SOLID
  8
0
 62
7
  6
CONTINUOUS
 10
369.8043479651
 20
30.7003411846
 11
369.8621602445
 21
30.7648682694
 12
370.1512223035
 22
30.7648682694
 13
370.1512223035
 23
30.7648682694
  0
SOLID
  8
0
 62
7
  6
CONTINUOUS
 10
370.1512223035
 20
30.7648682694
 11
370.1512223035
 21
30.7003411846
 12
369.8043479651
 22
30.7003411846
 13
369.8043479651
 23
30.7003411846
  0
SOLID
  8
0
 62
7
  6
CONTINUOUS
 10
369.6887227445
 20
30.6680782357
 11
369.8043479651
 21
30.7003411846
 12
370.1512223035
 22
30.7003411846
 13
370.1512223035
 23
30.7003411846
  0
SOLID
  8
0
 62
7
  6
CONTINUOUS
 10
369.6887227445
 20
30.6680782357
 11
370.1512223035
 21
30.7003411846
 12
369.4574729651
 22
30.6358140998
 13
369.4574729651
 23
30.6358140998
  0
SOLID
  8
0
 62
7
  6
CONTINUOUS
 10
370.1512223035
 20
30.7003411846
 11
370.0355977445
 21
30.6035511455
 12
369.4574729651
 22
30.6358140998
 13
369.4574729651
 23
30.6358140998
  0
SOLID
  8
0
 62
7
  6
CONTINUOUS
 10
370.0355977445
 20
30.6035511455
 11
368.5902854651
 21
30.5712868422
 12
369.4574729651
 22
30.6358140998
 13
369.4574729651
 23
30.6358140998
  0
SOLID
  8
0
 62
7
  6
CONTINUOUS
 10
369.4574729651
 20
30.6358140998
 11
368.5902854651
 21
30.5712868422
 12
369.1105979651
 22
30.6358140998
 13
369.1105979651
 23
30.6358140998
  0
SOLID
  8
0
 62
7
  6
CONTINUOUS
 10
368.5902854651
 20
30.5712868422
 11
368.4168479651
 21
30.6358140998
 12
369.1105979651
 22
30.6358140998
 13
369.1105979651
 23
30.6358140998
  0
SOLID
  8
0
 62
7
  6
CONTINUOUS
 10
368.5902854651
 20
30.5712868422
 11
370.0355977445
 21
30.6035511455
 12
368.7637229651
 22
30.5390223111
 13
368.7637229651
 23
30.5390223111
  0
SOLID
  8
0
 62
7
  6
CONTINUOUS
 10
370.0355977445
 20
30.6035511455
 11
369.8043479651
 21
30.5390223111
 12
368.7637229651
 22
30.5390223111
 13
368.7637229651
 23
30.5390223111
  0
SOLID
  8
0
 62
7
  6
CONTINUOUS
 10
369.1105979651
 20
30.5067599302
 11
368.7637229651
 21
30.5390223111
 12
369.8043479651
 22
30.5390223111
 13
369.8043479651
 23
30.5390223111
  0
SOLID
  8
0
 62
7
  6
CONTINUOUS
 10
369.8043479651
 20
30.5390223111
 11
369.4574729651
 21
30.5067599302
 12
369.1105979651
 22
30.5067599302
 13
369.1105979651
 23
30.5067599302
  0
SOLID
  8
0
 62
7
  6
CONTINUOUS
 10
358.7621602445
 20
31.0229779898
 11
359.1090352445
 21
31.1842964734
 12
359.0512227376
 22
31.0552422931
 13
359.0512227376
 23
31.0552422931
  0
SOLID
  8
0
 62
7
  6
CONTINUOUS
 10
359.0512227376
 20
31.0552422931
 11
359.0512227376
 21
30.9584509954
 12
358.7621602445
 22
31.0229779898
 13
358.7621602445
 23
31.0229779898
  0
SOLID
  8
0
 62
7
  6
CONTINUOUS
 10
358.8199727462
 20
30.8293967193
 11
358.7621602445
 21
31.0229779898
 12
359.0512227376
 22
30.9584509954
 13
359.0512227376
 23
30.9584509954
  0
SOLID
  8
0
 62
7
  6
CONTINUOUS
 10
359.0512227376
 20
30.9584509954
 11
359.1668477307
 21
30.797132416
 12
358.8199727462
 22
30.8293967193
 13
358.8199727462
 23
30.8293967193
  0
SOLID
  8
0
 62
7
  6
CONTINUOUS
 10
358.9355977445
 20
30.7003413087
 11
358.8199727462
 21
30.8293967193
 12
359.1668477307
 22
30.797132416
 13
359.1668477307
 23
30.797132416
  0
SOLID
  8
0
 62
7
  6
CONTINUOUS
 10
359.1668477307
 20
30.797132416
 11
359.3402852307
 21
30.7003413087
 12
358.9355977445
 22
30.7003413087
 13
358.9355977445
 23
30.7003413087
  0
SOLID
  8
0
 62
7
  6
CONTINUOUS
 10
359.0512227376
 20
30.6358140759
 11
358.9355977445
 21
30.7003413087
 12
359.3402852307
 22
30.7003413087
 13
359.3402852307
 23
30.7003413087
  0
SOLID
  8
0
 62
7
  6
CONTINUOUS
 10
359.3402852307
 20
30.7003413087
 11
359.6871602721
 21
30.6358140759
 12
359.0512227376
 22
30.6358140759
 13
359.0512227376
 23
30.6358140759
  0
SOLID
  8
0
 62
7
  6
CONTINUOUS
 10
359.2246602583
 20
30.5712868422
 11
359.0512227376
 21
30.6358140759
 12
359.6871602721
 22
30.6358140759
 13
359.6871602721
 23
30.6358140759
  0
SOLID
  8
0
 62
7
  6
CONTINUOUS
 10
363.2715352445
 20
31.0229779808
 11
363.3871601343
 21
31.0875057863
 12
363.9652852445
 22
31.0552422931
 13
363.9652852445
 23
31.0552422931
  0
SOLID
  8
0
 62
7
  6
CONTINUOUS
 10
363.9652852445
 20
31.0552422931
 11
363.7340351343
 21
31.0229779808
 12
363.2715352445
 22
31.0229779808
 13
363.2715352445
 23
31.0229779808
  0
SOLID
  8
0
 62
7
  6
CONTINUOUS
 10
363.1559103548
 20
30.8939238094
 11
363.2715352445
 21
31.0229779808
 12
363.7340351343
 22
31.0229779808
 13
363.7340351343
 23
31.0229779808
  0
SOLID
  8
0
 62
7
  6
CONTINUOUS
 10
363.5027853548
 20
30.926187309
 11
363.1559103548
 21
30.8939238094
 12
363.6184102445
 22
30.9907152029
 13
363.6184102445
 23
30.9907152029
  0
SOLID
  8
0
 62
7
  6
CONTINUOUS
 10
363.1559103548
 20
30.8939238094
 11
363.7340351343
 21
31.0229779898
 12
363.6184102445
 22
30.9907152029
 13
363.6184102445
 23
30.9907152029
  0
SOLID
  8
0
 62
7
  6
CONTINUOUS
 10
363.5027853548
 20
30.926187309
 11
363.4449727445
 21
30.8293967193
 12
363.1559103548
 22
30.8939238094
 13
363.1559103548
 23
30.8939238094
  0
SOLID
  8
0
 62
7
  6
CONTINUOUS
 10
363.1559103548
 20
30.797132416
 11
363.1559103548
 21
30.8939238094
 12
363.4449727445
 22
30.8293967193
 13
363.4449727445
 23
30.8293967193
  0
SOLID
  8
0
 62
7
  6
CONTINUOUS
 10
363.4449727445
 20
30.8293967193
 11
363.4449727445
 21
30.7648681127
 12
363.1559103548
 22
30.797132416
 13
363.1559103548
 23
30.797132416
  0
SOLID
  8
0
 62
7
  6
CONTINUOUS
 10
363.2137226343
 20
30.6680782357
 11
363.1559103548
 21
30.797132416
 12
363.4449727445
 22
30.7648681127
 13
363.4449727445
 23
30.7648681127
  0
SOLID
  8
0
 62
7
  6
CONTINUOUS
 10
364.6012229651
 20
30.8616599362
 11
364.890285024
 21
30.7648681127
 12
364.543410024
 22
30.797132416
 13
364.543410024
 23
30.797132416
  0
SOLID
  8
0
 62
7
  6
CONTINUOUS
 10
364.369972524
 20
30.7003410226
 11
364.543410024
 21
30.797132416
 12
364.890285024
 22
30.7648681127
 13
364.890285024
 23
30.7648681127
  0
SOLID
  8
0
 62
7
  6
CONTINUOUS
 10
364.369972524
 20
30.7003410226
 11
364.890285024
 21
30.7648681127
 12
364.6012229651
 22
30.6680782357
 13
364.6012229651
 23
30.6680782357
  0
SOLID
  8
0
 62
7
  6
CONTINUOUS
 10
364.890285024
 20
30.7648681127
 11
364.9480979651
 21
30.6035511455
 12
364.6012229651
 22
30.6680782357
 13
364.6012229651
 23
30.6680782357
  0
SOLID
  8
0
 62
7
  6
CONTINUOUS
 10
364.6590352445
 20
30.5712868422
 11
364.6012229651
 21
30.6680782357
 12
364.9480979651
 22
30.6035511455
 13
364.9480979651
 23
30.6035511455
  0
SOLID
  8
0
 62
7
  6
CONTINUOUS
 10
364.6590352445
 20
30.5712868422
 11
364.9480979651
 21
30.6035511455
 12
364.716847524
 22
30.5067598731
 13
364.716847524
 23
30.5067598731
  0
SOLID
  8
0
 62
7
  6
CONTINUOUS
 10
364.9480979651
 20
30.6035511455
 11
365.0059102445
 21
30.5067598731
 12
364.716847524
 22
30.5067598731
 13
364.716847524
 23
30.5067598731
  0
SOLID
  8
0
 62
7
  6
CONTINUOUS
 10
360.2652852997
 20
30.7326051679
 11
360.3230977445
 21
30.8293966612
 12
360.6121602997
 22
30.8293966612
 13
360.6121602997
 23
30.8293966612
  0
SOLID
  8
0
 62
7
  6
CONTINUOUS
 10
360.6121602997
 20
30.8293966612
 11
360.5543476894
 21
30.7003410226
 12
360.2652852997
 22
30.7326051679
 13
360.2652852997
 23
30.7326051679
  0
SOLID
  8
0
 62
7
  6
CONTINUOUS
 10
360.091847717
 20
30.6680782357
 11
360.2652852997
 21
30.7326051679
 12
360.5543476894
 22
30.7003410226
 13
360.5543476894
 23
30.7003410226
  0
SOLID
  8
0
 62
7
  6
CONTINUOUS
 10
360.091847717
 20
30.6680782357
 11
360.5543476894
 21
30.7003410226
 12
359.6871602721
 22
30.6358139324
 13
359.6871602721
 23
30.6358139324
  0
SOLID
  8
0
 62
7
  6
CONTINUOUS
 10
360.5543476894
 20
30.7003410226
 11
360.3809101894
 21
30.6035511455
 12
359.6871602721
 22
30.6358139324
 13
359.6871602721
 23
30.6358139324
  0
SOLID
  8
0
 62
7
  6
CONTINUOUS
 10
359.2246602583
 20
30.5712868422
 11
359.6871602721
 21
30.6358139324
 12
360.3809101894
 22
30.6035511455
 13
360.3809101894
 23
30.6035511455
  0
SOLID
  8
0
 62
7
  6
CONTINUOUS
 10
359.2246602583
 20
30.5712868422
 11
360.3809101894
 21
30.6035511455
 12
359.3980977583
 22
30.5390224228
 13
359.3980977583
 23
30.5390224228
  0
SOLID
  8
0
 62
7
  6
CONTINUOUS
 10
360.3809101894
 20
30.6035511455
 11
360.1496602445
 21
30.5390224228
 12
359.3980977583
 22
30.5390224228
 13
359.3980977583
 23
30.5390224228
  0
SOLID
  8
0
 62
7
  6
CONTINUOUS
 10
359.744972717
 20
30.5067597521
 11
359.3980977583
 21
30.5390224228
 12
360.1496602445
 22
30.5390224228
 13
360.1496602445
 23
30.5390224228
  0
SOLID
  8
0
 62
7
  6
CONTINUOUS
 10
363.2137226343
 20
30.6680782357
 11
363.4449727445
 21
30.7648681127
 12
363.5027853548
 22
30.7003410226
 13
363.5027853548
 23
30.7003410226
  0
SOLID
  8
0
 62
7
  6
CONTINUOUS
 10
363.5027853548
 20
30.7003410226
 11
363.7340351343
 21
30.6358139324
 12
363.2137226343
 22
30.6680782357
 13
363.2137226343
 23
30.6680782357
  0
SOLID
  8
0
 62
7
  6
CONTINUOUS
 10
363.3871601343
 20
30.5712868422
 11
363.2137226343
 21
30.6680782357
 12
363.7340351343
 22
30.6358139324
 13
363.7340351343
 23
30.6358139324
  0
SOLID
  8
0
 62
7
  6
CONTINUOUS
 10
364.0809101343
 20
30.6358139363
 11
364.369972524
 21
30.7003410226
 12
364.6012229651
 22
30.6680782357
 13
364.6012229651
 23
30.6680782357
  0
SOLID
  8
0
 62
7
  6
CONTINUOUS
 10
364.6012229651
 20
30.6680782357
 11
364.543410024
 21
30.6035511455
 12
364.0809101343
 22
30.6358139363
 13
364.0809101343
 23
30.6358139363
  0
SOLID
  8
0
 62
7
  6
CONTINUOUS
 10
364.543410024
 20
30.6035511455
 11
363.3871601343
 21
30.5712868422
 12
364.0809101343
 22
30.6358139363
 13
364.0809101343
 23
30.6358139363
  0
SOLID
  8
0
 62
7
  6
CONTINUOUS
 10
363.3871601343
 20
30.5712868422
 11
363.7340351343
 21
30.6358139363
 12
364.0809101343
 22
30.6358139363
 13
364.0809101343
 23
30.6358139363
  0
SOLID
  8
0
 62
7
  6
CONTINUOUS
 10
363.3871601343
 20
30.5712868422
 11
364.543410024
 21
30.6035511455
 12
363.5027853548
 22
30.5390225267
 13
363.5027853548
 23
30.5390225267
  0
SOLID
  8
0
 62
7
  6
CONTINUOUS
 10
364.543410024
 20
30.6035511455
 11
364.369972524
 21
30.5390225267
 12
363.5027853548
 22
30.5390225267
 13
363.5027853548
 23
30.5390225267
  0
SOLID
  8
0
 62
7
  6
CONTINUOUS
 10
363.7340351343
 20
30.5067596914
 11
363.5027853548
 21
30.5390225267
 12
364.369972524
 22
30.5390225267
 13
364.369972524
 23
30.5390225267
  0
SOLID
  8
0
 62
7
  6
CONTINUOUS
 10
364.369972524
 20
30.5390225267
 11
364.0809101343
 21
30.5067596914
 12
363.7340351343
 22
30.5067596914
 13
363.7340351343
 23
30.5067596914
  0
SOLID
  8
0
 62
7
  6
CONTINUOUS
 10
368.7637229651
 20
30.6680782357
 11
368.4168479651
 21
30.6358138717
 12
368.6480977445
 22
30.7003410226
 13
368.6480977445
 23
30.7003410226
  0
SOLID
  8
0
 62
7
  6
CONTINUOUS
 10
368.6480977445
 20
30.7003410226
 11
368.4168479651
 21
30.6358138717
 12
368.5902854651
 22
30.7648680521
 13
368.5902854651
 23
30.7648680521
  0
SOLID
  8
0
 62
7
  6
CONTINUOUS
 10
368.4168479651
 20
30.6358138717
 11
368.3012227445
 21
30.7648680521
 12
368.5902854651
 22
30.7648680521
 13
368.5902854651
 23
30.7648680521
  0
SOLID
  8
0
 62
7
  6
CONTINUOUS
 10
368.7637229651
 20
30.6680782357
 11
369.1105979651
 21
30.6358138717
 12
368.4168479651
 22
30.6358138717
 13
368.4168479651
 23
30.6358138717
  0
SOLID
  8
0
 62
7
  6
CONTINUOUS
 10
365.4684104651
 20
30.5067597521
 11
365.4684104651
 21
31.5391977439
 12
365.757472524
 22
30.5067597521
 13
365.757472524
 23
31.5391977439
  0
ENDBLK
  8
0
  6
BYBLOCK
 62
0
  0
BLOCK
  8
0
 62
2
  6
CONTINUOUS
  2
SYMBOL_0_BL0
 70
64
 10
240.8592468615
 20
19.762288695
  0
TEXT
  8
0
 62
7
  6
CONTINUOUS
 10
227.1239507038
 20
19.1357028027
  7
TEXTSTYLE_3
 40
2.7338706658
  1
Ammeraal Beltech
 41
1.0
 51
15.0
 72
0
  0
TEXT
  8
0
 62
7
  6
CONTINUOUS
 10
237.9247515296
 20
16.8621661299
  7
TEXTSTYLE_4
 40
1.0935482663
  1
Innovation & Service in Belting
 41
1.0
 72
0
  0
LINE
  8
0
 62
7
  6
CONTINUOUS
 10
221.0994100525
 20
19.9022961113
 11
221.8775620458
 21
23.5632134089
  0
LINE
  8
0
 62
7
  6
CONTINUOUS
 10
231.9727303357
 20
27.2266073205
 11
222.3653797889
 21
24.1049898993
  0
LINE
  8
0
 62
7
  6
CONTINUOUS
 10
221.3246933848
 20
19.2089453082
 11
228.8317686459
 21
12.4495443822
  0
LINE
  8
0
 62
7
  6
CONTINUOUS
 10
221.5872277955
 20
20.4440726016
 11
232.3954971607
 21
23.9558922005
  0
LINE
  8
0
 62
7
  6
CONTINUOUS
 10
232.3912920235
 20
13.6061036368
 11
223.9458323548
 21
21.2104296785
  0
LINE
  8
0
 62
7
  6
CONTINUOUS
 10
232.9111147433
 20
26.3816822048
 11
231.9345552061
 21
21.7873308023
  0
LINE
  8
0
 62
7
  6
CONTINUOUS
 10
231.2347532584
 20
18.4950214885
 11
230.5483050469
 21
15.2655365641
  0
LINE
  8
0
 62
7
  6
CONTINUOUS
 10
233.5922108419
 20
13.9963058145
 11
234.5484423775
 21
18.4950214885
  0
LINE
  8
0
 62
7
  6
CONTINUOUS
 10
235.2482443252
 20
21.7873308023
 11
235.6924861276
 21
23.8773241617
  0
LINE
  8
0
 62
7
  6
CONTINUOUS
 10
229.5448697213
 20
12.2979700695
 11
233.1043930989
 21
13.4545293241
  0
LINE
  8
0
 62
7
  6
CONTINUOUS
 10
232.685831411
 20
27.0750330078
 11
235.4672027953
 21
24.5706749648
  0
ARC
  8
0
 62
7
  6
CONTINUOUS
 10
222.5906631212
 20
23.4116390962
 40
0.7290321776
 50
108.0
 51
168.0
  0
ARC
  8
0
 62
7
  6
CONTINUOUS
 10
232.198013668
 20
26.5332565175
 40
0.7290321776
 50
348.0
 51
108.0
  0
ARC
  8
0
 62
7
  6
CONTINUOUS
 10
234.9793850522
 20
24.0288984744
 40
0.7290321776
 50
348.0
 51
48.0
  0
ARC
  8
0
 62
7
  6
CONTINUOUS
 10
229.319586389
 20
12.9913208726
 40
0.7290321776
 50
228.0
 51
288.0
  0
ARC
  8
0
 62
7
  6
CONTINUOUS
 10
221.8125111278
 20
19.7507217986
 40
0.7290321776
 50
108.0
 51
228.0
  0
ARC
  8
0
 62
7
  6
CONTINUOUS
 10
232.8791097665
 20
14.1478801272
 40
0.7290321776
 50
228.0
 51
348.0
  0
ENDBLK
  8
0
  6
BYBLOCK
 62
0
  0
ENDSEC
  0
SECTION
  2
ENTITIES
  0
TEXT
  8
0
 62
5
  6
CONTINUOUS
 10
304.937007874
 20
25.636
  7
TEXTSTYLE_2
 40
2.8
  1
Scale :
 41
0.6
 51
0.000019
 72
0
  0
TEXT
  8
0
 62
5
  6
CONTINUOUS
 10
324.937007874
 20
25.636
  7
TEXTSTYLE_2
 40
2.8
  1
Belt type:
 41
0.6
 51
0.000019
 72
0
  0
INSERT
  8
0
 62
2
  6
CONTINUOUS
  2
SYMBOL_0_BL0
 10
240.8592468615
 20
19.762288695
  0
INSERT
  8
0
 62
2
  6
CONTINUOUS
  2
SYMBOL_5_BL1
 10
382.7840918555
 20
35.5067593403
  0
LINE
  8
0
 62
2
  6
CONTINUOUS
 10
218.937007874
 20
30.0
 11
408.937007874
 21
30.0
  0
LINE
  8
0
 62
2
  6
CONTINUOUS
 10
218.937007874
 20
30.0
 11
218.937007874
 21
10.0
  0
LINE
  8
0
 62
2
  6
CONTINUOUS
 10
218.937007874
 20
10.0
 11
408.937007874
 21
10.0
  0
LINE
  8
0
 62
2
  6
CONTINUOUS
 10
303.937007874
 20
30.0
 11
303.937007874
 21
10.0
  0
LINE
  8
0
 62
2
  6
CONTINUOUS
 10
323.937007874
 20
30.0
 11
323.937007874
 21
10.0
  0
LINE
  8
0
 62
2
  6
CONTINUOUS
 10
408.937007874
 20
30.0
 11
408.937007874
 21
10.0
  0
TEXT
  8
0
 62
5
  6
CONTINUOUS
 10
221.937007874
 20
23.303
  7
TEXTSTYLE_5
 40
1.52
  1
                                                                     Ammeraal Beltech Modular A/S
 41
1.0
 72
0
  0
TEXT
  8
0
 62
5
  6
CONTINUOUS
 10
221.937007874
 20
20.595
  7
TEXTSTYLE_5
 40
1.5
  1
                                                                      Hjulmagervej 21, 7100 Vejle,  DK
 41
1.0
 72
0
  0
TEXT
  8
0
 62
5
  6
CONTINUOUS
 10
221.937007874
 20
17.881
  7
TEXTSTYLE_5
 40
1.495
  1
                                                                      tel: 
 41
1.0
 72
0
  0
TEXT
  8
0
 62
5
  6
CONTINUOUS
 10
266.9239544389
 20
17.881
  7
TEXTSTYLE_5
 40
1.51
  1
+45 75723100     fax: +45 75723348
 41
1.0
 72
0
  0
TEXT
  8
0
 62
5
  6
CONTINUOUS
 10
221.937007874
 20
15.177
  7
TEXTSTYLE_5
 40
1.5
  1
                                                                      admin@unichains.dk  www.unichains.com
 41
1.0
 72
0
  0
TEXT
  8
0
 62
5
  6
CONTINUOUS
 10
308.687007874
 20
13.75
  7
TEXTSTYLE_6
 40
5.0
  1
1:1
 41
0.7
 72
1
 11
313.937007874
 21
13.75
  0
TEXT
  8
0
 62
5
  6
CONTINUOUS
 10
326.937007874
 20
13.75
  7
TEXTSTYLE_7
 40
7.5
  1
uni Flex L-ASB TAB K1280 Both rubberTop indent 84mm / 96mm
 41
0.2009482759
 72
0
  0
LINE
  8
0
 62
7
  6
CONTINUOUS
 10
0.0
 20
0.0
 11
0.0
 21
297.0
  0
LINE
  8
0
 62
7
  6
CONTINUOUS
 10
8.937007874
 20
10.0
 11
8.937007874
 21
287.0
  0
LINE
  8
0
 62
7
  6
CONTINUOUS
 10
0.0
 20
0.0
 11
420.0
 21
0.0
  0
LINE
  8
0
 62
7
  6
CONTINUOUS
 10
408.937007874
 20
10.0
 11
8.937007874
 21
10.0
  0
LINE
  8
0
 62
7
  6
CONTINUOUS
 10
218.937007874
 20
30.0
 11
408.937007874
 21
30.0
  0
LINE
  8
0
 62
7
  6
CONTINUOUS
 10
210.0
 20
297.0
 11
210.0
 21
292.0
  0
LINE
  8
0
 62
7
  6
CONTINUOUS
 10
210.0
 20
0.0
 11
210.0
 21
5.0
  0
LINE
  8
0
 62
7
  6
CONTINUOUS
 10
8.937007874
 20
287.0
 11
408.937007874
 21
287.0
  0
LINE
  8
0
 62
7
  6
CONTINUOUS
 10
0.0
 20
297.0
 11
420.0
 21
297.0
  0
LINE
  8
0
 62
7
  6
CONTINUOUS
 10
408.937007874
 20
287.0
 11
408.937007874
 21
10.0
  0
LINE
  8
0
 62
7
  6
CONTINUOUS
 10
420.0
 20
0.0
 11
420.0
 21
297.0
  0
POLYLINE
  8
0
 62
7
  6
CONTINUOUS
 66
1
 70
0
  0
VERTEX
  8
0
 62
7
  6
CONTINUOUS
 10
35.1180820946
 20
81.0414587403
  0
VERTEX
  8
0
 62
7
  6
CONTINUOUS
 10
35.2129369845
 20
79.9873437484
  0
VERTEX
  8
0
 62
7
  6
CONTINUOUS
 10
35.2839625148
 20
78.932877533
  0
VERTEX
  8
0
 62
7
  6
CONTINUOUS
 10
35.3105841286
 20
78.4052750208
  0
SEQEND
  0
LINE
  8
0
 62
7
  6
CONTINUOUS
 10
25.39375
 20
95.5953234512
 11
25.39375
 21
69.1325435616
  0
LINE
  8
0
 62
7
  6
CONTINUOUS
 10
32.39375
 20
89.6332864309
 11
32.39375
 21
86.2403418275
  0
POLYLINE
  8
0
 62
7
  6
CONTINUOUS
 66
1
 70
0
  0
VERTEX
  8
0
 62
7
  6
CONTINUOUS
 10
35.3193512561
 20
78.2141728043
  0
VERTEX
  8
0
 62
7
  6
CONTINUOUS
 10
35.3443665807
 20
77.5773211389
  0
VERTEX
  8
0
 62
7
  6
CONTINUOUS
 10
35.3594229618
 20
76.9371629218
  0
VERTEX
  8
0
 62
7
  6
CONTINUOUS
 10
35.3644496083
 20
76.2965366029
  0
VERTEX
  8
0
 62
7
  6
CONTINUOUS
 10
35.3594432438
 20
75.6558289917
  0
VERTEX
  8
0
 62
7
  6
CONTINUOUS
 10
35.3443996848
 20
75.0154464403
  0
VERTEX
  8
0
 62
7
  6
CONTINUOUS
 10
35.3193506274
 20
74.3775282036
  0
SEQEND
  0
POLYLINE
  8
0
 62
7
  6
CONTINUOUS
 66
1
 70
0
  0
VERTEX
  8
0
 62
7
  6
CONTINUOUS
 10
35.3105841286
 20
78.4052750208
  0
VERTEX
  8
0
 62
7
  6
CONTINUOUS
 10
35.3312570532
 20
77.8781655435
  0
VERTEX
  8
0
 62
7
  6
CONTINUOUS
 10
35.3548874293
 20
76.8233081399
  0
VERTEX
  8
0
 62
7
  6
CONTINUOUS
 10
35.354887428
 20
75.7684026526
  0
VERTEX
  8
0
 62
7
  6
CONTINUOUS
 10
35.3312570497
 20
74.7135452608
  0
VERTEX
  8
0
 62
7
  6
CONTINUOUS
 10
35.3105841286
 20
74.1864358885
  0
SEQEND
  0
LINE
  8
0
 62
7
  6
CONTINUOUS
 10
35.09375
 20
67.6195708323
 11
35.09375
 21
81.2154706969
  0
LINE
  8
0
 62
7
  6
CONTINUOUS
 10
37.6960376495
 20
125.702513929
 11
37.6960376495
 21
130.3958554547
  0
LINE
  8
0
 62
7
  6
CONTINUOUS
 10
40.3960376495
 20
118.5638647745
 11
40.3960376495
 21
106.8065647927
  0
POLYLINE
  8
0
 62
7
  6
CONTINUOUS
 66
1
 70
0
  0
VERTEX
  8
0
 62
7
  6
CONTINUOUS
 10
35.3105841286
 20
74.1864358885
  0
VERTEX
  8
0
 62
7
  6
CONTINUOUS
 10
35.2839625103
 20
73.6588332948
  0
VERTEX
  8
0
 62
7
  6
CONTINUOUS
 10
35.2129369808
 20
72.6043671145
  0
VERTEX
  8
0
 62
7
  6
CONTINUOUS
 10
35.1180820946
 20
71.5502521691
  0
SEQEND
  0
POLYLINE
  8
0
 62
7
  6
CONTINUOUS
 66
1
 70
0
  0
VERTEX
  8
0
 62
7
  6
CONTINUOUS
 10
35.1180820946
 20
71.5502521691
  0
VERTEX
  8
0
 62
7
  6
CONTINUOUS
 10
35.1149200007
 20
71.528259299
  0
VERTEX
  8
0
 62
7
  6
CONTINUOUS
 10
35.1098462733
 20
71.5063364151
  0
VERTEX
  8
0
 62
7
  6
CONTINUOUS
 10
35.1027415374
 20
71.484381322
  0
VERTEX
  8
0
 62
7
  6
CONTINUOUS
 10
35.09375
 20
71.4631273946
  0
SEQEND
  0
POLYLINE
  8
0
 62
7
  6
CONTINUOUS
 66
1
 70
0
  0
VERTEX
  8
0
 62
7
  6
CONTINUOUS
 10
35.09375
 20
81.1282623249
  0
VERTEX
  8
0
 62
7
  6
CONTINUOUS
 10
35.0970096574
 20
81.1215749806
  0
VERTEX
  8
0
 62
7
  6
CONTINUOUS
 10
35.1048628002
 20
81.1014610902
  0
VERTEX
  8
0
 62
7
  6
CONTINUOUS
 10
35.1109104993
 20
81.0814279231
  0
VERTEX
  8
0
 62
7
  6
CONTINUOUS
 10
35.1152881065
 20
81.0614508769
  0
VERTEX
  8
0
 62
7
  6
CONTINUOUS
 10
35.1180820946
 20
81.0414587403
  0
SEQEND
  0
POLYLINE
  8
0
 62
7
  6
CONTINUOUS
 66
1
 70
0
  0
VERTEX
  8
0
 62
7
  6
CONTINUOUS
 10
46.39375
 20
78.9574449119
  0
VERTEX
  8
0
 62
7
  6
CONTINUOUS
 10
46.3907009659
 20
79.0671135632
  0
VERTEX
  8
0
 62
7
  6
CONTINUOUS
 10
46.3796107452
 20
79.1934468414
  0
VERTEX
  8
0
 62
7
  6
CONTINUOUS
 10
46.3604212545
 20
79.3191037893
  0
VERTEX
  8
0
 62
7
  6
CONTINUOUS
 10
46.3332061393
 20
79.4434234764
  0
VERTEX
  8
0
 62
7
  6
CONTINUOUS
 10
46.2981325158
 20
79.5657033937
  0
VERTEX
  8
0
 62
7
  6
CONTINUOUS
 10
46.2553823428
 20
79.6853291124
  0
VERTEX
  8
0
 62
7
  6
CONTINUOUS
 10
46.2051519186
 20
79.8017004859
  0
VERTEX
  8
0
 62
7
  6
CONTINUOUS
 10
46.1477215446
 20
79.9143667944
  0
VERTEX
  8
0
 62
7
  6
CONTINUOUS
 10
46.0833759436
 20
80.0228914362
  0
VERTEX
  8
0
 62
7
  6
CONTINUOUS
 10
46.012240342
 20
80.1270134252
  0
VERTEX
  8
0
 62
7
  6
CONTINUOUS
 10
45.9344672062
 20
80.2266882436
  0
VERTEX
  8
0
 62
7
  6
CONTINUOUS
 10
45.8504605097
 20
80.321447031
  0
VERTEX
  8
0
 62
7
  6
CONTINUOUS
 10
45.7605829751
 20
80.4107055375
  0
VERTEX
  8
0
 62
7
  6
CONTINUOUS
 10
45.6651714923
 20
80.4940071729
  0
VERTEX
  8
0
 62
7
  6
CONTINUOUS
 10
45.5643353142
 20
80.5713242202
  0
VERTEX
  8
0
 62
7
  6
CONTINUOUS
 10
45.4585201321
 20
80.6422171234
  0
VERTEX
  8
0
 62
7
  6
CONTINUOUS
 10
45.3486730666
 20
80.7061156672
  0
VERTEX
  8
0
 62
7
  6
CONTINUOUS
 10
45.2353560132
 20
80.7627992476
  0
VERTEX
  8
0
 62
7
  6
CONTINUOUS
 10
45.1189956528
 20
80.8120370497
  0
VERTEX
  8
0
 62
7
  6
CONTINUOUS
 10
44.9999158706
 20
80.8537449661
  0
VERTEX
  8
0
 62
7
  6
CONTINUOUS
 10
44.8781110783
 20
80.8879774905
  0
VERTEX
  8
0
 62
7
  6
CONTINUOUS
 10
44.753858069
 20
80.9146306075
  0
VERTEX
  8
0
 62
7
  6
CONTINUOUS
 10
44.6282618192
 20
80.933455919
  0
VERTEX
  8
0
 62
7
  6
CONTINUOUS
 10
44.5026233182
 20
80.9443177952
  0
VERTEX
  8
0
 62
7
  6
CONTINUOUS
 10
44.3937499818
 20
80.9473132807
  0
SEQEND
  0
LINE
  8
0
 62
7
  6
CONTINUOUS
 10
46.39375
 20
78.9574358061
 11
46.39375
 21
73.6342751033
  0
LINE
  8
0
 62
7
  6
CONTINUOUS
 10
47.3960376495
 20
118.5638647745
 11
47.3960376495
 21
108.8177097042
  0
LINE
  8
0
 62
7
  6
CONTINUOUS
 10
50.0960376495
 20
130.3958554547
 11
50.0960376495
 21
125.702513929
  0
LINE
  8
0
 62
7
  6
CONTINUOUS
 10
52.7460376495
 20
68.9958554547
 11
52.7460376495
 21
73.6891969804
  0
LINE
  8
0
 62
7
  6
CONTINUOUS
 10
55.4460376495
 20
90.4640012052
 11
55.4460376495
 21
80.8278461348
  0
LINE
  8
0
 62
7
  6
CONTINUOUS
 10
50.0753734949
 20
125.5930996453
 11
47.4649181648
 21
118.9285790534
  0
LINE
  8
0
 62
7
  6
CONTINUOUS
 10
32.5277245962
 20
85.7403418275
 11
35.0535576211
 21
81.3654706969
  0
LINE
  8
0
 62
7
  6
CONTINUOUS
 10
62.4460376495
 20
91.1890012052
 11
62.4460376495
 21
80.8278461348
  0
LINE
  8
0
 62
7
  6
CONTINUOUS
 10
65.1460376495
 20
73.6891969804
 11
65.1460376495
 21
68.9958554547
  0
LINE
  8
0
 62
7
  6
CONTINUOUS
 10
66.6460376495
 20
125.702513929
 11
66.6460376495
 21
130.3958554547
  0
LINE
  8
0
 62
7
  6
CONTINUOUS
 10
37.7167018041
 20
125.5930996453
 11
40.3271571342
 21
118.9285790534
  0
LINE
  8
0
 62
7
  6
CONTINUOUS
 10
65.1253734949
 20
73.798611264
 11
62.5149181648
 21
80.4631318559
  0
LINE
  8
0
 62
7
  6
CONTINUOUS
 10
69.3460376495
 20
118.5638647745
 11
69.3460376495
 21
108.8177097042
  0
LINE
  8
0
 62
7
  6
CONTINUOUS
 10
76.3460376495
 20
118.5638647745
 11
76.3460376495
 21
108.0927097042
  0
LINE
  8
0
 62
7
  6
CONTINUOUS
 10
52.7667018041
 20
73.798611264
 11
55.3771571342
 21
80.4631318559
  0
LINE
  8
0
 62
7
  6
CONTINUOUS
 10
79.0253734949
 20
125.5930996453
 11
76.4149181648
 21
118.9285790534
  0
LINE
  8
0
 62
7
  6
CONTINUOUS
 10
79.0460376495
 20
130.3958554547
 11
79.0460376495
 21
125.702513929
  0
LINE
  8
0
 62
7
  6
CONTINUOUS
 10
80.5460376495
 20
68.9958554547
 11
80.5460376495
 21
73.6891969804
  0
LINE
  8
0
 62
7
  6
CONTINUOUS
 10
83.2460376495
 20
91.1890012052
 11
83.2460376495
 21
80.8278461348
  0
LINE
  8
0
 62
7
  6
CONTINUOUS
 10
37.5494647743
 20
97.2742825794
 11
34.1511093129
 21
93.875927118
  0
LINE
  8
0
 62
7
  6
CONTINUOUS
 10
50.2926105248
 20
97.2742825794
 11
54.2744647743
 21
93.2924283299
  0
LINE
  8
0
 62
7
  6
CONTINUOUS
 10
66.6667018041
 20
125.5930996453
 11
69.2771571342
 21
118.9285790534
  0
LINE
  8
0
 62
7
  6
CONTINUOUS
 10
90.2460376495
 20
91.1890012052
 11
90.2460376495
 21
80.8278461348
  0
LINE
  8
0
 62
7
  6
CONTINUOUS
 10
92.9460376495
 20
73.6891969804
 11
92.9460376495
 21
68.9958554547
  0
LINE
  8
0
 62
7
  6
CONTINUOUS
 10
93.2460376495
 20
125.702513929
 11
93.2460376495
 21
130.3958554547
  0
LINE
  8
0
 62
7
  6
CONTINUOUS
 10
95.9460376495
 20
118.5638647745
 11
95.9460376495
 21
108.0927097042
  0
LINE
  8
0
 62
7
  6
CONTINUOUS
 10
80.5667018041
 20
73.798611264
 11
83.1771571342
 21
80.4631318559
  0
LINE
  8
0
 62
7
  6
CONTINUOUS
 10
64.7426105248
 20
102.5574283299
 11
68.1744647743
 21
105.9892825794
  0
LINE
  8
0
 62
7
  6
CONTINUOUS
 10
48.5676105248
 20
105.9892825794
 11
51.9994647743
 21
102.5574283299
  0
LINE
  8
0
 62
7
  6
CONTINUOUS
 10
92.9253734949
 20
73.798611264
 11
90.3149181648
 21
80.4631318559
  0
LINE
  8
0
 62
7
  6
CONTINUOUS
 10
102.9460376495
 20
118.5638647745
 11
102.9460376495
 21
102.7714305964
  0
LINE
  8
0
 62
7
  6
CONTINUOUS
 10
105.6460376495
 20
130.3958554547
 11
105.6460376495
 21
125.702513929
  0
LINE
  8
0
 62
7
  6
CONTINUOUS
 10
105.9460376495
 20
68.9958554547
 11
105.9460376495
 21
73.6891969804
  0
LINE
  8
0
 62
7
  6
CONTINUOUS
 10
108.6460376495
 20
95.5458554547
 11
108.6460376495
 21
80.8278461348
  0
LINE
  8
0
 62
7
  6
CONTINUOUS
 10
109.44375
 20
77.9458554547
 11
109.44375
 21
79.4769318473
  0
LINE
  8
0
 62
7
  6
CONTINUOUS
 10
109.7437499658
 20
80.8283167235
 11
109.7437499658
 21
96.9077617008
  0
LINE
  8
0
 62
7
  6
CONTINUOUS
 10
105.6253734949
 20
125.5930996453
 11
103.0149181648
 21
118.9285790534
  0
LINE
  8
0
 62
7
  6
CONTINUOUS
 10
66.4744647743
 20
96.8742825794
 11
63.6176105248
 21
94.0174283299
  0
LINE
  8
0
 62
7
  6
CONTINUOUS
 10
79.2176105248
 20
96.8742825794
 11
82.0744647743
 21
94.0174283299
  0
LINE
  8
0
 62
7
  6
CONTINUOUS
 10
93.2667018041
 20
125.5930996453
 11
95.8771571342
 21
118.9285790534
  0
LINE
  8
0
 62
7
  6
CONTINUOUS
 10
114.54375
 20
94.8958554547
 11
114.54375
 21
80.8283216102
  0
LINE
  8
0
 62
7
  6
CONTINUOUS
 10
114.84375
 20
79.4769318473
 11
114.84375
 21
77.9458554547
  0
LINE
  8
0
 62
7
  6
CONTINUOUS
 10
115.64375
 20
94.8958554547
 11
115.64375
 21
80.8283216102
  0
LINE
  8
0
 62
7
  6
CONTINUOUS
 10
118.34375
 20
73.6892007144
 11
118.34375
 21
68.9958554547
  0
LINE
  8
0
 62
7
  6
CONTINUOUS
 10
118.64375
 20
125.702513929
 11
118.64375
 21
130.3958554547
  0
LINE
  8
0
 62
7
  6
CONTINUOUS
 10
121.34375
 20
118.5638647745
 11
121.34375
 21
102.7714305964
  0
LINE
  8
0
 62
7
  6
CONTINUOUS
 10
122.14375
 20
119.9152389087
 11
122.14375
 21
121.4458554547
  0
LINE
  8
0
 62
7
  6
CONTINUOUS
 10
122.44375
 20
102.7714312787
 11
122.44375
 21
118.5638647745
  0
LINE
  8
0
 62
7
  6
CONTINUOUS
 10
105.9667018041
 20
73.798611264
 11
108.5771571342
 21
80.4631318559
  0
LINE
  8
0
 62
7
  6
CONTINUOUS
 10
109.5126217492
 20
79.8416237455
 11
109.5991193266
 21
80.0624686239
  0
LINE
  8
0
 62
7
  6
CONTINUOUS
 10
94.7744647743
 20
105.2642825794
 11
92.5176105248
 21
103.0074283299
  0
LINE
  8
0
 62
7
  6
CONTINUOUS
 10
77.5176105248
 20
105.2642825794
 11
79.7744647743
 21
103.0074283299
  0
LINE
  8
0
 62
7
  6
CONTINUOUS
 10
114.6883806734
 20
80.0624686239
 11
114.7748782508
 21
79.8416237455
  0
LINE
  8
0
 62
7
  6
CONTINUOUS
 10
118.3230884752
 20
73.7986082839
 11
115.7126217492
 21
80.4636297119
  0
POLYLINE
  8
0
 62
7
  6
CONTINUOUS
 66
1
 70
0
  0
VERTEX
  8
0
 62
7
  6
CONTINUOUS
 10
127.24375
 20
102.7714318459
  0
VERTEX
  8
0
 62
7
  6
CONTINUOUS
 10
127.2456055168
 20
102.6558653502
  0
VERTEX
  8
0
 62
7
  6
CONTINUOUS
 10
127.2508356474
 20
102.5459211207
  0
VERTEX
  8
0
 62
7
  6
CONTINUOUS
 10
127.259084151
 20
102.4401778383
  0
VERTEX
  8
0
 62
7
  6
CONTINUOUS
 10
127.2701545043
 20
102.3373016555
  0
VERTEX
  8
0
 62
7
  6
CONTINUOUS
 10
127.2840224063
 20
102.2359814964
  0
VERTEX
  8
0
 62
7
  6
CONTINUOUS
 10
127.3008011616
 20
102.1349709498
  0
VERTEX
  8
0
 62
7
  6
CONTINUOUS
 10
127.3205081616
 20
102.0341841962
  0
VERTEX
  8
0
 62
7
  6
CONTINUOUS
 10
127.3430652455
 20
101.9340989572
  0
VERTEX
  8
0
 62
7
  6
CONTINUOUS
 10
127.3684651656
 20
101.8347738144
  0
VERTEX
  8
0
 62
7
  6
CONTINUOUS
 10
127.3967159567
 20
101.7361561105
  0
VERTEX
  8
0
 62
7
  6
CONTINUOUS
 10
127.4277737054
 20
101.6383790031
  0
VERTEX
  8
0
 62
7
  6
CONTINUOUS
 10
127.461610799
 20
101.5415725253
  0
VERTEX
  8
0
 62
7
  6
CONTINUOUS
 10
127.4982672084
 20
101.4456863587
  0
VERTEX
  8
0
 62
7
  6
CONTINUOUS
 10
127.5377370033
 20
101.3508144786
  0
VERTEX
  8
0
 62
7
  6
CONTINUOUS
 10
127.579985114
 20
101.2571340236
  0
VERTEX
  8
0
 62
7
  6
CONTINUOUS
 10
127.6250752342
 20
101.1645665617
  0
VERTEX
  8
0
 62
7
  6
CONTINUOUS
 10
127.6730907165
 20
101.0730154428
  0
VERTEX
  8
0
 62
7
  6
CONTINUOUS
 10
127.7238129716
 20
100.9829507111
  0
VERTEX
  8
0
 62
7
  6
CONTINUOUS
 10
127.7769919874
 20
100.8947718046
  0
VERTEX
  8
0
 62
7
  6
CONTINUOUS
 10
127.8344573645
 20
100.8056936669
  0
VERTEX
  8
0
 62
7
  6
CONTINUOUS
 10
127.8994826846
 20
100.711674525
  0
VERTEX
  8
0
 62
7
  6
CONTINUOUS
 10
127.9757935329
 20
100.6093440536
  0
VERTEX
  8
0
 62
7
  6
CONTINUOUS
 10
128.0637914741
 20
100.5007075792
  0
VERTEX
  8
0
 62
7
  6
CONTINUOUS
 10
128.1573838399
 20
100.3947547263
  0
VERTEX
  8
0
 62
7
  6
CONTINUOUS
 10
128.2489922074
 20
100.2994377093
  0
VERTEX
  8
0
 62
7
  6
CONTINUOUS
 10
128.3355035723
 20
100.2161585472
  0
VERTEX
  8
0
 62
7
  6
CONTINUOUS
 10
128.4189410511
 20
100.1414343222
  0
VERTEX
  8
0
 62
7
  6
CONTINUOUS
 10
128.5020146661
 20
100.0720304143
  0
VERTEX
  8
0
 62
7
  6
CONTINUOUS
 10
128.5868948898
 20
100.0058814751
  0
VERTEX
  8
0
 62
7
  6
CONTINUOUS
 10
128.6738749824
 20
99.9427558555
  0
VERTEX
  8
0
 62
7
  6
CONTINUOUS
 10
128.7629393497
 20
99.8826939486
  0
VERTEX
  8
0
 62
7
  6
CONTINUOUS
 10
128.8539200861
 20
99.8258478915
  0
VERTEX
  8
0
 62
7
  6
CONTINUOUS
 10
128.9469307578
 20
99.7722181644
  0
VERTEX
  8
0
 62
7
  6
CONTINUOUS
 10
129.0422963387
 20
99.7217069982
  0
VERTEX
  8
0
 62
7
  6
CONTINUOUS
 10
129.139975917
 20
99.6744567882
  0
VERTEX
  8
0
 62
7
  6
CONTINUOUS
 10
129.2398811635
 20
99.6306003459
  0
VERTEX
  8
0
 62
7
  6
CONTINUOUS
 10
129.3416639609
 20
99.590345819
  0
VERTEX
  8
0
 62
7
  6
CONTINUOUS
 10
129.4450309518
 20
99.5538552217
  0
VERTEX
  8
0
 62
7
  6
CONTINUOUS
 10
129.5498928453
 20
99.5212012122
  0
VERTEX
  8
0
 62
7
  6
CONTINUOUS
 10
129.6561720304
 20
99.4924669338
  0
VERTEX
  8
0
 62
7
  6
CONTINUOUS
 10
129.7634298866
 20
99.4678237402
  0
VERTEX
  8
0
 62
7
  6
CONTINUOUS
 10
129.8718002507
 20
99.4473066187
  0
VERTEX
  8
0
 62
7
  6
CONTINUOUS
 10
129.9825581086
 20
99.4308158203
  0
VERTEX
  8
0
 62
7
  6
CONTINUOUS
 10
130.0971606895
 20
99.418455949
  0
VERTEX
  8
0
 62
7
  6
CONTINUOUS
 10
130.2170416811
 20
99.4105681012
  0
VERTEX
  8
0
 62
7
  6
CONTINUOUS
 10
130.3437500883
 20
99.407755913
  0
SEQEND
  0
LINE
  8
0
 62
7
  6
CONTINUOUS
 10
127.24375
 20
118.5638647745
 11
127.24375
 21
102.7714318459
  0
LINE
  8
0
 62
7
  6
CONTINUOUS
 10
127.54375
 20
121.4458554547
 11
127.54375
 21
119.9152389087
  0
LINE
  8
0
 62
7
  6
CONTINUOUS
 10
128.34375
 20
118.5638647745
 11
128.34375
 21
102.7714305964
  0
LINE
  8
0
 62
7
  6
CONTINUOUS
 10
131.04375
 20
130.3958554547
 11
131.04375
 21
125.702513929
  0
LINE
  8
0
 62
7
  6
CONTINUOUS
 10
131.34375
 20
68.9958554547
 11
131.34375
 21
73.6892007144
  0
LINE
  8
0
 62
7
  6
CONTINUOUS
 10
134.04375
 20
94.8958554547
 11
134.04375
 21
80.8283216102
  0
LINE
  8
0
 62
7
  6
CONTINUOUS
 10
127.4748694847
 20
119.5505246298
 11
127.3883990821
 21
119.3297647602
  0
LINE
  8
0
 62
7
  6
CONTINUOUS
 10
128.4126305153
 20
118.9285790534
 11
131.0230858454
 21
125.5930996453
  0
LINE
  8
0
 62
7
  6
CONTINUOUS
 10
93.7744647743
 20
96.3742825794
 11
91.4176105248
 21
94.0174283299
  0
LINE
  8
0
 62
7
  6
CONTINUOUS
 10
38.0190278273
 20
103.1506240269
 11
27.1765073666
 21
98.3372790255
  0
LINE
  8
0
 62
7
  6
CONTINUOUS
 10
118.6644141546
 20
125.5930996453
 11
121.2748694847
 21
118.9285790534
  0
LINE
  8
0
 62
7
  6
CONTINUOUS
 10
122.2991009179
 20
119.3297647602
 11
122.2126305153
 21
119.5505246298
  0
LINE
  8
0
 62
7
  6
CONTINUOUS
 10
134.84375
 20
77.9458554547
 11
134.84375
 21
79.4769318473
  0
LINE
  8
0
 62
7
  6
CONTINUOUS
 10
135.14375
 20
80.8283216102
 11
135.14375
 21
94.8958554547
  0
LINE
  8
0
 62
7
  6
CONTINUOUS
 10
139.94375
 20
94.8958554547
 11
139.94375
 21
80.8283216102
  0
LINE
  8
0
 62
7
  6
CONTINUOUS
 10
140.24375
 20
79.4769318473
 11
140.24375
 21
77.9458554547
  0
LINE
  8
0
 62
7
  6
CONTINUOUS
 10
141.04375
 20
94.8958554547
 11
141.04375
 21
80.8283216102
  0
LINE
  8
0
 62
7
  6
CONTINUOUS
 10
143.74375
 20
73.6892007144
 11
143.74375
 21
68.9958554547
  0
LINE
  8
0
 62
7
  6
CONTINUOUS
 10
144.04375
 20
125.702513929
 11
144.04375
 21
130.3958554547
  0
LINE
  8
0
 62
7
  6
CONTINUOUS
 10
131.3644115248
 20
73.7986082839
 11
133.9748782508
 21
80.4636297119
  0
LINE
  8
0
 62
7
  6
CONTINUOUS
 10
347.599518896
 20
65.1441942347
 11
347.6212914201
 21
65.1459061797
  0
LINE
  8
0
 62
7
  6
CONTINUOUS
 10
347.5841251991
 20
65.1431117633
 11
347.6057241456
 21
65.1446606952
  0
LINE
  8
0
 62
7
  6
CONTINUOUS
 10
347.5841251991
 20
65.1431117633
 11
347.5920072497
 21
65.1436480029
  0
LINE
  8
0
 62
7
  6
CONTINUOUS
 10
29.0817927003
 20
65.1446593929
 11
29.1033747945
 21
65.1431117634
  0
LINE
  8
0
 62
7
  6
CONTINUOUS
 10
29.0662086042
 20
65.1459061777
 11
29.0879810454
 21
65.1441942389
  0
LINE
  8
0
 62
7
  6
CONTINUOUS
 10
140.0883806734
 20
80.0624686239
 11
140.1748782508
 21
79.8416237455
  0
LINE
  8
0
 62
7
  6
CONTINUOUS
 10
143.7230884752
 20
73.7986082839
 11
141.1126217492
 21
80.4636297119
  0
POLYLINE
  8
0
 62
7
  6
CONTINUOUS
 66
1
 70
0
  0
VERTEX
  8
0
 62
7
  6
CONTINUOUS
 10
152.64375
 20
102.7714318459
  0
VERTEX
  8
0
 62
7
  6
CONTINUOUS
 10
152.6456055168
 20
102.6558653503
  0
VERTEX
  8
0
 62
7
  6
CONTINUOUS
 10
152.6508356474
 20
102.5459211207
  0
VERTEX
  8
0
 62
7
  6
CONTINUOUS
 10
152.659084151
 20
102.4401778383
  0
VERTEX
  8
0
 62
7
  6
CONTINUOUS
 10
152.6701545043
 20
102.3373016555
  0
VERTEX
  8
0
 62
7
  6
CONTINUOUS
 10
152.6840224063
 20
102.2359814964
  0
VERTEX
  8
0
 62
7
  6
CONTINUOUS
 10
152.7008011616
 20
102.1349709499
  0
VERTEX
  8
0
 62
7
  6
CONTINUOUS
 10
152.7205081616
 20
102.0341841963
  0
VERTEX
  8
0
 62
7
  6
CONTINUOUS
 10
152.7430652455
 20
101.9340989572
  0
VERTEX
  8
0
 62
7
  6
CONTINUOUS
 10
152.7684651656
 20
101.8347738145
  0
VERTEX
  8
0
 62
7
  6
CONTINUOUS
 10
152.7967159567
 20
101.7361561106
  0
VERTEX
  8
0
 62
7
  6
CONTINUOUS
 10
152.8277737054
 20
101.6383790032
  0
VERTEX
  8
0
 62
7
  6
CONTINUOUS
 10
152.861610799
 20
101.5415725253
  0
VERTEX
  8
0
 62
7
  6
CONTINUOUS
 10
152.8982672084
 20
101.4456863588
  0
VERTEX
  8
0
 62
7
  6
CONTINUOUS
 10
152.9377370033
 20
101.3508144786
  0
VERTEX
  8
0
 62
7
  6
CONTINUOUS
 10
152.979985114
 20
101.2571340237
  0
VERTEX
  8
0
 62
7
  6
CONTINUOUS
 10
153.0250752341
 20
101.1645665617
  0
VERTEX
  8
0
 62
7
  6
CONTINUOUS
 10
153.0730907164
 20
101.0730154429
  0
VERTEX
  8
0
 62
7
  6
CONTINUOUS
 10
153.1238129716
 20
100.9829507112
  0
VERTEX
  8
0
 62
7
  6
CONTINUOUS
 10
153.1769919874
 20
100.8947718046
  0
VERTEX
  8
0
 62
7
  6
CONTINUOUS
 10
153.2344573645
 20
100.805693667
  0
VERTEX
  8
0
 62
7
  6
CONTINUOUS
 10
153.2994826846
 20
100.7116745251
  0
VERTEX
  8
0
 62
7
  6
CONTINUOUS
 10
153.3757935329
 20
100.6093440536
  0
VERTEX
  8
0
 62
7
  6
CONTINUOUS
 10
153.4637914741
 20
100.5007075793
  0
VERTEX
  8
0
 62
7
  6
CONTINUOUS
 10
153.5573838399
 20
100.3947547263
  0
VERTEX
  8
0
 62
7
  6
CONTINUOUS
 10
153.6489922074
 20
100.2994377094
  0
VERTEX
  8
0
 62
7
  6
CONTINUOUS
 10
153.7355035723
 20
100.2161585473
  0
VERTEX
  8
0
 62
7
  6
CONTINUOUS
 10
153.8189410511
 20
100.1414343222
  0
VERTEX
  8
0
 62
7
  6
CONTINUOUS
 10
153.9020146661
 20
100.0720304143
  0
VERTEX
  8
0
 62
7
  6
CONTINUOUS
 10
153.9868948898
 20
100.0058814751
  0
VERTEX
  8
0
 62
7
  6
CONTINUOUS
 10
154.0738749824
 20
99.9427558555
  0
VERTEX
  8
0
 62
7
  6
CONTINUOUS
 10
154.1629393497
 20
99.8826939486
  0
VERTEX
  8
0
 62
7
  6
CONTINUOUS
 10
154.2539200861
 20
99.8258478915
  0
VERTEX
  8
0
 62
7
  6
CONTINUOUS
 10
154.3469307578
 20
99.7722181644
  0
VERTEX
  8
0
 62
7
  6
CONTINUOUS
 10
154.4422963387
 20
99.7217069982
  0
VERTEX
  8
0
 62
7
  6
CONTINUOUS
 10
154.539975917
 20
99.6744567882
  0
VERTEX
  8
0
 62
7
  6
CONTINUOUS
 10
154.6398811635
 20
99.6306003459
  0
VERTEX
  8
0
 62
7
  6
CONTINUOUS
 10
154.7416639609
 20
99.590345819
  0
VERTEX
  8
0
 62
7
  6
CONTINUOUS
 10
154.8450309518
 20
99.5538552217
  0
VERTEX
  8
0
 62
7
  6
CONTINUOUS
 10
154.9498928453
 20
99.5212012122
  0
VERTEX
  8
0
 62
7
  6
CONTINUOUS
 10
155.0561720304
 20
99.4924669338
  0
VERTEX
  8
0
 62
7
  6
CONTINUOUS
 10
155.1634298866
 20
99.4678237402
  0
VERTEX
  8
0
 62
7
  6
CONTINUOUS
 10
155.2718002507
 20
99.4473066187
  0
VERTEX
  8
0
 62
7
  6
CONTINUOUS
 10
155.3825581086
 20
99.4308158204
  0
VERTEX
  8
0
 62
7
  6
CONTINUOUS
 10
155.4971606895
 20
99.418455949
  0
VERTEX
  8
0
 62
7
  6
CONTINUOUS
 10
155.6170416811
 20
99.4105681012
  0
VERTEX
  8
0
 62
7
  6
CONTINUOUS
 10
155.7437500883
 20
99.407755913
  0
SEQEND
  0
LINE
  8
0
 62
7
  6
CONTINUOUS
 10
146.74375
 20
118.5638647745
 11
146.74375
 21
102.7714305964
  0
LINE
  8
0
 62
7
  6
CONTINUOUS
 10
147.54375
 20
119.9152389087
 11
147.54375
 21
121.4458554547
  0
LINE
  8
0
 62
7
  6
CONTINUOUS
 10
147.84375
 20
102.7714312787
 11
147.84375
 21
118.5638647745
  0
LINE
  8
0
 62
7
  6
CONTINUOUS
 10
152.64375
 20
118.5638647745
 11
152.64375
 21
102.7714318459
  0
LINE
  8
0
 62
7
  6
CONTINUOUS
 10
152.94375
 20
121.4458554547
 11
152.94375
 21
119.9152389087
  0
LINE
  8
0
 62
7
  6
CONTINUOUS
 10
153.74375
 20
118.5638647745
 11
153.74375
 21
102.7714305964
  0
LINE
  8
0
 62
7
  6
CONTINUOUS
 10
156.44375
 20
130.3958554547
 11
156.44375
 21
125.702513929
  0
LINE
  8
0
 62
7
  6
CONTINUOUS
 10
134.9126217492
 20
79.8416237455
 11
134.9991193266
 21
80.0624686239
  0
LINE
  8
0
 62
7
  6
CONTINUOUS
 10
152.8748694847
 20
119.5505246298
 11
152.7883990821
 21
119.3297647602
  0
LINE
  8
0
 62
7
  6
CONTINUOUS
 10
153.8126305153
 20
118.9285790534
 11
156.4230858454
 21
125.5930996453
  0
POLYLINE
  8
0
 62
7
  6
CONTINUOUS
 66
1
 70
0
  0
VERTEX
  8
0
 62
7
  6
CONTINUOUS
 10
34.9012603849
 20
67.3394967044
  0
VERTEX
  8
0
 62
7
  6
CONTINUOUS
 10
34.9286576287
 20
67.3516157396
  0
VERTEX
  8
0
 62
7
  6
CONTINUOUS
 10
34.9548713761
 20
67.3665097682
  0
VERTEX
  8
0
 62
7
  6
CONTINUOUS
 10
34.9789663176
 20
67.3835731296
  0
VERTEX
  8
0
 62
7
  6
CONTINUOUS
 10
35.0011810735
 20
67.4028397784
  0
VERTEX
  8
0
 62
7
  6
CONTINUOUS
 10
35.0216116455
 20
67.4244322392
  0
VERTEX
  8
0
 62
7
  6
CONTINUOUS
 10
35.0398298099
 20
67.4479761729
  0
VERTEX
  8
0
 62
7
  6
CONTINUOUS
 10
35.0557404534
 20
67.473416796
  0
VERTEX
  8
0
 62
7
  6
CONTINUOUS
 10
35.0691707716
 20
67.500644811
  0
VERTEX
  8
0
 62
7
  6
CONTINUOUS
 10
35.079782852
 20
67.5290986954
  0
VERTEX
  8
0
 62
7
  6
CONTINUOUS
 10
35.0874841397
 20
67.5585769379
  0
VERTEX
  8
0
 62
7
  6
CONTINUOUS
 10
35.0922098791
 20
67.5892113106
  0
VERTEX
  8
0
 62
7
  6
CONTINUOUS
 10
35.09375
 20
67.6195708323
  0
SEQEND
  0
LINE
  8
0
 62
7
  6
CONTINUOUS
 10
321.2414623505
 20
66.2958554547
 11
314.2414623505
 21
66.2958554547
  0
LINE
  8
0
 62
7
  6
CONTINUOUS
 10
293.4414623505
 20
66.2958554547
 11
286.4414623505
 21
66.2958554547
  0
LINE
  8
0
 62
7
  6
CONTINUOUS
 10
268.0414623505
 20
66.2958554547
 11
261.04375
 21
66.2958554547
  0
LINE
  8
0
 62
7
  6
CONTINUOUS
 10
242.64375
 20
66.2958554547
 11
235.64375
 21
66.2958554547
  0
LINE
  8
0
 62
7
  6
CONTINUOUS
 10
217.24375
 20
66.2958554547
 11
210.24375
 21
66.2958554547
  0
LINE
  8
0
 62
7
  6
CONTINUOUS
 10
191.84375
 20
66.2958554547
 11
184.84375
 21
66.2958554547
  0
LINE
  8
0
 62
7
  6
CONTINUOUS
 10
166.44375
 20
66.2958554547
 11
159.44375
 21
66.2958554547
  0
LINE
  8
0
 62
7
  6
CONTINUOUS
 10
141.04375
 20
66.2958554547
 11
134.04375
 21
66.2958554547
  0
LINE
  8
0
 62
7
  6
CONTINUOUS
 10
55.4460376495
 20
66.2958554547
 11
62.4460376495
 21
66.2958554547
  0
LINE
  8
0
 62
7
  6
CONTINUOUS
 10
83.2460376495
 20
66.2958554547
 11
90.2460376495
 21
66.2958554547
  0
LINE
  8
0
 62
7
  6
CONTINUOUS
 10
108.6460376495
 20
66.2958554547
 11
115.64375
 21
66.2958554547
  0
POLYLINE
  8
0
 62
7
  6
CONTINUOUS
 66
1
 70
0
  0
VERTEX
  8
0
 62
7
  6
CONTINUOUS
 10
29.1033747945
 20
65.1431117634
  0
VERTEX
  8
0
 62
7
  6
CONTINUOUS
 10
29.1312359131
 20
65.1426509639
  0
VERTEX
  8
0
 62
7
  6
CONTINUOUS
 10
29.1594013232
 20
65.1448141485
  0
VERTEX
  8
0
 62
7
  6
CONTINUOUS
 10
29.1876680368
 20
65.1497214224
  0
VERTEX
  8
0
 62
7
  6
CONTINUOUS
 10
29.2157423994
 20
65.1574332589
  0
VERTEX
  8
0
 62
7
  6
CONTINUOUS
 10
29.2298293997
 20
65.162438768
  0
SEQEND
  0
LINE
  8
0
 62
7
  6
CONTINUOUS
 10
156.74375
 20
68.9958554547
 11
156.74375
 21
73.6892007144
  0
LINE
  8
0
 62
7
  6
CONTINUOUS
 10
159.44375
 20
94.8958554547
 11
159.44375
 21
80.8283216102
  0
LINE
  8
0
 62
7
  6
CONTINUOUS
 10
160.24375
 20
77.9458554547
 11
160.24375
 21
79.4769318473
  0
LINE
  8
0
 62
7
  6
CONTINUOUS
 10
160.54375
 20
80.8283216102
 11
160.54375
 21
94.8958554547
  0
LINE
  8
0
 62
7
  6
CONTINUOUS
 10
165.34375
 20
94.8958554547
 11
165.34375
 21
80.8283216102
  0
LINE
  8
0
 62
7
  6
CONTINUOUS
 10
165.64375
 20
79.4769318473
 11
165.64375
 21
77.9458554547
  0
LINE
  8
0
 62
7
  6
CONTINUOUS
 10
166.44375
 20
94.8958554547
 11
166.44375
 21
80.8283216102
  0
LINE
  8
0
 62
7
  6
CONTINUOUS
 10
34.9012603849
 20
67.3394967044
 11
29.2298306985
 21
65.1624388205
  0
POLYLINE
  8
0
 62
7
  6
CONTINUOUS
 66
1
 70
0
  0
VERTEX
  8
0
 62
7
  6
CONTINUOUS
 10
332.2937500182
 20
80.9473132807
  0
VERTEX
  8
0
 62
7
  6
CONTINUOUS
 10
332.1848766809
 20
80.9443177951
  0
VERTEX
  8
0
 62
7
  6
CONTINUOUS
 10
332.0592381799
 20
80.9334559189
  0
VERTEX
  8
0
 62
7
  6
CONTINUOUS
 10
331.9336419302
 20
80.9146306074
  0
VERTEX
  8
0
 62
7
  6
CONTINUOUS
 10
331.809388921
 20
80.8879774903
  0
VERTEX
  8
0
 62
7
  6
CONTINUOUS
 10
331.6875841288
 20
80.8537449658
  0
VERTEX
  8
0
 62
7
  6
CONTINUOUS
 10
331.5685043467
 20
80.8120370495
  0
VERTEX
  8
0
 62
7
  6
CONTINUOUS
 10
331.4521439864
 20
80.7627992474
  0
VERTEX
  8
0
 62
7
  6
CONTINUOUS
 10
331.338826933
 20
80.706115667
  0
VERTEX
  8
0
 62
7
  6
CONTINUOUS
 10
331.2289798676
 20
80.6422171232
  0
VERTEX
  8
0
 62
7
  6
CONTINUOUS
 10
331.1231646856
 20
80.5713242201
  0
VERTEX
  8
0
 62
7
  6
CONTINUOUS
 10
331.0223285076
 20
80.4940071727
  0
VERTEX
  8
0
 62
7
  6
CONTINUOUS
 10
330.9269170248
 20
80.4107055374
  0
VERTEX
  8
0
 62
7
  6
CONTINUOUS
 10
330.8370394902
 20
80.321447031
  0
VERTEX
  8
0
 62
7
  6
CONTINUOUS
 10
330.7530327938
 20
80.2266882436
  0
VERTEX
  8
0
 62
7
  6
CONTINUOUS
 10
330.675259658
 20
80.1270134253
  0
VERTEX
  8
0
 62
7
  6
CONTINUOUS
 10
330.6041240565
 20
80.0228914363
  0
VERTEX
  8
0
 62
7
  6
CONTINUOUS
 10
330.5397784555
 20
79.9143667946
  0
VERTEX
  8
0
 62
7
  6
CONTINUOUS
 10
330.4823480815
 20
79.8017004862
  0
VERTEX
  8
0
 62
7
  6
CONTINUOUS
 10
330.4321176574
 20
79.6853291128
  0
VERTEX
  8
0
 62
7
  6
CONTINUOUS
 10
330.3893674843
 20
79.5657033942
  0
VERTEX
  8
0
 62
7
  6
CONTINUOUS
 10
330.3542938609
 20
79.443423477
  0
VERTEX
  8
0
 62
7
  6
CONTINUOUS
 10
330.3270787456
 20
79.31910379
  0
VERTEX
  8
0
 62
7
  6
CONTINUOUS
 10
330.3078892549
 20
79.1934468421
  0
VERTEX
  8
0
 62
7
  6
CONTINUOUS
 10
330.2967990341
 20
79.067113564
  0
VERTEX
  8
0
 62
7
  6
CONTINUOUS
 10
330.29375
 20
78.9574449118
  0
SEQEND
  0
POLYLINE
  8
0
 62
7
  6
CONTINUOUS
 66
1
 70
0
  0
VERTEX
  8
0
 62
7
  6
CONTINUOUS
 10
44.3937499883
 20
71.644397651
  0
VERTEX
  8
0
 62
7
  6
CONTINUOUS
 10
44.5016317487
 20
71.6473186827
  0
VERTEX
  8
0
 62
7
  6
CONTINUOUS
 10
44.6270305491
 20
71.6580540713
  0
VERTEX
  8
0
 62
7
  6
CONTINUOUS
 10
44.7521579738
 20
71.676711525
  0
VERTEX
  8
0
 62
7
  6
CONTINUOUS
 10
44.8760656242
 20
71.7032079951
  0
VERTEX
  8
0
 62
7
  6
CONTINUOUS
 10
44.9978305879
 20
71.7373238999
  0
VERTEX
  8
0
 62
7
  6
CONTINUOUS
 10
45.1168159475
 20
71.7788425559
  0
VERTEX
  8
0
 62
7
  6
CONTINUOUS
 10
45.2325399898
 20
71.8275980894
  0
VERTEX
  8
0
 62
7
  6
CONTINUOUS
 10
45.3449874833
 20
71.8835478288
  0
VERTEX
  8
0
 62
7
  6
CONTINUOUS
 10
45.4543181446
 20
71.9468241648
  0
VERTEX
  8
0
 62
7
  6
CONTINUOUS
 10
45.5600259179
 20
72.0173586025
  0
VERTEX
  8
0
 62
7
  6
CONTINUOUS
 10
45.6610500253
 20
72.0944344949
  0
VERTEX
  8
0
 62
7
  6
CONTINUOUS
 10
45.7566927041
 20
72.1774508287
  0
VERTEX
  8
0
 62
7
  6
CONTINUOUS
 10
45.8466499349
 20
72.2662069441
  0
VERTEX
  8
0
 62
7
  6
CONTINUOUS
 10
45.9305773034
 20
72.3603821508
  0
VERTEX
  8
0
 62
7
  6
CONTINUOUS
 10
46.0085436152
 20
72.4599191146
  0
VERTEX
  8
0
 62
7
  6
CONTINUOUS
 10
46.080303594
 20
72.5644891038
  0
VERTEX
  8
0
 62
7
  6
CONTINUOUS
 10
46.1454852801
 20
72.6736765359
  0
VERTEX
  8
0
 62
7
  6
CONTINUOUS
 10
46.2037690307
 20
72.7871998976
  0
VERTEX
  8
0
 62
7
  6
CONTINUOUS
 10
46.254668373
 20
72.9045572251
  0
VERTEX
  8
0
 62
7
  6
CONTINUOUS
 10
46.297826309
 20
73.0251593546
  0
VERTEX
  8
0
 62
7
  6
CONTINUOUS
 10
46.3330987399
 20
73.1482984091
  0
VERTEX
  8
0
 62
7
  6
CONTINUOUS
 10
46.3603796022
 20
73.2731636282
  0
VERTEX
  8
0
 62
7
  6
CONTINUOUS
 10
46.37958063
 20
73.3989223372
  0
VERTEX
  8
0
 62
7
  6
CONTINUOUS
 10
46.3906712094
 20
73.5247150486
  0
VERTEX
  8
0
 62
7
  6
CONTINUOUS
 10
46.3937499998
 20
73.6342741427
  0
SEQEND
  0
LINE
  8
0
 62
7
  6
CONTINUOUS
 10
35.1264168823
 20
71.6428760144
 11
35.1711572243
 21
71.6435265749
  0
LINE
  8
0
 62
7
  6
CONTINUOUS
 10
35.1711572243
 20
71.6435265749
 11
35.2226547809
 21
71.6440417144
  0
LINE
  8
0
 62
7
  6
CONTINUOUS
 10
35.2226547809
 20
71.6440417144
 11
35.2790110673
 21
71.6443443606
  0
LINE
  8
0
 62
7
  6
CONTINUOUS
 10
35.2790110673
 20
71.6443443606
 11
44.39375
 21
71.6443948876
  0
LINE
  8
DEFAULT_1
 62
2
  6
CENTER
 10
16.04375
 20
74.2958554547
 11
360.04375
 21
74.2958554547
  0
LINE
  8
0
 62
7
  6
CONTINUOUS
 10
240.84375
 20
76.9458554547
 11
237.44375
 21
76.9458554547
  0
LINE
  8
0
 62
7
  6
CONTINUOUS
 10
215.44375
 20
76.9458554547
 11
212.04375
 21
76.9458554547
  0
LINE
  8
0
 62
7
  6
CONTINUOUS
 10
190.04375
 20
76.9458554547
 11
186.64375
 21
76.9458554547
  0
LINE
  8
0
 62
7
  6
CONTINUOUS
 10
164.64375
 20
76.9458554547
 11
161.24375
 21
76.9458554547
  0
LINE
  8
0
 62
7
  6
CONTINUOUS
 10
139.24375
 20
76.9458554547
 11
135.84375
 21
76.9458554547
  0
LINE
  8
0
 62
7
  6
CONTINUOUS
 10
113.84375
 20
76.9458554547
 11
110.44375
 21
76.9458554547
  0
LINE
  8
0
 62
7
  6
CONTINUOUS
 10
332.29375
 20
71.6443948876
 11
341.4392347839
 21
71.6442122871
  0
LINE
  8
0
 62
7
  6
CONTINUOUS
 10
341.4392347839
 20
71.6442122871
 11
341.4942209245
 21
71.6437767567
  0
POLYLINE
  8
0
 62
7
  6
CONTINUOUS
 66
1
 70
0
  0
VERTEX
  8
0
 62
7
  6
CONTINUOUS
 10
341.4942209245
 20
71.6437767567
  0
VERTEX
  8
0
 62
7
  6
CONTINUOUS
 10
341.5440723457
 20
71.6431481273
  0
VERTEX
  8
0
 62
7
  6
CONTINUOUS
 10
341.5610683341
 20
71.6428729113
  0
SEQEND
  0
LINE
  8
0
 62
7
  6
CONTINUOUS
 10
144.0644141546
 20
125.5930996453
 11
146.6748694847
 21
118.9285790534
  0
LINE
  8
0
 62
7
  6
CONTINUOUS
 10
147.6991009179
 20
119.3297647602
 11
147.6126305153
 21
119.5505246298
  0
LINE
  8
0
 62
7
  6
CONTINUOUS
 10
165.4883806734
 20
80.0624686239
 11
165.5748782508
 21
79.8416237455
  0
LINE
  8
0
 62
7
  6
CONTINUOUS
 10
169.1230884752
 20
73.7986082839
 11
166.5126217492
 21
80.4636297119
  0
POLYLINE
  8
0
 62
7
  6
CONTINUOUS
 66
1
 70
0
  0
VERTEX
  8
0
 62
7
  6
CONTINUOUS
 10
178.04375
 20
102.7714318458
  0
VERTEX
  8
0
 62
7
  6
CONTINUOUS
 10
178.0456055168
 20
102.6558653501
  0
VERTEX
  8
0
 62
7
  6
CONTINUOUS
 10
178.0508356474
 20
102.5459211206
  0
VERTEX
  8
0
 62
7
  6
CONTINUOUS
 10
178.0590841511
 20
102.4401778382
  0
VERTEX
  8
0
 62
7
  6
CONTINUOUS
 10
178.0701545043
 20
102.3373016554
  0
VERTEX
  8
0
 62
7
  6
CONTINUOUS
 10
178.0840224064
 20
102.2359814963
  0
VERTEX
  8
0
 62
7
  6
CONTINUOUS
 10
178.1008011616
 20
102.1349709497
  0
VERTEX
  8
0
 62
7
  6
CONTINUOUS
 10
178.1205081616
 20
102.0341841961
  0
VERTEX
  8
0
 62
7
  6
CONTINUOUS
 10
178.1430652455
 20
101.9340989571
  0
VERTEX
  8
0
 62
7
  6
CONTINUOUS
 10
178.1684651656
 20
101.8347738144
  0
VERTEX
  8
0
 62
7
  6
CONTINUOUS
 10
178.1967159567
 20
101.7361561105
  0
VERTEX
  8
0
 62
7
  6
CONTINUOUS
 10
178.2277737054
 20
101.6383790031
  0
VERTEX
  8
0
 62
7
  6
CONTINUOUS
 10
178.261610799
 20
101.5415725252
  0
VERTEX
  8
0
 62
7
  6
CONTINUOUS
 10
178.2982672085
 20
101.4456863587
  0
VERTEX
  8
0
 62
7
  6
CONTINUOUS
 10
178.3377370034
 20
101.3508144785
  0
VERTEX
  8
0
 62
7
  6
CONTINUOUS
 10
178.3799851141
 20
101.2571340236
  0
VERTEX
  8
0
 62
7
  6
CONTINUOUS
 10
178.4250752342
 20
101.1645665616
  0
VERTEX
  8
0
 62
7
  6
CONTINUOUS
 10
178.4730907165
 20
101.0730154428
  0
VERTEX
  8
0
 62
7
  6
CONTINUOUS
 10
178.5238129717
 20
100.9829507111
  0
VERTEX
  8
0
 62
7
  6
CONTINUOUS
 10
178.5769919875
 20
100.8947718045
  0
VERTEX
  8
0
 62
7
  6
CONTINUOUS
 10
178.6344573645
 20
100.8056936669
  0
VERTEX
  8
0
 62
7
  6
CONTINUOUS
 10
178.6994826847
 20
100.711674525
  0
VERTEX
  8
0
 62
7
  6
CONTINUOUS
 10
178.7757935329
 20
100.6093440536
  0
VERTEX
  8
0
 62
7
  6
CONTINUOUS
 10
178.8637914741
 20
100.5007075792
  0
VERTEX
  8
0
 62
7
  6
CONTINUOUS
 10
178.9573838399
 20
100.3947547262
  0
VERTEX
  8
0
 62
7
  6
CONTINUOUS
 10
179.0489922074
 20
100.2994377093
  0
VERTEX
  8
0
 62
7
  6
CONTINUOUS
 10
179.1355035723
 20
100.2161585472
  0
VERTEX
  8
0
 62
7
  6
CONTINUOUS
 10
179.2189410512
 20
100.1414343222
  0
VERTEX
  8
0
 62
7
  6
CONTINUOUS
 10
179.3020146662
 20
100.0720304142
  0
VERTEX
  8
0
 62
7
  6
CONTINUOUS
 10
179.3868948898
 20
100.0058814751
  0
VERTEX
  8
0
 62
7
  6
CONTINUOUS
 10
179.4738749825
 20
99.9427558555
  0
VERTEX
  8
0
 62
7
  6
CONTINUOUS
 10
179.5629393497
 20
99.8826939485
  0
VERTEX
  8
0
 62
7
  6
CONTINUOUS
 10
179.6539200861
 20
99.8258478915
  0
VERTEX
  8
0
 62
7
  6
CONTINUOUS
 10
179.7469307579
 20
99.7722181644
  0
VERTEX
  8
0
 62
7
  6
CONTINUOUS
 10
179.8422963387
 20
99.7217069982
  0
VERTEX
  8
0
 62
7
  6
CONTINUOUS
 10
179.939975917
 20
99.6744567882
  0
VERTEX
  8
0
 62
7
  6
CONTINUOUS
 10
180.0398811635
 20
99.6306003459
  0
VERTEX
  8
0
 62
7
  6
CONTINUOUS
 10
180.1416639609
 20
99.5903458189
  0
VERTEX
  8
0
 62
7
  6
CONTINUOUS
 10
180.2450309519
 20
99.5538552217
  0
VERTEX
  8
0
 62
7
  6
CONTINUOUS
 10
180.3498928453
 20
99.5212012122
  0
VERTEX
  8
0
 62
7
  6
CONTINUOUS
 10
180.4561720305
 20
99.4924669338
  0
VERTEX
  8
0
 62
7
  6
CONTINUOUS
 10
180.5634298866
 20
99.4678237402
  0
VERTEX
  8
0
 62
7
  6
CONTINUOUS
 10
180.6718002508
 20
99.4473066187
  0
VERTEX
  8
0
 62
7
  6
CONTINUOUS
 10
180.7825581087
 20
99.4308158203
  0
VERTEX
  8
0
 62
7
  6
CONTINUOUS
 10
180.8971606895
 20
99.418455949
  0
VERTEX
  8
0
 62
7
  6
CONTINUOUS
 10
181.0170416811
 20
99.4105681012
  0
VERTEX
  8
0
 62
7
  6
CONTINUOUS
 10
181.1437500883
 20
99.407755913
  0
SEQEND
  0
LINE
  8
0
 62
7
  6
CONTINUOUS
 10
169.14375
 20
73.6892007144
 11
169.14375
 21
68.9958554547
  0
LINE
  8
0
 62
7
  6
CONTINUOUS
 10
169.44375
 20
125.702513929
 11
169.44375
 21
130.3958554547
  0
LINE
  8
0
 62
7
  6
CONTINUOUS
 10
172.14375
 20
118.5638647745
 11
172.14375
 21
102.7714305964
  0
LINE
  8
0
 62
7
  6
CONTINUOUS
 10
172.94375
 20
119.9152389087
 11
172.94375
 21
121.4458554547
  0
LINE
  8
0
 62
7
  6
CONTINUOUS
 10
173.24375
 20
102.7714312787
 11
173.24375
 21
118.5638647745
  0
LINE
  8
0
 62
7
  6
CONTINUOUS
 10
178.04375
 20
118.5638647745
 11
178.04375
 21
102.7714318458
  0
LINE
  8
0
 62
7
  6
CONTINUOUS
 10
178.34375
 20
121.4458554547
 11
178.34375
 21
119.9152389087
  0
LINE
  8
0
 62
7
  6
CONTINUOUS
 10
156.7644115248
 20
73.7986082839
 11
159.3748782508
 21
80.4636297119
  0
LINE
  8
0
 62
7
  6
CONTINUOUS
 10
160.3126217492
 20
79.8416237455
 11
160.3991193266
 21
80.0624686239
  0
LINE
  8
0
 62
7
  6
CONTINUOUS
 10
178.2748694847
 20
119.5505246298
 11
178.1883990821
 21
119.3297647602
  0
LINE
  8
0
 62
7
  6
CONTINUOUS
 10
179.2126305153
 20
118.9285790534
 11
181.8230858454
 21
125.5930996453
  0
LINE
  8
0
 62
7
  6
CONTINUOUS
 10
341.5610677484
 20
80.9488315103
 11
341.5192271224
 21
80.9482146703
  0
LINE
  8
0
 62
7
  6
CONTINUOUS
 10
341.5192271224
 20
80.9482146703
 11
341.467471625
 21
80.9476861636
  0
LINE
  8
0
 62
7
  6
CONTINUOUS
 10
341.467471625
 20
80.9476861636
 11
341.4107621089
 21
80.9473726849
  0
LINE
  8
0
 62
7
  6
CONTINUOUS
 10
341.4107621089
 20
80.9473726849
 11
332.29375
 21
80.9473160217
  0
LINE
  8
0
 62
7
  6
CONTINUOUS
 10
44.39375
 20
80.9473160217
 11
35.276483099
 21
80.9473734936
  0
LINE
  8
0
 62
7
  6
CONTINUOUS
 10
35.276483099
 20
80.9473734936
 11
35.2195429068
 21
80.9476900206
  0
LINE
  8
0
 62
7
  6
CONTINUOUS
 10
35.2195429068
 20
80.9476900206
 11
35.1675999058
 21
80.9482231529
  0
LINE
  8
0
 62
7
  6
CONTINUOUS
 10
35.1675999058
 20
80.9482231529
 11
35.126417116
 21
80.9488322982
  0
LINE
  8
0
 62
7
  6
CONTINUOUS
 10
179.14375
 20
118.5638647745
 11
179.14375
 21
102.7714305964
  0
LINE
  8
0
 62
7
  6
CONTINUOUS
 10
181.84375
 20
130.3958554547
 11
181.84375
 21
125.702513929
  0
LINE
  8
0
 62
7
  6
CONTINUOUS
 10
182.14375
 20
68.9958554547
 11
182.14375
 21
73.6892007144
  0
LINE
  8
0
 62
7
  6
CONTINUOUS
 10
184.84375
 20
94.8958554547
 11
184.84375
 21
80.8283216102
  0
LINE
  8
0
 62
7
  6
CONTINUOUS
 10
185.64375
 20
77.9458554547
 11
185.64375
 21
79.4769318473
  0
LINE
  8
0
 62
7
  6
CONTINUOUS
 10
185.94375
 20
80.8283216102
 11
185.94375
 21
94.8958554547
  0
POLYLINE
  8
0
 62
7
  6
CONTINUOUS
 66
1
 70
0
  0
VERTEX
  8
0
 62
7
  6
CONTINUOUS
 10
246.3437499838
 20
99.407755913
  0
VERTEX
  8
0
 62
7
  6
CONTINUOUS
 10
246.4691408657
 20
99.410561196
  0
VERTEX
  8
0
 62
7
  6
CONTINUOUS
 10
246.5883475143
 20
99.4184134259
  0
VERTEX
  8
0
 62
7
  6
CONTINUOUS
 10
246.7026796401
 20
99.4306969993
  0
VERTEX
  8
0
 62
7
  6
CONTINUOUS
 10
246.8134571343
 20
99.4470785134
  0
VERTEX
  8
0
 62
7
  6
CONTINUOUS
 10
246.9220190664
 20
99.4674742777
  0
VERTEX
  8
0
 62
7
  6
CONTINUOUS
 10
247.029515113
 20
99.4919877625
  0
VERTEX
  8
0
 62
7
  6
CONTINUOUS
 10
247.1359825249
 20
99.5206211798
  0
VERTEX
  8
0
 62
7
  6
CONTINUOUS
 10
247.2411042658
 20
99.5532610884
  0
VERTEX
  8
0
 62
7
  6
CONTINUOUS
 10
247.3445651498
 20
99.5897391563
  0
VERTEX
  8
0
 62
7
  6
CONTINUOUS
 10
247.4462088416
 20
99.6299259523
  0
VERTEX
  8
0
 62
7
  6
CONTINUOUS
 10
247.5459095833
 20
99.6736831238
  0
VERTEX
  8
0
 62
7
  6
CONTINUOUS
 10
247.6435617906
 20
99.7208829256
  0
VERTEX
  8
0
 62
7
  6
CONTINUOUS
 10
247.7394253024
 20
99.7715947715
  0
VERTEX
  8
0
 62
7
  6
CONTINUOUS
 10
247.8336256753
 20
99.8258376227
  0
VERTEX
  8
0
 62
7
  6
CONTINUOUS
 10
247.925955573
 20
99.8834727366
  0
VERTEX
  8
0
 62
7
  6
CONTINUOUS
 10
248.0160222907
 20
99.9442257551
  0
VERTEX
  8
0
 62
7
  6
CONTINUOUS
 10
248.1032627751
 20
100.0076108411
  0
VERTEX
  8
0
 62
7
  6
CONTINUOUS
 10
248.1875673551
 20
100.073397293
  0
VERTEX
  8
0
 62
7
  6
CONTINUOUS
 10
248.2691148618
 20
100.1415953006
  0
VERTEX
  8
0
 62
7
  6
CONTINUOUS
 10
248.3479660233
 20
100.2121479313
  0
VERTEX
  8
0
 62
7
  6
CONTINUOUS
 10
248.424103988
 20
100.2849339935
  0
VERTEX
  8
0
 62
7
  6
CONTINUOUS
 10
248.4975977933
 20
100.359924275
  0
VERTEX
  8
0
 62
7
  6
CONTINUOUS
 10
248.5684405185
 20
100.4370008215
  0
VERTEX
  8
0
 62
7
  6
CONTINUOUS
 10
248.6363621337
 20
100.5157398838
  0
VERTEX
  8
0
 62
7
  6
CONTINUOUS
 10
248.7018846261
 20
100.5966487783
  0
VERTEX
  8
0
 62
7
  6
CONTINUOUS
 10
248.7665908918
 20
100.6818496067
  0
VERTEX
  8
0
 62
7
  6
CONTINUOUS
 10
248.8307463128
 20
100.7722306091
  0
VERTEX
  8
0
 62
7
  6
CONTINUOUS
 10
248.8932595187
 20
100.8667901934
  0
VERTEX
  8
0
 62
7
  6
CONTINUOUS
 10
248.9530463989
 20
100.9641690571
  0
VERTEX
  8
0
 62
7
  6
CONTINUOUS
 10
249.0092498894
 20
101.0629756645
  0
VERTEX
  8
0
 62
7
  6
CONTINUOUS
 10
249.0613118227
 20
101.1619390726
  0
VERTEX
  8
0
 62
7
  6
CONTINUOUS
 10
249.108867824
 20
101.2597882869
  0
VERTEX
  8
0
 62
7
  6
CONTINUOUS
 10
249.1516943524
 20
101.3552124346
  0
VERTEX
  8
0
 62
7
  6
CONTINUOUS
 10
249.1905805193
 20
101.4491038044
  0
VERTEX
  8
0
 62
7
  6
CONTINUOUS
 10
249.2268306571
 20
101.5441749994
  0
VERTEX
  8
0
 62
7
  6
CONTINUOUS
 10
249.2605956698
 20
101.6408635047
  0
VERTEX
  8
0
 62
7
  6
CONTINUOUS
 10
249.291583606
 20
101.7384143966
  0
VERTEX
  8
0
 62
7
  6
CONTINUOUS
 10
249.3197357116
 20
101.8366170519
  0
VERTEX
  8
0
 62
7
  6
CONTINUOUS
 10
249.3450564864
 20
101.9355448016
  0
VERTEX
  8
0
 62
7
  6
CONTINUOUS
 10
249.3675417779
 20
102.0352654476
  0
VERTEX
  8
0
 62
7
  6
CONTINUOUS
 10
249.3871519177
 20
102.1356424314
  0
VERTEX
  8
0
 62
7
  6
CONTINUOUS
 10
249.4038238472
 20
102.2363416922
  0
VERTEX
  8
0
 62
7
  6
CONTINUOUS
 10
249.4175966197
 20
102.3375163841
  0
VERTEX
  8
0
 62
7
  6
CONTINUOUS
 10
249.4285775344
 20
102.4403227312
  0
VERTEX
  8
0
 62
7
  6
CONTINUOUS
 10
249.4367455577
 20
102.5460391144
  0
VERTEX
  8
0
 62
7
  6
CONTINUOUS
 10
249.4419179092
 20
102.6559611582
  0
VERTEX
  8
0
 62
7
  6
CONTINUOUS
 10
249.44375
 20
102.7714312785
  0
SEQEND
  0
POLYLINE
  8
0
 62
7
  6
CONTINUOUS
 66
1
 70
0
  0
VERTEX
  8
0
 62
7
  6
CONTINUOUS
 10
220.9437499838
 20
99.407755913
  0
VERTEX
  8
0
 62
7
  6
CONTINUOUS
 10
221.0691408657
 20
99.410561196
  0
VERTEX
  8
0
 62
7
  6
CONTINUOUS
 10
221.1883475143
 20
99.4184134259
  0
VERTEX
  8
0
 62
7
  6
CONTINUOUS
 10
221.3026796401
 20
99.4306969993
  0
VERTEX
  8
0
 62
7
  6
CONTINUOUS
 10
221.4134571343
 20
99.4470785134
  0
VERTEX
  8
0
 62
7
  6
CONTINUOUS
 10
221.5220190664
 20
99.4674742777
  0
VERTEX
  8
0
 62
7
  6
CONTINUOUS
 10
221.629515113
 20
99.4919877625
  0
VERTEX
  8
0
 62
7
  6
CONTINUOUS
 10
221.735982525
 20
99.5206211798
  0
VERTEX
  8
0
 62
7
  6
CONTINUOUS
 10
221.8411042659
 20
99.5532610885
  0
VERTEX
  8
0
 62
7
  6
CONTINUOUS
 10
221.9445651499
 20
99.5897391563
  0
VERTEX
  8
0
 62
7
  6
CONTINUOUS
 10
222.0462088416
 20
99.6299259523
  0
VERTEX
  8
0
 62
7
  6
CONTINUOUS
 10
222.1459095833
 20
99.6736831239
  0
VERTEX
  8
0
 62
7
  6
CONTINUOUS
 10
222.2435617906
 20
99.7208829257
  0
VERTEX
  8
0
 62
7
  6
CONTINUOUS
 10
222.3394253024
 20
99.7715947715
  0
VERTEX
  8
0
 62
7
  6
CONTINUOUS
 10
222.4336256753
 20
99.8258376227
  0
VERTEX
  8
0
 62
7
  6
CONTINUOUS
 10
222.525955573
 20
99.8834727366
  0
VERTEX
  8
0
 62
7
  6
CONTINUOUS
 10
222.6160222907
 20
99.9442257551
  0
VERTEX
  8
0
 62
7
  6
CONTINUOUS
 10
222.7032627751
 20
100.0076108411
  0
VERTEX
  8
0
 62
7
  6
CONTINUOUS
 10
222.7875673552
 20
100.073397293
  0
VERTEX
  8
0
 62
7
  6
CONTINUOUS
 10
222.8691148619
 20
100.1415953006
  0
VERTEX
  8
0
 62
7
  6
CONTINUOUS
 10
222.9479660233
 20
100.2121479314
  0
VERTEX
  8
0
 62
7
  6
CONTINUOUS
 10
223.0241039881
 20
100.2849339935
  0
VERTEX
  8
0
 62
7
  6
CONTINUOUS
 10
223.0975977933
 20
100.359924275
  0
VERTEX
  8
0
 62
7
  6
CONTINUOUS
 10
223.1684405185
 20
100.4370008216
  0
VERTEX
  8
0
 62
7
  6
CONTINUOUS
 10
223.2363621337
 20
100.5157398839
  0
VERTEX
  8
0
 62
7
  6
CONTINUOUS
 10
223.3018846261
 20
100.5966487784
  0
VERTEX
  8
0
 62
7
  6
CONTINUOUS
 10
223.3665908919
 20
100.6818496067
  0
VERTEX
  8
0
 62
7
  6
CONTINUOUS
 10
223.4307463128
 20
100.7722306092
  0
VERTEX
  8
0
 62
7
  6
CONTINUOUS
 10
223.4932595188
 20
100.8667901935
  0
VERTEX
  8
0
 62
7
  6
CONTINUOUS
 10
223.5530463989
 20
100.9641690572
  0
VERTEX
  8
0
 62
7
  6
CONTINUOUS
 10
223.6092498895
 20
101.0629756646
  0
VERTEX
  8
0
 62
7
  6
CONTINUOUS
 10
223.6613118227
 20
101.1619390727
  0
VERTEX
  8
0
 62
7
  6
CONTINUOUS
 10
223.708867824
 20
101.259788287
  0
VERTEX
  8
0
 62
7
  6
CONTINUOUS
 10
223.7516943524
 20
101.3552124347
  0
VERTEX
  8
0
 62
7
  6
CONTINUOUS
 10
223.7905805193
 20
101.4491038045
  0
VERTEX
  8
0
 62
7
  6
CONTINUOUS
 10
223.8268306571
 20
101.5441749995
  0
VERTEX
  8
0
 62
7
  6
CONTINUOUS
 10
223.8605956698
 20
101.6408635048
  0
VERTEX
  8
0
 62
7
  6
CONTINUOUS
 10
223.891583606
 20
101.7384143967
  0
VERTEX
  8
0
 62
7
  6
CONTINUOUS
 10
223.9197357116
 20
101.836617052
  0
VERTEX
  8
0
 62
7
  6
CONTINUOUS
 10
223.9450564864
 20
101.9355448017
  0
VERTEX
  8
0
 62
7
  6
CONTINUOUS
 10
223.9675417779
 20
102.0352654477
  0
VERTEX
  8
0
 62
7
  6
CONTINUOUS
 10
223.9871519177
 20
102.1356424316
  0
VERTEX
  8
0
 62
7
  6
CONTINUOUS
 10
224.0038238472
 20
102.2363416923
  0
VERTEX
  8
0
 62
7
  6
CONTINUOUS
 10
224.0175966197
 20
102.3375163843
  0
VERTEX
  8
0
 62
7
  6
CONTINUOUS
 10
224.0285775344
 20
102.4403227314
  0
VERTEX
  8
0
 62
7
  6
CONTINUOUS
 10
224.0367455577
 20
102.5460391145
  0
VERTEX
  8
0
 62
7
  6
CONTINUOUS
 10
224.0419179092
 20
102.6559611583
  0
VERTEX
  8
0
 62
7
  6
CONTINUOUS
 10
224.04375
 20
102.7714312787
  0
SEQEND
  0
POLYLINE
  8
0
 62
7
  6
CONTINUOUS
 66
1
 70
0
  0
VERTEX
  8
0
 62
7
  6
CONTINUOUS
 10
195.5437499838
 20
99.407755913
  0
VERTEX
  8
0
 62
7
  6
CONTINUOUS
 10
195.6691408657
 20
99.410561196
  0
VERTEX
  8
0
 62
7
  6
CONTINUOUS
 10
195.7883475143
 20
99.4184134259
  0
VERTEX
  8
0
 62
7
  6
CONTINUOUS
 10
195.9026796401
 20
99.4306969993
  0
VERTEX
  8
0
 62
7
  6
CONTINUOUS
 10
196.0134571343
 20
99.4470785135
  0
VERTEX
  8
0
 62
7
  6
CONTINUOUS
 10
196.1220190665
 20
99.4674742777
  0
VERTEX
  8
0
 62
7
  6
CONTINUOUS
 10
196.229515113
 20
99.4919877625
  0
VERTEX
  8
0
 62
7
  6
CONTINUOUS
 10
196.335982525
 20
99.5206211798
  0
VERTEX
  8
0
 62
7
  6
CONTINUOUS
 10
196.4411042659
 20
99.5532610885
  0
VERTEX
  8
0
 62
7
  6
CONTINUOUS
 10
196.5445651499
 20
99.5897391563
  0
VERTEX
  8
0
 62
7
  6
CONTINUOUS
 10
196.6462088416
 20
99.6299259523
  0
VERTEX
  8
0
 62
7
  6
CONTINUOUS
 10
196.7459095833
 20
99.6736831239
  0
VERTEX
  8
0
 62
7
  6
CONTINUOUS
 10
196.8435617906
 20
99.7208829257
  0
VERTEX
  8
0
 62
7
  6
CONTINUOUS
 10
196.9394253024
 20
99.7715947715
  0
VERTEX
  8
0
 62
7
  6
CONTINUOUS
 10
197.0336256754
 20
99.8258376227
  0
VERTEX
  8
0
 62
7
  6
CONTINUOUS
 10
197.1259555731
 20
99.8834727367
  0
VERTEX
  8
0
 62
7
  6
CONTINUOUS
 10
197.2160222907
 20
99.9442257551
  0
VERTEX
  8
0
 62
7
  6
CONTINUOUS
 10
197.3032627751
 20
100.0076108411
  0
VERTEX
  8
0
 62
7
  6
CONTINUOUS
 10
197.3875673552
 20
100.073397293
  0
VERTEX
  8
0
 62
7
  6
CONTINUOUS
 10
197.4691148619
 20
100.1415953006
  0
VERTEX
  8
0
 62
7
  6
CONTINUOUS
 10
197.5479660234
 20
100.2121479314
  0
VERTEX
  8
0
 62
7
  6
CONTINUOUS
 10
197.6241039881
 20
100.2849339935
  0
VERTEX
  8
0
 62
7
  6
CONTINUOUS
 10
197.6975977934
 20
100.359924275
  0
VERTEX
  8
0
 62
7
  6
CONTINUOUS
 10
197.7684405186
 20
100.4370008216
  0
VERTEX
  8
0
 62
7
  6
CONTINUOUS
 10
197.8363621338
 20
100.5157398839
  0
VERTEX
  8
0
 62
7
  6
CONTINUOUS
 10
197.9018846262
 20
100.5966487784
  0
VERTEX
  8
0
 62
7
  6
CONTINUOUS
 10
197.9665908919
 20
100.6818496068
  0
VERTEX
  8
0
 62
7
  6
CONTINUOUS
 10
198.0307463128
 20
100.7722306092
  0
VERTEX
  8
0
 62
7
  6
CONTINUOUS
 10
198.0932595188
 20
100.8667901935
  0
VERTEX
  8
0
 62
7
  6
CONTINUOUS
 10
198.153046399
 20
100.9641690573
  0
VERTEX
  8
0
 62
7
  6
CONTINUOUS
 10
198.2092498895
 20
101.0629756647
  0
VERTEX
  8
0
 62
7
  6
CONTINUOUS
 10
198.2613118228
 20
101.1619390727
  0
VERTEX
  8
0
 62
7
  6
CONTINUOUS
 10
198.308867824
 20
101.2597882871
  0
VERTEX
  8
0
 62
7
  6
CONTINUOUS
 10
198.3516943525
 20
101.3552124348
  0
VERTEX
  8
0
 62
7
  6
CONTINUOUS
 10
198.3905805194
 20
101.4491038046
  0
VERTEX
  8
0
 62
7
  6
CONTINUOUS
 10
198.4268306572
 20
101.5441749995
  0
VERTEX
  8
0
 62
7
  6
CONTINUOUS
 10
198.4605956698
 20
101.6408635048
  0
VERTEX
  8
0
 62
7
  6
CONTINUOUS
 10
198.491583606
 20
101.7384143967
  0
VERTEX
  8
0
 62
7
  6
CONTINUOUS
 10
198.5197357116
 20
101.8366170521
  0
VERTEX
  8
0
 62
7
  6
CONTINUOUS
 10
198.5450564865
 20
101.9355448018
  0
VERTEX
  8
0
 62
7
  6
CONTINUOUS
 10
198.567541778
 20
102.0352654478
  0
VERTEX
  8
0
 62
7
  6
CONTINUOUS
 10
198.5871519177
 20
102.1356424317
  0
VERTEX
  8
0
 62
7
  6
CONTINUOUS
 10
198.6038238472
 20
102.2363416924
  0
VERTEX
  8
0
 62
7
  6
CONTINUOUS
 10
198.6175966197
 20
102.3375163844
  0
VERTEX
  8
0
 62
7
  6
CONTINUOUS
 10
198.6285775345
 20
102.4403227315
  0
VERTEX
  8
0
 62
7
  6
CONTINUOUS
 10
198.6367455577
 20
102.5460391147
  0
VERTEX
  8
0
 62
7
  6
CONTINUOUS
 10
198.6419179092
 20
102.6559611585
  0
VERTEX
  8
0
 62
7
  6
CONTINUOUS
 10
198.64375
 20
102.7714312788
  0
SEQEND
  0
POLYLINE
  8
0
 62
7
  6
CONTINUOUS
 66
1
 70
0
  0
VERTEX
  8
0
 62
7
  6
CONTINUOUS
 10
170.1437499838
 20
99.407755913
  0
VERTEX
  8
0
 62
7
  6
CONTINUOUS
 10
170.2691408657
 20
99.410561196
  0
VERTEX
  8
0
 62
7
  6
CONTINUOUS
 10
170.3883475143
 20
99.4184134259
  0
VERTEX
  8
0
 62
7
  6
CONTINUOUS
 10
170.5026796401
 20
99.4306969993
  0
VERTEX
  8
0
 62
7
  6
CONTINUOUS
 10
170.6134571343
 20
99.4470785134
  0
VERTEX
  8
0
 62
7
  6
CONTINUOUS
 10
170.7220190664
 20
99.4674742777
  0
VERTEX
  8
0
 62
7
  6
CONTINUOUS
 10
170.829515113
 20
99.4919877625
  0
VERTEX
  8
0
 62
7
  6
CONTINUOUS
 10
170.935982525
 20
99.5206211798
  0
VERTEX
  8
0
 62
7
  6
CONTINUOUS
 10
171.0411042659
 20
99.5532610885
  0
VERTEX
  8
0
 62
7
  6
CONTINUOUS
 10
171.1445651499
 20
99.5897391563
  0
VERTEX
  8
0
 62
7
  6
CONTINUOUS
 10
171.2462088416
 20
99.6299259523
  0
VERTEX
  8
0
 62
7
  6
CONTINUOUS
 10
171.3459095833
 20
99.6736831239
  0
VERTEX
  8
0
 62
7
  6
CONTINUOUS
 10
171.4435617906
 20
99.7208829257
  0
VERTEX
  8
0
 62
7
  6
CONTINUOUS
 10
171.5394253024
 20
99.7715947715
  0
VERTEX
  8
0
 62
7
  6
CONTINUOUS
 10
171.6336256753
 20
99.8258376227
  0
VERTEX
  8
0
 62
7
  6
CONTINUOUS
 10
171.725955573
 20
99.8834727366
  0
VERTEX
  8
0
 62
7
  6
CONTINUOUS
 10
171.8160222907
 20
99.9442257551
  0
VERTEX
  8
0
 62
7
  6
CONTINUOUS
 10
171.9032627751
 20
100.0076108411
  0
VERTEX
  8
0
 62
7
  6
CONTINUOUS
 10
171.9875673552
 20
100.073397293
  0
VERTEX
  8
0
 62
7
  6
CONTINUOUS
 10
172.0691148619
 20
100.1415953006
  0
VERTEX
  8
0
 62
7
  6
CONTINUOUS
 10
172.1479660233
 20
100.2121479314
  0
VERTEX
  8
0
 62
7
  6
CONTINUOUS
 10
172.2241039881
 20
100.2849339935
  0
VERTEX
  8
0
 62
7
  6
CONTINUOUS
 10
172.2975977933
 20
100.359924275
  0
VERTEX
  8
0
 62
7
  6
CONTINUOUS
 10
172.3684405185
 20
100.4370008216
  0
VERTEX
  8
0
 62
7
  6
CONTINUOUS
 10
172.4363621337
 20
100.5157398839
  0
VERTEX
  8
0
 62
7
  6
CONTINUOUS
 10
172.5018846261
 20
100.5966487784
  0
VERTEX
  8
0
 62
7
  6
CONTINUOUS
 10
172.5665908919
 20
100.6818496067
  0
VERTEX
  8
0
 62
7
  6
CONTINUOUS
 10
172.6307463128
 20
100.7722306092
  0
VERTEX
  8
0
 62
7
  6
CONTINUOUS
 10
172.6932595188
 20
100.8667901935
  0
VERTEX
  8
0
 62
7
  6
CONTINUOUS
 10
172.7530463989
 20
100.9641690572
  0
VERTEX
  8
0
 62
7
  6
CONTINUOUS
 10
172.8092498895
 20
101.0629756646
  0
VERTEX
  8
0
 62
7
  6
CONTINUOUS
 10
172.8613118227
 20
101.1619390727
  0
VERTEX
  8
0
 62
7
  6
CONTINUOUS
 10
172.908867824
 20
101.259788287
  0
VERTEX
  8
0
 62
7
  6
CONTINUOUS
 10
172.9516943524
 20
101.3552124347
  0
VERTEX
  8
0
 62
7
  6
CONTINUOUS
 10
172.9905805193
 20
101.4491038045
  0
VERTEX
  8
0
 62
7
  6
CONTINUOUS
 10
173.0268306571
 20
101.5441749994
  0
VERTEX
  8
0
 62
7
  6
CONTINUOUS
 10
173.0605956698
 20
101.6408635048
  0
VERTEX
  8
0
 62
7
  6
CONTINUOUS
 10
173.091583606
 20
101.7384143967
  0
VERTEX
  8
0
 62
7
  6
CONTINUOUS
 10
173.1197357116
 20
101.836617052
  0
VERTEX
  8
0
 62
7
  6
CONTINUOUS
 10
173.1450564864
 20
101.9355448017
  0
VERTEX
  8
0
 62
7
  6
CONTINUOUS
 10
173.1675417779
 20
102.0352654477
  0
VERTEX
  8
0
 62
7
  6
CONTINUOUS
 10
173.1871519177
 20
102.1356424316
  0
VERTEX
  8
0
 62
7
  6
CONTINUOUS
 10
173.2038238472
 20
102.2363416923
  0
VERTEX
  8
0
 62
7
  6
CONTINUOUS
 10
173.2175966197
 20
102.3375163843
  0
VERTEX
  8
0
 62
7
  6
CONTINUOUS
 10
173.2285775344
 20
102.4403227314
  0
VERTEX
  8
0
 62
7
  6
CONTINUOUS
 10
173.2367455577
 20
102.5460391145
  0
VERTEX
  8
0
 62
7
  6
CONTINUOUS
 10
173.2419179092
 20
102.6559611583
  0
VERTEX
  8
0
 62
7
  6
CONTINUOUS
 10
173.24375
 20
102.7714312787
  0
SEQEND
  0
POLYLINE
  8
0
 62
7
  6
CONTINUOUS
 66
1
 70
0
  0
VERTEX
  8
0
 62
7
  6
CONTINUOUS
 10
144.7437499838
 20
99.407755913
  0
VERTEX
  8
0
 62
7
  6
CONTINUOUS
 10
144.8691408657
 20
99.410561196
  0
VERTEX
  8
0
 62
7
  6
CONTINUOUS
 10
144.9883475143
 20
99.4184134259
  0
VERTEX
  8
0
 62
7
  6
CONTINUOUS
 10
145.1026796401
 20
99.4306969993
  0
VERTEX
  8
0
 62
7
  6
CONTINUOUS
 10
145.2134571343
 20
99.4470785134
  0
VERTEX
  8
0
 62
7
  6
CONTINUOUS
 10
145.3220190664
 20
99.4674742777
  0
VERTEX
  8
0
 62
7
  6
CONTINUOUS
 10
145.429515113
 20
99.4919877625
  0
VERTEX
  8
0
 62
7
  6
CONTINUOUS
 10
145.535982525
 20
99.5206211798
  0
VERTEX
  8
0
 62
7
  6
CONTINUOUS
 10
145.6411042659
 20
99.5532610885
  0
VERTEX
  8
0
 62
7
  6
CONTINUOUS
 10
145.7445651499
 20
99.5897391563
  0
VERTEX
  8
0
 62
7
  6
CONTINUOUS
 10
145.8462088416
 20
99.6299259523
  0
VERTEX
  8
0
 62
7
  6
CONTINUOUS
 10
145.9459095833
 20
99.6736831239
  0
VERTEX
  8
0
 62
7
  6
CONTINUOUS
 10
146.0435617906
 20
99.7208829257
  0
VERTEX
  8
0
 62
7
  6
CONTINUOUS
 10
146.1394253024
 20
99.7715947715
  0
VERTEX
  8
0
 62
7
  6
CONTINUOUS
 10
146.2336256753
 20
99.8258376227
  0
VERTEX
  8
0
 62
7
  6
CONTINUOUS
 10
146.3259555731
 20
99.8834727367
  0
VERTEX
  8
0
 62
7
  6
CONTINUOUS
 10
146.4160222907
 20
99.9442257551
  0
VERTEX
  8
0
 62
7
  6
CONTINUOUS
 10
146.5032627751
 20
100.0076108411
  0
VERTEX
  8
0
 62
7
  6
CONTINUOUS
 10
146.5875673552
 20
100.073397293
  0
VERTEX
  8
0
 62
7
  6
CONTINUOUS
 10
146.6691148619
 20
100.1415953006
  0
VERTEX
  8
0
 62
7
  6
CONTINUOUS
 10
146.7479660233
 20
100.2121479314
  0
VERTEX
  8
0
 62
7
  6
CONTINUOUS
 10
146.8241039881
 20
100.2849339935
  0
VERTEX
  8
0
 62
7
  6
CONTINUOUS
 10
146.8975977933
 20
100.359924275
  0
VERTEX
  8
0
 62
7
  6
CONTINUOUS
 10
146.9684405185
 20
100.4370008216
  0
VERTEX
  8
0
 62
7
  6
CONTINUOUS
 10
147.0363621337
 20
100.5157398839
  0
VERTEX
  8
0
 62
7
  6
CONTINUOUS
 10
147.1018846262
 20
100.5966487784
  0
VERTEX
  8
0
 62
7
  6
CONTINUOUS
 10
147.1665908919
 20
100.6818496068
  0
VERTEX
  8
0
 62
7
  6
CONTINUOUS
 10
147.2307463128
 20
100.7722306092
  0
VERTEX
  8
0
 62
7
  6
CONTINUOUS
 10
147.2932595188
 20
100.8667901935
  0
VERTEX
  8
0
 62
7
  6
CONTINUOUS
 10
147.3530463989
 20
100.9641690572
  0
VERTEX
  8
0
 62
7
  6
CONTINUOUS
 10
147.4092498895
 20
101.0629756646
  0
VERTEX
  8
0
 62
7
  6
CONTINUOUS
 10
147.4613118227
 20
101.1619390727
  0
VERTEX
  8
0
 62
7
  6
CONTINUOUS
 10
147.508867824
 20
101.259788287
  0
VERTEX
  8
0
 62
7
  6
CONTINUOUS
 10
147.5516943524
 20
101.3552124347
  0
VERTEX
  8
0
 62
7
  6
CONTINUOUS
 10
147.5905805193
 20
101.4491038046
  0
VERTEX
  8
0
 62
7
  6
CONTINUOUS
 10
147.6268306571
 20
101.5441749995
  0
VERTEX
  8
0
 62
7
  6
CONTINUOUS
 10
147.6605956698
 20
101.6408635048
  0
VERTEX
  8
0
 62
7
  6
CONTINUOUS
 10
147.691583606
 20
101.7384143967
  0
VERTEX
  8
0
 62
7
  6
CONTINUOUS
 10
147.7197357116
 20
101.8366170521
  0
VERTEX
  8
0
 62
7
  6
CONTINUOUS
 10
147.7450564865
 20
101.9355448018
  0
VERTEX
  8
0
 62
7
  6
CONTINUOUS
 10
147.7675417779
 20
102.0352654477
  0
VERTEX
  8
0
 62
7
  6
CONTINUOUS
 10
147.7871519177
 20
102.1356424316
  0
VERTEX
  8
0
 62
7
  6
CONTINUOUS
 10
147.8038238472
 20
102.2363416923
  0
VERTEX
  8
0
 62
7
  6
CONTINUOUS
 10
147.8175966197
 20
102.3375163843
  0
VERTEX
  8
0
 62
7
  6
CONTINUOUS
 10
147.8285775345
 20
102.4403227314
  0
VERTEX
  8
0
 62
7
  6
CONTINUOUS
 10
147.8367455577
 20
102.5460391146
  0
VERTEX
  8
0
 62
7
  6
CONTINUOUS
 10
147.8419179092
 20
102.6559611584
  0
VERTEX
  8
0
 62
7
  6
CONTINUOUS
 10
147.84375
 20
102.7714312787
  0
SEQEND
  0
LINE
  8
0
 62
7
  6
CONTINUOUS
 10
182.84375
 20
96.8958554547
 11
168.44375
 21
96.8958554547
  0
LINE
  8
0
 62
7
  6
CONTINUOUS
 10
157.44375
 20
96.8958554547
 11
143.04375
 21
96.8958554547
  0
LINE
  8
0
 62
7
  6
CONTINUOUS
 10
132.04375
 20
96.8958554547
 11
117.64375
 21
96.8958554547
  0
LINE
  8
0
 62
7
  6
CONTINUOUS
 10
193.84375
 20
96.8958554547
 11
208.24375
 21
96.8958554547
  0
LINE
  8
0
 62
7
  6
CONTINUOUS
 10
219.24375
 20
96.8958554547
 11
233.64375
 21
96.8958554547
  0
LINE
  8
0
 62
7
  6
CONTINUOUS
 10
244.64375
 20
96.8958554547
 11
259.04375
 21
96.8958554547
  0
LINE
  8
0
 62
7
  6
CONTINUOUS
 10
106.6460376495
 20
97.5458554547
 11
96.602891899
 21
97.5458554547
  0
LINE
  8
0
 62
7
  6
CONTINUOUS
 10
270.0414623505
 20
97.5458554547
 11
280.084608101
 21
97.5458554547
  0
LINE
  8
0
 62
7
  6
CONTINUOUS
 10
251.74375
 20
97.9958554547
 11
244.64375
 21
97.9958554547
  0
LINE
  8
0
 62
7
  6
CONTINUOUS
 10
233.64375
 20
97.9958554547
 11
219.24375
 21
97.9958554547
  0
LINE
  8
0
 62
7
  6
CONTINUOUS
 10
208.24375
 20
97.9958554547
 11
193.84375
 21
97.9958554547
  0
LINE
  8
0
 62
7
  6
CONTINUOUS
 10
182.84375
 20
97.9958554547
 11
168.44375
 21
97.9958554547
  0
LINE
  8
0
 62
7
  6
CONTINUOUS
 10
157.44375
 20
97.9958554547
 11
143.04375
 21
97.9958554547
  0
LINE
  8
0
 62
7
  6
CONTINUOUS
 10
132.04375
 20
97.9958554547
 11
117.64375
 21
97.9958554547
  0
LINE
  8
0
 62
7
  6
CONTINUOUS
 10
76.3891834
 20
98.0458554547
 11
69.302891899
 21
98.0458554547
  0
LINE
  8
0
 62
7
  6
CONTINUOUS
 10
300.2983166
 20
98.0458554547
 11
307.384608101
 21
98.0458554547
  0
LINE
  8
0
 62
7
  6
CONTINUOUS
 10
47.4641834
 20
98.4458554547
 11
40.377891899
 21
98.4458554547
  0
LINE
  8
0
 62
7
  6
CONTINUOUS
 10
329.2233166
 20
98.4458554547
 11
336.309608101
 21
98.4458554547
  0
LINE
  8
0
 62
7
  6
CONTINUOUS
 10
112.2437872295
 20
99.407755913
 11
119.3437499838
 21
99.407755913
  0
LINE
  8
0
 62
7
  6
CONTINUOUS
 10
130.3437500883
 20
99.407755913
 11
144.7437499838
 21
99.407755913
  0
LINE
  8
0
 62
7
  6
CONTINUOUS
 10
155.7437500883
 20
99.407755913
 11
170.1437499838
 21
99.407755913
  0
LINE
  8
0
 62
7
  6
CONTINUOUS
 10
181.1437500883
 20
99.407755913
 11
195.5437499838
 21
99.407755913
  0
LINE
  8
0
 62
7
  6
CONTINUOUS
 10
206.5437500883
 20
99.407755913
 11
220.9437499838
 21
99.407755913
  0
LINE
  8
0
 62
7
  6
CONTINUOUS
 10
231.9437500883
 20
99.407755913
 11
246.3437499838
 21
99.407755913
  0
LINE
  8
0
 62
7
  6
CONTINUOUS
 10
169.4644141546
 20
125.5930996453
 11
172.0748694847
 21
118.9285790534
  0
LINE
  8
0
 62
7
  6
CONTINUOUS
 10
173.0991009179
 20
119.3297647602
 11
173.0126305153
 21
119.5505246298
  0
LINE
  8
0
 62
7
  6
CONTINUOUS
 10
190.8883806734
 20
80.0624686239
 11
190.9748782508
 21
79.8416237455
  0
LINE
  8
0
 62
7
  6
CONTINUOUS
 10
194.5230884752
 20
73.7986082839
 11
191.9126217492
 21
80.4636297119
  0
LINE
  8
0
 62
7
  6
CONTINUOUS
 10
190.74375
 20
94.8958554547
 11
190.74375
 21
80.8283216102
  0
LINE
  8
0
 62
7
  6
CONTINUOUS
 10
191.04375
 20
79.4769318473
 11
191.04375
 21
77.9458554547
  0
LINE
  8
0
 62
7
  6
CONTINUOUS
 10
191.84375
 20
80.8283216102
 11
191.84375
 21
94.8958554547
  0
LINE
  8
0
 62
7
  6
CONTINUOUS
 10
194.54375
 20
68.9958554547
 11
194.54375
 21
73.6892007144
  0
LINE
  8
0
 62
7
  6
CONTINUOUS
 10
194.84375
 20
125.702513929
 11
194.84375
 21
130.3958554547
  0
LINE
  8
0
 62
7
  6
CONTINUOUS
 10
197.54375
 20
118.5638647745
 11
197.54375
 21
102.7714305964
  0
LINE
  8
0
 62
7
  6
CONTINUOUS
 10
198.34375
 20
119.9152389087
 11
198.34375
 21
121.4458554547
  0
LINE
  8
0
 62
7
  6
CONTINUOUS
 10
198.64375
 20
102.7714312788
 11
198.64375
 21
118.5638647745
  0
LINE
  8
0
 62
7
  6
CONTINUOUS
 10
182.1644115248
 20
73.7986082839
 11
184.7748782508
 21
80.4636297119
  0
LINE
  8
0
 62
7
  6
CONTINUOUS
 10
185.7126217492
 20
79.8416237455
 11
185.7991193266
 21
80.0624686239
  0
LINE
  8
0
 62
7
  6
CONTINUOUS
 10
203.6748694847
 20
119.5505246298
 11
203.5883990821
 21
119.3297647602
  0
LINE
  8
0
 62
7
  6
CONTINUOUS
 10
204.6126305153
 20
118.9285790534
 11
207.2230858454
 21
125.5930996453
  0
POLYLINE
  8
0
 62
7
  6
CONTINUOUS
 66
1
 70
0
  0
VERTEX
  8
0
 62
7
  6
CONTINUOUS
 10
119.3437499838
 20
99.407755913
  0
VERTEX
  8
0
 62
7
  6
CONTINUOUS
 10
119.4691408657
 20
99.410561196
  0
VERTEX
  8
0
 62
7
  6
CONTINUOUS
 10
119.5883475143
 20
99.4184134259
  0
VERTEX
  8
0
 62
7
  6
CONTINUOUS
 10
119.7026796401
 20
99.4306969993
  0
VERTEX
  8
0
 62
7
  6
CONTINUOUS
 10
119.8134571343
 20
99.4470785134
  0
VERTEX
  8
0
 62
7
  6
CONTINUOUS
 10
119.9220190665
 20
99.4674742777
  0
VERTEX
  8
0
 62
7
  6
CONTINUOUS
 10
120.029515113
 20
99.4919877625
  0
VERTEX
  8
0
 62
7
  6
CONTINUOUS
 10
120.135982525
 20
99.5206211798
  0
VERTEX
  8
0
 62
7
  6
CONTINUOUS
 10
120.2411042659
 20
99.5532610885
  0
VERTEX
  8
0
 62
7
  6
CONTINUOUS
 10
120.3445651499
 20
99.5897391563
  0
VERTEX
  8
0
 62
7
  6
CONTINUOUS
 10
120.4462088416
 20
99.6299259523
  0
VERTEX
  8
0
 62
7
  6
CONTINUOUS
 10
120.5459095833
 20
99.6736831239
  0
VERTEX
  8
0
 62
7
  6
CONTINUOUS
 10
120.6435617906
 20
99.7208829257
  0
VERTEX
  8
0
 62
7
  6
CONTINUOUS
 10
120.7394253024
 20
99.7715947715
  0
VERTEX
  8
0
 62
7
  6
CONTINUOUS
 10
120.8336256753
 20
99.8258376227
  0
VERTEX
  8
0
 62
7
  6
CONTINUOUS
 10
120.9259555731
 20
99.8834727367
  0
VERTEX
  8
0
 62
7
  6
CONTINUOUS
 10
121.0160222907
 20
99.9442257551
  0
VERTEX
  8
0
 62
7
  6
CONTINUOUS
 10
121.1032627751
 20
100.0076108411
  0
VERTEX
  8
0
 62
7
  6
CONTINUOUS
 10
121.1875673552
 20
100.073397293
  0
VERTEX
  8
0
 62
7
  6
CONTINUOUS
 10
121.2691148619
 20
100.1415953006
  0
VERTEX
  8
0
 62
7
  6
CONTINUOUS
 10
121.3479660234
 20
100.2121479314
  0
VERTEX
  8
0
 62
7
  6
CONTINUOUS
 10
121.4241039881
 20
100.2849339935
  0
VERTEX
  8
0
 62
7
  6
CONTINUOUS
 10
121.4975977933
 20
100.359924275
  0
VERTEX
  8
0
 62
7
  6
CONTINUOUS
 10
121.5684405186
 20
100.4370008216
  0
VERTEX
  8
0
 62
7
  6
CONTINUOUS
 10
121.6363621337
 20
100.5157398839
  0
VERTEX
  8
0
 62
7
  6
CONTINUOUS
 10
121.7018846262
 20
100.5966487784
  0
VERTEX
  8
0
 62
7
  6
CONTINUOUS
 10
121.7665908919
 20
100.6818496068
  0
VERTEX
  8
0
 62
7
  6
CONTINUOUS
 10
121.8307463128
 20
100.7722306092
  0
VERTEX
  8
0
 62
7
  6
CONTINUOUS
 10
121.8932595188
 20
100.8667901935
  0
VERTEX
  8
0
 62
7
  6
CONTINUOUS
 10
121.953046399
 20
100.9641690572
  0
VERTEX
  8
0
 62
7
  6
CONTINUOUS
 10
122.0092498895
 20
101.0629756646
  0
VERTEX
  8
0
 62
7
  6
CONTINUOUS
 10
122.0613118227
 20
101.1619390727
  0
VERTEX
  8
0
 62
7
  6
CONTINUOUS
 10
122.108867824
 20
101.259788287
  0
VERTEX
  8
0
 62
7
  6
CONTINUOUS
 10
122.1516943525
 20
101.3552124347
  0
VERTEX
  8
0
 62
7
  6
CONTINUOUS
 10
122.1905805194
 20
101.4491038046
  0
VERTEX
  8
0
 62
7
  6
CONTINUOUS
 10
122.2268306571
 20
101.5441749995
  0
VERTEX
  8
0
 62
7
  6
CONTINUOUS
 10
122.2605956698
 20
101.6408635048
  0
VERTEX
  8
0
 62
7
  6
CONTINUOUS
 10
122.291583606
 20
101.7384143967
  0
VERTEX
  8
0
 62
7
  6
CONTINUOUS
 10
122.3197357116
 20
101.8366170521
  0
VERTEX
  8
0
 62
7
  6
CONTINUOUS
 10
122.3450564865
 20
101.9355448018
  0
VERTEX
  8
0
 62
7
  6
CONTINUOUS
 10
122.367541778
 20
102.0352654478
  0
VERTEX
  8
0
 62
7
  6
CONTINUOUS
 10
122.3871519177
 20
102.1356424316
  0
VERTEX
  8
0
 62
7
  6
CONTINUOUS
 10
122.4038238472
 20
102.2363416923
  0
VERTEX
  8
0
 62
7
  6
CONTINUOUS
 10
122.4175966197
 20
102.3375163843
  0
VERTEX
  8
0
 62
7
  6
CONTINUOUS
 10
122.4285775345
 20
102.4403227314
  0
VERTEX
  8
0
 62
7
  6
CONTINUOUS
 10
122.4367455577
 20
102.5460391146
  0
VERTEX
  8
0
 62
7
  6
CONTINUOUS
 10
122.4419179092
 20
102.6559611584
  0
VERTEX
  8
0
 62
7
  6
CONTINUOUS
 10
122.44375
 20
102.7714312787
  0
SEQEND
  0
LINE
  8
0
 62
7
  6
CONTINUOUS
 10
321.859608101
 20
101.3858554547
 11
314.7733166
 21
101.3858554547
  0
LINE
  8
0
 62
7
  6
CONTINUOUS
 10
61.9141834
 20
101.3858554547
 11
54.827891899
 21
101.3858554547
  0
LINE
  8
0
 62
7
  6
CONTINUOUS
 10
294.084608101
 20
101.8358554547
 11
286.9983166
 21
101.8358554547
  0
LINE
  8
0
 62
7
  6
CONTINUOUS
 10
89.6891834
 20
101.8358554547
 11
82.602891899
 21
101.8358554547
  0
LINE
  8
0
 62
7
  6
CONTINUOUS
 10
195.54375
 20
102.3211954884
 11
181.14375
 21
102.3211954884
  0
LINE
  8
0
 62
7
  6
CONTINUOUS
 10
170.14375
 20
102.3211954884
 11
155.74375
 21
102.3211954884
  0
LINE
  8
0
 62
7
  6
CONTINUOUS
 10
144.74375
 20
102.3211954884
 11
130.34375
 21
102.3211954884
  0
LINE
  8
0
 62
7
  6
CONTINUOUS
 10
119.34375
 20
102.3211954884
 11
104.9460376495
 21
102.3211954884
  0
LINE
  8
0
 62
7
  6
CONTINUOUS
 10
206.54375
 20
102.3211954884
 11
220.94375
 21
102.3211954884
  0
LINE
  8
0
 62
7
  6
CONTINUOUS
 10
231.94375
 20
102.3211954884
 11
246.34375
 21
102.3211954884
  0
LINE
  8
0
 62
7
  6
CONTINUOUS
 10
257.34375
 20
102.3211954884
 11
271.7414623505
 21
102.3211954884
  0
POLYLINE
  8
0
 62
7
  6
CONTINUOUS
 66
1
 70
0
  0
VERTEX
  8
0
 62
7
  6
CONTINUOUS
 10
203.44375
 20
102.7714318458
  0
VERTEX
  8
0
 62
7
  6
CONTINUOUS
 10
203.4456055168
 20
102.6558653502
  0
VERTEX
  8
0
 62
7
  6
CONTINUOUS
 10
203.4508356474
 20
102.5459211207
  0
VERTEX
  8
0
 62
7
  6
CONTINUOUS
 10
203.459084151
 20
102.4401778383
  0
VERTEX
  8
0
 62
7
  6
CONTINUOUS
 10
203.4701545043
 20
102.3373016555
  0
VERTEX
  8
0
 62
7
  6
CONTINUOUS
 10
203.4840224063
 20
102.2359814963
  0
VERTEX
  8
0
 62
7
  6
CONTINUOUS
 10
203.5008011616
 20
102.1349709498
  0
VERTEX
  8
0
 62
7
  6
CONTINUOUS
 10
203.5205081616
 20
102.0341841962
  0
VERTEX
  8
0
 62
7
  6
CONTINUOUS
 10
203.5430652455
 20
101.9340989571
  0
VERTEX
  8
0
 62
7
  6
CONTINUOUS
 10
203.5684651656
 20
101.8347738144
  0
VERTEX
  8
0
 62
7
  6
CONTINUOUS
 10
203.5967159567
 20
101.7361561105
  0
VERTEX
  8
0
 62
7
  6
CONTINUOUS
 10
203.6277737054
 20
101.6383790031
  0
VERTEX
  8
0
 62
7
  6
CONTINUOUS
 10
203.661610799
 20
101.5415725252
  0
VERTEX
  8
0
 62
7
  6
CONTINUOUS
 10
203.6982672085
 20
101.4456863587
  0
VERTEX
  8
0
 62
7
  6
CONTINUOUS
 10
203.7377370033
 20
101.3508144786
  0
VERTEX
  8
0
 62
7
  6
CONTINUOUS
 10
203.7799851141
 20
101.2571340236
  0
VERTEX
  8
0
 62
7
  6
CONTINUOUS
 10
203.8250752342
 20
101.1645665617
  0
VERTEX
  8
0
 62
7
  6
CONTINUOUS
 10
203.8730907165
 20
101.0730154428
  0
VERTEX
  8
0
 62
7
  6
CONTINUOUS
 10
203.9238129717
 20
100.9829507111
  0
VERTEX
  8
0
 62
7
  6
CONTINUOUS
 10
203.9769919874
 20
100.8947718045
  0
VERTEX
  8
0
 62
7
  6
CONTINUOUS
 10
204.0344573645
 20
100.8056936669
  0
VERTEX
  8
0
 62
7
  6
CONTINUOUS
 10
204.0994826847
 20
100.711674525
  0
VERTEX
  8
0
 62
7
  6
CONTINUOUS
 10
204.1757935329
 20
100.6093440536
  0
VERTEX
  8
0
 62
7
  6
CONTINUOUS
 10
204.2637914741
 20
100.5007075792
  0
VERTEX
  8
0
 62
7
  6
CONTINUOUS
 10
204.3573838399
 20
100.3947547263
  0
VERTEX
  8
0
 62
7
  6
CONTINUOUS
 10
204.4489922074
 20
100.2994377093
  0
VERTEX
  8
0
 62
7
  6
CONTINUOUS
 10
204.5355035723
 20
100.2161585472
  0
VERTEX
  8
0
 62
7
  6
CONTINUOUS
 10
204.6189410511
 20
100.1414343222
  0
VERTEX
  8
0
 62
7
  6
CONTINUOUS
 10
204.7020146661
 20
100.0720304143
  0
VERTEX
  8
0
 62
7
  6
CONTINUOUS
 10
204.7868948898
 20
100.0058814751
  0
VERTEX
  8
0
 62
7
  6
CONTINUOUS
 10
204.8738749824
 20
99.9427558555
  0
VERTEX
  8
0
 62
7
  6
CONTINUOUS
 10
204.9629393497
 20
99.8826939485
  0
VERTEX
  8
0
 62
7
  6
CONTINUOUS
 10
205.0539200861
 20
99.8258478915
  0
VERTEX
  8
0
 62
7
  6
CONTINUOUS
 10
205.1469307578
 20
99.7722181644
  0
VERTEX
  8
0
 62
7
  6
CONTINUOUS
 10
205.2422963387
 20
99.7217069982
  0
VERTEX
  8
0
 62
7
  6
CONTINUOUS
 10
205.339975917
 20
99.6744567882
  0
VERTEX
  8
0
 62
7
  6
CONTINUOUS
 10
205.4398811635
 20
99.6306003459
  0
VERTEX
  8
0
 62
7
  6
CONTINUOUS
 10
205.5416639609
 20
99.590345819
  0
VERTEX
  8
0
 62
7
  6
CONTINUOUS
 10
205.6450309519
 20
99.5538552217
  0
VERTEX
  8
0
 62
7
  6
CONTINUOUS
 10
205.7498928453
 20
99.5212012122
  0
VERTEX
  8
0
 62
7
  6
CONTINUOUS
 10
205.8561720304
 20
99.4924669338
  0
VERTEX
  8
0
 62
7
  6
CONTINUOUS
 10
205.9634298866
 20
99.4678237402
  0
VERTEX
  8
0
 62
7
  6
CONTINUOUS
 10
206.0718002508
 20
99.4473066187
  0
VERTEX
  8
0
 62
7
  6
CONTINUOUS
 10
206.1825581086
 20
99.4308158203
  0
VERTEX
  8
0
 62
7
  6
CONTINUOUS
 10
206.2971606895
 20
99.418455949
  0
VERTEX
  8
0
 62
7
  6
CONTINUOUS
 10
206.4170416811
 20
99.4105681012
  0
VERTEX
  8
0
 62
7
  6
CONTINUOUS
 10
206.5437500883
 20
99.407755913
  0
SEQEND
  0
LINE
  8
0
 62
7
  6
CONTINUOUS
 10
203.44375
 20
118.5638647745
 11
203.44375
 21
102.7714318458
  0
LINE
  8
0
 62
7
  6
CONTINUOUS
 10
203.74375
 20
121.4458554547
 11
203.74375
 21
119.9152389087
  0
LINE
  8
0
 62
7
  6
CONTINUOUS
 10
204.54375
 20
102.7714305964
 11
204.54375
 21
118.5638647745
  0
LINE
  8
0
 62
7
  6
CONTINUOUS
 10
207.24375
 20
125.702513929
 11
207.24375
 21
130.3958554547
  0
LINE
  8
0
 62
7
  6
CONTINUOUS
 10
207.54375
 20
68.9958554547
 11
207.54375
 21
73.6892007144
  0
LINE
  8
0
 62
7
  6
CONTINUOUS
 10
210.24375
 20
94.8958554547
 11
210.24375
 21
80.8283216102
  0
LINE
  8
0
 62
7
  6
CONTINUOUS
 10
211.04375
 20
77.9458554547
 11
211.04375
 21
79.4769318473
  0
LINE
  8
0
 62
7
  6
CONTINUOUS
 10
211.34375
 20
80.8283216102
 11
211.34375
 21
94.8958554547
  0
LINE
  8
0
 62
7
  6
CONTINUOUS
 10
123.14375
 20
122.4458554547
 11
126.54375
 21
122.4458554547
  0
LINE
  8
0
 62
7
  6
CONTINUOUS
 10
148.54375
 20
122.4458554547
 11
151.94375
 21
122.4458554547
  0
LINE
  8
0
 62
7
  6
CONTINUOUS
 10
173.94375
 20
122.4458554547
 11
177.34375
 21
122.4458554547
  0
LINE
  8
0
 62
7
  6
CONTINUOUS
 10
199.34375
 20
122.4458554547
 11
202.74375
 21
122.4458554547
  0
LINE
  8
0
 62
7
  6
CONTINUOUS
 10
224.74375
 20
122.4458554547
 11
228.14375
 21
122.4458554547
  0
LINE
  8
0
 62
7
  6
CONTINUOUS
 10
250.14375
 20
122.4458554547
 11
253.54375
 21
122.4458554547
  0
POLYLINE
  8
0
 62
7
  6
CONTINUOUS
 66
1
 70
0
  0
VERTEX
  8
0
 62
7
  6
CONTINUOUS
 10
347.4576706003
 20
65.1624387681
  0
VERTEX
  8
0
 62
7
  6
CONTINUOUS
 10
347.4706404404
 20
65.1578014641
  0
VERTEX
  8
0
 62
7
  6
CONTINUOUS
 10
347.4988767081
 20
65.1499364639
  0
VERTEX
  8
0
 62
7
  6
CONTINUOUS
 10
347.5273868651
 20
65.144903546
  0
VERTEX
  8
0
 62
7
  6
CONTINUOUS
 10
347.5558740111
 20
65.1426628283
  0
VERTEX
  8
0
 62
7
  6
CONTINUOUS
 10
347.5841251991
 20
65.1431117633
  0
SEQEND
  0
LINE
  8
0
 62
7
  6
CONTINUOUS
 10
194.8644141546
 20
125.5930996453
 11
197.4748694847
 21
118.9285790534
  0
LINE
  8
0
 62
7
  6
CONTINUOUS
 10
198.4991009179
 20
119.3297647602
 11
198.4126305153
 21
119.5505246298
  0
LINE
  8
0
 62
7
  6
CONTINUOUS
 10
216.2883806734
 20
80.0624686239
 11
216.3748782508
 21
79.8416237455
  0
LINE
  8
0
 62
7
  6
CONTINUOUS
 10
219.9230884752
 20
73.7986082839
 11
217.3126217492
 21
80.4636297119
  0
LINE
  8
0
 62
7
  6
CONTINUOUS
 10
216.14375
 20
94.8958554547
 11
216.14375
 21
80.8283216102
  0
LINE
  8
0
 62
7
  6
CONTINUOUS
 10
216.44375
 20
79.4769318473
 11
216.44375
 21
77.9458554547
  0
LINE
  8
0
 62
7
  6
CONTINUOUS
 10
217.24375
 20
80.8283216102
 11
217.24375
 21
94.8958554547
  0
LINE
  8
0
 62
7
  6
CONTINUOUS
 10
219.94375
 20
68.9958554547
 11
219.94375
 21
73.6892007144
  0
LINE
  8
0
 62
7
  6
CONTINUOUS
 10
220.24375
 20
125.702513929
 11
220.24375
 21
130.3958554547
  0
LINE
  8
0
 62
7
  6
CONTINUOUS
 10
222.94375
 20
118.5638647745
 11
222.94375
 21
102.7714305964
  0
LINE
  8
0
 62
7
  6
CONTINUOUS
 10
207.5644115248
 20
73.7986082839
 11
210.1748782508
 21
80.4636297119
  0
LINE
  8
0
 62
7
  6
CONTINUOUS
 10
211.1126217492
 20
79.8416237455
 11
211.1991193266
 21
80.0624686239
  0
LINE
  8
0
 62
7
  6
CONTINUOUS
 10
229.0748694847
 20
119.5505246298
 11
228.9883990821
 21
119.3297647602
  0
LINE
  8
0
 62
7
  6
CONTINUOUS
 10
230.0126305153
 20
118.9285790534
 11
232.6230858454
 21
125.5930996453
  0
LINE
  8
DEFAULT_1
 62
2
  6
CENTER
 10
30.0414623505
 20
125.0958554547
 11
350.0414623505
 21
125.0958554547
  0
LINE
  8
0
 62
7
  6
CONTINUOUS
 10
336.2914623505
 20
133.0958554547
 11
329.2914623505
 21
133.0958554547
  0
LINE
  8
0
 62
7
  6
CONTINUOUS
 10
307.3414623505
 20
133.0958554547
 11
300.3414623505
 21
133.0958554547
  0
LINE
  8
0
 62
7
  6
CONTINUOUS
 10
280.7414623505
 20
133.0958554547
 11
273.7414623505
 21
133.0958554547
  0
LINE
  8
0
 62
7
  6
CONTINUOUS
 10
255.34375
 20
133.0958554547
 11
248.34375
 21
133.0958554547
  0
LINE
  8
0
 62
7
  6
CONTINUOUS
 10
229.94375
 20
133.0958554547
 11
222.94375
 21
133.0958554547
  0
LINE
  8
0
 62
7
  6
CONTINUOUS
 10
204.54375
 20
133.0958554547
 11
197.54375
 21
133.0958554547
  0
LINE
  8
0
 62
7
  6
CONTINUOUS
 10
179.14375
 20
133.0958554547
 11
172.14375
 21
133.0958554547
  0
LINE
  8
0
 62
7
  6
CONTINUOUS
 10
153.74375
 20
133.0958554547
 11
146.74375
 21
133.0958554547
  0
LINE
  8
0
 62
7
  6
CONTINUOUS
 10
128.34375
 20
133.0958554547
 11
121.34375
 21
133.0958554547
  0
LINE
  8
0
 62
7
  6
CONTINUOUS
 10
102.9460376495
 20
133.0958554547
 11
95.9460376495
 21
133.0958554547
  0
LINE
  8
0
 62
7
  6
CONTINUOUS
 10
76.3460376495
 20
133.0958554547
 11
69.3460376495
 21
133.0958554547
  0
LINE
  8
0
 62
7
  6
CONTINUOUS
 10
47.3960376495
 20
133.0958554547
 11
40.3960376495
 21
133.0958554547
  0
LINE
  8
0
 62
7
  6
CONTINUOUS
 10
347.4576693015
 20
65.1624388205
 11
341.7862396151
 21
67.3394967044
  0
POLYLINE
  8
0
 62
7
  6
CONTINUOUS
 66
1
 70
0
  0
VERTEX
  8
0
 62
7
  6
CONTINUOUS
 10
228.84375
 20
102.771431846
  0
VERTEX
  8
0
 62
7
  6
CONTINUOUS
 10
228.8456055168
 20
102.6558653503
  0
VERTEX
  8
0
 62
7
  6
CONTINUOUS
 10
228.8508356474
 20
102.5459211208
  0
VERTEX
  8
0
 62
7
  6
CONTINUOUS
 10
228.859084151
 20
102.4401778384
  0
VERTEX
  8
0
 62
7
  6
CONTINUOUS
 10
228.8701545043
 20
102.3373016556
  0
VERTEX
  8
0
 62
7
  6
CONTINUOUS
 10
228.8840224063
 20
102.2359814964
  0
VERTEX
  8
0
 62
7
  6
CONTINUOUS
 10
228.9008011615
 20
102.1349709499
  0
VERTEX
  8
0
 62
7
  6
CONTINUOUS
 10
228.9205081616
 20
102.0341841963
  0
VERTEX
  8
0
 62
7
  6
CONTINUOUS
 10
228.9430652455
 20
101.9340989572
  0
VERTEX
  8
0
 62
7
  6
CONTINUOUS
 10
228.9684651656
 20
101.8347738145
  0
VERTEX
  8
0
 62
7
  6
CONTINUOUS
 10
228.9967159566
 20
101.7361561106
  0
VERTEX
  8
0
 62
7
  6
CONTINUOUS
 10
229.0277737053
 20
101.6383790032
  0
VERTEX
  8
0
 62
7
  6
CONTINUOUS
 10
229.061610799
 20
101.5415725253
  0
VERTEX
  8
0
 62
7
  6
CONTINUOUS
 10
229.0982672084
 20
101.4456863588
  0
VERTEX
  8
0
 62
7
  6
CONTINUOUS
 10
229.1377370033
 20
101.3508144787
  0
VERTEX
  8
0
 62
7
  6
CONTINUOUS
 10
229.179985114
 20
101.2571340237
  0
VERTEX
  8
0
 62
7
  6
CONTINUOUS
 10
229.2250752341
 20
101.1645665618
  0
VERTEX
  8
0
 62
7
  6
CONTINUOUS
 10
229.2730907164
 20
101.0730154429
  0
VERTEX
  8
0
 62
7
  6
CONTINUOUS
 10
229.3238129716
 20
100.9829507112
  0
VERTEX
  8
0
 62
7
  6
CONTINUOUS
 10
229.3769919874
 20
100.8947718046
  0
VERTEX
  8
0
 62
7
  6
CONTINUOUS
 10
229.4344573644
 20
100.805693667
  0
VERTEX
  8
0
 62
7
  6
CONTINUOUS
 10
229.4994826846
 20
100.7116745251
  0
VERTEX
  8
0
 62
7
  6
CONTINUOUS
 10
229.5757935328
 20
100.6093440536
  0
VERTEX
  8
0
 62
7
  6
CONTINUOUS
 10
229.6637914741
 20
100.5007075793
  0
VERTEX
  8
0
 62
7
  6
CONTINUOUS
 10
229.7573838398
 20
100.3947547263
  0
VERTEX
  8
0
 62
7
  6
CONTINUOUS
 10
229.8489922074
 20
100.2994377094
  0
VERTEX
  8
0
 62
7
  6
CONTINUOUS
 10
229.9355035722
 20
100.2161585473
  0
VERTEX
  8
0
 62
7
  6
CONTINUOUS
 10
230.0189410511
 20
100.1414343222
  0
VERTEX
  8
0
 62
7
  6
CONTINUOUS
 10
230.1020146661
 20
100.0720304143
  0
VERTEX
  8
0
 62
7
  6
CONTINUOUS
 10
230.1868948898
 20
100.0058814751
  0
VERTEX
  8
0
 62
7
  6
CONTINUOUS
 10
230.2738749824
 20
99.9427558556
  0
VERTEX
  8
0
 62
7
  6
CONTINUOUS
 10
230.3629393496
 20
99.8826939486
  0
VERTEX
  8
0
 62
7
  6
CONTINUOUS
 10
230.4539200861
 20
99.8258478915
  0
VERTEX
  8
0
 62
7
  6
CONTINUOUS
 10
230.5469307578
 20
99.7722181644
  0
VERTEX
  8
0
 62
7
  6
CONTINUOUS
 10
230.6422963387
 20
99.7217069982
  0
VERTEX
  8
0
 62
7
  6
CONTINUOUS
 10
230.739975917
 20
99.6744567882
  0
VERTEX
  8
0
 62
7
  6
CONTINUOUS
 10
230.8398811635
 20
99.6306003459
  0
VERTEX
  8
0
 62
7
  6
CONTINUOUS
 10
230.9416639609
 20
99.590345819
  0
VERTEX
  8
0
 62
7
  6
CONTINUOUS
 10
231.0450309518
 20
99.5538552217
  0
VERTEX
  8
0
 62
7
  6
CONTINUOUS
 10
231.1498928453
 20
99.5212012122
  0
VERTEX
  8
0
 62
7
  6
CONTINUOUS
 10
231.2561720304
 20
99.4924669338
  0
VERTEX
  8
0
 62
7
  6
CONTINUOUS
 10
231.3634298866
 20
99.4678237402
  0
VERTEX
  8
0
 62
7
  6
CONTINUOUS
 10
231.4718002507
 20
99.4473066187
  0
VERTEX
  8
0
 62
7
  6
CONTINUOUS
 10
231.5825581086
 20
99.4308158204
  0
VERTEX
  8
0
 62
7
  6
CONTINUOUS
 10
231.6971606895
 20
99.418455949
  0
VERTEX
  8
0
 62
7
  6
CONTINUOUS
 10
231.8170416811
 20
99.4105681012
  0
VERTEX
  8
0
 62
7
  6
CONTINUOUS
 10
231.9437500883
 20
99.407755913
  0
SEQEND
  0
LINE
  8
0
 62
7
  6
CONTINUOUS
 10
223.74375
 20
119.9152389087
 11
223.74375
 21
121.4458554547
  0
LINE
  8
0
 62
7
  6
CONTINUOUS
 10
224.04375
 20
102.7714312787
 11
224.04375
 21
118.5638647745
  0
LINE
  8
0
 62
7
  6
CONTINUOUS
 10
228.84375
 20
118.5638647745
 11
228.84375
 21
102.771431846
  0
LINE
  8
0
 62
7
  6
CONTINUOUS
 10
229.14375
 20
121.4458554547
 11
229.14375
 21
119.9152389087
  0
LINE
  8
0
 62
7
  6
CONTINUOUS
 10
229.94375
 20
102.7714305964
 11
229.94375
 21
118.5638647745
  0
LINE
  8
0
 62
7
  6
CONTINUOUS
 10
232.64375
 20
125.702513929
 11
232.64375
 21
130.3958554547
  0
LINE
  8
0
 62
7
  6
CONTINUOUS
 10
232.94375
 20
68.9958554547
 11
232.94375
 21
73.6892007144
  0
LINE
  8
0
 62
7
  6
CONTINUOUS
 10
220.2644141546
 20
125.5930996453
 11
222.8748694847
 21
118.9285790534
  0
LINE
  8
0
 62
7
  6
CONTINUOUS
 10
223.8991009179
 20
119.3297647602
 11
223.8126305153
 21
119.5505246298
  0
LINE
  8
0
 62
7
  6
CONTINUOUS
 10
241.6883806734
 20
80.0624686239
 11
241.7748782508
 21
79.8416237455
  0
LINE
  8
0
 62
7
  6
CONTINUOUS
 10
245.3230884752
 20
73.7986082839
 11
242.7126217492
 21
80.4636297119
  0
LINE
  8
0
 62
7
  6
CONTINUOUS
 10
235.64375
 20
94.8958554547
 11
235.64375
 21
80.8283216102
  0
LINE
  8
0
 62
7
  6
CONTINUOUS
 10
236.44375
 20
77.9458554547
 11
236.44375
 21
79.4769318473
  0
LINE
  8
0
 62
7
  6
CONTINUOUS
 10
236.74375
 20
80.8283216102
 11
236.74375
 21
94.8958554547
  0
LINE
  8
0
 62
7
  6
CONTINUOUS
 10
241.54375
 20
94.8958554547
 11
241.54375
 21
80.8283216102
  0
LINE
  8
0
 62
7
  6
CONTINUOUS
 10
241.84375
 20
79.4769318473
 11
241.84375
 21
77.9458554547
  0
LINE
  8
0
 62
7
  6
CONTINUOUS
 10
242.64375
 20
80.8283216102
 11
242.64375
 21
94.8958554547
  0
LINE
  8
0
 62
7
  6
CONTINUOUS
 10
232.9644115248
 20
73.7986082839
 11
235.5748782508
 21
80.4636297119
  0
LINE
  8
0
 62
7
  6
CONTINUOUS
 10
236.5126217492
 20
79.8416237455
 11
236.5991193266
 21
80.0624686239
  0
LINE
  8
0
 62
7
  6
CONTINUOUS
 10
254.4748694847
 20
119.5505246298
 11
254.3883990821
 21
119.3297647602
  0
LINE
  8
0
 62
7
  6
CONTINUOUS
 10
255.4126305153
 20
118.9285790534
 11
258.0230858454
 21
125.5930996453
  0
LINE
  8
0
 62
7
  6
CONTINUOUS
 10
245.34375
 20
68.9958554547
 11
245.34375
 21
73.6892007144
  0
LINE
  8
0
 62
7
  6
CONTINUOUS
 10
245.64375
 20
125.702513929
 11
245.64375
 21
130.3958554547
  0
LINE
  8
0
 62
7
  6
CONTINUOUS
 10
248.34375
 20
118.5638647745
 11
248.34375
 21
102.7714305964
  0
LINE
  8
0
 62
7
  6
CONTINUOUS
 10
249.14375
 20
119.9152389087
 11
249.14375
 21
121.4458554547
  0
LINE
  8
0
 62
7
  6
CONTINUOUS
 10
249.44375
 20
102.7714312785
 11
249.44375
 21
118.5638647745
  0
LINE
  8
0
 62
7
  6
CONTINUOUS
 10
254.24375
 20
118.5638647745
 11
254.24375
 21
100.4958554547
  0
LINE
  8
0
 62
7
  6
CONTINUOUS
 10
254.54375
 20
121.4458554547
 11
254.54375
 21
119.9152389087
  0
LINE
  8
0
 62
7
  6
CONTINUOUS
 10
255.34375
 20
102.7714305964
 11
255.34375
 21
118.5638647745
  0
LINE
  8
0
 62
7
  6
CONTINUOUS
 10
349.5109926334
 20
98.3372790255
 11
338.6684721727
 21
103.1506240269
  0
LINE
  8
0
 62
7
  6
CONTINUOUS
 10
282.9130352257
 20
96.3742825794
 11
285.2698894752
 21
94.0174283299
  0
LINE
  8
0
 62
7
  6
CONTINUOUS
 10
245.6644141546
 20
125.5930996453
 11
248.2748694847
 21
118.9285790534
  0
LINE
  8
0
 62
7
  6
CONTINUOUS
 10
249.2991009179
 20
119.3297647602
 11
249.2126305153
 21
119.5505246298
  0
LINE
  8
0
 62
7
  6
CONTINUOUS
 10
270.7207981959
 20
73.798611264
 11
268.1103428658
 21
80.4631318559
  0
LINE
  8
0
 62
7
  6
CONTINUOUS
 10
258.04375
 20
125.702513929
 11
258.04375
 21
130.3958554547
  0
LINE
  8
0
 62
7
  6
CONTINUOUS
 10
258.34375
 20
68.9958554547
 11
258.34375
 21
73.6892007144
  0
LINE
  8
0
 62
7
  6
CONTINUOUS
 10
261.04375
 20
94.8958554547
 11
261.04375
 21
80.8283216102
  0
LINE
  8
0
 62
7
  6
CONTINUOUS
 10
258.3644115248
 20
73.7986082839
 11
260.9748782508
 21
80.4636297119
  0
LINE
  8
0
 62
7
  6
CONTINUOUS
 10
280.8103428658
 20
118.9285790534
 11
283.4207981959
 21
125.5930996453
  0
LINE
  8
0
 62
7
  6
CONTINUOUS
 10
299.1698894752
 20
105.2642825794
 11
296.9130352257
 21
103.0074283299
  0
LINE
  8
0
 62
7
  6
CONTINUOUS
 10
294.6130352257
 20
94.0174283299
 11
297.4698894752
 21
96.8742825794
  0
LINE
  8
0
 62
7
  6
CONTINUOUS
 10
284.1698894752
 20
103.0074283299
 11
281.9130352257
 21
105.2642825794
  0
LINE
  8
0
 62
7
  6
CONTINUOUS
 10
268.0414623505
 20
80.8278461348
 11
268.0414623505
 21
95.5458554547
  0
LINE
  8
0
 62
7
  6
CONTINUOUS
 10
270.7414623505
 20
68.9958554547
 11
270.7414623505
 21
73.6891969804
  0
LINE
  8
0
 62
7
  6
CONTINUOUS
 10
271.0414623505
 20
125.702513929
 11
271.0414623505
 21
130.3958554547
  0
LINE
  8
0
 62
7
  6
CONTINUOUS
 10
273.7414623505
 20
118.5638647745
 11
273.7414623505
 21
102.7714305964
  0
LINE
  8
0
 62
7
  6
CONTINUOUS
 10
310.2130352257
 20
96.8742825794
 11
313.0698894752
 21
94.0174283299
  0
LINE
  8
0
 62
7
  6
CONTINUOUS
 10
308.5130352257
 20
105.9892825794
 11
311.9448894752
 21
102.5574283299
  0
LINE
  8
0
 62
7
  6
CONTINUOUS
 10
271.0621265051
 20
125.5930996453
 11
273.6725818352
 21
118.9285790534
  0
LINE
  8
0
 62
7
  6
CONTINUOUS
 10
280.7414623505
 20
108.0927097042
 11
280.7414623505
 21
118.5638647745
  0
LINE
  8
0
 62
7
  6
CONTINUOUS
 10
283.4414623505
 20
125.702513929
 11
283.4414623505
 21
130.3958554547
  0
LINE
  8
0
 62
7
  6
CONTINUOUS
 10
283.7414623505
 20
68.9958554547
 11
283.7414623505
 21
73.6891969804
  0
LINE
  8
0
 62
7
  6
CONTINUOUS
 10
286.4414623505
 20
91.1890012052
 11
286.4414623505
 21
80.8278461348
  0
LINE
  8
0
 62
7
  6
CONTINUOUS
 10
283.7621265051
 20
73.798611264
 11
286.3725818352
 21
80.4631318559
  0
LINE
  8
0
 62
7
  6
CONTINUOUS
 10
324.6880352257
 20
102.5574283299
 11
328.1198894752
 21
105.9892825794
  0
LINE
  8
0
 62
7
  6
CONTINUOUS
 10
322.4130352257
 20
93.2924283299
 11
326.3948894752
 21
97.2742825794
  0
LINE
  8
0
 62
7
  6
CONTINUOUS
 10
296.1207981959
 20
73.798611264
 11
293.5103428658
 21
80.4631318559
  0
LINE
  8
0
 62
7
  6
CONTINUOUS
 10
293.4414623505
 20
80.8278461348
 11
293.4414623505
 21
91.1890012052
  0
LINE
  8
0
 62
7
  6
CONTINUOUS
 10
296.1414623505
 20
68.9958554547
 11
296.1414623505
 21
73.6891969804
  0
LINE
  8
0
 62
7
  6
CONTINUOUS
 10
297.6414623505
 20
125.702513929
 11
297.6414623505
 21
130.3958554547
  0
LINE
  8
0
 62
7
  6
CONTINUOUS
 10
300.3414623505
 20
118.5638647745
 11
300.3414623505
 21
108.0927097042
  0
LINE
  8
0
 62
7
  6
CONTINUOUS
 10
307.4103428658
 20
118.9285790534
 11
310.0207981959
 21
125.5930996453
  0
LINE
  8
0
 62
7
  6
CONTINUOUS
 10
339.1380352257
 20
97.2742825794
 11
342.5363906871
 21
93.875927118
  0
LINE
  8
0
 62
7
  6
CONTINUOUS
 10
297.6621265051
 20
125.5930996453
 11
300.2725818352
 21
118.9285790534
  0
LINE
  8
0
 62
7
  6
CONTINUOUS
 10
307.3414623505
 20
108.8177097042
 11
307.3414623505
 21
118.5638647745
  0
LINE
  8
0
 62
7
  6
CONTINUOUS
 10
310.0414623505
 20
125.702513929
 11
310.0414623505
 21
130.3958554547
  0
LINE
  8
0
 62
7
  6
CONTINUOUS
 10
311.5414623505
 20
68.9958554547
 11
311.5414623505
 21
73.6891969804
  0
LINE
  8
0
 62
7
  6
CONTINUOUS
 10
323.9207981959
 20
73.798611264
 11
321.3103428658
 21
80.4631318559
  0
LINE
  8
0
 62
7
  6
CONTINUOUS
 10
314.2414623505
 20
91.1890012052
 11
314.2414623505
 21
80.8278461348
  0
LINE
  8
0
 62
7
  6
CONTINUOUS
 10
321.2414623505
 20
80.8278461348
 11
321.2414623505
 21
90.4640012052
  0
LINE
  8
0
 62
7
  6
CONTINUOUS
 10
311.5621265051
 20
73.798611264
 11
314.1725818352
 21
80.4631318559
  0
LINE
  8
0
 62
7
  6
CONTINUOUS
 10
336.3603428658
 20
118.9285790534
 11
338.9707981959
 21
125.5930996453
  0
POLYLINE
  8
0
 62
7
  6
CONTINUOUS
 66
1
 70
0
  0
VERTEX
  8
0
 62
7
  6
CONTINUOUS
 10
330.2937500002
 20
73.6342733368
  0
VERTEX
  8
0
 62
7
  6
CONTINUOUS
 10
330.2968299803
 20
73.5247939879
  0
VERTEX
  8
0
 62
7
  6
CONTINUOUS
 10
330.3079191514
 20
73.3990233501
  0
VERTEX
  8
0
 62
7
  6
CONTINUOUS
 10
330.3271073779
 20
73.2732566353
  0
VERTEX
  8
0
 62
7
  6
CONTINUOUS
 10
330.3543536547
 20
73.1484290207
  0
VERTEX
  8
0
 62
7
  6
CONTINUOUS
 10
330.389593989
 20
73.0253666019
  0
VERTEX
  8
0
 62
7
  6
CONTINUOUS
 10
330.4327233435
 20
72.9048293587
  0
VERTEX
  8
0
 62
7
  6
CONTINUOUS
 10
330.4835321583
 20
72.7876184388
  0
VERTEX
  8
0
 62
7
  6
CONTINUOUS
 10
330.5417044206
 20
72.6742368038
  0
VERTEX
  8
0
 62
7
  6
CONTINUOUS
 10
330.6068341214
 20
72.5650553888
  0
VERTEX
  8
0
 62
7
  6
CONTINUOUS
 10
330.6785836925
 20
72.4604267289
  0
VERTEX
  8
0
 62
7
  6
CONTINUOUS
 10
330.7565669724
 20
72.3608080583
  0
VERTEX
  8
0
 62
7
  6
CONTINUOUS
 10
330.8405230328
 20
72.2665512592
  0
VERTEX
  8
0
 62
7
  6
CONTINUOUS
 10
330.9304992912
 20
72.177735826
  0
VERTEX
  8
0
 62
7
  6
CONTINUOUS
 10
331.026147335
 20
72.0946809015
  0
VERTEX
  8
0
 62
7
  6
CONTINUOUS
 10
331.1271793095
 20
72.0175691954
  0
VERTEX
  8
0
 62
7
  6
CONTINUOUS
 10
331.232906965
 20
71.946995171
  0
VERTEX
  8
0
 62
7
  6
CONTINUOUS
 10
331.3422625845
 20
71.8836821289
  0
VERTEX
  8
0
 62
7
  6
CONTINUOUS
 10
331.4547349767
 20
71.8277013962
  0
VERTEX
  8
0
 62
7
  6
CONTINUOUS
 10
331.5704848879
 20
71.7789191662
  0
VERTEX
  8
0
 62
7
  6
CONTINUOUS
 10
331.6894990648
 20
71.7373774287
  0
VERTEX
  8
0
 62
7
  6
CONTINUOUS
 10
331.8112953974
 20
71.703242299
  0
VERTEX
  8
0
 62
7
  6
CONTINUOUS
 10
331.9352363818
 20
71.6767306798
  0
VERTEX
  8
0
 62
7
  6
CONTINUOUS
 10
332.0603985277
 20
71.6580623854
  0
VERTEX
  8
0
 62
7
  6
CONTINUOUS
 10
332.185832763
 20
71.6473206038
  0
VERTEX
  8
0
 62
7
  6
CONTINUOUS
 10
332.2937500118
 20
71.644397651
  0
SEQEND
  0
LINE
  8
0
 62
7
  6
CONTINUOUS
 10
323.9414623505
 20
68.9958554547
 11
323.9414623505
 21
73.6891969804
  0
LINE
  8
0
 62
7
  6
CONTINUOUS
 10
326.5914623505
 20
125.702513929
 11
326.5914623505
 21
130.3958554547
  0
LINE
  8
0
 62
7
  6
CONTINUOUS
 10
329.2914623505
 20
118.5638647745
 11
329.2914623505
 21
108.8177097042
  0
LINE
  8
0
 62
7
  6
CONTINUOUS
 10
330.29375
 20
73.6342751033
 11
330.29375
 21
78.9574358061
  0
LINE
  8
0
 62
7
  6
CONTINUOUS
 10
344.1597754038
 20
85.7403418275
 11
341.6339423789
 21
81.3654706969
  0
LINE
  8
0
 62
7
  6
CONTINUOUS
 10
326.6121265051
 20
125.5930996453
 11
329.2225818352
 21
118.9285790534
  0
POLYLINE
  8
0
 62
7
  6
CONTINUOUS
 66
1
 70
0
  0
VERTEX
  8
0
 62
7
  6
CONTINUOUS
 10
341.3768384354
 20
74.1864289734
  0
VERTEX
  8
0
 62
7
  6
CONTINUOUS
 10
341.4037418336
 20
73.6532863919
  0
VERTEX
  8
0
 62
7
  6
CONTINUOUS
 10
341.4747912897
 20
72.5999332995
  0
VERTEX
  8
0
 62
7
  6
CONTINUOUS
 10
341.5694179054
 20
71.5502521691
  0
SEQEND
  0
POLYLINE
  8
0
 62
7
  6
CONTINUOUS
 66
1
 70
0
  0
VERTEX
  8
0
 62
7
  6
CONTINUOUS
 10
341.59375
 20
67.6195708323
  0
VERTEX
  8
0
 62
7
  6
CONTINUOUS
 10
341.5952458
 20
67.5896502279
  0
VERTEX
  8
0
 62
7
  6
CONTINUOUS
 10
341.5997564067
 20
67.559840044
  0
VERTEX
  8
0
 62
7
  6
CONTINUOUS
 10
341.6070515721
 20
67.5312305163
  0
VERTEX
  8
0
 62
7
  6
CONTINUOUS
 10
341.6170774817
 20
67.5035867056
  0
VERTEX
  8
0
 62
7
  6
CONTINUOUS
 10
341.6299141183
 20
67.4767750776
  0
VERTEX
  8
0
 62
7
  6
CONTINUOUS
 10
341.6453654677
 20
67.4513295647
  0
VERTEX
  8
0
 62
7
  6
CONTINUOUS
 10
341.6634144709
 20
67.4273585953
  0
VERTEX
  8
0
 62
7
  6
CONTINUOUS
 10
341.6840210171
 20
67.4050626653
  0
VERTEX
  8
0
 62
7
  6
CONTINUOUS
 10
341.7067819772
 20
67.3849584745
  0
VERTEX
  8
0
 62
7
  6
CONTINUOUS
 10
341.7315423927
 20
67.3672046457
  0
VERTEX
  8
0
 62
7
  6
CONTINUOUS
 10
341.7584484899
 20
67.3518144106
  0
VERTEX
  8
0
 62
7
  6
CONTINUOUS
 10
341.7862396151
 20
67.3394967044
  0
SEQEND
  0
LINE
  8
0
 62
7
  6
CONTINUOUS
 10
336.2914623505
 20
106.8065647927
 11
336.2914623505
 21
118.5638647745
  0
LINE
  8
0
 62
7
  6
CONTINUOUS
 10
338.9914623505
 20
125.702513929
 11
338.9914623505
 21
130.3958554547
  0
LINE
  8
0
 62
7
  6
CONTINUOUS
 10
341.59375
 20
67.6195708323
 11
341.59375
 21
81.2154706969
  0
LINE
  8
0
 62
7
  6
CONTINUOUS
 10
344.29375
 20
89.6332864309
 11
344.29375
 21
86.2403418275
  0
LINE
  8
0
 62
7
  6
CONTINUOUS
 10
351.29375
 20
69.1325435616
 11
351.29375
 21
95.5953234512
  0
POLYLINE
  8
0
 62
7
  6
CONTINUOUS
 66
1
 70
0
  0
VERTEX
  8
0
 62
7
  6
CONTINUOUS
 10
341.3768384354
 20
78.4052819359
  0
VERTEX
  8
0
 62
7
  6
CONTINUOUS
 10
341.3563377448
 20
77.8824483565
  0
VERTEX
  8
0
 62
7
  6
CONTINUOUS
 10
341.3326243072
 20
76.8248957438
  0
VERTEX
  8
0
 62
7
  6
CONTINUOUS
 10
341.3326242812
 20
75.7668174884
  0
VERTEX
  8
0
 62
7
  6
CONTINUOUS
 10
341.3563376745
 20
74.7092646413
  0
VERTEX
  8
0
 62
7
  6
CONTINUOUS
 10
341.3768384354
 20
74.1864289734
  0
SEQEND
  0
POLYLINE
  8
0
 62
7
  6
CONTINUOUS
 66
1
 70
0
  0
VERTEX
  8
0
 62
7
  6
CONTINUOUS
 10
341.3682947191
 20
78.2141572766
  0
VERTEX
  8
0
 62
7
  6
CONTINUOUS
 10
341.3431830069
 20
77.5762792953
  0
VERTEX
  8
0
 62
7
  6
CONTINUOUS
 10
341.3280922633
 20
76.9368578596
  0
VERTEX
  8
0
 62
7
  6
CONTINUOUS
 10
341.3230504406
 20
76.2965105739
  0
VERTEX
  8
0
 62
7
  6
CONTINUOUS
 10
341.3280730336
 20
75.6560763245
  0
VERTEX
  8
0
 62
7
  6
CONTINUOUS
 10
341.3431514607
 20
75.016434178
  0
VERTEX
  8
0
 62
7
  6
CONTINUOUS
 10
341.3682947194
 20
74.377553626
  0
SEQEND
  0
POLYLINE
  8
0
 62
7
  6
CONTINUOUS
 66
1
 70
0
  0
VERTEX
  8
0
 62
7
  6
CONTINUOUS
 10
341.5694179054
 20
81.0414587403
  0
VERTEX
  8
0
 62
7
  6
CONTINUOUS
 10
341.4747913625
 20
79.9917785333
  0
VERTEX
  8
0
 62
7
  6
CONTINUOUS
 10
341.4037419246
 20
78.9384261386
  0
VERTEX
  8
0
 62
7
  6
CONTINUOUS
 10
341.3768384354
 20
78.4052819359
  0
SEQEND
  0
POLYLINE
  8
0
 62
7
  6
CONTINUOUS
 66
1
 70
0
  0
VERTEX
  8
0
 62
7
  6
CONTINUOUS
 10
341.59375
 20
81.128254341
  0
VERTEX
  8
0
 62
7
  6
CONTINUOUS
 10
341.5902865062
 20
81.1211076092
  0
VERTEX
  8
0
 62
7
  6
CONTINUOUS
 10
341.5825559389
 20
81.1012251679
  0
VERTEX
  8
0
 62
7
  6
CONTINUOUS
 10
341.5765833974
 20
81.0814044189
  0
VERTEX
  8
0
 62
7
  6
CONTINUOUS
 10
341.5722274667
 20
81.0615377333
  0
VERTEX
  8
0
 62
7
  6
CONTINUOUS
 10
341.5694179054
 20
81.0414587403
  0
SEQEND
  0
POLYLINE
  8
0
 62
7
  6
CONTINUOUS
 66
1
 70
0
  0
VERTEX
  8
0
 62
7
  6
CONTINUOUS
 10
341.5694179054
 20
71.5502521691
  0
VERTEX
  8
0
 62
7
  6
CONTINUOUS
 10
341.5726193987
 20
71.5280599844
  0
VERTEX
  8
0
 62
7
  6
CONTINUOUS
 10
341.5777192123
 20
71.506130879
  0
VERTEX
  8
0
 62
7
  6
CONTINUOUS
 10
341.584835343
 20
71.4842493225
  0
VERTEX
  8
0
 62
7
  6
CONTINUOUS
 10
341.59375
 20
71.4632742564
  0
SEQEND
  0
LINE
  8
0
 62
7
  6
CONTINUOUS
 10
390.414997745
 20
65.312409717
 11
390.5968292788
 21
65.3579139246
  0
LINE
  8
0
 62
7
  6
CONTINUOUS
 10
390.240372868
 20
65.2754773361
 11
390.4170209571
 21
65.3128751946
  0
LINE
  8
0
 62
7
  6
CONTINUOUS
 10
390.0710474099
 20
65.2453904919
 11
390.2438254453
 21
65.2761474702
  0
LINE
  8
0
 62
7
  6
CONTINUOUS
 10
389.9056560635
 20
65.2209298836
 11
390.0758341798
 21
65.2461685479
  0
LINE
  8
0
 62
7
  6
CONTINUOUS
 10
389.742915655
 20
65.201134107
 11
389.9113405776
 21
65.2216951611
  0
LINE
  8
0
 62
7
  6
CONTINUOUS
 10
389.5824793403
 20
65.1853064312
 11
389.7488961557
 21
65.201792079
  0
LINE
  8
0
 62
7
  6
CONTINUOUS
 10
389.424142145
 20
65.1728530012
 11
389.5882887785
 21
65.1858207334
  0
LINE
  8
0
 62
7
  6
CONTINUOUS
 10
389.2676295568
 20
65.1632493668
 11
389.4294513852
 21
65.1732238097
  0
LINE
  8
0
 62
7
  6
CONTINUOUS
 10
389.1130206307
 20
65.1560136397
 11
389.2722504194
 21
65.1634980166
  0
LINE
  8
0
 62
7
  6
CONTINUOUS
 10
388.9609899027
 20
65.1507188611
 11
389.1168957113
 21
65.1561708094
  0
LINE
  8
0
 62
7
  6
CONTINUOUS
 10
388.8128877114
 20
65.1470218507
 11
388.96409582
 21
65.1508109847
  0
LINE
  8
0
 62
7
  6
CONTINUOUS
 10
388.6699072274
 20
65.1446129578
 11
388.8152244058
 21
65.1470701644
  0
LINE
  8
0
 62
7
  6
CONTINUOUS
 10
388.5329773285
 20
65.1432164451
 11
388.671501083
 21
65.1446341984
  0
LINE
  8
0
 62
7
  6
CONTINUOUS
 10
388.4004486026
 20
65.142595462
 11
388.5338852022
 21
65.1432230439
  0
LINE
  8
0
 62
7
  6
CONTINUOUS
 10
388.2687077008
 20
65.1425808275
 11
388.4001621088
 21
65.1425948109
  0
LINE
  8
0
 62
7
  6
CONTINUOUS
 10
388.1347072383
 20
65.1431889068
 11
388.2683916375
 21
65.1425814843
  0
LINE
  8
0
 62
7
  6
CONTINUOUS
 10
387.9964268902
 20
65.1445880985
 11
388.1356484373
 21
65.1431821929
  0
LINE
  8
0
 62
7
  6
CONTINUOUS
 10
387.8519688462
 20
65.1470138997
 11
387.9980614838
 21
65.1445665636
  0
LINE
  8
0
 62
7
  6
CONTINUOUS
 10
387.7024255807
 20
65.1507481815
 11
387.8543500825
 21
65.1469650421
  0
LINE
  8
0
 62
7
  6
CONTINUOUS
 10
387.5490751384
 20
65.156103399
 11
387.7055774542
 21
65.1506551908
  0
LINE
  8
0
 62
7
  6
CONTINUOUS
 10
387.3933264862
 20
65.16342811
 11
387.5529945179
 21
65.1559450119
  0
LINE
  8
0
 62
7
  6
CONTINUOUS
 10
387.2358103969
 20
65.1731504018
 11
387.3979894135
 21
65.1631777985
  0
LINE
  8
0
 62
7
  6
CONTINUOUS
 10
387.0766726567
 20
65.1857525858
 11
387.2411523062
 21
65.1727781704
  0
LINE
  8
0
 62
7
  6
CONTINUOUS
 10
386.9158579453
 20
65.2017589135
 11
387.0824974526
 21
65.185237168
  0
LINE
  8
0
 62
7
  6
CONTINUOUS
 10
386.7533472553
 20
65.2217087538
 11
386.9218312759
 21
65.2011005645
  0
LINE
  8
0
 62
7
  6
CONTINUOUS
 10
386.5888920589
 20
65.2462089579
 11
386.7590076628
 21
65.2209452946
  0
LINE
  8
0
 62
7
  6
CONTINUOUS
 10
386.4209721744
 20
65.2761749272
 11
386.5936448572
 21
65.2454358197
  0
LINE
  8
0
 62
7
  6
CONTINUOUS
 10
386.2478652103
 20
65.3128342959
 11
386.4243958255
 21
65.2755108559
  0
LINE
  8
0
 62
7
  6
CONTINUOUS
 10
385.8922729949
 20
65.4091864503
 11
386.0689871271
 21
65.357529269
  0
POLYLINE
  8
0
 62
7
  6
CONTINUOUS
 66
1
 70
0
  0
VERTEX
  8
0
 62
7
  6
CONTINUOUS
 10
385.8922730766
 20
65.4091864289
  0
VERTEX
  8
0
 62
7
  6
CONTINUOUS
 10
386.0681937316
 20
65.3577439939
  0
VERTEX
  8
0
 62
7
  6
CONTINUOUS
 10
386.2498735424
 20
65.3123730988
  0
SEQEND
  0
LINE
  8
0
 62
7
  6
CONTINUOUS
 10
385.8920209109
 20
65.4092565657
 11
385.8922547547
 21
65.409183161
  0
LINE
  8
0
 62
7
  6
CONTINUOUS
 10
381.1156406828
 20
71.2857296522
 11
367.7964266823
 21
71.7614158665
  0
LINE
  8
DEFAULT_1
 62
2
  6
CENTER
 10
393.5821182128
 20
74.2958554547
 11
390.3321432128
 21
74.2958554547
  0
LINE
  8
0
 62
2
  6
CONTINUOUS
 10
389.3821182128
 20
74.2958554547
 11
387.2821182128
 21
74.2958554547
  0
LINE
  8
DEFAULT_1
 62
2
  6
CENTER
 10
383.0821182128
 20
74.2958554547
 11
386.3320932128
 21
74.2958554547
  0
POLYLINE
  8
0
 62
7
  6
CONTINUOUS
 66
1
 70
0
  0
VERTEX
  8
0
 62
7
  6
CONTINUOUS
 10
384.2708450476
 20
66.1852048935
  0
VERTEX
  8
0
 62
7
  6
CONTINUOUS
 10
384.5153935675
 20
66.0301442584
  0
VERTEX
  8
0
 62
7
  6
CONTINUOUS
 10
384.7715399712
 20
65.883767022
  0
VERTEX
  8
0
 62
7
  6
CONTINUOUS
 10
385.0390788202
 20
65.7469480144
  0
VERTEX
  8
0
 62
7
  6
CONTINUOUS
 10
385.3173603903
 20
65.6209886865
  0
VERTEX
  8
0
 62
7
  6
CONTINUOUS
 10
385.6059663794
 20
65.5068430691
  0
VERTEX
  8
0
 62
7
  6
CONTINUOUS
 10
385.8920209109
 20
65.4092565657
  0
SEQEND
  0
LINE
  8
0
 62
7
  6
CONTINUOUS
 10
384.0380564013
 20
66.3480190765
 11
384.2708450709
 21
66.1852048782
  0
LINE
  8
0
 62
7
  6
CONTINUOUS
 10
395.8321182128
 20
76.9458554547
 11
396.4172886503
 21
76.9458554547
  0
LINE
  8
0
 62
7
  6
CONTINUOUS
 10
367.7964266823
 20
80.8302950429
 11
380.542825672
 21
81.2855235782
  0
LINE
  8
0
 62
7
  6
CONTINUOUS
 10
366.8321182128
 20
79.8309321885
 11
366.8321182128
 21
72.7607787208
  0
POLYLINE
  8
0
 62
7
  6
CONTINUOUS
 66
1
 70
0
  0
VERTEX
  8
0
 62
7
  6
CONTINUOUS
 10
381.8938964341
 20
69.0051017707
  0
VERTEX
  8
0
 62
7
  6
CONTINUOUS
 10
381.9825425193
 20
68.8223266447
  0
VERTEX
  8
0
 62
7
  6
CONTINUOUS
 10
382.0857445465
 20
68.6235694181
  0
VERTEX
  8
0
 62
7
  6
CONTINUOUS
 10
382.197343152
 20
68.4233934002
  0
VERTEX
  8
0
 62
7
  6
CONTINUOUS
 10
382.3173786261
 20
68.2229611433
  0
VERTEX
  8
0
 62
7
  6
CONTINUOUS
 10
382.4459345572
 20
68.0232286526
  0
VERTEX
  8
0
 62
7
  6
CONTINUOUS
 10
382.5830469253
 20
67.825056321
  0
VERTEX
  8
0
 62
7
  6
CONTINUOUS
 10
382.7286678513
 20
67.6293365396
  0
VERTEX
  8
0
 62
7
  6
CONTINUOUS
 10
382.8834335439
 20
67.4361314522
  0
VERTEX
  8
0
 62
7
  6
CONTINUOUS
 10
383.0480841957
 20
67.2455757314
  0
VERTEX
  8
0
 62
7
  6
CONTINUOUS
 10
383.2233151965
 20
67.05794465
  0
VERTEX
  8
0
 62
7
  6
CONTINUOUS
 10
383.4095834016
 20
66.8736876952
  0
VERTEX
  8
0
 62
7
  6
CONTINUOUS
 10
383.607205291
 20
66.693436174
  0
VERTEX
  8
0
 62
7
  6
CONTINUOUS
 10
383.8166972434
 20
66.5178589723
  0
VERTEX
  8
0
 62
7
  6
CONTINUOUS
 10
384.0380563882
 20
66.348019086
  0
SEQEND
  0
POLYLINE
  8
0
 62
7
  6
CONTINUOUS
 66
1
 70
0
  0
VERTEX
  8
0
 62
7
  6
CONTINUOUS
 10
380.8321182128
 20
73.7989834617
  0
VERTEX
  8
0
 62
7
  6
CONTINUOUS
 10
380.8405791591
 20
73.3618619073
  0
VERTEX
  8
0
 62
7
  6
CONTINUOUS
 10
380.8673058291
 20
72.9071943543
  0
VERTEX
  8
0
 62
7
  6
CONTINUOUS
 10
380.9123328244
 20
72.4527325314
  0
VERTEX
  8
0
 62
7
  6
CONTINUOUS
 10
380.9755751736
 20
71.9999168942
  0
VERTEX
  8
0
 62
7
  6
CONTINUOUS
 10
381.0568440441
 20
71.55016945
  0
VERTEX
  8
0
 62
7
  6
CONTINUOUS
 10
381.1558468734
 20
71.1049010007
  0
VERTEX
  8
0
 62
7
  6
CONTINUOUS
 10
381.2721974413
 20
70.6654697628
  0
VERTEX
  8
0
 62
7
  6
CONTINUOUS
 10
381.4054211346
 20
70.2331803696
  0
VERTEX
  8
0
 62
7
  6
CONTINUOUS
 10
381.554950669
 20
69.8093040268
  0
VERTEX
  8
0
 62
7
  6
CONTINUOUS
 10
381.720125455
 20
69.3950721515
  0
VERTEX
  8
0
 62
7
  6
CONTINUOUS
 10
381.8938800315
 20
69.0050940731
  0
SEQEND
  0
LINE
  8
0
 62
7
  6
CONTINUOUS
 10
380.8321182128
 20
73.7989834617
 11
380.8321182128
 21
125.7458554547
  0
LINE
  8
0
 62
7
  6
CONTINUOUS
 10
395.8321182128
 20
99.407755913
 11
398.3300867714
 21
99.407755913
  0
LINE
  8
0
 62
7
  6
CONTINUOUS
 10
385.2321182128
 20
125.0958554547
 11
385.2321182128
 21
108.5958554547
  0
LINE
  8
DEFAULT_1
 62
2
  6
CENTER
 10
388.3321182128
 20
130.3458554547
 11
388.3321182128
 21
127.0959554547
  0
LINE
  8
0
 62
2
  6
CONTINUOUS
 10
388.3321182128
 20
126.1458554547
 11
388.3321182128
 21
124.0458554547
  0
LINE
  8
DEFAULT_1
 62
2
  6
CENTER
 10
388.3321182128
 20
79.5458554547
 11
388.3321182128
 21
76.2958804547
  0
LINE
  8
0
 62
2
  6
CONTINUOUS
 10
388.3321182128
 20
75.3458554547
 11
388.3321182128
 21
73.2458554547
  0
LINE
  8
DEFAULT_1
 62
2
  6
CENTER
 10
388.3321182128
 20
69.0458554547
 11
388.3321182128
 21
72.2958304547
  0
LINE
  8
DEFAULT_1
 62
2
  6
CENTER
 10
388.3321182128
 20
119.8458554547
 11
388.3321182128
 21
123.0957554547
  0
LINE
  8
0
 62
7
  6
CONTINUOUS
 10
391.4321182128
 20
108.5958554547
 11
391.4321182128
 21
125.0958554547
  0
LINE
  8
0
 62
7
  6
CONTINUOUS
 10
395.8321182128
 20
73.6458554547
 11
395.8321182128
 21
125.7458554547
  0
LINE
  8
0
 62
7
  6
CONTINUOUS
 10
396.9961693852
 20
77.8621208794
 11
397.2477916159
 21
79.3991087639
  0
LINE
  8
0
 62
7
  6
CONTINUOUS
 10
397.2278057236
 20
119.993548285
 11
396.9747066193
 21
121.5300745473
  0
POLYLINE
  8
0
 62
7
  6
CONTINUOUS
 66
1
 70
0
  0
VERTEX
  8
0
 62
7
  6
CONTINUOUS
 10
394.7703563941
 20
69.0050940731
  0
VERTEX
  8
0
 62
7
  6
CONTINUOUS
 10
394.9435862733
 20
69.3938300942
  0
VERTEX
  8
0
 62
7
  6
CONTINUOUS
 10
395.1088084267
 20
69.8080333972
  0
VERTEX
  8
0
 62
7
  6
CONTINUOUS
 10
395.2583872023
 20
70.2318847037
  0
VERTEX
  8
0
 62
7
  6
CONTINUOUS
 10
395.3916617821
 20
70.6641528273
  0
VERTEX
  8
0
 62
7
  6
CONTINUOUS
 10
395.5080646387
 20
71.1035667855
  0
VERTEX
  8
0
 62
7
  6
CONTINUOUS
 10
395.6071208955
 20
71.5488221441
  0
VERTEX
  8
0
 62
7
  6
CONTINUOUS
 10
395.688444033
 20
71.9985607904
  0
VERTEX
  8
0
 62
7
  6
CONTINUOUS
 10
395.7517411664
 20
72.4513719118
  0
VERTEX
  8
0
 62
7
  6
CONTINUOUS
 10
395.7968231462
 20
72.9058334616
  0
VERTEX
  8
0
 62
7
  6
CONTINUOUS
 10
395.8236046879
 20
73.3605049273
  0
VERTEX
  8
0
 62
7
  6
CONTINUOUS
 10
395.8321182128
 20
73.7989834616
  0
SEQEND
  0
LINE
  8
0
 62
7
  6
CONTINUOUS
 10
394.6818743461
 20
68.8226474203
 11
394.7703399978
 21
69.0051017677
  0
LINE
  8
0
 62
7
  6
CONTINUOUS
 10
394.5785288663
 20
68.6235221503
 11
394.6818743601
 21
68.8226473971
  0
LINE
  8
0
 62
7
  6
CONTINUOUS
 10
396.3954021568
 20
122.4458554547
 11
395.8321182128
 21
122.4458554547
  0
LINE
  8
DEFAULT_1
 62
2
  6
CENTER
 10
393.5821182128
 20
125.0958554547
 11
390.3322182128
 21
125.0958554547
  0
LINE
  8
0
 62
2
  6
CONTINUOUS
 10
389.3821182128
 20
125.0958554547
 11
387.2821182128
 21
125.0958554547
  0
LINE
  8
DEFAULT_1
 62
2
  6
CENTER
 10
383.0821182128
 20
125.0958554547
 11
386.3320182128
 21
125.0958554547
  0
POLYLINE
  8
0
 62
7
  6
CONTINUOUS
 66
1
 70
0
  0
VERTEX
  8
0
 62
7
  6
CONTINUOUS
 10
393.7811085626
 20
67.4365144501
  0
VERTEX
  8
0
 62
7
  6
CONTINUOUS
 10
393.9360007188
 20
67.6299056553
  0
VERTEX
  8
0
 62
7
  6
CONTINUOUS
 10
394.0816864665
 20
67.8257212074
  0
VERTEX
  8
0
 62
7
  6
CONTINUOUS
 10
394.2187243551
 20
68.0237698998
  0
VERTEX
  8
0
 62
7
  6
CONTINUOUS
 10
394.3471092881
 20
68.2232128293
  0
VERTEX
  8
0
 62
7
  6
CONTINUOUS
 10
394.4669825648
 20
68.4233833369
  0
VERTEX
  8
0
 62
7
  6
CONTINUOUS
 10
394.578528833
 20
68.6235221406
  0
SEQEND
  0
POLYLINE
  8
0
 62
7
  6
CONTINUOUS
 66
1
 70
0
  0
VERTEX
  8
0
 62
7
  6
CONTINUOUS
 10
393.4412215029
 20
67.058282503
  0
VERTEX
  8
0
 62
7
  6
CONTINUOUS
 10
393.6164146309
 20
67.2458908591
  0
VERTEX
  8
0
 62
7
  6
CONTINUOUS
 10
393.7811087946
 20
67.4365146841
  0
SEQEND
  0
POLYLINE
  8
0
 62
7
  6
CONTINUOUS
 66
1
 70
0
  0
VERTEX
  8
0
 62
7
  6
CONTINUOUS
 10
390.7722158017
 20
65.409256647
  0
VERTEX
  8
0
 62
7
  6
CONTINUOUS
 10
391.0593230544
 20
65.5072290306
  0
VERTEX
  8
0
 62
7
  6
CONTINUOUS
 10
391.3479180465
 20
65.6214280706
  0
VERTEX
  8
0
 62
7
  6
CONTINUOUS
 10
391.626139298
 20
65.7474193616
  0
VERTEX
  8
0
 62
7
  6
CONTINUOUS
 10
391.8936063658
 20
65.8842594781
  0
VERTEX
  8
0
 62
7
  6
CONTINUOUS
 10
392.1496867285
 20
66.0306533075
  0
VERTEX
  8
0
 62
7
  6
CONTINUOUS
 10
392.3942286284
 20
66.1857603119
  0
VERTEX
  8
0
 62
7
  6
CONTINUOUS
 10
392.6271300322
 20
66.3487263691
  0
VERTEX
  8
0
 62
7
  6
CONTINUOUS
 10
392.8484630488
 20
66.5186072665
  0
VERTEX
  8
0
 62
7
  6
CONTINUOUS
 10
393.0577826805
 20
66.6940930288
  0
VERTEX
  8
0
 62
7
  6
CONTINUOUS
 10
393.2551172939
 20
66.874140544
  0
VERTEX
  8
0
 62
7
  6
CONTINUOUS
 10
393.4412209849
 20
67.0582820034
  0
SEQEND
  0
LINE
  8
0
 62
7
  6
CONTINUOUS
 10
390.7721969313
 20
65.4092602452
 11
390.7719629182
 21
65.409186289
  0
LINE
  8
0
 62
7
  6
CONTINUOUS
 10
390.59603543
 20
65.3576986227
 11
390.7719629182
 21
65.409186289
  0
LINE
  8
0
 62
7
  6
CONTINUOUS
 10
388.4821182128
 20
133.0958554547
 11
388.1821182128
 21
133.0958554547
  0
LINE
  8
0
 62
7
  6
CONTINUOUS
 10
25.39375
 20
209.3421424104
 11
25.39375
 21
194.9421424104
  0
POLYLINE
  8
0
 62
7
  6
CONTINUOUS
 66
1
 70
0
  0
VERTEX
  8
0
 62
7
  6
CONTINUOUS
 10
30.9832037575
 20
182.4726647847
  0
VERTEX
  8
0
 62
7
  6
CONTINUOUS
 10
30.9858962435
 20
182.443608405
  0
VERTEX
  8
0
 62
7
  6
CONTINUOUS
 10
30.9913799832
 20
182.394870355
  0
VERTEX
  8
0
 62
7
  6
CONTINUOUS
 10
30.9983612938
 20
182.3442774657
  0
VERTEX
  8
0
 62
7
  6
CONTINUOUS
 10
31.0069639439
 20
182.2920085629
  0
VERTEX
  8
0
 62
7
  6
CONTINUOUS
 10
31.0173105426
 20
182.2382064394
  0
VERTEX
  8
0
 62
7
  6
CONTINUOUS
 10
31.0295096841
 20
182.1830539406
  0
VERTEX
  8
0
 62
7
  6
CONTINUOUS
 10
31.0436567385
 20
182.1267493924
  0
VERTEX
  8
0
 62
7
  6
CONTINUOUS
 10
31.0598513815
 20
182.0694400558
  0
VERTEX
  8
0
 62
7
  6
CONTINUOUS
 10
31.0781998261
 20
182.0112398835
  0
VERTEX
  8
0
 62
7
  6
CONTINUOUS
 10
31.0952535646
 20
181.9620272931
  0
SEQEND
  0
LINE
  8
0
 62
7
  6
CONTINUOUS
 10
30.9831988463
 20
182.4726532538
 11
30.9796803268
 21
182.5209370286
  0
LINE
  8
0
 62
7
  6
CONTINUOUS
 10
30.2490202025
 20
194.5553390744
 11
30.9796803268
 21
182.5209370286
  0
LINE
  8
0
 62
7
  6
CONTINUOUS
 10
35.3644495651
 20
185.842064569
 11
35.3578404444
 21
193.828051966
  0
LINE
  8
0
 62
7
  6
CONTINUOUS
 10
35.09375
 20
194.0921424104
 11
35.09375
 21
209.3421424104
  0
LINE
  8
0
 62
7
  6
CONTINUOUS
 10
46.39375
 20
185.3823510048
 11
46.39375
 21
181.6421424104
  0
LINE
  8
0
 62
7
  6
CONTINUOUS
 10
52.7460376495
 20
197.3421424104
 11
52.7460376495
 21
206.9421424104
  0
LINE
  8
0
 62
7
  6
CONTINUOUS
 10
65.1460376495
 20
197.3421424104
 11
65.1460376495
 21
206.9421424104
  0
LINE
  8
0
 62
7
  6
CONTINUOUS
 10
80.5460376495
 20
197.3421424104
 11
80.5460376495
 21
206.9421424104
  0
LINE
  8
0
 62
7
  6
CONTINUOUS
 10
35.3578412258
 20
193.8280511846
 11
34.79375
 21
194.3921424104
  0
LINE
  8
0
 62
7
  6
CONTINUOUS
 10
92.9460376495
 20
197.3421424104
 11
92.9460376495
 21
206.9421424104
  0
LINE
  8
0
 62
7
  6
CONTINUOUS
 10
105.9460376495
 20
197.3421424104
 11
105.9460376495
 21
206.9421424104
  0
LINE
  8
0
 62
7
  6
CONTINUOUS
 10
109.44375
 20
209.6421424104
 11
109.44375
 21
210.5639093773
  0
LINE
  8
0
 62
7
  6
CONTINUOUS
 10
109.7437545111
 20
211.0348437851
 11
109.7437872295
 21
212.1134615041
  0
POLYLINE
  8
0
 62
7
  6
CONTINUOUS
 66
1
 70
0
  0
VERTEX
  8
0
 62
7
  6
CONTINUOUS
 10
114.843749928
 20
210.5639066462
  0
VERTEX
  8
0
 62
7
  6
CONTINUOUS
 10
114.8427466744
 20
210.5959577899
  0
VERTEX
  8
0
 62
7
  6
CONTINUOUS
 10
114.8378178145
 20
210.6416578008
  0
VERTEX
  8
0
 62
7
  6
CONTINUOUS
 10
114.8288070559
 20
210.6867732002
  0
VERTEX
  8
0
 62
7
  6
CONTINUOUS
 10
114.8157902993
 20
210.730913981
  0
VERTEX
  8
0
 62
7
  6
CONTINUOUS
 10
114.7988922246
 20
210.7736926634
  0
VERTEX
  8
0
 62
7
  6
CONTINUOUS
 10
114.7782871319
 20
210.8147361423
  0
VERTEX
  8
0
 62
7
  6
CONTINUOUS
 10
114.7541911909
 20
210.8537056432
  0
VERTEX
  8
0
 62
7
  6
CONTINUOUS
 10
114.7268556669
 20
210.890302818
  0
VERTEX
  8
0
 62
7
  6
CONTINUOUS
 10
114.6965693088
 20
210.9242654546
  0
VERTEX
  8
0
 62
7
  6
CONTINUOUS
 10
114.6639984154
 20
210.9550786852
  0
VERTEX
  8
0
 62
7
  6
CONTINUOUS
 10
114.6310862311
 20
210.9815437216
  0
VERTEX
  8
0
 62
7
  6
CONTINUOUS
 10
114.5992135442
 20
211.0035440522
  0
VERTEX
  8
0
 62
7
  6
CONTINUOUS
 10
114.5685770767
 20
211.0218663215
  0
VERTEX
  8
0
 62
7
  6
CONTINUOUS
 10
114.5390695785
 20
211.037262718
  0
VERTEX
  8
0
 62
7
  6
CONTINUOUS
 10
114.5104789429
 20
211.0503431765
  0
VERTEX
  8
0
 62
7
  6
CONTINUOUS
 10
114.4944268808
 20
211.0569787475
  0
SEQEND
  0
LINE
  8
0
 62
7
  6
CONTINUOUS
 10
114.54375
 20
212.0554663576
 11
114.54375
 21
211.0348205718
  0
LINE
  8
0
 62
7
  6
CONTINUOUS
 10
114.84375
 20
210.5639093773
 11
114.84375
 21
209.6421424104
  0
LINE
  8
0
 62
7
  6
CONTINUOUS
 10
118.34375
 20
206.9421424104
 11
118.34375
 21
197.3421424104
  0
LINE
  8
0
 62
7
  6
CONTINUOUS
 10
131.34375
 20
197.3421424104
 11
131.34375
 21
206.9421424104
  0
LINE
  8
0
 62
7
  6
CONTINUOUS
 10
134.84375
 20
209.6421424104
 11
134.84375
 21
210.5639093773
  0
LINE
  8
0
 62
7
  6
CONTINUOUS
 10
135.14375
 20
211.0348414216
 11
135.14375
 21
212.0554663576
  0
POLYLINE
  8
0
 62
7
  6
CONTINUOUS
 66
1
 70
0
  0
VERTEX
  8
0
 62
7
  6
CONTINUOUS
 10
140.243749928
 20
210.5639066462
  0
VERTEX
  8
0
 62
7
  6
CONTINUOUS
 10
140.2427466744
 20
210.5959577899
  0
VERTEX
  8
0
 62
7
  6
CONTINUOUS
 10
140.2378178145
 20
210.6416578008
  0
VERTEX
  8
0
 62
7
  6
CONTINUOUS
 10
140.2288070559
 20
210.6867732002
  0
VERTEX
  8
0
 62
7
  6
CONTINUOUS
 10
140.2157902993
 20
210.730913981
  0
VERTEX
  8
0
 62
7
  6
CONTINUOUS
 10
140.1988922246
 20
210.7736926634
  0
VERTEX
  8
0
 62
7
  6
CONTINUOUS
 10
140.1782871319
 20
210.8147361423
  0
VERTEX
  8
0
 62
7
  6
CONTINUOUS
 10
140.1541911909
 20
210.8537056432
  0
VERTEX
  8
0
 62
7
  6
CONTINUOUS
 10
140.1268556669
 20
210.890302818
  0
VERTEX
  8
0
 62
7
  6
CONTINUOUS
 10
140.0965693088
 20
210.9242654546
  0
VERTEX
  8
0
 62
7
  6
CONTINUOUS
 10
140.0639984154
 20
210.9550786852
  0
VERTEX
  8
0
 62
7
  6
CONTINUOUS
 10
140.0310862311
 20
210.9815437216
  0
VERTEX
  8
0
 62
7
  6
CONTINUOUS
 10
139.9992135442
 20
211.0035440522
  0
VERTEX
  8
0
 62
7
  6
CONTINUOUS
 10
139.9685770767
 20
211.0218663215
  0
VERTEX
  8
0
 62
7
  6
CONTINUOUS
 10
139.9390695785
 20
211.037262718
  0
VERTEX
  8
0
 62
7
  6
CONTINUOUS
 10
139.9104789429
 20
211.0503431765
  0
VERTEX
  8
0
 62
7
  6
CONTINUOUS
 10
139.8944268808
 20
211.0569787475
  0
SEQEND
  0
LINE
  8
0
 62
7
  6
CONTINUOUS
 10
139.94375
 20
212.0554663576
 11
139.94375
 21
211.0348205718
  0
LINE
  8
0
 62
7
  6
CONTINUOUS
 10
140.24375
 20
210.5639093773
 11
140.24375
 21
209.6421424104
  0
LINE
  8
0
 62
7
  6
CONTINUOUS
 10
143.74375
 20
206.9421424104
 11
143.74375
 21
197.3421424104
  0
POLYLINE
  8
0
 62
7
  6
CONTINUOUS
 66
1
 70
0
  0
VERTEX
  8
0
 62
7
  6
CONTINUOUS
 10
109.9062447512
 20
211.1025613742
  0
VERTEX
  8
0
 62
7
  6
CONTINUOUS
 10
109.9083061569
 20
211.1037851934
  0
VERTEX
  8
0
 62
7
  6
CONTINUOUS
 10
109.9073998153
 20
211.1033173451
  0
VERTEX
  8
0
 62
7
  6
CONTINUOUS
 10
109.9020467385
 20
211.1007281378
  0
VERTEX
  8
0
 62
7
  6
CONTINUOUS
 10
109.8921574707
 20
211.096366664
  0
VERTEX
  8
0
 62
7
  6
CONTINUOUS
 10
109.8813850962
 20
211.0919778539
  0
SEQEND
  0
POLYLINE
  8
0
 62
7
  6
CONTINUOUS
 66
1
 70
0
  0
VERTEX
  8
0
 62
7
  6
CONTINUOUS
 10
109.7930751662
 20
211.0569795666
  0
VERTEX
  8
0
 62
7
  6
CONTINUOUS
 10
109.7761439245
 20
211.0499665218
  0
VERTEX
  8
0
 62
7
  6
CONTINUOUS
 10
109.7475531613
 20
211.0368340024
  0
VERTEX
  8
0
 62
7
  6
CONTINUOUS
 10
109.7179855818
 20
211.0213427343
  0
VERTEX
  8
0
 62
7
  6
CONTINUOUS
 10
109.6872713725
 20
211.0028920908
  0
VERTEX
  8
0
 62
7
  6
CONTINUOUS
 10
109.6553461431
 20
210.980748839
  0
VERTEX
  8
0
 62
7
  6
CONTINUOUS
 10
109.6224447871
 20
210.9541568648
  0
VERTEX
  8
0
 62
7
  6
CONTINUOUS
 10
109.589952966
 20
210.9232568931
  0
VERTEX
  8
0
 62
7
  6
CONTINUOUS
 10
109.5597707678
 20
210.8892309136
  0
VERTEX
  8
0
 62
7
  6
CONTINUOUS
 10
109.5325385377
 20
210.8525712783
  0
VERTEX
  8
0
 62
7
  6
CONTINUOUS
 10
109.5085501996
 20
210.8135468247
  0
VERTEX
  8
0
 62
7
  6
CONTINUOUS
 10
109.4880590999
 20
210.7724624397
  0
VERTEX
  8
0
 62
7
  6
CONTINUOUS
 10
109.4712790494
 20
210.729657709
  0
VERTEX
  8
0
 62
7
  6
CONTINUOUS
 10
109.4583814883
 20
210.6855043226
  0
VERTEX
  8
0
 62
7
  6
CONTINUOUS
 10
109.4494888919
 20
210.6403876724
  0
VERTEX
  8
0
 62
7
  6
CONTINUOUS
 10
109.4446757901
 20
210.5946954263
  0
VERTEX
  8
0
 62
7
  6
CONTINUOUS
 10
109.4437500816
 20
210.5639065916
  0
SEQEND
  0
LINE
  8
0
 62
7
  6
CONTINUOUS
 10
109.8813741026
 20
211.0919735143
 11
109.7930637471
 21
211.0569750413
  0
LINE
  8
0
 62
7
  6
CONTINUOUS
 10
156.74375
 20
197.3421424104
 11
156.74375
 21
206.9421424104
  0
POLYLINE
  8
0
 62
7
  6
CONTINUOUS
 66
1
 70
0
  0
VERTEX
  8
0
 62
7
  6
CONTINUOUS
 10
135.306244759
 20
211.102561379
  0
VERTEX
  8
0
 62
7
  6
CONTINUOUS
 10
135.3083061597
 20
211.103785195
  0
VERTEX
  8
0
 62
7
  6
CONTINUOUS
 10
135.3073998076
 20
211.1033173412
  0
VERTEX
  8
0
 62
7
  6
CONTINUOUS
 10
135.3020467214
 20
211.1007281298
  0
VERTEX
  8
0
 62
7
  6
CONTINUOUS
 10
135.2921574532
 20
211.0963666565
  0
VERTEX
  8
0
 62
7
  6
CONTINUOUS
 10
135.2813850963
 20
211.0919778539
  0
SEQEND
  0
POLYLINE
  8
0
 62
7
  6
CONTINUOUS
 66
1
 70
0
  0
VERTEX
  8
0
 62
7
  6
CONTINUOUS
 10
135.1930751662
 20
211.0569795666
  0
VERTEX
  8
0
 62
7
  6
CONTINUOUS
 10
135.1761439245
 20
211.0499665218
  0
VERTEX
  8
0
 62
7
  6
CONTINUOUS
 10
135.1475531613
 20
211.0368340024
  0
VERTEX
  8
0
 62
7
  6
CONTINUOUS
 10
135.1179855818
 20
211.0213427343
  0
VERTEX
  8
0
 62
7
  6
CONTINUOUS
 10
135.0872713725
 20
211.0028920908
  0
VERTEX
  8
0
 62
7
  6
CONTINUOUS
 10
135.0553461431
 20
210.980748839
  0
VERTEX
  8
0
 62
7
  6
CONTINUOUS
 10
135.0224447871
 20
210.9541568648
  0
VERTEX
  8
0
 62
7
  6
CONTINUOUS
 10
134.989952966
 20
210.9232568931
  0
VERTEX
  8
0
 62
7
  6
CONTINUOUS
 10
134.9597707678
 20
210.8892309136
  0
VERTEX
  8
0
 62
7
  6
CONTINUOUS
 10
134.9325385377
 20
210.8525712783
  0
VERTEX
  8
0
 62
7
  6
CONTINUOUS
 10
134.9085501996
 20
210.8135468247
  0
VERTEX
  8
0
 62
7
  6
CONTINUOUS
 10
134.8880590999
 20
210.7724624397
  0
VERTEX
  8
0
 62
7
  6
CONTINUOUS
 10
134.8712790494
 20
210.729657709
  0
VERTEX
  8
0
 62
7
  6
CONTINUOUS
 10
134.8583814883
 20
210.6855043226
  0
VERTEX
  8
0
 62
7
  6
CONTINUOUS
 10
134.8494888919
 20
210.6403876724
  0
VERTEX
  8
0
 62
7
  6
CONTINUOUS
 10
134.8446757901
 20
210.5946954263
  0
VERTEX
  8
0
 62
7
  6
CONTINUOUS
 10
134.8437500816
 20
210.5639065916
  0
SEQEND
  0
LINE
  8
0
 62
7
  6
CONTINUOUS
 10
135.2813741026
 20
211.0919735143
 11
135.1930637471
 21
211.0569750413
  0
POLYLINE
  8
0
 62
7
  6
CONTINUOUS
 66
1
 70
0
  0
VERTEX
  8
0
 62
7
  6
CONTINUOUS
 10
165.643749928
 20
210.5639066462
  0
VERTEX
  8
0
 62
7
  6
CONTINUOUS
 10
165.6427466744
 20
210.5959577899
  0
VERTEX
  8
0
 62
7
  6
CONTINUOUS
 10
165.6378178145
 20
210.6416578008
  0
VERTEX
  8
0
 62
7
  6
CONTINUOUS
 10
165.6288070559
 20
210.6867732002
  0
VERTEX
  8
0
 62
7
  6
CONTINUOUS
 10
165.6157902993
 20
210.730913981
  0
VERTEX
  8
0
 62
7
  6
CONTINUOUS
 10
165.5988922246
 20
210.7736926634
  0
VERTEX
  8
0
 62
7
  6
CONTINUOUS
 10
165.5782871319
 20
210.8147361423
  0
VERTEX
  8
0
 62
7
  6
CONTINUOUS
 10
165.5541911909
 20
210.8537056432
  0
VERTEX
  8
0
 62
7
  6
CONTINUOUS
 10
165.5268556669
 20
210.890302818
  0
VERTEX
  8
0
 62
7
  6
CONTINUOUS
 10
165.4965693088
 20
210.9242654546
  0
VERTEX
  8
0
 62
7
  6
CONTINUOUS
 10
165.4639984154
 20
210.9550786852
  0
VERTEX
  8
0
 62
7
  6
CONTINUOUS
 10
165.4310862311
 20
210.9815437216
  0
VERTEX
  8
0
 62
7
  6
CONTINUOUS
 10
165.3992135442
 20
211.0035440522
  0
VERTEX
  8
0
 62
7
  6
CONTINUOUS
 10
165.3685770767
 20
211.0218663215
  0
VERTEX
  8
0
 62
7
  6
CONTINUOUS
 10
165.3390695785
 20
211.037262718
  0
VERTEX
  8
0
 62
7
  6
CONTINUOUS
 10
165.3104789429
 20
211.0503431765
  0
VERTEX
  8
0
 62
7
  6
CONTINUOUS
 10
165.2944268808
 20
211.0569787475
  0
SEQEND
  0
LINE
  8
0
 62
7
  6
CONTINUOUS
 10
160.24375
 20
209.6421424104
 11
160.24375
 21
210.5639093773
  0
LINE
  8
0
 62
7
  6
CONTINUOUS
 10
160.54375
 20
211.0348414216
 11
160.54375
 21
212.0554663576
  0
LINE
  8
0
 62
7
  6
CONTINUOUS
 10
165.34375
 20
212.0554663576
 11
165.34375
 21
211.0348205718
  0
LINE
  8
0
 62
7
  6
CONTINUOUS
 10
165.64375
 20
210.5639093773
 11
165.64375
 21
209.6421424104
  0
POLYLINE
  8
0
 62
7
  6
CONTINUOUS
 66
1
 70
0
  0
VERTEX
  8
0
 62
7
  6
CONTINUOUS
 10
160.706244759
 20
211.102561379
  0
VERTEX
  8
0
 62
7
  6
CONTINUOUS
 10
160.7083061597
 20
211.103785195
  0
VERTEX
  8
0
 62
7
  6
CONTINUOUS
 10
160.7073998076
 20
211.1033173412
  0
VERTEX
  8
0
 62
7
  6
CONTINUOUS
 10
160.7020467214
 20
211.1007281298
  0
VERTEX
  8
0
 62
7
  6
CONTINUOUS
 10
160.6921574532
 20
211.0963666565
  0
VERTEX
  8
0
 62
7
  6
CONTINUOUS
 10
160.6813850963
 20
211.0919778539
  0
SEQEND
  0
POLYLINE
  8
0
 62
7
  6
CONTINUOUS
 66
1
 70
0
  0
VERTEX
  8
0
 62
7
  6
CONTINUOUS
 10
160.5930751662
 20
211.0569795666
  0
VERTEX
  8
0
 62
7
  6
CONTINUOUS
 10
160.5761439245
 20
211.0499665218
  0
VERTEX
  8
0
 62
7
  6
CONTINUOUS
 10
160.5475531613
 20
211.0368340024
  0
VERTEX
  8
0
 62
7
  6
CONTINUOUS
 10
160.5179855818
 20
211.0213427343
  0
VERTEX
  8
0
 62
7
  6
CONTINUOUS
 10
160.4872713725
 20
211.0028920908
  0
VERTEX
  8
0
 62
7
  6
CONTINUOUS
 10
160.4553461431
 20
210.980748839
  0
VERTEX
  8
0
 62
7
  6
CONTINUOUS
 10
160.4224447871
 20
210.9541568648
  0
VERTEX
  8
0
 62
7
  6
CONTINUOUS
 10
160.389952966
 20
210.9232568931
  0
VERTEX
  8
0
 62
7
  6
CONTINUOUS
 10
160.3597707678
 20
210.8892309136
  0
VERTEX
  8
0
 62
7
  6
CONTINUOUS
 10
160.3325385377
 20
210.8525712783
  0
VERTEX
  8
0
 62
7
  6
CONTINUOUS
 10
160.3085501996
 20
210.8135468247
  0
VERTEX
  8
0
 62
7
  6
CONTINUOUS
 10
160.2880590999
 20
210.7724624397
  0
VERTEX
  8
0
 62
7
  6
CONTINUOUS
 10
160.2712790494
 20
210.729657709
  0
VERTEX
  8
0
 62
7
  6
CONTINUOUS
 10
160.2583814883
 20
210.6855043226
  0
VERTEX
  8
0
 62
7
  6
CONTINUOUS
 10
160.2494888919
 20
210.6403876724
  0
VERTEX
  8
0
 62
7
  6
CONTINUOUS
 10
160.2446757901
 20
210.5946954263
  0
VERTEX
  8
0
 62
7
  6
CONTINUOUS
 10
160.2437500816
 20
210.5639065916
  0
SEQEND
  0
LINE
  8
0
 62
7
  6
CONTINUOUS
 10
160.6813741026
 20
211.0919735143
 11
160.5930637471
 21
211.0569750413
  0
LINE
  8
0
 62
7
  6
CONTINUOUS
 10
169.14375
 20
206.9421424104
 11
169.14375
 21
197.3421424104
  0
POLYLINE
  8
0
 62
7
  6
CONTINUOUS
 66
1
 70
0
  0
VERTEX
  8
0
 62
7
  6
CONTINUOUS
 10
186.106244759
 20
211.102561379
  0
VERTEX
  8
0
 62
7
  6
CONTINUOUS
 10
186.1083061597
 20
211.103785195
  0
VERTEX
  8
0
 62
7
  6
CONTINUOUS
 10
186.1073998076
 20
211.1033173412
  0
VERTEX
  8
0
 62
7
  6
CONTINUOUS
 10
186.1020467214
 20
211.1007281298
  0
VERTEX
  8
0
 62
7
  6
CONTINUOUS
 10
186.0921574532
 20
211.0963666565
  0
VERTEX
  8
0
 62
7
  6
CONTINUOUS
 10
186.0813850963
 20
211.0919778539
  0
SEQEND
  0
POLYLINE
  8
0
 62
7
  6
CONTINUOUS
 66
1
 70
0
  0
VERTEX
  8
0
 62
7
  6
CONTINUOUS
 10
185.9930751662
 20
211.0569795666
  0
VERTEX
  8
0
 62
7
  6
CONTINUOUS
 10
185.9761439245
 20
211.0499665218
  0
VERTEX
  8
0
 62
7
  6
CONTINUOUS
 10
185.9475531613
 20
211.0368340024
  0
VERTEX
  8
0
 62
7
  6
CONTINUOUS
 10
185.9179855818
 20
211.0213427343
  0
VERTEX
  8
0
 62
7
  6
CONTINUOUS
 10
185.8872713725
 20
211.0028920908
  0
VERTEX
  8
0
 62
7
  6
CONTINUOUS
 10
185.8553461431
 20
210.980748839
  0
VERTEX
  8
0
 62
7
  6
CONTINUOUS
 10
185.8224447871
 20
210.9541568648
  0
VERTEX
  8
0
 62
7
  6
CONTINUOUS
 10
185.789952966
 20
210.9232568931
  0
VERTEX
  8
0
 62
7
  6
CONTINUOUS
 10
185.7597707678
 20
210.8892309136
  0
VERTEX
  8
0
 62
7
  6
CONTINUOUS
 10
185.7325385377
 20
210.8525712783
  0
VERTEX
  8
0
 62
7
  6
CONTINUOUS
 10
185.7085501996
 20
210.8135468247
  0
VERTEX
  8
0
 62
7
  6
CONTINUOUS
 10
185.6880590999
 20
210.7724624397
  0
VERTEX
  8
0
 62
7
  6
CONTINUOUS
 10
185.6712790494
 20
210.729657709
  0
VERTEX
  8
0
 62
7
  6
CONTINUOUS
 10
185.6583814883
 20
210.6855043226
  0
VERTEX
  8
0
 62
7
  6
CONTINUOUS
 10
185.6494888919
 20
210.6403876724
  0
VERTEX
  8
0
 62
7
  6
CONTINUOUS
 10
185.6446757901
 20
210.5946954263
  0
VERTEX
  8
0
 62
7
  6
CONTINUOUS
 10
185.6437500816
 20
210.5639065916
  0
SEQEND
  0
LINE
  8
0
 62
7
  6
CONTINUOUS
 10
186.0813741026
 20
211.0919735143
 11
185.9930637471
 21
211.0569750413
  0
LINE
  8
0
 62
7
  6
CONTINUOUS
 10
45.39375
 20
180.6421424104
 11
32.9760042622
 21
180.6421424104
  0
LINE
  8
0
 62
7
  6
CONTINUOUS
 10
331.29375
 20
180.6421424104
 11
343.7114957378
 21
180.6421424104
  0
LINE
  8
0
 62
7
  6
CONTINUOUS
 10
341.1230415157
 20
185.6423510344
 11
330.55375
 21
185.6423510344
  0
LINE
  8
0
 62
7
  6
CONTINUOUS
 10
35.5644584828
 20
185.6423510344
 11
46.13375
 21
185.6423510344
  0
POLYLINE
  8
0
 62
7
  6
CONTINUOUS
 66
1
 70
0
  0
VERTEX
  8
0
 62
7
  6
CONTINUOUS
 10
35.5644497885
 20
185.6423510344
  0
VERTEX
  8
0
 62
7
  6
CONTINUOUS
 10
35.5555793358
 20
185.6425513269
  0
VERTEX
  8
0
 62
7
  6
CONTINUOUS
 10
35.533155104
 20
185.6448275738
  0
VERTEX
  8
0
 62
7
  6
CONTINUOUS
 10
35.5110884902
 20
185.6496008444
  0
VERTEX
  8
0
 62
7
  6
CONTINUOUS
 10
35.4896151474
 20
185.6568810032
  0
VERTEX
  8
0
 62
7
  6
CONTINUOUS
 10
35.4690310641
 20
185.6666349576
  0
VERTEX
  8
0
 62
7
  6
CONTINUOUS
 10
35.4496436348
 20
185.6786508189
  0
VERTEX
  8
0
 62
7
  6
CONTINUOUS
 10
35.4317184559
 20
185.6927607651
  0
VERTEX
  8
0
 62
7
  6
CONTINUOUS
 10
35.4155394806
 20
185.7088538562
  0
VERTEX
  8
0
 62
7
  6
CONTINUOUS
 10
35.4013468911
 20
185.7266949643
  0
VERTEX
  8
0
 62
7
  6
CONTINUOUS
 10
35.3892430257
 20
185.746003933
  0
VERTEX
  8
0
 62
7
  6
CONTINUOUS
 10
35.3793866262
 20
185.7665205009
  0
VERTEX
  8
0
 62
7
  6
CONTINUOUS
 10
35.3719901041
 20
185.7879466672
  0
VERTEX
  8
0
 62
7
  6
CONTINUOUS
 10
35.367096264
 20
185.8099981324
  0
VERTEX
  8
0
 62
7
  6
CONTINUOUS
 10
35.3646990384
 20
185.832446684
  0
VERTEX
  8
0
 62
7
  6
CONTINUOUS
 10
35.3644496141
 20
185.8420645506
  0
SEQEND
  0
LINE
  8
0
 62
7
  6
CONTINUOUS
 10
114.4944362526
 20
211.0569750414
 11
114.4061258975
 21
211.0919735142
  0
POLYLINE
  8
0
 62
7
  6
CONTINUOUS
 66
1
 70
0
  0
VERTEX
  8
0
 62
7
  6
CONTINUOUS
 10
114.4061154368
 20
211.0919776434
  0
VERTEX
  8
0
 62
7
  6
CONTINUOUS
 10
114.3951344675
 20
211.0964546228
  0
VERTEX
  8
0
 62
7
  6
CONTINUOUS
 10
114.3853315078
 20
211.1007846474
  0
VERTEX
  8
0
 62
7
  6
CONTINUOUS
 10
114.3800534828
 20
211.1033412485
  0
VERTEX
  8
0
 62
7
  6
CONTINUOUS
 10
114.3790269739
 20
211.1038789419
  0
SEQEND
  0
LINE
  8
0
 62
7
  6
CONTINUOUS
 10
182.14375
 20
197.3421424104
 11
182.14375
 21
206.9421424104
  0
LINE
  8
0
 62
7
  6
CONTINUOUS
 10
185.64375
 20
209.6421424104
 11
185.64375
 21
210.5639093773
  0
LINE
  8
0
 62
7
  6
CONTINUOUS
 10
185.94375
 20
211.0348414216
 11
185.94375
 21
212.0554663576
  0
POLYLINE
  8
0
 62
7
  6
CONTINUOUS
 66
1
 70
0
  0
VERTEX
  8
0
 62
7
  6
CONTINUOUS
 10
211.506244759
 20
211.102561379
  0
VERTEX
  8
0
 62
7
  6
CONTINUOUS
 10
211.5083061597
 20
211.103785195
  0
VERTEX
  8
0
 62
7
  6
CONTINUOUS
 10
211.5073998076
 20
211.1033173412
  0
VERTEX
  8
0
 62
7
  6
CONTINUOUS
 10
211.5020467214
 20
211.1007281298
  0
VERTEX
  8
0
 62
7
  6
CONTINUOUS
 10
211.4921574532
 20
211.0963666565
  0
VERTEX
  8
0
 62
7
  6
CONTINUOUS
 10
211.4813850963
 20
211.0919778539
  0
SEQEND
  0
POLYLINE
  8
0
 62
7
  6
CONTINUOUS
 66
1
 70
0
  0
VERTEX
  8
0
 62
7
  6
CONTINUOUS
 10
211.3930751662
 20
211.0569795666
  0
VERTEX
  8
0
 62
7
  6
CONTINUOUS
 10
211.3761439245
 20
211.0499665218
  0
VERTEX
  8
0
 62
7
  6
CONTINUOUS
 10
211.3475531613
 20
211.0368340024
  0
VERTEX
  8
0
 62
7
  6
CONTINUOUS
 10
211.3179855818
 20
211.0213427343
  0
VERTEX
  8
0
 62
7
  6
CONTINUOUS
 10
211.2872713725
 20
211.0028920908
  0
VERTEX
  8
0
 62
7
  6
CONTINUOUS
 10
211.2553461431
 20
210.980748839
  0
VERTEX
  8
0
 62
7
  6
CONTINUOUS
 10
211.2224447871
 20
210.9541568648
  0
VERTEX
  8
0
 62
7
  6
CONTINUOUS
 10
211.189952966
 20
210.9232568931
  0
VERTEX
  8
0
 62
7
  6
CONTINUOUS
 10
211.1597707678
 20
210.8892309136
  0
VERTEX
  8
0
 62
7
  6
CONTINUOUS
 10
211.1325385377
 20
210.8525712783
  0
VERTEX
  8
0
 62
7
  6
CONTINUOUS
 10
211.1085501996
 20
210.8135468247
  0
VERTEX
  8
0
 62
7
  6
CONTINUOUS
 10
211.0880590999
 20
210.7724624397
  0
VERTEX
  8
0
 62
7
  6
CONTINUOUS
 10
211.0712790494
 20
210.729657709
  0
VERTEX
  8
0
 62
7
  6
CONTINUOUS
 10
211.0583814883
 20
210.6855043226
  0
VERTEX
  8
0
 62
7
  6
CONTINUOUS
 10
211.0494888919
 20
210.6403876724
  0
VERTEX
  8
0
 62
7
  6
CONTINUOUS
 10
211.0446757901
 20
210.5946954263
  0
VERTEX
  8
0
 62
7
  6
CONTINUOUS
 10
211.0437500816
 20
210.5639065916
  0
SEQEND
  0
LINE
  8
0
 62
7
  6
CONTINUOUS
 10
211.4813741026
 20
211.0919735143
 11
211.3930637471
 21
211.0569750413
  0
LINE
  8
0
 62
7
  6
CONTINUOUS
 10
350.99375
 20
194.6421424104
 11
346.7260881393
 21
194.6421424104
  0
LINE
  8
0
 62
7
  6
CONTINUOUS
 10
29.9614118607
 20
194.6421424104
 11
25.69375
 21
194.6421424104
  0
LINE
  8
0
 62
7
  6
CONTINUOUS
 10
35.09375
 20
194.6421424104
 11
341.59375
 21
194.6421424104
  0
LINE
  8
0
 62
7
  6
CONTINUOUS
 10
139.8944362526
 20
211.0569750414
 11
139.8061258975
 21
211.0919735142
  0
POLYLINE
  8
0
 62
7
  6
CONTINUOUS
 66
1
 70
0
  0
VERTEX
  8
0
 62
7
  6
CONTINUOUS
 10
139.8061154368
 20
211.0919776434
  0
VERTEX
  8
0
 62
7
  6
CONTINUOUS
 10
139.7951344675
 20
211.0964546228
  0
VERTEX
  8
0
 62
7
  6
CONTINUOUS
 10
139.7853315078
 20
211.1007846474
  0
VERTEX
  8
0
 62
7
  6
CONTINUOUS
 10
139.7800534828
 20
211.1033412485
  0
VERTEX
  8
0
 62
7
  6
CONTINUOUS
 10
139.7790269739
 20
211.1038789419
  0
SEQEND
  0
POLYLINE
  8
0
 62
7
  6
CONTINUOUS
 66
1
 70
0
  0
VERTEX
  8
0
 62
7
  6
CONTINUOUS
 10
191.043749928
 20
210.5639066462
  0
VERTEX
  8
0
 62
7
  6
CONTINUOUS
 10
191.0427466744
 20
210.5959577899
  0
VERTEX
  8
0
 62
7
  6
CONTINUOUS
 10
191.0378178145
 20
210.6416578008
  0
VERTEX
  8
0
 62
7
  6
CONTINUOUS
 10
191.0288070559
 20
210.6867732002
  0
VERTEX
  8
0
 62
7
  6
CONTINUOUS
 10
191.0157902993
 20
210.730913981
  0
VERTEX
  8
0
 62
7
  6
CONTINUOUS
 10
190.9988922246
 20
210.7736926634
  0
VERTEX
  8
0
 62
7
  6
CONTINUOUS
 10
190.9782871319
 20
210.8147361423
  0
VERTEX
  8
0
 62
7
  6
CONTINUOUS
 10
190.9541911909
 20
210.8537056432
  0
VERTEX
  8
0
 62
7
  6
CONTINUOUS
 10
190.9268556669
 20
210.890302818
  0
VERTEX
  8
0
 62
7
  6
CONTINUOUS
 10
190.8965693088
 20
210.9242654546
  0
VERTEX
  8
0
 62
7
  6
CONTINUOUS
 10
190.8639984154
 20
210.9550786852
  0
VERTEX
  8
0
 62
7
  6
CONTINUOUS
 10
190.8310862311
 20
210.9815437216
  0
VERTEX
  8
0
 62
7
  6
CONTINUOUS
 10
190.7992135442
 20
211.0035440522
  0
VERTEX
  8
0
 62
7
  6
CONTINUOUS
 10
190.7685770767
 20
211.0218663215
  0
VERTEX
  8
0
 62
7
  6
CONTINUOUS
 10
190.7390695785
 20
211.037262718
  0
VERTEX
  8
0
 62
7
  6
CONTINUOUS
 10
190.7104789429
 20
211.0503431765
  0
VERTEX
  8
0
 62
7
  6
CONTINUOUS
 10
190.6944268808
 20
211.0569787475
  0
SEQEND
  0
LINE
  8
0
 62
7
  6
CONTINUOUS
 10
190.74375
 20
212.0554663576
 11
190.74375
 21
211.0348205718
  0
LINE
  8
0
 62
7
  6
CONTINUOUS
 10
191.04375
 20
210.5639093773
 11
191.04375
 21
209.6421424104
  0
LINE
  8
0
 62
7
  6
CONTINUOUS
 10
194.54375
 20
206.9421424104
 11
194.54375
 21
197.3421424104
  0
POLYLINE
  8
0
 62
7
  6
CONTINUOUS
 66
1
 70
0
  0
VERTEX
  8
0
 62
7
  6
CONTINUOUS
 10
236.906244759
 20
211.102561379
  0
VERTEX
  8
0
 62
7
  6
CONTINUOUS
 10
236.9083061597
 20
211.103785195
  0
VERTEX
  8
0
 62
7
  6
CONTINUOUS
 10
236.9073998076
 20
211.1033173412
  0
VERTEX
  8
0
 62
7
  6
CONTINUOUS
 10
236.9020467214
 20
211.1007281298
  0
VERTEX
  8
0
 62
7
  6
CONTINUOUS
 10
236.8921574532
 20
211.0963666565
  0
VERTEX
  8
0
 62
7
  6
CONTINUOUS
 10
236.8813850963
 20
211.0919778539
  0
SEQEND
  0
POLYLINE
  8
0
 62
7
  6
CONTINUOUS
 66
1
 70
0
  0
VERTEX
  8
0
 62
7
  6
CONTINUOUS
 10
236.7930751662
 20
211.0569795666
  0
VERTEX
  8
0
 62
7
  6
CONTINUOUS
 10
236.7761439245
 20
211.0499665218
  0
VERTEX
  8
0
 62
7
  6
CONTINUOUS
 10
236.7475531613
 20
211.0368340024
  0
VERTEX
  8
0
 62
7
  6
CONTINUOUS
 10
236.7179855818
 20
211.0213427343
  0
VERTEX
  8
0
 62
7
  6
CONTINUOUS
 10
236.6872713725
 20
211.0028920908
  0
VERTEX
  8
0
 62
7
  6
CONTINUOUS
 10
236.6553461431
 20
210.980748839
  0
VERTEX
  8
0
 62
7
  6
CONTINUOUS
 10
236.6224447871
 20
210.9541568648
  0
VERTEX
  8
0
 62
7
  6
CONTINUOUS
 10
236.589952966
 20
210.9232568931
  0
VERTEX
  8
0
 62
7
  6
CONTINUOUS
 10
236.5597707678
 20
210.8892309136
  0
VERTEX
  8
0
 62
7
  6
CONTINUOUS
 10
236.5325385377
 20
210.8525712783
  0
VERTEX
  8
0
 62
7
  6
CONTINUOUS
 10
236.5085501996
 20
210.8135468247
  0
VERTEX
  8
0
 62
7
  6
CONTINUOUS
 10
236.4880590999
 20
210.7724624397
  0
VERTEX
  8
0
 62
7
  6
CONTINUOUS
 10
236.4712790494
 20
210.729657709
  0
VERTEX
  8
0
 62
7
  6
CONTINUOUS
 10
236.4583814883
 20
210.6855043226
  0
VERTEX
  8
0
 62
7
  6
CONTINUOUS
 10
236.4494888919
 20
210.6403876724
  0
VERTEX
  8
0
 62
7
  6
CONTINUOUS
 10
236.4446757901
 20
210.5946954263
  0
VERTEX
  8
0
 62
7
  6
CONTINUOUS
 10
236.4437500816
 20
210.5639065916
  0
SEQEND
  0
LINE
  8
0
 62
7
  6
CONTINUOUS
 10
236.8813741026
 20
211.0919735143
 11
236.7930637471
 21
211.0569750413
  0
LINE
  8
DEFAULT_1
 62
2
  6
CENTER
 10
16.2913524723
 20
202.1421424104
 11
367.0747139588
 21
202.1421424104
  0
LINE
  8
0
 62
7
  6
CONTINUOUS
 10
165.2944362526
 20
211.0569750414
 11
165.2061258975
 21
211.0919735142
  0
POLYLINE
  8
0
 62
7
  6
CONTINUOUS
 66
1
 70
0
  0
VERTEX
  8
0
 62
7
  6
CONTINUOUS
 10
165.2061154368
 20
211.0919776434
  0
VERTEX
  8
0
 62
7
  6
CONTINUOUS
 10
165.1951344675
 20
211.0964546228
  0
VERTEX
  8
0
 62
7
  6
CONTINUOUS
 10
165.1853315078
 20
211.1007846474
  0
VERTEX
  8
0
 62
7
  6
CONTINUOUS
 10
165.1800534828
 20
211.1033412485
  0
VERTEX
  8
0
 62
7
  6
CONTINUOUS
 10
165.1790269739
 20
211.1038789419
  0
SEQEND
  0
LINE
  8
0
 62
7
  6
CONTINUOUS
 10
207.54375
 20
197.3421424104
 11
207.54375
 21
206.9421424104
  0
LINE
  8
0
 62
7
  6
CONTINUOUS
 10
211.04375
 20
209.6421424104
 11
211.04375
 21
210.5639093773
  0
LINE
  8
0
 62
7
  6
CONTINUOUS
 10
211.34375
 20
211.0348414216
 11
211.34375
 21
212.0554663576
  0
POLYLINE
  8
0
 62
7
  6
CONTINUOUS
 66
1
 70
0
  0
VERTEX
  8
0
 62
7
  6
CONTINUOUS
 10
110.2518642594
 20
212.6203003577
  0
VERTEX
  8
0
 62
7
  6
CONTINUOUS
 10
110.2398502789
 20
212.6192930091
  0
VERTEX
  8
0
 62
7
  6
CONTINUOUS
 10
110.2281056538
 20
212.6181965357
  0
SEQEND
  0
POLYLINE
  8
0
 62
7
  6
CONTINUOUS
 66
1
 70
0
  0
VERTEX
  8
0
 62
7
  6
CONTINUOUS
 10
110.3214421416
 20
212.6246054068
  0
VERTEX
  8
0
 62
7
  6
CONTINUOUS
 10
110.3058150617
 20
212.62380779
  0
VERTEX
  8
0
 62
7
  6
CONTINUOUS
 10
110.2911628312
 20
212.622985335
  0
VERTEX
  8
0
 62
7
  6
CONTINUOUS
 10
110.2773723458
 20
212.6221325086
  0
VERTEX
  8
0
 62
7
  6
CONTINUOUS
 10
110.2643194934
 20
212.6212413733
  0
VERTEX
  8
0
 62
7
  6
CONTINUOUS
 10
110.2518642594
 20
212.6203003577
  0
SEQEND
  0
LINE
  8
0
 62
7
  6
CONTINUOUS
 10
110.3560202781
 20
212.6261394261
 11
110.3214421416
 21
212.6246054068
  0
LINE
  8
0
 62
7
  6
CONTINUOUS
 10
110.3955991141
 20
212.6276023393
 11
110.3560202781
 21
212.6261394261
  0
LINE
  8
0
 62
7
  6
CONTINUOUS
 10
110.4408217216
 20
212.6289993665
 11
110.3955991141
 21
212.6276023393
  0
LINE
  8
0
 62
7
  6
CONTINUOUS
 10
110.4923023165
 20
212.6303305694
 11
110.4408217216
 21
212.6289993665
  0
LINE
  8
0
 62
7
  6
CONTINUOUS
 10
110.5824494957
 20
212.6321952625
 11
110.4923023165
 21
212.6303305694
  0
LINE
  8
0
 62
7
  6
CONTINUOUS
 10
110.7294176405
 20
212.6344080665
 11
110.5824494957
 21
212.6321952625
  0
LINE
  8
0
 62
7
  6
CONTINUOUS
 10
110.9617976878
 20
212.6366869173
 11
110.7294176405
 21
212.6344080665
  0
LINE
  8
0
 62
7
  6
CONTINUOUS
 10
111.4731824286
 20
212.6391559605
 11
110.9617976878
 21
212.6366869173
  0
LINE
  8
0
 62
7
  6
CONTINUOUS
 10
247.7920444739
 20
212.6415362947
 11
247.4353421769
 21
212.6410085163
  0
LINE
  8
0
 62
7
  6
CONTINUOUS
 10
222.3920444739
 20
212.6415362947
 11
222.0353421769
 21
212.6410085163
  0
LINE
  8
0
 62
7
  6
CONTINUOUS
 10
247.4353421769
 20
212.6410085163
 11
246.6984213883
 21
212.6402160696
  0
LINE
  8
0
 62
7
  6
CONTINUOUS
 10
222.0353421769
 20
212.6410085163
 11
221.2984213883
 21
212.6402160696
  0
LINE
  8
0
 62
7
  6
CONTINUOUS
 10
248.4369161203
 20
212.6421424364
 11
247.7920444739
 21
212.6415362947
  0
LINE
  8
0
 62
7
  6
CONTINUOUS
 10
223.0369161203
 20
212.6421424364
 11
222.3920444739
 21
212.6415362947
  0
LINE
  8
0
 62
7
  6
CONTINUOUS
 10
197.6369161203
 20
212.6421424364
 11
196.084370083
 21
212.6403514769
  0
LINE
  8
0
 62
7
  6
CONTINUOUS
 10
172.2369161202
 20
212.6421424364
 11
170.684370083
 21
212.6403514769
  0
LINE
  8
0
 62
7
  6
CONTINUOUS
 10
112.2437872295
 20
212.6401109693
 11
111.4731824286
 21
212.6391559605
  0
LINE
  8
0
 62
7
  6
CONTINUOUS
 10
146.8369161202
 20
212.6421424364
 11
145.284370083
 21
212.6403514769
  0
LINE
  8
0
 62
7
  6
CONTINUOUS
 10
121.4369161203
 20
212.6421424364
 11
119.884370083
 21
212.6403514769
  0
LINE
  8
0
 62
7
  6
CONTINUOUS
 10
25.69375
 20
209.6421424104
 11
350.99375
 21
209.6421424104
  0
LINE
  8
0
 62
7
  6
CONTINUOUS
 10
112.2437872295
 20
212.6401109689
 11
119.884370083
 21
212.6403514769
  0
LINE
  8
0
 62
7
  6
CONTINUOUS
 10
253.5470376889
 20
212.6421424104
 11
248.4359711812
 21
212.6421424104
  0
LINE
  8
0
 62
7
  6
CONTINUOUS
 10
145.284370083
 20
212.6403514769
 11
130.172011831
 21
212.6401351503
  0
LINE
  8
0
 62
7
  6
CONTINUOUS
 10
170.684370083
 20
212.6403514769
 11
155.572011831
 21
212.6401351503
  0
LINE
  8
0
 62
7
  6
CONTINUOUS
 10
196.084370083
 20
212.6403514769
 11
180.972011831
 21
212.6401351503
  0
LINE
  8
0
 62
7
  6
CONTINUOUS
 10
221.2984213883
 20
212.6402160696
 11
206.372011831
 21
212.6401351503
  0
LINE
  8
0
 62
7
  6
CONTINUOUS
 10
246.6984213883
 20
212.6402160696
 11
231.772011831
 21
212.6401351503
  0
LINE
  8
0
 62
7
  6
CONTINUOUS
 10
130.3437500883
 20
212.6401031255
 11
129.6144312996
 21
212.640538222
  0
LINE
  8
0
 62
7
  6
CONTINUOUS
 10
121.4359711812
 20
212.6421424104
 11
128.5964896071
 21
212.6419267214
  0
LINE
  8
0
 62
7
  6
CONTINUOUS
 10
155.7437500883
 20
212.6401031255
 11
155.0144312996
 21
212.640538222
  0
LINE
  8
0
 62
7
  6
CONTINUOUS
 10
146.8359711812
 20
212.6421424104
 11
153.9964896071
 21
212.6419267214
  0
LINE
  8
0
 62
7
  6
CONTINUOUS
 10
181.1437500883
 20
212.6401031255
 11
180.4144312996
 21
212.640538222
  0
LINE
  8
0
 62
7
  6
CONTINUOUS
 10
172.2359711812
 20
212.6421424104
 11
179.3964896072
 21
212.6419267214
  0
LINE
  8
0
 62
7
  6
CONTINUOUS
 10
197.6359711812
 20
212.6421424104
 11
204.7964896071
 21
212.6419267214
  0
LINE
  8
0
 62
7
  6
CONTINUOUS
 10
223.0359711812
 20
212.6421424104
 11
230.1964896071
 21
212.6419267214
  0
LINE
  8
0
 62
7
  6
CONTINUOUS
 10
205.6102631334
 20
212.6407839577
 11
206.394830672
 21
212.6401216718
  0
LINE
  8
0
 62
7
  6
CONTINUOUS
 10
231.0102631333
 20
212.6407839577
 11
231.794830672
 21
212.6401216718
  0
LINE
  8
0
 62
7
  6
CONTINUOUS
 10
129.7883763022
 20
212.640356522
 11
128.5505218574
 21
212.6419759225
  0
LINE
  8
0
 62
7
  6
CONTINUOUS
 10
128.8163245061
 20
212.6416472465
 11
128.9305742245
 21
212.6414822839
  0
LINE
  8
0
 62
7
  6
CONTINUOUS
 10
155.0608861533
 20
212.6404812701
 11
153.9505218574
 21
212.6419759225
  0
LINE
  8
0
 62
7
  6
CONTINUOUS
 10
180.4608861533
 20
212.6404812701
 11
179.3505218574
 21
212.6419759225
  0
LINE
  8
0
 62
7
  6
CONTINUOUS
 10
205.6315136195
 20
212.6407617337
 11
204.7505218574
 21
212.6419759225
  0
LINE
  8
0
 62
7
  6
CONTINUOUS
 10
230.1505218574
 20
212.6419759225
 11
230.5305742244
 21
212.6414822839
  0
LINE
  8
0
 62
7
  6
CONTINUOUS
 10
231.0315136196
 20
212.6407617337
 11
230.4945685781
 21
212.6415369665
  0
LINE
  8
0
 62
7
  6
CONTINUOUS
 10
253.6363043991
 20
212.6419679146
 11
253.5478998286
 21
212.6421424097
  0
LINE
  8
0
 62
7
  6
CONTINUOUS
 10
253.6750259367
 20
212.6417105093
 11
253.6363043991
 21
212.6419679146
  0
LINE
  8
0
 62
7
  6
CONTINUOUS
 10
253.6991314176
 20
212.641440289
 11
253.6750259367
 21
212.6417105093
  0
LINE
  8
0
 62
7
  6
CONTINUOUS
 10
253.713251969
 20
212.6412185279
 11
253.6991314176
 21
212.641440289
  0
LINE
  8
0
 62
7
  6
CONTINUOUS
 10
253.7260685332
 20
212.6409567075
 11
253.713251969
 21
212.6412185279
  0
LINE
  8
0
 62
7
  6
CONTINUOUS
 10
190.6944362526
 20
211.0569750414
 11
190.6061258975
 21
211.0919735142
  0
POLYLINE
  8
0
 62
7
  6
CONTINUOUS
 66
1
 70
0
  0
VERTEX
  8
0
 62
7
  6
CONTINUOUS
 10
190.6061154368
 20
211.0919776434
  0
VERTEX
  8
0
 62
7
  6
CONTINUOUS
 10
190.5951344675
 20
211.0964546228
  0
VERTEX
  8
0
 62
7
  6
CONTINUOUS
 10
190.5853315078
 20
211.1007846474
  0
VERTEX
  8
0
 62
7
  6
CONTINUOUS
 10
190.5800534828
 20
211.1033412485
  0
VERTEX
  8
0
 62
7
  6
CONTINUOUS
 10
190.5790269739
 20
211.1038789419
  0
SEQEND
  0
POLYLINE
  8
0
 62
7
  6
CONTINUOUS
 66
1
 70
0
  0
VERTEX
  8
0
 62
7
  6
CONTINUOUS
 10
216.443749928
 20
210.5639066462
  0
VERTEX
  8
0
 62
7
  6
CONTINUOUS
 10
216.4427466744
 20
210.5959577899
  0
VERTEX
  8
0
 62
7
  6
CONTINUOUS
 10
216.4378178145
 20
210.6416578008
  0
VERTEX
  8
0
 62
7
  6
CONTINUOUS
 10
216.4288070559
 20
210.6867732002
  0
VERTEX
  8
0
 62
7
  6
CONTINUOUS
 10
216.4157902993
 20
210.730913981
  0
VERTEX
  8
0
 62
7
  6
CONTINUOUS
 10
216.3988922246
 20
210.7736926634
  0
VERTEX
  8
0
 62
7
  6
CONTINUOUS
 10
216.3782871319
 20
210.8147361423
  0
VERTEX
  8
0
 62
7
  6
CONTINUOUS
 10
216.3541911909
 20
210.8537056432
  0
VERTEX
  8
0
 62
7
  6
CONTINUOUS
 10
216.3268556669
 20
210.890302818
  0
VERTEX
  8
0
 62
7
  6
CONTINUOUS
 10
216.2965693088
 20
210.9242654546
  0
VERTEX
  8
0
 62
7
  6
CONTINUOUS
 10
216.2639984154
 20
210.9550786852
  0
VERTEX
  8
0
 62
7
  6
CONTINUOUS
 10
216.2310862311
 20
210.9815437216
  0
VERTEX
  8
0
 62
7
  6
CONTINUOUS
 10
216.1992135442
 20
211.0035440522
  0
VERTEX
  8
0
 62
7
  6
CONTINUOUS
 10
216.1685770767
 20
211.0218663215
  0
VERTEX
  8
0
 62
7
  6
CONTINUOUS
 10
216.1390695785
 20
211.037262718
  0
VERTEX
  8
0
 62
7
  6
CONTINUOUS
 10
216.1104789429
 20
211.0503431765
  0
VERTEX
  8
0
 62
7
  6
CONTINUOUS
 10
216.0944268808
 20
211.0569787475
  0
SEQEND
  0
LINE
  8
0
 62
7
  6
CONTINUOUS
 10
216.14375
 20
212.0554663576
 11
216.14375
 21
211.0348205718
  0
LINE
  8
0
 62
7
  6
CONTINUOUS
 10
216.44375
 20
210.5639093773
 11
216.44375
 21
209.6421424104
  0
LINE
  8
0
 62
7
  6
CONTINUOUS
 10
219.94375
 20
206.9421424104
 11
219.94375
 21
197.3421424104
  0
POLYLINE
  8
0
 62
7
  6
CONTINUOUS
 66
1
 70
0
  0
VERTEX
  8
0
 62
7
  6
CONTINUOUS
 10
110.2281056538
 20
212.6181965357
  0
VERTEX
  8
0
 62
7
  6
CONTINUOUS
 10
110.2164366648
 20
212.6169790504
  0
VERTEX
  8
0
 62
7
  6
CONTINUOUS
 10
110.2046280118
 20
212.6155964114
  0
VERTEX
  8
0
 62
7
  6
CONTINUOUS
 10
110.1924229666
 20
212.6139852832
  0
VERTEX
  8
0
 62
7
  6
CONTINUOUS
 10
110.1795755119
 20
212.6120640659
  0
VERTEX
  8
0
 62
7
  6
CONTINUOUS
 10
110.1659472495
 20
212.6097461203
  0
VERTEX
  8
0
 62
7
  6
CONTINUOUS
 10
110.1514607942
 20
212.6069374324
  0
VERTEX
  8
0
 62
7
  6
CONTINUOUS
 10
110.1361130853
 20
212.6035448652
  0
VERTEX
  8
0
 62
7
  6
CONTINUOUS
 10
110.1195708645
 20
212.5993771898
  0
VERTEX
  8
0
 62
7
  6
CONTINUOUS
 10
110.101188572
 20
212.5940881402
  0
VERTEX
  8
0
 62
7
  6
CONTINUOUS
 10
110.0803020485
 20
212.5871905544
  0
VERTEX
  8
0
 62
7
  6
CONTINUOUS
 10
110.0568748428
 20
212.578261341
  0
VERTEX
  8
0
 62
7
  6
CONTINUOUS
 10
110.0313972056
 20
212.5670186668
  0
VERTEX
  8
0
 62
7
  6
CONTINUOUS
 10
110.0044957956
 20
212.5532697648
  0
VERTEX
  8
0
 62
7
  6
CONTINUOUS
 10
109.9765250666
 20
212.5367195957
  0
VERTEX
  8
0
 62
7
  6
CONTINUOUS
 10
109.9478209806
 20
212.5170445094
  0
VERTEX
  8
0
 62
7
  6
CONTINUOUS
 10
109.9187215892
 20
212.493879876
  0
VERTEX
  8
0
 62
7
  6
CONTINUOUS
 10
109.8895584592
 20
212.4667719488
  0
VERTEX
  8
0
 62
7
  6
CONTINUOUS
 10
109.8609000645
 20
212.4353827239
  0
VERTEX
  8
0
 62
7
  6
CONTINUOUS
 10
109.8338231107
 20
212.4000000068
  0
VERTEX
  8
0
 62
7
  6
CONTINUOUS
 10
109.8093877234
 20
212.3612936297
  0
VERTEX
  8
0
 62
7
  6
CONTINUOUS
 10
109.7883858746
 20
212.3200812698
  0
VERTEX
  8
0
 62
7
  6
CONTINUOUS
 10
109.7711992008
 20
212.2768937696
  0
VERTEX
  8
0
 62
7
  6
CONTINUOUS
 10
109.7580595368
 20
212.2321798251
  0
VERTEX
  8
0
 62
7
  6
CONTINUOUS
 10
109.749128849
 20
212.1864168325
  0
VERTEX
  8
0
 62
7
  6
CONTINUOUS
 10
109.7444960369
 20
212.1400977998
  0
VERTEX
  8
0
 62
7
  6
CONTINUOUS
 10
109.7437872794
 20
212.1134608688
  0
SEQEND
  0
LINE
  8
0
 62
7
  6
CONTINUOUS
 10
216.0944362526
 20
211.0569750414
 11
216.0061258975
 21
211.0919735142
  0
LINE
  8
0
 62
7
  6
CONTINUOUS
 10
241.4944362526
 20
211.0569750414
 11
241.4061258975
 21
211.0919735142
  0
POLYLINE
  8
0
 62
7
  6
CONTINUOUS
 66
1
 70
0
  0
VERTEX
  8
0
 62
7
  6
CONTINUOUS
 10
216.0061154368
 20
211.0919776434
  0
VERTEX
  8
0
 62
7
  6
CONTINUOUS
 10
215.9951344675
 20
211.0964546228
  0
VERTEX
  8
0
 62
7
  6
CONTINUOUS
 10
215.9853315078
 20
211.1007846474
  0
VERTEX
  8
0
 62
7
  6
CONTINUOUS
 10
215.9800534828
 20
211.1033412485
  0
VERTEX
  8
0
 62
7
  6
CONTINUOUS
 10
215.9790269739
 20
211.1038789419
  0
SEQEND
  0
POLYLINE
  8
0
 62
7
  6
CONTINUOUS
 66
1
 70
0
  0
VERTEX
  8
0
 62
7
  6
CONTINUOUS
 10
241.4061154368
 20
211.0919776434
  0
VERTEX
  8
0
 62
7
  6
CONTINUOUS
 10
241.3951344675
 20
211.0964546228
  0
VERTEX
  8
0
 62
7
  6
CONTINUOUS
 10
241.3853315078
 20
211.1007846474
  0
VERTEX
  8
0
 62
7
  6
CONTINUOUS
 10
241.3800534828
 20
211.1033412485
  0
VERTEX
  8
0
 62
7
  6
CONTINUOUS
 10
241.3790269739
 20
211.1038789419
  0
SEQEND
  0
LINE
  8
0
 62
7
  6
CONTINUOUS
 10
232.94375
 20
197.3421424104
 11
232.94375
 21
206.9421424104
  0
POLYLINE
  8
0
 62
7
  6
CONTINUOUS
 66
1
 70
0
  0
VERTEX
  8
0
 62
7
  6
CONTINUOUS
 10
241.843749928
 20
210.5639066462
  0
VERTEX
  8
0
 62
7
  6
CONTINUOUS
 10
241.8427466744
 20
210.5959577899
  0
VERTEX
  8
0
 62
7
  6
CONTINUOUS
 10
241.8378178145
 20
210.6416578008
  0
VERTEX
  8
0
 62
7
  6
CONTINUOUS
 10
241.8288070559
 20
210.6867732002
  0
VERTEX
  8
0
 62
7
  6
CONTINUOUS
 10
241.8157902993
 20
210.730913981
  0
VERTEX
  8
0
 62
7
  6
CONTINUOUS
 10
241.7988922246
 20
210.7736926634
  0
VERTEX
  8
0
 62
7
  6
CONTINUOUS
 10
241.7782871319
 20
210.8147361423
  0
VERTEX
  8
0
 62
7
  6
CONTINUOUS
 10
241.7541911909
 20
210.8537056432
  0
VERTEX
  8
0
 62
7
  6
CONTINUOUS
 10
241.7268556669
 20
210.890302818
  0
VERTEX
  8
0
 62
7
  6
CONTINUOUS
 10
241.6965693088
 20
210.9242654546
  0
VERTEX
  8
0
 62
7
  6
CONTINUOUS
 10
241.6639984154
 20
210.9550786852
  0
VERTEX
  8
0
 62
7
  6
CONTINUOUS
 10
241.6310862311
 20
210.9815437216
  0
VERTEX
  8
0
 62
7
  6
CONTINUOUS
 10
241.5992135442
 20
211.0035440522
  0
VERTEX
  8
0
 62
7
  6
CONTINUOUS
 10
241.5685770767
 20
211.0218663215
  0
VERTEX
  8
0
 62
7
  6
CONTINUOUS
 10
241.5390695785
 20
211.037262718
  0
VERTEX
  8
0
 62
7
  6
CONTINUOUS
 10
241.5104789429
 20
211.0503431765
  0
VERTEX
  8
0
 62
7
  6
CONTINUOUS
 10
241.4944268808
 20
211.0569787475
  0
SEQEND
  0
LINE
  8
0
 62
7
  6
CONTINUOUS
 10
236.44375
 20
209.6421424104
 11
236.44375
 21
210.5639093773
  0
LINE
  8
0
 62
7
  6
CONTINUOUS
 10
236.74375
 20
211.0348414216
 11
236.74375
 21
212.0554663576
  0
LINE
  8
0
 62
7
  6
CONTINUOUS
 10
241.54375
 20
212.0554663576
 11
241.54375
 21
211.0348205718
  0
LINE
  8
0
 62
7
  6
CONTINUOUS
 10
241.84375
 20
210.5639093773
 11
241.84375
 21
209.6421424104
  0
POLYLINE
  8
0
 62
7
  6
CONTINUOUS
 66
1
 70
0
  0
VERTEX
  8
0
 62
7
  6
CONTINUOUS
 10
254.5437499185
 20
210.5439975571
  0
VERTEX
  8
0
 62
7
  6
CONTINUOUS
 10
254.5428264
 20
210.5747547838
  0
VERTEX
  8
0
 62
7
  6
CONTINUOUS
 10
254.5380366121
 20
210.6203214482
  0
VERTEX
  8
0
 62
7
  6
CONTINUOUS
 10
254.5291912473
 20
210.6653163338
  0
VERTEX
  8
0
 62
7
  6
CONTINUOUS
 10
254.5163637909
 20
210.7093567208
  0
VERTEX
  8
0
 62
7
  6
CONTINUOUS
 10
254.499674624
 20
210.752061921
  0
VERTEX
  8
0
 62
7
  6
CONTINUOUS
 10
254.4792921807
 20
210.7930643183
  0
VERTEX
  8
0
 62
7
  6
CONTINUOUS
 10
254.4554272235
 20
210.832026578
  0
VERTEX
  8
0
 62
7
  6
CONTINUOUS
 10
254.4283328956
 20
210.8686416407
  0
VERTEX
  8
0
 62
7
  6
CONTINUOUS
 10
254.3983049391
 20
210.90263801
  0
VERTEX
  8
0
 62
7
  6
CONTINUOUS
 10
254.3659596443
 20
210.9335440273
  0
VERTEX
  8
0
 62
7
  6
CONTINUOUS
 10
254.3331493739
 20
210.9601985298
  0
VERTEX
  8
0
 62
7
  6
CONTINUOUS
 10
254.3012436658
 20
210.9824471565
  0
VERTEX
  8
0
 62
7
  6
CONTINUOUS
 10
254.2705031339
 20
211.0010146197
  0
VERTEX
  8
0
 62
7
  6
CONTINUOUS
 10
254.24375
 20
211.0151089314
  0
SEQEND
  0
POLYLINE
  8
0
 62
7
  6
CONTINUOUS
 66
1
 70
0
  0
VERTEX
  8
0
 62
7
  6
CONTINUOUS
 10
254.2437499501
 20
212.1392683717
  0
VERTEX
  8
0
 62
7
  6
CONTINUOUS
 10
254.2429162213
 20
212.1681333288
  0
VERTEX
  8
0
 62
7
  6
CONTINUOUS
 10
254.238541965
 20
212.2112530868
  0
VERTEX
  8
0
 62
7
  6
CONTINUOUS
 10
254.2308752575
 20
212.2520125851
  0
VERTEX
  8
0
 62
7
  6
CONTINUOUS
 10
254.220382887
 20
212.2903487903
  0
VERTEX
  8
0
 62
7
  6
CONTINUOUS
 10
254.2074763833
 20
212.3262562583
  0
VERTEX
  8
0
 62
7
  6
CONTINUOUS
 10
254.1925119313
 20
212.3597729203
  0
VERTEX
  8
0
 62
7
  6
CONTINUOUS
 10
254.175792291
 20
212.3909672896
  0
VERTEX
  8
0
 62
7
  6
CONTINUOUS
 10
254.1575942733
 20
212.4198920058
  0
VERTEX
  8
0
 62
7
  6
CONTINUOUS
 10
254.138200197
 20
212.4465630737
  0
VERTEX
  8
0
 62
7
  6
CONTINUOUS
 10
254.1178745158
 20
212.4710161727
  0
VERTEX
  8
0
 62
7
  6
CONTINUOUS
 10
254.0968602753
 20
212.4933081461
  0
VERTEX
  8
0
 62
7
  6
CONTINUOUS
 10
254.0753690756
 20
212.5135218142
  0
VERTEX
  8
0
 62
7
  6
CONTINUOUS
 10
254.0535706446
 20
212.5317660912
  0
VERTEX
  8
0
 62
7
  6
CONTINUOUS
 10
254.0316070176
 20
212.5481556247
  0
VERTEX
  8
0
 62
7
  6
CONTINUOUS
 10
254.0095998896
 20
212.5628038342
  0
VERTEX
  8
0
 62
7
  6
CONTINUOUS
 10
253.9876977251
 20
212.5757966855
  0
VERTEX
  8
0
 62
7
  6
CONTINUOUS
 10
253.9660675219
 20
212.5872109927
  0
VERTEX
  8
0
 62
7
  6
CONTINUOUS
 10
253.9448636443
 20
212.5971358657
  0
VERTEX
  8
0
 62
7
  6
CONTINUOUS
 10
253.9242328153
 20
212.6056681465
  0
VERTEX
  8
0
 62
7
  6
CONTINUOUS
 10
253.9043250419
 20
212.6129076026
  0
VERTEX
  8
0
 62
7
  6
CONTINUOUS
 10
253.885288572
 20
212.6189596459
  0
VERTEX
  8
0
 62
7
  6
CONTINUOUS
 10
253.8673233272
 20
212.6239211334
  0
VERTEX
  8
0
 62
7
  6
CONTINUOUS
 10
253.850833407
 20
212.6278553832
  0
VERTEX
  8
0
 62
7
  6
CONTINUOUS
 10
253.8361692741
 20
212.6308697465
  0
VERTEX
  8
0
 62
7
  6
CONTINUOUS
 10
253.823268054
 20
212.6331541562
  0
VERTEX
  8
0
 62
7
  6
CONTINUOUS
 10
253.8115591862
 20
212.6349367322
  0
VERTEX
  8
0
 62
7
  6
CONTINUOUS
 10
253.8006848993
 20
212.6363509175
  0
VERTEX
  8
0
 62
7
  6
CONTINUOUS
 10
253.7908541013
 20
212.6374356636
  0
VERTEX
  8
0
 62
7
  6
CONTINUOUS
 10
253.7821991269
 20
212.6382446202
  0
VERTEX
  8
0
 62
7
  6
CONTINUOUS
 10
253.7745517664
 20
212.6388517326
  0
VERTEX
  8
0
 62
7
  6
CONTINUOUS
 10
253.7676488235
 20
212.6393190725
  0
VERTEX
  8
0
 62
7
  6
CONTINUOUS
 10
253.761264518
 20
212.6396891576
  0
VERTEX
  8
0
 62
7
  6
CONTINUOUS
 10
253.7552224838
 20
212.6399902648
  0
VERTEX
  8
0
 62
7
  6
CONTINUOUS
 10
253.7493938969
 20
212.6402410642
  0
VERTEX
  8
0
 62
7
  6
CONTINUOUS
 10
253.7436684901
 20
212.6404547372
  0
VERTEX
  8
0
 62
7
  6
CONTINUOUS
 10
253.7379318828
 20
212.6406411724
  0
VERTEX
  8
0
 62
7
  6
CONTINUOUS
 10
253.7260685332
 20
212.6409567075
  0
SEQEND
  0
LINE
  8
0
 62
7
  6
CONTINUOUS
 10
245.34375
 20
206.9421424104
 11
245.34375
 21
197.3421424104
  0
LINE
  8
0
 62
7
  6
CONTINUOUS
 10
254.24375
 20
209.6421424104
 11
254.24375
 21
212.1392685216
  0
LINE
  8
0
 62
7
  6
CONTINUOUS
 10
254.54375
 20
210.5440003537
 11
254.54375
 21
209.6421424104
  0
LINE
  8
0
 62
7
  6
CONTINUOUS
 10
258.34375
 20
197.3421424104
 11
258.34375
 21
206.9421424104
  0
LINE
  8
0
 62
7
  6
CONTINUOUS
 10
270.7414623505
 20
206.9421424104
 11
270.7414623505
 21
197.3421424104
  0
LINE
  8
0
 62
7
  6
CONTINUOUS
 10
283.7414623505
 20
197.3421424104
 11
283.7414623505
 21
206.9421424104
  0
LINE
  8
0
 62
7
  6
CONTINUOUS
 10
296.1414623505
 20
206.9421424104
 11
296.1414623505
 21
197.3421424104
  0
LINE
  8
0
 62
7
  6
CONTINUOUS
 10
341.3296601173
 20
193.8280525276
 11
341.89375
 21
194.3921424104
  0
LINE
  8
0
 62
7
  6
CONTINUOUS
 10
311.5414623505
 20
197.3421424104
 11
311.5414623505
 21
206.9421424104
  0
LINE
  8
0
 62
7
  6
CONTINUOUS
 10
323.9414623505
 20
197.3421424104
 11
323.9414623505
 21
206.9421424104
  0
LINE
  8
0
 62
7
  6
CONTINUOUS
 10
330.29375
 20
181.6421424104
 11
330.29375
 21
185.3823510344
  0
LINE
  8
0
 62
7
  6
CONTINUOUS
 10
341.59375
 20
194.0921424104
 11
341.59375
 21
209.3421424104
  0
LINE
  8
0
 62
7
  6
CONTINUOUS
 10
351.29375
 20
194.9421424104
 11
351.29375
 21
209.3421424104
  0
LINE
  8
0
 62
7
  6
CONTINUOUS
 10
341.3296595556
 20
193.828051966
 11
341.3230504353
 21
185.8420650311
  0
POLYLINE
  8
0
 62
7
  6
CONTINUOUS
 66
1
 70
0
  0
VERTEX
  8
0
 62
7
  6
CONTINUOUS
 10
341.3230503866
 20
185.8420650128
  0
VERTEX
  8
0
 62
7
  6
CONTINUOUS
 10
341.3228562573
 20
185.8336157147
  0
VERTEX
  8
0
 62
7
  6
CONTINUOUS
 10
341.3205948494
 20
185.8111874591
  0
VERTEX
  8
0
 62
7
  6
CONTINUOUS
 10
341.3158357621
 20
185.7891161678
  0
VERTEX
  8
0
 62
7
  6
CONTINUOUS
 10
341.3085690364
 20
185.767637087
  0
VERTEX
  8
0
 62
7
  6
CONTINUOUS
 10
341.2988281354
 20
185.7470460442
  0
VERTEX
  8
0
 62
7
  6
CONTINUOUS
 10
341.2868249005
 20
185.727650613
  0
VERTEX
  8
0
 62
7
  6
CONTINUOUS
 10
341.2727266259
 20
185.7097164907
  0
VERTEX
  8
0
 62
7
  6
CONTINUOUS
 10
341.2566438017
 20
185.6935275157
  0
VERTEX
  8
0
 62
7
  6
CONTINUOUS
 10
341.2388119145
 20
185.6793234729
  0
VERTEX
  8
0
 62
7
  6
CONTINUOUS
 10
341.2195112402
 20
185.6672071143
  0
VERTEX
  8
0
 62
7
  6
CONTINUOUS
 10
341.1990019214
 20
185.6573376989
  0
VERTEX
  8
0
 62
7
  6
CONTINUOUS
 10
341.177581747
 20
185.6499277377
  0
VERTEX
  8
0
 62
7
  6
CONTINUOUS
 10
341.1555351629
 20
185.6450196545
  0
VERTEX
  8
0
 62
7
  6
CONTINUOUS
 10
341.1330907706
 20
185.6426074716
  0
VERTEX
  8
0
 62
7
  6
CONTINUOUS
 10
341.1230502115
 20
185.6423510344
  0
SEQEND
  0
LINE
  8
0
 62
7
  6
CONTINUOUS
 10
346.4384797975
 20
194.5553390744
 11
345.7078196732
 21
182.5209370286
  0
LINE
  8
0
 62
7
  6
CONTINUOUS
 10
345.70430756
 20
182.4727285937
 11
345.7078196732
 21
182.5209370286
  0
POLYLINE
  8
0
 62
7
  6
CONTINUOUS
 66
1
 70
0
  0
VERTEX
  8
0
 62
7
  6
CONTINUOUS
 10
345.5921384741
 20
181.9617284316
  0
VERTEX
  8
0
 62
7
  6
CONTINUOUS
 10
345.5962595561
 20
181.9732435563
  0
VERTEX
  8
0
 62
7
  6
CONTINUOUS
 10
345.6153799338
 20
182.0298525867
  0
VERTEX
  8
0
 62
7
  6
CONTINUOUS
 10
345.632445002
 20
182.0857518175
  0
VERTEX
  8
0
 62
7
  6
CONTINUOUS
 10
345.6475419871
 20
182.1408243547
  0
VERTEX
  8
0
 62
7
  6
CONTINUOUS
 10
345.6607631574
 20
182.1949666648
  0
VERTEX
  8
0
 62
7
  6
CONTINUOUS
 10
345.6721901821
 20
182.2480188937
  0
VERTEX
  8
0
 62
7
  6
CONTINUOUS
 10
345.6819077478
 20
182.2997953811
  0
VERTEX
  8
0
 62
7
  6
CONTINUOUS
 10
345.6900130795
 20
182.3501254098
  0
VERTEX
  8
0
 62
7
  6
CONTINUOUS
 10
345.6966161877
 20
182.3988730384
  0
VERTEX
  8
0
 62
7
  6
CONTINUOUS
 10
345.7018286696
 20
182.4458690576
  0
VERTEX
  8
0
 62
7
  6
CONTINUOUS
 10
345.704302665
 20
182.4727401194
  0
SEQEND
  0
ARC
  8
0
 62
7
  6
CONTINUOUS
 10
29.39375
 20
69.1325435616
 40
4.0
 50
180.0
 51
265.7911480681
  0
ARC
  8
0
 62
7
  6
CONTINUOUS
 10
83.2460376495
 20
68.9958554547
 40
2.7
 50
180.0
 51
270.0
  0
ARC
  8
0
 62
7
  6
CONTINUOUS
 10
90.2460376495
 20
68.9958554547
 40
2.7
 50
270.0
 51
360.0
  0
ARC
  8
0
 62
7
  6
CONTINUOUS
 10
62.4460376495
 20
68.9958554547
 40
2.7
 50
270.0
 51
360.0
  0
ARC
  8
0
 62
7
  6
CONTINUOUS
 10
55.4460376495
 20
68.9958554547
 40
2.7
 50
180.0
 51
270.0
  0
ARC
  8
0
 62
7
  6
CONTINUOUS
 10
54.4460376495
 20
80.8278461348
 40
1.0
 50
338.61
 51
360.0
  0
ARC
  8
0
 62
7
  6
CONTINUOUS
 10
91.2460376495
 20
80.8278461348
 40
1.0
 50
180.0
 51
201.39
  0
ARC
  8
0
 62
7
  6
CONTINUOUS
 10
63.4460376495
 20
80.8278461348
 40
1.0
 50
180.0
 51
201.39
  0
ARC
  8
0
 62
7
  6
CONTINUOUS
 10
82.2460376495
 20
80.8278461348
 40
1.0
 50
338.61
 51
360.0
  0
ARC
  8
0
 62
7
  6
CONTINUOUS
 10
53.0460376495
 20
73.6891969804
 40
0.3
 50
158.61
 51
180.0
  0
ARC
  8
0
 62
7
  6
CONTINUOUS
 10
92.6460376495
 20
73.6891969804
 40
0.3
 50
0.0
 51
21.39
  0
ARC
  8
0
 62
7
  6
CONTINUOUS
 10
64.8460376495
 20
73.6891969804
 40
0.3
 50
0.0
 51
21.39
  0
ARC
  8
0
 62
7
  6
CONTINUOUS
 10
106.2460376495
 20
73.6891969804
 40
0.3
 50
158.61
 51
180.0
  0
ARC
  8
0
 62
7
  6
CONTINUOUS
 10
80.8460376495
 20
73.6891969804
 40
0.3
 50
158.61
 51
180.0
  0
ARC
  8
0
 62
7
  6
CONTINUOUS
 10
34.79375
 20
81.2154706969
 40
0.3
 50
0.0
 51
30.0
  0
ARC
  8
0
 62
7
  6
CONTINUOUS
 10
38.39375
 20
89.6332864309
 40
6.0
 50
135.0
 51
180.0
  0
ARC
  8
0
 62
7
  6
CONTINUOUS
 10
40.377891899
 20
94.4458554547
 40
4.0
 50
90.0
 51
135.0
  0
ARC
  8
0
 62
7
  6
CONTINUOUS
 10
47.4641834
 20
94.4458554547
 40
4.0
 50
45.0
 51
90.0
  0
ARC
  8
0
 62
7
  6
CONTINUOUS
 10
51.4460376495
 20
90.4640012052
 40
4.0
 50
0.0
 51
45.0
  0
ARC
  8
0
 62
7
  6
CONTINUOUS
 10
94.2460376495
 20
91.1890012052
 40
4.0
 50
135.0
 51
180.0
  0
ARC
  8
0
 62
7
  6
CONTINUOUS
 10
96.602891899
 20
93.5458554547
 40
4.0
 50
90.0
 51
135.0
  0
ARC
  8
0
 62
7
  6
CONTINUOUS
 10
66.4460376495
 20
91.1890012052
 40
4.0
 50
135.0
 51
180.0
  0
ARC
  8
0
 62
7
  6
CONTINUOUS
 10
79.2460376495
 20
91.1890012052
 40
4.0
 50
0.0
 51
45.0
  0
ARC
  8
0
 62
7
  6
CONTINUOUS
 10
76.3891834
 20
94.0458554547
 40
4.0
 50
45.0
 51
90.0
  0
ARC
  8
0
 62
7
  6
CONTINUOUS
 10
69.302891899
 20
94.0458554547
 40
4.0
 50
90.0
 51
135.0
  0
ARC
  8
0
 62
7
  6
CONTINUOUS
 10
28.39375
 20
95.5953234512
 40
3.0
 50
113.9379806067
 51
180.0
  0
ARC
  8
0
 62
7
  6
CONTINUOUS
 10
106.6460376495
 20
95.5458554547
 40
2.0
 50
0.0
 51
90.0
  0
ARC
  8
0
 62
7
  6
CONTINUOUS
 10
33.39375
 20
86.2403418275
 40
1.0
 50
180.0
 51
210.0
  0
ARC
  8
0
 62
7
  6
CONTINUOUS
 10
115.64375
 20
68.9958554547
 40
2.7
 50
270.0
 51
360.0
  0
ARC
  8
0
 62
7
  6
CONTINUOUS
 10
134.04375
 20
68.9958554547
 40
2.7
 50
180.0
 51
270.0
  0
ARC
  8
0
 62
7
  6
CONTINUOUS
 10
108.6460376495
 20
68.9958554547
 40
2.7
 50
180.0
 51
270.0
  0
ARC
  8
0
 62
7
  6
CONTINUOUS
 10
141.04375
 20
68.9958554547
 40
2.7
 50
270.0
 51
360.0
  0
ARC
  8
0
 62
7
  6
CONTINUOUS
 10
131.64375
 20
73.6892007144
 40
0.3
 50
158.6113771722
 51
180.0
  0
ARC
  8
0
 62
7
  6
CONTINUOUS
 10
118.04375
 20
73.6892007144
 40
0.3
 50
0.0
 51
21.3886228278
  0
ARC
  8
0
 62
7
  6
CONTINUOUS
 10
143.44375
 20
73.6892007144
 40
0.3
 50
0.0
 51
21.3886228278
  0
ARC
  8
0
 62
7
  6
CONTINUOUS
 10
142.04375
 20
80.8283216102
 40
2.1
 50
180.0
 51
201.3886228278
  0
ARC
  8
0
 62
7
  6
CONTINUOUS
 10
133.04375
 20
80.8283216102
 40
2.1
 50
338.6113771722
 51
360.0
  0
ARC
  8
0
 62
7
  6
CONTINUOUS
 10
116.64375
 20
80.8283216102
 40
2.1
 50
180.0
 51
201.3886228278
  0
ARC
  8
0
 62
7
  6
CONTINUOUS
 10
107.64375
 20
80.8283216102
 40
2.1
 50
338.6113771722
 51
359.9998673402
  0
ARC
  8
0
 62
7
  6
CONTINUOUS
 10
139.24375
 20
77.9458554547
 40
1.0
 50
270.0
 51
360.0
  0
ARC
  8
0
 62
7
  6
CONTINUOUS
 10
135.84375
 20
77.9458554547
 40
1.0
 50
180.0
 51
270.0
  0
ARC
  8
0
 62
7
  6
CONTINUOUS
 10
113.84375
 20
77.9458554547
 40
1.0
 50
270.0
 51
360.0
  0
ARC
  8
0
 62
7
  6
CONTINUOUS
 10
110.44375
 20
77.9458554547
 40
1.0
 50
180.0
 51
270.0
  0
ARC
  8
0
 62
7
  6
CONTINUOUS
 10
133.04375
 20
80.8283216102
 40
1.0
 50
338.6113771722
 51
360.0
  0
ARC
  8
0
 62
7
  6
CONTINUOUS
 10
116.64375
 20
80.8283216102
 40
1.0
 50
180.0
 51
201.3886228278
  0
ARC
  8
0
 62
7
  6
CONTINUOUS
 10
110.44375
 20
79.4769318473
 40
1.0
 50
158.6113771722
 51
180.0
  0
ARC
  8
0
 62
7
  6
CONTINUOUS
 10
113.84375
 20
79.4769318473
 40
1.0
 50
0.0
 51
21.3886228278
  0
ARC
  8
0
 62
7
  6
CONTINUOUS
 10
135.84375
 20
79.4769318473
 40
1.0
 50
158.6113771722
 51
180.0
  0
ARC
  8
0
 62
7
  6
CONTINUOUS
 10
139.24375
 20
79.4769318473
 40
1.0
 50
0.0
 51
21.3886228278
  0
ARC
  8
0
 62
7
  6
CONTINUOUS
 10
107.6460376495
 20
80.8278461348
 40
1.0
 50
338.61
 51
360.0
  0
ARC
  8
0
 62
7
  6
CONTINUOUS
 10
142.04375
 20
80.8283216102
 40
1.0
 50
180.0
 51
201.3886228278
  0
ARC
  8
0
 62
7
  6
CONTINUOUS
 10
166.44375
 20
68.9958554547
 40
2.7
 50
270.0
 51
360.0
  0
ARC
  8
0
 62
7
  6
CONTINUOUS
 10
184.84375
 20
68.9958554547
 40
2.7
 50
180.0
 51
270.0
  0
ARC
  8
0
 62
7
  6
CONTINUOUS
 10
159.44375
 20
68.9958554547
 40
2.7
 50
180.0
 51
270.0
  0
ARC
  8
0
 62
7
  6
CONTINUOUS
 10
182.44375
 20
73.6892007144
 40
0.3
 50
158.6113771722
 51
180.0
  0
ARC
  8
0
 62
7
  6
CONTINUOUS
 10
168.84375
 20
73.6892007144
 40
0.3
 50
0.0
 51
21.3886228278
  0
ARC
  8
0
 62
7
  6
CONTINUOUS
 10
157.04375
 20
73.6892007144
 40
0.3
 50
158.6113771722
 51
180.0
  0
ARC
  8
0
 62
7
  6
CONTINUOUS
 10
183.84375
 20
80.8283216102
 40
2.1
 50
338.6113771722
 51
360.0
  0
ARC
  8
0
 62
7
  6
CONTINUOUS
 10
167.44375
 20
80.8283216102
 40
2.1
 50
180.0
 51
201.3886228278
  0
ARC
  8
0
 62
7
  6
CONTINUOUS
 10
158.44375
 20
80.8283216102
 40
2.1
 50
338.6113771722
 51
360.0
  0
ARC
  8
0
 62
7
  6
CONTINUOUS
 10
167.44375
 20
80.8283216102
 40
1.0
 50
180.0
 51
201.3886228278
  0
ARC
  8
0
 62
7
  6
CONTINUOUS
 10
183.84375
 20
80.8283216102
 40
1.0
 50
338.6113771722
 51
360.0
  0
ARC
  8
0
 62
7
  6
CONTINUOUS
 10
186.64375
 20
77.9458554547
 40
1.0
 50
180.0
 51
270.0
  0
ARC
  8
0
 62
7
  6
CONTINUOUS
 10
164.64375
 20
77.9458554547
 40
1.0
 50
270.0
 51
360.0
  0
ARC
  8
0
 62
7
  6
CONTINUOUS
 10
161.24375
 20
77.9458554547
 40
1.0
 50
180.0
 51
270.0
  0
ARC
  8
0
 62
7
  6
CONTINUOUS
 10
161.24375
 20
79.4769318473
 40
1.0
 50
158.6113771722
 51
180.0
  0
ARC
  8
0
 62
7
  6
CONTINUOUS
 10
164.64375
 20
79.4769318473
 40
1.0
 50
0.0
 51
21.3886228278
  0
ARC
  8
0
 62
7
  6
CONTINUOUS
 10
186.64375
 20
79.4769318473
 40
1.0
 50
158.6113771722
 51
180.0
  0
ARC
  8
0
 62
7
  6
CONTINUOUS
 10
158.44375
 20
80.8283216102
 40
1.0
 50
338.6113771722
 51
360.0
  0
ARC
  8
0
 62
7
  6
CONTINUOUS
 10
182.84375
 20
94.8958554547
 40
3.1
 50
0.0
 51
90.0
  0
ARC
  8
0
 62
7
  6
CONTINUOUS
 10
168.44375
 20
94.8958554547
 40
3.1
 50
90.0
 51
180.0
  0
ARC
  8
0
 62
7
  6
CONTINUOUS
 10
157.44375
 20
94.8958554547
 40
3.1
 50
0.0
 51
90.0
  0
ARC
  8
0
 62
7
  6
CONTINUOUS
 10
143.04375
 20
94.8958554547
 40
3.1
 50
90.0
 51
180.0
  0
ARC
  8
0
 62
7
  6
CONTINUOUS
 10
132.04375
 20
94.8958554547
 40
3.1
 50
0.0
 51
90.0
  0
ARC
  8
0
 62
7
  6
CONTINUOUS
 10
117.64375
 20
94.8958554547
 40
3.1
 50
90.0
 51
180.0
  0
ARC
  8
0
 62
7
  6
CONTINUOUS
 10
112.2437872295
 20
96.907755913
 40
2.5
 50
90.0
 51
179.9998673402
  0
ARC
  8
0
 62
7
  6
CONTINUOUS
 10
168.44375
 20
94.8958554547
 40
2.0
 50
90.0
 51
180.0
  0
ARC
  8
0
 62
7
  6
CONTINUOUS
 10
182.84375
 20
94.8958554547
 40
2.0
 50
0.0
 51
90.0
  0
ARC
  8
0
 62
7
  6
CONTINUOUS
 10
132.04375
 20
94.8958554547
 40
2.0
 50
0.0
 51
90.0
  0
ARC
  8
0
 62
7
  6
CONTINUOUS
 10
117.64375
 20
94.8958554547
 40
2.0
 50
90.0
 51
180.0
  0
ARC
  8
0
 62
7
  6
CONTINUOUS
 10
143.04375
 20
94.8958554547
 40
2.0
 50
90.0
 51
180.0
  0
ARC
  8
0
 62
7
  6
CONTINUOUS
 10
157.44375
 20
94.8958554547
 40
2.0
 50
0.0
 51
90.0
  0
ARC
  8
0
 62
7
  6
CONTINUOUS
 10
36.3960376495
 20
106.8065647927
 40
4.0
 50
293.9379806067
 51
360.0
  0
ARC
  8
0
 62
7
  6
CONTINUOUS
 10
65.3460376495
 20
108.8177097042
 40
4.0
 50
315.0
 51
360.0
  0
ARC
  8
0
 62
7
  6
CONTINUOUS
 10
54.827891899
 20
105.3858554547
 40
4.0
 50
225.0
 51
270.0
  0
ARC
  8
0
 62
7
  6
CONTINUOUS
 10
61.9141834
 20
105.3858554547
 40
4.0
 50
270.0
 51
315.0
  0
ARC
  8
0
 62
7
  6
CONTINUOUS
 10
51.3960376495
 20
108.8177097042
 40
4.0
 50
180.0
 51
225.0
  0
ARC
  8
0
 62
7
  6
CONTINUOUS
 10
91.9460376495
 20
108.0927097042
 40
4.0
 50
315.0
 51
360.0
  0
ARC
  8
0
 62
7
  6
CONTINUOUS
 10
80.3460376495
 20
108.0927097042
 40
4.0
 50
180.0
 51
225.0
  0
ARC
  8
0
 62
7
  6
CONTINUOUS
 10
82.602891899
 20
105.8358554547
 40
4.0
 50
225.0
 51
270.0
  0
ARC
  8
0
 62
7
  6
CONTINUOUS
 10
89.6891834
 20
105.8358554547
 40
4.0
 50
270.0
 51
315.0
  0
ARC
  8
0
 62
7
  6
CONTINUOUS
 10
104.9460376495
 20
104.3211954884
 40
2.0
 50
180.0
 51
270.0
  0
ARC
  8
0
 62
7
  6
CONTINUOUS
 10
76.3460376495
 20
130.3958554547
 40
2.7
 50
0.0
 51
90.0
  0
ARC
  8
0
 62
7
  6
CONTINUOUS
 10
69.3460376495
 20
130.3958554547
 40
2.7
 50
90.0
 51
180.0
  0
ARC
  8
0
 62
7
  6
CONTINUOUS
 10
47.3960376495
 20
130.3958554547
 40
2.7
 50
0.0
 51
90.0
  0
ARC
  8
0
 62
7
  6
CONTINUOUS
 10
40.3960376495
 20
130.3958554547
 40
2.7
 50
90.0
 51
180.0
  0
ARC
  8
0
 62
7
  6
CONTINUOUS
 10
95.9460376495
 20
130.3958554547
 40
2.7
 50
90.0
 51
180.0
  0
ARC
  8
0
 62
7
  6
CONTINUOUS
 10
102.9460376495
 20
130.3958554547
 40
2.7
 50
0.0
 51
90.0
  0
ARC
  8
0
 62
7
  6
CONTINUOUS
 10
103.9460376495
 20
118.5638647745
 40
1.0
 50
158.61
 51
180.0
  0
ARC
  8
0
 62
7
  6
CONTINUOUS
 10
39.3960376495
 20
118.5638647745
 40
1.0
 50
0.0
 51
21.39
  0
ARC
  8
0
 62
7
  6
CONTINUOUS
 10
68.3460376495
 20
118.5638647745
 40
1.0
 50
0.0
 51
21.39
  0
ARC
  8
0
 62
7
  6
CONTINUOUS
 10
48.3960376495
 20
118.5638647745
 40
1.0
 50
158.61
 51
180.0
  0
ARC
  8
0
 62
7
  6
CONTINUOUS
 10
94.9460376495
 20
118.5638647745
 40
1.0
 50
0.0
 51
21.39
  0
ARC
  8
0
 62
7
  6
CONTINUOUS
 10
77.3460376495
 20
118.5638647745
 40
1.0
 50
158.61
 51
180.0
  0
ARC
  8
0
 62
7
  6
CONTINUOUS
 10
105.3460376495
 20
125.702513929
 40
0.3
 50
338.61
 51
360.0
  0
ARC
  8
0
 62
7
  6
CONTINUOUS
 10
37.9960376495
 20
125.702513929
 40
0.3
 50
180.0
 51
201.39
  0
ARC
  8
0
 62
7
  6
CONTINUOUS
 10
66.9460376495
 20
125.702513929
 40
0.3
 50
180.0
 51
201.39
  0
ARC
  8
0
 62
7
  6
CONTINUOUS
 10
49.7960376495
 20
125.702513929
 40
0.3
 50
338.61
 51
360.0
  0
ARC
  8
0
 62
7
  6
CONTINUOUS
 10
93.5460376495
 20
125.702513929
 40
0.3
 50
180.0
 51
201.39
  0
ARC
  8
0
 62
7
  6
CONTINUOUS
 10
78.7460376495
 20
125.702513929
 40
0.3
 50
338.61
 51
360.0
  0
ARC
  8
0
 62
7
  6
CONTINUOUS
 10
144.74375
 20
104.3211954884
 40
2.0
 50
270.0
 51
360.0
  0
ARC
  8
0
 62
7
  6
CONTINUOUS
 10
155.74375
 20
104.3211954884
 40
2.0
 50
180.0
 51
270.0
  0
ARC
  8
0
 62
7
  6
CONTINUOUS
 10
130.34375
 20
104.3211954884
 40
2.0
 50
180.0
 51
270.0
  0
ARC
  8
0
 62
7
  6
CONTINUOUS
 10
170.14375
 20
104.3211954884
 40
2.0
 50
270.0
 51
360.0
  0
ARC
  8
0
 62
7
  6
CONTINUOUS
 10
181.14375
 20
104.3211954884
 40
2.0
 50
180.0
 51
270.0
  0
ARC
  8
0
 62
7
  6
CONTINUOUS
 10
119.34375
 20
104.3211954884
 40
2.0
 50
270.0
 51
360.0
  0
ARC
  8
0
 62
7
  6
CONTINUOUS
 10
120.34375
 20
118.5638647745
 40
2.1
 50
0.0
 51
21.39
  0
ARC
  8
0
 62
7
  6
CONTINUOUS
 10
129.34375
 20
118.5638647745
 40
2.1
 50
158.61
 51
180.0
  0
ARC
  8
0
 62
7
  6
CONTINUOUS
 10
145.74375
 20
118.5638647745
 40
2.1
 50
0.0
 51
21.39
  0
ARC
  8
0
 62
7
  6
CONTINUOUS
 10
148.54375
 20
121.4458554547
 40
1.0
 50
90.0
 51
180.0
  0
ARC
  8
0
 62
7
  6
CONTINUOUS
 10
126.54375
 20
121.4458554547
 40
1.0
 50
0.0
 51
90.0
  0
ARC
  8
0
 62
7
  6
CONTINUOUS
 10
123.14375
 20
121.4458554547
 40
1.0
 50
90.0
 51
180.0
  0
ARC
  8
0
 62
7
  6
CONTINUOUS
 10
148.54375
 20
119.9152389087
 40
1.0
 50
180.0
 51
201.39
  0
ARC
  8
0
 62
7
  6
CONTINUOUS
 10
126.54375
 20
119.9152389087
 40
1.0
 50
338.61
 51
360.0
  0
ARC
  8
0
 62
7
  6
CONTINUOUS
 10
123.14375
 20
119.9152389087
 40
1.0
 50
180.0
 51
201.39
  0
ARC
  8
0
 62
7
  6
CONTINUOUS
 10
120.34375
 20
118.5638647745
 40
1.0
 50
0.0
 51
21.39
  0
ARC
  8
0
 62
7
  6
CONTINUOUS
 10
129.34375
 20
118.5638647745
 40
1.0
 50
158.61
 51
180.0
  0
ARC
  8
0
 62
7
  6
CONTINUOUS
 10
145.74375
 20
118.5638647745
 40
1.0
 50
0.0
 51
21.39
  0
ARC
  8
0
 62
7
  6
CONTINUOUS
 10
128.34375
 20
130.3958554547
 40
2.7
 50
0.0
 51
90.0
  0
ARC
  8
0
 62
7
  6
CONTINUOUS
 10
121.34375
 20
130.3958554547
 40
2.7
 50
90.0
 51
180.0
  0
ARC
  8
0
 62
7
  6
CONTINUOUS
 10
146.74375
 20
130.3958554547
 40
2.7
 50
90.0
 51
180.0
  0
ARC
  8
0
 62
7
  6
CONTINUOUS
 10
130.74375
 20
125.702513929
 40
0.3
 50
338.61
 51
360.0
  0
ARC
  8
0
 62
7
  6
CONTINUOUS
 10
118.94375
 20
125.702513929
 40
0.3
 50
180.0
 51
201.39
  0
ARC
  8
0
 62
7
  6
CONTINUOUS
 10
144.34375
 20
125.702513929
 40
0.3
 50
180.0
 51
201.39
  0
ARC
  8
0
 62
7
  6
CONTINUOUS
 10
154.74375
 20
118.5638647745
 40
2.1
 50
158.61
 51
180.0
  0
ARC
  8
0
 62
7
  6
CONTINUOUS
 10
171.14375
 20
118.5638647745
 40
2.1
 50
0.0
 51
21.39
  0
ARC
  8
0
 62
7
  6
CONTINUOUS
 10
180.14375
 20
118.5638647745
 40
2.1
 50
158.61
 51
180.0
  0
ARC
  8
0
 62
7
  6
CONTINUOUS
 10
151.94375
 20
121.4458554547
 40
1.0
 50
0.0
 51
90.0
  0
ARC
  8
0
 62
7
  6
CONTINUOUS
 10
173.94375
 20
121.4458554547
 40
1.0
 50
90.0
 51
180.0
  0
ARC
  8
0
 62
7
  6
CONTINUOUS
 10
177.34375
 20
121.4458554547
 40
1.0
 50
0.0
 51
90.0
  0
ARC
  8
0
 62
7
  6
CONTINUOUS
 10
177.34375
 20
119.9152389087
 40
1.0
 50
338.61
 51
360.0
  0
ARC
  8
0
 62
7
  6
CONTINUOUS
 10
173.94375
 20
119.9152389087
 40
1.0
 50
180.0
 51
201.39
  0
ARC
  8
0
 62
7
  6
CONTINUOUS
 10
151.94375
 20
119.9152389087
 40
1.0
 50
338.61
 51
360.0
  0
ARC
  8
0
 62
7
  6
CONTINUOUS
 10
171.14375
 20
118.5638647745
 40
1.0
 50
0.0
 51
21.39
  0
ARC
  8
0
 62
7
  6
CONTINUOUS
 10
180.14375
 20
118.5638647745
 40
1.0
 50
158.61
 51
180.0
  0
ARC
  8
0
 62
7
  6
CONTINUOUS
 10
154.74375
 20
118.5638647745
 40
1.0
 50
158.61
 51
180.0
  0
ARC
  8
0
 62
7
  6
CONTINUOUS
 10
172.14375
 20
130.3958554547
 40
2.7
 50
90.0
 51
180.0
  0
ARC
  8
0
 62
7
  6
CONTINUOUS
 10
179.14375
 20
130.3958554547
 40
2.7
 50
0.0
 51
90.0
  0
ARC
  8
0
 62
7
  6
CONTINUOUS
 10
153.74375
 20
130.3958554547
 40
2.7
 50
0.0
 51
90.0
  0
ARC
  8
0
 62
7
  6
CONTINUOUS
 10
169.74375
 20
125.702513929
 40
0.3
 50
180.0
 51
201.39
  0
ARC
  8
0
 62
7
  6
CONTINUOUS
 10
181.54375
 20
125.702513929
 40
0.3
 50
338.61
 51
360.0
  0
ARC
  8
0
 62
7
  6
CONTINUOUS
 10
156.14375
 20
125.702513929
 40
0.3
 50
338.61
 51
360.0
  0
ARC
  8
0
 62
7
  6
CONTINUOUS
 10
191.84375
 20
68.9958554547
 40
2.7
 50
270.0
 51
360.0
  0
ARC
  8
0
 62
7
  6
CONTINUOUS
 10
210.24375
 20
68.9958554547
 40
2.7
 50
180.0
 51
270.0
  0
ARC
  8
0
 62
7
  6
CONTINUOUS
 10
217.24375
 20
68.9958554547
 40
2.7
 50
270.0
 51
360.0
  0
ARC
  8
0
 62
7
  6
CONTINUOUS
 10
194.24375
 20
73.6892007144
 40
0.3
 50
0.0
 51
21.3886228278
  0
ARC
  8
0
 62
7
  6
CONTINUOUS
 10
207.84375
 20
73.6892007144
 40
0.3
 50
158.6113771722
 51
180.0
  0
ARC
  8
0
 62
7
  6
CONTINUOUS
 10
219.64375
 20
73.6892007144
 40
0.3
 50
0.0
 51
21.3886228278
  0
ARC
  8
0
 62
7
  6
CONTINUOUS
 10
218.24375
 20
80.8283216102
 40
2.1
 50
180.0
 51
201.3886228278
  0
ARC
  8
0
 62
7
  6
CONTINUOUS
 10
209.24375
 20
80.8283216102
 40
2.1
 50
338.6113771722
 51
360.0
  0
ARC
  8
0
 62
7
  6
CONTINUOUS
 10
192.84375
 20
80.8283216102
 40
2.1
 50
180.0
 51
201.3886228278
  0
ARC
  8
0
 62
7
  6
CONTINUOUS
 10
212.04375
 20
77.9458554547
 40
1.0
 50
180.0
 51
270.0
  0
ARC
  8
0
 62
7
  6
CONTINUOUS
 10
215.44375
 20
77.9458554547
 40
1.0
 50
270.0
 51
360.0
  0
ARC
  8
0
 62
7
  6
CONTINUOUS
 10
190.04375
 20
77.9458554547
 40
1.0
 50
270.0
 51
360.0
  0
ARC
  8
0
 62
7
  6
CONTINUOUS
 10
190.04375
 20
79.4769318473
 40
1.0
 50
0.0
 51
21.3886228278
  0
ARC
  8
0
 62
7
  6
CONTINUOUS
 10
212.04375
 20
79.4769318473
 40
1.0
 50
158.6113771722
 51
180.0
  0
ARC
  8
0
 62
7
  6
CONTINUOUS
 10
215.44375
 20
79.4769318473
 40
1.0
 50
0.0
 51
21.3886228278
  0
ARC
  8
0
 62
7
  6
CONTINUOUS
 10
192.84375
 20
80.8283216102
 40
1.0
 50
180.0
 51
201.3886228278
  0
ARC
  8
0
 62
7
  6
CONTINUOUS
 10
209.24375
 20
80.8283216102
 40
1.0
 50
338.6113771722
 51
360.0
  0
ARC
  8
0
 62
7
  6
CONTINUOUS
 10
218.24375
 20
80.8283216102
 40
1.0
 50
180.0
 51
201.3886228278
  0
ARC
  8
0
 62
7
  6
CONTINUOUS
 10
242.64375
 20
68.9958554547
 40
2.7
 50
270.0
 51
360.0
  0
ARC
  8
0
 62
7
  6
CONTINUOUS
 10
268.0414623505
 20
68.9958554547
 40
2.7
 50
270.0
 51
360.0
  0
ARC
  8
0
 62
7
  6
CONTINUOUS
 10
261.04375
 20
68.9958554547
 40
2.7
 50
180.0
 51
270.0
  0
ARC
  8
0
 62
7
  6
CONTINUOUS
 10
235.64375
 20
68.9958554547
 40
2.7
 50
180.0
 51
270.0
  0
ARC
  8
0
 62
7
  6
CONTINUOUS
 10
245.04375
 20
73.6892007144
 40
0.3
 50
0.0
 51
21.3886228278
  0
ARC
  8
0
 62
7
  6
CONTINUOUS
 10
258.64375
 20
73.6892007144
 40
0.3
 50
158.6113771722
 51
180.0
  0
ARC
  8
0
 62
7
  6
CONTINUOUS
 10
233.24375
 20
73.6892007144
 40
0.3
 50
158.6113771722
 51
180.0
  0
ARC
  8
0
 62
7
  6
CONTINUOUS
 10
243.64375
 20
80.8283216102
 40
2.1
 50
180.0
 51
201.3886228278
  0
ARC
  8
0
 62
7
  6
CONTINUOUS
 10
234.64375
 20
80.8283216102
 40
2.1
 50
338.6113771722
 51
360.0
  0
ARC
  8
0
 62
7
  6
CONTINUOUS
 10
260.04375
 20
80.8283216102
 40
1.0
 50
338.6113771722
 51
360.0
  0
ARC
  8
0
 62
7
  6
CONTINUOUS
 10
243.64375
 20
80.8283216102
 40
1.0
 50
180.0
 51
201.3886228278
  0
ARC
  8
0
 62
7
  6
CONTINUOUS
 10
269.0414623505
 20
80.8278461348
 40
1.0
 50
180.0
 51
201.39
  0
ARC
  8
0
 62
7
  6
CONTINUOUS
 10
237.44375
 20
77.9458554547
 40
1.0
 50
180.0
 51
270.0
  0
ARC
  8
0
 62
7
  6
CONTINUOUS
 10
240.84375
 20
77.9458554547
 40
1.0
 50
270.0
 51
360.0
  0
ARC
  8
0
 62
7
  6
CONTINUOUS
 10
237.44375
 20
79.4769318473
 40
1.0
 50
158.6113771722
 51
180.0
  0
ARC
  8
0
 62
7
  6
CONTINUOUS
 10
240.84375
 20
79.4769318473
 40
1.0
 50
0.0
 51
21.3886228278
  0
ARC
  8
0
 62
7
  6
CONTINUOUS
 10
234.64375
 20
80.8283216102
 40
1.0
 50
338.6113771722
 51
360.0
  0
ARC
  8
0
 62
7
  6
CONTINUOUS
 10
244.64375
 20
94.8958554547
 40
3.1
 50
90.0
 51
180.0
  0
ARC
  8
0
 62
7
  6
CONTINUOUS
 10
233.64375
 20
94.8958554547
 40
3.1
 50
0.0
 51
90.0
  0
ARC
  8
0
 62
7
  6
CONTINUOUS
 10
219.24375
 20
94.8958554547
 40
3.1
 50
90.0
 51
180.0
  0
ARC
  8
0
 62
7
  6
CONTINUOUS
 10
208.24375
 20
94.8958554547
 40
3.1
 50
0.0
 51
90.0
  0
ARC
  8
0
 62
7
  6
CONTINUOUS
 10
193.84375
 20
94.8958554547
 40
3.1
 50
90.0
 51
180.0
  0
ARC
  8
0
 62
7
  6
CONTINUOUS
 10
244.64375
 20
94.8958554547
 40
2.0
 50
90.0
 51
180.0
  0
ARC
  8
0
 62
7
  6
CONTINUOUS
 10
259.04375
 20
94.8958554547
 40
2.0
 50
0.0
 51
90.0
  0
ARC
  8
0
 62
7
  6
CONTINUOUS
 10
193.84375
 20
94.8958554547
 40
2.0
 50
90.0
 51
180.0
  0
ARC
  8
0
 62
7
  6
CONTINUOUS
 10
208.24375
 20
94.8958554547
 40
2.0
 50
0.0
 51
90.0
  0
ARC
  8
0
 62
7
  6
CONTINUOUS
 10
219.24375
 20
94.8958554547
 40
2.0
 50
90.0
 51
180.0
  0
ARC
  8
0
 62
7
  6
CONTINUOUS
 10
233.64375
 20
94.8958554547
 40
2.0
 50
0.0
 51
90.0
  0
ARC
  8
0
 62
7
  6
CONTINUOUS
 10
347.29375
 20
69.1325435616
 40
4.0
 50
274.3452193653
 51
360.0
  0
ARC
  8
0
 62
7
  6
CONTINUOUS
 10
293.4414623505
 20
68.9958554547
 40
2.7
 50
270.0
 51
360.0
  0
ARC
  8
0
 62
7
  6
CONTINUOUS
 10
286.4414623505
 20
68.9958554547
 40
2.7
 50
180.0
 51
270.0
  0
ARC
  8
0
 62
7
  6
CONTINUOUS
 10
321.2414623505
 20
68.9958554547
 40
2.7
 50
270.0
 51
360.0
  0
ARC
  8
0
 62
7
  6
CONTINUOUS
 10
314.2414623505
 20
68.9958554547
 40
2.7
 50
180.0
 51
270.0
  0
ARC
  8
0
 62
7
  6
CONTINUOUS
 10
322.2414623505
 20
80.8278461348
 40
1.0
 50
180.0
 51
201.39
  0
ARC
  8
0
 62
7
  6
CONTINUOUS
 10
285.4414623505
 20
80.8278461348
 40
1.0
 50
338.61
 51
360.0
  0
ARC
  8
0
 62
7
  6
CONTINUOUS
 10
313.2414623505
 20
80.8278461348
 40
1.0
 50
338.61
 51
360.0
  0
ARC
  8
0
 62
7
  6
CONTINUOUS
 10
294.4414623505
 20
80.8278461348
 40
1.0
 50
180.0
 51
201.39
  0
ARC
  8
0
 62
7
  6
CONTINUOUS
 10
323.6414623505
 20
73.6891969804
 40
0.3
 50
0.0
 51
21.39
  0
ARC
  8
0
 62
7
  6
CONTINUOUS
 10
284.0414623505
 20
73.6891969804
 40
0.3
 50
158.61
 51
180.0
  0
ARC
  8
0
 62
7
  6
CONTINUOUS
 10
270.4414623505
 20
73.6891969804
 40
0.3
 50
0.0
 51
21.39
  0
ARC
  8
0
 62
7
  6
CONTINUOUS
 10
311.8414623505
 20
73.6891969804
 40
0.3
 50
158.61
 51
180.0
  0
ARC
  8
0
 62
7
  6
CONTINUOUS
 10
295.8414623505
 20
73.6891969804
 40
0.3
 50
0.0
 51
21.39
  0
ARC
  8
0
 62
7
  6
CONTINUOUS
 10
341.89375
 20
81.2154706969
 40
0.3
 50
150.0
 51
180.0
  0
ARC
  8
0
 62
7
  6
CONTINUOUS
 10
338.29375
 20
89.6332864309
 40
6.0
 50
0.0
 51
45.0
  0
ARC
  8
0
 62
7
  6
CONTINUOUS
 10
325.2414623505
 20
90.4640012052
 40
4.0
 50
135.0
 51
180.0
  0
ARC
  8
0
 62
7
  6
CONTINUOUS
 10
329.2233166
 20
94.4458554547
 40
4.0
 50
90.0
 51
135.0
  0
ARC
  8
0
 62
7
  6
CONTINUOUS
 10
336.309608101
 20
94.4458554547
 40
4.0
 50
45.0
 51
90.0
  0
ARC
  8
0
 62
7
  6
CONTINUOUS
 10
280.084608101
 20
93.5458554547
 40
4.0
 50
45.0
 51
90.0
  0
ARC
  8
0
 62
7
  6
CONTINUOUS
 10
282.4414623505
 20
91.1890012052
 40
4.0
 50
0.0
 51
45.0
  0
ARC
  8
0
 62
7
  6
CONTINUOUS
 10
307.384608101
 20
94.0458554547
 40
4.0
 50
45.0
 51
90.0
  0
ARC
  8
0
 62
7
  6
CONTINUOUS
 10
310.2414623505
 20
91.1890012052
 40
4.0
 50
0.0
 51
45.0
  0
ARC
  8
0
 62
7
  6
CONTINUOUS
 10
297.4414623505
 20
91.1890012052
 40
4.0
 50
135.0
 51
180.0
  0
ARC
  8
0
 62
7
  6
CONTINUOUS
 10
300.2983166
 20
94.0458554547
 40
4.0
 50
90.0
 51
135.0
  0
ARC
  8
0
 62
7
  6
CONTINUOUS
 10
348.29375
 20
95.5953234512
 40
3.0
 50
0.0
 51
66.0620193933
  0
ARC
  8
0
 62
7
  6
CONTINUOUS
 10
270.0414623505
 20
95.5458554547
 40
2.0
 50
90.0
 51
180.0
  0
ARC
  8
0
 62
7
  6
CONTINUOUS
 10
343.29375
 20
86.2403418275
 40
1.0
 50
330.0
 51
360.0
  0
ARC
  8
0
 62
7
  6
CONTINUOUS
 10
251.74375
 20
100.4958554547
 40
2.5
 50
270.0
 51
360.0
  0
ARC
  8
0
 62
7
  6
CONTINUOUS
 10
231.94375
 20
104.3211954884
 40
2.0
 50
180.0
 51
270.0
  0
ARC
  8
0
 62
7
  6
CONTINUOUS
 10
220.94375
 20
104.3211954884
 40
2.0
 50
270.0
 51
360.0
  0
ARC
  8
0
 62
7
  6
CONTINUOUS
 10
195.54375
 20
104.3211954884
 40
2.0
 50
270.0
 51
360.0
  0
ARC
  8
0
 62
7
  6
CONTINUOUS
 10
206.54375
 20
104.3211954884
 40
2.0
 50
180.0
 51
270.0
  0
ARC
  8
0
 62
7
  6
CONTINUOUS
 10
257.34375
 20
104.3211954884
 40
2.0
 50
180.0
 51
270.0
  0
ARC
  8
0
 62
7
  6
CONTINUOUS
 10
246.34375
 20
104.3211954884
 40
2.0
 50
270.0
 51
360.0
  0
ARC
  8
0
 62
7
  6
CONTINUOUS
 10
196.54375
 20
118.5638647745
 40
2.1
 50
0.0
 51
21.39
  0
ARC
  8
0
 62
7
  6
CONTINUOUS
 10
205.54375
 20
118.5638647745
 40
2.1
 50
158.61
 51
180.0
  0
ARC
  8
0
 62
7
  6
CONTINUOUS
 10
221.94375
 20
118.5638647745
 40
2.1
 50
0.0
 51
21.39
  0
ARC
  8
0
 62
7
  6
CONTINUOUS
 10
199.34375
 20
121.4458554547
 40
1.0
 50
90.0
 51
180.0
  0
ARC
  8
0
 62
7
  6
CONTINUOUS
 10
202.74375
 20
121.4458554547
 40
1.0
 50
0.0
 51
90.0
  0
ARC
  8
0
 62
7
  6
CONTINUOUS
 10
224.74375
 20
121.4458554547
 40
1.0
 50
90.0
 51
180.0
  0
ARC
  8
0
 62
7
  6
CONTINUOUS
 10
224.74375
 20
119.9152389087
 40
1.0
 50
180.0
 51
201.39
  0
ARC
  8
0
 62
7
  6
CONTINUOUS
 10
202.74375
 20
119.9152389087
 40
1.0
 50
338.61
 51
360.0
  0
ARC
  8
0
 62
7
  6
CONTINUOUS
 10
199.34375
 20
119.9152389087
 40
1.0
 50
180.0
 51
201.39
  0
ARC
  8
0
 62
7
  6
CONTINUOUS
 10
221.94375
 20
118.5638647745
 40
1.0
 50
0.0
 51
21.39
  0
ARC
  8
0
 62
7
  6
CONTINUOUS
 10
205.54375
 20
118.5638647745
 40
1.0
 50
158.61
 51
180.0
  0
ARC
  8
0
 62
7
  6
CONTINUOUS
 10
196.54375
 20
118.5638647745
 40
1.0
 50
0.0
 51
21.39
  0
ARC
  8
0
 62
7
  6
CONTINUOUS
 10
197.54375
 20
130.3958554547
 40
2.7
 50
90.0
 51
180.0
  0
ARC
  8
0
 62
7
  6
CONTINUOUS
 10
204.54375
 20
130.3958554547
 40
2.7
 50
0.0
 51
90.0
  0
ARC
  8
0
 62
7
  6
CONTINUOUS
 10
222.94375
 20
130.3958554547
 40
2.7
 50
90.0
 51
180.0
  0
ARC
  8
0
 62
7
  6
CONTINUOUS
 10
220.54375
 20
125.702513929
 40
0.3
 50
180.0
 51
201.39
  0
ARC
  8
0
 62
7
  6
CONTINUOUS
 10
206.94375
 20
125.702513929
 40
0.3
 50
338.61
 51
360.0
  0
ARC
  8
0
 62
7
  6
CONTINUOUS
 10
195.14375
 20
125.702513929
 40
0.3
 50
180.0
 51
201.39
  0
ARC
  8
0
 62
7
  6
CONTINUOUS
 10
230.94375
 20
118.5638647745
 40
2.1
 50
158.61
 51
180.0
  0
ARC
  8
0
 62
7
  6
CONTINUOUS
 10
247.34375
 20
118.5638647745
 40
2.1
 50
0.0
 51
21.39
  0
ARC
  8
0
 62
7
  6
CONTINUOUS
 10
256.34375
 20
118.5638647745
 40
2.1
 50
158.61
 51
180.0
  0
ARC
  8
0
 62
7
  6
CONTINUOUS
 10
228.14375
 20
121.4458554547
 40
1.0
 50
0.0
 51
90.0
  0
ARC
  8
0
 62
7
  6
CONTINUOUS
 10
250.14375
 20
121.4458554547
 40
1.0
 50
90.0
 51
180.0
  0
ARC
  8
0
 62
7
  6
CONTINUOUS
 10
253.54375
 20
121.4458554547
 40
1.0
 50
0.0
 51
90.0
  0
ARC
  8
0
 62
7
  6
CONTINUOUS
 10
253.54375
 20
119.9152389087
 40
1.0
 50
338.61
 51
360.0
  0
ARC
  8
0
 62
7
  6
CONTINUOUS
 10
250.14375
 20
119.9152389087
 40
1.0
 50
180.0
 51
201.39
  0
ARC
  8
0
 62
7
  6
CONTINUOUS
 10
228.14375
 20
119.9152389087
 40
1.0
 50
338.61
 51
360.0
  0
ARC
  8
0
 62
7
  6
CONTINUOUS
 10
247.34375
 20
118.5638647745
 40
1.0
 50
0.0
 51
21.39
  0
ARC
  8
0
 62
7
  6
CONTINUOUS
 10
256.34375
 20
118.5638647745
 40
1.0
 50
158.61
 51
180.0
  0
ARC
  8
0
 62
7
  6
CONTINUOUS
 10
230.94375
 20
118.5638647745
 40
1.0
 50
158.61
 51
180.0
  0
ARC
  8
0
 62
7
  6
CONTINUOUS
 10
248.34375
 20
130.3958554547
 40
2.7
 50
90.0
 51
180.0
  0
ARC
  8
0
 62
7
  6
CONTINUOUS
 10
255.34375
 20
130.3958554547
 40
2.7
 50
0.0
 51
90.0
  0
ARC
  8
0
 62
7
  6
CONTINUOUS
 10
229.94375
 20
130.3958554547
 40
2.7
 50
0.0
 51
90.0
  0
ARC
  8
0
 62
7
  6
CONTINUOUS
 10
257.74375
 20
125.702513929
 40
0.3
 50
338.61
 51
360.0
  0
ARC
  8
0
 62
7
  6
CONTINUOUS
 10
245.94375
 20
125.702513929
 40
0.3
 50
180.0
 51
201.39
  0
ARC
  8
0
 62
7
  6
CONTINUOUS
 10
232.34375
 20
125.702513929
 40
0.3
 50
338.61
 51
360.0
  0
ARC
  8
0
 62
7
  6
CONTINUOUS
 10
321.859608101
 20
105.3858554547
 40
4.0
 50
270.0
 51
315.0
  0
ARC
  8
0
 62
7
  6
CONTINUOUS
 10
294.084608101
 20
105.8358554547
 40
4.0
 50
270.0
 51
315.0
  0
ARC
  8
0
 62
7
  6
CONTINUOUS
 10
314.7733166
 20
105.3858554547
 40
4.0
 50
225.0
 51
270.0
  0
ARC
  8
0
 62
7
  6
CONTINUOUS
 10
286.9983166
 20
105.8358554547
 40
4.0
 50
225.0
 51
270.0
  0
ARC
  8
0
 62
7
  6
CONTINUOUS
 10
340.2914623505
 20
106.8065647927
 40
4.0
 50
180.0
 51
246.0620193933
  0
ARC
  8
0
 62
7
  6
CONTINUOUS
 10
325.2914623505
 20
108.8177097042
 40
4.0
 50
315.0
 51
360.0
  0
ARC
  8
0
 62
7
  6
CONTINUOUS
 10
284.7414623505
 20
108.0927097042
 40
4.0
 50
180.0
 51
225.0
  0
ARC
  8
0
 62
7
  6
CONTINUOUS
 10
296.3414623505
 20
108.0927097042
 40
4.0
 50
315.0
 51
360.0
  0
ARC
  8
0
 62
7
  6
CONTINUOUS
 10
311.3414623505
 20
108.8177097042
 40
4.0
 50
180.0
 51
225.0
  0
ARC
  8
0
 62
7
  6
CONTINUOUS
 10
271.7414623505
 20
104.3211954884
 40
2.0
 50
270.0
 51
360.0
  0
ARC
  8
0
 62
7
  6
CONTINUOUS
 10
307.3414623505
 20
130.3958554547
 40
2.7
 50
0.0
 51
90.0
  0
ARC
  8
0
 62
7
  6
CONTINUOUS
 10
300.3414623505
 20
130.3958554547
 40
2.7
 50
90.0
 51
180.0
  0
ARC
  8
0
 62
7
  6
CONTINUOUS
 10
336.2914623505
 20
130.3958554547
 40
2.7
 50
0.0
 51
90.0
  0
ARC
  8
0
 62
7
  6
CONTINUOUS
 10
329.2914623505
 20
130.3958554547
 40
2.7
 50
90.0
 51
180.0
  0
ARC
  8
0
 62
7
  6
CONTINUOUS
 10
280.7414623505
 20
130.3958554547
 40
2.7
 50
0.0
 51
90.0
  0
ARC
  8
0
 62
7
  6
CONTINUOUS
 10
273.7414623505
 20
130.3958554547
 40
2.7
 50
90.0
 51
180.0
  0
ARC
  8
0
 62
7
  6
CONTINUOUS
 10
337.2914623505
 20
118.5638647745
 40
1.0
 50
158.61
 51
180.0
  0
ARC
  8
0
 62
7
  6
CONTINUOUS
 10
328.2914623505
 20
118.5638647745
 40
1.0
 50
0.0
 51
21.39
  0
ARC
  8
0
 62
7
  6
CONTINUOUS
 10
299.3414623505
 20
118.5638647745
 40
1.0
 50
0.0
 51
21.39
  0
ARC
  8
0
 62
7
  6
CONTINUOUS
 10
308.3414623505
 20
118.5638647745
 40
1.0
 50
158.61
 51
180.0
  0
ARC
  8
0
 62
7
  6
CONTINUOUS
 10
281.7414623505
 20
118.5638647745
 40
1.0
 50
158.6099999999
 51
180.0
  0
ARC
  8
0
 62
7
  6
CONTINUOUS
 10
272.7414623505
 20
118.5638647745
 40
1.0
 50
0.0
 51
21.39
  0
ARC
  8
0
 62
7
  6
CONTINUOUS
 10
271.3414623505
 20
125.702513929
 40
0.3
 50
180.0
 51
201.39
  0
ARC
  8
0
 62
7
  6
CONTINUOUS
 10
338.6914623505
 20
125.702513929
 40
0.3
 50
338.61
 51
360.0
  0
ARC
  8
0
 62
7
  6
CONTINUOUS
 10
309.7414623505
 20
125.702513929
 40
0.3
 50
338.61
 51
360.0
  0
ARC
  8
0
 62
7
  6
CONTINUOUS
 10
326.8914623505
 20
125.702513929
 40
0.3
 50
180.0
 51
201.39
  0
ARC
  8
0
 62
7
  6
CONTINUOUS
 10
283.1414623505
 20
125.702513929
 40
0.3
 50
338.61
 51
360.0
  0
ARC
  8
0
 62
7
  6
CONTINUOUS
 10
297.9414623505
 20
125.702513929
 40
0.3
 50
180.0
 51
201.39
  0
ARC
  8
0
 62
7
  6
CONTINUOUS
 10
268.8321182128
 20
99.6331104547
 40
130.0
 50
350.1348339513
 51
9.9215257614
  0
ARC
  8
0
 62
7
  6
CONTINUOUS
 10
268.8321182128
 20
99.6331104547
 40
129.4999999036
 50
351.65051584
 51
358.794111891
  0
ARC
  8
0
 62
7
  6
CONTINUOUS
 10
367.8321182128
 20
79.8309321885
 40
1.0
 50
92.0454084889
 51
180.0
  0
ARC
  8
0
 62
7
  6
CONTINUOUS
 10
367.8321182128
 20
72.7607787208
 40
1.0
 50
180.0
 51
267.9545915111
  0
ARC
  8
0
 62
7
  6
CONTINUOUS
 10
380.5321182128
 20
81.5853324345
 40
0.3
 50
272.0454084889
 51
360.0
  0
CIRCLE
  8
0
 62
7
  6
CONTINUOUS
 10
388.3321182128
 20
74.2958554547
 40
4.5
  0
CIRCLE
  8
0
 62
7
  6
CONTINUOUS
 10
388.3321182128
 20
74.2958554547
 40
3.1
  0
ARC
  8
0
 62
7
  6
CONTINUOUS
 10
388.4821182128
 20
73.6458554547
 40
7.35
 50
354.8071806008
 51
360.0
  0
ARC
  8
0
 62
7
  6
CONTINUOUS
 10
396.4172886629
 20
77.4458555256
 40
0.5
 50
269.9999985521
 51
350.1348256961
  0
ARC
  8
0
 62
7
  6
CONTINUOUS
 10
398.3300867714
 20
98.907755913
 40
0.5
 50
359.6790735814
 51
90.0
  0
ARC
  8
0
 62
7
  6
CONTINUOUS
 10
388.3321182128
 20
108.5958554547
 40
3.1
 50
180.0
 51
360.0
  0
ARC
  8
0
 62
7
  6
CONTINUOUS
 10
388.1821182128
 20
125.7458554547
 40
7.35
 50
90.0
 51
180.0
  0
ARC
  8
0
 62
7
  6
CONTINUOUS
 10
388.3321182128
 20
125.0958554547
 40
3.1
 50
0.0
 51
180.0
  0
ARC
  8
0
 62
7
  6
CONTINUOUS
 10
388.4821182128
 20
125.7458554547
 40
7.35
 50
0.0
 51
90.0
  0
ARC
  8
0
 62
7
  6
CONTINUOUS
 10
396.3954021695
 20
121.9458553837
 40
0.5
 50
9.9215340204
 51
90.0000014566
  0
ARC
  8
0
 62
7
  6
CONTINUOUS
 10
32.9760042622
 20
182.6421424104
 40
2.0
 50
184.8613372875
 51
270.0
  0
ARC
  8
0
 62
7
  6
CONTINUOUS
 10
45.39375
 20
181.6421424104
 40
1.0
 50
270.0
 51
360.0
  0
ARC
  8
0
 62
7
  6
CONTINUOUS
 10
25.69375
 20
194.9421424104
 40
0.3
 50
180.0
 51
270.0
  0
ARC
  8
0
 62
7
  6
CONTINUOUS
 10
29.9614118607
 20
194.3421424104
 40
0.3
 50
3.4744073675
 51
90.0
  0
ARC
  8
0
 62
7
  6
CONTINUOUS
 10
46.13375
 20
185.3823510344
 40
0.26
 50
0.0
 51
90.0
  0
ARC
  8
0
 62
7
  6
CONTINUOUS
 10
90.2460376495
 20
197.3421424104
 40
2.7
 50
270.0
 51
360.0
  0
ARC
  8
0
 62
7
  6
CONTINUOUS
 10
62.4460376495
 20
197.3421424104
 40
2.7
 50
270.0
 51
360.0
  0
ARC
  8
0
 62
7
  6
CONTINUOUS
 10
83.2460376495
 20
197.3421424104
 40
2.7
 50
180.0
 51
270.0
  0
ARC
  8
0
 62
7
  6
CONTINUOUS
 10
55.4460376495
 20
197.3421424104
 40
2.7
 50
180.0
 51
270.0
  0
ARC
  8
0
 62
7
  6
CONTINUOUS
 10
83.2460376495
 20
206.9421424104
 40
2.7
 50
90.0
 51
180.0
  0
ARC
  8
0
 62
7
  6
CONTINUOUS
 10
90.2460376495
 20
206.9421424104
 40
2.7
 50
0.0
 51
90.0
  0
ARC
  8
0
 62
7
  6
CONTINUOUS
 10
62.4460376495
 20
206.9421424104
 40
2.7
 50
0.0
 51
90.0
  0
ARC
  8
0
 62
7
  6
CONTINUOUS
 10
55.4460376495
 20
206.9421424104
 40
2.7
 50
90.0
 51
180.0
  0
ARC
  8
0
 62
7
  6
CONTINUOUS
 10
25.69375
 20
209.3421424104
 40
0.3
 50
90.0
 51
180.0
  0
ARC
  8
0
 62
7
  6
CONTINUOUS
 10
34.79375
 20
209.3421424104
 40
0.3
 50
0.0
 51
90.0
  0
ARC
  8
0
 62
7
  6
CONTINUOUS
 10
166.44375
 20
197.3421424104
 40
2.7
 50
270.0
 51
360.0
  0
ARC
  8
0
 62
7
  6
CONTINUOUS
 10
184.84375
 20
197.3421424104
 40
2.7
 50
180.0
 51
270.0
  0
ARC
  8
0
 62
7
  6
CONTINUOUS
 10
115.64375
 20
197.3421424104
 40
2.7
 50
270.0
 51
360.0
  0
ARC
  8
0
 62
7
  6
CONTINUOUS
 10
134.04375
 20
197.3421424104
 40
2.7
 50
180.0
 51
270.0
  0
ARC
  8
0
 62
7
  6
CONTINUOUS
 10
108.6460376495
 20
197.3421424104
 40
2.7
 50
180.0
 51
270.0
  0
ARC
  8
0
 62
7
  6
CONTINUOUS
 10
141.04375
 20
197.3421424104
 40
2.7
 50
270.0
 51
360.0
  0
ARC
  8
0
 62
7
  6
CONTINUOUS
 10
159.44375
 20
197.3421424104
 40
2.7
 50
180.0
 51
270.0
  0
ARC
  8
0
 62
7
  6
CONTINUOUS
 10
184.84375
 20
206.9421424104
 40
2.7
 50
90.0
 51
180.0
  0
ARC
  8
0
 62
7
  6
CONTINUOUS
 10
166.44375
 20
206.9421424104
 40
2.7
 50
0.0
 51
90.0
  0
ARC
  8
0
 62
7
  6
CONTINUOUS
 10
115.64375
 20
206.9421424104
 40
2.7
 50
0.0
 51
90.0
  0
ARC
  8
0
 62
7
  6
CONTINUOUS
 10
134.04375
 20
206.9421424104
 40
2.7
 50
90.0
 51
180.0
  0
ARC
  8
0
 62
7
  6
CONTINUOUS
 10
108.6460376495
 20
206.9421424104
 40
2.7
 50
90.0
 51
180.0
  0
ARC
  8
0
 62
7
  6
CONTINUOUS
 10
141.04375
 20
206.9421424104
 40
2.7
 50
0.0
 51
90.0
  0
ARC
  8
0
 62
7
  6
CONTINUOUS
 10
159.44375
 20
206.9421424104
 40
2.7
 50
90.0
 51
180.0
  0
ARC
  8
0
 62
7
  6
CONTINUOUS
 10
343.7114957378
 20
182.6421424104
 40
2.0
 50
270.0
 51
355.1408288307
  0
ARC
  8
0
 62
7
  6
CONTINUOUS
 10
331.29375
 20
181.6421424104
 40
1.0
 50
180.0
 51
270.0
  0
ARC
  8
0
 62
7
  6
CONTINUOUS
 10
350.99375
 20
194.9421424104
 40
0.3
 50
270.0
 51
360.0
  0
ARC
  8
0
 62
7
  6
CONTINUOUS
 10
346.7260881393
 20
194.3421424104
 40
0.3
 50
90.0
 51
176.5255926325
  0
ARC
  8
0
 62
7
  6
CONTINUOUS
 10
330.55375
 20
185.3823510344
 40
0.26
 50
90.0
 51
180.0
  0
ARC
  8
0
 62
7
  6
CONTINUOUS
 10
261.04375
 20
197.3421424104
 40
2.7
 50
180.0
 51
270.0
  0
ARC
  8
0
 62
7
  6
CONTINUOUS
 10
242.64375
 20
197.3421424104
 40
2.7
 50
270.0
 51
360.0
  0
ARC
  8
0
 62
7
  6
CONTINUOUS
 10
268.0414623505
 20
197.3421424104
 40
2.7
 50
270.0
 51
360.0
  0
ARC
  8
0
 62
7
  6
CONTINUOUS
 10
210.24375
 20
197.3421424104
 40
2.7
 50
180.0
 51
270.0
  0
ARC
  8
0
 62
7
  6
CONTINUOUS
 10
191.84375
 20
197.3421424104
 40
2.7
 50
270.0
 51
360.0
  0
ARC
  8
0
 62
7
  6
CONTINUOUS
 10
235.64375
 20
197.3421424104
 40
2.7
 50
180.0
 51
270.0
  0
ARC
  8
0
 62
7
  6
CONTINUOUS
 10
217.24375
 20
197.3421424104
 40
2.7
 50
270.0
 51
360.0
  0
ARC
  8
0
 62
7
  6
CONTINUOUS
 10
242.64375
 20
206.9421424104
 40
2.7
 50
0.0
 51
90.0
  0
ARC
  8
0
 62
7
  6
CONTINUOUS
 10
268.0414623505
 20
206.9421424104
 40
2.7
 50
0.0
 51
90.0
  0
ARC
  8
0
 62
7
  6
CONTINUOUS
 10
261.04375
 20
206.9421424104
 40
2.7
 50
90.0
 51
180.0
  0
ARC
  8
0
 62
7
  6
CONTINUOUS
 10
191.84375
 20
206.9421424104
 40
2.7
 50
0.0
 51
90.0
  0
ARC
  8
0
 62
7
  6
CONTINUOUS
 10
210.24375
 20
206.9421424104
 40
2.7
 50
90.0
 51
180.0
  0
ARC
  8
0
 62
7
  6
CONTINUOUS
 10
235.64375
 20
206.9421424104
 40
2.7
 50
90.0
 51
180.0
  0
ARC
  8
0
 62
7
  6
CONTINUOUS
 10
217.24375
 20
206.9421424104
 40
2.7
 50
0.0
 51
90.0
  0
ARC
  8
0
 62
7
  6
CONTINUOUS
 10
286.4414623505
 20
197.3421424104
 40
2.7
 50
180.0
 51
270.0
  0
ARC
  8
0
 62
7
  6
CONTINUOUS
 10
314.2414623505
 20
197.3421424104
 40
2.7
 50
180.0
 51
270.0
  0
ARC
  8
0
 62
7
  6
CONTINUOUS
 10
321.2414623505
 20
197.3421424104
 40
2.7
 50
270.0
 51
360.0
  0
ARC
  8
0
 62
7
  6
CONTINUOUS
 10
293.4414623505
 20
197.3421424104
 40
2.7
 50
270.0
 51
360.0
  0
ARC
  8
0
 62
7
  6
CONTINUOUS
 10
286.4414623505
 20
206.9421424104
 40
2.7
 50
90.0
 51
180.0
  0
ARC
  8
0
 62
7
  6
CONTINUOUS
 10
314.2414623505
 20
206.9421424104
 40
2.7
 50
90.0
 51
180.0
  0
ARC
  8
0
 62
7
  6
CONTINUOUS
 10
321.2414623505
 20
206.9421424104
 40
2.7
 50
0.0
 51
90.0
  0
ARC
  8
0
 62
7
  6
CONTINUOUS
 10
293.4414623505
 20
206.9421424104
 40
2.7
 50
0.0
 51
90.0
  0
ARC
  8
0
 62
7
  6
CONTINUOUS
 10
350.99375
 20
209.3421424104
 40
0.3
 50
0.0
 51
90.0
  0
ARC
  8
0
 62
7
  6
CONTINUOUS
 10
341.89375
 20
209.3421424104
 40
0.3
 50
90.0
 51
180.0
  0
ENDSEC
  0
EOF
