  0
SECTION
  2
HEADER
  9
$EXTMAX
 10
420.0
 20
297.0
 30
0.0
  9
$EXTMIN
 10
0.0
 20
0.0
 30
0.0
  9
$LIMMIN
 10
0.0
 20
0.0
  9
$LIMMAX
 10
420.0
 20
297.0
  9
$VIEWCTR
 10
210.0
 20
148.5
  9
$VIEWSIZE
 40
297.0
  9
$CLAYER
  8
0
  9
$LTSCALE
 40
23.1
  9
$CELTYPE
  6
BYLAYER
  9
$DIMSCALE
 40
1.0
  9
$DIMASZ
 40
3.5
  9
$DIMEXO
 40
2.625
  9
$DIMDLI
 40
15.96
  9
$DIMEXE
 40
7.56
  9
$DIMCEN
 40
3.78
  9
$DIMLFAC
 40
1.0
  9
$DIMBLK
  1
_FILLED
  9
$DIMTXT
 40
3.5
  9
$PDMODE
 70
3
  9
$PDSIZE
 40
0.3125
  9
$TILEMODE
 70
1
  0
ENDSEC
  0
SECTION
  2
TABLES
  0
TABLE
  2
LTYPE
 70
6
  0
LTYPE
  2
BYBLOCK
 70
0
  3

 72
65
 73
0
 40
0.0
  0
LTYPE
  2
BYLAYER
 70
0
  3

 72
65
 73
0
 40
0.0
  0
LTYPE
  2
CONTINUOUS
 70
64
  3
Solid line
 72
65
 73
0
 40
0.0
  0
LTYPE
  2
CENTER
 70
64
  3
____ _ ____ _ ____ _ ____ _ ____ _ ____ _ ____
 72
65
 73
4
 40
0.6
 49
0.375
 49
-0.075
 49
0.075
 49
-0.075
  0
LTYPE
  2
HIDDEN
 70
64
  3
- - - - - - - - - - - - - - - - - - - -
 72
65
 73
2
 40
0.2
 49
0.1
 49
-0.1
  0
LTYPE
  2
PHANTOM
 70
64
  3
_____ _ _ _____ _ _ _____ _ _ _____
 72
65
 73
6
 40
0.8
 49
0.45
 49
-0.05
 49
0.1
 49
-0.05
 49
0.1
 49
-0.05
  0
LTYPE
  2
DOT
 70
64
  3
. . . . . . . . . . . . . . . . . . . .
 72
65
 73
2
 40
0.2
 49
0.1
 49
-0.1
  0
LTYPE
  2
DASHED
 70
64
  3
- - - - - - - - - - - - - - - - - - - -
 72
65
 73
2
 40
0.2
 49
0.1
 49
-0.1
  0
ENDTAB
  0
TABLE
  2
LAYER
 70
36
  0
LAYER
  2
0
 70
0
 62
7
  6
CONTINUOUS
  0
LAYER
  2
DEFAULT_1
 70
0
 62
7
  6
CENTER
  0
LAYER
  2
DEFAULT_2
 70
0
 62
8
  6
HIDDEN
  0
LAYER
  2
DEFAULT_3
 70
0
 62
7
  6
PHANTOM
  0
LAYER
  2
CURVE
 70
0
 62
7
  6
CONTINUOUS
  0
LAYER
  2
KERNETRAK
 70
0
 62
7
  6
CONTINUOUS
  0
LAYER
  2
PLAN
 70
0
 62
7
  6
CONTINUOUS
  0
LAYER
  2
SURFACE
 70
0
 62
7
  6
CONTINUOUS
  0
LAYER
  2
SURF_ARBEJDE
 70
0
 62
7
  6
CONTINUOUS
  0
ENDTAB
  0
TABLE
  2
STYLE
 70
1
  0
STYLE
  2
STANDARD
 70
0
 40
0.0
 41
0.8
 50
0.0
 71
0
 42
0.2
  3
txt
  4

  0
STYLE
  2
TEXTSTYLE_1
 70
0
 40
0.0
 41
0.8
 50
0.0
 71
0
 42
0.2
  3
gdt
  4

  0
STYLE
  2
TEXTSTYLE_2
 70
0
 40
0.0
 41
0.6
 50
0.0
 71
0
 42
0.2
  3
txt
  4

  0
STYLE
  2
TEXTSTYLE_3
 70
0
 40
0.0
 41
1.0
 50
0.0
 71
0
 42
0.2
  3
ftb_____.ttf
  4

  0
STYLE
  2
TEXTSTYLE_4
 70
0
 40
0.0
 41
1.0
 50
0.0
 71
0
 42
0.2
  3
fti_____.ttf
  4

  0
STYLE
  2
TEXTSTYLE_5
 70
0
 40
0.0
 41
1.0
 50
0.0
 71
0
 42
0.2
  3
frutiger light.ttf
  4

  0
STYLE
  2
TEXTSTYLE_6
 70
0
 40
0.0
 41
0.7
 50
0.0
 71
0
 42
0.2
  3
txt
  4

  0
STYLE
  2
TEXTSTYLE_7
 70
0
 40
0.0
 41
0.24
 50
0.0
 71
0
 42
0.2
  3
txt
  4

  0
ENDTAB
  0
ENDSEC
  0
SECTION
  2
BLOCKS
  0
BLOCK
  8
0
 62
2
  6
CONTINUOUS
  2
SYMBOL_5_BL1
 70
64
 10
382.7840918555
 20
35.5067593403
  0
TEXT
  8
0
 62
7
  6
CONTINUOUS
 10
373.842376864
 20
30.5995157174
  7
TEXTSTYLE_4
 40
1.0655737705
  1
The brand for plastic modular belts and chains
 41
1.0
 72
0
  0
LINE
  8
0
 62
7
  6
CONTINUOUS
 10
358.7621602445
 20
36.0805298321
 11
358.7621602445
 21
33.9493822911
  0
LINE
  8
0
 62
7
  6
CONTINUOUS
 10
359.0512227376
 20
30.9584509954
 11
359.0512227376
 21
31.0552420547
  0
LINE
  8
0
 62
7
  6
CONTINUOUS
 10
358.7621602445
 20
31.0229783683
 11
358.8199727462
 21
30.8293962497
  0
LINE
  8
0
 62
7
  6
CONTINUOUS
 10
360.1556028675
 20
33.867415078
 11
360.1556028675
 21
36.0805298321
  0
LINE
  8
0
 62
7
  6
CONTINUOUS
 10
361.0746601894
 20
32.0231527829
 11
361.0746601894
 21
30.5067593403
  0
LINE
  8
0
 62
7
  6
CONTINUOUS
 10
361.3637227445
 20
30.5067593403
 11
361.3637227445
 21
31.2488242184
  0
LINE
  8
0
 62
7
  6
CONTINUOUS
 10
361.3637227445
 20
31.3778789641
 11
361.3637227445
 21
32.0231527829
  0
LINE
  8
0
 62
7
  6
CONTINUOUS
 10
358.8199727462
 20
31.216560532
 11
358.7621602445
 21
31.0229783683
  0
LINE
  8
0
 62
7
  6
CONTINUOUS
 10
359.1668477307
 20
30.7971325633
 11
359.0512227376
 21
30.9584509954
  0
LINE
  8
0
 62
7
  6
CONTINUOUS
 10
360.2652852997
 20
31.3133515913
 11
360.3230977445
 21
31.216560532
  0
LINE
  8
0
 62
7
  6
CONTINUOUS
 10
360.6121602997
 20
31.216560532
 11
360.5543476894
 21
31.3456152777
  0
LINE
  8
0
 62
7
  6
CONTINUOUS
 10
362.0408487691
 20
36.0805298321
 11
362.0408487691
 21
34.2772511436
  0
LINE
  8
0
 62
7
  6
CONTINUOUS
 10
362.0408487691
 20
32.9657757338
 11
362.0408487691
 21
32.3100380288
  0
LINE
  8
0
 62
7
  6
CONTINUOUS
 10
362.4043477445
 20
31.1520331591
 11
362.4043477445
 21
30.5067593403
  0
LINE
  8
0
 62
7
  6
CONTINUOUS
 10
362.6934101343
 20
30.5067593403
 11
362.6934101343
 21
31.1520331591
  0
LINE
  8
0
 62
7
  6
CONTINUOUS
 10
359.0512227376
 20
31.0552420547
 11
359.1090352445
 21
31.1842968456
  0
LINE
  8
0
 62
7
  6
CONTINUOUS
 10
358.8199727462
 20
30.8293962497
 11
358.9355977445
 21
30.7003414814
  0
LINE
  8
0
 62
7
  6
CONTINUOUS
 10
362.3465351343
 20
31.2810879048
 11
362.4043477445
 21
31.1520331591
  0
LINE
  8
0
 62
7
  6
CONTINUOUS
 10
363.1559103548
 20
30.7971325633
 11
363.2137226343
 21
30.668077795
  0
LINE
  8
0
 62
7
  6
CONTINUOUS
 10
362.6934101343
 20
31.1520331591
 11
362.6355978548
 21
31.3133515913
  0
LINE
  8
0
 62
7
  6
CONTINUOUS
 10
363.1559103548
 20
31.3456152777
 11
363.1559103548
 21
31.2810879048
  0
LINE
  8
0
 62
7
  6
CONTINUOUS
 10
363.1559103548
 20
30.8939236226
 11
363.1559103548
 21
30.7971325633
  0
LINE
  8
0
 62
7
  6
CONTINUOUS
 10
363.4342913921
 20
32.3100380288
 11
363.4342913921
 21
36.0805298321
  0
LINE
  8
0
 62
7
  6
CONTINUOUS
 10
363.4449727445
 20
30.7648688543
 11
363.4449727445
 21
30.8293962497
  0
LINE
  8
0
 62
7
  6
CONTINUOUS
 10
363.7621602445
 20
36.0805298321
 11
363.7621602445
 21
32.3100380288
  0
LINE
  8
0
 62
7
  6
CONTINUOUS
 10
360.5543476894
 20
30.7003414814
 11
360.6121602997
 21
30.8293962497
  0
LINE
  8
0
 62
7
  6
CONTINUOUS
 10
364.9480979651
 20
30.6035504109
 11
364.890285024
 21
30.7648688543
  0
LINE
  8
0
 62
7
  6
CONTINUOUS
 10
364.6012229651
 20
31.2810879048
 11
364.6012229651
 21
31.1842968456
  0
LINE
  8
0
 62
7
  6
CONTINUOUS
 10
364.6012229651
 20
31.0552420547
 11
364.6012229651
 21
30.8616599362
  0
LINE
  8
0
 62
7
  6
CONTINUOUS
 10
364.890285024
 20
30.7648688543
 11
364.890285024
 21
31.2810879048
  0
LINE
  8
0
 62
7
  6
CONTINUOUS
 10
365.1556028675
 20
32.3100380288
 11
365.1556028675
 21
34.1133167174
  0
LINE
  8
0
 62
7
  6
CONTINUOUS
 10
365.1556028675
 20
35.4247921272
 11
365.1556028675
 21
36.0805298321
  0
LINE
  8
0
 62
7
  6
CONTINUOUS
 10
365.4684104651
 20
32.0231527829
 11
365.4684104651
 21
31.8618343508
  0
LINE
  8
0
 62
7
  6
CONTINUOUS
 10
365.4684104651
 20
31.5391973962
 11
365.4684104651
 21
30.5067593403
  0
LINE
  8
0
 62
7
  6
CONTINUOUS
 10
365.757472524
 20
30.5067593403
 11
365.757472524
 21
31.5391973962
  0
LINE
  8
0
 62
7
  6
CONTINUOUS
 10
365.757472524
 20
31.8618343508
 11
365.757472524
 21
32.0231527829
  0
LINE
  8
0
 62
7
  6
CONTINUOUS
 10
360.3230977445
 20
30.8293962497
 11
360.2652852997
 21
30.7326051679
  0
LINE
  8
0
 62
7
  6
CONTINUOUS
 10
362.6355978548
 20
31.3133515913
 11
362.5777852445
 21
31.3778789641
  0
LINE
  8
0
 62
7
  6
CONTINUOUS
 10
363.5027853548
 20
30.7003414814
 11
363.4449727445
 21
30.7648688543
  0
LINE
  8
0
 62
7
  6
CONTINUOUS
 10
364.6590352445
 20
30.5712867188
 11
364.716847524
 21
30.5067593403
  0
LINE
  8
0
 62
7
  6
CONTINUOUS
 10
364.6012229651
 20
30.668077795
 11
364.6590352445
 21
30.5712867188
  0
LINE
  8
0
 62
7
  6
CONTINUOUS
 10
365.0059102445
 20
30.5067593403
 11
364.9480979651
 21
30.6035504109
  0
LINE
  8
0
 62
7
  6
CONTINUOUS
 10
364.890285024
 20
31.2810879048
 11
364.8324727445
 21
31.3778789641
  0
LINE
  8
0
 62
7
  6
CONTINUOUS
 10
366.2199727445
 20
31.5391973962
 11
366.2199727445
 21
30.5067593403
  0
LINE
  8
0
 62
7
  6
CONTINUOUS
 10
366.5090354651
 20
30.5067593403
 11
366.5090354651
 21
31.2488242184
  0
LINE
  8
0
 62
7
  6
CONTINUOUS
 10
366.5090354651
 20
31.3778789641
 11
366.5090354651
 21
31.5391973962
  0
LINE
  8
0
 62
7
  6
CONTINUOUS
 10
367.0408487691
 20
34.5231527829
 11
367.0408487691
 21
32.3100380288
  0
LINE
  8
0
 62
7
  6
CONTINUOUS
 10
358.9355977445
 20
31.3456152777
 11
358.8199727462
 21
31.216560532
  0
LINE
  8
0
 62
7
  6
CONTINUOUS
 10
359.1090352445
 20
31.1842968456
 11
359.1668477307
 21
31.2488242184
  0
LINE
  8
0
 62
7
  6
CONTINUOUS
 10
358.9355977445
 20
30.7003414814
 11
359.0512227376
 21
30.6358140973
  0
LINE
  8
0
 62
7
  6
CONTINUOUS
 10
359.3402852307
 20
30.7003414814
 11
359.1668477307
 21
30.7971325633
  0
LINE
  8
0
 62
7
  6
CONTINUOUS
 10
364.543410024
 20
31.3456152777
 11
364.6012229651
 21
31.2810879048
  0
LINE
  8
0
 62
7
  6
CONTINUOUS
 10
367.491847524
 20
31.2810879048
 11
367.5496604651
 21
31.1197694727
  0
LINE
  8
0
 62
7
  6
CONTINUOUS
 10
367.838722524
 20
31.1197694727
 11
367.7809102445
 21
31.2810879048
  0
LINE
  8
0
 62
7
  6
CONTINUOUS
 10
367.5496604651
 20
31.1197694727
 11
367.5496604651
 21
30.5067593403
  0
LINE
  8
0
 62
7
  6
CONTINUOUS
 10
367.838722524
 20
30.5067593403
 11
367.838722524
 21
31.1197694727
  0
LINE
  8
0
 62
7
  6
CONTINUOUS
 10
368.3012227445
 20
31.3456152777
 11
368.3012227445
 21
31.2810879048
  0
LINE
  8
0
 62
7
  6
CONTINUOUS
 10
368.4342913921
 20
32.3100380288
 11
368.4342913921
 21
34.4411855698
  0
LINE
  8
0
 62
7
  6
CONTINUOUS
 10
368.7621602445
 20
36.0805298321
 11
368.7621602445
 21
32.3100380288
  0
LINE
  8
0
 62
7
  6
CONTINUOUS
 10
363.4449727445
 20
30.8293962497
 11
363.5027853548
 21
30.926187309
  0
LINE
  8
0
 62
7
  6
CONTINUOUS
 10
359.0512227376
 20
30.6358140973
 11
359.2246602583
 21
30.5712867188
  0
LINE
  8
0
 62
7
  6
CONTINUOUS
 10
360.5543476894
 20
31.3456152777
 11
360.3809101894
 21
31.4424063369
  0
LINE
  8
0
 62
7
  6
CONTINUOUS
 10
363.2137226343
 20
30.668077795
 11
363.3871601343
 21
30.5712867188
  0
LINE
  8
0
 62
7
  6
CONTINUOUS
 10
362.2309102445
 20
31.3456152777
 11
362.3465351343
 21
31.2810879048
  0
LINE
  8
0
 62
7
  6
CONTINUOUS
 10
362.5777852445
 20
31.3778789641
 11
362.4621603548
 21
31.4424063369
  0
LINE
  8
0
 62
7
  6
CONTINUOUS
 10
368.3012227445
 20
30.7648688543
 11
368.4168479651
 21
30.6358140973
  0
LINE
  8
0
 62
7
  6
CONTINUOUS
 10
368.6480977445
 20
30.7003414814
 11
368.5902854651
 21
30.7648688543
  0
LINE
  8
0
 62
7
  6
CONTINUOUS
 10
368.3012227445
 20
31.2810879048
 11
368.4168479651
 21
31.1520331591
  0
LINE
  8
0
 62
7
  6
CONTINUOUS
 10
367.7809102445
 20
31.2810879048
 11
367.7230979651
 21
31.3778789641
  0
LINE
  8
0
 62
7
  6
CONTINUOUS
 10
370.1512223035
 20
30.7003414814
 11
370.1512223035
 21
30.7648688543
  0
LINE
  8
0
 62
7
  6
CONTINUOUS
 10
370.1556028675
 20
32.3100380288
 11
370.1556028675
 21
36.0805298321
  0
LINE
  8
0
 62
7
  6
CONTINUOUS
 10
363.2137226343
 20
31.4101426505
 11
363.1559103548
 21
31.3456152777
  0
LINE
  8
0
 62
7
  6
CONTINUOUS
 10
360.091847717
 20
31.3778789641
 11
360.2652852997
 21
31.3133515913
  0
LINE
  8
0
 62
7
  6
CONTINUOUS
 10
364.8324727445
 20
31.3778789641
 11
364.716847524
 21
31.4424063369
  0
LINE
  8
0
 62
7
  6
CONTINUOUS
 10
368.6480977445
 20
31.216560532
 11
368.5902854651
 21
31.2810879048
  0
LINE
  8
0
 62
7
  6
CONTINUOUS
 10
369.8043479651
 20
30.8293962497
 11
369.8621602445
 21
30.7648688543
  0
LINE
  8
0
 62
7
  6
CONTINUOUS
 10
370.1512223035
 20
30.7648688543
 11
370.0355977445
 21
30.8939236226
  0
LINE
  8
0
 62
7
  6
CONTINUOUS
 10
369.8043479651
 20
31.3456152777
 11
369.8621602445
 21
31.2810879048
  0
LINE
  8
0
 62
7
  6
CONTINUOUS
 10
370.1512223035
 20
31.2810879048
 11
370.0355977445
 21
31.4101426505
  0
LINE
  8
0
 62
7
  6
CONTINUOUS
 10
363.4449727445
 20
31.2810879048
 11
363.5027853548
 21
31.3456152777
  0
LINE
  8
0
 62
7
  6
CONTINUOUS
 10
363.2715352445
 20
31.0229783683
 11
363.1559103548
 21
30.8939236226
  0
LINE
  8
0
 62
7
  6
CONTINUOUS
 10
364.6012229651
 20
30.8616599362
 11
364.543410024
 21
30.7971325633
  0
LINE
  8
0
 62
7
  6
CONTINUOUS
 10
364.543410024
 20
30.6035504109
 11
364.6012229651
 21
30.668077795
  0
LINE
  8
0
 62
7
  6
CONTINUOUS
 10
363.3871601343
 20
30.5712867188
 11
363.5027853548
 21
30.5390230296
  0
LINE
  8
0
 62
7
  6
CONTINUOUS
 10
360.3809101894
 20
31.4424063369
 11
360.1496602445
 21
31.5069337098
  0
LINE
  8
0
 62
7
  6
CONTINUOUS
 10
363.7340351343
 20
30.6358140973
 11
363.5027853548
 21
30.7003414814
  0
LINE
  8
0
 62
7
  6
CONTINUOUS
 10
362.4621603548
 20
31.4424063369
 11
362.2887228548
 21
31.5069337098
  0
LINE
  8
0
 62
7
  6
CONTINUOUS
 10
364.716847524
 20
31.4424063369
 11
364.543410024
 21
31.5069337098
  0
LINE
  8
0
 62
7
  6
CONTINUOUS
 10
367.3762229651
 20
31.3456152777
 11
367.491847524
 21
31.2810879048
  0
LINE
  8
0
 62
7
  6
CONTINUOUS
 10
367.7230979651
 20
31.3778789641
 11
367.6074727445
 21
31.4424063369
  0
LINE
  8
0
 62
7
  6
CONTINUOUS
 10
359.2246602583
 20
30.5712867188
 11
359.3980977583
 21
30.5390230296
  0
LINE
  8
0
 62
7
  6
CONTINUOUS
 10
359.6871602721
 20
30.6358140973
 11
359.3402852307
 21
30.7003414814
  0
LINE
  8
0
 62
7
  6
CONTINUOUS
 10
362.1152853548
 20
31.3778789641
 11
362.2309102445
 21
31.3456152777
  0
LINE
  8
0
 62
7
  6
CONTINUOUS
 10
364.4277854651
 20
31.3778789641
 11
364.543410024
 21
31.3456152777
  0
LINE
  8
0
 62
7
  6
CONTINUOUS
 10
368.7637229651
 20
30.668077795
 11
368.6480977445
 21
30.7003414814
  0
LINE
  8
0
 62
7
  6
CONTINUOUS
 10
367.2605977445
 20
31.3778789641
 11
367.3762229651
 21
31.3456152777
  0
LINE
  8
0
 62
7
  6
CONTINUOUS
 10
368.4168479651
 20
30.6358140973
 11
368.5902854651
 21
30.5712867188
  0
LINE
  8
0
 62
7
  6
CONTINUOUS
 10
367.6074727445
 20
31.4424063369
 11
367.4340352445
 21
31.5069337098
  0
LINE
  8
0
 62
7
  6
CONTINUOUS
 10
368.8215352445
 20
31.1520331591
 11
368.6480977445
 21
31.216560532
  0
LINE
  8
0
 62
7
  6
CONTINUOUS
 10
369.6309104651
 20
30.8939236226
 11
369.8043479651
 21
30.8293962497
  0
LINE
  8
0
 62
7
  6
CONTINUOUS
 10
370.0355977445
 20
31.4101426505
 11
369.8621602445
 21
31.4746700234
  0
LINE
  8
0
 62
7
  6
CONTINUOUS
 10
368.4168479651
 20
31.1520331591
 11
368.6480977445
 21
31.0552420547
  0
LINE
  8
0
 62
7
  6
CONTINUOUS
 10
370.0355977445
 20
30.8939236226
 11
369.8043479651
 21
30.9907146818
  0
LINE
  8
0
 62
7
  6
CONTINUOUS
 10
368.5902854651
 20
31.2810879048
 11
368.6480977445
 21
31.3456152777
  0
LINE
  8
0
 62
7
  6
CONTINUOUS
 10
359.0512227376
 20
31.4101426505
 11
358.9355977445
 21
31.3456152777
  0
LINE
  8
0
 62
7
  6
CONTINUOUS
 10
359.1668477307
 20
31.2488242184
 11
359.3402852307
 21
31.3456152777
  0
LINE
  8
0
 62
7
  6
CONTINUOUS
 10
361.4793477997
 20
31.4424063369
 11
361.3637227445
 21
31.3778789641
  0
LINE
  8
0
 62
7
  6
CONTINUOUS
 10
361.3637227445
 20
31.2488242184
 11
361.4793477997
 21
31.3133515913
  0
LINE
  8
0
 62
7
  6
CONTINUOUS
 10
360.3809101894
 20
30.6035504109
 11
360.5543476894
 21
30.7003414814
  0
LINE
  8
0
 62
7
  6
CONTINUOUS
 10
359.3980977583
 20
30.5390230296
 11
359.744972717
 21
30.5067593403
  0
LINE
  8
0
 62
7
  6
CONTINUOUS
 10
363.5027853548
 20
30.5390230296
 11
363.7340351343
 21
30.5067593403
  0
LINE
  8
0
 62
7
  6
CONTINUOUS
 10
361.8840352445
 20
31.4101426505
 11
362.1152853548
 21
31.3778789641
  0
LINE
  8
0
 62
7
  6
CONTINUOUS
 10
364.1965353548
 20
31.4101426505
 11
364.4277854651
 21
31.3778789641
  0
LINE
  8
0
 62
7
  6
CONTINUOUS
 10
368.6480977445
 20
31.0552420547
 11
369.6309104651
 21
30.8939236226
  0
LINE
  8
0
 62
7
  6
CONTINUOUS
 10
369.8043479651
 20
30.9907146818
 11
368.8215352445
 21
31.1520331591
  0
LINE
  8
0
 62
7
  6
CONTINUOUS
 10
362.2887228548
 20
31.5069337098
 11
362.1152853548
 21
31.5391973962
  0
LINE
  8
0
 62
7
  6
CONTINUOUS
 10
368.5902854651
 20
30.5712867188
 11
368.7637229651
 21
30.5390230296
  0
LINE
  8
0
 62
7
  6
CONTINUOUS
 10
367.4340352445
 20
31.5069337098
 11
367.2605977445
 21
31.5391973962
  0
LINE
  8
0
 62
7
  6
CONTINUOUS
 10
369.6887227445
 20
31.3778789641
 11
369.8043479651
 21
31.3456152777
  0
LINE
  8
0
 62
7
  6
CONTINUOUS
 10
369.8621602445
 20
30.7648688543
 11
369.8043479651
 21
30.7003414814
  0
LINE
  8
0
 62
7
  6
CONTINUOUS
 10
368.4168479651
 20
31.4424063369
 11
368.3012227445
 21
31.3456152777
  0
LINE
  8
0
 62
7
  6
CONTINUOUS
 10
363.3293478548
 20
31.4746700234
 11
363.2137226343
 21
31.4101426505
  0
LINE
  8
0
 62
7
  6
CONTINUOUS
 10
363.3871601343
 20
31.0875057863
 11
363.2715352445
 21
31.0229783683
  0
LINE
  8
0
 62
7
  6
CONTINUOUS
 10
363.5027853548
 20
30.926187309
 11
363.6184102445
 21
30.9907146818
  0
LINE
  8
0
 62
7
  6
CONTINUOUS
 10
361.0746601894
 20
30.5067593403
 11
361.3637227445
 21
30.5067593403
  0
LINE
  8
0
 62
7
  6
CONTINUOUS
 10
362.4043477445
 20
30.5067593403
 11
362.6934101343
 21
30.5067593403
  0
LINE
  8
0
 62
7
  6
CONTINUOUS
 10
363.7340351343
 20
30.5067593403
 11
364.0809101343
 21
30.5067593403
  0
LINE
  8
0
 62
7
  6
CONTINUOUS
 10
364.716847524
 20
30.5067593403
 11
365.0059102445
 21
30.5067593403
  0
LINE
  8
0
 62
7
  6
CONTINUOUS
 10
365.4684104651
 20
30.5067593403
 11
365.757472524
 21
30.5067593403
  0
LINE
  8
0
 62
7
  6
CONTINUOUS
 10
366.2199727445
 20
30.5067593403
 11
366.5090354651
 21
30.5067593403
  0
LINE
  8
0
 62
7
  6
CONTINUOUS
 10
367.5496604651
 20
30.5067593403
 11
367.838722524
 21
30.5067593403
  0
LINE
  8
0
 62
7
  6
CONTINUOUS
 10
369.1105979651
 20
30.5067593403
 11
369.4574729651
 21
30.5067593403
  0
LINE
  8
0
 62
7
  6
CONTINUOUS
 10
369.4574729651
 20
30.6358140973
 11
369.1105979651
 21
30.6358140973
  0
LINE
  8
0
 62
7
  6
CONTINUOUS
 10
364.0809101343
 20
30.6358140973
 11
363.7340351343
 21
30.6358140973
  0
LINE
  8
0
 62
7
  6
CONTINUOUS
 10
368.5902854651
 20
30.7648688543
 11
368.3012227445
 21
30.7648688543
  0
LINE
  8
0
 62
7
  6
CONTINUOUS
 10
360.6121602997
 20
30.8293962497
 11
360.3230977445
 21
30.8293962497
  0
LINE
  8
0
 62
7
  6
CONTINUOUS
 10
359.6871602721
 20
31.4101426505
 11
360.091847717
 21
31.3778789641
  0
LINE
  8
0
 62
7
  6
CONTINUOUS
 10
360.1496602445
 20
31.5069337098
 11
359.744972717
 21
31.5391973962
  0
LINE
  8
0
 62
7
  6
CONTINUOUS
 10
368.7637229651
 20
30.5390230296
 11
369.1105979651
 21
30.5067593403
  0
LINE
  8
0
 62
7
  6
CONTINUOUS
 10
369.1105979651
 20
30.6358140973
 11
368.7637229651
 21
30.668077795
  0
LINE
  8
0
 62
7
  6
CONTINUOUS
 10
364.543410024
 20
31.5069337098
 11
364.1965353548
 21
31.5391973962
  0
LINE
  8
0
 62
7
  6
CONTINUOUS
 10
369.3418477445
 20
31.4101426505
 11
369.6887227445
 21
31.3778789641
  0
LINE
  8
0
 62
7
  6
CONTINUOUS
 10
369.6887227445
 20
31.5069337098
 11
369.3418477445
 21
31.5391973962
  0
LINE
  8
0
 62
7
  6
CONTINUOUS
 10
367.0293479651
 20
31.4101426505
 11
367.2605977445
 21
31.3778789641
  0
LINE
  8
0
 62
7
  6
CONTINUOUS
 10
369.8621602445
 20
31.4746700234
 11
369.6887227445
 21
31.5069337098
  0
LINE
  8
0
 62
7
  6
CONTINUOUS
 10
370.0355977445
 20
30.6035504109
 11
370.1512223035
 21
30.7003414814
  0
LINE
  8
0
 62
7
  6
CONTINUOUS
 10
364.543410024
 20
30.7971325633
 11
364.369972524
 21
30.7003414814
  0
LINE
  8
0
 62
7
  6
CONTINUOUS
 10
366.624660024
 20
31.4424063369
 11
366.5090354651
 21
31.3778789641
  0
LINE
  8
0
 62
7
  6
CONTINUOUS
 10
366.5090354651
 20
31.2488242184
 11
366.624660024
 21
31.3133515913
  0
LINE
  8
0
 62
7
  6
CONTINUOUS
 10
359.2246602583
 20
31.4746700234
 11
359.0512227376
 21
31.4101426505
  0
LINE
  8
0
 62
7
  6
CONTINUOUS
 10
361.6527851343
 20
31.5069337098
 11
361.4793477997
 21
31.4424063369
  0
LINE
  8
0
 62
7
  6
CONTINUOUS
 10
361.4793477997
 20
31.3133515913
 11
361.6527851343
 21
31.3778789641
  0
LINE
  8
0
 62
7
  6
CONTINUOUS
 10
360.2652852997
 20
30.7326051679
 11
360.091847717
 21
30.668077795
  0
LINE
  8
0
 62
7
  6
CONTINUOUS
 10
369.6887227445
 20
30.668077795
 11
369.4574729651
 21
30.6358140973
  0
LINE
  8
0
 62
7
  6
CONTINUOUS
 10
364.0809101343
 20
30.5067593403
 11
364.369972524
 21
30.5390230296
  0
LINE
  8
0
 62
7
  6
CONTINUOUS
 10
369.4574729651
 20
30.5067593403
 11
369.8043479651
 21
30.5390230296
  0
LINE
  8
0
 62
7
  6
CONTINUOUS
 10
359.744972717
 20
30.5067593403
 11
360.1496602445
 21
30.5390230296
  0
LINE
  8
0
 62
7
  6
CONTINUOUS
 10
360.091847717
 20
30.668077795
 11
359.6871602721
 21
30.6358140973
  0
LINE
  8
0
 62
7
  6
CONTINUOUS
 10
363.9652852445
 20
31.0552420547
 11
364.6012229651
 21
31.0552420547
  0
LINE
  8
0
 62
7
  6
CONTINUOUS
 10
364.6012229651
 20
31.1842968456
 11
363.9652852445
 21
31.1842968456
  0
LINE
  8
0
 62
7
  6
CONTINUOUS
 10
360.3230977445
 20
31.216560532
 11
360.6121602997
 21
31.216560532
  0
LINE
  8
0
 62
7
  6
CONTINUOUS
 10
363.1559103548
 20
31.2810879048
 11
363.4449727445
 21
31.2810879048
  0
LINE
  8
0
 62
7
  6
CONTINUOUS
 10
369.8621602445
 20
31.2810879048
 11
370.1512223035
 21
31.2810879048
  0
LINE
  8
0
 62
7
  6
CONTINUOUS
 10
363.8496603548
 20
31.4101426505
 11
364.1965353548
 21
31.4101426505
  0
LINE
  8
0
 62
7
  6
CONTINUOUS
 10
368.9949727445
 20
31.4101426505
 11
369.3418477445
 21
31.4101426505
  0
LINE
  8
0
 62
7
  6
CONTINUOUS
 10
369.3418477445
 20
31.5391973962
 11
368.9949727445
 21
31.5391973962
  0
LINE
  8
0
 62
7
  6
CONTINUOUS
 10
367.2605977445
 20
31.5391973962
 11
367.0293479651
 21
31.5391973962
  0
LINE
  8
0
 62
7
  6
CONTINUOUS
 10
366.5090354651
 20
31.5391973962
 11
366.2199727445
 21
31.5391973962
  0
LINE
  8
0
 62
7
  6
CONTINUOUS
 10
365.757472524
 20
31.5391973962
 11
365.4684104651
 21
31.5391973962
  0
LINE
  8
0
 62
7
  6
CONTINUOUS
 10
364.1965353548
 20
31.5391973962
 11
363.8496603548
 21
31.5391973962
  0
LINE
  8
0
 62
7
  6
CONTINUOUS
 10
362.1152853548
 20
31.5391973962
 11
361.8840352445
 21
31.5391973962
  0
LINE
  8
0
 62
7
  6
CONTINUOUS
 10
365.4684104651
 20
31.8618343508
 11
365.757472524
 21
31.8618343508
  0
LINE
  8
0
 62
7
  6
CONTINUOUS
 10
365.757472524
 20
32.0231527829
 11
365.4684104651
 21
32.0231527829
  0
LINE
  8
0
 62
7
  6
CONTINUOUS
 10
361.3637227445
 20
32.0231527829
 11
361.0746601894
 21
32.0231527829
  0
LINE
  8
0
 62
7
  6
CONTINUOUS
 10
360.4015045068
 20
32.3100380288
 11
360.8140758554
 21
32.3100380288
  0
LINE
  8
0
 62
7
  6
CONTINUOUS
 10
362.0408487691
 20
32.3100380288
 11
363.4342913921
 21
32.3100380288
  0
LINE
  8
0
 62
7
  6
CONTINUOUS
 10
363.7621602445
 20
32.3100380288
 11
365.1556028675
 21
32.3100380288
  0
LINE
  8
0
 62
7
  6
CONTINUOUS
 10
367.0408487691
 20
32.3100380288
 11
368.4342913921
 21
32.3100380288
  0
LINE
  8
0
 62
7
  6
CONTINUOUS
 10
368.7621602445
 20
32.3100380288
 11
370.1556028675
 21
32.3100380288
  0
LINE
  8
0
 62
7
  6
CONTINUOUS
 10
366.798097524
 20
31.5069337098
 11
366.624660024
 21
31.4424063369
  0
LINE
  8
0
 62
7
  6
CONTINUOUS
 10
364.369972524
 20
30.5390230296
 11
364.543410024
 21
30.6035504109
  0
LINE
  8
0
 62
7
  6
CONTINUOUS
 10
369.8043479651
 20
30.5390230296
 11
370.0355977445
 21
30.6035504109
  0
LINE
  8
0
 62
7
  6
CONTINUOUS
 10
369.8043479651
 20
30.7003414814
 11
369.6887227445
 21
30.668077795
  0
LINE
  8
0
 62
7
  6
CONTINUOUS
 10
368.7637229651
 20
31.3778789641
 11
368.9949727445
 21
31.4101426505
  0
LINE
  8
0
 62
7
  6
CONTINUOUS
 10
366.798097524
 20
31.3778789641
 11
367.0293479651
 21
31.4101426505
  0
LINE
  8
0
 62
7
  6
CONTINUOUS
 10
363.7340351343
 20
31.0229783683
 11
363.9652852445
 21
31.0552420547
  0
LINE
  8
0
 62
7
  6
CONTINUOUS
 10
367.0293479651
 20
31.5391973962
 11
366.798097524
 21
31.5069337098
  0
LINE
  8
0
 62
7
  6
CONTINUOUS
 10
363.6184102445
 20
31.3778789641
 11
363.8496603548
 21
31.4101426505
  0
LINE
  8
0
 62
7
  6
CONTINUOUS
 10
368.9949727445
 20
31.5391973962
 11
368.6480977445
 21
31.5069337098
  0
LINE
  8
0
 62
7
  6
CONTINUOUS
 10
363.9652852445
 20
31.1842968456
 11
363.6184102445
 21
31.1520331591
  0
LINE
  8
0
 62
7
  6
CONTINUOUS
 10
359.744972717
 20
31.5391973962
 11
359.3980977583
 21
31.5069337098
  0
LINE
  8
0
 62
7
  6
CONTINUOUS
 10
363.8496603548
 20
31.5391973962
 11
363.4449727445
 21
31.5069337098
  0
LINE
  8
0
 62
7
  6
CONTINUOUS
 10
361.221176638
 20
33.4575790124
 11
360.565438933
 21
33.4575790124
  0
LINE
  8
0
 62
7
  6
CONTINUOUS
 10
366.624660024
 20
31.3133515913
 11
366.798097524
 21
31.3778789641
  0
LINE
  8
0
 62
7
  6
CONTINUOUS
 10
368.6480977445
 20
31.3456152777
 11
368.7637229651
 21
31.3778789641
  0
LINE
  8
0
 62
7
  6
CONTINUOUS
 10
368.6480977445
 20
31.5069337098
 11
368.4168479651
 21
31.4424063369
  0
LINE
  8
0
 62
7
  6
CONTINUOUS
 10
364.369972524
 20
30.7003414814
 11
364.0809101343
 21
30.6358140973
  0
LINE
  8
0
 62
7
  6
CONTINUOUS
 10
361.6527851343
 20
31.3778789641
 11
361.8840352445
 21
31.4101426505
  0
LINE
  8
0
 62
7
  6
CONTINUOUS
 10
361.8840352445
 20
31.5391973962
 11
361.6527851343
 21
31.5069337098
  0
LINE
  8
0
 62
7
  6
CONTINUOUS
 10
359.4559102445
 20
31.3778789641
 11
359.6871602721
 21
31.4101426505
  0
LINE
  8
0
 62
7
  6
CONTINUOUS
 10
365.9752749986
 20
34.9329888485
 11
366.6310127035
 21
34.9329888485
  0
LINE
  8
0
 62
7
  6
CONTINUOUS
 10
363.6184102445
 20
30.9907146818
 11
363.7340351343
 21
31.0229783683
  0
LINE
  8
0
 62
7
  6
CONTINUOUS
 10
363.6184102445
 20
31.1520331591
 11
363.3871601343
 21
31.0875057863
  0
LINE
  8
0
 62
7
  6
CONTINUOUS
 10
363.5027853548
 20
31.3456152777
 11
363.6184102445
 21
31.3778789641
  0
LINE
  8
0
 62
7
  6
CONTINUOUS
 10
360.1496602445
 20
30.5390230296
 11
360.3809101894
 21
30.6035504109
  0
LINE
  8
0
 62
7
  6
CONTINUOUS
 10
363.4449727445
 20
31.5069337098
 11
363.3293478548
 21
31.4746700234
  0
LINE
  8
0
 62
7
  6
CONTINUOUS
 10
359.3980977583
 20
31.5069337098
 11
359.2246602583
 21
31.4746700234
  0
LINE
  8
0
 62
7
  6
CONTINUOUS
 10
370.1556028675
 20
36.0805298321
 11
368.7621602445
 21
36.0805298321
  0
LINE
  8
0
 62
7
  6
CONTINUOUS
 10
366.7949471298
 20
36.0805298321
 11
366.3823757812
 21
36.0805298321
  0
LINE
  8
0
 62
7
  6
CONTINUOUS
 10
365.1556028675
 20
36.0805298321
 11
363.7621602445
 21
36.0805298321
  0
LINE
  8
0
 62
7
  6
CONTINUOUS
 10
363.4342913921
 20
36.0805298321
 11
362.0408487691
 21
36.0805298321
  0
LINE
  8
0
 62
7
  6
CONTINUOUS
 10
360.1556028675
 20
36.0805298321
 11
358.7621602445
 21
36.0805298321
  0
LINE
  8
0
 62
7
  6
CONTINUOUS
 10
359.3402852307
 20
31.3456152777
 11
359.4559102445
 21
31.3778789641
  0
CIRCLE
  8
0
 62
7
  6
CONTINUOUS
 10
369.458881556
 20
38.4165954059
 40
2.0901639344
  0
ARC
  8
0
 62
7
  6
CONTINUOUS
 10
360.4015045068
 20
33.9493822911
 40
1.6393442623
 50
180.0
 51
270.0
  0
ARC
  8
0
 62
7
  6
CONTINUOUS
 10
366.7949471298
 20
34.4411855698
 40
1.6393442623
 50
0.0
 51
90.0
  0
ARC
  8
0
 62
7
  6
CONTINUOUS
 10
360.8140758554
 20
33.7854478649
 40
1.4754098361
 50
270.0
 51
326.2510114041
  0
ARC
  8
0
 62
7
  6
CONTINUOUS
 10
366.3823757812
 20
34.6051199961
 40
1.4754098361
 50
90.0
 51
146.2510114041
  0
ARC
  8
0
 62
7
  6
CONTINUOUS
 10
361.221176638
 20
34.2772511436
 40
0.8196721311
 50
270.0
 51
360.0
  0
ARC
  8
0
 62
7
  6
CONTINUOUS
 10
365.9752749986
 20
34.1133167174
 40
0.8196721311
 50
90.0
 51
180.0
  0
ARC
  8
0
 62
7
  6
CONTINUOUS
 10
360.565438933
 20
33.867415078
 40
0.4098360656
 50
180.0
 51
270.0
  0
ARC
  8
0
 62
7
  6
CONTINUOUS
 10
366.6310127035
 20
34.5231527829
 40
0.4098360656
 50
0.0
 51
90.0
  0
SOLID
  8
0
 62
7
  6
CONTINUOUS
 10
365.4684104651
 20
31.8618347111
 11
365.4684104651
 21
32.0231531947
 12
365.757472524
 22
31.8618347111
 13
365.757472524
 23
32.0231531947
  0
SOLID
  8
0
 62
7
  6
CONTINUOUS
 10
359.744972717
 20
31.5391977439
 11
360.1496602445
 21
31.5069333244
 12
359.3980977583
 22
31.5069333244
 13
359.3980977583
 23
31.5069333244
  0
SOLID
  8
0
 62
7
  6
CONTINUOUS
 10
359.2246602583
 20
31.4746706537
 11
359.3980977583
 21
31.5069333244
 12
360.1496602445
 22
31.5069333244
 13
360.1496602445
 23
31.5069333244
  0
SOLID
  8
0
 62
7
  6
CONTINUOUS
 10
360.1496602445
 20
31.5069333244
 11
360.3809101894
 21
31.4424063504
 12
359.2246602583
 22
31.4746706537
 13
359.2246602583
 23
31.4746706537
  0
SOLID
  8
0
 62
7
  6
CONTINUOUS
 10
359.0512227376
 20
31.4101419116
 11
359.2246602583
 21
31.4746706537
 12
360.3809101894
 22
31.4424063504
 13
360.3809101894
 23
31.4424063504
  0
SOLID
  8
0
 62
7
  6
CONTINUOUS
 10
359.0512227376
 20
31.4101419116
 11
360.3809101894
 21
31.4424063504
 12
359.6871602721
 22
31.4101419116
 13
359.6871602721
 23
31.4101419116
  0
SOLID
  8
0
 62
7
  6
CONTINUOUS
 10
359.6871602721
 20
31.4101419116
 11
360.3809101894
 21
31.4424063504
 12
360.091847717
 22
31.3778792603
 13
360.091847717
 23
31.3778792603
  0
SOLID
  8
0
 62
7
  6
CONTINUOUS
 10
360.3809101894
 20
31.4424063504
 11
360.5543476894
 21
31.345614957
 12
360.091847717
 22
31.3778792603
 13
360.091847717
 23
31.3778792603
  0
SOLID
  8
0
 62
7
  6
CONTINUOUS
 10
360.2652852997
 20
31.3133521701
 11
360.091847717
 21
31.3778792603
 12
360.5543476894
 22
31.345614957
 13
360.5543476894
 23
31.345614957
  0
SOLID
  8
0
 62
7
  6
CONTINUOUS
 10
360.2652852997
 20
31.3133521701
 11
360.5543476894
 21
31.345614957
 12
360.3230977445
 22
31.2165606992
 13
360.3230977445
 23
31.2165606992
  0
SOLID
  8
0
 62
7
  6
CONTINUOUS
 10
360.5543476894
 20
31.345614957
 11
360.6121602997
 21
31.2165606992
 12
360.3230977445
 22
31.2165606992
 13
360.3230977445
 23
31.2165606992
  0
SOLID
  8
0
 62
7
  6
CONTINUOUS
 10
361.6527851343
 20
31.5069329918
 11
361.8840352445
 21
31.5391972951
 12
362.1152853548
 22
31.5391972951
 13
362.1152853548
 23
31.5391972951
  0
SOLID
  8
0
 62
7
  6
CONTINUOUS
 10
362.1152853548
 20
31.5391972951
 11
362.2887228548
 21
31.5069329918
 12
361.6527851343
 22
31.5069329918
 13
361.6527851343
 23
31.5069329918
  0
SOLID
  8
0
 62
7
  6
CONTINUOUS
 10
361.4793477997
 20
31.4424059016
 11
361.6527851343
 21
31.5069329918
 12
362.2887228548
 22
31.5069329918
 13
362.2887228548
 23
31.5069329918
  0
SOLID
  8
0
 62
7
  6
CONTINUOUS
 10
362.2887228548
 20
31.5069329918
 11
362.4621603548
 21
31.4424059016
 12
361.4793477997
 22
31.4424059016
 13
361.4793477997
 23
31.4424059016
  0
SOLID
  8
0
 62
7
  6
CONTINUOUS
 10
362.4621603548
 20
31.4424059016
 11
361.8840352445
 21
31.4101420472
 12
361.4793477997
 22
31.4424059016
 13
361.4793477997
 23
31.4424059016
  0
SOLID
  8
0
 62
7
  6
CONTINUOUS
 10
361.3637227445
 20
31.3778788115
 11
361.4793477997
 21
31.4424059016
 12
361.8840352445
 22
31.4101420472
 13
361.8840352445
 23
31.4101420472
  0
SOLID
  8
0
 62
7
  6
CONTINUOUS
 10
361.8840352445
 20
31.4101420472
 11
361.6527851343
 21
31.3778788115
 12
361.3637227445
 22
31.3778788115
 13
361.3637227445
 23
31.3778788115
  0
SOLID
  8
0
 62
7
  6
CONTINUOUS
 10
361.8840352445
 20
31.4101420472
 11
362.4621603548
 21
31.4424059016
 12
362.1152853548
 22
31.3778788115
 13
362.1152853548
 23
31.3778788115
  0
SOLID
  8
0
 62
7
  6
CONTINUOUS
 10
362.4621603548
 20
31.4424059016
 11
362.5777852445
 21
31.3778788115
 12
362.1152853548
 22
31.3778788115
 13
362.1152853548
 23
31.3778788115
  0
SOLID
  8
0
 62
7
  6
CONTINUOUS
 10
362.2309102445
 20
31.345614957
 11
362.1152853548
 21
31.3778788115
 12
362.5777852445
 22
31.3778788115
 13
362.5777852445
 23
31.3778788115
  0
SOLID
  8
0
 62
7
  6
CONTINUOUS
 10
362.5777852445
 20
31.3778788115
 11
362.6355978548
 21
31.3133517213
 12
362.2309102445
 22
31.345614957
 13
362.2309102445
 23
31.345614957
  0
SOLID
  8
0
 62
7
  6
CONTINUOUS
 10
362.3465351343
 20
31.2810878668
 11
362.2309102445
 21
31.345614957
 12
362.6355978548
 22
31.3133517213
 13
362.6355978548
 23
31.3133517213
  0
SOLID
  8
0
 62
7
  6
CONTINUOUS
 10
362.3465351343
 20
31.2810878668
 11
362.6355978548
 21
31.3133517213
 12
362.4043477445
 22
31.1520332377
 13
362.4043477445
 23
31.1520332377
  0
SOLID
  8
0
 62
7
  6
CONTINUOUS
 10
362.6355978548
 20
31.3133517213
 11
362.6934101343
 21
31.1520332377
 12
362.4043477445
 22
31.1520332377
 13
362.4043477445
 23
31.1520332377
  0
SOLID
  8
0
 62
7
  6
CONTINUOUS
 10
361.6527851343
 20
31.3778788115
 11
361.4793477997
 21
31.3133517213
 12
361.3637227445
 22
31.3778788115
 13
361.3637227445
 23
31.3778788115
  0
SOLID
  8
0
 62
7
  6
CONTINUOUS
 10
361.4793477997
 20
31.3133517213
 11
361.3637227445
 21
31.2488235635
 12
361.3637227445
 22
31.3778788115
 13
361.3637227445
 23
31.3778788115
  0
SOLID
  8
0
 62
7
  6
CONTINUOUS
 10
361.3637227445
 20
31.2488235635
 11
361.0746601894
 21
30.5067593033
 12
361.3637227445
 22
31.3778788115
 13
361.3637227445
 23
31.3778788115
  0
SOLID
  8
0
 62
7
  6
CONTINUOUS
 10
361.3637227445
 20
31.3778788115
 11
361.0746601894
 21
30.5067593033
 12
361.3637227445
 22
32.0231527459
 13
361.3637227445
 23
32.0231527459
  0
SOLID
  8
0
 62
7
  6
CONTINUOUS
 10
361.0746601894
 20
30.5067593033
 11
361.0746601894
 21
32.0231527459
 12
361.3637227445
 22
32.0231527459
 13
361.3637227445
 23
32.0231527459
  0
SOLID
  8
0
 62
7
  6
CONTINUOUS
 10
361.3637227445
 20
31.2488235635
 11
361.3637227445
 21
30.5067593033
 12
361.0746601894
 22
30.5067593033
 13
361.0746601894
 23
30.5067593033
  0
SOLID
  8
0
 62
7
  6
CONTINUOUS
 10
362.4043477445
 20
30.5067593033
 11
362.4043477445
 21
31.1520332377
 12
362.6934101343
 22
31.1520332377
 13
362.6934101343
 23
31.1520332377
  0
SOLID
  8
0
 62
7
  6
CONTINUOUS
 10
362.6934101343
 20
31.1520332377
 11
362.6934101343
 21
30.5067593033
 12
362.4043477445
 22
30.5067593033
 13
362.4043477445
 23
30.5067593033
  0
SOLID
  8
0
 62
7
  6
CONTINUOUS
 10
363.4449727445
 20
31.506933758
 11
363.8496603548
 21
31.5391977507
 12
364.1965353548
 22
31.5391977507
 13
364.1965353548
 23
31.5391977507
  0
SOLID
  8
0
 62
7
  6
CONTINUOUS
 10
364.1965353548
 20
31.5391977507
 11
364.543410024
 21
31.506933758
 12
363.4449727445
 22
31.506933758
 13
363.4449727445
 23
31.506933758
  0
SOLID
  8
0
 62
7
  6
CONTINUOUS
 10
363.3293478548
 20
31.4746706537
 11
363.4449727445
 21
31.506933758
 12
364.543410024
 22
31.506933758
 13
364.543410024
 23
31.506933758
  0
SOLID
  8
0
 62
7
  6
CONTINUOUS
 10
364.543410024
 20
31.506933758
 11
364.716847524
 21
31.4424063504
 12
363.3293478548
 22
31.4746706537
 13
363.3293478548
 23
31.4746706537
  0
SOLID
  8
0
 62
7
  6
CONTINUOUS
 10
363.2137226343
 20
31.4101417797
 11
363.3293478548
 21
31.4746706537
 12
364.716847524
 22
31.4424063504
 13
364.716847524
 23
31.4424063504
  0
SOLID
  8
0
 62
7
  6
CONTINUOUS
 10
363.2137226343
 20
31.4101417797
 11
364.716847524
 21
31.4424063504
 12
363.8496603548
 22
31.4101417797
 13
363.8496603548
 23
31.4101417797
  0
SOLID
  8
0
 62
7
  6
CONTINUOUS
 10
363.8496603548
 20
31.4101417797
 11
364.716847524
 21
31.4424063504
 12
364.1965353548
 22
31.4101417797
 13
364.1965353548
 23
31.4101417797
  0
SOLID
  8
0
 62
7
  6
CONTINUOUS
 10
364.1965353548
 20
31.4101417797
 11
364.716847524
 21
31.4424063504
 12
364.4277854651
 22
31.3778793357
 13
364.4277854651
 23
31.3778793357
  0
SOLID
  8
0
 62
7
  6
CONTINUOUS
 10
364.716847524
 20
31.4424063504
 11
364.8324727445
 21
31.3778793357
 12
364.4277854651
 22
31.3778793357
 13
364.4277854651
 23
31.3778793357
  0
SOLID
  8
0
 62
7
  6
CONTINUOUS
 10
363.1559103548
 20
31.3456153429
 11
363.2137226343
 21
31.4101417797
 12
363.8496603548
 22
31.4101417797
 13
363.8496603548
 23
31.4101417797
  0
SOLID
  8
0
 62
7
  6
CONTINUOUS
 10
364.543410024
 20
31.3456153429
 11
364.4277854651
 21
31.3778793357
 12
364.8324727445
 22
31.3778793357
 13
364.8324727445
 23
31.3778793357
  0
SOLID
  8
0
 62
7
  6
CONTINUOUS
 10
364.543410024
 20
31.3456153429
 11
364.8324727445
 21
31.3778793357
 12
364.6012229651
 22
31.2810881318
 13
364.6012229651
 23
31.2810881318
  0
SOLID
  8
0
 62
7
  6
CONTINUOUS
 10
364.8324727445
 20
31.3778793357
 11
364.890285024
 21
31.2810881318
 12
364.6012229651
 22
31.2810881318
 13
364.6012229651
 23
31.2810881318
  0
SOLID
  8
0
 62
7
  6
CONTINUOUS
 10
364.6012229651
 20
31.1842964734
 11
364.6012229651
 21
31.2810881318
 12
364.890285024
 22
31.2810881318
 13
364.890285024
 23
31.2810881318
  0
SOLID
  8
0
 62
7
  6
CONTINUOUS
 10
364.6012229651
 20
31.1842964734
 11
364.890285024
 21
31.2810881318
 12
364.6012229651
 22
31.0552422931
 13
364.6012229651
 23
31.0552422931
  0
SOLID
  8
0
 62
7
  6
CONTINUOUS
 10
364.6012229651
 20
31.0552422931
 11
364.890285024
 21
31.2810881318
 12
364.6012229651
 22
30.8616599362
 13
364.6012229651
 23
30.8616599362
  0
SOLID
  8
0
 62
7
  6
CONTINUOUS
 10
364.890285024
 20
31.2810881318
 11
364.890285024
 21
30.7648681127
 12
364.6012229651
 22
30.8616599362
 13
364.6012229651
 23
30.8616599362
  0
SOLID
  8
0
 62
7
  6
CONTINUOUS
 10
366.798097524
 20
31.5069339419
 11
367.0293479651
 21
31.5391976292
 12
367.2605977445
 22
31.5391976292
 13
367.2605977445
 23
31.5391976292
  0
SOLID
  8
0
 62
7
  6
CONTINUOUS
 10
367.2605977445
 20
31.5391976292
 11
367.4340352445
 21
31.5069339419
 12
366.798097524
 22
31.5069339419
 13
366.798097524
 23
31.5069339419
  0
SOLID
  8
0
 62
7
  6
CONTINUOUS
 10
366.624660024
 20
31.4424065674
 11
366.798097524
 21
31.5069339419
 12
367.4340352445
 22
31.5069339419
 13
367.4340352445
 23
31.5069339419
  0
SOLID
  8
0
 62
7
  6
CONTINUOUS
 10
367.4340352445
 20
31.5069339419
 11
367.6074727445
 21
31.4424065674
 12
366.624660024
 22
31.4424065674
 13
366.624660024
 23
31.4424065674
  0
SOLID
  8
0
 62
7
  6
CONTINUOUS
 10
367.6074727445
 20
31.4424065674
 11
367.0293479651
 21
31.4101420472
 12
366.624660024
 22
31.4424065674
 13
366.624660024
 23
31.4424065674
  0
SOLID
  8
0
 62
7
  6
CONTINUOUS
 10
366.5090354651
 20
31.377879193
 11
366.624660024
 21
31.4424065674
 12
367.0293479651
 22
31.4101420472
 13
367.0293479651
 23
31.4101420472
  0
SOLID
  8
0
 62
7
  6
CONTINUOUS
 10
367.0293479651
 20
31.4101420472
 11
366.798097524
 21
31.377879193
 12
366.5090354651
 22
31.377879193
 13
366.5090354651
 23
31.377879193
  0
SOLID
  8
0
 62
7
  6
CONTINUOUS
 10
367.0293479651
 20
31.4101420472
 11
367.6074727445
 21
31.4424065674
 12
367.2605977445
 22
31.377879193
 13
367.2605977445
 23
31.377879193
  0
SOLID
  8
0
 62
7
  6
CONTINUOUS
 10
367.6074727445
 20
31.4424065674
 11
367.7230979651
 21
31.377879193
 12
367.2605977445
 22
31.377879193
 13
367.2605977445
 23
31.377879193
  0
SOLID
  8
0
 62
7
  6
CONTINUOUS
 10
367.3762229651
 20
31.345614957
 11
367.2605977445
 21
31.377879193
 12
367.7230979651
 22
31.377879193
 13
367.7230979651
 23
31.377879193
  0
SOLID
  8
0
 62
7
  6
CONTINUOUS
 10
367.3762229651
 20
31.345614957
 11
367.7230979651
 21
31.377879193
 12
367.491847524
 22
31.2810881312
 13
367.491847524
 23
31.2810881312
  0
SOLID
  8
0
 62
7
  6
CONTINUOUS
 10
367.7230979651
 20
31.377879193
 11
367.7809102445
 21
31.2810881312
 12
367.491847524
 22
31.2810881312
 13
367.491847524
 23
31.2810881312
  0
SOLID
  8
0
 62
7
  6
CONTINUOUS
 10
367.5496604651
 20
31.119769695
 11
367.491847524
 21
31.2810881312
 12
367.7809102445
 22
31.2810881312
 13
367.7809102445
 23
31.2810881312
  0
SOLID
  8
0
 62
7
  6
CONTINUOUS
 10
367.7809102445
 20
31.2810881312
 11
367.838722524
 21
31.119769695
 12
367.5496604651
 22
31.119769695
 13
367.5496604651
 23
31.119769695
  0
SOLID
  8
0
 62
7
  6
CONTINUOUS
 10
366.798097524
 20
31.377879193
 11
366.624660024
 21
31.3133521701
 12
366.5090354651
 22
31.377879193
 13
366.5090354651
 23
31.377879193
  0
SOLID
  8
0
 62
7
  6
CONTINUOUS
 10
366.624660024
 20
31.3133521701
 11
366.5090354651
 21
31.2488235635
 12
366.5090354651
 22
31.377879193
 13
366.5090354651
 23
31.377879193
  0
SOLID
  8
0
 62
7
  6
CONTINUOUS
 10
366.5090354651
 20
31.2488235635
 11
366.2199727445
 21
30.5067596374
 12
366.5090354651
 22
31.377879193
 13
366.5090354651
 23
31.377879193
  0
SOLID
  8
0
 62
7
  6
CONTINUOUS
 10
366.5090354651
 20
31.377879193
 11
366.2199727445
 21
30.5067596374
 12
366.5090354651
 22
31.5391976292
 13
366.5090354651
 23
31.5391976292
  0
SOLID
  8
0
 62
7
  6
CONTINUOUS
 10
366.2199727445
 20
30.5067596374
 11
366.2199727445
 21
31.5391976292
 12
366.5090354651
 22
31.5391976292
 13
366.5090354651
 23
31.5391976292
  0
SOLID
  8
0
 62
7
  6
CONTINUOUS
 10
366.5090354651
 20
31.2488235635
 11
366.5090354651
 21
30.5067596374
 12
366.2199727445
 22
30.5067596374
 13
366.2199727445
 23
30.5067596374
  0
SOLID
  8
0
 62
7
  6
CONTINUOUS
 10
367.5496604651
 20
30.5067596374
 11
367.5496604651
 21
31.119769695
 12
367.838722524
 22
31.119769695
 13
367.838722524
 23
31.119769695
  0
SOLID
  8
0
 62
7
  6
CONTINUOUS
 10
367.838722524
 20
31.119769695
 11
367.838722524
 21
30.5067596374
 12
367.5496604651
 22
30.5067596374
 13
367.5496604651
 23
30.5067596374
  0
SOLID
  8
0
 62
7
  6
CONTINUOUS
 10
368.6480977445
 20
31.5069334157
 11
368.9949727445
 21
31.539197762
 12
369.3418477445
 22
31.539197762
 13
369.3418477445
 23
31.539197762
  0
SOLID
  8
0
 62
7
  6
CONTINUOUS
 10
369.3418477445
 20
31.539197762
 11
369.6887227445
 21
31.5069334157
 12
368.6480977445
 22
31.5069334157
 13
368.6480977445
 23
31.5069334157
  0
SOLID
  8
0
 62
7
  6
CONTINUOUS
 10
368.4168479651
 20
31.4424063504
 11
368.6480977445
 21
31.5069334157
 12
369.6887227445
 22
31.5069334157
 13
369.6887227445
 23
31.5069334157
  0
SOLID
  8
0
 62
7
  6
CONTINUOUS
 10
368.4168479651
 20
31.4424063504
 11
369.6887227445
 21
31.5069334406
 12
369.8621602445
 22
31.4746706537
 13
369.8621602445
 23
31.4746706537
  0
SOLID
  8
0
 62
7
  6
CONTINUOUS
 10
368.4168479651
 20
31.4424063504
 11
369.8621602445
 21
31.4746706537
 12
368.9949727445
 22
31.4101421267
 13
368.9949727445
 23
31.4101421267
  0
SOLID
  8
0
 62
7
  6
CONTINUOUS
 10
368.9949727445
 20
31.4101421267
 11
369.8621602445
 21
31.4746706537
 12
369.3418477445
 22
31.4101421267
 13
369.3418477445
 23
31.4101421267
  0
SOLID
  8
0
 62
7
  6
CONTINUOUS
 10
369.8621602445
 20
31.4746706537
 11
370.0355977445
 21
31.4101421267
 12
369.3418477445
 22
31.4101421267
 13
369.3418477445
 23
31.4101421267
  0
SOLID
  8
0
 62
7
  6
CONTINUOUS
 10
369.6887227445
 20
31.3778792603
 11
369.3418477445
 21
31.4101421267
 12
370.0355977445
 22
31.4101421267
 13
370.0355977445
 23
31.4101421267
  0
SOLID
  8
0
 62
7
  6
CONTINUOUS
 10
368.3012227445
 20
31.3456148845
 11
368.4168479651
 21
31.4424063504
 12
368.9949727445
 22
31.4101421267
 13
368.9949727445
 23
31.4101421267
  0
SOLID
  8
0
 62
7
  6
CONTINUOUS
 10
369.6887227445
 20
31.3778792603
 11
370.0355977445
 21
31.4101421267
 12
369.8043479651
 22
31.3456148845
 13
369.8043479651
 23
31.3456148845
  0
SOLID
  8
0
 62
7
  6
CONTINUOUS
 10
369.8043479651
 20
31.3456148845
 11
370.0355977445
 21
31.4101421267
 12
369.8621602445
 22
31.281087868
 13
369.8621602445
 23
31.281087868
  0
SOLID
  8
0
 62
7
  6
CONTINUOUS
 10
370.0355977445
 20
31.4101421267
 11
370.1512223035
 21
31.281087868
 12
369.8621602445
 22
31.281087868
 13
369.8621602445
 23
31.281087868
  0
SOLID
  8
0
 62
7
  6
CONTINUOUS
 10
359.4559102445
 20
31.3778792603
 11
358.9355977445
 21
31.3456148963
 12
359.6871602721
 22
31.4101421155
 13
359.6871602721
 23
31.4101421155
  0
SOLID
  8
0
 62
7
  6
CONTINUOUS
 10
358.9355977445
 20
31.3456148963
 11
359.0512227376
 21
31.4101421155
 12
359.6871602721
 22
31.4101421155
 13
359.6871602721
 23
31.4101421155
  0
SOLID
  8
0
 62
7
  6
CONTINUOUS
 10
359.4559102445
 20
31.3778792603
 11
359.3402852307
 21
31.3456148963
 12
358.9355977445
 22
31.3456148963
 13
358.9355977445
 23
31.3456148963
  0
SOLID
  8
0
 62
7
  6
CONTINUOUS
 10
358.8199727462
 20
31.2165607767
 11
358.9355977445
 21
31.3456148963
 12
359.3402852307
 22
31.3456148963
 13
359.3402852307
 23
31.3456148963
  0
SOLID
  8
0
 62
7
  6
CONTINUOUS
 10
363.1559103548
 20
31.3456149608
 11
363.8496603548
 21
31.4101420472
 12
363.6184102445
 22
31.3778792603
 13
363.6184102445
 23
31.3778792603
  0
SOLID
  8
0
 62
7
  6
CONTINUOUS
 10
363.6184102445
 20
31.3778792603
 11
363.5027853548
 21
31.3456149608
 12
363.1559103548
 22
31.3456149608
 13
363.1559103548
 23
31.3456149608
  0
SOLID
  8
0
 62
7
  6
CONTINUOUS
 10
363.1559103548
 20
31.2810878707
 11
363.1559103548
 21
31.3456149608
 12
363.5027853548
 22
31.3456149608
 13
363.5027853548
 23
31.3456149608
  0
SOLID
  8
0
 62
7
  6
CONTINUOUS
 10
363.5027853548
 20
31.3456149608
 11
363.4449727445
 21
31.2810878707
 12
363.1559103548
 22
31.2810878707
 13
363.1559103548
 23
31.2810878707
  0
SOLID
  8
0
 62
7
  6
CONTINUOUS
 10
368.3012227445
 20
31.3456149608
 11
368.9949727445
 21
31.4101420472
 12
368.7637229651
 22
31.3778792603
 13
368.7637229651
 23
31.3778792603
  0
SOLID
  8
0
 62
7
  6
CONTINUOUS
 10
368.7637229651
 20
31.3778792603
 11
368.6480977445
 21
31.3456149608
 12
368.3012227445
 22
31.3456149608
 13
368.3012227445
 23
31.3456149608
  0
SOLID
  8
0
 62
7
  6
CONTINUOUS
 10
368.3012227445
 20
31.2810878707
 11
368.3012227445
 21
31.3456149608
 12
368.6480977445
 22
31.3456149608
 13
368.6480977445
 23
31.3456149608
  0
SOLID
  8
0
 62
7
  6
CONTINUOUS
 10
368.6480977445
 20
31.3456149608
 11
368.5902854651
 21
31.2810878707
 12
368.3012227445
 22
31.2810878707
 13
368.3012227445
 23
31.2810878707
  0
SOLID
  8
0
 62
7
  6
CONTINUOUS
 10
368.4168479651
 20
31.1520336865
 11
368.3012227445
 21
31.2810878707
 12
368.5902854651
 22
31.2810878707
 13
368.5902854651
 23
31.2810878707
  0
SOLID
  8
0
 62
7
  6
CONTINUOUS
 10
358.8199727462
 20
31.2165607767
 11
359.3402852307
 21
31.345614957
 12
359.1668477307
 22
31.2488235635
 13
359.1668477307
 23
31.2488235635
  0
SOLID
  8
0
 62
7
  6
CONTINUOUS
 10
359.1668477307
 20
31.2488235635
 11
359.1090352445
 21
31.1842964734
 12
358.8199727462
 22
31.2165607767
 13
358.8199727462
 23
31.2165607767
  0
SOLID
  8
0
 62
7
  6
CONTINUOUS
 10
358.7621602445
 20
31.0229779898
 11
358.8199727462
 21
31.2165607767
 12
359.1090352445
 22
31.1842964734
 13
359.1090352445
 23
31.1842964734
  0
SOLID
  8
0
 62
7
  6
CONTINUOUS
 10
363.6184102445
 20
31.1520336865
 11
363.9652852445
 21
31.1842964611
 12
364.6012229651
 22
31.1842964611
 13
364.6012229651
 23
31.1842964611
  0
SOLID
  8
0
 62
7
  6
CONTINUOUS
 10
363.6184102445
 20
31.1520336865
 11
364.6012229651
 21
31.1842964611
 12
363.3871601343
 22
31.0875057863
 13
363.3871601343
 23
31.0875057863
  0
SOLID
  8
0
 62
7
  6
CONTINUOUS
 10
363.3871601343
 20
31.0875057863
 11
364.6012229651
 21
31.1842964611
 12
363.9652852445
 22
31.0552422808
 13
363.9652852445
 23
31.0552422808
  0
SOLID
  8
0
 62
7
  6
CONTINUOUS
 10
364.6012229651
 20
31.1842964611
 11
364.6012229651
 21
31.0552422808
 12
363.9652852445
 22
31.0552422808
 13
363.9652852445
 23
31.0552422808
  0
SOLID
  8
0
 62
7
  6
CONTINUOUS
 10
368.4168479651
 20
31.1520338754
 11
368.5902854651
 21
31.2810878668
 12
368.6480977445
 22
31.2165607767
 13
368.6480977445
 23
31.2165607767
  0
SOLID
  8
0
 62
7
  6
CONTINUOUS
 10
368.6480977445
 20
31.2165607767
 11
368.8215352445
 21
31.1520338754
 12
368.4168479651
 22
31.1520338754
 13
368.4168479651
 23
31.1520338754
  0
SOLID
  8
0
 62
7
  6
CONTINUOUS
 10
368.6480977445
 20
31.0552422931
 11
368.4168479651
 21
31.1520338754
 12
368.8215352445
 22
31.1520338754
 13
368.8215352445
 23
31.1520338754
  0
SOLID
  8
0
 62
7
  6
CONTINUOUS
 10
368.8215352445
 20
31.1520338754
 11
369.8043479651
 21
30.9907152029
 12
368.6480977445
 22
31.0552422931
 13
368.6480977445
 23
31.0552422931
  0
SOLID
  8
0
 62
7
  6
CONTINUOUS
 10
369.6309104651
 20
30.8939239876
 11
368.6480977445
 21
31.0552422931
 12
369.8043479651
 22
30.9907152029
 13
369.8043479651
 23
30.9907152029
  0
SOLID
  8
0
 62
7
  6
CONTINUOUS
 10
369.8043479651
 20
30.9907152029
 11
370.0355977445
 21
30.8939239876
 12
369.6309104651
 22
30.8939239876
 13
369.6309104651
 23
30.8939239876
  0
SOLID
  8
0
 62
7
  6
CONTINUOUS
 10
369.8043479651
 20
30.8293967193
 11
369.6309104651
 21
30.8939239876
 12
370.0355977445
 22
30.8939239876
 13
370.0355977445
 23
30.8939239876
  0
SOLID
  8
0
 62
7
  6
CONTINUOUS
 10
369.8043479651
 20
30.8293967193
 11
370.0355977445
 21
30.8939239876
 12
369.8621602445
 22
30.7648682694
 13
369.8621602445
 23
30.7648682694
  0
SOLID
  8
0
 62
7
  6
CONTINUOUS
 10
370.0355977445
 20
30.8939239876
 11
370.1512223035
 21
30.7648682694
 12
369.8621602445
 22
30.7648682694
 13
369.8621602445
 23
30.7648682694
  0
SOLID
  8
0
 62
7
  6
CONTINUOUS
 10
369.8043479651
 20
30.7003411846
 11
369.8621602445
 21
30.7648682694
 12
370.1512223035
 22
30.7648682694
 13
370.1512223035
 23
30.7648682694
  0
SOLID
  8
0
 62
7
  6
CONTINUOUS
 10
370.1512223035
 20
30.7648682694
 11
370.1512223035
 21
30.7003411846
 12
369.8043479651
 22
30.7003411846
 13
369.8043479651
 23
30.7003411846
  0
SOLID
  8
0
 62
7
  6
CONTINUOUS
 10
369.6887227445
 20
30.6680782357
 11
369.8043479651
 21
30.7003411846
 12
370.1512223035
 22
30.7003411846
 13
370.1512223035
 23
30.7003411846
  0
SOLID
  8
0
 62
7
  6
CONTINUOUS
 10
369.6887227445
 20
30.6680782357
 11
370.1512223035
 21
30.7003411846
 12
369.4574729651
 22
30.6358140998
 13
369.4574729651
 23
30.6358140998
  0
SOLID
  8
0
 62
7
  6
CONTINUOUS
 10
370.1512223035
 20
30.7003411846
 11
370.0355977445
 21
30.6035511455
 12
369.4574729651
 22
30.6358140998
 13
369.4574729651
 23
30.6358140998
  0
SOLID
  8
0
 62
7
  6
CONTINUOUS
 10
370.0355977445
 20
30.6035511455
 11
368.5902854651
 21
30.5712868422
 12
369.4574729651
 22
30.6358140998
 13
369.4574729651
 23
30.6358140998
  0
SOLID
  8
0
 62
7
  6
CONTINUOUS
 10
369.4574729651
 20
30.6358140998
 11
368.5902854651
 21
30.5712868422
 12
369.1105979651
 22
30.6358140998
 13
369.1105979651
 23
30.6358140998
  0
SOLID
  8
0
 62
7
  6
CONTINUOUS
 10
368.5902854651
 20
30.5712868422
 11
368.4168479651
 21
30.6358140998
 12
369.1105979651
 22
30.6358140998
 13
369.1105979651
 23
30.6358140998
  0
SOLID
  8
0
 62
7
  6
CONTINUOUS
 10
368.5902854651
 20
30.5712868422
 11
370.0355977445
 21
30.6035511455
 12
368.7637229651
 22
30.5390223111
 13
368.7637229651
 23
30.5390223111
  0
SOLID
  8
0
 62
7
  6
CONTINUOUS
 10
370.0355977445
 20
30.6035511455
 11
369.8043479651
 21
30.5390223111
 12
368.7637229651
 22
30.5390223111
 13
368.7637229651
 23
30.5390223111
  0
SOLID
  8
0
 62
7
  6
CONTINUOUS
 10
369.1105979651
 20
30.5067599302
 11
368.7637229651
 21
30.5390223111
 12
369.8043479651
 22
30.5390223111
 13
369.8043479651
 23
30.5390223111
  0
SOLID
  8
0
 62
7
  6
CONTINUOUS
 10
369.8043479651
 20
30.5390223111
 11
369.4574729651
 21
30.5067599302
 12
369.1105979651
 22
30.5067599302
 13
369.1105979651
 23
30.5067599302
  0
SOLID
  8
0
 62
7
  6
CONTINUOUS
 10
358.7621602445
 20
31.0229779898
 11
359.1090352445
 21
31.1842964734
 12
359.0512227376
 22
31.0552422931
 13
359.0512227376
 23
31.0552422931
  0
SOLID
  8
0
 62
7
  6
CONTINUOUS
 10
359.0512227376
 20
31.0552422931
 11
359.0512227376
 21
30.9584509954
 12
358.7621602445
 22
31.0229779898
 13
358.7621602445
 23
31.0229779898
  0
SOLID
  8
0
 62
7
  6
CONTINUOUS
 10
358.8199727462
 20
30.8293967193
 11
358.7621602445
 21
31.0229779898
 12
359.0512227376
 22
30.9584509954
 13
359.0512227376
 23
30.9584509954
  0
SOLID
  8
0
 62
7
  6
CONTINUOUS
 10
359.0512227376
 20
30.9584509954
 11
359.1668477307
 21
30.797132416
 12
358.8199727462
 22
30.8293967193
 13
358.8199727462
 23
30.8293967193
  0
SOLID
  8
0
 62
7
  6
CONTINUOUS
 10
358.9355977445
 20
30.7003413087
 11
358.8199727462
 21
30.8293967193
 12
359.1668477307
 22
30.797132416
 13
359.1668477307
 23
30.797132416
  0
SOLID
  8
0
 62
7
  6
CONTINUOUS
 10
359.1668477307
 20
30.797132416
 11
359.3402852307
 21
30.7003413087
 12
358.9355977445
 22
30.7003413087
 13
358.9355977445
 23
30.7003413087
  0
SOLID
  8
0
 62
7
  6
CONTINUOUS
 10
359.0512227376
 20
30.6358140759
 11
358.9355977445
 21
30.7003413087
 12
359.3402852307
 22
30.7003413087
 13
359.3402852307
 23
30.7003413087
  0
SOLID
  8
0
 62
7
  6
CONTINUOUS
 10
359.3402852307
 20
30.7003413087
 11
359.6871602721
 21
30.6358140759
 12
359.0512227376
 22
30.6358140759
 13
359.0512227376
 23
30.6358140759
  0
SOLID
  8
0
 62
7
  6
CONTINUOUS
 10
359.2246602583
 20
30.5712868422
 11
359.0512227376
 21
30.6358140759
 12
359.6871602721
 22
30.6358140759
 13
359.6871602721
 23
30.6358140759
  0
SOLID
  8
0
 62
7
  6
CONTINUOUS
 10
363.2715352445
 20
31.0229779808
 11
363.3871601343
 21
31.0875057863
 12
363.9652852445
 22
31.0552422931
 13
363.9652852445
 23
31.0552422931
  0
SOLID
  8
0
 62
7
  6
CONTINUOUS
 10
363.9652852445
 20
31.0552422931
 11
363.7340351343
 21
31.0229779808
 12
363.2715352445
 22
31.0229779808
 13
363.2715352445
 23
31.0229779808
  0
SOLID
  8
0
 62
7
  6
CONTINUOUS
 10
363.1559103548
 20
30.8939238094
 11
363.2715352445
 21
31.0229779808
 12
363.7340351343
 22
31.0229779808
 13
363.7340351343
 23
31.0229779808
  0
SOLID
  8
0
 62
7
  6
CONTINUOUS
 10
363.5027853548
 20
30.926187309
 11
363.1559103548
 21
30.8939238094
 12
363.6184102445
 22
30.9907152029
 13
363.6184102445
 23
30.9907152029
  0
SOLID
  8
0
 62
7
  6
CONTINUOUS
 10
363.1559103548
 20
30.8939238094
 11
363.7340351343
 21
31.0229779898
 12
363.6184102445
 22
30.9907152029
 13
363.6184102445
 23
30.9907152029
  0
SOLID
  8
0
 62
7
  6
CONTINUOUS
 10
363.5027853548
 20
30.926187309
 11
363.4449727445
 21
30.8293967193
 12
363.1559103548
 22
30.8939238094
 13
363.1559103548
 23
30.8939238094
  0
SOLID
  8
0
 62
7
  6
CONTINUOUS
 10
363.1559103548
 20
30.797132416
 11
363.1559103548
 21
30.8939238094
 12
363.4449727445
 22
30.8293967193
 13
363.4449727445
 23
30.8293967193
  0
SOLID
  8
0
 62
7
  6
CONTINUOUS
 10
363.4449727445
 20
30.8293967193
 11
363.4449727445
 21
30.7648681127
 12
363.1559103548
 22
30.797132416
 13
363.1559103548
 23
30.797132416
  0
SOLID
  8
0
 62
7
  6
CONTINUOUS
 10
363.2137226343
 20
30.6680782357
 11
363.1559103548
 21
30.797132416
 12
363.4449727445
 22
30.7648681127
 13
363.4449727445
 23
30.7648681127
  0
SOLID
  8
0
 62
7
  6
CONTINUOUS
 10
364.6012229651
 20
30.8616599362
 11
364.890285024
 21
30.7648681127
 12
364.543410024
 22
30.797132416
 13
364.543410024
 23
30.797132416
  0
SOLID
  8
0
 62
7
  6
CONTINUOUS
 10
364.369972524
 20
30.7003410226
 11
364.543410024
 21
30.797132416
 12
364.890285024
 22
30.7648681127
 13
364.890285024
 23
30.7648681127
  0
SOLID
  8
0
 62
7
  6
CONTINUOUS
 10
364.369972524
 20
30.7003410226
 11
364.890285024
 21
30.7648681127
 12
364.6012229651
 22
30.6680782357
 13
364.6012229651
 23
30.6680782357
  0
SOLID
  8
0
 62
7
  6
CONTINUOUS
 10
364.890285024
 20
30.7648681127
 11
364.9480979651
 21
30.6035511455
 12
364.6012229651
 22
30.6680782357
 13
364.6012229651
 23
30.6680782357
  0
SOLID
  8
0
 62
7
  6
CONTINUOUS
 10
364.6590352445
 20
30.5712868422
 11
364.6012229651
 21
30.6680782357
 12
364.9480979651
 22
30.6035511455
 13
364.9480979651
 23
30.6035511455
  0
SOLID
  8
0
 62
7
  6
CONTINUOUS
 10
364.6590352445
 20
30.5712868422
 11
364.9480979651
 21
30.6035511455
 12
364.716847524
 22
30.5067598731
 13
364.716847524
 23
30.5067598731
  0
SOLID
  8
0
 62
7
  6
CONTINUOUS
 10
364.9480979651
 20
30.6035511455
 11
365.0059102445
 21
30.5067598731
 12
364.716847524
 22
30.5067598731
 13
364.716847524
 23
30.5067598731
  0
SOLID
  8
0
 62
7
  6
CONTINUOUS
 10
360.2652852997
 20
30.7326051679
 11
360.3230977445
 21
30.8293966612
 12
360.6121602997
 22
30.8293966612
 13
360.6121602997
 23
30.8293966612
  0
SOLID
  8
0
 62
7
  6
CONTINUOUS
 10
360.6121602997
 20
30.8293966612
 11
360.5543476894
 21
30.7003410226
 12
360.2652852997
 22
30.7326051679
 13
360.2652852997
 23
30.7326051679
  0
SOLID
  8
0
 62
7
  6
CONTINUOUS
 10
360.091847717
 20
30.6680782357
 11
360.2652852997
 21
30.7326051679
 12
360.5543476894
 22
30.7003410226
 13
360.5543476894
 23
30.7003410226
  0
SOLID
  8
0
 62
7
  6
CONTINUOUS
 10
360.091847717
 20
30.6680782357
 11
360.5543476894
 21
30.7003410226
 12
359.6871602721
 22
30.6358139324
 13
359.6871602721
 23
30.6358139324
  0
SOLID
  8
0
 62
7
  6
CONTINUOUS
 10
360.5543476894
 20
30.7003410226
 11
360.3809101894
 21
30.6035511455
 12
359.6871602721
 22
30.6358139324
 13
359.6871602721
 23
30.6358139324
  0
SOLID
  8
0
 62
7
  6
CONTINUOUS
 10
359.2246602583
 20
30.5712868422
 11
359.6871602721
 21
30.6358139324
 12
360.3809101894
 22
30.6035511455
 13
360.3809101894
 23
30.6035511455
  0
SOLID
  8
0
 62
7
  6
CONTINUOUS
 10
359.2246602583
 20
30.5712868422
 11
360.3809101894
 21
30.6035511455
 12
359.3980977583
 22
30.5390224228
 13
359.3980977583
 23
30.5390224228
  0
SOLID
  8
0
 62
7
  6
CONTINUOUS
 10
360.3809101894
 20
30.6035511455
 11
360.1496602445
 21
30.5390224228
 12
359.3980977583
 22
30.5390224228
 13
359.3980977583
 23
30.5390224228
  0
SOLID
  8
0
 62
7
  6
CONTINUOUS
 10
359.744972717
 20
30.5067597521
 11
359.3980977583
 21
30.5390224228
 12
360.1496602445
 22
30.5390224228
 13
360.1496602445
 23
30.5390224228
  0
SOLID
  8
0
 62
7
  6
CONTINUOUS
 10
363.2137226343
 20
30.6680782357
 11
363.4449727445
 21
30.7648681127
 12
363.5027853548
 22
30.7003410226
 13
363.5027853548
 23
30.7003410226
  0
SOLID
  8
0
 62
7
  6
CONTINUOUS
 10
363.5027853548
 20
30.7003410226
 11
363.7340351343
 21
30.6358139324
 12
363.2137226343
 22
30.6680782357
 13
363.2137226343
 23
30.6680782357
  0
SOLID
  8
0
 62
7
  6
CONTINUOUS
 10
363.3871601343
 20
30.5712868422
 11
363.2137226343
 21
30.6680782357
 12
363.7340351343
 22
30.6358139324
 13
363.7340351343
 23
30.6358139324
  0
SOLID
  8
0
 62
7
  6
CONTINUOUS
 10
364.0809101343
 20
30.6358139363
 11
364.369972524
 21
30.7003410226
 12
364.6012229651
 22
30.6680782357
 13
364.6012229651
 23
30.6680782357
  0
SOLID
  8
0
 62
7
  6
CONTINUOUS
 10
364.6012229651
 20
30.6680782357
 11
364.543410024
 21
30.6035511455
 12
364.0809101343
 22
30.6358139363
 13
364.0809101343
 23
30.6358139363
  0
SOLID
  8
0
 62
7
  6
CONTINUOUS
 10
364.543410024
 20
30.6035511455
 11
363.3871601343
 21
30.5712868422
 12
364.0809101343
 22
30.6358139363
 13
364.0809101343
 23
30.6358139363
  0
SOLID
  8
0
 62
7
  6
CONTINUOUS
 10
363.3871601343
 20
30.5712868422
 11
363.7340351343
 21
30.6358139363
 12
364.0809101343
 22
30.6358139363
 13
364.0809101343
 23
30.6358139363
  0
SOLID
  8
0
 62
7
  6
CONTINUOUS
 10
363.3871601343
 20
30.5712868422
 11
364.543410024
 21
30.6035511455
 12
363.5027853548
 22
30.5390225267
 13
363.5027853548
 23
30.5390225267
  0
SOLID
  8
0
 62
7
  6
CONTINUOUS
 10
364.543410024
 20
30.6035511455
 11
364.369972524
 21
30.5390225267
 12
363.5027853548
 22
30.5390225267
 13
363.5027853548
 23
30.5390225267
  0
SOLID
  8
0
 62
7
  6
CONTINUOUS
 10
363.7340351343
 20
30.5067596914
 11
363.5027853548
 21
30.5390225267
 12
364.369972524
 22
30.5390225267
 13
364.369972524
 23
30.5390225267
  0
SOLID
  8
0
 62
7
  6
CONTINUOUS
 10
364.369972524
 20
30.5390225267
 11
364.0809101343
 21
30.5067596914
 12
363.7340351343
 22
30.5067596914
 13
363.7340351343
 23
30.5067596914
  0
SOLID
  8
0
 62
7
  6
CONTINUOUS
 10
368.7637229651
 20
30.6680782357
 11
368.4168479651
 21
30.6358138717
 12
368.6480977445
 22
30.7003410226
 13
368.6480977445
 23
30.7003410226
  0
SOLID
  8
0
 62
7
  6
CONTINUOUS
 10
368.6480977445
 20
30.7003410226
 11
368.4168479651
 21
30.6358138717
 12
368.5902854651
 22
30.7648680521
 13
368.5902854651
 23
30.7648680521
  0
SOLID
  8
0
 62
7
  6
CONTINUOUS
 10
368.4168479651
 20
30.6358138717
 11
368.3012227445
 21
30.7648680521
 12
368.5902854651
 22
30.7648680521
 13
368.5902854651
 23
30.7648680521
  0
SOLID
  8
0
 62
7
  6
CONTINUOUS
 10
368.7637229651
 20
30.6680782357
 11
369.1105979651
 21
30.6358138717
 12
368.4168479651
 22
30.6358138717
 13
368.4168479651
 23
30.6358138717
  0
SOLID
  8
0
 62
7
  6
CONTINUOUS
 10
365.4684104651
 20
30.5067597521
 11
365.4684104651
 21
31.5391977439
 12
365.757472524
 22
30.5067597521
 13
365.757472524
 23
31.5391977439
  0
ENDBLK
  8
0
  6
BYBLOCK
 62
0
  0
BLOCK
  8
0
 62
2
  6
CONTINUOUS
  2
SYMBOL_0_BL0
 70
64
 10
240.8592468615
 20
19.762288695
  0
TEXT
  8
0
 62
7
  6
CONTINUOUS
 10
227.1239507038
 20
19.1357028027
  7
TEXTSTYLE_3
 40
2.7338706658
  1
Ammeraal Beltech
 41
1.0
 51
15.0
 72
0
  0
TEXT
  8
0
 62
7
  6
CONTINUOUS
 10
237.9247515296
 20
16.8621661299
  7
TEXTSTYLE_4
 40
1.0935482663
  1
Innovation & Service in Belting
 41
1.0
 72
0
  0
LINE
  8
0
 62
7
  6
CONTINUOUS
 10
221.0994100525
 20
19.9022961113
 11
221.8775620458
 21
23.5632134089
  0
LINE
  8
0
 62
7
  6
CONTINUOUS
 10
231.9727303357
 20
27.2266073205
 11
222.3653797889
 21
24.1049898993
  0
LINE
  8
0
 62
7
  6
CONTINUOUS
 10
221.3246933848
 20
19.2089453082
 11
228.8317686459
 21
12.4495443822
  0
LINE
  8
0
 62
7
  6
CONTINUOUS
 10
221.5872277955
 20
20.4440726016
 11
232.3954971607
 21
23.9558922005
  0
LINE
  8
0
 62
7
  6
CONTINUOUS
 10
232.3912920235
 20
13.6061036368
 11
223.9458323548
 21
21.2104296785
  0
LINE
  8
0
 62
7
  6
CONTINUOUS
 10
232.9111147433
 20
26.3816822048
 11
231.9345552061
 21
21.7873308023
  0
LINE
  8
0
 62
7
  6
CONTINUOUS
 10
231.2347532584
 20
18.4950214885
 11
230.5483050469
 21
15.2655365641
  0
LINE
  8
0
 62
7
  6
CONTINUOUS
 10
233.5922108419
 20
13.9963058145
 11
234.5484423775
 21
18.4950214885
  0
LINE
  8
0
 62
7
  6
CONTINUOUS
 10
235.2482443252
 20
21.7873308023
 11
235.6924861276
 21
23.8773241617
  0
LINE
  8
0
 62
7
  6
CONTINUOUS
 10
229.5448697213
 20
12.2979700695
 11
233.1043930989
 21
13.4545293241
  0
LINE
  8
0
 62
7
  6
CONTINUOUS
 10
232.685831411
 20
27.0750330078
 11
235.4672027953
 21
24.5706749648
  0
ARC
  8
0
 62
7
  6
CONTINUOUS
 10
222.5906631212
 20
23.4116390962
 40
0.7290321776
 50
108.0
 51
168.0
  0
ARC
  8
0
 62
7
  6
CONTINUOUS
 10
232.198013668
 20
26.5332565175
 40
0.7290321776
 50
348.0
 51
108.0
  0
ARC
  8
0
 62
7
  6
CONTINUOUS
 10
234.9793850522
 20
24.0288984744
 40
0.7290321776
 50
348.0
 51
48.0
  0
ARC
  8
0
 62
7
  6
CONTINUOUS
 10
229.319586389
 20
12.9913208726
 40
0.7290321776
 50
228.0
 51
288.0
  0
ARC
  8
0
 62
7
  6
CONTINUOUS
 10
221.8125111278
 20
19.7507217986
 40
0.7290321776
 50
108.0
 51
228.0
  0
ARC
  8
0
 62
7
  6
CONTINUOUS
 10
232.8791097665
 20
14.1478801272
 40
0.7290321776
 50
228.0
 51
348.0
  0
ENDBLK
  8
0
  6
BYBLOCK
 62
0
  0
ENDSEC
  0
SECTION
  2
ENTITIES
  0
TEXT
  8
0
 62
5
  6
CONTINUOUS
 10
304.937007874
 20
25.636
  7
TEXTSTYLE_2
 40
2.8
  1
Scale :
 41
0.6
 51
0.000019
 72
0
  0
TEXT
  8
0
 62
5
  6
CONTINUOUS
 10
324.937007874
 20
25.636
  7
TEXTSTYLE_2
 40
2.8
  1
Belt type:
 41
0.6
 51
0.000019
 72
0
  0
INSERT
  8
0
 62
2
  6
CONTINUOUS
  2
SYMBOL_0_BL0
 10
240.8592468615
 20
19.762288695
  0
INSERT
  8
0
 62
2
  6
CONTINUOUS
  2
SYMBOL_5_BL1
 10
382.7840918555
 20
35.5067593403
  0
TEXT
  8
0
 62
7
  6
CONTINUOUS
 10
27.2202891926
 20
210.6829793928
  7
STANDARD
 40
3.5
  1
A_16
 41
0.8
 72
0
  0
TEXT
  8
0
 62
7
  6
CONTINUOUS
 10
27.2202891926
 20
142.1223227328
  7
STANDARD
 40
3.5
  1
A_16
 41
0.8
 72
0
  0
TEXT
  8
0
 62
7
  6
CONTINUOUS
 10
388.6982769091
 20
142.1223227328
  7
STANDARD
 40
3.5
  1
A_16
 41
0.8
 72
0
  0
TEXT
  8
0
 62
7
  6
CONTINUOUS
 10
13.2225768421
 20
91.3223227328
  7
STANDARD
 40
3.5
  1
A_17
 41
0.8
 72
0
  0
TEXT
  8
0
 62
7
  6
CONTINUOUS
 10
388.6982769091
 20
91.3223227328
  7
STANDARD
 40
3.5
  1
A_17
 41
0.8
 72
0
  0
LINE
  8
0
 62
2
  6
CONTINUOUS
 10
218.937007874
 20
30.0
 11
408.937007874
 21
30.0
  0
LINE
  8
0
 62
2
  6
CONTINUOUS
 10
218.937007874
 20
30.0
 11
218.937007874
 21
10.0
  0
LINE
  8
0
 62
2
  6
CONTINUOUS
 10
218.937007874
 20
10.0
 11
408.937007874
 21
10.0
  0
LINE
  8
0
 62
2
  6
CONTINUOUS
 10
303.937007874
 20
30.0
 11
303.937007874
 21
10.0
  0
LINE
  8
0
 62
2
  6
CONTINUOUS
 10
323.937007874
 20
30.0
 11
323.937007874
 21
10.0
  0
LINE
  8
0
 62
2
  6
CONTINUOUS
 10
408.937007874
 20
30.0
 11
408.937007874
 21
10.0
  0
TEXT
  8
0
 62
5
  6
CONTINUOUS
 10
221.937007874
 20
23.303
  7
TEXTSTYLE_5
 40
1.52
  1
                                                                     Ammeraal Beltech Modular A/S
 41
1.0
 72
0
  0
TEXT
  8
0
 62
5
  6
CONTINUOUS
 10
221.937007874
 20
20.595
  7
TEXTSTYLE_5
 40
1.5
  1
                                                                      Hjulmagervej 21, 7100 Vejle,  DK
 41
1.0
 72
0
  0
TEXT
  8
0
 62
5
  6
CONTINUOUS
 10
221.937007874
 20
17.881
  7
TEXTSTYLE_5
 40
1.495
  1
                                                                      tel: 
 41
1.0
 72
0
  0
TEXT
  8
0
 62
5
  6
CONTINUOUS
 10
266.9239544389
 20
17.881
  7
TEXTSTYLE_5
 40
1.51
  1
+45 75723100     fax: +45 75723348
 41
1.0
 72
0
  0
TEXT
  8
0
 62
5
  6
CONTINUOUS
 10
221.937007874
 20
15.177
  7
TEXTSTYLE_5
 40
1.5
  1
                                                                      admin@unichains.dk  www.unichains.com
 41
1.0
 72
0
  0
TEXT
  8
0
 62
5
  6
CONTINUOUS
 10
308.687007874
 20
13.75
  7
TEXTSTYLE_6
 40
5.0
  1
1:1
 41
0.7
 72
1
 11
313.937007874
 21
13.75
  0
TEXT
  8
0
 62
5
  6
CONTINUOUS
 10
326.937007874
 20
13.75
  7
TEXTSTYLE_7
 40
7.5
  1
uni Flex L-ASB TAB K1280 Both rubberTop indent 109mm / 71mm
 41
0.1968644068
 72
0
  0
LINE
  8
0
 62
7
  6
CONTINUOUS
 10
0.0
 20
0.0
 11
0.0
 21
297.0
  0
LINE
  8
0
 62
7
  6
CONTINUOUS
 10
8.937007874
 20
10.0
 11
8.937007874
 21
287.0
  0
LINE
  8
0
 62
7
  6
CONTINUOUS
 10
0.0
 20
0.0
 11
420.0
 21
0.0
  0
LINE
  8
0
 62
7
  6
CONTINUOUS
 10
408.937007874
 20
10.0
 11
8.937007874
 21
10.0
  0
LINE
  8
0
 62
7
  6
CONTINUOUS
 10
218.937007874
 20
30.0
 11
408.937007874
 21
30.0
  0
LINE
  8
0
 62
7
  6
CONTINUOUS
 10
210.0
 20
297.0
 11
210.0
 21
292.0
  0
LINE
  8
0
 62
7
  6
CONTINUOUS
 10
210.0
 20
0.0
 11
210.0
 21
5.0
  0
LINE
  8
0
 62
7
  6
CONTINUOUS
 10
8.937007874
 20
287.0
 11
408.937007874
 21
287.0
  0
LINE
  8
0
 62
7
  6
CONTINUOUS
 10
0.0
 20
297.0
 11
420.0
 21
297.0
  0
LINE
  8
0
 62
7
  6
CONTINUOUS
 10
408.937007874
 20
287.0
 11
408.937007874
 21
10.0
  0
LINE
  8
0
 62
7
  6
CONTINUOUS
 10
420.0
 20
0.0
 11
420.0
 21
297.0
  0
POLYLINE
  8
0
 62
7
  6
CONTINUOUS
 66
1
 70
0
  0
VERTEX
  8
0
 62
7
  6
CONTINUOUS
 10
32.2969089367
 20
98.0679260184
  0
VERTEX
  8
0
 62
7
  6
CONTINUOUS
 10
32.3917638266
 20
97.0138110265
  0
VERTEX
  8
0
 62
7
  6
CONTINUOUS
 10
32.4627893569
 20
95.9593448111
  0
VERTEX
  8
0
 62
7
  6
CONTINUOUS
 10
32.4894109707
 20
95.4317422989
  0
SEQEND
  0
LINE
  8
0
 62
7
  6
CONTINUOUS
 10
22.5725768421
 20
112.6217907293
 11
22.5725768421
 21
86.1590108397
  0
LINE
  8
0
 62
7
  6
CONTINUOUS
 10
29.5725768421
 20
106.659753709
 11
29.5725768421
 21
103.2668091057
  0
POLYLINE
  8
0
 62
7
  6
CONTINUOUS
 66
1
 70
0
  0
VERTEX
  8
0
 62
7
  6
CONTINUOUS
 10
32.4981780982
 20
95.2406400824
  0
VERTEX
  8
0
 62
7
  6
CONTINUOUS
 10
32.5231934228
 20
94.603788417
  0
VERTEX
  8
0
 62
7
  6
CONTINUOUS
 10
32.5382498039
 20
93.9636301999
  0
VERTEX
  8
0
 62
7
  6
CONTINUOUS
 10
32.5432764504
 20
93.323003881
  0
VERTEX
  8
0
 62
7
  6
CONTINUOUS
 10
32.5382700859
 20
92.6822962698
  0
VERTEX
  8
0
 62
7
  6
CONTINUOUS
 10
32.5232265269
 20
92.0419137184
  0
VERTEX
  8
0
 62
7
  6
CONTINUOUS
 10
32.4981774695
 20
91.4039954818
  0
SEQEND
  0
POLYLINE
  8
0
 62
7
  6
CONTINUOUS
 66
1
 70
0
  0
VERTEX
  8
0
 62
7
  6
CONTINUOUS
 10
32.4894109707
 20
95.4317422989
  0
VERTEX
  8
0
 62
7
  6
CONTINUOUS
 10
32.5100838953
 20
94.9046328216
  0
VERTEX
  8
0
 62
7
  6
CONTINUOUS
 10
32.5337142714
 20
93.849775418
  0
VERTEX
  8
0
 62
7
  6
CONTINUOUS
 10
32.5337142701
 20
92.7948699308
  0
VERTEX
  8
0
 62
7
  6
CONTINUOUS
 10
32.5100838918
 20
91.7400125389
  0
VERTEX
  8
0
 62
7
  6
CONTINUOUS
 10
32.4894109707
 20
91.2129031667
  0
SEQEND
  0
LINE
  8
0
 62
7
  6
CONTINUOUS
 10
32.2725768421
 20
84.6460381104
 11
32.2725768421
 21
98.2419379751
  0
LINE
  8
0
 62
7
  6
CONTINUOUS
 10
34.8748644916
 20
142.7289812071
 11
34.8748644916
 21
147.4223227328
  0
LINE
  8
0
 62
7
  6
CONTINUOUS
 10
37.5748644916
 20
135.5903320527
 11
37.5748644916
 21
123.8330320708
  0
POLYLINE
  8
0
 62
7
  6
CONTINUOUS
 66
1
 70
0
  0
VERTEX
  8
0
 62
7
  6
CONTINUOUS
 10
32.4894109707
 20
91.2129031667
  0
VERTEX
  8
0
 62
7
  6
CONTINUOUS
 10
32.4627893524
 20
90.6853005729
  0
VERTEX
  8
0
 62
7
  6
CONTINUOUS
 10
32.3917638229
 20
89.6308343926
  0
VERTEX
  8
0
 62
7
  6
CONTINUOUS
 10
32.2969089367
 20
88.5767194472
  0
SEQEND
  0
POLYLINE
  8
0
 62
7
  6
CONTINUOUS
 66
1
 70
0
  0
VERTEX
  8
0
 62
7
  6
CONTINUOUS
 10
32.2969089367
 20
88.5767194472
  0
VERTEX
  8
0
 62
7
  6
CONTINUOUS
 10
32.2937468428
 20
88.5547265771
  0
VERTEX
  8
0
 62
7
  6
CONTINUOUS
 10
32.2886731154
 20
88.5328036932
  0
VERTEX
  8
0
 62
7
  6
CONTINUOUS
 10
32.2815683795
 20
88.5108486001
  0
VERTEX
  8
0
 62
7
  6
CONTINUOUS
 10
32.2725768421
 20
88.4895946727
  0
SEQEND
  0
POLYLINE
  8
0
 62
7
  6
CONTINUOUS
 66
1
 70
0
  0
VERTEX
  8
0
 62
7
  6
CONTINUOUS
 10
32.2725768421
 20
98.154729603
  0
VERTEX
  8
0
 62
7
  6
CONTINUOUS
 10
32.2758364995
 20
98.1480422587
  0
VERTEX
  8
0
 62
7
  6
CONTINUOUS
 10
32.2836896423
 20
98.1279283683
  0
VERTEX
  8
0
 62
7
  6
CONTINUOUS
 10
32.2897373415
 20
98.1078952012
  0
VERTEX
  8
0
 62
7
  6
CONTINUOUS
 10
32.2941149486
 20
98.087918155
  0
VERTEX
  8
0
 62
7
  6
CONTINUOUS
 10
32.2969089367
 20
98.0679260184
  0
SEQEND
  0
POLYLINE
  8
0
 62
7
  6
CONTINUOUS
 66
1
 70
0
  0
VERTEX
  8
0
 62
7
  6
CONTINUOUS
 10
43.5725768421
 20
95.98391219
  0
VERTEX
  8
0
 62
7
  6
CONTINUOUS
 10
43.569527808
 20
96.0935808413
  0
VERTEX
  8
0
 62
7
  6
CONTINUOUS
 10
43.5584375873
 20
96.2199141195
  0
VERTEX
  8
0
 62
7
  6
CONTINUOUS
 10
43.5392480966
 20
96.3455710674
  0
VERTEX
  8
0
 62
7
  6
CONTINUOUS
 10
43.5120329814
 20
96.4698907545
  0
VERTEX
  8
0
 62
7
  6
CONTINUOUS
 10
43.476959358
 20
96.5921706719
  0
VERTEX
  8
0
 62
7
  6
CONTINUOUS
 10
43.4342091849
 20
96.7117963905
  0
VERTEX
  8
0
 62
7
  6
CONTINUOUS
 10
43.3839787607
 20
96.828167764
  0
VERTEX
  8
0
 62
7
  6
CONTINUOUS
 10
43.3265483867
 20
96.9408340725
  0
VERTEX
  8
0
 62
7
  6
CONTINUOUS
 10
43.2622027857
 20
97.0493587143
  0
VERTEX
  8
0
 62
7
  6
CONTINUOUS
 10
43.1910671841
 20
97.1534807034
  0
VERTEX
  8
0
 62
7
  6
CONTINUOUS
 10
43.1132940483
 20
97.2531555217
  0
VERTEX
  8
0
 62
7
  6
CONTINUOUS
 10
43.0292873518
 20
97.3479143092
  0
VERTEX
  8
0
 62
7
  6
CONTINUOUS
 10
42.9394098172
 20
97.4371728156
  0
VERTEX
  8
0
 62
7
  6
CONTINUOUS
 10
42.8439983344
 20
97.520474451
  0
VERTEX
  8
0
 62
7
  6
CONTINUOUS
 10
42.7431621563
 20
97.5977914984
  0
VERTEX
  8
0
 62
7
  6
CONTINUOUS
 10
42.6373469742
 20
97.6686844016
  0
VERTEX
  8
0
 62
7
  6
CONTINUOUS
 10
42.5274999087
 20
97.7325829454
  0
VERTEX
  8
0
 62
7
  6
CONTINUOUS
 10
42.4141828553
 20
97.7892665258
  0
VERTEX
  8
0
 62
7
  6
CONTINUOUS
 10
42.2978224949
 20
97.8385043278
  0
VERTEX
  8
0
 62
7
  6
CONTINUOUS
 10
42.1787427127
 20
97.8802122442
  0
VERTEX
  8
0
 62
7
  6
CONTINUOUS
 10
42.0569379204
 20
97.9144447686
  0
VERTEX
  8
0
 62
7
  6
CONTINUOUS
 10
41.9326849111
 20
97.9410978856
  0
VERTEX
  8
0
 62
7
  6
CONTINUOUS
 10
41.8070886613
 20
97.9599231971
  0
VERTEX
  8
0
 62
7
  6
CONTINUOUS
 10
41.6814501603
 20
97.9707850733
  0
VERTEX
  8
0
 62
7
  6
CONTINUOUS
 10
41.5725768239
 20
97.9737805588
  0
SEQEND
  0
LINE
  8
0
 62
7
  6
CONTINUOUS
 10
43.5725768421
 20
95.9839030842
 11
43.5725768421
 21
90.6607423814
  0
LINE
  8
0
 62
7
  6
CONTINUOUS
 10
44.5748644916
 20
135.5903320527
 11
44.5748644916
 21
125.8441769823
  0
LINE
  8
0
 62
7
  6
CONTINUOUS
 10
47.2748644916
 20
147.4223227328
 11
47.2748644916
 21
142.7289812071
  0
LINE
  8
0
 62
7
  6
CONTINUOUS
 10
49.9248644916
 20
86.0223227328
 11
49.9248644916
 21
90.7156642585
  0
LINE
  8
0
 62
7
  6
CONTINUOUS
 10
52.6248644916
 20
107.4904684833
 11
52.6248644916
 21
97.8543134129
  0
LINE
  8
0
 62
7
  6
CONTINUOUS
 10
47.254200337
 20
142.6195669234
 11
44.6437450069
 21
135.9550463316
  0
LINE
  8
0
 62
7
  6
CONTINUOUS
 10
29.7065514383
 20
102.7668091057
 11
32.2323844632
 21
98.3919379751
  0
LINE
  8
0
 62
7
  6
CONTINUOUS
 10
59.6248644916
 20
108.2154684833
 11
59.6248644916
 21
97.8543134129
  0
LINE
  8
0
 62
7
  6
CONTINUOUS
 10
62.3248644916
 20
90.7156642585
 11
62.3248644916
 21
86.0223227328
  0
LINE
  8
0
 62
7
  6
CONTINUOUS
 10
63.8248644916
 20
142.7289812071
 11
63.8248644916
 21
147.4223227328
  0
LINE
  8
0
 62
7
  6
CONTINUOUS
 10
34.8955286462
 20
142.6195669234
 11
37.5059839763
 21
135.9550463316
  0
LINE
  8
0
 62
7
  6
CONTINUOUS
 10
62.304200337
 20
90.8250785422
 11
59.6937450069
 21
97.489599134
  0
LINE
  8
0
 62
7
  6
CONTINUOUS
 10
66.5248644916
 20
135.5903320527
 11
66.5248644916
 21
125.8441769823
  0
LINE
  8
0
 62
7
  6
CONTINUOUS
 10
73.5248644916
 20
135.5903320527
 11
73.5248644916
 21
125.1191769823
  0
LINE
  8
0
 62
7
  6
CONTINUOUS
 10
49.9455286462
 20
90.8250785422
 11
52.5559839763
 21
97.489599134
  0
LINE
  8
0
 62
7
  6
CONTINUOUS
 10
76.204200337
 20
142.6195669234
 11
73.5937450069
 21
135.9550463316
  0
LINE
  8
0
 62
7
  6
CONTINUOUS
 10
76.2248644916
 20
147.4223227328
 11
76.2248644916
 21
142.7289812071
  0
LINE
  8
0
 62
7
  6
CONTINUOUS
 10
77.7248644916
 20
86.0223227328
 11
77.7248644916
 21
90.7156642585
  0
LINE
  8
0
 62
7
  6
CONTINUOUS
 10
80.4248644916
 20
108.2154684833
 11
80.4248644916
 21
97.8543134129
  0
LINE
  8
0
 62
7
  6
CONTINUOUS
 10
34.7282916164
 20
114.3007498575
 11
31.329936155
 21
110.9023943962
  0
LINE
  8
0
 62
7
  6
CONTINUOUS
 10
47.4714373669
 20
114.3007498575
 11
51.4532916164
 21
110.318895608
  0
LINE
  8
0
 62
7
  6
CONTINUOUS
 10
63.8455286462
 20
142.6195669234
 11
66.4559839763
 21
135.9550463316
  0
LINE
  8
0
 62
7
  6
CONTINUOUS
 10
87.4248644916
 20
108.2154684833
 11
87.4248644916
 21
97.8543134129
  0
LINE
  8
0
 62
7
  6
CONTINUOUS
 10
90.1248644916
 20
90.7156642585
 11
90.1248644916
 21
86.0223227328
  0
LINE
  8
0
 62
7
  6
CONTINUOUS
 10
90.4248644916
 20
142.7289812071
 11
90.4248644916
 21
147.4223227328
  0
LINE
  8
0
 62
7
  6
CONTINUOUS
 10
93.1248644916
 20
135.5903320527
 11
93.1248644916
 21
125.1191769823
  0
LINE
  8
0
 62
7
  6
CONTINUOUS
 10
77.7455286462
 20
90.8250785422
 11
80.3559839763
 21
97.489599134
  0
LINE
  8
0
 62
7
  6
CONTINUOUS
 10
61.9214373669
 20
119.583895608
 11
65.3532916164
 21
123.0157498575
  0
LINE
  8
0
 62
7
  6
CONTINUOUS
 10
45.7464373669
 20
123.0157498575
 11
49.1782916164
 21
119.583895608
  0
LINE
  8
0
 62
7
  6
CONTINUOUS
 10
90.104200337
 20
90.8250785422
 11
87.4937450069
 21
97.489599134
  0
LINE
  8
0
 62
7
  6
CONTINUOUS
 10
100.1248644916
 20
135.5903320527
 11
100.1248644916
 21
119.7978978745
  0
LINE
  8
0
 62
7
  6
CONTINUOUS
 10
102.8248644916
 20
147.4223227328
 11
102.8248644916
 21
142.7289812071
  0
LINE
  8
0
 62
7
  6
CONTINUOUS
 10
103.1248644916
 20
86.0223227328
 11
103.1248644916
 21
90.7156642585
  0
LINE
  8
0
 62
7
  6
CONTINUOUS
 10
105.8248644916
 20
112.5723227328
 11
105.8248644916
 21
97.8543134129
  0
LINE
  8
0
 62
7
  6
CONTINUOUS
 10
102.804200337
 20
142.6195669234
 11
100.1937450069
 21
135.9550463316
  0
LINE
  8
0
 62
7
  6
CONTINUOUS
 10
63.6532916164
 20
113.9007498575
 11
60.7964373669
 21
111.043895608
  0
LINE
  8
0
 62
7
  6
CONTINUOUS
 10
76.3964373669
 20
113.9007498575
 11
79.2532916164
 21
111.043895608
  0
LINE
  8
0
 62
7
  6
CONTINUOUS
 10
90.4455286462
 20
142.6195669234
 11
93.0559839763
 21
135.9550463316
  0
LINE
  8
0
 62
7
  6
CONTINUOUS
 10
112.8225768421
 20
111.9223227328
 11
112.8225768421
 21
97.8547888883
  0
LINE
  8
0
 62
7
  6
CONTINUOUS
 10
115.5225768421
 20
90.7156679925
 11
115.5225768421
 21
86.0223227328
  0
LINE
  8
0
 62
7
  6
CONTINUOUS
 10
115.8225768421
 20
142.7289812071
 11
115.8225768421
 21
147.4223227328
  0
LINE
  8
0
 62
7
  6
CONTINUOUS
 10
118.5225768421
 20
135.5903320527
 11
118.5225768421
 21
119.7978978745
  0
LINE
  8
0
 62
7
  6
CONTINUOUS
 10
103.1455286462
 20
90.8250785422
 11
105.7559839763
 21
97.489599134
  0
LINE
  8
0
 62
7
  6
CONTINUOUS
 10
91.9532916164
 20
122.2907498575
 11
89.6964373669
 21
120.033895608
  0
LINE
  8
0
 62
7
  6
CONTINUOUS
 10
74.6964373669
 20
122.2907498575
 11
76.9532916164
 21
120.033895608
  0
LINE
  8
0
 62
7
  6
CONTINUOUS
 10
115.5019153173
 20
90.825075562
 11
112.8914485913
 21
97.4900969901
  0
LINE
  8
0
 62
7
  6
CONTINUOUS
 10
125.5225768421
 20
135.5903320527
 11
125.5225768421
 21
119.7978978745
  0
LINE
  8
0
 62
7
  6
CONTINUOUS
 10
128.2225768421
 20
147.4223227328
 11
128.2225768421
 21
142.7289812071
  0
LINE
  8
0
 62
7
  6
CONTINUOUS
 10
128.5225768421
 20
86.0223227328
 11
128.5225768421
 21
90.7156679925
  0
LINE
  8
0
 62
7
  6
CONTINUOUS
 10
131.2225768421
 20
111.9223227328
 11
131.2225768421
 21
97.8547888883
  0
LINE
  8
0
 62
7
  6
CONTINUOUS
 10
125.5914573574
 20
135.9550463316
 11
128.2019126875
 21
142.6195669234
  0
LINE
  8
0
 62
7
  6
CONTINUOUS
 10
90.9532916164
 20
113.4007498575
 11
88.5964373669
 21
111.043895608
  0
LINE
  8
0
 62
7
  6
CONTINUOUS
 10
35.1978546694
 20
120.1770913051
 11
24.3553342087
 21
115.3637463036
  0
LINE
  8
0
 62
7
  6
CONTINUOUS
 10
115.8432409967
 20
142.6195669234
 11
118.4536963268
 21
135.9550463316
  0
LINE
  8
0
 62
7
  6
CONTINUOUS
 10
132.0225768421
 20
94.9723227328
 11
132.0225768421
 21
96.5033991254
  0
LINE
  8
0
 62
7
  6
CONTINUOUS
 10
132.3225768079
 20
97.8547840016
 11
132.3225768079
 21
113.9342289789
  0
LINE
  8
0
 62
7
  6
CONTINUOUS
 10
137.1225768421
 20
111.9223227328
 11
137.1225768421
 21
97.8547888883
  0
LINE
  8
0
 62
7
  6
CONTINUOUS
 10
137.4225768421
 20
96.5033991254
 11
137.4225768421
 21
94.9723227328
  0
LINE
  8
0
 62
7
  6
CONTINUOUS
 10
138.2225768421
 20
111.9223227328
 11
138.2225768421
 21
97.8547888883
  0
LINE
  8
0
 62
7
  6
CONTINUOUS
 10
140.9225768421
 20
90.7156679925
 11
140.9225768421
 21
86.0223227328
  0
LINE
  8
0
 62
7
  6
CONTINUOUS
 10
141.2225768421
 20
142.7289812071
 11
141.2225768421
 21
147.4223227328
  0
LINE
  8
0
 62
7
  6
CONTINUOUS
 10
128.5432383669
 20
90.825075562
 11
131.1537050929
 21
97.4900969901
  0
LINE
  8
0
 62
7
  6
CONTINUOUS
 10
344.7783457381
 20
82.1706615128
 11
344.8001182622
 21
82.1723734579
  0
LINE
  8
0
 62
7
  6
CONTINUOUS
 10
344.7629520412
 20
82.1695790414
 11
344.7845509877
 21
82.1711279733
  0
LINE
  8
0
 62
7
  6
CONTINUOUS
 10
344.7629520412
 20
82.1695790414
 11
344.7708340918
 21
82.1701152811
  0
LINE
  8
0
 62
7
  6
CONTINUOUS
 10
26.2606195424
 20
82.171126671
 11
26.2822016366
 21
82.1695790415
  0
LINE
  8
0
 62
7
  6
CONTINUOUS
 10
26.2450354463
 20
82.1723734558
 11
26.2668078875
 21
82.1706615171
  0
LINE
  8
0
 62
7
  6
CONTINUOUS
 10
137.2672075155
 20
97.088935902
 11
137.3537050929
 21
96.8680910236
  0
LINE
  8
0
 62
7
  6
CONTINUOUS
 10
140.9019153173
 20
90.825075562
 11
138.2914485913
 21
97.4900969901
  0
POLYLINE
  8
0
 62
7
  6
CONTINUOUS
 66
1
 70
0
  0
VERTEX
  8
0
 62
7
  6
CONTINUOUS
 10
149.8225768421
 20
119.797899124
  0
VERTEX
  8
0
 62
7
  6
CONTINUOUS
 10
149.8244323589
 20
119.6823326283
  0
VERTEX
  8
0
 62
7
  6
CONTINUOUS
 10
149.8296624895
 20
119.5723883988
  0
VERTEX
  8
0
 62
7
  6
CONTINUOUS
 10
149.8379109932
 20
119.4666451164
  0
VERTEX
  8
0
 62
7
  6
CONTINUOUS
 10
149.8489813464
 20
119.3637689336
  0
VERTEX
  8
0
 62
7
  6
CONTINUOUS
 10
149.8628492484
 20
119.2624487745
  0
VERTEX
  8
0
 62
7
  6
CONTINUOUS
 10
149.8796280037
 20
119.1614382279
  0
VERTEX
  8
0
 62
7
  6
CONTINUOUS
 10
149.8993350037
 20
119.0606514743
  0
VERTEX
  8
0
 62
7
  6
CONTINUOUS
 10
149.9218920876
 20
118.9605662353
  0
VERTEX
  8
0
 62
7
  6
CONTINUOUS
 10
149.9472920077
 20
118.8612410926
  0
VERTEX
  8
0
 62
7
  6
CONTINUOUS
 10
149.9755427988
 20
118.7626233887
  0
VERTEX
  8
0
 62
7
  6
CONTINUOUS
 10
150.0066005475
 20
118.6648462813
  0
VERTEX
  8
0
 62
7
  6
CONTINUOUS
 10
150.0404376411
 20
118.5680398034
  0
VERTEX
  8
0
 62
7
  6
CONTINUOUS
 10
150.0770940506
 20
118.4721536368
  0
VERTEX
  8
0
 62
7
  6
CONTINUOUS
 10
150.1165638454
 20
118.3772817567
  0
VERTEX
  8
0
 62
7
  6
CONTINUOUS
 10
150.1588119562
 20
118.2836013018
  0
VERTEX
  8
0
 62
7
  6
CONTINUOUS
 10
150.2039020763
 20
118.1910338398
  0
VERTEX
  8
0
 62
7
  6
CONTINUOUS
 10
150.2519175586
 20
118.099482721
  0
VERTEX
  8
0
 62
7
  6
CONTINUOUS
 10
150.3026398137
 20
118.0094179893
  0
VERTEX
  8
0
 62
7
  6
CONTINUOUS
 10
150.3558188295
 20
117.9212390827
  0
VERTEX
  8
0
 62
7
  6
CONTINUOUS
 10
150.4132842066
 20
117.8321609451
  0
VERTEX
  8
0
 62
7
  6
CONTINUOUS
 10
150.4783095268
 20
117.7381418032
  0
VERTEX
  8
0
 62
7
  6
CONTINUOUS
 10
150.554620375
 20
117.6358113317
  0
VERTEX
  8
0
 62
7
  6
CONTINUOUS
 10
150.6426183162
 20
117.5271748574
  0
VERTEX
  8
0
 62
7
  6
CONTINUOUS
 10
150.736210682
 20
117.4212220044
  0
VERTEX
  8
0
 62
7
  6
CONTINUOUS
 10
150.8278190495
 20
117.3259049875
  0
VERTEX
  8
0
 62
7
  6
CONTINUOUS
 10
150.9143304144
 20
117.2426258254
  0
VERTEX
  8
0
 62
7
  6
CONTINUOUS
 10
150.9977678932
 20
117.1679016003
  0
VERTEX
  8
0
 62
7
  6
CONTINUOUS
 10
151.0808415082
 20
117.0984976924
  0
VERTEX
  8
0
 62
7
  6
CONTINUOUS
 10
151.1657217319
 20
117.0323487532
  0
VERTEX
  8
0
 62
7
  6
CONTINUOUS
 10
151.2527018245
 20
116.9692231337
  0
VERTEX
  8
0
 62
7
  6
CONTINUOUS
 10
151.3417661918
 20
116.9091612267
  0
VERTEX
  8
0
 62
7
  6
CONTINUOUS
 10
151.4327469282
 20
116.8523151696
  0
VERTEX
  8
0
 62
7
  6
CONTINUOUS
 10
151.5257575999
 20
116.7986854425
  0
VERTEX
  8
0
 62
7
  6
CONTINUOUS
 10
151.6211231808
 20
116.7481742763
  0
VERTEX
  8
0
 62
7
  6
CONTINUOUS
 10
151.7188027591
 20
116.7009240664
  0
VERTEX
  8
0
 62
7
  6
CONTINUOUS
 10
151.8187080056
 20
116.6570676241
  0
VERTEX
  8
0
 62
7
  6
CONTINUOUS
 10
151.920490803
 20
116.6168130971
  0
VERTEX
  8
0
 62
7
  6
CONTINUOUS
 10
152.023857794
 20
116.5803224998
  0
VERTEX
  8
0
 62
7
  6
CONTINUOUS
 10
152.1287196874
 20
116.5476684903
  0
VERTEX
  8
0
 62
7
  6
CONTINUOUS
 10
152.2349988725
 20
116.5189342119
  0
VERTEX
  8
0
 62
7
  6
CONTINUOUS
 10
152.3422567287
 20
116.4942910183
  0
VERTEX
  8
0
 62
7
  6
CONTINUOUS
 10
152.4506270929
 20
116.4737738969
  0
VERTEX
  8
0
 62
7
  6
CONTINUOUS
 10
152.5613849508
 20
116.4572830985
  0
VERTEX
  8
0
 62
7
  6
CONTINUOUS
 10
152.6759875316
 20
116.4449232271
  0
VERTEX
  8
0
 62
7
  6
CONTINUOUS
 10
152.7958685232
 20
116.4370353793
  0
VERTEX
  8
0
 62
7
  6
CONTINUOUS
 10
152.9225769305
 20
116.4342231911
  0
SEQEND
  0
LINE
  8
0
 62
7
  6
CONTINUOUS
 10
143.9225768421
 20
135.5903320527
 11
143.9225768421
 21
119.7978978745
  0
LINE
  8
0
 62
7
  6
CONTINUOUS
 10
144.7225768421
 20
136.9417061869
 11
144.7225768421
 21
138.4723227328
  0
LINE
  8
0
 62
7
  6
CONTINUOUS
 10
145.0225768421
 20
119.7978985568
 11
145.0225768421
 21
135.5903320527
  0
LINE
  8
0
 62
7
  6
CONTINUOUS
 10
149.8225768421
 20
135.5903320527
 11
149.8225768421
 21
119.797899124
  0
LINE
  8
0
 62
7
  6
CONTINUOUS
 10
150.1225768421
 20
138.4723227328
 11
150.1225768421
 21
136.9417061869
  0
LINE
  8
0
 62
7
  6
CONTINUOUS
 10
150.9225768421
 20
135.5903320527
 11
150.9225768421
 21
119.7978978745
  0
LINE
  8
0
 62
7
  6
CONTINUOUS
 10
153.6225768421
 20
147.4223227328
 11
153.6225768421
 21
142.7289812071
  0
LINE
  8
0
 62
7
  6
CONTINUOUS
 10
132.0914485913
 20
96.8680910236
 11
132.1779461687
 21
97.088935902
  0
LINE
  8
0
 62
7
  6
CONTINUOUS
 10
150.0536963268
 20
136.576991908
 11
149.9672259242
 21
136.3562320383
  0
LINE
  8
0
 62
7
  6
CONTINUOUS
 10
150.9914573574
 20
135.9550463316
 11
153.6019126875
 21
142.6195669234
  0
POLYLINE
  8
0
 62
7
  6
CONTINUOUS
 66
1
 70
0
  0
VERTEX
  8
0
 62
7
  6
CONTINUOUS
 10
32.080087227
 20
84.3659639825
  0
VERTEX
  8
0
 62
7
  6
CONTINUOUS
 10
32.1074844708
 20
84.3780830177
  0
VERTEX
  8
0
 62
7
  6
CONTINUOUS
 10
32.1336982182
 20
84.3929770463
  0
VERTEX
  8
0
 62
7
  6
CONTINUOUS
 10
32.1577931597
 20
84.4100404077
  0
VERTEX
  8
0
 62
7
  6
CONTINUOUS
 10
32.1800079156
 20
84.4293070565
  0
VERTEX
  8
0
 62
7
  6
CONTINUOUS
 10
32.2004384876
 20
84.4508995173
  0
VERTEX
  8
0
 62
7
  6
CONTINUOUS
 10
32.218656652
 20
84.474443451
  0
VERTEX
  8
0
 62
7
  6
CONTINUOUS
 10
32.2345672955
 20
84.4998840742
  0
VERTEX
  8
0
 62
7
  6
CONTINUOUS
 10
32.2479976137
 20
84.5271120891
  0
VERTEX
  8
0
 62
7
  6
CONTINUOUS
 10
32.2586096942
 20
84.5555659736
  0
VERTEX
  8
0
 62
7
  6
CONTINUOUS
 10
32.2663109818
 20
84.585044216
  0
VERTEX
  8
0
 62
7
  6
CONTINUOUS
 10
32.2710367212
 20
84.6156785887
  0
VERTEX
  8
0
 62
7
  6
CONTINUOUS
 10
32.2725768421
 20
84.6460381104
  0
SEQEND
  0
LINE
  8
0
 62
7
  6
CONTINUOUS
 10
318.4202891926
 20
83.3223227328
 11
311.4202891926
 21
83.3223227328
  0
LINE
  8
0
 62
7
  6
CONTINUOUS
 10
290.6202891926
 20
83.3223227328
 11
283.6202891926
 21
83.3223227328
  0
LINE
  8
0
 62
7
  6
CONTINUOUS
 10
265.2202891926
 20
83.3223227328
 11
258.2225768421
 21
83.3223227328
  0
LINE
  8
0
 62
7
  6
CONTINUOUS
 10
239.8225768421
 20
83.3223227328
 11
232.8225768421
 21
83.3223227328
  0
LINE
  8
0
 62
7
  6
CONTINUOUS
 10
214.4225768421
 20
83.3223227328
 11
207.4225768421
 21
83.3223227328
  0
LINE
  8
0
 62
7
  6
CONTINUOUS
 10
189.0225768421
 20
83.3223227328
 11
182.0225768421
 21
83.3223227328
  0
LINE
  8
0
 62
7
  6
CONTINUOUS
 10
163.6225768421
 20
83.3223227328
 11
156.6225768421
 21
83.3223227328
  0
LINE
  8
0
 62
7
  6
CONTINUOUS
 10
138.2225768421
 20
83.3223227328
 11
131.2225768421
 21
83.3223227328
  0
LINE
  8
0
 62
7
  6
CONTINUOUS
 10
52.6248644916
 20
83.3223227328
 11
59.6248644916
 21
83.3223227328
  0
LINE
  8
0
 62
7
  6
CONTINUOUS
 10
80.4248644916
 20
83.3223227328
 11
87.4248644916
 21
83.3223227328
  0
LINE
  8
0
 62
7
  6
CONTINUOUS
 10
105.8248644916
 20
83.3223227328
 11
112.8225768421
 21
83.3223227328
  0
POLYLINE
  8
0
 62
7
  6
CONTINUOUS
 66
1
 70
0
  0
VERTEX
  8
0
 62
7
  6
CONTINUOUS
 10
26.2822016366
 20
82.1695790415
  0
VERTEX
  8
0
 62
7
  6
CONTINUOUS
 10
26.3100627552
 20
82.169118242
  0
VERTEX
  8
0
 62
7
  6
CONTINUOUS
 10
26.3382281653
 20
82.1712814266
  0
VERTEX
  8
0
 62
7
  6
CONTINUOUS
 10
26.3664948789
 20
82.1761887006
  0
VERTEX
  8
0
 62
7
  6
CONTINUOUS
 10
26.3945692415
 20
82.183900537
  0
VERTEX
  8
0
 62
7
  6
CONTINUOUS
 10
26.4086562418
 20
82.1889060462
  0
SEQEND
  0
LINE
  8
0
 62
7
  6
CONTINUOUS
 10
153.9225768421
 20
86.0223227328
 11
153.9225768421
 21
90.7156679925
  0
LINE
  8
0
 62
7
  6
CONTINUOUS
 10
156.6225768421
 20
111.9223227328
 11
156.6225768421
 21
97.8547888883
  0
LINE
  8
0
 62
7
  6
CONTINUOUS
 10
157.4225768421
 20
94.9723227328
 11
157.4225768421
 21
96.5033991254
  0
LINE
  8
0
 62
7
  6
CONTINUOUS
 10
157.7225768421
 20
97.8547888883
 11
157.7225768421
 21
111.9223227328
  0
LINE
  8
0
 62
7
  6
CONTINUOUS
 10
162.5225768421
 20
111.9223227328
 11
162.5225768421
 21
97.8547888883
  0
LINE
  8
0
 62
7
  6
CONTINUOUS
 10
162.8225768421
 20
96.5033991254
 11
162.8225768421
 21
94.9723227328
  0
LINE
  8
0
 62
7
  6
CONTINUOUS
 10
163.6225768421
 20
111.9223227328
 11
163.6225768421
 21
97.8547888883
  0
LINE
  8
0
 62
7
  6
CONTINUOUS
 10
32.080087227
 20
84.3659639825
 11
26.4086575406
 21
82.1889060987
  0
POLYLINE
  8
0
 62
7
  6
CONTINUOUS
 66
1
 70
0
  0
VERTEX
  8
0
 62
7
  6
CONTINUOUS
 10
329.4725768603
 20
97.9737805588
  0
VERTEX
  8
0
 62
7
  6
CONTINUOUS
 10
329.363703523
 20
97.9707850732
  0
VERTEX
  8
0
 62
7
  6
CONTINUOUS
 10
329.238065022
 20
97.959923197
  0
VERTEX
  8
0
 62
7
  6
CONTINUOUS
 10
329.1124687723
 20
97.9410978855
  0
VERTEX
  8
0
 62
7
  6
CONTINUOUS
 10
328.9882157631
 20
97.9144447684
  0
VERTEX
  8
0
 62
7
  6
CONTINUOUS
 10
328.8664109709
 20
97.880212244
  0
VERTEX
  8
0
 62
7
  6
CONTINUOUS
 10
328.7473311888
 20
97.8385043276
  0
VERTEX
  8
0
 62
7
  6
CONTINUOUS
 10
328.6309708285
 20
97.7892665255
  0
VERTEX
  8
0
 62
7
  6
CONTINUOUS
 10
328.5176537751
 20
97.7325829451
  0
VERTEX
  8
0
 62
7
  6
CONTINUOUS
 10
328.4078067097
 20
97.6686844013
  0
VERTEX
  8
0
 62
7
  6
CONTINUOUS
 10
328.3019915277
 20
97.5977914982
  0
VERTEX
  8
0
 62
7
  6
CONTINUOUS
 10
328.2011553497
 20
97.5204744508
  0
VERTEX
  8
0
 62
7
  6
CONTINUOUS
 10
328.1057438669
 20
97.4371728155
  0
VERTEX
  8
0
 62
7
  6
CONTINUOUS
 10
328.0158663323
 20
97.3479143091
  0
VERTEX
  8
0
 62
7
  6
CONTINUOUS
 10
327.9318596359
 20
97.2531555217
  0
VERTEX
  8
0
 62
7
  6
CONTINUOUS
 10
327.8540865001
 20
97.1534807034
  0
VERTEX
  8
0
 62
7
  6
CONTINUOUS
 10
327.7829508986
 20
97.0493587144
  0
VERTEX
  8
0
 62
7
  6
CONTINUOUS
 10
327.7186052976
 20
96.9408340727
  0
VERTEX
  8
0
 62
7
  6
CONTINUOUS
 10
327.6611749236
 20
96.8281677644
  0
VERTEX
  8
0
 62
7
  6
CONTINUOUS
 10
327.6109444995
 20
96.711796391
  0
VERTEX
  8
0
 62
7
  6
CONTINUOUS
 10
327.5681943264
 20
96.5921706724
  0
VERTEX
  8
0
 62
7
  6
CONTINUOUS
 10
327.533120703
 20
96.4698907551
  0
VERTEX
  8
0
 62
7
  6
CONTINUOUS
 10
327.5059055877
 20
96.3455710681
  0
VERTEX
  8
0
 62
7
  6
CONTINUOUS
 10
327.486716097
 20
96.2199141203
  0
VERTEX
  8
0
 62
7
  6
CONTINUOUS
 10
327.4756258762
 20
96.0935808421
  0
VERTEX
  8
0
 62
7
  6
CONTINUOUS
 10
327.4725768421
 20
95.9839121899
  0
SEQEND
  0
POLYLINE
  8
0
 62
7
  6
CONTINUOUS
 66
1
 70
0
  0
VERTEX
  8
0
 62
7
  6
CONTINUOUS
 10
41.5725768304
 20
88.6708649291
  0
VERTEX
  8
0
 62
7
  6
CONTINUOUS
 10
41.6804585908
 20
88.6737859608
  0
VERTEX
  8
0
 62
7
  6
CONTINUOUS
 10
41.8058573912
 20
88.6845213494
  0
VERTEX
  8
0
 62
7
  6
CONTINUOUS
 10
41.9309848159
 20
88.7031788032
  0
VERTEX
  8
0
 62
7
  6
CONTINUOUS
 10
42.0548924663
 20
88.7296752732
  0
VERTEX
  8
0
 62
7
  6
CONTINUOUS
 10
42.17665743
 20
88.763791178
  0
VERTEX
  8
0
 62
7
  6
CONTINUOUS
 10
42.2956427896
 20
88.8053098341
  0
VERTEX
  8
0
 62
7
  6
CONTINUOUS
 10
42.4113668319
 20
88.8540653676
  0
VERTEX
  8
0
 62
7
  6
CONTINUOUS
 10
42.5238143254
 20
88.910015107
  0
VERTEX
  8
0
 62
7
  6
CONTINUOUS
 10
42.6331449867
 20
88.9732914429
  0
VERTEX
  8
0
 62
7
  6
CONTINUOUS
 10
42.73885276
 20
89.0438258807
  0
VERTEX
  8
0
 62
7
  6
CONTINUOUS
 10
42.8398768674
 20
89.120901773
  0
VERTEX
  8
0
 62
7
  6
CONTINUOUS
 10
42.9355195462
 20
89.2039181069
  0
VERTEX
  8
0
 62
7
  6
CONTINUOUS
 10
43.025476777
 20
89.2926742222
  0
VERTEX
  8
0
 62
7
  6
CONTINUOUS
 10
43.1094041455
 20
89.3868494289
  0
VERTEX
  8
0
 62
7
  6
CONTINUOUS
 10
43.1873704573
 20
89.4863863927
  0
VERTEX
  8
0
 62
7
  6
CONTINUOUS
 10
43.2591304361
 20
89.590956382
  0
VERTEX
  8
0
 62
7
  6
CONTINUOUS
 10
43.3243121222
 20
89.7001438141
  0
VERTEX
  8
0
 62
7
  6
CONTINUOUS
 10
43.3825958728
 20
89.8136671757
  0
VERTEX
  8
0
 62
7
  6
CONTINUOUS
 10
43.4334952151
 20
89.9310245032
  0
VERTEX
  8
0
 62
7
  6
CONTINUOUS
 10
43.4766531511
 20
90.0516266327
  0
VERTEX
  8
0
 62
7
  6
CONTINUOUS
 10
43.511925582
 20
90.1747656872
  0
VERTEX
  8
0
 62
7
  6
CONTINUOUS
 10
43.5392064443
 20
90.2996309063
  0
VERTEX
  8
0
 62
7
  6
CONTINUOUS
 10
43.5584074721
 20
90.4253896153
  0
VERTEX
  8
0
 62
7
  6
CONTINUOUS
 10
43.5694980515
 20
90.5511823268
  0
VERTEX
  8
0
 62
7
  6
CONTINUOUS
 10
43.5725768419
 20
90.6607414208
  0
SEQEND
  0
LINE
  8
0
 62
7
  6
CONTINUOUS
 10
32.3052437244
 20
88.6693432925
 11
32.3499840664
 21
88.6699938531
  0
LINE
  8
0
 62
7
  6
CONTINUOUS
 10
32.3499840664
 20
88.6699938531
 11
32.401481623
 21
88.6705089925
  0
LINE
  8
0
 62
7
  6
CONTINUOUS
 10
32.401481623
 20
88.6705089925
 11
32.4578379094
 21
88.6708116387
  0
LINE
  8
0
 62
7
  6
CONTINUOUS
 10
32.4578379094
 20
88.6708116387
 11
41.5725768421
 21
88.6708621658
  0
LINE
  8
DEFAULT_1
 62
2
  6
CENTER
 10
13.2225768421
 20
91.3223227328
 11
357.2225768421
 21
91.3223227328
  0
LINE
  8
0
 62
7
  6
CONTINUOUS
 10
263.4225768421
 20
93.9723227328
 11
260.0225768421
 21
93.9723227328
  0
LINE
  8
0
 62
7
  6
CONTINUOUS
 10
238.0225768421
 20
93.9723227328
 11
234.6225768421
 21
93.9723227328
  0
LINE
  8
0
 62
7
  6
CONTINUOUS
 10
212.6225768421
 20
93.9723227328
 11
209.2225768421
 21
93.9723227328
  0
LINE
  8
0
 62
7
  6
CONTINUOUS
 10
187.2225768421
 20
93.9723227328
 11
183.8225768421
 21
93.9723227328
  0
LINE
  8
0
 62
7
  6
CONTINUOUS
 10
161.8225768421
 20
93.9723227328
 11
158.4225768421
 21
93.9723227328
  0
LINE
  8
0
 62
7
  6
CONTINUOUS
 10
136.4225768421
 20
93.9723227328
 11
133.0225768421
 21
93.9723227328
  0
LINE
  8
0
 62
7
  6
CONTINUOUS
 10
329.4725768421
 20
88.6708621658
 11
338.618061626
 21
88.6706795653
  0
LINE
  8
0
 62
7
  6
CONTINUOUS
 10
338.618061626
 20
88.6706795653
 11
338.6730477666
 21
88.6702440348
  0
POLYLINE
  8
0
 62
7
  6
CONTINUOUS
 66
1
 70
0
  0
VERTEX
  8
0
 62
7
  6
CONTINUOUS
 10
338.6730477666
 20
88.6702440348
  0
VERTEX
  8
0
 62
7
  6
CONTINUOUS
 10
338.7228991878
 20
88.6696154054
  0
VERTEX
  8
0
 62
7
  6
CONTINUOUS
 10
338.7398951763
 20
88.6693401895
  0
SEQEND
  0
LINE
  8
0
 62
7
  6
CONTINUOUS
 10
141.2432409967
 20
142.6195669234
 11
143.8536963268
 21
135.9550463316
  0
LINE
  8
0
 62
7
  6
CONTINUOUS
 10
144.87792776
 20
136.3562320383
 11
144.7914573574
 21
136.576991908
  0
LINE
  8
0
 62
7
  6
CONTINUOUS
 10
162.6672075155
 20
97.088935902
 11
162.7537050929
 21
96.8680910236
  0
LINE
  8
0
 62
7
  6
CONTINUOUS
 10
166.3019153173
 20
90.825075562
 11
163.6914485913
 21
97.4900969901
  0
POLYLINE
  8
0
 62
7
  6
CONTINUOUS
 66
1
 70
0
  0
VERTEX
  8
0
 62
7
  6
CONTINUOUS
 10
175.2225768421
 20
119.797899124
  0
VERTEX
  8
0
 62
7
  6
CONTINUOUS
 10
175.2244323589
 20
119.6823326284
  0
VERTEX
  8
0
 62
7
  6
CONTINUOUS
 10
175.2296624895
 20
119.5723883989
  0
VERTEX
  8
0
 62
7
  6
CONTINUOUS
 10
175.2379109931
 20
119.4666451165
  0
VERTEX
  8
0
 62
7
  6
CONTINUOUS
 10
175.2489813464
 20
119.3637689337
  0
VERTEX
  8
0
 62
7
  6
CONTINUOUS
 10
175.2628492484
 20
119.2624487745
  0
VERTEX
  8
0
 62
7
  6
CONTINUOUS
 10
175.2796280037
 20
119.161438228
  0
VERTEX
  8
0
 62
7
  6
CONTINUOUS
 10
175.2993350037
 20
119.0606514744
  0
VERTEX
  8
0
 62
7
  6
CONTINUOUS
 10
175.3218920876
 20
118.9605662353
  0
VERTEX
  8
0
 62
7
  6
CONTINUOUS
 10
175.3472920077
 20
118.8612410926
  0
VERTEX
  8
0
 62
7
  6
CONTINUOUS
 10
175.3755427988
 20
118.7626233887
  0
VERTEX
  8
0
 62
7
  6
CONTINUOUS
 10
175.4066005475
 20
118.6648462813
  0
VERTEX
  8
0
 62
7
  6
CONTINUOUS
 10
175.4404376411
 20
118.5680398034
  0
VERTEX
  8
0
 62
7
  6
CONTINUOUS
 10
175.4770940505
 20
118.4721536369
  0
VERTEX
  8
0
 62
7
  6
CONTINUOUS
 10
175.5165638454
 20
118.3772817568
  0
VERTEX
  8
0
 62
7
  6
CONTINUOUS
 10
175.5588119561
 20
118.2836013018
  0
VERTEX
  8
0
 62
7
  6
CONTINUOUS
 10
175.6039020762
 20
118.1910338399
  0
VERTEX
  8
0
 62
7
  6
CONTINUOUS
 10
175.6519175586
 20
118.099482721
  0
VERTEX
  8
0
 62
7
  6
CONTINUOUS
 10
175.7026398137
 20
118.0094179893
  0
VERTEX
  8
0
 62
7
  6
CONTINUOUS
 10
175.7558188295
 20
117.9212390827
  0
VERTEX
  8
0
 62
7
  6
CONTINUOUS
 10
175.8132842066
 20
117.8321609451
  0
VERTEX
  8
0
 62
7
  6
CONTINUOUS
 10
175.8783095267
 20
117.7381418032
  0
VERTEX
  8
0
 62
7
  6
CONTINUOUS
 10
175.954620375
 20
117.6358113317
  0
VERTEX
  8
0
 62
7
  6
CONTINUOUS
 10
176.0426183162
 20
117.5271748574
  0
VERTEX
  8
0
 62
7
  6
CONTINUOUS
 10
176.136210682
 20
117.4212220044
  0
VERTEX
  8
0
 62
7
  6
CONTINUOUS
 10
176.2278190495
 20
117.3259049875
  0
VERTEX
  8
0
 62
7
  6
CONTINUOUS
 10
176.3143304144
 20
117.2426258254
  0
VERTEX
  8
0
 62
7
  6
CONTINUOUS
 10
176.3977678932
 20
117.1679016004
  0
VERTEX
  8
0
 62
7
  6
CONTINUOUS
 10
176.4808415082
 20
117.0984976924
  0
VERTEX
  8
0
 62
7
  6
CONTINUOUS
 10
176.5657217319
 20
117.0323487532
  0
VERTEX
  8
0
 62
7
  6
CONTINUOUS
 10
176.6527018245
 20
116.9692231337
  0
VERTEX
  8
0
 62
7
  6
CONTINUOUS
 10
176.7417661918
 20
116.9091612267
  0
VERTEX
  8
0
 62
7
  6
CONTINUOUS
 10
176.8327469282
 20
116.8523151696
  0
VERTEX
  8
0
 62
7
  6
CONTINUOUS
 10
176.9257575999
 20
116.7986854426
  0
VERTEX
  8
0
 62
7
  6
CONTINUOUS
 10
177.0211231808
 20
116.7481742763
  0
VERTEX
  8
0
 62
7
  6
CONTINUOUS
 10
177.1188027591
 20
116.7009240664
  0
VERTEX
  8
0
 62
7
  6
CONTINUOUS
 10
177.2187080056
 20
116.6570676241
  0
VERTEX
  8
0
 62
7
  6
CONTINUOUS
 10
177.320490803
 20
116.6168130971
  0
VERTEX
  8
0
 62
7
  6
CONTINUOUS
 10
177.4238577939
 20
116.5803224998
  0
VERTEX
  8
0
 62
7
  6
CONTINUOUS
 10
177.5287196874
 20
116.5476684903
  0
VERTEX
  8
0
 62
7
  6
CONTINUOUS
 10
177.6349988725
 20
116.5189342119
  0
VERTEX
  8
0
 62
7
  6
CONTINUOUS
 10
177.7422567287
 20
116.4942910183
  0
VERTEX
  8
0
 62
7
  6
CONTINUOUS
 10
177.8506270928
 20
116.4737738969
  0
VERTEX
  8
0
 62
7
  6
CONTINUOUS
 10
177.9613849507
 20
116.4572830985
  0
VERTEX
  8
0
 62
7
  6
CONTINUOUS
 10
178.0759875316
 20
116.4449232271
  0
VERTEX
  8
0
 62
7
  6
CONTINUOUS
 10
178.1958685232
 20
116.4370353793
  0
VERTEX
  8
0
 62
7
  6
CONTINUOUS
 10
178.3225769305
 20
116.4342231911
  0
SEQEND
  0
LINE
  8
0
 62
7
  6
CONTINUOUS
 10
166.3225768421
 20
90.7156679925
 11
166.3225768421
 21
86.0223227328
  0
LINE
  8
0
 62
7
  6
CONTINUOUS
 10
166.6225768421
 20
142.7289812071
 11
166.6225768421
 21
147.4223227328
  0
LINE
  8
0
 62
7
  6
CONTINUOUS
 10
169.3225768421
 20
135.5903320527
 11
169.3225768421
 21
119.7978978745
  0
LINE
  8
0
 62
7
  6
CONTINUOUS
 10
170.1225768421
 20
136.9417061869
 11
170.1225768421
 21
138.4723227328
  0
LINE
  8
0
 62
7
  6
CONTINUOUS
 10
170.4225768421
 20
119.7978985568
 11
170.4225768421
 21
135.5903320527
  0
LINE
  8
0
 62
7
  6
CONTINUOUS
 10
175.2225768421
 20
135.5903320527
 11
175.2225768421
 21
119.797899124
  0
LINE
  8
0
 62
7
  6
CONTINUOUS
 10
175.5225768421
 20
138.4723227328
 11
175.5225768421
 21
136.9417061869
  0
LINE
  8
0
 62
7
  6
CONTINUOUS
 10
153.9432383669
 20
90.825075562
 11
156.5537050929
 21
97.4900969901
  0
LINE
  8
0
 62
7
  6
CONTINUOUS
 10
157.4914485913
 20
96.8680910236
 11
157.5779461687
 21
97.088935902
  0
LINE
  8
0
 62
7
  6
CONTINUOUS
 10
175.4536963268
 20
136.576991908
 11
175.3672259242
 21
136.3562320383
  0
LINE
  8
0
 62
7
  6
CONTINUOUS
 10
176.3914573574
 20
135.9550463316
 11
179.0019126875
 21
142.6195669234
  0
LINE
  8
0
 62
7
  6
CONTINUOUS
 10
338.7398945905
 20
97.9752987884
 11
338.6980539645
 21
97.9746819485
  0
LINE
  8
0
 62
7
  6
CONTINUOUS
 10
338.6980539645
 20
97.9746819485
 11
338.6462984671
 21
97.9741534418
  0
LINE
  8
0
 62
7
  6
CONTINUOUS
 10
338.6462984671
 20
97.9741534418
 11
338.589588951
 21
97.973839963
  0
LINE
  8
0
 62
7
  6
CONTINUOUS
 10
338.589588951
 20
97.973839963
 11
329.4725768421
 21
97.9737832998
  0
LINE
  8
0
 62
7
  6
CONTINUOUS
 10
41.5725768421
 20
97.9737832998
 11
32.4553099411
 21
97.9738407717
  0
LINE
  8
0
 62
7
  6
CONTINUOUS
 10
32.4553099411
 20
97.9738407717
 11
32.3983697489
 21
97.9741572988
  0
LINE
  8
0
 62
7
  6
CONTINUOUS
 10
32.3983697489
 20
97.9741572988
 11
32.3464267479
 21
97.9746904311
  0
LINE
  8
0
 62
7
  6
CONTINUOUS
 10
32.3464267479
 20
97.9746904311
 11
32.3052439581
 21
97.9752995764
  0
LINE
  8
0
 62
7
  6
CONTINUOUS
 10
176.3225768421
 20
135.5903320527
 11
176.3225768421
 21
119.7978978745
  0
LINE
  8
0
 62
7
  6
CONTINUOUS
 10
179.0225768421
 20
147.4223227328
 11
179.0225768421
 21
142.7289812071
  0
LINE
  8
0
 62
7
  6
CONTINUOUS
 10
179.3225768421
 20
86.0223227328
 11
179.3225768421
 21
90.7156679925
  0
LINE
  8
0
 62
7
  6
CONTINUOUS
 10
182.0225768421
 20
111.9223227328
 11
182.0225768421
 21
97.8547888883
  0
LINE
  8
0
 62
7
  6
CONTINUOUS
 10
182.8225768421
 20
94.9723227328
 11
182.8225768421
 21
96.5033991254
  0
LINE
  8
0
 62
7
  6
CONTINUOUS
 10
183.1225768421
 20
97.8547888883
 11
183.1225768421
 21
111.9223227328
  0
POLYLINE
  8
0
 62
7
  6
CONTINUOUS
 66
1
 70
0
  0
VERTEX
  8
0
 62
7
  6
CONTINUOUS
 10
268.9225768259
 20
116.4342231911
  0
VERTEX
  8
0
 62
7
  6
CONTINUOUS
 10
269.0479677078
 20
116.4370284741
  0
VERTEX
  8
0
 62
7
  6
CONTINUOUS
 10
269.1671743564
 20
116.4448807041
  0
VERTEX
  8
0
 62
7
  6
CONTINUOUS
 10
269.2815064822
 20
116.4571642774
  0
VERTEX
  8
0
 62
7
  6
CONTINUOUS
 10
269.3922839764
 20
116.4735457916
  0
VERTEX
  8
0
 62
7
  6
CONTINUOUS
 10
269.5008459085
 20
116.4939415558
  0
VERTEX
  8
0
 62
7
  6
CONTINUOUS
 10
269.6083419551
 20
116.5184550406
  0
VERTEX
  8
0
 62
7
  6
CONTINUOUS
 10
269.7148093671
 20
116.5470884579
  0
VERTEX
  8
0
 62
7
  6
CONTINUOUS
 10
269.819931108
 20
116.5797283666
  0
VERTEX
  8
0
 62
7
  6
CONTINUOUS
 10
269.9233919919
 20
116.6162064344
  0
VERTEX
  8
0
 62
7
  6
CONTINUOUS
 10
270.0250356837
 20
116.6563932304
  0
VERTEX
  8
0
 62
7
  6
CONTINUOUS
 10
270.1247364254
 20
116.700150402
  0
VERTEX
  8
0
 62
7
  6
CONTINUOUS
 10
270.2223886327
 20
116.7473502038
  0
VERTEX
  8
0
 62
7
  6
CONTINUOUS
 10
270.3182521445
 20
116.7980620496
  0
VERTEX
  8
0
 62
7
  6
CONTINUOUS
 10
270.4124525174
 20
116.8523049008
  0
VERTEX
  8
0
 62
7
  6
CONTINUOUS
 10
270.5047824151
 20
116.9099400147
  0
VERTEX
  8
0
 62
7
  6
CONTINUOUS
 10
270.5948491328
 20
116.9706930332
  0
VERTEX
  8
0
 62
7
  6
CONTINUOUS
 10
270.6820896172
 20
117.0340781192
  0
VERTEX
  8
0
 62
7
  6
CONTINUOUS
 10
270.7663941973
 20
117.0998645711
  0
VERTEX
  8
0
 62
7
  6
CONTINUOUS
 10
270.8479417039
 20
117.1680625787
  0
VERTEX
  8
0
 62
7
  6
CONTINUOUS
 10
270.9267928654
 20
117.2386152095
  0
VERTEX
  8
0
 62
7
  6
CONTINUOUS
 10
271.0029308301
 20
117.3114012716
  0
VERTEX
  8
0
 62
7
  6
CONTINUOUS
 10
271.0764246354
 20
117.3863915531
  0
VERTEX
  8
0
 62
7
  6
CONTINUOUS
 10
271.1472673606
 20
117.4634680997
  0
VERTEX
  8
0
 62
7
  6
CONTINUOUS
 10
271.2151889758
 20
117.542207162
  0
VERTEX
  8
0
 62
7
  6
CONTINUOUS
 10
271.2807114682
 20
117.6231160564
  0
VERTEX
  8
0
 62
7
  6
CONTINUOUS
 10
271.3454177339
 20
117.7083168848
  0
VERTEX
  8
0
 62
7
  6
CONTINUOUS
 10
271.4095731549
 20
117.7986978872
  0
VERTEX
  8
0
 62
7
  6
CONTINUOUS
 10
271.4720863608
 20
117.8932574715
  0
VERTEX
  8
0
 62
7
  6
CONTINUOUS
 10
271.531873241
 20
117.9906363352
  0
VERTEX
  8
0
 62
7
  6
CONTINUOUS
 10
271.5880767315
 20
118.0894429426
  0
VERTEX
  8
0
 62
7
  6
CONTINUOUS
 10
271.6401386648
 20
118.1884063507
  0
VERTEX
  8
0
 62
7
  6
CONTINUOUS
 10
271.6876946661
 20
118.286255565
  0
VERTEX
  8
0
 62
7
  6
CONTINUOUS
 10
271.7305211945
 20
118.3816797127
  0
VERTEX
  8
0
 62
7
  6
CONTINUOUS
 10
271.7694073614
 20
118.4755710826
  0
VERTEX
  8
0
 62
7
  6
CONTINUOUS
 10
271.8056574992
 20
118.5706422775
  0
VERTEX
  8
0
 62
7
  6
CONTINUOUS
 10
271.8394225119
 20
118.6673307828
  0
VERTEX
  8
0
 62
7
  6
CONTINUOUS
 10
271.8704104481
 20
118.7648816747
  0
VERTEX
  8
0
 62
7
  6
CONTINUOUS
 10
271.8985625537
 20
118.86308433
  0
VERTEX
  8
0
 62
7
  6
CONTINUOUS
 10
271.9238833285
 20
118.9620120798
  0
VERTEX
  8
0
 62
7
  6
CONTINUOUS
 10
271.94636862
 20
119.0617327257
  0
VERTEX
  8
0
 62
7
  6
CONTINUOUS
 10
271.9659787598
 20
119.1621097096
  0
VERTEX
  8
0
 62
7
  6
CONTINUOUS
 10
271.9826506893
 20
119.2628089703
  0
VERTEX
  8
0
 62
7
  6
CONTINUOUS
 10
271.9964234618
 20
119.3639836623
  0
VERTEX
  8
0
 62
7
  6
CONTINUOUS
 10
272.0074043765
 20
119.4667900093
  0
VERTEX
  8
0
 62
7
  6
CONTINUOUS
 10
272.0155723998
 20
119.5725063925
  0
VERTEX
  8
0
 62
7
  6
CONTINUOUS
 10
272.0207447513
 20
119.6824284363
  0
VERTEX
  8
0
 62
7
  6
CONTINUOUS
 10
272.0225768421
 20
119.7978985566
  0
SEQEND
  0
POLYLINE
  8
0
 62
7
  6
CONTINUOUS
 66
1
 70
0
  0
VERTEX
  8
0
 62
7
  6
CONTINUOUS
 10
243.5225768259
 20
116.4342231911
  0
VERTEX
  8
0
 62
7
  6
CONTINUOUS
 10
243.6479677078
 20
116.4370284741
  0
VERTEX
  8
0
 62
7
  6
CONTINUOUS
 10
243.7671743564
 20
116.4448807041
  0
VERTEX
  8
0
 62
7
  6
CONTINUOUS
 10
243.8815064822
 20
116.4571642774
  0
VERTEX
  8
0
 62
7
  6
CONTINUOUS
 10
243.9922839764
 20
116.4735457916
  0
VERTEX
  8
0
 62
7
  6
CONTINUOUS
 10
244.1008459085
 20
116.4939415558
  0
VERTEX
  8
0
 62
7
  6
CONTINUOUS
 10
244.2083419551
 20
116.5184550407
  0
VERTEX
  8
0
 62
7
  6
CONTINUOUS
 10
244.3148093671
 20
116.5470884579
  0
VERTEX
  8
0
 62
7
  6
CONTINUOUS
 10
244.419931108
 20
116.5797283666
  0
VERTEX
  8
0
 62
7
  6
CONTINUOUS
 10
244.523391992
 20
116.6162064344
  0
VERTEX
  8
0
 62
7
  6
CONTINUOUS
 10
244.6250356837
 20
116.6563932304
  0
VERTEX
  8
0
 62
7
  6
CONTINUOUS
 10
244.7247364254
 20
116.700150402
  0
VERTEX
  8
0
 62
7
  6
CONTINUOUS
 10
244.8223886327
 20
116.7473502038
  0
VERTEX
  8
0
 62
7
  6
CONTINUOUS
 10
244.9182521445
 20
116.7980620496
  0
VERTEX
  8
0
 62
7
  6
CONTINUOUS
 10
245.0124525174
 20
116.8523049008
  0
VERTEX
  8
0
 62
7
  6
CONTINUOUS
 10
245.1047824151
 20
116.9099400148
  0
VERTEX
  8
0
 62
7
  6
CONTINUOUS
 10
245.1948491328
 20
116.9706930332
  0
VERTEX
  8
0
 62
7
  6
CONTINUOUS
 10
245.2820896172
 20
117.0340781192
  0
VERTEX
  8
0
 62
7
  6
CONTINUOUS
 10
245.3663941973
 20
117.0998645711
  0
VERTEX
  8
0
 62
7
  6
CONTINUOUS
 10
245.447941704
 20
117.1680625787
  0
VERTEX
  8
0
 62
7
  6
CONTINUOUS
 10
245.5267928654
 20
117.2386152095
  0
VERTEX
  8
0
 62
7
  6
CONTINUOUS
 10
245.6029308302
 20
117.3114012716
  0
VERTEX
  8
0
 62
7
  6
CONTINUOUS
 10
245.6764246354
 20
117.3863915531
  0
VERTEX
  8
0
 62
7
  6
CONTINUOUS
 10
245.7472673606
 20
117.4634680997
  0
VERTEX
  8
0
 62
7
  6
CONTINUOUS
 10
245.8151889758
 20
117.542207162
  0
VERTEX
  8
0
 62
7
  6
CONTINUOUS
 10
245.8807114683
 20
117.6231160565
  0
VERTEX
  8
0
 62
7
  6
CONTINUOUS
 10
245.945417734
 20
117.7083168849
  0
VERTEX
  8
0
 62
7
  6
CONTINUOUS
 10
246.0095731549
 20
117.7986978873
  0
VERTEX
  8
0
 62
7
  6
CONTINUOUS
 10
246.0720863609
 20
117.8932574716
  0
VERTEX
  8
0
 62
7
  6
CONTINUOUS
 10
246.131873241
 20
117.9906363353
  0
VERTEX
  8
0
 62
7
  6
CONTINUOUS
 10
246.1880767316
 20
118.0894429427
  0
VERTEX
  8
0
 62
7
  6
CONTINUOUS
 10
246.2401386648
 20
118.1884063508
  0
VERTEX
  8
0
 62
7
  6
CONTINUOUS
 10
246.2876946661
 20
118.2862555651
  0
VERTEX
  8
0
 62
7
  6
CONTINUOUS
 10
246.3305211945
 20
118.3816797128
  0
VERTEX
  8
0
 62
7
  6
CONTINUOUS
 10
246.3694073614
 20
118.4755710827
  0
VERTEX
  8
0
 62
7
  6
CONTINUOUS
 10
246.4056574992
 20
118.5706422776
  0
VERTEX
  8
0
 62
7
  6
CONTINUOUS
 10
246.4394225119
 20
118.6673307829
  0
VERTEX
  8
0
 62
7
  6
CONTINUOUS
 10
246.4704104481
 20
118.7648816748
  0
VERTEX
  8
0
 62
7
  6
CONTINUOUS
 10
246.4985625537
 20
118.8630843302
  0
VERTEX
  8
0
 62
7
  6
CONTINUOUS
 10
246.5238833286
 20
118.9620120799
  0
VERTEX
  8
0
 62
7
  6
CONTINUOUS
 10
246.54636862
 20
119.0617327258
  0
VERTEX
  8
0
 62
7
  6
CONTINUOUS
 10
246.5659787598
 20
119.1621097097
  0
VERTEX
  8
0
 62
7
  6
CONTINUOUS
 10
246.5826506893
 20
119.2628089704
  0
VERTEX
  8
0
 62
7
  6
CONTINUOUS
 10
246.5964234618
 20
119.3639836624
  0
VERTEX
  8
0
 62
7
  6
CONTINUOUS
 10
246.6074043766
 20
119.4667900095
  0
VERTEX
  8
0
 62
7
  6
CONTINUOUS
 10
246.6155723998
 20
119.5725063927
  0
VERTEX
  8
0
 62
7
  6
CONTINUOUS
 10
246.6207447513
 20
119.6824284365
  0
VERTEX
  8
0
 62
7
  6
CONTINUOUS
 10
246.6225768421
 20
119.7978985568
  0
SEQEND
  0
POLYLINE
  8
0
 62
7
  6
CONTINUOUS
 66
1
 70
0
  0
VERTEX
  8
0
 62
7
  6
CONTINUOUS
 10
218.1225768259
 20
116.4342231911
  0
VERTEX
  8
0
 62
7
  6
CONTINUOUS
 10
218.2479677078
 20
116.4370284741
  0
VERTEX
  8
0
 62
7
  6
CONTINUOUS
 10
218.3671743564
 20
116.4448807041
  0
VERTEX
  8
0
 62
7
  6
CONTINUOUS
 10
218.4815064822
 20
116.4571642774
  0
VERTEX
  8
0
 62
7
  6
CONTINUOUS
 10
218.5922839764
 20
116.4735457916
  0
VERTEX
  8
0
 62
7
  6
CONTINUOUS
 10
218.7008459086
 20
116.4939415558
  0
VERTEX
  8
0
 62
7
  6
CONTINUOUS
 10
218.8083419551
 20
116.5184550407
  0
VERTEX
  8
0
 62
7
  6
CONTINUOUS
 10
218.9148093671
 20
116.5470884579
  0
VERTEX
  8
0
 62
7
  6
CONTINUOUS
 10
219.019931108
 20
116.5797283666
  0
VERTEX
  8
0
 62
7
  6
CONTINUOUS
 10
219.123391992
 20
116.6162064344
  0
VERTEX
  8
0
 62
7
  6
CONTINUOUS
 10
219.2250356837
 20
116.6563932305
  0
VERTEX
  8
0
 62
7
  6
CONTINUOUS
 10
219.3247364254
 20
116.700150402
  0
VERTEX
  8
0
 62
7
  6
CONTINUOUS
 10
219.4223886327
 20
116.7473502038
  0
VERTEX
  8
0
 62
7
  6
CONTINUOUS
 10
219.5182521445
 20
116.7980620496
  0
VERTEX
  8
0
 62
7
  6
CONTINUOUS
 10
219.6124525175
 20
116.8523049009
  0
VERTEX
  8
0
 62
7
  6
CONTINUOUS
 10
219.7047824152
 20
116.9099400148
  0
VERTEX
  8
0
 62
7
  6
CONTINUOUS
 10
219.7948491328
 20
116.9706930333
  0
VERTEX
  8
0
 62
7
  6
CONTINUOUS
 10
219.8820896172
 20
117.0340781192
  0
VERTEX
  8
0
 62
7
  6
CONTINUOUS
 10
219.9663941973
 20
117.0998645712
  0
VERTEX
  8
0
 62
7
  6
CONTINUOUS
 10
220.047941704
 20
117.1680625788
  0
VERTEX
  8
0
 62
7
  6
CONTINUOUS
 10
220.1267928655
 20
117.2386152095
  0
VERTEX
  8
0
 62
7
  6
CONTINUOUS
 10
220.2029308302
 20
117.3114012717
  0
VERTEX
  8
0
 62
7
  6
CONTINUOUS
 10
220.2764246355
 20
117.3863915532
  0
VERTEX
  8
0
 62
7
  6
CONTINUOUS
 10
220.3472673607
 20
117.4634680998
  0
VERTEX
  8
0
 62
7
  6
CONTINUOUS
 10
220.4151889759
 20
117.5422071621
  0
VERTEX
  8
0
 62
7
  6
CONTINUOUS
 10
220.4807114683
 20
117.6231160565
  0
VERTEX
  8
0
 62
7
  6
CONTINUOUS
 10
220.545417734
 20
117.7083168849
  0
VERTEX
  8
0
 62
7
  6
CONTINUOUS
 10
220.6095731549
 20
117.7986978873
  0
VERTEX
  8
0
 62
7
  6
CONTINUOUS
 10
220.6720863609
 20
117.8932574717
  0
VERTEX
  8
0
 62
7
  6
CONTINUOUS
 10
220.7318732411
 20
117.9906363354
  0
VERTEX
  8
0
 62
7
  6
CONTINUOUS
 10
220.7880767316
 20
118.0894429428
  0
VERTEX
  8
0
 62
7
  6
CONTINUOUS
 10
220.8401386649
 20
118.1884063509
  0
VERTEX
  8
0
 62
7
  6
CONTINUOUS
 10
220.8876946661
 20
118.2862555652
  0
VERTEX
  8
0
 62
7
  6
CONTINUOUS
 10
220.9305211946
 20
118.3816797129
  0
VERTEX
  8
0
 62
7
  6
CONTINUOUS
 10
220.9694073615
 20
118.4755710827
  0
VERTEX
  8
0
 62
7
  6
CONTINUOUS
 10
221.0056574993
 20
118.5706422777
  0
VERTEX
  8
0
 62
7
  6
CONTINUOUS
 10
221.0394225119
 20
118.667330783
  0
VERTEX
  8
0
 62
7
  6
CONTINUOUS
 10
221.0704104481
 20
118.7648816749
  0
VERTEX
  8
0
 62
7
  6
CONTINUOUS
 10
221.0985625537
 20
118.8630843302
  0
VERTEX
  8
0
 62
7
  6
CONTINUOUS
 10
221.1238833286
 20
118.96201208
  0
VERTEX
  8
0
 62
7
  6
CONTINUOUS
 10
221.1463686201
 20
119.0617327259
  0
VERTEX
  8
0
 62
7
  6
CONTINUOUS
 10
221.1659787598
 20
119.1621097098
  0
VERTEX
  8
0
 62
7
  6
CONTINUOUS
 10
221.1826506893
 20
119.2628089705
  0
VERTEX
  8
0
 62
7
  6
CONTINUOUS
 10
221.1964234618
 20
119.3639836625
  0
VERTEX
  8
0
 62
7
  6
CONTINUOUS
 10
221.2074043766
 20
119.4667900096
  0
VERTEX
  8
0
 62
7
  6
CONTINUOUS
 10
221.2155723998
 20
119.5725063928
  0
VERTEX
  8
0
 62
7
  6
CONTINUOUS
 10
221.2207447513
 20
119.6824284366
  0
VERTEX
  8
0
 62
7
  6
CONTINUOUS
 10
221.2225768421
 20
119.7978985569
  0
SEQEND
  0
POLYLINE
  8
0
 62
7
  6
CONTINUOUS
 66
1
 70
0
  0
VERTEX
  8
0
 62
7
  6
CONTINUOUS
 10
192.7225768259
 20
116.4342231911
  0
VERTEX
  8
0
 62
7
  6
CONTINUOUS
 10
192.8479677078
 20
116.4370284741
  0
VERTEX
  8
0
 62
7
  6
CONTINUOUS
 10
192.9671743564
 20
116.4448807041
  0
VERTEX
  8
0
 62
7
  6
CONTINUOUS
 10
193.0815064822
 20
116.4571642774
  0
VERTEX
  8
0
 62
7
  6
CONTINUOUS
 10
193.1922839764
 20
116.4735457916
  0
VERTEX
  8
0
 62
7
  6
CONTINUOUS
 10
193.3008459085
 20
116.4939415558
  0
VERTEX
  8
0
 62
7
  6
CONTINUOUS
 10
193.4083419551
 20
116.5184550407
  0
VERTEX
  8
0
 62
7
  6
CONTINUOUS
 10
193.5148093671
 20
116.5470884579
  0
VERTEX
  8
0
 62
7
  6
CONTINUOUS
 10
193.619931108
 20
116.5797283666
  0
VERTEX
  8
0
 62
7
  6
CONTINUOUS
 10
193.723391992
 20
116.6162064344
  0
VERTEX
  8
0
 62
7
  6
CONTINUOUS
 10
193.8250356837
 20
116.6563932304
  0
VERTEX
  8
0
 62
7
  6
CONTINUOUS
 10
193.9247364254
 20
116.700150402
  0
VERTEX
  8
0
 62
7
  6
CONTINUOUS
 10
194.0223886327
 20
116.7473502038
  0
VERTEX
  8
0
 62
7
  6
CONTINUOUS
 10
194.1182521445
 20
116.7980620496
  0
VERTEX
  8
0
 62
7
  6
CONTINUOUS
 10
194.2124525174
 20
116.8523049008
  0
VERTEX
  8
0
 62
7
  6
CONTINUOUS
 10
194.3047824151
 20
116.9099400148
  0
VERTEX
  8
0
 62
7
  6
CONTINUOUS
 10
194.3948491328
 20
116.9706930332
  0
VERTEX
  8
0
 62
7
  6
CONTINUOUS
 10
194.4820896172
 20
117.0340781192
  0
VERTEX
  8
0
 62
7
  6
CONTINUOUS
 10
194.5663941973
 20
117.0998645711
  0
VERTEX
  8
0
 62
7
  6
CONTINUOUS
 10
194.647941704
 20
117.1680625787
  0
VERTEX
  8
0
 62
7
  6
CONTINUOUS
 10
194.7267928654
 20
117.2386152095
  0
VERTEX
  8
0
 62
7
  6
CONTINUOUS
 10
194.8029308302
 20
117.3114012716
  0
VERTEX
  8
0
 62
7
  6
CONTINUOUS
 10
194.8764246354
 20
117.3863915531
  0
VERTEX
  8
0
 62
7
  6
CONTINUOUS
 10
194.9472673606
 20
117.4634680997
  0
VERTEX
  8
0
 62
7
  6
CONTINUOUS
 10
195.0151889758
 20
117.542207162
  0
VERTEX
  8
0
 62
7
  6
CONTINUOUS
 10
195.0807114683
 20
117.6231160565
  0
VERTEX
  8
0
 62
7
  6
CONTINUOUS
 10
195.145417734
 20
117.7083168849
  0
VERTEX
  8
0
 62
7
  6
CONTINUOUS
 10
195.2095731549
 20
117.7986978873
  0
VERTEX
  8
0
 62
7
  6
CONTINUOUS
 10
195.2720863609
 20
117.8932574716
  0
VERTEX
  8
0
 62
7
  6
CONTINUOUS
 10
195.331873241
 20
117.9906363353
  0
VERTEX
  8
0
 62
7
  6
CONTINUOUS
 10
195.3880767316
 20
118.0894429427
  0
VERTEX
  8
0
 62
7
  6
CONTINUOUS
 10
195.4401386648
 20
118.1884063508
  0
VERTEX
  8
0
 62
7
  6
CONTINUOUS
 10
195.4876946661
 20
118.2862555651
  0
VERTEX
  8
0
 62
7
  6
CONTINUOUS
 10
195.5305211945
 20
118.3816797128
  0
VERTEX
  8
0
 62
7
  6
CONTINUOUS
 10
195.5694073614
 20
118.4755710827
  0
VERTEX
  8
0
 62
7
  6
CONTINUOUS
 10
195.6056574992
 20
118.5706422776
  0
VERTEX
  8
0
 62
7
  6
CONTINUOUS
 10
195.6394225119
 20
118.6673307829
  0
VERTEX
  8
0
 62
7
  6
CONTINUOUS
 10
195.6704104481
 20
118.7648816748
  0
VERTEX
  8
0
 62
7
  6
CONTINUOUS
 10
195.6985625537
 20
118.8630843302
  0
VERTEX
  8
0
 62
7
  6
CONTINUOUS
 10
195.7238833286
 20
118.9620120799
  0
VERTEX
  8
0
 62
7
  6
CONTINUOUS
 10
195.74636862
 20
119.0617327258
  0
VERTEX
  8
0
 62
7
  6
CONTINUOUS
 10
195.7659787598
 20
119.1621097097
  0
VERTEX
  8
0
 62
7
  6
CONTINUOUS
 10
195.7826506893
 20
119.2628089704
  0
VERTEX
  8
0
 62
7
  6
CONTINUOUS
 10
195.7964234618
 20
119.3639836624
  0
VERTEX
  8
0
 62
7
  6
CONTINUOUS
 10
195.8074043766
 20
119.4667900095
  0
VERTEX
  8
0
 62
7
  6
CONTINUOUS
 10
195.8155723998
 20
119.5725063927
  0
VERTEX
  8
0
 62
7
  6
CONTINUOUS
 10
195.8207447513
 20
119.6824284365
  0
VERTEX
  8
0
 62
7
  6
CONTINUOUS
 10
195.8225768421
 20
119.7978985568
  0
SEQEND
  0
POLYLINE
  8
0
 62
7
  6
CONTINUOUS
 66
1
 70
0
  0
VERTEX
  8
0
 62
7
  6
CONTINUOUS
 10
167.3225768259
 20
116.4342231911
  0
VERTEX
  8
0
 62
7
  6
CONTINUOUS
 10
167.4479677078
 20
116.4370284741
  0
VERTEX
  8
0
 62
7
  6
CONTINUOUS
 10
167.5671743564
 20
116.4448807041
  0
VERTEX
  8
0
 62
7
  6
CONTINUOUS
 10
167.6815064822
 20
116.4571642774
  0
VERTEX
  8
0
 62
7
  6
CONTINUOUS
 10
167.7922839764
 20
116.4735457916
  0
VERTEX
  8
0
 62
7
  6
CONTINUOUS
 10
167.9008459086
 20
116.4939415558
  0
VERTEX
  8
0
 62
7
  6
CONTINUOUS
 10
168.0083419551
 20
116.5184550407
  0
VERTEX
  8
0
 62
7
  6
CONTINUOUS
 10
168.1148093671
 20
116.5470884579
  0
VERTEX
  8
0
 62
7
  6
CONTINUOUS
 10
168.219931108
 20
116.5797283666
  0
VERTEX
  8
0
 62
7
  6
CONTINUOUS
 10
168.323391992
 20
116.6162064344
  0
VERTEX
  8
0
 62
7
  6
CONTINUOUS
 10
168.4250356837
 20
116.6563932305
  0
VERTEX
  8
0
 62
7
  6
CONTINUOUS
 10
168.5247364254
 20
116.700150402
  0
VERTEX
  8
0
 62
7
  6
CONTINUOUS
 10
168.6223886327
 20
116.7473502038
  0
VERTEX
  8
0
 62
7
  6
CONTINUOUS
 10
168.7182521445
 20
116.7980620496
  0
VERTEX
  8
0
 62
7
  6
CONTINUOUS
 10
168.8124525174
 20
116.8523049009
  0
VERTEX
  8
0
 62
7
  6
CONTINUOUS
 10
168.9047824152
 20
116.9099400148
  0
VERTEX
  8
0
 62
7
  6
CONTINUOUS
 10
168.9948491328
 20
116.9706930332
  0
VERTEX
  8
0
 62
7
  6
CONTINUOUS
 10
169.0820896172
 20
117.0340781192
  0
VERTEX
  8
0
 62
7
  6
CONTINUOUS
 10
169.1663941973
 20
117.0998645711
  0
VERTEX
  8
0
 62
7
  6
CONTINUOUS
 10
169.247941704
 20
117.1680625787
  0
VERTEX
  8
0
 62
7
  6
CONTINUOUS
 10
169.3267928655
 20
117.2386152095
  0
VERTEX
  8
0
 62
7
  6
CONTINUOUS
 10
169.4029308302
 20
117.3114012716
  0
VERTEX
  8
0
 62
7
  6
CONTINUOUS
 10
169.4764246354
 20
117.3863915531
  0
VERTEX
  8
0
 62
7
  6
CONTINUOUS
 10
169.5472673606
 20
117.4634680997
  0
VERTEX
  8
0
 62
7
  6
CONTINUOUS
 10
169.6151889758
 20
117.542207162
  0
VERTEX
  8
0
 62
7
  6
CONTINUOUS
 10
169.6807114683
 20
117.6231160565
  0
VERTEX
  8
0
 62
7
  6
CONTINUOUS
 10
169.745417734
 20
117.7083168849
  0
VERTEX
  8
0
 62
7
  6
CONTINUOUS
 10
169.8095731549
 20
117.7986978873
  0
VERTEX
  8
0
 62
7
  6
CONTINUOUS
 10
169.8720863609
 20
117.8932574716
  0
VERTEX
  8
0
 62
7
  6
CONTINUOUS
 10
169.931873241
 20
117.9906363353
  0
VERTEX
  8
0
 62
7
  6
CONTINUOUS
 10
169.9880767316
 20
118.0894429427
  0
VERTEX
  8
0
 62
7
  6
CONTINUOUS
 10
170.0401386648
 20
118.1884063508
  0
VERTEX
  8
0
 62
7
  6
CONTINUOUS
 10
170.0876946661
 20
118.2862555652
  0
VERTEX
  8
0
 62
7
  6
CONTINUOUS
 10
170.1305211945
 20
118.3816797128
  0
VERTEX
  8
0
 62
7
  6
CONTINUOUS
 10
170.1694073614
 20
118.4755710827
  0
VERTEX
  8
0
 62
7
  6
CONTINUOUS
 10
170.2056574992
 20
118.5706422776
  0
VERTEX
  8
0
 62
7
  6
CONTINUOUS
 10
170.2394225119
 20
118.6673307829
  0
VERTEX
  8
0
 62
7
  6
CONTINUOUS
 10
170.2704104481
 20
118.7648816748
  0
VERTEX
  8
0
 62
7
  6
CONTINUOUS
 10
170.2985625537
 20
118.8630843302
  0
VERTEX
  8
0
 62
7
  6
CONTINUOUS
 10
170.3238833286
 20
118.9620120799
  0
VERTEX
  8
0
 62
7
  6
CONTINUOUS
 10
170.3463686201
 20
119.0617327259
  0
VERTEX
  8
0
 62
7
  6
CONTINUOUS
 10
170.3659787598
 20
119.1621097097
  0
VERTEX
  8
0
 62
7
  6
CONTINUOUS
 10
170.3826506893
 20
119.2628089704
  0
VERTEX
  8
0
 62
7
  6
CONTINUOUS
 10
170.3964234618
 20
119.3639836624
  0
VERTEX
  8
0
 62
7
  6
CONTINUOUS
 10
170.4074043766
 20
119.4667900095
  0
VERTEX
  8
0
 62
7
  6
CONTINUOUS
 10
170.4155723998
 20
119.5725063927
  0
VERTEX
  8
0
 62
7
  6
CONTINUOUS
 10
170.4207447513
 20
119.6824284365
  0
VERTEX
  8
0
 62
7
  6
CONTINUOUS
 10
170.4225768421
 20
119.7978985568
  0
SEQEND
  0
POLYLINE
  8
0
 62
7
  6
CONTINUOUS
 66
1
 70
0
  0
VERTEX
  8
0
 62
7
  6
CONTINUOUS
 10
141.9225768259
 20
116.4342231911
  0
VERTEX
  8
0
 62
7
  6
CONTINUOUS
 10
142.0479677078
 20
116.4370284741
  0
VERTEX
  8
0
 62
7
  6
CONTINUOUS
 10
142.1671743564
 20
116.4448807041
  0
VERTEX
  8
0
 62
7
  6
CONTINUOUS
 10
142.2815064822
 20
116.4571642774
  0
VERTEX
  8
0
 62
7
  6
CONTINUOUS
 10
142.3922839764
 20
116.4735457916
  0
VERTEX
  8
0
 62
7
  6
CONTINUOUS
 10
142.5008459086
 20
116.4939415558
  0
VERTEX
  8
0
 62
7
  6
CONTINUOUS
 10
142.6083419551
 20
116.5184550407
  0
VERTEX
  8
0
 62
7
  6
CONTINUOUS
 10
142.7148093671
 20
116.5470884579
  0
VERTEX
  8
0
 62
7
  6
CONTINUOUS
 10
142.819931108
 20
116.5797283666
  0
VERTEX
  8
0
 62
7
  6
CONTINUOUS
 10
142.923391992
 20
116.6162064344
  0
VERTEX
  8
0
 62
7
  6
CONTINUOUS
 10
143.0250356837
 20
116.6563932305
  0
VERTEX
  8
0
 62
7
  6
CONTINUOUS
 10
143.1247364254
 20
116.700150402
  0
VERTEX
  8
0
 62
7
  6
CONTINUOUS
 10
143.2223886327
 20
116.7473502038
  0
VERTEX
  8
0
 62
7
  6
CONTINUOUS
 10
143.3182521445
 20
116.7980620496
  0
VERTEX
  8
0
 62
7
  6
CONTINUOUS
 10
143.4124525175
 20
116.8523049009
  0
VERTEX
  8
0
 62
7
  6
CONTINUOUS
 10
143.5047824152
 20
116.9099400148
  0
VERTEX
  8
0
 62
7
  6
CONTINUOUS
 10
143.5948491328
 20
116.9706930332
  0
VERTEX
  8
0
 62
7
  6
CONTINUOUS
 10
143.6820896172
 20
117.0340781192
  0
VERTEX
  8
0
 62
7
  6
CONTINUOUS
 10
143.7663941973
 20
117.0998645712
  0
VERTEX
  8
0
 62
7
  6
CONTINUOUS
 10
143.847941704
 20
117.1680625788
  0
VERTEX
  8
0
 62
7
  6
CONTINUOUS
 10
143.9267928655
 20
117.2386152095
  0
VERTEX
  8
0
 62
7
  6
CONTINUOUS
 10
144.0029308302
 20
117.3114012716
  0
VERTEX
  8
0
 62
7
  6
CONTINUOUS
 10
144.0764246354
 20
117.3863915532
  0
VERTEX
  8
0
 62
7
  6
CONTINUOUS
 10
144.1472673607
 20
117.4634680997
  0
VERTEX
  8
0
 62
7
  6
CONTINUOUS
 10
144.2151889759
 20
117.542207162
  0
VERTEX
  8
0
 62
7
  6
CONTINUOUS
 10
144.2807114683
 20
117.6231160565
  0
VERTEX
  8
0
 62
7
  6
CONTINUOUS
 10
144.345417734
 20
117.7083168849
  0
VERTEX
  8
0
 62
7
  6
CONTINUOUS
 10
144.4095731549
 20
117.7986978873
  0
VERTEX
  8
0
 62
7
  6
CONTINUOUS
 10
144.4720863609
 20
117.8932574716
  0
VERTEX
  8
0
 62
7
  6
CONTINUOUS
 10
144.5318732411
 20
117.9906363354
  0
VERTEX
  8
0
 62
7
  6
CONTINUOUS
 10
144.5880767316
 20
118.0894429428
  0
VERTEX
  8
0
 62
7
  6
CONTINUOUS
 10
144.6401386648
 20
118.1884063508
  0
VERTEX
  8
0
 62
7
  6
CONTINUOUS
 10
144.6876946661
 20
118.2862555652
  0
VERTEX
  8
0
 62
7
  6
CONTINUOUS
 10
144.7305211946
 20
118.3816797129
  0
VERTEX
  8
0
 62
7
  6
CONTINUOUS
 10
144.7694073615
 20
118.4755710827
  0
VERTEX
  8
0
 62
7
  6
CONTINUOUS
 10
144.8056574993
 20
118.5706422776
  0
VERTEX
  8
0
 62
7
  6
CONTINUOUS
 10
144.8394225119
 20
118.6673307829
  0
VERTEX
  8
0
 62
7
  6
CONTINUOUS
 10
144.8704104481
 20
118.7648816748
  0
VERTEX
  8
0
 62
7
  6
CONTINUOUS
 10
144.8985625537
 20
118.8630843302
  0
VERTEX
  8
0
 62
7
  6
CONTINUOUS
 10
144.9238833286
 20
118.9620120799
  0
VERTEX
  8
0
 62
7
  6
CONTINUOUS
 10
144.9463686201
 20
119.0617327259
  0
VERTEX
  8
0
 62
7
  6
CONTINUOUS
 10
144.9659787598
 20
119.1621097097
  0
VERTEX
  8
0
 62
7
  6
CONTINUOUS
 10
144.9826506893
 20
119.2628089705
  0
VERTEX
  8
0
 62
7
  6
CONTINUOUS
 10
144.9964234618
 20
119.3639836625
  0
VERTEX
  8
0
 62
7
  6
CONTINUOUS
 10
145.0074043766
 20
119.4667900095
  0
VERTEX
  8
0
 62
7
  6
CONTINUOUS
 10
145.0155723998
 20
119.5725063927
  0
VERTEX
  8
0
 62
7
  6
CONTINUOUS
 10
145.0207447513
 20
119.6824284365
  0
VERTEX
  8
0
 62
7
  6
CONTINUOUS
 10
145.0225768421
 20
119.7978985568
  0
SEQEND
  0
LINE
  8
0
 62
7
  6
CONTINUOUS
 10
180.0225768421
 20
113.9223227328
 11
165.6225768421
 21
113.9223227328
  0
LINE
  8
0
 62
7
  6
CONTINUOUS
 10
154.6225768421
 20
113.9223227328
 11
140.2225768421
 21
113.9223227328
  0
LINE
  8
0
 62
7
  6
CONTINUOUS
 10
129.2225768421
 20
113.9223227328
 11
114.8225768421
 21
113.9223227328
  0
LINE
  8
0
 62
7
  6
CONTINUOUS
 10
191.0225768421
 20
113.9223227328
 11
205.4225768421
 21
113.9223227328
  0
LINE
  8
0
 62
7
  6
CONTINUOUS
 10
216.4225768421
 20
113.9223227328
 11
230.8225768421
 21
113.9223227328
  0
LINE
  8
0
 62
7
  6
CONTINUOUS
 10
241.8225768421
 20
113.9223227328
 11
256.2225768421
 21
113.9223227328
  0
LINE
  8
0
 62
7
  6
CONTINUOUS
 10
103.8248644916
 20
114.5723227328
 11
93.7817187411
 21
114.5723227328
  0
LINE
  8
0
 62
7
  6
CONTINUOUS
 10
267.2202891926
 20
114.5723227328
 11
277.2634349431
 21
114.5723227328
  0
LINE
  8
0
 62
7
  6
CONTINUOUS
 10
274.3225768421
 20
115.0223227328
 11
267.2225768421
 21
115.0223227328
  0
LINE
  8
0
 62
7
  6
CONTINUOUS
 10
256.2225768421
 20
115.0223227328
 11
241.8225768421
 21
115.0223227328
  0
LINE
  8
0
 62
7
  6
CONTINUOUS
 10
230.8225768421
 20
115.0223227328
 11
216.4225768421
 21
115.0223227328
  0
LINE
  8
0
 62
7
  6
CONTINUOUS
 10
205.4225768421
 20
115.0223227328
 11
191.0225768421
 21
115.0223227328
  0
LINE
  8
0
 62
7
  6
CONTINUOUS
 10
180.0225768421
 20
115.0223227328
 11
165.6225768421
 21
115.0223227328
  0
LINE
  8
0
 62
7
  6
CONTINUOUS
 10
154.6225768421
 20
115.0223227328
 11
140.2225768421
 21
115.0223227328
  0
LINE
  8
0
 62
7
  6
CONTINUOUS
 10
73.5680102421
 20
115.0723227328
 11
66.4817187411
 21
115.0723227328
  0
LINE
  8
0
 62
7
  6
CONTINUOUS
 10
297.4771434421
 20
115.0723227328
 11
304.5634349431
 21
115.0723227328
  0
LINE
  8
0
 62
7
  6
CONTINUOUS
 10
44.6430102421
 20
115.4723227328
 11
37.5567187411
 21
115.4723227328
  0
LINE
  8
0
 62
7
  6
CONTINUOUS
 10
326.4021434421
 20
115.4723227328
 11
333.4884349431
 21
115.4723227328
  0
LINE
  8
0
 62
7
  6
CONTINUOUS
 10
134.8226140716
 20
116.4342231911
 11
141.9225768259
 21
116.4342231911
  0
LINE
  8
0
 62
7
  6
CONTINUOUS
 10
152.9225769305
 20
116.4342231911
 11
167.3225768259
 21
116.4342231911
  0
LINE
  8
0
 62
7
  6
CONTINUOUS
 10
178.3225769305
 20
116.4342231911
 11
192.7225768259
 21
116.4342231911
  0
LINE
  8
0
 62
7
  6
CONTINUOUS
 10
203.7225769305
 20
116.4342231911
 11
218.1225768259
 21
116.4342231911
  0
LINE
  8
0
 62
7
  6
CONTINUOUS
 10
229.1225769305
 20
116.4342231911
 11
243.5225768259
 21
116.4342231911
  0
LINE
  8
0
 62
7
  6
CONTINUOUS
 10
254.5225769305
 20
116.4342231911
 11
268.9225768259
 21
116.4342231911
  0
LINE
  8
0
 62
7
  6
CONTINUOUS
 10
166.6432409967
 20
142.6195669234
 11
169.2536963268
 21
135.9550463316
  0
LINE
  8
0
 62
7
  6
CONTINUOUS
 10
170.27792776
 20
136.3562320383
 11
170.1914573574
 21
136.576991908
  0
LINE
  8
0
 62
7
  6
CONTINUOUS
 10
188.0672075155
 20
97.088935902
 11
188.1537050929
 21
96.8680910236
  0
LINE
  8
0
 62
7
  6
CONTINUOUS
 10
191.7019153173
 20
90.825075562
 11
189.0914485913
 21
97.4900969901
  0
LINE
  8
0
 62
7
  6
CONTINUOUS
 10
187.9225768421
 20
111.9223227328
 11
187.9225768421
 21
97.8547888883
  0
LINE
  8
0
 62
7
  6
CONTINUOUS
 10
188.2225768421
 20
96.5033991254
 11
188.2225768421
 21
94.9723227328
  0
LINE
  8
0
 62
7
  6
CONTINUOUS
 10
189.0225768421
 20
97.8547888883
 11
189.0225768421
 21
111.9223227328
  0
LINE
  8
0
 62
7
  6
CONTINUOUS
 10
191.7225768421
 20
86.0223227328
 11
191.7225768421
 21
90.7156679925
  0
LINE
  8
0
 62
7
  6
CONTINUOUS
 10
192.0225768421
 20
142.7289812071
 11
192.0225768421
 21
147.4223227328
  0
LINE
  8
0
 62
7
  6
CONTINUOUS
 10
194.7225768421
 20
135.5903320527
 11
194.7225768421
 21
119.7978978745
  0
LINE
  8
0
 62
7
  6
CONTINUOUS
 10
195.5225768421
 20
136.9417061869
 11
195.5225768421
 21
138.4723227328
  0
LINE
  8
0
 62
7
  6
CONTINUOUS
 10
195.8225768421
 20
119.7978985568
 11
195.8225768421
 21
135.5903320527
  0
LINE
  8
0
 62
7
  6
CONTINUOUS
 10
179.3432383669
 20
90.825075562
 11
181.9537050929
 21
97.4900969901
  0
LINE
  8
0
 62
7
  6
CONTINUOUS
 10
182.8914485913
 20
96.8680910236
 11
182.9779461687
 21
97.088935902
  0
LINE
  8
0
 62
7
  6
CONTINUOUS
 10
200.8536963268
 20
136.576991908
 11
200.7672259242
 21
136.3562320383
  0
LINE
  8
0
 62
7
  6
CONTINUOUS
 10
201.7914573574
 20
135.9550463316
 11
204.4019126875
 21
142.6195669234
  0
LINE
  8
0
 62
7
  6
CONTINUOUS
 10
319.0384349431
 20
118.4123227328
 11
311.9521434421
 21
118.4123227328
  0
LINE
  8
0
 62
7
  6
CONTINUOUS
 10
59.0930102421
 20
118.4123227328
 11
52.0067187411
 21
118.4123227328
  0
LINE
  8
0
 62
7
  6
CONTINUOUS
 10
291.2634349431
 20
118.8623227328
 11
284.1771434421
 21
118.8623227328
  0
LINE
  8
0
 62
7
  6
CONTINUOUS
 10
86.8680102421
 20
118.8623227328
 11
79.7817187411
 21
118.8623227328
  0
LINE
  8
0
 62
7
  6
CONTINUOUS
 10
192.7225768421
 20
119.3476627665
 11
178.3225768421
 21
119.3476627665
  0
LINE
  8
0
 62
7
  6
CONTINUOUS
 10
167.3225768421
 20
119.3476627665
 11
152.9225768421
 21
119.3476627665
  0
LINE
  8
0
 62
7
  6
CONTINUOUS
 10
141.9225768421
 20
119.3476627665
 11
127.5225768421
 21
119.3476627665
  0
LINE
  8
0
 62
7
  6
CONTINUOUS
 10
116.5225768421
 20
119.3476627665
 11
102.1248644916
 21
119.3476627665
  0
LINE
  8
0
 62
7
  6
CONTINUOUS
 10
203.7225768421
 20
119.3476627665
 11
218.1225768421
 21
119.3476627665
  0
LINE
  8
0
 62
7
  6
CONTINUOUS
 10
229.1225768421
 20
119.3476627665
 11
243.5225768421
 21
119.3476627665
  0
LINE
  8
0
 62
7
  6
CONTINUOUS
 10
254.5225768421
 20
119.3476627665
 11
268.9202891926
 21
119.3476627665
  0
POLYLINE
  8
0
 62
7
  6
CONTINUOUS
 66
1
 70
0
  0
VERTEX
  8
0
 62
7
  6
CONTINUOUS
 10
200.6225768421
 20
119.7978991239
  0
VERTEX
  8
0
 62
7
  6
CONTINUOUS
 10
200.6244323589
 20
119.6823326283
  0
VERTEX
  8
0
 62
7
  6
CONTINUOUS
 10
200.6296624895
 20
119.5723883987
  0
VERTEX
  8
0
 62
7
  6
CONTINUOUS
 10
200.6379109932
 20
119.4666451163
  0
VERTEX
  8
0
 62
7
  6
CONTINUOUS
 10
200.6489813464
 20
119.3637689335
  0
VERTEX
  8
0
 62
7
  6
CONTINUOUS
 10
200.6628492485
 20
119.2624487744
  0
VERTEX
  8
0
 62
7
  6
CONTINUOUS
 10
200.6796280037
 20
119.1614382279
  0
VERTEX
  8
0
 62
7
  6
CONTINUOUS
 10
200.6993350037
 20
119.0606514743
  0
VERTEX
  8
0
 62
7
  6
CONTINUOUS
 10
200.7218920876
 20
118.9605662352
  0
VERTEX
  8
0
 62
7
  6
CONTINUOUS
 10
200.7472920077
 20
118.8612410925
  0
VERTEX
  8
0
 62
7
  6
CONTINUOUS
 10
200.7755427988
 20
118.7626233886
  0
VERTEX
  8
0
 62
7
  6
CONTINUOUS
 10
200.8066005475
 20
118.6648462812
  0
VERTEX
  8
0
 62
7
  6
CONTINUOUS
 10
200.8404376411
 20
118.5680398033
  0
VERTEX
  8
0
 62
7
  6
CONTINUOUS
 10
200.8770940506
 20
118.4721536368
  0
VERTEX
  8
0
 62
7
  6
CONTINUOUS
 10
200.9165638455
 20
118.3772817567
  0
VERTEX
  8
0
 62
7
  6
CONTINUOUS
 10
200.9588119562
 20
118.2836013017
  0
VERTEX
  8
0
 62
7
  6
CONTINUOUS
 10
201.0039020763
 20
118.1910338398
  0
VERTEX
  8
0
 62
7
  6
CONTINUOUS
 10
201.0519175586
 20
118.0994827209
  0
VERTEX
  8
0
 62
7
  6
CONTINUOUS
 10
201.1026398138
 20
118.0094179892
  0
VERTEX
  8
0
 62
7
  6
CONTINUOUS
 10
201.1558188296
 20
117.9212390826
  0
VERTEX
  8
0
 62
7
  6
CONTINUOUS
 10
201.2132842066
 20
117.832160945
  0
VERTEX
  8
0
 62
7
  6
CONTINUOUS
 10
201.2783095268
 20
117.7381418031
  0
VERTEX
  8
0
 62
7
  6
CONTINUOUS
 10
201.354620375
 20
117.6358113317
  0
VERTEX
  8
0
 62
7
  6
CONTINUOUS
 10
201.4426183162
 20
117.5271748573
  0
VERTEX
  8
0
 62
7
  6
CONTINUOUS
 10
201.536210682
 20
117.4212220044
  0
VERTEX
  8
0
 62
7
  6
CONTINUOUS
 10
201.6278190495
 20
117.3259049874
  0
VERTEX
  8
0
 62
7
  6
CONTINUOUS
 10
201.7143304144
 20
117.2426258253
  0
VERTEX
  8
0
 62
7
  6
CONTINUOUS
 10
201.7977678933
 20
117.1679016003
  0
VERTEX
  8
0
 62
7
  6
CONTINUOUS
 10
201.8808415083
 20
117.0984976924
  0
VERTEX
  8
0
 62
7
  6
CONTINUOUS
 10
201.9657217319
 20
117.0323487532
  0
VERTEX
  8
0
 62
7
  6
CONTINUOUS
 10
202.0527018246
 20
116.9692231336
  0
VERTEX
  8
0
 62
7
  6
CONTINUOUS
 10
202.1417661918
 20
116.9091612267
  0
VERTEX
  8
0
 62
7
  6
CONTINUOUS
 10
202.2327469282
 20
116.8523151696
  0
VERTEX
  8
0
 62
7
  6
CONTINUOUS
 10
202.3257576
 20
116.7986854425
  0
VERTEX
  8
0
 62
7
  6
CONTINUOUS
 10
202.4211231809
 20
116.7481742763
  0
VERTEX
  8
0
 62
7
  6
CONTINUOUS
 10
202.5188027591
 20
116.7009240664
  0
VERTEX
  8
0
 62
7
  6
CONTINUOUS
 10
202.6187080056
 20
116.6570676241
  0
VERTEX
  8
0
 62
7
  6
CONTINUOUS
 10
202.720490803
 20
116.6168130971
  0
VERTEX
  8
0
 62
7
  6
CONTINUOUS
 10
202.823857794
 20
116.5803224998
  0
VERTEX
  8
0
 62
7
  6
CONTINUOUS
 10
202.9287196874
 20
116.5476684903
  0
VERTEX
  8
0
 62
7
  6
CONTINUOUS
 10
203.0349988726
 20
116.5189342119
  0
VERTEX
  8
0
 62
7
  6
CONTINUOUS
 10
203.1422567287
 20
116.4942910183
  0
VERTEX
  8
0
 62
7
  6
CONTINUOUS
 10
203.2506270929
 20
116.4737738968
  0
VERTEX
  8
0
 62
7
  6
CONTINUOUS
 10
203.3613849508
 20
116.4572830985
  0
VERTEX
  8
0
 62
7
  6
CONTINUOUS
 10
203.4759875317
 20
116.4449232271
  0
VERTEX
  8
0
 62
7
  6
CONTINUOUS
 10
203.5958685232
 20
116.4370353793
  0
VERTEX
  8
0
 62
7
  6
CONTINUOUS
 10
203.7225769305
 20
116.4342231911
  0
SEQEND
  0
LINE
  8
0
 62
7
  6
CONTINUOUS
 10
200.6225768421
 20
135.5903320527
 11
200.6225768421
 21
119.7978991239
  0
LINE
  8
0
 62
7
  6
CONTINUOUS
 10
200.9225768421
 20
138.4723227328
 11
200.9225768421
 21
136.9417061869
  0
LINE
  8
0
 62
7
  6
CONTINUOUS
 10
201.7225768421
 20
119.7978978745
 11
201.7225768421
 21
135.5903320527
  0
LINE
  8
0
 62
7
  6
CONTINUOUS
 10
204.4225768421
 20
142.7289812071
 11
204.4225768421
 21
147.4223227328
  0
LINE
  8
0
 62
7
  6
CONTINUOUS
 10
204.7225768421
 20
86.0223227328
 11
204.7225768421
 21
90.7156679925
  0
LINE
  8
0
 62
7
  6
CONTINUOUS
 10
207.4225768421
 20
111.9223227328
 11
207.4225768421
 21
97.8547888883
  0
LINE
  8
0
 62
7
  6
CONTINUOUS
 10
208.2225768421
 20
94.9723227328
 11
208.2225768421
 21
96.5033991254
  0
LINE
  8
0
 62
7
  6
CONTINUOUS
 10
208.5225768421
 20
97.8547888883
 11
208.5225768421
 21
111.9223227328
  0
LINE
  8
0
 62
7
  6
CONTINUOUS
 10
145.7225768421
 20
139.4723227328
 11
149.1225768421
 21
139.4723227328
  0
LINE
  8
0
 62
7
  6
CONTINUOUS
 10
171.1225768421
 20
139.4723227328
 11
174.5225768421
 21
139.4723227328
  0
LINE
  8
0
 62
7
  6
CONTINUOUS
 10
196.5225768421
 20
139.4723227328
 11
199.9225768421
 21
139.4723227328
  0
LINE
  8
0
 62
7
  6
CONTINUOUS
 10
221.9225768421
 20
139.4723227328
 11
225.3225768421
 21
139.4723227328
  0
LINE
  8
0
 62
7
  6
CONTINUOUS
 10
247.3225768421
 20
139.4723227328
 11
250.7225768421
 21
139.4723227328
  0
LINE
  8
0
 62
7
  6
CONTINUOUS
 10
272.7225768421
 20
139.4723227328
 11
276.1225768421
 21
139.4723227328
  0
POLYLINE
  8
0
 62
7
  6
CONTINUOUS
 66
1
 70
0
  0
VERTEX
  8
0
 62
7
  6
CONTINUOUS
 10
344.6364974424
 20
82.1889060462
  0
VERTEX
  8
0
 62
7
  6
CONTINUOUS
 10
344.6494672825
 20
82.1842687422
  0
VERTEX
  8
0
 62
7
  6
CONTINUOUS
 10
344.6777035502
 20
82.1764037421
  0
VERTEX
  8
0
 62
7
  6
CONTINUOUS
 10
344.7062137072
 20
82.1713708241
  0
VERTEX
  8
0
 62
7
  6
CONTINUOUS
 10
344.7347008532
 20
82.1691301064
  0
VERTEX
  8
0
 62
7
  6
CONTINUOUS
 10
344.7629520412
 20
82.1695790414
  0
SEQEND
  0
LINE
  8
0
 62
7
  6
CONTINUOUS
 10
192.0432409967
 20
142.6195669234
 11
194.6536963268
 21
135.9550463316
  0
LINE
  8
0
 62
7
  6
CONTINUOUS
 10
195.67792776
 20
136.3562320383
 11
195.5914573574
 21
136.576991908
  0
LINE
  8
0
 62
7
  6
CONTINUOUS
 10
213.4672075155
 20
97.088935902
 11
213.5537050929
 21
96.8680910236
  0
LINE
  8
0
 62
7
  6
CONTINUOUS
 10
217.1019153173
 20
90.825075562
 11
214.4914485913
 21
97.4900969901
  0
LINE
  8
0
 62
7
  6
CONTINUOUS
 10
213.3225768421
 20
111.9223227328
 11
213.3225768421
 21
97.8547888883
  0
LINE
  8
0
 62
7
  6
CONTINUOUS
 10
213.6225768421
 20
96.5033991254
 11
213.6225768421
 21
94.9723227328
  0
LINE
  8
0
 62
7
  6
CONTINUOUS
 10
214.4225768421
 20
97.8547888883
 11
214.4225768421
 21
111.9223227328
  0
LINE
  8
0
 62
7
  6
CONTINUOUS
 10
217.1225768421
 20
86.0223227328
 11
217.1225768421
 21
90.7156679925
  0
LINE
  8
0
 62
7
  6
CONTINUOUS
 10
217.4225768421
 20
142.7289812071
 11
217.4225768421
 21
147.4223227328
  0
LINE
  8
0
 62
7
  6
CONTINUOUS
 10
220.1225768421
 20
135.5903320527
 11
220.1225768421
 21
119.7978978745
  0
LINE
  8
0
 62
7
  6
CONTINUOUS
 10
204.7432383669
 20
90.825075562
 11
207.3537050929
 21
97.4900969901
  0
LINE
  8
0
 62
7
  6
CONTINUOUS
 10
208.2914485913
 20
96.8680910236
 11
208.3779461687
 21
97.088935902
  0
LINE
  8
0
 62
7
  6
CONTINUOUS
 10
226.2536963268
 20
136.576991908
 11
226.1672259242
 21
136.3562320383
  0
LINE
  8
0
 62
7
  6
CONTINUOUS
 10
227.1914573574
 20
135.9550463316
 11
229.8019126875
 21
142.6195669234
  0
LINE
  8
DEFAULT_1
 62
2
  6
CENTER
 10
27.2202891926
 20
142.1223227328
 11
347.2202891926
 21
142.1223227328
  0
LINE
  8
0
 62
7
  6
CONTINUOUS
 10
333.4702891926
 20
150.1223227328
 11
326.4702891926
 21
150.1223227328
  0
LINE
  8
0
 62
7
  6
CONTINUOUS
 10
304.5202891926
 20
150.1223227328
 11
297.5202891926
 21
150.1223227328
  0
LINE
  8
0
 62
7
  6
CONTINUOUS
 10
277.9202891926
 20
150.1223227328
 11
270.9202891926
 21
150.1223227328
  0
LINE
  8
0
 62
7
  6
CONTINUOUS
 10
252.5225768421
 20
150.1223227328
 11
245.5225768421
 21
150.1223227328
  0
LINE
  8
0
 62
7
  6
CONTINUOUS
 10
227.1225768421
 20
150.1223227328
 11
220.1225768421
 21
150.1223227328
  0
LINE
  8
0
 62
7
  6
CONTINUOUS
 10
201.7225768421
 20
150.1223227328
 11
194.7225768421
 21
150.1223227328
  0
LINE
  8
0
 62
7
  6
CONTINUOUS
 10
176.3225768421
 20
150.1223227328
 11
169.3225768421
 21
150.1223227328
  0
LINE
  8
0
 62
7
  6
CONTINUOUS
 10
150.9225768421
 20
150.1223227328
 11
143.9225768421
 21
150.1223227328
  0
LINE
  8
0
 62
7
  6
CONTINUOUS
 10
125.5225768421
 20
150.1223227328
 11
118.5225768421
 21
150.1223227328
  0
LINE
  8
0
 62
7
  6
CONTINUOUS
 10
100.1248644916
 20
150.1223227328
 11
93.1248644916
 21
150.1223227328
  0
LINE
  8
0
 62
7
  6
CONTINUOUS
 10
73.5248644916
 20
150.1223227328
 11
66.5248644916
 21
150.1223227328
  0
LINE
  8
0
 62
7
  6
CONTINUOUS
 10
44.5748644916
 20
150.1223227328
 11
37.5748644916
 21
150.1223227328
  0
LINE
  8
0
 62
7
  6
CONTINUOUS
 10
344.6364961436
 20
82.1889060987
 11
338.9650664572
 21
84.3659639825
  0
POLYLINE
  8
0
 62
7
  6
CONTINUOUS
 66
1
 70
0
  0
VERTEX
  8
0
 62
7
  6
CONTINUOUS
 10
226.0225768421
 20
119.797899124
  0
VERTEX
  8
0
 62
7
  6
CONTINUOUS
 10
226.0244323589
 20
119.6823326283
  0
VERTEX
  8
0
 62
7
  6
CONTINUOUS
 10
226.0296624895
 20
119.5723883988
  0
VERTEX
  8
0
 62
7
  6
CONTINUOUS
 10
226.0379109932
 20
119.4666451164
  0
VERTEX
  8
0
 62
7
  6
CONTINUOUS
 10
226.0489813464
 20
119.3637689336
  0
VERTEX
  8
0
 62
7
  6
CONTINUOUS
 10
226.0628492484
 20
119.2624487745
  0
VERTEX
  8
0
 62
7
  6
CONTINUOUS
 10
226.0796280037
 20
119.1614382279
  0
VERTEX
  8
0
 62
7
  6
CONTINUOUS
 10
226.0993350037
 20
119.0606514743
  0
VERTEX
  8
0
 62
7
  6
CONTINUOUS
 10
226.1218920876
 20
118.9605662353
  0
VERTEX
  8
0
 62
7
  6
CONTINUOUS
 10
226.1472920077
 20
118.8612410926
  0
VERTEX
  8
0
 62
7
  6
CONTINUOUS
 10
226.1755427988
 20
118.7626233886
  0
VERTEX
  8
0
 62
7
  6
CONTINUOUS
 10
226.2066005475
 20
118.6648462812
  0
VERTEX
  8
0
 62
7
  6
CONTINUOUS
 10
226.2404376411
 20
118.5680398034
  0
VERTEX
  8
0
 62
7
  6
CONTINUOUS
 10
226.2770940506
 20
118.4721536368
  0
VERTEX
  8
0
 62
7
  6
CONTINUOUS
 10
226.3165638455
 20
118.3772817567
  0
VERTEX
  8
0
 62
7
  6
CONTINUOUS
 10
226.3588119562
 20
118.2836013018
  0
VERTEX
  8
0
 62
7
  6
CONTINUOUS
 10
226.4039020763
 20
118.1910338398
  0
VERTEX
  8
0
 62
7
  6
CONTINUOUS
 10
226.4519175586
 20
118.0994827209
  0
VERTEX
  8
0
 62
7
  6
CONTINUOUS
 10
226.5026398138
 20
118.0094179893
  0
VERTEX
  8
0
 62
7
  6
CONTINUOUS
 10
226.5558188295
 20
117.9212390827
  0
VERTEX
  8
0
 62
7
  6
CONTINUOUS
 10
226.6132842066
 20
117.832160945
  0
VERTEX
  8
0
 62
7
  6
CONTINUOUS
 10
226.6783095268
 20
117.7381418032
  0
VERTEX
  8
0
 62
7
  6
CONTINUOUS
 10
226.754620375
 20
117.6358113317
  0
VERTEX
  8
0
 62
7
  6
CONTINUOUS
 10
226.8426183162
 20
117.5271748574
  0
VERTEX
  8
0
 62
7
  6
CONTINUOUS
 10
226.936210682
 20
117.4212220044
  0
VERTEX
  8
0
 62
7
  6
CONTINUOUS
 10
227.0278190495
 20
117.3259049875
  0
VERTEX
  8
0
 62
7
  6
CONTINUOUS
 10
227.1143304144
 20
117.2426258254
  0
VERTEX
  8
0
 62
7
  6
CONTINUOUS
 10
227.1977678932
 20
117.1679016003
  0
VERTEX
  8
0
 62
7
  6
CONTINUOUS
 10
227.2808415083
 20
117.0984976924
  0
VERTEX
  8
0
 62
7
  6
CONTINUOUS
 10
227.3657217319
 20
117.0323487532
  0
VERTEX
  8
0
 62
7
  6
CONTINUOUS
 10
227.4527018245
 20
116.9692231337
  0
VERTEX
  8
0
 62
7
  6
CONTINUOUS
 10
227.5417661918
 20
116.9091612267
  0
VERTEX
  8
0
 62
7
  6
CONTINUOUS
 10
227.6327469282
 20
116.8523151696
  0
VERTEX
  8
0
 62
7
  6
CONTINUOUS
 10
227.7257575999
 20
116.7986854425
  0
VERTEX
  8
0
 62
7
  6
CONTINUOUS
 10
227.8211231808
 20
116.7481742763
  0
VERTEX
  8
0
 62
7
  6
CONTINUOUS
 10
227.9188027591
 20
116.7009240664
  0
VERTEX
  8
0
 62
7
  6
CONTINUOUS
 10
228.0187080056
 20
116.6570676241
  0
VERTEX
  8
0
 62
7
  6
CONTINUOUS
 10
228.120490803
 20
116.6168130971
  0
VERTEX
  8
0
 62
7
  6
CONTINUOUS
 10
228.223857794
 20
116.5803224998
  0
VERTEX
  8
0
 62
7
  6
CONTINUOUS
 10
228.3287196874
 20
116.5476684903
  0
VERTEX
  8
0
 62
7
  6
CONTINUOUS
 10
228.4349988725
 20
116.5189342119
  0
VERTEX
  8
0
 62
7
  6
CONTINUOUS
 10
228.5422567287
 20
116.4942910183
  0
VERTEX
  8
0
 62
7
  6
CONTINUOUS
 10
228.6506270929
 20
116.4737738968
  0
VERTEX
  8
0
 62
7
  6
CONTINUOUS
 10
228.7613849508
 20
116.4572830985
  0
VERTEX
  8
0
 62
7
  6
CONTINUOUS
 10
228.8759875317
 20
116.4449232271
  0
VERTEX
  8
0
 62
7
  6
CONTINUOUS
 10
228.9958685232
 20
116.4370353793
  0
VERTEX
  8
0
 62
7
  6
CONTINUOUS
 10
229.1225769305
 20
116.4342231911
  0
SEQEND
  0
LINE
  8
0
 62
7
  6
CONTINUOUS
 10
220.9225768421
 20
136.9417061869
 11
220.9225768421
 21
138.4723227328
  0
LINE
  8
0
 62
7
  6
CONTINUOUS
 10
221.2225768421
 20
119.7978985569
 11
221.2225768421
 21
135.5903320527
  0
LINE
  8
0
 62
7
  6
CONTINUOUS
 10
226.0225768421
 20
135.5903320527
 11
226.0225768421
 21
119.797899124
  0
LINE
  8
0
 62
7
  6
CONTINUOUS
 10
226.3225768421
 20
138.4723227328
 11
226.3225768421
 21
136.9417061869
  0
LINE
  8
0
 62
7
  6
CONTINUOUS
 10
227.1225768421
 20
119.7978978745
 11
227.1225768421
 21
135.5903320527
  0
LINE
  8
0
 62
7
  6
CONTINUOUS
 10
229.8225768421
 20
142.7289812071
 11
229.8225768421
 21
147.4223227328
  0
LINE
  8
0
 62
7
  6
CONTINUOUS
 10
230.1225768421
 20
86.0223227328
 11
230.1225768421
 21
90.7156679925
  0
LINE
  8
0
 62
7
  6
CONTINUOUS
 10
217.4432409967
 20
142.6195669234
 11
220.0536963268
 21
135.9550463316
  0
LINE
  8
0
 62
7
  6
CONTINUOUS
 10
221.07792776
 20
136.3562320383
 11
220.9914573574
 21
136.576991908
  0
LINE
  8
0
 62
7
  6
CONTINUOUS
 10
238.8672075155
 20
97.088935902
 11
238.9537050929
 21
96.8680910236
  0
LINE
  8
0
 62
7
  6
CONTINUOUS
 10
242.5019153173
 20
90.825075562
 11
239.8914485913
 21
97.4900969901
  0
LINE
  8
0
 62
7
  6
CONTINUOUS
 10
232.8225768421
 20
111.9223227328
 11
232.8225768421
 21
97.8547888883
  0
LINE
  8
0
 62
7
  6
CONTINUOUS
 10
233.6225768421
 20
94.9723227328
 11
233.6225768421
 21
96.5033991254
  0
LINE
  8
0
 62
7
  6
CONTINUOUS
 10
233.9225768421
 20
97.8547888883
 11
233.9225768421
 21
111.9223227328
  0
LINE
  8
0
 62
7
  6
CONTINUOUS
 10
238.7225768421
 20
111.9223227328
 11
238.7225768421
 21
97.8547888883
  0
LINE
  8
0
 62
7
  6
CONTINUOUS
 10
239.0225768421
 20
96.5033991254
 11
239.0225768421
 21
94.9723227328
  0
LINE
  8
0
 62
7
  6
CONTINUOUS
 10
239.8225768421
 20
97.8547888883
 11
239.8225768421
 21
111.9223227328
  0
LINE
  8
0
 62
7
  6
CONTINUOUS
 10
230.1432383669
 20
90.825075562
 11
232.7537050929
 21
97.4900969901
  0
LINE
  8
0
 62
7
  6
CONTINUOUS
 10
233.6914485913
 20
96.8680910236
 11
233.7779461687
 21
97.088935902
  0
LINE
  8
0
 62
7
  6
CONTINUOUS
 10
251.6536963268
 20
136.576991908
 11
251.5672259242
 21
136.3562320383
  0
LINE
  8
0
 62
7
  6
CONTINUOUS
 10
252.5914573574
 20
135.9550463316
 11
255.2019126875
 21
142.6195669234
  0
POLYLINE
  8
0
 62
7
  6
CONTINUOUS
 66
1
 70
0
  0
VERTEX
  8
0
 62
7
  6
CONTINUOUS
 10
251.4225768421
 20
119.7978991241
  0
VERTEX
  8
0
 62
7
  6
CONTINUOUS
 10
251.4244323589
 20
119.6823326284
  0
VERTEX
  8
0
 62
7
  6
CONTINUOUS
 10
251.4296624895
 20
119.5723883989
  0
VERTEX
  8
0
 62
7
  6
CONTINUOUS
 10
251.4379109931
 20
119.4666451165
  0
VERTEX
  8
0
 62
7
  6
CONTINUOUS
 10
251.4489813464
 20
119.3637689337
  0
VERTEX
  8
0
 62
7
  6
CONTINUOUS
 10
251.4628492484
 20
119.2624487746
  0
VERTEX
  8
0
 62
7
  6
CONTINUOUS
 10
251.4796280037
 20
119.161438228
  0
VERTEX
  8
0
 62
7
  6
CONTINUOUS
 10
251.4993350037
 20
119.0606514744
  0
VERTEX
  8
0
 62
7
  6
CONTINUOUS
 10
251.5218920876
 20
118.9605662354
  0
VERTEX
  8
0
 62
7
  6
CONTINUOUS
 10
251.5472920077
 20
118.8612410926
  0
VERTEX
  8
0
 62
7
  6
CONTINUOUS
 10
251.5755427988
 20
118.7626233887
  0
VERTEX
  8
0
 62
7
  6
CONTINUOUS
 10
251.6066005475
 20
118.6648462813
  0
VERTEX
  8
0
 62
7
  6
CONTINUOUS
 10
251.6404376411
 20
118.5680398035
  0
VERTEX
  8
0
 62
7
  6
CONTINUOUS
 10
251.6770940505
 20
118.4721536369
  0
VERTEX
  8
0
 62
7
  6
CONTINUOUS
 10
251.7165638454
 20
118.3772817568
  0
VERTEX
  8
0
 62
7
  6
CONTINUOUS
 10
251.7588119561
 20
118.2836013018
  0
VERTEX
  8
0
 62
7
  6
CONTINUOUS
 10
251.8039020762
 20
118.1910338399
  0
VERTEX
  8
0
 62
7
  6
CONTINUOUS
 10
251.8519175585
 20
118.099482721
  0
VERTEX
  8
0
 62
7
  6
CONTINUOUS
 10
251.9026398137
 20
118.0094179893
  0
VERTEX
  8
0
 62
7
  6
CONTINUOUS
 10
251.9558188295
 20
117.9212390827
  0
VERTEX
  8
0
 62
7
  6
CONTINUOUS
 10
252.0132842065
 20
117.8321609451
  0
VERTEX
  8
0
 62
7
  6
CONTINUOUS
 10
252.0783095267
 20
117.7381418032
  0
VERTEX
  8
0
 62
7
  6
CONTINUOUS
 10
252.1546203749
 20
117.6358113318
  0
VERTEX
  8
0
 62
7
  6
CONTINUOUS
 10
252.2426183162
 20
117.5271748574
  0
VERTEX
  8
0
 62
7
  6
CONTINUOUS
 10
252.3362106819
 20
117.4212220044
  0
VERTEX
  8
0
 62
7
  6
CONTINUOUS
 10
252.4278190495
 20
117.3259049875
  0
VERTEX
  8
0
 62
7
  6
CONTINUOUS
 10
252.5143304143
 20
117.2426258254
  0
VERTEX
  8
0
 62
7
  6
CONTINUOUS
 10
252.5977678932
 20
117.1679016004
  0
VERTEX
  8
0
 62
7
  6
CONTINUOUS
 10
252.6808415082
 20
117.0984976924
  0
VERTEX
  8
0
 62
7
  6
CONTINUOUS
 10
252.7657217319
 20
117.0323487533
  0
VERTEX
  8
0
 62
7
  6
CONTINUOUS
 10
252.8527018245
 20
116.9692231337
  0
VERTEX
  8
0
 62
7
  6
CONTINUOUS
 10
252.9417661918
 20
116.9091612267
  0
VERTEX
  8
0
 62
7
  6
CONTINUOUS
 10
253.0327469282
 20
116.8523151696
  0
VERTEX
  8
0
 62
7
  6
CONTINUOUS
 10
253.1257575999
 20
116.7986854426
  0
VERTEX
  8
0
 62
7
  6
CONTINUOUS
 10
253.2211231808
 20
116.7481742763
  0
VERTEX
  8
0
 62
7
  6
CONTINUOUS
 10
253.3188027591
 20
116.7009240664
  0
VERTEX
  8
0
 62
7
  6
CONTINUOUS
 10
253.4187080056
 20
116.6570676241
  0
VERTEX
  8
0
 62
7
  6
CONTINUOUS
 10
253.520490803
 20
116.6168130971
  0
VERTEX
  8
0
 62
7
  6
CONTINUOUS
 10
253.6238577939
 20
116.5803224998
  0
VERTEX
  8
0
 62
7
  6
CONTINUOUS
 10
253.7287196874
 20
116.5476684903
  0
VERTEX
  8
0
 62
7
  6
CONTINUOUS
 10
253.8349988725
 20
116.5189342119
  0
VERTEX
  8
0
 62
7
  6
CONTINUOUS
 10
253.9422567287
 20
116.4942910183
  0
VERTEX
  8
0
 62
7
  6
CONTINUOUS
 10
254.0506270928
 20
116.4737738969
  0
VERTEX
  8
0
 62
7
  6
CONTINUOUS
 10
254.1613849507
 20
116.4572830985
  0
VERTEX
  8
0
 62
7
  6
CONTINUOUS
 10
254.2759875316
 20
116.4449232271
  0
VERTEX
  8
0
 62
7
  6
CONTINUOUS
 10
254.3958685232
 20
116.4370353793
  0
VERTEX
  8
0
 62
7
  6
CONTINUOUS
 10
254.5225769305
 20
116.4342231911
  0
SEQEND
  0
LINE
  8
0
 62
7
  6
CONTINUOUS
 10
242.5225768421
 20
86.0223227328
 11
242.5225768421
 21
90.7156679925
  0
LINE
  8
0
 62
7
  6
CONTINUOUS
 10
242.8225768421
 20
142.7289812071
 11
242.8225768421
 21
147.4223227328
  0
LINE
  8
0
 62
7
  6
CONTINUOUS
 10
245.5225768421
 20
135.5903320527
 11
245.5225768421
 21
119.7978978745
  0
LINE
  8
0
 62
7
  6
CONTINUOUS
 10
246.3225768421
 20
136.9417061869
 11
246.3225768421
 21
138.4723227328
  0
LINE
  8
0
 62
7
  6
CONTINUOUS
 10
246.6225768421
 20
119.7978985568
 11
246.6225768421
 21
135.5903320527
  0
LINE
  8
0
 62
7
  6
CONTINUOUS
 10
251.4225768421
 20
135.5903320527
 11
251.4225768421
 21
119.7978991241
  0
LINE
  8
0
 62
7
  6
CONTINUOUS
 10
251.7225768421
 20
138.4723227328
 11
251.7225768421
 21
136.9417061869
  0
LINE
  8
0
 62
7
  6
CONTINUOUS
 10
252.5225768421
 20
119.7978978745
 11
252.5225768421
 21
135.5903320527
  0
LINE
  8
0
 62
7
  6
CONTINUOUS
 10
346.6898194755
 20
115.3637463036
 11
335.8472990148
 21
120.1770913051
  0
LINE
  8
0
 62
7
  6
CONTINUOUS
 10
280.0918620678
 20
113.4007498575
 11
282.4487163173
 21
111.043895608
  0
LINE
  8
0
 62
7
  6
CONTINUOUS
 10
242.8432409967
 20
142.6195669234
 11
245.4536963268
 21
135.9550463316
  0
LINE
  8
0
 62
7
  6
CONTINUOUS
 10
246.47792776
 20
136.3562320383
 11
246.3914573574
 21
136.576991908
  0
LINE
  8
0
 62
7
  6
CONTINUOUS
 10
264.2672075155
 20
97.088935902
 11
264.3537050929
 21
96.8680910236
  0
LINE
  8
0
 62
7
  6
CONTINUOUS
 10
267.899625038
 20
90.8250785422
 11
265.2891697079
 21
97.489599134
  0
LINE
  8
0
 62
7
  6
CONTINUOUS
 10
255.2225768421
 20
142.7289812071
 11
255.2225768421
 21
147.4223227328
  0
LINE
  8
0
 62
7
  6
CONTINUOUS
 10
255.5225768421
 20
86.0223227328
 11
255.5225768421
 21
90.7156679925
  0
LINE
  8
0
 62
7
  6
CONTINUOUS
 10
258.2225768421
 20
111.9223227328
 11
258.2225768421
 21
97.8547888883
  0
LINE
  8
0
 62
7
  6
CONTINUOUS
 10
259.0225768421
 20
94.9723227328
 11
259.0225768421
 21
96.5033991254
  0
LINE
  8
0
 62
7
  6
CONTINUOUS
 10
259.3225768421
 20
97.8547888883
 11
259.3225768421
 21
111.9223227328
  0
LINE
  8
0
 62
7
  6
CONTINUOUS
 10
264.1225768421
 20
111.9223227328
 11
264.1225768421
 21
97.8547888883
  0
LINE
  8
0
 62
7
  6
CONTINUOUS
 10
264.4225768421
 20
96.5033991254
 11
264.4225768421
 21
94.9723227328
  0
LINE
  8
0
 62
7
  6
CONTINUOUS
 10
255.5432383669
 20
90.825075562
 11
258.1537050929
 21
97.4900969901
  0
LINE
  8
0
 62
7
  6
CONTINUOUS
 10
259.0914485913
 20
96.8680910236
 11
259.1779461687
 21
97.088935902
  0
LINE
  8
0
 62
7
  6
CONTINUOUS
 10
277.0536963268
 20
136.576991908
 11
276.9672259242
 21
136.3562320383
  0
LINE
  8
0
 62
7
  6
CONTINUOUS
 10
277.9891697079
 20
135.9550463316
 11
280.599625038
 21
142.6195669234
  0
LINE
  8
0
 62
7
  6
CONTINUOUS
 10
296.3487163173
 20
122.2907498575
 11
294.0918620678
 21
120.033895608
  0
LINE
  8
0
 62
7
  6
CONTINUOUS
 10
291.7918620678
 20
111.043895608
 11
294.6487163173
 21
113.9007498575
  0
LINE
  8
0
 62
7
  6
CONTINUOUS
 10
281.3487163173
 20
120.033895608
 11
279.0918620678
 21
122.2907498575
  0
LINE
  8
0
 62
7
  6
CONTINUOUS
 10
265.2202891926
 20
97.8543134129
 11
265.2202891926
 21
112.5723227328
  0
LINE
  8
0
 62
7
  6
CONTINUOUS
 10
267.9202891926
 20
86.0223227328
 11
267.9202891926
 21
90.7156642585
  0
LINE
  8
0
 62
7
  6
CONTINUOUS
 10
268.2202891926
 20
142.7289812071
 11
268.2202891926
 21
147.4223227328
  0
LINE
  8
0
 62
7
  6
CONTINUOUS
 10
270.9202891926
 20
135.5903320527
 11
270.9202891926
 21
119.7978978745
  0
LINE
  8
0
 62
7
  6
CONTINUOUS
 10
271.7225768421
 20
136.9417061869
 11
271.7225768421
 21
138.4723227328
  0
LINE
  8
0
 62
7
  6
CONTINUOUS
 10
272.0225768421
 20
119.7978985566
 11
272.0225768421
 21
135.5903320527
  0
LINE
  8
0
 62
7
  6
CONTINUOUS
 10
307.3918620678
 20
113.9007498575
 11
310.2487163173
 21
111.043895608
  0
LINE
  8
0
 62
7
  6
CONTINUOUS
 10
305.6918620678
 20
123.0157498575
 11
309.1237163173
 21
119.583895608
  0
LINE
  8
0
 62
7
  6
CONTINUOUS
 10
268.2409533472
 20
142.6195669234
 11
270.8514086773
 21
135.9550463316
  0
LINE
  8
0
 62
7
  6
CONTINUOUS
 10
271.87792776
 20
136.3562320383
 11
271.7914573574
 21
136.576991908
  0
LINE
  8
0
 62
7
  6
CONTINUOUS
 10
276.8225768421
 20
135.5903320527
 11
276.8225768421
 21
117.5223227328
  0
LINE
  8
0
 62
7
  6
CONTINUOUS
 10
277.1225768421
 20
138.4723227328
 11
277.1225768421
 21
136.9417061869
  0
LINE
  8
0
 62
7
  6
CONTINUOUS
 10
277.9202891926
 20
125.1191769823
 11
277.9202891926
 21
135.5903320527
  0
LINE
  8
0
 62
7
  6
CONTINUOUS
 10
280.6202891926
 20
142.7289812071
 11
280.6202891926
 21
147.4223227328
  0
LINE
  8
0
 62
7
  6
CONTINUOUS
 10
280.9202891926
 20
86.0223227328
 11
280.9202891926
 21
90.7156642585
  0
LINE
  8
0
 62
7
  6
CONTINUOUS
 10
283.6202891926
 20
108.2154684833
 11
283.6202891926
 21
97.8543134129
  0
LINE
  8
0
 62
7
  6
CONTINUOUS
 10
280.9409533472
 20
90.8250785422
 11
283.5514086773
 21
97.489599134
  0
LINE
  8
0
 62
7
  6
CONTINUOUS
 10
321.8668620678
 20
119.583895608
 11
325.2987163173
 21
123.0157498575
  0
LINE
  8
0
 62
7
  6
CONTINUOUS
 10
319.5918620678
 20
110.318895608
 11
323.5737163173
 21
114.3007498575
  0
LINE
  8
0
 62
7
  6
CONTINUOUS
 10
293.299625038
 20
90.8250785422
 11
290.6891697079
 21
97.489599134
  0
LINE
  8
0
 62
7
  6
CONTINUOUS
 10
290.6202891926
 20
97.8543134129
 11
290.6202891926
 21
108.2154684833
  0
LINE
  8
0
 62
7
  6
CONTINUOUS
 10
293.3202891926
 20
86.0223227328
 11
293.3202891926
 21
90.7156642585
  0
LINE
  8
0
 62
7
  6
CONTINUOUS
 10
294.8202891926
 20
142.7289812071
 11
294.8202891926
 21
147.4223227328
  0
LINE
  8
0
 62
7
  6
CONTINUOUS
 10
297.5202891926
 20
135.5903320527
 11
297.5202891926
 21
125.1191769823
  0
LINE
  8
0
 62
7
  6
CONTINUOUS
 10
304.5891697079
 20
135.9550463316
 11
307.199625038
 21
142.6195669234
  0
LINE
  8
0
 62
7
  6
CONTINUOUS
 10
336.3168620678
 20
114.3007498575
 11
339.7152175292
 21
110.9023943962
  0
LINE
  8
0
 62
7
  6
CONTINUOUS
 10
294.8409533472
 20
142.6195669234
 11
297.4514086773
 21
135.9550463316
  0
LINE
  8
0
 62
7
  6
CONTINUOUS
 10
304.5202891926
 20
125.8441769823
 11
304.5202891926
 21
135.5903320527
  0
LINE
  8
0
 62
7
  6
CONTINUOUS
 10
307.2202891926
 20
142.7289812071
 11
307.2202891926
 21
147.4223227328
  0
LINE
  8
0
 62
7
  6
CONTINUOUS
 10
308.7202891926
 20
86.0223227328
 11
308.7202891926
 21
90.7156642585
  0
LINE
  8
0
 62
7
  6
CONTINUOUS
 10
321.099625038
 20
90.8250785422
 11
318.4891697079
 21
97.489599134
  0
LINE
  8
0
 62
7
  6
CONTINUOUS
 10
311.4202891926
 20
108.2154684833
 11
311.4202891926
 21
97.8543134129
  0
LINE
  8
0
 62
7
  6
CONTINUOUS
 10
318.4202891926
 20
97.8543134129
 11
318.4202891926
 21
107.4904684833
  0
LINE
  8
0
 62
7
  6
CONTINUOUS
 10
308.7409533472
 20
90.8250785422
 11
311.3514086773
 21
97.489599134
  0
LINE
  8
0
 62
7
  6
CONTINUOUS
 10
333.5391697079
 20
135.9550463316
 11
336.149625038
 21
142.6195669234
  0
POLYLINE
  8
0
 62
7
  6
CONTINUOUS
 66
1
 70
0
  0
VERTEX
  8
0
 62
7
  6
CONTINUOUS
 10
327.4725768423
 20
90.6607406149
  0
VERTEX
  8
0
 62
7
  6
CONTINUOUS
 10
327.4756568224
 20
90.551261266
  0
VERTEX
  8
0
 62
7
  6
CONTINUOUS
 10
327.4867459935
 20
90.4254906282
  0
VERTEX
  8
0
 62
7
  6
CONTINUOUS
 10
327.50593422
 20
90.2997239135
  0
VERTEX
  8
0
 62
7
  6
CONTINUOUS
 10
327.5331804968
 20
90.1748962988
  0
VERTEX
  8
0
 62
7
  6
CONTINUOUS
 10
327.5684208311
 20
90.05183388
  0
VERTEX
  8
0
 62
7
  6
CONTINUOUS
 10
327.6115501856
 20
89.9312966368
  0
VERTEX
  8
0
 62
7
  6
CONTINUOUS
 10
327.6623590004
 20
89.814085717
  0
VERTEX
  8
0
 62
7
  6
CONTINUOUS
 10
327.7205312627
 20
89.700704082
  0
VERTEX
  8
0
 62
7
  6
CONTINUOUS
 10
327.7856609636
 20
89.5915226669
  0
VERTEX
  8
0
 62
7
  6
CONTINUOUS
 10
327.8574105346
 20
89.486894007
  0
VERTEX
  8
0
 62
7
  6
CONTINUOUS
 10
327.9353938145
 20
89.3872753364
  0
VERTEX
  8
0
 62
7
  6
CONTINUOUS
 10
328.0193498749
 20
89.2930185373
  0
VERTEX
  8
0
 62
7
  6
CONTINUOUS
 10
328.1093261333
 20
89.2042031041
  0
VERTEX
  8
0
 62
7
  6
CONTINUOUS
 10
328.2049741771
 20
89.1211481797
  0
VERTEX
  8
0
 62
7
  6
CONTINUOUS
 10
328.3060061516
 20
89.0440364736
  0
VERTEX
  8
0
 62
7
  6
CONTINUOUS
 10
328.4117338071
 20
88.9734624491
  0
VERTEX
  8
0
 62
7
  6
CONTINUOUS
 10
328.5210894266
 20
88.910149407
  0
VERTEX
  8
0
 62
7
  6
CONTINUOUS
 10
328.6335618189
 20
88.8541686743
  0
VERTEX
  8
0
 62
7
  6
CONTINUOUS
 10
328.74931173
 20
88.8053864443
  0
VERTEX
  8
0
 62
7
  6
CONTINUOUS
 10
328.8683259069
 20
88.7638447068
  0
VERTEX
  8
0
 62
7
  6
CONTINUOUS
 10
328.9901222395
 20
88.7297095771
  0
VERTEX
  8
0
 62
7
  6
CONTINUOUS
 10
329.1140632239
 20
88.7031979579
  0
VERTEX
  8
0
 62
7
  6
CONTINUOUS
 10
329.2392253698
 20
88.6845296635
  0
VERTEX
  8
0
 62
7
  6
CONTINUOUS
 10
329.3646596051
 20
88.6737878819
  0
VERTEX
  8
0
 62
7
  6
CONTINUOUS
 10
329.4725768539
 20
88.6708649291
  0
SEQEND
  0
LINE
  8
0
 62
7
  6
CONTINUOUS
 10
321.1202891926
 20
86.0223227328
 11
321.1202891926
 21
90.7156642585
  0
LINE
  8
0
 62
7
  6
CONTINUOUS
 10
323.7702891926
 20
142.7289812071
 11
323.7702891926
 21
147.4223227328
  0
LINE
  8
0
 62
7
  6
CONTINUOUS
 10
326.4702891926
 20
135.5903320527
 11
326.4702891926
 21
125.8441769823
  0
LINE
  8
0
 62
7
  6
CONTINUOUS
 10
327.4725768421
 20
90.6607423814
 11
327.4725768421
 21
95.9839030842
  0
LINE
  8
0
 62
7
  6
CONTINUOUS
 10
341.3386022459
 20
102.7668091057
 11
338.812769221
 21
98.3919379751
  0
LINE
  8
0
 62
7
  6
CONTINUOUS
 10
323.7909533472
 20
142.6195669234
 11
326.4014086773
 21
135.9550463316
  0
POLYLINE
  8
0
 62
7
  6
CONTINUOUS
 66
1
 70
0
  0
VERTEX
  8
0
 62
7
  6
CONTINUOUS
 10
338.5556652775
 20
91.2128962515
  0
VERTEX
  8
0
 62
7
  6
CONTINUOUS
 10
338.5825686757
 20
90.67975367
  0
VERTEX
  8
0
 62
7
  6
CONTINUOUS
 10
338.6536181318
 20
89.6264005776
  0
VERTEX
  8
0
 62
7
  6
CONTINUOUS
 10
338.7482447475
 20
88.5767194472
  0
SEQEND
  0
POLYLINE
  8
0
 62
7
  6
CONTINUOUS
 66
1
 70
0
  0
VERTEX
  8
0
 62
7
  6
CONTINUOUS
 10
338.7725768421
 20
84.6460381104
  0
VERTEX
  8
0
 62
7
  6
CONTINUOUS
 10
338.7740726421
 20
84.616117506
  0
VERTEX
  8
0
 62
7
  6
CONTINUOUS
 10
338.7785832488
 20
84.5863073221
  0
VERTEX
  8
0
 62
7
  6
CONTINUOUS
 10
338.7858784142
 20
84.5576977945
  0
VERTEX
  8
0
 62
7
  6
CONTINUOUS
 10
338.7959043238
 20
84.5300539838
  0
VERTEX
  8
0
 62
7
  6
CONTINUOUS
 10
338.8087409604
 20
84.5032423558
  0
VERTEX
  8
0
 62
7
  6
CONTINUOUS
 10
338.8241923099
 20
84.4777968428
  0
VERTEX
  8
0
 62
7
  6
CONTINUOUS
 10
338.842241313
 20
84.4538258735
  0
VERTEX
  8
0
 62
7
  6
CONTINUOUS
 10
338.8628478592
 20
84.4315299434
  0
VERTEX
  8
0
 62
7
  6
CONTINUOUS
 10
338.8856088193
 20
84.4114257526
  0
VERTEX
  8
0
 62
7
  6
CONTINUOUS
 10
338.9103692348
 20
84.3936719239
  0
VERTEX
  8
0
 62
7
  6
CONTINUOUS
 10
338.937275332
 20
84.3782816887
  0
VERTEX
  8
0
 62
7
  6
CONTINUOUS
 10
338.9650664572
 20
84.3659639825
  0
SEQEND
  0
LINE
  8
0
 62
7
  6
CONTINUOUS
 10
333.4702891926
 20
123.8330320708
 11
333.4702891926
 21
135.5903320527
  0
LINE
  8
0
 62
7
  6
CONTINUOUS
 10
336.1702891926
 20
142.7289812071
 11
336.1702891926
 21
147.4223227328
  0
LINE
  8
0
 62
7
  6
CONTINUOUS
 10
338.7725768421
 20
84.6460381104
 11
338.7725768421
 21
98.2419379751
  0
LINE
  8
0
 62
7
  6
CONTINUOUS
 10
341.4725768421
 20
106.659753709
 11
341.4725768421
 21
103.2668091057
  0
LINE
  8
0
 62
7
  6
CONTINUOUS
 10
348.4725768421
 20
86.1590108397
 11
348.4725768421
 21
112.6217907293
  0
POLYLINE
  8
0
 62
7
  6
CONTINUOUS
 66
1
 70
0
  0
VERTEX
  8
0
 62
7
  6
CONTINUOUS
 10
338.5556652775
 20
95.431749214
  0
VERTEX
  8
0
 62
7
  6
CONTINUOUS
 10
338.5351645869
 20
94.9089156346
  0
VERTEX
  8
0
 62
7
  6
CONTINUOUS
 10
338.5114511493
 20
93.8513630219
  0
VERTEX
  8
0
 62
7
  6
CONTINUOUS
 10
338.5114511233
 20
92.7932847665
  0
VERTEX
  8
0
 62
7
  6
CONTINUOUS
 10
338.5351645166
 20
91.7357319194
  0
VERTEX
  8
0
 62
7
  6
CONTINUOUS
 10
338.5556652775
 20
91.2128962515
  0
SEQEND
  0
POLYLINE
  8
0
 62
7
  6
CONTINUOUS
 66
1
 70
0
  0
VERTEX
  8
0
 62
7
  6
CONTINUOUS
 10
338.5471215612
 20
95.2406245547
  0
VERTEX
  8
0
 62
7
  6
CONTINUOUS
 10
338.522009849
 20
94.6027465734
  0
VERTEX
  8
0
 62
7
  6
CONTINUOUS
 10
338.5069191054
 20
93.9633251377
  0
VERTEX
  8
0
 62
7
  6
CONTINUOUS
 10
338.5018772827
 20
93.322977852
  0
VERTEX
  8
0
 62
7
  6
CONTINUOUS
 10
338.5068998757
 20
92.6825436026
  0
VERTEX
  8
0
 62
7
  6
CONTINUOUS
 10
338.5219783028
 20
92.0429014561
  0
VERTEX
  8
0
 62
7
  6
CONTINUOUS
 10
338.5471215615
 20
91.4040209041
  0
SEQEND
  0
POLYLINE
  8
0
 62
7
  6
CONTINUOUS
 66
1
 70
0
  0
VERTEX
  8
0
 62
7
  6
CONTINUOUS
 10
338.7482447475
 20
98.0679260184
  0
VERTEX
  8
0
 62
7
  6
CONTINUOUS
 10
338.6536182046
 20
97.0182458115
  0
VERTEX
  8
0
 62
7
  6
CONTINUOUS
 10
338.5825687667
 20
95.9648934167
  0
VERTEX
  8
0
 62
7
  6
CONTINUOUS
 10
338.5556652775
 20
95.431749214
  0
SEQEND
  0
POLYLINE
  8
0
 62
7
  6
CONTINUOUS
 66
1
 70
0
  0
VERTEX
  8
0
 62
7
  6
CONTINUOUS
 10
338.7725768421
 20
98.1547216191
  0
VERTEX
  8
0
 62
7
  6
CONTINUOUS
 10
338.7691133483
 20
98.1475748873
  0
VERTEX
  8
0
 62
7
  6
CONTINUOUS
 10
338.761382781
 20
98.1276924461
  0
VERTEX
  8
0
 62
7
  6
CONTINUOUS
 10
338.7554102395
 20
98.1078716971
  0
VERTEX
  8
0
 62
7
  6
CONTINUOUS
 10
338.7510543088
 20
98.0880050114
  0
VERTEX
  8
0
 62
7
  6
CONTINUOUS
 10
338.7482447475
 20
98.0679260184
  0
SEQEND
  0
POLYLINE
  8
0
 62
7
  6
CONTINUOUS
 66
1
 70
0
  0
VERTEX
  8
0
 62
7
  6
CONTINUOUS
 10
338.7482447475
 20
88.5767194472
  0
VERTEX
  8
0
 62
7
  6
CONTINUOUS
 10
338.7514462408
 20
88.5545272626
  0
VERTEX
  8
0
 62
7
  6
CONTINUOUS
 10
338.7565460545
 20
88.5325981571
  0
VERTEX
  8
0
 62
7
  6
CONTINUOUS
 10
338.7636621851
 20
88.5107166007
  0
VERTEX
  8
0
 62
7
  6
CONTINUOUS
 10
338.7725768421
 20
88.4897415345
  0
SEQEND
  0
LINE
  8
0
 62
7
  6
CONTINUOUS
 10
22.5725768421
 20
217.8829793928
 11
22.5725768421
 21
203.4829793928
  0
POLYLINE
  8
0
 62
7
  6
CONTINUOUS
 66
1
 70
0
  0
VERTEX
  8
0
 62
7
  6
CONTINUOUS
 10
28.1620305996
 20
191.0135017672
  0
VERTEX
  8
0
 62
7
  6
CONTINUOUS
 10
28.1647230856
 20
190.9844453875
  0
VERTEX
  8
0
 62
7
  6
CONTINUOUS
 10
28.1702068253
 20
190.9357073375
  0
VERTEX
  8
0
 62
7
  6
CONTINUOUS
 10
28.1771881359
 20
190.8851144482
  0
VERTEX
  8
0
 62
7
  6
CONTINUOUS
 10
28.185790786
 20
190.8328455454
  0
VERTEX
  8
0
 62
7
  6
CONTINUOUS
 10
28.1961373847
 20
190.7790434219
  0
VERTEX
  8
0
 62
7
  6
CONTINUOUS
 10
28.2083365262
 20
190.7238909231
  0
VERTEX
  8
0
 62
7
  6
CONTINUOUS
 10
28.2224835806
 20
190.6675863749
  0
VERTEX
  8
0
 62
7
  6
CONTINUOUS
 10
28.2386782236
 20
190.6102770383
  0
VERTEX
  8
0
 62
7
  6
CONTINUOUS
 10
28.2570266682
 20
190.552076866
  0
VERTEX
  8
0
 62
7
  6
CONTINUOUS
 10
28.2740804067
 20
190.5028642756
  0
SEQEND
  0
LINE
  8
0
 62
7
  6
CONTINUOUS
 10
28.1620256884
 20
191.0134902363
 11
28.1585071689
 21
191.0617740111
  0
LINE
  8
0
 62
7
  6
CONTINUOUS
 10
27.4278470446
 20
203.0961760569
 11
28.1585071689
 21
191.0617740111
  0
LINE
  8
0
 62
7
  6
CONTINUOUS
 10
32.5432764072
 20
194.3829015515
 11
32.5366672865
 21
202.3688889485
  0
LINE
  8
0
 62
7
  6
CONTINUOUS
 10
32.2725768421
 20
202.6329793928
 11
32.2725768421
 21
217.8829793928
  0
LINE
  8
0
 62
7
  6
CONTINUOUS
 10
43.5725768421
 20
193.9231879873
 11
43.5725768421
 21
190.1829793928
  0
LINE
  8
0
 62
7
  6
CONTINUOUS
 10
49.9248644916
 20
205.8829793928
 11
49.9248644916
 21
215.4829793928
  0
LINE
  8
0
 62
7
  6
CONTINUOUS
 10
62.3248644916
 20
205.8829793928
 11
62.3248644916
 21
215.4829793928
  0
LINE
  8
0
 62
7
  6
CONTINUOUS
 10
77.7248644916
 20
205.8829793928
 11
77.7248644916
 21
215.4829793928
  0
LINE
  8
0
 62
7
  6
CONTINUOUS
 10
32.5366680679
 20
202.368888167
 11
31.9725768421
 21
202.9329793928
  0
LINE
  8
0
 62
7
  6
CONTINUOUS
 10
90.1248644916
 20
205.8829793928
 11
90.1248644916
 21
215.4829793928
  0
LINE
  8
0
 62
7
  6
CONTINUOUS
 10
103.1248644916
 20
205.8829793928
 11
103.1248644916
 21
215.4829793928
  0
LINE
  8
0
 62
7
  6
CONTINUOUS
 10
115.5225768421
 20
215.4829793928
 11
115.5225768421
 21
205.8829793928
  0
LINE
  8
0
 62
7
  6
CONTINUOUS
 10
128.5225768421
 20
205.8829793928
 11
128.5225768421
 21
215.4829793928
  0
LINE
  8
0
 62
7
  6
CONTINUOUS
 10
132.0225768421
 20
218.1829793928
 11
132.0225768421
 21
219.1047463598
  0
LINE
  8
0
 62
7
  6
CONTINUOUS
 10
132.3225813532
 20
219.5756807676
 11
132.3226140716
 21
220.6542984865
  0
POLYLINE
  8
0
 62
7
  6
CONTINUOUS
 66
1
 70
0
  0
VERTEX
  8
0
 62
7
  6
CONTINUOUS
 10
137.4225767702
 20
219.1047436287
  0
VERTEX
  8
0
 62
7
  6
CONTINUOUS
 10
137.4215735165
 20
219.1367947724
  0
VERTEX
  8
0
 62
7
  6
CONTINUOUS
 10
137.4166446566
 20
219.1824947833
  0
VERTEX
  8
0
 62
7
  6
CONTINUOUS
 10
137.407633898
 20
219.2276101827
  0
VERTEX
  8
0
 62
7
  6
CONTINUOUS
 10
137.3946171414
 20
219.2717509635
  0
VERTEX
  8
0
 62
7
  6
CONTINUOUS
 10
137.3777190667
 20
219.3145296459
  0
VERTEX
  8
0
 62
7
  6
CONTINUOUS
 10
137.357113974
 20
219.3555731248
  0
VERTEX
  8
0
 62
7
  6
CONTINUOUS
 10
137.333018033
 20
219.3945426257
  0
VERTEX
  8
0
 62
7
  6
CONTINUOUS
 10
137.305682509
 20
219.4311398005
  0
VERTEX
  8
0
 62
7
  6
CONTINUOUS
 10
137.2753961509
 20
219.4651024371
  0
VERTEX
  8
0
 62
7
  6
CONTINUOUS
 10
137.2428252575
 20
219.4959156677
  0
VERTEX
  8
0
 62
7
  6
CONTINUOUS
 10
137.2099130732
 20
219.5223807041
  0
VERTEX
  8
0
 62
7
  6
CONTINUOUS
 10
137.1780403863
 20
219.5443810347
  0
VERTEX
  8
0
 62
7
  6
CONTINUOUS
 10
137.1474039188
 20
219.562703304
  0
VERTEX
  8
0
 62
7
  6
CONTINUOUS
 10
137.1178964206
 20
219.5780997005
  0
VERTEX
  8
0
 62
7
  6
CONTINUOUS
 10
137.089305785
 20
219.591180159
  0
VERTEX
  8
0
 62
7
  6
CONTINUOUS
 10
137.0732537229
 20
219.59781573
  0
SEQEND
  0
LINE
  8
0
 62
7
  6
CONTINUOUS
 10
137.1225768421
 20
220.5963033401
 11
137.1225768421
 21
219.5756575543
  0
LINE
  8
0
 62
7
  6
CONTINUOUS
 10
137.4225768421
 20
219.1047463598
 11
137.4225768421
 21
218.1829793928
  0
LINE
  8
0
 62
7
  6
CONTINUOUS
 10
140.9225768421
 20
215.4829793928
 11
140.9225768421
 21
205.8829793928
  0
LINE
  8
0
 62
7
  6
CONTINUOUS
 10
153.9225768421
 20
205.8829793928
 11
153.9225768421
 21
215.4829793928
  0
POLYLINE
  8
0
 62
7
  6
CONTINUOUS
 66
1
 70
0
  0
VERTEX
  8
0
 62
7
  6
CONTINUOUS
 10
132.4850715933
 20
219.6433983567
  0
VERTEX
  8
0
 62
7
  6
CONTINUOUS
 10
132.487132999
 20
219.6446221759
  0
VERTEX
  8
0
 62
7
  6
CONTINUOUS
 10
132.4862266574
 20
219.6441543276
  0
VERTEX
  8
0
 62
7
  6
CONTINUOUS
 10
132.4808735806
 20
219.6415651203
  0
VERTEX
  8
0
 62
7
  6
CONTINUOUS
 10
132.4709843128
 20
219.6372036465
  0
VERTEX
  8
0
 62
7
  6
CONTINUOUS
 10
132.4602119383
 20
219.6328148364
  0
SEQEND
  0
POLYLINE
  8
0
 62
7
  6
CONTINUOUS
 66
1
 70
0
  0
VERTEX
  8
0
 62
7
  6
CONTINUOUS
 10
132.3719020083
 20
219.5978165491
  0
VERTEX
  8
0
 62
7
  6
CONTINUOUS
 10
132.3549707666
 20
219.5908035043
  0
VERTEX
  8
0
 62
7
  6
CONTINUOUS
 10
132.3263800034
 20
219.5776709849
  0
VERTEX
  8
0
 62
7
  6
CONTINUOUS
 10
132.2968124239
 20
219.5621797168
  0
VERTEX
  8
0
 62
7
  6
CONTINUOUS
 10
132.2660982146
 20
219.5437290733
  0
VERTEX
  8
0
 62
7
  6
CONTINUOUS
 10
132.2341729852
 20
219.5215858215
  0
VERTEX
  8
0
 62
7
  6
CONTINUOUS
 10
132.2012716292
 20
219.4949938473
  0
VERTEX
  8
0
 62
7
  6
CONTINUOUS
 10
132.1687798081
 20
219.4640938756
  0
VERTEX
  8
0
 62
7
  6
CONTINUOUS
 10
132.1385976099
 20
219.4300678961
  0
VERTEX
  8
0
 62
7
  6
CONTINUOUS
 10
132.1113653798
 20
219.3934082608
  0
VERTEX
  8
0
 62
7
  6
CONTINUOUS
 10
132.0873770417
 20
219.3543838072
  0
VERTEX
  8
0
 62
7
  6
CONTINUOUS
 10
132.066885942
 20
219.3132994222
  0
VERTEX
  8
0
 62
7
  6
CONTINUOUS
 10
132.0501058915
 20
219.2704946915
  0
VERTEX
  8
0
 62
7
  6
CONTINUOUS
 10
132.0372083304
 20
219.2263413051
  0
VERTEX
  8
0
 62
7
  6
CONTINUOUS
 10
132.028315734
 20
219.1812246549
  0
VERTEX
  8
0
 62
7
  6
CONTINUOUS
 10
132.0235026322
 20
219.1355324088
  0
VERTEX
  8
0
 62
7
  6
CONTINUOUS
 10
132.0225769237
 20
219.1047435741
  0
SEQEND
  0
LINE
  8
0
 62
7
  6
CONTINUOUS
 10
132.4602009447
 20
219.6328104968
 11
132.3718905892
 21
219.5978120238
  0
POLYLINE
  8
0
 62
7
  6
CONTINUOUS
 66
1
 70
0
  0
VERTEX
  8
0
 62
7
  6
CONTINUOUS
 10
162.8225767702
 20
219.1047436287
  0
VERTEX
  8
0
 62
7
  6
CONTINUOUS
 10
162.8215735165
 20
219.1367947724
  0
VERTEX
  8
0
 62
7
  6
CONTINUOUS
 10
162.8166446566
 20
219.1824947833
  0
VERTEX
  8
0
 62
7
  6
CONTINUOUS
 10
162.807633898
 20
219.2276101827
  0
VERTEX
  8
0
 62
7
  6
CONTINUOUS
 10
162.7946171414
 20
219.2717509635
  0
VERTEX
  8
0
 62
7
  6
CONTINUOUS
 10
162.7777190667
 20
219.3145296459
  0
VERTEX
  8
0
 62
7
  6
CONTINUOUS
 10
162.757113974
 20
219.3555731248
  0
VERTEX
  8
0
 62
7
  6
CONTINUOUS
 10
162.733018033
 20
219.3945426257
  0
VERTEX
  8
0
 62
7
  6
CONTINUOUS
 10
162.705682509
 20
219.4311398005
  0
VERTEX
  8
0
 62
7
  6
CONTINUOUS
 10
162.6753961509
 20
219.4651024371
  0
VERTEX
  8
0
 62
7
  6
CONTINUOUS
 10
162.6428252575
 20
219.4959156677
  0
VERTEX
  8
0
 62
7
  6
CONTINUOUS
 10
162.6099130732
 20
219.5223807041
  0
VERTEX
  8
0
 62
7
  6
CONTINUOUS
 10
162.5780403863
 20
219.5443810347
  0
VERTEX
  8
0
 62
7
  6
CONTINUOUS
 10
162.5474039188
 20
219.562703304
  0
VERTEX
  8
0
 62
7
  6
CONTINUOUS
 10
162.5178964206
 20
219.5780997005
  0
VERTEX
  8
0
 62
7
  6
CONTINUOUS
 10
162.489305785
 20
219.591180159
  0
VERTEX
  8
0
 62
7
  6
CONTINUOUS
 10
162.4732537229
 20
219.59781573
  0
SEQEND
  0
LINE
  8
0
 62
7
  6
CONTINUOUS
 10
157.4225768421
 20
218.1829793928
 11
157.4225768421
 21
219.1047463598
  0
LINE
  8
0
 62
7
  6
CONTINUOUS
 10
157.7225768421
 20
219.5756784041
 11
157.7225768421
 21
220.5963033401
  0
LINE
  8
0
 62
7
  6
CONTINUOUS
 10
162.5225768421
 20
220.5963033401
 11
162.5225768421
 21
219.5756575543
  0
LINE
  8
0
 62
7
  6
CONTINUOUS
 10
162.8225768421
 20
219.1047463598
 11
162.8225768421
 21
218.1829793928
  0
POLYLINE
  8
0
 62
7
  6
CONTINUOUS
 66
1
 70
0
  0
VERTEX
  8
0
 62
7
  6
CONTINUOUS
 10
157.8850716011
 20
219.6433983615
  0
VERTEX
  8
0
 62
7
  6
CONTINUOUS
 10
157.8871330018
 20
219.6446221775
  0
VERTEX
  8
0
 62
7
  6
CONTINUOUS
 10
157.8862266497
 20
219.6441543237
  0
VERTEX
  8
0
 62
7
  6
CONTINUOUS
 10
157.8808735635
 20
219.6415651123
  0
VERTEX
  8
0
 62
7
  6
CONTINUOUS
 10
157.8709842953
 20
219.637203639
  0
VERTEX
  8
0
 62
7
  6
CONTINUOUS
 10
157.8602119384
 20
219.6328148364
  0
SEQEND
  0
POLYLINE
  8
0
 62
7
  6
CONTINUOUS
 66
1
 70
0
  0
VERTEX
  8
0
 62
7
  6
CONTINUOUS
 10
157.7719020083
 20
219.5978165491
  0
VERTEX
  8
0
 62
7
  6
CONTINUOUS
 10
157.7549707666
 20
219.5908035043
  0
VERTEX
  8
0
 62
7
  6
CONTINUOUS
 10
157.7263800034
 20
219.5776709849
  0
VERTEX
  8
0
 62
7
  6
CONTINUOUS
 10
157.6968124239
 20
219.5621797168
  0
VERTEX
  8
0
 62
7
  6
CONTINUOUS
 10
157.6660982146
 20
219.5437290733
  0
VERTEX
  8
0
 62
7
  6
CONTINUOUS
 10
157.6341729852
 20
219.5215858215
  0
VERTEX
  8
0
 62
7
  6
CONTINUOUS
 10
157.6012716292
 20
219.4949938473
  0
VERTEX
  8
0
 62
7
  6
CONTINUOUS
 10
157.5687798081
 20
219.4640938756
  0
VERTEX
  8
0
 62
7
  6
CONTINUOUS
 10
157.5385976099
 20
219.4300678961
  0
VERTEX
  8
0
 62
7
  6
CONTINUOUS
 10
157.5113653798
 20
219.3934082608
  0
VERTEX
  8
0
 62
7
  6
CONTINUOUS
 10
157.4873770417
 20
219.3543838072
  0
VERTEX
  8
0
 62
7
  6
CONTINUOUS
 10
157.466885942
 20
219.3132994222
  0
VERTEX
  8
0
 62
7
  6
CONTINUOUS
 10
157.4501058915
 20
219.2704946915
  0
VERTEX
  8
0
 62
7
  6
CONTINUOUS
 10
157.4372083304
 20
219.2263413051
  0
VERTEX
  8
0
 62
7
  6
CONTINUOUS
 10
157.428315734
 20
219.1812246549
  0
VERTEX
  8
0
 62
7
  6
CONTINUOUS
 10
157.4235026322
 20
219.1355324088
  0
VERTEX
  8
0
 62
7
  6
CONTINUOUS
 10
157.4225769237
 20
219.1047435741
  0
SEQEND
  0
LINE
  8
0
 62
7
  6
CONTINUOUS
 10
157.8602009447
 20
219.6328104968
 11
157.7718905892
 21
219.5978120238
  0
LINE
  8
0
 62
7
  6
CONTINUOUS
 10
166.3225768421
 20
215.4829793928
 11
166.3225768421
 21
205.8829793928
  0
POLYLINE
  8
0
 62
7
  6
CONTINUOUS
 66
1
 70
0
  0
VERTEX
  8
0
 62
7
  6
CONTINUOUS
 10
183.2850716011
 20
219.6433983615
  0
VERTEX
  8
0
 62
7
  6
CONTINUOUS
 10
183.2871330018
 20
219.6446221775
  0
VERTEX
  8
0
 62
7
  6
CONTINUOUS
 10
183.2862266497
 20
219.6441543237
  0
VERTEX
  8
0
 62
7
  6
CONTINUOUS
 10
183.2808735635
 20
219.6415651123
  0
VERTEX
  8
0
 62
7
  6
CONTINUOUS
 10
183.2709842953
 20
219.637203639
  0
VERTEX
  8
0
 62
7
  6
CONTINUOUS
 10
183.2602119384
 20
219.6328148364
  0
SEQEND
  0
POLYLINE
  8
0
 62
7
  6
CONTINUOUS
 66
1
 70
0
  0
VERTEX
  8
0
 62
7
  6
CONTINUOUS
 10
183.1719020083
 20
219.5978165491
  0
VERTEX
  8
0
 62
7
  6
CONTINUOUS
 10
183.1549707666
 20
219.5908035043
  0
VERTEX
  8
0
 62
7
  6
CONTINUOUS
 10
183.1263800034
 20
219.5776709849
  0
VERTEX
  8
0
 62
7
  6
CONTINUOUS
 10
183.0968124239
 20
219.5621797168
  0
VERTEX
  8
0
 62
7
  6
CONTINUOUS
 10
183.0660982146
 20
219.5437290733
  0
VERTEX
  8
0
 62
7
  6
CONTINUOUS
 10
183.0341729852
 20
219.5215858215
  0
VERTEX
  8
0
 62
7
  6
CONTINUOUS
 10
183.0012716292
 20
219.4949938473
  0
VERTEX
  8
0
 62
7
  6
CONTINUOUS
 10
182.9687798081
 20
219.4640938756
  0
VERTEX
  8
0
 62
7
  6
CONTINUOUS
 10
182.9385976099
 20
219.4300678961
  0
VERTEX
  8
0
 62
7
  6
CONTINUOUS
 10
182.9113653798
 20
219.3934082608
  0
VERTEX
  8
0
 62
7
  6
CONTINUOUS
 10
182.8873770417
 20
219.3543838072
  0
VERTEX
  8
0
 62
7
  6
CONTINUOUS
 10
182.866885942
 20
219.3132994222
  0
VERTEX
  8
0
 62
7
  6
CONTINUOUS
 10
182.8501058915
 20
219.2704946915
  0
VERTEX
  8
0
 62
7
  6
CONTINUOUS
 10
182.8372083304
 20
219.2263413051
  0
VERTEX
  8
0
 62
7
  6
CONTINUOUS
 10
182.828315734
 20
219.1812246549
  0
VERTEX
  8
0
 62
7
  6
CONTINUOUS
 10
182.8235026322
 20
219.1355324088
  0
VERTEX
  8
0
 62
7
  6
CONTINUOUS
 10
182.8225769237
 20
219.1047435741
  0
SEQEND
  0
LINE
  8
0
 62
7
  6
CONTINUOUS
 10
183.2602009447
 20
219.6328104968
 11
183.1718905892
 21
219.5978120238
  0
LINE
  8
0
 62
7
  6
CONTINUOUS
 10
42.5725768421
 20
189.1829793928
 11
30.1548311044
 21
189.1829793928
  0
LINE
  8
0
 62
7
  6
CONTINUOUS
 10
328.4725768421
 20
189.1829793928
 11
340.8903225799
 21
189.1829793928
  0
LINE
  8
0
 62
7
  6
CONTINUOUS
 10
338.3018683578
 20
194.1831880169
 11
327.7325768421
 21
194.1831880169
  0
LINE
  8
0
 62
7
  6
CONTINUOUS
 10
32.7432853249
 20
194.1831880169
 11
43.3125768421
 21
194.1831880169
  0
POLYLINE
  8
0
 62
7
  6
CONTINUOUS
 66
1
 70
0
  0
VERTEX
  8
0
 62
7
  6
CONTINUOUS
 10
32.7432766306
 20
194.1831880169
  0
VERTEX
  8
0
 62
7
  6
CONTINUOUS
 10
32.7344061779
 20
194.1833883094
  0
VERTEX
  8
0
 62
7
  6
CONTINUOUS
 10
32.7119819461
 20
194.1856645563
  0
VERTEX
  8
0
 62
7
  6
CONTINUOUS
 10
32.6899153324
 20
194.1904378269
  0
VERTEX
  8
0
 62
7
  6
CONTINUOUS
 10
32.6684419895
 20
194.1977179857
  0
VERTEX
  8
0
 62
7
  6
CONTINUOUS
 10
32.6478579062
 20
194.2074719401
  0
VERTEX
  8
0
 62
7
  6
CONTINUOUS
 10
32.6284704769
 20
194.2194878014
  0
VERTEX
  8
0
 62
7
  6
CONTINUOUS
 10
32.610545298
 20
194.2335977476
  0
VERTEX
  8
0
 62
7
  6
CONTINUOUS
 10
32.5943663228
 20
194.2496908387
  0
VERTEX
  8
0
 62
7
  6
CONTINUOUS
 10
32.5801737332
 20
194.2675319468
  0
VERTEX
  8
0
 62
7
  6
CONTINUOUS
 10
32.5680698678
 20
194.2868409155
  0
VERTEX
  8
0
 62
7
  6
CONTINUOUS
 10
32.5582134683
 20
194.3073574834
  0
VERTEX
  8
0
 62
7
  6
CONTINUOUS
 10
32.5508169462
 20
194.3287836497
  0
VERTEX
  8
0
 62
7
  6
CONTINUOUS
 10
32.5459231061
 20
194.3508351149
  0
VERTEX
  8
0
 62
7
  6
CONTINUOUS
 10
32.5435258805
 20
194.3732836665
  0
VERTEX
  8
0
 62
7
  6
CONTINUOUS
 10
32.5432764562
 20
194.3829015331
  0
SEQEND
  0
LINE
  8
0
 62
7
  6
CONTINUOUS
 10
179.3225768421
 20
205.8829793928
 11
179.3225768421
 21
215.4829793928
  0
LINE
  8
0
 62
7
  6
CONTINUOUS
 10
182.8225768421
 20
218.1829793928
 11
182.8225768421
 21
219.1047463598
  0
LINE
  8
0
 62
7
  6
CONTINUOUS
 10
183.1225768421
 20
219.5756784041
 11
183.1225768421
 21
220.5963033401
  0
POLYLINE
  8
0
 62
7
  6
CONTINUOUS
 66
1
 70
0
  0
VERTEX
  8
0
 62
7
  6
CONTINUOUS
 10
208.6850716011
 20
219.6433983615
  0
VERTEX
  8
0
 62
7
  6
CONTINUOUS
 10
208.6871330018
 20
219.6446221775
  0
VERTEX
  8
0
 62
7
  6
CONTINUOUS
 10
208.6862266497
 20
219.6441543237
  0
VERTEX
  8
0
 62
7
  6
CONTINUOUS
 10
208.6808735635
 20
219.6415651123
  0
VERTEX
  8
0
 62
7
  6
CONTINUOUS
 10
208.6709842953
 20
219.637203639
  0
VERTEX
  8
0
 62
7
  6
CONTINUOUS
 10
208.6602119384
 20
219.6328148364
  0
SEQEND
  0
POLYLINE
  8
0
 62
7
  6
CONTINUOUS
 66
1
 70
0
  0
VERTEX
  8
0
 62
7
  6
CONTINUOUS
 10
208.5719020083
 20
219.5978165491
  0
VERTEX
  8
0
 62
7
  6
CONTINUOUS
 10
208.5549707666
 20
219.5908035043
  0
VERTEX
  8
0
 62
7
  6
CONTINUOUS
 10
208.5263800034
 20
219.5776709849
  0
VERTEX
  8
0
 62
7
  6
CONTINUOUS
 10
208.4968124239
 20
219.5621797168
  0
VERTEX
  8
0
 62
7
  6
CONTINUOUS
 10
208.4660982146
 20
219.5437290733
  0
VERTEX
  8
0
 62
7
  6
CONTINUOUS
 10
208.4341729852
 20
219.5215858215
  0
VERTEX
  8
0
 62
7
  6
CONTINUOUS
 10
208.4012716292
 20
219.4949938473
  0
VERTEX
  8
0
 62
7
  6
CONTINUOUS
 10
208.3687798081
 20
219.4640938756
  0
VERTEX
  8
0
 62
7
  6
CONTINUOUS
 10
208.3385976099
 20
219.4300678961
  0
VERTEX
  8
0
 62
7
  6
CONTINUOUS
 10
208.3113653798
 20
219.3934082608
  0
VERTEX
  8
0
 62
7
  6
CONTINUOUS
 10
208.2873770417
 20
219.3543838072
  0
VERTEX
  8
0
 62
7
  6
CONTINUOUS
 10
208.266885942
 20
219.3132994222
  0
VERTEX
  8
0
 62
7
  6
CONTINUOUS
 10
208.2501058915
 20
219.2704946915
  0
VERTEX
  8
0
 62
7
  6
CONTINUOUS
 10
208.2372083304
 20
219.2263413051
  0
VERTEX
  8
0
 62
7
  6
CONTINUOUS
 10
208.228315734
 20
219.1812246549
  0
VERTEX
  8
0
 62
7
  6
CONTINUOUS
 10
208.2235026322
 20
219.1355324088
  0
VERTEX
  8
0
 62
7
  6
CONTINUOUS
 10
208.2225769237
 20
219.1047435741
  0
SEQEND
  0
LINE
  8
0
 62
7
  6
CONTINUOUS
 10
208.6602009447
 20
219.6328104968
 11
208.5718905892
 21
219.5978120238
  0
LINE
  8
0
 62
7
  6
CONTINUOUS
 10
348.1725768421
 20
203.1829793928
 11
343.9049149814
 21
203.1829793928
  0
LINE
  8
0
 62
7
  6
CONTINUOUS
 10
27.1402387028
 20
203.1829793928
 11
22.8725768421
 21
203.1829793928
  0
LINE
  8
0
 62
7
  6
CONTINUOUS
 10
32.2725768421
 20
203.1829793928
 11
338.7725768421
 21
203.1829793928
  0
LINE
  8
0
 62
7
  6
CONTINUOUS
 10
137.0732630947
 20
219.5978120239
 11
136.9849527396
 21
219.6328104967
  0
POLYLINE
  8
0
 62
7
  6
CONTINUOUS
 66
1
 70
0
  0
VERTEX
  8
0
 62
7
  6
CONTINUOUS
 10
136.9849422789
 20
219.6328146259
  0
VERTEX
  8
0
 62
7
  6
CONTINUOUS
 10
136.9739613096
 20
219.6372916053
  0
VERTEX
  8
0
 62
7
  6
CONTINUOUS
 10
136.9641583499
 20
219.6416216299
  0
VERTEX
  8
0
 62
7
  6
CONTINUOUS
 10
136.9588803249
 20
219.644178231
  0
VERTEX
  8
0
 62
7
  6
CONTINUOUS
 10
136.957853816
 20
219.6447159244
  0
SEQEND
  0
POLYLINE
  8
0
 62
7
  6
CONTINUOUS
 66
1
 70
0
  0
VERTEX
  8
0
 62
7
  6
CONTINUOUS
 10
188.2225767702
 20
219.1047436287
  0
VERTEX
  8
0
 62
7
  6
CONTINUOUS
 10
188.2215735165
 20
219.1367947724
  0
VERTEX
  8
0
 62
7
  6
CONTINUOUS
 10
188.2166446566
 20
219.1824947833
  0
VERTEX
  8
0
 62
7
  6
CONTINUOUS
 10
188.207633898
 20
219.2276101827
  0
VERTEX
  8
0
 62
7
  6
CONTINUOUS
 10
188.1946171414
 20
219.2717509635
  0
VERTEX
  8
0
 62
7
  6
CONTINUOUS
 10
188.1777190667
 20
219.3145296459
  0
VERTEX
  8
0
 62
7
  6
CONTINUOUS
 10
188.157113974
 20
219.3555731248
  0
VERTEX
  8
0
 62
7
  6
CONTINUOUS
 10
188.133018033
 20
219.3945426257
  0
VERTEX
  8
0
 62
7
  6
CONTINUOUS
 10
188.105682509
 20
219.4311398005
  0
VERTEX
  8
0
 62
7
  6
CONTINUOUS
 10
188.0753961509
 20
219.4651024371
  0
VERTEX
  8
0
 62
7
  6
CONTINUOUS
 10
188.0428252575
 20
219.4959156677
  0
VERTEX
  8
0
 62
7
  6
CONTINUOUS
 10
188.0099130732
 20
219.5223807041
  0
VERTEX
  8
0
 62
7
  6
CONTINUOUS
 10
187.9780403863
 20
219.5443810347
  0
VERTEX
  8
0
 62
7
  6
CONTINUOUS
 10
187.9474039188
 20
219.562703304
  0
VERTEX
  8
0
 62
7
  6
CONTINUOUS
 10
187.9178964206
 20
219.5780997005
  0
VERTEX
  8
0
 62
7
  6
CONTINUOUS
 10
187.889305785
 20
219.591180159
  0
VERTEX
  8
0
 62
7
  6
CONTINUOUS
 10
187.8732537229
 20
219.59781573
  0
SEQEND
  0
LINE
  8
0
 62
7
  6
CONTINUOUS
 10
187.9225768421
 20
220.5963033401
 11
187.9225768421
 21
219.5756575543
  0
LINE
  8
0
 62
7
  6
CONTINUOUS
 10
188.2225768421
 20
219.1047463598
 11
188.2225768421
 21
218.1829793928
  0
LINE
  8
0
 62
7
  6
CONTINUOUS
 10
191.7225768421
 20
215.4829793928
 11
191.7225768421
 21
205.8829793928
  0
POLYLINE
  8
0
 62
7
  6
CONTINUOUS
 66
1
 70
0
  0
VERTEX
  8
0
 62
7
  6
CONTINUOUS
 10
234.0850716011
 20
219.6433983615
  0
VERTEX
  8
0
 62
7
  6
CONTINUOUS
 10
234.0871330018
 20
219.6446221775
  0
VERTEX
  8
0
 62
7
  6
CONTINUOUS
 10
234.0862266497
 20
219.6441543237
  0
VERTEX
  8
0
 62
7
  6
CONTINUOUS
 10
234.0808735635
 20
219.6415651123
  0
VERTEX
  8
0
 62
7
  6
CONTINUOUS
 10
234.0709842953
 20
219.637203639
  0
VERTEX
  8
0
 62
7
  6
CONTINUOUS
 10
234.0602119384
 20
219.6328148364
  0
SEQEND
  0
POLYLINE
  8
0
 62
7
  6
CONTINUOUS
 66
1
 70
0
  0
VERTEX
  8
0
 62
7
  6
CONTINUOUS
 10
233.9719020083
 20
219.5978165491
  0
VERTEX
  8
0
 62
7
  6
CONTINUOUS
 10
233.9549707666
 20
219.5908035043
  0
VERTEX
  8
0
 62
7
  6
CONTINUOUS
 10
233.9263800034
 20
219.5776709849
  0
VERTEX
  8
0
 62
7
  6
CONTINUOUS
 10
233.8968124239
 20
219.5621797168
  0
VERTEX
  8
0
 62
7
  6
CONTINUOUS
 10
233.8660982146
 20
219.5437290733
  0
VERTEX
  8
0
 62
7
  6
CONTINUOUS
 10
233.8341729852
 20
219.5215858215
  0
VERTEX
  8
0
 62
7
  6
CONTINUOUS
 10
233.8012716292
 20
219.4949938473
  0
VERTEX
  8
0
 62
7
  6
CONTINUOUS
 10
233.7687798081
 20
219.4640938756
  0
VERTEX
  8
0
 62
7
  6
CONTINUOUS
 10
233.7385976099
 20
219.4300678961
  0
VERTEX
  8
0
 62
7
  6
CONTINUOUS
 10
233.7113653798
 20
219.3934082608
  0
VERTEX
  8
0
 62
7
  6
CONTINUOUS
 10
233.6873770417
 20
219.3543838072
  0
VERTEX
  8
0
 62
7
  6
CONTINUOUS
 10
233.666885942
 20
219.3132994222
  0
VERTEX
  8
0
 62
7
  6
CONTINUOUS
 10
233.6501058915
 20
219.2704946915
  0
VERTEX
  8
0
 62
7
  6
CONTINUOUS
 10
233.6372083304
 20
219.2263413051
  0
VERTEX
  8
0
 62
7
  6
CONTINUOUS
 10
233.628315734
 20
219.1812246549
  0
VERTEX
  8
0
 62
7
  6
CONTINUOUS
 10
233.6235026322
 20
219.1355324088
  0
VERTEX
  8
0
 62
7
  6
CONTINUOUS
 10
233.6225769237
 20
219.1047435741
  0
SEQEND
  0
LINE
  8
0
 62
7
  6
CONTINUOUS
 10
234.0602009447
 20
219.6328104968
 11
233.9718905892
 21
219.5978120238
  0
LINE
  8
DEFAULT_1
 62
2
  6
CENTER
 10
14.519018366
 20
210.6829793928
 11
365.2295060276
 21
210.6829793928
  0
LINE
  8
0
 62
7
  6
CONTINUOUS
 10
162.4732630947
 20
219.5978120239
 11
162.3849527396
 21
219.6328104967
  0
POLYLINE
  8
0
 62
7
  6
CONTINUOUS
 66
1
 70
0
  0
VERTEX
  8
0
 62
7
  6
CONTINUOUS
 10
162.3849422789
 20
219.6328146259
  0
VERTEX
  8
0
 62
7
  6
CONTINUOUS
 10
162.3739613096
 20
219.6372916053
  0
VERTEX
  8
0
 62
7
  6
CONTINUOUS
 10
162.3641583499
 20
219.6416216299
  0
VERTEX
  8
0
 62
7
  6
CONTINUOUS
 10
162.3588803249
 20
219.644178231
  0
VERTEX
  8
0
 62
7
  6
CONTINUOUS
 10
162.357853816
 20
219.6447159244
  0
SEQEND
  0
LINE
  8
0
 62
7
  6
CONTINUOUS
 10
204.7225768421
 20
205.8829793928
 11
204.7225768421
 21
215.4829793928
  0
LINE
  8
0
 62
7
  6
CONTINUOUS
 10
208.2225768421
 20
218.1829793928
 11
208.2225768421
 21
219.1047463598
  0
LINE
  8
0
 62
7
  6
CONTINUOUS
 10
208.5225768421
 20
219.5756784041
 11
208.5225768421
 21
220.5963033401
  0
POLYLINE
  8
0
 62
7
  6
CONTINUOUS
 66
1
 70
0
  0
VERTEX
  8
0
 62
7
  6
CONTINUOUS
 10
259.3719020083
 20
219.5978165491
  0
VERTEX
  8
0
 62
7
  6
CONTINUOUS
 10
259.3549707666
 20
219.5908035043
  0
VERTEX
  8
0
 62
7
  6
CONTINUOUS
 10
259.3263800034
 20
219.5776709849
  0
VERTEX
  8
0
 62
7
  6
CONTINUOUS
 10
259.2968124239
 20
219.5621797168
  0
VERTEX
  8
0
 62
7
  6
CONTINUOUS
 10
259.2660982146
 20
219.5437290733
  0
VERTEX
  8
0
 62
7
  6
CONTINUOUS
 10
259.2341729852
 20
219.5215858215
  0
VERTEX
  8
0
 62
7
  6
CONTINUOUS
 10
259.2012716292
 20
219.4949938473
  0
VERTEX
  8
0
 62
7
  6
CONTINUOUS
 10
259.1687798081
 20
219.4640938756
  0
VERTEX
  8
0
 62
7
  6
CONTINUOUS
 10
259.1385976099
 20
219.4300678961
  0
VERTEX
  8
0
 62
7
  6
CONTINUOUS
 10
259.1113653798
 20
219.3934082608
  0
VERTEX
  8
0
 62
7
  6
CONTINUOUS
 10
259.0873770417
 20
219.3543838072
  0
VERTEX
  8
0
 62
7
  6
CONTINUOUS
 10
259.066885942
 20
219.3132994222
  0
VERTEX
  8
0
 62
7
  6
CONTINUOUS
 10
259.0501058915
 20
219.2704946915
  0
VERTEX
  8
0
 62
7
  6
CONTINUOUS
 10
259.0372083304
 20
219.2263413051
  0
VERTEX
  8
0
 62
7
  6
CONTINUOUS
 10
259.028315734
 20
219.1812246549
  0
VERTEX
  8
0
 62
7
  6
CONTINUOUS
 10
259.0235026322
 20
219.1355324088
  0
VERTEX
  8
0
 62
7
  6
CONTINUOUS
 10
259.0225769237
 20
219.1047435741
  0
SEQEND
  0
LINE
  8
0
 62
7
  6
CONTINUOUS
 10
259.4602009447
 20
219.6328104968
 11
259.3718905892
 21
219.5978120238
  0
POLYLINE
  8
0
 62
7
  6
CONTINUOUS
 66
1
 70
0
  0
VERTEX
  8
0
 62
7
  6
CONTINUOUS
 10
132.8069324959
 20
221.1590335182
  0
VERTEX
  8
0
 62
7
  6
CONTINUOUS
 10
132.7952635069
 20
221.1578160329
  0
VERTEX
  8
0
 62
7
  6
CONTINUOUS
 10
132.7834548539
 20
221.1564333939
  0
VERTEX
  8
0
 62
7
  6
CONTINUOUS
 10
132.7712498087
 20
221.1548222657
  0
VERTEX
  8
0
 62
7
  6
CONTINUOUS
 10
132.758402354
 20
221.1529010484
  0
VERTEX
  8
0
 62
7
  6
CONTINUOUS
 10
132.7447740916
 20
221.1505831028
  0
VERTEX
  8
0
 62
7
  6
CONTINUOUS
 10
132.7302876363
 20
221.1477744149
  0
VERTEX
  8
0
 62
7
  6
CONTINUOUS
 10
132.7149399274
 20
221.1443818477
  0
VERTEX
  8
0
 62
7
  6
CONTINUOUS
 10
132.6983977066
 20
221.1402141723
  0
VERTEX
  8
0
 62
7
  6
CONTINUOUS
 10
132.6800154141
 20
221.1349251227
  0
VERTEX
  8
0
 62
7
  6
CONTINUOUS
 10
132.6591288906
 20
221.1280275369
  0
VERTEX
  8
0
 62
7
  6
CONTINUOUS
 10
132.6357016849
 20
221.1190983235
  0
VERTEX
  8
0
 62
7
  6
CONTINUOUS
 10
132.6102240477
 20
221.1078556493
  0
VERTEX
  8
0
 62
7
  6
CONTINUOUS
 10
132.5833226378
 20
221.0941067473
  0
VERTEX
  8
0
 62
7
  6
CONTINUOUS
 10
132.5553519087
 20
221.0775565782
  0
VERTEX
  8
0
 62
7
  6
CONTINUOUS
 10
132.5266478227
 20
221.0578814919
  0
VERTEX
  8
0
 62
7
  6
CONTINUOUS
 10
132.4975484313
 20
221.0347168585
  0
VERTEX
  8
0
 62
7
  6
CONTINUOUS
 10
132.4683853013
 20
221.0076089313
  0
VERTEX
  8
0
 62
7
  6
CONTINUOUS
 10
132.4397269066
 20
220.9762197064
  0
VERTEX
  8
0
 62
7
  6
CONTINUOUS
 10
132.4126499528
 20
220.9408369893
  0
VERTEX
  8
0
 62
7
  6
CONTINUOUS
 10
132.3882145655
 20
220.9021306122
  0
VERTEX
  8
0
 62
7
  6
CONTINUOUS
 10
132.3672127167
 20
220.8609182523
  0
VERTEX
  8
0
 62
7
  6
CONTINUOUS
 10
132.350026043
 20
220.8177307521
  0
VERTEX
  8
0
 62
7
  6
CONTINUOUS
 10
132.3368863789
 20
220.7730168076
  0
VERTEX
  8
0
 62
7
  6
CONTINUOUS
 10
132.3279556911
 20
220.727253815
  0
VERTEX
  8
0
 62
7
  6
CONTINUOUS
 10
132.323322879
 20
220.6809347823
  0
VERTEX
  8
0
 62
7
  6
CONTINUOUS
 10
132.3226141215
 20
220.6542978513
  0
SEQEND
  0
POLYLINE
  8
0
 62
7
  6
CONTINUOUS
 66
1
 70
0
  0
VERTEX
  8
0
 62
7
  6
CONTINUOUS
 10
132.8306911016
 20
221.1611373402
  0
VERTEX
  8
0
 62
7
  6
CONTINUOUS
 10
132.818677121
 20
221.1601299916
  0
VERTEX
  8
0
 62
7
  6
CONTINUOUS
 10
132.8069324959
 20
221.1590335182
  0
SEQEND
  0
POLYLINE
  8
0
 62
7
  6
CONTINUOUS
 66
1
 70
0
  0
VERTEX
  8
0
 62
7
  6
CONTINUOUS
 10
132.9002689837
 20
221.1654423893
  0
VERTEX
  8
0
 62
7
  6
CONTINUOUS
 10
132.8846419038
 20
221.1646447725
  0
VERTEX
  8
0
 62
7
  6
CONTINUOUS
 10
132.8699896733
 20
221.1638223175
  0
VERTEX
  8
0
 62
7
  6
CONTINUOUS
 10
132.8561991879
 20
221.1629694911
  0
VERTEX
  8
0
 62
7
  6
CONTINUOUS
 10
132.8431463355
 20
221.1620783558
  0
VERTEX
  8
0
 62
7
  6
CONTINUOUS
 10
132.8306911016
 20
221.1611373402
  0
SEQEND
  0
LINE
  8
0
 62
7
  6
CONTINUOUS
 10
132.9348471202
 20
221.1669764086
 11
132.9002689837
 21
221.1654423893
  0
LINE
  8
0
 62
7
  6
CONTINUOUS
 10
132.9744259562
 20
221.1684393217
 11
132.9348471202
 21
221.1669764086
  0
LINE
  8
0
 62
7
  6
CONTINUOUS
 10
133.0196485637
 20
221.169836349
 11
132.9744259562
 21
221.1684393217
  0
LINE
  8
0
 62
7
  6
CONTINUOUS
 10
133.0711291586
 20
221.1711675519
 11
133.0196485637
 21
221.169836349
  0
LINE
  8
0
 62
7
  6
CONTINUOUS
 10
133.1612763378
 20
221.173032245
 11
133.0711291586
 21
221.1711675519
  0
LINE
  8
0
 62
7
  6
CONTINUOUS
 10
133.3082444826
 20
221.175245049
 11
133.1612763378
 21
221.173032245
  0
LINE
  8
0
 62
7
  6
CONTINUOUS
 10
133.5406245299
 20
221.1775238998
 11
133.3082444826
 21
221.175245049
  0
LINE
  8
0
 62
7
  6
CONTINUOUS
 10
134.0520092707
 20
221.179992943
 11
133.5406245299
 21
221.1775238998
  0
LINE
  8
0
 62
7
  6
CONTINUOUS
 10
270.370871316
 20
221.1823732772
 11
270.014169019
 21
221.1818454988
  0
LINE
  8
0
 62
7
  6
CONTINUOUS
 10
244.970871316
 20
221.1823732772
 11
244.614169019
 21
221.1818454988
  0
LINE
  8
0
 62
7
  6
CONTINUOUS
 10
219.570871316
 20
221.1823732772
 11
219.214169019
 21
221.1818454988
  0
LINE
  8
0
 62
7
  6
CONTINUOUS
 10
270.014169019
 20
221.1818454988
 11
269.2772482304
 21
221.1810530521
  0
LINE
  8
0
 62
7
  6
CONTINUOUS
 10
244.614169019
 20
221.1818454988
 11
243.8772482304
 21
221.1810530521
  0
LINE
  8
0
 62
7
  6
CONTINUOUS
 10
219.214169019
 20
221.1818454988
 11
218.4772482304
 21
221.1810530521
  0
LINE
  8
0
 62
7
  6
CONTINUOUS
 10
271.0157429624
 20
221.1829794189
 11
270.370871316
 21
221.1823732772
  0
LINE
  8
0
 62
7
  6
CONTINUOUS
 10
245.6157429623
 20
221.1829794189
 11
244.970871316
 21
221.1823732772
  0
LINE
  8
0
 62
7
  6
CONTINUOUS
 10
220.2157429624
 20
221.1829794189
 11
219.570871316
 21
221.1823732772
  0
LINE
  8
0
 62
7
  6
CONTINUOUS
 10
194.8157429623
 20
221.1829794189
 11
193.2631969251
 21
221.1811884594
  0
LINE
  8
0
 62
7
  6
CONTINUOUS
 10
169.4157429623
 20
221.1829794189
 11
167.8631969251
 21
221.1811884594
  0
LINE
  8
0
 62
7
  6
CONTINUOUS
 10
134.8226140716
 20
221.1809479518
 11
134.0520092707
 21
221.179992943
  0
LINE
  8
0
 62
7
  6
CONTINUOUS
 10
144.0157429624
 20
221.1829794189
 11
142.4631969251
 21
221.1811884594
  0
LINE
  8
0
 62
7
  6
CONTINUOUS
 10
22.8725768421
 20
218.1829793928
 11
348.1725768421
 21
218.1829793928
  0
LINE
  8
0
 62
7
  6
CONTINUOUS
 10
134.8226140716
 20
221.1809479514
 11
142.4631969251
 21
221.1811884594
  0
LINE
  8
0
 62
7
  6
CONTINUOUS
 10
276.125864531
 20
221.1829793928
 11
271.0147980233
 21
221.1829793928
  0
LINE
  8
0
 62
7
  6
CONTINUOUS
 10
167.8631969251
 20
221.1811884594
 11
152.7508386731
 21
221.1809721328
  0
LINE
  8
0
 62
7
  6
CONTINUOUS
 10
193.2631969251
 20
221.1811884594
 11
178.1508386731
 21
221.1809721328
  0
LINE
  8
0
 62
7
  6
CONTINUOUS
 10
218.4772482304
 20
221.1810530521
 11
203.5508386731
 21
221.1809721328
  0
LINE
  8
0
 62
7
  6
CONTINUOUS
 10
243.8772482304
 20
221.1810530521
 11
228.9508386731
 21
221.1809721328
  0
LINE
  8
0
 62
7
  6
CONTINUOUS
 10
269.2772482304
 20
221.1810530521
 11
254.1637150258
 21
221.1810551338
  0
LINE
  8
0
 62
7
  6
CONTINUOUS
 10
152.9225769305
 20
221.180940108
 11
152.1932581417
 21
221.1813752045
  0
LINE
  8
0
 62
7
  6
CONTINUOUS
 10
144.0147980233
 20
221.1829793928
 11
151.1753164492
 21
221.1827637039
  0
LINE
  8
0
 62
7
  6
CONTINUOUS
 10
178.3225769305
 20
221.180940108
 11
177.5932581417
 21
221.1813752045
  0
LINE
  8
0
 62
7
  6
CONTINUOUS
 10
169.4147980233
 20
221.1829793928
 11
176.5753164492
 21
221.1827637039
  0
LINE
  8
0
 62
7
  6
CONTINUOUS
 10
194.8147980233
 20
221.1829793928
 11
201.9753164493
 21
221.1827637039
  0
LINE
  8
0
 62
7
  6
CONTINUOUS
 10
220.2147980233
 20
221.1829793928
 11
227.3753164493
 21
221.1827637039
  0
LINE
  8
0
 62
7
  6
CONTINUOUS
 10
245.6147980233
 20
221.1829793928
 11
252.7753164492
 21
221.1827637039
  0
LINE
  8
0
 62
7
  6
CONTINUOUS
 10
202.7890899755
 20
221.1816209402
 11
203.5736575141
 21
221.1809586543
  0
LINE
  8
0
 62
7
  6
CONTINUOUS
 10
228.1890899755
 20
221.1816209402
 11
228.9736575141
 21
221.1809586543
  0
LINE
  8
0
 62
7
  6
CONTINUOUS
 10
253.5890899754
 20
221.1816209402
 11
254.2325514197
 21
221.1810102869
  0
LINE
  8
0
 62
7
  6
CONTINUOUS
 10
152.2397129954
 20
221.1813182526
 11
151.1293486995
 21
221.182812905
  0
LINE
  8
0
 62
7
  6
CONTINUOUS
 10
177.6397129954
 20
221.1813182526
 11
176.5293486995
 21
221.182812905
  0
LINE
  8
0
 62
7
  6
CONTINUOUS
 10
202.8103404617
 20
221.1815987162
 11
201.9293486995
 21
221.182812905
  0
LINE
  8
0
 62
7
  6
CONTINUOUS
 10
227.3293486995
 20
221.182812905
 11
227.7094010666
 21
221.1823192664
  0
LINE
  8
0
 62
7
  6
CONTINUOUS
 10
228.2103404617
 20
221.1815987162
 11
227.6733954202
 21
221.182373949
  0
LINE
  8
0
 62
7
  6
CONTINUOUS
 10
252.7293486995
 20
221.182812905
 11
253.1094010666
 21
221.1823192664
  0
LINE
  8
0
 62
7
  6
CONTINUOUS
 10
253.6103404617
 20
221.1815987162
 11
253.0733954202
 21
221.182373949
  0
LINE
  8
0
 62
7
  6
CONTINUOUS
 10
253.2262245296
 20
221.1821450107
 11
253.3452822196
 21
221.1819670636
  0
LINE
  8
0
 62
7
  6
CONTINUOUS
 10
276.2151312412
 20
221.1828048971
 11
276.1267266707
 21
221.1829793922
  0
LINE
  8
0
 62
7
  6
CONTINUOUS
 10
276.2538527788
 20
221.1825474918
 11
276.2151312412
 21
221.1828048971
  0
LINE
  8
0
 62
7
  6
CONTINUOUS
 10
276.2779582598
 20
221.1822772715
 11
276.2538527788
 21
221.1825474918
  0
LINE
  8
0
 62
7
  6
CONTINUOUS
 10
276.2920788111
 20
221.1820555104
 11
276.2779582598
 21
221.1822772715
  0
LINE
  8
0
 62
7
  6
CONTINUOUS
 10
276.3048953753
 20
221.18179369
 11
276.2920788111
 21
221.1820555104
  0
LINE
  8
0
 62
7
  6
CONTINUOUS
 10
187.8732630947
 20
219.5978120239
 11
187.7849527396
 21
219.6328104967
  0
POLYLINE
  8
0
 62
7
  6
CONTINUOUS
 66
1
 70
0
  0
VERTEX
  8
0
 62
7
  6
CONTINUOUS
 10
187.7849422789
 20
219.6328146259
  0
VERTEX
  8
0
 62
7
  6
CONTINUOUS
 10
187.7739613096
 20
219.6372916053
  0
VERTEX
  8
0
 62
7
  6
CONTINUOUS
 10
187.7641583499
 20
219.6416216299
  0
VERTEX
  8
0
 62
7
  6
CONTINUOUS
 10
187.7588803249
 20
219.644178231
  0
VERTEX
  8
0
 62
7
  6
CONTINUOUS
 10
187.757853816
 20
219.6447159244
  0
SEQEND
  0
POLYLINE
  8
0
 62
7
  6
CONTINUOUS
 66
1
 70
0
  0
VERTEX
  8
0
 62
7
  6
CONTINUOUS
 10
213.6225767702
 20
219.1047436287
  0
VERTEX
  8
0
 62
7
  6
CONTINUOUS
 10
213.6215735165
 20
219.1367947724
  0
VERTEX
  8
0
 62
7
  6
CONTINUOUS
 10
213.6166446566
 20
219.1824947833
  0
VERTEX
  8
0
 62
7
  6
CONTINUOUS
 10
213.607633898
 20
219.2276101827
  0
VERTEX
  8
0
 62
7
  6
CONTINUOUS
 10
213.5946171414
 20
219.2717509635
  0
VERTEX
  8
0
 62
7
  6
CONTINUOUS
 10
213.5777190667
 20
219.3145296459
  0
VERTEX
  8
0
 62
7
  6
CONTINUOUS
 10
213.557113974
 20
219.3555731248
  0
VERTEX
  8
0
 62
7
  6
CONTINUOUS
 10
213.533018033
 20
219.3945426257
  0
VERTEX
  8
0
 62
7
  6
CONTINUOUS
 10
213.505682509
 20
219.4311398005
  0
VERTEX
  8
0
 62
7
  6
CONTINUOUS
 10
213.4753961509
 20
219.4651024371
  0
VERTEX
  8
0
 62
7
  6
CONTINUOUS
 10
213.4428252575
 20
219.4959156677
  0
VERTEX
  8
0
 62
7
  6
CONTINUOUS
 10
213.4099130732
 20
219.5223807041
  0
VERTEX
  8
0
 62
7
  6
CONTINUOUS
 10
213.3780403863
 20
219.5443810347
  0
VERTEX
  8
0
 62
7
  6
CONTINUOUS
 10
213.3474039188
 20
219.562703304
  0
VERTEX
  8
0
 62
7
  6
CONTINUOUS
 10
213.3178964206
 20
219.5780997005
  0
VERTEX
  8
0
 62
7
  6
CONTINUOUS
 10
213.289305785
 20
219.591180159
  0
VERTEX
  8
0
 62
7
  6
CONTINUOUS
 10
213.2732537229
 20
219.59781573
  0
SEQEND
  0
LINE
  8
0
 62
7
  6
CONTINUOUS
 10
213.3225768421
 20
220.5963033401
 11
213.3225768421
 21
219.5756575543
  0
LINE
  8
0
 62
7
  6
CONTINUOUS
 10
213.6225768421
 20
219.1047463598
 11
213.6225768421
 21
218.1829793928
  0
LINE
  8
0
 62
7
  6
CONTINUOUS
 10
217.1225768421
 20
215.4829793928
 11
217.1225768421
 21
205.8829793928
  0
POLYLINE
  8
0
 62
7
  6
CONTINUOUS
 66
1
 70
0
  0
VERTEX
  8
0
 62
7
  6
CONTINUOUS
 10
259.4850716011
 20
219.6433983615
  0
VERTEX
  8
0
 62
7
  6
CONTINUOUS
 10
259.4871330018
 20
219.6446221775
  0
VERTEX
  8
0
 62
7
  6
CONTINUOUS
 10
259.4862266497
 20
219.6441543237
  0
VERTEX
  8
0
 62
7
  6
CONTINUOUS
 10
259.4808735635
 20
219.6415651123
  0
VERTEX
  8
0
 62
7
  6
CONTINUOUS
 10
259.4709842953
 20
219.637203639
  0
VERTEX
  8
0
 62
7
  6
CONTINUOUS
 10
259.4602119384
 20
219.6328148364
  0
SEQEND
  0
LINE
  8
0
 62
7
  6
CONTINUOUS
 10
213.2732630947
 20
219.5978120239
 11
213.1849527396
 21
219.6328104967
  0
LINE
  8
0
 62
7
  6
CONTINUOUS
 10
238.6732630947
 20
219.5978120239
 11
238.5849527396
 21
219.6328104967
  0
POLYLINE
  8
0
 62
7
  6
CONTINUOUS
 66
1
 70
0
  0
VERTEX
  8
0
 62
7
  6
CONTINUOUS
 10
213.1849422789
 20
219.6328146259
  0
VERTEX
  8
0
 62
7
  6
CONTINUOUS
 10
213.1739613096
 20
219.6372916053
  0
VERTEX
  8
0
 62
7
  6
CONTINUOUS
 10
213.1641583499
 20
219.6416216299
  0
VERTEX
  8
0
 62
7
  6
CONTINUOUS
 10
213.1588803249
 20
219.644178231
  0
VERTEX
  8
0
 62
7
  6
CONTINUOUS
 10
213.157853816
 20
219.6447159244
  0
SEQEND
  0
POLYLINE
  8
0
 62
7
  6
CONTINUOUS
 66
1
 70
0
  0
VERTEX
  8
0
 62
7
  6
CONTINUOUS
 10
238.5849422789
 20
219.6328146259
  0
VERTEX
  8
0
 62
7
  6
CONTINUOUS
 10
238.5739613096
 20
219.6372916053
  0
VERTEX
  8
0
 62
7
  6
CONTINUOUS
 10
238.5641583499
 20
219.6416216299
  0
VERTEX
  8
0
 62
7
  6
CONTINUOUS
 10
238.5588803249
 20
219.644178231
  0
VERTEX
  8
0
 62
7
  6
CONTINUOUS
 10
238.557853816
 20
219.6447159244
  0
SEQEND
  0
LINE
  8
0
 62
7
  6
CONTINUOUS
 10
230.1225768421
 20
205.8829793928
 11
230.1225768421
 21
215.4829793928
  0
LINE
  8
0
 62
7
  6
CONTINUOUS
 10
264.0732630947
 20
219.5978120239
 11
263.9849527396
 21
219.6328104967
  0
POLYLINE
  8
0
 62
7
  6
CONTINUOUS
 66
1
 70
0
  0
VERTEX
  8
0
 62
7
  6
CONTINUOUS
 10
263.9849422789
 20
219.6328146259
  0
VERTEX
  8
0
 62
7
  6
CONTINUOUS
 10
263.9739613096
 20
219.6372916053
  0
VERTEX
  8
0
 62
7
  6
CONTINUOUS
 10
263.9641583499
 20
219.6416216299
  0
VERTEX
  8
0
 62
7
  6
CONTINUOUS
 10
263.9588803249
 20
219.644178231
  0
VERTEX
  8
0
 62
7
  6
CONTINUOUS
 10
263.957853816
 20
219.6447159244
  0
SEQEND
  0
POLYLINE
  8
0
 62
7
  6
CONTINUOUS
 66
1
 70
0
  0
VERTEX
  8
0
 62
7
  6
CONTINUOUS
 10
239.0225767702
 20
219.1047436287
  0
VERTEX
  8
0
 62
7
  6
CONTINUOUS
 10
239.0215735165
 20
219.1367947724
  0
VERTEX
  8
0
 62
7
  6
CONTINUOUS
 10
239.0166446566
 20
219.1824947833
  0
VERTEX
  8
0
 62
7
  6
CONTINUOUS
 10
239.007633898
 20
219.2276101827
  0
VERTEX
  8
0
 62
7
  6
CONTINUOUS
 10
238.9946171414
 20
219.2717509635
  0
VERTEX
  8
0
 62
7
  6
CONTINUOUS
 10
238.9777190667
 20
219.3145296459
  0
VERTEX
  8
0
 62
7
  6
CONTINUOUS
 10
238.957113974
 20
219.3555731248
  0
VERTEX
  8
0
 62
7
  6
CONTINUOUS
 10
238.933018033
 20
219.3945426257
  0
VERTEX
  8
0
 62
7
  6
CONTINUOUS
 10
238.905682509
 20
219.4311398005
  0
VERTEX
  8
0
 62
7
  6
CONTINUOUS
 10
238.8753961509
 20
219.4651024371
  0
VERTEX
  8
0
 62
7
  6
CONTINUOUS
 10
238.8428252575
 20
219.4959156677
  0
VERTEX
  8
0
 62
7
  6
CONTINUOUS
 10
238.8099130732
 20
219.5223807041
  0
VERTEX
  8
0
 62
7
  6
CONTINUOUS
 10
238.7780403863
 20
219.5443810347
  0
VERTEX
  8
0
 62
7
  6
CONTINUOUS
 10
238.7474039188
 20
219.562703304
  0
VERTEX
  8
0
 62
7
  6
CONTINUOUS
 10
238.7178964206
 20
219.5780997005
  0
VERTEX
  8
0
 62
7
  6
CONTINUOUS
 10
238.689305785
 20
219.591180159
  0
VERTEX
  8
0
 62
7
  6
CONTINUOUS
 10
238.6732537229
 20
219.59781573
  0
SEQEND
  0
LINE
  8
0
 62
7
  6
CONTINUOUS
 10
233.6225768421
 20
218.1829793928
 11
233.6225768421
 21
219.1047463598
  0
LINE
  8
0
 62
7
  6
CONTINUOUS
 10
233.9225768421
 20
219.5756784041
 11
233.9225768421
 21
220.5963033401
  0
LINE
  8
0
 62
7
  6
CONTINUOUS
 10
238.7225768421
 20
220.5963033401
 11
238.7225768421
 21
219.5756575543
  0
LINE
  8
0
 62
7
  6
CONTINUOUS
 10
239.0225768421
 20
219.1047463598
 11
239.0225768421
 21
218.1829793928
  0
LINE
  8
0
 62
7
  6
CONTINUOUS
 10
242.5225768421
 20
215.4829793928
 11
242.5225768421
 21
205.8829793928
  0
LINE
  8
0
 62
7
  6
CONTINUOUS
 10
255.5225768421
 20
205.8829793928
 11
255.5225768421
 21
215.4829793928
  0
LINE
  8
0
 62
7
  6
CONTINUOUS
 10
259.0225768421
 20
218.1829793928
 11
259.0225768421
 21
219.1047463598
  0
LINE
  8
0
 62
7
  6
CONTINUOUS
 10
259.3225768421
 20
219.5756784041
 11
259.3225768421
 21
220.5963033401
  0
POLYLINE
  8
0
 62
7
  6
CONTINUOUS
 66
1
 70
0
  0
VERTEX
  8
0
 62
7
  6
CONTINUOUS
 10
264.4225767702
 20
219.1047436287
  0
VERTEX
  8
0
 62
7
  6
CONTINUOUS
 10
264.4215735165
 20
219.1367947724
  0
VERTEX
  8
0
 62
7
  6
CONTINUOUS
 10
264.4166446566
 20
219.1824947833
  0
VERTEX
  8
0
 62
7
  6
CONTINUOUS
 10
264.407633898
 20
219.2276101827
  0
VERTEX
  8
0
 62
7
  6
CONTINUOUS
 10
264.3946171414
 20
219.2717509635
  0
VERTEX
  8
0
 62
7
  6
CONTINUOUS
 10
264.3777190667
 20
219.3145296459
  0
VERTEX
  8
0
 62
7
  6
CONTINUOUS
 10
264.357113974
 20
219.3555731248
  0
VERTEX
  8
0
 62
7
  6
CONTINUOUS
 10
264.333018033
 20
219.3945426257
  0
VERTEX
  8
0
 62
7
  6
CONTINUOUS
 10
264.305682509
 20
219.4311398005
  0
VERTEX
  8
0
 62
7
  6
CONTINUOUS
 10
264.2753961509
 20
219.4651024371
  0
VERTEX
  8
0
 62
7
  6
CONTINUOUS
 10
264.2428252575
 20
219.4959156677
  0
VERTEX
  8
0
 62
7
  6
CONTINUOUS
 10
264.2099130732
 20
219.5223807041
  0
VERTEX
  8
0
 62
7
  6
CONTINUOUS
 10
264.1780403863
 20
219.5443810347
  0
VERTEX
  8
0
 62
7
  6
CONTINUOUS
 10
264.1474039188
 20
219.562703304
  0
VERTEX
  8
0
 62
7
  6
CONTINUOUS
 10
264.1178964206
 20
219.5780997005
  0
VERTEX
  8
0
 62
7
  6
CONTINUOUS
 10
264.089305785
 20
219.591180159
  0
VERTEX
  8
0
 62
7
  6
CONTINUOUS
 10
264.0732537229
 20
219.59781573
  0
SEQEND
  0
LINE
  8
0
 62
7
  6
CONTINUOUS
 10
264.1225768421
 20
220.5963033401
 11
264.1225768421
 21
219.5756575543
  0
LINE
  8
0
 62
7
  6
CONTINUOUS
 10
264.4225768421
 20
219.1047463598
 11
264.4225768421
 21
218.1829793928
  0
LINE
  8
0
 62
7
  6
CONTINUOUS
 10
267.9202891926
 20
215.4829793928
 11
267.9202891926
 21
205.8829793928
  0
POLYLINE
  8
0
 62
7
  6
CONTINUOUS
 66
1
 70
0
  0
VERTEX
  8
0
 62
7
  6
CONTINUOUS
 10
277.1225767606
 20
219.0848345396
  0
VERTEX
  8
0
 62
7
  6
CONTINUOUS
 10
277.1216532421
 20
219.1155917663
  0
VERTEX
  8
0
 62
7
  6
CONTINUOUS
 10
277.1168634542
 20
219.1611584307
  0
VERTEX
  8
0
 62
7
  6
CONTINUOUS
 10
277.1080180894
 20
219.2061533163
  0
VERTEX
  8
0
 62
7
  6
CONTINUOUS
 10
277.095190633
 20
219.2501937033
  0
VERTEX
  8
0
 62
7
  6
CONTINUOUS
 10
277.0785014661
 20
219.2928989035
  0
VERTEX
  8
0
 62
7
  6
CONTINUOUS
 10
277.0581190228
 20
219.3339013008
  0
VERTEX
  8
0
 62
7
  6
CONTINUOUS
 10
277.0342540656
 20
219.3728635605
  0
VERTEX
  8
0
 62
7
  6
CONTINUOUS
 10
277.0071597377
 20
219.4094786232
  0
VERTEX
  8
0
 62
7
  6
CONTINUOUS
 10
276.9771317812
 20
219.4434749924
  0
VERTEX
  8
0
 62
7
  6
CONTINUOUS
 10
276.9447864864
 20
219.4743810098
  0
VERTEX
  8
0
 62
7
  6
CONTINUOUS
 10
276.911976216
 20
219.5010355123
  0
VERTEX
  8
0
 62
7
  6
CONTINUOUS
 10
276.8800705079
 20
219.523284139
  0
VERTEX
  8
0
 62
7
  6
CONTINUOUS
 10
276.849329976
 20
219.5418516022
  0
VERTEX
  8
0
 62
7
  6
CONTINUOUS
 10
276.8225768421
 20
219.5559459139
  0
SEQEND
  0
POLYLINE
  8
0
 62
7
  6
CONTINUOUS
 66
1
 70
0
  0
VERTEX
  8
0
 62
7
  6
CONTINUOUS
 10
276.8225767922
 20
220.6801053542
  0
VERTEX
  8
0
 62
7
  6
CONTINUOUS
 10
276.8217430634
 20
220.7089703113
  0
VERTEX
  8
0
 62
7
  6
CONTINUOUS
 10
276.8173688071
 20
220.7520900693
  0
VERTEX
  8
0
 62
7
  6
CONTINUOUS
 10
276.8097020996
 20
220.7928495676
  0
VERTEX
  8
0
 62
7
  6
CONTINUOUS
 10
276.7992097291
 20
220.8311857728
  0
VERTEX
  8
0
 62
7
  6
CONTINUOUS
 10
276.7863032255
 20
220.8670932408
  0
VERTEX
  8
0
 62
7
  6
CONTINUOUS
 10
276.7713387734
 20
220.9006099028
  0
VERTEX
  8
0
 62
7
  6
CONTINUOUS
 10
276.7546191331
 20
220.9318042721
  0
VERTEX
  8
0
 62
7
  6
CONTINUOUS
 10
276.7364211154
 20
220.9607289883
  0
VERTEX
  8
0
 62
7
  6
CONTINUOUS
 10
276.7170270391
 20
220.9874000562
  0
VERTEX
  8
0
 62
7
  6
CONTINUOUS
 10
276.6967013579
 20
221.0118531552
  0
VERTEX
  8
0
 62
7
  6
CONTINUOUS
 10
276.6756871174
 20
221.0341451286
  0
VERTEX
  8
0
 62
7
  6
CONTINUOUS
 10
276.6541959177
 20
221.0543587967
  0
VERTEX
  8
0
 62
7
  6
CONTINUOUS
 10
276.6323974867
 20
221.0726030737
  0
VERTEX
  8
0
 62
7
  6
CONTINUOUS
 10
276.6104338597
 20
221.0889926072
  0
VERTEX
  8
0
 62
7
  6
CONTINUOUS
 10
276.5884267317
 20
221.1036408167
  0
VERTEX
  8
0
 62
7
  6
CONTINUOUS
 10
276.5665245672
 20
221.116633668
  0
VERTEX
  8
0
 62
7
  6
CONTINUOUS
 10
276.544894364
 20
221.1280479752
  0
VERTEX
  8
0
 62
7
  6
CONTINUOUS
 10
276.5236904864
 20
221.1379728482
  0
VERTEX
  8
0
 62
7
  6
CONTINUOUS
 10
276.5030596574
 20
221.146505129
  0
VERTEX
  8
0
 62
7
  6
CONTINUOUS
 10
276.483151884
 20
221.1537445851
  0
VERTEX
  8
0
 62
7
  6
CONTINUOUS
 10
276.4641154142
 20
221.1597966284
  0
VERTEX
  8
0
 62
7
  6
CONTINUOUS
 10
276.4461501693
 20
221.1647581159
  0
VERTEX
  8
0
 62
7
  6
CONTINUOUS
 10
276.4296602491
 20
221.1686923657
  0
VERTEX
  8
0
 62
7
  6
CONTINUOUS
 10
276.4149961162
 20
221.171706729
  0
VERTEX
  8
0
 62
7
  6
CONTINUOUS
 10
276.4020948961
 20
221.1739911387
  0
VERTEX
  8
0
 62
7
  6
CONTINUOUS
 10
276.3903860283
 20
221.1757737147
  0
VERTEX
  8
0
 62
7
  6
CONTINUOUS
 10
276.3795117414
 20
221.1771879
  0
VERTEX
  8
0
 62
7
  6
CONTINUOUS
 10
276.3696809434
 20
221.1782726461
  0
VERTEX
  8
0
 62
7
  6
CONTINUOUS
 10
276.361025969
 20
221.1790816027
  0
VERTEX
  8
0
 62
7
  6
CONTINUOUS
 10
276.3533786085
 20
221.1796887151
  0
VERTEX
  8
0
 62
7
  6
CONTINUOUS
 10
276.3464756656
 20
221.180156055
  0
VERTEX
  8
0
 62
7
  6
CONTINUOUS
 10
276.3400913601
 20
221.1805261401
  0
VERTEX
  8
0
 62
7
  6
CONTINUOUS
 10
276.3340493259
 20
221.1808272473
  0
VERTEX
  8
0
 62
7
  6
CONTINUOUS
 10
276.3282207391
 20
221.1810780467
  0
VERTEX
  8
0
 62
7
  6
CONTINUOUS
 10
276.3224953322
 20
221.1812917197
  0
VERTEX
  8
0
 62
7
  6
CONTINUOUS
 10
276.3167587249
 20
221.1814781549
  0
VERTEX
  8
0
 62
7
  6
CONTINUOUS
 10
276.3048953753
 20
221.18179369
  0
SEQEND
  0
LINE
  8
0
 62
7
  6
CONTINUOUS
 10
276.8225768421
 20
218.1829793928
 11
276.8225768421
 21
220.6801055041
  0
LINE
  8
0
 62
7
  6
CONTINUOUS
 10
277.1225768421
 20
219.0848373362
 11
277.1225768421
 21
218.1829793928
  0
LINE
  8
0
 62
7
  6
CONTINUOUS
 10
280.9202891926
 20
205.8829793928
 11
280.9202891926
 21
215.4829793928
  0
LINE
  8
0
 62
7
  6
CONTINUOUS
 10
293.3202891926
 20
215.4829793928
 11
293.3202891926
 21
205.8829793928
  0
LINE
  8
0
 62
7
  6
CONTINUOUS
 10
338.5084869594
 20
202.3688895101
 11
339.0725768421
 21
202.9329793928
  0
LINE
  8
0
 62
7
  6
CONTINUOUS
 10
308.7202891926
 20
205.8829793928
 11
308.7202891926
 21
215.4829793928
  0
LINE
  8
0
 62
7
  6
CONTINUOUS
 10
321.1202891926
 20
205.8829793928
 11
321.1202891926
 21
215.4829793928
  0
LINE
  8
0
 62
7
  6
CONTINUOUS
 10
327.4725768421
 20
190.1829793928
 11
327.4725768421
 21
193.9231880169
  0
LINE
  8
0
 62
7
  6
CONTINUOUS
 10
338.7725768421
 20
202.6329793928
 11
338.7725768421
 21
217.8829793928
  0
LINE
  8
0
 62
7
  6
CONTINUOUS
 10
348.4725768421
 20
203.4829793928
 11
348.4725768421
 21
217.8829793928
  0
LINE
  8
0
 62
7
  6
CONTINUOUS
 10
338.5084863977
 20
202.3688889485
 11
338.5018772774
 21
194.3829020136
  0
POLYLINE
  8
0
 62
7
  6
CONTINUOUS
 66
1
 70
0
  0
VERTEX
  8
0
 62
7
  6
CONTINUOUS
 10
338.5018772287
 20
194.3829019953
  0
VERTEX
  8
0
 62
7
  6
CONTINUOUS
 10
338.5016830994
 20
194.3744526972
  0
VERTEX
  8
0
 62
7
  6
CONTINUOUS
 10
338.4994216915
 20
194.3520244416
  0
VERTEX
  8
0
 62
7
  6
CONTINUOUS
 10
338.4946626043
 20
194.3299531503
  0
VERTEX
  8
0
 62
7
  6
CONTINUOUS
 10
338.4873958785
 20
194.3084740695
  0
VERTEX
  8
0
 62
7
  6
CONTINUOUS
 10
338.4776549775
 20
194.2878830267
  0
VERTEX
  8
0
 62
7
  6
CONTINUOUS
 10
338.4656517426
 20
194.2684875955
  0
VERTEX
  8
0
 62
7
  6
CONTINUOUS
 10
338.451553468
 20
194.2505534732
  0
VERTEX
  8
0
 62
7
  6
CONTINUOUS
 10
338.4354706438
 20
194.2343644982
  0
VERTEX
  8
0
 62
7
  6
CONTINUOUS
 10
338.4176387566
 20
194.2201604554
  0
VERTEX
  8
0
 62
7
  6
CONTINUOUS
 10
338.3983380823
 20
194.2080440968
  0
VERTEX
  8
0
 62
7
  6
CONTINUOUS
 10
338.3778287635
 20
194.1981746814
  0
VERTEX
  8
0
 62
7
  6
CONTINUOUS
 10
338.3564085892
 20
194.1907647202
  0
VERTEX
  8
0
 62
7
  6
CONTINUOUS
 10
338.334362005
 20
194.185856637
  0
VERTEX
  8
0
 62
7
  6
CONTINUOUS
 10
338.3119176127
 20
194.1834444541
  0
VERTEX
  8
0
 62
7
  6
CONTINUOUS
 10
338.3018770536
 20
194.1831880169
  0
SEQEND
  0
LINE
  8
0
 62
7
  6
CONTINUOUS
 10
343.6173066396
 20
203.0961760569
 11
342.8866465154
 21
191.0617740111
  0
LINE
  8
0
 62
7
  6
CONTINUOUS
 10
342.8831344021
 20
191.0135655762
 11
342.8866465154
 21
191.0617740111
  0
POLYLINE
  8
0
 62
7
  6
CONTINUOUS
 66
1
 70
0
  0
VERTEX
  8
0
 62
7
  6
CONTINUOUS
 10
342.7709653162
 20
190.5025654141
  0
VERTEX
  8
0
 62
7
  6
CONTINUOUS
 10
342.7750863982
 20
190.5140805388
  0
VERTEX
  8
0
 62
7
  6
CONTINUOUS
 10
342.7942067759
 20
190.5706895692
  0
VERTEX
  8
0
 62
7
  6
CONTINUOUS
 10
342.8112718441
 20
190.6265888
  0
VERTEX
  8
0
 62
7
  6
CONTINUOUS
 10
342.8263688293
 20
190.6816613372
  0
VERTEX
  8
0
 62
7
  6
CONTINUOUS
 10
342.8395899995
 20
190.7358036473
  0
VERTEX
  8
0
 62
7
  6
CONTINUOUS
 10
342.8510170242
 20
190.7888558762
  0
VERTEX
  8
0
 62
7
  6
CONTINUOUS
 10
342.8607345899
 20
190.8406323636
  0
VERTEX
  8
0
 62
7
  6
CONTINUOUS
 10
342.8688399216
 20
190.8909623923
  0
VERTEX
  8
0
 62
7
  6
CONTINUOUS
 10
342.8754430298
 20
190.9397100209
  0
VERTEX
  8
0
 62
7
  6
CONTINUOUS
 10
342.8806555117
 20
190.9867060401
  0
VERTEX
  8
0
 62
7
  6
CONTINUOUS
 10
342.8831295071
 20
191.0135771019
  0
SEQEND
  0
LINE
  8
0
 62
7
  6
CONTINUOUS
 10
390.7811564413
 20
82.3388769951
 11
390.9629879751
 21
82.3843812027
  0
LINE
  8
0
 62
7
  6
CONTINUOUS
 10
390.6065315643
 20
82.3019446142
 11
390.7831796533
 21
82.3393424728
  0
LINE
  8
0
 62
7
  6
CONTINUOUS
 10
390.4372061062
 20
82.27185777
 11
390.6099841416
 21
82.3026147484
  0
LINE
  8
0
 62
7
  6
CONTINUOUS
 10
390.2718147598
 20
82.2473971617
 11
390.4419928761
 21
82.272635826
  0
LINE
  8
0
 62
7
  6
CONTINUOUS
 10
390.1090743513
 20
82.2276013851
 11
390.2774992738
 21
82.2481624392
  0
LINE
  8
0
 62
7
  6
CONTINUOUS
 10
389.9486380366
 20
82.2117737094
 11
390.115054852
 21
82.2282593572
  0
LINE
  8
0
 62
7
  6
CONTINUOUS
 10
389.7903008412
 20
82.1993202793
 11
389.9544474747
 21
82.2122880116
  0
LINE
  8
0
 62
7
  6
CONTINUOUS
 10
389.633788253
 20
82.1897166449
 11
389.7956100815
 21
82.1996910878
  0
LINE
  8
0
 62
7
  6
CONTINUOUS
 10
389.479179327
 20
82.1824809178
 11
389.6384091157
 21
82.1899652947
  0
LINE
  8
0
 62
7
  6
CONTINUOUS
 10
389.327148599
 20
82.1771861392
 11
389.4830544076
 21
82.1826380875
  0
LINE
  8
0
 62
7
  6
CONTINUOUS
 10
389.1790464077
 20
82.1734891289
 11
389.3302545162
 21
82.1772782628
  0
LINE
  8
0
 62
7
  6
CONTINUOUS
 10
389.0360659236
 20
82.1710802359
 11
389.1813831021
 21
82.1735374425
  0
LINE
  8
0
 62
7
  6
CONTINUOUS
 10
388.8991360248
 20
82.1696837232
 11
389.0376597793
 21
82.1711014765
  0
LINE
  8
0
 62
7
  6
CONTINUOUS
 10
388.7666072988
 20
82.1690627401
 11
388.9000438985
 21
82.169690322
  0
LINE
  8
0
 62
7
  6
CONTINUOUS
 10
388.6348663971
 20
82.1690481057
 11
388.7663208051
 21
82.1690620891
  0
LINE
  8
0
 62
7
  6
CONTINUOUS
 10
388.5008659346
 20
82.1696561849
 11
388.6345503337
 21
82.1690487624
  0
LINE
  8
0
 62
7
  6
CONTINUOUS
 10
388.3625855865
 20
82.1710553767
 11
388.5018071335
 21
82.1696494711
  0
LINE
  8
0
 62
7
  6
CONTINUOUS
 10
388.2181275425
 20
82.1734811778
 11
388.36422018
 21
82.1710338417
  0
LINE
  8
0
 62
7
  6
CONTINUOUS
 10
388.068584277
 20
82.1772154597
 11
388.2205087788
 21
82.1734323203
  0
LINE
  8
0
 62
7
  6
CONTINUOUS
 10
387.9152338346
 20
82.1825706772
 11
388.0717361505
 21
82.1771224689
  0
LINE
  8
0
 62
7
  6
CONTINUOUS
 10
387.7594851825
 20
82.1898953881
 11
387.9191532142
 21
82.18241229
  0
LINE
  8
0
 62
7
  6
CONTINUOUS
 10
387.6019690932
 20
82.1996176799
 11
387.7641481098
 21
82.1896450766
  0
LINE
  8
0
 62
7
  6
CONTINUOUS
 10
387.442831353
 20
82.2122198639
 11
387.6073110025
 21
82.1992454486
  0
LINE
  8
0
 62
7
  6
CONTINUOUS
 10
387.2820166416
 20
82.2282261916
 11
387.4486561488
 21
82.2117044462
  0
LINE
  8
0
 62
7
  6
CONTINUOUS
 10
387.1195059516
 20
82.2481760319
 11
387.2879899721
 21
82.2275678427
  0
LINE
  8
0
 62
7
  6
CONTINUOUS
 10
386.9550507552
 20
82.272676236
 11
387.1251663591
 21
82.2474125727
  0
LINE
  8
0
 62
7
  6
CONTINUOUS
 10
386.7871308706
 20
82.3026422053
 11
386.9598035535
 21
82.2719030978
  0
LINE
  8
0
 62
7
  6
CONTINUOUS
 10
386.6140239066
 20
82.339301574
 11
386.7905545218
 21
82.3019781341
  0
LINE
  8
0
 62
7
  6
CONTINUOUS
 10
386.2584316912
 20
82.4356537284
 11
386.4351458234
 21
82.3839965471
  0
POLYLINE
  8
0
 62
7
  6
CONTINUOUS
 66
1
 70
0
  0
VERTEX
  8
0
 62
7
  6
CONTINUOUS
 10
386.2584317729
 20
82.435653707
  0
VERTEX
  8
0
 62
7
  6
CONTINUOUS
 10
386.4343524279
 20
82.384211272
  0
VERTEX
  8
0
 62
7
  6
CONTINUOUS
 10
386.6160322387
 20
82.3388403769
  0
SEQEND
  0
LINE
  8
0
 62
7
  6
CONTINUOUS
 10
386.2581796072
 20
82.4357238438
 11
386.258413451
 21
82.4356504392
  0
LINE
  8
0
 62
7
  6
CONTINUOUS
 10
381.4817993791
 20
88.3121969303
 11
368.1625853786
 21
88.7878831446
  0
LINE
  8
DEFAULT_1
 62
2
  6
CENTER
 10
393.9482769091
 20
91.3223227328
 11
390.6983019091
 21
91.3223227328
  0
LINE
  8
0
 62
2
  6
CONTINUOUS
 10
389.7482769091
 20
91.3223227328
 11
387.6482769091
 21
91.3223227328
  0
LINE
  8
DEFAULT_1
 62
2
  6
CENTER
 10
383.4482769091
 20
91.3223227328
 11
386.6982519091
 21
91.3223227328
  0
POLYLINE
  8
0
 62
7
  6
CONTINUOUS
 66
1
 70
0
  0
VERTEX
  8
0
 62
7
  6
CONTINUOUS
 10
384.6370037439
 20
83.2116721716
  0
VERTEX
  8
0
 62
7
  6
CONTINUOUS
 10
384.8815522637
 20
83.0566115365
  0
VERTEX
  8
0
 62
7
  6
CONTINUOUS
 10
385.1376986674
 20
82.9102343001
  0
VERTEX
  8
0
 62
7
  6
CONTINUOUS
 10
385.4052375165
 20
82.7734152925
  0
VERTEX
  8
0
 62
7
  6
CONTINUOUS
 10
385.6835190866
 20
82.6474559647
  0
VERTEX
  8
0
 62
7
  6
CONTINUOUS
 10
385.9721250756
 20
82.5333103472
  0
VERTEX
  8
0
 62
7
  6
CONTINUOUS
 10
386.2581796072
 20
82.4357238438
  0
SEQEND
  0
LINE
  8
0
 62
7
  6
CONTINUOUS
 10
384.4042150975
 20
83.3744863547
 11
384.6370037671
 21
83.2116721564
  0
LINE
  8
0
 62
7
  6
CONTINUOUS
 10
396.1982769091
 20
93.9723227328
 11
396.7834473466
 21
93.9723227328
  0
LINE
  8
0
 62
7
  6
CONTINUOUS
 10
368.1625853786
 20
97.856762321
 11
380.9089843682
 21
98.3119908563
  0
LINE
  8
0
 62
7
  6
CONTINUOUS
 10
367.1982769091
 20
96.8573994666
 11
367.1982769091
 21
89.7872459989
  0
POLYLINE
  8
0
 62
7
  6
CONTINUOUS
 66
1
 70
0
  0
VERTEX
  8
0
 62
7
  6
CONTINUOUS
 10
382.2600551304
 20
86.0315690488
  0
VERTEX
  8
0
 62
7
  6
CONTINUOUS
 10
382.3487012155
 20
85.8487939228
  0
VERTEX
  8
0
 62
7
  6
CONTINUOUS
 10
382.4519032428
 20
85.6500366962
  0
VERTEX
  8
0
 62
7
  6
CONTINUOUS
 10
382.5635018483
 20
85.4498606784
  0
VERTEX
  8
0
 62
7
  6
CONTINUOUS
 10
382.6835373224
 20
85.2494284214
  0
VERTEX
  8
0
 62
7
  6
CONTINUOUS
 10
382.8120932535
 20
85.0496959308
  0
VERTEX
  8
0
 62
7
  6
CONTINUOUS
 10
382.9492056216
 20
84.8515235992
  0
VERTEX
  8
0
 62
7
  6
CONTINUOUS
 10
383.0948265476
 20
84.6558038177
  0
VERTEX
  8
0
 62
7
  6
CONTINUOUS
 10
383.2495922401
 20
84.4625987304
  0
VERTEX
  8
0
 62
7
  6
CONTINUOUS
 10
383.4142428919
 20
84.2720430095
  0
VERTEX
  8
0
 62
7
  6
CONTINUOUS
 10
383.5894738927
 20
84.0844119282
  0
VERTEX
  8
0
 62
7
  6
CONTINUOUS
 10
383.7757420979
 20
83.9001549733
  0
VERTEX
  8
0
 62
7
  6
CONTINUOUS
 10
383.9733639873
 20
83.7199034522
  0
VERTEX
  8
0
 62
7
  6
CONTINUOUS
 10
384.1828559396
 20
83.5443262504
  0
VERTEX
  8
0
 62
7
  6
CONTINUOUS
 10
384.4042150845
 20
83.3744863641
  0
SEQEND
  0
POLYLINE
  8
0
 62
7
  6
CONTINUOUS
 66
1
 70
0
  0
VERTEX
  8
0
 62
7
  6
CONTINUOUS
 10
381.1982769091
 20
90.8254507398
  0
VERTEX
  8
0
 62
7
  6
CONTINUOUS
 10
381.2067378554
 20
90.3883291854
  0
VERTEX
  8
0
 62
7
  6
CONTINUOUS
 10
381.2334645254
 20
89.9336616325
  0
VERTEX
  8
0
 62
7
  6
CONTINUOUS
 10
381.2784915207
 20
89.4791998095
  0
VERTEX
  8
0
 62
7
  6
CONTINUOUS
 10
381.3417338699
 20
89.0263841723
  0
VERTEX
  8
0
 62
7
  6
CONTINUOUS
 10
381.4230027403
 20
88.5766367281
  0
VERTEX
  8
0
 62
7
  6
CONTINUOUS
 10
381.5220055696
 20
88.1313682789
  0
VERTEX
  8
0
 62
7
  6
CONTINUOUS
 10
381.6383561375
 20
87.6919370409
  0
VERTEX
  8
0
 62
7
  6
CONTINUOUS
 10
381.7715798308
 20
87.2596476478
  0
VERTEX
  8
0
 62
7
  6
CONTINUOUS
 10
381.9211093653
 20
86.835771305
  0
VERTEX
  8
0
 62
7
  6
CONTINUOUS
 10
382.0862841513
 20
86.4215394296
  0
VERTEX
  8
0
 62
7
  6
CONTINUOUS
 10
382.2600387278
 20
86.0315613513
  0
SEQEND
  0
LINE
  8
0
 62
7
  6
CONTINUOUS
 10
381.1982769091
 20
90.8254507398
 11
381.1982769091
 21
142.7723227328
  0
LINE
  8
0
 62
7
  6
CONTINUOUS
 10
396.1982769091
 20
116.4342231911
 11
398.6962454676
 21
116.4342231911
  0
LINE
  8
0
 62
7
  6
CONTINUOUS
 10
385.5982769091
 20
142.1223227328
 11
385.5982769091
 21
125.6223227328
  0
LINE
  8
DEFAULT_1
 62
2
  6
CENTER
 10
388.6982769091
 20
147.3723227328
 11
388.6982769091
 21
144.1224227328
  0
LINE
  8
0
 62
2
  6
CONTINUOUS
 10
388.6982769091
 20
143.1723227328
 11
388.6982769091
 21
141.0723227328
  0
LINE
  8
DEFAULT_1
 62
2
  6
CENTER
 10
388.6982769091
 20
96.5723227328
 11
388.6982769091
 21
93.3223477328
  0
LINE
  8
0
 62
2
  6
CONTINUOUS
 10
388.6982769091
 20
92.3723227328
 11
388.6982769091
 21
90.2723227328
  0
LINE
  8
DEFAULT_1
 62
2
  6
CENTER
 10
388.6982769091
 20
86.0723227328
 11
388.6982769091
 21
89.3222977328
  0
LINE
  8
DEFAULT_1
 62
2
  6
CENTER
 10
388.6982769091
 20
136.8723227328
 11
388.6982769091
 21
140.1222227328
  0
LINE
  8
0
 62
7
  6
CONTINUOUS
 10
391.7982769091
 20
125.6223227328
 11
391.7982769091
 21
142.1223227328
  0
LINE
  8
0
 62
7
  6
CONTINUOUS
 10
396.1982769091
 20
90.6723227328
 11
396.1982769091
 21
142.7723227328
  0
POLYLINE
  8
0
 62
7
  6
CONTINUOUS
 66
1
 70
0
  0
VERTEX
  8
0
 62
7
  6
CONTINUOUS
 10
396.1629818424
 20
89.9323007397
  0
VERTEX
  8
0
 62
7
  6
CONTINUOUS
 10
396.1897633841
 20
90.3869722054
  0
VERTEX
  8
0
 62
7
  6
CONTINUOUS
 10
396.1982769091
 20
90.8254507398
  0
SEQEND
  0
LINE
  8
0
 62
7
  6
CONTINUOUS
 10
397.3623280814
 20
94.8885881575
 11
397.6139503122
 21
96.425576042
  0
LINE
  8
0
 62
7
  6
CONTINUOUS
 10
397.5939644198
 20
137.0200155631
 11
397.3408653156
 21
138.5565418255
  0
POLYLINE
  8
0
 62
7
  6
CONTINUOUS
 66
1
 70
0
  0
VERTEX
  8
0
 62
7
  6
CONTINUOUS
 10
395.1365150904
 20
86.0315613513
  0
VERTEX
  8
0
 62
7
  6
CONTINUOUS
 10
395.3097449696
 20
86.4202973723
  0
VERTEX
  8
0
 62
7
  6
CONTINUOUS
 10
395.474967123
 20
86.8345006753
  0
VERTEX
  8
0
 62
7
  6
CONTINUOUS
 10
395.6245458986
 20
87.2583519818
  0
VERTEX
  8
0
 62
7
  6
CONTINUOUS
 10
395.7578204783
 20
87.6906201055
  0
VERTEX
  8
0
 62
7
  6
CONTINUOUS
 10
395.874223335
 20
88.1300340636
  0
VERTEX
  8
0
 62
7
  6
CONTINUOUS
 10
395.9732795917
 20
88.5752894223
  0
VERTEX
  8
0
 62
7
  6
CONTINUOUS
 10
396.0546027292
 20
89.0250280685
  0
VERTEX
  8
0
 62
7
  6
CONTINUOUS
 10
396.1178998627
 20
89.47783919
  0
VERTEX
  8
0
 62
7
  6
CONTINUOUS
 10
396.1629818424
 20
89.9323007398
  0
SEQEND
  0
LINE
  8
0
 62
7
  6
CONTINUOUS
 10
395.0480330424
 20
85.8491146984
 11
395.136498694
 21
86.0315690458
  0
LINE
  8
0
 62
7
  6
CONTINUOUS
 10
394.9446875626
 20
85.6499894284
 11
395.0480330564
 21
85.8491146752
  0
LINE
  8
0
 62
7
  6
CONTINUOUS
 10
396.761560853
 20
139.4723227328
 11
396.1982769091
 21
139.4723227328
  0
LINE
  8
DEFAULT_1
 62
2
  6
CENTER
 10
393.9482769091
 20
142.1223227328
 11
390.6983769091
 21
142.1223227328
  0
LINE
  8
0
 62
2
  6
CONTINUOUS
 10
389.7482769091
 20
142.1223227328
 11
387.6482769091
 21
142.1223227328
  0
LINE
  8
DEFAULT_1
 62
2
  6
CENTER
 10
383.4482769091
 20
142.1223227328
 11
386.6981769091
 21
142.1223227328
  0
POLYLINE
  8
0
 62
7
  6
CONTINUOUS
 66
1
 70
0
  0
VERTEX
  8
0
 62
7
  6
CONTINUOUS
 10
394.1472672589
 20
84.4629817282
  0
VERTEX
  8
0
 62
7
  6
CONTINUOUS
 10
394.3021594151
 20
84.6563729334
  0
VERTEX
  8
0
 62
7
  6
CONTINUOUS
 10
394.4478451628
 20
84.8521884856
  0
VERTEX
  8
0
 62
7
  6
CONTINUOUS
 10
394.5848830514
 20
85.0502371779
  0
VERTEX
  8
0
 62
7
  6
CONTINUOUS
 10
394.7132679843
 20
85.2496801074
  0
VERTEX
  8
0
 62
7
  6
CONTINUOUS
 10
394.8331412611
 20
85.449850615
  0
VERTEX
  8
0
 62
7
  6
CONTINUOUS
 10
394.9446875293
 20
85.6499894188
  0
SEQEND
  0
POLYLINE
  8
0
 62
7
  6
CONTINUOUS
 66
1
 70
0
  0
VERTEX
  8
0
 62
7
  6
CONTINUOUS
 10
393.8073801992
 20
84.0847497811
  0
VERTEX
  8
0
 62
7
  6
CONTINUOUS
 10
393.9825733272
 20
84.2723581373
  0
VERTEX
  8
0
 62
7
  6
CONTINUOUS
 10
394.1472674909
 20
84.4629819622
  0
SEQEND
  0
POLYLINE
  8
0
 62
7
  6
CONTINUOUS
 66
1
 70
0
  0
VERTEX
  8
0
 62
7
  6
CONTINUOUS
 10
391.138374498
 20
82.4357239251
  0
VERTEX
  8
0
 62
7
  6
CONTINUOUS
 10
391.4254817506
 20
82.5336963088
  0
VERTEX
  8
0
 62
7
  6
CONTINUOUS
 10
391.7140767428
 20
82.6478953488
  0
VERTEX
  8
0
 62
7
  6
CONTINUOUS
 10
391.9922979942
 20
82.7738866397
  0
VERTEX
  8
0
 62
7
  6
CONTINUOUS
 10
392.259765062
 20
82.9107267563
  0
VERTEX
  8
0
 62
7
  6
CONTINUOUS
 10
392.5158454248
 20
83.0571205857
  0
VERTEX
  8
0
 62
7
  6
CONTINUOUS
 10
392.7603873247
 20
83.21222759
  0
VERTEX
  8
0
 62
7
  6
CONTINUOUS
 10
392.9932887285
 20
83.3751936472
  0
VERTEX
  8
0
 62
7
  6
CONTINUOUS
 10
393.214621745
 20
83.5450745446
  0
VERTEX
  8
0
 62
7
  6
CONTINUOUS
 10
393.4239413768
 20
83.720560307
  0
VERTEX
  8
0
 62
7
  6
CONTINUOUS
 10
393.6212759902
 20
83.9006078221
  0
VERTEX
  8
0
 62
7
  6
CONTINUOUS
 10
393.8073796812
 20
84.0847492815
  0
SEQEND
  0
LINE
  8
0
 62
7
  6
CONTINUOUS
 10
391.1383556276
 20
82.4357275233
 11
391.1381216145
 21
82.4356535671
  0
LINE
  8
0
 62
7
  6
CONTINUOUS
 10
390.9621941263
 20
82.3841659008
 11
391.1381216145
 21
82.4356535671
  0
LINE
  8
0
 62
7
  6
CONTINUOUS
 10
388.8482769091
 20
150.1223227328
 11
388.5482769091
 21
150.1223227328
  0
ARC
  8
0
 62
7
  6
CONTINUOUS
 10
26.5725768421
 20
86.1590108397
 40
4.0
 50
180.0
 51
265.7911480681
  0
ARC
  8
0
 62
7
  6
CONTINUOUS
 10
80.4248644916
 20
86.0223227328
 40
2.7
 50
180.0
 51
270.0
  0
ARC
  8
0
 62
7
  6
CONTINUOUS
 10
87.4248644916
 20
86.0223227328
 40
2.7
 50
270.0
 51
360.0
  0
ARC
  8
0
 62
7
  6
CONTINUOUS
 10
59.6248644916
 20
86.0223227328
 40
2.7
 50
270.0
 51
360.0
  0
ARC
  8
0
 62
7
  6
CONTINUOUS
 10
52.6248644916
 20
86.0223227328
 40
2.7
 50
180.0
 51
270.0
  0
ARC
  8
0
 62
7
  6
CONTINUOUS
 10
51.6248644916
 20
97.8543134129
 40
1.0
 50
338.61
 51
360.0
  0
ARC
  8
0
 62
7
  6
CONTINUOUS
 10
88.4248644916
 20
97.8543134129
 40
1.0
 50
180.0
 51
201.39
  0
ARC
  8
0
 62
7
  6
CONTINUOUS
 10
60.6248644916
 20
97.8543134129
 40
1.0
 50
180.0
 51
201.39
  0
ARC
  8
0
 62
7
  6
CONTINUOUS
 10
79.4248644916
 20
97.8543134129
 40
1.0
 50
338.61
 51
360.0
  0
ARC
  8
0
 62
7
  6
CONTINUOUS
 10
50.2248644916
 20
90.7156642585
 40
0.3
 50
158.61
 51
180.0
  0
ARC
  8
0
 62
7
  6
CONTINUOUS
 10
89.8248644916
 20
90.7156642585
 40
0.3
 50
0.0
 51
21.39
  0
ARC
  8
0
 62
7
  6
CONTINUOUS
 10
62.0248644916
 20
90.7156642585
 40
0.3
 50
0.0
 51
21.39
  0
ARC
  8
0
 62
7
  6
CONTINUOUS
 10
103.4248644916
 20
90.7156642585
 40
0.3
 50
158.61
 51
180.0
  0
ARC
  8
0
 62
7
  6
CONTINUOUS
 10
78.0248644916
 20
90.7156642585
 40
0.3
 50
158.61
 51
180.0
  0
ARC
  8
0
 62
7
  6
CONTINUOUS
 10
31.9725768421
 20
98.2419379751
 40
0.3
 50
0.0
 51
30.0
  0
ARC
  8
0
 62
7
  6
CONTINUOUS
 10
35.5725768421
 20
106.659753709
 40
6.0
 50
135.0
 51
180.0
  0
ARC
  8
0
 62
7
  6
CONTINUOUS
 10
37.5567187411
 20
111.4723227328
 40
4.0
 50
90.0
 51
135.0
  0
ARC
  8
0
 62
7
  6
CONTINUOUS
 10
44.6430102421
 20
111.4723227328
 40
4.0
 50
45.0
 51
90.0
  0
ARC
  8
0
 62
7
  6
CONTINUOUS
 10
48.6248644916
 20
107.4904684833
 40
4.0
 50
0.0
 51
45.0
  0
ARC
  8
0
 62
7
  6
CONTINUOUS
 10
91.4248644916
 20
108.2154684833
 40
4.0
 50
135.0
 51
180.0
  0
ARC
  8
0
 62
7
  6
CONTINUOUS
 10
93.7817187411
 20
110.5723227328
 40
4.0
 50
90.0
 51
135.0
  0
ARC
  8
0
 62
7
  6
CONTINUOUS
 10
63.6248644916
 20
108.2154684833
 40
4.0
 50
135.0
 51
180.0
  0
ARC
  8
0
 62
7
  6
CONTINUOUS
 10
76.4248644916
 20
108.2154684833
 40
4.0
 50
0.0
 51
45.0
  0
ARC
  8
0
 62
7
  6
CONTINUOUS
 10
73.5680102421
 20
111.0723227328
 40
4.0
 50
45.0
 51
90.0
  0
ARC
  8
0
 62
7
  6
CONTINUOUS
 10
66.4817187411
 20
111.0723227328
 40
4.0
 50
90.0
 51
135.0
  0
ARC
  8
0
 62
7
  6
CONTINUOUS
 10
25.5725768421
 20
112.6217907293
 40
3.0
 50
113.9379806067
 51
180.0
  0
ARC
  8
0
 62
7
  6
CONTINUOUS
 10
103.8248644916
 20
112.5723227328
 40
2.0
 50
0.0
 51
90.0
  0
ARC
  8
0
 62
7
  6
CONTINUOUS
 10
30.5725768421
 20
103.2668091057
 40
1.0
 50
180.0
 51
210.0
  0
ARC
  8
0
 62
7
  6
CONTINUOUS
 10
112.8225768421
 20
86.0223227328
 40
2.7
 50
270.0
 51
360.0
  0
ARC
  8
0
 62
7
  6
CONTINUOUS
 10
131.2225768421
 20
86.0223227328
 40
2.7
 50
180.0
 51
270.0
  0
ARC
  8
0
 62
7
  6
CONTINUOUS
 10
105.8248644916
 20
86.0223227328
 40
2.7
 50
180.0
 51
270.0
  0
ARC
  8
0
 62
7
  6
CONTINUOUS
 10
138.2225768421
 20
86.0223227328
 40
2.7
 50
270.0
 51
360.0
  0
ARC
  8
0
 62
7
  6
CONTINUOUS
 10
128.8225768421
 20
90.7156679925
 40
0.3
 50
158.6113771722
 51
180.0
  0
ARC
  8
0
 62
7
  6
CONTINUOUS
 10
115.2225768421
 20
90.7156679925
 40
0.3
 50
0.0
 51
21.3886228278
  0
ARC
  8
0
 62
7
  6
CONTINUOUS
 10
140.6225768421
 20
90.7156679925
 40
0.3
 50
0.0
 51
21.3886228278
  0
ARC
  8
0
 62
7
  6
CONTINUOUS
 10
139.2225768421
 20
97.8547888883
 40
2.1
 50
180.0
 51
201.3886228278
  0
ARC
  8
0
 62
7
  6
CONTINUOUS
 10
130.2225768421
 20
97.8547888883
 40
2.1
 50
338.6113771722
 51
359.9998673402
  0
ARC
  8
0
 62
7
  6
CONTINUOUS
 10
136.4225768421
 20
94.9723227328
 40
1.0
 50
270.0
 51
360.0
  0
ARC
  8
0
 62
7
  6
CONTINUOUS
 10
133.0225768421
 20
94.9723227328
 40
1.0
 50
180.0
 51
270.0
  0
ARC
  8
0
 62
7
  6
CONTINUOUS
 10
130.2225768421
 20
97.8547888883
 40
1.0
 50
338.6113771722
 51
360.0
  0
ARC
  8
0
 62
7
  6
CONTINUOUS
 10
113.8225768421
 20
97.8547888883
 40
1.0
 50
180.0
 51
201.3886228278
  0
ARC
  8
0
 62
7
  6
CONTINUOUS
 10
133.0225768421
 20
96.5033991254
 40
1.0
 50
158.6113771722
 51
180.0
  0
ARC
  8
0
 62
7
  6
CONTINUOUS
 10
136.4225768421
 20
96.5033991254
 40
1.0
 50
0.0
 51
21.3886228278
  0
ARC
  8
0
 62
7
  6
CONTINUOUS
 10
104.8248644916
 20
97.8543134129
 40
1.0
 50
338.61
 51
360.0
  0
ARC
  8
0
 62
7
  6
CONTINUOUS
 10
139.2225768421
 20
97.8547888883
 40
1.0
 50
180.0
 51
201.3886228278
  0
ARC
  8
0
 62
7
  6
CONTINUOUS
 10
163.6225768421
 20
86.0223227328
 40
2.7
 50
270.0
 51
360.0
  0
ARC
  8
0
 62
7
  6
CONTINUOUS
 10
182.0225768421
 20
86.0223227328
 40
2.7
 50
180.0
 51
270.0
  0
ARC
  8
0
 62
7
  6
CONTINUOUS
 10
156.6225768421
 20
86.0223227328
 40
2.7
 50
180.0
 51
270.0
  0
ARC
  8
0
 62
7
  6
CONTINUOUS
 10
179.6225768421
 20
90.7156679925
 40
0.3
 50
158.6113771722
 51
180.0
  0
ARC
  8
0
 62
7
  6
CONTINUOUS
 10
166.0225768421
 20
90.7156679925
 40
0.3
 50
0.0
 51
21.3886228278
  0
ARC
  8
0
 62
7
  6
CONTINUOUS
 10
154.2225768421
 20
90.7156679925
 40
0.3
 50
158.6113771722
 51
180.0
  0
ARC
  8
0
 62
7
  6
CONTINUOUS
 10
181.0225768421
 20
97.8547888883
 40
2.1
 50
338.6113771722
 51
360.0
  0
ARC
  8
0
 62
7
  6
CONTINUOUS
 10
164.6225768421
 20
97.8547888883
 40
2.1
 50
180.0
 51
201.3886228278
  0
ARC
  8
0
 62
7
  6
CONTINUOUS
 10
155.6225768421
 20
97.8547888883
 40
2.1
 50
338.6113771722
 51
360.0
  0
ARC
  8
0
 62
7
  6
CONTINUOUS
 10
164.6225768421
 20
97.8547888883
 40
1.0
 50
180.0
 51
201.3886228278
  0
ARC
  8
0
 62
7
  6
CONTINUOUS
 10
181.0225768421
 20
97.8547888883
 40
1.0
 50
338.6113771722
 51
360.0
  0
ARC
  8
0
 62
7
  6
CONTINUOUS
 10
183.8225768421
 20
94.9723227328
 40
1.0
 50
180.0
 51
270.0
  0
ARC
  8
0
 62
7
  6
CONTINUOUS
 10
161.8225768421
 20
94.9723227328
 40
1.0
 50
270.0
 51
360.0
  0
ARC
  8
0
 62
7
  6
CONTINUOUS
 10
158.4225768421
 20
94.9723227328
 40
1.0
 50
180.0
 51
270.0
  0
ARC
  8
0
 62
7
  6
CONTINUOUS
 10
158.4225768421
 20
96.5033991254
 40
1.0
 50
158.6113771722
 51
180.0
  0
ARC
  8
0
 62
7
  6
CONTINUOUS
 10
161.8225768421
 20
96.5033991254
 40
1.0
 50
0.0
 51
21.3886228278
  0
ARC
  8
0
 62
7
  6
CONTINUOUS
 10
183.8225768421
 20
96.5033991254
 40
1.0
 50
158.6113771722
 51
180.0
  0
ARC
  8
0
 62
7
  6
CONTINUOUS
 10
155.6225768421
 20
97.8547888883
 40
1.0
 50
338.6113771722
 51
360.0
  0
ARC
  8
0
 62
7
  6
CONTINUOUS
 10
180.0225768421
 20
111.9223227328
 40
3.1
 50
0.0
 51
90.0
  0
ARC
  8
0
 62
7
  6
CONTINUOUS
 10
165.6225768421
 20
111.9223227328
 40
3.1
 50
90.0
 51
180.0
  0
ARC
  8
0
 62
7
  6
CONTINUOUS
 10
154.6225768421
 20
111.9223227328
 40
3.1
 50
0.0
 51
90.0
  0
ARC
  8
0
 62
7
  6
CONTINUOUS
 10
140.2225768421
 20
111.9223227328
 40
3.1
 50
90.0
 51
180.0
  0
ARC
  8
0
 62
7
  6
CONTINUOUS
 10
134.8226140716
 20
113.9342231911
 40
2.5
 50
90.0
 51
179.9998673402
  0
ARC
  8
0
 62
7
  6
CONTINUOUS
 10
165.6225768421
 20
111.9223227328
 40
2.0
 50
90.0
 51
180.0
  0
ARC
  8
0
 62
7
  6
CONTINUOUS
 10
180.0225768421
 20
111.9223227328
 40
2.0
 50
0.0
 51
90.0
  0
ARC
  8
0
 62
7
  6
CONTINUOUS
 10
129.2225768421
 20
111.9223227328
 40
2.0
 50
0.0
 51
90.0
  0
ARC
  8
0
 62
7
  6
CONTINUOUS
 10
114.8225768421
 20
111.9223227328
 40
2.0
 50
90.0
 51
180.0
  0
ARC
  8
0
 62
7
  6
CONTINUOUS
 10
140.2225768421
 20
111.9223227328
 40
2.0
 50
90.0
 51
180.0
  0
ARC
  8
0
 62
7
  6
CONTINUOUS
 10
154.6225768421
 20
111.9223227328
 40
2.0
 50
0.0
 51
90.0
  0
ARC
  8
0
 62
7
  6
CONTINUOUS
 10
33.5748644916
 20
123.8330320708
 40
4.0
 50
293.9379806067
 51
360.0
  0
ARC
  8
0
 62
7
  6
CONTINUOUS
 10
62.5248644916
 20
125.8441769823
 40
4.0
 50
315.0
 51
360.0
  0
ARC
  8
0
 62
7
  6
CONTINUOUS
 10
52.0067187411
 20
122.4123227328
 40
4.0
 50
225.0
 51
270.0
  0
ARC
  8
0
 62
7
  6
CONTINUOUS
 10
59.0930102421
 20
122.4123227328
 40
4.0
 50
270.0
 51
315.0
  0
ARC
  8
0
 62
7
  6
CONTINUOUS
 10
48.5748644916
 20
125.8441769823
 40
4.0
 50
180.0
 51
225.0
  0
ARC
  8
0
 62
7
  6
CONTINUOUS
 10
89.1248644916
 20
125.1191769823
 40
4.0
 50
315.0
 51
360.0
  0
ARC
  8
0
 62
7
  6
CONTINUOUS
 10
77.5248644916
 20
125.1191769823
 40
4.0
 50
180.0
 51
225.0
  0
ARC
  8
0
 62
7
  6
CONTINUOUS
 10
79.7817187411
 20
122.8623227328
 40
4.0
 50
225.0
 51
270.0
  0
ARC
  8
0
 62
7
  6
CONTINUOUS
 10
86.8680102421
 20
122.8623227328
 40
4.0
 50
270.0
 51
315.0
  0
ARC
  8
0
 62
7
  6
CONTINUOUS
 10
102.1248644916
 20
121.3476627665
 40
2.0
 50
180.0
 51
270.0
  0
ARC
  8
0
 62
7
  6
CONTINUOUS
 10
73.5248644916
 20
147.4223227328
 40
2.7
 50
0.0
 51
90.0
  0
ARC
  8
0
 62
7
  6
CONTINUOUS
 10
66.5248644916
 20
147.4223227328
 40
2.7
 50
90.0
 51
180.0
  0
ARC
  8
0
 62
7
  6
CONTINUOUS
 10
44.5748644916
 20
147.4223227328
 40
2.7
 50
0.0
 51
90.0
  0
ARC
  8
0
 62
7
  6
CONTINUOUS
 10
37.5748644916
 20
147.4223227328
 40
2.7
 50
90.0
 51
180.0
  0
ARC
  8
0
 62
7
  6
CONTINUOUS
 10
93.1248644916
 20
147.4223227328
 40
2.7
 50
90.0
 51
180.0
  0
ARC
  8
0
 62
7
  6
CONTINUOUS
 10
100.1248644916
 20
147.4223227328
 40
2.7
 50
0.0
 51
90.0
  0
ARC
  8
0
 62
7
  6
CONTINUOUS
 10
101.1248644916
 20
135.5903320527
 40
1.0
 50
158.61
 51
180.0
  0
ARC
  8
0
 62
7
  6
CONTINUOUS
 10
36.5748644916
 20
135.5903320527
 40
1.0
 50
0.0
 51
21.39
  0
ARC
  8
0
 62
7
  6
CONTINUOUS
 10
65.5248644916
 20
135.5903320527
 40
1.0
 50
0.0
 51
21.39
  0
ARC
  8
0
 62
7
  6
CONTINUOUS
 10
45.5748644916
 20
135.5903320527
 40
1.0
 50
158.61
 51
180.0
  0
ARC
  8
0
 62
7
  6
CONTINUOUS
 10
92.1248644916
 20
135.5903320527
 40
1.0
 50
0.0
 51
21.39
  0
ARC
  8
0
 62
7
  6
CONTINUOUS
 10
74.5248644916
 20
135.5903320527
 40
1.0
 50
158.61
 51
180.0
  0
ARC
  8
0
 62
7
  6
CONTINUOUS
 10
102.5248644916
 20
142.7289812071
 40
0.3
 50
338.61
 51
360.0
  0
ARC
  8
0
 62
7
  6
CONTINUOUS
 10
35.1748644916
 20
142.7289812071
 40
0.3
 50
180.0
 51
201.39
  0
ARC
  8
0
 62
7
  6
CONTINUOUS
 10
64.1248644916
 20
142.7289812071
 40
0.3
 50
180.0
 51
201.39
  0
ARC
  8
0
 62
7
  6
CONTINUOUS
 10
46.9748644916
 20
142.7289812071
 40
0.3
 50
338.61
 51
360.0
  0
ARC
  8
0
 62
7
  6
CONTINUOUS
 10
90.7248644916
 20
142.7289812071
 40
0.3
 50
180.0
 51
201.39
  0
ARC
  8
0
 62
7
  6
CONTINUOUS
 10
75.9248644916
 20
142.7289812071
 40
0.3
 50
338.61
 51
360.0
  0
ARC
  8
0
 62
7
  6
CONTINUOUS
 10
141.9225768421
 20
121.3476627665
 40
2.0
 50
270.0
 51
360.0
  0
ARC
  8
0
 62
7
  6
CONTINUOUS
 10
152.9225768421
 20
121.3476627665
 40
2.0
 50
180.0
 51
270.0
  0
ARC
  8
0
 62
7
  6
CONTINUOUS
 10
127.5225768421
 20
121.3476627665
 40
2.0
 50
180.0
 51
270.0
  0
ARC
  8
0
 62
7
  6
CONTINUOUS
 10
167.3225768421
 20
121.3476627665
 40
2.0
 50
270.0
 51
360.0
  0
ARC
  8
0
 62
7
  6
CONTINUOUS
 10
178.3225768421
 20
121.3476627665
 40
2.0
 50
180.0
 51
270.0
  0
ARC
  8
0
 62
7
  6
CONTINUOUS
 10
116.5225768421
 20
121.3476627665
 40
2.0
 50
270.0
 51
360.0
  0
ARC
  8
0
 62
7
  6
CONTINUOUS
 10
142.9225768421
 20
135.5903320527
 40
2.1
 50
0.0
 51
21.39
  0
ARC
  8
0
 62
7
  6
CONTINUOUS
 10
145.7225768421
 20
138.4723227328
 40
1.0
 50
90.0
 51
180.0
  0
ARC
  8
0
 62
7
  6
CONTINUOUS
 10
145.7225768421
 20
136.9417061869
 40
1.0
 50
180.0
 51
201.39
  0
ARC
  8
0
 62
7
  6
CONTINUOUS
 10
117.5225768421
 20
135.5903320527
 40
1.0
 50
0.0
 51
21.39
  0
ARC
  8
0
 62
7
  6
CONTINUOUS
 10
126.5225768421
 20
135.5903320527
 40
1.0
 50
158.61
 51
180.0
  0
ARC
  8
0
 62
7
  6
CONTINUOUS
 10
142.9225768421
 20
135.5903320527
 40
1.0
 50
0.0
 51
21.39
  0
ARC
  8
0
 62
7
  6
CONTINUOUS
 10
125.5225768421
 20
147.4223227328
 40
2.7
 50
0.0
 51
90.0
  0
ARC
  8
0
 62
7
  6
CONTINUOUS
 10
118.5225768421
 20
147.4223227328
 40
2.7
 50
90.0
 51
180.0
  0
ARC
  8
0
 62
7
  6
CONTINUOUS
 10
143.9225768421
 20
147.4223227328
 40
2.7
 50
90.0
 51
180.0
  0
ARC
  8
0
 62
7
  6
CONTINUOUS
 10
127.9225768421
 20
142.7289812071
 40
0.3
 50
338.61
 51
360.0
  0
ARC
  8
0
 62
7
  6
CONTINUOUS
 10
116.1225768421
 20
142.7289812071
 40
0.3
 50
180.0
 51
201.39
  0
ARC
  8
0
 62
7
  6
CONTINUOUS
 10
141.5225768421
 20
142.7289812071
 40
0.3
 50
180.0
 51
201.39
  0
ARC
  8
0
 62
7
  6
CONTINUOUS
 10
151.9225768421
 20
135.5903320527
 40
2.1
 50
158.61
 51
180.0
  0
ARC
  8
0
 62
7
  6
CONTINUOUS
 10
168.3225768421
 20
135.5903320527
 40
2.1
 50
0.0
 51
21.39
  0
ARC
  8
0
 62
7
  6
CONTINUOUS
 10
177.3225768421
 20
135.5903320527
 40
2.1
 50
158.61
 51
180.0
  0
ARC
  8
0
 62
7
  6
CONTINUOUS
 10
171.1225768421
 20
138.4723227328
 40
1.0
 50
90.0
 51
180.0
  0
ARC
  8
0
 62
7
  6
CONTINUOUS
 10
174.5225768421
 20
138.4723227328
 40
1.0
 50
0.0
 51
90.0
  0
ARC
  8
0
 62
7
  6
CONTINUOUS
 10
149.1225768421
 20
138.4723227328
 40
1.0
 50
0.0
 51
90.0
  0
ARC
  8
0
 62
7
  6
CONTINUOUS
 10
174.5225768421
 20
136.9417061869
 40
1.0
 50
338.61
 51
360.0
  0
ARC
  8
0
 62
7
  6
CONTINUOUS
 10
171.1225768421
 20
136.9417061869
 40
1.0
 50
180.0
 51
201.39
  0
ARC
  8
0
 62
7
  6
CONTINUOUS
 10
149.1225768421
 20
136.9417061869
 40
1.0
 50
338.61
 51
360.0
  0
ARC
  8
0
 62
7
  6
CONTINUOUS
 10
168.3225768421
 20
135.5903320527
 40
1.0
 50
0.0
 51
21.39
  0
ARC
  8
0
 62
7
  6
CONTINUOUS
 10
177.3225768421
 20
135.5903320527
 40
1.0
 50
158.61
 51
180.0
  0
ARC
  8
0
 62
7
  6
CONTINUOUS
 10
151.9225768421
 20
135.5903320527
 40
1.0
 50
158.61
 51
180.0
  0
ARC
  8
0
 62
7
  6
CONTINUOUS
 10
169.3225768421
 20
147.4223227328
 40
2.7
 50
90.0
 51
180.0
  0
ARC
  8
0
 62
7
  6
CONTINUOUS
 10
176.3225768421
 20
147.4223227328
 40
2.7
 50
0.0
 51
90.0
  0
ARC
  8
0
 62
7
  6
CONTINUOUS
 10
150.9225768421
 20
147.4223227328
 40
2.7
 50
0.0
 51
90.0
  0
ARC
  8
0
 62
7
  6
CONTINUOUS
 10
166.9225768421
 20
142.7289812071
 40
0.3
 50
180.0
 51
201.39
  0
ARC
  8
0
 62
7
  6
CONTINUOUS
 10
178.7225768421
 20
142.7289812071
 40
0.3
 50
338.61
 51
360.0
  0
ARC
  8
0
 62
7
  6
CONTINUOUS
 10
153.3225768421
 20
142.7289812071
 40
0.3
 50
338.61
 51
360.0
  0
ARC
  8
0
 62
7
  6
CONTINUOUS
 10
189.0225768421
 20
86.0223227328
 40
2.7
 50
270.0
 51
360.0
  0
ARC
  8
0
 62
7
  6
CONTINUOUS
 10
207.4225768421
 20
86.0223227328
 40
2.7
 50
180.0
 51
270.0
  0
ARC
  8
0
 62
7
  6
CONTINUOUS
 10
214.4225768421
 20
86.0223227328
 40
2.7
 50
270.0
 51
360.0
  0
ARC
  8
0
 62
7
  6
CONTINUOUS
 10
191.4225768421
 20
90.7156679925
 40
0.3
 50
0.0
 51
21.3886228278
  0
ARC
  8
0
 62
7
  6
CONTINUOUS
 10
205.0225768421
 20
90.7156679925
 40
0.3
 50
158.6113771722
 51
180.0
  0
ARC
  8
0
 62
7
  6
CONTINUOUS
 10
216.8225768421
 20
90.7156679925
 40
0.3
 50
0.0
 51
21.3886228278
  0
ARC
  8
0
 62
7
  6
CONTINUOUS
 10
215.4225768421
 20
97.8547888883
 40
2.1
 50
180.0
 51
201.3886228278
  0
ARC
  8
0
 62
7
  6
CONTINUOUS
 10
206.4225768421
 20
97.8547888883
 40
2.1
 50
338.6113771722
 51
360.0
  0
ARC
  8
0
 62
7
  6
CONTINUOUS
 10
190.0225768421
 20
97.8547888883
 40
2.1
 50
180.0
 51
201.3886228278
  0
ARC
  8
0
 62
7
  6
CONTINUOUS
 10
209.2225768421
 20
94.9723227328
 40
1.0
 50
180.0
 51
270.0
  0
ARC
  8
0
 62
7
  6
CONTINUOUS
 10
212.6225768421
 20
94.9723227328
 40
1.0
 50
270.0
 51
360.0
  0
ARC
  8
0
 62
7
  6
CONTINUOUS
 10
187.2225768421
 20
94.9723227328
 40
1.0
 50
270.0
 51
360.0
  0
ARC
  8
0
 62
7
  6
CONTINUOUS
 10
187.2225768421
 20
96.5033991254
 40
1.0
 50
0.0
 51
21.3886228278
  0
ARC
  8
0
 62
7
  6
CONTINUOUS
 10
209.2225768421
 20
96.5033991254
 40
1.0
 50
158.6113771722
 51
180.0
  0
ARC
  8
0
 62
7
  6
CONTINUOUS
 10
212.6225768421
 20
96.5033991254
 40
1.0
 50
0.0
 51
21.3886228278
  0
ARC
  8
0
 62
7
  6
CONTINUOUS
 10
190.0225768421
 20
97.8547888883
 40
1.0
 50
180.0
 51
201.3886228278
  0
ARC
  8
0
 62
7
  6
CONTINUOUS
 10
206.4225768421
 20
97.8547888883
 40
1.0
 50
338.6113771722
 51
360.0
  0
ARC
  8
0
 62
7
  6
CONTINUOUS
 10
215.4225768421
 20
97.8547888883
 40
1.0
 50
180.0
 51
201.3886228278
  0
ARC
  8
0
 62
7
  6
CONTINUOUS
 10
239.8225768421
 20
86.0223227328
 40
2.7
 50
270.0
 51
360.0
  0
ARC
  8
0
 62
7
  6
CONTINUOUS
 10
265.2202891926
 20
86.0223227328
 40
2.7
 50
270.0
 51
360.0
  0
ARC
  8
0
 62
7
  6
CONTINUOUS
 10
258.2225768421
 20
86.0223227328
 40
2.7
 50
180.0
 51
270.0
  0
ARC
  8
0
 62
7
  6
CONTINUOUS
 10
232.8225768421
 20
86.0223227328
 40
2.7
 50
180.0
 51
270.0
  0
ARC
  8
0
 62
7
  6
CONTINUOUS
 10
242.2225768421
 20
90.7156679925
 40
0.3
 50
0.0
 51
21.3886228278
  0
ARC
  8
0
 62
7
  6
CONTINUOUS
 10
255.8225768421
 20
90.7156679925
 40
0.3
 50
158.6113771722
 51
180.0
  0
ARC
  8
0
 62
7
  6
CONTINUOUS
 10
230.4225768421
 20
90.7156679925
 40
0.3
 50
158.6113771722
 51
180.0
  0
ARC
  8
0
 62
7
  6
CONTINUOUS
 10
266.2225768421
 20
97.8547888883
 40
2.1
 50
180.0
 51
201.3886228278
  0
ARC
  8
0
 62
7
  6
CONTINUOUS
 10
257.2225768421
 20
97.8547888883
 40
2.1
 50
338.6113771722
 51
360.0
  0
ARC
  8
0
 62
7
  6
CONTINUOUS
 10
240.8225768421
 20
97.8547888883
 40
2.1
 50
180.0
 51
201.3886228278
  0
ARC
  8
0
 62
7
  6
CONTINUOUS
 10
231.8225768421
 20
97.8547888883
 40
2.1
 50
338.6113771722
 51
360.0
  0
ARC
  8
0
 62
7
  6
CONTINUOUS
 10
257.2225768421
 20
97.8547888883
 40
1.0
 50
338.6113771722
 51
360.0
  0
ARC
  8
0
 62
7
  6
CONTINUOUS
 10
240.8225768421
 20
97.8547888883
 40
1.0
 50
180.0
 51
201.3886228278
  0
ARC
  8
0
 62
7
  6
CONTINUOUS
 10
266.2202891926
 20
97.8543134129
 40
1.0
 50
180.0
 51
201.39
  0
ARC
  8
0
 62
7
  6
CONTINUOUS
 10
260.0225768421
 20
94.9723227328
 40
1.0
 50
180.0
 51
270.0
  0
ARC
  8
0
 62
7
  6
CONTINUOUS
 10
263.4225768421
 20
94.9723227328
 40
1.0
 50
270.0
 51
360.0
  0
ARC
  8
0
 62
7
  6
CONTINUOUS
 10
234.6225768421
 20
94.9723227328
 40
1.0
 50
180.0
 51
270.0
  0
ARC
  8
0
 62
7
  6
CONTINUOUS
 10
238.0225768421
 20
94.9723227328
 40
1.0
 50
270.0
 51
360.0
  0
ARC
  8
0
 62
7
  6
CONTINUOUS
 10
234.6225768421
 20
96.5033991254
 40
1.0
 50
158.6113771722
 51
180.0
  0
ARC
  8
0
 62
7
  6
CONTINUOUS
 10
238.0225768421
 20
96.5033991254
 40
1.0
 50
0.0
 51
21.3886228278
  0
ARC
  8
0
 62
7
  6
CONTINUOUS
 10
260.0225768421
 20
96.5033991254
 40
1.0
 50
158.6113771722
 51
180.0
  0
ARC
  8
0
 62
7
  6
CONTINUOUS
 10
263.4225768421
 20
96.5033991254
 40
1.0
 50
0.0
 51
21.3886228278
  0
ARC
  8
0
 62
7
  6
CONTINUOUS
 10
231.8225768421
 20
97.8547888883
 40
1.0
 50
338.6113771722
 51
360.0
  0
ARC
  8
0
 62
7
  6
CONTINUOUS
 10
256.2225768421
 20
111.9223227328
 40
3.1
 50
0.0
 51
90.0
  0
ARC
  8
0
 62
7
  6
CONTINUOUS
 10
241.8225768421
 20
111.9223227328
 40
3.1
 50
90.0
 51
180.0
  0
ARC
  8
0
 62
7
  6
CONTINUOUS
 10
230.8225768421
 20
111.9223227328
 40
3.1
 50
0.0
 51
90.0
  0
ARC
  8
0
 62
7
  6
CONTINUOUS
 10
216.4225768421
 20
111.9223227328
 40
3.1
 50
90.0
 51
180.0
  0
ARC
  8
0
 62
7
  6
CONTINUOUS
 10
205.4225768421
 20
111.9223227328
 40
3.1
 50
0.0
 51
90.0
  0
ARC
  8
0
 62
7
  6
CONTINUOUS
 10
191.0225768421
 20
111.9223227328
 40
3.1
 50
90.0
 51
180.0
  0
ARC
  8
0
 62
7
  6
CONTINUOUS
 10
241.8225768421
 20
111.9223227328
 40
2.0
 50
90.0
 51
180.0
  0
ARC
  8
0
 62
7
  6
CONTINUOUS
 10
256.2225768421
 20
111.9223227328
 40
2.0
 50
0.0
 51
90.0
  0
ARC
  8
0
 62
7
  6
CONTINUOUS
 10
191.0225768421
 20
111.9223227328
 40
2.0
 50
90.0
 51
180.0
  0
ARC
  8
0
 62
7
  6
CONTINUOUS
 10
205.4225768421
 20
111.9223227328
 40
2.0
 50
0.0
 51
90.0
  0
ARC
  8
0
 62
7
  6
CONTINUOUS
 10
216.4225768421
 20
111.9223227328
 40
2.0
 50
90.0
 51
180.0
  0
ARC
  8
0
 62
7
  6
CONTINUOUS
 10
230.8225768421
 20
111.9223227328
 40
2.0
 50
0.0
 51
90.0
  0
ARC
  8
0
 62
7
  6
CONTINUOUS
 10
344.4725768421
 20
86.1590108397
 40
4.0
 50
274.3452193653
 51
360.0
  0
ARC
  8
0
 62
7
  6
CONTINUOUS
 10
290.6202891926
 20
86.0223227328
 40
2.7
 50
270.0
 51
360.0
  0
ARC
  8
0
 62
7
  6
CONTINUOUS
 10
283.6202891926
 20
86.0223227328
 40
2.7
 50
180.0
 51
270.0
  0
ARC
  8
0
 62
7
  6
CONTINUOUS
 10
318.4202891926
 20
86.0223227328
 40
2.7
 50
270.0
 51
360.0
  0
ARC
  8
0
 62
7
  6
CONTINUOUS
 10
311.4202891926
 20
86.0223227328
 40
2.7
 50
180.0
 51
270.0
  0
ARC
  8
0
 62
7
  6
CONTINUOUS
 10
319.4202891926
 20
97.8543134129
 40
1.0
 50
180.0
 51
201.39
  0
ARC
  8
0
 62
7
  6
CONTINUOUS
 10
282.6202891926
 20
97.8543134129
 40
1.0
 50
338.61
 51
360.0
  0
ARC
  8
0
 62
7
  6
CONTINUOUS
 10
310.4202891926
 20
97.8543134129
 40
1.0
 50
338.61
 51
360.0
  0
ARC
  8
0
 62
7
  6
CONTINUOUS
 10
291.6202891926
 20
97.8543134129
 40
1.0
 50
180.0
 51
201.39
  0
ARC
  8
0
 62
7
  6
CONTINUOUS
 10
320.8202891926
 20
90.7156642585
 40
0.3
 50
0.0
 51
21.39
  0
ARC
  8
0
 62
7
  6
CONTINUOUS
 10
281.2202891926
 20
90.7156642585
 40
0.3
 50
158.61
 51
180.0
  0
ARC
  8
0
 62
7
  6
CONTINUOUS
 10
267.6202891926
 20
90.7156642585
 40
0.3
 50
0.0
 51
21.39
  0
ARC
  8
0
 62
7
  6
CONTINUOUS
 10
309.0202891926
 20
90.7156642585
 40
0.3
 50
158.61
 51
180.0
  0
ARC
  8
0
 62
7
  6
CONTINUOUS
 10
293.0202891926
 20
90.7156642585
 40
0.3
 50
0.0
 51
21.39
  0
ARC
  8
0
 62
7
  6
CONTINUOUS
 10
339.0725768421
 20
98.2419379751
 40
0.3
 50
150.0
 51
180.0
  0
ARC
  8
0
 62
7
  6
CONTINUOUS
 10
335.4725768421
 20
106.659753709
 40
6.0
 50
0.0
 51
45.0
  0
ARC
  8
0
 62
7
  6
CONTINUOUS
 10
322.4202891926
 20
107.4904684833
 40
4.0
 50
135.0
 51
180.0
  0
ARC
  8
0
 62
7
  6
CONTINUOUS
 10
326.4021434421
 20
111.4723227328
 40
4.0
 50
90.0
 51
135.0
  0
ARC
  8
0
 62
7
  6
CONTINUOUS
 10
333.4884349431
 20
111.4723227328
 40
4.0
 50
45.0
 51
90.0
  0
ARC
  8
0
 62
7
  6
CONTINUOUS
 10
277.2634349431
 20
110.5723227328
 40
4.0
 50
45.0
 51
90.0
  0
ARC
  8
0
 62
7
  6
CONTINUOUS
 10
279.6202891926
 20
108.2154684833
 40
4.0
 50
0.0
 51
45.0
  0
ARC
  8
0
 62
7
  6
CONTINUOUS
 10
304.5634349431
 20
111.0723227328
 40
4.0
 50
45.0
 51
90.0
  0
ARC
  8
0
 62
7
  6
CONTINUOUS
 10
307.4202891926
 20
108.2154684833
 40
4.0
 50
0.0
 51
45.0
  0
ARC
  8
0
 62
7
  6
CONTINUOUS
 10
294.6202891926
 20
108.2154684833
 40
4.0
 50
135.0
 51
180.0
  0
ARC
  8
0
 62
7
  6
CONTINUOUS
 10
297.4771434421
 20
111.0723227328
 40
4.0
 50
90.0
 51
135.0
  0
ARC
  8
0
 62
7
  6
CONTINUOUS
 10
267.2225768421
 20
111.9223227328
 40
3.1
 50
90.0
 51
180.0
  0
ARC
  8
0
 62
7
  6
CONTINUOUS
 10
345.4725768421
 20
112.6217907293
 40
3.0
 50
0.0
 51
66.0620193933
  0
ARC
  8
0
 62
7
  6
CONTINUOUS
 10
267.2202891926
 20
112.5723227328
 40
2.0
 50
90.0
 51
180.0
  0
ARC
  8
0
 62
7
  6
CONTINUOUS
 10
340.4725768421
 20
103.2668091057
 40
1.0
 50
330.0
 51
360.0
  0
ARC
  8
0
 62
7
  6
CONTINUOUS
 10
229.1225768421
 20
121.3476627665
 40
2.0
 50
180.0
 51
270.0
  0
ARC
  8
0
 62
7
  6
CONTINUOUS
 10
218.1225768421
 20
121.3476627665
 40
2.0
 50
270.0
 51
360.0
  0
ARC
  8
0
 62
7
  6
CONTINUOUS
 10
192.7225768421
 20
121.3476627665
 40
2.0
 50
270.0
 51
360.0
  0
ARC
  8
0
 62
7
  6
CONTINUOUS
 10
203.7225768421
 20
121.3476627665
 40
2.0
 50
180.0
 51
270.0
  0
ARC
  8
0
 62
7
  6
CONTINUOUS
 10
254.5225768421
 20
121.3476627665
 40
2.0
 50
180.0
 51
270.0
  0
ARC
  8
0
 62
7
  6
CONTINUOUS
 10
243.5225768421
 20
121.3476627665
 40
2.0
 50
270.0
 51
360.0
  0
ARC
  8
0
 62
7
  6
CONTINUOUS
 10
193.7225768421
 20
135.5903320527
 40
2.1
 50
0.0
 51
21.39
  0
ARC
  8
0
 62
7
  6
CONTINUOUS
 10
202.7225768421
 20
135.5903320527
 40
2.1
 50
158.61
 51
180.0
  0
ARC
  8
0
 62
7
  6
CONTINUOUS
 10
219.1225768421
 20
135.5903320527
 40
2.1
 50
0.0
 51
21.39
  0
ARC
  8
0
 62
7
  6
CONTINUOUS
 10
196.5225768421
 20
138.4723227328
 40
1.0
 50
90.0
 51
180.0
  0
ARC
  8
0
 62
7
  6
CONTINUOUS
 10
199.9225768421
 20
138.4723227328
 40
1.0
 50
0.0
 51
90.0
  0
ARC
  8
0
 62
7
  6
CONTINUOUS
 10
221.9225768421
 20
138.4723227328
 40
1.0
 50
90.0
 51
180.0
  0
ARC
  8
0
 62
7
  6
CONTINUOUS
 10
221.9225768421
 20
136.9417061869
 40
1.0
 50
180.0
 51
201.39
  0
ARC
  8
0
 62
7
  6
CONTINUOUS
 10
199.9225768421
 20
136.9417061869
 40
1.0
 50
338.61
 51
360.0
  0
ARC
  8
0
 62
7
  6
CONTINUOUS
 10
196.5225768421
 20
136.9417061869
 40
1.0
 50
180.0
 51
201.39
  0
ARC
  8
0
 62
7
  6
CONTINUOUS
 10
219.1225768421
 20
135.5903320527
 40
1.0
 50
0.0
 51
21.39
  0
ARC
  8
0
 62
7
  6
CONTINUOUS
 10
202.7225768421
 20
135.5903320527
 40
1.0
 50
158.61
 51
180.0
  0
ARC
  8
0
 62
7
  6
CONTINUOUS
 10
193.7225768421
 20
135.5903320527
 40
1.0
 50
0.0
 51
21.39
  0
ARC
  8
0
 62
7
  6
CONTINUOUS
 10
194.7225768421
 20
147.4223227328
 40
2.7
 50
90.0
 51
180.0
  0
ARC
  8
0
 62
7
  6
CONTINUOUS
 10
201.7225768421
 20
147.4223227328
 40
2.7
 50
0.0
 51
90.0
  0
ARC
  8
0
 62
7
  6
CONTINUOUS
 10
220.1225768421
 20
147.4223227328
 40
2.7
 50
90.0
 51
180.0
  0
ARC
  8
0
 62
7
  6
CONTINUOUS
 10
217.7225768421
 20
142.7289812071
 40
0.3
 50
180.0
 51
201.39
  0
ARC
  8
0
 62
7
  6
CONTINUOUS
 10
204.1225768421
 20
142.7289812071
 40
0.3
 50
338.61
 51
360.0
  0
ARC
  8
0
 62
7
  6
CONTINUOUS
 10
192.3225768421
 20
142.7289812071
 40
0.3
 50
180.0
 51
201.39
  0
ARC
  8
0
 62
7
  6
CONTINUOUS
 10
228.1225768421
 20
135.5903320527
 40
2.1
 50
158.61
 51
180.0
  0
ARC
  8
0
 62
7
  6
CONTINUOUS
 10
244.5225768421
 20
135.5903320527
 40
2.1
 50
0.0
 51
21.39
  0
ARC
  8
0
 62
7
  6
CONTINUOUS
 10
253.5225768421
 20
135.5903320527
 40
2.1
 50
158.61
 51
180.0
  0
ARC
  8
0
 62
7
  6
CONTINUOUS
 10
225.3225768421
 20
138.4723227328
 40
1.0
 50
0.0
 51
90.0
  0
ARC
  8
0
 62
7
  6
CONTINUOUS
 10
247.3225768421
 20
138.4723227328
 40
1.0
 50
90.0
 51
180.0
  0
ARC
  8
0
 62
7
  6
CONTINUOUS
 10
250.7225768421
 20
138.4723227328
 40
1.0
 50
0.0
 51
90.0
  0
ARC
  8
0
 62
7
  6
CONTINUOUS
 10
250.7225768421
 20
136.9417061869
 40
1.0
 50
338.61
 51
360.0
  0
ARC
  8
0
 62
7
  6
CONTINUOUS
 10
247.3225768421
 20
136.9417061869
 40
1.0
 50
180.0
 51
201.39
  0
ARC
  8
0
 62
7
  6
CONTINUOUS
 10
225.3225768421
 20
136.9417061869
 40
1.0
 50
338.61
 51
360.0
  0
ARC
  8
0
 62
7
  6
CONTINUOUS
 10
244.5225768421
 20
135.5903320527
 40
1.0
 50
0.0
 51
21.39
  0
ARC
  8
0
 62
7
  6
CONTINUOUS
 10
253.5225768421
 20
135.5903320527
 40
1.0
 50
158.61
 51
180.0
  0
ARC
  8
0
 62
7
  6
CONTINUOUS
 10
228.1225768421
 20
135.5903320527
 40
1.0
 50
158.61
 51
180.0
  0
ARC
  8
0
 62
7
  6
CONTINUOUS
 10
245.5225768421
 20
147.4223227328
 40
2.7
 50
90.0
 51
180.0
  0
ARC
  8
0
 62
7
  6
CONTINUOUS
 10
252.5225768421
 20
147.4223227328
 40
2.7
 50
0.0
 51
90.0
  0
ARC
  8
0
 62
7
  6
CONTINUOUS
 10
227.1225768421
 20
147.4223227328
 40
2.7
 50
0.0
 51
90.0
  0
ARC
  8
0
 62
7
  6
CONTINUOUS
 10
254.9225768421
 20
142.7289812071
 40
0.3
 50
338.61
 51
360.0
  0
ARC
  8
0
 62
7
  6
CONTINUOUS
 10
243.1225768421
 20
142.7289812071
 40
0.3
 50
180.0
 51
201.39
  0
ARC
  8
0
 62
7
  6
CONTINUOUS
 10
229.5225768421
 20
142.7289812071
 40
0.3
 50
338.61
 51
360.0
  0
ARC
  8
0
 62
7
  6
CONTINUOUS
 10
319.0384349431
 20
122.4123227328
 40
4.0
 50
270.0
 51
315.0
  0
ARC
  8
0
 62
7
  6
CONTINUOUS
 10
291.2634349431
 20
122.8623227328
 40
4.0
 50
270.0
 51
315.0
  0
ARC
  8
0
 62
7
  6
CONTINUOUS
 10
311.9521434421
 20
122.4123227328
 40
4.0
 50
225.0
 51
270.0
  0
ARC
  8
0
 62
7
  6
CONTINUOUS
 10
284.1771434421
 20
122.8623227328
 40
4.0
 50
225.0
 51
270.0
  0
ARC
  8
0
 62
7
  6
CONTINUOUS
 10
337.4702891926
 20
123.8330320708
 40
4.0
 50
180.0
 51
246.0620193933
  0
ARC
  8
0
 62
7
  6
CONTINUOUS
 10
322.4702891926
 20
125.8441769823
 40
4.0
 50
315.0
 51
360.0
  0
ARC
  8
0
 62
7
  6
CONTINUOUS
 10
281.9202891926
 20
125.1191769823
 40
4.0
 50
180.0
 51
225.0
  0
ARC
  8
0
 62
7
  6
CONTINUOUS
 10
293.5202891926
 20
125.1191769823
 40
4.0
 50
315.0
 51
360.0
  0
ARC
  8
0
 62
7
  6
CONTINUOUS
 10
308.5202891926
 20
125.8441769823
 40
4.0
 50
180.0
 51
225.0
  0
ARC
  8
0
 62
7
  6
CONTINUOUS
 10
274.3225768421
 20
117.5223227328
 40
2.5
 50
270.0
 51
360.0
  0
ARC
  8
0
 62
7
  6
CONTINUOUS
 10
268.9202891926
 20
121.3476627665
 40
2.0
 50
270.0
 51
360.0
  0
ARC
  8
0
 62
7
  6
CONTINUOUS
 10
269.9225768421
 20
135.5903320527
 40
2.1
 50
0.0
 51
21.39
  0
ARC
  8
0
 62
7
  6
CONTINUOUS
 10
278.9225768421
 20
135.5903320527
 40
2.1
 50
158.61
 51
180.0
  0
ARC
  8
0
 62
7
  6
CONTINUOUS
 10
272.7225768421
 20
138.4723227328
 40
1.0
 50
90.0
 51
180.0
  0
ARC
  8
0
 62
7
  6
CONTINUOUS
 10
276.1225768421
 20
138.4723227328
 40
1.0
 50
0.0
 51
90.0
  0
ARC
  8
0
 62
7
  6
CONTINUOUS
 10
276.1225768421
 20
136.9417061869
 40
1.0
 50
338.61
 51
360.0
  0
ARC
  8
0
 62
7
  6
CONTINUOUS
 10
272.7225768421
 20
136.9417061869
 40
1.0
 50
180.0
 51
201.39
  0
ARC
  8
0
 62
7
  6
CONTINUOUS
 10
296.5202891926
 20
135.5903320527
 40
1.0
 50
0.0
 51
21.39
  0
ARC
  8
0
 62
7
  6
CONTINUOUS
 10
278.9202891926
 20
135.5903320527
 40
1.0
 50
158.6099999999
 51
180.0
  0
ARC
  8
0
 62
7
  6
CONTINUOUS
 10
269.9202891926
 20
135.5903320527
 40
1.0
 50
0.0
 51
21.39
  0
ARC
  8
0
 62
7
  6
CONTINUOUS
 10
297.5202891926
 20
147.4223227328
 40
2.7
 50
90.0
 51
180.0
  0
ARC
  8
0
 62
7
  6
CONTINUOUS
 10
277.9202891926
 20
147.4223227328
 40
2.7
 50
0.0
 51
90.0
  0
ARC
  8
0
 62
7
  6
CONTINUOUS
 10
270.9202891926
 20
147.4223227328
 40
2.7
 50
90.0
 51
180.0
  0
ARC
  8
0
 62
7
  6
CONTINUOUS
 10
268.5202891926
 20
142.7289812071
 40
0.3
 50
180.0
 51
201.39
  0
ARC
  8
0
 62
7
  6
CONTINUOUS
 10
280.3202891926
 20
142.7289812071
 40
0.3
 50
338.61
 51
360.0
  0
ARC
  8
0
 62
7
  6
CONTINUOUS
 10
295.1202891926
 20
142.7289812071
 40
0.3
 50
180.0
 51
201.39
  0
ARC
  8
0
 62
7
  6
CONTINUOUS
 10
334.4702891926
 20
135.5903320527
 40
1.0
 50
158.61
 51
180.0
  0
ARC
  8
0
 62
7
  6
CONTINUOUS
 10
325.4702891926
 20
135.5903320527
 40
1.0
 50
0.0
 51
21.39
  0
ARC
  8
0
 62
7
  6
CONTINUOUS
 10
305.5202891926
 20
135.5903320527
 40
1.0
 50
158.61
 51
180.0
  0
ARC
  8
0
 62
7
  6
CONTINUOUS
 10
304.5202891926
 20
147.4223227328
 40
2.7
 50
0.0
 51
90.0
  0
ARC
  8
0
 62
7
  6
CONTINUOUS
 10
333.4702891926
 20
147.4223227328
 40
2.7
 50
0.0
 51
90.0
  0
ARC
  8
0
 62
7
  6
CONTINUOUS
 10
326.4702891926
 20
147.4223227328
 40
2.7
 50
90.0
 51
180.0
  0
ARC
  8
0
 62
7
  6
CONTINUOUS
 10
335.8702891926
 20
142.7289812071
 40
0.3
 50
338.61
 51
360.0
  0
ARC
  8
0
 62
7
  6
CONTINUOUS
 10
306.9202891926
 20
142.7289812071
 40
0.3
 50
338.61
 51
360.0
  0
ARC
  8
0
 62
7
  6
CONTINUOUS
 10
324.0702891926
 20
142.7289812071
 40
0.3
 50
180.0
 51
201.39
  0
ARC
  8
0
 62
7
  6
CONTINUOUS
 10
30.1548311044
 20
191.1829793928
 40
2.0
 50
184.8613372875
 51
270.0
  0
ARC
  8
0
 62
7
  6
CONTINUOUS
 10
42.5725768421
 20
190.1829793928
 40
1.0
 50
270.0
 51
360.0
  0
ARC
  8
0
 62
7
  6
CONTINUOUS
 10
22.8725768421
 20
203.4829793928
 40
0.3
 50
180.0
 51
270.0
  0
ARC
  8
0
 62
7
  6
CONTINUOUS
 10
27.1402387028
 20
202.8829793928
 40
0.3
 50
3.4744073675
 51
90.0
  0
ARC
  8
0
 62
7
  6
CONTINUOUS
 10
43.3125768421
 20
193.9231880169
 40
0.26
 50
0.0
 51
90.0
  0
ARC
  8
0
 62
7
  6
CONTINUOUS
 10
87.4248644916
 20
205.8829793928
 40
2.7
 50
270.0
 51
360.0
  0
ARC
  8
0
 62
7
  6
CONTINUOUS
 10
59.6248644916
 20
205.8829793928
 40
2.7
 50
270.0
 51
360.0
  0
ARC
  8
0
 62
7
  6
CONTINUOUS
 10
80.4248644916
 20
205.8829793928
 40
2.7
 50
180.0
 51
270.0
  0
ARC
  8
0
 62
7
  6
CONTINUOUS
 10
52.6248644916
 20
205.8829793928
 40
2.7
 50
180.0
 51
270.0
  0
ARC
  8
0
 62
7
  6
CONTINUOUS
 10
80.4248644916
 20
215.4829793928
 40
2.7
 50
90.0
 51
180.0
  0
ARC
  8
0
 62
7
  6
CONTINUOUS
 10
87.4248644916
 20
215.4829793928
 40
2.7
 50
0.0
 51
90.0
  0
ARC
  8
0
 62
7
  6
CONTINUOUS
 10
59.6248644916
 20
215.4829793928
 40
2.7
 50
0.0
 51
90.0
  0
ARC
  8
0
 62
7
  6
CONTINUOUS
 10
52.6248644916
 20
215.4829793928
 40
2.7
 50
90.0
 51
180.0
  0
ARC
  8
0
 62
7
  6
CONTINUOUS
 10
22.8725768421
 20
217.8829793928
 40
0.3
 50
90.0
 51
180.0
  0
ARC
  8
0
 62
7
  6
CONTINUOUS
 10
31.9725768421
 20
217.8829793928
 40
0.3
 50
0.0
 51
90.0
  0
ARC
  8
0
 62
7
  6
CONTINUOUS
 10
163.6225768421
 20
205.8829793928
 40
2.7
 50
270.0
 51
360.0
  0
ARC
  8
0
 62
7
  6
CONTINUOUS
 10
182.0225768421
 20
205.8829793928
 40
2.7
 50
180.0
 51
270.0
  0
ARC
  8
0
 62
7
  6
CONTINUOUS
 10
112.8225768421
 20
205.8829793928
 40
2.7
 50
270.0
 51
360.0
  0
ARC
  8
0
 62
7
  6
CONTINUOUS
 10
131.2225768421
 20
205.8829793928
 40
2.7
 50
180.0
 51
270.0
  0
ARC
  8
0
 62
7
  6
CONTINUOUS
 10
105.8248644916
 20
205.8829793928
 40
2.7
 50
180.0
 51
270.0
  0
ARC
  8
0
 62
7
  6
CONTINUOUS
 10
138.2225768421
 20
205.8829793928
 40
2.7
 50
270.0
 51
360.0
  0
ARC
  8
0
 62
7
  6
CONTINUOUS
 10
156.6225768421
 20
205.8829793928
 40
2.7
 50
180.0
 51
270.0
  0
ARC
  8
0
 62
7
  6
CONTINUOUS
 10
182.0225768421
 20
215.4829793928
 40
2.7
 50
90.0
 51
180.0
  0
ARC
  8
0
 62
7
  6
CONTINUOUS
 10
163.6225768421
 20
215.4829793928
 40
2.7
 50
0.0
 51
90.0
  0
ARC
  8
0
 62
7
  6
CONTINUOUS
 10
112.8225768421
 20
215.4829793928
 40
2.7
 50
0.0
 51
90.0
  0
ARC
  8
0
 62
7
  6
CONTINUOUS
 10
131.2225768421
 20
215.4829793928
 40
2.7
 50
90.0
 51
180.0
  0
ARC
  8
0
 62
7
  6
CONTINUOUS
 10
105.8248644916
 20
215.4829793928
 40
2.7
 50
90.0
 51
180.0
  0
ARC
  8
0
 62
7
  6
CONTINUOUS
 10
138.2225768421
 20
215.4829793928
 40
2.7
 50
0.0
 51
90.0
  0
ARC
  8
0
 62
7
  6
CONTINUOUS
 10
156.6225768421
 20
215.4829793928
 40
2.7
 50
90.0
 51
180.0
  0
ARC
  8
0
 62
7
  6
CONTINUOUS
 10
340.8903225799
 20
191.1829793928
 40
2.0
 50
270.0
 51
355.1408288307
  0
ARC
  8
0
 62
7
  6
CONTINUOUS
 10
328.4725768421
 20
190.1829793928
 40
1.0
 50
180.0
 51
270.0
  0
ARC
  8
0
 62
7
  6
CONTINUOUS
 10
348.1725768421
 20
203.4829793928
 40
0.3
 50
270.0
 51
360.0
  0
ARC
  8
0
 62
7
  6
CONTINUOUS
 10
343.9049149814
 20
202.8829793928
 40
0.3
 50
90.0
 51
176.5255926325
  0
ARC
  8
0
 62
7
  6
CONTINUOUS
 10
327.7325768421
 20
193.9231880169
 40
0.26
 50
90.0
 51
180.0
  0
ARC
  8
0
 62
7
  6
CONTINUOUS
 10
258.2225768421
 20
205.8829793928
 40
2.7
 50
180.0
 51
270.0
  0
ARC
  8
0
 62
7
  6
CONTINUOUS
 10
239.8225768421
 20
205.8829793928
 40
2.7
 50
270.0
 51
360.0
  0
ARC
  8
0
 62
7
  6
CONTINUOUS
 10
265.2202891926
 20
205.8829793928
 40
2.7
 50
270.0
 51
360.0
  0
ARC
  8
0
 62
7
  6
CONTINUOUS
 10
207.4225768421
 20
205.8829793928
 40
2.7
 50
180.0
 51
270.0
  0
ARC
  8
0
 62
7
  6
CONTINUOUS
 10
189.0225768421
 20
205.8829793928
 40
2.7
 50
270.0
 51
360.0
  0
ARC
  8
0
 62
7
  6
CONTINUOUS
 10
232.8225768421
 20
205.8829793928
 40
2.7
 50
180.0
 51
270.0
  0
ARC
  8
0
 62
7
  6
CONTINUOUS
 10
214.4225768421
 20
205.8829793928
 40
2.7
 50
270.0
 51
360.0
  0
ARC
  8
0
 62
7
  6
CONTINUOUS
 10
239.8225768421
 20
215.4829793928
 40
2.7
 50
0.0
 51
90.0
  0
ARC
  8
0
 62
7
  6
CONTINUOUS
 10
265.2202891926
 20
215.4829793928
 40
2.7
 50
0.0
 51
90.0
  0
ARC
  8
0
 62
7
  6
CONTINUOUS
 10
258.2225768421
 20
215.4829793928
 40
2.7
 50
90.0
 51
180.0
  0
ARC
  8
0
 62
7
  6
CONTINUOUS
 10
189.0225768421
 20
215.4829793928
 40
2.7
 50
0.0
 51
90.0
  0
ARC
  8
0
 62
7
  6
CONTINUOUS
 10
207.4225768421
 20
215.4829793928
 40
2.7
 50
90.0
 51
180.0
  0
ARC
  8
0
 62
7
  6
CONTINUOUS
 10
232.8225768421
 20
215.4829793928
 40
2.7
 50
90.0
 51
180.0
  0
ARC
  8
0
 62
7
  6
CONTINUOUS
 10
214.4225768421
 20
215.4829793928
 40
2.7
 50
0.0
 51
90.0
  0
ARC
  8
0
 62
7
  6
CONTINUOUS
 10
283.6202891926
 20
205.8829793928
 40
2.7
 50
180.0
 51
270.0
  0
ARC
  8
0
 62
7
  6
CONTINUOUS
 10
311.4202891926
 20
205.8829793928
 40
2.7
 50
180.0
 51
270.0
  0
ARC
  8
0
 62
7
  6
CONTINUOUS
 10
318.4202891926
 20
205.8829793928
 40
2.7
 50
270.0
 51
360.0
  0
ARC
  8
0
 62
7
  6
CONTINUOUS
 10
290.6202891926
 20
205.8829793928
 40
2.7
 50
270.0
 51
360.0
  0
ARC
  8
0
 62
7
  6
CONTINUOUS
 10
283.6202891926
 20
215.4829793928
 40
2.7
 50
90.0
 51
180.0
  0
ARC
  8
0
 62
7
  6
CONTINUOUS
 10
311.4202891926
 20
215.4829793928
 40
2.7
 50
90.0
 51
180.0
  0
ARC
  8
0
 62
7
  6
CONTINUOUS
 10
318.4202891926
 20
215.4829793928
 40
2.7
 50
0.0
 51
90.0
  0
ARC
  8
0
 62
7
  6
CONTINUOUS
 10
290.6202891926
 20
215.4829793928
 40
2.7
 50
0.0
 51
90.0
  0
ARC
  8
0
 62
7
  6
CONTINUOUS
 10
348.1725768421
 20
217.8829793928
 40
0.3
 50
0.0
 51
90.0
  0
ARC
  8
0
 62
7
  6
CONTINUOUS
 10
339.0725768421
 20
217.8829793928
 40
0.3
 50
90.0
 51
180.0
  0
ARC
  8
0
 62
7
  6
CONTINUOUS
 10
269.1982769091
 20
116.6595777328
 40
130.0
 50
350.1348339513
 51
9.9215257614
  0
ARC
  8
0
 62
7
  6
CONTINUOUS
 10
269.1982769091
 20
116.6595777328
 40
129.4999999036
 50
351.65051584
 51
358.794111891
  0
ARC
  8
0
 62
7
  6
CONTINUOUS
 10
368.1982769091
 20
96.8573994666
 40
1.0
 50
92.0454084889
 51
180.0
  0
ARC
  8
0
 62
7
  6
CONTINUOUS
 10
368.1982769091
 20
89.7872459989
 40
1.0
 50
180.0
 51
267.9545915111
  0
ARC
  8
0
 62
7
  6
CONTINUOUS
 10
380.8982769091
 20
98.6117997126
 40
0.3
 50
272.0454084889
 51
360.0
  0
ARC
  8
0
 62
7
  6
CONTINUOUS
 10
388.8482769091
 20
90.6723227328
 40
7.35
 50
354.8071806008
 51
360.0
  0
CIRCLE
  8
0
 62
7
  6
CONTINUOUS
 10
388.6982769091
 20
91.3223227328
 40
4.5
  0
CIRCLE
  8
0
 62
7
  6
CONTINUOUS
 10
388.6982769091
 20
91.3223227328
 40
3.1
  0
ARC
  8
0
 62
7
  6
CONTINUOUS
 10
396.7834473592
 20
94.4723228037
 40
0.5
 50
269.9999985521
 51
350.1348256961
  0
ARC
  8
0
 62
7
  6
CONTINUOUS
 10
398.6962454676
 20
115.9342231911
 40
0.5
 50
359.6790735814
 51
90.0
  0
ARC
  8
0
 62
7
  6
CONTINUOUS
 10
388.6982769091
 20
125.6223227328
 40
3.1
 50
180.0
 51
360.0
  0
ARC
  8
0
 62
7
  6
CONTINUOUS
 10
388.5482769091
 20
142.7723227328
 40
7.35
 50
90.0
 51
180.0
  0
ARC
  8
0
 62
7
  6
CONTINUOUS
 10
388.6982769091
 20
142.1223227328
 40
3.1
 50
0.0
 51
180.0
  0
ARC
  8
0
 62
7
  6
CONTINUOUS
 10
388.8482769091
 20
142.7723227328
 40
7.35
 50
0.0
 51
90.0
  0
ARC
  8
0
 62
7
  6
CONTINUOUS
 10
396.7615608657
 20
138.9723226618
 40
0.5
 50
9.9215340204
 51
90.0000014566
  0
ENDSEC
  0
EOF
