  0
SECTION
  2
HEADER
  9
$EXTMAX
 10
420.0
 20
297.0
 30
0.0
  9
$EXTMIN
 10
0.0
 20
0.0
 30
0.0
  9
$LIMMIN
 10
0.0
 20
0.0
  9
$LIMMAX
 10
420.0
 20
297.0
  9
$VIEWCTR
 10
210.0
 20
148.5
  9
$VIEWSIZE
 40
297.0
  9
$CLAYER
  8
0
  9
$LTSCALE
 40
23.1
  9
$CELTYPE
  6
BYLAYER
  9
$DIMSCALE
 40
1.0
  9
$DIMASZ
 40
3.5
  9
$DIMEXO
 40
2.625
  9
$DIMDLI
 40
15.96
  9
$DIMEXE
 40
7.56
  9
$DIMCEN
 40
3.78
  9
$DIMLFAC
 40
1.0
  9
$DIMBLK
  1
_FILLED
  9
$DIMTXT
 40
3.5
  9
$PDMODE
 70
3
  9
$PDSIZE
 40
0.3125
  9
$TILEMODE
 70
1
  0
ENDSEC
  0
SECTION
  2
TABLES
  0
TABLE
  2
LTYPE
 70
6
  0
LTYPE
  2
BYBLOCK
 70
0
  3

 72
65
 73
0
 40
0.0
  0
LTYPE
  2
BYLAYER
 70
0
  3

 72
65
 73
0
 40
0.0
  0
LTYPE
  2
CONTINUOUS
 70
64
  3
Solid line
 72
65
 73
0
 40
0.0
  0
LTYPE
  2
CENTER
 70
64
  3
____ _ ____ _ ____ _ ____ _ ____ _ ____ _ ____
 72
65
 73
4
 40
0.6
 49
0.375
 49
-0.075
 49
0.075
 49
-0.075
  0
LTYPE
  2
HIDDEN
 70
64
  3
- - - - - - - - - - - - - - - - - - - -
 72
65
 73
2
 40
0.2
 49
0.1
 49
-0.1
  0
LTYPE
  2
PHANTOM
 70
64
  3
_____ _ _ _____ _ _ _____ _ _ _____
 72
65
 73
6
 40
0.8
 49
0.45
 49
-0.05
 49
0.1
 49
-0.05
 49
0.1
 49
-0.05
  0
LTYPE
  2
DOT
 70
64
  3
. . . . . . . . . . . . . . . . . . . .
 72
65
 73
2
 40
0.2
 49
0.1
 49
-0.1
  0
LTYPE
  2
DASHED
 70
64
  3
- - - - - - - - - - - - - - - - - - - -
 72
65
 73
2
 40
0.2
 49
0.1
 49
-0.1
  0
ENDTAB
  0
TABLE
  2
LAYER
 70
36
  0
LAYER
  2
0
 70
0
 62
7
  6
CONTINUOUS
  0
LAYER
  2
DEFAULT_1
 70
0
 62
7
  6
CENTER
  0
LAYER
  2
DEFAULT_2
 70
0
 62
8
  6
HIDDEN
  0
LAYER
  2
DEFAULT_3
 70
0
 62
7
  6
PHANTOM
  0
LAYER
  2
CURVE
 70
0
 62
7
  6
CONTINUOUS
  0
LAYER
  2
PLAN
 70
0
 62
7
  6
CONTINUOUS
  0
LAYER
  2
SURFACE
 70
0
 62
7
  6
CONTINUOUS
  0
LAYER
  2
SURF_ARBEJDE
 70
0
 62
7
  6
CONTINUOUS
  0
ENDTAB
  0
TABLE
  2
STYLE
 70
1
  0
STYLE
  2
STANDARD
 70
0
 40
0.0
 41
0.8
 50
0.0
 71
0
 42
0.2
  3
txt
  4

  0
STYLE
  2
TEXTSTYLE_1
 70
0
 40
0.0
 41
0.8
 50
0.0
 71
0
 42
0.2
  3
gdt
  4

  0
STYLE
  2
TEXTSTYLE_2
 70
0
 40
0.0
 41
0.6
 50
0.0
 71
0
 42
0.2
  3
txt
  4

  0
STYLE
  2
TEXTSTYLE_3
 70
0
 40
0.0
 41
1.0
 50
0.0
 71
0
 42
0.2
  3
ftb_____.ttf
  4

  0
STYLE
  2
TEXTSTYLE_4
 70
0
 40
0.0
 41
1.0
 50
0.0
 71
0
 42
0.2
  3
fti_____.ttf
  4

  0
STYLE
  2
TEXTSTYLE_5
 70
0
 40
0.0
 41
1.0
 50
0.0
 71
0
 42
0.2
  3
frutiger light.ttf
  4

  0
STYLE
  2
TEXTSTYLE_6
 70
0
 40
0.0
 41
0.7
 50
0.0
 71
0
 42
0.2
  3
txt
  4

  0
STYLE
  2
TEXTSTYLE_7
 70
0
 40
0.0
 41
0.45
 50
0.0
 71
0
 42
0.2
  3
txt
  4

  0
ENDTAB
  0
ENDSEC
  0
SECTION
  2
BLOCKS
  0
BLOCK
  8
0
 62
2
  6
CONTINUOUS
  2
SYMBOL_5_BL1
 70
64
 10
382.7840918555
 20
35.5067593403
  0
TEXT
  8
0
 62
7
  6
CONTINUOUS
 10
373.842376864
 20
30.5995157174
  7
TEXTSTYLE_4
 40
1.0655737705
  1
The brand for plastic modular belts and chains
 41
1.0
 72
0
  0
LINE
  8
0
 62
7
  6
CONTINUOUS
 10
358.7621602445
 20
36.0805298321
 11
358.7621602445
 21
33.9493822911
  0
LINE
  8
0
 62
7
  6
CONTINUOUS
 10
359.0512227376
 20
30.9584509954
 11
359.0512227376
 21
31.0552420547
  0
LINE
  8
0
 62
7
  6
CONTINUOUS
 10
358.7621602445
 20
31.0229783683
 11
358.8199727462
 21
30.8293962497
  0
LINE
  8
0
 62
7
  6
CONTINUOUS
 10
360.1556028675
 20
33.867415078
 11
360.1556028675
 21
36.0805298321
  0
LINE
  8
0
 62
7
  6
CONTINUOUS
 10
361.0746601894
 20
32.0231527829
 11
361.0746601894
 21
30.5067593403
  0
LINE
  8
0
 62
7
  6
CONTINUOUS
 10
361.3637227445
 20
30.5067593403
 11
361.3637227445
 21
31.2488242184
  0
LINE
  8
0
 62
7
  6
CONTINUOUS
 10
361.3637227445
 20
31.3778789641
 11
361.3637227445
 21
32.0231527829
  0
LINE
  8
0
 62
7
  6
CONTINUOUS
 10
358.8199727462
 20
31.216560532
 11
358.7621602445
 21
31.0229783683
  0
LINE
  8
0
 62
7
  6
CONTINUOUS
 10
359.1668477307
 20
30.7971325633
 11
359.0512227376
 21
30.9584509954
  0
LINE
  8
0
 62
7
  6
CONTINUOUS
 10
360.2652852997
 20
31.3133515913
 11
360.3230977445
 21
31.216560532
  0
LINE
  8
0
 62
7
  6
CONTINUOUS
 10
360.6121602997
 20
31.216560532
 11
360.5543476894
 21
31.3456152777
  0
LINE
  8
0
 62
7
  6
CONTINUOUS
 10
362.0408487691
 20
36.0805298321
 11
362.0408487691
 21
34.2772511436
  0
LINE
  8
0
 62
7
  6
CONTINUOUS
 10
362.0408487691
 20
32.9657757338
 11
362.0408487691
 21
32.3100380288
  0
LINE
  8
0
 62
7
  6
CONTINUOUS
 10
362.4043477445
 20
31.1520331591
 11
362.4043477445
 21
30.5067593403
  0
LINE
  8
0
 62
7
  6
CONTINUOUS
 10
362.6934101343
 20
30.5067593403
 11
362.6934101343
 21
31.1520331591
  0
LINE
  8
0
 62
7
  6
CONTINUOUS
 10
359.0512227376
 20
31.0552420547
 11
359.1090352445
 21
31.1842968456
  0
LINE
  8
0
 62
7
  6
CONTINUOUS
 10
358.8199727462
 20
30.8293962497
 11
358.9355977445
 21
30.7003414814
  0
LINE
  8
0
 62
7
  6
CONTINUOUS
 10
362.3465351343
 20
31.2810879048
 11
362.4043477445
 21
31.1520331591
  0
LINE
  8
0
 62
7
  6
CONTINUOUS
 10
363.1559103548
 20
30.7971325633
 11
363.2137226343
 21
30.668077795
  0
LINE
  8
0
 62
7
  6
CONTINUOUS
 10
362.6934101343
 20
31.1520331591
 11
362.6355978548
 21
31.3133515913
  0
LINE
  8
0
 62
7
  6
CONTINUOUS
 10
363.1559103548
 20
31.3456152777
 11
363.1559103548
 21
31.2810879048
  0
LINE
  8
0
 62
7
  6
CONTINUOUS
 10
363.1559103548
 20
30.8939236226
 11
363.1559103548
 21
30.7971325633
  0
LINE
  8
0
 62
7
  6
CONTINUOUS
 10
363.4342913921
 20
32.3100380288
 11
363.4342913921
 21
36.0805298321
  0
LINE
  8
0
 62
7
  6
CONTINUOUS
 10
363.4449727445
 20
30.7648688543
 11
363.4449727445
 21
30.8293962497
  0
LINE
  8
0
 62
7
  6
CONTINUOUS
 10
363.7621602445
 20
36.0805298321
 11
363.7621602445
 21
32.3100380288
  0
LINE
  8
0
 62
7
  6
CONTINUOUS
 10
360.5543476894
 20
30.7003414814
 11
360.6121602997
 21
30.8293962497
  0
LINE
  8
0
 62
7
  6
CONTINUOUS
 10
364.9480979651
 20
30.6035504109
 11
364.890285024
 21
30.7648688543
  0
LINE
  8
0
 62
7
  6
CONTINUOUS
 10
364.6012229651
 20
31.2810879048
 11
364.6012229651
 21
31.1842968456
  0
LINE
  8
0
 62
7
  6
CONTINUOUS
 10
364.6012229651
 20
31.0552420547
 11
364.6012229651
 21
30.8616599362
  0
LINE
  8
0
 62
7
  6
CONTINUOUS
 10
364.890285024
 20
30.7648688543
 11
364.890285024
 21
31.2810879048
  0
LINE
  8
0
 62
7
  6
CONTINUOUS
 10
365.1556028675
 20
32.3100380288
 11
365.1556028675
 21
34.1133167174
  0
LINE
  8
0
 62
7
  6
CONTINUOUS
 10
365.1556028675
 20
35.4247921272
 11
365.1556028675
 21
36.0805298321
  0
LINE
  8
0
 62
7
  6
CONTINUOUS
 10
365.4684104651
 20
32.0231527829
 11
365.4684104651
 21
31.8618343508
  0
LINE
  8
0
 62
7
  6
CONTINUOUS
 10
365.4684104651
 20
31.5391973962
 11
365.4684104651
 21
30.5067593403
  0
LINE
  8
0
 62
7
  6
CONTINUOUS
 10
365.757472524
 20
30.5067593403
 11
365.757472524
 21
31.5391973962
  0
LINE
  8
0
 62
7
  6
CONTINUOUS
 10
365.757472524
 20
31.8618343508
 11
365.757472524
 21
32.0231527829
  0
LINE
  8
0
 62
7
  6
CONTINUOUS
 10
360.3230977445
 20
30.8293962497
 11
360.2652852997
 21
30.7326051679
  0
LINE
  8
0
 62
7
  6
CONTINUOUS
 10
362.6355978548
 20
31.3133515913
 11
362.5777852445
 21
31.3778789641
  0
LINE
  8
0
 62
7
  6
CONTINUOUS
 10
363.5027853548
 20
30.7003414814
 11
363.4449727445
 21
30.7648688543
  0
LINE
  8
0
 62
7
  6
CONTINUOUS
 10
364.6590352445
 20
30.5712867188
 11
364.716847524
 21
30.5067593403
  0
LINE
  8
0
 62
7
  6
CONTINUOUS
 10
364.6012229651
 20
30.668077795
 11
364.6590352445
 21
30.5712867188
  0
LINE
  8
0
 62
7
  6
CONTINUOUS
 10
365.0059102445
 20
30.5067593403
 11
364.9480979651
 21
30.6035504109
  0
LINE
  8
0
 62
7
  6
CONTINUOUS
 10
364.890285024
 20
31.2810879048
 11
364.8324727445
 21
31.3778789641
  0
LINE
  8
0
 62
7
  6
CONTINUOUS
 10
366.2199727445
 20
31.5391973962
 11
366.2199727445
 21
30.5067593403
  0
LINE
  8
0
 62
7
  6
CONTINUOUS
 10
366.5090354651
 20
30.5067593403
 11
366.5090354651
 21
31.2488242184
  0
LINE
  8
0
 62
7
  6
CONTINUOUS
 10
366.5090354651
 20
31.3778789641
 11
366.5090354651
 21
31.5391973962
  0
LINE
  8
0
 62
7
  6
CONTINUOUS
 10
367.0408487691
 20
34.5231527829
 11
367.0408487691
 21
32.3100380288
  0
LINE
  8
0
 62
7
  6
CONTINUOUS
 10
358.9355977445
 20
31.3456152777
 11
358.8199727462
 21
31.216560532
  0
LINE
  8
0
 62
7
  6
CONTINUOUS
 10
359.1090352445
 20
31.1842968456
 11
359.1668477307
 21
31.2488242184
  0
LINE
  8
0
 62
7
  6
CONTINUOUS
 10
358.9355977445
 20
30.7003414814
 11
359.0512227376
 21
30.6358140973
  0
LINE
  8
0
 62
7
  6
CONTINUOUS
 10
359.3402852307
 20
30.7003414814
 11
359.1668477307
 21
30.7971325633
  0
LINE
  8
0
 62
7
  6
CONTINUOUS
 10
364.543410024
 20
31.3456152777
 11
364.6012229651
 21
31.2810879048
  0
LINE
  8
0
 62
7
  6
CONTINUOUS
 10
367.491847524
 20
31.2810879048
 11
367.5496604651
 21
31.1197694727
  0
LINE
  8
0
 62
7
  6
CONTINUOUS
 10
367.838722524
 20
31.1197694727
 11
367.7809102445
 21
31.2810879048
  0
LINE
  8
0
 62
7
  6
CONTINUOUS
 10
367.5496604651
 20
31.1197694727
 11
367.5496604651
 21
30.5067593403
  0
LINE
  8
0
 62
7
  6
CONTINUOUS
 10
367.838722524
 20
30.5067593403
 11
367.838722524
 21
31.1197694727
  0
LINE
  8
0
 62
7
  6
CONTINUOUS
 10
368.3012227445
 20
31.3456152777
 11
368.3012227445
 21
31.2810879048
  0
LINE
  8
0
 62
7
  6
CONTINUOUS
 10
368.4342913921
 20
32.3100380288
 11
368.4342913921
 21
34.4411855698
  0
LINE
  8
0
 62
7
  6
CONTINUOUS
 10
368.7621602445
 20
36.0805298321
 11
368.7621602445
 21
32.3100380288
  0
LINE
  8
0
 62
7
  6
CONTINUOUS
 10
363.4449727445
 20
30.8293962497
 11
363.5027853548
 21
30.926187309
  0
LINE
  8
0
 62
7
  6
CONTINUOUS
 10
359.0512227376
 20
30.6358140973
 11
359.2246602583
 21
30.5712867188
  0
LINE
  8
0
 62
7
  6
CONTINUOUS
 10
360.5543476894
 20
31.3456152777
 11
360.3809101894
 21
31.4424063369
  0
LINE
  8
0
 62
7
  6
CONTINUOUS
 10
363.2137226343
 20
30.668077795
 11
363.3871601343
 21
30.5712867188
  0
LINE
  8
0
 62
7
  6
CONTINUOUS
 10
362.2309102445
 20
31.3456152777
 11
362.3465351343
 21
31.2810879048
  0
LINE
  8
0
 62
7
  6
CONTINUOUS
 10
362.5777852445
 20
31.3778789641
 11
362.4621603548
 21
31.4424063369
  0
LINE
  8
0
 62
7
  6
CONTINUOUS
 10
368.3012227445
 20
30.7648688543
 11
368.4168479651
 21
30.6358140973
  0
LINE
  8
0
 62
7
  6
CONTINUOUS
 10
368.6480977445
 20
30.7003414814
 11
368.5902854651
 21
30.7648688543
  0
LINE
  8
0
 62
7
  6
CONTINUOUS
 10
368.3012227445
 20
31.2810879048
 11
368.4168479651
 21
31.1520331591
  0
LINE
  8
0
 62
7
  6
CONTINUOUS
 10
367.7809102445
 20
31.2810879048
 11
367.7230979651
 21
31.3778789641
  0
LINE
  8
0
 62
7
  6
CONTINUOUS
 10
370.1512223035
 20
30.7003414814
 11
370.1512223035
 21
30.7648688543
  0
LINE
  8
0
 62
7
  6
CONTINUOUS
 10
370.1556028675
 20
32.3100380288
 11
370.1556028675
 21
36.0805298321
  0
LINE
  8
0
 62
7
  6
CONTINUOUS
 10
363.2137226343
 20
31.4101426505
 11
363.1559103548
 21
31.3456152777
  0
LINE
  8
0
 62
7
  6
CONTINUOUS
 10
360.091847717
 20
31.3778789641
 11
360.2652852997
 21
31.3133515913
  0
LINE
  8
0
 62
7
  6
CONTINUOUS
 10
364.8324727445
 20
31.3778789641
 11
364.716847524
 21
31.4424063369
  0
LINE
  8
0
 62
7
  6
CONTINUOUS
 10
368.6480977445
 20
31.216560532
 11
368.5902854651
 21
31.2810879048
  0
LINE
  8
0
 62
7
  6
CONTINUOUS
 10
369.8043479651
 20
30.8293962497
 11
369.8621602445
 21
30.7648688543
  0
LINE
  8
0
 62
7
  6
CONTINUOUS
 10
370.1512223035
 20
30.7648688543
 11
370.0355977445
 21
30.8939236226
  0
LINE
  8
0
 62
7
  6
CONTINUOUS
 10
369.8043479651
 20
31.3456152777
 11
369.8621602445
 21
31.2810879048
  0
LINE
  8
0
 62
7
  6
CONTINUOUS
 10
370.1512223035
 20
31.2810879048
 11
370.0355977445
 21
31.4101426505
  0
LINE
  8
0
 62
7
  6
CONTINUOUS
 10
363.4449727445
 20
31.2810879048
 11
363.5027853548
 21
31.3456152777
  0
LINE
  8
0
 62
7
  6
CONTINUOUS
 10
363.2715352445
 20
31.0229783683
 11
363.1559103548
 21
30.8939236226
  0
LINE
  8
0
 62
7
  6
CONTINUOUS
 10
364.6012229651
 20
30.8616599362
 11
364.543410024
 21
30.7971325633
  0
LINE
  8
0
 62
7
  6
CONTINUOUS
 10
364.543410024
 20
30.6035504109
 11
364.6012229651
 21
30.668077795
  0
LINE
  8
0
 62
7
  6
CONTINUOUS
 10
363.3871601343
 20
30.5712867188
 11
363.5027853548
 21
30.5390230296
  0
LINE
  8
0
 62
7
  6
CONTINUOUS
 10
360.3809101894
 20
31.4424063369
 11
360.1496602445
 21
31.5069337098
  0
LINE
  8
0
 62
7
  6
CONTINUOUS
 10
363.7340351343
 20
30.6358140973
 11
363.5027853548
 21
30.7003414814
  0
LINE
  8
0
 62
7
  6
CONTINUOUS
 10
362.4621603548
 20
31.4424063369
 11
362.2887228548
 21
31.5069337098
  0
LINE
  8
0
 62
7
  6
CONTINUOUS
 10
364.716847524
 20
31.4424063369
 11
364.543410024
 21
31.5069337098
  0
LINE
  8
0
 62
7
  6
CONTINUOUS
 10
367.3762229651
 20
31.3456152777
 11
367.491847524
 21
31.2810879048
  0
LINE
  8
0
 62
7
  6
CONTINUOUS
 10
367.7230979651
 20
31.3778789641
 11
367.6074727445
 21
31.4424063369
  0
LINE
  8
0
 62
7
  6
CONTINUOUS
 10
359.2246602583
 20
30.5712867188
 11
359.3980977583
 21
30.5390230296
  0
LINE
  8
0
 62
7
  6
CONTINUOUS
 10
359.6871602721
 20
30.6358140973
 11
359.3402852307
 21
30.7003414814
  0
LINE
  8
0
 62
7
  6
CONTINUOUS
 10
362.1152853548
 20
31.3778789641
 11
362.2309102445
 21
31.3456152777
  0
LINE
  8
0
 62
7
  6
CONTINUOUS
 10
364.4277854651
 20
31.3778789641
 11
364.543410024
 21
31.3456152777
  0
LINE
  8
0
 62
7
  6
CONTINUOUS
 10
368.7637229651
 20
30.668077795
 11
368.6480977445
 21
30.7003414814
  0
LINE
  8
0
 62
7
  6
CONTINUOUS
 10
367.2605977445
 20
31.3778789641
 11
367.3762229651
 21
31.3456152777
  0
LINE
  8
0
 62
7
  6
CONTINUOUS
 10
368.4168479651
 20
30.6358140973
 11
368.5902854651
 21
30.5712867188
  0
LINE
  8
0
 62
7
  6
CONTINUOUS
 10
367.6074727445
 20
31.4424063369
 11
367.4340352445
 21
31.5069337098
  0
LINE
  8
0
 62
7
  6
CONTINUOUS
 10
368.8215352445
 20
31.1520331591
 11
368.6480977445
 21
31.216560532
  0
LINE
  8
0
 62
7
  6
CONTINUOUS
 10
369.6309104651
 20
30.8939236226
 11
369.8043479651
 21
30.8293962497
  0
LINE
  8
0
 62
7
  6
CONTINUOUS
 10
370.0355977445
 20
31.4101426505
 11
369.8621602445
 21
31.4746700234
  0
LINE
  8
0
 62
7
  6
CONTINUOUS
 10
368.4168479651
 20
31.1520331591
 11
368.6480977445
 21
31.0552420547
  0
LINE
  8
0
 62
7
  6
CONTINUOUS
 10
370.0355977445
 20
30.8939236226
 11
369.8043479651
 21
30.9907146818
  0
LINE
  8
0
 62
7
  6
CONTINUOUS
 10
368.5902854651
 20
31.2810879048
 11
368.6480977445
 21
31.3456152777
  0
LINE
  8
0
 62
7
  6
CONTINUOUS
 10
359.0512227376
 20
31.4101426505
 11
358.9355977445
 21
31.3456152777
  0
LINE
  8
0
 62
7
  6
CONTINUOUS
 10
359.1668477307
 20
31.2488242184
 11
359.3402852307
 21
31.3456152777
  0
LINE
  8
0
 62
7
  6
CONTINUOUS
 10
361.4793477997
 20
31.4424063369
 11
361.3637227445
 21
31.3778789641
  0
LINE
  8
0
 62
7
  6
CONTINUOUS
 10
361.3637227445
 20
31.2488242184
 11
361.4793477997
 21
31.3133515913
  0
LINE
  8
0
 62
7
  6
CONTINUOUS
 10
360.3809101894
 20
30.6035504109
 11
360.5543476894
 21
30.7003414814
  0
LINE
  8
0
 62
7
  6
CONTINUOUS
 10
359.3980977583
 20
30.5390230296
 11
359.744972717
 21
30.5067593403
  0
LINE
  8
0
 62
7
  6
CONTINUOUS
 10
363.5027853548
 20
30.5390230296
 11
363.7340351343
 21
30.5067593403
  0
LINE
  8
0
 62
7
  6
CONTINUOUS
 10
361.8840352445
 20
31.4101426505
 11
362.1152853548
 21
31.3778789641
  0
LINE
  8
0
 62
7
  6
CONTINUOUS
 10
364.1965353548
 20
31.4101426505
 11
364.4277854651
 21
31.3778789641
  0
LINE
  8
0
 62
7
  6
CONTINUOUS
 10
368.6480977445
 20
31.0552420547
 11
369.6309104651
 21
30.8939236226
  0
LINE
  8
0
 62
7
  6
CONTINUOUS
 10
369.8043479651
 20
30.9907146818
 11
368.8215352445
 21
31.1520331591
  0
LINE
  8
0
 62
7
  6
CONTINUOUS
 10
362.2887228548
 20
31.5069337098
 11
362.1152853548
 21
31.5391973962
  0
LINE
  8
0
 62
7
  6
CONTINUOUS
 10
368.5902854651
 20
30.5712867188
 11
368.7637229651
 21
30.5390230296
  0
LINE
  8
0
 62
7
  6
CONTINUOUS
 10
367.4340352445
 20
31.5069337098
 11
367.2605977445
 21
31.5391973962
  0
LINE
  8
0
 62
7
  6
CONTINUOUS
 10
369.6887227445
 20
31.3778789641
 11
369.8043479651
 21
31.3456152777
  0
LINE
  8
0
 62
7
  6
CONTINUOUS
 10
369.8621602445
 20
30.7648688543
 11
369.8043479651
 21
30.7003414814
  0
LINE
  8
0
 62
7
  6
CONTINUOUS
 10
368.4168479651
 20
31.4424063369
 11
368.3012227445
 21
31.3456152777
  0
LINE
  8
0
 62
7
  6
CONTINUOUS
 10
363.3293478548
 20
31.4746700234
 11
363.2137226343
 21
31.4101426505
  0
LINE
  8
0
 62
7
  6
CONTINUOUS
 10
363.3871601343
 20
31.0875057863
 11
363.2715352445
 21
31.0229783683
  0
LINE
  8
0
 62
7
  6
CONTINUOUS
 10
363.5027853548
 20
30.926187309
 11
363.6184102445
 21
30.9907146818
  0
LINE
  8
0
 62
7
  6
CONTINUOUS
 10
361.0746601894
 20
30.5067593403
 11
361.3637227445
 21
30.5067593403
  0
LINE
  8
0
 62
7
  6
CONTINUOUS
 10
362.4043477445
 20
30.5067593403
 11
362.6934101343
 21
30.5067593403
  0
LINE
  8
0
 62
7
  6
CONTINUOUS
 10
363.7340351343
 20
30.5067593403
 11
364.0809101343
 21
30.5067593403
  0
LINE
  8
0
 62
7
  6
CONTINUOUS
 10
364.716847524
 20
30.5067593403
 11
365.0059102445
 21
30.5067593403
  0
LINE
  8
0
 62
7
  6
CONTINUOUS
 10
365.4684104651
 20
30.5067593403
 11
365.757472524
 21
30.5067593403
  0
LINE
  8
0
 62
7
  6
CONTINUOUS
 10
366.2199727445
 20
30.5067593403
 11
366.5090354651
 21
30.5067593403
  0
LINE
  8
0
 62
7
  6
CONTINUOUS
 10
367.5496604651
 20
30.5067593403
 11
367.838722524
 21
30.5067593403
  0
LINE
  8
0
 62
7
  6
CONTINUOUS
 10
369.1105979651
 20
30.5067593403
 11
369.4574729651
 21
30.5067593403
  0
LINE
  8
0
 62
7
  6
CONTINUOUS
 10
369.4574729651
 20
30.6358140973
 11
369.1105979651
 21
30.6358140973
  0
LINE
  8
0
 62
7
  6
CONTINUOUS
 10
364.0809101343
 20
30.6358140973
 11
363.7340351343
 21
30.6358140973
  0
LINE
  8
0
 62
7
  6
CONTINUOUS
 10
368.5902854651
 20
30.7648688543
 11
368.3012227445
 21
30.7648688543
  0
LINE
  8
0
 62
7
  6
CONTINUOUS
 10
360.6121602997
 20
30.8293962497
 11
360.3230977445
 21
30.8293962497
  0
LINE
  8
0
 62
7
  6
CONTINUOUS
 10
359.6871602721
 20
31.4101426505
 11
360.091847717
 21
31.3778789641
  0
LINE
  8
0
 62
7
  6
CONTINUOUS
 10
360.1496602445
 20
31.5069337098
 11
359.744972717
 21
31.5391973962
  0
LINE
  8
0
 62
7
  6
CONTINUOUS
 10
368.7637229651
 20
30.5390230296
 11
369.1105979651
 21
30.5067593403
  0
LINE
  8
0
 62
7
  6
CONTINUOUS
 10
369.1105979651
 20
30.6358140973
 11
368.7637229651
 21
30.668077795
  0
LINE
  8
0
 62
7
  6
CONTINUOUS
 10
364.543410024
 20
31.5069337098
 11
364.1965353548
 21
31.5391973962
  0
LINE
  8
0
 62
7
  6
CONTINUOUS
 10
369.3418477445
 20
31.4101426505
 11
369.6887227445
 21
31.3778789641
  0
LINE
  8
0
 62
7
  6
CONTINUOUS
 10
369.6887227445
 20
31.5069337098
 11
369.3418477445
 21
31.5391973962
  0
LINE
  8
0
 62
7
  6
CONTINUOUS
 10
367.0293479651
 20
31.4101426505
 11
367.2605977445
 21
31.3778789641
  0
LINE
  8
0
 62
7
  6
CONTINUOUS
 10
369.8621602445
 20
31.4746700234
 11
369.6887227445
 21
31.5069337098
  0
LINE
  8
0
 62
7
  6
CONTINUOUS
 10
370.0355977445
 20
30.6035504109
 11
370.1512223035
 21
30.7003414814
  0
LINE
  8
0
 62
7
  6
CONTINUOUS
 10
364.543410024
 20
30.7971325633
 11
364.369972524
 21
30.7003414814
  0
LINE
  8
0
 62
7
  6
CONTINUOUS
 10
366.624660024
 20
31.4424063369
 11
366.5090354651
 21
31.3778789641
  0
LINE
  8
0
 62
7
  6
CONTINUOUS
 10
366.5090354651
 20
31.2488242184
 11
366.624660024
 21
31.3133515913
  0
LINE
  8
0
 62
7
  6
CONTINUOUS
 10
359.2246602583
 20
31.4746700234
 11
359.0512227376
 21
31.4101426505
  0
LINE
  8
0
 62
7
  6
CONTINUOUS
 10
361.6527851343
 20
31.5069337098
 11
361.4793477997
 21
31.4424063369
  0
LINE
  8
0
 62
7
  6
CONTINUOUS
 10
361.4793477997
 20
31.3133515913
 11
361.6527851343
 21
31.3778789641
  0
LINE
  8
0
 62
7
  6
CONTINUOUS
 10
360.2652852997
 20
30.7326051679
 11
360.091847717
 21
30.668077795
  0
LINE
  8
0
 62
7
  6
CONTINUOUS
 10
369.6887227445
 20
30.668077795
 11
369.4574729651
 21
30.6358140973
  0
LINE
  8
0
 62
7
  6
CONTINUOUS
 10
364.0809101343
 20
30.5067593403
 11
364.369972524
 21
30.5390230296
  0
LINE
  8
0
 62
7
  6
CONTINUOUS
 10
369.4574729651
 20
30.5067593403
 11
369.8043479651
 21
30.5390230296
  0
LINE
  8
0
 62
7
  6
CONTINUOUS
 10
359.744972717
 20
30.5067593403
 11
360.1496602445
 21
30.5390230296
  0
LINE
  8
0
 62
7
  6
CONTINUOUS
 10
360.091847717
 20
30.668077795
 11
359.6871602721
 21
30.6358140973
  0
LINE
  8
0
 62
7
  6
CONTINUOUS
 10
363.9652852445
 20
31.0552420547
 11
364.6012229651
 21
31.0552420547
  0
LINE
  8
0
 62
7
  6
CONTINUOUS
 10
364.6012229651
 20
31.1842968456
 11
363.9652852445
 21
31.1842968456
  0
LINE
  8
0
 62
7
  6
CONTINUOUS
 10
360.3230977445
 20
31.216560532
 11
360.6121602997
 21
31.216560532
  0
LINE
  8
0
 62
7
  6
CONTINUOUS
 10
363.1559103548
 20
31.2810879048
 11
363.4449727445
 21
31.2810879048
  0
LINE
  8
0
 62
7
  6
CONTINUOUS
 10
369.8621602445
 20
31.2810879048
 11
370.1512223035
 21
31.2810879048
  0
LINE
  8
0
 62
7
  6
CONTINUOUS
 10
363.8496603548
 20
31.4101426505
 11
364.1965353548
 21
31.4101426505
  0
LINE
  8
0
 62
7
  6
CONTINUOUS
 10
368.9949727445
 20
31.4101426505
 11
369.3418477445
 21
31.4101426505
  0
LINE
  8
0
 62
7
  6
CONTINUOUS
 10
369.3418477445
 20
31.5391973962
 11
368.9949727445
 21
31.5391973962
  0
LINE
  8
0
 62
7
  6
CONTINUOUS
 10
367.2605977445
 20
31.5391973962
 11
367.0293479651
 21
31.5391973962
  0
LINE
  8
0
 62
7
  6
CONTINUOUS
 10
366.5090354651
 20
31.5391973962
 11
366.2199727445
 21
31.5391973962
  0
LINE
  8
0
 62
7
  6
CONTINUOUS
 10
365.757472524
 20
31.5391973962
 11
365.4684104651
 21
31.5391973962
  0
LINE
  8
0
 62
7
  6
CONTINUOUS
 10
364.1965353548
 20
31.5391973962
 11
363.8496603548
 21
31.5391973962
  0
LINE
  8
0
 62
7
  6
CONTINUOUS
 10
362.1152853548
 20
31.5391973962
 11
361.8840352445
 21
31.5391973962
  0
LINE
  8
0
 62
7
  6
CONTINUOUS
 10
365.4684104651
 20
31.8618343508
 11
365.757472524
 21
31.8618343508
  0
LINE
  8
0
 62
7
  6
CONTINUOUS
 10
365.757472524
 20
32.0231527829
 11
365.4684104651
 21
32.0231527829
  0
LINE
  8
0
 62
7
  6
CONTINUOUS
 10
361.3637227445
 20
32.0231527829
 11
361.0746601894
 21
32.0231527829
  0
LINE
  8
0
 62
7
  6
CONTINUOUS
 10
360.4015045068
 20
32.3100380288
 11
360.8140758554
 21
32.3100380288
  0
LINE
  8
0
 62
7
  6
CONTINUOUS
 10
362.0408487691
 20
32.3100380288
 11
363.4342913921
 21
32.3100380288
  0
LINE
  8
0
 62
7
  6
CONTINUOUS
 10
363.7621602445
 20
32.3100380288
 11
365.1556028675
 21
32.3100380288
  0
LINE
  8
0
 62
7
  6
CONTINUOUS
 10
367.0408487691
 20
32.3100380288
 11
368.4342913921
 21
32.3100380288
  0
LINE
  8
0
 62
7
  6
CONTINUOUS
 10
368.7621602445
 20
32.3100380288
 11
370.1556028675
 21
32.3100380288
  0
LINE
  8
0
 62
7
  6
CONTINUOUS
 10
366.798097524
 20
31.5069337098
 11
366.624660024
 21
31.4424063369
  0
LINE
  8
0
 62
7
  6
CONTINUOUS
 10
364.369972524
 20
30.5390230296
 11
364.543410024
 21
30.6035504109
  0
LINE
  8
0
 62
7
  6
CONTINUOUS
 10
369.8043479651
 20
30.5390230296
 11
370.0355977445
 21
30.6035504109
  0
LINE
  8
0
 62
7
  6
CONTINUOUS
 10
369.8043479651
 20
30.7003414814
 11
369.6887227445
 21
30.668077795
  0
LINE
  8
0
 62
7
  6
CONTINUOUS
 10
368.7637229651
 20
31.3778789641
 11
368.9949727445
 21
31.4101426505
  0
LINE
  8
0
 62
7
  6
CONTINUOUS
 10
366.798097524
 20
31.3778789641
 11
367.0293479651
 21
31.4101426505
  0
LINE
  8
0
 62
7
  6
CONTINUOUS
 10
363.7340351343
 20
31.0229783683
 11
363.9652852445
 21
31.0552420547
  0
LINE
  8
0
 62
7
  6
CONTINUOUS
 10
367.0293479651
 20
31.5391973962
 11
366.798097524
 21
31.5069337098
  0
LINE
  8
0
 62
7
  6
CONTINUOUS
 10
363.6184102445
 20
31.3778789641
 11
363.8496603548
 21
31.4101426505
  0
LINE
  8
0
 62
7
  6
CONTINUOUS
 10
368.9949727445
 20
31.5391973962
 11
368.6480977445
 21
31.5069337098
  0
LINE
  8
0
 62
7
  6
CONTINUOUS
 10
363.9652852445
 20
31.1842968456
 11
363.6184102445
 21
31.1520331591
  0
LINE
  8
0
 62
7
  6
CONTINUOUS
 10
359.744972717
 20
31.5391973962
 11
359.3980977583
 21
31.5069337098
  0
LINE
  8
0
 62
7
  6
CONTINUOUS
 10
363.8496603548
 20
31.5391973962
 11
363.4449727445
 21
31.5069337098
  0
LINE
  8
0
 62
7
  6
CONTINUOUS
 10
361.221176638
 20
33.4575790124
 11
360.565438933
 21
33.4575790124
  0
LINE
  8
0
 62
7
  6
CONTINUOUS
 10
366.624660024
 20
31.3133515913
 11
366.798097524
 21
31.3778789641
  0
LINE
  8
0
 62
7
  6
CONTINUOUS
 10
368.6480977445
 20
31.3456152777
 11
368.7637229651
 21
31.3778789641
  0
LINE
  8
0
 62
7
  6
CONTINUOUS
 10
368.6480977445
 20
31.5069337098
 11
368.4168479651
 21
31.4424063369
  0
LINE
  8
0
 62
7
  6
CONTINUOUS
 10
364.369972524
 20
30.7003414814
 11
364.0809101343
 21
30.6358140973
  0
LINE
  8
0
 62
7
  6
CONTINUOUS
 10
361.6527851343
 20
31.3778789641
 11
361.8840352445
 21
31.4101426505
  0
LINE
  8
0
 62
7
  6
CONTINUOUS
 10
361.8840352445
 20
31.5391973962
 11
361.6527851343
 21
31.5069337098
  0
LINE
  8
0
 62
7
  6
CONTINUOUS
 10
359.4559102445
 20
31.3778789641
 11
359.6871602721
 21
31.4101426505
  0
LINE
  8
0
 62
7
  6
CONTINUOUS
 10
365.9752749986
 20
34.9329888485
 11
366.6310127035
 21
34.9329888485
  0
LINE
  8
0
 62
7
  6
CONTINUOUS
 10
363.6184102445
 20
30.9907146818
 11
363.7340351343
 21
31.0229783683
  0
LINE
  8
0
 62
7
  6
CONTINUOUS
 10
363.6184102445
 20
31.1520331591
 11
363.3871601343
 21
31.0875057863
  0
LINE
  8
0
 62
7
  6
CONTINUOUS
 10
363.5027853548
 20
31.3456152777
 11
363.6184102445
 21
31.3778789641
  0
LINE
  8
0
 62
7
  6
CONTINUOUS
 10
360.1496602445
 20
30.5390230296
 11
360.3809101894
 21
30.6035504109
  0
LINE
  8
0
 62
7
  6
CONTINUOUS
 10
363.4449727445
 20
31.5069337098
 11
363.3293478548
 21
31.4746700234
  0
LINE
  8
0
 62
7
  6
CONTINUOUS
 10
359.3980977583
 20
31.5069337098
 11
359.2246602583
 21
31.4746700234
  0
LINE
  8
0
 62
7
  6
CONTINUOUS
 10
370.1556028675
 20
36.0805298321
 11
368.7621602445
 21
36.0805298321
  0
LINE
  8
0
 62
7
  6
CONTINUOUS
 10
366.7949471298
 20
36.0805298321
 11
366.3823757812
 21
36.0805298321
  0
LINE
  8
0
 62
7
  6
CONTINUOUS
 10
365.1556028675
 20
36.0805298321
 11
363.7621602445
 21
36.0805298321
  0
LINE
  8
0
 62
7
  6
CONTINUOUS
 10
363.4342913921
 20
36.0805298321
 11
362.0408487691
 21
36.0805298321
  0
LINE
  8
0
 62
7
  6
CONTINUOUS
 10
360.1556028675
 20
36.0805298321
 11
358.7621602445
 21
36.0805298321
  0
LINE
  8
0
 62
7
  6
CONTINUOUS
 10
359.3402852307
 20
31.3456152777
 11
359.4559102445
 21
31.3778789641
  0
CIRCLE
  8
0
 62
7
  6
CONTINUOUS
 10
369.458881556
 20
38.4165954059
 40
2.0901639344
  0
ARC
  8
0
 62
7
  6
CONTINUOUS
 10
360.4015045068
 20
33.9493822911
 40
1.6393442623
 50
180.0
 51
270.0
  0
ARC
  8
0
 62
7
  6
CONTINUOUS
 10
366.7949471298
 20
34.4411855698
 40
1.6393442623
 50
0.0
 51
90.0
  0
ARC
  8
0
 62
7
  6
CONTINUOUS
 10
360.8140758554
 20
33.7854478649
 40
1.4754098361
 50
270.0
 51
326.2510114041
  0
ARC
  8
0
 62
7
  6
CONTINUOUS
 10
366.3823757812
 20
34.6051199961
 40
1.4754098361
 50
90.0
 51
146.2510114041
  0
ARC
  8
0
 62
7
  6
CONTINUOUS
 10
361.221176638
 20
34.2772511436
 40
0.8196721311
 50
270.0
 51
360.0
  0
ARC
  8
0
 62
7
  6
CONTINUOUS
 10
365.9752749986
 20
34.1133167174
 40
0.8196721311
 50
90.0
 51
180.0
  0
ARC
  8
0
 62
7
  6
CONTINUOUS
 10
360.565438933
 20
33.867415078
 40
0.4098360656
 50
180.0
 51
270.0
  0
ARC
  8
0
 62
7
  6
CONTINUOUS
 10
366.6310127035
 20
34.5231527829
 40
0.4098360656
 50
0.0
 51
90.0
  0
SOLID
  8
0
 62
7
  6
CONTINUOUS
 10
365.4684104651
 20
31.8618347111
 11
365.4684104651
 21
32.0231531947
 12
365.757472524
 22
31.8618347111
 13
365.757472524
 23
32.0231531947
  0
SOLID
  8
0
 62
7
  6
CONTINUOUS
 10
359.744972717
 20
31.5391977439
 11
360.1496602445
 21
31.5069333244
 12
359.3980977583
 22
31.5069333244
 13
359.3980977583
 23
31.5069333244
  0
SOLID
  8
0
 62
7
  6
CONTINUOUS
 10
359.2246602583
 20
31.4746706537
 11
359.3980977583
 21
31.5069333244
 12
360.1496602445
 22
31.5069333244
 13
360.1496602445
 23
31.5069333244
  0
SOLID
  8
0
 62
7
  6
CONTINUOUS
 10
360.1496602445
 20
31.5069333244
 11
360.3809101894
 21
31.4424063504
 12
359.2246602583
 22
31.4746706537
 13
359.2246602583
 23
31.4746706537
  0
SOLID
  8
0
 62
7
  6
CONTINUOUS
 10
359.0512227376
 20
31.4101419116
 11
359.2246602583
 21
31.4746706537
 12
360.3809101894
 22
31.4424063504
 13
360.3809101894
 23
31.4424063504
  0
SOLID
  8
0
 62
7
  6
CONTINUOUS
 10
359.0512227376
 20
31.4101419116
 11
360.3809101894
 21
31.4424063504
 12
359.6871602721
 22
31.4101419116
 13
359.6871602721
 23
31.4101419116
  0
SOLID
  8
0
 62
7
  6
CONTINUOUS
 10
359.6871602721
 20
31.4101419116
 11
360.3809101894
 21
31.4424063504
 12
360.091847717
 22
31.3778792603
 13
360.091847717
 23
31.3778792603
  0
SOLID
  8
0
 62
7
  6
CONTINUOUS
 10
360.3809101894
 20
31.4424063504
 11
360.5543476894
 21
31.345614957
 12
360.091847717
 22
31.3778792603
 13
360.091847717
 23
31.3778792603
  0
SOLID
  8
0
 62
7
  6
CONTINUOUS
 10
360.2652852997
 20
31.3133521701
 11
360.091847717
 21
31.3778792603
 12
360.5543476894
 22
31.345614957
 13
360.5543476894
 23
31.345614957
  0
SOLID
  8
0
 62
7
  6
CONTINUOUS
 10
360.2652852997
 20
31.3133521701
 11
360.5543476894
 21
31.345614957
 12
360.3230977445
 22
31.2165606992
 13
360.3230977445
 23
31.2165606992
  0
SOLID
  8
0
 62
7
  6
CONTINUOUS
 10
360.5543476894
 20
31.345614957
 11
360.6121602997
 21
31.2165606992
 12
360.3230977445
 22
31.2165606992
 13
360.3230977445
 23
31.2165606992
  0
SOLID
  8
0
 62
7
  6
CONTINUOUS
 10
361.6527851343
 20
31.5069329918
 11
361.8840352445
 21
31.5391972951
 12
362.1152853548
 22
31.5391972951
 13
362.1152853548
 23
31.5391972951
  0
SOLID
  8
0
 62
7
  6
CONTINUOUS
 10
362.1152853548
 20
31.5391972951
 11
362.2887228548
 21
31.5069329918
 12
361.6527851343
 22
31.5069329918
 13
361.6527851343
 23
31.5069329918
  0
SOLID
  8
0
 62
7
  6
CONTINUOUS
 10
361.4793477997
 20
31.4424059016
 11
361.6527851343
 21
31.5069329918
 12
362.2887228548
 22
31.5069329918
 13
362.2887228548
 23
31.5069329918
  0
SOLID
  8
0
 62
7
  6
CONTINUOUS
 10
362.2887228548
 20
31.5069329918
 11
362.4621603548
 21
31.4424059016
 12
361.4793477997
 22
31.4424059016
 13
361.4793477997
 23
31.4424059016
  0
SOLID
  8
0
 62
7
  6
CONTINUOUS
 10
362.4621603548
 20
31.4424059016
 11
361.8840352445
 21
31.4101420472
 12
361.4793477997
 22
31.4424059016
 13
361.4793477997
 23
31.4424059016
  0
SOLID
  8
0
 62
7
  6
CONTINUOUS
 10
361.3637227445
 20
31.3778788115
 11
361.4793477997
 21
31.4424059016
 12
361.8840352445
 22
31.4101420472
 13
361.8840352445
 23
31.4101420472
  0
SOLID
  8
0
 62
7
  6
CONTINUOUS
 10
361.8840352445
 20
31.4101420472
 11
361.6527851343
 21
31.3778788115
 12
361.3637227445
 22
31.3778788115
 13
361.3637227445
 23
31.3778788115
  0
SOLID
  8
0
 62
7
  6
CONTINUOUS
 10
361.8840352445
 20
31.4101420472
 11
362.4621603548
 21
31.4424059016
 12
362.1152853548
 22
31.3778788115
 13
362.1152853548
 23
31.3778788115
  0
SOLID
  8
0
 62
7
  6
CONTINUOUS
 10
362.4621603548
 20
31.4424059016
 11
362.5777852445
 21
31.3778788115
 12
362.1152853548
 22
31.3778788115
 13
362.1152853548
 23
31.3778788115
  0
SOLID
  8
0
 62
7
  6
CONTINUOUS
 10
362.2309102445
 20
31.345614957
 11
362.1152853548
 21
31.3778788115
 12
362.5777852445
 22
31.3778788115
 13
362.5777852445
 23
31.3778788115
  0
SOLID
  8
0
 62
7
  6
CONTINUOUS
 10
362.5777852445
 20
31.3778788115
 11
362.6355978548
 21
31.3133517213
 12
362.2309102445
 22
31.345614957
 13
362.2309102445
 23
31.345614957
  0
SOLID
  8
0
 62
7
  6
CONTINUOUS
 10
362.3465351343
 20
31.2810878668
 11
362.2309102445
 21
31.345614957
 12
362.6355978548
 22
31.3133517213
 13
362.6355978548
 23
31.3133517213
  0
SOLID
  8
0
 62
7
  6
CONTINUOUS
 10
362.3465351343
 20
31.2810878668
 11
362.6355978548
 21
31.3133517213
 12
362.4043477445
 22
31.1520332377
 13
362.4043477445
 23
31.1520332377
  0
SOLID
  8
0
 62
7
  6
CONTINUOUS
 10
362.6355978548
 20
31.3133517213
 11
362.6934101343
 21
31.1520332377
 12
362.4043477445
 22
31.1520332377
 13
362.4043477445
 23
31.1520332377
  0
SOLID
  8
0
 62
7
  6
CONTINUOUS
 10
361.6527851343
 20
31.3778788115
 11
361.4793477997
 21
31.3133517213
 12
361.3637227445
 22
31.3778788115
 13
361.3637227445
 23
31.3778788115
  0
SOLID
  8
0
 62
7
  6
CONTINUOUS
 10
361.4793477997
 20
31.3133517213
 11
361.3637227445
 21
31.2488235635
 12
361.3637227445
 22
31.3778788115
 13
361.3637227445
 23
31.3778788115
  0
SOLID
  8
0
 62
7
  6
CONTINUOUS
 10
361.3637227445
 20
31.2488235635
 11
361.0746601894
 21
30.5067593033
 12
361.3637227445
 22
31.3778788115
 13
361.3637227445
 23
31.3778788115
  0
SOLID
  8
0
 62
7
  6
CONTINUOUS
 10
361.3637227445
 20
31.3778788115
 11
361.0746601894
 21
30.5067593033
 12
361.3637227445
 22
32.0231527459
 13
361.3637227445
 23
32.0231527459
  0
SOLID
  8
0
 62
7
  6
CONTINUOUS
 10
361.0746601894
 20
30.5067593033
 11
361.0746601894
 21
32.0231527459
 12
361.3637227445
 22
32.0231527459
 13
361.3637227445
 23
32.0231527459
  0
SOLID
  8
0
 62
7
  6
CONTINUOUS
 10
361.3637227445
 20
31.2488235635
 11
361.3637227445
 21
30.5067593033
 12
361.0746601894
 22
30.5067593033
 13
361.0746601894
 23
30.5067593033
  0
SOLID
  8
0
 62
7
  6
CONTINUOUS
 10
362.4043477445
 20
30.5067593033
 11
362.4043477445
 21
31.1520332377
 12
362.6934101343
 22
31.1520332377
 13
362.6934101343
 23
31.1520332377
  0
SOLID
  8
0
 62
7
  6
CONTINUOUS
 10
362.6934101343
 20
31.1520332377
 11
362.6934101343
 21
30.5067593033
 12
362.4043477445
 22
30.5067593033
 13
362.4043477445
 23
30.5067593033
  0
SOLID
  8
0
 62
7
  6
CONTINUOUS
 10
363.4449727445
 20
31.506933758
 11
363.8496603548
 21
31.5391977507
 12
364.1965353548
 22
31.5391977507
 13
364.1965353548
 23
31.5391977507
  0
SOLID
  8
0
 62
7
  6
CONTINUOUS
 10
364.1965353548
 20
31.5391977507
 11
364.543410024
 21
31.506933758
 12
363.4449727445
 22
31.506933758
 13
363.4449727445
 23
31.506933758
  0
SOLID
  8
0
 62
7
  6
CONTINUOUS
 10
363.3293478548
 20
31.4746706537
 11
363.4449727445
 21
31.506933758
 12
364.543410024
 22
31.506933758
 13
364.543410024
 23
31.506933758
  0
SOLID
  8
0
 62
7
  6
CONTINUOUS
 10
364.543410024
 20
31.506933758
 11
364.716847524
 21
31.4424063504
 12
363.3293478548
 22
31.4746706537
 13
363.3293478548
 23
31.4746706537
  0
SOLID
  8
0
 62
7
  6
CONTINUOUS
 10
363.2137226343
 20
31.4101417797
 11
363.3293478548
 21
31.4746706537
 12
364.716847524
 22
31.4424063504
 13
364.716847524
 23
31.4424063504
  0
SOLID
  8
0
 62
7
  6
CONTINUOUS
 10
363.2137226343
 20
31.4101417797
 11
364.716847524
 21
31.4424063504
 12
363.8496603548
 22
31.4101417797
 13
363.8496603548
 23
31.4101417797
  0
SOLID
  8
0
 62
7
  6
CONTINUOUS
 10
363.8496603548
 20
31.4101417797
 11
364.716847524
 21
31.4424063504
 12
364.1965353548
 22
31.4101417797
 13
364.1965353548
 23
31.4101417797
  0
SOLID
  8
0
 62
7
  6
CONTINUOUS
 10
364.1965353548
 20
31.4101417797
 11
364.716847524
 21
31.4424063504
 12
364.4277854651
 22
31.3778793357
 13
364.4277854651
 23
31.3778793357
  0
SOLID
  8
0
 62
7
  6
CONTINUOUS
 10
364.716847524
 20
31.4424063504
 11
364.8324727445
 21
31.3778793357
 12
364.4277854651
 22
31.3778793357
 13
364.4277854651
 23
31.3778793357
  0
SOLID
  8
0
 62
7
  6
CONTINUOUS
 10
363.1559103548
 20
31.3456153429
 11
363.2137226343
 21
31.4101417797
 12
363.8496603548
 22
31.4101417797
 13
363.8496603548
 23
31.4101417797
  0
SOLID
  8
0
 62
7
  6
CONTINUOUS
 10
364.543410024
 20
31.3456153429
 11
364.4277854651
 21
31.3778793357
 12
364.8324727445
 22
31.3778793357
 13
364.8324727445
 23
31.3778793357
  0
SOLID
  8
0
 62
7
  6
CONTINUOUS
 10
364.543410024
 20
31.3456153429
 11
364.8324727445
 21
31.3778793357
 12
364.6012229651
 22
31.2810881318
 13
364.6012229651
 23
31.2810881318
  0
SOLID
  8
0
 62
7
  6
CONTINUOUS
 10
364.8324727445
 20
31.3778793357
 11
364.890285024
 21
31.2810881318
 12
364.6012229651
 22
31.2810881318
 13
364.6012229651
 23
31.2810881318
  0
SOLID
  8
0
 62
7
  6
CONTINUOUS
 10
364.6012229651
 20
31.1842964734
 11
364.6012229651
 21
31.2810881318
 12
364.890285024
 22
31.2810881318
 13
364.890285024
 23
31.2810881318
  0
SOLID
  8
0
 62
7
  6
CONTINUOUS
 10
364.6012229651
 20
31.1842964734
 11
364.890285024
 21
31.2810881318
 12
364.6012229651
 22
31.0552422931
 13
364.6012229651
 23
31.0552422931
  0
SOLID
  8
0
 62
7
  6
CONTINUOUS
 10
364.6012229651
 20
31.0552422931
 11
364.890285024
 21
31.2810881318
 12
364.6012229651
 22
30.8616599362
 13
364.6012229651
 23
30.8616599362
  0
SOLID
  8
0
 62
7
  6
CONTINUOUS
 10
364.890285024
 20
31.2810881318
 11
364.890285024
 21
30.7648681127
 12
364.6012229651
 22
30.8616599362
 13
364.6012229651
 23
30.8616599362
  0
SOLID
  8
0
 62
7
  6
CONTINUOUS
 10
366.798097524
 20
31.5069339419
 11
367.0293479651
 21
31.5391976292
 12
367.2605977445
 22
31.5391976292
 13
367.2605977445
 23
31.5391976292
  0
SOLID
  8
0
 62
7
  6
CONTINUOUS
 10
367.2605977445
 20
31.5391976292
 11
367.4340352445
 21
31.5069339419
 12
366.798097524
 22
31.5069339419
 13
366.798097524
 23
31.5069339419
  0
SOLID
  8
0
 62
7
  6
CONTINUOUS
 10
366.624660024
 20
31.4424065674
 11
366.798097524
 21
31.5069339419
 12
367.4340352445
 22
31.5069339419
 13
367.4340352445
 23
31.5069339419
  0
SOLID
  8
0
 62
7
  6
CONTINUOUS
 10
367.4340352445
 20
31.5069339419
 11
367.6074727445
 21
31.4424065674
 12
366.624660024
 22
31.4424065674
 13
366.624660024
 23
31.4424065674
  0
SOLID
  8
0
 62
7
  6
CONTINUOUS
 10
367.6074727445
 20
31.4424065674
 11
367.0293479651
 21
31.4101420472
 12
366.624660024
 22
31.4424065674
 13
366.624660024
 23
31.4424065674
  0
SOLID
  8
0
 62
7
  6
CONTINUOUS
 10
366.5090354651
 20
31.377879193
 11
366.624660024
 21
31.4424065674
 12
367.0293479651
 22
31.4101420472
 13
367.0293479651
 23
31.4101420472
  0
SOLID
  8
0
 62
7
  6
CONTINUOUS
 10
367.0293479651
 20
31.4101420472
 11
366.798097524
 21
31.377879193
 12
366.5090354651
 22
31.377879193
 13
366.5090354651
 23
31.377879193
  0
SOLID
  8
0
 62
7
  6
CONTINUOUS
 10
367.0293479651
 20
31.4101420472
 11
367.6074727445
 21
31.4424065674
 12
367.2605977445
 22
31.377879193
 13
367.2605977445
 23
31.377879193
  0
SOLID
  8
0
 62
7
  6
CONTINUOUS
 10
367.6074727445
 20
31.4424065674
 11
367.7230979651
 21
31.377879193
 12
367.2605977445
 22
31.377879193
 13
367.2605977445
 23
31.377879193
  0
SOLID
  8
0
 62
7
  6
CONTINUOUS
 10
367.3762229651
 20
31.345614957
 11
367.2605977445
 21
31.377879193
 12
367.7230979651
 22
31.377879193
 13
367.7230979651
 23
31.377879193
  0
SOLID
  8
0
 62
7
  6
CONTINUOUS
 10
367.3762229651
 20
31.345614957
 11
367.7230979651
 21
31.377879193
 12
367.491847524
 22
31.2810881312
 13
367.491847524
 23
31.2810881312
  0
SOLID
  8
0
 62
7
  6
CONTINUOUS
 10
367.7230979651
 20
31.377879193
 11
367.7809102445
 21
31.2810881312
 12
367.491847524
 22
31.2810881312
 13
367.491847524
 23
31.2810881312
  0
SOLID
  8
0
 62
7
  6
CONTINUOUS
 10
367.5496604651
 20
31.119769695
 11
367.491847524
 21
31.2810881312
 12
367.7809102445
 22
31.2810881312
 13
367.7809102445
 23
31.2810881312
  0
SOLID
  8
0
 62
7
  6
CONTINUOUS
 10
367.7809102445
 20
31.2810881312
 11
367.838722524
 21
31.119769695
 12
367.5496604651
 22
31.119769695
 13
367.5496604651
 23
31.119769695
  0
SOLID
  8
0
 62
7
  6
CONTINUOUS
 10
366.798097524
 20
31.377879193
 11
366.624660024
 21
31.3133521701
 12
366.5090354651
 22
31.377879193
 13
366.5090354651
 23
31.377879193
  0
SOLID
  8
0
 62
7
  6
CONTINUOUS
 10
366.624660024
 20
31.3133521701
 11
366.5090354651
 21
31.2488235635
 12
366.5090354651
 22
31.377879193
 13
366.5090354651
 23
31.377879193
  0
SOLID
  8
0
 62
7
  6
CONTINUOUS
 10
366.5090354651
 20
31.2488235635
 11
366.2199727445
 21
30.5067596374
 12
366.5090354651
 22
31.377879193
 13
366.5090354651
 23
31.377879193
  0
SOLID
  8
0
 62
7
  6
CONTINUOUS
 10
366.5090354651
 20
31.377879193
 11
366.2199727445
 21
30.5067596374
 12
366.5090354651
 22
31.5391976292
 13
366.5090354651
 23
31.5391976292
  0
SOLID
  8
0
 62
7
  6
CONTINUOUS
 10
366.2199727445
 20
30.5067596374
 11
366.2199727445
 21
31.5391976292
 12
366.5090354651
 22
31.5391976292
 13
366.5090354651
 23
31.5391976292
  0
SOLID
  8
0
 62
7
  6
CONTINUOUS
 10
366.5090354651
 20
31.2488235635
 11
366.5090354651
 21
30.5067596374
 12
366.2199727445
 22
30.5067596374
 13
366.2199727445
 23
30.5067596374
  0
SOLID
  8
0
 62
7
  6
CONTINUOUS
 10
367.5496604651
 20
30.5067596374
 11
367.5496604651
 21
31.119769695
 12
367.838722524
 22
31.119769695
 13
367.838722524
 23
31.119769695
  0
SOLID
  8
0
 62
7
  6
CONTINUOUS
 10
367.838722524
 20
31.119769695
 11
367.838722524
 21
30.5067596374
 12
367.5496604651
 22
30.5067596374
 13
367.5496604651
 23
30.5067596374
  0
SOLID
  8
0
 62
7
  6
CONTINUOUS
 10
368.6480977445
 20
31.5069334157
 11
368.9949727445
 21
31.539197762
 12
369.3418477445
 22
31.539197762
 13
369.3418477445
 23
31.539197762
  0
SOLID
  8
0
 62
7
  6
CONTINUOUS
 10
369.3418477445
 20
31.539197762
 11
369.6887227445
 21
31.5069334157
 12
368.6480977445
 22
31.5069334157
 13
368.6480977445
 23
31.5069334157
  0
SOLID
  8
0
 62
7
  6
CONTINUOUS
 10
368.4168479651
 20
31.4424063504
 11
368.6480977445
 21
31.5069334157
 12
369.6887227445
 22
31.5069334157
 13
369.6887227445
 23
31.5069334157
  0
SOLID
  8
0
 62
7
  6
CONTINUOUS
 10
368.4168479651
 20
31.4424063504
 11
369.6887227445
 21
31.5069334406
 12
369.8621602445
 22
31.4746706537
 13
369.8621602445
 23
31.4746706537
  0
SOLID
  8
0
 62
7
  6
CONTINUOUS
 10
368.4168479651
 20
31.4424063504
 11
369.8621602445
 21
31.4746706537
 12
368.9949727445
 22
31.4101421267
 13
368.9949727445
 23
31.4101421267
  0
SOLID
  8
0
 62
7
  6
CONTINUOUS
 10
368.9949727445
 20
31.4101421267
 11
369.8621602445
 21
31.4746706537
 12
369.3418477445
 22
31.4101421267
 13
369.3418477445
 23
31.4101421267
  0
SOLID
  8
0
 62
7
  6
CONTINUOUS
 10
369.8621602445
 20
31.4746706537
 11
370.0355977445
 21
31.4101421267
 12
369.3418477445
 22
31.4101421267
 13
369.3418477445
 23
31.4101421267
  0
SOLID
  8
0
 62
7
  6
CONTINUOUS
 10
369.6887227445
 20
31.3778792603
 11
369.3418477445
 21
31.4101421267
 12
370.0355977445
 22
31.4101421267
 13
370.0355977445
 23
31.4101421267
  0
SOLID
  8
0
 62
7
  6
CONTINUOUS
 10
368.3012227445
 20
31.3456148845
 11
368.4168479651
 21
31.4424063504
 12
368.9949727445
 22
31.4101421267
 13
368.9949727445
 23
31.4101421267
  0
SOLID
  8
0
 62
7
  6
CONTINUOUS
 10
369.6887227445
 20
31.3778792603
 11
370.0355977445
 21
31.4101421267
 12
369.8043479651
 22
31.3456148845
 13
369.8043479651
 23
31.3456148845
  0
SOLID
  8
0
 62
7
  6
CONTINUOUS
 10
369.8043479651
 20
31.3456148845
 11
370.0355977445
 21
31.4101421267
 12
369.8621602445
 22
31.281087868
 13
369.8621602445
 23
31.281087868
  0
SOLID
  8
0
 62
7
  6
CONTINUOUS
 10
370.0355977445
 20
31.4101421267
 11
370.1512223035
 21
31.281087868
 12
369.8621602445
 22
31.281087868
 13
369.8621602445
 23
31.281087868
  0
SOLID
  8
0
 62
7
  6
CONTINUOUS
 10
359.4559102445
 20
31.3778792603
 11
358.9355977445
 21
31.3456148963
 12
359.6871602721
 22
31.4101421155
 13
359.6871602721
 23
31.4101421155
  0
SOLID
  8
0
 62
7
  6
CONTINUOUS
 10
358.9355977445
 20
31.3456148963
 11
359.0512227376
 21
31.4101421155
 12
359.6871602721
 22
31.4101421155
 13
359.6871602721
 23
31.4101421155
  0
SOLID
  8
0
 62
7
  6
CONTINUOUS
 10
359.4559102445
 20
31.3778792603
 11
359.3402852307
 21
31.3456148963
 12
358.9355977445
 22
31.3456148963
 13
358.9355977445
 23
31.3456148963
  0
SOLID
  8
0
 62
7
  6
CONTINUOUS
 10
358.8199727462
 20
31.2165607767
 11
358.9355977445
 21
31.3456148963
 12
359.3402852307
 22
31.3456148963
 13
359.3402852307
 23
31.3456148963
  0
SOLID
  8
0
 62
7
  6
CONTINUOUS
 10
363.1559103548
 20
31.3456149608
 11
363.8496603548
 21
31.4101420472
 12
363.6184102445
 22
31.3778792603
 13
363.6184102445
 23
31.3778792603
  0
SOLID
  8
0
 62
7
  6
CONTINUOUS
 10
363.6184102445
 20
31.3778792603
 11
363.5027853548
 21
31.3456149608
 12
363.1559103548
 22
31.3456149608
 13
363.1559103548
 23
31.3456149608
  0
SOLID
  8
0
 62
7
  6
CONTINUOUS
 10
363.1559103548
 20
31.2810878707
 11
363.1559103548
 21
31.3456149608
 12
363.5027853548
 22
31.3456149608
 13
363.5027853548
 23
31.3456149608
  0
SOLID
  8
0
 62
7
  6
CONTINUOUS
 10
363.5027853548
 20
31.3456149608
 11
363.4449727445
 21
31.2810878707
 12
363.1559103548
 22
31.2810878707
 13
363.1559103548
 23
31.2810878707
  0
SOLID
  8
0
 62
7
  6
CONTINUOUS
 10
368.3012227445
 20
31.3456149608
 11
368.9949727445
 21
31.4101420472
 12
368.7637229651
 22
31.3778792603
 13
368.7637229651
 23
31.3778792603
  0
SOLID
  8
0
 62
7
  6
CONTINUOUS
 10
368.7637229651
 20
31.3778792603
 11
368.6480977445
 21
31.3456149608
 12
368.3012227445
 22
31.3456149608
 13
368.3012227445
 23
31.3456149608
  0
SOLID
  8
0
 62
7
  6
CONTINUOUS
 10
368.3012227445
 20
31.2810878707
 11
368.3012227445
 21
31.3456149608
 12
368.6480977445
 22
31.3456149608
 13
368.6480977445
 23
31.3456149608
  0
SOLID
  8
0
 62
7
  6
CONTINUOUS
 10
368.6480977445
 20
31.3456149608
 11
368.5902854651
 21
31.2810878707
 12
368.3012227445
 22
31.2810878707
 13
368.3012227445
 23
31.2810878707
  0
SOLID
  8
0
 62
7
  6
CONTINUOUS
 10
368.4168479651
 20
31.1520336865
 11
368.3012227445
 21
31.2810878707
 12
368.5902854651
 22
31.2810878707
 13
368.5902854651
 23
31.2810878707
  0
SOLID
  8
0
 62
7
  6
CONTINUOUS
 10
358.8199727462
 20
31.2165607767
 11
359.3402852307
 21
31.345614957
 12
359.1668477307
 22
31.2488235635
 13
359.1668477307
 23
31.2488235635
  0
SOLID
  8
0
 62
7
  6
CONTINUOUS
 10
359.1668477307
 20
31.2488235635
 11
359.1090352445
 21
31.1842964734
 12
358.8199727462
 22
31.2165607767
 13
358.8199727462
 23
31.2165607767
  0
SOLID
  8
0
 62
7
  6
CONTINUOUS
 10
358.7621602445
 20
31.0229779898
 11
358.8199727462
 21
31.2165607767
 12
359.1090352445
 22
31.1842964734
 13
359.1090352445
 23
31.1842964734
  0
SOLID
  8
0
 62
7
  6
CONTINUOUS
 10
363.6184102445
 20
31.1520336865
 11
363.9652852445
 21
31.1842964611
 12
364.6012229651
 22
31.1842964611
 13
364.6012229651
 23
31.1842964611
  0
SOLID
  8
0
 62
7
  6
CONTINUOUS
 10
363.6184102445
 20
31.1520336865
 11
364.6012229651
 21
31.1842964611
 12
363.3871601343
 22
31.0875057863
 13
363.3871601343
 23
31.0875057863
  0
SOLID
  8
0
 62
7
  6
CONTINUOUS
 10
363.3871601343
 20
31.0875057863
 11
364.6012229651
 21
31.1842964611
 12
363.9652852445
 22
31.0552422808
 13
363.9652852445
 23
31.0552422808
  0
SOLID
  8
0
 62
7
  6
CONTINUOUS
 10
364.6012229651
 20
31.1842964611
 11
364.6012229651
 21
31.0552422808
 12
363.9652852445
 22
31.0552422808
 13
363.9652852445
 23
31.0552422808
  0
SOLID
  8
0
 62
7
  6
CONTINUOUS
 10
368.4168479651
 20
31.1520338754
 11
368.5902854651
 21
31.2810878668
 12
368.6480977445
 22
31.2165607767
 13
368.6480977445
 23
31.2165607767
  0
SOLID
  8
0
 62
7
  6
CONTINUOUS
 10
368.6480977445
 20
31.2165607767
 11
368.8215352445
 21
31.1520338754
 12
368.4168479651
 22
31.1520338754
 13
368.4168479651
 23
31.1520338754
  0
SOLID
  8
0
 62
7
  6
CONTINUOUS
 10
368.6480977445
 20
31.0552422931
 11
368.4168479651
 21
31.1520338754
 12
368.8215352445
 22
31.1520338754
 13
368.8215352445
 23
31.1520338754
  0
SOLID
  8
0
 62
7
  6
CONTINUOUS
 10
368.8215352445
 20
31.1520338754
 11
369.8043479651
 21
30.9907152029
 12
368.6480977445
 22
31.0552422931
 13
368.6480977445
 23
31.0552422931
  0
SOLID
  8
0
 62
7
  6
CONTINUOUS
 10
369.6309104651
 20
30.8939239876
 11
368.6480977445
 21
31.0552422931
 12
369.8043479651
 22
30.9907152029
 13
369.8043479651
 23
30.9907152029
  0
SOLID
  8
0
 62
7
  6
CONTINUOUS
 10
369.8043479651
 20
30.9907152029
 11
370.0355977445
 21
30.8939239876
 12
369.6309104651
 22
30.8939239876
 13
369.6309104651
 23
30.8939239876
  0
SOLID
  8
0
 62
7
  6
CONTINUOUS
 10
369.8043479651
 20
30.8293967193
 11
369.6309104651
 21
30.8939239876
 12
370.0355977445
 22
30.8939239876
 13
370.0355977445
 23
30.8939239876
  0
SOLID
  8
0
 62
7
  6
CONTINUOUS
 10
369.8043479651
 20
30.8293967193
 11
370.0355977445
 21
30.8939239876
 12
369.8621602445
 22
30.7648682694
 13
369.8621602445
 23
30.7648682694
  0
SOLID
  8
0
 62
7
  6
CONTINUOUS
 10
370.0355977445
 20
30.8939239876
 11
370.1512223035
 21
30.7648682694
 12
369.8621602445
 22
30.7648682694
 13
369.8621602445
 23
30.7648682694
  0
SOLID
  8
0
 62
7
  6
CONTINUOUS
 10
369.8043479651
 20
30.7003411846
 11
369.8621602445
 21
30.7648682694
 12
370.1512223035
 22
30.7648682694
 13
370.1512223035
 23
30.7648682694
  0
SOLID
  8
0
 62
7
  6
CONTINUOUS
 10
370.1512223035
 20
30.7648682694
 11
370.1512223035
 21
30.7003411846
 12
369.8043479651
 22
30.7003411846
 13
369.8043479651
 23
30.7003411846
  0
SOLID
  8
0
 62
7
  6
CONTINUOUS
 10
369.6887227445
 20
30.6680782357
 11
369.8043479651
 21
30.7003411846
 12
370.1512223035
 22
30.7003411846
 13
370.1512223035
 23
30.7003411846
  0
SOLID
  8
0
 62
7
  6
CONTINUOUS
 10
369.6887227445
 20
30.6680782357
 11
370.1512223035
 21
30.7003411846
 12
369.4574729651
 22
30.6358140998
 13
369.4574729651
 23
30.6358140998
  0
SOLID
  8
0
 62
7
  6
CONTINUOUS
 10
370.1512223035
 20
30.7003411846
 11
370.0355977445
 21
30.6035511455
 12
369.4574729651
 22
30.6358140998
 13
369.4574729651
 23
30.6358140998
  0
SOLID
  8
0
 62
7
  6
CONTINUOUS
 10
370.0355977445
 20
30.6035511455
 11
368.5902854651
 21
30.5712868422
 12
369.4574729651
 22
30.6358140998
 13
369.4574729651
 23
30.6358140998
  0
SOLID
  8
0
 62
7
  6
CONTINUOUS
 10
369.4574729651
 20
30.6358140998
 11
368.5902854651
 21
30.5712868422
 12
369.1105979651
 22
30.6358140998
 13
369.1105979651
 23
30.6358140998
  0
SOLID
  8
0
 62
7
  6
CONTINUOUS
 10
368.5902854651
 20
30.5712868422
 11
368.4168479651
 21
30.6358140998
 12
369.1105979651
 22
30.6358140998
 13
369.1105979651
 23
30.6358140998
  0
SOLID
  8
0
 62
7
  6
CONTINUOUS
 10
368.5902854651
 20
30.5712868422
 11
370.0355977445
 21
30.6035511455
 12
368.7637229651
 22
30.5390223111
 13
368.7637229651
 23
30.5390223111
  0
SOLID
  8
0
 62
7
  6
CONTINUOUS
 10
370.0355977445
 20
30.6035511455
 11
369.8043479651
 21
30.5390223111
 12
368.7637229651
 22
30.5390223111
 13
368.7637229651
 23
30.5390223111
  0
SOLID
  8
0
 62
7
  6
CONTINUOUS
 10
369.1105979651
 20
30.5067599302
 11
368.7637229651
 21
30.5390223111
 12
369.8043479651
 22
30.5390223111
 13
369.8043479651
 23
30.5390223111
  0
SOLID
  8
0
 62
7
  6
CONTINUOUS
 10
369.8043479651
 20
30.5390223111
 11
369.4574729651
 21
30.5067599302
 12
369.1105979651
 22
30.5067599302
 13
369.1105979651
 23
30.5067599302
  0
SOLID
  8
0
 62
7
  6
CONTINUOUS
 10
358.7621602445
 20
31.0229779898
 11
359.1090352445
 21
31.1842964734
 12
359.0512227376
 22
31.0552422931
 13
359.0512227376
 23
31.0552422931
  0
SOLID
  8
0
 62
7
  6
CONTINUOUS
 10
359.0512227376
 20
31.0552422931
 11
359.0512227376
 21
30.9584509954
 12
358.7621602445
 22
31.0229779898
 13
358.7621602445
 23
31.0229779898
  0
SOLID
  8
0
 62
7
  6
CONTINUOUS
 10
358.8199727462
 20
30.8293967193
 11
358.7621602445
 21
31.0229779898
 12
359.0512227376
 22
30.9584509954
 13
359.0512227376
 23
30.9584509954
  0
SOLID
  8
0
 62
7
  6
CONTINUOUS
 10
359.0512227376
 20
30.9584509954
 11
359.1668477307
 21
30.797132416
 12
358.8199727462
 22
30.8293967193
 13
358.8199727462
 23
30.8293967193
  0
SOLID
  8
0
 62
7
  6
CONTINUOUS
 10
358.9355977445
 20
30.7003413087
 11
358.8199727462
 21
30.8293967193
 12
359.1668477307
 22
30.797132416
 13
359.1668477307
 23
30.797132416
  0
SOLID
  8
0
 62
7
  6
CONTINUOUS
 10
359.1668477307
 20
30.797132416
 11
359.3402852307
 21
30.7003413087
 12
358.9355977445
 22
30.7003413087
 13
358.9355977445
 23
30.7003413087
  0
SOLID
  8
0
 62
7
  6
CONTINUOUS
 10
359.0512227376
 20
30.6358140759
 11
358.9355977445
 21
30.7003413087
 12
359.3402852307
 22
30.7003413087
 13
359.3402852307
 23
30.7003413087
  0
SOLID
  8
0
 62
7
  6
CONTINUOUS
 10
359.3402852307
 20
30.7003413087
 11
359.6871602721
 21
30.6358140759
 12
359.0512227376
 22
30.6358140759
 13
359.0512227376
 23
30.6358140759
  0
SOLID
  8
0
 62
7
  6
CONTINUOUS
 10
359.2246602583
 20
30.5712868422
 11
359.0512227376
 21
30.6358140759
 12
359.6871602721
 22
30.6358140759
 13
359.6871602721
 23
30.6358140759
  0
SOLID
  8
0
 62
7
  6
CONTINUOUS
 10
363.2715352445
 20
31.0229779808
 11
363.3871601343
 21
31.0875057863
 12
363.9652852445
 22
31.0552422931
 13
363.9652852445
 23
31.0552422931
  0
SOLID
  8
0
 62
7
  6
CONTINUOUS
 10
363.9652852445
 20
31.0552422931
 11
363.7340351343
 21
31.0229779808
 12
363.2715352445
 22
31.0229779808
 13
363.2715352445
 23
31.0229779808
  0
SOLID
  8
0
 62
7
  6
CONTINUOUS
 10
363.1559103548
 20
30.8939238094
 11
363.2715352445
 21
31.0229779808
 12
363.7340351343
 22
31.0229779808
 13
363.7340351343
 23
31.0229779808
  0
SOLID
  8
0
 62
7
  6
CONTINUOUS
 10
363.5027853548
 20
30.926187309
 11
363.1559103548
 21
30.8939238094
 12
363.6184102445
 22
30.9907152029
 13
363.6184102445
 23
30.9907152029
  0
SOLID
  8
0
 62
7
  6
CONTINUOUS
 10
363.1559103548
 20
30.8939238094
 11
363.7340351343
 21
31.0229779898
 12
363.6184102445
 22
30.9907152029
 13
363.6184102445
 23
30.9907152029
  0
SOLID
  8
0
 62
7
  6
CONTINUOUS
 10
363.5027853548
 20
30.926187309
 11
363.4449727445
 21
30.8293967193
 12
363.1559103548
 22
30.8939238094
 13
363.1559103548
 23
30.8939238094
  0
SOLID
  8
0
 62
7
  6
CONTINUOUS
 10
363.1559103548
 20
30.797132416
 11
363.1559103548
 21
30.8939238094
 12
363.4449727445
 22
30.8293967193
 13
363.4449727445
 23
30.8293967193
  0
SOLID
  8
0
 62
7
  6
CONTINUOUS
 10
363.4449727445
 20
30.8293967193
 11
363.4449727445
 21
30.7648681127
 12
363.1559103548
 22
30.797132416
 13
363.1559103548
 23
30.797132416
  0
SOLID
  8
0
 62
7
  6
CONTINUOUS
 10
363.2137226343
 20
30.6680782357
 11
363.1559103548
 21
30.797132416
 12
363.4449727445
 22
30.7648681127
 13
363.4449727445
 23
30.7648681127
  0
SOLID
  8
0
 62
7
  6
CONTINUOUS
 10
364.6012229651
 20
30.8616599362
 11
364.890285024
 21
30.7648681127
 12
364.543410024
 22
30.797132416
 13
364.543410024
 23
30.797132416
  0
SOLID
  8
0
 62
7
  6
CONTINUOUS
 10
364.369972524
 20
30.7003410226
 11
364.543410024
 21
30.797132416
 12
364.890285024
 22
30.7648681127
 13
364.890285024
 23
30.7648681127
  0
SOLID
  8
0
 62
7
  6
CONTINUOUS
 10
364.369972524
 20
30.7003410226
 11
364.890285024
 21
30.7648681127
 12
364.6012229651
 22
30.6680782357
 13
364.6012229651
 23
30.6680782357
  0
SOLID
  8
0
 62
7
  6
CONTINUOUS
 10
364.890285024
 20
30.7648681127
 11
364.9480979651
 21
30.6035511455
 12
364.6012229651
 22
30.6680782357
 13
364.6012229651
 23
30.6680782357
  0
SOLID
  8
0
 62
7
  6
CONTINUOUS
 10
364.6590352445
 20
30.5712868422
 11
364.6012229651
 21
30.6680782357
 12
364.9480979651
 22
30.6035511455
 13
364.9480979651
 23
30.6035511455
  0
SOLID
  8
0
 62
7
  6
CONTINUOUS
 10
364.6590352445
 20
30.5712868422
 11
364.9480979651
 21
30.6035511455
 12
364.716847524
 22
30.5067598731
 13
364.716847524
 23
30.5067598731
  0
SOLID
  8
0
 62
7
  6
CONTINUOUS
 10
364.9480979651
 20
30.6035511455
 11
365.0059102445
 21
30.5067598731
 12
364.716847524
 22
30.5067598731
 13
364.716847524
 23
30.5067598731
  0
SOLID
  8
0
 62
7
  6
CONTINUOUS
 10
360.2652852997
 20
30.7326051679
 11
360.3230977445
 21
30.8293966612
 12
360.6121602997
 22
30.8293966612
 13
360.6121602997
 23
30.8293966612
  0
SOLID
  8
0
 62
7
  6
CONTINUOUS
 10
360.6121602997
 20
30.8293966612
 11
360.5543476894
 21
30.7003410226
 12
360.2652852997
 22
30.7326051679
 13
360.2652852997
 23
30.7326051679
  0
SOLID
  8
0
 62
7
  6
CONTINUOUS
 10
360.091847717
 20
30.6680782357
 11
360.2652852997
 21
30.7326051679
 12
360.5543476894
 22
30.7003410226
 13
360.5543476894
 23
30.7003410226
  0
SOLID
  8
0
 62
7
  6
CONTINUOUS
 10
360.091847717
 20
30.6680782357
 11
360.5543476894
 21
30.7003410226
 12
359.6871602721
 22
30.6358139324
 13
359.6871602721
 23
30.6358139324
  0
SOLID
  8
0
 62
7
  6
CONTINUOUS
 10
360.5543476894
 20
30.7003410226
 11
360.3809101894
 21
30.6035511455
 12
359.6871602721
 22
30.6358139324
 13
359.6871602721
 23
30.6358139324
  0
SOLID
  8
0
 62
7
  6
CONTINUOUS
 10
359.2246602583
 20
30.5712868422
 11
359.6871602721
 21
30.6358139324
 12
360.3809101894
 22
30.6035511455
 13
360.3809101894
 23
30.6035511455
  0
SOLID
  8
0
 62
7
  6
CONTINUOUS
 10
359.2246602583
 20
30.5712868422
 11
360.3809101894
 21
30.6035511455
 12
359.3980977583
 22
30.5390224228
 13
359.3980977583
 23
30.5390224228
  0
SOLID
  8
0
 62
7
  6
CONTINUOUS
 10
360.3809101894
 20
30.6035511455
 11
360.1496602445
 21
30.5390224228
 12
359.3980977583
 22
30.5390224228
 13
359.3980977583
 23
30.5390224228
  0
SOLID
  8
0
 62
7
  6
CONTINUOUS
 10
359.744972717
 20
30.5067597521
 11
359.3980977583
 21
30.5390224228
 12
360.1496602445
 22
30.5390224228
 13
360.1496602445
 23
30.5390224228
  0
SOLID
  8
0
 62
7
  6
CONTINUOUS
 10
363.2137226343
 20
30.6680782357
 11
363.4449727445
 21
30.7648681127
 12
363.5027853548
 22
30.7003410226
 13
363.5027853548
 23
30.7003410226
  0
SOLID
  8
0
 62
7
  6
CONTINUOUS
 10
363.5027853548
 20
30.7003410226
 11
363.7340351343
 21
30.6358139324
 12
363.2137226343
 22
30.6680782357
 13
363.2137226343
 23
30.6680782357
  0
SOLID
  8
0
 62
7
  6
CONTINUOUS
 10
363.3871601343
 20
30.5712868422
 11
363.2137226343
 21
30.6680782357
 12
363.7340351343
 22
30.6358139324
 13
363.7340351343
 23
30.6358139324
  0
SOLID
  8
0
 62
7
  6
CONTINUOUS
 10
364.0809101343
 20
30.6358139363
 11
364.369972524
 21
30.7003410226
 12
364.6012229651
 22
30.6680782357
 13
364.6012229651
 23
30.6680782357
  0
SOLID
  8
0
 62
7
  6
CONTINUOUS
 10
364.6012229651
 20
30.6680782357
 11
364.543410024
 21
30.6035511455
 12
364.0809101343
 22
30.6358139363
 13
364.0809101343
 23
30.6358139363
  0
SOLID
  8
0
 62
7
  6
CONTINUOUS
 10
364.543410024
 20
30.6035511455
 11
363.3871601343
 21
30.5712868422
 12
364.0809101343
 22
30.6358139363
 13
364.0809101343
 23
30.6358139363
  0
SOLID
  8
0
 62
7
  6
CONTINUOUS
 10
363.3871601343
 20
30.5712868422
 11
363.7340351343
 21
30.6358139363
 12
364.0809101343
 22
30.6358139363
 13
364.0809101343
 23
30.6358139363
  0
SOLID
  8
0
 62
7
  6
CONTINUOUS
 10
363.3871601343
 20
30.5712868422
 11
364.543410024
 21
30.6035511455
 12
363.5027853548
 22
30.5390225267
 13
363.5027853548
 23
30.5390225267
  0
SOLID
  8
0
 62
7
  6
CONTINUOUS
 10
364.543410024
 20
30.6035511455
 11
364.369972524
 21
30.5390225267
 12
363.5027853548
 22
30.5390225267
 13
363.5027853548
 23
30.5390225267
  0
SOLID
  8
0
 62
7
  6
CONTINUOUS
 10
363.7340351343
 20
30.5067596914
 11
363.5027853548
 21
30.5390225267
 12
364.369972524
 22
30.5390225267
 13
364.369972524
 23
30.5390225267
  0
SOLID
  8
0
 62
7
  6
CONTINUOUS
 10
364.369972524
 20
30.5390225267
 11
364.0809101343
 21
30.5067596914
 12
363.7340351343
 22
30.5067596914
 13
363.7340351343
 23
30.5067596914
  0
SOLID
  8
0
 62
7
  6
CONTINUOUS
 10
368.7637229651
 20
30.6680782357
 11
368.4168479651
 21
30.6358138717
 12
368.6480977445
 22
30.7003410226
 13
368.6480977445
 23
30.7003410226
  0
SOLID
  8
0
 62
7
  6
CONTINUOUS
 10
368.6480977445
 20
30.7003410226
 11
368.4168479651
 21
30.6358138717
 12
368.5902854651
 22
30.7648680521
 13
368.5902854651
 23
30.7648680521
  0
SOLID
  8
0
 62
7
  6
CONTINUOUS
 10
368.4168479651
 20
30.6358138717
 11
368.3012227445
 21
30.7648680521
 12
368.5902854651
 22
30.7648680521
 13
368.5902854651
 23
30.7648680521
  0
SOLID
  8
0
 62
7
  6
CONTINUOUS
 10
368.7637229651
 20
30.6680782357
 11
369.1105979651
 21
30.6358138717
 12
368.4168479651
 22
30.6358138717
 13
368.4168479651
 23
30.6358138717
  0
SOLID
  8
0
 62
7
  6
CONTINUOUS
 10
365.4684104651
 20
30.5067597521
 11
365.4684104651
 21
31.5391977439
 12
365.757472524
 22
30.5067597521
 13
365.757472524
 23
31.5391977439
  0
ENDBLK
  8
0
  6
BYBLOCK
 62
0
  0
BLOCK
  8
0
 62
2
  6
CONTINUOUS
  2
SYMBOL_0_BL0
 70
64
 10
240.8592468615
 20
19.762288695
  0
TEXT
  8
0
 62
7
  6
CONTINUOUS
 10
227.1239507038
 20
19.1357028027
  7
TEXTSTYLE_3
 40
2.7338706658
  1
Ammeraal Beltech
 41
1.0
 51
15.0
 72
0
  0
TEXT
  8
0
 62
7
  6
CONTINUOUS
 10
237.9247515296
 20
16.8621661299
  7
TEXTSTYLE_4
 40
1.0935482663
  1
Innovation & Service in Belting
 41
1.0
 72
0
  0
LINE
  8
0
 62
7
  6
CONTINUOUS
 10
221.0994100525
 20
19.9022961113
 11
221.8775620458
 21
23.5632134089
  0
LINE
  8
0
 62
7
  6
CONTINUOUS
 10
231.9727303357
 20
27.2266073205
 11
222.3653797889
 21
24.1049898993
  0
LINE
  8
0
 62
7
  6
CONTINUOUS
 10
221.3246933848
 20
19.2089453082
 11
228.8317686459
 21
12.4495443822
  0
LINE
  8
0
 62
7
  6
CONTINUOUS
 10
221.5872277955
 20
20.4440726016
 11
232.3954971607
 21
23.9558922005
  0
LINE
  8
0
 62
7
  6
CONTINUOUS
 10
232.3912920235
 20
13.6061036368
 11
223.9458323548
 21
21.2104296785
  0
LINE
  8
0
 62
7
  6
CONTINUOUS
 10
232.9111147433
 20
26.3816822048
 11
231.9345552061
 21
21.7873308023
  0
LINE
  8
0
 62
7
  6
CONTINUOUS
 10
231.2347532584
 20
18.4950214885
 11
230.5483050469
 21
15.2655365641
  0
LINE
  8
0
 62
7
  6
CONTINUOUS
 10
233.5922108419
 20
13.9963058145
 11
234.5484423775
 21
18.4950214885
  0
LINE
  8
0
 62
7
  6
CONTINUOUS
 10
235.2482443252
 20
21.7873308023
 11
235.6924861276
 21
23.8773241617
  0
LINE
  8
0
 62
7
  6
CONTINUOUS
 10
229.5448697213
 20
12.2979700695
 11
233.1043930989
 21
13.4545293241
  0
LINE
  8
0
 62
7
  6
CONTINUOUS
 10
232.685831411
 20
27.0750330078
 11
235.4672027953
 21
24.5706749648
  0
ARC
  8
0
 62
7
  6
CONTINUOUS
 10
222.5906631212
 20
23.4116390962
 40
0.7290321776
 50
108.0
 51
168.0
  0
ARC
  8
0
 62
7
  6
CONTINUOUS
 10
232.198013668
 20
26.5332565175
 40
0.7290321776
 50
348.0
 51
108.0
  0
ARC
  8
0
 62
7
  6
CONTINUOUS
 10
234.9793850522
 20
24.0288984744
 40
0.7290321776
 50
348.0
 51
48.0
  0
ARC
  8
0
 62
7
  6
CONTINUOUS
 10
229.319586389
 20
12.9913208726
 40
0.7290321776
 50
228.0
 51
288.0
  0
ARC
  8
0
 62
7
  6
CONTINUOUS
 10
221.8125111278
 20
19.7507217986
 40
0.7290321776
 50
108.0
 51
228.0
  0
ARC
  8
0
 62
7
  6
CONTINUOUS
 10
232.8791097665
 20
14.1478801272
 40
0.7290321776
 50
228.0
 51
348.0
  0
ENDBLK
  8
0
  6
BYBLOCK
 62
0
  0
ENDSEC
  0
SECTION
  2
ENTITIES
  0
TEXT
  8
0
 62
5
  6
CONTINUOUS
 10
304.937007874
 20
25.636
  7
TEXTSTYLE_2
 40
2.8
  1
Scale :
 41
0.6
 51
0.000019
 72
0
  0
TEXT
  8
0
 62
5
  6
CONTINUOUS
 10
324.937007874
 20
25.636
  7
TEXTSTYLE_2
 40
2.8
  1
Belt type:
 41
0.6
 51
0.000019
 72
0
  0
INSERT
  8
0
 62
2
  6
CONTINUOUS
  2
SYMBOL_0_BL0
 10
240.8592468615
 20
19.762288695
  0
INSERT
  8
0
 62
2
  6
CONTINUOUS
  2
SYMBOL_5_BL1
 10
382.7840918555
 20
35.5067593403
  0
LINE
  8
0
 62
2
  6
CONTINUOUS
 10
218.937007874
 20
30.0
 11
408.937007874
 21
30.0
  0
LINE
  8
0
 62
2
  6
CONTINUOUS
 10
218.937007874
 20
30.0
 11
218.937007874
 21
10.0
  0
LINE
  8
0
 62
2
  6
CONTINUOUS
 10
218.937007874
 20
10.0
 11
408.937007874
 21
10.0
  0
LINE
  8
0
 62
2
  6
CONTINUOUS
 10
303.937007874
 20
30.0
 11
303.937007874
 21
10.0
  0
LINE
  8
0
 62
2
  6
CONTINUOUS
 10
323.937007874
 20
30.0
 11
323.937007874
 21
10.0
  0
LINE
  8
0
 62
2
  6
CONTINUOUS
 10
408.937007874
 20
30.0
 11
408.937007874
 21
10.0
  0
TEXT
  8
0
 62
5
  6
CONTINUOUS
 10
221.937007874
 20
23.303
  7
TEXTSTYLE_5
 40
1.52
  1
                                                                     Ammeraal Beltech Modular A/S
 41
1.0
 72
0
  0
TEXT
  8
0
 62
5
  6
CONTINUOUS
 10
221.937007874
 20
20.595
  7
TEXTSTYLE_5
 40
1.5
  1
                                                                      Hjulmagervej 21, 7100 Vejle,  DK
 41
1.0
 72
0
  0
TEXT
  8
0
 62
5
  6
CONTINUOUS
 10
221.937007874
 20
17.881
  7
TEXTSTYLE_5
 40
1.495
  1
                                                                      tel: 
 41
1.0
 72
0
  0
TEXT
  8
0
 62
5
  6
CONTINUOUS
 10
266.9239544389
 20
17.881
  7
TEXTSTYLE_5
 40
1.51
  1
+45 75723100     fax: +45 75723348
 41
1.0
 72
0
  0
TEXT
  8
0
 62
5
  6
CONTINUOUS
 10
221.937007874
 20
15.177
  7
TEXTSTYLE_5
 40
1.5
  1
                                                                      admin@unichains.dk  www.unichains.com
 41
1.0
 72
0
  0
TEXT
  8
0
 62
5
  6
CONTINUOUS
 10
308.687007874
 20
13.75
  7
TEXTSTYLE_6
 40
5.0
  1
1:1
 41
0.7
 72
1
 11
313.937007874
 21
13.75
  0
TEXT
  8
0
 62
5
  6
CONTINUOUS
 10
326.937007874
 20
13.75
  7
TEXTSTYLE_7
 40
7.5
  1
uni Flex L-ASB Tab K1280 Both
 41
0.3698275862
 72
0
  0
LINE
  8
0
 62
7
  6
CONTINUOUS
 10
0.0
 20
0.0
 11
0.0
 21
297.0
  0
LINE
  8
0
 62
7
  6
CONTINUOUS
 10
8.937007874
 20
10.0
 11
8.937007874
 21
287.0
  0
LINE
  8
0
 62
7
  6
CONTINUOUS
 10
0.0
 20
0.0
 11
420.0
 21
0.0
  0
LINE
  8
0
 62
7
  6
CONTINUOUS
 10
408.937007874
 20
10.0
 11
8.937007874
 21
10.0
  0
LINE
  8
0
 62
7
  6
CONTINUOUS
 10
218.937007874
 20
30.0
 11
408.937007874
 21
30.0
  0
LINE
  8
0
 62
7
  6
CONTINUOUS
 10
210.0
 20
297.0
 11
210.0
 21
292.0
  0
LINE
  8
0
 62
7
  6
CONTINUOUS
 10
210.0
 20
0.0
 11
210.0
 21
5.0
  0
LINE
  8
0
 62
7
  6
CONTINUOUS
 10
8.937007874
 20
287.0
 11
408.937007874
 21
287.0
  0
LINE
  8
0
 62
7
  6
CONTINUOUS
 10
0.0
 20
297.0
 11
420.0
 21
297.0
  0
LINE
  8
0
 62
7
  6
CONTINUOUS
 10
408.937007874
 20
287.0
 11
408.937007874
 21
10.0
  0
LINE
  8
0
 62
7
  6
CONTINUOUS
 10
420.0
 20
0.0
 11
420.0
 21
297.0
  0
POLYLINE
  8
0
 62
7
  6
CONTINUOUS
 66
1
 70
0
  0
VERTEX
  8
0
 62
7
  6
CONTINUOUS
 10
24.9634768315
 20
89.7002328605
  0
VERTEX
  8
0
 62
7
  6
CONTINUOUS
 10
25.0583317213
 20
88.6461178686
  0
VERTEX
  8
0
 62
7
  6
CONTINUOUS
 10
25.1293572517
 20
87.5916516532
  0
VERTEX
  8
0
 62
7
  6
CONTINUOUS
 10
25.1559788654
 20
87.064049141
  0
SEQEND
  0
LINE
  8
0
 62
7
  6
CONTINUOUS
 10
15.2391447368
 20
104.2540975714
 11
15.2391447368
 21
77.7913176818
  0
LINE
  8
0
 62
7
  6
CONTINUOUS
 10
22.2391447368
 20
98.2920605511
 11
22.2391447368
 21
94.8991159478
  0
POLYLINE
  8
0
 62
7
  6
CONTINUOUS
 66
1
 70
0
  0
VERTEX
  8
0
 62
7
  6
CONTINUOUS
 10
25.164745993
 20
86.8729469245
  0
VERTEX
  8
0
 62
7
  6
CONTINUOUS
 10
25.1897613175
 20
86.2360952591
  0
VERTEX
  8
0
 62
7
  6
CONTINUOUS
 10
25.2048176987
 20
85.595937042
  0
VERTEX
  8
0
 62
7
  6
CONTINUOUS
 10
25.2098443451
 20
84.9553107231
  0
VERTEX
  8
0
 62
7
  6
CONTINUOUS
 10
25.2048379807
 20
84.3146031119
  0
VERTEX
  8
0
 62
7
  6
CONTINUOUS
 10
25.1897944217
 20
83.6742205605
  0
VERTEX
  8
0
 62
7
  6
CONTINUOUS
 10
25.1647453642
 20
83.0363023239
  0
SEQEND
  0
POLYLINE
  8
0
 62
7
  6
CONTINUOUS
 66
1
 70
0
  0
VERTEX
  8
0
 62
7
  6
CONTINUOUS
 10
25.1559788654
 20
87.064049141
  0
VERTEX
  8
0
 62
7
  6
CONTINUOUS
 10
25.1766517901
 20
86.5369396638
  0
VERTEX
  8
0
 62
7
  6
CONTINUOUS
 10
25.2002821661
 20
85.4820822601
  0
VERTEX
  8
0
 62
7
  6
CONTINUOUS
 10
25.2002821648
 20
84.4271767729
  0
VERTEX
  8
0
 62
7
  6
CONTINUOUS
 10
25.1766517866
 20
83.372319381
  0
VERTEX
  8
0
 62
7
  6
CONTINUOUS
 10
25.1559788654
 20
82.8452100088
  0
SEQEND
  0
LINE
  8
0
 62
7
  6
CONTINUOUS
 10
24.9391447368
 20
76.2783449525
 11
24.9391447368
 21
89.8742448172
  0
LINE
  8
0
 62
7
  6
CONTINUOUS
 10
27.5414323864
 20
134.3612880492
 11
27.5414323864
 21
139.0546295749
  0
LINE
  8
0
 62
7
  6
CONTINUOUS
 10
30.2414323864
 20
127.2226388948
 11
30.2414323864
 21
115.4653389129
  0
POLYLINE
  8
0
 62
7
  6
CONTINUOUS
 66
1
 70
0
  0
VERTEX
  8
0
 62
7
  6
CONTINUOUS
 10
25.1559788654
 20
82.8452100088
  0
VERTEX
  8
0
 62
7
  6
CONTINUOUS
 10
25.1293572471
 20
82.317607415
  0
VERTEX
  8
0
 62
7
  6
CONTINUOUS
 10
25.0583317176
 20
81.2631412347
  0
VERTEX
  8
0
 62
7
  6
CONTINUOUS
 10
24.9634768315
 20
80.2090262893
  0
SEQEND
  0
POLYLINE
  8
0
 62
7
  6
CONTINUOUS
 66
1
 70
0
  0
VERTEX
  8
0
 62
7
  6
CONTINUOUS
 10
24.9634768315
 20
80.2090262893
  0
VERTEX
  8
0
 62
7
  6
CONTINUOUS
 10
24.9603147375
 20
80.1870334192
  0
VERTEX
  8
0
 62
7
  6
CONTINUOUS
 10
24.9552410101
 20
80.1651105353
  0
VERTEX
  8
0
 62
7
  6
CONTINUOUS
 10
24.9481362743
 20
80.1431554422
  0
VERTEX
  8
0
 62
7
  6
CONTINUOUS
 10
24.9391447368
 20
80.1219015148
  0
SEQEND
  0
POLYLINE
  8
0
 62
7
  6
CONTINUOUS
 66
1
 70
0
  0
VERTEX
  8
0
 62
7
  6
CONTINUOUS
 10
24.9391447368
 20
89.7870364451
  0
VERTEX
  8
0
 62
7
  6
CONTINUOUS
 10
24.9424043943
 20
89.7803491008
  0
VERTEX
  8
0
 62
7
  6
CONTINUOUS
 10
24.950257537
 20
89.7602352104
  0
VERTEX
  8
0
 62
7
  6
CONTINUOUS
 10
24.9563052362
 20
89.7402020433
  0
VERTEX
  8
0
 62
7
  6
CONTINUOUS
 10
24.9606828433
 20
89.7202249971
  0
VERTEX
  8
0
 62
7
  6
CONTINUOUS
 10
24.9634768315
 20
89.7002328605
  0
SEQEND
  0
POLYLINE
  8
0
 62
7
  6
CONTINUOUS
 66
1
 70
0
  0
VERTEX
  8
0
 62
7
  6
CONTINUOUS
 10
36.2391447368
 20
87.6162190321
  0
VERTEX
  8
0
 62
7
  6
CONTINUOUS
 10
36.2360957028
 20
87.7258876834
  0
VERTEX
  8
0
 62
7
  6
CONTINUOUS
 10
36.2250054821
 20
87.8522209616
  0
VERTEX
  8
0
 62
7
  6
CONTINUOUS
 10
36.2058159914
 20
87.9778779095
  0
VERTEX
  8
0
 62
7
  6
CONTINUOUS
 10
36.1786008761
 20
88.1021975966
  0
VERTEX
  8
0
 62
7
  6
CONTINUOUS
 10
36.1435272527
 20
88.224477514
  0
VERTEX
  8
0
 62
7
  6
CONTINUOUS
 10
36.1007770797
 20
88.3441032326
  0
VERTEX
  8
0
 62
7
  6
CONTINUOUS
 10
36.0505466555
 20
88.4604746061
  0
VERTEX
  8
0
 62
7
  6
CONTINUOUS
 10
35.9931162815
 20
88.5731409146
  0
VERTEX
  8
0
 62
7
  6
CONTINUOUS
 10
35.9287706805
 20
88.6816655564
  0
VERTEX
  8
0
 62
7
  6
CONTINUOUS
 10
35.8576350789
 20
88.7857875455
  0
VERTEX
  8
0
 62
7
  6
CONTINUOUS
 10
35.779861943
 20
88.8854623638
  0
VERTEX
  8
0
 62
7
  6
CONTINUOUS
 10
35.6958552466
 20
88.9802211513
  0
VERTEX
  8
0
 62
7
  6
CONTINUOUS
 10
35.605977712
 20
89.0694796577
  0
VERTEX
  8
0
 62
7
  6
CONTINUOUS
 10
35.5105662291
 20
89.1527812931
  0
VERTEX
  8
0
 62
7
  6
CONTINUOUS
 10
35.409730051
 20
89.2300983405
  0
VERTEX
  8
0
 62
7
  6
CONTINUOUS
 10
35.3039148689
 20
89.3009912437
  0
VERTEX
  8
0
 62
7
  6
CONTINUOUS
 10
35.1940678034
 20
89.3648897875
  0
VERTEX
  8
0
 62
7
  6
CONTINUOUS
 10
35.08075075
 20
89.4215733679
  0
VERTEX
  8
0
 62
7
  6
CONTINUOUS
 10
34.9643903896
 20
89.47081117
  0
VERTEX
  8
0
 62
7
  6
CONTINUOUS
 10
34.8453106074
 20
89.5125190863
  0
VERTEX
  8
0
 62
7
  6
CONTINUOUS
 10
34.7235058152
 20
89.5467516107
  0
VERTEX
  8
0
 62
7
  6
CONTINUOUS
 10
34.5992528058
 20
89.5734047278
  0
VERTEX
  8
0
 62
7
  6
CONTINUOUS
 10
34.473656556
 20
89.5922300392
  0
VERTEX
  8
0
 62
7
  6
CONTINUOUS
 10
34.348018055
 20
89.6030919154
  0
VERTEX
  8
0
 62
7
  6
CONTINUOUS
 10
34.2391447187
 20
89.6060874009
  0
SEQEND
  0
LINE
  8
0
 62
7
  6
CONTINUOUS
 10
36.2391447368
 20
87.6162099263
 11
36.2391447368
 21
82.2930492235
  0
LINE
  8
0
 62
7
  6
CONTINUOUS
 10
37.2414323864
 20
127.2226388948
 11
37.2414323864
 21
117.4764838244
  0
LINE
  8
0
 62
7
  6
CONTINUOUS
 10
39.9414323864
 20
139.0546295749
 11
39.9414323864
 21
134.3612880492
  0
LINE
  8
0
 62
7
  6
CONTINUOUS
 10
42.5914323864
 20
77.6546295749
 11
42.5914323864
 21
82.3479711006
  0
LINE
  8
0
 62
7
  6
CONTINUOUS
 10
45.2914323864
 20
99.1227753254
 11
45.2914323864
 21
89.486620255
  0
LINE
  8
0
 62
7
  6
CONTINUOUS
 10
39.9207682318
 20
134.2518737655
 11
37.3103129017
 21
127.5873531737
  0
LINE
  8
0
 62
7
  6
CONTINUOUS
 10
22.3731193331
 20
94.3991159478
 11
24.898952358
 21
90.0242448172
  0
LINE
  8
0
 62
7
  6
CONTINUOUS
 10
52.2914323864
 20
99.8477753254
 11
52.2914323864
 21
89.486620255
  0
LINE
  8
0
 62
7
  6
CONTINUOUS
 10
54.9914323864
 20
82.3479711006
 11
54.9914323864
 21
77.6546295749
  0
LINE
  8
0
 62
7
  6
CONTINUOUS
 10
56.4914323864
 20
134.3612880492
 11
56.4914323864
 21
139.0546295749
  0
LINE
  8
0
 62
7
  6
CONTINUOUS
 10
27.5620965409
 20
134.2518737655
 11
30.172551871
 21
127.5873531737
  0
LINE
  8
0
 62
7
  6
CONTINUOUS
 10
54.9707682318
 20
82.4573853843
 11
52.3603129017
 21
89.1219059761
  0
LINE
  8
0
 62
7
  6
CONTINUOUS
 10
59.1914323864
 20
127.2226388948
 11
59.1914323864
 21
117.4764838244
  0
LINE
  8
0
 62
7
  6
CONTINUOUS
 10
66.1914323864
 20
127.2226388948
 11
66.1914323864
 21
116.7514838244
  0
LINE
  8
0
 62
7
  6
CONTINUOUS
 10
42.6120965409
 20
82.4573853843
 11
45.222551871
 21
89.1219059761
  0
LINE
  8
0
 62
7
  6
CONTINUOUS
 10
68.8707682318
 20
134.2518737655
 11
66.2603129017
 21
127.5873531737
  0
LINE
  8
0
 62
7
  6
CONTINUOUS
 10
68.8914323864
 20
139.0546295749
 11
68.8914323864
 21
134.3612880492
  0
LINE
  8
0
 62
7
  6
CONTINUOUS
 10
70.3914323864
 20
77.6546295749
 11
70.3914323864
 21
82.3479711006
  0
LINE
  8
0
 62
7
  6
CONTINUOUS
 10
73.0914323864
 20
99.8477753254
 11
73.0914323864
 21
89.486620255
  0
LINE
  8
0
 62
7
  6
CONTINUOUS
 10
27.3948595111
 20
105.9330566996
 11
23.9965040497
 21
102.5347012383
  0
LINE
  8
0
 62
7
  6
CONTINUOUS
 10
40.1380052616
 20
105.9330566996
 11
44.1198595111
 21
101.9512024502
  0
LINE
  8
0
 62
7
  6
CONTINUOUS
 10
56.5120965409
 20
134.2518737655
 11
59.122551871
 21
127.5873531737
  0
LINE
  8
0
 62
7
  6
CONTINUOUS
 10
80.0914323864
 20
99.8477753254
 11
80.0914323864
 21
89.486620255
  0
LINE
  8
0
 62
7
  6
CONTINUOUS
 10
82.7914323864
 20
82.3479711006
 11
82.7914323864
 21
77.6546295749
  0
LINE
  8
0
 62
7
  6
CONTINUOUS
 10
83.0914323864
 20
134.3612880492
 11
83.0914323864
 21
139.0546295749
  0
LINE
  8
0
 62
7
  6
CONTINUOUS
 10
85.7914323864
 20
127.2226388948
 11
85.7914323864
 21
116.7514838244
  0
LINE
  8
0
 62
7
  6
CONTINUOUS
 10
70.4120965409
 20
82.4573853843
 11
73.022551871
 21
89.1219059761
  0
LINE
  8
0
 62
7
  6
CONTINUOUS
 10
54.5880052616
 20
111.2162024501
 11
58.0198595111
 21
114.6480566996
  0
LINE
  8
0
 62
7
  6
CONTINUOUS
 10
38.4130052616
 20
114.6480566996
 11
41.8448595111
 21
111.2162024502
  0
LINE
  8
0
 62
7
  6
CONTINUOUS
 10
82.7707682318
 20
82.4573853843
 11
80.1603129017
 21
89.1219059761
  0
LINE
  8
0
 62
7
  6
CONTINUOUS
 10
92.7914323864
 20
127.2226388948
 11
92.7914323864
 21
111.4302047166
  0
LINE
  8
0
 62
7
  6
CONTINUOUS
 10
95.4914323864
 20
139.0546295749
 11
95.4914323864
 21
134.3612880492
  0
LINE
  8
0
 62
7
  6
CONTINUOUS
 10
95.7914323864
 20
77.6546295749
 11
95.7914323864
 21
82.3479711006
  0
LINE
  8
0
 62
7
  6
CONTINUOUS
 10
98.4914323864
 20
104.2046295749
 11
98.4914323864
 21
89.486620255
  0
LINE
  8
0
 62
7
  6
CONTINUOUS
 10
95.4707682318
 20
134.2518737655
 11
92.8603129017
 21
127.5873531737
  0
LINE
  8
0
 62
7
  6
CONTINUOUS
 10
56.3198595111
 20
105.5330566996
 11
53.4630052616
 21
102.6762024502
  0
LINE
  8
0
 62
7
  6
CONTINUOUS
 10
69.0630052616
 20
105.5330566996
 11
71.9198595111
 21
102.6762024502
  0
LINE
  8
0
 62
7
  6
CONTINUOUS
 10
83.1120965409
 20
134.2518737655
 11
85.722551871
 21
127.5873531737
  0
LINE
  8
0
 62
7
  6
CONTINUOUS
 10
105.4891447368
 20
103.5546295749
 11
105.4891447368
 21
89.4870957304
  0
LINE
  8
0
 62
7
  6
CONTINUOUS
 10
108.1891447368
 20
82.3479748346
 11
108.1891447368
 21
77.6546295749
  0
LINE
  8
0
 62
7
  6
CONTINUOUS
 10
108.4891447368
 20
134.3612880492
 11
108.4891447368
 21
139.0546295749
  0
LINE
  8
0
 62
7
  6
CONTINUOUS
 10
111.1891447368
 20
127.2226388948
 11
111.1891447368
 21
111.4302047166
  0
LINE
  8
0
 62
7
  6
CONTINUOUS
 10
95.8120965409
 20
82.4573853843
 11
98.422551871
 21
89.1219059761
  0
LINE
  8
0
 62
7
  6
CONTINUOUS
 10
84.6198595111
 20
113.9230566996
 11
82.3630052616
 21
111.6662024501
  0
LINE
  8
0
 62
7
  6
CONTINUOUS
 10
67.3630052616
 20
113.9230566996
 11
69.6198595111
 21
111.6662024502
  0
LINE
  8
0
 62
7
  6
CONTINUOUS
 10
108.1684832121
 20
82.4573824041
 11
105.5580164861
 21
89.1224038322
  0
LINE
  8
0
 62
7
  6
CONTINUOUS
 10
118.1891447368
 20
127.2226388948
 11
118.1891447368
 21
111.4302047166
  0
LINE
  8
0
 62
7
  6
CONTINUOUS
 10
120.8891447368
 20
139.0546295749
 11
120.8891447368
 21
134.3612880492
  0
LINE
  8
0
 62
7
  6
CONTINUOUS
 10
121.1891447368
 20
77.6546295749
 11
121.1891447368
 21
82.3479748346
  0
LINE
  8
0
 62
7
  6
CONTINUOUS
 10
123.8891447368
 20
103.5546295749
 11
123.8891447368
 21
89.4870957304
  0
LINE
  8
0
 62
7
  6
CONTINUOUS
 10
118.2580252521
 20
127.5873531737
 11
120.8684805823
 21
134.2518737655
  0
LINE
  8
0
 62
7
  6
CONTINUOUS
 10
83.6198595111
 20
105.0330566996
 11
81.2630052616
 21
102.6762024502
  0
LINE
  8
0
 62
7
  6
CONTINUOUS
 10
27.8644225642
 20
111.8093981472
 11
17.0219021035
 21
106.9960531457
  0
LINE
  8
0
 62
7
  6
CONTINUOUS
 10
108.5098088914
 20
134.2518737655
 11
111.1202642215
 21
127.5873531737
  0
LINE
  8
0
 62
7
  6
CONTINUOUS
 10
130.8891447368
 20
103.5546295749
 11
130.8891447368
 21
89.4870957304
  0
LINE
  8
0
 62
7
  6
CONTINUOUS
 10
133.5891447368
 20
82.3479748346
 11
133.5891447368
 21
77.6546295749
  0
LINE
  8
0
 62
7
  6
CONTINUOUS
 10
133.8891447368
 20
134.3612880492
 11
133.8891447368
 21
139.0546295749
  0
LINE
  8
0
 62
7
  6
CONTINUOUS
 10
121.2098062616
 20
82.4573824041
 11
123.8202729876
 21
89.1224038322
  0
LINE
  8
0
 62
7
  6
CONTINUOUS
 10
337.4449136329
 20
73.8029683549
 11
337.4666861569
 21
73.8046803
  0
LINE
  8
0
 62
7
  6
CONTINUOUS
 10
337.4295199359
 20
73.8018858835
 11
337.4511188824
 21
73.8034348154
  0
LINE
  8
0
 62
7
  6
CONTINUOUS
 10
337.4295199359
 20
73.8018858835
 11
337.4374019861
 21
73.8024221231
  0
LINE
  8
0
 62
7
  6
CONTINUOUS
 10
18.9271874372
 20
73.8034335131
 11
18.9487695313
 21
73.8018858836
  0
LINE
  8
0
 62
7
  6
CONTINUOUS
 10
18.9116033411
 20
73.8046802979
 11
18.9333757822
 21
73.8029683592
  0
LINE
  8
0
 62
7
  6
CONTINUOUS
 10
133.5684832121
 20
82.4573824041
 11
130.9580164861
 21
89.1224038322
  0
LINE
  8
0
 62
7
  6
CONTINUOUS
 10
136.5891447368
 20
127.2226388948
 11
136.5891447368
 21
111.4302047166
  0
LINE
  8
0
 62
7
  6
CONTINUOUS
 10
143.5891447368
 20
127.2226388948
 11
143.5891447368
 21
111.4302047166
  0
LINE
  8
0
 62
7
  6
CONTINUOUS
 10
146.2891447368
 20
139.0546295749
 11
146.2891447368
 21
134.3612880492
  0
LINE
  8
0
 62
7
  6
CONTINUOUS
 10
143.6580252521
 20
127.5873531737
 11
146.2684805823
 21
134.2518737655
  0
POLYLINE
  8
0
 62
7
  6
CONTINUOUS
 66
1
 70
0
  0
VERTEX
  8
0
 62
7
  6
CONTINUOUS
 10
24.7466551217
 20
75.9982708246
  0
VERTEX
  8
0
 62
7
  6
CONTINUOUS
 10
24.7740523656
 20
76.0103898598
  0
VERTEX
  8
0
 62
7
  6
CONTINUOUS
 10
24.8002661129
 20
76.0252838884
  0
VERTEX
  8
0
 62
7
  6
CONTINUOUS
 10
24.8243610544
 20
76.0423472498
  0
VERTEX
  8
0
 62
7
  6
CONTINUOUS
 10
24.8465758104
 20
76.0616138986
  0
VERTEX
  8
0
 62
7
  6
CONTINUOUS
 10
24.8670063823
 20
76.0832063594
  0
VERTEX
  8
0
 62
7
  6
CONTINUOUS
 10
24.8852245468
 20
76.1067502931
  0
VERTEX
  8
0
 62
7
  6
CONTINUOUS
 10
24.9011351903
 20
76.1321909163
  0
VERTEX
  8
0
 62
7
  6
CONTINUOUS
 10
24.9145655085
 20
76.1594189312
  0
VERTEX
  8
0
 62
7
  6
CONTINUOUS
 10
24.9251775889
 20
76.1878728157
  0
VERTEX
  8
0
 62
7
  6
CONTINUOUS
 10
24.9328788766
 20
76.2173510581
  0
VERTEX
  8
0
 62
7
  6
CONTINUOUS
 10
24.937604616
 20
76.2479854309
  0
VERTEX
  8
0
 62
7
  6
CONTINUOUS
 10
24.9391447368
 20
76.2783449525
  0
SEQEND
  0
LINE
  8
0
 62
7
  6
CONTINUOUS
 10
311.0868570873
 20
74.9546295749
 11
304.0868570873
 21
74.9546295749
  0
LINE
  8
0
 62
7
  6
CONTINUOUS
 10
283.2868570873
 20
74.9546295749
 11
276.2868570873
 21
74.9546295749
  0
LINE
  8
0
 62
7
  6
CONTINUOUS
 10
257.8868570873
 20
74.9546295749
 11
250.8891447368
 21
74.9546295749
  0
LINE
  8
0
 62
7
  6
CONTINUOUS
 10
232.4891447368
 20
74.9546295749
 11
225.4891447368
 21
74.9546295749
  0
LINE
  8
0
 62
7
  6
CONTINUOUS
 10
207.0891447368
 20
74.9546295749
 11
200.0891447368
 21
74.9546295749
  0
LINE
  8
0
 62
7
  6
CONTINUOUS
 10
181.6891447368
 20
74.9546295749
 11
174.6891447368
 21
74.9546295749
  0
LINE
  8
0
 62
7
  6
CONTINUOUS
 10
156.2891447368
 20
74.9546295749
 11
149.2891447368
 21
74.9546295749
  0
LINE
  8
0
 62
7
  6
CONTINUOUS
 10
130.8891447368
 20
74.9546295749
 11
123.8891447368
 21
74.9546295749
  0
LINE
  8
0
 62
7
  6
CONTINUOUS
 10
45.2914323864
 20
74.9546295749
 11
52.2914323864
 21
74.9546295749
  0
LINE
  8
0
 62
7
  6
CONTINUOUS
 10
73.0914323864
 20
74.9546295749
 11
80.0914323864
 21
74.9546295749
  0
LINE
  8
0
 62
7
  6
CONTINUOUS
 10
98.4914323864
 20
74.9546295749
 11
105.4891447368
 21
74.9546295749
  0
POLYLINE
  8
0
 62
7
  6
CONTINUOUS
 66
1
 70
0
  0
VERTEX
  8
0
 62
7
  6
CONTINUOUS
 10
18.9487695313
 20
73.8018858836
  0
VERTEX
  8
0
 62
7
  6
CONTINUOUS
 10
18.9766306499
 20
73.8014250841
  0
VERTEX
  8
0
 62
7
  6
CONTINUOUS
 10
19.00479606
 20
73.8035882687
  0
VERTEX
  8
0
 62
7
  6
CONTINUOUS
 10
19.0330627737
 20
73.8084955427
  0
VERTEX
  8
0
 62
7
  6
CONTINUOUS
 10
19.0611371362
 20
73.8162073791
  0
VERTEX
  8
0
 62
7
  6
CONTINUOUS
 10
19.0752241365
 20
73.8212128883
  0
SEQEND
  0
LINE
  8
0
 62
7
  6
CONTINUOUS
 10
146.5891447368
 20
77.6546295749
 11
146.5891447368
 21
82.3479748346
  0
LINE
  8
0
 62
7
  6
CONTINUOUS
 10
149.2891447368
 20
103.5546295749
 11
149.2891447368
 21
89.4870957304
  0
LINE
  8
0
 62
7
  6
CONTINUOUS
 10
156.2891447368
 20
103.5546295749
 11
156.2891447368
 21
89.4870957304
  0
LINE
  8
0
 62
7
  6
CONTINUOUS
 10
24.7466551217
 20
75.9982708246
 11
19.0752254354
 21
73.8212129408
  0
POLYLINE
  8
0
 62
7
  6
CONTINUOUS
 66
1
 70
0
  0
VERTEX
  8
0
 62
7
  6
CONTINUOUS
 10
322.139144755
 20
89.6060874009
  0
VERTEX
  8
0
 62
7
  6
CONTINUOUS
 10
322.0302714177
 20
89.6030919153
  0
VERTEX
  8
0
 62
7
  6
CONTINUOUS
 10
321.9046329168
 20
89.5922300391
  0
VERTEX
  8
0
 62
7
  6
CONTINUOUS
 10
321.779036667
 20
89.5734047276
  0
VERTEX
  8
0
 62
7
  6
CONTINUOUS
 10
321.6547836578
 20
89.5467516105
  0
VERTEX
  8
0
 62
7
  6
CONTINUOUS
 10
321.5329788656
 20
89.5125190861
  0
VERTEX
  8
0
 62
7
  6
CONTINUOUS
 10
321.4138990835
 20
89.4708111697
  0
VERTEX
  8
0
 62
7
  6
CONTINUOUS
 10
321.2975387232
 20
89.4215733676
  0
VERTEX
  8
0
 62
7
  6
CONTINUOUS
 10
321.1842216699
 20
89.3648897872
  0
VERTEX
  8
0
 62
7
  6
CONTINUOUS
 10
321.0743746044
 20
89.3009912434
  0
VERTEX
  8
0
 62
7
  6
CONTINUOUS
 10
320.9685594224
 20
89.2300983403
  0
VERTEX
  8
0
 62
7
  6
CONTINUOUS
 10
320.8677232444
 20
89.1527812929
  0
VERTEX
  8
0
 62
7
  6
CONTINUOUS
 10
320.7723117616
 20
89.0694796576
  0
VERTEX
  8
0
 62
7
  6
CONTINUOUS
 10
320.6824342271
 20
88.9802211512
  0
VERTEX
  8
0
 62
7
  6
CONTINUOUS
 10
320.5984275307
 20
88.8854623638
  0
VERTEX
  8
0
 62
7
  6
CONTINUOUS
 10
320.5206543949
 20
88.7857875455
  0
VERTEX
  8
0
 62
7
  6
CONTINUOUS
 10
320.4495187933
 20
88.6816655565
  0
VERTEX
  8
0
 62
7
  6
CONTINUOUS
 10
320.3851731924
 20
88.5731409148
  0
VERTEX
  8
0
 62
7
  6
CONTINUOUS
 10
320.3277428184
 20
88.4604746065
  0
VERTEX
  8
0
 62
7
  6
CONTINUOUS
 10
320.2775123942
 20
88.3441032331
  0
VERTEX
  8
0
 62
7
  6
CONTINUOUS
 10
320.2347622212
 20
88.2244775145
  0
VERTEX
  8
0
 62
7
  6
CONTINUOUS
 10
320.1996885977
 20
88.1021975972
  0
VERTEX
  8
0
 62
7
  6
CONTINUOUS
 10
320.1724734824
 20
87.9778779102
  0
VERTEX
  8
0
 62
7
  6
CONTINUOUS
 10
320.1532839917
 20
87.8522209624
  0
VERTEX
  8
0
 62
7
  6
CONTINUOUS
 10
320.142193771
 20
87.7258876843
  0
VERTEX
  8
0
 62
7
  6
CONTINUOUS
 10
320.1391447369
 20
87.616219032
  0
SEQEND
  0
POLYLINE
  8
0
 62
7
  6
CONTINUOUS
 66
1
 70
0
  0
VERTEX
  8
0
 62
7
  6
CONTINUOUS
 10
34.2391447251
 20
80.3031717712
  0
VERTEX
  8
0
 62
7
  6
CONTINUOUS
 10
34.3470264855
 20
80.3060928029
  0
VERTEX
  8
0
 62
7
  6
CONTINUOUS
 10
34.4724252859
 20
80.3168281915
  0
VERTEX
  8
0
 62
7
  6
CONTINUOUS
 10
34.5975527106
 20
80.3354856453
  0
VERTEX
  8
0
 62
7
  6
CONTINUOUS
 10
34.721460361
 20
80.3619821153
  0
VERTEX
  8
0
 62
7
  6
CONTINUOUS
 10
34.8432253247
 20
80.3960980201
  0
VERTEX
  8
0
 62
7
  6
CONTINUOUS
 10
34.9622106843
 20
80.4376166762
  0
VERTEX
  8
0
 62
7
  6
CONTINUOUS
 10
35.0779347266
 20
80.4863722097
  0
VERTEX
  8
0
 62
7
  6
CONTINUOUS
 10
35.1903822201
 20
80.5423219491
  0
VERTEX
  8
0
 62
7
  6
CONTINUOUS
 10
35.2997128815
 20
80.605598285
  0
VERTEX
  8
0
 62
7
  6
CONTINUOUS
 10
35.4054206547
 20
80.6761327228
  0
VERTEX
  8
0
 62
7
  6
CONTINUOUS
 10
35.5064447622
 20
80.7532086151
  0
VERTEX
  8
0
 62
7
  6
CONTINUOUS
 10
35.6020874409
 20
80.836224949
  0
VERTEX
  8
0
 62
7
  6
CONTINUOUS
 10
35.6920446718
 20
80.9249810643
  0
VERTEX
  8
0
 62
7
  6
CONTINUOUS
 10
35.7759720402
 20
81.019156271
  0
VERTEX
  8
0
 62
7
  6
CONTINUOUS
 10
35.853938352
 20
81.1186932348
  0
VERTEX
  8
0
 62
7
  6
CONTINUOUS
 10
35.9256983308
 20
81.2232632241
  0
VERTEX
  8
0
 62
7
  6
CONTINUOUS
 10
35.9908800169
 20
81.3324506562
  0
VERTEX
  8
0
 62
7
  6
CONTINUOUS
 10
36.0491637676
 20
81.4459740178
  0
VERTEX
  8
0
 62
7
  6
CONTINUOUS
 10
36.1000631099
 20
81.5633313453
  0
VERTEX
  8
0
 62
7
  6
CONTINUOUS
 10
36.1432210458
 20
81.6839334748
  0
VERTEX
  8
0
 62
7
  6
CONTINUOUS
 10
36.1784934767
 20
81.8070725293
  0
VERTEX
  8
0
 62
7
  6
CONTINUOUS
 10
36.2057743391
 20
81.9319377484
  0
VERTEX
  8
0
 62
7
  6
CONTINUOUS
 10
36.2249753669
 20
82.0576964574
  0
VERTEX
  8
0
 62
7
  6
CONTINUOUS
 10
36.2360659462
 20
82.1834891689
  0
VERTEX
  8
0
 62
7
  6
CONTINUOUS
 10
36.2391447367
 20
82.2930482629
  0
SEQEND
  0
LINE
  8
0
 62
7
  6
CONTINUOUS
 10
24.9718116192
 20
80.3016501346
 11
25.0165519611
 21
80.3023006952
  0
LINE
  8
0
 62
7
  6
CONTINUOUS
 10
25.0165519611
 20
80.3023006952
 11
25.0680495178
 21
80.3028158346
  0
LINE
  8
0
 62
7
  6
CONTINUOUS
 10
25.0680495178
 20
80.3028158346
 11
25.1244058041
 21
80.3031184808
  0
LINE
  8
0
 62
7
  6
CONTINUOUS
 10
25.1244058041
 20
80.3031184808
 11
34.2391447368
 21
80.3031690079
  0
LINE
  8
DEFAULT_1
 62
2
  6
CENTER
 10
351.5891447368
 20
82.9546295749
 11
4.5891447368
 21
82.9546295749
  0
LINE
  8
0
 62
7
  6
CONTINUOUS
 10
322.1391447368
 20
80.3031690079
 11
331.2846295208
 21
80.3029864074
  0
LINE
  8
0
 62
7
  6
CONTINUOUS
 10
331.2846295208
 20
80.3029864074
 11
331.3396156613
 21
80.3025508769
  0
POLYLINE
  8
0
 62
7
  6
CONTINUOUS
 66
1
 70
0
  0
VERTEX
  8
0
 62
7
  6
CONTINUOUS
 10
331.3396156613
 20
80.3025508769
  0
VERTEX
  8
0
 62
7
  6
CONTINUOUS
 10
331.3894670825
 20
80.3019222475
  0
VERTEX
  8
0
 62
7
  6
CONTINUOUS
 10
331.406463071
 20
80.3016470316
  0
SEQEND
  0
LINE
  8
0
 62
7
  6
CONTINUOUS
 10
133.9098088914
 20
134.2518737655
 11
136.5202642215
 21
127.5873531737
  0
LINE
  8
0
 62
7
  6
CONTINUOUS
 10
158.9684832121
 20
82.4573824041
 11
156.3580164861
 21
89.1224038322
  0
LINE
  8
0
 62
7
  6
CONTINUOUS
 10
158.9891447368
 20
82.3479748346
 11
158.9891447368
 21
77.6546295749
  0
LINE
  8
0
 62
7
  6
CONTINUOUS
 10
159.2891447368
 20
134.3612880492
 11
159.2891447368
 21
139.0546295749
  0
LINE
  8
0
 62
7
  6
CONTINUOUS
 10
161.9891447368
 20
127.2226388948
 11
161.9891447368
 21
111.4302047166
  0
LINE
  8
0
 62
7
  6
CONTINUOUS
 10
146.6098062616
 20
82.4573824041
 11
149.2202729876
 21
89.1224038322
  0
LINE
  8
0
 62
7
  6
CONTINUOUS
 10
169.0580252521
 20
127.5873531737
 11
171.6684805823
 21
134.2518737655
  0
LINE
  8
0
 62
7
  6
CONTINUOUS
 10
331.4064624852
 20
89.6076056305
 11
331.3646218592
 21
89.6069887906
  0
LINE
  8
0
 62
7
  6
CONTINUOUS
 10
331.3646218592
 20
89.6069887906
 11
331.3128663619
 21
89.6064602839
  0
LINE
  8
0
 62
7
  6
CONTINUOUS
 10
331.3128663619
 20
89.6064602839
 11
331.2561568457
 21
89.6061468051
  0
LINE
  8
0
 62
7
  6
CONTINUOUS
 10
331.2561568457
 20
89.6061468051
 11
322.1391447368
 21
89.6060901419
  0
LINE
  8
0
 62
7
  6
CONTINUOUS
 10
34.2391447368
 20
89.6060901419
 11
25.1218778358
 21
89.6061476138
  0
LINE
  8
0
 62
7
  6
CONTINUOUS
 10
25.1218778358
 20
89.6061476138
 11
25.0649376436
 21
89.6064641409
  0
LINE
  8
0
 62
7
  6
CONTINUOUS
 10
25.0649376436
 20
89.6064641409
 11
25.0129946427
 21
89.6069972732
  0
LINE
  8
0
 62
7
  6
CONTINUOUS
 10
25.0129946427
 20
89.6069972732
 11
24.9718118528
 21
89.6076064185
  0
LINE
  8
0
 62
7
  6
CONTINUOUS
 10
168.9891447368
 20
127.2226388948
 11
168.9891447368
 21
111.4302047166
  0
LINE
  8
0
 62
7
  6
CONTINUOUS
 10
171.6891447368
 20
139.0546295749
 11
171.6891447368
 21
134.3612880492
  0
LINE
  8
0
 62
7
  6
CONTINUOUS
 10
171.9891447368
 20
77.6546295749
 11
171.9891447368
 21
82.3479748346
  0
LINE
  8
0
 62
7
  6
CONTINUOUS
 10
174.6891447368
 20
103.5546295749
 11
174.6891447368
 21
89.4870957304
  0
LINE
  8
DEFAULT_1
 62
2
  6
CENTER
 10
178.1891447368
 20
108.3546295749
 11
178.1891447368
 21
84.1417585349
  0
LINE
  8
DEFAULT_1
 62
2
  6
CENTER
 10
178.1891447368
 20
108.3546295749
 11
178.1891447368
 21
129.7149665254
  0
LINE
  8
0
 62
7
  6
CONTINUOUS
 10
172.6891447368
 20
105.5546295749
 11
158.2891447368
 21
105.5546295749
  0
LINE
  8
0
 62
7
  6
CONTINUOUS
 10
147.2891447368
 20
105.5546295749
 11
132.8891447368
 21
105.5546295749
  0
LINE
  8
0
 62
7
  6
CONTINUOUS
 10
121.8891447368
 20
105.5546295749
 11
107.4891447368
 21
105.5546295749
  0
LINE
  8
0
 62
7
  6
CONTINUOUS
 10
183.6891447368
 20
105.5546295749
 11
198.0891447368
 21
105.5546295749
  0
LINE
  8
0
 62
7
  6
CONTINUOUS
 10
209.0891447368
 20
105.5546295749
 11
223.4891447368
 21
105.5546295749
  0
LINE
  8
0
 62
7
  6
CONTINUOUS
 10
234.4891447368
 20
105.5546295749
 11
248.8891447368
 21
105.5546295749
  0
LINE
  8
0
 62
7
  6
CONTINUOUS
 10
96.4914323864
 20
106.2046295749
 11
86.4482866358
 21
106.2046295749
  0
LINE
  8
0
 62
7
  6
CONTINUOUS
 10
259.8868570873
 20
106.2046295749
 11
269.9300028378
 21
106.2046295749
  0
LINE
  8
0
 62
7
  6
CONTINUOUS
 10
66.2345781369
 20
106.7046295749
 11
59.1482866358
 21
106.7046295749
  0
LINE
  8
0
 62
7
  6
CONTINUOUS
 10
290.1437113368
 20
106.7046295749
 11
297.2300028378
 21
106.7046295749
  0
LINE
  8
0
 62
7
  6
CONTINUOUS
 10
37.3095781369
 20
107.1046295749
 11
30.2232866358
 21
107.1046295749
  0
LINE
  8
0
 62
7
  6
CONTINUOUS
 10
319.0687113368
 20
107.1046295749
 11
326.1550028378
 21
107.1046295749
  0
LINE
  8
DEFAULT_1
 62
2
  6
CENTER
 10
178.1891447368
 20
108.3546295749
 11
12.2615894613
 21
108.3546295749
  0
LINE
  8
DEFAULT_1
 62
2
  6
CENTER
 10
178.1891447368
 20
108.3546295749
 11
351.8452851135
 21
108.3546295749
  0
LINE
  8
0
 62
7
  6
CONTINUOUS
 10
159.3098088914
 20
134.2518737655
 11
161.9202642215
 21
127.5873531737
  0
LINE
  8
0
 62
7
  6
CONTINUOUS
 10
184.3684832121
 20
82.4573824041
 11
181.7580164861
 21
89.1224038322
  0
LINE
  8
0
 62
7
  6
CONTINUOUS
 10
181.6891447368
 20
89.4870957304
 11
181.6891447368
 21
103.5546295749
  0
LINE
  8
0
 62
7
  6
CONTINUOUS
 10
184.3891447368
 20
77.6546295749
 11
184.3891447368
 21
82.3479748346
  0
LINE
  8
0
 62
7
  6
CONTINUOUS
 10
184.6891447368
 20
134.3612880492
 11
184.6891447368
 21
139.0546295749
  0
LINE
  8
0
 62
7
  6
CONTINUOUS
 10
187.3891447368
 20
127.2226388948
 11
187.3891447368
 21
111.4302047166
  0
LINE
  8
0
 62
7
  6
CONTINUOUS
 10
172.0098062616
 20
82.4573824041
 11
174.6202729876
 21
89.1224038322
  0
LINE
  8
0
 62
7
  6
CONTINUOUS
 10
194.4580252521
 20
127.5873531737
 11
197.0684805823
 21
134.2518737655
  0
LINE
  8
0
 62
7
  6
CONTINUOUS
 10
311.7050028378
 20
110.0446295749
 11
304.6187113368
 21
110.0446295749
  0
LINE
  8
0
 62
7
  6
CONTINUOUS
 10
51.7595781369
 20
110.0446295749
 11
44.6732866358
 21
110.0446295749
  0
LINE
  8
0
 62
7
  6
CONTINUOUS
 10
283.9300028378
 20
110.4946295749
 11
276.8437113368
 21
110.4946295749
  0
LINE
  8
0
 62
7
  6
CONTINUOUS
 10
79.5345781369
 20
110.4946295749
 11
72.4482866358
 21
110.4946295749
  0
LINE
  8
0
 62
7
  6
CONTINUOUS
 10
185.3891447368
 20
110.9799696086
 11
170.9891447368
 21
110.9799696086
  0
LINE
  8
0
 62
7
  6
CONTINUOUS
 10
159.9891447368
 20
110.9799696086
 11
145.5891447368
 21
110.9799696086
  0
LINE
  8
0
 62
7
  6
CONTINUOUS
 10
134.5891447368
 20
110.9799696086
 11
120.1891447368
 21
110.9799696086
  0
LINE
  8
0
 62
7
  6
CONTINUOUS
 10
109.1891447368
 20
110.9799696086
 11
94.7914323864
 21
110.9799696086
  0
LINE
  8
0
 62
7
  6
CONTINUOUS
 10
196.3891447368
 20
110.9799696086
 11
210.7891447368
 21
110.9799696086
  0
LINE
  8
0
 62
7
  6
CONTINUOUS
 10
221.7891447368
 20
110.9799696086
 11
236.1891447368
 21
110.9799696086
  0
LINE
  8
0
 62
7
  6
CONTINUOUS
 10
247.1891447368
 20
110.9799696086
 11
261.5868570873
 21
110.9799696086
  0
LINE
  8
0
 62
7
  6
CONTINUOUS
 10
194.3891447368
 20
111.4302047166
 11
194.3891447368
 21
127.2226388948
  0
LINE
  8
0
 62
7
  6
CONTINUOUS
 10
197.0891447368
 20
134.3612880492
 11
197.0891447368
 21
139.0546295749
  0
LINE
  8
0
 62
7
  6
CONTINUOUS
 10
197.3891447368
 20
77.6546295749
 11
197.3891447368
 21
82.3479748346
  0
LINE
  8
0
 62
7
  6
CONTINUOUS
 10
200.0891447368
 20
103.5546295749
 11
200.0891447368
 21
89.4870957304
  0
POLYLINE
  8
0
 62
7
  6
CONTINUOUS
 66
1
 70
0
  0
VERTEX
  8
0
 62
7
  6
CONTINUOUS
 10
337.3030653371
 20
73.8212128883
  0
VERTEX
  8
0
 62
7
  6
CONTINUOUS
 10
337.3160351772
 20
73.8165755843
  0
VERTEX
  8
0
 62
7
  6
CONTINUOUS
 10
337.3442714449
 20
73.8087105842
  0
VERTEX
  8
0
 62
7
  6
CONTINUOUS
 10
337.372781602
 20
73.8036776662
  0
VERTEX
  8
0
 62
7
  6
CONTINUOUS
 10
337.4012687479
 20
73.8014369485
  0
VERTEX
  8
0
 62
7
  6
CONTINUOUS
 10
337.4295199359
 20
73.8018858835
  0
SEQEND
  0
LINE
  8
0
 62
7
  6
CONTINUOUS
 10
184.7098088914
 20
134.2518737655
 11
187.3202642215
 21
127.5873531737
  0
LINE
  8
0
 62
7
  6
CONTINUOUS
 10
209.7684832121
 20
82.4573824041
 11
207.1580164861
 21
89.1224038322
  0
LINE
  8
0
 62
7
  6
CONTINUOUS
 10
207.0891447368
 20
89.4870957304
 11
207.0891447368
 21
103.5546295749
  0
LINE
  8
0
 62
7
  6
CONTINUOUS
 10
209.7891447368
 20
77.6546295749
 11
209.7891447368
 21
82.3479748346
  0
LINE
  8
0
 62
7
  6
CONTINUOUS
 10
210.0891447368
 20
134.3612880492
 11
210.0891447368
 21
139.0546295749
  0
LINE
  8
0
 62
7
  6
CONTINUOUS
 10
212.7891447368
 20
127.2226388948
 11
212.7891447368
 21
111.4302047166
  0
LINE
  8
0
 62
7
  6
CONTINUOUS
 10
197.4098062616
 20
82.4573824041
 11
200.0202729876
 21
89.1224038322
  0
LINE
  8
0
 62
7
  6
CONTINUOUS
 10
219.8580252521
 20
127.5873531737
 11
222.4684805823
 21
134.2518737655
  0
LINE
  8
DEFAULT_1
 62
2
  6
CENTER
 10
8.4914323864
 20
133.7546295749
 11
347.4914323864
 21
133.7546295749
  0
LINE
  8
0
 62
7
  6
CONTINUOUS
 10
326.1368570873
 20
141.7546295749
 11
319.1368570873
 21
141.7546295749
  0
LINE
  8
0
 62
7
  6
CONTINUOUS
 10
297.1868570873
 20
141.7546295749
 11
290.1868570873
 21
141.7546295749
  0
LINE
  8
0
 62
7
  6
CONTINUOUS
 10
270.5868570873
 20
141.7546295749
 11
263.5868570873
 21
141.7546295749
  0
LINE
  8
0
 62
7
  6
CONTINUOUS
 10
245.1891447368
 20
141.7546295749
 11
238.1891447368
 21
141.7546295749
  0
LINE
  8
0
 62
7
  6
CONTINUOUS
 10
219.7891447368
 20
141.7546295749
 11
212.7891447368
 21
141.7546295749
  0
LINE
  8
0
 62
7
  6
CONTINUOUS
 10
194.3891447368
 20
141.7546295749
 11
187.3891447368
 21
141.7546295749
  0
LINE
  8
0
 62
7
  6
CONTINUOUS
 10
168.9891447368
 20
141.7546295749
 11
161.9891447368
 21
141.7546295749
  0
LINE
  8
0
 62
7
  6
CONTINUOUS
 10
143.5891447368
 20
141.7546295749
 11
136.5891447368
 21
141.7546295749
  0
LINE
  8
0
 62
7
  6
CONTINUOUS
 10
118.1891447368
 20
141.7546295749
 11
111.1891447368
 21
141.7546295749
  0
LINE
  8
0
 62
7
  6
CONTINUOUS
 10
92.7914323864
 20
141.7546295749
 11
85.7914323864
 21
141.7546295749
  0
LINE
  8
0
 62
7
  6
CONTINUOUS
 10
66.1914323864
 20
141.7546295749
 11
59.1914323864
 21
141.7546295749
  0
LINE
  8
0
 62
7
  6
CONTINUOUS
 10
37.2414323864
 20
141.7546295749
 11
30.2414323864
 21
141.7546295749
  0
LINE
  8
0
 62
7
  6
CONTINUOUS
 10
331.631634352
 20
75.9982708246
 11
337.3030640383
 21
73.8212129408
  0
LINE
  8
0
 62
7
  6
CONTINUOUS
 10
219.7891447368
 20
111.4302047166
 11
219.7891447368
 21
127.2226388948
  0
LINE
  8
0
 62
7
  6
CONTINUOUS
 10
222.4891447368
 20
134.3612880492
 11
222.4891447368
 21
139.0546295749
  0
LINE
  8
0
 62
7
  6
CONTINUOUS
 10
222.7891447368
 20
77.6546295749
 11
222.7891447368
 21
82.3479748346
  0
LINE
  8
0
 62
7
  6
CONTINUOUS
 10
210.1098088914
 20
134.2518737655
 11
212.7202642215
 21
127.5873531737
  0
LINE
  8
0
 62
7
  6
CONTINUOUS
 10
235.1684832121
 20
82.4573824041
 11
232.5580164861
 21
89.1224038322
  0
LINE
  8
0
 62
7
  6
CONTINUOUS
 10
225.4891447368
 20
103.5546295749
 11
225.4891447368
 21
89.4870957304
  0
LINE
  8
0
 62
7
  6
CONTINUOUS
 10
232.4891447368
 20
89.4870957304
 11
232.4891447368
 21
103.5546295749
  0
LINE
  8
0
 62
7
  6
CONTINUOUS
 10
222.8098062616
 20
82.4573824041
 11
225.4202729876
 21
89.1224038322
  0
LINE
  8
0
 62
7
  6
CONTINUOUS
 10
245.2580252521
 20
127.5873531737
 11
247.8684805823
 21
134.2518737655
  0
LINE
  8
0
 62
7
  6
CONTINUOUS
 10
235.1891447368
 20
77.6546295749
 11
235.1891447368
 21
82.3479748346
  0
LINE
  8
0
 62
7
  6
CONTINUOUS
 10
235.4891447368
 20
134.3612880492
 11
235.4891447368
 21
139.0546295749
  0
LINE
  8
0
 62
7
  6
CONTINUOUS
 10
238.1891447368
 20
127.2226388948
 11
238.1891447368
 21
111.4302047166
  0
LINE
  8
0
 62
7
  6
CONTINUOUS
 10
245.1891447368
 20
111.4302047166
 11
245.1891447368
 21
127.2226388948
  0
LINE
  8
0
 62
7
  6
CONTINUOUS
 10
339.3563873702
 20
106.9960531457
 11
328.5138669095
 21
111.8093981472
  0
LINE
  8
0
 62
7
  6
CONTINUOUS
 10
272.7584299626
 20
105.0330566996
 11
275.1152842121
 21
102.6762024502
  0
LINE
  8
0
 62
7
  6
CONTINUOUS
 10
235.5098088914
 20
134.2518737655
 11
238.1202642215
 21
127.5873531737
  0
LINE
  8
0
 62
7
  6
CONTINUOUS
 10
260.5661929327
 20
82.4573853843
 11
257.9557376026
 21
89.1219059761
  0
LINE
  8
0
 62
7
  6
CONTINUOUS
 10
247.8891447368
 20
134.3612880492
 11
247.8891447368
 21
139.0546295749
  0
LINE
  8
0
 62
7
  6
CONTINUOUS
 10
248.1891447368
 20
77.6546295749
 11
248.1891447368
 21
82.3479748346
  0
LINE
  8
0
 62
7
  6
CONTINUOUS
 10
250.8891447368
 20
103.5546295749
 11
250.8891447368
 21
89.4870957304
  0
LINE
  8
0
 62
7
  6
CONTINUOUS
 10
248.2098062616
 20
82.4573824041
 11
250.8202729876
 21
89.1224038322
  0
LINE
  8
0
 62
7
  6
CONTINUOUS
 10
270.6557376026
 20
127.5873531737
 11
273.2661929327
 21
134.2518737655
  0
LINE
  8
0
 62
7
  6
CONTINUOUS
 10
289.0152842121
 20
113.9230566996
 11
286.7584299626
 21
111.6662024502
  0
LINE
  8
0
 62
7
  6
CONTINUOUS
 10
284.4584299626
 20
102.6762024502
 11
287.3152842121
 21
105.5330566996
  0
LINE
  8
0
 62
7
  6
CONTINUOUS
 10
274.0152842121
 20
111.6662024501
 11
271.7584299626
 21
113.9230566996
  0
LINE
  8
0
 62
7
  6
CONTINUOUS
 10
257.8868570873
 20
89.486620255
 11
257.8868570873
 21
104.2046295749
  0
LINE
  8
0
 62
7
  6
CONTINUOUS
 10
260.5868570873
 20
77.6546295749
 11
260.5868570873
 21
82.3479711006
  0
LINE
  8
0
 62
7
  6
CONTINUOUS
 10
260.8868570873
 20
134.3612880492
 11
260.8868570873
 21
139.0546295749
  0
LINE
  8
0
 62
7
  6
CONTINUOUS
 10
263.5868570873
 20
127.2226388948
 11
263.5868570873
 21
111.4302047166
  0
LINE
  8
0
 62
7
  6
CONTINUOUS
 10
300.0584299626
 20
105.5330566996
 11
302.9152842121
 21
102.6762024502
  0
LINE
  8
0
 62
7
  6
CONTINUOUS
 10
298.3584299626
 20
114.6480566996
 11
301.7902842121
 21
111.2162024501
  0
LINE
  8
0
 62
7
  6
CONTINUOUS
 10
260.9075212419
 20
134.2518737655
 11
263.517976572
 21
127.5873531737
  0
LINE
  8
0
 62
7
  6
CONTINUOUS
 10
270.5868570873
 20
116.7514838244
 11
270.5868570873
 21
127.2226388948
  0
LINE
  8
0
 62
7
  6
CONTINUOUS
 10
273.2868570873
 20
134.3612880492
 11
273.2868570873
 21
139.0546295749
  0
LINE
  8
0
 62
7
  6
CONTINUOUS
 10
273.5868570873
 20
77.6546295749
 11
273.5868570873
 21
82.3479711006
  0
LINE
  8
0
 62
7
  6
CONTINUOUS
 10
276.2868570873
 20
99.8477753254
 11
276.2868570873
 21
89.486620255
  0
LINE
  8
0
 62
7
  6
CONTINUOUS
 10
273.6075212419
 20
82.4573853843
 11
276.217976572
 21
89.1219059761
  0
LINE
  8
0
 62
7
  6
CONTINUOUS
 10
314.5334299626
 20
111.2162024502
 11
317.9652842121
 21
114.6480566996
  0
LINE
  8
0
 62
7
  6
CONTINUOUS
 10
312.2584299626
 20
101.9512024502
 11
316.2402842121
 21
105.9330566996
  0
LINE
  8
0
 62
7
  6
CONTINUOUS
 10
285.9661929327
 20
82.4573853843
 11
283.3557376026
 21
89.1219059761
  0
LINE
  8
0
 62
7
  6
CONTINUOUS
 10
283.2868570873
 20
89.486620255
 11
283.2868570873
 21
99.8477753254
  0
LINE
  8
0
 62
7
  6
CONTINUOUS
 10
285.9868570873
 20
77.6546295749
 11
285.9868570873
 21
82.3479711006
  0
LINE
  8
0
 62
7
  6
CONTINUOUS
 10
287.4868570873
 20
134.3612880492
 11
287.4868570873
 21
139.0546295749
  0
LINE
  8
0
 62
7
  6
CONTINUOUS
 10
290.1868570873
 20
127.2226388948
 11
290.1868570873
 21
116.7514838244
  0
LINE
  8
0
 62
7
  6
CONTINUOUS
 10
297.2557376026
 20
127.5873531737
 11
299.8661929327
 21
134.2518737655
  0
LINE
  8
0
 62
7
  6
CONTINUOUS
 10
328.9834299626
 20
105.9330566996
 11
332.381785424
 21
102.5347012383
  0
LINE
  8
0
 62
7
  6
CONTINUOUS
 10
287.5075212419
 20
134.2518737655
 11
290.117976572
 21
127.5873531737
  0
LINE
  8
0
 62
7
  6
CONTINUOUS
 10
297.1868570873
 20
117.4764838244
 11
297.1868570873
 21
127.2226388948
  0
LINE
  8
0
 62
7
  6
CONTINUOUS
 10
299.8868570873
 20
134.3612880492
 11
299.8868570873
 21
139.0546295749
  0
LINE
  8
0
 62
7
  6
CONTINUOUS
 10
301.3868570873
 20
77.6546295749
 11
301.3868570873
 21
82.3479711006
  0
LINE
  8
0
 62
7
  6
CONTINUOUS
 10
313.7661929327
 20
82.4573853843
 11
311.1557376026
 21
89.1219059761
  0
LINE
  8
0
 62
7
  6
CONTINUOUS
 10
304.0868570873
 20
99.8477753254
 11
304.0868570873
 21
89.486620255
  0
LINE
  8
0
 62
7
  6
CONTINUOUS
 10
311.0868570873
 20
89.486620255
 11
311.0868570873
 21
99.1227753254
  0
LINE
  8
0
 62
7
  6
CONTINUOUS
 10
301.4075212419
 20
82.4573853843
 11
304.017976572
 21
89.1219059761
  0
LINE
  8
0
 62
7
  6
CONTINUOUS
 10
326.2057376026
 20
127.5873531737
 11
328.8161929327
 21
134.2518737655
  0
POLYLINE
  8
0
 62
7
  6
CONTINUOUS
 66
1
 70
0
  0
VERTEX
  8
0
 62
7
  6
CONTINUOUS
 10
320.139144737
 20
82.293047457
  0
VERTEX
  8
0
 62
7
  6
CONTINUOUS
 10
320.1422247171
 20
82.1835681081
  0
VERTEX
  8
0
 62
7
  6
CONTINUOUS
 10
320.1533138882
 20
82.0577974703
  0
VERTEX
  8
0
 62
7
  6
CONTINUOUS
 10
320.1725021148
 20
81.9320307556
  0
VERTEX
  8
0
 62
7
  6
CONTINUOUS
 10
320.1997483915
 20
81.8072031409
  0
VERTEX
  8
0
 62
7
  6
CONTINUOUS
 10
320.2349887258
 20
81.6841407221
  0
VERTEX
  8
0
 62
7
  6
CONTINUOUS
 10
320.2781180803
 20
81.5636034789
  0
VERTEX
  8
0
 62
7
  6
CONTINUOUS
 10
320.3289268951
 20
81.4463925591
  0
VERTEX
  8
0
 62
7
  6
CONTINUOUS
 10
320.3870991575
 20
81.3330109241
  0
VERTEX
  8
0
 62
7
  6
CONTINUOUS
 10
320.4522288583
 20
81.223829509
  0
VERTEX
  8
0
 62
7
  6
CONTINUOUS
 10
320.5239784293
 20
81.1192008491
  0
VERTEX
  8
0
 62
7
  6
CONTINUOUS
 10
320.6019617092
 20
81.0195821785
  0
VERTEX
  8
0
 62
7
  6
CONTINUOUS
 10
320.6859177696
 20
80.9253253794
  0
VERTEX
  8
0
 62
7
  6
CONTINUOUS
 10
320.775894028
 20
80.8365099462
  0
VERTEX
  8
0
 62
7
  6
CONTINUOUS
 10
320.8715420718
 20
80.7534550218
  0
VERTEX
  8
0
 62
7
  6
CONTINUOUS
 10
320.9725740464
 20
80.6763433157
  0
VERTEX
  8
0
 62
7
  6
CONTINUOUS
 10
321.0783017018
 20
80.6057692912
  0
VERTEX
  8
0
 62
7
  6
CONTINUOUS
 10
321.1876573213
 20
80.5424562492
  0
VERTEX
  8
0
 62
7
  6
CONTINUOUS
 10
321.3001297136
 20
80.4864755164
  0
VERTEX
  8
0
 62
7
  6
CONTINUOUS
 10
321.4158796248
 20
80.4376932864
  0
VERTEX
  8
0
 62
7
  6
CONTINUOUS
 10
321.5348938016
 20
80.3961515489
  0
VERTEX
  8
0
 62
7
  6
CONTINUOUS
 10
321.6566901343
 20
80.3620164192
  0
VERTEX
  8
0
 62
7
  6
CONTINUOUS
 10
321.7806311186
 20
80.3355048
  0
VERTEX
  8
0
 62
7
  6
CONTINUOUS
 10
321.9057932645
 20
80.3168365056
  0
VERTEX
  8
0
 62
7
  6
CONTINUOUS
 10
322.0312274999
 20
80.306094724
  0
VERTEX
  8
0
 62
7
  6
CONTINUOUS
 10
322.1391447486
 20
80.3031717712
  0
SEQEND
  0
LINE
  8
0
 62
7
  6
CONTINUOUS
 10
313.7868570873
 20
77.6546295749
 11
313.7868570873
 21
82.3479711006
  0
LINE
  8
0
 62
7
  6
CONTINUOUS
 10
316.4368570873
 20
134.3612880492
 11
316.4368570873
 21
139.0546295749
  0
LINE
  8
0
 62
7
  6
CONTINUOUS
 10
319.1368570873
 20
127.2226388948
 11
319.1368570873
 21
117.4764838244
  0
LINE
  8
0
 62
7
  6
CONTINUOUS
 10
320.1391447368
 20
82.2930492235
 11
320.1391447368
 21
87.6162099263
  0
LINE
  8
0
 62
7
  6
CONTINUOUS
 10
334.0051701406
 20
94.3991159478
 11
331.4793371157
 21
90.0242448172
  0
LINE
  8
0
 62
7
  6
CONTINUOUS
 10
316.4575212419
 20
134.2518737655
 11
319.067976572
 21
127.5873531737
  0
POLYLINE
  8
0
 62
7
  6
CONTINUOUS
 66
1
 70
0
  0
VERTEX
  8
0
 62
7
  6
CONTINUOUS
 10
331.2222331723
 20
82.8452030937
  0
VERTEX
  8
0
 62
7
  6
CONTINUOUS
 10
331.2491365704
 20
82.3120605121
  0
VERTEX
  8
0
 62
7
  6
CONTINUOUS
 10
331.3201860266
 20
81.2587074198
  0
VERTEX
  8
0
 62
7
  6
CONTINUOUS
 10
331.4148126422
 20
80.2090262893
  0
SEQEND
  0
POLYLINE
  8
0
 62
7
  6
CONTINUOUS
 66
1
 70
0
  0
VERTEX
  8
0
 62
7
  6
CONTINUOUS
 10
331.4391447368
 20
76.2783449525
  0
VERTEX
  8
0
 62
7
  6
CONTINUOUS
 10
331.4406405368
 20
76.2484243481
  0
VERTEX
  8
0
 62
7
  6
CONTINUOUS
 10
331.4451511435
 20
76.2186141642
  0
VERTEX
  8
0
 62
7
  6
CONTINUOUS
 10
331.4524463089
 20
76.1900046366
  0
VERTEX
  8
0
 62
7
  6
CONTINUOUS
 10
331.4624722186
 20
76.1623608259
  0
VERTEX
  8
0
 62
7
  6
CONTINUOUS
 10
331.4753088552
 20
76.1355491979
  0
VERTEX
  8
0
 62
7
  6
CONTINUOUS
 10
331.4907602046
 20
76.1101036849
  0
VERTEX
  8
0
 62
7
  6
CONTINUOUS
 10
331.5088092077
 20
76.0861327156
  0
VERTEX
  8
0
 62
7
  6
CONTINUOUS
 10
331.5294157539
 20
76.0638367855
  0
VERTEX
  8
0
 62
7
  6
CONTINUOUS
 10
331.552176714
 20
76.0437325947
  0
VERTEX
  8
0
 62
7
  6
CONTINUOUS
 10
331.5769371295
 20
76.025978766
  0
VERTEX
  8
0
 62
7
  6
CONTINUOUS
 10
331.6038432267
 20
76.0105885308
  0
VERTEX
  8
0
 62
7
  6
CONTINUOUS
 10
331.631634352
 20
75.9982708246
  0
SEQEND
  0
LINE
  8
0
 62
7
  6
CONTINUOUS
 10
326.1368570873
 20
115.4653389129
 11
326.1368570873
 21
127.2226388948
  0
LINE
  8
0
 62
7
  6
CONTINUOUS
 10
328.8368570873
 20
134.3612880492
 11
328.8368570873
 21
139.0546295749
  0
LINE
  8
0
 62
7
  6
CONTINUOUS
 10
331.4391447368
 20
76.2783449525
 11
331.4391447368
 21
89.8742448172
  0
LINE
  8
0
 62
7
  6
CONTINUOUS
 10
334.1391447368
 20
98.2920605511
 11
334.1391447368
 21
94.8991159478
  0
LINE
  8
0
 62
7
  6
CONTINUOUS
 10
341.1391447368
 20
77.7913176818
 11
341.1391447368
 21
104.2540975714
  0
POLYLINE
  8
0
 62
7
  6
CONTINUOUS
 66
1
 70
0
  0
VERTEX
  8
0
 62
7
  6
CONTINUOUS
 10
331.2222331723
 20
87.0640560561
  0
VERTEX
  8
0
 62
7
  6
CONTINUOUS
 10
331.2017324817
 20
86.5412224767
  0
VERTEX
  8
0
 62
7
  6
CONTINUOUS
 10
331.1780190441
 20
85.483669864
  0
VERTEX
  8
0
 62
7
  6
CONTINUOUS
 10
331.178019018
 20
84.4255916087
  0
VERTEX
  8
0
 62
7
  6
CONTINUOUS
 10
331.2017324114
 20
83.3680387615
  0
VERTEX
  8
0
 62
7
  6
CONTINUOUS
 10
331.2222331723
 20
82.8452030937
  0
SEQEND
  0
POLYLINE
  8
0
 62
7
  6
CONTINUOUS
 66
1
 70
0
  0
VERTEX
  8
0
 62
7
  6
CONTINUOUS
 10
331.2136894559
 20
86.8729313968
  0
VERTEX
  8
0
 62
7
  6
CONTINUOUS
 10
331.1885777437
 20
86.2350534155
  0
VERTEX
  8
0
 62
7
  6
CONTINUOUS
 10
331.1734870002
 20
85.5956319798
  0
VERTEX
  8
0
 62
7
  6
CONTINUOUS
 10
331.1684451774
 20
84.9552846941
  0
VERTEX
  8
0
 62
7
  6
CONTINUOUS
 10
331.1734677704
 20
84.3148504447
  0
VERTEX
  8
0
 62
7
  6
CONTINUOUS
 10
331.1885461975
 20
83.6752082982
  0
VERTEX
  8
0
 62
7
  6
CONTINUOUS
 10
331.2136894562
 20
83.0363277462
  0
SEQEND
  0
POLYLINE
  8
0
 62
7
  6
CONTINUOUS
 66
1
 70
0
  0
VERTEX
  8
0
 62
7
  6
CONTINUOUS
 10
331.4148126422
 20
89.7002328605
  0
VERTEX
  8
0
 62
7
  6
CONTINUOUS
 10
331.3201860993
 20
88.6505526536
  0
VERTEX
  8
0
 62
7
  6
CONTINUOUS
 10
331.2491366615
 20
87.5972002588
  0
VERTEX
  8
0
 62
7
  6
CONTINUOUS
 10
331.2222331723
 20
87.0640560561
  0
SEQEND
  0
POLYLINE
  8
0
 62
7
  6
CONTINUOUS
 66
1
 70
0
  0
VERTEX
  8
0
 62
7
  6
CONTINUOUS
 10
331.4391447368
 20
89.7870284612
  0
VERTEX
  8
0
 62
7
  6
CONTINUOUS
 10
331.435681243
 20
89.7798817294
  0
VERTEX
  8
0
 62
7
  6
CONTINUOUS
 10
331.4279506757
 20
89.7599992882
  0
VERTEX
  8
0
 62
7
  6
CONTINUOUS
 10
331.4219781342
 20
89.7401785392
  0
VERTEX
  8
0
 62
7
  6
CONTINUOUS
 10
331.4176222035
 20
89.7203118535
  0
VERTEX
  8
0
 62
7
  6
CONTINUOUS
 10
331.4148126422
 20
89.7002328605
  0
SEQEND
  0
POLYLINE
  8
0
 62
7
  6
CONTINUOUS
 66
1
 70
0
  0
VERTEX
  8
0
 62
7
  6
CONTINUOUS
 10
331.4148126422
 20
80.2090262893
  0
VERTEX
  8
0
 62
7
  6
CONTINUOUS
 10
331.4180141355
 20
80.1868341047
  0
VERTEX
  8
0
 62
7
  6
CONTINUOUS
 10
331.4231139492
 20
80.1649049993
  0
VERTEX
  8
0
 62
7
  6
CONTINUOUS
 10
331.4302300799
 20
80.1430234428
  0
VERTEX
  8
0
 62
7
  6
CONTINUOUS
 10
331.4391447368
 20
80.1220483766
  0
SEQEND
  0
LINE
  8
0
 62
7
  6
CONTINUOUS
 10
377.9299190059
 20
73.9711838372
 11
378.1117505397
 21
74.0166880448
  0
LINE
  8
0
 62
7
  6
CONTINUOUS
 10
377.7552941289
 20
73.9342514563
 11
377.9319422179
 21
73.9716493149
  0
LINE
  8
0
 62
7
  6
CONTINUOUS
 10
377.5859686708
 20
73.9041646121
 11
377.7587467062
 21
73.9349215905
  0
LINE
  8
0
 62
7
  6
CONTINUOUS
 10
377.4205773244
 20
73.8797040038
 11
377.5907554407
 21
73.9049426682
  0
LINE
  8
0
 62
7
  6
CONTINUOUS
 10
377.2578369159
 20
73.8599082272
 11
377.4262618384
 21
73.8804692813
  0
LINE
  8
0
 62
7
  6
CONTINUOUS
 10
377.0974006012
 20
73.8440805515
 11
377.2638174166
 21
73.8605661993
  0
LINE
  8
0
 62
7
  6
CONTINUOUS
 10
376.9390634058
 20
73.8316271214
 11
377.1032100393
 21
73.8445948537
  0
LINE
  8
0
 62
7
  6
CONTINUOUS
 10
376.7825508176
 20
73.822023487
 11
376.9443726461
 21
73.8319979299
  0
LINE
  8
0
 62
7
  6
CONTINUOUS
 10
376.6279418916
 20
73.8147877599
 11
376.7871716803
 21
73.8222721368
  0
LINE
  8
0
 62
7
  6
CONTINUOUS
 10
376.4759111636
 20
73.8094929813
 11
376.6318169722
 21
73.8149449296
  0
LINE
  8
0
 62
7
  6
CONTINUOUS
 10
376.3278089723
 20
73.805795971
 11
376.4790170808
 21
73.8095851049
  0
LINE
  8
0
 62
7
  6
CONTINUOUS
 10
376.1848284882
 20
73.803387078
 11
376.3301456667
 21
73.8058442846
  0
LINE
  8
0
 62
7
  6
CONTINUOUS
 10
376.0478985894
 20
73.8019905653
 11
376.1864223439
 21
73.8034083186
  0
LINE
  8
0
 62
7
  6
CONTINUOUS
 10
375.9153698634
 20
73.8013695822
 11
376.0488064631
 21
73.8019971641
  0
LINE
  8
0
 62
7
  6
CONTINUOUS
 10
375.7836289617
 20
73.8013549478
 11
375.9150833697
 21
73.8013689312
  0
LINE
  8
0
 62
7
  6
CONTINUOUS
 10
375.6496284992
 20
73.801963027
 11
375.7833128983
 21
73.8013556045
  0
LINE
  8
0
 62
7
  6
CONTINUOUS
 10
375.5113481511
 20
73.8033622188
 11
375.6505696981
 21
73.8019563132
  0
LINE
  8
0
 62
7
  6
CONTINUOUS
 10
375.3668901071
 20
73.8057880199
 11
375.5129827446
 21
73.8033406838
  0
LINE
  8
0
 62
7
  6
CONTINUOUS
 10
375.2173468416
 20
73.8095223018
 11
375.3692713434
 21
73.8057391624
  0
LINE
  8
0
 62
7
  6
CONTINUOUS
 10
375.0639963992
 20
73.8148775193
 11
375.2204987151
 21
73.809429311
  0
LINE
  8
0
 62
7
  6
CONTINUOUS
 10
374.9082477471
 20
73.8222022302
 11
375.0679157788
 21
73.8147191321
  0
LINE
  8
0
 62
7
  6
CONTINUOUS
 10
374.7507316578
 20
73.831924522
 11
374.9129106744
 21
73.8219519187
  0
LINE
  8
0
 62
7
  6
CONTINUOUS
 10
374.5915939176
 20
73.844526706
 11
374.7560735671
 21
73.8315522907
  0
LINE
  8
0
 62
7
  6
CONTINUOUS
 10
374.4307792062
 20
73.8605330337
 11
374.5974187135
 21
73.8440112883
  0
LINE
  8
0
 62
7
  6
CONTINUOUS
 10
374.2682685162
 20
73.880482874
 11
374.4367525367
 21
73.8598746848
  0
LINE
  8
0
 62
7
  6
CONTINUOUS
 10
374.1038133198
 20
73.9049830781
 11
374.2739289237
 21
73.8797194148
  0
LINE
  8
0
 62
7
  6
CONTINUOUS
 10
373.9358934352
 20
73.9349490474
 11
374.1085661181
 21
73.9042099399
  0
LINE
  8
0
 62
7
  6
CONTINUOUS
 10
373.7627864712
 20
73.9716084161
 11
373.9393170864
 21
73.9342849762
  0
LINE
  8
0
 62
7
  6
CONTINUOUS
 10
373.4071942558
 20
74.0679605705
 11
373.583908388
 21
74.0163033892
  0
POLYLINE
  8
0
 62
7
  6
CONTINUOUS
 66
1
 70
0
  0
VERTEX
  8
0
 62
7
  6
CONTINUOUS
 10
373.4071943375
 20
74.0679605491
  0
VERTEX
  8
0
 62
7
  6
CONTINUOUS
 10
373.5831149925
 20
74.0165181141
  0
VERTEX
  8
0
 62
7
  6
CONTINUOUS
 10
373.7647948033
 20
73.971147219
  0
SEQEND
  0
LINE
  8
0
 62
7
  6
CONTINUOUS
 10
373.4069421718
 20
74.0680306859
 11
373.4071760156
 21
74.0679572813
  0
LINE
  8
0
 62
7
  6
CONTINUOUS
 10
368.6305619437
 20
79.9445037724
 11
355.3113479432
 21
80.4201899867
  0
LINE
  8
DEFAULT_1
 62
2
  6
CENTER
 10
375.8470394737
 20
82.9546295749
 11
370.8470144737
 21
82.9546295749
  0
LINE
  8
DEFAULT_1
 62
2
  6
CENTER
 10
375.8470394737
 20
82.9546295749
 11
380.8470644737
 21
82.9546295749
  0
LINE
  8
0
 62
7
  6
CONTINUOUS
 10
355.3113479432
 20
89.4890691631
 11
368.0577469328
 21
89.9442976984
  0
LINE
  8
0
 62
7
  6
CONTINUOUS
 10
354.3470394737
 20
88.4879959355
 11
354.3470394737
 21
81.419552841
  0
POLYLINE
  8
0
 62
7
  6
CONTINUOUS
 66
1
 70
0
  0
VERTEX
  8
0
 62
7
  6
CONTINUOUS
 10
369.408817695
 20
77.6638758909
  0
VERTEX
  8
0
 62
7
  6
CONTINUOUS
 10
369.4974637801
 20
77.4811007649
  0
VERTEX
  8
0
 62
7
  6
CONTINUOUS
 10
369.6006658074
 20
77.2823435383
  0
VERTEX
  8
0
 62
7
  6
CONTINUOUS
 10
369.7122644129
 20
77.0821675205
  0
VERTEX
  8
0
 62
7
  6
CONTINUOUS
 10
369.832299887
 20
76.8817352635
  0
VERTEX
  8
0
 62
7
  6
CONTINUOUS
 10
369.9608558181
 20
76.6820027729
  0
VERTEX
  8
0
 62
7
  6
CONTINUOUS
 10
370.0979681862
 20
76.4838304413
  0
VERTEX
  8
0
 62
7
  6
CONTINUOUS
 10
370.2435891122
 20
76.2881106599
  0
VERTEX
  8
0
 62
7
  6
CONTINUOUS
 10
370.3983548048
 20
76.0949055725
  0
VERTEX
  8
0
 62
7
  6
CONTINUOUS
 10
370.5630054565
 20
75.9043498516
  0
VERTEX
  8
0
 62
7
  6
CONTINUOUS
 10
370.7382364573
 20
75.7167187703
  0
VERTEX
  8
0
 62
7
  6
CONTINUOUS
 10
370.9245046625
 20
75.5324618154
  0
VERTEX
  8
0
 62
7
  6
CONTINUOUS
 10
371.1221265519
 20
75.3522102943
  0
VERTEX
  8
0
 62
7
  6
CONTINUOUS
 10
371.3316185042
 20
75.1766330925
  0
VERTEX
  8
0
 62
7
  6
CONTINUOUS
 10
371.5529776491
 20
75.0067932062
  0
VERTEX
  8
0
 62
7
  6
CONTINUOUS
 10
371.7857663085
 20
74.8439790137
  0
VERTEX
  8
0
 62
7
  6
CONTINUOUS
 10
372.0303148283
 20
74.6889183786
  0
VERTEX
  8
0
 62
7
  6
CONTINUOUS
 10
372.286461232
 20
74.5425411422
  0
VERTEX
  8
0
 62
7
  6
CONTINUOUS
 10
372.5540000811
 20
74.4057221346
  0
VERTEX
  8
0
 62
7
  6
CONTINUOUS
 10
372.8322816512
 20
74.2797628068
  0
VERTEX
  8
0
 62
7
  6
CONTINUOUS
 10
373.1208876402
 20
74.1656171894
  0
VERTEX
  8
0
 62
7
  6
CONTINUOUS
 10
373.4069421718
 20
74.0680306859
  0
SEQEND
  0
POLYLINE
  8
0
 62
7
  6
CONTINUOUS
 66
1
 70
0
  0
VERTEX
  8
0
 62
7
  6
CONTINUOUS
 10
368.3470394737
 20
82.4577575819
  0
VERTEX
  8
0
 62
7
  6
CONTINUOUS
 10
368.35550042
 20
82.0206360275
  0
VERTEX
  8
0
 62
7
  6
CONTINUOUS
 10
368.38222709
 20
81.5659684746
  0
VERTEX
  8
0
 62
7
  6
CONTINUOUS
 10
368.4272540853
 20
81.1115066516
  0
VERTEX
  8
0
 62
7
  6
CONTINUOUS
 10
368.4904964345
 20
80.6586910145
  0
VERTEX
  8
0
 62
7
  6
CONTINUOUS
 10
368.5717653049
 20
80.2089435702
  0
VERTEX
  8
0
 62
7
  6
CONTINUOUS
 10
368.6707681342
 20
79.763675121
  0
VERTEX
  8
0
 62
7
  6
CONTINUOUS
 10
368.7871187021
 20
79.324243883
  0
VERTEX
  8
0
 62
7
  6
CONTINUOUS
 10
368.9203423954
 20
78.8919544899
  0
VERTEX
  8
0
 62
7
  6
CONTINUOUS
 10
369.0698719299
 20
78.4680781471
  0
VERTEX
  8
0
 62
7
  6
CONTINUOUS
 10
369.2350467159
 20
78.0538462717
  0
VERTEX
  8
0
 62
7
  6
CONTINUOUS
 10
369.4088012924
 20
77.6638681934
  0
SEQEND
  0
LINE
  8
0
 62
7
  6
CONTINUOUS
 10
368.3470394737
 20
82.4577575819
 11
368.3470394737
 21
134.4046295749
  0
LINE
  8
DEFAULT_1
 62
2
  6
CENTER
 10
358.3914366999
 20
108.3546295749
 11
389.1365131579
 21
108.3546295749
  0
LINE
  8
0
 62
7
  6
CONTINUOUS
 10
372.7470394737
 20
133.7546295749
 11
372.7470394737
 21
117.2546295749
  0
LINE
  8
DEFAULT_1
 62
2
  6
CENTER
 10
375.8470394737
 20
133.7546295749
 11
375.8470394737
 21
128.7545295749
  0
LINE
  8
DEFAULT_1
 62
2
  6
CENTER
 10
375.8470394737
 20
82.9546295749
 11
375.8470394737
 21
77.9546045749
  0
LINE
  8
DEFAULT_1
 62
2
  6
CENTER
 10
375.8470394737
 20
82.9546295749
 11
375.8470394737
 21
87.9546545749
  0
LINE
  8
DEFAULT_1
 62
2
  6
CENTER
 10
375.8470394737
 20
133.7546295749
 11
375.8470394737
 21
138.7547295749
  0
LINE
  8
0
 62
7
  6
CONTINUOUS
 10
378.9470394737
 20
117.2546295749
 11
378.9470394737
 21
133.7546295749
  0
LINE
  8
0
 62
7
  6
CONTINUOUS
 10
383.3470394737
 20
82.3046295749
 11
383.3470394737
 21
134.4046295749
  0
POLYLINE
  8
0
 62
7
  6
CONTINUOUS
 66
1
 70
0
  0
VERTEX
  8
0
 62
7
  6
CONTINUOUS
 10
383.311744407
 20
81.5646075819
  0
VERTEX
  8
0
 62
7
  6
CONTINUOUS
 10
383.3385259487
 20
82.0192790475
  0
VERTEX
  8
0
 62
7
  6
CONTINUOUS
 10
383.3470394737
 20
82.4577575819
  0
SEQEND
  0
POLYLINE
  8
0
 62
7
  6
CONTINUOUS
 66
1
 70
0
  0
VERTEX
  8
0
 62
7
  6
CONTINUOUS
 10
382.285277655
 20
77.6638681934
  0
VERTEX
  8
0
 62
7
  6
CONTINUOUS
 10
382.4585075342
 20
78.0526042145
  0
VERTEX
  8
0
 62
7
  6
CONTINUOUS
 10
382.6237296876
 20
78.4668075174
  0
VERTEX
  8
0
 62
7
  6
CONTINUOUS
 10
382.7733084632
 20
78.8906588239
  0
VERTEX
  8
0
 62
7
  6
CONTINUOUS
 10
382.9065830429
 20
79.3229269476
  0
VERTEX
  8
0
 62
7
  6
CONTINUOUS
 10
383.0229858996
 20
79.7623409057
  0
VERTEX
  8
0
 62
7
  6
CONTINUOUS
 10
383.1220421563
 20
80.2075962644
  0
VERTEX
  8
0
 62
7
  6
CONTINUOUS
 10
383.2033652938
 20
80.6573349106
  0
VERTEX
  8
0
 62
7
  6
CONTINUOUS
 10
383.2666624273
 20
81.1101460321
  0
VERTEX
  8
0
 62
7
  6
CONTINUOUS
 10
383.311744407
 20
81.5646075819
  0
SEQEND
  0
LINE
  8
DEFAULT_1
 62
2
  6
CENTER
 10
375.8470394737
 20
133.7546295749
 11
370.8469394737
 21
133.7546295749
  0
LINE
  8
DEFAULT_1
 62
2
  6
CENTER
 10
375.8470394737
 20
133.7546295749
 11
380.8471394737
 21
133.7546295749
  0
POLYLINE
  8
0
 62
7
  6
CONTINUOUS
 66
1
 70
0
  0
VERTEX
  8
0
 62
7
  6
CONTINUOUS
 10
380.9561422458
 20
75.7170561236
  0
VERTEX
  8
0
 62
7
  6
CONTINUOUS
 10
381.1313355458
 20
75.904664634
  0
VERTEX
  8
0
 62
7
  6
CONTINUOUS
 10
381.2960298235
 20
76.0952885703
  0
VERTEX
  8
0
 62
7
  6
CONTINUOUS
 10
381.4509219797
 20
76.2886797755
  0
VERTEX
  8
0
 62
7
  6
CONTINUOUS
 10
381.5966077274
 20
76.4844953277
  0
VERTEX
  8
0
 62
7
  6
CONTINUOUS
 10
381.733645616
 20
76.68254402
  0
VERTEX
  8
0
 62
7
  6
CONTINUOUS
 10
381.8620305489
 20
76.8819869495
  0
VERTEX
  8
0
 62
7
  6
CONTINUOUS
 10
381.9819038257
 20
77.0821574571
  0
VERTEX
  8
0
 62
7
  6
CONTINUOUS
 10
382.0934500939
 20
77.2822962609
  0
VERTEX
  8
0
 62
7
  6
CONTINUOUS
 10
382.196795607
 20
77.4814215405
  0
VERTEX
  8
0
 62
7
  6
CONTINUOUS
 10
382.2852612586
 20
77.6638758879
  0
SEQEND
  0
LINE
  8
0
 62
7
  6
CONTINUOUS
 10
380.7700391609
 20
75.5329152143
 11
380.9561427638
 21
75.7170566232
  0
LINE
  8
0
 62
7
  6
CONTINUOUS
 10
380.5727039414
 20
75.3528671491
 11
380.7700385548
 21
75.5329146642
  0
LINE
  8
0
 62
7
  6
CONTINUOUS
 10
380.3633842251
 20
75.177381313
 11
380.5727043908
 21
75.3528675255
  0
POLYLINE
  8
0
 62
7
  6
CONTINUOUS
 66
1
 70
0
  0
VERTEX
  8
0
 62
7
  6
CONTINUOUS
 10
378.2871370626
 20
74.0680307672
  0
VERTEX
  8
0
 62
7
  6
CONTINUOUS
 10
378.5742443152
 20
74.1660031509
  0
VERTEX
  8
0
 62
7
  6
CONTINUOUS
 10
378.8628393074
 20
74.2802021909
  0
VERTEX
  8
0
 62
7
  6
CONTINUOUS
 10
379.1410605588
 20
74.4061934818
  0
VERTEX
  8
0
 62
7
  6
CONTINUOUS
 10
379.4085276266
 20
74.5430335984
  0
VERTEX
  8
0
 62
7
  6
CONTINUOUS
 10
379.6646079894
 20
74.6894274278
  0
VERTEX
  8
0
 62
7
  6
CONTINUOUS
 10
379.9091498893
 20
74.8445344321
  0
VERTEX
  8
0
 62
7
  6
CONTINUOUS
 10
380.1420512931
 20
75.0075004893
  0
VERTEX
  8
0
 62
7
  6
CONTINUOUS
 10
380.3633843096
 20
75.1773813867
  0
SEQEND
  0
LINE
  8
0
 62
7
  6
CONTINUOUS
 10
378.2871181922
 20
74.0680343654
 11
378.2868841791
 21
74.0679604092
  0
LINE
  8
0
 62
7
  6
CONTINUOUS
 10
378.1109566909
 20
74.0164727429
 11
378.2868841791
 21
74.0679604092
  0
LINE
  8
0
 62
7
  6
CONTINUOUS
 10
375.9970394737
 20
141.7546295749
 11
375.6970394737
 21
141.7546295749
  0
LINE
  8
0
 62
7
  6
CONTINUOUS
 10
15.2391447368
 20
219.8973684211
 11
15.2391447368
 21
205.4973684211
  0
POLYLINE
  8
0
 62
7
  6
CONTINUOUS
 66
1
 70
0
  0
VERTEX
  8
0
 62
7
  6
CONTINUOUS
 10
20.8285984818
 20
193.0278909432
  0
VERTEX
  8
0
 62
7
  6
CONTINUOUS
 10
20.8312909108
 20
192.9988351098
  0
VERTEX
  8
0
 62
7
  6
CONTINUOUS
 10
20.8367745264
 20
192.9500979151
  0
VERTEX
  8
0
 62
7
  6
CONTINUOUS
 10
20.8437556563
 20
192.8995059548
  0
VERTEX
  8
0
 62
7
  6
CONTINUOUS
 10
20.8523580597
 20
192.847238059
  0
VERTEX
  8
0
 62
7
  6
CONTINUOUS
 10
20.8627043504
 20
192.7934369492
  0
VERTEX
  8
0
 62
7
  6
CONTINUOUS
 10
20.8749031303
 20
192.7382854208
  0
VERTEX
  8
0
 62
7
  6
CONTINUOUS
 10
20.889049782
 20
192.6819817536
  0
VERTEX
  8
0
 62
7
  6
CONTINUOUS
 10
20.9052439954
 20
192.6246731754
  0
VERTEX
  8
0
 62
7
  6
CONTINUOUS
 10
20.9235920059
 20
192.5664735949
  0
VERTEX
  8
0
 62
7
  6
CONTINUOUS
 10
20.9406483354
 20
192.5172532098
  0
SEQEND
  0
LINE
  8
0
 62
7
  6
CONTINUOUS
 10
20.8285935706
 20
193.0278794122
 11
20.8250750636
 21
193.0761630393
  0
LINE
  8
0
 62
7
  6
CONTINUOUS
 10
20.0944149394
 20
205.1105650851
 11
20.8250750636
 21
193.0761630393
  0
LINE
  8
0
 62
7
  6
CONTINUOUS
 10
25.2098443019
 20
196.3972905797
 11
25.2032351812
 21
204.3832779767
  0
LINE
  8
0
 62
7
  6
CONTINUOUS
 10
24.9391447368
 20
204.6473684211
 11
24.9391447368
 21
219.8973684211
  0
LINE
  8
0
 62
7
  6
CONTINUOUS
 10
36.2391447368
 20
195.9375770155
 11
36.2391447368
 21
192.1973684211
  0
LINE
  8
0
 62
7
  6
CONTINUOUS
 10
42.5914323864
 20
207.8973684211
 11
42.5914323864
 21
217.4973684211
  0
LINE
  8
0
 62
7
  6
CONTINUOUS
 10
54.9914323864
 20
207.8973684211
 11
54.9914323864
 21
217.4973684211
  0
LINE
  8
0
 62
7
  6
CONTINUOUS
 10
70.3914323864
 20
207.8973684211
 11
70.3914323864
 21
217.4973684211
  0
LINE
  8
0
 62
7
  6
CONTINUOUS
 10
25.2032359626
 20
204.3832771953
 11
24.6391447368
 21
204.9473684211
  0
LINE
  8
0
 62
7
  6
CONTINUOUS
 10
82.7914323864
 20
207.8973684211
 11
82.7914323864
 21
217.4973684211
  0
LINE
  8
0
 62
7
  6
CONTINUOUS
 10
95.7914323864
 20
207.8973684211
 11
95.7914323864
 21
217.4973684211
  0
LINE
  8
0
 62
7
  6
CONTINUOUS
 10
108.1891447368
 20
217.4973684211
 11
108.1891447368
 21
207.8973684211
  0
LINE
  8
0
 62
7
  6
CONTINUOUS
 10
121.1891447368
 20
207.8973684211
 11
121.1891447368
 21
217.4973684211
  0
LINE
  8
0
 62
7
  6
CONTINUOUS
 10
133.5891447368
 20
217.4973684211
 11
133.5891447368
 21
207.8973684211
  0
LINE
  8
0
 62
7
  6
CONTINUOUS
 10
146.5891447368
 20
207.8973684211
 11
146.5891447368
 21
217.4973684211
  0
LINE
  8
0
 62
7
  6
CONTINUOUS
 10
158.9891447368
 20
217.4973684211
 11
158.9891447368
 21
207.8973684211
  0
LINE
  8
0
 62
7
  6
CONTINUOUS
 10
35.2391447368
 20
191.1973684211
 11
22.8213989991
 21
191.1973684211
  0
LINE
  8
0
 62
7
  6
CONTINUOUS
 10
321.1391447368
 20
191.1973684211
 11
333.5568904746
 21
191.1973684211
  0
LINE
  8
0
 62
7
  6
CONTINUOUS
 10
330.9684362525
 20
196.1975770451
 11
320.3991447368
 21
196.1975770451
  0
LINE
  8
0
 62
7
  6
CONTINUOUS
 10
25.4098532196
 20
196.1975770451
 11
35.9791447368
 21
196.1975770451
  0
POLYLINE
  8
0
 62
7
  6
CONTINUOUS
 66
1
 70
0
  0
VERTEX
  8
0
 62
7
  6
CONTINUOUS
 10
25.4098445254
 20
196.1975770451
  0
VERTEX
  8
0
 62
7
  6
CONTINUOUS
 10
25.4009740726
 20
196.1977773376
  0
VERTEX
  8
0
 62
7
  6
CONTINUOUS
 10
25.3785498408
 20
196.2000535845
  0
VERTEX
  8
0
 62
7
  6
CONTINUOUS
 10
25.3564832271
 20
196.2048268551
  0
VERTEX
  8
0
 62
7
  6
CONTINUOUS
 10
25.3350098842
 20
196.2121070139
  0
VERTEX
  8
0
 62
7
  6
CONTINUOUS
 10
25.314425801
 20
196.2218609683
  0
VERTEX
  8
0
 62
7
  6
CONTINUOUS
 10
25.2950383717
 20
196.2338768296
  0
VERTEX
  8
0
 62
7
  6
CONTINUOUS
 10
25.2771131927
 20
196.2479867758
  0
VERTEX
  8
0
 62
7
  6
CONTINUOUS
 10
25.2609342175
 20
196.2640798669
  0
VERTEX
  8
0
 62
7
  6
CONTINUOUS
 10
25.2467416279
 20
196.281920975
  0
VERTEX
  8
0
 62
7
  6
CONTINUOUS
 10
25.2346377626
 20
196.3012299437
  0
VERTEX
  8
0
 62
7
  6
CONTINUOUS
 10
25.2247813631
 20
196.3217465116
  0
VERTEX
  8
0
 62
7
  6
CONTINUOUS
 10
25.217384841
 20
196.3431726779
  0
VERTEX
  8
0
 62
7
  6
CONTINUOUS
 10
25.2124910009
 20
196.3652241431
  0
VERTEX
  8
0
 62
7
  6
CONTINUOUS
 10
25.2100937752
 20
196.3876726947
  0
VERTEX
  8
0
 62
7
  6
CONTINUOUS
 10
25.209844351
 20
196.3972905613
  0
SEQEND
  0
LINE
  8
0
 62
7
  6
CONTINUOUS
 10
171.9891447368
 20
207.8973684211
 11
171.9891447368
 21
217.4973684211
  0
LINE
  8
DEFAULT_1
 62
2
  6
CENTER
 10
178.1891447368
 20
186.185367941
 11
178.1891447368
 21
225.9868421053
  0
LINE
  8
0
 62
7
  6
CONTINUOUS
 10
340.8391447368
 20
205.1973684211
 11
336.5714828762
 21
205.1973684211
  0
LINE
  8
0
 62
7
  6
CONTINUOUS
 10
19.8068065975
 20
205.1973684211
 11
15.5391447368
 21
205.1973684211
  0
LINE
  8
0
 62
7
  6
CONTINUOUS
 10
24.9391447368
 20
205.1973684211
 11
331.4391447368
 21
205.1973684211
  0
LINE
  8
0
 62
7
  6
CONTINUOUS
 10
184.3891447368
 20
217.4973684211
 11
184.3891447368
 21
207.8973684211
  0
LINE
  8
DEFAULT_1
 62
2
  6
CENTER
 10
8.7483460014
 20
212.6973684211
 11
347.6299446334
 21
212.6973684211
  0
LINE
  8
0
 62
7
  6
CONTINUOUS
 10
197.3891447368
 20
207.8973684211
 11
197.3891447368
 21
217.4973684211
  0
LINE
  8
0
 62
7
  6
CONTINUOUS
 10
15.5391447368
 20
220.1973684211
 11
340.8391447368
 21
220.1973684211
  0
LINE
  8
0
 62
7
  6
CONTINUOUS
 10
209.7891447368
 20
217.4973684211
 11
209.7891447368
 21
207.8973684211
  0
LINE
  8
0
 62
7
  6
CONTINUOUS
 10
222.7891447368
 20
207.8973684211
 11
222.7891447368
 21
217.4973684211
  0
LINE
  8
0
 62
7
  6
CONTINUOUS
 10
235.1891447368
 20
217.4973684211
 11
235.1891447368
 21
207.8973684211
  0
LINE
  8
0
 62
7
  6
CONTINUOUS
 10
248.1891447368
 20
207.8973684211
 11
248.1891447368
 21
217.4973684211
  0
LINE
  8
0
 62
7
  6
CONTINUOUS
 10
260.5868570873
 20
217.4973684211
 11
260.5868570873
 21
207.8973684211
  0
LINE
  8
0
 62
7
  6
CONTINUOUS
 10
273.5868570873
 20
207.8973684211
 11
273.5868570873
 21
217.4973684211
  0
LINE
  8
0
 62
7
  6
CONTINUOUS
 10
285.9868570873
 20
217.4973684211
 11
285.9868570873
 21
207.8973684211
  0
LINE
  8
0
 62
7
  6
CONTINUOUS
 10
331.1750548541
 20
204.3832785383
 11
331.7391447368
 21
204.9473684211
  0
LINE
  8
0
 62
7
  6
CONTINUOUS
 10
301.3868570873
 20
207.8973684211
 11
301.3868570873
 21
217.4973684211
  0
LINE
  8
0
 62
7
  6
CONTINUOUS
 10
313.7868570873
 20
207.8973684211
 11
313.7868570873
 21
217.4973684211
  0
LINE
  8
0
 62
7
  6
CONTINUOUS
 10
320.1391447368
 20
192.1973684211
 11
320.1391447368
 21
195.9375770451
  0
LINE
  8
0
 62
7
  6
CONTINUOUS
 10
331.4391447368
 20
204.6473684211
 11
331.4391447368
 21
219.8973684211
  0
LINE
  8
0
 62
7
  6
CONTINUOUS
 10
341.1391447368
 20
205.4973684211
 11
341.1391447368
 21
219.8973684211
  0
LINE
  8
0
 62
7
  6
CONTINUOUS
 10
331.1750542925
 20
204.3832779767
 11
331.1684451721
 21
196.3972910418
  0
POLYLINE
  8
0
 62
7
  6
CONTINUOUS
 66
1
 70
0
  0
VERTEX
  8
0
 62
7
  6
CONTINUOUS
 10
331.1684451234
 20
196.3972910235
  0
VERTEX
  8
0
 62
7
  6
CONTINUOUS
 10
331.1682509941
 20
196.3888417254
  0
VERTEX
  8
0
 62
7
  6
CONTINUOUS
 10
331.1659895862
 20
196.3664134698
  0
VERTEX
  8
0
 62
7
  6
CONTINUOUS
 10
331.161230499
 20
196.3443421785
  0
VERTEX
  8
0
 62
7
  6
CONTINUOUS
 10
331.1539637732
 20
196.3228630977
  0
VERTEX
  8
0
 62
7
  6
CONTINUOUS
 10
331.1442228723
 20
196.3022720549
  0
VERTEX
  8
0
 62
7
  6
CONTINUOUS
 10
331.1322196373
 20
196.2828766237
  0
VERTEX
  8
0
 62
7
  6
CONTINUOUS
 10
331.1181213627
 20
196.2649425014
  0
VERTEX
  8
0
 62
7
  6
CONTINUOUS
 10
331.1020385385
 20
196.2487535264
  0
VERTEX
  8
0
 62
7
  6
CONTINUOUS
 10
331.0842066513
 20
196.2345494836
  0
VERTEX
  8
0
 62
7
  6
CONTINUOUS
 10
331.064905977
 20
196.222433125
  0
VERTEX
  8
0
 62
7
  6
CONTINUOUS
 10
331.0443966583
 20
196.2125637096
  0
VERTEX
  8
0
 62
7
  6
CONTINUOUS
 10
331.0229764839
 20
196.2051537484
  0
VERTEX
  8
0
 62
7
  6
CONTINUOUS
 10
331.0009298998
 20
196.2002456652
  0
VERTEX
  8
0
 62
7
  6
CONTINUOUS
 10
330.9784855075
 20
196.1978334823
  0
VERTEX
  8
0
 62
7
  6
CONTINUOUS
 10
330.9684449483
 20
196.1975770451
  0
SEQEND
  0
LINE
  8
0
 62
7
  6
CONTINUOUS
 10
336.2838745343
 20
205.1105650851
 11
335.5532144101
 21
193.0761630393
  0
LINE
  8
0
 62
7
  6
CONTINUOUS
 10
335.5497023099
 20
193.0279547585
 11
335.5532144101
 21
193.0761630393
  0
POLYLINE
  8
0
 62
7
  6
CONTINUOUS
 66
1
 70
0
  0
VERTEX
  8
0
 62
7
  6
CONTINUOUS
 10
335.4375332224
 20
192.5169544742
  0
VERTEX
  8
0
 62
7
  6
CONTINUOUS
 10
335.4416570103
 20
192.5284772335
  0
VERTEX
  8
0
 62
7
  6
CONTINUOUS
 10
335.4607769788
 20
192.5850857822
  0
VERTEX
  8
0
 62
7
  6
CONTINUOUS
 10
335.4778416399
 20
192.6409843961
  0
VERTEX
  8
0
 62
7
  6
CONTINUOUS
 10
335.4929382345
 20
192.6960561993
  0
VERTEX
  8
0
 62
7
  6
CONTINUOUS
 10
335.5061590449
 20
192.7501976878
  0
VERTEX
  8
0
 62
7
  6
CONTINUOUS
 10
335.5175857496
 20
192.8032490311
  0
VERTEX
  8
0
 62
7
  6
CONTINUOUS
 10
335.5273030439
 20
192.8550246036
  0
VERTEX
  8
0
 62
7
  6
CONTINUOUS
 10
335.5354081574
 20
192.905353725
  0
VERTEX
  8
0
 62
7
  6
CONTINUOUS
 10
335.5420111042
 20
192.954100511
  0
VERTEX
  8
0
 62
7
  6
CONTINUOUS
 10
335.5472234727
 20
193.0010957379
  0
VERTEX
  8
0
 62
7
  6
CONTINUOUS
 10
335.549697415
 20
193.0279662842
  0
SEQEND
  0
ARC
  8
0
 62
7
  6
CONTINUOUS
 10
19.2391447368
 20
77.7913176818
 40
4.0
 50
180.0
 51
265.7911480681
  0
ARC
  8
0
 62
7
  6
CONTINUOUS
 10
73.0914323864
 20
77.6546295749
 40
2.7
 50
180.0
 51
270.0
  0
ARC
  8
0
 62
7
  6
CONTINUOUS
 10
80.0914323864
 20
77.6546295749
 40
2.7
 50
270.0
 51
360.0
  0
ARC
  8
0
 62
7
  6
CONTINUOUS
 10
52.2914323864
 20
77.6546295749
 40
2.7
 50
270.0
 51
360.0
  0
ARC
  8
0
 62
7
  6
CONTINUOUS
 10
45.2914323864
 20
77.6546295749
 40
2.7
 50
180.0
 51
270.0
  0
ARC
  8
0
 62
7
  6
CONTINUOUS
 10
44.2914323864
 20
89.486620255
 40
1.0
 50
338.61
 51
360.0
  0
ARC
  8
0
 62
7
  6
CONTINUOUS
 10
81.0914323864
 20
89.486620255
 40
1.0
 50
180.0
 51
201.39
  0
ARC
  8
0
 62
7
  6
CONTINUOUS
 10
53.2914323864
 20
89.486620255
 40
1.0
 50
180.0
 51
201.39
  0
ARC
  8
0
 62
7
  6
CONTINUOUS
 10
72.0914323864
 20
89.486620255
 40
1.0
 50
338.61
 51
360.0
  0
ARC
  8
0
 62
7
  6
CONTINUOUS
 10
24.6391447368
 20
89.8742448172
 40
0.3
 50
0.0
 51
30.0
  0
ARC
  8
0
 62
7
  6
CONTINUOUS
 10
42.8914323864
 20
82.3479711006
 40
0.3
 50
158.61
 51
180.0
  0
ARC
  8
0
 62
7
  6
CONTINUOUS
 10
82.4914323864
 20
82.3479711006
 40
0.3
 50
0.0
 51
21.39
  0
ARC
  8
0
 62
7
  6
CONTINUOUS
 10
54.6914323864
 20
82.3479711006
 40
0.3
 50
0.0
 51
21.39
  0
ARC
  8
0
 62
7
  6
CONTINUOUS
 10
96.0914323864
 20
82.3479711006
 40
0.3
 50
158.61
 51
180.0
  0
ARC
  8
0
 62
7
  6
CONTINUOUS
 10
70.6914323864
 20
82.3479711006
 40
0.3
 50
158.61
 51
180.0
  0
ARC
  8
0
 62
7
  6
CONTINUOUS
 10
28.2391447368
 20
98.2920605511
 40
6.0
 50
135.0
 51
180.0
  0
ARC
  8
0
 62
7
  6
CONTINUOUS
 10
30.2232866358
 20
103.1046295749
 40
4.0
 50
90.0
 51
135.0
  0
ARC
  8
0
 62
7
  6
CONTINUOUS
 10
37.3095781369
 20
103.1046295749
 40
4.0
 50
45.0
 51
90.0
  0
ARC
  8
0
 62
7
  6
CONTINUOUS
 10
41.2914323864
 20
99.1227753254
 40
4.0
 50
0.0
 51
45.0
  0
ARC
  8
0
 62
7
  6
CONTINUOUS
 10
84.0914323864
 20
99.8477753254
 40
4.0
 50
135.0
 51
180.0
  0
ARC
  8
0
 62
7
  6
CONTINUOUS
 10
86.4482866358
 20
102.2046295749
 40
4.0
 50
90.0
 51
135.0
  0
ARC
  8
0
 62
7
  6
CONTINUOUS
 10
56.2914323864
 20
99.8477753254
 40
4.0
 50
135.0
 51
180.0
  0
ARC
  8
0
 62
7
  6
CONTINUOUS
 10
69.0914323864
 20
99.8477753254
 40
4.0
 50
0.0
 51
45.0
  0
ARC
  8
0
 62
7
  6
CONTINUOUS
 10
66.2345781369
 20
102.7046295749
 40
4.0
 50
45.0
 51
90.0
  0
ARC
  8
0
 62
7
  6
CONTINUOUS
 10
59.1482866358
 20
102.7046295749
 40
4.0
 50
90.0
 51
135.0
  0
ARC
  8
0
 62
7
  6
CONTINUOUS
 10
18.2391447368
 20
104.2540975714
 40
3.0
 50
113.9379806067
 51
180.0
  0
ARC
  8
0
 62
7
  6
CONTINUOUS
 10
23.2391447368
 20
94.8991159478
 40
1.0
 50
180.0
 51
210.0
  0
ARC
  8
0
 62
7
  6
CONTINUOUS
 10
156.2891447368
 20
77.6546295749
 40
2.7
 50
270.0
 51
360.0
  0
ARC
  8
0
 62
7
  6
CONTINUOUS
 10
174.6891447368
 20
77.6546295749
 40
2.7
 50
180.0
 51
270.0
  0
ARC
  8
0
 62
7
  6
CONTINUOUS
 10
105.4891447368
 20
77.6546295749
 40
2.7
 50
270.0
 51
360.0
  0
ARC
  8
0
 62
7
  6
CONTINUOUS
 10
123.8891447368
 20
77.6546295749
 40
2.7
 50
180.0
 51
270.0
  0
ARC
  8
0
 62
7
  6
CONTINUOUS
 10
98.4914323864
 20
77.6546295749
 40
2.7
 50
180.0
 51
270.0
  0
ARC
  8
0
 62
7
  6
CONTINUOUS
 10
149.2891447368
 20
77.6546295749
 40
2.7
 50
180.0
 51
270.0
  0
ARC
  8
0
 62
7
  6
CONTINUOUS
 10
130.8891447368
 20
77.6546295749
 40
2.7
 50
270.0
 51
360.0
  0
ARC
  8
0
 62
7
  6
CONTINUOUS
 10
157.2891447368
 20
89.4870957304
 40
1.0
 50
180.0
 51
201.3886228278
  0
ARC
  8
0
 62
7
  6
CONTINUOUS
 10
173.6891447368
 20
89.4870957304
 40
1.0
 50
338.6113771722
 51
360.0
  0
ARC
  8
0
 62
7
  6
CONTINUOUS
 10
122.8891447368
 20
89.4870957304
 40
1.0
 50
338.6113771722
 51
360.0
  0
ARC
  8
0
 62
7
  6
CONTINUOUS
 10
106.4891447368
 20
89.4870957304
 40
1.0
 50
180.0
 51
201.3886228278
  0
ARC
  8
0
 62
7
  6
CONTINUOUS
 10
131.8891447368
 20
89.4870957304
 40
1.0
 50
180.0
 51
201.3886228278
  0
ARC
  8
0
 62
7
  6
CONTINUOUS
 10
148.2891447368
 20
89.4870957304
 40
1.0
 50
338.6113771722
 51
360.0
  0
ARC
  8
0
 62
7
  6
CONTINUOUS
 10
97.4914323864
 20
89.486620255
 40
1.0
 50
338.61
 51
360.0
  0
ARC
  8
0
 62
7
  6
CONTINUOUS
 10
172.2891447368
 20
82.3479748346
 40
0.3
 50
158.6113771722
 51
180.0
  0
ARC
  8
0
 62
7
  6
CONTINUOUS
 10
158.6891447368
 20
82.3479748346
 40
0.3
 50
0.0
 51
21.3886228278
  0
ARC
  8
0
 62
7
  6
CONTINUOUS
 10
121.4891447368
 20
82.3479748346
 40
0.3
 50
158.6113771722
 51
180.0
  0
ARC
  8
0
 62
7
  6
CONTINUOUS
 10
107.8891447368
 20
82.3479748346
 40
0.3
 50
0.0
 51
21.3886228278
  0
ARC
  8
0
 62
7
  6
CONTINUOUS
 10
133.2891447368
 20
82.3479748346
 40
0.3
 50
0.0
 51
21.3886228278
  0
ARC
  8
0
 62
7
  6
CONTINUOUS
 10
146.8891447368
 20
82.3479748346
 40
0.3
 50
158.6113771722
 51
180.0
  0
ARC
  8
0
 62
7
  6
CONTINUOUS
 10
158.2891447368
 20
103.5546295749
 40
2.0
 50
90.0
 51
180.0
  0
ARC
  8
0
 62
7
  6
CONTINUOUS
 10
172.6891447368
 20
103.5546295749
 40
2.0
 50
0.0
 51
90.0
  0
ARC
  8
0
 62
7
  6
CONTINUOUS
 10
121.8891447368
 20
103.5546295749
 40
2.0
 50
0.0
 51
90.0
  0
ARC
  8
0
 62
7
  6
CONTINUOUS
 10
107.4891447368
 20
103.5546295749
 40
2.0
 50
90.0
 51
180.0
  0
ARC
  8
0
 62
7
  6
CONTINUOUS
 10
132.8891447368
 20
103.5546295749
 40
2.0
 50
90.0
 51
180.0
  0
ARC
  8
0
 62
7
  6
CONTINUOUS
 10
147.2891447368
 20
103.5546295749
 40
2.0
 50
0.0
 51
90.0
  0
ARC
  8
0
 62
7
  6
CONTINUOUS
 10
96.4914323864
 20
104.2046295749
 40
2.0
 50
0.0
 51
90.0
  0
ARC
  8
0
 62
7
  6
CONTINUOUS
 10
26.2414323864
 20
115.4653389129
 40
4.0
 50
293.9379806067
 51
360.0
  0
ARC
  8
0
 62
7
  6
CONTINUOUS
 10
79.5345781369
 20
114.4946295749
 40
4.0
 50
270.0
 51
315.0
  0
ARC
  8
0
 62
7
  6
CONTINUOUS
 10
72.4482866358
 20
114.4946295749
 40
4.0
 50
225.0
 51
270.0
  0
ARC
  8
0
 62
7
  6
CONTINUOUS
 10
70.1914323864
 20
116.7514838244
 40
4.0
 50
180.0
 51
225.0
  0
ARC
  8
0
 62
7
  6
CONTINUOUS
 10
81.7914323864
 20
116.7514838244
 40
4.0
 50
315.0
 51
360.0
  0
ARC
  8
0
 62
7
  6
CONTINUOUS
 10
55.1914323864
 20
117.4764838244
 40
4.0
 50
315.0
 51
360.0
  0
ARC
  8
0
 62
7
  6
CONTINUOUS
 10
44.6732866358
 20
114.0446295749
 40
4.0
 50
225.0
 51
270.0
  0
ARC
  8
0
 62
7
  6
CONTINUOUS
 10
51.7595781369
 20
114.0446295749
 40
4.0
 50
270.0
 51
315.0
  0
ARC
  8
0
 62
7
  6
CONTINUOUS
 10
41.2414323864
 20
117.4764838244
 40
4.0
 50
180.0
 51
225.0
  0
ARC
  8
0
 62
7
  6
CONTINUOUS
 10
94.7914323864
 20
112.9799696086
 40
2.0
 50
180.0
 51
270.0
  0
ARC
  8
0
 62
7
  6
CONTINUOUS
 10
66.1914323864
 20
139.0546295749
 40
2.7
 50
0.0
 51
90.0
  0
ARC
  8
0
 62
7
  6
CONTINUOUS
 10
59.1914323864
 20
139.0546295749
 40
2.7
 50
90.0
 51
180.0
  0
ARC
  8
0
 62
7
  6
CONTINUOUS
 10
37.2414323864
 20
139.0546295749
 40
2.7
 50
0.0
 51
90.0
  0
ARC
  8
0
 62
7
  6
CONTINUOUS
 10
30.2414323864
 20
139.0546295749
 40
2.7
 50
90.0
 51
180.0
  0
ARC
  8
0
 62
7
  6
CONTINUOUS
 10
85.7914323864
 20
139.0546295749
 40
2.7
 50
90.0
 51
180.0
  0
ARC
  8
0
 62
7
  6
CONTINUOUS
 10
92.7914323864
 20
139.0546295749
 40
2.7
 50
0.0
 51
90.0
  0
ARC
  8
0
 62
7
  6
CONTINUOUS
 10
93.7914323864
 20
127.2226388948
 40
1.0
 50
158.61
 51
180.0
  0
ARC
  8
0
 62
7
  6
CONTINUOUS
 10
67.1914323864
 20
127.2226388948
 40
1.0
 50
158.61
 51
180.0
  0
ARC
  8
0
 62
7
  6
CONTINUOUS
 10
29.2414323864
 20
127.2226388948
 40
1.0
 50
0.0
 51
21.39
  0
ARC
  8
0
 62
7
  6
CONTINUOUS
 10
84.7914323864
 20
127.2226388948
 40
1.0
 50
0.0
 51
21.39
  0
ARC
  8
0
 62
7
  6
CONTINUOUS
 10
58.1914323864
 20
127.2226388948
 40
1.0
 50
0.0
 51
21.39
  0
ARC
  8
0
 62
7
  6
CONTINUOUS
 10
38.2414323864
 20
127.2226388948
 40
1.0
 50
158.61
 51
180.0
  0
ARC
  8
0
 62
7
  6
CONTINUOUS
 10
95.1914323864
 20
134.3612880492
 40
0.3
 50
338.61
 51
360.0
  0
ARC
  8
0
 62
7
  6
CONTINUOUS
 10
68.5914323864
 20
134.3612880492
 40
0.3
 50
338.61
 51
360.0
  0
ARC
  8
0
 62
7
  6
CONTINUOUS
 10
27.8414323864
 20
134.3612880492
 40
0.3
 50
180.0
 51
201.39
  0
ARC
  8
0
 62
7
  6
CONTINUOUS
 10
83.3914323864
 20
134.3612880492
 40
0.3
 50
180.0
 51
201.39
  0
ARC
  8
0
 62
7
  6
CONTINUOUS
 10
56.7914323864
 20
134.3612880492
 40
0.3
 50
180.0
 51
201.39
  0
ARC
  8
0
 62
7
  6
CONTINUOUS
 10
39.6414323864
 20
134.3612880492
 40
0.3
 50
338.61
 51
360.0
  0
ARC
  8
0
 62
7
  6
CONTINUOUS
 10
134.5891447368
 20
112.9799696086
 40
2.0
 50
270.0
 51
360.0
  0
ARC
  8
0
 62
7
  6
CONTINUOUS
 10
145.5891447368
 20
112.9799696086
 40
2.0
 50
180.0
 51
270.0
  0
ARC
  8
0
 62
7
  6
CONTINUOUS
 10
120.1891447368
 20
112.9799696086
 40
2.0
 50
180.0
 51
270.0
  0
ARC
  8
0
 62
7
  6
CONTINUOUS
 10
109.1891447368
 20
112.9799696086
 40
2.0
 50
270.0
 51
360.0
  0
ARC
  8
0
 62
7
  6
CONTINUOUS
 10
159.9891447368
 20
112.9799696086
 40
2.0
 50
270.0
 51
360.0
  0
ARC
  8
0
 62
7
  6
CONTINUOUS
 10
170.9891447368
 20
112.9799696086
 40
2.0
 50
180.0
 51
270.0
  0
ARC
  8
0
 62
7
  6
CONTINUOUS
 10
110.1891447368
 20
127.2226388948
 40
1.0
 50
0.0
 51
21.39
  0
ARC
  8
0
 62
7
  6
CONTINUOUS
 10
119.1891447368
 20
127.2226388948
 40
1.0
 50
158.61
 51
180.0
  0
ARC
  8
0
 62
7
  6
CONTINUOUS
 10
135.5891447368
 20
127.2226388948
 40
1.0
 50
0.0
 51
21.39
  0
ARC
  8
0
 62
7
  6
CONTINUOUS
 10
118.1891447368
 20
139.0546295749
 40
2.7
 50
0.0
 51
90.0
  0
ARC
  8
0
 62
7
  6
CONTINUOUS
 10
111.1891447368
 20
139.0546295749
 40
2.7
 50
90.0
 51
180.0
  0
ARC
  8
0
 62
7
  6
CONTINUOUS
 10
136.5891447368
 20
139.0546295749
 40
2.7
 50
90.0
 51
180.0
  0
ARC
  8
0
 62
7
  6
CONTINUOUS
 10
120.5891447368
 20
134.3612880492
 40
0.3
 50
338.61
 51
360.0
  0
ARC
  8
0
 62
7
  6
CONTINUOUS
 10
108.7891447368
 20
134.3612880492
 40
0.3
 50
180.0
 51
201.39
  0
ARC
  8
0
 62
7
  6
CONTINUOUS
 10
134.1891447368
 20
134.3612880492
 40
0.3
 50
180.0
 51
201.39
  0
ARC
  8
0
 62
7
  6
CONTINUOUS
 10
160.9891447368
 20
127.2226388948
 40
1.0
 50
0.0
 51
21.39
  0
ARC
  8
0
 62
7
  6
CONTINUOUS
 10
169.9891447368
 20
127.2226388948
 40
1.0
 50
158.61
 51
180.0
  0
ARC
  8
0
 62
7
  6
CONTINUOUS
 10
144.5891447368
 20
127.2226388948
 40
1.0
 50
158.61
 51
180.0
  0
ARC
  8
0
 62
7
  6
CONTINUOUS
 10
161.9891447368
 20
139.0546295749
 40
2.7
 50
90.0
 51
180.0
  0
ARC
  8
0
 62
7
  6
CONTINUOUS
 10
168.9891447368
 20
139.0546295749
 40
2.7
 50
0.0
 51
90.0
  0
ARC
  8
0
 62
7
  6
CONTINUOUS
 10
143.5891447368
 20
139.0546295749
 40
2.7
 50
0.0
 51
90.0
  0
ARC
  8
0
 62
7
  6
CONTINUOUS
 10
159.5891447368
 20
134.3612880492
 40
0.3
 50
180.0
 51
201.39
  0
ARC
  8
0
 62
7
  6
CONTINUOUS
 10
171.3891447368
 20
134.3612880492
 40
0.3
 50
338.61
 51
360.0
  0
ARC
  8
0
 62
7
  6
CONTINUOUS
 10
145.9891447368
 20
134.3612880492
 40
0.3
 50
338.61
 51
360.0
  0
ARC
  8
0
 62
7
  6
CONTINUOUS
 10
232.4891447368
 20
77.6546295749
 40
2.7
 50
270.0
 51
360.0
  0
ARC
  8
0
 62
7
  6
CONTINUOUS
 10
257.8868570873
 20
77.6546295749
 40
2.7
 50
270.0
 51
360.0
  0
ARC
  8
0
 62
7
  6
CONTINUOUS
 10
250.8891447368
 20
77.6546295749
 40
2.7
 50
180.0
 51
270.0
  0
ARC
  8
0
 62
7
  6
CONTINUOUS
 10
207.0891447368
 20
77.6546295749
 40
2.7
 50
270.0
 51
360.0
  0
ARC
  8
0
 62
7
  6
CONTINUOUS
 10
225.4891447368
 20
77.6546295749
 40
2.7
 50
180.0
 51
270.0
  0
ARC
  8
0
 62
7
  6
CONTINUOUS
 10
200.0891447368
 20
77.6546295749
 40
2.7
 50
180.0
 51
270.0
  0
ARC
  8
0
 62
7
  6
CONTINUOUS
 10
181.6891447368
 20
77.6546295749
 40
2.7
 50
270.0
 51
360.0
  0
ARC
  8
0
 62
7
  6
CONTINUOUS
 10
249.8891447368
 20
89.4870957304
 40
1.0
 50
338.6113771722
 51
360.0
  0
ARC
  8
0
 62
7
  6
CONTINUOUS
 10
233.4891447368
 20
89.4870957304
 40
1.0
 50
180.0
 51
201.3886228278
  0
ARC
  8
0
 62
7
  6
CONTINUOUS
 10
258.8868570873
 20
89.486620255
 40
1.0
 50
180.0
 51
201.39
  0
ARC
  8
0
 62
7
  6
CONTINUOUS
 10
208.0891447368
 20
89.4870957304
 40
1.0
 50
180.0
 51
201.3886228278
  0
ARC
  8
0
 62
7
  6
CONTINUOUS
 10
224.4891447368
 20
89.4870957304
 40
1.0
 50
338.6113771722
 51
360.0
  0
ARC
  8
0
 62
7
  6
CONTINUOUS
 10
199.0891447368
 20
89.4870957304
 40
1.0
 50
338.6113771722
 51
360.0
  0
ARC
  8
0
 62
7
  6
CONTINUOUS
 10
182.6891447368
 20
89.4870957304
 40
1.0
 50
180.0
 51
201.3886228278
  0
ARC
  8
0
 62
7
  6
CONTINUOUS
 10
234.8891447368
 20
82.3479748346
 40
0.3
 50
0.0
 51
21.3886228278
  0
ARC
  8
0
 62
7
  6
CONTINUOUS
 10
248.4891447368
 20
82.3479748346
 40
0.3
 50
158.6113771722
 51
180.0
  0
ARC
  8
0
 62
7
  6
CONTINUOUS
 10
223.0891447368
 20
82.3479748346
 40
0.3
 50
158.6113771722
 51
180.0
  0
ARC
  8
0
 62
7
  6
CONTINUOUS
 10
209.4891447368
 20
82.3479748346
 40
0.3
 50
0.0
 51
21.3886228278
  0
ARC
  8
0
 62
7
  6
CONTINUOUS
 10
197.6891447368
 20
82.3479748346
 40
0.3
 50
158.6113771722
 51
180.0
  0
ARC
  8
0
 62
7
  6
CONTINUOUS
 10
184.0891447368
 20
82.3479748346
 40
0.3
 50
0.0
 51
21.3886228278
  0
ARC
  8
0
 62
7
  6
CONTINUOUS
 10
234.4891447368
 20
103.5546295749
 40
2.0
 50
90.0
 51
180.0
  0
ARC
  8
0
 62
7
  6
CONTINUOUS
 10
248.8891447368
 20
103.5546295749
 40
2.0
 50
0.0
 51
90.0
  0
ARC
  8
0
 62
7
  6
CONTINUOUS
 10
259.8868570873
 20
104.2046295749
 40
2.0
 50
90.0
 51
180.0
  0
ARC
  8
0
 62
7
  6
CONTINUOUS
 10
209.0891447368
 20
103.5546295749
 40
2.0
 50
90.0
 51
180.0
  0
ARC
  8
0
 62
7
  6
CONTINUOUS
 10
223.4891447368
 20
103.5546295749
 40
2.0
 50
0.0
 51
90.0
  0
ARC
  8
0
 62
7
  6
CONTINUOUS
 10
198.0891447368
 20
103.5546295749
 40
2.0
 50
0.0
 51
90.0
  0
ARC
  8
0
 62
7
  6
CONTINUOUS
 10
183.6891447368
 20
103.5546295749
 40
2.0
 50
90.0
 51
180.0
  0
ARC
  8
0
 62
7
  6
CONTINUOUS
 10
337.1391447368
 20
77.7913176818
 40
4.0
 50
274.3452193653
 51
360.0
  0
ARC
  8
0
 62
7
  6
CONTINUOUS
 10
276.2868570873
 20
77.6546295749
 40
2.7
 50
180.0
 51
270.0
  0
ARC
  8
0
 62
7
  6
CONTINUOUS
 10
304.0868570873
 20
77.6546295749
 40
2.7
 50
180.0
 51
270.0
  0
ARC
  8
0
 62
7
  6
CONTINUOUS
 10
311.0868570873
 20
77.6546295749
 40
2.7
 50
270.0
 51
360.0
  0
ARC
  8
0
 62
7
  6
CONTINUOUS
 10
283.2868570873
 20
77.6546295749
 40
2.7
 50
270.0
 51
360.0
  0
ARC
  8
0
 62
7
  6
CONTINUOUS
 10
312.0868570873
 20
89.486620255
 40
1.0
 50
180.0
 51
201.39
  0
ARC
  8
0
 62
7
  6
CONTINUOUS
 10
275.2868570873
 20
89.486620255
 40
1.0
 50
338.61
 51
360.0
  0
ARC
  8
0
 62
7
  6
CONTINUOUS
 10
303.0868570873
 20
89.486620255
 40
1.0
 50
338.61
 51
360.0
  0
ARC
  8
0
 62
7
  6
CONTINUOUS
 10
284.2868570873
 20
89.486620255
 40
1.0
 50
180.0
 51
201.39
  0
ARC
  8
0
 62
7
  6
CONTINUOUS
 10
313.4868570873
 20
82.3479711006
 40
0.3
 50
0.0
 51
21.39
  0
ARC
  8
0
 62
7
  6
CONTINUOUS
 10
273.8868570873
 20
82.3479711006
 40
0.3
 50
158.61
 51
180.0
  0
ARC
  8
0
 62
7
  6
CONTINUOUS
 10
260.2868570873
 20
82.3479711006
 40
0.3
 50
0.0
 51
21.39
  0
ARC
  8
0
 62
7
  6
CONTINUOUS
 10
301.6868570873
 20
82.3479711006
 40
0.3
 50
158.61
 51
180.0
  0
ARC
  8
0
 62
7
  6
CONTINUOUS
 10
285.6868570873
 20
82.3479711006
 40
0.3
 50
0.0
 51
21.39
  0
ARC
  8
0
 62
7
  6
CONTINUOUS
 10
331.7391447368
 20
89.8742448172
 40
0.3
 50
150.0
 51
180.0
  0
ARC
  8
0
 62
7
  6
CONTINUOUS
 10
328.1391447368
 20
98.2920605511
 40
6.0
 50
0.0
 51
45.0
  0
ARC
  8
0
 62
7
  6
CONTINUOUS
 10
315.0868570873
 20
99.1227753254
 40
4.0
 50
135.0
 51
180.0
  0
ARC
  8
0
 62
7
  6
CONTINUOUS
 10
319.0687113368
 20
103.1046295749
 40
4.0
 50
90.0
 51
135.0
  0
ARC
  8
0
 62
7
  6
CONTINUOUS
 10
326.1550028378
 20
103.1046295749
 40
4.0
 50
45.0
 51
90.0
  0
ARC
  8
0
 62
7
  6
CONTINUOUS
 10
269.9300028378
 20
102.2046295749
 40
4.0
 50
45.0
 51
90.0
  0
ARC
  8
0
 62
7
  6
CONTINUOUS
 10
272.2868570873
 20
99.8477753254
 40
4.0
 50
0.0
 51
45.0
  0
ARC
  8
0
 62
7
  6
CONTINUOUS
 10
297.2300028378
 20
102.7046295749
 40
4.0
 50
45.0
 51
90.0
  0
ARC
  8
0
 62
7
  6
CONTINUOUS
 10
300.0868570873
 20
99.8477753254
 40
4.0
 50
0.0
 51
45.0
  0
ARC
  8
0
 62
7
  6
CONTINUOUS
 10
287.2868570873
 20
99.8477753254
 40
4.0
 50
135.0
 51
180.0
  0
ARC
  8
0
 62
7
  6
CONTINUOUS
 10
290.1437113368
 20
102.7046295749
 40
4.0
 50
90.0
 51
135.0
  0
ARC
  8
0
 62
7
  6
CONTINUOUS
 10
338.1391447368
 20
104.2540975714
 40
3.0
 50
0.0
 51
66.0620193933
  0
ARC
  8
0
 62
7
  6
CONTINUOUS
 10
333.1391447368
 20
94.8991159478
 40
1.0
 50
330.0
 51
360.0
  0
ARC
  8
0
 62
7
  6
CONTINUOUS
 10
221.7891447368
 20
112.9799696086
 40
2.0
 50
180.0
 51
270.0
  0
ARC
  8
0
 62
7
  6
CONTINUOUS
 10
210.7891447368
 20
112.9799696086
 40
2.0
 50
270.0
 51
360.0
  0
ARC
  8
0
 62
7
  6
CONTINUOUS
 10
185.3891447368
 20
112.9799696086
 40
2.0
 50
270.0
 51
360.0
  0
ARC
  8
0
 62
7
  6
CONTINUOUS
 10
196.3891447368
 20
112.9799696086
 40
2.0
 50
180.0
 51
270.0
  0
ARC
  8
0
 62
7
  6
CONTINUOUS
 10
247.1891447368
 20
112.9799696086
 40
2.0
 50
180.0
 51
270.0
  0
ARC
  8
0
 62
7
  6
CONTINUOUS
 10
236.1891447368
 20
112.9799696086
 40
2.0
 50
270.0
 51
360.0
  0
ARC
  8
0
 62
7
  6
CONTINUOUS
 10
238.1891447368
 20
139.0546295749
 40
2.7
 50
90.0
 51
180.0
  0
ARC
  8
0
 62
7
  6
CONTINUOUS
 10
245.1891447368
 20
139.0546295749
 40
2.7
 50
0.0
 51
90.0
  0
ARC
  8
0
 62
7
  6
CONTINUOUS
 10
219.7891447368
 20
139.0546295749
 40
2.7
 50
0.0
 51
90.0
  0
ARC
  8
0
 62
7
  6
CONTINUOUS
 10
212.7891447368
 20
139.0546295749
 40
2.7
 50
90.0
 51
180.0
  0
ARC
  8
0
 62
7
  6
CONTINUOUS
 10
194.3891447368
 20
139.0546295749
 40
2.7
 50
0.0
 51
90.0
  0
ARC
  8
0
 62
7
  6
CONTINUOUS
 10
187.3891447368
 20
139.0546295749
 40
2.7
 50
90.0
 51
180.0
  0
ARC
  8
0
 62
7
  6
CONTINUOUS
 10
237.1891447368
 20
127.2226388948
 40
1.0
 50
0.0
 51
21.39
  0
ARC
  8
0
 62
7
  6
CONTINUOUS
 10
246.1891447368
 20
127.2226388948
 40
1.0
 50
158.61
 51
180.0
  0
ARC
  8
0
 62
7
  6
CONTINUOUS
 10
211.7891447368
 20
127.2226388948
 40
1.0
 50
0.0
 51
21.39
  0
ARC
  8
0
 62
7
  6
CONTINUOUS
 10
220.7891447368
 20
127.2226388948
 40
1.0
 50
158.61
 51
180.0
  0
ARC
  8
0
 62
7
  6
CONTINUOUS
 10
186.3891447368
 20
127.2226388948
 40
1.0
 50
0.0
 51
21.39
  0
ARC
  8
0
 62
7
  6
CONTINUOUS
 10
195.3891447368
 20
127.2226388948
 40
1.0
 50
158.61
 51
180.0
  0
ARC
  8
0
 62
7
  6
CONTINUOUS
 10
247.5891447368
 20
134.3612880492
 40
0.3
 50
338.61
 51
360.0
  0
ARC
  8
0
 62
7
  6
CONTINUOUS
 10
235.7891447368
 20
134.3612880492
 40
0.3
 50
180.0
 51
201.39
  0
ARC
  8
0
 62
7
  6
CONTINUOUS
 10
210.3891447368
 20
134.3612880492
 40
0.3
 50
180.0
 51
201.39
  0
ARC
  8
0
 62
7
  6
CONTINUOUS
 10
222.1891447368
 20
134.3612880492
 40
0.3
 50
338.61
 51
360.0
  0
ARC
  8
0
 62
7
  6
CONTINUOUS
 10
184.9891447368
 20
134.3612880492
 40
0.3
 50
180.0
 51
201.39
  0
ARC
  8
0
 62
7
  6
CONTINUOUS
 10
196.7891447368
 20
134.3612880492
 40
0.3
 50
338.61
 51
360.0
  0
ARC
  8
0
 62
7
  6
CONTINUOUS
 10
311.7050028378
 20
114.0446295749
 40
4.0
 50
270.0
 51
315.0
  0
ARC
  8
0
 62
7
  6
CONTINUOUS
 10
283.9300028378
 20
114.4946295749
 40
4.0
 50
270.0
 51
315.0
  0
ARC
  8
0
 62
7
  6
CONTINUOUS
 10
304.6187113368
 20
114.0446295749
 40
4.0
 50
225.0
 51
270.0
  0
ARC
  8
0
 62
7
  6
CONTINUOUS
 10
276.8437113368
 20
114.4946295749
 40
4.0
 50
225.0
 51
270.0
  0
ARC
  8
0
 62
7
  6
CONTINUOUS
 10
330.1368570873
 20
115.4653389129
 40
4.0
 50
180.0
 51
246.0620193933
  0
ARC
  8
0
 62
7
  6
CONTINUOUS
 10
315.1368570873
 20
117.4764838244
 40
4.0
 50
315.0
 51
360.0
  0
ARC
  8
0
 62
7
  6
CONTINUOUS
 10
274.5868570873
 20
116.7514838244
 40
4.0
 50
180.0
 51
225.0
  0
ARC
  8
0
 62
7
  6
CONTINUOUS
 10
286.1868570873
 20
116.7514838244
 40
4.0
 50
315.0
 51
360.0
  0
ARC
  8
0
 62
7
  6
CONTINUOUS
 10
301.1868570873
 20
117.4764838244
 40
4.0
 50
180.0
 51
225.0
  0
ARC
  8
0
 62
7
  6
CONTINUOUS
 10
261.5868570873
 20
112.9799696086
 40
2.0
 50
270.0
 51
360.0
  0
ARC
  8
0
 62
7
  6
CONTINUOUS
 10
289.1868570873
 20
127.2226388948
 40
1.0
 50
0.0
 51
21.39
  0
ARC
  8
0
 62
7
  6
CONTINUOUS
 10
271.5868570873
 20
127.2226388948
 40
1.0
 50
158.61
 51
180.0
  0
ARC
  8
0
 62
7
  6
CONTINUOUS
 10
262.5868570873
 20
127.2226388948
 40
1.0
 50
0.0
 51
21.39
  0
ARC
  8
0
 62
7
  6
CONTINUOUS
 10
270.5868570873
 20
139.0546295749
 40
2.7
 50
0.0
 51
90.0
  0
ARC
  8
0
 62
7
  6
CONTINUOUS
 10
263.5868570873
 20
139.0546295749
 40
2.7
 50
90.0
 51
180.0
  0
ARC
  8
0
 62
7
  6
CONTINUOUS
 10
290.1868570873
 20
139.0546295749
 40
2.7
 50
90.0
 51
180.0
  0
ARC
  8
0
 62
7
  6
CONTINUOUS
 10
261.1868570873
 20
134.3612880492
 40
0.3
 50
180.0
 51
201.39
  0
ARC
  8
0
 62
7
  6
CONTINUOUS
 10
272.9868570873
 20
134.3612880492
 40
0.3
 50
338.61
 51
360.0
  0
ARC
  8
0
 62
7
  6
CONTINUOUS
 10
287.7868570873
 20
134.3612880492
 40
0.3
 50
180.0
 51
201.39
  0
ARC
  8
0
 62
7
  6
CONTINUOUS
 10
327.1368570873
 20
127.2226388948
 40
1.0
 50
158.61
 51
180.0
  0
ARC
  8
0
 62
7
  6
CONTINUOUS
 10
318.1368570873
 20
127.2226388948
 40
1.0
 50
0.0
 51
21.39
  0
ARC
  8
0
 62
7
  6
CONTINUOUS
 10
298.1868570873
 20
127.2226388948
 40
1.0
 50
158.61
 51
180.0
  0
ARC
  8
0
 62
7
  6
CONTINUOUS
 10
297.1868570873
 20
139.0546295749
 40
2.7
 50
0.0
 51
90.0
  0
ARC
  8
0
 62
7
  6
CONTINUOUS
 10
326.1368570873
 20
139.0546295749
 40
2.7
 50
0.0
 51
90.0
  0
ARC
  8
0
 62
7
  6
CONTINUOUS
 10
319.1368570873
 20
139.0546295749
 40
2.7
 50
90.0
 51
180.0
  0
ARC
  8
0
 62
7
  6
CONTINUOUS
 10
328.5368570873
 20
134.3612880492
 40
0.3
 50
338.61
 51
360.0
  0
ARC
  8
0
 62
7
  6
CONTINUOUS
 10
299.5868570873
 20
134.3612880492
 40
0.3
 50
338.61
 51
360.0
  0
ARC
  8
0
 62
7
  6
CONTINUOUS
 10
316.7368570873
 20
134.3612880492
 40
0.3
 50
180.0
 51
201.39
  0
ARC
  8
0
 62
7
  6
CONTINUOUS
 10
355.3470394737
 20
88.4897063087
 40
1.0
 50
92.0454084889
 51
180.0
  0
ARC
  8
0
 62
7
  6
CONTINUOUS
 10
355.3470394737
 20
81.419552841
 40
1.0
 50
180.0
 51
267.9545915111
  0
ARC
  8
0
 62
7
  6
CONTINUOUS
 10
375.9970394737
 20
82.3046295749
 40
7.35
 50
354.8071806008
 51
360.0
  0
CIRCLE
  8
0
 62
7
  6
CONTINUOUS
 10
375.8470394737
 20
82.9546295749
 40
4.5
  0
CIRCLE
  8
0
 62
7
  6
CONTINUOUS
 10
375.8470394737
 20
82.9546295749
 40
3.1
  0
ARC
  8
0
 62
7
  6
CONTINUOUS
 10
368.0470394737
 20
90.2441065547
 40
0.3
 50
272.0454084889
 51
360.0
  0
ARC
  8
0
 62
7
  6
CONTINUOUS
 10
375.6970394737
 20
134.4046295749
 40
7.35
 50
90.0
 51
180.0
  0
ARC
  8
0
 62
7
  6
CONTINUOUS
 10
375.8470394737
 20
117.2546295749
 40
3.1
 50
180.0
 51
360.0
  0
ARC
  8
0
 62
7
  6
CONTINUOUS
 10
375.9970394737
 20
134.4046295749
 40
7.35
 50
0.0
 51
90.0
  0
ARC
  8
0
 62
7
  6
CONTINUOUS
 10
375.8470394737
 20
133.7546295749
 40
3.1
 50
0.0
 51
180.0
  0
ARC
  8
0
 62
7
  6
CONTINUOUS
 10
22.8213989991
 20
193.1973684211
 40
2.0
 50
184.8613330399
 51
270.0
  0
ARC
  8
0
 62
7
  6
CONTINUOUS
 10
35.2391447368
 20
192.1973684211
 40
1.0
 50
270.0
 51
360.0
  0
ARC
  8
0
 62
7
  6
CONTINUOUS
 10
15.5391447368
 20
205.4973684211
 40
0.3
 50
180.0
 51
270.0
  0
ARC
  8
0
 62
7
  6
CONTINUOUS
 10
19.8068065975
 20
204.8973684211
 40
0.3
 50
3.4744073675
 51
90.0
  0
ARC
  8
0
 62
7
  6
CONTINUOUS
 10
35.9791447368
 20
195.9375770451
 40
0.26
 50
0.0
 51
90.0
  0
ARC
  8
0
 62
7
  6
CONTINUOUS
 10
80.0914323864
 20
207.8973684211
 40
2.7
 50
270.0
 51
360.0
  0
ARC
  8
0
 62
7
  6
CONTINUOUS
 10
52.2914323864
 20
207.8973684211
 40
2.7
 50
270.0
 51
360.0
  0
ARC
  8
0
 62
7
  6
CONTINUOUS
 10
73.0914323864
 20
207.8973684211
 40
2.7
 50
180.0
 51
270.0
  0
ARC
  8
0
 62
7
  6
CONTINUOUS
 10
45.2914323864
 20
207.8973684211
 40
2.7
 50
180.0
 51
270.0
  0
ARC
  8
0
 62
7
  6
CONTINUOUS
 10
73.0914323864
 20
217.4973684211
 40
2.7
 50
90.0
 51
180.0
  0
ARC
  8
0
 62
7
  6
CONTINUOUS
 10
80.0914323864
 20
217.4973684211
 40
2.7
 50
0.0
 51
90.0
  0
ARC
  8
0
 62
7
  6
CONTINUOUS
 10
52.2914323864
 20
217.4973684211
 40
2.7
 50
0.0
 51
90.0
  0
ARC
  8
0
 62
7
  6
CONTINUOUS
 10
45.2914323864
 20
217.4973684211
 40
2.7
 50
90.0
 51
180.0
  0
ARC
  8
0
 62
7
  6
CONTINUOUS
 10
15.5391447368
 20
219.8973684211
 40
0.3
 50
90.0
 51
180.0
  0
ARC
  8
0
 62
7
  6
CONTINUOUS
 10
24.6391447368
 20
219.8973684211
 40
0.3
 50
0.0
 51
90.0
  0
ARC
  8
0
 62
7
  6
CONTINUOUS
 10
156.2891447368
 20
207.8973684211
 40
2.7
 50
270.0
 51
360.0
  0
ARC
  8
0
 62
7
  6
CONTINUOUS
 10
174.6891447368
 20
207.8973684211
 40
2.7
 50
180.0
 51
270.0
  0
ARC
  8
0
 62
7
  6
CONTINUOUS
 10
105.4891447368
 20
207.8973684211
 40
2.7
 50
270.0
 51
360.0
  0
ARC
  8
0
 62
7
  6
CONTINUOUS
 10
123.8891447368
 20
207.8973684211
 40
2.7
 50
180.0
 51
270.0
  0
ARC
  8
0
 62
7
  6
CONTINUOUS
 10
98.4914323864
 20
207.8973684211
 40
2.7
 50
180.0
 51
270.0
  0
ARC
  8
0
 62
7
  6
CONTINUOUS
 10
149.2891447368
 20
207.8973684211
 40
2.7
 50
180.0
 51
270.0
  0
ARC
  8
0
 62
7
  6
CONTINUOUS
 10
130.8891447368
 20
207.8973684211
 40
2.7
 50
270.0
 51
360.0
  0
ARC
  8
0
 62
7
  6
CONTINUOUS
 10
174.6891447368
 20
217.4973684211
 40
2.7
 50
90.0
 51
180.0
  0
ARC
  8
0
 62
7
  6
CONTINUOUS
 10
156.2891447368
 20
217.4973684211
 40
2.7
 50
0.0
 51
90.0
  0
ARC
  8
0
 62
7
  6
CONTINUOUS
 10
105.4891447368
 20
217.4973684211
 40
2.7
 50
0.0
 51
90.0
  0
ARC
  8
0
 62
7
  6
CONTINUOUS
 10
123.8891447368
 20
217.4973684211
 40
2.7
 50
90.0
 51
180.0
  0
ARC
  8
0
 62
7
  6
CONTINUOUS
 10
98.4914323864
 20
217.4973684211
 40
2.7
 50
90.0
 51
180.0
  0
ARC
  8
0
 62
7
  6
CONTINUOUS
 10
149.2891447368
 20
217.4973684211
 40
2.7
 50
90.0
 51
180.0
  0
ARC
  8
0
 62
7
  6
CONTINUOUS
 10
130.8891447368
 20
217.4973684211
 40
2.7
 50
0.0
 51
90.0
  0
ARC
  8
0
 62
7
  6
CONTINUOUS
 10
333.5568904746
 20
193.1973684211
 40
2.0
 50
270.0
 51
355.140833261
  0
ARC
  8
0
 62
7
  6
CONTINUOUS
 10
321.1391447368
 20
192.1973684211
 40
1.0
 50
180.0
 51
270.0
  0
ARC
  8
0
 62
7
  6
CONTINUOUS
 10
340.8391447368
 20
205.4973684211
 40
0.3
 50
270.0
 51
360.0
  0
ARC
  8
0
 62
7
  6
CONTINUOUS
 10
336.5714828762
 20
204.8973684211
 40
0.3
 50
90.0
 51
176.5255926325
  0
ARC
  8
0
 62
7
  6
CONTINUOUS
 10
320.3991447368
 20
195.9375770451
 40
0.26
 50
90.0
 51
180.0
  0
ARC
  8
0
 62
7
  6
CONTINUOUS
 10
250.8891447368
 20
207.8973684211
 40
2.7
 50
180.0
 51
270.0
  0
ARC
  8
0
 62
7
  6
CONTINUOUS
 10
232.4891447368
 20
207.8973684211
 40
2.7
 50
270.0
 51
360.0
  0
ARC
  8
0
 62
7
  6
CONTINUOUS
 10
257.8868570873
 20
207.8973684211
 40
2.7
 50
270.0
 51
360.0
  0
ARC
  8
0
 62
7
  6
CONTINUOUS
 10
200.0891447368
 20
207.8973684211
 40
2.7
 50
180.0
 51
270.0
  0
ARC
  8
0
 62
7
  6
CONTINUOUS
 10
181.6891447368
 20
207.8973684211
 40
2.7
 50
270.0
 51
360.0
  0
ARC
  8
0
 62
7
  6
CONTINUOUS
 10
207.0891447368
 20
207.8973684211
 40
2.7
 50
270.0
 51
360.0
  0
ARC
  8
0
 62
7
  6
CONTINUOUS
 10
225.4891447368
 20
207.8973684211
 40
2.7
 50
180.0
 51
270.0
  0
ARC
  8
0
 62
7
  6
CONTINUOUS
 10
232.4891447368
 20
217.4973684211
 40
2.7
 50
0.0
 51
90.0
  0
ARC
  8
0
 62
7
  6
CONTINUOUS
 10
257.8868570873
 20
217.4973684211
 40
2.7
 50
0.0
 51
90.0
  0
ARC
  8
0
 62
7
  6
CONTINUOUS
 10
250.8891447368
 20
217.4973684211
 40
2.7
 50
90.0
 51
180.0
  0
ARC
  8
0
 62
7
  6
CONTINUOUS
 10
181.6891447368
 20
217.4973684211
 40
2.7
 50
0.0
 51
90.0
  0
ARC
  8
0
 62
7
  6
CONTINUOUS
 10
200.0891447368
 20
217.4973684211
 40
2.7
 50
90.0
 51
180.0
  0
ARC
  8
0
 62
7
  6
CONTINUOUS
 10
207.0891447368
 20
217.4973684211
 40
2.7
 50
0.0
 51
90.0
  0
ARC
  8
0
 62
7
  6
CONTINUOUS
 10
225.4891447368
 20
217.4973684211
 40
2.7
 50
90.0
 51
180.0
  0
ARC
  8
0
 62
7
  6
CONTINUOUS
 10
276.2868570873
 20
207.8973684211
 40
2.7
 50
180.0
 51
270.0
  0
ARC
  8
0
 62
7
  6
CONTINUOUS
 10
304.0868570873
 20
207.8973684211
 40
2.7
 50
180.0
 51
270.0
  0
ARC
  8
0
 62
7
  6
CONTINUOUS
 10
311.0868570873
 20
207.8973684211
 40
2.7
 50
270.0
 51
360.0
  0
ARC
  8
0
 62
7
  6
CONTINUOUS
 10
283.2868570873
 20
207.8973684211
 40
2.7
 50
270.0
 51
360.0
  0
ARC
  8
0
 62
7
  6
CONTINUOUS
 10
276.2868570873
 20
217.4973684211
 40
2.7
 50
90.0
 51
180.0
  0
ARC
  8
0
 62
7
  6
CONTINUOUS
 10
304.0868570873
 20
217.4973684211
 40
2.7
 50
90.0
 51
180.0
  0
ARC
  8
0
 62
7
  6
CONTINUOUS
 10
311.0868570873
 20
217.4973684211
 40
2.7
 50
0.0
 51
90.0
  0
ARC
  8
0
 62
7
  6
CONTINUOUS
 10
283.2868570873
 20
217.4973684211
 40
2.7
 50
0.0
 51
90.0
  0
ARC
  8
0
 62
7
  6
CONTINUOUS
 10
340.8391447368
 20
219.8973684211
 40
0.3
 50
0.0
 51
90.0
  0
ARC
  8
0
 62
7
  6
CONTINUOUS
 10
331.7391447368
 20
219.8973684211
 40
0.3
 50
90.0
 51
180.0
  0
ENDSEC
  0
EOF
