  0
SECTION
  2
HEADER
  9
$EXTMAX
 10
420.0
 20
297.0
 30
0.0
  9
$EXTMIN
 10
0.0
 20
0.0
 30
0.0
  9
$LIMMIN
 10
0.0
 20
0.0
  9
$LIMMAX
 10
420.0
 20
297.0
  9
$VIEWCTR
 10
210.0
 20
148.5
  9
$VIEWSIZE
 40
297.0
  9
$CLAYER
  8
0
  9
$LTSCALE
 40
23.1
  9
$CELTYPE
  6
BYLAYER
  9
$DIMSCALE
 40
1.0
  9
$DIMASZ
 40
3.5
  9
$DIMEXO
 40
2.625
  9
$DIMDLI
 40
15.96
  9
$DIMEXE
 40
7.56
  9
$DIMCEN
 40
3.78
  9
$DIMLFAC
 40
1.0
  9
$DIMBLK
  1
_FILLED
  9
$DIMTXT
 40
3.5
  9
$PDMODE
 70
3
  9
$PDSIZE
 40
0.3125
  9
$TILEMODE
 70
1
  0
ENDSEC
  0
SECTION
  2
TABLES
  0
TABLE
  2
LTYPE
 70
6
  0
LTYPE
  2
BYBLOCK
 70
0
  3

 72
65
 73
0
 40
0.0
  0
LTYPE
  2
BYLAYER
 70
0
  3

 72
65
 73
0
 40
0.0
  0
LTYPE
  2
CONTINUOUS
 70
64
  3
Solid line
 72
65
 73
0
 40
0.0
  0
LTYPE
  2
CENTER
 70
64
  3
____ _ ____ _ ____ _ ____ _ ____ _ ____ _ ____
 72
65
 73
4
 40
0.6
 49
0.375
 49
-0.075
 49
0.075
 49
-0.075
  0
LTYPE
  2
HIDDEN
 70
64
  3
- - - - - - - - - - - - - - - - - - - -
 72
65
 73
2
 40
0.2
 49
0.1
 49
-0.1
  0
LTYPE
  2
PHANTOM
 70
64
  3
_____ _ _ _____ _ _ _____ _ _ _____
 72
65
 73
6
 40
0.8
 49
0.45
 49
-0.05
 49
0.1
 49
-0.05
 49
0.1
 49
-0.05
  0
LTYPE
  2
DOT
 70
64
  3
. . . . . . . . . . . . . . . . . . . .
 72
65
 73
2
 40
0.2
 49
0.1
 49
-0.1
  0
LTYPE
  2
DASHED
 70
64
  3
- - - - - - - - - - - - - - - - - - - -
 72
65
 73
2
 40
0.2
 49
0.1
 49
-0.1
  0
ENDTAB
  0
TABLE
  2
LAYER
 70
36
  0
LAYER
  2
0
 70
0
 62
7
  6
CONTINUOUS
  0
LAYER
  2
DEFAULT_1
 70
0
 62
7
  6
CENTER
  0
LAYER
  2
DEFAULT_2
 70
0
 62
8
  6
HIDDEN
  0
LAYER
  2
DEFAULT_3
 70
0
 62
7
  6
PHANTOM
  0
LAYER
  2
CURVE
 70
0
 62
7
  6
CONTINUOUS
  0
LAYER
  2
KERNETRAK
 70
0
 62
7
  6
CONTINUOUS
  0
LAYER
  2
SURFACE
 70
0
 62
7
  6
CONTINUOUS
  0
ENDTAB
  0
TABLE
  2
STYLE
 70
1
  0
STYLE
  2
STANDARD
 70
0
 40
0.0
 41
0.8
 50
0.0
 71
0
 42
0.2
  3
txt
  4

  0
STYLE
  2
TEXTSTYLE_1
 70
0
 40
0.0
 41
0.8
 50
0.0
 71
0
 42
0.2
  3
gdt
  4

  0
STYLE
  2
TEXTSTYLE_2
 70
0
 40
0.0
 41
0.6
 50
0.0
 71
0
 42
0.2
  3
txt
  4

  0
STYLE
  2
TEXTSTYLE_3
 70
0
 40
0.0
 41
1.0
 50
0.0
 71
0
 42
0.2
  3
ftb_____.ttf
  4

  0
STYLE
  2
TEXTSTYLE_4
 70
0
 40
0.0
 41
1.0
 50
0.0
 71
0
 42
0.2
  3
fti_____.ttf
  4

  0
STYLE
  2
TEXTSTYLE_5
 70
0
 40
0.0
 41
1.0
 50
0.0
 71
0
 42
0.2
  3
frutiger light.ttf
  4

  0
STYLE
  2
TEXTSTYLE_6
 70
0
 40
0.0
 41
0.7
 50
0.0
 71
0
 42
0.2
  3
txt
  4

  0
STYLE
  2
TEXTSTYLE_7
 70
0
 40
0.0
 41
0.36
 50
0.0
 71
0
 42
0.2
  3
txt
  4

  0
ENDTAB
  0
ENDSEC
  0
SECTION
  2
BLOCKS
  0
BLOCK
  8
0
 62
2
  6
CONTINUOUS
  2
SYMBOL_5_BL1
 70
64
 10
382.7840918555
 20
35.5067593403
  0
TEXT
  8
0
 62
7
  6
CONTINUOUS
 10
373.842376864
 20
30.5995157174
  7
TEXTSTYLE_4
 40
1.0655737705
  1
The brand for plastic modular belts and chains
 41
1.0
 72
0
  0
LINE
  8
0
 62
7
  6
CONTINUOUS
 10
358.7621602445
 20
36.0805298321
 11
358.7621602445
 21
33.9493822911
  0
LINE
  8
0
 62
7
  6
CONTINUOUS
 10
359.0512227376
 20
30.9584509954
 11
359.0512227376
 21
31.0552420547
  0
LINE
  8
0
 62
7
  6
CONTINUOUS
 10
358.7621602445
 20
31.0229783683
 11
358.8199727462
 21
30.8293962497
  0
LINE
  8
0
 62
7
  6
CONTINUOUS
 10
360.1556028675
 20
33.867415078
 11
360.1556028675
 21
36.0805298321
  0
LINE
  8
0
 62
7
  6
CONTINUOUS
 10
361.0746601894
 20
32.0231527829
 11
361.0746601894
 21
30.5067593403
  0
LINE
  8
0
 62
7
  6
CONTINUOUS
 10
361.3637227445
 20
30.5067593403
 11
361.3637227445
 21
31.2488242184
  0
LINE
  8
0
 62
7
  6
CONTINUOUS
 10
361.3637227445
 20
31.3778789641
 11
361.3637227445
 21
32.0231527829
  0
LINE
  8
0
 62
7
  6
CONTINUOUS
 10
358.8199727462
 20
31.216560532
 11
358.7621602445
 21
31.0229783683
  0
LINE
  8
0
 62
7
  6
CONTINUOUS
 10
359.1668477307
 20
30.7971325633
 11
359.0512227376
 21
30.9584509954
  0
LINE
  8
0
 62
7
  6
CONTINUOUS
 10
360.2652852997
 20
31.3133515913
 11
360.3230977445
 21
31.216560532
  0
LINE
  8
0
 62
7
  6
CONTINUOUS
 10
360.6121602997
 20
31.216560532
 11
360.5543476894
 21
31.3456152777
  0
LINE
  8
0
 62
7
  6
CONTINUOUS
 10
362.0408487691
 20
36.0805298321
 11
362.0408487691
 21
34.2772511436
  0
LINE
  8
0
 62
7
  6
CONTINUOUS
 10
362.0408487691
 20
32.9657757338
 11
362.0408487691
 21
32.3100380288
  0
LINE
  8
0
 62
7
  6
CONTINUOUS
 10
362.4043477445
 20
31.1520331591
 11
362.4043477445
 21
30.5067593403
  0
LINE
  8
0
 62
7
  6
CONTINUOUS
 10
362.6934101343
 20
30.5067593403
 11
362.6934101343
 21
31.1520331591
  0
LINE
  8
0
 62
7
  6
CONTINUOUS
 10
359.0512227376
 20
31.0552420547
 11
359.1090352445
 21
31.1842968456
  0
LINE
  8
0
 62
7
  6
CONTINUOUS
 10
358.8199727462
 20
30.8293962497
 11
358.9355977445
 21
30.7003414814
  0
LINE
  8
0
 62
7
  6
CONTINUOUS
 10
362.3465351343
 20
31.2810879048
 11
362.4043477445
 21
31.1520331591
  0
LINE
  8
0
 62
7
  6
CONTINUOUS
 10
363.1559103548
 20
30.7971325633
 11
363.2137226343
 21
30.668077795
  0
LINE
  8
0
 62
7
  6
CONTINUOUS
 10
362.6934101343
 20
31.1520331591
 11
362.6355978548
 21
31.3133515913
  0
LINE
  8
0
 62
7
  6
CONTINUOUS
 10
363.1559103548
 20
31.3456152777
 11
363.1559103548
 21
31.2810879048
  0
LINE
  8
0
 62
7
  6
CONTINUOUS
 10
363.1559103548
 20
30.8939236226
 11
363.1559103548
 21
30.7971325633
  0
LINE
  8
0
 62
7
  6
CONTINUOUS
 10
363.4342913921
 20
32.3100380288
 11
363.4342913921
 21
36.0805298321
  0
LINE
  8
0
 62
7
  6
CONTINUOUS
 10
363.4449727445
 20
30.7648688543
 11
363.4449727445
 21
30.8293962497
  0
LINE
  8
0
 62
7
  6
CONTINUOUS
 10
363.7621602445
 20
36.0805298321
 11
363.7621602445
 21
32.3100380288
  0
LINE
  8
0
 62
7
  6
CONTINUOUS
 10
360.5543476894
 20
30.7003414814
 11
360.6121602997
 21
30.8293962497
  0
LINE
  8
0
 62
7
  6
CONTINUOUS
 10
364.9480979651
 20
30.6035504109
 11
364.890285024
 21
30.7648688543
  0
LINE
  8
0
 62
7
  6
CONTINUOUS
 10
364.6012229651
 20
31.2810879048
 11
364.6012229651
 21
31.1842968456
  0
LINE
  8
0
 62
7
  6
CONTINUOUS
 10
364.6012229651
 20
31.0552420547
 11
364.6012229651
 21
30.8616599362
  0
LINE
  8
0
 62
7
  6
CONTINUOUS
 10
364.890285024
 20
30.7648688543
 11
364.890285024
 21
31.2810879048
  0
LINE
  8
0
 62
7
  6
CONTINUOUS
 10
365.1556028675
 20
32.3100380288
 11
365.1556028675
 21
34.1133167174
  0
LINE
  8
0
 62
7
  6
CONTINUOUS
 10
365.1556028675
 20
35.4247921272
 11
365.1556028675
 21
36.0805298321
  0
LINE
  8
0
 62
7
  6
CONTINUOUS
 10
365.4684104651
 20
32.0231527829
 11
365.4684104651
 21
31.8618343508
  0
LINE
  8
0
 62
7
  6
CONTINUOUS
 10
365.4684104651
 20
31.5391973962
 11
365.4684104651
 21
30.5067593403
  0
LINE
  8
0
 62
7
  6
CONTINUOUS
 10
365.757472524
 20
30.5067593403
 11
365.757472524
 21
31.5391973962
  0
LINE
  8
0
 62
7
  6
CONTINUOUS
 10
365.757472524
 20
31.8618343508
 11
365.757472524
 21
32.0231527829
  0
LINE
  8
0
 62
7
  6
CONTINUOUS
 10
360.3230977445
 20
30.8293962497
 11
360.2652852997
 21
30.7326051679
  0
LINE
  8
0
 62
7
  6
CONTINUOUS
 10
362.6355978548
 20
31.3133515913
 11
362.5777852445
 21
31.3778789641
  0
LINE
  8
0
 62
7
  6
CONTINUOUS
 10
363.5027853548
 20
30.7003414814
 11
363.4449727445
 21
30.7648688543
  0
LINE
  8
0
 62
7
  6
CONTINUOUS
 10
364.6590352445
 20
30.5712867188
 11
364.716847524
 21
30.5067593403
  0
LINE
  8
0
 62
7
  6
CONTINUOUS
 10
364.6012229651
 20
30.668077795
 11
364.6590352445
 21
30.5712867188
  0
LINE
  8
0
 62
7
  6
CONTINUOUS
 10
365.0059102445
 20
30.5067593403
 11
364.9480979651
 21
30.6035504109
  0
LINE
  8
0
 62
7
  6
CONTINUOUS
 10
364.890285024
 20
31.2810879048
 11
364.8324727445
 21
31.3778789641
  0
LINE
  8
0
 62
7
  6
CONTINUOUS
 10
366.2199727445
 20
31.5391973962
 11
366.2199727445
 21
30.5067593403
  0
LINE
  8
0
 62
7
  6
CONTINUOUS
 10
366.5090354651
 20
30.5067593403
 11
366.5090354651
 21
31.2488242184
  0
LINE
  8
0
 62
7
  6
CONTINUOUS
 10
366.5090354651
 20
31.3778789641
 11
366.5090354651
 21
31.5391973962
  0
LINE
  8
0
 62
7
  6
CONTINUOUS
 10
367.0408487691
 20
34.5231527829
 11
367.0408487691
 21
32.3100380288
  0
LINE
  8
0
 62
7
  6
CONTINUOUS
 10
358.9355977445
 20
31.3456152777
 11
358.8199727462
 21
31.216560532
  0
LINE
  8
0
 62
7
  6
CONTINUOUS
 10
359.1090352445
 20
31.1842968456
 11
359.1668477307
 21
31.2488242184
  0
LINE
  8
0
 62
7
  6
CONTINUOUS
 10
358.9355977445
 20
30.7003414814
 11
359.0512227376
 21
30.6358140973
  0
LINE
  8
0
 62
7
  6
CONTINUOUS
 10
359.3402852307
 20
30.7003414814
 11
359.1668477307
 21
30.7971325633
  0
LINE
  8
0
 62
7
  6
CONTINUOUS
 10
364.543410024
 20
31.3456152777
 11
364.6012229651
 21
31.2810879048
  0
LINE
  8
0
 62
7
  6
CONTINUOUS
 10
367.491847524
 20
31.2810879048
 11
367.5496604651
 21
31.1197694727
  0
LINE
  8
0
 62
7
  6
CONTINUOUS
 10
367.838722524
 20
31.1197694727
 11
367.7809102445
 21
31.2810879048
  0
LINE
  8
0
 62
7
  6
CONTINUOUS
 10
367.5496604651
 20
31.1197694727
 11
367.5496604651
 21
30.5067593403
  0
LINE
  8
0
 62
7
  6
CONTINUOUS
 10
367.838722524
 20
30.5067593403
 11
367.838722524
 21
31.1197694727
  0
LINE
  8
0
 62
7
  6
CONTINUOUS
 10
368.3012227445
 20
31.3456152777
 11
368.3012227445
 21
31.2810879048
  0
LINE
  8
0
 62
7
  6
CONTINUOUS
 10
368.4342913921
 20
32.3100380288
 11
368.4342913921
 21
34.4411855698
  0
LINE
  8
0
 62
7
  6
CONTINUOUS
 10
368.7621602445
 20
36.0805298321
 11
368.7621602445
 21
32.3100380288
  0
LINE
  8
0
 62
7
  6
CONTINUOUS
 10
363.4449727445
 20
30.8293962497
 11
363.5027853548
 21
30.926187309
  0
LINE
  8
0
 62
7
  6
CONTINUOUS
 10
359.0512227376
 20
30.6358140973
 11
359.2246602583
 21
30.5712867188
  0
LINE
  8
0
 62
7
  6
CONTINUOUS
 10
360.5543476894
 20
31.3456152777
 11
360.3809101894
 21
31.4424063369
  0
LINE
  8
0
 62
7
  6
CONTINUOUS
 10
363.2137226343
 20
30.668077795
 11
363.3871601343
 21
30.5712867188
  0
LINE
  8
0
 62
7
  6
CONTINUOUS
 10
362.2309102445
 20
31.3456152777
 11
362.3465351343
 21
31.2810879048
  0
LINE
  8
0
 62
7
  6
CONTINUOUS
 10
362.5777852445
 20
31.3778789641
 11
362.4621603548
 21
31.4424063369
  0
LINE
  8
0
 62
7
  6
CONTINUOUS
 10
368.3012227445
 20
30.7648688543
 11
368.4168479651
 21
30.6358140973
  0
LINE
  8
0
 62
7
  6
CONTINUOUS
 10
368.6480977445
 20
30.7003414814
 11
368.5902854651
 21
30.7648688543
  0
LINE
  8
0
 62
7
  6
CONTINUOUS
 10
368.3012227445
 20
31.2810879048
 11
368.4168479651
 21
31.1520331591
  0
LINE
  8
0
 62
7
  6
CONTINUOUS
 10
367.7809102445
 20
31.2810879048
 11
367.7230979651
 21
31.3778789641
  0
LINE
  8
0
 62
7
  6
CONTINUOUS
 10
370.1512223035
 20
30.7003414814
 11
370.1512223035
 21
30.7648688543
  0
LINE
  8
0
 62
7
  6
CONTINUOUS
 10
370.1556028675
 20
32.3100380288
 11
370.1556028675
 21
36.0805298321
  0
LINE
  8
0
 62
7
  6
CONTINUOUS
 10
363.2137226343
 20
31.4101426505
 11
363.1559103548
 21
31.3456152777
  0
LINE
  8
0
 62
7
  6
CONTINUOUS
 10
360.091847717
 20
31.3778789641
 11
360.2652852997
 21
31.3133515913
  0
LINE
  8
0
 62
7
  6
CONTINUOUS
 10
364.8324727445
 20
31.3778789641
 11
364.716847524
 21
31.4424063369
  0
LINE
  8
0
 62
7
  6
CONTINUOUS
 10
368.6480977445
 20
31.216560532
 11
368.5902854651
 21
31.2810879048
  0
LINE
  8
0
 62
7
  6
CONTINUOUS
 10
369.8043479651
 20
30.8293962497
 11
369.8621602445
 21
30.7648688543
  0
LINE
  8
0
 62
7
  6
CONTINUOUS
 10
370.1512223035
 20
30.7648688543
 11
370.0355977445
 21
30.8939236226
  0
LINE
  8
0
 62
7
  6
CONTINUOUS
 10
369.8043479651
 20
31.3456152777
 11
369.8621602445
 21
31.2810879048
  0
LINE
  8
0
 62
7
  6
CONTINUOUS
 10
370.1512223035
 20
31.2810879048
 11
370.0355977445
 21
31.4101426505
  0
LINE
  8
0
 62
7
  6
CONTINUOUS
 10
363.4449727445
 20
31.2810879048
 11
363.5027853548
 21
31.3456152777
  0
LINE
  8
0
 62
7
  6
CONTINUOUS
 10
363.2715352445
 20
31.0229783683
 11
363.1559103548
 21
30.8939236226
  0
LINE
  8
0
 62
7
  6
CONTINUOUS
 10
364.6012229651
 20
30.8616599362
 11
364.543410024
 21
30.7971325633
  0
LINE
  8
0
 62
7
  6
CONTINUOUS
 10
364.543410024
 20
30.6035504109
 11
364.6012229651
 21
30.668077795
  0
LINE
  8
0
 62
7
  6
CONTINUOUS
 10
363.3871601343
 20
30.5712867188
 11
363.5027853548
 21
30.5390230296
  0
LINE
  8
0
 62
7
  6
CONTINUOUS
 10
360.3809101894
 20
31.4424063369
 11
360.1496602445
 21
31.5069337098
  0
LINE
  8
0
 62
7
  6
CONTINUOUS
 10
363.7340351343
 20
30.6358140973
 11
363.5027853548
 21
30.7003414814
  0
LINE
  8
0
 62
7
  6
CONTINUOUS
 10
362.4621603548
 20
31.4424063369
 11
362.2887228548
 21
31.5069337098
  0
LINE
  8
0
 62
7
  6
CONTINUOUS
 10
364.716847524
 20
31.4424063369
 11
364.543410024
 21
31.5069337098
  0
LINE
  8
0
 62
7
  6
CONTINUOUS
 10
367.3762229651
 20
31.3456152777
 11
367.491847524
 21
31.2810879048
  0
LINE
  8
0
 62
7
  6
CONTINUOUS
 10
367.7230979651
 20
31.3778789641
 11
367.6074727445
 21
31.4424063369
  0
LINE
  8
0
 62
7
  6
CONTINUOUS
 10
359.2246602583
 20
30.5712867188
 11
359.3980977583
 21
30.5390230296
  0
LINE
  8
0
 62
7
  6
CONTINUOUS
 10
359.6871602721
 20
30.6358140973
 11
359.3402852307
 21
30.7003414814
  0
LINE
  8
0
 62
7
  6
CONTINUOUS
 10
362.1152853548
 20
31.3778789641
 11
362.2309102445
 21
31.3456152777
  0
LINE
  8
0
 62
7
  6
CONTINUOUS
 10
364.4277854651
 20
31.3778789641
 11
364.543410024
 21
31.3456152777
  0
LINE
  8
0
 62
7
  6
CONTINUOUS
 10
368.7637229651
 20
30.668077795
 11
368.6480977445
 21
30.7003414814
  0
LINE
  8
0
 62
7
  6
CONTINUOUS
 10
367.2605977445
 20
31.3778789641
 11
367.3762229651
 21
31.3456152777
  0
LINE
  8
0
 62
7
  6
CONTINUOUS
 10
368.4168479651
 20
30.6358140973
 11
368.5902854651
 21
30.5712867188
  0
LINE
  8
0
 62
7
  6
CONTINUOUS
 10
367.6074727445
 20
31.4424063369
 11
367.4340352445
 21
31.5069337098
  0
LINE
  8
0
 62
7
  6
CONTINUOUS
 10
368.8215352445
 20
31.1520331591
 11
368.6480977445
 21
31.216560532
  0
LINE
  8
0
 62
7
  6
CONTINUOUS
 10
369.6309104651
 20
30.8939236226
 11
369.8043479651
 21
30.8293962497
  0
LINE
  8
0
 62
7
  6
CONTINUOUS
 10
370.0355977445
 20
31.4101426505
 11
369.8621602445
 21
31.4746700234
  0
LINE
  8
0
 62
7
  6
CONTINUOUS
 10
368.4168479651
 20
31.1520331591
 11
368.6480977445
 21
31.0552420547
  0
LINE
  8
0
 62
7
  6
CONTINUOUS
 10
370.0355977445
 20
30.8939236226
 11
369.8043479651
 21
30.9907146818
  0
LINE
  8
0
 62
7
  6
CONTINUOUS
 10
368.5902854651
 20
31.2810879048
 11
368.6480977445
 21
31.3456152777
  0
LINE
  8
0
 62
7
  6
CONTINUOUS
 10
359.0512227376
 20
31.4101426505
 11
358.9355977445
 21
31.3456152777
  0
LINE
  8
0
 62
7
  6
CONTINUOUS
 10
359.1668477307
 20
31.2488242184
 11
359.3402852307
 21
31.3456152777
  0
LINE
  8
0
 62
7
  6
CONTINUOUS
 10
361.4793477997
 20
31.4424063369
 11
361.3637227445
 21
31.3778789641
  0
LINE
  8
0
 62
7
  6
CONTINUOUS
 10
361.3637227445
 20
31.2488242184
 11
361.4793477997
 21
31.3133515913
  0
LINE
  8
0
 62
7
  6
CONTINUOUS
 10
360.3809101894
 20
30.6035504109
 11
360.5543476894
 21
30.7003414814
  0
LINE
  8
0
 62
7
  6
CONTINUOUS
 10
359.3980977583
 20
30.5390230296
 11
359.744972717
 21
30.5067593403
  0
LINE
  8
0
 62
7
  6
CONTINUOUS
 10
363.5027853548
 20
30.5390230296
 11
363.7340351343
 21
30.5067593403
  0
LINE
  8
0
 62
7
  6
CONTINUOUS
 10
361.8840352445
 20
31.4101426505
 11
362.1152853548
 21
31.3778789641
  0
LINE
  8
0
 62
7
  6
CONTINUOUS
 10
364.1965353548
 20
31.4101426505
 11
364.4277854651
 21
31.3778789641
  0
LINE
  8
0
 62
7
  6
CONTINUOUS
 10
368.6480977445
 20
31.0552420547
 11
369.6309104651
 21
30.8939236226
  0
LINE
  8
0
 62
7
  6
CONTINUOUS
 10
369.8043479651
 20
30.9907146818
 11
368.8215352445
 21
31.1520331591
  0
LINE
  8
0
 62
7
  6
CONTINUOUS
 10
362.2887228548
 20
31.5069337098
 11
362.1152853548
 21
31.5391973962
  0
LINE
  8
0
 62
7
  6
CONTINUOUS
 10
368.5902854651
 20
30.5712867188
 11
368.7637229651
 21
30.5390230296
  0
LINE
  8
0
 62
7
  6
CONTINUOUS
 10
367.4340352445
 20
31.5069337098
 11
367.2605977445
 21
31.5391973962
  0
LINE
  8
0
 62
7
  6
CONTINUOUS
 10
369.6887227445
 20
31.3778789641
 11
369.8043479651
 21
31.3456152777
  0
LINE
  8
0
 62
7
  6
CONTINUOUS
 10
369.8621602445
 20
30.7648688543
 11
369.8043479651
 21
30.7003414814
  0
LINE
  8
0
 62
7
  6
CONTINUOUS
 10
368.4168479651
 20
31.4424063369
 11
368.3012227445
 21
31.3456152777
  0
LINE
  8
0
 62
7
  6
CONTINUOUS
 10
363.3293478548
 20
31.4746700234
 11
363.2137226343
 21
31.4101426505
  0
LINE
  8
0
 62
7
  6
CONTINUOUS
 10
363.3871601343
 20
31.0875057863
 11
363.2715352445
 21
31.0229783683
  0
LINE
  8
0
 62
7
  6
CONTINUOUS
 10
363.5027853548
 20
30.926187309
 11
363.6184102445
 21
30.9907146818
  0
LINE
  8
0
 62
7
  6
CONTINUOUS
 10
361.0746601894
 20
30.5067593403
 11
361.3637227445
 21
30.5067593403
  0
LINE
  8
0
 62
7
  6
CONTINUOUS
 10
362.4043477445
 20
30.5067593403
 11
362.6934101343
 21
30.5067593403
  0
LINE
  8
0
 62
7
  6
CONTINUOUS
 10
363.7340351343
 20
30.5067593403
 11
364.0809101343
 21
30.5067593403
  0
LINE
  8
0
 62
7
  6
CONTINUOUS
 10
364.716847524
 20
30.5067593403
 11
365.0059102445
 21
30.5067593403
  0
LINE
  8
0
 62
7
  6
CONTINUOUS
 10
365.4684104651
 20
30.5067593403
 11
365.757472524
 21
30.5067593403
  0
LINE
  8
0
 62
7
  6
CONTINUOUS
 10
366.2199727445
 20
30.5067593403
 11
366.5090354651
 21
30.5067593403
  0
LINE
  8
0
 62
7
  6
CONTINUOUS
 10
367.5496604651
 20
30.5067593403
 11
367.838722524
 21
30.5067593403
  0
LINE
  8
0
 62
7
  6
CONTINUOUS
 10
369.1105979651
 20
30.5067593403
 11
369.4574729651
 21
30.5067593403
  0
LINE
  8
0
 62
7
  6
CONTINUOUS
 10
369.4574729651
 20
30.6358140973
 11
369.1105979651
 21
30.6358140973
  0
LINE
  8
0
 62
7
  6
CONTINUOUS
 10
364.0809101343
 20
30.6358140973
 11
363.7340351343
 21
30.6358140973
  0
LINE
  8
0
 62
7
  6
CONTINUOUS
 10
368.5902854651
 20
30.7648688543
 11
368.3012227445
 21
30.7648688543
  0
LINE
  8
0
 62
7
  6
CONTINUOUS
 10
360.6121602997
 20
30.8293962497
 11
360.3230977445
 21
30.8293962497
  0
LINE
  8
0
 62
7
  6
CONTINUOUS
 10
359.6871602721
 20
31.4101426505
 11
360.091847717
 21
31.3778789641
  0
LINE
  8
0
 62
7
  6
CONTINUOUS
 10
360.1496602445
 20
31.5069337098
 11
359.744972717
 21
31.5391973962
  0
LINE
  8
0
 62
7
  6
CONTINUOUS
 10
368.7637229651
 20
30.5390230296
 11
369.1105979651
 21
30.5067593403
  0
LINE
  8
0
 62
7
  6
CONTINUOUS
 10
369.1105979651
 20
30.6358140973
 11
368.7637229651
 21
30.668077795
  0
LINE
  8
0
 62
7
  6
CONTINUOUS
 10
364.543410024
 20
31.5069337098
 11
364.1965353548
 21
31.5391973962
  0
LINE
  8
0
 62
7
  6
CONTINUOUS
 10
369.3418477445
 20
31.4101426505
 11
369.6887227445
 21
31.3778789641
  0
LINE
  8
0
 62
7
  6
CONTINUOUS
 10
369.6887227445
 20
31.5069337098
 11
369.3418477445
 21
31.5391973962
  0
LINE
  8
0
 62
7
  6
CONTINUOUS
 10
367.0293479651
 20
31.4101426505
 11
367.2605977445
 21
31.3778789641
  0
LINE
  8
0
 62
7
  6
CONTINUOUS
 10
369.8621602445
 20
31.4746700234
 11
369.6887227445
 21
31.5069337098
  0
LINE
  8
0
 62
7
  6
CONTINUOUS
 10
370.0355977445
 20
30.6035504109
 11
370.1512223035
 21
30.7003414814
  0
LINE
  8
0
 62
7
  6
CONTINUOUS
 10
364.543410024
 20
30.7971325633
 11
364.369972524
 21
30.7003414814
  0
LINE
  8
0
 62
7
  6
CONTINUOUS
 10
366.624660024
 20
31.4424063369
 11
366.5090354651
 21
31.3778789641
  0
LINE
  8
0
 62
7
  6
CONTINUOUS
 10
366.5090354651
 20
31.2488242184
 11
366.624660024
 21
31.3133515913
  0
LINE
  8
0
 62
7
  6
CONTINUOUS
 10
359.2246602583
 20
31.4746700234
 11
359.0512227376
 21
31.4101426505
  0
LINE
  8
0
 62
7
  6
CONTINUOUS
 10
361.6527851343
 20
31.5069337098
 11
361.4793477997
 21
31.4424063369
  0
LINE
  8
0
 62
7
  6
CONTINUOUS
 10
361.4793477997
 20
31.3133515913
 11
361.6527851343
 21
31.3778789641
  0
LINE
  8
0
 62
7
  6
CONTINUOUS
 10
360.2652852997
 20
30.7326051679
 11
360.091847717
 21
30.668077795
  0
LINE
  8
0
 62
7
  6
CONTINUOUS
 10
369.6887227445
 20
30.668077795
 11
369.4574729651
 21
30.6358140973
  0
LINE
  8
0
 62
7
  6
CONTINUOUS
 10
364.0809101343
 20
30.5067593403
 11
364.369972524
 21
30.5390230296
  0
LINE
  8
0
 62
7
  6
CONTINUOUS
 10
369.4574729651
 20
30.5067593403
 11
369.8043479651
 21
30.5390230296
  0
LINE
  8
0
 62
7
  6
CONTINUOUS
 10
359.744972717
 20
30.5067593403
 11
360.1496602445
 21
30.5390230296
  0
LINE
  8
0
 62
7
  6
CONTINUOUS
 10
360.091847717
 20
30.668077795
 11
359.6871602721
 21
30.6358140973
  0
LINE
  8
0
 62
7
  6
CONTINUOUS
 10
363.9652852445
 20
31.0552420547
 11
364.6012229651
 21
31.0552420547
  0
LINE
  8
0
 62
7
  6
CONTINUOUS
 10
364.6012229651
 20
31.1842968456
 11
363.9652852445
 21
31.1842968456
  0
LINE
  8
0
 62
7
  6
CONTINUOUS
 10
360.3230977445
 20
31.216560532
 11
360.6121602997
 21
31.216560532
  0
LINE
  8
0
 62
7
  6
CONTINUOUS
 10
363.1559103548
 20
31.2810879048
 11
363.4449727445
 21
31.2810879048
  0
LINE
  8
0
 62
7
  6
CONTINUOUS
 10
369.8621602445
 20
31.2810879048
 11
370.1512223035
 21
31.2810879048
  0
LINE
  8
0
 62
7
  6
CONTINUOUS
 10
363.8496603548
 20
31.4101426505
 11
364.1965353548
 21
31.4101426505
  0
LINE
  8
0
 62
7
  6
CONTINUOUS
 10
368.9949727445
 20
31.4101426505
 11
369.3418477445
 21
31.4101426505
  0
LINE
  8
0
 62
7
  6
CONTINUOUS
 10
369.3418477445
 20
31.5391973962
 11
368.9949727445
 21
31.5391973962
  0
LINE
  8
0
 62
7
  6
CONTINUOUS
 10
367.2605977445
 20
31.5391973962
 11
367.0293479651
 21
31.5391973962
  0
LINE
  8
0
 62
7
  6
CONTINUOUS
 10
366.5090354651
 20
31.5391973962
 11
366.2199727445
 21
31.5391973962
  0
LINE
  8
0
 62
7
  6
CONTINUOUS
 10
365.757472524
 20
31.5391973962
 11
365.4684104651
 21
31.5391973962
  0
LINE
  8
0
 62
7
  6
CONTINUOUS
 10
364.1965353548
 20
31.5391973962
 11
363.8496603548
 21
31.5391973962
  0
LINE
  8
0
 62
7
  6
CONTINUOUS
 10
362.1152853548
 20
31.5391973962
 11
361.8840352445
 21
31.5391973962
  0
LINE
  8
0
 62
7
  6
CONTINUOUS
 10
365.4684104651
 20
31.8618343508
 11
365.757472524
 21
31.8618343508
  0
LINE
  8
0
 62
7
  6
CONTINUOUS
 10
365.757472524
 20
32.0231527829
 11
365.4684104651
 21
32.0231527829
  0
LINE
  8
0
 62
7
  6
CONTINUOUS
 10
361.3637227445
 20
32.0231527829
 11
361.0746601894
 21
32.0231527829
  0
LINE
  8
0
 62
7
  6
CONTINUOUS
 10
360.4015045068
 20
32.3100380288
 11
360.8140758554
 21
32.3100380288
  0
LINE
  8
0
 62
7
  6
CONTINUOUS
 10
362.0408487691
 20
32.3100380288
 11
363.4342913921
 21
32.3100380288
  0
LINE
  8
0
 62
7
  6
CONTINUOUS
 10
363.7621602445
 20
32.3100380288
 11
365.1556028675
 21
32.3100380288
  0
LINE
  8
0
 62
7
  6
CONTINUOUS
 10
367.0408487691
 20
32.3100380288
 11
368.4342913921
 21
32.3100380288
  0
LINE
  8
0
 62
7
  6
CONTINUOUS
 10
368.7621602445
 20
32.3100380288
 11
370.1556028675
 21
32.3100380288
  0
LINE
  8
0
 62
7
  6
CONTINUOUS
 10
366.798097524
 20
31.5069337098
 11
366.624660024
 21
31.4424063369
  0
LINE
  8
0
 62
7
  6
CONTINUOUS
 10
364.369972524
 20
30.5390230296
 11
364.543410024
 21
30.6035504109
  0
LINE
  8
0
 62
7
  6
CONTINUOUS
 10
369.8043479651
 20
30.5390230296
 11
370.0355977445
 21
30.6035504109
  0
LINE
  8
0
 62
7
  6
CONTINUOUS
 10
369.8043479651
 20
30.7003414814
 11
369.6887227445
 21
30.668077795
  0
LINE
  8
0
 62
7
  6
CONTINUOUS
 10
368.7637229651
 20
31.3778789641
 11
368.9949727445
 21
31.4101426505
  0
LINE
  8
0
 62
7
  6
CONTINUOUS
 10
366.798097524
 20
31.3778789641
 11
367.0293479651
 21
31.4101426505
  0
LINE
  8
0
 62
7
  6
CONTINUOUS
 10
363.7340351343
 20
31.0229783683
 11
363.9652852445
 21
31.0552420547
  0
LINE
  8
0
 62
7
  6
CONTINUOUS
 10
367.0293479651
 20
31.5391973962
 11
366.798097524
 21
31.5069337098
  0
LINE
  8
0
 62
7
  6
CONTINUOUS
 10
363.6184102445
 20
31.3778789641
 11
363.8496603548
 21
31.4101426505
  0
LINE
  8
0
 62
7
  6
CONTINUOUS
 10
368.9949727445
 20
31.5391973962
 11
368.6480977445
 21
31.5069337098
  0
LINE
  8
0
 62
7
  6
CONTINUOUS
 10
363.9652852445
 20
31.1842968456
 11
363.6184102445
 21
31.1520331591
  0
LINE
  8
0
 62
7
  6
CONTINUOUS
 10
359.744972717
 20
31.5391973962
 11
359.3980977583
 21
31.5069337098
  0
LINE
  8
0
 62
7
  6
CONTINUOUS
 10
363.8496603548
 20
31.5391973962
 11
363.4449727445
 21
31.5069337098
  0
LINE
  8
0
 62
7
  6
CONTINUOUS
 10
361.221176638
 20
33.4575790124
 11
360.565438933
 21
33.4575790124
  0
LINE
  8
0
 62
7
  6
CONTINUOUS
 10
366.624660024
 20
31.3133515913
 11
366.798097524
 21
31.3778789641
  0
LINE
  8
0
 62
7
  6
CONTINUOUS
 10
368.6480977445
 20
31.3456152777
 11
368.7637229651
 21
31.3778789641
  0
LINE
  8
0
 62
7
  6
CONTINUOUS
 10
368.6480977445
 20
31.5069337098
 11
368.4168479651
 21
31.4424063369
  0
LINE
  8
0
 62
7
  6
CONTINUOUS
 10
364.369972524
 20
30.7003414814
 11
364.0809101343
 21
30.6358140973
  0
LINE
  8
0
 62
7
  6
CONTINUOUS
 10
361.6527851343
 20
31.3778789641
 11
361.8840352445
 21
31.4101426505
  0
LINE
  8
0
 62
7
  6
CONTINUOUS
 10
361.8840352445
 20
31.5391973962
 11
361.6527851343
 21
31.5069337098
  0
LINE
  8
0
 62
7
  6
CONTINUOUS
 10
359.4559102445
 20
31.3778789641
 11
359.6871602721
 21
31.4101426505
  0
LINE
  8
0
 62
7
  6
CONTINUOUS
 10
365.9752749986
 20
34.9329888485
 11
366.6310127035
 21
34.9329888485
  0
LINE
  8
0
 62
7
  6
CONTINUOUS
 10
363.6184102445
 20
30.9907146818
 11
363.7340351343
 21
31.0229783683
  0
LINE
  8
0
 62
7
  6
CONTINUOUS
 10
363.6184102445
 20
31.1520331591
 11
363.3871601343
 21
31.0875057863
  0
LINE
  8
0
 62
7
  6
CONTINUOUS
 10
363.5027853548
 20
31.3456152777
 11
363.6184102445
 21
31.3778789641
  0
LINE
  8
0
 62
7
  6
CONTINUOUS
 10
360.1496602445
 20
30.5390230296
 11
360.3809101894
 21
30.6035504109
  0
LINE
  8
0
 62
7
  6
CONTINUOUS
 10
363.4449727445
 20
31.5069337098
 11
363.3293478548
 21
31.4746700234
  0
LINE
  8
0
 62
7
  6
CONTINUOUS
 10
359.3980977583
 20
31.5069337098
 11
359.2246602583
 21
31.4746700234
  0
LINE
  8
0
 62
7
  6
CONTINUOUS
 10
370.1556028675
 20
36.0805298321
 11
368.7621602445
 21
36.0805298321
  0
LINE
  8
0
 62
7
  6
CONTINUOUS
 10
366.7949471298
 20
36.0805298321
 11
366.3823757812
 21
36.0805298321
  0
LINE
  8
0
 62
7
  6
CONTINUOUS
 10
365.1556028675
 20
36.0805298321
 11
363.7621602445
 21
36.0805298321
  0
LINE
  8
0
 62
7
  6
CONTINUOUS
 10
363.4342913921
 20
36.0805298321
 11
362.0408487691
 21
36.0805298321
  0
LINE
  8
0
 62
7
  6
CONTINUOUS
 10
360.1556028675
 20
36.0805298321
 11
358.7621602445
 21
36.0805298321
  0
LINE
  8
0
 62
7
  6
CONTINUOUS
 10
359.3402852307
 20
31.3456152777
 11
359.4559102445
 21
31.3778789641
  0
CIRCLE
  8
0
 62
7
  6
CONTINUOUS
 10
369.458881556
 20
38.4165954059
 40
2.0901639344
  0
ARC
  8
0
 62
7
  6
CONTINUOUS
 10
360.4015045068
 20
33.9493822911
 40
1.6393442623
 50
180.0
 51
270.0
  0
ARC
  8
0
 62
7
  6
CONTINUOUS
 10
366.7949471298
 20
34.4411855698
 40
1.6393442623
 50
0.0
 51
90.0
  0
ARC
  8
0
 62
7
  6
CONTINUOUS
 10
360.8140758554
 20
33.7854478649
 40
1.4754098361
 50
270.0
 51
326.2510114041
  0
ARC
  8
0
 62
7
  6
CONTINUOUS
 10
366.3823757812
 20
34.6051199961
 40
1.4754098361
 50
90.0
 51
146.2510114041
  0
ARC
  8
0
 62
7
  6
CONTINUOUS
 10
361.221176638
 20
34.2772511436
 40
0.8196721311
 50
270.0
 51
360.0
  0
ARC
  8
0
 62
7
  6
CONTINUOUS
 10
365.9752749986
 20
34.1133167174
 40
0.8196721311
 50
90.0
 51
180.0
  0
ARC
  8
0
 62
7
  6
CONTINUOUS
 10
360.565438933
 20
33.867415078
 40
0.4098360656
 50
180.0
 51
270.0
  0
ARC
  8
0
 62
7
  6
CONTINUOUS
 10
366.6310127035
 20
34.5231527829
 40
0.4098360656
 50
0.0
 51
90.0
  0
SOLID
  8
0
 62
7
  6
CONTINUOUS
 10
365.4684104651
 20
31.8618347111
 11
365.4684104651
 21
32.0231531947
 12
365.757472524
 22
31.8618347111
 13
365.757472524
 23
32.0231531947
  0
SOLID
  8
0
 62
7
  6
CONTINUOUS
 10
359.744972717
 20
31.5391977439
 11
360.1496602445
 21
31.5069333244
 12
359.3980977583
 22
31.5069333244
 13
359.3980977583
 23
31.5069333244
  0
SOLID
  8
0
 62
7
  6
CONTINUOUS
 10
359.2246602583
 20
31.4746706537
 11
359.3980977583
 21
31.5069333244
 12
360.1496602445
 22
31.5069333244
 13
360.1496602445
 23
31.5069333244
  0
SOLID
  8
0
 62
7
  6
CONTINUOUS
 10
360.1496602445
 20
31.5069333244
 11
360.3809101894
 21
31.4424063504
 12
359.2246602583
 22
31.4746706537
 13
359.2246602583
 23
31.4746706537
  0
SOLID
  8
0
 62
7
  6
CONTINUOUS
 10
359.0512227376
 20
31.4101419116
 11
359.2246602583
 21
31.4746706537
 12
360.3809101894
 22
31.4424063504
 13
360.3809101894
 23
31.4424063504
  0
SOLID
  8
0
 62
7
  6
CONTINUOUS
 10
359.0512227376
 20
31.4101419116
 11
360.3809101894
 21
31.4424063504
 12
359.6871602721
 22
31.4101419116
 13
359.6871602721
 23
31.4101419116
  0
SOLID
  8
0
 62
7
  6
CONTINUOUS
 10
359.6871602721
 20
31.4101419116
 11
360.3809101894
 21
31.4424063504
 12
360.091847717
 22
31.3778792603
 13
360.091847717
 23
31.3778792603
  0
SOLID
  8
0
 62
7
  6
CONTINUOUS
 10
360.3809101894
 20
31.4424063504
 11
360.5543476894
 21
31.345614957
 12
360.091847717
 22
31.3778792603
 13
360.091847717
 23
31.3778792603
  0
SOLID
  8
0
 62
7
  6
CONTINUOUS
 10
360.2652852997
 20
31.3133521701
 11
360.091847717
 21
31.3778792603
 12
360.5543476894
 22
31.345614957
 13
360.5543476894
 23
31.345614957
  0
SOLID
  8
0
 62
7
  6
CONTINUOUS
 10
360.2652852997
 20
31.3133521701
 11
360.5543476894
 21
31.345614957
 12
360.3230977445
 22
31.2165606992
 13
360.3230977445
 23
31.2165606992
  0
SOLID
  8
0
 62
7
  6
CONTINUOUS
 10
360.5543476894
 20
31.345614957
 11
360.6121602997
 21
31.2165606992
 12
360.3230977445
 22
31.2165606992
 13
360.3230977445
 23
31.2165606992
  0
SOLID
  8
0
 62
7
  6
CONTINUOUS
 10
361.6527851343
 20
31.5069329918
 11
361.8840352445
 21
31.5391972951
 12
362.1152853548
 22
31.5391972951
 13
362.1152853548
 23
31.5391972951
  0
SOLID
  8
0
 62
7
  6
CONTINUOUS
 10
362.1152853548
 20
31.5391972951
 11
362.2887228548
 21
31.5069329918
 12
361.6527851343
 22
31.5069329918
 13
361.6527851343
 23
31.5069329918
  0
SOLID
  8
0
 62
7
  6
CONTINUOUS
 10
361.4793477997
 20
31.4424059016
 11
361.6527851343
 21
31.5069329918
 12
362.2887228548
 22
31.5069329918
 13
362.2887228548
 23
31.5069329918
  0
SOLID
  8
0
 62
7
  6
CONTINUOUS
 10
362.2887228548
 20
31.5069329918
 11
362.4621603548
 21
31.4424059016
 12
361.4793477997
 22
31.4424059016
 13
361.4793477997
 23
31.4424059016
  0
SOLID
  8
0
 62
7
  6
CONTINUOUS
 10
362.4621603548
 20
31.4424059016
 11
361.8840352445
 21
31.4101420472
 12
361.4793477997
 22
31.4424059016
 13
361.4793477997
 23
31.4424059016
  0
SOLID
  8
0
 62
7
  6
CONTINUOUS
 10
361.3637227445
 20
31.3778788115
 11
361.4793477997
 21
31.4424059016
 12
361.8840352445
 22
31.4101420472
 13
361.8840352445
 23
31.4101420472
  0
SOLID
  8
0
 62
7
  6
CONTINUOUS
 10
361.8840352445
 20
31.4101420472
 11
361.6527851343
 21
31.3778788115
 12
361.3637227445
 22
31.3778788115
 13
361.3637227445
 23
31.3778788115
  0
SOLID
  8
0
 62
7
  6
CONTINUOUS
 10
361.8840352445
 20
31.4101420472
 11
362.4621603548
 21
31.4424059016
 12
362.1152853548
 22
31.3778788115
 13
362.1152853548
 23
31.3778788115
  0
SOLID
  8
0
 62
7
  6
CONTINUOUS
 10
362.4621603548
 20
31.4424059016
 11
362.5777852445
 21
31.3778788115
 12
362.1152853548
 22
31.3778788115
 13
362.1152853548
 23
31.3778788115
  0
SOLID
  8
0
 62
7
  6
CONTINUOUS
 10
362.2309102445
 20
31.345614957
 11
362.1152853548
 21
31.3778788115
 12
362.5777852445
 22
31.3778788115
 13
362.5777852445
 23
31.3778788115
  0
SOLID
  8
0
 62
7
  6
CONTINUOUS
 10
362.5777852445
 20
31.3778788115
 11
362.6355978548
 21
31.3133517213
 12
362.2309102445
 22
31.345614957
 13
362.2309102445
 23
31.345614957
  0
SOLID
  8
0
 62
7
  6
CONTINUOUS
 10
362.3465351343
 20
31.2810878668
 11
362.2309102445
 21
31.345614957
 12
362.6355978548
 22
31.3133517213
 13
362.6355978548
 23
31.3133517213
  0
SOLID
  8
0
 62
7
  6
CONTINUOUS
 10
362.3465351343
 20
31.2810878668
 11
362.6355978548
 21
31.3133517213
 12
362.4043477445
 22
31.1520332377
 13
362.4043477445
 23
31.1520332377
  0
SOLID
  8
0
 62
7
  6
CONTINUOUS
 10
362.6355978548
 20
31.3133517213
 11
362.6934101343
 21
31.1520332377
 12
362.4043477445
 22
31.1520332377
 13
362.4043477445
 23
31.1520332377
  0
SOLID
  8
0
 62
7
  6
CONTINUOUS
 10
361.6527851343
 20
31.3778788115
 11
361.4793477997
 21
31.3133517213
 12
361.3637227445
 22
31.3778788115
 13
361.3637227445
 23
31.3778788115
  0
SOLID
  8
0
 62
7
  6
CONTINUOUS
 10
361.4793477997
 20
31.3133517213
 11
361.3637227445
 21
31.2488235635
 12
361.3637227445
 22
31.3778788115
 13
361.3637227445
 23
31.3778788115
  0
SOLID
  8
0
 62
7
  6
CONTINUOUS
 10
361.3637227445
 20
31.2488235635
 11
361.0746601894
 21
30.5067593033
 12
361.3637227445
 22
31.3778788115
 13
361.3637227445
 23
31.3778788115
  0
SOLID
  8
0
 62
7
  6
CONTINUOUS
 10
361.3637227445
 20
31.3778788115
 11
361.0746601894
 21
30.5067593033
 12
361.3637227445
 22
32.0231527459
 13
361.3637227445
 23
32.0231527459
  0
SOLID
  8
0
 62
7
  6
CONTINUOUS
 10
361.0746601894
 20
30.5067593033
 11
361.0746601894
 21
32.0231527459
 12
361.3637227445
 22
32.0231527459
 13
361.3637227445
 23
32.0231527459
  0
SOLID
  8
0
 62
7
  6
CONTINUOUS
 10
361.3637227445
 20
31.2488235635
 11
361.3637227445
 21
30.5067593033
 12
361.0746601894
 22
30.5067593033
 13
361.0746601894
 23
30.5067593033
  0
SOLID
  8
0
 62
7
  6
CONTINUOUS
 10
362.4043477445
 20
30.5067593033
 11
362.4043477445
 21
31.1520332377
 12
362.6934101343
 22
31.1520332377
 13
362.6934101343
 23
31.1520332377
  0
SOLID
  8
0
 62
7
  6
CONTINUOUS
 10
362.6934101343
 20
31.1520332377
 11
362.6934101343
 21
30.5067593033
 12
362.4043477445
 22
30.5067593033
 13
362.4043477445
 23
30.5067593033
  0
SOLID
  8
0
 62
7
  6
CONTINUOUS
 10
363.4449727445
 20
31.506933758
 11
363.8496603548
 21
31.5391977507
 12
364.1965353548
 22
31.5391977507
 13
364.1965353548
 23
31.5391977507
  0
SOLID
  8
0
 62
7
  6
CONTINUOUS
 10
364.1965353548
 20
31.5391977507
 11
364.543410024
 21
31.506933758
 12
363.4449727445
 22
31.506933758
 13
363.4449727445
 23
31.506933758
  0
SOLID
  8
0
 62
7
  6
CONTINUOUS
 10
363.3293478548
 20
31.4746706537
 11
363.4449727445
 21
31.506933758
 12
364.543410024
 22
31.506933758
 13
364.543410024
 23
31.506933758
  0
SOLID
  8
0
 62
7
  6
CONTINUOUS
 10
364.543410024
 20
31.506933758
 11
364.716847524
 21
31.4424063504
 12
363.3293478548
 22
31.4746706537
 13
363.3293478548
 23
31.4746706537
  0
SOLID
  8
0
 62
7
  6
CONTINUOUS
 10
363.2137226343
 20
31.4101417797
 11
363.3293478548
 21
31.4746706537
 12
364.716847524
 22
31.4424063504
 13
364.716847524
 23
31.4424063504
  0
SOLID
  8
0
 62
7
  6
CONTINUOUS
 10
363.2137226343
 20
31.4101417797
 11
364.716847524
 21
31.4424063504
 12
363.8496603548
 22
31.4101417797
 13
363.8496603548
 23
31.4101417797
  0
SOLID
  8
0
 62
7
  6
CONTINUOUS
 10
363.8496603548
 20
31.4101417797
 11
364.716847524
 21
31.4424063504
 12
364.1965353548
 22
31.4101417797
 13
364.1965353548
 23
31.4101417797
  0
SOLID
  8
0
 62
7
  6
CONTINUOUS
 10
364.1965353548
 20
31.4101417797
 11
364.716847524
 21
31.4424063504
 12
364.4277854651
 22
31.3778793357
 13
364.4277854651
 23
31.3778793357
  0
SOLID
  8
0
 62
7
  6
CONTINUOUS
 10
364.716847524
 20
31.4424063504
 11
364.8324727445
 21
31.3778793357
 12
364.4277854651
 22
31.3778793357
 13
364.4277854651
 23
31.3778793357
  0
SOLID
  8
0
 62
7
  6
CONTINUOUS
 10
363.1559103548
 20
31.3456153429
 11
363.2137226343
 21
31.4101417797
 12
363.8496603548
 22
31.4101417797
 13
363.8496603548
 23
31.4101417797
  0
SOLID
  8
0
 62
7
  6
CONTINUOUS
 10
364.543410024
 20
31.3456153429
 11
364.4277854651
 21
31.3778793357
 12
364.8324727445
 22
31.3778793357
 13
364.8324727445
 23
31.3778793357
  0
SOLID
  8
0
 62
7
  6
CONTINUOUS
 10
364.543410024
 20
31.3456153429
 11
364.8324727445
 21
31.3778793357
 12
364.6012229651
 22
31.2810881318
 13
364.6012229651
 23
31.2810881318
  0
SOLID
  8
0
 62
7
  6
CONTINUOUS
 10
364.8324727445
 20
31.3778793357
 11
364.890285024
 21
31.2810881318
 12
364.6012229651
 22
31.2810881318
 13
364.6012229651
 23
31.2810881318
  0
SOLID
  8
0
 62
7
  6
CONTINUOUS
 10
364.6012229651
 20
31.1842964734
 11
364.6012229651
 21
31.2810881318
 12
364.890285024
 22
31.2810881318
 13
364.890285024
 23
31.2810881318
  0
SOLID
  8
0
 62
7
  6
CONTINUOUS
 10
364.6012229651
 20
31.1842964734
 11
364.890285024
 21
31.2810881318
 12
364.6012229651
 22
31.0552422931
 13
364.6012229651
 23
31.0552422931
  0
SOLID
  8
0
 62
7
  6
CONTINUOUS
 10
364.6012229651
 20
31.0552422931
 11
364.890285024
 21
31.2810881318
 12
364.6012229651
 22
30.8616599362
 13
364.6012229651
 23
30.8616599362
  0
SOLID
  8
0
 62
7
  6
CONTINUOUS
 10
364.890285024
 20
31.2810881318
 11
364.890285024
 21
30.7648681127
 12
364.6012229651
 22
30.8616599362
 13
364.6012229651
 23
30.8616599362
  0
SOLID
  8
0
 62
7
  6
CONTINUOUS
 10
366.798097524
 20
31.5069339419
 11
367.0293479651
 21
31.5391976292
 12
367.2605977445
 22
31.5391976292
 13
367.2605977445
 23
31.5391976292
  0
SOLID
  8
0
 62
7
  6
CONTINUOUS
 10
367.2605977445
 20
31.5391976292
 11
367.4340352445
 21
31.5069339419
 12
366.798097524
 22
31.5069339419
 13
366.798097524
 23
31.5069339419
  0
SOLID
  8
0
 62
7
  6
CONTINUOUS
 10
366.624660024
 20
31.4424065674
 11
366.798097524
 21
31.5069339419
 12
367.4340352445
 22
31.5069339419
 13
367.4340352445
 23
31.5069339419
  0
SOLID
  8
0
 62
7
  6
CONTINUOUS
 10
367.4340352445
 20
31.5069339419
 11
367.6074727445
 21
31.4424065674
 12
366.624660024
 22
31.4424065674
 13
366.624660024
 23
31.4424065674
  0
SOLID
  8
0
 62
7
  6
CONTINUOUS
 10
367.6074727445
 20
31.4424065674
 11
367.0293479651
 21
31.4101420472
 12
366.624660024
 22
31.4424065674
 13
366.624660024
 23
31.4424065674
  0
SOLID
  8
0
 62
7
  6
CONTINUOUS
 10
366.5090354651
 20
31.377879193
 11
366.624660024
 21
31.4424065674
 12
367.0293479651
 22
31.4101420472
 13
367.0293479651
 23
31.4101420472
  0
SOLID
  8
0
 62
7
  6
CONTINUOUS
 10
367.0293479651
 20
31.4101420472
 11
366.798097524
 21
31.377879193
 12
366.5090354651
 22
31.377879193
 13
366.5090354651
 23
31.377879193
  0
SOLID
  8
0
 62
7
  6
CONTINUOUS
 10
367.0293479651
 20
31.4101420472
 11
367.6074727445
 21
31.4424065674
 12
367.2605977445
 22
31.377879193
 13
367.2605977445
 23
31.377879193
  0
SOLID
  8
0
 62
7
  6
CONTINUOUS
 10
367.6074727445
 20
31.4424065674
 11
367.7230979651
 21
31.377879193
 12
367.2605977445
 22
31.377879193
 13
367.2605977445
 23
31.377879193
  0
SOLID
  8
0
 62
7
  6
CONTINUOUS
 10
367.3762229651
 20
31.345614957
 11
367.2605977445
 21
31.377879193
 12
367.7230979651
 22
31.377879193
 13
367.7230979651
 23
31.377879193
  0
SOLID
  8
0
 62
7
  6
CONTINUOUS
 10
367.3762229651
 20
31.345614957
 11
367.7230979651
 21
31.377879193
 12
367.491847524
 22
31.2810881312
 13
367.491847524
 23
31.2810881312
  0
SOLID
  8
0
 62
7
  6
CONTINUOUS
 10
367.7230979651
 20
31.377879193
 11
367.7809102445
 21
31.2810881312
 12
367.491847524
 22
31.2810881312
 13
367.491847524
 23
31.2810881312
  0
SOLID
  8
0
 62
7
  6
CONTINUOUS
 10
367.5496604651
 20
31.119769695
 11
367.491847524
 21
31.2810881312
 12
367.7809102445
 22
31.2810881312
 13
367.7809102445
 23
31.2810881312
  0
SOLID
  8
0
 62
7
  6
CONTINUOUS
 10
367.7809102445
 20
31.2810881312
 11
367.838722524
 21
31.119769695
 12
367.5496604651
 22
31.119769695
 13
367.5496604651
 23
31.119769695
  0
SOLID
  8
0
 62
7
  6
CONTINUOUS
 10
366.798097524
 20
31.377879193
 11
366.624660024
 21
31.3133521701
 12
366.5090354651
 22
31.377879193
 13
366.5090354651
 23
31.377879193
  0
SOLID
  8
0
 62
7
  6
CONTINUOUS
 10
366.624660024
 20
31.3133521701
 11
366.5090354651
 21
31.2488235635
 12
366.5090354651
 22
31.377879193
 13
366.5090354651
 23
31.377879193
  0
SOLID
  8
0
 62
7
  6
CONTINUOUS
 10
366.5090354651
 20
31.2488235635
 11
366.2199727445
 21
30.5067596374
 12
366.5090354651
 22
31.377879193
 13
366.5090354651
 23
31.377879193
  0
SOLID
  8
0
 62
7
  6
CONTINUOUS
 10
366.5090354651
 20
31.377879193
 11
366.2199727445
 21
30.5067596374
 12
366.5090354651
 22
31.5391976292
 13
366.5090354651
 23
31.5391976292
  0
SOLID
  8
0
 62
7
  6
CONTINUOUS
 10
366.2199727445
 20
30.5067596374
 11
366.2199727445
 21
31.5391976292
 12
366.5090354651
 22
31.5391976292
 13
366.5090354651
 23
31.5391976292
  0
SOLID
  8
0
 62
7
  6
CONTINUOUS
 10
366.5090354651
 20
31.2488235635
 11
366.5090354651
 21
30.5067596374
 12
366.2199727445
 22
30.5067596374
 13
366.2199727445
 23
30.5067596374
  0
SOLID
  8
0
 62
7
  6
CONTINUOUS
 10
367.5496604651
 20
30.5067596374
 11
367.5496604651
 21
31.119769695
 12
367.838722524
 22
31.119769695
 13
367.838722524
 23
31.119769695
  0
SOLID
  8
0
 62
7
  6
CONTINUOUS
 10
367.838722524
 20
31.119769695
 11
367.838722524
 21
30.5067596374
 12
367.5496604651
 22
30.5067596374
 13
367.5496604651
 23
30.5067596374
  0
SOLID
  8
0
 62
7
  6
CONTINUOUS
 10
368.6480977445
 20
31.5069334157
 11
368.9949727445
 21
31.539197762
 12
369.3418477445
 22
31.539197762
 13
369.3418477445
 23
31.539197762
  0
SOLID
  8
0
 62
7
  6
CONTINUOUS
 10
369.3418477445
 20
31.539197762
 11
369.6887227445
 21
31.5069334157
 12
368.6480977445
 22
31.5069334157
 13
368.6480977445
 23
31.5069334157
  0
SOLID
  8
0
 62
7
  6
CONTINUOUS
 10
368.4168479651
 20
31.4424063504
 11
368.6480977445
 21
31.5069334157
 12
369.6887227445
 22
31.5069334157
 13
369.6887227445
 23
31.5069334157
  0
SOLID
  8
0
 62
7
  6
CONTINUOUS
 10
368.4168479651
 20
31.4424063504
 11
369.6887227445
 21
31.5069334406
 12
369.8621602445
 22
31.4746706537
 13
369.8621602445
 23
31.4746706537
  0
SOLID
  8
0
 62
7
  6
CONTINUOUS
 10
368.4168479651
 20
31.4424063504
 11
369.8621602445
 21
31.4746706537
 12
368.9949727445
 22
31.4101421267
 13
368.9949727445
 23
31.4101421267
  0
SOLID
  8
0
 62
7
  6
CONTINUOUS
 10
368.9949727445
 20
31.4101421267
 11
369.8621602445
 21
31.4746706537
 12
369.3418477445
 22
31.4101421267
 13
369.3418477445
 23
31.4101421267
  0
SOLID
  8
0
 62
7
  6
CONTINUOUS
 10
369.8621602445
 20
31.4746706537
 11
370.0355977445
 21
31.4101421267
 12
369.3418477445
 22
31.4101421267
 13
369.3418477445
 23
31.4101421267
  0
SOLID
  8
0
 62
7
  6
CONTINUOUS
 10
369.6887227445
 20
31.3778792603
 11
369.3418477445
 21
31.4101421267
 12
370.0355977445
 22
31.4101421267
 13
370.0355977445
 23
31.4101421267
  0
SOLID
  8
0
 62
7
  6
CONTINUOUS
 10
368.3012227445
 20
31.3456148845
 11
368.4168479651
 21
31.4424063504
 12
368.9949727445
 22
31.4101421267
 13
368.9949727445
 23
31.4101421267
  0
SOLID
  8
0
 62
7
  6
CONTINUOUS
 10
369.6887227445
 20
31.3778792603
 11
370.0355977445
 21
31.4101421267
 12
369.8043479651
 22
31.3456148845
 13
369.8043479651
 23
31.3456148845
  0
SOLID
  8
0
 62
7
  6
CONTINUOUS
 10
369.8043479651
 20
31.3456148845
 11
370.0355977445
 21
31.4101421267
 12
369.8621602445
 22
31.281087868
 13
369.8621602445
 23
31.281087868
  0
SOLID
  8
0
 62
7
  6
CONTINUOUS
 10
370.0355977445
 20
31.4101421267
 11
370.1512223035
 21
31.281087868
 12
369.8621602445
 22
31.281087868
 13
369.8621602445
 23
31.281087868
  0
SOLID
  8
0
 62
7
  6
CONTINUOUS
 10
359.4559102445
 20
31.3778792603
 11
358.9355977445
 21
31.3456148963
 12
359.6871602721
 22
31.4101421155
 13
359.6871602721
 23
31.4101421155
  0
SOLID
  8
0
 62
7
  6
CONTINUOUS
 10
358.9355977445
 20
31.3456148963
 11
359.0512227376
 21
31.4101421155
 12
359.6871602721
 22
31.4101421155
 13
359.6871602721
 23
31.4101421155
  0
SOLID
  8
0
 62
7
  6
CONTINUOUS
 10
359.4559102445
 20
31.3778792603
 11
359.3402852307
 21
31.3456148963
 12
358.9355977445
 22
31.3456148963
 13
358.9355977445
 23
31.3456148963
  0
SOLID
  8
0
 62
7
  6
CONTINUOUS
 10
358.8199727462
 20
31.2165607767
 11
358.9355977445
 21
31.3456148963
 12
359.3402852307
 22
31.3456148963
 13
359.3402852307
 23
31.3456148963
  0
SOLID
  8
0
 62
7
  6
CONTINUOUS
 10
363.1559103548
 20
31.3456149608
 11
363.8496603548
 21
31.4101420472
 12
363.6184102445
 22
31.3778792603
 13
363.6184102445
 23
31.3778792603
  0
SOLID
  8
0
 62
7
  6
CONTINUOUS
 10
363.6184102445
 20
31.3778792603
 11
363.5027853548
 21
31.3456149608
 12
363.1559103548
 22
31.3456149608
 13
363.1559103548
 23
31.3456149608
  0
SOLID
  8
0
 62
7
  6
CONTINUOUS
 10
363.1559103548
 20
31.2810878707
 11
363.1559103548
 21
31.3456149608
 12
363.5027853548
 22
31.3456149608
 13
363.5027853548
 23
31.3456149608
  0
SOLID
  8
0
 62
7
  6
CONTINUOUS
 10
363.5027853548
 20
31.3456149608
 11
363.4449727445
 21
31.2810878707
 12
363.1559103548
 22
31.2810878707
 13
363.1559103548
 23
31.2810878707
  0
SOLID
  8
0
 62
7
  6
CONTINUOUS
 10
368.3012227445
 20
31.3456149608
 11
368.9949727445
 21
31.4101420472
 12
368.7637229651
 22
31.3778792603
 13
368.7637229651
 23
31.3778792603
  0
SOLID
  8
0
 62
7
  6
CONTINUOUS
 10
368.7637229651
 20
31.3778792603
 11
368.6480977445
 21
31.3456149608
 12
368.3012227445
 22
31.3456149608
 13
368.3012227445
 23
31.3456149608
  0
SOLID
  8
0
 62
7
  6
CONTINUOUS
 10
368.3012227445
 20
31.2810878707
 11
368.3012227445
 21
31.3456149608
 12
368.6480977445
 22
31.3456149608
 13
368.6480977445
 23
31.3456149608
  0
SOLID
  8
0
 62
7
  6
CONTINUOUS
 10
368.6480977445
 20
31.3456149608
 11
368.5902854651
 21
31.2810878707
 12
368.3012227445
 22
31.2810878707
 13
368.3012227445
 23
31.2810878707
  0
SOLID
  8
0
 62
7
  6
CONTINUOUS
 10
368.4168479651
 20
31.1520336865
 11
368.3012227445
 21
31.2810878707
 12
368.5902854651
 22
31.2810878707
 13
368.5902854651
 23
31.2810878707
  0
SOLID
  8
0
 62
7
  6
CONTINUOUS
 10
358.8199727462
 20
31.2165607767
 11
359.3402852307
 21
31.345614957
 12
359.1668477307
 22
31.2488235635
 13
359.1668477307
 23
31.2488235635
  0
SOLID
  8
0
 62
7
  6
CONTINUOUS
 10
359.1668477307
 20
31.2488235635
 11
359.1090352445
 21
31.1842964734
 12
358.8199727462
 22
31.2165607767
 13
358.8199727462
 23
31.2165607767
  0
SOLID
  8
0
 62
7
  6
CONTINUOUS
 10
358.7621602445
 20
31.0229779898
 11
358.8199727462
 21
31.2165607767
 12
359.1090352445
 22
31.1842964734
 13
359.1090352445
 23
31.1842964734
  0
SOLID
  8
0
 62
7
  6
CONTINUOUS
 10
363.6184102445
 20
31.1520336865
 11
363.9652852445
 21
31.1842964611
 12
364.6012229651
 22
31.1842964611
 13
364.6012229651
 23
31.1842964611
  0
SOLID
  8
0
 62
7
  6
CONTINUOUS
 10
363.6184102445
 20
31.1520336865
 11
364.6012229651
 21
31.1842964611
 12
363.3871601343
 22
31.0875057863
 13
363.3871601343
 23
31.0875057863
  0
SOLID
  8
0
 62
7
  6
CONTINUOUS
 10
363.3871601343
 20
31.0875057863
 11
364.6012229651
 21
31.1842964611
 12
363.9652852445
 22
31.0552422808
 13
363.9652852445
 23
31.0552422808
  0
SOLID
  8
0
 62
7
  6
CONTINUOUS
 10
364.6012229651
 20
31.1842964611
 11
364.6012229651
 21
31.0552422808
 12
363.9652852445
 22
31.0552422808
 13
363.9652852445
 23
31.0552422808
  0
SOLID
  8
0
 62
7
  6
CONTINUOUS
 10
368.4168479651
 20
31.1520338754
 11
368.5902854651
 21
31.2810878668
 12
368.6480977445
 22
31.2165607767
 13
368.6480977445
 23
31.2165607767
  0
SOLID
  8
0
 62
7
  6
CONTINUOUS
 10
368.6480977445
 20
31.2165607767
 11
368.8215352445
 21
31.1520338754
 12
368.4168479651
 22
31.1520338754
 13
368.4168479651
 23
31.1520338754
  0
SOLID
  8
0
 62
7
  6
CONTINUOUS
 10
368.6480977445
 20
31.0552422931
 11
368.4168479651
 21
31.1520338754
 12
368.8215352445
 22
31.1520338754
 13
368.8215352445
 23
31.1520338754
  0
SOLID
  8
0
 62
7
  6
CONTINUOUS
 10
368.8215352445
 20
31.1520338754
 11
369.8043479651
 21
30.9907152029
 12
368.6480977445
 22
31.0552422931
 13
368.6480977445
 23
31.0552422931
  0
SOLID
  8
0
 62
7
  6
CONTINUOUS
 10
369.6309104651
 20
30.8939239876
 11
368.6480977445
 21
31.0552422931
 12
369.8043479651
 22
30.9907152029
 13
369.8043479651
 23
30.9907152029
  0
SOLID
  8
0
 62
7
  6
CONTINUOUS
 10
369.8043479651
 20
30.9907152029
 11
370.0355977445
 21
30.8939239876
 12
369.6309104651
 22
30.8939239876
 13
369.6309104651
 23
30.8939239876
  0
SOLID
  8
0
 62
7
  6
CONTINUOUS
 10
369.8043479651
 20
30.8293967193
 11
369.6309104651
 21
30.8939239876
 12
370.0355977445
 22
30.8939239876
 13
370.0355977445
 23
30.8939239876
  0
SOLID
  8
0
 62
7
  6
CONTINUOUS
 10
369.8043479651
 20
30.8293967193
 11
370.0355977445
 21
30.8939239876
 12
369.8621602445
 22
30.7648682694
 13
369.8621602445
 23
30.7648682694
  0
SOLID
  8
0
 62
7
  6
CONTINUOUS
 10
370.0355977445
 20
30.8939239876
 11
370.1512223035
 21
30.7648682694
 12
369.8621602445
 22
30.7648682694
 13
369.8621602445
 23
30.7648682694
  0
SOLID
  8
0
 62
7
  6
CONTINUOUS
 10
369.8043479651
 20
30.7003411846
 11
369.8621602445
 21
30.7648682694
 12
370.1512223035
 22
30.7648682694
 13
370.1512223035
 23
30.7648682694
  0
SOLID
  8
0
 62
7
  6
CONTINUOUS
 10
370.1512223035
 20
30.7648682694
 11
370.1512223035
 21
30.7003411846
 12
369.8043479651
 22
30.7003411846
 13
369.8043479651
 23
30.7003411846
  0
SOLID
  8
0
 62
7
  6
CONTINUOUS
 10
369.6887227445
 20
30.6680782357
 11
369.8043479651
 21
30.7003411846
 12
370.1512223035
 22
30.7003411846
 13
370.1512223035
 23
30.7003411846
  0
SOLID
  8
0
 62
7
  6
CONTINUOUS
 10
369.6887227445
 20
30.6680782357
 11
370.1512223035
 21
30.7003411846
 12
369.4574729651
 22
30.6358140998
 13
369.4574729651
 23
30.6358140998
  0
SOLID
  8
0
 62
7
  6
CONTINUOUS
 10
370.1512223035
 20
30.7003411846
 11
370.0355977445
 21
30.6035511455
 12
369.4574729651
 22
30.6358140998
 13
369.4574729651
 23
30.6358140998
  0
SOLID
  8
0
 62
7
  6
CONTINUOUS
 10
370.0355977445
 20
30.6035511455
 11
368.5902854651
 21
30.5712868422
 12
369.4574729651
 22
30.6358140998
 13
369.4574729651
 23
30.6358140998
  0
SOLID
  8
0
 62
7
  6
CONTINUOUS
 10
369.4574729651
 20
30.6358140998
 11
368.5902854651
 21
30.5712868422
 12
369.1105979651
 22
30.6358140998
 13
369.1105979651
 23
30.6358140998
  0
SOLID
  8
0
 62
7
  6
CONTINUOUS
 10
368.5902854651
 20
30.5712868422
 11
368.4168479651
 21
30.6358140998
 12
369.1105979651
 22
30.6358140998
 13
369.1105979651
 23
30.6358140998
  0
SOLID
  8
0
 62
7
  6
CONTINUOUS
 10
368.5902854651
 20
30.5712868422
 11
370.0355977445
 21
30.6035511455
 12
368.7637229651
 22
30.5390223111
 13
368.7637229651
 23
30.5390223111
  0
SOLID
  8
0
 62
7
  6
CONTINUOUS
 10
370.0355977445
 20
30.6035511455
 11
369.8043479651
 21
30.5390223111
 12
368.7637229651
 22
30.5390223111
 13
368.7637229651
 23
30.5390223111
  0
SOLID
  8
0
 62
7
  6
CONTINUOUS
 10
369.1105979651
 20
30.5067599302
 11
368.7637229651
 21
30.5390223111
 12
369.8043479651
 22
30.5390223111
 13
369.8043479651
 23
30.5390223111
  0
SOLID
  8
0
 62
7
  6
CONTINUOUS
 10
369.8043479651
 20
30.5390223111
 11
369.4574729651
 21
30.5067599302
 12
369.1105979651
 22
30.5067599302
 13
369.1105979651
 23
30.5067599302
  0
SOLID
  8
0
 62
7
  6
CONTINUOUS
 10
358.7621602445
 20
31.0229779898
 11
359.1090352445
 21
31.1842964734
 12
359.0512227376
 22
31.0552422931
 13
359.0512227376
 23
31.0552422931
  0
SOLID
  8
0
 62
7
  6
CONTINUOUS
 10
359.0512227376
 20
31.0552422931
 11
359.0512227376
 21
30.9584509954
 12
358.7621602445
 22
31.0229779898
 13
358.7621602445
 23
31.0229779898
  0
SOLID
  8
0
 62
7
  6
CONTINUOUS
 10
358.8199727462
 20
30.8293967193
 11
358.7621602445
 21
31.0229779898
 12
359.0512227376
 22
30.9584509954
 13
359.0512227376
 23
30.9584509954
  0
SOLID
  8
0
 62
7
  6
CONTINUOUS
 10
359.0512227376
 20
30.9584509954
 11
359.1668477307
 21
30.797132416
 12
358.8199727462
 22
30.8293967193
 13
358.8199727462
 23
30.8293967193
  0
SOLID
  8
0
 62
7
  6
CONTINUOUS
 10
358.9355977445
 20
30.7003413087
 11
358.8199727462
 21
30.8293967193
 12
359.1668477307
 22
30.797132416
 13
359.1668477307
 23
30.797132416
  0
SOLID
  8
0
 62
7
  6
CONTINUOUS
 10
359.1668477307
 20
30.797132416
 11
359.3402852307
 21
30.7003413087
 12
358.9355977445
 22
30.7003413087
 13
358.9355977445
 23
30.7003413087
  0
SOLID
  8
0
 62
7
  6
CONTINUOUS
 10
359.0512227376
 20
30.6358140759
 11
358.9355977445
 21
30.7003413087
 12
359.3402852307
 22
30.7003413087
 13
359.3402852307
 23
30.7003413087
  0
SOLID
  8
0
 62
7
  6
CONTINUOUS
 10
359.3402852307
 20
30.7003413087
 11
359.6871602721
 21
30.6358140759
 12
359.0512227376
 22
30.6358140759
 13
359.0512227376
 23
30.6358140759
  0
SOLID
  8
0
 62
7
  6
CONTINUOUS
 10
359.2246602583
 20
30.5712868422
 11
359.0512227376
 21
30.6358140759
 12
359.6871602721
 22
30.6358140759
 13
359.6871602721
 23
30.6358140759
  0
SOLID
  8
0
 62
7
  6
CONTINUOUS
 10
363.2715352445
 20
31.0229779808
 11
363.3871601343
 21
31.0875057863
 12
363.9652852445
 22
31.0552422931
 13
363.9652852445
 23
31.0552422931
  0
SOLID
  8
0
 62
7
  6
CONTINUOUS
 10
363.9652852445
 20
31.0552422931
 11
363.7340351343
 21
31.0229779808
 12
363.2715352445
 22
31.0229779808
 13
363.2715352445
 23
31.0229779808
  0
SOLID
  8
0
 62
7
  6
CONTINUOUS
 10
363.1559103548
 20
30.8939238094
 11
363.2715352445
 21
31.0229779808
 12
363.7340351343
 22
31.0229779808
 13
363.7340351343
 23
31.0229779808
  0
SOLID
  8
0
 62
7
  6
CONTINUOUS
 10
363.5027853548
 20
30.926187309
 11
363.1559103548
 21
30.8939238094
 12
363.6184102445
 22
30.9907152029
 13
363.6184102445
 23
30.9907152029
  0
SOLID
  8
0
 62
7
  6
CONTINUOUS
 10
363.1559103548
 20
30.8939238094
 11
363.7340351343
 21
31.0229779898
 12
363.6184102445
 22
30.9907152029
 13
363.6184102445
 23
30.9907152029
  0
SOLID
  8
0
 62
7
  6
CONTINUOUS
 10
363.5027853548
 20
30.926187309
 11
363.4449727445
 21
30.8293967193
 12
363.1559103548
 22
30.8939238094
 13
363.1559103548
 23
30.8939238094
  0
SOLID
  8
0
 62
7
  6
CONTINUOUS
 10
363.1559103548
 20
30.797132416
 11
363.1559103548
 21
30.8939238094
 12
363.4449727445
 22
30.8293967193
 13
363.4449727445
 23
30.8293967193
  0
SOLID
  8
0
 62
7
  6
CONTINUOUS
 10
363.4449727445
 20
30.8293967193
 11
363.4449727445
 21
30.7648681127
 12
363.1559103548
 22
30.797132416
 13
363.1559103548
 23
30.797132416
  0
SOLID
  8
0
 62
7
  6
CONTINUOUS
 10
363.2137226343
 20
30.6680782357
 11
363.1559103548
 21
30.797132416
 12
363.4449727445
 22
30.7648681127
 13
363.4449727445
 23
30.7648681127
  0
SOLID
  8
0
 62
7
  6
CONTINUOUS
 10
364.6012229651
 20
30.8616599362
 11
364.890285024
 21
30.7648681127
 12
364.543410024
 22
30.797132416
 13
364.543410024
 23
30.797132416
  0
SOLID
  8
0
 62
7
  6
CONTINUOUS
 10
364.369972524
 20
30.7003410226
 11
364.543410024
 21
30.797132416
 12
364.890285024
 22
30.7648681127
 13
364.890285024
 23
30.7648681127
  0
SOLID
  8
0
 62
7
  6
CONTINUOUS
 10
364.369972524
 20
30.7003410226
 11
364.890285024
 21
30.7648681127
 12
364.6012229651
 22
30.6680782357
 13
364.6012229651
 23
30.6680782357
  0
SOLID
  8
0
 62
7
  6
CONTINUOUS
 10
364.890285024
 20
30.7648681127
 11
364.9480979651
 21
30.6035511455
 12
364.6012229651
 22
30.6680782357
 13
364.6012229651
 23
30.6680782357
  0
SOLID
  8
0
 62
7
  6
CONTINUOUS
 10
364.6590352445
 20
30.5712868422
 11
364.6012229651
 21
30.6680782357
 12
364.9480979651
 22
30.6035511455
 13
364.9480979651
 23
30.6035511455
  0
SOLID
  8
0
 62
7
  6
CONTINUOUS
 10
364.6590352445
 20
30.5712868422
 11
364.9480979651
 21
30.6035511455
 12
364.716847524
 22
30.5067598731
 13
364.716847524
 23
30.5067598731
  0
SOLID
  8
0
 62
7
  6
CONTINUOUS
 10
364.9480979651
 20
30.6035511455
 11
365.0059102445
 21
30.5067598731
 12
364.716847524
 22
30.5067598731
 13
364.716847524
 23
30.5067598731
  0
SOLID
  8
0
 62
7
  6
CONTINUOUS
 10
360.2652852997
 20
30.7326051679
 11
360.3230977445
 21
30.8293966612
 12
360.6121602997
 22
30.8293966612
 13
360.6121602997
 23
30.8293966612
  0
SOLID
  8
0
 62
7
  6
CONTINUOUS
 10
360.6121602997
 20
30.8293966612
 11
360.5543476894
 21
30.7003410226
 12
360.2652852997
 22
30.7326051679
 13
360.2652852997
 23
30.7326051679
  0
SOLID
  8
0
 62
7
  6
CONTINUOUS
 10
360.091847717
 20
30.6680782357
 11
360.2652852997
 21
30.7326051679
 12
360.5543476894
 22
30.7003410226
 13
360.5543476894
 23
30.7003410226
  0
SOLID
  8
0
 62
7
  6
CONTINUOUS
 10
360.091847717
 20
30.6680782357
 11
360.5543476894
 21
30.7003410226
 12
359.6871602721
 22
30.6358139324
 13
359.6871602721
 23
30.6358139324
  0
SOLID
  8
0
 62
7
  6
CONTINUOUS
 10
360.5543476894
 20
30.7003410226
 11
360.3809101894
 21
30.6035511455
 12
359.6871602721
 22
30.6358139324
 13
359.6871602721
 23
30.6358139324
  0
SOLID
  8
0
 62
7
  6
CONTINUOUS
 10
359.2246602583
 20
30.5712868422
 11
359.6871602721
 21
30.6358139324
 12
360.3809101894
 22
30.6035511455
 13
360.3809101894
 23
30.6035511455
  0
SOLID
  8
0
 62
7
  6
CONTINUOUS
 10
359.2246602583
 20
30.5712868422
 11
360.3809101894
 21
30.6035511455
 12
359.3980977583
 22
30.5390224228
 13
359.3980977583
 23
30.5390224228
  0
SOLID
  8
0
 62
7
  6
CONTINUOUS
 10
360.3809101894
 20
30.6035511455
 11
360.1496602445
 21
30.5390224228
 12
359.3980977583
 22
30.5390224228
 13
359.3980977583
 23
30.5390224228
  0
SOLID
  8
0
 62
7
  6
CONTINUOUS
 10
359.744972717
 20
30.5067597521
 11
359.3980977583
 21
30.5390224228
 12
360.1496602445
 22
30.5390224228
 13
360.1496602445
 23
30.5390224228
  0
SOLID
  8
0
 62
7
  6
CONTINUOUS
 10
363.2137226343
 20
30.6680782357
 11
363.4449727445
 21
30.7648681127
 12
363.5027853548
 22
30.7003410226
 13
363.5027853548
 23
30.7003410226
  0
SOLID
  8
0
 62
7
  6
CONTINUOUS
 10
363.5027853548
 20
30.7003410226
 11
363.7340351343
 21
30.6358139324
 12
363.2137226343
 22
30.6680782357
 13
363.2137226343
 23
30.6680782357
  0
SOLID
  8
0
 62
7
  6
CONTINUOUS
 10
363.3871601343
 20
30.5712868422
 11
363.2137226343
 21
30.6680782357
 12
363.7340351343
 22
30.6358139324
 13
363.7340351343
 23
30.6358139324
  0
SOLID
  8
0
 62
7
  6
CONTINUOUS
 10
364.0809101343
 20
30.6358139363
 11
364.369972524
 21
30.7003410226
 12
364.6012229651
 22
30.6680782357
 13
364.6012229651
 23
30.6680782357
  0
SOLID
  8
0
 62
7
  6
CONTINUOUS
 10
364.6012229651
 20
30.6680782357
 11
364.543410024
 21
30.6035511455
 12
364.0809101343
 22
30.6358139363
 13
364.0809101343
 23
30.6358139363
  0
SOLID
  8
0
 62
7
  6
CONTINUOUS
 10
364.543410024
 20
30.6035511455
 11
363.3871601343
 21
30.5712868422
 12
364.0809101343
 22
30.6358139363
 13
364.0809101343
 23
30.6358139363
  0
SOLID
  8
0
 62
7
  6
CONTINUOUS
 10
363.3871601343
 20
30.5712868422
 11
363.7340351343
 21
30.6358139363
 12
364.0809101343
 22
30.6358139363
 13
364.0809101343
 23
30.6358139363
  0
SOLID
  8
0
 62
7
  6
CONTINUOUS
 10
363.3871601343
 20
30.5712868422
 11
364.543410024
 21
30.6035511455
 12
363.5027853548
 22
30.5390225267
 13
363.5027853548
 23
30.5390225267
  0
SOLID
  8
0
 62
7
  6
CONTINUOUS
 10
364.543410024
 20
30.6035511455
 11
364.369972524
 21
30.5390225267
 12
363.5027853548
 22
30.5390225267
 13
363.5027853548
 23
30.5390225267
  0
SOLID
  8
0
 62
7
  6
CONTINUOUS
 10
363.7340351343
 20
30.5067596914
 11
363.5027853548
 21
30.5390225267
 12
364.369972524
 22
30.5390225267
 13
364.369972524
 23
30.5390225267
  0
SOLID
  8
0
 62
7
  6
CONTINUOUS
 10
364.369972524
 20
30.5390225267
 11
364.0809101343
 21
30.5067596914
 12
363.7340351343
 22
30.5067596914
 13
363.7340351343
 23
30.5067596914
  0
SOLID
  8
0
 62
7
  6
CONTINUOUS
 10
368.7637229651
 20
30.6680782357
 11
368.4168479651
 21
30.6358138717
 12
368.6480977445
 22
30.7003410226
 13
368.6480977445
 23
30.7003410226
  0
SOLID
  8
0
 62
7
  6
CONTINUOUS
 10
368.6480977445
 20
30.7003410226
 11
368.4168479651
 21
30.6358138717
 12
368.5902854651
 22
30.7648680521
 13
368.5902854651
 23
30.7648680521
  0
SOLID
  8
0
 62
7
  6
CONTINUOUS
 10
368.4168479651
 20
30.6358138717
 11
368.3012227445
 21
30.7648680521
 12
368.5902854651
 22
30.7648680521
 13
368.5902854651
 23
30.7648680521
  0
SOLID
  8
0
 62
7
  6
CONTINUOUS
 10
368.7637229651
 20
30.6680782357
 11
369.1105979651
 21
30.6358138717
 12
368.4168479651
 22
30.6358138717
 13
368.4168479651
 23
30.6358138717
  0
SOLID
  8
0
 62
7
  6
CONTINUOUS
 10
365.4684104651
 20
30.5067597521
 11
365.4684104651
 21
31.5391977439
 12
365.757472524
 22
30.5067597521
 13
365.757472524
 23
31.5391977439
  0
ENDBLK
  8
0
  6
BYBLOCK
 62
0
  0
BLOCK
  8
0
 62
2
  6
CONTINUOUS
  2
SYMBOL_0_BL0
 70
64
 10
240.8592468615
 20
19.762288695
  0
TEXT
  8
0
 62
7
  6
CONTINUOUS
 10
227.1239507038
 20
19.1357028027
  7
TEXTSTYLE_3
 40
2.7338706658
  1
Ammeraal Beltech
 41
1.0
 51
15.0
 72
0
  0
TEXT
  8
0
 62
7
  6
CONTINUOUS
 10
237.9247515296
 20
16.8621661299
  7
TEXTSTYLE_4
 40
1.0935482663
  1
Innovation & Service in Belting
 41
1.0
 72
0
  0
LINE
  8
0
 62
7
  6
CONTINUOUS
 10
221.0994100525
 20
19.9022961113
 11
221.8775620458
 21
23.5632134089
  0
LINE
  8
0
 62
7
  6
CONTINUOUS
 10
231.9727303357
 20
27.2266073205
 11
222.3653797889
 21
24.1049898993
  0
LINE
  8
0
 62
7
  6
CONTINUOUS
 10
221.3246933848
 20
19.2089453082
 11
228.8317686459
 21
12.4495443822
  0
LINE
  8
0
 62
7
  6
CONTINUOUS
 10
221.5872277955
 20
20.4440726016
 11
232.3954971607
 21
23.9558922005
  0
LINE
  8
0
 62
7
  6
CONTINUOUS
 10
232.3912920235
 20
13.6061036368
 11
223.9458323548
 21
21.2104296785
  0
LINE
  8
0
 62
7
  6
CONTINUOUS
 10
232.9111147433
 20
26.3816822048
 11
231.9345552061
 21
21.7873308023
  0
LINE
  8
0
 62
7
  6
CONTINUOUS
 10
231.2347532584
 20
18.4950214885
 11
230.5483050469
 21
15.2655365641
  0
LINE
  8
0
 62
7
  6
CONTINUOUS
 10
233.5922108419
 20
13.9963058145
 11
234.5484423775
 21
18.4950214885
  0
LINE
  8
0
 62
7
  6
CONTINUOUS
 10
235.2482443252
 20
21.7873308023
 11
235.6924861276
 21
23.8773241617
  0
LINE
  8
0
 62
7
  6
CONTINUOUS
 10
229.5448697213
 20
12.2979700695
 11
233.1043930989
 21
13.4545293241
  0
LINE
  8
0
 62
7
  6
CONTINUOUS
 10
232.685831411
 20
27.0750330078
 11
235.4672027953
 21
24.5706749648
  0
ARC
  8
0
 62
7
  6
CONTINUOUS
 10
222.5906631212
 20
23.4116390962
 40
0.7290321776
 50
108.0
 51
168.0
  0
ARC
  8
0
 62
7
  6
CONTINUOUS
 10
232.198013668
 20
26.5332565175
 40
0.7290321776
 50
348.0
 51
108.0
  0
ARC
  8
0
 62
7
  6
CONTINUOUS
 10
234.9793850522
 20
24.0288984744
 40
0.7290321776
 50
348.0
 51
48.0
  0
ARC
  8
0
 62
7
  6
CONTINUOUS
 10
229.319586389
 20
12.9913208726
 40
0.7290321776
 50
228.0
 51
288.0
  0
ARC
  8
0
 62
7
  6
CONTINUOUS
 10
221.8125111278
 20
19.7507217986
 40
0.7290321776
 50
108.0
 51
228.0
  0
ARC
  8
0
 62
7
  6
CONTINUOUS
 10
232.8791097665
 20
14.1478801272
 40
0.7290321776
 50
228.0
 51
348.0
  0
ENDBLK
  8
0
  6
BYBLOCK
 62
0
  0
ENDSEC
  0
SECTION
  2
ENTITIES
  0
TEXT
  8
0
 62
5
  6
CONTINUOUS
 10
304.937007874
 20
25.636
  7
TEXTSTYLE_2
 40
2.8
  1
Scale :
 41
0.6
 51
0.000019
 72
0
  0
TEXT
  8
0
 62
5
  6
CONTINUOUS
 10
324.937007874
 20
25.636
  7
TEXTSTYLE_2
 40
2.8
  1
Belt type:
 41
0.6
 51
0.000019
 72
0
  0
INSERT
  8
0
 62
2
  6
CONTINUOUS
  2
SYMBOL_0_BL0
 10
240.8592468615
 20
19.762288695
  0
INSERT
  8
0
 62
2
  6
CONTINUOUS
  2
SYMBOL_5_BL1
 10
382.7840918555
 20
35.5067593403
  0
TEXT
  8
0
 62
7
  6
CONTINUOUS
 10
337.008666275
 20
217.2532906725
  7
STANDARD
 40
3.5
  1
A_2_CENTER
 41
0.8
 72
0
  0
TEXT
  8
0
 62
7
  6
CONTINUOUS
 10
9.094
 20
143.4361842105
  7
STANDARD
 40
3.5
  1
A_10
 41
0.8
 72
0
  0
TEXT
  8
0
 62
7
  6
CONTINUOUS
 10
376.361843304
 20
143.4361842105
  7
STANDARD
 40
3.5
  1
A_10
 41
0.8
 72
0
  0
TEXT
  8
0
 62
7
  6
CONTINUOUS
 10
314.5960526317
 20
92.6734392105
  7
STANDARD
 40
3.5
  1
A_4
 41
0.8
 72
0
  0
TEXT
  8
0
 62
7
  6
CONTINUOUS
 10
376.361843304
 20
92.6734392105
  7
STANDARD
 40
3.5
  1
A_4
 41
0.8
 72
0
  0
TEXT
  8
0
 62
7
  6
CONTINUOUS
 10
173.0460526317
 20
206.9638169882
  7
STANDARD
 40
3.5
  1
A_11
 41
0.8
 72
0
  0
TEXT
  8
0
 62
7
  6
CONTINUOUS
 10
173.0460526317
 20
118.0361842105
  7
STANDARD
 40
3.5
  1
A_11
 41
0.8
 72
0
  0
TEXT
  8
0
 62
7
  6
CONTINUOUS
 10
366.0723696198
 20
118.0361842105
  7
STANDARD
 40
3.5
  1
A_11
 41
0.8
 72
0
  0
LINE
  8
0
 62
2
  6
CONTINUOUS
 10
218.937007874
 20
30.0
 11
408.937007874
 21
30.0
  0
LINE
  8
0
 62
2
  6
CONTINUOUS
 10
218.937007874
 20
30.0
 11
218.937007874
 21
10.0
  0
LINE
  8
0
 62
2
  6
CONTINUOUS
 10
218.937007874
 20
10.0
 11
408.937007874
 21
10.0
  0
LINE
  8
0
 62
2
  6
CONTINUOUS
 10
303.937007874
 20
30.0
 11
303.937007874
 21
10.0
  0
LINE
  8
0
 62
2
  6
CONTINUOUS
 10
323.937007874
 20
30.0
 11
323.937007874
 21
10.0
  0
LINE
  8
0
 62
2
  6
CONTINUOUS
 10
408.937007874
 20
30.0
 11
408.937007874
 21
10.0
  0
TEXT
  8
0
 62
5
  6
CONTINUOUS
 10
221.937007874
 20
23.303
  7
TEXTSTYLE_5
 40
1.52
  1
                                                                     Ammeraal Beltech Modular A/S
 41
1.0
 72
0
  0
TEXT
  8
0
 62
5
  6
CONTINUOUS
 10
221.937007874
 20
20.595
  7
TEXTSTYLE_5
 40
1.5
  1
                                                                      Hjulmagervej 21, 7100 Vejle,  DK
 41
1.0
 72
0
  0
TEXT
  8
0
 62
5
  6
CONTINUOUS
 10
221.937007874
 20
17.881
  7
TEXTSTYLE_5
 40
1.495
  1
                                                                      tel: 
 41
1.0
 72
0
  0
TEXT
  8
0
 62
5
  6
CONTINUOUS
 10
266.9239544389
 20
17.881
  7
TEXTSTYLE_5
 40
1.51
  1
+45 75723100     fax: +45 75723348
 41
1.0
 72
0
  0
TEXT
  8
0
 62
5
  6
CONTINUOUS
 10
221.937007874
 20
15.177
  7
TEXTSTYLE_5
 40
1.5
  1
                                                                      admin@unichains.dk  www.unichains.com
 41
1.0
 72
0
  0
TEXT
  8
0
 62
5
  6
CONTINUOUS
 10
308.687007874
 20
13.75
  7
TEXTSTYLE_6
 40
5.0
  1
1:1
 41
0.7
 72
1
 11
313.937007874
 21
13.75
  0
TEXT
  8
0
 62
5
  6
CONTINUOUS
 10
326.937007874
 20
13.75
  7
TEXTSTYLE_7
 40
7.5
  1
K1200 Rubber top indent 80mm / 80mm
 41
0.3045
 72
0
  0
LINE
  8
0
 62
7
  6
CONTINUOUS
 10
0.0
 20
0.0
 11
0.0
 21
297.0
  0
LINE
  8
0
 62
7
  6
CONTINUOUS
 10
8.937007874
 20
10.0
 11
8.937007874
 21
287.0
  0
LINE
  8
0
 62
7
  6
CONTINUOUS
 10
0.0
 20
0.0
 11
420.0
 21
0.0
  0
LINE
  8
0
 62
7
  6
CONTINUOUS
 10
408.937007874
 20
10.0
 11
8.937007874
 21
10.0
  0
LINE
  8
0
 62
7
  6
CONTINUOUS
 10
218.937007874
 20
30.0
 11
408.937007874
 21
30.0
  0
LINE
  8
0
 62
7
  6
CONTINUOUS
 10
210.0
 20
297.0
 11
210.0
 21
292.0
  0
LINE
  8
0
 62
7
  6
CONTINUOUS
 10
210.0
 20
0.0
 11
210.0
 21
5.0
  0
LINE
  8
0
 62
7
  6
CONTINUOUS
 10
8.937007874
 20
287.0
 11
408.937007874
 21
287.0
  0
LINE
  8
0
 62
7
  6
CONTINUOUS
 10
0.0
 20
297.0
 11
420.0
 21
297.0
  0
LINE
  8
0
 62
7
  6
CONTINUOUS
 10
408.937007874
 20
287.0
 11
408.937007874
 21
10.0
  0
LINE
  8
0
 62
7
  6
CONTINUOUS
 10
420.0
 20
0.0
 11
420.0
 21
297.0
  0
LINE
  8
0
 62
7
  6
CONTINUOUS
 10
20.7960526317
 20
87.3361842105
 11
20.7960526317
 21
92.0295294703
  0
LINE
  8
0
 62
7
  6
CONTINUOUS
 10
20.8960526317
 20
115.5361842105
 11
20.8960526317
 21
120.3615236077
  0
LINE
  8
0
 62
7
  6
CONTINUOUS
 10
23.4960526317
 20
99.168650366
 11
23.4960526317
 21
114.9361842105
  0
LINE
  8
0
 62
7
  6
CONTINUOUS
 10
30.4960526317
 20
113.2361842105
 11
30.4960526317
 21
99.168650366
  0
LINE
  8
0
 62
7
  6
CONTINUOUS
 10
33.1960526317
 20
92.0295294703
 11
33.1960526317
 21
87.3361842105
  0
LINE
  8
0
 62
7
  6
CONTINUOUS
 10
33.175391107
 20
92.1389370397
 11
30.564924381
 21
98.8039584678
  0
LINE
  8
0
 62
7
  6
CONTINUOUS
 10
33.4960526317
 20
144.0428426848
 11
33.4960526317
 21
148.7361842105
  0
LINE
  8
0
 62
7
  6
CONTINUOUS
 10
36.1960526317
 20
136.9041935304
 11
36.1960526317
 21
121.1117593523
  0
LINE
  8
0
 62
7
  6
CONTINUOUS
 10
43.1960526317
 20
136.9041935304
 11
43.1960526317
 21
121.1117593523
  0
LINE
  8
0
 62
7
  6
CONTINUOUS
 10
20.8167141565
 20
92.1389370397
 11
23.4271808825
 21
98.8039584678
  0
LINE
  8
0
 62
7
  6
CONTINUOUS
 10
45.8960526317
 20
148.7361842105
 11
45.8960526317
 21
144.0428426848
  0
LINE
  8
0
 62
7
  6
CONTINUOUS
 10
46.1960526317
 20
87.3361842105
 11
46.1960526317
 21
92.0295294703
  0
LINE
  8
0
 62
7
  6
CONTINUOUS
 10
48.8960526317
 20
113.2361842105
 11
48.8960526317
 21
99.168650366
  0
LINE
  8
0
 62
7
  6
CONTINUOUS
 10
43.264933147
 20
137.2689078093
 11
45.8753884771
 21
143.9334284011
  0
LINE
  8
0
 62
7
  6
CONTINUOUS
 10
33.5167167863
 20
143.9334284011
 11
36.1271721164
 21
137.2689078093
  0
LINE
  8
0
 62
7
  6
CONTINUOUS
 10
55.8960526317
 20
113.2361842105
 11
55.8960526317
 21
99.168650366
  0
LINE
  8
0
 62
7
  6
CONTINUOUS
 10
58.5960526317
 20
92.0295294703
 11
58.5960526317
 21
87.3361842105
  0
LINE
  8
0
 62
7
  6
CONTINUOUS
 10
58.8960526317
 20
144.0428426848
 11
58.8960526317
 21
148.7361842105
  0
LINE
  8
0
 62
7
  6
CONTINUOUS
 10
61.5960526317
 20
136.9041935304
 11
61.5960526317
 21
121.1117593523
  0
LINE
  8
0
 62
7
  6
CONTINUOUS
 10
46.2167141565
 20
92.1389370397
 11
48.8271808825
 21
98.8039584678
  0
LINE
  8
0
 62
7
  6
CONTINUOUS
 10
58.575391107
 20
92.1389370397
 11
55.964924381
 21
98.8039584678
  0
LINE
  8
0
 62
7
  6
CONTINUOUS
 10
68.5960526317
 20
136.9041935304
 11
68.5960526317
 21
121.1117593523
  0
LINE
  8
0
 62
7
  6
CONTINUOUS
 10
71.2960526317
 20
148.7361842105
 11
71.2960526317
 21
144.0428426848
  0
LINE
  8
0
 62
7
  6
CONTINUOUS
 10
71.5960526317
 20
87.3361842105
 11
71.5960526317
 21
92.0295294703
  0
LINE
  8
0
 62
7
  6
CONTINUOUS
 10
74.2960526317
 20
113.2361842105
 11
74.2960526317
 21
99.168650366
  0
LINE
  8
0
 62
7
  6
CONTINUOUS
 10
68.664933147
 20
137.2689078093
 11
71.2753884771
 21
143.9334284011
  0
LINE
  8
0
 62
7
  6
CONTINUOUS
 10
81.2960526317
 20
113.2361842105
 11
81.2960526317
 21
99.168650366
  0
LINE
  8
0
 62
7
  6
CONTINUOUS
 10
83.9960526317
 20
92.0295294703
 11
83.9960526317
 21
87.3361842105
  0
LINE
  8
0
 62
7
  6
CONTINUOUS
 10
84.2960526317
 20
144.0428426848
 11
84.2960526317
 21
148.7361842105
  0
LINE
  8
0
 62
7
  6
CONTINUOUS
 10
58.9167167863
 20
143.9334284011
 11
61.5271721164
 21
137.2689078093
  0
LINE
  8
0
 62
7
  6
CONTINUOUS
 10
83.975391107
 20
92.1389370397
 11
81.364924381
 21
98.8039584678
  0
LINE
  8
0
 62
7
  6
CONTINUOUS
 10
86.9960526317
 20
136.9041935304
 11
86.9960526317
 21
121.1117593523
  0
LINE
  8
0
 62
7
  6
CONTINUOUS
 10
93.9960526317
 20
136.9041935304
 11
93.9960526317
 21
121.1117593523
  0
LINE
  8
0
 62
7
  6
CONTINUOUS
 10
96.6960526317
 20
148.7361842105
 11
96.6960526317
 21
144.0428426848
  0
LINE
  8
0
 62
7
  6
CONTINUOUS
 10
96.9960526317
 20
87.3361842105
 11
96.9960526317
 21
92.0295294703
  0
LINE
  8
0
 62
7
  6
CONTINUOUS
 10
71.6167141565
 20
92.1389370397
 11
74.2271808825
 21
98.8039584678
  0
LINE
  8
0
 62
7
  6
CONTINUOUS
 10
94.064933147
 20
137.2689078093
 11
96.6753884771
 21
143.9334284011
  0
LINE
  8
0
 62
7
  6
CONTINUOUS
 10
99.6960526317
 20
113.2361842105
 11
99.6960526317
 21
99.168650366
  0
LINE
  8
0
 62
7
  6
CONTINUOUS
 10
100.4960526317
 20
96.2861842105
 11
100.4960526317
 21
97.8172606031
  0
LINE
  8
0
 62
7
  6
CONTINUOUS
 10
100.7960525975
 20
99.1686454794
 11
100.7960525975
 21
115.2480904567
  0
LINE
  8
0
 62
7
  6
CONTINUOUS
 10
105.5960526317
 20
113.2361842105
 11
105.5960526317
 21
99.168650366
  0
LINE
  8
0
 62
7
  6
CONTINUOUS
 10
105.8960526317
 20
97.8172606031
 11
105.8960526317
 21
96.2861842105
  0
LINE
  8
0
 62
7
  6
CONTINUOUS
 10
106.6960526317
 20
113.2361842105
 11
106.6960526317
 21
99.168650366
  0
LINE
  8
0
 62
7
  6
CONTINUOUS
 10
84.3167167863
 20
143.9334284011
 11
86.9271721164
 21
137.2689078093
  0
LINE
  8
0
 62
7
  6
CONTINUOUS
 10
105.7406833051
 20
98.4027973798
 11
105.8271808825
 21
98.1819525014
  0
LINE
  8
0
 62
7
  6
CONTINUOUS
 10
109.375391107
 20
92.1389370397
 11
106.764924381
 21
98.8039584678
  0
LINE
  8
0
 62
7
  6
CONTINUOUS
 10
109.3960526317
 20
92.0295294703
 11
109.3960526317
 21
87.3361842105
  0
LINE
  8
0
 62
7
  6
CONTINUOUS
 10
109.6960526317
 20
144.0428426848
 11
109.6960526317
 21
148.7361842105
  0
LINE
  8
0
 62
7
  6
CONTINUOUS
 10
112.3960526317
 20
136.9041935304
 11
112.3960526317
 21
121.1117593523
  0
LINE
  8
0
 62
7
  6
CONTINUOUS
 10
113.1960526317
 20
138.2555676646
 11
113.1960526317
 21
139.7861842105
  0
LINE
  8
0
 62
7
  6
CONTINUOUS
 10
113.4960526317
 20
121.1117600346
 11
113.4960526317
 21
136.9041935304
  0
LINE
  8
0
 62
7
  6
CONTINUOUS
 10
97.0167141565
 20
92.1389370397
 11
99.6271808825
 21
98.8039584678
  0
LINE
  8
0
 62
7
  6
CONTINUOUS
 10
100.564924381
 20
98.1819525014
 11
100.6514219583
 21
98.4027973798
  0
LINE
  8
0
 62
7
  6
CONTINUOUS
 10
118.5271721164
 20
137.8908533857
 11
118.4407017139
 21
137.6700935161
  0
LINE
  8
0
 62
7
  6
CONTINUOUS
 10
119.464933147
 20
137.2689078093
 11
122.0753884771
 21
143.9334284011
  0
POLYLINE
  8
0
 62
7
  6
CONTINUOUS
 66
1
 70
0
  0
VERTEX
  8
0
 62
7
  6
CONTINUOUS
 10
118.2960526317
 20
121.1117606017
  0
VERTEX
  8
0
 62
7
  6
CONTINUOUS
 10
118.2979081486
 20
120.9961941061
  0
VERTEX
  8
0
 62
7
  6
CONTINUOUS
 10
118.3031382791
 20
120.8862498765
  0
VERTEX
  8
0
 62
7
  6
CONTINUOUS
 10
118.3113867828
 20
120.7805065942
  0
VERTEX
  8
0
 62
7
  6
CONTINUOUS
 10
118.322457136
 20
120.6776304114
  0
VERTEX
  8
0
 62
7
  6
CONTINUOUS
 10
118.3363250381
 20
120.5763102522
  0
VERTEX
  8
0
 62
7
  6
CONTINUOUS
 10
118.3531037933
 20
120.4752997057
  0
VERTEX
  8
0
 62
7
  6
CONTINUOUS
 10
118.3728107933
 20
120.3745129521
  0
VERTEX
  8
0
 62
7
  6
CONTINUOUS
 10
118.3953678772
 20
120.274427713
  0
VERTEX
  8
0
 62
7
  6
CONTINUOUS
 10
118.4207677973
 20
120.1751025703
  0
VERTEX
  8
0
 62
7
  6
CONTINUOUS
 10
118.4490185884
 20
120.0764848664
  0
VERTEX
  8
0
 62
7
  6
CONTINUOUS
 10
118.4800763371
 20
119.978707759
  0
VERTEX
  8
0
 62
7
  6
CONTINUOUS
 10
118.5139134307
 20
119.8819012811
  0
VERTEX
  8
0
 62
7
  6
CONTINUOUS
 10
118.5505698402
 20
119.7860151146
  0
VERTEX
  8
0
 62
7
  6
CONTINUOUS
 10
118.5900396351
 20
119.6911432345
  0
VERTEX
  8
0
 62
7
  6
CONTINUOUS
 10
118.6322877458
 20
119.5974627795
  0
VERTEX
  8
0
 62
7
  6
CONTINUOUS
 10
118.6773778659
 20
119.5048953176
  0
VERTEX
  8
0
 62
7
  6
CONTINUOUS
 10
118.7253933482
 20
119.4133441987
  0
VERTEX
  8
0
 62
7
  6
CONTINUOUS
 10
118.7761156034
 20
119.323279467
  0
VERTEX
  8
0
 62
7
  6
CONTINUOUS
 10
118.8292946192
 20
119.2351005604
  0
VERTEX
  8
0
 62
7
  6
CONTINUOUS
 10
118.8867599962
 20
119.1460224228
  0
VERTEX
  8
0
 62
7
  6
CONTINUOUS
 10
118.9517853164
 20
119.0520032809
  0
VERTEX
  8
0
 62
7
  6
CONTINUOUS
 10
119.0280961646
 20
118.9496728095
  0
VERTEX
  8
0
 62
7
  6
CONTINUOUS
 10
119.1160941058
 20
118.8410363351
  0
VERTEX
  8
0
 62
7
  6
CONTINUOUS
 10
119.2096864716
 20
118.7350834821
  0
VERTEX
  8
0
 62
7
  6
CONTINUOUS
 10
119.3012948391
 20
118.6397664652
  0
VERTEX
  8
0
 62
7
  6
CONTINUOUS
 10
119.387806204
 20
118.5564873031
  0
VERTEX
  8
0
 62
7
  6
CONTINUOUS
 10
119.4712436829
 20
118.4817630781
  0
VERTEX
  8
0
 62
7
  6
CONTINUOUS
 10
119.5543172979
 20
118.4123591701
  0
VERTEX
  8
0
 62
7
  6
CONTINUOUS
 10
119.6391975215
 20
118.346210231
  0
VERTEX
  8
0
 62
7
  6
CONTINUOUS
 10
119.7261776142
 20
118.2830846114
  0
VERTEX
  8
0
 62
7
  6
CONTINUOUS
 10
119.8152419814
 20
118.2230227044
  0
VERTEX
  8
0
 62
7
  6
CONTINUOUS
 10
119.9062227178
 20
118.1661766474
  0
VERTEX
  8
0
 62
7
  6
CONTINUOUS
 10
119.9992333896
 20
118.1125469203
  0
VERTEX
  8
0
 62
7
  6
CONTINUOUS
 10
120.0945989705
 20
118.0620357541
  0
VERTEX
  8
0
 62
7
  6
CONTINUOUS
 10
120.1922785488
 20
118.0147855441
  0
VERTEX
  8
0
 62
7
  6
CONTINUOUS
 10
120.2921837952
 20
117.9709291018
  0
VERTEX
  8
0
 62
7
  6
CONTINUOUS
 10
120.3939665926
 20
117.9306745748
  0
VERTEX
  8
0
 62
7
  6
CONTINUOUS
 10
120.4973335836
 20
117.8941839775
  0
VERTEX
  8
0
 62
7
  6
CONTINUOUS
 10
120.602195477
 20
117.8615299681
  0
VERTEX
  8
0
 62
7
  6
CONTINUOUS
 10
120.7084746622
 20
117.8327956896
  0
VERTEX
  8
0
 62
7
  6
CONTINUOUS
 10
120.8157325184
 20
117.8081524961
  0
VERTEX
  8
0
 62
7
  6
CONTINUOUS
 10
120.9241028825
 20
117.7876353746
  0
VERTEX
  8
0
 62
7
  6
CONTINUOUS
 10
121.0348607404
 20
117.7711445762
  0
VERTEX
  8
0
 62
7
  6
CONTINUOUS
 10
121.1494633213
 20
117.7587847048
  0
VERTEX
  8
0
 62
7
  6
CONTINUOUS
 10
121.2693443128
 20
117.7508968571
  0
VERTEX
  8
0
 62
7
  6
CONTINUOUS
 10
121.3960527201
 20
117.7480846688
  0
SEQEND
  0
LINE
  8
0
 62
7
  6
CONTINUOUS
 10
118.2960526317
 20
136.9041935304
 11
118.2960526317
 21
121.1117606017
  0
LINE
  8
0
 62
7
  6
CONTINUOUS
 10
118.5960526317
 20
139.7861842105
 11
118.5960526317
 21
138.2555676646
  0
LINE
  8
0
 62
7
  6
CONTINUOUS
 10
119.3960526317
 20
136.9041935304
 11
119.3960526317
 21
121.1117593523
  0
LINE
  8
0
 62
7
  6
CONTINUOUS
 10
122.0960526317
 20
148.7361842105
 11
122.0960526317
 21
144.0428426848
  0
LINE
  8
0
 62
7
  6
CONTINUOUS
 10
122.3960526317
 20
87.3361842105
 11
122.3960526317
 21
92.0295294703
  0
LINE
  8
0
 62
7
  6
CONTINUOUS
 10
125.0960526317
 20
113.2361842105
 11
125.0960526317
 21
99.168650366
  0
LINE
  8
0
 62
7
  6
CONTINUOUS
 10
125.8960526317
 20
96.2861842105
 11
125.8960526317
 21
97.8172606031
  0
LINE
  8
0
 62
7
  6
CONTINUOUS
 10
126.1960526317
 20
99.168650366
 11
126.1960526317
 21
113.2361842105
  0
LINE
  8
0
 62
7
  6
CONTINUOUS
 10
109.7167167863
 20
143.9334284011
 11
112.3271721164
 21
137.2689078093
  0
LINE
  8
0
 62
7
  6
CONTINUOUS
 10
113.3514035496
 20
137.6700935161
 11
113.264933147
 21
137.8908533857
  0
LINE
  8
0
 62
7
  6
CONTINUOUS
 10
131.1406833051
 20
98.4027973798
 11
131.2271808825
 21
98.1819525014
  0
LINE
  8
0
 62
7
  6
CONTINUOUS
 10
134.775391107
 20
92.1389370397
 11
132.164924381
 21
98.8039584678
  0
LINE
  8
0
 62
7
  6
CONTINUOUS
 10
130.9960526317
 20
113.2361842105
 11
130.9960526317
 21
99.168650366
  0
LINE
  8
0
 62
7
  6
CONTINUOUS
 10
131.2960526317
 20
97.8172606031
 11
131.2960526317
 21
96.2861842105
  0
LINE
  8
0
 62
7
  6
CONTINUOUS
 10
132.0960526317
 20
113.2361842105
 11
132.0960526317
 21
99.168650366
  0
LINE
  8
0
 62
7
  6
CONTINUOUS
 10
134.7960526317
 20
92.0295294703
 11
134.7960526317
 21
87.3361842105
  0
LINE
  8
0
 62
7
  6
CONTINUOUS
 10
135.0960526317
 20
144.0428426848
 11
135.0960526317
 21
148.7361842105
  0
LINE
  8
0
 62
7
  6
CONTINUOUS
 10
137.7960526317
 20
136.9041935304
 11
137.7960526317
 21
121.1117593523
  0
LINE
  8
0
 62
7
  6
CONTINUOUS
 10
138.5960526317
 20
138.2555676646
 11
138.5960526317
 21
139.7861842105
  0
LINE
  8
0
 62
7
  6
CONTINUOUS
 10
138.8960526317
 20
121.1117600346
 11
138.8960526317
 21
136.9041935304
  0
LINE
  8
0
 62
7
  6
CONTINUOUS
 10
122.4167141565
 20
92.1389370397
 11
125.0271808825
 21
98.8039584678
  0
LINE
  8
0
 62
7
  6
CONTINUOUS
 10
125.964924381
 20
98.1819525014
 11
126.0514219583
 21
98.4027973798
  0
LINE
  8
0
 62
7
  6
CONTINUOUS
 10
143.9271721164
 20
137.8908533857
 11
143.8407017139
 21
137.6700935161
  0
LINE
  8
0
 62
7
  6
CONTINUOUS
 10
309.8960526317
 20
84.6361842105
 11
302.8960526317
 21
84.6361842105
  0
LINE
  8
0
 62
7
  6
CONTINUOUS
 10
284.4960526317
 20
84.6361842105
 11
277.4960526317
 21
84.6361842105
  0
LINE
  8
0
 62
7
  6
CONTINUOUS
 10
259.0960526317
 20
84.6361842105
 11
252.0960526317
 21
84.6361842105
  0
LINE
  8
0
 62
7
  6
CONTINUOUS
 10
233.6960526317
 20
84.6361842105
 11
226.6960526317
 21
84.6361842105
  0
LINE
  8
0
 62
7
  6
CONTINUOUS
 10
208.2960526317
 20
84.6361842105
 11
201.2960526317
 21
84.6361842105
  0
LINE
  8
0
 62
7
  6
CONTINUOUS
 10
182.8960526317
 20
84.6361842105
 11
175.8960526317
 21
84.6361842105
  0
LINE
  8
0
 62
7
  6
CONTINUOUS
 10
157.4960526317
 20
84.6361842105
 11
150.4960526317
 21
84.6361842105
  0
LINE
  8
0
 62
7
  6
CONTINUOUS
 10
132.0960526317
 20
84.6361842105
 11
125.0960526317
 21
84.6361842105
  0
LINE
  8
0
 62
7
  6
CONTINUOUS
 10
106.6960526317
 20
84.6361842105
 11
99.6960526317
 21
84.6361842105
  0
LINE
  8
0
 62
7
  6
CONTINUOUS
 10
81.2960526317
 20
84.6361842105
 11
74.2960526317
 21
84.6361842105
  0
LINE
  8
0
 62
7
  6
CONTINUOUS
 10
55.8960526317
 20
84.6361842105
 11
48.8960526317
 21
84.6361842105
  0
LINE
  8
0
 62
7
  6
CONTINUOUS
 10
23.4960526317
 20
84.6361842105
 11
30.4960526317
 21
84.6361842105
  0
POLYLINE
  8
0
 62
7
  6
CONTINUOUS
 66
1
 70
0
  0
VERTEX
  8
0
 62
7
  6
CONTINUOUS
 10
143.6960526317
 20
121.1117606018
  0
VERTEX
  8
0
 62
7
  6
CONTINUOUS
 10
143.6979081486
 20
120.9961941061
  0
VERTEX
  8
0
 62
7
  6
CONTINUOUS
 10
143.7031382791
 20
120.8862498766
  0
VERTEX
  8
0
 62
7
  6
CONTINUOUS
 10
143.7113867828
 20
120.7805065942
  0
VERTEX
  8
0
 62
7
  6
CONTINUOUS
 10
143.722457136
 20
120.6776304114
  0
VERTEX
  8
0
 62
7
  6
CONTINUOUS
 10
143.7363250381
 20
120.5763102523
  0
VERTEX
  8
0
 62
7
  6
CONTINUOUS
 10
143.7531037933
 20
120.4752997057
  0
VERTEX
  8
0
 62
7
  6
CONTINUOUS
 10
143.7728107933
 20
120.3745129521
  0
VERTEX
  8
0
 62
7
  6
CONTINUOUS
 10
143.7953678772
 20
120.2744277131
  0
VERTEX
  8
0
 62
7
  6
CONTINUOUS
 10
143.8207677973
 20
120.1751025703
  0
VERTEX
  8
0
 62
7
  6
CONTINUOUS
 10
143.8490185884
 20
120.0764848664
  0
VERTEX
  8
0
 62
7
  6
CONTINUOUS
 10
143.8800763371
 20
119.978707759
  0
VERTEX
  8
0
 62
7
  6
CONTINUOUS
 10
143.9139134307
 20
119.8819012812
  0
VERTEX
  8
0
 62
7
  6
CONTINUOUS
 10
143.9505698402
 20
119.7860151146
  0
VERTEX
  8
0
 62
7
  6
CONTINUOUS
 10
143.9900396351
 20
119.6911432345
  0
VERTEX
  8
0
 62
7
  6
CONTINUOUS
 10
144.0322877458
 20
119.5974627795
  0
VERTEX
  8
0
 62
7
  6
CONTINUOUS
 10
144.0773778659
 20
119.5048953176
  0
VERTEX
  8
0
 62
7
  6
CONTINUOUS
 10
144.1253933482
 20
119.4133441987
  0
VERTEX
  8
0
 62
7
  6
CONTINUOUS
 10
144.1761156034
 20
119.323279467
  0
VERTEX
  8
0
 62
7
  6
CONTINUOUS
 10
144.2292946191
 20
119.2351005604
  0
VERTEX
  8
0
 62
7
  6
CONTINUOUS
 10
144.2867599962
 20
119.1460224228
  0
VERTEX
  8
0
 62
7
  6
CONTINUOUS
 10
144.3517853164
 20
119.0520032809
  0
VERTEX
  8
0
 62
7
  6
CONTINUOUS
 10
144.4280961646
 20
118.9496728095
  0
VERTEX
  8
0
 62
7
  6
CONTINUOUS
 10
144.5160941058
 20
118.8410363351
  0
VERTEX
  8
0
 62
7
  6
CONTINUOUS
 10
144.6096864716
 20
118.7350834822
  0
VERTEX
  8
0
 62
7
  6
CONTINUOUS
 10
144.7012948391
 20
118.6397664652
  0
VERTEX
  8
0
 62
7
  6
CONTINUOUS
 10
144.787806204
 20
118.5564873031
  0
VERTEX
  8
0
 62
7
  6
CONTINUOUS
 10
144.8712436829
 20
118.4817630781
  0
VERTEX
  8
0
 62
7
  6
CONTINUOUS
 10
144.9543172979
 20
118.4123591701
  0
VERTEX
  8
0
 62
7
  6
CONTINUOUS
 10
145.0391975215
 20
118.346210231
  0
VERTEX
  8
0
 62
7
  6
CONTINUOUS
 10
145.1261776142
 20
118.2830846114
  0
VERTEX
  8
0
 62
7
  6
CONTINUOUS
 10
145.2152419814
 20
118.2230227044
  0
VERTEX
  8
0
 62
7
  6
CONTINUOUS
 10
145.3062227178
 20
118.1661766474
  0
VERTEX
  8
0
 62
7
  6
CONTINUOUS
 10
145.3992333896
 20
118.1125469203
  0
VERTEX
  8
0
 62
7
  6
CONTINUOUS
 10
145.4945989705
 20
118.0620357541
  0
VERTEX
  8
0
 62
7
  6
CONTINUOUS
 10
145.5922785487
 20
118.0147855441
  0
VERTEX
  8
0
 62
7
  6
CONTINUOUS
 10
145.6921837952
 20
117.9709291018
  0
VERTEX
  8
0
 62
7
  6
CONTINUOUS
 10
145.7939665926
 20
117.9306745748
  0
VERTEX
  8
0
 62
7
  6
CONTINUOUS
 10
145.8973335836
 20
117.8941839775
  0
VERTEX
  8
0
 62
7
  6
CONTINUOUS
 10
146.002195477
 20
117.8615299681
  0
VERTEX
  8
0
 62
7
  6
CONTINUOUS
 10
146.1084746622
 20
117.8327956896
  0
VERTEX
  8
0
 62
7
  6
CONTINUOUS
 10
146.2157325184
 20
117.8081524961
  0
VERTEX
  8
0
 62
7
  6
CONTINUOUS
 10
146.3241028825
 20
117.7876353746
  0
VERTEX
  8
0
 62
7
  6
CONTINUOUS
 10
146.4348607404
 20
117.7711445762
  0
VERTEX
  8
0
 62
7
  6
CONTINUOUS
 10
146.5494633213
 20
117.7587847048
  0
VERTEX
  8
0
 62
7
  6
CONTINUOUS
 10
146.6693443128
 20
117.7508968571
  0
VERTEX
  8
0
 62
7
  6
CONTINUOUS
 10
146.7960527201
 20
117.7480846688
  0
SEQEND
  0
LINE
  8
0
 62
7
  6
CONTINUOUS
 10
143.6960526317
 20
136.9041935304
 11
143.6960526317
 21
121.1117606018
  0
LINE
  8
0
 62
7
  6
CONTINUOUS
 10
143.9960526317
 20
139.7861842105
 11
143.9960526317
 21
138.2555676646
  0
LINE
  8
0
 62
7
  6
CONTINUOUS
 10
144.7960526317
 20
136.9041935304
 11
144.7960526317
 21
121.1117593523
  0
LINE
  8
0
 62
7
  6
CONTINUOUS
 10
147.4960526317
 20
148.7361842105
 11
147.4960526317
 21
144.0428426848
  0
LINE
  8
0
 62
7
  6
CONTINUOUS
 10
147.7960526317
 20
87.3361842105
 11
147.7960526317
 21
92.0295294703
  0
LINE
  8
0
 62
7
  6
CONTINUOUS
 10
144.864933147
 20
137.2689078093
 11
147.4753884771
 21
143.9334284011
  0
LINE
  8
DEFAULT_1
 62
2
  6
CENTER
 10
343.2847894737
 20
92.6734392105
 11
11.7058421053
 21
92.6734392105
  0
LINE
  8
0
 62
7
  6
CONTINUOUS
 10
231.8960526317
 20
95.2861842105
 11
228.4960526317
 21
95.2861842105
  0
LINE
  8
0
 62
7
  6
CONTINUOUS
 10
206.4960526317
 20
95.2861842105
 11
203.0960526317
 21
95.2861842105
  0
LINE
  8
0
 62
7
  6
CONTINUOUS
 10
181.0960526317
 20
95.2861842105
 11
177.6960526317
 21
95.2861842105
  0
LINE
  8
0
 62
7
  6
CONTINUOUS
 10
155.6960526317
 20
95.2861842105
 11
152.2960526317
 21
95.2861842105
  0
LINE
  8
0
 62
7
  6
CONTINUOUS
 10
130.2960526317
 20
95.2861842105
 11
126.8960526317
 21
95.2861842105
  0
LINE
  8
0
 62
7
  6
CONTINUOUS
 10
104.8960526317
 20
95.2861842105
 11
101.4960526317
 21
95.2861842105
  0
LINE
  8
0
 62
7
  6
CONTINUOUS
 10
135.1167167863
 20
143.9334284011
 11
137.7271721164
 21
137.2689078093
  0
LINE
  8
0
 62
7
  6
CONTINUOUS
 10
138.7514035496
 20
137.6700935161
 11
138.664933147
 21
137.8908533857
  0
LINE
  8
0
 62
7
  6
CONTINUOUS
 10
150.4960526317
 20
113.2361842105
 11
150.4960526317
 21
99.168650366
  0
LINE
  8
0
 62
7
  6
CONTINUOUS
 10
151.2960526317
 20
96.2861842105
 11
151.2960526317
 21
97.8172606031
  0
LINE
  8
0
 62
7
  6
CONTINUOUS
 10
151.5960526317
 20
99.168650366
 11
151.5960526317
 21
113.2361842105
  0
LINE
  8
0
 62
7
  6
CONTINUOUS
 10
156.3960526317
 20
113.2361842105
 11
156.3960526317
 21
99.168650366
  0
LINE
  8
0
 62
7
  6
CONTINUOUS
 10
156.6960526317
 20
97.8172606031
 11
156.6960526317
 21
96.2861842105
  0
LINE
  8
0
 62
7
  6
CONTINUOUS
 10
157.4960526317
 20
113.2361842105
 11
157.4960526317
 21
99.168650366
  0
LINE
  8
0
 62
7
  6
CONTINUOUS
 10
160.1960526317
 20
92.0295294703
 11
160.1960526317
 21
87.3361842105
  0
LINE
  8
0
 62
7
  6
CONTINUOUS
 10
160.4960526317
 20
144.0428426848
 11
160.4960526317
 21
148.7361842105
  0
LINE
  8
0
 62
7
  6
CONTINUOUS
 10
147.8167141565
 20
92.1389370397
 11
150.4271808825
 21
98.8039584678
  0
LINE
  8
0
 62
7
  6
CONTINUOUS
 10
151.364924381
 20
98.1819525014
 11
151.4514219583
 21
98.4027973798
  0
LINE
  8
0
 62
7
  6
CONTINUOUS
 10
156.5406833051
 20
98.4027973798
 11
156.6271808825
 21
98.1819525014
  0
LINE
  8
0
 62
7
  6
CONTINUOUS
 10
160.175391107
 20
92.1389370397
 11
157.564924381
 21
98.8039584678
  0
POLYLINE
  8
0
 62
7
  6
CONTINUOUS
 66
1
 70
0
  0
VERTEX
  8
0
 62
7
  6
CONTINUOUS
 10
169.0960526317
 20
121.1117606016
  0
VERTEX
  8
0
 62
7
  6
CONTINUOUS
 10
169.0979081486
 20
120.996194106
  0
VERTEX
  8
0
 62
7
  6
CONTINUOUS
 10
169.1031382791
 20
120.8862498765
  0
VERTEX
  8
0
 62
7
  6
CONTINUOUS
 10
169.1113867828
 20
120.7805065941
  0
VERTEX
  8
0
 62
7
  6
CONTINUOUS
 10
169.122457136
 20
120.6776304113
  0
VERTEX
  8
0
 62
7
  6
CONTINUOUS
 10
169.1363250381
 20
120.5763102521
  0
VERTEX
  8
0
 62
7
  6
CONTINUOUS
 10
169.1531037933
 20
120.4752997056
  0
VERTEX
  8
0
 62
7
  6
CONTINUOUS
 10
169.1728107933
 20
120.374512952
  0
VERTEX
  8
0
 62
7
  6
CONTINUOUS
 10
169.1953678773
 20
120.2744277129
  0
VERTEX
  8
0
 62
7
  6
CONTINUOUS
 10
169.2207677973
 20
120.1751025702
  0
VERTEX
  8
0
 62
7
  6
CONTINUOUS
 10
169.2490185884
 20
120.0764848663
  0
VERTEX
  8
0
 62
7
  6
CONTINUOUS
 10
169.2800763371
 20
119.9787077589
  0
VERTEX
  8
0
 62
7
  6
CONTINUOUS
 10
169.3139134308
 20
119.8819012811
  0
VERTEX
  8
0
 62
7
  6
CONTINUOUS
 10
169.3505698402
 20
119.7860151145
  0
VERTEX
  8
0
 62
7
  6
CONTINUOUS
 10
169.3900396351
 20
119.6911432344
  0
VERTEX
  8
0
 62
7
  6
CONTINUOUS
 10
169.4322877458
 20
119.5974627794
  0
VERTEX
  8
0
 62
7
  6
CONTINUOUS
 10
169.4773778659
 20
119.5048953175
  0
VERTEX
  8
0
 62
7
  6
CONTINUOUS
 10
169.5253933482
 20
119.4133441986
  0
VERTEX
  8
0
 62
7
  6
CONTINUOUS
 10
169.5761156034
 20
119.323279467
  0
VERTEX
  8
0
 62
7
  6
CONTINUOUS
 10
169.6292946192
 20
119.2351005604
  0
VERTEX
  8
0
 62
7
  6
CONTINUOUS
 10
169.6867599962
 20
119.1460224227
  0
VERTEX
  8
0
 62
7
  6
CONTINUOUS
 10
169.7517853164
 20
119.0520032809
  0
VERTEX
  8
0
 62
7
  6
CONTINUOUS
 10
169.8280961646
 20
118.9496728094
  0
VERTEX
  8
0
 62
7
  6
CONTINUOUS
 10
169.9160941059
 20
118.8410363351
  0
VERTEX
  8
0
 62
7
  6
CONTINUOUS
 10
170.0096864716
 20
118.7350834821
  0
VERTEX
  8
0
 62
7
  6
CONTINUOUS
 10
170.1012948392
 20
118.6397664652
  0
VERTEX
  8
0
 62
7
  6
CONTINUOUS
 10
170.187806204
 20
118.5564873031
  0
VERTEX
  8
0
 62
7
  6
CONTINUOUS
 10
170.2712436829
 20
118.4817630781
  0
VERTEX
  8
0
 62
7
  6
CONTINUOUS
 10
170.3543172979
 20
118.4123591701
  0
VERTEX
  8
0
 62
7
  6
CONTINUOUS
 10
170.4391975215
 20
118.3462102309
  0
VERTEX
  8
0
 62
7
  6
CONTINUOUS
 10
170.5261776142
 20
118.2830846114
  0
VERTEX
  8
0
 62
7
  6
CONTINUOUS
 10
170.6152419814
 20
118.2230227044
  0
VERTEX
  8
0
 62
7
  6
CONTINUOUS
 10
170.7062227179
 20
118.1661766473
  0
VERTEX
  8
0
 62
7
  6
CONTINUOUS
 10
170.7992333896
 20
118.1125469203
  0
VERTEX
  8
0
 62
7
  6
CONTINUOUS
 10
170.8945989705
 20
118.062035754
  0
VERTEX
  8
0
 62
7
  6
CONTINUOUS
 10
170.9922785488
 20
118.0147855441
  0
VERTEX
  8
0
 62
7
  6
CONTINUOUS
 10
171.0921837952
 20
117.9709291018
  0
VERTEX
  8
0
 62
7
  6
CONTINUOUS
 10
171.1939665927
 20
117.9306745748
  0
VERTEX
  8
0
 62
7
  6
CONTINUOUS
 10
171.2973335836
 20
117.8941839775
  0
VERTEX
  8
0
 62
7
  6
CONTINUOUS
 10
171.402195477
 20
117.8615299681
  0
VERTEX
  8
0
 62
7
  6
CONTINUOUS
 10
171.5084746622
 20
117.8327956896
  0
VERTEX
  8
0
 62
7
  6
CONTINUOUS
 10
171.6157325184
 20
117.808152496
  0
VERTEX
  8
0
 62
7
  6
CONTINUOUS
 10
171.7241028825
 20
117.7876353746
  0
VERTEX
  8
0
 62
7
  6
CONTINUOUS
 10
171.8348607404
 20
117.7711445762
  0
VERTEX
  8
0
 62
7
  6
CONTINUOUS
 10
171.9494633213
 20
117.7587847048
  0
VERTEX
  8
0
 62
7
  6
CONTINUOUS
 10
172.0693443129
 20
117.7508968571
  0
VERTEX
  8
0
 62
7
  6
CONTINUOUS
 10
172.1960527201
 20
117.7480846688
  0
SEQEND
  0
LINE
  8
0
 62
7
  6
CONTINUOUS
 10
163.1960526317
 20
136.9041935304
 11
163.1960526317
 21
121.1117593523
  0
LINE
  8
0
 62
7
  6
CONTINUOUS
 10
163.9960526317
 20
138.2555676646
 11
163.9960526317
 21
139.7861842105
  0
LINE
  8
0
 62
7
  6
CONTINUOUS
 10
164.2960526317
 20
121.1117600345
 11
164.2960526317
 21
136.9041935304
  0
LINE
  8
0
 62
7
  6
CONTINUOUS
 10
169.0960526317
 20
136.9041935304
 11
169.0960526317
 21
121.1117606016
  0
LINE
  8
0
 62
7
  6
CONTINUOUS
 10
169.3960526317
 20
139.7861842105
 11
169.3960526317
 21
138.2555676646
  0
LINE
  8
0
 62
7
  6
CONTINUOUS
 10
170.1960526317
 20
136.9041935304
 11
170.1960526317
 21
121.1117593523
  0
LINE
  8
0
 62
7
  6
CONTINUOUS
 10
169.3271721164
 20
137.8908533857
 11
169.2407017139
 21
137.6700935161
  0
LINE
  8
0
 62
7
  6
CONTINUOUS
 10
170.264933147
 20
137.2689078093
 11
172.8753884771
 21
143.9334284011
  0
POLYLINE
  8
0
 62
7
  6
CONTINUOUS
 66
1
 70
0
  0
VERTEX
  8
0
 62
7
  6
CONTINUOUS
 10
237.3960526156
 20
117.7480846688
  0
VERTEX
  8
0
 62
7
  6
CONTINUOUS
 10
237.5214434975
 20
117.7508899519
  0
VERTEX
  8
0
 62
7
  6
CONTINUOUS
 10
237.6406501461
 20
117.7587421818
  0
VERTEX
  8
0
 62
7
  6
CONTINUOUS
 10
237.7549822718
 20
117.7710257551
  0
VERTEX
  8
0
 62
7
  6
CONTINUOUS
 10
237.8657597661
 20
117.7874072693
  0
VERTEX
  8
0
 62
7
  6
CONTINUOUS
 10
237.9743216982
 20
117.8078030336
  0
VERTEX
  8
0
 62
7
  6
CONTINUOUS
 10
238.0818177447
 20
117.8323165184
  0
VERTEX
  8
0
 62
7
  6
CONTINUOUS
 10
238.1882851567
 20
117.8609499356
  0
VERTEX
  8
0
 62
7
  6
CONTINUOUS
 10
238.2934068976
 20
117.8935898443
  0
VERTEX
  8
0
 62
7
  6
CONTINUOUS
 10
238.3968677816
 20
117.9300679122
  0
VERTEX
  8
0
 62
7
  6
CONTINUOUS
 10
238.4985114733
 20
117.9702547082
  0
VERTEX
  8
0
 62
7
  6
CONTINUOUS
 10
238.598212215
 20
118.0140118797
  0
VERTEX
  8
0
 62
7
  6
CONTINUOUS
 10
238.6958644223
 20
118.0612116815
  0
VERTEX
  8
0
 62
7
  6
CONTINUOUS
 10
238.7917279341
 20
118.1119235273
  0
VERTEX
  8
0
 62
7
  6
CONTINUOUS
 10
238.885928307
 20
118.1661663786
  0
VERTEX
  8
0
 62
7
  6
CONTINUOUS
 10
238.9782582047
 20
118.2238014925
  0
VERTEX
  8
0
 62
7
  6
CONTINUOUS
 10
239.0683249224
 20
118.2845545109
  0
VERTEX
  8
0
 62
7
  6
CONTINUOUS
 10
239.1555654068
 20
118.3479395969
  0
VERTEX
  8
0
 62
7
  6
CONTINUOUS
 10
239.2398699869
 20
118.4137260488
  0
VERTEX
  8
0
 62
7
  6
CONTINUOUS
 10
239.3214174936
 20
118.4819240564
  0
VERTEX
  8
0
 62
7
  6
CONTINUOUS
 10
239.400268655
 20
118.5524766872
  0
VERTEX
  8
0
 62
7
  6
CONTINUOUS
 10
239.4764066198
 20
118.6252627493
  0
VERTEX
  8
0
 62
7
  6
CONTINUOUS
 10
239.549900425
 20
118.7002530308
  0
VERTEX
  8
0
 62
7
  6
CONTINUOUS
 10
239.6207431502
 20
118.7773295774
  0
VERTEX
  8
0
 62
7
  6
CONTINUOUS
 10
239.6886647654
 20
118.8560686397
  0
VERTEX
  8
0
 62
7
  6
CONTINUOUS
 10
239.7541872578
 20
118.9369775342
  0
VERTEX
  8
0
 62
7
  6
CONTINUOUS
 10
239.8188935236
 20
119.0221783625
  0
VERTEX
  8
0
 62
7
  6
CONTINUOUS
 10
239.8830489445
 20
119.112559365
  0
VERTEX
  8
0
 62
7
  6
CONTINUOUS
 10
239.9455621505
 20
119.2071189493
  0
VERTEX
  8
0
 62
7
  6
CONTINUOUS
 10
240.0053490306
 20
119.304497813
  0
VERTEX
  8
0
 62
7
  6
CONTINUOUS
 10
240.0615525212
 20
119.4033044204
  0
VERTEX
  8
0
 62
7
  6
CONTINUOUS
 10
240.1136144544
 20
119.5022678284
  0
VERTEX
  8
0
 62
7
  6
CONTINUOUS
 10
240.1611704557
 20
119.6001170428
  0
VERTEX
  8
0
 62
7
  6
CONTINUOUS
 10
240.2039969841
 20
119.6955411905
  0
VERTEX
  8
0
 62
7
  6
CONTINUOUS
 10
240.242883151
 20
119.7894325603
  0
VERTEX
  8
0
 62
7
  6
CONTINUOUS
 10
240.2791332888
 20
119.8845037552
  0
VERTEX
  8
0
 62
7
  6
CONTINUOUS
 10
240.3128983015
 20
119.9811922605
  0
VERTEX
  8
0
 62
7
  6
CONTINUOUS
 10
240.3438862377
 20
120.0787431524
  0
VERTEX
  8
0
 62
7
  6
CONTINUOUS
 10
240.3720383433
 20
120.1769458078
  0
VERTEX
  8
0
 62
7
  6
CONTINUOUS
 10
240.3973591182
 20
120.2758735575
  0
VERTEX
  8
0
 62
7
  6
CONTINUOUS
 10
240.4198444097
 20
120.3755942034
  0
VERTEX
  8
0
 62
7
  6
CONTINUOUS
 10
240.4394545494
 20
120.4759711873
  0
VERTEX
  8
0
 62
7
  6
CONTINUOUS
 10
240.4561264789
 20
120.576670448
  0
VERTEX
  8
0
 62
7
  6
CONTINUOUS
 10
240.4698992514
 20
120.67784514
  0
VERTEX
  8
0
 62
7
  6
CONTINUOUS
 10
240.4808801662
 20
120.7806514871
  0
VERTEX
  8
0
 62
7
  6
CONTINUOUS
 10
240.4890481894
 20
120.8863678703
  0
VERTEX
  8
0
 62
7
  6
CONTINUOUS
 10
240.494220541
 20
120.9962899141
  0
VERTEX
  8
0
 62
7
  6
CONTINUOUS
 10
240.4960526317
 20
121.1117600344
  0
SEQEND
  0
POLYLINE
  8
0
 62
7
  6
CONTINUOUS
 66
1
 70
0
  0
VERTEX
  8
0
 62
7
  6
CONTINUOUS
 10
211.9960526156
 20
117.7480846688
  0
VERTEX
  8
0
 62
7
  6
CONTINUOUS
 10
212.1214434975
 20
117.7508899519
  0
VERTEX
  8
0
 62
7
  6
CONTINUOUS
 10
212.2406501461
 20
117.7587421818
  0
VERTEX
  8
0
 62
7
  6
CONTINUOUS
 10
212.3549822718
 20
117.7710257551
  0
VERTEX
  8
0
 62
7
  6
CONTINUOUS
 10
212.4657597661
 20
117.7874072693
  0
VERTEX
  8
0
 62
7
  6
CONTINUOUS
 10
212.5743216982
 20
117.8078030336
  0
VERTEX
  8
0
 62
7
  6
CONTINUOUS
 10
212.6818177448
 20
117.8323165184
  0
VERTEX
  8
0
 62
7
  6
CONTINUOUS
 10
212.7882851567
 20
117.8609499357
  0
VERTEX
  8
0
 62
7
  6
CONTINUOUS
 10
212.8934068976
 20
117.8935898443
  0
VERTEX
  8
0
 62
7
  6
CONTINUOUS
 10
212.9968677816
 20
117.9300679122
  0
VERTEX
  8
0
 62
7
  6
CONTINUOUS
 10
213.0985114734
 20
117.9702547082
  0
VERTEX
  8
0
 62
7
  6
CONTINUOUS
 10
213.1982122151
 20
118.0140118797
  0
VERTEX
  8
0
 62
7
  6
CONTINUOUS
 10
213.2958644224
 20
118.0612116815
  0
VERTEX
  8
0
 62
7
  6
CONTINUOUS
 10
213.3917279342
 20
118.1119235273
  0
VERTEX
  8
0
 62
7
  6
CONTINUOUS
 10
213.4859283071
 20
118.1661663786
  0
VERTEX
  8
0
 62
7
  6
CONTINUOUS
 10
213.5782582048
 20
118.2238014925
  0
VERTEX
  8
0
 62
7
  6
CONTINUOUS
 10
213.6683249224
 20
118.284554511
  0
VERTEX
  8
0
 62
7
  6
CONTINUOUS
 10
213.7555654068
 20
118.3479395969
  0
VERTEX
  8
0
 62
7
  6
CONTINUOUS
 10
213.8398699869
 20
118.4137260489
  0
VERTEX
  8
0
 62
7
  6
CONTINUOUS
 10
213.9214174936
 20
118.4819240565
  0
VERTEX
  8
0
 62
7
  6
CONTINUOUS
 10
214.0002686551
 20
118.5524766872
  0
VERTEX
  8
0
 62
7
  6
CONTINUOUS
 10
214.0764066198
 20
118.6252627494
  0
VERTEX
  8
0
 62
7
  6
CONTINUOUS
 10
214.1499004251
 20
118.7002530309
  0
VERTEX
  8
0
 62
7
  6
CONTINUOUS
 10
214.2207431503
 20
118.7773295774
  0
VERTEX
  8
0
 62
7
  6
CONTINUOUS
 10
214.2886647655
 20
118.8560686398
  0
VERTEX
  8
0
 62
7
  6
CONTINUOUS
 10
214.3541872579
 20
118.9369775342
  0
VERTEX
  8
0
 62
7
  6
CONTINUOUS
 10
214.4188935236
 20
119.0221783626
  0
VERTEX
  8
0
 62
7
  6
CONTINUOUS
 10
214.4830489445
 20
119.112559365
  0
VERTEX
  8
0
 62
7
  6
CONTINUOUS
 10
214.5455621505
 20
119.2071189493
  0
VERTEX
  8
0
 62
7
  6
CONTINUOUS
 10
214.6053490307
 20
119.3044978131
  0
VERTEX
  8
0
 62
7
  6
CONTINUOUS
 10
214.6615525212
 20
119.4033044205
  0
VERTEX
  8
0
 62
7
  6
CONTINUOUS
 10
214.7136144545
 20
119.5022678285
  0
VERTEX
  8
0
 62
7
  6
CONTINUOUS
 10
214.7611704558
 20
119.6001170429
  0
VERTEX
  8
0
 62
7
  6
CONTINUOUS
 10
214.8039969842
 20
119.6955411906
  0
VERTEX
  8
0
 62
7
  6
CONTINUOUS
 10
214.8428831511
 20
119.7894325604
  0
VERTEX
  8
0
 62
7
  6
CONTINUOUS
 10
214.8791332889
 20
119.8845037553
  0
VERTEX
  8
0
 62
7
  6
CONTINUOUS
 10
214.9128983015
 20
119.9811922606
  0
VERTEX
  8
0
 62
7
  6
CONTINUOUS
 10
214.9438862377
 20
120.0787431525
  0
VERTEX
  8
0
 62
7
  6
CONTINUOUS
 10
214.9720383434
 20
120.1769458079
  0
VERTEX
  8
0
 62
7
  6
CONTINUOUS
 10
214.9973591182
 20
120.2758735576
  0
VERTEX
  8
0
 62
7
  6
CONTINUOUS
 10
215.0198444097
 20
120.3755942036
  0
VERTEX
  8
0
 62
7
  6
CONTINUOUS
 10
215.0394545494
 20
120.4759711874
  0
VERTEX
  8
0
 62
7
  6
CONTINUOUS
 10
215.056126479
 20
120.5766704481
  0
VERTEX
  8
0
 62
7
  6
CONTINUOUS
 10
215.0698992514
 20
120.6778451401
  0
VERTEX
  8
0
 62
7
  6
CONTINUOUS
 10
215.0808801662
 20
120.7806514872
  0
VERTEX
  8
0
 62
7
  6
CONTINUOUS
 10
215.0890481894
 20
120.8863678704
  0
VERTEX
  8
0
 62
7
  6
CONTINUOUS
 10
215.094220541
 20
120.9962899142
  0
VERTEX
  8
0
 62
7
  6
CONTINUOUS
 10
215.0960526317
 20
121.1117600345
  0
SEQEND
  0
POLYLINE
  8
0
 62
7
  6
CONTINUOUS
 66
1
 70
0
  0
VERTEX
  8
0
 62
7
  6
CONTINUOUS
 10
186.5960526156
 20
117.7480846688
  0
VERTEX
  8
0
 62
7
  6
CONTINUOUS
 10
186.7214434975
 20
117.7508899519
  0
VERTEX
  8
0
 62
7
  6
CONTINUOUS
 10
186.8406501461
 20
117.7587421818
  0
VERTEX
  8
0
 62
7
  6
CONTINUOUS
 10
186.9549822718
 20
117.7710257551
  0
VERTEX
  8
0
 62
7
  6
CONTINUOUS
 10
187.0657597661
 20
117.7874072693
  0
VERTEX
  8
0
 62
7
  6
CONTINUOUS
 10
187.1743216982
 20
117.8078030336
  0
VERTEX
  8
0
 62
7
  6
CONTINUOUS
 10
187.2818177448
 20
117.8323165184
  0
VERTEX
  8
0
 62
7
  6
CONTINUOUS
 10
187.3882851567
 20
117.8609499357
  0
VERTEX
  8
0
 62
7
  6
CONTINUOUS
 10
187.4934068976
 20
117.8935898443
  0
VERTEX
  8
0
 62
7
  6
CONTINUOUS
 10
187.5968677816
 20
117.9300679122
  0
VERTEX
  8
0
 62
7
  6
CONTINUOUS
 10
187.6985114734
 20
117.9702547082
  0
VERTEX
  8
0
 62
7
  6
CONTINUOUS
 10
187.7982122151
 20
118.0140118797
  0
VERTEX
  8
0
 62
7
  6
CONTINUOUS
 10
187.8958644224
 20
118.0612116815
  0
VERTEX
  8
0
 62
7
  6
CONTINUOUS
 10
187.9917279342
 20
118.1119235273
  0
VERTEX
  8
0
 62
7
  6
CONTINUOUS
 10
188.0859283071
 20
118.1661663786
  0
VERTEX
  8
0
 62
7
  6
CONTINUOUS
 10
188.1782582048
 20
118.2238014925
  0
VERTEX
  8
0
 62
7
  6
CONTINUOUS
 10
188.2683249225
 20
118.284554511
  0
VERTEX
  8
0
 62
7
  6
CONTINUOUS
 10
188.3555654069
 20
118.347939597
  0
VERTEX
  8
0
 62
7
  6
CONTINUOUS
 10
188.439869987
 20
118.4137260489
  0
VERTEX
  8
0
 62
7
  6
CONTINUOUS
 10
188.5214174937
 20
118.4819240565
  0
VERTEX
  8
0
 62
7
  6
CONTINUOUS
 10
188.6002686551
 20
118.5524766873
  0
VERTEX
  8
0
 62
7
  6
CONTINUOUS
 10
188.6764066199
 20
118.6252627494
  0
VERTEX
  8
0
 62
7
  6
CONTINUOUS
 10
188.7499004251
 20
118.7002530309
  0
VERTEX
  8
0
 62
7
  6
CONTINUOUS
 10
188.8207431503
 20
118.7773295775
  0
VERTEX
  8
0
 62
7
  6
CONTINUOUS
 10
188.8886647655
 20
118.8560686398
  0
VERTEX
  8
0
 62
7
  6
CONTINUOUS
 10
188.9541872579
 20
118.9369775343
  0
VERTEX
  8
0
 62
7
  6
CONTINUOUS
 10
189.0188935236
 20
119.0221783627
  0
VERTEX
  8
0
 62
7
  6
CONTINUOUS
 10
189.0830489446
 20
119.1125593651
  0
VERTEX
  8
0
 62
7
  6
CONTINUOUS
 10
189.1455621505
 20
119.2071189494
  0
VERTEX
  8
0
 62
7
  6
CONTINUOUS
 10
189.2053490307
 20
119.3044978131
  0
VERTEX
  8
0
 62
7
  6
CONTINUOUS
 10
189.2615525212
 20
119.4033044205
  0
VERTEX
  8
0
 62
7
  6
CONTINUOUS
 10
189.3136144545
 20
119.5022678286
  0
VERTEX
  8
0
 62
7
  6
CONTINUOUS
 10
189.3611704558
 20
119.6001170429
  0
VERTEX
  8
0
 62
7
  6
CONTINUOUS
 10
189.4039969842
 20
119.6955411906
  0
VERTEX
  8
0
 62
7
  6
CONTINUOUS
 10
189.4428831511
 20
119.7894325605
  0
VERTEX
  8
0
 62
7
  6
CONTINUOUS
 10
189.4791332889
 20
119.8845037554
  0
VERTEX
  8
0
 62
7
  6
CONTINUOUS
 10
189.5128983016
 20
119.9811922607
  0
VERTEX
  8
0
 62
7
  6
CONTINUOUS
 10
189.5438862378
 20
120.0787431526
  0
VERTEX
  8
0
 62
7
  6
CONTINUOUS
 10
189.5720383434
 20
120.176945808
  0
VERTEX
  8
0
 62
7
  6
CONTINUOUS
 10
189.5973591182
 20
120.2758735577
  0
VERTEX
  8
0
 62
7
  6
CONTINUOUS
 10
189.6198444097
 20
120.3755942037
  0
VERTEX
  8
0
 62
7
  6
CONTINUOUS
 10
189.6394545494
 20
120.4759711875
  0
VERTEX
  8
0
 62
7
  6
CONTINUOUS
 10
189.656126479
 20
120.5766704483
  0
VERTEX
  8
0
 62
7
  6
CONTINUOUS
 10
189.6698992514
 20
120.6778451402
  0
VERTEX
  8
0
 62
7
  6
CONTINUOUS
 10
189.6808801662
 20
120.7806514873
  0
VERTEX
  8
0
 62
7
  6
CONTINUOUS
 10
189.6890481894
 20
120.8863678705
  0
VERTEX
  8
0
 62
7
  6
CONTINUOUS
 10
189.694220541
 20
120.9962899143
  0
VERTEX
  8
0
 62
7
  6
CONTINUOUS
 10
189.6960526317
 20
121.1117600346
  0
SEQEND
  0
POLYLINE
  8
0
 62
7
  6
CONTINUOUS
 66
1
 70
0
  0
VERTEX
  8
0
 62
7
  6
CONTINUOUS
 10
161.1960526156
 20
117.7480846688
  0
VERTEX
  8
0
 62
7
  6
CONTINUOUS
 10
161.3214434975
 20
117.7508899519
  0
VERTEX
  8
0
 62
7
  6
CONTINUOUS
 10
161.4406501461
 20
117.7587421818
  0
VERTEX
  8
0
 62
7
  6
CONTINUOUS
 10
161.5549822718
 20
117.7710257551
  0
VERTEX
  8
0
 62
7
  6
CONTINUOUS
 10
161.6657597661
 20
117.7874072693
  0
VERTEX
  8
0
 62
7
  6
CONTINUOUS
 10
161.7743216982
 20
117.8078030336
  0
VERTEX
  8
0
 62
7
  6
CONTINUOUS
 10
161.8818177448
 20
117.8323165184
  0
VERTEX
  8
0
 62
7
  6
CONTINUOUS
 10
161.9882851567
 20
117.8609499357
  0
VERTEX
  8
0
 62
7
  6
CONTINUOUS
 10
162.0934068976
 20
117.8935898443
  0
VERTEX
  8
0
 62
7
  6
CONTINUOUS
 10
162.1968677816
 20
117.9300679122
  0
VERTEX
  8
0
 62
7
  6
CONTINUOUS
 10
162.2985114734
 20
117.9702547082
  0
VERTEX
  8
0
 62
7
  6
CONTINUOUS
 10
162.3982122151
 20
118.0140118797
  0
VERTEX
  8
0
 62
7
  6
CONTINUOUS
 10
162.4958644224
 20
118.0612116815
  0
VERTEX
  8
0
 62
7
  6
CONTINUOUS
 10
162.5917279342
 20
118.1119235273
  0
VERTEX
  8
0
 62
7
  6
CONTINUOUS
 10
162.6859283071
 20
118.1661663786
  0
VERTEX
  8
0
 62
7
  6
CONTINUOUS
 10
162.7782582048
 20
118.2238014925
  0
VERTEX
  8
0
 62
7
  6
CONTINUOUS
 10
162.8683249224
 20
118.284554511
  0
VERTEX
  8
0
 62
7
  6
CONTINUOUS
 10
162.9555654068
 20
118.3479395969
  0
VERTEX
  8
0
 62
7
  6
CONTINUOUS
 10
163.0398699869
 20
118.4137260489
  0
VERTEX
  8
0
 62
7
  6
CONTINUOUS
 10
163.1214174936
 20
118.4819240565
  0
VERTEX
  8
0
 62
7
  6
CONTINUOUS
 10
163.2002686551
 20
118.5524766872
  0
VERTEX
  8
0
 62
7
  6
CONTINUOUS
 10
163.2764066198
 20
118.6252627494
  0
VERTEX
  8
0
 62
7
  6
CONTINUOUS
 10
163.3499004251
 20
118.7002530309
  0
VERTEX
  8
0
 62
7
  6
CONTINUOUS
 10
163.4207431503
 20
118.7773295774
  0
VERTEX
  8
0
 62
7
  6
CONTINUOUS
 10
163.4886647655
 20
118.8560686398
  0
VERTEX
  8
0
 62
7
  6
CONTINUOUS
 10
163.5541872579
 20
118.9369775342
  0
VERTEX
  8
0
 62
7
  6
CONTINUOUS
 10
163.6188935236
 20
119.0221783626
  0
VERTEX
  8
0
 62
7
  6
CONTINUOUS
 10
163.6830489445
 20
119.112559365
  0
VERTEX
  8
0
 62
7
  6
CONTINUOUS
 10
163.7455621505
 20
119.2071189493
  0
VERTEX
  8
0
 62
7
  6
CONTINUOUS
 10
163.8053490307
 20
119.3044978131
  0
VERTEX
  8
0
 62
7
  6
CONTINUOUS
 10
163.8615525212
 20
119.4033044205
  0
VERTEX
  8
0
 62
7
  6
CONTINUOUS
 10
163.9136144545
 20
119.5022678285
  0
VERTEX
  8
0
 62
7
  6
CONTINUOUS
 10
163.9611704558
 20
119.6001170429
  0
VERTEX
  8
0
 62
7
  6
CONTINUOUS
 10
164.0039969842
 20
119.6955411906
  0
VERTEX
  8
0
 62
7
  6
CONTINUOUS
 10
164.0428831511
 20
119.7894325604
  0
VERTEX
  8
0
 62
7
  6
CONTINUOUS
 10
164.0791332889
 20
119.8845037553
  0
VERTEX
  8
0
 62
7
  6
CONTINUOUS
 10
164.1128983015
 20
119.9811922606
  0
VERTEX
  8
0
 62
7
  6
CONTINUOUS
 10
164.1438862377
 20
120.0787431525
  0
VERTEX
  8
0
 62
7
  6
CONTINUOUS
 10
164.1720383434
 20
120.1769458079
  0
VERTEX
  8
0
 62
7
  6
CONTINUOUS
 10
164.1973591182
 20
120.2758735576
  0
VERTEX
  8
0
 62
7
  6
CONTINUOUS
 10
164.2198444097
 20
120.3755942036
  0
VERTEX
  8
0
 62
7
  6
CONTINUOUS
 10
164.2394545494
 20
120.4759711874
  0
VERTEX
  8
0
 62
7
  6
CONTINUOUS
 10
164.256126479
 20
120.5766704481
  0
VERTEX
  8
0
 62
7
  6
CONTINUOUS
 10
164.2698992514
 20
120.6778451401
  0
VERTEX
  8
0
 62
7
  6
CONTINUOUS
 10
164.2808801662
 20
120.7806514872
  0
VERTEX
  8
0
 62
7
  6
CONTINUOUS
 10
164.2890481894
 20
120.8863678704
  0
VERTEX
  8
0
 62
7
  6
CONTINUOUS
 10
164.294220541
 20
120.9962899142
  0
VERTEX
  8
0
 62
7
  6
CONTINUOUS
 10
164.2960526317
 20
121.1117600345
  0
SEQEND
  0
POLYLINE
  8
0
 62
7
  6
CONTINUOUS
 66
1
 70
0
  0
VERTEX
  8
0
 62
7
  6
CONTINUOUS
 10
135.7960526156
 20
117.7480846688
  0
VERTEX
  8
0
 62
7
  6
CONTINUOUS
 10
135.9214434975
 20
117.7508899519
  0
VERTEX
  8
0
 62
7
  6
CONTINUOUS
 10
136.0406501461
 20
117.7587421818
  0
VERTEX
  8
0
 62
7
  6
CONTINUOUS
 10
136.1549822718
 20
117.7710257551
  0
VERTEX
  8
0
 62
7
  6
CONTINUOUS
 10
136.2657597661
 20
117.7874072693
  0
VERTEX
  8
0
 62
7
  6
CONTINUOUS
 10
136.3743216982
 20
117.8078030336
  0
VERTEX
  8
0
 62
7
  6
CONTINUOUS
 10
136.4818177448
 20
117.8323165184
  0
VERTEX
  8
0
 62
7
  6
CONTINUOUS
 10
136.5882851567
 20
117.8609499357
  0
VERTEX
  8
0
 62
7
  6
CONTINUOUS
 10
136.6934068976
 20
117.8935898443
  0
VERTEX
  8
0
 62
7
  6
CONTINUOUS
 10
136.7968677816
 20
117.9300679122
  0
VERTEX
  8
0
 62
7
  6
CONTINUOUS
 10
136.8985114734
 20
117.9702547082
  0
VERTEX
  8
0
 62
7
  6
CONTINUOUS
 10
136.9982122151
 20
118.0140118797
  0
VERTEX
  8
0
 62
7
  6
CONTINUOUS
 10
137.0958644224
 20
118.0612116815
  0
VERTEX
  8
0
 62
7
  6
CONTINUOUS
 10
137.1917279342
 20
118.1119235273
  0
VERTEX
  8
0
 62
7
  6
CONTINUOUS
 10
137.2859283071
 20
118.1661663786
  0
VERTEX
  8
0
 62
7
  6
CONTINUOUS
 10
137.3782582048
 20
118.2238014925
  0
VERTEX
  8
0
 62
7
  6
CONTINUOUS
 10
137.4683249224
 20
118.284554511
  0
VERTEX
  8
0
 62
7
  6
CONTINUOUS
 10
137.5555654068
 20
118.347939597
  0
VERTEX
  8
0
 62
7
  6
CONTINUOUS
 10
137.6398699869
 20
118.4137260489
  0
VERTEX
  8
0
 62
7
  6
CONTINUOUS
 10
137.7214174936
 20
118.4819240565
  0
VERTEX
  8
0
 62
7
  6
CONTINUOUS
 10
137.8002686551
 20
118.5524766872
  0
VERTEX
  8
0
 62
7
  6
CONTINUOUS
 10
137.8764066198
 20
118.6252627494
  0
VERTEX
  8
0
 62
7
  6
CONTINUOUS
 10
137.9499004251
 20
118.7002530309
  0
VERTEX
  8
0
 62
7
  6
CONTINUOUS
 10
138.0207431503
 20
118.7773295775
  0
VERTEX
  8
0
 62
7
  6
CONTINUOUS
 10
138.0886647655
 20
118.8560686398
  0
VERTEX
  8
0
 62
7
  6
CONTINUOUS
 10
138.1541872579
 20
118.9369775342
  0
VERTEX
  8
0
 62
7
  6
CONTINUOUS
 10
138.2188935236
 20
119.0221783626
  0
VERTEX
  8
0
 62
7
  6
CONTINUOUS
 10
138.2830489446
 20
119.112559365
  0
VERTEX
  8
0
 62
7
  6
CONTINUOUS
 10
138.3455621505
 20
119.2071189494
  0
VERTEX
  8
0
 62
7
  6
CONTINUOUS
 10
138.4053490307
 20
119.3044978131
  0
VERTEX
  8
0
 62
7
  6
CONTINUOUS
 10
138.4615525212
 20
119.4033044205
  0
VERTEX
  8
0
 62
7
  6
CONTINUOUS
 10
138.5136144545
 20
119.5022678285
  0
VERTEX
  8
0
 62
7
  6
CONTINUOUS
 10
138.5611704558
 20
119.6001170429
  0
VERTEX
  8
0
 62
7
  6
CONTINUOUS
 10
138.6039969842
 20
119.6955411906
  0
VERTEX
  8
0
 62
7
  6
CONTINUOUS
 10
138.6428831511
 20
119.7894325604
  0
VERTEX
  8
0
 62
7
  6
CONTINUOUS
 10
138.6791332889
 20
119.8845037553
  0
VERTEX
  8
0
 62
7
  6
CONTINUOUS
 10
138.7128983015
 20
119.9811922607
  0
VERTEX
  8
0
 62
7
  6
CONTINUOUS
 10
138.7438862378
 20
120.0787431525
  0
VERTEX
  8
0
 62
7
  6
CONTINUOUS
 10
138.7720383434
 20
120.1769458079
  0
VERTEX
  8
0
 62
7
  6
CONTINUOUS
 10
138.7973591182
 20
120.2758735576
  0
VERTEX
  8
0
 62
7
  6
CONTINUOUS
 10
138.8198444097
 20
120.3755942036
  0
VERTEX
  8
0
 62
7
  6
CONTINUOUS
 10
138.8394545494
 20
120.4759711875
  0
VERTEX
  8
0
 62
7
  6
CONTINUOUS
 10
138.856126479
 20
120.5766704482
  0
VERTEX
  8
0
 62
7
  6
CONTINUOUS
 10
138.8698992514
 20
120.6778451402
  0
VERTEX
  8
0
 62
7
  6
CONTINUOUS
 10
138.8808801662
 20
120.7806514872
  0
VERTEX
  8
0
 62
7
  6
CONTINUOUS
 10
138.8890481894
 20
120.8863678704
  0
VERTEX
  8
0
 62
7
  6
CONTINUOUS
 10
138.894220541
 20
120.9962899142
  0
VERTEX
  8
0
 62
7
  6
CONTINUOUS
 10
138.8960526317
 20
121.1117600346
  0
SEQEND
  0
POLYLINE
  8
0
 62
7
  6
CONTINUOUS
 66
1
 70
0
  0
VERTEX
  8
0
 62
7
  6
CONTINUOUS
 10
110.3960526156
 20
117.7480846688
  0
VERTEX
  8
0
 62
7
  6
CONTINUOUS
 10
110.5214434975
 20
117.7508899519
  0
VERTEX
  8
0
 62
7
  6
CONTINUOUS
 10
110.6406501461
 20
117.7587421818
  0
VERTEX
  8
0
 62
7
  6
CONTINUOUS
 10
110.7549822718
 20
117.7710257551
  0
VERTEX
  8
0
 62
7
  6
CONTINUOUS
 10
110.8657597661
 20
117.7874072693
  0
VERTEX
  8
0
 62
7
  6
CONTINUOUS
 10
110.9743216982
 20
117.8078030336
  0
VERTEX
  8
0
 62
7
  6
CONTINUOUS
 10
111.0818177448
 20
117.8323165184
  0
VERTEX
  8
0
 62
7
  6
CONTINUOUS
 10
111.1882851567
 20
117.8609499357
  0
VERTEX
  8
0
 62
7
  6
CONTINUOUS
 10
111.2934068976
 20
117.8935898443
  0
VERTEX
  8
0
 62
7
  6
CONTINUOUS
 10
111.3968677816
 20
117.9300679122
  0
VERTEX
  8
0
 62
7
  6
CONTINUOUS
 10
111.4985114734
 20
117.9702547082
  0
VERTEX
  8
0
 62
7
  6
CONTINUOUS
 10
111.5982122151
 20
118.0140118797
  0
VERTEX
  8
0
 62
7
  6
CONTINUOUS
 10
111.6958644224
 20
118.0612116815
  0
VERTEX
  8
0
 62
7
  6
CONTINUOUS
 10
111.7917279342
 20
118.1119235273
  0
VERTEX
  8
0
 62
7
  6
CONTINUOUS
 10
111.8859283071
 20
118.1661663786
  0
VERTEX
  8
0
 62
7
  6
CONTINUOUS
 10
111.9782582048
 20
118.2238014925
  0
VERTEX
  8
0
 62
7
  6
CONTINUOUS
 10
112.0683249225
 20
118.284554511
  0
VERTEX
  8
0
 62
7
  6
CONTINUOUS
 10
112.1555654069
 20
118.347939597
  0
VERTEX
  8
0
 62
7
  6
CONTINUOUS
 10
112.239869987
 20
118.4137260489
  0
VERTEX
  8
0
 62
7
  6
CONTINUOUS
 10
112.3214174936
 20
118.4819240565
  0
VERTEX
  8
0
 62
7
  6
CONTINUOUS
 10
112.4002686551
 20
118.5524766873
  0
VERTEX
  8
0
 62
7
  6
CONTINUOUS
 10
112.4764066198
 20
118.6252627494
  0
VERTEX
  8
0
 62
7
  6
CONTINUOUS
 10
112.5499004251
 20
118.7002530309
  0
VERTEX
  8
0
 62
7
  6
CONTINUOUS
 10
112.6207431503
 20
118.7773295775
  0
VERTEX
  8
0
 62
7
  6
CONTINUOUS
 10
112.6886647655
 20
118.8560686398
  0
VERTEX
  8
0
 62
7
  6
CONTINUOUS
 10
112.7541872579
 20
118.9369775343
  0
VERTEX
  8
0
 62
7
  6
CONTINUOUS
 10
112.8188935236
 20
119.0221783626
  0
VERTEX
  8
0
 62
7
  6
CONTINUOUS
 10
112.8830489446
 20
119.1125593651
  0
VERTEX
  8
0
 62
7
  6
CONTINUOUS
 10
112.9455621505
 20
119.2071189494
  0
VERTEX
  8
0
 62
7
  6
CONTINUOUS
 10
113.0053490307
 20
119.3044978131
  0
VERTEX
  8
0
 62
7
  6
CONTINUOUS
 10
113.0615525212
 20
119.4033044205
  0
VERTEX
  8
0
 62
7
  6
CONTINUOUS
 10
113.1136144545
 20
119.5022678286
  0
VERTEX
  8
0
 62
7
  6
CONTINUOUS
 10
113.1611704558
 20
119.6001170429
  0
VERTEX
  8
0
 62
7
  6
CONTINUOUS
 10
113.2039969842
 20
119.6955411906
  0
VERTEX
  8
0
 62
7
  6
CONTINUOUS
 10
113.2428831511
 20
119.7894325604
  0
VERTEX
  8
0
 62
7
  6
CONTINUOUS
 10
113.2791332889
 20
119.8845037554
  0
VERTEX
  8
0
 62
7
  6
CONTINUOUS
 10
113.3128983015
 20
119.9811922607
  0
VERTEX
  8
0
 62
7
  6
CONTINUOUS
 10
113.3438862378
 20
120.0787431526
  0
VERTEX
  8
0
 62
7
  6
CONTINUOUS
 10
113.3720383434
 20
120.1769458079
  0
VERTEX
  8
0
 62
7
  6
CONTINUOUS
 10
113.3973591182
 20
120.2758735577
  0
VERTEX
  8
0
 62
7
  6
CONTINUOUS
 10
113.4198444097
 20
120.3755942036
  0
VERTEX
  8
0
 62
7
  6
CONTINUOUS
 10
113.4394545494
 20
120.4759711875
  0
VERTEX
  8
0
 62
7
  6
CONTINUOUS
 10
113.456126479
 20
120.5766704482
  0
VERTEX
  8
0
 62
7
  6
CONTINUOUS
 10
113.4698992514
 20
120.6778451402
  0
VERTEX
  8
0
 62
7
  6
CONTINUOUS
 10
113.4808801662
 20
120.7806514873
  0
VERTEX
  8
0
 62
7
  6
CONTINUOUS
 10
113.4890481894
 20
120.8863678705
  0
VERTEX
  8
0
 62
7
  6
CONTINUOUS
 10
113.494220541
 20
120.9962899143
  0
VERTEX
  8
0
 62
7
  6
CONTINUOUS
 10
113.4960526317
 20
121.1117600346
  0
SEQEND
  0
LINE
  8
0
 62
7
  6
CONTINUOUS
 10
324.8960526317
 20
115.2361842105
 11
311.8960526317
 21
115.2361842105
  0
LINE
  8
0
 62
7
  6
CONTINUOUS
 10
300.8960526317
 20
115.2361842105
 11
286.4960526317
 21
115.2361842105
  0
LINE
  8
0
 62
7
  6
CONTINUOUS
 10
275.4960526317
 20
115.2361842105
 11
261.0960526317
 21
115.2361842105
  0
LINE
  8
0
 62
7
  6
CONTINUOUS
 10
250.0960526317
 20
115.2361842105
 11
235.6960526317
 21
115.2361842105
  0
LINE
  8
0
 62
7
  6
CONTINUOUS
 10
224.6960526317
 20
115.2361842105
 11
210.2960526317
 21
115.2361842105
  0
LINE
  8
0
 62
7
  6
CONTINUOUS
 10
199.2960526317
 20
115.2361842105
 11
184.8960526317
 21
115.2361842105
  0
LINE
  8
0
 62
7
  6
CONTINUOUS
 10
173.8960526317
 20
115.2361842105
 11
159.4960526317
 21
115.2361842105
  0
LINE
  8
0
 62
7
  6
CONTINUOUS
 10
148.4960526317
 20
115.2361842105
 11
134.0960526317
 21
115.2361842105
  0
LINE
  8
0
 62
7
  6
CONTINUOUS
 10
123.0960526317
 20
115.2361842105
 11
108.6960526317
 21
115.2361842105
  0
LINE
  8
0
 62
7
  6
CONTINUOUS
 10
97.6960526317
 20
115.2361842105
 11
83.2960526317
 21
115.2361842105
  0
LINE
  8
0
 62
7
  6
CONTINUOUS
 10
72.2960526317
 20
115.2361842105
 11
57.8960526317
 21
115.2361842105
  0
LINE
  8
0
 62
7
  6
CONTINUOUS
 10
46.8960526317
 20
115.2361842105
 11
32.4960526317
 21
115.2361842105
  0
LINE
  8
0
 62
7
  6
CONTINUOUS
 10
21.1960526317
 20
115.2361842105
 11
23.1960526317
 21
115.2361842105
  0
LINE
  8
0
 62
7
  6
CONTINUOUS
 10
242.7960526317
 20
116.3361842105
 11
235.6960526317
 21
116.3361842105
  0
LINE
  8
0
 62
7
  6
CONTINUOUS
 10
224.6960526317
 20
116.3361842105
 11
210.2960526317
 21
116.3361842105
  0
LINE
  8
0
 62
7
  6
CONTINUOUS
 10
199.2960526317
 20
116.3361842105
 11
184.8960526317
 21
116.3361842105
  0
LINE
  8
0
 62
7
  6
CONTINUOUS
 10
173.8960526317
 20
116.3361842105
 11
159.4960526317
 21
116.3361842105
  0
LINE
  8
0
 62
7
  6
CONTINUOUS
 10
148.4960526317
 20
116.3361842105
 11
134.0960526317
 21
116.3361842105
  0
LINE
  8
0
 62
7
  6
CONTINUOUS
 10
123.0960526317
 20
116.3361842105
 11
108.6960526317
 21
116.3361842105
  0
LINE
  8
0
 62
7
  6
CONTINUOUS
 10
103.2960898613
 20
117.7480846688
 11
110.3960526156
 21
117.7480846688
  0
LINE
  8
0
 62
7
  6
CONTINUOUS
 10
121.3960527201
 20
117.7480846688
 11
135.7960526156
 21
117.7480846688
  0
LINE
  8
0
 62
7
  6
CONTINUOUS
 10
146.7960527201
 20
117.7480846688
 11
161.1960526156
 21
117.7480846688
  0
LINE
  8
0
 62
7
  6
CONTINUOUS
 10
172.1960527201
 20
117.7480846688
 11
186.5960526156
 21
117.7480846688
  0
LINE
  8
0
 62
7
  6
CONTINUOUS
 10
197.5960527201
 20
117.7480846688
 11
211.9960526156
 21
117.7480846688
  0
LINE
  8
0
 62
7
  6
CONTINUOUS
 10
222.9960527201
 20
117.7480846688
 11
237.3960526156
 21
117.7480846688
  0
LINE
  8
DEFAULT_1
 62
2
  6
CENTER
 10
178.2960526317
 20
118.0361842105
 11
175.0461526317
 21
118.0361842105
  0
LINE
  8
0
 62
2
  6
CONTINUOUS
 10
174.0960526317
 20
118.0361842105
 11
171.9960526317
 21
118.0361842105
  0
LINE
  8
DEFAULT_1
 62
2
  6
CENTER
 10
167.7960526317
 20
118.0361842105
 11
171.0459526317
 21
118.0361842105
  0
LINE
  8
0
 62
7
  6
CONTINUOUS
 10
322.6983355121
 20
118.726184206
 11
324.8960526317
 21
118.7261842105
  0
LINE
  8
0
 62
7
  6
CONTINUOUS
 10
160.5167167863
 20
143.9334284011
 11
163.1271721164
 21
137.2689078093
  0
LINE
  8
0
 62
7
  6
CONTINUOUS
 10
172.8960526317
 20
148.7361842105
 11
172.8960526317
 21
144.0428426848
  0
LINE
  8
DEFAULT_1
 62
2
  6
CENTER
 10
173.0460526317
 20
123.2861842105
 11
173.0460526317
 21
120.0362842105
  0
LINE
  8
0
 62
2
  6
CONTINUOUS
 10
173.0460526317
 20
119.0861842105
 11
173.0460526317
 21
116.9861842105
  0
LINE
  8
DEFAULT_1
 62
2
  6
CENTER
 10
173.0460526317
 20
112.7861842105
 11
173.0460526317
 21
116.0360842105
  0
LINE
  8
0
 62
7
  6
CONTINUOUS
 10
173.1960526317
 20
87.3361842105
 11
173.1960526317
 21
92.0295294703
  0
LINE
  8
0
 62
7
  6
CONTINUOUS
 10
175.8960526317
 20
113.2361842105
 11
175.8960526317
 21
99.168650366
  0
LINE
  8
0
 62
7
  6
CONTINUOUS
 10
176.6960526317
 20
96.2861842105
 11
176.6960526317
 21
97.8172606031
  0
LINE
  8
0
 62
7
  6
CONTINUOUS
 10
176.9960526317
 20
99.168650366
 11
176.9960526317
 21
113.2361842105
  0
LINE
  8
0
 62
7
  6
CONTINUOUS
 10
181.7960526317
 20
113.2361842105
 11
181.7960526317
 21
99.168650366
  0
LINE
  8
0
 62
7
  6
CONTINUOUS
 10
313.5960526317
 20
120.6615242443
 11
299.1960526317
 21
120.6615242443
  0
LINE
  8
0
 62
7
  6
CONTINUOUS
 10
288.1960526317
 20
120.6615242443
 11
273.7960526317
 21
120.6615242443
  0
LINE
  8
0
 62
7
  6
CONTINUOUS
 10
262.7960526317
 20
120.6615242443
 11
248.3960526317
 21
120.6615242443
  0
LINE
  8
0
 62
7
  6
CONTINUOUS
 10
237.3960526317
 20
120.6615242443
 11
222.9960526317
 21
120.6615242443
  0
LINE
  8
0
 62
7
  6
CONTINUOUS
 10
211.9960526317
 20
120.6615242443
 11
197.5960526317
 21
120.6615242443
  0
LINE
  8
0
 62
7
  6
CONTINUOUS
 10
186.5960526317
 20
120.6615242443
 11
172.1960526317
 21
120.6615242443
  0
LINE
  8
0
 62
7
  6
CONTINUOUS
 10
161.1960526317
 20
120.6615242443
 11
146.7960526317
 21
120.6615242443
  0
LINE
  8
0
 62
7
  6
CONTINUOUS
 10
135.7960526317
 20
120.6615242443
 11
121.3960526317
 21
120.6615242443
  0
LINE
  8
0
 62
7
  6
CONTINUOUS
 10
110.3960526317
 20
120.6615242443
 11
95.9960526317
 21
120.6615242443
  0
LINE
  8
0
 62
7
  6
CONTINUOUS
 10
84.9960526317
 20
120.6615242443
 11
70.5960526317
 21
120.6615242443
  0
LINE
  8
0
 62
7
  6
CONTINUOUS
 10
59.5960526317
 20
120.6615242443
 11
45.1960526317
 21
120.6615242443
  0
LINE
  8
0
 62
7
  6
CONTINUOUS
 10
34.1960526317
 20
120.6615242443
 11
21.1960526317
 21
120.6615242443
  0
LINE
  8
0
 62
7
  6
CONTINUOUS
 10
322.8960526317
 20
120.6615242443
 11
324.8960526317
 21
120.6615242443
  0
POLYLINE
  8
0
 62
7
  6
CONTINUOUS
 66
1
 70
0
  0
VERTEX
  8
0
 62
7
  6
CONTINUOUS
 10
324.8960526317
 20
118.7261842105
  0
VERTEX
  8
0
 62
7
  6
CONTINUOUS
 10
324.9188786779
 20
118.7256713145
  0
VERTEX
  8
0
 62
7
  6
CONTINUOUS
 10
324.9413143097
 20
118.7241587848
  0
VERTEX
  8
0
 62
7
  6
CONTINUOUS
 10
324.9632452258
 20
118.7216885178
  0
VERTEX
  8
0
 62
7
  6
CONTINUOUS
 10
324.9845663427
 20
118.7183055392
  0
VERTEX
  8
0
 62
7
  6
CONTINUOUS
 10
325.0051820494
 20
118.7140574441
  0
VERTEX
  8
0
 62
7
  6
CONTINUOUS
 10
325.0250062469
 20
118.7089938256
  0
VERTEX
  8
0
 62
7
  6
CONTINUOUS
 10
325.0439621866
 20
118.7031657273
  0
VERTEX
  8
0
 62
7
  6
CONTINUOUS
 10
325.0619821543
 20
118.6966251474
  0
VERTEX
  8
0
 62
7
  6
CONTINUOUS
 10
325.0790069963
 20
118.689424627
  0
VERTEX
  8
0
 62
7
  6
CONTINUOUS
 10
325.0949856451
 20
118.681616893
  0
VERTEX
  8
0
 62
7
  6
CONTINUOUS
 10
325.1098745771
 20
118.6732545864
  0
VERTEX
  8
0
 62
7
  6
CONTINUOUS
 10
325.1236372862
 20
118.6643900552
  0
VERTEX
  8
0
 62
7
  6
CONTINUOUS
 10
325.1362437929
 20
118.6550751994
  0
VERTEX
  8
0
 62
7
  6
CONTINUOUS
 10
325.147670201
 20
118.6453613573
  0
VERTEX
  8
0
 62
7
  6
CONTINUOUS
 10
325.1578983077
 20
118.6352992209
  0
VERTEX
  8
0
 62
7
  6
CONTINUOUS
 10
325.1669152662
 20
118.62493877
  0
VERTEX
  8
0
 62
7
  6
CONTINUOUS
 10
325.1747132994
 20
118.6143292159
  0
VERTEX
  8
0
 62
7
  6
CONTINUOUS
 10
325.1812894558
 20
118.6035189499
  0
VERTEX
  8
0
 62
7
  6
CONTINUOUS
 10
325.1866454065
 20
118.5925554794
  0
VERTEX
  8
0
 62
7
  6
CONTINUOUS
 10
325.1907872643
 20
118.5814853615
  0
VERTEX
  8
0
 62
7
  6
CONTINUOUS
 10
325.1937254201
 20
118.5703541234
  0
VERTEX
  8
0
 62
7
  6
CONTINUOUS
 10
325.1954743853
 20
118.5592061681
  0
VERTEX
  8
0
 62
7
  6
CONTINUOUS
 10
325.1960526317
 20
118.5480846688
  0
SEQEND
  0
POLYLINE
  8
0
 62
7
  6
CONTINUOUS
 66
1
 70
0
  0
VERTEX
  8
0
 62
7
  6
CONTINUOUS
 10
322.6983355121
 20
118.726184206
  0
VERTEX
  8
0
 62
7
  6
CONTINUOUS
 10
322.6566134609
 20
118.7278721081
  0
VERTEX
  8
0
 62
7
  6
CONTINUOUS
 10
322.6146332244
 20
118.7329725294
  0
VERTEX
  8
0
 62
7
  6
CONTINUOUS
 10
322.5726744679
 20
118.741524361
  0
VERTEX
  8
0
 62
7
  6
CONTINUOUS
 10
322.5310054482
 20
118.7535483172
  0
VERTEX
  8
0
 62
7
  6
CONTINUOUS
 10
322.4898701311
 20
118.769055915
  0
VERTEX
  8
0
 62
7
  6
CONTINUOUS
 10
322.4495152713
 20
118.7880425915
  0
VERTEX
  8
0
 62
7
  6
CONTINUOUS
 10
322.4100319822
 20
118.810576139
  0
VERTEX
  8
0
 62
7
  6
CONTINUOUS
 10
322.371308137
 20
118.8368996713
  0
VERTEX
  8
0
 62
7
  6
CONTINUOUS
 10
322.3333199089
 20
118.8672795959
  0
VERTEX
  8
0
 62
7
  6
CONTINUOUS
 10
322.29605572
 20
118.901972599
  0
SEQEND
  0
LINE
  8
0
 62
7
  6
CONTINUOUS
 10
164.1514035496
 20
137.6700935161
 11
164.064933147
 21
137.8908533857
  0
LINE
  8
0
 62
7
  6
CONTINUOUS
 10
181.9406833051
 20
98.4027973798
 11
182.0271808825
 21
98.1819525014
  0
LINE
  8
0
 62
7
  6
CONTINUOUS
 10
185.575391107
 20
92.1389370397
 11
182.964924381
 21
98.8039584678
  0
LINE
  8
0
 62
7
  6
CONTINUOUS
 10
182.0960526317
 20
97.8172606031
 11
182.0960526317
 21
96.2861842105
  0
LINE
  8
0
 62
7
  6
CONTINUOUS
 10
182.8960526317
 20
113.2361842105
 11
182.8960526317
 21
99.168650366
  0
LINE
  8
0
 62
7
  6
CONTINUOUS
 10
185.5960526317
 20
92.0295294703
 11
185.5960526317
 21
87.3361842105
  0
LINE
  8
0
 62
7
  6
CONTINUOUS
 10
185.8960526317
 20
144.0428426848
 11
185.8960526317
 21
148.7361842105
  0
LINE
  8
0
 62
7
  6
CONTINUOUS
 10
188.5960526317
 20
136.9041935304
 11
188.5960526317
 21
121.1117593523
  0
LINE
  8
0
 62
7
  6
CONTINUOUS
 10
189.3960526317
 20
138.2555676646
 11
189.3960526317
 21
139.7861842105
  0
LINE
  8
0
 62
7
  6
CONTINUOUS
 10
189.6960526317
 20
121.1117600346
 11
189.6960526317
 21
136.9041935304
  0
LINE
  8
0
 62
7
  6
CONTINUOUS
 10
173.2167141565
 20
92.1389370397
 11
175.8271808825
 21
98.8039584678
  0
LINE
  8
0
 62
7
  6
CONTINUOUS
 10
176.764924381
 20
98.1819525014
 11
176.8514219583
 21
98.4027973798
  0
LINE
  8
0
 62
7
  6
CONTINUOUS
 10
194.7271721164
 20
137.8908533857
 11
194.6407017139
 21
137.6700935161
  0
LINE
  8
0
 62
7
  6
CONTINUOUS
 10
195.664933147
 20
137.2689078093
 11
198.2753884771
 21
143.9334284011
  0
POLYLINE
  8
0
 62
7
  6
CONTINUOUS
 66
1
 70
0
  0
VERTEX
  8
0
 62
7
  6
CONTINUOUS
 10
194.4960526317
 20
121.1117606017
  0
VERTEX
  8
0
 62
7
  6
CONTINUOUS
 10
194.4979081486
 20
120.9961941061
  0
VERTEX
  8
0
 62
7
  6
CONTINUOUS
 10
194.5031382791
 20
120.8862498765
  0
VERTEX
  8
0
 62
7
  6
CONTINUOUS
 10
194.5113867828
 20
120.7805065941
  0
VERTEX
  8
0
 62
7
  6
CONTINUOUS
 10
194.522457136
 20
120.6776304113
  0
VERTEX
  8
0
 62
7
  6
CONTINUOUS
 10
194.5363250381
 20
120.5763102522
  0
VERTEX
  8
0
 62
7
  6
CONTINUOUS
 10
194.5531037933
 20
120.4752997057
  0
VERTEX
  8
0
 62
7
  6
CONTINUOUS
 10
194.5728107933
 20
120.3745129521
  0
VERTEX
  8
0
 62
7
  6
CONTINUOUS
 10
194.5953678772
 20
120.274427713
  0
VERTEX
  8
0
 62
7
  6
CONTINUOUS
 10
194.6207677973
 20
120.1751025703
  0
VERTEX
  8
0
 62
7
  6
CONTINUOUS
 10
194.6490185884
 20
120.0764848664
  0
VERTEX
  8
0
 62
7
  6
CONTINUOUS
 10
194.6800763371
 20
119.978707759
  0
VERTEX
  8
0
 62
7
  6
CONTINUOUS
 10
194.7139134307
 20
119.8819012811
  0
VERTEX
  8
0
 62
7
  6
CONTINUOUS
 10
194.7505698402
 20
119.7860151146
  0
VERTEX
  8
0
 62
7
  6
CONTINUOUS
 10
194.7900396351
 20
119.6911432344
  0
VERTEX
  8
0
 62
7
  6
CONTINUOUS
 10
194.8322877458
 20
119.5974627795
  0
VERTEX
  8
0
 62
7
  6
CONTINUOUS
 10
194.8773778659
 20
119.5048953176
  0
VERTEX
  8
0
 62
7
  6
CONTINUOUS
 10
194.9253933482
 20
119.4133441987
  0
VERTEX
  8
0
 62
7
  6
CONTINUOUS
 10
194.9761156034
 20
119.323279467
  0
VERTEX
  8
0
 62
7
  6
CONTINUOUS
 10
195.0292946192
 20
119.2351005604
  0
VERTEX
  8
0
 62
7
  6
CONTINUOUS
 10
195.0867599962
 20
119.1460224228
  0
VERTEX
  8
0
 62
7
  6
CONTINUOUS
 10
195.1517853164
 20
119.0520032809
  0
VERTEX
  8
0
 62
7
  6
CONTINUOUS
 10
195.2280961646
 20
118.9496728094
  0
VERTEX
  8
0
 62
7
  6
CONTINUOUS
 10
195.3160941058
 20
118.8410363351
  0
VERTEX
  8
0
 62
7
  6
CONTINUOUS
 10
195.4096864716
 20
118.7350834821
  0
VERTEX
  8
0
 62
7
  6
CONTINUOUS
 10
195.5012948391
 20
118.6397664652
  0
VERTEX
  8
0
 62
7
  6
CONTINUOUS
 10
195.587806204
 20
118.5564873031
  0
VERTEX
  8
0
 62
7
  6
CONTINUOUS
 10
195.6712436829
 20
118.4817630781
  0
VERTEX
  8
0
 62
7
  6
CONTINUOUS
 10
195.7543172979
 20
118.4123591701
  0
VERTEX
  8
0
 62
7
  6
CONTINUOUS
 10
195.8391975215
 20
118.346210231
  0
VERTEX
  8
0
 62
7
  6
CONTINUOUS
 10
195.9261776142
 20
118.2830846114
  0
VERTEX
  8
0
 62
7
  6
CONTINUOUS
 10
196.0152419814
 20
118.2230227044
  0
VERTEX
  8
0
 62
7
  6
CONTINUOUS
 10
196.1062227178
 20
118.1661766474
  0
VERTEX
  8
0
 62
7
  6
CONTINUOUS
 10
196.1992333896
 20
118.1125469203
  0
VERTEX
  8
0
 62
7
  6
CONTINUOUS
 10
196.2945989705
 20
118.0620357541
  0
VERTEX
  8
0
 62
7
  6
CONTINUOUS
 10
196.3922785488
 20
118.0147855441
  0
VERTEX
  8
0
 62
7
  6
CONTINUOUS
 10
196.4921837952
 20
117.9709291018
  0
VERTEX
  8
0
 62
7
  6
CONTINUOUS
 10
196.5939665926
 20
117.9306745748
  0
VERTEX
  8
0
 62
7
  6
CONTINUOUS
 10
196.6973335836
 20
117.8941839775
  0
VERTEX
  8
0
 62
7
  6
CONTINUOUS
 10
196.802195477
 20
117.8615299681
  0
VERTEX
  8
0
 62
7
  6
CONTINUOUS
 10
196.9084746622
 20
117.8327956896
  0
VERTEX
  8
0
 62
7
  6
CONTINUOUS
 10
197.0157325184
 20
117.8081524961
  0
VERTEX
  8
0
 62
7
  6
CONTINUOUS
 10
197.1241028825
 20
117.7876353746
  0
VERTEX
  8
0
 62
7
  6
CONTINUOUS
 10
197.2348607404
 20
117.7711445762
  0
VERTEX
  8
0
 62
7
  6
CONTINUOUS
 10
197.3494633213
 20
117.7587847048
  0
VERTEX
  8
0
 62
7
  6
CONTINUOUS
 10
197.4693443128
 20
117.7508968571
  0
VERTEX
  8
0
 62
7
  6
CONTINUOUS
 10
197.5960527201
 20
117.7480846688
  0
SEQEND
  0
LINE
  8
0
 62
7
  6
CONTINUOUS
 10
194.4960526317
 20
136.9041935304
 11
194.4960526317
 21
121.1117606017
  0
LINE
  8
0
 62
7
  6
CONTINUOUS
 10
194.7960526317
 20
139.7861842105
 11
194.7960526317
 21
138.2555676646
  0
LINE
  8
0
 62
7
  6
CONTINUOUS
 10
195.5960526317
 20
136.9041935304
 11
195.5960526317
 21
121.1117593523
  0
LINE
  8
0
 62
7
  6
CONTINUOUS
 10
198.2960526317
 20
148.7361842105
 11
198.2960526317
 21
144.0428426848
  0
LINE
  8
0
 62
7
  6
CONTINUOUS
 10
198.5960526317
 20
87.3361842105
 11
198.5960526317
 21
92.0295294703
  0
LINE
  8
0
 62
7
  6
CONTINUOUS
 10
201.2960526317
 20
113.2361842105
 11
201.2960526317
 21
99.168650366
  0
LINE
  8
0
 62
7
  6
CONTINUOUS
 10
202.0960526317
 20
96.2861842105
 11
202.0960526317
 21
97.8172606031
  0
LINE
  8
0
 62
7
  6
CONTINUOUS
 10
202.3960526317
 20
99.168650366
 11
202.3960526317
 21
113.2361842105
  0
LINE
  8
0
 62
7
  6
CONTINUOUS
 10
114.1960526317
 20
140.7861842105
 11
117.5960526317
 21
140.7861842105
  0
LINE
  8
0
 62
7
  6
CONTINUOUS
 10
139.5960526317
 20
140.7861842105
 11
142.9960526317
 21
140.7861842105
  0
LINE
  8
0
 62
7
  6
CONTINUOUS
 10
164.9960526317
 20
140.7861842105
 11
168.3960526317
 21
140.7861842105
  0
LINE
  8
0
 62
7
  6
CONTINUOUS
 10
190.3960526317
 20
140.7861842105
 11
193.7960526317
 21
140.7861842105
  0
LINE
  8
0
 62
7
  6
CONTINUOUS
 10
215.7960526317
 20
140.7861842105
 11
219.1960526317
 21
140.7861842105
  0
LINE
  8
0
 62
7
  6
CONTINUOUS
 10
241.1960526317
 20
140.7861842105
 11
244.5960526317
 21
140.7861842105
  0
LINE
  8
DEFAULT_1
 62
2
  6
CENTER
 10
9.094
 20
143.4361842105
 11
332.7979473684
 21
143.4361842105
  0
LINE
  8
0
 62
7
  6
CONTINUOUS
 10
185.9167167863
 20
143.9334284011
 11
188.5271721164
 21
137.2689078093
  0
LINE
  8
0
 62
7
  6
CONTINUOUS
 10
189.5514035496
 20
137.6700935161
 11
189.464933147
 21
137.8908533857
  0
LINE
  8
0
 62
7
  6
CONTINUOUS
 10
207.3406833051
 20
98.4027973798
 11
207.4271808825
 21
98.1819525014
  0
LINE
  8
0
 62
7
  6
CONTINUOUS
 10
210.975391107
 20
92.1389370397
 11
208.364924381
 21
98.8039584678
  0
LINE
  8
0
 62
7
  6
CONTINUOUS
 10
207.1960526317
 20
113.2361842105
 11
207.1960526317
 21
99.168650366
  0
LINE
  8
0
 62
7
  6
CONTINUOUS
 10
207.4960526317
 20
97.8172606031
 11
207.4960526317
 21
96.2861842105
  0
LINE
  8
0
 62
7
  6
CONTINUOUS
 10
208.2960526317
 20
113.2361842105
 11
208.2960526317
 21
99.168650366
  0
LINE
  8
0
 62
7
  6
CONTINUOUS
 10
210.9960526317
 20
92.0295294703
 11
210.9960526317
 21
87.3361842105
  0
LINE
  8
0
 62
7
  6
CONTINUOUS
 10
211.2960526317
 20
144.0428426848
 11
211.2960526317
 21
148.7361842105
  0
LINE
  8
0
 62
7
  6
CONTINUOUS
 10
198.6167141565
 20
92.1389370397
 11
201.2271808825
 21
98.8039584678
  0
LINE
  8
0
 62
7
  6
CONTINUOUS
 10
202.164924381
 20
98.1819525014
 11
202.2514219583
 21
98.4027973798
  0
LINE
  8
0
 62
7
  6
CONTINUOUS
 10
220.1271721164
 20
137.8908533857
 11
220.0407017139
 21
137.6700935161
  0
LINE
  8
0
 62
7
  6
CONTINUOUS
 10
221.064933147
 20
137.2689078093
 11
223.6753884771
 21
143.9334284011
  0
LINE
  8
0
 62
7
  6
CONTINUOUS
 10
322.5960526317
 20
151.4361842105
 11
315.5960526317
 21
151.4361842105
  0
LINE
  8
0
 62
7
  6
CONTINUOUS
 10
297.1960526317
 20
151.4361842105
 11
290.1960526317
 21
151.4361842105
  0
LINE
  8
0
 62
7
  6
CONTINUOUS
 10
271.7960526317
 20
151.4361842105
 11
264.7960526317
 21
151.4361842105
  0
LINE
  8
0
 62
7
  6
CONTINUOUS
 10
246.3960526317
 20
151.4361842105
 11
239.3960526317
 21
151.4361842105
  0
LINE
  8
0
 62
7
  6
CONTINUOUS
 10
220.9960526317
 20
151.4361842105
 11
213.9960526317
 21
151.4361842105
  0
LINE
  8
0
 62
7
  6
CONTINUOUS
 10
195.5960526317
 20
151.4361842105
 11
188.5960526317
 21
151.4361842105
  0
LINE
  8
0
 62
7
  6
CONTINUOUS
 10
170.1960526317
 20
151.4361842105
 11
163.1960526317
 21
151.4361842105
  0
LINE
  8
0
 62
7
  6
CONTINUOUS
 10
144.7960526317
 20
151.4361842105
 11
137.7960526317
 21
151.4361842105
  0
LINE
  8
0
 62
7
  6
CONTINUOUS
 10
119.3960526317
 20
151.4361842105
 11
112.3960526317
 21
151.4361842105
  0
LINE
  8
0
 62
7
  6
CONTINUOUS
 10
93.9960526317
 20
151.4361842105
 11
86.9960526317
 21
151.4361842105
  0
LINE
  8
0
 62
7
  6
CONTINUOUS
 10
68.5960526317
 20
151.4361842105
 11
61.5960526317
 21
151.4361842105
  0
LINE
  8
0
 62
7
  6
CONTINUOUS
 10
43.1960526317
 20
151.4361842105
 11
36.1960526317
 21
151.4361842105
  0
POLYLINE
  8
0
 62
7
  6
CONTINUOUS
 66
1
 70
0
  0
VERTEX
  8
0
 62
7
  6
CONTINUOUS
 10
219.8960526317
 20
121.1117606018
  0
VERTEX
  8
0
 62
7
  6
CONTINUOUS
 10
219.8979081485
 20
120.9961941062
  0
VERTEX
  8
0
 62
7
  6
CONTINUOUS
 10
219.9031382791
 20
120.8862498766
  0
VERTEX
  8
0
 62
7
  6
CONTINUOUS
 10
219.9113867828
 20
120.7805065942
  0
VERTEX
  8
0
 62
7
  6
CONTINUOUS
 10
219.922457136
 20
120.6776304114
  0
VERTEX
  8
0
 62
7
  6
CONTINUOUS
 10
219.9363250381
 20
120.5763102523
  0
VERTEX
  8
0
 62
7
  6
CONTINUOUS
 10
219.9531037933
 20
120.4752997058
  0
VERTEX
  8
0
 62
7
  6
CONTINUOUS
 10
219.9728107933
 20
120.3745129522
  0
VERTEX
  8
0
 62
7
  6
CONTINUOUS
 10
219.9953678772
 20
120.2744277131
  0
VERTEX
  8
0
 62
7
  6
CONTINUOUS
 10
220.0207677973
 20
120.1751025704
  0
VERTEX
  8
0
 62
7
  6
CONTINUOUS
 10
220.0490185884
 20
120.0764848665
  0
VERTEX
  8
0
 62
7
  6
CONTINUOUS
 10
220.0800763371
 20
119.9787077591
  0
VERTEX
  8
0
 62
7
  6
CONTINUOUS
 10
220.1139134307
 20
119.8819012812
  0
VERTEX
  8
0
 62
7
  6
CONTINUOUS
 10
220.1505698402
 20
119.7860151146
  0
VERTEX
  8
0
 62
7
  6
CONTINUOUS
 10
220.1900396351
 20
119.6911432345
  0
VERTEX
  8
0
 62
7
  6
CONTINUOUS
 10
220.2322877458
 20
119.5974627796
  0
VERTEX
  8
0
 62
7
  6
CONTINUOUS
 10
220.2773778659
 20
119.5048953176
  0
VERTEX
  8
0
 62
7
  6
CONTINUOUS
 10
220.3253933482
 20
119.4133441987
  0
VERTEX
  8
0
 62
7
  6
CONTINUOUS
 10
220.3761156034
 20
119.3232794671
  0
VERTEX
  8
0
 62
7
  6
CONTINUOUS
 10
220.4292946191
 20
119.2351005605
  0
VERTEX
  8
0
 62
7
  6
CONTINUOUS
 10
220.4867599962
 20
119.1460224228
  0
VERTEX
  8
0
 62
7
  6
CONTINUOUS
 10
220.5517853164
 20
119.0520032809
  0
VERTEX
  8
0
 62
7
  6
CONTINUOUS
 10
220.6280961646
 20
118.9496728095
  0
VERTEX
  8
0
 62
7
  6
CONTINUOUS
 10
220.7160941058
 20
118.8410363351
  0
VERTEX
  8
0
 62
7
  6
CONTINUOUS
 10
220.8096864716
 20
118.7350834822
  0
VERTEX
  8
0
 62
7
  6
CONTINUOUS
 10
220.9012948391
 20
118.6397664652
  0
VERTEX
  8
0
 62
7
  6
CONTINUOUS
 10
220.987806204
 20
118.5564873031
  0
VERTEX
  8
0
 62
7
  6
CONTINUOUS
 10
221.0712436828
 20
118.4817630781
  0
VERTEX
  8
0
 62
7
  6
CONTINUOUS
 10
221.1543172979
 20
118.4123591701
  0
VERTEX
  8
0
 62
7
  6
CONTINUOUS
 10
221.2391975215
 20
118.346210231
  0
VERTEX
  8
0
 62
7
  6
CONTINUOUS
 10
221.3261776141
 20
118.2830846114
  0
VERTEX
  8
0
 62
7
  6
CONTINUOUS
 10
221.4152419814
 20
118.2230227044
  0
VERTEX
  8
0
 62
7
  6
CONTINUOUS
 10
221.5062227178
 20
118.1661766474
  0
VERTEX
  8
0
 62
7
  6
CONTINUOUS
 10
221.5992333895
 20
118.1125469203
  0
VERTEX
  8
0
 62
7
  6
CONTINUOUS
 10
221.6945989704
 20
118.0620357541
  0
VERTEX
  8
0
 62
7
  6
CONTINUOUS
 10
221.7922785487
 20
118.0147855441
  0
VERTEX
  8
0
 62
7
  6
CONTINUOUS
 10
221.8921837952
 20
117.9709291018
  0
VERTEX
  8
0
 62
7
  6
CONTINUOUS
 10
221.9939665926
 20
117.9306745748
  0
VERTEX
  8
0
 62
7
  6
CONTINUOUS
 10
222.0973335836
 20
117.8941839776
  0
VERTEX
  8
0
 62
7
  6
CONTINUOUS
 10
222.202195477
 20
117.8615299681
  0
VERTEX
  8
0
 62
7
  6
CONTINUOUS
 10
222.3084746622
 20
117.8327956896
  0
VERTEX
  8
0
 62
7
  6
CONTINUOUS
 10
222.4157325184
 20
117.8081524961
  0
VERTEX
  8
0
 62
7
  6
CONTINUOUS
 10
222.5241028825
 20
117.7876353746
  0
VERTEX
  8
0
 62
7
  6
CONTINUOUS
 10
222.6348607404
 20
117.7711445762
  0
VERTEX
  8
0
 62
7
  6
CONTINUOUS
 10
222.7494633213
 20
117.7587847048
  0
VERTEX
  8
0
 62
7
  6
CONTINUOUS
 10
222.8693443128
 20
117.7508968571
  0
VERTEX
  8
0
 62
7
  6
CONTINUOUS
 10
222.9960527201
 20
117.7480846688
  0
SEQEND
  0
LINE
  8
0
 62
7
  6
CONTINUOUS
 10
213.9960526317
 20
136.9041935304
 11
213.9960526317
 21
121.1117593523
  0
LINE
  8
0
 62
7
  6
CONTINUOUS
 10
214.7960526317
 20
138.2555676646
 11
214.7960526317
 21
139.7861842105
  0
LINE
  8
0
 62
7
  6
CONTINUOUS
 10
215.0960526317
 20
121.1117600345
 11
215.0960526317
 21
136.9041935304
  0
LINE
  8
0
 62
7
  6
CONTINUOUS
 10
219.8960526317
 20
136.9041935304
 11
219.8960526317
 21
121.1117606018
  0
LINE
  8
0
 62
7
  6
CONTINUOUS
 10
220.1960526317
 20
139.7861842105
 11
220.1960526317
 21
138.2555676646
  0
LINE
  8
0
 62
7
  6
CONTINUOUS
 10
220.9960526317
 20
136.9041935304
 11
220.9960526317
 21
121.1117593523
  0
LINE
  8
0
 62
7
  6
CONTINUOUS
 10
223.6960526317
 20
148.7361842105
 11
223.6960526317
 21
144.0428426848
  0
LINE
  8
0
 62
7
  6
CONTINUOUS
 10
223.9960526317
 20
87.3361842105
 11
223.9960526317
 21
92.0295294703
  0
LINE
  8
0
 62
7
  6
CONTINUOUS
 10
211.3167167863
 20
143.9334284011
 11
213.9271721164
 21
137.2689078093
  0
LINE
  8
0
 62
7
  6
CONTINUOUS
 10
214.9514035496
 20
137.6700935161
 11
214.864933147
 21
137.8908533857
  0
LINE
  8
0
 62
7
  6
CONTINUOUS
 10
232.7406833051
 20
98.4027973798
 11
232.8271808825
 21
98.1819525014
  0
LINE
  8
0
 62
7
  6
CONTINUOUS
 10
236.375391107
 20
92.1389370397
 11
233.764924381
 21
98.8039584678
  0
LINE
  8
0
 62
7
  6
CONTINUOUS
 10
226.6960526317
 20
113.2361842105
 11
226.6960526317
 21
99.168650366
  0
LINE
  8
0
 62
7
  6
CONTINUOUS
 10
227.4960526317
 20
96.2861842105
 11
227.4960526317
 21
97.8172606031
  0
LINE
  8
0
 62
7
  6
CONTINUOUS
 10
227.7960526317
 20
99.168650366
 11
227.7960526317
 21
113.2361842105
  0
LINE
  8
0
 62
7
  6
CONTINUOUS
 10
232.5960526317
 20
113.2361842105
 11
232.5960526317
 21
99.168650366
  0
LINE
  8
0
 62
7
  6
CONTINUOUS
 10
232.8960526317
 20
97.8172606031
 11
232.8960526317
 21
96.2861842105
  0
LINE
  8
0
 62
7
  6
CONTINUOUS
 10
233.6960526317
 20
113.2361842105
 11
233.6960526317
 21
99.168650366
  0
LINE
  8
0
 62
7
  6
CONTINUOUS
 10
224.0167141565
 20
92.1389370397
 11
226.6271808825
 21
98.8039584678
  0
LINE
  8
0
 62
7
  6
CONTINUOUS
 10
227.564924381
 20
98.1819525014
 11
227.6514219583
 21
98.4027973798
  0
LINE
  8
0
 62
7
  6
CONTINUOUS
 10
245.5271721164
 20
137.8908533857
 11
245.4407017139
 21
137.6700935161
  0
LINE
  8
0
 62
7
  6
CONTINUOUS
 10
246.464933147
 20
137.2689078093
 11
249.0753884771
 21
143.9334284011
  0
LINE
  8
0
 62
7
  6
CONTINUOUS
 10
236.3960526317
 20
92.0295294703
 11
236.3960526317
 21
87.3361842105
  0
LINE
  8
0
 62
7
  6
CONTINUOUS
 10
236.6960526317
 20
144.0428426848
 11
236.6960526317
 21
148.7361842105
  0
LINE
  8
0
 62
7
  6
CONTINUOUS
 10
239.3960526317
 20
136.9041935304
 11
239.3960526317
 21
121.1117593523
  0
LINE
  8
0
 62
7
  6
CONTINUOUS
 10
240.1960526317
 20
138.2555676646
 11
240.1960526317
 21
139.7861842105
  0
LINE
  8
0
 62
7
  6
CONTINUOUS
 10
240.4960526317
 20
121.1117600344
 11
240.4960526317
 21
136.9041935304
  0
LINE
  8
0
 62
7
  6
CONTINUOUS
 10
245.2960526317
 20
136.9041935304
 11
245.2960526317
 21
118.8361842105
  0
LINE
  8
0
 62
7
  6
CONTINUOUS
 10
236.7167167863
 20
143.9334284011
 11
239.3271721164
 21
137.2689078093
  0
LINE
  8
0
 62
7
  6
CONTINUOUS
 10
240.3514035496
 20
137.6700935161
 11
240.264933147
 21
137.8908533857
  0
LINE
  8
0
 62
7
  6
CONTINUOUS
 10
245.5960526317
 20
139.7861842105
 11
245.5960526317
 21
138.2555676646
  0
LINE
  8
0
 62
7
  6
CONTINUOUS
 10
246.3960526317
 20
136.9041935304
 11
246.3960526317
 21
121.1117593523
  0
LINE
  8
0
 62
7
  6
CONTINUOUS
 10
249.0960526317
 20
148.7361842105
 11
249.0960526317
 21
144.0428426848
  0
LINE
  8
0
 62
7
  6
CONTINUOUS
 10
249.3960526317
 20
87.3361842105
 11
249.3960526317
 21
92.0295294703
  0
LINE
  8
0
 62
7
  6
CONTINUOUS
 10
252.0960526317
 20
113.2361842105
 11
252.0960526317
 21
99.168650366
  0
LINE
  8
0
 62
7
  6
CONTINUOUS
 10
249.4167141565
 20
92.1389370397
 11
252.0271808825
 21
98.8039584678
  0
LINE
  8
0
 62
7
  6
CONTINUOUS
 10
261.775391107
 20
92.1389370397
 11
259.164924381
 21
98.8039584678
  0
LINE
  8
0
 62
7
  6
CONTINUOUS
 10
259.0960526317
 20
113.2361842105
 11
259.0960526317
 21
99.168650366
  0
LINE
  8
0
 62
7
  6
CONTINUOUS
 10
261.7960526317
 20
92.0295294703
 11
261.7960526317
 21
87.3361842105
  0
LINE
  8
0
 62
7
  6
CONTINUOUS
 10
262.0960526317
 20
144.0428426848
 11
262.0960526317
 21
148.7361842105
  0
LINE
  8
0
 62
7
  6
CONTINUOUS
 10
264.7960526317
 20
136.9041935304
 11
264.7960526317
 21
121.1117593523
  0
LINE
  8
0
 62
7
  6
CONTINUOUS
 10
271.864933147
 20
137.2689078093
 11
274.4753884771
 21
143.9334284011
  0
LINE
  8
0
 62
7
  6
CONTINUOUS
 10
262.1167167863
 20
143.9334284011
 11
264.7271721164
 21
137.2689078093
  0
LINE
  8
0
 62
7
  6
CONTINUOUS
 10
271.7960526317
 20
136.9041935304
 11
271.7960526317
 21
121.1117593523
  0
LINE
  8
0
 62
7
  6
CONTINUOUS
 10
274.4960526317
 20
148.7361842105
 11
274.4960526317
 21
144.0428426848
  0
LINE
  8
0
 62
7
  6
CONTINUOUS
 10
274.7960526317
 20
87.3361842105
 11
274.7960526317
 21
92.0295294703
  0
LINE
  8
0
 62
7
  6
CONTINUOUS
 10
274.8167141565
 20
92.1389370397
 11
277.4271808825
 21
98.8039584678
  0
LINE
  8
0
 62
7
  6
CONTINUOUS
 10
287.175391107
 20
92.1389370397
 11
284.564924381
 21
98.8039584678
  0
LINE
  8
0
 62
7
  6
CONTINUOUS
 10
277.4960526317
 20
113.2361842105
 11
277.4960526317
 21
99.168650366
  0
LINE
  8
0
 62
7
  6
CONTINUOUS
 10
284.4960526317
 20
113.2361842105
 11
284.4960526317
 21
99.168650366
  0
LINE
  8
0
 62
7
  6
CONTINUOUS
 10
287.1960526317
 20
92.0295294703
 11
287.1960526317
 21
87.3361842105
  0
LINE
  8
0
 62
7
  6
CONTINUOUS
 10
287.4960526317
 20
144.0428426848
 11
287.4960526317
 21
148.7361842105
  0
LINE
  8
0
 62
7
  6
CONTINUOUS
 10
297.264933147
 20
137.2689078093
 11
299.8753884771
 21
143.9334284011
  0
LINE
  8
0
 62
7
  6
CONTINUOUS
 10
290.1960526317
 20
136.9041935304
 11
290.1960526317
 21
121.1117593523
  0
LINE
  8
0
 62
7
  6
CONTINUOUS
 10
297.1960526317
 20
136.9041935304
 11
297.1960526317
 21
121.1117593523
  0
LINE
  8
0
 62
7
  6
CONTINUOUS
 10
287.5167167863
 20
143.9334284011
 11
290.1271721164
 21
137.2689078093
  0
LINE
  8
0
 62
7
  6
CONTINUOUS
 10
312.575391107
 20
92.1389370397
 11
309.964924381
 21
98.8039584678
  0
LINE
  8
0
 62
7
  6
CONTINUOUS
 10
299.8960526317
 20
148.7361842105
 11
299.8960526317
 21
144.0428426848
  0
LINE
  8
0
 62
7
  6
CONTINUOUS
 10
300.1960526317
 20
87.3361842105
 11
300.1960526317
 21
92.0295294703
  0
LINE
  8
0
 62
7
  6
CONTINUOUS
 10
302.8960526317
 20
113.2361842105
 11
302.8960526317
 21
99.168650366
  0
LINE
  8
0
 62
7
  6
CONTINUOUS
 10
300.2167141565
 20
92.1389370397
 11
302.8271808825
 21
98.8039584678
  0
LINE
  8
0
 62
7
  6
CONTINUOUS
 10
322.664933147
 20
137.2689078093
 11
325.2753884771
 21
143.9334284011
  0
LINE
  8
0
 62
7
  6
CONTINUOUS
 10
309.8960526317
 20
113.2361842105
 11
309.8960526317
 21
99.168650366
  0
LINE
  8
0
 62
7
  6
CONTINUOUS
 10
312.5960526317
 20
92.0295294703
 11
312.5960526317
 21
87.3361842105
  0
LINE
  8
0
 62
7
  6
CONTINUOUS
 10
312.8960526317
 20
144.0428426848
 11
312.8960526317
 21
148.7361842105
  0
LINE
  8
0
 62
7
  6
CONTINUOUS
 10
315.5960526317
 20
136.9041935304
 11
315.5960526317
 21
121.1117593523
  0
LINE
  8
0
 62
7
  6
CONTINUOUS
 10
322.5960526317
 20
136.9041935304
 11
322.5960526317
 21
119.2256628678
  0
LINE
  8
0
 62
7
  6
CONTINUOUS
 10
325.1960526317
 20
120.3615242443
 11
325.1960526317
 21
115.5361842105
  0
LINE
  8
0
 62
7
  6
CONTINUOUS
 10
325.2960526317
 20
148.7361842105
 11
325.2960526317
 21
144.0428426848
  0
LINE
  8
0
 62
7
  6
CONTINUOUS
 10
312.9167167863
 20
143.9334284011
 11
315.5271721164
 21
137.2689078093
  0
LINE
  8
0
 62
7
  6
CONTINUOUS
 10
376.511843304
 20
84.6361842105
 11
376.211843304
 21
84.6361842105
  0
LINE
  8
DEFAULT_1
 62
2
  6
CENTER
 10
381.611843304
 20
92.6734392105
 11
381.499098304
 21
92.6734392105
  0
LINE
  8
0
 62
2
  6
CONTINUOUS
 10
377.411843304
 20
92.6734392105
 11
375.311843304
 21
92.6734392105
  0
LINE
  8
DEFAULT_1
 62
2
  6
CENTER
 10
371.111843304
 20
92.6734392105
 11
371.224588304
 21
92.6734392105
  0
LINE
  8
0
 62
7
  6
CONTINUOUS
 10
383.861843304
 20
95.2861842105
 11
384.4470137415
 21
95.2861842105
  0
LINE
  8
0
 62
7
  6
CONTINUOUS
 10
368.861843304
 20
91.9861842105
 11
368.861843304
 21
144.0861842105
  0
LINE
  8
0
 62
7
  6
CONTINUOUS
 10
373.111843304
 20
127.0861842105
 11
373.111843304
 21
143.2861842105
  0
LINE
  8
0
 62
7
  6
CONTINUOUS
 10
369.161843304
 20
115.2361842105
 11
383.561843304
 21
115.2361842105
  0
LINE
  8
DEFAULT_1
 62
2
  6
CENTER
 10
376.361843304
 20
148.6861842105
 11
376.361843304
 21
145.4362842105
  0
LINE
  8
0
 62
2
  6
CONTINUOUS
 10
376.361843304
 20
144.4861842105
 11
376.361843304
 21
142.3861842105
  0
LINE
  8
DEFAULT_1
 62
2
  6
CENTER
 10
376.361843304
 20
97.9234392105
 11
376.361843304
 21
97.8106942105
  0
LINE
  8
0
 62
2
  6
CONTINUOUS
 10
376.361843304
 20
93.7234392105
 11
376.361843304
 21
91.6234392105
  0
LINE
  8
DEFAULT_1
 62
2
  6
CENTER
 10
376.361843304
 20
87.4234392105
 11
376.361843304
 21
87.5361842105
  0
LINE
  8
DEFAULT_1
 62
2
  6
CENTER
 10
376.361843304
 20
138.1861842105
 11
376.361843304
 21
141.4360842105
  0
LINE
  8
0
 62
7
  6
CONTINUOUS
 10
383.861843304
 20
117.7480846688
 11
386.3598118626
 21
117.7480846688
  0
LINE
  8
DEFAULT_1
 62
2
  6
CENTER
 10
366.0723696198
 20
118.0361842105
 11
388.8618433553
 21
118.0361842105
  0
LINE
  8
0
 62
7
  6
CONTINUOUS
 10
379.611843304
 20
127.0861842105
 11
379.611843304
 21
143.2861842105
  0
LINE
  8
0
 62
7
  6
CONTINUOUS
 10
383.861843304
 20
91.9861842105
 11
383.861843304
 21
144.0861842105
  0
LINE
  8
0
 62
7
  6
CONTINUOUS
 10
385.0258944764
 20
96.2024496352
 11
385.2775167072
 21
97.7394375197
  0
LINE
  8
0
 62
7
  6
CONTINUOUS
 10
385.2575308148
 20
138.3338770409
 11
385.0044317106
 21
139.8704033032
  0
LINE
  8
0
 62
7
  6
CONTINUOUS
 10
384.425127248
 20
140.7861842105
 11
383.861843304
 21
140.7861842105
  0
LINE
  8
DEFAULT_1
 62
2
  6
CENTER
 10
381.611843304
 20
143.4361842105
 11
378.361943304
 21
143.4361842105
  0
LINE
  8
0
 62
2
  6
CONTINUOUS
 10
377.411843304
 20
143.4361842105
 11
375.311843304
 21
143.4361842105
  0
LINE
  8
DEFAULT_1
 62
2
  6
CENTER
 10
371.111843304
 20
143.4361842105
 11
374.361743304
 21
143.4361842105
  0
LINE
  8
0
 62
7
  6
CONTINUOUS
 10
376.511843304
 20
151.4361842105
 11
376.211843304
 21
151.4361842105
  0
LINE
  8
0
 62
7
  6
CONTINUOUS
 10
20.7960526317
 20
212.4532906725
 11
20.7960526317
 21
222.0532906725
  0
LINE
  8
0
 62
7
  6
CONTINUOUS
 10
20.8960526317
 20
210.0532906725
 11
20.8960526317
 21
211.7255445874
  0
LINE
  8
0
 62
7
  6
CONTINUOUS
 10
20.8960526317
 20
222.7810367337
 11
20.8960526317
 21
224.4532906725
  0
LINE
  8
0
 62
7
  6
CONTINUOUS
 10
33.1960526317
 20
222.0532906725
 11
33.1960526317
 21
212.4532906725
  0
LINE
  8
0
 62
7
  6
CONTINUOUS
 10
46.1960526317
 20
212.4532906725
 11
46.1960526317
 21
222.0532906725
  0
LINE
  8
0
 62
7
  6
CONTINUOUS
 10
58.5960526317
 20
222.0532906725
 11
58.5960526317
 21
212.4532906725
  0
LINE
  8
0
 62
7
  6
CONTINUOUS
 10
71.5960526317
 20
212.4532906725
 11
71.5960526317
 21
222.0532906725
  0
LINE
  8
0
 62
7
  6
CONTINUOUS
 10
83.9960526317
 20
222.0532906725
 11
83.9960526317
 21
212.4532906725
  0
LINE
  8
0
 62
7
  6
CONTINUOUS
 10
96.9960526317
 20
212.4532906725
 11
96.9960526317
 21
222.0532906725
  0
POLYLINE
  8
0
 62
7
  6
CONTINUOUS
 66
1
 70
0
  0
VERTEX
  8
0
 62
7
  6
CONTINUOUS
 10
105.8960525598
 20
225.6750549083
  0
VERTEX
  8
0
 62
7
  6
CONTINUOUS
 10
105.8950493062
 20
225.707106052
  0
VERTEX
  8
0
 62
7
  6
CONTINUOUS
 10
105.8901204462
 20
225.7528060629
  0
VERTEX
  8
0
 62
7
  6
CONTINUOUS
 10
105.8811096876
 20
225.7979214623
  0
VERTEX
  8
0
 62
7
  6
CONTINUOUS
 10
105.868092931
 20
225.8420622431
  0
VERTEX
  8
0
 62
7
  6
CONTINUOUS
 10
105.8511948563
 20
225.8848409255
  0
VERTEX
  8
0
 62
7
  6
CONTINUOUS
 10
105.8305897636
 20
225.9258844044
  0
VERTEX
  8
0
 62
7
  6
CONTINUOUS
 10
105.8064938226
 20
225.9648539053
  0
VERTEX
  8
0
 62
7
  6
CONTINUOUS
 10
105.7791582987
 20
226.0014510801
  0
VERTEX
  8
0
 62
7
  6
CONTINUOUS
 10
105.7488719405
 20
226.0354137167
  0
VERTEX
  8
0
 62
7
  6
CONTINUOUS
 10
105.7163010472
 20
226.0662269473
  0
VERTEX
  8
0
 62
7
  6
CONTINUOUS
 10
105.6833888629
 20
226.0926919837
  0
VERTEX
  8
0
 62
7
  6
CONTINUOUS
 10
105.651516176
 20
226.1146923143
  0
VERTEX
  8
0
 62
7
  6
CONTINUOUS
 10
105.6208797084
 20
226.1330145836
  0
VERTEX
  8
0
 62
7
  6
CONTINUOUS
 10
105.5913722103
 20
226.1484109801
  0
VERTEX
  8
0
 62
7
  6
CONTINUOUS
 10
105.5627815746
 20
226.1614914386
  0
VERTEX
  8
0
 62
7
  6
CONTINUOUS
 10
105.5467295125
 20
226.1681270096
  0
SEQEND
  0
LINE
  8
0
 62
7
  6
CONTINUOUS
 10
100.4960526317
 20
224.7532906725
 11
100.4960526317
 21
225.6750576394
  0
LINE
  8
0
 62
7
  6
CONTINUOUS
 10
100.7960571428
 20
226.1459920472
 11
100.7960898613
 21
227.2246097662
  0
LINE
  8
0
 62
7
  6
CONTINUOUS
 10
105.5960526317
 20
227.1666146197
 11
105.5960526317
 21
226.1459688339
  0
LINE
  8
0
 62
7
  6
CONTINUOUS
 10
105.8960526317
 20
225.6750576394
 11
105.8960526317
 21
224.7532906725
  0
LINE
  8
0
 62
7
  6
CONTINUOUS
 10
109.3960526317
 20
222.0532906725
 11
109.3960526317
 21
212.4532906725
  0
LINE
  8
0
 62
7
  6
CONTINUOUS
 10
122.3960526317
 20
212.4532906725
 11
122.3960526317
 21
222.0532906725
  0
LINE
  8
0
 62
7
  6
CONTINUOUS
 10
125.8960526317
 20
224.7532906725
 11
125.8960526317
 21
225.6750576394
  0
LINE
  8
0
 62
7
  6
CONTINUOUS
 10
126.1960526317
 20
226.1459896837
 11
126.1960526317
 21
227.1666146197
  0
POLYLINE
  8
0
 62
7
  6
CONTINUOUS
 66
1
 70
0
  0
VERTEX
  8
0
 62
7
  6
CONTINUOUS
 10
100.9585473829
 20
226.2137096363
  0
VERTEX
  8
0
 62
7
  6
CONTINUOUS
 10
100.9606087886
 20
226.2149334555
  0
VERTEX
  8
0
 62
7
  6
CONTINUOUS
 10
100.959702447
 20
226.2144656072
  0
VERTEX
  8
0
 62
7
  6
CONTINUOUS
 10
100.9543493702
 20
226.2118763999
  0
VERTEX
  8
0
 62
7
  6
CONTINUOUS
 10
100.9444601025
 20
226.2075149261
  0
VERTEX
  8
0
 62
7
  6
CONTINUOUS
 10
100.9336877279
 20
226.203126116
  0
SEQEND
  0
POLYLINE
  8
0
 62
7
  6
CONTINUOUS
 66
1
 70
0
  0
VERTEX
  8
0
 62
7
  6
CONTINUOUS
 10
131.2960525598
 20
225.6750549083
  0
VERTEX
  8
0
 62
7
  6
CONTINUOUS
 10
131.2950493062
 20
225.707106052
  0
VERTEX
  8
0
 62
7
  6
CONTINUOUS
 10
131.2901204462
 20
225.7528060629
  0
VERTEX
  8
0
 62
7
  6
CONTINUOUS
 10
131.2811096876
 20
225.7979214623
  0
VERTEX
  8
0
 62
7
  6
CONTINUOUS
 10
131.268092931
 20
225.8420622431
  0
VERTEX
  8
0
 62
7
  6
CONTINUOUS
 10
131.2511948563
 20
225.8848409255
  0
VERTEX
  8
0
 62
7
  6
CONTINUOUS
 10
131.2305897636
 20
225.9258844044
  0
VERTEX
  8
0
 62
7
  6
CONTINUOUS
 10
131.2064938226
 20
225.9648539053
  0
VERTEX
  8
0
 62
7
  6
CONTINUOUS
 10
131.1791582987
 20
226.0014510801
  0
VERTEX
  8
0
 62
7
  6
CONTINUOUS
 10
131.1488719405
 20
226.0354137167
  0
VERTEX
  8
0
 62
7
  6
CONTINUOUS
 10
131.1163010472
 20
226.0662269473
  0
VERTEX
  8
0
 62
7
  6
CONTINUOUS
 10
131.0833888629
 20
226.0926919837
  0
VERTEX
  8
0
 62
7
  6
CONTINUOUS
 10
131.0515161759
 20
226.1146923143
  0
VERTEX
  8
0
 62
7
  6
CONTINUOUS
 10
131.0208797084
 20
226.1330145836
  0
VERTEX
  8
0
 62
7
  6
CONTINUOUS
 10
130.9913722103
 20
226.1484109801
  0
VERTEX
  8
0
 62
7
  6
CONTINUOUS
 10
130.9627815746
 20
226.1614914386
  0
VERTEX
  8
0
 62
7
  6
CONTINUOUS
 10
130.9467295125
 20
226.1681270096
  0
SEQEND
  0
LINE
  8
0
 62
7
  6
CONTINUOUS
 10
130.9960526317
 20
227.1666146197
 11
130.9960526317
 21
226.1459688339
  0
LINE
  8
0
 62
7
  6
CONTINUOUS
 10
131.2960526317
 20
225.6750576394
 11
131.2960526317
 21
224.7532906725
  0
LINE
  8
0
 62
7
  6
CONTINUOUS
 10
134.7960526317
 20
222.0532906725
 11
134.7960526317
 21
212.4532906725
  0
POLYLINE
  8
0
 62
7
  6
CONTINUOUS
 66
1
 70
0
  0
VERTEX
  8
0
 62
7
  6
CONTINUOUS
 10
100.8453777979
 20
226.1681278287
  0
VERTEX
  8
0
 62
7
  6
CONTINUOUS
 10
100.8284465562
 20
226.1611147839
  0
VERTEX
  8
0
 62
7
  6
CONTINUOUS
 10
100.799855793
 20
226.1479822645
  0
VERTEX
  8
0
 62
7
  6
CONTINUOUS
 10
100.7702882135
 20
226.1324909964
  0
VERTEX
  8
0
 62
7
  6
CONTINUOUS
 10
100.7395740042
 20
226.1140403529
  0
VERTEX
  8
0
 62
7
  6
CONTINUOUS
 10
100.7076487748
 20
226.0918971011
  0
VERTEX
  8
0
 62
7
  6
CONTINUOUS
 10
100.6747474188
 20
226.0653051269
  0
VERTEX
  8
0
 62
7
  6
CONTINUOUS
 10
100.6422555978
 20
226.0344051552
  0
VERTEX
  8
0
 62
7
  6
CONTINUOUS
 10
100.6120733996
 20
226.0003791757
  0
VERTEX
  8
0
 62
7
  6
CONTINUOUS
 10
100.5848411694
 20
225.9637195404
  0
VERTEX
  8
0
 62
7
  6
CONTINUOUS
 10
100.5608528314
 20
225.9246950868
  0
VERTEX
  8
0
 62
7
  6
CONTINUOUS
 10
100.5403617316
 20
225.8836107018
  0
VERTEX
  8
0
 62
7
  6
CONTINUOUS
 10
100.5235816811
 20
225.8408059711
  0
VERTEX
  8
0
 62
7
  6
CONTINUOUS
 10
100.51068412
 20
225.7966525847
  0
VERTEX
  8
0
 62
7
  6
CONTINUOUS
 10
100.5017915237
 20
225.7515359346
  0
VERTEX
  8
0
 62
7
  6
CONTINUOUS
 10
100.4969784219
 20
225.7058436884
  0
VERTEX
  8
0
 62
7
  6
CONTINUOUS
 10
100.4960527134
 20
225.6750548537
  0
SEQEND
  0
LINE
  8
0
 62
7
  6
CONTINUOUS
 10
100.9336767343
 20
226.2031217764
 11
100.8453663788
 21
226.1681233034
  0
LINE
  8
0
 62
7
  6
CONTINUOUS
 10
147.7960526317
 20
212.4532906725
 11
147.7960526317
 21
222.0532906725
  0
POLYLINE
  8
0
 62
7
  6
CONTINUOUS
 66
1
 70
0
  0
VERTEX
  8
0
 62
7
  6
CONTINUOUS
 10
126.3585473908
 20
226.2137096411
  0
VERTEX
  8
0
 62
7
  6
CONTINUOUS
 10
126.3606087915
 20
226.2149334571
  0
VERTEX
  8
0
 62
7
  6
CONTINUOUS
 10
126.3597024393
 20
226.2144656033
  0
VERTEX
  8
0
 62
7
  6
CONTINUOUS
 10
126.3543493531
 20
226.2118763919
  0
VERTEX
  8
0
 62
7
  6
CONTINUOUS
 10
126.3444600849
 20
226.2075149186
  0
VERTEX
  8
0
 62
7
  6
CONTINUOUS
 10
126.333687728
 20
226.203126116
  0
SEQEND
  0
POLYLINE
  8
0
 62
7
  6
CONTINUOUS
 66
1
 70
0
  0
VERTEX
  8
0
 62
7
  6
CONTINUOUS
 10
126.2453777979
 20
226.1681278287
  0
VERTEX
  8
0
 62
7
  6
CONTINUOUS
 10
126.2284465562
 20
226.1611147839
  0
VERTEX
  8
0
 62
7
  6
CONTINUOUS
 10
126.199855793
 20
226.1479822645
  0
VERTEX
  8
0
 62
7
  6
CONTINUOUS
 10
126.1702882135
 20
226.1324909964
  0
VERTEX
  8
0
 62
7
  6
CONTINUOUS
 10
126.1395740042
 20
226.1140403529
  0
VERTEX
  8
0
 62
7
  6
CONTINUOUS
 10
126.1076487748
 20
226.0918971011
  0
VERTEX
  8
0
 62
7
  6
CONTINUOUS
 10
126.0747474188
 20
226.0653051269
  0
VERTEX
  8
0
 62
7
  6
CONTINUOUS
 10
126.0422555978
 20
226.0344051552
  0
VERTEX
  8
0
 62
7
  6
CONTINUOUS
 10
126.0120733996
 20
226.0003791757
  0
VERTEX
  8
0
 62
7
  6
CONTINUOUS
 10
125.9848411694
 20
225.9637195404
  0
VERTEX
  8
0
 62
7
  6
CONTINUOUS
 10
125.9608528314
 20
225.9246950868
  0
VERTEX
  8
0
 62
7
  6
CONTINUOUS
 10
125.9403617316
 20
225.8836107018
  0
VERTEX
  8
0
 62
7
  6
CONTINUOUS
 10
125.9235816811
 20
225.8408059711
  0
VERTEX
  8
0
 62
7
  6
CONTINUOUS
 10
125.91068412
 20
225.7966525847
  0
VERTEX
  8
0
 62
7
  6
CONTINUOUS
 10
125.9017915237
 20
225.7515359346
  0
VERTEX
  8
0
 62
7
  6
CONTINUOUS
 10
125.8969784219
 20
225.7058436884
  0
VERTEX
  8
0
 62
7
  6
CONTINUOUS
 10
125.8960527134
 20
225.6750548537
  0
SEQEND
  0
LINE
  8
0
 62
7
  6
CONTINUOUS
 10
126.3336767343
 20
226.2031217764
 11
126.2453663788
 21
226.1681233034
  0
POLYLINE
  8
0
 62
7
  6
CONTINUOUS
 66
1
 70
0
  0
VERTEX
  8
0
 62
7
  6
CONTINUOUS
 10
156.6960525598
 20
225.6750549083
  0
VERTEX
  8
0
 62
7
  6
CONTINUOUS
 10
156.6950493062
 20
225.707106052
  0
VERTEX
  8
0
 62
7
  6
CONTINUOUS
 10
156.6901204462
 20
225.7528060629
  0
VERTEX
  8
0
 62
7
  6
CONTINUOUS
 10
156.6811096876
 20
225.7979214623
  0
VERTEX
  8
0
 62
7
  6
CONTINUOUS
 10
156.668092931
 20
225.8420622431
  0
VERTEX
  8
0
 62
7
  6
CONTINUOUS
 10
156.6511948563
 20
225.8848409255
  0
VERTEX
  8
0
 62
7
  6
CONTINUOUS
 10
156.6305897637
 20
225.9258844044
  0
VERTEX
  8
0
 62
7
  6
CONTINUOUS
 10
156.6064938226
 20
225.9648539053
  0
VERTEX
  8
0
 62
7
  6
CONTINUOUS
 10
156.5791582987
 20
226.0014510801
  0
VERTEX
  8
0
 62
7
  6
CONTINUOUS
 10
156.5488719405
 20
226.0354137167
  0
VERTEX
  8
0
 62
7
  6
CONTINUOUS
 10
156.5163010472
 20
226.0662269473
  0
VERTEX
  8
0
 62
7
  6
CONTINUOUS
 10
156.4833888629
 20
226.0926919837
  0
VERTEX
  8
0
 62
7
  6
CONTINUOUS
 10
156.451516176
 20
226.1146923143
  0
VERTEX
  8
0
 62
7
  6
CONTINUOUS
 10
156.4208797084
 20
226.1330145836
  0
VERTEX
  8
0
 62
7
  6
CONTINUOUS
 10
156.3913722103
 20
226.1484109801
  0
VERTEX
  8
0
 62
7
  6
CONTINUOUS
 10
156.3627815746
 20
226.1614914386
  0
VERTEX
  8
0
 62
7
  6
CONTINUOUS
 10
156.3467295125
 20
226.1681270096
  0
SEQEND
  0
LINE
  8
0
 62
7
  6
CONTINUOUS
 10
151.2960526317
 20
224.7532906725
 11
151.2960526317
 21
225.6750576394
  0
LINE
  8
0
 62
7
  6
CONTINUOUS
 10
151.5960526317
 20
226.1459896837
 11
151.5960526317
 21
227.1666146197
  0
LINE
  8
0
 62
7
  6
CONTINUOUS
 10
156.3960526317
 20
227.1666146197
 11
156.3960526317
 21
226.1459688339
  0
LINE
  8
0
 62
7
  6
CONTINUOUS
 10
156.6960526317
 20
225.6750576394
 11
156.6960526317
 21
224.7532906725
  0
LINE
  8
0
 62
7
  6
CONTINUOUS
 10
160.1960526317
 20
222.0532906725
 11
160.1960526317
 21
212.4532906725
  0
POLYLINE
  8
0
 62
7
  6
CONTINUOUS
 66
1
 70
0
  0
VERTEX
  8
0
 62
7
  6
CONTINUOUS
 10
151.7585473908
 20
226.2137096411
  0
VERTEX
  8
0
 62
7
  6
CONTINUOUS
 10
151.7606087915
 20
226.2149334572
  0
VERTEX
  8
0
 62
7
  6
CONTINUOUS
 10
151.7597024393
 20
226.2144656033
  0
VERTEX
  8
0
 62
7
  6
CONTINUOUS
 10
151.7543493531
 20
226.2118763919
  0
VERTEX
  8
0
 62
7
  6
CONTINUOUS
 10
151.7444600849
 20
226.2075149186
  0
VERTEX
  8
0
 62
7
  6
CONTINUOUS
 10
151.733687728
 20
226.203126116
  0
SEQEND
  0
POLYLINE
  8
0
 62
7
  6
CONTINUOUS
 66
1
 70
0
  0
VERTEX
  8
0
 62
7
  6
CONTINUOUS
 10
151.6453777979
 20
226.1681278287
  0
VERTEX
  8
0
 62
7
  6
CONTINUOUS
 10
151.6284465562
 20
226.1611147839
  0
VERTEX
  8
0
 62
7
  6
CONTINUOUS
 10
151.599855793
 20
226.1479822645
  0
VERTEX
  8
0
 62
7
  6
CONTINUOUS
 10
151.5702882135
 20
226.1324909964
  0
VERTEX
  8
0
 62
7
  6
CONTINUOUS
 10
151.5395740042
 20
226.1140403529
  0
VERTEX
  8
0
 62
7
  6
CONTINUOUS
 10
151.5076487748
 20
226.0918971011
  0
VERTEX
  8
0
 62
7
  6
CONTINUOUS
 10
151.4747474188
 20
226.0653051269
  0
VERTEX
  8
0
 62
7
  6
CONTINUOUS
 10
151.4422555978
 20
226.0344051552
  0
VERTEX
  8
0
 62
7
  6
CONTINUOUS
 10
151.4120733996
 20
226.0003791757
  0
VERTEX
  8
0
 62
7
  6
CONTINUOUS
 10
151.3848411694
 20
225.9637195404
  0
VERTEX
  8
0
 62
7
  6
CONTINUOUS
 10
151.3608528314
 20
225.9246950868
  0
VERTEX
  8
0
 62
7
  6
CONTINUOUS
 10
151.3403617316
 20
225.8836107018
  0
VERTEX
  8
0
 62
7
  6
CONTINUOUS
 10
151.3235816811
 20
225.8408059711
  0
VERTEX
  8
0
 62
7
  6
CONTINUOUS
 10
151.31068412
 20
225.7966525847
  0
VERTEX
  8
0
 62
7
  6
CONTINUOUS
 10
151.3017915237
 20
225.7515359346
  0
VERTEX
  8
0
 62
7
  6
CONTINUOUS
 10
151.2969784219
 20
225.7058436884
  0
VERTEX
  8
0
 62
7
  6
CONTINUOUS
 10
151.2960527134
 20
225.6750548537
  0
SEQEND
  0
LINE
  8
0
 62
7
  6
CONTINUOUS
 10
151.7336767343
 20
226.2031217764
 11
151.6453663788
 21
226.1681233034
  0
LINE
  8
0
 62
7
  6
CONTINUOUS
 10
21.1960526317
 20
209.7532906725
 11
324.8960526317
 21
209.7532906725
  0
LINE
  8
0
 62
7
  6
CONTINUOUS
 10
105.5467388843
 20
226.1681233035
 11
105.4584285292
 21
226.2031217764
  0
POLYLINE
  8
0
 62
7
  6
CONTINUOUS
 66
1
 70
0
  0
VERTEX
  8
0
 62
7
  6
CONTINUOUS
 10
105.4584180686
 20
226.2031259055
  0
VERTEX
  8
0
 62
7
  6
CONTINUOUS
 10
105.4474370992
 20
226.2076028849
  0
VERTEX
  8
0
 62
7
  6
CONTINUOUS
 10
105.4376341396
 20
226.2119329095
  0
VERTEX
  8
0
 62
7
  6
CONTINUOUS
 10
105.4323561145
 20
226.2144895106
  0
VERTEX
  8
0
 62
7
  6
CONTINUOUS
 10
105.4313296056
 20
226.215027204
  0
SEQEND
  0
POLYLINE
  8
0
 62
7
  6
CONTINUOUS
 66
1
 70
0
  0
VERTEX
  8
0
 62
7
  6
CONTINUOUS
 10
177.1585473908
 20
226.2137096411
  0
VERTEX
  8
0
 62
7
  6
CONTINUOUS
 10
177.1606087915
 20
226.2149334572
  0
VERTEX
  8
0
 62
7
  6
CONTINUOUS
 10
177.1597024393
 20
226.2144656033
  0
VERTEX
  8
0
 62
7
  6
CONTINUOUS
 10
177.1543493531
 20
226.2118763919
  0
VERTEX
  8
0
 62
7
  6
CONTINUOUS
 10
177.1444600849
 20
226.2075149186
  0
VERTEX
  8
0
 62
7
  6
CONTINUOUS
 10
177.133687728
 20
226.203126116
  0
SEQEND
  0
POLYLINE
  8
0
 62
7
  6
CONTINUOUS
 66
1
 70
0
  0
VERTEX
  8
0
 62
7
  6
CONTINUOUS
 10
177.0453777979
 20
226.1681278287
  0
VERTEX
  8
0
 62
7
  6
CONTINUOUS
 10
177.0284465562
 20
226.1611147839
  0
VERTEX
  8
0
 62
7
  6
CONTINUOUS
 10
176.999855793
 20
226.1479822645
  0
VERTEX
  8
0
 62
7
  6
CONTINUOUS
 10
176.9702882135
 20
226.1324909964
  0
VERTEX
  8
0
 62
7
  6
CONTINUOUS
 10
176.9395740042
 20
226.1140403529
  0
VERTEX
  8
0
 62
7
  6
CONTINUOUS
 10
176.9076487748
 20
226.0918971011
  0
VERTEX
  8
0
 62
7
  6
CONTINUOUS
 10
176.8747474188
 20
226.0653051269
  0
VERTEX
  8
0
 62
7
  6
CONTINUOUS
 10
176.8422555978
 20
226.0344051552
  0
VERTEX
  8
0
 62
7
  6
CONTINUOUS
 10
176.8120733996
 20
226.0003791757
  0
VERTEX
  8
0
 62
7
  6
CONTINUOUS
 10
176.7848411694
 20
225.9637195404
  0
VERTEX
  8
0
 62
7
  6
CONTINUOUS
 10
176.7608528314
 20
225.9246950868
  0
VERTEX
  8
0
 62
7
  6
CONTINUOUS
 10
176.7403617316
 20
225.8836107018
  0
VERTEX
  8
0
 62
7
  6
CONTINUOUS
 10
176.7235816811
 20
225.8408059711
  0
VERTEX
  8
0
 62
7
  6
CONTINUOUS
 10
176.71068412
 20
225.7966525847
  0
VERTEX
  8
0
 62
7
  6
CONTINUOUS
 10
176.7017915237
 20
225.7515359346
  0
VERTEX
  8
0
 62
7
  6
CONTINUOUS
 10
176.6969784219
 20
225.7058436884
  0
VERTEX
  8
0
 62
7
  6
CONTINUOUS
 10
176.6960527134
 20
225.6750548537
  0
SEQEND
  0
LINE
  8
0
 62
7
  6
CONTINUOUS
 10
177.1336767343
 20
226.2031217764
 11
177.0453663788
 21
226.1681233034
  0
LINE
  8
DEFAULT_1
 62
2
  6
CENTER
 10
15.9474148061
 20
217.2532906725
 11
337.008666275
 21
217.2532906725
  0
LINE
  8
0
 62
7
  6
CONTINUOUS
 10
130.9467388843
 20
226.1681233035
 11
130.8584285292
 21
226.2031217764
  0
POLYLINE
  8
0
 62
7
  6
CONTINUOUS
 66
1
 70
0
  0
VERTEX
  8
0
 62
7
  6
CONTINUOUS
 10
130.8584180686
 20
226.2031259055
  0
VERTEX
  8
0
 62
7
  6
CONTINUOUS
 10
130.8474370992
 20
226.2076028849
  0
VERTEX
  8
0
 62
7
  6
CONTINUOUS
 10
130.8376341396
 20
226.2119329095
  0
VERTEX
  8
0
 62
7
  6
CONTINUOUS
 10
130.8323561145
 20
226.2144895106
  0
VERTEX
  8
0
 62
7
  6
CONTINUOUS
 10
130.8313296056
 20
226.215027204
  0
SEQEND
  0
LINE
  8
DEFAULT_1
 62
2
  6
CENTER
 10
173.0460526317
 20
206.9638169882
 11
173.0460526317
 21
229.7532907237
  0
LINE
  8
0
 62
7
  6
CONTINUOUS
 10
173.1960526317
 20
212.4532906725
 11
173.1960526317
 21
222.0532906725
  0
LINE
  8
0
 62
7
  6
CONTINUOUS
 10
176.6960526317
 20
224.7532906725
 11
176.6960526317
 21
225.6750576394
  0
LINE
  8
0
 62
7
  6
CONTINUOUS
 10
176.9960526317
 20
226.1459896837
 11
176.9960526317
 21
227.1666146197
  0
POLYLINE
  8
0
 62
7
  6
CONTINUOUS
 66
1
 70
0
  0
VERTEX
  8
0
 62
7
  6
CONTINUOUS
 10
202.5585473908
 20
226.2137096411
  0
VERTEX
  8
0
 62
7
  6
CONTINUOUS
 10
202.5606087915
 20
226.2149334572
  0
VERTEX
  8
0
 62
7
  6
CONTINUOUS
 10
202.5597024393
 20
226.2144656033
  0
VERTEX
  8
0
 62
7
  6
CONTINUOUS
 10
202.5543493531
 20
226.2118763919
  0
VERTEX
  8
0
 62
7
  6
CONTINUOUS
 10
202.5444600849
 20
226.2075149186
  0
VERTEX
  8
0
 62
7
  6
CONTINUOUS
 10
202.533687728
 20
226.203126116
  0
SEQEND
  0
POLYLINE
  8
0
 62
7
  6
CONTINUOUS
 66
1
 70
0
  0
VERTEX
  8
0
 62
7
  6
CONTINUOUS
 10
202.4453777979
 20
226.1681278287
  0
VERTEX
  8
0
 62
7
  6
CONTINUOUS
 10
202.4284465562
 20
226.1611147839
  0
VERTEX
  8
0
 62
7
  6
CONTINUOUS
 10
202.399855793
 20
226.1479822645
  0
VERTEX
  8
0
 62
7
  6
CONTINUOUS
 10
202.3702882135
 20
226.1324909964
  0
VERTEX
  8
0
 62
7
  6
CONTINUOUS
 10
202.3395740042
 20
226.1140403529
  0
VERTEX
  8
0
 62
7
  6
CONTINUOUS
 10
202.3076487748
 20
226.0918971011
  0
VERTEX
  8
0
 62
7
  6
CONTINUOUS
 10
202.2747474188
 20
226.0653051269
  0
VERTEX
  8
0
 62
7
  6
CONTINUOUS
 10
202.2422555978
 20
226.0344051552
  0
VERTEX
  8
0
 62
7
  6
CONTINUOUS
 10
202.2120733996
 20
226.0003791757
  0
VERTEX
  8
0
 62
7
  6
CONTINUOUS
 10
202.1848411694
 20
225.9637195404
  0
VERTEX
  8
0
 62
7
  6
CONTINUOUS
 10
202.1608528314
 20
225.9246950868
  0
VERTEX
  8
0
 62
7
  6
CONTINUOUS
 10
202.1403617316
 20
225.8836107018
  0
VERTEX
  8
0
 62
7
  6
CONTINUOUS
 10
202.1235816811
 20
225.8408059711
  0
VERTEX
  8
0
 62
7
  6
CONTINUOUS
 10
202.11068412
 20
225.7966525847
  0
VERTEX
  8
0
 62
7
  6
CONTINUOUS
 10
202.1017915237
 20
225.7515359346
  0
VERTEX
  8
0
 62
7
  6
CONTINUOUS
 10
202.0969784219
 20
225.7058436884
  0
VERTEX
  8
0
 62
7
  6
CONTINUOUS
 10
202.0960527134
 20
225.6750548537
  0
SEQEND
  0
LINE
  8
0
 62
7
  6
CONTINUOUS
 10
202.5336767343
 20
226.2031217764
 11
202.4453663788
 21
226.1681233034
  0
LINE
  8
0
 62
7
  6
CONTINUOUS
 10
101.4399267753
 20
227.7384763891
 11
101.4007279718
 21
227.7369742399
  0
LINE
  8
0
 62
7
  6
CONTINUOUS
 10
101.4848493795
 20
227.7399100029
 11
101.4399267753
 21
227.7384763891
  0
LINE
  8
0
 62
7
  6
CONTINUOUS
 10
101.536135377
 20
227.7412755375
 11
101.4848493795
 21
227.7399100029
  0
LINE
  8
0
 62
7
  6
CONTINUOUS
 10
101.6262197488
 20
227.7431872625
 11
101.536135377
 21
227.7412755375
  0
LINE
  8
0
 62
7
  6
CONTINUOUS
 10
101.7737019262
 20
227.745455029
 11
101.6262197488
 21
227.7431872625
  0
LINE
  8
0
 62
7
  6
CONTINUOUS
 10
102.0090606637
 20
227.7477965966
 11
101.7737019262
 21
227.745455029
  0
LINE
  8
0
 62
7
  6
CONTINUOUS
 10
102.519588663
 20
227.7502874451
 11
102.0090606637
 21
227.7477965966
  0
LINE
  8
0
 62
7
  6
CONTINUOUS
 10
238.8443471056
 20
227.7526845568
 11
238.4876448086
 21
227.7521567784
  0
LINE
  8
0
 62
7
  6
CONTINUOUS
 10
213.4443471056
 20
227.7526845568
 11
213.0876448086
 21
227.7521567784
  0
LINE
  8
0
 62
7
  6
CONTINUOUS
 10
188.0443471056
 20
227.7526845568
 11
187.6876448086
 21
227.7521567784
  0
LINE
  8
0
 62
7
  6
CONTINUOUS
 10
238.4876448086
 20
227.7521567784
 11
237.7507240201
 21
227.7513643317
  0
LINE
  8
0
 62
7
  6
CONTINUOUS
 10
213.0876448086
 20
227.7521567784
 11
212.3507240201
 21
227.7513643317
  0
LINE
  8
0
 62
7
  6
CONTINUOUS
 10
187.6876448086
 20
227.7521567784
 11
186.9507240201
 21
227.7513643317
  0
LINE
  8
0
 62
7
  6
CONTINUOUS
 10
162.9879467927
 20
227.7531224881
 11
161.5507240201
 21
227.7513643317
  0
LINE
  8
0
 62
7
  6
CONTINUOUS
 10
239.489218752
 20
227.7532906985
 11
238.8443471056
 21
227.7526845568
  0
LINE
  8
0
 62
7
  6
CONTINUOUS
 10
214.089218752
 20
227.7532906985
 11
213.4443471056
 21
227.7526845568
  0
LINE
  8
0
 62
7
  6
CONTINUOUS
 10
188.689218752
 20
227.7532906985
 11
188.0443471056
 21
227.7526845568
  0
LINE
  8
0
 62
7
  6
CONTINUOUS
 10
137.889218752
 20
227.7532906985
 11
136.3366727147
 21
227.751499739
  0
LINE
  8
0
 62
7
  6
CONTINUOUS
 10
112.489218752
 20
227.7532906985
 11
110.9366727147
 21
227.751499739
  0
LINE
  8
0
 62
7
  6
CONTINUOUS
 10
21.1960526317
 20
224.7532906725
 11
324.8960526317
 21
224.7532906725
  0
LINE
  8
0
 62
7
  6
CONTINUOUS
 10
103.2960898613
 20
227.751259231
 11
110.9366727147
 21
227.751499739
  0
LINE
  8
0
 62
7
  6
CONTINUOUS
 10
244.5993403207
 20
227.7532906725
 11
239.488273813
 21
227.7532906725
  0
LINE
  8
0
 62
7
  6
CONTINUOUS
 10
103.2960898613
 20
227.7512592314
 11
102.519588663
 21
227.7502874451
  0
LINE
  8
0
 62
7
  6
CONTINUOUS
 10
136.3366727147
 20
227.751499739
 11
121.2153797672
 21
227.7512859389
  0
LINE
  8
0
 62
7
  6
CONTINUOUS
 10
161.5507240201
 20
227.7513643317
 11
146.6153797672
 21
227.7512859389
  0
LINE
  8
0
 62
7
  6
CONTINUOUS
 10
186.9507240201
 20
227.7513643317
 11
172.0153797672
 21
227.7512859389
  0
LINE
  8
0
 62
7
  6
CONTINUOUS
 10
162.9879467927
 20
227.7531224881
 11
170.2040974999
 21
227.7532689193
  0
LINE
  8
0
 62
7
  6
CONTINUOUS
 10
212.3507240201
 20
227.7513643317
 11
197.4153797672
 21
227.7512859389
  0
LINE
  8
0
 62
7
  6
CONTINUOUS
 10
237.7507240201
 20
227.7513643317
 11
222.6194289942
 21
227.7513770919
  0
LINE
  8
0
 62
7
  6
CONTINUOUS
 10
146.7960527201
 20
227.7512513876
 11
146.0317610167
 21
227.7517263051
  0
LINE
  8
0
 62
7
  6
CONTINUOUS
 10
121.3960527201
 20
227.7512513876
 11
120.4405230731
 21
227.7519671631
  0
LINE
  8
0
 62
7
  6
CONTINUOUS
 10
112.488273813
 20
227.7532906725
 11
119.7572626281
 21
227.7529454529
  0
LINE
  8
0
 62
7
  6
CONTINUOUS
 10
137.888273813
 20
227.7532906725
 11
145.1572626281
 21
227.7529454529
  0
LINE
  8
0
 62
7
  6
CONTINUOUS
 10
172.0471333038
 20
227.7512699339
 11
171.2405230731
 21
227.7519671631
  0
LINE
  8
0
 62
7
  6
CONTINUOUS
 10
188.688273813
 20
227.7532906725
 11
195.9572626281
 21
227.7529454529
  0
LINE
  8
0
 62
7
  6
CONTINUOUS
 10
214.088273813
 20
227.7532906725
 11
221.3572626281
 21
227.7529454529
  0
LINE
  8
0
 62
7
  6
CONTINUOUS
 10
196.6405230731
 20
227.7519671631
 11
197.4471333038
 21
227.7512699339
  0
LINE
  8
0
 62
7
  6
CONTINUOUS
 10
222.0405230731
 20
227.7519671631
 11
222.7060272093
 21
227.7513215665
  0
LINE
  8
0
 62
7
  6
CONTINUOUS
 10
120.7131887851
 20
227.7516295322
 11
119.9828768562
 21
227.752630546
  0
LINE
  8
0
 62
7
  6
CONTINUOUS
 10
120.2187580092
 20
227.7522783432
 11
120.3397287237
 21
227.7521020912
  0
LINE
  8
0
 62
7
  6
CONTINUOUS
 10
120.0644134144
 20
227.752513438
 11
119.6996407472
 21
227.7530176441
  0
LINE
  8
0
 62
7
  6
CONTINUOUS
 10
146.240678934
 20
227.7515047842
 11
145.0996407472
 21
227.7530176441
  0
LINE
  8
0
 62
7
  6
CONTINUOUS
 10
171.3871900804
 20
227.751773191
 11
170.204307673
 21
227.753268688
  0
LINE
  8
0
 62
7
  6
CONTINUOUS
 10
196.6625657651
 20
227.7519322198
 11
195.8996407472
 21
227.7530176441
  0
LINE
  8
0
 62
7
  6
CONTINUOUS
 10
221.6644134144
 20
227.752513438
 11
221.2996407472
 21
227.7530176441
  0
LINE
  8
0
 62
7
  6
CONTINUOUS
 10
221.8187580092
 20
227.7522783432
 11
222.0625657651
 21
227.7519322198
  0
LINE
  8
0
 62
7
  6
CONTINUOUS
 10
221.5828768562
 20
227.752630546
 11
221.8513147099
 21
227.7522351497
  0
LINE
  8
0
 62
7
  6
CONTINUOUS
 10
244.6803619405
 20
227.7531519547
 11
244.6002024604
 21
227.7532906718
  0
LINE
  8
0
 62
7
  6
CONTINUOUS
 10
244.7301323605
 20
227.7528327704
 11
244.6803619405
 21
227.7531519547
  0
LINE
  8
0
 62
7
  6
CONTINUOUS
 10
244.754154371
 20
227.75255023
 11
244.7301323605
 21
227.7528327704
  0
LINE
  8
0
 62
7
  6
CONTINUOUS
 10
244.7681966796
 20
227.7523182316
 11
244.754154371
 21
227.75255023
  0
LINE
  8
0
 62
7
  6
CONTINUOUS
 10
244.7809514245
 20
227.7520432362
 11
244.7681966796
 21
227.7523182316
  0
LINE
  8
0
 62
7
  6
CONTINUOUS
 10
156.3467388843
 20
226.1681233035
 11
156.2584285292
 21
226.2031217764
  0
LINE
  8
0
 62
7
  6
CONTINUOUS
 10
181.7467388843
 20
226.1681233035
 11
181.6584285292
 21
226.2031217764
  0
POLYLINE
  8
0
 62
7
  6
CONTINUOUS
 66
1
 70
0
  0
VERTEX
  8
0
 62
7
  6
CONTINUOUS
 10
156.2584180686
 20
226.2031259055
  0
VERTEX
  8
0
 62
7
  6
CONTINUOUS
 10
156.2474370992
 20
226.2076028849
  0
VERTEX
  8
0
 62
7
  6
CONTINUOUS
 10
156.2376341396
 20
226.2119329095
  0
VERTEX
  8
0
 62
7
  6
CONTINUOUS
 10
156.2323561145
 20
226.2144895106
  0
VERTEX
  8
0
 62
7
  6
CONTINUOUS
 10
156.2313296056
 20
226.215027204
  0
SEQEND
  0
POLYLINE
  8
0
 62
7
  6
CONTINUOUS
 66
1
 70
0
  0
VERTEX
  8
0
 62
7
  6
CONTINUOUS
 10
181.6584180686
 20
226.2031259055
  0
VERTEX
  8
0
 62
7
  6
CONTINUOUS
 10
181.6474370992
 20
226.2076028849
  0
VERTEX
  8
0
 62
7
  6
CONTINUOUS
 10
181.6376341396
 20
226.2119329095
  0
VERTEX
  8
0
 62
7
  6
CONTINUOUS
 10
181.6323561145
 20
226.2144895106
  0
VERTEX
  8
0
 62
7
  6
CONTINUOUS
 10
181.6313296056
 20
226.215027204
  0
SEQEND
  0
POLYLINE
  8
0
 62
7
  6
CONTINUOUS
 66
1
 70
0
  0
VERTEX
  8
0
 62
7
  6
CONTINUOUS
 10
182.0960525598
 20
225.6750549083
  0
VERTEX
  8
0
 62
7
  6
CONTINUOUS
 10
182.0950493062
 20
225.707106052
  0
VERTEX
  8
0
 62
7
  6
CONTINUOUS
 10
182.0901204462
 20
225.7528060629
  0
VERTEX
  8
0
 62
7
  6
CONTINUOUS
 10
182.0811096876
 20
225.7979214623
  0
VERTEX
  8
0
 62
7
  6
CONTINUOUS
 10
182.068092931
 20
225.8420622431
  0
VERTEX
  8
0
 62
7
  6
CONTINUOUS
 10
182.0511948563
 20
225.8848409255
  0
VERTEX
  8
0
 62
7
  6
CONTINUOUS
 10
182.0305897637
 20
225.9258844044
  0
VERTEX
  8
0
 62
7
  6
CONTINUOUS
 10
182.0064938226
 20
225.9648539053
  0
VERTEX
  8
0
 62
7
  6
CONTINUOUS
 10
181.9791582987
 20
226.0014510801
  0
VERTEX
  8
0
 62
7
  6
CONTINUOUS
 10
181.9488719405
 20
226.0354137167
  0
VERTEX
  8
0
 62
7
  6
CONTINUOUS
 10
181.9163010472
 20
226.0662269473
  0
VERTEX
  8
0
 62
7
  6
CONTINUOUS
 10
181.8833888629
 20
226.0926919837
  0
VERTEX
  8
0
 62
7
  6
CONTINUOUS
 10
181.851516176
 20
226.1146923143
  0
VERTEX
  8
0
 62
7
  6
CONTINUOUS
 10
181.8208797084
 20
226.1330145836
  0
VERTEX
  8
0
 62
7
  6
CONTINUOUS
 10
181.7913722103
 20
226.1484109801
  0
VERTEX
  8
0
 62
7
  6
CONTINUOUS
 10
181.7627815746
 20
226.1614914386
  0
VERTEX
  8
0
 62
7
  6
CONTINUOUS
 10
181.7467295125
 20
226.1681270096
  0
SEQEND
  0
LINE
  8
0
 62
7
  6
CONTINUOUS
 10
181.7960526317
 20
227.1666146197
 11
181.7960526317
 21
226.1459688339
  0
LINE
  8
0
 62
7
  6
CONTINUOUS
 10
182.0960526317
 20
225.6750576394
 11
182.0960526317
 21
224.7532906725
  0
LINE
  8
0
 62
7
  6
CONTINUOUS
 10
185.5960526317
 20
222.0532906725
 11
185.5960526317
 21
212.4532906725
  0
POLYLINE
  8
0
 62
7
  6
CONTINUOUS
 66
1
 70
0
  0
VERTEX
  8
0
 62
7
  6
CONTINUOUS
 10
227.8453777979
 20
226.1681278287
  0
VERTEX
  8
0
 62
7
  6
CONTINUOUS
 10
227.8284465562
 20
226.1611147839
  0
VERTEX
  8
0
 62
7
  6
CONTINUOUS
 10
227.799855793
 20
226.1479822645
  0
VERTEX
  8
0
 62
7
  6
CONTINUOUS
 10
227.7702882135
 20
226.1324909964
  0
VERTEX
  8
0
 62
7
  6
CONTINUOUS
 10
227.7395740042
 20
226.1140403529
  0
VERTEX
  8
0
 62
7
  6
CONTINUOUS
 10
227.7076487748
 20
226.0918971011
  0
VERTEX
  8
0
 62
7
  6
CONTINUOUS
 10
227.6747474188
 20
226.0653051269
  0
VERTEX
  8
0
 62
7
  6
CONTINUOUS
 10
227.6422555978
 20
226.0344051552
  0
VERTEX
  8
0
 62
7
  6
CONTINUOUS
 10
227.6120733996
 20
226.0003791757
  0
VERTEX
  8
0
 62
7
  6
CONTINUOUS
 10
227.5848411694
 20
225.9637195404
  0
VERTEX
  8
0
 62
7
  6
CONTINUOUS
 10
227.5608528314
 20
225.9246950868
  0
VERTEX
  8
0
 62
7
  6
CONTINUOUS
 10
227.5403617316
 20
225.8836107018
  0
VERTEX
  8
0
 62
7
  6
CONTINUOUS
 10
227.5235816811
 20
225.8408059711
  0
VERTEX
  8
0
 62
7
  6
CONTINUOUS
 10
227.51068412
 20
225.7966525847
  0
VERTEX
  8
0
 62
7
  6
CONTINUOUS
 10
227.5017915237
 20
225.7515359346
  0
VERTEX
  8
0
 62
7
  6
CONTINUOUS
 10
227.4969784219
 20
225.7058436884
  0
VERTEX
  8
0
 62
7
  6
CONTINUOUS
 10
227.4960527134
 20
225.6750548537
  0
SEQEND
  0
LINE
  8
0
 62
7
  6
CONTINUOUS
 10
227.9336767343
 20
226.2031217764
 11
227.8453663788
 21
226.1681233034
  0
POLYLINE
  8
0
 62
7
  6
CONTINUOUS
 66
1
 70
0
  0
VERTEX
  8
0
 62
7
  6
CONTINUOUS
 10
101.2856279205
 20
227.7298469057
  0
VERTEX
  8
0
 62
7
  6
CONTINUOUS
 10
101.2737495512
 20
227.7286669641
  0
VERTEX
  8
0
 62
7
  6
CONTINUOUS
 10
101.2618268605
 20
227.7273377125
  0
VERTEX
  8
0
 62
7
  6
CONTINUOUS
 10
101.2496091857
 20
227.7258019069
  0
VERTEX
  8
0
 62
7
  6
CONTINUOUS
 10
101.2368144226
 20
227.723979441
  0
VERTEX
  8
0
 62
7
  6
CONTINUOUS
 10
101.2232583196
 20
227.7217814172
  0
VERTEX
  8
0
 62
7
  6
CONTINUOUS
 10
101.2088334143
 20
227.7191108094
  0
VERTEX
  8
0
 62
7
  6
CONTINUOUS
 10
101.1935238116
 20
227.715871588
  0
VERTEX
  8
0
 62
7
  6
CONTINUOUS
 10
101.1771478533
 20
227.7119136739
  0
VERTEX
  8
0
 62
7
  6
CONTINUOUS
 10
101.1590867923
 20
227.7069219084
  0
VERTEX
  8
0
 62
7
  6
CONTINUOUS
 10
101.138606528
 20
227.700420667
  0
VERTEX
  8
0
 62
7
  6
CONTINUOUS
 10
101.1154291195
 20
227.6919202646
  0
VERTEX
  8
0
 62
7
  6
CONTINUOUS
 10
101.0899724875
 20
227.6810895588
  0
VERTEX
  8
0
 62
7
  6
CONTINUOUS
 10
101.0629034005
 20
227.6677165784
  0
VERTEX
  8
0
 62
7
  6
CONTINUOUS
 10
101.0346605274
 20
227.6515215673
  0
VERTEX
  8
0
 62
7
  6
CONTINUOUS
 10
101.0055813108
 20
227.6321612159
  0
VERTEX
  8
0
 62
7
  6
CONTINUOUS
 10
100.9760335464
 20
227.6092711352
  0
VERTEX
  8
0
 62
7
  6
CONTINUOUS
 10
100.9463529051
 20
227.5823834914
  0
VERTEX
  8
0
 62
7
  6
CONTINUOUS
 10
100.9170698366
 20
227.551089161
  0
VERTEX
  8
0
 62
7
  6
CONTINUOUS
 10
100.8892581331
 20
227.5155902585
  0
VERTEX
  8
0
 62
7
  6
CONTINUOUS
 10
100.8640581198
 20
227.4765563647
  0
VERTEX
  8
0
 62
7
  6
CONTINUOUS
 10
100.8423448544
 20
227.4348496181
  0
VERTEX
  8
0
 62
7
  6
CONTINUOUS
 10
100.8245545799
 20
227.3910609282
  0
VERTEX
  8
0
 62
7
  6
CONTINUOUS
 10
100.8109369994
 20
227.3456600605
  0
VERTEX
  8
0
 62
7
  6
CONTINUOUS
 10
100.8016670965
 20
227.2991479622
  0
VERTEX
  8
0
 62
7
  6
CONTINUOUS
 10
100.7968417409
 20
227.252042911
  0
VERTEX
  8
0
 62
7
  6
CONTINUOUS
 10
100.7960899111
 20
227.2246091261
  0
SEQEND
  0
LINE
  8
0
 62
7
  6
CONTINUOUS
 10
101.2955363418
 20
227.7307274646
 11
101.2856279205
 21
227.7298469057
  0
LINE
  8
0
 62
7
  6
CONTINUOUS
 10
101.310087806
 20
227.7319080081
 11
101.2955363418
 21
227.7307274646
  0
POLYLINE
  8
0
 62
7
  6
CONTINUOUS
 66
1
 70
0
  0
VERTEX
  8
0
 62
7
  6
CONTINUOUS
 10
101.3665710884
 20
227.7353968271
  0
VERTEX
  8
0
 62
7
  6
CONTINUOUS
 10
101.351146426
 20
227.7345745633
  0
VERTEX
  8
0
 62
7
  6
CONTINUOUS
 10
101.3366757253
 20
227.7337241237
  0
VERTEX
  8
0
 62
7
  6
CONTINUOUS
 10
101.3230357403
 20
227.7328386381
  0
VERTEX
  8
0
 62
7
  6
CONTINUOUS
 10
101.310087806
 20
227.7319080081
  0
SEQEND
  0
LINE
  8
0
 62
7
  6
CONTINUOUS
 10
101.4007279718
 20
227.7369742399
 11
101.3665710884
 21
227.7353968271
  0
LINE
  8
0
 62
7
  6
CONTINUOUS
 10
207.1467388843
 20
226.1681233035
 11
207.0584285292
 21
226.2031217764
  0
POLYLINE
  8
0
 62
7
  6
CONTINUOUS
 66
1
 70
0
  0
VERTEX
  8
0
 62
7
  6
CONTINUOUS
 10
207.0584180686
 20
226.2031259055
  0
VERTEX
  8
0
 62
7
  6
CONTINUOUS
 10
207.0474370992
 20
226.2076028849
  0
VERTEX
  8
0
 62
7
  6
CONTINUOUS
 10
207.0376341396
 20
226.2119329095
  0
VERTEX
  8
0
 62
7
  6
CONTINUOUS
 10
207.0323561145
 20
226.2144895106
  0
VERTEX
  8
0
 62
7
  6
CONTINUOUS
 10
207.0313296056
 20
226.215027204
  0
SEQEND
  0
LINE
  8
0
 62
7
  6
CONTINUOUS
 10
198.5960526317
 20
212.4532906725
 11
198.5960526317
 21
222.0532906725
  0
LINE
  8
0
 62
7
  6
CONTINUOUS
 10
202.0960526317
 20
224.7532906725
 11
202.0960526317
 21
225.6750576394
  0
POLYLINE
  8
0
 62
7
  6
CONTINUOUS
 66
1
 70
0
  0
VERTEX
  8
0
 62
7
  6
CONTINUOUS
 10
227.9585473908
 20
226.2137096411
  0
VERTEX
  8
0
 62
7
  6
CONTINUOUS
 10
227.9606087915
 20
226.2149334572
  0
VERTEX
  8
0
 62
7
  6
CONTINUOUS
 10
227.9597024393
 20
226.2144656033
  0
VERTEX
  8
0
 62
7
  6
CONTINUOUS
 10
227.9543493531
 20
226.2118763919
  0
VERTEX
  8
0
 62
7
  6
CONTINUOUS
 10
227.9444600849
 20
226.2075149186
  0
VERTEX
  8
0
 62
7
  6
CONTINUOUS
 10
227.933687728
 20
226.203126116
  0
SEQEND
  0
LINE
  8
0
 62
7
  6
CONTINUOUS
 10
232.5467388843
 20
226.1681233035
 11
232.4584285292
 21
226.2031217764
  0
POLYLINE
  8
0
 62
7
  6
CONTINUOUS
 66
1
 70
0
  0
VERTEX
  8
0
 62
7
  6
CONTINUOUS
 10
232.4584180686
 20
226.2031259055
  0
VERTEX
  8
0
 62
7
  6
CONTINUOUS
 10
232.4474370992
 20
226.2076028849
  0
VERTEX
  8
0
 62
7
  6
CONTINUOUS
 10
232.4376341396
 20
226.2119329095
  0
VERTEX
  8
0
 62
7
  6
CONTINUOUS
 10
232.4323561145
 20
226.2144895106
  0
VERTEX
  8
0
 62
7
  6
CONTINUOUS
 10
232.4313296056
 20
226.215027204
  0
SEQEND
  0
POLYLINE
  8
0
 62
7
  6
CONTINUOUS
 66
1
 70
0
  0
VERTEX
  8
0
 62
7
  6
CONTINUOUS
 10
207.4960525598
 20
225.6750549083
  0
VERTEX
  8
0
 62
7
  6
CONTINUOUS
 10
207.4950493062
 20
225.707106052
  0
VERTEX
  8
0
 62
7
  6
CONTINUOUS
 10
207.4901204462
 20
225.7528060629
  0
VERTEX
  8
0
 62
7
  6
CONTINUOUS
 10
207.4811096876
 20
225.7979214623
  0
VERTEX
  8
0
 62
7
  6
CONTINUOUS
 10
207.468092931
 20
225.8420622431
  0
VERTEX
  8
0
 62
7
  6
CONTINUOUS
 10
207.4511948563
 20
225.8848409255
  0
VERTEX
  8
0
 62
7
  6
CONTINUOUS
 10
207.4305897636
 20
225.9258844044
  0
VERTEX
  8
0
 62
7
  6
CONTINUOUS
 10
207.4064938226
 20
225.9648539053
  0
VERTEX
  8
0
 62
7
  6
CONTINUOUS
 10
207.3791582987
 20
226.0014510801
  0
VERTEX
  8
0
 62
7
  6
CONTINUOUS
 10
207.3488719405
 20
226.0354137167
  0
VERTEX
  8
0
 62
7
  6
CONTINUOUS
 10
207.3163010472
 20
226.0662269473
  0
VERTEX
  8
0
 62
7
  6
CONTINUOUS
 10
207.2833888629
 20
226.0926919837
  0
VERTEX
  8
0
 62
7
  6
CONTINUOUS
 10
207.251516176
 20
226.1146923143
  0
VERTEX
  8
0
 62
7
  6
CONTINUOUS
 10
207.2208797084
 20
226.1330145836
  0
VERTEX
  8
0
 62
7
  6
CONTINUOUS
 10
207.1913722103
 20
226.1484109801
  0
VERTEX
  8
0
 62
7
  6
CONTINUOUS
 10
207.1627815746
 20
226.1614914386
  0
VERTEX
  8
0
 62
7
  6
CONTINUOUS
 10
207.1467295125
 20
226.1681270096
  0
SEQEND
  0
LINE
  8
0
 62
7
  6
CONTINUOUS
 10
202.3960526317
 20
226.1459896837
 11
202.3960526317
 21
227.1666146197
  0
LINE
  8
0
 62
7
  6
CONTINUOUS
 10
207.1960526317
 20
227.1666146197
 11
207.1960526317
 21
226.1459688339
  0
LINE
  8
0
 62
7
  6
CONTINUOUS
 10
207.4960526317
 20
225.6750576394
 11
207.4960526317
 21
224.7532906725
  0
LINE
  8
0
 62
7
  6
CONTINUOUS
 10
210.9960526317
 20
222.0532906725
 11
210.9960526317
 21
212.4532906725
  0
POLYLINE
  8
0
 62
7
  6
CONTINUOUS
 66
1
 70
0
  0
VERTEX
  8
0
 62
7
  6
CONTINUOUS
 10
325.1960526317
 20
220.4719250612
  0
VERTEX
  8
0
 62
7
  6
CONTINUOUS
 10
325.2126720705
 20
220.466576498
  0
VERTEX
  8
0
 62
7
  6
CONTINUOUS
 10
325.2753884771
 20
220.4381886234
  0
SEQEND
  0
POLYLINE
  8
0
 62
7
  6
CONTINUOUS
 66
1
 70
0
  0
VERTEX
  8
0
 62
7
  6
CONTINUOUS
 10
232.8960525598
 20
225.6750549083
  0
VERTEX
  8
0
 62
7
  6
CONTINUOUS
 10
232.8950493062
 20
225.707106052
  0
VERTEX
  8
0
 62
7
  6
CONTINUOUS
 10
232.8901204462
 20
225.7528060629
  0
VERTEX
  8
0
 62
7
  6
CONTINUOUS
 10
232.8811096876
 20
225.7979214623
  0
VERTEX
  8
0
 62
7
  6
CONTINUOUS
 10
232.868092931
 20
225.8420622431
  0
VERTEX
  8
0
 62
7
  6
CONTINUOUS
 10
232.8511948563
 20
225.8848409256
  0
VERTEX
  8
0
 62
7
  6
CONTINUOUS
 10
232.8305897636
 20
225.9258844044
  0
VERTEX
  8
0
 62
7
  6
CONTINUOUS
 10
232.8064938226
 20
225.9648539053
  0
VERTEX
  8
0
 62
7
  6
CONTINUOUS
 10
232.7791582986
 20
226.0014510801
  0
VERTEX
  8
0
 62
7
  6
CONTINUOUS
 10
232.7488719405
 20
226.0354137167
  0
VERTEX
  8
0
 62
7
  6
CONTINUOUS
 10
232.7163010471
 20
226.0662269473
  0
VERTEX
  8
0
 62
7
  6
CONTINUOUS
 10
232.6833888628
 20
226.0926919837
  0
VERTEX
  8
0
 62
7
  6
CONTINUOUS
 10
232.6515161759
 20
226.1146923143
  0
VERTEX
  8
0
 62
7
  6
CONTINUOUS
 10
232.6208797084
 20
226.1330145836
  0
VERTEX
  8
0
 62
7
  6
CONTINUOUS
 10
232.5913722102
 20
226.1484109801
  0
VERTEX
  8
0
 62
7
  6
CONTINUOUS
 10
232.5627815746
 20
226.1614914386
  0
VERTEX
  8
0
 62
7
  6
CONTINUOUS
 10
232.5467295125
 20
226.1681270096
  0
SEQEND
  0
LINE
  8
0
 62
7
  6
CONTINUOUS
 10
223.9960526317
 20
212.4532906725
 11
223.9960526317
 21
222.0532906725
  0
LINE
  8
0
 62
7
  6
CONTINUOUS
 10
227.4960526317
 20
224.7532906725
 11
227.4960526317
 21
225.6750576394
  0
LINE
  8
0
 62
7
  6
CONTINUOUS
 10
227.7960526317
 20
226.1459896837
 11
227.7960526317
 21
227.1666146197
  0
LINE
  8
0
 62
7
  6
CONTINUOUS
 10
232.5960526317
 20
227.1666146197
 11
232.5960526317
 21
226.1459688339
  0
LINE
  8
0
 62
7
  6
CONTINUOUS
 10
232.8960526317
 20
225.6750576394
 11
232.8960526317
 21
224.7532906725
  0
LINE
  8
0
 62
7
  6
CONTINUOUS
 10
236.3960526317
 20
222.0532906725
 11
236.3960526317
 21
212.4532906725
  0
POLYLINE
  8
0
 62
7
  6
CONTINUOUS
 66
1
 70
0
  0
VERTEX
  8
0
 62
7
  6
CONTINUOUS
 10
325.2753884771
 20
214.0683927215
  0
VERTEX
  8
0
 62
7
  6
CONTINUOUS
 10
325.2126720731
 20
214.0400048479
  0
VERTEX
  8
0
 62
7
  6
CONTINUOUS
 10
325.1960526317
 20
214.0346562838
  0
SEQEND
  0
POLYLINE
  8
0
 62
7
  6
CONTINUOUS
 66
1
 70
0
  0
VERTEX
  8
0
 62
7
  6
CONTINUOUS
 10
245.5960525502
 20
225.6551458192
  0
VERTEX
  8
0
 62
7
  6
CONTINUOUS
 10
245.5951290317
 20
225.6859030459
  0
VERTEX
  8
0
 62
7
  6
CONTINUOUS
 10
245.5903392438
 20
225.7314697103
  0
VERTEX
  8
0
 62
7
  6
CONTINUOUS
 10
245.581493879
 20
225.7764645959
  0
VERTEX
  8
0
 62
7
  6
CONTINUOUS
 10
245.5686664226
 20
225.8205049829
  0
VERTEX
  8
0
 62
7
  6
CONTINUOUS
 10
245.5519772558
 20
225.8632101831
  0
VERTEX
  8
0
 62
7
  6
CONTINUOUS
 10
245.5315948124
 20
225.9042125804
  0
VERTEX
  8
0
 62
7
  6
CONTINUOUS
 10
245.5077298552
 20
225.9431748401
  0
VERTEX
  8
0
 62
7
  6
CONTINUOUS
 10
245.4806355274
 20
225.9797899028
  0
VERTEX
  8
0
 62
7
  6
CONTINUOUS
 10
245.4506075708
 20
226.0137862721
  0
VERTEX
  8
0
 62
7
  6
CONTINUOUS
 10
245.418262276
 20
226.0446922894
  0
VERTEX
  8
0
 62
7
  6
CONTINUOUS
 10
245.3854520056
 20
226.0713467919
  0
VERTEX
  8
0
 62
7
  6
CONTINUOUS
 10
245.3535462976
 20
226.0935954186
  0
VERTEX
  8
0
 62
7
  6
CONTINUOUS
 10
245.3228057656
 20
226.1121628818
  0
VERTEX
  8
0
 62
7
  6
CONTINUOUS
 10
245.2960526317
 20
226.1262571936
  0
SEQEND
  0
POLYLINE
  8
0
 62
7
  6
CONTINUOUS
 66
1
 70
0
  0
VERTEX
  8
0
 62
7
  6
CONTINUOUS
 10
245.2960525819
 20
227.2504166335
  0
VERTEX
  8
0
 62
7
  6
CONTINUOUS
 10
245.2951772731
 20
227.2799919965
  0
VERTEX
  8
0
 62
7
  6
CONTINUOUS
 10
245.2906469209
 20
227.3237474763
  0
VERTEX
  8
0
 62
7
  6
CONTINUOUS
 10
245.2827337327
 20
227.3650633126
  0
VERTEX
  8
0
 62
7
  6
CONTINUOUS
 10
245.2719250375
 20
227.4038760632
  0
VERTEX
  8
0
 62
7
  6
CONTINUOUS
 10
245.2586492311
 20
227.4401828851
  0
VERTEX
  8
0
 62
7
  6
CONTINUOUS
 10
245.2432757907
 20
227.4740262864
  0
VERTEX
  8
0
 62
7
  6
CONTINUOUS
 10
245.2261179471
 20
227.5054796012
  0
VERTEX
  8
0
 62
7
  6
CONTINUOUS
 10
245.2074668287
 20
227.534591913
  0
VERTEX
  8
0
 62
7
  6
CONTINUOUS
 10
245.1876171603
 20
227.5613810534
  0
VERTEX
  8
0
 62
7
  6
CONTINUOUS
 10
245.1668433128
 20
227.5858877041
  0
VERTEX
  8
0
 62
7
  6
CONTINUOUS
 10
245.1453964494
 20
227.6081748094
  0
VERTEX
  8
0
 62
7
  6
CONTINUOUS
 10
245.1234907135
 20
227.6283350688
  0
VERTEX
  8
0
 62
7
  6
CONTINUOUS
 10
245.101297998
 20
227.6464847959
  0
VERTEX
  8
0
 62
7
  6
CONTINUOUS
 10
245.0789621481
 20
227.6627446267
  0
VERTEX
  8
0
 62
7
  6
CONTINUOUS
 10
245.0566112135
 20
227.6772301161
  0
VERTEX
  8
0
 62
7
  6
CONTINUOUS
 10
245.0344110223
 20
227.6900246848
  0
VERTEX
  8
0
 62
7
  6
CONTINUOUS
 10
245.0125336489
 20
227.7012122298
  0
VERTEX
  8
0
 62
7
  6
CONTINUOUS
 10
244.9911383079
 20
227.7108887909
  0
VERTEX
  8
0
 62
7
  6
CONTINUOUS
 10
244.970378258
 20
227.7191573894
  0
VERTEX
  8
0
 62
7
  6
CONTINUOUS
 10
244.9504126512
 20
227.7261235133
  0
VERTEX
  8
0
 62
7
  6
CONTINUOUS
 10
244.9313951759
 20
227.7318999957
  0
VERTEX
  8
0
 62
7
  6
CONTINUOUS
 10
244.913611495
 20
227.7365721094
  0
VERTEX
  8
0
 62
7
  6
CONTINUOUS
 10
244.8974936561
 20
227.7402167784
  0
VERTEX
  8
0
 62
7
  6
CONTINUOUS
 10
244.88332209
 20
227.7429706615
  0
VERTEX
  8
0
 62
7
  6
CONTINUOUS
 10
244.8707583371
 20
227.7450681406
  0
VERTEX
  8
0
 62
7
  6
CONTINUOUS
 10
244.8592140278
 20
227.7467174711
  0
VERTEX
  8
0
 62
7
  6
CONTINUOUS
 10
244.8485825127
 20
227.7480075616
  0
VERTEX
  8
0
 62
7
  6
CONTINUOUS
 10
244.8391239126
 20
227.7489774504
  0
VERTEX
  8
0
 62
7
  6
CONTINUOUS
 10
244.8308373313
 20
227.7496959811
  0
VERTEX
  8
0
 62
7
  6
CONTINUOUS
 10
244.8234642908
 20
227.7502386668
  0
VERTEX
  8
0
 62
7
  6
CONTINUOUS
 10
244.8167449784
 20
227.7506602762
  0
VERTEX
  8
0
 62
7
  6
CONTINUOUS
 10
244.8104638224
 20
227.7509976666
  0
VERTEX
  8
0
 62
7
  6
CONTINUOUS
 10
244.8044638923
 20
227.7512747556
  0
VERTEX
  8
0
 62
7
  6
CONTINUOUS
 10
244.7986239651
 20
227.7515077038
  0
VERTEX
  8
0
 62
7
  6
CONTINUOUS
 10
244.7928277648
 20
227.7517082963
  0
VERTEX
  8
0
 62
7
  6
CONTINUOUS
 10
244.7809514245
 20
227.7520432362
  0
SEQEND
  0
LINE
  8
0
 62
7
  6
CONTINUOUS
 10
245.2960526317
 20
224.7532906725
 11
245.2960526317
 21
227.2504167837
  0
LINE
  8
0
 62
7
  6
CONTINUOUS
 10
245.5960526317
 20
225.6551486159
 11
245.5960526317
 21
224.7532906725
  0
LINE
  8
0
 62
7
  6
CONTINUOUS
 10
249.3960526317
 20
212.4532906725
 11
249.3960526317
 21
222.0532906725
  0
POLYLINE
  8
0
 62
7
  6
CONTINUOUS
 66
1
 70
0
  0
VERTEX
  8
0
 62
7
  6
CONTINUOUS
 10
325.2753884771
 20
220.4381886234
  0
VERTEX
  8
0
 62
7
  6
CONTINUOUS
 10
325.2843471985
 20
220.4327028633
  0
VERTEX
  8
0
 62
7
  6
CONTINUOUS
 10
325.2908199577
 20
220.4268186156
  0
VERTEX
  8
0
 62
7
  6
CONTINUOUS
 10
325.294736152
 20
220.42057102
  0
VERTEX
  8
0
 62
7
  6
CONTINUOUS
 10
325.2960526317
 20
220.4139817287
  0
SEQEND
  0
LINE
  8
0
 62
7
  6
CONTINUOUS
 10
261.7960526317
 20
222.0532906725
 11
261.7960526317
 21
212.4532906725
  0
LINE
  8
0
 62
7
  6
CONTINUOUS
 10
274.7960526317
 20
212.4532906725
 11
274.7960526317
 21
222.0532906725
  0
LINE
  8
0
 62
7
  6
CONTINUOUS
 10
287.1960526317
 20
222.0532906725
 11
287.1960526317
 21
212.4532906725
  0
LINE
  8
0
 62
7
  6
CONTINUOUS
 10
300.1960526317
 20
212.4532906725
 11
300.1960526317
 21
222.0532906725
  0
LINE
  8
0
 62
7
  6
CONTINUOUS
 10
312.5960526317
 20
222.0532906725
 11
312.5960526317
 21
212.4532906725
  0
LINE
  8
0
 62
7
  6
CONTINUOUS
 10
325.1960526317
 20
224.4532906725
 11
325.1960526317
 21
210.0532906725
  0
LINE
  8
0
 62
7
  6
CONTINUOUS
 10
325.2960526317
 20
212.4532906725
 11
325.2960526317
 21
222.0532906725
  0
POLYLINE
  8
0
 62
7
  6
CONTINUOUS
 66
1
 70
0
  0
VERTEX
  8
0
 62
7
  6
CONTINUOUS
 10
325.2960526317
 20
214.0925996162
  0
VERTEX
  8
0
 62
7
  6
CONTINUOUS
 10
325.294736152
 20
214.0860103249
  0
VERTEX
  8
0
 62
7
  6
CONTINUOUS
 10
325.2908199577
 20
214.0797627293
  0
VERTEX
  8
0
 62
7
  6
CONTINUOUS
 10
325.2843471985
 20
214.0738784816
  0
VERTEX
  8
0
 62
7
  6
CONTINUOUS
 10
325.2753884771
 20
214.0683927215
  0
SEQEND
  0
POLYLINE
  8
0
 62
7
  6
CONTINUOUS
 66
1
 70
0
  0
VERTEX
  8
0
 62
7
  6
CONTINUOUS
 10
325.1960526317
 20
211.7271808801
  0
VERTEX
  8
0
 62
7
  6
CONTINUOUS
 10
325.2063646366
 20
211.7636759604
  0
VERTEX
  8
0
 62
7
  6
CONTINUOUS
 10
325.2287916548
 20
211.8550857746
  0
VERTEX
  8
0
 62
7
  6
CONTINUOUS
 10
325.2478467485
 20
211.9462206564
  0
VERTEX
  8
0
 62
7
  6
CONTINUOUS
 10
325.263508691
 20
212.0362987896
  0
VERTEX
  8
0
 62
7
  6
CONTINUOUS
 10
325.2758459752
 20
212.1245538821
  0
VERTEX
  8
0
 62
7
  6
CONTINUOUS
 10
325.2850526715
 20
212.2107122907
  0
VERTEX
  8
0
 62
7
  6
CONTINUOUS
 10
325.2913778932
 20
212.2951841081
  0
VERTEX
  8
0
 62
7
  6
CONTINUOUS
 10
325.2950055311
 20
212.3785000514
  0
VERTEX
  8
0
 62
7
  6
CONTINUOUS
 10
325.2960526314
 20
212.4532906725
  0
SEQEND
  0
ARC
  8
0
 62
7
  6
CONTINUOUS
 10
81.2960526317
 20
87.3361842105
 40
2.7
 50
270.0
 51
360.0
  0
ARC
  8
0
 62
7
  6
CONTINUOUS
 10
30.4960526317
 20
87.3361842105
 40
2.7
 50
270.0
 51
360.0
  0
ARC
  8
0
 62
7
  6
CONTINUOUS
 10
55.8960526317
 20
87.3361842105
 40
2.7
 50
270.0
 51
360.0
  0
ARC
  8
0
 62
7
  6
CONTINUOUS
 10
74.2960526317
 20
87.3361842105
 40
2.7
 50
180.0
 51
270.0
  0
ARC
  8
0
 62
7
  6
CONTINUOUS
 10
48.8960526317
 20
87.3361842105
 40
2.7
 50
180.0
 51
270.0
  0
ARC
  8
0
 62
7
  6
CONTINUOUS
 10
23.4960526317
 20
87.3361842105
 40
2.7
 50
180.0
 51
270.0
  0
ARC
  8
0
 62
7
  6
CONTINUOUS
 10
56.8960526317
 20
99.168650366
 40
1.0
 50
180.0
 51
201.3886228278
  0
ARC
  8
0
 62
7
  6
CONTINUOUS
 10
73.2960526317
 20
99.168650366
 40
1.0
 50
338.6113771722
 51
360.0
  0
ARC
  8
0
 62
7
  6
CONTINUOUS
 10
31.4960526317
 20
99.168650366
 40
1.0
 50
180.0
 51
201.3886228278
  0
ARC
  8
0
 62
7
  6
CONTINUOUS
 10
47.8960526317
 20
99.168650366
 40
1.0
 50
338.6113771722
 51
360.0
  0
ARC
  8
0
 62
7
  6
CONTINUOUS
 10
22.4960526317
 20
99.168650366
 40
1.0
 50
338.6113771722
 51
360.0
  0
ARC
  8
0
 62
7
  6
CONTINUOUS
 10
82.2960526317
 20
99.168650366
 40
1.0
 50
180.0
 51
201.3886228278
  0
ARC
  8
0
 62
7
  6
CONTINUOUS
 10
83.6960526317
 20
92.0295294703
 40
0.3
 50
0.0
 51
21.3886228278
  0
ARC
  8
0
 62
7
  6
CONTINUOUS
 10
21.0960526317
 20
92.0295294703
 40
0.3
 50
158.6113771722
 51
180.0
  0
ARC
  8
0
 62
7
  6
CONTINUOUS
 10
46.4960526317
 20
92.0295294703
 40
0.3
 50
158.6113771722
 51
180.0
  0
ARC
  8
0
 62
7
  6
CONTINUOUS
 10
32.8960526317
 20
92.0295294703
 40
0.3
 50
0.0
 51
21.3886228278
  0
ARC
  8
0
 62
7
  6
CONTINUOUS
 10
71.8960526317
 20
92.0295294703
 40
0.3
 50
158.6113771722
 51
180.0
  0
ARC
  8
0
 62
7
  6
CONTINUOUS
 10
58.2960526317
 20
92.0295294703
 40
0.3
 50
0.0
 51
21.3886228278
  0
ARC
  8
0
 62
7
  6
CONTINUOUS
 10
57.8960526317
 20
113.2361842105
 40
2.0
 50
90.0
 51
180.0
  0
ARC
  8
0
 62
7
  6
CONTINUOUS
 10
72.2960526317
 20
113.2361842105
 40
2.0
 50
0.0
 51
90.0
  0
ARC
  8
0
 62
7
  6
CONTINUOUS
 10
46.8960526317
 20
113.2361842105
 40
2.0
 50
0.0
 51
90.0
  0
ARC
  8
0
 62
7
  6
CONTINUOUS
 10
32.4960526317
 20
113.2361842105
 40
2.0
 50
90.0
 51
180.0
  0
ARC
  8
0
 62
7
  6
CONTINUOUS
 10
83.2960526317
 20
113.2361842105
 40
2.0
 50
90.0
 51
180.0
  0
ARC
  8
0
 62
7
  6
CONTINUOUS
 10
21.1960526317
 20
115.5361842105
 40
0.3
 50
180.0
 51
270.0
  0
ARC
  8
0
 62
7
  6
CONTINUOUS
 10
23.1960526317
 20
114.9361842105
 40
0.3
 50
0.0
 51
90.0
  0
ARC
  8
0
 62
7
  6
CONTINUOUS
 10
106.6960526317
 20
87.3361842105
 40
2.7
 50
270.0
 51
360.0
  0
ARC
  8
0
 62
7
  6
CONTINUOUS
 10
125.0960526317
 20
87.3361842105
 40
2.7
 50
180.0
 51
270.0
  0
ARC
  8
0
 62
7
  6
CONTINUOUS
 10
99.6960526317
 20
87.3361842105
 40
2.7
 50
180.0
 51
270.0
  0
ARC
  8
0
 62
7
  6
CONTINUOUS
 10
97.2960526317
 20
92.0295294703
 40
0.3
 50
158.6113771722
 51
180.0
  0
ARC
  8
0
 62
7
  6
CONTINUOUS
 10
122.6960526317
 20
92.0295294703
 40
0.3
 50
158.6113771722
 51
180.0
  0
ARC
  8
0
 62
7
  6
CONTINUOUS
 10
109.0960526317
 20
92.0295294703
 40
0.3
 50
0.0
 51
21.3886228278
  0
ARC
  8
0
 62
7
  6
CONTINUOUS
 10
124.0960526317
 20
99.168650366
 40
2.1
 50
338.6113771722
 51
360.0
  0
ARC
  8
0
 62
7
  6
CONTINUOUS
 10
107.6960526317
 20
99.168650366
 40
2.1
 50
180.0
 51
201.3886228278
  0
ARC
  8
0
 62
7
  6
CONTINUOUS
 10
98.6960526317
 20
99.168650366
 40
2.1
 50
338.6113771722
 51
359.9998673402
  0
ARC
  8
0
 62
7
  6
CONTINUOUS
 10
107.6960526317
 20
99.168650366
 40
1.0
 50
180.0
 51
201.3886228278
  0
ARC
  8
0
 62
7
  6
CONTINUOUS
 10
124.0960526317
 20
99.168650366
 40
1.0
 50
338.6113771722
 51
360.0
  0
ARC
  8
0
 62
7
  6
CONTINUOUS
 10
98.6960526317
 20
99.168650366
 40
1.0
 50
338.6113771722
 51
360.0
  0
ARC
  8
0
 62
7
  6
CONTINUOUS
 10
126.8960526317
 20
96.2861842105
 40
1.0
 50
180.0
 51
270.0
  0
ARC
  8
0
 62
7
  6
CONTINUOUS
 10
104.8960526317
 20
96.2861842105
 40
1.0
 50
270.0
 51
360.0
  0
ARC
  8
0
 62
7
  6
CONTINUOUS
 10
101.4960526317
 20
96.2861842105
 40
1.0
 50
180.0
 51
270.0
  0
ARC
  8
0
 62
7
  6
CONTINUOUS
 10
101.4960526317
 20
97.8172606031
 40
1.0
 50
158.6113771722
 51
180.0
  0
ARC
  8
0
 62
7
  6
CONTINUOUS
 10
104.8960526317
 20
97.8172606031
 40
1.0
 50
0.0
 51
21.3886228278
  0
ARC
  8
0
 62
7
  6
CONTINUOUS
 10
126.8960526317
 20
97.8172606031
 40
1.0
 50
158.6113771722
 51
180.0
  0
ARC
  8
0
 62
7
  6
CONTINUOUS
 10
150.4960526317
 20
87.3361842105
 40
2.7
 50
180.0
 51
270.0
  0
ARC
  8
0
 62
7
  6
CONTINUOUS
 10
132.0960526317
 20
87.3361842105
 40
2.7
 50
270.0
 51
360.0
  0
ARC
  8
0
 62
7
  6
CONTINUOUS
 10
157.4960526317
 20
87.3361842105
 40
2.7
 50
270.0
 51
360.0
  0
ARC
  8
0
 62
7
  6
CONTINUOUS
 10
148.0960526317
 20
92.0295294703
 40
0.3
 50
158.6113771722
 51
180.0
  0
ARC
  8
0
 62
7
  6
CONTINUOUS
 10
134.4960526317
 20
92.0295294703
 40
0.3
 50
0.0
 51
21.3886228278
  0
ARC
  8
0
 62
7
  6
CONTINUOUS
 10
159.8960526317
 20
92.0295294703
 40
0.3
 50
0.0
 51
21.3886228278
  0
ARC
  8
0
 62
7
  6
CONTINUOUS
 10
158.4960526317
 20
99.168650366
 40
2.1
 50
180.0
 51
201.3886228278
  0
ARC
  8
0
 62
7
  6
CONTINUOUS
 10
149.4960526317
 20
99.168650366
 40
2.1
 50
338.6113771722
 51
360.0
  0
ARC
  8
0
 62
7
  6
CONTINUOUS
 10
133.0960526317
 20
99.168650366
 40
2.1
 50
180.0
 51
201.3886228278
  0
ARC
  8
0
 62
7
  6
CONTINUOUS
 10
149.4960526317
 20
99.168650366
 40
1.0
 50
338.6113771722
 51
360.0
  0
ARC
  8
0
 62
7
  6
CONTINUOUS
 10
133.0960526317
 20
99.168650366
 40
1.0
 50
180.0
 51
201.3886228278
  0
ARC
  8
0
 62
7
  6
CONTINUOUS
 10
158.4960526317
 20
99.168650366
 40
1.0
 50
180.0
 51
201.3886228278
  0
ARC
  8
0
 62
7
  6
CONTINUOUS
 10
155.6960526317
 20
96.2861842105
 40
1.0
 50
270.0
 51
360.0
  0
ARC
  8
0
 62
7
  6
CONTINUOUS
 10
152.2960526317
 20
96.2861842105
 40
1.0
 50
180.0
 51
270.0
  0
ARC
  8
0
 62
7
  6
CONTINUOUS
 10
130.2960526317
 20
96.2861842105
 40
1.0
 50
270.0
 51
360.0
  0
ARC
  8
0
 62
7
  6
CONTINUOUS
 10
130.2960526317
 20
97.8172606031
 40
1.0
 50
0.0
 51
21.3886228278
  0
ARC
  8
0
 62
7
  6
CONTINUOUS
 10
152.2960526317
 20
97.8172606031
 40
1.0
 50
158.6113771722
 51
180.0
  0
ARC
  8
0
 62
7
  6
CONTINUOUS
 10
155.6960526317
 20
97.8172606031
 40
1.0
 50
0.0
 51
21.3886228278
  0
ARC
  8
0
 62
7
  6
CONTINUOUS
 10
159.4960526317
 20
113.2361842105
 40
3.1
 50
90.0
 51
180.0
  0
ARC
  8
0
 62
7
  6
CONTINUOUS
 10
148.4960526317
 20
113.2361842105
 40
3.1
 50
0.0
 51
90.0
  0
ARC
  8
0
 62
7
  6
CONTINUOUS
 10
134.0960526317
 20
113.2361842105
 40
3.1
 50
90.0
 51
180.0
  0
ARC
  8
0
 62
7
  6
CONTINUOUS
 10
123.0960526317
 20
113.2361842105
 40
3.1
 50
0.0
 51
90.0
  0
ARC
  8
0
 62
7
  6
CONTINUOUS
 10
108.6960526317
 20
113.2361842105
 40
3.1
 50
90.0
 51
180.0
  0
ARC
  8
0
 62
7
  6
CONTINUOUS
 10
103.2960898613
 20
115.2480846688
 40
2.5
 50
90.0
 51
179.9998673402
  0
ARC
  8
0
 62
7
  6
CONTINUOUS
 10
123.0960526317
 20
113.2361842105
 40
2.0
 50
0.0
 51
90.0
  0
ARC
  8
0
 62
7
  6
CONTINUOUS
 10
108.6960526317
 20
113.2361842105
 40
2.0
 50
90.0
 51
180.0
  0
ARC
  8
0
 62
7
  6
CONTINUOUS
 10
134.0960526317
 20
113.2361842105
 40
2.0
 50
90.0
 51
180.0
  0
ARC
  8
0
 62
7
  6
CONTINUOUS
 10
148.4960526317
 20
113.2361842105
 40
2.0
 50
0.0
 51
90.0
  0
ARC
  8
0
 62
7
  6
CONTINUOUS
 10
97.6960526317
 20
113.2361842105
 40
2.0
 50
0.0
 51
90.0
  0
ARC
  8
0
 62
7
  6
CONTINUOUS
 10
159.4960526317
 20
113.2361842105
 40
2.0
 50
90.0
 51
180.0
  0
ARC
  8
0
 62
7
  6
CONTINUOUS
 10
59.5960526317
 20
122.6615242443
 40
2.0
 50
270.0
 51
360.0
  0
ARC
  8
0
 62
7
  6
CONTINUOUS
 10
70.5960526317
 20
122.6615242443
 40
2.0
 50
180.0
 51
270.0
  0
ARC
  8
0
 62
7
  6
CONTINUOUS
 10
45.1960526317
 20
122.6615242443
 40
2.0
 50
180.0
 51
270.0
  0
ARC
  8
0
 62
7
  6
CONTINUOUS
 10
34.1960526317
 20
122.6615242443
 40
2.0
 50
270.0
 51
360.0
  0
ARC
  8
0
 62
7
  6
CONTINUOUS
 10
95.9960526317
 20
122.6615242443
 40
2.0
 50
180.0
 51
270.0
  0
ARC
  8
0
 62
7
  6
CONTINUOUS
 10
84.9960526317
 20
122.6615242443
 40
2.0
 50
270.0
 51
360.0
  0
ARC
  8
0
 62
7
  6
CONTINUOUS
 10
21.1960526317
 20
120.3615242443
 40
0.3
 50
90.0
 51
180.0000000073
  0
ARC
  8
0
 62
7
  6
CONTINUOUS
 10
60.5960526317
 20
136.9041935304
 40
1.0
 50
0.0
 51
21.39
  0
ARC
  8
0
 62
7
  6
CONTINUOUS
 10
44.1960526317
 20
136.9041935304
 40
1.0
 50
158.61
 51
180.0
  0
ARC
  8
0
 62
7
  6
CONTINUOUS
 10
35.1960526317
 20
136.9041935304
 40
1.0
 50
0.0
 51
21.39
  0
ARC
  8
0
 62
7
  6
CONTINUOUS
 10
61.5960526317
 20
148.7361842105
 40
2.7
 50
90.0
 51
180.0
  0
ARC
  8
0
 62
7
  6
CONTINUOUS
 10
43.1960526317
 20
148.7361842105
 40
2.7
 50
0.0
 51
90.0
  0
ARC
  8
0
 62
7
  6
CONTINUOUS
 10
36.1960526317
 20
148.7361842105
 40
2.7
 50
90.0
 51
180.0
  0
ARC
  8
0
 62
7
  6
CONTINUOUS
 10
33.7960526317
 20
144.0428426848
 40
0.3
 50
180.0
 51
201.39
  0
ARC
  8
0
 62
7
  6
CONTINUOUS
 10
45.5960526317
 20
144.0428426848
 40
0.3
 50
338.61
 51
360.0
  0
ARC
  8
0
 62
7
  6
CONTINUOUS
 10
59.1960526317
 20
144.0428426848
 40
0.3
 50
180.0
 51
201.39
  0
ARC
  8
0
 62
7
  6
CONTINUOUS
 10
69.5960526317
 20
136.9041935304
 40
1.0
 50
158.61
 51
180.0
  0
ARC
  8
0
 62
7
  6
CONTINUOUS
 10
85.9960526317
 20
136.9041935304
 40
1.0
 50
0.0
 51
21.39
  0
ARC
  8
0
 62
7
  6
CONTINUOUS
 10
94.9960526317
 20
136.9041935304
 40
1.0
 50
158.61
 51
180.0
  0
ARC
  8
0
 62
7
  6
CONTINUOUS
 10
68.5960526317
 20
148.7361842105
 40
2.7
 50
0.0
 51
90.0
  0
ARC
  8
0
 62
7
  6
CONTINUOUS
 10
86.9960526317
 20
148.7361842105
 40
2.7
 50
90.0
 51
180.0
  0
ARC
  8
0
 62
7
  6
CONTINUOUS
 10
93.9960526317
 20
148.7361842105
 40
2.7
 50
0.0
 51
90.0
  0
ARC
  8
0
 62
7
  6
CONTINUOUS
 10
96.3960526317
 20
144.0428426848
 40
0.3
 50
338.61
 51
360.0
  0
ARC
  8
0
 62
7
  6
CONTINUOUS
 10
84.5960526317
 20
144.0428426848
 40
0.3
 50
180.0
 51
201.39
  0
ARC
  8
0
 62
7
  6
CONTINUOUS
 10
70.9960526317
 20
144.0428426848
 40
0.3
 50
338.61
 51
360.0
  0
ARC
  8
0
 62
7
  6
CONTINUOUS
 10
161.1960526317
 20
122.6615242443
 40
2.0
 50
270.0
 51
360.0
  0
ARC
  8
0
 62
7
  6
CONTINUOUS
 10
172.1960526317
 20
122.6615242443
 40
2.0
 50
180.0
 51
270.0
  0
ARC
  8
0
 62
7
  6
CONTINUOUS
 10
146.7960526317
 20
122.6615242443
 40
2.0
 50
180.0
 51
270.0
  0
ARC
  8
0
 62
7
  6
CONTINUOUS
 10
135.7960526317
 20
122.6615242443
 40
2.0
 50
270.0
 51
360.0
  0
ARC
  8
0
 62
7
  6
CONTINUOUS
 10
110.3960526317
 20
122.6615242443
 40
2.0
 50
270.0
 51
360.0
  0
ARC
  8
0
 62
7
  6
CONTINUOUS
 10
121.3960526317
 20
122.6615242443
 40
2.0
 50
180.0
 51
270.0
  0
ARC
  8
0
 62
7
  6
CONTINUOUS
 10
111.3960526317
 20
136.9041935304
 40
2.1
 50
0.0
 51
21.39
  0
ARC
  8
0
 62
7
  6
CONTINUOUS
 10
120.3960526317
 20
136.9041935304
 40
2.1
 50
158.61
 51
180.0
  0
ARC
  8
0
 62
7
  6
CONTINUOUS
 10
136.7960526317
 20
136.9041935304
 40
2.1
 50
0.0
 51
21.39
  0
ARC
  8
0
 62
7
  6
CONTINUOUS
 10
136.7960526317
 20
136.9041935304
 40
1.0
 50
0.0
 51
21.39
  0
ARC
  8
0
 62
7
  6
CONTINUOUS
 10
120.3960526317
 20
136.9041935304
 40
1.0
 50
158.61
 51
180.0
  0
ARC
  8
0
 62
7
  6
CONTINUOUS
 10
111.3960526317
 20
136.9041935304
 40
1.0
 50
0.0
 51
21.39
  0
ARC
  8
0
 62
7
  6
CONTINUOUS
 10
139.5960526317
 20
139.7861842105
 40
1.0
 50
90.0
 51
180.0
  0
ARC
  8
0
 62
7
  6
CONTINUOUS
 10
117.5960526317
 20
139.7861842105
 40
1.0
 50
0.0
 51
90.0
  0
ARC
  8
0
 62
7
  6
CONTINUOUS
 10
114.1960526317
 20
139.7861842105
 40
1.0
 50
90.0
 51
180.0
  0
ARC
  8
0
 62
7
  6
CONTINUOUS
 10
139.5960526317
 20
138.2555676646
 40
1.0
 50
180.0
 51
201.39
  0
ARC
  8
0
 62
7
  6
CONTINUOUS
 10
117.5960526317
 20
138.2555676646
 40
1.0
 50
338.61
 51
360.0
  0
ARC
  8
0
 62
7
  6
CONTINUOUS
 10
114.1960526317
 20
138.2555676646
 40
1.0
 50
180.0
 51
201.39
  0
ARC
  8
0
 62
7
  6
CONTINUOUS
 10
137.7960526317
 20
148.7361842105
 40
2.7
 50
90.0
 51
180.0
  0
ARC
  8
0
 62
7
  6
CONTINUOUS
 10
119.3960526317
 20
148.7361842105
 40
2.7
 50
0.0
 51
90.0
  0
ARC
  8
0
 62
7
  6
CONTINUOUS
 10
112.3960526317
 20
148.7361842105
 40
2.7
 50
90.0
 51
180.0
  0
ARC
  8
0
 62
7
  6
CONTINUOUS
 10
109.9960526317
 20
144.0428426848
 40
0.3
 50
180.0
 51
201.39
  0
ARC
  8
0
 62
7
  6
CONTINUOUS
 10
121.7960526317
 20
144.0428426848
 40
0.3
 50
338.61
 51
360.0
  0
ARC
  8
0
 62
7
  6
CONTINUOUS
 10
135.3960526317
 20
144.0428426848
 40
0.3
 50
180.0
 51
201.39
  0
ARC
  8
0
 62
7
  6
CONTINUOUS
 10
145.7960526317
 20
136.9041935304
 40
2.1
 50
158.61
 51
180.0
  0
ARC
  8
0
 62
7
  6
CONTINUOUS
 10
162.1960526317
 20
136.9041935304
 40
2.1
 50
0.0
 51
21.39
  0
ARC
  8
0
 62
7
  6
CONTINUOUS
 10
171.1960526317
 20
136.9041935304
 40
2.1
 50
158.61
 51
180.0
  0
ARC
  8
0
 62
7
  6
CONTINUOUS
 10
145.7960526317
 20
136.9041935304
 40
1.0
 50
158.61
 51
180.0
  0
ARC
  8
0
 62
7
  6
CONTINUOUS
 10
162.1960526317
 20
136.9041935304
 40
1.0
 50
0.0
 51
21.39
  0
ARC
  8
0
 62
7
  6
CONTINUOUS
 10
171.1960526317
 20
136.9041935304
 40
1.0
 50
158.61
 51
180.0
  0
ARC
  8
0
 62
7
  6
CONTINUOUS
 10
142.9960526317
 20
139.7861842105
 40
1.0
 50
0.0
 51
90.0
  0
ARC
  8
0
 62
7
  6
CONTINUOUS
 10
164.9960526317
 20
139.7861842105
 40
1.0
 50
90.0
 51
180.0
  0
ARC
  8
0
 62
7
  6
CONTINUOUS
 10
168.3960526317
 20
139.7861842105
 40
1.0
 50
0.0
 51
90.0
  0
ARC
  8
0
 62
7
  6
CONTINUOUS
 10
168.3960526317
 20
138.2555676646
 40
1.0
 50
338.61
 51
360.0
  0
ARC
  8
0
 62
7
  6
CONTINUOUS
 10
164.9960526317
 20
138.2555676646
 40
1.0
 50
180.0
 51
201.39
  0
ARC
  8
0
 62
7
  6
CONTINUOUS
 10
142.9960526317
 20
138.2555676646
 40
1.0
 50
338.61
 51
360.0
  0
ARC
  8
0
 62
7
  6
CONTINUOUS
 10
144.7960526317
 20
148.7361842105
 40
2.7
 50
0.0
 51
90.0
  0
ARC
  8
0
 62
7
  6
CONTINUOUS
 10
163.1960526317
 20
148.7361842105
 40
2.7
 50
90.0
 51
180.0
  0
ARC
  8
0
 62
7
  6
CONTINUOUS
 10
170.1960526317
 20
148.7361842105
 40
2.7
 50
0.0
 51
90.0
  0
ARC
  8
0
 62
7
  6
CONTINUOUS
 10
147.1960526317
 20
144.0428426848
 40
0.3
 50
338.61
 51
360.0
  0
ARC
  8
0
 62
7
  6
CONTINUOUS
 10
160.7960526317
 20
144.0428426848
 40
0.3
 50
180.0
 51
201.39
  0
ARC
  8
0
 62
7
  6
CONTINUOUS
 10
172.5960526317
 20
144.0428426848
 40
0.3
 50
338.61
 51
360.0
  0
ARC
  8
0
 62
7
  6
CONTINUOUS
 10
175.8960526317
 20
87.3361842105
 40
2.7
 50
180.0
 51
270.0
  0
ARC
  8
0
 62
7
  6
CONTINUOUS
 10
201.2960526317
 20
87.3361842105
 40
2.7
 50
180.0
 51
270.0
  0
ARC
  8
0
 62
7
  6
CONTINUOUS
 10
182.8960526317
 20
87.3361842105
 40
2.7
 50
270.0
 51
360.0
  0
ARC
  8
0
 62
7
  6
CONTINUOUS
 10
173.4960526317
 20
92.0295294703
 40
0.3
 50
158.6113771722
 51
180.0
  0
ARC
  8
0
 62
7
  6
CONTINUOUS
 10
198.8960526317
 20
92.0295294703
 40
0.3
 50
158.6113771722
 51
180.0
  0
ARC
  8
0
 62
7
  6
CONTINUOUS
 10
185.2960526317
 20
92.0295294703
 40
0.3
 50
0.0
 51
21.3886228278
  0
ARC
  8
0
 62
7
  6
CONTINUOUS
 10
200.2960526317
 20
99.168650366
 40
2.1
 50
338.6113771722
 51
360.0
  0
ARC
  8
0
 62
7
  6
CONTINUOUS
 10
183.8960526317
 20
99.168650366
 40
2.1
 50
180.0
 51
201.3886228278
  0
ARC
  8
0
 62
7
  6
CONTINUOUS
 10
174.8960526317
 20
99.168650366
 40
2.1
 50
338.6113771722
 51
360.0
  0
ARC
  8
0
 62
7
  6
CONTINUOUS
 10
174.8960526317
 20
99.168650366
 40
1.0
 50
338.6113771722
 51
360.0
  0
ARC
  8
0
 62
7
  6
CONTINUOUS
 10
203.0960526317
 20
96.2861842105
 40
1.0
 50
180.0
 51
270.0
  0
ARC
  8
0
 62
7
  6
CONTINUOUS
 10
177.6960526317
 20
96.2861842105
 40
1.0
 50
180.0
 51
270.0
  0
ARC
  8
0
 62
7
  6
CONTINUOUS
 10
181.0960526317
 20
96.2861842105
 40
1.0
 50
270.0
 51
360.0
  0
ARC
  8
0
 62
7
  6
CONTINUOUS
 10
200.2960526317
 20
99.168650366
 40
1.0
 50
338.6113771722
 51
360.0
  0
ARC
  8
0
 62
7
  6
CONTINUOUS
 10
183.8960526317
 20
99.168650366
 40
1.0
 50
180.0
 51
201.3886228278
  0
ARC
  8
0
 62
7
  6
CONTINUOUS
 10
177.6960526317
 20
97.8172606031
 40
1.0
 50
158.6113771722
 51
180.0
  0
ARC
  8
0
 62
7
  6
CONTINUOUS
 10
181.0960526317
 20
97.8172606031
 40
1.0
 50
0.0
 51
21.3886228278
  0
ARC
  8
0
 62
7
  6
CONTINUOUS
 10
203.0960526317
 20
97.8172606031
 40
1.0
 50
158.6113771722
 51
180.0
  0
ARC
  8
0
 62
7
  6
CONTINUOUS
 10
233.6960526317
 20
87.3361842105
 40
2.7
 50
270.0
 51
360.0
  0
ARC
  8
0
 62
7
  6
CONTINUOUS
 10
208.2960526317
 20
87.3361842105
 40
2.7
 50
270.0
 51
360.0
  0
ARC
  8
0
 62
7
  6
CONTINUOUS
 10
226.6960526317
 20
87.3361842105
 40
2.7
 50
180.0
 51
270.0
  0
ARC
  8
0
 62
7
  6
CONTINUOUS
 10
236.0960526317
 20
92.0295294703
 40
0.3
 50
0.0
 51
21.3886228278
  0
ARC
  8
0
 62
7
  6
CONTINUOUS
 10
210.6960526317
 20
92.0295294703
 40
0.3
 50
0.0
 51
21.3886228278
  0
ARC
  8
0
 62
7
  6
CONTINUOUS
 10
224.2960526317
 20
92.0295294703
 40
0.3
 50
158.6113771722
 51
180.0
  0
ARC
  8
0
 62
7
  6
CONTINUOUS
 10
234.6960526317
 20
99.168650366
 40
2.1
 50
180.0
 51
201.3886228278
  0
ARC
  8
0
 62
7
  6
CONTINUOUS
 10
225.6960526317
 20
99.168650366
 40
2.1
 50
338.6113771722
 51
360.0
  0
ARC
  8
0
 62
7
  6
CONTINUOUS
 10
209.2960526317
 20
99.168650366
 40
2.1
 50
180.0
 51
201.3886228278
  0
ARC
  8
0
 62
7
  6
CONTINUOUS
 10
228.4960526317
 20
96.2861842105
 40
1.0
 50
180.0
 51
270.0
  0
ARC
  8
0
 62
7
  6
CONTINUOUS
 10
231.8960526317
 20
96.2861842105
 40
1.0
 50
270.0
 51
360.0
  0
ARC
  8
0
 62
7
  6
CONTINUOUS
 10
206.4960526317
 20
96.2861842105
 40
1.0
 50
270.0
 51
360.0
  0
ARC
  8
0
 62
7
  6
CONTINUOUS
 10
206.4960526317
 20
97.8172606031
 40
1.0
 50
0.0
 51
21.3886228278
  0
ARC
  8
0
 62
7
  6
CONTINUOUS
 10
228.4960526317
 20
97.8172606031
 40
1.0
 50
158.6113771722
 51
180.0
  0
ARC
  8
0
 62
7
  6
CONTINUOUS
 10
231.8960526317
 20
97.8172606031
 40
1.0
 50
0.0
 51
21.3886228278
  0
ARC
  8
0
 62
7
  6
CONTINUOUS
 10
234.6960526317
 20
99.168650366
 40
1.0
 50
180.0
 51
201.3886228278
  0
ARC
  8
0
 62
7
  6
CONTINUOUS
 10
209.2960526317
 20
99.168650366
 40
1.0
 50
180.0
 51
201.3886228278
  0
ARC
  8
0
 62
7
  6
CONTINUOUS
 10
225.6960526317
 20
99.168650366
 40
1.0
 50
338.6113771722
 51
360.0
  0
ARC
  8
0
 62
7
  6
CONTINUOUS
 10
235.6960526317
 20
113.2361842105
 40
3.1
 50
90.0
 51
180.0
  0
ARC
  8
0
 62
7
  6
CONTINUOUS
 10
224.6960526317
 20
113.2361842105
 40
3.1
 50
0.0
 51
90.0
  0
ARC
  8
0
 62
7
  6
CONTINUOUS
 10
210.2960526317
 20
113.2361842105
 40
3.1
 50
90.0
 51
180.0
  0
ARC
  8
0
 62
7
  6
CONTINUOUS
 10
199.2960526317
 20
113.2361842105
 40
3.1
 50
0.0
 51
90.0
  0
ARC
  8
0
 62
7
  6
CONTINUOUS
 10
184.8960526317
 20
113.2361842105
 40
3.1
 50
90.0
 51
180.0
  0
ARC
  8
0
 62
7
  6
CONTINUOUS
 10
173.8960526317
 20
113.2361842105
 40
3.1
 50
0.0
 51
90.0
  0
ARC
  8
0
 62
7
  6
CONTINUOUS
 10
173.8960526317
 20
113.2361842105
 40
2.0
 50
0.0
 51
90.0
  0
ARC
  8
0
 62
7
  6
CONTINUOUS
 10
184.8960526317
 20
113.2361842105
 40
2.0
 50
90.0
 51
180.0
  0
ARC
  8
0
 62
7
  6
CONTINUOUS
 10
199.2960526317
 20
113.2361842105
 40
2.0
 50
0.0
 51
90.0
  0
ARC
  8
0
 62
7
  6
CONTINUOUS
 10
235.6960526317
 20
113.2361842105
 40
2.0
 50
90.0
 51
180.0
  0
ARC
  8
0
 62
7
  6
CONTINUOUS
 10
224.6960526317
 20
113.2361842105
 40
2.0
 50
0.0
 51
90.0
  0
ARC
  8
0
 62
7
  6
CONTINUOUS
 10
210.2960526317
 20
113.2361842105
 40
2.0
 50
90.0
 51
180.0
  0
ARC
  8
0
 62
7
  6
CONTINUOUS
 10
302.8960526317
 20
87.3361842105
 40
2.7
 50
180.0
 51
270.0
  0
ARC
  8
0
 62
7
  6
CONTINUOUS
 10
277.4960526317
 20
87.3361842105
 40
2.7
 50
180.0
 51
270.0
  0
ARC
  8
0
 62
7
  6
CONTINUOUS
 10
252.0960526317
 20
87.3361842105
 40
2.7
 50
180.0
 51
270.0
  0
ARC
  8
0
 62
7
  6
CONTINUOUS
 10
309.8960526317
 20
87.3361842105
 40
2.7
 50
270.0
 51
360.0
  0
ARC
  8
0
 62
7
  6
CONTINUOUS
 10
259.0960526317
 20
87.3361842105
 40
2.7
 50
270.0
 51
360.0
  0
ARC
  8
0
 62
7
  6
CONTINUOUS
 10
284.4960526317
 20
87.3361842105
 40
2.7
 50
270.0
 51
360.0
  0
ARC
  8
0
 62
7
  6
CONTINUOUS
 10
251.0960526317
 20
99.168650366
 40
1.0
 50
338.6113771722
 51
360.0
  0
ARC
  8
0
 62
7
  6
CONTINUOUS
 10
310.8960526317
 20
99.168650366
 40
1.0
 50
180.0
 51
201.3886228278
  0
ARC
  8
0
 62
7
  6
CONTINUOUS
 10
276.4960526317
 20
99.168650366
 40
1.0
 50
338.6113771722
 51
360.0
  0
ARC
  8
0
 62
7
  6
CONTINUOUS
 10
260.0960526317
 20
99.168650366
 40
1.0
 50
180.0
 51
201.3886228278
  0
ARC
  8
0
 62
7
  6
CONTINUOUS
 10
285.4960526317
 20
99.168650366
 40
1.0
 50
180.0
 51
201.3886228278
  0
ARC
  8
0
 62
7
  6
CONTINUOUS
 10
301.8960526317
 20
99.168650366
 40
1.0
 50
338.6113771722
 51
360.0
  0
ARC
  8
0
 62
7
  6
CONTINUOUS
 10
249.6960526317
 20
92.0295294703
 40
0.3
 50
158.6113771722
 51
180.0
  0
ARC
  8
0
 62
7
  6
CONTINUOUS
 10
312.2960526317
 20
92.0295294703
 40
0.3
 50
0.0
 51
21.3886228278
  0
ARC
  8
0
 62
7
  6
CONTINUOUS
 10
275.0960526317
 20
92.0295294703
 40
0.3
 50
158.6113771722
 51
180.0
  0
ARC
  8
0
 62
7
  6
CONTINUOUS
 10
261.4960526317
 20
92.0295294703
 40
0.3
 50
0.0
 51
21.3886228278
  0
ARC
  8
0
 62
7
  6
CONTINUOUS
 10
286.8960526317
 20
92.0295294703
 40
0.3
 50
0.0
 51
21.3886228278
  0
ARC
  8
0
 62
7
  6
CONTINUOUS
 10
300.4960526317
 20
92.0295294703
 40
0.3
 50
158.6113771722
 51
180.0
  0
ARC
  8
0
 62
7
  6
CONTINUOUS
 10
250.0960526317
 20
113.2361842105
 40
2.0
 50
0.0
 51
90.0
  0
ARC
  8
0
 62
7
  6
CONTINUOUS
 10
311.8960526317
 20
113.2361842105
 40
2.0
 50
90.0
 51
180.0
  0
ARC
  8
0
 62
7
  6
CONTINUOUS
 10
261.0960526317
 20
113.2361842105
 40
2.0
 50
90.0
 51
180.0
  0
ARC
  8
0
 62
7
  6
CONTINUOUS
 10
275.4960526317
 20
113.2361842105
 40
2.0
 50
0.0
 51
90.0
  0
ARC
  8
0
 62
7
  6
CONTINUOUS
 10
300.8960526317
 20
113.2361842105
 40
2.0
 50
0.0
 51
90.0
  0
ARC
  8
0
 62
7
  6
CONTINUOUS
 10
286.4960526317
 20
113.2361842105
 40
2.0
 50
90.0
 51
180.0
  0
ARC
  8
0
 62
7
  6
CONTINUOUS
 10
324.8960526317
 20
115.5361842105
 40
0.3
 50
270.0
 51
360.0
  0
ARC
  8
0
 62
7
  6
CONTINUOUS
 10
242.7960526317
 20
118.8361842105
 40
2.5
 50
270.0
 51
360.0
  0
ARC
  8
0
 62
7
  6
CONTINUOUS
 10
222.9960526317
 20
122.6615242443
 40
2.0
 50
180.0
 51
270.0
  0
ARC
  8
0
 62
7
  6
CONTINUOUS
 10
211.9960526317
 20
122.6615242443
 40
2.0
 50
270.0
 51
360.0
  0
ARC
  8
0
 62
7
  6
CONTINUOUS
 10
248.3960526317
 20
122.6615242443
 40
2.0
 50
180.0
 51
270.0
  0
ARC
  8
0
 62
7
  6
CONTINUOUS
 10
186.5960526317
 20
122.6615242443
 40
2.0
 50
270.0
 51
360.0
  0
ARC
  8
0
 62
7
  6
CONTINUOUS
 10
197.5960526317
 20
122.6615242443
 40
2.0
 50
180.0
 51
270.0
  0
ARC
  8
0
 62
7
  6
CONTINUOUS
 10
237.3960526317
 20
122.6615242443
 40
2.0
 50
270.0
 51
360.0
  0
ARC
  8
0
 62
7
  6
CONTINUOUS
 10
187.5960526317
 20
136.9041935304
 40
2.1
 50
0.0
 51
21.39
  0
ARC
  8
0
 62
7
  6
CONTINUOUS
 10
196.5960526317
 20
136.9041935304
 40
2.1
 50
158.61
 51
180.0
  0
ARC
  8
0
 62
7
  6
CONTINUOUS
 10
212.9960526317
 20
136.9041935304
 40
2.1
 50
0.0
 51
21.39
  0
ARC
  8
0
 62
7
  6
CONTINUOUS
 10
187.5960526317
 20
136.9041935304
 40
1.0
 50
0.0
 51
21.39
  0
ARC
  8
0
 62
7
  6
CONTINUOUS
 10
196.5960526317
 20
136.9041935304
 40
1.0
 50
158.61
 51
180.0
  0
ARC
  8
0
 62
7
  6
CONTINUOUS
 10
190.3960526317
 20
139.7861842105
 40
1.0
 50
90.0
 51
180.0
  0
ARC
  8
0
 62
7
  6
CONTINUOUS
 10
193.7960526317
 20
139.7861842105
 40
1.0
 50
0.0
 51
90.0
  0
ARC
  8
0
 62
7
  6
CONTINUOUS
 10
215.7960526317
 20
139.7861842105
 40
1.0
 50
90.0
 51
180.0
  0
ARC
  8
0
 62
7
  6
CONTINUOUS
 10
215.7960526317
 20
138.2555676646
 40
1.0
 50
180.0
 51
201.39
  0
ARC
  8
0
 62
7
  6
CONTINUOUS
 10
193.7960526317
 20
138.2555676646
 40
1.0
 50
338.61
 51
360.0
  0
ARC
  8
0
 62
7
  6
CONTINUOUS
 10
190.3960526317
 20
138.2555676646
 40
1.0
 50
180.0
 51
201.39
  0
ARC
  8
0
 62
7
  6
CONTINUOUS
 10
212.9960526317
 20
136.9041935304
 40
1.0
 50
0.0
 51
21.39
  0
ARC
  8
0
 62
7
  6
CONTINUOUS
 10
188.5960526317
 20
148.7361842105
 40
2.7
 50
90.0
 51
180.0
  0
ARC
  8
0
 62
7
  6
CONTINUOUS
 10
195.5960526317
 20
148.7361842105
 40
2.7
 50
0.0
 51
90.0
  0
ARC
  8
0
 62
7
  6
CONTINUOUS
 10
213.9960526317
 20
148.7361842105
 40
2.7
 50
90.0
 51
180.0
  0
ARC
  8
0
 62
7
  6
CONTINUOUS
 10
186.1960526317
 20
144.0428426848
 40
0.3
 50
180.0
 51
201.39
  0
ARC
  8
0
 62
7
  6
CONTINUOUS
 10
197.9960526317
 20
144.0428426848
 40
0.3
 50
338.61
 51
360.0
  0
ARC
  8
0
 62
7
  6
CONTINUOUS
 10
211.5960526317
 20
144.0428426848
 40
0.3
 50
180.0
 51
201.39
  0
ARC
  8
0
 62
7
  6
CONTINUOUS
 10
221.9960526317
 20
136.9041935304
 40
2.1
 50
158.61
 51
180.0
  0
ARC
  8
0
 62
7
  6
CONTINUOUS
 10
238.3960526317
 20
136.9041935304
 40
2.1
 50
0.0
 51
21.39
  0
ARC
  8
0
 62
7
  6
CONTINUOUS
 10
247.3960526317
 20
136.9041935304
 40
2.1
 50
158.61
 51
180.0
  0
ARC
  8
0
 62
7
  6
CONTINUOUS
 10
219.1960526317
 20
139.7861842105
 40
1.0
 50
0.0
 51
90.0
  0
ARC
  8
0
 62
7
  6
CONTINUOUS
 10
241.1960526317
 20
139.7861842105
 40
1.0
 50
90.0
 51
180.0
  0
ARC
  8
0
 62
7
  6
CONTINUOUS
 10
244.5960526317
 20
139.7861842105
 40
1.0
 50
0.0
 51
90.0
  0
ARC
  8
0
 62
7
  6
CONTINUOUS
 10
238.3960526317
 20
136.9041935304
 40
1.0
 50
0.0
 51
21.39
  0
ARC
  8
0
 62
7
  6
CONTINUOUS
 10
244.5960526317
 20
138.2555676646
 40
1.0
 50
338.61
 51
360.0
  0
ARC
  8
0
 62
7
  6
CONTINUOUS
 10
241.1960526317
 20
138.2555676646
 40
1.0
 50
180.0
 51
201.39
  0
ARC
  8
0
 62
7
  6
CONTINUOUS
 10
219.1960526317
 20
138.2555676646
 40
1.0
 50
338.61
 51
360.0
  0
ARC
  8
0
 62
7
  6
CONTINUOUS
 10
221.9960526317
 20
136.9041935304
 40
1.0
 50
158.61
 51
180.0
  0
ARC
  8
0
 62
7
  6
CONTINUOUS
 10
247.3960526317
 20
136.9041935304
 40
1.0
 50
158.61
 51
180.0
  0
ARC
  8
0
 62
7
  6
CONTINUOUS
 10
220.9960526317
 20
148.7361842105
 40
2.7
 50
0.0
 51
90.0
  0
ARC
  8
0
 62
7
  6
CONTINUOUS
 10
246.3960526317
 20
148.7361842105
 40
2.7
 50
0.0
 51
90.0
  0
ARC
  8
0
 62
7
  6
CONTINUOUS
 10
239.3960526317
 20
148.7361842105
 40
2.7
 50
90.0
 51
180.0
  0
ARC
  8
0
 62
7
  6
CONTINUOUS
 10
236.9960526317
 20
144.0428426848
 40
0.3
 50
180.0
 51
201.39
  0
ARC
  8
0
 62
7
  6
CONTINUOUS
 10
223.3960526317
 20
144.0428426848
 40
0.3
 50
338.61
 51
360.0
  0
ARC
  8
0
 62
7
  6
CONTINUOUS
 10
248.7960526317
 20
144.0428426848
 40
0.3
 50
338.61
 51
360.0
  0
ARC
  8
0
 62
7
  6
CONTINUOUS
 10
313.5960526317
 20
122.6615242443
 40
2.0
 50
270.0
 51
360.0
  0
ARC
  8
0
 62
7
  6
CONTINUOUS
 10
299.1960526317
 20
122.6615242443
 40
2.0
 50
180.0
 51
270.0
  0
ARC
  8
0
 62
7
  6
CONTINUOUS
 10
288.1960526317
 20
122.6615242443
 40
2.0
 50
270.0
 51
360.0
  0
ARC
  8
0
 62
7
  6
CONTINUOUS
 10
273.7960526317
 20
122.6615242443
 40
2.0
 50
180.0
 51
270.0
  0
ARC
  8
0
 62
7
  6
CONTINUOUS
 10
262.7960526317
 20
122.6615242443
 40
2.0
 50
270.0
 51
360.0
  0
ARC
  8
0
 62
7
  6
CONTINUOUS
 10
322.8960526317
 20
120.9615242443
 40
0.3
 50
180.0000000001
 51
270.0
  0
ARC
  8
0
 62
7
  6
CONTINUOUS
 10
324.8960526317
 20
120.3615242443
 40
0.3
 50
0.0
 51
90.0
  0
ARC
  8
0
 62
7
  6
CONTINUOUS
 10
264.7960526317
 20
148.7361842105
 40
2.7
 50
90.0
 51
180.0
  0
ARC
  8
0
 62
7
  6
CONTINUOUS
 10
271.7960526317
 20
148.7361842105
 40
2.7
 50
0.0
 51
90.0
  0
ARC
  8
0
 62
7
  6
CONTINUOUS
 10
315.5960526317
 20
148.7361842105
 40
2.7
 50
90.0
 51
180.0
  0
ARC
  8
0
 62
7
  6
CONTINUOUS
 10
322.5960526317
 20
148.7361842105
 40
2.7
 50
0.0
 51
90.0
  0
ARC
  8
0
 62
7
  6
CONTINUOUS
 10
290.1960526317
 20
148.7361842105
 40
2.7
 50
90.0
 51
180.0
  0
ARC
  8
0
 62
7
  6
CONTINUOUS
 10
297.1960526317
 20
148.7361842105
 40
2.7
 50
0.0
 51
90.0
  0
ARC
  8
0
 62
7
  6
CONTINUOUS
 10
314.5960526317
 20
136.9041935304
 40
1.0
 50
0.0
 51
21.39
  0
ARC
  8
0
 62
7
  6
CONTINUOUS
 10
323.5960526317
 20
136.9041935304
 40
1.0
 50
158.61
 51
180.0
  0
ARC
  8
0
 62
7
  6
CONTINUOUS
 10
272.7960526317
 20
136.9041935304
 40
1.0
 50
158.61
 51
180.0
  0
ARC
  8
0
 62
7
  6
CONTINUOUS
 10
263.7960526317
 20
136.9041935304
 40
1.0
 50
0.0
 51
21.39
  0
ARC
  8
0
 62
7
  6
CONTINUOUS
 10
298.1960526317
 20
136.9041935304
 40
1.0
 50
158.61
 51
180.0
  0
ARC
  8
0
 62
7
  6
CONTINUOUS
 10
289.1960526317
 20
136.9041935304
 40
1.0
 50
0.0
 51
21.39
  0
ARC
  8
0
 62
7
  6
CONTINUOUS
 10
313.1960526317
 20
144.0428426848
 40
0.3
 50
180.0
 51
201.39
  0
ARC
  8
0
 62
7
  6
CONTINUOUS
 10
324.9960526317
 20
144.0428426848
 40
0.3
 50
338.61
 51
360.0
  0
ARC
  8
0
 62
7
  6
CONTINUOUS
 10
274.1960526317
 20
144.0428426848
 40
0.3
 50
338.61
 51
360.0
  0
ARC
  8
0
 62
7
  6
CONTINUOUS
 10
262.3960526317
 20
144.0428426848
 40
0.3
 50
180.0
 51
201.39
  0
ARC
  8
0
 62
7
  6
CONTINUOUS
 10
299.5960526317
 20
144.0428426848
 40
0.3
 50
338.61
 51
360.0
  0
ARC
  8
0
 62
7
  6
CONTINUOUS
 10
287.7960526317
 20
144.0428426848
 40
0.3
 50
180.0
 51
201.39
  0
ARC
  8
0
 62
7
  6
CONTINUOUS
 10
256.861843304
 20
117.9734392105
 40
130.0
 50
350.1348339513
 51
9.9215257614
  0
ARC
  8
0
 62
7
  6
CONTINUOUS
 10
256.861843304
 20
117.9734392105
 40
129.4999999036
 50
351.65051584
 51
358.794111891
  0
ARC
  8
0
 62
7
  6
CONTINUOUS
 10
376.211843304
 20
91.9861842105
 40
7.35
 50
180.0
 51
270.0
  0
ARC
  8
0
 62
7
  6
CONTINUOUS
 10
376.511843304
 20
91.9861842105
 40
7.35
 50
270.0
 51
360.0
  0
CIRCLE
  8
0
 62
7
  6
CONTINUOUS
 10
376.361843304
 20
92.6734392105
 40
3.137255
  0
ARC
  8
0
 62
7
  6
CONTINUOUS
 10
376.361843304
 20
105.1615242443
 40
15.5
 50
61.7262863686
 51
118.2737136314
  0
ARC
  8
0
 62
7
  6
CONTINUOUS
 10
369.161843304
 20
115.5361842105
 40
0.3
 50
180.0
 51
270.0
  0
ARC
  8
0
 62
7
  6
CONTINUOUS
 10
384.4470137542
 20
95.7861842815
 40
0.5
 50
269.9999985521
 51
350.1348256961
  0
ARC
  8
0
 62
7
  6
CONTINUOUS
 10
386.3598118626
 20
117.2480846688
 40
0.5
 50
359.6790735814
 51
90.0
  0
ARC
  8
0
 62
7
  6
CONTINUOUS
 10
383.561843304
 20
115.5361842105
 40
0.3
 50
270.0
 51
360.0
  0
ARC
  8
0
 62
7
  6
CONTINUOUS
 10
376.361843304
 20
127.0861842105
 40
3.25
 50
180.0
 51
360.0
  0
ARC
  8
0
 62
7
  6
CONTINUOUS
 10
369.161843304
 20
118.5480846688
 40
0.3
 50
118.2737136314
 51
180.0
  0
ARC
  8
0
 62
7
  6
CONTINUOUS
 10
376.211843304
 20
144.0861842105
 40
7.35
 50
90.0
 51
180.0
  0
ARC
  8
0
 62
7
  6
CONTINUOUS
 10
376.361843304
 20
143.2861842105
 40
3.25
 50
0.0
 51
180.0
  0
ARC
  8
0
 62
7
  6
CONTINUOUS
 10
376.511843304
 20
144.0861842105
 40
7.35
 50
0.0
 51
90.0
  0
ARC
  8
0
 62
7
  6
CONTINUOUS
 10
383.561843304
 20
118.5480846688
 40
0.3
 50
0.0
 51
61.7262863686
  0
ARC
  8
0
 62
7
  6
CONTINUOUS
 10
384.4251272607
 20
140.2861841396
 40
0.5
 50
9.9215340204
 51
90.0000014566
  0
ARC
  8
0
 62
7
  6
CONTINUOUS
 10
99.6960526317
 20
212.4532906725
 40
2.7
 50
180.0
 51
270.0
  0
ARC
  8
0
 62
7
  6
CONTINUOUS
 10
81.2960526317
 20
212.4532906725
 40
2.7
 50
270.0
 51
360.0
  0
ARC
  8
0
 62
7
  6
CONTINUOUS
 10
125.0960526317
 20
212.4532906725
 40
2.7
 50
180.0
 51
270.0
  0
ARC
  8
0
 62
7
  6
CONTINUOUS
 10
106.6960526317
 20
212.4532906725
 40
2.7
 50
270.0
 51
360.0
  0
ARC
  8
0
 62
7
  6
CONTINUOUS
 10
23.4960526317
 20
212.4532906725
 40
2.7
 50
180.0
 51
270.0
  0
ARC
  8
0
 62
7
  6
CONTINUOUS
 10
48.8960526317
 20
212.4532906725
 40
2.7
 50
180.0
 51
270.0
  0
ARC
  8
0
 62
7
  6
CONTINUOUS
 10
30.4960526317
 20
212.4532906725
 40
2.7
 50
270.0
 51
360.0
  0
ARC
  8
0
 62
7
  6
CONTINUOUS
 10
74.2960526317
 20
212.4532906725
 40
2.7
 50
180.0
 51
270.0
  0
ARC
  8
0
 62
7
  6
CONTINUOUS
 10
55.8960526317
 20
212.4532906725
 40
2.7
 50
270.0
 51
360.0
  0
ARC
  8
0
 62
7
  6
CONTINUOUS
 10
150.4960526317
 20
212.4532906725
 40
2.7
 50
180.0
 51
270.0
  0
ARC
  8
0
 62
7
  6
CONTINUOUS
 10
132.0960526317
 20
212.4532906725
 40
2.7
 50
270.0
 51
360.0
  0
ARC
  8
0
 62
7
  6
CONTINUOUS
 10
157.4960526317
 20
212.4532906725
 40
2.7
 50
270.0
 51
360.0
  0
ARC
  8
0
 62
7
  6
CONTINUOUS
 10
21.1960526317
 20
210.0532906725
 40
0.3
 50
180.0
 51
270.0
  0
ARC
  8
0
 62
7
  6
CONTINUOUS
 10
99.6960526317
 20
222.0532906725
 40
2.7
 50
90.0
 51
180.0
  0
ARC
  8
0
 62
7
  6
CONTINUOUS
 10
125.0960526317
 20
222.0532906725
 40
2.7
 50
90.0
 51
180.0
  0
ARC
  8
0
 62
7
  6
CONTINUOUS
 10
23.4960526317
 20
222.0532906725
 40
2.7
 50
90.0
 51
180.0
  0
ARC
  8
0
 62
7
  6
CONTINUOUS
 10
48.8960526317
 20
222.0532906725
 40
2.7
 50
90.0
 51
180.0
  0
ARC
  8
0
 62
7
  6
CONTINUOUS
 10
74.2960526317
 20
222.0532906725
 40
2.7
 50
90.0
 51
180.0
  0
ARC
  8
0
 62
7
  6
CONTINUOUS
 10
150.4960526317
 20
222.0532906725
 40
2.7
 50
90.0
 51
180.0
  0
ARC
  8
0
 62
7
  6
CONTINUOUS
 10
132.0960526317
 20
222.0532906725
 40
2.7
 50
0.0
 51
90.0
  0
ARC
  8
0
 62
7
  6
CONTINUOUS
 10
55.8960526317
 20
222.0532906725
 40
2.7
 50
0.0
 51
90.0
  0
ARC
  8
0
 62
7
  6
CONTINUOUS
 10
157.4960526317
 20
222.0532906725
 40
2.7
 50
0.0
 51
90.0
  0
ARC
  8
0
 62
7
  6
CONTINUOUS
 10
30.4960526317
 20
222.0532906725
 40
2.7
 50
0.0
 51
90.0
  0
ARC
  8
0
 62
7
  6
CONTINUOUS
 10
106.6960526317
 20
222.0532906725
 40
2.7
 50
0.0
 51
90.0
  0
ARC
  8
0
 62
7
  6
CONTINUOUS
 10
81.2960526317
 20
222.0532906725
 40
2.7
 50
0.0
 51
90.0
  0
ARC
  8
0
 62
7
  6
CONTINUOUS
 10
21.1960526317
 20
224.4532906725
 40
0.3
 50
90.0
 51
180.0
  0
ARC
  8
0
 62
7
  6
CONTINUOUS
 10
175.8960526317
 20
212.4532906725
 40
2.7
 50
180.0
 51
270.0
  0
ARC
  8
0
 62
7
  6
CONTINUOUS
 10
201.2960526317
 20
212.4532906725
 40
2.7
 50
180.0
 51
270.0
  0
ARC
  8
0
 62
7
  6
CONTINUOUS
 10
182.8960526317
 20
212.4532906725
 40
2.7
 50
270.0
 51
360.0
  0
ARC
  8
0
 62
7
  6
CONTINUOUS
 10
252.0960526317
 20
212.4532906725
 40
2.7
 50
180.0
 51
270.0
  0
ARC
  8
0
 62
7
  6
CONTINUOUS
 10
233.6960526317
 20
212.4532906725
 40
2.7
 50
270.0
 51
360.0
  0
ARC
  8
0
 62
7
  6
CONTINUOUS
 10
277.4960526317
 20
212.4532906725
 40
2.7
 50
180.0
 51
270.0
  0
ARC
  8
0
 62
7
  6
CONTINUOUS
 10
259.0960526317
 20
212.4532906725
 40
2.7
 50
270.0
 51
360.0
  0
ARC
  8
0
 62
7
  6
CONTINUOUS
 10
302.8960526317
 20
212.4532906725
 40
2.7
 50
180.0
 51
270.0
  0
ARC
  8
0
 62
7
  6
CONTINUOUS
 10
208.2960526317
 20
212.4532906725
 40
2.7
 50
270.0
 51
360.0
  0
ARC
  8
0
 62
7
  6
CONTINUOUS
 10
284.4960526317
 20
212.4532906725
 40
2.7
 50
270.0
 51
360.0
  0
ARC
  8
0
 62
7
  6
CONTINUOUS
 10
226.6960526317
 20
212.4532906725
 40
2.7
 50
180.0
 51
270.0
  0
ARC
  8
0
 62
7
  6
CONTINUOUS
 10
322.5960526317
 20
212.4532906725
 40
2.7
 50
344.3647025063
 51
360.0
  0
ARC
  8
0
 62
7
  6
CONTINUOUS
 10
309.8960526317
 20
212.4532906725
 40
2.7
 50
270.0
 51
360.0
  0
ARC
  8
0
 62
7
  6
CONTINUOUS
 10
324.8960526317
 20
210.0532906725
 40
0.3
 50
270.0
 51
360.0
  0
ARC
  8
0
 62
7
  6
CONTINUOUS
 10
175.8960526317
 20
222.0532906725
 40
2.7
 50
90.0
 51
180.0
  0
ARC
  8
0
 62
7
  6
CONTINUOUS
 10
201.2960526317
 20
222.0532906725
 40
2.7
 50
90.0
 51
180.0
  0
ARC
  8
0
 62
7
  6
CONTINUOUS
 10
182.8960526317
 20
222.0532906725
 40
2.7
 50
0.0
 51
90.0
  0
ARC
  8
0
 62
7
  6
CONTINUOUS
 10
252.0960526317
 20
222.0532906725
 40
2.7
 50
90.0
 51
180.0
  0
ARC
  8
0
 62
7
  6
CONTINUOUS
 10
233.6960526317
 20
222.0532906725
 40
2.7
 50
0.0
 51
90.0
  0
ARC
  8
0
 62
7
  6
CONTINUOUS
 10
277.4960526317
 20
222.0532906725
 40
2.7
 50
90.0
 51
180.0
  0
ARC
  8
0
 62
7
  6
CONTINUOUS
 10
259.0960526317
 20
222.0532906725
 40
2.7
 50
0.0
 51
90.0
  0
ARC
  8
0
 62
7
  6
CONTINUOUS
 10
302.8960526317
 20
222.0532906725
 40
2.7
 50
90.0
 51
180.0
  0
ARC
  8
0
 62
7
  6
CONTINUOUS
 10
208.2960526317
 20
222.0532906725
 40
2.7
 50
0.0
 51
90.0
  0
ARC
  8
0
 62
7
  6
CONTINUOUS
 10
284.4960526317
 20
222.0532906725
 40
2.7
 50
0.0
 51
90.0
  0
ARC
  8
0
 62
7
  6
CONTINUOUS
 10
226.6960526317
 20
222.0532906725
 40
2.7
 50
90.0
 51
180.0
  0
ARC
  8
0
 62
7
  6
CONTINUOUS
 10
322.5960526317
 20
222.0532906725
 40
2.7
 50
0.0
 51
15.6352961738
  0
ARC
  8
0
 62
7
  6
CONTINUOUS
 10
309.8960526317
 20
222.0532906725
 40
2.7
 50
0.0
 51
90.0
  0
ARC
  8
0
 62
7
  6
CONTINUOUS
 10
324.8960526317
 20
224.4532906725
 40
0.3
 50
0.0
 51
90.0
  0
ENDSEC
  0
EOF
