  0
SECTION
  2
HEADER
  9
$EXTMAX
 10
420.0
 20
297.0
 30
0.0
  9
$EXTMIN
 10
0.0
 20
0.0
 30
0.0
  9
$LIMMIN
 10
0.0
 20
0.0
  9
$LIMMAX
 10
420.0
 20
297.0
  9
$VIEWCTR
 10
210.0
 20
148.5
  9
$VIEWSIZE
 40
297.0
  9
$CLAYER
  8
0
  9
$LTSCALE
 40
23.1
  9
$CELTYPE
  6
BYLAYER
  9
$DIMSCALE
 40
1.0
  9
$DIMASZ
 40
3.5
  9
$DIMEXO
 40
2.625
  9
$DIMDLI
 40
15.96
  9
$DIMEXE
 40
7.56
  9
$DIMCEN
 40
3.78
  9
$DIMLFAC
 40
1.0
  9
$DIMBLK
  1
_FILLED
  9
$DIMTXT
 40
3.5
  9
$PDMODE
 70
3
  9
$PDSIZE
 40
0.3125
  9
$TILEMODE
 70
1
  0
ENDSEC
  0
SECTION
  2
TABLES
  0
TABLE
  2
LTYPE
 70
6
  0
LTYPE
  2
BYBLOCK
 70
0
  3

 72
65
 73
0
 40
0.0
  0
LTYPE
  2
BYLAYER
 70
0
  3

 72
65
 73
0
 40
0.0
  0
LTYPE
  2
CONTINUOUS
 70
64
  3
Solid line
 72
65
 73
0
 40
0.0
  0
LTYPE
  2
CENTER
 70
64
  3
____ _ ____ _ ____ _ ____ _ ____ _ ____ _ ____
 72
65
 73
4
 40
0.6
 49
0.375
 49
-0.075
 49
0.075
 49
-0.075
  0
LTYPE
  2
HIDDEN
 70
64
  3
- - - - - - - - - - - - - - - - - - - -
 72
65
 73
2
 40
0.2
 49
0.1
 49
-0.1
  0
LTYPE
  2
PHANTOM
 70
64
  3
_____ _ _ _____ _ _ _____ _ _ _____
 72
65
 73
6
 40
0.8
 49
0.45
 49
-0.05
 49
0.1
 49
-0.05
 49
0.1
 49
-0.05
  0
LTYPE
  2
DOT
 70
64
  3
. . . . . . . . . . . . . . . . . . . .
 72
65
 73
2
 40
0.2
 49
0.1
 49
-0.1
  0
LTYPE
  2
DASHED
 70
64
  3
- - - - - - - - - - - - - - - - - - - -
 72
65
 73
2
 40
0.2
 49
0.1
 49
-0.1
  0
ENDTAB
  0
TABLE
  2
LAYER
 70
36
  0
LAYER
  2
0
 70
0
 62
7
  6
CONTINUOUS
  0
LAYER
  2
DEFAULT_1
 70
0
 62
7
  6
CENTER
  0
LAYER
  2
DEFAULT_2
 70
0
 62
8
  6
HIDDEN
  0
LAYER
  2
DEFAULT_3
 70
0
 62
7
  6
PHANTOM
  0
LAYER
  2
CURVE
 70
0
 62
7
  6
CONTINUOUS
  0
LAYER
  2
KERNETRAK
 70
0
 62
7
  6
CONTINUOUS
  0
LAYER
  2
SURFACE
 70
0
 62
7
  6
CONTINUOUS
  0
ENDTAB
  0
TABLE
  2
STYLE
 70
1
  0
STYLE
  2
STANDARD
 70
0
 40
0.0
 41
0.8
 50
0.0
 71
0
 42
0.2
  3
txt
  4

  0
STYLE
  2
TEXTSTYLE_1
 70
0
 40
0.0
 41
0.8
 50
0.0
 71
0
 42
0.2
  3
gdt
  4

  0
STYLE
  2
TEXTSTYLE_2
 70
0
 40
0.0
 41
0.6
 50
0.0
 71
0
 42
0.2
  3
txt
  4

  0
STYLE
  2
TEXTSTYLE_3
 70
0
 40
0.0
 41
1.0
 50
0.0
 71
0
 42
0.2
  3
ftb_____.ttf
  4

  0
STYLE
  2
TEXTSTYLE_4
 70
0
 40
0.0
 41
1.0
 50
0.0
 71
0
 42
0.2
  3
fti_____.ttf
  4

  0
STYLE
  2
TEXTSTYLE_5
 70
0
 40
0.0
 41
1.0
 50
0.0
 71
0
 42
0.2
  3
frutiger light.ttf
  4

  0
STYLE
  2
TEXTSTYLE_6
 70
0
 40
0.0
 41
0.7
 50
0.0
 71
0
 42
0.2
  3
txt
  4

  0
STYLE
  2
TEXTSTYLE_7
 70
0
 40
0.0
 41
0.36
 50
0.0
 71
0
 42
0.2
  3
txt
  4

  0
ENDTAB
  0
ENDSEC
  0
SECTION
  2
BLOCKS
  0
BLOCK
  8
0
 62
2
  6
CONTINUOUS
  2
SYMBOL_5_BL1
 70
64
 10
382.7840918555
 20
35.5067593403
  0
TEXT
  8
0
 62
7
  6
CONTINUOUS
 10
373.842376864
 20
30.5995157174
  7
TEXTSTYLE_4
 40
1.0655737705
  1
The brand for plastic modular belts and chains
 41
1.0
 72
0
  0
LINE
  8
0
 62
7
  6
CONTINUOUS
 10
358.7621602445
 20
36.0805298321
 11
358.7621602445
 21
33.9493822911
  0
LINE
  8
0
 62
7
  6
CONTINUOUS
 10
359.0512227376
 20
30.9584509954
 11
359.0512227376
 21
31.0552420547
  0
LINE
  8
0
 62
7
  6
CONTINUOUS
 10
358.7621602445
 20
31.0229783683
 11
358.8199727462
 21
30.8293962497
  0
LINE
  8
0
 62
7
  6
CONTINUOUS
 10
360.1556028675
 20
33.867415078
 11
360.1556028675
 21
36.0805298321
  0
LINE
  8
0
 62
7
  6
CONTINUOUS
 10
361.0746601894
 20
32.0231527829
 11
361.0746601894
 21
30.5067593403
  0
LINE
  8
0
 62
7
  6
CONTINUOUS
 10
361.3637227445
 20
30.5067593403
 11
361.3637227445
 21
31.2488242184
  0
LINE
  8
0
 62
7
  6
CONTINUOUS
 10
361.3637227445
 20
31.3778789641
 11
361.3637227445
 21
32.0231527829
  0
LINE
  8
0
 62
7
  6
CONTINUOUS
 10
358.8199727462
 20
31.216560532
 11
358.7621602445
 21
31.0229783683
  0
LINE
  8
0
 62
7
  6
CONTINUOUS
 10
359.1668477307
 20
30.7971325633
 11
359.0512227376
 21
30.9584509954
  0
LINE
  8
0
 62
7
  6
CONTINUOUS
 10
360.2652852997
 20
31.3133515913
 11
360.3230977445
 21
31.216560532
  0
LINE
  8
0
 62
7
  6
CONTINUOUS
 10
360.6121602997
 20
31.216560532
 11
360.5543476894
 21
31.3456152777
  0
LINE
  8
0
 62
7
  6
CONTINUOUS
 10
362.0408487691
 20
36.0805298321
 11
362.0408487691
 21
34.2772511436
  0
LINE
  8
0
 62
7
  6
CONTINUOUS
 10
362.0408487691
 20
32.9657757338
 11
362.0408487691
 21
32.3100380288
  0
LINE
  8
0
 62
7
  6
CONTINUOUS
 10
362.4043477445
 20
31.1520331591
 11
362.4043477445
 21
30.5067593403
  0
LINE
  8
0
 62
7
  6
CONTINUOUS
 10
362.6934101343
 20
30.5067593403
 11
362.6934101343
 21
31.1520331591
  0
LINE
  8
0
 62
7
  6
CONTINUOUS
 10
359.0512227376
 20
31.0552420547
 11
359.1090352445
 21
31.1842968456
  0
LINE
  8
0
 62
7
  6
CONTINUOUS
 10
358.8199727462
 20
30.8293962497
 11
358.9355977445
 21
30.7003414814
  0
LINE
  8
0
 62
7
  6
CONTINUOUS
 10
362.3465351343
 20
31.2810879048
 11
362.4043477445
 21
31.1520331591
  0
LINE
  8
0
 62
7
  6
CONTINUOUS
 10
363.1559103548
 20
30.7971325633
 11
363.2137226343
 21
30.668077795
  0
LINE
  8
0
 62
7
  6
CONTINUOUS
 10
362.6934101343
 20
31.1520331591
 11
362.6355978548
 21
31.3133515913
  0
LINE
  8
0
 62
7
  6
CONTINUOUS
 10
363.1559103548
 20
31.3456152777
 11
363.1559103548
 21
31.2810879048
  0
LINE
  8
0
 62
7
  6
CONTINUOUS
 10
363.1559103548
 20
30.8939236226
 11
363.1559103548
 21
30.7971325633
  0
LINE
  8
0
 62
7
  6
CONTINUOUS
 10
363.4342913921
 20
32.3100380288
 11
363.4342913921
 21
36.0805298321
  0
LINE
  8
0
 62
7
  6
CONTINUOUS
 10
363.4449727445
 20
30.7648688543
 11
363.4449727445
 21
30.8293962497
  0
LINE
  8
0
 62
7
  6
CONTINUOUS
 10
363.7621602445
 20
36.0805298321
 11
363.7621602445
 21
32.3100380288
  0
LINE
  8
0
 62
7
  6
CONTINUOUS
 10
360.5543476894
 20
30.7003414814
 11
360.6121602997
 21
30.8293962497
  0
LINE
  8
0
 62
7
  6
CONTINUOUS
 10
364.9480979651
 20
30.6035504109
 11
364.890285024
 21
30.7648688543
  0
LINE
  8
0
 62
7
  6
CONTINUOUS
 10
364.6012229651
 20
31.2810879048
 11
364.6012229651
 21
31.1842968456
  0
LINE
  8
0
 62
7
  6
CONTINUOUS
 10
364.6012229651
 20
31.0552420547
 11
364.6012229651
 21
30.8616599362
  0
LINE
  8
0
 62
7
  6
CONTINUOUS
 10
364.890285024
 20
30.7648688543
 11
364.890285024
 21
31.2810879048
  0
LINE
  8
0
 62
7
  6
CONTINUOUS
 10
365.1556028675
 20
32.3100380288
 11
365.1556028675
 21
34.1133167174
  0
LINE
  8
0
 62
7
  6
CONTINUOUS
 10
365.1556028675
 20
35.4247921272
 11
365.1556028675
 21
36.0805298321
  0
LINE
  8
0
 62
7
  6
CONTINUOUS
 10
365.4684104651
 20
32.0231527829
 11
365.4684104651
 21
31.8618343508
  0
LINE
  8
0
 62
7
  6
CONTINUOUS
 10
365.4684104651
 20
31.5391973962
 11
365.4684104651
 21
30.5067593403
  0
LINE
  8
0
 62
7
  6
CONTINUOUS
 10
365.757472524
 20
30.5067593403
 11
365.757472524
 21
31.5391973962
  0
LINE
  8
0
 62
7
  6
CONTINUOUS
 10
365.757472524
 20
31.8618343508
 11
365.757472524
 21
32.0231527829
  0
LINE
  8
0
 62
7
  6
CONTINUOUS
 10
360.3230977445
 20
30.8293962497
 11
360.2652852997
 21
30.7326051679
  0
LINE
  8
0
 62
7
  6
CONTINUOUS
 10
362.6355978548
 20
31.3133515913
 11
362.5777852445
 21
31.3778789641
  0
LINE
  8
0
 62
7
  6
CONTINUOUS
 10
363.5027853548
 20
30.7003414814
 11
363.4449727445
 21
30.7648688543
  0
LINE
  8
0
 62
7
  6
CONTINUOUS
 10
364.6590352445
 20
30.5712867188
 11
364.716847524
 21
30.5067593403
  0
LINE
  8
0
 62
7
  6
CONTINUOUS
 10
364.6012229651
 20
30.668077795
 11
364.6590352445
 21
30.5712867188
  0
LINE
  8
0
 62
7
  6
CONTINUOUS
 10
365.0059102445
 20
30.5067593403
 11
364.9480979651
 21
30.6035504109
  0
LINE
  8
0
 62
7
  6
CONTINUOUS
 10
364.890285024
 20
31.2810879048
 11
364.8324727445
 21
31.3778789641
  0
LINE
  8
0
 62
7
  6
CONTINUOUS
 10
366.2199727445
 20
31.5391973962
 11
366.2199727445
 21
30.5067593403
  0
LINE
  8
0
 62
7
  6
CONTINUOUS
 10
366.5090354651
 20
30.5067593403
 11
366.5090354651
 21
31.2488242184
  0
LINE
  8
0
 62
7
  6
CONTINUOUS
 10
366.5090354651
 20
31.3778789641
 11
366.5090354651
 21
31.5391973962
  0
LINE
  8
0
 62
7
  6
CONTINUOUS
 10
367.0408487691
 20
34.5231527829
 11
367.0408487691
 21
32.3100380288
  0
LINE
  8
0
 62
7
  6
CONTINUOUS
 10
358.9355977445
 20
31.3456152777
 11
358.8199727462
 21
31.216560532
  0
LINE
  8
0
 62
7
  6
CONTINUOUS
 10
359.1090352445
 20
31.1842968456
 11
359.1668477307
 21
31.2488242184
  0
LINE
  8
0
 62
7
  6
CONTINUOUS
 10
358.9355977445
 20
30.7003414814
 11
359.0512227376
 21
30.6358140973
  0
LINE
  8
0
 62
7
  6
CONTINUOUS
 10
359.3402852307
 20
30.7003414814
 11
359.1668477307
 21
30.7971325633
  0
LINE
  8
0
 62
7
  6
CONTINUOUS
 10
364.543410024
 20
31.3456152777
 11
364.6012229651
 21
31.2810879048
  0
LINE
  8
0
 62
7
  6
CONTINUOUS
 10
367.491847524
 20
31.2810879048
 11
367.5496604651
 21
31.1197694727
  0
LINE
  8
0
 62
7
  6
CONTINUOUS
 10
367.838722524
 20
31.1197694727
 11
367.7809102445
 21
31.2810879048
  0
LINE
  8
0
 62
7
  6
CONTINUOUS
 10
367.5496604651
 20
31.1197694727
 11
367.5496604651
 21
30.5067593403
  0
LINE
  8
0
 62
7
  6
CONTINUOUS
 10
367.838722524
 20
30.5067593403
 11
367.838722524
 21
31.1197694727
  0
LINE
  8
0
 62
7
  6
CONTINUOUS
 10
368.3012227445
 20
31.3456152777
 11
368.3012227445
 21
31.2810879048
  0
LINE
  8
0
 62
7
  6
CONTINUOUS
 10
368.4342913921
 20
32.3100380288
 11
368.4342913921
 21
34.4411855698
  0
LINE
  8
0
 62
7
  6
CONTINUOUS
 10
368.7621602445
 20
36.0805298321
 11
368.7621602445
 21
32.3100380288
  0
LINE
  8
0
 62
7
  6
CONTINUOUS
 10
363.4449727445
 20
30.8293962497
 11
363.5027853548
 21
30.926187309
  0
LINE
  8
0
 62
7
  6
CONTINUOUS
 10
359.0512227376
 20
30.6358140973
 11
359.2246602583
 21
30.5712867188
  0
LINE
  8
0
 62
7
  6
CONTINUOUS
 10
360.5543476894
 20
31.3456152777
 11
360.3809101894
 21
31.4424063369
  0
LINE
  8
0
 62
7
  6
CONTINUOUS
 10
363.2137226343
 20
30.668077795
 11
363.3871601343
 21
30.5712867188
  0
LINE
  8
0
 62
7
  6
CONTINUOUS
 10
362.2309102445
 20
31.3456152777
 11
362.3465351343
 21
31.2810879048
  0
LINE
  8
0
 62
7
  6
CONTINUOUS
 10
362.5777852445
 20
31.3778789641
 11
362.4621603548
 21
31.4424063369
  0
LINE
  8
0
 62
7
  6
CONTINUOUS
 10
368.3012227445
 20
30.7648688543
 11
368.4168479651
 21
30.6358140973
  0
LINE
  8
0
 62
7
  6
CONTINUOUS
 10
368.6480977445
 20
30.7003414814
 11
368.5902854651
 21
30.7648688543
  0
LINE
  8
0
 62
7
  6
CONTINUOUS
 10
368.3012227445
 20
31.2810879048
 11
368.4168479651
 21
31.1520331591
  0
LINE
  8
0
 62
7
  6
CONTINUOUS
 10
367.7809102445
 20
31.2810879048
 11
367.7230979651
 21
31.3778789641
  0
LINE
  8
0
 62
7
  6
CONTINUOUS
 10
370.1512223035
 20
30.7003414814
 11
370.1512223035
 21
30.7648688543
  0
LINE
  8
0
 62
7
  6
CONTINUOUS
 10
370.1556028675
 20
32.3100380288
 11
370.1556028675
 21
36.0805298321
  0
LINE
  8
0
 62
7
  6
CONTINUOUS
 10
363.2137226343
 20
31.4101426505
 11
363.1559103548
 21
31.3456152777
  0
LINE
  8
0
 62
7
  6
CONTINUOUS
 10
360.091847717
 20
31.3778789641
 11
360.2652852997
 21
31.3133515913
  0
LINE
  8
0
 62
7
  6
CONTINUOUS
 10
364.8324727445
 20
31.3778789641
 11
364.716847524
 21
31.4424063369
  0
LINE
  8
0
 62
7
  6
CONTINUOUS
 10
368.6480977445
 20
31.216560532
 11
368.5902854651
 21
31.2810879048
  0
LINE
  8
0
 62
7
  6
CONTINUOUS
 10
369.8043479651
 20
30.8293962497
 11
369.8621602445
 21
30.7648688543
  0
LINE
  8
0
 62
7
  6
CONTINUOUS
 10
370.1512223035
 20
30.7648688543
 11
370.0355977445
 21
30.8939236226
  0
LINE
  8
0
 62
7
  6
CONTINUOUS
 10
369.8043479651
 20
31.3456152777
 11
369.8621602445
 21
31.2810879048
  0
LINE
  8
0
 62
7
  6
CONTINUOUS
 10
370.1512223035
 20
31.2810879048
 11
370.0355977445
 21
31.4101426505
  0
LINE
  8
0
 62
7
  6
CONTINUOUS
 10
363.4449727445
 20
31.2810879048
 11
363.5027853548
 21
31.3456152777
  0
LINE
  8
0
 62
7
  6
CONTINUOUS
 10
363.2715352445
 20
31.0229783683
 11
363.1559103548
 21
30.8939236226
  0
LINE
  8
0
 62
7
  6
CONTINUOUS
 10
364.6012229651
 20
30.8616599362
 11
364.543410024
 21
30.7971325633
  0
LINE
  8
0
 62
7
  6
CONTINUOUS
 10
364.543410024
 20
30.6035504109
 11
364.6012229651
 21
30.668077795
  0
LINE
  8
0
 62
7
  6
CONTINUOUS
 10
363.3871601343
 20
30.5712867188
 11
363.5027853548
 21
30.5390230296
  0
LINE
  8
0
 62
7
  6
CONTINUOUS
 10
360.3809101894
 20
31.4424063369
 11
360.1496602445
 21
31.5069337098
  0
LINE
  8
0
 62
7
  6
CONTINUOUS
 10
363.7340351343
 20
30.6358140973
 11
363.5027853548
 21
30.7003414814
  0
LINE
  8
0
 62
7
  6
CONTINUOUS
 10
362.4621603548
 20
31.4424063369
 11
362.2887228548
 21
31.5069337098
  0
LINE
  8
0
 62
7
  6
CONTINUOUS
 10
364.716847524
 20
31.4424063369
 11
364.543410024
 21
31.5069337098
  0
LINE
  8
0
 62
7
  6
CONTINUOUS
 10
367.3762229651
 20
31.3456152777
 11
367.491847524
 21
31.2810879048
  0
LINE
  8
0
 62
7
  6
CONTINUOUS
 10
367.7230979651
 20
31.3778789641
 11
367.6074727445
 21
31.4424063369
  0
LINE
  8
0
 62
7
  6
CONTINUOUS
 10
359.2246602583
 20
30.5712867188
 11
359.3980977583
 21
30.5390230296
  0
LINE
  8
0
 62
7
  6
CONTINUOUS
 10
359.6871602721
 20
30.6358140973
 11
359.3402852307
 21
30.7003414814
  0
LINE
  8
0
 62
7
  6
CONTINUOUS
 10
362.1152853548
 20
31.3778789641
 11
362.2309102445
 21
31.3456152777
  0
LINE
  8
0
 62
7
  6
CONTINUOUS
 10
364.4277854651
 20
31.3778789641
 11
364.543410024
 21
31.3456152777
  0
LINE
  8
0
 62
7
  6
CONTINUOUS
 10
368.7637229651
 20
30.668077795
 11
368.6480977445
 21
30.7003414814
  0
LINE
  8
0
 62
7
  6
CONTINUOUS
 10
367.2605977445
 20
31.3778789641
 11
367.3762229651
 21
31.3456152777
  0
LINE
  8
0
 62
7
  6
CONTINUOUS
 10
368.4168479651
 20
30.6358140973
 11
368.5902854651
 21
30.5712867188
  0
LINE
  8
0
 62
7
  6
CONTINUOUS
 10
367.6074727445
 20
31.4424063369
 11
367.4340352445
 21
31.5069337098
  0
LINE
  8
0
 62
7
  6
CONTINUOUS
 10
368.8215352445
 20
31.1520331591
 11
368.6480977445
 21
31.216560532
  0
LINE
  8
0
 62
7
  6
CONTINUOUS
 10
369.6309104651
 20
30.8939236226
 11
369.8043479651
 21
30.8293962497
  0
LINE
  8
0
 62
7
  6
CONTINUOUS
 10
370.0355977445
 20
31.4101426505
 11
369.8621602445
 21
31.4746700234
  0
LINE
  8
0
 62
7
  6
CONTINUOUS
 10
368.4168479651
 20
31.1520331591
 11
368.6480977445
 21
31.0552420547
  0
LINE
  8
0
 62
7
  6
CONTINUOUS
 10
370.0355977445
 20
30.8939236226
 11
369.8043479651
 21
30.9907146818
  0
LINE
  8
0
 62
7
  6
CONTINUOUS
 10
368.5902854651
 20
31.2810879048
 11
368.6480977445
 21
31.3456152777
  0
LINE
  8
0
 62
7
  6
CONTINUOUS
 10
359.0512227376
 20
31.4101426505
 11
358.9355977445
 21
31.3456152777
  0
LINE
  8
0
 62
7
  6
CONTINUOUS
 10
359.1668477307
 20
31.2488242184
 11
359.3402852307
 21
31.3456152777
  0
LINE
  8
0
 62
7
  6
CONTINUOUS
 10
361.4793477997
 20
31.4424063369
 11
361.3637227445
 21
31.3778789641
  0
LINE
  8
0
 62
7
  6
CONTINUOUS
 10
361.3637227445
 20
31.2488242184
 11
361.4793477997
 21
31.3133515913
  0
LINE
  8
0
 62
7
  6
CONTINUOUS
 10
360.3809101894
 20
30.6035504109
 11
360.5543476894
 21
30.7003414814
  0
LINE
  8
0
 62
7
  6
CONTINUOUS
 10
359.3980977583
 20
30.5390230296
 11
359.744972717
 21
30.5067593403
  0
LINE
  8
0
 62
7
  6
CONTINUOUS
 10
363.5027853548
 20
30.5390230296
 11
363.7340351343
 21
30.5067593403
  0
LINE
  8
0
 62
7
  6
CONTINUOUS
 10
361.8840352445
 20
31.4101426505
 11
362.1152853548
 21
31.3778789641
  0
LINE
  8
0
 62
7
  6
CONTINUOUS
 10
364.1965353548
 20
31.4101426505
 11
364.4277854651
 21
31.3778789641
  0
LINE
  8
0
 62
7
  6
CONTINUOUS
 10
368.6480977445
 20
31.0552420547
 11
369.6309104651
 21
30.8939236226
  0
LINE
  8
0
 62
7
  6
CONTINUOUS
 10
369.8043479651
 20
30.9907146818
 11
368.8215352445
 21
31.1520331591
  0
LINE
  8
0
 62
7
  6
CONTINUOUS
 10
362.2887228548
 20
31.5069337098
 11
362.1152853548
 21
31.5391973962
  0
LINE
  8
0
 62
7
  6
CONTINUOUS
 10
368.5902854651
 20
30.5712867188
 11
368.7637229651
 21
30.5390230296
  0
LINE
  8
0
 62
7
  6
CONTINUOUS
 10
367.4340352445
 20
31.5069337098
 11
367.2605977445
 21
31.5391973962
  0
LINE
  8
0
 62
7
  6
CONTINUOUS
 10
369.6887227445
 20
31.3778789641
 11
369.8043479651
 21
31.3456152777
  0
LINE
  8
0
 62
7
  6
CONTINUOUS
 10
369.8621602445
 20
30.7648688543
 11
369.8043479651
 21
30.7003414814
  0
LINE
  8
0
 62
7
  6
CONTINUOUS
 10
368.4168479651
 20
31.4424063369
 11
368.3012227445
 21
31.3456152777
  0
LINE
  8
0
 62
7
  6
CONTINUOUS
 10
363.3293478548
 20
31.4746700234
 11
363.2137226343
 21
31.4101426505
  0
LINE
  8
0
 62
7
  6
CONTINUOUS
 10
363.3871601343
 20
31.0875057863
 11
363.2715352445
 21
31.0229783683
  0
LINE
  8
0
 62
7
  6
CONTINUOUS
 10
363.5027853548
 20
30.926187309
 11
363.6184102445
 21
30.9907146818
  0
LINE
  8
0
 62
7
  6
CONTINUOUS
 10
361.0746601894
 20
30.5067593403
 11
361.3637227445
 21
30.5067593403
  0
LINE
  8
0
 62
7
  6
CONTINUOUS
 10
362.4043477445
 20
30.5067593403
 11
362.6934101343
 21
30.5067593403
  0
LINE
  8
0
 62
7
  6
CONTINUOUS
 10
363.7340351343
 20
30.5067593403
 11
364.0809101343
 21
30.5067593403
  0
LINE
  8
0
 62
7
  6
CONTINUOUS
 10
364.716847524
 20
30.5067593403
 11
365.0059102445
 21
30.5067593403
  0
LINE
  8
0
 62
7
  6
CONTINUOUS
 10
365.4684104651
 20
30.5067593403
 11
365.757472524
 21
30.5067593403
  0
LINE
  8
0
 62
7
  6
CONTINUOUS
 10
366.2199727445
 20
30.5067593403
 11
366.5090354651
 21
30.5067593403
  0
LINE
  8
0
 62
7
  6
CONTINUOUS
 10
367.5496604651
 20
30.5067593403
 11
367.838722524
 21
30.5067593403
  0
LINE
  8
0
 62
7
  6
CONTINUOUS
 10
369.1105979651
 20
30.5067593403
 11
369.4574729651
 21
30.5067593403
  0
LINE
  8
0
 62
7
  6
CONTINUOUS
 10
369.4574729651
 20
30.6358140973
 11
369.1105979651
 21
30.6358140973
  0
LINE
  8
0
 62
7
  6
CONTINUOUS
 10
364.0809101343
 20
30.6358140973
 11
363.7340351343
 21
30.6358140973
  0
LINE
  8
0
 62
7
  6
CONTINUOUS
 10
368.5902854651
 20
30.7648688543
 11
368.3012227445
 21
30.7648688543
  0
LINE
  8
0
 62
7
  6
CONTINUOUS
 10
360.6121602997
 20
30.8293962497
 11
360.3230977445
 21
30.8293962497
  0
LINE
  8
0
 62
7
  6
CONTINUOUS
 10
359.6871602721
 20
31.4101426505
 11
360.091847717
 21
31.3778789641
  0
LINE
  8
0
 62
7
  6
CONTINUOUS
 10
360.1496602445
 20
31.5069337098
 11
359.744972717
 21
31.5391973962
  0
LINE
  8
0
 62
7
  6
CONTINUOUS
 10
368.7637229651
 20
30.5390230296
 11
369.1105979651
 21
30.5067593403
  0
LINE
  8
0
 62
7
  6
CONTINUOUS
 10
369.1105979651
 20
30.6358140973
 11
368.7637229651
 21
30.668077795
  0
LINE
  8
0
 62
7
  6
CONTINUOUS
 10
364.543410024
 20
31.5069337098
 11
364.1965353548
 21
31.5391973962
  0
LINE
  8
0
 62
7
  6
CONTINUOUS
 10
369.3418477445
 20
31.4101426505
 11
369.6887227445
 21
31.3778789641
  0
LINE
  8
0
 62
7
  6
CONTINUOUS
 10
369.6887227445
 20
31.5069337098
 11
369.3418477445
 21
31.5391973962
  0
LINE
  8
0
 62
7
  6
CONTINUOUS
 10
367.0293479651
 20
31.4101426505
 11
367.2605977445
 21
31.3778789641
  0
LINE
  8
0
 62
7
  6
CONTINUOUS
 10
369.8621602445
 20
31.4746700234
 11
369.6887227445
 21
31.5069337098
  0
LINE
  8
0
 62
7
  6
CONTINUOUS
 10
370.0355977445
 20
30.6035504109
 11
370.1512223035
 21
30.7003414814
  0
LINE
  8
0
 62
7
  6
CONTINUOUS
 10
364.543410024
 20
30.7971325633
 11
364.369972524
 21
30.7003414814
  0
LINE
  8
0
 62
7
  6
CONTINUOUS
 10
366.624660024
 20
31.4424063369
 11
366.5090354651
 21
31.3778789641
  0
LINE
  8
0
 62
7
  6
CONTINUOUS
 10
366.5090354651
 20
31.2488242184
 11
366.624660024
 21
31.3133515913
  0
LINE
  8
0
 62
7
  6
CONTINUOUS
 10
359.2246602583
 20
31.4746700234
 11
359.0512227376
 21
31.4101426505
  0
LINE
  8
0
 62
7
  6
CONTINUOUS
 10
361.6527851343
 20
31.5069337098
 11
361.4793477997
 21
31.4424063369
  0
LINE
  8
0
 62
7
  6
CONTINUOUS
 10
361.4793477997
 20
31.3133515913
 11
361.6527851343
 21
31.3778789641
  0
LINE
  8
0
 62
7
  6
CONTINUOUS
 10
360.2652852997
 20
30.7326051679
 11
360.091847717
 21
30.668077795
  0
LINE
  8
0
 62
7
  6
CONTINUOUS
 10
369.6887227445
 20
30.668077795
 11
369.4574729651
 21
30.6358140973
  0
LINE
  8
0
 62
7
  6
CONTINUOUS
 10
364.0809101343
 20
30.5067593403
 11
364.369972524
 21
30.5390230296
  0
LINE
  8
0
 62
7
  6
CONTINUOUS
 10
369.4574729651
 20
30.5067593403
 11
369.8043479651
 21
30.5390230296
  0
LINE
  8
0
 62
7
  6
CONTINUOUS
 10
359.744972717
 20
30.5067593403
 11
360.1496602445
 21
30.5390230296
  0
LINE
  8
0
 62
7
  6
CONTINUOUS
 10
360.091847717
 20
30.668077795
 11
359.6871602721
 21
30.6358140973
  0
LINE
  8
0
 62
7
  6
CONTINUOUS
 10
363.9652852445
 20
31.0552420547
 11
364.6012229651
 21
31.0552420547
  0
LINE
  8
0
 62
7
  6
CONTINUOUS
 10
364.6012229651
 20
31.1842968456
 11
363.9652852445
 21
31.1842968456
  0
LINE
  8
0
 62
7
  6
CONTINUOUS
 10
360.3230977445
 20
31.216560532
 11
360.6121602997
 21
31.216560532
  0
LINE
  8
0
 62
7
  6
CONTINUOUS
 10
363.1559103548
 20
31.2810879048
 11
363.4449727445
 21
31.2810879048
  0
LINE
  8
0
 62
7
  6
CONTINUOUS
 10
369.8621602445
 20
31.2810879048
 11
370.1512223035
 21
31.2810879048
  0
LINE
  8
0
 62
7
  6
CONTINUOUS
 10
363.8496603548
 20
31.4101426505
 11
364.1965353548
 21
31.4101426505
  0
LINE
  8
0
 62
7
  6
CONTINUOUS
 10
368.9949727445
 20
31.4101426505
 11
369.3418477445
 21
31.4101426505
  0
LINE
  8
0
 62
7
  6
CONTINUOUS
 10
369.3418477445
 20
31.5391973962
 11
368.9949727445
 21
31.5391973962
  0
LINE
  8
0
 62
7
  6
CONTINUOUS
 10
367.2605977445
 20
31.5391973962
 11
367.0293479651
 21
31.5391973962
  0
LINE
  8
0
 62
7
  6
CONTINUOUS
 10
366.5090354651
 20
31.5391973962
 11
366.2199727445
 21
31.5391973962
  0
LINE
  8
0
 62
7
  6
CONTINUOUS
 10
365.757472524
 20
31.5391973962
 11
365.4684104651
 21
31.5391973962
  0
LINE
  8
0
 62
7
  6
CONTINUOUS
 10
364.1965353548
 20
31.5391973962
 11
363.8496603548
 21
31.5391973962
  0
LINE
  8
0
 62
7
  6
CONTINUOUS
 10
362.1152853548
 20
31.5391973962
 11
361.8840352445
 21
31.5391973962
  0
LINE
  8
0
 62
7
  6
CONTINUOUS
 10
365.4684104651
 20
31.8618343508
 11
365.757472524
 21
31.8618343508
  0
LINE
  8
0
 62
7
  6
CONTINUOUS
 10
365.757472524
 20
32.0231527829
 11
365.4684104651
 21
32.0231527829
  0
LINE
  8
0
 62
7
  6
CONTINUOUS
 10
361.3637227445
 20
32.0231527829
 11
361.0746601894
 21
32.0231527829
  0
LINE
  8
0
 62
7
  6
CONTINUOUS
 10
360.4015045068
 20
32.3100380288
 11
360.8140758554
 21
32.3100380288
  0
LINE
  8
0
 62
7
  6
CONTINUOUS
 10
362.0408487691
 20
32.3100380288
 11
363.4342913921
 21
32.3100380288
  0
LINE
  8
0
 62
7
  6
CONTINUOUS
 10
363.7621602445
 20
32.3100380288
 11
365.1556028675
 21
32.3100380288
  0
LINE
  8
0
 62
7
  6
CONTINUOUS
 10
367.0408487691
 20
32.3100380288
 11
368.4342913921
 21
32.3100380288
  0
LINE
  8
0
 62
7
  6
CONTINUOUS
 10
368.7621602445
 20
32.3100380288
 11
370.1556028675
 21
32.3100380288
  0
LINE
  8
0
 62
7
  6
CONTINUOUS
 10
366.798097524
 20
31.5069337098
 11
366.624660024
 21
31.4424063369
  0
LINE
  8
0
 62
7
  6
CONTINUOUS
 10
364.369972524
 20
30.5390230296
 11
364.543410024
 21
30.6035504109
  0
LINE
  8
0
 62
7
  6
CONTINUOUS
 10
369.8043479651
 20
30.5390230296
 11
370.0355977445
 21
30.6035504109
  0
LINE
  8
0
 62
7
  6
CONTINUOUS
 10
369.8043479651
 20
30.7003414814
 11
369.6887227445
 21
30.668077795
  0
LINE
  8
0
 62
7
  6
CONTINUOUS
 10
368.7637229651
 20
31.3778789641
 11
368.9949727445
 21
31.4101426505
  0
LINE
  8
0
 62
7
  6
CONTINUOUS
 10
366.798097524
 20
31.3778789641
 11
367.0293479651
 21
31.4101426505
  0
LINE
  8
0
 62
7
  6
CONTINUOUS
 10
363.7340351343
 20
31.0229783683
 11
363.9652852445
 21
31.0552420547
  0
LINE
  8
0
 62
7
  6
CONTINUOUS
 10
367.0293479651
 20
31.5391973962
 11
366.798097524
 21
31.5069337098
  0
LINE
  8
0
 62
7
  6
CONTINUOUS
 10
363.6184102445
 20
31.3778789641
 11
363.8496603548
 21
31.4101426505
  0
LINE
  8
0
 62
7
  6
CONTINUOUS
 10
368.9949727445
 20
31.5391973962
 11
368.6480977445
 21
31.5069337098
  0
LINE
  8
0
 62
7
  6
CONTINUOUS
 10
363.9652852445
 20
31.1842968456
 11
363.6184102445
 21
31.1520331591
  0
LINE
  8
0
 62
7
  6
CONTINUOUS
 10
359.744972717
 20
31.5391973962
 11
359.3980977583
 21
31.5069337098
  0
LINE
  8
0
 62
7
  6
CONTINUOUS
 10
363.8496603548
 20
31.5391973962
 11
363.4449727445
 21
31.5069337098
  0
LINE
  8
0
 62
7
  6
CONTINUOUS
 10
361.221176638
 20
33.4575790124
 11
360.565438933
 21
33.4575790124
  0
LINE
  8
0
 62
7
  6
CONTINUOUS
 10
366.624660024
 20
31.3133515913
 11
366.798097524
 21
31.3778789641
  0
LINE
  8
0
 62
7
  6
CONTINUOUS
 10
368.6480977445
 20
31.3456152777
 11
368.7637229651
 21
31.3778789641
  0
LINE
  8
0
 62
7
  6
CONTINUOUS
 10
368.6480977445
 20
31.5069337098
 11
368.4168479651
 21
31.4424063369
  0
LINE
  8
0
 62
7
  6
CONTINUOUS
 10
364.369972524
 20
30.7003414814
 11
364.0809101343
 21
30.6358140973
  0
LINE
  8
0
 62
7
  6
CONTINUOUS
 10
361.6527851343
 20
31.3778789641
 11
361.8840352445
 21
31.4101426505
  0
LINE
  8
0
 62
7
  6
CONTINUOUS
 10
361.8840352445
 20
31.5391973962
 11
361.6527851343
 21
31.5069337098
  0
LINE
  8
0
 62
7
  6
CONTINUOUS
 10
359.4559102445
 20
31.3778789641
 11
359.6871602721
 21
31.4101426505
  0
LINE
  8
0
 62
7
  6
CONTINUOUS
 10
365.9752749986
 20
34.9329888485
 11
366.6310127035
 21
34.9329888485
  0
LINE
  8
0
 62
7
  6
CONTINUOUS
 10
363.6184102445
 20
30.9907146818
 11
363.7340351343
 21
31.0229783683
  0
LINE
  8
0
 62
7
  6
CONTINUOUS
 10
363.6184102445
 20
31.1520331591
 11
363.3871601343
 21
31.0875057863
  0
LINE
  8
0
 62
7
  6
CONTINUOUS
 10
363.5027853548
 20
31.3456152777
 11
363.6184102445
 21
31.3778789641
  0
LINE
  8
0
 62
7
  6
CONTINUOUS
 10
360.1496602445
 20
30.5390230296
 11
360.3809101894
 21
30.6035504109
  0
LINE
  8
0
 62
7
  6
CONTINUOUS
 10
363.4449727445
 20
31.5069337098
 11
363.3293478548
 21
31.4746700234
  0
LINE
  8
0
 62
7
  6
CONTINUOUS
 10
359.3980977583
 20
31.5069337098
 11
359.2246602583
 21
31.4746700234
  0
LINE
  8
0
 62
7
  6
CONTINUOUS
 10
370.1556028675
 20
36.0805298321
 11
368.7621602445
 21
36.0805298321
  0
LINE
  8
0
 62
7
  6
CONTINUOUS
 10
366.7949471298
 20
36.0805298321
 11
366.3823757812
 21
36.0805298321
  0
LINE
  8
0
 62
7
  6
CONTINUOUS
 10
365.1556028675
 20
36.0805298321
 11
363.7621602445
 21
36.0805298321
  0
LINE
  8
0
 62
7
  6
CONTINUOUS
 10
363.4342913921
 20
36.0805298321
 11
362.0408487691
 21
36.0805298321
  0
LINE
  8
0
 62
7
  6
CONTINUOUS
 10
360.1556028675
 20
36.0805298321
 11
358.7621602445
 21
36.0805298321
  0
LINE
  8
0
 62
7
  6
CONTINUOUS
 10
359.3402852307
 20
31.3456152777
 11
359.4559102445
 21
31.3778789641
  0
CIRCLE
  8
0
 62
7
  6
CONTINUOUS
 10
369.458881556
 20
38.4165954059
 40
2.0901639344
  0
ARC
  8
0
 62
7
  6
CONTINUOUS
 10
360.4015045068
 20
33.9493822911
 40
1.6393442623
 50
180.0
 51
270.0
  0
ARC
  8
0
 62
7
  6
CONTINUOUS
 10
366.7949471298
 20
34.4411855698
 40
1.6393442623
 50
0.0
 51
90.0
  0
ARC
  8
0
 62
7
  6
CONTINUOUS
 10
360.8140758554
 20
33.7854478649
 40
1.4754098361
 50
270.0
 51
326.2510114041
  0
ARC
  8
0
 62
7
  6
CONTINUOUS
 10
366.3823757812
 20
34.6051199961
 40
1.4754098361
 50
90.0
 51
146.2510114041
  0
ARC
  8
0
 62
7
  6
CONTINUOUS
 10
361.221176638
 20
34.2772511436
 40
0.8196721311
 50
270.0
 51
360.0
  0
ARC
  8
0
 62
7
  6
CONTINUOUS
 10
365.9752749986
 20
34.1133167174
 40
0.8196721311
 50
90.0
 51
180.0
  0
ARC
  8
0
 62
7
  6
CONTINUOUS
 10
360.565438933
 20
33.867415078
 40
0.4098360656
 50
180.0
 51
270.0
  0
ARC
  8
0
 62
7
  6
CONTINUOUS
 10
366.6310127035
 20
34.5231527829
 40
0.4098360656
 50
0.0
 51
90.0
  0
SOLID
  8
0
 62
7
  6
CONTINUOUS
 10
365.4684104651
 20
31.8618347111
 11
365.4684104651
 21
32.0231531947
 12
365.757472524
 22
31.8618347111
 13
365.757472524
 23
32.0231531947
  0
SOLID
  8
0
 62
7
  6
CONTINUOUS
 10
359.744972717
 20
31.5391977439
 11
360.1496602445
 21
31.5069333244
 12
359.3980977583
 22
31.5069333244
 13
359.3980977583
 23
31.5069333244
  0
SOLID
  8
0
 62
7
  6
CONTINUOUS
 10
359.2246602583
 20
31.4746706537
 11
359.3980977583
 21
31.5069333244
 12
360.1496602445
 22
31.5069333244
 13
360.1496602445
 23
31.5069333244
  0
SOLID
  8
0
 62
7
  6
CONTINUOUS
 10
360.1496602445
 20
31.5069333244
 11
360.3809101894
 21
31.4424063504
 12
359.2246602583
 22
31.4746706537
 13
359.2246602583
 23
31.4746706537
  0
SOLID
  8
0
 62
7
  6
CONTINUOUS
 10
359.0512227376
 20
31.4101419116
 11
359.2246602583
 21
31.4746706537
 12
360.3809101894
 22
31.4424063504
 13
360.3809101894
 23
31.4424063504
  0
SOLID
  8
0
 62
7
  6
CONTINUOUS
 10
359.0512227376
 20
31.4101419116
 11
360.3809101894
 21
31.4424063504
 12
359.6871602721
 22
31.4101419116
 13
359.6871602721
 23
31.4101419116
  0
SOLID
  8
0
 62
7
  6
CONTINUOUS
 10
359.6871602721
 20
31.4101419116
 11
360.3809101894
 21
31.4424063504
 12
360.091847717
 22
31.3778792603
 13
360.091847717
 23
31.3778792603
  0
SOLID
  8
0
 62
7
  6
CONTINUOUS
 10
360.3809101894
 20
31.4424063504
 11
360.5543476894
 21
31.345614957
 12
360.091847717
 22
31.3778792603
 13
360.091847717
 23
31.3778792603
  0
SOLID
  8
0
 62
7
  6
CONTINUOUS
 10
360.2652852997
 20
31.3133521701
 11
360.091847717
 21
31.3778792603
 12
360.5543476894
 22
31.345614957
 13
360.5543476894
 23
31.345614957
  0
SOLID
  8
0
 62
7
  6
CONTINUOUS
 10
360.2652852997
 20
31.3133521701
 11
360.5543476894
 21
31.345614957
 12
360.3230977445
 22
31.2165606992
 13
360.3230977445
 23
31.2165606992
  0
SOLID
  8
0
 62
7
  6
CONTINUOUS
 10
360.5543476894
 20
31.345614957
 11
360.6121602997
 21
31.2165606992
 12
360.3230977445
 22
31.2165606992
 13
360.3230977445
 23
31.2165606992
  0
SOLID
  8
0
 62
7
  6
CONTINUOUS
 10
361.6527851343
 20
31.5069329918
 11
361.8840352445
 21
31.5391972951
 12
362.1152853548
 22
31.5391972951
 13
362.1152853548
 23
31.5391972951
  0
SOLID
  8
0
 62
7
  6
CONTINUOUS
 10
362.1152853548
 20
31.5391972951
 11
362.2887228548
 21
31.5069329918
 12
361.6527851343
 22
31.5069329918
 13
361.6527851343
 23
31.5069329918
  0
SOLID
  8
0
 62
7
  6
CONTINUOUS
 10
361.4793477997
 20
31.4424059016
 11
361.6527851343
 21
31.5069329918
 12
362.2887228548
 22
31.5069329918
 13
362.2887228548
 23
31.5069329918
  0
SOLID
  8
0
 62
7
  6
CONTINUOUS
 10
362.2887228548
 20
31.5069329918
 11
362.4621603548
 21
31.4424059016
 12
361.4793477997
 22
31.4424059016
 13
361.4793477997
 23
31.4424059016
  0
SOLID
  8
0
 62
7
  6
CONTINUOUS
 10
362.4621603548
 20
31.4424059016
 11
361.8840352445
 21
31.4101420472
 12
361.4793477997
 22
31.4424059016
 13
361.4793477997
 23
31.4424059016
  0
SOLID
  8
0
 62
7
  6
CONTINUOUS
 10
361.3637227445
 20
31.3778788115
 11
361.4793477997
 21
31.4424059016
 12
361.8840352445
 22
31.4101420472
 13
361.8840352445
 23
31.4101420472
  0
SOLID
  8
0
 62
7
  6
CONTINUOUS
 10
361.8840352445
 20
31.4101420472
 11
361.6527851343
 21
31.3778788115
 12
361.3637227445
 22
31.3778788115
 13
361.3637227445
 23
31.3778788115
  0
SOLID
  8
0
 62
7
  6
CONTINUOUS
 10
361.8840352445
 20
31.4101420472
 11
362.4621603548
 21
31.4424059016
 12
362.1152853548
 22
31.3778788115
 13
362.1152853548
 23
31.3778788115
  0
SOLID
  8
0
 62
7
  6
CONTINUOUS
 10
362.4621603548
 20
31.4424059016
 11
362.5777852445
 21
31.3778788115
 12
362.1152853548
 22
31.3778788115
 13
362.1152853548
 23
31.3778788115
  0
SOLID
  8
0
 62
7
  6
CONTINUOUS
 10
362.2309102445
 20
31.345614957
 11
362.1152853548
 21
31.3778788115
 12
362.5777852445
 22
31.3778788115
 13
362.5777852445
 23
31.3778788115
  0
SOLID
  8
0
 62
7
  6
CONTINUOUS
 10
362.5777852445
 20
31.3778788115
 11
362.6355978548
 21
31.3133517213
 12
362.2309102445
 22
31.345614957
 13
362.2309102445
 23
31.345614957
  0
SOLID
  8
0
 62
7
  6
CONTINUOUS
 10
362.3465351343
 20
31.2810878668
 11
362.2309102445
 21
31.345614957
 12
362.6355978548
 22
31.3133517213
 13
362.6355978548
 23
31.3133517213
  0
SOLID
  8
0
 62
7
  6
CONTINUOUS
 10
362.3465351343
 20
31.2810878668
 11
362.6355978548
 21
31.3133517213
 12
362.4043477445
 22
31.1520332377
 13
362.4043477445
 23
31.1520332377
  0
SOLID
  8
0
 62
7
  6
CONTINUOUS
 10
362.6355978548
 20
31.3133517213
 11
362.6934101343
 21
31.1520332377
 12
362.4043477445
 22
31.1520332377
 13
362.4043477445
 23
31.1520332377
  0
SOLID
  8
0
 62
7
  6
CONTINUOUS
 10
361.6527851343
 20
31.3778788115
 11
361.4793477997
 21
31.3133517213
 12
361.3637227445
 22
31.3778788115
 13
361.3637227445
 23
31.3778788115
  0
SOLID
  8
0
 62
7
  6
CONTINUOUS
 10
361.4793477997
 20
31.3133517213
 11
361.3637227445
 21
31.2488235635
 12
361.3637227445
 22
31.3778788115
 13
361.3637227445
 23
31.3778788115
  0
SOLID
  8
0
 62
7
  6
CONTINUOUS
 10
361.3637227445
 20
31.2488235635
 11
361.0746601894
 21
30.5067593033
 12
361.3637227445
 22
31.3778788115
 13
361.3637227445
 23
31.3778788115
  0
SOLID
  8
0
 62
7
  6
CONTINUOUS
 10
361.3637227445
 20
31.3778788115
 11
361.0746601894
 21
30.5067593033
 12
361.3637227445
 22
32.0231527459
 13
361.3637227445
 23
32.0231527459
  0
SOLID
  8
0
 62
7
  6
CONTINUOUS
 10
361.0746601894
 20
30.5067593033
 11
361.0746601894
 21
32.0231527459
 12
361.3637227445
 22
32.0231527459
 13
361.3637227445
 23
32.0231527459
  0
SOLID
  8
0
 62
7
  6
CONTINUOUS
 10
361.3637227445
 20
31.2488235635
 11
361.3637227445
 21
30.5067593033
 12
361.0746601894
 22
30.5067593033
 13
361.0746601894
 23
30.5067593033
  0
SOLID
  8
0
 62
7
  6
CONTINUOUS
 10
362.4043477445
 20
30.5067593033
 11
362.4043477445
 21
31.1520332377
 12
362.6934101343
 22
31.1520332377
 13
362.6934101343
 23
31.1520332377
  0
SOLID
  8
0
 62
7
  6
CONTINUOUS
 10
362.6934101343
 20
31.1520332377
 11
362.6934101343
 21
30.5067593033
 12
362.4043477445
 22
30.5067593033
 13
362.4043477445
 23
30.5067593033
  0
SOLID
  8
0
 62
7
  6
CONTINUOUS
 10
363.4449727445
 20
31.506933758
 11
363.8496603548
 21
31.5391977507
 12
364.1965353548
 22
31.5391977507
 13
364.1965353548
 23
31.5391977507
  0
SOLID
  8
0
 62
7
  6
CONTINUOUS
 10
364.1965353548
 20
31.5391977507
 11
364.543410024
 21
31.506933758
 12
363.4449727445
 22
31.506933758
 13
363.4449727445
 23
31.506933758
  0
SOLID
  8
0
 62
7
  6
CONTINUOUS
 10
363.3293478548
 20
31.4746706537
 11
363.4449727445
 21
31.506933758
 12
364.543410024
 22
31.506933758
 13
364.543410024
 23
31.506933758
  0
SOLID
  8
0
 62
7
  6
CONTINUOUS
 10
364.543410024
 20
31.506933758
 11
364.716847524
 21
31.4424063504
 12
363.3293478548
 22
31.4746706537
 13
363.3293478548
 23
31.4746706537
  0
SOLID
  8
0
 62
7
  6
CONTINUOUS
 10
363.2137226343
 20
31.4101417797
 11
363.3293478548
 21
31.4746706537
 12
364.716847524
 22
31.4424063504
 13
364.716847524
 23
31.4424063504
  0
SOLID
  8
0
 62
7
  6
CONTINUOUS
 10
363.2137226343
 20
31.4101417797
 11
364.716847524
 21
31.4424063504
 12
363.8496603548
 22
31.4101417797
 13
363.8496603548
 23
31.4101417797
  0
SOLID
  8
0
 62
7
  6
CONTINUOUS
 10
363.8496603548
 20
31.4101417797
 11
364.716847524
 21
31.4424063504
 12
364.1965353548
 22
31.4101417797
 13
364.1965353548
 23
31.4101417797
  0
SOLID
  8
0
 62
7
  6
CONTINUOUS
 10
364.1965353548
 20
31.4101417797
 11
364.716847524
 21
31.4424063504
 12
364.4277854651
 22
31.3778793357
 13
364.4277854651
 23
31.3778793357
  0
SOLID
  8
0
 62
7
  6
CONTINUOUS
 10
364.716847524
 20
31.4424063504
 11
364.8324727445
 21
31.3778793357
 12
364.4277854651
 22
31.3778793357
 13
364.4277854651
 23
31.3778793357
  0
SOLID
  8
0
 62
7
  6
CONTINUOUS
 10
363.1559103548
 20
31.3456153429
 11
363.2137226343
 21
31.4101417797
 12
363.8496603548
 22
31.4101417797
 13
363.8496603548
 23
31.4101417797
  0
SOLID
  8
0
 62
7
  6
CONTINUOUS
 10
364.543410024
 20
31.3456153429
 11
364.4277854651
 21
31.3778793357
 12
364.8324727445
 22
31.3778793357
 13
364.8324727445
 23
31.3778793357
  0
SOLID
  8
0
 62
7
  6
CONTINUOUS
 10
364.543410024
 20
31.3456153429
 11
364.8324727445
 21
31.3778793357
 12
364.6012229651
 22
31.2810881318
 13
364.6012229651
 23
31.2810881318
  0
SOLID
  8
0
 62
7
  6
CONTINUOUS
 10
364.8324727445
 20
31.3778793357
 11
364.890285024
 21
31.2810881318
 12
364.6012229651
 22
31.2810881318
 13
364.6012229651
 23
31.2810881318
  0
SOLID
  8
0
 62
7
  6
CONTINUOUS
 10
364.6012229651
 20
31.1842964734
 11
364.6012229651
 21
31.2810881318
 12
364.890285024
 22
31.2810881318
 13
364.890285024
 23
31.2810881318
  0
SOLID
  8
0
 62
7
  6
CONTINUOUS
 10
364.6012229651
 20
31.1842964734
 11
364.890285024
 21
31.2810881318
 12
364.6012229651
 22
31.0552422931
 13
364.6012229651
 23
31.0552422931
  0
SOLID
  8
0
 62
7
  6
CONTINUOUS
 10
364.6012229651
 20
31.0552422931
 11
364.890285024
 21
31.2810881318
 12
364.6012229651
 22
30.8616599362
 13
364.6012229651
 23
30.8616599362
  0
SOLID
  8
0
 62
7
  6
CONTINUOUS
 10
364.890285024
 20
31.2810881318
 11
364.890285024
 21
30.7648681127
 12
364.6012229651
 22
30.8616599362
 13
364.6012229651
 23
30.8616599362
  0
SOLID
  8
0
 62
7
  6
CONTINUOUS
 10
366.798097524
 20
31.5069339419
 11
367.0293479651
 21
31.5391976292
 12
367.2605977445
 22
31.5391976292
 13
367.2605977445
 23
31.5391976292
  0
SOLID
  8
0
 62
7
  6
CONTINUOUS
 10
367.2605977445
 20
31.5391976292
 11
367.4340352445
 21
31.5069339419
 12
366.798097524
 22
31.5069339419
 13
366.798097524
 23
31.5069339419
  0
SOLID
  8
0
 62
7
  6
CONTINUOUS
 10
366.624660024
 20
31.4424065674
 11
366.798097524
 21
31.5069339419
 12
367.4340352445
 22
31.5069339419
 13
367.4340352445
 23
31.5069339419
  0
SOLID
  8
0
 62
7
  6
CONTINUOUS
 10
367.4340352445
 20
31.5069339419
 11
367.6074727445
 21
31.4424065674
 12
366.624660024
 22
31.4424065674
 13
366.624660024
 23
31.4424065674
  0
SOLID
  8
0
 62
7
  6
CONTINUOUS
 10
367.6074727445
 20
31.4424065674
 11
367.0293479651
 21
31.4101420472
 12
366.624660024
 22
31.4424065674
 13
366.624660024
 23
31.4424065674
  0
SOLID
  8
0
 62
7
  6
CONTINUOUS
 10
366.5090354651
 20
31.377879193
 11
366.624660024
 21
31.4424065674
 12
367.0293479651
 22
31.4101420472
 13
367.0293479651
 23
31.4101420472
  0
SOLID
  8
0
 62
7
  6
CONTINUOUS
 10
367.0293479651
 20
31.4101420472
 11
366.798097524
 21
31.377879193
 12
366.5090354651
 22
31.377879193
 13
366.5090354651
 23
31.377879193
  0
SOLID
  8
0
 62
7
  6
CONTINUOUS
 10
367.0293479651
 20
31.4101420472
 11
367.6074727445
 21
31.4424065674
 12
367.2605977445
 22
31.377879193
 13
367.2605977445
 23
31.377879193
  0
SOLID
  8
0
 62
7
  6
CONTINUOUS
 10
367.6074727445
 20
31.4424065674
 11
367.7230979651
 21
31.377879193
 12
367.2605977445
 22
31.377879193
 13
367.2605977445
 23
31.377879193
  0
SOLID
  8
0
 62
7
  6
CONTINUOUS
 10
367.3762229651
 20
31.345614957
 11
367.2605977445
 21
31.377879193
 12
367.7230979651
 22
31.377879193
 13
367.7230979651
 23
31.377879193
  0
SOLID
  8
0
 62
7
  6
CONTINUOUS
 10
367.3762229651
 20
31.345614957
 11
367.7230979651
 21
31.377879193
 12
367.491847524
 22
31.2810881312
 13
367.491847524
 23
31.2810881312
  0
SOLID
  8
0
 62
7
  6
CONTINUOUS
 10
367.7230979651
 20
31.377879193
 11
367.7809102445
 21
31.2810881312
 12
367.491847524
 22
31.2810881312
 13
367.491847524
 23
31.2810881312
  0
SOLID
  8
0
 62
7
  6
CONTINUOUS
 10
367.5496604651
 20
31.119769695
 11
367.491847524
 21
31.2810881312
 12
367.7809102445
 22
31.2810881312
 13
367.7809102445
 23
31.2810881312
  0
SOLID
  8
0
 62
7
  6
CONTINUOUS
 10
367.7809102445
 20
31.2810881312
 11
367.838722524
 21
31.119769695
 12
367.5496604651
 22
31.119769695
 13
367.5496604651
 23
31.119769695
  0
SOLID
  8
0
 62
7
  6
CONTINUOUS
 10
366.798097524
 20
31.377879193
 11
366.624660024
 21
31.3133521701
 12
366.5090354651
 22
31.377879193
 13
366.5090354651
 23
31.377879193
  0
SOLID
  8
0
 62
7
  6
CONTINUOUS
 10
366.624660024
 20
31.3133521701
 11
366.5090354651
 21
31.2488235635
 12
366.5090354651
 22
31.377879193
 13
366.5090354651
 23
31.377879193
  0
SOLID
  8
0
 62
7
  6
CONTINUOUS
 10
366.5090354651
 20
31.2488235635
 11
366.2199727445
 21
30.5067596374
 12
366.5090354651
 22
31.377879193
 13
366.5090354651
 23
31.377879193
  0
SOLID
  8
0
 62
7
  6
CONTINUOUS
 10
366.5090354651
 20
31.377879193
 11
366.2199727445
 21
30.5067596374
 12
366.5090354651
 22
31.5391976292
 13
366.5090354651
 23
31.5391976292
  0
SOLID
  8
0
 62
7
  6
CONTINUOUS
 10
366.2199727445
 20
30.5067596374
 11
366.2199727445
 21
31.5391976292
 12
366.5090354651
 22
31.5391976292
 13
366.5090354651
 23
31.5391976292
  0
SOLID
  8
0
 62
7
  6
CONTINUOUS
 10
366.5090354651
 20
31.2488235635
 11
366.5090354651
 21
30.5067596374
 12
366.2199727445
 22
30.5067596374
 13
366.2199727445
 23
30.5067596374
  0
SOLID
  8
0
 62
7
  6
CONTINUOUS
 10
367.5496604651
 20
30.5067596374
 11
367.5496604651
 21
31.119769695
 12
367.838722524
 22
31.119769695
 13
367.838722524
 23
31.119769695
  0
SOLID
  8
0
 62
7
  6
CONTINUOUS
 10
367.838722524
 20
31.119769695
 11
367.838722524
 21
30.5067596374
 12
367.5496604651
 22
30.5067596374
 13
367.5496604651
 23
30.5067596374
  0
SOLID
  8
0
 62
7
  6
CONTINUOUS
 10
368.6480977445
 20
31.5069334157
 11
368.9949727445
 21
31.539197762
 12
369.3418477445
 22
31.539197762
 13
369.3418477445
 23
31.539197762
  0
SOLID
  8
0
 62
7
  6
CONTINUOUS
 10
369.3418477445
 20
31.539197762
 11
369.6887227445
 21
31.5069334157
 12
368.6480977445
 22
31.5069334157
 13
368.6480977445
 23
31.5069334157
  0
SOLID
  8
0
 62
7
  6
CONTINUOUS
 10
368.4168479651
 20
31.4424063504
 11
368.6480977445
 21
31.5069334157
 12
369.6887227445
 22
31.5069334157
 13
369.6887227445
 23
31.5069334157
  0
SOLID
  8
0
 62
7
  6
CONTINUOUS
 10
368.4168479651
 20
31.4424063504
 11
369.6887227445
 21
31.5069334406
 12
369.8621602445
 22
31.4746706537
 13
369.8621602445
 23
31.4746706537
  0
SOLID
  8
0
 62
7
  6
CONTINUOUS
 10
368.4168479651
 20
31.4424063504
 11
369.8621602445
 21
31.4746706537
 12
368.9949727445
 22
31.4101421267
 13
368.9949727445
 23
31.4101421267
  0
SOLID
  8
0
 62
7
  6
CONTINUOUS
 10
368.9949727445
 20
31.4101421267
 11
369.8621602445
 21
31.4746706537
 12
369.3418477445
 22
31.4101421267
 13
369.3418477445
 23
31.4101421267
  0
SOLID
  8
0
 62
7
  6
CONTINUOUS
 10
369.8621602445
 20
31.4746706537
 11
370.0355977445
 21
31.4101421267
 12
369.3418477445
 22
31.4101421267
 13
369.3418477445
 23
31.4101421267
  0
SOLID
  8
0
 62
7
  6
CONTINUOUS
 10
369.6887227445
 20
31.3778792603
 11
369.3418477445
 21
31.4101421267
 12
370.0355977445
 22
31.4101421267
 13
370.0355977445
 23
31.4101421267
  0
SOLID
  8
0
 62
7
  6
CONTINUOUS
 10
368.3012227445
 20
31.3456148845
 11
368.4168479651
 21
31.4424063504
 12
368.9949727445
 22
31.4101421267
 13
368.9949727445
 23
31.4101421267
  0
SOLID
  8
0
 62
7
  6
CONTINUOUS
 10
369.6887227445
 20
31.3778792603
 11
370.0355977445
 21
31.4101421267
 12
369.8043479651
 22
31.3456148845
 13
369.8043479651
 23
31.3456148845
  0
SOLID
  8
0
 62
7
  6
CONTINUOUS
 10
369.8043479651
 20
31.3456148845
 11
370.0355977445
 21
31.4101421267
 12
369.8621602445
 22
31.281087868
 13
369.8621602445
 23
31.281087868
  0
SOLID
  8
0
 62
7
  6
CONTINUOUS
 10
370.0355977445
 20
31.4101421267
 11
370.1512223035
 21
31.281087868
 12
369.8621602445
 22
31.281087868
 13
369.8621602445
 23
31.281087868
  0
SOLID
  8
0
 62
7
  6
CONTINUOUS
 10
359.4559102445
 20
31.3778792603
 11
358.9355977445
 21
31.3456148963
 12
359.6871602721
 22
31.4101421155
 13
359.6871602721
 23
31.4101421155
  0
SOLID
  8
0
 62
7
  6
CONTINUOUS
 10
358.9355977445
 20
31.3456148963
 11
359.0512227376
 21
31.4101421155
 12
359.6871602721
 22
31.4101421155
 13
359.6871602721
 23
31.4101421155
  0
SOLID
  8
0
 62
7
  6
CONTINUOUS
 10
359.4559102445
 20
31.3778792603
 11
359.3402852307
 21
31.3456148963
 12
358.9355977445
 22
31.3456148963
 13
358.9355977445
 23
31.3456148963
  0
SOLID
  8
0
 62
7
  6
CONTINUOUS
 10
358.8199727462
 20
31.2165607767
 11
358.9355977445
 21
31.3456148963
 12
359.3402852307
 22
31.3456148963
 13
359.3402852307
 23
31.3456148963
  0
SOLID
  8
0
 62
7
  6
CONTINUOUS
 10
363.1559103548
 20
31.3456149608
 11
363.8496603548
 21
31.4101420472
 12
363.6184102445
 22
31.3778792603
 13
363.6184102445
 23
31.3778792603
  0
SOLID
  8
0
 62
7
  6
CONTINUOUS
 10
363.6184102445
 20
31.3778792603
 11
363.5027853548
 21
31.3456149608
 12
363.1559103548
 22
31.3456149608
 13
363.1559103548
 23
31.3456149608
  0
SOLID
  8
0
 62
7
  6
CONTINUOUS
 10
363.1559103548
 20
31.2810878707
 11
363.1559103548
 21
31.3456149608
 12
363.5027853548
 22
31.3456149608
 13
363.5027853548
 23
31.3456149608
  0
SOLID
  8
0
 62
7
  6
CONTINUOUS
 10
363.5027853548
 20
31.3456149608
 11
363.4449727445
 21
31.2810878707
 12
363.1559103548
 22
31.2810878707
 13
363.1559103548
 23
31.2810878707
  0
SOLID
  8
0
 62
7
  6
CONTINUOUS
 10
368.3012227445
 20
31.3456149608
 11
368.9949727445
 21
31.4101420472
 12
368.7637229651
 22
31.3778792603
 13
368.7637229651
 23
31.3778792603
  0
SOLID
  8
0
 62
7
  6
CONTINUOUS
 10
368.7637229651
 20
31.3778792603
 11
368.6480977445
 21
31.3456149608
 12
368.3012227445
 22
31.3456149608
 13
368.3012227445
 23
31.3456149608
  0
SOLID
  8
0
 62
7
  6
CONTINUOUS
 10
368.3012227445
 20
31.2810878707
 11
368.3012227445
 21
31.3456149608
 12
368.6480977445
 22
31.3456149608
 13
368.6480977445
 23
31.3456149608
  0
SOLID
  8
0
 62
7
  6
CONTINUOUS
 10
368.6480977445
 20
31.3456149608
 11
368.5902854651
 21
31.2810878707
 12
368.3012227445
 22
31.2810878707
 13
368.3012227445
 23
31.2810878707
  0
SOLID
  8
0
 62
7
  6
CONTINUOUS
 10
368.4168479651
 20
31.1520336865
 11
368.3012227445
 21
31.2810878707
 12
368.5902854651
 22
31.2810878707
 13
368.5902854651
 23
31.2810878707
  0
SOLID
  8
0
 62
7
  6
CONTINUOUS
 10
358.8199727462
 20
31.2165607767
 11
359.3402852307
 21
31.345614957
 12
359.1668477307
 22
31.2488235635
 13
359.1668477307
 23
31.2488235635
  0
SOLID
  8
0
 62
7
  6
CONTINUOUS
 10
359.1668477307
 20
31.2488235635
 11
359.1090352445
 21
31.1842964734
 12
358.8199727462
 22
31.2165607767
 13
358.8199727462
 23
31.2165607767
  0
SOLID
  8
0
 62
7
  6
CONTINUOUS
 10
358.7621602445
 20
31.0229779898
 11
358.8199727462
 21
31.2165607767
 12
359.1090352445
 22
31.1842964734
 13
359.1090352445
 23
31.1842964734
  0
SOLID
  8
0
 62
7
  6
CONTINUOUS
 10
363.6184102445
 20
31.1520336865
 11
363.9652852445
 21
31.1842964611
 12
364.6012229651
 22
31.1842964611
 13
364.6012229651
 23
31.1842964611
  0
SOLID
  8
0
 62
7
  6
CONTINUOUS
 10
363.6184102445
 20
31.1520336865
 11
364.6012229651
 21
31.1842964611
 12
363.3871601343
 22
31.0875057863
 13
363.3871601343
 23
31.0875057863
  0
SOLID
  8
0
 62
7
  6
CONTINUOUS
 10
363.3871601343
 20
31.0875057863
 11
364.6012229651
 21
31.1842964611
 12
363.9652852445
 22
31.0552422808
 13
363.9652852445
 23
31.0552422808
  0
SOLID
  8
0
 62
7
  6
CONTINUOUS
 10
364.6012229651
 20
31.1842964611
 11
364.6012229651
 21
31.0552422808
 12
363.9652852445
 22
31.0552422808
 13
363.9652852445
 23
31.0552422808
  0
SOLID
  8
0
 62
7
  6
CONTINUOUS
 10
368.4168479651
 20
31.1520338754
 11
368.5902854651
 21
31.2810878668
 12
368.6480977445
 22
31.2165607767
 13
368.6480977445
 23
31.2165607767
  0
SOLID
  8
0
 62
7
  6
CONTINUOUS
 10
368.6480977445
 20
31.2165607767
 11
368.8215352445
 21
31.1520338754
 12
368.4168479651
 22
31.1520338754
 13
368.4168479651
 23
31.1520338754
  0
SOLID
  8
0
 62
7
  6
CONTINUOUS
 10
368.6480977445
 20
31.0552422931
 11
368.4168479651
 21
31.1520338754
 12
368.8215352445
 22
31.1520338754
 13
368.8215352445
 23
31.1520338754
  0
SOLID
  8
0
 62
7
  6
CONTINUOUS
 10
368.8215352445
 20
31.1520338754
 11
369.8043479651
 21
30.9907152029
 12
368.6480977445
 22
31.0552422931
 13
368.6480977445
 23
31.0552422931
  0
SOLID
  8
0
 62
7
  6
CONTINUOUS
 10
369.6309104651
 20
30.8939239876
 11
368.6480977445
 21
31.0552422931
 12
369.8043479651
 22
30.9907152029
 13
369.8043479651
 23
30.9907152029
  0
SOLID
  8
0
 62
7
  6
CONTINUOUS
 10
369.8043479651
 20
30.9907152029
 11
370.0355977445
 21
30.8939239876
 12
369.6309104651
 22
30.8939239876
 13
369.6309104651
 23
30.8939239876
  0
SOLID
  8
0
 62
7
  6
CONTINUOUS
 10
369.8043479651
 20
30.8293967193
 11
369.6309104651
 21
30.8939239876
 12
370.0355977445
 22
30.8939239876
 13
370.0355977445
 23
30.8939239876
  0
SOLID
  8
0
 62
7
  6
CONTINUOUS
 10
369.8043479651
 20
30.8293967193
 11
370.0355977445
 21
30.8939239876
 12
369.8621602445
 22
30.7648682694
 13
369.8621602445
 23
30.7648682694
  0
SOLID
  8
0
 62
7
  6
CONTINUOUS
 10
370.0355977445
 20
30.8939239876
 11
370.1512223035
 21
30.7648682694
 12
369.8621602445
 22
30.7648682694
 13
369.8621602445
 23
30.7648682694
  0
SOLID
  8
0
 62
7
  6
CONTINUOUS
 10
369.8043479651
 20
30.7003411846
 11
369.8621602445
 21
30.7648682694
 12
370.1512223035
 22
30.7648682694
 13
370.1512223035
 23
30.7648682694
  0
SOLID
  8
0
 62
7
  6
CONTINUOUS
 10
370.1512223035
 20
30.7648682694
 11
370.1512223035
 21
30.7003411846
 12
369.8043479651
 22
30.7003411846
 13
369.8043479651
 23
30.7003411846
  0
SOLID
  8
0
 62
7
  6
CONTINUOUS
 10
369.6887227445
 20
30.6680782357
 11
369.8043479651
 21
30.7003411846
 12
370.1512223035
 22
30.7003411846
 13
370.1512223035
 23
30.7003411846
  0
SOLID
  8
0
 62
7
  6
CONTINUOUS
 10
369.6887227445
 20
30.6680782357
 11
370.1512223035
 21
30.7003411846
 12
369.4574729651
 22
30.6358140998
 13
369.4574729651
 23
30.6358140998
  0
SOLID
  8
0
 62
7
  6
CONTINUOUS
 10
370.1512223035
 20
30.7003411846
 11
370.0355977445
 21
30.6035511455
 12
369.4574729651
 22
30.6358140998
 13
369.4574729651
 23
30.6358140998
  0
SOLID
  8
0
 62
7
  6
CONTINUOUS
 10
370.0355977445
 20
30.6035511455
 11
368.5902854651
 21
30.5712868422
 12
369.4574729651
 22
30.6358140998
 13
369.4574729651
 23
30.6358140998
  0
SOLID
  8
0
 62
7
  6
CONTINUOUS
 10
369.4574729651
 20
30.6358140998
 11
368.5902854651
 21
30.5712868422
 12
369.1105979651
 22
30.6358140998
 13
369.1105979651
 23
30.6358140998
  0
SOLID
  8
0
 62
7
  6
CONTINUOUS
 10
368.5902854651
 20
30.5712868422
 11
368.4168479651
 21
30.6358140998
 12
369.1105979651
 22
30.6358140998
 13
369.1105979651
 23
30.6358140998
  0
SOLID
  8
0
 62
7
  6
CONTINUOUS
 10
368.5902854651
 20
30.5712868422
 11
370.0355977445
 21
30.6035511455
 12
368.7637229651
 22
30.5390223111
 13
368.7637229651
 23
30.5390223111
  0
SOLID
  8
0
 62
7
  6
CONTINUOUS
 10
370.0355977445
 20
30.6035511455
 11
369.8043479651
 21
30.5390223111
 12
368.7637229651
 22
30.5390223111
 13
368.7637229651
 23
30.5390223111
  0
SOLID
  8
0
 62
7
  6
CONTINUOUS
 10
369.1105979651
 20
30.5067599302
 11
368.7637229651
 21
30.5390223111
 12
369.8043479651
 22
30.5390223111
 13
369.8043479651
 23
30.5390223111
  0
SOLID
  8
0
 62
7
  6
CONTINUOUS
 10
369.8043479651
 20
30.5390223111
 11
369.4574729651
 21
30.5067599302
 12
369.1105979651
 22
30.5067599302
 13
369.1105979651
 23
30.5067599302
  0
SOLID
  8
0
 62
7
  6
CONTINUOUS
 10
358.7621602445
 20
31.0229779898
 11
359.1090352445
 21
31.1842964734
 12
359.0512227376
 22
31.0552422931
 13
359.0512227376
 23
31.0552422931
  0
SOLID
  8
0
 62
7
  6
CONTINUOUS
 10
359.0512227376
 20
31.0552422931
 11
359.0512227376
 21
30.9584509954
 12
358.7621602445
 22
31.0229779898
 13
358.7621602445
 23
31.0229779898
  0
SOLID
  8
0
 62
7
  6
CONTINUOUS
 10
358.8199727462
 20
30.8293967193
 11
358.7621602445
 21
31.0229779898
 12
359.0512227376
 22
30.9584509954
 13
359.0512227376
 23
30.9584509954
  0
SOLID
  8
0
 62
7
  6
CONTINUOUS
 10
359.0512227376
 20
30.9584509954
 11
359.1668477307
 21
30.797132416
 12
358.8199727462
 22
30.8293967193
 13
358.8199727462
 23
30.8293967193
  0
SOLID
  8
0
 62
7
  6
CONTINUOUS
 10
358.9355977445
 20
30.7003413087
 11
358.8199727462
 21
30.8293967193
 12
359.1668477307
 22
30.797132416
 13
359.1668477307
 23
30.797132416
  0
SOLID
  8
0
 62
7
  6
CONTINUOUS
 10
359.1668477307
 20
30.797132416
 11
359.3402852307
 21
30.7003413087
 12
358.9355977445
 22
30.7003413087
 13
358.9355977445
 23
30.7003413087
  0
SOLID
  8
0
 62
7
  6
CONTINUOUS
 10
359.0512227376
 20
30.6358140759
 11
358.9355977445
 21
30.7003413087
 12
359.3402852307
 22
30.7003413087
 13
359.3402852307
 23
30.7003413087
  0
SOLID
  8
0
 62
7
  6
CONTINUOUS
 10
359.3402852307
 20
30.7003413087
 11
359.6871602721
 21
30.6358140759
 12
359.0512227376
 22
30.6358140759
 13
359.0512227376
 23
30.6358140759
  0
SOLID
  8
0
 62
7
  6
CONTINUOUS
 10
359.2246602583
 20
30.5712868422
 11
359.0512227376
 21
30.6358140759
 12
359.6871602721
 22
30.6358140759
 13
359.6871602721
 23
30.6358140759
  0
SOLID
  8
0
 62
7
  6
CONTINUOUS
 10
363.2715352445
 20
31.0229779808
 11
363.3871601343
 21
31.0875057863
 12
363.9652852445
 22
31.0552422931
 13
363.9652852445
 23
31.0552422931
  0
SOLID
  8
0
 62
7
  6
CONTINUOUS
 10
363.9652852445
 20
31.0552422931
 11
363.7340351343
 21
31.0229779808
 12
363.2715352445
 22
31.0229779808
 13
363.2715352445
 23
31.0229779808
  0
SOLID
  8
0
 62
7
  6
CONTINUOUS
 10
363.1559103548
 20
30.8939238094
 11
363.2715352445
 21
31.0229779808
 12
363.7340351343
 22
31.0229779808
 13
363.7340351343
 23
31.0229779808
  0
SOLID
  8
0
 62
7
  6
CONTINUOUS
 10
363.5027853548
 20
30.926187309
 11
363.1559103548
 21
30.8939238094
 12
363.6184102445
 22
30.9907152029
 13
363.6184102445
 23
30.9907152029
  0
SOLID
  8
0
 62
7
  6
CONTINUOUS
 10
363.1559103548
 20
30.8939238094
 11
363.7340351343
 21
31.0229779898
 12
363.6184102445
 22
30.9907152029
 13
363.6184102445
 23
30.9907152029
  0
SOLID
  8
0
 62
7
  6
CONTINUOUS
 10
363.5027853548
 20
30.926187309
 11
363.4449727445
 21
30.8293967193
 12
363.1559103548
 22
30.8939238094
 13
363.1559103548
 23
30.8939238094
  0
SOLID
  8
0
 62
7
  6
CONTINUOUS
 10
363.1559103548
 20
30.797132416
 11
363.1559103548
 21
30.8939238094
 12
363.4449727445
 22
30.8293967193
 13
363.4449727445
 23
30.8293967193
  0
SOLID
  8
0
 62
7
  6
CONTINUOUS
 10
363.4449727445
 20
30.8293967193
 11
363.4449727445
 21
30.7648681127
 12
363.1559103548
 22
30.797132416
 13
363.1559103548
 23
30.797132416
  0
SOLID
  8
0
 62
7
  6
CONTINUOUS
 10
363.2137226343
 20
30.6680782357
 11
363.1559103548
 21
30.797132416
 12
363.4449727445
 22
30.7648681127
 13
363.4449727445
 23
30.7648681127
  0
SOLID
  8
0
 62
7
  6
CONTINUOUS
 10
364.6012229651
 20
30.8616599362
 11
364.890285024
 21
30.7648681127
 12
364.543410024
 22
30.797132416
 13
364.543410024
 23
30.797132416
  0
SOLID
  8
0
 62
7
  6
CONTINUOUS
 10
364.369972524
 20
30.7003410226
 11
364.543410024
 21
30.797132416
 12
364.890285024
 22
30.7648681127
 13
364.890285024
 23
30.7648681127
  0
SOLID
  8
0
 62
7
  6
CONTINUOUS
 10
364.369972524
 20
30.7003410226
 11
364.890285024
 21
30.7648681127
 12
364.6012229651
 22
30.6680782357
 13
364.6012229651
 23
30.6680782357
  0
SOLID
  8
0
 62
7
  6
CONTINUOUS
 10
364.890285024
 20
30.7648681127
 11
364.9480979651
 21
30.6035511455
 12
364.6012229651
 22
30.6680782357
 13
364.6012229651
 23
30.6680782357
  0
SOLID
  8
0
 62
7
  6
CONTINUOUS
 10
364.6590352445
 20
30.5712868422
 11
364.6012229651
 21
30.6680782357
 12
364.9480979651
 22
30.6035511455
 13
364.9480979651
 23
30.6035511455
  0
SOLID
  8
0
 62
7
  6
CONTINUOUS
 10
364.6590352445
 20
30.5712868422
 11
364.9480979651
 21
30.6035511455
 12
364.716847524
 22
30.5067598731
 13
364.716847524
 23
30.5067598731
  0
SOLID
  8
0
 62
7
  6
CONTINUOUS
 10
364.9480979651
 20
30.6035511455
 11
365.0059102445
 21
30.5067598731
 12
364.716847524
 22
30.5067598731
 13
364.716847524
 23
30.5067598731
  0
SOLID
  8
0
 62
7
  6
CONTINUOUS
 10
360.2652852997
 20
30.7326051679
 11
360.3230977445
 21
30.8293966612
 12
360.6121602997
 22
30.8293966612
 13
360.6121602997
 23
30.8293966612
  0
SOLID
  8
0
 62
7
  6
CONTINUOUS
 10
360.6121602997
 20
30.8293966612
 11
360.5543476894
 21
30.7003410226
 12
360.2652852997
 22
30.7326051679
 13
360.2652852997
 23
30.7326051679
  0
SOLID
  8
0
 62
7
  6
CONTINUOUS
 10
360.091847717
 20
30.6680782357
 11
360.2652852997
 21
30.7326051679
 12
360.5543476894
 22
30.7003410226
 13
360.5543476894
 23
30.7003410226
  0
SOLID
  8
0
 62
7
  6
CONTINUOUS
 10
360.091847717
 20
30.6680782357
 11
360.5543476894
 21
30.7003410226
 12
359.6871602721
 22
30.6358139324
 13
359.6871602721
 23
30.6358139324
  0
SOLID
  8
0
 62
7
  6
CONTINUOUS
 10
360.5543476894
 20
30.7003410226
 11
360.3809101894
 21
30.6035511455
 12
359.6871602721
 22
30.6358139324
 13
359.6871602721
 23
30.6358139324
  0
SOLID
  8
0
 62
7
  6
CONTINUOUS
 10
359.2246602583
 20
30.5712868422
 11
359.6871602721
 21
30.6358139324
 12
360.3809101894
 22
30.6035511455
 13
360.3809101894
 23
30.6035511455
  0
SOLID
  8
0
 62
7
  6
CONTINUOUS
 10
359.2246602583
 20
30.5712868422
 11
360.3809101894
 21
30.6035511455
 12
359.3980977583
 22
30.5390224228
 13
359.3980977583
 23
30.5390224228
  0
SOLID
  8
0
 62
7
  6
CONTINUOUS
 10
360.3809101894
 20
30.6035511455
 11
360.1496602445
 21
30.5390224228
 12
359.3980977583
 22
30.5390224228
 13
359.3980977583
 23
30.5390224228
  0
SOLID
  8
0
 62
7
  6
CONTINUOUS
 10
359.744972717
 20
30.5067597521
 11
359.3980977583
 21
30.5390224228
 12
360.1496602445
 22
30.5390224228
 13
360.1496602445
 23
30.5390224228
  0
SOLID
  8
0
 62
7
  6
CONTINUOUS
 10
363.2137226343
 20
30.6680782357
 11
363.4449727445
 21
30.7648681127
 12
363.5027853548
 22
30.7003410226
 13
363.5027853548
 23
30.7003410226
  0
SOLID
  8
0
 62
7
  6
CONTINUOUS
 10
363.5027853548
 20
30.7003410226
 11
363.7340351343
 21
30.6358139324
 12
363.2137226343
 22
30.6680782357
 13
363.2137226343
 23
30.6680782357
  0
SOLID
  8
0
 62
7
  6
CONTINUOUS
 10
363.3871601343
 20
30.5712868422
 11
363.2137226343
 21
30.6680782357
 12
363.7340351343
 22
30.6358139324
 13
363.7340351343
 23
30.6358139324
  0
SOLID
  8
0
 62
7
  6
CONTINUOUS
 10
364.0809101343
 20
30.6358139363
 11
364.369972524
 21
30.7003410226
 12
364.6012229651
 22
30.6680782357
 13
364.6012229651
 23
30.6680782357
  0
SOLID
  8
0
 62
7
  6
CONTINUOUS
 10
364.6012229651
 20
30.6680782357
 11
364.543410024
 21
30.6035511455
 12
364.0809101343
 22
30.6358139363
 13
364.0809101343
 23
30.6358139363
  0
SOLID
  8
0
 62
7
  6
CONTINUOUS
 10
364.543410024
 20
30.6035511455
 11
363.3871601343
 21
30.5712868422
 12
364.0809101343
 22
30.6358139363
 13
364.0809101343
 23
30.6358139363
  0
SOLID
  8
0
 62
7
  6
CONTINUOUS
 10
363.3871601343
 20
30.5712868422
 11
363.7340351343
 21
30.6358139363
 12
364.0809101343
 22
30.6358139363
 13
364.0809101343
 23
30.6358139363
  0
SOLID
  8
0
 62
7
  6
CONTINUOUS
 10
363.3871601343
 20
30.5712868422
 11
364.543410024
 21
30.6035511455
 12
363.5027853548
 22
30.5390225267
 13
363.5027853548
 23
30.5390225267
  0
SOLID
  8
0
 62
7
  6
CONTINUOUS
 10
364.543410024
 20
30.6035511455
 11
364.369972524
 21
30.5390225267
 12
363.5027853548
 22
30.5390225267
 13
363.5027853548
 23
30.5390225267
  0
SOLID
  8
0
 62
7
  6
CONTINUOUS
 10
363.7340351343
 20
30.5067596914
 11
363.5027853548
 21
30.5390225267
 12
364.369972524
 22
30.5390225267
 13
364.369972524
 23
30.5390225267
  0
SOLID
  8
0
 62
7
  6
CONTINUOUS
 10
364.369972524
 20
30.5390225267
 11
364.0809101343
 21
30.5067596914
 12
363.7340351343
 22
30.5067596914
 13
363.7340351343
 23
30.5067596914
  0
SOLID
  8
0
 62
7
  6
CONTINUOUS
 10
368.7637229651
 20
30.6680782357
 11
368.4168479651
 21
30.6358138717
 12
368.6480977445
 22
30.7003410226
 13
368.6480977445
 23
30.7003410226
  0
SOLID
  8
0
 62
7
  6
CONTINUOUS
 10
368.6480977445
 20
30.7003410226
 11
368.4168479651
 21
30.6358138717
 12
368.5902854651
 22
30.7648680521
 13
368.5902854651
 23
30.7648680521
  0
SOLID
  8
0
 62
7
  6
CONTINUOUS
 10
368.4168479651
 20
30.6358138717
 11
368.3012227445
 21
30.7648680521
 12
368.5902854651
 22
30.7648680521
 13
368.5902854651
 23
30.7648680521
  0
SOLID
  8
0
 62
7
  6
CONTINUOUS
 10
368.7637229651
 20
30.6680782357
 11
369.1105979651
 21
30.6358138717
 12
368.4168479651
 22
30.6358138717
 13
368.4168479651
 23
30.6358138717
  0
SOLID
  8
0
 62
7
  6
CONTINUOUS
 10
365.4684104651
 20
30.5067597521
 11
365.4684104651
 21
31.5391977439
 12
365.757472524
 22
30.5067597521
 13
365.757472524
 23
31.5391977439
  0
ENDBLK
  8
0
  6
BYBLOCK
 62
0
  0
BLOCK
  8
0
 62
2
  6
CONTINUOUS
  2
SYMBOL_0_BL0
 70
64
 10
240.8592468615
 20
19.762288695
  0
TEXT
  8
0
 62
7
  6
CONTINUOUS
 10
227.1239507038
 20
19.1357028027
  7
TEXTSTYLE_3
 40
2.7338706658
  1
Ammeraal Beltech
 41
1.0
 51
15.0
 72
0
  0
TEXT
  8
0
 62
7
  6
CONTINUOUS
 10
237.9247515296
 20
16.8621661299
  7
TEXTSTYLE_4
 40
1.0935482663
  1
Innovation & Service in Belting
 41
1.0
 72
0
  0
LINE
  8
0
 62
7
  6
CONTINUOUS
 10
221.0994100525
 20
19.9022961113
 11
221.8775620458
 21
23.5632134089
  0
LINE
  8
0
 62
7
  6
CONTINUOUS
 10
231.9727303357
 20
27.2266073205
 11
222.3653797889
 21
24.1049898993
  0
LINE
  8
0
 62
7
  6
CONTINUOUS
 10
221.3246933848
 20
19.2089453082
 11
228.8317686459
 21
12.4495443822
  0
LINE
  8
0
 62
7
  6
CONTINUOUS
 10
221.5872277955
 20
20.4440726016
 11
232.3954971607
 21
23.9558922005
  0
LINE
  8
0
 62
7
  6
CONTINUOUS
 10
232.3912920235
 20
13.6061036368
 11
223.9458323548
 21
21.2104296785
  0
LINE
  8
0
 62
7
  6
CONTINUOUS
 10
232.9111147433
 20
26.3816822048
 11
231.9345552061
 21
21.7873308023
  0
LINE
  8
0
 62
7
  6
CONTINUOUS
 10
231.2347532584
 20
18.4950214885
 11
230.5483050469
 21
15.2655365641
  0
LINE
  8
0
 62
7
  6
CONTINUOUS
 10
233.5922108419
 20
13.9963058145
 11
234.5484423775
 21
18.4950214885
  0
LINE
  8
0
 62
7
  6
CONTINUOUS
 10
235.2482443252
 20
21.7873308023
 11
235.6924861276
 21
23.8773241617
  0
LINE
  8
0
 62
7
  6
CONTINUOUS
 10
229.5448697213
 20
12.2979700695
 11
233.1043930989
 21
13.4545293241
  0
LINE
  8
0
 62
7
  6
CONTINUOUS
 10
232.685831411
 20
27.0750330078
 11
235.4672027953
 21
24.5706749648
  0
ARC
  8
0
 62
7
  6
CONTINUOUS
 10
222.5906631212
 20
23.4116390962
 40
0.7290321776
 50
108.0
 51
168.0
  0
ARC
  8
0
 62
7
  6
CONTINUOUS
 10
232.198013668
 20
26.5332565175
 40
0.7290321776
 50
348.0
 51
108.0
  0
ARC
  8
0
 62
7
  6
CONTINUOUS
 10
234.9793850522
 20
24.0288984744
 40
0.7290321776
 50
348.0
 51
48.0
  0
ARC
  8
0
 62
7
  6
CONTINUOUS
 10
229.319586389
 20
12.9913208726
 40
0.7290321776
 50
228.0
 51
288.0
  0
ARC
  8
0
 62
7
  6
CONTINUOUS
 10
221.8125111278
 20
19.7507217986
 40
0.7290321776
 50
108.0
 51
228.0
  0
ARC
  8
0
 62
7
  6
CONTINUOUS
 10
232.8791097665
 20
14.1478801272
 40
0.7290321776
 50
228.0
 51
348.0
  0
ENDBLK
  8
0
  6
BYBLOCK
 62
0
  0
ENDSEC
  0
SECTION
  2
ENTITIES
  0
TEXT
  8
0
 62
5
  6
CONTINUOUS
 10
304.937007874
 20
25.636
  7
TEXTSTYLE_2
 40
2.8
  1
Scale :
 41
0.6
 51
0.000019
 72
0
  0
TEXT
  8
0
 62
5
  6
CONTINUOUS
 10
324.937007874
 20
25.636
  7
TEXTSTYLE_2
 40
2.8
  1
Belt type:
 41
0.6
 51
0.000019
 72
0
  0
INSERT
  8
0
 62
2
  6
CONTINUOUS
  2
SYMBOL_0_BL0
 10
240.8592468615
 20
19.762288695
  0
INSERT
  8
0
 62
2
  6
CONTINUOUS
  2
SYMBOL_5_BL1
 10
382.7840918555
 20
35.5067593403
  0
TEXT
  8
0
 62
7
  6
CONTINUOUS
 10
359.3711734915
 20
223.3715244318
  7
STANDARD
 40
3.5
  1
A_2_CENTER
 41
0.8
 72
0
  0
TEXT
  8
0
 62
7
  6
CONTINUOUS
 10
13.7647066145
 20
137.2101276178
  7
STANDARD
 40
3.5
  1
A_10
 41
0.8
 72
0
  0
TEXT
  8
0
 62
7
  6
CONTINUOUS
 10
372.0505574815
 20
137.2101276178
  7
STANDARD
 40
3.5
  1
A_10
 41
0.8
 72
0
  0
TEXT
  8
0
 62
7
  6
CONTINUOUS
 10
321.0555219242
 20
86.4473826178
  7
STANDARD
 40
3.5
  1
A_4
 41
0.8
 72
0
  0
TEXT
  8
0
 62
7
  6
CONTINUOUS
 10
372.0505574815
 20
86.4473826178
  7
STANDARD
 40
3.5
  1
A_4
 41
0.8
 72
0
  0
TEXT
  8
0
 62
7
  6
CONTINUOUS
 10
179.5055219242
 20
213.0820507475
  7
STANDARD
 40
3.5
  1
A_11
 41
0.8
 72
0
  0
TEXT
  8
0
 62
7
  6
CONTINUOUS
 10
179.5055219242
 20
111.8101276178
  7
STANDARD
 40
3.5
  1
A_11
 41
0.8
 72
0
  0
TEXT
  8
0
 62
7
  6
CONTINUOUS
 10
361.7610837973
 20
111.8101276178
  7
STANDARD
 40
3.5
  1
A_11
 41
0.8
 72
0
  0
LINE
  8
0
 62
2
  6
CONTINUOUS
 10
218.937007874
 20
30.0
 11
408.937007874
 21
30.0
  0
LINE
  8
0
 62
2
  6
CONTINUOUS
 10
218.937007874
 20
30.0
 11
218.937007874
 21
10.0
  0
LINE
  8
0
 62
2
  6
CONTINUOUS
 10
218.937007874
 20
10.0
 11
408.937007874
 21
10.0
  0
LINE
  8
0
 62
2
  6
CONTINUOUS
 10
303.937007874
 20
30.0
 11
303.937007874
 21
10.0
  0
LINE
  8
0
 62
2
  6
CONTINUOUS
 10
323.937007874
 20
30.0
 11
323.937007874
 21
10.0
  0
LINE
  8
0
 62
2
  6
CONTINUOUS
 10
408.937007874
 20
30.0
 11
408.937007874
 21
10.0
  0
TEXT
  8
0
 62
5
  6
CONTINUOUS
 10
221.937007874
 20
23.303
  7
TEXTSTYLE_5
 40
1.52
  1
                                                                     Ammeraal Beltech Modular A/S
 41
1.0
 72
0
  0
TEXT
  8
0
 62
5
  6
CONTINUOUS
 10
221.937007874
 20
20.595
  7
TEXTSTYLE_5
 40
1.5
  1
                                                                      Hjulmagervej 21, 7100 Vejle,  DK
 41
1.0
 72
0
  0
TEXT
  8
0
 62
5
  6
CONTINUOUS
 10
221.937007874
 20
17.881
  7
TEXTSTYLE_5
 40
1.495
  1
                                                                      tel: 
 41
1.0
 72
0
  0
TEXT
  8
0
 62
5
  6
CONTINUOUS
 10
266.9239544389
 20
17.881
  7
TEXTSTYLE_5
 40
1.51
  1
+45 75723100     fax: +45 75723348
 41
1.0
 72
0
  0
TEXT
  8
0
 62
5
  6
CONTINUOUS
 10
221.937007874
 20
15.177
  7
TEXTSTYLE_5
 40
1.5
  1
                                                                      admin@unichains.dk  www.unichains.com
 41
1.0
 72
0
  0
TEXT
  8
0
 62
5
  6
CONTINUOUS
 10
308.687007874
 20
13.75
  7
TEXTSTYLE_6
 40
5.0
  1
1:1
 41
0.7
 72
1
 11
313.937007874
 21
13.75
  0
TEXT
  8
0
 62
5
  6
CONTINUOUS
 10
326.937007874
 20
13.75
  7
TEXTSTYLE_7
 40
7.5
  1
K1200 Rubber top indent 54mm / 105mm
 41
0.3010416667
 72
0
  0
LINE
  8
0
 62
7
  6
CONTINUOUS
 10
0.0
 20
0.0
 11
0.0
 21
297.0
  0
LINE
  8
0
 62
7
  6
CONTINUOUS
 10
8.937007874
 20
10.0
 11
8.937007874
 21
287.0
  0
LINE
  8
0
 62
7
  6
CONTINUOUS
 10
0.0
 20
0.0
 11
420.0
 21
0.0
  0
LINE
  8
0
 62
7
  6
CONTINUOUS
 10
408.937007874
 20
10.0
 11
8.937007874
 21
10.0
  0
LINE
  8
0
 62
7
  6
CONTINUOUS
 10
218.937007874
 20
30.0
 11
408.937007874
 21
30.0
  0
LINE
  8
0
 62
7
  6
CONTINUOUS
 10
210.0
 20
297.0
 11
210.0
 21
292.0
  0
LINE
  8
0
 62
7
  6
CONTINUOUS
 10
210.0
 20
0.0
 11
210.0
 21
5.0
  0
LINE
  8
0
 62
7
  6
CONTINUOUS
 10
8.937007874
 20
287.0
 11
408.937007874
 21
287.0
  0
LINE
  8
0
 62
7
  6
CONTINUOUS
 10
0.0
 20
297.0
 11
420.0
 21
297.0
  0
LINE
  8
0
 62
7
  6
CONTINUOUS
 10
408.937007874
 20
287.0
 11
408.937007874
 21
10.0
  0
LINE
  8
0
 62
7
  6
CONTINUOUS
 10
420.0
 20
0.0
 11
420.0
 21
297.0
  0
LINE
  8
0
 62
7
  6
CONTINUOUS
 10
27.2555219242
 20
81.1101276178
 11
27.2555219242
 21
85.8034728775
  0
LINE
  8
0
 62
7
  6
CONTINUOUS
 10
27.3555219242
 20
109.3101276178
 11
27.3555219242
 21
114.135467015
  0
LINE
  8
0
 62
7
  6
CONTINUOUS
 10
29.9555219242
 20
92.9425937733
 11
29.9555219242
 21
108.7101276178
  0
LINE
  8
0
 62
7
  6
CONTINUOUS
 10
36.9555219242
 20
107.0101276178
 11
36.9555219242
 21
92.9425937733
  0
LINE
  8
0
 62
7
  6
CONTINUOUS
 10
39.6555219242
 20
85.8034728775
 11
39.6555219242
 21
81.1101276178
  0
LINE
  8
0
 62
7
  6
CONTINUOUS
 10
39.6348603995
 20
85.912880447
 11
37.0243936735
 21
92.5779018751
  0
LINE
  8
0
 62
7
  6
CONTINUOUS
 10
39.9555219242
 20
137.8167860921
 11
39.9555219242
 21
142.5101276178
  0
LINE
  8
0
 62
7
  6
CONTINUOUS
 10
42.6555219242
 20
130.6781369377
 11
42.6555219242
 21
114.8857027595
  0
LINE
  8
0
 62
7
  6
CONTINUOUS
 10
49.6555219242
 20
130.6781369377
 11
49.6555219242
 21
114.8857027595
  0
LINE
  8
0
 62
7
  6
CONTINUOUS
 10
27.276183449
 20
85.912880447
 11
29.886650175
 21
92.5779018751
  0
LINE
  8
0
 62
7
  6
CONTINUOUS
 10
52.3555219242
 20
142.5101276178
 11
52.3555219242
 21
137.8167860921
  0
LINE
  8
0
 62
7
  6
CONTINUOUS
 10
52.6555219242
 20
81.1101276178
 11
52.6555219242
 21
85.8034728775
  0
LINE
  8
0
 62
7
  6
CONTINUOUS
 10
55.3555219242
 20
107.0101276178
 11
55.3555219242
 21
92.9425937733
  0
LINE
  8
0
 62
7
  6
CONTINUOUS
 10
49.7244024396
 20
131.0428512166
 11
52.3348577697
 21
137.7073718084
  0
LINE
  8
0
 62
7
  6
CONTINUOUS
 10
39.9761860788
 20
137.7073718084
 11
42.5866414089
 21
131.0428512166
  0
LINE
  8
0
 62
7
  6
CONTINUOUS
 10
62.3555219242
 20
107.0101276178
 11
62.3555219242
 21
92.9425937733
  0
LINE
  8
0
 62
7
  6
CONTINUOUS
 10
65.0555219242
 20
85.8034728775
 11
65.0555219242
 21
81.1101276178
  0
LINE
  8
0
 62
7
  6
CONTINUOUS
 10
65.3555219242
 20
137.8167860921
 11
65.3555219242
 21
142.5101276178
  0
LINE
  8
0
 62
7
  6
CONTINUOUS
 10
68.0555219242
 20
130.6781369377
 11
68.0555219242
 21
114.8857027595
  0
LINE
  8
0
 62
7
  6
CONTINUOUS
 10
52.676183449
 20
85.912880447
 11
55.286650175
 21
92.5779018751
  0
LINE
  8
0
 62
7
  6
CONTINUOUS
 10
65.0348603995
 20
85.912880447
 11
62.4243936735
 21
92.5779018751
  0
LINE
  8
0
 62
7
  6
CONTINUOUS
 10
75.0555219242
 20
130.6781369377
 11
75.0555219242
 21
114.8857027595
  0
LINE
  8
0
 62
7
  6
CONTINUOUS
 10
77.7555219242
 20
142.5101276178
 11
77.7555219242
 21
137.8167860921
  0
LINE
  8
0
 62
7
  6
CONTINUOUS
 10
78.0555219242
 20
81.1101276178
 11
78.0555219242
 21
85.8034728775
  0
LINE
  8
0
 62
7
  6
CONTINUOUS
 10
80.7555219242
 20
107.0101276178
 11
80.7555219242
 21
92.9425937733
  0
LINE
  8
0
 62
7
  6
CONTINUOUS
 10
81.5555219242
 20
90.0601276178
 11
81.5555219242
 21
91.5912040104
  0
LINE
  8
0
 62
7
  6
CONTINUOUS
 10
81.85552189
 20
92.9425888866
 11
81.85552189
 21
109.022033864
  0
LINE
  8
0
 62
7
  6
CONTINUOUS
 10
75.1244024396
 20
131.0428512166
 11
77.7348577697
 21
137.7073718084
  0
LINE
  8
0
 62
7
  6
CONTINUOUS
 10
86.6555219242
 20
107.0101276178
 11
86.6555219242
 21
92.9425937733
  0
LINE
  8
0
 62
7
  6
CONTINUOUS
 10
86.9555219242
 20
91.5912040104
 11
86.9555219242
 21
90.0601276178
  0
LINE
  8
0
 62
7
  6
CONTINUOUS
 10
87.7555219242
 20
107.0101276178
 11
87.7555219242
 21
92.9425937733
  0
LINE
  8
0
 62
7
  6
CONTINUOUS
 10
90.4555219242
 20
85.8034728775
 11
90.4555219242
 21
81.1101276178
  0
LINE
  8
0
 62
7
  6
CONTINUOUS
 10
90.7555219242
 20
137.8167860921
 11
90.7555219242
 21
142.5101276178
  0
LINE
  8
0
 62
7
  6
CONTINUOUS
 10
65.3761860788
 20
137.7073718084
 11
67.9866414089
 21
131.0428512166
  0
LINE
  8
0
 62
7
  6
CONTINUOUS
 10
86.8001525976
 20
92.176740787
 11
86.886650175
 21
91.9558959086
  0
LINE
  8
0
 62
7
  6
CONTINUOUS
 10
90.4348603995
 20
85.912880447
 11
87.8243936735
 21
92.5779018751
  0
POLYLINE
  8
0
 62
7
  6
CONTINUOUS
 66
1
 70
0
  0
VERTEX
  8
0
 62
7
  6
CONTINUOUS
 10
99.3555219242
 20
114.885704009
  0
VERTEX
  8
0
 62
7
  6
CONTINUOUS
 10
99.3573774411
 20
114.7701375134
  0
VERTEX
  8
0
 62
7
  6
CONTINUOUS
 10
99.3626075716
 20
114.6601932838
  0
VERTEX
  8
0
 62
7
  6
CONTINUOUS
 10
99.3708560753
 20
114.5544500014
  0
VERTEX
  8
0
 62
7
  6
CONTINUOUS
 10
99.3819264285
 20
114.4515738186
  0
VERTEX
  8
0
 62
7
  6
CONTINUOUS
 10
99.3957943306
 20
114.3502536595
  0
VERTEX
  8
0
 62
7
  6
CONTINUOUS
 10
99.4125730858
 20
114.2492431129
  0
VERTEX
  8
0
 62
7
  6
CONTINUOUS
 10
99.4322800858
 20
114.1484563594
  0
VERTEX
  8
0
 62
7
  6
CONTINUOUS
 10
99.4548371697
 20
114.0483711203
  0
VERTEX
  8
0
 62
7
  6
CONTINUOUS
 10
99.4802370898
 20
113.9490459776
  0
VERTEX
  8
0
 62
7
  6
CONTINUOUS
 10
99.5084878809
 20
113.8504282737
  0
VERTEX
  8
0
 62
7
  6
CONTINUOUS
 10
99.5395456296
 20
113.7526511663
  0
VERTEX
  8
0
 62
7
  6
CONTINUOUS
 10
99.5733827232
 20
113.6558446884
  0
VERTEX
  8
0
 62
7
  6
CONTINUOUS
 10
99.6100391327
 20
113.5599585219
  0
VERTEX
  8
0
 62
7
  6
CONTINUOUS
 10
99.6495089276
 20
113.4650866417
  0
VERTEX
  8
0
 62
7
  6
CONTINUOUS
 10
99.6917570383
 20
113.3714061868
  0
VERTEX
  8
0
 62
7
  6
CONTINUOUS
 10
99.7368471584
 20
113.2788387248
  0
VERTEX
  8
0
 62
7
  6
CONTINUOUS
 10
99.7848626407
 20
113.187287606
  0
VERTEX
  8
0
 62
7
  6
CONTINUOUS
 10
99.8355848959
 20
113.0972228743
  0
VERTEX
  8
0
 62
7
  6
CONTINUOUS
 10
99.8887639117
 20
113.0090439677
  0
VERTEX
  8
0
 62
7
  6
CONTINUOUS
 10
99.9462292887
 20
112.9199658301
  0
VERTEX
  8
0
 62
7
  6
CONTINUOUS
 10
100.0112546089
 20
112.8259466882
  0
VERTEX
  8
0
 62
7
  6
CONTINUOUS
 10
100.0875654571
 20
112.7236162167
  0
VERTEX
  8
0
 62
7
  6
CONTINUOUS
 10
100.1755633983
 20
112.6149797424
  0
VERTEX
  8
0
 62
7
  6
CONTINUOUS
 10
100.2691557641
 20
112.5090268894
  0
VERTEX
  8
0
 62
7
  6
CONTINUOUS
 10
100.3607641316
 20
112.4137098725
  0
VERTEX
  8
0
 62
7
  6
CONTINUOUS
 10
100.4472754965
 20
112.3304307104
  0
VERTEX
  8
0
 62
7
  6
CONTINUOUS
 10
100.5307129754
 20
112.2557064854
  0
VERTEX
  8
0
 62
7
  6
CONTINUOUS
 10
100.6137865904
 20
112.1863025774
  0
VERTEX
  8
0
 62
7
  6
CONTINUOUS
 10
100.698666814
 20
112.1201536382
  0
VERTEX
  8
0
 62
7
  6
CONTINUOUS
 10
100.7856469067
 20
112.0570280187
  0
VERTEX
  8
0
 62
7
  6
CONTINUOUS
 10
100.8747112739
 20
111.9969661117
  0
VERTEX
  8
0
 62
7
  6
CONTINUOUS
 10
100.9656920103
 20
111.9401200546
  0
VERTEX
  8
0
 62
7
  6
CONTINUOUS
 10
101.0587026821
 20
111.8864903276
  0
VERTEX
  8
0
 62
7
  6
CONTINUOUS
 10
101.154068263
 20
111.8359791613
  0
VERTEX
  8
0
 62
7
  6
CONTINUOUS
 10
101.2517478413
 20
111.7887289514
  0
VERTEX
  8
0
 62
7
  6
CONTINUOUS
 10
101.3516530877
 20
111.7448725091
  0
VERTEX
  8
0
 62
7
  6
CONTINUOUS
 10
101.4534358851
 20
111.7046179821
  0
VERTEX
  8
0
 62
7
  6
CONTINUOUS
 10
101.5568028761
 20
111.6681273848
  0
VERTEX
  8
0
 62
7
  6
CONTINUOUS
 10
101.6616647695
 20
111.6354733753
  0
VERTEX
  8
0
 62
7
  6
CONTINUOUS
 10
101.7679439547
 20
111.6067390969
  0
VERTEX
  8
0
 62
7
  6
CONTINUOUS
 10
101.8752018109
 20
111.5820959033
  0
VERTEX
  8
0
 62
7
  6
CONTINUOUS
 10
101.983572175
 20
111.5615787819
  0
VERTEX
  8
0
 62
7
  6
CONTINUOUS
 10
102.0943300329
 20
111.5450879835
  0
VERTEX
  8
0
 62
7
  6
CONTINUOUS
 10
102.2089326138
 20
111.5327281121
  0
VERTEX
  8
0
 62
7
  6
CONTINUOUS
 10
102.3288136054
 20
111.5248402643
  0
VERTEX
  8
0
 62
7
  6
CONTINUOUS
 10
102.4555220126
 20
111.5220280761
  0
SEQEND
  0
LINE
  8
0
 62
7
  6
CONTINUOUS
 10
93.4555219242
 20
130.6781369377
 11
93.4555219242
 21
114.8857027595
  0
LINE
  8
0
 62
7
  6
CONTINUOUS
 10
94.2555219242
 20
132.0295110719
 11
94.2555219242
 21
133.5601276178
  0
LINE
  8
0
 62
7
  6
CONTINUOUS
 10
94.5555219242
 20
114.8857034419
 11
94.5555219242
 21
130.6781369377
  0
LINE
  8
0
 62
7
  6
CONTINUOUS
 10
99.3555219242
 20
130.6781369377
 11
99.3555219242
 21
114.885704009
  0
LINE
  8
0
 62
7
  6
CONTINUOUS
 10
99.6555219242
 20
133.5601276178
 11
99.6555219242
 21
132.0295110719
  0
LINE
  8
0
 62
7
  6
CONTINUOUS
 10
100.4555219242
 20
130.6781369377
 11
100.4555219242
 21
114.8857027595
  0
LINE
  8
0
 62
7
  6
CONTINUOUS
 10
103.1555219242
 20
142.5101276178
 11
103.1555219242
 21
137.8167860921
  0
LINE
  8
0
 62
7
  6
CONTINUOUS
 10
103.4555219242
 20
81.1101276178
 11
103.4555219242
 21
85.8034728775
  0
LINE
  8
0
 62
7
  6
CONTINUOUS
 10
78.076183449
 20
85.912880447
 11
80.686650175
 21
92.5779018751
  0
LINE
  8
0
 62
7
  6
CONTINUOUS
 10
81.6243936735
 20
91.9558959086
 11
81.7108912509
 21
92.176740787
  0
LINE
  8
0
 62
7
  6
CONTINUOUS
 10
99.5866414089
 20
131.664796793
 11
99.5001710064
 21
131.4440369233
  0
LINE
  8
0
 62
7
  6
CONTINUOUS
 10
100.5244024396
 20
131.0428512166
 11
103.1348577697
 21
137.7073718084
  0
LINE
  8
0
 62
7
  6
CONTINUOUS
 10
106.1555219242
 20
107.0101276178
 11
106.1555219242
 21
92.9425937733
  0
LINE
  8
0
 62
7
  6
CONTINUOUS
 10
106.9555219242
 20
90.0601276178
 11
106.9555219242
 21
91.5912040104
  0
LINE
  8
0
 62
7
  6
CONTINUOUS
 10
107.2555219242
 20
92.9425937733
 11
107.2555219242
 21
107.0101276178
  0
LINE
  8
0
 62
7
  6
CONTINUOUS
 10
112.0555219242
 20
107.0101276178
 11
112.0555219242
 21
92.9425937733
  0
LINE
  8
0
 62
7
  6
CONTINUOUS
 10
112.3555219242
 20
91.5912040104
 11
112.3555219242
 21
90.0601276178
  0
LINE
  8
0
 62
7
  6
CONTINUOUS
 10
113.1555219242
 20
107.0101276178
 11
113.1555219242
 21
92.9425937733
  0
LINE
  8
0
 62
7
  6
CONTINUOUS
 10
90.7761860788
 20
137.7073718084
 11
93.3866414089
 21
131.0428512166
  0
LINE
  8
0
 62
7
  6
CONTINUOUS
 10
94.4108728421
 20
131.4440369233
 11
94.3244024396
 21
131.664796793
  0
LINE
  8
0
 62
7
  6
CONTINUOUS
 10
112.2001525976
 20
92.176740787
 11
112.286650175
 21
91.9558959086
  0
LINE
  8
0
 62
7
  6
CONTINUOUS
 10
115.8348603995
 20
85.912880447
 11
113.2243936735
 21
92.5779018751
  0
LINE
  8
0
 62
7
  6
CONTINUOUS
 10
115.8555219242
 20
85.8034728775
 11
115.8555219242
 21
81.1101276178
  0
LINE
  8
0
 62
7
  6
CONTINUOUS
 10
116.1555219242
 20
137.8167860921
 11
116.1555219242
 21
142.5101276178
  0
LINE
  8
0
 62
7
  6
CONTINUOUS
 10
118.8555219242
 20
130.6781369377
 11
118.8555219242
 21
114.8857027595
  0
LINE
  8
0
 62
7
  6
CONTINUOUS
 10
119.6555219242
 20
132.0295110719
 11
119.6555219242
 21
133.5601276178
  0
LINE
  8
0
 62
7
  6
CONTINUOUS
 10
119.9555219242
 20
114.8857034418
 11
119.9555219242
 21
130.6781369377
  0
LINE
  8
0
 62
7
  6
CONTINUOUS
 10
103.476183449
 20
85.912880447
 11
106.086650175
 21
92.5779018751
  0
LINE
  8
0
 62
7
  6
CONTINUOUS
 10
107.0243936735
 20
91.9558959086
 11
107.1108912509
 21
92.176740787
  0
LINE
  8
0
 62
7
  6
CONTINUOUS
 10
124.9866414089
 20
131.664796793
 11
124.9001710064
 21
131.4440369233
  0
LINE
  8
0
 62
7
  6
CONTINUOUS
 10
125.9244024396
 20
131.0428512166
 11
128.5348577697
 21
137.7073718084
  0
POLYLINE
  8
0
 62
7
  6
CONTINUOUS
 66
1
 70
0
  0
VERTEX
  8
0
 62
7
  6
CONTINUOUS
 10
124.7555219242
 20
114.885704009
  0
VERTEX
  8
0
 62
7
  6
CONTINUOUS
 10
124.7573774411
 20
114.7701375134
  0
VERTEX
  8
0
 62
7
  6
CONTINUOUS
 10
124.7626075716
 20
114.6601932839
  0
VERTEX
  8
0
 62
7
  6
CONTINUOUS
 10
124.7708560753
 20
114.5544500015
  0
VERTEX
  8
0
 62
7
  6
CONTINUOUS
 10
124.7819264285
 20
114.4515738187
  0
VERTEX
  8
0
 62
7
  6
CONTINUOUS
 10
124.7957943306
 20
114.3502536595
  0
VERTEX
  8
0
 62
7
  6
CONTINUOUS
 10
124.8125730858
 20
114.249243113
  0
VERTEX
  8
0
 62
7
  6
CONTINUOUS
 10
124.8322800858
 20
114.1484563594
  0
VERTEX
  8
0
 62
7
  6
CONTINUOUS
 10
124.8548371697
 20
114.0483711203
  0
VERTEX
  8
0
 62
7
  6
CONTINUOUS
 10
124.8802370898
 20
113.9490459776
  0
VERTEX
  8
0
 62
7
  6
CONTINUOUS
 10
124.9084878809
 20
113.8504282737
  0
VERTEX
  8
0
 62
7
  6
CONTINUOUS
 10
124.9395456296
 20
113.7526511663
  0
VERTEX
  8
0
 62
7
  6
CONTINUOUS
 10
124.9733827232
 20
113.6558446884
  0
VERTEX
  8
0
 62
7
  6
CONTINUOUS
 10
125.0100391327
 20
113.5599585219
  0
VERTEX
  8
0
 62
7
  6
CONTINUOUS
 10
125.0495089276
 20
113.4650866418
  0
VERTEX
  8
0
 62
7
  6
CONTINUOUS
 10
125.0917570383
 20
113.3714061868
  0
VERTEX
  8
0
 62
7
  6
CONTINUOUS
 10
125.1368471584
 20
113.2788387249
  0
VERTEX
  8
0
 62
7
  6
CONTINUOUS
 10
125.1848626407
 20
113.187287606
  0
VERTEX
  8
0
 62
7
  6
CONTINUOUS
 10
125.2355848959
 20
113.0972228743
  0
VERTEX
  8
0
 62
7
  6
CONTINUOUS
 10
125.2887639116
 20
113.0090439677
  0
VERTEX
  8
0
 62
7
  6
CONTINUOUS
 10
125.3462292887
 20
112.9199658301
  0
VERTEX
  8
0
 62
7
  6
CONTINUOUS
 10
125.4112546089
 20
112.8259466882
  0
VERTEX
  8
0
 62
7
  6
CONTINUOUS
 10
125.4875654571
 20
112.7236162167
  0
VERTEX
  8
0
 62
7
  6
CONTINUOUS
 10
125.5755633983
 20
112.6149797424
  0
VERTEX
  8
0
 62
7
  6
CONTINUOUS
 10
125.6691557641
 20
112.5090268894
  0
VERTEX
  8
0
 62
7
  6
CONTINUOUS
 10
125.7607641316
 20
112.4137098725
  0
VERTEX
  8
0
 62
7
  6
CONTINUOUS
 10
125.8472754965
 20
112.3304307104
  0
VERTEX
  8
0
 62
7
  6
CONTINUOUS
 10
125.9307129754
 20
112.2557064854
  0
VERTEX
  8
0
 62
7
  6
CONTINUOUS
 10
126.0137865904
 20
112.1863025774
  0
VERTEX
  8
0
 62
7
  6
CONTINUOUS
 10
126.098666814
 20
112.1201536383
  0
VERTEX
  8
0
 62
7
  6
CONTINUOUS
 10
126.1856469067
 20
112.0570280187
  0
VERTEX
  8
0
 62
7
  6
CONTINUOUS
 10
126.2747112739
 20
111.9969661117
  0
VERTEX
  8
0
 62
7
  6
CONTINUOUS
 10
126.3656920103
 20
111.9401200546
  0
VERTEX
  8
0
 62
7
  6
CONTINUOUS
 10
126.4587026821
 20
111.8864903276
  0
VERTEX
  8
0
 62
7
  6
CONTINUOUS
 10
126.554068263
 20
111.8359791613
  0
VERTEX
  8
0
 62
7
  6
CONTINUOUS
 10
126.6517478413
 20
111.7887289514
  0
VERTEX
  8
0
 62
7
  6
CONTINUOUS
 10
126.7516530877
 20
111.7448725091
  0
VERTEX
  8
0
 62
7
  6
CONTINUOUS
 10
126.8534358851
 20
111.7046179821
  0
VERTEX
  8
0
 62
7
  6
CONTINUOUS
 10
126.9568028761
 20
111.6681273848
  0
VERTEX
  8
0
 62
7
  6
CONTINUOUS
 10
127.0616647695
 20
111.6354733753
  0
VERTEX
  8
0
 62
7
  6
CONTINUOUS
 10
127.1679439547
 20
111.6067390969
  0
VERTEX
  8
0
 62
7
  6
CONTINUOUS
 10
127.2752018109
 20
111.5820959033
  0
VERTEX
  8
0
 62
7
  6
CONTINUOUS
 10
127.383572175
 20
111.5615787819
  0
VERTEX
  8
0
 62
7
  6
CONTINUOUS
 10
127.4943300329
 20
111.5450879835
  0
VERTEX
  8
0
 62
7
  6
CONTINUOUS
 10
127.6089326138
 20
111.5327281121
  0
VERTEX
  8
0
 62
7
  6
CONTINUOUS
 10
127.7288136054
 20
111.5248402643
  0
VERTEX
  8
0
 62
7
  6
CONTINUOUS
 10
127.8555220126
 20
111.5220280761
  0
SEQEND
  0
LINE
  8
0
 62
7
  6
CONTINUOUS
 10
124.7555219242
 20
130.6781369377
 11
124.7555219242
 21
114.885704009
  0
LINE
  8
0
 62
7
  6
CONTINUOUS
 10
125.0555219242
 20
133.5601276178
 11
125.0555219242
 21
132.0295110719
  0
LINE
  8
0
 62
7
  6
CONTINUOUS
 10
125.8555219242
 20
130.6781369377
 11
125.8555219242
 21
114.8857027595
  0
LINE
  8
0
 62
7
  6
CONTINUOUS
 10
128.5555219242
 20
142.5101276178
 11
128.5555219242
 21
137.8167860921
  0
LINE
  8
0
 62
7
  6
CONTINUOUS
 10
128.8555219242
 20
81.1101276178
 11
128.8555219242
 21
85.8034728775
  0
LINE
  8
0
 62
7
  6
CONTINUOUS
 10
131.5555219242
 20
107.0101276178
 11
131.5555219242
 21
92.9425937733
  0
LINE
  8
0
 62
7
  6
CONTINUOUS
 10
132.3555219242
 20
90.0601276178
 11
132.3555219242
 21
91.5912040104
  0
LINE
  8
0
 62
7
  6
CONTINUOUS
 10
132.6555219242
 20
92.9425937733
 11
132.6555219242
 21
107.0101276178
  0
LINE
  8
0
 62
7
  6
CONTINUOUS
 10
116.1761860788
 20
137.7073718084
 11
118.7866414089
 21
131.0428512166
  0
LINE
  8
0
 62
7
  6
CONTINUOUS
 10
119.8108728421
 20
131.4440369233
 11
119.7244024396
 21
131.664796793
  0
LINE
  8
0
 62
7
  6
CONTINUOUS
 10
137.6001525976
 20
92.176740787
 11
137.686650175
 21
91.9558959086
  0
LINE
  8
0
 62
7
  6
CONTINUOUS
 10
141.2348603995
 20
85.912880447
 11
138.6243936735
 21
92.5779018751
  0
LINE
  8
0
 62
7
  6
CONTINUOUS
 10
137.4555219242
 20
107.0101276178
 11
137.4555219242
 21
92.9425937733
  0
LINE
  8
0
 62
7
  6
CONTINUOUS
 10
137.7555219242
 20
91.5912040104
 11
137.7555219242
 21
90.0601276178
  0
LINE
  8
0
 62
7
  6
CONTINUOUS
 10
138.5555219242
 20
107.0101276178
 11
138.5555219242
 21
92.9425937733
  0
LINE
  8
0
 62
7
  6
CONTINUOUS
 10
141.2555219242
 20
85.8034728775
 11
141.2555219242
 21
81.1101276178
  0
LINE
  8
0
 62
7
  6
CONTINUOUS
 10
141.5555219242
 20
137.8167860921
 11
141.5555219242
 21
142.5101276178
  0
LINE
  8
0
 62
7
  6
CONTINUOUS
 10
144.2555219242
 20
130.6781369377
 11
144.2555219242
 21
114.8857027595
  0
LINE
  8
0
 62
7
  6
CONTINUOUS
 10
145.0555219242
 20
132.0295110719
 11
145.0555219242
 21
133.5601276178
  0
LINE
  8
0
 62
7
  6
CONTINUOUS
 10
145.3555219242
 20
114.8857034418
 11
145.3555219242
 21
130.6781369377
  0
LINE
  8
0
 62
7
  6
CONTINUOUS
 10
128.876183449
 20
85.912880447
 11
131.486650175
 21
92.5779018751
  0
LINE
  8
0
 62
7
  6
CONTINUOUS
 10
132.4243936735
 20
91.9558959086
 11
132.5108912509
 21
92.176740787
  0
LINE
  8
0
 62
7
  6
CONTINUOUS
 10
150.3866414089
 20
131.664796793
 11
150.3001710064
 21
131.4440369233
  0
LINE
  8
0
 62
7
  6
CONTINUOUS
 10
316.3555219242
 20
78.4101276178
 11
309.3555219242
 21
78.4101276178
  0
LINE
  8
0
 62
7
  6
CONTINUOUS
 10
290.9555219242
 20
78.4101276178
 11
283.9555219242
 21
78.4101276178
  0
LINE
  8
0
 62
7
  6
CONTINUOUS
 10
265.5555219242
 20
78.4101276178
 11
258.5555219242
 21
78.4101276178
  0
LINE
  8
0
 62
7
  6
CONTINUOUS
 10
240.1555219242
 20
78.4101276178
 11
233.1555219242
 21
78.4101276178
  0
LINE
  8
0
 62
7
  6
CONTINUOUS
 10
214.7555219242
 20
78.4101276178
 11
207.7555219242
 21
78.4101276178
  0
LINE
  8
0
 62
7
  6
CONTINUOUS
 10
189.3555219242
 20
78.4101276178
 11
182.3555219242
 21
78.4101276178
  0
LINE
  8
0
 62
7
  6
CONTINUOUS
 10
163.9555219242
 20
78.4101276178
 11
156.9555219242
 21
78.4101276178
  0
LINE
  8
0
 62
7
  6
CONTINUOUS
 10
138.5555219242
 20
78.4101276178
 11
131.5555219242
 21
78.4101276178
  0
LINE
  8
0
 62
7
  6
CONTINUOUS
 10
113.1555219242
 20
78.4101276178
 11
106.1555219242
 21
78.4101276178
  0
LINE
  8
0
 62
7
  6
CONTINUOUS
 10
87.7555219242
 20
78.4101276178
 11
80.7555219242
 21
78.4101276178
  0
LINE
  8
0
 62
7
  6
CONTINUOUS
 10
62.3555219242
 20
78.4101276178
 11
55.3555219242
 21
78.4101276178
  0
LINE
  8
0
 62
7
  6
CONTINUOUS
 10
29.9555219242
 20
78.4101276178
 11
36.9555219242
 21
78.4101276178
  0
POLYLINE
  8
0
 62
7
  6
CONTINUOUS
 66
1
 70
0
  0
VERTEX
  8
0
 62
7
  6
CONTINUOUS
 10
150.1555219242
 20
114.8857040089
  0
VERTEX
  8
0
 62
7
  6
CONTINUOUS
 10
150.1573774411
 20
114.7701375133
  0
VERTEX
  8
0
 62
7
  6
CONTINUOUS
 10
150.1626075716
 20
114.6601932837
  0
VERTEX
  8
0
 62
7
  6
CONTINUOUS
 10
150.1708560753
 20
114.5544500013
  0
VERTEX
  8
0
 62
7
  6
CONTINUOUS
 10
150.1819264285
 20
114.4515738185
  0
VERTEX
  8
0
 62
7
  6
CONTINUOUS
 10
150.1957943306
 20
114.3502536594
  0
VERTEX
  8
0
 62
7
  6
CONTINUOUS
 10
150.2125730858
 20
114.2492431129
  0
VERTEX
  8
0
 62
7
  6
CONTINUOUS
 10
150.2322800858
 20
114.1484563593
  0
VERTEX
  8
0
 62
7
  6
CONTINUOUS
 10
150.2548371698
 20
114.0483711202
  0
VERTEX
  8
0
 62
7
  6
CONTINUOUS
 10
150.2802370898
 20
113.9490459775
  0
VERTEX
  8
0
 62
7
  6
CONTINUOUS
 10
150.3084878809
 20
113.8504282736
  0
VERTEX
  8
0
 62
7
  6
CONTINUOUS
 10
150.3395456296
 20
113.7526511662
  0
VERTEX
  8
0
 62
7
  6
CONTINUOUS
 10
150.3733827233
 20
113.6558446883
  0
VERTEX
  8
0
 62
7
  6
CONTINUOUS
 10
150.4100391327
 20
113.5599585218
  0
VERTEX
  8
0
 62
7
  6
CONTINUOUS
 10
150.4495089276
 20
113.4650866417
  0
VERTEX
  8
0
 62
7
  6
CONTINUOUS
 10
150.4917570383
 20
113.3714061867
  0
VERTEX
  8
0
 62
7
  6
CONTINUOUS
 10
150.5368471584
 20
113.2788387248
  0
VERTEX
  8
0
 62
7
  6
CONTINUOUS
 10
150.5848626407
 20
113.1872876059
  0
VERTEX
  8
0
 62
7
  6
CONTINUOUS
 10
150.6355848959
 20
113.0972228742
  0
VERTEX
  8
0
 62
7
  6
CONTINUOUS
 10
150.6887639117
 20
113.0090439676
  0
VERTEX
  8
0
 62
7
  6
CONTINUOUS
 10
150.7462292887
 20
112.91996583
  0
VERTEX
  8
0
 62
7
  6
CONTINUOUS
 10
150.8112546089
 20
112.8259466881
  0
VERTEX
  8
0
 62
7
  6
CONTINUOUS
 10
150.8875654571
 20
112.7236162167
  0
VERTEX
  8
0
 62
7
  6
CONTINUOUS
 10
150.9755633984
 20
112.6149797423
  0
VERTEX
  8
0
 62
7
  6
CONTINUOUS
 10
151.0691557641
 20
112.5090268894
  0
VERTEX
  8
0
 62
7
  6
CONTINUOUS
 10
151.1607641317
 20
112.4137098724
  0
VERTEX
  8
0
 62
7
  6
CONTINUOUS
 10
151.2472754965
 20
112.3304307104
  0
VERTEX
  8
0
 62
7
  6
CONTINUOUS
 10
151.3307129754
 20
112.2557064853
  0
VERTEX
  8
0
 62
7
  6
CONTINUOUS
 10
151.4137865904
 20
112.1863025774
  0
VERTEX
  8
0
 62
7
  6
CONTINUOUS
 10
151.4986668141
 20
112.1201536382
  0
VERTEX
  8
0
 62
7
  6
CONTINUOUS
 10
151.5856469067
 20
112.0570280187
  0
VERTEX
  8
0
 62
7
  6
CONTINUOUS
 10
151.6747112739
 20
111.9969661117
  0
VERTEX
  8
0
 62
7
  6
CONTINUOUS
 10
151.7656920104
 20
111.9401200546
  0
VERTEX
  8
0
 62
7
  6
CONTINUOUS
 10
151.8587026821
 20
111.8864903275
  0
VERTEX
  8
0
 62
7
  6
CONTINUOUS
 10
151.954068263
 20
111.8359791613
  0
VERTEX
  8
0
 62
7
  6
CONTINUOUS
 10
152.0517478413
 20
111.7887289514
  0
VERTEX
  8
0
 62
7
  6
CONTINUOUS
 10
152.1516530877
 20
111.7448725091
  0
VERTEX
  8
0
 62
7
  6
CONTINUOUS
 10
152.2534358852
 20
111.7046179821
  0
VERTEX
  8
0
 62
7
  6
CONTINUOUS
 10
152.3568028761
 20
111.6681273848
  0
VERTEX
  8
0
 62
7
  6
CONTINUOUS
 10
152.4616647695
 20
111.6354733753
  0
VERTEX
  8
0
 62
7
  6
CONTINUOUS
 10
152.5679439547
 20
111.6067390969
  0
VERTEX
  8
0
 62
7
  6
CONTINUOUS
 10
152.6752018109
 20
111.5820959033
  0
VERTEX
  8
0
 62
7
  6
CONTINUOUS
 10
152.783572175
 20
111.5615787819
  0
VERTEX
  8
0
 62
7
  6
CONTINUOUS
 10
152.8943300329
 20
111.5450879835
  0
VERTEX
  8
0
 62
7
  6
CONTINUOUS
 10
153.0089326138
 20
111.5327281121
  0
VERTEX
  8
0
 62
7
  6
CONTINUOUS
 10
153.1288136054
 20
111.5248402643
  0
VERTEX
  8
0
 62
7
  6
CONTINUOUS
 10
153.2555220126
 20
111.5220280761
  0
SEQEND
  0
LINE
  8
0
 62
7
  6
CONTINUOUS
 10
150.1555219242
 20
130.6781369377
 11
150.1555219242
 21
114.8857040089
  0
LINE
  8
0
 62
7
  6
CONTINUOUS
 10
150.4555219242
 20
133.5601276178
 11
150.4555219242
 21
132.0295110719
  0
LINE
  8
0
 62
7
  6
CONTINUOUS
 10
151.2555219242
 20
130.6781369377
 11
151.2555219242
 21
114.8857027595
  0
LINE
  8
0
 62
7
  6
CONTINUOUS
 10
153.9555219242
 20
142.5101276178
 11
153.9555219242
 21
137.8167860921
  0
LINE
  8
0
 62
7
  6
CONTINUOUS
 10
154.2555219242
 20
81.1101276178
 11
154.2555219242
 21
85.8034728775
  0
LINE
  8
0
 62
7
  6
CONTINUOUS
 10
151.3244024396
 20
131.0428512166
 11
153.9348577697
 21
137.7073718084
  0
LINE
  8
DEFAULT_1
 62
2
  6
CENTER
 10
340.7394700214
 20
86.4473826178
 11
19.1562681287
 21
86.4473826178
  0
LINE
  8
0
 62
7
  6
CONTINUOUS
 10
212.9555219242
 20
89.0601276178
 11
209.5555219242
 21
89.0601276178
  0
LINE
  8
0
 62
7
  6
CONTINUOUS
 10
187.5555219242
 20
89.0601276178
 11
184.1555219242
 21
89.0601276178
  0
LINE
  8
0
 62
7
  6
CONTINUOUS
 10
162.1555219242
 20
89.0601276178
 11
158.7555219242
 21
89.0601276178
  0
LINE
  8
0
 62
7
  6
CONTINUOUS
 10
136.7555219242
 20
89.0601276178
 11
133.3555219242
 21
89.0601276178
  0
LINE
  8
0
 62
7
  6
CONTINUOUS
 10
111.3555219242
 20
89.0601276178
 11
107.9555219242
 21
89.0601276178
  0
LINE
  8
0
 62
7
  6
CONTINUOUS
 10
85.9555219242
 20
89.0601276178
 11
82.5555219242
 21
89.0601276178
  0
LINE
  8
0
 62
7
  6
CONTINUOUS
 10
141.5761860788
 20
137.7073718084
 11
144.1866414089
 21
131.0428512166
  0
LINE
  8
0
 62
7
  6
CONTINUOUS
 10
145.2108728421
 20
131.4440369233
 11
145.1244024396
 21
131.664796793
  0
LINE
  8
0
 62
7
  6
CONTINUOUS
 10
156.9555219242
 20
107.0101276178
 11
156.9555219242
 21
92.9425937733
  0
LINE
  8
0
 62
7
  6
CONTINUOUS
 10
157.7555219242
 20
90.0601276178
 11
157.7555219242
 21
91.5912040104
  0
LINE
  8
0
 62
7
  6
CONTINUOUS
 10
158.0555219242
 20
92.9425937733
 11
158.0555219242
 21
107.0101276178
  0
LINE
  8
0
 62
7
  6
CONTINUOUS
 10
162.8555219242
 20
107.0101276178
 11
162.8555219242
 21
92.9425937733
  0
LINE
  8
0
 62
7
  6
CONTINUOUS
 10
163.1555219242
 20
91.5912040104
 11
163.1555219242
 21
90.0601276178
  0
LINE
  8
0
 62
7
  6
CONTINUOUS
 10
163.9555219242
 20
107.0101276178
 11
163.9555219242
 21
92.9425937733
  0
LINE
  8
0
 62
7
  6
CONTINUOUS
 10
166.6555219242
 20
85.8034728775
 11
166.6555219242
 21
81.1101276178
  0
LINE
  8
0
 62
7
  6
CONTINUOUS
 10
166.9555219242
 20
137.8167860921
 11
166.9555219242
 21
142.5101276178
  0
LINE
  8
0
 62
7
  6
CONTINUOUS
 10
154.276183449
 20
85.912880447
 11
156.886650175
 21
92.5779018751
  0
LINE
  8
0
 62
7
  6
CONTINUOUS
 10
157.8243936735
 20
91.9558959086
 11
157.9108912509
 21
92.176740787
  0
LINE
  8
0
 62
7
  6
CONTINUOUS
 10
163.0001525976
 20
92.176740787
 11
163.086650175
 21
91.9558959086
  0
LINE
  8
0
 62
7
  6
CONTINUOUS
 10
166.6348603995
 20
85.912880447
 11
164.0243936735
 21
92.5779018751
  0
POLYLINE
  8
0
 62
7
  6
CONTINUOUS
 66
1
 70
0
  0
VERTEX
  8
0
 62
7
  6
CONTINUOUS
 10
175.5555219242
 20
114.885704009
  0
VERTEX
  8
0
 62
7
  6
CONTINUOUS
 10
175.5573774411
 20
114.7701375133
  0
VERTEX
  8
0
 62
7
  6
CONTINUOUS
 10
175.5626075716
 20
114.6601932838
  0
VERTEX
  8
0
 62
7
  6
CONTINUOUS
 10
175.5708560753
 20
114.5544500014
  0
VERTEX
  8
0
 62
7
  6
CONTINUOUS
 10
175.5819264285
 20
114.4515738186
  0
VERTEX
  8
0
 62
7
  6
CONTINUOUS
 10
175.5957943306
 20
114.3502536595
  0
VERTEX
  8
0
 62
7
  6
CONTINUOUS
 10
175.6125730858
 20
114.2492431129
  0
VERTEX
  8
0
 62
7
  6
CONTINUOUS
 10
175.6322800858
 20
114.1484563593
  0
VERTEX
  8
0
 62
7
  6
CONTINUOUS
 10
175.6548371697
 20
114.0483711203
  0
VERTEX
  8
0
 62
7
  6
CONTINUOUS
 10
175.6802370898
 20
113.9490459776
  0
VERTEX
  8
0
 62
7
  6
CONTINUOUS
 10
175.7084878809
 20
113.8504282737
  0
VERTEX
  8
0
 62
7
  6
CONTINUOUS
 10
175.7395456296
 20
113.7526511663
  0
VERTEX
  8
0
 62
7
  6
CONTINUOUS
 10
175.7733827232
 20
113.6558446884
  0
VERTEX
  8
0
 62
7
  6
CONTINUOUS
 10
175.8100391327
 20
113.5599585218
  0
VERTEX
  8
0
 62
7
  6
CONTINUOUS
 10
175.8495089276
 20
113.4650866417
  0
VERTEX
  8
0
 62
7
  6
CONTINUOUS
 10
175.8917570383
 20
113.3714061868
  0
VERTEX
  8
0
 62
7
  6
CONTINUOUS
 10
175.9368471584
 20
113.2788387248
  0
VERTEX
  8
0
 62
7
  6
CONTINUOUS
 10
175.9848626407
 20
113.1872876059
  0
VERTEX
  8
0
 62
7
  6
CONTINUOUS
 10
176.0355848959
 20
113.0972228743
  0
VERTEX
  8
0
 62
7
  6
CONTINUOUS
 10
176.0887639117
 20
113.0090439677
  0
VERTEX
  8
0
 62
7
  6
CONTINUOUS
 10
176.1462292887
 20
112.9199658301
  0
VERTEX
  8
0
 62
7
  6
CONTINUOUS
 10
176.2112546089
 20
112.8259466882
  0
VERTEX
  8
0
 62
7
  6
CONTINUOUS
 10
176.2875654571
 20
112.7236162167
  0
VERTEX
  8
0
 62
7
  6
CONTINUOUS
 10
176.3755633983
 20
112.6149797424
  0
VERTEX
  8
0
 62
7
  6
CONTINUOUS
 10
176.4691557641
 20
112.5090268894
  0
VERTEX
  8
0
 62
7
  6
CONTINUOUS
 10
176.5607641316
 20
112.4137098725
  0
VERTEX
  8
0
 62
7
  6
CONTINUOUS
 10
176.6472754965
 20
112.3304307104
  0
VERTEX
  8
0
 62
7
  6
CONTINUOUS
 10
176.7307129754
 20
112.2557064853
  0
VERTEX
  8
0
 62
7
  6
CONTINUOUS
 10
176.8137865904
 20
112.1863025774
  0
VERTEX
  8
0
 62
7
  6
CONTINUOUS
 10
176.898666814
 20
112.1201536382
  0
VERTEX
  8
0
 62
7
  6
CONTINUOUS
 10
176.9856469067
 20
112.0570280187
  0
VERTEX
  8
0
 62
7
  6
CONTINUOUS
 10
177.0747112739
 20
111.9969661117
  0
VERTEX
  8
0
 62
7
  6
CONTINUOUS
 10
177.1656920103
 20
111.9401200546
  0
VERTEX
  8
0
 62
7
  6
CONTINUOUS
 10
177.2587026821
 20
111.8864903276
  0
VERTEX
  8
0
 62
7
  6
CONTINUOUS
 10
177.354068263
 20
111.8359791613
  0
VERTEX
  8
0
 62
7
  6
CONTINUOUS
 10
177.4517478413
 20
111.7887289514
  0
VERTEX
  8
0
 62
7
  6
CONTINUOUS
 10
177.5516530877
 20
111.7448725091
  0
VERTEX
  8
0
 62
7
  6
CONTINUOUS
 10
177.6534358851
 20
111.7046179821
  0
VERTEX
  8
0
 62
7
  6
CONTINUOUS
 10
177.7568028761
 20
111.6681273848
  0
VERTEX
  8
0
 62
7
  6
CONTINUOUS
 10
177.8616647695
 20
111.6354733753
  0
VERTEX
  8
0
 62
7
  6
CONTINUOUS
 10
177.9679439547
 20
111.6067390969
  0
VERTEX
  8
0
 62
7
  6
CONTINUOUS
 10
178.0752018109
 20
111.5820959033
  0
VERTEX
  8
0
 62
7
  6
CONTINUOUS
 10
178.183572175
 20
111.5615787819
  0
VERTEX
  8
0
 62
7
  6
CONTINUOUS
 10
178.2943300329
 20
111.5450879835
  0
VERTEX
  8
0
 62
7
  6
CONTINUOUS
 10
178.4089326138
 20
111.5327281121
  0
VERTEX
  8
0
 62
7
  6
CONTINUOUS
 10
178.5288136054
 20
111.5248402643
  0
VERTEX
  8
0
 62
7
  6
CONTINUOUS
 10
178.6555220126
 20
111.5220280761
  0
SEQEND
  0
LINE
  8
0
 62
7
  6
CONTINUOUS
 10
169.6555219242
 20
130.6781369377
 11
169.6555219242
 21
114.8857027595
  0
LINE
  8
0
 62
7
  6
CONTINUOUS
 10
170.4555219242
 20
132.0295110719
 11
170.4555219242
 21
133.5601276178
  0
LINE
  8
0
 62
7
  6
CONTINUOUS
 10
170.7555219242
 20
114.8857034419
 11
170.7555219242
 21
130.6781369377
  0
LINE
  8
0
 62
7
  6
CONTINUOUS
 10
175.5555219242
 20
130.6781369377
 11
175.5555219242
 21
114.885704009
  0
LINE
  8
0
 62
7
  6
CONTINUOUS
 10
175.8555219242
 20
133.5601276178
 11
175.8555219242
 21
132.0295110719
  0
LINE
  8
0
 62
7
  6
CONTINUOUS
 10
176.6555219242
 20
130.6781369377
 11
176.6555219242
 21
114.8857027595
  0
LINE
  8
0
 62
7
  6
CONTINUOUS
 10
175.7866414089
 20
131.664796793
 11
175.7001710064
 21
131.4440369233
  0
LINE
  8
0
 62
7
  6
CONTINUOUS
 10
176.7244024396
 20
131.0428512166
 11
179.3348577697
 21
137.7073718084
  0
POLYLINE
  8
0
 62
7
  6
CONTINUOUS
 66
1
 70
0
  0
VERTEX
  8
0
 62
7
  6
CONTINUOUS
 10
218.4555219081
 20
111.5220280761
  0
VERTEX
  8
0
 62
7
  6
CONTINUOUS
 10
218.58091279
 20
111.5248333591
  0
VERTEX
  8
0
 62
7
  6
CONTINUOUS
 10
218.7001194386
 20
111.5326855891
  0
VERTEX
  8
0
 62
7
  6
CONTINUOUS
 10
218.8144515643
 20
111.5449691624
  0
VERTEX
  8
0
 62
7
  6
CONTINUOUS
 10
218.9252290586
 20
111.5613506766
  0
VERTEX
  8
0
 62
7
  6
CONTINUOUS
 10
219.0337909907
 20
111.5817464408
  0
VERTEX
  8
0
 62
7
  6
CONTINUOUS
 10
219.1412870372
 20
111.6062599257
  0
VERTEX
  8
0
 62
7
  6
CONTINUOUS
 10
219.2477544492
 20
111.6348933429
  0
VERTEX
  8
0
 62
7
  6
CONTINUOUS
 10
219.3528761901
 20
111.6675332516
  0
VERTEX
  8
0
 62
7
  6
CONTINUOUS
 10
219.4563370741
 20
111.7040113194
  0
VERTEX
  8
0
 62
7
  6
CONTINUOUS
 10
219.5579807658
 20
111.7441981154
  0
VERTEX
  8
0
 62
7
  6
CONTINUOUS
 10
219.6576815075
 20
111.787955287
  0
VERTEX
  8
0
 62
7
  6
CONTINUOUS
 10
219.7553337148
 20
111.8351550888
  0
VERTEX
  8
0
 62
7
  6
CONTINUOUS
 10
219.8511972266
 20
111.8858669346
  0
VERTEX
  8
0
 62
7
  6
CONTINUOUS
 10
219.9453975995
 20
111.9401097858
  0
VERTEX
  8
0
 62
7
  6
CONTINUOUS
 10
220.0377274972
 20
111.9977448998
  0
VERTEX
  8
0
 62
7
  6
CONTINUOUS
 10
220.1277942149
 20
112.0584979182
  0
VERTEX
  8
0
 62
7
  6
CONTINUOUS
 10
220.2150346993
 20
112.1218830042
  0
VERTEX
  8
0
 62
7
  6
CONTINUOUS
 10
220.2993392794
 20
112.1876694561
  0
VERTEX
  8
0
 62
7
  6
CONTINUOUS
 10
220.3808867861
 20
112.2558674637
  0
VERTEX
  8
0
 62
7
  6
CONTINUOUS
 10
220.4597379475
 20
112.3264200945
  0
VERTEX
  8
0
 62
7
  6
CONTINUOUS
 10
220.5358759123
 20
112.3992061566
  0
VERTEX
  8
0
 62
7
  6
CONTINUOUS
 10
220.6093697175
 20
112.4741964381
  0
VERTEX
  8
0
 62
7
  6
CONTINUOUS
 10
220.6802124427
 20
112.5512729847
  0
VERTEX
  8
0
 62
7
  6
CONTINUOUS
 10
220.7481340579
 20
112.630012047
  0
VERTEX
  8
0
 62
7
  6
CONTINUOUS
 10
220.8136565503
 20
112.7109209414
  0
VERTEX
  8
0
 62
7
  6
CONTINUOUS
 10
220.8783628161
 20
112.7961217698
  0
VERTEX
  8
0
 62
7
  6
CONTINUOUS
 10
220.942518237
 20
112.8865027722
  0
VERTEX
  8
0
 62
7
  6
CONTINUOUS
 10
221.005031443
 20
112.9810623566
  0
VERTEX
  8
0
 62
7
  6
CONTINUOUS
 10
221.0648183231
 20
113.0784412203
  0
VERTEX
  8
0
 62
7
  6
CONTINUOUS
 10
221.1210218137
 20
113.1772478277
  0
VERTEX
  8
0
 62
7
  6
CONTINUOUS
 10
221.1730837469
 20
113.2762112357
  0
VERTEX
  8
0
 62
7
  6
CONTINUOUS
 10
221.2206397482
 20
113.3740604501
  0
VERTEX
  8
0
 62
7
  6
CONTINUOUS
 10
221.2634662766
 20
113.4694845977
  0
VERTEX
  8
0
 62
7
  6
CONTINUOUS
 10
221.3023524435
 20
113.5633759676
  0
VERTEX
  8
0
 62
7
  6
CONTINUOUS
 10
221.3386025813
 20
113.6584471625
  0
VERTEX
  8
0
 62
7
  6
CONTINUOUS
 10
221.372367594
 20
113.7551356678
  0
VERTEX
  8
0
 62
7
  6
CONTINUOUS
 10
221.4033555302
 20
113.8526865597
  0
VERTEX
  8
0
 62
7
  6
CONTINUOUS
 10
221.4315076358
 20
113.9508892151
  0
VERTEX
  8
0
 62
7
  6
CONTINUOUS
 10
221.4568284107
 20
114.0498169648
  0
VERTEX
  8
0
 62
7
  6
CONTINUOUS
 10
221.4793137022
 20
114.1495376107
  0
VERTEX
  8
0
 62
7
  6
CONTINUOUS
 10
221.4989238419
 20
114.2499145946
  0
VERTEX
  8
0
 62
7
  6
CONTINUOUS
 10
221.5155957714
 20
114.3506138553
  0
VERTEX
  8
0
 62
7
  6
CONTINUOUS
 10
221.5293685439
 20
114.4517885473
  0
VERTEX
  8
0
 62
7
  6
CONTINUOUS
 10
221.5403494587
 20
114.5545948944
  0
VERTEX
  8
0
 62
7
  6
CONTINUOUS
 10
221.5485174819
 20
114.6603112776
  0
VERTEX
  8
0
 62
7
  6
CONTINUOUS
 10
221.5536898335
 20
114.7702333214
  0
VERTEX
  8
0
 62
7
  6
CONTINUOUS
 10
221.5555219242
 20
114.8857034416
  0
SEQEND
  0
POLYLINE
  8
0
 62
7
  6
CONTINUOUS
 66
1
 70
0
  0
VERTEX
  8
0
 62
7
  6
CONTINUOUS
 10
193.0555219081
 20
111.5220280761
  0
VERTEX
  8
0
 62
7
  6
CONTINUOUS
 10
193.18091279
 20
111.5248333591
  0
VERTEX
  8
0
 62
7
  6
CONTINUOUS
 10
193.3001194386
 20
111.5326855891
  0
VERTEX
  8
0
 62
7
  6
CONTINUOUS
 10
193.4144515643
 20
111.5449691624
  0
VERTEX
  8
0
 62
7
  6
CONTINUOUS
 10
193.5252290586
 20
111.5613506766
  0
VERTEX
  8
0
 62
7
  6
CONTINUOUS
 10
193.6337909907
 20
111.5817464408
  0
VERTEX
  8
0
 62
7
  6
CONTINUOUS
 10
193.7412870373
 20
111.6062599257
  0
VERTEX
  8
0
 62
7
  6
CONTINUOUS
 10
193.8477544492
 20
111.6348933429
  0
VERTEX
  8
0
 62
7
  6
CONTINUOUS
 10
193.9528761901
 20
111.6675332516
  0
VERTEX
  8
0
 62
7
  6
CONTINUOUS
 10
194.0563370741
 20
111.7040113195
  0
VERTEX
  8
0
 62
7
  6
CONTINUOUS
 10
194.1579807659
 20
111.7441981155
  0
VERTEX
  8
0
 62
7
  6
CONTINUOUS
 10
194.2576815076
 20
111.787955287
  0
VERTEX
  8
0
 62
7
  6
CONTINUOUS
 10
194.3553337149
 20
111.8351550888
  0
VERTEX
  8
0
 62
7
  6
CONTINUOUS
 10
194.4511972267
 20
111.8858669346
  0
VERTEX
  8
0
 62
7
  6
CONTINUOUS
 10
194.5453975996
 20
111.9401097859
  0
VERTEX
  8
0
 62
7
  6
CONTINUOUS
 10
194.6377274973
 20
111.9977448998
  0
VERTEX
  8
0
 62
7
  6
CONTINUOUS
 10
194.7277942149
 20
112.0584979182
  0
VERTEX
  8
0
 62
7
  6
CONTINUOUS
 10
194.8150346993
 20
112.1218830042
  0
VERTEX
  8
0
 62
7
  6
CONTINUOUS
 10
194.8993392794
 20
112.1876694562
  0
VERTEX
  8
0
 62
7
  6
CONTINUOUS
 10
194.9808867861
 20
112.2558674637
  0
VERTEX
  8
0
 62
7
  6
CONTINUOUS
 10
195.0597379476
 20
112.3264200945
  0
VERTEX
  8
0
 62
7
  6
CONTINUOUS
 10
195.1358759123
 20
112.3992061566
  0
VERTEX
  8
0
 62
7
  6
CONTINUOUS
 10
195.2093697176
 20
112.4741964381
  0
VERTEX
  8
0
 62
7
  6
CONTINUOUS
 10
195.2802124428
 20
112.5512729847
  0
VERTEX
  8
0
 62
7
  6
CONTINUOUS
 10
195.348134058
 20
112.630012047
  0
VERTEX
  8
0
 62
7
  6
CONTINUOUS
 10
195.4136565504
 20
112.7109209415
  0
VERTEX
  8
0
 62
7
  6
CONTINUOUS
 10
195.4783628161
 20
112.7961217699
  0
VERTEX
  8
0
 62
7
  6
CONTINUOUS
 10
195.542518237
 20
112.8865027723
  0
VERTEX
  8
0
 62
7
  6
CONTINUOUS
 10
195.605031443
 20
112.9810623566
  0
VERTEX
  8
0
 62
7
  6
CONTINUOUS
 10
195.6648183232
 20
113.0784412203
  0
VERTEX
  8
0
 62
7
  6
CONTINUOUS
 10
195.7210218137
 20
113.1772478277
  0
VERTEX
  8
0
 62
7
  6
CONTINUOUS
 10
195.773083747
 20
113.2762112358
  0
VERTEX
  8
0
 62
7
  6
CONTINUOUS
 10
195.8206397483
 20
113.3740604501
  0
VERTEX
  8
0
 62
7
  6
CONTINUOUS
 10
195.8634662767
 20
113.4694845978
  0
VERTEX
  8
0
 62
7
  6
CONTINUOUS
 10
195.9023524436
 20
113.5633759677
  0
VERTEX
  8
0
 62
7
  6
CONTINUOUS
 10
195.9386025814
 20
113.6584471626
  0
VERTEX
  8
0
 62
7
  6
CONTINUOUS
 10
195.972367594
 20
113.7551356679
  0
VERTEX
  8
0
 62
7
  6
CONTINUOUS
 10
196.0033555303
 20
113.8526865598
  0
VERTEX
  8
0
 62
7
  6
CONTINUOUS
 10
196.0315076359
 20
113.9508892152
  0
VERTEX
  8
0
 62
7
  6
CONTINUOUS
 10
196.0568284107
 20
114.0498169649
  0
VERTEX
  8
0
 62
7
  6
CONTINUOUS
 10
196.0793137022
 20
114.1495376108
  0
VERTEX
  8
0
 62
7
  6
CONTINUOUS
 10
196.0989238419
 20
114.2499145947
  0
VERTEX
  8
0
 62
7
  6
CONTINUOUS
 10
196.1155957715
 20
114.3506138554
  0
VERTEX
  8
0
 62
7
  6
CONTINUOUS
 10
196.1293685439
 20
114.4517885474
  0
VERTEX
  8
0
 62
7
  6
CONTINUOUS
 10
196.1403494587
 20
114.5545948945
  0
VERTEX
  8
0
 62
7
  6
CONTINUOUS
 10
196.1485174819
 20
114.6603112777
  0
VERTEX
  8
0
 62
7
  6
CONTINUOUS
 10
196.1536898335
 20
114.7702333215
  0
VERTEX
  8
0
 62
7
  6
CONTINUOUS
 10
196.1555219242
 20
114.8857034418
  0
SEQEND
  0
POLYLINE
  8
0
 62
7
  6
CONTINUOUS
 66
1
 70
0
  0
VERTEX
  8
0
 62
7
  6
CONTINUOUS
 10
167.6555219081
 20
111.5220280761
  0
VERTEX
  8
0
 62
7
  6
CONTINUOUS
 10
167.78091279
 20
111.5248333591
  0
VERTEX
  8
0
 62
7
  6
CONTINUOUS
 10
167.9001194386
 20
111.5326855891
  0
VERTEX
  8
0
 62
7
  6
CONTINUOUS
 10
168.0144515644
 20
111.5449691624
  0
VERTEX
  8
0
 62
7
  6
CONTINUOUS
 10
168.1252290586
 20
111.5613506766
  0
VERTEX
  8
0
 62
7
  6
CONTINUOUS
 10
168.2337909907
 20
111.5817464408
  0
VERTEX
  8
0
 62
7
  6
CONTINUOUS
 10
168.3412870373
 20
111.6062599257
  0
VERTEX
  8
0
 62
7
  6
CONTINUOUS
 10
168.4477544492
 20
111.6348933429
  0
VERTEX
  8
0
 62
7
  6
CONTINUOUS
 10
168.5528761901
 20
111.6675332516
  0
VERTEX
  8
0
 62
7
  6
CONTINUOUS
 10
168.6563370741
 20
111.7040113195
  0
VERTEX
  8
0
 62
7
  6
CONTINUOUS
 10
168.7579807659
 20
111.7441981155
  0
VERTEX
  8
0
 62
7
  6
CONTINUOUS
 10
168.8576815076
 20
111.787955287
  0
VERTEX
  8
0
 62
7
  6
CONTINUOUS
 10
168.9553337149
 20
111.8351550888
  0
VERTEX
  8
0
 62
7
  6
CONTINUOUS
 10
169.0511972267
 20
111.8858669346
  0
VERTEX
  8
0
 62
7
  6
CONTINUOUS
 10
169.1453975996
 20
111.9401097859
  0
VERTEX
  8
0
 62
7
  6
CONTINUOUS
 10
169.2377274973
 20
111.9977448998
  0
VERTEX
  8
0
 62
7
  6
CONTINUOUS
 10
169.327794215
 20
112.0584979183
  0
VERTEX
  8
0
 62
7
  6
CONTINUOUS
 10
169.4150346994
 20
112.1218830043
  0
VERTEX
  8
0
 62
7
  6
CONTINUOUS
 10
169.4993392795
 20
112.1876694562
  0
VERTEX
  8
0
 62
7
  6
CONTINUOUS
 10
169.5808867862
 20
112.2558674638
  0
VERTEX
  8
0
 62
7
  6
CONTINUOUS
 10
169.6597379476
 20
112.3264200945
  0
VERTEX
  8
0
 62
7
  6
CONTINUOUS
 10
169.7358759124
 20
112.3992061567
  0
VERTEX
  8
0
 62
7
  6
CONTINUOUS
 10
169.8093697176
 20
112.4741964382
  0
VERTEX
  8
0
 62
7
  6
CONTINUOUS
 10
169.8802124428
 20
112.5512729848
  0
VERTEX
  8
0
 62
7
  6
CONTINUOUS
 10
169.948134058
 20
112.6300120471
  0
VERTEX
  8
0
 62
7
  6
CONTINUOUS
 10
170.0136565504
 20
112.7109209416
  0
VERTEX
  8
0
 62
7
  6
CONTINUOUS
 10
170.0783628162
 20
112.7961217699
  0
VERTEX
  8
0
 62
7
  6
CONTINUOUS
 10
170.1425182371
 20
112.8865027724
  0
VERTEX
  8
0
 62
7
  6
CONTINUOUS
 10
170.205031443
 20
112.9810623567
  0
VERTEX
  8
0
 62
7
  6
CONTINUOUS
 10
170.2648183232
 20
113.0784412204
  0
VERTEX
  8
0
 62
7
  6
CONTINUOUS
 10
170.3210218137
 20
113.1772478278
  0
VERTEX
  8
0
 62
7
  6
CONTINUOUS
 10
170.373083747
 20
113.2762112359
  0
VERTEX
  8
0
 62
7
  6
CONTINUOUS
 10
170.4206397483
 20
113.3740604502
  0
VERTEX
  8
0
 62
7
  6
CONTINUOUS
 10
170.4634662767
 20
113.4694845979
  0
VERTEX
  8
0
 62
7
  6
CONTINUOUS
 10
170.5023524436
 20
113.5633759677
  0
VERTEX
  8
0
 62
7
  6
CONTINUOUS
 10
170.5386025814
 20
113.6584471627
  0
VERTEX
  8
0
 62
7
  6
CONTINUOUS
 10
170.5723675941
 20
113.755135668
  0
VERTEX
  8
0
 62
7
  6
CONTINUOUS
 10
170.6033555303
 20
113.8526865599
  0
VERTEX
  8
0
 62
7
  6
CONTINUOUS
 10
170.6315076359
 20
113.9508892153
  0
VERTEX
  8
0
 62
7
  6
CONTINUOUS
 10
170.6568284107
 20
114.049816965
  0
VERTEX
  8
0
 62
7
  6
CONTINUOUS
 10
170.6793137022
 20
114.1495376109
  0
VERTEX
  8
0
 62
7
  6
CONTINUOUS
 10
170.6989238419
 20
114.2499145948
  0
VERTEX
  8
0
 62
7
  6
CONTINUOUS
 10
170.7155957715
 20
114.3506138555
  0
VERTEX
  8
0
 62
7
  6
CONTINUOUS
 10
170.7293685439
 20
114.4517885475
  0
VERTEX
  8
0
 62
7
  6
CONTINUOUS
 10
170.7403494587
 20
114.5545948946
  0
VERTEX
  8
0
 62
7
  6
CONTINUOUS
 10
170.7485174819
 20
114.6603112778
  0
VERTEX
  8
0
 62
7
  6
CONTINUOUS
 10
170.7536898335
 20
114.7702333216
  0
VERTEX
  8
0
 62
7
  6
CONTINUOUS
 10
170.7555219242
 20
114.8857034419
  0
SEQEND
  0
POLYLINE
  8
0
 62
7
  6
CONTINUOUS
 66
1
 70
0
  0
VERTEX
  8
0
 62
7
  6
CONTINUOUS
 10
142.2555219081
 20
111.5220280761
  0
VERTEX
  8
0
 62
7
  6
CONTINUOUS
 10
142.38091279
 20
111.5248333591
  0
VERTEX
  8
0
 62
7
  6
CONTINUOUS
 10
142.5001194386
 20
111.5326855891
  0
VERTEX
  8
0
 62
7
  6
CONTINUOUS
 10
142.6144515643
 20
111.5449691624
  0
VERTEX
  8
0
 62
7
  6
CONTINUOUS
 10
142.7252290586
 20
111.5613506766
  0
VERTEX
  8
0
 62
7
  6
CONTINUOUS
 10
142.8337909907
 20
111.5817464408
  0
VERTEX
  8
0
 62
7
  6
CONTINUOUS
 10
142.9412870373
 20
111.6062599257
  0
VERTEX
  8
0
 62
7
  6
CONTINUOUS
 10
143.0477544492
 20
111.6348933429
  0
VERTEX
  8
0
 62
7
  6
CONTINUOUS
 10
143.1528761901
 20
111.6675332516
  0
VERTEX
  8
0
 62
7
  6
CONTINUOUS
 10
143.2563370741
 20
111.7040113195
  0
VERTEX
  8
0
 62
7
  6
CONTINUOUS
 10
143.3579807659
 20
111.7441981155
  0
VERTEX
  8
0
 62
7
  6
CONTINUOUS
 10
143.4576815076
 20
111.787955287
  0
VERTEX
  8
0
 62
7
  6
CONTINUOUS
 10
143.5553337149
 20
111.8351550888
  0
VERTEX
  8
0
 62
7
  6
CONTINUOUS
 10
143.6511972267
 20
111.8858669346
  0
VERTEX
  8
0
 62
7
  6
CONTINUOUS
 10
143.7453975996
 20
111.9401097859
  0
VERTEX
  8
0
 62
7
  6
CONTINUOUS
 10
143.8377274973
 20
111.9977448998
  0
VERTEX
  8
0
 62
7
  6
CONTINUOUS
 10
143.9277942149
 20
112.0584979182
  0
VERTEX
  8
0
 62
7
  6
CONTINUOUS
 10
144.0150346993
 20
112.1218830042
  0
VERTEX
  8
0
 62
7
  6
CONTINUOUS
 10
144.0993392794
 20
112.1876694562
  0
VERTEX
  8
0
 62
7
  6
CONTINUOUS
 10
144.1808867861
 20
112.2558674637
  0
VERTEX
  8
0
 62
7
  6
CONTINUOUS
 10
144.2597379476
 20
112.3264200945
  0
VERTEX
  8
0
 62
7
  6
CONTINUOUS
 10
144.3358759123
 20
112.3992061566
  0
VERTEX
  8
0
 62
7
  6
CONTINUOUS
 10
144.4093697176
 20
112.4741964381
  0
VERTEX
  8
0
 62
7
  6
CONTINUOUS
 10
144.4802124428
 20
112.5512729847
  0
VERTEX
  8
0
 62
7
  6
CONTINUOUS
 10
144.548134058
 20
112.630012047
  0
VERTEX
  8
0
 62
7
  6
CONTINUOUS
 10
144.6136565504
 20
112.7109209415
  0
VERTEX
  8
0
 62
7
  6
CONTINUOUS
 10
144.6783628161
 20
112.7961217699
  0
VERTEX
  8
0
 62
7
  6
CONTINUOUS
 10
144.742518237
 20
112.8865027723
  0
VERTEX
  8
0
 62
7
  6
CONTINUOUS
 10
144.805031443
 20
112.9810623566
  0
VERTEX
  8
0
 62
7
  6
CONTINUOUS
 10
144.8648183232
 20
113.0784412203
  0
VERTEX
  8
0
 62
7
  6
CONTINUOUS
 10
144.9210218137
 20
113.1772478277
  0
VERTEX
  8
0
 62
7
  6
CONTINUOUS
 10
144.973083747
 20
113.2762112358
  0
VERTEX
  8
0
 62
7
  6
CONTINUOUS
 10
145.0206397483
 20
113.3740604501
  0
VERTEX
  8
0
 62
7
  6
CONTINUOUS
 10
145.0634662767
 20
113.4694845978
  0
VERTEX
  8
0
 62
7
  6
CONTINUOUS
 10
145.1023524436
 20
113.5633759677
  0
VERTEX
  8
0
 62
7
  6
CONTINUOUS
 10
145.1386025814
 20
113.6584471626
  0
VERTEX
  8
0
 62
7
  6
CONTINUOUS
 10
145.172367594
 20
113.7551356679
  0
VERTEX
  8
0
 62
7
  6
CONTINUOUS
 10
145.2033555303
 20
113.8526865598
  0
VERTEX
  8
0
 62
7
  6
CONTINUOUS
 10
145.2315076359
 20
113.9508892152
  0
VERTEX
  8
0
 62
7
  6
CONTINUOUS
 10
145.2568284107
 20
114.0498169649
  0
VERTEX
  8
0
 62
7
  6
CONTINUOUS
 10
145.2793137022
 20
114.1495376108
  0
VERTEX
  8
0
 62
7
  6
CONTINUOUS
 10
145.2989238419
 20
114.2499145947
  0
VERTEX
  8
0
 62
7
  6
CONTINUOUS
 10
145.3155957715
 20
114.3506138554
  0
VERTEX
  8
0
 62
7
  6
CONTINUOUS
 10
145.3293685439
 20
114.4517885474
  0
VERTEX
  8
0
 62
7
  6
CONTINUOUS
 10
145.3403494587
 20
114.5545948945
  0
VERTEX
  8
0
 62
7
  6
CONTINUOUS
 10
145.3485174819
 20
114.6603112777
  0
VERTEX
  8
0
 62
7
  6
CONTINUOUS
 10
145.3536898335
 20
114.7702333215
  0
VERTEX
  8
0
 62
7
  6
CONTINUOUS
 10
145.3555219242
 20
114.8857034418
  0
SEQEND
  0
POLYLINE
  8
0
 62
7
  6
CONTINUOUS
 66
1
 70
0
  0
VERTEX
  8
0
 62
7
  6
CONTINUOUS
 10
116.8555219081
 20
111.5220280761
  0
VERTEX
  8
0
 62
7
  6
CONTINUOUS
 10
116.98091279
 20
111.5248333591
  0
VERTEX
  8
0
 62
7
  6
CONTINUOUS
 10
117.1001194386
 20
111.5326855891
  0
VERTEX
  8
0
 62
7
  6
CONTINUOUS
 10
117.2144515643
 20
111.5449691624
  0
VERTEX
  8
0
 62
7
  6
CONTINUOUS
 10
117.3252290586
 20
111.5613506766
  0
VERTEX
  8
0
 62
7
  6
CONTINUOUS
 10
117.4337909907
 20
111.5817464408
  0
VERTEX
  8
0
 62
7
  6
CONTINUOUS
 10
117.5412870373
 20
111.6062599257
  0
VERTEX
  8
0
 62
7
  6
CONTINUOUS
 10
117.6477544492
 20
111.6348933429
  0
VERTEX
  8
0
 62
7
  6
CONTINUOUS
 10
117.7528761901
 20
111.6675332516
  0
VERTEX
  8
0
 62
7
  6
CONTINUOUS
 10
117.8563370741
 20
111.7040113195
  0
VERTEX
  8
0
 62
7
  6
CONTINUOUS
 10
117.9579807659
 20
111.7441981155
  0
VERTEX
  8
0
 62
7
  6
CONTINUOUS
 10
118.0576815076
 20
111.787955287
  0
VERTEX
  8
0
 62
7
  6
CONTINUOUS
 10
118.1553337149
 20
111.8351550888
  0
VERTEX
  8
0
 62
7
  6
CONTINUOUS
 10
118.2511972267
 20
111.8858669346
  0
VERTEX
  8
0
 62
7
  6
CONTINUOUS
 10
118.3453975996
 20
111.9401097859
  0
VERTEX
  8
0
 62
7
  6
CONTINUOUS
 10
118.4377274973
 20
111.9977448998
  0
VERTEX
  8
0
 62
7
  6
CONTINUOUS
 10
118.527794215
 20
112.0584979182
  0
VERTEX
  8
0
 62
7
  6
CONTINUOUS
 10
118.6150346994
 20
112.1218830042
  0
VERTEX
  8
0
 62
7
  6
CONTINUOUS
 10
118.6993392794
 20
112.1876694562
  0
VERTEX
  8
0
 62
7
  6
CONTINUOUS
 10
118.7808867861
 20
112.2558674638
  0
VERTEX
  8
0
 62
7
  6
CONTINUOUS
 10
118.8597379476
 20
112.3264200945
  0
VERTEX
  8
0
 62
7
  6
CONTINUOUS
 10
118.9358759123
 20
112.3992061566
  0
VERTEX
  8
0
 62
7
  6
CONTINUOUS
 10
119.0093697176
 20
112.4741964382
  0
VERTEX
  8
0
 62
7
  6
CONTINUOUS
 10
119.0802124428
 20
112.5512729847
  0
VERTEX
  8
0
 62
7
  6
CONTINUOUS
 10
119.148134058
 20
112.630012047
  0
VERTEX
  8
0
 62
7
  6
CONTINUOUS
 10
119.2136565504
 20
112.7109209415
  0
VERTEX
  8
0
 62
7
  6
CONTINUOUS
 10
119.2783628161
 20
112.7961217699
  0
VERTEX
  8
0
 62
7
  6
CONTINUOUS
 10
119.3425182371
 20
112.8865027723
  0
VERTEX
  8
0
 62
7
  6
CONTINUOUS
 10
119.405031443
 20
112.9810623566
  0
VERTEX
  8
0
 62
7
  6
CONTINUOUS
 10
119.4648183232
 20
113.0784412203
  0
VERTEX
  8
0
 62
7
  6
CONTINUOUS
 10
119.5210218137
 20
113.1772478278
  0
VERTEX
  8
0
 62
7
  6
CONTINUOUS
 10
119.573083747
 20
113.2762112358
  0
VERTEX
  8
0
 62
7
  6
CONTINUOUS
 10
119.6206397483
 20
113.3740604502
  0
VERTEX
  8
0
 62
7
  6
CONTINUOUS
 10
119.6634662767
 20
113.4694845979
  0
VERTEX
  8
0
 62
7
  6
CONTINUOUS
 10
119.7023524436
 20
113.5633759677
  0
VERTEX
  8
0
 62
7
  6
CONTINUOUS
 10
119.7386025814
 20
113.6584471626
  0
VERTEX
  8
0
 62
7
  6
CONTINUOUS
 10
119.772367594
 20
113.7551356679
  0
VERTEX
  8
0
 62
7
  6
CONTINUOUS
 10
119.8033555303
 20
113.8526865598
  0
VERTEX
  8
0
 62
7
  6
CONTINUOUS
 10
119.8315076359
 20
113.9508892152
  0
VERTEX
  8
0
 62
7
  6
CONTINUOUS
 10
119.8568284107
 20
114.0498169649
  0
VERTEX
  8
0
 62
7
  6
CONTINUOUS
 10
119.8793137022
 20
114.1495376109
  0
VERTEX
  8
0
 62
7
  6
CONTINUOUS
 10
119.8989238419
 20
114.2499145947
  0
VERTEX
  8
0
 62
7
  6
CONTINUOUS
 10
119.9155957715
 20
114.3506138555
  0
VERTEX
  8
0
 62
7
  6
CONTINUOUS
 10
119.9293685439
 20
114.4517885474
  0
VERTEX
  8
0
 62
7
  6
CONTINUOUS
 10
119.9403494587
 20
114.5545948945
  0
VERTEX
  8
0
 62
7
  6
CONTINUOUS
 10
119.9485174819
 20
114.6603112777
  0
VERTEX
  8
0
 62
7
  6
CONTINUOUS
 10
119.9536898335
 20
114.7702333215
  0
VERTEX
  8
0
 62
7
  6
CONTINUOUS
 10
119.9555219242
 20
114.8857034418
  0
SEQEND
  0
LINE
  8
0
 62
7
  6
CONTINUOUS
 10
331.3555219242
 20
109.0101276178
 11
318.3555219242
 21
109.0101276178
  0
LINE
  8
0
 62
7
  6
CONTINUOUS
 10
307.3555219242
 20
109.0101276178
 11
292.9555219242
 21
109.0101276178
  0
LINE
  8
0
 62
7
  6
CONTINUOUS
 10
281.9555219242
 20
109.0101276178
 11
267.5555219242
 21
109.0101276178
  0
LINE
  8
0
 62
7
  6
CONTINUOUS
 10
256.5555219242
 20
109.0101276178
 11
242.1555219242
 21
109.0101276178
  0
LINE
  8
0
 62
7
  6
CONTINUOUS
 10
231.1555219242
 20
109.0101276178
 11
216.7555219242
 21
109.0101276178
  0
LINE
  8
0
 62
7
  6
CONTINUOUS
 10
205.7555219242
 20
109.0101276178
 11
191.3555219242
 21
109.0101276178
  0
LINE
  8
0
 62
7
  6
CONTINUOUS
 10
180.3555219242
 20
109.0101276178
 11
165.9555219242
 21
109.0101276178
  0
LINE
  8
0
 62
7
  6
CONTINUOUS
 10
154.9555219242
 20
109.0101276178
 11
140.5555219242
 21
109.0101276178
  0
LINE
  8
0
 62
7
  6
CONTINUOUS
 10
129.5555219242
 20
109.0101276178
 11
115.1555219242
 21
109.0101276178
  0
LINE
  8
0
 62
7
  6
CONTINUOUS
 10
104.1555219242
 20
109.0101276178
 11
89.7555219242
 21
109.0101276178
  0
LINE
  8
0
 62
7
  6
CONTINUOUS
 10
78.7555219242
 20
109.0101276178
 11
64.3555219242
 21
109.0101276178
  0
LINE
  8
0
 62
7
  6
CONTINUOUS
 10
53.3555219242
 20
109.0101276178
 11
38.9555219242
 21
109.0101276178
  0
LINE
  8
0
 62
7
  6
CONTINUOUS
 10
27.6555219242
 20
109.0101276178
 11
29.6555219242
 21
109.0101276178
  0
LINE
  8
0
 62
7
  6
CONTINUOUS
 10
223.8555219242
 20
110.1101276178
 11
216.7555219242
 21
110.1101276178
  0
LINE
  8
0
 62
7
  6
CONTINUOUS
 10
205.7555219242
 20
110.1101276178
 11
191.3555219242
 21
110.1101276178
  0
LINE
  8
0
 62
7
  6
CONTINUOUS
 10
180.3555219242
 20
110.1101276178
 11
165.9555219242
 21
110.1101276178
  0
LINE
  8
0
 62
7
  6
CONTINUOUS
 10
154.9555219242
 20
110.1101276178
 11
140.5555219242
 21
110.1101276178
  0
LINE
  8
0
 62
7
  6
CONTINUOUS
 10
129.5555219242
 20
110.1101276178
 11
115.1555219242
 21
110.1101276178
  0
LINE
  8
0
 62
7
  6
CONTINUOUS
 10
104.1555219242
 20
110.1101276178
 11
89.7555219242
 21
110.1101276178
  0
LINE
  8
0
 62
7
  6
CONTINUOUS
 10
84.3555591538
 20
111.5220280761
 11
91.4555219081
 21
111.5220280761
  0
LINE
  8
0
 62
7
  6
CONTINUOUS
 10
102.4555220126
 20
111.5220280761
 11
116.8555219081
 21
111.5220280761
  0
LINE
  8
0
 62
7
  6
CONTINUOUS
 10
127.8555220126
 20
111.5220280761
 11
142.2555219081
 21
111.5220280761
  0
LINE
  8
0
 62
7
  6
CONTINUOUS
 10
153.2555220126
 20
111.5220280761
 11
167.6555219081
 21
111.5220280761
  0
LINE
  8
0
 62
7
  6
CONTINUOUS
 10
178.6555220126
 20
111.5220280761
 11
193.0555219081
 21
111.5220280761
  0
LINE
  8
0
 62
7
  6
CONTINUOUS
 10
204.0555220126
 20
111.5220280761
 11
218.4555219081
 21
111.5220280761
  0
LINE
  8
DEFAULT_1
 62
2
  6
CENTER
 10
184.7555219242
 20
111.8101276178
 11
181.5056219242
 21
111.8101276178
  0
LINE
  8
0
 62
2
  6
CONTINUOUS
 10
180.5555219242
 20
111.8101276178
 11
178.4555219242
 21
111.8101276178
  0
LINE
  8
DEFAULT_1
 62
2
  6
CENTER
 10
174.2555219242
 20
111.8101276178
 11
177.5054219242
 21
111.8101276178
  0
LINE
  8
0
 62
7
  6
CONTINUOUS
 10
329.1578048046
 20
112.5001276133
 11
331.3555219242
 21
112.5001276178
  0
LINE
  8
0
 62
7
  6
CONTINUOUS
 10
166.9761860788
 20
137.7073718084
 11
169.5866414089
 21
131.0428512166
  0
LINE
  8
0
 62
7
  6
CONTINUOUS
 10
179.3555219242
 20
142.5101276178
 11
179.3555219242
 21
137.8167860921
  0
LINE
  8
DEFAULT_1
 62
2
  6
CENTER
 10
179.5055219242
 20
117.0601276178
 11
179.5055219242
 21
113.8102276178
  0
LINE
  8
0
 62
2
  6
CONTINUOUS
 10
179.5055219242
 20
112.8601276178
 11
179.5055219242
 21
110.7601276178
  0
LINE
  8
DEFAULT_1
 62
2
  6
CENTER
 10
179.5055219242
 20
106.5601276178
 11
179.5055219242
 21
109.8100276178
  0
LINE
  8
0
 62
7
  6
CONTINUOUS
 10
179.6555219242
 20
81.1101276178
 11
179.6555219242
 21
85.8034728775
  0
LINE
  8
0
 62
7
  6
CONTINUOUS
 10
182.3555219242
 20
107.0101276178
 11
182.3555219242
 21
92.9425937733
  0
LINE
  8
0
 62
7
  6
CONTINUOUS
 10
183.1555219242
 20
90.0601276178
 11
183.1555219242
 21
91.5912040104
  0
LINE
  8
0
 62
7
  6
CONTINUOUS
 10
183.4555219242
 20
92.9425937733
 11
183.4555219242
 21
107.0101276178
  0
LINE
  8
0
 62
7
  6
CONTINUOUS
 10
188.2555219242
 20
107.0101276178
 11
188.2555219242
 21
92.9425937733
  0
POLYLINE
  8
0
 62
7
  6
CONTINUOUS
 66
1
 70
0
  0
VERTEX
  8
0
 62
7
  6
CONTINUOUS
 10
91.4555219081
 20
111.5220280761
  0
VERTEX
  8
0
 62
7
  6
CONTINUOUS
 10
91.58091279
 20
111.5248333591
  0
VERTEX
  8
0
 62
7
  6
CONTINUOUS
 10
91.7001194386
 20
111.5326855891
  0
VERTEX
  8
0
 62
7
  6
CONTINUOUS
 10
91.8144515643
 20
111.5449691624
  0
VERTEX
  8
0
 62
7
  6
CONTINUOUS
 10
91.9252290586
 20
111.5613506766
  0
VERTEX
  8
0
 62
7
  6
CONTINUOUS
 10
92.0337909907
 20
111.5817464408
  0
VERTEX
  8
0
 62
7
  6
CONTINUOUS
 10
92.1412870373
 20
111.6062599257
  0
VERTEX
  8
0
 62
7
  6
CONTINUOUS
 10
92.2477544492
 20
111.6348933429
  0
VERTEX
  8
0
 62
7
  6
CONTINUOUS
 10
92.3528761901
 20
111.6675332516
  0
VERTEX
  8
0
 62
7
  6
CONTINUOUS
 10
92.4563370741
 20
111.7040113195
  0
VERTEX
  8
0
 62
7
  6
CONTINUOUS
 10
92.5579807659
 20
111.7441981155
  0
VERTEX
  8
0
 62
7
  6
CONTINUOUS
 10
92.6576815076
 20
111.787955287
  0
VERTEX
  8
0
 62
7
  6
CONTINUOUS
 10
92.7553337149
 20
111.8351550888
  0
VERTEX
  8
0
 62
7
  6
CONTINUOUS
 10
92.8511972267
 20
111.8858669346
  0
VERTEX
  8
0
 62
7
  6
CONTINUOUS
 10
92.9453975996
 20
111.9401097859
  0
VERTEX
  8
0
 62
7
  6
CONTINUOUS
 10
93.0377274973
 20
111.9977448998
  0
VERTEX
  8
0
 62
7
  6
CONTINUOUS
 10
93.127794215
 20
112.0584979183
  0
VERTEX
  8
0
 62
7
  6
CONTINUOUS
 10
93.2150346994
 20
112.1218830042
  0
VERTEX
  8
0
 62
7
  6
CONTINUOUS
 10
93.2993392795
 20
112.1876694562
  0
VERTEX
  8
0
 62
7
  6
CONTINUOUS
 10
93.3808867861
 20
112.2558674638
  0
VERTEX
  8
0
 62
7
  6
CONTINUOUS
 10
93.4597379476
 20
112.3264200945
  0
VERTEX
  8
0
 62
7
  6
CONTINUOUS
 10
93.5358759123
 20
112.3992061567
  0
VERTEX
  8
0
 62
7
  6
CONTINUOUS
 10
93.6093697176
 20
112.4741964382
  0
VERTEX
  8
0
 62
7
  6
CONTINUOUS
 10
93.6802124428
 20
112.5512729847
  0
VERTEX
  8
0
 62
7
  6
CONTINUOUS
 10
93.748134058
 20
112.6300120471
  0
VERTEX
  8
0
 62
7
  6
CONTINUOUS
 10
93.8136565504
 20
112.7109209415
  0
VERTEX
  8
0
 62
7
  6
CONTINUOUS
 10
93.8783628161
 20
112.7961217699
  0
VERTEX
  8
0
 62
7
  6
CONTINUOUS
 10
93.9425182371
 20
112.8865027723
  0
VERTEX
  8
0
 62
7
  6
CONTINUOUS
 10
94.005031443
 20
112.9810623567
  0
VERTEX
  8
0
 62
7
  6
CONTINUOUS
 10
94.0648183232
 20
113.0784412204
  0
VERTEX
  8
0
 62
7
  6
CONTINUOUS
 10
94.1210218137
 20
113.1772478278
  0
VERTEX
  8
0
 62
7
  6
CONTINUOUS
 10
94.173083747
 20
113.2762112358
  0
VERTEX
  8
0
 62
7
  6
CONTINUOUS
 10
94.2206397483
 20
113.3740604502
  0
VERTEX
  8
0
 62
7
  6
CONTINUOUS
 10
94.2634662767
 20
113.4694845979
  0
VERTEX
  8
0
 62
7
  6
CONTINUOUS
 10
94.3023524436
 20
113.5633759677
  0
VERTEX
  8
0
 62
7
  6
CONTINUOUS
 10
94.3386025814
 20
113.6584471626
  0
VERTEX
  8
0
 62
7
  6
CONTINUOUS
 10
94.372367594
 20
113.7551356679
  0
VERTEX
  8
0
 62
7
  6
CONTINUOUS
 10
94.4033555303
 20
113.8526865598
  0
VERTEX
  8
0
 62
7
  6
CONTINUOUS
 10
94.4315076359
 20
113.9508892152
  0
VERTEX
  8
0
 62
7
  6
CONTINUOUS
 10
94.4568284107
 20
114.0498169649
  0
VERTEX
  8
0
 62
7
  6
CONTINUOUS
 10
94.4793137022
 20
114.1495376109
  0
VERTEX
  8
0
 62
7
  6
CONTINUOUS
 10
94.4989238419
 20
114.2499145948
  0
VERTEX
  8
0
 62
7
  6
CONTINUOUS
 10
94.5155957715
 20
114.3506138555
  0
VERTEX
  8
0
 62
7
  6
CONTINUOUS
 10
94.5293685439
 20
114.4517885475
  0
VERTEX
  8
0
 62
7
  6
CONTINUOUS
 10
94.5403494587
 20
114.5545948945
  0
VERTEX
  8
0
 62
7
  6
CONTINUOUS
 10
94.5485174819
 20
114.6603112777
  0
VERTEX
  8
0
 62
7
  6
CONTINUOUS
 10
94.5536898335
 20
114.7702333215
  0
VERTEX
  8
0
 62
7
  6
CONTINUOUS
 10
94.5555219242
 20
114.8857034419
  0
SEQEND
  0
LINE
  8
0
 62
7
  6
CONTINUOUS
 10
320.0555219242
 20
114.4354676516
 11
305.6555219242
 21
114.4354676516
  0
LINE
  8
0
 62
7
  6
CONTINUOUS
 10
294.6555219242
 20
114.4354676516
 11
280.2555219242
 21
114.4354676516
  0
LINE
  8
0
 62
7
  6
CONTINUOUS
 10
269.2555219242
 20
114.4354676516
 11
254.8555219242
 21
114.4354676516
  0
LINE
  8
0
 62
7
  6
CONTINUOUS
 10
243.8555219242
 20
114.4354676516
 11
229.4555219242
 21
114.4354676516
  0
LINE
  8
0
 62
7
  6
CONTINUOUS
 10
218.4555219242
 20
114.4354676516
 11
204.0555219242
 21
114.4354676516
  0
LINE
  8
0
 62
7
  6
CONTINUOUS
 10
193.0555219242
 20
114.4354676516
 11
178.6555219242
 21
114.4354676516
  0
LINE
  8
0
 62
7
  6
CONTINUOUS
 10
167.6555219242
 20
114.4354676516
 11
153.2555219242
 21
114.4354676516
  0
LINE
  8
0
 62
7
  6
CONTINUOUS
 10
142.2555219242
 20
114.4354676516
 11
127.8555219242
 21
114.4354676516
  0
LINE
  8
0
 62
7
  6
CONTINUOUS
 10
116.8555219242
 20
114.4354676516
 11
102.4555219242
 21
114.4354676516
  0
LINE
  8
0
 62
7
  6
CONTINUOUS
 10
91.4555219242
 20
114.4354676516
 11
77.0555219242
 21
114.4354676516
  0
LINE
  8
0
 62
7
  6
CONTINUOUS
 10
66.0555219242
 20
114.4354676516
 11
51.6555219242
 21
114.4354676516
  0
LINE
  8
0
 62
7
  6
CONTINUOUS
 10
40.6555219242
 20
114.4354676516
 11
27.6555219242
 21
114.4354676516
  0
LINE
  8
0
 62
7
  6
CONTINUOUS
 10
329.3555219242
 20
114.4354676516
 11
331.3555219242
 21
114.4354676516
  0
POLYLINE
  8
0
 62
7
  6
CONTINUOUS
 66
1
 70
0
  0
VERTEX
  8
0
 62
7
  6
CONTINUOUS
 10
331.3555219242
 20
112.5001276178
  0
VERTEX
  8
0
 62
7
  6
CONTINUOUS
 10
331.3783479704
 20
112.4996147218
  0
VERTEX
  8
0
 62
7
  6
CONTINUOUS
 10
331.4007836022
 20
112.4981021921
  0
VERTEX
  8
0
 62
7
  6
CONTINUOUS
 10
331.4227145183
 20
112.4956319251
  0
VERTEX
  8
0
 62
7
  6
CONTINUOUS
 10
331.4440356352
 20
112.4922489464
  0
VERTEX
  8
0
 62
7
  6
CONTINUOUS
 10
331.4646513419
 20
112.4880008514
  0
VERTEX
  8
0
 62
7
  6
CONTINUOUS
 10
331.4844755394
 20
112.4829372329
  0
VERTEX
  8
0
 62
7
  6
CONTINUOUS
 10
331.5034314791
 20
112.4771091346
  0
VERTEX
  8
0
 62
7
  6
CONTINUOUS
 10
331.5214514468
 20
112.4705685547
  0
VERTEX
  8
0
 62
7
  6
CONTINUOUS
 10
331.5384762888
 20
112.4633680343
  0
VERTEX
  8
0
 62
7
  6
CONTINUOUS
 10
331.5544549376
 20
112.4555603002
  0
VERTEX
  8
0
 62
7
  6
CONTINUOUS
 10
331.5693438696
 20
112.4471979937
  0
VERTEX
  8
0
 62
7
  6
CONTINUOUS
 10
331.5831065787
 20
112.4383334625
  0
VERTEX
  8
0
 62
7
  6
CONTINUOUS
 10
331.5957130854
 20
112.4290186067
  0
VERTEX
  8
0
 62
7
  6
CONTINUOUS
 10
331.6071394935
 20
112.4193047646
  0
VERTEX
  8
0
 62
7
  6
CONTINUOUS
 10
331.6173676002
 20
112.4092426281
  0
VERTEX
  8
0
 62
7
  6
CONTINUOUS
 10
331.6263845587
 20
112.3988821772
  0
VERTEX
  8
0
 62
7
  6
CONTINUOUS
 10
331.6341825919
 20
112.3882726231
  0
VERTEX
  8
0
 62
7
  6
CONTINUOUS
 10
331.6407587483
 20
112.3774623571
  0
VERTEX
  8
0
 62
7
  6
CONTINUOUS
 10
331.646114699
 20
112.3664988866
  0
VERTEX
  8
0
 62
7
  6
CONTINUOUS
 10
331.6502565569
 20
112.3554287688
  0
VERTEX
  8
0
 62
7
  6
CONTINUOUS
 10
331.6531947126
 20
112.3442975306
  0
VERTEX
  8
0
 62
7
  6
CONTINUOUS
 10
331.6549436778
 20
112.3331495754
  0
VERTEX
  8
0
 62
7
  6
CONTINUOUS
 10
331.6555219242
 20
112.3220280761
  0
SEQEND
  0
POLYLINE
  8
0
 62
7
  6
CONTINUOUS
 66
1
 70
0
  0
VERTEX
  8
0
 62
7
  6
CONTINUOUS
 10
329.1578048046
 20
112.5001276133
  0
VERTEX
  8
0
 62
7
  6
CONTINUOUS
 10
329.1160827534
 20
112.5018155154
  0
VERTEX
  8
0
 62
7
  6
CONTINUOUS
 10
329.0741025169
 20
112.5069159367
  0
VERTEX
  8
0
 62
7
  6
CONTINUOUS
 10
329.0321437604
 20
112.5154677682
  0
VERTEX
  8
0
 62
7
  6
CONTINUOUS
 10
328.9904747407
 20
112.5274917244
  0
VERTEX
  8
0
 62
7
  6
CONTINUOUS
 10
328.9493394236
 20
112.5429993222
  0
VERTEX
  8
0
 62
7
  6
CONTINUOUS
 10
328.9089845638
 20
112.5619859988
  0
VERTEX
  8
0
 62
7
  6
CONTINUOUS
 10
328.8695012748
 20
112.5845195463
  0
VERTEX
  8
0
 62
7
  6
CONTINUOUS
 10
328.8307774295
 20
112.6108430785
  0
VERTEX
  8
0
 62
7
  6
CONTINUOUS
 10
328.7927892014
 20
112.6412230032
  0
VERTEX
  8
0
 62
7
  6
CONTINUOUS
 10
328.7555250125
 20
112.6759160062
  0
SEQEND
  0
LINE
  8
0
 62
7
  6
CONTINUOUS
 10
170.6108728421
 20
131.4440369233
 11
170.5244024396
 21
131.664796793
  0
LINE
  8
0
 62
7
  6
CONTINUOUS
 10
188.4001525976
 20
92.176740787
 11
188.486650175
 21
91.9558959086
  0
LINE
  8
0
 62
7
  6
CONTINUOUS
 10
192.0348603995
 20
85.912880447
 11
189.4243936735
 21
92.5779018751
  0
LINE
  8
0
 62
7
  6
CONTINUOUS
 10
188.5555219242
 20
91.5912040104
 11
188.5555219242
 21
90.0601276178
  0
LINE
  8
0
 62
7
  6
CONTINUOUS
 10
189.3555219242
 20
107.0101276178
 11
189.3555219242
 21
92.9425937733
  0
LINE
  8
0
 62
7
  6
CONTINUOUS
 10
192.0555219242
 20
85.8034728775
 11
192.0555219242
 21
81.1101276178
  0
LINE
  8
0
 62
7
  6
CONTINUOUS
 10
192.3555219242
 20
137.8167860921
 11
192.3555219242
 21
142.5101276178
  0
LINE
  8
0
 62
7
  6
CONTINUOUS
 10
195.0555219242
 20
130.6781369377
 11
195.0555219242
 21
114.8857027595
  0
LINE
  8
0
 62
7
  6
CONTINUOUS
 10
195.8555219242
 20
132.0295110719
 11
195.8555219242
 21
133.5601276178
  0
LINE
  8
0
 62
7
  6
CONTINUOUS
 10
196.1555219242
 20
114.8857034418
 11
196.1555219242
 21
130.6781369377
  0
LINE
  8
0
 62
7
  6
CONTINUOUS
 10
179.676183449
 20
85.912880447
 11
182.286650175
 21
92.5779018751
  0
LINE
  8
0
 62
7
  6
CONTINUOUS
 10
183.2243936735
 20
91.9558959086
 11
183.3108912509
 21
92.176740787
  0
LINE
  8
0
 62
7
  6
CONTINUOUS
 10
201.1866414089
 20
131.664796793
 11
201.1001710064
 21
131.4440369233
  0
LINE
  8
0
 62
7
  6
CONTINUOUS
 10
202.1244024396
 20
131.0428512166
 11
204.7348577697
 21
137.7073718084
  0
POLYLINE
  8
0
 62
7
  6
CONTINUOUS
 66
1
 70
0
  0
VERTEX
  8
0
 62
7
  6
CONTINUOUS
 10
200.9555219242
 20
114.8857040091
  0
VERTEX
  8
0
 62
7
  6
CONTINUOUS
 10
200.9573774411
 20
114.7701375134
  0
VERTEX
  8
0
 62
7
  6
CONTINUOUS
 10
200.9626075716
 20
114.6601932839
  0
VERTEX
  8
0
 62
7
  6
CONTINUOUS
 10
200.9708560753
 20
114.5544500015
  0
VERTEX
  8
0
 62
7
  6
CONTINUOUS
 10
200.9819264285
 20
114.4515738187
  0
VERTEX
  8
0
 62
7
  6
CONTINUOUS
 10
200.9957943306
 20
114.3502536596
  0
VERTEX
  8
0
 62
7
  6
CONTINUOUS
 10
201.0125730858
 20
114.249243113
  0
VERTEX
  8
0
 62
7
  6
CONTINUOUS
 10
201.0322800858
 20
114.1484563594
  0
VERTEX
  8
0
 62
7
  6
CONTINUOUS
 10
201.0548371697
 20
114.0483711204
  0
VERTEX
  8
0
 62
7
  6
CONTINUOUS
 10
201.0802370898
 20
113.9490459777
  0
VERTEX
  8
0
 62
7
  6
CONTINUOUS
 10
201.1084878809
 20
113.8504282737
  0
VERTEX
  8
0
 62
7
  6
CONTINUOUS
 10
201.1395456296
 20
113.7526511663
  0
VERTEX
  8
0
 62
7
  6
CONTINUOUS
 10
201.1733827232
 20
113.6558446885
  0
VERTEX
  8
0
 62
7
  6
CONTINUOUS
 10
201.2100391327
 20
113.5599585219
  0
VERTEX
  8
0
 62
7
  6
CONTINUOUS
 10
201.2495089276
 20
113.4650866418
  0
VERTEX
  8
0
 62
7
  6
CONTINUOUS
 10
201.2917570383
 20
113.3714061868
  0
VERTEX
  8
0
 62
7
  6
CONTINUOUS
 10
201.3368471584
 20
113.2788387249
  0
VERTEX
  8
0
 62
7
  6
CONTINUOUS
 10
201.3848626407
 20
113.187287606
  0
VERTEX
  8
0
 62
7
  6
CONTINUOUS
 10
201.4355848959
 20
113.0972228743
  0
VERTEX
  8
0
 62
7
  6
CONTINUOUS
 10
201.4887639116
 20
113.0090439677
  0
VERTEX
  8
0
 62
7
  6
CONTINUOUS
 10
201.5462292887
 20
112.9199658301
  0
VERTEX
  8
0
 62
7
  6
CONTINUOUS
 10
201.6112546089
 20
112.8259466882
  0
VERTEX
  8
0
 62
7
  6
CONTINUOUS
 10
201.6875654571
 20
112.7236162168
  0
VERTEX
  8
0
 62
7
  6
CONTINUOUS
 10
201.7755633983
 20
112.6149797424
  0
VERTEX
  8
0
 62
7
  6
CONTINUOUS
 10
201.8691557641
 20
112.5090268894
  0
VERTEX
  8
0
 62
7
  6
CONTINUOUS
 10
201.9607641316
 20
112.4137098725
  0
VERTEX
  8
0
 62
7
  6
CONTINUOUS
 10
202.0472754965
 20
112.3304307104
  0
VERTEX
  8
0
 62
7
  6
CONTINUOUS
 10
202.1307129754
 20
112.2557064854
  0
VERTEX
  8
0
 62
7
  6
CONTINUOUS
 10
202.2137865904
 20
112.1863025774
  0
VERTEX
  8
0
 62
7
  6
CONTINUOUS
 10
202.298666814
 20
112.1201536383
  0
VERTEX
  8
0
 62
7
  6
CONTINUOUS
 10
202.3856469067
 20
112.0570280187
  0
VERTEX
  8
0
 62
7
  6
CONTINUOUS
 10
202.4747112739
 20
111.9969661117
  0
VERTEX
  8
0
 62
7
  6
CONTINUOUS
 10
202.5656920103
 20
111.9401200546
  0
VERTEX
  8
0
 62
7
  6
CONTINUOUS
 10
202.658702682
 20
111.8864903276
  0
VERTEX
  8
0
 62
7
  6
CONTINUOUS
 10
202.7540682629
 20
111.8359791613
  0
VERTEX
  8
0
 62
7
  6
CONTINUOUS
 10
202.8517478412
 20
111.7887289514
  0
VERTEX
  8
0
 62
7
  6
CONTINUOUS
 10
202.9516530877
 20
111.7448725091
  0
VERTEX
  8
0
 62
7
  6
CONTINUOUS
 10
203.0534358851
 20
111.7046179821
  0
VERTEX
  8
0
 62
7
  6
CONTINUOUS
 10
203.1568028761
 20
111.6681273848
  0
VERTEX
  8
0
 62
7
  6
CONTINUOUS
 10
203.2616647695
 20
111.6354733753
  0
VERTEX
  8
0
 62
7
  6
CONTINUOUS
 10
203.3679439547
 20
111.6067390969
  0
VERTEX
  8
0
 62
7
  6
CONTINUOUS
 10
203.4752018109
 20
111.5820959033
  0
VERTEX
  8
0
 62
7
  6
CONTINUOUS
 10
203.583572175
 20
111.5615787819
  0
VERTEX
  8
0
 62
7
  6
CONTINUOUS
 10
203.6943300329
 20
111.5450879835
  0
VERTEX
  8
0
 62
7
  6
CONTINUOUS
 10
203.8089326138
 20
111.5327281121
  0
VERTEX
  8
0
 62
7
  6
CONTINUOUS
 10
203.9288136054
 20
111.5248402643
  0
VERTEX
  8
0
 62
7
  6
CONTINUOUS
 10
204.0555220126
 20
111.5220280761
  0
SEQEND
  0
LINE
  8
0
 62
7
  6
CONTINUOUS
 10
200.9555219242
 20
130.6781369377
 11
200.9555219242
 21
114.8857040091
  0
LINE
  8
0
 62
7
  6
CONTINUOUS
 10
201.2555219242
 20
133.5601276178
 11
201.2555219242
 21
132.0295110719
  0
LINE
  8
0
 62
7
  6
CONTINUOUS
 10
202.0555219242
 20
130.6781369377
 11
202.0555219242
 21
114.8857027595
  0
LINE
  8
0
 62
7
  6
CONTINUOUS
 10
204.7555219242
 20
142.5101276178
 11
204.7555219242
 21
137.8167860921
  0
LINE
  8
0
 62
7
  6
CONTINUOUS
 10
205.0555219242
 20
81.1101276178
 11
205.0555219242
 21
85.8034728775
  0
LINE
  8
0
 62
7
  6
CONTINUOUS
 10
207.7555219242
 20
107.0101276178
 11
207.7555219242
 21
92.9425937733
  0
LINE
  8
0
 62
7
  6
CONTINUOUS
 10
208.5555219242
 20
90.0601276178
 11
208.5555219242
 21
91.5912040104
  0
LINE
  8
0
 62
7
  6
CONTINUOUS
 10
208.8555219242
 20
92.9425937733
 11
208.8555219242
 21
107.0101276178
  0
LINE
  8
0
 62
7
  6
CONTINUOUS
 10
95.2555219242
 20
134.5601276178
 11
98.6555219242
 21
134.5601276178
  0
LINE
  8
0
 62
7
  6
CONTINUOUS
 10
120.6555219242
 20
134.5601276178
 11
124.0555219242
 21
134.5601276178
  0
LINE
  8
0
 62
7
  6
CONTINUOUS
 10
146.0555219242
 20
134.5601276178
 11
149.4555219242
 21
134.5601276178
  0
LINE
  8
0
 62
7
  6
CONTINUOUS
 10
171.4555219242
 20
134.5601276178
 11
174.8555219242
 21
134.5601276178
  0
LINE
  8
0
 62
7
  6
CONTINUOUS
 10
196.8555219242
 20
134.5601276178
 11
200.2555219242
 21
134.5601276178
  0
LINE
  8
0
 62
7
  6
CONTINUOUS
 10
222.2555219242
 20
134.5601276178
 11
225.6555219242
 21
134.5601276178
  0
LINE
  8
DEFAULT_1
 62
2
  6
CENTER
 10
13.7647066145
 20
137.2101276178
 11
340.9374195482
 21
137.2101276178
  0
LINE
  8
0
 62
7
  6
CONTINUOUS
 10
192.3761860788
 20
137.7073718084
 11
194.9866414089
 21
131.0428512166
  0
LINE
  8
0
 62
7
  6
CONTINUOUS
 10
196.0108728421
 20
131.4440369233
 11
195.9244024396
 21
131.664796793
  0
LINE
  8
0
 62
7
  6
CONTINUOUS
 10
213.8001525976
 20
92.176740787
 11
213.886650175
 21
91.9558959086
  0
LINE
  8
0
 62
7
  6
CONTINUOUS
 10
217.4348603995
 20
85.912880447
 11
214.8243936735
 21
92.5779018751
  0
LINE
  8
0
 62
7
  6
CONTINUOUS
 10
213.6555219242
 20
107.0101276178
 11
213.6555219242
 21
92.9425937733
  0
LINE
  8
0
 62
7
  6
CONTINUOUS
 10
213.9555219242
 20
91.5912040104
 11
213.9555219242
 21
90.0601276178
  0
LINE
  8
0
 62
7
  6
CONTINUOUS
 10
214.7555219242
 20
107.0101276178
 11
214.7555219242
 21
92.9425937733
  0
LINE
  8
0
 62
7
  6
CONTINUOUS
 10
217.4555219242
 20
85.8034728775
 11
217.4555219242
 21
81.1101276178
  0
LINE
  8
0
 62
7
  6
CONTINUOUS
 10
217.7555219242
 20
137.8167860921
 11
217.7555219242
 21
142.5101276178
  0
LINE
  8
0
 62
7
  6
CONTINUOUS
 10
205.076183449
 20
85.912880447
 11
207.686650175
 21
92.5779018751
  0
LINE
  8
0
 62
7
  6
CONTINUOUS
 10
208.6243936735
 20
91.9558959086
 11
208.7108912509
 21
92.176740787
  0
LINE
  8
0
 62
7
  6
CONTINUOUS
 10
226.5866414089
 20
131.664796793
 11
226.5001710064
 21
131.4440369233
  0
LINE
  8
0
 62
7
  6
CONTINUOUS
 10
227.5244024396
 20
131.0428512166
 11
230.1348577697
 21
137.7073718084
  0
LINE
  8
0
 62
7
  6
CONTINUOUS
 10
329.0555219242
 20
145.2101276178
 11
322.0555219242
 21
145.2101276178
  0
LINE
  8
0
 62
7
  6
CONTINUOUS
 10
303.6555219242
 20
145.2101276178
 11
296.6555219242
 21
145.2101276178
  0
LINE
  8
0
 62
7
  6
CONTINUOUS
 10
278.2555219242
 20
145.2101276178
 11
271.2555219242
 21
145.2101276178
  0
LINE
  8
0
 62
7
  6
CONTINUOUS
 10
252.8555219242
 20
145.2101276178
 11
245.8555219242
 21
145.2101276178
  0
LINE
  8
0
 62
7
  6
CONTINUOUS
 10
227.4555219242
 20
145.2101276178
 11
220.4555219242
 21
145.2101276178
  0
LINE
  8
0
 62
7
  6
CONTINUOUS
 10
202.0555219242
 20
145.2101276178
 11
195.0555219242
 21
145.2101276178
  0
LINE
  8
0
 62
7
  6
CONTINUOUS
 10
176.6555219242
 20
145.2101276178
 11
169.6555219242
 21
145.2101276178
  0
LINE
  8
0
 62
7
  6
CONTINUOUS
 10
151.2555219242
 20
145.2101276178
 11
144.2555219242
 21
145.2101276178
  0
LINE
  8
0
 62
7
  6
CONTINUOUS
 10
125.8555219242
 20
145.2101276178
 11
118.8555219242
 21
145.2101276178
  0
LINE
  8
0
 62
7
  6
CONTINUOUS
 10
100.4555219242
 20
145.2101276178
 11
93.4555219242
 21
145.2101276178
  0
LINE
  8
0
 62
7
  6
CONTINUOUS
 10
75.0555219242
 20
145.2101276178
 11
68.0555219242
 21
145.2101276178
  0
LINE
  8
0
 62
7
  6
CONTINUOUS
 10
49.6555219242
 20
145.2101276178
 11
42.6555219242
 21
145.2101276178
  0
LINE
  8
0
 62
7
  6
CONTINUOUS
 10
220.4555219242
 20
130.6781369377
 11
220.4555219242
 21
114.8857027595
  0
LINE
  8
0
 62
7
  6
CONTINUOUS
 10
221.2555219242
 20
132.0295110719
 11
221.2555219242
 21
133.5601276178
  0
LINE
  8
0
 62
7
  6
CONTINUOUS
 10
221.5555219242
 20
114.8857034416
 11
221.5555219242
 21
130.6781369377
  0
LINE
  8
0
 62
7
  6
CONTINUOUS
 10
226.3555219242
 20
130.6781369377
 11
226.3555219242
 21
112.6101276178
  0
LINE
  8
0
 62
7
  6
CONTINUOUS
 10
226.6555219242
 20
133.5601276178
 11
226.6555219242
 21
132.0295110719
  0
LINE
  8
0
 62
7
  6
CONTINUOUS
 10
227.4555219242
 20
130.6781369377
 11
227.4555219242
 21
114.8857027595
  0
LINE
  8
0
 62
7
  6
CONTINUOUS
 10
230.1555219242
 20
142.5101276178
 11
230.1555219242
 21
137.8167860921
  0
LINE
  8
0
 62
7
  6
CONTINUOUS
 10
230.4555219242
 20
81.1101276178
 11
230.4555219242
 21
85.8034728775
  0
LINE
  8
0
 62
7
  6
CONTINUOUS
 10
217.7761860788
 20
137.7073718084
 11
220.3866414089
 21
131.0428512166
  0
LINE
  8
0
 62
7
  6
CONTINUOUS
 10
221.4108728421
 20
131.4440369233
 11
221.3244024396
 21
131.664796793
  0
LINE
  8
0
 62
7
  6
CONTINUOUS
 10
242.8348603995
 20
85.912880447
 11
240.2243936735
 21
92.5779018751
  0
LINE
  8
0
 62
7
  6
CONTINUOUS
 10
233.1555219242
 20
107.0101276178
 11
233.1555219242
 21
92.9425937733
  0
LINE
  8
0
 62
7
  6
CONTINUOUS
 10
240.1555219242
 20
107.0101276178
 11
240.1555219242
 21
92.9425937733
  0
LINE
  8
0
 62
7
  6
CONTINUOUS
 10
230.476183449
 20
85.912880447
 11
233.086650175
 21
92.5779018751
  0
LINE
  8
0
 62
7
  6
CONTINUOUS
 10
252.9244024396
 20
131.0428512166
 11
255.5348577697
 21
137.7073718084
  0
LINE
  8
0
 62
7
  6
CONTINUOUS
 10
242.8555219242
 20
85.8034728775
 11
242.8555219242
 21
81.1101276178
  0
LINE
  8
0
 62
7
  6
CONTINUOUS
 10
243.1555219242
 20
137.8167860921
 11
243.1555219242
 21
142.5101276178
  0
LINE
  8
0
 62
7
  6
CONTINUOUS
 10
245.8555219242
 20
130.6781369377
 11
245.8555219242
 21
114.8857027595
  0
LINE
  8
0
 62
7
  6
CONTINUOUS
 10
243.1761860788
 20
137.7073718084
 11
245.7866414089
 21
131.0428512166
  0
LINE
  8
0
 62
7
  6
CONTINUOUS
 10
252.8555219242
 20
130.6781369377
 11
252.8555219242
 21
114.8857027595
  0
LINE
  8
0
 62
7
  6
CONTINUOUS
 10
255.5555219242
 20
142.5101276178
 11
255.5555219242
 21
137.8167860921
  0
LINE
  8
0
 62
7
  6
CONTINUOUS
 10
255.8555219242
 20
81.1101276178
 11
255.8555219242
 21
85.8034728775
  0
LINE
  8
0
 62
7
  6
CONTINUOUS
 10
258.5555219242
 20
107.0101276178
 11
258.5555219242
 21
92.9425937733
  0
LINE
  8
0
 62
7
  6
CONTINUOUS
 10
255.876183449
 20
85.912880447
 11
258.486650175
 21
92.5779018751
  0
LINE
  8
0
 62
7
  6
CONTINUOUS
 10
268.2348603995
 20
85.912880447
 11
265.6243936735
 21
92.5779018751
  0
LINE
  8
0
 62
7
  6
CONTINUOUS
 10
265.5555219242
 20
107.0101276178
 11
265.5555219242
 21
92.9425937733
  0
LINE
  8
0
 62
7
  6
CONTINUOUS
 10
268.2555219242
 20
85.8034728775
 11
268.2555219242
 21
81.1101276178
  0
LINE
  8
0
 62
7
  6
CONTINUOUS
 10
268.5555219242
 20
137.8167860921
 11
268.5555219242
 21
142.5101276178
  0
LINE
  8
0
 62
7
  6
CONTINUOUS
 10
271.2555219242
 20
130.6781369377
 11
271.2555219242
 21
114.8857027595
  0
LINE
  8
0
 62
7
  6
CONTINUOUS
 10
278.3244024396
 20
131.0428512166
 11
280.9348577697
 21
137.7073718084
  0
LINE
  8
0
 62
7
  6
CONTINUOUS
 10
268.5761860788
 20
137.7073718084
 11
271.1866414089
 21
131.0428512166
  0
LINE
  8
0
 62
7
  6
CONTINUOUS
 10
278.2555219242
 20
130.6781369377
 11
278.2555219242
 21
114.8857027595
  0
LINE
  8
0
 62
7
  6
CONTINUOUS
 10
280.9555219242
 20
142.5101276178
 11
280.9555219242
 21
137.8167860921
  0
LINE
  8
0
 62
7
  6
CONTINUOUS
 10
281.2555219242
 20
81.1101276178
 11
281.2555219242
 21
85.8034728775
  0
LINE
  8
0
 62
7
  6
CONTINUOUS
 10
281.276183449
 20
85.912880447
 11
283.886650175
 21
92.5779018751
  0
LINE
  8
0
 62
7
  6
CONTINUOUS
 10
293.6348603995
 20
85.912880447
 11
291.0243936735
 21
92.5779018751
  0
LINE
  8
0
 62
7
  6
CONTINUOUS
 10
283.9555219242
 20
107.0101276178
 11
283.9555219242
 21
92.9425937733
  0
LINE
  8
0
 62
7
  6
CONTINUOUS
 10
290.9555219242
 20
107.0101276178
 11
290.9555219242
 21
92.9425937733
  0
LINE
  8
0
 62
7
  6
CONTINUOUS
 10
293.6555219242
 20
85.8034728775
 11
293.6555219242
 21
81.1101276178
  0
LINE
  8
0
 62
7
  6
CONTINUOUS
 10
293.9555219242
 20
137.8167860921
 11
293.9555219242
 21
142.5101276178
  0
LINE
  8
0
 62
7
  6
CONTINUOUS
 10
303.7244024396
 20
131.0428512166
 11
306.3348577697
 21
137.7073718084
  0
LINE
  8
0
 62
7
  6
CONTINUOUS
 10
296.6555219242
 20
130.6781369377
 11
296.6555219242
 21
114.8857027595
  0
LINE
  8
0
 62
7
  6
CONTINUOUS
 10
303.6555219242
 20
130.6781369377
 11
303.6555219242
 21
114.8857027595
  0
LINE
  8
0
 62
7
  6
CONTINUOUS
 10
293.9761860788
 20
137.7073718084
 11
296.5866414089
 21
131.0428512166
  0
LINE
  8
0
 62
7
  6
CONTINUOUS
 10
319.0348603995
 20
85.912880447
 11
316.4243936735
 21
92.5779018751
  0
LINE
  8
0
 62
7
  6
CONTINUOUS
 10
306.3555219242
 20
142.5101276178
 11
306.3555219242
 21
137.8167860921
  0
LINE
  8
0
 62
7
  6
CONTINUOUS
 10
306.6555219242
 20
81.1101276178
 11
306.6555219242
 21
85.8034728775
  0
LINE
  8
0
 62
7
  6
CONTINUOUS
 10
309.3555219242
 20
107.0101276178
 11
309.3555219242
 21
92.9425937733
  0
LINE
  8
0
 62
7
  6
CONTINUOUS
 10
306.676183449
 20
85.912880447
 11
309.286650175
 21
92.5779018751
  0
LINE
  8
0
 62
7
  6
CONTINUOUS
 10
329.1244024396
 20
131.0428512166
 11
331.7348577697
 21
137.7073718084
  0
LINE
  8
0
 62
7
  6
CONTINUOUS
 10
316.3555219242
 20
107.0101276178
 11
316.3555219242
 21
92.9425937733
  0
LINE
  8
0
 62
7
  6
CONTINUOUS
 10
319.0555219242
 20
85.8034728775
 11
319.0555219242
 21
81.1101276178
  0
LINE
  8
0
 62
7
  6
CONTINUOUS
 10
319.3555219242
 20
137.8167860921
 11
319.3555219242
 21
142.5101276178
  0
LINE
  8
0
 62
7
  6
CONTINUOUS
 10
322.0555219242
 20
130.6781369377
 11
322.0555219242
 21
114.8857027595
  0
LINE
  8
0
 62
7
  6
CONTINUOUS
 10
329.0555219242
 20
130.6781369377
 11
329.0555219242
 21
112.9996062751
  0
LINE
  8
0
 62
7
  6
CONTINUOUS
 10
331.6555219242
 20
114.1354676516
 11
331.6555219242
 21
109.3101276178
  0
LINE
  8
0
 62
7
  6
CONTINUOUS
 10
331.7555219242
 20
142.5101276178
 11
331.7555219242
 21
137.8167860921
  0
LINE
  8
0
 62
7
  6
CONTINUOUS
 10
319.3761860788
 20
137.7073718084
 11
321.9866414089
 21
131.0428512166
  0
LINE
  8
0
 62
7
  6
CONTINUOUS
 10
372.2005574815
 20
78.4101276178
 11
371.9005574815
 21
78.4101276178
  0
LINE
  8
DEFAULT_1
 62
2
  6
CENTER
 10
377.3005574815
 20
86.4473826178
 11
377.1878124815
 21
86.4473826178
  0
LINE
  8
0
 62
2
  6
CONTINUOUS
 10
373.1005574815
 20
86.4473826178
 11
371.0005574815
 21
86.4473826178
  0
LINE
  8
DEFAULT_1
 62
2
  6
CENTER
 10
366.8005574815
 20
86.4473826178
 11
366.9133024815
 21
86.4473826178
  0
LINE
  8
0
 62
7
  6
CONTINUOUS
 10
379.5505574815
 20
89.0601276178
 11
380.135727919
 21
89.0601276178
  0
LINE
  8
0
 62
7
  6
CONTINUOUS
 10
364.5505574815
 20
85.7601276178
 11
364.5505574815
 21
137.8601276178
  0
LINE
  8
0
 62
7
  6
CONTINUOUS
 10
368.8005574815
 20
120.8601276178
 11
368.8005574815
 21
137.0601276178
  0
LINE
  8
0
 62
7
  6
CONTINUOUS
 10
364.8505574815
 20
109.0101276178
 11
379.2505574815
 21
109.0101276178
  0
LINE
  8
DEFAULT_1
 62
2
  6
CENTER
 10
372.0505574815
 20
142.4601276178
 11
372.0505574815
 21
139.2102276178
  0
LINE
  8
0
 62
2
  6
CONTINUOUS
 10
372.0505574815
 20
138.2601276178
 11
372.0505574815
 21
136.1601276178
  0
LINE
  8
DEFAULT_1
 62
2
  6
CENTER
 10
372.0505574815
 20
91.6973826178
 11
372.0505574815
 21
91.5846376178
  0
LINE
  8
0
 62
2
  6
CONTINUOUS
 10
372.0505574815
 20
87.4973826178
 11
372.0505574815
 21
85.3973826178
  0
LINE
  8
DEFAULT_1
 62
2
  6
CENTER
 10
372.0505574815
 20
81.1973826178
 11
372.0505574815
 21
81.3101276178
  0
LINE
  8
DEFAULT_1
 62
2
  6
CENTER
 10
372.0505574815
 20
131.9601276178
 11
372.0505574815
 21
135.2100276178
  0
LINE
  8
0
 62
7
  6
CONTINUOUS
 10
379.5505574815
 20
111.5220280761
 11
382.04852604
 21
111.5220280761
  0
LINE
  8
DEFAULT_1
 62
2
  6
CENTER
 10
361.7610837973
 20
111.8101276178
 11
384.5505575328
 21
111.8101276178
  0
LINE
  8
0
 62
7
  6
CONTINUOUS
 10
375.3005574815
 20
120.8601276178
 11
375.3005574815
 21
137.0601276178
  0
LINE
  8
0
 62
7
  6
CONTINUOUS
 10
379.5505574815
 20
85.7601276178
 11
379.5505574815
 21
137.8601276178
  0
LINE
  8
0
 62
7
  6
CONTINUOUS
 10
380.7146086539
 20
89.9763930425
 11
380.9662308846
 21
91.513380927
  0
LINE
  8
0
 62
7
  6
CONTINUOUS
 10
380.9462449922
 20
132.1078204481
 11
380.693145888
 21
133.6443467105
  0
LINE
  8
0
 62
7
  6
CONTINUOUS
 10
380.1138414254
 20
134.5601276178
 11
379.5505574815
 21
134.5601276178
  0
LINE
  8
DEFAULT_1
 62
2
  6
CENTER
 10
377.3005574815
 20
137.2101276178
 11
374.0506574815
 21
137.2101276178
  0
LINE
  8
0
 62
2
  6
CONTINUOUS
 10
373.1005574815
 20
137.2101276178
 11
371.0005574815
 21
137.2101276178
  0
LINE
  8
DEFAULT_1
 62
2
  6
CENTER
 10
366.8005574815
 20
137.2101276178
 11
370.0504574815
 21
137.2101276178
  0
LINE
  8
0
 62
7
  6
CONTINUOUS
 10
372.2005574815
 20
145.2101276178
 11
371.9005574815
 21
145.2101276178
  0
LINE
  8
0
 62
7
  6
CONTINUOUS
 10
27.2555219242
 20
218.5715244318
 11
27.2555219242
 21
228.1715244318
  0
LINE
  8
0
 62
7
  6
CONTINUOUS
 10
27.3555219242
 20
216.1715244318
 11
27.3555219242
 21
217.8437783467
  0
LINE
  8
0
 62
7
  6
CONTINUOUS
 10
27.3555219242
 20
228.899270493
 11
27.3555219242
 21
230.5715244318
  0
LINE
  8
0
 62
7
  6
CONTINUOUS
 10
39.6555219242
 20
228.1715244318
 11
39.6555219242
 21
218.5715244318
  0
LINE
  8
0
 62
7
  6
CONTINUOUS
 10
52.6555219242
 20
218.5715244318
 11
52.6555219242
 21
228.1715244318
  0
LINE
  8
0
 62
7
  6
CONTINUOUS
 10
65.0555219242
 20
228.1715244318
 11
65.0555219242
 21
218.5715244318
  0
LINE
  8
0
 62
7
  6
CONTINUOUS
 10
78.0555219242
 20
218.5715244318
 11
78.0555219242
 21
228.1715244318
  0
LINE
  8
0
 62
7
  6
CONTINUOUS
 10
81.5555219242
 20
230.8715244318
 11
81.5555219242
 21
231.7932913987
  0
LINE
  8
0
 62
7
  6
CONTINUOUS
 10
81.8555264354
 20
232.2642258065
 11
81.8555591538
 21
233.3428435255
  0
POLYLINE
  8
0
 62
7
  6
CONTINUOUS
 66
1
 70
0
  0
VERTEX
  8
0
 62
7
  6
CONTINUOUS
 10
86.9555218523
 20
231.7932886676
  0
VERTEX
  8
0
 62
7
  6
CONTINUOUS
 10
86.9545185987
 20
231.8253398113
  0
VERTEX
  8
0
 62
7
  6
CONTINUOUS
 10
86.9495897387
 20
231.8710398222
  0
VERTEX
  8
0
 62
7
  6
CONTINUOUS
 10
86.9405789801
 20
231.9161552216
  0
VERTEX
  8
0
 62
7
  6
CONTINUOUS
 10
86.9275622235
 20
231.9602960024
  0
VERTEX
  8
0
 62
7
  6
CONTINUOUS
 10
86.9106641488
 20
232.0030746848
  0
VERTEX
  8
0
 62
7
  6
CONTINUOUS
 10
86.8900590562
 20
232.0441181637
  0
VERTEX
  8
0
 62
7
  6
CONTINUOUS
 10
86.8659631151
 20
232.0830876646
  0
VERTEX
  8
0
 62
7
  6
CONTINUOUS
 10
86.8386275912
 20
232.1196848394
  0
VERTEX
  8
0
 62
7
  6
CONTINUOUS
 10
86.808341233
 20
232.153647476
  0
VERTEX
  8
0
 62
7
  6
CONTINUOUS
 10
86.7757703397
 20
232.1844607066
  0
VERTEX
  8
0
 62
7
  6
CONTINUOUS
 10
86.7428581554
 20
232.210925743
  0
VERTEX
  8
0
 62
7
  6
CONTINUOUS
 10
86.7109854685
 20
232.2329260736
  0
VERTEX
  8
0
 62
7
  6
CONTINUOUS
 10
86.6803490009
 20
232.2512483429
  0
VERTEX
  8
0
 62
7
  6
CONTINUOUS
 10
86.6508415028
 20
232.2666447394
  0
VERTEX
  8
0
 62
7
  6
CONTINUOUS
 10
86.6222508671
 20
232.2797251979
  0
VERTEX
  8
0
 62
7
  6
CONTINUOUS
 10
86.606198805
 20
232.2863607689
  0
SEQEND
  0
LINE
  8
0
 62
7
  6
CONTINUOUS
 10
86.6555219242
 20
233.284848379
 11
86.6555219242
 21
232.2642025932
  0
LINE
  8
0
 62
7
  6
CONTINUOUS
 10
86.9555219242
 20
231.7932913987
 11
86.9555219242
 21
230.8715244318
  0
LINE
  8
0
 62
7
  6
CONTINUOUS
 10
90.4555219242
 20
228.1715244318
 11
90.4555219242
 21
218.5715244318
  0
LINE
  8
0
 62
7
  6
CONTINUOUS
 10
103.4555219242
 20
218.5715244318
 11
103.4555219242
 21
228.1715244318
  0
POLYLINE
  8
0
 62
7
  6
CONTINUOUS
 66
1
 70
0
  0
VERTEX
  8
0
 62
7
  6
CONTINUOUS
 10
112.3555218523
 20
231.7932886676
  0
VERTEX
  8
0
 62
7
  6
CONTINUOUS
 10
112.3545185987
 20
231.8253398113
  0
VERTEX
  8
0
 62
7
  6
CONTINUOUS
 10
112.3495897387
 20
231.8710398222
  0
VERTEX
  8
0
 62
7
  6
CONTINUOUS
 10
112.3405789801
 20
231.9161552216
  0
VERTEX
  8
0
 62
7
  6
CONTINUOUS
 10
112.3275622235
 20
231.9602960024
  0
VERTEX
  8
0
 62
7
  6
CONTINUOUS
 10
112.3106641488
 20
232.0030746848
  0
VERTEX
  8
0
 62
7
  6
CONTINUOUS
 10
112.2900590562
 20
232.0441181637
  0
VERTEX
  8
0
 62
7
  6
CONTINUOUS
 10
112.2659631151
 20
232.0830876646
  0
VERTEX
  8
0
 62
7
  6
CONTINUOUS
 10
112.2386275912
 20
232.1196848394
  0
VERTEX
  8
0
 62
7
  6
CONTINUOUS
 10
112.208341233
 20
232.153647476
  0
VERTEX
  8
0
 62
7
  6
CONTINUOUS
 10
112.1757703397
 20
232.1844607066
  0
VERTEX
  8
0
 62
7
  6
CONTINUOUS
 10
112.1428581554
 20
232.210925743
  0
VERTEX
  8
0
 62
7
  6
CONTINUOUS
 10
112.1109854685
 20
232.2329260736
  0
VERTEX
  8
0
 62
7
  6
CONTINUOUS
 10
112.0803490009
 20
232.2512483429
  0
VERTEX
  8
0
 62
7
  6
CONTINUOUS
 10
112.0508415028
 20
232.2666447394
  0
VERTEX
  8
0
 62
7
  6
CONTINUOUS
 10
112.0222508671
 20
232.2797251979
  0
VERTEX
  8
0
 62
7
  6
CONTINUOUS
 10
112.006198805
 20
232.2863607689
  0
SEQEND
  0
LINE
  8
0
 62
7
  6
CONTINUOUS
 10
106.9555219242
 20
230.8715244318
 11
106.9555219242
 21
231.7932913987
  0
LINE
  8
0
 62
7
  6
CONTINUOUS
 10
107.2555219242
 20
232.264223443
 11
107.2555219242
 21
233.284848379
  0
LINE
  8
0
 62
7
  6
CONTINUOUS
 10
112.0555219242
 20
233.284848379
 11
112.0555219242
 21
232.2642025932
  0
LINE
  8
0
 62
7
  6
CONTINUOUS
 10
112.3555219242
 20
231.7932913987
 11
112.3555219242
 21
230.8715244318
  0
LINE
  8
0
 62
7
  6
CONTINUOUS
 10
115.8555219242
 20
228.1715244318
 11
115.8555219242
 21
218.5715244318
  0
POLYLINE
  8
0
 62
7
  6
CONTINUOUS
 66
1
 70
0
  0
VERTEX
  8
0
 62
7
  6
CONTINUOUS
 10
82.0180166754
 20
232.3319433956
  0
VERTEX
  8
0
 62
7
  6
CONTINUOUS
 10
82.0200780811
 20
232.3331672148
  0
VERTEX
  8
0
 62
7
  6
CONTINUOUS
 10
82.0191717395
 20
232.3326993665
  0
VERTEX
  8
0
 62
7
  6
CONTINUOUS
 10
82.0138186627
 20
232.3301101592
  0
VERTEX
  8
0
 62
7
  6
CONTINUOUS
 10
82.003929395
 20
232.3257486854
  0
VERTEX
  8
0
 62
7
  6
CONTINUOUS
 10
81.9931570204
 20
232.3213598753
  0
SEQEND
  0
LINE
  8
0
 62
7
  6
CONTINUOUS
 10
128.8555219242
 20
218.5715244318
 11
128.8555219242
 21
228.1715244318
  0
LINE
  8
0
 62
7
  6
CONTINUOUS
 10
132.3555219242
 20
230.8715244318
 11
132.3555219242
 21
231.7932913987
  0
LINE
  8
0
 62
7
  6
CONTINUOUS
 10
132.6555219242
 20
232.264223443
 11
132.6555219242
 21
233.284848379
  0
POLYLINE
  8
0
 62
7
  6
CONTINUOUS
 66
1
 70
0
  0
VERTEX
  8
0
 62
7
  6
CONTINUOUS
 10
107.4180166833
 20
232.3319434004
  0
VERTEX
  8
0
 62
7
  6
CONTINUOUS
 10
107.420078084
 20
232.3331672164
  0
VERTEX
  8
0
 62
7
  6
CONTINUOUS
 10
107.4191717318
 20
232.3326993626
  0
VERTEX
  8
0
 62
7
  6
CONTINUOUS
 10
107.4138186456
 20
232.3301101512
  0
VERTEX
  8
0
 62
7
  6
CONTINUOUS
 10
107.4039293774
 20
232.3257486779
  0
VERTEX
  8
0
 62
7
  6
CONTINUOUS
 10
107.3931570206
 20
232.3213598753
  0
SEQEND
  0
POLYLINE
  8
0
 62
7
  6
CONTINUOUS
 66
1
 70
0
  0
VERTEX
  8
0
 62
7
  6
CONTINUOUS
 10
81.9048470904
 20
232.286361588
  0
VERTEX
  8
0
 62
7
  6
CONTINUOUS
 10
81.8879158487
 20
232.2793485432
  0
VERTEX
  8
0
 62
7
  6
CONTINUOUS
 10
81.8593250855
 20
232.2662160238
  0
VERTEX
  8
0
 62
7
  6
CONTINUOUS
 10
81.829757506
 20
232.2507247557
  0
VERTEX
  8
0
 62
7
  6
CONTINUOUS
 10
81.7990432967
 20
232.2322741122
  0
VERTEX
  8
0
 62
7
  6
CONTINUOUS
 10
81.7671180673
 20
232.2101308604
  0
VERTEX
  8
0
 62
7
  6
CONTINUOUS
 10
81.7342167113
 20
232.1835388862
  0
VERTEX
  8
0
 62
7
  6
CONTINUOUS
 10
81.7017248903
 20
232.1526389145
  0
VERTEX
  8
0
 62
7
  6
CONTINUOUS
 10
81.6715426921
 20
232.118612935
  0
VERTEX
  8
0
 62
7
  6
CONTINUOUS
 10
81.6443104619
 20
232.0819532997
  0
VERTEX
  8
0
 62
7
  6
CONTINUOUS
 10
81.6203221239
 20
232.0429288461
  0
VERTEX
  8
0
 62
7
  6
CONTINUOUS
 10
81.5998310241
 20
232.0018444611
  0
VERTEX
  8
0
 62
7
  6
CONTINUOUS
 10
81.5830509736
 20
231.9590397304
  0
VERTEX
  8
0
 62
7
  6
CONTINUOUS
 10
81.5701534125
 20
231.914886344
  0
VERTEX
  8
0
 62
7
  6
CONTINUOUS
 10
81.5612608162
 20
231.8697696939
  0
VERTEX
  8
0
 62
7
  6
CONTINUOUS
 10
81.5564477144
 20
231.8240774477
  0
VERTEX
  8
0
 62
7
  6
CONTINUOUS
 10
81.5555220059
 20
231.793288613
  0
SEQEND
  0
LINE
  8
0
 62
7
  6
CONTINUOUS
 10
81.9931460268
 20
232.3213555357
 11
81.9048356713
 21
232.2863570627
  0
POLYLINE
  8
0
 62
7
  6
CONTINUOUS
 66
1
 70
0
  0
VERTEX
  8
0
 62
7
  6
CONTINUOUS
 10
137.7555218523
 20
231.7932886676
  0
VERTEX
  8
0
 62
7
  6
CONTINUOUS
 10
137.7545185987
 20
231.8253398113
  0
VERTEX
  8
0
 62
7
  6
CONTINUOUS
 10
137.7495897387
 20
231.8710398222
  0
VERTEX
  8
0
 62
7
  6
CONTINUOUS
 10
137.7405789801
 20
231.9161552216
  0
VERTEX
  8
0
 62
7
  6
CONTINUOUS
 10
137.7275622235
 20
231.9602960024
  0
VERTEX
  8
0
 62
7
  6
CONTINUOUS
 10
137.7106641488
 20
232.0030746848
  0
VERTEX
  8
0
 62
7
  6
CONTINUOUS
 10
137.6900590562
 20
232.0441181637
  0
VERTEX
  8
0
 62
7
  6
CONTINUOUS
 10
137.6659631151
 20
232.0830876646
  0
VERTEX
  8
0
 62
7
  6
CONTINUOUS
 10
137.6386275912
 20
232.1196848394
  0
VERTEX
  8
0
 62
7
  6
CONTINUOUS
 10
137.608341233
 20
232.153647476
  0
VERTEX
  8
0
 62
7
  6
CONTINUOUS
 10
137.5757703397
 20
232.1844607066
  0
VERTEX
  8
0
 62
7
  6
CONTINUOUS
 10
137.5428581554
 20
232.210925743
  0
VERTEX
  8
0
 62
7
  6
CONTINUOUS
 10
137.5109854685
 20
232.2329260736
  0
VERTEX
  8
0
 62
7
  6
CONTINUOUS
 10
137.4803490009
 20
232.2512483429
  0
VERTEX
  8
0
 62
7
  6
CONTINUOUS
 10
137.4508415028
 20
232.2666447394
  0
VERTEX
  8
0
 62
7
  6
CONTINUOUS
 10
137.4222508671
 20
232.2797251979
  0
VERTEX
  8
0
 62
7
  6
CONTINUOUS
 10
137.406198805
 20
232.2863607689
  0
SEQEND
  0
LINE
  8
0
 62
7
  6
CONTINUOUS
 10
137.4555219242
 20
233.284848379
 11
137.4555219242
 21
232.2642025932
  0
LINE
  8
0
 62
7
  6
CONTINUOUS
 10
137.7555219242
 20
231.7932913987
 11
137.7555219242
 21
230.8715244318
  0
LINE
  8
0
 62
7
  6
CONTINUOUS
 10
141.2555219242
 20
228.1715244318
 11
141.2555219242
 21
218.5715244318
  0
POLYLINE
  8
0
 62
7
  6
CONTINUOUS
 66
1
 70
0
  0
VERTEX
  8
0
 62
7
  6
CONTINUOUS
 10
107.3048470904
 20
232.286361588
  0
VERTEX
  8
0
 62
7
  6
CONTINUOUS
 10
107.2879158487
 20
232.2793485432
  0
VERTEX
  8
0
 62
7
  6
CONTINUOUS
 10
107.2593250855
 20
232.2662160238
  0
VERTEX
  8
0
 62
7
  6
CONTINUOUS
 10
107.229757506
 20
232.2507247557
  0
VERTEX
  8
0
 62
7
  6
CONTINUOUS
 10
107.1990432967
 20
232.2322741122
  0
VERTEX
  8
0
 62
7
  6
CONTINUOUS
 10
107.1671180673
 20
232.2101308604
  0
VERTEX
  8
0
 62
7
  6
CONTINUOUS
 10
107.1342167113
 20
232.1835388862
  0
VERTEX
  8
0
 62
7
  6
CONTINUOUS
 10
107.1017248903
 20
232.1526389145
  0
VERTEX
  8
0
 62
7
  6
CONTINUOUS
 10
107.0715426921
 20
232.118612935
  0
VERTEX
  8
0
 62
7
  6
CONTINUOUS
 10
107.0443104619
 20
232.0819532997
  0
VERTEX
  8
0
 62
7
  6
CONTINUOUS
 10
107.0203221239
 20
232.0429288461
  0
VERTEX
  8
0
 62
7
  6
CONTINUOUS
 10
106.9998310242
 20
232.0018444611
  0
VERTEX
  8
0
 62
7
  6
CONTINUOUS
 10
106.9830509736
 20
231.9590397304
  0
VERTEX
  8
0
 62
7
  6
CONTINUOUS
 10
106.9701534125
 20
231.914886344
  0
VERTEX
  8
0
 62
7
  6
CONTINUOUS
 10
106.9612608162
 20
231.8697696939
  0
VERTEX
  8
0
 62
7
  6
CONTINUOUS
 10
106.9564477144
 20
231.8240774477
  0
VERTEX
  8
0
 62
7
  6
CONTINUOUS
 10
106.9555220059
 20
231.793288613
  0
SEQEND
  0
LINE
  8
0
 62
7
  6
CONTINUOUS
 10
107.3931460268
 20
232.3213555357
 11
107.3048356713
 21
232.2863570627
  0
LINE
  8
0
 62
7
  6
CONTINUOUS
 10
154.2555219242
 20
218.5715244318
 11
154.2555219242
 21
228.1715244318
  0
POLYLINE
  8
0
 62
7
  6
CONTINUOUS
 66
1
 70
0
  0
VERTEX
  8
0
 62
7
  6
CONTINUOUS
 10
132.8180166833
 20
232.3319434004
  0
VERTEX
  8
0
 62
7
  6
CONTINUOUS
 10
132.820078084
 20
232.3331672165
  0
VERTEX
  8
0
 62
7
  6
CONTINUOUS
 10
132.8191717318
 20
232.3326993626
  0
VERTEX
  8
0
 62
7
  6
CONTINUOUS
 10
132.8138186456
 20
232.3301101512
  0
VERTEX
  8
0
 62
7
  6
CONTINUOUS
 10
132.8039293774
 20
232.3257486779
  0
VERTEX
  8
0
 62
7
  6
CONTINUOUS
 10
132.7931570206
 20
232.3213598753
  0
SEQEND
  0
POLYLINE
  8
0
 62
7
  6
CONTINUOUS
 66
1
 70
0
  0
VERTEX
  8
0
 62
7
  6
CONTINUOUS
 10
132.7048470904
 20
232.286361588
  0
VERTEX
  8
0
 62
7
  6
CONTINUOUS
 10
132.6879158487
 20
232.2793485432
  0
VERTEX
  8
0
 62
7
  6
CONTINUOUS
 10
132.6593250855
 20
232.2662160238
  0
VERTEX
  8
0
 62
7
  6
CONTINUOUS
 10
132.629757506
 20
232.2507247557
  0
VERTEX
  8
0
 62
7
  6
CONTINUOUS
 10
132.5990432967
 20
232.2322741122
  0
VERTEX
  8
0
 62
7
  6
CONTINUOUS
 10
132.5671180673
 20
232.2101308604
  0
VERTEX
  8
0
 62
7
  6
CONTINUOUS
 10
132.5342167113
 20
232.1835388862
  0
VERTEX
  8
0
 62
7
  6
CONTINUOUS
 10
132.5017248903
 20
232.1526389145
  0
VERTEX
  8
0
 62
7
  6
CONTINUOUS
 10
132.4715426921
 20
232.118612935
  0
VERTEX
  8
0
 62
7
  6
CONTINUOUS
 10
132.4443104619
 20
232.0819532997
  0
VERTEX
  8
0
 62
7
  6
CONTINUOUS
 10
132.4203221239
 20
232.0429288461
  0
VERTEX
  8
0
 62
7
  6
CONTINUOUS
 10
132.3998310242
 20
232.0018444611
  0
VERTEX
  8
0
 62
7
  6
CONTINUOUS
 10
132.3830509736
 20
231.9590397304
  0
VERTEX
  8
0
 62
7
  6
CONTINUOUS
 10
132.3701534125
 20
231.914886344
  0
VERTEX
  8
0
 62
7
  6
CONTINUOUS
 10
132.3612608162
 20
231.8697696939
  0
VERTEX
  8
0
 62
7
  6
CONTINUOUS
 10
132.3564477144
 20
231.8240774477
  0
VERTEX
  8
0
 62
7
  6
CONTINUOUS
 10
132.3555220059
 20
231.793288613
  0
SEQEND
  0
LINE
  8
0
 62
7
  6
CONTINUOUS
 10
132.7931460268
 20
232.3213555357
 11
132.7048356713
 21
232.2863570627
  0
LINE
  8
0
 62
7
  6
CONTINUOUS
 10
86.6062081768
 20
232.2863570628
 11
86.5178978217
 21
232.3213555357
  0
POLYLINE
  8
0
 62
7
  6
CONTINUOUS
 66
1
 70
0
  0
VERTEX
  8
0
 62
7
  6
CONTINUOUS
 10
86.5178873611
 20
232.3213596648
  0
VERTEX
  8
0
 62
7
  6
CONTINUOUS
 10
86.5069063917
 20
232.3258366442
  0
VERTEX
  8
0
 62
7
  6
CONTINUOUS
 10
86.4971034321
 20
232.3301666688
  0
VERTEX
  8
0
 62
7
  6
CONTINUOUS
 10
86.491825407
 20
232.3327232699
  0
VERTEX
  8
0
 62
7
  6
CONTINUOUS
 10
86.4907988981
 20
232.3332609633
  0
SEQEND
  0
POLYLINE
  8
0
 62
7
  6
CONTINUOUS
 66
1
 70
0
  0
VERTEX
  8
0
 62
7
  6
CONTINUOUS
 10
163.1555218523
 20
231.7932886676
  0
VERTEX
  8
0
 62
7
  6
CONTINUOUS
 10
163.1545185987
 20
231.8253398113
  0
VERTEX
  8
0
 62
7
  6
CONTINUOUS
 10
163.1495897387
 20
231.8710398222
  0
VERTEX
  8
0
 62
7
  6
CONTINUOUS
 10
163.1405789801
 20
231.9161552216
  0
VERTEX
  8
0
 62
7
  6
CONTINUOUS
 10
163.1275622235
 20
231.9602960024
  0
VERTEX
  8
0
 62
7
  6
CONTINUOUS
 10
163.1106641488
 20
232.0030746848
  0
VERTEX
  8
0
 62
7
  6
CONTINUOUS
 10
163.0900590562
 20
232.0441181637
  0
VERTEX
  8
0
 62
7
  6
CONTINUOUS
 10
163.0659631151
 20
232.0830876646
  0
VERTEX
  8
0
 62
7
  6
CONTINUOUS
 10
163.0386275912
 20
232.1196848394
  0
VERTEX
  8
0
 62
7
  6
CONTINUOUS
 10
163.008341233
 20
232.153647476
  0
VERTEX
  8
0
 62
7
  6
CONTINUOUS
 10
162.9757703397
 20
232.1844607066
  0
VERTEX
  8
0
 62
7
  6
CONTINUOUS
 10
162.9428581554
 20
232.210925743
  0
VERTEX
  8
0
 62
7
  6
CONTINUOUS
 10
162.9109854685
 20
232.2329260736
  0
VERTEX
  8
0
 62
7
  6
CONTINUOUS
 10
162.8803490009
 20
232.2512483429
  0
VERTEX
  8
0
 62
7
  6
CONTINUOUS
 10
162.8508415028
 20
232.2666447394
  0
VERTEX
  8
0
 62
7
  6
CONTINUOUS
 10
162.8222508671
 20
232.2797251979
  0
VERTEX
  8
0
 62
7
  6
CONTINUOUS
 10
162.806198805
 20
232.2863607689
  0
SEQEND
  0
LINE
  8
0
 62
7
  6
CONTINUOUS
 10
157.7555219242
 20
230.8715244318
 11
157.7555219242
 21
231.7932913987
  0
LINE
  8
0
 62
7
  6
CONTINUOUS
 10
158.0555219242
 20
232.264223443
 11
158.0555219242
 21
233.284848379
  0
LINE
  8
0
 62
7
  6
CONTINUOUS
 10
162.8555219242
 20
233.284848379
 11
162.8555219242
 21
232.2642025932
  0
LINE
  8
0
 62
7
  6
CONTINUOUS
 10
163.1555219242
 20
231.7932913987
 11
163.1555219242
 21
230.8715244318
  0
LINE
  8
0
 62
7
  6
CONTINUOUS
 10
166.6555219242
 20
228.1715244318
 11
166.6555219242
 21
218.5715244318
  0
POLYLINE
  8
0
 62
7
  6
CONTINUOUS
 66
1
 70
0
  0
VERTEX
  8
0
 62
7
  6
CONTINUOUS
 10
158.2180166833
 20
232.3319434004
  0
VERTEX
  8
0
 62
7
  6
CONTINUOUS
 10
158.220078084
 20
232.3331672165
  0
VERTEX
  8
0
 62
7
  6
CONTINUOUS
 10
158.2191717318
 20
232.3326993626
  0
VERTEX
  8
0
 62
7
  6
CONTINUOUS
 10
158.2138186456
 20
232.3301101512
  0
VERTEX
  8
0
 62
7
  6
CONTINUOUS
 10
158.2039293774
 20
232.3257486779
  0
VERTEX
  8
0
 62
7
  6
CONTINUOUS
 10
158.1931570206
 20
232.3213598753
  0
SEQEND
  0
POLYLINE
  8
0
 62
7
  6
CONTINUOUS
 66
1
 70
0
  0
VERTEX
  8
0
 62
7
  6
CONTINUOUS
 10
158.1048470904
 20
232.286361588
  0
VERTEX
  8
0
 62
7
  6
CONTINUOUS
 10
158.0879158487
 20
232.2793485432
  0
VERTEX
  8
0
 62
7
  6
CONTINUOUS
 10
158.0593250855
 20
232.2662160238
  0
VERTEX
  8
0
 62
7
  6
CONTINUOUS
 10
158.029757506
 20
232.2507247557
  0
VERTEX
  8
0
 62
7
  6
CONTINUOUS
 10
157.9990432967
 20
232.2322741122
  0
VERTEX
  8
0
 62
7
  6
CONTINUOUS
 10
157.9671180673
 20
232.2101308604
  0
VERTEX
  8
0
 62
7
  6
CONTINUOUS
 10
157.9342167113
 20
232.1835388862
  0
VERTEX
  8
0
 62
7
  6
CONTINUOUS
 10
157.9017248903
 20
232.1526389145
  0
VERTEX
  8
0
 62
7
  6
CONTINUOUS
 10
157.8715426921
 20
232.118612935
  0
VERTEX
  8
0
 62
7
  6
CONTINUOUS
 10
157.8443104619
 20
232.0819532997
  0
VERTEX
  8
0
 62
7
  6
CONTINUOUS
 10
157.8203221239
 20
232.0429288461
  0
VERTEX
  8
0
 62
7
  6
CONTINUOUS
 10
157.7998310241
 20
232.0018444611
  0
VERTEX
  8
0
 62
7
  6
CONTINUOUS
 10
157.7830509736
 20
231.9590397304
  0
VERTEX
  8
0
 62
7
  6
CONTINUOUS
 10
157.7701534125
 20
231.914886344
  0
VERTEX
  8
0
 62
7
  6
CONTINUOUS
 10
157.7612608162
 20
231.8697696939
  0
VERTEX
  8
0
 62
7
  6
CONTINUOUS
 10
157.7564477144
 20
231.8240774477
  0
VERTEX
  8
0
 62
7
  6
CONTINUOUS
 10
157.7555220059
 20
231.793288613
  0
SEQEND
  0
LINE
  8
0
 62
7
  6
CONTINUOUS
 10
158.1931460268
 20
232.3213555357
 11
158.1048356713
 21
232.2863570627
  0
LINE
  8
0
 62
7
  6
CONTINUOUS
 10
27.6555219242
 20
215.8715244318
 11
331.3555219242
 21
215.8715244318
  0
LINE
  8
0
 62
7
  6
CONTINUOUS
 10
112.0062081768
 20
232.2863570628
 11
111.9178978217
 21
232.3213555357
  0
POLYLINE
  8
0
 62
7
  6
CONTINUOUS
 66
1
 70
0
  0
VERTEX
  8
0
 62
7
  6
CONTINUOUS
 10
111.9178873611
 20
232.3213596648
  0
VERTEX
  8
0
 62
7
  6
CONTINUOUS
 10
111.9069063917
 20
232.3258366442
  0
VERTEX
  8
0
 62
7
  6
CONTINUOUS
 10
111.8971034321
 20
232.3301666688
  0
VERTEX
  8
0
 62
7
  6
CONTINUOUS
 10
111.891825407
 20
232.3327232699
  0
VERTEX
  8
0
 62
7
  6
CONTINUOUS
 10
111.8907988981
 20
232.3332609633
  0
SEQEND
  0
POLYLINE
  8
0
 62
7
  6
CONTINUOUS
 66
1
 70
0
  0
VERTEX
  8
0
 62
7
  6
CONTINUOUS
 10
183.6180166833
 20
232.3319434004
  0
VERTEX
  8
0
 62
7
  6
CONTINUOUS
 10
183.620078084
 20
232.3331672165
  0
VERTEX
  8
0
 62
7
  6
CONTINUOUS
 10
183.6191717318
 20
232.3326993626
  0
VERTEX
  8
0
 62
7
  6
CONTINUOUS
 10
183.6138186456
 20
232.3301101512
  0
VERTEX
  8
0
 62
7
  6
CONTINUOUS
 10
183.6039293774
 20
232.3257486779
  0
VERTEX
  8
0
 62
7
  6
CONTINUOUS
 10
183.5931570206
 20
232.3213598753
  0
SEQEND
  0
POLYLINE
  8
0
 62
7
  6
CONTINUOUS
 66
1
 70
0
  0
VERTEX
  8
0
 62
7
  6
CONTINUOUS
 10
183.5048470904
 20
232.286361588
  0
VERTEX
  8
0
 62
7
  6
CONTINUOUS
 10
183.4879158487
 20
232.2793485432
  0
VERTEX
  8
0
 62
7
  6
CONTINUOUS
 10
183.4593250855
 20
232.2662160238
  0
VERTEX
  8
0
 62
7
  6
CONTINUOUS
 10
183.429757506
 20
232.2507247557
  0
VERTEX
  8
0
 62
7
  6
CONTINUOUS
 10
183.3990432967
 20
232.2322741122
  0
VERTEX
  8
0
 62
7
  6
CONTINUOUS
 10
183.3671180673
 20
232.2101308604
  0
VERTEX
  8
0
 62
7
  6
CONTINUOUS
 10
183.3342167113
 20
232.1835388862
  0
VERTEX
  8
0
 62
7
  6
CONTINUOUS
 10
183.3017248903
 20
232.1526389145
  0
VERTEX
  8
0
 62
7
  6
CONTINUOUS
 10
183.2715426921
 20
232.118612935
  0
VERTEX
  8
0
 62
7
  6
CONTINUOUS
 10
183.2443104619
 20
232.0819532997
  0
VERTEX
  8
0
 62
7
  6
CONTINUOUS
 10
183.2203221239
 20
232.0429288461
  0
VERTEX
  8
0
 62
7
  6
CONTINUOUS
 10
183.1998310241
 20
232.0018444611
  0
VERTEX
  8
0
 62
7
  6
CONTINUOUS
 10
183.1830509736
 20
231.9590397304
  0
VERTEX
  8
0
 62
7
  6
CONTINUOUS
 10
183.1701534125
 20
231.914886344
  0
VERTEX
  8
0
 62
7
  6
CONTINUOUS
 10
183.1612608162
 20
231.8697696939
  0
VERTEX
  8
0
 62
7
  6
CONTINUOUS
 10
183.1564477144
 20
231.8240774477
  0
VERTEX
  8
0
 62
7
  6
CONTINUOUS
 10
183.1555220059
 20
231.793288613
  0
SEQEND
  0
LINE
  8
0
 62
7
  6
CONTINUOUS
 10
183.5931460268
 20
232.3213555357
 11
183.5048356713
 21
232.2863570627
  0
LINE
  8
DEFAULT_1
 62
2
  6
CENTER
 10
18.2797712934
 20
223.3715244318
 11
359.3711734915
 21
223.3715244318
  0
LINE
  8
0
 62
7
  6
CONTINUOUS
 10
137.4062081768
 20
232.2863570628
 11
137.3178978217
 21
232.3213555357
  0
POLYLINE
  8
0
 62
7
  6
CONTINUOUS
 66
1
 70
0
  0
VERTEX
  8
0
 62
7
  6
CONTINUOUS
 10
137.3178873611
 20
232.3213596648
  0
VERTEX
  8
0
 62
7
  6
CONTINUOUS
 10
137.3069063917
 20
232.3258366442
  0
VERTEX
  8
0
 62
7
  6
CONTINUOUS
 10
137.2971034321
 20
232.3301666688
  0
VERTEX
  8
0
 62
7
  6
CONTINUOUS
 10
137.291825407
 20
232.3327232699
  0
VERTEX
  8
0
 62
7
  6
CONTINUOUS
 10
137.2907988981
 20
232.3332609633
  0
SEQEND
  0
LINE
  8
DEFAULT_1
 62
2
  6
CENTER
 10
179.5055219242
 20
213.0820507475
 11
179.5055219242
 21
235.871524483
  0
LINE
  8
0
 62
7
  6
CONTINUOUS
 10
179.6555219242
 20
218.5715244318
 11
179.6555219242
 21
228.1715244318
  0
LINE
  8
0
 62
7
  6
CONTINUOUS
 10
183.1555219242
 20
230.8715244318
 11
183.1555219242
 21
231.7932913987
  0
LINE
  8
0
 62
7
  6
CONTINUOUS
 10
183.4555219242
 20
232.264223443
 11
183.4555219242
 21
233.284848379
  0
POLYLINE
  8
0
 62
7
  6
CONTINUOUS
 66
1
 70
0
  0
VERTEX
  8
0
 62
7
  6
CONTINUOUS
 10
209.0180166833
 20
232.3319434004
  0
VERTEX
  8
0
 62
7
  6
CONTINUOUS
 10
209.020078084
 20
232.3331672165
  0
VERTEX
  8
0
 62
7
  6
CONTINUOUS
 10
209.0191717318
 20
232.3326993626
  0
VERTEX
  8
0
 62
7
  6
CONTINUOUS
 10
209.0138186456
 20
232.3301101512
  0
VERTEX
  8
0
 62
7
  6
CONTINUOUS
 10
209.0039293774
 20
232.3257486779
  0
VERTEX
  8
0
 62
7
  6
CONTINUOUS
 10
208.9931570206
 20
232.3213598753
  0
SEQEND
  0
POLYLINE
  8
0
 62
7
  6
CONTINUOUS
 66
1
 70
0
  0
VERTEX
  8
0
 62
7
  6
CONTINUOUS
 10
208.9048470904
 20
232.286361588
  0
VERTEX
  8
0
 62
7
  6
CONTINUOUS
 10
208.8879158487
 20
232.2793485432
  0
VERTEX
  8
0
 62
7
  6
CONTINUOUS
 10
208.8593250855
 20
232.2662160238
  0
VERTEX
  8
0
 62
7
  6
CONTINUOUS
 10
208.829757506
 20
232.2507247557
  0
VERTEX
  8
0
 62
7
  6
CONTINUOUS
 10
208.7990432967
 20
232.2322741122
  0
VERTEX
  8
0
 62
7
  6
CONTINUOUS
 10
208.7671180673
 20
232.2101308604
  0
VERTEX
  8
0
 62
7
  6
CONTINUOUS
 10
208.7342167113
 20
232.1835388862
  0
VERTEX
  8
0
 62
7
  6
CONTINUOUS
 10
208.7017248903
 20
232.1526389145
  0
VERTEX
  8
0
 62
7
  6
CONTINUOUS
 10
208.6715426921
 20
232.118612935
  0
VERTEX
  8
0
 62
7
  6
CONTINUOUS
 10
208.6443104619
 20
232.0819532997
  0
VERTEX
  8
0
 62
7
  6
CONTINUOUS
 10
208.6203221239
 20
232.0429288461
  0
VERTEX
  8
0
 62
7
  6
CONTINUOUS
 10
208.5998310241
 20
232.0018444611
  0
VERTEX
  8
0
 62
7
  6
CONTINUOUS
 10
208.5830509736
 20
231.9590397304
  0
VERTEX
  8
0
 62
7
  6
CONTINUOUS
 10
208.5701534125
 20
231.914886344
  0
VERTEX
  8
0
 62
7
  6
CONTINUOUS
 10
208.5612608162
 20
231.8697696939
  0
VERTEX
  8
0
 62
7
  6
CONTINUOUS
 10
208.5564477144
 20
231.8240774477
  0
VERTEX
  8
0
 62
7
  6
CONTINUOUS
 10
208.5555220059
 20
231.793288613
  0
SEQEND
  0
LINE
  8
0
 62
7
  6
CONTINUOUS
 10
208.9931460268
 20
232.3213555357
 11
208.9048356713
 21
232.2863570627
  0
LINE
  8
0
 62
7
  6
CONTINUOUS
 10
82.5956046695
 20
233.8595092968
 11
82.544318672
 21
233.8581437622
  0
LINE
  8
0
 62
7
  6
CONTINUOUS
 10
82.6856890413
 20
233.8614210218
 11
82.5956046695
 21
233.8595092968
  0
LINE
  8
0
 62
7
  6
CONTINUOUS
 10
82.8331712187
 20
233.8636887883
 11
82.6856890413
 21
233.8614210218
  0
LINE
  8
0
 62
7
  6
CONTINUOUS
 10
83.0685299562
 20
233.8660303559
 11
82.8331712187
 21
233.8636887883
  0
LINE
  8
0
 62
7
  6
CONTINUOUS
 10
83.5790579555
 20
233.8685212044
 11
83.0685299562
 21
233.8660303559
  0
LINE
  8
0
 62
7
  6
CONTINUOUS
 10
219.9038163981
 20
233.8709183161
 11
219.5471141011
 21
233.8703905377
  0
LINE
  8
0
 62
7
  6
CONTINUOUS
 10
194.5038163981
 20
233.8709183161
 11
194.1471141011
 21
233.8703905377
  0
LINE
  8
0
 62
7
  6
CONTINUOUS
 10
219.5471141011
 20
233.8703905377
 11
218.8101933126
 21
233.869598091
  0
LINE
  8
0
 62
7
  6
CONTINUOUS
 10
194.1471141011
 20
233.8703905377
 11
193.4101933126
 21
233.869598091
  0
LINE
  8
0
 62
7
  6
CONTINUOUS
 10
169.4474160852
 20
233.8713562474
 11
168.0101933126
 21
233.869598091
  0
LINE
  8
0
 62
7
  6
CONTINUOUS
 10
220.5486880445
 20
233.8715244578
 11
219.9038163981
 21
233.8709183161
  0
LINE
  8
0
 62
7
  6
CONTINUOUS
 10
195.1486880445
 20
233.8715244578
 11
194.5038163981
 21
233.8709183161
  0
LINE
  8
0
 62
7
  6
CONTINUOUS
 10
144.3486880445
 20
233.8715244578
 11
142.7961420072
 21
233.8697334983
  0
LINE
  8
0
 62
7
  6
CONTINUOUS
 10
118.9486880445
 20
233.8715244578
 11
117.3961420072
 21
233.8697334983
  0
LINE
  8
0
 62
7
  6
CONTINUOUS
 10
93.5486880445
 20
233.8715244578
 11
91.9961420072
 21
233.8697334983
  0
LINE
  8
0
 62
7
  6
CONTINUOUS
 10
27.6555219242
 20
230.8715244318
 11
331.3555219242
 21
230.8715244318
  0
LINE
  8
0
 62
7
  6
CONTINUOUS
 10
84.3555591538
 20
233.8694929903
 11
91.9961420072
 21
233.8697334983
  0
LINE
  8
0
 62
7
  6
CONTINUOUS
 10
225.6588096132
 20
233.8715244318
 11
220.5477431055
 21
233.8715244318
  0
LINE
  8
0
 62
7
  6
CONTINUOUS
 10
84.3555591538
 20
233.8694929907
 11
83.5790579555
 21
233.8685212044
  0
LINE
  8
0
 62
7
  6
CONTINUOUS
 10
117.3961420072
 20
233.8697334983
 11
102.2748490597
 21
233.8695196982
  0
LINE
  8
0
 62
7
  6
CONTINUOUS
 10
142.7961420072
 20
233.8697334983
 11
127.6748490597
 21
233.8695196982
  0
LINE
  8
0
 62
7
  6
CONTINUOUS
 10
168.0101933126
 20
233.869598091
 11
153.0748490597
 21
233.8695196982
  0
LINE
  8
0
 62
7
  6
CONTINUOUS
 10
193.4101933126
 20
233.869598091
 11
178.4748490597
 21
233.8695196982
  0
LINE
  8
0
 62
7
  6
CONTINUOUS
 10
169.4474160852
 20
233.8713562474
 11
176.6635667939
 21
233.8715026786
  0
LINE
  8
0
 62
7
  6
CONTINUOUS
 10
218.8101933126
 20
233.869598091
 11
203.8748490597
 21
233.8695196982
  0
LINE
  8
0
 62
7
  6
CONTINUOUS
 10
153.2555220126
 20
233.8694851469
 11
152.4912303092
 21
233.8699600644
  0
LINE
  8
0
 62
7
  6
CONTINUOUS
 10
102.4555220126
 20
233.8694851469
 11
101.4999923656
 21
233.8702009224
  0
LINE
  8
0
 62
7
  6
CONTINUOUS
 10
93.5477431055
 20
233.8715244318
 11
100.8167319206
 21
233.8711792122
  0
LINE
  8
0
 62
7
  6
CONTINUOUS
 10
127.8555220126
 20
233.8694851469
 11
126.8999923656
 21
233.8702009224
  0
LINE
  8
0
 62
7
  6
CONTINUOUS
 10
118.9477431055
 20
233.8715244318
 11
126.2167319206
 21
233.8711792122
  0
LINE
  8
0
 62
7
  6
CONTINUOUS
 10
144.3477431055
 20
233.8715244318
 11
151.6167319207
 21
233.8711792122
  0
LINE
  8
0
 62
7
  6
CONTINUOUS
 10
178.5066025963
 20
233.8695036932
 11
177.6999923656
 21
233.8702009224
  0
LINE
  8
0
 62
7
  6
CONTINUOUS
 10
195.1477431055
 20
233.8715244318
 11
202.4167319206
 21
233.8711792122
  0
LINE
  8
0
 62
7
  6
CONTINUOUS
 10
203.0999923657
 20
233.8702009224
 11
203.9066025963
 21
233.8695036932
  0
LINE
  8
0
 62
7
  6
CONTINUOUS
 10
101.7726580776
 20
233.8698632915
 11
101.0423461487
 21
233.8708643053
  0
LINE
  8
0
 62
7
  6
CONTINUOUS
 10
101.2782273017
 20
233.8705121025
 11
101.3991980162
 21
233.8703358505
  0
LINE
  8
0
 62
7
  6
CONTINUOUS
 10
101.1238827069
 20
233.8707471973
 11
100.7591100397
 21
233.8712514034
  0
LINE
  8
0
 62
7
  6
CONTINUOUS
 10
127.1726580775
 20
233.8698632915
 11
126.4423461487
 21
233.8708643053
  0
LINE
  8
0
 62
7
  6
CONTINUOUS
 10
126.6782273017
 20
233.8705121025
 11
126.7991980162
 21
233.8703358505
  0
LINE
  8
0
 62
7
  6
CONTINUOUS
 10
126.5238827069
 20
233.8707471973
 11
126.1591100397
 21
233.8712514034
  0
LINE
  8
0
 62
7
  6
CONTINUOUS
 10
152.7001482265
 20
233.8697385435
 11
151.5591100397
 21
233.8712514034
  0
LINE
  8
0
 62
7
  6
CONTINUOUS
 10
177.8466593729
 20
233.8700069503
 11
176.663776967
 21
233.8715024473
  0
LINE
  8
0
 62
7
  6
CONTINUOUS
 10
203.1220350576
 20
233.8701659791
 11
202.3591100398
 21
233.8712514034
  0
LINE
  8
0
 62
7
  6
CONTINUOUS
 10
225.739831233
 20
233.871385714
 11
225.6596717529
 21
233.8715244311
  0
LINE
  8
0
 62
7
  6
CONTINUOUS
 10
225.789601653
 20
233.8710665297
 11
225.739831233
 21
233.871385714
  0
LINE
  8
0
 62
7
  6
CONTINUOUS
 10
225.8136236635
 20
233.8707839893
 11
225.789601653
 21
233.8710665297
  0
LINE
  8
0
 62
7
  6
CONTINUOUS
 10
225.8276659721
 20
233.8705519909
 11
225.8136236635
 21
233.8707839893
  0
LINE
  8
0
 62
7
  6
CONTINUOUS
 10
225.840420717
 20
233.8702769955
 11
225.8276659721
 21
233.8705519909
  0
LINE
  8
0
 62
7
  6
CONTINUOUS
 10
162.8062081768
 20
232.2863570628
 11
162.7178978217
 21
232.3213555357
  0
LINE
  8
0
 62
7
  6
CONTINUOUS
 10
188.2062081768
 20
232.2863570628
 11
188.1178978217
 21
232.3213555357
  0
POLYLINE
  8
0
 62
7
  6
CONTINUOUS
 66
1
 70
0
  0
VERTEX
  8
0
 62
7
  6
CONTINUOUS
 10
162.7178873611
 20
232.3213596648
  0
VERTEX
  8
0
 62
7
  6
CONTINUOUS
 10
162.7069063917
 20
232.3258366442
  0
VERTEX
  8
0
 62
7
  6
CONTINUOUS
 10
162.6971034321
 20
232.3301666688
  0
VERTEX
  8
0
 62
7
  6
CONTINUOUS
 10
162.691825407
 20
232.3327232699
  0
VERTEX
  8
0
 62
7
  6
CONTINUOUS
 10
162.6907988981
 20
232.3332609633
  0
SEQEND
  0
POLYLINE
  8
0
 62
7
  6
CONTINUOUS
 66
1
 70
0
  0
VERTEX
  8
0
 62
7
  6
CONTINUOUS
 10
188.1178873611
 20
232.3213596648
  0
VERTEX
  8
0
 62
7
  6
CONTINUOUS
 10
188.1069063917
 20
232.3258366442
  0
VERTEX
  8
0
 62
7
  6
CONTINUOUS
 10
188.0971034321
 20
232.3301666688
  0
VERTEX
  8
0
 62
7
  6
CONTINUOUS
 10
188.091825407
 20
232.3327232699
  0
VERTEX
  8
0
 62
7
  6
CONTINUOUS
 10
188.0907988981
 20
232.3332609633
  0
SEQEND
  0
POLYLINE
  8
0
 62
7
  6
CONTINUOUS
 66
1
 70
0
  0
VERTEX
  8
0
 62
7
  6
CONTINUOUS
 10
188.5555218523
 20
231.7932886676
  0
VERTEX
  8
0
 62
7
  6
CONTINUOUS
 10
188.5545185987
 20
231.8253398113
  0
VERTEX
  8
0
 62
7
  6
CONTINUOUS
 10
188.5495897387
 20
231.8710398222
  0
VERTEX
  8
0
 62
7
  6
CONTINUOUS
 10
188.5405789801
 20
231.9161552216
  0
VERTEX
  8
0
 62
7
  6
CONTINUOUS
 10
188.5275622235
 20
231.9602960024
  0
VERTEX
  8
0
 62
7
  6
CONTINUOUS
 10
188.5106641488
 20
232.0030746848
  0
VERTEX
  8
0
 62
7
  6
CONTINUOUS
 10
188.4900590562
 20
232.0441181637
  0
VERTEX
  8
0
 62
7
  6
CONTINUOUS
 10
188.4659631151
 20
232.0830876646
  0
VERTEX
  8
0
 62
7
  6
CONTINUOUS
 10
188.4386275912
 20
232.1196848394
  0
VERTEX
  8
0
 62
7
  6
CONTINUOUS
 10
188.4083412331
 20
232.153647476
  0
VERTEX
  8
0
 62
7
  6
CONTINUOUS
 10
188.3757703397
 20
232.1844607066
  0
VERTEX
  8
0
 62
7
  6
CONTINUOUS
 10
188.3428581554
 20
232.210925743
  0
VERTEX
  8
0
 62
7
  6
CONTINUOUS
 10
188.3109854685
 20
232.2329260736
  0
VERTEX
  8
0
 62
7
  6
CONTINUOUS
 10
188.2803490009
 20
232.2512483429
  0
VERTEX
  8
0
 62
7
  6
CONTINUOUS
 10
188.2508415028
 20
232.2666447394
  0
VERTEX
  8
0
 62
7
  6
CONTINUOUS
 10
188.2222508671
 20
232.2797251979
  0
VERTEX
  8
0
 62
7
  6
CONTINUOUS
 10
188.206198805
 20
232.2863607689
  0
SEQEND
  0
LINE
  8
0
 62
7
  6
CONTINUOUS
 10
188.2555219242
 20
233.284848379
 11
188.2555219242
 21
232.2642025932
  0
LINE
  8
0
 62
7
  6
CONTINUOUS
 10
188.5555219242
 20
231.7932913987
 11
188.5555219242
 21
230.8715244318
  0
LINE
  8
0
 62
7
  6
CONTINUOUS
 10
192.0555219242
 20
228.1715244318
 11
192.0555219242
 21
218.5715244318
  0
POLYLINE
  8
0
 62
7
  6
CONTINUOUS
 66
1
 70
0
  0
VERTEX
  8
0
 62
7
  6
CONTINUOUS
 10
82.345097213
 20
233.848080665
  0
VERTEX
  8
0
 62
7
  6
CONTINUOUS
 10
82.3332188437
 20
233.8469007234
  0
VERTEX
  8
0
 62
7
  6
CONTINUOUS
 10
82.321296153
 20
233.8455714718
  0
VERTEX
  8
0
 62
7
  6
CONTINUOUS
 10
82.3090784782
 20
233.8440356662
  0
VERTEX
  8
0
 62
7
  6
CONTINUOUS
 10
82.2962837151
 20
233.8422132003
  0
VERTEX
  8
0
 62
7
  6
CONTINUOUS
 10
82.2827276121
 20
233.8400151765
  0
VERTEX
  8
0
 62
7
  6
CONTINUOUS
 10
82.2683027068
 20
233.8373445687
  0
VERTEX
  8
0
 62
7
  6
CONTINUOUS
 10
82.2529931041
 20
233.8341053473
  0
VERTEX
  8
0
 62
7
  6
CONTINUOUS
 10
82.2366171458
 20
233.8301474332
  0
VERTEX
  8
0
 62
7
  6
CONTINUOUS
 10
82.2185560848
 20
233.8251556677
  0
VERTEX
  8
0
 62
7
  6
CONTINUOUS
 10
82.1980758205
 20
233.8186544263
  0
VERTEX
  8
0
 62
7
  6
CONTINUOUS
 10
82.174898412
 20
233.8101540239
  0
VERTEX
  8
0
 62
7
  6
CONTINUOUS
 10
82.14944178
 20
233.7993233181
  0
VERTEX
  8
0
 62
7
  6
CONTINUOUS
 10
82.122372693
 20
233.7859503377
  0
VERTEX
  8
0
 62
7
  6
CONTINUOUS
 10
82.0941298199
 20
233.7697553266
  0
VERTEX
  8
0
 62
7
  6
CONTINUOUS
 10
82.0650506033
 20
233.7503949752
  0
VERTEX
  8
0
 62
7
  6
CONTINUOUS
 10
82.0355028389
 20
233.7275048945
  0
VERTEX
  8
0
 62
7
  6
CONTINUOUS
 10
82.0058221977
 20
233.7006172507
  0
VERTEX
  8
0
 62
7
  6
CONTINUOUS
 10
81.9765391291
 20
233.6693229203
  0
VERTEX
  8
0
 62
7
  6
CONTINUOUS
 10
81.9487274256
 20
233.6338240178
  0
VERTEX
  8
0
 62
7
  6
CONTINUOUS
 10
81.9235274124
 20
233.594790124
  0
VERTEX
  8
0
 62
7
  6
CONTINUOUS
 10
81.9018141469
 20
233.5530833774
  0
VERTEX
  8
0
 62
7
  6
CONTINUOUS
 10
81.8840238724
 20
233.5092946875
  0
VERTEX
  8
0
 62
7
  6
CONTINUOUS
 10
81.8704062919
 20
233.4638938198
  0
VERTEX
  8
0
 62
7
  6
CONTINUOUS
 10
81.861136389
 20
233.4173817215
  0
VERTEX
  8
0
 62
7
  6
CONTINUOUS
 10
81.8563110334
 20
233.3702766703
  0
VERTEX
  8
0
 62
7
  6
CONTINUOUS
 10
81.8555592036
 20
233.3428428854
  0
SEQEND
  0
LINE
  8
0
 62
7
  6
CONTINUOUS
 10
82.3550056343
 20
233.8489612239
 11
82.345097213
 21
233.848080665
  0
LINE
  8
0
 62
7
  6
CONTINUOUS
 10
82.3695570985
 20
233.8501417674
 11
82.3550056343
 21
233.8489612239
  0
POLYLINE
  8
0
 62
7
  6
CONTINUOUS
 66
1
 70
0
  0
VERTEX
  8
0
 62
7
  6
CONTINUOUS
 10
82.4260403809
 20
233.8536305864
  0
VERTEX
  8
0
 62
7
  6
CONTINUOUS
 10
82.4106157185
 20
233.8528083226
  0
VERTEX
  8
0
 62
7
  6
CONTINUOUS
 10
82.3961450178
 20
233.851957883
  0
VERTEX
  8
0
 62
7
  6
CONTINUOUS
 10
82.3825050328
 20
233.8510723974
  0
VERTEX
  8
0
 62
7
  6
CONTINUOUS
 10
82.3695570985
 20
233.8501417674
  0
SEQEND
  0
LINE
  8
0
 62
7
  6
CONTINUOUS
 10
82.4601972643
 20
233.8552079992
 11
82.4260403809
 21
233.8536305864
  0
LINE
  8
0
 62
7
  6
CONTINUOUS
 10
82.4993960678
 20
233.8567101484
 11
82.4601972643
 21
233.8552079992
  0
LINE
  8
0
 62
7
  6
CONTINUOUS
 10
82.544318672
 20
233.8581437622
 11
82.4993960678
 21
233.8567101484
  0
LINE
  8
0
 62
7
  6
CONTINUOUS
 10
213.6062081768
 20
232.2863570628
 11
213.5178978217
 21
232.3213555357
  0
POLYLINE
  8
0
 62
7
  6
CONTINUOUS
 66
1
 70
0
  0
VERTEX
  8
0
 62
7
  6
CONTINUOUS
 10
213.5178873611
 20
232.3213596648
  0
VERTEX
  8
0
 62
7
  6
CONTINUOUS
 10
213.5069063917
 20
232.3258366442
  0
VERTEX
  8
0
 62
7
  6
CONTINUOUS
 10
213.4971034321
 20
232.3301666688
  0
VERTEX
  8
0
 62
7
  6
CONTINUOUS
 10
213.491825407
 20
232.3327232699
  0
VERTEX
  8
0
 62
7
  6
CONTINUOUS
 10
213.4907988981
 20
232.3332609633
  0
SEQEND
  0
LINE
  8
0
 62
7
  6
CONTINUOUS
 10
205.0555219242
 20
218.5715244318
 11
205.0555219242
 21
228.1715244318
  0
LINE
  8
0
 62
7
  6
CONTINUOUS
 10
208.5555219242
 20
230.8715244318
 11
208.5555219242
 21
231.7932913987
  0
POLYLINE
  8
0
 62
7
  6
CONTINUOUS
 66
1
 70
0
  0
VERTEX
  8
0
 62
7
  6
CONTINUOUS
 10
213.9555218523
 20
231.7932886676
  0
VERTEX
  8
0
 62
7
  6
CONTINUOUS
 10
213.9545185987
 20
231.8253398113
  0
VERTEX
  8
0
 62
7
  6
CONTINUOUS
 10
213.9495897387
 20
231.8710398222
  0
VERTEX
  8
0
 62
7
  6
CONTINUOUS
 10
213.9405789801
 20
231.9161552216
  0
VERTEX
  8
0
 62
7
  6
CONTINUOUS
 10
213.9275622235
 20
231.9602960024
  0
VERTEX
  8
0
 62
7
  6
CONTINUOUS
 10
213.9106641488
 20
232.0030746849
  0
VERTEX
  8
0
 62
7
  6
CONTINUOUS
 10
213.8900590562
 20
232.0441181637
  0
VERTEX
  8
0
 62
7
  6
CONTINUOUS
 10
213.8659631151
 20
232.0830876646
  0
VERTEX
  8
0
 62
7
  6
CONTINUOUS
 10
213.8386275912
 20
232.1196848394
  0
VERTEX
  8
0
 62
7
  6
CONTINUOUS
 10
213.808341233
 20
232.153647476
  0
VERTEX
  8
0
 62
7
  6
CONTINUOUS
 10
213.7757703397
 20
232.1844607066
  0
VERTEX
  8
0
 62
7
  6
CONTINUOUS
 10
213.7428581554
 20
232.210925743
  0
VERTEX
  8
0
 62
7
  6
CONTINUOUS
 10
213.7109854684
 20
232.2329260736
  0
VERTEX
  8
0
 62
7
  6
CONTINUOUS
 10
213.6803490009
 20
232.2512483429
  0
VERTEX
  8
0
 62
7
  6
CONTINUOUS
 10
213.6508415028
 20
232.2666447394
  0
VERTEX
  8
0
 62
7
  6
CONTINUOUS
 10
213.6222508671
 20
232.2797251979
  0
VERTEX
  8
0
 62
7
  6
CONTINUOUS
 10
213.606198805
 20
232.2863607689
  0
SEQEND
  0
LINE
  8
0
 62
7
  6
CONTINUOUS
 10
208.8555219242
 20
232.264223443
 11
208.8555219242
 21
233.284848379
  0
LINE
  8
0
 62
7
  6
CONTINUOUS
 10
213.6555219242
 20
233.284848379
 11
213.6555219242
 21
232.2642025932
  0
LINE
  8
0
 62
7
  6
CONTINUOUS
 10
213.9555219242
 20
231.7932913987
 11
213.9555219242
 21
230.8715244318
  0
LINE
  8
0
 62
7
  6
CONTINUOUS
 10
217.4555219242
 20
228.1715244318
 11
217.4555219242
 21
218.5715244318
  0
POLYLINE
  8
0
 62
7
  6
CONTINUOUS
 66
1
 70
0
  0
VERTEX
  8
0
 62
7
  6
CONTINUOUS
 10
226.6555218427
 20
231.7733795785
  0
VERTEX
  8
0
 62
7
  6
CONTINUOUS
 10
226.6545983242
 20
231.8041368052
  0
VERTEX
  8
0
 62
7
  6
CONTINUOUS
 10
226.6498085363
 20
231.8497034696
  0
VERTEX
  8
0
 62
7
  6
CONTINUOUS
 10
226.6409631715
 20
231.8946983552
  0
VERTEX
  8
0
 62
7
  6
CONTINUOUS
 10
226.6281357151
 20
231.9387387422
  0
VERTEX
  8
0
 62
7
  6
CONTINUOUS
 10
226.6114465483
 20
231.9814439424
  0
VERTEX
  8
0
 62
7
  6
CONTINUOUS
 10
226.5910641049
 20
232.0224463397
  0
VERTEX
  8
0
 62
7
  6
CONTINUOUS
 10
226.5671991477
 20
232.0614085994
  0
VERTEX
  8
0
 62
7
  6
CONTINUOUS
 10
226.5401048199
 20
232.0980236621
  0
VERTEX
  8
0
 62
7
  6
CONTINUOUS
 10
226.5100768633
 20
232.1320200314
  0
VERTEX
  8
0
 62
7
  6
CONTINUOUS
 10
226.4777315685
 20
232.1629260487
  0
VERTEX
  8
0
 62
7
  6
CONTINUOUS
 10
226.4449212981
 20
232.1895805512
  0
VERTEX
  8
0
 62
7
  6
CONTINUOUS
 10
226.4130155901
 20
232.2118291779
  0
VERTEX
  8
0
 62
7
  6
CONTINUOUS
 10
226.3822750581
 20
232.2303966411
  0
VERTEX
  8
0
 62
7
  6
CONTINUOUS
 10
226.3555219242
 20
232.2444909529
  0
SEQEND
  0
POLYLINE
  8
0
 62
7
  6
CONTINUOUS
 66
1
 70
0
  0
VERTEX
  8
0
 62
7
  6
CONTINUOUS
 10
226.3555218744
 20
233.3686503928
  0
VERTEX
  8
0
 62
7
  6
CONTINUOUS
 10
226.3546465656
 20
233.3982257558
  0
VERTEX
  8
0
 62
7
  6
CONTINUOUS
 10
226.3501162134
 20
233.4419812356
  0
VERTEX
  8
0
 62
7
  6
CONTINUOUS
 10
226.3422030252
 20
233.4832970719
  0
VERTEX
  8
0
 62
7
  6
CONTINUOUS
 10
226.33139433
 20
233.5221098225
  0
VERTEX
  8
0
 62
7
  6
CONTINUOUS
 10
226.3181185236
 20
233.5584166444
  0
VERTEX
  8
0
 62
7
  6
CONTINUOUS
 10
226.3027450832
 20
233.5922600457
  0
VERTEX
  8
0
 62
7
  6
CONTINUOUS
 10
226.2855872396
 20
233.6237133605
  0
VERTEX
  8
0
 62
7
  6
CONTINUOUS
 10
226.2669361212
 20
233.6528256723
  0
VERTEX
  8
0
 62
7
  6
CONTINUOUS
 10
226.2470864528
 20
233.6796148127
  0
VERTEX
  8
0
 62
7
  6
CONTINUOUS
 10
226.2263126053
 20
233.7041214634
  0
VERTEX
  8
0
 62
7
  6
CONTINUOUS
 10
226.2048657419
 20
233.7264085687
  0
VERTEX
  8
0
 62
7
  6
CONTINUOUS
 10
226.182960006
 20
233.7465688281
  0
VERTEX
  8
0
 62
7
  6
CONTINUOUS
 10
226.1607672905
 20
233.7647185552
  0
VERTEX
  8
0
 62
7
  6
CONTINUOUS
 10
226.1384314406
 20
233.780978386
  0
VERTEX
  8
0
 62
7
  6
CONTINUOUS
 10
226.116080506
 20
233.7954638754
  0
VERTEX
  8
0
 62
7
  6
CONTINUOUS
 10
226.0938803148
 20
233.8082584441
  0
VERTEX
  8
0
 62
7
  6
CONTINUOUS
 10
226.0720029414
 20
233.8194459891
  0
VERTEX
  8
0
 62
7
  6
CONTINUOUS
 10
226.0506076004
 20
233.8291225502
  0
VERTEX
  8
0
 62
7
  6
CONTINUOUS
 10
226.0298475505
 20
233.8373911487
  0
VERTEX
  8
0
 62
7
  6
CONTINUOUS
 10
226.0098819437
 20
233.8443572726
  0
VERTEX
  8
0
 62
7
  6
CONTINUOUS
 10
225.9908644684
 20
233.850133755
  0
VERTEX
  8
0
 62
7
  6
CONTINUOUS
 10
225.9730807875
 20
233.8548058687
  0
VERTEX
  8
0
 62
7
  6
CONTINUOUS
 10
225.9569629486
 20
233.8584505377
  0
VERTEX
  8
0
 62
7
  6
CONTINUOUS
 10
225.9427913825
 20
233.8612044208
  0
VERTEX
  8
0
 62
7
  6
CONTINUOUS
 10
225.9302276296
 20
233.8633018999
  0
VERTEX
  8
0
 62
7
  6
CONTINUOUS
 10
225.9186833203
 20
233.8649512304
  0
VERTEX
  8
0
 62
7
  6
CONTINUOUS
 10
225.9080518052
 20
233.8662413209
  0
VERTEX
  8
0
 62
7
  6
CONTINUOUS
 10
225.8985932051
 20
233.8672112097
  0
VERTEX
  8
0
 62
7
  6
CONTINUOUS
 10
225.8903066238
 20
233.8679297404
  0
VERTEX
  8
0
 62
7
  6
CONTINUOUS
 10
225.8829335833
 20
233.8684724261
  0
VERTEX
  8
0
 62
7
  6
CONTINUOUS
 10
225.8762142709
 20
233.8688940355
  0
VERTEX
  8
0
 62
7
  6
CONTINUOUS
 10
225.8699331149
 20
233.8692314259
  0
VERTEX
  8
0
 62
7
  6
CONTINUOUS
 10
225.8639331848
 20
233.8695085149
  0
VERTEX
  8
0
 62
7
  6
CONTINUOUS
 10
225.8580932576
 20
233.8697414631
  0
VERTEX
  8
0
 62
7
  6
CONTINUOUS
 10
225.8522970573
 20
233.8699420556
  0
VERTEX
  8
0
 62
7
  6
CONTINUOUS
 10
225.840420717
 20
233.8702769955
  0
SEQEND
  0
LINE
  8
0
 62
7
  6
CONTINUOUS
 10
226.3555219242
 20
230.8715244318
 11
226.3555219242
 21
233.368650543
  0
LINE
  8
0
 62
7
  6
CONTINUOUS
 10
226.6555219242
 20
231.7733823752
 11
226.6555219242
 21
230.8715244318
  0
POLYLINE
  8
0
 62
7
  6
CONTINUOUS
 66
1
 70
0
  0
VERTEX
  8
0
 62
7
  6
CONTINUOUS
 10
331.6555219242
 20
226.5901588205
  0
VERTEX
  8
0
 62
7
  6
CONTINUOUS
 10
331.672141363
 20
226.5848102573
  0
VERTEX
  8
0
 62
7
  6
CONTINUOUS
 10
331.7348577697
 20
226.5564223827
  0
SEQEND
  0
LINE
  8
0
 62
7
  6
CONTINUOUS
 10
230.4555219242
 20
218.5715244318
 11
230.4555219242
 21
228.1715244318
  0
LINE
  8
0
 62
7
  6
CONTINUOUS
 10
242.8555219242
 20
228.1715244318
 11
242.8555219242
 21
218.5715244318
  0
POLYLINE
  8
0
 62
7
  6
CONTINUOUS
 66
1
 70
0
  0
VERTEX
  8
0
 62
7
  6
CONTINUOUS
 10
331.7348577697
 20
220.1866264808
  0
VERTEX
  8
0
 62
7
  6
CONTINUOUS
 10
331.6721413656
 20
220.1582386072
  0
VERTEX
  8
0
 62
7
  6
CONTINUOUS
 10
331.6555219242
 20
220.1528900431
  0
SEQEND
  0
LINE
  8
0
 62
7
  6
CONTINUOUS
 10
255.8555219242
 20
218.5715244318
 11
255.8555219242
 21
228.1715244318
  0
POLYLINE
  8
0
 62
7
  6
CONTINUOUS
 66
1
 70
0
  0
VERTEX
  8
0
 62
7
  6
CONTINUOUS
 10
331.7348577697
 20
226.5564223827
  0
VERTEX
  8
0
 62
7
  6
CONTINUOUS
 10
331.743816491
 20
226.5509366226
  0
VERTEX
  8
0
 62
7
  6
CONTINUOUS
 10
331.7502892502
 20
226.5450523749
  0
VERTEX
  8
0
 62
7
  6
CONTINUOUS
 10
331.7542054445
 20
226.5388047793
  0
VERTEX
  8
0
 62
7
  6
CONTINUOUS
 10
331.7555219242
 20
226.532215488
  0
SEQEND
  0
LINE
  8
0
 62
7
  6
CONTINUOUS
 10
268.2555219242
 20
228.1715244318
 11
268.2555219242
 21
218.5715244318
  0
LINE
  8
0
 62
7
  6
CONTINUOUS
 10
281.2555219242
 20
218.5715244318
 11
281.2555219242
 21
228.1715244318
  0
LINE
  8
0
 62
7
  6
CONTINUOUS
 10
293.6555219242
 20
228.1715244318
 11
293.6555219242
 21
218.5715244318
  0
LINE
  8
0
 62
7
  6
CONTINUOUS
 10
306.6555219242
 20
218.5715244318
 11
306.6555219242
 21
228.1715244318
  0
LINE
  8
0
 62
7
  6
CONTINUOUS
 10
319.0555219242
 20
228.1715244318
 11
319.0555219242
 21
218.5715244318
  0
LINE
  8
0
 62
7
  6
CONTINUOUS
 10
331.6555219242
 20
230.5715244318
 11
331.6555219242
 21
216.1715244318
  0
LINE
  8
0
 62
7
  6
CONTINUOUS
 10
331.7555219242
 20
218.5715244318
 11
331.7555219242
 21
228.1715244318
  0
POLYLINE
  8
0
 62
7
  6
CONTINUOUS
 66
1
 70
0
  0
VERTEX
  8
0
 62
7
  6
CONTINUOUS
 10
331.7555219242
 20
220.2108333755
  0
VERTEX
  8
0
 62
7
  6
CONTINUOUS
 10
331.7542054445
 20
220.2042440842
  0
VERTEX
  8
0
 62
7
  6
CONTINUOUS
 10
331.7502892502
 20
220.1979964886
  0
VERTEX
  8
0
 62
7
  6
CONTINUOUS
 10
331.743816491
 20
220.1921122409
  0
VERTEX
  8
0
 62
7
  6
CONTINUOUS
 10
331.7348577697
 20
220.1866264808
  0
SEQEND
  0
POLYLINE
  8
0
 62
7
  6
CONTINUOUS
 66
1
 70
0
  0
VERTEX
  8
0
 62
7
  6
CONTINUOUS
 10
331.6555219242
 20
217.8454146394
  0
VERTEX
  8
0
 62
7
  6
CONTINUOUS
 10
331.6658339291
 20
217.8819097197
  0
VERTEX
  8
0
 62
7
  6
CONTINUOUS
 10
331.6882609473
 20
217.9733195339
  0
VERTEX
  8
0
 62
7
  6
CONTINUOUS
 10
331.707316041
 20
218.0644544157
  0
VERTEX
  8
0
 62
7
  6
CONTINUOUS
 10
331.7229779836
 20
218.1545325489
  0
VERTEX
  8
0
 62
7
  6
CONTINUOUS
 10
331.7353152677
 20
218.2427876414
  0
VERTEX
  8
0
 62
7
  6
CONTINUOUS
 10
331.744521964
 20
218.32894605
  0
VERTEX
  8
0
 62
7
  6
CONTINUOUS
 10
331.7508471857
 20
218.4134178674
  0
VERTEX
  8
0
 62
7
  6
CONTINUOUS
 10
331.7544748236
 20
218.4967338107
  0
VERTEX
  8
0
 62
7
  6
CONTINUOUS
 10
331.7555219239
 20
218.5715244318
  0
SEQEND
  0
ARC
  8
0
 62
7
  6
CONTINUOUS
 10
36.9555219242
 20
81.1101276178
 40
2.7
 50
270.0
 51
360.0
  0
ARC
  8
0
 62
7
  6
CONTINUOUS
 10
55.3555219242
 20
81.1101276178
 40
2.7
 50
180.0
 51
270.0
  0
ARC
  8
0
 62
7
  6
CONTINUOUS
 10
29.9555219242
 20
81.1101276178
 40
2.7
 50
180.0
 51
270.0
  0
ARC
  8
0
 62
7
  6
CONTINUOUS
 10
27.5555219242
 20
85.8034728775
 40
0.3
 50
158.6113771722
 51
180.0
  0
ARC
  8
0
 62
7
  6
CONTINUOUS
 10
52.9555219242
 20
85.8034728775
 40
0.3
 50
158.6113771722
 51
180.0
  0
ARC
  8
0
 62
7
  6
CONTINUOUS
 10
39.3555219242
 20
85.8034728775
 40
0.3
 50
0.0
 51
21.3886228278
  0
ARC
  8
0
 62
7
  6
CONTINUOUS
 10
37.9555219242
 20
92.9425937733
 40
1.0
 50
180.0
 51
201.3886228278
  0
ARC
  8
0
 62
7
  6
CONTINUOUS
 10
54.3555219242
 20
92.9425937733
 40
1.0
 50
338.6113771722
 51
360.0
  0
ARC
  8
0
 62
7
  6
CONTINUOUS
 10
28.9555219242
 20
92.9425937733
 40
1.0
 50
338.6113771722
 51
360.0
  0
ARC
  8
0
 62
7
  6
CONTINUOUS
 10
87.7555219242
 20
81.1101276178
 40
2.7
 50
270.0
 51
360.0
  0
ARC
  8
0
 62
7
  6
CONTINUOUS
 10
62.3555219242
 20
81.1101276178
 40
2.7
 50
270.0
 51
360.0
  0
ARC
  8
0
 62
7
  6
CONTINUOUS
 10
80.7555219242
 20
81.1101276178
 40
2.7
 50
180.0
 51
270.0
  0
ARC
  8
0
 62
7
  6
CONTINUOUS
 10
90.1555219242
 20
85.8034728775
 40
0.3
 50
0.0
 51
21.3886228278
  0
ARC
  8
0
 62
7
  6
CONTINUOUS
 10
78.3555219242
 20
85.8034728775
 40
0.3
 50
158.6113771722
 51
180.0
  0
ARC
  8
0
 62
7
  6
CONTINUOUS
 10
64.7555219242
 20
85.8034728775
 40
0.3
 50
0.0
 51
21.3886228278
  0
ARC
  8
0
 62
7
  6
CONTINUOUS
 10
88.7555219242
 20
92.9425937733
 40
2.1
 50
180.0
 51
201.3886228278
  0
ARC
  8
0
 62
7
  6
CONTINUOUS
 10
79.7555219242
 20
92.9425937733
 40
2.1
 50
338.6113771722
 51
359.9998673402
  0
ARC
  8
0
 62
7
  6
CONTINUOUS
 10
63.3555219242
 20
92.9425937733
 40
1.0
 50
180.0
 51
201.3886228278
  0
ARC
  8
0
 62
7
  6
CONTINUOUS
 10
79.7555219242
 20
92.9425937733
 40
1.0
 50
338.6113771722
 51
360.0
  0
ARC
  8
0
 62
7
  6
CONTINUOUS
 10
88.7555219242
 20
92.9425937733
 40
1.0
 50
180.0
 51
201.3886228278
  0
ARC
  8
0
 62
7
  6
CONTINUOUS
 10
85.9555219242
 20
90.0601276178
 40
1.0
 50
270.0
 51
360.0
  0
ARC
  8
0
 62
7
  6
CONTINUOUS
 10
82.5555219242
 20
90.0601276178
 40
1.0
 50
180.0
 51
270.0
  0
ARC
  8
0
 62
7
  6
CONTINUOUS
 10
82.5555219242
 20
91.5912040104
 40
1.0
 50
158.6113771722
 51
180.0
  0
ARC
  8
0
 62
7
  6
CONTINUOUS
 10
85.9555219242
 20
91.5912040104
 40
1.0
 50
0.0
 51
21.3886228278
  0
ARC
  8
0
 62
7
  6
CONTINUOUS
 10
89.7555219242
 20
107.0101276178
 40
3.1
 50
90.0
 51
180.0
  0
ARC
  8
0
 62
7
  6
CONTINUOUS
 10
84.3555591538
 20
109.0220280761
 40
2.5
 50
90.0
 51
179.9998673402
  0
ARC
  8
0
 62
7
  6
CONTINUOUS
 10
64.3555219242
 20
107.0101276178
 40
2.0
 50
90.0
 51
180.0
  0
ARC
  8
0
 62
7
  6
CONTINUOUS
 10
78.7555219242
 20
107.0101276178
 40
2.0
 50
0.0
 51
90.0
  0
ARC
  8
0
 62
7
  6
CONTINUOUS
 10
53.3555219242
 20
107.0101276178
 40
2.0
 50
0.0
 51
90.0
  0
ARC
  8
0
 62
7
  6
CONTINUOUS
 10
38.9555219242
 20
107.0101276178
 40
2.0
 50
90.0
 51
180.0
  0
ARC
  8
0
 62
7
  6
CONTINUOUS
 10
89.7555219242
 20
107.0101276178
 40
2.0
 50
90.0
 51
180.0
  0
ARC
  8
0
 62
7
  6
CONTINUOUS
 10
27.6555219242
 20
109.3101276178
 40
0.3
 50
180.0
 51
270.0
  0
ARC
  8
0
 62
7
  6
CONTINUOUS
 10
29.6555219242
 20
108.7101276178
 40
0.3
 50
0.0
 51
90.0
  0
ARC
  8
0
 62
7
  6
CONTINUOUS
 10
113.1555219242
 20
81.1101276178
 40
2.7
 50
270.0
 51
360.0
  0
ARC
  8
0
 62
7
  6
CONTINUOUS
 10
131.5555219242
 20
81.1101276178
 40
2.7
 50
180.0
 51
270.0
  0
ARC
  8
0
 62
7
  6
CONTINUOUS
 10
106.1555219242
 20
81.1101276178
 40
2.7
 50
180.0
 51
270.0
  0
ARC
  8
0
 62
7
  6
CONTINUOUS
 10
103.7555219242
 20
85.8034728775
 40
0.3
 50
158.6113771722
 51
180.0
  0
ARC
  8
0
 62
7
  6
CONTINUOUS
 10
129.1555219242
 20
85.8034728775
 40
0.3
 50
158.6113771722
 51
180.0
  0
ARC
  8
0
 62
7
  6
CONTINUOUS
 10
115.5555219242
 20
85.8034728775
 40
0.3
 50
0.0
 51
21.3886228278
  0
ARC
  8
0
 62
7
  6
CONTINUOUS
 10
130.5555219242
 20
92.9425937733
 40
2.1
 50
338.6113771722
 51
360.0
  0
ARC
  8
0
 62
7
  6
CONTINUOUS
 10
114.1555219242
 20
92.9425937733
 40
2.1
 50
180.0
 51
201.3886228278
  0
ARC
  8
0
 62
7
  6
CONTINUOUS
 10
105.1555219242
 20
92.9425937733
 40
2.1
 50
338.6113771722
 51
360.0
  0
ARC
  8
0
 62
7
  6
CONTINUOUS
 10
114.1555219242
 20
92.9425937733
 40
1.0
 50
180.0
 51
201.3886228278
  0
ARC
  8
0
 62
7
  6
CONTINUOUS
 10
130.5555219242
 20
92.9425937733
 40
1.0
 50
338.6113771722
 51
360.0
  0
ARC
  8
0
 62
7
  6
CONTINUOUS
 10
105.1555219242
 20
92.9425937733
 40
1.0
 50
338.6113771722
 51
360.0
  0
ARC
  8
0
 62
7
  6
CONTINUOUS
 10
133.3555219242
 20
90.0601276178
 40
1.0
 50
180.0
 51
270.0
  0
ARC
  8
0
 62
7
  6
CONTINUOUS
 10
111.3555219242
 20
90.0601276178
 40
1.0
 50
270.0
 51
360.0
  0
ARC
  8
0
 62
7
  6
CONTINUOUS
 10
107.9555219242
 20
90.0601276178
 40
1.0
 50
180.0
 51
270.0
  0
ARC
  8
0
 62
7
  6
CONTINUOUS
 10
107.9555219242
 20
91.5912040104
 40
1.0
 50
158.6113771722
 51
180.0
  0
ARC
  8
0
 62
7
  6
CONTINUOUS
 10
111.3555219242
 20
91.5912040104
 40
1.0
 50
0.0
 51
21.3886228278
  0
ARC
  8
0
 62
7
  6
CONTINUOUS
 10
133.3555219242
 20
91.5912040104
 40
1.0
 50
158.6113771722
 51
180.0
  0
ARC
  8
0
 62
7
  6
CONTINUOUS
 10
156.9555219242
 20
81.1101276178
 40
2.7
 50
180.0
 51
270.0
  0
ARC
  8
0
 62
7
  6
CONTINUOUS
 10
138.5555219242
 20
81.1101276178
 40
2.7
 50
270.0
 51
360.0
  0
ARC
  8
0
 62
7
  6
CONTINUOUS
 10
163.9555219242
 20
81.1101276178
 40
2.7
 50
270.0
 51
360.0
  0
ARC
  8
0
 62
7
  6
CONTINUOUS
 10
154.5555219242
 20
85.8034728775
 40
0.3
 50
158.6113771722
 51
180.0
  0
ARC
  8
0
 62
7
  6
CONTINUOUS
 10
140.9555219242
 20
85.8034728775
 40
0.3
 50
0.0
 51
21.3886228278
  0
ARC
  8
0
 62
7
  6
CONTINUOUS
 10
166.3555219242
 20
85.8034728775
 40
0.3
 50
0.0
 51
21.3886228278
  0
ARC
  8
0
 62
7
  6
CONTINUOUS
 10
164.9555219242
 20
92.9425937733
 40
2.1
 50
180.0
 51
201.3886228278
  0
ARC
  8
0
 62
7
  6
CONTINUOUS
 10
155.9555219242
 20
92.9425937733
 40
2.1
 50
338.6113771722
 51
360.0
  0
ARC
  8
0
 62
7
  6
CONTINUOUS
 10
139.5555219242
 20
92.9425937733
 40
2.1
 50
180.0
 51
201.3886228278
  0
ARC
  8
0
 62
7
  6
CONTINUOUS
 10
155.9555219242
 20
92.9425937733
 40
1.0
 50
338.6113771722
 51
360.0
  0
ARC
  8
0
 62
7
  6
CONTINUOUS
 10
139.5555219242
 20
92.9425937733
 40
1.0
 50
180.0
 51
201.3886228278
  0
ARC
  8
0
 62
7
  6
CONTINUOUS
 10
164.9555219242
 20
92.9425937733
 40
1.0
 50
180.0
 51
201.3886228278
  0
ARC
  8
0
 62
7
  6
CONTINUOUS
 10
158.7555219242
 20
90.0601276178
 40
1.0
 50
180.0
 51
270.0
  0
ARC
  8
0
 62
7
  6
CONTINUOUS
 10
162.1555219242
 20
90.0601276178
 40
1.0
 50
270.0
 51
360.0
  0
ARC
  8
0
 62
7
  6
CONTINUOUS
 10
136.7555219242
 20
90.0601276178
 40
1.0
 50
270.0
 51
360.0
  0
ARC
  8
0
 62
7
  6
CONTINUOUS
 10
136.7555219242
 20
91.5912040104
 40
1.0
 50
0.0
 51
21.3886228278
  0
ARC
  8
0
 62
7
  6
CONTINUOUS
 10
158.7555219242
 20
91.5912040104
 40
1.0
 50
158.6113771722
 51
180.0
  0
ARC
  8
0
 62
7
  6
CONTINUOUS
 10
162.1555219242
 20
91.5912040104
 40
1.0
 50
0.0
 51
21.3886228278
  0
ARC
  8
0
 62
7
  6
CONTINUOUS
 10
165.9555219242
 20
107.0101276178
 40
3.1
 50
90.0
 51
180.0
  0
ARC
  8
0
 62
7
  6
CONTINUOUS
 10
154.9555219242
 20
107.0101276178
 40
3.1
 50
0.0
 51
90.0
  0
ARC
  8
0
 62
7
  6
CONTINUOUS
 10
140.5555219242
 20
107.0101276178
 40
3.1
 50
90.0
 51
180.0
  0
ARC
  8
0
 62
7
  6
CONTINUOUS
 10
129.5555219242
 20
107.0101276178
 40
3.1
 50
0.0
 51
90.0
  0
ARC
  8
0
 62
7
  6
CONTINUOUS
 10
115.1555219242
 20
107.0101276178
 40
3.1
 50
90.0
 51
180.0
  0
ARC
  8
0
 62
7
  6
CONTINUOUS
 10
104.1555219242
 20
107.0101276178
 40
3.1
 50
0.0
 51
90.0
  0
ARC
  8
0
 62
7
  6
CONTINUOUS
 10
129.5555219242
 20
107.0101276178
 40
2.0
 50
0.0
 51
90.0
  0
ARC
  8
0
 62
7
  6
CONTINUOUS
 10
115.1555219242
 20
107.0101276178
 40
2.0
 50
90.0
 51
180.0
  0
ARC
  8
0
 62
7
  6
CONTINUOUS
 10
140.5555219242
 20
107.0101276178
 40
2.0
 50
90.0
 51
180.0
  0
ARC
  8
0
 62
7
  6
CONTINUOUS
 10
154.9555219242
 20
107.0101276178
 40
2.0
 50
0.0
 51
90.0
  0
ARC
  8
0
 62
7
  6
CONTINUOUS
 10
104.1555219242
 20
107.0101276178
 40
2.0
 50
0.0
 51
90.0
  0
ARC
  8
0
 62
7
  6
CONTINUOUS
 10
165.9555219242
 20
107.0101276178
 40
2.0
 50
90.0
 51
180.0
  0
ARC
  8
0
 62
7
  6
CONTINUOUS
 10
66.0555219242
 20
116.4354676516
 40
2.0
 50
270.0
 51
360.0
  0
ARC
  8
0
 62
7
  6
CONTINUOUS
 10
77.0555219242
 20
116.4354676516
 40
2.0
 50
180.0
 51
270.0
  0
ARC
  8
0
 62
7
  6
CONTINUOUS
 10
51.6555219242
 20
116.4354676516
 40
2.0
 50
180.0
 51
270.0
  0
ARC
  8
0
 62
7
  6
CONTINUOUS
 10
40.6555219242
 20
116.4354676516
 40
2.0
 50
270.0
 51
360.0
  0
ARC
  8
0
 62
7
  6
CONTINUOUS
 10
102.4555219242
 20
116.4354676516
 40
2.0
 50
180.0
 51
270.0
  0
ARC
  8
0
 62
7
  6
CONTINUOUS
 10
91.4555219242
 20
116.4354676516
 40
2.0
 50
270.0
 51
360.0
  0
ARC
  8
0
 62
7
  6
CONTINUOUS
 10
27.6555219242
 20
114.1354676516
 40
0.3
 50
90.0
 51
180.0000000073
  0
ARC
  8
0
 62
7
  6
CONTINUOUS
 10
67.0555219242
 20
130.6781369377
 40
1.0
 50
0.0
 51
21.39
  0
ARC
  8
0
 62
7
  6
CONTINUOUS
 10
50.6555219242
 20
130.6781369377
 40
1.0
 50
158.61
 51
180.0
  0
ARC
  8
0
 62
7
  6
CONTINUOUS
 10
41.6555219242
 20
130.6781369377
 40
1.0
 50
0.0
 51
21.39
  0
ARC
  8
0
 62
7
  6
CONTINUOUS
 10
68.0555219242
 20
142.5101276178
 40
2.7
 50
90.0
 51
180.0
  0
ARC
  8
0
 62
7
  6
CONTINUOUS
 10
49.6555219242
 20
142.5101276178
 40
2.7
 50
0.0
 51
90.0
  0
ARC
  8
0
 62
7
  6
CONTINUOUS
 10
42.6555219242
 20
142.5101276178
 40
2.7
 50
90.0
 51
180.0
  0
ARC
  8
0
 62
7
  6
CONTINUOUS
 10
40.2555219242
 20
137.8167860921
 40
0.3
 50
180.0
 51
201.39
  0
ARC
  8
0
 62
7
  6
CONTINUOUS
 10
52.0555219242
 20
137.8167860921
 40
0.3
 50
338.61
 51
360.0
  0
ARC
  8
0
 62
7
  6
CONTINUOUS
 10
65.6555219242
 20
137.8167860921
 40
0.3
 50
180.0
 51
201.39
  0
ARC
  8
0
 62
7
  6
CONTINUOUS
 10
92.4555219242
 20
130.6781369377
 40
2.1
 50
0.0
 51
21.39
  0
ARC
  8
0
 62
7
  6
CONTINUOUS
 10
101.4555219242
 20
130.6781369377
 40
2.1
 50
158.61
 51
180.0
  0
ARC
  8
0
 62
7
  6
CONTINUOUS
 10
76.0555219242
 20
130.6781369377
 40
1.0
 50
158.61
 51
180.0
  0
ARC
  8
0
 62
7
  6
CONTINUOUS
 10
92.4555219242
 20
130.6781369377
 40
1.0
 50
0.0
 51
21.39
  0
ARC
  8
0
 62
7
  6
CONTINUOUS
 10
101.4555219242
 20
130.6781369377
 40
1.0
 50
158.61
 51
180.0
  0
ARC
  8
0
 62
7
  6
CONTINUOUS
 10
98.6555219242
 20
133.5601276178
 40
1.0
 50
0.0
 51
90.0
  0
ARC
  8
0
 62
7
  6
CONTINUOUS
 10
95.2555219242
 20
133.5601276178
 40
1.0
 50
90.0
 51
180.0
  0
ARC
  8
0
 62
7
  6
CONTINUOUS
 10
98.6555219242
 20
132.0295110719
 40
1.0
 50
338.61
 51
360.0
  0
ARC
  8
0
 62
7
  6
CONTINUOUS
 10
95.2555219242
 20
132.0295110719
 40
1.0
 50
180.0
 51
201.39
  0
ARC
  8
0
 62
7
  6
CONTINUOUS
 10
75.0555219242
 20
142.5101276178
 40
2.7
 50
0.0
 51
90.0
  0
ARC
  8
0
 62
7
  6
CONTINUOUS
 10
93.4555219242
 20
142.5101276178
 40
2.7
 50
90.0
 51
180.0
  0
ARC
  8
0
 62
7
  6
CONTINUOUS
 10
100.4555219242
 20
142.5101276178
 40
2.7
 50
0.0
 51
90.0
  0
ARC
  8
0
 62
7
  6
CONTINUOUS
 10
102.8555219242
 20
137.8167860921
 40
0.3
 50
338.61
 51
360.0
  0
ARC
  8
0
 62
7
  6
CONTINUOUS
 10
91.0555219242
 20
137.8167860921
 40
0.3
 50
180.0
 51
201.39
  0
ARC
  8
0
 62
7
  6
CONTINUOUS
 10
77.4555219242
 20
137.8167860921
 40
0.3
 50
338.61
 51
360.0
  0
ARC
  8
0
 62
7
  6
CONTINUOUS
 10
167.6555219242
 20
116.4354676516
 40
2.0
 50
270.0
 51
360.0
  0
ARC
  8
0
 62
7
  6
CONTINUOUS
 10
178.6555219242
 20
116.4354676516
 40
2.0
 50
180.0
 51
270.0
  0
ARC
  8
0
 62
7
  6
CONTINUOUS
 10
153.2555219242
 20
116.4354676516
 40
2.0
 50
180.0
 51
270.0
  0
ARC
  8
0
 62
7
  6
CONTINUOUS
 10
142.2555219242
 20
116.4354676516
 40
2.0
 50
270.0
 51
360.0
  0
ARC
  8
0
 62
7
  6
CONTINUOUS
 10
116.8555219242
 20
116.4354676516
 40
2.0
 50
270.0
 51
360.0
  0
ARC
  8
0
 62
7
  6
CONTINUOUS
 10
127.8555219242
 20
116.4354676516
 40
2.0
 50
180.0
 51
270.0
  0
ARC
  8
0
 62
7
  6
CONTINUOUS
 10
117.8555219242
 20
130.6781369377
 40
2.1
 50
0.0
 51
21.39
  0
ARC
  8
0
 62
7
  6
CONTINUOUS
 10
126.8555219242
 20
130.6781369377
 40
2.1
 50
158.61
 51
180.0
  0
ARC
  8
0
 62
7
  6
CONTINUOUS
 10
143.2555219242
 20
130.6781369377
 40
2.1
 50
0.0
 51
21.39
  0
ARC
  8
0
 62
7
  6
CONTINUOUS
 10
143.2555219242
 20
130.6781369377
 40
1.0
 50
0.0
 51
21.39
  0
ARC
  8
0
 62
7
  6
CONTINUOUS
 10
126.8555219242
 20
130.6781369377
 40
1.0
 50
158.61
 51
180.0
  0
ARC
  8
0
 62
7
  6
CONTINUOUS
 10
117.8555219242
 20
130.6781369377
 40
1.0
 50
0.0
 51
21.39
  0
ARC
  8
0
 62
7
  6
CONTINUOUS
 10
120.6555219242
 20
133.5601276178
 40
1.0
 50
90.0
 51
180.0
  0
ARC
  8
0
 62
7
  6
CONTINUOUS
 10
124.0555219242
 20
133.5601276178
 40
1.0
 50
0.0
 51
90.0
  0
ARC
  8
0
 62
7
  6
CONTINUOUS
 10
146.0555219242
 20
133.5601276178
 40
1.0
 50
90.0
 51
180.0
  0
ARC
  8
0
 62
7
  6
CONTINUOUS
 10
146.0555219242
 20
132.0295110719
 40
1.0
 50
180.0
 51
201.39
  0
ARC
  8
0
 62
7
  6
CONTINUOUS
 10
124.0555219242
 20
132.0295110719
 40
1.0
 50
338.61
 51
360.0
  0
ARC
  8
0
 62
7
  6
CONTINUOUS
 10
120.6555219242
 20
132.0295110719
 40
1.0
 50
180.0
 51
201.39
  0
ARC
  8
0
 62
7
  6
CONTINUOUS
 10
144.2555219242
 20
142.5101276178
 40
2.7
 50
90.0
 51
180.0
  0
ARC
  8
0
 62
7
  6
CONTINUOUS
 10
125.8555219242
 20
142.5101276178
 40
2.7
 50
0.0
 51
90.0
  0
ARC
  8
0
 62
7
  6
CONTINUOUS
 10
118.8555219242
 20
142.5101276178
 40
2.7
 50
90.0
 51
180.0
  0
ARC
  8
0
 62
7
  6
CONTINUOUS
 10
116.4555219242
 20
137.8167860921
 40
0.3
 50
180.0
 51
201.39
  0
ARC
  8
0
 62
7
  6
CONTINUOUS
 10
128.2555219242
 20
137.8167860921
 40
0.3
 50
338.61
 51
360.0
  0
ARC
  8
0
 62
7
  6
CONTINUOUS
 10
141.8555219242
 20
137.8167860921
 40
0.3
 50
180.0
 51
201.39
  0
ARC
  8
0
 62
7
  6
CONTINUOUS
 10
152.2555219242
 20
130.6781369377
 40
2.1
 50
158.61
 51
180.0
  0
ARC
  8
0
 62
7
  6
CONTINUOUS
 10
168.6555219242
 20
130.6781369377
 40
2.1
 50
0.0
 51
21.39
  0
ARC
  8
0
 62
7
  6
CONTINUOUS
 10
177.6555219242
 20
130.6781369377
 40
2.1
 50
158.61
 51
180.0
  0
ARC
  8
0
 62
7
  6
CONTINUOUS
 10
152.2555219242
 20
130.6781369377
 40
1.0
 50
158.61
 51
180.0
  0
ARC
  8
0
 62
7
  6
CONTINUOUS
 10
168.6555219242
 20
130.6781369377
 40
1.0
 50
0.0
 51
21.39
  0
ARC
  8
0
 62
7
  6
CONTINUOUS
 10
177.6555219242
 20
130.6781369377
 40
1.0
 50
158.61
 51
180.0
  0
ARC
  8
0
 62
7
  6
CONTINUOUS
 10
149.4555219242
 20
133.5601276178
 40
1.0
 50
0.0
 51
90.0
  0
ARC
  8
0
 62
7
  6
CONTINUOUS
 10
171.4555219242
 20
133.5601276178
 40
1.0
 50
90.0
 51
180.0
  0
ARC
  8
0
 62
7
  6
CONTINUOUS
 10
174.8555219242
 20
133.5601276178
 40
1.0
 50
0.0
 51
90.0
  0
ARC
  8
0
 62
7
  6
CONTINUOUS
 10
174.8555219242
 20
132.0295110719
 40
1.0
 50
338.61
 51
360.0
  0
ARC
  8
0
 62
7
  6
CONTINUOUS
 10
171.4555219242
 20
132.0295110719
 40
1.0
 50
180.0
 51
201.39
  0
ARC
  8
0
 62
7
  6
CONTINUOUS
 10
149.4555219242
 20
132.0295110719
 40
1.0
 50
338.61
 51
360.0
  0
ARC
  8
0
 62
7
  6
CONTINUOUS
 10
151.2555219242
 20
142.5101276178
 40
2.7
 50
0.0
 51
90.0
  0
ARC
  8
0
 62
7
  6
CONTINUOUS
 10
169.6555219242
 20
142.5101276178
 40
2.7
 50
90.0
 51
180.0
  0
ARC
  8
0
 62
7
  6
CONTINUOUS
 10
176.6555219242
 20
142.5101276178
 40
2.7
 50
0.0
 51
90.0
  0
ARC
  8
0
 62
7
  6
CONTINUOUS
 10
153.6555219242
 20
137.8167860921
 40
0.3
 50
338.61
 51
360.0
  0
ARC
  8
0
 62
7
  6
CONTINUOUS
 10
167.2555219242
 20
137.8167860921
 40
0.3
 50
180.0
 51
201.39
  0
ARC
  8
0
 62
7
  6
CONTINUOUS
 10
179.0555219242
 20
137.8167860921
 40
0.3
 50
338.61
 51
360.0
  0
ARC
  8
0
 62
7
  6
CONTINUOUS
 10
182.3555219242
 20
81.1101276178
 40
2.7
 50
180.0
 51
270.0
  0
ARC
  8
0
 62
7
  6
CONTINUOUS
 10
207.7555219242
 20
81.1101276178
 40
2.7
 50
180.0
 51
270.0
  0
ARC
  8
0
 62
7
  6
CONTINUOUS
 10
189.3555219242
 20
81.1101276178
 40
2.7
 50
270.0
 51
360.0
  0
ARC
  8
0
 62
7
  6
CONTINUOUS
 10
240.1555219242
 20
81.1101276178
 40
2.7
 50
270.0
 51
360.0
  0
ARC
  8
0
 62
7
  6
CONTINUOUS
 10
214.7555219242
 20
81.1101276178
 40
2.7
 50
270.0
 51
360.0
  0
ARC
  8
0
 62
7
  6
CONTINUOUS
 10
233.1555219242
 20
81.1101276178
 40
2.7
 50
180.0
 51
270.0
  0
ARC
  8
0
 62
7
  6
CONTINUOUS
 10
215.7555219242
 20
92.9425937733
 40
2.1
 50
180.0
 51
201.3886228278
  0
ARC
  8
0
 62
7
  6
CONTINUOUS
 10
206.7555219242
 20
92.9425937733
 40
2.1
 50
338.6113771722
 51
360.0
  0
ARC
  8
0
 62
7
  6
CONTINUOUS
 10
190.3555219242
 20
92.9425937733
 40
2.1
 50
180.0
 51
201.3886228278
  0
ARC
  8
0
 62
7
  6
CONTINUOUS
 10
181.3555219242
 20
92.9425937733
 40
2.1
 50
338.6113771722
 51
360.0
  0
ARC
  8
0
 62
7
  6
CONTINUOUS
 10
181.3555219242
 20
92.9425937733
 40
1.0
 50
338.6113771722
 51
360.0
  0
ARC
  8
0
 62
7
  6
CONTINUOUS
 10
209.5555219242
 20
90.0601276178
 40
1.0
 50
180.0
 51
270.0
  0
ARC
  8
0
 62
7
  6
CONTINUOUS
 10
212.9555219242
 20
90.0601276178
 40
1.0
 50
270.0
 51
360.0
  0
ARC
  8
0
 62
7
  6
CONTINUOUS
 10
184.1555219242
 20
90.0601276178
 40
1.0
 50
180.0
 51
270.0
  0
ARC
  8
0
 62
7
  6
CONTINUOUS
 10
187.5555219242
 20
90.0601276178
 40
1.0
 50
270.0
 51
360.0
  0
ARC
  8
0
 62
7
  6
CONTINUOUS
 10
206.7555219242
 20
92.9425937733
 40
1.0
 50
338.6113771722
 51
360.0
  0
ARC
  8
0
 62
7
  6
CONTINUOUS
 10
190.3555219242
 20
92.9425937733
 40
1.0
 50
180.0
 51
201.3886228278
  0
ARC
  8
0
 62
7
  6
CONTINUOUS
 10
184.1555219242
 20
91.5912040104
 40
1.0
 50
158.6113771722
 51
180.0
  0
ARC
  8
0
 62
7
  6
CONTINUOUS
 10
187.5555219242
 20
91.5912040104
 40
1.0
 50
0.0
 51
21.3886228278
  0
ARC
  8
0
 62
7
  6
CONTINUOUS
 10
209.5555219242
 20
91.5912040104
 40
1.0
 50
158.6113771722
 51
180.0
  0
ARC
  8
0
 62
7
  6
CONTINUOUS
 10
212.9555219242
 20
91.5912040104
 40
1.0
 50
0.0
 51
21.3886228278
  0
ARC
  8
0
 62
7
  6
CONTINUOUS
 10
241.1555219242
 20
92.9425937733
 40
1.0
 50
180.0
 51
201.3886228278
  0
ARC
  8
0
 62
7
  6
CONTINUOUS
 10
215.7555219242
 20
92.9425937733
 40
1.0
 50
180.0
 51
201.3886228278
  0
ARC
  8
0
 62
7
  6
CONTINUOUS
 10
232.1555219242
 20
92.9425937733
 40
1.0
 50
338.6113771722
 51
360.0
  0
ARC
  8
0
 62
7
  6
CONTINUOUS
 10
179.9555219242
 20
85.8034728775
 40
0.3
 50
158.6113771722
 51
180.0
  0
ARC
  8
0
 62
7
  6
CONTINUOUS
 10
205.3555219242
 20
85.8034728775
 40
0.3
 50
158.6113771722
 51
180.0
  0
ARC
  8
0
 62
7
  6
CONTINUOUS
 10
191.7555219242
 20
85.8034728775
 40
0.3
 50
0.0
 51
21.3886228278
  0
ARC
  8
0
 62
7
  6
CONTINUOUS
 10
242.5555219242
 20
85.8034728775
 40
0.3
 50
0.0
 51
21.3886228278
  0
ARC
  8
0
 62
7
  6
CONTINUOUS
 10
217.1555219242
 20
85.8034728775
 40
0.3
 50
0.0
 51
21.3886228278
  0
ARC
  8
0
 62
7
  6
CONTINUOUS
 10
230.7555219242
 20
85.8034728775
 40
0.3
 50
158.6113771722
 51
180.0
  0
ARC
  8
0
 62
7
  6
CONTINUOUS
 10
216.7555219242
 20
107.0101276178
 40
3.1
 50
90.0
 51
180.0
  0
ARC
  8
0
 62
7
  6
CONTINUOUS
 10
205.7555219242
 20
107.0101276178
 40
3.1
 50
0.0
 51
90.0
  0
ARC
  8
0
 62
7
  6
CONTINUOUS
 10
191.3555219242
 20
107.0101276178
 40
3.1
 50
90.0
 51
180.0
  0
ARC
  8
0
 62
7
  6
CONTINUOUS
 10
180.3555219242
 20
107.0101276178
 40
3.1
 50
0.0
 51
90.0
  0
ARC
  8
0
 62
7
  6
CONTINUOUS
 10
180.3555219242
 20
107.0101276178
 40
2.0
 50
0.0
 51
90.0
  0
ARC
  8
0
 62
7
  6
CONTINUOUS
 10
191.3555219242
 20
107.0101276178
 40
2.0
 50
90.0
 51
180.0
  0
ARC
  8
0
 62
7
  6
CONTINUOUS
 10
205.7555219242
 20
107.0101276178
 40
2.0
 50
0.0
 51
90.0
  0
ARC
  8
0
 62
7
  6
CONTINUOUS
 10
242.1555219242
 20
107.0101276178
 40
2.0
 50
90.0
 51
180.0
  0
ARC
  8
0
 62
7
  6
CONTINUOUS
 10
231.1555219242
 20
107.0101276178
 40
2.0
 50
0.0
 51
90.0
  0
ARC
  8
0
 62
7
  6
CONTINUOUS
 10
216.7555219242
 20
107.0101276178
 40
2.0
 50
90.0
 51
180.0
  0
ARC
  8
0
 62
7
  6
CONTINUOUS
 10
309.3555219242
 20
81.1101276178
 40
2.7
 50
180.0
 51
270.0
  0
ARC
  8
0
 62
7
  6
CONTINUOUS
 10
283.9555219242
 20
81.1101276178
 40
2.7
 50
180.0
 51
270.0
  0
ARC
  8
0
 62
7
  6
CONTINUOUS
 10
258.5555219242
 20
81.1101276178
 40
2.7
 50
180.0
 51
270.0
  0
ARC
  8
0
 62
7
  6
CONTINUOUS
 10
316.3555219242
 20
81.1101276178
 40
2.7
 50
270.0
 51
360.0
  0
ARC
  8
0
 62
7
  6
CONTINUOUS
 10
265.5555219242
 20
81.1101276178
 40
2.7
 50
270.0
 51
360.0
  0
ARC
  8
0
 62
7
  6
CONTINUOUS
 10
290.9555219242
 20
81.1101276178
 40
2.7
 50
270.0
 51
360.0
  0
ARC
  8
0
 62
7
  6
CONTINUOUS
 10
257.5555219242
 20
92.9425937733
 40
1.0
 50
338.6113771722
 51
360.0
  0
ARC
  8
0
 62
7
  6
CONTINUOUS
 10
317.3555219242
 20
92.9425937733
 40
1.0
 50
180.0
 51
201.3886228278
  0
ARC
  8
0
 62
7
  6
CONTINUOUS
 10
282.9555219242
 20
92.9425937733
 40
1.0
 50
338.6113771722
 51
360.0
  0
ARC
  8
0
 62
7
  6
CONTINUOUS
 10
266.5555219242
 20
92.9425937733
 40
1.0
 50
180.0
 51
201.3886228278
  0
ARC
  8
0
 62
7
  6
CONTINUOUS
 10
291.9555219242
 20
92.9425937733
 40
1.0
 50
180.0
 51
201.3886228278
  0
ARC
  8
0
 62
7
  6
CONTINUOUS
 10
308.3555219242
 20
92.9425937733
 40
1.0
 50
338.6113771722
 51
360.0
  0
ARC
  8
0
 62
7
  6
CONTINUOUS
 10
256.1555219242
 20
85.8034728775
 40
0.3
 50
158.6113771722
 51
180.0
  0
ARC
  8
0
 62
7
  6
CONTINUOUS
 10
318.7555219242
 20
85.8034728775
 40
0.3
 50
0.0
 51
21.3886228278
  0
ARC
  8
0
 62
7
  6
CONTINUOUS
 10
281.5555219242
 20
85.8034728775
 40
0.3
 50
158.6113771722
 51
180.0
  0
ARC
  8
0
 62
7
  6
CONTINUOUS
 10
267.9555219242
 20
85.8034728775
 40
0.3
 50
0.0
 51
21.3886228278
  0
ARC
  8
0
 62
7
  6
CONTINUOUS
 10
293.3555219242
 20
85.8034728775
 40
0.3
 50
0.0
 51
21.3886228278
  0
ARC
  8
0
 62
7
  6
CONTINUOUS
 10
306.9555219242
 20
85.8034728775
 40
0.3
 50
158.6113771722
 51
180.0
  0
ARC
  8
0
 62
7
  6
CONTINUOUS
 10
256.5555219242
 20
107.0101276178
 40
2.0
 50
0.0
 51
90.0
  0
ARC
  8
0
 62
7
  6
CONTINUOUS
 10
318.3555219242
 20
107.0101276178
 40
2.0
 50
90.0
 51
180.0
  0
ARC
  8
0
 62
7
  6
CONTINUOUS
 10
267.5555219242
 20
107.0101276178
 40
2.0
 50
90.0
 51
180.0
  0
ARC
  8
0
 62
7
  6
CONTINUOUS
 10
281.9555219242
 20
107.0101276178
 40
2.0
 50
0.0
 51
90.0
  0
ARC
  8
0
 62
7
  6
CONTINUOUS
 10
307.3555219242
 20
107.0101276178
 40
2.0
 50
0.0
 51
90.0
  0
ARC
  8
0
 62
7
  6
CONTINUOUS
 10
292.9555219242
 20
107.0101276178
 40
2.0
 50
90.0
 51
180.0
  0
ARC
  8
0
 62
7
  6
CONTINUOUS
 10
331.3555219242
 20
109.3101276178
 40
0.3
 50
270.0
 51
360.0
  0
ARC
  8
0
 62
7
  6
CONTINUOUS
 10
223.8555219242
 20
112.6101276178
 40
2.5
 50
270.0
 51
360.0
  0
ARC
  8
0
 62
7
  6
CONTINUOUS
 10
229.4555219242
 20
116.4354676516
 40
2.0
 50
180.0
 51
270.0
  0
ARC
  8
0
 62
7
  6
CONTINUOUS
 10
218.4555219242
 20
116.4354676516
 40
2.0
 50
270.0
 51
360.0
  0
ARC
  8
0
 62
7
  6
CONTINUOUS
 10
254.8555219242
 20
116.4354676516
 40
2.0
 50
180.0
 51
270.0
  0
ARC
  8
0
 62
7
  6
CONTINUOUS
 10
193.0555219242
 20
116.4354676516
 40
2.0
 50
270.0
 51
360.0
  0
ARC
  8
0
 62
7
  6
CONTINUOUS
 10
204.0555219242
 20
116.4354676516
 40
2.0
 50
180.0
 51
270.0
  0
ARC
  8
0
 62
7
  6
CONTINUOUS
 10
243.8555219242
 20
116.4354676516
 40
2.0
 50
270.0
 51
360.0
  0
ARC
  8
0
 62
7
  6
CONTINUOUS
 10
194.0555219242
 20
130.6781369377
 40
2.1
 50
0.0
 51
21.39
  0
ARC
  8
0
 62
7
  6
CONTINUOUS
 10
203.0555219242
 20
130.6781369377
 40
2.1
 50
158.61
 51
180.0
  0
ARC
  8
0
 62
7
  6
CONTINUOUS
 10
219.4555219242
 20
130.6781369377
 40
2.1
 50
0.0
 51
21.39
  0
ARC
  8
0
 62
7
  6
CONTINUOUS
 10
194.0555219242
 20
130.6781369377
 40
1.0
 50
0.0
 51
21.39
  0
ARC
  8
0
 62
7
  6
CONTINUOUS
 10
203.0555219242
 20
130.6781369377
 40
1.0
 50
158.61
 51
180.0
  0
ARC
  8
0
 62
7
  6
CONTINUOUS
 10
196.8555219242
 20
133.5601276178
 40
1.0
 50
90.0
 51
180.0
  0
ARC
  8
0
 62
7
  6
CONTINUOUS
 10
200.2555219242
 20
133.5601276178
 40
1.0
 50
0.0
 51
90.0
  0
ARC
  8
0
 62
7
  6
CONTINUOUS
 10
222.2555219242
 20
133.5601276178
 40
1.0
 50
90.0
 51
180.0
  0
ARC
  8
0
 62
7
  6
CONTINUOUS
 10
222.2555219242
 20
132.0295110719
 40
1.0
 50
180.0
 51
201.39
  0
ARC
  8
0
 62
7
  6
CONTINUOUS
 10
200.2555219242
 20
132.0295110719
 40
1.0
 50
338.61
 51
360.0
  0
ARC
  8
0
 62
7
  6
CONTINUOUS
 10
196.8555219242
 20
132.0295110719
 40
1.0
 50
180.0
 51
201.39
  0
ARC
  8
0
 62
7
  6
CONTINUOUS
 10
219.4555219242
 20
130.6781369377
 40
1.0
 50
0.0
 51
21.39
  0
ARC
  8
0
 62
7
  6
CONTINUOUS
 10
195.0555219242
 20
142.5101276178
 40
2.7
 50
90.0
 51
180.0
  0
ARC
  8
0
 62
7
  6
CONTINUOUS
 10
202.0555219242
 20
142.5101276178
 40
2.7
 50
0.0
 51
90.0
  0
ARC
  8
0
 62
7
  6
CONTINUOUS
 10
220.4555219242
 20
142.5101276178
 40
2.7
 50
90.0
 51
180.0
  0
ARC
  8
0
 62
7
  6
CONTINUOUS
 10
192.6555219242
 20
137.8167860921
 40
0.3
 50
180.0
 51
201.39
  0
ARC
  8
0
 62
7
  6
CONTINUOUS
 10
204.4555219242
 20
137.8167860921
 40
0.3
 50
338.61
 51
360.0
  0
ARC
  8
0
 62
7
  6
CONTINUOUS
 10
218.0555219242
 20
137.8167860921
 40
0.3
 50
180.0
 51
201.39
  0
ARC
  8
0
 62
7
  6
CONTINUOUS
 10
228.4555219242
 20
130.6781369377
 40
2.1
 50
158.61
 51
180.0
  0
ARC
  8
0
 62
7
  6
CONTINUOUS
 10
225.6555219242
 20
133.5601276178
 40
1.0
 50
0.0
 51
90.0
  0
ARC
  8
0
 62
7
  6
CONTINUOUS
 10
244.8555219242
 20
130.6781369377
 40
1.0
 50
0.0
 51
21.39
  0
ARC
  8
0
 62
7
  6
CONTINUOUS
 10
225.6555219242
 20
132.0295110719
 40
1.0
 50
338.61
 51
360.0
  0
ARC
  8
0
 62
7
  6
CONTINUOUS
 10
228.4555219242
 20
130.6781369377
 40
1.0
 50
158.61
 51
180.0
  0
ARC
  8
0
 62
7
  6
CONTINUOUS
 10
253.8555219242
 20
130.6781369377
 40
1.0
 50
158.61
 51
180.0
  0
ARC
  8
0
 62
7
  6
CONTINUOUS
 10
227.4555219242
 20
142.5101276178
 40
2.7
 50
0.0
 51
90.0
  0
ARC
  8
0
 62
7
  6
CONTINUOUS
 10
252.8555219242
 20
142.5101276178
 40
2.7
 50
0.0
 51
90.0
  0
ARC
  8
0
 62
7
  6
CONTINUOUS
 10
245.8555219242
 20
142.5101276178
 40
2.7
 50
90.0
 51
180.0
  0
ARC
  8
0
 62
7
  6
CONTINUOUS
 10
243.4555219242
 20
137.8167860921
 40
0.3
 50
180.0
 51
201.39
  0
ARC
  8
0
 62
7
  6
CONTINUOUS
 10
229.8555219242
 20
137.8167860921
 40
0.3
 50
338.61
 51
360.0
  0
ARC
  8
0
 62
7
  6
CONTINUOUS
 10
255.2555219242
 20
137.8167860921
 40
0.3
 50
338.61
 51
360.0
  0
ARC
  8
0
 62
7
  6
CONTINUOUS
 10
320.0555219242
 20
116.4354676516
 40
2.0
 50
270.0
 51
360.0
  0
ARC
  8
0
 62
7
  6
CONTINUOUS
 10
305.6555219242
 20
116.4354676516
 40
2.0
 50
180.0
 51
270.0
  0
ARC
  8
0
 62
7
  6
CONTINUOUS
 10
294.6555219242
 20
116.4354676516
 40
2.0
 50
270.0
 51
360.0
  0
ARC
  8
0
 62
7
  6
CONTINUOUS
 10
280.2555219242
 20
116.4354676516
 40
2.0
 50
180.0
 51
270.0
  0
ARC
  8
0
 62
7
  6
CONTINUOUS
 10
269.2555219242
 20
116.4354676516
 40
2.0
 50
270.0
 51
360.0
  0
ARC
  8
0
 62
7
  6
CONTINUOUS
 10
329.3555219242
 20
114.7354676516
 40
0.3
 50
180.0000000001
 51
270.0
  0
ARC
  8
0
 62
7
  6
CONTINUOUS
 10
331.3555219242
 20
114.1354676516
 40
0.3
 50
0.0
 51
90.0
  0
ARC
  8
0
 62
7
  6
CONTINUOUS
 10
271.2555219242
 20
142.5101276178
 40
2.7
 50
90.0
 51
180.0
  0
ARC
  8
0
 62
7
  6
CONTINUOUS
 10
278.2555219242
 20
142.5101276178
 40
2.7
 50
0.0
 51
90.0
  0
ARC
  8
0
 62
7
  6
CONTINUOUS
 10
322.0555219242
 20
142.5101276178
 40
2.7
 50
90.0
 51
180.0
  0
ARC
  8
0
 62
7
  6
CONTINUOUS
 10
329.0555219242
 20
142.5101276178
 40
2.7
 50
0.0
 51
90.0
  0
ARC
  8
0
 62
7
  6
CONTINUOUS
 10
296.6555219242
 20
142.5101276178
 40
2.7
 50
90.0
 51
180.0
  0
ARC
  8
0
 62
7
  6
CONTINUOUS
 10
303.6555219242
 20
142.5101276178
 40
2.7
 50
0.0
 51
90.0
  0
ARC
  8
0
 62
7
  6
CONTINUOUS
 10
321.0555219242
 20
130.6781369377
 40
1.0
 50
0.0
 51
21.39
  0
ARC
  8
0
 62
7
  6
CONTINUOUS
 10
330.0555219242
 20
130.6781369377
 40
1.0
 50
158.61
 51
180.0
  0
ARC
  8
0
 62
7
  6
CONTINUOUS
 10
279.2555219242
 20
130.6781369377
 40
1.0
 50
158.61
 51
180.0
  0
ARC
  8
0
 62
7
  6
CONTINUOUS
 10
270.2555219242
 20
130.6781369377
 40
1.0
 50
0.0
 51
21.39
  0
ARC
  8
0
 62
7
  6
CONTINUOUS
 10
304.6555219242
 20
130.6781369377
 40
1.0
 50
158.61
 51
180.0
  0
ARC
  8
0
 62
7
  6
CONTINUOUS
 10
295.6555219242
 20
130.6781369377
 40
1.0
 50
0.0
 51
21.39
  0
ARC
  8
0
 62
7
  6
CONTINUOUS
 10
319.6555219242
 20
137.8167860921
 40
0.3
 50
180.0
 51
201.39
  0
ARC
  8
0
 62
7
  6
CONTINUOUS
 10
331.4555219242
 20
137.8167860921
 40
0.3
 50
338.61
 51
360.0
  0
ARC
  8
0
 62
7
  6
CONTINUOUS
 10
280.6555219242
 20
137.8167860921
 40
0.3
 50
338.61
 51
360.0
  0
ARC
  8
0
 62
7
  6
CONTINUOUS
 10
268.8555219242
 20
137.8167860921
 40
0.3
 50
180.0
 51
201.39
  0
ARC
  8
0
 62
7
  6
CONTINUOUS
 10
306.0555219242
 20
137.8167860921
 40
0.3
 50
338.61
 51
360.0
  0
ARC
  8
0
 62
7
  6
CONTINUOUS
 10
294.2555219242
 20
137.8167860921
 40
0.3
 50
180.0
 51
201.39
  0
ARC
  8
0
 62
7
  6
CONTINUOUS
 10
252.5505574815
 20
111.7473826178
 40
130.0
 50
350.1348339513
 51
9.9215257614
  0
ARC
  8
0
 62
7
  6
CONTINUOUS
 10
252.5505574815
 20
111.7473826178
 40
129.4999999036
 50
351.65051584
 51
358.794111891
  0
ARC
  8
0
 62
7
  6
CONTINUOUS
 10
371.9005574815
 20
85.7601276178
 40
7.35
 50
180.0
 51
270.0
  0
ARC
  8
0
 62
7
  6
CONTINUOUS
 10
372.2005574815
 20
85.7601276178
 40
7.35
 50
270.0
 51
360.0
  0
CIRCLE
  8
0
 62
7
  6
CONTINUOUS
 10
372.0505574815
 20
86.4473826178
 40
3.137255
  0
ARC
  8
0
 62
7
  6
CONTINUOUS
 10
372.0505574815
 20
98.9354676516
 40
15.5
 50
61.7262863686
 51
118.2737136314
  0
ARC
  8
0
 62
7
  6
CONTINUOUS
 10
364.8505574815
 20
109.3101276178
 40
0.3
 50
180.0
 51
270.0
  0
ARC
  8
0
 62
7
  6
CONTINUOUS
 10
380.1357279316
 20
89.5601276887
 40
0.5
 50
269.9999985521
 51
350.1348256961
  0
ARC
  8
0
 62
7
  6
CONTINUOUS
 10
382.04852604
 20
111.0220280761
 40
0.5
 50
359.6790735814
 51
90.0
  0
ARC
  8
0
 62
7
  6
CONTINUOUS
 10
379.2505574815
 20
109.3101276178
 40
0.3
 50
270.0
 51
360.0
  0
ARC
  8
0
 62
7
  6
CONTINUOUS
 10
372.0505574815
 20
120.8601276178
 40
3.25
 50
180.0
 51
360.0
  0
ARC
  8
0
 62
7
  6
CONTINUOUS
 10
364.8505574815
 20
112.3220280761
 40
0.3
 50
118.2737136314
 51
180.0
  0
ARC
  8
0
 62
7
  6
CONTINUOUS
 10
371.9005574815
 20
137.8601276178
 40
7.35
 50
90.0
 51
180.0
  0
ARC
  8
0
 62
7
  6
CONTINUOUS
 10
372.0505574815
 20
137.0601276178
 40
3.25
 50
0.0
 51
180.0
  0
ARC
  8
0
 62
7
  6
CONTINUOUS
 10
372.2005574815
 20
137.8601276178
 40
7.35
 50
0.0
 51
90.0
  0
ARC
  8
0
 62
7
  6
CONTINUOUS
 10
379.2505574815
 20
112.3220280761
 40
0.3
 50
0.0
 51
61.7262863686
  0
ARC
  8
0
 62
7
  6
CONTINUOUS
 10
380.1138414382
 20
134.0601275469
 40
0.5
 50
9.9215340204
 51
90.0000014566
  0
ARC
  8
0
 62
7
  6
CONTINUOUS
 10
106.1555219242
 20
218.5715244318
 40
2.7
 50
180.0
 51
270.0
  0
ARC
  8
0
 62
7
  6
CONTINUOUS
 10
87.7555219242
 20
218.5715244318
 40
2.7
 50
270.0
 51
360.0
  0
ARC
  8
0
 62
7
  6
CONTINUOUS
 10
131.5555219242
 20
218.5715244318
 40
2.7
 50
180.0
 51
270.0
  0
ARC
  8
0
 62
7
  6
CONTINUOUS
 10
113.1555219242
 20
218.5715244318
 40
2.7
 50
270.0
 51
360.0
  0
ARC
  8
0
 62
7
  6
CONTINUOUS
 10
29.9555219242
 20
218.5715244318
 40
2.7
 50
180.0
 51
270.0
  0
ARC
  8
0
 62
7
  6
CONTINUOUS
 10
55.3555219242
 20
218.5715244318
 40
2.7
 50
180.0
 51
270.0
  0
ARC
  8
0
 62
7
  6
CONTINUOUS
 10
36.9555219242
 20
218.5715244318
 40
2.7
 50
270.0
 51
360.0
  0
ARC
  8
0
 62
7
  6
CONTINUOUS
 10
80.7555219242
 20
218.5715244318
 40
2.7
 50
180.0
 51
270.0
  0
ARC
  8
0
 62
7
  6
CONTINUOUS
 10
62.3555219242
 20
218.5715244318
 40
2.7
 50
270.0
 51
360.0
  0
ARC
  8
0
 62
7
  6
CONTINUOUS
 10
156.9555219242
 20
218.5715244318
 40
2.7
 50
180.0
 51
270.0
  0
ARC
  8
0
 62
7
  6
CONTINUOUS
 10
138.5555219242
 20
218.5715244318
 40
2.7
 50
270.0
 51
360.0
  0
ARC
  8
0
 62
7
  6
CONTINUOUS
 10
163.9555219242
 20
218.5715244318
 40
2.7
 50
270.0
 51
360.0
  0
ARC
  8
0
 62
7
  6
CONTINUOUS
 10
27.6555219242
 20
216.1715244318
 40
0.3
 50
180.0
 51
270.0
  0
ARC
  8
0
 62
7
  6
CONTINUOUS
 10
29.9555219242
 20
228.1715244318
 40
2.7
 50
90.0
 51
180.0
  0
ARC
  8
0
 62
7
  6
CONTINUOUS
 10
55.3555219242
 20
228.1715244318
 40
2.7
 50
90.0
 51
180.0
  0
ARC
  8
0
 62
7
  6
CONTINUOUS
 10
80.7555219242
 20
228.1715244318
 40
2.7
 50
90.0
 51
180.0
  0
ARC
  8
0
 62
7
  6
CONTINUOUS
 10
62.3555219242
 20
228.1715244318
 40
2.7
 50
0.0
 51
90.0
  0
ARC
  8
0
 62
7
  6
CONTINUOUS
 10
36.9555219242
 20
228.1715244318
 40
2.7
 50
0.0
 51
90.0
  0
ARC
  8
0
 62
7
  6
CONTINUOUS
 10
87.7555219242
 20
228.1715244318
 40
2.7
 50
0.0
 51
90.0
  0
ARC
  8
0
 62
7
  6
CONTINUOUS
 10
27.6555219242
 20
230.5715244318
 40
0.3
 50
90.0
 51
180.0
  0
ARC
  8
0
 62
7
  6
CONTINUOUS
 10
106.1555219242
 20
228.1715244318
 40
2.7
 50
90.0
 51
180.0
  0
ARC
  8
0
 62
7
  6
CONTINUOUS
 10
131.5555219242
 20
228.1715244318
 40
2.7
 50
90.0
 51
180.0
  0
ARC
  8
0
 62
7
  6
CONTINUOUS
 10
156.9555219242
 20
228.1715244318
 40
2.7
 50
90.0
 51
180.0
  0
ARC
  8
0
 62
7
  6
CONTINUOUS
 10
138.5555219242
 20
228.1715244318
 40
2.7
 50
0.0
 51
90.0
  0
ARC
  8
0
 62
7
  6
CONTINUOUS
 10
163.9555219242
 20
228.1715244318
 40
2.7
 50
0.0
 51
90.0
  0
ARC
  8
0
 62
7
  6
CONTINUOUS
 10
113.1555219242
 20
228.1715244318
 40
2.7
 50
0.0
 51
90.0
  0
ARC
  8
0
 62
7
  6
CONTINUOUS
 10
182.3555219242
 20
218.5715244318
 40
2.7
 50
180.0
 51
270.0
  0
ARC
  8
0
 62
7
  6
CONTINUOUS
 10
207.7555219242
 20
218.5715244318
 40
2.7
 50
180.0
 51
270.0
  0
ARC
  8
0
 62
7
  6
CONTINUOUS
 10
189.3555219242
 20
218.5715244318
 40
2.7
 50
270.0
 51
360.0
  0
ARC
  8
0
 62
7
  6
CONTINUOUS
 10
258.5555219242
 20
218.5715244318
 40
2.7
 50
180.0
 51
270.0
  0
ARC
  8
0
 62
7
  6
CONTINUOUS
 10
240.1555219242
 20
218.5715244318
 40
2.7
 50
270.0
 51
360.0
  0
ARC
  8
0
 62
7
  6
CONTINUOUS
 10
283.9555219242
 20
218.5715244318
 40
2.7
 50
180.0
 51
270.0
  0
ARC
  8
0
 62
7
  6
CONTINUOUS
 10
265.5555219242
 20
218.5715244318
 40
2.7
 50
270.0
 51
360.0
  0
ARC
  8
0
 62
7
  6
CONTINUOUS
 10
309.3555219242
 20
218.5715244318
 40
2.7
 50
180.0
 51
270.0
  0
ARC
  8
0
 62
7
  6
CONTINUOUS
 10
214.7555219242
 20
218.5715244318
 40
2.7
 50
270.0
 51
360.0
  0
ARC
  8
0
 62
7
  6
CONTINUOUS
 10
290.9555219242
 20
218.5715244318
 40
2.7
 50
270.0
 51
360.0
  0
ARC
  8
0
 62
7
  6
CONTINUOUS
 10
233.1555219242
 20
218.5715244318
 40
2.7
 50
180.0
 51
270.0
  0
ARC
  8
0
 62
7
  6
CONTINUOUS
 10
329.0555219242
 20
218.5715244318
 40
2.7
 50
344.3647025063
 51
360.0
  0
ARC
  8
0
 62
7
  6
CONTINUOUS
 10
316.3555219242
 20
218.5715244318
 40
2.7
 50
270.0
 51
360.0
  0
ARC
  8
0
 62
7
  6
CONTINUOUS
 10
331.3555219242
 20
216.1715244318
 40
0.3
 50
270.0
 51
360.0
  0
ARC
  8
0
 62
7
  6
CONTINUOUS
 10
182.3555219242
 20
228.1715244318
 40
2.7
 50
90.0
 51
180.0
  0
ARC
  8
0
 62
7
  6
CONTINUOUS
 10
207.7555219242
 20
228.1715244318
 40
2.7
 50
90.0
 51
180.0
  0
ARC
  8
0
 62
7
  6
CONTINUOUS
 10
189.3555219242
 20
228.1715244318
 40
2.7
 50
0.0
 51
90.0
  0
ARC
  8
0
 62
7
  6
CONTINUOUS
 10
258.5555219242
 20
228.1715244318
 40
2.7
 50
90.0
 51
180.0
  0
ARC
  8
0
 62
7
  6
CONTINUOUS
 10
240.1555219242
 20
228.1715244318
 40
2.7
 50
0.0
 51
90.0
  0
ARC
  8
0
 62
7
  6
CONTINUOUS
 10
283.9555219242
 20
228.1715244318
 40
2.7
 50
90.0
 51
180.0
  0
ARC
  8
0
 62
7
  6
CONTINUOUS
 10
265.5555219242
 20
228.1715244318
 40
2.7
 50
0.0
 51
90.0
  0
ARC
  8
0
 62
7
  6
CONTINUOUS
 10
309.3555219242
 20
228.1715244318
 40
2.7
 50
90.0
 51
180.0
  0
ARC
  8
0
 62
7
  6
CONTINUOUS
 10
214.7555219242
 20
228.1715244318
 40
2.7
 50
0.0
 51
90.0
  0
ARC
  8
0
 62
7
  6
CONTINUOUS
 10
290.9555219242
 20
228.1715244318
 40
2.7
 50
0.0
 51
90.0
  0
ARC
  8
0
 62
7
  6
CONTINUOUS
 10
233.1555219242
 20
228.1715244318
 40
2.7
 50
90.0
 51
180.0
  0
ARC
  8
0
 62
7
  6
CONTINUOUS
 10
329.0555219242
 20
228.1715244318
 40
2.7
 50
0.0
 51
15.6352961738
  0
ARC
  8
0
 62
7
  6
CONTINUOUS
 10
316.3555219242
 20
228.1715244318
 40
2.7
 50
0.0
 51
90.0
  0
ARC
  8
0
 62
7
  6
CONTINUOUS
 10
331.3555219242
 20
230.5715244318
 40
0.3
 50
0.0
 51
90.0
  0
ENDSEC
  0
EOF
