  0
SECTION
  2
HEADER
  9
$EXTMAX
 10
420.0
 20
297.0
 30
0.0
  9
$EXTMIN
 10
0.0
 20
0.0
 30
0.0
  9
$LIMMIN
 10
0.0
 20
0.0
  9
$LIMMAX
 10
420.0
 20
297.0
  9
$VIEWCTR
 10
210.0
 20
148.5
  9
$VIEWSIZE
 40
297.0
  9
$CLAYER
  8
0
  9
$LTSCALE
 40
23.1
  9
$CELTYPE
  6
BYLAYER
  9
$DIMSCALE
 40
1.0
  9
$DIMASZ
 40
3.5
  9
$DIMEXO
 40
2.625
  9
$DIMDLI
 40
15.96
  9
$DIMEXE
 40
7.56
  9
$DIMCEN
 40
3.78
  9
$DIMLFAC
 40
1.0
  9
$DIMBLK
  1
_FILLED
  9
$DIMTXT
 40
3.5
  9
$PDMODE
 70
3
  9
$PDSIZE
 40
0.3125
  9
$TILEMODE
 70
1
  0
ENDSEC
  0
SECTION
  2
TABLES
  0
TABLE
  2
LTYPE
 70
6
  0
LTYPE
  2
BYBLOCK
 70
0
  3

 72
65
 73
0
 40
0.0
  0
LTYPE
  2
BYLAYER
 70
0
  3

 72
65
 73
0
 40
0.0
  0
LTYPE
  2
CONTINUOUS
 70
64
  3
Solid line
 72
65
 73
0
 40
0.0
  0
LTYPE
  2
CENTER
 70
64
  3
____ _ ____ _ ____ _ ____ _ ____ _ ____ _ ____
 72
65
 73
4
 40
0.6
 49
0.375
 49
-0.075
 49
0.075
 49
-0.075
  0
LTYPE
  2
HIDDEN
 70
64
  3
- - - - - - - - - - - - - - - - - - - -
 72
65
 73
2
 40
0.2
 49
0.1
 49
-0.1
  0
LTYPE
  2
PHANTOM
 70
64
  3
_____ _ _ _____ _ _ _____ _ _ _____
 72
65
 73
6
 40
0.8
 49
0.45
 49
-0.05
 49
0.1
 49
-0.05
 49
0.1
 49
-0.05
  0
LTYPE
  2
DOT
 70
64
  3
. . . . . . . . . . . . . . . . . . . .
 72
65
 73
2
 40
0.2
 49
0.1
 49
-0.1
  0
LTYPE
  2
DASHED
 70
64
  3
- - - - - - - - - - - - - - - - - - - -
 72
65
 73
2
 40
0.2
 49
0.1
 49
-0.1
  0
ENDTAB
  0
TABLE
  2
LAYER
 70
36
  0
LAYER
  2
0
 70
0
 62
7
  6
CONTINUOUS
  0
LAYER
  2
DEFAULT_1
 70
0
 62
7
  6
CENTER
  0
LAYER
  2
DEFAULT_2
 70
0
 62
8
  6
HIDDEN
  0
LAYER
  2
DEFAULT_3
 70
0
 62
7
  6
PHANTOM
  0
LAYER
  2
CURVE
 70
0
 62
7
  6
CONTINUOUS
  0
LAYER
  2
KERNETRAK
 70
0
 62
7
  6
CONTINUOUS
  0
LAYER
  2
SURFACE
 70
0
 62
7
  6
CONTINUOUS
  0
ENDTAB
  0
TABLE
  2
STYLE
 70
1
  0
STYLE
  2
STANDARD
 70
0
 40
0.0
 41
0.8
 50
0.0
 71
0
 42
0.2
  3
txt
  4

  0
STYLE
  2
TEXTSTYLE_1
 70
0
 40
0.0
 41
0.8
 50
0.0
 71
0
 42
0.2
  3
gdt
  4

  0
STYLE
  2
TEXTSTYLE_2
 70
0
 40
0.0
 41
0.6
 50
0.0
 71
0
 42
0.2
  3
txt
  4

  0
STYLE
  2
TEXTSTYLE_3
 70
0
 40
0.0
 41
1.0
 50
0.0
 71
0
 42
0.2
  3
ftb_____.ttf
  4

  0
STYLE
  2
TEXTSTYLE_4
 70
0
 40
0.0
 41
1.0
 50
0.0
 71
0
 42
0.2
  3
fti_____.ttf
  4

  0
STYLE
  2
TEXTSTYLE_5
 70
0
 40
0.0
 41
1.0
 50
0.0
 71
0
 42
0.2
  3
frutiger light.ttf
  4

  0
STYLE
  2
TEXTSTYLE_6
 70
0
 40
0.0
 41
0.7
 50
0.0
 71
0
 42
0.2
  3
txt
  4

  0
STYLE
  2
TEXTSTYLE_7
 70
0
 40
0.0
 41
0.34
 50
0.0
 71
0
 42
0.2
  3
txt
  4

  0
ENDTAB
  0
ENDSEC
  0
SECTION
  2
BLOCKS
  0
BLOCK
  8
0
 62
2
  6
CONTINUOUS
  2
SYMBOL_5_BL1
 70
64
 10
382.7840918555
 20
35.5067593403
  0
TEXT
  8
0
 62
7
  6
CONTINUOUS
 10
373.842376864
 20
30.5995157174
  7
TEXTSTYLE_4
 40
1.0655737705
  1
The brand for plastic modular belts and chains
 41
1.0
 72
0
  0
LINE
  8
0
 62
7
  6
CONTINUOUS
 10
358.7621602445
 20
36.0805298321
 11
358.7621602445
 21
33.9493822911
  0
LINE
  8
0
 62
7
  6
CONTINUOUS
 10
359.0512227376
 20
30.9584509954
 11
359.0512227376
 21
31.0552420547
  0
LINE
  8
0
 62
7
  6
CONTINUOUS
 10
358.7621602445
 20
31.0229783683
 11
358.8199727462
 21
30.8293962497
  0
LINE
  8
0
 62
7
  6
CONTINUOUS
 10
360.1556028675
 20
33.867415078
 11
360.1556028675
 21
36.0805298321
  0
LINE
  8
0
 62
7
  6
CONTINUOUS
 10
361.0746601894
 20
32.0231527829
 11
361.0746601894
 21
30.5067593403
  0
LINE
  8
0
 62
7
  6
CONTINUOUS
 10
361.3637227445
 20
30.5067593403
 11
361.3637227445
 21
31.2488242184
  0
LINE
  8
0
 62
7
  6
CONTINUOUS
 10
361.3637227445
 20
31.3778789641
 11
361.3637227445
 21
32.0231527829
  0
LINE
  8
0
 62
7
  6
CONTINUOUS
 10
358.8199727462
 20
31.216560532
 11
358.7621602445
 21
31.0229783683
  0
LINE
  8
0
 62
7
  6
CONTINUOUS
 10
359.1668477307
 20
30.7971325633
 11
359.0512227376
 21
30.9584509954
  0
LINE
  8
0
 62
7
  6
CONTINUOUS
 10
360.2652852997
 20
31.3133515913
 11
360.3230977445
 21
31.216560532
  0
LINE
  8
0
 62
7
  6
CONTINUOUS
 10
360.6121602997
 20
31.216560532
 11
360.5543476894
 21
31.3456152777
  0
LINE
  8
0
 62
7
  6
CONTINUOUS
 10
362.0408487691
 20
36.0805298321
 11
362.0408487691
 21
34.2772511436
  0
LINE
  8
0
 62
7
  6
CONTINUOUS
 10
362.0408487691
 20
32.9657757338
 11
362.0408487691
 21
32.3100380288
  0
LINE
  8
0
 62
7
  6
CONTINUOUS
 10
362.4043477445
 20
31.1520331591
 11
362.4043477445
 21
30.5067593403
  0
LINE
  8
0
 62
7
  6
CONTINUOUS
 10
362.6934101343
 20
30.5067593403
 11
362.6934101343
 21
31.1520331591
  0
LINE
  8
0
 62
7
  6
CONTINUOUS
 10
359.0512227376
 20
31.0552420547
 11
359.1090352445
 21
31.1842968456
  0
LINE
  8
0
 62
7
  6
CONTINUOUS
 10
358.8199727462
 20
30.8293962497
 11
358.9355977445
 21
30.7003414814
  0
LINE
  8
0
 62
7
  6
CONTINUOUS
 10
362.3465351343
 20
31.2810879048
 11
362.4043477445
 21
31.1520331591
  0
LINE
  8
0
 62
7
  6
CONTINUOUS
 10
363.1559103548
 20
30.7971325633
 11
363.2137226343
 21
30.668077795
  0
LINE
  8
0
 62
7
  6
CONTINUOUS
 10
362.6934101343
 20
31.1520331591
 11
362.6355978548
 21
31.3133515913
  0
LINE
  8
0
 62
7
  6
CONTINUOUS
 10
363.1559103548
 20
31.3456152777
 11
363.1559103548
 21
31.2810879048
  0
LINE
  8
0
 62
7
  6
CONTINUOUS
 10
363.1559103548
 20
30.8939236226
 11
363.1559103548
 21
30.7971325633
  0
LINE
  8
0
 62
7
  6
CONTINUOUS
 10
363.4342913921
 20
32.3100380288
 11
363.4342913921
 21
36.0805298321
  0
LINE
  8
0
 62
7
  6
CONTINUOUS
 10
363.4449727445
 20
30.7648688543
 11
363.4449727445
 21
30.8293962497
  0
LINE
  8
0
 62
7
  6
CONTINUOUS
 10
363.7621602445
 20
36.0805298321
 11
363.7621602445
 21
32.3100380288
  0
LINE
  8
0
 62
7
  6
CONTINUOUS
 10
360.5543476894
 20
30.7003414814
 11
360.6121602997
 21
30.8293962497
  0
LINE
  8
0
 62
7
  6
CONTINUOUS
 10
364.9480979651
 20
30.6035504109
 11
364.890285024
 21
30.7648688543
  0
LINE
  8
0
 62
7
  6
CONTINUOUS
 10
364.6012229651
 20
31.2810879048
 11
364.6012229651
 21
31.1842968456
  0
LINE
  8
0
 62
7
  6
CONTINUOUS
 10
364.6012229651
 20
31.0552420547
 11
364.6012229651
 21
30.8616599362
  0
LINE
  8
0
 62
7
  6
CONTINUOUS
 10
364.890285024
 20
30.7648688543
 11
364.890285024
 21
31.2810879048
  0
LINE
  8
0
 62
7
  6
CONTINUOUS
 10
365.1556028675
 20
32.3100380288
 11
365.1556028675
 21
34.1133167174
  0
LINE
  8
0
 62
7
  6
CONTINUOUS
 10
365.1556028675
 20
35.4247921272
 11
365.1556028675
 21
36.0805298321
  0
LINE
  8
0
 62
7
  6
CONTINUOUS
 10
365.4684104651
 20
32.0231527829
 11
365.4684104651
 21
31.8618343508
  0
LINE
  8
0
 62
7
  6
CONTINUOUS
 10
365.4684104651
 20
31.5391973962
 11
365.4684104651
 21
30.5067593403
  0
LINE
  8
0
 62
7
  6
CONTINUOUS
 10
365.757472524
 20
30.5067593403
 11
365.757472524
 21
31.5391973962
  0
LINE
  8
0
 62
7
  6
CONTINUOUS
 10
365.757472524
 20
31.8618343508
 11
365.757472524
 21
32.0231527829
  0
LINE
  8
0
 62
7
  6
CONTINUOUS
 10
360.3230977445
 20
30.8293962497
 11
360.2652852997
 21
30.7326051679
  0
LINE
  8
0
 62
7
  6
CONTINUOUS
 10
362.6355978548
 20
31.3133515913
 11
362.5777852445
 21
31.3778789641
  0
LINE
  8
0
 62
7
  6
CONTINUOUS
 10
363.5027853548
 20
30.7003414814
 11
363.4449727445
 21
30.7648688543
  0
LINE
  8
0
 62
7
  6
CONTINUOUS
 10
364.6590352445
 20
30.5712867188
 11
364.716847524
 21
30.5067593403
  0
LINE
  8
0
 62
7
  6
CONTINUOUS
 10
364.6012229651
 20
30.668077795
 11
364.6590352445
 21
30.5712867188
  0
LINE
  8
0
 62
7
  6
CONTINUOUS
 10
365.0059102445
 20
30.5067593403
 11
364.9480979651
 21
30.6035504109
  0
LINE
  8
0
 62
7
  6
CONTINUOUS
 10
364.890285024
 20
31.2810879048
 11
364.8324727445
 21
31.3778789641
  0
LINE
  8
0
 62
7
  6
CONTINUOUS
 10
366.2199727445
 20
31.5391973962
 11
366.2199727445
 21
30.5067593403
  0
LINE
  8
0
 62
7
  6
CONTINUOUS
 10
366.5090354651
 20
30.5067593403
 11
366.5090354651
 21
31.2488242184
  0
LINE
  8
0
 62
7
  6
CONTINUOUS
 10
366.5090354651
 20
31.3778789641
 11
366.5090354651
 21
31.5391973962
  0
LINE
  8
0
 62
7
  6
CONTINUOUS
 10
367.0408487691
 20
34.5231527829
 11
367.0408487691
 21
32.3100380288
  0
LINE
  8
0
 62
7
  6
CONTINUOUS
 10
358.9355977445
 20
31.3456152777
 11
358.8199727462
 21
31.216560532
  0
LINE
  8
0
 62
7
  6
CONTINUOUS
 10
359.1090352445
 20
31.1842968456
 11
359.1668477307
 21
31.2488242184
  0
LINE
  8
0
 62
7
  6
CONTINUOUS
 10
358.9355977445
 20
30.7003414814
 11
359.0512227376
 21
30.6358140973
  0
LINE
  8
0
 62
7
  6
CONTINUOUS
 10
359.3402852307
 20
30.7003414814
 11
359.1668477307
 21
30.7971325633
  0
LINE
  8
0
 62
7
  6
CONTINUOUS
 10
364.543410024
 20
31.3456152777
 11
364.6012229651
 21
31.2810879048
  0
LINE
  8
0
 62
7
  6
CONTINUOUS
 10
367.491847524
 20
31.2810879048
 11
367.5496604651
 21
31.1197694727
  0
LINE
  8
0
 62
7
  6
CONTINUOUS
 10
367.838722524
 20
31.1197694727
 11
367.7809102445
 21
31.2810879048
  0
LINE
  8
0
 62
7
  6
CONTINUOUS
 10
367.5496604651
 20
31.1197694727
 11
367.5496604651
 21
30.5067593403
  0
LINE
  8
0
 62
7
  6
CONTINUOUS
 10
367.838722524
 20
30.5067593403
 11
367.838722524
 21
31.1197694727
  0
LINE
  8
0
 62
7
  6
CONTINUOUS
 10
368.3012227445
 20
31.3456152777
 11
368.3012227445
 21
31.2810879048
  0
LINE
  8
0
 62
7
  6
CONTINUOUS
 10
368.4342913921
 20
32.3100380288
 11
368.4342913921
 21
34.4411855698
  0
LINE
  8
0
 62
7
  6
CONTINUOUS
 10
368.7621602445
 20
36.0805298321
 11
368.7621602445
 21
32.3100380288
  0
LINE
  8
0
 62
7
  6
CONTINUOUS
 10
363.4449727445
 20
30.8293962497
 11
363.5027853548
 21
30.926187309
  0
LINE
  8
0
 62
7
  6
CONTINUOUS
 10
359.0512227376
 20
30.6358140973
 11
359.2246602583
 21
30.5712867188
  0
LINE
  8
0
 62
7
  6
CONTINUOUS
 10
360.5543476894
 20
31.3456152777
 11
360.3809101894
 21
31.4424063369
  0
LINE
  8
0
 62
7
  6
CONTINUOUS
 10
363.2137226343
 20
30.668077795
 11
363.3871601343
 21
30.5712867188
  0
LINE
  8
0
 62
7
  6
CONTINUOUS
 10
362.2309102445
 20
31.3456152777
 11
362.3465351343
 21
31.2810879048
  0
LINE
  8
0
 62
7
  6
CONTINUOUS
 10
362.5777852445
 20
31.3778789641
 11
362.4621603548
 21
31.4424063369
  0
LINE
  8
0
 62
7
  6
CONTINUOUS
 10
368.3012227445
 20
30.7648688543
 11
368.4168479651
 21
30.6358140973
  0
LINE
  8
0
 62
7
  6
CONTINUOUS
 10
368.6480977445
 20
30.7003414814
 11
368.5902854651
 21
30.7648688543
  0
LINE
  8
0
 62
7
  6
CONTINUOUS
 10
368.3012227445
 20
31.2810879048
 11
368.4168479651
 21
31.1520331591
  0
LINE
  8
0
 62
7
  6
CONTINUOUS
 10
367.7809102445
 20
31.2810879048
 11
367.7230979651
 21
31.3778789641
  0
LINE
  8
0
 62
7
  6
CONTINUOUS
 10
370.1512223035
 20
30.7003414814
 11
370.1512223035
 21
30.7648688543
  0
LINE
  8
0
 62
7
  6
CONTINUOUS
 10
370.1556028675
 20
32.3100380288
 11
370.1556028675
 21
36.0805298321
  0
LINE
  8
0
 62
7
  6
CONTINUOUS
 10
363.2137226343
 20
31.4101426505
 11
363.1559103548
 21
31.3456152777
  0
LINE
  8
0
 62
7
  6
CONTINUOUS
 10
360.091847717
 20
31.3778789641
 11
360.2652852997
 21
31.3133515913
  0
LINE
  8
0
 62
7
  6
CONTINUOUS
 10
364.8324727445
 20
31.3778789641
 11
364.716847524
 21
31.4424063369
  0
LINE
  8
0
 62
7
  6
CONTINUOUS
 10
368.6480977445
 20
31.216560532
 11
368.5902854651
 21
31.2810879048
  0
LINE
  8
0
 62
7
  6
CONTINUOUS
 10
369.8043479651
 20
30.8293962497
 11
369.8621602445
 21
30.7648688543
  0
LINE
  8
0
 62
7
  6
CONTINUOUS
 10
370.1512223035
 20
30.7648688543
 11
370.0355977445
 21
30.8939236226
  0
LINE
  8
0
 62
7
  6
CONTINUOUS
 10
369.8043479651
 20
31.3456152777
 11
369.8621602445
 21
31.2810879048
  0
LINE
  8
0
 62
7
  6
CONTINUOUS
 10
370.1512223035
 20
31.2810879048
 11
370.0355977445
 21
31.4101426505
  0
LINE
  8
0
 62
7
  6
CONTINUOUS
 10
363.4449727445
 20
31.2810879048
 11
363.5027853548
 21
31.3456152777
  0
LINE
  8
0
 62
7
  6
CONTINUOUS
 10
363.2715352445
 20
31.0229783683
 11
363.1559103548
 21
30.8939236226
  0
LINE
  8
0
 62
7
  6
CONTINUOUS
 10
364.6012229651
 20
30.8616599362
 11
364.543410024
 21
30.7971325633
  0
LINE
  8
0
 62
7
  6
CONTINUOUS
 10
364.543410024
 20
30.6035504109
 11
364.6012229651
 21
30.668077795
  0
LINE
  8
0
 62
7
  6
CONTINUOUS
 10
363.3871601343
 20
30.5712867188
 11
363.5027853548
 21
30.5390230296
  0
LINE
  8
0
 62
7
  6
CONTINUOUS
 10
360.3809101894
 20
31.4424063369
 11
360.1496602445
 21
31.5069337098
  0
LINE
  8
0
 62
7
  6
CONTINUOUS
 10
363.7340351343
 20
30.6358140973
 11
363.5027853548
 21
30.7003414814
  0
LINE
  8
0
 62
7
  6
CONTINUOUS
 10
362.4621603548
 20
31.4424063369
 11
362.2887228548
 21
31.5069337098
  0
LINE
  8
0
 62
7
  6
CONTINUOUS
 10
364.716847524
 20
31.4424063369
 11
364.543410024
 21
31.5069337098
  0
LINE
  8
0
 62
7
  6
CONTINUOUS
 10
367.3762229651
 20
31.3456152777
 11
367.491847524
 21
31.2810879048
  0
LINE
  8
0
 62
7
  6
CONTINUOUS
 10
367.7230979651
 20
31.3778789641
 11
367.6074727445
 21
31.4424063369
  0
LINE
  8
0
 62
7
  6
CONTINUOUS
 10
359.2246602583
 20
30.5712867188
 11
359.3980977583
 21
30.5390230296
  0
LINE
  8
0
 62
7
  6
CONTINUOUS
 10
359.6871602721
 20
30.6358140973
 11
359.3402852307
 21
30.7003414814
  0
LINE
  8
0
 62
7
  6
CONTINUOUS
 10
362.1152853548
 20
31.3778789641
 11
362.2309102445
 21
31.3456152777
  0
LINE
  8
0
 62
7
  6
CONTINUOUS
 10
364.4277854651
 20
31.3778789641
 11
364.543410024
 21
31.3456152777
  0
LINE
  8
0
 62
7
  6
CONTINUOUS
 10
368.7637229651
 20
30.668077795
 11
368.6480977445
 21
30.7003414814
  0
LINE
  8
0
 62
7
  6
CONTINUOUS
 10
367.2605977445
 20
31.3778789641
 11
367.3762229651
 21
31.3456152777
  0
LINE
  8
0
 62
7
  6
CONTINUOUS
 10
368.4168479651
 20
30.6358140973
 11
368.5902854651
 21
30.5712867188
  0
LINE
  8
0
 62
7
  6
CONTINUOUS
 10
367.6074727445
 20
31.4424063369
 11
367.4340352445
 21
31.5069337098
  0
LINE
  8
0
 62
7
  6
CONTINUOUS
 10
368.8215352445
 20
31.1520331591
 11
368.6480977445
 21
31.216560532
  0
LINE
  8
0
 62
7
  6
CONTINUOUS
 10
369.6309104651
 20
30.8939236226
 11
369.8043479651
 21
30.8293962497
  0
LINE
  8
0
 62
7
  6
CONTINUOUS
 10
370.0355977445
 20
31.4101426505
 11
369.8621602445
 21
31.4746700234
  0
LINE
  8
0
 62
7
  6
CONTINUOUS
 10
368.4168479651
 20
31.1520331591
 11
368.6480977445
 21
31.0552420547
  0
LINE
  8
0
 62
7
  6
CONTINUOUS
 10
370.0355977445
 20
30.8939236226
 11
369.8043479651
 21
30.9907146818
  0
LINE
  8
0
 62
7
  6
CONTINUOUS
 10
368.5902854651
 20
31.2810879048
 11
368.6480977445
 21
31.3456152777
  0
LINE
  8
0
 62
7
  6
CONTINUOUS
 10
359.0512227376
 20
31.4101426505
 11
358.9355977445
 21
31.3456152777
  0
LINE
  8
0
 62
7
  6
CONTINUOUS
 10
359.1668477307
 20
31.2488242184
 11
359.3402852307
 21
31.3456152777
  0
LINE
  8
0
 62
7
  6
CONTINUOUS
 10
361.4793477997
 20
31.4424063369
 11
361.3637227445
 21
31.3778789641
  0
LINE
  8
0
 62
7
  6
CONTINUOUS
 10
361.3637227445
 20
31.2488242184
 11
361.4793477997
 21
31.3133515913
  0
LINE
  8
0
 62
7
  6
CONTINUOUS
 10
360.3809101894
 20
30.6035504109
 11
360.5543476894
 21
30.7003414814
  0
LINE
  8
0
 62
7
  6
CONTINUOUS
 10
359.3980977583
 20
30.5390230296
 11
359.744972717
 21
30.5067593403
  0
LINE
  8
0
 62
7
  6
CONTINUOUS
 10
363.5027853548
 20
30.5390230296
 11
363.7340351343
 21
30.5067593403
  0
LINE
  8
0
 62
7
  6
CONTINUOUS
 10
361.8840352445
 20
31.4101426505
 11
362.1152853548
 21
31.3778789641
  0
LINE
  8
0
 62
7
  6
CONTINUOUS
 10
364.1965353548
 20
31.4101426505
 11
364.4277854651
 21
31.3778789641
  0
LINE
  8
0
 62
7
  6
CONTINUOUS
 10
368.6480977445
 20
31.0552420547
 11
369.6309104651
 21
30.8939236226
  0
LINE
  8
0
 62
7
  6
CONTINUOUS
 10
369.8043479651
 20
30.9907146818
 11
368.8215352445
 21
31.1520331591
  0
LINE
  8
0
 62
7
  6
CONTINUOUS
 10
362.2887228548
 20
31.5069337098
 11
362.1152853548
 21
31.5391973962
  0
LINE
  8
0
 62
7
  6
CONTINUOUS
 10
368.5902854651
 20
30.5712867188
 11
368.7637229651
 21
30.5390230296
  0
LINE
  8
0
 62
7
  6
CONTINUOUS
 10
367.4340352445
 20
31.5069337098
 11
367.2605977445
 21
31.5391973962
  0
LINE
  8
0
 62
7
  6
CONTINUOUS
 10
369.6887227445
 20
31.3778789641
 11
369.8043479651
 21
31.3456152777
  0
LINE
  8
0
 62
7
  6
CONTINUOUS
 10
369.8621602445
 20
30.7648688543
 11
369.8043479651
 21
30.7003414814
  0
LINE
  8
0
 62
7
  6
CONTINUOUS
 10
368.4168479651
 20
31.4424063369
 11
368.3012227445
 21
31.3456152777
  0
LINE
  8
0
 62
7
  6
CONTINUOUS
 10
363.3293478548
 20
31.4746700234
 11
363.2137226343
 21
31.4101426505
  0
LINE
  8
0
 62
7
  6
CONTINUOUS
 10
363.3871601343
 20
31.0875057863
 11
363.2715352445
 21
31.0229783683
  0
LINE
  8
0
 62
7
  6
CONTINUOUS
 10
363.5027853548
 20
30.926187309
 11
363.6184102445
 21
30.9907146818
  0
LINE
  8
0
 62
7
  6
CONTINUOUS
 10
361.0746601894
 20
30.5067593403
 11
361.3637227445
 21
30.5067593403
  0
LINE
  8
0
 62
7
  6
CONTINUOUS
 10
362.4043477445
 20
30.5067593403
 11
362.6934101343
 21
30.5067593403
  0
LINE
  8
0
 62
7
  6
CONTINUOUS
 10
363.7340351343
 20
30.5067593403
 11
364.0809101343
 21
30.5067593403
  0
LINE
  8
0
 62
7
  6
CONTINUOUS
 10
364.716847524
 20
30.5067593403
 11
365.0059102445
 21
30.5067593403
  0
LINE
  8
0
 62
7
  6
CONTINUOUS
 10
365.4684104651
 20
30.5067593403
 11
365.757472524
 21
30.5067593403
  0
LINE
  8
0
 62
7
  6
CONTINUOUS
 10
366.2199727445
 20
30.5067593403
 11
366.5090354651
 21
30.5067593403
  0
LINE
  8
0
 62
7
  6
CONTINUOUS
 10
367.5496604651
 20
30.5067593403
 11
367.838722524
 21
30.5067593403
  0
LINE
  8
0
 62
7
  6
CONTINUOUS
 10
369.1105979651
 20
30.5067593403
 11
369.4574729651
 21
30.5067593403
  0
LINE
  8
0
 62
7
  6
CONTINUOUS
 10
369.4574729651
 20
30.6358140973
 11
369.1105979651
 21
30.6358140973
  0
LINE
  8
0
 62
7
  6
CONTINUOUS
 10
364.0809101343
 20
30.6358140973
 11
363.7340351343
 21
30.6358140973
  0
LINE
  8
0
 62
7
  6
CONTINUOUS
 10
368.5902854651
 20
30.7648688543
 11
368.3012227445
 21
30.7648688543
  0
LINE
  8
0
 62
7
  6
CONTINUOUS
 10
360.6121602997
 20
30.8293962497
 11
360.3230977445
 21
30.8293962497
  0
LINE
  8
0
 62
7
  6
CONTINUOUS
 10
359.6871602721
 20
31.4101426505
 11
360.091847717
 21
31.3778789641
  0
LINE
  8
0
 62
7
  6
CONTINUOUS
 10
360.1496602445
 20
31.5069337098
 11
359.744972717
 21
31.5391973962
  0
LINE
  8
0
 62
7
  6
CONTINUOUS
 10
368.7637229651
 20
30.5390230296
 11
369.1105979651
 21
30.5067593403
  0
LINE
  8
0
 62
7
  6
CONTINUOUS
 10
369.1105979651
 20
30.6358140973
 11
368.7637229651
 21
30.668077795
  0
LINE
  8
0
 62
7
  6
CONTINUOUS
 10
364.543410024
 20
31.5069337098
 11
364.1965353548
 21
31.5391973962
  0
LINE
  8
0
 62
7
  6
CONTINUOUS
 10
369.3418477445
 20
31.4101426505
 11
369.6887227445
 21
31.3778789641
  0
LINE
  8
0
 62
7
  6
CONTINUOUS
 10
369.6887227445
 20
31.5069337098
 11
369.3418477445
 21
31.5391973962
  0
LINE
  8
0
 62
7
  6
CONTINUOUS
 10
367.0293479651
 20
31.4101426505
 11
367.2605977445
 21
31.3778789641
  0
LINE
  8
0
 62
7
  6
CONTINUOUS
 10
369.8621602445
 20
31.4746700234
 11
369.6887227445
 21
31.5069337098
  0
LINE
  8
0
 62
7
  6
CONTINUOUS
 10
370.0355977445
 20
30.6035504109
 11
370.1512223035
 21
30.7003414814
  0
LINE
  8
0
 62
7
  6
CONTINUOUS
 10
364.543410024
 20
30.7971325633
 11
364.369972524
 21
30.7003414814
  0
LINE
  8
0
 62
7
  6
CONTINUOUS
 10
366.624660024
 20
31.4424063369
 11
366.5090354651
 21
31.3778789641
  0
LINE
  8
0
 62
7
  6
CONTINUOUS
 10
366.5090354651
 20
31.2488242184
 11
366.624660024
 21
31.3133515913
  0
LINE
  8
0
 62
7
  6
CONTINUOUS
 10
359.2246602583
 20
31.4746700234
 11
359.0512227376
 21
31.4101426505
  0
LINE
  8
0
 62
7
  6
CONTINUOUS
 10
361.6527851343
 20
31.5069337098
 11
361.4793477997
 21
31.4424063369
  0
LINE
  8
0
 62
7
  6
CONTINUOUS
 10
361.4793477997
 20
31.3133515913
 11
361.6527851343
 21
31.3778789641
  0
LINE
  8
0
 62
7
  6
CONTINUOUS
 10
360.2652852997
 20
30.7326051679
 11
360.091847717
 21
30.668077795
  0
LINE
  8
0
 62
7
  6
CONTINUOUS
 10
369.6887227445
 20
30.668077795
 11
369.4574729651
 21
30.6358140973
  0
LINE
  8
0
 62
7
  6
CONTINUOUS
 10
364.0809101343
 20
30.5067593403
 11
364.369972524
 21
30.5390230296
  0
LINE
  8
0
 62
7
  6
CONTINUOUS
 10
369.4574729651
 20
30.5067593403
 11
369.8043479651
 21
30.5390230296
  0
LINE
  8
0
 62
7
  6
CONTINUOUS
 10
359.744972717
 20
30.5067593403
 11
360.1496602445
 21
30.5390230296
  0
LINE
  8
0
 62
7
  6
CONTINUOUS
 10
360.091847717
 20
30.668077795
 11
359.6871602721
 21
30.6358140973
  0
LINE
  8
0
 62
7
  6
CONTINUOUS
 10
363.9652852445
 20
31.0552420547
 11
364.6012229651
 21
31.0552420547
  0
LINE
  8
0
 62
7
  6
CONTINUOUS
 10
364.6012229651
 20
31.1842968456
 11
363.9652852445
 21
31.1842968456
  0
LINE
  8
0
 62
7
  6
CONTINUOUS
 10
360.3230977445
 20
31.216560532
 11
360.6121602997
 21
31.216560532
  0
LINE
  8
0
 62
7
  6
CONTINUOUS
 10
363.1559103548
 20
31.2810879048
 11
363.4449727445
 21
31.2810879048
  0
LINE
  8
0
 62
7
  6
CONTINUOUS
 10
369.8621602445
 20
31.2810879048
 11
370.1512223035
 21
31.2810879048
  0
LINE
  8
0
 62
7
  6
CONTINUOUS
 10
363.8496603548
 20
31.4101426505
 11
364.1965353548
 21
31.4101426505
  0
LINE
  8
0
 62
7
  6
CONTINUOUS
 10
368.9949727445
 20
31.4101426505
 11
369.3418477445
 21
31.4101426505
  0
LINE
  8
0
 62
7
  6
CONTINUOUS
 10
369.3418477445
 20
31.5391973962
 11
368.9949727445
 21
31.5391973962
  0
LINE
  8
0
 62
7
  6
CONTINUOUS
 10
367.2605977445
 20
31.5391973962
 11
367.0293479651
 21
31.5391973962
  0
LINE
  8
0
 62
7
  6
CONTINUOUS
 10
366.5090354651
 20
31.5391973962
 11
366.2199727445
 21
31.5391973962
  0
LINE
  8
0
 62
7
  6
CONTINUOUS
 10
365.757472524
 20
31.5391973962
 11
365.4684104651
 21
31.5391973962
  0
LINE
  8
0
 62
7
  6
CONTINUOUS
 10
364.1965353548
 20
31.5391973962
 11
363.8496603548
 21
31.5391973962
  0
LINE
  8
0
 62
7
  6
CONTINUOUS
 10
362.1152853548
 20
31.5391973962
 11
361.8840352445
 21
31.5391973962
  0
LINE
  8
0
 62
7
  6
CONTINUOUS
 10
365.4684104651
 20
31.8618343508
 11
365.757472524
 21
31.8618343508
  0
LINE
  8
0
 62
7
  6
CONTINUOUS
 10
365.757472524
 20
32.0231527829
 11
365.4684104651
 21
32.0231527829
  0
LINE
  8
0
 62
7
  6
CONTINUOUS
 10
361.3637227445
 20
32.0231527829
 11
361.0746601894
 21
32.0231527829
  0
LINE
  8
0
 62
7
  6
CONTINUOUS
 10
360.4015045068
 20
32.3100380288
 11
360.8140758554
 21
32.3100380288
  0
LINE
  8
0
 62
7
  6
CONTINUOUS
 10
362.0408487691
 20
32.3100380288
 11
363.4342913921
 21
32.3100380288
  0
LINE
  8
0
 62
7
  6
CONTINUOUS
 10
363.7621602445
 20
32.3100380288
 11
365.1556028675
 21
32.3100380288
  0
LINE
  8
0
 62
7
  6
CONTINUOUS
 10
367.0408487691
 20
32.3100380288
 11
368.4342913921
 21
32.3100380288
  0
LINE
  8
0
 62
7
  6
CONTINUOUS
 10
368.7621602445
 20
32.3100380288
 11
370.1556028675
 21
32.3100380288
  0
LINE
  8
0
 62
7
  6
CONTINUOUS
 10
366.798097524
 20
31.5069337098
 11
366.624660024
 21
31.4424063369
  0
LINE
  8
0
 62
7
  6
CONTINUOUS
 10
364.369972524
 20
30.5390230296
 11
364.543410024
 21
30.6035504109
  0
LINE
  8
0
 62
7
  6
CONTINUOUS
 10
369.8043479651
 20
30.5390230296
 11
370.0355977445
 21
30.6035504109
  0
LINE
  8
0
 62
7
  6
CONTINUOUS
 10
369.8043479651
 20
30.7003414814
 11
369.6887227445
 21
30.668077795
  0
LINE
  8
0
 62
7
  6
CONTINUOUS
 10
368.7637229651
 20
31.3778789641
 11
368.9949727445
 21
31.4101426505
  0
LINE
  8
0
 62
7
  6
CONTINUOUS
 10
366.798097524
 20
31.3778789641
 11
367.0293479651
 21
31.4101426505
  0
LINE
  8
0
 62
7
  6
CONTINUOUS
 10
363.7340351343
 20
31.0229783683
 11
363.9652852445
 21
31.0552420547
  0
LINE
  8
0
 62
7
  6
CONTINUOUS
 10
367.0293479651
 20
31.5391973962
 11
366.798097524
 21
31.5069337098
  0
LINE
  8
0
 62
7
  6
CONTINUOUS
 10
363.6184102445
 20
31.3778789641
 11
363.8496603548
 21
31.4101426505
  0
LINE
  8
0
 62
7
  6
CONTINUOUS
 10
368.9949727445
 20
31.5391973962
 11
368.6480977445
 21
31.5069337098
  0
LINE
  8
0
 62
7
  6
CONTINUOUS
 10
363.9652852445
 20
31.1842968456
 11
363.6184102445
 21
31.1520331591
  0
LINE
  8
0
 62
7
  6
CONTINUOUS
 10
359.744972717
 20
31.5391973962
 11
359.3980977583
 21
31.5069337098
  0
LINE
  8
0
 62
7
  6
CONTINUOUS
 10
363.8496603548
 20
31.5391973962
 11
363.4449727445
 21
31.5069337098
  0
LINE
  8
0
 62
7
  6
CONTINUOUS
 10
361.221176638
 20
33.4575790124
 11
360.565438933
 21
33.4575790124
  0
LINE
  8
0
 62
7
  6
CONTINUOUS
 10
366.624660024
 20
31.3133515913
 11
366.798097524
 21
31.3778789641
  0
LINE
  8
0
 62
7
  6
CONTINUOUS
 10
368.6480977445
 20
31.3456152777
 11
368.7637229651
 21
31.3778789641
  0
LINE
  8
0
 62
7
  6
CONTINUOUS
 10
368.6480977445
 20
31.5069337098
 11
368.4168479651
 21
31.4424063369
  0
LINE
  8
0
 62
7
  6
CONTINUOUS
 10
364.369972524
 20
30.7003414814
 11
364.0809101343
 21
30.6358140973
  0
LINE
  8
0
 62
7
  6
CONTINUOUS
 10
361.6527851343
 20
31.3778789641
 11
361.8840352445
 21
31.4101426505
  0
LINE
  8
0
 62
7
  6
CONTINUOUS
 10
361.8840352445
 20
31.5391973962
 11
361.6527851343
 21
31.5069337098
  0
LINE
  8
0
 62
7
  6
CONTINUOUS
 10
359.4559102445
 20
31.3778789641
 11
359.6871602721
 21
31.4101426505
  0
LINE
  8
0
 62
7
  6
CONTINUOUS
 10
365.9752749986
 20
34.9329888485
 11
366.6310127035
 21
34.9329888485
  0
LINE
  8
0
 62
7
  6
CONTINUOUS
 10
363.6184102445
 20
30.9907146818
 11
363.7340351343
 21
31.0229783683
  0
LINE
  8
0
 62
7
  6
CONTINUOUS
 10
363.6184102445
 20
31.1520331591
 11
363.3871601343
 21
31.0875057863
  0
LINE
  8
0
 62
7
  6
CONTINUOUS
 10
363.5027853548
 20
31.3456152777
 11
363.6184102445
 21
31.3778789641
  0
LINE
  8
0
 62
7
  6
CONTINUOUS
 10
360.1496602445
 20
30.5390230296
 11
360.3809101894
 21
30.6035504109
  0
LINE
  8
0
 62
7
  6
CONTINUOUS
 10
363.4449727445
 20
31.5069337098
 11
363.3293478548
 21
31.4746700234
  0
LINE
  8
0
 62
7
  6
CONTINUOUS
 10
359.3980977583
 20
31.5069337098
 11
359.2246602583
 21
31.4746700234
  0
LINE
  8
0
 62
7
  6
CONTINUOUS
 10
370.1556028675
 20
36.0805298321
 11
368.7621602445
 21
36.0805298321
  0
LINE
  8
0
 62
7
  6
CONTINUOUS
 10
366.7949471298
 20
36.0805298321
 11
366.3823757812
 21
36.0805298321
  0
LINE
  8
0
 62
7
  6
CONTINUOUS
 10
365.1556028675
 20
36.0805298321
 11
363.7621602445
 21
36.0805298321
  0
LINE
  8
0
 62
7
  6
CONTINUOUS
 10
363.4342913921
 20
36.0805298321
 11
362.0408487691
 21
36.0805298321
  0
LINE
  8
0
 62
7
  6
CONTINUOUS
 10
360.1556028675
 20
36.0805298321
 11
358.7621602445
 21
36.0805298321
  0
LINE
  8
0
 62
7
  6
CONTINUOUS
 10
359.3402852307
 20
31.3456152777
 11
359.4559102445
 21
31.3778789641
  0
CIRCLE
  8
0
 62
7
  6
CONTINUOUS
 10
369.458881556
 20
38.4165954059
 40
2.0901639344
  0
ARC
  8
0
 62
7
  6
CONTINUOUS
 10
360.4015045068
 20
33.9493822911
 40
1.6393442623
 50
180.0
 51
270.0
  0
ARC
  8
0
 62
7
  6
CONTINUOUS
 10
366.7949471298
 20
34.4411855698
 40
1.6393442623
 50
0.0
 51
90.0
  0
ARC
  8
0
 62
7
  6
CONTINUOUS
 10
360.8140758554
 20
33.7854478649
 40
1.4754098361
 50
270.0
 51
326.2510114041
  0
ARC
  8
0
 62
7
  6
CONTINUOUS
 10
366.3823757812
 20
34.6051199961
 40
1.4754098361
 50
90.0
 51
146.2510114041
  0
ARC
  8
0
 62
7
  6
CONTINUOUS
 10
361.221176638
 20
34.2772511436
 40
0.8196721311
 50
270.0
 51
360.0
  0
ARC
  8
0
 62
7
  6
CONTINUOUS
 10
365.9752749986
 20
34.1133167174
 40
0.8196721311
 50
90.0
 51
180.0
  0
ARC
  8
0
 62
7
  6
CONTINUOUS
 10
360.565438933
 20
33.867415078
 40
0.4098360656
 50
180.0
 51
270.0
  0
ARC
  8
0
 62
7
  6
CONTINUOUS
 10
366.6310127035
 20
34.5231527829
 40
0.4098360656
 50
0.0
 51
90.0
  0
SOLID
  8
0
 62
7
  6
CONTINUOUS
 10
365.4684104651
 20
31.8618347111
 11
365.4684104651
 21
32.0231531947
 12
365.757472524
 22
31.8618347111
 13
365.757472524
 23
32.0231531947
  0
SOLID
  8
0
 62
7
  6
CONTINUOUS
 10
359.744972717
 20
31.5391977439
 11
360.1496602445
 21
31.5069333244
 12
359.3980977583
 22
31.5069333244
 13
359.3980977583
 23
31.5069333244
  0
SOLID
  8
0
 62
7
  6
CONTINUOUS
 10
359.2246602583
 20
31.4746706537
 11
359.3980977583
 21
31.5069333244
 12
360.1496602445
 22
31.5069333244
 13
360.1496602445
 23
31.5069333244
  0
SOLID
  8
0
 62
7
  6
CONTINUOUS
 10
360.1496602445
 20
31.5069333244
 11
360.3809101894
 21
31.4424063504
 12
359.2246602583
 22
31.4746706537
 13
359.2246602583
 23
31.4746706537
  0
SOLID
  8
0
 62
7
  6
CONTINUOUS
 10
359.0512227376
 20
31.4101419116
 11
359.2246602583
 21
31.4746706537
 12
360.3809101894
 22
31.4424063504
 13
360.3809101894
 23
31.4424063504
  0
SOLID
  8
0
 62
7
  6
CONTINUOUS
 10
359.0512227376
 20
31.4101419116
 11
360.3809101894
 21
31.4424063504
 12
359.6871602721
 22
31.4101419116
 13
359.6871602721
 23
31.4101419116
  0
SOLID
  8
0
 62
7
  6
CONTINUOUS
 10
359.6871602721
 20
31.4101419116
 11
360.3809101894
 21
31.4424063504
 12
360.091847717
 22
31.3778792603
 13
360.091847717
 23
31.3778792603
  0
SOLID
  8
0
 62
7
  6
CONTINUOUS
 10
360.3809101894
 20
31.4424063504
 11
360.5543476894
 21
31.345614957
 12
360.091847717
 22
31.3778792603
 13
360.091847717
 23
31.3778792603
  0
SOLID
  8
0
 62
7
  6
CONTINUOUS
 10
360.2652852997
 20
31.3133521701
 11
360.091847717
 21
31.3778792603
 12
360.5543476894
 22
31.345614957
 13
360.5543476894
 23
31.345614957
  0
SOLID
  8
0
 62
7
  6
CONTINUOUS
 10
360.2652852997
 20
31.3133521701
 11
360.5543476894
 21
31.345614957
 12
360.3230977445
 22
31.2165606992
 13
360.3230977445
 23
31.2165606992
  0
SOLID
  8
0
 62
7
  6
CONTINUOUS
 10
360.5543476894
 20
31.345614957
 11
360.6121602997
 21
31.2165606992
 12
360.3230977445
 22
31.2165606992
 13
360.3230977445
 23
31.2165606992
  0
SOLID
  8
0
 62
7
  6
CONTINUOUS
 10
361.6527851343
 20
31.5069329918
 11
361.8840352445
 21
31.5391972951
 12
362.1152853548
 22
31.5391972951
 13
362.1152853548
 23
31.5391972951
  0
SOLID
  8
0
 62
7
  6
CONTINUOUS
 10
362.1152853548
 20
31.5391972951
 11
362.2887228548
 21
31.5069329918
 12
361.6527851343
 22
31.5069329918
 13
361.6527851343
 23
31.5069329918
  0
SOLID
  8
0
 62
7
  6
CONTINUOUS
 10
361.4793477997
 20
31.4424059016
 11
361.6527851343
 21
31.5069329918
 12
362.2887228548
 22
31.5069329918
 13
362.2887228548
 23
31.5069329918
  0
SOLID
  8
0
 62
7
  6
CONTINUOUS
 10
362.2887228548
 20
31.5069329918
 11
362.4621603548
 21
31.4424059016
 12
361.4793477997
 22
31.4424059016
 13
361.4793477997
 23
31.4424059016
  0
SOLID
  8
0
 62
7
  6
CONTINUOUS
 10
362.4621603548
 20
31.4424059016
 11
361.8840352445
 21
31.4101420472
 12
361.4793477997
 22
31.4424059016
 13
361.4793477997
 23
31.4424059016
  0
SOLID
  8
0
 62
7
  6
CONTINUOUS
 10
361.3637227445
 20
31.3778788115
 11
361.4793477997
 21
31.4424059016
 12
361.8840352445
 22
31.4101420472
 13
361.8840352445
 23
31.4101420472
  0
SOLID
  8
0
 62
7
  6
CONTINUOUS
 10
361.8840352445
 20
31.4101420472
 11
361.6527851343
 21
31.3778788115
 12
361.3637227445
 22
31.3778788115
 13
361.3637227445
 23
31.3778788115
  0
SOLID
  8
0
 62
7
  6
CONTINUOUS
 10
361.8840352445
 20
31.4101420472
 11
362.4621603548
 21
31.4424059016
 12
362.1152853548
 22
31.3778788115
 13
362.1152853548
 23
31.3778788115
  0
SOLID
  8
0
 62
7
  6
CONTINUOUS
 10
362.4621603548
 20
31.4424059016
 11
362.5777852445
 21
31.3778788115
 12
362.1152853548
 22
31.3778788115
 13
362.1152853548
 23
31.3778788115
  0
SOLID
  8
0
 62
7
  6
CONTINUOUS
 10
362.2309102445
 20
31.345614957
 11
362.1152853548
 21
31.3778788115
 12
362.5777852445
 22
31.3778788115
 13
362.5777852445
 23
31.3778788115
  0
SOLID
  8
0
 62
7
  6
CONTINUOUS
 10
362.5777852445
 20
31.3778788115
 11
362.6355978548
 21
31.3133517213
 12
362.2309102445
 22
31.345614957
 13
362.2309102445
 23
31.345614957
  0
SOLID
  8
0
 62
7
  6
CONTINUOUS
 10
362.3465351343
 20
31.2810878668
 11
362.2309102445
 21
31.345614957
 12
362.6355978548
 22
31.3133517213
 13
362.6355978548
 23
31.3133517213
  0
SOLID
  8
0
 62
7
  6
CONTINUOUS
 10
362.3465351343
 20
31.2810878668
 11
362.6355978548
 21
31.3133517213
 12
362.4043477445
 22
31.1520332377
 13
362.4043477445
 23
31.1520332377
  0
SOLID
  8
0
 62
7
  6
CONTINUOUS
 10
362.6355978548
 20
31.3133517213
 11
362.6934101343
 21
31.1520332377
 12
362.4043477445
 22
31.1520332377
 13
362.4043477445
 23
31.1520332377
  0
SOLID
  8
0
 62
7
  6
CONTINUOUS
 10
361.6527851343
 20
31.3778788115
 11
361.4793477997
 21
31.3133517213
 12
361.3637227445
 22
31.3778788115
 13
361.3637227445
 23
31.3778788115
  0
SOLID
  8
0
 62
7
  6
CONTINUOUS
 10
361.4793477997
 20
31.3133517213
 11
361.3637227445
 21
31.2488235635
 12
361.3637227445
 22
31.3778788115
 13
361.3637227445
 23
31.3778788115
  0
SOLID
  8
0
 62
7
  6
CONTINUOUS
 10
361.3637227445
 20
31.2488235635
 11
361.0746601894
 21
30.5067593033
 12
361.3637227445
 22
31.3778788115
 13
361.3637227445
 23
31.3778788115
  0
SOLID
  8
0
 62
7
  6
CONTINUOUS
 10
361.3637227445
 20
31.3778788115
 11
361.0746601894
 21
30.5067593033
 12
361.3637227445
 22
32.0231527459
 13
361.3637227445
 23
32.0231527459
  0
SOLID
  8
0
 62
7
  6
CONTINUOUS
 10
361.0746601894
 20
30.5067593033
 11
361.0746601894
 21
32.0231527459
 12
361.3637227445
 22
32.0231527459
 13
361.3637227445
 23
32.0231527459
  0
SOLID
  8
0
 62
7
  6
CONTINUOUS
 10
361.3637227445
 20
31.2488235635
 11
361.3637227445
 21
30.5067593033
 12
361.0746601894
 22
30.5067593033
 13
361.0746601894
 23
30.5067593033
  0
SOLID
  8
0
 62
7
  6
CONTINUOUS
 10
362.4043477445
 20
30.5067593033
 11
362.4043477445
 21
31.1520332377
 12
362.6934101343
 22
31.1520332377
 13
362.6934101343
 23
31.1520332377
  0
SOLID
  8
0
 62
7
  6
CONTINUOUS
 10
362.6934101343
 20
31.1520332377
 11
362.6934101343
 21
30.5067593033
 12
362.4043477445
 22
30.5067593033
 13
362.4043477445
 23
30.5067593033
  0
SOLID
  8
0
 62
7
  6
CONTINUOUS
 10
363.4449727445
 20
31.506933758
 11
363.8496603548
 21
31.5391977507
 12
364.1965353548
 22
31.5391977507
 13
364.1965353548
 23
31.5391977507
  0
SOLID
  8
0
 62
7
  6
CONTINUOUS
 10
364.1965353548
 20
31.5391977507
 11
364.543410024
 21
31.506933758
 12
363.4449727445
 22
31.506933758
 13
363.4449727445
 23
31.506933758
  0
SOLID
  8
0
 62
7
  6
CONTINUOUS
 10
363.3293478548
 20
31.4746706537
 11
363.4449727445
 21
31.506933758
 12
364.543410024
 22
31.506933758
 13
364.543410024
 23
31.506933758
  0
SOLID
  8
0
 62
7
  6
CONTINUOUS
 10
364.543410024
 20
31.506933758
 11
364.716847524
 21
31.4424063504
 12
363.3293478548
 22
31.4746706537
 13
363.3293478548
 23
31.4746706537
  0
SOLID
  8
0
 62
7
  6
CONTINUOUS
 10
363.2137226343
 20
31.4101417797
 11
363.3293478548
 21
31.4746706537
 12
364.716847524
 22
31.4424063504
 13
364.716847524
 23
31.4424063504
  0
SOLID
  8
0
 62
7
  6
CONTINUOUS
 10
363.2137226343
 20
31.4101417797
 11
364.716847524
 21
31.4424063504
 12
363.8496603548
 22
31.4101417797
 13
363.8496603548
 23
31.4101417797
  0
SOLID
  8
0
 62
7
  6
CONTINUOUS
 10
363.8496603548
 20
31.4101417797
 11
364.716847524
 21
31.4424063504
 12
364.1965353548
 22
31.4101417797
 13
364.1965353548
 23
31.4101417797
  0
SOLID
  8
0
 62
7
  6
CONTINUOUS
 10
364.1965353548
 20
31.4101417797
 11
364.716847524
 21
31.4424063504
 12
364.4277854651
 22
31.3778793357
 13
364.4277854651
 23
31.3778793357
  0
SOLID
  8
0
 62
7
  6
CONTINUOUS
 10
364.716847524
 20
31.4424063504
 11
364.8324727445
 21
31.3778793357
 12
364.4277854651
 22
31.3778793357
 13
364.4277854651
 23
31.3778793357
  0
SOLID
  8
0
 62
7
  6
CONTINUOUS
 10
363.1559103548
 20
31.3456153429
 11
363.2137226343
 21
31.4101417797
 12
363.8496603548
 22
31.4101417797
 13
363.8496603548
 23
31.4101417797
  0
SOLID
  8
0
 62
7
  6
CONTINUOUS
 10
364.543410024
 20
31.3456153429
 11
364.4277854651
 21
31.3778793357
 12
364.8324727445
 22
31.3778793357
 13
364.8324727445
 23
31.3778793357
  0
SOLID
  8
0
 62
7
  6
CONTINUOUS
 10
364.543410024
 20
31.3456153429
 11
364.8324727445
 21
31.3778793357
 12
364.6012229651
 22
31.2810881318
 13
364.6012229651
 23
31.2810881318
  0
SOLID
  8
0
 62
7
  6
CONTINUOUS
 10
364.8324727445
 20
31.3778793357
 11
364.890285024
 21
31.2810881318
 12
364.6012229651
 22
31.2810881318
 13
364.6012229651
 23
31.2810881318
  0
SOLID
  8
0
 62
7
  6
CONTINUOUS
 10
364.6012229651
 20
31.1842964734
 11
364.6012229651
 21
31.2810881318
 12
364.890285024
 22
31.2810881318
 13
364.890285024
 23
31.2810881318
  0
SOLID
  8
0
 62
7
  6
CONTINUOUS
 10
364.6012229651
 20
31.1842964734
 11
364.890285024
 21
31.2810881318
 12
364.6012229651
 22
31.0552422931
 13
364.6012229651
 23
31.0552422931
  0
SOLID
  8
0
 62
7
  6
CONTINUOUS
 10
364.6012229651
 20
31.0552422931
 11
364.890285024
 21
31.2810881318
 12
364.6012229651
 22
30.8616599362
 13
364.6012229651
 23
30.8616599362
  0
SOLID
  8
0
 62
7
  6
CONTINUOUS
 10
364.890285024
 20
31.2810881318
 11
364.890285024
 21
30.7648681127
 12
364.6012229651
 22
30.8616599362
 13
364.6012229651
 23
30.8616599362
  0
SOLID
  8
0
 62
7
  6
CONTINUOUS
 10
366.798097524
 20
31.5069339419
 11
367.0293479651
 21
31.5391976292
 12
367.2605977445
 22
31.5391976292
 13
367.2605977445
 23
31.5391976292
  0
SOLID
  8
0
 62
7
  6
CONTINUOUS
 10
367.2605977445
 20
31.5391976292
 11
367.4340352445
 21
31.5069339419
 12
366.798097524
 22
31.5069339419
 13
366.798097524
 23
31.5069339419
  0
SOLID
  8
0
 62
7
  6
CONTINUOUS
 10
366.624660024
 20
31.4424065674
 11
366.798097524
 21
31.5069339419
 12
367.4340352445
 22
31.5069339419
 13
367.4340352445
 23
31.5069339419
  0
SOLID
  8
0
 62
7
  6
CONTINUOUS
 10
367.4340352445
 20
31.5069339419
 11
367.6074727445
 21
31.4424065674
 12
366.624660024
 22
31.4424065674
 13
366.624660024
 23
31.4424065674
  0
SOLID
  8
0
 62
7
  6
CONTINUOUS
 10
367.6074727445
 20
31.4424065674
 11
367.0293479651
 21
31.4101420472
 12
366.624660024
 22
31.4424065674
 13
366.624660024
 23
31.4424065674
  0
SOLID
  8
0
 62
7
  6
CONTINUOUS
 10
366.5090354651
 20
31.377879193
 11
366.624660024
 21
31.4424065674
 12
367.0293479651
 22
31.4101420472
 13
367.0293479651
 23
31.4101420472
  0
SOLID
  8
0
 62
7
  6
CONTINUOUS
 10
367.0293479651
 20
31.4101420472
 11
366.798097524
 21
31.377879193
 12
366.5090354651
 22
31.377879193
 13
366.5090354651
 23
31.377879193
  0
SOLID
  8
0
 62
7
  6
CONTINUOUS
 10
367.0293479651
 20
31.4101420472
 11
367.6074727445
 21
31.4424065674
 12
367.2605977445
 22
31.377879193
 13
367.2605977445
 23
31.377879193
  0
SOLID
  8
0
 62
7
  6
CONTINUOUS
 10
367.6074727445
 20
31.4424065674
 11
367.7230979651
 21
31.377879193
 12
367.2605977445
 22
31.377879193
 13
367.2605977445
 23
31.377879193
  0
SOLID
  8
0
 62
7
  6
CONTINUOUS
 10
367.3762229651
 20
31.345614957
 11
367.2605977445
 21
31.377879193
 12
367.7230979651
 22
31.377879193
 13
367.7230979651
 23
31.377879193
  0
SOLID
  8
0
 62
7
  6
CONTINUOUS
 10
367.3762229651
 20
31.345614957
 11
367.7230979651
 21
31.377879193
 12
367.491847524
 22
31.2810881312
 13
367.491847524
 23
31.2810881312
  0
SOLID
  8
0
 62
7
  6
CONTINUOUS
 10
367.7230979651
 20
31.377879193
 11
367.7809102445
 21
31.2810881312
 12
367.491847524
 22
31.2810881312
 13
367.491847524
 23
31.2810881312
  0
SOLID
  8
0
 62
7
  6
CONTINUOUS
 10
367.5496604651
 20
31.119769695
 11
367.491847524
 21
31.2810881312
 12
367.7809102445
 22
31.2810881312
 13
367.7809102445
 23
31.2810881312
  0
SOLID
  8
0
 62
7
  6
CONTINUOUS
 10
367.7809102445
 20
31.2810881312
 11
367.838722524
 21
31.119769695
 12
367.5496604651
 22
31.119769695
 13
367.5496604651
 23
31.119769695
  0
SOLID
  8
0
 62
7
  6
CONTINUOUS
 10
366.798097524
 20
31.377879193
 11
366.624660024
 21
31.3133521701
 12
366.5090354651
 22
31.377879193
 13
366.5090354651
 23
31.377879193
  0
SOLID
  8
0
 62
7
  6
CONTINUOUS
 10
366.624660024
 20
31.3133521701
 11
366.5090354651
 21
31.2488235635
 12
366.5090354651
 22
31.377879193
 13
366.5090354651
 23
31.377879193
  0
SOLID
  8
0
 62
7
  6
CONTINUOUS
 10
366.5090354651
 20
31.2488235635
 11
366.2199727445
 21
30.5067596374
 12
366.5090354651
 22
31.377879193
 13
366.5090354651
 23
31.377879193
  0
SOLID
  8
0
 62
7
  6
CONTINUOUS
 10
366.5090354651
 20
31.377879193
 11
366.2199727445
 21
30.5067596374
 12
366.5090354651
 22
31.5391976292
 13
366.5090354651
 23
31.5391976292
  0
SOLID
  8
0
 62
7
  6
CONTINUOUS
 10
366.2199727445
 20
30.5067596374
 11
366.2199727445
 21
31.5391976292
 12
366.5090354651
 22
31.5391976292
 13
366.5090354651
 23
31.5391976292
  0
SOLID
  8
0
 62
7
  6
CONTINUOUS
 10
366.5090354651
 20
31.2488235635
 11
366.5090354651
 21
30.5067596374
 12
366.2199727445
 22
30.5067596374
 13
366.2199727445
 23
30.5067596374
  0
SOLID
  8
0
 62
7
  6
CONTINUOUS
 10
367.5496604651
 20
30.5067596374
 11
367.5496604651
 21
31.119769695
 12
367.838722524
 22
31.119769695
 13
367.838722524
 23
31.119769695
  0
SOLID
  8
0
 62
7
  6
CONTINUOUS
 10
367.838722524
 20
31.119769695
 11
367.838722524
 21
30.5067596374
 12
367.5496604651
 22
30.5067596374
 13
367.5496604651
 23
30.5067596374
  0
SOLID
  8
0
 62
7
  6
CONTINUOUS
 10
368.6480977445
 20
31.5069334157
 11
368.9949727445
 21
31.539197762
 12
369.3418477445
 22
31.539197762
 13
369.3418477445
 23
31.539197762
  0
SOLID
  8
0
 62
7
  6
CONTINUOUS
 10
369.3418477445
 20
31.539197762
 11
369.6887227445
 21
31.5069334157
 12
368.6480977445
 22
31.5069334157
 13
368.6480977445
 23
31.5069334157
  0
SOLID
  8
0
 62
7
  6
CONTINUOUS
 10
368.4168479651
 20
31.4424063504
 11
368.6480977445
 21
31.5069334157
 12
369.6887227445
 22
31.5069334157
 13
369.6887227445
 23
31.5069334157
  0
SOLID
  8
0
 62
7
  6
CONTINUOUS
 10
368.4168479651
 20
31.4424063504
 11
369.6887227445
 21
31.5069334406
 12
369.8621602445
 22
31.4746706537
 13
369.8621602445
 23
31.4746706537
  0
SOLID
  8
0
 62
7
  6
CONTINUOUS
 10
368.4168479651
 20
31.4424063504
 11
369.8621602445
 21
31.4746706537
 12
368.9949727445
 22
31.4101421267
 13
368.9949727445
 23
31.4101421267
  0
SOLID
  8
0
 62
7
  6
CONTINUOUS
 10
368.9949727445
 20
31.4101421267
 11
369.8621602445
 21
31.4746706537
 12
369.3418477445
 22
31.4101421267
 13
369.3418477445
 23
31.4101421267
  0
SOLID
  8
0
 62
7
  6
CONTINUOUS
 10
369.8621602445
 20
31.4746706537
 11
370.0355977445
 21
31.4101421267
 12
369.3418477445
 22
31.4101421267
 13
369.3418477445
 23
31.4101421267
  0
SOLID
  8
0
 62
7
  6
CONTINUOUS
 10
369.6887227445
 20
31.3778792603
 11
369.3418477445
 21
31.4101421267
 12
370.0355977445
 22
31.4101421267
 13
370.0355977445
 23
31.4101421267
  0
SOLID
  8
0
 62
7
  6
CONTINUOUS
 10
368.3012227445
 20
31.3456148845
 11
368.4168479651
 21
31.4424063504
 12
368.9949727445
 22
31.4101421267
 13
368.9949727445
 23
31.4101421267
  0
SOLID
  8
0
 62
7
  6
CONTINUOUS
 10
369.6887227445
 20
31.3778792603
 11
370.0355977445
 21
31.4101421267
 12
369.8043479651
 22
31.3456148845
 13
369.8043479651
 23
31.3456148845
  0
SOLID
  8
0
 62
7
  6
CONTINUOUS
 10
369.8043479651
 20
31.3456148845
 11
370.0355977445
 21
31.4101421267
 12
369.8621602445
 22
31.281087868
 13
369.8621602445
 23
31.281087868
  0
SOLID
  8
0
 62
7
  6
CONTINUOUS
 10
370.0355977445
 20
31.4101421267
 11
370.1512223035
 21
31.281087868
 12
369.8621602445
 22
31.281087868
 13
369.8621602445
 23
31.281087868
  0
SOLID
  8
0
 62
7
  6
CONTINUOUS
 10
359.4559102445
 20
31.3778792603
 11
358.9355977445
 21
31.3456148963
 12
359.6871602721
 22
31.4101421155
 13
359.6871602721
 23
31.4101421155
  0
SOLID
  8
0
 62
7
  6
CONTINUOUS
 10
358.9355977445
 20
31.3456148963
 11
359.0512227376
 21
31.4101421155
 12
359.6871602721
 22
31.4101421155
 13
359.6871602721
 23
31.4101421155
  0
SOLID
  8
0
 62
7
  6
CONTINUOUS
 10
359.4559102445
 20
31.3778792603
 11
359.3402852307
 21
31.3456148963
 12
358.9355977445
 22
31.3456148963
 13
358.9355977445
 23
31.3456148963
  0
SOLID
  8
0
 62
7
  6
CONTINUOUS
 10
358.8199727462
 20
31.2165607767
 11
358.9355977445
 21
31.3456148963
 12
359.3402852307
 22
31.3456148963
 13
359.3402852307
 23
31.3456148963
  0
SOLID
  8
0
 62
7
  6
CONTINUOUS
 10
363.1559103548
 20
31.3456149608
 11
363.8496603548
 21
31.4101420472
 12
363.6184102445
 22
31.3778792603
 13
363.6184102445
 23
31.3778792603
  0
SOLID
  8
0
 62
7
  6
CONTINUOUS
 10
363.6184102445
 20
31.3778792603
 11
363.5027853548
 21
31.3456149608
 12
363.1559103548
 22
31.3456149608
 13
363.1559103548
 23
31.3456149608
  0
SOLID
  8
0
 62
7
  6
CONTINUOUS
 10
363.1559103548
 20
31.2810878707
 11
363.1559103548
 21
31.3456149608
 12
363.5027853548
 22
31.3456149608
 13
363.5027853548
 23
31.3456149608
  0
SOLID
  8
0
 62
7
  6
CONTINUOUS
 10
363.5027853548
 20
31.3456149608
 11
363.4449727445
 21
31.2810878707
 12
363.1559103548
 22
31.2810878707
 13
363.1559103548
 23
31.2810878707
  0
SOLID
  8
0
 62
7
  6
CONTINUOUS
 10
368.3012227445
 20
31.3456149608
 11
368.9949727445
 21
31.4101420472
 12
368.7637229651
 22
31.3778792603
 13
368.7637229651
 23
31.3778792603
  0
SOLID
  8
0
 62
7
  6
CONTINUOUS
 10
368.7637229651
 20
31.3778792603
 11
368.6480977445
 21
31.3456149608
 12
368.3012227445
 22
31.3456149608
 13
368.3012227445
 23
31.3456149608
  0
SOLID
  8
0
 62
7
  6
CONTINUOUS
 10
368.3012227445
 20
31.2810878707
 11
368.3012227445
 21
31.3456149608
 12
368.6480977445
 22
31.3456149608
 13
368.6480977445
 23
31.3456149608
  0
SOLID
  8
0
 62
7
  6
CONTINUOUS
 10
368.6480977445
 20
31.3456149608
 11
368.5902854651
 21
31.2810878707
 12
368.3012227445
 22
31.2810878707
 13
368.3012227445
 23
31.2810878707
  0
SOLID
  8
0
 62
7
  6
CONTINUOUS
 10
368.4168479651
 20
31.1520336865
 11
368.3012227445
 21
31.2810878707
 12
368.5902854651
 22
31.2810878707
 13
368.5902854651
 23
31.2810878707
  0
SOLID
  8
0
 62
7
  6
CONTINUOUS
 10
358.8199727462
 20
31.2165607767
 11
359.3402852307
 21
31.345614957
 12
359.1668477307
 22
31.2488235635
 13
359.1668477307
 23
31.2488235635
  0
SOLID
  8
0
 62
7
  6
CONTINUOUS
 10
359.1668477307
 20
31.2488235635
 11
359.1090352445
 21
31.1842964734
 12
358.8199727462
 22
31.2165607767
 13
358.8199727462
 23
31.2165607767
  0
SOLID
  8
0
 62
7
  6
CONTINUOUS
 10
358.7621602445
 20
31.0229779898
 11
358.8199727462
 21
31.2165607767
 12
359.1090352445
 22
31.1842964734
 13
359.1090352445
 23
31.1842964734
  0
SOLID
  8
0
 62
7
  6
CONTINUOUS
 10
363.6184102445
 20
31.1520336865
 11
363.9652852445
 21
31.1842964611
 12
364.6012229651
 22
31.1842964611
 13
364.6012229651
 23
31.1842964611
  0
SOLID
  8
0
 62
7
  6
CONTINUOUS
 10
363.6184102445
 20
31.1520336865
 11
364.6012229651
 21
31.1842964611
 12
363.3871601343
 22
31.0875057863
 13
363.3871601343
 23
31.0875057863
  0
SOLID
  8
0
 62
7
  6
CONTINUOUS
 10
363.3871601343
 20
31.0875057863
 11
364.6012229651
 21
31.1842964611
 12
363.9652852445
 22
31.0552422808
 13
363.9652852445
 23
31.0552422808
  0
SOLID
  8
0
 62
7
  6
CONTINUOUS
 10
364.6012229651
 20
31.1842964611
 11
364.6012229651
 21
31.0552422808
 12
363.9652852445
 22
31.0552422808
 13
363.9652852445
 23
31.0552422808
  0
SOLID
  8
0
 62
7
  6
CONTINUOUS
 10
368.4168479651
 20
31.1520338754
 11
368.5902854651
 21
31.2810878668
 12
368.6480977445
 22
31.2165607767
 13
368.6480977445
 23
31.2165607767
  0
SOLID
  8
0
 62
7
  6
CONTINUOUS
 10
368.6480977445
 20
31.2165607767
 11
368.8215352445
 21
31.1520338754
 12
368.4168479651
 22
31.1520338754
 13
368.4168479651
 23
31.1520338754
  0
SOLID
  8
0
 62
7
  6
CONTINUOUS
 10
368.6480977445
 20
31.0552422931
 11
368.4168479651
 21
31.1520338754
 12
368.8215352445
 22
31.1520338754
 13
368.8215352445
 23
31.1520338754
  0
SOLID
  8
0
 62
7
  6
CONTINUOUS
 10
368.8215352445
 20
31.1520338754
 11
369.8043479651
 21
30.9907152029
 12
368.6480977445
 22
31.0552422931
 13
368.6480977445
 23
31.0552422931
  0
SOLID
  8
0
 62
7
  6
CONTINUOUS
 10
369.6309104651
 20
30.8939239876
 11
368.6480977445
 21
31.0552422931
 12
369.8043479651
 22
30.9907152029
 13
369.8043479651
 23
30.9907152029
  0
SOLID
  8
0
 62
7
  6
CONTINUOUS
 10
369.8043479651
 20
30.9907152029
 11
370.0355977445
 21
30.8939239876
 12
369.6309104651
 22
30.8939239876
 13
369.6309104651
 23
30.8939239876
  0
SOLID
  8
0
 62
7
  6
CONTINUOUS
 10
369.8043479651
 20
30.8293967193
 11
369.6309104651
 21
30.8939239876
 12
370.0355977445
 22
30.8939239876
 13
370.0355977445
 23
30.8939239876
  0
SOLID
  8
0
 62
7
  6
CONTINUOUS
 10
369.8043479651
 20
30.8293967193
 11
370.0355977445
 21
30.8939239876
 12
369.8621602445
 22
30.7648682694
 13
369.8621602445
 23
30.7648682694
  0
SOLID
  8
0
 62
7
  6
CONTINUOUS
 10
370.0355977445
 20
30.8939239876
 11
370.1512223035
 21
30.7648682694
 12
369.8621602445
 22
30.7648682694
 13
369.8621602445
 23
30.7648682694
  0
SOLID
  8
0
 62
7
  6
CONTINUOUS
 10
369.8043479651
 20
30.7003411846
 11
369.8621602445
 21
30.7648682694
 12
370.1512223035
 22
30.7648682694
 13
370.1512223035
 23
30.7648682694
  0
SOLID
  8
0
 62
7
  6
CONTINUOUS
 10
370.1512223035
 20
30.7648682694
 11
370.1512223035
 21
30.7003411846
 12
369.8043479651
 22
30.7003411846
 13
369.8043479651
 23
30.7003411846
  0
SOLID
  8
0
 62
7
  6
CONTINUOUS
 10
369.6887227445
 20
30.6680782357
 11
369.8043479651
 21
30.7003411846
 12
370.1512223035
 22
30.7003411846
 13
370.1512223035
 23
30.7003411846
  0
SOLID
  8
0
 62
7
  6
CONTINUOUS
 10
369.6887227445
 20
30.6680782357
 11
370.1512223035
 21
30.7003411846
 12
369.4574729651
 22
30.6358140998
 13
369.4574729651
 23
30.6358140998
  0
SOLID
  8
0
 62
7
  6
CONTINUOUS
 10
370.1512223035
 20
30.7003411846
 11
370.0355977445
 21
30.6035511455
 12
369.4574729651
 22
30.6358140998
 13
369.4574729651
 23
30.6358140998
  0
SOLID
  8
0
 62
7
  6
CONTINUOUS
 10
370.0355977445
 20
30.6035511455
 11
368.5902854651
 21
30.5712868422
 12
369.4574729651
 22
30.6358140998
 13
369.4574729651
 23
30.6358140998
  0
SOLID
  8
0
 62
7
  6
CONTINUOUS
 10
369.4574729651
 20
30.6358140998
 11
368.5902854651
 21
30.5712868422
 12
369.1105979651
 22
30.6358140998
 13
369.1105979651
 23
30.6358140998
  0
SOLID
  8
0
 62
7
  6
CONTINUOUS
 10
368.5902854651
 20
30.5712868422
 11
368.4168479651
 21
30.6358140998
 12
369.1105979651
 22
30.6358140998
 13
369.1105979651
 23
30.6358140998
  0
SOLID
  8
0
 62
7
  6
CONTINUOUS
 10
368.5902854651
 20
30.5712868422
 11
370.0355977445
 21
30.6035511455
 12
368.7637229651
 22
30.5390223111
 13
368.7637229651
 23
30.5390223111
  0
SOLID
  8
0
 62
7
  6
CONTINUOUS
 10
370.0355977445
 20
30.6035511455
 11
369.8043479651
 21
30.5390223111
 12
368.7637229651
 22
30.5390223111
 13
368.7637229651
 23
30.5390223111
  0
SOLID
  8
0
 62
7
  6
CONTINUOUS
 10
369.1105979651
 20
30.5067599302
 11
368.7637229651
 21
30.5390223111
 12
369.8043479651
 22
30.5390223111
 13
369.8043479651
 23
30.5390223111
  0
SOLID
  8
0
 62
7
  6
CONTINUOUS
 10
369.8043479651
 20
30.5390223111
 11
369.4574729651
 21
30.5067599302
 12
369.1105979651
 22
30.5067599302
 13
369.1105979651
 23
30.5067599302
  0
SOLID
  8
0
 62
7
  6
CONTINUOUS
 10
358.7621602445
 20
31.0229779898
 11
359.1090352445
 21
31.1842964734
 12
359.0512227376
 22
31.0552422931
 13
359.0512227376
 23
31.0552422931
  0
SOLID
  8
0
 62
7
  6
CONTINUOUS
 10
359.0512227376
 20
31.0552422931
 11
359.0512227376
 21
30.9584509954
 12
358.7621602445
 22
31.0229779898
 13
358.7621602445
 23
31.0229779898
  0
SOLID
  8
0
 62
7
  6
CONTINUOUS
 10
358.8199727462
 20
30.8293967193
 11
358.7621602445
 21
31.0229779898
 12
359.0512227376
 22
30.9584509954
 13
359.0512227376
 23
30.9584509954
  0
SOLID
  8
0
 62
7
  6
CONTINUOUS
 10
359.0512227376
 20
30.9584509954
 11
359.1668477307
 21
30.797132416
 12
358.8199727462
 22
30.8293967193
 13
358.8199727462
 23
30.8293967193
  0
SOLID
  8
0
 62
7
  6
CONTINUOUS
 10
358.9355977445
 20
30.7003413087
 11
358.8199727462
 21
30.8293967193
 12
359.1668477307
 22
30.797132416
 13
359.1668477307
 23
30.797132416
  0
SOLID
  8
0
 62
7
  6
CONTINUOUS
 10
359.1668477307
 20
30.797132416
 11
359.3402852307
 21
30.7003413087
 12
358.9355977445
 22
30.7003413087
 13
358.9355977445
 23
30.7003413087
  0
SOLID
  8
0
 62
7
  6
CONTINUOUS
 10
359.0512227376
 20
30.6358140759
 11
358.9355977445
 21
30.7003413087
 12
359.3402852307
 22
30.7003413087
 13
359.3402852307
 23
30.7003413087
  0
SOLID
  8
0
 62
7
  6
CONTINUOUS
 10
359.3402852307
 20
30.7003413087
 11
359.6871602721
 21
30.6358140759
 12
359.0512227376
 22
30.6358140759
 13
359.0512227376
 23
30.6358140759
  0
SOLID
  8
0
 62
7
  6
CONTINUOUS
 10
359.2246602583
 20
30.5712868422
 11
359.0512227376
 21
30.6358140759
 12
359.6871602721
 22
30.6358140759
 13
359.6871602721
 23
30.6358140759
  0
SOLID
  8
0
 62
7
  6
CONTINUOUS
 10
363.2715352445
 20
31.0229779808
 11
363.3871601343
 21
31.0875057863
 12
363.9652852445
 22
31.0552422931
 13
363.9652852445
 23
31.0552422931
  0
SOLID
  8
0
 62
7
  6
CONTINUOUS
 10
363.9652852445
 20
31.0552422931
 11
363.7340351343
 21
31.0229779808
 12
363.2715352445
 22
31.0229779808
 13
363.2715352445
 23
31.0229779808
  0
SOLID
  8
0
 62
7
  6
CONTINUOUS
 10
363.1559103548
 20
30.8939238094
 11
363.2715352445
 21
31.0229779808
 12
363.7340351343
 22
31.0229779808
 13
363.7340351343
 23
31.0229779808
  0
SOLID
  8
0
 62
7
  6
CONTINUOUS
 10
363.5027853548
 20
30.926187309
 11
363.1559103548
 21
30.8939238094
 12
363.6184102445
 22
30.9907152029
 13
363.6184102445
 23
30.9907152029
  0
SOLID
  8
0
 62
7
  6
CONTINUOUS
 10
363.1559103548
 20
30.8939238094
 11
363.7340351343
 21
31.0229779898
 12
363.6184102445
 22
30.9907152029
 13
363.6184102445
 23
30.9907152029
  0
SOLID
  8
0
 62
7
  6
CONTINUOUS
 10
363.5027853548
 20
30.926187309
 11
363.4449727445
 21
30.8293967193
 12
363.1559103548
 22
30.8939238094
 13
363.1559103548
 23
30.8939238094
  0
SOLID
  8
0
 62
7
  6
CONTINUOUS
 10
363.1559103548
 20
30.797132416
 11
363.1559103548
 21
30.8939238094
 12
363.4449727445
 22
30.8293967193
 13
363.4449727445
 23
30.8293967193
  0
SOLID
  8
0
 62
7
  6
CONTINUOUS
 10
363.4449727445
 20
30.8293967193
 11
363.4449727445
 21
30.7648681127
 12
363.1559103548
 22
30.797132416
 13
363.1559103548
 23
30.797132416
  0
SOLID
  8
0
 62
7
  6
CONTINUOUS
 10
363.2137226343
 20
30.6680782357
 11
363.1559103548
 21
30.797132416
 12
363.4449727445
 22
30.7648681127
 13
363.4449727445
 23
30.7648681127
  0
SOLID
  8
0
 62
7
  6
CONTINUOUS
 10
364.6012229651
 20
30.8616599362
 11
364.890285024
 21
30.7648681127
 12
364.543410024
 22
30.797132416
 13
364.543410024
 23
30.797132416
  0
SOLID
  8
0
 62
7
  6
CONTINUOUS
 10
364.369972524
 20
30.7003410226
 11
364.543410024
 21
30.797132416
 12
364.890285024
 22
30.7648681127
 13
364.890285024
 23
30.7648681127
  0
SOLID
  8
0
 62
7
  6
CONTINUOUS
 10
364.369972524
 20
30.7003410226
 11
364.890285024
 21
30.7648681127
 12
364.6012229651
 22
30.6680782357
 13
364.6012229651
 23
30.6680782357
  0
SOLID
  8
0
 62
7
  6
CONTINUOUS
 10
364.890285024
 20
30.7648681127
 11
364.9480979651
 21
30.6035511455
 12
364.6012229651
 22
30.6680782357
 13
364.6012229651
 23
30.6680782357
  0
SOLID
  8
0
 62
7
  6
CONTINUOUS
 10
364.6590352445
 20
30.5712868422
 11
364.6012229651
 21
30.6680782357
 12
364.9480979651
 22
30.6035511455
 13
364.9480979651
 23
30.6035511455
  0
SOLID
  8
0
 62
7
  6
CONTINUOUS
 10
364.6590352445
 20
30.5712868422
 11
364.9480979651
 21
30.6035511455
 12
364.716847524
 22
30.5067598731
 13
364.716847524
 23
30.5067598731
  0
SOLID
  8
0
 62
7
  6
CONTINUOUS
 10
364.9480979651
 20
30.6035511455
 11
365.0059102445
 21
30.5067598731
 12
364.716847524
 22
30.5067598731
 13
364.716847524
 23
30.5067598731
  0
SOLID
  8
0
 62
7
  6
CONTINUOUS
 10
360.2652852997
 20
30.7326051679
 11
360.3230977445
 21
30.8293966612
 12
360.6121602997
 22
30.8293966612
 13
360.6121602997
 23
30.8293966612
  0
SOLID
  8
0
 62
7
  6
CONTINUOUS
 10
360.6121602997
 20
30.8293966612
 11
360.5543476894
 21
30.7003410226
 12
360.2652852997
 22
30.7326051679
 13
360.2652852997
 23
30.7326051679
  0
SOLID
  8
0
 62
7
  6
CONTINUOUS
 10
360.091847717
 20
30.6680782357
 11
360.2652852997
 21
30.7326051679
 12
360.5543476894
 22
30.7003410226
 13
360.5543476894
 23
30.7003410226
  0
SOLID
  8
0
 62
7
  6
CONTINUOUS
 10
360.091847717
 20
30.6680782357
 11
360.5543476894
 21
30.7003410226
 12
359.6871602721
 22
30.6358139324
 13
359.6871602721
 23
30.6358139324
  0
SOLID
  8
0
 62
7
  6
CONTINUOUS
 10
360.5543476894
 20
30.7003410226
 11
360.3809101894
 21
30.6035511455
 12
359.6871602721
 22
30.6358139324
 13
359.6871602721
 23
30.6358139324
  0
SOLID
  8
0
 62
7
  6
CONTINUOUS
 10
359.2246602583
 20
30.5712868422
 11
359.6871602721
 21
30.6358139324
 12
360.3809101894
 22
30.6035511455
 13
360.3809101894
 23
30.6035511455
  0
SOLID
  8
0
 62
7
  6
CONTINUOUS
 10
359.2246602583
 20
30.5712868422
 11
360.3809101894
 21
30.6035511455
 12
359.3980977583
 22
30.5390224228
 13
359.3980977583
 23
30.5390224228
  0
SOLID
  8
0
 62
7
  6
CONTINUOUS
 10
360.3809101894
 20
30.6035511455
 11
360.1496602445
 21
30.5390224228
 12
359.3980977583
 22
30.5390224228
 13
359.3980977583
 23
30.5390224228
  0
SOLID
  8
0
 62
7
  6
CONTINUOUS
 10
359.744972717
 20
30.5067597521
 11
359.3980977583
 21
30.5390224228
 12
360.1496602445
 22
30.5390224228
 13
360.1496602445
 23
30.5390224228
  0
SOLID
  8
0
 62
7
  6
CONTINUOUS
 10
363.2137226343
 20
30.6680782357
 11
363.4449727445
 21
30.7648681127
 12
363.5027853548
 22
30.7003410226
 13
363.5027853548
 23
30.7003410226
  0
SOLID
  8
0
 62
7
  6
CONTINUOUS
 10
363.5027853548
 20
30.7003410226
 11
363.7340351343
 21
30.6358139324
 12
363.2137226343
 22
30.6680782357
 13
363.2137226343
 23
30.6680782357
  0
SOLID
  8
0
 62
7
  6
CONTINUOUS
 10
363.3871601343
 20
30.5712868422
 11
363.2137226343
 21
30.6680782357
 12
363.7340351343
 22
30.6358139324
 13
363.7340351343
 23
30.6358139324
  0
SOLID
  8
0
 62
7
  6
CONTINUOUS
 10
364.0809101343
 20
30.6358139363
 11
364.369972524
 21
30.7003410226
 12
364.6012229651
 22
30.6680782357
 13
364.6012229651
 23
30.6680782357
  0
SOLID
  8
0
 62
7
  6
CONTINUOUS
 10
364.6012229651
 20
30.6680782357
 11
364.543410024
 21
30.6035511455
 12
364.0809101343
 22
30.6358139363
 13
364.0809101343
 23
30.6358139363
  0
SOLID
  8
0
 62
7
  6
CONTINUOUS
 10
364.543410024
 20
30.6035511455
 11
363.3871601343
 21
30.5712868422
 12
364.0809101343
 22
30.6358139363
 13
364.0809101343
 23
30.6358139363
  0
SOLID
  8
0
 62
7
  6
CONTINUOUS
 10
363.3871601343
 20
30.5712868422
 11
363.7340351343
 21
30.6358139363
 12
364.0809101343
 22
30.6358139363
 13
364.0809101343
 23
30.6358139363
  0
SOLID
  8
0
 62
7
  6
CONTINUOUS
 10
363.3871601343
 20
30.5712868422
 11
364.543410024
 21
30.6035511455
 12
363.5027853548
 22
30.5390225267
 13
363.5027853548
 23
30.5390225267
  0
SOLID
  8
0
 62
7
  6
CONTINUOUS
 10
364.543410024
 20
30.6035511455
 11
364.369972524
 21
30.5390225267
 12
363.5027853548
 22
30.5390225267
 13
363.5027853548
 23
30.5390225267
  0
SOLID
  8
0
 62
7
  6
CONTINUOUS
 10
363.7340351343
 20
30.5067596914
 11
363.5027853548
 21
30.5390225267
 12
364.369972524
 22
30.5390225267
 13
364.369972524
 23
30.5390225267
  0
SOLID
  8
0
 62
7
  6
CONTINUOUS
 10
364.369972524
 20
30.5390225267
 11
364.0809101343
 21
30.5067596914
 12
363.7340351343
 22
30.5067596914
 13
363.7340351343
 23
30.5067596914
  0
SOLID
  8
0
 62
7
  6
CONTINUOUS
 10
368.7637229651
 20
30.6680782357
 11
368.4168479651
 21
30.6358138717
 12
368.6480977445
 22
30.7003410226
 13
368.6480977445
 23
30.7003410226
  0
SOLID
  8
0
 62
7
  6
CONTINUOUS
 10
368.6480977445
 20
30.7003410226
 11
368.4168479651
 21
30.6358138717
 12
368.5902854651
 22
30.7648680521
 13
368.5902854651
 23
30.7648680521
  0
SOLID
  8
0
 62
7
  6
CONTINUOUS
 10
368.4168479651
 20
30.6358138717
 11
368.3012227445
 21
30.7648680521
 12
368.5902854651
 22
30.7648680521
 13
368.5902854651
 23
30.7648680521
  0
SOLID
  8
0
 62
7
  6
CONTINUOUS
 10
368.7637229651
 20
30.6680782357
 11
369.1105979651
 21
30.6358138717
 12
368.4168479651
 22
30.6358138717
 13
368.4168479651
 23
30.6358138717
  0
SOLID
  8
0
 62
7
  6
CONTINUOUS
 10
365.4684104651
 20
30.5067597521
 11
365.4684104651
 21
31.5391977439
 12
365.757472524
 22
30.5067597521
 13
365.757472524
 23
31.5391977439
  0
ENDBLK
  8
0
  6
BYBLOCK
 62
0
  0
BLOCK
  8
0
 62
2
  6
CONTINUOUS
  2
SYMBOL_0_BL0
 70
64
 10
240.8592468615
 20
19.762288695
  0
TEXT
  8
0
 62
7
  6
CONTINUOUS
 10
227.1239507038
 20
19.1357028027
  7
TEXTSTYLE_3
 40
2.7338706658
  1
Ammeraal Beltech
 41
1.0
 51
15.0
 72
0
  0
TEXT
  8
0
 62
7
  6
CONTINUOUS
 10
237.9247515296
 20
16.8621661299
  7
TEXTSTYLE_4
 40
1.0935482663
  1
Innovation & Service in Belting
 41
1.0
 72
0
  0
LINE
  8
0
 62
7
  6
CONTINUOUS
 10
221.0994100525
 20
19.9022961113
 11
221.8775620458
 21
23.5632134089
  0
LINE
  8
0
 62
7
  6
CONTINUOUS
 10
231.9727303357
 20
27.2266073205
 11
222.3653797889
 21
24.1049898993
  0
LINE
  8
0
 62
7
  6
CONTINUOUS
 10
221.3246933848
 20
19.2089453082
 11
228.8317686459
 21
12.4495443822
  0
LINE
  8
0
 62
7
  6
CONTINUOUS
 10
221.5872277955
 20
20.4440726016
 11
232.3954971607
 21
23.9558922005
  0
LINE
  8
0
 62
7
  6
CONTINUOUS
 10
232.3912920235
 20
13.6061036368
 11
223.9458323548
 21
21.2104296785
  0
LINE
  8
0
 62
7
  6
CONTINUOUS
 10
232.9111147433
 20
26.3816822048
 11
231.9345552061
 21
21.7873308023
  0
LINE
  8
0
 62
7
  6
CONTINUOUS
 10
231.2347532584
 20
18.4950214885
 11
230.5483050469
 21
15.2655365641
  0
LINE
  8
0
 62
7
  6
CONTINUOUS
 10
233.5922108419
 20
13.9963058145
 11
234.5484423775
 21
18.4950214885
  0
LINE
  8
0
 62
7
  6
CONTINUOUS
 10
235.2482443252
 20
21.7873308023
 11
235.6924861276
 21
23.8773241617
  0
LINE
  8
0
 62
7
  6
CONTINUOUS
 10
229.5448697213
 20
12.2979700695
 11
233.1043930989
 21
13.4545293241
  0
LINE
  8
0
 62
7
  6
CONTINUOUS
 10
232.685831411
 20
27.0750330078
 11
235.4672027953
 21
24.5706749648
  0
ARC
  8
0
 62
7
  6
CONTINUOUS
 10
222.5906631212
 20
23.4116390962
 40
0.7290321776
 50
108.0
 51
168.0
  0
ARC
  8
0
 62
7
  6
CONTINUOUS
 10
232.198013668
 20
26.5332565175
 40
0.7290321776
 50
348.0
 51
108.0
  0
ARC
  8
0
 62
7
  6
CONTINUOUS
 10
234.9793850522
 20
24.0288984744
 40
0.7290321776
 50
348.0
 51
48.0
  0
ARC
  8
0
 62
7
  6
CONTINUOUS
 10
229.319586389
 20
12.9913208726
 40
0.7290321776
 50
228.0
 51
288.0
  0
ARC
  8
0
 62
7
  6
CONTINUOUS
 10
221.8125111278
 20
19.7507217986
 40
0.7290321776
 50
108.0
 51
228.0
  0
ARC
  8
0
 62
7
  6
CONTINUOUS
 10
232.8791097665
 20
14.1478801272
 40
0.7290321776
 50
228.0
 51
348.0
  0
ENDBLK
  8
0
  6
BYBLOCK
 62
0
  0
ENDSEC
  0
SECTION
  2
ENTITIES
  0
TEXT
  8
0
 62
5
  6
CONTINUOUS
 10
304.937007874
 20
25.636
  7
TEXTSTYLE_2
 40
2.8
  1
Scale :
 41
0.6
 51
0.000019
 72
0
  0
TEXT
  8
0
 62
5
  6
CONTINUOUS
 10
324.937007874
 20
25.636
  7
TEXTSTYLE_2
 40
2.8
  1
Belt type:
 41
0.6
 51
0.000019
 72
0
  0
INSERT
  8
0
 62
2
  6
CONTINUOUS
  2
SYMBOL_0_BL0
 10
240.8592468615
 20
19.762288695
  0
INSERT
  8
0
 62
2
  6
CONTINUOUS
  2
SYMBOL_5_BL1
 10
382.7840918555
 20
35.5067593403
  0
TEXT
  8
0
 62
7
  6
CONTINUOUS
 10
334.9734950642
 20
213.2027782054
  7
STANDARD
 40
3.5
  1
A_2_CENTER
 41
0.8
 72
0
  0
TEXT
  8
0
 62
7
  6
CONTINUOUS
 10
334.9734950642
 20
124.1123781579
  7
STANDARD
 40
3.5
  1
A_2_CENTER
 41
0.8
 72
0
  0
TEXT
  8
0
 62
7
  6
CONTINUOUS
 10
372.9336382054
 20
132.8123781579
  7
STANDARD
 40
3.5
  1
A_10
 41
0.8
 72
0
  0
TEXT
  8
0
 62
7
  6
CONTINUOUS
 10
322.261494737
 20
82.0496331579
  7
STANDARD
 40
3.5
  1
A_4
 41
0.8
 72
0
  0
TEXT
  8
0
 62
7
  6
CONTINUOUS
 10
372.9336382054
 20
82.0496331579
  7
STANDARD
 40
3.5
  1
A_4
 41
0.8
 72
0
  0
TEXT
  8
0
 62
7
  6
CONTINUOUS
 10
362.6441645211
 20
107.4123781579
  7
STANDARD
 40
3.5
  1
A_11
 41
0.8
 72
0
  0
TEXT
  8
0
 62
7
  6
CONTINUOUS
 10
180.711494737
 20
107.4123781579
  7
STANDARD
 40
3.5
  1
A_11
 41
0.8
 72
0
  0
TEXT
  8
0
 62
7
  6
CONTINUOUS
 10
180.711494737
 20
202.9133045211
  7
STANDARD
 40
3.5
  1
A_11
 41
0.8
 72
0
  0
LINE
  8
0
 62
2
  6
CONTINUOUS
 10
218.937007874
 20
30.0
 11
408.937007874
 21
30.0
  0
LINE
  8
0
 62
2
  6
CONTINUOUS
 10
218.937007874
 20
30.0
 11
218.937007874
 21
10.0
  0
LINE
  8
0
 62
2
  6
CONTINUOUS
 10
218.937007874
 20
10.0
 11
408.937007874
 21
10.0
  0
LINE
  8
0
 62
2
  6
CONTINUOUS
 10
303.937007874
 20
30.0
 11
303.937007874
 21
10.0
  0
LINE
  8
0
 62
2
  6
CONTINUOUS
 10
323.937007874
 20
30.0
 11
323.937007874
 21
10.0
  0
LINE
  8
0
 62
2
  6
CONTINUOUS
 10
408.937007874
 20
30.0
 11
408.937007874
 21
10.0
  0
TEXT
  8
0
 62
5
  6
CONTINUOUS
 10
221.937007874
 20
23.303
  7
TEXTSTYLE_5
 40
1.52
  1
                                                                     Ammeraal Beltech Modular A/S
 41
1.0
 72
0
  0
TEXT
  8
0
 62
5
  6
CONTINUOUS
 10
221.937007874
 20
20.595
  7
TEXTSTYLE_5
 40
1.5
  1
                                                                      Hjulmagervej 21, 7100 Vejle,  DK
 41
1.0
 72
0
  0
TEXT
  8
0
 62
5
  6
CONTINUOUS
 10
221.937007874
 20
17.881
  7
TEXTSTYLE_5
 40
1.495
  1
                                                                      tel: 
 41
1.0
 72
0
  0
TEXT
  8
0
 62
5
  6
CONTINUOUS
 10
266.9239544389
 20
17.881
  7
TEXTSTYLE_5
 40
1.51
  1
+45 75723100     fax: +45 75723348
 41
1.0
 72
0
  0
TEXT
  8
0
 62
5
  6
CONTINUOUS
 10
221.937007874
 20
15.177
  7
TEXTSTYLE_5
 40
1.5
  1
                                                                      admin@unichains.dk  www.unichains.com
 41
1.0
 72
0
  0
TEXT
  8
0
 62
5
  6
CONTINUOUS
 10
308.687007874
 20
13.75
  7
TEXTSTYLE_6
 40
5.0
  1
1:1
 41
0.7
 72
1
 11
313.937007874
 21
13.75
  0
TEXT
  8
0
 62
5
  6
CONTINUOUS
 10
326.937007874
 20
13.75
  7
TEXTSTYLE_7
 40
7.5
  1
K1200 Rubber top indent 0mm / 156mm
 41
0.2827261905
 72
0
  0
LINE
  8
0
 62
7
  6
CONTINUOUS
 10
0.0
 20
0.0
 11
0.0
 21
297.0
  0
LINE
  8
0
 62
7
  6
CONTINUOUS
 10
8.937007874
 20
10.0
 11
8.937007874
 21
287.0
  0
LINE
  8
0
 62
7
  6
CONTINUOUS
 10
0.0
 20
0.0
 11
420.0
 21
0.0
  0
LINE
  8
0
 62
7
  6
CONTINUOUS
 10
408.937007874
 20
10.0
 11
8.937007874
 21
10.0
  0
LINE
  8
0
 62
7
  6
CONTINUOUS
 10
218.937007874
 20
30.0
 11
408.937007874
 21
30.0
  0
LINE
  8
0
 62
7
  6
CONTINUOUS
 10
210.0
 20
297.0
 11
210.0
 21
292.0
  0
LINE
  8
0
 62
7
  6
CONTINUOUS
 10
210.0
 20
0.0
 11
210.0
 21
5.0
  0
LINE
  8
0
 62
7
  6
CONTINUOUS
 10
8.937007874
 20
287.0
 11
408.937007874
 21
287.0
  0
LINE
  8
0
 62
7
  6
CONTINUOUS
 10
0.0
 20
297.0
 11
420.0
 21
297.0
  0
LINE
  8
0
 62
7
  6
CONTINUOUS
 10
408.937007874
 20
287.0
 11
408.937007874
 21
10.0
  0
LINE
  8
0
 62
7
  6
CONTINUOUS
 10
420.0
 20
0.0
 11
420.0
 21
297.0
  0
LINE
  8
0
 62
7
  6
CONTINUOUS
 10
28.461494737
 20
76.7123781579
 11
28.461494737
 21
81.4057234176
  0
LINE
  8
0
 62
7
  6
CONTINUOUS
 10
28.561494737
 20
104.9123781579
 11
28.561494737
 21
109.7377173274
  0
LINE
  8
0
 62
7
  6
CONTINUOUS
 10
31.161494737
 20
88.5448443134
 11
31.161494737
 21
104.3123781579
  0
LINE
  8
0
 62
7
  6
CONTINUOUS
 10
31.961494737
 20
85.6623781579
 11
31.961494737
 21
87.1934545505
  0
LINE
  8
0
 62
7
  6
CONTINUOUS
 10
32.2614947028
 20
88.5448394267
 11
32.2614947028
 21
104.6242844041
  0
LINE
  8
0
 62
7
  6
CONTINUOUS
 10
37.061494737
 20
102.6123781579
 11
37.061494737
 21
88.5448443134
  0
LINE
  8
0
 62
7
  6
CONTINUOUS
 10
37.361494737
 20
87.1934545505
 11
37.361494737
 21
85.6623781579
  0
LINE
  8
0
 62
7
  6
CONTINUOUS
 10
38.161494737
 20
102.6123781579
 11
38.161494737
 21
88.5448443134
  0
LINE
  8
0
 62
7
  6
CONTINUOUS
 10
40.861494737
 20
81.4057234176
 11
40.861494737
 21
76.7123781579
  0
LINE
  8
0
 62
7
  6
CONTINUOUS
 10
37.2061254104
 20
87.7789913271
 11
37.2926229878
 21
87.5581464487
  0
LINE
  8
0
 62
7
  6
CONTINUOUS
 10
40.8408332122
 20
81.5151309871
 11
38.2303664862
 21
88.1801524152
  0
POLYLINE
  8
0
 62
7
  6
CONTINUOUS
 66
1
 70
0
  0
VERTEX
  8
0
 62
7
  6
CONTINUOUS
 10
49.761494737
 20
110.4879545491
  0
VERTEX
  8
0
 62
7
  6
CONTINUOUS
 10
49.7633502538
 20
110.3723880535
  0
VERTEX
  8
0
 62
7
  6
CONTINUOUS
 10
49.7685803844
 20
110.2624438239
  0
VERTEX
  8
0
 62
7
  6
CONTINUOUS
 10
49.776828888
 20
110.1567005415
  0
VERTEX
  8
0
 62
7
  6
CONTINUOUS
 10
49.7878992413
 20
110.0538243587
  0
VERTEX
  8
0
 62
7
  6
CONTINUOUS
 10
49.8017671433
 20
109.9525041996
  0
VERTEX
  8
0
 62
7
  6
CONTINUOUS
 10
49.8185458986
 20
109.851493653
  0
VERTEX
  8
0
 62
7
  6
CONTINUOUS
 10
49.8382528986
 20
109.7507068995
  0
VERTEX
  8
0
 62
7
  6
CONTINUOUS
 10
49.8608099825
 20
109.6506216604
  0
VERTEX
  8
0
 62
7
  6
CONTINUOUS
 10
49.8862099026
 20
109.5512965177
  0
VERTEX
  8
0
 62
7
  6
CONTINUOUS
 10
49.9144606937
 20
109.4526788138
  0
VERTEX
  8
0
 62
7
  6
CONTINUOUS
 10
49.9455184424
 20
109.3549017064
  0
VERTEX
  8
0
 62
7
  6
CONTINUOUS
 10
49.979355536
 20
109.2580952285
  0
VERTEX
  8
0
 62
7
  6
CONTINUOUS
 10
50.0160119455
 20
109.1622090619
  0
VERTEX
  8
0
 62
7
  6
CONTINUOUS
 10
50.0554817403
 20
109.0673371818
  0
VERTEX
  8
0
 62
7
  6
CONTINUOUS
 10
50.0977298511
 20
108.9736567269
  0
VERTEX
  8
0
 62
7
  6
CONTINUOUS
 10
50.1428199712
 20
108.8810892649
  0
VERTEX
  8
0
 62
7
  6
CONTINUOUS
 10
50.1908354535
 20
108.7895381461
  0
VERTEX
  8
0
 62
7
  6
CONTINUOUS
 10
50.2415577086
 20
108.6994734144
  0
VERTEX
  8
0
 62
7
  6
CONTINUOUS
 10
50.2947367244
 20
108.6112945078
  0
VERTEX
  8
0
 62
7
  6
CONTINUOUS
 10
50.3522021015
 20
108.5222163702
  0
VERTEX
  8
0
 62
7
  6
CONTINUOUS
 10
50.4172274216
 20
108.4281972283
  0
VERTEX
  8
0
 62
7
  6
CONTINUOUS
 10
50.4935382699
 20
108.3258667568
  0
VERTEX
  8
0
 62
7
  6
CONTINUOUS
 10
50.5815362111
 20
108.2172302825
  0
VERTEX
  8
0
 62
7
  6
CONTINUOUS
 10
50.6751285769
 20
108.1112774295
  0
VERTEX
  8
0
 62
7
  6
CONTINUOUS
 10
50.7667369444
 20
108.0159604126
  0
VERTEX
  8
0
 62
7
  6
CONTINUOUS
 10
50.8532483093
 20
107.9326812505
  0
VERTEX
  8
0
 62
7
  6
CONTINUOUS
 10
50.9366857881
 20
107.8579570254
  0
VERTEX
  8
0
 62
7
  6
CONTINUOUS
 10
51.0197594031
 20
107.7885531175
  0
VERTEX
  8
0
 62
7
  6
CONTINUOUS
 10
51.1046396268
 20
107.7224041783
  0
VERTEX
  8
0
 62
7
  6
CONTINUOUS
 10
51.1916197194
 20
107.6592785588
  0
VERTEX
  8
0
 62
7
  6
CONTINUOUS
 10
51.2806840867
 20
107.5992166518
  0
VERTEX
  8
0
 62
7
  6
CONTINUOUS
 10
51.3716648231
 20
107.5423705947
  0
VERTEX
  8
0
 62
7
  6
CONTINUOUS
 10
51.4646754948
 20
107.4887408677
  0
VERTEX
  8
0
 62
7
  6
CONTINUOUS
 10
51.5600410757
 20
107.4382297014
  0
VERTEX
  8
0
 62
7
  6
CONTINUOUS
 10
51.657720654
 20
107.3909794915
  0
VERTEX
  8
0
 62
7
  6
CONTINUOUS
 10
51.7576259005
 20
107.3471230492
  0
VERTEX
  8
0
 62
7
  6
CONTINUOUS
 10
51.8594086979
 20
107.3068685222
  0
VERTEX
  8
0
 62
7
  6
CONTINUOUS
 10
51.9627756889
 20
107.2703779249
  0
VERTEX
  8
0
 62
7
  6
CONTINUOUS
 10
52.0676375823
 20
107.2377239154
  0
VERTEX
  8
0
 62
7
  6
CONTINUOUS
 10
52.1739167674
 20
107.208989637
  0
VERTEX
  8
0
 62
7
  6
CONTINUOUS
 10
52.2811746236
 20
107.1843464434
  0
VERTEX
  8
0
 62
7
  6
CONTINUOUS
 10
52.3895449878
 20
107.163829322
  0
VERTEX
  8
0
 62
7
  6
CONTINUOUS
 10
52.5003028457
 20
107.1473385236
  0
VERTEX
  8
0
 62
7
  6
CONTINUOUS
 10
52.6149054265
 20
107.1349786522
  0
VERTEX
  8
0
 62
7
  6
CONTINUOUS
 10
52.7347864181
 20
107.1270908044
  0
VERTEX
  8
0
 62
7
  6
CONTINUOUS
 10
52.8614948254
 20
107.1242786162
  0
SEQEND
  0
LINE
  8
0
 62
7
  6
CONTINUOUS
 10
41.161494737
 20
133.4190366322
 11
41.161494737
 21
138.1123781579
  0
LINE
  8
0
 62
7
  6
CONTINUOUS
 10
43.861494737
 20
126.2803874778
 11
43.861494737
 21
110.4879532996
  0
LINE
  8
0
 62
7
  6
CONTINUOUS
 10
44.661494737
 20
127.631761612
 11
44.661494737
 21
129.1623781579
  0
LINE
  8
0
 62
7
  6
CONTINUOUS
 10
44.961494737
 20
110.487953982
 11
44.961494737
 21
126.2803874778
  0
LINE
  8
0
 62
7
  6
CONTINUOUS
 10
49.761494737
 20
126.2803874778
 11
49.761494737
 21
110.4879545491
  0
LINE
  8
0
 62
7
  6
CONTINUOUS
 10
50.061494737
 20
129.1623781579
 11
50.061494737
 21
127.631761612
  0
LINE
  8
0
 62
7
  6
CONTINUOUS
 10
50.861494737
 20
126.2803874778
 11
50.861494737
 21
110.4879532996
  0
LINE
  8
0
 62
7
  6
CONTINUOUS
 10
28.4821562618
 20
81.5151309871
 11
31.0926229878
 21
88.1801524152
  0
LINE
  8
0
 62
7
  6
CONTINUOUS
 10
32.0303664862
 20
87.5581464487
 11
32.1168640636
 21
87.7789913271
  0
LINE
  8
0
 62
7
  6
CONTINUOUS
 10
49.9926142217
 20
127.2670473331
 11
49.9061438191
 21
127.0462874634
  0
LINE
  8
0
 62
7
  6
CONTINUOUS
 10
53.561494737
 20
138.1123781579
 11
53.561494737
 21
133.4190366322
  0
LINE
  8
0
 62
7
  6
CONTINUOUS
 10
53.861494737
 20
76.7123781579
 11
53.861494737
 21
81.4057234176
  0
LINE
  8
0
 62
7
  6
CONTINUOUS
 10
56.561494737
 20
102.6123781579
 11
56.561494737
 21
88.5448443134
  0
LINE
  8
0
 62
7
  6
CONTINUOUS
 10
57.361494737
 20
85.6623781579
 11
57.361494737
 21
87.1934545505
  0
LINE
  8
0
 62
7
  6
CONTINUOUS
 10
57.661494737
 20
88.5448443134
 11
57.661494737
 21
102.6123781579
  0
LINE
  8
0
 62
7
  6
CONTINUOUS
 10
50.9303752523
 20
126.6451017567
 11
53.5408305824
 21
133.3096223485
  0
LINE
  8
0
 62
7
  6
CONTINUOUS
 10
41.1821588916
 20
133.3096223485
 11
43.7926142217
 21
126.6451017567
  0
LINE
  8
0
 62
7
  6
CONTINUOUS
 10
44.8168456549
 20
127.0462874634
 11
44.7303752523
 21
127.2670473331
  0
LINE
  8
0
 62
7
  6
CONTINUOUS
 10
62.461494737
 20
102.6123781579
 11
62.461494737
 21
88.5448443134
  0
LINE
  8
0
 62
7
  6
CONTINUOUS
 10
62.761494737
 20
87.1934545505
 11
62.761494737
 21
85.6623781579
  0
LINE
  8
0
 62
7
  6
CONTINUOUS
 10
63.561494737
 20
102.6123781579
 11
63.561494737
 21
88.5448443134
  0
LINE
  8
0
 62
7
  6
CONTINUOUS
 10
66.261494737
 20
81.4057234176
 11
66.261494737
 21
76.7123781579
  0
LINE
  8
0
 62
7
  6
CONTINUOUS
 10
66.561494737
 20
133.4190366322
 11
66.561494737
 21
138.1123781579
  0
LINE
  8
0
 62
7
  6
CONTINUOUS
 10
69.261494737
 20
126.2803874778
 11
69.261494737
 21
110.4879532996
  0
LINE
  8
0
 62
7
  6
CONTINUOUS
 10
70.061494737
 20
127.631761612
 11
70.061494737
 21
129.1623781579
  0
LINE
  8
0
 62
7
  6
CONTINUOUS
 10
70.361494737
 20
110.4879539819
 11
70.361494737
 21
126.2803874778
  0
LINE
  8
0
 62
7
  6
CONTINUOUS
 10
53.8821562618
 20
81.5151309871
 11
56.4926229878
 21
88.1801524152
  0
LINE
  8
0
 62
7
  6
CONTINUOUS
 10
62.6061254104
 20
87.7789913271
 11
62.6926229878
 21
87.5581464487
  0
LINE
  8
0
 62
7
  6
CONTINUOUS
 10
66.2408332122
 20
81.5151309871
 11
63.6303664862
 21
88.1801524152
  0
POLYLINE
  8
0
 62
7
  6
CONTINUOUS
 66
1
 70
0
  0
VERTEX
  8
0
 62
7
  6
CONTINUOUS
 10
75.161494737
 20
110.4879545491
  0
VERTEX
  8
0
 62
7
  6
CONTINUOUS
 10
75.1633502538
 20
110.3723880535
  0
VERTEX
  8
0
 62
7
  6
CONTINUOUS
 10
75.1685803844
 20
110.262443824
  0
VERTEX
  8
0
 62
7
  6
CONTINUOUS
 10
75.176828888
 20
110.1567005416
  0
VERTEX
  8
0
 62
7
  6
CONTINUOUS
 10
75.1878992413
 20
110.0538243588
  0
VERTEX
  8
0
 62
7
  6
CONTINUOUS
 10
75.2017671433
 20
109.9525041996
  0
VERTEX
  8
0
 62
7
  6
CONTINUOUS
 10
75.2185458986
 20
109.8514936531
  0
VERTEX
  8
0
 62
7
  6
CONTINUOUS
 10
75.2382528986
 20
109.7507068995
  0
VERTEX
  8
0
 62
7
  6
CONTINUOUS
 10
75.2608099825
 20
109.6506216604
  0
VERTEX
  8
0
 62
7
  6
CONTINUOUS
 10
75.2862099026
 20
109.5512965177
  0
VERTEX
  8
0
 62
7
  6
CONTINUOUS
 10
75.3144606937
 20
109.4526788138
  0
VERTEX
  8
0
 62
7
  6
CONTINUOUS
 10
75.3455184424
 20
109.3549017064
  0
VERTEX
  8
0
 62
7
  6
CONTINUOUS
 10
75.379355536
 20
109.2580952285
  0
VERTEX
  8
0
 62
7
  6
CONTINUOUS
 10
75.4160119454
 20
109.162209062
  0
VERTEX
  8
0
 62
7
  6
CONTINUOUS
 10
75.4554817403
 20
109.0673371819
  0
VERTEX
  8
0
 62
7
  6
CONTINUOUS
 10
75.497729851
 20
108.9736567269
  0
VERTEX
  8
0
 62
7
  6
CONTINUOUS
 10
75.5428199711
 20
108.881089265
  0
VERTEX
  8
0
 62
7
  6
CONTINUOUS
 10
75.5908354534
 20
108.7895381461
  0
VERTEX
  8
0
 62
7
  6
CONTINUOUS
 10
75.6415577086
 20
108.6994734144
  0
VERTEX
  8
0
 62
7
  6
CONTINUOUS
 10
75.6947367244
 20
108.6112945078
  0
VERTEX
  8
0
 62
7
  6
CONTINUOUS
 10
75.7522021015
 20
108.5222163702
  0
VERTEX
  8
0
 62
7
  6
CONTINUOUS
 10
75.8172274216
 20
108.4281972283
  0
VERTEX
  8
0
 62
7
  6
CONTINUOUS
 10
75.8935382699
 20
108.3258667568
  0
VERTEX
  8
0
 62
7
  6
CONTINUOUS
 10
75.9815362111
 20
108.2172302825
  0
VERTEX
  8
0
 62
7
  6
CONTINUOUS
 10
76.0751285769
 20
108.1112774295
  0
VERTEX
  8
0
 62
7
  6
CONTINUOUS
 10
76.1667369444
 20
108.0159604126
  0
VERTEX
  8
0
 62
7
  6
CONTINUOUS
 10
76.2532483093
 20
107.9326812505
  0
VERTEX
  8
0
 62
7
  6
CONTINUOUS
 10
76.3366857881
 20
107.8579570255
  0
VERTEX
  8
0
 62
7
  6
CONTINUOUS
 10
76.4197594031
 20
107.7885531175
  0
VERTEX
  8
0
 62
7
  6
CONTINUOUS
 10
76.5046396268
 20
107.7224041783
  0
VERTEX
  8
0
 62
7
  6
CONTINUOUS
 10
76.5916197194
 20
107.6592785588
  0
VERTEX
  8
0
 62
7
  6
CONTINUOUS
 10
76.6806840867
 20
107.5992166518
  0
VERTEX
  8
0
 62
7
  6
CONTINUOUS
 10
76.7716648231
 20
107.5423705947
  0
VERTEX
  8
0
 62
7
  6
CONTINUOUS
 10
76.8646754948
 20
107.4887408677
  0
VERTEX
  8
0
 62
7
  6
CONTINUOUS
 10
76.9600410757
 20
107.4382297014
  0
VERTEX
  8
0
 62
7
  6
CONTINUOUS
 10
77.057720654
 20
107.3909794915
  0
VERTEX
  8
0
 62
7
  6
CONTINUOUS
 10
77.1576259005
 20
107.3471230492
  0
VERTEX
  8
0
 62
7
  6
CONTINUOUS
 10
77.2594086979
 20
107.3068685222
  0
VERTEX
  8
0
 62
7
  6
CONTINUOUS
 10
77.3627756888
 20
107.2703779249
  0
VERTEX
  8
0
 62
7
  6
CONTINUOUS
 10
77.4676375823
 20
107.2377239154
  0
VERTEX
  8
0
 62
7
  6
CONTINUOUS
 10
77.5739167674
 20
107.208989637
  0
VERTEX
  8
0
 62
7
  6
CONTINUOUS
 10
77.6811746236
 20
107.1843464434
  0
VERTEX
  8
0
 62
7
  6
CONTINUOUS
 10
77.7895449877
 20
107.163829322
  0
VERTEX
  8
0
 62
7
  6
CONTINUOUS
 10
77.9003028456
 20
107.1473385236
  0
VERTEX
  8
0
 62
7
  6
CONTINUOUS
 10
78.0149054265
 20
107.1349786522
  0
VERTEX
  8
0
 62
7
  6
CONTINUOUS
 10
78.1347864181
 20
107.1270908044
  0
VERTEX
  8
0
 62
7
  6
CONTINUOUS
 10
78.2614948254
 20
107.1242786162
  0
SEQEND
  0
LINE
  8
0
 62
7
  6
CONTINUOUS
 10
75.161494737
 20
126.2803874778
 11
75.161494737
 21
110.4879545491
  0
LINE
  8
0
 62
7
  6
CONTINUOUS
 10
75.461494737
 20
129.1623781579
 11
75.461494737
 21
127.631761612
  0
LINE
  8
0
 62
7
  6
CONTINUOUS
 10
76.261494737
 20
126.2803874778
 11
76.261494737
 21
110.4879532996
  0
LINE
  8
0
 62
7
  6
CONTINUOUS
 10
78.961494737
 20
138.1123781579
 11
78.961494737
 21
133.4190366322
  0
LINE
  8
0
 62
7
  6
CONTINUOUS
 10
79.261494737
 20
76.7123781579
 11
79.261494737
 21
81.4057234176
  0
LINE
  8
0
 62
7
  6
CONTINUOUS
 10
81.961494737
 20
102.6123781579
 11
81.961494737
 21
88.5448443134
  0
LINE
  8
0
 62
7
  6
CONTINUOUS
 10
82.761494737
 20
85.6623781579
 11
82.761494737
 21
87.1934545505
  0
LINE
  8
0
 62
7
  6
CONTINUOUS
 10
83.061494737
 20
88.5448443134
 11
83.061494737
 21
102.6123781579
  0
LINE
  8
0
 62
7
  6
CONTINUOUS
 10
57.4303664862
 20
87.5581464487
 11
57.5168640636
 21
87.7789913271
  0
LINE
  8
0
 62
7
  6
CONTINUOUS
 10
75.3926142217
 20
127.2670473331
 11
75.3061438191
 21
127.0462874634
  0
LINE
  8
0
 62
7
  6
CONTINUOUS
 10
76.3303752523
 20
126.6451017567
 11
78.9408305824
 21
133.3096223485
  0
LINE
  8
0
 62
7
  6
CONTINUOUS
 10
87.861494737
 20
102.6123781579
 11
87.861494737
 21
88.5448443134
  0
LINE
  8
0
 62
7
  6
CONTINUOUS
 10
88.161494737
 20
87.1934545505
 11
88.161494737
 21
85.6623781579
  0
LINE
  8
0
 62
7
  6
CONTINUOUS
 10
88.961494737
 20
102.6123781579
 11
88.961494737
 21
88.5448443134
  0
LINE
  8
0
 62
7
  6
CONTINUOUS
 10
91.661494737
 20
81.4057234176
 11
91.661494737
 21
76.7123781579
  0
LINE
  8
0
 62
7
  6
CONTINUOUS
 10
91.961494737
 20
133.4190366322
 11
91.961494737
 21
138.1123781579
  0
LINE
  8
0
 62
7
  6
CONTINUOUS
 10
66.5821588916
 20
133.3096223485
 11
69.1926142217
 21
126.6451017567
  0
LINE
  8
0
 62
7
  6
CONTINUOUS
 10
70.2168456549
 20
127.0462874634
 11
70.1303752523
 21
127.2670473331
  0
LINE
  8
0
 62
7
  6
CONTINUOUS
 10
88.0061254104
 20
87.7789913271
 11
88.0926229878
 21
87.5581464487
  0
LINE
  8
0
 62
7
  6
CONTINUOUS
 10
91.6408332122
 20
81.5151309871
 11
89.0303664862
 21
88.1801524152
  0
POLYLINE
  8
0
 62
7
  6
CONTINUOUS
 66
1
 70
0
  0
VERTEX
  8
0
 62
7
  6
CONTINUOUS
 10
100.561494737
 20
110.487954549
  0
VERTEX
  8
0
 62
7
  6
CONTINUOUS
 10
100.5633502538
 20
110.3723880534
  0
VERTEX
  8
0
 62
7
  6
CONTINUOUS
 10
100.5685803844
 20
110.2624438238
  0
VERTEX
  8
0
 62
7
  6
CONTINUOUS
 10
100.5768288881
 20
110.1567005414
  0
VERTEX
  8
0
 62
7
  6
CONTINUOUS
 10
100.5878992413
 20
110.0538243586
  0
VERTEX
  8
0
 62
7
  6
CONTINUOUS
 10
100.6017671434
 20
109.9525041995
  0
VERTEX
  8
0
 62
7
  6
CONTINUOUS
 10
100.6185458986
 20
109.851493653
  0
VERTEX
  8
0
 62
7
  6
CONTINUOUS
 10
100.6382528986
 20
109.7507068994
  0
VERTEX
  8
0
 62
7
  6
CONTINUOUS
 10
100.6608099825
 20
109.6506216603
  0
VERTEX
  8
0
 62
7
  6
CONTINUOUS
 10
100.6862099026
 20
109.5512965176
  0
VERTEX
  8
0
 62
7
  6
CONTINUOUS
 10
100.7144606937
 20
109.4526788137
  0
VERTEX
  8
0
 62
7
  6
CONTINUOUS
 10
100.7455184424
 20
109.3549017063
  0
VERTEX
  8
0
 62
7
  6
CONTINUOUS
 10
100.779355536
 20
109.2580952284
  0
VERTEX
  8
0
 62
7
  6
CONTINUOUS
 10
100.8160119455
 20
109.1622090619
  0
VERTEX
  8
0
 62
7
  6
CONTINUOUS
 10
100.8554817404
 20
109.0673371818
  0
VERTEX
  8
0
 62
7
  6
CONTINUOUS
 10
100.8977298511
 20
108.9736567268
  0
VERTEX
  8
0
 62
7
  6
CONTINUOUS
 10
100.9428199712
 20
108.8810892649
  0
VERTEX
  8
0
 62
7
  6
CONTINUOUS
 10
100.9908354535
 20
108.789538146
  0
VERTEX
  8
0
 62
7
  6
CONTINUOUS
 10
101.0415577087
 20
108.6994734143
  0
VERTEX
  8
0
 62
7
  6
CONTINUOUS
 10
101.0947367245
 20
108.6112945077
  0
VERTEX
  8
0
 62
7
  6
CONTINUOUS
 10
101.1522021015
 20
108.5222163701
  0
VERTEX
  8
0
 62
7
  6
CONTINUOUS
 10
101.2172274217
 20
108.4281972282
  0
VERTEX
  8
0
 62
7
  6
CONTINUOUS
 10
101.2935382699
 20
108.3258667568
  0
VERTEX
  8
0
 62
7
  6
CONTINUOUS
 10
101.3815362111
 20
108.2172302824
  0
VERTEX
  8
0
 62
7
  6
CONTINUOUS
 10
101.4751285769
 20
108.1112774295
  0
VERTEX
  8
0
 62
7
  6
CONTINUOUS
 10
101.5667369444
 20
108.0159604125
  0
VERTEX
  8
0
 62
7
  6
CONTINUOUS
 10
101.6532483093
 20
107.9326812505
  0
VERTEX
  8
0
 62
7
  6
CONTINUOUS
 10
101.7366857882
 20
107.8579570254
  0
VERTEX
  8
0
 62
7
  6
CONTINUOUS
 10
101.8197594032
 20
107.7885531175
  0
VERTEX
  8
0
 62
7
  6
CONTINUOUS
 10
101.9046396268
 20
107.7224041783
  0
VERTEX
  8
0
 62
7
  6
CONTINUOUS
 10
101.9916197195
 20
107.6592785587
  0
VERTEX
  8
0
 62
7
  6
CONTINUOUS
 10
102.0806840867
 20
107.5992166518
  0
VERTEX
  8
0
 62
7
  6
CONTINUOUS
 10
102.1716648231
 20
107.5423705947
  0
VERTEX
  8
0
 62
7
  6
CONTINUOUS
 10
102.2646754949
 20
107.4887408676
  0
VERTEX
  8
0
 62
7
  6
CONTINUOUS
 10
102.3600410757
 20
107.4382297014
  0
VERTEX
  8
0
 62
7
  6
CONTINUOUS
 10
102.457720654
 20
107.3909794915
  0
VERTEX
  8
0
 62
7
  6
CONTINUOUS
 10
102.5576259005
 20
107.3471230492
  0
VERTEX
  8
0
 62
7
  6
CONTINUOUS
 10
102.6594086979
 20
107.3068685222
  0
VERTEX
  8
0
 62
7
  6
CONTINUOUS
 10
102.7627756889
 20
107.2703779249
  0
VERTEX
  8
0
 62
7
  6
CONTINUOUS
 10
102.8676375823
 20
107.2377239154
  0
VERTEX
  8
0
 62
7
  6
CONTINUOUS
 10
102.9739167675
 20
107.208989637
  0
VERTEX
  8
0
 62
7
  6
CONTINUOUS
 10
103.0811746236
 20
107.1843464434
  0
VERTEX
  8
0
 62
7
  6
CONTINUOUS
 10
103.1895449878
 20
107.163829322
  0
VERTEX
  8
0
 62
7
  6
CONTINUOUS
 10
103.3003028457
 20
107.1473385236
  0
VERTEX
  8
0
 62
7
  6
CONTINUOUS
 10
103.4149054266
 20
107.1349786522
  0
VERTEX
  8
0
 62
7
  6
CONTINUOUS
 10
103.5347864181
 20
107.1270908044
  0
VERTEX
  8
0
 62
7
  6
CONTINUOUS
 10
103.6614948254
 20
107.1242786162
  0
SEQEND
  0
LINE
  8
0
 62
7
  6
CONTINUOUS
 10
94.661494737
 20
126.2803874778
 11
94.661494737
 21
110.4879532996
  0
LINE
  8
0
 62
7
  6
CONTINUOUS
 10
95.461494737
 20
127.631761612
 11
95.461494737
 21
129.1623781579
  0
LINE
  8
0
 62
7
  6
CONTINUOUS
 10
95.761494737
 20
110.4879539819
 11
95.761494737
 21
126.2803874778
  0
LINE
  8
0
 62
7
  6
CONTINUOUS
 10
100.561494737
 20
126.2803874778
 11
100.561494737
 21
110.487954549
  0
LINE
  8
0
 62
7
  6
CONTINUOUS
 10
100.861494737
 20
129.1623781579
 11
100.861494737
 21
127.631761612
  0
LINE
  8
0
 62
7
  6
CONTINUOUS
 10
101.661494737
 20
126.2803874778
 11
101.661494737
 21
110.4879532996
  0
LINE
  8
0
 62
7
  6
CONTINUOUS
 10
104.361494737
 20
138.1123781579
 11
104.361494737
 21
133.4190366322
  0
LINE
  8
0
 62
7
  6
CONTINUOUS
 10
104.661494737
 20
76.7123781579
 11
104.661494737
 21
81.4057234176
  0
LINE
  8
0
 62
7
  6
CONTINUOUS
 10
79.2821562618
 20
81.5151309871
 11
81.8926229878
 21
88.1801524152
  0
LINE
  8
0
 62
7
  6
CONTINUOUS
 10
82.8303664862
 20
87.5581464487
 11
82.9168640636
 21
87.7789913271
  0
LINE
  8
0
 62
7
  6
CONTINUOUS
 10
100.7926142217
 20
127.2670473331
 11
100.7061438191
 21
127.0462874634
  0
LINE
  8
0
 62
7
  6
CONTINUOUS
 10
101.7303752523
 20
126.6451017567
 11
104.3408305824
 21
133.3096223485
  0
LINE
  8
0
 62
7
  6
CONTINUOUS
 10
107.361494737
 20
102.6123781579
 11
107.361494737
 21
88.5448443134
  0
LINE
  8
0
 62
7
  6
CONTINUOUS
 10
108.161494737
 20
85.6623781579
 11
108.161494737
 21
87.1934545505
  0
LINE
  8
0
 62
7
  6
CONTINUOUS
 10
108.461494737
 20
88.5448443134
 11
108.461494737
 21
102.6123781579
  0
LINE
  8
0
 62
7
  6
CONTINUOUS
 10
113.261494737
 20
102.6123781579
 11
113.261494737
 21
88.5448443134
  0
LINE
  8
0
 62
7
  6
CONTINUOUS
 10
113.561494737
 20
87.1934545505
 11
113.561494737
 21
85.6623781579
  0
LINE
  8
0
 62
7
  6
CONTINUOUS
 10
114.361494737
 20
102.6123781579
 11
114.361494737
 21
88.5448443134
  0
LINE
  8
0
 62
7
  6
CONTINUOUS
 10
91.9821588916
 20
133.3096223485
 11
94.5926142217
 21
126.6451017567
  0
LINE
  8
0
 62
7
  6
CONTINUOUS
 10
95.6168456549
 20
127.0462874634
 11
95.5303752523
 21
127.2670473331
  0
LINE
  8
0
 62
7
  6
CONTINUOUS
 10
113.4061254104
 20
87.7789913271
 11
113.4926229878
 21
87.5581464487
  0
LINE
  8
0
 62
7
  6
CONTINUOUS
 10
117.0408332122
 20
81.5151309871
 11
114.4303664862
 21
88.1801524152
  0
LINE
  8
0
 62
7
  6
CONTINUOUS
 10
117.061494737
 20
81.4057234176
 11
117.061494737
 21
76.7123781579
  0
LINE
  8
0
 62
7
  6
CONTINUOUS
 10
117.361494737
 20
133.4190366322
 11
117.361494737
 21
138.1123781579
  0
LINE
  8
0
 62
7
  6
CONTINUOUS
 10
120.061494737
 20
126.2803874778
 11
120.061494737
 21
110.4879532996
  0
LINE
  8
0
 62
7
  6
CONTINUOUS
 10
120.861494737
 20
127.631761612
 11
120.861494737
 21
129.1623781579
  0
LINE
  8
0
 62
7
  6
CONTINUOUS
 10
121.161494737
 20
110.487953982
 11
121.161494737
 21
126.2803874778
  0
LINE
  8
0
 62
7
  6
CONTINUOUS
 10
104.6821562618
 20
81.5151309871
 11
107.2926229878
 21
88.1801524152
  0
LINE
  8
0
 62
7
  6
CONTINUOUS
 10
108.2303664862
 20
87.5581464487
 11
108.3168640636
 21
87.7789913271
  0
LINE
  8
0
 62
7
  6
CONTINUOUS
 10
126.1926142217
 20
127.2670473331
 11
126.1061438191
 21
127.0462874634
  0
LINE
  8
0
 62
7
  6
CONTINUOUS
 10
127.1303752523
 20
126.6451017567
 11
129.7408305824
 21
133.3096223485
  0
POLYLINE
  8
0
 62
7
  6
CONTINUOUS
 66
1
 70
0
  0
VERTEX
  8
0
 62
7
  6
CONTINUOUS
 10
125.961494737
 20
110.4879545491
  0
VERTEX
  8
0
 62
7
  6
CONTINUOUS
 10
125.9633502538
 20
110.3723880534
  0
VERTEX
  8
0
 62
7
  6
CONTINUOUS
 10
125.9685803844
 20
110.2624438239
  0
VERTEX
  8
0
 62
7
  6
CONTINUOUS
 10
125.976828888
 20
110.1567005415
  0
VERTEX
  8
0
 62
7
  6
CONTINUOUS
 10
125.9878992413
 20
110.0538243587
  0
VERTEX
  8
0
 62
7
  6
CONTINUOUS
 10
126.0017671433
 20
109.9525041996
  0
VERTEX
  8
0
 62
7
  6
CONTINUOUS
 10
126.0185458986
 20
109.851493653
  0
VERTEX
  8
0
 62
7
  6
CONTINUOUS
 10
126.0382528986
 20
109.7507068994
  0
VERTEX
  8
0
 62
7
  6
CONTINUOUS
 10
126.0608099825
 20
109.6506216604
  0
VERTEX
  8
0
 62
7
  6
CONTINUOUS
 10
126.0862099026
 20
109.5512965177
  0
VERTEX
  8
0
 62
7
  6
CONTINUOUS
 10
126.1144606937
 20
109.4526788137
  0
VERTEX
  8
0
 62
7
  6
CONTINUOUS
 10
126.1455184424
 20
109.3549017064
  0
VERTEX
  8
0
 62
7
  6
CONTINUOUS
 10
126.179355536
 20
109.2580952285
  0
VERTEX
  8
0
 62
7
  6
CONTINUOUS
 10
126.2160119455
 20
109.1622090619
  0
VERTEX
  8
0
 62
7
  6
CONTINUOUS
 10
126.2554817403
 20
109.0673371818
  0
VERTEX
  8
0
 62
7
  6
CONTINUOUS
 10
126.2977298511
 20
108.9736567269
  0
VERTEX
  8
0
 62
7
  6
CONTINUOUS
 10
126.3428199712
 20
108.8810892649
  0
VERTEX
  8
0
 62
7
  6
CONTINUOUS
 10
126.3908354535
 20
108.789538146
  0
VERTEX
  8
0
 62
7
  6
CONTINUOUS
 10
126.4415577087
 20
108.6994734144
  0
VERTEX
  8
0
 62
7
  6
CONTINUOUS
 10
126.4947367244
 20
108.6112945078
  0
VERTEX
  8
0
 62
7
  6
CONTINUOUS
 10
126.5522021015
 20
108.5222163702
  0
VERTEX
  8
0
 62
7
  6
CONTINUOUS
 10
126.6172274217
 20
108.4281972283
  0
VERTEX
  8
0
 62
7
  6
CONTINUOUS
 10
126.6935382699
 20
108.3258667568
  0
VERTEX
  8
0
 62
7
  6
CONTINUOUS
 10
126.7815362111
 20
108.2172302825
  0
VERTEX
  8
0
 62
7
  6
CONTINUOUS
 10
126.8751285769
 20
108.1112774295
  0
VERTEX
  8
0
 62
7
  6
CONTINUOUS
 10
126.9667369444
 20
108.0159604126
  0
VERTEX
  8
0
 62
7
  6
CONTINUOUS
 10
127.0532483093
 20
107.9326812505
  0
VERTEX
  8
0
 62
7
  6
CONTINUOUS
 10
127.1366857881
 20
107.8579570254
  0
VERTEX
  8
0
 62
7
  6
CONTINUOUS
 10
127.2197594031
 20
107.7885531175
  0
VERTEX
  8
0
 62
7
  6
CONTINUOUS
 10
127.3046396268
 20
107.7224041783
  0
VERTEX
  8
0
 62
7
  6
CONTINUOUS
 10
127.3916197194
 20
107.6592785588
  0
VERTEX
  8
0
 62
7
  6
CONTINUOUS
 10
127.4806840867
 20
107.5992166518
  0
VERTEX
  8
0
 62
7
  6
CONTINUOUS
 10
127.5716648231
 20
107.5423705947
  0
VERTEX
  8
0
 62
7
  6
CONTINUOUS
 10
127.6646754948
 20
107.4887408676
  0
VERTEX
  8
0
 62
7
  6
CONTINUOUS
 10
127.7600410757
 20
107.4382297014
  0
VERTEX
  8
0
 62
7
  6
CONTINUOUS
 10
127.857720654
 20
107.3909794915
  0
VERTEX
  8
0
 62
7
  6
CONTINUOUS
 10
127.9576259005
 20
107.3471230492
  0
VERTEX
  8
0
 62
7
  6
CONTINUOUS
 10
128.0594086979
 20
107.3068685222
  0
VERTEX
  8
0
 62
7
  6
CONTINUOUS
 10
128.1627756889
 20
107.2703779249
  0
VERTEX
  8
0
 62
7
  6
CONTINUOUS
 10
128.2676375823
 20
107.2377239154
  0
VERTEX
  8
0
 62
7
  6
CONTINUOUS
 10
128.3739167674
 20
107.208989637
  0
VERTEX
  8
0
 62
7
  6
CONTINUOUS
 10
128.4811746236
 20
107.1843464434
  0
VERTEX
  8
0
 62
7
  6
CONTINUOUS
 10
128.5895449878
 20
107.163829322
  0
VERTEX
  8
0
 62
7
  6
CONTINUOUS
 10
128.7003028457
 20
107.1473385236
  0
VERTEX
  8
0
 62
7
  6
CONTINUOUS
 10
128.8149054265
 20
107.1349786522
  0
VERTEX
  8
0
 62
7
  6
CONTINUOUS
 10
128.9347864181
 20
107.1270908044
  0
VERTEX
  8
0
 62
7
  6
CONTINUOUS
 10
129.0614948254
 20
107.1242786162
  0
SEQEND
  0
LINE
  8
0
 62
7
  6
CONTINUOUS
 10
125.961494737
 20
126.2803874778
 11
125.961494737
 21
110.4879545491
  0
LINE
  8
0
 62
7
  6
CONTINUOUS
 10
126.261494737
 20
129.1623781579
 11
126.261494737
 21
127.631761612
  0
LINE
  8
0
 62
7
  6
CONTINUOUS
 10
127.061494737
 20
126.2803874778
 11
127.061494737
 21
110.4879532996
  0
LINE
  8
0
 62
7
  6
CONTINUOUS
 10
129.761494737
 20
138.1123781579
 11
129.761494737
 21
133.4190366322
  0
LINE
  8
0
 62
7
  6
CONTINUOUS
 10
130.061494737
 20
76.7123781579
 11
130.061494737
 21
81.4057234176
  0
LINE
  8
0
 62
7
  6
CONTINUOUS
 10
132.761494737
 20
102.6123781579
 11
132.761494737
 21
88.5448443134
  0
LINE
  8
0
 62
7
  6
CONTINUOUS
 10
133.561494737
 20
85.6623781579
 11
133.561494737
 21
87.1934545505
  0
LINE
  8
0
 62
7
  6
CONTINUOUS
 10
133.861494737
 20
88.5448443134
 11
133.861494737
 21
102.6123781579
  0
LINE
  8
0
 62
7
  6
CONTINUOUS
 10
117.3821588916
 20
133.3096223485
 11
119.9926142217
 21
126.6451017567
  0
LINE
  8
0
 62
7
  6
CONTINUOUS
 10
121.0168456549
 20
127.0462874634
 11
120.9303752523
 21
127.2670473331
  0
LINE
  8
0
 62
7
  6
CONTINUOUS
 10
138.8061254104
 20
87.7789913271
 11
138.8926229878
 21
87.5581464487
  0
LINE
  8
0
 62
7
  6
CONTINUOUS
 10
142.4408332122
 20
81.5151309871
 11
139.8303664862
 21
88.1801524152
  0
LINE
  8
0
 62
7
  6
CONTINUOUS
 10
138.661494737
 20
102.6123781579
 11
138.661494737
 21
88.5448443134
  0
LINE
  8
0
 62
7
  6
CONTINUOUS
 10
138.961494737
 20
87.1934545505
 11
138.961494737
 21
85.6623781579
  0
LINE
  8
0
 62
7
  6
CONTINUOUS
 10
139.761494737
 20
102.6123781579
 11
139.761494737
 21
88.5448443134
  0
LINE
  8
0
 62
7
  6
CONTINUOUS
 10
142.461494737
 20
81.4057234176
 11
142.461494737
 21
76.7123781579
  0
LINE
  8
0
 62
7
  6
CONTINUOUS
 10
142.761494737
 20
133.4190366322
 11
142.761494737
 21
138.1123781579
  0
LINE
  8
0
 62
7
  6
CONTINUOUS
 10
145.461494737
 20
126.2803874778
 11
145.461494737
 21
110.4879532996
  0
LINE
  8
0
 62
7
  6
CONTINUOUS
 10
146.261494737
 20
127.631761612
 11
146.261494737
 21
129.1623781579
  0
LINE
  8
0
 62
7
  6
CONTINUOUS
 10
146.561494737
 20
110.4879539819
 11
146.561494737
 21
126.2803874778
  0
LINE
  8
0
 62
7
  6
CONTINUOUS
 10
130.0821562618
 20
81.5151309871
 11
132.6926229878
 21
88.1801524152
  0
LINE
  8
0
 62
7
  6
CONTINUOUS
 10
133.6303664862
 20
87.5581464487
 11
133.7168640636
 21
87.7789913271
  0
LINE
  8
0
 62
7
  6
CONTINUOUS
 10
151.5926142217
 20
127.2670473331
 11
151.5061438191
 21
127.0462874634
  0
LINE
  8
0
 62
7
  6
CONTINUOUS
 10
317.561494737
 20
74.0123781579
 11
310.561494737
 21
74.0123781579
  0
LINE
  8
0
 62
7
  6
CONTINUOUS
 10
292.161494737
 20
74.0123781579
 11
285.161494737
 21
74.0123781579
  0
LINE
  8
0
 62
7
  6
CONTINUOUS
 10
266.761494737
 20
74.0123781579
 11
259.761494737
 21
74.0123781579
  0
LINE
  8
0
 62
7
  6
CONTINUOUS
 10
241.361494737
 20
74.0123781579
 11
234.361494737
 21
74.0123781579
  0
LINE
  8
0
 62
7
  6
CONTINUOUS
 10
215.961494737
 20
74.0123781579
 11
208.961494737
 21
74.0123781579
  0
LINE
  8
0
 62
7
  6
CONTINUOUS
 10
190.561494737
 20
74.0123781579
 11
183.561494737
 21
74.0123781579
  0
LINE
  8
0
 62
7
  6
CONTINUOUS
 10
165.161494737
 20
74.0123781579
 11
158.161494737
 21
74.0123781579
  0
LINE
  8
0
 62
7
  6
CONTINUOUS
 10
139.761494737
 20
74.0123781579
 11
132.761494737
 21
74.0123781579
  0
LINE
  8
0
 62
7
  6
CONTINUOUS
 10
114.361494737
 20
74.0123781579
 11
107.361494737
 21
74.0123781579
  0
LINE
  8
0
 62
7
  6
CONTINUOUS
 10
88.961494737
 20
74.0123781579
 11
81.961494737
 21
74.0123781579
  0
LINE
  8
0
 62
7
  6
CONTINUOUS
 10
63.561494737
 20
74.0123781579
 11
56.561494737
 21
74.0123781579
  0
LINE
  8
0
 62
7
  6
CONTINUOUS
 10
31.161494737
 20
74.0123781579
 11
38.161494737
 21
74.0123781579
  0
POLYLINE
  8
0
 62
7
  6
CONTINUOUS
 66
1
 70
0
  0
VERTEX
  8
0
 62
7
  6
CONTINUOUS
 10
151.361494737
 20
110.4879545492
  0
VERTEX
  8
0
 62
7
  6
CONTINUOUS
 10
151.3633502538
 20
110.3723880535
  0
VERTEX
  8
0
 62
7
  6
CONTINUOUS
 10
151.3685803844
 20
110.262443824
  0
VERTEX
  8
0
 62
7
  6
CONTINUOUS
 10
151.376828888
 20
110.1567005416
  0
VERTEX
  8
0
 62
7
  6
CONTINUOUS
 10
151.3878992413
 20
110.0538243588
  0
VERTEX
  8
0
 62
7
  6
CONTINUOUS
 10
151.4017671433
 20
109.9525041997
  0
VERTEX
  8
0
 62
7
  6
CONTINUOUS
 10
151.4185458985
 20
109.8514936531
  0
VERTEX
  8
0
 62
7
  6
CONTINUOUS
 10
151.4382528986
 20
109.7507068995
  0
VERTEX
  8
0
 62
7
  6
CONTINUOUS
 10
151.4608099825
 20
109.6506216605
  0
VERTEX
  8
0
 62
7
  6
CONTINUOUS
 10
151.4862099026
 20
109.5512965177
  0
VERTEX
  8
0
 62
7
  6
CONTINUOUS
 10
151.5144606936
 20
109.4526788138
  0
VERTEX
  8
0
 62
7
  6
CONTINUOUS
 10
151.5455184424
 20
109.3549017064
  0
VERTEX
  8
0
 62
7
  6
CONTINUOUS
 10
151.579355536
 20
109.2580952286
  0
VERTEX
  8
0
 62
7
  6
CONTINUOUS
 10
151.6160119454
 20
109.162209062
  0
VERTEX
  8
0
 62
7
  6
CONTINUOUS
 10
151.6554817403
 20
109.0673371819
  0
VERTEX
  8
0
 62
7
  6
CONTINUOUS
 10
151.697729851
 20
108.9736567269
  0
VERTEX
  8
0
 62
7
  6
CONTINUOUS
 10
151.7428199711
 20
108.881089265
  0
VERTEX
  8
0
 62
7
  6
CONTINUOUS
 10
151.7908354534
 20
108.7895381461
  0
VERTEX
  8
0
 62
7
  6
CONTINUOUS
 10
151.8415577086
 20
108.6994734144
  0
VERTEX
  8
0
 62
7
  6
CONTINUOUS
 10
151.8947367244
 20
108.6112945078
  0
VERTEX
  8
0
 62
7
  6
CONTINUOUS
 10
151.9522021014
 20
108.5222163702
  0
VERTEX
  8
0
 62
7
  6
CONTINUOUS
 10
152.0172274216
 20
108.4281972283
  0
VERTEX
  8
0
 62
7
  6
CONTINUOUS
 10
152.0935382698
 20
108.3258667569
  0
VERTEX
  8
0
 62
7
  6
CONTINUOUS
 10
152.1815362111
 20
108.2172302825
  0
VERTEX
  8
0
 62
7
  6
CONTINUOUS
 10
152.2751285768
 20
108.1112774295
  0
VERTEX
  8
0
 62
7
  6
CONTINUOUS
 10
152.3667369444
 20
108.0159604126
  0
VERTEX
  8
0
 62
7
  6
CONTINUOUS
 10
152.4532483092
 20
107.9326812505
  0
VERTEX
  8
0
 62
7
  6
CONTINUOUS
 10
152.5366857881
 20
107.8579570255
  0
VERTEX
  8
0
 62
7
  6
CONTINUOUS
 10
152.6197594031
 20
107.7885531175
  0
VERTEX
  8
0
 62
7
  6
CONTINUOUS
 10
152.7046396268
 20
107.7224041784
  0
VERTEX
  8
0
 62
7
  6
CONTINUOUS
 10
152.7916197194
 20
107.6592785588
  0
VERTEX
  8
0
 62
7
  6
CONTINUOUS
 10
152.8806840867
 20
107.5992166518
  0
VERTEX
  8
0
 62
7
  6
CONTINUOUS
 10
152.9716648231
 20
107.5423705947
  0
VERTEX
  8
0
 62
7
  6
CONTINUOUS
 10
153.0646754948
 20
107.4887408677
  0
VERTEX
  8
0
 62
7
  6
CONTINUOUS
 10
153.1600410757
 20
107.4382297014
  0
VERTEX
  8
0
 62
7
  6
CONTINUOUS
 10
153.257720654
 20
107.3909794915
  0
VERTEX
  8
0
 62
7
  6
CONTINUOUS
 10
153.3576259005
 20
107.3471230492
  0
VERTEX
  8
0
 62
7
  6
CONTINUOUS
 10
153.4594086979
 20
107.3068685222
  0
VERTEX
  8
0
 62
7
  6
CONTINUOUS
 10
153.5627756888
 20
107.2703779249
  0
VERTEX
  8
0
 62
7
  6
CONTINUOUS
 10
153.6676375823
 20
107.2377239154
  0
VERTEX
  8
0
 62
7
  6
CONTINUOUS
 10
153.7739167674
 20
107.208989637
  0
VERTEX
  8
0
 62
7
  6
CONTINUOUS
 10
153.8811746236
 20
107.1843464434
  0
VERTEX
  8
0
 62
7
  6
CONTINUOUS
 10
153.9895449877
 20
107.163829322
  0
VERTEX
  8
0
 62
7
  6
CONTINUOUS
 10
154.1003028456
 20
107.1473385236
  0
VERTEX
  8
0
 62
7
  6
CONTINUOUS
 10
154.2149054265
 20
107.1349786522
  0
VERTEX
  8
0
 62
7
  6
CONTINUOUS
 10
154.3347864181
 20
107.1270908044
  0
VERTEX
  8
0
 62
7
  6
CONTINUOUS
 10
154.4614948254
 20
107.1242786162
  0
SEQEND
  0
LINE
  8
0
 62
7
  6
CONTINUOUS
 10
151.361494737
 20
126.2803874778
 11
151.361494737
 21
110.4879545492
  0
LINE
  8
0
 62
7
  6
CONTINUOUS
 10
151.661494737
 20
129.1623781579
 11
151.661494737
 21
127.631761612
  0
LINE
  8
0
 62
7
  6
CONTINUOUS
 10
152.461494737
 20
126.2803874778
 11
152.461494737
 21
110.4879532996
  0
LINE
  8
0
 62
7
  6
CONTINUOUS
 10
155.161494737
 20
138.1123781579
 11
155.161494737
 21
133.4190366322
  0
LINE
  8
0
 62
7
  6
CONTINUOUS
 10
155.461494737
 20
76.7123781579
 11
155.461494737
 21
81.4057234176
  0
LINE
  8
0
 62
7
  6
CONTINUOUS
 10
152.5303752523
 20
126.6451017567
 11
155.1408305824
 21
133.3096223485
  0
LINE
  8
DEFAULT_1
 62
2
  6
CENTER
 10
26.461494737
 20
82.0496331579
 11
322.261494737
 21
82.0496331579
  0
LINE
  8
0
 62
7
  6
CONTINUOUS
 10
163.361494737
 20
84.6623781579
 11
159.961494737
 21
84.6623781579
  0
LINE
  8
0
 62
7
  6
CONTINUOUS
 10
137.961494737
 20
84.6623781579
 11
134.561494737
 21
84.6623781579
  0
LINE
  8
0
 62
7
  6
CONTINUOUS
 10
112.561494737
 20
84.6623781579
 11
109.161494737
 21
84.6623781579
  0
LINE
  8
0
 62
7
  6
CONTINUOUS
 10
87.161494737
 20
84.6623781579
 11
83.761494737
 21
84.6623781579
  0
LINE
  8
0
 62
7
  6
CONTINUOUS
 10
61.761494737
 20
84.6623781579
 11
58.361494737
 21
84.6623781579
  0
LINE
  8
0
 62
7
  6
CONTINUOUS
 10
36.361494737
 20
84.6623781579
 11
32.961494737
 21
84.6623781579
  0
LINE
  8
0
 62
7
  6
CONTINUOUS
 10
142.7821588916
 20
133.3096223485
 11
145.3926142217
 21
126.6451017567
  0
LINE
  8
0
 62
7
  6
CONTINUOUS
 10
146.4168456549
 20
127.0462874634
 11
146.3303752523
 21
127.2670473331
  0
LINE
  8
0
 62
7
  6
CONTINUOUS
 10
158.161494737
 20
102.6123781579
 11
158.161494737
 21
88.5448443134
  0
LINE
  8
0
 62
7
  6
CONTINUOUS
 10
158.961494737
 20
85.6623781579
 11
158.961494737
 21
87.1934545505
  0
LINE
  8
0
 62
7
  6
CONTINUOUS
 10
159.261494737
 20
88.5448443134
 11
159.261494737
 21
102.6123781579
  0
LINE
  8
0
 62
7
  6
CONTINUOUS
 10
164.061494737
 20
102.6123781579
 11
164.061494737
 21
88.5448443134
  0
LINE
  8
0
 62
7
  6
CONTINUOUS
 10
164.361494737
 20
87.1934545505
 11
164.361494737
 21
85.6623781579
  0
LINE
  8
0
 62
7
  6
CONTINUOUS
 10
165.161494737
 20
102.6123781579
 11
165.161494737
 21
88.5448443134
  0
LINE
  8
0
 62
7
  6
CONTINUOUS
 10
167.861494737
 20
81.4057234176
 11
167.861494737
 21
76.7123781579
  0
LINE
  8
0
 62
7
  6
CONTINUOUS
 10
168.161494737
 20
133.4190366322
 11
168.161494737
 21
138.1123781579
  0
LINE
  8
0
 62
7
  6
CONTINUOUS
 10
155.4821562618
 20
81.5151309871
 11
158.0926229878
 21
88.1801524152
  0
LINE
  8
0
 62
7
  6
CONTINUOUS
 10
159.0303664862
 20
87.5581464487
 11
159.1168640636
 21
87.7789913271
  0
LINE
  8
0
 62
7
  6
CONTINUOUS
 10
164.2061254104
 20
87.7789913271
 11
164.2926229878
 21
87.5581464487
  0
LINE
  8
0
 62
7
  6
CONTINUOUS
 10
167.8408332122
 20
81.5151309871
 11
165.2303664862
 21
88.1801524152
  0
LINE
  8
0
 62
7
  6
CONTINUOUS
 10
170.861494737
 20
126.2803874778
 11
170.861494737
 21
110.4879532996
  0
LINE
  8
0
 62
7
  6
CONTINUOUS
 10
171.661494737
 20
127.631761612
 11
171.661494737
 21
129.1623781579
  0
LINE
  8
0
 62
7
  6
CONTINUOUS
 10
171.961494737
 20
110.4879539817
 11
171.961494737
 21
126.2803874778
  0
LINE
  8
0
 62
7
  6
CONTINUOUS
 10
176.761494737
 20
126.2803874778
 11
176.761494737
 21
108.2123781579
  0
LINE
  8
0
 62
7
  6
CONTINUOUS
 10
177.061494737
 20
129.1623781579
 11
177.061494737
 21
127.631761612
  0
LINE
  8
0
 62
7
  6
CONTINUOUS
 10
177.861494737
 20
126.2803874778
 11
177.861494737
 21
110.4879532996
  0
LINE
  8
0
 62
7
  6
CONTINUOUS
 10
176.9926142217
 20
127.2670473331
 11
176.9061438191
 21
127.0462874634
  0
LINE
  8
0
 62
7
  6
CONTINUOUS
 10
177.9303752523
 20
126.6451017567
 11
180.5408305824
 21
133.3096223485
  0
POLYLINE
  8
0
 62
7
  6
CONTINUOUS
 66
1
 70
0
  0
VERTEX
  8
0
 62
7
  6
CONTINUOUS
 10
168.8614947208
 20
107.1242786162
  0
VERTEX
  8
0
 62
7
  6
CONTINUOUS
 10
168.9868856027
 20
107.1270838992
  0
VERTEX
  8
0
 62
7
  6
CONTINUOUS
 10
169.1060922513
 20
107.1349361292
  0
VERTEX
  8
0
 62
7
  6
CONTINUOUS
 10
169.2204243771
 20
107.1472197025
  0
VERTEX
  8
0
 62
7
  6
CONTINUOUS
 10
169.3312018713
 20
107.1636012167
  0
VERTEX
  8
0
 62
7
  6
CONTINUOUS
 10
169.4397638034
 20
107.1839969809
  0
VERTEX
  8
0
 62
7
  6
CONTINUOUS
 10
169.54725985
 20
107.2085104658
  0
VERTEX
  8
0
 62
7
  6
CONTINUOUS
 10
169.6537272619
 20
107.237143883
  0
VERTEX
  8
0
 62
7
  6
CONTINUOUS
 10
169.7588490029
 20
107.2697837917
  0
VERTEX
  8
0
 62
7
  6
CONTINUOUS
 10
169.8623098868
 20
107.3062618595
  0
VERTEX
  8
0
 62
7
  6
CONTINUOUS
 10
169.9639535786
 20
107.3464486555
  0
VERTEX
  8
0
 62
7
  6
CONTINUOUS
 10
170.0636543203
 20
107.3902058271
  0
VERTEX
  8
0
 62
7
  6
CONTINUOUS
 10
170.1613065276
 20
107.4374056289
  0
VERTEX
  8
0
 62
7
  6
CONTINUOUS
 10
170.2571700394
 20
107.4881174747
  0
VERTEX
  8
0
 62
7
  6
CONTINUOUS
 10
170.3513704123
 20
107.5423603259
  0
VERTEX
  8
0
 62
7
  6
CONTINUOUS
 10
170.44370031
 20
107.5999954399
  0
VERTEX
  8
0
 62
7
  6
CONTINUOUS
 10
170.5337670277
 20
107.6607484583
  0
VERTEX
  8
0
 62
7
  6
CONTINUOUS
 10
170.6210075121
 20
107.7241335443
  0
VERTEX
  8
0
 62
7
  6
CONTINUOUS
 10
170.7053120921
 20
107.7899199962
  0
VERTEX
  8
0
 62
7
  6
CONTINUOUS
 10
170.7868595988
 20
107.8581180038
  0
VERTEX
  8
0
 62
7
  6
CONTINUOUS
 10
170.8657107603
 20
107.9286706346
  0
VERTEX
  8
0
 62
7
  6
CONTINUOUS
 10
170.941848725
 20
108.0014566967
  0
VERTEX
  8
0
 62
7
  6
CONTINUOUS
 10
171.0153425303
 20
108.0764469782
  0
VERTEX
  8
0
 62
7
  6
CONTINUOUS
 10
171.0861852555
 20
108.1535235248
  0
VERTEX
  8
0
 62
7
  6
CONTINUOUS
 10
171.1541068707
 20
108.2322625871
  0
VERTEX
  8
0
 62
7
  6
CONTINUOUS
 10
171.2196293631
 20
108.3131714815
  0
VERTEX
  8
0
 62
7
  6
CONTINUOUS
 10
171.2843356288
 20
108.3983723099
  0
VERTEX
  8
0
 62
7
  6
CONTINUOUS
 10
171.3484910498
 20
108.4887533123
  0
VERTEX
  8
0
 62
7
  6
CONTINUOUS
 10
171.4110042557
 20
108.5833128966
  0
VERTEX
  8
0
 62
7
  6
CONTINUOUS
 10
171.4707911359
 20
108.6806917604
  0
VERTEX
  8
0
 62
7
  6
CONTINUOUS
 10
171.5269946264
 20
108.7794983678
  0
VERTEX
  8
0
 62
7
  6
CONTINUOUS
 10
171.5790565597
 20
108.8784617758
  0
VERTEX
  8
0
 62
7
  6
CONTINUOUS
 10
171.626612561
 20
108.9763109901
  0
VERTEX
  8
0
 62
7
  6
CONTINUOUS
 10
171.6694390894
 20
109.0717351378
  0
VERTEX
  8
0
 62
7
  6
CONTINUOUS
 10
171.7083252563
 20
109.1656265077
  0
VERTEX
  8
0
 62
7
  6
CONTINUOUS
 10
171.7445753941
 20
109.2606977026
  0
VERTEX
  8
0
 62
7
  6
CONTINUOUS
 10
171.7783404068
 20
109.3573862079
  0
VERTEX
  8
0
 62
7
  6
CONTINUOUS
 10
171.809328343
 20
109.4549370998
  0
VERTEX
  8
0
 62
7
  6
CONTINUOUS
 10
171.8374804486
 20
109.5531397551
  0
VERTEX
  8
0
 62
7
  6
CONTINUOUS
 10
171.8628012234
 20
109.6520675049
  0
VERTEX
  8
0
 62
7
  6
CONTINUOUS
 10
171.8852865149
 20
109.7517881508
  0
VERTEX
  8
0
 62
7
  6
CONTINUOUS
 10
171.9048966547
 20
109.8521651347
  0
VERTEX
  8
0
 62
7
  6
CONTINUOUS
 10
171.9215685842
 20
109.9528643954
  0
VERTEX
  8
0
 62
7
  6
CONTINUOUS
 10
171.9353413567
 20
110.0540390874
  0
VERTEX
  8
0
 62
7
  6
CONTINUOUS
 10
171.9463222714
 20
110.1568454345
  0
VERTEX
  8
0
 62
7
  6
CONTINUOUS
 10
171.9544902947
 20
110.2625618176
  0
VERTEX
  8
0
 62
7
  6
CONTINUOUS
 10
171.9596626462
 20
110.3724838614
  0
VERTEX
  8
0
 62
7
  6
CONTINUOUS
 10
171.961494737
 20
110.4879539817
  0
SEQEND
  0
POLYLINE
  8
0
 62
7
  6
CONTINUOUS
 66
1
 70
0
  0
VERTEX
  8
0
 62
7
  6
CONTINUOUS
 10
143.4614947208
 20
107.1242786162
  0
VERTEX
  8
0
 62
7
  6
CONTINUOUS
 10
143.5868856027
 20
107.1270838992
  0
VERTEX
  8
0
 62
7
  6
CONTINUOUS
 10
143.7060922513
 20
107.1349361292
  0
VERTEX
  8
0
 62
7
  6
CONTINUOUS
 10
143.8204243771
 20
107.1472197025
  0
VERTEX
  8
0
 62
7
  6
CONTINUOUS
 10
143.9312018713
 20
107.1636012167
  0
VERTEX
  8
0
 62
7
  6
CONTINUOUS
 10
144.0397638034
 20
107.1839969809
  0
VERTEX
  8
0
 62
7
  6
CONTINUOUS
 10
144.14725985
 20
107.2085104658
  0
VERTEX
  8
0
 62
7
  6
CONTINUOUS
 10
144.253727262
 20
107.237143883
  0
VERTEX
  8
0
 62
7
  6
CONTINUOUS
 10
144.3588490029
 20
107.2697837917
  0
VERTEX
  8
0
 62
7
  6
CONTINUOUS
 10
144.4623098869
 20
107.3062618595
  0
VERTEX
  8
0
 62
7
  6
CONTINUOUS
 10
144.5639535786
 20
107.3464486556
  0
VERTEX
  8
0
 62
7
  6
CONTINUOUS
 10
144.6636543203
 20
107.3902058271
  0
VERTEX
  8
0
 62
7
  6
CONTINUOUS
 10
144.7613065276
 20
107.4374056289
  0
VERTEX
  8
0
 62
7
  6
CONTINUOUS
 10
144.8571700394
 20
107.4881174747
  0
VERTEX
  8
0
 62
7
  6
CONTINUOUS
 10
144.9513704123
 20
107.542360326
  0
VERTEX
  8
0
 62
7
  6
CONTINUOUS
 10
145.04370031
 20
107.5999954399
  0
VERTEX
  8
0
 62
7
  6
CONTINUOUS
 10
145.1337670277
 20
107.6607484583
  0
VERTEX
  8
0
 62
7
  6
CONTINUOUS
 10
145.2210075121
 20
107.7241335443
  0
VERTEX
  8
0
 62
7
  6
CONTINUOUS
 10
145.3053120922
 20
107.7899199962
  0
VERTEX
  8
0
 62
7
  6
CONTINUOUS
 10
145.3868595989
 20
107.8581180038
  0
VERTEX
  8
0
 62
7
  6
CONTINUOUS
 10
145.4657107603
 20
107.9286706346
  0
VERTEX
  8
0
 62
7
  6
CONTINUOUS
 10
145.5418487251
 20
108.0014566967
  0
VERTEX
  8
0
 62
7
  6
CONTINUOUS
 10
145.6153425303
 20
108.0764469782
  0
VERTEX
  8
0
 62
7
  6
CONTINUOUS
 10
145.6861852555
 20
108.1535235248
  0
VERTEX
  8
0
 62
7
  6
CONTINUOUS
 10
145.7541068707
 20
108.2322625871
  0
VERTEX
  8
0
 62
7
  6
CONTINUOUS
 10
145.8196293632
 20
108.3131714816
  0
VERTEX
  8
0
 62
7
  6
CONTINUOUS
 10
145.8843356289
 20
108.39837231
  0
VERTEX
  8
0
 62
7
  6
CONTINUOUS
 10
145.9484910498
 20
108.4887533124
  0
VERTEX
  8
0
 62
7
  6
CONTINUOUS
 10
146.0110042558
 20
108.5833128967
  0
VERTEX
  8
0
 62
7
  6
CONTINUOUS
 10
146.0707911359
 20
108.6806917604
  0
VERTEX
  8
0
 62
7
  6
CONTINUOUS
 10
146.1269946265
 20
108.7794983678
  0
VERTEX
  8
0
 62
7
  6
CONTINUOUS
 10
146.1790565597
 20
108.8784617759
  0
VERTEX
  8
0
 62
7
  6
CONTINUOUS
 10
146.226612561
 20
108.9763109902
  0
VERTEX
  8
0
 62
7
  6
CONTINUOUS
 10
146.2694390894
 20
109.0717351379
  0
VERTEX
  8
0
 62
7
  6
CONTINUOUS
 10
146.3083252563
 20
109.1656265078
  0
VERTEX
  8
0
 62
7
  6
CONTINUOUS
 10
146.3445753941
 20
109.2606977027
  0
VERTEX
  8
0
 62
7
  6
CONTINUOUS
 10
146.3783404068
 20
109.357386208
  0
VERTEX
  8
0
 62
7
  6
CONTINUOUS
 10
146.409328343
 20
109.4549370999
  0
VERTEX
  8
0
 62
7
  6
CONTINUOUS
 10
146.4374804486
 20
109.5531397553
  0
VERTEX
  8
0
 62
7
  6
CONTINUOUS
 10
146.4628012234
 20
109.652067505
  0
VERTEX
  8
0
 62
7
  6
CONTINUOUS
 10
146.4852865149
 20
109.7517881509
  0
VERTEX
  8
0
 62
7
  6
CONTINUOUS
 10
146.5048966547
 20
109.8521651348
  0
VERTEX
  8
0
 62
7
  6
CONTINUOUS
 10
146.5215685842
 20
109.9528643955
  0
VERTEX
  8
0
 62
7
  6
CONTINUOUS
 10
146.5353413567
 20
110.0540390875
  0
VERTEX
  8
0
 62
7
  6
CONTINUOUS
 10
146.5463222715
 20
110.1568454346
  0
VERTEX
  8
0
 62
7
  6
CONTINUOUS
 10
146.5544902947
 20
110.2625618178
  0
VERTEX
  8
0
 62
7
  6
CONTINUOUS
 10
146.5596626462
 20
110.3724838616
  0
VERTEX
  8
0
 62
7
  6
CONTINUOUS
 10
146.561494737
 20
110.4879539819
  0
SEQEND
  0
POLYLINE
  8
0
 62
7
  6
CONTINUOUS
 66
1
 70
0
  0
VERTEX
  8
0
 62
7
  6
CONTINUOUS
 10
118.0614947208
 20
107.1242786162
  0
VERTEX
  8
0
 62
7
  6
CONTINUOUS
 10
118.1868856027
 20
107.1270838992
  0
VERTEX
  8
0
 62
7
  6
CONTINUOUS
 10
118.3060922513
 20
107.1349361292
  0
VERTEX
  8
0
 62
7
  6
CONTINUOUS
 10
118.4204243771
 20
107.1472197025
  0
VERTEX
  8
0
 62
7
  6
CONTINUOUS
 10
118.5312018713
 20
107.1636012167
  0
VERTEX
  8
0
 62
7
  6
CONTINUOUS
 10
118.6397638035
 20
107.1839969809
  0
VERTEX
  8
0
 62
7
  6
CONTINUOUS
 10
118.74725985
 20
107.2085104658
  0
VERTEX
  8
0
 62
7
  6
CONTINUOUS
 10
118.853727262
 20
107.237143883
  0
VERTEX
  8
0
 62
7
  6
CONTINUOUS
 10
118.9588490029
 20
107.2697837917
  0
VERTEX
  8
0
 62
7
  6
CONTINUOUS
 10
119.0623098869
 20
107.3062618596
  0
VERTEX
  8
0
 62
7
  6
CONTINUOUS
 10
119.1639535786
 20
107.3464486556
  0
VERTEX
  8
0
 62
7
  6
CONTINUOUS
 10
119.2636543203
 20
107.3902058271
  0
VERTEX
  8
0
 62
7
  6
CONTINUOUS
 10
119.3613065276
 20
107.4374056289
  0
VERTEX
  8
0
 62
7
  6
CONTINUOUS
 10
119.4571700394
 20
107.4881174747
  0
VERTEX
  8
0
 62
7
  6
CONTINUOUS
 10
119.5513704124
 20
107.542360326
  0
VERTEX
  8
0
 62
7
  6
CONTINUOUS
 10
119.6437003101
 20
107.5999954399
  0
VERTEX
  8
0
 62
7
  6
CONTINUOUS
 10
119.7337670277
 20
107.6607484584
  0
VERTEX
  8
0
 62
7
  6
CONTINUOUS
 10
119.8210075121
 20
107.7241335443
  0
VERTEX
  8
0
 62
7
  6
CONTINUOUS
 10
119.9053120922
 20
107.7899199963
  0
VERTEX
  8
0
 62
7
  6
CONTINUOUS
 10
119.9868595989
 20
107.8581180039
  0
VERTEX
  8
0
 62
7
  6
CONTINUOUS
 10
120.0657107604
 20
107.9286706346
  0
VERTEX
  8
0
 62
7
  6
CONTINUOUS
 10
120.1418487251
 20
108.0014566968
  0
VERTEX
  8
0
 62
7
  6
CONTINUOUS
 10
120.2153425304
 20
108.0764469783
  0
VERTEX
  8
0
 62
7
  6
CONTINUOUS
 10
120.2861852556
 20
108.1535235249
  0
VERTEX
  8
0
 62
7
  6
CONTINUOUS
 10
120.3541068708
 20
108.2322625872
  0
VERTEX
  8
0
 62
7
  6
CONTINUOUS
 10
120.4196293632
 20
108.3131714817
  0
VERTEX
  8
0
 62
7
  6
CONTINUOUS
 10
120.4843356289
 20
108.39837231
  0
VERTEX
  8
0
 62
7
  6
CONTINUOUS
 10
120.5484910498
 20
108.4887533125
  0
VERTEX
  8
0
 62
7
  6
CONTINUOUS
 10
120.6110042558
 20
108.5833128968
  0
VERTEX
  8
0
 62
7
  6
CONTINUOUS
 10
120.670791136
 20
108.6806917605
  0
VERTEX
  8
0
 62
7
  6
CONTINUOUS
 10
120.7269946265
 20
108.7794983679
  0
VERTEX
  8
0
 62
7
  6
CONTINUOUS
 10
120.7790565598
 20
108.878461776
  0
VERTEX
  8
0
 62
7
  6
CONTINUOUS
 10
120.826612561
 20
108.9763109903
  0
VERTEX
  8
0
 62
7
  6
CONTINUOUS
 10
120.8694390895
 20
109.071735138
  0
VERTEX
  8
0
 62
7
  6
CONTINUOUS
 10
120.9083252564
 20
109.1656265078
  0
VERTEX
  8
0
 62
7
  6
CONTINUOUS
 10
120.9445753942
 20
109.2606977028
  0
VERTEX
  8
0
 62
7
  6
CONTINUOUS
 10
120.9783404068
 20
109.3573862081
  0
VERTEX
  8
0
 62
7
  6
CONTINUOUS
 10
121.009328343
 20
109.4549371
  0
VERTEX
  8
0
 62
7
  6
CONTINUOUS
 10
121.0374804486
 20
109.5531397553
  0
VERTEX
  8
0
 62
7
  6
CONTINUOUS
 10
121.0628012235
 20
109.6520675051
  0
VERTEX
  8
0
 62
7
  6
CONTINUOUS
 10
121.085286515
 20
109.751788151
  0
VERTEX
  8
0
 62
7
  6
CONTINUOUS
 10
121.1048966547
 20
109.8521651349
  0
VERTEX
  8
0
 62
7
  6
CONTINUOUS
 10
121.1215685842
 20
109.9528643956
  0
VERTEX
  8
0
 62
7
  6
CONTINUOUS
 10
121.1353413567
 20
110.0540390876
  0
VERTEX
  8
0
 62
7
  6
CONTINUOUS
 10
121.1463222715
 20
110.1568454347
  0
VERTEX
  8
0
 62
7
  6
CONTINUOUS
 10
121.1544902947
 20
110.2625618179
  0
VERTEX
  8
0
 62
7
  6
CONTINUOUS
 10
121.1596626462
 20
110.3724838617
  0
VERTEX
  8
0
 62
7
  6
CONTINUOUS
 10
121.161494737
 20
110.487953982
  0
SEQEND
  0
LINE
  8
0
 62
7
  6
CONTINUOUS
 10
332.561494737
 20
104.6123781579
 11
319.561494737
 21
104.6123781579
  0
LINE
  8
0
 62
7
  6
CONTINUOUS
 10
308.561494737
 20
104.6123781579
 11
294.161494737
 21
104.6123781579
  0
LINE
  8
0
 62
7
  6
CONTINUOUS
 10
283.161494737
 20
104.6123781579
 11
268.761494737
 21
104.6123781579
  0
LINE
  8
0
 62
7
  6
CONTINUOUS
 10
257.761494737
 20
104.6123781579
 11
243.361494737
 21
104.6123781579
  0
LINE
  8
0
 62
7
  6
CONTINUOUS
 10
232.361494737
 20
104.6123781579
 11
217.961494737
 21
104.6123781579
  0
LINE
  8
0
 62
7
  6
CONTINUOUS
 10
206.961494737
 20
104.6123781579
 11
192.561494737
 21
104.6123781579
  0
LINE
  8
0
 62
7
  6
CONTINUOUS
 10
181.561494737
 20
104.6123781579
 11
167.161494737
 21
104.6123781579
  0
LINE
  8
0
 62
7
  6
CONTINUOUS
 10
156.161494737
 20
104.6123781579
 11
141.761494737
 21
104.6123781579
  0
LINE
  8
0
 62
7
  6
CONTINUOUS
 10
130.761494737
 20
104.6123781579
 11
116.361494737
 21
104.6123781579
  0
LINE
  8
0
 62
7
  6
CONTINUOUS
 10
105.361494737
 20
104.6123781579
 11
90.961494737
 21
104.6123781579
  0
LINE
  8
0
 62
7
  6
CONTINUOUS
 10
79.961494737
 20
104.6123781579
 11
65.561494737
 21
104.6123781579
  0
LINE
  8
0
 62
7
  6
CONTINUOUS
 10
54.561494737
 20
104.6123781579
 11
40.161494737
 21
104.6123781579
  0
LINE
  8
0
 62
7
  6
CONTINUOUS
 10
28.861494737
 20
104.6123781579
 11
30.861494737
 21
104.6123781579
  0
LINE
  8
0
 62
7
  6
CONTINUOUS
 10
174.261494737
 20
105.7123781579
 11
167.161494737
 21
105.7123781579
  0
LINE
  8
0
 62
7
  6
CONTINUOUS
 10
156.161494737
 20
105.7123781579
 11
141.761494737
 21
105.7123781579
  0
LINE
  8
0
 62
7
  6
CONTINUOUS
 10
130.761494737
 20
105.7123781579
 11
116.361494737
 21
105.7123781579
  0
LINE
  8
0
 62
7
  6
CONTINUOUS
 10
105.361494737
 20
105.7123781579
 11
90.961494737
 21
105.7123781579
  0
LINE
  8
0
 62
7
  6
CONTINUOUS
 10
79.961494737
 20
105.7123781579
 11
65.561494737
 21
105.7123781579
  0
LINE
  8
0
 62
7
  6
CONTINUOUS
 10
54.561494737
 20
105.7123781579
 11
40.161494737
 21
105.7123781579
  0
LINE
  8
0
 62
7
  6
CONTINUOUS
 10
34.7615319665
 20
107.1242786162
 11
41.8614947208
 21
107.1242786162
  0
LINE
  8
0
 62
7
  6
CONTINUOUS
 10
52.8614948254
 20
107.1242786162
 11
67.2614947208
 21
107.1242786162
  0
LINE
  8
0
 62
7
  6
CONTINUOUS
 10
78.2614948254
 20
107.1242786162
 11
92.6614947208
 21
107.1242786162
  0
LINE
  8
0
 62
7
  6
CONTINUOUS
 10
103.6614948254
 20
107.1242786162
 11
118.0614947208
 21
107.1242786162
  0
LINE
  8
0
 62
7
  6
CONTINUOUS
 10
129.0614948254
 20
107.1242786162
 11
143.4614947208
 21
107.1242786162
  0
LINE
  8
0
 62
7
  6
CONTINUOUS
 10
154.4614948254
 20
107.1242786162
 11
168.8614947208
 21
107.1242786162
  0
LINE
  8
DEFAULT_1
 62
2
  6
CENTER
 10
185.961494737
 20
107.4123781579
 11
182.711594737
 21
107.4123781579
  0
LINE
  8
0
 62
2
  6
CONTINUOUS
 10
181.761494737
 20
107.4123781579
 11
179.661494737
 21
107.4123781579
  0
LINE
  8
DEFAULT_1
 62
2
  6
CENTER
 10
175.461494737
 20
107.4123781579
 11
178.711394737
 21
107.4123781579
  0
LINE
  8
0
 62
7
  6
CONTINUOUS
 10
330.3637776607
 20
108.1023781509
 11
332.561494737
 21
108.1023781579
  0
LINE
  8
0
 62
7
  6
CONTINUOUS
 10
168.1821588916
 20
133.3096223485
 11
170.7926142217
 21
126.6451017567
  0
LINE
  8
0
 62
7
  6
CONTINUOUS
 10
180.561494737
 20
138.1123781579
 11
180.561494737
 21
133.4190366322
  0
LINE
  8
DEFAULT_1
 62
2
  6
CENTER
 10
180.711494737
 20
112.6623781579
 11
180.711494737
 21
109.4124781579
  0
LINE
  8
0
 62
2
  6
CONTINUOUS
 10
180.711494737
 20
108.4623781579
 11
180.711494737
 21
106.3623781579
  0
LINE
  8
DEFAULT_1
 62
2
  6
CENTER
 10
180.711494737
 20
102.1623781579
 11
180.711494737
 21
105.4122781579
  0
LINE
  8
0
 62
7
  6
CONTINUOUS
 10
180.861494737
 20
76.7123781579
 11
180.861494737
 21
81.4057234176
  0
LINE
  8
0
 62
7
  6
CONTINUOUS
 10
183.561494737
 20
102.6123781579
 11
183.561494737
 21
88.5448443134
  0
POLYLINE
  8
0
 62
7
  6
CONTINUOUS
 66
1
 70
0
  0
VERTEX
  8
0
 62
7
  6
CONTINUOUS
 10
92.6614947208
 20
107.1242786162
  0
VERTEX
  8
0
 62
7
  6
CONTINUOUS
 10
92.7868856027
 20
107.1270838992
  0
VERTEX
  8
0
 62
7
  6
CONTINUOUS
 10
92.9060922513
 20
107.1349361292
  0
VERTEX
  8
0
 62
7
  6
CONTINUOUS
 10
93.0204243771
 20
107.1472197025
  0
VERTEX
  8
0
 62
7
  6
CONTINUOUS
 10
93.1312018713
 20
107.1636012167
  0
VERTEX
  8
0
 62
7
  6
CONTINUOUS
 10
93.2397638034
 20
107.1839969809
  0
VERTEX
  8
0
 62
7
  6
CONTINUOUS
 10
93.34725985
 20
107.2085104658
  0
VERTEX
  8
0
 62
7
  6
CONTINUOUS
 10
93.453727262
 20
107.237143883
  0
VERTEX
  8
0
 62
7
  6
CONTINUOUS
 10
93.5588490029
 20
107.2697837917
  0
VERTEX
  8
0
 62
7
  6
CONTINUOUS
 10
93.6623098869
 20
107.3062618595
  0
VERTEX
  8
0
 62
7
  6
CONTINUOUS
 10
93.7639535786
 20
107.3464486556
  0
VERTEX
  8
0
 62
7
  6
CONTINUOUS
 10
93.8636543203
 20
107.3902058271
  0
VERTEX
  8
0
 62
7
  6
CONTINUOUS
 10
93.9613065276
 20
107.4374056289
  0
VERTEX
  8
0
 62
7
  6
CONTINUOUS
 10
94.0571700394
 20
107.4881174747
  0
VERTEX
  8
0
 62
7
  6
CONTINUOUS
 10
94.1513704123
 20
107.542360326
  0
VERTEX
  8
0
 62
7
  6
CONTINUOUS
 10
94.24370031
 20
107.5999954399
  0
VERTEX
  8
0
 62
7
  6
CONTINUOUS
 10
94.3337670277
 20
107.6607484583
  0
VERTEX
  8
0
 62
7
  6
CONTINUOUS
 10
94.4210075121
 20
107.7241335443
  0
VERTEX
  8
0
 62
7
  6
CONTINUOUS
 10
94.5053120922
 20
107.7899199962
  0
VERTEX
  8
0
 62
7
  6
CONTINUOUS
 10
94.5868595989
 20
107.8581180038
  0
VERTEX
  8
0
 62
7
  6
CONTINUOUS
 10
94.6657107603
 20
107.9286706346
  0
VERTEX
  8
0
 62
7
  6
CONTINUOUS
 10
94.7418487251
 20
108.0014566967
  0
VERTEX
  8
0
 62
7
  6
CONTINUOUS
 10
94.8153425303
 20
108.0764469782
  0
VERTEX
  8
0
 62
7
  6
CONTINUOUS
 10
94.8861852555
 20
108.1535235248
  0
VERTEX
  8
0
 62
7
  6
CONTINUOUS
 10
94.9541068707
 20
108.2322625871
  0
VERTEX
  8
0
 62
7
  6
CONTINUOUS
 10
95.0196293632
 20
108.3131714816
  0
VERTEX
  8
0
 62
7
  6
CONTINUOUS
 10
95.0843356289
 20
108.39837231
  0
VERTEX
  8
0
 62
7
  6
CONTINUOUS
 10
95.1484910498
 20
108.4887533124
  0
VERTEX
  8
0
 62
7
  6
CONTINUOUS
 10
95.2110042558
 20
108.5833128967
  0
VERTEX
  8
0
 62
7
  6
CONTINUOUS
 10
95.2707911359
 20
108.6806917604
  0
VERTEX
  8
0
 62
7
  6
CONTINUOUS
 10
95.3269946265
 20
108.7794983678
  0
VERTEX
  8
0
 62
7
  6
CONTINUOUS
 10
95.3790565597
 20
108.8784617759
  0
VERTEX
  8
0
 62
7
  6
CONTINUOUS
 10
95.426612561
 20
108.9763109902
  0
VERTEX
  8
0
 62
7
  6
CONTINUOUS
 10
95.4694390894
 20
109.0717351379
  0
VERTEX
  8
0
 62
7
  6
CONTINUOUS
 10
95.5083252563
 20
109.1656265078
  0
VERTEX
  8
0
 62
7
  6
CONTINUOUS
 10
95.5445753941
 20
109.2606977027
  0
VERTEX
  8
0
 62
7
  6
CONTINUOUS
 10
95.5783404068
 20
109.357386208
  0
VERTEX
  8
0
 62
7
  6
CONTINUOUS
 10
95.609328343
 20
109.4549370999
  0
VERTEX
  8
0
 62
7
  6
CONTINUOUS
 10
95.6374804486
 20
109.5531397553
  0
VERTEX
  8
0
 62
7
  6
CONTINUOUS
 10
95.6628012234
 20
109.652067505
  0
VERTEX
  8
0
 62
7
  6
CONTINUOUS
 10
95.6852865149
 20
109.7517881509
  0
VERTEX
  8
0
 62
7
  6
CONTINUOUS
 10
95.7048966547
 20
109.8521651348
  0
VERTEX
  8
0
 62
7
  6
CONTINUOUS
 10
95.7215685842
 20
109.9528643955
  0
VERTEX
  8
0
 62
7
  6
CONTINUOUS
 10
95.7353413567
 20
110.0540390875
  0
VERTEX
  8
0
 62
7
  6
CONTINUOUS
 10
95.7463222715
 20
110.1568454346
  0
VERTEX
  8
0
 62
7
  6
CONTINUOUS
 10
95.7544902947
 20
110.2625618178
  0
VERTEX
  8
0
 62
7
  6
CONTINUOUS
 10
95.7596626462
 20
110.3724838616
  0
VERTEX
  8
0
 62
7
  6
CONTINUOUS
 10
95.761494737
 20
110.4879539819
  0
SEQEND
  0
POLYLINE
  8
0
 62
7
  6
CONTINUOUS
 66
1
 70
0
  0
VERTEX
  8
0
 62
7
  6
CONTINUOUS
 10
67.2614947208
 20
107.1242786162
  0
VERTEX
  8
0
 62
7
  6
CONTINUOUS
 10
67.3868856027
 20
107.1270838992
  0
VERTEX
  8
0
 62
7
  6
CONTINUOUS
 10
67.5060922513
 20
107.1349361292
  0
VERTEX
  8
0
 62
7
  6
CONTINUOUS
 10
67.6204243771
 20
107.1472197025
  0
VERTEX
  8
0
 62
7
  6
CONTINUOUS
 10
67.7312018713
 20
107.1636012167
  0
VERTEX
  8
0
 62
7
  6
CONTINUOUS
 10
67.8397638035
 20
107.1839969809
  0
VERTEX
  8
0
 62
7
  6
CONTINUOUS
 10
67.94725985
 20
107.2085104658
  0
VERTEX
  8
0
 62
7
  6
CONTINUOUS
 10
68.053727262
 20
107.237143883
  0
VERTEX
  8
0
 62
7
  6
CONTINUOUS
 10
68.1588490029
 20
107.2697837917
  0
VERTEX
  8
0
 62
7
  6
CONTINUOUS
 10
68.2623098869
 20
107.3062618595
  0
VERTEX
  8
0
 62
7
  6
CONTINUOUS
 10
68.3639535786
 20
107.3464486556
  0
VERTEX
  8
0
 62
7
  6
CONTINUOUS
 10
68.4636543203
 20
107.3902058271
  0
VERTEX
  8
0
 62
7
  6
CONTINUOUS
 10
68.5613065276
 20
107.4374056289
  0
VERTEX
  8
0
 62
7
  6
CONTINUOUS
 10
68.6571700394
 20
107.4881174747
  0
VERTEX
  8
0
 62
7
  6
CONTINUOUS
 10
68.7513704123
 20
107.542360326
  0
VERTEX
  8
0
 62
7
  6
CONTINUOUS
 10
68.8437003101
 20
107.5999954399
  0
VERTEX
  8
0
 62
7
  6
CONTINUOUS
 10
68.9337670277
 20
107.6607484583
  0
VERTEX
  8
0
 62
7
  6
CONTINUOUS
 10
69.0210075121
 20
107.7241335443
  0
VERTEX
  8
0
 62
7
  6
CONTINUOUS
 10
69.1053120922
 20
107.7899199963
  0
VERTEX
  8
0
 62
7
  6
CONTINUOUS
 10
69.1868595989
 20
107.8581180038
  0
VERTEX
  8
0
 62
7
  6
CONTINUOUS
 10
69.2657107603
 20
107.9286706346
  0
VERTEX
  8
0
 62
7
  6
CONTINUOUS
 10
69.3418487251
 20
108.0014566967
  0
VERTEX
  8
0
 62
7
  6
CONTINUOUS
 10
69.4153425303
 20
108.0764469782
  0
VERTEX
  8
0
 62
7
  6
CONTINUOUS
 10
69.4861852555
 20
108.1535235248
  0
VERTEX
  8
0
 62
7
  6
CONTINUOUS
 10
69.5541068707
 20
108.2322625871
  0
VERTEX
  8
0
 62
7
  6
CONTINUOUS
 10
69.6196293632
 20
108.3131714816
  0
VERTEX
  8
0
 62
7
  6
CONTINUOUS
 10
69.6843356289
 20
108.39837231
  0
VERTEX
  8
0
 62
7
  6
CONTINUOUS
 10
69.7484910498
 20
108.4887533124
  0
VERTEX
  8
0
 62
7
  6
CONTINUOUS
 10
69.8110042558
 20
108.5833128967
  0
VERTEX
  8
0
 62
7
  6
CONTINUOUS
 10
69.8707911359
 20
108.6806917604
  0
VERTEX
  8
0
 62
7
  6
CONTINUOUS
 10
69.9269946265
 20
108.7794983678
  0
VERTEX
  8
0
 62
7
  6
CONTINUOUS
 10
69.9790565597
 20
108.8784617759
  0
VERTEX
  8
0
 62
7
  6
CONTINUOUS
 10
70.026612561
 20
108.9763109903
  0
VERTEX
  8
0
 62
7
  6
CONTINUOUS
 10
70.0694390894
 20
109.0717351379
  0
VERTEX
  8
0
 62
7
  6
CONTINUOUS
 10
70.1083252563
 20
109.1656265078
  0
VERTEX
  8
0
 62
7
  6
CONTINUOUS
 10
70.1445753941
 20
109.2606977027
  0
VERTEX
  8
0
 62
7
  6
CONTINUOUS
 10
70.1783404068
 20
109.357386208
  0
VERTEX
  8
0
 62
7
  6
CONTINUOUS
 10
70.209328343
 20
109.4549370999
  0
VERTEX
  8
0
 62
7
  6
CONTINUOUS
 10
70.2374804486
 20
109.5531397553
  0
VERTEX
  8
0
 62
7
  6
CONTINUOUS
 10
70.2628012235
 20
109.652067505
  0
VERTEX
  8
0
 62
7
  6
CONTINUOUS
 10
70.2852865149
 20
109.751788151
  0
VERTEX
  8
0
 62
7
  6
CONTINUOUS
 10
70.3048966547
 20
109.8521651348
  0
VERTEX
  8
0
 62
7
  6
CONTINUOUS
 10
70.3215685842
 20
109.9528643956
  0
VERTEX
  8
0
 62
7
  6
CONTINUOUS
 10
70.3353413567
 20
110.0540390875
  0
VERTEX
  8
0
 62
7
  6
CONTINUOUS
 10
70.3463222715
 20
110.1568454346
  0
VERTEX
  8
0
 62
7
  6
CONTINUOUS
 10
70.3544902947
 20
110.2625618178
  0
VERTEX
  8
0
 62
7
  6
CONTINUOUS
 10
70.3596626462
 20
110.3724838616
  0
VERTEX
  8
0
 62
7
  6
CONTINUOUS
 10
70.361494737
 20
110.4879539819
  0
SEQEND
  0
POLYLINE
  8
0
 62
7
  6
CONTINUOUS
 66
1
 70
0
  0
VERTEX
  8
0
 62
7
  6
CONTINUOUS
 10
41.8614947208
 20
107.1242786162
  0
VERTEX
  8
0
 62
7
  6
CONTINUOUS
 10
41.9868856027
 20
107.1270838992
  0
VERTEX
  8
0
 62
7
  6
CONTINUOUS
 10
42.1060922513
 20
107.1349361292
  0
VERTEX
  8
0
 62
7
  6
CONTINUOUS
 10
42.2204243771
 20
107.1472197025
  0
VERTEX
  8
0
 62
7
  6
CONTINUOUS
 10
42.3312018713
 20
107.1636012167
  0
VERTEX
  8
0
 62
7
  6
CONTINUOUS
 10
42.4397638035
 20
107.1839969809
  0
VERTEX
  8
0
 62
7
  6
CONTINUOUS
 10
42.54725985
 20
107.2085104658
  0
VERTEX
  8
0
 62
7
  6
CONTINUOUS
 10
42.653727262
 20
107.237143883
  0
VERTEX
  8
0
 62
7
  6
CONTINUOUS
 10
42.7588490029
 20
107.2697837917
  0
VERTEX
  8
0
 62
7
  6
CONTINUOUS
 10
42.8623098869
 20
107.3062618595
  0
VERTEX
  8
0
 62
7
  6
CONTINUOUS
 10
42.9639535786
 20
107.3464486556
  0
VERTEX
  8
0
 62
7
  6
CONTINUOUS
 10
43.0636543203
 20
107.3902058271
  0
VERTEX
  8
0
 62
7
  6
CONTINUOUS
 10
43.1613065276
 20
107.4374056289
  0
VERTEX
  8
0
 62
7
  6
CONTINUOUS
 10
43.2571700394
 20
107.4881174747
  0
VERTEX
  8
0
 62
7
  6
CONTINUOUS
 10
43.3513704124
 20
107.542360326
  0
VERTEX
  8
0
 62
7
  6
CONTINUOUS
 10
43.4437003101
 20
107.5999954399
  0
VERTEX
  8
0
 62
7
  6
CONTINUOUS
 10
43.5337670277
 20
107.6607484583
  0
VERTEX
  8
0
 62
7
  6
CONTINUOUS
 10
43.6210075121
 20
107.7241335443
  0
VERTEX
  8
0
 62
7
  6
CONTINUOUS
 10
43.7053120922
 20
107.7899199963
  0
VERTEX
  8
0
 62
7
  6
CONTINUOUS
 10
43.7868595989
 20
107.8581180039
  0
VERTEX
  8
0
 62
7
  6
CONTINUOUS
 10
43.8657107604
 20
107.9286706346
  0
VERTEX
  8
0
 62
7
  6
CONTINUOUS
 10
43.9418487251
 20
108.0014566968
  0
VERTEX
  8
0
 62
7
  6
CONTINUOUS
 10
44.0153425303
 20
108.0764469783
  0
VERTEX
  8
0
 62
7
  6
CONTINUOUS
 10
44.0861852556
 20
108.1535235248
  0
VERTEX
  8
0
 62
7
  6
CONTINUOUS
 10
44.1541068708
 20
108.2322625871
  0
VERTEX
  8
0
 62
7
  6
CONTINUOUS
 10
44.2196293632
 20
108.3131714816
  0
VERTEX
  8
0
 62
7
  6
CONTINUOUS
 10
44.2843356289
 20
108.39837231
  0
VERTEX
  8
0
 62
7
  6
CONTINUOUS
 10
44.3484910498
 20
108.4887533124
  0
VERTEX
  8
0
 62
7
  6
CONTINUOUS
 10
44.4110042558
 20
108.5833128967
  0
VERTEX
  8
0
 62
7
  6
CONTINUOUS
 10
44.470791136
 20
108.6806917605
  0
VERTEX
  8
0
 62
7
  6
CONTINUOUS
 10
44.5269946265
 20
108.7794983679
  0
VERTEX
  8
0
 62
7
  6
CONTINUOUS
 10
44.5790565597
 20
108.8784617759
  0
VERTEX
  8
0
 62
7
  6
CONTINUOUS
 10
44.626612561
 20
108.9763109903
  0
VERTEX
  8
0
 62
7
  6
CONTINUOUS
 10
44.6694390895
 20
109.071735138
  0
VERTEX
  8
0
 62
7
  6
CONTINUOUS
 10
44.7083252564
 20
109.1656265078
  0
VERTEX
  8
0
 62
7
  6
CONTINUOUS
 10
44.7445753942
 20
109.2606977027
  0
VERTEX
  8
0
 62
7
  6
CONTINUOUS
 10
44.7783404068
 20
109.357386208
  0
VERTEX
  8
0
 62
7
  6
CONTINUOUS
 10
44.809328343
 20
109.4549370999
  0
VERTEX
  8
0
 62
7
  6
CONTINUOUS
 10
44.8374804486
 20
109.5531397553
  0
VERTEX
  8
0
 62
7
  6
CONTINUOUS
 10
44.8628012235
 20
109.652067505
  0
VERTEX
  8
0
 62
7
  6
CONTINUOUS
 10
44.885286515
 20
109.751788151
  0
VERTEX
  8
0
 62
7
  6
CONTINUOUS
 10
44.9048966547
 20
109.8521651349
  0
VERTEX
  8
0
 62
7
  6
CONTINUOUS
 10
44.9215685842
 20
109.9528643956
  0
VERTEX
  8
0
 62
7
  6
CONTINUOUS
 10
44.9353413567
 20
110.0540390876
  0
VERTEX
  8
0
 62
7
  6
CONTINUOUS
 10
44.9463222715
 20
110.1568454346
  0
VERTEX
  8
0
 62
7
  6
CONTINUOUS
 10
44.9544902947
 20
110.2625618178
  0
VERTEX
  8
0
 62
7
  6
CONTINUOUS
 10
44.9596626462
 20
110.3724838616
  0
VERTEX
  8
0
 62
7
  6
CONTINUOUS
 10
44.961494737
 20
110.487953982
  0
SEQEND
  0
LINE
  8
0
 62
7
  6
CONTINUOUS
 10
321.261494737
 20
110.0377181916
 11
306.861494737
 21
110.0377181916
  0
LINE
  8
0
 62
7
  6
CONTINUOUS
 10
295.861494737
 20
110.0377181916
 11
281.461494737
 21
110.0377181916
  0
LINE
  8
0
 62
7
  6
CONTINUOUS
 10
270.461494737
 20
110.0377181916
 11
256.061494737
 21
110.0377181916
  0
LINE
  8
0
 62
7
  6
CONTINUOUS
 10
245.061494737
 20
110.0377181916
 11
230.661494737
 21
110.0377181916
  0
LINE
  8
0
 62
7
  6
CONTINUOUS
 10
219.661494737
 20
110.0377181916
 11
205.261494737
 21
110.0377181916
  0
LINE
  8
0
 62
7
  6
CONTINUOUS
 10
194.261494737
 20
110.0377181916
 11
179.861494737
 21
110.0377181916
  0
LINE
  8
0
 62
7
  6
CONTINUOUS
 10
168.861494737
 20
110.0377181916
 11
154.461494737
 21
110.0377181916
  0
LINE
  8
0
 62
7
  6
CONTINUOUS
 10
143.461494737
 20
110.0377181916
 11
129.061494737
 21
110.0377181916
  0
LINE
  8
0
 62
7
  6
CONTINUOUS
 10
118.061494737
 20
110.0377181916
 11
103.661494737
 21
110.0377181916
  0
LINE
  8
0
 62
7
  6
CONTINUOUS
 10
92.661494737
 20
110.0377181916
 11
78.261494737
 21
110.0377181916
  0
LINE
  8
0
 62
7
  6
CONTINUOUS
 10
67.261494737
 20
110.0377181916
 11
52.861494737
 21
110.0377181916
  0
LINE
  8
0
 62
7
  6
CONTINUOUS
 10
41.861494737
 20
110.0377181916
 11
28.861494737
 21
110.0377181916
  0
LINE
  8
0
 62
7
  6
CONTINUOUS
 10
330.561494737
 20
110.0377181916
 11
332.561494737
 21
110.0377181916
  0
POLYLINE
  8
0
 62
7
  6
CONTINUOUS
 66
1
 70
0
  0
VERTEX
  8
0
 62
7
  6
CONTINUOUS
 10
332.561494737
 20
108.1023781579
  0
VERTEX
  8
0
 62
7
  6
CONTINUOUS
 10
332.5864760994
 20
108.101763651
  0
VERTEX
  8
0
 62
7
  6
CONTINUOUS
 10
332.6109758677
 20
108.0999547188
  0
VERTEX
  8
0
 62
7
  6
CONTINUOUS
 10
332.6348455552
 20
108.0970070116
  0
VERTEX
  8
0
 62
7
  6
CONTINUOUS
 10
332.6579500316
 20
108.0929805356
  0
VERTEX
  8
0
 62
7
  6
CONTINUOUS
 10
332.6801678428
 20
108.0879387609
  0
VERTEX
  8
0
 62
7
  6
CONTINUOUS
 10
332.7013911623
 20
108.0819477278
  0
VERTEX
  8
0
 62
7
  6
CONTINUOUS
 10
332.7215254401
 20
108.0750752101
  0
VERTEX
  8
0
 62
7
  6
CONTINUOUS
 10
332.7404887117
 20
108.067390019
  0
VERTEX
  8
0
 62
7
  6
CONTINUOUS
 10
332.7582109076
 20
108.0589613888
  0
VERTEX
  8
0
 62
7
  6
CONTINUOUS
 10
332.7746329992
 20
108.049858517
  0
VERTEX
  8
0
 62
7
  6
CONTINUOUS
 10
332.7897061626
 20
108.0401502187
  0
VERTEX
  8
0
 62
7
  6
CONTINUOUS
 10
332.8033909993
 20
108.0299046755
  0
VERTEX
  8
0
 62
7
  6
CONTINUOUS
 10
332.8156568379
 20
108.0191892551
  0
VERTEX
  8
0
 62
7
  6
CONTINUOUS
 10
332.8264811267
 20
108.0080703808
  0
VERTEX
  8
0
 62
7
  6
CONTINUOUS
 10
332.8358489186
 20
107.9966134317
  0
VERTEX
  8
0
 62
7
  6
CONTINUOUS
 10
332.8437524401
 20
107.9848826543
  0
VERTEX
  8
0
 62
7
  6
CONTINUOUS
 10
332.8501907284
 20
107.972941082
  0
VERTEX
  8
0
 62
7
  6
CONTINUOUS
 10
332.8551693353
 20
107.9608504248
  0
VERTEX
  8
0
 62
7
  6
CONTINUOUS
 10
332.858700056
 20
107.9486709549
  0
VERTEX
  8
0
 62
7
  6
CONTINUOUS
 10
332.8608006797
 20
107.9364613674
  0
VERTEX
  8
0
 62
7
  6
CONTINUOUS
 10
332.861494737
 20
107.9242786162
  0
SEQEND
  0
POLYLINE
  8
0
 62
7
  6
CONTINUOUS
 66
1
 70
0
  0
VERTEX
  8
0
 62
7
  6
CONTINUOUS
 10
330.3637776607
 20
108.1023781509
  0
VERTEX
  8
0
 62
7
  6
CONTINUOUS
 10
330.3176778277
 20
108.1044383667
  0
VERTEX
  8
0
 62
7
  6
CONTINUOUS
 10
330.2712787454
 20
108.1106705065
  0
VERTEX
  8
0
 62
7
  6
CONTINUOUS
 10
330.2249502074
 20
108.1211298811
  0
VERTEX
  8
0
 62
7
  6
CONTINUOUS
 10
330.1791051088
 20
108.1358259789
  0
VERTEX
  8
0
 62
7
  6
CONTINUOUS
 10
330.1338187143
 20
108.1548771016
  0
VERTEX
  8
0
 62
7
  6
CONTINUOUS
 10
330.0895504644
 20
108.1782623158
  0
VERTEX
  8
0
 62
7
  6
CONTINUOUS
 10
330.0466531082
 20
108.2059369428
  0
VERTEX
  8
0
 62
7
  6
CONTINUOUS
 10
330.0044170265
 20
108.2386443045
  0
VERTEX
  8
0
 62
7
  6
CONTINUOUS
 10
329.9614978864
 20
108.2781665214
  0
SEQEND
  0
LINE
  8
0
 62
7
  6
CONTINUOUS
 10
171.8168456549
 20
127.0462874634
 11
171.7303752523
 21
127.2670473331
  0
LINE
  8
0
 62
7
  6
CONTINUOUS
 10
193.2408332122
 20
81.5151309871
 11
190.6303664862
 21
88.1801524152
  0
LINE
  8
0
 62
7
  6
CONTINUOUS
 10
190.561494737
 20
102.6123781579
 11
190.561494737
 21
88.5448443134
  0
LINE
  8
0
 62
7
  6
CONTINUOUS
 10
193.261494737
 20
81.4057234176
 11
193.261494737
 21
76.7123781579
  0
LINE
  8
0
 62
7
  6
CONTINUOUS
 10
193.561494737
 20
133.4190366322
 11
193.561494737
 21
138.1123781579
  0
LINE
  8
0
 62
7
  6
CONTINUOUS
 10
196.261494737
 20
126.2803874778
 11
196.261494737
 21
110.4879532996
  0
LINE
  8
0
 62
7
  6
CONTINUOUS
 10
180.8821562618
 20
81.5151309871
 11
183.4926229878
 21
88.1801524152
  0
LINE
  8
0
 62
7
  6
CONTINUOUS
 10
203.3303752523
 20
126.6451017567
 11
205.9408305824
 21
133.3096223485
  0
LINE
  8
DEFAULT_1
 62
2
  6
CENTER
 10
19.961494737
 20
124.1123781579
 11
334.9734950642
 21
124.1123781579
  0
LINE
  8
0
 62
7
  6
CONTINUOUS
 10
203.261494737
 20
126.2803874778
 11
203.261494737
 21
110.4879532996
  0
LINE
  8
0
 62
7
  6
CONTINUOUS
 10
205.961494737
 20
138.1123781579
 11
205.961494737
 21
133.4190366322
  0
LINE
  8
0
 62
7
  6
CONTINUOUS
 10
206.261494737
 20
76.7123781579
 11
206.261494737
 21
81.4057234176
  0
LINE
  8
0
 62
7
  6
CONTINUOUS
 10
208.961494737
 20
102.6123781579
 11
208.961494737
 21
88.5448443134
  0
LINE
  8
0
 62
7
  6
CONTINUOUS
 10
45.661494737
 20
130.1623781579
 11
49.061494737
 21
130.1623781579
  0
LINE
  8
0
 62
7
  6
CONTINUOUS
 10
71.061494737
 20
130.1623781579
 11
74.461494737
 21
130.1623781579
  0
LINE
  8
0
 62
7
  6
CONTINUOUS
 10
96.461494737
 20
130.1623781579
 11
99.861494737
 21
130.1623781579
  0
LINE
  8
0
 62
7
  6
CONTINUOUS
 10
121.861494737
 20
130.1623781579
 11
125.261494737
 21
130.1623781579
  0
LINE
  8
0
 62
7
  6
CONTINUOUS
 10
147.261494737
 20
130.1623781579
 11
150.661494737
 21
130.1623781579
  0
LINE
  8
0
 62
7
  6
CONTINUOUS
 10
172.661494737
 20
130.1623781579
 11
176.061494737
 21
130.1623781579
  0
LINE
  8
0
 62
7
  6
CONTINUOUS
 10
193.5821588916
 20
133.3096223485
 11
196.1926142217
 21
126.6451017567
  0
LINE
  8
0
 62
7
  6
CONTINUOUS
 10
218.6408332122
 20
81.5151309871
 11
216.0303664862
 21
88.1801524152
  0
LINE
  8
0
 62
7
  6
CONTINUOUS
 10
215.961494737
 20
102.6123781579
 11
215.961494737
 21
88.5448443134
  0
LINE
  8
0
 62
7
  6
CONTINUOUS
 10
218.661494737
 20
81.4057234176
 11
218.661494737
 21
76.7123781579
  0
LINE
  8
0
 62
7
  6
CONTINUOUS
 10
218.961494737
 20
133.4190366322
 11
218.961494737
 21
138.1123781579
  0
LINE
  8
0
 62
7
  6
CONTINUOUS
 10
206.2821562618
 20
81.5151309871
 11
208.8926229878
 21
88.1801524152
  0
LINE
  8
0
 62
7
  6
CONTINUOUS
 10
228.7303752523
 20
126.6451017567
 11
231.3408305824
 21
133.3096223485
  0
LINE
  8
0
 62
7
  6
CONTINUOUS
 10
330.261494737
 20
140.8123781579
 11
323.261494737
 21
140.8123781579
  0
LINE
  8
0
 62
7
  6
CONTINUOUS
 10
304.861494737
 20
140.8123781579
 11
297.861494737
 21
140.8123781579
  0
LINE
  8
0
 62
7
  6
CONTINUOUS
 10
279.461494737
 20
140.8123781579
 11
272.461494737
 21
140.8123781579
  0
LINE
  8
0
 62
7
  6
CONTINUOUS
 10
254.061494737
 20
140.8123781579
 11
247.061494737
 21
140.8123781579
  0
LINE
  8
0
 62
7
  6
CONTINUOUS
 10
228.661494737
 20
140.8123781579
 11
221.661494737
 21
140.8123781579
  0
LINE
  8
0
 62
7
  6
CONTINUOUS
 10
203.261494737
 20
140.8123781579
 11
196.261494737
 21
140.8123781579
  0
LINE
  8
0
 62
7
  6
CONTINUOUS
 10
177.861494737
 20
140.8123781579
 11
170.861494737
 21
140.8123781579
  0
LINE
  8
0
 62
7
  6
CONTINUOUS
 10
152.461494737
 20
140.8123781579
 11
145.461494737
 21
140.8123781579
  0
LINE
  8
0
 62
7
  6
CONTINUOUS
 10
127.061494737
 20
140.8123781579
 11
120.061494737
 21
140.8123781579
  0
LINE
  8
0
 62
7
  6
CONTINUOUS
 10
101.661494737
 20
140.8123781579
 11
94.661494737
 21
140.8123781579
  0
LINE
  8
0
 62
7
  6
CONTINUOUS
 10
76.261494737
 20
140.8123781579
 11
69.261494737
 21
140.8123781579
  0
LINE
  8
0
 62
7
  6
CONTINUOUS
 10
50.861494737
 20
140.8123781579
 11
43.861494737
 21
140.8123781579
  0
LINE
  8
0
 62
7
  6
CONTINUOUS
 10
221.661494737
 20
126.2803874778
 11
221.661494737
 21
110.4879532996
  0
LINE
  8
0
 62
7
  6
CONTINUOUS
 10
228.661494737
 20
126.2803874778
 11
228.661494737
 21
110.4879532996
  0
LINE
  8
0
 62
7
  6
CONTINUOUS
 10
231.361494737
 20
138.1123781579
 11
231.361494737
 21
133.4190366322
  0
LINE
  8
0
 62
7
  6
CONTINUOUS
 10
231.661494737
 20
76.7123781579
 11
231.661494737
 21
81.4057234176
  0
LINE
  8
0
 62
7
  6
CONTINUOUS
 10
218.9821588916
 20
133.3096223485
 11
221.5926142217
 21
126.6451017567
  0
LINE
  8
0
 62
7
  6
CONTINUOUS
 10
244.0408332122
 20
81.5151309871
 11
241.4303664862
 21
88.1801524152
  0
LINE
  8
0
 62
7
  6
CONTINUOUS
 10
234.361494737
 20
102.6123781579
 11
234.361494737
 21
88.5448443134
  0
LINE
  8
0
 62
7
  6
CONTINUOUS
 10
241.361494737
 20
102.6123781579
 11
241.361494737
 21
88.5448443134
  0
LINE
  8
0
 62
7
  6
CONTINUOUS
 10
231.6821562618
 20
81.5151309871
 11
234.2926229878
 21
88.1801524152
  0
LINE
  8
0
 62
7
  6
CONTINUOUS
 10
254.1303752523
 20
126.6451017567
 11
256.7408305824
 21
133.3096223485
  0
LINE
  8
0
 62
7
  6
CONTINUOUS
 10
244.061494737
 20
81.4057234176
 11
244.061494737
 21
76.7123781579
  0
LINE
  8
0
 62
7
  6
CONTINUOUS
 10
244.361494737
 20
133.4190366322
 11
244.361494737
 21
138.1123781579
  0
LINE
  8
0
 62
7
  6
CONTINUOUS
 10
247.061494737
 20
126.2803874778
 11
247.061494737
 21
110.4879532996
  0
LINE
  8
0
 62
7
  6
CONTINUOUS
 10
244.3821588916
 20
133.3096223485
 11
246.9926142217
 21
126.6451017567
  0
LINE
  8
0
 62
7
  6
CONTINUOUS
 10
254.061494737
 20
126.2803874778
 11
254.061494737
 21
110.4879532996
  0
LINE
  8
0
 62
7
  6
CONTINUOUS
 10
256.761494737
 20
138.1123781579
 11
256.761494737
 21
133.4190366322
  0
LINE
  8
0
 62
7
  6
CONTINUOUS
 10
257.061494737
 20
76.7123781579
 11
257.061494737
 21
81.4057234176
  0
LINE
  8
0
 62
7
  6
CONTINUOUS
 10
259.761494737
 20
102.6123781579
 11
259.761494737
 21
88.5448443134
  0
LINE
  8
0
 62
7
  6
CONTINUOUS
 10
257.0821562618
 20
81.5151309871
 11
259.6926229878
 21
88.1801524152
  0
LINE
  8
0
 62
7
  6
CONTINUOUS
 10
269.4408332122
 20
81.5151309871
 11
266.8303664862
 21
88.1801524152
  0
LINE
  8
0
 62
7
  6
CONTINUOUS
 10
266.761494737
 20
102.6123781579
 11
266.761494737
 21
88.5448443134
  0
LINE
  8
0
 62
7
  6
CONTINUOUS
 10
269.461494737
 20
81.4057234176
 11
269.461494737
 21
76.7123781579
  0
LINE
  8
0
 62
7
  6
CONTINUOUS
 10
269.761494737
 20
133.4190366322
 11
269.761494737
 21
138.1123781579
  0
LINE
  8
0
 62
7
  6
CONTINUOUS
 10
272.461494737
 20
126.2803874778
 11
272.461494737
 21
110.4879532996
  0
LINE
  8
0
 62
7
  6
CONTINUOUS
 10
279.5303752523
 20
126.6451017567
 11
282.1408305824
 21
133.3096223485
  0
LINE
  8
0
 62
7
  6
CONTINUOUS
 10
269.7821588916
 20
133.3096223485
 11
272.3926142217
 21
126.6451017567
  0
LINE
  8
0
 62
7
  6
CONTINUOUS
 10
279.461494737
 20
126.2803874778
 11
279.461494737
 21
110.4879532996
  0
LINE
  8
0
 62
7
  6
CONTINUOUS
 10
282.161494737
 20
138.1123781579
 11
282.161494737
 21
133.4190366322
  0
LINE
  8
0
 62
7
  6
CONTINUOUS
 10
282.461494737
 20
76.7123781579
 11
282.461494737
 21
81.4057234176
  0
LINE
  8
0
 62
7
  6
CONTINUOUS
 10
282.4821562618
 20
81.5151309871
 11
285.0926229878
 21
88.1801524152
  0
LINE
  8
0
 62
7
  6
CONTINUOUS
 10
294.8408332122
 20
81.5151309871
 11
292.2303664862
 21
88.1801524152
  0
LINE
  8
0
 62
7
  6
CONTINUOUS
 10
285.161494737
 20
102.6123781579
 11
285.161494737
 21
88.5448443134
  0
LINE
  8
0
 62
7
  6
CONTINUOUS
 10
292.161494737
 20
102.6123781579
 11
292.161494737
 21
88.5448443134
  0
LINE
  8
0
 62
7
  6
CONTINUOUS
 10
294.861494737
 20
81.4057234176
 11
294.861494737
 21
76.7123781579
  0
LINE
  8
0
 62
7
  6
CONTINUOUS
 10
295.161494737
 20
133.4190366322
 11
295.161494737
 21
138.1123781579
  0
LINE
  8
0
 62
7
  6
CONTINUOUS
 10
304.9303752523
 20
126.6451017567
 11
307.5408305824
 21
133.3096223485
  0
LINE
  8
0
 62
7
  6
CONTINUOUS
 10
297.861494737
 20
126.2803874778
 11
297.861494737
 21
110.4879532996
  0
LINE
  8
0
 62
7
  6
CONTINUOUS
 10
304.861494737
 20
126.2803874778
 11
304.861494737
 21
110.4879532996
  0
LINE
  8
0
 62
7
  6
CONTINUOUS
 10
295.1821588916
 20
133.3096223485
 11
297.7926142217
 21
126.6451017567
  0
LINE
  8
0
 62
7
  6
CONTINUOUS
 10
320.2408332122
 20
81.5151309871
 11
317.6303664862
 21
88.1801524152
  0
LINE
  8
0
 62
7
  6
CONTINUOUS
 10
307.561494737
 20
138.1123781579
 11
307.561494737
 21
133.4190366322
  0
LINE
  8
0
 62
7
  6
CONTINUOUS
 10
307.861494737
 20
76.7123781579
 11
307.861494737
 21
81.4057234176
  0
LINE
  8
0
 62
7
  6
CONTINUOUS
 10
310.561494737
 20
102.6123781579
 11
310.561494737
 21
88.5448443134
  0
LINE
  8
0
 62
7
  6
CONTINUOUS
 10
307.8821562618
 20
81.5151309871
 11
310.4926229878
 21
88.1801524152
  0
LINE
  8
0
 62
7
  6
CONTINUOUS
 10
330.3303752523
 20
126.6451017567
 11
332.9408305824
 21
133.3096223485
  0
LINE
  8
0
 62
7
  6
CONTINUOUS
 10
317.561494737
 20
102.6123781579
 11
317.561494737
 21
88.5448443134
  0
LINE
  8
0
 62
7
  6
CONTINUOUS
 10
320.261494737
 20
81.4057234176
 11
320.261494737
 21
76.7123781579
  0
LINE
  8
0
 62
7
  6
CONTINUOUS
 10
320.561494737
 20
133.4190366322
 11
320.561494737
 21
138.1123781579
  0
LINE
  8
0
 62
7
  6
CONTINUOUS
 10
323.261494737
 20
126.2803874778
 11
323.261494737
 21
110.4879532996
  0
LINE
  8
0
 62
7
  6
CONTINUOUS
 10
330.261494737
 20
126.2803874778
 11
330.261494737
 21
108.6018568747
  0
LINE
  8
0
 62
7
  6
CONTINUOUS
 10
332.861494737
 20
109.7377181916
 11
332.861494737
 21
104.9123781579
  0
LINE
  8
0
 62
7
  6
CONTINUOUS
 10
332.961494737
 20
138.1123781579
 11
332.961494737
 21
133.4190366322
  0
LINE
  8
0
 62
7
  6
CONTINUOUS
 10
320.5821588916
 20
133.3096223485
 11
323.1926142217
 21
126.6451017567
  0
LINE
  8
0
 62
7
  6
CONTINUOUS
 10
28.461494737
 20
208.4027782054
 11
28.461494737
 21
218.0027782054
  0
LINE
  8
0
 62
7
  6
CONTINUOUS
 10
28.561494737
 20
206.0027782054
 11
28.561494737
 21
207.6750321203
  0
LINE
  8
0
 62
7
  6
CONTINUOUS
 10
28.561494737
 20
218.7305242666
 11
28.561494737
 21
220.4027782054
  0
LINE
  8
0
 62
7
  6
CONTINUOUS
 10
31.961494737
 20
220.7027782054
 11
31.961494737
 21
221.6245451723
  0
LINE
  8
0
 62
7
  6
CONTINUOUS
 10
32.2614992481
 20
222.0954795801
 11
32.2615319665
 21
223.1740972991
  0
POLYLINE
  8
0
 62
7
  6
CONTINUOUS
 66
1
 70
0
  0
VERTEX
  8
0
 62
7
  6
CONTINUOUS
 10
37.3614946651
 20
221.6245424412
  0
VERTEX
  8
0
 62
7
  6
CONTINUOUS
 10
37.3604914114
 20
221.6565935849
  0
VERTEX
  8
0
 62
7
  6
CONTINUOUS
 10
37.3555625515
 20
221.7022935958
  0
VERTEX
  8
0
 62
7
  6
CONTINUOUS
 10
37.3465517929
 20
221.7474089952
  0
VERTEX
  8
0
 62
7
  6
CONTINUOUS
 10
37.3335350363
 20
221.791549776
  0
VERTEX
  8
0
 62
7
  6
CONTINUOUS
 10
37.3166369616
 20
221.8343284584
  0
VERTEX
  8
0
 62
7
  6
CONTINUOUS
 10
37.2960318689
 20
221.8753719373
  0
VERTEX
  8
0
 62
7
  6
CONTINUOUS
 10
37.2719359279
 20
221.9143414382
  0
VERTEX
  8
0
 62
7
  6
CONTINUOUS
 10
37.2446004039
 20
221.950938613
  0
VERTEX
  8
0
 62
7
  6
CONTINUOUS
 10
37.2143140458
 20
221.9849012496
  0
VERTEX
  8
0
 62
7
  6
CONTINUOUS
 10
37.1817431524
 20
222.0157144802
  0
VERTEX
  8
0
 62
7
  6
CONTINUOUS
 10
37.1488309681
 20
222.0421795166
  0
VERTEX
  8
0
 62
7
  6
CONTINUOUS
 10
37.1169582812
 20
222.0641798472
  0
VERTEX
  8
0
 62
7
  6
CONTINUOUS
 10
37.0863218137
 20
222.0825021165
  0
VERTEX
  8
0
 62
7
  6
CONTINUOUS
 10
37.0568143155
 20
222.097898513
  0
VERTEX
  8
0
 62
7
  6
CONTINUOUS
 10
37.0282236799
 20
222.1109789715
  0
VERTEX
  8
0
 62
7
  6
CONTINUOUS
 10
37.0121716178
 20
222.1176145425
  0
SEQEND
  0
LINE
  8
0
 62
7
  6
CONTINUOUS
 10
37.061494737
 20
223.1161021526
 11
37.061494737
 21
222.0954563668
  0
LINE
  8
0
 62
7
  6
CONTINUOUS
 10
37.361494737
 20
221.6245451723
 11
37.361494737
 21
220.7027782054
  0
LINE
  8
0
 62
7
  6
CONTINUOUS
 10
40.861494737
 20
218.0027782054
 11
40.861494737
 21
208.4027782054
  0
LINE
  8
0
 62
7
  6
CONTINUOUS
 10
53.861494737
 20
208.4027782054
 11
53.861494737
 21
218.0027782054
  0
POLYLINE
  8
0
 62
7
  6
CONTINUOUS
 66
1
 70
0
  0
VERTEX
  8
0
 62
7
  6
CONTINUOUS
 10
62.7614946651
 20
221.6245424412
  0
VERTEX
  8
0
 62
7
  6
CONTINUOUS
 10
62.7604914114
 20
221.6565935849
  0
VERTEX
  8
0
 62
7
  6
CONTINUOUS
 10
62.7555625515
 20
221.7022935958
  0
VERTEX
  8
0
 62
7
  6
CONTINUOUS
 10
62.7465517929
 20
221.7474089952
  0
VERTEX
  8
0
 62
7
  6
CONTINUOUS
 10
62.7335350363
 20
221.791549776
  0
VERTEX
  8
0
 62
7
  6
CONTINUOUS
 10
62.7166369616
 20
221.8343284584
  0
VERTEX
  8
0
 62
7
  6
CONTINUOUS
 10
62.6960318689
 20
221.8753719373
  0
VERTEX
  8
0
 62
7
  6
CONTINUOUS
 10
62.6719359279
 20
221.9143414382
  0
VERTEX
  8
0
 62
7
  6
CONTINUOUS
 10
62.6446004039
 20
221.950938613
  0
VERTEX
  8
0
 62
7
  6
CONTINUOUS
 10
62.6143140458
 20
221.9849012496
  0
VERTEX
  8
0
 62
7
  6
CONTINUOUS
 10
62.5817431524
 20
222.0157144802
  0
VERTEX
  8
0
 62
7
  6
CONTINUOUS
 10
62.5488309681
 20
222.0421795166
  0
VERTEX
  8
0
 62
7
  6
CONTINUOUS
 10
62.5169582812
 20
222.0641798472
  0
VERTEX
  8
0
 62
7
  6
CONTINUOUS
 10
62.4863218137
 20
222.0825021165
  0
VERTEX
  8
0
 62
7
  6
CONTINUOUS
 10
62.4568143155
 20
222.097898513
  0
VERTEX
  8
0
 62
7
  6
CONTINUOUS
 10
62.4282236799
 20
222.1109789715
  0
VERTEX
  8
0
 62
7
  6
CONTINUOUS
 10
62.4121716178
 20
222.1176145425
  0
SEQEND
  0
LINE
  8
0
 62
7
  6
CONTINUOUS
 10
57.361494737
 20
220.7027782054
 11
57.361494737
 21
221.6245451723
  0
LINE
  8
0
 62
7
  6
CONTINUOUS
 10
57.661494737
 20
222.0954772166
 11
57.661494737
 21
223.1161021526
  0
LINE
  8
0
 62
7
  6
CONTINUOUS
 10
62.461494737
 20
223.1161021526
 11
62.461494737
 21
222.0954563668
  0
LINE
  8
0
 62
7
  6
CONTINUOUS
 10
62.761494737
 20
221.6245451723
 11
62.761494737
 21
220.7027782054
  0
LINE
  8
0
 62
7
  6
CONTINUOUS
 10
66.261494737
 20
218.0027782054
 11
66.261494737
 21
208.4027782054
  0
LINE
  8
0
 62
7
  6
CONTINUOUS
 10
79.261494737
 20
208.4027782054
 11
79.261494737
 21
218.0027782054
  0
LINE
  8
0
 62
7
  6
CONTINUOUS
 10
82.761494737
 20
220.7027782054
 11
82.761494737
 21
221.6245451723
  0
LINE
  8
0
 62
7
  6
CONTINUOUS
 10
83.061494737
 20
222.0954772166
 11
83.061494737
 21
223.1161021526
  0
POLYLINE
  8
0
 62
7
  6
CONTINUOUS
 66
1
 70
0
  0
VERTEX
  8
0
 62
7
  6
CONTINUOUS
 10
88.1614946651
 20
221.6245424412
  0
VERTEX
  8
0
 62
7
  6
CONTINUOUS
 10
88.1604914114
 20
221.6565935849
  0
VERTEX
  8
0
 62
7
  6
CONTINUOUS
 10
88.1555625515
 20
221.7022935958
  0
VERTEX
  8
0
 62
7
  6
CONTINUOUS
 10
88.1465517929
 20
221.7474089952
  0
VERTEX
  8
0
 62
7
  6
CONTINUOUS
 10
88.1335350363
 20
221.791549776
  0
VERTEX
  8
0
 62
7
  6
CONTINUOUS
 10
88.1166369616
 20
221.8343284584
  0
VERTEX
  8
0
 62
7
  6
CONTINUOUS
 10
88.0960318689
 20
221.8753719373
  0
VERTEX
  8
0
 62
7
  6
CONTINUOUS
 10
88.0719359279
 20
221.9143414382
  0
VERTEX
  8
0
 62
7
  6
CONTINUOUS
 10
88.0446004039
 20
221.950938613
  0
VERTEX
  8
0
 62
7
  6
CONTINUOUS
 10
88.0143140458
 20
221.9849012496
  0
VERTEX
  8
0
 62
7
  6
CONTINUOUS
 10
87.9817431524
 20
222.0157144802
  0
VERTEX
  8
0
 62
7
  6
CONTINUOUS
 10
87.9488309681
 20
222.0421795166
  0
VERTEX
  8
0
 62
7
  6
CONTINUOUS
 10
87.9169582812
 20
222.0641798472
  0
VERTEX
  8
0
 62
7
  6
CONTINUOUS
 10
87.8863218137
 20
222.0825021165
  0
VERTEX
  8
0
 62
7
  6
CONTINUOUS
 10
87.8568143155
 20
222.097898513
  0
VERTEX
  8
0
 62
7
  6
CONTINUOUS
 10
87.8282236799
 20
222.1109789715
  0
VERTEX
  8
0
 62
7
  6
CONTINUOUS
 10
87.8121716178
 20
222.1176145425
  0
SEQEND
  0
LINE
  8
0
 62
7
  6
CONTINUOUS
 10
87.861494737
 20
223.1161021526
 11
87.861494737
 21
222.0954563668
  0
LINE
  8
0
 62
7
  6
CONTINUOUS
 10
88.161494737
 20
221.6245451723
 11
88.161494737
 21
220.7027782054
  0
LINE
  8
0
 62
7
  6
CONTINUOUS
 10
91.661494737
 20
218.0027782054
 11
91.661494737
 21
208.4027782054
  0
LINE
  8
0
 62
7
  6
CONTINUOUS
 10
104.661494737
 20
208.4027782054
 11
104.661494737
 21
218.0027782054
  0
POLYLINE
  8
0
 62
7
  6
CONTINUOUS
 66
1
 70
0
  0
VERTEX
  8
0
 62
7
  6
CONTINUOUS
 10
32.4239894882
 20
222.1631971692
  0
VERTEX
  8
0
 62
7
  6
CONTINUOUS
 10
32.4260508939
 20
222.1644209884
  0
VERTEX
  8
0
 62
7
  6
CONTINUOUS
 10
32.4251445523
 20
222.1639531401
  0
VERTEX
  8
0
 62
7
  6
CONTINUOUS
 10
32.4197914755
 20
222.1613639328
  0
VERTEX
  8
0
 62
7
  6
CONTINUOUS
 10
32.4099022077
 20
222.157002459
  0
VERTEX
  8
0
 62
7
  6
CONTINUOUS
 10
32.3991298332
 20
222.1526136489
  0
SEQEND
  0
POLYLINE
  8
0
 62
7
  6
CONTINUOUS
 66
1
 70
0
  0
VERTEX
  8
0
 62
7
  6
CONTINUOUS
 10
113.5614946651
 20
221.6245424412
  0
VERTEX
  8
0
 62
7
  6
CONTINUOUS
 10
113.5604914114
 20
221.6565935849
  0
VERTEX
  8
0
 62
7
  6
CONTINUOUS
 10
113.5555625515
 20
221.7022935958
  0
VERTEX
  8
0
 62
7
  6
CONTINUOUS
 10
113.5465517929
 20
221.7474089952
  0
VERTEX
  8
0
 62
7
  6
CONTINUOUS
 10
113.5335350363
 20
221.791549776
  0
VERTEX
  8
0
 62
7
  6
CONTINUOUS
 10
113.5166369616
 20
221.8343284584
  0
VERTEX
  8
0
 62
7
  6
CONTINUOUS
 10
113.4960318689
 20
221.8753719373
  0
VERTEX
  8
0
 62
7
  6
CONTINUOUS
 10
113.4719359279
 20
221.9143414382
  0
VERTEX
  8
0
 62
7
  6
CONTINUOUS
 10
113.4446004039
 20
221.950938613
  0
VERTEX
  8
0
 62
7
  6
CONTINUOUS
 10
113.4143140458
 20
221.9849012496
  0
VERTEX
  8
0
 62
7
  6
CONTINUOUS
 10
113.3817431524
 20
222.0157144802
  0
VERTEX
  8
0
 62
7
  6
CONTINUOUS
 10
113.3488309681
 20
222.0421795166
  0
VERTEX
  8
0
 62
7
  6
CONTINUOUS
 10
113.3169582812
 20
222.0641798472
  0
VERTEX
  8
0
 62
7
  6
CONTINUOUS
 10
113.2863218137
 20
222.0825021165
  0
VERTEX
  8
0
 62
7
  6
CONTINUOUS
 10
113.2568143155
 20
222.097898513
  0
VERTEX
  8
0
 62
7
  6
CONTINUOUS
 10
113.2282236799
 20
222.1109789715
  0
VERTEX
  8
0
 62
7
  6
CONTINUOUS
 10
113.2121716178
 20
222.1176145425
  0
SEQEND
  0
LINE
  8
0
 62
7
  6
CONTINUOUS
 10
108.161494737
 20
220.7027782054
 11
108.161494737
 21
221.6245451723
  0
LINE
  8
0
 62
7
  6
CONTINUOUS
 10
108.461494737
 20
222.0954772166
 11
108.461494737
 21
223.1161021526
  0
LINE
  8
0
 62
7
  6
CONTINUOUS
 10
113.261494737
 20
223.1161021526
 11
113.261494737
 21
222.0954563668
  0
LINE
  8
0
 62
7
  6
CONTINUOUS
 10
113.561494737
 20
221.6245451723
 11
113.561494737
 21
220.7027782054
  0
POLYLINE
  8
0
 62
7
  6
CONTINUOUS
 66
1
 70
0
  0
VERTEX
  8
0
 62
7
  6
CONTINUOUS
 10
57.823989496
 20
222.163197174
  0
VERTEX
  8
0
 62
7
  6
CONTINUOUS
 10
57.8260508967
 20
222.16442099
  0
VERTEX
  8
0
 62
7
  6
CONTINUOUS
 10
57.8251445446
 20
222.1639531362
  0
VERTEX
  8
0
 62
7
  6
CONTINUOUS
 10
57.8197914584
 20
222.1613639248
  0
VERTEX
  8
0
 62
7
  6
CONTINUOUS
 10
57.8099021902
 20
222.1570024515
  0
VERTEX
  8
0
 62
7
  6
CONTINUOUS
 10
57.7991298333
 20
222.1526136489
  0
SEQEND
  0
POLYLINE
  8
0
 62
7
  6
CONTINUOUS
 66
1
 70
0
  0
VERTEX
  8
0
 62
7
  6
CONTINUOUS
 10
32.3108199032
 20
222.1176153616
  0
VERTEX
  8
0
 62
7
  6
CONTINUOUS
 10
32.2938886615
 20
222.1106023168
  0
VERTEX
  8
0
 62
7
  6
CONTINUOUS
 10
32.2652978983
 20
222.0974697974
  0
VERTEX
  8
0
 62
7
  6
CONTINUOUS
 10
32.2357303188
 20
222.0819785293
  0
VERTEX
  8
0
 62
7
  6
CONTINUOUS
 10
32.2050161095
 20
222.0635278858
  0
VERTEX
  8
0
 62
7
  6
CONTINUOUS
 10
32.1730908801
 20
222.041384634
  0
VERTEX
  8
0
 62
7
  6
CONTINUOUS
 10
32.1401895241
 20
222.0147926598
  0
VERTEX
  8
0
 62
7
  6
CONTINUOUS
 10
32.107697703
 20
221.9838926881
  0
VERTEX
  8
0
 62
7
  6
CONTINUOUS
 10
32.0775155048
 20
221.9498667086
  0
VERTEX
  8
0
 62
7
  6
CONTINUOUS
 10
32.0502832747
 20
221.9132070733
  0
VERTEX
  8
0
 62
7
  6
CONTINUOUS
 10
32.0262949366
 20
221.8741826197
  0
VERTEX
  8
0
 62
7
  6
CONTINUOUS
 10
32.0058038369
 20
221.8330982347
  0
VERTEX
  8
0
 62
7
  6
CONTINUOUS
 10
31.9890237864
 20
221.790293504
  0
VERTEX
  8
0
 62
7
  6
CONTINUOUS
 10
31.9761262253
 20
221.7461401176
  0
VERTEX
  8
0
 62
7
  6
CONTINUOUS
 10
31.9672336289
 20
221.7010234674
  0
VERTEX
  8
0
 62
7
  6
CONTINUOUS
 10
31.9624205271
 20
221.6553312213
  0
VERTEX
  8
0
 62
7
  6
CONTINUOUS
 10
31.9614948186
 20
221.6245423866
  0
SEQEND
  0
LINE
  8
0
 62
7
  6
CONTINUOUS
 10
117.061494737
 20
218.0027782054
 11
117.061494737
 21
208.4027782054
  0
POLYLINE
  8
0
 62
7
  6
CONTINUOUS
 66
1
 70
0
  0
VERTEX
  8
0
 62
7
  6
CONTINUOUS
 10
83.223989496
 20
222.163197174
  0
VERTEX
  8
0
 62
7
  6
CONTINUOUS
 10
83.2260508967
 20
222.16442099
  0
VERTEX
  8
0
 62
7
  6
CONTINUOUS
 10
83.2251445446
 20
222.1639531362
  0
VERTEX
  8
0
 62
7
  6
CONTINUOUS
 10
83.2197914584
 20
222.1613639248
  0
VERTEX
  8
0
 62
7
  6
CONTINUOUS
 10
83.2099021902
 20
222.1570024515
  0
VERTEX
  8
0
 62
7
  6
CONTINUOUS
 10
83.1991298333
 20
222.1526136489
  0
SEQEND
  0
POLYLINE
  8
0
 62
7
  6
CONTINUOUS
 66
1
 70
0
  0
VERTEX
  8
0
 62
7
  6
CONTINUOUS
 10
57.7108199032
 20
222.1176153616
  0
VERTEX
  8
0
 62
7
  6
CONTINUOUS
 10
57.6938886615
 20
222.1106023168
  0
VERTEX
  8
0
 62
7
  6
CONTINUOUS
 10
57.6652978983
 20
222.0974697974
  0
VERTEX
  8
0
 62
7
  6
CONTINUOUS
 10
57.6357303188
 20
222.0819785293
  0
VERTEX
  8
0
 62
7
  6
CONTINUOUS
 10
57.6050161095
 20
222.0635278858
  0
VERTEX
  8
0
 62
7
  6
CONTINUOUS
 10
57.5730908801
 20
222.041384634
  0
VERTEX
  8
0
 62
7
  6
CONTINUOUS
 10
57.5401895241
 20
222.0147926598
  0
VERTEX
  8
0
 62
7
  6
CONTINUOUS
 10
57.507697703
 20
221.9838926881
  0
VERTEX
  8
0
 62
7
  6
CONTINUOUS
 10
57.4775155048
 20
221.9498667086
  0
VERTEX
  8
0
 62
7
  6
CONTINUOUS
 10
57.4502832747
 20
221.9132070733
  0
VERTEX
  8
0
 62
7
  6
CONTINUOUS
 10
57.4262949366
 20
221.8741826197
  0
VERTEX
  8
0
 62
7
  6
CONTINUOUS
 10
57.4058038369
 20
221.8330982347
  0
VERTEX
  8
0
 62
7
  6
CONTINUOUS
 10
57.3890237864
 20
221.790293504
  0
VERTEX
  8
0
 62
7
  6
CONTINUOUS
 10
57.3761262253
 20
221.7461401176
  0
VERTEX
  8
0
 62
7
  6
CONTINUOUS
 10
57.3672336289
 20
221.7010234674
  0
VERTEX
  8
0
 62
7
  6
CONTINUOUS
 10
57.3624205271
 20
221.6553312213
  0
VERTEX
  8
0
 62
7
  6
CONTINUOUS
 10
57.3614948186
 20
221.6245423866
  0
SEQEND
  0
LINE
  8
0
 62
7
  6
CONTINUOUS
 10
32.3991188396
 20
222.1526093093
 11
32.3108084841
 21
222.1176108363
  0
LINE
  8
0
 62
7
  6
CONTINUOUS
 10
57.7991188396
 20
222.1526093093
 11
57.7108084841
 21
222.1176108363
  0
LINE
  8
0
 62
7
  6
CONTINUOUS
 10
130.061494737
 20
208.4027782054
 11
130.061494737
 21
218.0027782054
  0
LINE
  8
0
 62
7
  6
CONTINUOUS
 10
133.561494737
 20
220.7027782054
 11
133.561494737
 21
221.6245451723
  0
LINE
  8
0
 62
7
  6
CONTINUOUS
 10
133.861494737
 20
222.0954772166
 11
133.861494737
 21
223.1161021526
  0
POLYLINE
  8
0
 62
7
  6
CONTINUOUS
 66
1
 70
0
  0
VERTEX
  8
0
 62
7
  6
CONTINUOUS
 10
108.623989496
 20
222.163197174
  0
VERTEX
  8
0
 62
7
  6
CONTINUOUS
 10
108.6260508967
 20
222.16442099
  0
VERTEX
  8
0
 62
7
  6
CONTINUOUS
 10
108.6251445446
 20
222.1639531362
  0
VERTEX
  8
0
 62
7
  6
CONTINUOUS
 10
108.6197914584
 20
222.1613639248
  0
VERTEX
  8
0
 62
7
  6
CONTINUOUS
 10
108.6099021902
 20
222.1570024515
  0
VERTEX
  8
0
 62
7
  6
CONTINUOUS
 10
108.5991298333
 20
222.1526136489
  0
SEQEND
  0
POLYLINE
  8
0
 62
7
  6
CONTINUOUS
 66
1
 70
0
  0
VERTEX
  8
0
 62
7
  6
CONTINUOUS
 10
83.1108199032
 20
222.1176153616
  0
VERTEX
  8
0
 62
7
  6
CONTINUOUS
 10
83.0938886615
 20
222.1106023168
  0
VERTEX
  8
0
 62
7
  6
CONTINUOUS
 10
83.0652978983
 20
222.0974697974
  0
VERTEX
  8
0
 62
7
  6
CONTINUOUS
 10
83.0357303188
 20
222.0819785293
  0
VERTEX
  8
0
 62
7
  6
CONTINUOUS
 10
83.0050161095
 20
222.0635278858
  0
VERTEX
  8
0
 62
7
  6
CONTINUOUS
 10
82.9730908801
 20
222.041384634
  0
VERTEX
  8
0
 62
7
  6
CONTINUOUS
 10
82.9401895241
 20
222.0147926598
  0
VERTEX
  8
0
 62
7
  6
CONTINUOUS
 10
82.907697703
 20
221.9838926881
  0
VERTEX
  8
0
 62
7
  6
CONTINUOUS
 10
82.8775155048
 20
221.9498667086
  0
VERTEX
  8
0
 62
7
  6
CONTINUOUS
 10
82.8502832747
 20
221.9132070733
  0
VERTEX
  8
0
 62
7
  6
CONTINUOUS
 10
82.8262949366
 20
221.8741826197
  0
VERTEX
  8
0
 62
7
  6
CONTINUOUS
 10
82.8058038369
 20
221.8330982347
  0
VERTEX
  8
0
 62
7
  6
CONTINUOUS
 10
82.7890237864
 20
221.790293504
  0
VERTEX
  8
0
 62
7
  6
CONTINUOUS
 10
82.7761262253
 20
221.7461401176
  0
VERTEX
  8
0
 62
7
  6
CONTINUOUS
 10
82.7672336289
 20
221.7010234674
  0
VERTEX
  8
0
 62
7
  6
CONTINUOUS
 10
82.7624205271
 20
221.6553312213
  0
VERTEX
  8
0
 62
7
  6
CONTINUOUS
 10
82.7614948186
 20
221.6245423866
  0
SEQEND
  0
LINE
  8
0
 62
7
  6
CONTINUOUS
 10
83.1991188396
 20
222.1526093093
 11
83.1108084841
 21
222.1176108363
  0
LINE
  8
0
 62
7
  6
CONTINUOUS
 10
37.0121809896
 20
222.1176108364
 11
36.9238706345
 21
222.1526093092
  0
POLYLINE
  8
0
 62
7
  6
CONTINUOUS
 66
1
 70
0
  0
VERTEX
  8
0
 62
7
  6
CONTINUOUS
 10
36.9238601738
 20
222.1526134384
  0
VERTEX
  8
0
 62
7
  6
CONTINUOUS
 10
36.9128792045
 20
222.1570904178
  0
VERTEX
  8
0
 62
7
  6
CONTINUOUS
 10
36.9030762448
 20
222.1614204424
  0
VERTEX
  8
0
 62
7
  6
CONTINUOUS
 10
36.8977982198
 20
222.1639770435
  0
VERTEX
  8
0
 62
7
  6
CONTINUOUS
 10
36.8967717109
 20
222.1645147369
  0
SEQEND
  0
POLYLINE
  8
0
 62
7
  6
CONTINUOUS
 66
1
 70
0
  0
VERTEX
  8
0
 62
7
  6
CONTINUOUS
 10
138.9614946651
 20
221.6245424412
  0
VERTEX
  8
0
 62
7
  6
CONTINUOUS
 10
138.9604914114
 20
221.6565935849
  0
VERTEX
  8
0
 62
7
  6
CONTINUOUS
 10
138.9555625515
 20
221.7022935958
  0
VERTEX
  8
0
 62
7
  6
CONTINUOUS
 10
138.9465517929
 20
221.7474089952
  0
VERTEX
  8
0
 62
7
  6
CONTINUOUS
 10
138.9335350363
 20
221.791549776
  0
VERTEX
  8
0
 62
7
  6
CONTINUOUS
 10
138.9166369616
 20
221.8343284584
  0
VERTEX
  8
0
 62
7
  6
CONTINUOUS
 10
138.8960318689
 20
221.8753719373
  0
VERTEX
  8
0
 62
7
  6
CONTINUOUS
 10
138.8719359279
 20
221.9143414382
  0
VERTEX
  8
0
 62
7
  6
CONTINUOUS
 10
138.8446004039
 20
221.950938613
  0
VERTEX
  8
0
 62
7
  6
CONTINUOUS
 10
138.8143140458
 20
221.9849012496
  0
VERTEX
  8
0
 62
7
  6
CONTINUOUS
 10
138.7817431524
 20
222.0157144802
  0
VERTEX
  8
0
 62
7
  6
CONTINUOUS
 10
138.7488309681
 20
222.0421795166
  0
VERTEX
  8
0
 62
7
  6
CONTINUOUS
 10
138.7169582812
 20
222.0641798472
  0
VERTEX
  8
0
 62
7
  6
CONTINUOUS
 10
138.6863218137
 20
222.0825021165
  0
VERTEX
  8
0
 62
7
  6
CONTINUOUS
 10
138.6568143155
 20
222.097898513
  0
VERTEX
  8
0
 62
7
  6
CONTINUOUS
 10
138.6282236799
 20
222.1109789715
  0
VERTEX
  8
0
 62
7
  6
CONTINUOUS
 10
138.6121716178
 20
222.1176145425
  0
SEQEND
  0
LINE
  8
0
 62
7
  6
CONTINUOUS
 10
138.661494737
 20
223.1161021526
 11
138.661494737
 21
222.0954563668
  0
LINE
  8
0
 62
7
  6
CONTINUOUS
 10
138.961494737
 20
221.6245451723
 11
138.961494737
 21
220.7027782054
  0
LINE
  8
0
 62
7
  6
CONTINUOUS
 10
142.461494737
 20
218.0027782054
 11
142.461494737
 21
208.4027782054
  0
POLYLINE
  8
0
 62
7
  6
CONTINUOUS
 66
1
 70
0
  0
VERTEX
  8
0
 62
7
  6
CONTINUOUS
 10
108.5108199032
 20
222.1176153616
  0
VERTEX
  8
0
 62
7
  6
CONTINUOUS
 10
108.4938886615
 20
222.1106023168
  0
VERTEX
  8
0
 62
7
  6
CONTINUOUS
 10
108.4652978983
 20
222.0974697974
  0
VERTEX
  8
0
 62
7
  6
CONTINUOUS
 10
108.4357303188
 20
222.0819785293
  0
VERTEX
  8
0
 62
7
  6
CONTINUOUS
 10
108.4050161095
 20
222.0635278858
  0
VERTEX
  8
0
 62
7
  6
CONTINUOUS
 10
108.3730908801
 20
222.041384634
  0
VERTEX
  8
0
 62
7
  6
CONTINUOUS
 10
108.3401895241
 20
222.0147926598
  0
VERTEX
  8
0
 62
7
  6
CONTINUOUS
 10
108.307697703
 20
221.9838926881
  0
VERTEX
  8
0
 62
7
  6
CONTINUOUS
 10
108.2775155048
 20
221.9498667086
  0
VERTEX
  8
0
 62
7
  6
CONTINUOUS
 10
108.2502832747
 20
221.9132070733
  0
VERTEX
  8
0
 62
7
  6
CONTINUOUS
 10
108.2262949366
 20
221.8741826197
  0
VERTEX
  8
0
 62
7
  6
CONTINUOUS
 10
108.2058038369
 20
221.8330982347
  0
VERTEX
  8
0
 62
7
  6
CONTINUOUS
 10
108.1890237864
 20
221.790293504
  0
VERTEX
  8
0
 62
7
  6
CONTINUOUS
 10
108.1761262253
 20
221.7461401176
  0
VERTEX
  8
0
 62
7
  6
CONTINUOUS
 10
108.1672336289
 20
221.7010234674
  0
VERTEX
  8
0
 62
7
  6
CONTINUOUS
 10
108.1624205271
 20
221.6553312213
  0
VERTEX
  8
0
 62
7
  6
CONTINUOUS
 10
108.1614948186
 20
221.6245423866
  0
SEQEND
  0
LINE
  8
0
 62
7
  6
CONTINUOUS
 10
108.5991188396
 20
222.1526093093
 11
108.5108084841
 21
222.1176108363
  0
LINE
  8
0
 62
7
  6
CONTINUOUS
 10
62.4121809896
 20
222.1176108364
 11
62.3238706345
 21
222.1526093092
  0
POLYLINE
  8
0
 62
7
  6
CONTINUOUS
 66
1
 70
0
  0
VERTEX
  8
0
 62
7
  6
CONTINUOUS
 10
62.3238601738
 20
222.1526134384
  0
VERTEX
  8
0
 62
7
  6
CONTINUOUS
 10
62.3128792045
 20
222.1570904178
  0
VERTEX
  8
0
 62
7
  6
CONTINUOUS
 10
62.3030762448
 20
222.1614204424
  0
VERTEX
  8
0
 62
7
  6
CONTINUOUS
 10
62.2977982198
 20
222.1639770435
  0
VERTEX
  8
0
 62
7
  6
CONTINUOUS
 10
62.2967717109
 20
222.1645147369
  0
SEQEND
  0
LINE
  8
0
 62
7
  6
CONTINUOUS
 10
155.461494737
 20
208.4027782054
 11
155.461494737
 21
218.0027782054
  0
POLYLINE
  8
0
 62
7
  6
CONTINUOUS
 66
1
 70
0
  0
VERTEX
  8
0
 62
7
  6
CONTINUOUS
 10
134.023989496
 20
222.163197174
  0
VERTEX
  8
0
 62
7
  6
CONTINUOUS
 10
134.0260508967
 20
222.16442099
  0
VERTEX
  8
0
 62
7
  6
CONTINUOUS
 10
134.0251445446
 20
222.1639531362
  0
VERTEX
  8
0
 62
7
  6
CONTINUOUS
 10
134.0197914584
 20
222.1613639248
  0
VERTEX
  8
0
 62
7
  6
CONTINUOUS
 10
134.0099021902
 20
222.1570024515
  0
VERTEX
  8
0
 62
7
  6
CONTINUOUS
 10
133.9991298333
 20
222.1526136489
  0
SEQEND
  0
POLYLINE
  8
0
 62
7
  6
CONTINUOUS
 66
1
 70
0
  0
VERTEX
  8
0
 62
7
  6
CONTINUOUS
 10
133.9108199032
 20
222.1176153616
  0
VERTEX
  8
0
 62
7
  6
CONTINUOUS
 10
133.8938886615
 20
222.1106023168
  0
VERTEX
  8
0
 62
7
  6
CONTINUOUS
 10
133.8652978983
 20
222.0974697974
  0
VERTEX
  8
0
 62
7
  6
CONTINUOUS
 10
133.8357303188
 20
222.0819785293
  0
VERTEX
  8
0
 62
7
  6
CONTINUOUS
 10
133.8050161095
 20
222.0635278858
  0
VERTEX
  8
0
 62
7
  6
CONTINUOUS
 10
133.7730908801
 20
222.041384634
  0
VERTEX
  8
0
 62
7
  6
CONTINUOUS
 10
133.7401895241
 20
222.0147926598
  0
VERTEX
  8
0
 62
7
  6
CONTINUOUS
 10
133.707697703
 20
221.9838926881
  0
VERTEX
  8
0
 62
7
  6
CONTINUOUS
 10
133.6775155048
 20
221.9498667086
  0
VERTEX
  8
0
 62
7
  6
CONTINUOUS
 10
133.6502832747
 20
221.9132070733
  0
VERTEX
  8
0
 62
7
  6
CONTINUOUS
 10
133.6262949366
 20
221.8741826197
  0
VERTEX
  8
0
 62
7
  6
CONTINUOUS
 10
133.6058038369
 20
221.8330982347
  0
VERTEX
  8
0
 62
7
  6
CONTINUOUS
 10
133.5890237864
 20
221.790293504
  0
VERTEX
  8
0
 62
7
  6
CONTINUOUS
 10
133.5761262253
 20
221.7461401176
  0
VERTEX
  8
0
 62
7
  6
CONTINUOUS
 10
133.5672336289
 20
221.7010234674
  0
VERTEX
  8
0
 62
7
  6
CONTINUOUS
 10
133.5624205271
 20
221.6553312213
  0
VERTEX
  8
0
 62
7
  6
CONTINUOUS
 10
133.5614948186
 20
221.6245423866
  0
SEQEND
  0
LINE
  8
0
 62
7
  6
CONTINUOUS
 10
133.9991188396
 20
222.1526093093
 11
133.9108084841
 21
222.1176108363
  0
LINE
  8
0
 62
7
  6
CONTINUOUS
 10
87.8121809896
 20
222.1176108364
 11
87.7238706345
 21
222.1526093092
  0
POLYLINE
  8
0
 62
7
  6
CONTINUOUS
 66
1
 70
0
  0
VERTEX
  8
0
 62
7
  6
CONTINUOUS
 10
87.7238601738
 20
222.1526134384
  0
VERTEX
  8
0
 62
7
  6
CONTINUOUS
 10
87.7128792045
 20
222.1570904178
  0
VERTEX
  8
0
 62
7
  6
CONTINUOUS
 10
87.7030762448
 20
222.1614204424
  0
VERTEX
  8
0
 62
7
  6
CONTINUOUS
 10
87.6977982198
 20
222.1639770435
  0
VERTEX
  8
0
 62
7
  6
CONTINUOUS
 10
87.6967717109
 20
222.1645147369
  0
SEQEND
  0
POLYLINE
  8
0
 62
7
  6
CONTINUOUS
 66
1
 70
0
  0
VERTEX
  8
0
 62
7
  6
CONTINUOUS
 10
164.3614946651
 20
221.6245424412
  0
VERTEX
  8
0
 62
7
  6
CONTINUOUS
 10
164.3604914114
 20
221.6565935849
  0
VERTEX
  8
0
 62
7
  6
CONTINUOUS
 10
164.3555625515
 20
221.7022935958
  0
VERTEX
  8
0
 62
7
  6
CONTINUOUS
 10
164.3465517929
 20
221.7474089952
  0
VERTEX
  8
0
 62
7
  6
CONTINUOUS
 10
164.3335350363
 20
221.791549776
  0
VERTEX
  8
0
 62
7
  6
CONTINUOUS
 10
164.3166369616
 20
221.8343284585
  0
VERTEX
  8
0
 62
7
  6
CONTINUOUS
 10
164.2960318689
 20
221.8753719373
  0
VERTEX
  8
0
 62
7
  6
CONTINUOUS
 10
164.2719359279
 20
221.9143414382
  0
VERTEX
  8
0
 62
7
  6
CONTINUOUS
 10
164.2446004039
 20
221.950938613
  0
VERTEX
  8
0
 62
7
  6
CONTINUOUS
 10
164.2143140458
 20
221.9849012496
  0
VERTEX
  8
0
 62
7
  6
CONTINUOUS
 10
164.1817431524
 20
222.0157144802
  0
VERTEX
  8
0
 62
7
  6
CONTINUOUS
 10
164.1488309681
 20
222.0421795166
  0
VERTEX
  8
0
 62
7
  6
CONTINUOUS
 10
164.1169582812
 20
222.0641798472
  0
VERTEX
  8
0
 62
7
  6
CONTINUOUS
 10
164.0863218137
 20
222.0825021165
  0
VERTEX
  8
0
 62
7
  6
CONTINUOUS
 10
164.0568143155
 20
222.097898513
  0
VERTEX
  8
0
 62
7
  6
CONTINUOUS
 10
164.0282236799
 20
222.1109789715
  0
VERTEX
  8
0
 62
7
  6
CONTINUOUS
 10
164.0121716178
 20
222.1176145425
  0
SEQEND
  0
LINE
  8
0
 62
7
  6
CONTINUOUS
 10
158.961494737
 20
220.7027782054
 11
158.961494737
 21
221.6245451723
  0
LINE
  8
0
 62
7
  6
CONTINUOUS
 10
159.261494737
 20
222.0954772166
 11
159.261494737
 21
223.1161021526
  0
LINE
  8
0
 62
7
  6
CONTINUOUS
 10
164.061494737
 20
223.1161021526
 11
164.061494737
 21
222.0954563668
  0
LINE
  8
0
 62
7
  6
CONTINUOUS
 10
164.361494737
 20
221.6245451723
 11
164.361494737
 21
220.7027782054
  0
LINE
  8
0
 62
7
  6
CONTINUOUS
 10
167.861494737
 20
218.0027782054
 11
167.861494737
 21
208.4027782054
  0
POLYLINE
  8
0
 62
7
  6
CONTINUOUS
 66
1
 70
0
  0
VERTEX
  8
0
 62
7
  6
CONTINUOUS
 10
159.423989496
 20
222.163197174
  0
VERTEX
  8
0
 62
7
  6
CONTINUOUS
 10
159.4260508967
 20
222.16442099
  0
VERTEX
  8
0
 62
7
  6
CONTINUOUS
 10
159.4251445446
 20
222.1639531362
  0
VERTEX
  8
0
 62
7
  6
CONTINUOUS
 10
159.4197914584
 20
222.1613639248
  0
VERTEX
  8
0
 62
7
  6
CONTINUOUS
 10
159.4099021902
 20
222.1570024515
  0
VERTEX
  8
0
 62
7
  6
CONTINUOUS
 10
159.3991298333
 20
222.1526136489
  0
SEQEND
  0
POLYLINE
  8
0
 62
7
  6
CONTINUOUS
 66
1
 70
0
  0
VERTEX
  8
0
 62
7
  6
CONTINUOUS
 10
159.3108199032
 20
222.1176153616
  0
VERTEX
  8
0
 62
7
  6
CONTINUOUS
 10
159.2938886615
 20
222.1106023168
  0
VERTEX
  8
0
 62
7
  6
CONTINUOUS
 10
159.2652978983
 20
222.0974697974
  0
VERTEX
  8
0
 62
7
  6
CONTINUOUS
 10
159.2357303188
 20
222.0819785293
  0
VERTEX
  8
0
 62
7
  6
CONTINUOUS
 10
159.2050161095
 20
222.0635278858
  0
VERTEX
  8
0
 62
7
  6
CONTINUOUS
 10
159.1730908801
 20
222.041384634
  0
VERTEX
  8
0
 62
7
  6
CONTINUOUS
 10
159.1401895241
 20
222.0147926598
  0
VERTEX
  8
0
 62
7
  6
CONTINUOUS
 10
159.107697703
 20
221.9838926881
  0
VERTEX
  8
0
 62
7
  6
CONTINUOUS
 10
159.0775155048
 20
221.9498667086
  0
VERTEX
  8
0
 62
7
  6
CONTINUOUS
 10
159.0502832747
 20
221.9132070733
  0
VERTEX
  8
0
 62
7
  6
CONTINUOUS
 10
159.0262949366
 20
221.8741826197
  0
VERTEX
  8
0
 62
7
  6
CONTINUOUS
 10
159.0058038369
 20
221.8330982347
  0
VERTEX
  8
0
 62
7
  6
CONTINUOUS
 10
158.9890237864
 20
221.790293504
  0
VERTEX
  8
0
 62
7
  6
CONTINUOUS
 10
158.9761262253
 20
221.7461401176
  0
VERTEX
  8
0
 62
7
  6
CONTINUOUS
 10
158.9672336289
 20
221.7010234674
  0
VERTEX
  8
0
 62
7
  6
CONTINUOUS
 10
158.9624205271
 20
221.6553312213
  0
VERTEX
  8
0
 62
7
  6
CONTINUOUS
 10
158.9614948186
 20
221.6245423866
  0
SEQEND
  0
LINE
  8
0
 62
7
  6
CONTINUOUS
 10
159.3991188396
 20
222.1526093093
 11
159.3108084841
 21
222.1176108363
  0
LINE
  8
0
 62
7
  6
CONTINUOUS
 10
28.861494737
 20
205.7027782054
 11
332.561494737
 21
205.7027782054
  0
LINE
  8
0
 62
7
  6
CONTINUOUS
 10
113.2121809896
 20
222.1176108364
 11
113.1238706345
 21
222.1526093092
  0
POLYLINE
  8
0
 62
7
  6
CONTINUOUS
 66
1
 70
0
  0
VERTEX
  8
0
 62
7
  6
CONTINUOUS
 10
113.1238601738
 20
222.1526134384
  0
VERTEX
  8
0
 62
7
  6
CONTINUOUS
 10
113.1128792045
 20
222.1570904178
  0
VERTEX
  8
0
 62
7
  6
CONTINUOUS
 10
113.1030762448
 20
222.1614204424
  0
VERTEX
  8
0
 62
7
  6
CONTINUOUS
 10
113.0977982198
 20
222.1639770435
  0
VERTEX
  8
0
 62
7
  6
CONTINUOUS
 10
113.0967717109
 20
222.1645147369
  0
SEQEND
  0
POLYLINE
  8
0
 62
7
  6
CONTINUOUS
 66
1
 70
0
  0
VERTEX
  8
0
 62
7
  6
CONTINUOUS
 10
177.0614946555
 20
221.6046333521
  0
VERTEX
  8
0
 62
7
  6
CONTINUOUS
 10
177.060571137
 20
221.6353905788
  0
VERTEX
  8
0
 62
7
  6
CONTINUOUS
 10
177.0557813491
 20
221.6809572432
  0
VERTEX
  8
0
 62
7
  6
CONTINUOUS
 10
177.0469359843
 20
221.7259521288
  0
VERTEX
  8
0
 62
7
  6
CONTINUOUS
 10
177.0341085279
 20
221.7699925158
  0
VERTEX
  8
0
 62
7
  6
CONTINUOUS
 10
177.017419361
 20
221.812697716
  0
VERTEX
  8
0
 62
7
  6
CONTINUOUS
 10
176.9970369177
 20
221.8537001133
  0
VERTEX
  8
0
 62
7
  6
CONTINUOUS
 10
176.9731719605
 20
221.892662373
  0
VERTEX
  8
0
 62
7
  6
CONTINUOUS
 10
176.9460776326
 20
221.9292774357
  0
VERTEX
  8
0
 62
7
  6
CONTINUOUS
 10
176.9160496761
 20
221.963273805
  0
VERTEX
  8
0
 62
7
  6
CONTINUOUS
 10
176.8837043813
 20
221.9941798223
  0
VERTEX
  8
0
 62
7
  6
CONTINUOUS
 10
176.8508941109
 20
222.0208343248
  0
VERTEX
  8
0
 62
7
  6
CONTINUOUS
 10
176.8189884028
 20
222.0430829515
  0
VERTEX
  8
0
 62
7
  6
CONTINUOUS
 10
176.7882478709
 20
222.0616504147
  0
VERTEX
  8
0
 62
7
  6
CONTINUOUS
 10
176.761494737
 20
222.0757447264
  0
SEQEND
  0
POLYLINE
  8
0
 62
7
  6
CONTINUOUS
 66
1
 70
0
  0
VERTEX
  8
0
 62
7
  6
CONTINUOUS
 10
176.7614946871
 20
223.1999041664
  0
VERTEX
  8
0
 62
7
  6
CONTINUOUS
 10
176.7606193784
 20
223.2294795294
  0
VERTEX
  8
0
 62
7
  6
CONTINUOUS
 10
176.7560890262
 20
223.2732350092
  0
VERTEX
  8
0
 62
7
  6
CONTINUOUS
 10
176.748175838
 20
223.3145508455
  0
VERTEX
  8
0
 62
7
  6
CONTINUOUS
 10
176.7373671428
 20
223.3533635961
  0
VERTEX
  8
0
 62
7
  6
CONTINUOUS
 10
176.7240913364
 20
223.389670418
  0
VERTEX
  8
0
 62
7
  6
CONTINUOUS
 10
176.7087178959
 20
223.4235138193
  0
VERTEX
  8
0
 62
7
  6
CONTINUOUS
 10
176.6915600524
 20
223.4549671341
  0
VERTEX
  8
0
 62
7
  6
CONTINUOUS
 10
176.672908934
 20
223.4840794459
  0
VERTEX
  8
0
 62
7
  6
CONTINUOUS
 10
176.6530592655
 20
223.5108685863
  0
VERTEX
  8
0
 62
7
  6
CONTINUOUS
 10
176.6322854181
 20
223.535375237
  0
VERTEX
  8
0
 62
7
  6
CONTINUOUS
 10
176.6108385546
 20
223.5576623422
  0
VERTEX
  8
0
 62
7
  6
CONTINUOUS
 10
176.5889328188
 20
223.5778226017
  0
VERTEX
  8
0
 62
7
  6
CONTINUOUS
 10
176.5667401032
 20
223.5959723288
  0
VERTEX
  8
0
 62
7
  6
CONTINUOUS
 10
176.5444042533
 20
223.6122321596
  0
VERTEX
  8
0
 62
7
  6
CONTINUOUS
 10
176.5220533187
 20
223.626717649
  0
VERTEX
  8
0
 62
7
  6
CONTINUOUS
 10
176.4998531276
 20
223.6395122177
  0
VERTEX
  8
0
 62
7
  6
CONTINUOUS
 10
176.4779757542
 20
223.6506997627
  0
VERTEX
  8
0
 62
7
  6
CONTINUOUS
 10
176.4565804132
 20
223.6603763238
  0
VERTEX
  8
0
 62
7
  6
CONTINUOUS
 10
176.4358203633
 20
223.6686449223
  0
VERTEX
  8
0
 62
7
  6
CONTINUOUS
 10
176.4158547564
 20
223.6756110462
  0
VERTEX
  8
0
 62
7
  6
CONTINUOUS
 10
176.3968372812
 20
223.6813875286
  0
VERTEX
  8
0
 62
7
  6
CONTINUOUS
 10
176.3790536003
 20
223.6860596423
  0
VERTEX
  8
0
 62
7
  6
CONTINUOUS
 10
176.3629357614
 20
223.6897043113
  0
VERTEX
  8
0
 62
7
  6
CONTINUOUS
 10
176.3487641953
 20
223.6924581944
  0
VERTEX
  8
0
 62
7
  6
CONTINUOUS
 10
176.3362004423
 20
223.6945556735
  0
VERTEX
  8
0
 62
7
  6
CONTINUOUS
 10
176.324656133
 20
223.696205004
  0
VERTEX
  8
0
 62
7
  6
CONTINUOUS
 10
176.3140246179
 20
223.6974950945
  0
VERTEX
  8
0
 62
7
  6
CONTINUOUS
 10
176.3045660178
 20
223.6984649833
  0
VERTEX
  8
0
 62
7
  6
CONTINUOUS
 10
176.2962794366
 20
223.699183514
  0
VERTEX
  8
0
 62
7
  6
CONTINUOUS
 10
176.2889063961
 20
223.6997261997
  0
VERTEX
  8
0
 62
7
  6
CONTINUOUS
 10
176.2821870837
 20
223.7001478091
  0
VERTEX
  8
0
 62
7
  6
CONTINUOUS
 10
176.2759059277
 20
223.7004851995
  0
VERTEX
  8
0
 62
7
  6
CONTINUOUS
 10
176.2699059975
 20
223.7007622885
  0
VERTEX
  8
0
 62
7
  6
CONTINUOUS
 10
176.2640660703
 20
223.7009952367
  0
VERTEX
  8
0
 62
7
  6
CONTINUOUS
 10
176.2582698701
 20
223.7011958292
  0
VERTEX
  8
0
 62
7
  6
CONTINUOUS
 10
176.2463935298
 20
223.7015307691
  0
SEQEND
  0
LINE
  8
0
 62
7
  6
CONTINUOUS
 10
176.761494737
 20
220.7027782054
 11
176.761494737
 21
223.1999043166
  0
LINE
  8
0
 62
7
  6
CONTINUOUS
 10
177.061494737
 20
221.6046361487
 11
177.061494737
 21
220.7027782054
  0
LINE
  8
DEFAULT_1
 62
2
  6
CENTER
 10
19.961494737
 20
213.2027782054
 11
334.9734950642
 21
213.2027782054
  0
LINE
  8
0
 62
7
  6
CONTINUOUS
 10
138.6121809896
 20
222.1176108364
 11
138.5238706345
 21
222.1526093092
  0
POLYLINE
  8
0
 62
7
  6
CONTINUOUS
 66
1
 70
0
  0
VERTEX
  8
0
 62
7
  6
CONTINUOUS
 10
138.5238601738
 20
222.1526134384
  0
VERTEX
  8
0
 62
7
  6
CONTINUOUS
 10
138.5128792045
 20
222.1570904178
  0
VERTEX
  8
0
 62
7
  6
CONTINUOUS
 10
138.5030762448
 20
222.1614204424
  0
VERTEX
  8
0
 62
7
  6
CONTINUOUS
 10
138.4977982198
 20
222.1639770435
  0
VERTEX
  8
0
 62
7
  6
CONTINUOUS
 10
138.4967717109
 20
222.1645147369
  0
SEQEND
  0
LINE
  8
DEFAULT_1
 62
2
  6
CENTER
 10
180.711494737
 20
202.9133045211
 11
180.711494737
 21
225.7027782566
  0
LINE
  8
0
 62
7
  6
CONTINUOUS
 10
180.861494737
 20
208.4027782054
 11
180.861494737
 21
218.0027782054
  0
LINE
  8
0
 62
7
  6
CONTINUOUS
 10
33.2391440315
 20
223.6949425619
 11
33.0916618541
 21
223.6926747954
  0
LINE
  8
0
 62
7
  6
CONTINUOUS
 10
33.4745027689
 20
223.6972841295
 11
33.2391440315
 21
223.6949425619
  0
LINE
  8
0
 62
7
  6
CONTINUOUS
 10
33.9850307683
 20
223.699774978
 11
33.4745027689
 21
223.6972841295
  0
LINE
  8
0
 62
7
  6
CONTINUOUS
 10
170.653388898
 20
223.702610021
 11
169.2161661253
 21
223.7008518646
  0
LINE
  8
0
 62
7
  6
CONTINUOUS
 10
145.5546608573
 20
223.7027782314
 11
144.00211482
 21
223.7009872719
  0
LINE
  8
0
 62
7
  6
CONTINUOUS
 10
120.1546608573
 20
223.7027782314
 11
118.60211482
 21
223.7009872719
  0
LINE
  8
0
 62
7
  6
CONTINUOUS
 10
94.7546608572
 20
223.7027782314
 11
93.20211482
 21
223.7009872719
  0
LINE
  8
0
 62
7
  6
CONTINUOUS
 10
69.3546608573
 20
223.7027782314
 11
67.80211482
 21
223.7009872719
  0
LINE
  8
0
 62
7
  6
CONTINUOUS
 10
43.9546608573
 20
223.7027782314
 11
42.40211482
 21
223.7009872719
  0
LINE
  8
0
 62
7
  6
CONTINUOUS
 10
28.861494737
 20
220.7027782054
 11
332.561494737
 21
220.7027782054
  0
LINE
  8
0
 62
7
  6
CONTINUOUS
 10
34.7615319665
 20
223.7007467639
 11
42.40211482
 21
223.7009872719
  0
LINE
  8
0
 62
7
  6
CONTINUOUS
 10
176.0647824259
 20
223.7027782054
 11
170.653388898
 21
223.702610021
  0
LINE
  8
0
 62
7
  6
CONTINUOUS
 10
34.7615319665
 20
223.7007467643
 11
33.9850307683
 21
223.699774978
  0
LINE
  8
0
 62
7
  6
CONTINUOUS
 10
67.80211482
 20
223.7009872719
 11
52.6808218725
 21
223.7007734718
  0
LINE
  8
0
 62
7
  6
CONTINUOUS
 10
93.20211482
 20
223.7009872719
 11
78.0808218725
 21
223.7007734718
  0
LINE
  8
0
 62
7
  6
CONTINUOUS
 10
118.60211482
 20
223.7009872719
 11
103.4808218725
 21
223.7007734718
  0
LINE
  8
0
 62
7
  6
CONTINUOUS
 10
144.00211482
 20
223.7009872719
 11
128.8808218725
 21
223.7007734718
  0
LINE
  8
0
 62
7
  6
CONTINUOUS
 10
169.2161661253
 20
223.7008518646
 11
154.2808218725
 21
223.7007734718
  0
LINE
  8
0
 62
7
  6
CONTINUOUS
 10
154.4614948254
 20
223.7007389205
 11
153.697203122
 21
223.701213838
  0
LINE
  8
0
 62
7
  6
CONTINUOUS
 10
52.8614948254
 20
223.7007389205
 11
51.9059651784
 21
223.701454696
  0
LINE
  8
0
 62
7
  6
CONTINUOUS
 10
43.9537159182
 20
223.7027782054
 11
51.2227047334
 21
223.7024329858
  0
LINE
  8
0
 62
7
  6
CONTINUOUS
 10
78.2614948254
 20
223.7007389205
 11
77.3059651784
 21
223.701454696
  0
LINE
  8
0
 62
7
  6
CONTINUOUS
 10
69.3537159182
 20
223.7027782054
 11
76.6227047334
 21
223.7024329858
  0
LINE
  8
0
 62
7
  6
CONTINUOUS
 10
103.6614948254
 20
223.7007389205
 11
102.7059651784
 21
223.701454696
  0
LINE
  8
0
 62
7
  6
CONTINUOUS
 10
94.7537159182
 20
223.7027782054
 11
102.0227047334
 21
223.7024329858
  0
LINE
  8
0
 62
7
  6
CONTINUOUS
 10
129.0614948254
 20
223.7007389205
 11
128.1059651784
 21
223.701454696
  0
LINE
  8
0
 62
7
  6
CONTINUOUS
 10
120.1537159182
 20
223.7027782054
 11
127.4227047334
 21
223.7024329858
  0
LINE
  8
0
 62
7
  6
CONTINUOUS
 10
145.5537159182
 20
223.7027782054
 11
152.8227047334
 21
223.7024329858
  0
LINE
  8
0
 62
7
  6
CONTINUOUS
 10
52.1786308903
 20
223.7011170651
 11
51.4483189615
 21
223.7021180789
  0
LINE
  8
0
 62
7
  6
CONTINUOUS
 10
51.6842001145
 20
223.7017658761
 11
51.805170829
 21
223.7015896241
  0
LINE
  8
0
 62
7
  6
CONTINUOUS
 10
51.5298555197
 20
223.7020009709
 11
51.1650828525
 21
223.702505177
  0
LINE
  8
0
 62
7
  6
CONTINUOUS
 10
51.2227047334
 20
223.7024329858
 11
51.4483189615
 21
223.7021180789
  0
LINE
  8
0
 62
7
  6
CONTINUOUS
 10
77.5786308903
 20
223.7011170651
 11
76.8483189615
 21
223.7021180789
  0
LINE
  8
0
 62
7
  6
CONTINUOUS
 10
77.0842001145
 20
223.7017658761
 11
77.205170829
 21
223.7015896241
  0
LINE
  8
0
 62
7
  6
CONTINUOUS
 10
76.9298555197
 20
223.7020009709
 11
76.5650828525
 21
223.702505177
  0
LINE
  8
0
 62
7
  6
CONTINUOUS
 10
76.6227047334
 20
223.7024329858
 11
76.8483189615
 21
223.7021180789
  0
LINE
  8
0
 62
7
  6
CONTINUOUS
 10
102.9786308903
 20
223.7011170651
 11
102.2483189615
 21
223.7021180789
  0
LINE
  8
0
 62
7
  6
CONTINUOUS
 10
102.4842001145
 20
223.7017658761
 11
102.605170829
 21
223.7015896241
  0
LINE
  8
0
 62
7
  6
CONTINUOUS
 10
102.3298555197
 20
223.7020009709
 11
101.9650828525
 21
223.702505177
  0
LINE
  8
0
 62
7
  6
CONTINUOUS
 10
128.3786308903
 20
223.7011170651
 11
127.6483189615
 21
223.7021180789
  0
LINE
  8
0
 62
7
  6
CONTINUOUS
 10
127.8842001145
 20
223.7017658761
 11
128.005170829
 21
223.7015896241
  0
LINE
  8
0
 62
7
  6
CONTINUOUS
 10
127.7298555197
 20
223.7020009709
 11
127.3650828525
 21
223.702505177
  0
LINE
  8
0
 62
7
  6
CONTINUOUS
 10
153.9061210392
 20
223.700992317
 11
152.7650828525
 21
223.702505177
  0
LINE
  8
0
 62
7
  6
CONTINUOUS
 10
176.1458040457
 20
223.7026394876
 11
176.0656445656
 21
223.7027782047
  0
LINE
  8
0
 62
7
  6
CONTINUOUS
 10
176.1955744657
 20
223.7023203033
 11
176.1458040457
 21
223.7026394876
  0
LINE
  8
0
 62
7
  6
CONTINUOUS
 10
176.2195964763
 20
223.7020377629
 11
176.1955744657
 21
223.7023203033
  0
LINE
  8
0
 62
7
  6
CONTINUOUS
 10
176.2336387849
 20
223.7018057645
 11
176.2195964763
 21
223.7020377629
  0
LINE
  8
0
 62
7
  6
CONTINUOUS
 10
176.2463935298
 20
223.7015307691
 11
176.2336387849
 21
223.7018057645
  0
LINE
  8
0
 62
7
  6
CONTINUOUS
 10
164.0121809896
 20
222.1176108364
 11
163.9238706345
 21
222.1526093092
  0
POLYLINE
  8
0
 62
7
  6
CONTINUOUS
 66
1
 70
0
  0
VERTEX
  8
0
 62
7
  6
CONTINUOUS
 10
163.9238601738
 20
222.1526134384
  0
VERTEX
  8
0
 62
7
  6
CONTINUOUS
 10
163.9128792045
 20
222.1570904178
  0
VERTEX
  8
0
 62
7
  6
CONTINUOUS
 10
163.9030762448
 20
222.1614204424
  0
VERTEX
  8
0
 62
7
  6
CONTINUOUS
 10
163.8977982198
 20
222.1639770435
  0
VERTEX
  8
0
 62
7
  6
CONTINUOUS
 10
163.8967717109
 20
222.1645147369
  0
SEQEND
  0
LINE
  8
0
 62
7
  6
CONTINUOUS
 10
193.261494737
 20
218.0027782054
 11
193.261494737
 21
208.4027782054
  0
LINE
  8
0
 62
7
  6
CONTINUOUS
 10
32.760978447
 20
223.6802149975
 11
32.7510700258
 21
223.6793344386
  0
LINE
  8
0
 62
7
  6
CONTINUOUS
 10
32.7755299113
 20
223.681395541
 11
32.760978447
 21
223.6802149975
  0
POLYLINE
  8
0
 62
7
  6
CONTINUOUS
 66
1
 70
0
  0
VERTEX
  8
0
 62
7
  6
CONTINUOUS
 10
32.8320131936
 20
223.68488436
  0
VERTEX
  8
0
 62
7
  6
CONTINUOUS
 10
32.8165885313
 20
223.6840620962
  0
VERTEX
  8
0
 62
7
  6
CONTINUOUS
 10
32.8021178306
 20
223.6832116566
  0
VERTEX
  8
0
 62
7
  6
CONTINUOUS
 10
32.7884778455
 20
223.682326171
  0
VERTEX
  8
0
 62
7
  6
CONTINUOUS
 10
32.7755299113
 20
223.681395541
  0
SEQEND
  0
LINE
  8
0
 62
7
  6
CONTINUOUS
 10
32.8661700771
 20
223.6864617728
 11
32.8320131936
 21
223.68488436
  0
LINE
  8
0
 62
7
  6
CONTINUOUS
 10
32.9053688805
 20
223.687963922
 11
32.8661700771
 21
223.6864617728
  0
LINE
  8
0
 62
7
  6
CONTINUOUS
 10
32.9502914848
 20
223.6893975358
 11
32.9053688805
 21
223.687963922
  0
LINE
  8
0
 62
7
  6
CONTINUOUS
 10
33.0015774823
 20
223.6907630704
 11
32.9502914848
 21
223.6893975358
  0
LINE
  8
0
 62
7
  6
CONTINUOUS
 10
33.0916618541
 20
223.6926747954
 11
33.0015774823
 21
223.6907630704
  0
LINE
  8
0
 62
7
  6
CONTINUOUS
 10
206.261494737
 20
208.4027782054
 11
206.261494737
 21
218.0027782054
  0
POLYLINE
  8
0
 62
7
  6
CONTINUOUS
 66
1
 70
0
  0
VERTEX
  8
0
 62
7
  6
CONTINUOUS
 10
32.7510700258
 20
223.6793344386
  0
VERTEX
  8
0
 62
7
  6
CONTINUOUS
 10
32.7391916565
 20
223.678154497
  0
VERTEX
  8
0
 62
7
  6
CONTINUOUS
 10
32.7272689657
 20
223.6768252454
  0
VERTEX
  8
0
 62
7
  6
CONTINUOUS
 10
32.715051291
 20
223.6752894398
  0
VERTEX
  8
0
 62
7
  6
CONTINUOUS
 10
32.7022565279
 20
223.6734669739
  0
VERTEX
  8
0
 62
7
  6
CONTINUOUS
 10
32.6887004249
 20
223.6712689501
  0
VERTEX
  8
0
 62
7
  6
CONTINUOUS
 10
32.6742755196
 20
223.6685983422
  0
VERTEX
  8
0
 62
7
  6
CONTINUOUS
 10
32.6589659169
 20
223.6653591209
  0
VERTEX
  8
0
 62
7
  6
CONTINUOUS
 10
32.6425899586
 20
223.6614012068
  0
VERTEX
  8
0
 62
7
  6
CONTINUOUS
 10
32.6245288976
 20
223.6564094413
  0
VERTEX
  8
0
 62
7
  6
CONTINUOUS
 10
32.6040486333
 20
223.6499081999
  0
VERTEX
  8
0
 62
7
  6
CONTINUOUS
 10
32.5808712248
 20
223.6414077974
  0
VERTEX
  8
0
 62
7
  6
CONTINUOUS
 10
32.5554145928
 20
223.6305770917
  0
VERTEX
  8
0
 62
7
  6
CONTINUOUS
 10
32.5283455058
 20
223.6172041113
  0
VERTEX
  8
0
 62
7
  6
CONTINUOUS
 10
32.5001026326
 20
223.6010091002
  0
VERTEX
  8
0
 62
7
  6
CONTINUOUS
 10
32.471023416
 20
223.5816487488
  0
VERTEX
  8
0
 62
7
  6
CONTINUOUS
 10
32.4414756517
 20
223.5587586681
  0
VERTEX
  8
0
 62
7
  6
CONTINUOUS
 10
32.4117950104
 20
223.5318710243
  0
VERTEX
  8
0
 62
7
  6
CONTINUOUS
 10
32.3825119419
 20
223.5005766939
  0
VERTEX
  8
0
 62
7
  6
CONTINUOUS
 10
32.3547002384
 20
223.4650777914
  0
VERTEX
  8
0
 62
7
  6
CONTINUOUS
 10
32.3295002251
 20
223.4260438976
  0
VERTEX
  8
0
 62
7
  6
CONTINUOUS
 10
32.3077869597
 20
223.384337151
  0
VERTEX
  8
0
 62
7
  6
CONTINUOUS
 10
32.2899966851
 20
223.3405484611
  0
VERTEX
  8
0
 62
7
  6
CONTINUOUS
 10
32.2763791046
 20
223.2951475934
  0
VERTEX
  8
0
 62
7
  6
CONTINUOUS
 10
32.2671092018
 20
223.2486354951
  0
VERTEX
  8
0
 62
7
  6
CONTINUOUS
 10
32.2622838462
 20
223.2015304439
  0
VERTEX
  8
0
 62
7
  6
CONTINUOUS
 10
32.2615320164
 20
223.174096659
  0
SEQEND
  0
LINE
  8
0
 62
7
  6
CONTINUOUS
 10
218.661494737
 20
218.0027782054
 11
218.661494737
 21
208.4027782054
  0
POLYLINE
  8
0
 62
7
  6
CONTINUOUS
 66
1
 70
0
  0
VERTEX
  8
0
 62
7
  6
CONTINUOUS
 10
332.861494737
 20
216.421412594
  0
VERTEX
  8
0
 62
7
  6
CONTINUOUS
 10
332.8781141757
 20
216.4160640309
  0
VERTEX
  8
0
 62
7
  6
CONTINUOUS
 10
332.9408305824
 20
216.3876761563
  0
SEQEND
  0
LINE
  8
0
 62
7
  6
CONTINUOUS
 10
231.661494737
 20
208.4027782054
 11
231.661494737
 21
218.0027782054
  0
LINE
  8
0
 62
7
  6
CONTINUOUS
 10
244.061494737
 20
218.0027782054
 11
244.061494737
 21
208.4027782054
  0
POLYLINE
  8
0
 62
7
  6
CONTINUOUS
 66
1
 70
0
  0
VERTEX
  8
0
 62
7
  6
CONTINUOUS
 10
332.9408305824
 20
210.0178802544
  0
VERTEX
  8
0
 62
7
  6
CONTINUOUS
 10
332.8781141783
 20
209.9894923808
  0
VERTEX
  8
0
 62
7
  6
CONTINUOUS
 10
332.861494737
 20
209.9841438167
  0
SEQEND
  0
LINE
  8
0
 62
7
  6
CONTINUOUS
 10
257.061494737
 20
208.4027782054
 11
257.061494737
 21
218.0027782054
  0
POLYLINE
  8
0
 62
7
  6
CONTINUOUS
 66
1
 70
0
  0
VERTEX
  8
0
 62
7
  6
CONTINUOUS
 10
332.9408305824
 20
216.3876761563
  0
VERTEX
  8
0
 62
7
  6
CONTINUOUS
 10
332.9497893037
 20
216.3821903962
  0
VERTEX
  8
0
 62
7
  6
CONTINUOUS
 10
332.956262063
 20
216.3763061485
  0
VERTEX
  8
0
 62
7
  6
CONTINUOUS
 10
332.9601782573
 20
216.3700585529
  0
VERTEX
  8
0
 62
7
  6
CONTINUOUS
 10
332.961494737
 20
216.3634692616
  0
SEQEND
  0
LINE
  8
0
 62
7
  6
CONTINUOUS
 10
269.461494737
 20
218.0027782054
 11
269.461494737
 21
208.4027782054
  0
LINE
  8
0
 62
7
  6
CONTINUOUS
 10
282.461494737
 20
208.4027782054
 11
282.461494737
 21
218.0027782054
  0
LINE
  8
0
 62
7
  6
CONTINUOUS
 10
294.861494737
 20
218.0027782054
 11
294.861494737
 21
208.4027782054
  0
LINE
  8
0
 62
7
  6
CONTINUOUS
 10
307.861494737
 20
208.4027782054
 11
307.861494737
 21
218.0027782054
  0
LINE
  8
0
 62
7
  6
CONTINUOUS
 10
320.261494737
 20
218.0027782054
 11
320.261494737
 21
208.4027782054
  0
LINE
  8
0
 62
7
  6
CONTINUOUS
 10
332.861494737
 20
220.4027782054
 11
332.861494737
 21
206.0027782054
  0
LINE
  8
0
 62
7
  6
CONTINUOUS
 10
332.961494737
 20
208.4027782054
 11
332.961494737
 21
218.0027782054
  0
POLYLINE
  8
0
 62
7
  6
CONTINUOUS
 66
1
 70
0
  0
VERTEX
  8
0
 62
7
  6
CONTINUOUS
 10
332.961494737
 20
210.0420871491
  0
VERTEX
  8
0
 62
7
  6
CONTINUOUS
 10
332.9601782573
 20
210.0354978578
  0
VERTEX
  8
0
 62
7
  6
CONTINUOUS
 10
332.956262063
 20
210.0292502622
  0
VERTEX
  8
0
 62
7
  6
CONTINUOUS
 10
332.9497893037
 20
210.0233660145
  0
VERTEX
  8
0
 62
7
  6
CONTINUOUS
 10
332.9408305824
 20
210.0178802544
  0
SEQEND
  0
POLYLINE
  8
0
 62
7
  6
CONTINUOUS
 66
1
 70
0
  0
VERTEX
  8
0
 62
7
  6
CONTINUOUS
 10
332.861494737
 20
207.676668413
  0
VERTEX
  8
0
 62
7
  6
CONTINUOUS
 10
332.8718067419
 20
207.7131634933
  0
VERTEX
  8
0
 62
7
  6
CONTINUOUS
 10
332.8942337601
 20
207.8045733075
  0
VERTEX
  8
0
 62
7
  6
CONTINUOUS
 10
332.9132888538
 20
207.8957081893
  0
VERTEX
  8
0
 62
7
  6
CONTINUOUS
 10
332.9289507963
 20
207.9857863225
  0
VERTEX
  8
0
 62
7
  6
CONTINUOUS
 10
332.9412880804
 20
208.074041415
  0
VERTEX
  8
0
 62
7
  6
CONTINUOUS
 10
332.9504947768
 20
208.1601998236
  0
VERTEX
  8
0
 62
7
  6
CONTINUOUS
 10
332.9568199984
 20
208.244671641
  0
VERTEX
  8
0
 62
7
  6
CONTINUOUS
 10
332.9604476363
 20
208.3279875843
  0
VERTEX
  8
0
 62
7
  6
CONTINUOUS
 10
332.9614947367
 20
208.4027782054
  0
SEQEND
  0
LINE
  8
0
 62
7
  6
CONTINUOUS
 10
373.0836382054
 20
74.0123781579
 11
372.7836382054
 21
74.0123781579
  0
LINE
  8
DEFAULT_1
 62
2
  6
CENTER
 10
378.1836382054
 20
82.0496331579
 11
378.0708932054
 21
82.0496331579
  0
LINE
  8
0
 62
2
  6
CONTINUOUS
 10
373.9836382054
 20
82.0496331579
 11
371.8836382054
 21
82.0496331579
  0
LINE
  8
DEFAULT_1
 62
2
  6
CENTER
 10
367.6836382054
 20
82.0496331579
 11
367.7963832054
 21
82.0496331579
  0
LINE
  8
0
 62
7
  6
CONTINUOUS
 10
380.4336382054
 20
84.6623781579
 11
381.0188086428
 21
84.6623781579
  0
LINE
  8
0
 62
7
  6
CONTINUOUS
 10
365.4336382054
 20
81.3623781579
 11
365.4336382054
 21
133.4623781579
  0
LINE
  8
0
 62
7
  6
CONTINUOUS
 10
369.6836382054
 20
116.4623781579
 11
369.6836382054
 21
132.6623781579
  0
LINE
  8
0
 62
7
  6
CONTINUOUS
 10
365.7336382054
 20
104.6123781579
 11
380.1336382054
 21
104.6123781579
  0
LINE
  8
DEFAULT_1
 62
2
  6
CENTER
 10
372.9336382054
 20
138.0623781579
 11
372.9336382054
 21
134.8124781579
  0
LINE
  8
0
 62
2
  6
CONTINUOUS
 10
372.9336382054
 20
133.8623781579
 11
372.9336382054
 21
131.7623781579
  0
LINE
  8
DEFAULT_1
 62
2
  6
CENTER
 10
372.9336382054
 20
87.2996331579
 11
372.9336382054
 21
87.1868881579
  0
LINE
  8
0
 62
2
  6
CONTINUOUS
 10
372.9336382054
 20
83.0996331579
 11
372.9336382054
 21
80.9996331579
  0
LINE
  8
DEFAULT_1
 62
2
  6
CENTER
 10
372.9336382054
 20
76.7996331579
 11
372.9336382054
 21
76.9123781579
  0
LINE
  8
DEFAULT_1
 62
2
  6
CENTER
 10
372.9336382054
 20
127.5623781579
 11
372.9336382054
 21
130.8122781579
  0
LINE
  8
0
 62
7
  6
CONTINUOUS
 10
380.4336382054
 20
107.1242786162
 11
382.9316067639
 21
107.1242786162
  0
LINE
  8
DEFAULT_1
 62
2
  6
CENTER
 10
362.6441645211
 20
107.4123781579
 11
385.4336382566
 21
107.4123781579
  0
LINE
  8
0
 62
7
  6
CONTINUOUS
 10
376.1836382054
 20
116.4623781579
 11
376.1836382054
 21
132.6623781579
  0
LINE
  8
0
 62
7
  6
CONTINUOUS
 10
380.4336382054
 20
81.3623781579
 11
380.4336382054
 21
133.4623781579
  0
LINE
  8
0
 62
7
  6
CONTINUOUS
 10
381.5976893777
 20
85.5786435826
 11
381.8493116085
 21
87.1156314671
  0
LINE
  8
0
 62
7
  6
CONTINUOUS
 10
381.8293257161
 20
127.7100709882
 11
381.5762266119
 21
129.2465972506
  0
LINE
  8
0
 62
7
  6
CONTINUOUS
 10
380.9969221493
 20
130.1623781579
 11
380.4336382054
 21
130.1623781579
  0
LINE
  8
DEFAULT_1
 62
2
  6
CENTER
 10
378.1836382054
 20
132.8123781579
 11
374.9337382054
 21
132.8123781579
  0
LINE
  8
0
 62
2
  6
CONTINUOUS
 10
373.9836382054
 20
132.8123781579
 11
371.8836382054
 21
132.8123781579
  0
LINE
  8
DEFAULT_1
 62
2
  6
CENTER
 10
367.6836382054
 20
132.8123781579
 11
370.9335382054
 21
132.8123781579
  0
LINE
  8
0
 62
7
  6
CONTINUOUS
 10
373.0836382054
 20
140.8123781579
 11
372.7836382054
 21
140.8123781579
  0
ARC
  8
0
 62
7
  6
CONTINUOUS
 10
38.161494737
 20
76.7123781579
 40
2.7
 50
270.0
 51
360.0
  0
ARC
  8
0
 62
7
  6
CONTINUOUS
 10
56.561494737
 20
76.7123781579
 40
2.7
 50
180.0
 51
270.0
  0
ARC
  8
0
 62
7
  6
CONTINUOUS
 10
31.161494737
 20
76.7123781579
 40
2.7
 50
180.0
 51
270.0
  0
ARC
  8
0
 62
7
  6
CONTINUOUS
 10
28.761494737
 20
81.4057234176
 40
0.3
 50
158.6113771722
 51
180.0
  0
ARC
  8
0
 62
7
  6
CONTINUOUS
 10
54.161494737
 20
81.4057234176
 40
0.3
 50
158.6113771722
 51
180.0
  0
ARC
  8
0
 62
7
  6
CONTINUOUS
 10
40.561494737
 20
81.4057234176
 40
0.3
 50
0.0
 51
21.3886228278
  0
ARC
  8
0
 62
7
  6
CONTINUOUS
 10
55.561494737
 20
88.5448443134
 40
2.1
 50
338.6113771722
 51
360.0
  0
ARC
  8
0
 62
7
  6
CONTINUOUS
 10
39.161494737
 20
88.5448443134
 40
2.1
 50
180.0
 51
201.3886228278
  0
ARC
  8
0
 62
7
  6
CONTINUOUS
 10
30.161494737
 20
88.5448443134
 40
2.1
 50
338.6113771722
 51
359.9998673402
  0
ARC
  8
0
 62
7
  6
CONTINUOUS
 10
39.161494737
 20
88.5448443134
 40
1.0
 50
180.0
 51
201.3886228278
  0
ARC
  8
0
 62
7
  6
CONTINUOUS
 10
55.561494737
 20
88.5448443134
 40
1.0
 50
338.6113771722
 51
360.0
  0
ARC
  8
0
 62
7
  6
CONTINUOUS
 10
30.161494737
 20
88.5448443134
 40
1.0
 50
338.6113771722
 51
360.0
  0
ARC
  8
0
 62
7
  6
CONTINUOUS
 10
58.361494737
 20
85.6623781579
 40
1.0
 50
180.0
 51
270.0
  0
ARC
  8
0
 62
7
  6
CONTINUOUS
 10
36.361494737
 20
85.6623781579
 40
1.0
 50
270.0
 51
360.0
  0
ARC
  8
0
 62
7
  6
CONTINUOUS
 10
32.961494737
 20
85.6623781579
 40
1.0
 50
180.0
 51
270.0
  0
ARC
  8
0
 62
7
  6
CONTINUOUS
 10
32.961494737
 20
87.1934545505
 40
1.0
 50
158.6113771722
 51
180.0
  0
ARC
  8
0
 62
7
  6
CONTINUOUS
 10
36.361494737
 20
87.1934545505
 40
1.0
 50
0.0
 51
21.3886228278
  0
ARC
  8
0
 62
7
  6
CONTINUOUS
 10
58.361494737
 20
87.1934545505
 40
1.0
 50
158.6113771722
 51
180.0
  0
ARC
  8
0
 62
7
  6
CONTINUOUS
 10
88.961494737
 20
76.7123781579
 40
2.7
 50
270.0
 51
360.0
  0
ARC
  8
0
 62
7
  6
CONTINUOUS
 10
63.561494737
 20
76.7123781579
 40
2.7
 50
270.0
 51
360.0
  0
ARC
  8
0
 62
7
  6
CONTINUOUS
 10
81.961494737
 20
76.7123781579
 40
2.7
 50
180.0
 51
270.0
  0
ARC
  8
0
 62
7
  6
CONTINUOUS
 10
91.361494737
 20
81.4057234176
 40
0.3
 50
0.0
 51
21.3886228278
  0
ARC
  8
0
 62
7
  6
CONTINUOUS
 10
79.561494737
 20
81.4057234176
 40
0.3
 50
158.6113771722
 51
180.0
  0
ARC
  8
0
 62
7
  6
CONTINUOUS
 10
65.961494737
 20
81.4057234176
 40
0.3
 50
0.0
 51
21.3886228278
  0
ARC
  8
0
 62
7
  6
CONTINUOUS
 10
89.961494737
 20
88.5448443134
 40
2.1
 50
180.0
 51
201.3886228278
  0
ARC
  8
0
 62
7
  6
CONTINUOUS
 10
80.961494737
 20
88.5448443134
 40
2.1
 50
338.6113771722
 51
360.0
  0
ARC
  8
0
 62
7
  6
CONTINUOUS
 10
64.561494737
 20
88.5448443134
 40
2.1
 50
180.0
 51
201.3886228278
  0
ARC
  8
0
 62
7
  6
CONTINUOUS
 10
64.561494737
 20
88.5448443134
 40
1.0
 50
180.0
 51
201.3886228278
  0
ARC
  8
0
 62
7
  6
CONTINUOUS
 10
80.961494737
 20
88.5448443134
 40
1.0
 50
338.6113771722
 51
360.0
  0
ARC
  8
0
 62
7
  6
CONTINUOUS
 10
89.961494737
 20
88.5448443134
 40
1.0
 50
180.0
 51
201.3886228278
  0
ARC
  8
0
 62
7
  6
CONTINUOUS
 10
87.161494737
 20
85.6623781579
 40
1.0
 50
270.0
 51
360.0
  0
ARC
  8
0
 62
7
  6
CONTINUOUS
 10
83.761494737
 20
85.6623781579
 40
1.0
 50
180.0
 51
270.0
  0
ARC
  8
0
 62
7
  6
CONTINUOUS
 10
61.761494737
 20
85.6623781579
 40
1.0
 50
270.0
 51
360.0
  0
ARC
  8
0
 62
7
  6
CONTINUOUS
 10
61.761494737
 20
87.1934545505
 40
1.0
 50
0.0
 51
21.3886228278
  0
ARC
  8
0
 62
7
  6
CONTINUOUS
 10
83.761494737
 20
87.1934545505
 40
1.0
 50
158.6113771722
 51
180.0
  0
ARC
  8
0
 62
7
  6
CONTINUOUS
 10
87.161494737
 20
87.1934545505
 40
1.0
 50
0.0
 51
21.3886228278
  0
ARC
  8
0
 62
7
  6
CONTINUOUS
 10
90.961494737
 20
102.6123781579
 40
3.1
 50
90.0
 51
180.0
  0
ARC
  8
0
 62
7
  6
CONTINUOUS
 10
79.961494737
 20
102.6123781579
 40
3.1
 50
0.0
 51
90.0
  0
ARC
  8
0
 62
7
  6
CONTINUOUS
 10
65.561494737
 20
102.6123781579
 40
3.1
 50
90.0
 51
180.0
  0
ARC
  8
0
 62
7
  6
CONTINUOUS
 10
54.561494737
 20
102.6123781579
 40
3.1
 50
0.0
 51
90.0
  0
ARC
  8
0
 62
7
  6
CONTINUOUS
 10
40.161494737
 20
102.6123781579
 40
3.1
 50
90.0
 51
180.0
  0
ARC
  8
0
 62
7
  6
CONTINUOUS
 10
34.7615319665
 20
104.6242786162
 40
2.5
 50
90.0
 51
179.9998673402
  0
ARC
  8
0
 62
7
  6
CONTINUOUS
 10
65.561494737
 20
102.6123781579
 40
2.0
 50
90.0
 51
180.0
  0
ARC
  8
0
 62
7
  6
CONTINUOUS
 10
79.961494737
 20
102.6123781579
 40
2.0
 50
0.0
 51
90.0
  0
ARC
  8
0
 62
7
  6
CONTINUOUS
 10
54.561494737
 20
102.6123781579
 40
2.0
 50
0.0
 51
90.0
  0
ARC
  8
0
 62
7
  6
CONTINUOUS
 10
40.161494737
 20
102.6123781579
 40
2.0
 50
90.0
 51
180.0
  0
ARC
  8
0
 62
7
  6
CONTINUOUS
 10
90.961494737
 20
102.6123781579
 40
2.0
 50
90.0
 51
180.0
  0
ARC
  8
0
 62
7
  6
CONTINUOUS
 10
28.861494737
 20
104.9123781579
 40
0.3
 50
180.0
 51
270.0
  0
ARC
  8
0
 62
7
  6
CONTINUOUS
 10
30.861494737
 20
104.3123781579
 40
0.3
 50
0.0
 51
90.0
  0
ARC
  8
0
 62
7
  6
CONTINUOUS
 10
114.361494737
 20
76.7123781579
 40
2.7
 50
270.0
 51
360.0
  0
ARC
  8
0
 62
7
  6
CONTINUOUS
 10
132.761494737
 20
76.7123781579
 40
2.7
 50
180.0
 51
270.0
  0
ARC
  8
0
 62
7
  6
CONTINUOUS
 10
107.361494737
 20
76.7123781579
 40
2.7
 50
180.0
 51
270.0
  0
ARC
  8
0
 62
7
  6
CONTINUOUS
 10
104.961494737
 20
81.4057234176
 40
0.3
 50
158.6113771722
 51
180.0
  0
ARC
  8
0
 62
7
  6
CONTINUOUS
 10
130.361494737
 20
81.4057234176
 40
0.3
 50
158.6113771722
 51
180.0
  0
ARC
  8
0
 62
7
  6
CONTINUOUS
 10
116.761494737
 20
81.4057234176
 40
0.3
 50
0.0
 51
21.3886228278
  0
ARC
  8
0
 62
7
  6
CONTINUOUS
 10
131.761494737
 20
88.5448443134
 40
2.1
 50
338.6113771722
 51
360.0
  0
ARC
  8
0
 62
7
  6
CONTINUOUS
 10
115.361494737
 20
88.5448443134
 40
2.1
 50
180.0
 51
201.3886228278
  0
ARC
  8
0
 62
7
  6
CONTINUOUS
 10
106.361494737
 20
88.5448443134
 40
2.1
 50
338.6113771722
 51
360.0
  0
ARC
  8
0
 62
7
  6
CONTINUOUS
 10
115.361494737
 20
88.5448443134
 40
1.0
 50
180.0
 51
201.3886228278
  0
ARC
  8
0
 62
7
  6
CONTINUOUS
 10
131.761494737
 20
88.5448443134
 40
1.0
 50
338.6113771722
 51
360.0
  0
ARC
  8
0
 62
7
  6
CONTINUOUS
 10
106.361494737
 20
88.5448443134
 40
1.0
 50
338.6113771722
 51
360.0
  0
ARC
  8
0
 62
7
  6
CONTINUOUS
 10
134.561494737
 20
85.6623781579
 40
1.0
 50
180.0
 51
270.0
  0
ARC
  8
0
 62
7
  6
CONTINUOUS
 10
109.161494737
 20
85.6623781579
 40
1.0
 50
180.0
 51
270.0
  0
ARC
  8
0
 62
7
  6
CONTINUOUS
 10
112.561494737
 20
85.6623781579
 40
1.0
 50
270.0
 51
360.0
  0
ARC
  8
0
 62
7
  6
CONTINUOUS
 10
109.161494737
 20
87.1934545505
 40
1.0
 50
158.6113771722
 51
180.0
  0
ARC
  8
0
 62
7
  6
CONTINUOUS
 10
112.561494737
 20
87.1934545505
 40
1.0
 50
0.0
 51
21.3886228278
  0
ARC
  8
0
 62
7
  6
CONTINUOUS
 10
134.561494737
 20
87.1934545505
 40
1.0
 50
158.6113771722
 51
180.0
  0
ARC
  8
0
 62
7
  6
CONTINUOUS
 10
158.161494737
 20
76.7123781579
 40
2.7
 50
180.0
 51
270.0
  0
ARC
  8
0
 62
7
  6
CONTINUOUS
 10
139.761494737
 20
76.7123781579
 40
2.7
 50
270.0
 51
360.0
  0
ARC
  8
0
 62
7
  6
CONTINUOUS
 10
165.161494737
 20
76.7123781579
 40
2.7
 50
270.0
 51
360.0
  0
ARC
  8
0
 62
7
  6
CONTINUOUS
 10
155.761494737
 20
81.4057234176
 40
0.3
 50
158.6113771722
 51
180.0
  0
ARC
  8
0
 62
7
  6
CONTINUOUS
 10
142.161494737
 20
81.4057234176
 40
0.3
 50
0.0
 51
21.3886228278
  0
ARC
  8
0
 62
7
  6
CONTINUOUS
 10
167.561494737
 20
81.4057234176
 40
0.3
 50
0.0
 51
21.3886228278
  0
ARC
  8
0
 62
7
  6
CONTINUOUS
 10
166.161494737
 20
88.5448443134
 40
2.1
 50
180.0
 51
201.3886228278
  0
ARC
  8
0
 62
7
  6
CONTINUOUS
 10
157.161494737
 20
88.5448443134
 40
2.1
 50
338.6113771722
 51
360.0
  0
ARC
  8
0
 62
7
  6
CONTINUOUS
 10
140.761494737
 20
88.5448443134
 40
2.1
 50
180.0
 51
201.3886228278
  0
ARC
  8
0
 62
7
  6
CONTINUOUS
 10
157.161494737
 20
88.5448443134
 40
1.0
 50
338.6113771722
 51
360.0
  0
ARC
  8
0
 62
7
  6
CONTINUOUS
 10
140.761494737
 20
88.5448443134
 40
1.0
 50
180.0
 51
201.3886228278
  0
ARC
  8
0
 62
7
  6
CONTINUOUS
 10
166.161494737
 20
88.5448443134
 40
1.0
 50
180.0
 51
201.3886228278
  0
ARC
  8
0
 62
7
  6
CONTINUOUS
 10
159.961494737
 20
85.6623781579
 40
1.0
 50
180.0
 51
270.0
  0
ARC
  8
0
 62
7
  6
CONTINUOUS
 10
163.361494737
 20
85.6623781579
 40
1.0
 50
270.0
 51
360.0
  0
ARC
  8
0
 62
7
  6
CONTINUOUS
 10
137.961494737
 20
85.6623781579
 40
1.0
 50
270.0
 51
360.0
  0
ARC
  8
0
 62
7
  6
CONTINUOUS
 10
137.961494737
 20
87.1934545505
 40
1.0
 50
0.0
 51
21.3886228278
  0
ARC
  8
0
 62
7
  6
CONTINUOUS
 10
159.961494737
 20
87.1934545505
 40
1.0
 50
158.6113771722
 51
180.0
  0
ARC
  8
0
 62
7
  6
CONTINUOUS
 10
163.361494737
 20
87.1934545505
 40
1.0
 50
0.0
 51
21.3886228278
  0
ARC
  8
0
 62
7
  6
CONTINUOUS
 10
167.161494737
 20
102.6123781579
 40
3.1
 50
90.0
 51
180.0
  0
ARC
  8
0
 62
7
  6
CONTINUOUS
 10
156.161494737
 20
102.6123781579
 40
3.1
 50
0.0
 51
90.0
  0
ARC
  8
0
 62
7
  6
CONTINUOUS
 10
141.761494737
 20
102.6123781579
 40
3.1
 50
90.0
 51
180.0
  0
ARC
  8
0
 62
7
  6
CONTINUOUS
 10
130.761494737
 20
102.6123781579
 40
3.1
 50
0.0
 51
90.0
  0
ARC
  8
0
 62
7
  6
CONTINUOUS
 10
116.361494737
 20
102.6123781579
 40
3.1
 50
90.0
 51
180.0
  0
ARC
  8
0
 62
7
  6
CONTINUOUS
 10
105.361494737
 20
102.6123781579
 40
3.1
 50
0.0
 51
90.0
  0
ARC
  8
0
 62
7
  6
CONTINUOUS
 10
130.761494737
 20
102.6123781579
 40
2.0
 50
0.0
 51
90.0
  0
ARC
  8
0
 62
7
  6
CONTINUOUS
 10
116.361494737
 20
102.6123781579
 40
2.0
 50
90.0
 51
180.0
  0
ARC
  8
0
 62
7
  6
CONTINUOUS
 10
141.761494737
 20
102.6123781579
 40
2.0
 50
90.0
 51
180.0
  0
ARC
  8
0
 62
7
  6
CONTINUOUS
 10
156.161494737
 20
102.6123781579
 40
2.0
 50
0.0
 51
90.0
  0
ARC
  8
0
 62
7
  6
CONTINUOUS
 10
105.361494737
 20
102.6123781579
 40
2.0
 50
0.0
 51
90.0
  0
ARC
  8
0
 62
7
  6
CONTINUOUS
 10
167.161494737
 20
102.6123781579
 40
2.0
 50
90.0
 51
180.0
  0
ARC
  8
0
 62
7
  6
CONTINUOUS
 10
67.261494737
 20
112.0377181916
 40
2.0
 50
270.0
 51
360.0
  0
ARC
  8
0
 62
7
  6
CONTINUOUS
 10
78.261494737
 20
112.0377181916
 40
2.0
 50
180.0
 51
270.0
  0
ARC
  8
0
 62
7
  6
CONTINUOUS
 10
52.861494737
 20
112.0377181916
 40
2.0
 50
180.0
 51
270.0
  0
ARC
  8
0
 62
7
  6
CONTINUOUS
 10
41.861494737
 20
112.0377181916
 40
2.0
 50
270.0
 51
360.0
  0
ARC
  8
0
 62
7
  6
CONTINUOUS
 10
103.661494737
 20
112.0377181916
 40
2.0
 50
180.0
 51
270.0
  0
ARC
  8
0
 62
7
  6
CONTINUOUS
 10
92.661494737
 20
112.0377181916
 40
2.0
 50
270.0
 51
360.0
  0
ARC
  8
0
 62
7
  6
CONTINUOUS
 10
28.861494737
 20
109.7377181916
 40
0.3
 50
90.0
 51
180.0000000086
  0
ARC
  8
0
 62
7
  6
CONTINUOUS
 10
42.861494737
 20
126.2803874778
 40
2.1
 50
0.0
 51
21.39
  0
ARC
  8
0
 62
7
  6
CONTINUOUS
 10
51.861494737
 20
126.2803874778
 40
2.1
 50
158.61
 51
180.0
  0
ARC
  8
0
 62
7
  6
CONTINUOUS
 10
68.261494737
 20
126.2803874778
 40
2.1
 50
0.0
 51
21.39
  0
ARC
  8
0
 62
7
  6
CONTINUOUS
 10
68.261494737
 20
126.2803874778
 40
1.0
 50
0.0
 51
21.39
  0
ARC
  8
0
 62
7
  6
CONTINUOUS
 10
51.861494737
 20
126.2803874778
 40
1.0
 50
158.61
 51
180.0
  0
ARC
  8
0
 62
7
  6
CONTINUOUS
 10
42.861494737
 20
126.2803874778
 40
1.0
 50
0.0
 51
21.39
  0
ARC
  8
0
 62
7
  6
CONTINUOUS
 10
71.061494737
 20
129.1623781579
 40
1.0
 50
90.0
 51
180.0
  0
ARC
  8
0
 62
7
  6
CONTINUOUS
 10
49.061494737
 20
129.1623781579
 40
1.0
 50
0.0
 51
90.0
  0
ARC
  8
0
 62
7
  6
CONTINUOUS
 10
45.661494737
 20
129.1623781579
 40
1.0
 50
90.0
 51
180.0
  0
ARC
  8
0
 62
7
  6
CONTINUOUS
 10
71.061494737
 20
127.631761612
 40
1.0
 50
180.0
 51
201.39
  0
ARC
  8
0
 62
7
  6
CONTINUOUS
 10
49.061494737
 20
127.631761612
 40
1.0
 50
338.61
 51
360.0
  0
ARC
  8
0
 62
7
  6
CONTINUOUS
 10
45.661494737
 20
127.631761612
 40
1.0
 50
180.0
 51
201.39
  0
ARC
  8
0
 62
7
  6
CONTINUOUS
 10
69.261494737
 20
138.1123781579
 40
2.7
 50
90.0
 51
180.0
  0
ARC
  8
0
 62
7
  6
CONTINUOUS
 10
50.861494737
 20
138.1123781579
 40
2.7
 50
0.0
 51
90.0
  0
ARC
  8
0
 62
7
  6
CONTINUOUS
 10
43.861494737
 20
138.1123781579
 40
2.7
 50
90.0
 51
180.0
  0
ARC
  8
0
 62
7
  6
CONTINUOUS
 10
41.461494737
 20
133.4190366322
 40
0.3
 50
180.0
 51
201.39
  0
ARC
  8
0
 62
7
  6
CONTINUOUS
 10
53.261494737
 20
133.4190366322
 40
0.3
 50
338.61
 51
360.0
  0
ARC
  8
0
 62
7
  6
CONTINUOUS
 10
66.861494737
 20
133.4190366322
 40
0.3
 50
180.0
 51
201.39
  0
ARC
  8
0
 62
7
  6
CONTINUOUS
 10
77.261494737
 20
126.2803874778
 40
2.1
 50
158.61
 51
180.0
  0
ARC
  8
0
 62
7
  6
CONTINUOUS
 10
93.661494737
 20
126.2803874778
 40
2.1
 50
0.0
 51
21.39
  0
ARC
  8
0
 62
7
  6
CONTINUOUS
 10
102.661494737
 20
126.2803874778
 40
2.1
 50
158.61
 51
180.0
  0
ARC
  8
0
 62
7
  6
CONTINUOUS
 10
77.261494737
 20
126.2803874778
 40
1.0
 50
158.61
 51
180.0
  0
ARC
  8
0
 62
7
  6
CONTINUOUS
 10
93.661494737
 20
126.2803874778
 40
1.0
 50
0.0
 51
21.39
  0
ARC
  8
0
 62
7
  6
CONTINUOUS
 10
102.661494737
 20
126.2803874778
 40
1.0
 50
158.61
 51
180.0
  0
ARC
  8
0
 62
7
  6
CONTINUOUS
 10
74.461494737
 20
129.1623781579
 40
1.0
 50
0.0
 51
90.0
  0
ARC
  8
0
 62
7
  6
CONTINUOUS
 10
96.461494737
 20
129.1623781579
 40
1.0
 50
90.0
 51
180.0
  0
ARC
  8
0
 62
7
  6
CONTINUOUS
 10
99.861494737
 20
129.1623781579
 40
1.0
 50
0.0
 51
90.0
  0
ARC
  8
0
 62
7
  6
CONTINUOUS
 10
99.861494737
 20
127.631761612
 40
1.0
 50
338.61
 51
360.0
  0
ARC
  8
0
 62
7
  6
CONTINUOUS
 10
96.461494737
 20
127.631761612
 40
1.0
 50
180.0
 51
201.39
  0
ARC
  8
0
 62
7
  6
CONTINUOUS
 10
74.461494737
 20
127.631761612
 40
1.0
 50
338.61
 51
360.0
  0
ARC
  8
0
 62
7
  6
CONTINUOUS
 10
76.261494737
 20
138.1123781579
 40
2.7
 50
0.0
 51
90.0
  0
ARC
  8
0
 62
7
  6
CONTINUOUS
 10
94.661494737
 20
138.1123781579
 40
2.7
 50
90.0
 51
180.0
  0
ARC
  8
0
 62
7
  6
CONTINUOUS
 10
101.661494737
 20
138.1123781579
 40
2.7
 50
0.0
 51
90.0
  0
ARC
  8
0
 62
7
  6
CONTINUOUS
 10
104.061494737
 20
133.4190366322
 40
0.3
 50
338.61
 51
360.0
  0
ARC
  8
0
 62
7
  6
CONTINUOUS
 10
92.261494737
 20
133.4190366322
 40
0.3
 50
180.0
 51
201.39
  0
ARC
  8
0
 62
7
  6
CONTINUOUS
 10
78.661494737
 20
133.4190366322
 40
0.3
 50
338.61
 51
360.0
  0
ARC
  8
0
 62
7
  6
CONTINUOUS
 10
174.261494737
 20
108.2123781579
 40
2.5
 50
270.0
 51
360.0
  0
ARC
  8
0
 62
7
  6
CONTINUOUS
 10
168.861494737
 20
112.0377181916
 40
2.0
 50
270.0
 51
360.0
  0
ARC
  8
0
 62
7
  6
CONTINUOUS
 10
179.861494737
 20
112.0377181916
 40
2.0
 50
180.0
 51
270.0
  0
ARC
  8
0
 62
7
  6
CONTINUOUS
 10
154.461494737
 20
112.0377181916
 40
2.0
 50
180.0
 51
270.0
  0
ARC
  8
0
 62
7
  6
CONTINUOUS
 10
143.461494737
 20
112.0377181916
 40
2.0
 50
270.0
 51
360.0
  0
ARC
  8
0
 62
7
  6
CONTINUOUS
 10
118.061494737
 20
112.0377181916
 40
2.0
 50
270.0
 51
360.0
  0
ARC
  8
0
 62
7
  6
CONTINUOUS
 10
129.061494737
 20
112.0377181916
 40
2.0
 50
180.0
 51
270.0
  0
ARC
  8
0
 62
7
  6
CONTINUOUS
 10
119.061494737
 20
126.2803874778
 40
2.1
 50
0.0
 51
21.39
  0
ARC
  8
0
 62
7
  6
CONTINUOUS
 10
128.061494737
 20
126.2803874778
 40
2.1
 50
158.61
 51
180.0
  0
ARC
  8
0
 62
7
  6
CONTINUOUS
 10
144.461494737
 20
126.2803874778
 40
2.1
 50
0.0
 51
21.39
  0
ARC
  8
0
 62
7
  6
CONTINUOUS
 10
144.461494737
 20
126.2803874778
 40
1.0
 50
0.0
 51
21.39
  0
ARC
  8
0
 62
7
  6
CONTINUOUS
 10
128.061494737
 20
126.2803874778
 40
1.0
 50
158.61
 51
180.0
  0
ARC
  8
0
 62
7
  6
CONTINUOUS
 10
119.061494737
 20
126.2803874778
 40
1.0
 50
0.0
 51
21.39
  0
ARC
  8
0
 62
7
  6
CONTINUOUS
 10
121.861494737
 20
129.1623781579
 40
1.0
 50
90.0
 51
180.0
  0
ARC
  8
0
 62
7
  6
CONTINUOUS
 10
125.261494737
 20
129.1623781579
 40
1.0
 50
0.0
 51
90.0
  0
ARC
  8
0
 62
7
  6
CONTINUOUS
 10
147.261494737
 20
129.1623781579
 40
1.0
 50
90.0
 51
180.0
  0
ARC
  8
0
 62
7
  6
CONTINUOUS
 10
147.261494737
 20
127.631761612
 40
1.0
 50
180.0
 51
201.39
  0
ARC
  8
0
 62
7
  6
CONTINUOUS
 10
125.261494737
 20
127.631761612
 40
1.0
 50
338.61
 51
360.0
  0
ARC
  8
0
 62
7
  6
CONTINUOUS
 10
121.861494737
 20
127.631761612
 40
1.0
 50
180.0
 51
201.39
  0
ARC
  8
0
 62
7
  6
CONTINUOUS
 10
145.461494737
 20
138.1123781579
 40
2.7
 50
90.0
 51
180.0
  0
ARC
  8
0
 62
7
  6
CONTINUOUS
 10
127.061494737
 20
138.1123781579
 40
2.7
 50
0.0
 51
90.0
  0
ARC
  8
0
 62
7
  6
CONTINUOUS
 10
120.061494737
 20
138.1123781579
 40
2.7
 50
90.0
 51
180.0
  0
ARC
  8
0
 62
7
  6
CONTINUOUS
 10
117.661494737
 20
133.4190366322
 40
0.3
 50
180.0
 51
201.39
  0
ARC
  8
0
 62
7
  6
CONTINUOUS
 10
129.461494737
 20
133.4190366322
 40
0.3
 50
338.61
 51
360.0
  0
ARC
  8
0
 62
7
  6
CONTINUOUS
 10
143.061494737
 20
133.4190366322
 40
0.3
 50
180.0
 51
201.39
  0
ARC
  8
0
 62
7
  6
CONTINUOUS
 10
153.461494737
 20
126.2803874778
 40
2.1
 50
158.61
 51
180.0
  0
ARC
  8
0
 62
7
  6
CONTINUOUS
 10
169.861494737
 20
126.2803874778
 40
2.1
 50
0.0
 51
21.39
  0
ARC
  8
0
 62
7
  6
CONTINUOUS
 10
178.861494737
 20
126.2803874778
 40
2.1
 50
158.61
 51
180.0
  0
ARC
  8
0
 62
7
  6
CONTINUOUS
 10
153.461494737
 20
126.2803874778
 40
1.0
 50
158.61
 51
180.0
  0
ARC
  8
0
 62
7
  6
CONTINUOUS
 10
169.861494737
 20
126.2803874778
 40
1.0
 50
0.0
 51
21.39
  0
ARC
  8
0
 62
7
  6
CONTINUOUS
 10
178.861494737
 20
126.2803874778
 40
1.0
 50
158.61
 51
180.0
  0
ARC
  8
0
 62
7
  6
CONTINUOUS
 10
150.661494737
 20
129.1623781579
 40
1.0
 50
0.0
 51
90.0
  0
ARC
  8
0
 62
7
  6
CONTINUOUS
 10
172.661494737
 20
129.1623781579
 40
1.0
 50
90.0
 51
180.0
  0
ARC
  8
0
 62
7
  6
CONTINUOUS
 10
176.061494737
 20
129.1623781579
 40
1.0
 50
0.0
 51
90.0
  0
ARC
  8
0
 62
7
  6
CONTINUOUS
 10
176.061494737
 20
127.631761612
 40
1.0
 50
338.61
 51
360.0
  0
ARC
  8
0
 62
7
  6
CONTINUOUS
 10
172.661494737
 20
127.631761612
 40
1.0
 50
180.0
 51
201.39
  0
ARC
  8
0
 62
7
  6
CONTINUOUS
 10
150.661494737
 20
127.631761612
 40
1.0
 50
338.61
 51
360.0
  0
ARC
  8
0
 62
7
  6
CONTINUOUS
 10
152.461494737
 20
138.1123781579
 40
2.7
 50
0.0
 51
90.0
  0
ARC
  8
0
 62
7
  6
CONTINUOUS
 10
170.861494737
 20
138.1123781579
 40
2.7
 50
90.0
 51
180.0
  0
ARC
  8
0
 62
7
  6
CONTINUOUS
 10
177.861494737
 20
138.1123781579
 40
2.7
 50
0.0
 51
90.0
  0
ARC
  8
0
 62
7
  6
CONTINUOUS
 10
154.861494737
 20
133.4190366322
 40
0.3
 50
338.61
 51
360.0
  0
ARC
  8
0
 62
7
  6
CONTINUOUS
 10
168.461494737
 20
133.4190366322
 40
0.3
 50
180.0
 51
201.39
  0
ARC
  8
0
 62
7
  6
CONTINUOUS
 10
180.261494737
 20
133.4190366322
 40
0.3
 50
338.61
 51
360.0
  0
ARC
  8
0
 62
7
  6
CONTINUOUS
 10
183.561494737
 20
76.7123781579
 40
2.7
 50
180.0
 51
270.0
  0
ARC
  8
0
 62
7
  6
CONTINUOUS
 10
208.961494737
 20
76.7123781579
 40
2.7
 50
180.0
 51
270.0
  0
ARC
  8
0
 62
7
  6
CONTINUOUS
 10
190.561494737
 20
76.7123781579
 40
2.7
 50
270.0
 51
360.0
  0
ARC
  8
0
 62
7
  6
CONTINUOUS
 10
241.361494737
 20
76.7123781579
 40
2.7
 50
270.0
 51
360.0
  0
ARC
  8
0
 62
7
  6
CONTINUOUS
 10
215.961494737
 20
76.7123781579
 40
2.7
 50
270.0
 51
360.0
  0
ARC
  8
0
 62
7
  6
CONTINUOUS
 10
234.361494737
 20
76.7123781579
 40
2.7
 50
180.0
 51
270.0
  0
ARC
  8
0
 62
7
  6
CONTINUOUS
 10
182.561494737
 20
88.5448443134
 40
1.0
 50
338.6113771722
 51
360.0
  0
ARC
  8
0
 62
7
  6
CONTINUOUS
 10
207.961494737
 20
88.5448443134
 40
1.0
 50
338.6113771722
 51
360.0
  0
ARC
  8
0
 62
7
  6
CONTINUOUS
 10
191.561494737
 20
88.5448443134
 40
1.0
 50
180.0
 51
201.3886228278
  0
ARC
  8
0
 62
7
  6
CONTINUOUS
 10
242.361494737
 20
88.5448443134
 40
1.0
 50
180.0
 51
201.3886228278
  0
ARC
  8
0
 62
7
  6
CONTINUOUS
 10
216.961494737
 20
88.5448443134
 40
1.0
 50
180.0
 51
201.3886228278
  0
ARC
  8
0
 62
7
  6
CONTINUOUS
 10
233.361494737
 20
88.5448443134
 40
1.0
 50
338.6113771722
 51
360.0
  0
ARC
  8
0
 62
7
  6
CONTINUOUS
 10
181.161494737
 20
81.4057234176
 40
0.3
 50
158.6113771722
 51
180.0
  0
ARC
  8
0
 62
7
  6
CONTINUOUS
 10
206.561494737
 20
81.4057234176
 40
0.3
 50
158.6113771722
 51
180.0
  0
ARC
  8
0
 62
7
  6
CONTINUOUS
 10
192.961494737
 20
81.4057234176
 40
0.3
 50
0.0
 51
21.3886228278
  0
ARC
  8
0
 62
7
  6
CONTINUOUS
 10
243.761494737
 20
81.4057234176
 40
0.3
 50
0.0
 51
21.3886228278
  0
ARC
  8
0
 62
7
  6
CONTINUOUS
 10
218.361494737
 20
81.4057234176
 40
0.3
 50
0.0
 51
21.3886228278
  0
ARC
  8
0
 62
7
  6
CONTINUOUS
 10
231.961494737
 20
81.4057234176
 40
0.3
 50
158.6113771722
 51
180.0
  0
ARC
  8
0
 62
7
  6
CONTINUOUS
 10
181.561494737
 20
102.6123781579
 40
2.0
 50
0.0
 51
90.0
  0
ARC
  8
0
 62
7
  6
CONTINUOUS
 10
192.561494737
 20
102.6123781579
 40
2.0
 50
90.0
 51
180.0
  0
ARC
  8
0
 62
7
  6
CONTINUOUS
 10
206.961494737
 20
102.6123781579
 40
2.0
 50
0.0
 51
90.0
  0
ARC
  8
0
 62
7
  6
CONTINUOUS
 10
243.361494737
 20
102.6123781579
 40
2.0
 50
90.0
 51
180.0
  0
ARC
  8
0
 62
7
  6
CONTINUOUS
 10
232.361494737
 20
102.6123781579
 40
2.0
 50
0.0
 51
90.0
  0
ARC
  8
0
 62
7
  6
CONTINUOUS
 10
217.961494737
 20
102.6123781579
 40
2.0
 50
90.0
 51
180.0
  0
ARC
  8
0
 62
7
  6
CONTINUOUS
 10
310.561494737
 20
76.7123781579
 40
2.7
 50
180.0
 51
270.0
  0
ARC
  8
0
 62
7
  6
CONTINUOUS
 10
285.161494737
 20
76.7123781579
 40
2.7
 50
180.0
 51
270.0
  0
ARC
  8
0
 62
7
  6
CONTINUOUS
 10
259.761494737
 20
76.7123781579
 40
2.7
 50
180.0
 51
270.0
  0
ARC
  8
0
 62
7
  6
CONTINUOUS
 10
317.561494737
 20
76.7123781579
 40
2.7
 50
270.0
 51
360.0
  0
ARC
  8
0
 62
7
  6
CONTINUOUS
 10
266.761494737
 20
76.7123781579
 40
2.7
 50
270.0
 51
360.0
  0
ARC
  8
0
 62
7
  6
CONTINUOUS
 10
292.161494737
 20
76.7123781579
 40
2.7
 50
270.0
 51
360.0
  0
ARC
  8
0
 62
7
  6
CONTINUOUS
 10
258.761494737
 20
88.5448443134
 40
1.0
 50
338.6113771722
 51
360.0
  0
ARC
  8
0
 62
7
  6
CONTINUOUS
 10
318.561494737
 20
88.5448443134
 40
1.0
 50
180.0
 51
201.3886228278
  0
ARC
  8
0
 62
7
  6
CONTINUOUS
 10
284.161494737
 20
88.5448443134
 40
1.0
 50
338.6113771722
 51
360.0
  0
ARC
  8
0
 62
7
  6
CONTINUOUS
 10
267.761494737
 20
88.5448443134
 40
1.0
 50
180.0
 51
201.3886228278
  0
ARC
  8
0
 62
7
  6
CONTINUOUS
 10
293.161494737
 20
88.5448443134
 40
1.0
 50
180.0
 51
201.3886228278
  0
ARC
  8
0
 62
7
  6
CONTINUOUS
 10
309.561494737
 20
88.5448443134
 40
1.0
 50
338.6113771722
 51
360.0
  0
ARC
  8
0
 62
7
  6
CONTINUOUS
 10
257.361494737
 20
81.4057234176
 40
0.3
 50
158.6113771722
 51
180.0
  0
ARC
  8
0
 62
7
  6
CONTINUOUS
 10
319.961494737
 20
81.4057234176
 40
0.3
 50
0.0
 51
21.3886228278
  0
ARC
  8
0
 62
7
  6
CONTINUOUS
 10
282.761494737
 20
81.4057234176
 40
0.3
 50
158.6113771722
 51
180.0
  0
ARC
  8
0
 62
7
  6
CONTINUOUS
 10
269.161494737
 20
81.4057234176
 40
0.3
 50
0.0
 51
21.3886228278
  0
ARC
  8
0
 62
7
  6
CONTINUOUS
 10
294.561494737
 20
81.4057234176
 40
0.3
 50
0.0
 51
21.3886228278
  0
ARC
  8
0
 62
7
  6
CONTINUOUS
 10
308.161494737
 20
81.4057234176
 40
0.3
 50
158.6113771722
 51
180.0
  0
ARC
  8
0
 62
7
  6
CONTINUOUS
 10
257.761494737
 20
102.6123781579
 40
2.0
 50
0.0
 51
90.0
  0
ARC
  8
0
 62
7
  6
CONTINUOUS
 10
319.561494737
 20
102.6123781579
 40
2.0
 50
90.0
 51
180.0
  0
ARC
  8
0
 62
7
  6
CONTINUOUS
 10
268.761494737
 20
102.6123781579
 40
2.0
 50
90.0
 51
180.0
  0
ARC
  8
0
 62
7
  6
CONTINUOUS
 10
283.161494737
 20
102.6123781579
 40
2.0
 50
0.0
 51
90.0
  0
ARC
  8
0
 62
7
  6
CONTINUOUS
 10
308.561494737
 20
102.6123781579
 40
2.0
 50
0.0
 51
90.0
  0
ARC
  8
0
 62
7
  6
CONTINUOUS
 10
294.161494737
 20
102.6123781579
 40
2.0
 50
90.0
 51
180.0
  0
ARC
  8
0
 62
7
  6
CONTINUOUS
 10
332.561494737
 20
104.9123781579
 40
0.3
 50
270.0
 51
360.0
  0
ARC
  8
0
 62
7
  6
CONTINUOUS
 10
230.661494737
 20
112.0377181916
 40
2.0
 50
180.0
 51
270.0
  0
ARC
  8
0
 62
7
  6
CONTINUOUS
 10
219.661494737
 20
112.0377181916
 40
2.0
 50
270.0
 51
360.0
  0
ARC
  8
0
 62
7
  6
CONTINUOUS
 10
256.061494737
 20
112.0377181916
 40
2.0
 50
180.0
 51
270.0
  0
ARC
  8
0
 62
7
  6
CONTINUOUS
 10
194.261494737
 20
112.0377181916
 40
2.0
 50
270.0
 51
360.0
  0
ARC
  8
0
 62
7
  6
CONTINUOUS
 10
205.261494737
 20
112.0377181916
 40
2.0
 50
180.0
 51
270.0
  0
ARC
  8
0
 62
7
  6
CONTINUOUS
 10
245.061494737
 20
112.0377181916
 40
2.0
 50
270.0
 51
360.0
  0
ARC
  8
0
 62
7
  6
CONTINUOUS
 10
196.261494737
 20
138.1123781579
 40
2.7
 50
90.0
 51
180.0
  0
ARC
  8
0
 62
7
  6
CONTINUOUS
 10
203.261494737
 20
138.1123781579
 40
2.7
 50
0.0
 51
90.0
  0
ARC
  8
0
 62
7
  6
CONTINUOUS
 10
221.661494737
 20
138.1123781579
 40
2.7
 50
90.0
 51
180.0
  0
ARC
  8
0
 62
7
  6
CONTINUOUS
 10
228.661494737
 20
138.1123781579
 40
2.7
 50
0.0
 51
90.0
  0
ARC
  8
0
 62
7
  6
CONTINUOUS
 10
254.061494737
 20
138.1123781579
 40
2.7
 50
0.0
 51
90.0
  0
ARC
  8
0
 62
7
  6
CONTINUOUS
 10
247.061494737
 20
138.1123781579
 40
2.7
 50
90.0
 51
180.0
  0
ARC
  8
0
 62
7
  6
CONTINUOUS
 10
195.261494737
 20
126.2803874778
 40
1.0
 50
0.0
 51
21.39
  0
ARC
  8
0
 62
7
  6
CONTINUOUS
 10
204.261494737
 20
126.2803874778
 40
1.0
 50
158.61
 51
180.0
  0
ARC
  8
0
 62
7
  6
CONTINUOUS
 10
246.061494737
 20
126.2803874778
 40
1.0
 50
0.0
 51
21.39
  0
ARC
  8
0
 62
7
  6
CONTINUOUS
 10
229.661494737
 20
126.2803874778
 40
1.0
 50
158.61
 51
180.0
  0
ARC
  8
0
 62
7
  6
CONTINUOUS
 10
255.061494737
 20
126.2803874778
 40
1.0
 50
158.61
 51
180.0
  0
ARC
  8
0
 62
7
  6
CONTINUOUS
 10
220.661494737
 20
126.2803874778
 40
1.0
 50
0.0
 51
21.39
  0
ARC
  8
0
 62
7
  6
CONTINUOUS
 10
193.861494737
 20
133.4190366322
 40
0.3
 50
180.0
 51
201.39
  0
ARC
  8
0
 62
7
  6
CONTINUOUS
 10
205.661494737
 20
133.4190366322
 40
0.3
 50
338.61
 51
360.0
  0
ARC
  8
0
 62
7
  6
CONTINUOUS
 10
244.661494737
 20
133.4190366322
 40
0.3
 50
180.0
 51
201.39
  0
ARC
  8
0
 62
7
  6
CONTINUOUS
 10
231.061494737
 20
133.4190366322
 40
0.3
 50
338.61
 51
360.0
  0
ARC
  8
0
 62
7
  6
CONTINUOUS
 10
256.461494737
 20
133.4190366322
 40
0.3
 50
338.61
 51
360.0
  0
ARC
  8
0
 62
7
  6
CONTINUOUS
 10
219.261494737
 20
133.4190366322
 40
0.3
 50
180.0
 51
201.39
  0
ARC
  8
0
 62
7
  6
CONTINUOUS
 10
321.261494737
 20
112.0377181916
 40
2.0
 50
270.0
 51
360.0
  0
ARC
  8
0
 62
7
  6
CONTINUOUS
 10
306.861494737
 20
112.0377181916
 40
2.0
 50
180.0
 51
270.0
  0
ARC
  8
0
 62
7
  6
CONTINUOUS
 10
295.861494737
 20
112.0377181916
 40
2.0
 50
270.0
 51
360.0
  0
ARC
  8
0
 62
7
  6
CONTINUOUS
 10
281.461494737
 20
112.0377181916
 40
2.0
 50
180.0
 51
270.0
  0
ARC
  8
0
 62
7
  6
CONTINUOUS
 10
270.461494737
 20
112.0377181916
 40
2.0
 50
270.0
 51
360.0
  0
ARC
  8
0
 62
7
  6
CONTINUOUS
 10
330.561494737
 20
110.3377181916
 40
0.3
 50
180.0000000001
 51
270.0
  0
ARC
  8
0
 62
7
  6
CONTINUOUS
 10
332.561494737
 20
109.7377181916
 40
0.3
 50
0.0
 51
90.0
  0
ARC
  8
0
 62
7
  6
CONTINUOUS
 10
272.461494737
 20
138.1123781579
 40
2.7
 50
90.0
 51
180.0
  0
ARC
  8
0
 62
7
  6
CONTINUOUS
 10
279.461494737
 20
138.1123781579
 40
2.7
 50
0.0
 51
90.0
  0
ARC
  8
0
 62
7
  6
CONTINUOUS
 10
323.261494737
 20
138.1123781579
 40
2.7
 50
90.0
 51
180.0
  0
ARC
  8
0
 62
7
  6
CONTINUOUS
 10
330.261494737
 20
138.1123781579
 40
2.7
 50
0.0
 51
90.0
  0
ARC
  8
0
 62
7
  6
CONTINUOUS
 10
297.861494737
 20
138.1123781579
 40
2.7
 50
90.0
 51
180.0
  0
ARC
  8
0
 62
7
  6
CONTINUOUS
 10
304.861494737
 20
138.1123781579
 40
2.7
 50
0.0
 51
90.0
  0
ARC
  8
0
 62
7
  6
CONTINUOUS
 10
322.261494737
 20
126.2803874778
 40
1.0
 50
0.0
 51
21.39
  0
ARC
  8
0
 62
7
  6
CONTINUOUS
 10
331.261494737
 20
126.2803874778
 40
1.0
 50
158.61
 51
180.0
  0
ARC
  8
0
 62
7
  6
CONTINUOUS
 10
280.461494737
 20
126.2803874778
 40
1.0
 50
158.61
 51
180.0
  0
ARC
  8
0
 62
7
  6
CONTINUOUS
 10
271.461494737
 20
126.2803874778
 40
1.0
 50
0.0
 51
21.39
  0
ARC
  8
0
 62
7
  6
CONTINUOUS
 10
305.861494737
 20
126.2803874778
 40
1.0
 50
158.61
 51
180.0
  0
ARC
  8
0
 62
7
  6
CONTINUOUS
 10
296.861494737
 20
126.2803874778
 40
1.0
 50
0.0
 51
21.39
  0
ARC
  8
0
 62
7
  6
CONTINUOUS
 10
320.861494737
 20
133.4190366322
 40
0.3
 50
180.0
 51
201.39
  0
ARC
  8
0
 62
7
  6
CONTINUOUS
 10
332.661494737
 20
133.4190366322
 40
0.3
 50
338.61
 51
360.0
  0
ARC
  8
0
 62
7
  6
CONTINUOUS
 10
281.861494737
 20
133.4190366322
 40
0.3
 50
338.61
 51
360.0
  0
ARC
  8
0
 62
7
  6
CONTINUOUS
 10
270.061494737
 20
133.4190366322
 40
0.3
 50
180.0
 51
201.39
  0
ARC
  8
0
 62
7
  6
CONTINUOUS
 10
307.261494737
 20
133.4190366322
 40
0.3
 50
338.61
 51
360.0
  0
ARC
  8
0
 62
7
  6
CONTINUOUS
 10
295.461494737
 20
133.4190366322
 40
0.3
 50
180.0
 51
201.39
  0
ARC
  8
0
 62
7
  6
CONTINUOUS
 10
107.361494737
 20
208.4027782054
 40
2.7
 50
180.0
 51
270.0
  0
ARC
  8
0
 62
7
  6
CONTINUOUS
 10
88.961494737
 20
208.4027782054
 40
2.7
 50
270.0
 51
360.0
  0
ARC
  8
0
 62
7
  6
CONTINUOUS
 10
132.761494737
 20
208.4027782054
 40
2.7
 50
180.0
 51
270.0
  0
ARC
  8
0
 62
7
  6
CONTINUOUS
 10
114.361494737
 20
208.4027782054
 40
2.7
 50
270.0
 51
360.0
  0
ARC
  8
0
 62
7
  6
CONTINUOUS
 10
31.161494737
 20
208.4027782054
 40
2.7
 50
180.0
 51
270.0
  0
ARC
  8
0
 62
7
  6
CONTINUOUS
 10
56.561494737
 20
208.4027782054
 40
2.7
 50
180.0
 51
270.0
  0
ARC
  8
0
 62
7
  6
CONTINUOUS
 10
38.161494737
 20
208.4027782054
 40
2.7
 50
270.0
 51
360.0
  0
ARC
  8
0
 62
7
  6
CONTINUOUS
 10
81.961494737
 20
208.4027782054
 40
2.7
 50
180.0
 51
270.0
  0
ARC
  8
0
 62
7
  6
CONTINUOUS
 10
63.561494737
 20
208.4027782054
 40
2.7
 50
270.0
 51
360.0
  0
ARC
  8
0
 62
7
  6
CONTINUOUS
 10
158.161494737
 20
208.4027782054
 40
2.7
 50
180.0
 51
270.0
  0
ARC
  8
0
 62
7
  6
CONTINUOUS
 10
139.761494737
 20
208.4027782054
 40
2.7
 50
270.0
 51
360.0
  0
ARC
  8
0
 62
7
  6
CONTINUOUS
 10
165.161494737
 20
208.4027782054
 40
2.7
 50
270.0
 51
360.0
  0
ARC
  8
0
 62
7
  6
CONTINUOUS
 10
28.861494737
 20
206.0027782054
 40
0.3
 50
180.0
 51
270.0
  0
ARC
  8
0
 62
7
  6
CONTINUOUS
 10
107.361494737
 20
218.0027782054
 40
2.7
 50
90.0
 51
180.0
  0
ARC
  8
0
 62
7
  6
CONTINUOUS
 10
132.761494737
 20
218.0027782054
 40
2.7
 50
90.0
 51
180.0
  0
ARC
  8
0
 62
7
  6
CONTINUOUS
 10
31.161494737
 20
218.0027782054
 40
2.7
 50
90.0
 51
180.0
  0
ARC
  8
0
 62
7
  6
CONTINUOUS
 10
56.561494737
 20
218.0027782054
 40
2.7
 50
90.0
 51
180.0
  0
ARC
  8
0
 62
7
  6
CONTINUOUS
 10
81.961494737
 20
218.0027782054
 40
2.7
 50
90.0
 51
180.0
  0
ARC
  8
0
 62
7
  6
CONTINUOUS
 10
158.161494737
 20
218.0027782054
 40
2.7
 50
90.0
 51
180.0
  0
ARC
  8
0
 62
7
  6
CONTINUOUS
 10
139.761494737
 20
218.0027782054
 40
2.7
 50
0.0
 51
90.0
  0
ARC
  8
0
 62
7
  6
CONTINUOUS
 10
63.561494737
 20
218.0027782054
 40
2.7
 50
0.0
 51
90.0
  0
ARC
  8
0
 62
7
  6
CONTINUOUS
 10
165.161494737
 20
218.0027782054
 40
2.7
 50
0.0
 51
90.0
  0
ARC
  8
0
 62
7
  6
CONTINUOUS
 10
38.161494737
 20
218.0027782054
 40
2.7
 50
0.0
 51
90.0
  0
ARC
  8
0
 62
7
  6
CONTINUOUS
 10
114.361494737
 20
218.0027782054
 40
2.7
 50
0.0
 51
90.0
  0
ARC
  8
0
 62
7
  6
CONTINUOUS
 10
88.961494737
 20
218.0027782054
 40
2.7
 50
0.0
 51
90.0
  0
ARC
  8
0
 62
7
  6
CONTINUOUS
 10
28.861494737
 20
220.4027782054
 40
0.3
 50
90.0
 51
180.0
  0
ARC
  8
0
 62
7
  6
CONTINUOUS
 10
183.561494737
 20
208.4027782054
 40
2.7
 50
180.0
 51
270.0
  0
ARC
  8
0
 62
7
  6
CONTINUOUS
 10
208.961494737
 20
208.4027782054
 40
2.7
 50
180.0
 51
270.0
  0
ARC
  8
0
 62
7
  6
CONTINUOUS
 10
190.561494737
 20
208.4027782054
 40
2.7
 50
270.0
 51
360.0
  0
ARC
  8
0
 62
7
  6
CONTINUOUS
 10
259.761494737
 20
208.4027782054
 40
2.7
 50
180.0
 51
270.0
  0
ARC
  8
0
 62
7
  6
CONTINUOUS
 10
241.361494737
 20
208.4027782054
 40
2.7
 50
270.0
 51
360.0
  0
ARC
  8
0
 62
7
  6
CONTINUOUS
 10
285.161494737
 20
208.4027782054
 40
2.7
 50
180.0
 51
270.0
  0
ARC
  8
0
 62
7
  6
CONTINUOUS
 10
266.761494737
 20
208.4027782054
 40
2.7
 50
270.0
 51
360.0
  0
ARC
  8
0
 62
7
  6
CONTINUOUS
 10
310.561494737
 20
208.4027782054
 40
2.7
 50
180.0
 51
270.0
  0
ARC
  8
0
 62
7
  6
CONTINUOUS
 10
215.961494737
 20
208.4027782054
 40
2.7
 50
270.0
 51
360.0
  0
ARC
  8
0
 62
7
  6
CONTINUOUS
 10
292.161494737
 20
208.4027782054
 40
2.7
 50
270.0
 51
360.0
  0
ARC
  8
0
 62
7
  6
CONTINUOUS
 10
234.361494737
 20
208.4027782054
 40
2.7
 50
180.0
 51
270.0
  0
ARC
  8
0
 62
7
  6
CONTINUOUS
 10
317.561494737
 20
208.4027782054
 40
2.7
 50
270.0
 51
360.0
  0
ARC
  8
0
 62
7
  6
CONTINUOUS
 10
330.261494737
 20
208.4027782054
 40
2.7
 50
344.3647025063
 51
360.0
  0
ARC
  8
0
 62
7
  6
CONTINUOUS
 10
332.561494737
 20
206.0027782054
 40
0.3
 50
270.0
 51
360.0
  0
ARC
  8
0
 62
7
  6
CONTINUOUS
 10
183.561494737
 20
218.0027782054
 40
2.7
 50
90.0
 51
180.0
  0
ARC
  8
0
 62
7
  6
CONTINUOUS
 10
208.961494737
 20
218.0027782054
 40
2.7
 50
90.0
 51
180.0
  0
ARC
  8
0
 62
7
  6
CONTINUOUS
 10
190.561494737
 20
218.0027782054
 40
2.7
 50
0.0
 51
90.0
  0
ARC
  8
0
 62
7
  6
CONTINUOUS
 10
259.761494737
 20
218.0027782054
 40
2.7
 50
90.0
 51
180.0
  0
ARC
  8
0
 62
7
  6
CONTINUOUS
 10
241.361494737
 20
218.0027782054
 40
2.7
 50
0.0
 51
90.0
  0
ARC
  8
0
 62
7
  6
CONTINUOUS
 10
285.161494737
 20
218.0027782054
 40
2.7
 50
90.0
 51
180.0
  0
ARC
  8
0
 62
7
  6
CONTINUOUS
 10
266.761494737
 20
218.0027782054
 40
2.7
 50
0.0
 51
90.0
  0
ARC
  8
0
 62
7
  6
CONTINUOUS
 10
310.561494737
 20
218.0027782054
 40
2.7
 50
90.0
 51
180.0
  0
ARC
  8
0
 62
7
  6
CONTINUOUS
 10
215.961494737
 20
218.0027782054
 40
2.7
 50
0.0
 51
90.0
  0
ARC
  8
0
 62
7
  6
CONTINUOUS
 10
292.161494737
 20
218.0027782054
 40
2.7
 50
0.0
 51
90.0
  0
ARC
  8
0
 62
7
  6
CONTINUOUS
 10
234.361494737
 20
218.0027782054
 40
2.7
 50
90.0
 51
180.0
  0
ARC
  8
0
 62
7
  6
CONTINUOUS
 10
330.261494737
 20
218.0027782054
 40
2.7
 50
0.0
 51
15.6352961738
  0
ARC
  8
0
 62
7
  6
CONTINUOUS
 10
317.561494737
 20
218.0027782054
 40
2.7
 50
0.0
 51
90.0
  0
ARC
  8
0
 62
7
  6
CONTINUOUS
 10
332.561494737
 20
220.4027782054
 40
0.3
 50
0.0
 51
90.0
  0
ARC
  8
0
 62
7
  6
CONTINUOUS
 10
253.4336382054
 20
107.3496331579
 40
130.0
 50
350.1348339513
 51
9.9215257614
  0
ARC
  8
0
 62
7
  6
CONTINUOUS
 10
253.4336382054
 20
107.3496331579
 40
129.4999999036
 50
351.65051584
 51
358.794111891
  0
ARC
  8
0
 62
7
  6
CONTINUOUS
 10
372.7836382054
 20
81.3623781579
 40
7.35
 50
180.0
 51
270.0
  0
ARC
  8
0
 62
7
  6
CONTINUOUS
 10
373.0836382054
 20
81.3623781579
 40
7.35
 50
270.0
 51
360.0
  0
CIRCLE
  8
0
 62
7
  6
CONTINUOUS
 10
372.9336382054
 20
82.0496331579
 40
3.137255
  0
ARC
  8
0
 62
7
  6
CONTINUOUS
 10
372.9336382054
 20
94.5377181916
 40
15.5
 50
61.7262863686
 51
118.2737136314
  0
ARC
  8
0
 62
7
  6
CONTINUOUS
 10
365.7336382054
 20
104.9123781579
 40
0.3
 50
179.9926698508
 51
269.9988212076
  0
ARC
  8
0
 62
7
  6
CONTINUOUS
 10
381.0188086555
 20
85.1623782288
 40
0.5
 50
269.9999985521
 51
350.1348256961
  0
ARC
  8
0
 62
7
  6
CONTINUOUS
 10
382.9316067639
 20
106.6242786162
 40
0.5
 50
359.6790735814
 51
90.0
  0
ARC
  8
0
 62
7
  6
CONTINUOUS
 10
380.1336382054
 20
104.9123781579
 40
0.3
 50
270.0010378989
 51
360.0
  0
ARC
  8
0
 62
7
  6
CONTINUOUS
 10
372.9336382054
 20
116.4623781579
 40
3.25
 50
180.0
 51
360.0
  0
ARC
  8
0
 62
7
  6
CONTINUOUS
 10
365.7336382054
 20
107.9242786162
 40
0.3
 50
118.2737136314
 51
180.0
  0
ARC
  8
0
 62
7
  6
CONTINUOUS
 10
372.7836382054
 20
133.4623781579
 40
7.35
 50
90.0
 51
180.0
  0
ARC
  8
0
 62
7
  6
CONTINUOUS
 10
372.9336382054
 20
132.6623781579
 40
3.25
 50
0.0
 51
180.0
  0
ARC
  8
0
 62
7
  6
CONTINUOUS
 10
373.0836382054
 20
133.4623781579
 40
7.35
 50
0.0
 51
90.0
  0
ARC
  8
0
 62
7
  6
CONTINUOUS
 10
380.1336382054
 20
107.9242786162
 40
0.3
 50
0.0
 51
61.7262863686
  0
ARC
  8
0
 62
7
  6
CONTINUOUS
 10
380.996922162
 20
129.662378087
 40
0.5
 50
9.9215340204
 51
90.0000014566
  0
ENDSEC
  0
EOF
