  0
SECTION
  2
HEADER
  9
$EXTMAX
 10
420.0
 20
297.0
 30
0.0
  9
$EXTMIN
 10
0.0
 20
0.0
 30
0.0
  9
$LIMMIN
 10
0.0
 20
0.0
  9
$LIMMAX
 10
420.0
 20
297.0
  9
$VIEWCTR
 10
210.0
 20
148.5
  9
$VIEWSIZE
 40
297.0
  9
$CLAYER
  8
0
  9
$LTSCALE
 40
23.1
  9
$CELTYPE
  6
BYLAYER
  9
$DIMSCALE
 40
1.0
  9
$DIMASZ
 40
3.5
  9
$DIMEXO
 40
2.625
  9
$DIMDLI
 40
15.96
  9
$DIMEXE
 40
7.56
  9
$DIMCEN
 40
3.78
  9
$DIMLFAC
 40
1.0
  9
$DIMBLK
  1
_FILLED
  9
$DIMTXT
 40
3.5
  9
$PDMODE
 70
3
  9
$PDSIZE
 40
0.3125
  9
$TILEMODE
 70
1
  0
ENDSEC
  0
SECTION
  2
TABLES
  0
TABLE
  2
LTYPE
 70
6
  0
LTYPE
  2
BYBLOCK
 70
0
  3

 72
65
 73
0
 40
0.0
  0
LTYPE
  2
BYLAYER
 70
0
  3

 72
65
 73
0
 40
0.0
  0
LTYPE
  2
CONTINUOUS
 70
64
  3
Solid line
 72
65
 73
0
 40
0.0
  0
LTYPE
  2
CENTER
 70
64
  3
____ _ ____ _ ____ _ ____ _ ____ _ ____ _ ____
 72
65
 73
4
 40
0.6
 49
0.375
 49
-0.075
 49
0.075
 49
-0.075
  0
LTYPE
  2
HIDDEN
 70
64
  3
- - - - - - - - - - - - - - - - - - - -
 72
65
 73
2
 40
0.2
 49
0.1
 49
-0.1
  0
LTYPE
  2
PHANTOM
 70
64
  3
_____ _ _ _____ _ _ _____ _ _ _____
 72
65
 73
6
 40
0.8
 49
0.45
 49
-0.05
 49
0.1
 49
-0.05
 49
0.1
 49
-0.05
  0
LTYPE
  2
DOT
 70
64
  3
. . . . . . . . . . . . . . . . . . . .
 72
65
 73
2
 40
0.2
 49
0.1
 49
-0.1
  0
LTYPE
  2
DASHED
 70
64
  3
- - - - - - - - - - - - - - - - - - - -
 72
65
 73
2
 40
0.2
 49
0.1
 49
-0.1
  0
ENDTAB
  0
TABLE
  2
LAYER
 70
36
  0
LAYER
  2
0
 70
0
 62
7
  6
CONTINUOUS
  0
LAYER
  2
DEFAULT_1
 70
0
 62
7
  6
CENTER
  0
LAYER
  2
DEFAULT_2
 70
0
 62
8
  6
HIDDEN
  0
LAYER
  2
DEFAULT_3
 70
0
 62
7
  6
PHANTOM
  0
LAYER
  2
CURVE
 70
0
 62
7
  6
CONTINUOUS
  0
LAYER
  2
KERNETRAK
 70
0
 62
7
  6
CONTINUOUS
  0
LAYER
  2
SURFACE
 70
0
 62
7
  6
CONTINUOUS
  0
ENDTAB
  0
TABLE
  2
STYLE
 70
1
  0
STYLE
  2
STANDARD
 70
0
 40
0.0
 41
0.8
 50
0.0
 71
0
 42
0.2
  3
txt
  4

  0
STYLE
  2
TEXTSTYLE_1
 70
0
 40
0.0
 41
0.8
 50
0.0
 71
0
 42
0.2
  3
gdt
  4

  0
STYLE
  2
TEXTSTYLE_2
 70
0
 40
0.0
 41
0.6
 50
0.0
 71
0
 42
0.2
  3
txt
  4

  0
STYLE
  2
TEXTSTYLE_3
 70
0
 40
0.0
 41
1.0
 50
0.0
 71
0
 42
0.2
  3
ftb_____.ttf
  4

  0
STYLE
  2
TEXTSTYLE_4
 70
0
 40
0.0
 41
1.0
 50
0.0
 71
0
 42
0.2
  3
fti_____.ttf
  4

  0
STYLE
  2
TEXTSTYLE_5
 70
0
 40
0.0
 41
1.0
 50
0.0
 71
0
 42
0.2
  3
frutiger light.ttf
  4

  0
STYLE
  2
TEXTSTYLE_6
 70
0
 40
0.0
 41
0.7
 50
0.0
 71
0
 42
0.2
  3
txt
  4

  0
STYLE
  2
TEXTSTYLE_7
 70
0
 40
0.0
 41
0.4
 50
0.0
 71
0
 42
0.2
  3
txt
  4

  0
ENDTAB
  0
ENDSEC
  0
SECTION
  2
BLOCKS
  0
BLOCK
  8
0
 62
2
  6
CONTINUOUS
  2
SYMBOL_5_BL1
 70
64
 10
382.7840918555
 20
35.5067593403
  0
TEXT
  8
0
 62
7
  6
CONTINUOUS
 10
373.842376864
 20
30.5995157174
  7
TEXTSTYLE_4
 40
1.0655737705
  1
The brand for plastic modular belts and chains
 41
1.0
 72
0
  0
LINE
  8
0
 62
7
  6
CONTINUOUS
 10
358.7621602445
 20
36.0805298321
 11
358.7621602445
 21
33.9493822911
  0
LINE
  8
0
 62
7
  6
CONTINUOUS
 10
359.0512227376
 20
30.9584509954
 11
359.0512227376
 21
31.0552420547
  0
LINE
  8
0
 62
7
  6
CONTINUOUS
 10
358.7621602445
 20
31.0229783683
 11
358.8199727462
 21
30.8293962497
  0
LINE
  8
0
 62
7
  6
CONTINUOUS
 10
360.1556028675
 20
33.867415078
 11
360.1556028675
 21
36.0805298321
  0
LINE
  8
0
 62
7
  6
CONTINUOUS
 10
361.0746601894
 20
32.0231527829
 11
361.0746601894
 21
30.5067593403
  0
LINE
  8
0
 62
7
  6
CONTINUOUS
 10
361.3637227445
 20
30.5067593403
 11
361.3637227445
 21
31.2488242184
  0
LINE
  8
0
 62
7
  6
CONTINUOUS
 10
361.3637227445
 20
31.3778789641
 11
361.3637227445
 21
32.0231527829
  0
LINE
  8
0
 62
7
  6
CONTINUOUS
 10
358.8199727462
 20
31.216560532
 11
358.7621602445
 21
31.0229783683
  0
LINE
  8
0
 62
7
  6
CONTINUOUS
 10
359.1668477307
 20
30.7971325633
 11
359.0512227376
 21
30.9584509954
  0
LINE
  8
0
 62
7
  6
CONTINUOUS
 10
360.2652852997
 20
31.3133515913
 11
360.3230977445
 21
31.216560532
  0
LINE
  8
0
 62
7
  6
CONTINUOUS
 10
360.6121602997
 20
31.216560532
 11
360.5543476894
 21
31.3456152777
  0
LINE
  8
0
 62
7
  6
CONTINUOUS
 10
362.0408487691
 20
36.0805298321
 11
362.0408487691
 21
34.2772511436
  0
LINE
  8
0
 62
7
  6
CONTINUOUS
 10
362.0408487691
 20
32.9657757338
 11
362.0408487691
 21
32.3100380288
  0
LINE
  8
0
 62
7
  6
CONTINUOUS
 10
362.4043477445
 20
31.1520331591
 11
362.4043477445
 21
30.5067593403
  0
LINE
  8
0
 62
7
  6
CONTINUOUS
 10
362.6934101343
 20
30.5067593403
 11
362.6934101343
 21
31.1520331591
  0
LINE
  8
0
 62
7
  6
CONTINUOUS
 10
359.0512227376
 20
31.0552420547
 11
359.1090352445
 21
31.1842968456
  0
LINE
  8
0
 62
7
  6
CONTINUOUS
 10
358.8199727462
 20
30.8293962497
 11
358.9355977445
 21
30.7003414814
  0
LINE
  8
0
 62
7
  6
CONTINUOUS
 10
362.3465351343
 20
31.2810879048
 11
362.4043477445
 21
31.1520331591
  0
LINE
  8
0
 62
7
  6
CONTINUOUS
 10
363.1559103548
 20
30.7971325633
 11
363.2137226343
 21
30.668077795
  0
LINE
  8
0
 62
7
  6
CONTINUOUS
 10
362.6934101343
 20
31.1520331591
 11
362.6355978548
 21
31.3133515913
  0
LINE
  8
0
 62
7
  6
CONTINUOUS
 10
363.1559103548
 20
31.3456152777
 11
363.1559103548
 21
31.2810879048
  0
LINE
  8
0
 62
7
  6
CONTINUOUS
 10
363.1559103548
 20
30.8939236226
 11
363.1559103548
 21
30.7971325633
  0
LINE
  8
0
 62
7
  6
CONTINUOUS
 10
363.4342913921
 20
32.3100380288
 11
363.4342913921
 21
36.0805298321
  0
LINE
  8
0
 62
7
  6
CONTINUOUS
 10
363.4449727445
 20
30.7648688543
 11
363.4449727445
 21
30.8293962497
  0
LINE
  8
0
 62
7
  6
CONTINUOUS
 10
363.7621602445
 20
36.0805298321
 11
363.7621602445
 21
32.3100380288
  0
LINE
  8
0
 62
7
  6
CONTINUOUS
 10
360.5543476894
 20
30.7003414814
 11
360.6121602997
 21
30.8293962497
  0
LINE
  8
0
 62
7
  6
CONTINUOUS
 10
364.9480979651
 20
30.6035504109
 11
364.890285024
 21
30.7648688543
  0
LINE
  8
0
 62
7
  6
CONTINUOUS
 10
364.6012229651
 20
31.2810879048
 11
364.6012229651
 21
31.1842968456
  0
LINE
  8
0
 62
7
  6
CONTINUOUS
 10
364.6012229651
 20
31.0552420547
 11
364.6012229651
 21
30.8616599362
  0
LINE
  8
0
 62
7
  6
CONTINUOUS
 10
364.890285024
 20
30.7648688543
 11
364.890285024
 21
31.2810879048
  0
LINE
  8
0
 62
7
  6
CONTINUOUS
 10
365.1556028675
 20
32.3100380288
 11
365.1556028675
 21
34.1133167174
  0
LINE
  8
0
 62
7
  6
CONTINUOUS
 10
365.1556028675
 20
35.4247921272
 11
365.1556028675
 21
36.0805298321
  0
LINE
  8
0
 62
7
  6
CONTINUOUS
 10
365.4684104651
 20
32.0231527829
 11
365.4684104651
 21
31.8618343508
  0
LINE
  8
0
 62
7
  6
CONTINUOUS
 10
365.4684104651
 20
31.5391973962
 11
365.4684104651
 21
30.5067593403
  0
LINE
  8
0
 62
7
  6
CONTINUOUS
 10
365.757472524
 20
30.5067593403
 11
365.757472524
 21
31.5391973962
  0
LINE
  8
0
 62
7
  6
CONTINUOUS
 10
365.757472524
 20
31.8618343508
 11
365.757472524
 21
32.0231527829
  0
LINE
  8
0
 62
7
  6
CONTINUOUS
 10
360.3230977445
 20
30.8293962497
 11
360.2652852997
 21
30.7326051679
  0
LINE
  8
0
 62
7
  6
CONTINUOUS
 10
362.6355978548
 20
31.3133515913
 11
362.5777852445
 21
31.3778789641
  0
LINE
  8
0
 62
7
  6
CONTINUOUS
 10
363.5027853548
 20
30.7003414814
 11
363.4449727445
 21
30.7648688543
  0
LINE
  8
0
 62
7
  6
CONTINUOUS
 10
364.6590352445
 20
30.5712867188
 11
364.716847524
 21
30.5067593403
  0
LINE
  8
0
 62
7
  6
CONTINUOUS
 10
364.6012229651
 20
30.668077795
 11
364.6590352445
 21
30.5712867188
  0
LINE
  8
0
 62
7
  6
CONTINUOUS
 10
365.0059102445
 20
30.5067593403
 11
364.9480979651
 21
30.6035504109
  0
LINE
  8
0
 62
7
  6
CONTINUOUS
 10
364.890285024
 20
31.2810879048
 11
364.8324727445
 21
31.3778789641
  0
LINE
  8
0
 62
7
  6
CONTINUOUS
 10
366.2199727445
 20
31.5391973962
 11
366.2199727445
 21
30.5067593403
  0
LINE
  8
0
 62
7
  6
CONTINUOUS
 10
366.5090354651
 20
30.5067593403
 11
366.5090354651
 21
31.2488242184
  0
LINE
  8
0
 62
7
  6
CONTINUOUS
 10
366.5090354651
 20
31.3778789641
 11
366.5090354651
 21
31.5391973962
  0
LINE
  8
0
 62
7
  6
CONTINUOUS
 10
367.0408487691
 20
34.5231527829
 11
367.0408487691
 21
32.3100380288
  0
LINE
  8
0
 62
7
  6
CONTINUOUS
 10
358.9355977445
 20
31.3456152777
 11
358.8199727462
 21
31.216560532
  0
LINE
  8
0
 62
7
  6
CONTINUOUS
 10
359.1090352445
 20
31.1842968456
 11
359.1668477307
 21
31.2488242184
  0
LINE
  8
0
 62
7
  6
CONTINUOUS
 10
358.9355977445
 20
30.7003414814
 11
359.0512227376
 21
30.6358140973
  0
LINE
  8
0
 62
7
  6
CONTINUOUS
 10
359.3402852307
 20
30.7003414814
 11
359.1668477307
 21
30.7971325633
  0
LINE
  8
0
 62
7
  6
CONTINUOUS
 10
364.543410024
 20
31.3456152777
 11
364.6012229651
 21
31.2810879048
  0
LINE
  8
0
 62
7
  6
CONTINUOUS
 10
367.491847524
 20
31.2810879048
 11
367.5496604651
 21
31.1197694727
  0
LINE
  8
0
 62
7
  6
CONTINUOUS
 10
367.838722524
 20
31.1197694727
 11
367.7809102445
 21
31.2810879048
  0
LINE
  8
0
 62
7
  6
CONTINUOUS
 10
367.5496604651
 20
31.1197694727
 11
367.5496604651
 21
30.5067593403
  0
LINE
  8
0
 62
7
  6
CONTINUOUS
 10
367.838722524
 20
30.5067593403
 11
367.838722524
 21
31.1197694727
  0
LINE
  8
0
 62
7
  6
CONTINUOUS
 10
368.3012227445
 20
31.3456152777
 11
368.3012227445
 21
31.2810879048
  0
LINE
  8
0
 62
7
  6
CONTINUOUS
 10
368.4342913921
 20
32.3100380288
 11
368.4342913921
 21
34.4411855698
  0
LINE
  8
0
 62
7
  6
CONTINUOUS
 10
368.7621602445
 20
36.0805298321
 11
368.7621602445
 21
32.3100380288
  0
LINE
  8
0
 62
7
  6
CONTINUOUS
 10
363.4449727445
 20
30.8293962497
 11
363.5027853548
 21
30.926187309
  0
LINE
  8
0
 62
7
  6
CONTINUOUS
 10
359.0512227376
 20
30.6358140973
 11
359.2246602583
 21
30.5712867188
  0
LINE
  8
0
 62
7
  6
CONTINUOUS
 10
360.5543476894
 20
31.3456152777
 11
360.3809101894
 21
31.4424063369
  0
LINE
  8
0
 62
7
  6
CONTINUOUS
 10
363.2137226343
 20
30.668077795
 11
363.3871601343
 21
30.5712867188
  0
LINE
  8
0
 62
7
  6
CONTINUOUS
 10
362.2309102445
 20
31.3456152777
 11
362.3465351343
 21
31.2810879048
  0
LINE
  8
0
 62
7
  6
CONTINUOUS
 10
362.5777852445
 20
31.3778789641
 11
362.4621603548
 21
31.4424063369
  0
LINE
  8
0
 62
7
  6
CONTINUOUS
 10
368.3012227445
 20
30.7648688543
 11
368.4168479651
 21
30.6358140973
  0
LINE
  8
0
 62
7
  6
CONTINUOUS
 10
368.6480977445
 20
30.7003414814
 11
368.5902854651
 21
30.7648688543
  0
LINE
  8
0
 62
7
  6
CONTINUOUS
 10
368.3012227445
 20
31.2810879048
 11
368.4168479651
 21
31.1520331591
  0
LINE
  8
0
 62
7
  6
CONTINUOUS
 10
367.7809102445
 20
31.2810879048
 11
367.7230979651
 21
31.3778789641
  0
LINE
  8
0
 62
7
  6
CONTINUOUS
 10
370.1512223035
 20
30.7003414814
 11
370.1512223035
 21
30.7648688543
  0
LINE
  8
0
 62
7
  6
CONTINUOUS
 10
370.1556028675
 20
32.3100380288
 11
370.1556028675
 21
36.0805298321
  0
LINE
  8
0
 62
7
  6
CONTINUOUS
 10
363.2137226343
 20
31.4101426505
 11
363.1559103548
 21
31.3456152777
  0
LINE
  8
0
 62
7
  6
CONTINUOUS
 10
360.091847717
 20
31.3778789641
 11
360.2652852997
 21
31.3133515913
  0
LINE
  8
0
 62
7
  6
CONTINUOUS
 10
364.8324727445
 20
31.3778789641
 11
364.716847524
 21
31.4424063369
  0
LINE
  8
0
 62
7
  6
CONTINUOUS
 10
368.6480977445
 20
31.216560532
 11
368.5902854651
 21
31.2810879048
  0
LINE
  8
0
 62
7
  6
CONTINUOUS
 10
369.8043479651
 20
30.8293962497
 11
369.8621602445
 21
30.7648688543
  0
LINE
  8
0
 62
7
  6
CONTINUOUS
 10
370.1512223035
 20
30.7648688543
 11
370.0355977445
 21
30.8939236226
  0
LINE
  8
0
 62
7
  6
CONTINUOUS
 10
369.8043479651
 20
31.3456152777
 11
369.8621602445
 21
31.2810879048
  0
LINE
  8
0
 62
7
  6
CONTINUOUS
 10
370.1512223035
 20
31.2810879048
 11
370.0355977445
 21
31.4101426505
  0
LINE
  8
0
 62
7
  6
CONTINUOUS
 10
363.4449727445
 20
31.2810879048
 11
363.5027853548
 21
31.3456152777
  0
LINE
  8
0
 62
7
  6
CONTINUOUS
 10
363.2715352445
 20
31.0229783683
 11
363.1559103548
 21
30.8939236226
  0
LINE
  8
0
 62
7
  6
CONTINUOUS
 10
364.6012229651
 20
30.8616599362
 11
364.543410024
 21
30.7971325633
  0
LINE
  8
0
 62
7
  6
CONTINUOUS
 10
364.543410024
 20
30.6035504109
 11
364.6012229651
 21
30.668077795
  0
LINE
  8
0
 62
7
  6
CONTINUOUS
 10
363.3871601343
 20
30.5712867188
 11
363.5027853548
 21
30.5390230296
  0
LINE
  8
0
 62
7
  6
CONTINUOUS
 10
360.3809101894
 20
31.4424063369
 11
360.1496602445
 21
31.5069337098
  0
LINE
  8
0
 62
7
  6
CONTINUOUS
 10
363.7340351343
 20
30.6358140973
 11
363.5027853548
 21
30.7003414814
  0
LINE
  8
0
 62
7
  6
CONTINUOUS
 10
362.4621603548
 20
31.4424063369
 11
362.2887228548
 21
31.5069337098
  0
LINE
  8
0
 62
7
  6
CONTINUOUS
 10
364.716847524
 20
31.4424063369
 11
364.543410024
 21
31.5069337098
  0
LINE
  8
0
 62
7
  6
CONTINUOUS
 10
367.3762229651
 20
31.3456152777
 11
367.491847524
 21
31.2810879048
  0
LINE
  8
0
 62
7
  6
CONTINUOUS
 10
367.7230979651
 20
31.3778789641
 11
367.6074727445
 21
31.4424063369
  0
LINE
  8
0
 62
7
  6
CONTINUOUS
 10
359.2246602583
 20
30.5712867188
 11
359.3980977583
 21
30.5390230296
  0
LINE
  8
0
 62
7
  6
CONTINUOUS
 10
359.6871602721
 20
30.6358140973
 11
359.3402852307
 21
30.7003414814
  0
LINE
  8
0
 62
7
  6
CONTINUOUS
 10
362.1152853548
 20
31.3778789641
 11
362.2309102445
 21
31.3456152777
  0
LINE
  8
0
 62
7
  6
CONTINUOUS
 10
364.4277854651
 20
31.3778789641
 11
364.543410024
 21
31.3456152777
  0
LINE
  8
0
 62
7
  6
CONTINUOUS
 10
368.7637229651
 20
30.668077795
 11
368.6480977445
 21
30.7003414814
  0
LINE
  8
0
 62
7
  6
CONTINUOUS
 10
367.2605977445
 20
31.3778789641
 11
367.3762229651
 21
31.3456152777
  0
LINE
  8
0
 62
7
  6
CONTINUOUS
 10
368.4168479651
 20
30.6358140973
 11
368.5902854651
 21
30.5712867188
  0
LINE
  8
0
 62
7
  6
CONTINUOUS
 10
367.6074727445
 20
31.4424063369
 11
367.4340352445
 21
31.5069337098
  0
LINE
  8
0
 62
7
  6
CONTINUOUS
 10
368.8215352445
 20
31.1520331591
 11
368.6480977445
 21
31.216560532
  0
LINE
  8
0
 62
7
  6
CONTINUOUS
 10
369.6309104651
 20
30.8939236226
 11
369.8043479651
 21
30.8293962497
  0
LINE
  8
0
 62
7
  6
CONTINUOUS
 10
370.0355977445
 20
31.4101426505
 11
369.8621602445
 21
31.4746700234
  0
LINE
  8
0
 62
7
  6
CONTINUOUS
 10
368.4168479651
 20
31.1520331591
 11
368.6480977445
 21
31.0552420547
  0
LINE
  8
0
 62
7
  6
CONTINUOUS
 10
370.0355977445
 20
30.8939236226
 11
369.8043479651
 21
30.9907146818
  0
LINE
  8
0
 62
7
  6
CONTINUOUS
 10
368.5902854651
 20
31.2810879048
 11
368.6480977445
 21
31.3456152777
  0
LINE
  8
0
 62
7
  6
CONTINUOUS
 10
359.0512227376
 20
31.4101426505
 11
358.9355977445
 21
31.3456152777
  0
LINE
  8
0
 62
7
  6
CONTINUOUS
 10
359.1668477307
 20
31.2488242184
 11
359.3402852307
 21
31.3456152777
  0
LINE
  8
0
 62
7
  6
CONTINUOUS
 10
361.4793477997
 20
31.4424063369
 11
361.3637227445
 21
31.3778789641
  0
LINE
  8
0
 62
7
  6
CONTINUOUS
 10
361.3637227445
 20
31.2488242184
 11
361.4793477997
 21
31.3133515913
  0
LINE
  8
0
 62
7
  6
CONTINUOUS
 10
360.3809101894
 20
30.6035504109
 11
360.5543476894
 21
30.7003414814
  0
LINE
  8
0
 62
7
  6
CONTINUOUS
 10
359.3980977583
 20
30.5390230296
 11
359.744972717
 21
30.5067593403
  0
LINE
  8
0
 62
7
  6
CONTINUOUS
 10
363.5027853548
 20
30.5390230296
 11
363.7340351343
 21
30.5067593403
  0
LINE
  8
0
 62
7
  6
CONTINUOUS
 10
361.8840352445
 20
31.4101426505
 11
362.1152853548
 21
31.3778789641
  0
LINE
  8
0
 62
7
  6
CONTINUOUS
 10
364.1965353548
 20
31.4101426505
 11
364.4277854651
 21
31.3778789641
  0
LINE
  8
0
 62
7
  6
CONTINUOUS
 10
368.6480977445
 20
31.0552420547
 11
369.6309104651
 21
30.8939236226
  0
LINE
  8
0
 62
7
  6
CONTINUOUS
 10
369.8043479651
 20
30.9907146818
 11
368.8215352445
 21
31.1520331591
  0
LINE
  8
0
 62
7
  6
CONTINUOUS
 10
362.2887228548
 20
31.5069337098
 11
362.1152853548
 21
31.5391973962
  0
LINE
  8
0
 62
7
  6
CONTINUOUS
 10
368.5902854651
 20
30.5712867188
 11
368.7637229651
 21
30.5390230296
  0
LINE
  8
0
 62
7
  6
CONTINUOUS
 10
367.4340352445
 20
31.5069337098
 11
367.2605977445
 21
31.5391973962
  0
LINE
  8
0
 62
7
  6
CONTINUOUS
 10
369.6887227445
 20
31.3778789641
 11
369.8043479651
 21
31.3456152777
  0
LINE
  8
0
 62
7
  6
CONTINUOUS
 10
369.8621602445
 20
30.7648688543
 11
369.8043479651
 21
30.7003414814
  0
LINE
  8
0
 62
7
  6
CONTINUOUS
 10
368.4168479651
 20
31.4424063369
 11
368.3012227445
 21
31.3456152777
  0
LINE
  8
0
 62
7
  6
CONTINUOUS
 10
363.3293478548
 20
31.4746700234
 11
363.2137226343
 21
31.4101426505
  0
LINE
  8
0
 62
7
  6
CONTINUOUS
 10
363.3871601343
 20
31.0875057863
 11
363.2715352445
 21
31.0229783683
  0
LINE
  8
0
 62
7
  6
CONTINUOUS
 10
363.5027853548
 20
30.926187309
 11
363.6184102445
 21
30.9907146818
  0
LINE
  8
0
 62
7
  6
CONTINUOUS
 10
361.0746601894
 20
30.5067593403
 11
361.3637227445
 21
30.5067593403
  0
LINE
  8
0
 62
7
  6
CONTINUOUS
 10
362.4043477445
 20
30.5067593403
 11
362.6934101343
 21
30.5067593403
  0
LINE
  8
0
 62
7
  6
CONTINUOUS
 10
363.7340351343
 20
30.5067593403
 11
364.0809101343
 21
30.5067593403
  0
LINE
  8
0
 62
7
  6
CONTINUOUS
 10
364.716847524
 20
30.5067593403
 11
365.0059102445
 21
30.5067593403
  0
LINE
  8
0
 62
7
  6
CONTINUOUS
 10
365.4684104651
 20
30.5067593403
 11
365.757472524
 21
30.5067593403
  0
LINE
  8
0
 62
7
  6
CONTINUOUS
 10
366.2199727445
 20
30.5067593403
 11
366.5090354651
 21
30.5067593403
  0
LINE
  8
0
 62
7
  6
CONTINUOUS
 10
367.5496604651
 20
30.5067593403
 11
367.838722524
 21
30.5067593403
  0
LINE
  8
0
 62
7
  6
CONTINUOUS
 10
369.1105979651
 20
30.5067593403
 11
369.4574729651
 21
30.5067593403
  0
LINE
  8
0
 62
7
  6
CONTINUOUS
 10
369.4574729651
 20
30.6358140973
 11
369.1105979651
 21
30.6358140973
  0
LINE
  8
0
 62
7
  6
CONTINUOUS
 10
364.0809101343
 20
30.6358140973
 11
363.7340351343
 21
30.6358140973
  0
LINE
  8
0
 62
7
  6
CONTINUOUS
 10
368.5902854651
 20
30.7648688543
 11
368.3012227445
 21
30.7648688543
  0
LINE
  8
0
 62
7
  6
CONTINUOUS
 10
360.6121602997
 20
30.8293962497
 11
360.3230977445
 21
30.8293962497
  0
LINE
  8
0
 62
7
  6
CONTINUOUS
 10
359.6871602721
 20
31.4101426505
 11
360.091847717
 21
31.3778789641
  0
LINE
  8
0
 62
7
  6
CONTINUOUS
 10
360.1496602445
 20
31.5069337098
 11
359.744972717
 21
31.5391973962
  0
LINE
  8
0
 62
7
  6
CONTINUOUS
 10
368.7637229651
 20
30.5390230296
 11
369.1105979651
 21
30.5067593403
  0
LINE
  8
0
 62
7
  6
CONTINUOUS
 10
369.1105979651
 20
30.6358140973
 11
368.7637229651
 21
30.668077795
  0
LINE
  8
0
 62
7
  6
CONTINUOUS
 10
364.543410024
 20
31.5069337098
 11
364.1965353548
 21
31.5391973962
  0
LINE
  8
0
 62
7
  6
CONTINUOUS
 10
369.3418477445
 20
31.4101426505
 11
369.6887227445
 21
31.3778789641
  0
LINE
  8
0
 62
7
  6
CONTINUOUS
 10
369.6887227445
 20
31.5069337098
 11
369.3418477445
 21
31.5391973962
  0
LINE
  8
0
 62
7
  6
CONTINUOUS
 10
367.0293479651
 20
31.4101426505
 11
367.2605977445
 21
31.3778789641
  0
LINE
  8
0
 62
7
  6
CONTINUOUS
 10
369.8621602445
 20
31.4746700234
 11
369.6887227445
 21
31.5069337098
  0
LINE
  8
0
 62
7
  6
CONTINUOUS
 10
370.0355977445
 20
30.6035504109
 11
370.1512223035
 21
30.7003414814
  0
LINE
  8
0
 62
7
  6
CONTINUOUS
 10
364.543410024
 20
30.7971325633
 11
364.369972524
 21
30.7003414814
  0
LINE
  8
0
 62
7
  6
CONTINUOUS
 10
366.624660024
 20
31.4424063369
 11
366.5090354651
 21
31.3778789641
  0
LINE
  8
0
 62
7
  6
CONTINUOUS
 10
366.5090354651
 20
31.2488242184
 11
366.624660024
 21
31.3133515913
  0
LINE
  8
0
 62
7
  6
CONTINUOUS
 10
359.2246602583
 20
31.4746700234
 11
359.0512227376
 21
31.4101426505
  0
LINE
  8
0
 62
7
  6
CONTINUOUS
 10
361.6527851343
 20
31.5069337098
 11
361.4793477997
 21
31.4424063369
  0
LINE
  8
0
 62
7
  6
CONTINUOUS
 10
361.4793477997
 20
31.3133515913
 11
361.6527851343
 21
31.3778789641
  0
LINE
  8
0
 62
7
  6
CONTINUOUS
 10
360.2652852997
 20
30.7326051679
 11
360.091847717
 21
30.668077795
  0
LINE
  8
0
 62
7
  6
CONTINUOUS
 10
369.6887227445
 20
30.668077795
 11
369.4574729651
 21
30.6358140973
  0
LINE
  8
0
 62
7
  6
CONTINUOUS
 10
364.0809101343
 20
30.5067593403
 11
364.369972524
 21
30.5390230296
  0
LINE
  8
0
 62
7
  6
CONTINUOUS
 10
369.4574729651
 20
30.5067593403
 11
369.8043479651
 21
30.5390230296
  0
LINE
  8
0
 62
7
  6
CONTINUOUS
 10
359.744972717
 20
30.5067593403
 11
360.1496602445
 21
30.5390230296
  0
LINE
  8
0
 62
7
  6
CONTINUOUS
 10
360.091847717
 20
30.668077795
 11
359.6871602721
 21
30.6358140973
  0
LINE
  8
0
 62
7
  6
CONTINUOUS
 10
363.9652852445
 20
31.0552420547
 11
364.6012229651
 21
31.0552420547
  0
LINE
  8
0
 62
7
  6
CONTINUOUS
 10
364.6012229651
 20
31.1842968456
 11
363.9652852445
 21
31.1842968456
  0
LINE
  8
0
 62
7
  6
CONTINUOUS
 10
360.3230977445
 20
31.216560532
 11
360.6121602997
 21
31.216560532
  0
LINE
  8
0
 62
7
  6
CONTINUOUS
 10
363.1559103548
 20
31.2810879048
 11
363.4449727445
 21
31.2810879048
  0
LINE
  8
0
 62
7
  6
CONTINUOUS
 10
369.8621602445
 20
31.2810879048
 11
370.1512223035
 21
31.2810879048
  0
LINE
  8
0
 62
7
  6
CONTINUOUS
 10
363.8496603548
 20
31.4101426505
 11
364.1965353548
 21
31.4101426505
  0
LINE
  8
0
 62
7
  6
CONTINUOUS
 10
368.9949727445
 20
31.4101426505
 11
369.3418477445
 21
31.4101426505
  0
LINE
  8
0
 62
7
  6
CONTINUOUS
 10
369.3418477445
 20
31.5391973962
 11
368.9949727445
 21
31.5391973962
  0
LINE
  8
0
 62
7
  6
CONTINUOUS
 10
367.2605977445
 20
31.5391973962
 11
367.0293479651
 21
31.5391973962
  0
LINE
  8
0
 62
7
  6
CONTINUOUS
 10
366.5090354651
 20
31.5391973962
 11
366.2199727445
 21
31.5391973962
  0
LINE
  8
0
 62
7
  6
CONTINUOUS
 10
365.757472524
 20
31.5391973962
 11
365.4684104651
 21
31.5391973962
  0
LINE
  8
0
 62
7
  6
CONTINUOUS
 10
364.1965353548
 20
31.5391973962
 11
363.8496603548
 21
31.5391973962
  0
LINE
  8
0
 62
7
  6
CONTINUOUS
 10
362.1152853548
 20
31.5391973962
 11
361.8840352445
 21
31.5391973962
  0
LINE
  8
0
 62
7
  6
CONTINUOUS
 10
365.4684104651
 20
31.8618343508
 11
365.757472524
 21
31.8618343508
  0
LINE
  8
0
 62
7
  6
CONTINUOUS
 10
365.757472524
 20
32.0231527829
 11
365.4684104651
 21
32.0231527829
  0
LINE
  8
0
 62
7
  6
CONTINUOUS
 10
361.3637227445
 20
32.0231527829
 11
361.0746601894
 21
32.0231527829
  0
LINE
  8
0
 62
7
  6
CONTINUOUS
 10
360.4015045068
 20
32.3100380288
 11
360.8140758554
 21
32.3100380288
  0
LINE
  8
0
 62
7
  6
CONTINUOUS
 10
362.0408487691
 20
32.3100380288
 11
363.4342913921
 21
32.3100380288
  0
LINE
  8
0
 62
7
  6
CONTINUOUS
 10
363.7621602445
 20
32.3100380288
 11
365.1556028675
 21
32.3100380288
  0
LINE
  8
0
 62
7
  6
CONTINUOUS
 10
367.0408487691
 20
32.3100380288
 11
368.4342913921
 21
32.3100380288
  0
LINE
  8
0
 62
7
  6
CONTINUOUS
 10
368.7621602445
 20
32.3100380288
 11
370.1556028675
 21
32.3100380288
  0
LINE
  8
0
 62
7
  6
CONTINUOUS
 10
366.798097524
 20
31.5069337098
 11
366.624660024
 21
31.4424063369
  0
LINE
  8
0
 62
7
  6
CONTINUOUS
 10
364.369972524
 20
30.5390230296
 11
364.543410024
 21
30.6035504109
  0
LINE
  8
0
 62
7
  6
CONTINUOUS
 10
369.8043479651
 20
30.5390230296
 11
370.0355977445
 21
30.6035504109
  0
LINE
  8
0
 62
7
  6
CONTINUOUS
 10
369.8043479651
 20
30.7003414814
 11
369.6887227445
 21
30.668077795
  0
LINE
  8
0
 62
7
  6
CONTINUOUS
 10
368.7637229651
 20
31.3778789641
 11
368.9949727445
 21
31.4101426505
  0
LINE
  8
0
 62
7
  6
CONTINUOUS
 10
366.798097524
 20
31.3778789641
 11
367.0293479651
 21
31.4101426505
  0
LINE
  8
0
 62
7
  6
CONTINUOUS
 10
363.7340351343
 20
31.0229783683
 11
363.9652852445
 21
31.0552420547
  0
LINE
  8
0
 62
7
  6
CONTINUOUS
 10
367.0293479651
 20
31.5391973962
 11
366.798097524
 21
31.5069337098
  0
LINE
  8
0
 62
7
  6
CONTINUOUS
 10
363.6184102445
 20
31.3778789641
 11
363.8496603548
 21
31.4101426505
  0
LINE
  8
0
 62
7
  6
CONTINUOUS
 10
368.9949727445
 20
31.5391973962
 11
368.6480977445
 21
31.5069337098
  0
LINE
  8
0
 62
7
  6
CONTINUOUS
 10
363.9652852445
 20
31.1842968456
 11
363.6184102445
 21
31.1520331591
  0
LINE
  8
0
 62
7
  6
CONTINUOUS
 10
359.744972717
 20
31.5391973962
 11
359.3980977583
 21
31.5069337098
  0
LINE
  8
0
 62
7
  6
CONTINUOUS
 10
363.8496603548
 20
31.5391973962
 11
363.4449727445
 21
31.5069337098
  0
LINE
  8
0
 62
7
  6
CONTINUOUS
 10
361.221176638
 20
33.4575790124
 11
360.565438933
 21
33.4575790124
  0
LINE
  8
0
 62
7
  6
CONTINUOUS
 10
366.624660024
 20
31.3133515913
 11
366.798097524
 21
31.3778789641
  0
LINE
  8
0
 62
7
  6
CONTINUOUS
 10
368.6480977445
 20
31.3456152777
 11
368.7637229651
 21
31.3778789641
  0
LINE
  8
0
 62
7
  6
CONTINUOUS
 10
368.6480977445
 20
31.5069337098
 11
368.4168479651
 21
31.4424063369
  0
LINE
  8
0
 62
7
  6
CONTINUOUS
 10
364.369972524
 20
30.7003414814
 11
364.0809101343
 21
30.6358140973
  0
LINE
  8
0
 62
7
  6
CONTINUOUS
 10
361.6527851343
 20
31.3778789641
 11
361.8840352445
 21
31.4101426505
  0
LINE
  8
0
 62
7
  6
CONTINUOUS
 10
361.8840352445
 20
31.5391973962
 11
361.6527851343
 21
31.5069337098
  0
LINE
  8
0
 62
7
  6
CONTINUOUS
 10
359.4559102445
 20
31.3778789641
 11
359.6871602721
 21
31.4101426505
  0
LINE
  8
0
 62
7
  6
CONTINUOUS
 10
365.9752749986
 20
34.9329888485
 11
366.6310127035
 21
34.9329888485
  0
LINE
  8
0
 62
7
  6
CONTINUOUS
 10
363.6184102445
 20
30.9907146818
 11
363.7340351343
 21
31.0229783683
  0
LINE
  8
0
 62
7
  6
CONTINUOUS
 10
363.6184102445
 20
31.1520331591
 11
363.3871601343
 21
31.0875057863
  0
LINE
  8
0
 62
7
  6
CONTINUOUS
 10
363.5027853548
 20
31.3456152777
 11
363.6184102445
 21
31.3778789641
  0
LINE
  8
0
 62
7
  6
CONTINUOUS
 10
360.1496602445
 20
30.5390230296
 11
360.3809101894
 21
30.6035504109
  0
LINE
  8
0
 62
7
  6
CONTINUOUS
 10
363.4449727445
 20
31.5069337098
 11
363.3293478548
 21
31.4746700234
  0
LINE
  8
0
 62
7
  6
CONTINUOUS
 10
359.3980977583
 20
31.5069337098
 11
359.2246602583
 21
31.4746700234
  0
LINE
  8
0
 62
7
  6
CONTINUOUS
 10
370.1556028675
 20
36.0805298321
 11
368.7621602445
 21
36.0805298321
  0
LINE
  8
0
 62
7
  6
CONTINUOUS
 10
366.7949471298
 20
36.0805298321
 11
366.3823757812
 21
36.0805298321
  0
LINE
  8
0
 62
7
  6
CONTINUOUS
 10
365.1556028675
 20
36.0805298321
 11
363.7621602445
 21
36.0805298321
  0
LINE
  8
0
 62
7
  6
CONTINUOUS
 10
363.4342913921
 20
36.0805298321
 11
362.0408487691
 21
36.0805298321
  0
LINE
  8
0
 62
7
  6
CONTINUOUS
 10
360.1556028675
 20
36.0805298321
 11
358.7621602445
 21
36.0805298321
  0
LINE
  8
0
 62
7
  6
CONTINUOUS
 10
359.3402852307
 20
31.3456152777
 11
359.4559102445
 21
31.3778789641
  0
CIRCLE
  8
0
 62
7
  6
CONTINUOUS
 10
369.458881556
 20
38.4165954059
 40
2.0901639344
  0
ARC
  8
0
 62
7
  6
CONTINUOUS
 10
360.4015045068
 20
33.9493822911
 40
1.6393442623
 50
180.0
 51
270.0
  0
ARC
  8
0
 62
7
  6
CONTINUOUS
 10
366.7949471298
 20
34.4411855698
 40
1.6393442623
 50
0.0
 51
90.0
  0
ARC
  8
0
 62
7
  6
CONTINUOUS
 10
360.8140758554
 20
33.7854478649
 40
1.4754098361
 50
270.0
 51
326.2510114041
  0
ARC
  8
0
 62
7
  6
CONTINUOUS
 10
366.3823757812
 20
34.6051199961
 40
1.4754098361
 50
90.0
 51
146.2510114041
  0
ARC
  8
0
 62
7
  6
CONTINUOUS
 10
361.221176638
 20
34.2772511436
 40
0.8196721311
 50
270.0
 51
360.0
  0
ARC
  8
0
 62
7
  6
CONTINUOUS
 10
365.9752749986
 20
34.1133167174
 40
0.8196721311
 50
90.0
 51
180.0
  0
ARC
  8
0
 62
7
  6
CONTINUOUS
 10
360.565438933
 20
33.867415078
 40
0.4098360656
 50
180.0
 51
270.0
  0
ARC
  8
0
 62
7
  6
CONTINUOUS
 10
366.6310127035
 20
34.5231527829
 40
0.4098360656
 50
0.0
 51
90.0
  0
SOLID
  8
0
 62
7
  6
CONTINUOUS
 10
365.4684104651
 20
31.8618347111
 11
365.4684104651
 21
32.0231531947
 12
365.757472524
 22
31.8618347111
 13
365.757472524
 23
32.0231531947
  0
SOLID
  8
0
 62
7
  6
CONTINUOUS
 10
359.744972717
 20
31.5391977439
 11
360.1496602445
 21
31.5069333244
 12
359.3980977583
 22
31.5069333244
 13
359.3980977583
 23
31.5069333244
  0
SOLID
  8
0
 62
7
  6
CONTINUOUS
 10
359.2246602583
 20
31.4746706537
 11
359.3980977583
 21
31.5069333244
 12
360.1496602445
 22
31.5069333244
 13
360.1496602445
 23
31.5069333244
  0
SOLID
  8
0
 62
7
  6
CONTINUOUS
 10
360.1496602445
 20
31.5069333244
 11
360.3809101894
 21
31.4424063504
 12
359.2246602583
 22
31.4746706537
 13
359.2246602583
 23
31.4746706537
  0
SOLID
  8
0
 62
7
  6
CONTINUOUS
 10
359.0512227376
 20
31.4101419116
 11
359.2246602583
 21
31.4746706537
 12
360.3809101894
 22
31.4424063504
 13
360.3809101894
 23
31.4424063504
  0
SOLID
  8
0
 62
7
  6
CONTINUOUS
 10
359.0512227376
 20
31.4101419116
 11
360.3809101894
 21
31.4424063504
 12
359.6871602721
 22
31.4101419116
 13
359.6871602721
 23
31.4101419116
  0
SOLID
  8
0
 62
7
  6
CONTINUOUS
 10
359.6871602721
 20
31.4101419116
 11
360.3809101894
 21
31.4424063504
 12
360.091847717
 22
31.3778792603
 13
360.091847717
 23
31.3778792603
  0
SOLID
  8
0
 62
7
  6
CONTINUOUS
 10
360.3809101894
 20
31.4424063504
 11
360.5543476894
 21
31.345614957
 12
360.091847717
 22
31.3778792603
 13
360.091847717
 23
31.3778792603
  0
SOLID
  8
0
 62
7
  6
CONTINUOUS
 10
360.2652852997
 20
31.3133521701
 11
360.091847717
 21
31.3778792603
 12
360.5543476894
 22
31.345614957
 13
360.5543476894
 23
31.345614957
  0
SOLID
  8
0
 62
7
  6
CONTINUOUS
 10
360.2652852997
 20
31.3133521701
 11
360.5543476894
 21
31.345614957
 12
360.3230977445
 22
31.2165606992
 13
360.3230977445
 23
31.2165606992
  0
SOLID
  8
0
 62
7
  6
CONTINUOUS
 10
360.5543476894
 20
31.345614957
 11
360.6121602997
 21
31.2165606992
 12
360.3230977445
 22
31.2165606992
 13
360.3230977445
 23
31.2165606992
  0
SOLID
  8
0
 62
7
  6
CONTINUOUS
 10
361.6527851343
 20
31.5069329918
 11
361.8840352445
 21
31.5391972951
 12
362.1152853548
 22
31.5391972951
 13
362.1152853548
 23
31.5391972951
  0
SOLID
  8
0
 62
7
  6
CONTINUOUS
 10
362.1152853548
 20
31.5391972951
 11
362.2887228548
 21
31.5069329918
 12
361.6527851343
 22
31.5069329918
 13
361.6527851343
 23
31.5069329918
  0
SOLID
  8
0
 62
7
  6
CONTINUOUS
 10
361.4793477997
 20
31.4424059016
 11
361.6527851343
 21
31.5069329918
 12
362.2887228548
 22
31.5069329918
 13
362.2887228548
 23
31.5069329918
  0
SOLID
  8
0
 62
7
  6
CONTINUOUS
 10
362.2887228548
 20
31.5069329918
 11
362.4621603548
 21
31.4424059016
 12
361.4793477997
 22
31.4424059016
 13
361.4793477997
 23
31.4424059016
  0
SOLID
  8
0
 62
7
  6
CONTINUOUS
 10
362.4621603548
 20
31.4424059016
 11
361.8840352445
 21
31.4101420472
 12
361.4793477997
 22
31.4424059016
 13
361.4793477997
 23
31.4424059016
  0
SOLID
  8
0
 62
7
  6
CONTINUOUS
 10
361.3637227445
 20
31.3778788115
 11
361.4793477997
 21
31.4424059016
 12
361.8840352445
 22
31.4101420472
 13
361.8840352445
 23
31.4101420472
  0
SOLID
  8
0
 62
7
  6
CONTINUOUS
 10
361.8840352445
 20
31.4101420472
 11
361.6527851343
 21
31.3778788115
 12
361.3637227445
 22
31.3778788115
 13
361.3637227445
 23
31.3778788115
  0
SOLID
  8
0
 62
7
  6
CONTINUOUS
 10
361.8840352445
 20
31.4101420472
 11
362.4621603548
 21
31.4424059016
 12
362.1152853548
 22
31.3778788115
 13
362.1152853548
 23
31.3778788115
  0
SOLID
  8
0
 62
7
  6
CONTINUOUS
 10
362.4621603548
 20
31.4424059016
 11
362.5777852445
 21
31.3778788115
 12
362.1152853548
 22
31.3778788115
 13
362.1152853548
 23
31.3778788115
  0
SOLID
  8
0
 62
7
  6
CONTINUOUS
 10
362.2309102445
 20
31.345614957
 11
362.1152853548
 21
31.3778788115
 12
362.5777852445
 22
31.3778788115
 13
362.5777852445
 23
31.3778788115
  0
SOLID
  8
0
 62
7
  6
CONTINUOUS
 10
362.5777852445
 20
31.3778788115
 11
362.6355978548
 21
31.3133517213
 12
362.2309102445
 22
31.345614957
 13
362.2309102445
 23
31.345614957
  0
SOLID
  8
0
 62
7
  6
CONTINUOUS
 10
362.3465351343
 20
31.2810878668
 11
362.2309102445
 21
31.345614957
 12
362.6355978548
 22
31.3133517213
 13
362.6355978548
 23
31.3133517213
  0
SOLID
  8
0
 62
7
  6
CONTINUOUS
 10
362.3465351343
 20
31.2810878668
 11
362.6355978548
 21
31.3133517213
 12
362.4043477445
 22
31.1520332377
 13
362.4043477445
 23
31.1520332377
  0
SOLID
  8
0
 62
7
  6
CONTINUOUS
 10
362.6355978548
 20
31.3133517213
 11
362.6934101343
 21
31.1520332377
 12
362.4043477445
 22
31.1520332377
 13
362.4043477445
 23
31.1520332377
  0
SOLID
  8
0
 62
7
  6
CONTINUOUS
 10
361.6527851343
 20
31.3778788115
 11
361.4793477997
 21
31.3133517213
 12
361.3637227445
 22
31.3778788115
 13
361.3637227445
 23
31.3778788115
  0
SOLID
  8
0
 62
7
  6
CONTINUOUS
 10
361.4793477997
 20
31.3133517213
 11
361.3637227445
 21
31.2488235635
 12
361.3637227445
 22
31.3778788115
 13
361.3637227445
 23
31.3778788115
  0
SOLID
  8
0
 62
7
  6
CONTINUOUS
 10
361.3637227445
 20
31.2488235635
 11
361.0746601894
 21
30.5067593033
 12
361.3637227445
 22
31.3778788115
 13
361.3637227445
 23
31.3778788115
  0
SOLID
  8
0
 62
7
  6
CONTINUOUS
 10
361.3637227445
 20
31.3778788115
 11
361.0746601894
 21
30.5067593033
 12
361.3637227445
 22
32.0231527459
 13
361.3637227445
 23
32.0231527459
  0
SOLID
  8
0
 62
7
  6
CONTINUOUS
 10
361.0746601894
 20
30.5067593033
 11
361.0746601894
 21
32.0231527459
 12
361.3637227445
 22
32.0231527459
 13
361.3637227445
 23
32.0231527459
  0
SOLID
  8
0
 62
7
  6
CONTINUOUS
 10
361.3637227445
 20
31.2488235635
 11
361.3637227445
 21
30.5067593033
 12
361.0746601894
 22
30.5067593033
 13
361.0746601894
 23
30.5067593033
  0
SOLID
  8
0
 62
7
  6
CONTINUOUS
 10
362.4043477445
 20
30.5067593033
 11
362.4043477445
 21
31.1520332377
 12
362.6934101343
 22
31.1520332377
 13
362.6934101343
 23
31.1520332377
  0
SOLID
  8
0
 62
7
  6
CONTINUOUS
 10
362.6934101343
 20
31.1520332377
 11
362.6934101343
 21
30.5067593033
 12
362.4043477445
 22
30.5067593033
 13
362.4043477445
 23
30.5067593033
  0
SOLID
  8
0
 62
7
  6
CONTINUOUS
 10
363.4449727445
 20
31.506933758
 11
363.8496603548
 21
31.5391977507
 12
364.1965353548
 22
31.5391977507
 13
364.1965353548
 23
31.5391977507
  0
SOLID
  8
0
 62
7
  6
CONTINUOUS
 10
364.1965353548
 20
31.5391977507
 11
364.543410024
 21
31.506933758
 12
363.4449727445
 22
31.506933758
 13
363.4449727445
 23
31.506933758
  0
SOLID
  8
0
 62
7
  6
CONTINUOUS
 10
363.3293478548
 20
31.4746706537
 11
363.4449727445
 21
31.506933758
 12
364.543410024
 22
31.506933758
 13
364.543410024
 23
31.506933758
  0
SOLID
  8
0
 62
7
  6
CONTINUOUS
 10
364.543410024
 20
31.506933758
 11
364.716847524
 21
31.4424063504
 12
363.3293478548
 22
31.4746706537
 13
363.3293478548
 23
31.4746706537
  0
SOLID
  8
0
 62
7
  6
CONTINUOUS
 10
363.2137226343
 20
31.4101417797
 11
363.3293478548
 21
31.4746706537
 12
364.716847524
 22
31.4424063504
 13
364.716847524
 23
31.4424063504
  0
SOLID
  8
0
 62
7
  6
CONTINUOUS
 10
363.2137226343
 20
31.4101417797
 11
364.716847524
 21
31.4424063504
 12
363.8496603548
 22
31.4101417797
 13
363.8496603548
 23
31.4101417797
  0
SOLID
  8
0
 62
7
  6
CONTINUOUS
 10
363.8496603548
 20
31.4101417797
 11
364.716847524
 21
31.4424063504
 12
364.1965353548
 22
31.4101417797
 13
364.1965353548
 23
31.4101417797
  0
SOLID
  8
0
 62
7
  6
CONTINUOUS
 10
364.1965353548
 20
31.4101417797
 11
364.716847524
 21
31.4424063504
 12
364.4277854651
 22
31.3778793357
 13
364.4277854651
 23
31.3778793357
  0
SOLID
  8
0
 62
7
  6
CONTINUOUS
 10
364.716847524
 20
31.4424063504
 11
364.8324727445
 21
31.3778793357
 12
364.4277854651
 22
31.3778793357
 13
364.4277854651
 23
31.3778793357
  0
SOLID
  8
0
 62
7
  6
CONTINUOUS
 10
363.1559103548
 20
31.3456153429
 11
363.2137226343
 21
31.4101417797
 12
363.8496603548
 22
31.4101417797
 13
363.8496603548
 23
31.4101417797
  0
SOLID
  8
0
 62
7
  6
CONTINUOUS
 10
364.543410024
 20
31.3456153429
 11
364.4277854651
 21
31.3778793357
 12
364.8324727445
 22
31.3778793357
 13
364.8324727445
 23
31.3778793357
  0
SOLID
  8
0
 62
7
  6
CONTINUOUS
 10
364.543410024
 20
31.3456153429
 11
364.8324727445
 21
31.3778793357
 12
364.6012229651
 22
31.2810881318
 13
364.6012229651
 23
31.2810881318
  0
SOLID
  8
0
 62
7
  6
CONTINUOUS
 10
364.8324727445
 20
31.3778793357
 11
364.890285024
 21
31.2810881318
 12
364.6012229651
 22
31.2810881318
 13
364.6012229651
 23
31.2810881318
  0
SOLID
  8
0
 62
7
  6
CONTINUOUS
 10
364.6012229651
 20
31.1842964734
 11
364.6012229651
 21
31.2810881318
 12
364.890285024
 22
31.2810881318
 13
364.890285024
 23
31.2810881318
  0
SOLID
  8
0
 62
7
  6
CONTINUOUS
 10
364.6012229651
 20
31.1842964734
 11
364.890285024
 21
31.2810881318
 12
364.6012229651
 22
31.0552422931
 13
364.6012229651
 23
31.0552422931
  0
SOLID
  8
0
 62
7
  6
CONTINUOUS
 10
364.6012229651
 20
31.0552422931
 11
364.890285024
 21
31.2810881318
 12
364.6012229651
 22
30.8616599362
 13
364.6012229651
 23
30.8616599362
  0
SOLID
  8
0
 62
7
  6
CONTINUOUS
 10
364.890285024
 20
31.2810881318
 11
364.890285024
 21
30.7648681127
 12
364.6012229651
 22
30.8616599362
 13
364.6012229651
 23
30.8616599362
  0
SOLID
  8
0
 62
7
  6
CONTINUOUS
 10
366.798097524
 20
31.5069339419
 11
367.0293479651
 21
31.5391976292
 12
367.2605977445
 22
31.5391976292
 13
367.2605977445
 23
31.5391976292
  0
SOLID
  8
0
 62
7
  6
CONTINUOUS
 10
367.2605977445
 20
31.5391976292
 11
367.4340352445
 21
31.5069339419
 12
366.798097524
 22
31.5069339419
 13
366.798097524
 23
31.5069339419
  0
SOLID
  8
0
 62
7
  6
CONTINUOUS
 10
366.624660024
 20
31.4424065674
 11
366.798097524
 21
31.5069339419
 12
367.4340352445
 22
31.5069339419
 13
367.4340352445
 23
31.5069339419
  0
SOLID
  8
0
 62
7
  6
CONTINUOUS
 10
367.4340352445
 20
31.5069339419
 11
367.6074727445
 21
31.4424065674
 12
366.624660024
 22
31.4424065674
 13
366.624660024
 23
31.4424065674
  0
SOLID
  8
0
 62
7
  6
CONTINUOUS
 10
367.6074727445
 20
31.4424065674
 11
367.0293479651
 21
31.4101420472
 12
366.624660024
 22
31.4424065674
 13
366.624660024
 23
31.4424065674
  0
SOLID
  8
0
 62
7
  6
CONTINUOUS
 10
366.5090354651
 20
31.377879193
 11
366.624660024
 21
31.4424065674
 12
367.0293479651
 22
31.4101420472
 13
367.0293479651
 23
31.4101420472
  0
SOLID
  8
0
 62
7
  6
CONTINUOUS
 10
367.0293479651
 20
31.4101420472
 11
366.798097524
 21
31.377879193
 12
366.5090354651
 22
31.377879193
 13
366.5090354651
 23
31.377879193
  0
SOLID
  8
0
 62
7
  6
CONTINUOUS
 10
367.0293479651
 20
31.4101420472
 11
367.6074727445
 21
31.4424065674
 12
367.2605977445
 22
31.377879193
 13
367.2605977445
 23
31.377879193
  0
SOLID
  8
0
 62
7
  6
CONTINUOUS
 10
367.6074727445
 20
31.4424065674
 11
367.7230979651
 21
31.377879193
 12
367.2605977445
 22
31.377879193
 13
367.2605977445
 23
31.377879193
  0
SOLID
  8
0
 62
7
  6
CONTINUOUS
 10
367.3762229651
 20
31.345614957
 11
367.2605977445
 21
31.377879193
 12
367.7230979651
 22
31.377879193
 13
367.7230979651
 23
31.377879193
  0
SOLID
  8
0
 62
7
  6
CONTINUOUS
 10
367.3762229651
 20
31.345614957
 11
367.7230979651
 21
31.377879193
 12
367.491847524
 22
31.2810881312
 13
367.491847524
 23
31.2810881312
  0
SOLID
  8
0
 62
7
  6
CONTINUOUS
 10
367.7230979651
 20
31.377879193
 11
367.7809102445
 21
31.2810881312
 12
367.491847524
 22
31.2810881312
 13
367.491847524
 23
31.2810881312
  0
SOLID
  8
0
 62
7
  6
CONTINUOUS
 10
367.5496604651
 20
31.119769695
 11
367.491847524
 21
31.2810881312
 12
367.7809102445
 22
31.2810881312
 13
367.7809102445
 23
31.2810881312
  0
SOLID
  8
0
 62
7
  6
CONTINUOUS
 10
367.7809102445
 20
31.2810881312
 11
367.838722524
 21
31.119769695
 12
367.5496604651
 22
31.119769695
 13
367.5496604651
 23
31.119769695
  0
SOLID
  8
0
 62
7
  6
CONTINUOUS
 10
366.798097524
 20
31.377879193
 11
366.624660024
 21
31.3133521701
 12
366.5090354651
 22
31.377879193
 13
366.5090354651
 23
31.377879193
  0
SOLID
  8
0
 62
7
  6
CONTINUOUS
 10
366.624660024
 20
31.3133521701
 11
366.5090354651
 21
31.2488235635
 12
366.5090354651
 22
31.377879193
 13
366.5090354651
 23
31.377879193
  0
SOLID
  8
0
 62
7
  6
CONTINUOUS
 10
366.5090354651
 20
31.2488235635
 11
366.2199727445
 21
30.5067596374
 12
366.5090354651
 22
31.377879193
 13
366.5090354651
 23
31.377879193
  0
SOLID
  8
0
 62
7
  6
CONTINUOUS
 10
366.5090354651
 20
31.377879193
 11
366.2199727445
 21
30.5067596374
 12
366.5090354651
 22
31.5391976292
 13
366.5090354651
 23
31.5391976292
  0
SOLID
  8
0
 62
7
  6
CONTINUOUS
 10
366.2199727445
 20
30.5067596374
 11
366.2199727445
 21
31.5391976292
 12
366.5090354651
 22
31.5391976292
 13
366.5090354651
 23
31.5391976292
  0
SOLID
  8
0
 62
7
  6
CONTINUOUS
 10
366.5090354651
 20
31.2488235635
 11
366.5090354651
 21
30.5067596374
 12
366.2199727445
 22
30.5067596374
 13
366.2199727445
 23
30.5067596374
  0
SOLID
  8
0
 62
7
  6
CONTINUOUS
 10
367.5496604651
 20
30.5067596374
 11
367.5496604651
 21
31.119769695
 12
367.838722524
 22
31.119769695
 13
367.838722524
 23
31.119769695
  0
SOLID
  8
0
 62
7
  6
CONTINUOUS
 10
367.838722524
 20
31.119769695
 11
367.838722524
 21
30.5067596374
 12
367.5496604651
 22
30.5067596374
 13
367.5496604651
 23
30.5067596374
  0
SOLID
  8
0
 62
7
  6
CONTINUOUS
 10
368.6480977445
 20
31.5069334157
 11
368.9949727445
 21
31.539197762
 12
369.3418477445
 22
31.539197762
 13
369.3418477445
 23
31.539197762
  0
SOLID
  8
0
 62
7
  6
CONTINUOUS
 10
369.3418477445
 20
31.539197762
 11
369.6887227445
 21
31.5069334157
 12
368.6480977445
 22
31.5069334157
 13
368.6480977445
 23
31.5069334157
  0
SOLID
  8
0
 62
7
  6
CONTINUOUS
 10
368.4168479651
 20
31.4424063504
 11
368.6480977445
 21
31.5069334157
 12
369.6887227445
 22
31.5069334157
 13
369.6887227445
 23
31.5069334157
  0
SOLID
  8
0
 62
7
  6
CONTINUOUS
 10
368.4168479651
 20
31.4424063504
 11
369.6887227445
 21
31.5069334406
 12
369.8621602445
 22
31.4746706537
 13
369.8621602445
 23
31.4746706537
  0
SOLID
  8
0
 62
7
  6
CONTINUOUS
 10
368.4168479651
 20
31.4424063504
 11
369.8621602445
 21
31.4746706537
 12
368.9949727445
 22
31.4101421267
 13
368.9949727445
 23
31.4101421267
  0
SOLID
  8
0
 62
7
  6
CONTINUOUS
 10
368.9949727445
 20
31.4101421267
 11
369.8621602445
 21
31.4746706537
 12
369.3418477445
 22
31.4101421267
 13
369.3418477445
 23
31.4101421267
  0
SOLID
  8
0
 62
7
  6
CONTINUOUS
 10
369.8621602445
 20
31.4746706537
 11
370.0355977445
 21
31.4101421267
 12
369.3418477445
 22
31.4101421267
 13
369.3418477445
 23
31.4101421267
  0
SOLID
  8
0
 62
7
  6
CONTINUOUS
 10
369.6887227445
 20
31.3778792603
 11
369.3418477445
 21
31.4101421267
 12
370.0355977445
 22
31.4101421267
 13
370.0355977445
 23
31.4101421267
  0
SOLID
  8
0
 62
7
  6
CONTINUOUS
 10
368.3012227445
 20
31.3456148845
 11
368.4168479651
 21
31.4424063504
 12
368.9949727445
 22
31.4101421267
 13
368.9949727445
 23
31.4101421267
  0
SOLID
  8
0
 62
7
  6
CONTINUOUS
 10
369.6887227445
 20
31.3778792603
 11
370.0355977445
 21
31.4101421267
 12
369.8043479651
 22
31.3456148845
 13
369.8043479651
 23
31.3456148845
  0
SOLID
  8
0
 62
7
  6
CONTINUOUS
 10
369.8043479651
 20
31.3456148845
 11
370.0355977445
 21
31.4101421267
 12
369.8621602445
 22
31.281087868
 13
369.8621602445
 23
31.281087868
  0
SOLID
  8
0
 62
7
  6
CONTINUOUS
 10
370.0355977445
 20
31.4101421267
 11
370.1512223035
 21
31.281087868
 12
369.8621602445
 22
31.281087868
 13
369.8621602445
 23
31.281087868
  0
SOLID
  8
0
 62
7
  6
CONTINUOUS
 10
359.4559102445
 20
31.3778792603
 11
358.9355977445
 21
31.3456148963
 12
359.6871602721
 22
31.4101421155
 13
359.6871602721
 23
31.4101421155
  0
SOLID
  8
0
 62
7
  6
CONTINUOUS
 10
358.9355977445
 20
31.3456148963
 11
359.0512227376
 21
31.4101421155
 12
359.6871602721
 22
31.4101421155
 13
359.6871602721
 23
31.4101421155
  0
SOLID
  8
0
 62
7
  6
CONTINUOUS
 10
359.4559102445
 20
31.3778792603
 11
359.3402852307
 21
31.3456148963
 12
358.9355977445
 22
31.3456148963
 13
358.9355977445
 23
31.3456148963
  0
SOLID
  8
0
 62
7
  6
CONTINUOUS
 10
358.8199727462
 20
31.2165607767
 11
358.9355977445
 21
31.3456148963
 12
359.3402852307
 22
31.3456148963
 13
359.3402852307
 23
31.3456148963
  0
SOLID
  8
0
 62
7
  6
CONTINUOUS
 10
363.1559103548
 20
31.3456149608
 11
363.8496603548
 21
31.4101420472
 12
363.6184102445
 22
31.3778792603
 13
363.6184102445
 23
31.3778792603
  0
SOLID
  8
0
 62
7
  6
CONTINUOUS
 10
363.6184102445
 20
31.3778792603
 11
363.5027853548
 21
31.3456149608
 12
363.1559103548
 22
31.3456149608
 13
363.1559103548
 23
31.3456149608
  0
SOLID
  8
0
 62
7
  6
CONTINUOUS
 10
363.1559103548
 20
31.2810878707
 11
363.1559103548
 21
31.3456149608
 12
363.5027853548
 22
31.3456149608
 13
363.5027853548
 23
31.3456149608
  0
SOLID
  8
0
 62
7
  6
CONTINUOUS
 10
363.5027853548
 20
31.3456149608
 11
363.4449727445
 21
31.2810878707
 12
363.1559103548
 22
31.2810878707
 13
363.1559103548
 23
31.2810878707
  0
SOLID
  8
0
 62
7
  6
CONTINUOUS
 10
368.3012227445
 20
31.3456149608
 11
368.9949727445
 21
31.4101420472
 12
368.7637229651
 22
31.3778792603
 13
368.7637229651
 23
31.3778792603
  0
SOLID
  8
0
 62
7
  6
CONTINUOUS
 10
368.7637229651
 20
31.3778792603
 11
368.6480977445
 21
31.3456149608
 12
368.3012227445
 22
31.3456149608
 13
368.3012227445
 23
31.3456149608
  0
SOLID
  8
0
 62
7
  6
CONTINUOUS
 10
368.3012227445
 20
31.2810878707
 11
368.3012227445
 21
31.3456149608
 12
368.6480977445
 22
31.3456149608
 13
368.6480977445
 23
31.3456149608
  0
SOLID
  8
0
 62
7
  6
CONTINUOUS
 10
368.6480977445
 20
31.3456149608
 11
368.5902854651
 21
31.2810878707
 12
368.3012227445
 22
31.2810878707
 13
368.3012227445
 23
31.2810878707
  0
SOLID
  8
0
 62
7
  6
CONTINUOUS
 10
368.4168479651
 20
31.1520336865
 11
368.3012227445
 21
31.2810878707
 12
368.5902854651
 22
31.2810878707
 13
368.5902854651
 23
31.2810878707
  0
SOLID
  8
0
 62
7
  6
CONTINUOUS
 10
358.8199727462
 20
31.2165607767
 11
359.3402852307
 21
31.345614957
 12
359.1668477307
 22
31.2488235635
 13
359.1668477307
 23
31.2488235635
  0
SOLID
  8
0
 62
7
  6
CONTINUOUS
 10
359.1668477307
 20
31.2488235635
 11
359.1090352445
 21
31.1842964734
 12
358.8199727462
 22
31.2165607767
 13
358.8199727462
 23
31.2165607767
  0
SOLID
  8
0
 62
7
  6
CONTINUOUS
 10
358.7621602445
 20
31.0229779898
 11
358.8199727462
 21
31.2165607767
 12
359.1090352445
 22
31.1842964734
 13
359.1090352445
 23
31.1842964734
  0
SOLID
  8
0
 62
7
  6
CONTINUOUS
 10
363.6184102445
 20
31.1520336865
 11
363.9652852445
 21
31.1842964611
 12
364.6012229651
 22
31.1842964611
 13
364.6012229651
 23
31.1842964611
  0
SOLID
  8
0
 62
7
  6
CONTINUOUS
 10
363.6184102445
 20
31.1520336865
 11
364.6012229651
 21
31.1842964611
 12
363.3871601343
 22
31.0875057863
 13
363.3871601343
 23
31.0875057863
  0
SOLID
  8
0
 62
7
  6
CONTINUOUS
 10
363.3871601343
 20
31.0875057863
 11
364.6012229651
 21
31.1842964611
 12
363.9652852445
 22
31.0552422808
 13
363.9652852445
 23
31.0552422808
  0
SOLID
  8
0
 62
7
  6
CONTINUOUS
 10
364.6012229651
 20
31.1842964611
 11
364.6012229651
 21
31.0552422808
 12
363.9652852445
 22
31.0552422808
 13
363.9652852445
 23
31.0552422808
  0
SOLID
  8
0
 62
7
  6
CONTINUOUS
 10
368.4168479651
 20
31.1520338754
 11
368.5902854651
 21
31.2810878668
 12
368.6480977445
 22
31.2165607767
 13
368.6480977445
 23
31.2165607767
  0
SOLID
  8
0
 62
7
  6
CONTINUOUS
 10
368.6480977445
 20
31.2165607767
 11
368.8215352445
 21
31.1520338754
 12
368.4168479651
 22
31.1520338754
 13
368.4168479651
 23
31.1520338754
  0
SOLID
  8
0
 62
7
  6
CONTINUOUS
 10
368.6480977445
 20
31.0552422931
 11
368.4168479651
 21
31.1520338754
 12
368.8215352445
 22
31.1520338754
 13
368.8215352445
 23
31.1520338754
  0
SOLID
  8
0
 62
7
  6
CONTINUOUS
 10
368.8215352445
 20
31.1520338754
 11
369.8043479651
 21
30.9907152029
 12
368.6480977445
 22
31.0552422931
 13
368.6480977445
 23
31.0552422931
  0
SOLID
  8
0
 62
7
  6
CONTINUOUS
 10
369.6309104651
 20
30.8939239876
 11
368.6480977445
 21
31.0552422931
 12
369.8043479651
 22
30.9907152029
 13
369.8043479651
 23
30.9907152029
  0
SOLID
  8
0
 62
7
  6
CONTINUOUS
 10
369.8043479651
 20
30.9907152029
 11
370.0355977445
 21
30.8939239876
 12
369.6309104651
 22
30.8939239876
 13
369.6309104651
 23
30.8939239876
  0
SOLID
  8
0
 62
7
  6
CONTINUOUS
 10
369.8043479651
 20
30.8293967193
 11
369.6309104651
 21
30.8939239876
 12
370.0355977445
 22
30.8939239876
 13
370.0355977445
 23
30.8939239876
  0
SOLID
  8
0
 62
7
  6
CONTINUOUS
 10
369.8043479651
 20
30.8293967193
 11
370.0355977445
 21
30.8939239876
 12
369.8621602445
 22
30.7648682694
 13
369.8621602445
 23
30.7648682694
  0
SOLID
  8
0
 62
7
  6
CONTINUOUS
 10
370.0355977445
 20
30.8939239876
 11
370.1512223035
 21
30.7648682694
 12
369.8621602445
 22
30.7648682694
 13
369.8621602445
 23
30.7648682694
  0
SOLID
  8
0
 62
7
  6
CONTINUOUS
 10
369.8043479651
 20
30.7003411846
 11
369.8621602445
 21
30.7648682694
 12
370.1512223035
 22
30.7648682694
 13
370.1512223035
 23
30.7648682694
  0
SOLID
  8
0
 62
7
  6
CONTINUOUS
 10
370.1512223035
 20
30.7648682694
 11
370.1512223035
 21
30.7003411846
 12
369.8043479651
 22
30.7003411846
 13
369.8043479651
 23
30.7003411846
  0
SOLID
  8
0
 62
7
  6
CONTINUOUS
 10
369.6887227445
 20
30.6680782357
 11
369.8043479651
 21
30.7003411846
 12
370.1512223035
 22
30.7003411846
 13
370.1512223035
 23
30.7003411846
  0
SOLID
  8
0
 62
7
  6
CONTINUOUS
 10
369.6887227445
 20
30.6680782357
 11
370.1512223035
 21
30.7003411846
 12
369.4574729651
 22
30.6358140998
 13
369.4574729651
 23
30.6358140998
  0
SOLID
  8
0
 62
7
  6
CONTINUOUS
 10
370.1512223035
 20
30.7003411846
 11
370.0355977445
 21
30.6035511455
 12
369.4574729651
 22
30.6358140998
 13
369.4574729651
 23
30.6358140998
  0
SOLID
  8
0
 62
7
  6
CONTINUOUS
 10
370.0355977445
 20
30.6035511455
 11
368.5902854651
 21
30.5712868422
 12
369.4574729651
 22
30.6358140998
 13
369.4574729651
 23
30.6358140998
  0
SOLID
  8
0
 62
7
  6
CONTINUOUS
 10
369.4574729651
 20
30.6358140998
 11
368.5902854651
 21
30.5712868422
 12
369.1105979651
 22
30.6358140998
 13
369.1105979651
 23
30.6358140998
  0
SOLID
  8
0
 62
7
  6
CONTINUOUS
 10
368.5902854651
 20
30.5712868422
 11
368.4168479651
 21
30.6358140998
 12
369.1105979651
 22
30.6358140998
 13
369.1105979651
 23
30.6358140998
  0
SOLID
  8
0
 62
7
  6
CONTINUOUS
 10
368.5902854651
 20
30.5712868422
 11
370.0355977445
 21
30.6035511455
 12
368.7637229651
 22
30.5390223111
 13
368.7637229651
 23
30.5390223111
  0
SOLID
  8
0
 62
7
  6
CONTINUOUS
 10
370.0355977445
 20
30.6035511455
 11
369.8043479651
 21
30.5390223111
 12
368.7637229651
 22
30.5390223111
 13
368.7637229651
 23
30.5390223111
  0
SOLID
  8
0
 62
7
  6
CONTINUOUS
 10
369.1105979651
 20
30.5067599302
 11
368.7637229651
 21
30.5390223111
 12
369.8043479651
 22
30.5390223111
 13
369.8043479651
 23
30.5390223111
  0
SOLID
  8
0
 62
7
  6
CONTINUOUS
 10
369.8043479651
 20
30.5390223111
 11
369.4574729651
 21
30.5067599302
 12
369.1105979651
 22
30.5067599302
 13
369.1105979651
 23
30.5067599302
  0
SOLID
  8
0
 62
7
  6
CONTINUOUS
 10
358.7621602445
 20
31.0229779898
 11
359.1090352445
 21
31.1842964734
 12
359.0512227376
 22
31.0552422931
 13
359.0512227376
 23
31.0552422931
  0
SOLID
  8
0
 62
7
  6
CONTINUOUS
 10
359.0512227376
 20
31.0552422931
 11
359.0512227376
 21
30.9584509954
 12
358.7621602445
 22
31.0229779898
 13
358.7621602445
 23
31.0229779898
  0
SOLID
  8
0
 62
7
  6
CONTINUOUS
 10
358.8199727462
 20
30.8293967193
 11
358.7621602445
 21
31.0229779898
 12
359.0512227376
 22
30.9584509954
 13
359.0512227376
 23
30.9584509954
  0
SOLID
  8
0
 62
7
  6
CONTINUOUS
 10
359.0512227376
 20
30.9584509954
 11
359.1668477307
 21
30.797132416
 12
358.8199727462
 22
30.8293967193
 13
358.8199727462
 23
30.8293967193
  0
SOLID
  8
0
 62
7
  6
CONTINUOUS
 10
358.9355977445
 20
30.7003413087
 11
358.8199727462
 21
30.8293967193
 12
359.1668477307
 22
30.797132416
 13
359.1668477307
 23
30.797132416
  0
SOLID
  8
0
 62
7
  6
CONTINUOUS
 10
359.1668477307
 20
30.797132416
 11
359.3402852307
 21
30.7003413087
 12
358.9355977445
 22
30.7003413087
 13
358.9355977445
 23
30.7003413087
  0
SOLID
  8
0
 62
7
  6
CONTINUOUS
 10
359.0512227376
 20
30.6358140759
 11
358.9355977445
 21
30.7003413087
 12
359.3402852307
 22
30.7003413087
 13
359.3402852307
 23
30.7003413087
  0
SOLID
  8
0
 62
7
  6
CONTINUOUS
 10
359.3402852307
 20
30.7003413087
 11
359.6871602721
 21
30.6358140759
 12
359.0512227376
 22
30.6358140759
 13
359.0512227376
 23
30.6358140759
  0
SOLID
  8
0
 62
7
  6
CONTINUOUS
 10
359.2246602583
 20
30.5712868422
 11
359.0512227376
 21
30.6358140759
 12
359.6871602721
 22
30.6358140759
 13
359.6871602721
 23
30.6358140759
  0
SOLID
  8
0
 62
7
  6
CONTINUOUS
 10
363.2715352445
 20
31.0229779808
 11
363.3871601343
 21
31.0875057863
 12
363.9652852445
 22
31.0552422931
 13
363.9652852445
 23
31.0552422931
  0
SOLID
  8
0
 62
7
  6
CONTINUOUS
 10
363.9652852445
 20
31.0552422931
 11
363.7340351343
 21
31.0229779808
 12
363.2715352445
 22
31.0229779808
 13
363.2715352445
 23
31.0229779808
  0
SOLID
  8
0
 62
7
  6
CONTINUOUS
 10
363.1559103548
 20
30.8939238094
 11
363.2715352445
 21
31.0229779808
 12
363.7340351343
 22
31.0229779808
 13
363.7340351343
 23
31.0229779808
  0
SOLID
  8
0
 62
7
  6
CONTINUOUS
 10
363.5027853548
 20
30.926187309
 11
363.1559103548
 21
30.8939238094
 12
363.6184102445
 22
30.9907152029
 13
363.6184102445
 23
30.9907152029
  0
SOLID
  8
0
 62
7
  6
CONTINUOUS
 10
363.1559103548
 20
30.8939238094
 11
363.7340351343
 21
31.0229779898
 12
363.6184102445
 22
30.9907152029
 13
363.6184102445
 23
30.9907152029
  0
SOLID
  8
0
 62
7
  6
CONTINUOUS
 10
363.5027853548
 20
30.926187309
 11
363.4449727445
 21
30.8293967193
 12
363.1559103548
 22
30.8939238094
 13
363.1559103548
 23
30.8939238094
  0
SOLID
  8
0
 62
7
  6
CONTINUOUS
 10
363.1559103548
 20
30.797132416
 11
363.1559103548
 21
30.8939238094
 12
363.4449727445
 22
30.8293967193
 13
363.4449727445
 23
30.8293967193
  0
SOLID
  8
0
 62
7
  6
CONTINUOUS
 10
363.4449727445
 20
30.8293967193
 11
363.4449727445
 21
30.7648681127
 12
363.1559103548
 22
30.797132416
 13
363.1559103548
 23
30.797132416
  0
SOLID
  8
0
 62
7
  6
CONTINUOUS
 10
363.2137226343
 20
30.6680782357
 11
363.1559103548
 21
30.797132416
 12
363.4449727445
 22
30.7648681127
 13
363.4449727445
 23
30.7648681127
  0
SOLID
  8
0
 62
7
  6
CONTINUOUS
 10
364.6012229651
 20
30.8616599362
 11
364.890285024
 21
30.7648681127
 12
364.543410024
 22
30.797132416
 13
364.543410024
 23
30.797132416
  0
SOLID
  8
0
 62
7
  6
CONTINUOUS
 10
364.369972524
 20
30.7003410226
 11
364.543410024
 21
30.797132416
 12
364.890285024
 22
30.7648681127
 13
364.890285024
 23
30.7648681127
  0
SOLID
  8
0
 62
7
  6
CONTINUOUS
 10
364.369972524
 20
30.7003410226
 11
364.890285024
 21
30.7648681127
 12
364.6012229651
 22
30.6680782357
 13
364.6012229651
 23
30.6680782357
  0
SOLID
  8
0
 62
7
  6
CONTINUOUS
 10
364.890285024
 20
30.7648681127
 11
364.9480979651
 21
30.6035511455
 12
364.6012229651
 22
30.6680782357
 13
364.6012229651
 23
30.6680782357
  0
SOLID
  8
0
 62
7
  6
CONTINUOUS
 10
364.6590352445
 20
30.5712868422
 11
364.6012229651
 21
30.6680782357
 12
364.9480979651
 22
30.6035511455
 13
364.9480979651
 23
30.6035511455
  0
SOLID
  8
0
 62
7
  6
CONTINUOUS
 10
364.6590352445
 20
30.5712868422
 11
364.9480979651
 21
30.6035511455
 12
364.716847524
 22
30.5067598731
 13
364.716847524
 23
30.5067598731
  0
SOLID
  8
0
 62
7
  6
CONTINUOUS
 10
364.9480979651
 20
30.6035511455
 11
365.0059102445
 21
30.5067598731
 12
364.716847524
 22
30.5067598731
 13
364.716847524
 23
30.5067598731
  0
SOLID
  8
0
 62
7
  6
CONTINUOUS
 10
360.2652852997
 20
30.7326051679
 11
360.3230977445
 21
30.8293966612
 12
360.6121602997
 22
30.8293966612
 13
360.6121602997
 23
30.8293966612
  0
SOLID
  8
0
 62
7
  6
CONTINUOUS
 10
360.6121602997
 20
30.8293966612
 11
360.5543476894
 21
30.7003410226
 12
360.2652852997
 22
30.7326051679
 13
360.2652852997
 23
30.7326051679
  0
SOLID
  8
0
 62
7
  6
CONTINUOUS
 10
360.091847717
 20
30.6680782357
 11
360.2652852997
 21
30.7326051679
 12
360.5543476894
 22
30.7003410226
 13
360.5543476894
 23
30.7003410226
  0
SOLID
  8
0
 62
7
  6
CONTINUOUS
 10
360.091847717
 20
30.6680782357
 11
360.5543476894
 21
30.7003410226
 12
359.6871602721
 22
30.6358139324
 13
359.6871602721
 23
30.6358139324
  0
SOLID
  8
0
 62
7
  6
CONTINUOUS
 10
360.5543476894
 20
30.7003410226
 11
360.3809101894
 21
30.6035511455
 12
359.6871602721
 22
30.6358139324
 13
359.6871602721
 23
30.6358139324
  0
SOLID
  8
0
 62
7
  6
CONTINUOUS
 10
359.2246602583
 20
30.5712868422
 11
359.6871602721
 21
30.6358139324
 12
360.3809101894
 22
30.6035511455
 13
360.3809101894
 23
30.6035511455
  0
SOLID
  8
0
 62
7
  6
CONTINUOUS
 10
359.2246602583
 20
30.5712868422
 11
360.3809101894
 21
30.6035511455
 12
359.3980977583
 22
30.5390224228
 13
359.3980977583
 23
30.5390224228
  0
SOLID
  8
0
 62
7
  6
CONTINUOUS
 10
360.3809101894
 20
30.6035511455
 11
360.1496602445
 21
30.5390224228
 12
359.3980977583
 22
30.5390224228
 13
359.3980977583
 23
30.5390224228
  0
SOLID
  8
0
 62
7
  6
CONTINUOUS
 10
359.744972717
 20
30.5067597521
 11
359.3980977583
 21
30.5390224228
 12
360.1496602445
 22
30.5390224228
 13
360.1496602445
 23
30.5390224228
  0
SOLID
  8
0
 62
7
  6
CONTINUOUS
 10
363.2137226343
 20
30.6680782357
 11
363.4449727445
 21
30.7648681127
 12
363.5027853548
 22
30.7003410226
 13
363.5027853548
 23
30.7003410226
  0
SOLID
  8
0
 62
7
  6
CONTINUOUS
 10
363.5027853548
 20
30.7003410226
 11
363.7340351343
 21
30.6358139324
 12
363.2137226343
 22
30.6680782357
 13
363.2137226343
 23
30.6680782357
  0
SOLID
  8
0
 62
7
  6
CONTINUOUS
 10
363.3871601343
 20
30.5712868422
 11
363.2137226343
 21
30.6680782357
 12
363.7340351343
 22
30.6358139324
 13
363.7340351343
 23
30.6358139324
  0
SOLID
  8
0
 62
7
  6
CONTINUOUS
 10
364.0809101343
 20
30.6358139363
 11
364.369972524
 21
30.7003410226
 12
364.6012229651
 22
30.6680782357
 13
364.6012229651
 23
30.6680782357
  0
SOLID
  8
0
 62
7
  6
CONTINUOUS
 10
364.6012229651
 20
30.6680782357
 11
364.543410024
 21
30.6035511455
 12
364.0809101343
 22
30.6358139363
 13
364.0809101343
 23
30.6358139363
  0
SOLID
  8
0
 62
7
  6
CONTINUOUS
 10
364.543410024
 20
30.6035511455
 11
363.3871601343
 21
30.5712868422
 12
364.0809101343
 22
30.6358139363
 13
364.0809101343
 23
30.6358139363
  0
SOLID
  8
0
 62
7
  6
CONTINUOUS
 10
363.3871601343
 20
30.5712868422
 11
363.7340351343
 21
30.6358139363
 12
364.0809101343
 22
30.6358139363
 13
364.0809101343
 23
30.6358139363
  0
SOLID
  8
0
 62
7
  6
CONTINUOUS
 10
363.3871601343
 20
30.5712868422
 11
364.543410024
 21
30.6035511455
 12
363.5027853548
 22
30.5390225267
 13
363.5027853548
 23
30.5390225267
  0
SOLID
  8
0
 62
7
  6
CONTINUOUS
 10
364.543410024
 20
30.6035511455
 11
364.369972524
 21
30.5390225267
 12
363.5027853548
 22
30.5390225267
 13
363.5027853548
 23
30.5390225267
  0
SOLID
  8
0
 62
7
  6
CONTINUOUS
 10
363.7340351343
 20
30.5067596914
 11
363.5027853548
 21
30.5390225267
 12
364.369972524
 22
30.5390225267
 13
364.369972524
 23
30.5390225267
  0
SOLID
  8
0
 62
7
  6
CONTINUOUS
 10
364.369972524
 20
30.5390225267
 11
364.0809101343
 21
30.5067596914
 12
363.7340351343
 22
30.5067596914
 13
363.7340351343
 23
30.5067596914
  0
SOLID
  8
0
 62
7
  6
CONTINUOUS
 10
368.7637229651
 20
30.6680782357
 11
368.4168479651
 21
30.6358138717
 12
368.6480977445
 22
30.7003410226
 13
368.6480977445
 23
30.7003410226
  0
SOLID
  8
0
 62
7
  6
CONTINUOUS
 10
368.6480977445
 20
30.7003410226
 11
368.4168479651
 21
30.6358138717
 12
368.5902854651
 22
30.7648680521
 13
368.5902854651
 23
30.7648680521
  0
SOLID
  8
0
 62
7
  6
CONTINUOUS
 10
368.4168479651
 20
30.6358138717
 11
368.3012227445
 21
30.7648680521
 12
368.5902854651
 22
30.7648680521
 13
368.5902854651
 23
30.7648680521
  0
SOLID
  8
0
 62
7
  6
CONTINUOUS
 10
368.7637229651
 20
30.6680782357
 11
369.1105979651
 21
30.6358138717
 12
368.4168479651
 22
30.6358138717
 13
368.4168479651
 23
30.6358138717
  0
SOLID
  8
0
 62
7
  6
CONTINUOUS
 10
365.4684104651
 20
30.5067597521
 11
365.4684104651
 21
31.5391977439
 12
365.757472524
 22
30.5067597521
 13
365.757472524
 23
31.5391977439
  0
ENDBLK
  8
0
  6
BYBLOCK
 62
0
  0
BLOCK
  8
0
 62
2
  6
CONTINUOUS
  2
SYMBOL_0_BL0
 70
64
 10
240.8592468615
 20
19.762288695
  0
TEXT
  8
0
 62
7
  6
CONTINUOUS
 10
227.1239507038
 20
19.1357028027
  7
TEXTSTYLE_3
 40
2.7338706658
  1
Ammeraal Beltech
 41
1.0
 51
15.0
 72
0
  0
TEXT
  8
0
 62
7
  6
CONTINUOUS
 10
237.9247515296
 20
16.8621661299
  7
TEXTSTYLE_4
 40
1.0935482663
  1
Innovation & Service in Belting
 41
1.0
 72
0
  0
LINE
  8
0
 62
7
  6
CONTINUOUS
 10
221.0994100525
 20
19.9022961113
 11
221.8775620458
 21
23.5632134089
  0
LINE
  8
0
 62
7
  6
CONTINUOUS
 10
231.9727303357
 20
27.2266073205
 11
222.3653797889
 21
24.1049898993
  0
LINE
  8
0
 62
7
  6
CONTINUOUS
 10
221.3246933848
 20
19.2089453082
 11
228.8317686459
 21
12.4495443822
  0
LINE
  8
0
 62
7
  6
CONTINUOUS
 10
221.5872277955
 20
20.4440726016
 11
232.3954971607
 21
23.9558922005
  0
LINE
  8
0
 62
7
  6
CONTINUOUS
 10
232.3912920235
 20
13.6061036368
 11
223.9458323548
 21
21.2104296785
  0
LINE
  8
0
 62
7
  6
CONTINUOUS
 10
232.9111147433
 20
26.3816822048
 11
231.9345552061
 21
21.7873308023
  0
LINE
  8
0
 62
7
  6
CONTINUOUS
 10
231.2347532584
 20
18.4950214885
 11
230.5483050469
 21
15.2655365641
  0
LINE
  8
0
 62
7
  6
CONTINUOUS
 10
233.5922108419
 20
13.9963058145
 11
234.5484423775
 21
18.4950214885
  0
LINE
  8
0
 62
7
  6
CONTINUOUS
 10
235.2482443252
 20
21.7873308023
 11
235.6924861276
 21
23.8773241617
  0
LINE
  8
0
 62
7
  6
CONTINUOUS
 10
229.5448697213
 20
12.2979700695
 11
233.1043930989
 21
13.4545293241
  0
LINE
  8
0
 62
7
  6
CONTINUOUS
 10
232.685831411
 20
27.0750330078
 11
235.4672027953
 21
24.5706749648
  0
ARC
  8
0
 62
7
  6
CONTINUOUS
 10
222.5906631212
 20
23.4116390962
 40
0.7290321776
 50
108.0
 51
168.0
  0
ARC
  8
0
 62
7
  6
CONTINUOUS
 10
232.198013668
 20
26.5332565175
 40
0.7290321776
 50
348.0
 51
108.0
  0
ARC
  8
0
 62
7
  6
CONTINUOUS
 10
234.9793850522
 20
24.0288984744
 40
0.7290321776
 50
348.0
 51
48.0
  0
ARC
  8
0
 62
7
  6
CONTINUOUS
 10
229.319586389
 20
12.9913208726
 40
0.7290321776
 50
228.0
 51
288.0
  0
ARC
  8
0
 62
7
  6
CONTINUOUS
 10
221.8125111278
 20
19.7507217986
 40
0.7290321776
 50
108.0
 51
228.0
  0
ARC
  8
0
 62
7
  6
CONTINUOUS
 10
232.8791097665
 20
14.1478801272
 40
0.7290321776
 50
228.0
 51
348.0
  0
ENDBLK
  8
0
  6
BYBLOCK
 62
0
  0
ENDSEC
  0
SECTION
  2
ENTITIES
  0
TEXT
  8
0
 62
5
  6
CONTINUOUS
 10
304.937007874
 20
25.636
  7
TEXTSTYLE_2
 40
2.8
  1
Scale :
 41
0.6
 51
0.000019
 72
0
  0
TEXT
  8
0
 62
5
  6
CONTINUOUS
 10
324.937007874
 20
25.636
  7
TEXTSTYLE_2
 40
2.8
  1
Belt type:
 41
0.6
 51
0.000019
 72
0
  0
INSERT
  8
0
 62
2
  6
CONTINUOUS
  2
SYMBOL_0_BL0
 10
240.8592468615
 20
19.762288695
  0
INSERT
  8
0
 62
2
  6
CONTINUOUS
  2
SYMBOL_5_BL1
 10
382.7840918555
 20
35.5067593403
  0
LINE
  8
0
 62
2
  6
CONTINUOUS
 10
218.937007874
 20
30.0
 11
408.937007874
 21
30.0
  0
LINE
  8
0
 62
2
  6
CONTINUOUS
 10
218.937007874
 20
30.0
 11
218.937007874
 21
10.0
  0
LINE
  8
0
 62
2
  6
CONTINUOUS
 10
218.937007874
 20
10.0
 11
408.937007874
 21
10.0
  0
LINE
  8
0
 62
2
  6
CONTINUOUS
 10
303.937007874
 20
30.0
 11
303.937007874
 21
10.0
  0
LINE
  8
0
 62
2
  6
CONTINUOUS
 10
323.937007874
 20
30.0
 11
323.937007874
 21
10.0
  0
LINE
  8
0
 62
2
  6
CONTINUOUS
 10
408.937007874
 20
30.0
 11
408.937007874
 21
10.0
  0
TEXT
  8
0
 62
5
  6
CONTINUOUS
 10
221.937007874
 20
23.303
  7
TEXTSTYLE_5
 40
1.52
  1
                                                                     Ammeraal Beltech Modular A/S
 41
1.0
 72
0
  0
TEXT
  8
0
 62
5
  6
CONTINUOUS
 10
221.937007874
 20
20.595
  7
TEXTSTYLE_5
 40
1.5
  1
                                                                      Hjulmagervej 21, 7100 Vejle,  DK
 41
1.0
 72
0
  0
TEXT
  8
0
 62
5
  6
CONTINUOUS
 10
221.937007874
 20
17.881
  7
TEXTSTYLE_5
 40
1.495
  1
                                                                      tel: 
 41
1.0
 72
0
  0
TEXT
  8
0
 62
5
  6
CONTINUOUS
 10
266.9239544389
 20
17.881
  7
TEXTSTYLE_5
 40
1.51
  1
+45 75723100     fax: +45 75723348
 41
1.0
 72
0
  0
TEXT
  8
0
 62
5
  6
CONTINUOUS
 10
221.937007874
 20
15.177
  7
TEXTSTYLE_5
 40
1.5
  1
                                                                      admin@unichains.dk  www.unichains.com
 41
1.0
 72
0
  0
TEXT
  8
0
 62
5
  6
CONTINUOUS
 10
308.687007874
 20
13.75
  7
TEXTSTYLE_6
 40
5.0
  1
1:1
 41
0.7
 72
1
 11
313.937007874
 21
13.75
  0
TEXT
  8
0
 62
5
  6
CONTINUOUS
 10
326.937007874
 20
13.75
  7
TEXTSTYLE_7
 40
7.5
  1
uni Flex L-ASB RubberTop K1200
 41
0.3266666667
 72
0
  0
LINE
  8
0
 62
7
  6
CONTINUOUS
 10
0.0
 20
0.0
 11
0.0
 21
297.0
  0
LINE
  8
0
 62
7
  6
CONTINUOUS
 10
8.937007874
 20
10.0
 11
8.937007874
 21
287.0
  0
LINE
  8
0
 62
7
  6
CONTINUOUS
 10
0.0
 20
0.0
 11
420.0
 21
0.0
  0
LINE
  8
0
 62
7
  6
CONTINUOUS
 10
408.937007874
 20
10.0
 11
8.937007874
 21
10.0
  0
LINE
  8
0
 62
7
  6
CONTINUOUS
 10
218.937007874
 20
30.0
 11
408.937007874
 21
30.0
  0
LINE
  8
0
 62
7
  6
CONTINUOUS
 10
210.0
 20
297.0
 11
210.0
 21
292.0
  0
LINE
  8
0
 62
7
  6
CONTINUOUS
 10
210.0
 20
0.0
 11
210.0
 21
5.0
  0
LINE
  8
0
 62
7
  6
CONTINUOUS
 10
8.937007874
 20
287.0
 11
408.937007874
 21
287.0
  0
LINE
  8
0
 62
7
  6
CONTINUOUS
 10
0.0
 20
297.0
 11
420.0
 21
297.0
  0
LINE
  8
0
 62
7
  6
CONTINUOUS
 10
408.937007874
 20
287.0
 11
408.937007874
 21
10.0
  0
LINE
  8
0
 62
7
  6
CONTINUOUS
 10
420.0
 20
0.0
 11
420.0
 21
297.0
  0
LINE
  8
0
 62
7
  6
CONTINUOUS
 10
27.8671693947
 20
101.5287261008
 11
27.8671693947
 21
106.2220713605
  0
LINE
  8
0
 62
7
  6
CONTINUOUS
 10
27.9671693947
 20
129.7287261008
 11
27.9671693947
 21
134.554065498
  0
LINE
  8
0
 62
7
  6
CONTINUOUS
 10
30.5671693947
 20
113.3611922563
 11
30.5671693947
 21
129.1287261008
  0
LINE
  8
0
 62
7
  6
CONTINUOUS
 10
31.3671693947
 20
110.4787261008
 11
31.3671693947
 21
112.0098024934
  0
LINE
  8
0
 62
7
  6
CONTINUOUS
 10
31.6671693605
 20
113.3611873697
 11
31.6671693605
 21
129.440632347
  0
LINE
  8
0
 62
7
  6
CONTINUOUS
 10
36.4671693947
 20
127.4287261008
 11
36.4671693947
 21
113.3611922563
  0
LINE
  8
0
 62
7
  6
CONTINUOUS
 10
36.7671693947
 20
112.0098024934
 11
36.7671693947
 21
110.4787261008
  0
LINE
  8
0
 62
7
  6
CONTINUOUS
 10
37.5671693947
 20
127.4287261008
 11
37.5671693947
 21
113.3611922563
  0
LINE
  8
0
 62
7
  6
CONTINUOUS
 10
40.2671693947
 20
106.2220713605
 11
40.2671693947
 21
101.5287261008
  0
LINE
  8
0
 62
7
  6
CONTINUOUS
 10
36.6118000681
 20
112.59533927
 11
36.6982976455
 21
112.3744943916
  0
LINE
  8
0
 62
7
  6
CONTINUOUS
 10
40.2465078699
 20
106.33147893
 11
37.6360411439
 21
112.9965003581
  0
POLYLINE
  8
0
 62
7
  6
CONTINUOUS
 66
1
 70
0
  0
VERTEX
  8
0
 62
7
  6
CONTINUOUS
 10
49.1671693947
 20
135.304302492
  0
VERTEX
  8
0
 62
7
  6
CONTINUOUS
 10
49.1690249115
 20
135.1887359964
  0
VERTEX
  8
0
 62
7
  6
CONTINUOUS
 10
49.1742550421
 20
135.0787917668
  0
VERTEX
  8
0
 62
7
  6
CONTINUOUS
 10
49.1825035458
 20
134.9730484844
  0
VERTEX
  8
0
 62
7
  6
CONTINUOUS
 10
49.193573899
 20
134.8701723016
  0
VERTEX
  8
0
 62
7
  6
CONTINUOUS
 10
49.2074418011
 20
134.7688521425
  0
VERTEX
  8
0
 62
7
  6
CONTINUOUS
 10
49.2242205563
 20
134.667841596
  0
VERTEX
  8
0
 62
7
  6
CONTINUOUS
 10
49.2439275563
 20
134.5670548424
  0
VERTEX
  8
0
 62
7
  6
CONTINUOUS
 10
49.2664846402
 20
134.4669696033
  0
VERTEX
  8
0
 62
7
  6
CONTINUOUS
 10
49.2918845603
 20
134.3676444606
  0
VERTEX
  8
0
 62
7
  6
CONTINUOUS
 10
49.3201353514
 20
134.2690267567
  0
VERTEX
  8
0
 62
7
  6
CONTINUOUS
 10
49.3511931001
 20
134.1712496493
  0
VERTEX
  8
0
 62
7
  6
CONTINUOUS
 10
49.3850301937
 20
134.0744431714
  0
VERTEX
  8
0
 62
7
  6
CONTINUOUS
 10
49.4216866032
 20
133.9785570049
  0
VERTEX
  8
0
 62
7
  6
CONTINUOUS
 10
49.4611563981
 20
133.8836851247
  0
VERTEX
  8
0
 62
7
  6
CONTINUOUS
 10
49.5034045088
 20
133.7900046698
  0
VERTEX
  8
0
 62
7
  6
CONTINUOUS
 10
49.5484946289
 20
133.6974372079
  0
VERTEX
  8
0
 62
7
  6
CONTINUOUS
 10
49.5965101112
 20
133.605886089
  0
VERTEX
  8
0
 62
7
  6
CONTINUOUS
 10
49.6472323664
 20
133.5158213573
  0
VERTEX
  8
0
 62
7
  6
CONTINUOUS
 10
49.7004113821
 20
133.4276424507
  0
VERTEX
  8
0
 62
7
  6
CONTINUOUS
 10
49.7578767592
 20
133.3385643131
  0
VERTEX
  8
0
 62
7
  6
CONTINUOUS
 10
49.8229020794
 20
133.2445451712
  0
VERTEX
  8
0
 62
7
  6
CONTINUOUS
 10
49.8992129276
 20
133.1422146997
  0
VERTEX
  8
0
 62
7
  6
CONTINUOUS
 10
49.9872108688
 20
133.0335782254
  0
VERTEX
  8
0
 62
7
  6
CONTINUOUS
 10
50.0808032346
 20
132.9276253724
  0
VERTEX
  8
0
 62
7
  6
CONTINUOUS
 10
50.1724116021
 20
132.8323083555
  0
VERTEX
  8
0
 62
7
  6
CONTINUOUS
 10
50.258922967
 20
132.7490291934
  0
VERTEX
  8
0
 62
7
  6
CONTINUOUS
 10
50.3423604459
 20
132.6743049684
  0
VERTEX
  8
0
 62
7
  6
CONTINUOUS
 10
50.4254340609
 20
132.6049010604
  0
VERTEX
  8
0
 62
7
  6
CONTINUOUS
 10
50.5103142845
 20
132.5387521213
  0
VERTEX
  8
0
 62
7
  6
CONTINUOUS
 10
50.5972943771
 20
132.4756265017
  0
VERTEX
  8
0
 62
7
  6
CONTINUOUS
 10
50.6863587444
 20
132.4155645947
  0
VERTEX
  8
0
 62
7
  6
CONTINUOUS
 10
50.7773394808
 20
132.3587185376
  0
VERTEX
  8
0
 62
7
  6
CONTINUOUS
 10
50.8703501525
 20
132.3050888106
  0
VERTEX
  8
0
 62
7
  6
CONTINUOUS
 10
50.9657157334
 20
132.2545776443
  0
VERTEX
  8
0
 62
7
  6
CONTINUOUS
 10
51.0633953117
 20
132.2073274344
  0
VERTEX
  8
0
 62
7
  6
CONTINUOUS
 10
51.1633005582
 20
132.1634709921
  0
VERTEX
  8
0
 62
7
  6
CONTINUOUS
 10
51.2650833556
 20
132.1232164651
  0
VERTEX
  8
0
 62
7
  6
CONTINUOUS
 10
51.3684503466
 20
132.0867258678
  0
VERTEX
  8
0
 62
7
  6
CONTINUOUS
 10
51.47331224
 20
132.0540718583
  0
VERTEX
  8
0
 62
7
  6
CONTINUOUS
 10
51.5795914252
 20
132.0253375799
  0
VERTEX
  8
0
 62
7
  6
CONTINUOUS
 10
51.6868492813
 20
132.0006943863
  0
VERTEX
  8
0
 62
7
  6
CONTINUOUS
 10
51.7952196455
 20
131.9801772649
  0
VERTEX
  8
0
 62
7
  6
CONTINUOUS
 10
51.9059775034
 20
131.9636864665
  0
VERTEX
  8
0
 62
7
  6
CONTINUOUS
 10
52.0205800843
 20
131.9513265951
  0
VERTEX
  8
0
 62
7
  6
CONTINUOUS
 10
52.1404610758
 20
131.9434387473
  0
VERTEX
  8
0
 62
7
  6
CONTINUOUS
 10
52.2671694831
 20
131.9406265591
  0
SEQEND
  0
LINE
  8
0
 62
7
  6
CONTINUOUS
 10
40.5671693947
 20
158.2353845751
 11
40.5671693947
 21
162.9287261008
  0
LINE
  8
0
 62
7
  6
CONTINUOUS
 10
43.2671693947
 20
151.0967354207
 11
43.2671693947
 21
135.3043012425
  0
LINE
  8
0
 62
7
  6
CONTINUOUS
 10
44.0671693947
 20
152.4481095549
 11
44.0671693947
 21
153.9787261008
  0
LINE
  8
0
 62
7
  6
CONTINUOUS
 10
44.3671693947
 20
135.3043019249
 11
44.3671693947
 21
151.0967354207
  0
LINE
  8
0
 62
7
  6
CONTINUOUS
 10
49.1671693947
 20
151.0967354207
 11
49.1671693947
 21
135.304302492
  0
LINE
  8
0
 62
7
  6
CONTINUOUS
 10
49.4671693947
 20
153.9787261008
 11
49.4671693947
 21
152.4481095549
  0
LINE
  8
0
 62
7
  6
CONTINUOUS
 10
50.2671693947
 20
151.0967354207
 11
50.2671693947
 21
135.3043012425
  0
LINE
  8
0
 62
7
  6
CONTINUOUS
 10
27.8878309195
 20
106.33147893
 11
30.4982976455
 21
112.9965003581
  0
LINE
  8
0
 62
7
  6
CONTINUOUS
 10
31.4360411439
 20
112.3744943916
 11
31.5225387213
 21
112.59533927
  0
LINE
  8
0
 62
7
  6
CONTINUOUS
 10
49.3982888794
 20
152.083395276
 11
49.3118184769
 21
151.8626354063
  0
LINE
  8
0
 62
7
  6
CONTINUOUS
 10
52.9671693947
 20
162.9287261008
 11
52.9671693947
 21
158.2353845751
  0
LINE
  8
0
 62
7
  6
CONTINUOUS
 10
53.2671693947
 20
101.5287261008
 11
53.2671693947
 21
106.2220713605
  0
LINE
  8
0
 62
7
  6
CONTINUOUS
 10
55.9671693947
 20
127.4287261008
 11
55.9671693947
 21
113.3611922563
  0
LINE
  8
0
 62
7
  6
CONTINUOUS
 10
56.7671693947
 20
110.4787261008
 11
56.7671693947
 21
112.0098024934
  0
LINE
  8
0
 62
7
  6
CONTINUOUS
 10
57.0671693947
 20
113.3611922563
 11
57.0671693947
 21
127.4287261008
  0
LINE
  8
0
 62
7
  6
CONTINUOUS
 10
50.33604991
 20
151.4614496996
 11
52.9465052401
 21
158.1259702914
  0
LINE
  8
0
 62
7
  6
CONTINUOUS
 10
40.5878335493
 20
158.1259702914
 11
43.1982888794
 21
151.4614496996
  0
LINE
  8
0
 62
7
  6
CONTINUOUS
 10
44.2225203126
 20
151.8626354063
 11
44.13604991
 21
152.083395276
  0
LINE
  8
0
 62
7
  6
CONTINUOUS
 10
61.8671693947
 20
127.4287261008
 11
61.8671693947
 21
113.3611922563
  0
LINE
  8
0
 62
7
  6
CONTINUOUS
 10
62.1671693947
 20
112.0098024934
 11
62.1671693947
 21
110.4787261008
  0
LINE
  8
0
 62
7
  6
CONTINUOUS
 10
62.9671693947
 20
127.4287261008
 11
62.9671693947
 21
113.3611922563
  0
LINE
  8
0
 62
7
  6
CONTINUOUS
 10
65.6671693947
 20
106.2220713605
 11
65.6671693947
 21
101.5287261008
  0
LINE
  8
0
 62
7
  6
CONTINUOUS
 10
65.9671693947
 20
158.2353845751
 11
65.9671693947
 21
162.9287261008
  0
LINE
  8
0
 62
7
  6
CONTINUOUS
 10
68.6671693947
 20
151.0967354207
 11
68.6671693947
 21
135.3043012425
  0
LINE
  8
0
 62
7
  6
CONTINUOUS
 10
69.4671693947
 20
152.4481095549
 11
69.4671693947
 21
153.9787261008
  0
LINE
  8
0
 62
7
  6
CONTINUOUS
 10
69.7671693947
 20
135.3043019248
 11
69.7671693947
 21
151.0967354207
  0
LINE
  8
0
 62
7
  6
CONTINUOUS
 10
53.2878309195
 20
106.33147893
 11
55.8982976455
 21
112.9965003581
  0
LINE
  8
0
 62
7
  6
CONTINUOUS
 10
62.0118000681
 20
112.59533927
 11
62.0982976455
 21
112.3744943916
  0
LINE
  8
0
 62
7
  6
CONTINUOUS
 10
65.6465078699
 20
106.33147893
 11
63.0360411439
 21
112.9965003581
  0
POLYLINE
  8
0
 62
7
  6
CONTINUOUS
 66
1
 70
0
  0
VERTEX
  8
0
 62
7
  6
CONTINUOUS
 10
74.5671693947
 20
135.304302492
  0
VERTEX
  8
0
 62
7
  6
CONTINUOUS
 10
74.5690249115
 20
135.1887359964
  0
VERTEX
  8
0
 62
7
  6
CONTINUOUS
 10
74.5742550421
 20
135.0787917669
  0
VERTEX
  8
0
 62
7
  6
CONTINUOUS
 10
74.5825035458
 20
134.9730484845
  0
VERTEX
  8
0
 62
7
  6
CONTINUOUS
 10
74.593573899
 20
134.8701723017
  0
VERTEX
  8
0
 62
7
  6
CONTINUOUS
 10
74.607441801
 20
134.7688521425
  0
VERTEX
  8
0
 62
7
  6
CONTINUOUS
 10
74.6242205563
 20
134.667841596
  0
VERTEX
  8
0
 62
7
  6
CONTINUOUS
 10
74.6439275563
 20
134.5670548424
  0
VERTEX
  8
0
 62
7
  6
CONTINUOUS
 10
74.6664846402
 20
134.4669696033
  0
VERTEX
  8
0
 62
7
  6
CONTINUOUS
 10
74.6918845603
 20
134.3676444606
  0
VERTEX
  8
0
 62
7
  6
CONTINUOUS
 10
74.7201353514
 20
134.2690267567
  0
VERTEX
  8
0
 62
7
  6
CONTINUOUS
 10
74.7511931001
 20
134.1712496493
  0
VERTEX
  8
0
 62
7
  6
CONTINUOUS
 10
74.7850301937
 20
134.0744431714
  0
VERTEX
  8
0
 62
7
  6
CONTINUOUS
 10
74.8216866032
 20
133.9785570049
  0
VERTEX
  8
0
 62
7
  6
CONTINUOUS
 10
74.861156398
 20
133.8836851248
  0
VERTEX
  8
0
 62
7
  6
CONTINUOUS
 10
74.9034045088
 20
133.7900046698
  0
VERTEX
  8
0
 62
7
  6
CONTINUOUS
 10
74.9484946289
 20
133.6974372079
  0
VERTEX
  8
0
 62
7
  6
CONTINUOUS
 10
74.9965101112
 20
133.605886089
  0
VERTEX
  8
0
 62
7
  6
CONTINUOUS
 10
75.0472323663
 20
133.5158213573
  0
VERTEX
  8
0
 62
7
  6
CONTINUOUS
 10
75.1004113821
 20
133.4276424507
  0
VERTEX
  8
0
 62
7
  6
CONTINUOUS
 10
75.1578767592
 20
133.3385643131
  0
VERTEX
  8
0
 62
7
  6
CONTINUOUS
 10
75.2229020793
 20
133.2445451712
  0
VERTEX
  8
0
 62
7
  6
CONTINUOUS
 10
75.2992129276
 20
133.1422146998
  0
VERTEX
  8
0
 62
7
  6
CONTINUOUS
 10
75.3872108688
 20
133.0335782254
  0
VERTEX
  8
0
 62
7
  6
CONTINUOUS
 10
75.4808032346
 20
132.9276253724
  0
VERTEX
  8
0
 62
7
  6
CONTINUOUS
 10
75.5724116021
 20
132.8323083555
  0
VERTEX
  8
0
 62
7
  6
CONTINUOUS
 10
75.658922967
 20
132.7490291934
  0
VERTEX
  8
0
 62
7
  6
CONTINUOUS
 10
75.7423604458
 20
132.6743049684
  0
VERTEX
  8
0
 62
7
  6
CONTINUOUS
 10
75.8254340608
 20
132.6049010604
  0
VERTEX
  8
0
 62
7
  6
CONTINUOUS
 10
75.9103142845
 20
132.5387521213
  0
VERTEX
  8
0
 62
7
  6
CONTINUOUS
 10
75.9972943771
 20
132.4756265017
  0
VERTEX
  8
0
 62
7
  6
CONTINUOUS
 10
76.0863587444
 20
132.4155645947
  0
VERTEX
  8
0
 62
7
  6
CONTINUOUS
 10
76.1773394808
 20
132.3587185376
  0
VERTEX
  8
0
 62
7
  6
CONTINUOUS
 10
76.2703501525
 20
132.3050888106
  0
VERTEX
  8
0
 62
7
  6
CONTINUOUS
 10
76.3657157334
 20
132.2545776443
  0
VERTEX
  8
0
 62
7
  6
CONTINUOUS
 10
76.4633953117
 20
132.2073274344
  0
VERTEX
  8
0
 62
7
  6
CONTINUOUS
 10
76.5633005582
 20
132.1634709921
  0
VERTEX
  8
0
 62
7
  6
CONTINUOUS
 10
76.6650833556
 20
132.1232164651
  0
VERTEX
  8
0
 62
7
  6
CONTINUOUS
 10
76.7684503466
 20
132.0867258678
  0
VERTEX
  8
0
 62
7
  6
CONTINUOUS
 10
76.87331224
 20
132.0540718583
  0
VERTEX
  8
0
 62
7
  6
CONTINUOUS
 10
76.9795914252
 20
132.0253375799
  0
VERTEX
  8
0
 62
7
  6
CONTINUOUS
 10
77.0868492813
 20
132.0006943863
  0
VERTEX
  8
0
 62
7
  6
CONTINUOUS
 10
77.1952196455
 20
131.9801772649
  0
VERTEX
  8
0
 62
7
  6
CONTINUOUS
 10
77.3059775034
 20
131.9636864665
  0
VERTEX
  8
0
 62
7
  6
CONTINUOUS
 10
77.4205800843
 20
131.9513265951
  0
VERTEX
  8
0
 62
7
  6
CONTINUOUS
 10
77.5404610758
 20
131.9434387473
  0
VERTEX
  8
0
 62
7
  6
CONTINUOUS
 10
77.6671694831
 20
131.9406265591
  0
SEQEND
  0
LINE
  8
0
 62
7
  6
CONTINUOUS
 10
74.5671693947
 20
151.0967354207
 11
74.5671693947
 21
135.304302492
  0
LINE
  8
0
 62
7
  6
CONTINUOUS
 10
74.8671693947
 20
153.9787261008
 11
74.8671693947
 21
152.4481095549
  0
LINE
  8
0
 62
7
  6
CONTINUOUS
 10
75.6671693947
 20
151.0967354207
 11
75.6671693947
 21
135.3043012425
  0
LINE
  8
0
 62
7
  6
CONTINUOUS
 10
78.3671693947
 20
162.9287261008
 11
78.3671693947
 21
158.2353845751
  0
LINE
  8
0
 62
7
  6
CONTINUOUS
 10
78.6671693947
 20
101.5287261008
 11
78.6671693947
 21
106.2220713605
  0
LINE
  8
0
 62
7
  6
CONTINUOUS
 10
81.3671693947
 20
127.4287261008
 11
81.3671693947
 21
113.3611922563
  0
LINE
  8
0
 62
7
  6
CONTINUOUS
 10
82.1671693947
 20
110.4787261008
 11
82.1671693947
 21
112.0098024934
  0
LINE
  8
0
 62
7
  6
CONTINUOUS
 10
82.4671693947
 20
113.3611922563
 11
82.4671693947
 21
127.4287261008
  0
LINE
  8
0
 62
7
  6
CONTINUOUS
 10
56.8360411439
 20
112.3744943916
 11
56.9225387213
 21
112.59533927
  0
LINE
  8
0
 62
7
  6
CONTINUOUS
 10
74.7982888794
 20
152.083395276
 11
74.7118184769
 21
151.8626354063
  0
LINE
  8
0
 62
7
  6
CONTINUOUS
 10
75.73604991
 20
151.4614496996
 11
78.3465052401
 21
158.1259702914
  0
LINE
  8
0
 62
7
  6
CONTINUOUS
 10
87.2671693947
 20
127.4287261008
 11
87.2671693947
 21
113.3611922563
  0
LINE
  8
0
 62
7
  6
CONTINUOUS
 10
87.5671693947
 20
112.0098024934
 11
87.5671693947
 21
110.4787261008
  0
LINE
  8
0
 62
7
  6
CONTINUOUS
 10
88.3671693947
 20
127.4287261008
 11
88.3671693947
 21
113.3611922563
  0
LINE
  8
0
 62
7
  6
CONTINUOUS
 10
91.0671693947
 20
106.2220713605
 11
91.0671693947
 21
101.5287261008
  0
LINE
  8
0
 62
7
  6
CONTINUOUS
 10
91.3671693947
 20
158.2353845751
 11
91.3671693947
 21
162.9287261008
  0
LINE
  8
0
 62
7
  6
CONTINUOUS
 10
65.9878335493
 20
158.1259702914
 11
68.5982888794
 21
151.4614496996
  0
LINE
  8
0
 62
7
  6
CONTINUOUS
 10
69.6225203126
 20
151.8626354063
 11
69.53604991
 21
152.083395276
  0
LINE
  8
0
 62
7
  6
CONTINUOUS
 10
87.4118000681
 20
112.59533927
 11
87.4982976455
 21
112.3744943916
  0
LINE
  8
0
 62
7
  6
CONTINUOUS
 10
91.0465078699
 20
106.33147893
 11
88.4360411439
 21
112.9965003581
  0
POLYLINE
  8
0
 62
7
  6
CONTINUOUS
 66
1
 70
0
  0
VERTEX
  8
0
 62
7
  6
CONTINUOUS
 10
99.9671693947
 20
135.3043024919
  0
VERTEX
  8
0
 62
7
  6
CONTINUOUS
 10
99.9690249115
 20
135.1887359963
  0
VERTEX
  8
0
 62
7
  6
CONTINUOUS
 10
99.9742550421
 20
135.0787917667
  0
VERTEX
  8
0
 62
7
  6
CONTINUOUS
 10
99.9825035458
 20
134.9730484843
  0
VERTEX
  8
0
 62
7
  6
CONTINUOUS
 10
99.993573899
 20
134.8701723015
  0
VERTEX
  8
0
 62
7
  6
CONTINUOUS
 10
100.0074418011
 20
134.7688521424
  0
VERTEX
  8
0
 62
7
  6
CONTINUOUS
 10
100.0242205563
 20
134.6678415959
  0
VERTEX
  8
0
 62
7
  6
CONTINUOUS
 10
100.0439275563
 20
134.5670548423
  0
VERTEX
  8
0
 62
7
  6
CONTINUOUS
 10
100.0664846402
 20
134.4669696032
  0
VERTEX
  8
0
 62
7
  6
CONTINUOUS
 10
100.0918845603
 20
134.3676444605
  0
VERTEX
  8
0
 62
7
  6
CONTINUOUS
 10
100.1201353514
 20
134.2690267566
  0
VERTEX
  8
0
 62
7
  6
CONTINUOUS
 10
100.1511931001
 20
134.1712496492
  0
VERTEX
  8
0
 62
7
  6
CONTINUOUS
 10
100.1850301937
 20
134.0744431713
  0
VERTEX
  8
0
 62
7
  6
CONTINUOUS
 10
100.2216866032
 20
133.9785570048
  0
VERTEX
  8
0
 62
7
  6
CONTINUOUS
 10
100.2611563981
 20
133.8836851247
  0
VERTEX
  8
0
 62
7
  6
CONTINUOUS
 10
100.3034045088
 20
133.7900046697
  0
VERTEX
  8
0
 62
7
  6
CONTINUOUS
 10
100.3484946289
 20
133.6974372078
  0
VERTEX
  8
0
 62
7
  6
CONTINUOUS
 10
100.3965101112
 20
133.6058860889
  0
VERTEX
  8
0
 62
7
  6
CONTINUOUS
 10
100.4472323664
 20
133.5158213572
  0
VERTEX
  8
0
 62
7
  6
CONTINUOUS
 10
100.5004113822
 20
133.4276424506
  0
VERTEX
  8
0
 62
7
  6
CONTINUOUS
 10
100.5578767592
 20
133.338564313
  0
VERTEX
  8
0
 62
7
  6
CONTINUOUS
 10
100.6229020794
 20
133.2445451711
  0
VERTEX
  8
0
 62
7
  6
CONTINUOUS
 10
100.6992129276
 20
133.1422146997
  0
VERTEX
  8
0
 62
7
  6
CONTINUOUS
 10
100.7872108688
 20
133.0335782254
  0
VERTEX
  8
0
 62
7
  6
CONTINUOUS
 10
100.8808032346
 20
132.9276253724
  0
VERTEX
  8
0
 62
7
  6
CONTINUOUS
 10
100.9724116021
 20
132.8323083555
  0
VERTEX
  8
0
 62
7
  6
CONTINUOUS
 10
101.058922967
 20
132.7490291934
  0
VERTEX
  8
0
 62
7
  6
CONTINUOUS
 10
101.1423604459
 20
132.6743049683
  0
VERTEX
  8
0
 62
7
  6
CONTINUOUS
 10
101.2254340609
 20
132.6049010604
  0
VERTEX
  8
0
 62
7
  6
CONTINUOUS
 10
101.3103142845
 20
132.5387521212
  0
VERTEX
  8
0
 62
7
  6
CONTINUOUS
 10
101.3972943772
 20
132.4756265017
  0
VERTEX
  8
0
 62
7
  6
CONTINUOUS
 10
101.4863587444
 20
132.4155645947
  0
VERTEX
  8
0
 62
7
  6
CONTINUOUS
 10
101.5773394808
 20
132.3587185376
  0
VERTEX
  8
0
 62
7
  6
CONTINUOUS
 10
101.6703501526
 20
132.3050888106
  0
VERTEX
  8
0
 62
7
  6
CONTINUOUS
 10
101.7657157335
 20
132.2545776443
  0
VERTEX
  8
0
 62
7
  6
CONTINUOUS
 10
101.8633953118
 20
132.2073274344
  0
VERTEX
  8
0
 62
7
  6
CONTINUOUS
 10
101.9633005582
 20
132.1634709921
  0
VERTEX
  8
0
 62
7
  6
CONTINUOUS
 10
102.0650833556
 20
132.1232164651
  0
VERTEX
  8
0
 62
7
  6
CONTINUOUS
 10
102.1684503466
 20
132.0867258678
  0
VERTEX
  8
0
 62
7
  6
CONTINUOUS
 10
102.27331224
 20
132.0540718583
  0
VERTEX
  8
0
 62
7
  6
CONTINUOUS
 10
102.3795914252
 20
132.0253375799
  0
VERTEX
  8
0
 62
7
  6
CONTINUOUS
 10
102.4868492814
 20
132.0006943863
  0
VERTEX
  8
0
 62
7
  6
CONTINUOUS
 10
102.5952196455
 20
131.9801772649
  0
VERTEX
  8
0
 62
7
  6
CONTINUOUS
 10
102.7059775034
 20
131.9636864665
  0
VERTEX
  8
0
 62
7
  6
CONTINUOUS
 10
102.8205800843
 20
131.9513265951
  0
VERTEX
  8
0
 62
7
  6
CONTINUOUS
 10
102.9404610758
 20
131.9434387473
  0
VERTEX
  8
0
 62
7
  6
CONTINUOUS
 10
103.0671694831
 20
131.9406265591
  0
SEQEND
  0
LINE
  8
0
 62
7
  6
CONTINUOUS
 10
94.0671693947
 20
151.0967354207
 11
94.0671693947
 21
135.3043012425
  0
LINE
  8
0
 62
7
  6
CONTINUOUS
 10
94.8671693947
 20
152.4481095549
 11
94.8671693947
 21
153.9787261008
  0
LINE
  8
0
 62
7
  6
CONTINUOUS
 10
95.1671693947
 20
135.3043019248
 11
95.1671693947
 21
151.0967354207
  0
LINE
  8
0
 62
7
  6
CONTINUOUS
 10
99.9671693947
 20
151.0967354207
 11
99.9671693947
 21
135.3043024919
  0
LINE
  8
0
 62
7
  6
CONTINUOUS
 10
100.2671693947
 20
153.9787261008
 11
100.2671693947
 21
152.4481095549
  0
LINE
  8
0
 62
7
  6
CONTINUOUS
 10
101.0671693947
 20
151.0967354207
 11
101.0671693947
 21
135.3043012425
  0
LINE
  8
0
 62
7
  6
CONTINUOUS
 10
103.7671693947
 20
162.9287261008
 11
103.7671693947
 21
158.2353845751
  0
LINE
  8
0
 62
7
  6
CONTINUOUS
 10
104.0671693947
 20
101.5287261008
 11
104.0671693947
 21
106.2220713605
  0
LINE
  8
0
 62
7
  6
CONTINUOUS
 10
78.6878309195
 20
106.33147893
 11
81.2982976455
 21
112.9965003581
  0
LINE
  8
0
 62
7
  6
CONTINUOUS
 10
82.2360411439
 20
112.3744943916
 11
82.3225387213
 21
112.59533927
  0
LINE
  8
0
 62
7
  6
CONTINUOUS
 10
100.1982888794
 20
152.083395276
 11
100.1118184769
 21
151.8626354063
  0
LINE
  8
0
 62
7
  6
CONTINUOUS
 10
101.13604991
 20
151.4614496996
 11
103.7465052401
 21
158.1259702914
  0
LINE
  8
0
 62
7
  6
CONTINUOUS
 10
106.7671693947
 20
127.4287261008
 11
106.7671693947
 21
113.3611922563
  0
LINE
  8
0
 62
7
  6
CONTINUOUS
 10
107.5671693947
 20
110.4787261008
 11
107.5671693947
 21
112.0098024934
  0
LINE
  8
0
 62
7
  6
CONTINUOUS
 10
107.8671693947
 20
113.3611922563
 11
107.8671693947
 21
127.4287261008
  0
LINE
  8
0
 62
7
  6
CONTINUOUS
 10
112.6671693947
 20
127.4287261008
 11
112.6671693947
 21
113.3611922563
  0
LINE
  8
0
 62
7
  6
CONTINUOUS
 10
112.9671693947
 20
112.0098024934
 11
112.9671693947
 21
110.4787261008
  0
LINE
  8
0
 62
7
  6
CONTINUOUS
 10
113.7671693947
 20
127.4287261008
 11
113.7671693947
 21
113.3611922563
  0
LINE
  8
0
 62
7
  6
CONTINUOUS
 10
91.3878335493
 20
158.1259702914
 11
93.9982888794
 21
151.4614496996
  0
LINE
  8
0
 62
7
  6
CONTINUOUS
 10
95.0225203126
 20
151.8626354063
 11
94.93604991
 21
152.083395276
  0
LINE
  8
0
 62
7
  6
CONTINUOUS
 10
112.8118000681
 20
112.59533927
 11
112.8982976455
 21
112.3744943916
  0
LINE
  8
0
 62
7
  6
CONTINUOUS
 10
116.4465078699
 20
106.33147893
 11
113.8360411439
 21
112.9965003581
  0
LINE
  8
0
 62
7
  6
CONTINUOUS
 10
116.4671693947
 20
106.2220713605
 11
116.4671693947
 21
101.5287261008
  0
LINE
  8
0
 62
7
  6
CONTINUOUS
 10
116.7671693947
 20
158.2353845751
 11
116.7671693947
 21
162.9287261008
  0
LINE
  8
0
 62
7
  6
CONTINUOUS
 10
119.4671693947
 20
151.0967354207
 11
119.4671693947
 21
135.3043012425
  0
LINE
  8
0
 62
7
  6
CONTINUOUS
 10
120.2671693947
 20
152.4481095549
 11
120.2671693947
 21
153.9787261008
  0
LINE
  8
0
 62
7
  6
CONTINUOUS
 10
120.5671693947
 20
135.3043019249
 11
120.5671693947
 21
151.0967354207
  0
LINE
  8
0
 62
7
  6
CONTINUOUS
 10
104.0878309195
 20
106.33147893
 11
106.6982976455
 21
112.9965003581
  0
LINE
  8
0
 62
7
  6
CONTINUOUS
 10
107.6360411439
 20
112.3744943916
 11
107.7225387213
 21
112.59533927
  0
LINE
  8
0
 62
7
  6
CONTINUOUS
 10
125.5982888794
 20
152.083395276
 11
125.5118184769
 21
151.8626354063
  0
LINE
  8
0
 62
7
  6
CONTINUOUS
 10
126.53604991
 20
151.4614496996
 11
129.1465052401
 21
158.1259702914
  0
POLYLINE
  8
0
 62
7
  6
CONTINUOUS
 66
1
 70
0
  0
VERTEX
  8
0
 62
7
  6
CONTINUOUS
 10
125.3671693947
 20
135.304302492
  0
VERTEX
  8
0
 62
7
  6
CONTINUOUS
 10
125.3690249115
 20
135.1887359963
  0
VERTEX
  8
0
 62
7
  6
CONTINUOUS
 10
125.3742550421
 20
135.0787917668
  0
VERTEX
  8
0
 62
7
  6
CONTINUOUS
 10
125.3825035458
 20
134.9730484844
  0
VERTEX
  8
0
 62
7
  6
CONTINUOUS
 10
125.393573899
 20
134.8701723016
  0
VERTEX
  8
0
 62
7
  6
CONTINUOUS
 10
125.4074418011
 20
134.7688521425
  0
VERTEX
  8
0
 62
7
  6
CONTINUOUS
 10
125.4242205563
 20
134.6678415959
  0
VERTEX
  8
0
 62
7
  6
CONTINUOUS
 10
125.4439275563
 20
134.5670548424
  0
VERTEX
  8
0
 62
7
  6
CONTINUOUS
 10
125.4664846402
 20
134.4669696033
  0
VERTEX
  8
0
 62
7
  6
CONTINUOUS
 10
125.4918845603
 20
134.3676444606
  0
VERTEX
  8
0
 62
7
  6
CONTINUOUS
 10
125.5201353514
 20
134.2690267567
  0
VERTEX
  8
0
 62
7
  6
CONTINUOUS
 10
125.5511931001
 20
134.1712496493
  0
VERTEX
  8
0
 62
7
  6
CONTINUOUS
 10
125.5850301937
 20
134.0744431714
  0
VERTEX
  8
0
 62
7
  6
CONTINUOUS
 10
125.6216866032
 20
133.9785570048
  0
VERTEX
  8
0
 62
7
  6
CONTINUOUS
 10
125.6611563981
 20
133.8836851247
  0
VERTEX
  8
0
 62
7
  6
CONTINUOUS
 10
125.7034045088
 20
133.7900046698
  0
VERTEX
  8
0
 62
7
  6
CONTINUOUS
 10
125.7484946289
 20
133.6974372078
  0
VERTEX
  8
0
 62
7
  6
CONTINUOUS
 10
125.7965101112
 20
133.605886089
  0
VERTEX
  8
0
 62
7
  6
CONTINUOUS
 10
125.8472323664
 20
133.5158213573
  0
VERTEX
  8
0
 62
7
  6
CONTINUOUS
 10
125.9004113821
 20
133.4276424507
  0
VERTEX
  8
0
 62
7
  6
CONTINUOUS
 10
125.9578767592
 20
133.3385643131
  0
VERTEX
  8
0
 62
7
  6
CONTINUOUS
 10
126.0229020794
 20
133.2445451712
  0
VERTEX
  8
0
 62
7
  6
CONTINUOUS
 10
126.0992129276
 20
133.1422146997
  0
VERTEX
  8
0
 62
7
  6
CONTINUOUS
 10
126.1872108688
 20
133.0335782254
  0
VERTEX
  8
0
 62
7
  6
CONTINUOUS
 10
126.2808032346
 20
132.9276253724
  0
VERTEX
  8
0
 62
7
  6
CONTINUOUS
 10
126.3724116021
 20
132.8323083555
  0
VERTEX
  8
0
 62
7
  6
CONTINUOUS
 10
126.458922967
 20
132.7490291934
  0
VERTEX
  8
0
 62
7
  6
CONTINUOUS
 10
126.5423604459
 20
132.6743049684
  0
VERTEX
  8
0
 62
7
  6
CONTINUOUS
 10
126.6254340609
 20
132.6049010604
  0
VERTEX
  8
0
 62
7
  6
CONTINUOUS
 10
126.7103142845
 20
132.5387521212
  0
VERTEX
  8
0
 62
7
  6
CONTINUOUS
 10
126.7972943772
 20
132.4756265017
  0
VERTEX
  8
0
 62
7
  6
CONTINUOUS
 10
126.8863587444
 20
132.4155645947
  0
VERTEX
  8
0
 62
7
  6
CONTINUOUS
 10
126.9773394808
 20
132.3587185376
  0
VERTEX
  8
0
 62
7
  6
CONTINUOUS
 10
127.0703501525
 20
132.3050888106
  0
VERTEX
  8
0
 62
7
  6
CONTINUOUS
 10
127.1657157334
 20
132.2545776443
  0
VERTEX
  8
0
 62
7
  6
CONTINUOUS
 10
127.2633953117
 20
132.2073274344
  0
VERTEX
  8
0
 62
7
  6
CONTINUOUS
 10
127.3633005582
 20
132.1634709921
  0
VERTEX
  8
0
 62
7
  6
CONTINUOUS
 10
127.4650833556
 20
132.1232164651
  0
VERTEX
  8
0
 62
7
  6
CONTINUOUS
 10
127.5684503466
 20
132.0867258678
  0
VERTEX
  8
0
 62
7
  6
CONTINUOUS
 10
127.67331224
 20
132.0540718583
  0
VERTEX
  8
0
 62
7
  6
CONTINUOUS
 10
127.7795914252
 20
132.0253375799
  0
VERTEX
  8
0
 62
7
  6
CONTINUOUS
 10
127.8868492813
 20
132.0006943863
  0
VERTEX
  8
0
 62
7
  6
CONTINUOUS
 10
127.9952196455
 20
131.9801772649
  0
VERTEX
  8
0
 62
7
  6
CONTINUOUS
 10
128.1059775034
 20
131.9636864665
  0
VERTEX
  8
0
 62
7
  6
CONTINUOUS
 10
128.2205800843
 20
131.9513265951
  0
VERTEX
  8
0
 62
7
  6
CONTINUOUS
 10
128.3404610758
 20
131.9434387473
  0
VERTEX
  8
0
 62
7
  6
CONTINUOUS
 10
128.4671694831
 20
131.9406265591
  0
SEQEND
  0
LINE
  8
0
 62
7
  6
CONTINUOUS
 10
125.3671693947
 20
151.0967354207
 11
125.3671693947
 21
135.304302492
  0
LINE
  8
0
 62
7
  6
CONTINUOUS
 10
125.6671693947
 20
153.9787261008
 11
125.6671693947
 21
152.4481095549
  0
LINE
  8
0
 62
7
  6
CONTINUOUS
 10
126.4671693947
 20
151.0967354207
 11
126.4671693947
 21
135.3043012425
  0
LINE
  8
0
 62
7
  6
CONTINUOUS
 10
129.1671693947
 20
162.9287261008
 11
129.1671693947
 21
158.2353845751
  0
LINE
  8
0
 62
7
  6
CONTINUOUS
 10
129.4671693947
 20
101.5287261008
 11
129.4671693947
 21
106.2220713605
  0
LINE
  8
0
 62
7
  6
CONTINUOUS
 10
132.1671693947
 20
127.4287261008
 11
132.1671693947
 21
113.3611922563
  0
LINE
  8
0
 62
7
  6
CONTINUOUS
 10
132.9671693947
 20
110.4787261008
 11
132.9671693947
 21
112.0098024934
  0
LINE
  8
0
 62
7
  6
CONTINUOUS
 10
133.2671693947
 20
113.3611922563
 11
133.2671693947
 21
127.4287261008
  0
LINE
  8
0
 62
7
  6
CONTINUOUS
 10
116.7878335493
 20
158.1259702914
 11
119.3982888794
 21
151.4614496996
  0
LINE
  8
0
 62
7
  6
CONTINUOUS
 10
120.4225203126
 20
151.8626354063
 11
120.33604991
 21
152.083395276
  0
LINE
  8
0
 62
7
  6
CONTINUOUS
 10
138.2118000681
 20
112.59533927
 11
138.2982976455
 21
112.3744943916
  0
LINE
  8
0
 62
7
  6
CONTINUOUS
 10
141.8465078699
 20
106.33147893
 11
139.2360411439
 21
112.9965003581
  0
LINE
  8
0
 62
7
  6
CONTINUOUS
 10
138.0671693947
 20
127.4287261008
 11
138.0671693947
 21
113.3611922563
  0
LINE
  8
0
 62
7
  6
CONTINUOUS
 10
138.3671693947
 20
112.0098024934
 11
138.3671693947
 21
110.4787261008
  0
LINE
  8
0
 62
7
  6
CONTINUOUS
 10
139.1671693947
 20
127.4287261008
 11
139.1671693947
 21
113.3611922563
  0
LINE
  8
0
 62
7
  6
CONTINUOUS
 10
141.8671693947
 20
106.2220713605
 11
141.8671693947
 21
101.5287261008
  0
LINE
  8
0
 62
7
  6
CONTINUOUS
 10
142.1671693947
 20
158.2353845751
 11
142.1671693947
 21
162.9287261008
  0
LINE
  8
0
 62
7
  6
CONTINUOUS
 10
144.8671693947
 20
151.0967354207
 11
144.8671693947
 21
135.3043012425
  0
LINE
  8
0
 62
7
  6
CONTINUOUS
 10
145.6671693947
 20
152.4481095549
 11
145.6671693947
 21
153.9787261008
  0
LINE
  8
0
 62
7
  6
CONTINUOUS
 10
145.9671693947
 20
135.3043019248
 11
145.9671693947
 21
151.0967354207
  0
LINE
  8
0
 62
7
  6
CONTINUOUS
 10
129.4878309195
 20
106.33147893
 11
132.0982976455
 21
112.9965003581
  0
LINE
  8
0
 62
7
  6
CONTINUOUS
 10
133.0360411439
 20
112.3744943916
 11
133.1225387213
 21
112.59533927
  0
LINE
  8
0
 62
7
  6
CONTINUOUS
 10
150.9982888794
 20
152.083395276
 11
150.9118184769
 21
151.8626354063
  0
LINE
  8
0
 62
7
  6
CONTINUOUS
 10
316.9671693947
 20
98.8287261008
 11
309.9671693947
 21
98.8287261008
  0
LINE
  8
0
 62
7
  6
CONTINUOUS
 10
291.5671693947
 20
98.8287261008
 11
284.5671693947
 21
98.8287261008
  0
LINE
  8
0
 62
7
  6
CONTINUOUS
 10
266.1671693947
 20
98.8287261008
 11
259.1671693947
 21
98.8287261008
  0
LINE
  8
0
 62
7
  6
CONTINUOUS
 10
240.7671693947
 20
98.8287261008
 11
233.7671693947
 21
98.8287261008
  0
LINE
  8
0
 62
7
  6
CONTINUOUS
 10
215.3671693947
 20
98.8287261008
 11
208.3671693947
 21
98.8287261008
  0
LINE
  8
0
 62
7
  6
CONTINUOUS
 10
189.9671693947
 20
98.8287261008
 11
182.9671693947
 21
98.8287261008
  0
LINE
  8
0
 62
7
  6
CONTINUOUS
 10
164.5671693947
 20
98.8287261008
 11
157.5671693947
 21
98.8287261008
  0
LINE
  8
0
 62
7
  6
CONTINUOUS
 10
139.1671693947
 20
98.8287261008
 11
132.1671693947
 21
98.8287261008
  0
LINE
  8
0
 62
7
  6
CONTINUOUS
 10
113.7671693947
 20
98.8287261008
 11
106.7671693947
 21
98.8287261008
  0
LINE
  8
0
 62
7
  6
CONTINUOUS
 10
88.3671693947
 20
98.8287261008
 11
81.3671693947
 21
98.8287261008
  0
LINE
  8
0
 62
7
  6
CONTINUOUS
 10
62.9671693947
 20
98.8287261008
 11
55.9671693947
 21
98.8287261008
  0
LINE
  8
0
 62
7
  6
CONTINUOUS
 10
30.5671693947
 20
98.8287261008
 11
37.5671693947
 21
98.8287261008
  0
POLYLINE
  8
0
 62
7
  6
CONTINUOUS
 66
1
 70
0
  0
VERTEX
  8
0
 62
7
  6
CONTINUOUS
 10
150.7671693947
 20
135.3043024921
  0
VERTEX
  8
0
 62
7
  6
CONTINUOUS
 10
150.7690249115
 20
135.1887359965
  0
VERTEX
  8
0
 62
7
  6
CONTINUOUS
 10
150.7742550421
 20
135.0787917669
  0
VERTEX
  8
0
 62
7
  6
CONTINUOUS
 10
150.7825035458
 20
134.9730484845
  0
VERTEX
  8
0
 62
7
  6
CONTINUOUS
 10
150.793573899
 20
134.8701723017
  0
VERTEX
  8
0
 62
7
  6
CONTINUOUS
 10
150.807441801
 20
134.7688521426
  0
VERTEX
  8
0
 62
7
  6
CONTINUOUS
 10
150.8242205563
 20
134.667841596
  0
VERTEX
  8
0
 62
7
  6
CONTINUOUS
 10
150.8439275563
 20
134.5670548424
  0
VERTEX
  8
0
 62
7
  6
CONTINUOUS
 10
150.8664846402
 20
134.4669696034
  0
VERTEX
  8
0
 62
7
  6
CONTINUOUS
 10
150.8918845603
 20
134.3676444607
  0
VERTEX
  8
0
 62
7
  6
CONTINUOUS
 10
150.9201353514
 20
134.2690267568
  0
VERTEX
  8
0
 62
7
  6
CONTINUOUS
 10
150.9511931001
 20
134.1712496494
  0
VERTEX
  8
0
 62
7
  6
CONTINUOUS
 10
150.9850301937
 20
134.0744431715
  0
VERTEX
  8
0
 62
7
  6
CONTINUOUS
 10
151.0216866031
 20
133.9785570049
  0
VERTEX
  8
0
 62
7
  6
CONTINUOUS
 10
151.061156398
 20
133.8836851248
  0
VERTEX
  8
0
 62
7
  6
CONTINUOUS
 10
151.1034045087
 20
133.7900046699
  0
VERTEX
  8
0
 62
7
  6
CONTINUOUS
 10
151.1484946288
 20
133.6974372079
  0
VERTEX
  8
0
 62
7
  6
CONTINUOUS
 10
151.1965101111
 20
133.605886089
  0
VERTEX
  8
0
 62
7
  6
CONTINUOUS
 10
151.2472323663
 20
133.5158213573
  0
VERTEX
  8
0
 62
7
  6
CONTINUOUS
 10
151.3004113821
 20
133.4276424507
  0
VERTEX
  8
0
 62
7
  6
CONTINUOUS
 10
151.3578767592
 20
133.3385643131
  0
VERTEX
  8
0
 62
7
  6
CONTINUOUS
 10
151.4229020793
 20
133.2445451712
  0
VERTEX
  8
0
 62
7
  6
CONTINUOUS
 10
151.4992129276
 20
133.1422146998
  0
VERTEX
  8
0
 62
7
  6
CONTINUOUS
 10
151.5872108688
 20
133.0335782254
  0
VERTEX
  8
0
 62
7
  6
CONTINUOUS
 10
151.6808032346
 20
132.9276253725
  0
VERTEX
  8
0
 62
7
  6
CONTINUOUS
 10
151.7724116021
 20
132.8323083555
  0
VERTEX
  8
0
 62
7
  6
CONTINUOUS
 10
151.858922967
 20
132.7490291934
  0
VERTEX
  8
0
 62
7
  6
CONTINUOUS
 10
151.9423604458
 20
132.6743049684
  0
VERTEX
  8
0
 62
7
  6
CONTINUOUS
 10
152.0254340608
 20
132.6049010604
  0
VERTEX
  8
0
 62
7
  6
CONTINUOUS
 10
152.1103142845
 20
132.5387521213
  0
VERTEX
  8
0
 62
7
  6
CONTINUOUS
 10
152.1972943771
 20
132.4756265017
  0
VERTEX
  8
0
 62
7
  6
CONTINUOUS
 10
152.2863587444
 20
132.4155645947
  0
VERTEX
  8
0
 62
7
  6
CONTINUOUS
 10
152.3773394808
 20
132.3587185377
  0
VERTEX
  8
0
 62
7
  6
CONTINUOUS
 10
152.4703501525
 20
132.3050888106
  0
VERTEX
  8
0
 62
7
  6
CONTINUOUS
 10
152.5657157334
 20
132.2545776444
  0
VERTEX
  8
0
 62
7
  6
CONTINUOUS
 10
152.6633953117
 20
132.2073274344
  0
VERTEX
  8
0
 62
7
  6
CONTINUOUS
 10
152.7633005582
 20
132.1634709921
  0
VERTEX
  8
0
 62
7
  6
CONTINUOUS
 10
152.8650833556
 20
132.1232164651
  0
VERTEX
  8
0
 62
7
  6
CONTINUOUS
 10
152.9684503465
 20
132.0867258678
  0
VERTEX
  8
0
 62
7
  6
CONTINUOUS
 10
153.07331224
 20
132.0540718583
  0
VERTEX
  8
0
 62
7
  6
CONTINUOUS
 10
153.1795914251
 20
132.0253375799
  0
VERTEX
  8
0
 62
7
  6
CONTINUOUS
 10
153.2868492813
 20
132.0006943863
  0
VERTEX
  8
0
 62
7
  6
CONTINUOUS
 10
153.3952196455
 20
131.9801772649
  0
VERTEX
  8
0
 62
7
  6
CONTINUOUS
 10
153.5059775034
 20
131.9636864665
  0
VERTEX
  8
0
 62
7
  6
CONTINUOUS
 10
153.6205800843
 20
131.9513265951
  0
VERTEX
  8
0
 62
7
  6
CONTINUOUS
 10
153.7404610758
 20
131.9434387473
  0
VERTEX
  8
0
 62
7
  6
CONTINUOUS
 10
153.8671694831
 20
131.9406265591
  0
SEQEND
  0
LINE
  8
0
 62
7
  6
CONTINUOUS
 10
150.7671693947
 20
151.0967354207
 11
150.7671693947
 21
135.3043024921
  0
LINE
  8
0
 62
7
  6
CONTINUOUS
 10
151.0671693947
 20
153.9787261008
 11
151.0671693947
 21
152.4481095549
  0
LINE
  8
0
 62
7
  6
CONTINUOUS
 10
151.8671693947
 20
151.0967354207
 11
151.8671693947
 21
135.3043012425
  0
LINE
  8
0
 62
7
  6
CONTINUOUS
 10
154.5671693947
 20
162.9287261008
 11
154.5671693947
 21
158.2353845751
  0
LINE
  8
0
 62
7
  6
CONTINUOUS
 10
154.8671693947
 20
101.5287261008
 11
154.8671693947
 21
106.2220713605
  0
LINE
  8
0
 62
7
  6
CONTINUOUS
 10
151.93604991
 20
151.4614496996
 11
154.5465052401
 21
158.1259702914
  0
LINE
  8
DEFAULT_1
 62
2
  6
CENTER
 10
18.5742153076
 20
106.8659811008
 11
334.9951990096
 21
106.8659811008
  0
LINE
  8
0
 62
7
  6
CONTINUOUS
 10
315.1671693947
 20
109.4787261008
 11
311.7671693947
 21
109.4787261008
  0
LINE
  8
0
 62
7
  6
CONTINUOUS
 10
289.7671693947
 20
109.4787261008
 11
286.3671693947
 21
109.4787261008
  0
LINE
  8
0
 62
7
  6
CONTINUOUS
 10
264.3671693947
 20
109.4787261008
 11
260.9671693947
 21
109.4787261008
  0
LINE
  8
0
 62
7
  6
CONTINUOUS
 10
238.9671693947
 20
109.4787261008
 11
235.5671693947
 21
109.4787261008
  0
LINE
  8
0
 62
7
  6
CONTINUOUS
 10
213.5671693947
 20
109.4787261008
 11
210.1671693947
 21
109.4787261008
  0
LINE
  8
0
 62
7
  6
CONTINUOUS
 10
188.1671693947
 20
109.4787261008
 11
184.7671693947
 21
109.4787261008
  0
LINE
  8
0
 62
7
  6
CONTINUOUS
 10
162.7671693947
 20
109.4787261008
 11
159.3671693947
 21
109.4787261008
  0
LINE
  8
0
 62
7
  6
CONTINUOUS
 10
137.3671693947
 20
109.4787261008
 11
133.9671693947
 21
109.4787261008
  0
LINE
  8
0
 62
7
  6
CONTINUOUS
 10
111.9671693947
 20
109.4787261008
 11
108.5671693947
 21
109.4787261008
  0
LINE
  8
0
 62
7
  6
CONTINUOUS
 10
86.5671693947
 20
109.4787261008
 11
83.1671693947
 21
109.4787261008
  0
LINE
  8
0
 62
7
  6
CONTINUOUS
 10
61.1671693947
 20
109.4787261008
 11
57.7671693947
 21
109.4787261008
  0
LINE
  8
0
 62
7
  6
CONTINUOUS
 10
35.7671693947
 20
109.4787261008
 11
32.3671693947
 21
109.4787261008
  0
LINE
  8
0
 62
7
  6
CONTINUOUS
 10
142.1878335493
 20
158.1259702914
 11
144.7982888794
 21
151.4614496996
  0
LINE
  8
0
 62
7
  6
CONTINUOUS
 10
145.8225203126
 20
151.8626354063
 11
145.73604991
 21
152.083395276
  0
LINE
  8
0
 62
7
  6
CONTINUOUS
 10
157.5671693947
 20
127.4287261008
 11
157.5671693947
 21
113.3611922563
  0
LINE
  8
0
 62
7
  6
CONTINUOUS
 10
158.3671693947
 20
110.4787261008
 11
158.3671693947
 21
112.0098024934
  0
LINE
  8
0
 62
7
  6
CONTINUOUS
 10
158.6671693947
 20
113.3611922563
 11
158.6671693947
 21
127.4287261008
  0
LINE
  8
0
 62
7
  6
CONTINUOUS
 10
163.4671693947
 20
127.4287261008
 11
163.4671693947
 21
113.3611922563
  0
LINE
  8
0
 62
7
  6
CONTINUOUS
 10
163.7671693947
 20
112.0098024934
 11
163.7671693947
 21
110.4787261008
  0
LINE
  8
0
 62
7
  6
CONTINUOUS
 10
164.5671693947
 20
127.4287261008
 11
164.5671693947
 21
113.3611922563
  0
LINE
  8
0
 62
7
  6
CONTINUOUS
 10
167.2671693947
 20
106.2220713605
 11
167.2671693947
 21
101.5287261008
  0
LINE
  8
0
 62
7
  6
CONTINUOUS
 10
167.5671693947
 20
158.2353845751
 11
167.5671693947
 21
162.9287261008
  0
LINE
  8
0
 62
7
  6
CONTINUOUS
 10
154.8878309195
 20
106.33147893
 11
157.4982976455
 21
112.9965003581
  0
LINE
  8
0
 62
7
  6
CONTINUOUS
 10
158.4360411439
 20
112.3744943916
 11
158.5225387213
 21
112.59533927
  0
LINE
  8
0
 62
7
  6
CONTINUOUS
 10
163.6118000681
 20
112.59533927
 11
163.6982976455
 21
112.3744943916
  0
LINE
  8
0
 62
7
  6
CONTINUOUS
 10
167.2465078699
 20
106.33147893
 11
164.6360411439
 21
112.9965003581
  0
LINE
  8
0
 62
7
  6
CONTINUOUS
 10
170.2671693947
 20
151.0967354207
 11
170.2671693947
 21
135.3043012425
  0
LINE
  8
0
 62
7
  6
CONTINUOUS
 10
171.0671693947
 20
152.4481095549
 11
171.0671693947
 21
153.9787261008
  0
LINE
  8
0
 62
7
  6
CONTINUOUS
 10
171.3671693947
 20
135.3043019247
 11
171.3671693947
 21
151.0967354207
  0
LINE
  8
0
 62
7
  6
CONTINUOUS
 10
176.1671693947
 20
151.0967354207
 11
176.1671693947
 21
133.0287261008
  0
LINE
  8
0
 62
7
  6
CONTINUOUS
 10
176.4671693947
 20
153.9787261008
 11
176.4671693947
 21
152.4481095549
  0
LINE
  8
0
 62
7
  6
CONTINUOUS
 10
177.2671693947
 20
151.0967354207
 11
177.2671693947
 21
135.3043012425
  0
LINE
  8
0
 62
7
  6
CONTINUOUS
 10
176.3982888794
 20
152.083395276
 11
176.3118184769
 21
151.8626354063
  0
LINE
  8
0
 62
7
  6
CONTINUOUS
 10
177.33604991
 20
151.4614496996
 11
179.9465052401
 21
158.1259702914
  0
POLYLINE
  8
0
 62
7
  6
CONTINUOUS
 66
1
 70
0
  0
VERTEX
  8
0
 62
7
  6
CONTINUOUS
 10
320.6671693785
 20
131.9406265591
  0
VERTEX
  8
0
 62
7
  6
CONTINUOUS
 10
320.7925602604
 20
131.9434318422
  0
VERTEX
  8
0
 62
7
  6
CONTINUOUS
 10
320.911766909
 20
131.9512840721
  0
VERTEX
  8
0
 62
7
  6
CONTINUOUS
 10
321.0260990348
 20
131.9635676454
  0
VERTEX
  8
0
 62
7
  6
CONTINUOUS
 10
321.136876529
 20
131.9799491596
  0
VERTEX
  8
0
 62
7
  6
CONTINUOUS
 10
321.2454384611
 20
132.0003449239
  0
VERTEX
  8
0
 62
7
  6
CONTINUOUS
 10
321.3529345077
 20
132.0248584087
  0
VERTEX
  8
0
 62
7
  6
CONTINUOUS
 10
321.4594019197
 20
132.0534918259
  0
VERTEX
  8
0
 62
7
  6
CONTINUOUS
 10
321.5645236606
 20
132.0861317346
  0
VERTEX
  8
0
 62
7
  6
CONTINUOUS
 10
321.6679845445
 20
132.1226098025
  0
VERTEX
  8
0
 62
7
  6
CONTINUOUS
 10
321.7696282363
 20
132.1627965985
  0
VERTEX
  8
0
 62
7
  6
CONTINUOUS
 10
321.869328978
 20
132.20655377
  0
VERTEX
  8
0
 62
7
  6
CONTINUOUS
 10
321.9669811853
 20
132.2537535718
  0
VERTEX
  8
0
 62
7
  6
CONTINUOUS
 10
322.0628446971
 20
132.3044654176
  0
VERTEX
  8
0
 62
7
  6
CONTINUOUS
 10
322.15704507
 20
132.3587082688
  0
VERTEX
  8
0
 62
7
  6
CONTINUOUS
 10
322.2493749677
 20
132.4163433828
  0
VERTEX
  8
0
 62
7
  6
CONTINUOUS
 10
322.3394416854
 20
132.4770964012
  0
VERTEX
  8
0
 62
7
  6
CONTINUOUS
 10
322.4266821698
 20
132.5404814872
  0
VERTEX
  8
0
 62
7
  6
CONTINUOUS
 10
322.5109867499
 20
132.6062679391
  0
VERTEX
  8
0
 62
7
  6
CONTINUOUS
 10
322.5925342565
 20
132.6744659467
  0
VERTEX
  8
0
 62
7
  6
CONTINUOUS
 10
322.671385418
 20
132.7450185775
  0
VERTEX
  8
0
 62
7
  6
CONTINUOUS
 10
322.7475233828
 20
132.8178046396
  0
VERTEX
  8
0
 62
7
  6
CONTINUOUS
 10
322.821017188
 20
132.8927949211
  0
VERTEX
  8
0
 62
7
  6
CONTINUOUS
 10
322.8918599132
 20
132.9698714677
  0
VERTEX
  8
0
 62
7
  6
CONTINUOUS
 10
322.9597815284
 20
133.04861053
  0
VERTEX
  8
0
 62
7
  6
CONTINUOUS
 10
323.0253040208
 20
133.1295194245
  0
VERTEX
  8
0
 62
7
  6
CONTINUOUS
 10
323.0900102865
 20
133.2147202528
  0
VERTEX
  8
0
 62
7
  6
CONTINUOUS
 10
323.1541657075
 20
133.3051012553
  0
VERTEX
  8
0
 62
7
  6
CONTINUOUS
 10
323.2166789134
 20
133.3996608396
  0
VERTEX
  8
0
 62
7
  6
CONTINUOUS
 10
323.2764657936
 20
133.4970397033
  0
VERTEX
  8
0
 62
7
  6
CONTINUOUS
 10
323.3326692841
 20
133.5958463107
  0
VERTEX
  8
0
 62
7
  6
CONTINUOUS
 10
323.3847312174
 20
133.6948097187
  0
VERTEX
  8
0
 62
7
  6
CONTINUOUS
 10
323.4322872187
 20
133.7926589331
  0
VERTEX
  8
0
 62
7
  6
CONTINUOUS
 10
323.4751137471
 20
133.8880830807
  0
VERTEX
  8
0
 62
7
  6
CONTINUOUS
 10
323.513999914
 20
133.9819744506
  0
VERTEX
  8
0
 62
7
  6
CONTINUOUS
 10
323.5502500518
 20
134.0770456455
  0
VERTEX
  8
0
 62
7
  6
CONTINUOUS
 10
323.5840150645
 20
134.1737341508
  0
VERTEX
  8
0
 62
7
  6
CONTINUOUS
 10
323.6150030007
 20
134.2712850427
  0
VERTEX
  8
0
 62
7
  6
CONTINUOUS
 10
323.6431551063
 20
134.3694876981
  0
VERTEX
  8
0
 62
7
  6
CONTINUOUS
 10
323.6684758811
 20
134.4684154478
  0
VERTEX
  8
0
 62
7
  6
CONTINUOUS
 10
323.6909611726
 20
134.5681360937
  0
VERTEX
  8
0
 62
7
  6
CONTINUOUS
 10
323.7105713124
 20
134.6685130776
  0
VERTEX
  8
0
 62
7
  6
CONTINUOUS
 10
323.7272432419
 20
134.7692123383
  0
VERTEX
  8
0
 62
7
  6
CONTINUOUS
 10
323.7410160144
 20
134.8703870303
  0
VERTEX
  8
0
 62
7
  6
CONTINUOUS
 10
323.7519969292
 20
134.9731933774
  0
VERTEX
  8
0
 62
7
  6
CONTINUOUS
 10
323.7601649524
 20
135.0789097606
  0
VERTEX
  8
0
 62
7
  6
CONTINUOUS
 10
323.7653373039
 20
135.1888318044
  0
VERTEX
  8
0
 62
7
  6
CONTINUOUS
 10
323.7671693947
 20
135.3043019247
  0
SEQEND
  0
POLYLINE
  8
0
 62
7
  6
CONTINUOUS
 66
1
 70
0
  0
VERTEX
  8
0
 62
7
  6
CONTINUOUS
 10
295.2671693785
 20
131.9406265591
  0
VERTEX
  8
0
 62
7
  6
CONTINUOUS
 10
295.3925602605
 20
131.9434318422
  0
VERTEX
  8
0
 62
7
  6
CONTINUOUS
 10
295.511766909
 20
131.9512840721
  0
VERTEX
  8
0
 62
7
  6
CONTINUOUS
 10
295.6260990348
 20
131.9635676454
  0
VERTEX
  8
0
 62
7
  6
CONTINUOUS
 10
295.736876529
 20
131.9799491596
  0
VERTEX
  8
0
 62
7
  6
CONTINUOUS
 10
295.8454384612
 20
132.0003449239
  0
VERTEX
  8
0
 62
7
  6
CONTINUOUS
 10
295.9529345077
 20
132.0248584087
  0
VERTEX
  8
0
 62
7
  6
CONTINUOUS
 10
296.0594019197
 20
132.0534918259
  0
VERTEX
  8
0
 62
7
  6
CONTINUOUS
 10
296.1645236606
 20
132.0861317346
  0
VERTEX
  8
0
 62
7
  6
CONTINUOUS
 10
296.2679845446
 20
132.1226098025
  0
VERTEX
  8
0
 62
7
  6
CONTINUOUS
 10
296.3696282363
 20
132.1627965985
  0
VERTEX
  8
0
 62
7
  6
CONTINUOUS
 10
296.469328978
 20
132.20655377
  0
VERTEX
  8
0
 62
7
  6
CONTINUOUS
 10
296.5669811853
 20
132.2537535718
  0
VERTEX
  8
0
 62
7
  6
CONTINUOUS
 10
296.6628446971
 20
132.3044654176
  0
VERTEX
  8
0
 62
7
  6
CONTINUOUS
 10
296.75704507
 20
132.3587082689
  0
VERTEX
  8
0
 62
7
  6
CONTINUOUS
 10
296.8493749678
 20
132.4163433828
  0
VERTEX
  8
0
 62
7
  6
CONTINUOUS
 10
296.9394416854
 20
132.4770964012
  0
VERTEX
  8
0
 62
7
  6
CONTINUOUS
 10
297.0266821698
 20
132.5404814872
  0
VERTEX
  8
0
 62
7
  6
CONTINUOUS
 10
297.1109867499
 20
132.6062679392
  0
VERTEX
  8
0
 62
7
  6
CONTINUOUS
 10
297.1925342566
 20
132.6744659468
  0
VERTEX
  8
0
 62
7
  6
CONTINUOUS
 10
297.271385418
 20
132.7450185775
  0
VERTEX
  8
0
 62
7
  6
CONTINUOUS
 10
297.3475233828
 20
132.8178046396
  0
VERTEX
  8
0
 62
7
  6
CONTINUOUS
 10
297.421017188
 20
132.8927949211
  0
VERTEX
  8
0
 62
7
  6
CONTINUOUS
 10
297.4918599132
 20
132.9698714677
  0
VERTEX
  8
0
 62
7
  6
CONTINUOUS
 10
297.5597815284
 20
133.04861053
  0
VERTEX
  8
0
 62
7
  6
CONTINUOUS
 10
297.6253040209
 20
133.1295194245
  0
VERTEX
  8
0
 62
7
  6
CONTINUOUS
 10
297.6900102866
 20
133.2147202529
  0
VERTEX
  8
0
 62
7
  6
CONTINUOUS
 10
297.7541657075
 20
133.3051012553
  0
VERTEX
  8
0
 62
7
  6
CONTINUOUS
 10
297.8166789135
 20
133.3996608396
  0
VERTEX
  8
0
 62
7
  6
CONTINUOUS
 10
297.8764657936
 20
133.4970397033
  0
VERTEX
  8
0
 62
7
  6
CONTINUOUS
 10
297.9326692842
 20
133.5958463107
  0
VERTEX
  8
0
 62
7
  6
CONTINUOUS
 10
297.9847312174
 20
133.6948097188
  0
VERTEX
  8
0
 62
7
  6
CONTINUOUS
 10
298.0322872187
 20
133.7926589331
  0
VERTEX
  8
0
 62
7
  6
CONTINUOUS
 10
298.0751137471
 20
133.8880830808
  0
VERTEX
  8
0
 62
7
  6
CONTINUOUS
 10
298.113999914
 20
133.9819744507
  0
VERTEX
  8
0
 62
7
  6
CONTINUOUS
 10
298.1502500518
 20
134.0770456456
  0
VERTEX
  8
0
 62
7
  6
CONTINUOUS
 10
298.1840150645
 20
134.1737341509
  0
VERTEX
  8
0
 62
7
  6
CONTINUOUS
 10
298.2150030007
 20
134.2712850428
  0
VERTEX
  8
0
 62
7
  6
CONTINUOUS
 10
298.2431551063
 20
134.3694876982
  0
VERTEX
  8
0
 62
7
  6
CONTINUOUS
 10
298.2684758812
 20
134.4684154479
  0
VERTEX
  8
0
 62
7
  6
CONTINUOUS
 10
298.2909611727
 20
134.5681360938
  0
VERTEX
  8
0
 62
7
  6
CONTINUOUS
 10
298.3105713124
 20
134.6685130777
  0
VERTEX
  8
0
 62
7
  6
CONTINUOUS
 10
298.3272432419
 20
134.7692123384
  0
VERTEX
  8
0
 62
7
  6
CONTINUOUS
 10
298.3410160144
 20
134.8703870304
  0
VERTEX
  8
0
 62
7
  6
CONTINUOUS
 10
298.3519969292
 20
134.9731933775
  0
VERTEX
  8
0
 62
7
  6
CONTINUOUS
 10
298.3601649524
 20
135.0789097607
  0
VERTEX
  8
0
 62
7
  6
CONTINUOUS
 10
298.3653373039
 20
135.1888318045
  0
VERTEX
  8
0
 62
7
  6
CONTINUOUS
 10
298.3671693947
 20
135.3043019248
  0
SEQEND
  0
POLYLINE
  8
0
 62
7
  6
CONTINUOUS
 66
1
 70
0
  0
VERTEX
  8
0
 62
7
  6
CONTINUOUS
 10
269.8671693785
 20
131.9406265591
  0
VERTEX
  8
0
 62
7
  6
CONTINUOUS
 10
269.9925602605
 20
131.9434318422
  0
VERTEX
  8
0
 62
7
  6
CONTINUOUS
 10
270.1117669091
 20
131.9512840721
  0
VERTEX
  8
0
 62
7
  6
CONTINUOUS
 10
270.2260990348
 20
131.9635676454
  0
VERTEX
  8
0
 62
7
  6
CONTINUOUS
 10
270.3368765291
 20
131.9799491596
  0
VERTEX
  8
0
 62
7
  6
CONTINUOUS
 10
270.4454384612
 20
132.0003449239
  0
VERTEX
  8
0
 62
7
  6
CONTINUOUS
 10
270.5529345077
 20
132.0248584087
  0
VERTEX
  8
0
 62
7
  6
CONTINUOUS
 10
270.6594019197
 20
132.0534918259
  0
VERTEX
  8
0
 62
7
  6
CONTINUOUS
 10
270.7645236606
 20
132.0861317346
  0
VERTEX
  8
0
 62
7
  6
CONTINUOUS
 10
270.8679845446
 20
132.1226098025
  0
VERTEX
  8
0
 62
7
  6
CONTINUOUS
 10
270.9696282364
 20
132.1627965985
  0
VERTEX
  8
0
 62
7
  6
CONTINUOUS
 10
271.0693289781
 20
132.20655377
  0
VERTEX
  8
0
 62
7
  6
CONTINUOUS
 10
271.1669811854
 20
132.2537535718
  0
VERTEX
  8
0
 62
7
  6
CONTINUOUS
 10
271.2628446972
 20
132.3044654176
  0
VERTEX
  8
0
 62
7
  6
CONTINUOUS
 10
271.3570450701
 20
132.3587082689
  0
VERTEX
  8
0
 62
7
  6
CONTINUOUS
 10
271.4493749678
 20
132.4163433828
  0
VERTEX
  8
0
 62
7
  6
CONTINUOUS
 10
271.5394416854
 20
132.4770964013
  0
VERTEX
  8
0
 62
7
  6
CONTINUOUS
 10
271.6266821698
 20
132.5404814873
  0
VERTEX
  8
0
 62
7
  6
CONTINUOUS
 10
271.7109867499
 20
132.6062679392
  0
VERTEX
  8
0
 62
7
  6
CONTINUOUS
 10
271.7925342566
 20
132.6744659468
  0
VERTEX
  8
0
 62
7
  6
CONTINUOUS
 10
271.8713854181
 20
132.7450185776
  0
VERTEX
  8
0
 62
7
  6
CONTINUOUS
 10
271.9475233828
 20
132.8178046397
  0
VERTEX
  8
0
 62
7
  6
CONTINUOUS
 10
272.0210171881
 20
132.8927949212
  0
VERTEX
  8
0
 62
7
  6
CONTINUOUS
 10
272.0918599133
 20
132.9698714678
  0
VERTEX
  8
0
 62
7
  6
CONTINUOUS
 10
272.1597815285
 20
133.0486105301
  0
VERTEX
  8
0
 62
7
  6
CONTINUOUS
 10
272.2253040209
 20
133.1295194246
  0
VERTEX
  8
0
 62
7
  6
CONTINUOUS
 10
272.2900102866
 20
133.2147202529
  0
VERTEX
  8
0
 62
7
  6
CONTINUOUS
 10
272.3541657076
 20
133.3051012554
  0
VERTEX
  8
0
 62
7
  6
CONTINUOUS
 10
272.4166789135
 20
133.3996608397
  0
VERTEX
  8
0
 62
7
  6
CONTINUOUS
 10
272.4764657937
 20
133.4970397034
  0
VERTEX
  8
0
 62
7
  6
CONTINUOUS
 10
272.5326692842
 20
133.5958463108
  0
VERTEX
  8
0
 62
7
  6
CONTINUOUS
 10
272.5847312175
 20
133.6948097189
  0
VERTEX
  8
0
 62
7
  6
CONTINUOUS
 10
272.6322872188
 20
133.7926589332
  0
VERTEX
  8
0
 62
7
  6
CONTINUOUS
 10
272.6751137472
 20
133.8880830809
  0
VERTEX
  8
0
 62
7
  6
CONTINUOUS
 10
272.7139999141
 20
133.9819744508
  0
VERTEX
  8
0
 62
7
  6
CONTINUOUS
 10
272.7502500519
 20
134.0770456457
  0
VERTEX
  8
0
 62
7
  6
CONTINUOUS
 10
272.7840150645
 20
134.173734151
  0
VERTEX
  8
0
 62
7
  6
CONTINUOUS
 10
272.8150030008
 20
134.2712850429
  0
VERTEX
  8
0
 62
7
  6
CONTINUOUS
 10
272.8431551064
 20
134.3694876983
  0
VERTEX
  8
0
 62
7
  6
CONTINUOUS
 10
272.8684758812
 20
134.468415448
  0
VERTEX
  8
0
 62
7
  6
CONTINUOUS
 10
272.8909611727
 20
134.5681360939
  0
VERTEX
  8
0
 62
7
  6
CONTINUOUS
 10
272.9105713124
 20
134.6685130778
  0
VERTEX
  8
0
 62
7
  6
CONTINUOUS
 10
272.9272432419
 20
134.7692123385
  0
VERTEX
  8
0
 62
7
  6
CONTINUOUS
 10
272.9410160144
 20
134.8703870305
  0
VERTEX
  8
0
 62
7
  6
CONTINUOUS
 10
272.9519969292
 20
134.9731933776
  0
VERTEX
  8
0
 62
7
  6
CONTINUOUS
 10
272.9601649524
 20
135.0789097608
  0
VERTEX
  8
0
 62
7
  6
CONTINUOUS
 10
272.9653373039
 20
135.1888318046
  0
VERTEX
  8
0
 62
7
  6
CONTINUOUS
 10
272.9671693947
 20
135.3043019249
  0
SEQEND
  0
POLYLINE
  8
0
 62
7
  6
CONTINUOUS
 66
1
 70
0
  0
VERTEX
  8
0
 62
7
  6
CONTINUOUS
 10
244.4671693785
 20
131.9406265591
  0
VERTEX
  8
0
 62
7
  6
CONTINUOUS
 10
244.5925602605
 20
131.9434318422
  0
VERTEX
  8
0
 62
7
  6
CONTINUOUS
 10
244.711766909
 20
131.9512840721
  0
VERTEX
  8
0
 62
7
  6
CONTINUOUS
 10
244.8260990348
 20
131.9635676454
  0
VERTEX
  8
0
 62
7
  6
CONTINUOUS
 10
244.936876529
 20
131.9799491596
  0
VERTEX
  8
0
 62
7
  6
CONTINUOUS
 10
245.0454384612
 20
132.0003449239
  0
VERTEX
  8
0
 62
7
  6
CONTINUOUS
 10
245.1529345077
 20
132.0248584087
  0
VERTEX
  8
0
 62
7
  6
CONTINUOUS
 10
245.2594019197
 20
132.0534918259
  0
VERTEX
  8
0
 62
7
  6
CONTINUOUS
 10
245.3645236606
 20
132.0861317346
  0
VERTEX
  8
0
 62
7
  6
CONTINUOUS
 10
245.4679845446
 20
132.1226098025
  0
VERTEX
  8
0
 62
7
  6
CONTINUOUS
 10
245.5696282363
 20
132.1627965985
  0
VERTEX
  8
0
 62
7
  6
CONTINUOUS
 10
245.669328978
 20
132.20655377
  0
VERTEX
  8
0
 62
7
  6
CONTINUOUS
 10
245.7669811853
 20
132.2537535718
  0
VERTEX
  8
0
 62
7
  6
CONTINUOUS
 10
245.8628446971
 20
132.3044654176
  0
VERTEX
  8
0
 62
7
  6
CONTINUOUS
 10
245.95704507
 20
132.3587082689
  0
VERTEX
  8
0
 62
7
  6
CONTINUOUS
 10
246.0493749678
 20
132.4163433828
  0
VERTEX
  8
0
 62
7
  6
CONTINUOUS
 10
246.1394416854
 20
132.4770964012
  0
VERTEX
  8
0
 62
7
  6
CONTINUOUS
 10
246.2266821698
 20
132.5404814872
  0
VERTEX
  8
0
 62
7
  6
CONTINUOUS
 10
246.3109867499
 20
132.6062679392
  0
VERTEX
  8
0
 62
7
  6
CONTINUOUS
 10
246.3925342566
 20
132.6744659468
  0
VERTEX
  8
0
 62
7
  6
CONTINUOUS
 10
246.471385418
 20
132.7450185775
  0
VERTEX
  8
0
 62
7
  6
CONTINUOUS
 10
246.5475233828
 20
132.8178046396
  0
VERTEX
  8
0
 62
7
  6
CONTINUOUS
 10
246.621017188
 20
132.8927949211
  0
VERTEX
  8
0
 62
7
  6
CONTINUOUS
 10
246.6918599132
 20
132.9698714677
  0
VERTEX
  8
0
 62
7
  6
CONTINUOUS
 10
246.7597815284
 20
133.04861053
  0
VERTEX
  8
0
 62
7
  6
CONTINUOUS
 10
246.8253040209
 20
133.1295194245
  0
VERTEX
  8
0
 62
7
  6
CONTINUOUS
 10
246.8900102866
 20
133.2147202529
  0
VERTEX
  8
0
 62
7
  6
CONTINUOUS
 10
246.9541657075
 20
133.3051012553
  0
VERTEX
  8
0
 62
7
  6
CONTINUOUS
 10
247.0166789135
 20
133.3996608396
  0
VERTEX
  8
0
 62
7
  6
CONTINUOUS
 10
247.0764657936
 20
133.4970397033
  0
VERTEX
  8
0
 62
7
  6
CONTINUOUS
 10
247.1326692842
 20
133.5958463107
  0
VERTEX
  8
0
 62
7
  6
CONTINUOUS
 10
247.1847312174
 20
133.6948097188
  0
VERTEX
  8
0
 62
7
  6
CONTINUOUS
 10
247.2322872187
 20
133.7926589331
  0
VERTEX
  8
0
 62
7
  6
CONTINUOUS
 10
247.2751137471
 20
133.8880830808
  0
VERTEX
  8
0
 62
7
  6
CONTINUOUS
 10
247.313999914
 20
133.9819744507
  0
VERTEX
  8
0
 62
7
  6
CONTINUOUS
 10
247.3502500518
 20
134.0770456456
  0
VERTEX
  8
0
 62
7
  6
CONTINUOUS
 10
247.3840150645
 20
134.1737341509
  0
VERTEX
  8
0
 62
7
  6
CONTINUOUS
 10
247.4150030007
 20
134.2712850428
  0
VERTEX
  8
0
 62
7
  6
CONTINUOUS
 10
247.4431551063
 20
134.3694876982
  0
VERTEX
  8
0
 62
7
  6
CONTINUOUS
 10
247.4684758812
 20
134.4684154479
  0
VERTEX
  8
0
 62
7
  6
CONTINUOUS
 10
247.4909611727
 20
134.5681360938
  0
VERTEX
  8
0
 62
7
  6
CONTINUOUS
 10
247.5105713124
 20
134.6685130777
  0
VERTEX
  8
0
 62
7
  6
CONTINUOUS
 10
247.5272432419
 20
134.7692123384
  0
VERTEX
  8
0
 62
7
  6
CONTINUOUS
 10
247.5410160144
 20
134.8703870304
  0
VERTEX
  8
0
 62
7
  6
CONTINUOUS
 10
247.5519969292
 20
134.9731933775
  0
VERTEX
  8
0
 62
7
  6
CONTINUOUS
 10
247.5601649524
 20
135.0789097607
  0
VERTEX
  8
0
 62
7
  6
CONTINUOUS
 10
247.5653373039
 20
135.1888318045
  0
VERTEX
  8
0
 62
7
  6
CONTINUOUS
 10
247.5671693947
 20
135.3043019248
  0
SEQEND
  0
POLYLINE
  8
0
 62
7
  6
CONTINUOUS
 66
1
 70
0
  0
VERTEX
  8
0
 62
7
  6
CONTINUOUS
 10
219.0671693785
 20
131.9406265591
  0
VERTEX
  8
0
 62
7
  6
CONTINUOUS
 10
219.1925602605
 20
131.9434318422
  0
VERTEX
  8
0
 62
7
  6
CONTINUOUS
 10
219.311766909
 20
131.9512840721
  0
VERTEX
  8
0
 62
7
  6
CONTINUOUS
 10
219.4260990348
 20
131.9635676454
  0
VERTEX
  8
0
 62
7
  6
CONTINUOUS
 10
219.536876529
 20
131.9799491596
  0
VERTEX
  8
0
 62
7
  6
CONTINUOUS
 10
219.6454384612
 20
132.0003449239
  0
VERTEX
  8
0
 62
7
  6
CONTINUOUS
 10
219.7529345077
 20
132.0248584087
  0
VERTEX
  8
0
 62
7
  6
CONTINUOUS
 10
219.8594019197
 20
132.0534918259
  0
VERTEX
  8
0
 62
7
  6
CONTINUOUS
 10
219.9645236606
 20
132.0861317346
  0
VERTEX
  8
0
 62
7
  6
CONTINUOUS
 10
220.0679845446
 20
132.1226098025
  0
VERTEX
  8
0
 62
7
  6
CONTINUOUS
 10
220.1696282363
 20
132.1627965985
  0
VERTEX
  8
0
 62
7
  6
CONTINUOUS
 10
220.269328978
 20
132.20655377
  0
VERTEX
  8
0
 62
7
  6
CONTINUOUS
 10
220.3669811853
 20
132.2537535718
  0
VERTEX
  8
0
 62
7
  6
CONTINUOUS
 10
220.4628446971
 20
132.3044654176
  0
VERTEX
  8
0
 62
7
  6
CONTINUOUS
 10
220.5570450701
 20
132.3587082689
  0
VERTEX
  8
0
 62
7
  6
CONTINUOUS
 10
220.6493749678
 20
132.4163433828
  0
VERTEX
  8
0
 62
7
  6
CONTINUOUS
 10
220.7394416854
 20
132.4770964013
  0
VERTEX
  8
0
 62
7
  6
CONTINUOUS
 10
220.8266821698
 20
132.5404814872
  0
VERTEX
  8
0
 62
7
  6
CONTINUOUS
 10
220.9109867499
 20
132.6062679392
  0
VERTEX
  8
0
 62
7
  6
CONTINUOUS
 10
220.9925342566
 20
132.6744659468
  0
VERTEX
  8
0
 62
7
  6
CONTINUOUS
 10
221.0713854181
 20
132.7450185775
  0
VERTEX
  8
0
 62
7
  6
CONTINUOUS
 10
221.1475233828
 20
132.8178046397
  0
VERTEX
  8
0
 62
7
  6
CONTINUOUS
 10
221.221017188
 20
132.8927949212
  0
VERTEX
  8
0
 62
7
  6
CONTINUOUS
 10
221.2918599133
 20
132.9698714677
  0
VERTEX
  8
0
 62
7
  6
CONTINUOUS
 10
221.3597815285
 20
133.0486105301
  0
VERTEX
  8
0
 62
7
  6
CONTINUOUS
 10
221.4253040209
 20
133.1295194245
  0
VERTEX
  8
0
 62
7
  6
CONTINUOUS
 10
221.4900102866
 20
133.2147202529
  0
VERTEX
  8
0
 62
7
  6
CONTINUOUS
 10
221.5541657075
 20
133.3051012553
  0
VERTEX
  8
0
 62
7
  6
CONTINUOUS
 10
221.6166789135
 20
133.3996608396
  0
VERTEX
  8
0
 62
7
  6
CONTINUOUS
 10
221.6764657937
 20
133.4970397034
  0
VERTEX
  8
0
 62
7
  6
CONTINUOUS
 10
221.7326692842
 20
133.5958463108
  0
VERTEX
  8
0
 62
7
  6
CONTINUOUS
 10
221.7847312175
 20
133.6948097188
  0
VERTEX
  8
0
 62
7
  6
CONTINUOUS
 10
221.8322872187
 20
133.7926589332
  0
VERTEX
  8
0
 62
7
  6
CONTINUOUS
 10
221.8751137472
 20
133.8880830809
  0
VERTEX
  8
0
 62
7
  6
CONTINUOUS
 10
221.9139999141
 20
133.9819744507
  0
VERTEX
  8
0
 62
7
  6
CONTINUOUS
 10
221.9502500519
 20
134.0770456456
  0
VERTEX
  8
0
 62
7
  6
CONTINUOUS
 10
221.9840150645
 20
134.1737341509
  0
VERTEX
  8
0
 62
7
  6
CONTINUOUS
 10
222.0150030007
 20
134.2712850428
  0
VERTEX
  8
0
 62
7
  6
CONTINUOUS
 10
222.0431551063
 20
134.3694876982
  0
VERTEX
  8
0
 62
7
  6
CONTINUOUS
 10
222.0684758812
 20
134.4684154479
  0
VERTEX
  8
0
 62
7
  6
CONTINUOUS
 10
222.0909611727
 20
134.5681360939
  0
VERTEX
  8
0
 62
7
  6
CONTINUOUS
 10
222.1105713124
 20
134.6685130777
  0
VERTEX
  8
0
 62
7
  6
CONTINUOUS
 10
222.1272432419
 20
134.7692123385
  0
VERTEX
  8
0
 62
7
  6
CONTINUOUS
 10
222.1410160144
 20
134.8703870304
  0
VERTEX
  8
0
 62
7
  6
CONTINUOUS
 10
222.1519969292
 20
134.9731933775
  0
VERTEX
  8
0
 62
7
  6
CONTINUOUS
 10
222.1601649524
 20
135.0789097607
  0
VERTEX
  8
0
 62
7
  6
CONTINUOUS
 10
222.1653373039
 20
135.1888318045
  0
VERTEX
  8
0
 62
7
  6
CONTINUOUS
 10
222.1671693947
 20
135.3043019248
  0
SEQEND
  0
POLYLINE
  8
0
 62
7
  6
CONTINUOUS
 66
1
 70
0
  0
VERTEX
  8
0
 62
7
  6
CONTINUOUS
 10
193.6671693785
 20
131.9406265591
  0
VERTEX
  8
0
 62
7
  6
CONTINUOUS
 10
193.7925602605
 20
131.9434318422
  0
VERTEX
  8
0
 62
7
  6
CONTINUOUS
 10
193.9117669091
 20
131.9512840721
  0
VERTEX
  8
0
 62
7
  6
CONTINUOUS
 10
194.0260990348
 20
131.9635676454
  0
VERTEX
  8
0
 62
7
  6
CONTINUOUS
 10
194.1368765291
 20
131.9799491596
  0
VERTEX
  8
0
 62
7
  6
CONTINUOUS
 10
194.2454384612
 20
132.0003449239
  0
VERTEX
  8
0
 62
7
  6
CONTINUOUS
 10
194.3529345077
 20
132.0248584087
  0
VERTEX
  8
0
 62
7
  6
CONTINUOUS
 10
194.4594019197
 20
132.0534918259
  0
VERTEX
  8
0
 62
7
  6
CONTINUOUS
 10
194.5645236606
 20
132.0861317346
  0
VERTEX
  8
0
 62
7
  6
CONTINUOUS
 10
194.6679845446
 20
132.1226098025
  0
VERTEX
  8
0
 62
7
  6
CONTINUOUS
 10
194.7696282363
 20
132.1627965985
  0
VERTEX
  8
0
 62
7
  6
CONTINUOUS
 10
194.869328978
 20
132.20655377
  0
VERTEX
  8
0
 62
7
  6
CONTINUOUS
 10
194.9669811853
 20
132.2537535718
  0
VERTEX
  8
0
 62
7
  6
CONTINUOUS
 10
195.0628446971
 20
132.3044654176
  0
VERTEX
  8
0
 62
7
  6
CONTINUOUS
 10
195.1570450701
 20
132.3587082689
  0
VERTEX
  8
0
 62
7
  6
CONTINUOUS
 10
195.2493749678
 20
132.4163433828
  0
VERTEX
  8
0
 62
7
  6
CONTINUOUS
 10
195.3394416854
 20
132.4770964013
  0
VERTEX
  8
0
 62
7
  6
CONTINUOUS
 10
195.4266821698
 20
132.5404814872
  0
VERTEX
  8
0
 62
7
  6
CONTINUOUS
 10
195.5109867499
 20
132.6062679392
  0
VERTEX
  8
0
 62
7
  6
CONTINUOUS
 10
195.5925342566
 20
132.6744659468
  0
VERTEX
  8
0
 62
7
  6
CONTINUOUS
 10
195.6713854181
 20
132.7450185775
  0
VERTEX
  8
0
 62
7
  6
CONTINUOUS
 10
195.7475233828
 20
132.8178046397
  0
VERTEX
  8
0
 62
7
  6
CONTINUOUS
 10
195.8210171881
 20
132.8927949212
  0
VERTEX
  8
0
 62
7
  6
CONTINUOUS
 10
195.8918599133
 20
132.9698714678
  0
VERTEX
  8
0
 62
7
  6
CONTINUOUS
 10
195.9597815285
 20
133.0486105301
  0
VERTEX
  8
0
 62
7
  6
CONTINUOUS
 10
196.0253040209
 20
133.1295194245
  0
VERTEX
  8
0
 62
7
  6
CONTINUOUS
 10
196.0900102866
 20
133.2147202529
  0
VERTEX
  8
0
 62
7
  6
CONTINUOUS
 10
196.1541657075
 20
133.3051012553
  0
VERTEX
  8
0
 62
7
  6
CONTINUOUS
 10
196.2166789135
 20
133.3996608397
  0
VERTEX
  8
0
 62
7
  6
CONTINUOUS
 10
196.2764657937
 20
133.4970397034
  0
VERTEX
  8
0
 62
7
  6
CONTINUOUS
 10
196.3326692842
 20
133.5958463108
  0
VERTEX
  8
0
 62
7
  6
CONTINUOUS
 10
196.3847312175
 20
133.6948097188
  0
VERTEX
  8
0
 62
7
  6
CONTINUOUS
 10
196.4322872187
 20
133.7926589332
  0
VERTEX
  8
0
 62
7
  6
CONTINUOUS
 10
196.4751137472
 20
133.8880830809
  0
VERTEX
  8
0
 62
7
  6
CONTINUOUS
 10
196.5139999141
 20
133.9819744507
  0
VERTEX
  8
0
 62
7
  6
CONTINUOUS
 10
196.5502500519
 20
134.0770456456
  0
VERTEX
  8
0
 62
7
  6
CONTINUOUS
 10
196.5840150645
 20
134.173734151
  0
VERTEX
  8
0
 62
7
  6
CONTINUOUS
 10
196.6150030007
 20
134.2712850429
  0
VERTEX
  8
0
 62
7
  6
CONTINUOUS
 10
196.6431551063
 20
134.3694876982
  0
VERTEX
  8
0
 62
7
  6
CONTINUOUS
 10
196.6684758812
 20
134.4684154479
  0
VERTEX
  8
0
 62
7
  6
CONTINUOUS
 10
196.6909611727
 20
134.5681360939
  0
VERTEX
  8
0
 62
7
  6
CONTINUOUS
 10
196.7105713124
 20
134.6685130778
  0
VERTEX
  8
0
 62
7
  6
CONTINUOUS
 10
196.7272432419
 20
134.7692123385
  0
VERTEX
  8
0
 62
7
  6
CONTINUOUS
 10
196.7410160144
 20
134.8703870305
  0
VERTEX
  8
0
 62
7
  6
CONTINUOUS
 10
196.7519969292
 20
134.9731933776
  0
VERTEX
  8
0
 62
7
  6
CONTINUOUS
 10
196.7601649524
 20
135.0789097608
  0
VERTEX
  8
0
 62
7
  6
CONTINUOUS
 10
196.7653373039
 20
135.1888318046
  0
VERTEX
  8
0
 62
7
  6
CONTINUOUS
 10
196.7671693947
 20
135.3043019249
  0
SEQEND
  0
POLYLINE
  8
0
 62
7
  6
CONTINUOUS
 66
1
 70
0
  0
VERTEX
  8
0
 62
7
  6
CONTINUOUS
 10
168.2671693785
 20
131.9406265591
  0
VERTEX
  8
0
 62
7
  6
CONTINUOUS
 10
168.3925602604
 20
131.9434318422
  0
VERTEX
  8
0
 62
7
  6
CONTINUOUS
 10
168.511766909
 20
131.9512840721
  0
VERTEX
  8
0
 62
7
  6
CONTINUOUS
 10
168.6260990348
 20
131.9635676454
  0
VERTEX
  8
0
 62
7
  6
CONTINUOUS
 10
168.736876529
 20
131.9799491596
  0
VERTEX
  8
0
 62
7
  6
CONTINUOUS
 10
168.8454384611
 20
132.0003449239
  0
VERTEX
  8
0
 62
7
  6
CONTINUOUS
 10
168.9529345077
 20
132.0248584087
  0
VERTEX
  8
0
 62
7
  6
CONTINUOUS
 10
169.0594019197
 20
132.0534918259
  0
VERTEX
  8
0
 62
7
  6
CONTINUOUS
 10
169.1645236606
 20
132.0861317346
  0
VERTEX
  8
0
 62
7
  6
CONTINUOUS
 10
169.2679845445
 20
132.1226098025
  0
VERTEX
  8
0
 62
7
  6
CONTINUOUS
 10
169.3696282363
 20
132.1627965985
  0
VERTEX
  8
0
 62
7
  6
CONTINUOUS
 10
169.469328978
 20
132.20655377
  0
VERTEX
  8
0
 62
7
  6
CONTINUOUS
 10
169.5669811853
 20
132.2537535718
  0
VERTEX
  8
0
 62
7
  6
CONTINUOUS
 10
169.6628446971
 20
132.3044654176
  0
VERTEX
  8
0
 62
7
  6
CONTINUOUS
 10
169.75704507
 20
132.3587082688
  0
VERTEX
  8
0
 62
7
  6
CONTINUOUS
 10
169.8493749677
 20
132.4163433828
  0
VERTEX
  8
0
 62
7
  6
CONTINUOUS
 10
169.9394416854
 20
132.4770964012
  0
VERTEX
  8
0
 62
7
  6
CONTINUOUS
 10
170.0266821698
 20
132.5404814872
  0
VERTEX
  8
0
 62
7
  6
CONTINUOUS
 10
170.1109867499
 20
132.6062679391
  0
VERTEX
  8
0
 62
7
  6
CONTINUOUS
 10
170.1925342565
 20
132.6744659467
  0
VERTEX
  8
0
 62
7
  6
CONTINUOUS
 10
170.271385418
 20
132.7450185775
  0
VERTEX
  8
0
 62
7
  6
CONTINUOUS
 10
170.3475233828
 20
132.8178046396
  0
VERTEX
  8
0
 62
7
  6
CONTINUOUS
 10
170.421017188
 20
132.8927949211
  0
VERTEX
  8
0
 62
7
  6
CONTINUOUS
 10
170.4918599132
 20
132.9698714677
  0
VERTEX
  8
0
 62
7
  6
CONTINUOUS
 10
170.5597815284
 20
133.04861053
  0
VERTEX
  8
0
 62
7
  6
CONTINUOUS
 10
170.6253040208
 20
133.1295194245
  0
VERTEX
  8
0
 62
7
  6
CONTINUOUS
 10
170.6900102865
 20
133.2147202528
  0
VERTEX
  8
0
 62
7
  6
CONTINUOUS
 10
170.7541657075
 20
133.3051012553
  0
VERTEX
  8
0
 62
7
  6
CONTINUOUS
 10
170.8166789134
 20
133.3996608396
  0
VERTEX
  8
0
 62
7
  6
CONTINUOUS
 10
170.8764657936
 20
133.4970397033
  0
VERTEX
  8
0
 62
7
  6
CONTINUOUS
 10
170.9326692841
 20
133.5958463107
  0
VERTEX
  8
0
 62
7
  6
CONTINUOUS
 10
170.9847312174
 20
133.6948097187
  0
VERTEX
  8
0
 62
7
  6
CONTINUOUS
 10
171.0322872187
 20
133.7926589331
  0
VERTEX
  8
0
 62
7
  6
CONTINUOUS
 10
171.0751137471
 20
133.8880830807
  0
VERTEX
  8
0
 62
7
  6
CONTINUOUS
 10
171.113999914
 20
133.9819744506
  0
VERTEX
  8
0
 62
7
  6
CONTINUOUS
 10
171.1502500518
 20
134.0770456455
  0
VERTEX
  8
0
 62
7
  6
CONTINUOUS
 10
171.1840150645
 20
134.1737341508
  0
VERTEX
  8
0
 62
7
  6
CONTINUOUS
 10
171.2150030007
 20
134.2712850427
  0
VERTEX
  8
0
 62
7
  6
CONTINUOUS
 10
171.2431551063
 20
134.3694876981
  0
VERTEX
  8
0
 62
7
  6
CONTINUOUS
 10
171.2684758811
 20
134.4684154478
  0
VERTEX
  8
0
 62
7
  6
CONTINUOUS
 10
171.2909611726
 20
134.5681360937
  0
VERTEX
  8
0
 62
7
  6
CONTINUOUS
 10
171.3105713124
 20
134.6685130776
  0
VERTEX
  8
0
 62
7
  6
CONTINUOUS
 10
171.3272432419
 20
134.7692123383
  0
VERTEX
  8
0
 62
7
  6
CONTINUOUS
 10
171.3410160144
 20
134.8703870303
  0
VERTEX
  8
0
 62
7
  6
CONTINUOUS
 10
171.3519969292
 20
134.9731933774
  0
VERTEX
  8
0
 62
7
  6
CONTINUOUS
 10
171.3601649524
 20
135.0789097606
  0
VERTEX
  8
0
 62
7
  6
CONTINUOUS
 10
171.3653373039
 20
135.1888318044
  0
VERTEX
  8
0
 62
7
  6
CONTINUOUS
 10
171.3671693947
 20
135.3043019247
  0
SEQEND
  0
POLYLINE
  8
0
 62
7
  6
CONTINUOUS
 66
1
 70
0
  0
VERTEX
  8
0
 62
7
  6
CONTINUOUS
 10
142.8671693785
 20
131.9406265591
  0
VERTEX
  8
0
 62
7
  6
CONTINUOUS
 10
142.9925602605
 20
131.9434318422
  0
VERTEX
  8
0
 62
7
  6
CONTINUOUS
 10
143.111766909
 20
131.9512840721
  0
VERTEX
  8
0
 62
7
  6
CONTINUOUS
 10
143.2260990348
 20
131.9635676454
  0
VERTEX
  8
0
 62
7
  6
CONTINUOUS
 10
143.336876529
 20
131.9799491596
  0
VERTEX
  8
0
 62
7
  6
CONTINUOUS
 10
143.4454384612
 20
132.0003449239
  0
VERTEX
  8
0
 62
7
  6
CONTINUOUS
 10
143.5529345077
 20
132.0248584087
  0
VERTEX
  8
0
 62
7
  6
CONTINUOUS
 10
143.6594019197
 20
132.0534918259
  0
VERTEX
  8
0
 62
7
  6
CONTINUOUS
 10
143.7645236606
 20
132.0861317346
  0
VERTEX
  8
0
 62
7
  6
CONTINUOUS
 10
143.8679845446
 20
132.1226098025
  0
VERTEX
  8
0
 62
7
  6
CONTINUOUS
 10
143.9696282363
 20
132.1627965985
  0
VERTEX
  8
0
 62
7
  6
CONTINUOUS
 10
144.069328978
 20
132.20655377
  0
VERTEX
  8
0
 62
7
  6
CONTINUOUS
 10
144.1669811853
 20
132.2537535718
  0
VERTEX
  8
0
 62
7
  6
CONTINUOUS
 10
144.2628446971
 20
132.3044654176
  0
VERTEX
  8
0
 62
7
  6
CONTINUOUS
 10
144.35704507
 20
132.3587082689
  0
VERTEX
  8
0
 62
7
  6
CONTINUOUS
 10
144.4493749678
 20
132.4163433828
  0
VERTEX
  8
0
 62
7
  6
CONTINUOUS
 10
144.5394416854
 20
132.4770964012
  0
VERTEX
  8
0
 62
7
  6
CONTINUOUS
 10
144.6266821698
 20
132.5404814872
  0
VERTEX
  8
0
 62
7
  6
CONTINUOUS
 10
144.7109867499
 20
132.6062679392
  0
VERTEX
  8
0
 62
7
  6
CONTINUOUS
 10
144.7925342566
 20
132.6744659468
  0
VERTEX
  8
0
 62
7
  6
CONTINUOUS
 10
144.871385418
 20
132.7450185775
  0
VERTEX
  8
0
 62
7
  6
CONTINUOUS
 10
144.9475233828
 20
132.8178046396
  0
VERTEX
  8
0
 62
7
  6
CONTINUOUS
 10
145.021017188
 20
132.8927949211
  0
VERTEX
  8
0
 62
7
  6
CONTINUOUS
 10
145.0918599132
 20
132.9698714677
  0
VERTEX
  8
0
 62
7
  6
CONTINUOUS
 10
145.1597815284
 20
133.04861053
  0
VERTEX
  8
0
 62
7
  6
CONTINUOUS
 10
145.2253040209
 20
133.1295194245
  0
VERTEX
  8
0
 62
7
  6
CONTINUOUS
 10
145.2900102866
 20
133.2147202529
  0
VERTEX
  8
0
 62
7
  6
CONTINUOUS
 10
145.3541657075
 20
133.3051012553
  0
VERTEX
  8
0
 62
7
  6
CONTINUOUS
 10
145.4166789135
 20
133.3996608396
  0
VERTEX
  8
0
 62
7
  6
CONTINUOUS
 10
145.4764657936
 20
133.4970397033
  0
VERTEX
  8
0
 62
7
  6
CONTINUOUS
 10
145.5326692842
 20
133.5958463107
  0
VERTEX
  8
0
 62
7
  6
CONTINUOUS
 10
145.5847312174
 20
133.6948097188
  0
VERTEX
  8
0
 62
7
  6
CONTINUOUS
 10
145.6322872187
 20
133.7926589331
  0
VERTEX
  8
0
 62
7
  6
CONTINUOUS
 10
145.6751137471
 20
133.8880830808
  0
VERTEX
  8
0
 62
7
  6
CONTINUOUS
 10
145.713999914
 20
133.9819744507
  0
VERTEX
  8
0
 62
7
  6
CONTINUOUS
 10
145.7502500518
 20
134.0770456456
  0
VERTEX
  8
0
 62
7
  6
CONTINUOUS
 10
145.7840150645
 20
134.1737341509
  0
VERTEX
  8
0
 62
7
  6
CONTINUOUS
 10
145.8150030007
 20
134.2712850428
  0
VERTEX
  8
0
 62
7
  6
CONTINUOUS
 10
145.8431551063
 20
134.3694876982
  0
VERTEX
  8
0
 62
7
  6
CONTINUOUS
 10
145.8684758812
 20
134.4684154479
  0
VERTEX
  8
0
 62
7
  6
CONTINUOUS
 10
145.8909611727
 20
134.5681360938
  0
VERTEX
  8
0
 62
7
  6
CONTINUOUS
 10
145.9105713124
 20
134.6685130777
  0
VERTEX
  8
0
 62
7
  6
CONTINUOUS
 10
145.9272432419
 20
134.7692123384
  0
VERTEX
  8
0
 62
7
  6
CONTINUOUS
 10
145.9410160144
 20
134.8703870304
  0
VERTEX
  8
0
 62
7
  6
CONTINUOUS
 10
145.9519969292
 20
134.9731933775
  0
VERTEX
  8
0
 62
7
  6
CONTINUOUS
 10
145.9601649524
 20
135.0789097607
  0
VERTEX
  8
0
 62
7
  6
CONTINUOUS
 10
145.9653373039
 20
135.1888318045
  0
VERTEX
  8
0
 62
7
  6
CONTINUOUS
 10
145.9671693947
 20
135.3043019248
  0
SEQEND
  0
POLYLINE
  8
0
 62
7
  6
CONTINUOUS
 66
1
 70
0
  0
VERTEX
  8
0
 62
7
  6
CONTINUOUS
 10
117.4671693785
 20
131.9406265591
  0
VERTEX
  8
0
 62
7
  6
CONTINUOUS
 10
117.5925602605
 20
131.9434318422
  0
VERTEX
  8
0
 62
7
  6
CONTINUOUS
 10
117.7117669091
 20
131.9512840721
  0
VERTEX
  8
0
 62
7
  6
CONTINUOUS
 10
117.8260990348
 20
131.9635676454
  0
VERTEX
  8
0
 62
7
  6
CONTINUOUS
 10
117.9368765291
 20
131.9799491596
  0
VERTEX
  8
0
 62
7
  6
CONTINUOUS
 10
118.0454384612
 20
132.0003449239
  0
VERTEX
  8
0
 62
7
  6
CONTINUOUS
 10
118.1529345077
 20
132.0248584087
  0
VERTEX
  8
0
 62
7
  6
CONTINUOUS
 10
118.2594019197
 20
132.0534918259
  0
VERTEX
  8
0
 62
7
  6
CONTINUOUS
 10
118.3645236606
 20
132.0861317346
  0
VERTEX
  8
0
 62
7
  6
CONTINUOUS
 10
118.4679845446
 20
132.1226098025
  0
VERTEX
  8
0
 62
7
  6
CONTINUOUS
 10
118.5696282364
 20
132.1627965985
  0
VERTEX
  8
0
 62
7
  6
CONTINUOUS
 10
118.6693289781
 20
132.20655377
  0
VERTEX
  8
0
 62
7
  6
CONTINUOUS
 10
118.7669811854
 20
132.2537535718
  0
VERTEX
  8
0
 62
7
  6
CONTINUOUS
 10
118.8628446972
 20
132.3044654176
  0
VERTEX
  8
0
 62
7
  6
CONTINUOUS
 10
118.9570450701
 20
132.3587082689
  0
VERTEX
  8
0
 62
7
  6
CONTINUOUS
 10
119.0493749678
 20
132.4163433828
  0
VERTEX
  8
0
 62
7
  6
CONTINUOUS
 10
119.1394416854
 20
132.4770964013
  0
VERTEX
  8
0
 62
7
  6
CONTINUOUS
 10
119.2266821698
 20
132.5404814873
  0
VERTEX
  8
0
 62
7
  6
CONTINUOUS
 10
119.3109867499
 20
132.6062679392
  0
VERTEX
  8
0
 62
7
  6
CONTINUOUS
 10
119.3925342566
 20
132.6744659468
  0
VERTEX
  8
0
 62
7
  6
CONTINUOUS
 10
119.4713854181
 20
132.7450185776
  0
VERTEX
  8
0
 62
7
  6
CONTINUOUS
 10
119.5475233828
 20
132.8178046397
  0
VERTEX
  8
0
 62
7
  6
CONTINUOUS
 10
119.6210171881
 20
132.8927949212
  0
VERTEX
  8
0
 62
7
  6
CONTINUOUS
 10
119.6918599133
 20
132.9698714678
  0
VERTEX
  8
0
 62
7
  6
CONTINUOUS
 10
119.7597815285
 20
133.0486105301
  0
VERTEX
  8
0
 62
7
  6
CONTINUOUS
 10
119.8253040209
 20
133.1295194246
  0
VERTEX
  8
0
 62
7
  6
CONTINUOUS
 10
119.8900102866
 20
133.2147202529
  0
VERTEX
  8
0
 62
7
  6
CONTINUOUS
 10
119.9541657076
 20
133.3051012554
  0
VERTEX
  8
0
 62
7
  6
CONTINUOUS
 10
120.0166789135
 20
133.3996608397
  0
VERTEX
  8
0
 62
7
  6
CONTINUOUS
 10
120.0764657937
 20
133.4970397034
  0
VERTEX
  8
0
 62
7
  6
CONTINUOUS
 10
120.1326692842
 20
133.5958463108
  0
VERTEX
  8
0
 62
7
  6
CONTINUOUS
 10
120.1847312175
 20
133.6948097189
  0
VERTEX
  8
0
 62
7
  6
CONTINUOUS
 10
120.2322872188
 20
133.7926589332
  0
VERTEX
  8
0
 62
7
  6
CONTINUOUS
 10
120.2751137472
 20
133.8880830809
  0
VERTEX
  8
0
 62
7
  6
CONTINUOUS
 10
120.3139999141
 20
133.9819744508
  0
VERTEX
  8
0
 62
7
  6
CONTINUOUS
 10
120.3502500519
 20
134.0770456457
  0
VERTEX
  8
0
 62
7
  6
CONTINUOUS
 10
120.3840150645
 20
134.173734151
  0
VERTEX
  8
0
 62
7
  6
CONTINUOUS
 10
120.4150030008
 20
134.2712850429
  0
VERTEX
  8
0
 62
7
  6
CONTINUOUS
 10
120.4431551064
 20
134.3694876983
  0
VERTEX
  8
0
 62
7
  6
CONTINUOUS
 10
120.4684758812
 20
134.468415448
  0
VERTEX
  8
0
 62
7
  6
CONTINUOUS
 10
120.4909611727
 20
134.5681360939
  0
VERTEX
  8
0
 62
7
  6
CONTINUOUS
 10
120.5105713124
 20
134.6685130778
  0
VERTEX
  8
0
 62
7
  6
CONTINUOUS
 10
120.5272432419
 20
134.7692123385
  0
VERTEX
  8
0
 62
7
  6
CONTINUOUS
 10
120.5410160144
 20
134.8703870305
  0
VERTEX
  8
0
 62
7
  6
CONTINUOUS
 10
120.5519969292
 20
134.9731933776
  0
VERTEX
  8
0
 62
7
  6
CONTINUOUS
 10
120.5601649524
 20
135.0789097608
  0
VERTEX
  8
0
 62
7
  6
CONTINUOUS
 10
120.5653373039
 20
135.1888318046
  0
VERTEX
  8
0
 62
7
  6
CONTINUOUS
 10
120.5671693947
 20
135.3043019249
  0
SEQEND
  0
LINE
  8
0
 62
7
  6
CONTINUOUS
 10
331.9671693947
 20
129.4287261008
 11
318.9671693947
 21
129.4287261008
  0
LINE
  8
0
 62
7
  6
CONTINUOUS
 10
307.9671693947
 20
129.4287261008
 11
293.5671693947
 21
129.4287261008
  0
LINE
  8
0
 62
7
  6
CONTINUOUS
 10
282.5671693947
 20
129.4287261008
 11
268.1671693947
 21
129.4287261008
  0
LINE
  8
0
 62
7
  6
CONTINUOUS
 10
257.1671693947
 20
129.4287261008
 11
242.7671693947
 21
129.4287261008
  0
LINE
  8
0
 62
7
  6
CONTINUOUS
 10
231.7671693947
 20
129.4287261008
 11
217.3671693947
 21
129.4287261008
  0
LINE
  8
0
 62
7
  6
CONTINUOUS
 10
206.3671693947
 20
129.4287261008
 11
191.9671693947
 21
129.4287261008
  0
LINE
  8
0
 62
7
  6
CONTINUOUS
 10
180.9671693947
 20
129.4287261008
 11
166.5671693947
 21
129.4287261008
  0
LINE
  8
0
 62
7
  6
CONTINUOUS
 10
155.5671693947
 20
129.4287261008
 11
141.1671693947
 21
129.4287261008
  0
LINE
  8
0
 62
7
  6
CONTINUOUS
 10
130.1671693947
 20
129.4287261008
 11
115.7671693947
 21
129.4287261008
  0
LINE
  8
0
 62
7
  6
CONTINUOUS
 10
104.7671693947
 20
129.4287261008
 11
90.3671693947
 21
129.4287261008
  0
LINE
  8
0
 62
7
  6
CONTINUOUS
 10
79.3671693947
 20
129.4287261008
 11
64.9671693947
 21
129.4287261008
  0
LINE
  8
0
 62
7
  6
CONTINUOUS
 10
53.9671693947
 20
129.4287261008
 11
39.5671693947
 21
129.4287261008
  0
LINE
  8
0
 62
7
  6
CONTINUOUS
 10
28.2671693947
 20
129.4287261008
 11
30.2671693947
 21
129.4287261008
  0
LINE
  8
0
 62
7
  6
CONTINUOUS
 10
326.0671693947
 20
130.5287261008
 11
318.9671693947
 21
130.5287261008
  0
LINE
  8
0
 62
7
  6
CONTINUOUS
 10
307.9671693947
 20
130.5287261008
 11
293.5671693947
 21
130.5287261008
  0
LINE
  8
0
 62
7
  6
CONTINUOUS
 10
282.5671693947
 20
130.5287261008
 11
268.1671693947
 21
130.5287261008
  0
LINE
  8
0
 62
7
  6
CONTINUOUS
 10
257.1671693947
 20
130.5287261008
 11
242.7671693947
 21
130.5287261008
  0
LINE
  8
0
 62
7
  6
CONTINUOUS
 10
231.7671693947
 20
130.5287261008
 11
217.3671693947
 21
130.5287261008
  0
LINE
  8
0
 62
7
  6
CONTINUOUS
 10
206.3671693947
 20
130.5287261008
 11
191.9671693947
 21
130.5287261008
  0
LINE
  8
0
 62
7
  6
CONTINUOUS
 10
173.6671693947
 20
130.5287261008
 11
166.5671693947
 21
130.5287261008
  0
LINE
  8
0
 62
7
  6
CONTINUOUS
 10
155.5671693947
 20
130.5287261008
 11
141.1671693947
 21
130.5287261008
  0
LINE
  8
0
 62
7
  6
CONTINUOUS
 10
130.1671693947
 20
130.5287261008
 11
115.7671693947
 21
130.5287261008
  0
LINE
  8
0
 62
7
  6
CONTINUOUS
 10
104.7671693947
 20
130.5287261008
 11
90.3671693947
 21
130.5287261008
  0
LINE
  8
0
 62
7
  6
CONTINUOUS
 10
79.3671693947
 20
130.5287261008
 11
64.9671693947
 21
130.5287261008
  0
LINE
  8
0
 62
7
  6
CONTINUOUS
 10
53.9671693947
 20
130.5287261008
 11
39.5671693947
 21
130.5287261008
  0
LINE
  8
0
 62
7
  6
CONTINUOUS
 10
34.1672066242
 20
131.9406265591
 11
41.2671693785
 21
131.9406265591
  0
LINE
  8
0
 62
7
  6
CONTINUOUS
 10
52.2671694831
 20
131.9406265591
 11
66.6671693785
 21
131.9406265591
  0
LINE
  8
0
 62
7
  6
CONTINUOUS
 10
77.6671694831
 20
131.9406265591
 11
92.0671693785
 21
131.9406265591
  0
LINE
  8
0
 62
7
  6
CONTINUOUS
 10
103.0671694831
 20
131.9406265591
 11
117.4671693785
 21
131.9406265591
  0
LINE
  8
0
 62
7
  6
CONTINUOUS
 10
128.4671694831
 20
131.9406265591
 11
142.8671693785
 21
131.9406265591
  0
LINE
  8
0
 62
7
  6
CONTINUOUS
 10
153.8671694831
 20
131.9406265591
 11
168.2671693785
 21
131.9406265591
  0
LINE
  8
0
 62
7
  6
CONTINUOUS
 10
186.5672066242
 20
131.9406265591
 11
193.6671693785
 21
131.9406265591
  0
LINE
  8
0
 62
7
  6
CONTINUOUS
 10
204.6671694831
 20
131.9406265591
 11
219.0671693785
 21
131.9406265591
  0
LINE
  8
0
 62
7
  6
CONTINUOUS
 10
230.0671694831
 20
131.9406265591
 11
244.4671693785
 21
131.9406265591
  0
LINE
  8
0
 62
7
  6
CONTINUOUS
 10
255.4671694831
 20
131.9406265591
 11
269.8671693785
 21
131.9406265591
  0
LINE
  8
0
 62
7
  6
CONTINUOUS
 10
280.8671694831
 20
131.9406265591
 11
295.2671693785
 21
131.9406265591
  0
LINE
  8
0
 62
7
  6
CONTINUOUS
 10
306.2671694831
 20
131.9406265591
 11
320.6671693785
 21
131.9406265591
  0
LINE
  8
DEFAULT_1
 62
2
  6
CENTER
 10
185.3671693947
 20
132.2287261008
 11
182.1172693947
 21
132.2287261008
  0
LINE
  8
0
 62
2
  6
CONTINUOUS
 10
181.1671693947
 20
132.2287261008
 11
179.0671693947
 21
132.2287261008
  0
LINE
  8
DEFAULT_1
 62
2
  6
CENTER
 10
174.8671693947
 20
132.2287261008
 11
178.1170693947
 21
132.2287261008
  0
LINE
  8
0
 62
7
  6
CONTINUOUS
 10
329.7694522751
 20
132.9187260963
 11
331.9671693947
 21
132.9187261008
  0
LINE
  8
0
 62
7
  6
CONTINUOUS
 10
167.5878335493
 20
158.1259702914
 11
170.1982888794
 21
151.4614496996
  0
LINE
  8
0
 62
7
  6
CONTINUOUS
 10
179.9671693947
 20
162.9287261008
 11
179.9671693947
 21
158.2353845751
  0
LINE
  8
DEFAULT_1
 62
2
  6
CENTER
 10
180.1171693947
 20
137.4787261008
 11
180.1171693947
 21
134.2288261008
  0
LINE
  8
0
 62
2
  6
CONTINUOUS
 10
180.1171693947
 20
133.2787261008
 11
180.1171693947
 21
131.1787261008
  0
LINE
  8
DEFAULT_1
 62
2
  6
CENTER
 10
180.1171693947
 20
126.9787261008
 11
180.1171693947
 21
130.2286261008
  0
LINE
  8
0
 62
7
  6
CONTINUOUS
 10
180.2671693947
 20
101.5287261008
 11
180.2671693947
 21
106.2220713605
  0
LINE
  8
0
 62
7
  6
CONTINUOUS
 10
182.9671693947
 20
127.4287261008
 11
182.9671693947
 21
113.3611922563
  0
LINE
  8
0
 62
7
  6
CONTINUOUS
 10
183.7671693947
 20
110.4787261008
 11
183.7671693947
 21
112.0098024934
  0
LINE
  8
0
 62
7
  6
CONTINUOUS
 10
184.0671693605
 20
113.3611873697
 11
184.0671693605
 21
129.440632347
  0
LINE
  8
0
 62
7
  6
CONTINUOUS
 10
188.8671693947
 20
127.4287261008
 11
188.8671693947
 21
113.3611922563
  0
POLYLINE
  8
0
 62
7
  6
CONTINUOUS
 66
1
 70
0
  0
VERTEX
  8
0
 62
7
  6
CONTINUOUS
 10
92.0671693785
 20
131.9406265591
  0
VERTEX
  8
0
 62
7
  6
CONTINUOUS
 10
92.1925602605
 20
131.9434318422
  0
VERTEX
  8
0
 62
7
  6
CONTINUOUS
 10
92.311766909
 20
131.9512840721
  0
VERTEX
  8
0
 62
7
  6
CONTINUOUS
 10
92.4260990348
 20
131.9635676454
  0
VERTEX
  8
0
 62
7
  6
CONTINUOUS
 10
92.536876529
 20
131.9799491596
  0
VERTEX
  8
0
 62
7
  6
CONTINUOUS
 10
92.6454384612
 20
132.0003449239
  0
VERTEX
  8
0
 62
7
  6
CONTINUOUS
 10
92.7529345077
 20
132.0248584087
  0
VERTEX
  8
0
 62
7
  6
CONTINUOUS
 10
92.8594019197
 20
132.0534918259
  0
VERTEX
  8
0
 62
7
  6
CONTINUOUS
 10
92.9645236606
 20
132.0861317346
  0
VERTEX
  8
0
 62
7
  6
CONTINUOUS
 10
93.0679845446
 20
132.1226098025
  0
VERTEX
  8
0
 62
7
  6
CONTINUOUS
 10
93.1696282363
 20
132.1627965985
  0
VERTEX
  8
0
 62
7
  6
CONTINUOUS
 10
93.269328978
 20
132.20655377
  0
VERTEX
  8
0
 62
7
  6
CONTINUOUS
 10
93.3669811853
 20
132.2537535718
  0
VERTEX
  8
0
 62
7
  6
CONTINUOUS
 10
93.4628446971
 20
132.3044654176
  0
VERTEX
  8
0
 62
7
  6
CONTINUOUS
 10
93.55704507
 20
132.3587082689
  0
VERTEX
  8
0
 62
7
  6
CONTINUOUS
 10
93.6493749678
 20
132.4163433828
  0
VERTEX
  8
0
 62
7
  6
CONTINUOUS
 10
93.7394416854
 20
132.4770964012
  0
VERTEX
  8
0
 62
7
  6
CONTINUOUS
 10
93.8266821698
 20
132.5404814872
  0
VERTEX
  8
0
 62
7
  6
CONTINUOUS
 10
93.9109867499
 20
132.6062679392
  0
VERTEX
  8
0
 62
7
  6
CONTINUOUS
 10
93.9925342566
 20
132.6744659468
  0
VERTEX
  8
0
 62
7
  6
CONTINUOUS
 10
94.071385418
 20
132.7450185775
  0
VERTEX
  8
0
 62
7
  6
CONTINUOUS
 10
94.1475233828
 20
132.8178046396
  0
VERTEX
  8
0
 62
7
  6
CONTINUOUS
 10
94.221017188
 20
132.8927949211
  0
VERTEX
  8
0
 62
7
  6
CONTINUOUS
 10
94.2918599132
 20
132.9698714677
  0
VERTEX
  8
0
 62
7
  6
CONTINUOUS
 10
94.3597815284
 20
133.04861053
  0
VERTEX
  8
0
 62
7
  6
CONTINUOUS
 10
94.4253040209
 20
133.1295194245
  0
VERTEX
  8
0
 62
7
  6
CONTINUOUS
 10
94.4900102866
 20
133.2147202529
  0
VERTEX
  8
0
 62
7
  6
CONTINUOUS
 10
94.5541657075
 20
133.3051012553
  0
VERTEX
  8
0
 62
7
  6
CONTINUOUS
 10
94.6166789135
 20
133.3996608396
  0
VERTEX
  8
0
 62
7
  6
CONTINUOUS
 10
94.6764657936
 20
133.4970397033
  0
VERTEX
  8
0
 62
7
  6
CONTINUOUS
 10
94.7326692842
 20
133.5958463107
  0
VERTEX
  8
0
 62
7
  6
CONTINUOUS
 10
94.7847312174
 20
133.6948097188
  0
VERTEX
  8
0
 62
7
  6
CONTINUOUS
 10
94.8322872187
 20
133.7926589331
  0
VERTEX
  8
0
 62
7
  6
CONTINUOUS
 10
94.8751137471
 20
133.8880830808
  0
VERTEX
  8
0
 62
7
  6
CONTINUOUS
 10
94.913999914
 20
133.9819744507
  0
VERTEX
  8
0
 62
7
  6
CONTINUOUS
 10
94.9502500518
 20
134.0770456456
  0
VERTEX
  8
0
 62
7
  6
CONTINUOUS
 10
94.9840150645
 20
134.1737341509
  0
VERTEX
  8
0
 62
7
  6
CONTINUOUS
 10
95.0150030007
 20
134.2712850428
  0
VERTEX
  8
0
 62
7
  6
CONTINUOUS
 10
95.0431551063
 20
134.3694876982
  0
VERTEX
  8
0
 62
7
  6
CONTINUOUS
 10
95.0684758812
 20
134.4684154479
  0
VERTEX
  8
0
 62
7
  6
CONTINUOUS
 10
95.0909611727
 20
134.5681360938
  0
VERTEX
  8
0
 62
7
  6
CONTINUOUS
 10
95.1105713124
 20
134.6685130777
  0
VERTEX
  8
0
 62
7
  6
CONTINUOUS
 10
95.1272432419
 20
134.7692123384
  0
VERTEX
  8
0
 62
7
  6
CONTINUOUS
 10
95.1410160144
 20
134.8703870304
  0
VERTEX
  8
0
 62
7
  6
CONTINUOUS
 10
95.1519969292
 20
134.9731933775
  0
VERTEX
  8
0
 62
7
  6
CONTINUOUS
 10
95.1601649524
 20
135.0789097607
  0
VERTEX
  8
0
 62
7
  6
CONTINUOUS
 10
95.1653373039
 20
135.1888318045
  0
VERTEX
  8
0
 62
7
  6
CONTINUOUS
 10
95.1671693947
 20
135.3043019248
  0
SEQEND
  0
POLYLINE
  8
0
 62
7
  6
CONTINUOUS
 66
1
 70
0
  0
VERTEX
  8
0
 62
7
  6
CONTINUOUS
 10
66.6671693785
 20
131.9406265591
  0
VERTEX
  8
0
 62
7
  6
CONTINUOUS
 10
66.7925602605
 20
131.9434318422
  0
VERTEX
  8
0
 62
7
  6
CONTINUOUS
 10
66.911766909
 20
131.9512840721
  0
VERTEX
  8
0
 62
7
  6
CONTINUOUS
 10
67.0260990348
 20
131.9635676454
  0
VERTEX
  8
0
 62
7
  6
CONTINUOUS
 10
67.136876529
 20
131.9799491596
  0
VERTEX
  8
0
 62
7
  6
CONTINUOUS
 10
67.2454384612
 20
132.0003449239
  0
VERTEX
  8
0
 62
7
  6
CONTINUOUS
 10
67.3529345077
 20
132.0248584087
  0
VERTEX
  8
0
 62
7
  6
CONTINUOUS
 10
67.4594019197
 20
132.0534918259
  0
VERTEX
  8
0
 62
7
  6
CONTINUOUS
 10
67.5645236606
 20
132.0861317346
  0
VERTEX
  8
0
 62
7
  6
CONTINUOUS
 10
67.6679845446
 20
132.1226098025
  0
VERTEX
  8
0
 62
7
  6
CONTINUOUS
 10
67.7696282363
 20
132.1627965985
  0
VERTEX
  8
0
 62
7
  6
CONTINUOUS
 10
67.869328978
 20
132.20655377
  0
VERTEX
  8
0
 62
7
  6
CONTINUOUS
 10
67.9669811853
 20
132.2537535718
  0
VERTEX
  8
0
 62
7
  6
CONTINUOUS
 10
68.0628446971
 20
132.3044654176
  0
VERTEX
  8
0
 62
7
  6
CONTINUOUS
 10
68.1570450701
 20
132.3587082689
  0
VERTEX
  8
0
 62
7
  6
CONTINUOUS
 10
68.2493749678
 20
132.4163433828
  0
VERTEX
  8
0
 62
7
  6
CONTINUOUS
 10
68.3394416854
 20
132.4770964013
  0
VERTEX
  8
0
 62
7
  6
CONTINUOUS
 10
68.4266821698
 20
132.5404814872
  0
VERTEX
  8
0
 62
7
  6
CONTINUOUS
 10
68.5109867499
 20
132.6062679392
  0
VERTEX
  8
0
 62
7
  6
CONTINUOUS
 10
68.5925342566
 20
132.6744659468
  0
VERTEX
  8
0
 62
7
  6
CONTINUOUS
 10
68.6713854181
 20
132.7450185775
  0
VERTEX
  8
0
 62
7
  6
CONTINUOUS
 10
68.7475233828
 20
132.8178046397
  0
VERTEX
  8
0
 62
7
  6
CONTINUOUS
 10
68.821017188
 20
132.8927949212
  0
VERTEX
  8
0
 62
7
  6
CONTINUOUS
 10
68.8918599133
 20
132.9698714677
  0
VERTEX
  8
0
 62
7
  6
CONTINUOUS
 10
68.9597815285
 20
133.0486105301
  0
VERTEX
  8
0
 62
7
  6
CONTINUOUS
 10
69.0253040209
 20
133.1295194245
  0
VERTEX
  8
0
 62
7
  6
CONTINUOUS
 10
69.0900102866
 20
133.2147202529
  0
VERTEX
  8
0
 62
7
  6
CONTINUOUS
 10
69.1541657075
 20
133.3051012553
  0
VERTEX
  8
0
 62
7
  6
CONTINUOUS
 10
69.2166789135
 20
133.3996608396
  0
VERTEX
  8
0
 62
7
  6
CONTINUOUS
 10
69.2764657937
 20
133.4970397034
  0
VERTEX
  8
0
 62
7
  6
CONTINUOUS
 10
69.3326692842
 20
133.5958463108
  0
VERTEX
  8
0
 62
7
  6
CONTINUOUS
 10
69.3847312175
 20
133.6948097188
  0
VERTEX
  8
0
 62
7
  6
CONTINUOUS
 10
69.4322872187
 20
133.7926589332
  0
VERTEX
  8
0
 62
7
  6
CONTINUOUS
 10
69.4751137472
 20
133.8880830809
  0
VERTEX
  8
0
 62
7
  6
CONTINUOUS
 10
69.5139999141
 20
133.9819744507
  0
VERTEX
  8
0
 62
7
  6
CONTINUOUS
 10
69.5502500519
 20
134.0770456456
  0
VERTEX
  8
0
 62
7
  6
CONTINUOUS
 10
69.5840150645
 20
134.1737341509
  0
VERTEX
  8
0
 62
7
  6
CONTINUOUS
 10
69.6150030007
 20
134.2712850428
  0
VERTEX
  8
0
 62
7
  6
CONTINUOUS
 10
69.6431551063
 20
134.3694876982
  0
VERTEX
  8
0
 62
7
  6
CONTINUOUS
 10
69.6684758812
 20
134.4684154479
  0
VERTEX
  8
0
 62
7
  6
CONTINUOUS
 10
69.6909611727
 20
134.5681360939
  0
VERTEX
  8
0
 62
7
  6
CONTINUOUS
 10
69.7105713124
 20
134.6685130777
  0
VERTEX
  8
0
 62
7
  6
CONTINUOUS
 10
69.7272432419
 20
134.7692123385
  0
VERTEX
  8
0
 62
7
  6
CONTINUOUS
 10
69.7410160144
 20
134.8703870304
  0
VERTEX
  8
0
 62
7
  6
CONTINUOUS
 10
69.7519969292
 20
134.9731933775
  0
VERTEX
  8
0
 62
7
  6
CONTINUOUS
 10
69.7601649524
 20
135.0789097607
  0
VERTEX
  8
0
 62
7
  6
CONTINUOUS
 10
69.7653373039
 20
135.1888318045
  0
VERTEX
  8
0
 62
7
  6
CONTINUOUS
 10
69.7671693947
 20
135.3043019248
  0
SEQEND
  0
POLYLINE
  8
0
 62
7
  6
CONTINUOUS
 66
1
 70
0
  0
VERTEX
  8
0
 62
7
  6
CONTINUOUS
 10
41.2671693785
 20
131.9406265591
  0
VERTEX
  8
0
 62
7
  6
CONTINUOUS
 10
41.3925602605
 20
131.9434318422
  0
VERTEX
  8
0
 62
7
  6
CONTINUOUS
 10
41.5117669091
 20
131.9512840721
  0
VERTEX
  8
0
 62
7
  6
CONTINUOUS
 10
41.6260990348
 20
131.9635676454
  0
VERTEX
  8
0
 62
7
  6
CONTINUOUS
 10
41.7368765291
 20
131.9799491596
  0
VERTEX
  8
0
 62
7
  6
CONTINUOUS
 10
41.8454384612
 20
132.0003449239
  0
VERTEX
  8
0
 62
7
  6
CONTINUOUS
 10
41.9529345077
 20
132.0248584087
  0
VERTEX
  8
0
 62
7
  6
CONTINUOUS
 10
42.0594019197
 20
132.0534918259
  0
VERTEX
  8
0
 62
7
  6
CONTINUOUS
 10
42.1645236606
 20
132.0861317346
  0
VERTEX
  8
0
 62
7
  6
CONTINUOUS
 10
42.2679845446
 20
132.1226098025
  0
VERTEX
  8
0
 62
7
  6
CONTINUOUS
 10
42.3696282363
 20
132.1627965985
  0
VERTEX
  8
0
 62
7
  6
CONTINUOUS
 10
42.469328978
 20
132.20655377
  0
VERTEX
  8
0
 62
7
  6
CONTINUOUS
 10
42.5669811853
 20
132.2537535718
  0
VERTEX
  8
0
 62
7
  6
CONTINUOUS
 10
42.6628446971
 20
132.3044654176
  0
VERTEX
  8
0
 62
7
  6
CONTINUOUS
 10
42.7570450701
 20
132.3587082689
  0
VERTEX
  8
0
 62
7
  6
CONTINUOUS
 10
42.8493749678
 20
132.4163433828
  0
VERTEX
  8
0
 62
7
  6
CONTINUOUS
 10
42.9394416854
 20
132.4770964013
  0
VERTEX
  8
0
 62
7
  6
CONTINUOUS
 10
43.0266821698
 20
132.5404814872
  0
VERTEX
  8
0
 62
7
  6
CONTINUOUS
 10
43.1109867499
 20
132.6062679392
  0
VERTEX
  8
0
 62
7
  6
CONTINUOUS
 10
43.1925342566
 20
132.6744659468
  0
VERTEX
  8
0
 62
7
  6
CONTINUOUS
 10
43.2713854181
 20
132.7450185775
  0
VERTEX
  8
0
 62
7
  6
CONTINUOUS
 10
43.3475233828
 20
132.8178046397
  0
VERTEX
  8
0
 62
7
  6
CONTINUOUS
 10
43.4210171881
 20
132.8927949212
  0
VERTEX
  8
0
 62
7
  6
CONTINUOUS
 10
43.4918599133
 20
132.9698714678
  0
VERTEX
  8
0
 62
7
  6
CONTINUOUS
 10
43.5597815285
 20
133.0486105301
  0
VERTEX
  8
0
 62
7
  6
CONTINUOUS
 10
43.6253040209
 20
133.1295194245
  0
VERTEX
  8
0
 62
7
  6
CONTINUOUS
 10
43.6900102866
 20
133.2147202529
  0
VERTEX
  8
0
 62
7
  6
CONTINUOUS
 10
43.7541657075
 20
133.3051012553
  0
VERTEX
  8
0
 62
7
  6
CONTINUOUS
 10
43.8166789135
 20
133.3996608397
  0
VERTEX
  8
0
 62
7
  6
CONTINUOUS
 10
43.8764657937
 20
133.4970397034
  0
VERTEX
  8
0
 62
7
  6
CONTINUOUS
 10
43.9326692842
 20
133.5958463108
  0
VERTEX
  8
0
 62
7
  6
CONTINUOUS
 10
43.9847312175
 20
133.6948097188
  0
VERTEX
  8
0
 62
7
  6
CONTINUOUS
 10
44.0322872187
 20
133.7926589332
  0
VERTEX
  8
0
 62
7
  6
CONTINUOUS
 10
44.0751137472
 20
133.8880830809
  0
VERTEX
  8
0
 62
7
  6
CONTINUOUS
 10
44.1139999141
 20
133.9819744507
  0
VERTEX
  8
0
 62
7
  6
CONTINUOUS
 10
44.1502500519
 20
134.0770456456
  0
VERTEX
  8
0
 62
7
  6
CONTINUOUS
 10
44.1840150645
 20
134.173734151
  0
VERTEX
  8
0
 62
7
  6
CONTINUOUS
 10
44.2150030007
 20
134.2712850429
  0
VERTEX
  8
0
 62
7
  6
CONTINUOUS
 10
44.2431551063
 20
134.3694876982
  0
VERTEX
  8
0
 62
7
  6
CONTINUOUS
 10
44.2684758812
 20
134.4684154479
  0
VERTEX
  8
0
 62
7
  6
CONTINUOUS
 10
44.2909611727
 20
134.5681360939
  0
VERTEX
  8
0
 62
7
  6
CONTINUOUS
 10
44.3105713124
 20
134.6685130778
  0
VERTEX
  8
0
 62
7
  6
CONTINUOUS
 10
44.3272432419
 20
134.7692123385
  0
VERTEX
  8
0
 62
7
  6
CONTINUOUS
 10
44.3410160144
 20
134.8703870305
  0
VERTEX
  8
0
 62
7
  6
CONTINUOUS
 10
44.3519969292
 20
134.9731933776
  0
VERTEX
  8
0
 62
7
  6
CONTINUOUS
 10
44.3601649524
 20
135.0789097608
  0
VERTEX
  8
0
 62
7
  6
CONTINUOUS
 10
44.3653373039
 20
135.1888318046
  0
VERTEX
  8
0
 62
7
  6
CONTINUOUS
 10
44.3671693947
 20
135.3043019249
  0
SEQEND
  0
LINE
  8
0
 62
7
  6
CONTINUOUS
 10
320.6671693947
 20
134.8540661346
 11
306.2671693947
 21
134.8540661346
  0
LINE
  8
0
 62
7
  6
CONTINUOUS
 10
295.2671693947
 20
134.8540661346
 11
280.8671693947
 21
134.8540661346
  0
LINE
  8
0
 62
7
  6
CONTINUOUS
 10
269.8671693947
 20
134.8540661346
 11
255.4671693947
 21
134.8540661346
  0
LINE
  8
0
 62
7
  6
CONTINUOUS
 10
244.4671693947
 20
134.8540661346
 11
230.0671693947
 21
134.8540661346
  0
LINE
  8
0
 62
7
  6
CONTINUOUS
 10
219.0671693947
 20
134.8540661346
 11
204.6671693947
 21
134.8540661346
  0
LINE
  8
0
 62
7
  6
CONTINUOUS
 10
193.6671693947
 20
134.8540661346
 11
179.2671693947
 21
134.8540661346
  0
LINE
  8
0
 62
7
  6
CONTINUOUS
 10
168.2671693947
 20
134.8540661346
 11
153.8671693947
 21
134.8540661346
  0
LINE
  8
0
 62
7
  6
CONTINUOUS
 10
142.8671693947
 20
134.8540661346
 11
128.4671693947
 21
134.8540661346
  0
LINE
  8
0
 62
7
  6
CONTINUOUS
 10
117.4671693947
 20
134.8540661346
 11
103.0671693947
 21
134.8540661346
  0
LINE
  8
0
 62
7
  6
CONTINUOUS
 10
92.0671693947
 20
134.8540661346
 11
77.6671693947
 21
134.8540661346
  0
LINE
  8
0
 62
7
  6
CONTINUOUS
 10
66.6671693947
 20
134.8540661346
 11
52.2671693947
 21
134.8540661346
  0
LINE
  8
0
 62
7
  6
CONTINUOUS
 10
41.2671693947
 20
134.8540661346
 11
28.2671693947
 21
134.8540661346
  0
LINE
  8
0
 62
7
  6
CONTINUOUS
 10
329.9671693947
 20
134.8540661346
 11
331.9671693947
 21
134.8540661346
  0
POLYLINE
  8
0
 62
7
  6
CONTINUOUS
 66
1
 70
0
  0
VERTEX
  8
0
 62
7
  6
CONTINUOUS
 10
331.9671693947
 20
132.9187261008
  0
VERTEX
  8
0
 62
7
  6
CONTINUOUS
 10
331.9899954408
 20
132.9182132048
  0
VERTEX
  8
0
 62
7
  6
CONTINUOUS
 10
332.0124310727
 20
132.9167006751
  0
VERTEX
  8
0
 62
7
  6
CONTINUOUS
 10
332.0343619888
 20
132.9142304081
  0
VERTEX
  8
0
 62
7
  6
CONTINUOUS
 10
332.0556831057
 20
132.9108474294
  0
VERTEX
  8
0
 62
7
  6
CONTINUOUS
 10
332.0762988124
 20
132.9065993344
  0
VERTEX
  8
0
 62
7
  6
CONTINUOUS
 10
332.0961230099
 20
132.9015357159
  0
VERTEX
  8
0
 62
7
  6
CONTINUOUS
 10
332.1150789495
 20
132.8957076176
  0
VERTEX
  8
0
 62
7
  6
CONTINUOUS
 10
332.1330989173
 20
132.8891670377
  0
VERTEX
  8
0
 62
7
  6
CONTINUOUS
 10
332.1501237593
 20
132.8819665173
  0
VERTEX
  8
0
 62
7
  6
CONTINUOUS
 10
332.1661024081
 20
132.8741587833
  0
VERTEX
  8
0
 62
7
  6
CONTINUOUS
 10
332.1809913401
 20
132.8657964767
  0
VERTEX
  8
0
 62
7
  6
CONTINUOUS
 10
332.1947540492
 20
132.8569319455
  0
VERTEX
  8
0
 62
7
  6
CONTINUOUS
 10
332.2073605558
 20
132.8476170897
  0
VERTEX
  8
0
 62
7
  6
CONTINUOUS
 10
332.218786964
 20
132.8379032476
  0
VERTEX
  8
0
 62
7
  6
CONTINUOUS
 10
332.2290150707
 20
132.8278411112
  0
VERTEX
  8
0
 62
7
  6
CONTINUOUS
 10
332.2380320292
 20
132.8174806602
  0
VERTEX
  8
0
 62
7
  6
CONTINUOUS
 10
332.2458300624
 20
132.8068711062
  0
VERTEX
  8
0
 62
7
  6
CONTINUOUS
 10
332.2524062187
 20
132.7960608402
  0
VERTEX
  8
0
 62
7
  6
CONTINUOUS
 10
332.2577621695
 20
132.7850973696
  0
VERTEX
  8
0
 62
7
  6
CONTINUOUS
 10
332.2619040273
 20
132.7740272518
  0
VERTEX
  8
0
 62
7
  6
CONTINUOUS
 10
332.264842183
 20
132.7628960136
  0
VERTEX
  8
0
 62
7
  6
CONTINUOUS
 10
332.2665911483
 20
132.7517480584
  0
VERTEX
  8
0
 62
7
  6
CONTINUOUS
 10
332.2671693947
 20
132.7406265591
  0
SEQEND
  0
POLYLINE
  8
0
 62
7
  6
CONTINUOUS
 66
1
 70
0
  0
VERTEX
  8
0
 62
7
  6
CONTINUOUS
 10
329.7694522751
 20
132.9187260963
  0
VERTEX
  8
0
 62
7
  6
CONTINUOUS
 10
329.7277302238
 20
132.9204139984
  0
VERTEX
  8
0
 62
7
  6
CONTINUOUS
 10
329.6857499874
 20
132.9255144197
  0
VERTEX
  8
0
 62
7
  6
CONTINUOUS
 10
329.6437912308
 20
132.9340662513
  0
VERTEX
  8
0
 62
7
  6
CONTINUOUS
 10
329.6021222112
 20
132.9460902074
  0
VERTEX
  8
0
 62
7
  6
CONTINUOUS
 10
329.5609868941
 20
132.9615978052
  0
VERTEX
  8
0
 62
7
  6
CONTINUOUS
 10
329.5206320343
 20
132.9805844818
  0
VERTEX
  8
0
 62
7
  6
CONTINUOUS
 10
329.4811487452
 20
133.0031180293
  0
VERTEX
  8
0
 62
7
  6
CONTINUOUS
 10
329.4424248999
 20
133.0294415616
  0
VERTEX
  8
0
 62
7
  6
CONTINUOUS
 10
329.4044366718
 20
133.0598214862
  0
VERTEX
  8
0
 62
7
  6
CONTINUOUS
 10
329.367172483
 20
133.0945144892
  0
SEQEND
  0
LINE
  8
0
 62
7
  6
CONTINUOUS
 10
171.2225203126
 20
151.8626354063
 11
171.13604991
 21
152.083395276
  0
LINE
  8
0
 62
7
  6
CONTINUOUS
 10
189.0118000681
 20
112.59533927
 11
189.0982976455
 21
112.3744943916
  0
LINE
  8
0
 62
7
  6
CONTINUOUS
 10
192.6465078699
 20
106.33147893
 11
190.0360411439
 21
112.9965003581
  0
LINE
  8
0
 62
7
  6
CONTINUOUS
 10
189.1671693947
 20
112.0098024934
 11
189.1671693947
 21
110.4787261008
  0
LINE
  8
0
 62
7
  6
CONTINUOUS
 10
189.9671693947
 20
127.4287261008
 11
189.9671693947
 21
113.3611922563
  0
LINE
  8
0
 62
7
  6
CONTINUOUS
 10
192.6671693947
 20
106.2220713605
 11
192.6671693947
 21
101.5287261008
  0
LINE
  8
0
 62
7
  6
CONTINUOUS
 10
192.9671693947
 20
158.2353845751
 11
192.9671693947
 21
162.9287261008
  0
LINE
  8
0
 62
7
  6
CONTINUOUS
 10
195.6671693947
 20
151.0967354207
 11
195.6671693947
 21
135.3043012425
  0
LINE
  8
0
 62
7
  6
CONTINUOUS
 10
196.4671693947
 20
152.4481095549
 11
196.4671693947
 21
153.9787261008
  0
LINE
  8
0
 62
7
  6
CONTINUOUS
 10
196.7671693947
 20
135.3043019249
 11
196.7671693947
 21
151.0967354207
  0
LINE
  8
0
 62
7
  6
CONTINUOUS
 10
180.2878309195
 20
106.33147893
 11
182.8982976455
 21
112.9965003581
  0
LINE
  8
0
 62
7
  6
CONTINUOUS
 10
183.8360411439
 20
112.3744943916
 11
183.9225387213
 21
112.59533927
  0
LINE
  8
0
 62
7
  6
CONTINUOUS
 10
201.7982888794
 20
152.083395276
 11
201.7118184769
 21
151.8626354063
  0
LINE
  8
0
 62
7
  6
CONTINUOUS
 10
202.73604991
 20
151.4614496996
 11
205.3465052401
 21
158.1259702914
  0
POLYLINE
  8
0
 62
7
  6
CONTINUOUS
 66
1
 70
0
  0
VERTEX
  8
0
 62
7
  6
CONTINUOUS
 10
201.5671693947
 20
135.304302492
  0
VERTEX
  8
0
 62
7
  6
CONTINUOUS
 10
201.5690249115
 20
135.1887359964
  0
VERTEX
  8
0
 62
7
  6
CONTINUOUS
 10
201.5742550421
 20
135.0787917668
  0
VERTEX
  8
0
 62
7
  6
CONTINUOUS
 10
201.5825035458
 20
134.9730484844
  0
VERTEX
  8
0
 62
7
  6
CONTINUOUS
 10
201.593573899
 20
134.8701723016
  0
VERTEX
  8
0
 62
7
  6
CONTINUOUS
 10
201.6074418011
 20
134.7688521425
  0
VERTEX
  8
0
 62
7
  6
CONTINUOUS
 10
201.6242205563
 20
134.667841596
  0
VERTEX
  8
0
 62
7
  6
CONTINUOUS
 10
201.6439275563
 20
134.5670548424
  0
VERTEX
  8
0
 62
7
  6
CONTINUOUS
 10
201.6664846402
 20
134.4669696033
  0
VERTEX
  8
0
 62
7
  6
CONTINUOUS
 10
201.6918845603
 20
134.3676444606
  0
VERTEX
  8
0
 62
7
  6
CONTINUOUS
 10
201.7201353514
 20
134.2690267567
  0
VERTEX
  8
0
 62
7
  6
CONTINUOUS
 10
201.7511931001
 20
134.1712496493
  0
VERTEX
  8
0
 62
7
  6
CONTINUOUS
 10
201.7850301937
 20
134.0744431714
  0
VERTEX
  8
0
 62
7
  6
CONTINUOUS
 10
201.8216866032
 20
133.9785570049
  0
VERTEX
  8
0
 62
7
  6
CONTINUOUS
 10
201.8611563981
 20
133.8836851247
  0
VERTEX
  8
0
 62
7
  6
CONTINUOUS
 10
201.9034045088
 20
133.7900046698
  0
VERTEX
  8
0
 62
7
  6
CONTINUOUS
 10
201.9484946289
 20
133.6974372079
  0
VERTEX
  8
0
 62
7
  6
CONTINUOUS
 10
201.9965101112
 20
133.605886089
  0
VERTEX
  8
0
 62
7
  6
CONTINUOUS
 10
202.0472323664
 20
133.5158213573
  0
VERTEX
  8
0
 62
7
  6
CONTINUOUS
 10
202.1004113821
 20
133.4276424507
  0
VERTEX
  8
0
 62
7
  6
CONTINUOUS
 10
202.1578767592
 20
133.3385643131
  0
VERTEX
  8
0
 62
7
  6
CONTINUOUS
 10
202.2229020794
 20
133.2445451712
  0
VERTEX
  8
0
 62
7
  6
CONTINUOUS
 10
202.2992129276
 20
133.1422146997
  0
VERTEX
  8
0
 62
7
  6
CONTINUOUS
 10
202.3872108688
 20
133.0335782254
  0
VERTEX
  8
0
 62
7
  6
CONTINUOUS
 10
202.4808032346
 20
132.9276253724
  0
VERTEX
  8
0
 62
7
  6
CONTINUOUS
 10
202.5724116021
 20
132.8323083555
  0
VERTEX
  8
0
 62
7
  6
CONTINUOUS
 10
202.658922967
 20
132.7490291934
  0
VERTEX
  8
0
 62
7
  6
CONTINUOUS
 10
202.7423604459
 20
132.6743049684
  0
VERTEX
  8
0
 62
7
  6
CONTINUOUS
 10
202.8254340609
 20
132.6049010604
  0
VERTEX
  8
0
 62
7
  6
CONTINUOUS
 10
202.9103142845
 20
132.5387521213
  0
VERTEX
  8
0
 62
7
  6
CONTINUOUS
 10
202.9972943771
 20
132.4756265017
  0
VERTEX
  8
0
 62
7
  6
CONTINUOUS
 10
203.0863587444
 20
132.4155645947
  0
VERTEX
  8
0
 62
7
  6
CONTINUOUS
 10
203.1773394808
 20
132.3587185376
  0
VERTEX
  8
0
 62
7
  6
CONTINUOUS
 10
203.2703501525
 20
132.3050888106
  0
VERTEX
  8
0
 62
7
  6
CONTINUOUS
 10
203.3657157334
 20
132.2545776443
  0
VERTEX
  8
0
 62
7
  6
CONTINUOUS
 10
203.4633953117
 20
132.2073274344
  0
VERTEX
  8
0
 62
7
  6
CONTINUOUS
 10
203.5633005582
 20
132.1634709921
  0
VERTEX
  8
0
 62
7
  6
CONTINUOUS
 10
203.6650833556
 20
132.1232164651
  0
VERTEX
  8
0
 62
7
  6
CONTINUOUS
 10
203.7684503466
 20
132.0867258678
  0
VERTEX
  8
0
 62
7
  6
CONTINUOUS
 10
203.87331224
 20
132.0540718583
  0
VERTEX
  8
0
 62
7
  6
CONTINUOUS
 10
203.9795914252
 20
132.0253375799
  0
VERTEX
  8
0
 62
7
  6
CONTINUOUS
 10
204.0868492813
 20
132.0006943863
  0
VERTEX
  8
0
 62
7
  6
CONTINUOUS
 10
204.1952196455
 20
131.9801772649
  0
VERTEX
  8
0
 62
7
  6
CONTINUOUS
 10
204.3059775034
 20
131.9636864665
  0
VERTEX
  8
0
 62
7
  6
CONTINUOUS
 10
204.4205800843
 20
131.9513265951
  0
VERTEX
  8
0
 62
7
  6
CONTINUOUS
 10
204.5404610758
 20
131.9434387473
  0
VERTEX
  8
0
 62
7
  6
CONTINUOUS
 10
204.6671694831
 20
131.9406265591
  0
SEQEND
  0
LINE
  8
0
 62
7
  6
CONTINUOUS
 10
201.5671693947
 20
151.0967354207
 11
201.5671693947
 21
135.304302492
  0
LINE
  8
0
 62
7
  6
CONTINUOUS
 10
201.8671693947
 20
153.9787261008
 11
201.8671693947
 21
152.4481095549
  0
LINE
  8
0
 62
7
  6
CONTINUOUS
 10
202.6671693947
 20
151.0967354207
 11
202.6671693947
 21
135.3043012425
  0
LINE
  8
0
 62
7
  6
CONTINUOUS
 10
205.3671693947
 20
162.9287261008
 11
205.3671693947
 21
158.2353845751
  0
LINE
  8
0
 62
7
  6
CONTINUOUS
 10
205.6671693947
 20
101.5287261008
 11
205.6671693947
 21
106.2220713605
  0
LINE
  8
0
 62
7
  6
CONTINUOUS
 10
208.3671693947
 20
127.4287261008
 11
208.3671693947
 21
113.3611922563
  0
LINE
  8
0
 62
7
  6
CONTINUOUS
 10
209.1671693947
 20
110.4787261008
 11
209.1671693947
 21
112.0098024934
  0
LINE
  8
0
 62
7
  6
CONTINUOUS
 10
209.4671693947
 20
113.3611922563
 11
209.4671693947
 21
127.4287261008
  0
LINE
  8
0
 62
7
  6
CONTINUOUS
 10
45.0671693947
 20
154.9787261008
 11
48.4671693947
 21
154.9787261008
  0
LINE
  8
0
 62
7
  6
CONTINUOUS
 10
70.4671693947
 20
154.9787261008
 11
73.8671693947
 21
154.9787261008
  0
LINE
  8
0
 62
7
  6
CONTINUOUS
 10
95.8671693947
 20
154.9787261008
 11
99.2671693947
 21
154.9787261008
  0
LINE
  8
0
 62
7
  6
CONTINUOUS
 10
121.2671693947
 20
154.9787261008
 11
124.6671693947
 21
154.9787261008
  0
LINE
  8
0
 62
7
  6
CONTINUOUS
 10
146.6671693947
 20
154.9787261008
 11
150.0671693947
 21
154.9787261008
  0
LINE
  8
0
 62
7
  6
CONTINUOUS
 10
172.0671693947
 20
154.9787261008
 11
175.4671693947
 21
154.9787261008
  0
LINE
  8
0
 62
7
  6
CONTINUOUS
 10
197.4671693947
 20
154.9787261008
 11
200.8671693947
 21
154.9787261008
  0
LINE
  8
0
 62
7
  6
CONTINUOUS
 10
222.8671693947
 20
154.9787261008
 11
226.2671693947
 21
154.9787261008
  0
LINE
  8
0
 62
7
  6
CONTINUOUS
 10
248.2671693947
 20
154.9787261008
 11
251.6671693947
 21
154.9787261008
  0
LINE
  8
0
 62
7
  6
CONTINUOUS
 10
273.6671693947
 20
154.9787261008
 11
277.0671693947
 21
154.9787261008
  0
LINE
  8
0
 62
7
  6
CONTINUOUS
 10
299.0671693947
 20
154.9787261008
 11
302.4671693947
 21
154.9787261008
  0
LINE
  8
0
 62
7
  6
CONTINUOUS
 10
324.4671693947
 20
154.9787261008
 11
327.8671693947
 21
154.9787261008
  0
LINE
  8
DEFAULT_1
 62
2
  6
CENTER
 10
14.6578947368
 20
157.6287261008
 11
335.4605263158
 21
157.6287261008
  0
LINE
  8
0
 62
7
  6
CONTINUOUS
 10
192.9878335493
 20
158.1259702914
 11
195.5982888794
 21
151.4614496996
  0
LINE
  8
0
 62
7
  6
CONTINUOUS
 10
196.6225203126
 20
151.8626354063
 11
196.53604991
 21
152.083395276
  0
LINE
  8
0
 62
7
  6
CONTINUOUS
 10
214.4118000681
 20
112.59533927
 11
214.4982976455
 21
112.3744943916
  0
LINE
  8
0
 62
7
  6
CONTINUOUS
 10
218.0465078699
 20
106.33147893
 11
215.4360411439
 21
112.9965003581
  0
LINE
  8
0
 62
7
  6
CONTINUOUS
 10
214.2671693947
 20
127.4287261008
 11
214.2671693947
 21
113.3611922563
  0
LINE
  8
0
 62
7
  6
CONTINUOUS
 10
214.5671693947
 20
112.0098024934
 11
214.5671693947
 21
110.4787261008
  0
LINE
  8
0
 62
7
  6
CONTINUOUS
 10
215.3671693947
 20
127.4287261008
 11
215.3671693947
 21
113.3611922563
  0
LINE
  8
0
 62
7
  6
CONTINUOUS
 10
218.0671693947
 20
106.2220713605
 11
218.0671693947
 21
101.5287261008
  0
LINE
  8
0
 62
7
  6
CONTINUOUS
 10
218.3671693947
 20
158.2353845751
 11
218.3671693947
 21
162.9287261008
  0
LINE
  8
0
 62
7
  6
CONTINUOUS
 10
205.6878309195
 20
106.33147893
 11
208.2982976455
 21
112.9965003581
  0
LINE
  8
0
 62
7
  6
CONTINUOUS
 10
209.2360411439
 20
112.3744943916
 11
209.3225387213
 21
112.59533927
  0
LINE
  8
0
 62
7
  6
CONTINUOUS
 10
227.1982888794
 20
152.083395276
 11
227.1118184769
 21
151.8626354063
  0
LINE
  8
0
 62
7
  6
CONTINUOUS
 10
228.13604991
 20
151.4614496996
 11
230.7465052401
 21
158.1259702914
  0
LINE
  8
0
 62
7
  6
CONTINUOUS
 10
329.6671693947
 20
165.6287261008
 11
322.6671693947
 21
165.6287261008
  0
LINE
  8
0
 62
7
  6
CONTINUOUS
 10
304.2671693947
 20
165.6287261008
 11
297.2671693947
 21
165.6287261008
  0
LINE
  8
0
 62
7
  6
CONTINUOUS
 10
278.8671693947
 20
165.6287261008
 11
271.8671693947
 21
165.6287261008
  0
LINE
  8
0
 62
7
  6
CONTINUOUS
 10
253.4671693947
 20
165.6287261008
 11
246.4671693947
 21
165.6287261008
  0
LINE
  8
0
 62
7
  6
CONTINUOUS
 10
228.0671693947
 20
165.6287261008
 11
221.0671693947
 21
165.6287261008
  0
LINE
  8
0
 62
7
  6
CONTINUOUS
 10
202.6671693947
 20
165.6287261008
 11
195.6671693947
 21
165.6287261008
  0
LINE
  8
0
 62
7
  6
CONTINUOUS
 10
177.2671693947
 20
165.6287261008
 11
170.2671693947
 21
165.6287261008
  0
LINE
  8
0
 62
7
  6
CONTINUOUS
 10
151.8671693947
 20
165.6287261008
 11
144.8671693947
 21
165.6287261008
  0
LINE
  8
0
 62
7
  6
CONTINUOUS
 10
126.4671693947
 20
165.6287261008
 11
119.4671693947
 21
165.6287261008
  0
LINE
  8
0
 62
7
  6
CONTINUOUS
 10
101.0671693947
 20
165.6287261008
 11
94.0671693947
 21
165.6287261008
  0
LINE
  8
0
 62
7
  6
CONTINUOUS
 10
75.6671693947
 20
165.6287261008
 11
68.6671693947
 21
165.6287261008
  0
LINE
  8
0
 62
7
  6
CONTINUOUS
 10
50.2671693947
 20
165.6287261008
 11
43.2671693947
 21
165.6287261008
  0
POLYLINE
  8
0
 62
7
  6
CONTINUOUS
 66
1
 70
0
  0
VERTEX
  8
0
 62
7
  6
CONTINUOUS
 10
226.9671693947
 20
135.304302492
  0
VERTEX
  8
0
 62
7
  6
CONTINUOUS
 10
226.9690249115
 20
135.1887359964
  0
VERTEX
  8
0
 62
7
  6
CONTINUOUS
 10
226.9742550421
 20
135.0787917669
  0
VERTEX
  8
0
 62
7
  6
CONTINUOUS
 10
226.9825035458
 20
134.9730484845
  0
VERTEX
  8
0
 62
7
  6
CONTINUOUS
 10
226.993573899
 20
134.8701723017
  0
VERTEX
  8
0
 62
7
  6
CONTINUOUS
 10
227.007441801
 20
134.7688521425
  0
VERTEX
  8
0
 62
7
  6
CONTINUOUS
 10
227.0242205563
 20
134.667841596
  0
VERTEX
  8
0
 62
7
  6
CONTINUOUS
 10
227.0439275563
 20
134.5670548424
  0
VERTEX
  8
0
 62
7
  6
CONTINUOUS
 10
227.0664846402
 20
134.4669696033
  0
VERTEX
  8
0
 62
7
  6
CONTINUOUS
 10
227.0918845603
 20
134.3676444606
  0
VERTEX
  8
0
 62
7
  6
CONTINUOUS
 10
227.1201353514
 20
134.2690267567
  0
VERTEX
  8
0
 62
7
  6
CONTINUOUS
 10
227.1511931001
 20
134.1712496493
  0
VERTEX
  8
0
 62
7
  6
CONTINUOUS
 10
227.1850301937
 20
134.0744431714
  0
VERTEX
  8
0
 62
7
  6
CONTINUOUS
 10
227.2216866032
 20
133.9785570049
  0
VERTEX
  8
0
 62
7
  6
CONTINUOUS
 10
227.261156398
 20
133.8836851248
  0
VERTEX
  8
0
 62
7
  6
CONTINUOUS
 10
227.3034045088
 20
133.7900046698
  0
VERTEX
  8
0
 62
7
  6
CONTINUOUS
 10
227.3484946289
 20
133.6974372079
  0
VERTEX
  8
0
 62
7
  6
CONTINUOUS
 10
227.3965101112
 20
133.605886089
  0
VERTEX
  8
0
 62
7
  6
CONTINUOUS
 10
227.4472323663
 20
133.5158213573
  0
VERTEX
  8
0
 62
7
  6
CONTINUOUS
 10
227.5004113821
 20
133.4276424507
  0
VERTEX
  8
0
 62
7
  6
CONTINUOUS
 10
227.5578767592
 20
133.3385643131
  0
VERTEX
  8
0
 62
7
  6
CONTINUOUS
 10
227.6229020793
 20
133.2445451712
  0
VERTEX
  8
0
 62
7
  6
CONTINUOUS
 10
227.6992129276
 20
133.1422146998
  0
VERTEX
  8
0
 62
7
  6
CONTINUOUS
 10
227.7872108688
 20
133.0335782254
  0
VERTEX
  8
0
 62
7
  6
CONTINUOUS
 10
227.8808032346
 20
132.9276253724
  0
VERTEX
  8
0
 62
7
  6
CONTINUOUS
 10
227.9724116021
 20
132.8323083555
  0
VERTEX
  8
0
 62
7
  6
CONTINUOUS
 10
228.058922967
 20
132.7490291934
  0
VERTEX
  8
0
 62
7
  6
CONTINUOUS
 10
228.1423604458
 20
132.6743049684
  0
VERTEX
  8
0
 62
7
  6
CONTINUOUS
 10
228.2254340608
 20
132.6049010604
  0
VERTEX
  8
0
 62
7
  6
CONTINUOUS
 10
228.3103142845
 20
132.5387521213
  0
VERTEX
  8
0
 62
7
  6
CONTINUOUS
 10
228.3972943771
 20
132.4756265017
  0
VERTEX
  8
0
 62
7
  6
CONTINUOUS
 10
228.4863587444
 20
132.4155645947
  0
VERTEX
  8
0
 62
7
  6
CONTINUOUS
 10
228.5773394808
 20
132.3587185376
  0
VERTEX
  8
0
 62
7
  6
CONTINUOUS
 10
228.6703501525
 20
132.3050888106
  0
VERTEX
  8
0
 62
7
  6
CONTINUOUS
 10
228.7657157334
 20
132.2545776443
  0
VERTEX
  8
0
 62
7
  6
CONTINUOUS
 10
228.8633953117
 20
132.2073274344
  0
VERTEX
  8
0
 62
7
  6
CONTINUOUS
 10
228.9633005582
 20
132.1634709921
  0
VERTEX
  8
0
 62
7
  6
CONTINUOUS
 10
229.0650833556
 20
132.1232164651
  0
VERTEX
  8
0
 62
7
  6
CONTINUOUS
 10
229.1684503466
 20
132.0867258678
  0
VERTEX
  8
0
 62
7
  6
CONTINUOUS
 10
229.27331224
 20
132.0540718583
  0
VERTEX
  8
0
 62
7
  6
CONTINUOUS
 10
229.3795914252
 20
132.0253375799
  0
VERTEX
  8
0
 62
7
  6
CONTINUOUS
 10
229.4868492813
 20
132.0006943863
  0
VERTEX
  8
0
 62
7
  6
CONTINUOUS
 10
229.5952196455
 20
131.9801772649
  0
VERTEX
  8
0
 62
7
  6
CONTINUOUS
 10
229.7059775034
 20
131.9636864665
  0
VERTEX
  8
0
 62
7
  6
CONTINUOUS
 10
229.8205800843
 20
131.9513265951
  0
VERTEX
  8
0
 62
7
  6
CONTINUOUS
 10
229.9404610758
 20
131.9434387473
  0
VERTEX
  8
0
 62
7
  6
CONTINUOUS
 10
230.0671694831
 20
131.9406265591
  0
SEQEND
  0
LINE
  8
0
 62
7
  6
CONTINUOUS
 10
221.0671693947
 20
151.0967354207
 11
221.0671693947
 21
135.3043012425
  0
LINE
  8
0
 62
7
  6
CONTINUOUS
 10
221.8671693947
 20
152.4481095549
 11
221.8671693947
 21
153.9787261008
  0
LINE
  8
0
 62
7
  6
CONTINUOUS
 10
222.1671693947
 20
135.3043019248
 11
222.1671693947
 21
151.0967354207
  0
LINE
  8
0
 62
7
  6
CONTINUOUS
 10
226.9671693947
 20
151.0967354207
 11
226.9671693947
 21
135.304302492
  0
LINE
  8
0
 62
7
  6
CONTINUOUS
 10
227.2671693947
 20
153.9787261008
 11
227.2671693947
 21
152.4481095549
  0
LINE
  8
0
 62
7
  6
CONTINUOUS
 10
228.0671693947
 20
151.0967354207
 11
228.0671693947
 21
135.3043012425
  0
LINE
  8
0
 62
7
  6
CONTINUOUS
 10
230.7671693947
 20
162.9287261008
 11
230.7671693947
 21
158.2353845751
  0
LINE
  8
0
 62
7
  6
CONTINUOUS
 10
231.0671693947
 20
101.5287261008
 11
231.0671693947
 21
106.2220713605
  0
LINE
  8
0
 62
7
  6
CONTINUOUS
 10
218.3878335493
 20
158.1259702914
 11
220.9982888794
 21
151.4614496996
  0
LINE
  8
0
 62
7
  6
CONTINUOUS
 10
222.0225203126
 20
151.8626354063
 11
221.93604991
 21
152.083395276
  0
LINE
  8
0
 62
7
  6
CONTINUOUS
 10
239.8118000681
 20
112.59533927
 11
239.8982976455
 21
112.3744943916
  0
LINE
  8
0
 62
7
  6
CONTINUOUS
 10
243.4465078699
 20
106.33147893
 11
240.8360411439
 21
112.9965003581
  0
LINE
  8
0
 62
7
  6
CONTINUOUS
 10
233.7671693947
 20
127.4287261008
 11
233.7671693947
 21
113.3611922563
  0
LINE
  8
0
 62
7
  6
CONTINUOUS
 10
234.5671693947
 20
110.4787261008
 11
234.5671693947
 21
112.0098024934
  0
LINE
  8
0
 62
7
  6
CONTINUOUS
 10
234.8671693947
 20
113.3611922563
 11
234.8671693947
 21
127.4287261008
  0
LINE
  8
0
 62
7
  6
CONTINUOUS
 10
239.6671693947
 20
127.4287261008
 11
239.6671693947
 21
113.3611922563
  0
LINE
  8
0
 62
7
  6
CONTINUOUS
 10
239.9671693947
 20
112.0098024934
 11
239.9671693947
 21
110.4787261008
  0
LINE
  8
0
 62
7
  6
CONTINUOUS
 10
240.7671693947
 20
127.4287261008
 11
240.7671693947
 21
113.3611922563
  0
LINE
  8
0
 62
7
  6
CONTINUOUS
 10
231.0878309195
 20
106.33147893
 11
233.6982976455
 21
112.9965003581
  0
LINE
  8
0
 62
7
  6
CONTINUOUS
 10
234.6360411439
 20
112.3744943916
 11
234.7225387213
 21
112.59533927
  0
LINE
  8
0
 62
7
  6
CONTINUOUS
 10
252.5982888794
 20
152.083395276
 11
252.5118184769
 21
151.8626354063
  0
LINE
  8
0
 62
7
  6
CONTINUOUS
 10
253.53604991
 20
151.4614496996
 11
256.1465052401
 21
158.1259702914
  0
POLYLINE
  8
0
 62
7
  6
CONTINUOUS
 66
1
 70
0
  0
VERTEX
  8
0
 62
7
  6
CONTINUOUS
 10
252.3671693947
 20
135.3043024919
  0
VERTEX
  8
0
 62
7
  6
CONTINUOUS
 10
252.3690249115
 20
135.1887359963
  0
VERTEX
  8
0
 62
7
  6
CONTINUOUS
 10
252.3742550421
 20
135.0787917667
  0
VERTEX
  8
0
 62
7
  6
CONTINUOUS
 10
252.3825035458
 20
134.9730484843
  0
VERTEX
  8
0
 62
7
  6
CONTINUOUS
 10
252.393573899
 20
134.8701723015
  0
VERTEX
  8
0
 62
7
  6
CONTINUOUS
 10
252.4074418011
 20
134.7688521424
  0
VERTEX
  8
0
 62
7
  6
CONTINUOUS
 10
252.4242205563
 20
134.6678415959
  0
VERTEX
  8
0
 62
7
  6
CONTINUOUS
 10
252.4439275563
 20
134.5670548423
  0
VERTEX
  8
0
 62
7
  6
CONTINUOUS
 10
252.4664846402
 20
134.4669696032
  0
VERTEX
  8
0
 62
7
  6
CONTINUOUS
 10
252.4918845603
 20
134.3676444605
  0
VERTEX
  8
0
 62
7
  6
CONTINUOUS
 10
252.5201353514
 20
134.2690267566
  0
VERTEX
  8
0
 62
7
  6
CONTINUOUS
 10
252.5511931001
 20
134.1712496492
  0
VERTEX
  8
0
 62
7
  6
CONTINUOUS
 10
252.5850301937
 20
134.0744431713
  0
VERTEX
  8
0
 62
7
  6
CONTINUOUS
 10
252.6216866032
 20
133.9785570048
  0
VERTEX
  8
0
 62
7
  6
CONTINUOUS
 10
252.6611563981
 20
133.8836851247
  0
VERTEX
  8
0
 62
7
  6
CONTINUOUS
 10
252.7034045088
 20
133.7900046697
  0
VERTEX
  8
0
 62
7
  6
CONTINUOUS
 10
252.7484946289
 20
133.6974372078
  0
VERTEX
  8
0
 62
7
  6
CONTINUOUS
 10
252.7965101112
 20
133.6058860889
  0
VERTEX
  8
0
 62
7
  6
CONTINUOUS
 10
252.8472323664
 20
133.5158213572
  0
VERTEX
  8
0
 62
7
  6
CONTINUOUS
 10
252.9004113822
 20
133.4276424506
  0
VERTEX
  8
0
 62
7
  6
CONTINUOUS
 10
252.9578767592
 20
133.338564313
  0
VERTEX
  8
0
 62
7
  6
CONTINUOUS
 10
253.0229020794
 20
133.2445451711
  0
VERTEX
  8
0
 62
7
  6
CONTINUOUS
 10
253.0992129276
 20
133.1422146997
  0
VERTEX
  8
0
 62
7
  6
CONTINUOUS
 10
253.1872108688
 20
133.0335782254
  0
VERTEX
  8
0
 62
7
  6
CONTINUOUS
 10
253.2808032346
 20
132.9276253724
  0
VERTEX
  8
0
 62
7
  6
CONTINUOUS
 10
253.3724116021
 20
132.8323083555
  0
VERTEX
  8
0
 62
7
  6
CONTINUOUS
 10
253.458922967
 20
132.7490291934
  0
VERTEX
  8
0
 62
7
  6
CONTINUOUS
 10
253.5423604459
 20
132.6743049683
  0
VERTEX
  8
0
 62
7
  6
CONTINUOUS
 10
253.6254340609
 20
132.6049010604
  0
VERTEX
  8
0
 62
7
  6
CONTINUOUS
 10
253.7103142845
 20
132.5387521212
  0
VERTEX
  8
0
 62
7
  6
CONTINUOUS
 10
253.7972943772
 20
132.4756265017
  0
VERTEX
  8
0
 62
7
  6
CONTINUOUS
 10
253.8863587444
 20
132.4155645947
  0
VERTEX
  8
0
 62
7
  6
CONTINUOUS
 10
253.9773394808
 20
132.3587185376
  0
VERTEX
  8
0
 62
7
  6
CONTINUOUS
 10
254.0703501526
 20
132.3050888106
  0
VERTEX
  8
0
 62
7
  6
CONTINUOUS
 10
254.1657157335
 20
132.2545776443
  0
VERTEX
  8
0
 62
7
  6
CONTINUOUS
 10
254.2633953118
 20
132.2073274344
  0
VERTEX
  8
0
 62
7
  6
CONTINUOUS
 10
254.3633005582
 20
132.1634709921
  0
VERTEX
  8
0
 62
7
  6
CONTINUOUS
 10
254.4650833556
 20
132.1232164651
  0
VERTEX
  8
0
 62
7
  6
CONTINUOUS
 10
254.5684503466
 20
132.0867258678
  0
VERTEX
  8
0
 62
7
  6
CONTINUOUS
 10
254.67331224
 20
132.0540718583
  0
VERTEX
  8
0
 62
7
  6
CONTINUOUS
 10
254.7795914252
 20
132.0253375799
  0
VERTEX
  8
0
 62
7
  6
CONTINUOUS
 10
254.8868492814
 20
132.0006943863
  0
VERTEX
  8
0
 62
7
  6
CONTINUOUS
 10
254.9952196455
 20
131.9801772649
  0
VERTEX
  8
0
 62
7
  6
CONTINUOUS
 10
255.1059775034
 20
131.9636864665
  0
VERTEX
  8
0
 62
7
  6
CONTINUOUS
 10
255.2205800843
 20
131.9513265951
  0
VERTEX
  8
0
 62
7
  6
CONTINUOUS
 10
255.3404610758
 20
131.9434387473
  0
VERTEX
  8
0
 62
7
  6
CONTINUOUS
 10
255.4671694831
 20
131.9406265591
  0
SEQEND
  0
LINE
  8
0
 62
7
  6
CONTINUOUS
 10
243.4671693947
 20
106.2220713605
 11
243.4671693947
 21
101.5287261008
  0
LINE
  8
0
 62
7
  6
CONTINUOUS
 10
243.7671693947
 20
158.2353845751
 11
243.7671693947
 21
162.9287261008
  0
LINE
  8
0
 62
7
  6
CONTINUOUS
 10
246.4671693947
 20
151.0967354207
 11
246.4671693947
 21
135.3043012425
  0
LINE
  8
0
 62
7
  6
CONTINUOUS
 10
247.2671693947
 20
152.4481095549
 11
247.2671693947
 21
153.9787261008
  0
LINE
  8
0
 62
7
  6
CONTINUOUS
 10
247.5671693947
 20
135.3043019248
 11
247.5671693947
 21
151.0967354207
  0
LINE
  8
0
 62
7
  6
CONTINUOUS
 10
252.3671693947
 20
151.0967354207
 11
252.3671693947
 21
135.3043024919
  0
LINE
  8
0
 62
7
  6
CONTINUOUS
 10
243.7878335493
 20
158.1259702914
 11
246.3982888794
 21
151.4614496996
  0
LINE
  8
0
 62
7
  6
CONTINUOUS
 10
247.4225203126
 20
151.8626354063
 11
247.33604991
 21
152.083395276
  0
LINE
  8
0
 62
7
  6
CONTINUOUS
 10
265.2118000681
 20
112.59533927
 11
265.2982976455
 21
112.3744943916
  0
LINE
  8
0
 62
7
  6
CONTINUOUS
 10
252.6671693947
 20
153.9787261008
 11
252.6671693947
 21
152.4481095549
  0
LINE
  8
0
 62
7
  6
CONTINUOUS
 10
253.4671693947
 20
151.0967354207
 11
253.4671693947
 21
135.3043012425
  0
LINE
  8
0
 62
7
  6
CONTINUOUS
 10
256.1671693947
 20
162.9287261008
 11
256.1671693947
 21
158.2353845751
  0
LINE
  8
0
 62
7
  6
CONTINUOUS
 10
256.4671693947
 20
101.5287261008
 11
256.4671693947
 21
106.2220713605
  0
LINE
  8
0
 62
7
  6
CONTINUOUS
 10
259.1671693947
 20
127.4287261008
 11
259.1671693947
 21
113.3611922563
  0
LINE
  8
0
 62
7
  6
CONTINUOUS
 10
259.9671693947
 20
110.4787261008
 11
259.9671693947
 21
112.0098024934
  0
LINE
  8
0
 62
7
  6
CONTINUOUS
 10
260.2671693947
 20
113.3611922563
 11
260.2671693947
 21
127.4287261008
  0
LINE
  8
0
 62
7
  6
CONTINUOUS
 10
256.4878309195
 20
106.33147893
 11
259.0982976455
 21
112.9965003581
  0
LINE
  8
0
 62
7
  6
CONTINUOUS
 10
260.0360411439
 20
112.3744943916
 11
260.1225387213
 21
112.59533927
  0
LINE
  8
0
 62
7
  6
CONTINUOUS
 10
268.8465078699
 20
106.33147893
 11
266.2360411439
 21
112.9965003581
  0
LINE
  8
0
 62
7
  6
CONTINUOUS
 10
265.0671693947
 20
127.4287261008
 11
265.0671693947
 21
113.3611922563
  0
LINE
  8
0
 62
7
  6
CONTINUOUS
 10
265.3671693947
 20
112.0098024934
 11
265.3671693947
 21
110.4787261008
  0
LINE
  8
0
 62
7
  6
CONTINUOUS
 10
266.1671693947
 20
127.4287261008
 11
266.1671693947
 21
113.3611922563
  0
LINE
  8
0
 62
7
  6
CONTINUOUS
 10
268.8671693947
 20
106.2220713605
 11
268.8671693947
 21
101.5287261008
  0
LINE
  8
0
 62
7
  6
CONTINUOUS
 10
269.1671693947
 20
158.2353845751
 11
269.1671693947
 21
162.9287261008
  0
LINE
  8
0
 62
7
  6
CONTINUOUS
 10
271.8671693947
 20
151.0967354207
 11
271.8671693947
 21
135.3043012425
  0
LINE
  8
0
 62
7
  6
CONTINUOUS
 10
272.6671693947
 20
152.4481095549
 11
272.6671693947
 21
153.9787261008
  0
LINE
  8
0
 62
7
  6
CONTINUOUS
 10
272.9671693947
 20
135.3043019249
 11
272.9671693947
 21
151.0967354207
  0
LINE
  8
0
 62
7
  6
CONTINUOUS
 10
277.9982888794
 20
152.083395276
 11
277.9118184769
 21
151.8626354063
  0
LINE
  8
0
 62
7
  6
CONTINUOUS
 10
278.93604991
 20
151.4614496996
 11
281.5465052401
 21
158.1259702914
  0
LINE
  8
0
 62
7
  6
CONTINUOUS
 10
269.1878335493
 20
158.1259702914
 11
271.7982888794
 21
151.4614496996
  0
LINE
  8
0
 62
7
  6
CONTINUOUS
 10
272.8225203126
 20
151.8626354063
 11
272.73604991
 21
152.083395276
  0
POLYLINE
  8
0
 62
7
  6
CONTINUOUS
 66
1
 70
0
  0
VERTEX
  8
0
 62
7
  6
CONTINUOUS
 10
277.7671693947
 20
135.304302492
  0
VERTEX
  8
0
 62
7
  6
CONTINUOUS
 10
277.7690249115
 20
135.1887359963
  0
VERTEX
  8
0
 62
7
  6
CONTINUOUS
 10
277.7742550421
 20
135.0787917668
  0
VERTEX
  8
0
 62
7
  6
CONTINUOUS
 10
277.7825035458
 20
134.9730484844
  0
VERTEX
  8
0
 62
7
  6
CONTINUOUS
 10
277.793573899
 20
134.8701723016
  0
VERTEX
  8
0
 62
7
  6
CONTINUOUS
 10
277.8074418011
 20
134.7688521425
  0
VERTEX
  8
0
 62
7
  6
CONTINUOUS
 10
277.8242205563
 20
134.6678415959
  0
VERTEX
  8
0
 62
7
  6
CONTINUOUS
 10
277.8439275563
 20
134.5670548424
  0
VERTEX
  8
0
 62
7
  6
CONTINUOUS
 10
277.8664846402
 20
134.4669696033
  0
VERTEX
  8
0
 62
7
  6
CONTINUOUS
 10
277.8918845603
 20
134.3676444606
  0
VERTEX
  8
0
 62
7
  6
CONTINUOUS
 10
277.9201353514
 20
134.2690267567
  0
VERTEX
  8
0
 62
7
  6
CONTINUOUS
 10
277.9511931001
 20
134.1712496493
  0
VERTEX
  8
0
 62
7
  6
CONTINUOUS
 10
277.9850301937
 20
134.0744431714
  0
VERTEX
  8
0
 62
7
  6
CONTINUOUS
 10
278.0216866032
 20
133.9785570048
  0
VERTEX
  8
0
 62
7
  6
CONTINUOUS
 10
278.0611563981
 20
133.8836851247
  0
VERTEX
  8
0
 62
7
  6
CONTINUOUS
 10
278.1034045088
 20
133.7900046698
  0
VERTEX
  8
0
 62
7
  6
CONTINUOUS
 10
278.1484946289
 20
133.6974372078
  0
VERTEX
  8
0
 62
7
  6
CONTINUOUS
 10
278.1965101112
 20
133.605886089
  0
VERTEX
  8
0
 62
7
  6
CONTINUOUS
 10
278.2472323664
 20
133.5158213573
  0
VERTEX
  8
0
 62
7
  6
CONTINUOUS
 10
278.3004113821
 20
133.4276424507
  0
VERTEX
  8
0
 62
7
  6
CONTINUOUS
 10
278.3578767592
 20
133.3385643131
  0
VERTEX
  8
0
 62
7
  6
CONTINUOUS
 10
278.4229020794
 20
133.2445451712
  0
VERTEX
  8
0
 62
7
  6
CONTINUOUS
 10
278.4992129276
 20
133.1422146997
  0
VERTEX
  8
0
 62
7
  6
CONTINUOUS
 10
278.5872108688
 20
133.0335782254
  0
VERTEX
  8
0
 62
7
  6
CONTINUOUS
 10
278.6808032346
 20
132.9276253724
  0
VERTEX
  8
0
 62
7
  6
CONTINUOUS
 10
278.7724116021
 20
132.8323083555
  0
VERTEX
  8
0
 62
7
  6
CONTINUOUS
 10
278.858922967
 20
132.7490291934
  0
VERTEX
  8
0
 62
7
  6
CONTINUOUS
 10
278.9423604459
 20
132.6743049684
  0
VERTEX
  8
0
 62
7
  6
CONTINUOUS
 10
279.0254340609
 20
132.6049010604
  0
VERTEX
  8
0
 62
7
  6
CONTINUOUS
 10
279.1103142845
 20
132.5387521212
  0
VERTEX
  8
0
 62
7
  6
CONTINUOUS
 10
279.1972943772
 20
132.4756265017
  0
VERTEX
  8
0
 62
7
  6
CONTINUOUS
 10
279.2863587444
 20
132.4155645947
  0
VERTEX
  8
0
 62
7
  6
CONTINUOUS
 10
279.3773394808
 20
132.3587185376
  0
VERTEX
  8
0
 62
7
  6
CONTINUOUS
 10
279.4703501525
 20
132.3050888106
  0
VERTEX
  8
0
 62
7
  6
CONTINUOUS
 10
279.5657157334
 20
132.2545776443
  0
VERTEX
  8
0
 62
7
  6
CONTINUOUS
 10
279.6633953117
 20
132.2073274344
  0
VERTEX
  8
0
 62
7
  6
CONTINUOUS
 10
279.7633005582
 20
132.1634709921
  0
VERTEX
  8
0
 62
7
  6
CONTINUOUS
 10
279.8650833556
 20
132.1232164651
  0
VERTEX
  8
0
 62
7
  6
CONTINUOUS
 10
279.9684503466
 20
132.0867258678
  0
VERTEX
  8
0
 62
7
  6
CONTINUOUS
 10
280.07331224
 20
132.0540718583
  0
VERTEX
  8
0
 62
7
  6
CONTINUOUS
 10
280.1795914252
 20
132.0253375799
  0
VERTEX
  8
0
 62
7
  6
CONTINUOUS
 10
280.2868492813
 20
132.0006943863
  0
VERTEX
  8
0
 62
7
  6
CONTINUOUS
 10
280.3952196455
 20
131.9801772649
  0
VERTEX
  8
0
 62
7
  6
CONTINUOUS
 10
280.5059775034
 20
131.9636864665
  0
VERTEX
  8
0
 62
7
  6
CONTINUOUS
 10
280.6205800843
 20
131.9513265951
  0
VERTEX
  8
0
 62
7
  6
CONTINUOUS
 10
280.7404610758
 20
131.9434387473
  0
VERTEX
  8
0
 62
7
  6
CONTINUOUS
 10
280.8671694831
 20
131.9406265591
  0
SEQEND
  0
LINE
  8
0
 62
7
  6
CONTINUOUS
 10
277.7671693947
 20
151.0967354207
 11
277.7671693947
 21
135.304302492
  0
LINE
  8
0
 62
7
  6
CONTINUOUS
 10
278.0671693947
 20
153.9787261008
 11
278.0671693947
 21
152.4481095549
  0
LINE
  8
0
 62
7
  6
CONTINUOUS
 10
278.8671693947
 20
151.0967354207
 11
278.8671693947
 21
135.3043012425
  0
LINE
  8
0
 62
7
  6
CONTINUOUS
 10
281.5671693947
 20
162.9287261008
 11
281.5671693947
 21
158.2353845751
  0
LINE
  8
0
 62
7
  6
CONTINUOUS
 10
281.8671693947
 20
101.5287261008
 11
281.8671693947
 21
106.2220713605
  0
LINE
  8
0
 62
7
  6
CONTINUOUS
 10
281.8878309195
 20
106.33147893
 11
284.4982976455
 21
112.9965003581
  0
LINE
  8
0
 62
7
  6
CONTINUOUS
 10
290.6118000681
 20
112.59533927
 11
290.6982976455
 21
112.3744943916
  0
LINE
  8
0
 62
7
  6
CONTINUOUS
 10
294.2465078699
 20
106.33147893
 11
291.6360411439
 21
112.9965003581
  0
LINE
  8
0
 62
7
  6
CONTINUOUS
 10
284.5671693947
 20
127.4287261008
 11
284.5671693947
 21
113.3611922563
  0
LINE
  8
0
 62
7
  6
CONTINUOUS
 10
285.3671693947
 20
110.4787261008
 11
285.3671693947
 21
112.0098024934
  0
LINE
  8
0
 62
7
  6
CONTINUOUS
 10
285.6671693947
 20
113.3611922563
 11
285.6671693947
 21
127.4287261008
  0
LINE
  8
0
 62
7
  6
CONTINUOUS
 10
290.4671693947
 20
127.4287261008
 11
290.4671693947
 21
113.3611922563
  0
LINE
  8
0
 62
7
  6
CONTINUOUS
 10
290.7671693947
 20
112.0098024934
 11
290.7671693947
 21
110.4787261008
  0
LINE
  8
0
 62
7
  6
CONTINUOUS
 10
291.5671693947
 20
127.4287261008
 11
291.5671693947
 21
113.3611922563
  0
LINE
  8
0
 62
7
  6
CONTINUOUS
 10
294.2671693947
 20
106.2220713605
 11
294.2671693947
 21
101.5287261008
  0
LINE
  8
0
 62
7
  6
CONTINUOUS
 10
294.5671693947
 20
158.2353845751
 11
294.5671693947
 21
162.9287261008
  0
LINE
  8
0
 62
7
  6
CONTINUOUS
 10
285.4360411439
 20
112.3744943916
 11
285.5225387213
 21
112.59533927
  0
LINE
  8
0
 62
7
  6
CONTINUOUS
 10
303.3982888794
 20
152.083395276
 11
303.3118184769
 21
151.8626354063
  0
LINE
  8
0
 62
7
  6
CONTINUOUS
 10
304.33604991
 20
151.4614496996
 11
306.9465052401
 21
158.1259702914
  0
POLYLINE
  8
0
 62
7
  6
CONTINUOUS
 66
1
 70
0
  0
VERTEX
  8
0
 62
7
  6
CONTINUOUS
 10
303.1671693947
 20
135.3043024921
  0
VERTEX
  8
0
 62
7
  6
CONTINUOUS
 10
303.1690249115
 20
135.1887359965
  0
VERTEX
  8
0
 62
7
  6
CONTINUOUS
 10
303.1742550421
 20
135.0787917669
  0
VERTEX
  8
0
 62
7
  6
CONTINUOUS
 10
303.1825035458
 20
134.9730484845
  0
VERTEX
  8
0
 62
7
  6
CONTINUOUS
 10
303.193573899
 20
134.8701723017
  0
VERTEX
  8
0
 62
7
  6
CONTINUOUS
 10
303.207441801
 20
134.7688521426
  0
VERTEX
  8
0
 62
7
  6
CONTINUOUS
 10
303.2242205563
 20
134.667841596
  0
VERTEX
  8
0
 62
7
  6
CONTINUOUS
 10
303.2439275563
 20
134.5670548424
  0
VERTEX
  8
0
 62
7
  6
CONTINUOUS
 10
303.2664846402
 20
134.4669696034
  0
VERTEX
  8
0
 62
7
  6
CONTINUOUS
 10
303.2918845603
 20
134.3676444607
  0
VERTEX
  8
0
 62
7
  6
CONTINUOUS
 10
303.3201353514
 20
134.2690267568
  0
VERTEX
  8
0
 62
7
  6
CONTINUOUS
 10
303.3511931001
 20
134.1712496494
  0
VERTEX
  8
0
 62
7
  6
CONTINUOUS
 10
303.3850301937
 20
134.0744431715
  0
VERTEX
  8
0
 62
7
  6
CONTINUOUS
 10
303.4216866031
 20
133.9785570049
  0
VERTEX
  8
0
 62
7
  6
CONTINUOUS
 10
303.461156398
 20
133.8836851248
  0
VERTEX
  8
0
 62
7
  6
CONTINUOUS
 10
303.5034045087
 20
133.7900046699
  0
VERTEX
  8
0
 62
7
  6
CONTINUOUS
 10
303.5484946288
 20
133.6974372079
  0
VERTEX
  8
0
 62
7
  6
CONTINUOUS
 10
303.5965101111
 20
133.605886089
  0
VERTEX
  8
0
 62
7
  6
CONTINUOUS
 10
303.6472323663
 20
133.5158213573
  0
VERTEX
  8
0
 62
7
  6
CONTINUOUS
 10
303.7004113821
 20
133.4276424507
  0
VERTEX
  8
0
 62
7
  6
CONTINUOUS
 10
303.7578767592
 20
133.3385643131
  0
VERTEX
  8
0
 62
7
  6
CONTINUOUS
 10
303.8229020793
 20
133.2445451712
  0
VERTEX
  8
0
 62
7
  6
CONTINUOUS
 10
303.8992129276
 20
133.1422146998
  0
VERTEX
  8
0
 62
7
  6
CONTINUOUS
 10
303.9872108688
 20
133.0335782254
  0
VERTEX
  8
0
 62
7
  6
CONTINUOUS
 10
304.0808032346
 20
132.9276253725
  0
VERTEX
  8
0
 62
7
  6
CONTINUOUS
 10
304.1724116021
 20
132.8323083555
  0
VERTEX
  8
0
 62
7
  6
CONTINUOUS
 10
304.258922967
 20
132.7490291934
  0
VERTEX
  8
0
 62
7
  6
CONTINUOUS
 10
304.3423604458
 20
132.6743049684
  0
VERTEX
  8
0
 62
7
  6
CONTINUOUS
 10
304.4254340608
 20
132.6049010604
  0
VERTEX
  8
0
 62
7
  6
CONTINUOUS
 10
304.5103142845
 20
132.5387521213
  0
VERTEX
  8
0
 62
7
  6
CONTINUOUS
 10
304.5972943771
 20
132.4756265017
  0
VERTEX
  8
0
 62
7
  6
CONTINUOUS
 10
304.6863587444
 20
132.4155645947
  0
VERTEX
  8
0
 62
7
  6
CONTINUOUS
 10
304.7773394808
 20
132.3587185377
  0
VERTEX
  8
0
 62
7
  6
CONTINUOUS
 10
304.8703501525
 20
132.3050888106
  0
VERTEX
  8
0
 62
7
  6
CONTINUOUS
 10
304.9657157334
 20
132.2545776444
  0
VERTEX
  8
0
 62
7
  6
CONTINUOUS
 10
305.0633953117
 20
132.2073274344
  0
VERTEX
  8
0
 62
7
  6
CONTINUOUS
 10
305.1633005582
 20
132.1634709921
  0
VERTEX
  8
0
 62
7
  6
CONTINUOUS
 10
305.2650833556
 20
132.1232164651
  0
VERTEX
  8
0
 62
7
  6
CONTINUOUS
 10
305.3684503465
 20
132.0867258678
  0
VERTEX
  8
0
 62
7
  6
CONTINUOUS
 10
305.47331224
 20
132.0540718583
  0
VERTEX
  8
0
 62
7
  6
CONTINUOUS
 10
305.5795914251
 20
132.0253375799
  0
VERTEX
  8
0
 62
7
  6
CONTINUOUS
 10
305.6868492813
 20
132.0006943863
  0
VERTEX
  8
0
 62
7
  6
CONTINUOUS
 10
305.7952196455
 20
131.9801772649
  0
VERTEX
  8
0
 62
7
  6
CONTINUOUS
 10
305.9059775034
 20
131.9636864665
  0
VERTEX
  8
0
 62
7
  6
CONTINUOUS
 10
306.0205800843
 20
131.9513265951
  0
VERTEX
  8
0
 62
7
  6
CONTINUOUS
 10
306.1404610758
 20
131.9434387473
  0
VERTEX
  8
0
 62
7
  6
CONTINUOUS
 10
306.2671694831
 20
131.9406265591
  0
SEQEND
  0
LINE
  8
0
 62
7
  6
CONTINUOUS
 10
297.2671693947
 20
151.0967354207
 11
297.2671693947
 21
135.3043012425
  0
LINE
  8
0
 62
7
  6
CONTINUOUS
 10
298.0671693947
 20
152.4481095549
 11
298.0671693947
 21
153.9787261008
  0
LINE
  8
0
 62
7
  6
CONTINUOUS
 10
298.3671693947
 20
135.3043019248
 11
298.3671693947
 21
151.0967354207
  0
LINE
  8
0
 62
7
  6
CONTINUOUS
 10
303.1671693947
 20
151.0967354207
 11
303.1671693947
 21
135.3043024921
  0
LINE
  8
0
 62
7
  6
CONTINUOUS
 10
303.4671693947
 20
153.9787261008
 11
303.4671693947
 21
152.4481095549
  0
LINE
  8
0
 62
7
  6
CONTINUOUS
 10
304.2671693947
 20
151.0967354207
 11
304.2671693947
 21
135.3043012425
  0
LINE
  8
0
 62
7
  6
CONTINUOUS
 10
294.5878335493
 20
158.1259702914
 11
297.1982888794
 21
151.4614496996
  0
LINE
  8
0
 62
7
  6
CONTINUOUS
 10
298.2225203126
 20
151.8626354063
 11
298.13604991
 21
152.083395276
  0
LINE
  8
0
 62
7
  6
CONTINUOUS
 10
316.0118000681
 20
112.59533927
 11
316.0982976455
 21
112.3744943916
  0
LINE
  8
0
 62
7
  6
CONTINUOUS
 10
319.6465078699
 20
106.33147893
 11
317.0360411439
 21
112.9965003581
  0
LINE
  8
0
 62
7
  6
CONTINUOUS
 10
306.9671693947
 20
162.9287261008
 11
306.9671693947
 21
158.2353845751
  0
LINE
  8
0
 62
7
  6
CONTINUOUS
 10
307.2671693947
 20
101.5287261008
 11
307.2671693947
 21
106.2220713605
  0
LINE
  8
0
 62
7
  6
CONTINUOUS
 10
309.9671693947
 20
127.4287261008
 11
309.9671693947
 21
113.3611922563
  0
LINE
  8
0
 62
7
  6
CONTINUOUS
 10
310.7671693947
 20
110.4787261008
 11
310.7671693947
 21
112.0098024934
  0
LINE
  8
0
 62
7
  6
CONTINUOUS
 10
311.0671693947
 20
113.3611922563
 11
311.0671693947
 21
127.4287261008
  0
LINE
  8
0
 62
7
  6
CONTINUOUS
 10
315.8671693947
 20
127.4287261008
 11
315.8671693947
 21
113.3611922563
  0
LINE
  8
0
 62
7
  6
CONTINUOUS
 10
307.2878309195
 20
106.33147893
 11
309.8982976455
 21
112.9965003581
  0
LINE
  8
0
 62
7
  6
CONTINUOUS
 10
310.8360411439
 20
112.3744943916
 11
310.9225387213
 21
112.59533927
  0
LINE
  8
0
 62
7
  6
CONTINUOUS
 10
328.7982888794
 20
152.083395276
 11
328.7118184769
 21
151.8626354063
  0
LINE
  8
0
 62
7
  6
CONTINUOUS
 10
329.73604991
 20
151.4614496996
 11
332.3465052401
 21
158.1259702914
  0
LINE
  8
0
 62
7
  6
CONTINUOUS
 10
316.1671693947
 20
112.0098024934
 11
316.1671693947
 21
110.4787261008
  0
LINE
  8
0
 62
7
  6
CONTINUOUS
 10
316.9671693947
 20
127.4287261008
 11
316.9671693947
 21
113.3611922563
  0
LINE
  8
0
 62
7
  6
CONTINUOUS
 10
319.6671693947
 20
106.2220713605
 11
319.6671693947
 21
101.5287261008
  0
LINE
  8
0
 62
7
  6
CONTINUOUS
 10
319.9671693947
 20
158.2353845751
 11
319.9671693947
 21
162.9287261008
  0
LINE
  8
0
 62
7
  6
CONTINUOUS
 10
322.6671693947
 20
151.0967354207
 11
322.6671693947
 21
135.3043012425
  0
LINE
  8
0
 62
7
  6
CONTINUOUS
 10
323.4671693947
 20
152.4481095549
 11
323.4671693947
 21
153.9787261008
  0
LINE
  8
0
 62
7
  6
CONTINUOUS
 10
323.7671693947
 20
135.3043019247
 11
323.7671693947
 21
151.0967354207
  0
LINE
  8
0
 62
7
  6
CONTINUOUS
 10
328.5671693947
 20
151.0967354207
 11
328.5671693947
 21
133.0287261008
  0
LINE
  8
0
 62
7
  6
CONTINUOUS
 10
328.8671693947
 20
153.9787261008
 11
328.8671693947
 21
152.4481095549
  0
LINE
  8
0
 62
7
  6
CONTINUOUS
 10
329.6671693947
 20
151.0967354207
 11
329.6671693947
 21
133.4182047581
  0
LINE
  8
0
 62
7
  6
CONTINUOUS
 10
332.2671693947
 20
134.5540661346
 11
332.2671693947
 21
129.7287261008
  0
LINE
  8
0
 62
7
  6
CONTINUOUS
 10
332.3671693947
 20
162.9287261008
 11
332.3671693947
 21
158.2353845751
  0
LINE
  8
0
 62
7
  6
CONTINUOUS
 10
319.9878335493
 20
158.1259702914
 11
322.5982888794
 21
151.4614496996
  0
LINE
  8
0
 62
7
  6
CONTINUOUS
 10
323.6225203126
 20
151.8626354063
 11
323.53604991
 21
152.083395276
  0
LINE
  8
0
 62
7
  6
CONTINUOUS
 10
371.2087533714
 20
98.8287261008
 11
370.9087533714
 21
98.8287261008
  0
LINE
  8
DEFAULT_1
 62
2
  6
CENTER
 10
376.3087533714
 20
106.8659811008
 11
376.1960083714
 21
106.8659811008
  0
LINE
  8
0
 62
2
  6
CONTINUOUS
 10
372.1087533714
 20
106.8659811008
 11
370.0087533714
 21
106.8659811008
  0
LINE
  8
DEFAULT_1
 62
2
  6
CENTER
 10
365.8087533714
 20
106.8659811008
 11
365.9214983714
 21
106.8659811008
  0
LINE
  8
0
 62
7
  6
CONTINUOUS
 10
378.5587533714
 20
109.4787261008
 11
379.1439238089
 21
109.4787261008
  0
LINE
  8
0
 62
7
  6
CONTINUOUS
 10
363.5587533714
 20
106.1787261008
 11
363.5587533714
 21
158.2787261008
  0
LINE
  8
0
 62
7
  6
CONTINUOUS
 10
367.8087533714
 20
141.2787261008
 11
367.8087533714
 21
157.4787261008
  0
LINE
  8
0
 62
7
  6
CONTINUOUS
 10
363.8587533714
 20
129.4287261008
 11
378.2587533714
 21
129.4287261008
  0
LINE
  8
DEFAULT_1
 62
2
  6
CENTER
 10
371.0587533714
 20
162.8787261008
 11
371.0587533714
 21
159.6288261008
  0
LINE
  8
0
 62
2
  6
CONTINUOUS
 10
371.0587533714
 20
158.6787261008
 11
371.0587533714
 21
156.5787261008
  0
LINE
  8
DEFAULT_1
 62
2
  6
CENTER
 10
371.0587533714
 20
112.1159811008
 11
371.0587533714
 21
112.0032361008
  0
LINE
  8
0
 62
2
  6
CONTINUOUS
 10
371.0587533714
 20
107.9159811008
 11
371.0587533714
 21
105.8159811008
  0
LINE
  8
DEFAULT_1
 62
2
  6
CENTER
 10
371.0587533714
 20
101.6159811008
 11
371.0587533714
 21
101.7287261008
  0
LINE
  8
DEFAULT_1
 62
2
  6
CENTER
 10
371.0587533714
 20
152.3787261008
 11
371.0587533714
 21
155.6286261008
  0
LINE
  8
0
 62
7
  6
CONTINUOUS
 10
378.5587533714
 20
131.9406265591
 11
381.05672193
 21
131.9406265591
  0
LINE
  8
DEFAULT_1
 62
2
  6
CENTER
 10
360.7692796872
 20
132.2287261008
 11
383.5587534227
 21
132.2287261008
  0
LINE
  8
0
 62
7
  6
CONTINUOUS
 10
374.3087533714
 20
141.2787261008
 11
374.3087533714
 21
157.4787261008
  0
LINE
  8
0
 62
7
  6
CONTINUOUS
 10
378.5587533714
 20
106.1787261008
 11
378.5587533714
 21
158.2787261008
  0
LINE
  8
0
 62
7
  6
CONTINUOUS
 10
379.7228045438
 20
110.3949915255
 11
379.9744267745
 21
111.93197941
  0
LINE
  8
0
 62
7
  6
CONTINUOUS
 10
379.9544408822
 20
152.5264189311
 11
379.701341778
 21
154.0629451935
  0
LINE
  8
0
 62
7
  6
CONTINUOUS
 10
379.1220373154
 20
154.9787261008
 11
378.5587533714
 21
154.9787261008
  0
LINE
  8
DEFAULT_1
 62
2
  6
CENTER
 10
376.3087533714
 20
157.6287261008
 11
373.0588533714
 21
157.6287261008
  0
LINE
  8
0
 62
2
  6
CONTINUOUS
 10
372.1087533714
 20
157.6287261008
 11
370.0087533714
 21
157.6287261008
  0
LINE
  8
DEFAULT_1
 62
2
  6
CENTER
 10
365.8087533714
 20
157.6287261008
 11
369.0586533714
 21
157.6287261008
  0
LINE
  8
0
 62
7
  6
CONTINUOUS
 10
371.2087533714
 20
165.6287261008
 11
370.9087533714
 21
165.6287261008
  0
LINE
  8
0
 62
7
  6
CONTINUOUS
 10
27.8671693947
 20
229.8698302834
 11
27.8671693947
 21
239.4698302834
  0
LINE
  8
0
 62
7
  6
CONTINUOUS
 10
27.9671693947
 20
227.4698302834
 11
27.9671693947
 21
229.1420841984
  0
LINE
  8
0
 62
7
  6
CONTINUOUS
 10
27.9671693947
 20
240.1975763446
 11
27.9671693947
 21
241.8698302834
  0
LINE
  8
0
 62
7
  6
CONTINUOUS
 10
31.3671693947
 20
242.1698302834
 11
31.3671693947
 21
243.0915972503
  0
LINE
  8
0
 62
7
  6
CONTINUOUS
 10
31.6671739058
 20
243.5625316581
 11
31.6672066243
 21
244.6411493771
  0
POLYLINE
  8
0
 62
7
  6
CONTINUOUS
 66
1
 70
0
  0
VERTEX
  8
0
 62
7
  6
CONTINUOUS
 10
36.7671693228
 20
243.0915945192
  0
VERTEX
  8
0
 62
7
  6
CONTINUOUS
 10
36.7661660691
 20
243.1236456629
  0
VERTEX
  8
0
 62
7
  6
CONTINUOUS
 10
36.7612372092
 20
243.1693456738
  0
VERTEX
  8
0
 62
7
  6
CONTINUOUS
 10
36.7522264506
 20
243.2144610732
  0
VERTEX
  8
0
 62
7
  6
CONTINUOUS
 10
36.739209694
 20
243.258601854
  0
VERTEX
  8
0
 62
7
  6
CONTINUOUS
 10
36.7223116193
 20
243.3013805365
  0
VERTEX
  8
0
 62
7
  6
CONTINUOUS
 10
36.7017065266
 20
243.3424240153
  0
VERTEX
  8
0
 62
7
  6
CONTINUOUS
 10
36.6776105856
 20
243.3813935162
  0
VERTEX
  8
0
 62
7
  6
CONTINUOUS
 10
36.6502750616
 20
243.417990691
  0
VERTEX
  8
0
 62
7
  6
CONTINUOUS
 10
36.6199887035
 20
243.4519533276
  0
VERTEX
  8
0
 62
7
  6
CONTINUOUS
 10
36.5874178101
 20
243.4827665582
  0
VERTEX
  8
0
 62
7
  6
CONTINUOUS
 10
36.5545056258
 20
243.5092315946
  0
VERTEX
  8
0
 62
7
  6
CONTINUOUS
 10
36.5226329389
 20
243.5312319252
  0
VERTEX
  8
0
 62
7
  6
CONTINUOUS
 10
36.4919964714
 20
243.5495541945
  0
VERTEX
  8
0
 62
7
  6
CONTINUOUS
 10
36.4624889732
 20
243.564950591
  0
VERTEX
  8
0
 62
7
  6
CONTINUOUS
 10
36.4338983376
 20
243.5780310495
  0
VERTEX
  8
0
 62
7
  6
CONTINUOUS
 10
36.4178462755
 20
243.5846666205
  0
SEQEND
  0
LINE
  8
0
 62
7
  6
CONTINUOUS
 10
36.4671693947
 20
244.5831542306
 11
36.4671693947
 21
243.5625084448
  0
LINE
  8
0
 62
7
  6
CONTINUOUS
 10
36.7671693947
 20
243.0915972503
 11
36.7671693947
 21
242.1698302834
  0
LINE
  8
0
 62
7
  6
CONTINUOUS
 10
40.2671693947
 20
239.4698302834
 11
40.2671693947
 21
229.8698302834
  0
LINE
  8
0
 62
7
  6
CONTINUOUS
 10
53.2671693947
 20
229.8698302834
 11
53.2671693947
 21
239.4698302834
  0
POLYLINE
  8
0
 62
7
  6
CONTINUOUS
 66
1
 70
0
  0
VERTEX
  8
0
 62
7
  6
CONTINUOUS
 10
62.1671693228
 20
243.0915945192
  0
VERTEX
  8
0
 62
7
  6
CONTINUOUS
 10
62.1661660691
 20
243.1236456629
  0
VERTEX
  8
0
 62
7
  6
CONTINUOUS
 10
62.1612372092
 20
243.1693456738
  0
VERTEX
  8
0
 62
7
  6
CONTINUOUS
 10
62.1522264506
 20
243.2144610732
  0
VERTEX
  8
0
 62
7
  6
CONTINUOUS
 10
62.139209694
 20
243.258601854
  0
VERTEX
  8
0
 62
7
  6
CONTINUOUS
 10
62.1223116193
 20
243.3013805365
  0
VERTEX
  8
0
 62
7
  6
CONTINUOUS
 10
62.1017065266
 20
243.3424240153
  0
VERTEX
  8
0
 62
7
  6
CONTINUOUS
 10
62.0776105856
 20
243.3813935162
  0
VERTEX
  8
0
 62
7
  6
CONTINUOUS
 10
62.0502750616
 20
243.417990691
  0
VERTEX
  8
0
 62
7
  6
CONTINUOUS
 10
62.0199887035
 20
243.4519533276
  0
VERTEX
  8
0
 62
7
  6
CONTINUOUS
 10
61.9874178101
 20
243.4827665582
  0
VERTEX
  8
0
 62
7
  6
CONTINUOUS
 10
61.9545056258
 20
243.5092315946
  0
VERTEX
  8
0
 62
7
  6
CONTINUOUS
 10
61.9226329389
 20
243.5312319252
  0
VERTEX
  8
0
 62
7
  6
CONTINUOUS
 10
61.8919964714
 20
243.5495541945
  0
VERTEX
  8
0
 62
7
  6
CONTINUOUS
 10
61.8624889732
 20
243.564950591
  0
VERTEX
  8
0
 62
7
  6
CONTINUOUS
 10
61.8338983376
 20
243.5780310495
  0
VERTEX
  8
0
 62
7
  6
CONTINUOUS
 10
61.8178462755
 20
243.5846666205
  0
SEQEND
  0
LINE
  8
0
 62
7
  6
CONTINUOUS
 10
56.7671693947
 20
242.1698302834
 11
56.7671693947
 21
243.0915972503
  0
LINE
  8
0
 62
7
  6
CONTINUOUS
 10
57.0671693947
 20
243.5625292946
 11
57.0671693947
 21
244.5831542306
  0
LINE
  8
0
 62
7
  6
CONTINUOUS
 10
61.8671693947
 20
244.5831542306
 11
61.8671693947
 21
243.5625084448
  0
LINE
  8
0
 62
7
  6
CONTINUOUS
 10
62.1671693947
 20
243.0915972503
 11
62.1671693947
 21
242.1698302834
  0
LINE
  8
0
 62
7
  6
CONTINUOUS
 10
65.6671693947
 20
239.4698302834
 11
65.6671693947
 21
229.8698302834
  0
LINE
  8
0
 62
7
  6
CONTINUOUS
 10
78.6671693947
 20
229.8698302834
 11
78.6671693947
 21
239.4698302834
  0
LINE
  8
0
 62
7
  6
CONTINUOUS
 10
82.1671693947
 20
242.1698302834
 11
82.1671693947
 21
243.0915972503
  0
LINE
  8
0
 62
7
  6
CONTINUOUS
 10
82.4671693947
 20
243.5625292946
 11
82.4671693947
 21
244.5831542306
  0
POLYLINE
  8
0
 62
7
  6
CONTINUOUS
 66
1
 70
0
  0
VERTEX
  8
0
 62
7
  6
CONTINUOUS
 10
87.5671693228
 20
243.0915945192
  0
VERTEX
  8
0
 62
7
  6
CONTINUOUS
 10
87.5661660691
 20
243.1236456629
  0
VERTEX
  8
0
 62
7
  6
CONTINUOUS
 10
87.5612372092
 20
243.1693456738
  0
VERTEX
  8
0
 62
7
  6
CONTINUOUS
 10
87.5522264506
 20
243.2144610732
  0
VERTEX
  8
0
 62
7
  6
CONTINUOUS
 10
87.539209694
 20
243.258601854
  0
VERTEX
  8
0
 62
7
  6
CONTINUOUS
 10
87.5223116193
 20
243.3013805365
  0
VERTEX
  8
0
 62
7
  6
CONTINUOUS
 10
87.5017065266
 20
243.3424240153
  0
VERTEX
  8
0
 62
7
  6
CONTINUOUS
 10
87.4776105856
 20
243.3813935162
  0
VERTEX
  8
0
 62
7
  6
CONTINUOUS
 10
87.4502750616
 20
243.417990691
  0
VERTEX
  8
0
 62
7
  6
CONTINUOUS
 10
87.4199887035
 20
243.4519533276
  0
VERTEX
  8
0
 62
7
  6
CONTINUOUS
 10
87.3874178101
 20
243.4827665582
  0
VERTEX
  8
0
 62
7
  6
CONTINUOUS
 10
87.3545056258
 20
243.5092315946
  0
VERTEX
  8
0
 62
7
  6
CONTINUOUS
 10
87.3226329389
 20
243.5312319252
  0
VERTEX
  8
0
 62
7
  6
CONTINUOUS
 10
87.2919964714
 20
243.5495541945
  0
VERTEX
  8
0
 62
7
  6
CONTINUOUS
 10
87.2624889732
 20
243.564950591
  0
VERTEX
  8
0
 62
7
  6
CONTINUOUS
 10
87.2338983376
 20
243.5780310495
  0
VERTEX
  8
0
 62
7
  6
CONTINUOUS
 10
87.2178462755
 20
243.5846666205
  0
SEQEND
  0
LINE
  8
0
 62
7
  6
CONTINUOUS
 10
87.2671693947
 20
244.5831542306
 11
87.2671693947
 21
243.5625084448
  0
LINE
  8
0
 62
7
  6
CONTINUOUS
 10
87.5671693947
 20
243.0915972503
 11
87.5671693947
 21
242.1698302834
  0
LINE
  8
0
 62
7
  6
CONTINUOUS
 10
91.0671693947
 20
239.4698302834
 11
91.0671693947
 21
229.8698302834
  0
LINE
  8
0
 62
7
  6
CONTINUOUS
 10
104.0671693947
 20
229.8698302834
 11
104.0671693947
 21
239.4698302834
  0
POLYLINE
  8
0
 62
7
  6
CONTINUOUS
 66
1
 70
0
  0
VERTEX
  8
0
 62
7
  6
CONTINUOUS
 10
31.8296641459
 20
243.6302492472
  0
VERTEX
  8
0
 62
7
  6
CONTINUOUS
 10
31.8317255516
 20
243.6314730664
  0
VERTEX
  8
0
 62
7
  6
CONTINUOUS
 10
31.83081921
 20
243.6310052181
  0
VERTEX
  8
0
 62
7
  6
CONTINUOUS
 10
31.8254661332
 20
243.6284160108
  0
VERTEX
  8
0
 62
7
  6
CONTINUOUS
 10
31.8155768655
 20
243.624054537
  0
VERTEX
  8
0
 62
7
  6
CONTINUOUS
 10
31.8048044909
 20
243.6196657269
  0
SEQEND
  0
POLYLINE
  8
0
 62
7
  6
CONTINUOUS
 66
1
 70
0
  0
VERTEX
  8
0
 62
7
  6
CONTINUOUS
 10
112.9671693228
 20
243.0915945192
  0
VERTEX
  8
0
 62
7
  6
CONTINUOUS
 10
112.9661660691
 20
243.1236456629
  0
VERTEX
  8
0
 62
7
  6
CONTINUOUS
 10
112.9612372092
 20
243.1693456738
  0
VERTEX
  8
0
 62
7
  6
CONTINUOUS
 10
112.9522264506
 20
243.2144610732
  0
VERTEX
  8
0
 62
7
  6
CONTINUOUS
 10
112.939209694
 20
243.258601854
  0
VERTEX
  8
0
 62
7
  6
CONTINUOUS
 10
112.9223116193
 20
243.3013805365
  0
VERTEX
  8
0
 62
7
  6
CONTINUOUS
 10
112.9017065266
 20
243.3424240153
  0
VERTEX
  8
0
 62
7
  6
CONTINUOUS
 10
112.8776105856
 20
243.3813935162
  0
VERTEX
  8
0
 62
7
  6
CONTINUOUS
 10
112.8502750616
 20
243.417990691
  0
VERTEX
  8
0
 62
7
  6
CONTINUOUS
 10
112.8199887035
 20
243.4519533276
  0
VERTEX
  8
0
 62
7
  6
CONTINUOUS
 10
112.7874178101
 20
243.4827665582
  0
VERTEX
  8
0
 62
7
  6
CONTINUOUS
 10
112.7545056258
 20
243.5092315946
  0
VERTEX
  8
0
 62
7
  6
CONTINUOUS
 10
112.7226329389
 20
243.5312319252
  0
VERTEX
  8
0
 62
7
  6
CONTINUOUS
 10
112.6919964714
 20
243.5495541945
  0
VERTEX
  8
0
 62
7
  6
CONTINUOUS
 10
112.6624889732
 20
243.564950591
  0
VERTEX
  8
0
 62
7
  6
CONTINUOUS
 10
112.6338983376
 20
243.5780310495
  0
VERTEX
  8
0
 62
7
  6
CONTINUOUS
 10
112.6178462755
 20
243.5846666205
  0
SEQEND
  0
LINE
  8
0
 62
7
  6
CONTINUOUS
 10
107.5671693947
 20
242.1698302834
 11
107.5671693947
 21
243.0915972503
  0
LINE
  8
0
 62
7
  6
CONTINUOUS
 10
107.8671693947
 20
243.5625292946
 11
107.8671693947
 21
244.5831542306
  0
LINE
  8
0
 62
7
  6
CONTINUOUS
 10
112.6671693947
 20
244.5831542306
 11
112.6671693947
 21
243.5625084448
  0
LINE
  8
0
 62
7
  6
CONTINUOUS
 10
112.9671693947
 20
243.0915972503
 11
112.9671693947
 21
242.1698302834
  0
POLYLINE
  8
0
 62
7
  6
CONTINUOUS
 66
1
 70
0
  0
VERTEX
  8
0
 62
7
  6
CONTINUOUS
 10
57.2296641537
 20
243.630249252
  0
VERTEX
  8
0
 62
7
  6
CONTINUOUS
 10
57.2317255544
 20
243.6314730681
  0
VERTEX
  8
0
 62
7
  6
CONTINUOUS
 10
57.2308192023
 20
243.6310052142
  0
VERTEX
  8
0
 62
7
  6
CONTINUOUS
 10
57.2254661161
 20
243.6284160028
  0
VERTEX
  8
0
 62
7
  6
CONTINUOUS
 10
57.2155768479
 20
243.6240545295
  0
VERTEX
  8
0
 62
7
  6
CONTINUOUS
 10
57.204804491
 20
243.6196657269
  0
SEQEND
  0
POLYLINE
  8
0
 62
7
  6
CONTINUOUS
 66
1
 70
0
  0
VERTEX
  8
0
 62
7
  6
CONTINUOUS
 10
31.7164945609
 20
243.5846674396
  0
VERTEX
  8
0
 62
7
  6
CONTINUOUS
 10
31.6995633192
 20
243.5776543948
  0
VERTEX
  8
0
 62
7
  6
CONTINUOUS
 10
31.670972556
 20
243.5645218754
  0
VERTEX
  8
0
 62
7
  6
CONTINUOUS
 10
31.6414049765
 20
243.5490306073
  0
VERTEX
  8
0
 62
7
  6
CONTINUOUS
 10
31.6106907672
 20
243.5305799638
  0
VERTEX
  8
0
 62
7
  6
CONTINUOUS
 10
31.5787655378
 20
243.508436712
  0
VERTEX
  8
0
 62
7
  6
CONTINUOUS
 10
31.5458641818
 20
243.4818447378
  0
VERTEX
  8
0
 62
7
  6
CONTINUOUS
 10
31.5133723608
 20
243.4509447661
  0
VERTEX
  8
0
 62
7
  6
CONTINUOUS
 10
31.4831901625
 20
243.4169187866
  0
VERTEX
  8
0
 62
7
  6
CONTINUOUS
 10
31.4559579324
 20
243.3802591513
  0
VERTEX
  8
0
 62
7
  6
CONTINUOUS
 10
31.4319695943
 20
243.3412346978
  0
VERTEX
  8
0
 62
7
  6
CONTINUOUS
 10
31.4114784946
 20
243.3001503127
  0
VERTEX
  8
0
 62
7
  6
CONTINUOUS
 10
31.3946984441
 20
243.257345582
  0
VERTEX
  8
0
 62
7
  6
CONTINUOUS
 10
31.381800883
 20
243.2131921956
  0
VERTEX
  8
0
 62
7
  6
CONTINUOUS
 10
31.3729082867
 20
243.1680755455
  0
VERTEX
  8
0
 62
7
  6
CONTINUOUS
 10
31.3680951848
 20
243.1223832993
  0
VERTEX
  8
0
 62
7
  6
CONTINUOUS
 10
31.3671694763
 20
243.0915944647
  0
SEQEND
  0
LINE
  8
0
 62
7
  6
CONTINUOUS
 10
116.4671693947
 20
239.4698302834
 11
116.4671693947
 21
229.8698302834
  0
POLYLINE
  8
0
 62
7
  6
CONTINUOUS
 66
1
 70
0
  0
VERTEX
  8
0
 62
7
  6
CONTINUOUS
 10
82.6296641538
 20
243.630249252
  0
VERTEX
  8
0
 62
7
  6
CONTINUOUS
 10
82.6317255544
 20
243.6314730681
  0
VERTEX
  8
0
 62
7
  6
CONTINUOUS
 10
82.6308192023
 20
243.6310052142
  0
VERTEX
  8
0
 62
7
  6
CONTINUOUS
 10
82.6254661161
 20
243.6284160028
  0
VERTEX
  8
0
 62
7
  6
CONTINUOUS
 10
82.6155768479
 20
243.6240545295
  0
VERTEX
  8
0
 62
7
  6
CONTINUOUS
 10
82.604804491
 20
243.6196657269
  0
SEQEND
  0
POLYLINE
  8
0
 62
7
  6
CONTINUOUS
 66
1
 70
0
  0
VERTEX
  8
0
 62
7
  6
CONTINUOUS
 10
57.1164945609
 20
243.5846674396
  0
VERTEX
  8
0
 62
7
  6
CONTINUOUS
 10
57.0995633192
 20
243.5776543948
  0
VERTEX
  8
0
 62
7
  6
CONTINUOUS
 10
57.070972556
 20
243.5645218754
  0
VERTEX
  8
0
 62
7
  6
CONTINUOUS
 10
57.0414049765
 20
243.5490306073
  0
VERTEX
  8
0
 62
7
  6
CONTINUOUS
 10
57.0106907672
 20
243.5305799638
  0
VERTEX
  8
0
 62
7
  6
CONTINUOUS
 10
56.9787655378
 20
243.508436712
  0
VERTEX
  8
0
 62
7
  6
CONTINUOUS
 10
56.9458641818
 20
243.4818447378
  0
VERTEX
  8
0
 62
7
  6
CONTINUOUS
 10
56.9133723608
 20
243.4509447661
  0
VERTEX
  8
0
 62
7
  6
CONTINUOUS
 10
56.8831901625
 20
243.4169187866
  0
VERTEX
  8
0
 62
7
  6
CONTINUOUS
 10
56.8559579324
 20
243.3802591513
  0
VERTEX
  8
0
 62
7
  6
CONTINUOUS
 10
56.8319695943
 20
243.3412346978
  0
VERTEX
  8
0
 62
7
  6
CONTINUOUS
 10
56.8114784946
 20
243.3001503127
  0
VERTEX
  8
0
 62
7
  6
CONTINUOUS
 10
56.7946984441
 20
243.257345582
  0
VERTEX
  8
0
 62
7
  6
CONTINUOUS
 10
56.781800883
 20
243.2131921956
  0
VERTEX
  8
0
 62
7
  6
CONTINUOUS
 10
56.7729082867
 20
243.1680755455
  0
VERTEX
  8
0
 62
7
  6
CONTINUOUS
 10
56.7680951848
 20
243.1223832993
  0
VERTEX
  8
0
 62
7
  6
CONTINUOUS
 10
56.7671694763
 20
243.0915944647
  0
SEQEND
  0
LINE
  8
0
 62
7
  6
CONTINUOUS
 10
31.8047934973
 20
243.6196613873
 11
31.7164831418
 21
243.5846629143
  0
LINE
  8
0
 62
7
  6
CONTINUOUS
 10
57.2047934973
 20
243.6196613873
 11
57.1164831418
 21
243.5846629143
  0
LINE
  8
0
 62
7
  6
CONTINUOUS
 10
129.4671693947
 20
229.8698302834
 11
129.4671693947
 21
239.4698302834
  0
LINE
  8
0
 62
7
  6
CONTINUOUS
 10
132.9671693947
 20
242.1698302834
 11
132.9671693947
 21
243.0915972503
  0
LINE
  8
0
 62
7
  6
CONTINUOUS
 10
133.2671693947
 20
243.5625292946
 11
133.2671693947
 21
244.5831542306
  0
POLYLINE
  8
0
 62
7
  6
CONTINUOUS
 66
1
 70
0
  0
VERTEX
  8
0
 62
7
  6
CONTINUOUS
 10
108.0296641537
 20
243.630249252
  0
VERTEX
  8
0
 62
7
  6
CONTINUOUS
 10
108.0317255544
 20
243.6314730681
  0
VERTEX
  8
0
 62
7
  6
CONTINUOUS
 10
108.0308192023
 20
243.6310052142
  0
VERTEX
  8
0
 62
7
  6
CONTINUOUS
 10
108.0254661161
 20
243.6284160028
  0
VERTEX
  8
0
 62
7
  6
CONTINUOUS
 10
108.0155768479
 20
243.6240545295
  0
VERTEX
  8
0
 62
7
  6
CONTINUOUS
 10
108.004804491
 20
243.6196657269
  0
SEQEND
  0
POLYLINE
  8
0
 62
7
  6
CONTINUOUS
 66
1
 70
0
  0
VERTEX
  8
0
 62
7
  6
CONTINUOUS
 10
82.5164945609
 20
243.5846674396
  0
VERTEX
  8
0
 62
7
  6
CONTINUOUS
 10
82.4995633192
 20
243.5776543948
  0
VERTEX
  8
0
 62
7
  6
CONTINUOUS
 10
82.470972556
 20
243.5645218754
  0
VERTEX
  8
0
 62
7
  6
CONTINUOUS
 10
82.4414049765
 20
243.5490306073
  0
VERTEX
  8
0
 62
7
  6
CONTINUOUS
 10
82.4106907672
 20
243.5305799638
  0
VERTEX
  8
0
 62
7
  6
CONTINUOUS
 10
82.3787655378
 20
243.508436712
  0
VERTEX
  8
0
 62
7
  6
CONTINUOUS
 10
82.3458641818
 20
243.4818447378
  0
VERTEX
  8
0
 62
7
  6
CONTINUOUS
 10
82.3133723608
 20
243.4509447661
  0
VERTEX
  8
0
 62
7
  6
CONTINUOUS
 10
82.2831901625
 20
243.4169187866
  0
VERTEX
  8
0
 62
7
  6
CONTINUOUS
 10
82.2559579324
 20
243.3802591513
  0
VERTEX
  8
0
 62
7
  6
CONTINUOUS
 10
82.2319695943
 20
243.3412346978
  0
VERTEX
  8
0
 62
7
  6
CONTINUOUS
 10
82.2114784946
 20
243.3001503127
  0
VERTEX
  8
0
 62
7
  6
CONTINUOUS
 10
82.1946984441
 20
243.257345582
  0
VERTEX
  8
0
 62
7
  6
CONTINUOUS
 10
82.181800883
 20
243.2131921956
  0
VERTEX
  8
0
 62
7
  6
CONTINUOUS
 10
82.1729082867
 20
243.1680755455
  0
VERTEX
  8
0
 62
7
  6
CONTINUOUS
 10
82.1680951848
 20
243.1223832993
  0
VERTEX
  8
0
 62
7
  6
CONTINUOUS
 10
82.1671694763
 20
243.0915944647
  0
SEQEND
  0
LINE
  8
0
 62
7
  6
CONTINUOUS
 10
82.6047934973
 20
243.6196613873
 11
82.5164831418
 21
243.5846629143
  0
LINE
  8
0
 62
7
  6
CONTINUOUS
 10
36.4178556473
 20
243.5846629144
 11
36.3295452922
 21
243.6196613873
  0
POLYLINE
  8
0
 62
7
  6
CONTINUOUS
 66
1
 70
0
  0
VERTEX
  8
0
 62
7
  6
CONTINUOUS
 10
36.3295348315
 20
243.6196655164
  0
VERTEX
  8
0
 62
7
  6
CONTINUOUS
 10
36.3185538622
 20
243.6241424958
  0
VERTEX
  8
0
 62
7
  6
CONTINUOUS
 10
36.3087509026
 20
243.6284725204
  0
VERTEX
  8
0
 62
7
  6
CONTINUOUS
 10
36.3034728775
 20
243.6310291215
  0
VERTEX
  8
0
 62
7
  6
CONTINUOUS
 10
36.3024463686
 20
243.6315668149
  0
SEQEND
  0
POLYLINE
  8
0
 62
7
  6
CONTINUOUS
 66
1
 70
0
  0
VERTEX
  8
0
 62
7
  6
CONTINUOUS
 10
138.3671693228
 20
243.0915945192
  0
VERTEX
  8
0
 62
7
  6
CONTINUOUS
 10
138.3661660691
 20
243.1236456629
  0
VERTEX
  8
0
 62
7
  6
CONTINUOUS
 10
138.3612372092
 20
243.1693456738
  0
VERTEX
  8
0
 62
7
  6
CONTINUOUS
 10
138.3522264506
 20
243.2144610732
  0
VERTEX
  8
0
 62
7
  6
CONTINUOUS
 10
138.339209694
 20
243.258601854
  0
VERTEX
  8
0
 62
7
  6
CONTINUOUS
 10
138.3223116193
 20
243.3013805365
  0
VERTEX
  8
0
 62
7
  6
CONTINUOUS
 10
138.3017065266
 20
243.3424240153
  0
VERTEX
  8
0
 62
7
  6
CONTINUOUS
 10
138.2776105856
 20
243.3813935162
  0
VERTEX
  8
0
 62
7
  6
CONTINUOUS
 10
138.2502750616
 20
243.417990691
  0
VERTEX
  8
0
 62
7
  6
CONTINUOUS
 10
138.2199887035
 20
243.4519533276
  0
VERTEX
  8
0
 62
7
  6
CONTINUOUS
 10
138.1874178101
 20
243.4827665582
  0
VERTEX
  8
0
 62
7
  6
CONTINUOUS
 10
138.1545056258
 20
243.5092315946
  0
VERTEX
  8
0
 62
7
  6
CONTINUOUS
 10
138.1226329389
 20
243.5312319252
  0
VERTEX
  8
0
 62
7
  6
CONTINUOUS
 10
138.0919964714
 20
243.5495541945
  0
VERTEX
  8
0
 62
7
  6
CONTINUOUS
 10
138.0624889732
 20
243.564950591
  0
VERTEX
  8
0
 62
7
  6
CONTINUOUS
 10
138.0338983376
 20
243.5780310495
  0
VERTEX
  8
0
 62
7
  6
CONTINUOUS
 10
138.0178462755
 20
243.5846666205
  0
SEQEND
  0
LINE
  8
0
 62
7
  6
CONTINUOUS
 10
138.0671693947
 20
244.5831542306
 11
138.0671693947
 21
243.5625084448
  0
LINE
  8
0
 62
7
  6
CONTINUOUS
 10
138.3671693947
 20
243.0915972503
 11
138.3671693947
 21
242.1698302834
  0
LINE
  8
0
 62
7
  6
CONTINUOUS
 10
141.8671693947
 20
239.4698302834
 11
141.8671693947
 21
229.8698302834
  0
POLYLINE
  8
0
 62
7
  6
CONTINUOUS
 66
1
 70
0
  0
VERTEX
  8
0
 62
7
  6
CONTINUOUS
 10
107.9164945609
 20
243.5846674396
  0
VERTEX
  8
0
 62
7
  6
CONTINUOUS
 10
107.8995633192
 20
243.5776543948
  0
VERTEX
  8
0
 62
7
  6
CONTINUOUS
 10
107.870972556
 20
243.5645218754
  0
VERTEX
  8
0
 62
7
  6
CONTINUOUS
 10
107.8414049765
 20
243.5490306073
  0
VERTEX
  8
0
 62
7
  6
CONTINUOUS
 10
107.8106907672
 20
243.5305799638
  0
VERTEX
  8
0
 62
7
  6
CONTINUOUS
 10
107.7787655378
 20
243.508436712
  0
VERTEX
  8
0
 62
7
  6
CONTINUOUS
 10
107.7458641818
 20
243.4818447378
  0
VERTEX
  8
0
 62
7
  6
CONTINUOUS
 10
107.7133723608
 20
243.4509447661
  0
VERTEX
  8
0
 62
7
  6
CONTINUOUS
 10
107.6831901625
 20
243.4169187866
  0
VERTEX
  8
0
 62
7
  6
CONTINUOUS
 10
107.6559579324
 20
243.3802591513
  0
VERTEX
  8
0
 62
7
  6
CONTINUOUS
 10
107.6319695943
 20
243.3412346978
  0
VERTEX
  8
0
 62
7
  6
CONTINUOUS
 10
107.6114784946
 20
243.3001503127
  0
VERTEX
  8
0
 62
7
  6
CONTINUOUS
 10
107.5946984441
 20
243.257345582
  0
VERTEX
  8
0
 62
7
  6
CONTINUOUS
 10
107.581800883
 20
243.2131921956
  0
VERTEX
  8
0
 62
7
  6
CONTINUOUS
 10
107.5729082867
 20
243.1680755455
  0
VERTEX
  8
0
 62
7
  6
CONTINUOUS
 10
107.5680951848
 20
243.1223832993
  0
VERTEX
  8
0
 62
7
  6
CONTINUOUS
 10
107.5671694763
 20
243.0915944647
  0
SEQEND
  0
LINE
  8
0
 62
7
  6
CONTINUOUS
 10
108.0047934973
 20
243.6196613873
 11
107.9164831418
 21
243.5846629143
  0
LINE
  8
0
 62
7
  6
CONTINUOUS
 10
61.8178556473
 20
243.5846629144
 11
61.7295452922
 21
243.6196613873
  0
POLYLINE
  8
0
 62
7
  6
CONTINUOUS
 66
1
 70
0
  0
VERTEX
  8
0
 62
7
  6
CONTINUOUS
 10
61.7295348315
 20
243.6196655164
  0
VERTEX
  8
0
 62
7
  6
CONTINUOUS
 10
61.7185538622
 20
243.6241424958
  0
VERTEX
  8
0
 62
7
  6
CONTINUOUS
 10
61.7087509026
 20
243.6284725204
  0
VERTEX
  8
0
 62
7
  6
CONTINUOUS
 10
61.7034728775
 20
243.6310291215
  0
VERTEX
  8
0
 62
7
  6
CONTINUOUS
 10
61.7024463686
 20
243.6315668149
  0
SEQEND
  0
LINE
  8
0
 62
7
  6
CONTINUOUS
 10
154.8671693947
 20
229.8698302834
 11
154.8671693947
 21
239.4698302834
  0
POLYLINE
  8
0
 62
7
  6
CONTINUOUS
 66
1
 70
0
  0
VERTEX
  8
0
 62
7
  6
CONTINUOUS
 10
133.4296641537
 20
243.630249252
  0
VERTEX
  8
0
 62
7
  6
CONTINUOUS
 10
133.4317255544
 20
243.6314730681
  0
VERTEX
  8
0
 62
7
  6
CONTINUOUS
 10
133.4308192023
 20
243.6310052142
  0
VERTEX
  8
0
 62
7
  6
CONTINUOUS
 10
133.4254661161
 20
243.6284160028
  0
VERTEX
  8
0
 62
7
  6
CONTINUOUS
 10
133.4155768479
 20
243.6240545295
  0
VERTEX
  8
0
 62
7
  6
CONTINUOUS
 10
133.404804491
 20
243.6196657269
  0
SEQEND
  0
POLYLINE
  8
0
 62
7
  6
CONTINUOUS
 66
1
 70
0
  0
VERTEX
  8
0
 62
7
  6
CONTINUOUS
 10
133.3164945609
 20
243.5846674396
  0
VERTEX
  8
0
 62
7
  6
CONTINUOUS
 10
133.2995633192
 20
243.5776543948
  0
VERTEX
  8
0
 62
7
  6
CONTINUOUS
 10
133.270972556
 20
243.5645218754
  0
VERTEX
  8
0
 62
7
  6
CONTINUOUS
 10
133.2414049765
 20
243.5490306073
  0
VERTEX
  8
0
 62
7
  6
CONTINUOUS
 10
133.2106907672
 20
243.5305799638
  0
VERTEX
  8
0
 62
7
  6
CONTINUOUS
 10
133.1787655378
 20
243.508436712
  0
VERTEX
  8
0
 62
7
  6
CONTINUOUS
 10
133.1458641818
 20
243.4818447378
  0
VERTEX
  8
0
 62
7
  6
CONTINUOUS
 10
133.1133723608
 20
243.4509447661
  0
VERTEX
  8
0
 62
7
  6
CONTINUOUS
 10
133.0831901625
 20
243.4169187866
  0
VERTEX
  8
0
 62
7
  6
CONTINUOUS
 10
133.0559579324
 20
243.3802591513
  0
VERTEX
  8
0
 62
7
  6
CONTINUOUS
 10
133.0319695943
 20
243.3412346978
  0
VERTEX
  8
0
 62
7
  6
CONTINUOUS
 10
133.0114784946
 20
243.3001503127
  0
VERTEX
  8
0
 62
7
  6
CONTINUOUS
 10
132.9946984441
 20
243.257345582
  0
VERTEX
  8
0
 62
7
  6
CONTINUOUS
 10
132.981800883
 20
243.2131921956
  0
VERTEX
  8
0
 62
7
  6
CONTINUOUS
 10
132.9729082867
 20
243.1680755455
  0
VERTEX
  8
0
 62
7
  6
CONTINUOUS
 10
132.9680951848
 20
243.1223832993
  0
VERTEX
  8
0
 62
7
  6
CONTINUOUS
 10
132.9671694763
 20
243.0915944647
  0
SEQEND
  0
LINE
  8
0
 62
7
  6
CONTINUOUS
 10
133.4047934973
 20
243.6196613873
 11
133.3164831418
 21
243.5846629143
  0
LINE
  8
0
 62
7
  6
CONTINUOUS
 10
87.2178556473
 20
243.5846629144
 11
87.1295452922
 21
243.6196613873
  0
POLYLINE
  8
0
 62
7
  6
CONTINUOUS
 66
1
 70
0
  0
VERTEX
  8
0
 62
7
  6
CONTINUOUS
 10
87.1295348315
 20
243.6196655164
  0
VERTEX
  8
0
 62
7
  6
CONTINUOUS
 10
87.1185538622
 20
243.6241424958
  0
VERTEX
  8
0
 62
7
  6
CONTINUOUS
 10
87.1087509026
 20
243.6284725204
  0
VERTEX
  8
0
 62
7
  6
CONTINUOUS
 10
87.1034728775
 20
243.6310291215
  0
VERTEX
  8
0
 62
7
  6
CONTINUOUS
 10
87.1024463686
 20
243.6315668149
  0
SEQEND
  0
POLYLINE
  8
0
 62
7
  6
CONTINUOUS
 66
1
 70
0
  0
VERTEX
  8
0
 62
7
  6
CONTINUOUS
 10
163.7671693228
 20
243.0915945192
  0
VERTEX
  8
0
 62
7
  6
CONTINUOUS
 10
163.7661660691
 20
243.1236456629
  0
VERTEX
  8
0
 62
7
  6
CONTINUOUS
 10
163.7612372092
 20
243.1693456738
  0
VERTEX
  8
0
 62
7
  6
CONTINUOUS
 10
163.7522264506
 20
243.2144610732
  0
VERTEX
  8
0
 62
7
  6
CONTINUOUS
 10
163.739209694
 20
243.258601854
  0
VERTEX
  8
0
 62
7
  6
CONTINUOUS
 10
163.7223116193
 20
243.3013805365
  0
VERTEX
  8
0
 62
7
  6
CONTINUOUS
 10
163.7017065266
 20
243.3424240153
  0
VERTEX
  8
0
 62
7
  6
CONTINUOUS
 10
163.6776105856
 20
243.3813935162
  0
VERTEX
  8
0
 62
7
  6
CONTINUOUS
 10
163.6502750616
 20
243.417990691
  0
VERTEX
  8
0
 62
7
  6
CONTINUOUS
 10
163.6199887035
 20
243.4519533276
  0
VERTEX
  8
0
 62
7
  6
CONTINUOUS
 10
163.5874178101
 20
243.4827665582
  0
VERTEX
  8
0
 62
7
  6
CONTINUOUS
 10
163.5545056258
 20
243.5092315946
  0
VERTEX
  8
0
 62
7
  6
CONTINUOUS
 10
163.5226329389
 20
243.5312319252
  0
VERTEX
  8
0
 62
7
  6
CONTINUOUS
 10
163.4919964714
 20
243.5495541945
  0
VERTEX
  8
0
 62
7
  6
CONTINUOUS
 10
163.4624889732
 20
243.564950591
  0
VERTEX
  8
0
 62
7
  6
CONTINUOUS
 10
163.4338983376
 20
243.5780310496
  0
VERTEX
  8
0
 62
7
  6
CONTINUOUS
 10
163.4178462755
 20
243.5846666205
  0
SEQEND
  0
LINE
  8
0
 62
7
  6
CONTINUOUS
 10
158.3671693947
 20
242.1698302834
 11
158.3671693947
 21
243.0915972503
  0
LINE
  8
0
 62
7
  6
CONTINUOUS
 10
158.6671693947
 20
243.5625292946
 11
158.6671693947
 21
244.5831542306
  0
LINE
  8
0
 62
7
  6
CONTINUOUS
 10
163.4671693947
 20
244.5831542306
 11
163.4671693947
 21
243.5625084448
  0
LINE
  8
0
 62
7
  6
CONTINUOUS
 10
163.7671693947
 20
243.0915972503
 11
163.7671693947
 21
242.1698302834
  0
LINE
  8
0
 62
7
  6
CONTINUOUS
 10
167.2671693947
 20
239.4698302834
 11
167.2671693947
 21
229.8698302834
  0
POLYLINE
  8
0
 62
7
  6
CONTINUOUS
 66
1
 70
0
  0
VERTEX
  8
0
 62
7
  6
CONTINUOUS
 10
158.8296641537
 20
243.630249252
  0
VERTEX
  8
0
 62
7
  6
CONTINUOUS
 10
158.8317255544
 20
243.6314730681
  0
VERTEX
  8
0
 62
7
  6
CONTINUOUS
 10
158.8308192023
 20
243.6310052142
  0
VERTEX
  8
0
 62
7
  6
CONTINUOUS
 10
158.8254661161
 20
243.6284160028
  0
VERTEX
  8
0
 62
7
  6
CONTINUOUS
 10
158.8155768479
 20
243.6240545295
  0
VERTEX
  8
0
 62
7
  6
CONTINUOUS
 10
158.804804491
 20
243.6196657269
  0
SEQEND
  0
POLYLINE
  8
0
 62
7
  6
CONTINUOUS
 66
1
 70
0
  0
VERTEX
  8
0
 62
7
  6
CONTINUOUS
 10
158.7164945609
 20
243.5846674396
  0
VERTEX
  8
0
 62
7
  6
CONTINUOUS
 10
158.6995633192
 20
243.5776543948
  0
VERTEX
  8
0
 62
7
  6
CONTINUOUS
 10
158.670972556
 20
243.5645218754
  0
VERTEX
  8
0
 62
7
  6
CONTINUOUS
 10
158.6414049765
 20
243.5490306073
  0
VERTEX
  8
0
 62
7
  6
CONTINUOUS
 10
158.6106907672
 20
243.5305799638
  0
VERTEX
  8
0
 62
7
  6
CONTINUOUS
 10
158.5787655378
 20
243.508436712
  0
VERTEX
  8
0
 62
7
  6
CONTINUOUS
 10
158.5458641818
 20
243.4818447378
  0
VERTEX
  8
0
 62
7
  6
CONTINUOUS
 10
158.5133723608
 20
243.4509447661
  0
VERTEX
  8
0
 62
7
  6
CONTINUOUS
 10
158.4831901625
 20
243.4169187866
  0
VERTEX
  8
0
 62
7
  6
CONTINUOUS
 10
158.4559579324
 20
243.3802591513
  0
VERTEX
  8
0
 62
7
  6
CONTINUOUS
 10
158.4319695943
 20
243.3412346977
  0
VERTEX
  8
0
 62
7
  6
CONTINUOUS
 10
158.4114784946
 20
243.3001503127
  0
VERTEX
  8
0
 62
7
  6
CONTINUOUS
 10
158.3946984441
 20
243.257345582
  0
VERTEX
  8
0
 62
7
  6
CONTINUOUS
 10
158.381800883
 20
243.2131921956
  0
VERTEX
  8
0
 62
7
  6
CONTINUOUS
 10
158.3729082867
 20
243.1680755455
  0
VERTEX
  8
0
 62
7
  6
CONTINUOUS
 10
158.3680951848
 20
243.1223832993
  0
VERTEX
  8
0
 62
7
  6
CONTINUOUS
 10
158.3671694763
 20
243.0915944647
  0
SEQEND
  0
LINE
  8
0
 62
7
  6
CONTINUOUS
 10
158.8047934973
 20
243.6196613873
 11
158.7164831418
 21
243.5846629143
  0
LINE
  8
0
 62
7
  6
CONTINUOUS
 10
28.2671693947
 20
227.1698302834
 11
331.9671693947
 21
227.1698302834
  0
LINE
  8
0
 62
7
  6
CONTINUOUS
 10
112.6178556473
 20
243.5846629144
 11
112.5295452922
 21
243.6196613873
  0
POLYLINE
  8
0
 62
7
  6
CONTINUOUS
 66
1
 70
0
  0
VERTEX
  8
0
 62
7
  6
CONTINUOUS
 10
112.5295348315
 20
243.6196655164
  0
VERTEX
  8
0
 62
7
  6
CONTINUOUS
 10
112.5185538622
 20
243.6241424958
  0
VERTEX
  8
0
 62
7
  6
CONTINUOUS
 10
112.5087509026
 20
243.6284725204
  0
VERTEX
  8
0
 62
7
  6
CONTINUOUS
 10
112.5034728775
 20
243.6310291215
  0
VERTEX
  8
0
 62
7
  6
CONTINUOUS
 10
112.5024463686
 20
243.6315668149
  0
SEQEND
  0
POLYLINE
  8
0
 62
7
  6
CONTINUOUS
 66
1
 70
0
  0
VERTEX
  8
0
 62
7
  6
CONTINUOUS
 10
176.4671693132
 20
243.0716854301
  0
VERTEX
  8
0
 62
7
  6
CONTINUOUS
 10
176.4662457947
 20
243.1024426568
  0
VERTEX
  8
0
 62
7
  6
CONTINUOUS
 10
176.4614560068
 20
243.1480093212
  0
VERTEX
  8
0
 62
7
  6
CONTINUOUS
 10
176.452610642
 20
243.1930042068
  0
VERTEX
  8
0
 62
7
  6
CONTINUOUS
 10
176.4397831856
 20
243.2370445938
  0
VERTEX
  8
0
 62
7
  6
CONTINUOUS
 10
176.4230940188
 20
243.279749794
  0
VERTEX
  8
0
 62
7
  6
CONTINUOUS
 10
176.4027115754
 20
243.3207521913
  0
VERTEX
  8
0
 62
7
  6
CONTINUOUS
 10
176.3788466182
 20
243.359714451
  0
VERTEX
  8
0
 62
7
  6
CONTINUOUS
 10
176.3517522903
 20
243.3963295137
  0
VERTEX
  8
0
 62
7
  6
CONTINUOUS
 10
176.3217243338
 20
243.430325883
  0
VERTEX
  8
0
 62
7
  6
CONTINUOUS
 10
176.289379039
 20
243.4612319003
  0
VERTEX
  8
0
 62
7
  6
CONTINUOUS
 10
176.2565687686
 20
243.4878864028
  0
VERTEX
  8
0
 62
7
  6
CONTINUOUS
 10
176.2246630605
 20
243.5101350295
  0
VERTEX
  8
0
 62
7
  6
CONTINUOUS
 10
176.1939225286
 20
243.5287024927
  0
VERTEX
  8
0
 62
7
  6
CONTINUOUS
 10
176.1671693947
 20
243.5427968045
  0
SEQEND
  0
POLYLINE
  8
0
 62
7
  6
CONTINUOUS
 66
1
 70
0
  0
VERTEX
  8
0
 62
7
  6
CONTINUOUS
 10
176.1671693448
 20
244.6669562444
  0
VERTEX
  8
0
 62
7
  6
CONTINUOUS
 10
176.1662940361
 20
244.6965316074
  0
VERTEX
  8
0
 62
7
  6
CONTINUOUS
 10
176.1617636839
 20
244.7402870872
  0
VERTEX
  8
0
 62
7
  6
CONTINUOUS
 10
176.1538504957
 20
244.7816029235
  0
VERTEX
  8
0
 62
7
  6
CONTINUOUS
 10
176.1430418005
 20
244.8204156741
  0
VERTEX
  8
0
 62
7
  6
CONTINUOUS
 10
176.1297659941
 20
244.856722496
  0
VERTEX
  8
0
 62
7
  6
CONTINUOUS
 10
176.1143925536
 20
244.8905658973
  0
VERTEX
  8
0
 62
7
  6
CONTINUOUS
 10
176.0972347101
 20
244.9220192121
  0
VERTEX
  8
0
 62
7
  6
CONTINUOUS
 10
176.0785835917
 20
244.9511315239
  0
VERTEX
  8
0
 62
7
  6
CONTINUOUS
 10
176.0587339232
 20
244.9779206643
  0
VERTEX
  8
0
 62
7
  6
CONTINUOUS
 10
176.0379600758
 20
245.0024273151
  0
VERTEX
  8
0
 62
7
  6
CONTINUOUS
 10
176.0165132123
 20
245.0247144203
  0
VERTEX
  8
0
 62
7
  6
CONTINUOUS
 10
175.9946074765
 20
245.0448746797
  0
VERTEX
  8
0
 62
7
  6
CONTINUOUS
 10
175.9724147609
 20
245.0630244068
  0
VERTEX
  8
0
 62
7
  6
CONTINUOUS
 10
175.950078911
 20
245.0792842376
  0
VERTEX
  8
0
 62
7
  6
CONTINUOUS
 10
175.9277279764
 20
245.093769727
  0
VERTEX
  8
0
 62
7
  6
CONTINUOUS
 10
175.9055277853
 20
245.1065642957
  0
VERTEX
  8
0
 62
7
  6
CONTINUOUS
 10
175.8836504119
 20
245.1177518407
  0
VERTEX
  8
0
 62
7
  6
CONTINUOUS
 10
175.8622550709
 20
245.1274284018
  0
VERTEX
  8
0
 62
7
  6
CONTINUOUS
 10
175.841495021
 20
245.1356970003
  0
VERTEX
  8
0
 62
7
  6
CONTINUOUS
 10
175.8215294141
 20
245.1426631242
  0
VERTEX
  8
0
 62
7
  6
CONTINUOUS
 10
175.8025119389
 20
245.1484396066
  0
VERTEX
  8
0
 62
7
  6
CONTINUOUS
 10
175.784728258
 20
245.1531117203
  0
VERTEX
  8
0
 62
7
  6
CONTINUOUS
 10
175.7686104191
 20
245.1567563893
  0
VERTEX
  8
0
 62
7
  6
CONTINUOUS
 10
175.754438853
 20
245.1595102724
  0
VERTEX
  8
0
 62
7
  6
CONTINUOUS
 10
175.7418751
 20
245.1616077515
  0
VERTEX
  8
0
 62
7
  6
CONTINUOUS
 10
175.7303307907
 20
245.163257082
  0
VERTEX
  8
0
 62
7
  6
CONTINUOUS
 10
175.7196992756
 20
245.1645471725
  0
VERTEX
  8
0
 62
7
  6
CONTINUOUS
 10
175.7102406755
 20
245.1655170613
  0
VERTEX
  8
0
 62
7
  6
CONTINUOUS
 10
175.7019540943
 20
245.166235592
  0
VERTEX
  8
0
 62
7
  6
CONTINUOUS
 10
175.6945810538
 20
245.1667782777
  0
VERTEX
  8
0
 62
7
  6
CONTINUOUS
 10
175.6878617414
 20
245.1671998871
  0
VERTEX
  8
0
 62
7
  6
CONTINUOUS
 10
175.6815805854
 20
245.1675372775
  0
VERTEX
  8
0
 62
7
  6
CONTINUOUS
 10
175.6755806552
 20
245.1678143665
  0
VERTEX
  8
0
 62
7
  6
CONTINUOUS
 10
175.6697407281
 20
245.1680473147
  0
VERTEX
  8
0
 62
7
  6
CONTINUOUS
 10
175.6639445278
 20
245.1682479072
  0
VERTEX
  8
0
 62
7
  6
CONTINUOUS
 10
175.6520681875
 20
245.1685828471
  0
SEQEND
  0
LINE
  8
0
 62
7
  6
CONTINUOUS
 10
176.1671693947
 20
242.1698302834
 11
176.1671693947
 21
244.6669563946
  0
LINE
  8
0
 62
7
  6
CONTINUOUS
 10
176.4671693947
 20
243.0716882268
 11
176.4671693947
 21
242.1698302834
  0
POLYLINE
  8
0
 62
7
  6
CONTINUOUS
 66
1
 70
0
  0
VERTEX
  8
0
 62
7
  6
CONTINUOUS
 10
184.2296641459
 20
243.6302492472
  0
VERTEX
  8
0
 62
7
  6
CONTINUOUS
 10
184.2317255516
 20
243.6314730664
  0
VERTEX
  8
0
 62
7
  6
CONTINUOUS
 10
184.23081921
 20
243.6310052181
  0
VERTEX
  8
0
 62
7
  6
CONTINUOUS
 10
184.2254661332
 20
243.6284160108
  0
VERTEX
  8
0
 62
7
  6
CONTINUOUS
 10
184.2155768655
 20
243.624054537
  0
VERTEX
  8
0
 62
7
  6
CONTINUOUS
 10
184.2048044909
 20
243.6196657269
  0
SEQEND
  0
POLYLINE
  8
0
 62
7
  6
CONTINUOUS
 66
1
 70
0
  0
VERTEX
  8
0
 62
7
  6
CONTINUOUS
 10
184.1164945609
 20
243.5846674396
  0
VERTEX
  8
0
 62
7
  6
CONTINUOUS
 10
184.0995633192
 20
243.5776543948
  0
VERTEX
  8
0
 62
7
  6
CONTINUOUS
 10
184.070972556
 20
243.5645218754
  0
VERTEX
  8
0
 62
7
  6
CONTINUOUS
 10
184.0414049765
 20
243.5490306073
  0
VERTEX
  8
0
 62
7
  6
CONTINUOUS
 10
184.0106907672
 20
243.5305799638
  0
VERTEX
  8
0
 62
7
  6
CONTINUOUS
 10
183.9787655378
 20
243.508436712
  0
VERTEX
  8
0
 62
7
  6
CONTINUOUS
 10
183.9458641818
 20
243.4818447378
  0
VERTEX
  8
0
 62
7
  6
CONTINUOUS
 10
183.9133723608
 20
243.4509447661
  0
VERTEX
  8
0
 62
7
  6
CONTINUOUS
 10
183.8831901625
 20
243.4169187866
  0
VERTEX
  8
0
 62
7
  6
CONTINUOUS
 10
183.8559579324
 20
243.3802591513
  0
VERTEX
  8
0
 62
7
  6
CONTINUOUS
 10
183.8319695943
 20
243.3412346978
  0
VERTEX
  8
0
 62
7
  6
CONTINUOUS
 10
183.8114784946
 20
243.3001503127
  0
VERTEX
  8
0
 62
7
  6
CONTINUOUS
 10
183.7946984441
 20
243.257345582
  0
VERTEX
  8
0
 62
7
  6
CONTINUOUS
 10
183.781800883
 20
243.2131921956
  0
VERTEX
  8
0
 62
7
  6
CONTINUOUS
 10
183.7729082867
 20
243.1680755455
  0
VERTEX
  8
0
 62
7
  6
CONTINUOUS
 10
183.7680951848
 20
243.1223832993
  0
VERTEX
  8
0
 62
7
  6
CONTINUOUS
 10
183.7671694763
 20
243.0915944647
  0
SEQEND
  0
LINE
  8
0
 62
7
  6
CONTINUOUS
 10
184.2047934973
 20
243.6196613873
 11
184.1164831418
 21
243.5846629143
  0
LINE
  8
DEFAULT_1
 62
2
  6
CENTER
 10
23.0723684211
 20
234.6698302834
 11
346.5464213612
 21
234.6698302834
  0
LINE
  8
0
 62
7
  6
CONTINUOUS
 10
138.0178556473
 20
243.5846629144
 11
137.9295452922
 21
243.6196613873
  0
POLYLINE
  8
0
 62
7
  6
CONTINUOUS
 66
1
 70
0
  0
VERTEX
  8
0
 62
7
  6
CONTINUOUS
 10
137.9295348315
 20
243.6196655164
  0
VERTEX
  8
0
 62
7
  6
CONTINUOUS
 10
137.9185538622
 20
243.6241424958
  0
VERTEX
  8
0
 62
7
  6
CONTINUOUS
 10
137.9087509026
 20
243.6284725204
  0
VERTEX
  8
0
 62
7
  6
CONTINUOUS
 10
137.9034728775
 20
243.6310291215
  0
VERTEX
  8
0
 62
7
  6
CONTINUOUS
 10
137.9024463686
 20
243.6315668149
  0
SEQEND
  0
LINE
  8
DEFAULT_1
 62
2
  6
CENTER
 10
180.1171693947
 20
224.3803565992
 11
180.1171693947
 21
247.1698303346
  0
LINE
  8
0
 62
7
  6
CONTINUOUS
 10
180.2671693947
 20
229.8698302834
 11
180.2671693947
 21
239.4698302834
  0
LINE
  8
0
 62
7
  6
CONTINUOUS
 10
183.7671693947
 20
242.1698302834
 11
183.7671693947
 21
243.0915972503
  0
LINE
  8
0
 62
7
  6
CONTINUOUS
 10
184.0671739058
 20
243.5625316581
 11
184.0672066243
 21
244.6411493771
  0
POLYLINE
  8
0
 62
7
  6
CONTINUOUS
 66
1
 70
0
  0
VERTEX
  8
0
 62
7
  6
CONTINUOUS
 10
209.6296641537
 20
243.630249252
  0
VERTEX
  8
0
 62
7
  6
CONTINUOUS
 10
209.6317255544
 20
243.6314730681
  0
VERTEX
  8
0
 62
7
  6
CONTINUOUS
 10
209.6308192023
 20
243.6310052142
  0
VERTEX
  8
0
 62
7
  6
CONTINUOUS
 10
209.6254661161
 20
243.6284160028
  0
VERTEX
  8
0
 62
7
  6
CONTINUOUS
 10
209.6155768479
 20
243.6240545295
  0
VERTEX
  8
0
 62
7
  6
CONTINUOUS
 10
209.604804491
 20
243.6196657269
  0
SEQEND
  0
POLYLINE
  8
0
 62
7
  6
CONTINUOUS
 66
1
 70
0
  0
VERTEX
  8
0
 62
7
  6
CONTINUOUS
 10
209.5164945609
 20
243.5846674396
  0
VERTEX
  8
0
 62
7
  6
CONTINUOUS
 10
209.4995633192
 20
243.5776543948
  0
VERTEX
  8
0
 62
7
  6
CONTINUOUS
 10
209.470972556
 20
243.5645218754
  0
VERTEX
  8
0
 62
7
  6
CONTINUOUS
 10
209.4414049765
 20
243.5490306073
  0
VERTEX
  8
0
 62
7
  6
CONTINUOUS
 10
209.4106907672
 20
243.5305799638
  0
VERTEX
  8
0
 62
7
  6
CONTINUOUS
 10
209.3787655378
 20
243.508436712
  0
VERTEX
  8
0
 62
7
  6
CONTINUOUS
 10
209.3458641818
 20
243.4818447378
  0
VERTEX
  8
0
 62
7
  6
CONTINUOUS
 10
209.3133723608
 20
243.4509447661
  0
VERTEX
  8
0
 62
7
  6
CONTINUOUS
 10
209.2831901625
 20
243.4169187866
  0
VERTEX
  8
0
 62
7
  6
CONTINUOUS
 10
209.2559579324
 20
243.3802591513
  0
VERTEX
  8
0
 62
7
  6
CONTINUOUS
 10
209.2319695943
 20
243.3412346978
  0
VERTEX
  8
0
 62
7
  6
CONTINUOUS
 10
209.2114784946
 20
243.3001503127
  0
VERTEX
  8
0
 62
7
  6
CONTINUOUS
 10
209.1946984441
 20
243.257345582
  0
VERTEX
  8
0
 62
7
  6
CONTINUOUS
 10
209.181800883
 20
243.2131921956
  0
VERTEX
  8
0
 62
7
  6
CONTINUOUS
 10
209.1729082867
 20
243.1680755455
  0
VERTEX
  8
0
 62
7
  6
CONTINUOUS
 10
209.1680951848
 20
243.1223832993
  0
VERTEX
  8
0
 62
7
  6
CONTINUOUS
 10
209.1671694763
 20
243.0915944647
  0
SEQEND
  0
LINE
  8
0
 62
7
  6
CONTINUOUS
 10
209.6047934973
 20
243.6196613873
 11
209.5164831418
 21
243.5846629143
  0
POLYLINE
  8
0
 62
7
  6
CONTINUOUS
 66
1
 70
0
  0
VERTEX
  8
0
 62
7
  6
CONTINUOUS
 10
184.5567446835
 20
245.1463865166
  0
VERTEX
  8
0
 62
7
  6
CONTINUOUS
 10
184.5448663142
 20
245.145206575
  0
VERTEX
  8
0
 62
7
  6
CONTINUOUS
 10
184.5329436234
 20
245.1438773234
  0
VERTEX
  8
0
 62
7
  6
CONTINUOUS
 10
184.5207259487
 20
245.1423415178
  0
VERTEX
  8
0
 62
7
  6
CONTINUOUS
 10
184.5079311856
 20
245.1405190519
  0
VERTEX
  8
0
 62
7
  6
CONTINUOUS
 10
184.4943750826
 20
245.1383210281
  0
VERTEX
  8
0
 62
7
  6
CONTINUOUS
 10
184.4799501773
 20
245.1356504203
  0
VERTEX
  8
0
 62
7
  6
CONTINUOUS
 10
184.4646405746
 20
245.1324111989
  0
VERTEX
  8
0
 62
7
  6
CONTINUOUS
 10
184.4482646163
 20
245.1284532848
  0
VERTEX
  8
0
 62
7
  6
CONTINUOUS
 10
184.4302035553
 20
245.1234615193
  0
VERTEX
  8
0
 62
7
  6
CONTINUOUS
 10
184.409723291
 20
245.1169602779
  0
VERTEX
  8
0
 62
7
  6
CONTINUOUS
 10
184.3865458825
 20
245.1084598755
  0
VERTEX
  8
0
 62
7
  6
CONTINUOUS
 10
184.3610892505
 20
245.0976291697
  0
VERTEX
  8
0
 62
7
  6
CONTINUOUS
 10
184.3340201635
 20
245.0842561893
  0
VERTEX
  8
0
 62
7
  6
CONTINUOUS
 10
184.3057772904
 20
245.0680611783
  0
VERTEX
  8
0
 62
7
  6
CONTINUOUS
 10
184.2766980737
 20
245.0487008268
  0
VERTEX
  8
0
 62
7
  6
CONTINUOUS
 10
184.2471503094
 20
245.0258107461
  0
VERTEX
  8
0
 62
7
  6
CONTINUOUS
 10
184.2174696681
 20
244.9989231023
  0
VERTEX
  8
0
 62
7
  6
CONTINUOUS
 10
184.1881865996
 20
244.9676287719
  0
VERTEX
  8
0
 62
7
  6
CONTINUOUS
 10
184.1603748961
 20
244.9321298694
  0
VERTEX
  8
0
 62
7
  6
CONTINUOUS
 10
184.1351748828
 20
244.8930959756
  0
VERTEX
  8
0
 62
7
  6
CONTINUOUS
 10
184.1134616174
 20
244.851389229
  0
VERTEX
  8
0
 62
7
  6
CONTINUOUS
 10
184.0956713428
 20
244.8076005391
  0
VERTEX
  8
0
 62
7
  6
CONTINUOUS
 10
184.0820537624
 20
244.7621996714
  0
VERTEX
  8
0
 62
7
  6
CONTINUOUS
 10
184.0727838595
 20
244.7156875731
  0
VERTEX
  8
0
 62
7
  6
CONTINUOUS
 10
184.0679585039
 20
244.6685825219
  0
VERTEX
  8
0
 62
7
  6
CONTINUOUS
 10
184.0672066741
 20
244.641148737
  0
SEQEND
  0
LINE
  8
0
 62
7
  6
CONTINUOUS
 10
184.5666531048
 20
245.1472670755
 11
184.5567446835
 21
245.1463865166
  0
LINE
  8
0
 62
7
  6
CONTINUOUS
 10
184.581204569
 20
245.148447619
 11
184.5666531048
 21
245.1472670755
  0
POLYLINE
  8
0
 62
7
  6
CONTINUOUS
 66
1
 70
0
  0
VERTEX
  8
0
 62
7
  6
CONTINUOUS
 10
184.6376878513
 20
245.151936438
  0
VERTEX
  8
0
 62
7
  6
CONTINUOUS
 10
184.622263189
 20
245.1511141742
  0
VERTEX
  8
0
 62
7
  6
CONTINUOUS
 10
184.6077924883
 20
245.1502637346
  0
VERTEX
  8
0
 62
7
  6
CONTINUOUS
 10
184.5941525032
 20
245.149378249
  0
VERTEX
  8
0
 62
7
  6
CONTINUOUS
 10
184.581204569
 20
245.148447619
  0
SEQEND
  0
LINE
  8
0
 62
7
  6
CONTINUOUS
 10
184.6718447348
 20
245.1535138508
 11
184.6376878513
 21
245.151936438
  0
LINE
  8
0
 62
7
  6
CONTINUOUS
 10
184.7110435383
 20
245.155016
 11
184.6718447348
 21
245.1535138508
  0
LINE
  8
0
 62
7
  6
CONTINUOUS
 10
184.7559661425
 20
245.1564496138
 11
184.7110435383
 21
245.155016
  0
LINE
  8
0
 62
7
  6
CONTINUOUS
 10
184.80725214
 20
245.1578151484
 11
184.7559661425
 21
245.1564496138
  0
LINE
  8
0
 62
7
  6
CONTINUOUS
 10
184.8973365118
 20
245.1597268734
 11
184.80725214
 21
245.1578151484
  0
LINE
  8
0
 62
7
  6
CONTINUOUS
 10
185.0448186892
 20
245.1619946399
 11
184.8973365118
 21
245.1597268734
  0
LINE
  8
0
 62
7
  6
CONTINUOUS
 10
32.6448186892
 20
245.1619946399
 11
32.4973365118
 21
245.1597268734
  0
LINE
  8
0
 62
7
  6
CONTINUOUS
 10
185.2801774267
 20
245.1643362075
 11
185.0448186892
 21
245.1619946399
  0
LINE
  8
0
 62
7
  6
CONTINUOUS
 10
32.8801774266
 20
245.1643362075
 11
32.6448186892
 21
245.1619946399
  0
LINE
  8
0
 62
7
  6
CONTINUOUS
 10
185.790705426
 20
245.1668270561
 11
185.2801774267
 21
245.1643362075
  0
LINE
  8
0
 62
7
  6
CONTINUOUS
 10
33.390705426
 20
245.1668270561
 11
32.8801774266
 21
245.1643362075
  0
LINE
  8
0
 62
7
  6
CONTINUOUS
 10
322.1154638686
 20
245.1692241677
 11
321.7587615716
 21
245.1686963893
  0
LINE
  8
0
 62
7
  6
CONTINUOUS
 10
296.7154638686
 20
245.1692241677
 11
296.3587615716
 21
245.1686963893
  0
LINE
  8
0
 62
7
  6
CONTINUOUS
 10
271.3154638686
 20
245.1692241677
 11
270.9587615716
 21
245.1686963893
  0
LINE
  8
0
 62
7
  6
CONTINUOUS
 10
245.9154638686
 20
245.1692241677
 11
245.5587615716
 21
245.1686963893
  0
LINE
  8
0
 62
7
  6
CONTINUOUS
 10
220.5154638686
 20
245.1692241677
 11
220.1587615716
 21
245.1686963893
  0
LINE
  8
0
 62
7
  6
CONTINUOUS
 10
195.1154638686
 20
245.1692241677
 11
194.7587615716
 21
245.1686963893
  0
LINE
  8
0
 62
7
  6
CONTINUOUS
 10
321.7587615716
 20
245.1686963893
 11
321.0218407831
 21
245.1679039426
  0
LINE
  8
0
 62
7
  6
CONTINUOUS
 10
296.3587615716
 20
245.1686963893
 11
295.621840783
 21
245.1679039426
  0
LINE
  8
0
 62
7
  6
CONTINUOUS
 10
270.9587615716
 20
245.1686963893
 11
270.2218407831
 21
245.1679039426
  0
LINE
  8
0
 62
7
  6
CONTINUOUS
 10
245.5587615716
 20
245.1686963893
 11
244.8218407831
 21
245.1679039426
  0
LINE
  8
0
 62
7
  6
CONTINUOUS
 10
220.1587615716
 20
245.1686963893
 11
219.421840783
 21
245.1679039426
  0
LINE
  8
0
 62
7
  6
CONTINUOUS
 10
194.7587615716
 20
245.1686963893
 11
194.0218407831
 21
245.1679039426
  0
LINE
  8
0
 62
7
  6
CONTINUOUS
 10
170.0590635557
 20
245.169662099
 11
168.6218407831
 21
245.1679039426
  0
LINE
  8
0
 62
7
  6
CONTINUOUS
 10
322.760335515
 20
245.1698303094
 11
322.1154638686
 21
245.1692241677
  0
LINE
  8
0
 62
7
  6
CONTINUOUS
 10
297.360335515
 20
245.1698303094
 11
296.7154638686
 21
245.1692241677
  0
LINE
  8
0
 62
7
  6
CONTINUOUS
 10
271.960335515
 20
245.1698303094
 11
271.3154638686
 21
245.1692241677
  0
LINE
  8
0
 62
7
  6
CONTINUOUS
 10
246.5603355149
 20
245.1698303094
 11
245.9154638686
 21
245.1692241677
  0
LINE
  8
0
 62
7
  6
CONTINUOUS
 10
221.160335515
 20
245.1698303094
 11
220.5154638686
 21
245.1692241677
  0
LINE
  8
0
 62
7
  6
CONTINUOUS
 10
195.760335515
 20
245.1698303094
 11
195.1154638686
 21
245.1692241677
  0
LINE
  8
0
 62
7
  6
CONTINUOUS
 10
144.960335515
 20
245.1698303094
 11
143.4077894777
 21
245.1680393499
  0
LINE
  8
0
 62
7
  6
CONTINUOUS
 10
119.560335515
 20
245.1698303094
 11
118.0077894777
 21
245.1680393499
  0
LINE
  8
0
 62
7
  6
CONTINUOUS
 10
94.1603355149
 20
245.1698303094
 11
92.6077894777
 21
245.1680393499
  0
LINE
  8
0
 62
7
  6
CONTINUOUS
 10
68.760335515
 20
245.1698303094
 11
67.2077894777
 21
245.1680393499
  0
LINE
  8
0
 62
7
  6
CONTINUOUS
 10
43.360335515
 20
245.1698303094
 11
41.8077894777
 21
245.1680393499
  0
LINE
  8
0
 62
7
  6
CONTINUOUS
 10
28.2671693947
 20
242.1698302834
 11
331.9671693947
 21
242.1698302834
  0
LINE
  8
0
 62
7
  6
CONTINUOUS
 10
186.5672066242
 20
245.1677988423
 11
185.790705426
 21
245.1668270561
  0
LINE
  8
0
 62
7
  6
CONTINUOUS
 10
34.1672066242
 20
245.1677988419
 11
41.8077894777
 21
245.1680393499
  0
LINE
  8
0
 62
7
  6
CONTINUOUS
 10
186.5672066242
 20
245.1677988419
 11
194.0218407831
 21
245.1679039426
  0
LINE
  8
0
 62
7
  6
CONTINUOUS
 10
327.8704570836
 20
245.1698302834
 11
322.759390576
 21
245.1698302834
  0
LINE
  8
0
 62
7
  6
CONTINUOUS
 10
175.4704570836
 20
245.1698302834
 11
170.0590635557
 21
245.169662099
  0
LINE
  8
0
 62
7
  6
CONTINUOUS
 10
34.1672066242
 20
245.1677988423
 11
33.390705426
 21
245.1668270561
  0
LINE
  8
0
 62
7
  6
CONTINUOUS
 10
67.2077894777
 20
245.1680393499
 11
52.0864965302
 21
245.1678255498
  0
LINE
  8
0
 62
7
  6
CONTINUOUS
 10
92.6077894777
 20
245.1680393499
 11
77.4864965302
 21
245.1678255498
  0
LINE
  8
0
 62
7
  6
CONTINUOUS
 10
118.0077894777
 20
245.1680393499
 11
102.8864965302
 21
245.1678255498
  0
LINE
  8
0
 62
7
  6
CONTINUOUS
 10
143.4077894777
 20
245.1680393499
 11
128.2864965302
 21
245.1678255498
  0
LINE
  8
0
 62
7
  6
CONTINUOUS
 10
168.6218407831
 20
245.1679039426
 11
153.6864965302
 21
245.1678255498
  0
LINE
  8
0
 62
7
  6
CONTINUOUS
 10
219.421840783
 20
245.1679039426
 11
204.4864965302
 21
245.1678255498
  0
LINE
  8
0
 62
7
  6
CONTINUOUS
 10
244.8218407831
 20
245.1679039426
 11
229.6905457572
 21
245.1679167028
  0
LINE
  8
0
 62
7
  6
CONTINUOUS
 10
270.2218407831
 20
245.1679039426
 11
255.0905457572
 21
245.1679167028
  0
LINE
  8
0
 62
7
  6
CONTINUOUS
 10
295.621840783
 20
245.1679039426
 11
280.4905457572
 21
245.1679167028
  0
LINE
  8
0
 62
7
  6
CONTINUOUS
 10
321.0218407831
 20
245.1679039426
 11
305.8905457572
 21
245.1679167028
  0
LINE
  8
0
 62
7
  6
CONTINUOUS
 10
153.8671694831
 20
245.1677909985
 11
153.1028777797
 21
245.168265916
  0
LINE
  8
0
 62
7
  6
CONTINUOUS
 10
52.2671694831
 20
245.1677909985
 11
51.3116398361
 21
245.168506774
  0
LINE
  8
0
 62
7
  6
CONTINUOUS
 10
43.359390576
 20
245.1698302834
 11
50.6283793911
 21
245.1694850638
  0
LINE
  8
0
 62
7
  6
CONTINUOUS
 10
77.6671694831
 20
245.1677909985
 11
76.7116398361
 21
245.168506774
  0
LINE
  8
0
 62
7
  6
CONTINUOUS
 10
68.759390576
 20
245.1698302834
 11
76.0283793911
 21
245.1694850638
  0
LINE
  8
0
 62
7
  6
CONTINUOUS
 10
103.0671694831
 20
245.1677909985
 11
102.1116398361
 21
245.168506774
  0
LINE
  8
0
 62
7
  6
CONTINUOUS
 10
94.159390576
 20
245.1698302834
 11
101.4283793911
 21
245.1694850638
  0
LINE
  8
0
 62
7
  6
CONTINUOUS
 10
128.4671694831
 20
245.1677909985
 11
127.5116398361
 21
245.168506774
  0
LINE
  8
0
 62
7
  6
CONTINUOUS
 10
119.559390576
 20
245.1698302834
 11
126.8283793911
 21
245.1694850638
  0
LINE
  8
0
 62
7
  6
CONTINUOUS
 10
144.959390576
 20
245.1698302834
 11
152.2283793911
 21
245.1694850638
  0
LINE
  8
0
 62
7
  6
CONTINUOUS
 10
195.759390576
 20
245.1698302834
 11
203.0283793911
 21
245.1694850638
  0
LINE
  8
0
 62
7
  6
CONTINUOUS
 10
221.159390576
 20
245.1698302834
 11
228.4283793911
 21
245.1694850638
  0
LINE
  8
0
 62
7
  6
CONTINUOUS
 10
246.559390576
 20
245.1698302834
 11
253.8283793911
 21
245.1694850638
  0
LINE
  8
0
 62
7
  6
CONTINUOUS
 10
271.959390576
 20
245.1698302834
 11
279.2283793911
 21
245.1694850638
  0
LINE
  8
0
 62
7
  6
CONTINUOUS
 10
297.359390576
 20
245.1698302834
 11
304.6283793911
 21
245.1694850638
  0
LINE
  8
0
 62
7
  6
CONTINUOUS
 10
203.7116398361
 20
245.168506774
 11
204.5182500667
 21
245.1678095449
  0
LINE
  8
0
 62
7
  6
CONTINUOUS
 10
229.1116398361
 20
245.168506774
 11
229.7771439723
 21
245.1678611774
  0
LINE
  8
0
 62
7
  6
CONTINUOUS
 10
254.5116398361
 20
245.168506774
 11
255.1771439723
 21
245.1678611774
  0
LINE
  8
0
 62
7
  6
CONTINUOUS
 10
279.9116398361
 20
245.168506774
 11
280.5771439723
 21
245.1678611774
  0
LINE
  8
0
 62
7
  6
CONTINUOUS
 10
305.3116398361
 20
245.168506774
 11
305.9771439723
 21
245.1678611774
  0
LINE
  8
0
 62
7
  6
CONTINUOUS
 10
51.584305548
 20
245.1681691431
 11
50.8539936192
 21
245.1691701569
  0
LINE
  8
0
 62
7
  6
CONTINUOUS
 10
51.0898747722
 20
245.1688179541
 11
51.2108454867
 21
245.1686417022
  0
LINE
  8
0
 62
7
  6
CONTINUOUS
 10
50.9355301774
 20
245.1690530489
 11
50.5707575102
 21
245.169557255
  0
LINE
  8
0
 62
7
  6
CONTINUOUS
 10
50.6283793911
 20
245.1694850638
 11
50.8539936192
 21
245.1691701569
  0
LINE
  8
0
 62
7
  6
CONTINUOUS
 10
76.984305548
 20
245.1681691431
 11
76.2539936192
 21
245.1691701569
  0
LINE
  8
0
 62
7
  6
CONTINUOUS
 10
76.4898747722
 20
245.1688179541
 11
76.6108454867
 21
245.1686417022
  0
LINE
  8
0
 62
7
  6
CONTINUOUS
 10
76.3355301774
 20
245.1690530489
 11
75.9707575102
 21
245.169557255
  0
LINE
  8
0
 62
7
  6
CONTINUOUS
 10
76.0283793911
 20
245.1694850638
 11
76.2539936192
 21
245.1691701569
  0
LINE
  8
0
 62
7
  6
CONTINUOUS
 10
102.384305548
 20
245.1681691431
 11
101.6539936192
 21
245.1691701569
  0
LINE
  8
0
 62
7
  6
CONTINUOUS
 10
101.8898747722
 20
245.1688179541
 11
102.0108454867
 21
245.1686417022
  0
LINE
  8
0
 62
7
  6
CONTINUOUS
 10
101.7355301774
 20
245.1690530489
 11
101.3707575102
 21
245.169557255
  0
LINE
  8
0
 62
7
  6
CONTINUOUS
 10
127.784305548
 20
245.1681691431
 11
127.0539936192
 21
245.1691701569
  0
LINE
  8
0
 62
7
  6
CONTINUOUS
 10
127.2898747722
 20
245.1688179541
 11
127.4108454867
 21
245.1686417022
  0
LINE
  8
0
 62
7
  6
CONTINUOUS
 10
127.1355301774
 20
245.1690530489
 11
126.7707575102
 21
245.169557255
  0
LINE
  8
0
 62
7
  6
CONTINUOUS
 10
153.311795697
 20
245.1680443951
 11
152.1707575102
 21
245.169557255
  0
LINE
  8
0
 62
7
  6
CONTINUOUS
 10
203.7336825281
 20
245.1684718307
 11
202.9707575102
 21
245.169557255
  0
LINE
  8
0
 62
7
  6
CONTINUOUS
 10
228.7355301774
 20
245.1690530489
 11
228.3707575102
 21
245.169557255
  0
LINE
  8
0
 62
7
  6
CONTINUOUS
 10
228.8898747722
 20
245.1688179541
 11
229.1336825281
 21
245.1684718307
  0
LINE
  8
0
 62
7
  6
CONTINUOUS
 10
228.6539936192
 20
245.1691701569
 11
228.9224314729
 21
245.1687747606
  0
LINE
  8
0
 62
7
  6
CONTINUOUS
 10
254.1355301774
 20
245.1690530489
 11
253.7707575102
 21
245.169557255
  0
LINE
  8
0
 62
7
  6
CONTINUOUS
 10
254.2898747722
 20
245.1688179541
 11
254.5336825281
 21
245.1684718307
  0
LINE
  8
0
 62
7
  6
CONTINUOUS
 10
254.0539936192
 20
245.1691701569
 11
254.3224314729
 21
245.1687747606
  0
POLYLINE
  8
0
 62
7
  6
CONTINUOUS
 66
1
 70
0
  0
VERTEX
  8
0
 62
7
  6
CONTINUOUS
 10
279.1707575102
 20
245.169557255
  0
VERTEX
  8
0
 62
7
  6
CONTINUOUS
 10
279.4539936192
 20
245.1691701569
  0
VERTEX
  8
0
 62
7
  6
CONTINUOUS
 10
279.7224314729
 20
245.1687747606
  0
SEQEND
  0
LINE
  8
0
 62
7
  6
CONTINUOUS
 10
279.5355301774
 20
245.1690530489
 11
279.3513933208
 21
245.1693209323
  0
LINE
  8
0
 62
7
  6
CONTINUOUS
 10
279.6898747722
 20
245.1688179541
 11
279.9336825281
 21
245.1684718307
  0
POLYLINE
  8
0
 62
7
  6
CONTINUOUS
 66
1
 70
0
  0
VERTEX
  8
0
 62
7
  6
CONTINUOUS
 10
304.5707575102
 20
245.169557255
  0
VERTEX
  8
0
 62
7
  6
CONTINUOUS
 10
304.8539936192
 20
245.1691701569
  0
VERTEX
  8
0
 62
7
  6
CONTINUOUS
 10
305.1224314729
 20
245.1687747606
  0
SEQEND
  0
LINE
  8
0
 62
7
  6
CONTINUOUS
 10
304.9355301774
 20
245.1690530489
 11
304.7513933208
 21
245.1693209323
  0
LINE
  8
0
 62
7
  6
CONTINUOUS
 10
305.0898747722
 20
245.1688179541
 11
305.3336825281
 21
245.1684718307
  0
LINE
  8
0
 62
7
  6
CONTINUOUS
 10
175.5514787034
 20
245.1696915656
 11
175.4713192234
 21
245.1698302827
  0
LINE
  8
0
 62
7
  6
CONTINUOUS
 10
327.9514787034
 20
245.1696915656
 11
327.8713192234
 21
245.1698302827
  0
LINE
  8
0
 62
7
  6
CONTINUOUS
 10
175.6012491235
 20
245.1693723813
 11
175.5514787034
 21
245.1696915656
  0
LINE
  8
0
 62
7
  6
CONTINUOUS
 10
328.0012491235
 20
245.1693723813
 11
327.9514787034
 21
245.1696915656
  0
LINE
  8
0
 62
7
  6
CONTINUOUS
 10
175.625271134
 20
245.1690898409
 11
175.6012491235
 21
245.1693723813
  0
LINE
  8
0
 62
7
  6
CONTINUOUS
 10
328.025271134
 20
245.1690898409
 11
328.0012491235
 21
245.1693723813
  0
LINE
  8
0
 62
7
  6
CONTINUOUS
 10
175.6393134426
 20
245.1688578425
 11
175.625271134
 21
245.1690898409
  0
LINE
  8
0
 62
7
  6
CONTINUOUS
 10
328.0393134426
 20
245.1688578425
 11
328.025271134
 21
245.1690898409
  0
LINE
  8
0
 62
7
  6
CONTINUOUS
 10
175.6520681875
 20
245.1685828471
 11
175.6393134426
 21
245.1688578425
  0
LINE
  8
0
 62
7
  6
CONTINUOUS
 10
163.4178556473
 20
243.5846629144
 11
163.3295452922
 21
243.6196613873
  0
LINE
  8
0
 62
7
  6
CONTINUOUS
 10
188.8178556473
 20
243.5846629144
 11
188.7295452922
 21
243.6196613873
  0
POLYLINE
  8
0
 62
7
  6
CONTINUOUS
 66
1
 70
0
  0
VERTEX
  8
0
 62
7
  6
CONTINUOUS
 10
163.3295348315
 20
243.6196655164
  0
VERTEX
  8
0
 62
7
  6
CONTINUOUS
 10
163.3185538622
 20
243.6241424958
  0
VERTEX
  8
0
 62
7
  6
CONTINUOUS
 10
163.3087509026
 20
243.6284725204
  0
VERTEX
  8
0
 62
7
  6
CONTINUOUS
 10
163.3034728775
 20
243.6310291215
  0
VERTEX
  8
0
 62
7
  6
CONTINUOUS
 10
163.3024463686
 20
243.6315668149
  0
SEQEND
  0
POLYLINE
  8
0
 62
7
  6
CONTINUOUS
 66
1
 70
0
  0
VERTEX
  8
0
 62
7
  6
CONTINUOUS
 10
188.7295348315
 20
243.6196655164
  0
VERTEX
  8
0
 62
7
  6
CONTINUOUS
 10
188.7185538622
 20
243.6241424958
  0
VERTEX
  8
0
 62
7
  6
CONTINUOUS
 10
188.7087509026
 20
243.6284725204
  0
VERTEX
  8
0
 62
7
  6
CONTINUOUS
 10
188.7034728775
 20
243.6310291215
  0
VERTEX
  8
0
 62
7
  6
CONTINUOUS
 10
188.7024463686
 20
243.6315668149
  0
SEQEND
  0
POLYLINE
  8
0
 62
7
  6
CONTINUOUS
 66
1
 70
0
  0
VERTEX
  8
0
 62
7
  6
CONTINUOUS
 10
189.1671693228
 20
243.0915945192
  0
VERTEX
  8
0
 62
7
  6
CONTINUOUS
 10
189.1661660691
 20
243.1236456629
  0
VERTEX
  8
0
 62
7
  6
CONTINUOUS
 10
189.1612372092
 20
243.1693456738
  0
VERTEX
  8
0
 62
7
  6
CONTINUOUS
 10
189.1522264506
 20
243.2144610732
  0
VERTEX
  8
0
 62
7
  6
CONTINUOUS
 10
189.139209694
 20
243.258601854
  0
VERTEX
  8
0
 62
7
  6
CONTINUOUS
 10
189.1223116193
 20
243.3013805365
  0
VERTEX
  8
0
 62
7
  6
CONTINUOUS
 10
189.1017065266
 20
243.3424240153
  0
VERTEX
  8
0
 62
7
  6
CONTINUOUS
 10
189.0776105856
 20
243.3813935162
  0
VERTEX
  8
0
 62
7
  6
CONTINUOUS
 10
189.0502750616
 20
243.417990691
  0
VERTEX
  8
0
 62
7
  6
CONTINUOUS
 10
189.0199887035
 20
243.4519533276
  0
VERTEX
  8
0
 62
7
  6
CONTINUOUS
 10
188.9874178101
 20
243.4827665582
  0
VERTEX
  8
0
 62
7
  6
CONTINUOUS
 10
188.9545056258
 20
243.5092315946
  0
VERTEX
  8
0
 62
7
  6
CONTINUOUS
 10
188.9226329389
 20
243.5312319252
  0
VERTEX
  8
0
 62
7
  6
CONTINUOUS
 10
188.8919964714
 20
243.5495541945
  0
VERTEX
  8
0
 62
7
  6
CONTINUOUS
 10
188.8624889732
 20
243.564950591
  0
VERTEX
  8
0
 62
7
  6
CONTINUOUS
 10
188.8338983376
 20
243.5780310495
  0
VERTEX
  8
0
 62
7
  6
CONTINUOUS
 10
188.8178462755
 20
243.5846666205
  0
SEQEND
  0
LINE
  8
0
 62
7
  6
CONTINUOUS
 10
188.8671693947
 20
244.5831542306
 11
188.8671693947
 21
243.5625084448
  0
LINE
  8
0
 62
7
  6
CONTINUOUS
 10
189.1671693947
 20
243.0915972503
 11
189.1671693947
 21
242.1698302834
  0
LINE
  8
0
 62
7
  6
CONTINUOUS
 10
192.6671693947
 20
239.4698302834
 11
192.6671693947
 21
229.8698302834
  0
POLYLINE
  8
0
 62
7
  6
CONTINUOUS
 66
1
 70
0
  0
VERTEX
  8
0
 62
7
  6
CONTINUOUS
 10
234.9164945609
 20
243.5846674396
  0
VERTEX
  8
0
 62
7
  6
CONTINUOUS
 10
234.8995633192
 20
243.5776543948
  0
VERTEX
  8
0
 62
7
  6
CONTINUOUS
 10
234.870972556
 20
243.5645218754
  0
VERTEX
  8
0
 62
7
  6
CONTINUOUS
 10
234.8414049765
 20
243.5490306073
  0
VERTEX
  8
0
 62
7
  6
CONTINUOUS
 10
234.8106907672
 20
243.5305799638
  0
VERTEX
  8
0
 62
7
  6
CONTINUOUS
 10
234.7787655378
 20
243.508436712
  0
VERTEX
  8
0
 62
7
  6
CONTINUOUS
 10
234.7458641818
 20
243.4818447378
  0
VERTEX
  8
0
 62
7
  6
CONTINUOUS
 10
234.7133723608
 20
243.4509447661
  0
VERTEX
  8
0
 62
7
  6
CONTINUOUS
 10
234.6831901625
 20
243.4169187866
  0
VERTEX
  8
0
 62
7
  6
CONTINUOUS
 10
234.6559579324
 20
243.3802591513
  0
VERTEX
  8
0
 62
7
  6
CONTINUOUS
 10
234.6319695943
 20
243.3412346978
  0
VERTEX
  8
0
 62
7
  6
CONTINUOUS
 10
234.6114784946
 20
243.3001503127
  0
VERTEX
  8
0
 62
7
  6
CONTINUOUS
 10
234.5946984441
 20
243.257345582
  0
VERTEX
  8
0
 62
7
  6
CONTINUOUS
 10
234.581800883
 20
243.2131921956
  0
VERTEX
  8
0
 62
7
  6
CONTINUOUS
 10
234.5729082867
 20
243.1680755455
  0
VERTEX
  8
0
 62
7
  6
CONTINUOUS
 10
234.5680951848
 20
243.1223832993
  0
VERTEX
  8
0
 62
7
  6
CONTINUOUS
 10
234.5671694763
 20
243.0915944647
  0
SEQEND
  0
LINE
  8
0
 62
7
  6
CONTINUOUS
 10
235.0047934973
 20
243.6196613873
 11
234.9164831418
 21
243.5846629143
  0
LINE
  8
0
 62
7
  6
CONTINUOUS
 10
32.1666531048
 20
245.1472670755
 11
32.1567446835
 21
245.1463865166
  0
LINE
  8
0
 62
7
  6
CONTINUOUS
 10
32.181204569
 20
245.148447619
 11
32.1666531048
 21
245.1472670755
  0
POLYLINE
  8
0
 62
7
  6
CONTINUOUS
 66
1
 70
0
  0
VERTEX
  8
0
 62
7
  6
CONTINUOUS
 10
32.2376878513
 20
245.151936438
  0
VERTEX
  8
0
 62
7
  6
CONTINUOUS
 10
32.222263189
 20
245.1511141742
  0
VERTEX
  8
0
 62
7
  6
CONTINUOUS
 10
32.2077924883
 20
245.1502637346
  0
VERTEX
  8
0
 62
7
  6
CONTINUOUS
 10
32.1941525032
 20
245.149378249
  0
VERTEX
  8
0
 62
7
  6
CONTINUOUS
 10
32.181204569
 20
245.148447619
  0
SEQEND
  0
LINE
  8
0
 62
7
  6
CONTINUOUS
 10
32.2718447348
 20
245.1535138508
 11
32.2376878513
 21
245.151936438
  0
LINE
  8
0
 62
7
  6
CONTINUOUS
 10
32.3110435383
 20
245.155016
 11
32.2718447348
 21
245.1535138508
  0
LINE
  8
0
 62
7
  6
CONTINUOUS
 10
32.3559661425
 20
245.1564496138
 11
32.3110435383
 21
245.155016
  0
LINE
  8
0
 62
7
  6
CONTINUOUS
 10
32.40725214
 20
245.1578151484
 11
32.3559661425
 21
245.1564496138
  0
LINE
  8
0
 62
7
  6
CONTINUOUS
 10
32.4973365118
 20
245.1597268734
 11
32.40725214
 21
245.1578151484
  0
LINE
  8
0
 62
7
  6
CONTINUOUS
 10
328.0520681875
 20
245.1685828471
 11
328.0393134426
 21
245.1688578425
  0
LINE
  8
0
 62
7
  6
CONTINUOUS
 10
214.2178556473
 20
243.5846629144
 11
214.1295452922
 21
243.6196613873
  0
POLYLINE
  8
0
 62
7
  6
CONTINUOUS
 66
1
 70
0
  0
VERTEX
  8
0
 62
7
  6
CONTINUOUS
 10
214.1295348315
 20
243.6196655164
  0
VERTEX
  8
0
 62
7
  6
CONTINUOUS
 10
214.1185538622
 20
243.6241424958
  0
VERTEX
  8
0
 62
7
  6
CONTINUOUS
 10
214.1087509026
 20
243.6284725204
  0
VERTEX
  8
0
 62
7
  6
CONTINUOUS
 10
214.1034728775
 20
243.6310291215
  0
VERTEX
  8
0
 62
7
  6
CONTINUOUS
 10
214.1024463686
 20
243.6315668149
  0
SEQEND
  0
LINE
  8
0
 62
7
  6
CONTINUOUS
 10
205.6671693947
 20
229.8698302834
 11
205.6671693947
 21
239.4698302834
  0
LINE
  8
0
 62
7
  6
CONTINUOUS
 10
209.1671693947
 20
242.1698302834
 11
209.1671693947
 21
243.0915972503
  0
POLYLINE
  8
0
 62
7
  6
CONTINUOUS
 66
1
 70
0
  0
VERTEX
  8
0
 62
7
  6
CONTINUOUS
 10
235.0296641537
 20
243.630249252
  0
VERTEX
  8
0
 62
7
  6
CONTINUOUS
 10
235.0317255544
 20
243.6314730681
  0
VERTEX
  8
0
 62
7
  6
CONTINUOUS
 10
235.0308192023
 20
243.6310052142
  0
VERTEX
  8
0
 62
7
  6
CONTINUOUS
 10
235.0254661161
 20
243.6284160028
  0
VERTEX
  8
0
 62
7
  6
CONTINUOUS
 10
235.0155768479
 20
243.6240545295
  0
VERTEX
  8
0
 62
7
  6
CONTINUOUS
 10
235.004804491
 20
243.6196657269
  0
SEQEND
  0
POLYLINE
  8
0
 62
7
  6
CONTINUOUS
 66
1
 70
0
  0
VERTEX
  8
0
 62
7
  6
CONTINUOUS
 10
260.3164945609
 20
243.5846674396
  0
VERTEX
  8
0
 62
7
  6
CONTINUOUS
 10
260.2995633192
 20
243.5776543948
  0
VERTEX
  8
0
 62
7
  6
CONTINUOUS
 10
260.270972556
 20
243.5645218754
  0
VERTEX
  8
0
 62
7
  6
CONTINUOUS
 10
260.2414049765
 20
243.5490306073
  0
VERTEX
  8
0
 62
7
  6
CONTINUOUS
 10
260.2106907672
 20
243.5305799638
  0
VERTEX
  8
0
 62
7
  6
CONTINUOUS
 10
260.1787655378
 20
243.508436712
  0
VERTEX
  8
0
 62
7
  6
CONTINUOUS
 10
260.1458641818
 20
243.4818447378
  0
VERTEX
  8
0
 62
7
  6
CONTINUOUS
 10
260.1133723608
 20
243.4509447661
  0
VERTEX
  8
0
 62
7
  6
CONTINUOUS
 10
260.0831901625
 20
243.4169187866
  0
VERTEX
  8
0
 62
7
  6
CONTINUOUS
 10
260.0559579324
 20
243.3802591513
  0
VERTEX
  8
0
 62
7
  6
CONTINUOUS
 10
260.0319695943
 20
243.3412346978
  0
VERTEX
  8
0
 62
7
  6
CONTINUOUS
 10
260.0114784946
 20
243.3001503127
  0
VERTEX
  8
0
 62
7
  6
CONTINUOUS
 10
259.9946984441
 20
243.257345582
  0
VERTEX
  8
0
 62
7
  6
CONTINUOUS
 10
259.981800883
 20
243.2131921956
  0
VERTEX
  8
0
 62
7
  6
CONTINUOUS
 10
259.9729082867
 20
243.1680755455
  0
VERTEX
  8
0
 62
7
  6
CONTINUOUS
 10
259.9680951848
 20
243.1223832993
  0
VERTEX
  8
0
 62
7
  6
CONTINUOUS
 10
259.9671694763
 20
243.0915944647
  0
SEQEND
  0
LINE
  8
0
 62
7
  6
CONTINUOUS
 10
260.4047934973
 20
243.6196613873
 11
260.3164831418
 21
243.5846629143
  0
POLYLINE
  8
0
 62
7
  6
CONTINUOUS
 66
1
 70
0
  0
VERTEX
  8
0
 62
7
  6
CONTINUOUS
 10
32.1567446835
 20
245.1463865166
  0
VERTEX
  8
0
 62
7
  6
CONTINUOUS
 10
32.1448663142
 20
245.145206575
  0
VERTEX
  8
0
 62
7
  6
CONTINUOUS
 10
32.1329436234
 20
245.1438773234
  0
VERTEX
  8
0
 62
7
  6
CONTINUOUS
 10
32.1207259487
 20
245.1423415178
  0
VERTEX
  8
0
 62
7
  6
CONTINUOUS
 10
32.1079311856
 20
245.1405190519
  0
VERTEX
  8
0
 62
7
  6
CONTINUOUS
 10
32.0943750826
 20
245.1383210281
  0
VERTEX
  8
0
 62
7
  6
CONTINUOUS
 10
32.0799501773
 20
245.1356504203
  0
VERTEX
  8
0
 62
7
  6
CONTINUOUS
 10
32.0646405746
 20
245.1324111989
  0
VERTEX
  8
0
 62
7
  6
CONTINUOUS
 10
32.0482646163
 20
245.1284532848
  0
VERTEX
  8
0
 62
7
  6
CONTINUOUS
 10
32.0302035553
 20
245.1234615193
  0
VERTEX
  8
0
 62
7
  6
CONTINUOUS
 10
32.009723291
 20
245.1169602779
  0
VERTEX
  8
0
 62
7
  6
CONTINUOUS
 10
31.9865458825
 20
245.1084598755
  0
VERTEX
  8
0
 62
7
  6
CONTINUOUS
 10
31.9610892505
 20
245.0976291697
  0
VERTEX
  8
0
 62
7
  6
CONTINUOUS
 10
31.9340201635
 20
245.0842561893
  0
VERTEX
  8
0
 62
7
  6
CONTINUOUS
 10
31.9057772904
 20
245.0680611783
  0
VERTEX
  8
0
 62
7
  6
CONTINUOUS
 10
31.8766980737
 20
245.0487008268
  0
VERTEX
  8
0
 62
7
  6
CONTINUOUS
 10
31.8471503094
 20
245.0258107461
  0
VERTEX
  8
0
 62
7
  6
CONTINUOUS
 10
31.8174696681
 20
244.9989231023
  0
VERTEX
  8
0
 62
7
  6
CONTINUOUS
 10
31.7881865996
 20
244.9676287719
  0
VERTEX
  8
0
 62
7
  6
CONTINUOUS
 10
31.7603748961
 20
244.9321298694
  0
VERTEX
  8
0
 62
7
  6
CONTINUOUS
 10
31.7351748828
 20
244.8930959756
  0
VERTEX
  8
0
 62
7
  6
CONTINUOUS
 10
31.7134616174
 20
244.851389229
  0
VERTEX
  8
0
 62
7
  6
CONTINUOUS
 10
31.6956713428
 20
244.8076005391
  0
VERTEX
  8
0
 62
7
  6
CONTINUOUS
 10
31.6820537624
 20
244.7621996714
  0
VERTEX
  8
0
 62
7
  6
CONTINUOUS
 10
31.6727838595
 20
244.7156875731
  0
VERTEX
  8
0
 62
7
  6
CONTINUOUS
 10
31.6679585039
 20
244.6685825219
  0
VERTEX
  8
0
 62
7
  6
CONTINUOUS
 10
31.6672066741
 20
244.641148737
  0
SEQEND
  0
LINE
  8
0
 62
7
  6
CONTINUOUS
 10
239.6178556473
 20
243.5846629144
 11
239.5295452922
 21
243.6196613873
  0
POLYLINE
  8
0
 62
7
  6
CONTINUOUS
 66
1
 70
0
  0
VERTEX
  8
0
 62
7
  6
CONTINUOUS
 10
239.5295348315
 20
243.6196655164
  0
VERTEX
  8
0
 62
7
  6
CONTINUOUS
 10
239.5185538622
 20
243.6241424958
  0
VERTEX
  8
0
 62
7
  6
CONTINUOUS
 10
239.5087509026
 20
243.6284725204
  0
VERTEX
  8
0
 62
7
  6
CONTINUOUS
 10
239.5034728775
 20
243.6310291215
  0
VERTEX
  8
0
 62
7
  6
CONTINUOUS
 10
239.5024463686
 20
243.6315668149
  0
SEQEND
  0
POLYLINE
  8
0
 62
7
  6
CONTINUOUS
 66
1
 70
0
  0
VERTEX
  8
0
 62
7
  6
CONTINUOUS
 10
214.5671693228
 20
243.0915945192
  0
VERTEX
  8
0
 62
7
  6
CONTINUOUS
 10
214.5661660691
 20
243.1236456629
  0
VERTEX
  8
0
 62
7
  6
CONTINUOUS
 10
214.5612372092
 20
243.1693456738
  0
VERTEX
  8
0
 62
7
  6
CONTINUOUS
 10
214.5522264506
 20
243.2144610732
  0
VERTEX
  8
0
 62
7
  6
CONTINUOUS
 10
214.539209694
 20
243.258601854
  0
VERTEX
  8
0
 62
7
  6
CONTINUOUS
 10
214.5223116193
 20
243.3013805365
  0
VERTEX
  8
0
 62
7
  6
CONTINUOUS
 10
214.5017065266
 20
243.3424240153
  0
VERTEX
  8
0
 62
7
  6
CONTINUOUS
 10
214.4776105856
 20
243.3813935162
  0
VERTEX
  8
0
 62
7
  6
CONTINUOUS
 10
214.4502750616
 20
243.417990691
  0
VERTEX
  8
0
 62
7
  6
CONTINUOUS
 10
214.4199887035
 20
243.4519533276
  0
VERTEX
  8
0
 62
7
  6
CONTINUOUS
 10
214.3874178101
 20
243.4827665582
  0
VERTEX
  8
0
 62
7
  6
CONTINUOUS
 10
214.3545056258
 20
243.5092315946
  0
VERTEX
  8
0
 62
7
  6
CONTINUOUS
 10
214.3226329389
 20
243.5312319252
  0
VERTEX
  8
0
 62
7
  6
CONTINUOUS
 10
214.2919964714
 20
243.5495541945
  0
VERTEX
  8
0
 62
7
  6
CONTINUOUS
 10
214.2624889732
 20
243.564950591
  0
VERTEX
  8
0
 62
7
  6
CONTINUOUS
 10
214.2338983376
 20
243.5780310495
  0
VERTEX
  8
0
 62
7
  6
CONTINUOUS
 10
214.2178462755
 20
243.5846666205
  0
SEQEND
  0
LINE
  8
0
 62
7
  6
CONTINUOUS
 10
209.4671693947
 20
243.5625292946
 11
209.4671693947
 21
244.5831542306
  0
LINE
  8
0
 62
7
  6
CONTINUOUS
 10
214.2671693947
 20
244.5831542306
 11
214.2671693947
 21
243.5625084448
  0
LINE
  8
0
 62
7
  6
CONTINUOUS
 10
214.5671693947
 20
243.0915972503
 11
214.5671693947
 21
242.1698302834
  0
LINE
  8
0
 62
7
  6
CONTINUOUS
 10
218.0671693947
 20
239.4698302834
 11
218.0671693947
 21
229.8698302834
  0
POLYLINE
  8
0
 62
7
  6
CONTINUOUS
 66
1
 70
0
  0
VERTEX
  8
0
 62
7
  6
CONTINUOUS
 10
260.4296641537
 20
243.630249252
  0
VERTEX
  8
0
 62
7
  6
CONTINUOUS
 10
260.4317255544
 20
243.6314730681
  0
VERTEX
  8
0
 62
7
  6
CONTINUOUS
 10
260.4308192023
 20
243.6310052142
  0
VERTEX
  8
0
 62
7
  6
CONTINUOUS
 10
260.4254661161
 20
243.6284160028
  0
VERTEX
  8
0
 62
7
  6
CONTINUOUS
 10
260.4155768479
 20
243.6240545295
  0
VERTEX
  8
0
 62
7
  6
CONTINUOUS
 10
260.404804491
 20
243.6196657269
  0
SEQEND
  0
POLYLINE
  8
0
 62
7
  6
CONTINUOUS
 66
1
 70
0
  0
VERTEX
  8
0
 62
7
  6
CONTINUOUS
 10
285.7164945609
 20
243.5846674396
  0
VERTEX
  8
0
 62
7
  6
CONTINUOUS
 10
285.6995633192
 20
243.5776543948
  0
VERTEX
  8
0
 62
7
  6
CONTINUOUS
 10
285.670972556
 20
243.5645218754
  0
VERTEX
  8
0
 62
7
  6
CONTINUOUS
 10
285.6414049765
 20
243.5490306073
  0
VERTEX
  8
0
 62
7
  6
CONTINUOUS
 10
285.6106907672
 20
243.5305799638
  0
VERTEX
  8
0
 62
7
  6
CONTINUOUS
 10
285.5787655378
 20
243.508436712
  0
VERTEX
  8
0
 62
7
  6
CONTINUOUS
 10
285.5458641818
 20
243.4818447378
  0
VERTEX
  8
0
 62
7
  6
CONTINUOUS
 10
285.5133723607
 20
243.4509447661
  0
VERTEX
  8
0
 62
7
  6
CONTINUOUS
 10
285.4831901625
 20
243.4169187866
  0
VERTEX
  8
0
 62
7
  6
CONTINUOUS
 10
285.4559579324
 20
243.3802591513
  0
VERTEX
  8
0
 62
7
  6
CONTINUOUS
 10
285.4319695943
 20
243.3412346977
  0
VERTEX
  8
0
 62
7
  6
CONTINUOUS
 10
285.4114784946
 20
243.3001503127
  0
VERTEX
  8
0
 62
7
  6
CONTINUOUS
 10
285.3946984441
 20
243.257345582
  0
VERTEX
  8
0
 62
7
  6
CONTINUOUS
 10
285.381800883
 20
243.2131921956
  0
VERTEX
  8
0
 62
7
  6
CONTINUOUS
 10
285.3729082867
 20
243.1680755455
  0
VERTEX
  8
0
 62
7
  6
CONTINUOUS
 10
285.3680951848
 20
243.1223832993
  0
VERTEX
  8
0
 62
7
  6
CONTINUOUS
 10
285.3671694763
 20
243.0915944647
  0
SEQEND
  0
LINE
  8
0
 62
7
  6
CONTINUOUS
 10
285.8047934973
 20
243.6196613873
 11
285.7164831418
 21
243.5846629143
  0
LINE
  8
0
 62
7
  6
CONTINUOUS
 10
311.2047934973
 20
243.6196613873
 11
311.1164831418
 21
243.5846629143
  0
LINE
  8
0
 62
7
  6
CONTINUOUS
 10
265.0178556473
 20
243.5846629144
 11
264.9295452922
 21
243.6196613873
  0
POLYLINE
  8
0
 62
7
  6
CONTINUOUS
 66
1
 70
0
  0
VERTEX
  8
0
 62
7
  6
CONTINUOUS
 10
264.9295348315
 20
243.6196655164
  0
VERTEX
  8
0
 62
7
  6
CONTINUOUS
 10
264.9185538622
 20
243.6241424958
  0
VERTEX
  8
0
 62
7
  6
CONTINUOUS
 10
264.9087509026
 20
243.6284725204
  0
VERTEX
  8
0
 62
7
  6
CONTINUOUS
 10
264.9034728775
 20
243.6310291215
  0
VERTEX
  8
0
 62
7
  6
CONTINUOUS
 10
264.9024463686
 20
243.6315668149
  0
SEQEND
  0
POLYLINE
  8
0
 62
7
  6
CONTINUOUS
 66
1
 70
0
  0
VERTEX
  8
0
 62
7
  6
CONTINUOUS
 10
285.8296641538
 20
243.630249252
  0
VERTEX
  8
0
 62
7
  6
CONTINUOUS
 10
285.8317255544
 20
243.6314730681
  0
VERTEX
  8
0
 62
7
  6
CONTINUOUS
 10
285.8308192023
 20
243.6310052142
  0
VERTEX
  8
0
 62
7
  6
CONTINUOUS
 10
285.8254661161
 20
243.6284160028
  0
VERTEX
  8
0
 62
7
  6
CONTINUOUS
 10
285.8155768479
 20
243.6240545295
  0
VERTEX
  8
0
 62
7
  6
CONTINUOUS
 10
285.804804491
 20
243.6196657269
  0
SEQEND
  0
POLYLINE
  8
0
 62
7
  6
CONTINUOUS
 66
1
 70
0
  0
VERTEX
  8
0
 62
7
  6
CONTINUOUS
 10
311.1164945609
 20
243.5846674396
  0
VERTEX
  8
0
 62
7
  6
CONTINUOUS
 10
311.0995633192
 20
243.5776543948
  0
VERTEX
  8
0
 62
7
  6
CONTINUOUS
 10
311.070972556
 20
243.5645218754
  0
VERTEX
  8
0
 62
7
  6
CONTINUOUS
 10
311.0414049765
 20
243.5490306073
  0
VERTEX
  8
0
 62
7
  6
CONTINUOUS
 10
311.0106907672
 20
243.5305799638
  0
VERTEX
  8
0
 62
7
  6
CONTINUOUS
 10
310.9787655378
 20
243.508436712
  0
VERTEX
  8
0
 62
7
  6
CONTINUOUS
 10
310.9458641818
 20
243.4818447378
  0
VERTEX
  8
0
 62
7
  6
CONTINUOUS
 10
310.9133723608
 20
243.4509447661
  0
VERTEX
  8
0
 62
7
  6
CONTINUOUS
 10
310.8831901625
 20
243.4169187866
  0
VERTEX
  8
0
 62
7
  6
CONTINUOUS
 10
310.8559579324
 20
243.3802591513
  0
VERTEX
  8
0
 62
7
  6
CONTINUOUS
 10
310.8319695943
 20
243.3412346978
  0
VERTEX
  8
0
 62
7
  6
CONTINUOUS
 10
310.8114784946
 20
243.3001503127
  0
VERTEX
  8
0
 62
7
  6
CONTINUOUS
 10
310.7946984441
 20
243.257345582
  0
VERTEX
  8
0
 62
7
  6
CONTINUOUS
 10
310.781800883
 20
243.2131921956
  0
VERTEX
  8
0
 62
7
  6
CONTINUOUS
 10
310.7729082867
 20
243.1680755455
  0
VERTEX
  8
0
 62
7
  6
CONTINUOUS
 10
310.7680951848
 20
243.1223832993
  0
VERTEX
  8
0
 62
7
  6
CONTINUOUS
 10
310.7671694763
 20
243.0915944647
  0
SEQEND
  0
POLYLINE
  8
0
 62
7
  6
CONTINUOUS
 66
1
 70
0
  0
VERTEX
  8
0
 62
7
  6
CONTINUOUS
 10
332.2671693947
 20
237.8884646721
  0
VERTEX
  8
0
 62
7
  6
CONTINUOUS
 10
332.2837888334
 20
237.8831161089
  0
VERTEX
  8
0
 62
7
  6
CONTINUOUS
 10
332.3465052401
 20
237.8547282343
  0
SEQEND
  0
LINE
  8
0
 62
7
  6
CONTINUOUS
 10
290.4178556473
 20
243.5846629144
 11
290.3295452922
 21
243.6196613873
  0
POLYLINE
  8
0
 62
7
  6
CONTINUOUS
 66
1
 70
0
  0
VERTEX
  8
0
 62
7
  6
CONTINUOUS
 10
290.3295348315
 20
243.6196655164
  0
VERTEX
  8
0
 62
7
  6
CONTINUOUS
 10
290.3185538622
 20
243.6241424958
  0
VERTEX
  8
0
 62
7
  6
CONTINUOUS
 10
290.3087509026
 20
243.6284725204
  0
VERTEX
  8
0
 62
7
  6
CONTINUOUS
 10
290.3034728775
 20
243.6310291215
  0
VERTEX
  8
0
 62
7
  6
CONTINUOUS
 10
290.3024463686
 20
243.6315668149
  0
SEQEND
  0
POLYLINE
  8
0
 62
7
  6
CONTINUOUS
 66
1
 70
0
  0
VERTEX
  8
0
 62
7
  6
CONTINUOUS
 10
239.9671693228
 20
243.0915945192
  0
VERTEX
  8
0
 62
7
  6
CONTINUOUS
 10
239.9661660691
 20
243.1236456629
  0
VERTEX
  8
0
 62
7
  6
CONTINUOUS
 10
239.9612372092
 20
243.1693456738
  0
VERTEX
  8
0
 62
7
  6
CONTINUOUS
 10
239.9522264506
 20
243.2144610732
  0
VERTEX
  8
0
 62
7
  6
CONTINUOUS
 10
239.939209694
 20
243.258601854
  0
VERTEX
  8
0
 62
7
  6
CONTINUOUS
 10
239.9223116193
 20
243.3013805365
  0
VERTEX
  8
0
 62
7
  6
CONTINUOUS
 10
239.9017065266
 20
243.3424240153
  0
VERTEX
  8
0
 62
7
  6
CONTINUOUS
 10
239.8776105856
 20
243.3813935162
  0
VERTEX
  8
0
 62
7
  6
CONTINUOUS
 10
239.8502750616
 20
243.417990691
  0
VERTEX
  8
0
 62
7
  6
CONTINUOUS
 10
239.8199887035
 20
243.4519533276
  0
VERTEX
  8
0
 62
7
  6
CONTINUOUS
 10
239.7874178101
 20
243.4827665582
  0
VERTEX
  8
0
 62
7
  6
CONTINUOUS
 10
239.7545056258
 20
243.5092315946
  0
VERTEX
  8
0
 62
7
  6
CONTINUOUS
 10
239.7226329389
 20
243.5312319252
  0
VERTEX
  8
0
 62
7
  6
CONTINUOUS
 10
239.6919964714
 20
243.5495541945
  0
VERTEX
  8
0
 62
7
  6
CONTINUOUS
 10
239.6624889732
 20
243.564950591
  0
VERTEX
  8
0
 62
7
  6
CONTINUOUS
 10
239.6338983376
 20
243.5780310495
  0
VERTEX
  8
0
 62
7
  6
CONTINUOUS
 10
239.6178462755
 20
243.5846666205
  0
SEQEND
  0
LINE
  8
0
 62
7
  6
CONTINUOUS
 10
231.0671693947
 20
229.8698302834
 11
231.0671693947
 21
239.4698302834
  0
LINE
  8
0
 62
7
  6
CONTINUOUS
 10
234.5671693947
 20
242.1698302834
 11
234.5671693947
 21
243.0915972503
  0
LINE
  8
0
 62
7
  6
CONTINUOUS
 10
234.8671693947
 20
243.5625292946
 11
234.8671693947
 21
244.5831542306
  0
LINE
  8
0
 62
7
  6
CONTINUOUS
 10
239.6671693947
 20
244.5831542306
 11
239.6671693947
 21
243.5625084448
  0
LINE
  8
0
 62
7
  6
CONTINUOUS
 10
239.9671693947
 20
243.0915972503
 11
239.9671693947
 21
242.1698302834
  0
POLYLINE
  8
0
 62
7
  6
CONTINUOUS
 66
1
 70
0
  0
VERTEX
  8
0
 62
7
  6
CONTINUOUS
 10
311.2296641537
 20
243.630249252
  0
VERTEX
  8
0
 62
7
  6
CONTINUOUS
 10
311.2317255544
 20
243.6314730681
  0
VERTEX
  8
0
 62
7
  6
CONTINUOUS
 10
311.2308192023
 20
243.6310052142
  0
VERTEX
  8
0
 62
7
  6
CONTINUOUS
 10
311.2254661161
 20
243.6284160028
  0
VERTEX
  8
0
 62
7
  6
CONTINUOUS
 10
311.2155768479
 20
243.6240545295
  0
VERTEX
  8
0
 62
7
  6
CONTINUOUS
 10
311.204804491
 20
243.6196657269
  0
SEQEND
  0
LINE
  8
0
 62
7
  6
CONTINUOUS
 10
315.8178556473
 20
243.5846629144
 11
315.7295452922
 21
243.6196613873
  0
POLYLINE
  8
0
 62
7
  6
CONTINUOUS
 66
1
 70
0
  0
VERTEX
  8
0
 62
7
  6
CONTINUOUS
 10
315.7295348315
 20
243.6196655164
  0
VERTEX
  8
0
 62
7
  6
CONTINUOUS
 10
315.7185538622
 20
243.6241424958
  0
VERTEX
  8
0
 62
7
  6
CONTINUOUS
 10
315.7087509026
 20
243.6284725204
  0
VERTEX
  8
0
 62
7
  6
CONTINUOUS
 10
315.7034728775
 20
243.6310291215
  0
VERTEX
  8
0
 62
7
  6
CONTINUOUS
 10
315.7024463686
 20
243.6315668149
  0
SEQEND
  0
LINE
  8
0
 62
7
  6
CONTINUOUS
 10
243.4671693947
 20
239.4698302834
 11
243.4671693947
 21
229.8698302834
  0
POLYLINE
  8
0
 62
7
  6
CONTINUOUS
 66
1
 70
0
  0
VERTEX
  8
0
 62
7
  6
CONTINUOUS
 10
332.3465052401
 20
231.4849323325
  0
VERTEX
  8
0
 62
7
  6
CONTINUOUS
 10
332.283788836
 20
231.4565444588
  0
VERTEX
  8
0
 62
7
  6
CONTINUOUS
 10
332.2671693947
 20
231.4511958947
  0
SEQEND
  0
LINE
  8
0
 62
7
  6
CONTINUOUS
 10
256.4671693947
 20
229.8698302834
 11
256.4671693947
 21
239.4698302834
  0
LINE
  8
0
 62
7
  6
CONTINUOUS
 10
259.9671693947
 20
242.1698302834
 11
259.9671693947
 21
243.0915972503
  0
LINE
  8
0
 62
7
  6
CONTINUOUS
 10
260.2671693947
 20
243.5625292946
 11
260.2671693947
 21
244.5831542306
  0
POLYLINE
  8
0
 62
7
  6
CONTINUOUS
 66
1
 70
0
  0
VERTEX
  8
0
 62
7
  6
CONTINUOUS
 10
332.3465052401
 20
237.8547282343
  0
VERTEX
  8
0
 62
7
  6
CONTINUOUS
 10
332.3554639614
 20
237.8492424742
  0
VERTEX
  8
0
 62
7
  6
CONTINUOUS
 10
332.3619367207
 20
237.8433582265
  0
VERTEX
  8
0
 62
7
  6
CONTINUOUS
 10
332.365852915
 20
237.8371106309
  0
VERTEX
  8
0
 62
7
  6
CONTINUOUS
 10
332.3671693947
 20
237.8305213396
  0
SEQEND
  0
POLYLINE
  8
0
 62
7
  6
CONTINUOUS
 66
1
 70
0
  0
VERTEX
  8
0
 62
7
  6
CONTINUOUS
 10
265.3671693228
 20
243.0915945192
  0
VERTEX
  8
0
 62
7
  6
CONTINUOUS
 10
265.3661660691
 20
243.1236456629
  0
VERTEX
  8
0
 62
7
  6
CONTINUOUS
 10
265.3612372092
 20
243.1693456738
  0
VERTEX
  8
0
 62
7
  6
CONTINUOUS
 10
265.3522264506
 20
243.2144610732
  0
VERTEX
  8
0
 62
7
  6
CONTINUOUS
 10
265.339209694
 20
243.258601854
  0
VERTEX
  8
0
 62
7
  6
CONTINUOUS
 10
265.3223116193
 20
243.3013805365
  0
VERTEX
  8
0
 62
7
  6
CONTINUOUS
 10
265.3017065266
 20
243.3424240153
  0
VERTEX
  8
0
 62
7
  6
CONTINUOUS
 10
265.2776105856
 20
243.3813935162
  0
VERTEX
  8
0
 62
7
  6
CONTINUOUS
 10
265.2502750616
 20
243.417990691
  0
VERTEX
  8
0
 62
7
  6
CONTINUOUS
 10
265.2199887035
 20
243.4519533276
  0
VERTEX
  8
0
 62
7
  6
CONTINUOUS
 10
265.1874178101
 20
243.4827665582
  0
VERTEX
  8
0
 62
7
  6
CONTINUOUS
 10
265.1545056258
 20
243.5092315946
  0
VERTEX
  8
0
 62
7
  6
CONTINUOUS
 10
265.1226329389
 20
243.5312319252
  0
VERTEX
  8
0
 62
7
  6
CONTINUOUS
 10
265.0919964714
 20
243.5495541945
  0
VERTEX
  8
0
 62
7
  6
CONTINUOUS
 10
265.0624889732
 20
243.564950591
  0
VERTEX
  8
0
 62
7
  6
CONTINUOUS
 10
265.0338983376
 20
243.5780310495
  0
VERTEX
  8
0
 62
7
  6
CONTINUOUS
 10
265.0178462755
 20
243.5846666205
  0
SEQEND
  0
LINE
  8
0
 62
7
  6
CONTINUOUS
 10
265.0671693947
 20
244.5831542306
 11
265.0671693947
 21
243.5625084448
  0
LINE
  8
0
 62
7
  6
CONTINUOUS
 10
265.3671693947
 20
243.0915972503
 11
265.3671693947
 21
242.1698302834
  0
LINE
  8
0
 62
7
  6
CONTINUOUS
 10
268.8671693947
 20
239.4698302834
 11
268.8671693947
 21
229.8698302834
  0
LINE
  8
0
 62
7
  6
CONTINUOUS
 10
281.8671693947
 20
229.8698302834
 11
281.8671693947
 21
239.4698302834
  0
POLYLINE
  8
0
 62
7
  6
CONTINUOUS
 66
1
 70
0
  0
VERTEX
  8
0
 62
7
  6
CONTINUOUS
 10
290.7671693228
 20
243.0915945192
  0
VERTEX
  8
0
 62
7
  6
CONTINUOUS
 10
290.7661660691
 20
243.1236456629
  0
VERTEX
  8
0
 62
7
  6
CONTINUOUS
 10
290.7612372092
 20
243.1693456738
  0
VERTEX
  8
0
 62
7
  6
CONTINUOUS
 10
290.7522264506
 20
243.2144610732
  0
VERTEX
  8
0
 62
7
  6
CONTINUOUS
 10
290.739209694
 20
243.258601854
  0
VERTEX
  8
0
 62
7
  6
CONTINUOUS
 10
290.7223116193
 20
243.3013805365
  0
VERTEX
  8
0
 62
7
  6
CONTINUOUS
 10
290.7017065266
 20
243.3424240153
  0
VERTEX
  8
0
 62
7
  6
CONTINUOUS
 10
290.6776105856
 20
243.3813935162
  0
VERTEX
  8
0
 62
7
  6
CONTINUOUS
 10
290.6502750616
 20
243.417990691
  0
VERTEX
  8
0
 62
7
  6
CONTINUOUS
 10
290.6199887035
 20
243.4519533276
  0
VERTEX
  8
0
 62
7
  6
CONTINUOUS
 10
290.5874178101
 20
243.4827665582
  0
VERTEX
  8
0
 62
7
  6
CONTINUOUS
 10
290.5545056258
 20
243.5092315946
  0
VERTEX
  8
0
 62
7
  6
CONTINUOUS
 10
290.5226329389
 20
243.5312319252
  0
VERTEX
  8
0
 62
7
  6
CONTINUOUS
 10
290.4919964714
 20
243.5495541945
  0
VERTEX
  8
0
 62
7
  6
CONTINUOUS
 10
290.4624889732
 20
243.564950591
  0
VERTEX
  8
0
 62
7
  6
CONTINUOUS
 10
290.4338983376
 20
243.5780310495
  0
VERTEX
  8
0
 62
7
  6
CONTINUOUS
 10
290.4178462755
 20
243.5846666205
  0
SEQEND
  0
LINE
  8
0
 62
7
  6
CONTINUOUS
 10
285.3671693947
 20
242.1698302834
 11
285.3671693947
 21
243.0915972503
  0
LINE
  8
0
 62
7
  6
CONTINUOUS
 10
285.6671693947
 20
243.5625292946
 11
285.6671693947
 21
244.5831542306
  0
LINE
  8
0
 62
7
  6
CONTINUOUS
 10
290.4671693947
 20
244.5831542306
 11
290.4671693947
 21
243.5625084448
  0
LINE
  8
0
 62
7
  6
CONTINUOUS
 10
290.7671693947
 20
243.0915972503
 11
290.7671693947
 21
242.1698302834
  0
LINE
  8
0
 62
7
  6
CONTINUOUS
 10
294.2671693947
 20
239.4698302834
 11
294.2671693947
 21
229.8698302834
  0
LINE
  8
0
 62
7
  6
CONTINUOUS
 10
307.2671693947
 20
229.8698302834
 11
307.2671693947
 21
239.4698302834
  0
LINE
  8
0
 62
7
  6
CONTINUOUS
 10
310.7671693947
 20
242.1698302834
 11
310.7671693947
 21
243.0915972503
  0
LINE
  8
0
 62
7
  6
CONTINUOUS
 10
311.0671693947
 20
243.5625292946
 11
311.0671693947
 21
244.5831542306
  0
POLYLINE
  8
0
 62
7
  6
CONTINUOUS
 66
1
 70
0
  0
VERTEX
  8
0
 62
7
  6
CONTINUOUS
 10
316.1671693228
 20
243.0915945192
  0
VERTEX
  8
0
 62
7
  6
CONTINUOUS
 10
316.1661660691
 20
243.1236456629
  0
VERTEX
  8
0
 62
7
  6
CONTINUOUS
 10
316.1612372092
 20
243.1693456738
  0
VERTEX
  8
0
 62
7
  6
CONTINUOUS
 10
316.1522264506
 20
243.2144610732
  0
VERTEX
  8
0
 62
7
  6
CONTINUOUS
 10
316.139209694
 20
243.258601854
  0
VERTEX
  8
0
 62
7
  6
CONTINUOUS
 10
316.1223116193
 20
243.3013805365
  0
VERTEX
  8
0
 62
7
  6
CONTINUOUS
 10
316.1017065266
 20
243.3424240153
  0
VERTEX
  8
0
 62
7
  6
CONTINUOUS
 10
316.0776105856
 20
243.3813935162
  0
VERTEX
  8
0
 62
7
  6
CONTINUOUS
 10
316.0502750616
 20
243.417990691
  0
VERTEX
  8
0
 62
7
  6
CONTINUOUS
 10
316.0199887035
 20
243.4519533276
  0
VERTEX
  8
0
 62
7
  6
CONTINUOUS
 10
315.9874178101
 20
243.4827665582
  0
VERTEX
  8
0
 62
7
  6
CONTINUOUS
 10
315.9545056258
 20
243.5092315946
  0
VERTEX
  8
0
 62
7
  6
CONTINUOUS
 10
315.9226329389
 20
243.5312319252
  0
VERTEX
  8
0
 62
7
  6
CONTINUOUS
 10
315.8919964714
 20
243.5495541945
  0
VERTEX
  8
0
 62
7
  6
CONTINUOUS
 10
315.8624889732
 20
243.564950591
  0
VERTEX
  8
0
 62
7
  6
CONTINUOUS
 10
315.8338983376
 20
243.5780310496
  0
VERTEX
  8
0
 62
7
  6
CONTINUOUS
 10
315.8178462755
 20
243.5846666205
  0
SEQEND
  0
POLYLINE
  8
0
 62
7
  6
CONTINUOUS
 66
1
 70
0
  0
VERTEX
  8
0
 62
7
  6
CONTINUOUS
 10
328.8671693132
 20
243.0716854301
  0
VERTEX
  8
0
 62
7
  6
CONTINUOUS
 10
328.8662457947
 20
243.1024426568
  0
VERTEX
  8
0
 62
7
  6
CONTINUOUS
 10
328.8614560068
 20
243.1480093212
  0
VERTEX
  8
0
 62
7
  6
CONTINUOUS
 10
328.852610642
 20
243.1930042068
  0
VERTEX
  8
0
 62
7
  6
CONTINUOUS
 10
328.8397831856
 20
243.2370445938
  0
VERTEX
  8
0
 62
7
  6
CONTINUOUS
 10
328.8230940188
 20
243.279749794
  0
VERTEX
  8
0
 62
7
  6
CONTINUOUS
 10
328.8027115754
 20
243.3207521913
  0
VERTEX
  8
0
 62
7
  6
CONTINUOUS
 10
328.7788466182
 20
243.359714451
  0
VERTEX
  8
0
 62
7
  6
CONTINUOUS
 10
328.7517522903
 20
243.3963295137
  0
VERTEX
  8
0
 62
7
  6
CONTINUOUS
 10
328.7217243338
 20
243.430325883
  0
VERTEX
  8
0
 62
7
  6
CONTINUOUS
 10
328.689379039
 20
243.4612319003
  0
VERTEX
  8
0
 62
7
  6
CONTINUOUS
 10
328.6565687686
 20
243.4878864028
  0
VERTEX
  8
0
 62
7
  6
CONTINUOUS
 10
328.6246630605
 20
243.5101350295
  0
VERTEX
  8
0
 62
7
  6
CONTINUOUS
 10
328.5939225286
 20
243.5287024927
  0
VERTEX
  8
0
 62
7
  6
CONTINUOUS
 10
328.5671693947
 20
243.5427968045
  0
SEQEND
  0
POLYLINE
  8
0
 62
7
  6
CONTINUOUS
 66
1
 70
0
  0
VERTEX
  8
0
 62
7
  6
CONTINUOUS
 10
328.5671693448
 20
244.6669562444
  0
VERTEX
  8
0
 62
7
  6
CONTINUOUS
 10
328.5662940361
 20
244.6965316074
  0
VERTEX
  8
0
 62
7
  6
CONTINUOUS
 10
328.5617636839
 20
244.7402870872
  0
VERTEX
  8
0
 62
7
  6
CONTINUOUS
 10
328.5538504957
 20
244.7816029235
  0
VERTEX
  8
0
 62
7
  6
CONTINUOUS
 10
328.5430418005
 20
244.8204156741
  0
VERTEX
  8
0
 62
7
  6
CONTINUOUS
 10
328.5297659941
 20
244.856722496
  0
VERTEX
  8
0
 62
7
  6
CONTINUOUS
 10
328.5143925536
 20
244.8905658973
  0
VERTEX
  8
0
 62
7
  6
CONTINUOUS
 10
328.4972347101
 20
244.9220192121
  0
VERTEX
  8
0
 62
7
  6
CONTINUOUS
 10
328.4785835917
 20
244.9511315239
  0
VERTEX
  8
0
 62
7
  6
CONTINUOUS
 10
328.4587339232
 20
244.9779206643
  0
VERTEX
  8
0
 62
7
  6
CONTINUOUS
 10
328.4379600758
 20
245.002427315
  0
VERTEX
  8
0
 62
7
  6
CONTINUOUS
 10
328.4165132123
 20
245.0247144203
  0
VERTEX
  8
0
 62
7
  6
CONTINUOUS
 10
328.3946074765
 20
245.0448746797
  0
VERTEX
  8
0
 62
7
  6
CONTINUOUS
 10
328.3724147609
 20
245.0630244068
  0
VERTEX
  8
0
 62
7
  6
CONTINUOUS
 10
328.350078911
 20
245.0792842376
  0
VERTEX
  8
0
 62
7
  6
CONTINUOUS
 10
328.3277279764
 20
245.093769727
  0
VERTEX
  8
0
 62
7
  6
CONTINUOUS
 10
328.3055277853
 20
245.1065642957
  0
VERTEX
  8
0
 62
7
  6
CONTINUOUS
 10
328.2836504119
 20
245.1177518407
  0
VERTEX
  8
0
 62
7
  6
CONTINUOUS
 10
328.2622550709
 20
245.1274284018
  0
VERTEX
  8
0
 62
7
  6
CONTINUOUS
 10
328.241495021
 20
245.1356970003
  0
VERTEX
  8
0
 62
7
  6
CONTINUOUS
 10
328.2215294141
 20
245.1426631242
  0
VERTEX
  8
0
 62
7
  6
CONTINUOUS
 10
328.2025119389
 20
245.1484396066
  0
VERTEX
  8
0
 62
7
  6
CONTINUOUS
 10
328.184728258
 20
245.1531117203
  0
VERTEX
  8
0
 62
7
  6
CONTINUOUS
 10
328.1686104191
 20
245.1567563893
  0
VERTEX
  8
0
 62
7
  6
CONTINUOUS
 10
328.154438853
 20
245.1595102724
  0
VERTEX
  8
0
 62
7
  6
CONTINUOUS
 10
328.1418751
 20
245.1616077515
  0
VERTEX
  8
0
 62
7
  6
CONTINUOUS
 10
328.1303307907
 20
245.163257082
  0
VERTEX
  8
0
 62
7
  6
CONTINUOUS
 10
328.1196992756
 20
245.1645471725
  0
VERTEX
  8
0
 62
7
  6
CONTINUOUS
 10
328.1102406755
 20
245.1655170613
  0
VERTEX
  8
0
 62
7
  6
CONTINUOUS
 10
328.1019540943
 20
245.166235592
  0
VERTEX
  8
0
 62
7
  6
CONTINUOUS
 10
328.0945810538
 20
245.1667782777
  0
VERTEX
  8
0
 62
7
  6
CONTINUOUS
 10
328.0878617414
 20
245.1671998871
  0
VERTEX
  8
0
 62
7
  6
CONTINUOUS
 10
328.0815805854
 20
245.1675372775
  0
VERTEX
  8
0
 62
7
  6
CONTINUOUS
 10
328.0755806552
 20
245.1678143665
  0
VERTEX
  8
0
 62
7
  6
CONTINUOUS
 10
328.0697407281
 20
245.1680473147
  0
VERTEX
  8
0
 62
7
  6
CONTINUOUS
 10
328.0639445278
 20
245.1682479072
  0
VERTEX
  8
0
 62
7
  6
CONTINUOUS
 10
328.0520681875
 20
245.1685828471
  0
SEQEND
  0
LINE
  8
0
 62
7
  6
CONTINUOUS
 10
315.8671693947
 20
244.5831542306
 11
315.8671693947
 21
243.5625084448
  0
LINE
  8
0
 62
7
  6
CONTINUOUS
 10
316.1671693947
 20
243.0915972503
 11
316.1671693947
 21
242.1698302834
  0
LINE
  8
0
 62
7
  6
CONTINUOUS
 10
319.6671693947
 20
239.4698302834
 11
319.6671693947
 21
229.8698302834
  0
LINE
  8
0
 62
7
  6
CONTINUOUS
 10
328.5671693947
 20
242.1698302834
 11
328.5671693947
 21
244.6669563946
  0
LINE
  8
0
 62
7
  6
CONTINUOUS
 10
328.8671693947
 20
243.0716882268
 11
328.8671693947
 21
242.1698302834
  0
LINE
  8
0
 62
7
  6
CONTINUOUS
 10
332.2671693947
 20
241.8698302834
 11
332.2671693947
 21
227.4698302834
  0
LINE
  8
0
 62
7
  6
CONTINUOUS
 10
332.3671693947
 20
229.8698302834
 11
332.3671693947
 21
239.4698302834
  0
POLYLINE
  8
0
 62
7
  6
CONTINUOUS
 66
1
 70
0
  0
VERTEX
  8
0
 62
7
  6
CONTINUOUS
 10
332.3671693947
 20
231.5091392271
  0
VERTEX
  8
0
 62
7
  6
CONTINUOUS
 10
332.365852915
 20
231.5025499358
  0
VERTEX
  8
0
 62
7
  6
CONTINUOUS
 10
332.3619367207
 20
231.4963023402
  0
VERTEX
  8
0
 62
7
  6
CONTINUOUS
 10
332.3554639614
 20
231.4904180926
  0
VERTEX
  8
0
 62
7
  6
CONTINUOUS
 10
332.3465052401
 20
231.4849323325
  0
SEQEND
  0
POLYLINE
  8
0
 62
7
  6
CONTINUOUS
 66
1
 70
0
  0
VERTEX
  8
0
 62
7
  6
CONTINUOUS
 10
332.2671693947
 20
229.143720491
  0
VERTEX
  8
0
 62
7
  6
CONTINUOUS
 10
332.2774813996
 20
229.1802155713
  0
VERTEX
  8
0
 62
7
  6
CONTINUOUS
 10
332.2999084178
 20
229.2716253855
  0
VERTEX
  8
0
 62
7
  6
CONTINUOUS
 10
332.3189635115
 20
229.3627602673
  0
VERTEX
  8
0
 62
7
  6
CONTINUOUS
 10
332.334625454
 20
229.4528384005
  0
VERTEX
  8
0
 62
7
  6
CONTINUOUS
 10
332.3469627381
 20
229.541093493
  0
VERTEX
  8
0
 62
7
  6
CONTINUOUS
 10
332.3561694345
 20
229.6272519016
  0
VERTEX
  8
0
 62
7
  6
CONTINUOUS
 10
332.3624946561
 20
229.711723719
  0
VERTEX
  8
0
 62
7
  6
CONTINUOUS
 10
332.366122294
 20
229.7950396623
  0
VERTEX
  8
0
 62
7
  6
CONTINUOUS
 10
332.3671693944
 20
229.8698302834
  0
SEQEND
  0
ARC
  8
0
 62
7
  6
CONTINUOUS
 10
37.5671693947
 20
101.5287261008
 40
2.7
 50
270.0
 51
360.0
  0
ARC
  8
0
 62
7
  6
CONTINUOUS
 10
55.9671693947
 20
101.5287261008
 40
2.7
 50
180.0
 51
270.0
  0
ARC
  8
0
 62
7
  6
CONTINUOUS
 10
30.5671693947
 20
101.5287261008
 40
2.7
 50
180.0
 51
270.0
  0
ARC
  8
0
 62
7
  6
CONTINUOUS
 10
28.1671693947
 20
106.2220713605
 40
0.3
 50
158.6113771722
 51
180.0
  0
ARC
  8
0
 62
7
  6
CONTINUOUS
 10
53.5671693947
 20
106.2220713605
 40
0.3
 50
158.6113771722
 51
180.0
  0
ARC
  8
0
 62
7
  6
CONTINUOUS
 10
39.9671693947
 20
106.2220713605
 40
0.3
 50
0.0
 51
21.3886228278
  0
ARC
  8
0
 62
7
  6
CONTINUOUS
 10
54.9671693947
 20
113.3611922563
 40
2.1
 50
338.6113771722
 51
360.0
  0
ARC
  8
0
 62
7
  6
CONTINUOUS
 10
38.5671693947
 20
113.3611922563
 40
2.1
 50
180.0
 51
201.3886228278
  0
ARC
  8
0
 62
7
  6
CONTINUOUS
 10
29.5671693947
 20
113.3611922563
 40
2.1
 50
338.6113771722
 51
359.9998673402
  0
ARC
  8
0
 62
7
  6
CONTINUOUS
 10
38.5671693947
 20
113.3611922563
 40
1.0
 50
180.0
 51
201.3886228278
  0
ARC
  8
0
 62
7
  6
CONTINUOUS
 10
54.9671693947
 20
113.3611922563
 40
1.0
 50
338.6113771722
 51
360.0
  0
ARC
  8
0
 62
7
  6
CONTINUOUS
 10
29.5671693947
 20
113.3611922563
 40
1.0
 50
338.6113771722
 51
360.0
  0
ARC
  8
0
 62
7
  6
CONTINUOUS
 10
57.7671693947
 20
110.4787261008
 40
1.0
 50
180.0
 51
270.0
  0
ARC
  8
0
 62
7
  6
CONTINUOUS
 10
35.7671693947
 20
110.4787261008
 40
1.0
 50
270.0
 51
360.0
  0
ARC
  8
0
 62
7
  6
CONTINUOUS
 10
32.3671693947
 20
110.4787261008
 40
1.0
 50
180.0
 51
270.0
  0
ARC
  8
0
 62
7
  6
CONTINUOUS
 10
32.3671693947
 20
112.0098024934
 40
1.0
 50
158.6113771722
 51
180.0
  0
ARC
  8
0
 62
7
  6
CONTINUOUS
 10
35.7671693947
 20
112.0098024934
 40
1.0
 50
0.0
 51
21.3886228278
  0
ARC
  8
0
 62
7
  6
CONTINUOUS
 10
57.7671693947
 20
112.0098024934
 40
1.0
 50
158.6113771722
 51
180.0
  0
ARC
  8
0
 62
7
  6
CONTINUOUS
 10
88.3671693947
 20
101.5287261008
 40
2.7
 50
270.0
 51
360.0
  0
ARC
  8
0
 62
7
  6
CONTINUOUS
 10
62.9671693947
 20
101.5287261008
 40
2.7
 50
270.0
 51
360.0
  0
ARC
  8
0
 62
7
  6
CONTINUOUS
 10
81.3671693947
 20
101.5287261008
 40
2.7
 50
180.0
 51
270.0
  0
ARC
  8
0
 62
7
  6
CONTINUOUS
 10
90.7671693947
 20
106.2220713605
 40
0.3
 50
0.0
 51
21.3886228278
  0
ARC
  8
0
 62
7
  6
CONTINUOUS
 10
78.9671693947
 20
106.2220713605
 40
0.3
 50
158.6113771722
 51
180.0
  0
ARC
  8
0
 62
7
  6
CONTINUOUS
 10
65.3671693947
 20
106.2220713605
 40
0.3
 50
0.0
 51
21.3886228278
  0
ARC
  8
0
 62
7
  6
CONTINUOUS
 10
89.3671693947
 20
113.3611922563
 40
2.1
 50
180.0
 51
201.3886228278
  0
ARC
  8
0
 62
7
  6
CONTINUOUS
 10
80.3671693947
 20
113.3611922563
 40
2.1
 50
338.6113771722
 51
360.0
  0
ARC
  8
0
 62
7
  6
CONTINUOUS
 10
63.9671693947
 20
113.3611922563
 40
2.1
 50
180.0
 51
201.3886228278
  0
ARC
  8
0
 62
7
  6
CONTINUOUS
 10
63.9671693947
 20
113.3611922563
 40
1.0
 50
180.0
 51
201.3886228278
  0
ARC
  8
0
 62
7
  6
CONTINUOUS
 10
80.3671693947
 20
113.3611922563
 40
1.0
 50
338.6113771722
 51
360.0
  0
ARC
  8
0
 62
7
  6
CONTINUOUS
 10
89.3671693947
 20
113.3611922563
 40
1.0
 50
180.0
 51
201.3886228278
  0
ARC
  8
0
 62
7
  6
CONTINUOUS
 10
86.5671693947
 20
110.4787261008
 40
1.0
 50
270.0
 51
360.0
  0
ARC
  8
0
 62
7
  6
CONTINUOUS
 10
83.1671693947
 20
110.4787261008
 40
1.0
 50
180.0
 51
270.0
  0
ARC
  8
0
 62
7
  6
CONTINUOUS
 10
61.1671693947
 20
110.4787261008
 40
1.0
 50
270.0
 51
360.0
  0
ARC
  8
0
 62
7
  6
CONTINUOUS
 10
61.1671693947
 20
112.0098024934
 40
1.0
 50
0.0
 51
21.3886228278
  0
ARC
  8
0
 62
7
  6
CONTINUOUS
 10
83.1671693947
 20
112.0098024934
 40
1.0
 50
158.6113771722
 51
180.0
  0
ARC
  8
0
 62
7
  6
CONTINUOUS
 10
86.5671693947
 20
112.0098024934
 40
1.0
 50
0.0
 51
21.3886228278
  0
ARC
  8
0
 62
7
  6
CONTINUOUS
 10
90.3671693947
 20
127.4287261008
 40
3.1
 50
90.0
 51
180.0
  0
ARC
  8
0
 62
7
  6
CONTINUOUS
 10
79.3671693947
 20
127.4287261008
 40
3.1
 50
0.0
 51
90.0
  0
ARC
  8
0
 62
7
  6
CONTINUOUS
 10
64.9671693947
 20
127.4287261008
 40
3.1
 50
90.0
 51
180.0
  0
ARC
  8
0
 62
7
  6
CONTINUOUS
 10
53.9671693947
 20
127.4287261008
 40
3.1
 50
0.0
 51
90.0
  0
ARC
  8
0
 62
7
  6
CONTINUOUS
 10
39.5671693947
 20
127.4287261008
 40
3.1
 50
90.0
 51
180.0
  0
ARC
  8
0
 62
7
  6
CONTINUOUS
 10
34.1672066242
 20
129.4406265591
 40
2.5
 50
90.0
 51
179.9998673402
  0
ARC
  8
0
 62
7
  6
CONTINUOUS
 10
79.3671693947
 20
127.4287261008
 40
2.0
 50
0.0
 51
90.0
  0
ARC
  8
0
 62
7
  6
CONTINUOUS
 10
64.9671693947
 20
127.4287261008
 40
2.0
 50
90.0
 51
180.0
  0
ARC
  8
0
 62
7
  6
CONTINUOUS
 10
53.9671693947
 20
127.4287261008
 40
2.0
 50
0.0
 51
90.0
  0
ARC
  8
0
 62
7
  6
CONTINUOUS
 10
39.5671693947
 20
127.4287261008
 40
2.0
 50
90.0
 51
180.0
  0
ARC
  8
0
 62
7
  6
CONTINUOUS
 10
90.3671693947
 20
127.4287261008
 40
2.0
 50
90.0
 51
180.0
  0
ARC
  8
0
 62
7
  6
CONTINUOUS
 10
28.2671693947
 20
129.7287261008
 40
0.3
 50
180.0
 51
270.0
  0
ARC
  8
0
 62
7
  6
CONTINUOUS
 10
30.2671693947
 20
129.1287261008
 40
0.3
 50
0.0
 51
90.0
  0
ARC
  8
0
 62
7
  6
CONTINUOUS
 10
113.7671693947
 20
101.5287261008
 40
2.7
 50
270.0
 51
360.0
  0
ARC
  8
0
 62
7
  6
CONTINUOUS
 10
132.1671693947
 20
101.5287261008
 40
2.7
 50
180.0
 51
270.0
  0
ARC
  8
0
 62
7
  6
CONTINUOUS
 10
106.7671693947
 20
101.5287261008
 40
2.7
 50
180.0
 51
270.0
  0
ARC
  8
0
 62
7
  6
CONTINUOUS
 10
104.3671693947
 20
106.2220713605
 40
0.3
 50
158.6113771722
 51
180.0
  0
ARC
  8
0
 62
7
  6
CONTINUOUS
 10
129.7671693947
 20
106.2220713605
 40
0.3
 50
158.6113771722
 51
180.0
  0
ARC
  8
0
 62
7
  6
CONTINUOUS
 10
116.1671693947
 20
106.2220713605
 40
0.3
 50
0.0
 51
21.3886228278
  0
ARC
  8
0
 62
7
  6
CONTINUOUS
 10
131.1671693947
 20
113.3611922563
 40
2.1
 50
338.6113771722
 51
360.0
  0
ARC
  8
0
 62
7
  6
CONTINUOUS
 10
114.7671693947
 20
113.3611922563
 40
2.1
 50
180.0
 51
201.3886228278
  0
ARC
  8
0
 62
7
  6
CONTINUOUS
 10
105.7671693947
 20
113.3611922563
 40
2.1
 50
338.6113771722
 51
360.0
  0
ARC
  8
0
 62
7
  6
CONTINUOUS
 10
114.7671693947
 20
113.3611922563
 40
1.0
 50
180.0
 51
201.3886228278
  0
ARC
  8
0
 62
7
  6
CONTINUOUS
 10
131.1671693947
 20
113.3611922563
 40
1.0
 50
338.6113771722
 51
360.0
  0
ARC
  8
0
 62
7
  6
CONTINUOUS
 10
105.7671693947
 20
113.3611922563
 40
1.0
 50
338.6113771722
 51
360.0
  0
ARC
  8
0
 62
7
  6
CONTINUOUS
 10
133.9671693947
 20
110.4787261008
 40
1.0
 50
180.0
 51
270.0
  0
ARC
  8
0
 62
7
  6
CONTINUOUS
 10
108.5671693947
 20
110.4787261008
 40
1.0
 50
180.0
 51
270.0
  0
ARC
  8
0
 62
7
  6
CONTINUOUS
 10
111.9671693947
 20
110.4787261008
 40
1.0
 50
270.0
 51
360.0
  0
ARC
  8
0
 62
7
  6
CONTINUOUS
 10
108.5671693947
 20
112.0098024934
 40
1.0
 50
158.6113771722
 51
180.0
  0
ARC
  8
0
 62
7
  6
CONTINUOUS
 10
111.9671693947
 20
112.0098024934
 40
1.0
 50
0.0
 51
21.3886228278
  0
ARC
  8
0
 62
7
  6
CONTINUOUS
 10
133.9671693947
 20
112.0098024934
 40
1.0
 50
158.6113771722
 51
180.0
  0
ARC
  8
0
 62
7
  6
CONTINUOUS
 10
157.5671693947
 20
101.5287261008
 40
2.7
 50
180.0
 51
270.0
  0
ARC
  8
0
 62
7
  6
CONTINUOUS
 10
139.1671693947
 20
101.5287261008
 40
2.7
 50
270.0
 51
360.0
  0
ARC
  8
0
 62
7
  6
CONTINUOUS
 10
164.5671693947
 20
101.5287261008
 40
2.7
 50
270.0
 51
360.0
  0
ARC
  8
0
 62
7
  6
CONTINUOUS
 10
155.1671693947
 20
106.2220713605
 40
0.3
 50
158.6113771722
 51
180.0
  0
ARC
  8
0
 62
7
  6
CONTINUOUS
 10
141.5671693947
 20
106.2220713605
 40
0.3
 50
0.0
 51
21.3886228278
  0
ARC
  8
0
 62
7
  6
CONTINUOUS
 10
166.9671693947
 20
106.2220713605
 40
0.3
 50
0.0
 51
21.3886228278
  0
ARC
  8
0
 62
7
  6
CONTINUOUS
 10
165.5671693947
 20
113.3611922563
 40
2.1
 50
180.0
 51
201.3886228278
  0
ARC
  8
0
 62
7
  6
CONTINUOUS
 10
156.5671693947
 20
113.3611922563
 40
2.1
 50
338.6113771722
 51
360.0
  0
ARC
  8
0
 62
7
  6
CONTINUOUS
 10
140.1671693947
 20
113.3611922563
 40
2.1
 50
180.0
 51
201.3886228278
  0
ARC
  8
0
 62
7
  6
CONTINUOUS
 10
156.5671693947
 20
113.3611922563
 40
1.0
 50
338.6113771722
 51
360.0
  0
ARC
  8
0
 62
7
  6
CONTINUOUS
 10
140.1671693947
 20
113.3611922563
 40
1.0
 50
180.0
 51
201.3886228278
  0
ARC
  8
0
 62
7
  6
CONTINUOUS
 10
165.5671693947
 20
113.3611922563
 40
1.0
 50
180.0
 51
201.3886228278
  0
ARC
  8
0
 62
7
  6
CONTINUOUS
 10
159.3671693947
 20
110.4787261008
 40
1.0
 50
180.0
 51
270.0
  0
ARC
  8
0
 62
7
  6
CONTINUOUS
 10
162.7671693947
 20
110.4787261008
 40
1.0
 50
270.0
 51
360.0
  0
ARC
  8
0
 62
7
  6
CONTINUOUS
 10
137.3671693947
 20
110.4787261008
 40
1.0
 50
270.0
 51
360.0
  0
ARC
  8
0
 62
7
  6
CONTINUOUS
 10
137.3671693947
 20
112.0098024934
 40
1.0
 50
0.0
 51
21.3886228278
  0
ARC
  8
0
 62
7
  6
CONTINUOUS
 10
159.3671693947
 20
112.0098024934
 40
1.0
 50
158.6113771722
 51
180.0
  0
ARC
  8
0
 62
7
  6
CONTINUOUS
 10
162.7671693947
 20
112.0098024934
 40
1.0
 50
0.0
 51
21.3886228278
  0
ARC
  8
0
 62
7
  6
CONTINUOUS
 10
166.5671693947
 20
127.4287261008
 40
3.1
 50
90.0
 51
180.0
  0
ARC
  8
0
 62
7
  6
CONTINUOUS
 10
155.5671693947
 20
127.4287261008
 40
3.1
 50
0.0
 51
90.0
  0
ARC
  8
0
 62
7
  6
CONTINUOUS
 10
141.1671693947
 20
127.4287261008
 40
3.1
 50
90.0
 51
180.0
  0
ARC
  8
0
 62
7
  6
CONTINUOUS
 10
130.1671693947
 20
127.4287261008
 40
3.1
 50
0.0
 51
90.0
  0
ARC
  8
0
 62
7
  6
CONTINUOUS
 10
115.7671693947
 20
127.4287261008
 40
3.1
 50
90.0
 51
180.0
  0
ARC
  8
0
 62
7
  6
CONTINUOUS
 10
104.7671693947
 20
127.4287261008
 40
3.1
 50
0.0
 51
90.0
  0
ARC
  8
0
 62
7
  6
CONTINUOUS
 10
141.1671693947
 20
127.4287261008
 40
2.0
 50
90.0
 51
180.0
  0
ARC
  8
0
 62
7
  6
CONTINUOUS
 10
155.5671693947
 20
127.4287261008
 40
2.0
 50
0.0
 51
90.0
  0
ARC
  8
0
 62
7
  6
CONTINUOUS
 10
130.1671693947
 20
127.4287261008
 40
2.0
 50
0.0
 51
90.0
  0
ARC
  8
0
 62
7
  6
CONTINUOUS
 10
115.7671693947
 20
127.4287261008
 40
2.0
 50
90.0
 51
180.0
  0
ARC
  8
0
 62
7
  6
CONTINUOUS
 10
166.5671693947
 20
127.4287261008
 40
2.0
 50
90.0
 51
180.0
  0
ARC
  8
0
 62
7
  6
CONTINUOUS
 10
104.7671693947
 20
127.4287261008
 40
2.0
 50
0.0
 51
90.0
  0
ARC
  8
0
 62
7
  6
CONTINUOUS
 10
66.6671693947
 20
136.8540661346
 40
2.0
 50
270.0
 51
360.0
  0
ARC
  8
0
 62
7
  6
CONTINUOUS
 10
77.6671693947
 20
136.8540661346
 40
2.0
 50
180.0
 51
270.0
  0
ARC
  8
0
 62
7
  6
CONTINUOUS
 10
52.2671693947
 20
136.8540661346
 40
2.0
 50
180.0
 51
270.0
  0
ARC
  8
0
 62
7
  6
CONTINUOUS
 10
41.2671693947
 20
136.8540661346
 40
2.0
 50
270.0
 51
360.0
  0
ARC
  8
0
 62
7
  6
CONTINUOUS
 10
103.0671693947
 20
136.8540661346
 40
2.0
 50
180.0
 51
270.0
  0
ARC
  8
0
 62
7
  6
CONTINUOUS
 10
92.0671693947
 20
136.8540661346
 40
2.0
 50
270.0
 51
360.0
  0
ARC
  8
0
 62
7
  6
CONTINUOUS
 10
28.2671693947
 20
134.5540661346
 40
0.3
 50
90.0
 51
180.0000000073
  0
ARC
  8
0
 62
7
  6
CONTINUOUS
 10
42.2671693947
 20
151.0967354207
 40
2.1
 50
0.0
 51
21.39
  0
ARC
  8
0
 62
7
  6
CONTINUOUS
 10
51.2671693947
 20
151.0967354207
 40
2.1
 50
158.61
 51
180.0
  0
ARC
  8
0
 62
7
  6
CONTINUOUS
 10
67.6671693947
 20
151.0967354207
 40
2.1
 50
0.0
 51
21.39
  0
ARC
  8
0
 62
7
  6
CONTINUOUS
 10
67.6671693947
 20
151.0967354207
 40
1.0
 50
0.0
 51
21.39
  0
ARC
  8
0
 62
7
  6
CONTINUOUS
 10
51.2671693947
 20
151.0967354207
 40
1.0
 50
158.61
 51
180.0
  0
ARC
  8
0
 62
7
  6
CONTINUOUS
 10
42.2671693947
 20
151.0967354207
 40
1.0
 50
0.0
 51
21.39
  0
ARC
  8
0
 62
7
  6
CONTINUOUS
 10
70.4671693947
 20
153.9787261008
 40
1.0
 50
90.0
 51
180.0
  0
ARC
  8
0
 62
7
  6
CONTINUOUS
 10
48.4671693947
 20
153.9787261008
 40
1.0
 50
0.0
 51
90.0
  0
ARC
  8
0
 62
7
  6
CONTINUOUS
 10
45.0671693947
 20
153.9787261008
 40
1.0
 50
90.0
 51
180.0
  0
ARC
  8
0
 62
7
  6
CONTINUOUS
 10
70.4671693947
 20
152.4481095549
 40
1.0
 50
180.0
 51
201.39
  0
ARC
  8
0
 62
7
  6
CONTINUOUS
 10
48.4671693947
 20
152.4481095549
 40
1.0
 50
338.61
 51
360.0
  0
ARC
  8
0
 62
7
  6
CONTINUOUS
 10
45.0671693947
 20
152.4481095549
 40
1.0
 50
180.0
 51
201.39
  0
ARC
  8
0
 62
7
  6
CONTINUOUS
 10
68.6671693947
 20
162.9287261008
 40
2.7
 50
90.0
 51
180.0
  0
ARC
  8
0
 62
7
  6
CONTINUOUS
 10
50.2671693947
 20
162.9287261008
 40
2.7
 50
0.0
 51
90.0
  0
ARC
  8
0
 62
7
  6
CONTINUOUS
 10
43.2671693947
 20
162.9287261008
 40
2.7
 50
90.0
 51
180.0
  0
ARC
  8
0
 62
7
  6
CONTINUOUS
 10
40.8671693947
 20
158.2353845751
 40
0.3
 50
180.0
 51
201.39
  0
ARC
  8
0
 62
7
  6
CONTINUOUS
 10
52.6671693947
 20
158.2353845751
 40
0.3
 50
338.61
 51
360.0
  0
ARC
  8
0
 62
7
  6
CONTINUOUS
 10
66.2671693947
 20
158.2353845751
 40
0.3
 50
180.0
 51
201.39
  0
ARC
  8
0
 62
7
  6
CONTINUOUS
 10
76.6671693947
 20
151.0967354207
 40
2.1
 50
158.61
 51
180.0
  0
ARC
  8
0
 62
7
  6
CONTINUOUS
 10
93.0671693947
 20
151.0967354207
 40
2.1
 50
0.0
 51
21.39
  0
ARC
  8
0
 62
7
  6
CONTINUOUS
 10
102.0671693947
 20
151.0967354207
 40
2.1
 50
158.61
 51
180.0
  0
ARC
  8
0
 62
7
  6
CONTINUOUS
 10
76.6671693947
 20
151.0967354207
 40
1.0
 50
158.61
 51
180.0
  0
ARC
  8
0
 62
7
  6
CONTINUOUS
 10
93.0671693947
 20
151.0967354207
 40
1.0
 50
0.0
 51
21.39
  0
ARC
  8
0
 62
7
  6
CONTINUOUS
 10
102.0671693947
 20
151.0967354207
 40
1.0
 50
158.61
 51
180.0
  0
ARC
  8
0
 62
7
  6
CONTINUOUS
 10
73.8671693947
 20
153.9787261008
 40
1.0
 50
0.0
 51
90.0
  0
ARC
  8
0
 62
7
  6
CONTINUOUS
 10
95.8671693947
 20
153.9787261008
 40
1.0
 50
90.0
 51
180.0
  0
ARC
  8
0
 62
7
  6
CONTINUOUS
 10
99.2671693947
 20
153.9787261008
 40
1.0
 50
0.0
 51
90.0
  0
ARC
  8
0
 62
7
  6
CONTINUOUS
 10
99.2671693947
 20
152.4481095549
 40
1.0
 50
338.61
 51
360.0
  0
ARC
  8
0
 62
7
  6
CONTINUOUS
 10
95.8671693947
 20
152.4481095549
 40
1.0
 50
180.0
 51
201.39
  0
ARC
  8
0
 62
7
  6
CONTINUOUS
 10
73.8671693947
 20
152.4481095549
 40
1.0
 50
338.61
 51
360.0
  0
ARC
  8
0
 62
7
  6
CONTINUOUS
 10
75.6671693947
 20
162.9287261008
 40
2.7
 50
0.0
 51
90.0
  0
ARC
  8
0
 62
7
  6
CONTINUOUS
 10
94.0671693947
 20
162.9287261008
 40
2.7
 50
90.0
 51
180.0
  0
ARC
  8
0
 62
7
  6
CONTINUOUS
 10
101.0671693947
 20
162.9287261008
 40
2.7
 50
0.0
 51
90.0
  0
ARC
  8
0
 62
7
  6
CONTINUOUS
 10
103.4671693947
 20
158.2353845751
 40
0.3
 50
338.61
 51
360.0
  0
ARC
  8
0
 62
7
  6
CONTINUOUS
 10
91.6671693947
 20
158.2353845751
 40
0.3
 50
180.0
 51
201.39
  0
ARC
  8
0
 62
7
  6
CONTINUOUS
 10
78.0671693947
 20
158.2353845751
 40
0.3
 50
338.61
 51
360.0
  0
ARC
  8
0
 62
7
  6
CONTINUOUS
 10
173.6671693947
 20
133.0287261008
 40
2.5
 50
270.0
 51
360.0
  0
ARC
  8
0
 62
7
  6
CONTINUOUS
 10
168.2671693947
 20
136.8540661346
 40
2.0
 50
270.0
 51
360.0
  0
ARC
  8
0
 62
7
  6
CONTINUOUS
 10
179.2671693947
 20
136.8540661346
 40
2.0
 50
180.0
 51
270.0
  0
ARC
  8
0
 62
7
  6
CONTINUOUS
 10
153.8671693947
 20
136.8540661346
 40
2.0
 50
180.0
 51
270.0
  0
ARC
  8
0
 62
7
  6
CONTINUOUS
 10
142.8671693947
 20
136.8540661346
 40
2.0
 50
270.0
 51
360.0
  0
ARC
  8
0
 62
7
  6
CONTINUOUS
 10
117.4671693947
 20
136.8540661346
 40
2.0
 50
270.0
 51
360.0
  0
ARC
  8
0
 62
7
  6
CONTINUOUS
 10
128.4671693947
 20
136.8540661346
 40
2.0
 50
180.0
 51
270.0
  0
ARC
  8
0
 62
7
  6
CONTINUOUS
 10
118.4671693947
 20
151.0967354207
 40
2.1
 50
0.0
 51
21.39
  0
ARC
  8
0
 62
7
  6
CONTINUOUS
 10
127.4671693947
 20
151.0967354207
 40
2.1
 50
158.61
 51
180.0
  0
ARC
  8
0
 62
7
  6
CONTINUOUS
 10
143.8671693947
 20
151.0967354207
 40
2.1
 50
0.0
 51
21.39
  0
ARC
  8
0
 62
7
  6
CONTINUOUS
 10
143.8671693947
 20
151.0967354207
 40
1.0
 50
0.0
 51
21.39
  0
ARC
  8
0
 62
7
  6
CONTINUOUS
 10
127.4671693947
 20
151.0967354207
 40
1.0
 50
158.61
 51
180.0
  0
ARC
  8
0
 62
7
  6
CONTINUOUS
 10
118.4671693947
 20
151.0967354207
 40
1.0
 50
0.0
 51
21.39
  0
ARC
  8
0
 62
7
  6
CONTINUOUS
 10
121.2671693947
 20
153.9787261008
 40
1.0
 50
90.0
 51
180.0
  0
ARC
  8
0
 62
7
  6
CONTINUOUS
 10
124.6671693947
 20
153.9787261008
 40
1.0
 50
0.0
 51
90.0
  0
ARC
  8
0
 62
7
  6
CONTINUOUS
 10
146.6671693947
 20
153.9787261008
 40
1.0
 50
90.0
 51
180.0
  0
ARC
  8
0
 62
7
  6
CONTINUOUS
 10
146.6671693947
 20
152.4481095549
 40
1.0
 50
180.0
 51
201.39
  0
ARC
  8
0
 62
7
  6
CONTINUOUS
 10
124.6671693947
 20
152.4481095549
 40
1.0
 50
338.61
 51
360.0
  0
ARC
  8
0
 62
7
  6
CONTINUOUS
 10
121.2671693947
 20
152.4481095549
 40
1.0
 50
180.0
 51
201.39
  0
ARC
  8
0
 62
7
  6
CONTINUOUS
 10
144.8671693947
 20
162.9287261008
 40
2.7
 50
90.0
 51
180.0
  0
ARC
  8
0
 62
7
  6
CONTINUOUS
 10
126.4671693947
 20
162.9287261008
 40
2.7
 50
0.0
 51
90.0
  0
ARC
  8
0
 62
7
  6
CONTINUOUS
 10
119.4671693947
 20
162.9287261008
 40
2.7
 50
90.0
 51
180.0
  0
ARC
  8
0
 62
7
  6
CONTINUOUS
 10
117.0671693947
 20
158.2353845751
 40
0.3
 50
180.0
 51
201.39
  0
ARC
  8
0
 62
7
  6
CONTINUOUS
 10
128.8671693947
 20
158.2353845751
 40
0.3
 50
338.61
 51
360.0
  0
ARC
  8
0
 62
7
  6
CONTINUOUS
 10
142.4671693947
 20
158.2353845751
 40
0.3
 50
180.0
 51
201.39
  0
ARC
  8
0
 62
7
  6
CONTINUOUS
 10
152.8671693947
 20
151.0967354207
 40
2.1
 50
158.61
 51
180.0
  0
ARC
  8
0
 62
7
  6
CONTINUOUS
 10
169.2671693947
 20
151.0967354207
 40
2.1
 50
0.0
 51
21.39
  0
ARC
  8
0
 62
7
  6
CONTINUOUS
 10
178.2671693947
 20
151.0967354207
 40
2.1
 50
158.61
 51
180.0
  0
ARC
  8
0
 62
7
  6
CONTINUOUS
 10
152.8671693947
 20
151.0967354207
 40
1.0
 50
158.61
 51
180.0
  0
ARC
  8
0
 62
7
  6
CONTINUOUS
 10
169.2671693947
 20
151.0967354207
 40
1.0
 50
0.0
 51
21.39
  0
ARC
  8
0
 62
7
  6
CONTINUOUS
 10
178.2671693947
 20
151.0967354207
 40
1.0
 50
158.61
 51
180.0
  0
ARC
  8
0
 62
7
  6
CONTINUOUS
 10
150.0671693947
 20
153.9787261008
 40
1.0
 50
0.0
 51
90.0
  0
ARC
  8
0
 62
7
  6
CONTINUOUS
 10
172.0671693947
 20
153.9787261008
 40
1.0
 50
90.0
 51
180.0
  0
ARC
  8
0
 62
7
  6
CONTINUOUS
 10
175.4671693947
 20
153.9787261008
 40
1.0
 50
0.0
 51
90.0
  0
ARC
  8
0
 62
7
  6
CONTINUOUS
 10
175.4671693947
 20
152.4481095549
 40
1.0
 50
338.61
 51
360.0
  0
ARC
  8
0
 62
7
  6
CONTINUOUS
 10
172.0671693947
 20
152.4481095549
 40
1.0
 50
180.0
 51
201.39
  0
ARC
  8
0
 62
7
  6
CONTINUOUS
 10
150.0671693947
 20
152.4481095549
 40
1.0
 50
338.61
 51
360.0
  0
ARC
  8
0
 62
7
  6
CONTINUOUS
 10
151.8671693947
 20
162.9287261008
 40
2.7
 50
0.0
 51
90.0
  0
ARC
  8
0
 62
7
  6
CONTINUOUS
 10
170.2671693947
 20
162.9287261008
 40
2.7
 50
90.0
 51
180.0
  0
ARC
  8
0
 62
7
  6
CONTINUOUS
 10
177.2671693947
 20
162.9287261008
 40
2.7
 50
0.0
 51
90.0
  0
ARC
  8
0
 62
7
  6
CONTINUOUS
 10
154.2671693947
 20
158.2353845751
 40
0.3
 50
338.61
 51
360.0
  0
ARC
  8
0
 62
7
  6
CONTINUOUS
 10
167.8671693947
 20
158.2353845751
 40
0.3
 50
180.0
 51
201.39
  0
ARC
  8
0
 62
7
  6
CONTINUOUS
 10
179.6671693947
 20
158.2353845751
 40
0.3
 50
338.61
 51
360.0
  0
ARC
  8
0
 62
7
  6
CONTINUOUS
 10
182.9671693947
 20
101.5287261008
 40
2.7
 50
180.0
 51
270.0
  0
ARC
  8
0
 62
7
  6
CONTINUOUS
 10
208.3671693947
 20
101.5287261008
 40
2.7
 50
180.0
 51
270.0
  0
ARC
  8
0
 62
7
  6
CONTINUOUS
 10
189.9671693947
 20
101.5287261008
 40
2.7
 50
270.0
 51
360.0
  0
ARC
  8
0
 62
7
  6
CONTINUOUS
 10
180.5671693947
 20
106.2220713605
 40
0.3
 50
158.6113771722
 51
180.0
  0
ARC
  8
0
 62
7
  6
CONTINUOUS
 10
205.9671693947
 20
106.2220713605
 40
0.3
 50
158.6113771722
 51
180.0
  0
ARC
  8
0
 62
7
  6
CONTINUOUS
 10
192.3671693947
 20
106.2220713605
 40
0.3
 50
0.0
 51
21.3886228278
  0
ARC
  8
0
 62
7
  6
CONTINUOUS
 10
207.3671693947
 20
113.3611922563
 40
2.1
 50
338.6113771722
 51
360.0
  0
ARC
  8
0
 62
7
  6
CONTINUOUS
 10
190.9671693947
 20
113.3611922563
 40
2.1
 50
180.0
 51
201.3886228278
  0
ARC
  8
0
 62
7
  6
CONTINUOUS
 10
181.9671693947
 20
113.3611922563
 40
2.1
 50
338.6113771722
 51
359.9998673402
  0
ARC
  8
0
 62
7
  6
CONTINUOUS
 10
181.9671693947
 20
113.3611922563
 40
1.0
 50
338.6113771722
 51
360.0
  0
ARC
  8
0
 62
7
  6
CONTINUOUS
 10
207.3671693947
 20
113.3611922563
 40
1.0
 50
338.6113771722
 51
360.0
  0
ARC
  8
0
 62
7
  6
CONTINUOUS
 10
190.9671693947
 20
113.3611922563
 40
1.0
 50
180.0
 51
201.3886228278
  0
ARC
  8
0
 62
7
  6
CONTINUOUS
 10
210.1671693947
 20
110.4787261008
 40
1.0
 50
180.0
 51
270.0
  0
ARC
  8
0
 62
7
  6
CONTINUOUS
 10
188.1671693947
 20
110.4787261008
 40
1.0
 50
270.0
 51
360.0
  0
ARC
  8
0
 62
7
  6
CONTINUOUS
 10
184.7671693947
 20
110.4787261008
 40
1.0
 50
180.0
 51
270.0
  0
ARC
  8
0
 62
7
  6
CONTINUOUS
 10
184.7671693947
 20
112.0098024934
 40
1.0
 50
158.6113771722
 51
180.0
  0
ARC
  8
0
 62
7
  6
CONTINUOUS
 10
188.1671693947
 20
112.0098024934
 40
1.0
 50
0.0
 51
21.3886228278
  0
ARC
  8
0
 62
7
  6
CONTINUOUS
 10
210.1671693947
 20
112.0098024934
 40
1.0
 50
158.6113771722
 51
180.0
  0
ARC
  8
0
 62
7
  6
CONTINUOUS
 10
240.7671693947
 20
101.5287261008
 40
2.7
 50
270.0
 51
360.0
  0
ARC
  8
0
 62
7
  6
CONTINUOUS
 10
215.3671693947
 20
101.5287261008
 40
2.7
 50
270.0
 51
360.0
  0
ARC
  8
0
 62
7
  6
CONTINUOUS
 10
233.7671693947
 20
101.5287261008
 40
2.7
 50
180.0
 51
270.0
  0
ARC
  8
0
 62
7
  6
CONTINUOUS
 10
243.1671693947
 20
106.2220713605
 40
0.3
 50
0.0
 51
21.3886228278
  0
ARC
  8
0
 62
7
  6
CONTINUOUS
 10
217.7671693947
 20
106.2220713605
 40
0.3
 50
0.0
 51
21.3886228278
  0
ARC
  8
0
 62
7
  6
CONTINUOUS
 10
231.3671693947
 20
106.2220713605
 40
0.3
 50
158.6113771722
 51
180.0
  0
ARC
  8
0
 62
7
  6
CONTINUOUS
 10
241.7671693947
 20
113.3611922563
 40
2.1
 50
180.0
 51
201.3886228278
  0
ARC
  8
0
 62
7
  6
CONTINUOUS
 10
232.7671693947
 20
113.3611922563
 40
2.1
 50
338.6113771722
 51
360.0
  0
ARC
  8
0
 62
7
  6
CONTINUOUS
 10
216.3671693947
 20
113.3611922563
 40
2.1
 50
180.0
 51
201.3886228278
  0
ARC
  8
0
 62
7
  6
CONTINUOUS
 10
238.9671693947
 20
110.4787261008
 40
1.0
 50
270.0
 51
360.0
  0
ARC
  8
0
 62
7
  6
CONTINUOUS
 10
235.5671693947
 20
110.4787261008
 40
1.0
 50
180.0
 51
270.0
  0
ARC
  8
0
 62
7
  6
CONTINUOUS
 10
213.5671693947
 20
110.4787261008
 40
1.0
 50
270.0
 51
360.0
  0
ARC
  8
0
 62
7
  6
CONTINUOUS
 10
241.7671693947
 20
113.3611922563
 40
1.0
 50
180.0
 51
201.3886228278
  0
ARC
  8
0
 62
7
  6
CONTINUOUS
 10
213.5671693947
 20
112.0098024934
 40
1.0
 50
0.0
 51
21.3886228278
  0
ARC
  8
0
 62
7
  6
CONTINUOUS
 10
235.5671693947
 20
112.0098024934
 40
1.0
 50
158.6113771722
 51
180.0
  0
ARC
  8
0
 62
7
  6
CONTINUOUS
 10
238.9671693947
 20
112.0098024934
 40
1.0
 50
0.0
 51
21.3886228278
  0
ARC
  8
0
 62
7
  6
CONTINUOUS
 10
216.3671693947
 20
113.3611922563
 40
1.0
 50
180.0
 51
201.3886228278
  0
ARC
  8
0
 62
7
  6
CONTINUOUS
 10
232.7671693947
 20
113.3611922563
 40
1.0
 50
338.6113771722
 51
360.0
  0
ARC
  8
0
 62
7
  6
CONTINUOUS
 10
242.7671693947
 20
127.4287261008
 40
3.1
 50
90.0
 51
180.0
  0
ARC
  8
0
 62
7
  6
CONTINUOUS
 10
231.7671693947
 20
127.4287261008
 40
3.1
 50
0.0
 51
90.0
  0
ARC
  8
0
 62
7
  6
CONTINUOUS
 10
217.3671693947
 20
127.4287261008
 40
3.1
 50
90.0
 51
180.0
  0
ARC
  8
0
 62
7
  6
CONTINUOUS
 10
206.3671693947
 20
127.4287261008
 40
3.1
 50
0.0
 51
90.0
  0
ARC
  8
0
 62
7
  6
CONTINUOUS
 10
191.9671693947
 20
127.4287261008
 40
3.1
 50
90.0
 51
180.0
  0
ARC
  8
0
 62
7
  6
CONTINUOUS
 10
186.5672066242
 20
129.4406265591
 40
2.5
 50
90.0
 51
179.9998673402
  0
ARC
  8
0
 62
7
  6
CONTINUOUS
 10
180.9671693947
 20
127.4287261008
 40
2.0
 50
0.0
 51
90.0
  0
ARC
  8
0
 62
7
  6
CONTINUOUS
 10
191.9671693947
 20
127.4287261008
 40
2.0
 50
90.0
 51
180.0
  0
ARC
  8
0
 62
7
  6
CONTINUOUS
 10
206.3671693947
 20
127.4287261008
 40
2.0
 50
0.0
 51
90.0
  0
ARC
  8
0
 62
7
  6
CONTINUOUS
 10
242.7671693947
 20
127.4287261008
 40
2.0
 50
90.0
 51
180.0
  0
ARC
  8
0
 62
7
  6
CONTINUOUS
 10
231.7671693947
 20
127.4287261008
 40
2.0
 50
0.0
 51
90.0
  0
ARC
  8
0
 62
7
  6
CONTINUOUS
 10
217.3671693947
 20
127.4287261008
 40
2.0
 50
90.0
 51
180.0
  0
ARC
  8
0
 62
7
  6
CONTINUOUS
 10
284.5671693947
 20
101.5287261008
 40
2.7
 50
180.0
 51
270.0
  0
ARC
  8
0
 62
7
  6
CONTINUOUS
 10
259.1671693947
 20
101.5287261008
 40
2.7
 50
180.0
 51
270.0
  0
ARC
  8
0
 62
7
  6
CONTINUOUS
 10
266.1671693947
 20
101.5287261008
 40
2.7
 50
270.0
 51
360.0
  0
ARC
  8
0
 62
7
  6
CONTINUOUS
 10
256.7671693947
 20
106.2220713605
 40
0.3
 50
158.6113771722
 51
180.0
  0
ARC
  8
0
 62
7
  6
CONTINUOUS
 10
282.1671693947
 20
106.2220713605
 40
0.3
 50
158.6113771722
 51
180.0
  0
ARC
  8
0
 62
7
  6
CONTINUOUS
 10
268.5671693947
 20
106.2220713605
 40
0.3
 50
0.0
 51
21.3886228278
  0
ARC
  8
0
 62
7
  6
CONTINUOUS
 10
283.5671693947
 20
113.3611922563
 40
2.1
 50
338.6113771722
 51
360.0
  0
ARC
  8
0
 62
7
  6
CONTINUOUS
 10
267.1671693947
 20
113.3611922563
 40
2.1
 50
180.0
 51
201.3886228278
  0
ARC
  8
0
 62
7
  6
CONTINUOUS
 10
258.1671693947
 20
113.3611922563
 40
2.1
 50
338.6113771722
 51
360.0
  0
ARC
  8
0
 62
7
  6
CONTINUOUS
 10
286.3671693947
 20
110.4787261008
 40
1.0
 50
180.0
 51
270.0
  0
ARC
  8
0
 62
7
  6
CONTINUOUS
 10
258.1671693947
 20
113.3611922563
 40
1.0
 50
338.6113771722
 51
360.0
  0
ARC
  8
0
 62
7
  6
CONTINUOUS
 10
260.9671693947
 20
110.4787261008
 40
1.0
 50
180.0
 51
270.0
  0
ARC
  8
0
 62
7
  6
CONTINUOUS
 10
264.3671693947
 20
110.4787261008
 40
1.0
 50
270.0
 51
360.0
  0
ARC
  8
0
 62
7
  6
CONTINUOUS
 10
283.5671693947
 20
113.3611922563
 40
1.0
 50
338.6113771722
 51
360.0
  0
ARC
  8
0
 62
7
  6
CONTINUOUS
 10
267.1671693947
 20
113.3611922563
 40
1.0
 50
180.0
 51
201.3886228278
  0
ARC
  8
0
 62
7
  6
CONTINUOUS
 10
260.9671693947
 20
112.0098024934
 40
1.0
 50
158.6113771722
 51
180.0
  0
ARC
  8
0
 62
7
  6
CONTINUOUS
 10
264.3671693947
 20
112.0098024934
 40
1.0
 50
0.0
 51
21.3886228278
  0
ARC
  8
0
 62
7
  6
CONTINUOUS
 10
286.3671693947
 20
112.0098024934
 40
1.0
 50
158.6113771722
 51
180.0
  0
ARC
  8
0
 62
7
  6
CONTINUOUS
 10
309.9671693947
 20
101.5287261008
 40
2.7
 50
180.0
 51
270.0
  0
ARC
  8
0
 62
7
  6
CONTINUOUS
 10
291.5671693947
 20
101.5287261008
 40
2.7
 50
270.0
 51
360.0
  0
ARC
  8
0
 62
7
  6
CONTINUOUS
 10
316.9671693947
 20
101.5287261008
 40
2.7
 50
270.0
 51
360.0
  0
ARC
  8
0
 62
7
  6
CONTINUOUS
 10
307.5671693947
 20
106.2220713605
 40
0.3
 50
158.6113771722
 51
180.0
  0
ARC
  8
0
 62
7
  6
CONTINUOUS
 10
293.9671693947
 20
106.2220713605
 40
0.3
 50
0.0
 51
21.3886228278
  0
ARC
  8
0
 62
7
  6
CONTINUOUS
 10
319.3671693947
 20
106.2220713605
 40
0.3
 50
0.0
 51
21.3886228278
  0
ARC
  8
0
 62
7
  6
CONTINUOUS
 10
317.9671693947
 20
113.3611922563
 40
2.1
 50
180.0
 51
201.3886228278
  0
ARC
  8
0
 62
7
  6
CONTINUOUS
 10
308.9671693947
 20
113.3611922563
 40
2.1
 50
338.6113771722
 51
360.0
  0
ARC
  8
0
 62
7
  6
CONTINUOUS
 10
292.5671693947
 20
113.3611922563
 40
2.1
 50
180.0
 51
201.3886228278
  0
ARC
  8
0
 62
7
  6
CONTINUOUS
 10
311.7671693947
 20
110.4787261008
 40
1.0
 50
180.0
 51
270.0
  0
ARC
  8
0
 62
7
  6
CONTINUOUS
 10
315.1671693947
 20
110.4787261008
 40
1.0
 50
270.0
 51
360.0
  0
ARC
  8
0
 62
7
  6
CONTINUOUS
 10
289.7671693947
 20
110.4787261008
 40
1.0
 50
270.0
 51
360.0
  0
ARC
  8
0
 62
7
  6
CONTINUOUS
 10
289.7671693947
 20
112.0098024934
 40
1.0
 50
0.0
 51
21.3886228278
  0
ARC
  8
0
 62
7
  6
CONTINUOUS
 10
311.7671693947
 20
112.0098024934
 40
1.0
 50
158.6113771722
 51
180.0
  0
ARC
  8
0
 62
7
  6
CONTINUOUS
 10
315.1671693947
 20
112.0098024934
 40
1.0
 50
0.0
 51
21.3886228278
  0
ARC
  8
0
 62
7
  6
CONTINUOUS
 10
308.9671693947
 20
113.3611922563
 40
1.0
 50
338.6113771722
 51
360.0
  0
ARC
  8
0
 62
7
  6
CONTINUOUS
 10
292.5671693947
 20
113.3611922563
 40
1.0
 50
180.0
 51
201.3886228278
  0
ARC
  8
0
 62
7
  6
CONTINUOUS
 10
317.9671693947
 20
113.3611922563
 40
1.0
 50
180.0
 51
201.3886228278
  0
ARC
  8
0
 62
7
  6
CONTINUOUS
 10
318.9671693947
 20
127.4287261008
 40
3.1
 50
90.0
 51
180.0
  0
ARC
  8
0
 62
7
  6
CONTINUOUS
 10
307.9671693947
 20
127.4287261008
 40
3.1
 50
0.0
 51
90.0
  0
ARC
  8
0
 62
7
  6
CONTINUOUS
 10
293.5671693947
 20
127.4287261008
 40
3.1
 50
90.0
 51
180.0
  0
ARC
  8
0
 62
7
  6
CONTINUOUS
 10
282.5671693947
 20
127.4287261008
 40
3.1
 50
0.0
 51
90.0
  0
ARC
  8
0
 62
7
  6
CONTINUOUS
 10
268.1671693947
 20
127.4287261008
 40
3.1
 50
90.0
 51
180.0
  0
ARC
  8
0
 62
7
  6
CONTINUOUS
 10
257.1671693947
 20
127.4287261008
 40
3.1
 50
0.0
 51
90.0
  0
ARC
  8
0
 62
7
  6
CONTINUOUS
 10
257.1671693947
 20
127.4287261008
 40
2.0
 50
0.0
 51
90.0
  0
ARC
  8
0
 62
7
  6
CONTINUOUS
 10
268.1671693947
 20
127.4287261008
 40
2.0
 50
90.0
 51
180.0
  0
ARC
  8
0
 62
7
  6
CONTINUOUS
 10
282.5671693947
 20
127.4287261008
 40
2.0
 50
0.0
 51
90.0
  0
ARC
  8
0
 62
7
  6
CONTINUOUS
 10
293.5671693947
 20
127.4287261008
 40
2.0
 50
90.0
 51
180.0
  0
ARC
  8
0
 62
7
  6
CONTINUOUS
 10
307.9671693947
 20
127.4287261008
 40
2.0
 50
0.0
 51
90.0
  0
ARC
  8
0
 62
7
  6
CONTINUOUS
 10
318.9671693947
 20
127.4287261008
 40
2.0
 50
90.0
 51
180.0
  0
ARC
  8
0
 62
7
  6
CONTINUOUS
 10
331.9671693947
 20
129.7287261008
 40
0.3
 50
270.0
 51
360.0
  0
ARC
  8
0
 62
7
  6
CONTINUOUS
 10
230.0671693947
 20
136.8540661346
 40
2.0
 50
180.0
 51
270.0
  0
ARC
  8
0
 62
7
  6
CONTINUOUS
 10
219.0671693947
 20
136.8540661346
 40
2.0
 50
270.0
 51
360.0
  0
ARC
  8
0
 62
7
  6
CONTINUOUS
 10
255.4671693947
 20
136.8540661346
 40
2.0
 50
180.0
 51
270.0
  0
ARC
  8
0
 62
7
  6
CONTINUOUS
 10
193.6671693947
 20
136.8540661346
 40
2.0
 50
270.0
 51
360.0
  0
ARC
  8
0
 62
7
  6
CONTINUOUS
 10
204.6671693947
 20
136.8540661346
 40
2.0
 50
180.0
 51
270.0
  0
ARC
  8
0
 62
7
  6
CONTINUOUS
 10
244.4671693947
 20
136.8540661346
 40
2.0
 50
270.0
 51
360.0
  0
ARC
  8
0
 62
7
  6
CONTINUOUS
 10
194.6671693947
 20
151.0967354207
 40
2.1
 50
0.0
 51
21.39
  0
ARC
  8
0
 62
7
  6
CONTINUOUS
 10
203.6671693947
 20
151.0967354207
 40
2.1
 50
158.61
 51
180.0
  0
ARC
  8
0
 62
7
  6
CONTINUOUS
 10
220.0671693947
 20
151.0967354207
 40
2.1
 50
0.0
 51
21.39
  0
ARC
  8
0
 62
7
  6
CONTINUOUS
 10
194.6671693947
 20
151.0967354207
 40
1.0
 50
0.0
 51
21.39
  0
ARC
  8
0
 62
7
  6
CONTINUOUS
 10
203.6671693947
 20
151.0967354207
 40
1.0
 50
158.61
 51
180.0
  0
ARC
  8
0
 62
7
  6
CONTINUOUS
 10
222.8671693947
 20
153.9787261008
 40
1.0
 50
90.0
 51
180.0
  0
ARC
  8
0
 62
7
  6
CONTINUOUS
 10
200.8671693947
 20
153.9787261008
 40
1.0
 50
0.0
 51
90.0
  0
ARC
  8
0
 62
7
  6
CONTINUOUS
 10
197.4671693947
 20
153.9787261008
 40
1.0
 50
90.0
 51
180.0
  0
ARC
  8
0
 62
7
  6
CONTINUOUS
 10
222.8671693947
 20
152.4481095549
 40
1.0
 50
180.0
 51
201.39
  0
ARC
  8
0
 62
7
  6
CONTINUOUS
 10
200.8671693947
 20
152.4481095549
 40
1.0
 50
338.61
 51
360.0
  0
ARC
  8
0
 62
7
  6
CONTINUOUS
 10
197.4671693947
 20
152.4481095549
 40
1.0
 50
180.0
 51
201.39
  0
ARC
  8
0
 62
7
  6
CONTINUOUS
 10
220.0671693947
 20
151.0967354207
 40
1.0
 50
0.0
 51
21.39
  0
ARC
  8
0
 62
7
  6
CONTINUOUS
 10
195.6671693947
 20
162.9287261008
 40
2.7
 50
90.0
 51
180.0
  0
ARC
  8
0
 62
7
  6
CONTINUOUS
 10
202.6671693947
 20
162.9287261008
 40
2.7
 50
0.0
 51
90.0
  0
ARC
  8
0
 62
7
  6
CONTINUOUS
 10
221.0671693947
 20
162.9287261008
 40
2.7
 50
90.0
 51
180.0
  0
ARC
  8
0
 62
7
  6
CONTINUOUS
 10
193.2671693947
 20
158.2353845751
 40
0.3
 50
180.0
 51
201.39
  0
ARC
  8
0
 62
7
  6
CONTINUOUS
 10
205.0671693947
 20
158.2353845751
 40
0.3
 50
338.61
 51
360.0
  0
ARC
  8
0
 62
7
  6
CONTINUOUS
 10
218.6671693947
 20
158.2353845751
 40
0.3
 50
180.0
 51
201.39
  0
ARC
  8
0
 62
7
  6
CONTINUOUS
 10
229.0671693947
 20
151.0967354207
 40
2.1
 50
158.61
 51
180.0
  0
ARC
  8
0
 62
7
  6
CONTINUOUS
 10
245.4671693947
 20
151.0967354207
 40
2.1
 50
0.0
 51
21.39
  0
ARC
  8
0
 62
7
  6
CONTINUOUS
 10
254.4671693947
 20
151.0967354207
 40
2.1
 50
158.61
 51
180.0
  0
ARC
  8
0
 62
7
  6
CONTINUOUS
 10
245.4671693947
 20
151.0967354207
 40
1.0
 50
0.0
 51
21.39
  0
ARC
  8
0
 62
7
  6
CONTINUOUS
 10
226.2671693947
 20
153.9787261008
 40
1.0
 50
0.0
 51
90.0
  0
ARC
  8
0
 62
7
  6
CONTINUOUS
 10
248.2671693947
 20
153.9787261008
 40
1.0
 50
90.0
 51
180.0
  0
ARC
  8
0
 62
7
  6
CONTINUOUS
 10
251.6671693947
 20
153.9787261008
 40
1.0
 50
0.0
 51
90.0
  0
ARC
  8
0
 62
7
  6
CONTINUOUS
 10
254.4671693947
 20
151.0967354207
 40
1.0
 50
158.61
 51
180.0
  0
ARC
  8
0
 62
7
  6
CONTINUOUS
 10
251.6671693947
 20
152.4481095549
 40
1.0
 50
338.61
 51
360.0
  0
ARC
  8
0
 62
7
  6
CONTINUOUS
 10
248.2671693947
 20
152.4481095549
 40
1.0
 50
180.0
 51
201.39
  0
ARC
  8
0
 62
7
  6
CONTINUOUS
 10
226.2671693947
 20
152.4481095549
 40
1.0
 50
338.61
 51
360.0
  0
ARC
  8
0
 62
7
  6
CONTINUOUS
 10
229.0671693947
 20
151.0967354207
 40
1.0
 50
158.61
 51
180.0
  0
ARC
  8
0
 62
7
  6
CONTINUOUS
 10
253.4671693947
 20
162.9287261008
 40
2.7
 50
0.0
 51
90.0
  0
ARC
  8
0
 62
7
  6
CONTINUOUS
 10
246.4671693947
 20
162.9287261008
 40
2.7
 50
90.0
 51
180.0
  0
ARC
  8
0
 62
7
  6
CONTINUOUS
 10
228.0671693947
 20
162.9287261008
 40
2.7
 50
0.0
 51
90.0
  0
ARC
  8
0
 62
7
  6
CONTINUOUS
 10
244.0671693947
 20
158.2353845751
 40
0.3
 50
180.0
 51
201.39
  0
ARC
  8
0
 62
7
  6
CONTINUOUS
 10
255.8671693947
 20
158.2353845751
 40
0.3
 50
338.61
 51
360.0
  0
ARC
  8
0
 62
7
  6
CONTINUOUS
 10
230.4671693947
 20
158.2353845751
 40
0.3
 50
338.61
 51
360.0
  0
ARC
  8
0
 62
7
  6
CONTINUOUS
 10
326.0671693947
 20
133.0287261008
 40
2.5
 50
270.0
 51
360.0
  0
ARC
  8
0
 62
7
  6
CONTINUOUS
 10
320.6671693947
 20
136.8540661346
 40
2.0
 50
270.0
 51
360.0
  0
ARC
  8
0
 62
7
  6
CONTINUOUS
 10
306.2671693947
 20
136.8540661346
 40
2.0
 50
180.0
 51
270.0
  0
ARC
  8
0
 62
7
  6
CONTINUOUS
 10
295.2671693947
 20
136.8540661346
 40
2.0
 50
270.0
 51
360.0
  0
ARC
  8
0
 62
7
  6
CONTINUOUS
 10
280.8671693947
 20
136.8540661346
 40
2.0
 50
180.0
 51
270.0
  0
ARC
  8
0
 62
7
  6
CONTINUOUS
 10
269.8671693947
 20
136.8540661346
 40
2.0
 50
270.0
 51
360.0
  0
ARC
  8
0
 62
7
  6
CONTINUOUS
 10
329.9671693947
 20
135.1540661346
 40
0.3
 50
180.0000000001
 51
270.0
  0
ARC
  8
0
 62
7
  6
CONTINUOUS
 10
331.9671693947
 20
134.5540661346
 40
0.3
 50
0.0
 51
90.0
  0
ARC
  8
0
 62
7
  6
CONTINUOUS
 10
270.8671693947
 20
151.0967354207
 40
2.1
 50
0.0
 51
21.39
  0
ARC
  8
0
 62
7
  6
CONTINUOUS
 10
279.8671693947
 20
151.0967354207
 40
2.1
 50
158.61
 51
180.0
  0
ARC
  8
0
 62
7
  6
CONTINUOUS
 10
296.2671693947
 20
151.0967354207
 40
2.1
 50
0.0
 51
21.39
  0
ARC
  8
0
 62
7
  6
CONTINUOUS
 10
273.6671693947
 20
153.9787261008
 40
1.0
 50
90.0
 51
180.0
  0
ARC
  8
0
 62
7
  6
CONTINUOUS
 10
277.0671693947
 20
153.9787261008
 40
1.0
 50
0.0
 51
90.0
  0
ARC
  8
0
 62
7
  6
CONTINUOUS
 10
299.0671693947
 20
153.9787261008
 40
1.0
 50
90.0
 51
180.0
  0
ARC
  8
0
 62
7
  6
CONTINUOUS
 10
279.8671693947
 20
151.0967354207
 40
1.0
 50
158.61
 51
180.0
  0
ARC
  8
0
 62
7
  6
CONTINUOUS
 10
270.8671693947
 20
151.0967354207
 40
1.0
 50
0.0
 51
21.39
  0
ARC
  8
0
 62
7
  6
CONTINUOUS
 10
299.0671693947
 20
152.4481095549
 40
1.0
 50
180.0
 51
201.39
  0
ARC
  8
0
 62
7
  6
CONTINUOUS
 10
277.0671693947
 20
152.4481095549
 40
1.0
 50
338.61
 51
360.0
  0
ARC
  8
0
 62
7
  6
CONTINUOUS
 10
273.6671693947
 20
152.4481095549
 40
1.0
 50
180.0
 51
201.39
  0
ARC
  8
0
 62
7
  6
CONTINUOUS
 10
296.2671693947
 20
151.0967354207
 40
1.0
 50
0.0
 51
21.39
  0
ARC
  8
0
 62
7
  6
CONTINUOUS
 10
271.8671693947
 20
162.9287261008
 40
2.7
 50
90.0
 51
180.0
  0
ARC
  8
0
 62
7
  6
CONTINUOUS
 10
278.8671693947
 20
162.9287261008
 40
2.7
 50
0.0
 51
90.0
  0
ARC
  8
0
 62
7
  6
CONTINUOUS
 10
297.2671693947
 20
162.9287261008
 40
2.7
 50
90.0
 51
180.0
  0
ARC
  8
0
 62
7
  6
CONTINUOUS
 10
281.2671693947
 20
158.2353845751
 40
0.3
 50
338.61
 51
360.0
  0
ARC
  8
0
 62
7
  6
CONTINUOUS
 10
269.4671693947
 20
158.2353845751
 40
0.3
 50
180.0
 51
201.39
  0
ARC
  8
0
 62
7
  6
CONTINUOUS
 10
294.8671693947
 20
158.2353845751
 40
0.3
 50
180.0
 51
201.39
  0
ARC
  8
0
 62
7
  6
CONTINUOUS
 10
305.2671693947
 20
151.0967354207
 40
2.1
 50
158.61
 51
180.0
  0
ARC
  8
0
 62
7
  6
CONTINUOUS
 10
321.6671693947
 20
151.0967354207
 40
2.1
 50
0.0
 51
21.39
  0
ARC
  8
0
 62
7
  6
CONTINUOUS
 10
330.6671693947
 20
151.0967354207
 40
2.1
 50
158.61
 51
180.0
  0
ARC
  8
0
 62
7
  6
CONTINUOUS
 10
302.4671693947
 20
153.9787261008
 40
1.0
 50
0.0
 51
90.0
  0
ARC
  8
0
 62
7
  6
CONTINUOUS
 10
324.4671693947
 20
153.9787261008
 40
1.0
 50
90.0
 51
180.0
  0
ARC
  8
0
 62
7
  6
CONTINUOUS
 10
327.8671693947
 20
153.9787261008
 40
1.0
 50
0.0
 51
90.0
  0
ARC
  8
0
 62
7
  6
CONTINUOUS
 10
327.8671693947
 20
152.4481095549
 40
1.0
 50
338.61
 51
360.0
  0
ARC
  8
0
 62
7
  6
CONTINUOUS
 10
324.4671693947
 20
152.4481095549
 40
1.0
 50
180.0
 51
201.39
  0
ARC
  8
0
 62
7
  6
CONTINUOUS
 10
302.4671693947
 20
152.4481095549
 40
1.0
 50
338.61
 51
360.0
  0
ARC
  8
0
 62
7
  6
CONTINUOUS
 10
305.2671693947
 20
151.0967354207
 40
1.0
 50
158.61
 51
180.0
  0
ARC
  8
0
 62
7
  6
CONTINUOUS
 10
330.6671693947
 20
151.0967354207
 40
1.0
 50
158.61
 51
180.0
  0
ARC
  8
0
 62
7
  6
CONTINUOUS
 10
321.6671693947
 20
151.0967354207
 40
1.0
 50
0.0
 51
21.39
  0
ARC
  8
0
 62
7
  6
CONTINUOUS
 10
304.2671693947
 20
162.9287261008
 40
2.7
 50
0.0
 51
90.0
  0
ARC
  8
0
 62
7
  6
CONTINUOUS
 10
329.6671693947
 20
162.9287261008
 40
2.7
 50
0.0
 51
90.0
  0
ARC
  8
0
 62
7
  6
CONTINUOUS
 10
322.6671693947
 20
162.9287261008
 40
2.7
 50
90.0
 51
180.0
  0
ARC
  8
0
 62
7
  6
CONTINUOUS
 10
306.6671693947
 20
158.2353845751
 40
0.3
 50
338.61
 51
360.0
  0
ARC
  8
0
 62
7
  6
CONTINUOUS
 10
332.0671693947
 20
158.2353845751
 40
0.3
 50
338.61
 51
360.0
  0
ARC
  8
0
 62
7
  6
CONTINUOUS
 10
320.2671693947
 20
158.2353845751
 40
0.3
 50
180.0
 51
201.39
  0
ARC
  8
0
 62
7
  6
CONTINUOUS
 10
251.5587533714
 20
132.1659811008
 40
130.0
 50
350.1348339513
 51
9.9215257614
  0
ARC
  8
0
 62
7
  6
CONTINUOUS
 10
251.5587533714
 20
132.1659811008
 40
129.4999999036
 50
351.65051584
 51
358.794111891
  0
ARC
  8
0
 62
7
  6
CONTINUOUS
 10
370.9087533714
 20
106.1787261008
 40
7.35
 50
180.0
 51
270.0
  0
ARC
  8
0
 62
7
  6
CONTINUOUS
 10
371.2087533714
 20
106.1787261008
 40
7.35
 50
270.0
 51
360.0
  0
CIRCLE
  8
0
 62
7
  6
CONTINUOUS
 10
371.0587533714
 20
106.8659811008
 40
3.137255
  0
ARC
  8
0
 62
7
  6
CONTINUOUS
 10
371.0587533714
 20
119.3540661346
 40
15.5
 50
61.7262863686
 51
118.2737136314
  0
ARC
  8
0
 62
7
  6
CONTINUOUS
 10
363.8587533714
 20
129.7287261008
 40
0.3
 50
180.0
 51
270.0
  0
ARC
  8
0
 62
7
  6
CONTINUOUS
 10
379.1439238216
 20
109.9787261717
 40
0.5
 50
269.9999985521
 51
350.1348256961
  0
ARC
  8
0
 62
7
  6
CONTINUOUS
 10
381.05672193
 20
131.4406265591
 40
0.5
 50
359.6790735814
 51
90.0
  0
ARC
  8
0
 62
7
  6
CONTINUOUS
 10
378.2587533714
 20
129.7287261008
 40
0.3
 50
270.0
 51
360.0
  0
ARC
  8
0
 62
7
  6
CONTINUOUS
 10
371.0587533714
 20
141.2787261008
 40
3.25
 50
180.0
 51
360.0
  0
ARC
  8
0
 62
7
  6
CONTINUOUS
 10
363.8587533714
 20
132.7406265591
 40
0.3
 50
118.2737136314
 51
180.0
  0
ARC
  8
0
 62
7
  6
CONTINUOUS
 10
370.9087533714
 20
158.2787261008
 40
7.35
 50
90.0
 51
180.0
  0
ARC
  8
0
 62
7
  6
CONTINUOUS
 10
371.0587533714
 20
157.4787261008
 40
3.25
 50
0.0
 51
180.0
  0
ARC
  8
0
 62
7
  6
CONTINUOUS
 10
371.2087533714
 20
158.2787261008
 40
7.35
 50
0.0
 51
90.0
  0
ARC
  8
0
 62
7
  6
CONTINUOUS
 10
378.2587533714
 20
132.7406265591
 40
0.3
 50
0.0
 51
61.7262863686
  0
ARC
  8
0
 62
7
  6
CONTINUOUS
 10
379.1220373281
 20
154.4787260299
 40
0.5
 50
9.9215340204
 51
90.0000014566
  0
ARC
  8
0
 62
7
  6
CONTINUOUS
 10
106.7671693947
 20
229.8698302834
 40
2.7
 50
180.0
 51
270.0
  0
ARC
  8
0
 62
7
  6
CONTINUOUS
 10
88.3671693947
 20
229.8698302834
 40
2.7
 50
270.0
 51
360.0
  0
ARC
  8
0
 62
7
  6
CONTINUOUS
 10
132.1671693947
 20
229.8698302834
 40
2.7
 50
180.0
 51
270.0
  0
ARC
  8
0
 62
7
  6
CONTINUOUS
 10
113.7671693947
 20
229.8698302834
 40
2.7
 50
270.0
 51
360.0
  0
ARC
  8
0
 62
7
  6
CONTINUOUS
 10
30.5671693947
 20
229.8698302834
 40
2.7
 50
180.0
 51
270.0
  0
ARC
  8
0
 62
7
  6
CONTINUOUS
 10
55.9671693947
 20
229.8698302834
 40
2.7
 50
180.0
 51
270.0
  0
ARC
  8
0
 62
7
  6
CONTINUOUS
 10
37.5671693947
 20
229.8698302834
 40
2.7
 50
270.0
 51
360.0
  0
ARC
  8
0
 62
7
  6
CONTINUOUS
 10
81.3671693947
 20
229.8698302834
 40
2.7
 50
180.0
 51
270.0
  0
ARC
  8
0
 62
7
  6
CONTINUOUS
 10
62.9671693947
 20
229.8698302834
 40
2.7
 50
270.0
 51
360.0
  0
ARC
  8
0
 62
7
  6
CONTINUOUS
 10
157.5671693947
 20
229.8698302834
 40
2.7
 50
180.0
 51
270.0
  0
ARC
  8
0
 62
7
  6
CONTINUOUS
 10
139.1671693947
 20
229.8698302834
 40
2.7
 50
270.0
 51
360.0
  0
ARC
  8
0
 62
7
  6
CONTINUOUS
 10
164.5671693947
 20
229.8698302834
 40
2.7
 50
270.0
 51
360.0
  0
ARC
  8
0
 62
7
  6
CONTINUOUS
 10
28.2671693947
 20
227.4698302834
 40
0.3
 50
180.0
 51
270.0
  0
ARC
  8
0
 62
7
  6
CONTINUOUS
 10
30.5671693947
 20
239.4698302834
 40
2.7
 50
90.0
 51
180.0
  0
ARC
  8
0
 62
7
  6
CONTINUOUS
 10
55.9671693947
 20
239.4698302834
 40
2.7
 50
90.0
 51
180.0
  0
ARC
  8
0
 62
7
  6
CONTINUOUS
 10
81.3671693947
 20
239.4698302834
 40
2.7
 50
90.0
 51
180.0
  0
ARC
  8
0
 62
7
  6
CONTINUOUS
 10
62.9671693947
 20
239.4698302834
 40
2.7
 50
0.0
 51
90.0
  0
ARC
  8
0
 62
7
  6
CONTINUOUS
 10
37.5671693947
 20
239.4698302834
 40
2.7
 50
0.0
 51
90.0
  0
ARC
  8
0
 62
7
  6
CONTINUOUS
 10
88.3671693947
 20
239.4698302834
 40
2.7
 50
0.0
 51
90.0
  0
ARC
  8
0
 62
7
  6
CONTINUOUS
 10
28.2671693947
 20
241.8698302834
 40
0.3
 50
90.0
 51
180.0
  0
ARC
  8
0
 62
7
  6
CONTINUOUS
 10
106.7671693947
 20
239.4698302834
 40
2.7
 50
90.0
 51
180.0
  0
ARC
  8
0
 62
7
  6
CONTINUOUS
 10
132.1671693947
 20
239.4698302834
 40
2.7
 50
90.0
 51
180.0
  0
ARC
  8
0
 62
7
  6
CONTINUOUS
 10
157.5671693947
 20
239.4698302834
 40
2.7
 50
90.0
 51
180.0
  0
ARC
  8
0
 62
7
  6
CONTINUOUS
 10
164.5671693947
 20
239.4698302834
 40
2.7
 50
0.0
 51
90.0
  0
ARC
  8
0
 62
7
  6
CONTINUOUS
 10
139.1671693947
 20
239.4698302834
 40
2.7
 50
0.0
 51
90.0
  0
ARC
  8
0
 62
7
  6
CONTINUOUS
 10
113.7671693947
 20
239.4698302834
 40
2.7
 50
0.0
 51
90.0
  0
ARC
  8
0
 62
7
  6
CONTINUOUS
 10
182.9671693947
 20
229.8698302834
 40
2.7
 50
180.0
 51
270.0
  0
ARC
  8
0
 62
7
  6
CONTINUOUS
 10
208.3671693947
 20
229.8698302834
 40
2.7
 50
180.0
 51
270.0
  0
ARC
  8
0
 62
7
  6
CONTINUOUS
 10
189.9671693947
 20
229.8698302834
 40
2.7
 50
270.0
 51
360.0
  0
ARC
  8
0
 62
7
  6
CONTINUOUS
 10
259.1671693947
 20
229.8698302834
 40
2.7
 50
180.0
 51
270.0
  0
ARC
  8
0
 62
7
  6
CONTINUOUS
 10
240.7671693947
 20
229.8698302834
 40
2.7
 50
270.0
 51
360.0
  0
ARC
  8
0
 62
7
  6
CONTINUOUS
 10
284.5671693947
 20
229.8698302834
 40
2.7
 50
180.0
 51
270.0
  0
ARC
  8
0
 62
7
  6
CONTINUOUS
 10
266.1671693947
 20
229.8698302834
 40
2.7
 50
270.0
 51
360.0
  0
ARC
  8
0
 62
7
  6
CONTINUOUS
 10
309.9671693947
 20
229.8698302834
 40
2.7
 50
180.0
 51
270.0
  0
ARC
  8
0
 62
7
  6
CONTINUOUS
 10
291.5671693947
 20
229.8698302834
 40
2.7
 50
270.0
 51
360.0
  0
ARC
  8
0
 62
7
  6
CONTINUOUS
 10
329.6671693947
 20
229.8698302834
 40
2.7
 50
344.3647025063
 51
360.0
  0
ARC
  8
0
 62
7
  6
CONTINUOUS
 10
316.9671693947
 20
229.8698302834
 40
2.7
 50
270.0
 51
360.0
  0
ARC
  8
0
 62
7
  6
CONTINUOUS
 10
233.7671693947
 20
229.8698302834
 40
2.7
 50
180.0
 51
270.0
  0
ARC
  8
0
 62
7
  6
CONTINUOUS
 10
215.3671693947
 20
229.8698302834
 40
2.7
 50
270.0
 51
360.0
  0
ARC
  8
0
 62
7
  6
CONTINUOUS
 10
331.9671693947
 20
227.4698302834
 40
0.3
 50
270.0
 51
360.0
  0
ARC
  8
0
 62
7
  6
CONTINUOUS
 10
182.9671693947
 20
239.4698302834
 40
2.7
 50
90.0
 51
180.0
  0
ARC
  8
0
 62
7
  6
CONTINUOUS
 10
208.3671693947
 20
239.4698302834
 40
2.7
 50
90.0
 51
180.0
  0
ARC
  8
0
 62
7
  6
CONTINUOUS
 10
189.9671693947
 20
239.4698302834
 40
2.7
 50
0.0
 51
90.0
  0
ARC
  8
0
 62
7
  6
CONTINUOUS
 10
259.1671693947
 20
239.4698302834
 40
2.7
 50
90.0
 51
180.0
  0
ARC
  8
0
 62
7
  6
CONTINUOUS
 10
240.7671693947
 20
239.4698302834
 40
2.7
 50
0.0
 51
90.0
  0
ARC
  8
0
 62
7
  6
CONTINUOUS
 10
284.5671693947
 20
239.4698302834
 40
2.7
 50
90.0
 51
180.0
  0
ARC
  8
0
 62
7
  6
CONTINUOUS
 10
266.1671693947
 20
239.4698302834
 40
2.7
 50
0.0
 51
90.0
  0
ARC
  8
0
 62
7
  6
CONTINUOUS
 10
309.9671693947
 20
239.4698302834
 40
2.7
 50
90.0
 51
180.0
  0
ARC
  8
0
 62
7
  6
CONTINUOUS
 10
291.5671693947
 20
239.4698302834
 40
2.7
 50
0.0
 51
90.0
  0
ARC
  8
0
 62
7
  6
CONTINUOUS
 10
329.6671693947
 20
239.4698302834
 40
2.7
 50
0.0
 51
15.6352961738
  0
ARC
  8
0
 62
7
  6
CONTINUOUS
 10
316.9671693947
 20
239.4698302834
 40
2.7
 50
0.0
 51
90.0
  0
ARC
  8
0
 62
7
  6
CONTINUOUS
 10
233.7671693947
 20
239.4698302834
 40
2.7
 50
90.0
 51
180.0
  0
ARC
  8
0
 62
7
  6
CONTINUOUS
 10
215.3671693947
 20
239.4698302834
 40
2.7
 50
0.0
 51
90.0
  0
ARC
  8
0
 62
7
  6
CONTINUOUS
 10
331.9671693947
 20
241.8698302834
 40
0.3
 50
0.0
 51
90.0
  0
ENDSEC
  0
EOF
