  0
SECTION
  2
HEADER
  9
$EXTMAX
 10
420.0
 20
297.0
 30
0.0
  9
$EXTMIN
 10
0.0
 20
0.0
 30
0.0
  9
$LIMMIN
 10
0.0
 20
0.0
  9
$LIMMAX
 10
420.0
 20
297.0
  9
$VIEWCTR
 10
210.0
 20
148.5
  9
$VIEWSIZE
 40
297.0
  9
$CLAYER
  8
0
  9
$LTSCALE
 40
23.1
  9
$CELTYPE
  6
BYLAYER
  9
$DIMSCALE
 40
1.0
  9
$DIMASZ
 40
3.5
  9
$DIMEXO
 40
2.625
  9
$DIMDLI
 40
15.96
  9
$DIMEXE
 40
7.56
  9
$DIMCEN
 40
3.78
  9
$DIMLFAC
 40
1.0
  9
$DIMBLK
  1
_FILLED
  9
$DIMTXT
 40
3.5
  9
$PDMODE
 70
3
  9
$PDSIZE
 40
0.3125
  9
$TILEMODE
 70
1
  0
ENDSEC
  0
SECTION
  2
TABLES
  0
TABLE
  2
LTYPE
 70
6
  0
LTYPE
  2
BYBLOCK
 70
0
  3

 72
65
 73
0
 40
0.0
  0
LTYPE
  2
BYLAYER
 70
0
  3

 72
65
 73
0
 40
0.0
  0
LTYPE
  2
CONTINUOUS
 70
64
  3
Solid line
 72
65
 73
0
 40
0.0
  0
LTYPE
  2
CENTER
 70
64
  3
____ _ ____ _ ____ _ ____ _ ____ _ ____ _ ____
 72
65
 73
4
 40
0.6
 49
0.375
 49
-0.075
 49
0.075
 49
-0.075
  0
LTYPE
  2
HIDDEN
 70
64
  3
- - - - - - - - - - - - - - - - - - - -
 72
65
 73
2
 40
0.2
 49
0.1
 49
-0.1
  0
LTYPE
  2
PHANTOM
 70
64
  3
_____ _ _ _____ _ _ _____ _ _ _____
 72
65
 73
6
 40
0.8
 49
0.45
 49
-0.05
 49
0.1
 49
-0.05
 49
0.1
 49
-0.05
  0
LTYPE
  2
DOT
 70
64
  3
. . . . . . . . . . . . . . . . . . . .
 72
65
 73
2
 40
0.2
 49
0.1
 49
-0.1
  0
LTYPE
  2
DASHED
 70
64
  3
- - - - - - - - - - - - - - - - - - - -
 72
65
 73
2
 40
0.2
 49
0.1
 49
-0.1
  0
ENDTAB
  0
TABLE
  2
LAYER
 70
36
  0
LAYER
  2
0
 70
0
 62
7
  6
CONTINUOUS
  0
LAYER
  2
DEFAULT_1
 70
0
 62
7
  6
CENTER
  0
LAYER
  2
DEFAULT_2
 70
0
 62
8
  6
HIDDEN
  0
LAYER
  2
DEFAULT_3
 70
0
 62
7
  6
PHANTOM
  0
LAYER
  2
CURVE
 70
0
 62
7
  6
CONTINUOUS
  0
LAYER
  2
PLAN
 70
0
 62
7
  6
CONTINUOUS
  0
LAYER
  2
SURFACE
 70
0
 62
7
  6
CONTINUOUS
  0
ENDTAB
  0
TABLE
  2
STYLE
 70
1
  0
STYLE
  2
STANDARD
 70
0
 40
0.0
 41
0.8
 50
0.0
 71
0
 42
0.2
  3
txt
  4

  0
STYLE
  2
TEXTSTYLE_1
 70
0
 40
0.0
 41
0.8
 50
0.0
 71
0
 42
0.2
  3
gdt
  4

  0
STYLE
  2
TEXTSTYLE_2
 70
0
 40
0.0
 41
0.6
 50
0.0
 71
0
 42
0.2
  3
txt
  4

  0
STYLE
  2
TEXTSTYLE_3
 70
0
 40
0.0
 41
1.0
 50
0.0
 71
0
 42
0.2
  3
ftb_____.ttf
  4

  0
STYLE
  2
TEXTSTYLE_4
 70
0
 40
0.0
 41
1.0
 50
0.0
 71
0
 42
0.2
  3
fti_____.ttf
  4

  0
STYLE
  2
TEXTSTYLE_5
 70
0
 40
0.0
 41
1.0
 50
0.0
 71
0
 42
0.2
  3
frutiger light.ttf
  4

  0
STYLE
  2
TEXTSTYLE_6
 70
0
 40
0.0
 41
0.7
 50
0.0
 71
0
 42
0.2
  3
txt
  4

  0
STYLE
  2
TEXTSTYLE_7
 70
0
 40
0.0
 41
0.5
 50
0.0
 71
0
 42
0.2
  3
txt
  4

  0
ENDTAB
  0
ENDSEC
  0
SECTION
  2
BLOCKS
  0
BLOCK
  8
0
 62
2
  6
CONTINUOUS
  2
SYMBOL_5_BL1
 70
64
 10
382.7840918555
 20
35.5067593403
  0
TEXT
  8
0
 62
7
  6
CONTINUOUS
 10
373.842376864
 20
30.5995157174
  7
TEXTSTYLE_4
 40
1.0655737705
  1
The brand for plastic modular belts and chains
 41
1.0
 72
0
  0
LINE
  8
0
 62
7
  6
CONTINUOUS
 10
358.7621602445
 20
36.0805298321
 11
358.7621602445
 21
33.9493822911
  0
LINE
  8
0
 62
7
  6
CONTINUOUS
 10
359.0512227376
 20
30.9584509954
 11
359.0512227376
 21
31.0552420547
  0
LINE
  8
0
 62
7
  6
CONTINUOUS
 10
358.7621602445
 20
31.0229783683
 11
358.8199727462
 21
30.8293962497
  0
LINE
  8
0
 62
7
  6
CONTINUOUS
 10
360.1556028675
 20
33.867415078
 11
360.1556028675
 21
36.0805298321
  0
LINE
  8
0
 62
7
  6
CONTINUOUS
 10
361.0746601894
 20
32.0231527829
 11
361.0746601894
 21
30.5067593403
  0
LINE
  8
0
 62
7
  6
CONTINUOUS
 10
361.3637227445
 20
30.5067593403
 11
361.3637227445
 21
31.2488242184
  0
LINE
  8
0
 62
7
  6
CONTINUOUS
 10
361.3637227445
 20
31.3778789641
 11
361.3637227445
 21
32.0231527829
  0
LINE
  8
0
 62
7
  6
CONTINUOUS
 10
358.8199727462
 20
31.216560532
 11
358.7621602445
 21
31.0229783683
  0
LINE
  8
0
 62
7
  6
CONTINUOUS
 10
359.1668477307
 20
30.7971325633
 11
359.0512227376
 21
30.9584509954
  0
LINE
  8
0
 62
7
  6
CONTINUOUS
 10
360.2652852997
 20
31.3133515913
 11
360.3230977445
 21
31.216560532
  0
LINE
  8
0
 62
7
  6
CONTINUOUS
 10
360.6121602997
 20
31.216560532
 11
360.5543476894
 21
31.3456152777
  0
LINE
  8
0
 62
7
  6
CONTINUOUS
 10
362.0408487691
 20
36.0805298321
 11
362.0408487691
 21
34.2772511436
  0
LINE
  8
0
 62
7
  6
CONTINUOUS
 10
362.0408487691
 20
32.9657757338
 11
362.0408487691
 21
32.3100380288
  0
LINE
  8
0
 62
7
  6
CONTINUOUS
 10
362.4043477445
 20
31.1520331591
 11
362.4043477445
 21
30.5067593403
  0
LINE
  8
0
 62
7
  6
CONTINUOUS
 10
362.6934101343
 20
30.5067593403
 11
362.6934101343
 21
31.1520331591
  0
LINE
  8
0
 62
7
  6
CONTINUOUS
 10
359.0512227376
 20
31.0552420547
 11
359.1090352445
 21
31.1842968456
  0
LINE
  8
0
 62
7
  6
CONTINUOUS
 10
358.8199727462
 20
30.8293962497
 11
358.9355977445
 21
30.7003414814
  0
LINE
  8
0
 62
7
  6
CONTINUOUS
 10
362.3465351343
 20
31.2810879048
 11
362.4043477445
 21
31.1520331591
  0
LINE
  8
0
 62
7
  6
CONTINUOUS
 10
363.1559103548
 20
30.7971325633
 11
363.2137226343
 21
30.668077795
  0
LINE
  8
0
 62
7
  6
CONTINUOUS
 10
362.6934101343
 20
31.1520331591
 11
362.6355978548
 21
31.3133515913
  0
LINE
  8
0
 62
7
  6
CONTINUOUS
 10
363.1559103548
 20
31.3456152777
 11
363.1559103548
 21
31.2810879048
  0
LINE
  8
0
 62
7
  6
CONTINUOUS
 10
363.1559103548
 20
30.8939236226
 11
363.1559103548
 21
30.7971325633
  0
LINE
  8
0
 62
7
  6
CONTINUOUS
 10
363.4342913921
 20
32.3100380288
 11
363.4342913921
 21
36.0805298321
  0
LINE
  8
0
 62
7
  6
CONTINUOUS
 10
363.4449727445
 20
30.7648688543
 11
363.4449727445
 21
30.8293962497
  0
LINE
  8
0
 62
7
  6
CONTINUOUS
 10
363.7621602445
 20
36.0805298321
 11
363.7621602445
 21
32.3100380288
  0
LINE
  8
0
 62
7
  6
CONTINUOUS
 10
360.5543476894
 20
30.7003414814
 11
360.6121602997
 21
30.8293962497
  0
LINE
  8
0
 62
7
  6
CONTINUOUS
 10
364.9480979651
 20
30.6035504109
 11
364.890285024
 21
30.7648688543
  0
LINE
  8
0
 62
7
  6
CONTINUOUS
 10
364.6012229651
 20
31.2810879048
 11
364.6012229651
 21
31.1842968456
  0
LINE
  8
0
 62
7
  6
CONTINUOUS
 10
364.6012229651
 20
31.0552420547
 11
364.6012229651
 21
30.8616599362
  0
LINE
  8
0
 62
7
  6
CONTINUOUS
 10
364.890285024
 20
30.7648688543
 11
364.890285024
 21
31.2810879048
  0
LINE
  8
0
 62
7
  6
CONTINUOUS
 10
365.1556028675
 20
32.3100380288
 11
365.1556028675
 21
34.1133167174
  0
LINE
  8
0
 62
7
  6
CONTINUOUS
 10
365.1556028675
 20
35.4247921272
 11
365.1556028675
 21
36.0805298321
  0
LINE
  8
0
 62
7
  6
CONTINUOUS
 10
365.4684104651
 20
32.0231527829
 11
365.4684104651
 21
31.8618343508
  0
LINE
  8
0
 62
7
  6
CONTINUOUS
 10
365.4684104651
 20
31.5391973962
 11
365.4684104651
 21
30.5067593403
  0
LINE
  8
0
 62
7
  6
CONTINUOUS
 10
365.757472524
 20
30.5067593403
 11
365.757472524
 21
31.5391973962
  0
LINE
  8
0
 62
7
  6
CONTINUOUS
 10
365.757472524
 20
31.8618343508
 11
365.757472524
 21
32.0231527829
  0
LINE
  8
0
 62
7
  6
CONTINUOUS
 10
360.3230977445
 20
30.8293962497
 11
360.2652852997
 21
30.7326051679
  0
LINE
  8
0
 62
7
  6
CONTINUOUS
 10
362.6355978548
 20
31.3133515913
 11
362.5777852445
 21
31.3778789641
  0
LINE
  8
0
 62
7
  6
CONTINUOUS
 10
363.5027853548
 20
30.7003414814
 11
363.4449727445
 21
30.7648688543
  0
LINE
  8
0
 62
7
  6
CONTINUOUS
 10
364.6590352445
 20
30.5712867188
 11
364.716847524
 21
30.5067593403
  0
LINE
  8
0
 62
7
  6
CONTINUOUS
 10
364.6012229651
 20
30.668077795
 11
364.6590352445
 21
30.5712867188
  0
LINE
  8
0
 62
7
  6
CONTINUOUS
 10
365.0059102445
 20
30.5067593403
 11
364.9480979651
 21
30.6035504109
  0
LINE
  8
0
 62
7
  6
CONTINUOUS
 10
364.890285024
 20
31.2810879048
 11
364.8324727445
 21
31.3778789641
  0
LINE
  8
0
 62
7
  6
CONTINUOUS
 10
366.2199727445
 20
31.5391973962
 11
366.2199727445
 21
30.5067593403
  0
LINE
  8
0
 62
7
  6
CONTINUOUS
 10
366.5090354651
 20
30.5067593403
 11
366.5090354651
 21
31.2488242184
  0
LINE
  8
0
 62
7
  6
CONTINUOUS
 10
366.5090354651
 20
31.3778789641
 11
366.5090354651
 21
31.5391973962
  0
LINE
  8
0
 62
7
  6
CONTINUOUS
 10
367.0408487691
 20
34.5231527829
 11
367.0408487691
 21
32.3100380288
  0
LINE
  8
0
 62
7
  6
CONTINUOUS
 10
358.9355977445
 20
31.3456152777
 11
358.8199727462
 21
31.216560532
  0
LINE
  8
0
 62
7
  6
CONTINUOUS
 10
359.1090352445
 20
31.1842968456
 11
359.1668477307
 21
31.2488242184
  0
LINE
  8
0
 62
7
  6
CONTINUOUS
 10
358.9355977445
 20
30.7003414814
 11
359.0512227376
 21
30.6358140973
  0
LINE
  8
0
 62
7
  6
CONTINUOUS
 10
359.3402852307
 20
30.7003414814
 11
359.1668477307
 21
30.7971325633
  0
LINE
  8
0
 62
7
  6
CONTINUOUS
 10
364.543410024
 20
31.3456152777
 11
364.6012229651
 21
31.2810879048
  0
LINE
  8
0
 62
7
  6
CONTINUOUS
 10
367.491847524
 20
31.2810879048
 11
367.5496604651
 21
31.1197694727
  0
LINE
  8
0
 62
7
  6
CONTINUOUS
 10
367.838722524
 20
31.1197694727
 11
367.7809102445
 21
31.2810879048
  0
LINE
  8
0
 62
7
  6
CONTINUOUS
 10
367.5496604651
 20
31.1197694727
 11
367.5496604651
 21
30.5067593403
  0
LINE
  8
0
 62
7
  6
CONTINUOUS
 10
367.838722524
 20
30.5067593403
 11
367.838722524
 21
31.1197694727
  0
LINE
  8
0
 62
7
  6
CONTINUOUS
 10
368.3012227445
 20
31.3456152777
 11
368.3012227445
 21
31.2810879048
  0
LINE
  8
0
 62
7
  6
CONTINUOUS
 10
368.4342913921
 20
32.3100380288
 11
368.4342913921
 21
34.4411855698
  0
LINE
  8
0
 62
7
  6
CONTINUOUS
 10
368.7621602445
 20
36.0805298321
 11
368.7621602445
 21
32.3100380288
  0
LINE
  8
0
 62
7
  6
CONTINUOUS
 10
363.4449727445
 20
30.8293962497
 11
363.5027853548
 21
30.926187309
  0
LINE
  8
0
 62
7
  6
CONTINUOUS
 10
359.0512227376
 20
30.6358140973
 11
359.2246602583
 21
30.5712867188
  0
LINE
  8
0
 62
7
  6
CONTINUOUS
 10
360.5543476894
 20
31.3456152777
 11
360.3809101894
 21
31.4424063369
  0
LINE
  8
0
 62
7
  6
CONTINUOUS
 10
363.2137226343
 20
30.668077795
 11
363.3871601343
 21
30.5712867188
  0
LINE
  8
0
 62
7
  6
CONTINUOUS
 10
362.2309102445
 20
31.3456152777
 11
362.3465351343
 21
31.2810879048
  0
LINE
  8
0
 62
7
  6
CONTINUOUS
 10
362.5777852445
 20
31.3778789641
 11
362.4621603548
 21
31.4424063369
  0
LINE
  8
0
 62
7
  6
CONTINUOUS
 10
368.3012227445
 20
30.7648688543
 11
368.4168479651
 21
30.6358140973
  0
LINE
  8
0
 62
7
  6
CONTINUOUS
 10
368.6480977445
 20
30.7003414814
 11
368.5902854651
 21
30.7648688543
  0
LINE
  8
0
 62
7
  6
CONTINUOUS
 10
368.3012227445
 20
31.2810879048
 11
368.4168479651
 21
31.1520331591
  0
LINE
  8
0
 62
7
  6
CONTINUOUS
 10
367.7809102445
 20
31.2810879048
 11
367.7230979651
 21
31.3778789641
  0
LINE
  8
0
 62
7
  6
CONTINUOUS
 10
370.1512223035
 20
30.7003414814
 11
370.1512223035
 21
30.7648688543
  0
LINE
  8
0
 62
7
  6
CONTINUOUS
 10
370.1556028675
 20
32.3100380288
 11
370.1556028675
 21
36.0805298321
  0
LINE
  8
0
 62
7
  6
CONTINUOUS
 10
363.2137226343
 20
31.4101426505
 11
363.1559103548
 21
31.3456152777
  0
LINE
  8
0
 62
7
  6
CONTINUOUS
 10
360.091847717
 20
31.3778789641
 11
360.2652852997
 21
31.3133515913
  0
LINE
  8
0
 62
7
  6
CONTINUOUS
 10
364.8324727445
 20
31.3778789641
 11
364.716847524
 21
31.4424063369
  0
LINE
  8
0
 62
7
  6
CONTINUOUS
 10
368.6480977445
 20
31.216560532
 11
368.5902854651
 21
31.2810879048
  0
LINE
  8
0
 62
7
  6
CONTINUOUS
 10
369.8043479651
 20
30.8293962497
 11
369.8621602445
 21
30.7648688543
  0
LINE
  8
0
 62
7
  6
CONTINUOUS
 10
370.1512223035
 20
30.7648688543
 11
370.0355977445
 21
30.8939236226
  0
LINE
  8
0
 62
7
  6
CONTINUOUS
 10
369.8043479651
 20
31.3456152777
 11
369.8621602445
 21
31.2810879048
  0
LINE
  8
0
 62
7
  6
CONTINUOUS
 10
370.1512223035
 20
31.2810879048
 11
370.0355977445
 21
31.4101426505
  0
LINE
  8
0
 62
7
  6
CONTINUOUS
 10
363.4449727445
 20
31.2810879048
 11
363.5027853548
 21
31.3456152777
  0
LINE
  8
0
 62
7
  6
CONTINUOUS
 10
363.2715352445
 20
31.0229783683
 11
363.1559103548
 21
30.8939236226
  0
LINE
  8
0
 62
7
  6
CONTINUOUS
 10
364.6012229651
 20
30.8616599362
 11
364.543410024
 21
30.7971325633
  0
LINE
  8
0
 62
7
  6
CONTINUOUS
 10
364.543410024
 20
30.6035504109
 11
364.6012229651
 21
30.668077795
  0
LINE
  8
0
 62
7
  6
CONTINUOUS
 10
363.3871601343
 20
30.5712867188
 11
363.5027853548
 21
30.5390230296
  0
LINE
  8
0
 62
7
  6
CONTINUOUS
 10
360.3809101894
 20
31.4424063369
 11
360.1496602445
 21
31.5069337098
  0
LINE
  8
0
 62
7
  6
CONTINUOUS
 10
363.7340351343
 20
30.6358140973
 11
363.5027853548
 21
30.7003414814
  0
LINE
  8
0
 62
7
  6
CONTINUOUS
 10
362.4621603548
 20
31.4424063369
 11
362.2887228548
 21
31.5069337098
  0
LINE
  8
0
 62
7
  6
CONTINUOUS
 10
364.716847524
 20
31.4424063369
 11
364.543410024
 21
31.5069337098
  0
LINE
  8
0
 62
7
  6
CONTINUOUS
 10
367.3762229651
 20
31.3456152777
 11
367.491847524
 21
31.2810879048
  0
LINE
  8
0
 62
7
  6
CONTINUOUS
 10
367.7230979651
 20
31.3778789641
 11
367.6074727445
 21
31.4424063369
  0
LINE
  8
0
 62
7
  6
CONTINUOUS
 10
359.2246602583
 20
30.5712867188
 11
359.3980977583
 21
30.5390230296
  0
LINE
  8
0
 62
7
  6
CONTINUOUS
 10
359.6871602721
 20
30.6358140973
 11
359.3402852307
 21
30.7003414814
  0
LINE
  8
0
 62
7
  6
CONTINUOUS
 10
362.1152853548
 20
31.3778789641
 11
362.2309102445
 21
31.3456152777
  0
LINE
  8
0
 62
7
  6
CONTINUOUS
 10
364.4277854651
 20
31.3778789641
 11
364.543410024
 21
31.3456152777
  0
LINE
  8
0
 62
7
  6
CONTINUOUS
 10
368.7637229651
 20
30.668077795
 11
368.6480977445
 21
30.7003414814
  0
LINE
  8
0
 62
7
  6
CONTINUOUS
 10
367.2605977445
 20
31.3778789641
 11
367.3762229651
 21
31.3456152777
  0
LINE
  8
0
 62
7
  6
CONTINUOUS
 10
368.4168479651
 20
30.6358140973
 11
368.5902854651
 21
30.5712867188
  0
LINE
  8
0
 62
7
  6
CONTINUOUS
 10
367.6074727445
 20
31.4424063369
 11
367.4340352445
 21
31.5069337098
  0
LINE
  8
0
 62
7
  6
CONTINUOUS
 10
368.8215352445
 20
31.1520331591
 11
368.6480977445
 21
31.216560532
  0
LINE
  8
0
 62
7
  6
CONTINUOUS
 10
369.6309104651
 20
30.8939236226
 11
369.8043479651
 21
30.8293962497
  0
LINE
  8
0
 62
7
  6
CONTINUOUS
 10
370.0355977445
 20
31.4101426505
 11
369.8621602445
 21
31.4746700234
  0
LINE
  8
0
 62
7
  6
CONTINUOUS
 10
368.4168479651
 20
31.1520331591
 11
368.6480977445
 21
31.0552420547
  0
LINE
  8
0
 62
7
  6
CONTINUOUS
 10
370.0355977445
 20
30.8939236226
 11
369.8043479651
 21
30.9907146818
  0
LINE
  8
0
 62
7
  6
CONTINUOUS
 10
368.5902854651
 20
31.2810879048
 11
368.6480977445
 21
31.3456152777
  0
LINE
  8
0
 62
7
  6
CONTINUOUS
 10
359.0512227376
 20
31.4101426505
 11
358.9355977445
 21
31.3456152777
  0
LINE
  8
0
 62
7
  6
CONTINUOUS
 10
359.1668477307
 20
31.2488242184
 11
359.3402852307
 21
31.3456152777
  0
LINE
  8
0
 62
7
  6
CONTINUOUS
 10
361.4793477997
 20
31.4424063369
 11
361.3637227445
 21
31.3778789641
  0
LINE
  8
0
 62
7
  6
CONTINUOUS
 10
361.3637227445
 20
31.2488242184
 11
361.4793477997
 21
31.3133515913
  0
LINE
  8
0
 62
7
  6
CONTINUOUS
 10
360.3809101894
 20
30.6035504109
 11
360.5543476894
 21
30.7003414814
  0
LINE
  8
0
 62
7
  6
CONTINUOUS
 10
359.3980977583
 20
30.5390230296
 11
359.744972717
 21
30.5067593403
  0
LINE
  8
0
 62
7
  6
CONTINUOUS
 10
363.5027853548
 20
30.5390230296
 11
363.7340351343
 21
30.5067593403
  0
LINE
  8
0
 62
7
  6
CONTINUOUS
 10
361.8840352445
 20
31.4101426505
 11
362.1152853548
 21
31.3778789641
  0
LINE
  8
0
 62
7
  6
CONTINUOUS
 10
364.1965353548
 20
31.4101426505
 11
364.4277854651
 21
31.3778789641
  0
LINE
  8
0
 62
7
  6
CONTINUOUS
 10
368.6480977445
 20
31.0552420547
 11
369.6309104651
 21
30.8939236226
  0
LINE
  8
0
 62
7
  6
CONTINUOUS
 10
369.8043479651
 20
30.9907146818
 11
368.8215352445
 21
31.1520331591
  0
LINE
  8
0
 62
7
  6
CONTINUOUS
 10
362.2887228548
 20
31.5069337098
 11
362.1152853548
 21
31.5391973962
  0
LINE
  8
0
 62
7
  6
CONTINUOUS
 10
368.5902854651
 20
30.5712867188
 11
368.7637229651
 21
30.5390230296
  0
LINE
  8
0
 62
7
  6
CONTINUOUS
 10
367.4340352445
 20
31.5069337098
 11
367.2605977445
 21
31.5391973962
  0
LINE
  8
0
 62
7
  6
CONTINUOUS
 10
369.6887227445
 20
31.3778789641
 11
369.8043479651
 21
31.3456152777
  0
LINE
  8
0
 62
7
  6
CONTINUOUS
 10
369.8621602445
 20
30.7648688543
 11
369.8043479651
 21
30.7003414814
  0
LINE
  8
0
 62
7
  6
CONTINUOUS
 10
368.4168479651
 20
31.4424063369
 11
368.3012227445
 21
31.3456152777
  0
LINE
  8
0
 62
7
  6
CONTINUOUS
 10
363.3293478548
 20
31.4746700234
 11
363.2137226343
 21
31.4101426505
  0
LINE
  8
0
 62
7
  6
CONTINUOUS
 10
363.3871601343
 20
31.0875057863
 11
363.2715352445
 21
31.0229783683
  0
LINE
  8
0
 62
7
  6
CONTINUOUS
 10
363.5027853548
 20
30.926187309
 11
363.6184102445
 21
30.9907146818
  0
LINE
  8
0
 62
7
  6
CONTINUOUS
 10
361.0746601894
 20
30.5067593403
 11
361.3637227445
 21
30.5067593403
  0
LINE
  8
0
 62
7
  6
CONTINUOUS
 10
362.4043477445
 20
30.5067593403
 11
362.6934101343
 21
30.5067593403
  0
LINE
  8
0
 62
7
  6
CONTINUOUS
 10
363.7340351343
 20
30.5067593403
 11
364.0809101343
 21
30.5067593403
  0
LINE
  8
0
 62
7
  6
CONTINUOUS
 10
364.716847524
 20
30.5067593403
 11
365.0059102445
 21
30.5067593403
  0
LINE
  8
0
 62
7
  6
CONTINUOUS
 10
365.4684104651
 20
30.5067593403
 11
365.757472524
 21
30.5067593403
  0
LINE
  8
0
 62
7
  6
CONTINUOUS
 10
366.2199727445
 20
30.5067593403
 11
366.5090354651
 21
30.5067593403
  0
LINE
  8
0
 62
7
  6
CONTINUOUS
 10
367.5496604651
 20
30.5067593403
 11
367.838722524
 21
30.5067593403
  0
LINE
  8
0
 62
7
  6
CONTINUOUS
 10
369.1105979651
 20
30.5067593403
 11
369.4574729651
 21
30.5067593403
  0
LINE
  8
0
 62
7
  6
CONTINUOUS
 10
369.4574729651
 20
30.6358140973
 11
369.1105979651
 21
30.6358140973
  0
LINE
  8
0
 62
7
  6
CONTINUOUS
 10
364.0809101343
 20
30.6358140973
 11
363.7340351343
 21
30.6358140973
  0
LINE
  8
0
 62
7
  6
CONTINUOUS
 10
368.5902854651
 20
30.7648688543
 11
368.3012227445
 21
30.7648688543
  0
LINE
  8
0
 62
7
  6
CONTINUOUS
 10
360.6121602997
 20
30.8293962497
 11
360.3230977445
 21
30.8293962497
  0
LINE
  8
0
 62
7
  6
CONTINUOUS
 10
359.6871602721
 20
31.4101426505
 11
360.091847717
 21
31.3778789641
  0
LINE
  8
0
 62
7
  6
CONTINUOUS
 10
360.1496602445
 20
31.5069337098
 11
359.744972717
 21
31.5391973962
  0
LINE
  8
0
 62
7
  6
CONTINUOUS
 10
368.7637229651
 20
30.5390230296
 11
369.1105979651
 21
30.5067593403
  0
LINE
  8
0
 62
7
  6
CONTINUOUS
 10
369.1105979651
 20
30.6358140973
 11
368.7637229651
 21
30.668077795
  0
LINE
  8
0
 62
7
  6
CONTINUOUS
 10
364.543410024
 20
31.5069337098
 11
364.1965353548
 21
31.5391973962
  0
LINE
  8
0
 62
7
  6
CONTINUOUS
 10
369.3418477445
 20
31.4101426505
 11
369.6887227445
 21
31.3778789641
  0
LINE
  8
0
 62
7
  6
CONTINUOUS
 10
369.6887227445
 20
31.5069337098
 11
369.3418477445
 21
31.5391973962
  0
LINE
  8
0
 62
7
  6
CONTINUOUS
 10
367.0293479651
 20
31.4101426505
 11
367.2605977445
 21
31.3778789641
  0
LINE
  8
0
 62
7
  6
CONTINUOUS
 10
369.8621602445
 20
31.4746700234
 11
369.6887227445
 21
31.5069337098
  0
LINE
  8
0
 62
7
  6
CONTINUOUS
 10
370.0355977445
 20
30.6035504109
 11
370.1512223035
 21
30.7003414814
  0
LINE
  8
0
 62
7
  6
CONTINUOUS
 10
364.543410024
 20
30.7971325633
 11
364.369972524
 21
30.7003414814
  0
LINE
  8
0
 62
7
  6
CONTINUOUS
 10
366.624660024
 20
31.4424063369
 11
366.5090354651
 21
31.3778789641
  0
LINE
  8
0
 62
7
  6
CONTINUOUS
 10
366.5090354651
 20
31.2488242184
 11
366.624660024
 21
31.3133515913
  0
LINE
  8
0
 62
7
  6
CONTINUOUS
 10
359.2246602583
 20
31.4746700234
 11
359.0512227376
 21
31.4101426505
  0
LINE
  8
0
 62
7
  6
CONTINUOUS
 10
361.6527851343
 20
31.5069337098
 11
361.4793477997
 21
31.4424063369
  0
LINE
  8
0
 62
7
  6
CONTINUOUS
 10
361.4793477997
 20
31.3133515913
 11
361.6527851343
 21
31.3778789641
  0
LINE
  8
0
 62
7
  6
CONTINUOUS
 10
360.2652852997
 20
30.7326051679
 11
360.091847717
 21
30.668077795
  0
LINE
  8
0
 62
7
  6
CONTINUOUS
 10
369.6887227445
 20
30.668077795
 11
369.4574729651
 21
30.6358140973
  0
LINE
  8
0
 62
7
  6
CONTINUOUS
 10
364.0809101343
 20
30.5067593403
 11
364.369972524
 21
30.5390230296
  0
LINE
  8
0
 62
7
  6
CONTINUOUS
 10
369.4574729651
 20
30.5067593403
 11
369.8043479651
 21
30.5390230296
  0
LINE
  8
0
 62
7
  6
CONTINUOUS
 10
359.744972717
 20
30.5067593403
 11
360.1496602445
 21
30.5390230296
  0
LINE
  8
0
 62
7
  6
CONTINUOUS
 10
360.091847717
 20
30.668077795
 11
359.6871602721
 21
30.6358140973
  0
LINE
  8
0
 62
7
  6
CONTINUOUS
 10
363.9652852445
 20
31.0552420547
 11
364.6012229651
 21
31.0552420547
  0
LINE
  8
0
 62
7
  6
CONTINUOUS
 10
364.6012229651
 20
31.1842968456
 11
363.9652852445
 21
31.1842968456
  0
LINE
  8
0
 62
7
  6
CONTINUOUS
 10
360.3230977445
 20
31.216560532
 11
360.6121602997
 21
31.216560532
  0
LINE
  8
0
 62
7
  6
CONTINUOUS
 10
363.1559103548
 20
31.2810879048
 11
363.4449727445
 21
31.2810879048
  0
LINE
  8
0
 62
7
  6
CONTINUOUS
 10
369.8621602445
 20
31.2810879048
 11
370.1512223035
 21
31.2810879048
  0
LINE
  8
0
 62
7
  6
CONTINUOUS
 10
363.8496603548
 20
31.4101426505
 11
364.1965353548
 21
31.4101426505
  0
LINE
  8
0
 62
7
  6
CONTINUOUS
 10
368.9949727445
 20
31.4101426505
 11
369.3418477445
 21
31.4101426505
  0
LINE
  8
0
 62
7
  6
CONTINUOUS
 10
369.3418477445
 20
31.5391973962
 11
368.9949727445
 21
31.5391973962
  0
LINE
  8
0
 62
7
  6
CONTINUOUS
 10
367.2605977445
 20
31.5391973962
 11
367.0293479651
 21
31.5391973962
  0
LINE
  8
0
 62
7
  6
CONTINUOUS
 10
366.5090354651
 20
31.5391973962
 11
366.2199727445
 21
31.5391973962
  0
LINE
  8
0
 62
7
  6
CONTINUOUS
 10
365.757472524
 20
31.5391973962
 11
365.4684104651
 21
31.5391973962
  0
LINE
  8
0
 62
7
  6
CONTINUOUS
 10
364.1965353548
 20
31.5391973962
 11
363.8496603548
 21
31.5391973962
  0
LINE
  8
0
 62
7
  6
CONTINUOUS
 10
362.1152853548
 20
31.5391973962
 11
361.8840352445
 21
31.5391973962
  0
LINE
  8
0
 62
7
  6
CONTINUOUS
 10
365.4684104651
 20
31.8618343508
 11
365.757472524
 21
31.8618343508
  0
LINE
  8
0
 62
7
  6
CONTINUOUS
 10
365.757472524
 20
32.0231527829
 11
365.4684104651
 21
32.0231527829
  0
LINE
  8
0
 62
7
  6
CONTINUOUS
 10
361.3637227445
 20
32.0231527829
 11
361.0746601894
 21
32.0231527829
  0
LINE
  8
0
 62
7
  6
CONTINUOUS
 10
360.4015045068
 20
32.3100380288
 11
360.8140758554
 21
32.3100380288
  0
LINE
  8
0
 62
7
  6
CONTINUOUS
 10
362.0408487691
 20
32.3100380288
 11
363.4342913921
 21
32.3100380288
  0
LINE
  8
0
 62
7
  6
CONTINUOUS
 10
363.7621602445
 20
32.3100380288
 11
365.1556028675
 21
32.3100380288
  0
LINE
  8
0
 62
7
  6
CONTINUOUS
 10
367.0408487691
 20
32.3100380288
 11
368.4342913921
 21
32.3100380288
  0
LINE
  8
0
 62
7
  6
CONTINUOUS
 10
368.7621602445
 20
32.3100380288
 11
370.1556028675
 21
32.3100380288
  0
LINE
  8
0
 62
7
  6
CONTINUOUS
 10
366.798097524
 20
31.5069337098
 11
366.624660024
 21
31.4424063369
  0
LINE
  8
0
 62
7
  6
CONTINUOUS
 10
364.369972524
 20
30.5390230296
 11
364.543410024
 21
30.6035504109
  0
LINE
  8
0
 62
7
  6
CONTINUOUS
 10
369.8043479651
 20
30.5390230296
 11
370.0355977445
 21
30.6035504109
  0
LINE
  8
0
 62
7
  6
CONTINUOUS
 10
369.8043479651
 20
30.7003414814
 11
369.6887227445
 21
30.668077795
  0
LINE
  8
0
 62
7
  6
CONTINUOUS
 10
368.7637229651
 20
31.3778789641
 11
368.9949727445
 21
31.4101426505
  0
LINE
  8
0
 62
7
  6
CONTINUOUS
 10
366.798097524
 20
31.3778789641
 11
367.0293479651
 21
31.4101426505
  0
LINE
  8
0
 62
7
  6
CONTINUOUS
 10
363.7340351343
 20
31.0229783683
 11
363.9652852445
 21
31.0552420547
  0
LINE
  8
0
 62
7
  6
CONTINUOUS
 10
367.0293479651
 20
31.5391973962
 11
366.798097524
 21
31.5069337098
  0
LINE
  8
0
 62
7
  6
CONTINUOUS
 10
363.6184102445
 20
31.3778789641
 11
363.8496603548
 21
31.4101426505
  0
LINE
  8
0
 62
7
  6
CONTINUOUS
 10
368.9949727445
 20
31.5391973962
 11
368.6480977445
 21
31.5069337098
  0
LINE
  8
0
 62
7
  6
CONTINUOUS
 10
363.9652852445
 20
31.1842968456
 11
363.6184102445
 21
31.1520331591
  0
LINE
  8
0
 62
7
  6
CONTINUOUS
 10
359.744972717
 20
31.5391973962
 11
359.3980977583
 21
31.5069337098
  0
LINE
  8
0
 62
7
  6
CONTINUOUS
 10
363.8496603548
 20
31.5391973962
 11
363.4449727445
 21
31.5069337098
  0
LINE
  8
0
 62
7
  6
CONTINUOUS
 10
361.221176638
 20
33.4575790124
 11
360.565438933
 21
33.4575790124
  0
LINE
  8
0
 62
7
  6
CONTINUOUS
 10
366.624660024
 20
31.3133515913
 11
366.798097524
 21
31.3778789641
  0
LINE
  8
0
 62
7
  6
CONTINUOUS
 10
368.6480977445
 20
31.3456152777
 11
368.7637229651
 21
31.3778789641
  0
LINE
  8
0
 62
7
  6
CONTINUOUS
 10
368.6480977445
 20
31.5069337098
 11
368.4168479651
 21
31.4424063369
  0
LINE
  8
0
 62
7
  6
CONTINUOUS
 10
364.369972524
 20
30.7003414814
 11
364.0809101343
 21
30.6358140973
  0
LINE
  8
0
 62
7
  6
CONTINUOUS
 10
361.6527851343
 20
31.3778789641
 11
361.8840352445
 21
31.4101426505
  0
LINE
  8
0
 62
7
  6
CONTINUOUS
 10
361.8840352445
 20
31.5391973962
 11
361.6527851343
 21
31.5069337098
  0
LINE
  8
0
 62
7
  6
CONTINUOUS
 10
359.4559102445
 20
31.3778789641
 11
359.6871602721
 21
31.4101426505
  0
LINE
  8
0
 62
7
  6
CONTINUOUS
 10
365.9752749986
 20
34.9329888485
 11
366.6310127035
 21
34.9329888485
  0
LINE
  8
0
 62
7
  6
CONTINUOUS
 10
363.6184102445
 20
30.9907146818
 11
363.7340351343
 21
31.0229783683
  0
LINE
  8
0
 62
7
  6
CONTINUOUS
 10
363.6184102445
 20
31.1520331591
 11
363.3871601343
 21
31.0875057863
  0
LINE
  8
0
 62
7
  6
CONTINUOUS
 10
363.5027853548
 20
31.3456152777
 11
363.6184102445
 21
31.3778789641
  0
LINE
  8
0
 62
7
  6
CONTINUOUS
 10
360.1496602445
 20
30.5390230296
 11
360.3809101894
 21
30.6035504109
  0
LINE
  8
0
 62
7
  6
CONTINUOUS
 10
363.4449727445
 20
31.5069337098
 11
363.3293478548
 21
31.4746700234
  0
LINE
  8
0
 62
7
  6
CONTINUOUS
 10
359.3980977583
 20
31.5069337098
 11
359.2246602583
 21
31.4746700234
  0
LINE
  8
0
 62
7
  6
CONTINUOUS
 10
370.1556028675
 20
36.0805298321
 11
368.7621602445
 21
36.0805298321
  0
LINE
  8
0
 62
7
  6
CONTINUOUS
 10
366.7949471298
 20
36.0805298321
 11
366.3823757812
 21
36.0805298321
  0
LINE
  8
0
 62
7
  6
CONTINUOUS
 10
365.1556028675
 20
36.0805298321
 11
363.7621602445
 21
36.0805298321
  0
LINE
  8
0
 62
7
  6
CONTINUOUS
 10
363.4342913921
 20
36.0805298321
 11
362.0408487691
 21
36.0805298321
  0
LINE
  8
0
 62
7
  6
CONTINUOUS
 10
360.1556028675
 20
36.0805298321
 11
358.7621602445
 21
36.0805298321
  0
LINE
  8
0
 62
7
  6
CONTINUOUS
 10
359.3402852307
 20
31.3456152777
 11
359.4559102445
 21
31.3778789641
  0
CIRCLE
  8
0
 62
7
  6
CONTINUOUS
 10
369.458881556
 20
38.4165954059
 40
2.0901639344
  0
ARC
  8
0
 62
7
  6
CONTINUOUS
 10
360.4015045068
 20
33.9493822911
 40
1.6393442623
 50
180.0
 51
270.0
  0
ARC
  8
0
 62
7
  6
CONTINUOUS
 10
366.7949471298
 20
34.4411855698
 40
1.6393442623
 50
0.0
 51
90.0
  0
ARC
  8
0
 62
7
  6
CONTINUOUS
 10
360.8140758554
 20
33.7854478649
 40
1.4754098361
 50
270.0
 51
326.2510114041
  0
ARC
  8
0
 62
7
  6
CONTINUOUS
 10
366.3823757812
 20
34.6051199961
 40
1.4754098361
 50
90.0
 51
146.2510114041
  0
ARC
  8
0
 62
7
  6
CONTINUOUS
 10
361.221176638
 20
34.2772511436
 40
0.8196721311
 50
270.0
 51
360.0
  0
ARC
  8
0
 62
7
  6
CONTINUOUS
 10
365.9752749986
 20
34.1133167174
 40
0.8196721311
 50
90.0
 51
180.0
  0
ARC
  8
0
 62
7
  6
CONTINUOUS
 10
360.565438933
 20
33.867415078
 40
0.4098360656
 50
180.0
 51
270.0
  0
ARC
  8
0
 62
7
  6
CONTINUOUS
 10
366.6310127035
 20
34.5231527829
 40
0.4098360656
 50
0.0
 51
90.0
  0
SOLID
  8
0
 62
7
  6
CONTINUOUS
 10
365.4684104651
 20
31.8618347111
 11
365.4684104651
 21
32.0231531947
 12
365.757472524
 22
31.8618347111
 13
365.757472524
 23
32.0231531947
  0
SOLID
  8
0
 62
7
  6
CONTINUOUS
 10
359.744972717
 20
31.5391977439
 11
360.1496602445
 21
31.5069333244
 12
359.3980977583
 22
31.5069333244
 13
359.3980977583
 23
31.5069333244
  0
SOLID
  8
0
 62
7
  6
CONTINUOUS
 10
359.2246602583
 20
31.4746706537
 11
359.3980977583
 21
31.5069333244
 12
360.1496602445
 22
31.5069333244
 13
360.1496602445
 23
31.5069333244
  0
SOLID
  8
0
 62
7
  6
CONTINUOUS
 10
360.1496602445
 20
31.5069333244
 11
360.3809101894
 21
31.4424063504
 12
359.2246602583
 22
31.4746706537
 13
359.2246602583
 23
31.4746706537
  0
SOLID
  8
0
 62
7
  6
CONTINUOUS
 10
359.0512227376
 20
31.4101419116
 11
359.2246602583
 21
31.4746706537
 12
360.3809101894
 22
31.4424063504
 13
360.3809101894
 23
31.4424063504
  0
SOLID
  8
0
 62
7
  6
CONTINUOUS
 10
359.0512227376
 20
31.4101419116
 11
360.3809101894
 21
31.4424063504
 12
359.6871602721
 22
31.4101419116
 13
359.6871602721
 23
31.4101419116
  0
SOLID
  8
0
 62
7
  6
CONTINUOUS
 10
359.6871602721
 20
31.4101419116
 11
360.3809101894
 21
31.4424063504
 12
360.091847717
 22
31.3778792603
 13
360.091847717
 23
31.3778792603
  0
SOLID
  8
0
 62
7
  6
CONTINUOUS
 10
360.3809101894
 20
31.4424063504
 11
360.5543476894
 21
31.345614957
 12
360.091847717
 22
31.3778792603
 13
360.091847717
 23
31.3778792603
  0
SOLID
  8
0
 62
7
  6
CONTINUOUS
 10
360.2652852997
 20
31.3133521701
 11
360.091847717
 21
31.3778792603
 12
360.5543476894
 22
31.345614957
 13
360.5543476894
 23
31.345614957
  0
SOLID
  8
0
 62
7
  6
CONTINUOUS
 10
360.2652852997
 20
31.3133521701
 11
360.5543476894
 21
31.345614957
 12
360.3230977445
 22
31.2165606992
 13
360.3230977445
 23
31.2165606992
  0
SOLID
  8
0
 62
7
  6
CONTINUOUS
 10
360.5543476894
 20
31.345614957
 11
360.6121602997
 21
31.2165606992
 12
360.3230977445
 22
31.2165606992
 13
360.3230977445
 23
31.2165606992
  0
SOLID
  8
0
 62
7
  6
CONTINUOUS
 10
361.6527851343
 20
31.5069329918
 11
361.8840352445
 21
31.5391972951
 12
362.1152853548
 22
31.5391972951
 13
362.1152853548
 23
31.5391972951
  0
SOLID
  8
0
 62
7
  6
CONTINUOUS
 10
362.1152853548
 20
31.5391972951
 11
362.2887228548
 21
31.5069329918
 12
361.6527851343
 22
31.5069329918
 13
361.6527851343
 23
31.5069329918
  0
SOLID
  8
0
 62
7
  6
CONTINUOUS
 10
361.4793477997
 20
31.4424059016
 11
361.6527851343
 21
31.5069329918
 12
362.2887228548
 22
31.5069329918
 13
362.2887228548
 23
31.5069329918
  0
SOLID
  8
0
 62
7
  6
CONTINUOUS
 10
362.2887228548
 20
31.5069329918
 11
362.4621603548
 21
31.4424059016
 12
361.4793477997
 22
31.4424059016
 13
361.4793477997
 23
31.4424059016
  0
SOLID
  8
0
 62
7
  6
CONTINUOUS
 10
362.4621603548
 20
31.4424059016
 11
361.8840352445
 21
31.4101420472
 12
361.4793477997
 22
31.4424059016
 13
361.4793477997
 23
31.4424059016
  0
SOLID
  8
0
 62
7
  6
CONTINUOUS
 10
361.3637227445
 20
31.3778788115
 11
361.4793477997
 21
31.4424059016
 12
361.8840352445
 22
31.4101420472
 13
361.8840352445
 23
31.4101420472
  0
SOLID
  8
0
 62
7
  6
CONTINUOUS
 10
361.8840352445
 20
31.4101420472
 11
361.6527851343
 21
31.3778788115
 12
361.3637227445
 22
31.3778788115
 13
361.3637227445
 23
31.3778788115
  0
SOLID
  8
0
 62
7
  6
CONTINUOUS
 10
361.8840352445
 20
31.4101420472
 11
362.4621603548
 21
31.4424059016
 12
362.1152853548
 22
31.3778788115
 13
362.1152853548
 23
31.3778788115
  0
SOLID
  8
0
 62
7
  6
CONTINUOUS
 10
362.4621603548
 20
31.4424059016
 11
362.5777852445
 21
31.3778788115
 12
362.1152853548
 22
31.3778788115
 13
362.1152853548
 23
31.3778788115
  0
SOLID
  8
0
 62
7
  6
CONTINUOUS
 10
362.2309102445
 20
31.345614957
 11
362.1152853548
 21
31.3778788115
 12
362.5777852445
 22
31.3778788115
 13
362.5777852445
 23
31.3778788115
  0
SOLID
  8
0
 62
7
  6
CONTINUOUS
 10
362.5777852445
 20
31.3778788115
 11
362.6355978548
 21
31.3133517213
 12
362.2309102445
 22
31.345614957
 13
362.2309102445
 23
31.345614957
  0
SOLID
  8
0
 62
7
  6
CONTINUOUS
 10
362.3465351343
 20
31.2810878668
 11
362.2309102445
 21
31.345614957
 12
362.6355978548
 22
31.3133517213
 13
362.6355978548
 23
31.3133517213
  0
SOLID
  8
0
 62
7
  6
CONTINUOUS
 10
362.3465351343
 20
31.2810878668
 11
362.6355978548
 21
31.3133517213
 12
362.4043477445
 22
31.1520332377
 13
362.4043477445
 23
31.1520332377
  0
SOLID
  8
0
 62
7
  6
CONTINUOUS
 10
362.6355978548
 20
31.3133517213
 11
362.6934101343
 21
31.1520332377
 12
362.4043477445
 22
31.1520332377
 13
362.4043477445
 23
31.1520332377
  0
SOLID
  8
0
 62
7
  6
CONTINUOUS
 10
361.6527851343
 20
31.3778788115
 11
361.4793477997
 21
31.3133517213
 12
361.3637227445
 22
31.3778788115
 13
361.3637227445
 23
31.3778788115
  0
SOLID
  8
0
 62
7
  6
CONTINUOUS
 10
361.4793477997
 20
31.3133517213
 11
361.3637227445
 21
31.2488235635
 12
361.3637227445
 22
31.3778788115
 13
361.3637227445
 23
31.3778788115
  0
SOLID
  8
0
 62
7
  6
CONTINUOUS
 10
361.3637227445
 20
31.2488235635
 11
361.0746601894
 21
30.5067593033
 12
361.3637227445
 22
31.3778788115
 13
361.3637227445
 23
31.3778788115
  0
SOLID
  8
0
 62
7
  6
CONTINUOUS
 10
361.3637227445
 20
31.3778788115
 11
361.0746601894
 21
30.5067593033
 12
361.3637227445
 22
32.0231527459
 13
361.3637227445
 23
32.0231527459
  0
SOLID
  8
0
 62
7
  6
CONTINUOUS
 10
361.0746601894
 20
30.5067593033
 11
361.0746601894
 21
32.0231527459
 12
361.3637227445
 22
32.0231527459
 13
361.3637227445
 23
32.0231527459
  0
SOLID
  8
0
 62
7
  6
CONTINUOUS
 10
361.3637227445
 20
31.2488235635
 11
361.3637227445
 21
30.5067593033
 12
361.0746601894
 22
30.5067593033
 13
361.0746601894
 23
30.5067593033
  0
SOLID
  8
0
 62
7
  6
CONTINUOUS
 10
362.4043477445
 20
30.5067593033
 11
362.4043477445
 21
31.1520332377
 12
362.6934101343
 22
31.1520332377
 13
362.6934101343
 23
31.1520332377
  0
SOLID
  8
0
 62
7
  6
CONTINUOUS
 10
362.6934101343
 20
31.1520332377
 11
362.6934101343
 21
30.5067593033
 12
362.4043477445
 22
30.5067593033
 13
362.4043477445
 23
30.5067593033
  0
SOLID
  8
0
 62
7
  6
CONTINUOUS
 10
363.4449727445
 20
31.506933758
 11
363.8496603548
 21
31.5391977507
 12
364.1965353548
 22
31.5391977507
 13
364.1965353548
 23
31.5391977507
  0
SOLID
  8
0
 62
7
  6
CONTINUOUS
 10
364.1965353548
 20
31.5391977507
 11
364.543410024
 21
31.506933758
 12
363.4449727445
 22
31.506933758
 13
363.4449727445
 23
31.506933758
  0
SOLID
  8
0
 62
7
  6
CONTINUOUS
 10
363.3293478548
 20
31.4746706537
 11
363.4449727445
 21
31.506933758
 12
364.543410024
 22
31.506933758
 13
364.543410024
 23
31.506933758
  0
SOLID
  8
0
 62
7
  6
CONTINUOUS
 10
364.543410024
 20
31.506933758
 11
364.716847524
 21
31.4424063504
 12
363.3293478548
 22
31.4746706537
 13
363.3293478548
 23
31.4746706537
  0
SOLID
  8
0
 62
7
  6
CONTINUOUS
 10
363.2137226343
 20
31.4101417797
 11
363.3293478548
 21
31.4746706537
 12
364.716847524
 22
31.4424063504
 13
364.716847524
 23
31.4424063504
  0
SOLID
  8
0
 62
7
  6
CONTINUOUS
 10
363.2137226343
 20
31.4101417797
 11
364.716847524
 21
31.4424063504
 12
363.8496603548
 22
31.4101417797
 13
363.8496603548
 23
31.4101417797
  0
SOLID
  8
0
 62
7
  6
CONTINUOUS
 10
363.8496603548
 20
31.4101417797
 11
364.716847524
 21
31.4424063504
 12
364.1965353548
 22
31.4101417797
 13
364.1965353548
 23
31.4101417797
  0
SOLID
  8
0
 62
7
  6
CONTINUOUS
 10
364.1965353548
 20
31.4101417797
 11
364.716847524
 21
31.4424063504
 12
364.4277854651
 22
31.3778793357
 13
364.4277854651
 23
31.3778793357
  0
SOLID
  8
0
 62
7
  6
CONTINUOUS
 10
364.716847524
 20
31.4424063504
 11
364.8324727445
 21
31.3778793357
 12
364.4277854651
 22
31.3778793357
 13
364.4277854651
 23
31.3778793357
  0
SOLID
  8
0
 62
7
  6
CONTINUOUS
 10
363.1559103548
 20
31.3456153429
 11
363.2137226343
 21
31.4101417797
 12
363.8496603548
 22
31.4101417797
 13
363.8496603548
 23
31.4101417797
  0
SOLID
  8
0
 62
7
  6
CONTINUOUS
 10
364.543410024
 20
31.3456153429
 11
364.4277854651
 21
31.3778793357
 12
364.8324727445
 22
31.3778793357
 13
364.8324727445
 23
31.3778793357
  0
SOLID
  8
0
 62
7
  6
CONTINUOUS
 10
364.543410024
 20
31.3456153429
 11
364.8324727445
 21
31.3778793357
 12
364.6012229651
 22
31.2810881318
 13
364.6012229651
 23
31.2810881318
  0
SOLID
  8
0
 62
7
  6
CONTINUOUS
 10
364.8324727445
 20
31.3778793357
 11
364.890285024
 21
31.2810881318
 12
364.6012229651
 22
31.2810881318
 13
364.6012229651
 23
31.2810881318
  0
SOLID
  8
0
 62
7
  6
CONTINUOUS
 10
364.6012229651
 20
31.1842964734
 11
364.6012229651
 21
31.2810881318
 12
364.890285024
 22
31.2810881318
 13
364.890285024
 23
31.2810881318
  0
SOLID
  8
0
 62
7
  6
CONTINUOUS
 10
364.6012229651
 20
31.1842964734
 11
364.890285024
 21
31.2810881318
 12
364.6012229651
 22
31.0552422931
 13
364.6012229651
 23
31.0552422931
  0
SOLID
  8
0
 62
7
  6
CONTINUOUS
 10
364.6012229651
 20
31.0552422931
 11
364.890285024
 21
31.2810881318
 12
364.6012229651
 22
30.8616599362
 13
364.6012229651
 23
30.8616599362
  0
SOLID
  8
0
 62
7
  6
CONTINUOUS
 10
364.890285024
 20
31.2810881318
 11
364.890285024
 21
30.7648681127
 12
364.6012229651
 22
30.8616599362
 13
364.6012229651
 23
30.8616599362
  0
SOLID
  8
0
 62
7
  6
CONTINUOUS
 10
366.798097524
 20
31.5069339419
 11
367.0293479651
 21
31.5391976292
 12
367.2605977445
 22
31.5391976292
 13
367.2605977445
 23
31.5391976292
  0
SOLID
  8
0
 62
7
  6
CONTINUOUS
 10
367.2605977445
 20
31.5391976292
 11
367.4340352445
 21
31.5069339419
 12
366.798097524
 22
31.5069339419
 13
366.798097524
 23
31.5069339419
  0
SOLID
  8
0
 62
7
  6
CONTINUOUS
 10
366.624660024
 20
31.4424065674
 11
366.798097524
 21
31.5069339419
 12
367.4340352445
 22
31.5069339419
 13
367.4340352445
 23
31.5069339419
  0
SOLID
  8
0
 62
7
  6
CONTINUOUS
 10
367.4340352445
 20
31.5069339419
 11
367.6074727445
 21
31.4424065674
 12
366.624660024
 22
31.4424065674
 13
366.624660024
 23
31.4424065674
  0
SOLID
  8
0
 62
7
  6
CONTINUOUS
 10
367.6074727445
 20
31.4424065674
 11
367.0293479651
 21
31.4101420472
 12
366.624660024
 22
31.4424065674
 13
366.624660024
 23
31.4424065674
  0
SOLID
  8
0
 62
7
  6
CONTINUOUS
 10
366.5090354651
 20
31.377879193
 11
366.624660024
 21
31.4424065674
 12
367.0293479651
 22
31.4101420472
 13
367.0293479651
 23
31.4101420472
  0
SOLID
  8
0
 62
7
  6
CONTINUOUS
 10
367.0293479651
 20
31.4101420472
 11
366.798097524
 21
31.377879193
 12
366.5090354651
 22
31.377879193
 13
366.5090354651
 23
31.377879193
  0
SOLID
  8
0
 62
7
  6
CONTINUOUS
 10
367.0293479651
 20
31.4101420472
 11
367.6074727445
 21
31.4424065674
 12
367.2605977445
 22
31.377879193
 13
367.2605977445
 23
31.377879193
  0
SOLID
  8
0
 62
7
  6
CONTINUOUS
 10
367.6074727445
 20
31.4424065674
 11
367.7230979651
 21
31.377879193
 12
367.2605977445
 22
31.377879193
 13
367.2605977445
 23
31.377879193
  0
SOLID
  8
0
 62
7
  6
CONTINUOUS
 10
367.3762229651
 20
31.345614957
 11
367.2605977445
 21
31.377879193
 12
367.7230979651
 22
31.377879193
 13
367.7230979651
 23
31.377879193
  0
SOLID
  8
0
 62
7
  6
CONTINUOUS
 10
367.3762229651
 20
31.345614957
 11
367.7230979651
 21
31.377879193
 12
367.491847524
 22
31.2810881312
 13
367.491847524
 23
31.2810881312
  0
SOLID
  8
0
 62
7
  6
CONTINUOUS
 10
367.7230979651
 20
31.377879193
 11
367.7809102445
 21
31.2810881312
 12
367.491847524
 22
31.2810881312
 13
367.491847524
 23
31.2810881312
  0
SOLID
  8
0
 62
7
  6
CONTINUOUS
 10
367.5496604651
 20
31.119769695
 11
367.491847524
 21
31.2810881312
 12
367.7809102445
 22
31.2810881312
 13
367.7809102445
 23
31.2810881312
  0
SOLID
  8
0
 62
7
  6
CONTINUOUS
 10
367.7809102445
 20
31.2810881312
 11
367.838722524
 21
31.119769695
 12
367.5496604651
 22
31.119769695
 13
367.5496604651
 23
31.119769695
  0
SOLID
  8
0
 62
7
  6
CONTINUOUS
 10
366.798097524
 20
31.377879193
 11
366.624660024
 21
31.3133521701
 12
366.5090354651
 22
31.377879193
 13
366.5090354651
 23
31.377879193
  0
SOLID
  8
0
 62
7
  6
CONTINUOUS
 10
366.624660024
 20
31.3133521701
 11
366.5090354651
 21
31.2488235635
 12
366.5090354651
 22
31.377879193
 13
366.5090354651
 23
31.377879193
  0
SOLID
  8
0
 62
7
  6
CONTINUOUS
 10
366.5090354651
 20
31.2488235635
 11
366.2199727445
 21
30.5067596374
 12
366.5090354651
 22
31.377879193
 13
366.5090354651
 23
31.377879193
  0
SOLID
  8
0
 62
7
  6
CONTINUOUS
 10
366.5090354651
 20
31.377879193
 11
366.2199727445
 21
30.5067596374
 12
366.5090354651
 22
31.5391976292
 13
366.5090354651
 23
31.5391976292
  0
SOLID
  8
0
 62
7
  6
CONTINUOUS
 10
366.2199727445
 20
30.5067596374
 11
366.2199727445
 21
31.5391976292
 12
366.5090354651
 22
31.5391976292
 13
366.5090354651
 23
31.5391976292
  0
SOLID
  8
0
 62
7
  6
CONTINUOUS
 10
366.5090354651
 20
31.2488235635
 11
366.5090354651
 21
30.5067596374
 12
366.2199727445
 22
30.5067596374
 13
366.2199727445
 23
30.5067596374
  0
SOLID
  8
0
 62
7
  6
CONTINUOUS
 10
367.5496604651
 20
30.5067596374
 11
367.5496604651
 21
31.119769695
 12
367.838722524
 22
31.119769695
 13
367.838722524
 23
31.119769695
  0
SOLID
  8
0
 62
7
  6
CONTINUOUS
 10
367.838722524
 20
31.119769695
 11
367.838722524
 21
30.5067596374
 12
367.5496604651
 22
30.5067596374
 13
367.5496604651
 23
30.5067596374
  0
SOLID
  8
0
 62
7
  6
CONTINUOUS
 10
368.6480977445
 20
31.5069334157
 11
368.9949727445
 21
31.539197762
 12
369.3418477445
 22
31.539197762
 13
369.3418477445
 23
31.539197762
  0
SOLID
  8
0
 62
7
  6
CONTINUOUS
 10
369.3418477445
 20
31.539197762
 11
369.6887227445
 21
31.5069334157
 12
368.6480977445
 22
31.5069334157
 13
368.6480977445
 23
31.5069334157
  0
SOLID
  8
0
 62
7
  6
CONTINUOUS
 10
368.4168479651
 20
31.4424063504
 11
368.6480977445
 21
31.5069334157
 12
369.6887227445
 22
31.5069334157
 13
369.6887227445
 23
31.5069334157
  0
SOLID
  8
0
 62
7
  6
CONTINUOUS
 10
368.4168479651
 20
31.4424063504
 11
369.6887227445
 21
31.5069334406
 12
369.8621602445
 22
31.4746706537
 13
369.8621602445
 23
31.4746706537
  0
SOLID
  8
0
 62
7
  6
CONTINUOUS
 10
368.4168479651
 20
31.4424063504
 11
369.8621602445
 21
31.4746706537
 12
368.9949727445
 22
31.4101421267
 13
368.9949727445
 23
31.4101421267
  0
SOLID
  8
0
 62
7
  6
CONTINUOUS
 10
368.9949727445
 20
31.4101421267
 11
369.8621602445
 21
31.4746706537
 12
369.3418477445
 22
31.4101421267
 13
369.3418477445
 23
31.4101421267
  0
SOLID
  8
0
 62
7
  6
CONTINUOUS
 10
369.8621602445
 20
31.4746706537
 11
370.0355977445
 21
31.4101421267
 12
369.3418477445
 22
31.4101421267
 13
369.3418477445
 23
31.4101421267
  0
SOLID
  8
0
 62
7
  6
CONTINUOUS
 10
369.6887227445
 20
31.3778792603
 11
369.3418477445
 21
31.4101421267
 12
370.0355977445
 22
31.4101421267
 13
370.0355977445
 23
31.4101421267
  0
SOLID
  8
0
 62
7
  6
CONTINUOUS
 10
368.3012227445
 20
31.3456148845
 11
368.4168479651
 21
31.4424063504
 12
368.9949727445
 22
31.4101421267
 13
368.9949727445
 23
31.4101421267
  0
SOLID
  8
0
 62
7
  6
CONTINUOUS
 10
369.6887227445
 20
31.3778792603
 11
370.0355977445
 21
31.4101421267
 12
369.8043479651
 22
31.3456148845
 13
369.8043479651
 23
31.3456148845
  0
SOLID
  8
0
 62
7
  6
CONTINUOUS
 10
369.8043479651
 20
31.3456148845
 11
370.0355977445
 21
31.4101421267
 12
369.8621602445
 22
31.281087868
 13
369.8621602445
 23
31.281087868
  0
SOLID
  8
0
 62
7
  6
CONTINUOUS
 10
370.0355977445
 20
31.4101421267
 11
370.1512223035
 21
31.281087868
 12
369.8621602445
 22
31.281087868
 13
369.8621602445
 23
31.281087868
  0
SOLID
  8
0
 62
7
  6
CONTINUOUS
 10
359.4559102445
 20
31.3778792603
 11
358.9355977445
 21
31.3456148963
 12
359.6871602721
 22
31.4101421155
 13
359.6871602721
 23
31.4101421155
  0
SOLID
  8
0
 62
7
  6
CONTINUOUS
 10
358.9355977445
 20
31.3456148963
 11
359.0512227376
 21
31.4101421155
 12
359.6871602721
 22
31.4101421155
 13
359.6871602721
 23
31.4101421155
  0
SOLID
  8
0
 62
7
  6
CONTINUOUS
 10
359.4559102445
 20
31.3778792603
 11
359.3402852307
 21
31.3456148963
 12
358.9355977445
 22
31.3456148963
 13
358.9355977445
 23
31.3456148963
  0
SOLID
  8
0
 62
7
  6
CONTINUOUS
 10
358.8199727462
 20
31.2165607767
 11
358.9355977445
 21
31.3456148963
 12
359.3402852307
 22
31.3456148963
 13
359.3402852307
 23
31.3456148963
  0
SOLID
  8
0
 62
7
  6
CONTINUOUS
 10
363.1559103548
 20
31.3456149608
 11
363.8496603548
 21
31.4101420472
 12
363.6184102445
 22
31.3778792603
 13
363.6184102445
 23
31.3778792603
  0
SOLID
  8
0
 62
7
  6
CONTINUOUS
 10
363.6184102445
 20
31.3778792603
 11
363.5027853548
 21
31.3456149608
 12
363.1559103548
 22
31.3456149608
 13
363.1559103548
 23
31.3456149608
  0
SOLID
  8
0
 62
7
  6
CONTINUOUS
 10
363.1559103548
 20
31.2810878707
 11
363.1559103548
 21
31.3456149608
 12
363.5027853548
 22
31.3456149608
 13
363.5027853548
 23
31.3456149608
  0
SOLID
  8
0
 62
7
  6
CONTINUOUS
 10
363.5027853548
 20
31.3456149608
 11
363.4449727445
 21
31.2810878707
 12
363.1559103548
 22
31.2810878707
 13
363.1559103548
 23
31.2810878707
  0
SOLID
  8
0
 62
7
  6
CONTINUOUS
 10
368.3012227445
 20
31.3456149608
 11
368.9949727445
 21
31.4101420472
 12
368.7637229651
 22
31.3778792603
 13
368.7637229651
 23
31.3778792603
  0
SOLID
  8
0
 62
7
  6
CONTINUOUS
 10
368.7637229651
 20
31.3778792603
 11
368.6480977445
 21
31.3456149608
 12
368.3012227445
 22
31.3456149608
 13
368.3012227445
 23
31.3456149608
  0
SOLID
  8
0
 62
7
  6
CONTINUOUS
 10
368.3012227445
 20
31.2810878707
 11
368.3012227445
 21
31.3456149608
 12
368.6480977445
 22
31.3456149608
 13
368.6480977445
 23
31.3456149608
  0
SOLID
  8
0
 62
7
  6
CONTINUOUS
 10
368.6480977445
 20
31.3456149608
 11
368.5902854651
 21
31.2810878707
 12
368.3012227445
 22
31.2810878707
 13
368.3012227445
 23
31.2810878707
  0
SOLID
  8
0
 62
7
  6
CONTINUOUS
 10
368.4168479651
 20
31.1520336865
 11
368.3012227445
 21
31.2810878707
 12
368.5902854651
 22
31.2810878707
 13
368.5902854651
 23
31.2810878707
  0
SOLID
  8
0
 62
7
  6
CONTINUOUS
 10
358.8199727462
 20
31.2165607767
 11
359.3402852307
 21
31.345614957
 12
359.1668477307
 22
31.2488235635
 13
359.1668477307
 23
31.2488235635
  0
SOLID
  8
0
 62
7
  6
CONTINUOUS
 10
359.1668477307
 20
31.2488235635
 11
359.1090352445
 21
31.1842964734
 12
358.8199727462
 22
31.2165607767
 13
358.8199727462
 23
31.2165607767
  0
SOLID
  8
0
 62
7
  6
CONTINUOUS
 10
358.7621602445
 20
31.0229779898
 11
358.8199727462
 21
31.2165607767
 12
359.1090352445
 22
31.1842964734
 13
359.1090352445
 23
31.1842964734
  0
SOLID
  8
0
 62
7
  6
CONTINUOUS
 10
363.6184102445
 20
31.1520336865
 11
363.9652852445
 21
31.1842964611
 12
364.6012229651
 22
31.1842964611
 13
364.6012229651
 23
31.1842964611
  0
SOLID
  8
0
 62
7
  6
CONTINUOUS
 10
363.6184102445
 20
31.1520336865
 11
364.6012229651
 21
31.1842964611
 12
363.3871601343
 22
31.0875057863
 13
363.3871601343
 23
31.0875057863
  0
SOLID
  8
0
 62
7
  6
CONTINUOUS
 10
363.3871601343
 20
31.0875057863
 11
364.6012229651
 21
31.1842964611
 12
363.9652852445
 22
31.0552422808
 13
363.9652852445
 23
31.0552422808
  0
SOLID
  8
0
 62
7
  6
CONTINUOUS
 10
364.6012229651
 20
31.1842964611
 11
364.6012229651
 21
31.0552422808
 12
363.9652852445
 22
31.0552422808
 13
363.9652852445
 23
31.0552422808
  0
SOLID
  8
0
 62
7
  6
CONTINUOUS
 10
368.4168479651
 20
31.1520338754
 11
368.5902854651
 21
31.2810878668
 12
368.6480977445
 22
31.2165607767
 13
368.6480977445
 23
31.2165607767
  0
SOLID
  8
0
 62
7
  6
CONTINUOUS
 10
368.6480977445
 20
31.2165607767
 11
368.8215352445
 21
31.1520338754
 12
368.4168479651
 22
31.1520338754
 13
368.4168479651
 23
31.1520338754
  0
SOLID
  8
0
 62
7
  6
CONTINUOUS
 10
368.6480977445
 20
31.0552422931
 11
368.4168479651
 21
31.1520338754
 12
368.8215352445
 22
31.1520338754
 13
368.8215352445
 23
31.1520338754
  0
SOLID
  8
0
 62
7
  6
CONTINUOUS
 10
368.8215352445
 20
31.1520338754
 11
369.8043479651
 21
30.9907152029
 12
368.6480977445
 22
31.0552422931
 13
368.6480977445
 23
31.0552422931
  0
SOLID
  8
0
 62
7
  6
CONTINUOUS
 10
369.6309104651
 20
30.8939239876
 11
368.6480977445
 21
31.0552422931
 12
369.8043479651
 22
30.9907152029
 13
369.8043479651
 23
30.9907152029
  0
SOLID
  8
0
 62
7
  6
CONTINUOUS
 10
369.8043479651
 20
30.9907152029
 11
370.0355977445
 21
30.8939239876
 12
369.6309104651
 22
30.8939239876
 13
369.6309104651
 23
30.8939239876
  0
SOLID
  8
0
 62
7
  6
CONTINUOUS
 10
369.8043479651
 20
30.8293967193
 11
369.6309104651
 21
30.8939239876
 12
370.0355977445
 22
30.8939239876
 13
370.0355977445
 23
30.8939239876
  0
SOLID
  8
0
 62
7
  6
CONTINUOUS
 10
369.8043479651
 20
30.8293967193
 11
370.0355977445
 21
30.8939239876
 12
369.8621602445
 22
30.7648682694
 13
369.8621602445
 23
30.7648682694
  0
SOLID
  8
0
 62
7
  6
CONTINUOUS
 10
370.0355977445
 20
30.8939239876
 11
370.1512223035
 21
30.7648682694
 12
369.8621602445
 22
30.7648682694
 13
369.8621602445
 23
30.7648682694
  0
SOLID
  8
0
 62
7
  6
CONTINUOUS
 10
369.8043479651
 20
30.7003411846
 11
369.8621602445
 21
30.7648682694
 12
370.1512223035
 22
30.7648682694
 13
370.1512223035
 23
30.7648682694
  0
SOLID
  8
0
 62
7
  6
CONTINUOUS
 10
370.1512223035
 20
30.7648682694
 11
370.1512223035
 21
30.7003411846
 12
369.8043479651
 22
30.7003411846
 13
369.8043479651
 23
30.7003411846
  0
SOLID
  8
0
 62
7
  6
CONTINUOUS
 10
369.6887227445
 20
30.6680782357
 11
369.8043479651
 21
30.7003411846
 12
370.1512223035
 22
30.7003411846
 13
370.1512223035
 23
30.7003411846
  0
SOLID
  8
0
 62
7
  6
CONTINUOUS
 10
369.6887227445
 20
30.6680782357
 11
370.1512223035
 21
30.7003411846
 12
369.4574729651
 22
30.6358140998
 13
369.4574729651
 23
30.6358140998
  0
SOLID
  8
0
 62
7
  6
CONTINUOUS
 10
370.1512223035
 20
30.7003411846
 11
370.0355977445
 21
30.6035511455
 12
369.4574729651
 22
30.6358140998
 13
369.4574729651
 23
30.6358140998
  0
SOLID
  8
0
 62
7
  6
CONTINUOUS
 10
370.0355977445
 20
30.6035511455
 11
368.5902854651
 21
30.5712868422
 12
369.4574729651
 22
30.6358140998
 13
369.4574729651
 23
30.6358140998
  0
SOLID
  8
0
 62
7
  6
CONTINUOUS
 10
369.4574729651
 20
30.6358140998
 11
368.5902854651
 21
30.5712868422
 12
369.1105979651
 22
30.6358140998
 13
369.1105979651
 23
30.6358140998
  0
SOLID
  8
0
 62
7
  6
CONTINUOUS
 10
368.5902854651
 20
30.5712868422
 11
368.4168479651
 21
30.6358140998
 12
369.1105979651
 22
30.6358140998
 13
369.1105979651
 23
30.6358140998
  0
SOLID
  8
0
 62
7
  6
CONTINUOUS
 10
368.5902854651
 20
30.5712868422
 11
370.0355977445
 21
30.6035511455
 12
368.7637229651
 22
30.5390223111
 13
368.7637229651
 23
30.5390223111
  0
SOLID
  8
0
 62
7
  6
CONTINUOUS
 10
370.0355977445
 20
30.6035511455
 11
369.8043479651
 21
30.5390223111
 12
368.7637229651
 22
30.5390223111
 13
368.7637229651
 23
30.5390223111
  0
SOLID
  8
0
 62
7
  6
CONTINUOUS
 10
369.1105979651
 20
30.5067599302
 11
368.7637229651
 21
30.5390223111
 12
369.8043479651
 22
30.5390223111
 13
369.8043479651
 23
30.5390223111
  0
SOLID
  8
0
 62
7
  6
CONTINUOUS
 10
369.8043479651
 20
30.5390223111
 11
369.4574729651
 21
30.5067599302
 12
369.1105979651
 22
30.5067599302
 13
369.1105979651
 23
30.5067599302
  0
SOLID
  8
0
 62
7
  6
CONTINUOUS
 10
358.7621602445
 20
31.0229779898
 11
359.1090352445
 21
31.1842964734
 12
359.0512227376
 22
31.0552422931
 13
359.0512227376
 23
31.0552422931
  0
SOLID
  8
0
 62
7
  6
CONTINUOUS
 10
359.0512227376
 20
31.0552422931
 11
359.0512227376
 21
30.9584509954
 12
358.7621602445
 22
31.0229779898
 13
358.7621602445
 23
31.0229779898
  0
SOLID
  8
0
 62
7
  6
CONTINUOUS
 10
358.8199727462
 20
30.8293967193
 11
358.7621602445
 21
31.0229779898
 12
359.0512227376
 22
30.9584509954
 13
359.0512227376
 23
30.9584509954
  0
SOLID
  8
0
 62
7
  6
CONTINUOUS
 10
359.0512227376
 20
30.9584509954
 11
359.1668477307
 21
30.797132416
 12
358.8199727462
 22
30.8293967193
 13
358.8199727462
 23
30.8293967193
  0
SOLID
  8
0
 62
7
  6
CONTINUOUS
 10
358.9355977445
 20
30.7003413087
 11
358.8199727462
 21
30.8293967193
 12
359.1668477307
 22
30.797132416
 13
359.1668477307
 23
30.797132416
  0
SOLID
  8
0
 62
7
  6
CONTINUOUS
 10
359.1668477307
 20
30.797132416
 11
359.3402852307
 21
30.7003413087
 12
358.9355977445
 22
30.7003413087
 13
358.9355977445
 23
30.7003413087
  0
SOLID
  8
0
 62
7
  6
CONTINUOUS
 10
359.0512227376
 20
30.6358140759
 11
358.9355977445
 21
30.7003413087
 12
359.3402852307
 22
30.7003413087
 13
359.3402852307
 23
30.7003413087
  0
SOLID
  8
0
 62
7
  6
CONTINUOUS
 10
359.3402852307
 20
30.7003413087
 11
359.6871602721
 21
30.6358140759
 12
359.0512227376
 22
30.6358140759
 13
359.0512227376
 23
30.6358140759
  0
SOLID
  8
0
 62
7
  6
CONTINUOUS
 10
359.2246602583
 20
30.5712868422
 11
359.0512227376
 21
30.6358140759
 12
359.6871602721
 22
30.6358140759
 13
359.6871602721
 23
30.6358140759
  0
SOLID
  8
0
 62
7
  6
CONTINUOUS
 10
363.2715352445
 20
31.0229779808
 11
363.3871601343
 21
31.0875057863
 12
363.9652852445
 22
31.0552422931
 13
363.9652852445
 23
31.0552422931
  0
SOLID
  8
0
 62
7
  6
CONTINUOUS
 10
363.9652852445
 20
31.0552422931
 11
363.7340351343
 21
31.0229779808
 12
363.2715352445
 22
31.0229779808
 13
363.2715352445
 23
31.0229779808
  0
SOLID
  8
0
 62
7
  6
CONTINUOUS
 10
363.1559103548
 20
30.8939238094
 11
363.2715352445
 21
31.0229779808
 12
363.7340351343
 22
31.0229779808
 13
363.7340351343
 23
31.0229779808
  0
SOLID
  8
0
 62
7
  6
CONTINUOUS
 10
363.5027853548
 20
30.926187309
 11
363.1559103548
 21
30.8939238094
 12
363.6184102445
 22
30.9907152029
 13
363.6184102445
 23
30.9907152029
  0
SOLID
  8
0
 62
7
  6
CONTINUOUS
 10
363.1559103548
 20
30.8939238094
 11
363.7340351343
 21
31.0229779898
 12
363.6184102445
 22
30.9907152029
 13
363.6184102445
 23
30.9907152029
  0
SOLID
  8
0
 62
7
  6
CONTINUOUS
 10
363.5027853548
 20
30.926187309
 11
363.4449727445
 21
30.8293967193
 12
363.1559103548
 22
30.8939238094
 13
363.1559103548
 23
30.8939238094
  0
SOLID
  8
0
 62
7
  6
CONTINUOUS
 10
363.1559103548
 20
30.797132416
 11
363.1559103548
 21
30.8939238094
 12
363.4449727445
 22
30.8293967193
 13
363.4449727445
 23
30.8293967193
  0
SOLID
  8
0
 62
7
  6
CONTINUOUS
 10
363.4449727445
 20
30.8293967193
 11
363.4449727445
 21
30.7648681127
 12
363.1559103548
 22
30.797132416
 13
363.1559103548
 23
30.797132416
  0
SOLID
  8
0
 62
7
  6
CONTINUOUS
 10
363.2137226343
 20
30.6680782357
 11
363.1559103548
 21
30.797132416
 12
363.4449727445
 22
30.7648681127
 13
363.4449727445
 23
30.7648681127
  0
SOLID
  8
0
 62
7
  6
CONTINUOUS
 10
364.6012229651
 20
30.8616599362
 11
364.890285024
 21
30.7648681127
 12
364.543410024
 22
30.797132416
 13
364.543410024
 23
30.797132416
  0
SOLID
  8
0
 62
7
  6
CONTINUOUS
 10
364.369972524
 20
30.7003410226
 11
364.543410024
 21
30.797132416
 12
364.890285024
 22
30.7648681127
 13
364.890285024
 23
30.7648681127
  0
SOLID
  8
0
 62
7
  6
CONTINUOUS
 10
364.369972524
 20
30.7003410226
 11
364.890285024
 21
30.7648681127
 12
364.6012229651
 22
30.6680782357
 13
364.6012229651
 23
30.6680782357
  0
SOLID
  8
0
 62
7
  6
CONTINUOUS
 10
364.890285024
 20
30.7648681127
 11
364.9480979651
 21
30.6035511455
 12
364.6012229651
 22
30.6680782357
 13
364.6012229651
 23
30.6680782357
  0
SOLID
  8
0
 62
7
  6
CONTINUOUS
 10
364.6590352445
 20
30.5712868422
 11
364.6012229651
 21
30.6680782357
 12
364.9480979651
 22
30.6035511455
 13
364.9480979651
 23
30.6035511455
  0
SOLID
  8
0
 62
7
  6
CONTINUOUS
 10
364.6590352445
 20
30.5712868422
 11
364.9480979651
 21
30.6035511455
 12
364.716847524
 22
30.5067598731
 13
364.716847524
 23
30.5067598731
  0
SOLID
  8
0
 62
7
  6
CONTINUOUS
 10
364.9480979651
 20
30.6035511455
 11
365.0059102445
 21
30.5067598731
 12
364.716847524
 22
30.5067598731
 13
364.716847524
 23
30.5067598731
  0
SOLID
  8
0
 62
7
  6
CONTINUOUS
 10
360.2652852997
 20
30.7326051679
 11
360.3230977445
 21
30.8293966612
 12
360.6121602997
 22
30.8293966612
 13
360.6121602997
 23
30.8293966612
  0
SOLID
  8
0
 62
7
  6
CONTINUOUS
 10
360.6121602997
 20
30.8293966612
 11
360.5543476894
 21
30.7003410226
 12
360.2652852997
 22
30.7326051679
 13
360.2652852997
 23
30.7326051679
  0
SOLID
  8
0
 62
7
  6
CONTINUOUS
 10
360.091847717
 20
30.6680782357
 11
360.2652852997
 21
30.7326051679
 12
360.5543476894
 22
30.7003410226
 13
360.5543476894
 23
30.7003410226
  0
SOLID
  8
0
 62
7
  6
CONTINUOUS
 10
360.091847717
 20
30.6680782357
 11
360.5543476894
 21
30.7003410226
 12
359.6871602721
 22
30.6358139324
 13
359.6871602721
 23
30.6358139324
  0
SOLID
  8
0
 62
7
  6
CONTINUOUS
 10
360.5543476894
 20
30.7003410226
 11
360.3809101894
 21
30.6035511455
 12
359.6871602721
 22
30.6358139324
 13
359.6871602721
 23
30.6358139324
  0
SOLID
  8
0
 62
7
  6
CONTINUOUS
 10
359.2246602583
 20
30.5712868422
 11
359.6871602721
 21
30.6358139324
 12
360.3809101894
 22
30.6035511455
 13
360.3809101894
 23
30.6035511455
  0
SOLID
  8
0
 62
7
  6
CONTINUOUS
 10
359.2246602583
 20
30.5712868422
 11
360.3809101894
 21
30.6035511455
 12
359.3980977583
 22
30.5390224228
 13
359.3980977583
 23
30.5390224228
  0
SOLID
  8
0
 62
7
  6
CONTINUOUS
 10
360.3809101894
 20
30.6035511455
 11
360.1496602445
 21
30.5390224228
 12
359.3980977583
 22
30.5390224228
 13
359.3980977583
 23
30.5390224228
  0
SOLID
  8
0
 62
7
  6
CONTINUOUS
 10
359.744972717
 20
30.5067597521
 11
359.3980977583
 21
30.5390224228
 12
360.1496602445
 22
30.5390224228
 13
360.1496602445
 23
30.5390224228
  0
SOLID
  8
0
 62
7
  6
CONTINUOUS
 10
363.2137226343
 20
30.6680782357
 11
363.4449727445
 21
30.7648681127
 12
363.5027853548
 22
30.7003410226
 13
363.5027853548
 23
30.7003410226
  0
SOLID
  8
0
 62
7
  6
CONTINUOUS
 10
363.5027853548
 20
30.7003410226
 11
363.7340351343
 21
30.6358139324
 12
363.2137226343
 22
30.6680782357
 13
363.2137226343
 23
30.6680782357
  0
SOLID
  8
0
 62
7
  6
CONTINUOUS
 10
363.3871601343
 20
30.5712868422
 11
363.2137226343
 21
30.6680782357
 12
363.7340351343
 22
30.6358139324
 13
363.7340351343
 23
30.6358139324
  0
SOLID
  8
0
 62
7
  6
CONTINUOUS
 10
364.0809101343
 20
30.6358139363
 11
364.369972524
 21
30.7003410226
 12
364.6012229651
 22
30.6680782357
 13
364.6012229651
 23
30.6680782357
  0
SOLID
  8
0
 62
7
  6
CONTINUOUS
 10
364.6012229651
 20
30.6680782357
 11
364.543410024
 21
30.6035511455
 12
364.0809101343
 22
30.6358139363
 13
364.0809101343
 23
30.6358139363
  0
SOLID
  8
0
 62
7
  6
CONTINUOUS
 10
364.543410024
 20
30.6035511455
 11
363.3871601343
 21
30.5712868422
 12
364.0809101343
 22
30.6358139363
 13
364.0809101343
 23
30.6358139363
  0
SOLID
  8
0
 62
7
  6
CONTINUOUS
 10
363.3871601343
 20
30.5712868422
 11
363.7340351343
 21
30.6358139363
 12
364.0809101343
 22
30.6358139363
 13
364.0809101343
 23
30.6358139363
  0
SOLID
  8
0
 62
7
  6
CONTINUOUS
 10
363.3871601343
 20
30.5712868422
 11
364.543410024
 21
30.6035511455
 12
363.5027853548
 22
30.5390225267
 13
363.5027853548
 23
30.5390225267
  0
SOLID
  8
0
 62
7
  6
CONTINUOUS
 10
364.543410024
 20
30.6035511455
 11
364.369972524
 21
30.5390225267
 12
363.5027853548
 22
30.5390225267
 13
363.5027853548
 23
30.5390225267
  0
SOLID
  8
0
 62
7
  6
CONTINUOUS
 10
363.7340351343
 20
30.5067596914
 11
363.5027853548
 21
30.5390225267
 12
364.369972524
 22
30.5390225267
 13
364.369972524
 23
30.5390225267
  0
SOLID
  8
0
 62
7
  6
CONTINUOUS
 10
364.369972524
 20
30.5390225267
 11
364.0809101343
 21
30.5067596914
 12
363.7340351343
 22
30.5067596914
 13
363.7340351343
 23
30.5067596914
  0
SOLID
  8
0
 62
7
  6
CONTINUOUS
 10
368.7637229651
 20
30.6680782357
 11
368.4168479651
 21
30.6358138717
 12
368.6480977445
 22
30.7003410226
 13
368.6480977445
 23
30.7003410226
  0
SOLID
  8
0
 62
7
  6
CONTINUOUS
 10
368.6480977445
 20
30.7003410226
 11
368.4168479651
 21
30.6358138717
 12
368.5902854651
 22
30.7648680521
 13
368.5902854651
 23
30.7648680521
  0
SOLID
  8
0
 62
7
  6
CONTINUOUS
 10
368.4168479651
 20
30.6358138717
 11
368.3012227445
 21
30.7648680521
 12
368.5902854651
 22
30.7648680521
 13
368.5902854651
 23
30.7648680521
  0
SOLID
  8
0
 62
7
  6
CONTINUOUS
 10
368.7637229651
 20
30.6680782357
 11
369.1105979651
 21
30.6358138717
 12
368.4168479651
 22
30.6358138717
 13
368.4168479651
 23
30.6358138717
  0
SOLID
  8
0
 62
7
  6
CONTINUOUS
 10
365.4684104651
 20
30.5067597521
 11
365.4684104651
 21
31.5391977439
 12
365.757472524
 22
30.5067597521
 13
365.757472524
 23
31.5391977439
  0
ENDBLK
  8
0
  6
BYBLOCK
 62
0
  0
BLOCK
  8
0
 62
2
  6
CONTINUOUS
  2
SYMBOL_0_BL0
 70
64
 10
240.8592468615
 20
19.762288695
  0
TEXT
  8
0
 62
7
  6
CONTINUOUS
 10
227.1239507038
 20
19.1357028027
  7
TEXTSTYLE_3
 40
2.7338706658
  1
Ammeraal Beltech
 41
1.0
 51
15.0
 72
0
  0
TEXT
  8
0
 62
7
  6
CONTINUOUS
 10
237.9247515296
 20
16.8621661299
  7
TEXTSTYLE_4
 40
1.0935482663
  1
Innovation & Service in Belting
 41
1.0
 72
0
  0
LINE
  8
0
 62
7
  6
CONTINUOUS
 10
221.0994100525
 20
19.9022961113
 11
221.8775620458
 21
23.5632134089
  0
LINE
  8
0
 62
7
  6
CONTINUOUS
 10
231.9727303357
 20
27.2266073205
 11
222.3653797889
 21
24.1049898993
  0
LINE
  8
0
 62
7
  6
CONTINUOUS
 10
221.3246933848
 20
19.2089453082
 11
228.8317686459
 21
12.4495443822
  0
LINE
  8
0
 62
7
  6
CONTINUOUS
 10
221.5872277955
 20
20.4440726016
 11
232.3954971607
 21
23.9558922005
  0
LINE
  8
0
 62
7
  6
CONTINUOUS
 10
232.3912920235
 20
13.6061036368
 11
223.9458323548
 21
21.2104296785
  0
LINE
  8
0
 62
7
  6
CONTINUOUS
 10
232.9111147433
 20
26.3816822048
 11
231.9345552061
 21
21.7873308023
  0
LINE
  8
0
 62
7
  6
CONTINUOUS
 10
231.2347532584
 20
18.4950214885
 11
230.5483050469
 21
15.2655365641
  0
LINE
  8
0
 62
7
  6
CONTINUOUS
 10
233.5922108419
 20
13.9963058145
 11
234.5484423775
 21
18.4950214885
  0
LINE
  8
0
 62
7
  6
CONTINUOUS
 10
235.2482443252
 20
21.7873308023
 11
235.6924861276
 21
23.8773241617
  0
LINE
  8
0
 62
7
  6
CONTINUOUS
 10
229.5448697213
 20
12.2979700695
 11
233.1043930989
 21
13.4545293241
  0
LINE
  8
0
 62
7
  6
CONTINUOUS
 10
232.685831411
 20
27.0750330078
 11
235.4672027953
 21
24.5706749648
  0
ARC
  8
0
 62
7
  6
CONTINUOUS
 10
222.5906631212
 20
23.4116390962
 40
0.7290321776
 50
108.0
 51
168.0
  0
ARC
  8
0
 62
7
  6
CONTINUOUS
 10
232.198013668
 20
26.5332565175
 40
0.7290321776
 50
348.0
 51
108.0
  0
ARC
  8
0
 62
7
  6
CONTINUOUS
 10
234.9793850522
 20
24.0288984744
 40
0.7290321776
 50
348.0
 51
48.0
  0
ARC
  8
0
 62
7
  6
CONTINUOUS
 10
229.319586389
 20
12.9913208726
 40
0.7290321776
 50
228.0
 51
288.0
  0
ARC
  8
0
 62
7
  6
CONTINUOUS
 10
221.8125111278
 20
19.7507217986
 40
0.7290321776
 50
108.0
 51
228.0
  0
ARC
  8
0
 62
7
  6
CONTINUOUS
 10
232.8791097665
 20
14.1478801272
 40
0.7290321776
 50
228.0
 51
348.0
  0
ENDBLK
  8
0
  6
BYBLOCK
 62
0
  0
ENDSEC
  0
SECTION
  2
ENTITIES
  0
TEXT
  8
0
 62
5
  6
CONTINUOUS
 10
304.937007874
 20
25.636
  7
TEXTSTYLE_2
 40
2.8
  1
Scale :
 41
0.6
 51
0.000019
 72
0
  0
TEXT
  8
0
 62
5
  6
CONTINUOUS
 10
324.937007874
 20
25.636
  7
TEXTSTYLE_2
 40
2.8
  1
Belt type:
 41
0.6
 51
0.000019
 72
0
  0
INSERT
  8
0
 62
2
  6
CONTINUOUS
  2
SYMBOL_0_BL0
 10
240.8592468615
 20
19.762288695
  0
INSERT
  8
0
 62
2
  6
CONTINUOUS
  2
SYMBOL_5_BL1
 10
382.7840918555
 20
35.5067593403
  0
LINE
  8
0
 62
2
  6
CONTINUOUS
 10
218.937007874
 20
30.0
 11
408.937007874
 21
30.0
  0
LINE
  8
0
 62
2
  6
CONTINUOUS
 10
218.937007874
 20
30.0
 11
218.937007874
 21
10.0
  0
LINE
  8
0
 62
2
  6
CONTINUOUS
 10
218.937007874
 20
10.0
 11
408.937007874
 21
10.0
  0
LINE
  8
0
 62
2
  6
CONTINUOUS
 10
303.937007874
 20
30.0
 11
303.937007874
 21
10.0
  0
LINE
  8
0
 62
2
  6
CONTINUOUS
 10
323.937007874
 20
30.0
 11
323.937007874
 21
10.0
  0
LINE
  8
0
 62
2
  6
CONTINUOUS
 10
408.937007874
 20
30.0
 11
408.937007874
 21
10.0
  0
TEXT
  8
0
 62
5
  6
CONTINUOUS
 10
221.937007874
 20
23.303
  7
TEXTSTYLE_5
 40
1.52
  1
                                                                     Ammeraal Beltech Modular A/S
 41
1.0
 72
0
  0
TEXT
  8
0
 62
5
  6
CONTINUOUS
 10
221.937007874
 20
20.595
  7
TEXTSTYLE_5
 40
1.5
  1
                                                                      Hjulmagervej 21, 7100 Vejle,  DK
 41
1.0
 72
0
  0
TEXT
  8
0
 62
5
  6
CONTINUOUS
 10
221.937007874
 20
17.881
  7
TEXTSTYLE_5
 40
1.495
  1
                                                                      tel: 
 41
1.0
 72
0
  0
TEXT
  8
0
 62
5
  6
CONTINUOUS
 10
266.9239544389
 20
17.881
  7
TEXTSTYLE_5
 40
1.51
  1
+45 75723100     fax: +45 75723348
 41
1.0
 72
0
  0
TEXT
  8
0
 62
5
  6
CONTINUOUS
 10
221.937007874
 20
15.177
  7
TEXTSTYLE_5
 40
1.5
  1
                                                                      admin@unichains.dk  www.unichains.com
 41
1.0
 72
0
  0
TEXT
  8
0
 62
5
  6
CONTINUOUS
 10
308.687007874
 20
13.75
  7
TEXTSTYLE_6
 40
5.0
  1
1:1
 41
0.7
 72
1
 11
313.937007874
 21
13.75
  0
TEXT
  8
0
 62
5
  6
CONTINUOUS
 10
326.937007874
 20
13.75
  7
TEXTSTYLE_7
 40
7.5
  1
uni Flex L-ASB K1280 Both 
 41
0.4078525641
 72
0
  0
LINE
  8
0
 62
7
  6
CONTINUOUS
 10
0.0
 20
0.0
 11
0.0
 21
297.0
  0
LINE
  8
0
 62
7
  6
CONTINUOUS
 10
8.937007874
 20
10.0
 11
8.937007874
 21
287.0
  0
LINE
  8
0
 62
7
  6
CONTINUOUS
 10
0.0
 20
0.0
 11
420.0
 21
0.0
  0
LINE
  8
0
 62
7
  6
CONTINUOUS
 10
408.937007874
 20
10.0
 11
8.937007874
 21
10.0
  0
LINE
  8
0
 62
7
  6
CONTINUOUS
 10
218.937007874
 20
30.0
 11
408.937007874
 21
30.0
  0
LINE
  8
0
 62
7
  6
CONTINUOUS
 10
210.0
 20
297.0
 11
210.0
 21
292.0
  0
LINE
  8
0
 62
7
  6
CONTINUOUS
 10
210.0
 20
0.0
 11
210.0
 21
5.0
  0
LINE
  8
0
 62
7
  6
CONTINUOUS
 10
8.937007874
 20
287.0
 11
408.937007874
 21
287.0
  0
LINE
  8
0
 62
7
  6
CONTINUOUS
 10
0.0
 20
297.0
 11
420.0
 21
297.0
  0
LINE
  8
0
 62
7
  6
CONTINUOUS
 10
408.937007874
 20
287.0
 11
408.937007874
 21
10.0
  0
LINE
  8
0
 62
7
  6
CONTINUOUS
 10
420.0
 20
0.0
 11
420.0
 21
297.0
  0
LINE
  8
0
 62
7
  6
CONTINUOUS
 10
20.5604860642
 20
121.3850225525
 11
20.5604860642
 21
94.9222426629
  0
LINE
  8
0
 62
7
  6
CONTINUOUS
 10
27.5604860642
 20
115.4229855322
 11
27.5604860642
 21
112.0300409289
  0
LINE
  8
0
 62
7
  6
CONTINUOUS
 10
30.2604860642
 20
93.4092699336
 11
30.2604860642
 21
107.0051697983
  0
LINE
  8
0
 62
7
  6
CONTINUOUS
 10
32.8627737137
 20
151.4922130303
 11
32.8627737137
 21
156.185554556
  0
LINE
  8
0
 62
7
  6
CONTINUOUS
 10
35.5627737137
 20
144.3535638759
 11
35.5627737137
 21
132.596263894
  0
LINE
  8
0
 62
7
  6
CONTINUOUS
 10
42.5627737137
 20
144.3535638759
 11
42.5627737137
 21
134.6074088055
  0
LINE
  8
0
 62
7
  6
CONTINUOUS
 10
45.2627737137
 20
156.185554556
 11
45.2627737137
 21
151.4922130303
  0
LINE
  8
0
 62
7
  6
CONTINUOUS
 10
47.9127737137
 20
94.785554556
 11
47.9127737137
 21
99.4788960817
  0
LINE
  8
0
 62
7
  6
CONTINUOUS
 10
50.6127737137
 20
116.2537003065
 11
50.6127737137
 21
106.6175452361
  0
LINE
  8
0
 62
7
  6
CONTINUOUS
 10
45.2421095591
 20
151.3827987466
 11
42.631654229
 21
144.7182781548
  0
LINE
  8
0
 62
7
  6
CONTINUOUS
 10
27.6944606604
 20
111.5300409289
 11
30.2202936854
 21
107.1551697983
  0
LINE
  8
0
 62
7
  6
CONTINUOUS
 10
57.6127737137
 20
116.9787003065
 11
57.6127737137
 21
106.6175452361
  0
LINE
  8
0
 62
7
  6
CONTINUOUS
 10
60.3127737137
 20
99.4788960817
 11
60.3127737137
 21
94.785554556
  0
LINE
  8
0
 62
7
  6
CONTINUOUS
 10
61.8127737137
 20
151.4922130303
 11
61.8127737137
 21
156.185554556
  0
LINE
  8
0
 62
7
  6
CONTINUOUS
 10
32.8834378683
 20
151.3827987466
 11
35.4938931984
 21
144.7182781548
  0
LINE
  8
0
 62
7
  6
CONTINUOUS
 10
60.2921095591
 20
99.5883103654
 11
57.681654229
 21
106.2528309572
  0
LINE
  8
0
 62
7
  6
CONTINUOUS
 10
64.5127737137
 20
144.3535638759
 11
64.5127737137
 21
134.6074088055
  0
LINE
  8
0
 62
7
  6
CONTINUOUS
 10
71.5127737137
 20
144.3535638759
 11
71.5127737137
 21
133.8824088055
  0
LINE
  8
0
 62
7
  6
CONTINUOUS
 10
47.9334378683
 20
99.5883103654
 11
50.5438931984
 21
106.2528309572
  0
LINE
  8
0
 62
7
  6
CONTINUOUS
 10
74.1921095591
 20
151.3827987466
 11
71.581654229
 21
144.7182781548
  0
LINE
  8
0
 62
7
  6
CONTINUOUS
 10
74.2127737137
 20
156.185554556
 11
74.2127737137
 21
151.4922130303
  0
LINE
  8
0
 62
7
  6
CONTINUOUS
 10
75.7127737137
 20
94.785554556
 11
75.7127737137
 21
99.4788960817
  0
LINE
  8
0
 62
7
  6
CONTINUOUS
 10
78.4127737137
 20
116.9787003065
 11
78.4127737137
 21
106.6175452361
  0
LINE
  8
0
 62
7
  6
CONTINUOUS
 10
32.7162008385
 20
123.0639816807
 11
29.3178453771
 21
119.6656262194
  0
LINE
  8
0
 62
7
  6
CONTINUOUS
 10
45.459346589
 20
123.0639816807
 11
49.4412008385
 21
119.0821274312
  0
LINE
  8
0
 62
7
  6
CONTINUOUS
 10
61.8334378683
 20
151.3827987466
 11
64.4438931984
 21
144.7182781548
  0
LINE
  8
0
 62
7
  6
CONTINUOUS
 10
85.4127737137
 20
116.9787003065
 11
85.4127737137
 21
106.6175452361
  0
LINE
  8
0
 62
7
  6
CONTINUOUS
 10
88.1127737137
 20
99.4788960817
 11
88.1127737137
 21
94.785554556
  0
LINE
  8
0
 62
7
  6
CONTINUOUS
 10
88.4127737137
 20
151.4922130303
 11
88.4127737137
 21
156.185554556
  0
LINE
  8
0
 62
7
  6
CONTINUOUS
 10
91.1127737137
 20
144.3535638759
 11
91.1127737137
 21
133.8824088055
  0
LINE
  8
0
 62
7
  6
CONTINUOUS
 10
75.7334378683
 20
99.5883103654
 11
78.3438931984
 21
106.2528309572
  0
LINE
  8
0
 62
7
  6
CONTINUOUS
 10
59.909346589
 20
128.3471274312
 11
63.3412008385
 21
131.7789816807
  0
LINE
  8
0
 62
7
  6
CONTINUOUS
 10
43.734346589
 20
131.7789816807
 11
47.1662008385
 21
128.3471274312
  0
LINE
  8
0
 62
7
  6
CONTINUOUS
 10
88.0921095591
 20
99.5883103654
 11
85.481654229
 21
106.2528309572
  0
LINE
  8
0
 62
7
  6
CONTINUOUS
 10
98.1127737137
 20
144.3535638759
 11
98.1127737137
 21
128.5611296977
  0
LINE
  8
0
 62
7
  6
CONTINUOUS
 10
100.8127737137
 20
156.185554556
 11
100.8127737137
 21
151.4922130303
  0
LINE
  8
0
 62
7
  6
CONTINUOUS
 10
101.1127737137
 20
94.785554556
 11
101.1127737137
 21
99.4788960817
  0
LINE
  8
0
 62
7
  6
CONTINUOUS
 10
103.8127737137
 20
121.335554556
 11
103.8127737137
 21
106.6175452361
  0
LINE
  8
0
 62
7
  6
CONTINUOUS
 10
100.7921095591
 20
151.3827987466
 11
98.181654229
 21
144.7182781548
  0
LINE
  8
0
 62
7
  6
CONTINUOUS
 10
61.6412008385
 20
122.6639816807
 11
58.784346589
 21
119.8071274312
  0
LINE
  8
0
 62
7
  6
CONTINUOUS
 10
74.384346589
 20
122.6639816807
 11
77.2412008385
 21
119.8071274312
  0
LINE
  8
0
 62
7
  6
CONTINUOUS
 10
88.4334378683
 20
151.3827987466
 11
91.0438931984
 21
144.7182781548
  0
LINE
  8
0
 62
7
  6
CONTINUOUS
 10
110.8104860642
 20
120.685554556
 11
110.8104860642
 21
106.6180207115
  0
LINE
  8
0
 62
7
  6
CONTINUOUS
 10
113.5104860642
 20
99.4788998157
 11
113.5104860642
 21
94.785554556
  0
LINE
  8
0
 62
7
  6
CONTINUOUS
 10
113.8104860642
 20
151.4922130303
 11
113.8104860642
 21
156.185554556
  0
LINE
  8
0
 62
7
  6
CONTINUOUS
 10
116.5104860642
 20
144.3535638759
 11
116.5104860642
 21
128.5611296977
  0
LINE
  8
0
 62
7
  6
CONTINUOUS
 10
101.1334378683
 20
99.5883103654
 11
103.7438931984
 21
106.2528309572
  0
LINE
  8
0
 62
7
  6
CONTINUOUS
 10
89.9412008385
 20
131.0539816807
 11
87.684346589
 21
128.7971274312
  0
LINE
  8
0
 62
7
  6
CONTINUOUS
 10
72.684346589
 20
131.0539816807
 11
74.9412008385
 21
128.7971274312
  0
LINE
  8
0
 62
7
  6
CONTINUOUS
 10
113.4898245395
 20
99.5883073852
 11
110.8793578135
 21
106.2533288133
  0
LINE
  8
0
 62
7
  6
CONTINUOUS
 10
123.5104860642
 20
144.3535638759
 11
123.5104860642
 21
128.5611296977
  0
LINE
  8
0
 62
7
  6
CONTINUOUS
 10
126.2104860642
 20
156.185554556
 11
126.2104860642
 21
151.4922130303
  0
LINE
  8
0
 62
7
  6
CONTINUOUS
 10
126.5104860642
 20
94.785554556
 11
126.5104860642
 21
99.4788998157
  0
LINE
  8
0
 62
7
  6
CONTINUOUS
 10
129.2104860642
 20
120.685554556
 11
129.2104860642
 21
106.6180207115
  0
LINE
  8
0
 62
7
  6
CONTINUOUS
 10
123.5793665795
 20
144.7182781548
 11
126.1898219096
 21
151.3827987466
  0
LINE
  8
0
 62
7
  6
CONTINUOUS
 10
88.9412008385
 20
122.1639816807
 11
86.584346589
 21
119.8071274312
  0
LINE
  8
0
 62
7
  6
CONTINUOUS
 10
33.1857638916
 20
128.9403231283
 11
22.3432434309
 21
124.1269781268
  0
LINE
  8
0
 62
7
  6
CONTINUOUS
 10
113.8311502188
 20
151.3827987466
 11
116.4416055489
 21
144.7182781548
  0
LINE
  8
0
 62
7
  6
CONTINUOUS
 10
136.2104860642
 20
120.685554556
 11
136.2104860642
 21
106.6180207115
  0
LINE
  8
0
 62
7
  6
CONTINUOUS
 10
138.9104860642
 20
99.4788998157
 11
138.9104860642
 21
94.785554556
  0
LINE
  8
0
 62
7
  6
CONTINUOUS
 10
139.2104860642
 20
151.4922130303
 11
139.2104860642
 21
156.185554556
  0
LINE
  8
0
 62
7
  6
CONTINUOUS
 10
126.531147589
 20
99.5883073852
 11
129.141614315
 21
106.2533288133
  0
LINE
  8
0
 62
7
  6
CONTINUOUS
 10
342.7662549914
 20
90.9338933383
 11
342.7880274844
 21
90.9356052811
  0
LINE
  8
0
 62
7
  6
CONTINUOUS
 10
342.7508612634
 20
90.9328108646
 11
342.7724535531
 21
90.9343592819
  0
LINE
  8
0
 62
7
  6
CONTINUOUS
 10
342.7508612634
 20
90.9328108646
 11
342.7587375524
 21
90.9333466971
  0
LINE
  8
0
 62
7
  6
CONTINUOUS
 10
24.2485118284
 20
90.9343598034
 11
24.2701108587
 21
90.9328108647
  0
LINE
  8
0
 62
7
  6
CONTINUOUS
 10
24.2329446684
 20
90.935605279
 11
24.2547171951
 21
90.9338933339
  0
LINE
  8
0
 62
7
  6
CONTINUOUS
 10
138.8898245395
 20
99.5883073852
 11
136.2793578135
 21
106.2533288133
  0
LINE
  8
0
 62
7
  6
CONTINUOUS
 10
141.9104860642
 20
144.3535638759
 11
141.9104860642
 21
128.5611296977
  0
LINE
  8
0
 62
7
  6
CONTINUOUS
 10
148.9104860642
 20
144.3535638759
 11
148.9104860642
 21
128.5611296977
  0
LINE
  8
0
 62
7
  6
CONTINUOUS
 10
151.6104860642
 20
156.185554556
 11
151.6104860642
 21
151.4922130303
  0
LINE
  8
0
 62
7
  6
CONTINUOUS
 10
148.9793665795
 20
144.7182781548
 11
151.5898219096
 21
151.3827987466
  0
POLYLINE
  8
0
 62
7
  6
CONTINUOUS
 66
1
 70
0
  0
VERTEX
  8
0
 62
7
  6
CONTINUOUS
 10
30.0679964491
 20
93.1291958057
  0
VERTEX
  8
0
 62
7
  6
CONTINUOUS
 10
30.095393693
 20
93.1413148409
  0
VERTEX
  8
0
 62
7
  6
CONTINUOUS
 10
30.1216074403
 20
93.1562088695
  0
VERTEX
  8
0
 62
7
  6
CONTINUOUS
 10
30.1457023818
 20
93.1732722309
  0
VERTEX
  8
0
 62
7
  6
CONTINUOUS
 10
30.1679171377
 20
93.1925388797
  0
VERTEX
  8
0
 62
7
  6
CONTINUOUS
 10
30.1883477097
 20
93.2141313405
  0
VERTEX
  8
0
 62
7
  6
CONTINUOUS
 10
30.2065658741
 20
93.2376752742
  0
VERTEX
  8
0
 62
7
  6
CONTINUOUS
 10
30.2224765177
 20
93.2631158974
  0
VERTEX
  8
0
 62
7
  6
CONTINUOUS
 10
30.2359068359
 20
93.2903439123
  0
VERTEX
  8
0
 62
7
  6
CONTINUOUS
 10
30.2465189163
 20
93.3187977968
  0
VERTEX
  8
0
 62
7
  6
CONTINUOUS
 10
30.254220204
 20
93.3482760392
  0
VERTEX
  8
0
 62
7
  6
CONTINUOUS
 10
30.2589459433
 20
93.3789104119
  0
VERTEX
  8
0
 62
7
  6
CONTINUOUS
 10
30.2604860642
 20
93.4092699336
  0
SEQEND
  0
LINE
  8
0
 62
7
  6
CONTINUOUS
 10
316.4081984147
 20
92.085554556
 11
309.4081984147
 21
92.085554556
  0
LINE
  8
0
 62
7
  6
CONTINUOUS
 10
288.6081984147
 20
92.085554556
 11
281.6081984147
 21
92.085554556
  0
LINE
  8
0
 62
7
  6
CONTINUOUS
 10
263.2081984147
 20
92.085554556
 11
256.2104860642
 21
92.085554556
  0
LINE
  8
0
 62
7
  6
CONTINUOUS
 10
237.8104860642
 20
92.085554556
 11
230.8104860642
 21
92.085554556
  0
LINE
  8
0
 62
7
  6
CONTINUOUS
 10
212.4104860642
 20
92.085554556
 11
205.4104860642
 21
92.085554556
  0
LINE
  8
0
 62
7
  6
CONTINUOUS
 10
187.0104860642
 20
92.085554556
 11
180.0104860642
 21
92.085554556
  0
LINE
  8
0
 62
7
  6
CONTINUOUS
 10
50.6127737137
 20
92.085554556
 11
57.6127737137
 21
92.085554556
  0
LINE
  8
0
 62
7
  6
CONTINUOUS
 10
78.4127737137
 20
92.085554556
 11
85.4127737137
 21
92.085554556
  0
LINE
  8
0
 62
7
  6
CONTINUOUS
 10
103.8127737137
 20
92.085554556
 11
110.8104860642
 21
92.085554556
  0
LINE
  8
0
 62
7
  6
CONTINUOUS
 10
129.2104860642
 20
92.085554556
 11
136.2104860642
 21
92.085554556
  0
LINE
  8
0
 62
7
  6
CONTINUOUS
 10
154.6104860642
 20
92.085554556
 11
161.6104860642
 21
92.085554556
  0
POLYLINE
  8
0
 62
7
  6
CONTINUOUS
 66
1
 70
0
  0
VERTEX
  8
0
 62
7
  6
CONTINUOUS
 10
24.2701108587
 20
90.9328108647
  0
VERTEX
  8
0
 62
7
  6
CONTINUOUS
 10
24.2979385459
 20
90.9323490719
  0
VERTEX
  8
0
 62
7
  6
CONTINUOUS
 10
24.3260875029
 20
90.9345070499
  0
VERTEX
  8
0
 62
7
  6
CONTINUOUS
 10
24.354355041
 20
90.9394095677
  0
VERTEX
  8
0
 62
7
  6
CONTINUOUS
 10
24.3824466106
 20
90.9471219329
  0
VERTEX
  8
0
 62
7
  6
CONTINUOUS
 10
24.3965654639
 20
90.9521378694
  0
SEQEND
  0
LINE
  8
0
 62
7
  6
CONTINUOUS
 10
151.9104860642
 20
94.785554556
 11
151.9104860642
 21
99.4788998157
  0
LINE
  8
0
 62
7
  6
CONTINUOUS
 10
154.6104860642
 20
120.685554556
 11
154.6104860642
 21
106.6180207115
  0
LINE
  8
0
 62
7
  6
CONTINUOUS
 10
161.6104860642
 20
120.685554556
 11
161.6104860642
 21
106.6180207115
  0
LINE
  8
0
 62
7
  6
CONTINUOUS
 10
30.0679964491
 20
93.1291958057
 11
24.3965667628
 21
90.9521379219
  0
LINE
  8
DEFAULT_1
 62
2
  6
CENTER
 10
354.1081984147
 20
100.085554556
 11
14.1081984147
 21
100.085554556
  0
LINE
  8
0
 62
7
  6
CONTINUOUS
 10
139.2311502188
 20
151.3827987466
 11
141.8416055489
 21
144.7182781548
  0
LINE
  8
0
 62
7
  6
CONTINUOUS
 10
164.2898245395
 20
99.5883073852
 11
161.6793578135
 21
106.2533288133
  0
LINE
  8
0
 62
7
  6
CONTINUOUS
 10
164.3104860642
 20
99.4788998157
 11
164.3104860642
 21
94.785554556
  0
LINE
  8
0
 62
7
  6
CONTINUOUS
 10
164.6104860642
 20
151.4922130303
 11
164.6104860642
 21
156.185554556
  0
LINE
  8
0
 62
7
  6
CONTINUOUS
 10
167.3104860642
 20
144.3535638759
 11
167.3104860642
 21
128.5611296977
  0
LINE
  8
0
 62
7
  6
CONTINUOUS
 10
151.931147589
 20
99.5883073852
 11
154.541614315
 21
106.2533288133
  0
LINE
  8
0
 62
7
  6
CONTINUOUS
 10
174.3793665795
 20
144.7182781548
 11
176.9898219096
 21
151.3827987466
  0
LINE
  8
0
 62
7
  6
CONTINUOUS
 10
174.3104860642
 20
144.3535638759
 11
174.3104860642
 21
128.5611296977
  0
LINE
  8
0
 62
7
  6
CONTINUOUS
 10
177.0104860642
 20
156.185554556
 11
177.0104860642
 21
151.4922130303
  0
LINE
  8
0
 62
7
  6
CONTINUOUS
 10
177.3104860642
 20
94.785554556
 11
177.3104860642
 21
99.4788998157
  0
LINE
  8
0
 62
7
  6
CONTINUOUS
 10
180.0104860642
 20
120.685554556
 11
180.0104860642
 21
106.6180207115
  0
LINE
  8
DEFAULT_1
 62
2
  6
CENTER
 10
183.5104860642
 20
125.485554556
 11
183.5104860642
 21
101.6763646026
  0
LINE
  8
DEFAULT_1
 62
2
  6
CENTER
 10
183.5104860642
 20
125.485554556
 11
183.5104860642
 21
148.4289961816
  0
LINE
  8
0
 62
7
  6
CONTINUOUS
 10
178.0104860642
 20
122.685554556
 11
163.6104860642
 21
122.685554556
  0
LINE
  8
0
 62
7
  6
CONTINUOUS
 10
152.6104860642
 20
122.685554556
 11
138.2104860642
 21
122.685554556
  0
LINE
  8
0
 62
7
  6
CONTINUOUS
 10
127.2104860642
 20
122.685554556
 11
112.8104860642
 21
122.685554556
  0
LINE
  8
0
 62
7
  6
CONTINUOUS
 10
189.0104860642
 20
122.685554556
 11
203.4104860642
 21
122.685554556
  0
LINE
  8
0
 62
7
  6
CONTINUOUS
 10
214.4104860642
 20
122.685554556
 11
228.8104860642
 21
122.685554556
  0
LINE
  8
0
 62
7
  6
CONTINUOUS
 10
239.8104860642
 20
122.685554556
 11
254.2104860642
 21
122.685554556
  0
LINE
  8
0
 62
7
  6
CONTINUOUS
 10
101.8127737137
 20
123.335554556
 11
91.7696279632
 21
123.335554556
  0
LINE
  8
0
 62
7
  6
CONTINUOUS
 10
265.2081984147
 20
123.335554556
 11
275.2513441652
 21
123.335554556
  0
LINE
  8
0
 62
7
  6
CONTINUOUS
 10
71.5559194642
 20
123.835554556
 11
64.4696279632
 21
123.835554556
  0
LINE
  8
0
 62
7
  6
CONTINUOUS
 10
295.4650526642
 20
123.835554556
 11
302.5513441652
 21
123.835554556
  0
LINE
  8
0
 62
7
  6
CONTINUOUS
 10
42.6309194642
 20
124.235554556
 11
35.5446279632
 21
124.235554556
  0
LINE
  8
0
 62
7
  6
CONTINUOUS
 10
324.3900526642
 20
124.235554556
 11
331.4763441652
 21
124.235554556
  0
LINE
  8
DEFAULT_1
 62
2
  6
CENTER
 10
183.5104860642
 20
125.485554556
 11
18.4433438645
 21
125.485554556
  0
LINE
  8
DEFAULT_1
 62
2
  6
CENTER
 10
183.5104860642
 20
125.485554556
 11
357.6486070224
 21
125.485554556
  0
LINE
  8
0
 62
7
  6
CONTINUOUS
 10
164.6311502188
 20
151.3827987466
 11
167.2416055489
 21
144.7182781548
  0
LINE
  8
0
 62
7
  6
CONTINUOUS
 10
189.6898245395
 20
99.5883073852
 11
187.0793578135
 21
106.2533288133
  0
LINE
  8
0
 62
7
  6
CONTINUOUS
 10
187.0104860642
 20
106.6180207115
 11
187.0104860642
 21
120.685554556
  0
LINE
  8
0
 62
7
  6
CONTINUOUS
 10
189.7104860642
 20
94.785554556
 11
189.7104860642
 21
99.4788998157
  0
LINE
  8
0
 62
7
  6
CONTINUOUS
 10
190.0104860642
 20
151.4922130303
 11
190.0104860642
 21
156.185554556
  0
LINE
  8
0
 62
7
  6
CONTINUOUS
 10
192.7104860642
 20
144.3535638759
 11
192.7104860642
 21
128.5611296977
  0
LINE
  8
0
 62
7
  6
CONTINUOUS
 10
177.331147589
 20
99.5883073852
 11
179.941614315
 21
106.2533288133
  0
LINE
  8
0
 62
7
  6
CONTINUOUS
 10
199.7793665795
 20
144.7182781548
 11
202.3898219096
 21
151.3827987466
  0
LINE
  8
0
 62
7
  6
CONTINUOUS
 10
317.0263441652
 20
127.175554556
 11
309.9400526642
 21
127.175554556
  0
LINE
  8
0
 62
7
  6
CONTINUOUS
 10
57.0809194642
 20
127.175554556
 11
49.9946279632
 21
127.175554556
  0
LINE
  8
0
 62
7
  6
CONTINUOUS
 10
289.2513441652
 20
127.625554556
 11
282.1650526642
 21
127.625554556
  0
LINE
  8
0
 62
7
  6
CONTINUOUS
 10
84.8559194642
 20
127.625554556
 11
77.7696279632
 21
127.625554556
  0
LINE
  8
0
 62
7
  6
CONTINUOUS
 10
190.7104860642
 20
128.1108945897
 11
176.3104860642
 21
128.1108945897
  0
LINE
  8
0
 62
7
  6
CONTINUOUS
 10
165.3104860642
 20
128.1108945897
 11
150.9104860642
 21
128.1108945897
  0
LINE
  8
0
 62
7
  6
CONTINUOUS
 10
139.9104860642
 20
128.1108945897
 11
125.5104860642
 21
128.1108945897
  0
LINE
  8
0
 62
7
  6
CONTINUOUS
 10
114.5104860642
 20
128.1108945897
 11
100.1127737137
 21
128.1108945897
  0
LINE
  8
0
 62
7
  6
CONTINUOUS
 10
201.7104860642
 20
128.1108945897
 11
216.1104860642
 21
128.1108945897
  0
LINE
  8
0
 62
7
  6
CONTINUOUS
 10
227.1104860642
 20
128.1108945897
 11
241.5104860642
 21
128.1108945897
  0
LINE
  8
0
 62
7
  6
CONTINUOUS
 10
252.5104860642
 20
128.1108945897
 11
266.9081984147
 21
128.1108945897
  0
LINE
  8
0
 62
7
  6
CONTINUOUS
 10
199.7104860642
 20
128.5611296977
 11
199.7104860642
 21
144.3535638759
  0
LINE
  8
0
 62
7
  6
CONTINUOUS
 10
202.4104860642
 20
151.4922130303
 11
202.4104860642
 21
156.185554556
  0
LINE
  8
0
 62
7
  6
CONTINUOUS
 10
202.7104860642
 20
94.785554556
 11
202.7104860642
 21
99.4788998157
  0
LINE
  8
0
 62
7
  6
CONTINUOUS
 10
205.4104860642
 20
120.685554556
 11
205.4104860642
 21
106.6180207115
  0
POLYLINE
  8
0
 62
7
  6
CONTINUOUS
 66
1
 70
0
  0
VERTEX
  8
0
 62
7
  6
CONTINUOUS
 10
342.6244066649
 20
90.9521378692
  0
VERTEX
  8
0
 62
7
  6
CONTINUOUS
 10
342.6373034394
 20
90.9475248163
  0
VERTEX
  8
0
 62
7
  6
CONTINUOUS
 10
342.665540184
 20
90.9396520393
  0
VERTEX
  8
0
 62
7
  6
CONTINUOUS
 10
342.6940626586
 20
90.9346102967
  0
VERTEX
  8
0
 62
7
  6
CONTINUOUS
 10
342.7225742154
 20
90.9323630456
  0
VERTEX
  8
0
 62
7
  6
CONTINUOUS
 10
342.7508612634
 20
90.9328108646
  0
SEQEND
  0
LINE
  8
0
 62
7
  6
CONTINUOUS
 10
190.0311502188
 20
151.3827987466
 11
192.6416055489
 21
144.7182781548
  0
LINE
  8
0
 62
7
  6
CONTINUOUS
 10
215.0898245395
 20
99.5883073852
 11
212.4793578135
 21
106.2533288133
  0
LINE
  8
0
 62
7
  6
CONTINUOUS
 10
212.4104860642
 20
106.6180207115
 11
212.4104860642
 21
120.685554556
  0
LINE
  8
0
 62
7
  6
CONTINUOUS
 10
215.1104860642
 20
94.785554556
 11
215.1104860642
 21
99.4788998157
  0
LINE
  8
0
 62
7
  6
CONTINUOUS
 10
215.4104860642
 20
151.4922130303
 11
215.4104860642
 21
156.185554556
  0
LINE
  8
0
 62
7
  6
CONTINUOUS
 10
218.1104860642
 20
144.3535638759
 11
218.1104860642
 21
128.5611296977
  0
LINE
  8
0
 62
7
  6
CONTINUOUS
 10
202.731147589
 20
99.5883073852
 11
205.341614315
 21
106.2533288133
  0
LINE
  8
0
 62
7
  6
CONTINUOUS
 10
225.1793665795
 20
144.7182781548
 11
227.7898219096
 21
151.3827987466
  0
LINE
  8
DEFAULT_1
 62
2
  6
CENTER
 10
349.7081984147
 20
150.885554556
 11
19.7081984147
 21
150.885554556
  0
LINE
  8
0
 62
7
  6
CONTINUOUS
 10
331.4581984147
 20
158.885554556
 11
324.4581984147
 21
158.885554556
  0
LINE
  8
0
 62
7
  6
CONTINUOUS
 10
302.5081984147
 20
158.885554556
 11
295.5081984147
 21
158.885554556
  0
LINE
  8
0
 62
7
  6
CONTINUOUS
 10
275.9081984147
 20
158.885554556
 11
268.9081984147
 21
158.885554556
  0
LINE
  8
0
 62
7
  6
CONTINUOUS
 10
250.5104860642
 20
158.885554556
 11
243.5104860642
 21
158.885554556
  0
LINE
  8
0
 62
7
  6
CONTINUOUS
 10
225.1104860642
 20
158.885554556
 11
218.1104860642
 21
158.885554556
  0
LINE
  8
0
 62
7
  6
CONTINUOUS
 10
199.7104860642
 20
158.885554556
 11
192.7104860642
 21
158.885554556
  0
LINE
  8
0
 62
7
  6
CONTINUOUS
 10
174.3104860642
 20
158.885554556
 11
167.3104860642
 21
158.885554556
  0
LINE
  8
0
 62
7
  6
CONTINUOUS
 10
148.9104860642
 20
158.885554556
 11
141.9104860642
 21
158.885554556
  0
LINE
  8
0
 62
7
  6
CONTINUOUS
 10
123.5104860642
 20
158.885554556
 11
116.5104860642
 21
158.885554556
  0
LINE
  8
0
 62
7
  6
CONTINUOUS
 10
98.1127737137
 20
158.885554556
 11
91.1127737137
 21
158.885554556
  0
LINE
  8
0
 62
7
  6
CONTINUOUS
 10
71.5127737137
 20
158.885554556
 11
64.5127737137
 21
158.885554556
  0
LINE
  8
0
 62
7
  6
CONTINUOUS
 10
42.5627737137
 20
158.885554556
 11
35.5627737137
 21
158.885554556
  0
LINE
  8
0
 62
7
  6
CONTINUOUS
 10
336.9529756794
 20
93.1291958057
 11
342.6244210642
 21
90.9521318958
  0
LINE
  8
0
 62
7
  6
CONTINUOUS
 10
225.1104860642
 20
128.5611296977
 11
225.1104860642
 21
144.3535638759
  0
LINE
  8
0
 62
7
  6
CONTINUOUS
 10
227.8104860642
 20
151.4922130303
 11
227.8104860642
 21
156.185554556
  0
LINE
  8
0
 62
7
  6
CONTINUOUS
 10
228.1104860642
 20
94.785554556
 11
228.1104860642
 21
99.4788998157
  0
LINE
  8
0
 62
7
  6
CONTINUOUS
 10
215.4311502188
 20
151.3827987466
 11
218.0416055489
 21
144.7182781548
  0
LINE
  8
0
 62
7
  6
CONTINUOUS
 10
240.4898245395
 20
99.5883073852
 11
237.8793578135
 21
106.2533288133
  0
LINE
  8
0
 62
7
  6
CONTINUOUS
 10
230.8104860642
 20
120.685554556
 11
230.8104860642
 21
106.6180207115
  0
LINE
  8
0
 62
7
  6
CONTINUOUS
 10
237.8104860642
 20
106.6180207115
 11
237.8104860642
 21
120.685554556
  0
LINE
  8
0
 62
7
  6
CONTINUOUS
 10
228.131147589
 20
99.5883073852
 11
230.741614315
 21
106.2533288133
  0
LINE
  8
0
 62
7
  6
CONTINUOUS
 10
250.5793665795
 20
144.7182781548
 11
253.1898219096
 21
151.3827987466
  0
LINE
  8
0
 62
7
  6
CONTINUOUS
 10
240.5104860642
 20
94.785554556
 11
240.5104860642
 21
99.4788998157
  0
LINE
  8
0
 62
7
  6
CONTINUOUS
 10
240.8104860642
 20
151.4922130303
 11
240.8104860642
 21
156.185554556
  0
LINE
  8
0
 62
7
  6
CONTINUOUS
 10
243.5104860642
 20
144.3535638759
 11
243.5104860642
 21
128.5611296977
  0
LINE
  8
0
 62
7
  6
CONTINUOUS
 10
250.5104860642
 20
128.5611296977
 11
250.5104860642
 21
144.3535638759
  0
LINE
  8
0
 62
7
  6
CONTINUOUS
 10
344.6777286976
 20
124.1269781268
 11
333.8352082369
 21
128.9403231283
  0
LINE
  8
0
 62
7
  6
CONTINUOUS
 10
278.07977129
 20
122.1639816807
 11
280.4366255395
 21
119.8071274312
  0
LINE
  8
0
 62
7
  6
CONTINUOUS
 10
240.8311502188
 20
151.3827987466
 11
243.4416055489
 21
144.7182781548
  0
LINE
  8
0
 62
7
  6
CONTINUOUS
 10
265.8875342601
 20
99.5883103654
 11
263.27707893
 21
106.2528309572
  0
LINE
  8
0
 62
7
  6
CONTINUOUS
 10
253.2104860642
 20
151.4922130303
 11
253.2104860642
 21
156.185554556
  0
LINE
  8
0
 62
7
  6
CONTINUOUS
 10
253.5104860642
 20
94.785554556
 11
253.5104860642
 21
99.4788998157
  0
LINE
  8
0
 62
7
  6
CONTINUOUS
 10
256.2104860642
 20
120.685554556
 11
256.2104860642
 21
106.6180207115
  0
LINE
  8
0
 62
7
  6
CONTINUOUS
 10
253.531147589
 20
99.5883073852
 11
256.141614315
 21
106.2533288133
  0
LINE
  8
0
 62
7
  6
CONTINUOUS
 10
275.97707893
 20
144.7182781548
 11
278.5875342601
 21
151.3827987466
  0
LINE
  8
0
 62
7
  6
CONTINUOUS
 10
294.3366255395
 20
131.0539816807
 11
292.07977129
 21
128.7971274312
  0
LINE
  8
0
 62
7
  6
CONTINUOUS
 10
289.77977129
 20
119.8071274312
 11
292.6366255395
 21
122.6639816807
  0
LINE
  8
0
 62
7
  6
CONTINUOUS
 10
279.3366255395
 20
128.7971274312
 11
277.07977129
 21
131.0539816807
  0
LINE
  8
0
 62
7
  6
CONTINUOUS
 10
263.2081984147
 20
106.6175452361
 11
263.2081984147
 21
121.335554556
  0
LINE
  8
0
 62
7
  6
CONTINUOUS
 10
265.9081984147
 20
94.785554556
 11
265.9081984147
 21
99.4788960817
  0
LINE
  8
0
 62
7
  6
CONTINUOUS
 10
266.2081984147
 20
151.4922130303
 11
266.2081984147
 21
156.185554556
  0
LINE
  8
0
 62
7
  6
CONTINUOUS
 10
268.9081984147
 20
144.3535638759
 11
268.9081984147
 21
128.5611296977
  0
LINE
  8
0
 62
7
  6
CONTINUOUS
 10
305.37977129
 20
122.6639816807
 11
308.2366255395
 21
119.8071274312
  0
LINE
  8
0
 62
7
  6
CONTINUOUS
 10
303.67977129
 20
131.7789816807
 11
307.1116255395
 21
128.3471274312
  0
LINE
  8
0
 62
7
  6
CONTINUOUS
 10
266.2288625693
 20
151.3827987466
 11
268.8393178994
 21
144.7182781548
  0
LINE
  8
0
 62
7
  6
CONTINUOUS
 10
275.9081984147
 20
133.8824088055
 11
275.9081984147
 21
144.3535638759
  0
LINE
  8
0
 62
7
  6
CONTINUOUS
 10
278.6081984147
 20
151.4922130303
 11
278.6081984147
 21
156.185554556
  0
LINE
  8
0
 62
7
  6
CONTINUOUS
 10
278.9081984147
 20
94.785554556
 11
278.9081984147
 21
99.4788960817
  0
LINE
  8
0
 62
7
  6
CONTINUOUS
 10
281.6081984147
 20
116.9787003065
 11
281.6081984147
 21
106.6175452361
  0
LINE
  8
0
 62
7
  6
CONTINUOUS
 10
278.9288625693
 20
99.5883103654
 11
281.5393178994
 21
106.2528309572
  0
LINE
  8
0
 62
7
  6
CONTINUOUS
 10
319.85477129
 20
128.3471274312
 11
323.2866255395
 21
131.7789816807
  0
LINE
  8
0
 62
7
  6
CONTINUOUS
 10
317.57977129
 20
119.0821274312
 11
321.5616255395
 21
123.0639816807
  0
LINE
  8
0
 62
7
  6
CONTINUOUS
 10
291.2875342601
 20
99.5883103654
 11
288.67707893
 21
106.2528309572
  0
LINE
  8
0
 62
7
  6
CONTINUOUS
 10
288.6081984147
 20
106.6175452361
 11
288.6081984147
 21
116.9787003065
  0
LINE
  8
0
 62
7
  6
CONTINUOUS
 10
291.3081984147
 20
94.785554556
 11
291.3081984147
 21
99.4788960817
  0
LINE
  8
0
 62
7
  6
CONTINUOUS
 10
292.8081984147
 20
151.4922130303
 11
292.8081984147
 21
156.185554556
  0
LINE
  8
0
 62
7
  6
CONTINUOUS
 10
295.5081984147
 20
144.3535638759
 11
295.5081984147
 21
133.8824088055
  0
LINE
  8
0
 62
7
  6
CONTINUOUS
 10
302.57707893
 20
144.7182781548
 11
305.1875342601
 21
151.3827987466
  0
LINE
  8
0
 62
7
  6
CONTINUOUS
 10
334.30477129
 20
123.0639816807
 11
337.7031267513
 21
119.6656262194
  0
LINE
  8
0
 62
7
  6
CONTINUOUS
 10
292.8288625693
 20
151.3827987466
 11
295.4393178994
 21
144.7182781548
  0
LINE
  8
0
 62
7
  6
CONTINUOUS
 10
302.5081984147
 20
134.6074088055
 11
302.5081984147
 21
144.3535638759
  0
LINE
  8
0
 62
7
  6
CONTINUOUS
 10
305.2081984147
 20
151.4922130303
 11
305.2081984147
 21
156.185554556
  0
LINE
  8
0
 62
7
  6
CONTINUOUS
 10
306.7081984147
 20
94.785554556
 11
306.7081984147
 21
99.4788960817
  0
LINE
  8
0
 62
7
  6
CONTINUOUS
 10
319.0875342601
 20
99.5883103654
 11
316.47707893
 21
106.2528309572
  0
LINE
  8
0
 62
7
  6
CONTINUOUS
 10
309.4081984147
 20
116.9787003065
 11
309.4081984147
 21
106.6175452361
  0
LINE
  8
0
 62
7
  6
CONTINUOUS
 10
316.4081984147
 20
106.6175452361
 11
316.4081984147
 21
116.2537003065
  0
LINE
  8
0
 62
7
  6
CONTINUOUS
 10
306.7288625693
 20
99.5883103654
 11
309.3393178994
 21
106.2528309572
  0
LINE
  8
0
 62
7
  6
CONTINUOUS
 10
331.52707893
 20
144.7182781548
 11
334.1375342601
 21
151.3827987466
  0
LINE
  8
0
 62
7
  6
CONTINUOUS
 10
319.1081984147
 20
94.785554556
 11
319.1081984147
 21
99.4788960817
  0
LINE
  8
0
 62
7
  6
CONTINUOUS
 10
321.7581984147
 20
151.4922130303
 11
321.7581984147
 21
156.185554556
  0
LINE
  8
0
 62
7
  6
CONTINUOUS
 10
324.4581984147
 20
144.3535638759
 11
324.4581984147
 21
134.6074088055
  0
LINE
  8
0
 62
7
  6
CONTINUOUS
 10
339.326511468
 20
111.5300409289
 11
336.8006784431
 21
107.1551697983
  0
LINE
  8
0
 62
7
  6
CONTINUOUS
 10
321.7788625693
 20
151.3827987466
 11
324.3893178994
 21
144.7182781548
  0
POLYLINE
  8
0
 62
7
  6
CONTINUOUS
 66
1
 70
0
  0
VERTEX
  8
0
 62
7
  6
CONTINUOUS
 10
336.7604860642
 20
93.4092699336
  0
VERTEX
  8
0
 62
7
  6
CONTINUOUS
 10
336.7619818642
 20
93.3793493292
  0
VERTEX
  8
0
 62
7
  6
CONTINUOUS
 10
336.7664924709
 20
93.3495391453
  0
VERTEX
  8
0
 62
7
  6
CONTINUOUS
 10
336.7737876363
 20
93.3209296177
  0
VERTEX
  8
0
 62
7
  6
CONTINUOUS
 10
336.783813546
 20
93.293285807
  0
VERTEX
  8
0
 62
7
  6
CONTINUOUS
 10
336.7966501826
 20
93.266474179
  0
VERTEX
  8
0
 62
7
  6
CONTINUOUS
 10
336.812101532
 20
93.241028666
  0
VERTEX
  8
0
 62
7
  6
CONTINUOUS
 10
336.8301505351
 20
93.2170576967
  0
VERTEX
  8
0
 62
7
  6
CONTINUOUS
 10
336.8507570813
 20
93.1947617666
  0
VERTEX
  8
0
 62
7
  6
CONTINUOUS
 10
336.8735180414
 20
93.1746575758
  0
VERTEX
  8
0
 62
7
  6
CONTINUOUS
 10
336.8982784569
 20
93.1569037471
  0
VERTEX
  8
0
 62
7
  6
CONTINUOUS
 10
336.9251845541
 20
93.1415135119
  0
VERTEX
  8
0
 62
7
  6
CONTINUOUS
 10
336.9529756794
 20
93.1291958057
  0
SEQEND
  0
LINE
  8
0
 62
7
  6
CONTINUOUS
 10
331.4581984147
 20
132.596263894
 11
331.4581984147
 21
144.3535638759
  0
LINE
  8
0
 62
7
  6
CONTINUOUS
 10
334.1581984147
 20
151.4922130303
 11
334.1581984147
 21
156.185554556
  0
LINE
  8
0
 62
7
  6
CONTINUOUS
 10
336.7604860642
 20
93.4092699336
 11
336.7604860642
 21
107.0051697983
  0
LINE
  8
0
 62
7
  6
CONTINUOUS
 10
339.4604860642
 20
115.4229855322
 11
339.4604860642
 21
112.0300409289
  0
LINE
  8
0
 62
7
  6
CONTINUOUS
 10
346.4604860642
 20
94.9222426629
 11
346.4604860642
 21
121.3850225525
  0
LINE
  8
0
 62
7
  6
CONTINUOUS
 10
382.3462187077
 20
91.1021088177
 11
382.5280733994
 21
91.1476193081
  0
LINE
  8
0
 62
7
  6
CONTINUOUS
 10
382.1715938286
 20
91.0651764365
 11
382.348299127
 21
91.1025874698
  0
LINE
  8
0
 62
7
  6
CONTINUOUS
 10
382.0022683686
 20
91.0350895921
 11
382.1751422217
 21
91.0658652015
  0
LINE
  8
0
 62
7
  6
CONTINUOUS
 10
381.8368770208
 20
91.0106289838
 11
382.0071859132
 21
91.035888962
  0
LINE
  8
0
 62
7
  6
CONTINUOUS
 10
381.6741366117
 20
90.9908332073
 11
381.8427145646
 21
91.0114149345
  0
LINE
  8
0
 62
7
  6
CONTINUOUS
 10
381.5137002972
 20
90.9750055318
 11
381.6802766317
 21
90.9915087994
  0
LINE
  8
0
 62
7
  6
CONTINUOUS
 10
381.3553631026
 20
90.9625521019
 11
381.5196638701
 21
90.9755335371
  0
LINE
  8
0
 62
7
  6
CONTINUOUS
 10
381.1988505154
 20
90.9529484677
 11
381.3608127738
 21
90.9629327606
  0
LINE
  8
0
 62
7
  6
CONTINUOUS
 10
381.0442415905
 20
90.9457127408
 11
381.2035933773
 21
90.9532037095
  0
LINE
  8
0
 62
7
  6
CONTINUOUS
 10
380.8922108636
 20
90.9404179623
 11
381.0482188575
 21
90.9458740709
  0
LINE
  8
0
 62
7
  6
CONTINUOUS
 10
380.7441086735
 20
90.936720952
 11
380.8953986741
 21
90.9405125234
  0
LINE
  8
0
 62
7
  6
CONTINUOUS
 10
380.6011281906
 20
90.9343120591
 11
380.7465070365
 21
90.9367705448
  0
LINE
  8
0
 62
7
  6
CONTINUOUS
 10
380.4641982927
 20
90.9329155464
 11
380.6027641969
 21
90.934333863
  0
LINE
  8
0
 62
7
  6
CONTINUOUS
 10
380.3313830739
 20
90.9322939123
 11
380.4651302542
 21
90.9329223207
  0
LINE
  8
0
 62
7
  6
CONTINUOUS
 10
380.1999286669
 20
90.9322799289
 11
380.3313830739
 21
90.9322939123
  0
LINE
  8
0
 62
7
  6
CONTINUOUS
 10
380.0659035251
 20
90.9328881846
 11
380.1996044026
 21
90.9322806027
  0
LINE
  8
0
 62
7
  6
CONTINUOUS
 10
379.9276049383
 20
90.9342877669
 11
380.0668694042
 21
90.9328812943
  0
LINE
  8
0
 62
7
  6
CONTINUOUS
 10
379.7831272906
 20
90.936714288
 11
379.9292824518
 21
90.9342656649
  0
LINE
  8
0
 62
7
  6
CONTINUOUS
 10
379.6335637682
 20
90.9404497338
 11
379.7855710516
 21
90.9366641434
  0
LINE
  8
0
 62
7
  6
CONTINUOUS
 10
379.4801930732
 20
90.9458066801
 11
379.6367984245
 21
90.940354292
  0
LINE
  8
0
 62
7
  6
CONTINUOUS
 10
379.3244246589
 20
90.9531338304
 11
379.4842154894
 21
90.945644113
  0
LINE
  8
0
 62
7
  6
CONTINUOUS
 10
379.1668903709
 20
90.9628593701
 11
379.329210386
 21
90.9528768995
  0
LINE
  8
0
 62
7
  6
CONTINUOUS
 10
379.0077393614
 20
90.9754653957
 11
379.1723732797
 21
90.9624772712
  0
LINE
  8
0
 62
7
  6
CONTINUOUS
 10
378.8469198336
 20
90.9914756174
 11
379.0137184268
 21
90.9749362686
  0
LINE
  8
0
 62
7
  6
CONTINUOUS
 10
378.6844160449
 20
91.011428451
 11
378.8530522502
 21
90.9907996649
  0
LINE
  8
0
 62
7
  6
CONTINUOUS
 10
378.5199833646
 20
91.0359292071
 11
378.6902286366
 21
91.0106443948
  0
LINE
  8
0
 62
7
  6
CONTINUOUS
 10
378.3520982744
 20
91.0658924617
 11
378.5248658296
 21
91.0351349199
  0
LINE
  8
0
 62
7
  6
CONTINUOUS
 10
378.17902952
 20
91.1025464204
 11
378.3556167959
 21
91.0652099563
  0
LINE
  8
0
 62
7
  6
CONTINUOUS
 10
377.9993916299
 20
91.1474493403
 11
378.1810945108
 21
91.1020721994
  0
LINE
  8
0
 62
7
  6
CONTINUOUS
 10
377.8234939605
 20
91.1988855516
 11
378.0002080938
 21
91.14722837
  0
LINE
  8
0
 62
7
  6
CONTINUOUS
 10
377.8234939605
 20
91.1988855516
 11
377.8232610044
 21
91.1989591737
  0
LINE
  8
DEFAULT_1
 62
2
  6
CENTER
 10
380.2633391784
 20
100.085554556
 11
375.2632391784
 21
100.085554556
  0
LINE
  8
DEFAULT_1
 62
2
  6
CENTER
 10
380.2633391784
 20
100.085554556
 11
385.2634391784
 21
100.085554556
  0
POLYLINE
  8
0
 62
7
  6
CONTINUOUS
 66
1
 70
0
  0
VERTEX
  8
0
 62
7
  6
CONTINUOUS
 10
373.8251173997
 20
94.794800872
  0
VERTEX
  8
0
 62
7
  6
CONTINUOUS
 10
373.9187262167
 20
94.6021384143
  0
VERTEX
  8
0
 62
7
  6
CONTINUOUS
 10
374.0277457263
 20
94.3932965391
  0
VERTEX
  8
0
 62
7
  6
CONTINUOUS
 10
374.1460328661
 20
94.1830135377
  0
VERTEX
  8
0
 62
7
  6
CONTINUOUS
 10
374.2736231321
 20
93.9726350371
  0
VERTEX
  8
0
 62
7
  6
CONTINUOUS
 10
374.4106454871
 20
93.7631864003
  0
VERTEX
  8
0
 62
7
  6
CONTINUOUS
 10
374.557030971
 20
93.5557824429
  0
VERTEX
  8
0
 62
7
  6
CONTINUOUS
 10
374.7129839289
 20
93.3511213745
  0
VERTEX
  8
0
 62
7
  6
CONTINUOUS
 10
374.8792727276
 20
93.1492923016
  0
VERTEX
  8
0
 62
7
  6
CONTINUOUS
 10
375.0568151022
 20
92.9504581293
  0
VERTEX
  8
0
 62
7
  6
CONTINUOUS
 10
375.2462744406
 20
92.7550553003
  0
VERTEX
  8
0
 62
7
  6
CONTINUOUS
 10
375.4480611121
 20
92.5637087813
  0
VERTEX
  8
0
 62
7
  6
CONTINUOUS
 10
375.6626729561
 20
92.3771797613
  0
VERTEX
  8
0
 62
7
  6
CONTINUOUS
 10
375.8904813922
 20
92.1964211267
  0
VERTEX
  8
0
 62
7
  6
CONTINUOUS
 10
376.1310419641
 20
92.0229487266
  0
VERTEX
  8
0
 62
7
  6
CONTINUOUS
 10
376.3843856859
 20
91.8578240541
  0
VERTEX
  8
0
 62
7
  6
CONTINUOUS
 10
376.650607832
 20
91.7020119504
  0
VERTEX
  8
0
 62
7
  6
CONTINUOUS
 10
376.9294693994
 20
91.5565076728
  0
VERTEX
  8
0
 62
7
  6
CONTINUOUS
 10
377.2202819633
 20
91.4227661367
  0
VERTEX
  8
0
 62
7
  6
CONTINUOUS
 10
377.5225205299
 20
91.3019547623
  0
VERTEX
  8
0
 62
7
  6
CONTINUOUS
 10
377.8232421397
 20
91.198955584
  0
SEQEND
  0
POLYLINE
  8
0
 62
7
  6
CONTINUOUS
 66
1
 70
0
  0
VERTEX
  8
0
 62
7
  6
CONTINUOUS
 10
372.7633391784
 20
99.588682563
  0
VERTEX
  8
0
 62
7
  6
CONTINUOUS
 10
372.7718001247
 20
99.1515610086
  0
VERTEX
  8
0
 62
7
  6
CONTINUOUS
 10
372.7985267946
 20
98.6968934557
  0
VERTEX
  8
0
 62
7
  6
CONTINUOUS
 10
372.84355379
 20
98.2424316327
  0
VERTEX
  8
0
 62
7
  6
CONTINUOUS
 10
372.9067961392
 20
97.7896159955
  0
VERTEX
  8
0
 62
7
  6
CONTINUOUS
 10
372.9880650096
 20
97.3398685513
  0
VERTEX
  8
0
 62
7
  6
CONTINUOUS
 10
373.0870678389
 20
96.8946001021
  0
VERTEX
  8
0
 62
7
  6
CONTINUOUS
 10
373.2034184068
 20
96.4551688641
  0
VERTEX
  8
0
 62
7
  6
CONTINUOUS
 10
373.3366421001
 20
96.022879471
  0
VERTEX
  8
0
 62
7
  6
CONTINUOUS
 10
373.4861716346
 20
95.5990031282
  0
VERTEX
  8
0
 62
7
  6
CONTINUOUS
 10
373.6513464206
 20
95.1847712528
  0
VERTEX
  8
0
 62
7
  6
CONTINUOUS
 10
373.8251009971
 20
94.7947931745
  0
SEQEND
  0
LINE
  8
0
 62
7
  6
CONTINUOUS
 10
372.7633391784
 20
99.435554556
 11
372.7633391784
 21
151.535554556
  0
LINE
  8
0
 62
7
  6
CONTINUOUS
 10
377.1633391784
 20
150.885554556
 11
377.1633391784
 21
134.385554556
  0
LINE
  8
DEFAULT_1
 62
2
  6
CENTER
 10
380.2633391784
 20
150.885554556
 11
380.2633391784
 21
145.885454556
  0
LINE
  8
DEFAULT_1
 62
2
  6
CENTER
 10
380.2633391784
 20
100.085554556
 11
380.2633391784
 21
95.085454556
  0
LINE
  8
DEFAULT_1
 62
2
  6
CENTER
 10
380.2633391784
 20
100.085554556
 11
380.2633391784
 21
105.085654556
  0
LINE
  8
DEFAULT_1
 62
2
  6
CENTER
 10
380.2633391784
 20
150.885554556
 11
380.2633391784
 21
155.885654556
  0
LINE
  8
DEFAULT_1
 62
2
  6
CENTER
 10
393.5528128626
 20
125.485554556
 11
366.9738654941
 21
125.485554556
  0
LINE
  8
0
 62
7
  6
CONTINUOUS
 10
383.3633391784
 20
134.385554556
 11
383.3633391784
 21
150.885554556
  0
LINE
  8
0
 62
7
  6
CONTINUOUS
 10
387.7633391784
 20
99.435554556
 11
387.7633391784
 21
151.535554556
  0
POLYLINE
  8
0
 62
7
  6
CONTINUOUS
 66
1
 70
0
  0
VERTEX
  8
0
 62
7
  6
CONTINUOUS
 10
387.7280441117
 20
98.6955325629
  0
VERTEX
  8
0
 62
7
  6
CONTINUOUS
 10
387.7548256534
 20
99.1502040286
  0
VERTEX
  8
0
 62
7
  6
CONTINUOUS
 10
387.7633391784
 20
99.588682563
  0
SEQEND
  0
POLYLINE
  8
0
 62
7
  6
CONTINUOUS
 66
1
 70
0
  0
VERTEX
  8
0
 62
7
  6
CONTINUOUS
 10
386.7015773597
 20
94.7947931745
  0
VERTEX
  8
0
 62
7
  6
CONTINUOUS
 10
386.8748072388
 20
95.1835291955
  0
VERTEX
  8
0
 62
7
  6
CONTINUOUS
 10
387.0400293922
 20
95.5977324985
  0
VERTEX
  8
0
 62
7
  6
CONTINUOUS
 10
387.1896081679
 20
96.021583805
  0
VERTEX
  8
0
 62
7
  6
CONTINUOUS
 10
387.3228827476
 20
96.4538519287
  0
VERTEX
  8
0
 62
7
  6
CONTINUOUS
 10
387.4392856043
 20
96.8932658868
  0
VERTEX
  8
0
 62
7
  6
CONTINUOUS
 10
387.538341861
 20
97.3385212455
  0
VERTEX
  8
0
 62
7
  6
CONTINUOUS
 10
387.6196649985
 20
97.7882598917
  0
VERTEX
  8
0
 62
7
  6
CONTINUOUS
 10
387.682962132
 20
98.2410710132
  0
VERTEX
  8
0
 62
7
  6
CONTINUOUS
 10
387.7280441117
 20
98.695532563
  0
SEQEND
  0
LINE
  8
DEFAULT_1
 62
2
  6
CENTER
 10
380.2633391784
 20
150.885554556
 11
375.2632391784
 21
150.885554556
  0
LINE
  8
DEFAULT_1
 62
2
  6
CENTER
 10
380.2633391784
 20
150.885554556
 11
385.2634391784
 21
150.885554556
  0
POLYLINE
  8
0
 62
7
  6
CONTINUOUS
 66
1
 70
0
  0
VERTEX
  8
0
 62
7
  6
CONTINUOUS
 10
382.7034365256
 20
91.1989556721
  0
VERTEX
  8
0
 62
7
  6
CONTINUOUS
 10
383.0052119962
 20
91.3023439898
  0
VERTEX
  8
0
 62
7
  6
CONTINUOUS
 10
383.3074339444
 20
91.4232095329
  0
VERTEX
  8
0
 62
7
  6
CONTINUOUS
 10
383.5981801479
 20
91.5569827663
  0
VERTEX
  8
0
 62
7
  6
CONTINUOUS
 10
383.8769657674
 20
91.7025075692
  0
VERTEX
  8
0
 62
7
  6
CONTINUOUS
 10
384.1431264867
 20
91.8583395753
  0
VERTEX
  8
0
 62
7
  6
CONTINUOUS
 10
384.3964962409
 20
92.023537739
  0
VERTEX
  8
0
 62
7
  6
CONTINUOUS
 10
384.6371747435
 20
92.1971742366
  0
VERTEX
  8
0
 62
7
  6
CONTINUOUS
 10
384.8648528076
 20
92.3778867787
  0
VERTEX
  8
0
 62
7
  6
CONTINUOUS
 10
385.0792512325
 20
92.5642856856
  0
VERTEX
  8
0
 62
7
  6
CONTINUOUS
 10
385.2807596976
 20
92.7554302862
  0
VERTEX
  8
0
 62
7
  6
CONTINUOUS
 10
385.4701351781
 20
92.9507780053
  0
VERTEX
  8
0
 62
7
  6
CONTINUOUS
 10
385.6476795119
 20
93.1496287971
  0
VERTEX
  8
0
 62
7
  6
CONTINUOUS
 10
385.8140812412
 20
93.3516236081
  0
VERTEX
  8
0
 62
7
  6
CONTINUOUS
 10
385.9701391152
 20
93.5564398543
  0
VERTEX
  8
0
 62
7
  6
CONTINUOUS
 10
386.11648544
 20
93.7637781763
  0
VERTEX
  8
0
 62
7
  6
CONTINUOUS
 10
386.2533440555
 20
93.9729496557
  0
VERTEX
  8
0
 62
7
  6
CONTINUOUS
 10
386.3807539813
 20
94.1830322585
  0
VERTEX
  8
0
 62
7
  6
CONTINUOUS
 10
386.4989674769
 20
94.3932379602
  0
VERTEX
  8
0
 62
7
  6
CONTINUOUS
 10
386.6081194458
 20
94.6024281843
  0
VERTEX
  8
0
 62
7
  6
CONTINUOUS
 10
386.7015609633
 20
94.794800869
  0
SEQEND
  0
LINE
  8
0
 62
7
  6
CONTINUOUS
 10
382.7032021268
 20
91.198882094
 11
382.7034365256
 21
91.1989556721
  0
LINE
  8
0
 62
7
  6
CONTINUOUS
 10
382.5272563945
 20
91.1473977237
 11
382.7031838837
 21
91.1988853903
  0
LINE
  8
0
 62
7
  6
CONTINUOUS
 10
380.4133391784
 20
158.885554556
 11
380.1133391784
 21
158.885554556
  0
LINE
  8
0
 62
7
  6
CONTINUOUS
 10
20.5604860642
 20
219.8746054025
 11
20.5604860642
 21
205.4746054025
  0
LINE
  8
0
 62
7
  6
CONTINUOUS
 10
30.2604860642
 20
205.4746054025
 11
30.2604860642
 21
219.8746054025
  0
LINE
  8
0
 62
7
  6
CONTINUOUS
 10
47.9127737137
 20
207.8746054025
 11
47.9127737137
 21
217.4746054025
  0
LINE
  8
0
 62
7
  6
CONTINUOUS
 10
60.3127737137
 20
207.8746054025
 11
60.3127737137
 21
217.4746054025
  0
LINE
  8
0
 62
7
  6
CONTINUOUS
 10
75.7127737137
 20
207.8746054025
 11
75.7127737137
 21
217.4746054025
  0
LINE
  8
0
 62
7
  6
CONTINUOUS
 10
88.1127737137
 20
207.8746054025
 11
88.1127737137
 21
217.4746054025
  0
LINE
  8
0
 62
7
  6
CONTINUOUS
 10
101.1127737137
 20
207.8746054025
 11
101.1127737137
 21
217.4746054025
  0
LINE
  8
0
 62
7
  6
CONTINUOUS
 10
113.5104860642
 20
217.4746054025
 11
113.5104860642
 21
207.8746054025
  0
LINE
  8
0
 62
7
  6
CONTINUOUS
 10
126.5104860642
 20
207.8746054025
 11
126.5104860642
 21
217.4746054025
  0
LINE
  8
0
 62
7
  6
CONTINUOUS
 10
138.9104860642
 20
217.4746054025
 11
138.9104860642
 21
207.8746054025
  0
LINE
  8
0
 62
7
  6
CONTINUOUS
 10
151.9104860642
 20
207.8746054025
 11
151.9104860642
 21
217.4746054025
  0
LINE
  8
0
 62
7
  6
CONTINUOUS
 10
164.3104860642
 20
217.4746054025
 11
164.3104860642
 21
207.8746054025
  0
LINE
  8
0
 62
7
  6
CONTINUOUS
 10
177.3104860642
 20
207.8746054025
 11
177.3104860642
 21
217.4746054025
  0
LINE
  8
DEFAULT_1
 62
2
  6
CENTER
 10
183.5104860642
 20
225.9640790867
 11
183.5104860642
 21
199.3851317182
  0
LINE
  8
0
 62
7
  6
CONTINUOUS
 10
20.8604860642
 20
205.1746054025
 11
346.1604860642
 21
205.1746054025
  0
LINE
  8
DEFAULT_1
 62
2
  6
CENTER
 10
14.06968692
 20
212.6746054025
 11
352.951286383
 21
212.6746054025
  0
LINE
  8
0
 62
7
  6
CONTINUOUS
 10
189.7104860642
 20
217.4746054025
 11
189.7104860642
 21
207.8746054025
  0
LINE
  8
0
 62
7
  6
CONTINUOUS
 10
20.8604860642
 20
220.1746054025
 11
346.1604860642
 21
220.1746054025
  0
LINE
  8
0
 62
7
  6
CONTINUOUS
 10
202.7104860642
 20
207.8746054025
 11
202.7104860642
 21
217.4746054025
  0
LINE
  8
0
 62
7
  6
CONTINUOUS
 10
215.1104860642
 20
217.4746054025
 11
215.1104860642
 21
207.8746054025
  0
LINE
  8
0
 62
7
  6
CONTINUOUS
 10
228.1104860642
 20
207.8746054025
 11
228.1104860642
 21
217.4746054025
  0
LINE
  8
0
 62
7
  6
CONTINUOUS
 10
240.5104860642
 20
217.4746054025
 11
240.5104860642
 21
207.8746054025
  0
LINE
  8
0
 62
7
  6
CONTINUOUS
 10
253.5104860642
 20
207.8746054025
 11
253.5104860642
 21
217.4746054025
  0
LINE
  8
0
 62
7
  6
CONTINUOUS
 10
265.9081984147
 20
217.4746054025
 11
265.9081984147
 21
207.8746054025
  0
LINE
  8
0
 62
7
  6
CONTINUOUS
 10
278.9081984147
 20
207.8746054025
 11
278.9081984147
 21
217.4746054025
  0
LINE
  8
0
 62
7
  6
CONTINUOUS
 10
291.3081984147
 20
217.4746054025
 11
291.3081984147
 21
207.8746054025
  0
LINE
  8
0
 62
7
  6
CONTINUOUS
 10
306.7081984147
 20
207.8746054025
 11
306.7081984147
 21
217.4746054025
  0
LINE
  8
0
 62
7
  6
CONTINUOUS
 10
319.1081984147
 20
207.8746054025
 11
319.1081984147
 21
217.4746054025
  0
LINE
  8
0
 62
7
  6
CONTINUOUS
 10
336.7604860642
 20
205.4746054025
 11
336.7604860642
 21
219.8746054025
  0
LINE
  8
0
 62
7
  6
CONTINUOUS
 10
346.4604860642
 20
205.4746054025
 11
346.4604860642
 21
219.8746054025
  0
ARC
  8
0
 62
7
  6
CONTINUOUS
 10
24.5604860642
 20
94.9222426629
 40
4.0
 50
180.0
 51
265.7911424159
  0
ARC
  8
0
 62
7
  6
CONTINUOUS
 10
57.6127737137
 20
94.785554556
 40
2.7
 50
270.0
 51
360.0
  0
ARC
  8
0
 62
7
  6
CONTINUOUS
 10
50.6127737137
 20
94.785554556
 40
2.7
 50
180.0
 51
270.0
  0
ARC
  8
0
 62
7
  6
CONTINUOUS
 10
78.4127737137
 20
94.785554556
 40
2.7
 50
180.0
 51
270.0
  0
ARC
  8
0
 62
7
  6
CONTINUOUS
 10
85.4127737137
 20
94.785554556
 40
2.7
 50
270.0
 51
360.0
  0
ARC
  8
0
 62
7
  6
CONTINUOUS
 10
49.6127737137
 20
106.6175452361
 40
1.0
 50
338.61
 51
360.0
  0
ARC
  8
0
 62
7
  6
CONTINUOUS
 10
77.4127737137
 20
106.6175452361
 40
1.0
 50
338.61
 51
360.0
  0
ARC
  8
0
 62
7
  6
CONTINUOUS
 10
58.6127737137
 20
106.6175452361
 40
1.0
 50
180.0
 51
201.39
  0
ARC
  8
0
 62
7
  6
CONTINUOUS
 10
86.4127737137
 20
106.6175452361
 40
1.0
 50
180.0
 51
201.39
  0
ARC
  8
0
 62
7
  6
CONTINUOUS
 10
29.9604860642
 20
107.0051697983
 40
0.3
 50
0.0
 51
30.0
  0
ARC
  8
0
 62
7
  6
CONTINUOUS
 10
48.2127737137
 20
99.4788960817
 40
0.3
 50
158.61
 51
180.0
  0
ARC
  8
0
 62
7
  6
CONTINUOUS
 10
76.0127737137
 20
99.4788960817
 40
0.3
 50
158.61
 51
180.0
  0
ARC
  8
0
 62
7
  6
CONTINUOUS
 10
101.4127737137
 20
99.4788960817
 40
0.3
 50
158.61
 51
180.0
  0
ARC
  8
0
 62
7
  6
CONTINUOUS
 10
60.0127737137
 20
99.4788960817
 40
0.3
 50
0.0
 51
21.39
  0
ARC
  8
0
 62
7
  6
CONTINUOUS
 10
87.8127737137
 20
99.4788960817
 40
0.3
 50
0.0
 51
21.39
  0
ARC
  8
0
 62
7
  6
CONTINUOUS
 10
33.5604860642
 20
115.4229855322
 40
6.0
 50
135.0
 51
180.0
  0
ARC
  8
0
 62
7
  6
CONTINUOUS
 10
46.6127737137
 20
116.2537003065
 40
4.0
 50
0.0
 51
45.0
  0
ARC
  8
0
 62
7
  6
CONTINUOUS
 10
35.5446279632
 20
120.235554556
 40
4.0
 50
90.0
 51
135.0
  0
ARC
  8
0
 62
7
  6
CONTINUOUS
 10
42.6309194642
 20
120.235554556
 40
4.0
 50
45.0
 51
90.0
  0
ARC
  8
0
 62
7
  6
CONTINUOUS
 10
64.4696279632
 20
119.835554556
 40
4.0
 50
90.0
 51
135.0
  0
ARC
  8
0
 62
7
  6
CONTINUOUS
 10
71.5559194642
 20
119.835554556
 40
4.0
 50
45.0
 51
90.0
  0
ARC
  8
0
 62
7
  6
CONTINUOUS
 10
74.4127737137
 20
116.9787003065
 40
4.0
 50
0.0
 51
45.0
  0
ARC
  8
0
 62
7
  6
CONTINUOUS
 10
61.6127737137
 20
116.9787003065
 40
4.0
 50
135.0
 51
180.0
  0
ARC
  8
0
 62
7
  6
CONTINUOUS
 10
91.7696279632
 20
119.335554556
 40
4.0
 50
90.0
 51
135.0
  0
ARC
  8
0
 62
7
  6
CONTINUOUS
 10
89.4127737137
 20
116.9787003065
 40
4.0
 50
135.0
 51
180.0
  0
ARC
  8
0
 62
7
  6
CONTINUOUS
 10
23.5604860642
 20
121.3850225525
 40
3.0
 50
113.9379806067
 51
180.0
  0
ARC
  8
0
 62
7
  6
CONTINUOUS
 10
28.5604860642
 20
112.0300409289
 40
1.0
 50
180.0
 51
210.0
  0
ARC
  8
0
 62
7
  6
CONTINUOUS
 10
161.6104860642
 20
94.785554556
 40
2.7
 50
270.0
 51
360.0
  0
ARC
  8
0
 62
7
  6
CONTINUOUS
 10
180.0104860642
 20
94.785554556
 40
2.7
 50
180.0
 51
270.0
  0
ARC
  8
0
 62
7
  6
CONTINUOUS
 10
154.6104860642
 20
94.785554556
 40
2.7
 50
180.0
 51
270.0
  0
ARC
  8
0
 62
7
  6
CONTINUOUS
 10
136.2104860642
 20
94.785554556
 40
2.7
 50
270.0
 51
360.0
  0
ARC
  8
0
 62
7
  6
CONTINUOUS
 10
110.8104860642
 20
94.785554556
 40
2.7
 50
270.0
 51
360.0
  0
ARC
  8
0
 62
7
  6
CONTINUOUS
 10
129.2104860642
 20
94.785554556
 40
2.7
 50
180.0
 51
270.0
  0
ARC
  8
0
 62
7
  6
CONTINUOUS
 10
103.8127737137
 20
94.785554556
 40
2.7
 50
180.0
 51
270.0
  0
ARC
  8
0
 62
7
  6
CONTINUOUS
 10
162.6104860642
 20
106.6180207115
 40
1.0
 50
180.0
 51
201.3886228278
  0
ARC
  8
0
 62
7
  6
CONTINUOUS
 10
179.0104860642
 20
106.6180207115
 40
1.0
 50
338.6113771722
 51
360.0
  0
ARC
  8
0
 62
7
  6
CONTINUOUS
 10
137.2104860642
 20
106.6180207115
 40
1.0
 50
180.0
 51
201.3886228278
  0
ARC
  8
0
 62
7
  6
CONTINUOUS
 10
153.6104860642
 20
106.6180207115
 40
1.0
 50
338.6113771722
 51
360.0
  0
ARC
  8
0
 62
7
  6
CONTINUOUS
 10
128.2104860642
 20
106.6180207115
 40
1.0
 50
338.6113771722
 51
360.0
  0
ARC
  8
0
 62
7
  6
CONTINUOUS
 10
111.8104860642
 20
106.6180207115
 40
1.0
 50
180.0
 51
201.3886228278
  0
ARC
  8
0
 62
7
  6
CONTINUOUS
 10
102.8127737137
 20
106.6175452361
 40
1.0
 50
338.61
 51
360.0
  0
ARC
  8
0
 62
7
  6
CONTINUOUS
 10
177.6104860642
 20
99.4788998157
 40
0.3
 50
158.6113771722
 51
180.0
  0
ARC
  8
0
 62
7
  6
CONTINUOUS
 10
164.0104860642
 20
99.4788998157
 40
0.3
 50
0.0
 51
21.3886228278
  0
ARC
  8
0
 62
7
  6
CONTINUOUS
 10
138.6104860642
 20
99.4788998157
 40
0.3
 50
0.0
 51
21.3886228278
  0
ARC
  8
0
 62
7
  6
CONTINUOUS
 10
152.2104860642
 20
99.4788998157
 40
0.3
 50
158.6113771722
 51
180.0
  0
ARC
  8
0
 62
7
  6
CONTINUOUS
 10
126.8104860642
 20
99.4788998157
 40
0.3
 50
158.6113771722
 51
180.0
  0
ARC
  8
0
 62
7
  6
CONTINUOUS
 10
113.2104860642
 20
99.4788998157
 40
0.3
 50
0.0
 51
21.3886228278
  0
ARC
  8
0
 62
7
  6
CONTINUOUS
 10
178.0104860642
 20
120.685554556
 40
2.0
 50
0.0
 51
90.0
  0
ARC
  8
0
 62
7
  6
CONTINUOUS
 10
163.6104860642
 20
120.685554556
 40
2.0
 50
90.0
 51
180.0
  0
ARC
  8
0
 62
7
  6
CONTINUOUS
 10
138.2104860642
 20
120.685554556
 40
2.0
 50
90.0
 51
180.0
  0
ARC
  8
0
 62
7
  6
CONTINUOUS
 10
152.6104860642
 20
120.685554556
 40
2.0
 50
0.0
 51
90.0
  0
ARC
  8
0
 62
7
  6
CONTINUOUS
 10
127.2104860642
 20
120.685554556
 40
2.0
 50
0.0
 51
90.0
  0
ARC
  8
0
 62
7
  6
CONTINUOUS
 10
112.8104860642
 20
120.685554556
 40
2.0
 50
90.0
 51
180.0
  0
ARC
  8
0
 62
7
  6
CONTINUOUS
 10
101.8127737137
 20
121.335554556
 40
2.0
 50
0.0
 51
90.0
  0
ARC
  8
0
 62
7
  6
CONTINUOUS
 10
84.8559194642
 20
131.625554556
 40
4.0
 50
270.0
 51
315.0
  0
ARC
  8
0
 62
7
  6
CONTINUOUS
 10
77.7696279632
 20
131.625554556
 40
4.0
 50
225.0
 51
270.0
  0
ARC
  8
0
 62
7
  6
CONTINUOUS
 10
75.5127737137
 20
133.8824088055
 40
4.0
 50
180.0
 51
225.0
  0
ARC
  8
0
 62
7
  6
CONTINUOUS
 10
87.1127737137
 20
133.8824088055
 40
4.0
 50
315.0
 51
360.0
  0
ARC
  8
0
 62
7
  6
CONTINUOUS
 10
46.5627737137
 20
134.6074088055
 40
4.0
 50
180.0
 51
225.0
  0
ARC
  8
0
 62
7
  6
CONTINUOUS
 10
49.9946279632
 20
131.175554556
 40
4.0
 50
225.0
 51
270.0
  0
ARC
  8
0
 62
7
  6
CONTINUOUS
 10
60.5127737137
 20
134.6074088055
 40
4.0
 50
315.0
 51
360.0
  0
ARC
  8
0
 62
7
  6
CONTINUOUS
 10
57.0809194642
 20
131.175554556
 40
4.0
 50
270.0
 51
315.0
  0
ARC
  8
0
 62
7
  6
CONTINUOUS
 10
31.5627737137
 20
132.596263894
 40
4.0
 50
293.9379806067
 51
360.0
  0
ARC
  8
0
 62
7
  6
CONTINUOUS
 10
100.1127737137
 20
130.1108945897
 40
2.0
 50
180.0
 51
270.0
  0
ARC
  8
0
 62
7
  6
CONTINUOUS
 10
91.1127737137
 20
156.185554556
 40
2.7
 50
90.0
 51
180.0
  0
ARC
  8
0
 62
7
  6
CONTINUOUS
 10
98.1127737137
 20
156.185554556
 40
2.7
 50
0.0
 51
90.0
  0
ARC
  8
0
 62
7
  6
CONTINUOUS
 10
35.5627737137
 20
156.185554556
 40
2.7
 50
90.0
 51
180.0
  0
ARC
  8
0
 62
7
  6
CONTINUOUS
 10
42.5627737137
 20
156.185554556
 40
2.7
 50
0.0
 51
90.0
  0
ARC
  8
0
 62
7
  6
CONTINUOUS
 10
71.5127737137
 20
156.185554556
 40
2.7
 50
0.0
 51
90.0
  0
ARC
  8
0
 62
7
  6
CONTINUOUS
 10
64.5127737137
 20
156.185554556
 40
2.7
 50
90.0
 51
180.0
  0
ARC
  8
0
 62
7
  6
CONTINUOUS
 10
72.5127737137
 20
144.3535638759
 40
1.0
 50
158.61
 51
180.0
  0
ARC
  8
0
 62
7
  6
CONTINUOUS
 10
90.1127737137
 20
144.3535638759
 40
1.0
 50
0.0
 51
21.39
  0
ARC
  8
0
 62
7
  6
CONTINUOUS
 10
43.5627737137
 20
144.3535638759
 40
1.0
 50
158.61
 51
180.0
  0
ARC
  8
0
 62
7
  6
CONTINUOUS
 10
63.5127737137
 20
144.3535638759
 40
1.0
 50
0.0
 51
21.39
  0
ARC
  8
0
 62
7
  6
CONTINUOUS
 10
34.5627737137
 20
144.3535638759
 40
1.0
 50
0.0
 51
21.39
  0
ARC
  8
0
 62
7
  6
CONTINUOUS
 10
99.1127737137
 20
144.3535638759
 40
1.0
 50
158.61
 51
180.0
  0
ARC
  8
0
 62
7
  6
CONTINUOUS
 10
73.9127737137
 20
151.4922130303
 40
0.3
 50
338.61
 51
360.0
  0
ARC
  8
0
 62
7
  6
CONTINUOUS
 10
88.7127737137
 20
151.4922130303
 40
0.3
 50
180.0
 51
201.39
  0
ARC
  8
0
 62
7
  6
CONTINUOUS
 10
62.1127737137
 20
151.4922130303
 40
0.3
 50
180.0
 51
201.39
  0
ARC
  8
0
 62
7
  6
CONTINUOUS
 10
44.9627737137
 20
151.4922130303
 40
0.3
 50
338.61
 51
360.0
  0
ARC
  8
0
 62
7
  6
CONTINUOUS
 10
33.1627737137
 20
151.4922130303
 40
0.3
 50
180.0
 51
201.39
  0
ARC
  8
0
 62
7
  6
CONTINUOUS
 10
100.5127737137
 20
151.4922130303
 40
0.3
 50
338.61
 51
360.0
  0
ARC
  8
0
 62
7
  6
CONTINUOUS
 10
150.9104860642
 20
130.1108945897
 40
2.0
 50
180.0
 51
270.0
  0
ARC
  8
0
 62
7
  6
CONTINUOUS
 10
139.9104860642
 20
130.1108945897
 40
2.0
 50
270.0
 51
360.0
  0
ARC
  8
0
 62
7
  6
CONTINUOUS
 10
125.5104860642
 20
130.1108945897
 40
2.0
 50
180.0
 51
270.0
  0
ARC
  8
0
 62
7
  6
CONTINUOUS
 10
114.5104860642
 20
130.1108945897
 40
2.0
 50
270.0
 51
360.0
  0
ARC
  8
0
 62
7
  6
CONTINUOUS
 10
165.3104860642
 20
130.1108945897
 40
2.0
 50
270.0
 51
360.0
  0
ARC
  8
0
 62
7
  6
CONTINUOUS
 10
176.3104860642
 20
130.1108945897
 40
2.0
 50
180.0
 51
270.0
  0
ARC
  8
0
 62
7
  6
CONTINUOUS
 10
140.9104860642
 20
144.3535638759
 40
1.0
 50
0.0
 51
21.39
  0
ARC
  8
0
 62
7
  6
CONTINUOUS
 10
115.5104860642
 20
144.3535638759
 40
1.0
 50
0.0
 51
21.39
  0
ARC
  8
0
 62
7
  6
CONTINUOUS
 10
124.5104860642
 20
144.3535638759
 40
1.0
 50
158.61
 51
180.0
  0
ARC
  8
0
 62
7
  6
CONTINUOUS
 10
141.9104860642
 20
156.185554556
 40
2.7
 50
90.0
 51
180.0
  0
ARC
  8
0
 62
7
  6
CONTINUOUS
 10
123.5104860642
 20
156.185554556
 40
2.7
 50
0.0
 51
90.0
  0
ARC
  8
0
 62
7
  6
CONTINUOUS
 10
116.5104860642
 20
156.185554556
 40
2.7
 50
90.0
 51
180.0
  0
ARC
  8
0
 62
7
  6
CONTINUOUS
 10
139.5104860642
 20
151.4922130303
 40
0.3
 50
180.0
 51
201.39
  0
ARC
  8
0
 62
7
  6
CONTINUOUS
 10
114.1104860642
 20
151.4922130303
 40
0.3
 50
180.0
 51
201.39
  0
ARC
  8
0
 62
7
  6
CONTINUOUS
 10
125.9104860642
 20
151.4922130303
 40
0.3
 50
338.61
 51
360.0
  0
ARC
  8
0
 62
7
  6
CONTINUOUS
 10
166.3104860642
 20
144.3535638759
 40
1.0
 50
0.0
 51
21.39
  0
ARC
  8
0
 62
7
  6
CONTINUOUS
 10
175.3104860642
 20
144.3535638759
 40
1.0
 50
158.61
 51
180.0
  0
ARC
  8
0
 62
7
  6
CONTINUOUS
 10
149.9104860642
 20
144.3535638759
 40
1.0
 50
158.61
 51
180.0
  0
ARC
  8
0
 62
7
  6
CONTINUOUS
 10
167.3104860642
 20
156.185554556
 40
2.7
 50
90.0
 51
180.0
  0
ARC
  8
0
 62
7
  6
CONTINUOUS
 10
174.3104860642
 20
156.185554556
 40
2.7
 50
0.0
 51
90.0
  0
ARC
  8
0
 62
7
  6
CONTINUOUS
 10
148.9104860642
 20
156.185554556
 40
2.7
 50
0.0
 51
90.0
  0
ARC
  8
0
 62
7
  6
CONTINUOUS
 10
164.9104860642
 20
151.4922130303
 40
0.3
 50
180.0
 51
201.39
  0
ARC
  8
0
 62
7
  6
CONTINUOUS
 10
176.7104860642
 20
151.4922130303
 40
0.3
 50
338.61
 51
360.0
  0
ARC
  8
0
 62
7
  6
CONTINUOUS
 10
151.3104860642
 20
151.4922130303
 40
0.3
 50
338.61
 51
360.0
  0
ARC
  8
0
 62
7
  6
CONTINUOUS
 10
187.0104860642
 20
94.785554556
 40
2.7
 50
270.0
 51
360.0
  0
ARC
  8
0
 62
7
  6
CONTINUOUS
 10
212.4104860642
 20
94.785554556
 40
2.7
 50
270.0
 51
360.0
  0
ARC
  8
0
 62
7
  6
CONTINUOUS
 10
230.8104860642
 20
94.785554556
 40
2.7
 50
180.0
 51
270.0
  0
ARC
  8
0
 62
7
  6
CONTINUOUS
 10
256.2104860642
 20
94.785554556
 40
2.7
 50
180.0
 51
270.0
  0
ARC
  8
0
 62
7
  6
CONTINUOUS
 10
237.8104860642
 20
94.785554556
 40
2.7
 50
270.0
 51
360.0
  0
ARC
  8
0
 62
7
  6
CONTINUOUS
 10
205.4104860642
 20
94.785554556
 40
2.7
 50
180.0
 51
270.0
  0
ARC
  8
0
 62
7
  6
CONTINUOUS
 10
263.2081984147
 20
94.785554556
 40
2.7
 50
270.0
 51
360.0
  0
ARC
  8
0
 62
7
  6
CONTINUOUS
 10
229.8104860642
 20
106.6180207115
 40
1.0
 50
338.6113771722
 51
360.0
  0
ARC
  8
0
 62
7
  6
CONTINUOUS
 10
213.4104860642
 20
106.6180207115
 40
1.0
 50
180.0
 51
201.3886228278
  0
ARC
  8
0
 62
7
  6
CONTINUOUS
 10
238.8104860642
 20
106.6180207115
 40
1.0
 50
180.0
 51
201.3886228278
  0
ARC
  8
0
 62
7
  6
CONTINUOUS
 10
255.2104860642
 20
106.6180207115
 40
1.0
 50
338.6113771722
 51
360.0
  0
ARC
  8
0
 62
7
  6
CONTINUOUS
 10
204.4104860642
 20
106.6180207115
 40
1.0
 50
338.6113771722
 51
360.0
  0
ARC
  8
0
 62
7
  6
CONTINUOUS
 10
188.0104860642
 20
106.6180207115
 40
1.0
 50
180.0
 51
201.3886228278
  0
ARC
  8
0
 62
7
  6
CONTINUOUS
 10
264.2081984147
 20
106.6175452361
 40
1.0
 50
180.0
 51
201.39
  0
ARC
  8
0
 62
7
  6
CONTINUOUS
 10
189.4104860642
 20
99.4788998157
 40
0.3
 50
0.0
 51
21.3886228278
  0
ARC
  8
0
 62
7
  6
CONTINUOUS
 10
203.0104860642
 20
99.4788998157
 40
0.3
 50
158.6113771722
 51
180.0
  0
ARC
  8
0
 62
7
  6
CONTINUOUS
 10
214.8104860642
 20
99.4788998157
 40
0.3
 50
0.0
 51
21.3886228278
  0
ARC
  8
0
 62
7
  6
CONTINUOUS
 10
228.4104860642
 20
99.4788998157
 40
0.3
 50
158.6113771722
 51
180.0
  0
ARC
  8
0
 62
7
  6
CONTINUOUS
 10
240.2104860642
 20
99.4788998157
 40
0.3
 50
0.0
 51
21.3886228278
  0
ARC
  8
0
 62
7
  6
CONTINUOUS
 10
253.8104860642
 20
99.4788998157
 40
0.3
 50
158.6113771722
 51
180.0
  0
ARC
  8
0
 62
7
  6
CONTINUOUS
 10
228.8104860642
 20
120.685554556
 40
2.0
 50
0.0
 51
90.0
  0
ARC
  8
0
 62
7
  6
CONTINUOUS
 10
214.4104860642
 20
120.685554556
 40
2.0
 50
90.0
 51
180.0
  0
ARC
  8
0
 62
7
  6
CONTINUOUS
 10
239.8104860642
 20
120.685554556
 40
2.0
 50
90.0
 51
180.0
  0
ARC
  8
0
 62
7
  6
CONTINUOUS
 10
254.2104860642
 20
120.685554556
 40
2.0
 50
0.0
 51
90.0
  0
ARC
  8
0
 62
7
  6
CONTINUOUS
 10
189.0104860642
 20
120.685554556
 40
2.0
 50
90.0
 51
180.0
  0
ARC
  8
0
 62
7
  6
CONTINUOUS
 10
203.4104860642
 20
120.685554556
 40
2.0
 50
0.0
 51
90.0
  0
ARC
  8
0
 62
7
  6
CONTINUOUS
 10
265.2081984147
 20
121.335554556
 40
2.0
 50
90.0
 51
180.0
  0
ARC
  8
0
 62
7
  6
CONTINUOUS
 10
342.4604860642
 20
94.9222426629
 40
4.0
 50
274.3453610724
 51
360.0
  0
ARC
  8
0
 62
7
  6
CONTINUOUS
 10
288.6081984147
 20
94.785554556
 40
2.7
 50
270.0
 51
360.0
  0
ARC
  8
0
 62
7
  6
CONTINUOUS
 10
281.6081984147
 20
94.785554556
 40
2.7
 50
180.0
 51
270.0
  0
ARC
  8
0
 62
7
  6
CONTINUOUS
 10
309.4081984147
 20
94.785554556
 40
2.7
 50
180.0
 51
270.0
  0
ARC
  8
0
 62
7
  6
CONTINUOUS
 10
316.4081984147
 20
94.785554556
 40
2.7
 50
270.0
 51
360.0
  0
ARC
  8
0
 62
7
  6
CONTINUOUS
 10
280.6081984147
 20
106.6175452361
 40
1.0
 50
338.61
 51
360.0
  0
ARC
  8
0
 62
7
  6
CONTINUOUS
 10
308.4081984147
 20
106.6175452361
 40
1.0
 50
338.61
 51
360.0
  0
ARC
  8
0
 62
7
  6
CONTINUOUS
 10
289.6081984147
 20
106.6175452361
 40
1.0
 50
180.0
 51
201.39
  0
ARC
  8
0
 62
7
  6
CONTINUOUS
 10
317.4081984147
 20
106.6175452361
 40
1.0
 50
180.0
 51
201.39
  0
ARC
  8
0
 62
7
  6
CONTINUOUS
 10
337.0604860642
 20
107.0051697983
 40
0.3
 50
150.0
 51
180.0
  0
ARC
  8
0
 62
7
  6
CONTINUOUS
 10
279.2081984147
 20
99.4788960817
 40
0.3
 50
158.61
 51
180.0
  0
ARC
  8
0
 62
7
  6
CONTINUOUS
 10
265.6081984147
 20
99.4788960817
 40
0.3
 50
0.0
 51
21.39
  0
ARC
  8
0
 62
7
  6
CONTINUOUS
 10
307.0081984147
 20
99.4788960817
 40
0.3
 50
158.61
 51
180.0
  0
ARC
  8
0
 62
7
  6
CONTINUOUS
 10
291.0081984147
 20
99.4788960817
 40
0.3
 50
0.0
 51
21.39
  0
ARC
  8
0
 62
7
  6
CONTINUOUS
 10
318.8081984147
 20
99.4788960817
 40
0.3
 50
0.0
 51
21.39
  0
ARC
  8
0
 62
7
  6
CONTINUOUS
 10
333.4604860642
 20
115.4229855322
 40
6.0
 50
0.0
 51
45.0
  0
ARC
  8
0
 62
7
  6
CONTINUOUS
 10
275.2513441652
 20
119.335554556
 40
4.0
 50
45.0
 51
90.0
  0
ARC
  8
0
 62
7
  6
CONTINUOUS
 10
277.6081984147
 20
116.9787003065
 40
4.0
 50
0.0
 51
45.0
  0
ARC
  8
0
 62
7
  6
CONTINUOUS
 10
305.4081984147
 20
116.9787003065
 40
4.0
 50
0.0
 51
45.0
  0
ARC
  8
0
 62
7
  6
CONTINUOUS
 10
302.5513441652
 20
119.835554556
 40
4.0
 50
45.0
 51
90.0
  0
ARC
  8
0
 62
7
  6
CONTINUOUS
 10
292.6081984147
 20
116.9787003065
 40
4.0
 50
135.0
 51
180.0
  0
ARC
  8
0
 62
7
  6
CONTINUOUS
 10
295.4650526642
 20
119.835554556
 40
4.0
 50
90.0
 51
135.0
  0
ARC
  8
0
 62
7
  6
CONTINUOUS
 10
320.4081984147
 20
116.2537003065
 40
4.0
 50
135.0
 51
180.0
  0
ARC
  8
0
 62
7
  6
CONTINUOUS
 10
324.3900526642
 20
120.235554556
 40
4.0
 50
90.0
 51
135.0
  0
ARC
  8
0
 62
7
  6
CONTINUOUS
 10
331.4763441652
 20
120.235554556
 40
4.0
 50
45.0
 51
90.0
  0
ARC
  8
0
 62
7
  6
CONTINUOUS
 10
343.4604860642
 20
121.3850225525
 40
3.0
 50
0.0
 51
66.0620193933
  0
ARC
  8
0
 62
7
  6
CONTINUOUS
 10
338.4604860642
 20
112.0300409289
 40
1.0
 50
330.0
 51
360.0
  0
ARC
  8
0
 62
7
  6
CONTINUOUS
 10
252.5104860642
 20
130.1108945897
 40
2.0
 50
180.0
 51
270.0
  0
ARC
  8
0
 62
7
  6
CONTINUOUS
 10
241.5104860642
 20
130.1108945897
 40
2.0
 50
270.0
 51
360.0
  0
ARC
  8
0
 62
7
  6
CONTINUOUS
 10
216.1104860642
 20
130.1108945897
 40
2.0
 50
270.0
 51
360.0
  0
ARC
  8
0
 62
7
  6
CONTINUOUS
 10
227.1104860642
 20
130.1108945897
 40
2.0
 50
180.0
 51
270.0
  0
ARC
  8
0
 62
7
  6
CONTINUOUS
 10
201.7104860642
 20
130.1108945897
 40
2.0
 50
180.0
 51
270.0
  0
ARC
  8
0
 62
7
  6
CONTINUOUS
 10
190.7104860642
 20
130.1108945897
 40
2.0
 50
270.0
 51
360.0
  0
ARC
  8
0
 62
7
  6
CONTINUOUS
 10
192.7104860642
 20
156.185554556
 40
2.7
 50
90.0
 51
180.0
  0
ARC
  8
0
 62
7
  6
CONTINUOUS
 10
199.7104860642
 20
156.185554556
 40
2.7
 50
0.0
 51
90.0
  0
ARC
  8
0
 62
7
  6
CONTINUOUS
 10
218.1104860642
 20
156.185554556
 40
2.7
 50
90.0
 51
180.0
  0
ARC
  8
0
 62
7
  6
CONTINUOUS
 10
225.1104860642
 20
156.185554556
 40
2.7
 50
0.0
 51
90.0
  0
ARC
  8
0
 62
7
  6
CONTINUOUS
 10
243.5104860642
 20
156.185554556
 40
2.7
 50
90.0
 51
180.0
  0
ARC
  8
0
 62
7
  6
CONTINUOUS
 10
250.5104860642
 20
156.185554556
 40
2.7
 50
0.0
 51
90.0
  0
ARC
  8
0
 62
7
  6
CONTINUOUS
 10
242.5104860642
 20
144.3535638759
 40
1.0
 50
0.0
 51
21.39
  0
ARC
  8
0
 62
7
  6
CONTINUOUS
 10
251.5104860642
 20
144.3535638759
 40
1.0
 50
158.61
 51
180.0
  0
ARC
  8
0
 62
7
  6
CONTINUOUS
 10
217.1104860642
 20
144.3535638759
 40
1.0
 50
0.0
 51
21.39
  0
ARC
  8
0
 62
7
  6
CONTINUOUS
 10
226.1104860642
 20
144.3535638759
 40
1.0
 50
158.61
 51
180.0
  0
ARC
  8
0
 62
7
  6
CONTINUOUS
 10
191.7104860642
 20
144.3535638759
 40
1.0
 50
0.0
 51
21.39
  0
ARC
  8
0
 62
7
  6
CONTINUOUS
 10
200.7104860642
 20
144.3535638759
 40
1.0
 50
158.61
 51
180.0
  0
ARC
  8
0
 62
7
  6
CONTINUOUS
 10
202.1104860642
 20
151.4922130303
 40
0.3
 50
338.61
 51
360.0
  0
ARC
  8
0
 62
7
  6
CONTINUOUS
 10
190.3104860642
 20
151.4922130303
 40
0.3
 50
180.0
 51
201.39
  0
ARC
  8
0
 62
7
  6
CONTINUOUS
 10
227.5104860642
 20
151.4922130303
 40
0.3
 50
338.61
 51
360.0
  0
ARC
  8
0
 62
7
  6
CONTINUOUS
 10
215.7104860642
 20
151.4922130303
 40
0.3
 50
180.0
 51
201.39
  0
ARC
  8
0
 62
7
  6
CONTINUOUS
 10
252.9104860642
 20
151.4922130303
 40
0.3
 50
338.61
 51
360.0
  0
ARC
  8
0
 62
7
  6
CONTINUOUS
 10
241.1104860642
 20
151.4922130303
 40
0.3
 50
180.0
 51
201.39
  0
ARC
  8
0
 62
7
  6
CONTINUOUS
 10
309.9400526642
 20
131.175554556
 40
4.0
 50
225.0
 51
270.0
  0
ARC
  8
0
 62
7
  6
CONTINUOUS
 10
317.0263441652
 20
131.175554556
 40
4.0
 50
270.0
 51
315.0
  0
ARC
  8
0
 62
7
  6
CONTINUOUS
 10
289.2513441652
 20
131.625554556
 40
4.0
 50
270.0
 51
315.0
  0
ARC
  8
0
 62
7
  6
CONTINUOUS
 10
282.1650526642
 20
131.625554556
 40
4.0
 50
225.0
 51
270.0
  0
ARC
  8
0
 62
7
  6
CONTINUOUS
 10
335.4581984147
 20
132.596263894
 40
4.0
 50
180.0
 51
246.0620193933
  0
ARC
  8
0
 62
7
  6
CONTINUOUS
 10
306.5081984147
 20
134.6074088055
 40
4.0
 50
180.0
 51
225.0
  0
ARC
  8
0
 62
7
  6
CONTINUOUS
 10
320.4581984147
 20
134.6074088055
 40
4.0
 50
315.0
 51
360.0
  0
ARC
  8
0
 62
7
  6
CONTINUOUS
 10
279.9081984147
 20
133.8824088055
 40
4.0
 50
180.0
 51
225.0
  0
ARC
  8
0
 62
7
  6
CONTINUOUS
 10
291.5081984147
 20
133.8824088055
 40
4.0
 50
315.0
 51
360.0
  0
ARC
  8
0
 62
7
  6
CONTINUOUS
 10
266.9081984147
 20
130.1108945897
 40
2.0
 50
270.0
 51
360.0
  0
ARC
  8
0
 62
7
  6
CONTINUOUS
 10
302.5081984147
 20
156.185554556
 40
2.7
 50
0.0
 51
90.0
  0
ARC
  8
0
 62
7
  6
CONTINUOUS
 10
295.5081984147
 20
156.185554556
 40
2.7
 50
90.0
 51
180.0
  0
ARC
  8
0
 62
7
  6
CONTINUOUS
 10
331.4581984147
 20
156.185554556
 40
2.7
 50
0.0
 51
90.0
  0
ARC
  8
0
 62
7
  6
CONTINUOUS
 10
324.4581984147
 20
156.185554556
 40
2.7
 50
90.0
 51
180.0
  0
ARC
  8
0
 62
7
  6
CONTINUOUS
 10
275.9081984147
 20
156.185554556
 40
2.7
 50
0.0
 51
90.0
  0
ARC
  8
0
 62
7
  6
CONTINUOUS
 10
268.9081984147
 20
156.185554556
 40
2.7
 50
90.0
 51
180.0
  0
ARC
  8
0
 62
7
  6
CONTINUOUS
 10
267.9081984147
 20
144.3535638759
 40
1.0
 50
0.0
 51
21.39
  0
ARC
  8
0
 62
7
  6
CONTINUOUS
 10
332.4581984147
 20
144.3535638759
 40
1.0
 50
158.61
 51
180.0
  0
ARC
  8
0
 62
7
  6
CONTINUOUS
 10
303.5081984147
 20
144.3535638759
 40
1.0
 50
158.61
 51
180.0
  0
ARC
  8
0
 62
7
  6
CONTINUOUS
 10
323.4581984147
 20
144.3535638759
 40
1.0
 50
0.0
 51
21.39
  0
ARC
  8
0
 62
7
  6
CONTINUOUS
 10
276.9081984147
 20
144.3535638759
 40
1.0
 50
158.61
 51
180.0
  0
ARC
  8
0
 62
7
  6
CONTINUOUS
 10
294.5081984147
 20
144.3535638759
 40
1.0
 50
0.0
 51
21.39
  0
ARC
  8
0
 62
7
  6
CONTINUOUS
 10
333.8581984147
 20
151.4922130303
 40
0.3
 50
338.61
 51
360.0
  0
ARC
  8
0
 62
7
  6
CONTINUOUS
 10
266.5081984147
 20
151.4922130303
 40
0.3
 50
180.0
 51
201.39
  0
ARC
  8
0
 62
7
  6
CONTINUOUS
 10
304.9081984147
 20
151.4922130303
 40
0.3
 50
338.61
 51
360.0
  0
ARC
  8
0
 62
7
  6
CONTINUOUS
 10
322.0581984147
 20
151.4922130303
 40
0.3
 50
180.0
 51
201.39
  0
ARC
  8
0
 62
7
  6
CONTINUOUS
 10
278.3081984147
 20
151.4922130303
 40
0.3
 50
338.61
 51
360.0
  0
ARC
  8
0
 62
7
  6
CONTINUOUS
 10
293.1081984147
 20
151.4922130303
 40
0.3
 50
180.0
 51
201.39
  0
ARC
  8
0
 62
7
  6
CONTINUOUS
 10
380.1133391784
 20
99.435554556
 40
7.35
 50
180.0
 51
185.1814939276
  0
ARC
  8
0
 62
7
  6
CONTINUOUS
 10
380.1133391784
 20
151.535554556
 40
7.35
 50
90.0
 51
180.0
  0
ARC
  8
0
 62
7
  6
CONTINUOUS
 10
380.4133391784
 20
99.435554556
 40
7.35
 50
354.8071806008
 51
360.0
  0
CIRCLE
  8
0
 62
7
  6
CONTINUOUS
 10
380.2633391784
 20
100.085554556
 40
4.5
  0
CIRCLE
  8
0
 62
7
  6
CONTINUOUS
 10
380.2633391784
 20
100.085554556
 40
3.1
  0
ARC
  8
0
 62
7
  6
CONTINUOUS
 10
380.4133391784
 20
151.535554556
 40
7.35
 50
0.0
 51
90.0
  0
ARC
  8
0
 62
7
  6
CONTINUOUS
 10
380.2633391784
 20
150.885554556
 40
3.1
 50
0.0
 51
180.0
  0
ARC
  8
0
 62
7
  6
CONTINUOUS
 10
380.2633391784
 20
134.385554556
 40
3.1
 50
180.0
 51
360.0
  0
ARC
  8
0
 62
7
  6
CONTINUOUS
 10
161.6104860642
 20
207.8746054025
 40
2.7
 50
270.0
 51
360.0
  0
ARC
  8
0
 62
7
  6
CONTINUOUS
 10
180.0104860642
 20
207.8746054025
 40
2.7
 50
180.0
 51
270.0
  0
ARC
  8
0
 62
7
  6
CONTINUOUS
 10
110.8104860642
 20
207.8746054025
 40
2.7
 50
270.0
 51
360.0
  0
ARC
  8
0
 62
7
  6
CONTINUOUS
 10
129.2104860642
 20
207.8746054025
 40
2.7
 50
180.0
 51
270.0
  0
ARC
  8
0
 62
7
  6
CONTINUOUS
 10
154.6104860642
 20
207.8746054025
 40
2.7
 50
180.0
 51
270.0
  0
ARC
  8
0
 62
7
  6
CONTINUOUS
 10
136.2104860642
 20
207.8746054025
 40
2.7
 50
270.0
 51
360.0
  0
ARC
  8
0
 62
7
  6
CONTINUOUS
 10
103.8127737137
 20
207.8746054025
 40
2.7
 50
180.0
 51
270.0
  0
ARC
  8
0
 62
7
  6
CONTINUOUS
 10
85.4127737137
 20
207.8746054025
 40
2.7
 50
270.0
 51
360.0
  0
ARC
  8
0
 62
7
  6
CONTINUOUS
 10
57.6127737137
 20
207.8746054025
 40
2.7
 50
270.0
 51
360.0
  0
ARC
  8
0
 62
7
  6
CONTINUOUS
 10
78.4127737137
 20
207.8746054025
 40
2.7
 50
180.0
 51
270.0
  0
ARC
  8
0
 62
7
  6
CONTINUOUS
 10
50.6127737137
 20
207.8746054025
 40
2.7
 50
180.0
 51
270.0
  0
ARC
  8
0
 62
7
  6
CONTINUOUS
 10
29.9604860642
 20
205.4746054025
 40
0.3
 50
270.0
 51
360.0
  0
ARC
  8
0
 62
7
  6
CONTINUOUS
 10
20.8604860642
 20
205.4746054025
 40
0.3
 50
180.0
 51
270.0
  0
ARC
  8
0
 62
7
  6
CONTINUOUS
 10
180.0104860642
 20
217.4746054025
 40
2.7
 50
90.0
 51
180.0
  0
ARC
  8
0
 62
7
  6
CONTINUOUS
 10
161.6104860642
 20
217.4746054025
 40
2.7
 50
0.0
 51
90.0
  0
ARC
  8
0
 62
7
  6
CONTINUOUS
 10
110.8104860642
 20
217.4746054025
 40
2.7
 50
0.0
 51
90.0
  0
ARC
  8
0
 62
7
  6
CONTINUOUS
 10
129.2104860642
 20
217.4746054025
 40
2.7
 50
90.0
 51
180.0
  0
ARC
  8
0
 62
7
  6
CONTINUOUS
 10
154.6104860642
 20
217.4746054025
 40
2.7
 50
90.0
 51
180.0
  0
ARC
  8
0
 62
7
  6
CONTINUOUS
 10
136.2104860642
 20
217.4746054025
 40
2.7
 50
0.0
 51
90.0
  0
ARC
  8
0
 62
7
  6
CONTINUOUS
 10
103.8127737137
 20
217.4746054025
 40
2.7
 50
90.0
 51
180.0
  0
ARC
  8
0
 62
7
  6
CONTINUOUS
 10
85.4127737137
 20
217.4746054025
 40
2.7
 50
0.0
 51
90.0
  0
ARC
  8
0
 62
7
  6
CONTINUOUS
 10
78.4127737137
 20
217.4746054025
 40
2.7
 50
90.0
 51
180.0
  0
ARC
  8
0
 62
7
  6
CONTINUOUS
 10
50.6127737137
 20
217.4746054025
 40
2.7
 50
90.0
 51
180.0
  0
ARC
  8
0
 62
7
  6
CONTINUOUS
 10
57.6127737137
 20
217.4746054025
 40
2.7
 50
0.0
 51
90.0
  0
ARC
  8
0
 62
7
  6
CONTINUOUS
 10
29.9604860642
 20
219.8746054025
 40
0.3
 50
0.0
 51
90.0
  0
ARC
  8
0
 62
7
  6
CONTINUOUS
 10
20.8604860642
 20
219.8746054025
 40
0.3
 50
90.0
 51
180.0
  0
ARC
  8
0
 62
7
  6
CONTINUOUS
 10
205.4104860642
 20
207.8746054025
 40
2.7
 50
180.0
 51
270.0
  0
ARC
  8
0
 62
7
  6
CONTINUOUS
 10
187.0104860642
 20
207.8746054025
 40
2.7
 50
270.0
 51
360.0
  0
ARC
  8
0
 62
7
  6
CONTINUOUS
 10
230.8104860642
 20
207.8746054025
 40
2.7
 50
180.0
 51
270.0
  0
ARC
  8
0
 62
7
  6
CONTINUOUS
 10
212.4104860642
 20
207.8746054025
 40
2.7
 50
270.0
 51
360.0
  0
ARC
  8
0
 62
7
  6
CONTINUOUS
 10
256.2104860642
 20
207.8746054025
 40
2.7
 50
180.0
 51
270.0
  0
ARC
  8
0
 62
7
  6
CONTINUOUS
 10
237.8104860642
 20
207.8746054025
 40
2.7
 50
270.0
 51
360.0
  0
ARC
  8
0
 62
7
  6
CONTINUOUS
 10
263.2081984147
 20
207.8746054025
 40
2.7
 50
270.0
 51
360.0
  0
ARC
  8
0
 62
7
  6
CONTINUOUS
 10
281.6081984147
 20
207.8746054025
 40
2.7
 50
180.0
 51
270.0
  0
ARC
  8
0
 62
7
  6
CONTINUOUS
 10
288.6081984147
 20
207.8746054025
 40
2.7
 50
270.0
 51
360.0
  0
ARC
  8
0
 62
7
  6
CONTINUOUS
 10
309.4081984147
 20
207.8746054025
 40
2.7
 50
180.0
 51
270.0
  0
ARC
  8
0
 62
7
  6
CONTINUOUS
 10
316.4081984147
 20
207.8746054025
 40
2.7
 50
270.0
 51
360.0
  0
ARC
  8
0
 62
7
  6
CONTINUOUS
 10
337.0604860642
 20
205.4746054025
 40
0.3
 50
180.0
 51
270.0
  0
ARC
  8
0
 62
7
  6
CONTINUOUS
 10
346.1604860642
 20
205.4746054025
 40
0.3
 50
270.0
 51
360.0
  0
ARC
  8
0
 62
7
  6
CONTINUOUS
 10
187.0104860642
 20
217.4746054025
 40
2.7
 50
0.0
 51
90.0
  0
ARC
  8
0
 62
7
  6
CONTINUOUS
 10
212.4104860642
 20
217.4746054025
 40
2.7
 50
0.0
 51
90.0
  0
ARC
  8
0
 62
7
  6
CONTINUOUS
 10
237.8104860642
 20
217.4746054025
 40
2.7
 50
0.0
 51
90.0
  0
ARC
  8
0
 62
7
  6
CONTINUOUS
 10
256.2104860642
 20
217.4746054025
 40
2.7
 50
90.0
 51
180.0
  0
ARC
  8
0
 62
7
  6
CONTINUOUS
 10
230.8104860642
 20
217.4746054025
 40
2.7
 50
90.0
 51
180.0
  0
ARC
  8
0
 62
7
  6
CONTINUOUS
 10
205.4104860642
 20
217.4746054025
 40
2.7
 50
90.0
 51
180.0
  0
ARC
  8
0
 62
7
  6
CONTINUOUS
 10
263.2081984147
 20
217.4746054025
 40
2.7
 50
0.0
 51
90.0
  0
ARC
  8
0
 62
7
  6
CONTINUOUS
 10
288.6081984147
 20
217.4746054025
 40
2.7
 50
0.0
 51
90.0
  0
ARC
  8
0
 62
7
  6
CONTINUOUS
 10
281.6081984147
 20
217.4746054025
 40
2.7
 50
90.0
 51
180.0
  0
ARC
  8
0
 62
7
  6
CONTINUOUS
 10
309.4081984147
 20
217.4746054025
 40
2.7
 50
90.0
 51
180.0
  0
ARC
  8
0
 62
7
  6
CONTINUOUS
 10
316.4081984147
 20
217.4746054025
 40
2.7
 50
0.0
 51
90.0
  0
ARC
  8
0
 62
7
  6
CONTINUOUS
 10
337.0604860642
 20
219.8746054025
 40
0.3
 50
90.0
 51
180.0
  0
ARC
  8
0
 62
7
  6
CONTINUOUS
 10
346.1604860642
 20
219.8746054025
 40
0.3
 50
0.0
 51
90.0
  0
ENDSEC
  0
EOF
