  0
SECTION
  2
HEADER
  9
$EXTMAX
 10
420.0
 20
297.0
 30
0.0
  9
$EXTMIN
 10
0.0
 20
0.0
 30
0.0
  9
$LIMMIN
 10
0.0
 20
0.0
  9
$LIMMAX
 10
420.0
 20
297.0
  9
$VIEWCTR
 10
210.0
 20
148.5
  9
$VIEWSIZE
 40
297.0
  9
$CLAYER
  8
0
  9
$LTSCALE
 40
23.1
  9
$CELTYPE
  6
BYLAYER
  9
$DIMSCALE
 40
1.0
  9
$DIMASZ
 40
3.5
  9
$DIMEXO
 40
2.625
  9
$DIMDLI
 40
15.96
  9
$DIMEXE
 40
7.56
  9
$DIMCEN
 40
3.78
  9
$DIMLFAC
 40
1.0
  9
$DIMBLK
  1
_FILLED
  9
$DIMTXT
 40
3.5
  9
$PDMODE
 70
3
  9
$PDSIZE
 40
0.3125
  9
$TILEMODE
 70
1
  0
ENDSEC
  0
SECTION
  2
TABLES
  0
TABLE
  2
LTYPE
 70
6
  0
LTYPE
  2
BYBLOCK
 70
0
  3

 72
65
 73
0
 40
0.0
  0
LTYPE
  2
BYLAYER
 70
0
  3

 72
65
 73
0
 40
0.0
  0
LTYPE
  2
CONTINUOUS
 70
64
  3
Solid line
 72
65
 73
0
 40
0.0
  0
LTYPE
  2
CENTER
 70
64
  3
____ _ ____ _ ____ _ ____ _ ____ _ ____ _ ____
 72
65
 73
4
 40
0.6
 49
0.375
 49
-0.075
 49
0.075
 49
-0.075
  0
LTYPE
  2
HIDDEN
 70
64
  3
- - - - - - - - - - - - - - - - - - - -
 72
65
 73
2
 40
0.2
 49
0.1
 49
-0.1
  0
LTYPE
  2
PHANTOM
 70
64
  3
_____ _ _ _____ _ _ _____ _ _ _____
 72
65
 73
6
 40
0.8
 49
0.45
 49
-0.05
 49
0.1
 49
-0.05
 49
0.1
 49
-0.05
  0
LTYPE
  2
DOT
 70
64
  3
. . . . . . . . . . . . . . . . . . . .
 72
65
 73
2
 40
0.2
 49
0.1
 49
-0.1
  0
LTYPE
  2
DASHED
 70
64
  3
- - - - - - - - - - - - - - - - - - - -
 72
65
 73
2
 40
0.2
 49
0.1
 49
-0.1
  0
ENDTAB
  0
TABLE
  2
LAYER
 70
36
  0
LAYER
  2
0
 70
0
 62
7
  6
CONTINUOUS
  0
LAYER
  2
DEFAULT_1
 70
0
 62
7
  6
CENTER
  0
LAYER
  2
DEFAULT_2
 70
0
 62
8
  6
HIDDEN
  0
LAYER
  2
DEFAULT_3
 70
0
 62
7
  6
PHANTOM
  0
LAYER
  2
CURVE
 70
0
 62
7
  6
CONTINUOUS
  0
LAYER
  2
SURFACE
 70
0
 62
7
  6
CONTINUOUS
  0
ENDTAB
  0
TABLE
  2
STYLE
 70
1
  0
STYLE
  2
STANDARD
 70
0
 40
0.0
 41
0.8
 50
0.0
 71
0
 42
0.2
  3
txt
  4

  0
STYLE
  2
TEXTSTYLE_1
 70
0
 40
0.0
 41
0.8
 50
0.0
 71
0
 42
0.2
  3
gdt
  4

  0
STYLE
  2
TEXTSTYLE_2
 70
0
 40
0.0
 41
0.6
 50
0.0
 71
0
 42
0.2
  3
txt
  4

  0
STYLE
  2
TEXTSTYLE_3
 70
0
 40
0.0
 41
1.0
 50
0.0
 71
0
 42
0.2
  3
ftb_____.ttf
  4

  0
STYLE
  2
TEXTSTYLE_4
 70
0
 40
0.0
 41
1.0
 50
0.0
 71
0
 42
0.2
  3
fti_____.ttf
  4

  0
STYLE
  2
TEXTSTYLE_5
 70
0
 40
0.0
 41
1.0
 50
0.0
 71
0
 42
0.2
  3
frutiger light.ttf
  4

  0
STYLE
  2
TEXTSTYLE_6
 70
0
 40
0.0
 41
0.7
 50
0.0
 71
0
 42
0.2
  3
txt
  4

  0
STYLE
  2
TEXTSTYLE_7
 70
0
 40
0.0
 41
0.6
 50
0.0
 71
0
 42
0.2
  3
txt
  4

  0
ENDTAB
  0
ENDSEC
  0
SECTION
  2
BLOCKS
  0
BLOCK
  8
0
 62
2
  6
CONTINUOUS
  2
SYMBOL_5_BL1
 70
64
 10
382.7840918555
 20
35.5067593403
  0
TEXT
  8
0
 62
7
  6
CONTINUOUS
 10
373.842376864
 20
30.5995157174
  7
TEXTSTYLE_4
 40
1.0655737705
  1
The brand for plastic modular belts and chains
 41
1.0
 72
0
  0
LINE
  8
0
 62
7
  6
CONTINUOUS
 10
358.7621602445
 20
36.0805298321
 11
358.7621602445
 21
33.9493822911
  0
LINE
  8
0
 62
7
  6
CONTINUOUS
 10
359.0512227376
 20
30.9584509954
 11
359.0512227376
 21
31.0552420547
  0
LINE
  8
0
 62
7
  6
CONTINUOUS
 10
358.7621602445
 20
31.0229783683
 11
358.8199727462
 21
30.8293962497
  0
LINE
  8
0
 62
7
  6
CONTINUOUS
 10
360.1556028675
 20
33.867415078
 11
360.1556028675
 21
36.0805298321
  0
LINE
  8
0
 62
7
  6
CONTINUOUS
 10
361.0746601894
 20
32.0231527829
 11
361.0746601894
 21
30.5067593403
  0
LINE
  8
0
 62
7
  6
CONTINUOUS
 10
361.3637227445
 20
30.5067593403
 11
361.3637227445
 21
31.2488242184
  0
LINE
  8
0
 62
7
  6
CONTINUOUS
 10
361.3637227445
 20
31.3778789641
 11
361.3637227445
 21
32.0231527829
  0
LINE
  8
0
 62
7
  6
CONTINUOUS
 10
358.8199727462
 20
31.216560532
 11
358.7621602445
 21
31.0229783683
  0
LINE
  8
0
 62
7
  6
CONTINUOUS
 10
359.1668477307
 20
30.7971325633
 11
359.0512227376
 21
30.9584509954
  0
LINE
  8
0
 62
7
  6
CONTINUOUS
 10
360.2652852997
 20
31.3133515913
 11
360.3230977445
 21
31.216560532
  0
LINE
  8
0
 62
7
  6
CONTINUOUS
 10
360.6121602997
 20
31.216560532
 11
360.5543476894
 21
31.3456152777
  0
LINE
  8
0
 62
7
  6
CONTINUOUS
 10
362.0408487691
 20
36.0805298321
 11
362.0408487691
 21
34.2772511436
  0
LINE
  8
0
 62
7
  6
CONTINUOUS
 10
362.0408487691
 20
32.9657757338
 11
362.0408487691
 21
32.3100380288
  0
LINE
  8
0
 62
7
  6
CONTINUOUS
 10
362.4043477445
 20
31.1520331591
 11
362.4043477445
 21
30.5067593403
  0
LINE
  8
0
 62
7
  6
CONTINUOUS
 10
362.6934101343
 20
30.5067593403
 11
362.6934101343
 21
31.1520331591
  0
LINE
  8
0
 62
7
  6
CONTINUOUS
 10
359.0512227376
 20
31.0552420547
 11
359.1090352445
 21
31.1842968456
  0
LINE
  8
0
 62
7
  6
CONTINUOUS
 10
358.8199727462
 20
30.8293962497
 11
358.9355977445
 21
30.7003414814
  0
LINE
  8
0
 62
7
  6
CONTINUOUS
 10
362.3465351343
 20
31.2810879048
 11
362.4043477445
 21
31.1520331591
  0
LINE
  8
0
 62
7
  6
CONTINUOUS
 10
363.1559103548
 20
30.7971325633
 11
363.2137226343
 21
30.668077795
  0
LINE
  8
0
 62
7
  6
CONTINUOUS
 10
362.6934101343
 20
31.1520331591
 11
362.6355978548
 21
31.3133515913
  0
LINE
  8
0
 62
7
  6
CONTINUOUS
 10
363.1559103548
 20
31.3456152777
 11
363.1559103548
 21
31.2810879048
  0
LINE
  8
0
 62
7
  6
CONTINUOUS
 10
363.1559103548
 20
30.8939236226
 11
363.1559103548
 21
30.7971325633
  0
LINE
  8
0
 62
7
  6
CONTINUOUS
 10
363.4342913921
 20
32.3100380288
 11
363.4342913921
 21
36.0805298321
  0
LINE
  8
0
 62
7
  6
CONTINUOUS
 10
363.4449727445
 20
30.7648688543
 11
363.4449727445
 21
30.8293962497
  0
LINE
  8
0
 62
7
  6
CONTINUOUS
 10
363.7621602445
 20
36.0805298321
 11
363.7621602445
 21
32.3100380288
  0
LINE
  8
0
 62
7
  6
CONTINUOUS
 10
360.5543476894
 20
30.7003414814
 11
360.6121602997
 21
30.8293962497
  0
LINE
  8
0
 62
7
  6
CONTINUOUS
 10
364.9480979651
 20
30.6035504109
 11
364.890285024
 21
30.7648688543
  0
LINE
  8
0
 62
7
  6
CONTINUOUS
 10
364.6012229651
 20
31.2810879048
 11
364.6012229651
 21
31.1842968456
  0
LINE
  8
0
 62
7
  6
CONTINUOUS
 10
364.6012229651
 20
31.0552420547
 11
364.6012229651
 21
30.8616599362
  0
LINE
  8
0
 62
7
  6
CONTINUOUS
 10
364.890285024
 20
30.7648688543
 11
364.890285024
 21
31.2810879048
  0
LINE
  8
0
 62
7
  6
CONTINUOUS
 10
365.1556028675
 20
32.3100380288
 11
365.1556028675
 21
34.1133167174
  0
LINE
  8
0
 62
7
  6
CONTINUOUS
 10
365.1556028675
 20
35.4247921272
 11
365.1556028675
 21
36.0805298321
  0
LINE
  8
0
 62
7
  6
CONTINUOUS
 10
365.4684104651
 20
32.0231527829
 11
365.4684104651
 21
31.8618343508
  0
LINE
  8
0
 62
7
  6
CONTINUOUS
 10
365.4684104651
 20
31.5391973962
 11
365.4684104651
 21
30.5067593403
  0
LINE
  8
0
 62
7
  6
CONTINUOUS
 10
365.757472524
 20
30.5067593403
 11
365.757472524
 21
31.5391973962
  0
LINE
  8
0
 62
7
  6
CONTINUOUS
 10
365.757472524
 20
31.8618343508
 11
365.757472524
 21
32.0231527829
  0
LINE
  8
0
 62
7
  6
CONTINUOUS
 10
360.3230977445
 20
30.8293962497
 11
360.2652852997
 21
30.7326051679
  0
LINE
  8
0
 62
7
  6
CONTINUOUS
 10
362.6355978548
 20
31.3133515913
 11
362.5777852445
 21
31.3778789641
  0
LINE
  8
0
 62
7
  6
CONTINUOUS
 10
363.5027853548
 20
30.7003414814
 11
363.4449727445
 21
30.7648688543
  0
LINE
  8
0
 62
7
  6
CONTINUOUS
 10
364.6590352445
 20
30.5712867188
 11
364.716847524
 21
30.5067593403
  0
LINE
  8
0
 62
7
  6
CONTINUOUS
 10
364.6012229651
 20
30.668077795
 11
364.6590352445
 21
30.5712867188
  0
LINE
  8
0
 62
7
  6
CONTINUOUS
 10
365.0059102445
 20
30.5067593403
 11
364.9480979651
 21
30.6035504109
  0
LINE
  8
0
 62
7
  6
CONTINUOUS
 10
364.890285024
 20
31.2810879048
 11
364.8324727445
 21
31.3778789641
  0
LINE
  8
0
 62
7
  6
CONTINUOUS
 10
366.2199727445
 20
31.5391973962
 11
366.2199727445
 21
30.5067593403
  0
LINE
  8
0
 62
7
  6
CONTINUOUS
 10
366.5090354651
 20
30.5067593403
 11
366.5090354651
 21
31.2488242184
  0
LINE
  8
0
 62
7
  6
CONTINUOUS
 10
366.5090354651
 20
31.3778789641
 11
366.5090354651
 21
31.5391973962
  0
LINE
  8
0
 62
7
  6
CONTINUOUS
 10
367.0408487691
 20
34.5231527829
 11
367.0408487691
 21
32.3100380288
  0
LINE
  8
0
 62
7
  6
CONTINUOUS
 10
358.9355977445
 20
31.3456152777
 11
358.8199727462
 21
31.216560532
  0
LINE
  8
0
 62
7
  6
CONTINUOUS
 10
359.1090352445
 20
31.1842968456
 11
359.1668477307
 21
31.2488242184
  0
LINE
  8
0
 62
7
  6
CONTINUOUS
 10
358.9355977445
 20
30.7003414814
 11
359.0512227376
 21
30.6358140973
  0
LINE
  8
0
 62
7
  6
CONTINUOUS
 10
359.3402852307
 20
30.7003414814
 11
359.1668477307
 21
30.7971325633
  0
LINE
  8
0
 62
7
  6
CONTINUOUS
 10
364.543410024
 20
31.3456152777
 11
364.6012229651
 21
31.2810879048
  0
LINE
  8
0
 62
7
  6
CONTINUOUS
 10
367.491847524
 20
31.2810879048
 11
367.5496604651
 21
31.1197694727
  0
LINE
  8
0
 62
7
  6
CONTINUOUS
 10
367.838722524
 20
31.1197694727
 11
367.7809102445
 21
31.2810879048
  0
LINE
  8
0
 62
7
  6
CONTINUOUS
 10
367.5496604651
 20
31.1197694727
 11
367.5496604651
 21
30.5067593403
  0
LINE
  8
0
 62
7
  6
CONTINUOUS
 10
367.838722524
 20
30.5067593403
 11
367.838722524
 21
31.1197694727
  0
LINE
  8
0
 62
7
  6
CONTINUOUS
 10
368.3012227445
 20
31.3456152777
 11
368.3012227445
 21
31.2810879048
  0
LINE
  8
0
 62
7
  6
CONTINUOUS
 10
368.4342913921
 20
32.3100380288
 11
368.4342913921
 21
34.4411855698
  0
LINE
  8
0
 62
7
  6
CONTINUOUS
 10
368.7621602445
 20
36.0805298321
 11
368.7621602445
 21
32.3100380288
  0
LINE
  8
0
 62
7
  6
CONTINUOUS
 10
363.4449727445
 20
30.8293962497
 11
363.5027853548
 21
30.926187309
  0
LINE
  8
0
 62
7
  6
CONTINUOUS
 10
359.0512227376
 20
30.6358140973
 11
359.2246602583
 21
30.5712867188
  0
LINE
  8
0
 62
7
  6
CONTINUOUS
 10
360.5543476894
 20
31.3456152777
 11
360.3809101894
 21
31.4424063369
  0
LINE
  8
0
 62
7
  6
CONTINUOUS
 10
363.2137226343
 20
30.668077795
 11
363.3871601343
 21
30.5712867188
  0
LINE
  8
0
 62
7
  6
CONTINUOUS
 10
362.2309102445
 20
31.3456152777
 11
362.3465351343
 21
31.2810879048
  0
LINE
  8
0
 62
7
  6
CONTINUOUS
 10
362.5777852445
 20
31.3778789641
 11
362.4621603548
 21
31.4424063369
  0
LINE
  8
0
 62
7
  6
CONTINUOUS
 10
368.3012227445
 20
30.7648688543
 11
368.4168479651
 21
30.6358140973
  0
LINE
  8
0
 62
7
  6
CONTINUOUS
 10
368.6480977445
 20
30.7003414814
 11
368.5902854651
 21
30.7648688543
  0
LINE
  8
0
 62
7
  6
CONTINUOUS
 10
368.3012227445
 20
31.2810879048
 11
368.4168479651
 21
31.1520331591
  0
LINE
  8
0
 62
7
  6
CONTINUOUS
 10
367.7809102445
 20
31.2810879048
 11
367.7230979651
 21
31.3778789641
  0
LINE
  8
0
 62
7
  6
CONTINUOUS
 10
370.1512223035
 20
30.7003414814
 11
370.1512223035
 21
30.7648688543
  0
LINE
  8
0
 62
7
  6
CONTINUOUS
 10
370.1556028675
 20
32.3100380288
 11
370.1556028675
 21
36.0805298321
  0
LINE
  8
0
 62
7
  6
CONTINUOUS
 10
363.2137226343
 20
31.4101426505
 11
363.1559103548
 21
31.3456152777
  0
LINE
  8
0
 62
7
  6
CONTINUOUS
 10
360.091847717
 20
31.3778789641
 11
360.2652852997
 21
31.3133515913
  0
LINE
  8
0
 62
7
  6
CONTINUOUS
 10
364.8324727445
 20
31.3778789641
 11
364.716847524
 21
31.4424063369
  0
LINE
  8
0
 62
7
  6
CONTINUOUS
 10
368.6480977445
 20
31.216560532
 11
368.5902854651
 21
31.2810879048
  0
LINE
  8
0
 62
7
  6
CONTINUOUS
 10
369.8043479651
 20
30.8293962497
 11
369.8621602445
 21
30.7648688543
  0
LINE
  8
0
 62
7
  6
CONTINUOUS
 10
370.1512223035
 20
30.7648688543
 11
370.0355977445
 21
30.8939236226
  0
LINE
  8
0
 62
7
  6
CONTINUOUS
 10
369.8043479651
 20
31.3456152777
 11
369.8621602445
 21
31.2810879048
  0
LINE
  8
0
 62
7
  6
CONTINUOUS
 10
370.1512223035
 20
31.2810879048
 11
370.0355977445
 21
31.4101426505
  0
LINE
  8
0
 62
7
  6
CONTINUOUS
 10
363.4449727445
 20
31.2810879048
 11
363.5027853548
 21
31.3456152777
  0
LINE
  8
0
 62
7
  6
CONTINUOUS
 10
363.2715352445
 20
31.0229783683
 11
363.1559103548
 21
30.8939236226
  0
LINE
  8
0
 62
7
  6
CONTINUOUS
 10
364.6012229651
 20
30.8616599362
 11
364.543410024
 21
30.7971325633
  0
LINE
  8
0
 62
7
  6
CONTINUOUS
 10
364.543410024
 20
30.6035504109
 11
364.6012229651
 21
30.668077795
  0
LINE
  8
0
 62
7
  6
CONTINUOUS
 10
363.3871601343
 20
30.5712867188
 11
363.5027853548
 21
30.5390230296
  0
LINE
  8
0
 62
7
  6
CONTINUOUS
 10
360.3809101894
 20
31.4424063369
 11
360.1496602445
 21
31.5069337098
  0
LINE
  8
0
 62
7
  6
CONTINUOUS
 10
363.7340351343
 20
30.6358140973
 11
363.5027853548
 21
30.7003414814
  0
LINE
  8
0
 62
7
  6
CONTINUOUS
 10
362.4621603548
 20
31.4424063369
 11
362.2887228548
 21
31.5069337098
  0
LINE
  8
0
 62
7
  6
CONTINUOUS
 10
364.716847524
 20
31.4424063369
 11
364.543410024
 21
31.5069337098
  0
LINE
  8
0
 62
7
  6
CONTINUOUS
 10
367.3762229651
 20
31.3456152777
 11
367.491847524
 21
31.2810879048
  0
LINE
  8
0
 62
7
  6
CONTINUOUS
 10
367.7230979651
 20
31.3778789641
 11
367.6074727445
 21
31.4424063369
  0
LINE
  8
0
 62
7
  6
CONTINUOUS
 10
359.2246602583
 20
30.5712867188
 11
359.3980977583
 21
30.5390230296
  0
LINE
  8
0
 62
7
  6
CONTINUOUS
 10
359.6871602721
 20
30.6358140973
 11
359.3402852307
 21
30.7003414814
  0
LINE
  8
0
 62
7
  6
CONTINUOUS
 10
362.1152853548
 20
31.3778789641
 11
362.2309102445
 21
31.3456152777
  0
LINE
  8
0
 62
7
  6
CONTINUOUS
 10
364.4277854651
 20
31.3778789641
 11
364.543410024
 21
31.3456152777
  0
LINE
  8
0
 62
7
  6
CONTINUOUS
 10
368.7637229651
 20
30.668077795
 11
368.6480977445
 21
30.7003414814
  0
LINE
  8
0
 62
7
  6
CONTINUOUS
 10
367.2605977445
 20
31.3778789641
 11
367.3762229651
 21
31.3456152777
  0
LINE
  8
0
 62
7
  6
CONTINUOUS
 10
368.4168479651
 20
30.6358140973
 11
368.5902854651
 21
30.5712867188
  0
LINE
  8
0
 62
7
  6
CONTINUOUS
 10
367.6074727445
 20
31.4424063369
 11
367.4340352445
 21
31.5069337098
  0
LINE
  8
0
 62
7
  6
CONTINUOUS
 10
368.8215352445
 20
31.1520331591
 11
368.6480977445
 21
31.216560532
  0
LINE
  8
0
 62
7
  6
CONTINUOUS
 10
369.6309104651
 20
30.8939236226
 11
369.8043479651
 21
30.8293962497
  0
LINE
  8
0
 62
7
  6
CONTINUOUS
 10
370.0355977445
 20
31.4101426505
 11
369.8621602445
 21
31.4746700234
  0
LINE
  8
0
 62
7
  6
CONTINUOUS
 10
368.4168479651
 20
31.1520331591
 11
368.6480977445
 21
31.0552420547
  0
LINE
  8
0
 62
7
  6
CONTINUOUS
 10
370.0355977445
 20
30.8939236226
 11
369.8043479651
 21
30.9907146818
  0
LINE
  8
0
 62
7
  6
CONTINUOUS
 10
368.5902854651
 20
31.2810879048
 11
368.6480977445
 21
31.3456152777
  0
LINE
  8
0
 62
7
  6
CONTINUOUS
 10
359.0512227376
 20
31.4101426505
 11
358.9355977445
 21
31.3456152777
  0
LINE
  8
0
 62
7
  6
CONTINUOUS
 10
359.1668477307
 20
31.2488242184
 11
359.3402852307
 21
31.3456152777
  0
LINE
  8
0
 62
7
  6
CONTINUOUS
 10
361.4793477997
 20
31.4424063369
 11
361.3637227445
 21
31.3778789641
  0
LINE
  8
0
 62
7
  6
CONTINUOUS
 10
361.3637227445
 20
31.2488242184
 11
361.4793477997
 21
31.3133515913
  0
LINE
  8
0
 62
7
  6
CONTINUOUS
 10
360.3809101894
 20
30.6035504109
 11
360.5543476894
 21
30.7003414814
  0
LINE
  8
0
 62
7
  6
CONTINUOUS
 10
359.3980977583
 20
30.5390230296
 11
359.744972717
 21
30.5067593403
  0
LINE
  8
0
 62
7
  6
CONTINUOUS
 10
363.5027853548
 20
30.5390230296
 11
363.7340351343
 21
30.5067593403
  0
LINE
  8
0
 62
7
  6
CONTINUOUS
 10
361.8840352445
 20
31.4101426505
 11
362.1152853548
 21
31.3778789641
  0
LINE
  8
0
 62
7
  6
CONTINUOUS
 10
364.1965353548
 20
31.4101426505
 11
364.4277854651
 21
31.3778789641
  0
LINE
  8
0
 62
7
  6
CONTINUOUS
 10
368.6480977445
 20
31.0552420547
 11
369.6309104651
 21
30.8939236226
  0
LINE
  8
0
 62
7
  6
CONTINUOUS
 10
369.8043479651
 20
30.9907146818
 11
368.8215352445
 21
31.1520331591
  0
LINE
  8
0
 62
7
  6
CONTINUOUS
 10
362.2887228548
 20
31.5069337098
 11
362.1152853548
 21
31.5391973962
  0
LINE
  8
0
 62
7
  6
CONTINUOUS
 10
368.5902854651
 20
30.5712867188
 11
368.7637229651
 21
30.5390230296
  0
LINE
  8
0
 62
7
  6
CONTINUOUS
 10
367.4340352445
 20
31.5069337098
 11
367.2605977445
 21
31.5391973962
  0
LINE
  8
0
 62
7
  6
CONTINUOUS
 10
369.6887227445
 20
31.3778789641
 11
369.8043479651
 21
31.3456152777
  0
LINE
  8
0
 62
7
  6
CONTINUOUS
 10
369.8621602445
 20
30.7648688543
 11
369.8043479651
 21
30.7003414814
  0
LINE
  8
0
 62
7
  6
CONTINUOUS
 10
368.4168479651
 20
31.4424063369
 11
368.3012227445
 21
31.3456152777
  0
LINE
  8
0
 62
7
  6
CONTINUOUS
 10
363.3293478548
 20
31.4746700234
 11
363.2137226343
 21
31.4101426505
  0
LINE
  8
0
 62
7
  6
CONTINUOUS
 10
363.3871601343
 20
31.0875057863
 11
363.2715352445
 21
31.0229783683
  0
LINE
  8
0
 62
7
  6
CONTINUOUS
 10
363.5027853548
 20
30.926187309
 11
363.6184102445
 21
30.9907146818
  0
LINE
  8
0
 62
7
  6
CONTINUOUS
 10
361.0746601894
 20
30.5067593403
 11
361.3637227445
 21
30.5067593403
  0
LINE
  8
0
 62
7
  6
CONTINUOUS
 10
362.4043477445
 20
30.5067593403
 11
362.6934101343
 21
30.5067593403
  0
LINE
  8
0
 62
7
  6
CONTINUOUS
 10
363.7340351343
 20
30.5067593403
 11
364.0809101343
 21
30.5067593403
  0
LINE
  8
0
 62
7
  6
CONTINUOUS
 10
364.716847524
 20
30.5067593403
 11
365.0059102445
 21
30.5067593403
  0
LINE
  8
0
 62
7
  6
CONTINUOUS
 10
365.4684104651
 20
30.5067593403
 11
365.757472524
 21
30.5067593403
  0
LINE
  8
0
 62
7
  6
CONTINUOUS
 10
366.2199727445
 20
30.5067593403
 11
366.5090354651
 21
30.5067593403
  0
LINE
  8
0
 62
7
  6
CONTINUOUS
 10
367.5496604651
 20
30.5067593403
 11
367.838722524
 21
30.5067593403
  0
LINE
  8
0
 62
7
  6
CONTINUOUS
 10
369.1105979651
 20
30.5067593403
 11
369.4574729651
 21
30.5067593403
  0
LINE
  8
0
 62
7
  6
CONTINUOUS
 10
369.4574729651
 20
30.6358140973
 11
369.1105979651
 21
30.6358140973
  0
LINE
  8
0
 62
7
  6
CONTINUOUS
 10
364.0809101343
 20
30.6358140973
 11
363.7340351343
 21
30.6358140973
  0
LINE
  8
0
 62
7
  6
CONTINUOUS
 10
368.5902854651
 20
30.7648688543
 11
368.3012227445
 21
30.7648688543
  0
LINE
  8
0
 62
7
  6
CONTINUOUS
 10
360.6121602997
 20
30.8293962497
 11
360.3230977445
 21
30.8293962497
  0
LINE
  8
0
 62
7
  6
CONTINUOUS
 10
359.6871602721
 20
31.4101426505
 11
360.091847717
 21
31.3778789641
  0
LINE
  8
0
 62
7
  6
CONTINUOUS
 10
360.1496602445
 20
31.5069337098
 11
359.744972717
 21
31.5391973962
  0
LINE
  8
0
 62
7
  6
CONTINUOUS
 10
368.7637229651
 20
30.5390230296
 11
369.1105979651
 21
30.5067593403
  0
LINE
  8
0
 62
7
  6
CONTINUOUS
 10
369.1105979651
 20
30.6358140973
 11
368.7637229651
 21
30.668077795
  0
LINE
  8
0
 62
7
  6
CONTINUOUS
 10
364.543410024
 20
31.5069337098
 11
364.1965353548
 21
31.5391973962
  0
LINE
  8
0
 62
7
  6
CONTINUOUS
 10
369.3418477445
 20
31.4101426505
 11
369.6887227445
 21
31.3778789641
  0
LINE
  8
0
 62
7
  6
CONTINUOUS
 10
369.6887227445
 20
31.5069337098
 11
369.3418477445
 21
31.5391973962
  0
LINE
  8
0
 62
7
  6
CONTINUOUS
 10
367.0293479651
 20
31.4101426505
 11
367.2605977445
 21
31.3778789641
  0
LINE
  8
0
 62
7
  6
CONTINUOUS
 10
369.8621602445
 20
31.4746700234
 11
369.6887227445
 21
31.5069337098
  0
LINE
  8
0
 62
7
  6
CONTINUOUS
 10
370.0355977445
 20
30.6035504109
 11
370.1512223035
 21
30.7003414814
  0
LINE
  8
0
 62
7
  6
CONTINUOUS
 10
364.543410024
 20
30.7971325633
 11
364.369972524
 21
30.7003414814
  0
LINE
  8
0
 62
7
  6
CONTINUOUS
 10
366.624660024
 20
31.4424063369
 11
366.5090354651
 21
31.3778789641
  0
LINE
  8
0
 62
7
  6
CONTINUOUS
 10
366.5090354651
 20
31.2488242184
 11
366.624660024
 21
31.3133515913
  0
LINE
  8
0
 62
7
  6
CONTINUOUS
 10
359.2246602583
 20
31.4746700234
 11
359.0512227376
 21
31.4101426505
  0
LINE
  8
0
 62
7
  6
CONTINUOUS
 10
361.6527851343
 20
31.5069337098
 11
361.4793477997
 21
31.4424063369
  0
LINE
  8
0
 62
7
  6
CONTINUOUS
 10
361.4793477997
 20
31.3133515913
 11
361.6527851343
 21
31.3778789641
  0
LINE
  8
0
 62
7
  6
CONTINUOUS
 10
360.2652852997
 20
30.7326051679
 11
360.091847717
 21
30.668077795
  0
LINE
  8
0
 62
7
  6
CONTINUOUS
 10
369.6887227445
 20
30.668077795
 11
369.4574729651
 21
30.6358140973
  0
LINE
  8
0
 62
7
  6
CONTINUOUS
 10
364.0809101343
 20
30.5067593403
 11
364.369972524
 21
30.5390230296
  0
LINE
  8
0
 62
7
  6
CONTINUOUS
 10
369.4574729651
 20
30.5067593403
 11
369.8043479651
 21
30.5390230296
  0
LINE
  8
0
 62
7
  6
CONTINUOUS
 10
359.744972717
 20
30.5067593403
 11
360.1496602445
 21
30.5390230296
  0
LINE
  8
0
 62
7
  6
CONTINUOUS
 10
360.091847717
 20
30.668077795
 11
359.6871602721
 21
30.6358140973
  0
LINE
  8
0
 62
7
  6
CONTINUOUS
 10
363.9652852445
 20
31.0552420547
 11
364.6012229651
 21
31.0552420547
  0
LINE
  8
0
 62
7
  6
CONTINUOUS
 10
364.6012229651
 20
31.1842968456
 11
363.9652852445
 21
31.1842968456
  0
LINE
  8
0
 62
7
  6
CONTINUOUS
 10
360.3230977445
 20
31.216560532
 11
360.6121602997
 21
31.216560532
  0
LINE
  8
0
 62
7
  6
CONTINUOUS
 10
363.1559103548
 20
31.2810879048
 11
363.4449727445
 21
31.2810879048
  0
LINE
  8
0
 62
7
  6
CONTINUOUS
 10
369.8621602445
 20
31.2810879048
 11
370.1512223035
 21
31.2810879048
  0
LINE
  8
0
 62
7
  6
CONTINUOUS
 10
363.8496603548
 20
31.4101426505
 11
364.1965353548
 21
31.4101426505
  0
LINE
  8
0
 62
7
  6
CONTINUOUS
 10
368.9949727445
 20
31.4101426505
 11
369.3418477445
 21
31.4101426505
  0
LINE
  8
0
 62
7
  6
CONTINUOUS
 10
369.3418477445
 20
31.5391973962
 11
368.9949727445
 21
31.5391973962
  0
LINE
  8
0
 62
7
  6
CONTINUOUS
 10
367.2605977445
 20
31.5391973962
 11
367.0293479651
 21
31.5391973962
  0
LINE
  8
0
 62
7
  6
CONTINUOUS
 10
366.5090354651
 20
31.5391973962
 11
366.2199727445
 21
31.5391973962
  0
LINE
  8
0
 62
7
  6
CONTINUOUS
 10
365.757472524
 20
31.5391973962
 11
365.4684104651
 21
31.5391973962
  0
LINE
  8
0
 62
7
  6
CONTINUOUS
 10
364.1965353548
 20
31.5391973962
 11
363.8496603548
 21
31.5391973962
  0
LINE
  8
0
 62
7
  6
CONTINUOUS
 10
362.1152853548
 20
31.5391973962
 11
361.8840352445
 21
31.5391973962
  0
LINE
  8
0
 62
7
  6
CONTINUOUS
 10
365.4684104651
 20
31.8618343508
 11
365.757472524
 21
31.8618343508
  0
LINE
  8
0
 62
7
  6
CONTINUOUS
 10
365.757472524
 20
32.0231527829
 11
365.4684104651
 21
32.0231527829
  0
LINE
  8
0
 62
7
  6
CONTINUOUS
 10
361.3637227445
 20
32.0231527829
 11
361.0746601894
 21
32.0231527829
  0
LINE
  8
0
 62
7
  6
CONTINUOUS
 10
360.4015045068
 20
32.3100380288
 11
360.8140758554
 21
32.3100380288
  0
LINE
  8
0
 62
7
  6
CONTINUOUS
 10
362.0408487691
 20
32.3100380288
 11
363.4342913921
 21
32.3100380288
  0
LINE
  8
0
 62
7
  6
CONTINUOUS
 10
363.7621602445
 20
32.3100380288
 11
365.1556028675
 21
32.3100380288
  0
LINE
  8
0
 62
7
  6
CONTINUOUS
 10
367.0408487691
 20
32.3100380288
 11
368.4342913921
 21
32.3100380288
  0
LINE
  8
0
 62
7
  6
CONTINUOUS
 10
368.7621602445
 20
32.3100380288
 11
370.1556028675
 21
32.3100380288
  0
LINE
  8
0
 62
7
  6
CONTINUOUS
 10
366.798097524
 20
31.5069337098
 11
366.624660024
 21
31.4424063369
  0
LINE
  8
0
 62
7
  6
CONTINUOUS
 10
364.369972524
 20
30.5390230296
 11
364.543410024
 21
30.6035504109
  0
LINE
  8
0
 62
7
  6
CONTINUOUS
 10
369.8043479651
 20
30.5390230296
 11
370.0355977445
 21
30.6035504109
  0
LINE
  8
0
 62
7
  6
CONTINUOUS
 10
369.8043479651
 20
30.7003414814
 11
369.6887227445
 21
30.668077795
  0
LINE
  8
0
 62
7
  6
CONTINUOUS
 10
368.7637229651
 20
31.3778789641
 11
368.9949727445
 21
31.4101426505
  0
LINE
  8
0
 62
7
  6
CONTINUOUS
 10
366.798097524
 20
31.3778789641
 11
367.0293479651
 21
31.4101426505
  0
LINE
  8
0
 62
7
  6
CONTINUOUS
 10
363.7340351343
 20
31.0229783683
 11
363.9652852445
 21
31.0552420547
  0
LINE
  8
0
 62
7
  6
CONTINUOUS
 10
367.0293479651
 20
31.5391973962
 11
366.798097524
 21
31.5069337098
  0
LINE
  8
0
 62
7
  6
CONTINUOUS
 10
363.6184102445
 20
31.3778789641
 11
363.8496603548
 21
31.4101426505
  0
LINE
  8
0
 62
7
  6
CONTINUOUS
 10
368.9949727445
 20
31.5391973962
 11
368.6480977445
 21
31.5069337098
  0
LINE
  8
0
 62
7
  6
CONTINUOUS
 10
363.9652852445
 20
31.1842968456
 11
363.6184102445
 21
31.1520331591
  0
LINE
  8
0
 62
7
  6
CONTINUOUS
 10
359.744972717
 20
31.5391973962
 11
359.3980977583
 21
31.5069337098
  0
LINE
  8
0
 62
7
  6
CONTINUOUS
 10
363.8496603548
 20
31.5391973962
 11
363.4449727445
 21
31.5069337098
  0
LINE
  8
0
 62
7
  6
CONTINUOUS
 10
361.221176638
 20
33.4575790124
 11
360.565438933
 21
33.4575790124
  0
LINE
  8
0
 62
7
  6
CONTINUOUS
 10
366.624660024
 20
31.3133515913
 11
366.798097524
 21
31.3778789641
  0
LINE
  8
0
 62
7
  6
CONTINUOUS
 10
368.6480977445
 20
31.3456152777
 11
368.7637229651
 21
31.3778789641
  0
LINE
  8
0
 62
7
  6
CONTINUOUS
 10
368.6480977445
 20
31.5069337098
 11
368.4168479651
 21
31.4424063369
  0
LINE
  8
0
 62
7
  6
CONTINUOUS
 10
364.369972524
 20
30.7003414814
 11
364.0809101343
 21
30.6358140973
  0
LINE
  8
0
 62
7
  6
CONTINUOUS
 10
361.6527851343
 20
31.3778789641
 11
361.8840352445
 21
31.4101426505
  0
LINE
  8
0
 62
7
  6
CONTINUOUS
 10
361.8840352445
 20
31.5391973962
 11
361.6527851343
 21
31.5069337098
  0
LINE
  8
0
 62
7
  6
CONTINUOUS
 10
359.4559102445
 20
31.3778789641
 11
359.6871602721
 21
31.4101426505
  0
LINE
  8
0
 62
7
  6
CONTINUOUS
 10
365.9752749986
 20
34.9329888485
 11
366.6310127035
 21
34.9329888485
  0
LINE
  8
0
 62
7
  6
CONTINUOUS
 10
363.6184102445
 20
30.9907146818
 11
363.7340351343
 21
31.0229783683
  0
LINE
  8
0
 62
7
  6
CONTINUOUS
 10
363.6184102445
 20
31.1520331591
 11
363.3871601343
 21
31.0875057863
  0
LINE
  8
0
 62
7
  6
CONTINUOUS
 10
363.5027853548
 20
31.3456152777
 11
363.6184102445
 21
31.3778789641
  0
LINE
  8
0
 62
7
  6
CONTINUOUS
 10
360.1496602445
 20
30.5390230296
 11
360.3809101894
 21
30.6035504109
  0
LINE
  8
0
 62
7
  6
CONTINUOUS
 10
363.4449727445
 20
31.5069337098
 11
363.3293478548
 21
31.4746700234
  0
LINE
  8
0
 62
7
  6
CONTINUOUS
 10
359.3980977583
 20
31.5069337098
 11
359.2246602583
 21
31.4746700234
  0
LINE
  8
0
 62
7
  6
CONTINUOUS
 10
370.1556028675
 20
36.0805298321
 11
368.7621602445
 21
36.0805298321
  0
LINE
  8
0
 62
7
  6
CONTINUOUS
 10
366.7949471298
 20
36.0805298321
 11
366.3823757812
 21
36.0805298321
  0
LINE
  8
0
 62
7
  6
CONTINUOUS
 10
365.1556028675
 20
36.0805298321
 11
363.7621602445
 21
36.0805298321
  0
LINE
  8
0
 62
7
  6
CONTINUOUS
 10
363.4342913921
 20
36.0805298321
 11
362.0408487691
 21
36.0805298321
  0
LINE
  8
0
 62
7
  6
CONTINUOUS
 10
360.1556028675
 20
36.0805298321
 11
358.7621602445
 21
36.0805298321
  0
LINE
  8
0
 62
7
  6
CONTINUOUS
 10
359.3402852307
 20
31.3456152777
 11
359.4559102445
 21
31.3778789641
  0
CIRCLE
  8
0
 62
7
  6
CONTINUOUS
 10
369.458881556
 20
38.4165954059
 40
2.0901639344
  0
ARC
  8
0
 62
7
  6
CONTINUOUS
 10
360.4015045068
 20
33.9493822911
 40
1.6393442623
 50
180.0
 51
270.0
  0
ARC
  8
0
 62
7
  6
CONTINUOUS
 10
366.7949471298
 20
34.4411855698
 40
1.6393442623
 50
0.0
 51
90.0
  0
ARC
  8
0
 62
7
  6
CONTINUOUS
 10
360.8140758554
 20
33.7854478649
 40
1.4754098361
 50
270.0
 51
326.2510114041
  0
ARC
  8
0
 62
7
  6
CONTINUOUS
 10
366.3823757812
 20
34.6051199961
 40
1.4754098361
 50
90.0
 51
146.2510114041
  0
ARC
  8
0
 62
7
  6
CONTINUOUS
 10
361.221176638
 20
34.2772511436
 40
0.8196721311
 50
270.0
 51
360.0
  0
ARC
  8
0
 62
7
  6
CONTINUOUS
 10
365.9752749986
 20
34.1133167174
 40
0.8196721311
 50
90.0
 51
180.0
  0
ARC
  8
0
 62
7
  6
CONTINUOUS
 10
360.565438933
 20
33.867415078
 40
0.4098360656
 50
180.0
 51
270.0
  0
ARC
  8
0
 62
7
  6
CONTINUOUS
 10
366.6310127035
 20
34.5231527829
 40
0.4098360656
 50
0.0
 51
90.0
  0
SOLID
  8
0
 62
7
  6
CONTINUOUS
 10
365.4684104651
 20
31.8618347111
 11
365.4684104651
 21
32.0231531947
 12
365.757472524
 22
31.8618347111
 13
365.757472524
 23
32.0231531947
  0
SOLID
  8
0
 62
7
  6
CONTINUOUS
 10
359.744972717
 20
31.5391977439
 11
360.1496602445
 21
31.5069333244
 12
359.3980977583
 22
31.5069333244
 13
359.3980977583
 23
31.5069333244
  0
SOLID
  8
0
 62
7
  6
CONTINUOUS
 10
359.2246602583
 20
31.4746706537
 11
359.3980977583
 21
31.5069333244
 12
360.1496602445
 22
31.5069333244
 13
360.1496602445
 23
31.5069333244
  0
SOLID
  8
0
 62
7
  6
CONTINUOUS
 10
360.1496602445
 20
31.5069333244
 11
360.3809101894
 21
31.4424063504
 12
359.2246602583
 22
31.4746706537
 13
359.2246602583
 23
31.4746706537
  0
SOLID
  8
0
 62
7
  6
CONTINUOUS
 10
359.0512227376
 20
31.4101419116
 11
359.2246602583
 21
31.4746706537
 12
360.3809101894
 22
31.4424063504
 13
360.3809101894
 23
31.4424063504
  0
SOLID
  8
0
 62
7
  6
CONTINUOUS
 10
359.0512227376
 20
31.4101419116
 11
360.3809101894
 21
31.4424063504
 12
359.6871602721
 22
31.4101419116
 13
359.6871602721
 23
31.4101419116
  0
SOLID
  8
0
 62
7
  6
CONTINUOUS
 10
359.6871602721
 20
31.4101419116
 11
360.3809101894
 21
31.4424063504
 12
360.091847717
 22
31.3778792603
 13
360.091847717
 23
31.3778792603
  0
SOLID
  8
0
 62
7
  6
CONTINUOUS
 10
360.3809101894
 20
31.4424063504
 11
360.5543476894
 21
31.345614957
 12
360.091847717
 22
31.3778792603
 13
360.091847717
 23
31.3778792603
  0
SOLID
  8
0
 62
7
  6
CONTINUOUS
 10
360.2652852997
 20
31.3133521701
 11
360.091847717
 21
31.3778792603
 12
360.5543476894
 22
31.345614957
 13
360.5543476894
 23
31.345614957
  0
SOLID
  8
0
 62
7
  6
CONTINUOUS
 10
360.2652852997
 20
31.3133521701
 11
360.5543476894
 21
31.345614957
 12
360.3230977445
 22
31.2165606992
 13
360.3230977445
 23
31.2165606992
  0
SOLID
  8
0
 62
7
  6
CONTINUOUS
 10
360.5543476894
 20
31.345614957
 11
360.6121602997
 21
31.2165606992
 12
360.3230977445
 22
31.2165606992
 13
360.3230977445
 23
31.2165606992
  0
SOLID
  8
0
 62
7
  6
CONTINUOUS
 10
361.6527851343
 20
31.5069329918
 11
361.8840352445
 21
31.5391972951
 12
362.1152853548
 22
31.5391972951
 13
362.1152853548
 23
31.5391972951
  0
SOLID
  8
0
 62
7
  6
CONTINUOUS
 10
362.1152853548
 20
31.5391972951
 11
362.2887228548
 21
31.5069329918
 12
361.6527851343
 22
31.5069329918
 13
361.6527851343
 23
31.5069329918
  0
SOLID
  8
0
 62
7
  6
CONTINUOUS
 10
361.4793477997
 20
31.4424059016
 11
361.6527851343
 21
31.5069329918
 12
362.2887228548
 22
31.5069329918
 13
362.2887228548
 23
31.5069329918
  0
SOLID
  8
0
 62
7
  6
CONTINUOUS
 10
362.2887228548
 20
31.5069329918
 11
362.4621603548
 21
31.4424059016
 12
361.4793477997
 22
31.4424059016
 13
361.4793477997
 23
31.4424059016
  0
SOLID
  8
0
 62
7
  6
CONTINUOUS
 10
362.4621603548
 20
31.4424059016
 11
361.8840352445
 21
31.4101420472
 12
361.4793477997
 22
31.4424059016
 13
361.4793477997
 23
31.4424059016
  0
SOLID
  8
0
 62
7
  6
CONTINUOUS
 10
361.3637227445
 20
31.3778788115
 11
361.4793477997
 21
31.4424059016
 12
361.8840352445
 22
31.4101420472
 13
361.8840352445
 23
31.4101420472
  0
SOLID
  8
0
 62
7
  6
CONTINUOUS
 10
361.8840352445
 20
31.4101420472
 11
361.6527851343
 21
31.3778788115
 12
361.3637227445
 22
31.3778788115
 13
361.3637227445
 23
31.3778788115
  0
SOLID
  8
0
 62
7
  6
CONTINUOUS
 10
361.8840352445
 20
31.4101420472
 11
362.4621603548
 21
31.4424059016
 12
362.1152853548
 22
31.3778788115
 13
362.1152853548
 23
31.3778788115
  0
SOLID
  8
0
 62
7
  6
CONTINUOUS
 10
362.4621603548
 20
31.4424059016
 11
362.5777852445
 21
31.3778788115
 12
362.1152853548
 22
31.3778788115
 13
362.1152853548
 23
31.3778788115
  0
SOLID
  8
0
 62
7
  6
CONTINUOUS
 10
362.2309102445
 20
31.345614957
 11
362.1152853548
 21
31.3778788115
 12
362.5777852445
 22
31.3778788115
 13
362.5777852445
 23
31.3778788115
  0
SOLID
  8
0
 62
7
  6
CONTINUOUS
 10
362.5777852445
 20
31.3778788115
 11
362.6355978548
 21
31.3133517213
 12
362.2309102445
 22
31.345614957
 13
362.2309102445
 23
31.345614957
  0
SOLID
  8
0
 62
7
  6
CONTINUOUS
 10
362.3465351343
 20
31.2810878668
 11
362.2309102445
 21
31.345614957
 12
362.6355978548
 22
31.3133517213
 13
362.6355978548
 23
31.3133517213
  0
SOLID
  8
0
 62
7
  6
CONTINUOUS
 10
362.3465351343
 20
31.2810878668
 11
362.6355978548
 21
31.3133517213
 12
362.4043477445
 22
31.1520332377
 13
362.4043477445
 23
31.1520332377
  0
SOLID
  8
0
 62
7
  6
CONTINUOUS
 10
362.6355978548
 20
31.3133517213
 11
362.6934101343
 21
31.1520332377
 12
362.4043477445
 22
31.1520332377
 13
362.4043477445
 23
31.1520332377
  0
SOLID
  8
0
 62
7
  6
CONTINUOUS
 10
361.6527851343
 20
31.3778788115
 11
361.4793477997
 21
31.3133517213
 12
361.3637227445
 22
31.3778788115
 13
361.3637227445
 23
31.3778788115
  0
SOLID
  8
0
 62
7
  6
CONTINUOUS
 10
361.4793477997
 20
31.3133517213
 11
361.3637227445
 21
31.2488235635
 12
361.3637227445
 22
31.3778788115
 13
361.3637227445
 23
31.3778788115
  0
SOLID
  8
0
 62
7
  6
CONTINUOUS
 10
361.3637227445
 20
31.2488235635
 11
361.0746601894
 21
30.5067593033
 12
361.3637227445
 22
31.3778788115
 13
361.3637227445
 23
31.3778788115
  0
SOLID
  8
0
 62
7
  6
CONTINUOUS
 10
361.3637227445
 20
31.3778788115
 11
361.0746601894
 21
30.5067593033
 12
361.3637227445
 22
32.0231527459
 13
361.3637227445
 23
32.0231527459
  0
SOLID
  8
0
 62
7
  6
CONTINUOUS
 10
361.0746601894
 20
30.5067593033
 11
361.0746601894
 21
32.0231527459
 12
361.3637227445
 22
32.0231527459
 13
361.3637227445
 23
32.0231527459
  0
SOLID
  8
0
 62
7
  6
CONTINUOUS
 10
361.3637227445
 20
31.2488235635
 11
361.3637227445
 21
30.5067593033
 12
361.0746601894
 22
30.5067593033
 13
361.0746601894
 23
30.5067593033
  0
SOLID
  8
0
 62
7
  6
CONTINUOUS
 10
362.4043477445
 20
30.5067593033
 11
362.4043477445
 21
31.1520332377
 12
362.6934101343
 22
31.1520332377
 13
362.6934101343
 23
31.1520332377
  0
SOLID
  8
0
 62
7
  6
CONTINUOUS
 10
362.6934101343
 20
31.1520332377
 11
362.6934101343
 21
30.5067593033
 12
362.4043477445
 22
30.5067593033
 13
362.4043477445
 23
30.5067593033
  0
SOLID
  8
0
 62
7
  6
CONTINUOUS
 10
363.4449727445
 20
31.506933758
 11
363.8496603548
 21
31.5391977507
 12
364.1965353548
 22
31.5391977507
 13
364.1965353548
 23
31.5391977507
  0
SOLID
  8
0
 62
7
  6
CONTINUOUS
 10
364.1965353548
 20
31.5391977507
 11
364.543410024
 21
31.506933758
 12
363.4449727445
 22
31.506933758
 13
363.4449727445
 23
31.506933758
  0
SOLID
  8
0
 62
7
  6
CONTINUOUS
 10
363.3293478548
 20
31.4746706537
 11
363.4449727445
 21
31.506933758
 12
364.543410024
 22
31.506933758
 13
364.543410024
 23
31.506933758
  0
SOLID
  8
0
 62
7
  6
CONTINUOUS
 10
364.543410024
 20
31.506933758
 11
364.716847524
 21
31.4424063504
 12
363.3293478548
 22
31.4746706537
 13
363.3293478548
 23
31.4746706537
  0
SOLID
  8
0
 62
7
  6
CONTINUOUS
 10
363.2137226343
 20
31.4101417797
 11
363.3293478548
 21
31.4746706537
 12
364.716847524
 22
31.4424063504
 13
364.716847524
 23
31.4424063504
  0
SOLID
  8
0
 62
7
  6
CONTINUOUS
 10
363.2137226343
 20
31.4101417797
 11
364.716847524
 21
31.4424063504
 12
363.8496603548
 22
31.4101417797
 13
363.8496603548
 23
31.4101417797
  0
SOLID
  8
0
 62
7
  6
CONTINUOUS
 10
363.8496603548
 20
31.4101417797
 11
364.716847524
 21
31.4424063504
 12
364.1965353548
 22
31.4101417797
 13
364.1965353548
 23
31.4101417797
  0
SOLID
  8
0
 62
7
  6
CONTINUOUS
 10
364.1965353548
 20
31.4101417797
 11
364.716847524
 21
31.4424063504
 12
364.4277854651
 22
31.3778793357
 13
364.4277854651
 23
31.3778793357
  0
SOLID
  8
0
 62
7
  6
CONTINUOUS
 10
364.716847524
 20
31.4424063504
 11
364.8324727445
 21
31.3778793357
 12
364.4277854651
 22
31.3778793357
 13
364.4277854651
 23
31.3778793357
  0
SOLID
  8
0
 62
7
  6
CONTINUOUS
 10
363.1559103548
 20
31.3456153429
 11
363.2137226343
 21
31.4101417797
 12
363.8496603548
 22
31.4101417797
 13
363.8496603548
 23
31.4101417797
  0
SOLID
  8
0
 62
7
  6
CONTINUOUS
 10
364.543410024
 20
31.3456153429
 11
364.4277854651
 21
31.3778793357
 12
364.8324727445
 22
31.3778793357
 13
364.8324727445
 23
31.3778793357
  0
SOLID
  8
0
 62
7
  6
CONTINUOUS
 10
364.543410024
 20
31.3456153429
 11
364.8324727445
 21
31.3778793357
 12
364.6012229651
 22
31.2810881318
 13
364.6012229651
 23
31.2810881318
  0
SOLID
  8
0
 62
7
  6
CONTINUOUS
 10
364.8324727445
 20
31.3778793357
 11
364.890285024
 21
31.2810881318
 12
364.6012229651
 22
31.2810881318
 13
364.6012229651
 23
31.2810881318
  0
SOLID
  8
0
 62
7
  6
CONTINUOUS
 10
364.6012229651
 20
31.1842964734
 11
364.6012229651
 21
31.2810881318
 12
364.890285024
 22
31.2810881318
 13
364.890285024
 23
31.2810881318
  0
SOLID
  8
0
 62
7
  6
CONTINUOUS
 10
364.6012229651
 20
31.1842964734
 11
364.890285024
 21
31.2810881318
 12
364.6012229651
 22
31.0552422931
 13
364.6012229651
 23
31.0552422931
  0
SOLID
  8
0
 62
7
  6
CONTINUOUS
 10
364.6012229651
 20
31.0552422931
 11
364.890285024
 21
31.2810881318
 12
364.6012229651
 22
30.8616599362
 13
364.6012229651
 23
30.8616599362
  0
SOLID
  8
0
 62
7
  6
CONTINUOUS
 10
364.890285024
 20
31.2810881318
 11
364.890285024
 21
30.7648681127
 12
364.6012229651
 22
30.8616599362
 13
364.6012229651
 23
30.8616599362
  0
SOLID
  8
0
 62
7
  6
CONTINUOUS
 10
366.798097524
 20
31.5069339419
 11
367.0293479651
 21
31.5391976292
 12
367.2605977445
 22
31.5391976292
 13
367.2605977445
 23
31.5391976292
  0
SOLID
  8
0
 62
7
  6
CONTINUOUS
 10
367.2605977445
 20
31.5391976292
 11
367.4340352445
 21
31.5069339419
 12
366.798097524
 22
31.5069339419
 13
366.798097524
 23
31.5069339419
  0
SOLID
  8
0
 62
7
  6
CONTINUOUS
 10
366.624660024
 20
31.4424065674
 11
366.798097524
 21
31.5069339419
 12
367.4340352445
 22
31.5069339419
 13
367.4340352445
 23
31.5069339419
  0
SOLID
  8
0
 62
7
  6
CONTINUOUS
 10
367.4340352445
 20
31.5069339419
 11
367.6074727445
 21
31.4424065674
 12
366.624660024
 22
31.4424065674
 13
366.624660024
 23
31.4424065674
  0
SOLID
  8
0
 62
7
  6
CONTINUOUS
 10
367.6074727445
 20
31.4424065674
 11
367.0293479651
 21
31.4101420472
 12
366.624660024
 22
31.4424065674
 13
366.624660024
 23
31.4424065674
  0
SOLID
  8
0
 62
7
  6
CONTINUOUS
 10
366.5090354651
 20
31.377879193
 11
366.624660024
 21
31.4424065674
 12
367.0293479651
 22
31.4101420472
 13
367.0293479651
 23
31.4101420472
  0
SOLID
  8
0
 62
7
  6
CONTINUOUS
 10
367.0293479651
 20
31.4101420472
 11
366.798097524
 21
31.377879193
 12
366.5090354651
 22
31.377879193
 13
366.5090354651
 23
31.377879193
  0
SOLID
  8
0
 62
7
  6
CONTINUOUS
 10
367.0293479651
 20
31.4101420472
 11
367.6074727445
 21
31.4424065674
 12
367.2605977445
 22
31.377879193
 13
367.2605977445
 23
31.377879193
  0
SOLID
  8
0
 62
7
  6
CONTINUOUS
 10
367.6074727445
 20
31.4424065674
 11
367.7230979651
 21
31.377879193
 12
367.2605977445
 22
31.377879193
 13
367.2605977445
 23
31.377879193
  0
SOLID
  8
0
 62
7
  6
CONTINUOUS
 10
367.3762229651
 20
31.345614957
 11
367.2605977445
 21
31.377879193
 12
367.7230979651
 22
31.377879193
 13
367.7230979651
 23
31.377879193
  0
SOLID
  8
0
 62
7
  6
CONTINUOUS
 10
367.3762229651
 20
31.345614957
 11
367.7230979651
 21
31.377879193
 12
367.491847524
 22
31.2810881312
 13
367.491847524
 23
31.2810881312
  0
SOLID
  8
0
 62
7
  6
CONTINUOUS
 10
367.7230979651
 20
31.377879193
 11
367.7809102445
 21
31.2810881312
 12
367.491847524
 22
31.2810881312
 13
367.491847524
 23
31.2810881312
  0
SOLID
  8
0
 62
7
  6
CONTINUOUS
 10
367.5496604651
 20
31.119769695
 11
367.491847524
 21
31.2810881312
 12
367.7809102445
 22
31.2810881312
 13
367.7809102445
 23
31.2810881312
  0
SOLID
  8
0
 62
7
  6
CONTINUOUS
 10
367.7809102445
 20
31.2810881312
 11
367.838722524
 21
31.119769695
 12
367.5496604651
 22
31.119769695
 13
367.5496604651
 23
31.119769695
  0
SOLID
  8
0
 62
7
  6
CONTINUOUS
 10
366.798097524
 20
31.377879193
 11
366.624660024
 21
31.3133521701
 12
366.5090354651
 22
31.377879193
 13
366.5090354651
 23
31.377879193
  0
SOLID
  8
0
 62
7
  6
CONTINUOUS
 10
366.624660024
 20
31.3133521701
 11
366.5090354651
 21
31.2488235635
 12
366.5090354651
 22
31.377879193
 13
366.5090354651
 23
31.377879193
  0
SOLID
  8
0
 62
7
  6
CONTINUOUS
 10
366.5090354651
 20
31.2488235635
 11
366.2199727445
 21
30.5067596374
 12
366.5090354651
 22
31.377879193
 13
366.5090354651
 23
31.377879193
  0
SOLID
  8
0
 62
7
  6
CONTINUOUS
 10
366.5090354651
 20
31.377879193
 11
366.2199727445
 21
30.5067596374
 12
366.5090354651
 22
31.5391976292
 13
366.5090354651
 23
31.5391976292
  0
SOLID
  8
0
 62
7
  6
CONTINUOUS
 10
366.2199727445
 20
30.5067596374
 11
366.2199727445
 21
31.5391976292
 12
366.5090354651
 22
31.5391976292
 13
366.5090354651
 23
31.5391976292
  0
SOLID
  8
0
 62
7
  6
CONTINUOUS
 10
366.5090354651
 20
31.2488235635
 11
366.5090354651
 21
30.5067596374
 12
366.2199727445
 22
30.5067596374
 13
366.2199727445
 23
30.5067596374
  0
SOLID
  8
0
 62
7
  6
CONTINUOUS
 10
367.5496604651
 20
30.5067596374
 11
367.5496604651
 21
31.119769695
 12
367.838722524
 22
31.119769695
 13
367.838722524
 23
31.119769695
  0
SOLID
  8
0
 62
7
  6
CONTINUOUS
 10
367.838722524
 20
31.119769695
 11
367.838722524
 21
30.5067596374
 12
367.5496604651
 22
30.5067596374
 13
367.5496604651
 23
30.5067596374
  0
SOLID
  8
0
 62
7
  6
CONTINUOUS
 10
368.6480977445
 20
31.5069334157
 11
368.9949727445
 21
31.539197762
 12
369.3418477445
 22
31.539197762
 13
369.3418477445
 23
31.539197762
  0
SOLID
  8
0
 62
7
  6
CONTINUOUS
 10
369.3418477445
 20
31.539197762
 11
369.6887227445
 21
31.5069334157
 12
368.6480977445
 22
31.5069334157
 13
368.6480977445
 23
31.5069334157
  0
SOLID
  8
0
 62
7
  6
CONTINUOUS
 10
368.4168479651
 20
31.4424063504
 11
368.6480977445
 21
31.5069334157
 12
369.6887227445
 22
31.5069334157
 13
369.6887227445
 23
31.5069334157
  0
SOLID
  8
0
 62
7
  6
CONTINUOUS
 10
368.4168479651
 20
31.4424063504
 11
369.6887227445
 21
31.5069334406
 12
369.8621602445
 22
31.4746706537
 13
369.8621602445
 23
31.4746706537
  0
SOLID
  8
0
 62
7
  6
CONTINUOUS
 10
368.4168479651
 20
31.4424063504
 11
369.8621602445
 21
31.4746706537
 12
368.9949727445
 22
31.4101421267
 13
368.9949727445
 23
31.4101421267
  0
SOLID
  8
0
 62
7
  6
CONTINUOUS
 10
368.9949727445
 20
31.4101421267
 11
369.8621602445
 21
31.4746706537
 12
369.3418477445
 22
31.4101421267
 13
369.3418477445
 23
31.4101421267
  0
SOLID
  8
0
 62
7
  6
CONTINUOUS
 10
369.8621602445
 20
31.4746706537
 11
370.0355977445
 21
31.4101421267
 12
369.3418477445
 22
31.4101421267
 13
369.3418477445
 23
31.4101421267
  0
SOLID
  8
0
 62
7
  6
CONTINUOUS
 10
369.6887227445
 20
31.3778792603
 11
369.3418477445
 21
31.4101421267
 12
370.0355977445
 22
31.4101421267
 13
370.0355977445
 23
31.4101421267
  0
SOLID
  8
0
 62
7
  6
CONTINUOUS
 10
368.3012227445
 20
31.3456148845
 11
368.4168479651
 21
31.4424063504
 12
368.9949727445
 22
31.4101421267
 13
368.9949727445
 23
31.4101421267
  0
SOLID
  8
0
 62
7
  6
CONTINUOUS
 10
369.6887227445
 20
31.3778792603
 11
370.0355977445
 21
31.4101421267
 12
369.8043479651
 22
31.3456148845
 13
369.8043479651
 23
31.3456148845
  0
SOLID
  8
0
 62
7
  6
CONTINUOUS
 10
369.8043479651
 20
31.3456148845
 11
370.0355977445
 21
31.4101421267
 12
369.8621602445
 22
31.281087868
 13
369.8621602445
 23
31.281087868
  0
SOLID
  8
0
 62
7
  6
CONTINUOUS
 10
370.0355977445
 20
31.4101421267
 11
370.1512223035
 21
31.281087868
 12
369.8621602445
 22
31.281087868
 13
369.8621602445
 23
31.281087868
  0
SOLID
  8
0
 62
7
  6
CONTINUOUS
 10
359.4559102445
 20
31.3778792603
 11
358.9355977445
 21
31.3456148963
 12
359.6871602721
 22
31.4101421155
 13
359.6871602721
 23
31.4101421155
  0
SOLID
  8
0
 62
7
  6
CONTINUOUS
 10
358.9355977445
 20
31.3456148963
 11
359.0512227376
 21
31.4101421155
 12
359.6871602721
 22
31.4101421155
 13
359.6871602721
 23
31.4101421155
  0
SOLID
  8
0
 62
7
  6
CONTINUOUS
 10
359.4559102445
 20
31.3778792603
 11
359.3402852307
 21
31.3456148963
 12
358.9355977445
 22
31.3456148963
 13
358.9355977445
 23
31.3456148963
  0
SOLID
  8
0
 62
7
  6
CONTINUOUS
 10
358.8199727462
 20
31.2165607767
 11
358.9355977445
 21
31.3456148963
 12
359.3402852307
 22
31.3456148963
 13
359.3402852307
 23
31.3456148963
  0
SOLID
  8
0
 62
7
  6
CONTINUOUS
 10
363.1559103548
 20
31.3456149608
 11
363.8496603548
 21
31.4101420472
 12
363.6184102445
 22
31.3778792603
 13
363.6184102445
 23
31.3778792603
  0
SOLID
  8
0
 62
7
  6
CONTINUOUS
 10
363.6184102445
 20
31.3778792603
 11
363.5027853548
 21
31.3456149608
 12
363.1559103548
 22
31.3456149608
 13
363.1559103548
 23
31.3456149608
  0
SOLID
  8
0
 62
7
  6
CONTINUOUS
 10
363.1559103548
 20
31.2810878707
 11
363.1559103548
 21
31.3456149608
 12
363.5027853548
 22
31.3456149608
 13
363.5027853548
 23
31.3456149608
  0
SOLID
  8
0
 62
7
  6
CONTINUOUS
 10
363.5027853548
 20
31.3456149608
 11
363.4449727445
 21
31.2810878707
 12
363.1559103548
 22
31.2810878707
 13
363.1559103548
 23
31.2810878707
  0
SOLID
  8
0
 62
7
  6
CONTINUOUS
 10
368.3012227445
 20
31.3456149608
 11
368.9949727445
 21
31.4101420472
 12
368.7637229651
 22
31.3778792603
 13
368.7637229651
 23
31.3778792603
  0
SOLID
  8
0
 62
7
  6
CONTINUOUS
 10
368.7637229651
 20
31.3778792603
 11
368.6480977445
 21
31.3456149608
 12
368.3012227445
 22
31.3456149608
 13
368.3012227445
 23
31.3456149608
  0
SOLID
  8
0
 62
7
  6
CONTINUOUS
 10
368.3012227445
 20
31.2810878707
 11
368.3012227445
 21
31.3456149608
 12
368.6480977445
 22
31.3456149608
 13
368.6480977445
 23
31.3456149608
  0
SOLID
  8
0
 62
7
  6
CONTINUOUS
 10
368.6480977445
 20
31.3456149608
 11
368.5902854651
 21
31.2810878707
 12
368.3012227445
 22
31.2810878707
 13
368.3012227445
 23
31.2810878707
  0
SOLID
  8
0
 62
7
  6
CONTINUOUS
 10
368.4168479651
 20
31.1520336865
 11
368.3012227445
 21
31.2810878707
 12
368.5902854651
 22
31.2810878707
 13
368.5902854651
 23
31.2810878707
  0
SOLID
  8
0
 62
7
  6
CONTINUOUS
 10
358.8199727462
 20
31.2165607767
 11
359.3402852307
 21
31.345614957
 12
359.1668477307
 22
31.2488235635
 13
359.1668477307
 23
31.2488235635
  0
SOLID
  8
0
 62
7
  6
CONTINUOUS
 10
359.1668477307
 20
31.2488235635
 11
359.1090352445
 21
31.1842964734
 12
358.8199727462
 22
31.2165607767
 13
358.8199727462
 23
31.2165607767
  0
SOLID
  8
0
 62
7
  6
CONTINUOUS
 10
358.7621602445
 20
31.0229779898
 11
358.8199727462
 21
31.2165607767
 12
359.1090352445
 22
31.1842964734
 13
359.1090352445
 23
31.1842964734
  0
SOLID
  8
0
 62
7
  6
CONTINUOUS
 10
363.6184102445
 20
31.1520336865
 11
363.9652852445
 21
31.1842964611
 12
364.6012229651
 22
31.1842964611
 13
364.6012229651
 23
31.1842964611
  0
SOLID
  8
0
 62
7
  6
CONTINUOUS
 10
363.6184102445
 20
31.1520336865
 11
364.6012229651
 21
31.1842964611
 12
363.3871601343
 22
31.0875057863
 13
363.3871601343
 23
31.0875057863
  0
SOLID
  8
0
 62
7
  6
CONTINUOUS
 10
363.3871601343
 20
31.0875057863
 11
364.6012229651
 21
31.1842964611
 12
363.9652852445
 22
31.0552422808
 13
363.9652852445
 23
31.0552422808
  0
SOLID
  8
0
 62
7
  6
CONTINUOUS
 10
364.6012229651
 20
31.1842964611
 11
364.6012229651
 21
31.0552422808
 12
363.9652852445
 22
31.0552422808
 13
363.9652852445
 23
31.0552422808
  0
SOLID
  8
0
 62
7
  6
CONTINUOUS
 10
368.4168479651
 20
31.1520338754
 11
368.5902854651
 21
31.2810878668
 12
368.6480977445
 22
31.2165607767
 13
368.6480977445
 23
31.2165607767
  0
SOLID
  8
0
 62
7
  6
CONTINUOUS
 10
368.6480977445
 20
31.2165607767
 11
368.8215352445
 21
31.1520338754
 12
368.4168479651
 22
31.1520338754
 13
368.4168479651
 23
31.1520338754
  0
SOLID
  8
0
 62
7
  6
CONTINUOUS
 10
368.6480977445
 20
31.0552422931
 11
368.4168479651
 21
31.1520338754
 12
368.8215352445
 22
31.1520338754
 13
368.8215352445
 23
31.1520338754
  0
SOLID
  8
0
 62
7
  6
CONTINUOUS
 10
368.8215352445
 20
31.1520338754
 11
369.8043479651
 21
30.9907152029
 12
368.6480977445
 22
31.0552422931
 13
368.6480977445
 23
31.0552422931
  0
SOLID
  8
0
 62
7
  6
CONTINUOUS
 10
369.6309104651
 20
30.8939239876
 11
368.6480977445
 21
31.0552422931
 12
369.8043479651
 22
30.9907152029
 13
369.8043479651
 23
30.9907152029
  0
SOLID
  8
0
 62
7
  6
CONTINUOUS
 10
369.8043479651
 20
30.9907152029
 11
370.0355977445
 21
30.8939239876
 12
369.6309104651
 22
30.8939239876
 13
369.6309104651
 23
30.8939239876
  0
SOLID
  8
0
 62
7
  6
CONTINUOUS
 10
369.8043479651
 20
30.8293967193
 11
369.6309104651
 21
30.8939239876
 12
370.0355977445
 22
30.8939239876
 13
370.0355977445
 23
30.8939239876
  0
SOLID
  8
0
 62
7
  6
CONTINUOUS
 10
369.8043479651
 20
30.8293967193
 11
370.0355977445
 21
30.8939239876
 12
369.8621602445
 22
30.7648682694
 13
369.8621602445
 23
30.7648682694
  0
SOLID
  8
0
 62
7
  6
CONTINUOUS
 10
370.0355977445
 20
30.8939239876
 11
370.1512223035
 21
30.7648682694
 12
369.8621602445
 22
30.7648682694
 13
369.8621602445
 23
30.7648682694
  0
SOLID
  8
0
 62
7
  6
CONTINUOUS
 10
369.8043479651
 20
30.7003411846
 11
369.8621602445
 21
30.7648682694
 12
370.1512223035
 22
30.7648682694
 13
370.1512223035
 23
30.7648682694
  0
SOLID
  8
0
 62
7
  6
CONTINUOUS
 10
370.1512223035
 20
30.7648682694
 11
370.1512223035
 21
30.7003411846
 12
369.8043479651
 22
30.7003411846
 13
369.8043479651
 23
30.7003411846
  0
SOLID
  8
0
 62
7
  6
CONTINUOUS
 10
369.6887227445
 20
30.6680782357
 11
369.8043479651
 21
30.7003411846
 12
370.1512223035
 22
30.7003411846
 13
370.1512223035
 23
30.7003411846
  0
SOLID
  8
0
 62
7
  6
CONTINUOUS
 10
369.6887227445
 20
30.6680782357
 11
370.1512223035
 21
30.7003411846
 12
369.4574729651
 22
30.6358140998
 13
369.4574729651
 23
30.6358140998
  0
SOLID
  8
0
 62
7
  6
CONTINUOUS
 10
370.1512223035
 20
30.7003411846
 11
370.0355977445
 21
30.6035511455
 12
369.4574729651
 22
30.6358140998
 13
369.4574729651
 23
30.6358140998
  0
SOLID
  8
0
 62
7
  6
CONTINUOUS
 10
370.0355977445
 20
30.6035511455
 11
368.5902854651
 21
30.5712868422
 12
369.4574729651
 22
30.6358140998
 13
369.4574729651
 23
30.6358140998
  0
SOLID
  8
0
 62
7
  6
CONTINUOUS
 10
369.4574729651
 20
30.6358140998
 11
368.5902854651
 21
30.5712868422
 12
369.1105979651
 22
30.6358140998
 13
369.1105979651
 23
30.6358140998
  0
SOLID
  8
0
 62
7
  6
CONTINUOUS
 10
368.5902854651
 20
30.5712868422
 11
368.4168479651
 21
30.6358140998
 12
369.1105979651
 22
30.6358140998
 13
369.1105979651
 23
30.6358140998
  0
SOLID
  8
0
 62
7
  6
CONTINUOUS
 10
368.5902854651
 20
30.5712868422
 11
370.0355977445
 21
30.6035511455
 12
368.7637229651
 22
30.5390223111
 13
368.7637229651
 23
30.5390223111
  0
SOLID
  8
0
 62
7
  6
CONTINUOUS
 10
370.0355977445
 20
30.6035511455
 11
369.8043479651
 21
30.5390223111
 12
368.7637229651
 22
30.5390223111
 13
368.7637229651
 23
30.5390223111
  0
SOLID
  8
0
 62
7
  6
CONTINUOUS
 10
369.1105979651
 20
30.5067599302
 11
368.7637229651
 21
30.5390223111
 12
369.8043479651
 22
30.5390223111
 13
369.8043479651
 23
30.5390223111
  0
SOLID
  8
0
 62
7
  6
CONTINUOUS
 10
369.8043479651
 20
30.5390223111
 11
369.4574729651
 21
30.5067599302
 12
369.1105979651
 22
30.5067599302
 13
369.1105979651
 23
30.5067599302
  0
SOLID
  8
0
 62
7
  6
CONTINUOUS
 10
358.7621602445
 20
31.0229779898
 11
359.1090352445
 21
31.1842964734
 12
359.0512227376
 22
31.0552422931
 13
359.0512227376
 23
31.0552422931
  0
SOLID
  8
0
 62
7
  6
CONTINUOUS
 10
359.0512227376
 20
31.0552422931
 11
359.0512227376
 21
30.9584509954
 12
358.7621602445
 22
31.0229779898
 13
358.7621602445
 23
31.0229779898
  0
SOLID
  8
0
 62
7
  6
CONTINUOUS
 10
358.8199727462
 20
30.8293967193
 11
358.7621602445
 21
31.0229779898
 12
359.0512227376
 22
30.9584509954
 13
359.0512227376
 23
30.9584509954
  0
SOLID
  8
0
 62
7
  6
CONTINUOUS
 10
359.0512227376
 20
30.9584509954
 11
359.1668477307
 21
30.797132416
 12
358.8199727462
 22
30.8293967193
 13
358.8199727462
 23
30.8293967193
  0
SOLID
  8
0
 62
7
  6
CONTINUOUS
 10
358.9355977445
 20
30.7003413087
 11
358.8199727462
 21
30.8293967193
 12
359.1668477307
 22
30.797132416
 13
359.1668477307
 23
30.797132416
  0
SOLID
  8
0
 62
7
  6
CONTINUOUS
 10
359.1668477307
 20
30.797132416
 11
359.3402852307
 21
30.7003413087
 12
358.9355977445
 22
30.7003413087
 13
358.9355977445
 23
30.7003413087
  0
SOLID
  8
0
 62
7
  6
CONTINUOUS
 10
359.0512227376
 20
30.6358140759
 11
358.9355977445
 21
30.7003413087
 12
359.3402852307
 22
30.7003413087
 13
359.3402852307
 23
30.7003413087
  0
SOLID
  8
0
 62
7
  6
CONTINUOUS
 10
359.3402852307
 20
30.7003413087
 11
359.6871602721
 21
30.6358140759
 12
359.0512227376
 22
30.6358140759
 13
359.0512227376
 23
30.6358140759
  0
SOLID
  8
0
 62
7
  6
CONTINUOUS
 10
359.2246602583
 20
30.5712868422
 11
359.0512227376
 21
30.6358140759
 12
359.6871602721
 22
30.6358140759
 13
359.6871602721
 23
30.6358140759
  0
SOLID
  8
0
 62
7
  6
CONTINUOUS
 10
363.2715352445
 20
31.0229779808
 11
363.3871601343
 21
31.0875057863
 12
363.9652852445
 22
31.0552422931
 13
363.9652852445
 23
31.0552422931
  0
SOLID
  8
0
 62
7
  6
CONTINUOUS
 10
363.9652852445
 20
31.0552422931
 11
363.7340351343
 21
31.0229779808
 12
363.2715352445
 22
31.0229779808
 13
363.2715352445
 23
31.0229779808
  0
SOLID
  8
0
 62
7
  6
CONTINUOUS
 10
363.1559103548
 20
30.8939238094
 11
363.2715352445
 21
31.0229779808
 12
363.7340351343
 22
31.0229779808
 13
363.7340351343
 23
31.0229779808
  0
SOLID
  8
0
 62
7
  6
CONTINUOUS
 10
363.5027853548
 20
30.926187309
 11
363.1559103548
 21
30.8939238094
 12
363.6184102445
 22
30.9907152029
 13
363.6184102445
 23
30.9907152029
  0
SOLID
  8
0
 62
7
  6
CONTINUOUS
 10
363.1559103548
 20
30.8939238094
 11
363.7340351343
 21
31.0229779898
 12
363.6184102445
 22
30.9907152029
 13
363.6184102445
 23
30.9907152029
  0
SOLID
  8
0
 62
7
  6
CONTINUOUS
 10
363.5027853548
 20
30.926187309
 11
363.4449727445
 21
30.8293967193
 12
363.1559103548
 22
30.8939238094
 13
363.1559103548
 23
30.8939238094
  0
SOLID
  8
0
 62
7
  6
CONTINUOUS
 10
363.1559103548
 20
30.797132416
 11
363.1559103548
 21
30.8939238094
 12
363.4449727445
 22
30.8293967193
 13
363.4449727445
 23
30.8293967193
  0
SOLID
  8
0
 62
7
  6
CONTINUOUS
 10
363.4449727445
 20
30.8293967193
 11
363.4449727445
 21
30.7648681127
 12
363.1559103548
 22
30.797132416
 13
363.1559103548
 23
30.797132416
  0
SOLID
  8
0
 62
7
  6
CONTINUOUS
 10
363.2137226343
 20
30.6680782357
 11
363.1559103548
 21
30.797132416
 12
363.4449727445
 22
30.7648681127
 13
363.4449727445
 23
30.7648681127
  0
SOLID
  8
0
 62
7
  6
CONTINUOUS
 10
364.6012229651
 20
30.8616599362
 11
364.890285024
 21
30.7648681127
 12
364.543410024
 22
30.797132416
 13
364.543410024
 23
30.797132416
  0
SOLID
  8
0
 62
7
  6
CONTINUOUS
 10
364.369972524
 20
30.7003410226
 11
364.543410024
 21
30.797132416
 12
364.890285024
 22
30.7648681127
 13
364.890285024
 23
30.7648681127
  0
SOLID
  8
0
 62
7
  6
CONTINUOUS
 10
364.369972524
 20
30.7003410226
 11
364.890285024
 21
30.7648681127
 12
364.6012229651
 22
30.6680782357
 13
364.6012229651
 23
30.6680782357
  0
SOLID
  8
0
 62
7
  6
CONTINUOUS
 10
364.890285024
 20
30.7648681127
 11
364.9480979651
 21
30.6035511455
 12
364.6012229651
 22
30.6680782357
 13
364.6012229651
 23
30.6680782357
  0
SOLID
  8
0
 62
7
  6
CONTINUOUS
 10
364.6590352445
 20
30.5712868422
 11
364.6012229651
 21
30.6680782357
 12
364.9480979651
 22
30.6035511455
 13
364.9480979651
 23
30.6035511455
  0
SOLID
  8
0
 62
7
  6
CONTINUOUS
 10
364.6590352445
 20
30.5712868422
 11
364.9480979651
 21
30.6035511455
 12
364.716847524
 22
30.5067598731
 13
364.716847524
 23
30.5067598731
  0
SOLID
  8
0
 62
7
  6
CONTINUOUS
 10
364.9480979651
 20
30.6035511455
 11
365.0059102445
 21
30.5067598731
 12
364.716847524
 22
30.5067598731
 13
364.716847524
 23
30.5067598731
  0
SOLID
  8
0
 62
7
  6
CONTINUOUS
 10
360.2652852997
 20
30.7326051679
 11
360.3230977445
 21
30.8293966612
 12
360.6121602997
 22
30.8293966612
 13
360.6121602997
 23
30.8293966612
  0
SOLID
  8
0
 62
7
  6
CONTINUOUS
 10
360.6121602997
 20
30.8293966612
 11
360.5543476894
 21
30.7003410226
 12
360.2652852997
 22
30.7326051679
 13
360.2652852997
 23
30.7326051679
  0
SOLID
  8
0
 62
7
  6
CONTINUOUS
 10
360.091847717
 20
30.6680782357
 11
360.2652852997
 21
30.7326051679
 12
360.5543476894
 22
30.7003410226
 13
360.5543476894
 23
30.7003410226
  0
SOLID
  8
0
 62
7
  6
CONTINUOUS
 10
360.091847717
 20
30.6680782357
 11
360.5543476894
 21
30.7003410226
 12
359.6871602721
 22
30.6358139324
 13
359.6871602721
 23
30.6358139324
  0
SOLID
  8
0
 62
7
  6
CONTINUOUS
 10
360.5543476894
 20
30.7003410226
 11
360.3809101894
 21
30.6035511455
 12
359.6871602721
 22
30.6358139324
 13
359.6871602721
 23
30.6358139324
  0
SOLID
  8
0
 62
7
  6
CONTINUOUS
 10
359.2246602583
 20
30.5712868422
 11
359.6871602721
 21
30.6358139324
 12
360.3809101894
 22
30.6035511455
 13
360.3809101894
 23
30.6035511455
  0
SOLID
  8
0
 62
7
  6
CONTINUOUS
 10
359.2246602583
 20
30.5712868422
 11
360.3809101894
 21
30.6035511455
 12
359.3980977583
 22
30.5390224228
 13
359.3980977583
 23
30.5390224228
  0
SOLID
  8
0
 62
7
  6
CONTINUOUS
 10
360.3809101894
 20
30.6035511455
 11
360.1496602445
 21
30.5390224228
 12
359.3980977583
 22
30.5390224228
 13
359.3980977583
 23
30.5390224228
  0
SOLID
  8
0
 62
7
  6
CONTINUOUS
 10
359.744972717
 20
30.5067597521
 11
359.3980977583
 21
30.5390224228
 12
360.1496602445
 22
30.5390224228
 13
360.1496602445
 23
30.5390224228
  0
SOLID
  8
0
 62
7
  6
CONTINUOUS
 10
363.2137226343
 20
30.6680782357
 11
363.4449727445
 21
30.7648681127
 12
363.5027853548
 22
30.7003410226
 13
363.5027853548
 23
30.7003410226
  0
SOLID
  8
0
 62
7
  6
CONTINUOUS
 10
363.5027853548
 20
30.7003410226
 11
363.7340351343
 21
30.6358139324
 12
363.2137226343
 22
30.6680782357
 13
363.2137226343
 23
30.6680782357
  0
SOLID
  8
0
 62
7
  6
CONTINUOUS
 10
363.3871601343
 20
30.5712868422
 11
363.2137226343
 21
30.6680782357
 12
363.7340351343
 22
30.6358139324
 13
363.7340351343
 23
30.6358139324
  0
SOLID
  8
0
 62
7
  6
CONTINUOUS
 10
364.0809101343
 20
30.6358139363
 11
364.369972524
 21
30.7003410226
 12
364.6012229651
 22
30.6680782357
 13
364.6012229651
 23
30.6680782357
  0
SOLID
  8
0
 62
7
  6
CONTINUOUS
 10
364.6012229651
 20
30.6680782357
 11
364.543410024
 21
30.6035511455
 12
364.0809101343
 22
30.6358139363
 13
364.0809101343
 23
30.6358139363
  0
SOLID
  8
0
 62
7
  6
CONTINUOUS
 10
364.543410024
 20
30.6035511455
 11
363.3871601343
 21
30.5712868422
 12
364.0809101343
 22
30.6358139363
 13
364.0809101343
 23
30.6358139363
  0
SOLID
  8
0
 62
7
  6
CONTINUOUS
 10
363.3871601343
 20
30.5712868422
 11
363.7340351343
 21
30.6358139363
 12
364.0809101343
 22
30.6358139363
 13
364.0809101343
 23
30.6358139363
  0
SOLID
  8
0
 62
7
  6
CONTINUOUS
 10
363.3871601343
 20
30.5712868422
 11
364.543410024
 21
30.6035511455
 12
363.5027853548
 22
30.5390225267
 13
363.5027853548
 23
30.5390225267
  0
SOLID
  8
0
 62
7
  6
CONTINUOUS
 10
364.543410024
 20
30.6035511455
 11
364.369972524
 21
30.5390225267
 12
363.5027853548
 22
30.5390225267
 13
363.5027853548
 23
30.5390225267
  0
SOLID
  8
0
 62
7
  6
CONTINUOUS
 10
363.7340351343
 20
30.5067596914
 11
363.5027853548
 21
30.5390225267
 12
364.369972524
 22
30.5390225267
 13
364.369972524
 23
30.5390225267
  0
SOLID
  8
0
 62
7
  6
CONTINUOUS
 10
364.369972524
 20
30.5390225267
 11
364.0809101343
 21
30.5067596914
 12
363.7340351343
 22
30.5067596914
 13
363.7340351343
 23
30.5067596914
  0
SOLID
  8
0
 62
7
  6
CONTINUOUS
 10
368.7637229651
 20
30.6680782357
 11
368.4168479651
 21
30.6358138717
 12
368.6480977445
 22
30.7003410226
 13
368.6480977445
 23
30.7003410226
  0
SOLID
  8
0
 62
7
  6
CONTINUOUS
 10
368.6480977445
 20
30.7003410226
 11
368.4168479651
 21
30.6358138717
 12
368.5902854651
 22
30.7648680521
 13
368.5902854651
 23
30.7648680521
  0
SOLID
  8
0
 62
7
  6
CONTINUOUS
 10
368.4168479651
 20
30.6358138717
 11
368.3012227445
 21
30.7648680521
 12
368.5902854651
 22
30.7648680521
 13
368.5902854651
 23
30.7648680521
  0
SOLID
  8
0
 62
7
  6
CONTINUOUS
 10
368.7637229651
 20
30.6680782357
 11
369.1105979651
 21
30.6358138717
 12
368.4168479651
 22
30.6358138717
 13
368.4168479651
 23
30.6358138717
  0
SOLID
  8
0
 62
7
  6
CONTINUOUS
 10
365.4684104651
 20
30.5067597521
 11
365.4684104651
 21
31.5391977439
 12
365.757472524
 22
30.5067597521
 13
365.757472524
 23
31.5391977439
  0
ENDBLK
  8
0
  6
BYBLOCK
 62
0
  0
BLOCK
  8
0
 62
2
  6
CONTINUOUS
  2
SYMBOL_0_BL0
 70
64
 10
240.8592468615
 20
19.762288695
  0
TEXT
  8
0
 62
7
  6
CONTINUOUS
 10
227.1239507038
 20
19.1357028027
  7
TEXTSTYLE_3
 40
2.7338706658
  1
Ammeraal Beltech
 41
1.0
 51
15.0
 72
0
  0
TEXT
  8
0
 62
7
  6
CONTINUOUS
 10
237.9247515296
 20
16.8621661299
  7
TEXTSTYLE_4
 40
1.0935482663
  1
Innovation & Service in Belting
 41
1.0
 72
0
  0
LINE
  8
0
 62
7
  6
CONTINUOUS
 10
221.0994100525
 20
19.9022961113
 11
221.8775620458
 21
23.5632134089
  0
LINE
  8
0
 62
7
  6
CONTINUOUS
 10
231.9727303357
 20
27.2266073205
 11
222.3653797889
 21
24.1049898993
  0
LINE
  8
0
 62
7
  6
CONTINUOUS
 10
221.3246933848
 20
19.2089453082
 11
228.8317686459
 21
12.4495443822
  0
LINE
  8
0
 62
7
  6
CONTINUOUS
 10
221.5872277955
 20
20.4440726016
 11
232.3954971607
 21
23.9558922005
  0
LINE
  8
0
 62
7
  6
CONTINUOUS
 10
232.3912920235
 20
13.6061036368
 11
223.9458323548
 21
21.2104296785
  0
LINE
  8
0
 62
7
  6
CONTINUOUS
 10
232.9111147433
 20
26.3816822048
 11
231.9345552061
 21
21.7873308023
  0
LINE
  8
0
 62
7
  6
CONTINUOUS
 10
231.2347532584
 20
18.4950214885
 11
230.5483050469
 21
15.2655365641
  0
LINE
  8
0
 62
7
  6
CONTINUOUS
 10
233.5922108419
 20
13.9963058145
 11
234.5484423775
 21
18.4950214885
  0
LINE
  8
0
 62
7
  6
CONTINUOUS
 10
235.2482443252
 20
21.7873308023
 11
235.6924861276
 21
23.8773241617
  0
LINE
  8
0
 62
7
  6
CONTINUOUS
 10
229.5448697213
 20
12.2979700695
 11
233.1043930989
 21
13.4545293241
  0
LINE
  8
0
 62
7
  6
CONTINUOUS
 10
232.685831411
 20
27.0750330078
 11
235.4672027953
 21
24.5706749648
  0
ARC
  8
0
 62
7
  6
CONTINUOUS
 10
222.5906631212
 20
23.4116390962
 40
0.7290321776
 50
108.0
 51
168.0
  0
ARC
  8
0
 62
7
  6
CONTINUOUS
 10
232.198013668
 20
26.5332565175
 40
0.7290321776
 50
348.0
 51
108.0
  0
ARC
  8
0
 62
7
  6
CONTINUOUS
 10
234.9793850522
 20
24.0288984744
 40
0.7290321776
 50
348.0
 51
48.0
  0
ARC
  8
0
 62
7
  6
CONTINUOUS
 10
229.319586389
 20
12.9913208726
 40
0.7290321776
 50
228.0
 51
288.0
  0
ARC
  8
0
 62
7
  6
CONTINUOUS
 10
221.8125111278
 20
19.7507217986
 40
0.7290321776
 50
108.0
 51
228.0
  0
ARC
  8
0
 62
7
  6
CONTINUOUS
 10
232.8791097665
 20
14.1478801272
 40
0.7290321776
 50
228.0
 51
348.0
  0
ENDBLK
  8
0
  6
BYBLOCK
 62
0
  0
ENDSEC
  0
SECTION
  2
ENTITIES
  0
TEXT
  8
0
 62
5
  6
CONTINUOUS
 10
304.937007874
 20
25.636
  7
TEXTSTYLE_2
 40
2.8
  1
Scale :
 41
0.6
 51
0.000019
 72
0
  0
TEXT
  8
0
 62
5
  6
CONTINUOUS
 10
324.937007874
 20
25.636
  7
TEXTSTYLE_2
 40
2.8
  1
Belt type:
 41
0.6
 51
0.000019
 72
0
  0
INSERT
  8
0
 62
2
  6
CONTINUOUS
  2
SYMBOL_0_BL0
 10
240.8592468615
 20
19.762288695
  0
INSERT
  8
0
 62
2
  6
CONTINUOUS
  2
SYMBOL_5_BL1
 10
382.7840918555
 20
35.5067593403
  0
LINE
  8
0
 62
2
  6
CONTINUOUS
 10
218.937007874
 20
30.0
 11
408.937007874
 21
30.0
  0
LINE
  8
0
 62
2
  6
CONTINUOUS
 10
218.937007874
 20
30.0
 11
218.937007874
 21
10.0
  0
LINE
  8
0
 62
2
  6
CONTINUOUS
 10
218.937007874
 20
10.0
 11
408.937007874
 21
10.0
  0
LINE
  8
0
 62
2
  6
CONTINUOUS
 10
303.937007874
 20
30.0
 11
303.937007874
 21
10.0
  0
LINE
  8
0
 62
2
  6
CONTINUOUS
 10
323.937007874
 20
30.0
 11
323.937007874
 21
10.0
  0
LINE
  8
0
 62
2
  6
CONTINUOUS
 10
408.937007874
 20
30.0
 11
408.937007874
 21
10.0
  0
TEXT
  8
0
 62
5
  6
CONTINUOUS
 10
221.937007874
 20
23.303
  7
TEXTSTYLE_5
 40
1.52
  1
                                                                     Ammeraal Beltech Modular A/S
 41
1.0
 72
0
  0
TEXT
  8
0
 62
5
  6
CONTINUOUS
 10
221.937007874
 20
20.595
  7
TEXTSTYLE_5
 40
1.5
  1
                                                                      Hjulmagervej 21, 7100 Vejle,  DK
 41
1.0
 72
0
  0
TEXT
  8
0
 62
5
  6
CONTINUOUS
 10
221.937007874
 20
17.881
  7
TEXTSTYLE_5
 40
1.495
  1
                                                                      tel: 
 41
1.0
 72
0
  0
TEXT
  8
0
 62
5
  6
CONTINUOUS
 10
266.9239544389
 20
17.881
  7
TEXTSTYLE_5
 40
1.51
  1
+45 75723100     fax: +45 75723348
 41
1.0
 72
0
  0
TEXT
  8
0
 62
5
  6
CONTINUOUS
 10
221.937007874
 20
15.177
  7
TEXTSTYLE_5
 40
1.5
  1
                                                                      admin@unichains.dk  www.unichains.com
 41
1.0
 72
0
  0
TEXT
  8
0
 62
5
  6
CONTINUOUS
 10
308.687007874
 20
13.75
  7
TEXTSTYLE_6
 40
5.0
  1
1:1
 41
0.7
 72
1
 11
313.937007874
 21
13.75
  0
TEXT
  8
0
 62
5
  6
CONTINUOUS
 10
326.937007874
 20
13.75
  7
TEXTSTYLE_7
 40
7.5
  1
uni Flex L-ASB K1200 
 41
0.4869047619
 72
0
  0
LINE
  8
0
 62
7
  6
CONTINUOUS
 10
0.0
 20
0.0
 11
0.0
 21
297.0
  0
LINE
  8
0
 62
7
  6
CONTINUOUS
 10
8.937007874
 20
10.0
 11
8.937007874
 21
287.0
  0
LINE
  8
0
 62
7
  6
CONTINUOUS
 10
0.0
 20
0.0
 11
420.0
 21
0.0
  0
LINE
  8
0
 62
7
  6
CONTINUOUS
 10
408.937007874
 20
10.0
 11
8.937007874
 21
10.0
  0
LINE
  8
0
 62
7
  6
CONTINUOUS
 10
218.937007874
 20
30.0
 11
408.937007874
 21
30.0
  0
LINE
  8
0
 62
7
  6
CONTINUOUS
 10
210.0
 20
297.0
 11
210.0
 21
292.0
  0
LINE
  8
0
 62
7
  6
CONTINUOUS
 10
210.0
 20
0.0
 11
210.0
 21
5.0
  0
LINE
  8
0
 62
7
  6
CONTINUOUS
 10
8.937007874
 20
287.0
 11
408.937007874
 21
287.0
  0
LINE
  8
0
 62
7
  6
CONTINUOUS
 10
0.0
 20
297.0
 11
420.0
 21
297.0
  0
LINE
  8
0
 62
7
  6
CONTINUOUS
 10
408.937007874
 20
287.0
 11
408.937007874
 21
10.0
  0
LINE
  8
0
 62
7
  6
CONTINUOUS
 10
420.0
 20
0.0
 11
420.0
 21
297.0
  0
LINE
  8
0
 62
7
  6
CONTINUOUS
 10
36.6353882896
 20
129.8543685561
 11
36.6353882896
 21
134.5477138158
  0
LINE
  8
0
 62
7
  6
CONTINUOUS
 10
36.7353882896
 20
101.5223746463
 11
36.7353882896
 21
106.3477138158
  0
LINE
  8
0
 62
7
  6
CONTINUOUS
 10
39.3353882896
 20
106.9477138158
 11
39.3353882896
 21
122.7152476603
  0
LINE
  8
0
 62
7
  6
CONTINUOUS
 10
46.3353882896
 20
108.6477138158
 11
46.3353882896
 21
122.7152476603
  0
LINE
  8
0
 62
7
  6
CONTINUOUS
 10
49.0353882896
 20
129.8543685561
 11
49.0353882896
 21
134.5477138158
  0
LINE
  8
0
 62
7
  6
CONTINUOUS
 10
46.4042600389
 20
123.0799395585
 11
49.0147267649
 21
129.7449609866
  0
LINE
  8
0
 62
7
  6
CONTINUOUS
 10
49.3353882896
 20
73.1477138158
 11
49.3353882896
 21
77.8410553415
  0
LINE
  8
0
 62
7
  6
CONTINUOUS
 10
52.0353882896
 20
100.7721386741
 11
52.0353882896
 21
84.9797044959
  0
LINE
  8
0
 62
7
  6
CONTINUOUS
 10
59.0353882896
 20
84.9797044959
 11
59.0353882896
 21
100.7721386741
  0
LINE
  8
0
 62
7
  6
CONTINUOUS
 10
36.6560498144
 20
129.7449609866
 11
39.2665165404
 21
123.0799395585
  0
LINE
  8
0
 62
7
  6
CONTINUOUS
 10
61.7353882896
 20
73.1477138158
 11
61.7353882896
 21
77.8410553415
  0
LINE
  8
0
 62
7
  6
CONTINUOUS
 10
62.0353882896
 20
129.8543685561
 11
62.0353882896
 21
134.5477138158
  0
LINE
  8
0
 62
7
  6
CONTINUOUS
 10
64.7353882896
 20
122.7152476603
 11
64.7353882896
 21
108.6477138158
  0
LINE
  8
0
 62
7
  6
CONTINUOUS
 10
49.3560524442
 20
77.9504696252
 11
51.9665077743
 21
84.614990217
  0
LINE
  8
0
 62
7
  6
CONTINUOUS
 10
61.714724135
 20
77.9504696252
 11
59.1042688049
 21
84.614990217
  0
LINE
  8
0
 62
7
  6
CONTINUOUS
 10
71.7353882896
 20
108.6477138158
 11
71.7353882896
 21
122.7152476603
  0
LINE
  8
0
 62
7
  6
CONTINUOUS
 10
74.4353882896
 20
129.8543685561
 11
74.4353882896
 21
134.5477138158
  0
LINE
  8
0
 62
7
  6
CONTINUOUS
 10
74.7353882896
 20
73.1477138158
 11
74.7353882896
 21
77.8410553415
  0
LINE
  8
0
 62
7
  6
CONTINUOUS
 10
77.4353882896
 20
100.7721386741
 11
77.4353882896
 21
84.9797044959
  0
LINE
  8
0
 62
7
  6
CONTINUOUS
 10
71.8042600389
 20
123.0799395585
 11
74.4147267649
 21
129.7449609866
  0
LINE
  8
0
 62
7
  6
CONTINUOUS
 10
62.0560498144
 20
129.7449609866
 11
64.6665165404
 21
123.0799395585
  0
LINE
  8
0
 62
7
  6
CONTINUOUS
 10
84.4353882896
 20
84.9797044959
 11
84.4353882896
 21
100.7721386741
  0
LINE
  8
0
 62
7
  6
CONTINUOUS
 10
87.1353882896
 20
73.1477138158
 11
87.1353882896
 21
77.8410553415
  0
LINE
  8
0
 62
7
  6
CONTINUOUS
 10
87.4353882896
 20
129.8543685561
 11
87.4353882896
 21
134.5477138158
  0
LINE
  8
0
 62
7
  6
CONTINUOUS
 10
90.1353882896
 20
122.7152476603
 11
90.1353882896
 21
108.6477138158
  0
LINE
  8
0
 62
7
  6
CONTINUOUS
 10
87.114724135
 20
77.9504696252
 11
84.5042688049
 21
84.614990217
  0
LINE
  8
0
 62
7
  6
CONTINUOUS
 10
97.1353882896
 20
108.6477138158
 11
97.1353882896
 21
122.7152476603
  0
LINE
  8
0
 62
7
  6
CONTINUOUS
 10
99.8353882896
 20
129.8543685561
 11
99.8353882896
 21
134.5477138158
  0
LINE
  8
0
 62
7
  6
CONTINUOUS
 10
100.1353882896
 20
73.1477138158
 11
100.1353882896
 21
77.8410553415
  0
LINE
  8
0
 62
7
  6
CONTINUOUS
 10
74.7560524442
 20
77.9504696252
 11
77.3665077743
 21
84.614990217
  0
LINE
  8
0
 62
7
  6
CONTINUOUS
 10
97.2042600389
 20
123.0799395585
 11
99.8147267649
 21
129.7449609866
  0
LINE
  8
0
 62
7
  6
CONTINUOUS
 10
102.8353882896
 20
100.7721386741
 11
102.8353882896
 21
84.9797044959
  0
LINE
  8
0
 62
7
  6
CONTINUOUS
 10
109.8353882896
 20
84.9797044959
 11
109.8353882896
 21
100.7721386741
  0
LINE
  8
0
 62
7
  6
CONTINUOUS
 10
112.5353882896
 20
73.1477138158
 11
112.5353882896
 21
77.8410553415
  0
LINE
  8
0
 62
7
  6
CONTINUOUS
 10
112.8353882896
 20
129.8543685561
 11
112.8353882896
 21
134.5477138158
  0
LINE
  8
0
 62
7
  6
CONTINUOUS
 10
87.4560498144
 20
129.7449609866
 11
90.0665165404
 21
123.0799395585
  0
LINE
  8
0
 62
7
  6
CONTINUOUS
 10
112.514724135
 20
77.9504696252
 11
109.9042688049
 21
84.614990217
  0
LINE
  8
0
 62
7
  6
CONTINUOUS
 10
115.5353882896
 20
122.7152476603
 11
115.5353882896
 21
108.6477138158
  0
LINE
  8
0
 62
7
  6
CONTINUOUS
 10
122.5353882896
 20
108.6477138158
 11
122.5353882896
 21
122.7152476603
  0
LINE
  8
0
 62
7
  6
CONTINUOUS
 10
100.1560524442
 20
77.9504696252
 11
102.7665077743
 21
84.614990217
  0
LINE
  8
0
 62
7
  6
CONTINUOUS
 10
122.6042600389
 20
123.0799395585
 11
125.2147267649
 21
129.7449609866
  0
LINE
  8
0
 62
7
  6
CONTINUOUS
 10
125.2353882896
 20
129.8543685561
 11
125.2353882896
 21
134.5477138158
  0
LINE
  8
0
 62
7
  6
CONTINUOUS
 10
125.5353882896
 20
73.1477138158
 11
125.5353882896
 21
77.8410553415
  0
LINE
  8
0
 62
7
  6
CONTINUOUS
 10
128.2353882896
 20
100.7721386741
 11
128.2353882896
 21
84.9797044959
  0
LINE
  8
0
 62
7
  6
CONTINUOUS
 10
112.8560498144
 20
129.7449609866
 11
115.4665165404
 21
123.0799395585
  0
LINE
  8
0
 62
7
  6
CONTINUOUS
 10
137.914724135
 20
77.9504696252
 11
135.3042688049
 21
84.614990217
  0
LINE
  8
0
 62
7
  6
CONTINUOUS
 10
135.2353882896
 20
84.9797044959
 11
135.2353882896
 21
100.7721386741
  0
LINE
  8
0
 62
7
  6
CONTINUOUS
 10
137.9353882896
 20
73.1477138158
 11
137.9353882896
 21
77.8410553415
  0
LINE
  8
0
 62
7
  6
CONTINUOUS
 10
138.2353882896
 20
129.8543685561
 11
138.2353882896
 21
134.5477138158
  0
LINE
  8
0
 62
7
  6
CONTINUOUS
 10
140.9353882896
 20
122.7152476603
 11
140.9353882896
 21
108.6477138158
  0
LINE
  8
0
 62
7
  6
CONTINUOUS
 10
125.5560524442
 20
77.9504696252
 11
128.1665077743
 21
84.614990217
  0
LINE
  8
0
 62
7
  6
CONTINUOUS
 10
148.0042600389
 20
123.0799395585
 11
150.6147267649
 21
129.7449609866
  0
LINE
  8
0
 62
7
  6
CONTINUOUS
 10
147.9353882896
 20
108.6477138158
 11
147.9353882896
 21
122.7152476603
  0
LINE
  8
0
 62
7
  6
CONTINUOUS
 10
150.6353882896
 20
129.8543685561
 11
150.6353882896
 21
134.5477138158
  0
LINE
  8
0
 62
7
  6
CONTINUOUS
 10
150.9353882896
 20
73.1477138158
 11
150.9353882896
 21
77.8410553415
  0
LINE
  8
0
 62
7
  6
CONTINUOUS
 10
153.6353882896
 20
100.7721386741
 11
153.6353882896
 21
84.9797044959
  0
LINE
  8
0
 62
7
  6
CONTINUOUS
 10
52.0353882896
 20
70.4477138158
 11
59.0353882896
 21
70.4477138158
  0
LINE
  8
0
 62
7
  6
CONTINUOUS
 10
77.4353882896
 20
70.4477138158
 11
84.4353882896
 21
70.4477138158
  0
LINE
  8
0
 62
7
  6
CONTINUOUS
 10
102.8353882896
 20
70.4477138158
 11
109.8353882896
 21
70.4477138158
  0
LINE
  8
0
 62
7
  6
CONTINUOUS
 10
128.2353882896
 20
70.4477138158
 11
135.2353882896
 21
70.4477138158
  0
LINE
  8
0
 62
7
  6
CONTINUOUS
 10
153.6353882896
 20
70.4477138158
 11
160.6353882896
 21
70.4477138158
  0
LINE
  8
0
 62
7
  6
CONTINUOUS
 10
179.0353882896
 20
70.4477138158
 11
186.0353882896
 21
70.4477138158
  0
LINE
  8
0
 62
7
  6
CONTINUOUS
 10
204.4353882896
 20
70.4477138158
 11
211.4353882896
 21
70.4477138158
  0
LINE
  8
0
 62
7
  6
CONTINUOUS
 10
229.8353882896
 20
70.4477138158
 11
236.8353882896
 21
70.4477138158
  0
LINE
  8
0
 62
7
  6
CONTINUOUS
 10
255.2353882896
 20
70.4477138158
 11
262.2353882896
 21
70.4477138158
  0
LINE
  8
0
 62
7
  6
CONTINUOUS
 10
280.6353882896
 20
70.4477138158
 11
287.6353882896
 21
70.4477138158
  0
LINE
  8
0
 62
7
  6
CONTINUOUS
 10
306.0353882896
 20
70.4477138158
 11
313.0353882896
 21
70.4477138158
  0
LINE
  8
0
 62
7
  6
CONTINUOUS
 10
331.4353882896
 20
70.4477138158
 11
338.4353882896
 21
70.4477138158
  0
LINE
  8
0
 62
7
  6
CONTINUOUS
 10
138.2560498144
 20
129.7449609866
 11
140.8665165404
 21
123.0799395585
  0
LINE
  8
0
 62
7
  6
CONTINUOUS
 10
160.6353882896
 20
84.9797044959
 11
160.6353882896
 21
100.7721386741
  0
LINE
  8
0
 62
7
  6
CONTINUOUS
 10
163.3353882896
 20
73.1477138158
 11
163.3353882896
 21
77.8410553415
  0
LINE
  8
0
 62
7
  6
CONTINUOUS
 10
163.6353882896
 20
129.8543685561
 11
163.6353882896
 21
134.5477138158
  0
LINE
  8
0
 62
7
  6
CONTINUOUS
 10
150.9560524442
 20
77.9504696252
 11
153.5665077743
 21
84.614990217
  0
LINE
  8
DEFAULT_1
 62
2
  6
CENTER
 10
351.1353882896
 20
78.4477138158
 11
29.1353882896
 21
78.4477138158
  0
LINE
  8
0
 62
7
  6
CONTINUOUS
 10
163.314724135
 20
77.9504696252
 11
160.7042688049
 21
84.614990217
  0
LINE
  8
0
 62
7
  6
CONTINUOUS
 10
166.3353882896
 20
122.7152476603
 11
166.3353882896
 21
108.6477138158
  0
LINE
  8
0
 62
7
  6
CONTINUOUS
 10
173.3353882896
 20
108.6477138158
 11
173.3353882896
 21
122.7152476603
  0
LINE
  8
0
 62
7
  6
CONTINUOUS
 10
176.0353882896
 20
129.8543685561
 11
176.0353882896
 21
134.5477138158
  0
LINE
  8
0
 62
7
  6
CONTINUOUS
 10
176.3353882896
 20
73.1477138158
 11
176.3353882896
 21
77.8410553415
  0
LINE
  8
0
 62
7
  6
CONTINUOUS
 10
173.4042600389
 20
123.0799395585
 11
176.0147267649
 21
129.7449609866
  0
LINE
  8
0
 62
7
  6
CONTINUOUS
 10
163.6560498144
 20
129.7449609866
 11
166.2665165404
 21
123.0799395585
  0
LINE
  8
0
 62
7
  6
CONTINUOUS
 10
179.0353882896
 20
100.7721386741
 11
179.0353882896
 21
84.9797044959
  0
LINE
  8
0
 62
7
  6
CONTINUOUS
 10
186.0353882896
 20
84.9797044959
 11
186.0353882896
 21
100.7721386741
  0
LINE
  8
0
 62
7
  6
CONTINUOUS
 10
176.3560524442
 20
77.9504696252
 11
178.9665077743
 21
84.614990217
  0
LINE
  8
0
 62
7
  6
CONTINUOUS
 10
329.4353882896
 20
101.222373782
 11
315.0353882896
 21
101.222373782
  0
LINE
  8
0
 62
7
  6
CONTINUOUS
 10
304.0353882896
 20
101.222373782
 11
289.6353882896
 21
101.222373782
  0
LINE
  8
0
 62
7
  6
CONTINUOUS
 10
278.6353882896
 20
101.222373782
 11
264.2353882896
 21
101.222373782
  0
LINE
  8
0
 62
7
  6
CONTINUOUS
 10
253.2353882896
 20
101.222373782
 11
238.8353882896
 21
101.222373782
  0
LINE
  8
0
 62
7
  6
CONTINUOUS
 10
227.8353882896
 20
101.222373782
 11
213.4353882896
 21
101.222373782
  0
LINE
  8
0
 62
7
  6
CONTINUOUS
 10
202.4353882896
 20
101.222373782
 11
188.0353882896
 21
101.222373782
  0
LINE
  8
0
 62
7
  6
CONTINUOUS
 10
177.0353882896
 20
101.222373782
 11
162.6353882896
 21
101.222373782
  0
LINE
  8
0
 62
7
  6
CONTINUOUS
 10
151.6353882896
 20
101.222373782
 11
137.2353882896
 21
101.222373782
  0
LINE
  8
0
 62
7
  6
CONTINUOUS
 10
126.2353882896
 20
101.222373782
 11
111.8353882896
 21
101.222373782
  0
LINE
  8
0
 62
7
  6
CONTINUOUS
 10
100.8353882896
 20
101.222373782
 11
86.4353882896
 21
101.222373782
  0
LINE
  8
0
 62
7
  6
CONTINUOUS
 10
75.4353882896
 20
101.222373782
 11
61.0353882896
 21
101.222373782
  0
LINE
  8
0
 62
7
  6
CONTINUOUS
 10
50.0353882896
 20
101.222373782
 11
37.0353882896
 21
101.222373782
  0
LINE
  8
0
 62
7
  6
CONTINUOUS
 10
338.7353882896
 20
101.222373782
 11
340.7353882896
 21
101.222373782
  0
LINE
  8
DEFAULT_1
 62
2
  6
CENTER
 10
188.8853882896
 20
103.8477138158
 11
28.4722066031
 21
103.8477138158
  0
LINE
  8
DEFAULT_1
 62
2
  6
CENTER
 10
188.8853882896
 20
103.8477138158
 11
347.0349269321
 21
103.8477138158
  0
LINE
  8
0
 62
7
  6
CONTINUOUS
 10
188.714724135
 20
77.9504696252
 11
186.1042688049
 21
84.614990217
  0
LINE
  8
0
 62
7
  6
CONTINUOUS
 10
188.7353882896
 20
73.1477138158
 11
188.7353882896
 21
77.8410553415
  0
LINE
  8
DEFAULT_1
 62
2
  6
CENTER
 10
188.8853882896
 20
103.8477138158
 11
188.8853882896
 21
81.5502740004
  0
LINE
  8
DEFAULT_1
 62
2
  6
CENTER
 10
188.8853882896
 20
103.8477138158
 11
188.8853882896
 21
127.3566782307
  0
LINE
  8
0
 62
7
  6
CONTINUOUS
 10
189.0353882896
 20
129.8543685561
 11
189.0353882896
 21
134.5477138158
  0
LINE
  8
0
 62
7
  6
CONTINUOUS
 10
191.7353882896
 20
122.7152476603
 11
191.7353882896
 21
108.6477138158
  0
LINE
  8
0
 62
7
  6
CONTINUOUS
 10
198.8042600389
 20
123.0799395585
 11
201.4147267649
 21
129.7449609866
  0
LINE
  8
0
 62
7
  6
CONTINUOUS
 10
316.7353882896
 20
106.6477138158
 11
302.3353882896
 21
106.6477138158
  0
LINE
  8
0
 62
7
  6
CONTINUOUS
 10
291.3353882896
 20
106.6477138158
 11
276.9353882896
 21
106.6477138158
  0
LINE
  8
0
 62
7
  6
CONTINUOUS
 10
265.9353882896
 20
106.6477138158
 11
251.5353882896
 21
106.6477138158
  0
LINE
  8
0
 62
7
  6
CONTINUOUS
 10
240.5353882896
 20
106.6477138158
 11
226.1353882896
 21
106.6477138158
  0
LINE
  8
0
 62
7
  6
CONTINUOUS
 10
215.1353882896
 20
106.6477138158
 11
200.7353882896
 21
106.6477138158
  0
LINE
  8
0
 62
7
  6
CONTINUOUS
 10
189.7353882896
 20
106.6477138158
 11
175.3353882896
 21
106.6477138158
  0
LINE
  8
0
 62
7
  6
CONTINUOUS
 10
164.3353882896
 20
106.6477138158
 11
149.9353882896
 21
106.6477138158
  0
LINE
  8
0
 62
7
  6
CONTINUOUS
 10
138.9353882896
 20
106.6477138158
 11
124.5353882896
 21
106.6477138158
  0
LINE
  8
0
 62
7
  6
CONTINUOUS
 10
113.5353882896
 20
106.6477138158
 11
99.1353882896
 21
106.6477138158
  0
LINE
  8
0
 62
7
  6
CONTINUOUS
 10
88.1353882896
 20
106.6477138158
 11
73.7353882896
 21
106.6477138158
  0
LINE
  8
0
 62
7
  6
CONTINUOUS
 10
62.7353882896
 20
106.6477138158
 11
48.3353882896
 21
106.6477138158
  0
LINE
  8
0
 62
7
  6
CONTINUOUS
 10
37.0353882896
 20
106.6477138158
 11
39.0353882896
 21
106.6477138158
  0
LINE
  8
0
 62
7
  6
CONTINUOUS
 10
327.7353882896
 20
106.6477138158
 11
340.7353882896
 21
106.6477138158
  0
LINE
  8
0
 62
7
  6
CONTINUOUS
 10
198.7353882896
 20
108.6477138158
 11
198.7353882896
 21
122.7152476603
  0
LINE
  8
0
 62
7
  6
CONTINUOUS
 10
201.4353882896
 20
129.8543685561
 11
201.4353882896
 21
134.5477138158
  0
LINE
  8
0
 62
7
  6
CONTINUOUS
 10
201.7353882896
 20
73.1477138158
 11
201.7353882896
 21
77.8410553415
  0
LINE
  8
0
 62
7
  6
CONTINUOUS
 10
204.4353882896
 20
100.7721386741
 11
204.4353882896
 21
84.9797044959
  0
LINE
  8
0
 62
7
  6
CONTINUOUS
 10
189.0560498144
 20
129.7449609866
 11
191.6665165404
 21
123.0799395585
  0
LINE
  8
0
 62
7
  6
CONTINUOUS
 10
214.114724135
 20
77.9504696252
 11
211.5042688049
 21
84.614990217
  0
LINE
  8
0
 62
7
  6
CONTINUOUS
 10
211.4353882896
 20
84.9797044959
 11
211.4353882896
 21
100.7721386741
  0
LINE
  8
0
 62
7
  6
CONTINUOUS
 10
214.1353882896
 20
73.1477138158
 11
214.1353882896
 21
77.8410553415
  0
LINE
  8
0
 62
7
  6
CONTINUOUS
 10
214.4353882896
 20
129.8543685561
 11
214.4353882896
 21
134.5477138158
  0
LINE
  8
0
 62
7
  6
CONTINUOUS
 10
217.1353882896
 20
122.7152476603
 11
217.1353882896
 21
108.6477138158
  0
LINE
  8
0
 62
7
  6
CONTINUOUS
 10
201.7560524442
 20
77.9504696252
 11
204.3665077743
 21
84.614990217
  0
LINE
  8
0
 62
7
  6
CONTINUOUS
 10
224.2042600389
 20
123.0799395585
 11
226.8147267649
 21
129.7449609866
  0
LINE
  8
DEFAULT_1
 62
2
  6
CENTER
 10
31.6353882896
 20
129.2104588158
 11
333.4353882896
 21
129.2104588158
  0
LINE
  8
0
 62
7
  6
CONTINUOUS
 10
224.1353882896
 20
108.6477138158
 11
224.1353882896
 21
122.7152476603
  0
LINE
  8
0
 62
7
  6
CONTINUOUS
 10
226.8353882896
 20
129.8543685561
 11
226.8353882896
 21
134.5477138158
  0
LINE
  8
0
 62
7
  6
CONTINUOUS
 10
227.1353882896
 20
73.1477138158
 11
227.1353882896
 21
77.8410553415
  0
LINE
  8
0
 62
7
  6
CONTINUOUS
 10
46.3353882896
 20
137.2477138158
 11
39.3353882896
 21
137.2477138158
  0
LINE
  8
0
 62
7
  6
CONTINUOUS
 10
64.7353882896
 20
137.2477138158
 11
71.7353882896
 21
137.2477138158
  0
LINE
  8
0
 62
7
  6
CONTINUOUS
 10
90.1353882896
 20
137.2477138158
 11
97.1353882896
 21
137.2477138158
  0
LINE
  8
0
 62
7
  6
CONTINUOUS
 10
115.5353882896
 20
137.2477138158
 11
122.5353882896
 21
137.2477138158
  0
LINE
  8
0
 62
7
  6
CONTINUOUS
 10
140.9353882896
 20
137.2477138158
 11
147.9353882896
 21
137.2477138158
  0
LINE
  8
0
 62
7
  6
CONTINUOUS
 10
166.3353882896
 20
137.2477138158
 11
173.3353882896
 21
137.2477138158
  0
LINE
  8
0
 62
7
  6
CONTINUOUS
 10
191.7353882896
 20
137.2477138158
 11
198.7353882896
 21
137.2477138158
  0
LINE
  8
0
 62
7
  6
CONTINUOUS
 10
217.1353882896
 20
137.2477138158
 11
224.1353882896
 21
137.2477138158
  0
LINE
  8
0
 62
7
  6
CONTINUOUS
 10
242.5353882896
 20
137.2477138158
 11
249.5353882896
 21
137.2477138158
  0
LINE
  8
0
 62
7
  6
CONTINUOUS
 10
267.9353882896
 20
137.2477138158
 11
274.9353882896
 21
137.2477138158
  0
LINE
  8
0
 62
7
  6
CONTINUOUS
 10
293.3353882896
 20
137.2477138158
 11
300.3353882896
 21
137.2477138158
  0
LINE
  8
0
 62
7
  6
CONTINUOUS
 10
318.7353882896
 20
137.2477138158
 11
325.7353882896
 21
137.2477138158
  0
LINE
  8
0
 62
7
  6
CONTINUOUS
 10
214.4560498144
 20
129.7449609866
 11
217.0665165404
 21
123.0799395585
  0
LINE
  8
0
 62
7
  6
CONTINUOUS
 10
239.514724135
 20
77.9504696252
 11
236.9042688049
 21
84.614990217
  0
LINE
  8
0
 62
7
  6
CONTINUOUS
 10
229.8353882896
 20
100.7721386741
 11
229.8353882896
 21
84.9797044959
  0
LINE
  8
0
 62
7
  6
CONTINUOUS
 10
236.8353882896
 20
84.9797044959
 11
236.8353882896
 21
100.7721386741
  0
LINE
  8
0
 62
7
  6
CONTINUOUS
 10
239.5353882896
 20
73.1477138158
 11
239.5353882896
 21
77.8410553415
  0
LINE
  8
0
 62
7
  6
CONTINUOUS
 10
239.8353882896
 20
129.8543685561
 11
239.8353882896
 21
134.5477138158
  0
LINE
  8
0
 62
7
  6
CONTINUOUS
 10
227.1560524442
 20
77.9504696252
 11
229.7665077743
 21
84.614990217
  0
LINE
  8
0
 62
7
  6
CONTINUOUS
 10
249.6042600389
 20
123.0799395585
 11
252.2147267649
 21
129.7449609866
  0
LINE
  8
0
 62
7
  6
CONTINUOUS
 10
242.5353882896
 20
122.7152476603
 11
242.5353882896
 21
108.6477138158
  0
LINE
  8
0
 62
7
  6
CONTINUOUS
 10
249.5353882896
 20
108.6477138158
 11
249.5353882896
 21
122.7152476603
  0
LINE
  8
0
 62
7
  6
CONTINUOUS
 10
239.8560498144
 20
129.7449609866
 11
242.4665165404
 21
123.0799395585
  0
LINE
  8
0
 62
7
  6
CONTINUOUS
 10
264.914724135
 20
77.9504696252
 11
262.3042688049
 21
84.614990217
  0
LINE
  8
0
 62
7
  6
CONTINUOUS
 10
252.2353882896
 20
129.8543685561
 11
252.2353882896
 21
134.5477138158
  0
LINE
  8
0
 62
7
  6
CONTINUOUS
 10
252.5353882896
 20
73.1477138158
 11
252.5353882896
 21
77.8410553415
  0
LINE
  8
0
 62
7
  6
CONTINUOUS
 10
255.2353882896
 20
100.7721386741
 11
255.2353882896
 21
84.9797044959
  0
LINE
  8
0
 62
7
  6
CONTINUOUS
 10
252.5560524442
 20
77.9504696252
 11
255.1665077743
 21
84.614990217
  0
LINE
  8
0
 62
7
  6
CONTINUOUS
 10
262.2353882896
 20
84.9797044959
 11
262.2353882896
 21
100.7721386741
  0
LINE
  8
0
 62
7
  6
CONTINUOUS
 10
264.9353882896
 20
73.1477138158
 11
264.9353882896
 21
77.8410553415
  0
LINE
  8
0
 62
7
  6
CONTINUOUS
 10
265.2353882896
 20
129.8543685561
 11
265.2353882896
 21
134.5477138158
  0
LINE
  8
0
 62
7
  6
CONTINUOUS
 10
267.9353882896
 20
122.7152476603
 11
267.9353882896
 21
108.6477138158
  0
LINE
  8
0
 62
7
  6
CONTINUOUS
 10
275.0042600389
 20
123.0799395585
 11
277.6147267649
 21
129.7449609866
  0
LINE
  8
0
 62
7
  6
CONTINUOUS
 10
265.2560498144
 20
129.7449609866
 11
267.8665165404
 21
123.0799395585
  0
LINE
  8
0
 62
7
  6
CONTINUOUS
 10
274.9353882896
 20
108.6477138158
 11
274.9353882896
 21
122.7152476603
  0
LINE
  8
0
 62
7
  6
CONTINUOUS
 10
277.6353882896
 20
129.8543685561
 11
277.6353882896
 21
134.5477138158
  0
LINE
  8
0
 62
7
  6
CONTINUOUS
 10
277.9353882896
 20
73.1477138158
 11
277.9353882896
 21
77.8410553415
  0
LINE
  8
0
 62
7
  6
CONTINUOUS
 10
280.6353882896
 20
100.7721386741
 11
280.6353882896
 21
84.9797044959
  0
LINE
  8
0
 62
7
  6
CONTINUOUS
 10
277.9560524442
 20
77.9504696252
 11
280.5665077743
 21
84.614990217
  0
LINE
  8
0
 62
7
  6
CONTINUOUS
 10
290.314724135
 20
77.9504696252
 11
287.7042688049
 21
84.614990217
  0
LINE
  8
0
 62
7
  6
CONTINUOUS
 10
287.6353882896
 20
84.9797044959
 11
287.6353882896
 21
100.7721386741
  0
LINE
  8
0
 62
7
  6
CONTINUOUS
 10
290.3353882896
 20
73.1477138158
 11
290.3353882896
 21
77.8410553415
  0
LINE
  8
0
 62
7
  6
CONTINUOUS
 10
290.6353882896
 20
129.8543685561
 11
290.6353882896
 21
134.5477138158
  0
LINE
  8
0
 62
7
  6
CONTINUOUS
 10
300.4042600389
 20
123.0799395585
 11
303.0147267649
 21
129.7449609866
  0
LINE
  8
0
 62
7
  6
CONTINUOUS
 10
290.6560498144
 20
129.7449609866
 11
293.2665165404
 21
123.0799395585
  0
LINE
  8
0
 62
7
  6
CONTINUOUS
 10
293.3353882896
 20
122.7152476603
 11
293.3353882896
 21
108.6477138158
  0
LINE
  8
0
 62
7
  6
CONTINUOUS
 10
300.3353882896
 20
108.6477138158
 11
300.3353882896
 21
122.7152476603
  0
LINE
  8
0
 62
7
  6
CONTINUOUS
 10
303.0353882896
 20
129.8543685561
 11
303.0353882896
 21
134.5477138158
  0
LINE
  8
0
 62
7
  6
CONTINUOUS
 10
303.3353882896
 20
73.1477138158
 11
303.3353882896
 21
77.8410553415
  0
LINE
  8
0
 62
7
  6
CONTINUOUS
 10
315.714724135
 20
77.9504696252
 11
313.1042688049
 21
84.614990217
  0
LINE
  8
0
 62
7
  6
CONTINUOUS
 10
306.0353882896
 20
100.7721386741
 11
306.0353882896
 21
84.9797044959
  0
LINE
  8
0
 62
7
  6
CONTINUOUS
 10
313.0353882896
 20
84.9797044959
 11
313.0353882896
 21
100.7721386741
  0
LINE
  8
0
 62
7
  6
CONTINUOUS
 10
303.3560524442
 20
77.9504696252
 11
305.9665077743
 21
84.614990217
  0
LINE
  8
0
 62
7
  6
CONTINUOUS
 10
325.8042600389
 20
123.0799395585
 11
328.4147267649
 21
129.7449609866
  0
LINE
  8
0
 62
7
  6
CONTINUOUS
 10
315.7353882896
 20
73.1477138158
 11
315.7353882896
 21
77.8410553415
  0
LINE
  8
0
 62
7
  6
CONTINUOUS
 10
316.0353882896
 20
129.8543685561
 11
316.0353882896
 21
134.5477138158
  0
LINE
  8
0
 62
7
  6
CONTINUOUS
 10
318.7353882896
 20
122.7152476603
 11
318.7353882896
 21
108.6477138158
  0
LINE
  8
0
 62
7
  6
CONTINUOUS
 10
316.0560498144
 20
129.7449609866
 11
318.6665165404
 21
123.0799395585
  0
LINE
  8
0
 62
7
  6
CONTINUOUS
 10
341.114724135
 20
77.9504696252
 11
338.5042688049
 21
84.614990217
  0
LINE
  8
0
 62
7
  6
CONTINUOUS
 10
325.7353882896
 20
108.6477138158
 11
325.7353882896
 21
122.7152476603
  0
LINE
  8
0
 62
7
  6
CONTINUOUS
 10
328.4353882896
 20
129.8543685561
 11
328.4353882896
 21
134.5477138158
  0
LINE
  8
0
 62
7
  6
CONTINUOUS
 10
328.7353882896
 20
73.1477138158
 11
328.7353882896
 21
77.8410553415
  0
LINE
  8
0
 62
7
  6
CONTINUOUS
 10
331.4353882896
 20
100.7721386741
 11
331.4353882896
 21
84.9797044959
  0
LINE
  8
0
 62
7
  6
CONTINUOUS
 10
338.4353882896
 20
102.6582350024
 11
338.4353882896
 21
84.9797044959
  0
LINE
  8
0
 62
7
  6
CONTINUOUS
 10
341.0353882896
 20
106.3477138158
 11
341.0353882896
 21
101.522373782
  0
LINE
  8
0
 62
7
  6
CONTINUOUS
 10
341.1353882896
 20
73.1477138158
 11
341.1353882896
 21
77.8410553415
  0
LINE
  8
0
 62
7
  6
CONTINUOUS
 10
328.7560524442
 20
77.9504696252
 11
331.3665077743
 21
84.614990217
  0
LINE
  8
0
 62
7
  6
CONTINUOUS
 10
369.0604705326
 20
70.4477138158
 11
368.7604705326
 21
70.4477138158
  0
LINE
  8
DEFAULT_1
 62
2
  6
CENTER
 10
368.9104705326
 20
78.4477138158
 11
363.9103705326
 21
78.4477138158
  0
LINE
  8
DEFAULT_1
 62
2
  6
CENTER
 10
368.9104705326
 20
78.4477138158
 11
373.9105705326
 21
78.4477138158
  0
LINE
  8
0
 62
7
  6
CONTINUOUS
 10
361.4104705326
 20
77.7977138158
 11
361.4104705326
 21
129.8977138158
  0
LINE
  8
0
 62
7
  6
CONTINUOUS
 10
365.6604705326
 20
78.5977138158
 11
365.6604705326
 21
94.7977138158
  0
LINE
  8
DEFAULT_1
 62
2
  6
CENTER
 10
368.9104705326
 20
129.2104588158
 11
368.9104705326
 21
121.0732038158
  0
LINE
  8
DEFAULT_1
 62
2
  6
CENTER
 10
368.9104705326
 20
78.4477138158
 11
368.9104705326
 21
73.4476138158
  0
LINE
  8
DEFAULT_1
 62
2
  6
CENTER
 10
368.9104705326
 20
78.4477138158
 11
368.9104705326
 21
83.4478138158
  0
LINE
  8
DEFAULT_1
 62
2
  6
CENTER
 10
368.9104705326
 20
129.2104588158
 11
368.9104705326
 21
137.3477138158
  0
LINE
  8
DEFAULT_1
 62
2
  6
CENTER
 10
355.6209968484
 20
103.8477138158
 11
382.1999442168
 21
103.8477138158
  0
LINE
  8
0
 62
7
  6
CONTINUOUS
 10
372.1604705326
 20
78.5977138158
 11
372.1604705326
 21
94.7977138158
  0
LINE
  8
0
 62
7
  6
CONTINUOUS
 10
376.1104705326
 20
106.6477138158
 11
361.7104705326
 21
106.6477138158
  0
LINE
  8
0
 62
7
  6
CONTINUOUS
 10
376.4104705326
 20
77.7977138158
 11
376.4104705326
 21
129.8977138158
  0
LINE
  8
DEFAULT_1
 62
2
  6
CENTER
 10
368.9104705326
 20
129.2104588158
 11
360.7732155326
 21
129.2104588158
  0
LINE
  8
DEFAULT_1
 62
2
  6
CENTER
 10
368.9104705326
 20
129.2104588158
 11
377.0477255326
 21
129.2104588158
  0
LINE
  8
0
 62
7
  6
CONTINUOUS
 10
369.0604705326
 20
137.2477138158
 11
368.7604705326
 21
137.2477138158
  0
LINE
  8
0
 62
7
  6
CONTINUOUS
 10
36.6353882896
 20
220.6851315852
 11
36.6353882896
 21
211.0851315852
  0
LINE
  8
0
 62
7
  6
CONTINUOUS
 10
36.7353882896
 20
208.6851315852
 11
36.7353882896
 21
223.0851315852
  0
POLYLINE
  8
0
 62
7
  6
CONTINUOUS
 66
1
 70
0
  0
VERTEX
  8
0
 62
7
  6
CONTINUOUS
 10
36.6353882896
 20
218.9555955862
  0
VERTEX
  8
0
 62
7
  6
CONTINUOUS
 10
36.636702734
 20
218.9613449571
  0
VERTEX
  8
0
 62
7
  6
CONTINUOUS
 10
36.6406155586
 20
218.9667622145
  0
VERTEX
  8
0
 62
7
  6
CONTINUOUS
 10
36.6470871841
 20
218.9718296712
  0
VERTEX
  8
0
 62
7
  6
CONTINUOUS
 10
36.6560498144
 20
218.976519035
  0
SEQEND
  0
POLYLINE
  8
0
 62
7
  6
CONTINUOUS
 66
1
 70
0
  0
VERTEX
  8
0
 62
7
  6
CONTINUOUS
 10
36.7353882896
 20
221.4112416303
  0
VERTEX
  8
0
 62
7
  6
CONTINUOUS
 10
36.7250824023
 20
221.3747694858
  0
VERTEX
  8
0
 62
7
  6
CONTINUOUS
 10
36.7026540509
 20
221.2833575558
  0
VERTEX
  8
0
 62
7
  6
CONTINUOUS
 10
36.6835977136
 20
221.1922201141
  0
VERTEX
  8
0
 62
7
  6
CONTINUOUS
 10
36.6679346661
 20
221.1021390248
  0
VERTEX
  8
0
 62
7
  6
CONTINUOUS
 10
36.6555964574
 20
221.0138806548
  0
VERTEX
  8
0
 62
7
  6
CONTINUOUS
 10
36.6463890591
 20
220.9277188906
  0
VERTEX
  8
0
 62
7
  6
CONTINUOUS
 10
36.6400633654
 20
220.8432438558
  0
VERTEX
  8
0
 62
7
  6
CONTINUOUS
 10
36.636435469
 20
220.7599250163
  0
VERTEX
  8
0
 62
7
  6
CONTINUOUS
 10
36.63538829
 20
220.6851315852
  0
SEQEND
  0
LINE
  8
0
 62
7
  6
CONTINUOUS
 10
49.3353882896
 20
211.0851315852
 11
49.3353882896
 21
220.6851315852
  0
LINE
  8
0
 62
7
  6
CONTINUOUS
 10
61.7353882896
 20
211.0851315852
 11
61.7353882896
 21
220.6851315852
  0
LINE
  8
0
 62
7
  6
CONTINUOUS
 10
74.7353882896
 20
211.0851315852
 11
74.7353882896
 21
220.6851315852
  0
LINE
  8
0
 62
7
  6
CONTINUOUS
 10
87.1353882896
 20
211.0851315852
 11
87.1353882896
 21
220.6851315852
  0
LINE
  8
0
 62
7
  6
CONTINUOUS
 10
100.1353882896
 20
211.0851315852
 11
100.1353882896
 21
220.6851315852
  0
LINE
  8
0
 62
7
  6
CONTINUOUS
 10
112.5353882896
 20
211.0851315852
 11
112.5353882896
 21
220.6851315852
  0
POLYLINE
  8
0
 62
7
  6
CONTINUOUS
 66
1
 70
0
  0
VERTEX
  8
0
 62
7
  6
CONTINUOUS
 10
36.6560498144
 20
212.7937441355
  0
VERTEX
  8
0
 62
7
  6
CONTINUOUS
 10
36.6470871841
 20
212.7984334992
  0
VERTEX
  8
0
 62
7
  6
CONTINUOUS
 10
36.6406155586
 20
212.8035009559
  0
VERTEX
  8
0
 62
7
  6
CONTINUOUS
 10
36.636702734
 20
212.8089182134
  0
VERTEX
  8
0
 62
7
  6
CONTINUOUS
 10
36.6353882896
 20
212.8146675842
  0
SEQEND
  0
LINE
  8
0
 62
7
  6
CONTINUOUS
 10
125.5353882896
 20
211.0851315852
 11
125.5353882896
 21
220.6851315852
  0
POLYLINE
  8
0
 62
7
  6
CONTINUOUS
 66
1
 70
0
  0
VERTEX
  8
0
 62
7
  6
CONTINUOUS
 10
36.6560498144
 20
212.7937441355
  0
VERTEX
  8
0
 62
7
  6
CONTINUOUS
 10
36.7294262137
 20
212.7671434297
  0
VERTEX
  8
0
 62
7
  6
CONTINUOUS
 10
36.7353882896
 20
212.7659125929
  0
SEQEND
  0
LINE
  8
0
 62
7
  6
CONTINUOUS
 10
137.9353882896
 20
211.0851315852
 11
137.9353882896
 21
220.6851315852
  0
LINE
  8
0
 62
7
  6
CONTINUOUS
 10
150.9353882896
 20
211.0851315852
 11
150.9353882896
 21
220.6851315852
  0
LINE
  8
0
 62
7
  6
CONTINUOUS
 10
163.3353882896
 20
211.0851315852
 11
163.3353882896
 21
220.6851315852
  0
LINE
  8
0
 62
7
  6
CONTINUOUS
 10
176.3353882896
 20
211.0851315852
 11
176.3353882896
 21
220.6851315852
  0
LINE
  8
0
 62
7
  6
CONTINUOUS
 10
37.0353882896
 20
208.3851315852
 11
340.7353882896
 21
208.3851315852
  0
LINE
  8
DEFAULT_1
 62
2
  6
CENTER
 10
25.1353882896
 20
215.8851315852
 11
346.1473886169
 21
215.8851315852
  0
LINE
  8
0
 62
7
  6
CONTINUOUS
 10
188.7353882896
 20
211.0851315852
 11
188.7353882896
 21
220.6851315852
  0
LINE
  8
DEFAULT_1
 62
2
  6
CENTER
 10
188.8853882896
 20
202.595657901
 11
188.8853882896
 21
229.1746052694
  0
LINE
  8
0
 62
7
  6
CONTINUOUS
 10
37.0353882896
 20
223.3851315852
 11
340.7353882896
 21
223.3851315852
  0
LINE
  8
0
 62
7
  6
CONTINUOUS
 10
201.7353882896
 20
211.0851315852
 11
201.7353882896
 21
220.6851315852
  0
LINE
  8
0
 62
7
  6
CONTINUOUS
 10
214.1353882896
 20
211.0851315852
 11
214.1353882896
 21
220.6851315852
  0
LINE
  8
0
 62
7
  6
CONTINUOUS
 10
227.1353882896
 20
211.0851315852
 11
227.1353882896
 21
220.6851315852
  0
POLYLINE
  8
0
 62
7
  6
CONTINUOUS
 66
1
 70
0
  0
VERTEX
  8
0
 62
7
  6
CONTINUOUS
 10
36.7353882896
 20
219.0043505864
  0
VERTEX
  8
0
 62
7
  6
CONTINUOUS
 10
36.7294263629
 20
219.0031197832
  0
VERTEX
  8
0
 62
7
  6
CONTINUOUS
 10
36.6560498144
 20
218.976519035
  0
SEQEND
  0
LINE
  8
0
 62
7
  6
CONTINUOUS
 10
239.5353882896
 20
211.0851315852
 11
239.5353882896
 21
220.6851315852
  0
LINE
  8
0
 62
7
  6
CONTINUOUS
 10
252.5353882896
 20
211.0851315852
 11
252.5353882896
 21
220.6851315852
  0
LINE
  8
0
 62
7
  6
CONTINUOUS
 10
264.9353882896
 20
211.0851315852
 11
264.9353882896
 21
220.6851315852
  0
LINE
  8
0
 62
7
  6
CONTINUOUS
 10
277.9353882896
 20
211.0851315852
 11
277.9353882896
 21
220.6851315852
  0
LINE
  8
0
 62
7
  6
CONTINUOUS
 10
290.3353882896
 20
211.0851315852
 11
290.3353882896
 21
220.6851315852
  0
LINE
  8
0
 62
7
  6
CONTINUOUS
 10
303.3353882896
 20
211.0851315852
 11
303.3353882896
 21
220.6851315852
  0
LINE
  8
0
 62
7
  6
CONTINUOUS
 10
315.7353882896
 20
211.0851315852
 11
315.7353882896
 21
220.6851315852
  0
LINE
  8
0
 62
7
  6
CONTINUOUS
 10
328.7353882896
 20
211.0851315852
 11
328.7353882896
 21
220.6851315852
  0
LINE
  8
0
 62
7
  6
CONTINUOUS
 10
341.0353882896
 20
223.0851315852
 11
341.0353882896
 21
221.4128783259
  0
LINE
  8
0
 62
7
  6
CONTINUOUS
 10
341.0353882896
 20
210.3590303658
 11
341.0353882896
 21
208.6851315852
  0
LINE
  8
0
 62
7
  6
CONTINUOUS
 10
341.1353882896
 20
211.0851315852
 11
341.1353882896
 21
220.6851315852
  0
ARC
  8
0
 62
7
  6
CONTINUOUS
 10
59.0353882896
 20
73.1477138158
 40
2.7
 50
270.0
 51
360.0
  0
ARC
  8
0
 62
7
  6
CONTINUOUS
 10
52.0353882896
 20
73.1477138158
 40
2.7
 50
180.0
 51
270.0
  0
ARC
  8
0
 62
7
  6
CONTINUOUS
 10
77.4353882896
 20
73.1477138158
 40
2.7
 50
180.0
 51
270.0
  0
ARC
  8
0
 62
7
  6
CONTINUOUS
 10
49.6353882896
 20
77.8410553415
 40
0.3
 50
158.61
 51
180.0
  0
ARC
  8
0
 62
7
  6
CONTINUOUS
 10
61.4353882896
 20
77.8410553415
 40
0.3
 50
0.0
 51
21.39
  0
ARC
  8
0
 62
7
  6
CONTINUOUS
 10
75.0353882896
 20
77.8410553415
 40
0.3
 50
158.61
 51
180.0
  0
ARC
  8
0
 62
7
  6
CONTINUOUS
 10
51.0353882896
 20
84.9797044959
 40
1.0
 50
338.61
 51
360.0
  0
ARC
  8
0
 62
7
  6
CONTINUOUS
 10
60.0353882896
 20
84.9797044959
 40
1.0
 50
180.0
 51
201.39
  0
ARC
  8
0
 62
7
  6
CONTINUOUS
 10
76.4353882896
 20
84.9797044959
 40
1.0
 50
338.61
 51
360.0
  0
ARC
  8
0
 62
7
  6
CONTINUOUS
 10
109.8353882896
 20
73.1477138158
 40
2.7
 50
270.0
 51
360.0
  0
ARC
  8
0
 62
7
  6
CONTINUOUS
 10
102.8353882896
 20
73.1477138158
 40
2.7
 50
180.0
 51
270.0
  0
ARC
  8
0
 62
7
  6
CONTINUOUS
 10
84.4353882896
 20
73.1477138158
 40
2.7
 50
270.0
 51
360.0
  0
ARC
  8
0
 62
7
  6
CONTINUOUS
 10
112.2353882896
 20
77.8410553415
 40
0.3
 50
0.0
 51
21.39
  0
ARC
  8
0
 62
7
  6
CONTINUOUS
 10
100.4353882896
 20
77.8410553415
 40
0.3
 50
158.61
 51
180.0
  0
ARC
  8
0
 62
7
  6
CONTINUOUS
 10
86.8353882896
 20
77.8410553415
 40
0.3
 50
0.0
 51
21.39
  0
ARC
  8
0
 62
7
  6
CONTINUOUS
 10
101.8353882896
 20
84.9797044959
 40
1.0
 50
338.61
 51
360.0
  0
ARC
  8
0
 62
7
  6
CONTINUOUS
 10
110.8353882896
 20
84.9797044959
 40
1.0
 50
180.0
 51
201.39
  0
ARC
  8
0
 62
7
  6
CONTINUOUS
 10
85.4353882896
 20
84.9797044959
 40
1.0
 50
180.0
 51
201.39
  0
ARC
  8
0
 62
7
  6
CONTINUOUS
 10
75.4353882896
 20
99.222373782
 40
2.0
 50
0.0
 51
90.0
  0
ARC
  8
0
 62
7
  6
CONTINUOUS
 10
86.4353882896
 20
99.222373782
 40
2.0
 50
90.0
 51
180.0
  0
ARC
  8
0
 62
7
  6
CONTINUOUS
 10
50.0353882896
 20
99.222373782
 40
2.0
 50
0.0
 51
90.0
  0
ARC
  8
0
 62
7
  6
CONTINUOUS
 10
61.0353882896
 20
99.222373782
 40
2.0
 50
90.0
 51
180.0
  0
ARC
  8
0
 62
7
  6
CONTINUOUS
 10
100.8353882896
 20
99.222373782
 40
2.0
 50
0.0
 51
90.0
  0
ARC
  8
0
 62
7
  6
CONTINUOUS
 10
111.8353882896
 20
99.222373782
 40
2.0
 50
90.0
 51
180.0
  0
ARC
  8
0
 62
7
  6
CONTINUOUS
 10
37.0353882896
 20
101.522373782
 40
0.3
 50
179.9999999914
 51
270.0
  0
ARC
  8
0
 62
7
  6
CONTINUOUS
 10
179.0353882896
 20
73.1477138158
 40
2.7
 50
180.0
 51
270.0
  0
ARC
  8
0
 62
7
  6
CONTINUOUS
 10
186.0353882896
 20
73.1477138158
 40
2.7
 50
270.0
 51
360.0
  0
ARC
  8
0
 62
7
  6
CONTINUOUS
 10
153.6353882896
 20
73.1477138158
 40
2.7
 50
180.0
 51
270.0
  0
ARC
  8
0
 62
7
  6
CONTINUOUS
 10
160.6353882896
 20
73.1477138158
 40
2.7
 50
270.0
 51
360.0
  0
ARC
  8
0
 62
7
  6
CONTINUOUS
 10
135.2353882896
 20
73.1477138158
 40
2.7
 50
270.0
 51
360.0
  0
ARC
  8
0
 62
7
  6
CONTINUOUS
 10
128.2353882896
 20
73.1477138158
 40
2.7
 50
180.0
 51
270.0
  0
ARC
  8
0
 62
7
  6
CONTINUOUS
 10
187.0353882896
 20
84.9797044959
 40
1.0
 50
180.0
 51
201.39
  0
ARC
  8
0
 62
7
  6
CONTINUOUS
 10
178.0353882896
 20
84.9797044959
 40
1.0
 50
338.61
 51
360.0
  0
ARC
  8
0
 62
7
  6
CONTINUOUS
 10
161.6353882896
 20
84.9797044959
 40
1.0
 50
180.0
 51
201.39
  0
ARC
  8
0
 62
7
  6
CONTINUOUS
 10
152.6353882896
 20
84.9797044959
 40
1.0
 50
338.61
 51
360.0
  0
ARC
  8
0
 62
7
  6
CONTINUOUS
 10
127.2353882896
 20
84.9797044959
 40
1.0
 50
338.61
 51
360.0
  0
ARC
  8
0
 62
7
  6
CONTINUOUS
 10
136.2353882896
 20
84.9797044959
 40
1.0
 50
180.0
 51
201.39
  0
ARC
  8
0
 62
7
  6
CONTINUOUS
 10
188.4353882896
 20
77.8410553415
 40
0.3
 50
0.0
 51
21.39
  0
ARC
  8
0
 62
7
  6
CONTINUOUS
 10
176.6353882896
 20
77.8410553415
 40
0.3
 50
158.61
 51
180.0
  0
ARC
  8
0
 62
7
  6
CONTINUOUS
 10
163.0353882896
 20
77.8410553415
 40
0.3
 50
0.0
 51
21.39
  0
ARC
  8
0
 62
7
  6
CONTINUOUS
 10
151.2353882896
 20
77.8410553415
 40
0.3
 50
158.61
 51
180.0
  0
ARC
  8
0
 62
7
  6
CONTINUOUS
 10
125.8353882896
 20
77.8410553415
 40
0.3
 50
158.61
 51
180.0
  0
ARC
  8
0
 62
7
  6
CONTINUOUS
 10
137.6353882896
 20
77.8410553415
 40
0.3
 50
0.0
 51
21.39
  0
ARC
  8
0
 62
7
  6
CONTINUOUS
 10
177.0353882896
 20
99.222373782
 40
2.0
 50
0.0
 51
90.0
  0
ARC
  8
0
 62
7
  6
CONTINUOUS
 10
188.0353882896
 20
99.222373782
 40
2.0
 50
90.0
 51
180.0
  0
ARC
  8
0
 62
7
  6
CONTINUOUS
 10
162.6353882896
 20
99.222373782
 40
2.0
 50
90.0
 51
180.0
  0
ARC
  8
0
 62
7
  6
CONTINUOUS
 10
151.6353882896
 20
99.222373782
 40
2.0
 50
0.0
 51
90.0
  0
ARC
  8
0
 62
7
  6
CONTINUOUS
 10
126.2353882896
 20
99.222373782
 40
2.0
 50
0.0
 51
90.0
  0
ARC
  8
0
 62
7
  6
CONTINUOUS
 10
137.2353882896
 20
99.222373782
 40
2.0
 50
90.0
 51
180.0
  0
ARC
  8
0
 62
7
  6
CONTINUOUS
 10
99.1353882896
 20
108.6477138158
 40
2.0
 50
180.0
 51
270.0
  0
ARC
  8
0
 62
7
  6
CONTINUOUS
 10
48.3353882896
 20
108.6477138158
 40
2.0
 50
180.0
 51
270.0
  0
ARC
  8
0
 62
7
  6
CONTINUOUS
 10
62.7353882896
 20
108.6477138158
 40
2.0
 50
270.0
 51
360.0
  0
ARC
  8
0
 62
7
  6
CONTINUOUS
 10
73.7353882896
 20
108.6477138158
 40
2.0
 50
180.0
 51
270.0
  0
ARC
  8
0
 62
7
  6
CONTINUOUS
 10
88.1353882896
 20
108.6477138158
 40
2.0
 50
270.0
 51
360.0
  0
ARC
  8
0
 62
7
  6
CONTINUOUS
 10
37.0353882896
 20
106.3477138158
 40
0.3
 50
90.0
 51
180.0
  0
ARC
  8
0
 62
7
  6
CONTINUOUS
 10
39.0353882896
 20
106.9477138158
 40
0.3
 50
270.0
 51
360.0
  0
ARC
  8
0
 62
7
  6
CONTINUOUS
 10
39.3353882896
 20
134.5477138158
 40
2.7
 50
90.0
 51
180.0
  0
ARC
  8
0
 62
7
  6
CONTINUOUS
 10
97.1353882896
 20
134.5477138158
 40
2.7
 50
0.0
 51
90.0
  0
ARC
  8
0
 62
7
  6
CONTINUOUS
 10
46.3353882896
 20
134.5477138158
 40
2.7
 50
0.0
 51
90.0
  0
ARC
  8
0
 62
7
  6
CONTINUOUS
 10
64.7353882896
 20
134.5477138158
 40
2.7
 50
90.0
 51
180.0
  0
ARC
  8
0
 62
7
  6
CONTINUOUS
 10
90.1353882896
 20
134.5477138158
 40
2.7
 50
90.0
 51
180.0
  0
ARC
  8
0
 62
7
  6
CONTINUOUS
 10
71.7353882896
 20
134.5477138158
 40
2.7
 50
0.0
 51
90.0
  0
ARC
  8
0
 62
7
  6
CONTINUOUS
 10
38.3353882896
 20
122.7152476603
 40
1.0
 50
0.0
 51
21.3886228278
  0
ARC
  8
0
 62
7
  6
CONTINUOUS
 10
98.1353882896
 20
122.7152476603
 40
1.0
 50
158.6113771722
 51
180.0
  0
ARC
  8
0
 62
7
  6
CONTINUOUS
 10
63.7353882896
 20
122.7152476603
 40
1.0
 50
0.0
 51
21.3886228278
  0
ARC
  8
0
 62
7
  6
CONTINUOUS
 10
47.3353882896
 20
122.7152476603
 40
1.0
 50
158.6113771722
 51
180.0
  0
ARC
  8
0
 62
7
  6
CONTINUOUS
 10
72.7353882896
 20
122.7152476603
 40
1.0
 50
158.6113771722
 51
180.0
  0
ARC
  8
0
 62
7
  6
CONTINUOUS
 10
89.1353882896
 20
122.7152476603
 40
1.0
 50
0.0
 51
21.3886228278
  0
ARC
  8
0
 62
7
  6
CONTINUOUS
 10
36.9353882896
 20
129.8543685561
 40
0.3
 50
180.0
 51
201.3886228278
  0
ARC
  8
0
 62
7
  6
CONTINUOUS
 10
99.5353882896
 20
129.8543685561
 40
0.3
 50
338.6113771722
 51
360.0
  0
ARC
  8
0
 62
7
  6
CONTINUOUS
 10
62.3353882896
 20
129.8543685561
 40
0.3
 50
180.0
 51
201.3886228278
  0
ARC
  8
0
 62
7
  6
CONTINUOUS
 10
48.7353882896
 20
129.8543685561
 40
0.3
 50
338.6113771722
 51
360.0
  0
ARC
  8
0
 62
7
  6
CONTINUOUS
 10
74.1353882896
 20
129.8543685561
 40
0.3
 50
338.6113771722
 51
360.0
  0
ARC
  8
0
 62
7
  6
CONTINUOUS
 10
87.7353882896
 20
129.8543685561
 40
0.3
 50
180.0
 51
201.3886228278
  0
ARC
  8
0
 62
7
  6
CONTINUOUS
 10
113.5353882896
 20
108.6477138158
 40
2.0
 50
270.0
 51
360.0
  0
ARC
  8
0
 62
7
  6
CONTINUOUS
 10
175.3353882896
 20
108.6477138158
 40
2.0
 50
180.0
 51
270.0
  0
ARC
  8
0
 62
7
  6
CONTINUOUS
 10
138.9353882896
 20
108.6477138158
 40
2.0
 50
270.0
 51
360.0
  0
ARC
  8
0
 62
7
  6
CONTINUOUS
 10
124.5353882896
 20
108.6477138158
 40
2.0
 50
180.0
 51
270.0
  0
ARC
  8
0
 62
7
  6
CONTINUOUS
 10
149.9353882896
 20
108.6477138158
 40
2.0
 50
180.0
 51
270.0
  0
ARC
  8
0
 62
7
  6
CONTINUOUS
 10
164.3353882896
 20
108.6477138158
 40
2.0
 50
270.0
 51
360.0
  0
ARC
  8
0
 62
7
  6
CONTINUOUS
 10
115.5353882896
 20
134.5477138158
 40
2.7
 50
90.0
 51
180.0
  0
ARC
  8
0
 62
7
  6
CONTINUOUS
 10
173.3353882896
 20
134.5477138158
 40
2.7
 50
0.0
 51
90.0
  0
ARC
  8
0
 62
7
  6
CONTINUOUS
 10
122.5353882896
 20
134.5477138158
 40
2.7
 50
0.0
 51
90.0
  0
ARC
  8
0
 62
7
  6
CONTINUOUS
 10
140.9353882896
 20
134.5477138158
 40
2.7
 50
90.0
 51
180.0
  0
ARC
  8
0
 62
7
  6
CONTINUOUS
 10
166.3353882896
 20
134.5477138158
 40
2.7
 50
90.0
 51
180.0
  0
ARC
  8
0
 62
7
  6
CONTINUOUS
 10
147.9353882896
 20
134.5477138158
 40
2.7
 50
0.0
 51
90.0
  0
ARC
  8
0
 62
7
  6
CONTINUOUS
 10
114.5353882896
 20
122.7152476603
 40
1.0
 50
0.0
 51
21.3886228278
  0
ARC
  8
0
 62
7
  6
CONTINUOUS
 10
174.3353882896
 20
122.7152476603
 40
1.0
 50
158.6113771722
 51
180.0
  0
ARC
  8
0
 62
7
  6
CONTINUOUS
 10
139.9353882896
 20
122.7152476603
 40
1.0
 50
0.0
 51
21.3886228278
  0
ARC
  8
0
 62
7
  6
CONTINUOUS
 10
123.5353882896
 20
122.7152476603
 40
1.0
 50
158.6113771722
 51
180.0
  0
ARC
  8
0
 62
7
  6
CONTINUOUS
 10
148.9353882896
 20
122.7152476603
 40
1.0
 50
158.6113771722
 51
180.0
  0
ARC
  8
0
 62
7
  6
CONTINUOUS
 10
165.3353882896
 20
122.7152476603
 40
1.0
 50
0.0
 51
21.3886228278
  0
ARC
  8
0
 62
7
  6
CONTINUOUS
 10
113.1353882896
 20
129.8543685561
 40
0.3
 50
180.0
 51
201.3886228278
  0
ARC
  8
0
 62
7
  6
CONTINUOUS
 10
175.7353882896
 20
129.8543685561
 40
0.3
 50
338.6113771722
 51
360.0
  0
ARC
  8
0
 62
7
  6
CONTINUOUS
 10
138.5353882896
 20
129.8543685561
 40
0.3
 50
180.0
 51
201.3886228278
  0
ARC
  8
0
 62
7
  6
CONTINUOUS
 10
124.9353882896
 20
129.8543685561
 40
0.3
 50
338.6113771722
 51
360.0
  0
ARC
  8
0
 62
7
  6
CONTINUOUS
 10
150.3353882896
 20
129.8543685561
 40
0.3
 50
338.6113771722
 51
360.0
  0
ARC
  8
0
 62
7
  6
CONTINUOUS
 10
163.9353882896
 20
129.8543685561
 40
0.3
 50
180.0
 51
201.3886228278
  0
ARC
  8
0
 62
7
  6
CONTINUOUS
 10
262.2353882896
 20
73.1477138158
 40
2.7
 50
270.0
 51
360.0
  0
ARC
  8
0
 62
7
  6
CONTINUOUS
 10
255.2353882896
 20
73.1477138158
 40
2.7
 50
180.0
 51
270.0
  0
ARC
  8
0
 62
7
  6
CONTINUOUS
 10
229.8353882896
 20
73.1477138158
 40
2.7
 50
180.0
 51
270.0
  0
ARC
  8
0
 62
7
  6
CONTINUOUS
 10
236.8353882896
 20
73.1477138158
 40
2.7
 50
270.0
 51
360.0
  0
ARC
  8
0
 62
7
  6
CONTINUOUS
 10
204.4353882896
 20
73.1477138158
 40
2.7
 50
180.0
 51
270.0
  0
ARC
  8
0
 62
7
  6
CONTINUOUS
 10
211.4353882896
 20
73.1477138158
 40
2.7
 50
270.0
 51
360.0
  0
ARC
  8
0
 62
7
  6
CONTINUOUS
 10
263.2353882896
 20
84.9797044959
 40
1.0
 50
180.0
 51
201.39
  0
ARC
  8
0
 62
7
  6
CONTINUOUS
 10
254.2353882896
 20
84.9797044959
 40
1.0
 50
338.61
 51
360.0
  0
ARC
  8
0
 62
7
  6
CONTINUOUS
 10
237.8353882896
 20
84.9797044959
 40
1.0
 50
180.0
 51
201.39
  0
ARC
  8
0
 62
7
  6
CONTINUOUS
 10
228.8353882896
 20
84.9797044959
 40
1.0
 50
338.61
 51
360.0
  0
ARC
  8
0
 62
7
  6
CONTINUOUS
 10
212.4353882896
 20
84.9797044959
 40
1.0
 50
180.0
 51
201.39
  0
ARC
  8
0
 62
7
  6
CONTINUOUS
 10
203.4353882896
 20
84.9797044959
 40
1.0
 50
338.61
 51
360.0
  0
ARC
  8
0
 62
7
  6
CONTINUOUS
 10
252.8353882896
 20
77.8410553415
 40
0.3
 50
158.61
 51
180.0
  0
ARC
  8
0
 62
7
  6
CONTINUOUS
 10
264.6353882896
 20
77.8410553415
 40
0.3
 50
0.0
 51
21.39
  0
ARC
  8
0
 62
7
  6
CONTINUOUS
 10
239.2353882896
 20
77.8410553415
 40
0.3
 50
0.0
 51
21.39
  0
ARC
  8
0
 62
7
  6
CONTINUOUS
 10
227.4353882896
 20
77.8410553415
 40
0.3
 50
158.61
 51
180.0
  0
ARC
  8
0
 62
7
  6
CONTINUOUS
 10
213.8353882896
 20
77.8410553415
 40
0.3
 50
0.0
 51
21.39
  0
ARC
  8
0
 62
7
  6
CONTINUOUS
 10
202.0353882896
 20
77.8410553415
 40
0.3
 50
158.61
 51
180.0
  0
ARC
  8
0
 62
7
  6
CONTINUOUS
 10
227.8353882896
 20
99.222373782
 40
2.0
 50
0.0
 51
90.0
  0
ARC
  8
0
 62
7
  6
CONTINUOUS
 10
238.8353882896
 20
99.222373782
 40
2.0
 50
90.0
 51
180.0
  0
ARC
  8
0
 62
7
  6
CONTINUOUS
 10
202.4353882896
 20
99.222373782
 40
2.0
 50
0.0
 51
90.0
  0
ARC
  8
0
 62
7
  6
CONTINUOUS
 10
213.4353882896
 20
99.222373782
 40
2.0
 50
90.0
 51
180.0
  0
ARC
  8
0
 62
7
  6
CONTINUOUS
 10
253.2353882896
 20
99.222373782
 40
2.0
 50
0.0
 51
90.0
  0
ARC
  8
0
 62
7
  6
CONTINUOUS
 10
264.2353882896
 20
99.222373782
 40
2.0
 50
90.0
 51
180.0
  0
ARC
  8
0
 62
7
  6
CONTINUOUS
 10
287.6353882896
 20
73.1477138158
 40
2.7
 50
270.0
 51
360.0
  0
ARC
  8
0
 62
7
  6
CONTINUOUS
 10
280.6353882896
 20
73.1477138158
 40
2.7
 50
180.0
 51
270.0
  0
ARC
  8
0
 62
7
  6
CONTINUOUS
 10
306.0353882896
 20
73.1477138158
 40
2.7
 50
180.0
 51
270.0
  0
ARC
  8
0
 62
7
  6
CONTINUOUS
 10
278.2353882896
 20
77.8410553415
 40
0.3
 50
158.61
 51
180.0
  0
ARC
  8
0
 62
7
  6
CONTINUOUS
 10
290.0353882896
 20
77.8410553415
 40
0.3
 50
0.0
 51
21.39
  0
ARC
  8
0
 62
7
  6
CONTINUOUS
 10
303.6353882896
 20
77.8410553415
 40
0.3
 50
158.61
 51
180.0
  0
ARC
  8
0
 62
7
  6
CONTINUOUS
 10
305.0353882896
 20
84.9797044959
 40
1.0
 50
338.61
 51
360.0
  0
ARC
  8
0
 62
7
  6
CONTINUOUS
 10
288.6353882896
 20
84.9797044959
 40
1.0
 50
180.0
 51
201.39
  0
ARC
  8
0
 62
7
  6
CONTINUOUS
 10
279.6353882896
 20
84.9797044959
 40
1.0
 50
338.61
 51
360.0
  0
ARC
  8
0
 62
7
  6
CONTINUOUS
 10
313.0353882896
 20
73.1477138158
 40
2.7
 50
270.0
 51
360.0
  0
ARC
  8
0
 62
7
  6
CONTINUOUS
 10
338.4353882896
 20
73.1477138158
 40
2.7
 50
270.0
 51
360.0
  0
ARC
  8
0
 62
7
  6
CONTINUOUS
 10
331.4353882896
 20
73.1477138158
 40
2.7
 50
180.0
 51
270.0
  0
ARC
  8
0
 62
7
  6
CONTINUOUS
 10
315.4353882896
 20
77.8410553415
 40
0.3
 50
0.0
 51
21.39
  0
ARC
  8
0
 62
7
  6
CONTINUOUS
 10
329.0353882896
 20
77.8410553415
 40
0.3
 50
158.61
 51
180.0
  0
ARC
  8
0
 62
7
  6
CONTINUOUS
 10
340.8353882896
 20
77.8410553415
 40
0.3
 50
0.0
 51
21.39
  0
ARC
  8
0
 62
7
  6
CONTINUOUS
 10
314.0353882896
 20
84.9797044959
 40
1.0
 50
180.0
 51
201.39
  0
ARC
  8
0
 62
7
  6
CONTINUOUS
 10
330.4353882896
 20
84.9797044959
 40
1.0
 50
338.61
 51
360.0
  0
ARC
  8
0
 62
7
  6
CONTINUOUS
 10
339.4353882896
 20
84.9797044959
 40
1.0
 50
180.0
 51
201.39
  0
ARC
  8
0
 62
7
  6
CONTINUOUS
 10
329.4353882896
 20
99.222373782
 40
2.0
 50
0.0
 51
90.0
  0
ARC
  8
0
 62
7
  6
CONTINUOUS
 10
315.0353882896
 20
99.222373782
 40
2.0
 50
90.0
 51
180.0
  0
ARC
  8
0
 62
7
  6
CONTINUOUS
 10
304.0353882896
 20
99.222373782
 40
2.0
 50
0.0
 51
90.0
  0
ARC
  8
0
 62
7
  6
CONTINUOUS
 10
278.6353882896
 20
99.222373782
 40
2.0
 50
0.0
 51
90.0
  0
ARC
  8
0
 62
7
  6
CONTINUOUS
 10
289.6353882896
 20
99.222373782
 40
2.0
 50
90.0
 51
180.0
  0
ARC
  8
0
 62
7
  6
CONTINUOUS
 10
338.7353882896
 20
100.922373782
 40
0.3
 50
90.0
 51
179.9999999999
  0
ARC
  8
0
 62
7
  6
CONTINUOUS
 10
340.7353882896
 20
101.522373782
 40
0.3
 50
270.0
 51
360.0
  0
ARC
  8
0
 62
7
  6
CONTINUOUS
 10
251.5353882896
 20
108.6477138158
 40
2.0
 50
180.0
 51
270.0
  0
ARC
  8
0
 62
7
  6
CONTINUOUS
 10
240.5353882896
 20
108.6477138158
 40
2.0
 50
270.0
 51
360.0
  0
ARC
  8
0
 62
7
  6
CONTINUOUS
 10
226.1353882896
 20
108.6477138158
 40
2.0
 50
180.0
 51
270.0
  0
ARC
  8
0
 62
7
  6
CONTINUOUS
 10
215.1353882896
 20
108.6477138158
 40
2.0
 50
270.0
 51
360.0
  0
ARC
  8
0
 62
7
  6
CONTINUOUS
 10
200.7353882896
 20
108.6477138158
 40
2.0
 50
180.0
 51
270.0
  0
ARC
  8
0
 62
7
  6
CONTINUOUS
 10
189.7353882896
 20
108.6477138158
 40
2.0
 50
270.0
 51
360.0
  0
ARC
  8
0
 62
7
  6
CONTINUOUS
 10
249.5353882896
 20
134.5477138158
 40
2.7
 50
0.0
 51
90.0
  0
ARC
  8
0
 62
7
  6
CONTINUOUS
 10
242.5353882896
 20
134.5477138158
 40
2.7
 50
90.0
 51
180.0
  0
ARC
  8
0
 62
7
  6
CONTINUOUS
 10
224.1353882896
 20
134.5477138158
 40
2.7
 50
0.0
 51
90.0
  0
ARC
  8
0
 62
7
  6
CONTINUOUS
 10
217.1353882896
 20
134.5477138158
 40
2.7
 50
90.0
 51
180.0
  0
ARC
  8
0
 62
7
  6
CONTINUOUS
 10
198.7353882896
 20
134.5477138158
 40
2.7
 50
0.0
 51
90.0
  0
ARC
  8
0
 62
7
  6
CONTINUOUS
 10
191.7353882896
 20
134.5477138158
 40
2.7
 50
90.0
 51
180.0
  0
ARC
  8
0
 62
7
  6
CONTINUOUS
 10
250.5353882896
 20
122.7152476603
 40
1.0
 50
158.6113771722
 51
180.0
  0
ARC
  8
0
 62
7
  6
CONTINUOUS
 10
225.1353882896
 20
122.7152476603
 40
1.0
 50
158.6113771722
 51
180.0
  0
ARC
  8
0
 62
7
  6
CONTINUOUS
 10
241.5353882896
 20
122.7152476603
 40
1.0
 50
0.0
 51
21.3886228278
  0
ARC
  8
0
 62
7
  6
CONTINUOUS
 10
199.7353882896
 20
122.7152476603
 40
1.0
 50
158.6113771722
 51
180.0
  0
ARC
  8
0
 62
7
  6
CONTINUOUS
 10
216.1353882896
 20
122.7152476603
 40
1.0
 50
0.0
 51
21.3886228278
  0
ARC
  8
0
 62
7
  6
CONTINUOUS
 10
190.7353882896
 20
122.7152476603
 40
1.0
 50
0.0
 51
21.3886228278
  0
ARC
  8
0
 62
7
  6
CONTINUOUS
 10
251.9353882896
 20
129.8543685561
 40
0.3
 50
338.6113771722
 51
360.0
  0
ARC
  8
0
 62
7
  6
CONTINUOUS
 10
226.5353882896
 20
129.8543685561
 40
0.3
 50
338.6113771722
 51
360.0
  0
ARC
  8
0
 62
7
  6
CONTINUOUS
 10
240.1353882896
 20
129.8543685561
 40
0.3
 50
180.0
 51
201.3886228278
  0
ARC
  8
0
 62
7
  6
CONTINUOUS
 10
201.1353882896
 20
129.8543685561
 40
0.3
 50
338.6113771722
 51
360.0
  0
ARC
  8
0
 62
7
  6
CONTINUOUS
 10
214.7353882896
 20
129.8543685561
 40
0.3
 50
180.0
 51
201.3886228278
  0
ARC
  8
0
 62
7
  6
CONTINUOUS
 10
189.3353882896
 20
129.8543685561
 40
0.3
 50
180.0
 51
201.3886228278
  0
ARC
  8
0
 62
7
  6
CONTINUOUS
 10
316.7353882896
 20
108.6477138158
 40
2.0
 50
270.0
 51
360.0
  0
ARC
  8
0
 62
7
  6
CONTINUOUS
 10
302.3353882896
 20
108.6477138158
 40
2.0
 50
180.0
 51
270.0
  0
ARC
  8
0
 62
7
  6
CONTINUOUS
 10
291.3353882896
 20
108.6477138158
 40
2.0
 50
270.0
 51
360.0
  0
ARC
  8
0
 62
7
  6
CONTINUOUS
 10
276.9353882896
 20
108.6477138158
 40
2.0
 50
180.0
 51
270.0
  0
ARC
  8
0
 62
7
  6
CONTINUOUS
 10
265.9353882896
 20
108.6477138158
 40
2.0
 50
270.0
 51
360.0
  0
ARC
  8
0
 62
7
  6
CONTINUOUS
 10
327.7353882896
 20
108.6477138158
 40
2.0
 50
180.0
 51
270.0
  0
ARC
  8
0
 62
7
  6
CONTINUOUS
 10
340.7353882896
 20
106.3477138158
 40
0.3
 50
0.0
 51
90.0
  0
ARC
  8
0
 62
7
  6
CONTINUOUS
 10
267.9353882896
 20
134.5477138158
 40
2.7
 50
90.0
 51
180.0
  0
ARC
  8
0
 62
7
  6
CONTINUOUS
 10
293.3353882896
 20
134.5477138158
 40
2.7
 50
90.0
 51
180.0
  0
ARC
  8
0
 62
7
  6
CONTINUOUS
 10
318.7353882896
 20
134.5477138158
 40
2.7
 50
90.0
 51
180.0
  0
ARC
  8
0
 62
7
  6
CONTINUOUS
 10
300.3353882896
 20
134.5477138158
 40
2.7
 50
0.0
 51
90.0
  0
ARC
  8
0
 62
7
  6
CONTINUOUS
 10
274.9353882896
 20
134.5477138158
 40
2.7
 50
0.0
 51
90.0
  0
ARC
  8
0
 62
7
  6
CONTINUOUS
 10
325.7353882896
 20
134.5477138158
 40
2.7
 50
0.0
 51
90.0
  0
ARC
  8
0
 62
7
  6
CONTINUOUS
 10
317.7353882896
 20
122.7152476603
 40
1.0
 50
0.0
 51
21.3886228278
  0
ARC
  8
0
 62
7
  6
CONTINUOUS
 10
301.3353882896
 20
122.7152476603
 40
1.0
 50
158.6113771722
 51
180.0
  0
ARC
  8
0
 62
7
  6
CONTINUOUS
 10
275.9353882896
 20
122.7152476603
 40
1.0
 50
158.6113771722
 51
180.0
  0
ARC
  8
0
 62
7
  6
CONTINUOUS
 10
292.3353882896
 20
122.7152476603
 40
1.0
 50
0.0
 51
21.3886228278
  0
ARC
  8
0
 62
7
  6
CONTINUOUS
 10
266.9353882896
 20
122.7152476603
 40
1.0
 50
0.0
 51
21.3886228278
  0
ARC
  8
0
 62
7
  6
CONTINUOUS
 10
326.7353882896
 20
122.7152476603
 40
1.0
 50
158.6113771722
 51
180.0
  0
ARC
  8
0
 62
7
  6
CONTINUOUS
 10
265.5353882896
 20
129.8543685561
 40
0.3
 50
180.0
 51
201.3886228278
  0
ARC
  8
0
 62
7
  6
CONTINUOUS
 10
290.9353882896
 20
129.8543685561
 40
0.3
 50
180.0
 51
201.3886228278
  0
ARC
  8
0
 62
7
  6
CONTINUOUS
 10
277.3353882896
 20
129.8543685561
 40
0.3
 50
338.6113771722
 51
360.0
  0
ARC
  8
0
 62
7
  6
CONTINUOUS
 10
316.3353882896
 20
129.8543685561
 40
0.3
 50
180.0
 51
201.3886228278
  0
ARC
  8
0
 62
7
  6
CONTINUOUS
 10
302.7353882896
 20
129.8543685561
 40
0.3
 50
338.6113771722
 51
360.0
  0
ARC
  8
0
 62
7
  6
CONTINUOUS
 10
328.1353882896
 20
129.8543685561
 40
0.3
 50
338.6113771722
 51
360.0
  0
ARC
  8
0
 62
7
  6
CONTINUOUS
 10
368.7604705326
 20
77.7977138158
 40
7.35
 50
180.0
 51
270.0
  0
ARC
  8
0
 62
7
  6
CONTINUOUS
 10
361.7104705326
 20
103.3358133575
 40
0.3
 50
180.0
 51
241.7262863686
  0
ARC
  8
0
 62
7
  6
CONTINUOUS
 10
368.7604705326
 20
129.8977138158
 40
7.35
 50
90.0
 51
180.0
  0
ARC
  8
0
 62
7
  6
CONTINUOUS
 10
361.7104705326
 20
106.3477138158
 40
0.3
 50
90.0
 51
180.0
  0
ARC
  8
0
 62
7
  6
CONTINUOUS
 10
369.0604705326
 20
77.7977138158
 40
7.35
 50
270.0
 51
360.0
  0
ARC
  8
0
 62
7
  6
CONTINUOUS
 10
368.9104705326
 20
94.7977138158
 40
3.25
 50
0.0
 51
180.0
  0
ARC
  8
0
 62
7
  6
CONTINUOUS
 10
368.9104705326
 20
78.5977138158
 40
3.25
 50
180.0
 51
360.0
  0
ARC
  8
0
 62
7
  6
CONTINUOUS
 10
376.1104705326
 20
103.3358133575
 40
0.3
 50
298.2737136314
 51
360.0
  0
ARC
  8
0
 62
7
  6
CONTINUOUS
 10
368.9104705326
 20
116.722373782
 40
15.5
 50
241.7262863686
 51
298.2737136314
  0
CIRCLE
  8
0
 62
7
  6
CONTINUOUS
 10
368.9104705326
 20
129.2104588158
 40
3.137255
  0
ARC
  8
0
 62
7
  6
CONTINUOUS
 10
369.0604705326
 20
129.8977138158
 40
7.35
 50
0.0
 51
90.0
  0
ARC
  8
0
 62
7
  6
CONTINUOUS
 10
376.1104705326
 20
106.3477138158
 40
0.3
 50
0.0
 51
90.0
  0
ARC
  8
0
 62
7
  6
CONTINUOUS
 10
39.3353882896
 20
211.0851315852
 40
2.7
 50
180.0
 51
195.6352781381
  0
ARC
  8
0
 62
7
  6
CONTINUOUS
 10
109.8353882896
 20
211.0851315852
 40
2.7
 50
270.0
 51
360.0
  0
ARC
  8
0
 62
7
  6
CONTINUOUS
 10
102.8353882896
 20
211.0851315852
 40
2.7
 50
180.0
 51
270.0
  0
ARC
  8
0
 62
7
  6
CONTINUOUS
 10
59.0353882896
 20
211.0851315852
 40
2.7
 50
270.0
 51
360.0
  0
ARC
  8
0
 62
7
  6
CONTINUOUS
 10
52.0353882896
 20
211.0851315852
 40
2.7
 50
180.0
 51
270.0
  0
ARC
  8
0
 62
7
  6
CONTINUOUS
 10
135.2353882896
 20
211.0851315852
 40
2.7
 50
270.0
 51
360.0
  0
ARC
  8
0
 62
7
  6
CONTINUOUS
 10
128.2353882896
 20
211.0851315852
 40
2.7
 50
180.0
 51
270.0
  0
ARC
  8
0
 62
7
  6
CONTINUOUS
 10
179.0353882896
 20
211.0851315852
 40
2.7
 50
180.0
 51
270.0
  0
ARC
  8
0
 62
7
  6
CONTINUOUS
 10
186.0353882896
 20
211.0851315852
 40
2.7
 50
270.0
 51
360.0
  0
ARC
  8
0
 62
7
  6
CONTINUOUS
 10
84.4353882896
 20
211.0851315852
 40
2.7
 50
270.0
 51
360.0
  0
ARC
  8
0
 62
7
  6
CONTINUOUS
 10
77.4353882896
 20
211.0851315852
 40
2.7
 50
180.0
 51
270.0
  0
ARC
  8
0
 62
7
  6
CONTINUOUS
 10
153.6353882896
 20
211.0851315852
 40
2.7
 50
180.0
 51
270.0
  0
ARC
  8
0
 62
7
  6
CONTINUOUS
 10
160.6353882896
 20
211.0851315852
 40
2.7
 50
270.0
 51
360.0
  0
ARC
  8
0
 62
7
  6
CONTINUOUS
 10
37.0353882896
 20
208.6851315852
 40
0.3
 50
180.0
 51
270.0
  0
ARC
  8
0
 62
7
  6
CONTINUOUS
 10
39.3353882896
 20
220.6851315852
 40
2.7
 50
164.3647205434
 51
180.0
  0
ARC
  8
0
 62
7
  6
CONTINUOUS
 10
109.8353882896
 20
220.6851315852
 40
2.7
 50
0.0
 51
90.0
  0
ARC
  8
0
 62
7
  6
CONTINUOUS
 10
102.8353882896
 20
220.6851315852
 40
2.7
 50
90.0
 51
180.0
  0
ARC
  8
0
 62
7
  6
CONTINUOUS
 10
59.0353882896
 20
220.6851315852
 40
2.7
 50
0.0
 51
90.0
  0
ARC
  8
0
 62
7
  6
CONTINUOUS
 10
52.0353882896
 20
220.6851315852
 40
2.7
 50
90.0
 51
180.0
  0
ARC
  8
0
 62
7
  6
CONTINUOUS
 10
135.2353882896
 20
220.6851315852
 40
2.7
 50
0.0
 51
90.0
  0
ARC
  8
0
 62
7
  6
CONTINUOUS
 10
128.2353882896
 20
220.6851315852
 40
2.7
 50
90.0
 51
180.0
  0
ARC
  8
0
 62
7
  6
CONTINUOUS
 10
179.0353882896
 20
220.6851315852
 40
2.7
 50
90.0
 51
180.0
  0
ARC
  8
0
 62
7
  6
CONTINUOUS
 10
186.0353882896
 20
220.6851315852
 40
2.7
 50
0.0
 51
90.0
  0
ARC
  8
0
 62
7
  6
CONTINUOUS
 10
84.4353882896
 20
220.6851315852
 40
2.7
 50
0.0
 51
90.0
  0
ARC
  8
0
 62
7
  6
CONTINUOUS
 10
77.4353882896
 20
220.6851315852
 40
2.7
 50
90.0
 51
180.0
  0
ARC
  8
0
 62
7
  6
CONTINUOUS
 10
153.6353882896
 20
220.6851315852
 40
2.7
 50
90.0
 51
180.0
  0
ARC
  8
0
 62
7
  6
CONTINUOUS
 10
160.6353882896
 20
220.6851315852
 40
2.7
 50
0.0
 51
90.0
  0
ARC
  8
0
 62
7
  6
CONTINUOUS
 10
37.0353882896
 20
223.0851315852
 40
0.3
 50
90.0
 51
180.0
  0
ARC
  8
0
 62
7
  6
CONTINUOUS
 10
262.2353882896
 20
211.0851315852
 40
2.7
 50
270.0
 51
360.0
  0
ARC
  8
0
 62
7
  6
CONTINUOUS
 10
255.2353882896
 20
211.0851315852
 40
2.7
 50
180.0
 51
270.0
  0
ARC
  8
0
 62
7
  6
CONTINUOUS
 10
287.6353882896
 20
211.0851315852
 40
2.7
 50
270.0
 51
360.0
  0
ARC
  8
0
 62
7
  6
CONTINUOUS
 10
280.6353882896
 20
211.0851315852
 40
2.7
 50
180.0
 51
270.0
  0
ARC
  8
0
 62
7
  6
CONTINUOUS
 10
313.0353882896
 20
211.0851315852
 40
2.7
 50
270.0
 51
360.0
  0
ARC
  8
0
 62
7
  6
CONTINUOUS
 10
306.0353882896
 20
211.0851315852
 40
2.7
 50
180.0
 51
270.0
  0
ARC
  8
0
 62
7
  6
CONTINUOUS
 10
338.4353882896
 20
211.0851315852
 40
2.7
 50
270.0
 51
360.0
  0
ARC
  8
0
 62
7
  6
CONTINUOUS
 10
331.4353882896
 20
211.0851315852
 40
2.7
 50
180.0
 51
270.0
  0
ARC
  8
0
 62
7
  6
CONTINUOUS
 10
229.8353882896
 20
211.0851315852
 40
2.7
 50
180.0
 51
270.0
  0
ARC
  8
0
 62
7
  6
CONTINUOUS
 10
236.8353882896
 20
211.0851315852
 40
2.7
 50
270.0
 51
360.0
  0
ARC
  8
0
 62
7
  6
CONTINUOUS
 10
204.4353882896
 20
211.0851315852
 40
2.7
 50
180.0
 51
270.0
  0
ARC
  8
0
 62
7
  6
CONTINUOUS
 10
211.4353882896
 20
211.0851315852
 40
2.7
 50
270.0
 51
360.0
  0
ARC
  8
0
 62
7
  6
CONTINUOUS
 10
340.7353882896
 20
208.6851315852
 40
0.3
 50
270.0
 51
360.0
  0
ARC
  8
0
 62
7
  6
CONTINUOUS
 10
262.2353882896
 20
220.6851315852
 40
2.7
 50
0.0
 51
90.0
  0
ARC
  8
0
 62
7
  6
CONTINUOUS
 10
255.2353882896
 20
220.6851315852
 40
2.7
 50
90.0
 51
180.0
  0
ARC
  8
0
 62
7
  6
CONTINUOUS
 10
287.6353882896
 20
220.6851315852
 40
2.7
 50
0.0
 51
90.0
  0
ARC
  8
0
 62
7
  6
CONTINUOUS
 10
280.6353882896
 20
220.6851315852
 40
2.7
 50
90.0
 51
180.0
  0
ARC
  8
0
 62
7
  6
CONTINUOUS
 10
313.0353882896
 20
220.6851315852
 40
2.7
 50
0.0
 51
90.0
  0
ARC
  8
0
 62
7
  6
CONTINUOUS
 10
306.0353882896
 20
220.6851315852
 40
2.7
 50
90.0
 51
180.0
  0
ARC
  8
0
 62
7
  6
CONTINUOUS
 10
338.4353882896
 20
220.6851315852
 40
2.7
 50
0.0
 51
90.0
  0
ARC
  8
0
 62
7
  6
CONTINUOUS
 10
331.4353882896
 20
220.6851315852
 40
2.7
 50
90.0
 51
180.0
  0
ARC
  8
0
 62
7
  6
CONTINUOUS
 10
229.8353882896
 20
220.6851315852
 40
2.7
 50
90.0
 51
180.0
  0
ARC
  8
0
 62
7
  6
CONTINUOUS
 10
236.8353882896
 20
220.6851315852
 40
2.7
 50
0.0
 51
90.0
  0
ARC
  8
0
 62
7
  6
CONTINUOUS
 10
204.4353882896
 20
220.6851315852
 40
2.7
 50
90.0
 51
180.0
  0
ARC
  8
0
 62
7
  6
CONTINUOUS
 10
211.4353882896
 20
220.6851315852
 40
2.7
 50
0.0
 51
90.0
  0
ARC
  8
0
 62
7
  6
CONTINUOUS
 10
340.7353882896
 20
223.0851315852
 40
0.3
 50
0.0
 51
90.0
  0
ENDSEC
  0
EOF
