  0
SECTION
  2
HEADER
  9
$EXTMAX
 10
420.0
 20
297.0
 30
0.0
  9
$EXTMIN
 10
0.0
 20
0.0
 30
0.0
  9
$LIMMIN
 10
0.0
 20
0.0
  9
$LIMMAX
 10
420.0
 20
297.0
  9
$VIEWCTR
 10
210.0
 20
148.5
  9
$VIEWSIZE
 40
297.0
  9
$CLAYER
  8
0
  9
$LTSCALE
 40
23.1
  9
$CELTYPE
  6
BYLAYER
  9
$DIMSCALE
 40
1.0
  9
$DIMASZ
 40
3.5
  9
$DIMEXO
 40
2.625
  9
$DIMDLI
 40
15.96
  9
$DIMEXE
 40
7.56
  9
$DIMCEN
 40
3.78
  9
$DIMLFAC
 40
1.0
  9
$DIMBLK
  1
_FILLED
  9
$DIMTXT
 40
3.5
  9
$PDMODE
 70
3
  9
$PDSIZE
 40
0.3125
  9
$TILEMODE
 70
1
  0
ENDSEC
  0
SECTION
  2
TABLES
  0
TABLE
  2
LTYPE
 70
6
  0
LTYPE
  2
BYBLOCK
 70
0
  3

 72
65
 73
0
 40
0.0
  0
LTYPE
  2
BYLAYER
 70
0
  3

 72
65
 73
0
 40
0.0
  0
LTYPE
  2
CONTINUOUS
 70
64
  3
Solid line
 72
65
 73
0
 40
0.0
  0
LTYPE
  2
CENTER
 70
64
  3
____ _ ____ _ ____ _ ____ _ ____ _ ____ _ ____
 72
65
 73
4
 40
0.6
 49
0.375
 49
-0.075
 49
0.075
 49
-0.075
  0
LTYPE
  2
HIDDEN
 70
64
  3
- - - - - - - - - - - - - - - - - - - -
 72
65
 73
2
 40
0.2
 49
0.1
 49
-0.1
  0
LTYPE
  2
PHANTOM
 70
64
  3
_____ _ _ _____ _ _ _____ _ _ _____
 72
65
 73
6
 40
0.8
 49
0.45
 49
-0.05
 49
0.1
 49
-0.05
 49
0.1
 49
-0.05
  0
LTYPE
  2
DOT
 70
64
  3
. . . . . . . . . . . . . . . . . . . .
 72
65
 73
2
 40
0.2
 49
0.1
 49
-0.1
  0
LTYPE
  2
DASHED
 70
64
  3
- - - - - - - - - - - - - - - - - - - -
 72
65
 73
2
 40
0.2
 49
0.1
 49
-0.1
  0
ENDTAB
  0
TABLE
  2
LAYER
 70
36
  0
LAYER
  2
0
 70
0
 62
7
  6
CONTINUOUS
  0
LAYER
  2
DEFAULT_1
 70
0
 62
7
  6
CENTER
  0
LAYER
  2
DEFAULT_2
 70
0
 62
8
  6
HIDDEN
  0
LAYER
  2
DEFAULT_3
 70
0
 62
7
  6
PHANTOM
  0
LAYER
  2
CURVE
 70
0
 62
7
  6
CONTINUOUS
  0
LAYER
  2
PLAN
 70
0
 62
7
  6
CONTINUOUS
  0
LAYER
  2
SURFACE
 70
0
 62
7
  6
CONTINUOUS
  0
ENDTAB
  0
TABLE
  2
STYLE
 70
1
  0
STYLE
  2
STANDARD
 70
0
 40
0.0
 41
0.8
 50
0.0
 71
0
 42
0.2
  3
txt
  4

  0
STYLE
  2
TEXTSTYLE_1
 70
0
 40
0.0
 41
0.8
 50
0.0
 71
0
 42
0.2
  3
gdt
  4

  0
STYLE
  2
TEXTSTYLE_2
 70
0
 40
0.0
 41
0.6
 50
0.0
 71
0
 42
0.2
  3
txt
  4

  0
STYLE
  2
TEXTSTYLE_3
 70
0
 40
0.0
 41
1.0
 50
0.0
 71
0
 42
0.2
  3
ftb_____.ttf
  4

  0
STYLE
  2
TEXTSTYLE_4
 70
0
 40
0.0
 41
1.0
 50
0.0
 71
0
 42
0.2
  3
fti_____.ttf
  4

  0
STYLE
  2
TEXTSTYLE_5
 70
0
 40
0.0
 41
1.0
 50
0.0
 71
0
 42
0.2
  3
frutiger light.ttf
  4

  0
STYLE
  2
TEXTSTYLE_6
 70
0
 40
0.0
 41
0.7
 50
0.0
 71
0
 42
0.2
  3
txt
  4

  0
STYLE
  2
TEXTSTYLE_7
 70
0
 40
0.0
 41
0.6
 50
0.0
 71
0
 42
0.2
  3
txt
  4

  0
ENDTAB
  0
ENDSEC
  0
SECTION
  2
BLOCKS
  0
BLOCK
  8
0
 62
2
  6
CONTINUOUS
  2
SYMBOL_5_BL1
 70
64
 10
382.7840918555
 20
35.5067593403
  0
TEXT
  8
0
 62
7
  6
CONTINUOUS
 10
373.842376864
 20
30.5995157174
  7
TEXTSTYLE_4
 40
1.0655737705
  1
The brand for plastic modular belts and chains
 41
1.0
 72
0
  0
LINE
  8
0
 62
7
  6
CONTINUOUS
 10
358.7621602445
 20
36.0805298321
 11
358.7621602445
 21
33.9493822911
  0
LINE
  8
0
 62
7
  6
CONTINUOUS
 10
359.0512227376
 20
30.9584509954
 11
359.0512227376
 21
31.0552420547
  0
LINE
  8
0
 62
7
  6
CONTINUOUS
 10
358.7621602445
 20
31.0229783683
 11
358.8199727462
 21
30.8293962497
  0
LINE
  8
0
 62
7
  6
CONTINUOUS
 10
360.1556028675
 20
33.867415078
 11
360.1556028675
 21
36.0805298321
  0
LINE
  8
0
 62
7
  6
CONTINUOUS
 10
361.0746601894
 20
32.0231527829
 11
361.0746601894
 21
30.5067593403
  0
LINE
  8
0
 62
7
  6
CONTINUOUS
 10
361.3637227445
 20
30.5067593403
 11
361.3637227445
 21
31.2488242184
  0
LINE
  8
0
 62
7
  6
CONTINUOUS
 10
361.3637227445
 20
31.3778789641
 11
361.3637227445
 21
32.0231527829
  0
LINE
  8
0
 62
7
  6
CONTINUOUS
 10
358.8199727462
 20
31.216560532
 11
358.7621602445
 21
31.0229783683
  0
LINE
  8
0
 62
7
  6
CONTINUOUS
 10
359.1668477307
 20
30.7971325633
 11
359.0512227376
 21
30.9584509954
  0
LINE
  8
0
 62
7
  6
CONTINUOUS
 10
360.2652852997
 20
31.3133515913
 11
360.3230977445
 21
31.216560532
  0
LINE
  8
0
 62
7
  6
CONTINUOUS
 10
360.6121602997
 20
31.216560532
 11
360.5543476894
 21
31.3456152777
  0
LINE
  8
0
 62
7
  6
CONTINUOUS
 10
362.0408487691
 20
36.0805298321
 11
362.0408487691
 21
34.2772511436
  0
LINE
  8
0
 62
7
  6
CONTINUOUS
 10
362.0408487691
 20
32.9657757338
 11
362.0408487691
 21
32.3100380288
  0
LINE
  8
0
 62
7
  6
CONTINUOUS
 10
362.4043477445
 20
31.1520331591
 11
362.4043477445
 21
30.5067593403
  0
LINE
  8
0
 62
7
  6
CONTINUOUS
 10
362.6934101343
 20
30.5067593403
 11
362.6934101343
 21
31.1520331591
  0
LINE
  8
0
 62
7
  6
CONTINUOUS
 10
359.0512227376
 20
31.0552420547
 11
359.1090352445
 21
31.1842968456
  0
LINE
  8
0
 62
7
  6
CONTINUOUS
 10
358.8199727462
 20
30.8293962497
 11
358.9355977445
 21
30.7003414814
  0
LINE
  8
0
 62
7
  6
CONTINUOUS
 10
362.3465351343
 20
31.2810879048
 11
362.4043477445
 21
31.1520331591
  0
LINE
  8
0
 62
7
  6
CONTINUOUS
 10
363.1559103548
 20
30.7971325633
 11
363.2137226343
 21
30.668077795
  0
LINE
  8
0
 62
7
  6
CONTINUOUS
 10
362.6934101343
 20
31.1520331591
 11
362.6355978548
 21
31.3133515913
  0
LINE
  8
0
 62
7
  6
CONTINUOUS
 10
363.1559103548
 20
31.3456152777
 11
363.1559103548
 21
31.2810879048
  0
LINE
  8
0
 62
7
  6
CONTINUOUS
 10
363.1559103548
 20
30.8939236226
 11
363.1559103548
 21
30.7971325633
  0
LINE
  8
0
 62
7
  6
CONTINUOUS
 10
363.4342913921
 20
32.3100380288
 11
363.4342913921
 21
36.0805298321
  0
LINE
  8
0
 62
7
  6
CONTINUOUS
 10
363.4449727445
 20
30.7648688543
 11
363.4449727445
 21
30.8293962497
  0
LINE
  8
0
 62
7
  6
CONTINUOUS
 10
363.7621602445
 20
36.0805298321
 11
363.7621602445
 21
32.3100380288
  0
LINE
  8
0
 62
7
  6
CONTINUOUS
 10
360.5543476894
 20
30.7003414814
 11
360.6121602997
 21
30.8293962497
  0
LINE
  8
0
 62
7
  6
CONTINUOUS
 10
364.9480979651
 20
30.6035504109
 11
364.890285024
 21
30.7648688543
  0
LINE
  8
0
 62
7
  6
CONTINUOUS
 10
364.6012229651
 20
31.2810879048
 11
364.6012229651
 21
31.1842968456
  0
LINE
  8
0
 62
7
  6
CONTINUOUS
 10
364.6012229651
 20
31.0552420547
 11
364.6012229651
 21
30.8616599362
  0
LINE
  8
0
 62
7
  6
CONTINUOUS
 10
364.890285024
 20
30.7648688543
 11
364.890285024
 21
31.2810879048
  0
LINE
  8
0
 62
7
  6
CONTINUOUS
 10
365.1556028675
 20
32.3100380288
 11
365.1556028675
 21
34.1133167174
  0
LINE
  8
0
 62
7
  6
CONTINUOUS
 10
365.1556028675
 20
35.4247921272
 11
365.1556028675
 21
36.0805298321
  0
LINE
  8
0
 62
7
  6
CONTINUOUS
 10
365.4684104651
 20
32.0231527829
 11
365.4684104651
 21
31.8618343508
  0
LINE
  8
0
 62
7
  6
CONTINUOUS
 10
365.4684104651
 20
31.5391973962
 11
365.4684104651
 21
30.5067593403
  0
LINE
  8
0
 62
7
  6
CONTINUOUS
 10
365.757472524
 20
30.5067593403
 11
365.757472524
 21
31.5391973962
  0
LINE
  8
0
 62
7
  6
CONTINUOUS
 10
365.757472524
 20
31.8618343508
 11
365.757472524
 21
32.0231527829
  0
LINE
  8
0
 62
7
  6
CONTINUOUS
 10
360.3230977445
 20
30.8293962497
 11
360.2652852997
 21
30.7326051679
  0
LINE
  8
0
 62
7
  6
CONTINUOUS
 10
362.6355978548
 20
31.3133515913
 11
362.5777852445
 21
31.3778789641
  0
LINE
  8
0
 62
7
  6
CONTINUOUS
 10
363.5027853548
 20
30.7003414814
 11
363.4449727445
 21
30.7648688543
  0
LINE
  8
0
 62
7
  6
CONTINUOUS
 10
364.6590352445
 20
30.5712867188
 11
364.716847524
 21
30.5067593403
  0
LINE
  8
0
 62
7
  6
CONTINUOUS
 10
364.6012229651
 20
30.668077795
 11
364.6590352445
 21
30.5712867188
  0
LINE
  8
0
 62
7
  6
CONTINUOUS
 10
365.0059102445
 20
30.5067593403
 11
364.9480979651
 21
30.6035504109
  0
LINE
  8
0
 62
7
  6
CONTINUOUS
 10
364.890285024
 20
31.2810879048
 11
364.8324727445
 21
31.3778789641
  0
LINE
  8
0
 62
7
  6
CONTINUOUS
 10
366.2199727445
 20
31.5391973962
 11
366.2199727445
 21
30.5067593403
  0
LINE
  8
0
 62
7
  6
CONTINUOUS
 10
366.5090354651
 20
30.5067593403
 11
366.5090354651
 21
31.2488242184
  0
LINE
  8
0
 62
7
  6
CONTINUOUS
 10
366.5090354651
 20
31.3778789641
 11
366.5090354651
 21
31.5391973962
  0
LINE
  8
0
 62
7
  6
CONTINUOUS
 10
367.0408487691
 20
34.5231527829
 11
367.0408487691
 21
32.3100380288
  0
LINE
  8
0
 62
7
  6
CONTINUOUS
 10
358.9355977445
 20
31.3456152777
 11
358.8199727462
 21
31.216560532
  0
LINE
  8
0
 62
7
  6
CONTINUOUS
 10
359.1090352445
 20
31.1842968456
 11
359.1668477307
 21
31.2488242184
  0
LINE
  8
0
 62
7
  6
CONTINUOUS
 10
358.9355977445
 20
30.7003414814
 11
359.0512227376
 21
30.6358140973
  0
LINE
  8
0
 62
7
  6
CONTINUOUS
 10
359.3402852307
 20
30.7003414814
 11
359.1668477307
 21
30.7971325633
  0
LINE
  8
0
 62
7
  6
CONTINUOUS
 10
364.543410024
 20
31.3456152777
 11
364.6012229651
 21
31.2810879048
  0
LINE
  8
0
 62
7
  6
CONTINUOUS
 10
367.491847524
 20
31.2810879048
 11
367.5496604651
 21
31.1197694727
  0
LINE
  8
0
 62
7
  6
CONTINUOUS
 10
367.838722524
 20
31.1197694727
 11
367.7809102445
 21
31.2810879048
  0
LINE
  8
0
 62
7
  6
CONTINUOUS
 10
367.5496604651
 20
31.1197694727
 11
367.5496604651
 21
30.5067593403
  0
LINE
  8
0
 62
7
  6
CONTINUOUS
 10
367.838722524
 20
30.5067593403
 11
367.838722524
 21
31.1197694727
  0
LINE
  8
0
 62
7
  6
CONTINUOUS
 10
368.3012227445
 20
31.3456152777
 11
368.3012227445
 21
31.2810879048
  0
LINE
  8
0
 62
7
  6
CONTINUOUS
 10
368.4342913921
 20
32.3100380288
 11
368.4342913921
 21
34.4411855698
  0
LINE
  8
0
 62
7
  6
CONTINUOUS
 10
368.7621602445
 20
36.0805298321
 11
368.7621602445
 21
32.3100380288
  0
LINE
  8
0
 62
7
  6
CONTINUOUS
 10
363.4449727445
 20
30.8293962497
 11
363.5027853548
 21
30.926187309
  0
LINE
  8
0
 62
7
  6
CONTINUOUS
 10
359.0512227376
 20
30.6358140973
 11
359.2246602583
 21
30.5712867188
  0
LINE
  8
0
 62
7
  6
CONTINUOUS
 10
360.5543476894
 20
31.3456152777
 11
360.3809101894
 21
31.4424063369
  0
LINE
  8
0
 62
7
  6
CONTINUOUS
 10
363.2137226343
 20
30.668077795
 11
363.3871601343
 21
30.5712867188
  0
LINE
  8
0
 62
7
  6
CONTINUOUS
 10
362.2309102445
 20
31.3456152777
 11
362.3465351343
 21
31.2810879048
  0
LINE
  8
0
 62
7
  6
CONTINUOUS
 10
362.5777852445
 20
31.3778789641
 11
362.4621603548
 21
31.4424063369
  0
LINE
  8
0
 62
7
  6
CONTINUOUS
 10
368.3012227445
 20
30.7648688543
 11
368.4168479651
 21
30.6358140973
  0
LINE
  8
0
 62
7
  6
CONTINUOUS
 10
368.6480977445
 20
30.7003414814
 11
368.5902854651
 21
30.7648688543
  0
LINE
  8
0
 62
7
  6
CONTINUOUS
 10
368.3012227445
 20
31.2810879048
 11
368.4168479651
 21
31.1520331591
  0
LINE
  8
0
 62
7
  6
CONTINUOUS
 10
367.7809102445
 20
31.2810879048
 11
367.7230979651
 21
31.3778789641
  0
LINE
  8
0
 62
7
  6
CONTINUOUS
 10
370.1512223035
 20
30.7003414814
 11
370.1512223035
 21
30.7648688543
  0
LINE
  8
0
 62
7
  6
CONTINUOUS
 10
370.1556028675
 20
32.3100380288
 11
370.1556028675
 21
36.0805298321
  0
LINE
  8
0
 62
7
  6
CONTINUOUS
 10
363.2137226343
 20
31.4101426505
 11
363.1559103548
 21
31.3456152777
  0
LINE
  8
0
 62
7
  6
CONTINUOUS
 10
360.091847717
 20
31.3778789641
 11
360.2652852997
 21
31.3133515913
  0
LINE
  8
0
 62
7
  6
CONTINUOUS
 10
364.8324727445
 20
31.3778789641
 11
364.716847524
 21
31.4424063369
  0
LINE
  8
0
 62
7
  6
CONTINUOUS
 10
368.6480977445
 20
31.216560532
 11
368.5902854651
 21
31.2810879048
  0
LINE
  8
0
 62
7
  6
CONTINUOUS
 10
369.8043479651
 20
30.8293962497
 11
369.8621602445
 21
30.7648688543
  0
LINE
  8
0
 62
7
  6
CONTINUOUS
 10
370.1512223035
 20
30.7648688543
 11
370.0355977445
 21
30.8939236226
  0
LINE
  8
0
 62
7
  6
CONTINUOUS
 10
369.8043479651
 20
31.3456152777
 11
369.8621602445
 21
31.2810879048
  0
LINE
  8
0
 62
7
  6
CONTINUOUS
 10
370.1512223035
 20
31.2810879048
 11
370.0355977445
 21
31.4101426505
  0
LINE
  8
0
 62
7
  6
CONTINUOUS
 10
363.4449727445
 20
31.2810879048
 11
363.5027853548
 21
31.3456152777
  0
LINE
  8
0
 62
7
  6
CONTINUOUS
 10
363.2715352445
 20
31.0229783683
 11
363.1559103548
 21
30.8939236226
  0
LINE
  8
0
 62
7
  6
CONTINUOUS
 10
364.6012229651
 20
30.8616599362
 11
364.543410024
 21
30.7971325633
  0
LINE
  8
0
 62
7
  6
CONTINUOUS
 10
364.543410024
 20
30.6035504109
 11
364.6012229651
 21
30.668077795
  0
LINE
  8
0
 62
7
  6
CONTINUOUS
 10
363.3871601343
 20
30.5712867188
 11
363.5027853548
 21
30.5390230296
  0
LINE
  8
0
 62
7
  6
CONTINUOUS
 10
360.3809101894
 20
31.4424063369
 11
360.1496602445
 21
31.5069337098
  0
LINE
  8
0
 62
7
  6
CONTINUOUS
 10
363.7340351343
 20
30.6358140973
 11
363.5027853548
 21
30.7003414814
  0
LINE
  8
0
 62
7
  6
CONTINUOUS
 10
362.4621603548
 20
31.4424063369
 11
362.2887228548
 21
31.5069337098
  0
LINE
  8
0
 62
7
  6
CONTINUOUS
 10
364.716847524
 20
31.4424063369
 11
364.543410024
 21
31.5069337098
  0
LINE
  8
0
 62
7
  6
CONTINUOUS
 10
367.3762229651
 20
31.3456152777
 11
367.491847524
 21
31.2810879048
  0
LINE
  8
0
 62
7
  6
CONTINUOUS
 10
367.7230979651
 20
31.3778789641
 11
367.6074727445
 21
31.4424063369
  0
LINE
  8
0
 62
7
  6
CONTINUOUS
 10
359.2246602583
 20
30.5712867188
 11
359.3980977583
 21
30.5390230296
  0
LINE
  8
0
 62
7
  6
CONTINUOUS
 10
359.6871602721
 20
30.6358140973
 11
359.3402852307
 21
30.7003414814
  0
LINE
  8
0
 62
7
  6
CONTINUOUS
 10
362.1152853548
 20
31.3778789641
 11
362.2309102445
 21
31.3456152777
  0
LINE
  8
0
 62
7
  6
CONTINUOUS
 10
364.4277854651
 20
31.3778789641
 11
364.543410024
 21
31.3456152777
  0
LINE
  8
0
 62
7
  6
CONTINUOUS
 10
368.7637229651
 20
30.668077795
 11
368.6480977445
 21
30.7003414814
  0
LINE
  8
0
 62
7
  6
CONTINUOUS
 10
367.2605977445
 20
31.3778789641
 11
367.3762229651
 21
31.3456152777
  0
LINE
  8
0
 62
7
  6
CONTINUOUS
 10
368.4168479651
 20
30.6358140973
 11
368.5902854651
 21
30.5712867188
  0
LINE
  8
0
 62
7
  6
CONTINUOUS
 10
367.6074727445
 20
31.4424063369
 11
367.4340352445
 21
31.5069337098
  0
LINE
  8
0
 62
7
  6
CONTINUOUS
 10
368.8215352445
 20
31.1520331591
 11
368.6480977445
 21
31.216560532
  0
LINE
  8
0
 62
7
  6
CONTINUOUS
 10
369.6309104651
 20
30.8939236226
 11
369.8043479651
 21
30.8293962497
  0
LINE
  8
0
 62
7
  6
CONTINUOUS
 10
370.0355977445
 20
31.4101426505
 11
369.8621602445
 21
31.4746700234
  0
LINE
  8
0
 62
7
  6
CONTINUOUS
 10
368.4168479651
 20
31.1520331591
 11
368.6480977445
 21
31.0552420547
  0
LINE
  8
0
 62
7
  6
CONTINUOUS
 10
370.0355977445
 20
30.8939236226
 11
369.8043479651
 21
30.9907146818
  0
LINE
  8
0
 62
7
  6
CONTINUOUS
 10
368.5902854651
 20
31.2810879048
 11
368.6480977445
 21
31.3456152777
  0
LINE
  8
0
 62
7
  6
CONTINUOUS
 10
359.0512227376
 20
31.4101426505
 11
358.9355977445
 21
31.3456152777
  0
LINE
  8
0
 62
7
  6
CONTINUOUS
 10
359.1668477307
 20
31.2488242184
 11
359.3402852307
 21
31.3456152777
  0
LINE
  8
0
 62
7
  6
CONTINUOUS
 10
361.4793477997
 20
31.4424063369
 11
361.3637227445
 21
31.3778789641
  0
LINE
  8
0
 62
7
  6
CONTINUOUS
 10
361.3637227445
 20
31.2488242184
 11
361.4793477997
 21
31.3133515913
  0
LINE
  8
0
 62
7
  6
CONTINUOUS
 10
360.3809101894
 20
30.6035504109
 11
360.5543476894
 21
30.7003414814
  0
LINE
  8
0
 62
7
  6
CONTINUOUS
 10
359.3980977583
 20
30.5390230296
 11
359.744972717
 21
30.5067593403
  0
LINE
  8
0
 62
7
  6
CONTINUOUS
 10
363.5027853548
 20
30.5390230296
 11
363.7340351343
 21
30.5067593403
  0
LINE
  8
0
 62
7
  6
CONTINUOUS
 10
361.8840352445
 20
31.4101426505
 11
362.1152853548
 21
31.3778789641
  0
LINE
  8
0
 62
7
  6
CONTINUOUS
 10
364.1965353548
 20
31.4101426505
 11
364.4277854651
 21
31.3778789641
  0
LINE
  8
0
 62
7
  6
CONTINUOUS
 10
368.6480977445
 20
31.0552420547
 11
369.6309104651
 21
30.8939236226
  0
LINE
  8
0
 62
7
  6
CONTINUOUS
 10
369.8043479651
 20
30.9907146818
 11
368.8215352445
 21
31.1520331591
  0
LINE
  8
0
 62
7
  6
CONTINUOUS
 10
362.2887228548
 20
31.5069337098
 11
362.1152853548
 21
31.5391973962
  0
LINE
  8
0
 62
7
  6
CONTINUOUS
 10
368.5902854651
 20
30.5712867188
 11
368.7637229651
 21
30.5390230296
  0
LINE
  8
0
 62
7
  6
CONTINUOUS
 10
367.4340352445
 20
31.5069337098
 11
367.2605977445
 21
31.5391973962
  0
LINE
  8
0
 62
7
  6
CONTINUOUS
 10
369.6887227445
 20
31.3778789641
 11
369.8043479651
 21
31.3456152777
  0
LINE
  8
0
 62
7
  6
CONTINUOUS
 10
369.8621602445
 20
30.7648688543
 11
369.8043479651
 21
30.7003414814
  0
LINE
  8
0
 62
7
  6
CONTINUOUS
 10
368.4168479651
 20
31.4424063369
 11
368.3012227445
 21
31.3456152777
  0
LINE
  8
0
 62
7
  6
CONTINUOUS
 10
363.3293478548
 20
31.4746700234
 11
363.2137226343
 21
31.4101426505
  0
LINE
  8
0
 62
7
  6
CONTINUOUS
 10
363.3871601343
 20
31.0875057863
 11
363.2715352445
 21
31.0229783683
  0
LINE
  8
0
 62
7
  6
CONTINUOUS
 10
363.5027853548
 20
30.926187309
 11
363.6184102445
 21
30.9907146818
  0
LINE
  8
0
 62
7
  6
CONTINUOUS
 10
361.0746601894
 20
30.5067593403
 11
361.3637227445
 21
30.5067593403
  0
LINE
  8
0
 62
7
  6
CONTINUOUS
 10
362.4043477445
 20
30.5067593403
 11
362.6934101343
 21
30.5067593403
  0
LINE
  8
0
 62
7
  6
CONTINUOUS
 10
363.7340351343
 20
30.5067593403
 11
364.0809101343
 21
30.5067593403
  0
LINE
  8
0
 62
7
  6
CONTINUOUS
 10
364.716847524
 20
30.5067593403
 11
365.0059102445
 21
30.5067593403
  0
LINE
  8
0
 62
7
  6
CONTINUOUS
 10
365.4684104651
 20
30.5067593403
 11
365.757472524
 21
30.5067593403
  0
LINE
  8
0
 62
7
  6
CONTINUOUS
 10
366.2199727445
 20
30.5067593403
 11
366.5090354651
 21
30.5067593403
  0
LINE
  8
0
 62
7
  6
CONTINUOUS
 10
367.5496604651
 20
30.5067593403
 11
367.838722524
 21
30.5067593403
  0
LINE
  8
0
 62
7
  6
CONTINUOUS
 10
369.1105979651
 20
30.5067593403
 11
369.4574729651
 21
30.5067593403
  0
LINE
  8
0
 62
7
  6
CONTINUOUS
 10
369.4574729651
 20
30.6358140973
 11
369.1105979651
 21
30.6358140973
  0
LINE
  8
0
 62
7
  6
CONTINUOUS
 10
364.0809101343
 20
30.6358140973
 11
363.7340351343
 21
30.6358140973
  0
LINE
  8
0
 62
7
  6
CONTINUOUS
 10
368.5902854651
 20
30.7648688543
 11
368.3012227445
 21
30.7648688543
  0
LINE
  8
0
 62
7
  6
CONTINUOUS
 10
360.6121602997
 20
30.8293962497
 11
360.3230977445
 21
30.8293962497
  0
LINE
  8
0
 62
7
  6
CONTINUOUS
 10
359.6871602721
 20
31.4101426505
 11
360.091847717
 21
31.3778789641
  0
LINE
  8
0
 62
7
  6
CONTINUOUS
 10
360.1496602445
 20
31.5069337098
 11
359.744972717
 21
31.5391973962
  0
LINE
  8
0
 62
7
  6
CONTINUOUS
 10
368.7637229651
 20
30.5390230296
 11
369.1105979651
 21
30.5067593403
  0
LINE
  8
0
 62
7
  6
CONTINUOUS
 10
369.1105979651
 20
30.6358140973
 11
368.7637229651
 21
30.668077795
  0
LINE
  8
0
 62
7
  6
CONTINUOUS
 10
364.543410024
 20
31.5069337098
 11
364.1965353548
 21
31.5391973962
  0
LINE
  8
0
 62
7
  6
CONTINUOUS
 10
369.3418477445
 20
31.4101426505
 11
369.6887227445
 21
31.3778789641
  0
LINE
  8
0
 62
7
  6
CONTINUOUS
 10
369.6887227445
 20
31.5069337098
 11
369.3418477445
 21
31.5391973962
  0
LINE
  8
0
 62
7
  6
CONTINUOUS
 10
367.0293479651
 20
31.4101426505
 11
367.2605977445
 21
31.3778789641
  0
LINE
  8
0
 62
7
  6
CONTINUOUS
 10
369.8621602445
 20
31.4746700234
 11
369.6887227445
 21
31.5069337098
  0
LINE
  8
0
 62
7
  6
CONTINUOUS
 10
370.0355977445
 20
30.6035504109
 11
370.1512223035
 21
30.7003414814
  0
LINE
  8
0
 62
7
  6
CONTINUOUS
 10
364.543410024
 20
30.7971325633
 11
364.369972524
 21
30.7003414814
  0
LINE
  8
0
 62
7
  6
CONTINUOUS
 10
366.624660024
 20
31.4424063369
 11
366.5090354651
 21
31.3778789641
  0
LINE
  8
0
 62
7
  6
CONTINUOUS
 10
366.5090354651
 20
31.2488242184
 11
366.624660024
 21
31.3133515913
  0
LINE
  8
0
 62
7
  6
CONTINUOUS
 10
359.2246602583
 20
31.4746700234
 11
359.0512227376
 21
31.4101426505
  0
LINE
  8
0
 62
7
  6
CONTINUOUS
 10
361.6527851343
 20
31.5069337098
 11
361.4793477997
 21
31.4424063369
  0
LINE
  8
0
 62
7
  6
CONTINUOUS
 10
361.4793477997
 20
31.3133515913
 11
361.6527851343
 21
31.3778789641
  0
LINE
  8
0
 62
7
  6
CONTINUOUS
 10
360.2652852997
 20
30.7326051679
 11
360.091847717
 21
30.668077795
  0
LINE
  8
0
 62
7
  6
CONTINUOUS
 10
369.6887227445
 20
30.668077795
 11
369.4574729651
 21
30.6358140973
  0
LINE
  8
0
 62
7
  6
CONTINUOUS
 10
364.0809101343
 20
30.5067593403
 11
364.369972524
 21
30.5390230296
  0
LINE
  8
0
 62
7
  6
CONTINUOUS
 10
369.4574729651
 20
30.5067593403
 11
369.8043479651
 21
30.5390230296
  0
LINE
  8
0
 62
7
  6
CONTINUOUS
 10
359.744972717
 20
30.5067593403
 11
360.1496602445
 21
30.5390230296
  0
LINE
  8
0
 62
7
  6
CONTINUOUS
 10
360.091847717
 20
30.668077795
 11
359.6871602721
 21
30.6358140973
  0
LINE
  8
0
 62
7
  6
CONTINUOUS
 10
363.9652852445
 20
31.0552420547
 11
364.6012229651
 21
31.0552420547
  0
LINE
  8
0
 62
7
  6
CONTINUOUS
 10
364.6012229651
 20
31.1842968456
 11
363.9652852445
 21
31.1842968456
  0
LINE
  8
0
 62
7
  6
CONTINUOUS
 10
360.3230977445
 20
31.216560532
 11
360.6121602997
 21
31.216560532
  0
LINE
  8
0
 62
7
  6
CONTINUOUS
 10
363.1559103548
 20
31.2810879048
 11
363.4449727445
 21
31.2810879048
  0
LINE
  8
0
 62
7
  6
CONTINUOUS
 10
369.8621602445
 20
31.2810879048
 11
370.1512223035
 21
31.2810879048
  0
LINE
  8
0
 62
7
  6
CONTINUOUS
 10
363.8496603548
 20
31.4101426505
 11
364.1965353548
 21
31.4101426505
  0
LINE
  8
0
 62
7
  6
CONTINUOUS
 10
368.9949727445
 20
31.4101426505
 11
369.3418477445
 21
31.4101426505
  0
LINE
  8
0
 62
7
  6
CONTINUOUS
 10
369.3418477445
 20
31.5391973962
 11
368.9949727445
 21
31.5391973962
  0
LINE
  8
0
 62
7
  6
CONTINUOUS
 10
367.2605977445
 20
31.5391973962
 11
367.0293479651
 21
31.5391973962
  0
LINE
  8
0
 62
7
  6
CONTINUOUS
 10
366.5090354651
 20
31.5391973962
 11
366.2199727445
 21
31.5391973962
  0
LINE
  8
0
 62
7
  6
CONTINUOUS
 10
365.757472524
 20
31.5391973962
 11
365.4684104651
 21
31.5391973962
  0
LINE
  8
0
 62
7
  6
CONTINUOUS
 10
364.1965353548
 20
31.5391973962
 11
363.8496603548
 21
31.5391973962
  0
LINE
  8
0
 62
7
  6
CONTINUOUS
 10
362.1152853548
 20
31.5391973962
 11
361.8840352445
 21
31.5391973962
  0
LINE
  8
0
 62
7
  6
CONTINUOUS
 10
365.4684104651
 20
31.8618343508
 11
365.757472524
 21
31.8618343508
  0
LINE
  8
0
 62
7
  6
CONTINUOUS
 10
365.757472524
 20
32.0231527829
 11
365.4684104651
 21
32.0231527829
  0
LINE
  8
0
 62
7
  6
CONTINUOUS
 10
361.3637227445
 20
32.0231527829
 11
361.0746601894
 21
32.0231527829
  0
LINE
  8
0
 62
7
  6
CONTINUOUS
 10
360.4015045068
 20
32.3100380288
 11
360.8140758554
 21
32.3100380288
  0
LINE
  8
0
 62
7
  6
CONTINUOUS
 10
362.0408487691
 20
32.3100380288
 11
363.4342913921
 21
32.3100380288
  0
LINE
  8
0
 62
7
  6
CONTINUOUS
 10
363.7621602445
 20
32.3100380288
 11
365.1556028675
 21
32.3100380288
  0
LINE
  8
0
 62
7
  6
CONTINUOUS
 10
367.0408487691
 20
32.3100380288
 11
368.4342913921
 21
32.3100380288
  0
LINE
  8
0
 62
7
  6
CONTINUOUS
 10
368.7621602445
 20
32.3100380288
 11
370.1556028675
 21
32.3100380288
  0
LINE
  8
0
 62
7
  6
CONTINUOUS
 10
366.798097524
 20
31.5069337098
 11
366.624660024
 21
31.4424063369
  0
LINE
  8
0
 62
7
  6
CONTINUOUS
 10
364.369972524
 20
30.5390230296
 11
364.543410024
 21
30.6035504109
  0
LINE
  8
0
 62
7
  6
CONTINUOUS
 10
369.8043479651
 20
30.5390230296
 11
370.0355977445
 21
30.6035504109
  0
LINE
  8
0
 62
7
  6
CONTINUOUS
 10
369.8043479651
 20
30.7003414814
 11
369.6887227445
 21
30.668077795
  0
LINE
  8
0
 62
7
  6
CONTINUOUS
 10
368.7637229651
 20
31.3778789641
 11
368.9949727445
 21
31.4101426505
  0
LINE
  8
0
 62
7
  6
CONTINUOUS
 10
366.798097524
 20
31.3778789641
 11
367.0293479651
 21
31.4101426505
  0
LINE
  8
0
 62
7
  6
CONTINUOUS
 10
363.7340351343
 20
31.0229783683
 11
363.9652852445
 21
31.0552420547
  0
LINE
  8
0
 62
7
  6
CONTINUOUS
 10
367.0293479651
 20
31.5391973962
 11
366.798097524
 21
31.5069337098
  0
LINE
  8
0
 62
7
  6
CONTINUOUS
 10
363.6184102445
 20
31.3778789641
 11
363.8496603548
 21
31.4101426505
  0
LINE
  8
0
 62
7
  6
CONTINUOUS
 10
368.9949727445
 20
31.5391973962
 11
368.6480977445
 21
31.5069337098
  0
LINE
  8
0
 62
7
  6
CONTINUOUS
 10
363.9652852445
 20
31.1842968456
 11
363.6184102445
 21
31.1520331591
  0
LINE
  8
0
 62
7
  6
CONTINUOUS
 10
359.744972717
 20
31.5391973962
 11
359.3980977583
 21
31.5069337098
  0
LINE
  8
0
 62
7
  6
CONTINUOUS
 10
363.8496603548
 20
31.5391973962
 11
363.4449727445
 21
31.5069337098
  0
LINE
  8
0
 62
7
  6
CONTINUOUS
 10
361.221176638
 20
33.4575790124
 11
360.565438933
 21
33.4575790124
  0
LINE
  8
0
 62
7
  6
CONTINUOUS
 10
366.624660024
 20
31.3133515913
 11
366.798097524
 21
31.3778789641
  0
LINE
  8
0
 62
7
  6
CONTINUOUS
 10
368.6480977445
 20
31.3456152777
 11
368.7637229651
 21
31.3778789641
  0
LINE
  8
0
 62
7
  6
CONTINUOUS
 10
368.6480977445
 20
31.5069337098
 11
368.4168479651
 21
31.4424063369
  0
LINE
  8
0
 62
7
  6
CONTINUOUS
 10
364.369972524
 20
30.7003414814
 11
364.0809101343
 21
30.6358140973
  0
LINE
  8
0
 62
7
  6
CONTINUOUS
 10
361.6527851343
 20
31.3778789641
 11
361.8840352445
 21
31.4101426505
  0
LINE
  8
0
 62
7
  6
CONTINUOUS
 10
361.8840352445
 20
31.5391973962
 11
361.6527851343
 21
31.5069337098
  0
LINE
  8
0
 62
7
  6
CONTINUOUS
 10
359.4559102445
 20
31.3778789641
 11
359.6871602721
 21
31.4101426505
  0
LINE
  8
0
 62
7
  6
CONTINUOUS
 10
365.9752749986
 20
34.9329888485
 11
366.6310127035
 21
34.9329888485
  0
LINE
  8
0
 62
7
  6
CONTINUOUS
 10
363.6184102445
 20
30.9907146818
 11
363.7340351343
 21
31.0229783683
  0
LINE
  8
0
 62
7
  6
CONTINUOUS
 10
363.6184102445
 20
31.1520331591
 11
363.3871601343
 21
31.0875057863
  0
LINE
  8
0
 62
7
  6
CONTINUOUS
 10
363.5027853548
 20
31.3456152777
 11
363.6184102445
 21
31.3778789641
  0
LINE
  8
0
 62
7
  6
CONTINUOUS
 10
360.1496602445
 20
30.5390230296
 11
360.3809101894
 21
30.6035504109
  0
LINE
  8
0
 62
7
  6
CONTINUOUS
 10
363.4449727445
 20
31.5069337098
 11
363.3293478548
 21
31.4746700234
  0
LINE
  8
0
 62
7
  6
CONTINUOUS
 10
359.3980977583
 20
31.5069337098
 11
359.2246602583
 21
31.4746700234
  0
LINE
  8
0
 62
7
  6
CONTINUOUS
 10
370.1556028675
 20
36.0805298321
 11
368.7621602445
 21
36.0805298321
  0
LINE
  8
0
 62
7
  6
CONTINUOUS
 10
366.7949471298
 20
36.0805298321
 11
366.3823757812
 21
36.0805298321
  0
LINE
  8
0
 62
7
  6
CONTINUOUS
 10
365.1556028675
 20
36.0805298321
 11
363.7621602445
 21
36.0805298321
  0
LINE
  8
0
 62
7
  6
CONTINUOUS
 10
363.4342913921
 20
36.0805298321
 11
362.0408487691
 21
36.0805298321
  0
LINE
  8
0
 62
7
  6
CONTINUOUS
 10
360.1556028675
 20
36.0805298321
 11
358.7621602445
 21
36.0805298321
  0
LINE
  8
0
 62
7
  6
CONTINUOUS
 10
359.3402852307
 20
31.3456152777
 11
359.4559102445
 21
31.3778789641
  0
CIRCLE
  8
0
 62
7
  6
CONTINUOUS
 10
369.458881556
 20
38.4165954059
 40
2.0901639344
  0
ARC
  8
0
 62
7
  6
CONTINUOUS
 10
360.4015045068
 20
33.9493822911
 40
1.6393442623
 50
180.0
 51
270.0
  0
ARC
  8
0
 62
7
  6
CONTINUOUS
 10
366.7949471298
 20
34.4411855698
 40
1.6393442623
 50
0.0
 51
90.0
  0
ARC
  8
0
 62
7
  6
CONTINUOUS
 10
360.8140758554
 20
33.7854478649
 40
1.4754098361
 50
270.0
 51
326.2510114041
  0
ARC
  8
0
 62
7
  6
CONTINUOUS
 10
366.3823757812
 20
34.6051199961
 40
1.4754098361
 50
90.0
 51
146.2510114041
  0
ARC
  8
0
 62
7
  6
CONTINUOUS
 10
361.221176638
 20
34.2772511436
 40
0.8196721311
 50
270.0
 51
360.0
  0
ARC
  8
0
 62
7
  6
CONTINUOUS
 10
365.9752749986
 20
34.1133167174
 40
0.8196721311
 50
90.0
 51
180.0
  0
ARC
  8
0
 62
7
  6
CONTINUOUS
 10
360.565438933
 20
33.867415078
 40
0.4098360656
 50
180.0
 51
270.0
  0
ARC
  8
0
 62
7
  6
CONTINUOUS
 10
366.6310127035
 20
34.5231527829
 40
0.4098360656
 50
0.0
 51
90.0
  0
SOLID
  8
0
 62
7
  6
CONTINUOUS
 10
365.4684104651
 20
31.8618347111
 11
365.4684104651
 21
32.0231531947
 12
365.757472524
 22
31.8618347111
 13
365.757472524
 23
32.0231531947
  0
SOLID
  8
0
 62
7
  6
CONTINUOUS
 10
359.744972717
 20
31.5391977439
 11
360.1496602445
 21
31.5069333244
 12
359.3980977583
 22
31.5069333244
 13
359.3980977583
 23
31.5069333244
  0
SOLID
  8
0
 62
7
  6
CONTINUOUS
 10
359.2246602583
 20
31.4746706537
 11
359.3980977583
 21
31.5069333244
 12
360.1496602445
 22
31.5069333244
 13
360.1496602445
 23
31.5069333244
  0
SOLID
  8
0
 62
7
  6
CONTINUOUS
 10
360.1496602445
 20
31.5069333244
 11
360.3809101894
 21
31.4424063504
 12
359.2246602583
 22
31.4746706537
 13
359.2246602583
 23
31.4746706537
  0
SOLID
  8
0
 62
7
  6
CONTINUOUS
 10
359.0512227376
 20
31.4101419116
 11
359.2246602583
 21
31.4746706537
 12
360.3809101894
 22
31.4424063504
 13
360.3809101894
 23
31.4424063504
  0
SOLID
  8
0
 62
7
  6
CONTINUOUS
 10
359.0512227376
 20
31.4101419116
 11
360.3809101894
 21
31.4424063504
 12
359.6871602721
 22
31.4101419116
 13
359.6871602721
 23
31.4101419116
  0
SOLID
  8
0
 62
7
  6
CONTINUOUS
 10
359.6871602721
 20
31.4101419116
 11
360.3809101894
 21
31.4424063504
 12
360.091847717
 22
31.3778792603
 13
360.091847717
 23
31.3778792603
  0
SOLID
  8
0
 62
7
  6
CONTINUOUS
 10
360.3809101894
 20
31.4424063504
 11
360.5543476894
 21
31.345614957
 12
360.091847717
 22
31.3778792603
 13
360.091847717
 23
31.3778792603
  0
SOLID
  8
0
 62
7
  6
CONTINUOUS
 10
360.2652852997
 20
31.3133521701
 11
360.091847717
 21
31.3778792603
 12
360.5543476894
 22
31.345614957
 13
360.5543476894
 23
31.345614957
  0
SOLID
  8
0
 62
7
  6
CONTINUOUS
 10
360.2652852997
 20
31.3133521701
 11
360.5543476894
 21
31.345614957
 12
360.3230977445
 22
31.2165606992
 13
360.3230977445
 23
31.2165606992
  0
SOLID
  8
0
 62
7
  6
CONTINUOUS
 10
360.5543476894
 20
31.345614957
 11
360.6121602997
 21
31.2165606992
 12
360.3230977445
 22
31.2165606992
 13
360.3230977445
 23
31.2165606992
  0
SOLID
  8
0
 62
7
  6
CONTINUOUS
 10
361.6527851343
 20
31.5069329918
 11
361.8840352445
 21
31.5391972951
 12
362.1152853548
 22
31.5391972951
 13
362.1152853548
 23
31.5391972951
  0
SOLID
  8
0
 62
7
  6
CONTINUOUS
 10
362.1152853548
 20
31.5391972951
 11
362.2887228548
 21
31.5069329918
 12
361.6527851343
 22
31.5069329918
 13
361.6527851343
 23
31.5069329918
  0
SOLID
  8
0
 62
7
  6
CONTINUOUS
 10
361.4793477997
 20
31.4424059016
 11
361.6527851343
 21
31.5069329918
 12
362.2887228548
 22
31.5069329918
 13
362.2887228548
 23
31.5069329918
  0
SOLID
  8
0
 62
7
  6
CONTINUOUS
 10
362.2887228548
 20
31.5069329918
 11
362.4621603548
 21
31.4424059016
 12
361.4793477997
 22
31.4424059016
 13
361.4793477997
 23
31.4424059016
  0
SOLID
  8
0
 62
7
  6
CONTINUOUS
 10
362.4621603548
 20
31.4424059016
 11
361.8840352445
 21
31.4101420472
 12
361.4793477997
 22
31.4424059016
 13
361.4793477997
 23
31.4424059016
  0
SOLID
  8
0
 62
7
  6
CONTINUOUS
 10
361.3637227445
 20
31.3778788115
 11
361.4793477997
 21
31.4424059016
 12
361.8840352445
 22
31.4101420472
 13
361.8840352445
 23
31.4101420472
  0
SOLID
  8
0
 62
7
  6
CONTINUOUS
 10
361.8840352445
 20
31.4101420472
 11
361.6527851343
 21
31.3778788115
 12
361.3637227445
 22
31.3778788115
 13
361.3637227445
 23
31.3778788115
  0
SOLID
  8
0
 62
7
  6
CONTINUOUS
 10
361.8840352445
 20
31.4101420472
 11
362.4621603548
 21
31.4424059016
 12
362.1152853548
 22
31.3778788115
 13
362.1152853548
 23
31.3778788115
  0
SOLID
  8
0
 62
7
  6
CONTINUOUS
 10
362.4621603548
 20
31.4424059016
 11
362.5777852445
 21
31.3778788115
 12
362.1152853548
 22
31.3778788115
 13
362.1152853548
 23
31.3778788115
  0
SOLID
  8
0
 62
7
  6
CONTINUOUS
 10
362.2309102445
 20
31.345614957
 11
362.1152853548
 21
31.3778788115
 12
362.5777852445
 22
31.3778788115
 13
362.5777852445
 23
31.3778788115
  0
SOLID
  8
0
 62
7
  6
CONTINUOUS
 10
362.5777852445
 20
31.3778788115
 11
362.6355978548
 21
31.3133517213
 12
362.2309102445
 22
31.345614957
 13
362.2309102445
 23
31.345614957
  0
SOLID
  8
0
 62
7
  6
CONTINUOUS
 10
362.3465351343
 20
31.2810878668
 11
362.2309102445
 21
31.345614957
 12
362.6355978548
 22
31.3133517213
 13
362.6355978548
 23
31.3133517213
  0
SOLID
  8
0
 62
7
  6
CONTINUOUS
 10
362.3465351343
 20
31.2810878668
 11
362.6355978548
 21
31.3133517213
 12
362.4043477445
 22
31.1520332377
 13
362.4043477445
 23
31.1520332377
  0
SOLID
  8
0
 62
7
  6
CONTINUOUS
 10
362.6355978548
 20
31.3133517213
 11
362.6934101343
 21
31.1520332377
 12
362.4043477445
 22
31.1520332377
 13
362.4043477445
 23
31.1520332377
  0
SOLID
  8
0
 62
7
  6
CONTINUOUS
 10
361.6527851343
 20
31.3778788115
 11
361.4793477997
 21
31.3133517213
 12
361.3637227445
 22
31.3778788115
 13
361.3637227445
 23
31.3778788115
  0
SOLID
  8
0
 62
7
  6
CONTINUOUS
 10
361.4793477997
 20
31.3133517213
 11
361.3637227445
 21
31.2488235635
 12
361.3637227445
 22
31.3778788115
 13
361.3637227445
 23
31.3778788115
  0
SOLID
  8
0
 62
7
  6
CONTINUOUS
 10
361.3637227445
 20
31.2488235635
 11
361.0746601894
 21
30.5067593033
 12
361.3637227445
 22
31.3778788115
 13
361.3637227445
 23
31.3778788115
  0
SOLID
  8
0
 62
7
  6
CONTINUOUS
 10
361.3637227445
 20
31.3778788115
 11
361.0746601894
 21
30.5067593033
 12
361.3637227445
 22
32.0231527459
 13
361.3637227445
 23
32.0231527459
  0
SOLID
  8
0
 62
7
  6
CONTINUOUS
 10
361.0746601894
 20
30.5067593033
 11
361.0746601894
 21
32.0231527459
 12
361.3637227445
 22
32.0231527459
 13
361.3637227445
 23
32.0231527459
  0
SOLID
  8
0
 62
7
  6
CONTINUOUS
 10
361.3637227445
 20
31.2488235635
 11
361.3637227445
 21
30.5067593033
 12
361.0746601894
 22
30.5067593033
 13
361.0746601894
 23
30.5067593033
  0
SOLID
  8
0
 62
7
  6
CONTINUOUS
 10
362.4043477445
 20
30.5067593033
 11
362.4043477445
 21
31.1520332377
 12
362.6934101343
 22
31.1520332377
 13
362.6934101343
 23
31.1520332377
  0
SOLID
  8
0
 62
7
  6
CONTINUOUS
 10
362.6934101343
 20
31.1520332377
 11
362.6934101343
 21
30.5067593033
 12
362.4043477445
 22
30.5067593033
 13
362.4043477445
 23
30.5067593033
  0
SOLID
  8
0
 62
7
  6
CONTINUOUS
 10
363.4449727445
 20
31.506933758
 11
363.8496603548
 21
31.5391977507
 12
364.1965353548
 22
31.5391977507
 13
364.1965353548
 23
31.5391977507
  0
SOLID
  8
0
 62
7
  6
CONTINUOUS
 10
364.1965353548
 20
31.5391977507
 11
364.543410024
 21
31.506933758
 12
363.4449727445
 22
31.506933758
 13
363.4449727445
 23
31.506933758
  0
SOLID
  8
0
 62
7
  6
CONTINUOUS
 10
363.3293478548
 20
31.4746706537
 11
363.4449727445
 21
31.506933758
 12
364.543410024
 22
31.506933758
 13
364.543410024
 23
31.506933758
  0
SOLID
  8
0
 62
7
  6
CONTINUOUS
 10
364.543410024
 20
31.506933758
 11
364.716847524
 21
31.4424063504
 12
363.3293478548
 22
31.4746706537
 13
363.3293478548
 23
31.4746706537
  0
SOLID
  8
0
 62
7
  6
CONTINUOUS
 10
363.2137226343
 20
31.4101417797
 11
363.3293478548
 21
31.4746706537
 12
364.716847524
 22
31.4424063504
 13
364.716847524
 23
31.4424063504
  0
SOLID
  8
0
 62
7
  6
CONTINUOUS
 10
363.2137226343
 20
31.4101417797
 11
364.716847524
 21
31.4424063504
 12
363.8496603548
 22
31.4101417797
 13
363.8496603548
 23
31.4101417797
  0
SOLID
  8
0
 62
7
  6
CONTINUOUS
 10
363.8496603548
 20
31.4101417797
 11
364.716847524
 21
31.4424063504
 12
364.1965353548
 22
31.4101417797
 13
364.1965353548
 23
31.4101417797
  0
SOLID
  8
0
 62
7
  6
CONTINUOUS
 10
364.1965353548
 20
31.4101417797
 11
364.716847524
 21
31.4424063504
 12
364.4277854651
 22
31.3778793357
 13
364.4277854651
 23
31.3778793357
  0
SOLID
  8
0
 62
7
  6
CONTINUOUS
 10
364.716847524
 20
31.4424063504
 11
364.8324727445
 21
31.3778793357
 12
364.4277854651
 22
31.3778793357
 13
364.4277854651
 23
31.3778793357
  0
SOLID
  8
0
 62
7
  6
CONTINUOUS
 10
363.1559103548
 20
31.3456153429
 11
363.2137226343
 21
31.4101417797
 12
363.8496603548
 22
31.4101417797
 13
363.8496603548
 23
31.4101417797
  0
SOLID
  8
0
 62
7
  6
CONTINUOUS
 10
364.543410024
 20
31.3456153429
 11
364.4277854651
 21
31.3778793357
 12
364.8324727445
 22
31.3778793357
 13
364.8324727445
 23
31.3778793357
  0
SOLID
  8
0
 62
7
  6
CONTINUOUS
 10
364.543410024
 20
31.3456153429
 11
364.8324727445
 21
31.3778793357
 12
364.6012229651
 22
31.2810881318
 13
364.6012229651
 23
31.2810881318
  0
SOLID
  8
0
 62
7
  6
CONTINUOUS
 10
364.8324727445
 20
31.3778793357
 11
364.890285024
 21
31.2810881318
 12
364.6012229651
 22
31.2810881318
 13
364.6012229651
 23
31.2810881318
  0
SOLID
  8
0
 62
7
  6
CONTINUOUS
 10
364.6012229651
 20
31.1842964734
 11
364.6012229651
 21
31.2810881318
 12
364.890285024
 22
31.2810881318
 13
364.890285024
 23
31.2810881318
  0
SOLID
  8
0
 62
7
  6
CONTINUOUS
 10
364.6012229651
 20
31.1842964734
 11
364.890285024
 21
31.2810881318
 12
364.6012229651
 22
31.0552422931
 13
364.6012229651
 23
31.0552422931
  0
SOLID
  8
0
 62
7
  6
CONTINUOUS
 10
364.6012229651
 20
31.0552422931
 11
364.890285024
 21
31.2810881318
 12
364.6012229651
 22
30.8616599362
 13
364.6012229651
 23
30.8616599362
  0
SOLID
  8
0
 62
7
  6
CONTINUOUS
 10
364.890285024
 20
31.2810881318
 11
364.890285024
 21
30.7648681127
 12
364.6012229651
 22
30.8616599362
 13
364.6012229651
 23
30.8616599362
  0
SOLID
  8
0
 62
7
  6
CONTINUOUS
 10
366.798097524
 20
31.5069339419
 11
367.0293479651
 21
31.5391976292
 12
367.2605977445
 22
31.5391976292
 13
367.2605977445
 23
31.5391976292
  0
SOLID
  8
0
 62
7
  6
CONTINUOUS
 10
367.2605977445
 20
31.5391976292
 11
367.4340352445
 21
31.5069339419
 12
366.798097524
 22
31.5069339419
 13
366.798097524
 23
31.5069339419
  0
SOLID
  8
0
 62
7
  6
CONTINUOUS
 10
366.624660024
 20
31.4424065674
 11
366.798097524
 21
31.5069339419
 12
367.4340352445
 22
31.5069339419
 13
367.4340352445
 23
31.5069339419
  0
SOLID
  8
0
 62
7
  6
CONTINUOUS
 10
367.4340352445
 20
31.5069339419
 11
367.6074727445
 21
31.4424065674
 12
366.624660024
 22
31.4424065674
 13
366.624660024
 23
31.4424065674
  0
SOLID
  8
0
 62
7
  6
CONTINUOUS
 10
367.6074727445
 20
31.4424065674
 11
367.0293479651
 21
31.4101420472
 12
366.624660024
 22
31.4424065674
 13
366.624660024
 23
31.4424065674
  0
SOLID
  8
0
 62
7
  6
CONTINUOUS
 10
366.5090354651
 20
31.377879193
 11
366.624660024
 21
31.4424065674
 12
367.0293479651
 22
31.4101420472
 13
367.0293479651
 23
31.4101420472
  0
SOLID
  8
0
 62
7
  6
CONTINUOUS
 10
367.0293479651
 20
31.4101420472
 11
366.798097524
 21
31.377879193
 12
366.5090354651
 22
31.377879193
 13
366.5090354651
 23
31.377879193
  0
SOLID
  8
0
 62
7
  6
CONTINUOUS
 10
367.0293479651
 20
31.4101420472
 11
367.6074727445
 21
31.4424065674
 12
367.2605977445
 22
31.377879193
 13
367.2605977445
 23
31.377879193
  0
SOLID
  8
0
 62
7
  6
CONTINUOUS
 10
367.6074727445
 20
31.4424065674
 11
367.7230979651
 21
31.377879193
 12
367.2605977445
 22
31.377879193
 13
367.2605977445
 23
31.377879193
  0
SOLID
  8
0
 62
7
  6
CONTINUOUS
 10
367.3762229651
 20
31.345614957
 11
367.2605977445
 21
31.377879193
 12
367.7230979651
 22
31.377879193
 13
367.7230979651
 23
31.377879193
  0
SOLID
  8
0
 62
7
  6
CONTINUOUS
 10
367.3762229651
 20
31.345614957
 11
367.7230979651
 21
31.377879193
 12
367.491847524
 22
31.2810881312
 13
367.491847524
 23
31.2810881312
  0
SOLID
  8
0
 62
7
  6
CONTINUOUS
 10
367.7230979651
 20
31.377879193
 11
367.7809102445
 21
31.2810881312
 12
367.491847524
 22
31.2810881312
 13
367.491847524
 23
31.2810881312
  0
SOLID
  8
0
 62
7
  6
CONTINUOUS
 10
367.5496604651
 20
31.119769695
 11
367.491847524
 21
31.2810881312
 12
367.7809102445
 22
31.2810881312
 13
367.7809102445
 23
31.2810881312
  0
SOLID
  8
0
 62
7
  6
CONTINUOUS
 10
367.7809102445
 20
31.2810881312
 11
367.838722524
 21
31.119769695
 12
367.5496604651
 22
31.119769695
 13
367.5496604651
 23
31.119769695
  0
SOLID
  8
0
 62
7
  6
CONTINUOUS
 10
366.798097524
 20
31.377879193
 11
366.624660024
 21
31.3133521701
 12
366.5090354651
 22
31.377879193
 13
366.5090354651
 23
31.377879193
  0
SOLID
  8
0
 62
7
  6
CONTINUOUS
 10
366.624660024
 20
31.3133521701
 11
366.5090354651
 21
31.2488235635
 12
366.5090354651
 22
31.377879193
 13
366.5090354651
 23
31.377879193
  0
SOLID
  8
0
 62
7
  6
CONTINUOUS
 10
366.5090354651
 20
31.2488235635
 11
366.2199727445
 21
30.5067596374
 12
366.5090354651
 22
31.377879193
 13
366.5090354651
 23
31.377879193
  0
SOLID
  8
0
 62
7
  6
CONTINUOUS
 10
366.5090354651
 20
31.377879193
 11
366.2199727445
 21
30.5067596374
 12
366.5090354651
 22
31.5391976292
 13
366.5090354651
 23
31.5391976292
  0
SOLID
  8
0
 62
7
  6
CONTINUOUS
 10
366.2199727445
 20
30.5067596374
 11
366.2199727445
 21
31.5391976292
 12
366.5090354651
 22
31.5391976292
 13
366.5090354651
 23
31.5391976292
  0
SOLID
  8
0
 62
7
  6
CONTINUOUS
 10
366.5090354651
 20
31.2488235635
 11
366.5090354651
 21
30.5067596374
 12
366.2199727445
 22
30.5067596374
 13
366.2199727445
 23
30.5067596374
  0
SOLID
  8
0
 62
7
  6
CONTINUOUS
 10
367.5496604651
 20
30.5067596374
 11
367.5496604651
 21
31.119769695
 12
367.838722524
 22
31.119769695
 13
367.838722524
 23
31.119769695
  0
SOLID
  8
0
 62
7
  6
CONTINUOUS
 10
367.838722524
 20
31.119769695
 11
367.838722524
 21
30.5067596374
 12
367.5496604651
 22
30.5067596374
 13
367.5496604651
 23
30.5067596374
  0
SOLID
  8
0
 62
7
  6
CONTINUOUS
 10
368.6480977445
 20
31.5069334157
 11
368.9949727445
 21
31.539197762
 12
369.3418477445
 22
31.539197762
 13
369.3418477445
 23
31.539197762
  0
SOLID
  8
0
 62
7
  6
CONTINUOUS
 10
369.3418477445
 20
31.539197762
 11
369.6887227445
 21
31.5069334157
 12
368.6480977445
 22
31.5069334157
 13
368.6480977445
 23
31.5069334157
  0
SOLID
  8
0
 62
7
  6
CONTINUOUS
 10
368.4168479651
 20
31.4424063504
 11
368.6480977445
 21
31.5069334157
 12
369.6887227445
 22
31.5069334157
 13
369.6887227445
 23
31.5069334157
  0
SOLID
  8
0
 62
7
  6
CONTINUOUS
 10
368.4168479651
 20
31.4424063504
 11
369.6887227445
 21
31.5069334406
 12
369.8621602445
 22
31.4746706537
 13
369.8621602445
 23
31.4746706537
  0
SOLID
  8
0
 62
7
  6
CONTINUOUS
 10
368.4168479651
 20
31.4424063504
 11
369.8621602445
 21
31.4746706537
 12
368.9949727445
 22
31.4101421267
 13
368.9949727445
 23
31.4101421267
  0
SOLID
  8
0
 62
7
  6
CONTINUOUS
 10
368.9949727445
 20
31.4101421267
 11
369.8621602445
 21
31.4746706537
 12
369.3418477445
 22
31.4101421267
 13
369.3418477445
 23
31.4101421267
  0
SOLID
  8
0
 62
7
  6
CONTINUOUS
 10
369.8621602445
 20
31.4746706537
 11
370.0355977445
 21
31.4101421267
 12
369.3418477445
 22
31.4101421267
 13
369.3418477445
 23
31.4101421267
  0
SOLID
  8
0
 62
7
  6
CONTINUOUS
 10
369.6887227445
 20
31.3778792603
 11
369.3418477445
 21
31.4101421267
 12
370.0355977445
 22
31.4101421267
 13
370.0355977445
 23
31.4101421267
  0
SOLID
  8
0
 62
7
  6
CONTINUOUS
 10
368.3012227445
 20
31.3456148845
 11
368.4168479651
 21
31.4424063504
 12
368.9949727445
 22
31.4101421267
 13
368.9949727445
 23
31.4101421267
  0
SOLID
  8
0
 62
7
  6
CONTINUOUS
 10
369.6887227445
 20
31.3778792603
 11
370.0355977445
 21
31.4101421267
 12
369.8043479651
 22
31.3456148845
 13
369.8043479651
 23
31.3456148845
  0
SOLID
  8
0
 62
7
  6
CONTINUOUS
 10
369.8043479651
 20
31.3456148845
 11
370.0355977445
 21
31.4101421267
 12
369.8621602445
 22
31.281087868
 13
369.8621602445
 23
31.281087868
  0
SOLID
  8
0
 62
7
  6
CONTINUOUS
 10
370.0355977445
 20
31.4101421267
 11
370.1512223035
 21
31.281087868
 12
369.8621602445
 22
31.281087868
 13
369.8621602445
 23
31.281087868
  0
SOLID
  8
0
 62
7
  6
CONTINUOUS
 10
359.4559102445
 20
31.3778792603
 11
358.9355977445
 21
31.3456148963
 12
359.6871602721
 22
31.4101421155
 13
359.6871602721
 23
31.4101421155
  0
SOLID
  8
0
 62
7
  6
CONTINUOUS
 10
358.9355977445
 20
31.3456148963
 11
359.0512227376
 21
31.4101421155
 12
359.6871602721
 22
31.4101421155
 13
359.6871602721
 23
31.4101421155
  0
SOLID
  8
0
 62
7
  6
CONTINUOUS
 10
359.4559102445
 20
31.3778792603
 11
359.3402852307
 21
31.3456148963
 12
358.9355977445
 22
31.3456148963
 13
358.9355977445
 23
31.3456148963
  0
SOLID
  8
0
 62
7
  6
CONTINUOUS
 10
358.8199727462
 20
31.2165607767
 11
358.9355977445
 21
31.3456148963
 12
359.3402852307
 22
31.3456148963
 13
359.3402852307
 23
31.3456148963
  0
SOLID
  8
0
 62
7
  6
CONTINUOUS
 10
363.1559103548
 20
31.3456149608
 11
363.8496603548
 21
31.4101420472
 12
363.6184102445
 22
31.3778792603
 13
363.6184102445
 23
31.3778792603
  0
SOLID
  8
0
 62
7
  6
CONTINUOUS
 10
363.6184102445
 20
31.3778792603
 11
363.5027853548
 21
31.3456149608
 12
363.1559103548
 22
31.3456149608
 13
363.1559103548
 23
31.3456149608
  0
SOLID
  8
0
 62
7
  6
CONTINUOUS
 10
363.1559103548
 20
31.2810878707
 11
363.1559103548
 21
31.3456149608
 12
363.5027853548
 22
31.3456149608
 13
363.5027853548
 23
31.3456149608
  0
SOLID
  8
0
 62
7
  6
CONTINUOUS
 10
363.5027853548
 20
31.3456149608
 11
363.4449727445
 21
31.2810878707
 12
363.1559103548
 22
31.2810878707
 13
363.1559103548
 23
31.2810878707
  0
SOLID
  8
0
 62
7
  6
CONTINUOUS
 10
368.3012227445
 20
31.3456149608
 11
368.9949727445
 21
31.4101420472
 12
368.7637229651
 22
31.3778792603
 13
368.7637229651
 23
31.3778792603
  0
SOLID
  8
0
 62
7
  6
CONTINUOUS
 10
368.7637229651
 20
31.3778792603
 11
368.6480977445
 21
31.3456149608
 12
368.3012227445
 22
31.3456149608
 13
368.3012227445
 23
31.3456149608
  0
SOLID
  8
0
 62
7
  6
CONTINUOUS
 10
368.3012227445
 20
31.2810878707
 11
368.3012227445
 21
31.3456149608
 12
368.6480977445
 22
31.3456149608
 13
368.6480977445
 23
31.3456149608
  0
SOLID
  8
0
 62
7
  6
CONTINUOUS
 10
368.6480977445
 20
31.3456149608
 11
368.5902854651
 21
31.2810878707
 12
368.3012227445
 22
31.2810878707
 13
368.3012227445
 23
31.2810878707
  0
SOLID
  8
0
 62
7
  6
CONTINUOUS
 10
368.4168479651
 20
31.1520336865
 11
368.3012227445
 21
31.2810878707
 12
368.5902854651
 22
31.2810878707
 13
368.5902854651
 23
31.2810878707
  0
SOLID
  8
0
 62
7
  6
CONTINUOUS
 10
358.8199727462
 20
31.2165607767
 11
359.3402852307
 21
31.345614957
 12
359.1668477307
 22
31.2488235635
 13
359.1668477307
 23
31.2488235635
  0
SOLID
  8
0
 62
7
  6
CONTINUOUS
 10
359.1668477307
 20
31.2488235635
 11
359.1090352445
 21
31.1842964734
 12
358.8199727462
 22
31.2165607767
 13
358.8199727462
 23
31.2165607767
  0
SOLID
  8
0
 62
7
  6
CONTINUOUS
 10
358.7621602445
 20
31.0229779898
 11
358.8199727462
 21
31.2165607767
 12
359.1090352445
 22
31.1842964734
 13
359.1090352445
 23
31.1842964734
  0
SOLID
  8
0
 62
7
  6
CONTINUOUS
 10
363.6184102445
 20
31.1520336865
 11
363.9652852445
 21
31.1842964611
 12
364.6012229651
 22
31.1842964611
 13
364.6012229651
 23
31.1842964611
  0
SOLID
  8
0
 62
7
  6
CONTINUOUS
 10
363.6184102445
 20
31.1520336865
 11
364.6012229651
 21
31.1842964611
 12
363.3871601343
 22
31.0875057863
 13
363.3871601343
 23
31.0875057863
  0
SOLID
  8
0
 62
7
  6
CONTINUOUS
 10
363.3871601343
 20
31.0875057863
 11
364.6012229651
 21
31.1842964611
 12
363.9652852445
 22
31.0552422808
 13
363.9652852445
 23
31.0552422808
  0
SOLID
  8
0
 62
7
  6
CONTINUOUS
 10
364.6012229651
 20
31.1842964611
 11
364.6012229651
 21
31.0552422808
 12
363.9652852445
 22
31.0552422808
 13
363.9652852445
 23
31.0552422808
  0
SOLID
  8
0
 62
7
  6
CONTINUOUS
 10
368.4168479651
 20
31.1520338754
 11
368.5902854651
 21
31.2810878668
 12
368.6480977445
 22
31.2165607767
 13
368.6480977445
 23
31.2165607767
  0
SOLID
  8
0
 62
7
  6
CONTINUOUS
 10
368.6480977445
 20
31.2165607767
 11
368.8215352445
 21
31.1520338754
 12
368.4168479651
 22
31.1520338754
 13
368.4168479651
 23
31.1520338754
  0
SOLID
  8
0
 62
7
  6
CONTINUOUS
 10
368.6480977445
 20
31.0552422931
 11
368.4168479651
 21
31.1520338754
 12
368.8215352445
 22
31.1520338754
 13
368.8215352445
 23
31.1520338754
  0
SOLID
  8
0
 62
7
  6
CONTINUOUS
 10
368.8215352445
 20
31.1520338754
 11
369.8043479651
 21
30.9907152029
 12
368.6480977445
 22
31.0552422931
 13
368.6480977445
 23
31.0552422931
  0
SOLID
  8
0
 62
7
  6
CONTINUOUS
 10
369.6309104651
 20
30.8939239876
 11
368.6480977445
 21
31.0552422931
 12
369.8043479651
 22
30.9907152029
 13
369.8043479651
 23
30.9907152029
  0
SOLID
  8
0
 62
7
  6
CONTINUOUS
 10
369.8043479651
 20
30.9907152029
 11
370.0355977445
 21
30.8939239876
 12
369.6309104651
 22
30.8939239876
 13
369.6309104651
 23
30.8939239876
  0
SOLID
  8
0
 62
7
  6
CONTINUOUS
 10
369.8043479651
 20
30.8293967193
 11
369.6309104651
 21
30.8939239876
 12
370.0355977445
 22
30.8939239876
 13
370.0355977445
 23
30.8939239876
  0
SOLID
  8
0
 62
7
  6
CONTINUOUS
 10
369.8043479651
 20
30.8293967193
 11
370.0355977445
 21
30.8939239876
 12
369.8621602445
 22
30.7648682694
 13
369.8621602445
 23
30.7648682694
  0
SOLID
  8
0
 62
7
  6
CONTINUOUS
 10
370.0355977445
 20
30.8939239876
 11
370.1512223035
 21
30.7648682694
 12
369.8621602445
 22
30.7648682694
 13
369.8621602445
 23
30.7648682694
  0
SOLID
  8
0
 62
7
  6
CONTINUOUS
 10
369.8043479651
 20
30.7003411846
 11
369.8621602445
 21
30.7648682694
 12
370.1512223035
 22
30.7648682694
 13
370.1512223035
 23
30.7648682694
  0
SOLID
  8
0
 62
7
  6
CONTINUOUS
 10
370.1512223035
 20
30.7648682694
 11
370.1512223035
 21
30.7003411846
 12
369.8043479651
 22
30.7003411846
 13
369.8043479651
 23
30.7003411846
  0
SOLID
  8
0
 62
7
  6
CONTINUOUS
 10
369.6887227445
 20
30.6680782357
 11
369.8043479651
 21
30.7003411846
 12
370.1512223035
 22
30.7003411846
 13
370.1512223035
 23
30.7003411846
  0
SOLID
  8
0
 62
7
  6
CONTINUOUS
 10
369.6887227445
 20
30.6680782357
 11
370.1512223035
 21
30.7003411846
 12
369.4574729651
 22
30.6358140998
 13
369.4574729651
 23
30.6358140998
  0
SOLID
  8
0
 62
7
  6
CONTINUOUS
 10
370.1512223035
 20
30.7003411846
 11
370.0355977445
 21
30.6035511455
 12
369.4574729651
 22
30.6358140998
 13
369.4574729651
 23
30.6358140998
  0
SOLID
  8
0
 62
7
  6
CONTINUOUS
 10
370.0355977445
 20
30.6035511455
 11
368.5902854651
 21
30.5712868422
 12
369.4574729651
 22
30.6358140998
 13
369.4574729651
 23
30.6358140998
  0
SOLID
  8
0
 62
7
  6
CONTINUOUS
 10
369.4574729651
 20
30.6358140998
 11
368.5902854651
 21
30.5712868422
 12
369.1105979651
 22
30.6358140998
 13
369.1105979651
 23
30.6358140998
  0
SOLID
  8
0
 62
7
  6
CONTINUOUS
 10
368.5902854651
 20
30.5712868422
 11
368.4168479651
 21
30.6358140998
 12
369.1105979651
 22
30.6358140998
 13
369.1105979651
 23
30.6358140998
  0
SOLID
  8
0
 62
7
  6
CONTINUOUS
 10
368.5902854651
 20
30.5712868422
 11
370.0355977445
 21
30.6035511455
 12
368.7637229651
 22
30.5390223111
 13
368.7637229651
 23
30.5390223111
  0
SOLID
  8
0
 62
7
  6
CONTINUOUS
 10
370.0355977445
 20
30.6035511455
 11
369.8043479651
 21
30.5390223111
 12
368.7637229651
 22
30.5390223111
 13
368.7637229651
 23
30.5390223111
  0
SOLID
  8
0
 62
7
  6
CONTINUOUS
 10
369.1105979651
 20
30.5067599302
 11
368.7637229651
 21
30.5390223111
 12
369.8043479651
 22
30.5390223111
 13
369.8043479651
 23
30.5390223111
  0
SOLID
  8
0
 62
7
  6
CONTINUOUS
 10
369.8043479651
 20
30.5390223111
 11
369.4574729651
 21
30.5067599302
 12
369.1105979651
 22
30.5067599302
 13
369.1105979651
 23
30.5067599302
  0
SOLID
  8
0
 62
7
  6
CONTINUOUS
 10
358.7621602445
 20
31.0229779898
 11
359.1090352445
 21
31.1842964734
 12
359.0512227376
 22
31.0552422931
 13
359.0512227376
 23
31.0552422931
  0
SOLID
  8
0
 62
7
  6
CONTINUOUS
 10
359.0512227376
 20
31.0552422931
 11
359.0512227376
 21
30.9584509954
 12
358.7621602445
 22
31.0229779898
 13
358.7621602445
 23
31.0229779898
  0
SOLID
  8
0
 62
7
  6
CONTINUOUS
 10
358.8199727462
 20
30.8293967193
 11
358.7621602445
 21
31.0229779898
 12
359.0512227376
 22
30.9584509954
 13
359.0512227376
 23
30.9584509954
  0
SOLID
  8
0
 62
7
  6
CONTINUOUS
 10
359.0512227376
 20
30.9584509954
 11
359.1668477307
 21
30.797132416
 12
358.8199727462
 22
30.8293967193
 13
358.8199727462
 23
30.8293967193
  0
SOLID
  8
0
 62
7
  6
CONTINUOUS
 10
358.9355977445
 20
30.7003413087
 11
358.8199727462
 21
30.8293967193
 12
359.1668477307
 22
30.797132416
 13
359.1668477307
 23
30.797132416
  0
SOLID
  8
0
 62
7
  6
CONTINUOUS
 10
359.1668477307
 20
30.797132416
 11
359.3402852307
 21
30.7003413087
 12
358.9355977445
 22
30.7003413087
 13
358.9355977445
 23
30.7003413087
  0
SOLID
  8
0
 62
7
  6
CONTINUOUS
 10
359.0512227376
 20
30.6358140759
 11
358.9355977445
 21
30.7003413087
 12
359.3402852307
 22
30.7003413087
 13
359.3402852307
 23
30.7003413087
  0
SOLID
  8
0
 62
7
  6
CONTINUOUS
 10
359.3402852307
 20
30.7003413087
 11
359.6871602721
 21
30.6358140759
 12
359.0512227376
 22
30.6358140759
 13
359.0512227376
 23
30.6358140759
  0
SOLID
  8
0
 62
7
  6
CONTINUOUS
 10
359.2246602583
 20
30.5712868422
 11
359.0512227376
 21
30.6358140759
 12
359.6871602721
 22
30.6358140759
 13
359.6871602721
 23
30.6358140759
  0
SOLID
  8
0
 62
7
  6
CONTINUOUS
 10
363.2715352445
 20
31.0229779808
 11
363.3871601343
 21
31.0875057863
 12
363.9652852445
 22
31.0552422931
 13
363.9652852445
 23
31.0552422931
  0
SOLID
  8
0
 62
7
  6
CONTINUOUS
 10
363.9652852445
 20
31.0552422931
 11
363.7340351343
 21
31.0229779808
 12
363.2715352445
 22
31.0229779808
 13
363.2715352445
 23
31.0229779808
  0
SOLID
  8
0
 62
7
  6
CONTINUOUS
 10
363.1559103548
 20
30.8939238094
 11
363.2715352445
 21
31.0229779808
 12
363.7340351343
 22
31.0229779808
 13
363.7340351343
 23
31.0229779808
  0
SOLID
  8
0
 62
7
  6
CONTINUOUS
 10
363.5027853548
 20
30.926187309
 11
363.1559103548
 21
30.8939238094
 12
363.6184102445
 22
30.9907152029
 13
363.6184102445
 23
30.9907152029
  0
SOLID
  8
0
 62
7
  6
CONTINUOUS
 10
363.1559103548
 20
30.8939238094
 11
363.7340351343
 21
31.0229779898
 12
363.6184102445
 22
30.9907152029
 13
363.6184102445
 23
30.9907152029
  0
SOLID
  8
0
 62
7
  6
CONTINUOUS
 10
363.5027853548
 20
30.926187309
 11
363.4449727445
 21
30.8293967193
 12
363.1559103548
 22
30.8939238094
 13
363.1559103548
 23
30.8939238094
  0
SOLID
  8
0
 62
7
  6
CONTINUOUS
 10
363.1559103548
 20
30.797132416
 11
363.1559103548
 21
30.8939238094
 12
363.4449727445
 22
30.8293967193
 13
363.4449727445
 23
30.8293967193
  0
SOLID
  8
0
 62
7
  6
CONTINUOUS
 10
363.4449727445
 20
30.8293967193
 11
363.4449727445
 21
30.7648681127
 12
363.1559103548
 22
30.797132416
 13
363.1559103548
 23
30.797132416
  0
SOLID
  8
0
 62
7
  6
CONTINUOUS
 10
363.2137226343
 20
30.6680782357
 11
363.1559103548
 21
30.797132416
 12
363.4449727445
 22
30.7648681127
 13
363.4449727445
 23
30.7648681127
  0
SOLID
  8
0
 62
7
  6
CONTINUOUS
 10
364.6012229651
 20
30.8616599362
 11
364.890285024
 21
30.7648681127
 12
364.543410024
 22
30.797132416
 13
364.543410024
 23
30.797132416
  0
SOLID
  8
0
 62
7
  6
CONTINUOUS
 10
364.369972524
 20
30.7003410226
 11
364.543410024
 21
30.797132416
 12
364.890285024
 22
30.7648681127
 13
364.890285024
 23
30.7648681127
  0
SOLID
  8
0
 62
7
  6
CONTINUOUS
 10
364.369972524
 20
30.7003410226
 11
364.890285024
 21
30.7648681127
 12
364.6012229651
 22
30.6680782357
 13
364.6012229651
 23
30.6680782357
  0
SOLID
  8
0
 62
7
  6
CONTINUOUS
 10
364.890285024
 20
30.7648681127
 11
364.9480979651
 21
30.6035511455
 12
364.6012229651
 22
30.6680782357
 13
364.6012229651
 23
30.6680782357
  0
SOLID
  8
0
 62
7
  6
CONTINUOUS
 10
364.6590352445
 20
30.5712868422
 11
364.6012229651
 21
30.6680782357
 12
364.9480979651
 22
30.6035511455
 13
364.9480979651
 23
30.6035511455
  0
SOLID
  8
0
 62
7
  6
CONTINUOUS
 10
364.6590352445
 20
30.5712868422
 11
364.9480979651
 21
30.6035511455
 12
364.716847524
 22
30.5067598731
 13
364.716847524
 23
30.5067598731
  0
SOLID
  8
0
 62
7
  6
CONTINUOUS
 10
364.9480979651
 20
30.6035511455
 11
365.0059102445
 21
30.5067598731
 12
364.716847524
 22
30.5067598731
 13
364.716847524
 23
30.5067598731
  0
SOLID
  8
0
 62
7
  6
CONTINUOUS
 10
360.2652852997
 20
30.7326051679
 11
360.3230977445
 21
30.8293966612
 12
360.6121602997
 22
30.8293966612
 13
360.6121602997
 23
30.8293966612
  0
SOLID
  8
0
 62
7
  6
CONTINUOUS
 10
360.6121602997
 20
30.8293966612
 11
360.5543476894
 21
30.7003410226
 12
360.2652852997
 22
30.7326051679
 13
360.2652852997
 23
30.7326051679
  0
SOLID
  8
0
 62
7
  6
CONTINUOUS
 10
360.091847717
 20
30.6680782357
 11
360.2652852997
 21
30.7326051679
 12
360.5543476894
 22
30.7003410226
 13
360.5543476894
 23
30.7003410226
  0
SOLID
  8
0
 62
7
  6
CONTINUOUS
 10
360.091847717
 20
30.6680782357
 11
360.5543476894
 21
30.7003410226
 12
359.6871602721
 22
30.6358139324
 13
359.6871602721
 23
30.6358139324
  0
SOLID
  8
0
 62
7
  6
CONTINUOUS
 10
360.5543476894
 20
30.7003410226
 11
360.3809101894
 21
30.6035511455
 12
359.6871602721
 22
30.6358139324
 13
359.6871602721
 23
30.6358139324
  0
SOLID
  8
0
 62
7
  6
CONTINUOUS
 10
359.2246602583
 20
30.5712868422
 11
359.6871602721
 21
30.6358139324
 12
360.3809101894
 22
30.6035511455
 13
360.3809101894
 23
30.6035511455
  0
SOLID
  8
0
 62
7
  6
CONTINUOUS
 10
359.2246602583
 20
30.5712868422
 11
360.3809101894
 21
30.6035511455
 12
359.3980977583
 22
30.5390224228
 13
359.3980977583
 23
30.5390224228
  0
SOLID
  8
0
 62
7
  6
CONTINUOUS
 10
360.3809101894
 20
30.6035511455
 11
360.1496602445
 21
30.5390224228
 12
359.3980977583
 22
30.5390224228
 13
359.3980977583
 23
30.5390224228
  0
SOLID
  8
0
 62
7
  6
CONTINUOUS
 10
359.744972717
 20
30.5067597521
 11
359.3980977583
 21
30.5390224228
 12
360.1496602445
 22
30.5390224228
 13
360.1496602445
 23
30.5390224228
  0
SOLID
  8
0
 62
7
  6
CONTINUOUS
 10
363.2137226343
 20
30.6680782357
 11
363.4449727445
 21
30.7648681127
 12
363.5027853548
 22
30.7003410226
 13
363.5027853548
 23
30.7003410226
  0
SOLID
  8
0
 62
7
  6
CONTINUOUS
 10
363.5027853548
 20
30.7003410226
 11
363.7340351343
 21
30.6358139324
 12
363.2137226343
 22
30.6680782357
 13
363.2137226343
 23
30.6680782357
  0
SOLID
  8
0
 62
7
  6
CONTINUOUS
 10
363.3871601343
 20
30.5712868422
 11
363.2137226343
 21
30.6680782357
 12
363.7340351343
 22
30.6358139324
 13
363.7340351343
 23
30.6358139324
  0
SOLID
  8
0
 62
7
  6
CONTINUOUS
 10
364.0809101343
 20
30.6358139363
 11
364.369972524
 21
30.7003410226
 12
364.6012229651
 22
30.6680782357
 13
364.6012229651
 23
30.6680782357
  0
SOLID
  8
0
 62
7
  6
CONTINUOUS
 10
364.6012229651
 20
30.6680782357
 11
364.543410024
 21
30.6035511455
 12
364.0809101343
 22
30.6358139363
 13
364.0809101343
 23
30.6358139363
  0
SOLID
  8
0
 62
7
  6
CONTINUOUS
 10
364.543410024
 20
30.6035511455
 11
363.3871601343
 21
30.5712868422
 12
364.0809101343
 22
30.6358139363
 13
364.0809101343
 23
30.6358139363
  0
SOLID
  8
0
 62
7
  6
CONTINUOUS
 10
363.3871601343
 20
30.5712868422
 11
363.7340351343
 21
30.6358139363
 12
364.0809101343
 22
30.6358139363
 13
364.0809101343
 23
30.6358139363
  0
SOLID
  8
0
 62
7
  6
CONTINUOUS
 10
363.3871601343
 20
30.5712868422
 11
364.543410024
 21
30.6035511455
 12
363.5027853548
 22
30.5390225267
 13
363.5027853548
 23
30.5390225267
  0
SOLID
  8
0
 62
7
  6
CONTINUOUS
 10
364.543410024
 20
30.6035511455
 11
364.369972524
 21
30.5390225267
 12
363.5027853548
 22
30.5390225267
 13
363.5027853548
 23
30.5390225267
  0
SOLID
  8
0
 62
7
  6
CONTINUOUS
 10
363.7340351343
 20
30.5067596914
 11
363.5027853548
 21
30.5390225267
 12
364.369972524
 22
30.5390225267
 13
364.369972524
 23
30.5390225267
  0
SOLID
  8
0
 62
7
  6
CONTINUOUS
 10
364.369972524
 20
30.5390225267
 11
364.0809101343
 21
30.5067596914
 12
363.7340351343
 22
30.5067596914
 13
363.7340351343
 23
30.5067596914
  0
SOLID
  8
0
 62
7
  6
CONTINUOUS
 10
368.7637229651
 20
30.6680782357
 11
368.4168479651
 21
30.6358138717
 12
368.6480977445
 22
30.7003410226
 13
368.6480977445
 23
30.7003410226
  0
SOLID
  8
0
 62
7
  6
CONTINUOUS
 10
368.6480977445
 20
30.7003410226
 11
368.4168479651
 21
30.6358138717
 12
368.5902854651
 22
30.7648680521
 13
368.5902854651
 23
30.7648680521
  0
SOLID
  8
0
 62
7
  6
CONTINUOUS
 10
368.4168479651
 20
30.6358138717
 11
368.3012227445
 21
30.7648680521
 12
368.5902854651
 22
30.7648680521
 13
368.5902854651
 23
30.7648680521
  0
SOLID
  8
0
 62
7
  6
CONTINUOUS
 10
368.7637229651
 20
30.6680782357
 11
369.1105979651
 21
30.6358138717
 12
368.4168479651
 22
30.6358138717
 13
368.4168479651
 23
30.6358138717
  0
SOLID
  8
0
 62
7
  6
CONTINUOUS
 10
365.4684104651
 20
30.5067597521
 11
365.4684104651
 21
31.5391977439
 12
365.757472524
 22
30.5067597521
 13
365.757472524
 23
31.5391977439
  0
ENDBLK
  8
0
  6
BYBLOCK
 62
0
  0
BLOCK
  8
0
 62
2
  6
CONTINUOUS
  2
SYMBOL_0_BL0
 70
64
 10
240.8592468615
 20
19.762288695
  0
TEXT
  8
0
 62
7
  6
CONTINUOUS
 10
227.1239507038
 20
19.1357028027
  7
TEXTSTYLE_3
 40
2.7338706658
  1
Ammeraal Beltech
 41
1.0
 51
15.0
 72
0
  0
TEXT
  8
0
 62
7
  6
CONTINUOUS
 10
237.9247515296
 20
16.8621661299
  7
TEXTSTYLE_4
 40
1.0935482663
  1
Innovation & Service in Belting
 41
1.0
 72
0
  0
LINE
  8
0
 62
7
  6
CONTINUOUS
 10
221.0994100525
 20
19.9022961113
 11
221.8775620458
 21
23.5632134089
  0
LINE
  8
0
 62
7
  6
CONTINUOUS
 10
231.9727303357
 20
27.2266073205
 11
222.3653797889
 21
24.1049898993
  0
LINE
  8
0
 62
7
  6
CONTINUOUS
 10
221.3246933848
 20
19.2089453082
 11
228.8317686459
 21
12.4495443822
  0
LINE
  8
0
 62
7
  6
CONTINUOUS
 10
221.5872277955
 20
20.4440726016
 11
232.3954971607
 21
23.9558922005
  0
LINE
  8
0
 62
7
  6
CONTINUOUS
 10
232.3912920235
 20
13.6061036368
 11
223.9458323548
 21
21.2104296785
  0
LINE
  8
0
 62
7
  6
CONTINUOUS
 10
232.9111147433
 20
26.3816822048
 11
231.9345552061
 21
21.7873308023
  0
LINE
  8
0
 62
7
  6
CONTINUOUS
 10
231.2347532584
 20
18.4950214885
 11
230.5483050469
 21
15.2655365641
  0
LINE
  8
0
 62
7
  6
CONTINUOUS
 10
233.5922108419
 20
13.9963058145
 11
234.5484423775
 21
18.4950214885
  0
LINE
  8
0
 62
7
  6
CONTINUOUS
 10
235.2482443252
 20
21.7873308023
 11
235.6924861276
 21
23.8773241617
  0
LINE
  8
0
 62
7
  6
CONTINUOUS
 10
229.5448697213
 20
12.2979700695
 11
233.1043930989
 21
13.4545293241
  0
LINE
  8
0
 62
7
  6
CONTINUOUS
 10
232.685831411
 20
27.0750330078
 11
235.4672027953
 21
24.5706749648
  0
ARC
  8
0
 62
7
  6
CONTINUOUS
 10
222.5906631212
 20
23.4116390962
 40
0.7290321776
 50
108.0
 51
168.0
  0
ARC
  8
0
 62
7
  6
CONTINUOUS
 10
232.198013668
 20
26.5332565175
 40
0.7290321776
 50
348.0
 51
108.0
  0
ARC
  8
0
 62
7
  6
CONTINUOUS
 10
234.9793850522
 20
24.0288984744
 40
0.7290321776
 50
348.0
 51
48.0
  0
ARC
  8
0
 62
7
  6
CONTINUOUS
 10
229.319586389
 20
12.9913208726
 40
0.7290321776
 50
228.0
 51
288.0
  0
ARC
  8
0
 62
7
  6
CONTINUOUS
 10
221.8125111278
 20
19.7507217986
 40
0.7290321776
 50
108.0
 51
228.0
  0
ARC
  8
0
 62
7
  6
CONTINUOUS
 10
232.8791097665
 20
14.1478801272
 40
0.7290321776
 50
228.0
 51
348.0
  0
ENDBLK
  8
0
  6
BYBLOCK
 62
0
  0
ENDSEC
  0
SECTION
  2
ENTITIES
  0
TEXT
  8
0
 62
5
  6
CONTINUOUS
 10
304.937007874
 20
25.636
  7
TEXTSTYLE_2
 40
2.8
  1
Scale :
 41
0.6
 51
0.000019
 72
0
  0
TEXT
  8
0
 62
5
  6
CONTINUOUS
 10
324.937007874
 20
25.636
  7
TEXTSTYLE_2
 40
2.8
  1
Belt type:
 41
0.6
 51
0.000019
 72
0
  0
INSERT
  8
0
 62
2
  6
CONTINUOUS
  2
SYMBOL_0_BL0
 10
240.8592468615
 20
19.762288695
  0
INSERT
  8
0
 62
2
  6
CONTINUOUS
  2
SYMBOL_5_BL1
 10
382.7840918555
 20
35.5067593403
  0
LINE
  8
0
 62
2
  6
CONTINUOUS
 10
218.937007874
 20
30.0
 11
408.937007874
 21
30.0
  0
LINE
  8
0
 62
2
  6
CONTINUOUS
 10
218.937007874
 20
30.0
 11
218.937007874
 21
10.0
  0
LINE
  8
0
 62
2
  6
CONTINUOUS
 10
218.937007874
 20
10.0
 11
408.937007874
 21
10.0
  0
LINE
  8
0
 62
2
  6
CONTINUOUS
 10
303.937007874
 20
30.0
 11
303.937007874
 21
10.0
  0
LINE
  8
0
 62
2
  6
CONTINUOUS
 10
323.937007874
 20
30.0
 11
323.937007874
 21
10.0
  0
LINE
  8
0
 62
2
  6
CONTINUOUS
 10
408.937007874
 20
30.0
 11
408.937007874
 21
10.0
  0
TEXT
  8
0
 62
5
  6
CONTINUOUS
 10
221.937007874
 20
23.303
  7
TEXTSTYLE_5
 40
1.52
  1
                                                                     Ammeraal Beltech Modular A/S
 41
1.0
 72
0
  0
TEXT
  8
0
 62
5
  6
CONTINUOUS
 10
221.937007874
 20
20.595
  7
TEXTSTYLE_5
 40
1.5
  1
                                                                      Hjulmagervej 21, 7100 Vejle,  DK
 41
1.0
 72
0
  0
TEXT
  8
0
 62
5
  6
CONTINUOUS
 10
221.937007874
 20
17.881
  7
TEXTSTYLE_5
 40
1.495
  1
                                                                      tel: 
 41
1.0
 72
0
  0
TEXT
  8
0
 62
5
  6
CONTINUOUS
 10
266.9239544389
 20
17.881
  7
TEXTSTYLE_5
 40
1.51
  1
+45 75723100     fax: +45 75723348
 41
1.0
 72
0
  0
TEXT
  8
0
 62
5
  6
CONTINUOUS
 10
221.937007874
 20
15.177
  7
TEXTSTYLE_5
 40
1.5
  1
                                                                      admin@unichains.dk  www.unichains.com
 41
1.0
 72
0
  0
TEXT
  8
0
 62
5
  6
CONTINUOUS
 10
308.687007874
 20
13.75
  7
TEXTSTYLE_6
 40
5.0
  1
1:1
 41
0.7
 72
1
 11
313.937007874
 21
13.75
  0
TEXT
  8
0
 62
5
  6
CONTINUOUS
 10
326.937007874
 20
13.75
  7
TEXTSTYLE_7
 40
7.5
  1
uni Flex L-ASB R K1320    
 41
0.5076923077
 72
0
  0
LINE
  8
0
 62
7
  6
CONTINUOUS
 10
0.0
 20
0.0
 11
0.0
 21
297.0
  0
LINE
  8
0
 62
7
  6
CONTINUOUS
 10
8.937007874
 20
10.0
 11
8.937007874
 21
287.0
  0
LINE
  8
0
 62
7
  6
CONTINUOUS
 10
0.0
 20
0.0
 11
420.0
 21
0.0
  0
LINE
  8
0
 62
7
  6
CONTINUOUS
 10
408.937007874
 20
10.0
 11
8.937007874
 21
10.0
  0
LINE
  8
0
 62
7
  6
CONTINUOUS
 10
218.937007874
 20
30.0
 11
408.937007874
 21
30.0
  0
LINE
  8
0
 62
7
  6
CONTINUOUS
 10
210.0
 20
297.0
 11
210.0
 21
292.0
  0
LINE
  8
0
 62
7
  6
CONTINUOUS
 10
210.0
 20
0.0
 11
210.0
 21
5.0
  0
LINE
  8
0
 62
7
  6
CONTINUOUS
 10
8.937007874
 20
287.0
 11
408.937007874
 21
287.0
  0
LINE
  8
0
 62
7
  6
CONTINUOUS
 10
0.0
 20
297.0
 11
420.0
 21
297.0
  0
LINE
  8
0
 62
7
  6
CONTINUOUS
 10
408.937007874
 20
287.0
 11
408.937007874
 21
10.0
  0
LINE
  8
0
 62
7
  6
CONTINUOUS
 10
420.0
 20
0.0
 11
420.0
 21
297.0
  0
LINE
  8
0
 62
7
  6
CONTINUOUS
 10
16.8999145077
 20
107.4496755306
 11
16.8999145077
 21
83.9827615961
  0
LINE
  8
0
 62
7
  6
CONTINUOUS
 10
18.3299145077
 20
96.1262066212
 11
18.3299145077
 21
95.3137066212
  0
LINE
  8
0
 62
7
  6
CONTINUOUS
 10
18.3299145077
 20
91.9282900837
 11
18.3299145077
 21
90.9803731588
  0
LINE
  8
0
 62
7
  6
CONTINUOUS
 10
29.2003097244
 20
140.0932870281
 11
29.199916302
 21
140.1362066212
  0
LINE
  8
0
 62
7
  6
CONTINUOUS
 10
29.2003097244
 20
140.0932870281
 11
29.2013365638
 21
139.9042021579
  0
LINE
  8
0
 62
7
  6
CONTINUOUS
 10
29.2013365638
 20
139.9042021579
 11
29.2017984905
 21
139.6685651712
  0
LINE
  8
0
 62
7
  6
CONTINUOUS
 10
21.2341698681
 20
95.3137066212
 11
21.2341698681
 21
93.0116233525
  0
LINE
  8
0
 62
7
  6
CONTINUOUS
 10
22.0639570032
 20
92.7407900837
 11
22.0639570032
 21
95.3137066212
  0
LINE
  8
0
 62
7
  6
CONTINUOUS
 10
23.8999145077
 20
102.075925247
 11
23.8999145077
 21
100.8306929941
  0
LINE
  8
0
 62
7
  6
CONTINUOUS
 10
24.1384252284
 20
95.3137066212
 11
24.1384252284
 21
92.7407900837
  0
LINE
  8
0
 62
7
  6
CONTINUOUS
 10
24.8299145077
 20
92.8762066212
 11
24.8299145077
 21
96.1262066212
  0
LINE
  8
0
 62
7
  6
CONTINUOUS
 10
26.5999145077
 20
82.0923909088
 11
26.5999145077
 21
95.8058218635
  0
LINE
  8
0
 62
7
  6
CONTINUOUS
 10
31.8999145077
 20
129.9542159411
 11
31.8999145077
 21
118.1584523096
  0
LINE
  8
0
 62
7
  6
CONTINUOUS
 10
29.2017984905
 20
139.6685651712
 11
29.2015108562
 21
139.4700678295
  0
LINE
  8
0
 62
7
  6
CONTINUOUS
 10
29.2000879655
 20
139.2060454721
 11
29.1999145077
 21
137.0928650955
  0
LINE
  8
0
 62
7
  6
CONTINUOUS
 10
29.2015108562
 20
139.4700678295
 11
29.2000879655
 21
139.2060454721
  0
POLYLINE
  8
0
 62
7
  6
CONTINUOUS
 66
1
 70
0
  0
VERTEX
  8
0
 62
7
  6
CONTINUOUS
 10
26.5999145077
 20
82.0923909088
  0
VERTEX
  8
0
 62
7
  6
CONTINUOUS
 10
26.598407192
 20
82.0624591329
  0
VERTEX
  8
0
 62
7
  6
CONTINUOUS
 10
26.5938989021
 20
82.0326477716
  0
VERTEX
  8
0
 62
7
  6
CONTINUOUS
 10
26.5866125402
 20
82.0040511598
  0
VERTEX
  8
0
 62
7
  6
CONTINUOUS
 10
26.5765655722
 20
81.9764129318
  0
VERTEX
  8
0
 62
7
  6
CONTINUOUS
 10
26.5637284819
 20
81.9495970197
  0
VERTEX
  8
0
 62
7
  6
CONTINUOUS
 10
26.5482983523
 20
81.9241489563
  0
VERTEX
  8
0
 62
7
  6
CONTINUOUS
 10
26.5302422587
 20
81.9001964246
  0
VERTEX
  8
0
 62
7
  6
CONTINUOUS
 10
26.5096294792
 20
81.877902334
  0
VERTEX
  8
0
 62
7
  6
CONTINUOUS
 10
26.4868806884
 20
81.8577793053
  0
VERTEX
  8
0
 62
7
  6
CONTINUOUS
 10
26.4621301714
 20
81.8400369347
  0
VERTEX
  8
0
 62
7
  6
CONTINUOUS
 10
26.4352224677
 20
81.8246494898
  0
VERTEX
  8
0
 62
7
  6
CONTINUOUS
 10
26.407424893
 20
81.8123167819
  0
SEQEND
  0
LINE
  8
0
 62
7
  6
CONTINUOUS
 10
24.6916166519
 20
92.1991231588
 11
24.8299145077
 21
92.8762066212
  0
LINE
  8
0
 62
7
  6
CONTINUOUS
 10
21.5107655798
 20
92.1991231588
 11
21.7873612915
 21
91.6574566212
  0
LINE
  8
0
 62
7
  6
CONTINUOUS
 10
22.2022548591
 20
92.3345400837
 11
22.0639570032
 21
92.7407900837
  0
LINE
  8
0
 62
7
  6
CONTINUOUS
 10
41.5998704556
 20
139.1705838278
 11
41.5983181593
 21
139.4700678295
  0
LINE
  8
0
 62
7
  6
CONTINUOUS
 10
44.2499145077
 20
84.0876449677
 11
44.2503610895
 21
83.7189463596
  0
LINE
  8
0
 62
7
  6
CONTINUOUS
 10
41.5983181593
 20
139.4700678295
 11
41.5980305249
 21
139.6685651712
  0
LINE
  8
0
 62
7
  6
CONTINUOUS
 10
38.8999145077
 20
129.9542159411
 11
38.8999145077
 21
120.0580608707
  0
LINE
  8
0
 62
7
  6
CONTINUOUS
 10
41.5998704556
 20
139.1705838278
 11
41.5999145077
 21
137.0928650955
  0
LINE
  8
0
 62
7
  6
CONTINUOUS
 10
44.2499145077
 20
84.0876449677
 11
44.2499145077
 21
86.179548147
  0
LINE
  8
0
 62
7
  6
CONTINUOUS
 10
46.9499145077
 20
102.9043523718
 11
46.9499145077
 21
93.3181973014
  0
LINE
  8
0
 62
7
  6
CONTINUOUS
 10
44.2503610895
 20
83.7189463596
 11
44.250356309
 21
83.5304705937
  0
LINE
  8
0
 62
7
  6
CONTINUOUS
 10
41.5980305249
 20
139.6685651712
 11
41.5984924517
 21
139.9042021579
  0
LINE
  8
0
 62
7
  6
CONTINUOUS
 10
44.250356309
 20
83.5304705937
 11
44.2499164805
 21
83.1362066212
  0
LINE
  8
0
 62
7
  6
CONTINUOUS
 10
41.5984924517
 20
139.9042021579
 11
41.599519291
 21
140.0932870281
  0
LINE
  8
0
 62
7
  6
CONTINUOUS
 10
41.599519291
 20
140.0932870281
 11
41.5999127135
 21
140.1362066212
  0
LINE
  8
0
 62
7
  6
CONTINUOUS
 10
24.1384252284
 20
92.7407900837
 11
24.0001273726
 21
92.3345400837
  0
LINE
  8
0
 62
7
  6
CONTINUOUS
 10
38.968795023
 20
130.31893022
 11
41.5792503531
 21
136.9834508119
  0
LINE
  8
0
 62
7
  6
CONTINUOUS
 10
24.0338891039
 20
100.3306929941
 11
26.5597221289
 21
95.9558218635
  0
POLYLINE
  8
0
 62
7
  6
CONTINUOUS
 66
1
 70
0
  0
VERTEX
  8
0
 62
7
  6
CONTINUOUS
 10
44.2499164805
 20
83.1362066212
  0
VERTEX
  8
0
 62
7
  6
CONTINUOUS
 10
44.2763685185
 20
83.0008510941
  0
VERTEX
  8
0
 62
7
  6
CONTINUOUS
 10
44.3135157702
 20
82.8533470261
  0
VERTEX
  8
0
 62
7
  6
CONTINUOUS
 10
44.3589112012
 20
82.7081673321
  0
VERTEX
  8
0
 62
7
  6
CONTINUOUS
 10
44.4124097904
 20
82.5657758696
  0
VERTEX
  8
0
 62
7
  6
CONTINUOUS
 10
44.4738427107
 20
82.4266219416
  0
VERTEX
  8
0
 62
7
  6
CONTINUOUS
 10
44.5430140099
 20
82.2911494415
  0
VERTEX
  8
0
 62
7
  6
CONTINUOUS
 10
44.6197049642
 20
82.1597866654
  0
VERTEX
  8
0
 62
7
  6
CONTINUOUS
 10
44.7036715826
 20
82.0329515848
  0
VERTEX
  8
0
 62
7
  6
CONTINUOUS
 10
44.7946476779
 20
81.9110462352
  0
VERTEX
  8
0
 62
7
  6
CONTINUOUS
 10
44.8923444059
 20
81.7944576724
  0
VERTEX
  8
0
 62
7
  6
CONTINUOUS
 10
44.9964516734
 20
81.68355594
  0
VERTEX
  8
0
 62
7
  6
CONTINUOUS
 10
45.1066391167
 20
81.5786929584
  0
VERTEX
  8
0
 62
7
  6
CONTINUOUS
 10
45.2225569219
 20
81.4802016295
  0
VERTEX
  8
0
 62
7
  6
CONTINUOUS
 10
45.3438372668
 20
81.38839447
  0
VERTEX
  8
0
 62
7
  6
CONTINUOUS
 10
45.4700951818
 20
81.303562893
  0
VERTEX
  8
0
 62
7
  6
CONTINUOUS
 10
45.6009298933
 20
81.2259761618
  0
VERTEX
  8
0
 62
7
  6
CONTINUOUS
 10
45.7359263331
 20
81.15588042
  0
VERTEX
  8
0
 62
7
  6
CONTINUOUS
 10
45.8746556391
 20
81.0934983304
  0
VERTEX
  8
0
 62
7
  6
CONTINUOUS
 10
46.0166782674
 20
81.0390275579
  0
VERTEX
  8
0
 62
7
  6
CONTINUOUS
 10
46.1615422391
 20
80.9926414253
  0
VERTEX
  8
0
 62
7
  6
CONTINUOUS
 10
46.3087895443
 20
80.9544866117
  0
VERTEX
  8
0
 62
7
  6
CONTINUOUS
 10
46.457950589
 20
80.9246847787
  0
VERTEX
  8
0
 62
7
  6
CONTINUOUS
 10
46.6085545921
 20
80.903329998
  0
VERTEX
  8
0
 62
7
  6
CONTINUOUS
 10
46.7601203564
 20
80.8904904647
  0
VERTEX
  8
0
 62
7
  6
CONTINUOUS
 10
46.9121544487
 20
80.8862066212
  0
SEQEND
  0
LINE
  8
0
 62
7
  6
CONTINUOUS
 10
58.1503097244
 20
140.0932870281
 11
58.149916302
 21
140.1362066212
  0
LINE
  8
0
 62
7
  6
CONTINUOUS
 10
58.1503097244
 20
140.0932870281
 11
58.1513365638
 21
139.9042021579
  0
LINE
  8
0
 62
7
  6
CONTINUOUS
 10
58.1513365638
 20
139.9042021579
 11
58.1517984905
 21
139.6685651712
  0
LINE
  8
0
 62
7
  6
CONTINUOUS
 10
56.649912535
 20
83.1362066212
 11
56.6495300344
 21
83.376719779
  0
LINE
  8
0
 62
7
  6
CONTINUOUS
 10
53.9499145077
 20
103.5293523718
 11
53.9499145077
 21
93.3181973014
  0
LINE
  8
0
 62
7
  6
CONTINUOUS
 10
60.8499145077
 20
129.9542159411
 11
60.8499145077
 21
120.0580608707
  0
LINE
  8
0
 62
7
  6
CONTINUOUS
 10
56.6495300344
 20
83.376719779
 11
56.6495402347
 21
83.825524882
  0
LINE
  8
0
 62
7
  6
CONTINUOUS
 10
56.6495402347
 20
83.825524882
 11
56.6499145077
 21
86.179548147
  0
LINE
  8
0
 62
7
  6
CONTINUOUS
 10
58.1517984905
 20
139.6685651712
 11
58.1515108562
 21
139.4700678295
  0
LINE
  8
0
 62
7
  6
CONTINUOUS
 10
58.1500879655
 20
139.2060454721
 11
58.1499145077
 21
137.0928650955
  0
LINE
  8
0
 62
7
  6
CONTINUOUS
 10
58.1515108562
 20
139.4700678295
 11
58.1500879655
 21
139.2060454721
  0
LINE
  8
0
 62
7
  6
CONTINUOUS
 10
44.2705786623
 20
86.2889624306
 11
46.8810339924
 21
92.9534830225
  0
LINE
  8
0
 62
7
  6
CONTINUOUS
 10
22.4788505708
 20
92.0637066212
 11
22.2022548591
 21
92.3345400837
  0
LINE
  8
0
 62
7
  6
CONTINUOUS
 10
31.8310339924
 20
130.31893022
 11
29.2205786623
 21
136.9834508119
  0
LINE
  8
0
 62
7
  6
CONTINUOUS
 10
56.6292503531
 20
86.2889624306
 11
54.018795023
 21
92.9534830225
  0
POLYLINE
  8
0
 62
7
  6
CONTINUOUS
 66
1
 70
0
  0
VERTEX
  8
0
 62
7
  6
CONTINUOUS
 10
41.599912535
 20
140.1362066212
  0
VERTEX
  8
0
 62
7
  6
CONTINUOUS
 10
41.5734622942
 20
140.2715540555
  0
VERTEX
  8
0
 62
7
  6
CONTINUOUS
 10
41.5363153917
 20
140.4190586055
  0
VERTEX
  8
0
 62
7
  6
CONTINUOUS
 10
41.4909202615
 20
140.5642387939
  0
VERTEX
  8
0
 62
7
  6
CONTINUOUS
 10
41.4374219247
 20
140.7066307595
  0
VERTEX
  8
0
 62
7
  6
CONTINUOUS
 10
41.3759892084
 20
140.8457851952
  0
VERTEX
  8
0
 62
7
  6
CONTINUOUS
 10
41.3068180651
 20
140.9812582039
  0
VERTEX
  8
0
 62
7
  6
CONTINUOUS
 10
41.2301272191
 20
141.1126214858
  0
VERTEX
  8
0
 62
7
  6
CONTINUOUS
 10
41.1461606625
 20
141.2394570655
  0
VERTEX
  8
0
 62
7
  6
CONTINUOUS
 10
41.0551845836
 20
141.3613629042
  0
VERTEX
  8
0
 62
7
  6
CONTINUOUS
 10
40.9574878278
 20
141.4779519422
  0
VERTEX
  8
0
 62
7
  6
CONTINUOUS
 10
40.8533804901
 20
141.5888541328
  0
VERTEX
  8
0
 62
7
  6
CONTINUOUS
 10
40.7431929361
 20
141.6937175523
  0
VERTEX
  8
0
 62
7
  6
CONTINUOUS
 10
40.6272749816
 20
141.7922092959
  0
VERTEX
  8
0
 62
7
  6
CONTINUOUS
 10
40.5059944514
 20
141.8840168438
  0
VERTEX
  8
0
 62
7
  6
CONTINUOUS
 10
40.3797363179
 20
141.96884878
  0
VERTEX
  8
0
 62
7
  6
CONTINUOUS
 10
40.2489013572
 20
142.046435839
  0
VERTEX
  8
0
 62
7
  6
CONTINUOUS
 10
40.1139046381
 20
142.116531876
  0
VERTEX
  8
0
 62
7
  6
CONTINUOUS
 10
39.9751750273
 20
142.1789142249
  0
VERTEX
  8
0
 62
7
  6
CONTINUOUS
 10
39.8331520797
 20
142.2333852165
  0
VERTEX
  8
0
 62
7
  6
CONTINUOUS
 10
39.6882877743
 20
142.2797715284
  0
VERTEX
  8
0
 62
7
  6
CONTINUOUS
 10
39.5410400952
 20
142.3179264877
  0
VERTEX
  8
0
 62
7
  6
CONTINUOUS
 10
39.3918786434
 20
142.3477284268
  0
VERTEX
  8
0
 62
7
  6
CONTINUOUS
 10
39.2412743119
 20
142.3690832571
  0
VERTEX
  8
0
 62
7
  6
CONTINUOUS
 10
39.0897084312
 20
142.3819227906
  0
VERTEX
  8
0
 62
7
  6
CONTINUOUS
 10
38.9376745667
 20
142.3862066212
  0
SEQEND
  0
LINE
  8
0
 62
7
  6
CONTINUOUS
 10
70.5498704556
 20
139.1705838278
 11
70.5483181593
 21
139.4700678295
  0
LINE
  8
0
 62
7
  6
CONTINUOUS
 10
72.0499145077
 20
84.0876449677
 11
72.0503610895
 21
83.7189463596
  0
LINE
  8
0
 62
7
  6
CONTINUOUS
 10
70.5483181593
 20
139.4700678295
 11
70.5480305249
 21
139.6685651712
  0
LINE
  8
0
 62
7
  6
CONTINUOUS
 10
67.8499145077
 20
129.9542159411
 11
67.8499145077
 21
119.3330608707
  0
LINE
  8
0
 62
7
  6
CONTINUOUS
 10
70.5498704556
 20
139.1705838278
 11
70.5499145077
 21
137.0928650955
  0
LINE
  8
0
 62
7
  6
CONTINUOUS
 10
72.0499145077
 20
84.0876449677
 11
72.0499145077
 21
86.179548147
  0
LINE
  8
0
 62
7
  6
CONTINUOUS
 10
74.7499145077
 20
103.5293523718
 11
74.7499145077
 21
93.3181973014
  0
LINE
  8
0
 62
7
  6
CONTINUOUS
 10
72.0503610895
 20
83.7189463596
 11
72.050356309
 21
83.5304705937
  0
LINE
  8
0
 62
7
  6
CONTINUOUS
 10
70.5480305249
 20
139.6685651712
 11
70.5484924517
 21
139.9042021579
  0
LINE
  8
0
 62
7
  6
CONTINUOUS
 10
72.050356309
 20
83.5304705937
 11
72.0499164805
 21
83.1362066212
  0
LINE
  8
0
 62
7
  6
CONTINUOUS
 10
70.5484924517
 20
139.9042021579
 11
70.549519291
 21
140.0932870281
  0
LINE
  8
0
 62
7
  6
CONTINUOUS
 10
70.549519291
 20
140.0932870281
 11
70.5499127135
 21
140.1362066212
  0
LINE
  8
0
 62
7
  6
CONTINUOUS
 10
67.918795023
 20
130.31893022
 11
70.5292503531
 21
136.9834508119
  0
LINE
  8
0
 62
7
  6
CONTINUOUS
 10
24.2767230843
 20
91.6574566212
 11
24.6916166519
 21
92.1991231588
  0
LINE
  8
0
 62
7
  6
CONTINUOUS
 10
29.0533416325
 20
109.714633746
 11
25.6572738206
 21
106.3185659341
  0
LINE
  8
0
 62
7
  6
CONTINUOUS
 10
21.7873612915
 20
91.6574566212
 11
22.3405527149
 21
91.2512066212
  0
LINE
  8
0
 62
7
  6
CONTINUOUS
 10
60.7810339924
 20
130.31893022
 11
58.1705786623
 21
136.9834508119
  0
POLYLINE
  8
0
 62
7
  6
CONTINUOUS
 66
1
 70
0
  0
VERTEX
  8
0
 62
7
  6
CONTINUOUS
 10
72.0499164805
 20
83.1362066212
  0
VERTEX
  8
0
 62
7
  6
CONTINUOUS
 10
72.076368519
 20
83.000851092
  0
VERTEX
  8
0
 62
7
  6
CONTINUOUS
 10
72.1135157713
 20
82.853347022
  0
VERTEX
  8
0
 62
7
  6
CONTINUOUS
 10
72.1589112033
 20
82.7081673261
  0
VERTEX
  8
0
 62
7
  6
CONTINUOUS
 10
72.2124097936
 20
82.5657758617
  0
VERTEX
  8
0
 62
7
  6
CONTINUOUS
 10
72.2738427152
 20
82.426621932
  0
VERTEX
  8
0
 62
7
  6
CONTINUOUS
 10
72.343014016
 20
82.2911494303
  0
VERTEX
  8
0
 62
7
  6
CONTINUOUS
 10
72.4197049721
 20
82.1597866528
  0
VERTEX
  8
0
 62
7
  6
CONTINUOUS
 10
72.5036715924
 20
82.0329515709
  0
VERTEX
  8
0
 62
7
  6
CONTINUOUS
 10
72.5946476898
 20
81.9110462202
  0
VERTEX
  8
0
 62
7
  6
CONTINUOUS
 10
72.69234442
 20
81.7944576565
  0
VERTEX
  8
0
 62
7
  6
CONTINUOUS
 10
72.7964516899
 20
81.6835559234
  0
VERTEX
  8
0
 62
7
  6
CONTINUOUS
 10
72.9066391357
 20
81.5786929413
  0
VERTEX
  8
0
 62
7
  6
CONTINUOUS
 10
73.0225569435
 20
81.4802016122
  0
VERTEX
  8
0
 62
7
  6
CONTINUOUS
 10
73.143837291
 20
81.3883944527
  0
VERTEX
  8
0
 62
7
  6
CONTINUOUS
 10
73.2700952088
 20
81.303562876
  0
VERTEX
  8
0
 62
7
  6
CONTINUOUS
 10
73.400929923
 20
81.2259761453
  0
VERTEX
  8
0
 62
7
  6
CONTINUOUS
 10
73.5359263657
 20
81.1558804042
  0
VERTEX
  8
0
 62
7
  6
CONTINUOUS
 10
73.6746556746
 20
81.0934983157
  0
VERTEX
  8
0
 62
7
  6
CONTINUOUS
 10
73.8166783054
 20
81.0390275445
  0
VERTEX
  8
0
 62
7
  6
CONTINUOUS
 10
73.9615422793
 20
80.9926414136
  0
VERTEX
  8
0
 62
7
  6
CONTINUOUS
 10
74.1087895881
 20
80.9544866016
  0
VERTEX
  8
0
 62
7
  6
CONTINUOUS
 10
74.2579506376
 20
80.9246847704
  0
VERTEX
  8
0
 62
7
  6
CONTINUOUS
 10
74.4085546403
 20
80.9033299925
  0
VERTEX
  8
0
 62
7
  6
CONTINUOUS
 10
74.5601203909
 20
80.8904904628
  0
VERTEX
  8
0
 62
7
  6
CONTINUOUS
 10
74.7121544487
 20
80.8862066212
  0
SEQEND
  0
LINE
  8
0
 62
7
  6
CONTINUOUS
 10
84.7503097244
 20
140.0932870281
 11
84.749916302
 21
140.1362066212
  0
LINE
  8
0
 62
7
  6
CONTINUOUS
 10
84.7503097244
 20
140.0932870281
 11
84.7513365638
 21
139.9042021579
  0
LINE
  8
0
 62
7
  6
CONTINUOUS
 10
84.7513365638
 20
139.9042021579
 11
84.7517984905
 21
139.6685651712
  0
LINE
  8
0
 62
7
  6
CONTINUOUS
 10
84.449912535
 20
83.1362066212
 11
84.4495300344
 21
83.376719779
  0
LINE
  8
0
 62
7
  6
CONTINUOUS
 10
81.7499145077
 20
103.5293523718
 11
81.7499145077
 21
93.3181973014
  0
LINE
  8
0
 62
7
  6
CONTINUOUS
 10
87.4499145077
 20
129.9542159411
 11
87.4499145077
 21
119.3330608707
  0
LINE
  8
0
 62
7
  6
CONTINUOUS
 10
84.4495300344
 20
83.376719779
 11
84.4495402347
 21
83.825524882
  0
LINE
  8
0
 62
7
  6
CONTINUOUS
 10
84.4495402347
 20
83.825524882
 11
84.4499145077
 21
86.179548147
  0
LINE
  8
0
 62
7
  6
CONTINUOUS
 10
84.7517984905
 20
139.6685651712
 11
84.7515108562
 21
139.4700678295
  0
LINE
  8
0
 62
7
  6
CONTINUOUS
 10
84.7500879655
 20
139.2060454721
 11
84.7499145077
 21
137.0928650955
  0
LINE
  8
0
 62
7
  6
CONTINUOUS
 10
84.7515108562
 20
139.4700678295
 11
84.7500879655
 21
139.2060454721
  0
LINE
  8
0
 62
7
  6
CONTINUOUS
 10
72.0705786623
 20
86.2889624306
 11
74.6810339924
 21
92.9534830225
  0
LINE
  8
0
 62
7
  6
CONTINUOUS
 10
56.246487383
 20
113.7977794965
 11
59.6783416325
 21
117.229633746
  0
LINE
  8
0
 62
7
  6
CONTINUOUS
 10
24.0001273726
 20
92.3345400837
 11
23.7235316609
 21
92.0637066212
  0
LINE
  8
0
 62
7
  6
CONTINUOUS
 10
41.796487383
 20
109.714633746
 11
45.7783416325
 21
105.7327794965
  0
LINE
  8
0
 62
7
  6
CONTINUOUS
 10
40.071487383
 20
117.229633746
 11
43.5033416325
 21
113.7977794965
  0
LINE
  8
0
 62
7
  6
CONTINUOUS
 10
84.4292503531
 20
86.2889624306
 11
81.818795023
 21
92.9534830225
  0
POLYLINE
  8
0
 62
7
  6
CONTINUOUS
 66
1
 70
0
  0
VERTEX
  8
0
 62
7
  6
CONTINUOUS
 10
70.549912535
 20
140.1362066212
  0
VERTEX
  8
0
 62
7
  6
CONTINUOUS
 10
70.5234622966
 20
140.2715540448
  0
VERTEX
  8
0
 62
7
  6
CONTINUOUS
 10
70.4863153976
 20
140.4190585843
  0
VERTEX
  8
0
 62
7
  6
CONTINUOUS
 10
70.4409202723
 20
140.5642387627
  0
VERTEX
  8
0
 62
7
  6
CONTINUOUS
 10
70.3874219414
 20
140.7066307187
  0
VERTEX
  8
0
 62
7
  6
CONTINUOUS
 10
70.3259892321
 20
140.8457851455
  0
VERTEX
  8
0
 62
7
  6
CONTINUOUS
 10
70.2568180968
 20
140.9812581459
  0
VERTEX
  8
0
 62
7
  6
CONTINUOUS
 10
70.1801272598
 20
141.1126214203
  0
VERTEX
  8
0
 62
7
  6
CONTINUOUS
 10
70.0961607132
 20
141.2394569935
  0
VERTEX
  8
0
 62
7
  6
CONTINUOUS
 10
70.005184645
 20
141.3613628264
  0
VERTEX
  8
0
 62
7
  6
CONTINUOUS
 10
69.9074879009
 20
141.4779518598
  0
VERTEX
  8
0
 62
7
  6
CONTINUOUS
 10
69.8033805755
 20
141.5888540469
  0
VERTEX
  8
0
 62
7
  6
CONTINUOUS
 10
69.6931930343
 20
141.693717464
  0
VERTEX
  8
0
 62
7
  6
CONTINUOUS
 10
69.5772750933
 20
141.7922092063
  0
VERTEX
  8
0
 62
7
  6
CONTINUOUS
 10
69.455994577
 20
141.8840167542
  0
VERTEX
  8
0
 62
7
  6
CONTINUOUS
 10
69.3297364575
 20
141.9688486918
  0
VERTEX
  8
0
 62
7
  6
CONTINUOUS
 10
69.198901511
 20
142.0464357536
  0
VERTEX
  8
0
 62
7
  6
CONTINUOUS
 10
69.0639048069
 20
142.1165317943
  0
VERTEX
  8
0
 62
7
  6
CONTINUOUS
 10
68.9251752112
 20
142.1789141483
  0
VERTEX
  8
0
 62
7
  6
CONTINUOUS
 10
68.7831522764
 20
142.2333851473
  0
VERTEX
  8
0
 62
7
  6
CONTINUOUS
 10
68.6382879823
 20
142.2797714682
  0
VERTEX
  8
0
 62
7
  6
CONTINUOUS
 10
68.491040322
 20
142.3179264358
  0
VERTEX
  8
0
 62
7
  6
CONTINUOUS
 10
68.3418788952
 20
142.3477283838
  0
VERTEX
  8
0
 62
7
  6
CONTINUOUS
 10
68.1912745612
 20
142.3690832289
  0
VERTEX
  8
0
 62
7
  6
CONTINUOUS
 10
68.0397086099
 20
142.3819227805
  0
VERTEX
  8
0
 62
7
  6
CONTINUOUS
 10
67.8876745667
 20
142.3862066212
  0
SEQEND
  0
POLYLINE
  8
0
 62
7
  6
CONTINUOUS
 66
1
 70
0
  0
VERTEX
  8
0
 62
7
  6
CONTINUOUS
 10
94.4499145077
 20
116.1881228484
  0
VERTEX
  8
0
 62
7
  6
CONTINUOUS
 10
94.4518211747
 20
116.1128753183
  0
VERTEX
  8
0
 62
7
  6
CONTINUOUS
 10
94.4569312825
 20
116.0441937405
  0
VERTEX
  8
0
 62
7
  6
CONTINUOUS
 10
94.4643090574
 20
115.9825920184
  0
VERTEX
  8
0
 62
7
  6
CONTINUOUS
 10
94.4730239823
 20
115.9284647518
  0
VERTEX
  8
0
 62
7
  6
CONTINUOUS
 10
94.4821968143
 20
115.8820660625
  0
VERTEX
  8
0
 62
7
  6
CONTINUOUS
 10
94.4910413132
 20
115.8435147799
  0
VERTEX
  8
0
 62
7
  6
CONTINUOUS
 10
94.4988939933
 20
115.8128201467
  0
VERTEX
  8
0
 62
7
  6
CONTINUOUS
 10
94.5052290486
 20
115.7899205815
  0
VERTEX
  8
0
 62
7
  6
CONTINUOUS
 10
94.5096607074
 20
115.7747254874
  0
SEQEND
  0
LINE
  8
0
 62
7
  6
CONTINUOUS
 10
97.1498704556
 20
139.1705838278
 11
97.1483181593
 21
139.4700678295
  0
LINE
  8
0
 62
7
  6
CONTINUOUS
 10
97.4499145077
 20
85.0908020644
 11
97.4515256358
 21
84.7192803042
  0
LINE
  8
0
 62
7
  6
CONTINUOUS
 10
97.4515256358
 20
84.7192803042
 11
97.4522448207
 21
84.4160726622
  0
LINE
  8
0
 62
7
  6
CONTINUOUS
 10
97.1483181593
 20
139.4700678295
 11
97.1480305249
 21
139.6685651712
  0
LINE
  8
0
 62
7
  6
CONTINUOUS
 10
94.4499145077
 20
129.9542159411
 11
94.4499145077
 21
114.711781763
  0
LINE
  8
0
 62
7
  6
CONTINUOUS
 10
97.1498704556
 20
139.1705838278
 11
97.1499145077
 21
137.0928650955
  0
LINE
  8
0
 62
7
  6
CONTINUOUS
 10
97.4499145077
 20
85.0908020644
 11
97.4499145077
 21
86.179548147
  0
LINE
  8
0
 62
7
  6
CONTINUOUS
 10
100.1499145077
 20
107.8862066212
 11
100.1499145077
 21
93.3181973014
  0
LINE
  8
0
 62
7
  6
CONTINUOUS
 10
107.1499145077
 20
106.8362066212
 11
107.1499145077
 21
93.3186727767
  0
LINE
  8
0
 62
7
  6
CONTINUOUS
 10
97.4522448207
 20
84.4160726622
 11
97.452298196
 21
83.8875775546
  0
LINE
  8
0
 62
7
  6
CONTINUOUS
 10
97.452298196
 20
83.8875775546
 11
97.4516907258
 21
83.5724336126
  0
LINE
  8
0
 62
7
  6
CONTINUOUS
 10
97.1480305249
 20
139.6685651712
 11
97.1484924517
 21
139.9042021579
  0
POLYLINE
  8
0
 62
7
  6
CONTINUOUS
 66
1
 70
0
  0
VERTEX
  8
0
 62
7
  6
CONTINUOUS
 10
97.4516907258
 20
83.5724336126
  0
VERTEX
  8
0
 62
7
  6
CONTINUOUS
 10
97.4500766286
 20
83.1626116597
  0
VERTEX
  8
0
 62
7
  6
CONTINUOUS
 10
97.449928029
 20
83.1362066212
  0
SEQEND
  0
LINE
  8
0
 62
7
  6
CONTINUOUS
 10
97.1484924517
 20
139.9042021579
 11
97.149519291
 21
140.0932870281
  0
LINE
  8
0
 62
7
  6
CONTINUOUS
 10
97.149519291
 20
140.0932870281
 11
97.1499127135
 21
140.1362066212
  0
LINE
  8
0
 62
7
  6
CONTINUOUS
 10
94.518795023
 20
130.31893022
 11
97.1292503531
 21
136.9834508119
  0
LINE
  8
0
 62
7
  6
CONTINUOUS
 10
57.9783416325
 20
109.214633746
 11
55.121487383
 21
106.3577794965
  0
LINE
  8
0
 62
7
  6
CONTINUOUS
 10
23.7235316609
 20
91.2512066212
 11
24.2767230843
 21
91.6574566212
  0
LINE
  8
0
 62
7
  6
CONTINUOUS
 10
70.721487383
 20
109.214633746
 11
73.5783416325
 21
106.3577794965
  0
LINE
  8
0
 62
7
  6
CONTINUOUS
 10
69.021487383
 20
116.504633746
 11
71.2783416325
 21
114.2477794965
  0
POLYLINE
  8
0
 62
7
  6
CONTINUOUS
 66
1
 70
0
  0
VERTEX
  8
0
 62
7
  6
CONTINUOUS
 10
97.449928029
 20
83.1362066212
  0
VERTEX
  8
0
 62
7
  6
CONTINUOUS
 10
97.5061894598
 20
83.011801422
  0
VERTEX
  8
0
 62
7
  6
CONTINUOUS
 10
97.5757874636
 20
82.8774689098
  0
VERTEX
  8
0
 62
7
  6
CONTINUOUS
 10
97.65279707
 20
82.7472505944
  0
VERTEX
  8
0
 62
7
  6
CONTINUOUS
 10
97.7369810935
 20
82.6215471395
  0
VERTEX
  8
0
 62
7
  6
CONTINUOUS
 10
97.8280753165
 20
82.5007540263
  0
VERTEX
  8
0
 62
7
  6
CONTINUOUS
 10
97.9257898732
 20
82.3852555299
  0
VERTEX
  8
0
 62
7
  6
CONTINUOUS
 10
98.0298190151
 20
82.2754124035
  0
VERTEX
  8
0
 62
7
  6
CONTINUOUS
 10
98.1398391236
 20
82.1715665231
  0
VERTEX
  8
0
 62
7
  6
CONTINUOUS
 10
98.2555024494
 20
82.0740463807
  0
VERTEX
  8
0
 62
7
  6
CONTINUOUS
 10
98.3764453304
 20
81.9831584055
  0
VERTEX
  8
0
 62
7
  6
CONTINUOUS
 10
98.5022890663
 20
81.8991870883
  0
VERTEX
  8
0
 62
7
  6
CONTINUOUS
 10
98.6326380364
 20
81.8223963883
  0
VERTEX
  8
0
 62
7
  6
CONTINUOUS
 10
98.7670840683
 20
81.7530268009
  0
VERTEX
  8
0
 62
7
  6
CONTINUOUS
 10
98.9052048088
 20
81.6912963634
  0
VERTEX
  8
0
 62
7
  6
CONTINUOUS
 10
99.0465635189
 20
81.637400047
  0
VERTEX
  8
0
 62
7
  6
CONTINUOUS
 10
99.1907197918
 20
81.5915055863
  0
VERTEX
  8
0
 62
7
  6
CONTINUOUS
 10
99.3372234614
 20
81.5537566624
  0
VERTEX
  8
0
 62
7
  6
CONTINUOUS
 10
99.4856088559
 20
81.5242733181
  0
VERTEX
  8
0
 62
7
  6
CONTINUOUS
 10
99.6354089168
 20
81.5031478073
  0
VERTEX
  8
0
 62
7
  6
CONTINUOUS
 10
99.7861625229
 20
81.4904453076
  0
VERTEX
  8
0
 62
7
  6
CONTINUOUS
 10
99.9373931834
 20
81.4862066212
  0
SEQEND
  0
LINE
  8
0
 62
7
  6
CONTINUOUS
 10
87.3810339924
 20
130.31893022
 11
84.7705786623
 21
136.9834508119
  0
LINE
  8
0
 62
7
  6
CONTINUOUS
 10
109.8292529829
 20
86.2889594504
 11
107.2187862569
 21
92.9539808785
  0
LINE
  8
0
 62
7
  6
CONTINUOUS
 10
94.5096607074
 20
115.7747254874
 11
94.5122227541
 21
115.7662066212
  0
POLYLINE
  8
0
 62
7
  6
CONTINUOUS
 66
1
 70
0
  0
VERTEX
  8
0
 62
7
  6
CONTINUOUS
 10
97.149912535
 20
140.1362066212
  0
VERTEX
  8
0
 62
7
  6
CONTINUOUS
 10
97.1234622992
 20
140.271554033
  0
VERTEX
  8
0
 62
7
  6
CONTINUOUS
 10
97.0863154042
 20
140.4190585611
  0
VERTEX
  8
0
 62
7
  6
CONTINUOUS
 10
97.040920284
 20
140.5642387285
  0
VERTEX
  8
0
 62
7
  6
CONTINUOUS
 10
96.9874219596
 20
140.7066306741
  0
VERTEX
  8
0
 62
7
  6
CONTINUOUS
 10
96.9259892579
 20
140.8457850911
  0
VERTEX
  8
0
 62
7
  6
CONTINUOUS
 10
96.8568181314
 20
140.9812580825
  0
VERTEX
  8
0
 62
7
  6
CONTINUOUS
 10
96.7801273044
 20
141.1126213488
  0
VERTEX
  8
0
 62
7
  6
CONTINUOUS
 10
96.6961607686
 20
141.2394569147
  0
VERTEX
  8
0
 62
7
  6
CONTINUOUS
 10
96.6051847123
 20
141.3613627414
  0
VERTEX
  8
0
 62
7
  6
CONTINUOUS
 10
96.5074879808
 20
141.4779517697
  0
VERTEX
  8
0
 62
7
  6
CONTINUOUS
 10
96.4033806688
 20
141.5888539529
  0
VERTEX
  8
0
 62
7
  6
CONTINUOUS
 10
96.2931931418
 20
141.6937173674
  0
VERTEX
  8
0
 62
7
  6
CONTINUOUS
 10
96.1772752154
 20
141.7922091083
  0
VERTEX
  8
0
 62
7
  6
CONTINUOUS
 10
96.0559947142
 20
141.8840166563
  0
VERTEX
  8
0
 62
7
  6
CONTINUOUS
 10
95.9297366101
 20
141.9688485954
  0
VERTEX
  8
0
 62
7
  6
CONTINUOUS
 10
95.7989016791
 20
142.0464356602
  0
VERTEX
  8
0
 62
7
  6
CONTINUOUS
 10
95.6639049914
 20
142.116531705
  0
VERTEX
  8
0
 62
7
  6
CONTINUOUS
 10
95.5251754123
 20
142.1789140646
  0
VERTEX
  8
0
 62
7
  6
CONTINUOUS
 10
95.3831524914
 20
142.2333850717
  0
VERTEX
  8
0
 62
7
  6
CONTINUOUS
 10
95.2382882097
 20
142.2797714024
  0
VERTEX
  8
0
 62
7
  6
CONTINUOUS
 10
95.0910405698
 20
142.3179263789
  0
VERTEX
  8
0
 62
7
  6
CONTINUOUS
 10
94.9418791705
 20
142.3477283368
  0
VERTEX
  8
0
 62
7
  6
CONTINUOUS
 10
94.7912748337
 20
142.3690831981
  0
VERTEX
  8
0
 62
7
  6
CONTINUOUS
 10
94.6397088053
 20
142.3819227695
  0
VERTEX
  8
0
 62
7
  6
CONTINUOUS
 10
94.4876745667
 20
142.3862066212
  0
SEQEND
  0
POLYLINE
  8
0
 62
7
  6
CONTINUOUS
 66
1
 70
0
  0
VERTEX
  8
0
 62
7
  6
CONTINUOUS
 10
119.8499145077
 20
116.1881228484
  0
VERTEX
  8
0
 62
7
  6
CONTINUOUS
 10
119.8518211747
 20
116.1128753182
  0
VERTEX
  8
0
 62
7
  6
CONTINUOUS
 10
119.8569312825
 20
116.0441937403
  0
VERTEX
  8
0
 62
7
  6
CONTINUOUS
 10
119.8643090575
 20
115.9825920182
  0
VERTEX
  8
0
 62
7
  6
CONTINUOUS
 10
119.8730239824
 20
115.9284647516
  0
VERTEX
  8
0
 62
7
  6
CONTINUOUS
 10
119.8821968144
 20
115.8820660623
  0
VERTEX
  8
0
 62
7
  6
CONTINUOUS
 10
119.8910413133
 20
115.8435147798
  0
VERTEX
  8
0
 62
7
  6
CONTINUOUS
 10
119.8988939933
 20
115.8128201465
  0
VERTEX
  8
0
 62
7
  6
CONTINUOUS
 10
119.9052290486
 20
115.7899205814
  0
VERTEX
  8
0
 62
7
  6
CONTINUOUS
 10
119.9096607074
 20
115.7747254874
  0
SEQEND
  0
LINE
  8
0
 62
7
  6
CONTINUOUS
 10
110.1499266434
 20
140.1362066212
 11
110.1525890985
 21
139.9988661733
  0
LINE
  8
0
 62
7
  6
CONTINUOUS
 10
110.1525890985
 20
139.9988661733
 11
110.1555958979
 21
139.8006415712
  0
LINE
  8
0
 62
7
  6
CONTINUOUS
 10
110.1555958979
 20
139.8006415712
 11
110.1577412307
 21
139.6234870908
  0
LINE
  8
0
 62
7
  6
CONTINUOUS
 10
110.1577412307
 20
139.6234870908
 11
110.1593475765
 21
139.4125607184
  0
LINE
  8
0
 62
7
  6
CONTINUOUS
 10
109.8499009864
 20
83.1362066212
 11
109.8491627851
 21
83.2789807925
  0
LINE
  8
0
 62
7
  6
CONTINUOUS
 10
109.8491627851
 20
83.2789807925
 11
109.8476559737
 21
83.7741421508
  0
POLYLINE
  8
0
 62
7
  6
CONTINUOUS
 66
1
 70
0
  0
VERTEX
  8
0
 62
7
  6
CONTINUOUS
 10
110.1593475765
 20
139.4125607184
  0
VERTEX
  8
0
 62
7
  6
CONTINUOUS
 10
110.1600556163
 20
139.1707130961
  0
VERTEX
  8
0
 62
7
  6
CONTINUOUS
 10
110.1600026617
 20
139.039137012
  0
VERTEX
  8
0
 62
7
  6
CONTINUOUS
 10
110.1595603469
 20
138.900912353
  0
VERTEX
  8
0
 62
7
  6
CONTINUOUS
 10
110.1586061018
 20
138.7564440116
  0
VERTEX
  8
0
 62
7
  6
CONTINUOUS
 10
110.1570580625
 20
138.6064149524
  0
VERTEX
  8
0
 62
7
  6
CONTINUOUS
 10
110.154849716
 20
138.4512244168
  0
VERTEX
  8
0
 62
7
  6
CONTINUOUS
 10
110.1508030122
 20
138.2274370488
  0
SEQEND
  0
LINE
  8
0
 62
7
  6
CONTINUOUS
 10
112.8499145077
 20
129.9542159411
 11
112.8499145077
 21
114.711781763
  0
LINE
  8
0
 62
7
  6
CONTINUOUS
 10
119.8499145077
 20
129.9542159411
 11
119.8499145077
 21
114.711781763
  0
LINE
  8
0
 62
7
  6
CONTINUOUS
 10
109.8476559737
 20
83.7741421508
 11
109.8474742692
 21
84.2735036654
  0
LINE
  8
0
 62
7
  6
CONTINUOUS
 10
109.8474742692
 20
84.2735036654
 11
109.8478523853
 21
84.5649171875
  0
LINE
  8
0
 62
7
  6
CONTINUOUS
 10
109.8497802969
 20
85.0430322316
 11
109.8499145077
 21
86.179551881
  0
POLYLINE
  8
0
 62
7
  6
CONTINUOUS
 66
1
 70
0
  0
VERTEX
  8
0
 62
7
  6
CONTINUOUS
 10
109.8478523853
 20
84.5649171875
  0
VERTEX
  8
0
 62
7
  6
CONTINUOUS
 10
109.8489411313
 20
84.8788311275
  0
VERTEX
  8
0
 62
7
  6
CONTINUOUS
 10
109.8497802969
 20
85.0430322316
  0
SEQEND
  0
LINE
  8
0
 62
7
  6
CONTINUOUS
 10
122.5400092868
 20
139.2953326926
 11
122.5411843722
 21
139.522053646
  0
POLYLINE
  8
0
 62
7
  6
CONTINUOUS
 66
1
 70
0
  0
VERTEX
  8
0
 62
7
  6
CONTINUOUS
 10
110.1508030122
 20
138.2274370488
  0
VERTEX
  8
0
 62
7
  6
CONTINUOUS
 10
110.1501393867
 20
138.1631213241
  0
VERTEX
  8
0
 62
7
  6
CONTINUOUS
 10
110.1499145077
 20
137.0928650955
  0
SEQEND
  0
LINE
  8
0
 62
7
  6
CONTINUOUS
 10
122.5411843722
 20
139.522053646
 11
122.5431265356
 21
139.7164134399
  0
LINE
  8
0
 62
7
  6
CONTINUOUS
 10
122.5431265356
 20
139.7164134399
 11
122.5463352451
 21
139.9421931847
  0
LINE
  8
0
 62
7
  6
CONTINUOUS
 10
122.5463352451
 20
139.9421931847
 11
122.5487882047
 21
140.0832734956
  0
LINE
  8
0
 62
7
  6
CONTINUOUS
 10
122.5487882047
 20
140.0832734956
 11
122.549902372
 21
140.1362066212
  0
POLYLINE
  8
0
 62
7
  6
CONTINUOUS
 66
1
 70
0
  0
VERTEX
  8
0
 62
7
  6
CONTINUOUS
 10
112.790168308
 20
115.7747254873
  0
VERTEX
  8
0
 62
7
  6
CONTINUOUS
 10
112.7945999668
 20
115.7899205814
  0
VERTEX
  8
0
 62
7
  6
CONTINUOUS
 10
112.8009350221
 20
115.8128201465
  0
VERTEX
  8
0
 62
7
  6
CONTINUOUS
 10
112.8087877022
 20
115.8435147798
  0
VERTEX
  8
0
 62
7
  6
CONTINUOUS
 10
112.817632201
 20
115.8820660623
  0
VERTEX
  8
0
 62
7
  6
CONTINUOUS
 10
112.8268050331
 20
115.9284647516
  0
VERTEX
  8
0
 62
7
  6
CONTINUOUS
 10
112.835519958
 20
115.9825920183
  0
VERTEX
  8
0
 62
7
  6
CONTINUOUS
 10
112.8428977329
 20
116.0441937403
  0
VERTEX
  8
0
 62
7
  6
CONTINUOUS
 10
112.8480078407
 20
116.1128753182
  0
VERTEX
  8
0
 62
7
  6
CONTINUOUS
 10
112.8499145077
 20
116.1881228484
  0
SEQEND
  0
LINE
  8
0
 62
7
  6
CONTINUOUS
 10
112.7876062613
 20
115.7662066212
 11
112.790168308
 21
115.7747254873
  0
LINE
  8
0
 62
7
  6
CONTINUOUS
 10
100.0810339924
 20
92.9534830225
 11
97.4705786623
 21
86.2889624306
  0
LINE
  8
0
 62
7
  6
CONTINUOUS
 10
119.918795023
 20
130.31893022
 11
122.5292503531
 21
136.9834508119
  0
LINE
  8
0
 62
7
  6
CONTINUOUS
 10
84.021487383
 20
114.2477794965
 11
86.2783416325
 21
116.504633746
  0
LINE
  8
0
 62
7
  6
CONTINUOUS
 10
85.2783416325
 20
108.714633746
 11
82.921487383
 21
106.3577794965
  0
LINE
  8
0
 62
7
  6
CONTINUOUS
 10
29.376257932
 20
114.4408710941
 11
18.7926569395
 21
110.2378614422
  0
LINE
  8
0
 62
7
  6
CONTINUOUS
 10
22.3405527149
 20
91.2512066212
 11
22.7554462825
 21
91.1157900837
  0
LINE
  8
0
 62
7
  6
CONTINUOUS
 10
22.8937441383
 20
91.9282900837
 11
22.4788505708
 21
92.0637066212
  0
POLYLINE
  8
0
 62
7
  6
CONTINUOUS
 66
1
 70
0
  0
VERTEX
  8
0
 62
7
  6
CONTINUOUS
 10
122.8499184548
 20
83.1362066212
  0
VERTEX
  8
0
 62
7
  6
CONTINUOUS
 10
122.8861767248
 20
83.0044018261
  0
VERTEX
  8
0
 62
7
  6
CONTINUOUS
 10
122.9335476377
 20
82.8621846859
  0
VERTEX
  8
0
 62
7
  6
CONTINUOUS
 10
122.9887342273
 20
82.7228245681
  0
VERTEX
  8
0
 62
7
  6
CONTINUOUS
 10
123.0515686761
 20
82.586742781
  0
VERTEX
  8
0
 62
7
  6
CONTINUOUS
 10
123.1218625524
 20
82.454349093
  0
VERTEX
  8
0
 62
7
  6
CONTINUOUS
 10
123.1993948779
 20
82.3260612582
  0
VERTEX
  8
0
 62
7
  6
CONTINUOUS
 10
123.2839238756
 20
82.2022782978
  0
VERTEX
  8
0
 62
7
  6
CONTINUOUS
 10
123.3751911446
 20
82.0833776595
  0
VERTEX
  8
0
 62
7
  6
CONTINUOUS
 10
123.4729190624
 20
81.96972153
  0
VERTEX
  8
0
 62
7
  6
CONTINUOUS
 10
123.5768034521
 20
81.8616642152
  0
VERTEX
  8
0
 62
7
  6
CONTINUOUS
 10
123.6865230393
 20
81.7595396455
  0
VERTEX
  8
0
 62
7
  6
CONTINUOUS
 10
123.8017406856
 20
81.6636614014
  0
VERTEX
  8
0
 62
7
  6
CONTINUOUS
 10
123.9221015179
 20
81.5743247795
  0
VERTEX
  8
0
 62
7
  6
CONTINUOUS
 10
124.0472344095
 20
81.4918052429
  0
VERTEX
  8
0
 62
7
  6
CONTINUOUS
 10
124.1767551846
 20
81.4163562836
  0
VERTEX
  8
0
 62
7
  6
CONTINUOUS
 10
124.3102637836
 20
81.3482111427
  0
VERTEX
  8
0
 62
7
  6
CONTINUOUS
 10
124.4473442153
 20
81.2875817779
  0
VERTEX
  8
0
 62
7
  6
CONTINUOUS
 10
124.5875782443
 20
81.2346527977
  0
VERTEX
  8
0
 62
7
  6
CONTINUOUS
 10
124.7305384306
 20
81.1895860307
  0
VERTEX
  8
0
 62
7
  6
CONTINUOUS
 10
124.8757804521
 20
81.1525221074
  0
VERTEX
  8
0
 62
7
  6
CONTINUOUS
 10
125.022846307
 20
81.1235772041
  0
VERTEX
  8
0
 62
7
  6
CONTINUOUS
 10
125.1712925091
 20
81.1028378771
  0
VERTEX
  8
0
 62
7
  6
CONTINUOUS
 10
125.3206702132
 20
81.0903676857
  0
VERTEX
  8
0
 62
7
  6
CONTINUOUS
 10
125.4705113497
 20
81.0862066212
  0
SEQEND
  0
POLYLINE
  8
0
 62
7
  6
CONTINUOUS
 66
1
 70
0
  0
VERTEX
  8
0
 62
7
  6
CONTINUOUS
 10
122.5449792994
 20
138.4512244168
  0
VERTEX
  8
0
 62
7
  6
CONTINUOUS
 10
122.542770953
 20
138.6064149524
  0
VERTEX
  8
0
 62
7
  6
CONTINUOUS
 10
122.5412229136
 20
138.7564440116
  0
VERTEX
  8
0
 62
7
  6
CONTINUOUS
 10
122.5402686686
 20
138.900912353
  0
VERTEX
  8
0
 62
7
  6
CONTINUOUS
 10
122.5398263537
 20
139.039137012
  0
SEQEND
  0
POLYLINE
  8
0
 62
7
  6
CONTINUOUS
 66
1
 70
0
  0
VERTEX
  8
0
 62
7
  6
CONTINUOUS
 10
122.5496896291
 20
138.1631212714
  0
VERTEX
  8
0
 62
7
  6
CONTINUOUS
 10
122.5490260039
 20
138.2274369964
  0
VERTEX
  8
0
 62
7
  6
CONTINUOUS
 10
122.5449792994
 20
138.4512244168
  0
SEQEND
  0
POLYLINE
  8
0
 62
7
  6
CONTINUOUS
 66
1
 70
0
  0
VERTEX
  8
0
 62
7
  6
CONTINUOUS
 10
135.2499105606
 20
83.1362066212
  0
VERTEX
  8
0
 62
7
  6
CONTINUOUS
 10
135.2495877479
 20
83.2587774736
  0
VERTEX
  8
0
 62
7
  6
CONTINUOUS
 10
135.2494646359
 20
83.311021429
  0
SEQEND
  0
LINE
  8
0
 62
7
  6
CONTINUOUS
 10
122.8499145077
 20
84.4591048205
 11
122.8507719866
 21
84.0334187733
  0
LINE
  8
0
 62
7
  6
CONTINUOUS
 10
135.2494646359
 20
83.311021429
 11
135.2489764962
 21
83.7029522255
  0
LINE
  8
0
 62
7
  6
CONTINUOUS
 10
122.5496896291
 20
138.1631212714
 11
122.5499145077
 21
137.0928650955
  0
LINE
  8
0
 62
7
  6
CONTINUOUS
 10
122.8499145077
 20
84.4591048205
 11
122.8499145077
 21
86.179551881
  0
LINE
  8
0
 62
7
  6
CONTINUOUS
 10
125.5499145077
 20
106.8362066212
 11
125.5499145077
 21
93.3186727767
  0
LINE
  8
0
 62
7
  6
CONTINUOUS
 10
132.5499145077
 20
106.8362066212
 11
132.5499145077
 21
93.3186727767
  0
LINE
  8
0
 62
7
  6
CONTINUOUS
 10
122.8507719866
 20
84.0334187733
 11
122.8508025916
 21
83.6079277125
  0
LINE
  8
0
 62
7
  6
CONTINUOUS
 10
135.2489764962
 20
83.7029522255
 11
135.2490570289
 21
84.0334187733
  0
LINE
  8
0
 62
7
  6
CONTINUOUS
 10
135.5499180148
 20
140.1362066212
 11
135.5499145077
 21
137.0928650955
  0
LINE
  8
0
 62
7
  6
CONTINUOUS
 10
135.2498616327
 20
84.4244773767
 11
135.2499145077
 21
86.179551881
  0
LINE
  8
0
 62
7
  6
CONTINUOUS
 10
122.5398263537
 20
139.039137012
 11
122.5400092868
 21
139.2953326926
  0
LINE
  8
0
 62
7
  6
CONTINUOUS
 10
135.2490570289
 20
84.0334187733
 11
135.2498616327
 21
84.4244773767
  0
LINE
  8
0
 62
7
  6
CONTINUOUS
 10
122.8508025916
 20
83.6079277125
 11
122.8499184548
 21
83.1362066212
  0
LINE
  8
0
 62
7
  6
CONTINUOUS
 10
122.8705760325
 20
86.2889594504
 11
125.4810427585
 21
92.9539808785
  0
LINE
  8
0
 62
7
  6
CONTINUOUS
 10
110.1705786623
 20
136.9834508119
 11
112.7810339924
 21
130.31893022
  0
LINE
  8
0
 62
7
  6
CONTINUOUS
 10
135.2292529829
 20
86.2889594504
 11
132.6187862569
 21
92.9539808785
  0
LINE
  8
0
 62
7
  6
CONTINUOUS
 10
119.9096607074
 20
115.7747254874
 11
119.9122227541
 21
115.7662066212
  0
POLYLINE
  8
0
 62
7
  6
CONTINUOUS
 66
1
 70
0
  0
VERTEX
  8
0
 62
7
  6
CONTINUOUS
 10
148.2499149324
 20
83.1362066212
  0
VERTEX
  8
0
 62
7
  6
CONTINUOUS
 10
148.2612325964
 20
82.9974313199
  0
VERTEX
  8
0
 62
7
  6
CONTINUOUS
 10
148.2817342266
 20
82.846840125
  0
VERTEX
  8
0
 62
7
  6
CONTINUOUS
 10
148.3106770428
 20
82.6976391385
  0
VERTEX
  8
0
 62
7
  6
CONTINUOUS
 10
148.3479686701
 20
82.5503046814
  0
VERTEX
  8
0
 62
7
  6
CONTINUOUS
 10
148.3934919185
 20
82.4052999074
  0
VERTEX
  8
0
 62
7
  6
CONTINUOUS
 10
148.4471015115
 20
82.2630877377
  0
VERTEX
  8
0
 62
7
  6
CONTINUOUS
 10
148.5086276193
 20
82.1241181138
  0
VERTEX
  8
0
 62
7
  6
CONTINUOUS
 10
148.5778765641
 20
81.9888287368
  0
VERTEX
  8
0
 62
7
  6
CONTINUOUS
 10
148.6546272106
 20
81.8576516748
  0
VERTEX
  8
0
 62
7
  6
CONTINUOUS
 10
148.7386375151
 20
81.7310004192
  0
VERTEX
  8
0
 62
7
  6
CONTINUOUS
 10
148.8296410449
 20
81.6092767454
  0
VERTEX
  8
0
 62
7
  6
CONTINUOUS
 10
148.9273493831
 20
81.4928664386
  0
VERTEX
  8
0
 62
7
  6
CONTINUOUS
 10
149.0314529966
 20
81.3821382788
  0
VERTEX
  8
0
 62
7
  6
CONTINUOUS
 10
149.1416219464
 20
81.2774431951
  0
VERTEX
  8
0
 62
7
  6
CONTINUOUS
 10
149.2575072445
 20
81.1791128297
  0
VERTEX
  8
0
 62
7
  6
CONTINUOUS
 10
149.3787416756
 20
81.0874587714
  0
VERTEX
  8
0
 62
7
  6
CONTINUOUS
 10
149.5049410492
 20
81.0027714596
  0
VERTEX
  8
0
 62
7
  6
CONTINUOUS
 10
149.6357056388
 20
80.925319133
  0
VERTEX
  8
0
 62
7
  6
CONTINUOUS
 10
149.7706203041
 20
80.8553476052
  0
VERTEX
  8
0
 62
7
  6
CONTINUOUS
 10
149.90925986
 20
80.7930774742
  0
VERTEX
  8
0
 62
7
  6
CONTINUOUS
 10
150.0511818676
 20
80.7387074558
  0
VERTEX
  8
0
 62
7
  6
CONTINUOUS
 10
150.1959388405
 20
80.6924088769
  0
VERTEX
  8
0
 62
7
  6
CONTINUOUS
 10
150.3430729908
 20
80.6543283401
  0
VERTEX
  8
0
 62
7
  6
CONTINUOUS
 10
150.4921147042
 20
80.624587338
  0
VERTEX
  8
0
 62
7
  6
CONTINUOUS
 10
150.6425953667
 20
80.6032793473
  0
VERTEX
  8
0
 62
7
  6
CONTINUOUS
 10
150.7940346162
 20
80.5904723612
  0
VERTEX
  8
0
 62
7
  6
CONTINUOUS
 10
150.9457474555
 20
80.5862066212
  0
SEQEND
  0
POLYLINE
  8
0
 62
7
  6
CONTINUOUS
 66
1
 70
0
  0
VERTEX
  8
0
 62
7
  6
CONTINUOUS
 10
145.2499145077
 20
116.1912707472
  0
VERTEX
  8
0
 62
7
  6
CONTINUOUS
 10
145.2518185536
 20
116.1155137698
  0
VERTEX
  8
0
 62
7
  6
CONTINUOUS
 10
145.2569227817
 20
116.0463550769
  0
VERTEX
  8
0
 62
7
  6
CONTINUOUS
 10
145.2642945794
 20
115.9843095288
  0
VERTEX
  8
0
 62
7
  6
CONTINUOUS
 10
145.2730057971
 20
115.9297768079
  0
VERTEX
  8
0
 62
7
  6
CONTINUOUS
 10
145.2821782023
 20
115.8830177492
  0
VERTEX
  8
0
 62
7
  6
CONTINUOUS
 10
145.2910252785
 20
115.8441577753
  0
VERTEX
  8
0
 62
7
  6
CONTINUOUS
 10
145.29888242
 20
115.8132114861
  0
VERTEX
  8
0
 62
7
  6
CONTINUOUS
 10
145.3052223955
 20
115.7901209771
  0
VERTEX
  8
0
 62
7
  6
CONTINUOUS
 10
145.3096581287
 20
115.7747977736
  0
SEQEND
  0
LINE
  8
0
 62
7
  6
CONTINUOUS
 10
138.2499145077
 20
129.9542159411
 11
138.2499145077
 21
114.711781763
  0
LINE
  8
0
 62
7
  6
CONTINUOUS
 10
145.2499145077
 20
129.9542159411
 11
145.2499145077
 21
114.711781763
  0
LINE
  8
0
 62
7
  6
CONTINUOUS
 10
147.9499145077
 20
137.0928650955
 11
147.9499110007
 21
140.1362066212
  0
LINE
  8
0
 62
7
  6
CONTINUOUS
 10
150.9499145077
 20
106.8362066212
 11
150.9499145077
 21
93.3186727767
  0
LINE
  8
0
 62
7
  6
CONTINUOUS
 10
148.2499145077
 20
86.179551881
 11
148.2499561324
 21
83.2105992489
  0
POLYLINE
  8
0
 62
7
  6
CONTINUOUS
 66
1
 70
0
  0
VERTEX
  8
0
 62
7
  6
CONTINUOUS
 10
148.2499561324
 20
83.2105992489
  0
VERTEX
  8
0
 62
7
  6
CONTINUOUS
 10
148.2499271194
 20
83.1538696609
  0
VERTEX
  8
0
 62
7
  6
CONTINUOUS
 10
148.2499149324
 20
83.1362066212
  0
SEQEND
  0
POLYLINE
  8
0
 62
7
  6
CONTINUOUS
 66
1
 70
0
  0
VERTEX
  8
0
 62
7
  6
CONTINUOUS
 10
138.1901708868
 20
115.7747977737
  0
VERTEX
  8
0
 62
7
  6
CONTINUOUS
 10
138.19460662
 20
115.7901209774
  0
VERTEX
  8
0
 62
7
  6
CONTINUOUS
 10
138.2009465955
 20
115.8132114864
  0
VERTEX
  8
0
 62
7
  6
CONTINUOUS
 10
138.208803737
 20
115.8441577756
  0
VERTEX
  8
0
 62
7
  6
CONTINUOUS
 10
138.2176508132
 20
115.8830177493
  0
VERTEX
  8
0
 62
7
  6
CONTINUOUS
 10
138.2268232183
 20
115.9297768077
  0
VERTEX
  8
0
 62
7
  6
CONTINUOUS
 10
138.2355344361
 20
115.9843095288
  0
VERTEX
  8
0
 62
7
  6
CONTINUOUS
 10
138.2429062338
 20
116.0463550773
  0
VERTEX
  8
0
 62
7
  6
CONTINUOUS
 10
138.2480104619
 20
116.1155137704
  0
VERTEX
  8
0
 62
7
  6
CONTINUOUS
 10
138.2499145077
 20
116.1912707472
  0
SEQEND
  0
LINE
  8
0
 62
7
  6
CONTINUOUS
 10
138.1876062728
 20
115.7662066212
 11
138.1901708868
 21
115.7747977737
  0
LINE
  8
0
 62
7
  6
CONTINUOUS
 10
145.318795023
 20
130.31893022
 11
147.9292503531
 21
136.9834508119
  0
LINE
  8
0
 62
7
  6
CONTINUOUS
 10
26.4074248926
 20
81.8123167809
 11
22.3333863059
 21
80.2484398901
  0
LINE
  8
0
 62
7
  6
CONTINUOUS
 10
18.3299145077
 20
90.9803731588
 11
21.5107655798
 21
92.1991231588
  0
LINE
  8
0
 62
7
  6
CONTINUOUS
 10
21.2341698681
 20
93.0116233525
 11
18.3299145077
 21
91.9282900837
  0
LINE
  8
0
 62
7
  6
CONTINUOUS
 10
23.7235316609
 20
92.0637066212
 11
23.3086380933
 21
91.9282900837
  0
LINE
  8
0
 62
7
  6
CONTINUOUS
 10
23.3086380933
 20
91.1157900837
 11
23.7235316609
 21
91.2512066212
  0
POLYLINE
  8
0
 62
7
  6
CONTINUOUS
 66
1
 70
0
  0
VERTEX
  8
0
 62
7
  6
CONTINUOUS
 10
157.9540815755
 20
80.5862066212
  0
VERTEX
  8
0
 62
7
  6
CONTINUOUS
 10
158.1059061377
 20
80.590478652
  0
VERTEX
  8
0
 62
7
  6
CONTINUOUS
 10
158.2573007428
 20
80.6032869293
  0
VERTEX
  8
0
 62
7
  6
CONTINUOUS
 10
158.4077702007
 20
80.6245968641
  0
VERTEX
  8
0
 62
7
  6
CONTINUOUS
 10
158.5568145644
 20
80.6543417458
  0
VERTEX
  8
0
 62
7
  6
CONTINUOUS
 10
158.7039485318
 20
80.6924257473
  0
VERTEX
  8
0
 62
7
  6
CONTINUOUS
 10
158.8487009345
 20
80.7387263439
  0
VERTEX
  8
0
 62
7
  6
CONTINUOUS
 10
158.9906177106
 20
80.793097661
  0
VERTEX
  8
0
 62
7
  6
CONTINUOUS
 10
159.1292534169
 20
80.8553692173
  0
VERTEX
  8
0
 62
7
  6
CONTINUOUS
 10
159.2641649021
 20
80.9253421757
  0
VERTEX
  8
0
 62
7
  6
CONTINUOUS
 10
159.394926123
 20
81.0027955363
  0
VERTEX
  8
0
 62
7
  6
CONTINUOUS
 10
159.5211218611
 20
81.0874833744
  0
VERTEX
  8
0
 62
7
  6
CONTINUOUS
 10
159.642352725
 20
81.179137631
  0
VERTEX
  8
0
 62
7
  6
CONTINUOUS
 10
159.7582346232
 20
81.2774679426
  0
VERTEX
  8
0
 62
7
  6
CONTINUOUS
 10
159.8684002872
 20
81.3821626778
  0
VERTEX
  8
0
 62
7
  6
CONTINUOUS
 10
159.972500729
 20
81.4928901831
  0
VERTEX
  8
0
 62
7
  6
CONTINUOUS
 10
160.0702060498
 20
81.6092995597
  0
VERTEX
  8
0
 62
7
  6
CONTINUOUS
 10
160.1612067434
 20
81.7310220519
  0
VERTEX
  8
0
 62
7
  6
CONTINUOUS
 10
160.2452144073
 20
81.8576718868
  0
VERTEX
  8
0
 62
7
  6
CONTINUOUS
 10
160.3219626251
 20
81.9888473053
  0
VERTEX
  8
0
 62
7
  6
CONTINUOUS
 10
160.3912093696
 20
82.1241348359
  0
VERTEX
  8
0
 62
7
  6
CONTINUOUS
 10
160.4527335208
 20
82.2631024322
  0
VERTEX
  8
0
 62
7
  6
CONTINUOUS
 10
160.5063414141
 20
82.4053124158
  0
VERTEX
  8
0
 62
7
  6
CONTINUOUS
 10
160.5518632306
 20
82.5503148666
  0
VERTEX
  8
0
 62
7
  6
CONTINUOUS
 10
160.5891537034
 20
82.6976468872
  0
VERTEX
  8
0
 62
7
  6
CONTINUOUS
 10
160.6180956502
 20
82.8468453474
  0
VERTEX
  8
0
 62
7
  6
CONTINUOUS
 10
160.638596702
 20
82.9974339512
  0
VERTEX
  8
0
 62
7
  6
CONTINUOUS
 10
160.649914083
 20
83.1362066212
  0
SEQEND
  0
LINE
  8
0
 62
7
  6
CONTINUOUS
 10
277.9499145077
 20
78.2362066212
 11
284.9499145077
 21
78.2362066212
  0
LINE
  8
0
 62
7
  6
CONTINUOUS
 10
303.3499145077
 20
78.2362066212
 11
310.3499145077
 21
78.2362066212
  0
LINE
  8
0
 62
7
  6
CONTINUOUS
 10
328.7499145077
 20
78.2362066212
 11
335.7499145077
 21
78.2362066212
  0
LINE
  8
0
 62
7
  6
CONTINUOUS
 10
259.5499145077
 20
78.8862066212
 11
252.5499145077
 21
78.8862066212
  0
LINE
  8
0
 62
7
  6
CONTINUOUS
 10
234.1499145077
 20
79.1862066212
 11
227.1499145077
 21
79.1862066212
  0
LINE
  8
0
 62
7
  6
CONTINUOUS
 10
208.7499145077
 20
79.6862066212
 11
201.7499145077
 21
79.6862066212
  0
LINE
  8
0
 62
7
  6
CONTINUOUS
 10
183.3499145077
 20
80.0862066212
 11
176.3499145077
 21
80.0862066212
  0
LINE
  8
0
 62
7
  6
CONTINUOUS
 10
157.9538750412
 20
80.5862066212
 11
150.9459539742
 21
80.5862066212
  0
LINE
  8
0
 62
7
  6
CONTINUOUS
 10
81.7869650704
 20
80.8862066212
 11
74.712863945
 21
80.8862066212
  0
LINE
  8
0
 62
7
  6
CONTINUOUS
 10
53.9869650704
 20
80.8862066212
 11
46.912863945
 21
80.8862066212
  0
LINE
  8
0
 62
7
  6
CONTINUOUS
 10
132.6281893584
 20
81.0862066212
 11
125.4716396571
 21
81.0862066212
  0
LINE
  8
0
 62
7
  6
CONTINUOUS
 10
107.3624346536
 20
81.4862066212
 11
99.9373943618
 21
81.4862066212
  0
POLYLINE
  8
0
 62
7
  6
CONTINUOUS
 66
1
 70
0
  0
VERTEX
  8
0
 62
7
  6
CONTINUOUS
 10
122.5499009864
 20
140.1362066212
  0
VERTEX
  8
0
 62
7
  6
CONTINUOUS
 10
122.4936462692
 20
140.2605979226
  0
VERTEX
  8
0
 62
7
  6
CONTINUOUS
 10
122.4240486591
 20
140.3949315077
  0
VERTEX
  8
0
 62
7
  6
CONTINUOUS
 10
122.3470393486
 20
140.5251508942
  0
VERTEX
  8
0
 62
7
  6
CONTINUOUS
 10
122.2628555247
 20
140.6508554112
  0
VERTEX
  8
0
 62
7
  6
CONTINUOUS
 10
122.1717614067
 20
140.7716495699
  0
VERTEX
  8
0
 62
7
  6
CONTINUOUS
 10
122.0740468635
 20
140.8871490882
  0
VERTEX
  8
0
 62
7
  6
CONTINUOUS
 10
121.9700176464
 20
140.9969932057
  0
VERTEX
  8
0
 62
7
  6
CONTINUOUS
 10
121.8599973776
 20
141.1008400402
  0
VERTEX
  8
0
 62
7
  6
CONTINUOUS
 10
121.7443338104
 20
141.1983610931
  0
VERTEX
  8
0
 62
7
  6
CONTINUOUS
 10
121.6233906114
 20
141.2892499293
  0
VERTEX
  8
0
 62
7
  6
CONTINUOUS
 10
121.4975464859
 20
141.3732220523
  0
VERTEX
  8
0
 62
7
  6
CONTINUOUS
 10
121.3671970596
 20
141.4500134978
  0
VERTEX
  8
0
 62
7
  6
CONTINUOUS
 10
121.2327505107
 20
141.5193837656
  0
VERTEX
  8
0
 62
7
  6
CONTINUOUS
 10
121.0946291983
 20
141.5811148139
  0
VERTEX
  8
0
 62
7
  6
CONTINUOUS
 10
120.9532698676
 20
141.6350116678
  0
VERTEX
  8
0
 62
7
  6
CONTINUOUS
 10
120.8091129318
 20
141.6809065891
  0
VERTEX
  8
0
 62
7
  6
CONTINUOUS
 10
120.6626085637
 20
141.7186558939
  0
VERTEX
  8
0
 62
7
  6
CONTINUOUS
 10
120.514222442
 20
141.748139537
  0
VERTEX
  8
0
 62
7
  6
CONTINUOUS
 10
120.3644216325
 20
141.7692652626
  0
VERTEX
  8
0
 62
7
  6
CONTINUOUS
 10
120.2136672631
 20
141.7819678917
  0
VERTEX
  8
0
 62
7
  6
CONTINUOUS
 10
120.0624358321
 20
141.7862066212
  0
SEQEND
  0
LINE
  8
0
 62
7
  6
CONTINUOUS
 10
135.5705786623
 20
136.9834508119
 11
138.1810339924
 21
130.31893022
  0
LINE
  8
0
 62
7
  6
CONTINUOUS
 10
145.3096581287
 20
115.7747977736
 11
145.3122227426
 21
115.7662066212
  0
LINE
  8
0
 62
7
  6
CONTINUOUS
 10
157.9499145077
 20
106.8362066212
 11
157.9499145077
 21
93.3186727767
  0
LINE
  8
0
 62
7
  6
CONTINUOUS
 10
163.6499145077
 20
129.9542159411
 11
163.6499145077
 21
114.711781763
  0
LINE
  8
0
 62
7
  6
CONTINUOUS
 10
160.649914083
 20
83.1362066212
 11
160.6499145077
 21
86.179551881
  0
POLYLINE
  8
0
 62
7
  6
CONTINUOUS
 66
1
 70
0
  0
VERTEX
  8
0
 62
7
  6
CONTINUOUS
 10
160.949914913
 20
140.1362066212
  0
VERTEX
  8
0
 62
7
  6
CONTINUOUS
 10
160.9500650713
 20
139.913149248
  0
VERTEX
  8
0
 62
7
  6
CONTINUOUS
 10
160.9499145077
 20
137.0928650955
  0
SEQEND
  0
LINE
  8
0
 62
7
  6
CONTINUOUS
 10
148.2705760325
 20
86.2889594504
 11
150.8810427585
 21
92.9539808785
  0
LINE
  8
0
 62
7
  6
CONTINUOUS
 10
170.718795023
 20
130.31893022
 11
173.3292503531
 21
136.9834508119
  0
POLYLINE
  8
0
 62
7
  6
CONTINUOUS
 66
1
 70
0
  0
VERTEX
  8
0
 62
7
  6
CONTINUOUS
 10
81.7876745667
 20
80.8862066212
  0
VERTEX
  8
0
 62
7
  6
CONTINUOUS
 10
81.9397084552
 20
80.8904904532
  0
VERTEX
  8
0
 62
7
  6
CONTINUOUS
 10
82.091274139
 20
80.9033299658
  0
VERTEX
  8
0
 62
7
  6
CONTINUOUS
 10
82.2418781393
 20
80.9246847297
  0
VERTEX
  8
0
 62
7
  6
CONTINUOUS
 10
82.3910392125
 20
80.9544865524
  0
VERTEX
  8
0
 62
7
  6
CONTINUOUS
 10
82.5382865392
 20
80.9926413566
  0
VERTEX
  8
0
 62
7
  6
CONTINUOUS
 10
82.6831505237
 20
81.039027479
  0
VERTEX
  8
0
 62
7
  6
CONTINUOUS
 10
82.8251731666
 20
81.0934982431
  0
VERTEX
  8
0
 62
7
  6
CONTINUOUS
 10
82.9639024899
 20
81.1558803268
  0
VERTEX
  8
0
 62
7
  6
CONTINUOUS
 10
83.0988989467
 20
81.2259760643
  0
VERTEX
  8
0
 62
7
  6
CONTINUOUS
 10
83.2297336744
 20
81.3035627925
  0
VERTEX
  8
0
 62
7
  6
CONTINUOUS
 10
83.3559916055
 20
81.3883943678
  0
VERTEX
  8
0
 62
7
  6
CONTINUOUS
 10
83.4772719661
 20
81.4802015273
  0
VERTEX
  8
0
 62
7
  6
CONTINUOUS
 10
83.5931897867
 20
81.5786928576
  0
VERTEX
  8
0
 62
7
  6
CONTINUOUS
 10
83.7033772447
 20
81.683555842
  0
VERTEX
  8
0
 62
7
  6
CONTINUOUS
 10
83.8074845262
 20
81.7944575785
  0
VERTEX
  8
0
 62
7
  6
CONTINUOUS
 10
83.9051812674
 20
81.9110461465
  0
VERTEX
  8
0
 62
7
  6
CONTINUOUS
 10
83.996157375
 20
82.0329515026
  0
VERTEX
  8
0
 62
7
  6
CONTINUOUS
 10
84.0801240047
 20
82.1597865908
  0
VERTEX
  8
0
 62
7
  6
CONTINUOUS
 10
84.1568149694
 20
82.2911493754
  0
VERTEX
  8
0
 62
7
  6
CONTINUOUS
 10
84.2259862778
 20
82.4266218849
  0
VERTEX
  8
0
 62
7
  6
CONTINUOUS
 10
84.287419206
 20
82.5657758231
  0
VERTEX
  8
0
 62
7
  6
CONTINUOUS
 10
84.340917802
 20
82.7081672965
  0
VERTEX
  8
0
 62
7
  6
CONTINUOUS
 10
84.3863132384
 20
82.8533470019
  0
VERTEX
  8
0
 62
7
  6
CONTINUOUS
 10
84.4234604942
 20
83.0008510818
  0
VERTEX
  8
0
 62
7
  6
CONTINUOUS
 10
84.449912535
 20
83.1362066212
  0
SEQEND
  0
POLYLINE
  8
0
 62
7
  6
CONTINUOUS
 66
1
 70
0
  0
VERTEX
  8
0
 62
7
  6
CONTINUOUS
 10
53.9876745667
 20
80.8862066212
  0
VERTEX
  8
0
 62
7
  6
CONTINUOUS
 10
54.1397084283
 20
80.8904904517
  0
VERTEX
  8
0
 62
7
  6
CONTINUOUS
 10
54.2912741015
 20
80.9033299616
  0
VERTEX
  8
0
 62
7
  6
CONTINUOUS
 10
54.4418781014
 20
80.9246847232
  0
VERTEX
  8
0
 62
7
  6
CONTINUOUS
 10
54.5910391784
 20
80.9544865445
  0
VERTEX
  8
0
 62
7
  6
CONTINUOUS
 10
54.7382865079
 20
80.9926413475
  0
VERTEX
  8
0
 62
7
  6
CONTINUOUS
 10
54.8831504941
 20
81.0390274686
  0
VERTEX
  8
0
 62
7
  6
CONTINUOUS
 10
55.0251731389
 20
81.0934982316
  0
VERTEX
  8
0
 62
7
  6
CONTINUOUS
 10
55.1639024645
 20
81.1558803145
  0
VERTEX
  8
0
 62
7
  6
CONTINUOUS
 10
55.2988989236
 20
81.2259760515
  0
VERTEX
  8
0
 62
7
  6
CONTINUOUS
 10
55.4297336534
 20
81.3035627792
  0
VERTEX
  8
0
 62
7
  6
CONTINUOUS
 10
55.5559915866
 20
81.3883943544
  0
VERTEX
  8
0
 62
7
  6
CONTINUOUS
 10
55.6772719493
 20
81.4802015138
  0
VERTEX
  8
0
 62
7
  6
CONTINUOUS
 10
55.7931897719
 20
81.5786928443
  0
VERTEX
  8
0
 62
7
  6
CONTINUOUS
 10
55.9033772318
 20
81.683555829
  0
VERTEX
  8
0
 62
7
  6
CONTINUOUS
 10
56.0074845152
 20
81.7944575661
  0
VERTEX
  8
0
 62
7
  6
CONTINUOUS
 10
56.1051812582
 20
81.9110461348
  0
VERTEX
  8
0
 62
7
  6
CONTINUOUS
 10
56.1961573674
 20
82.0329514918
  0
VERTEX
  8
0
 62
7
  6
CONTINUOUS
 10
56.2801239986
 20
82.1597865809
  0
VERTEX
  8
0
 62
7
  6
CONTINUOUS
 10
56.3568149646
 20
82.2911493667
  0
VERTEX
  8
0
 62
7
  6
CONTINUOUS
 10
56.4259862742
 20
82.4266218774
  0
VERTEX
  8
0
 62
7
  6
CONTINUOUS
 10
56.4874192035
 20
82.5657758169
  0
VERTEX
  8
0
 62
7
  6
CONTINUOUS
 10
56.5409178004
 20
82.7081672918
  0
VERTEX
  8
0
 62
7
  6
CONTINUOUS
 10
56.5863132375
 20
82.8533469987
  0
VERTEX
  8
0
 62
7
  6
CONTINUOUS
 10
56.6234604939
 20
83.0008510802
  0
VERTEX
  8
0
 62
7
  6
CONTINUOUS
 10
56.649912535
 20
83.1362066212
  0
SEQEND
  0
POLYLINE
  8
0
 62
7
  6
CONTINUOUS
 66
1
 70
0
  0
VERTEX
  8
0
 62
7
  6
CONTINUOUS
 10
107.3624358321
 20
81.4862066212
  0
VERTEX
  8
0
 62
7
  6
CONTINUOUS
 10
107.5136664925
 20
81.4904453076
  0
VERTEX
  8
0
 62
7
  6
CONTINUOUS
 10
107.6644200986
 20
81.5031478073
  0
VERTEX
  8
0
 62
7
  6
CONTINUOUS
 10
107.8142201594
 20
81.524273318
  0
VERTEX
  8
0
 62
7
  6
CONTINUOUS
 10
107.9626055539
 20
81.5537566624
  0
VERTEX
  8
0
 62
7
  6
CONTINUOUS
 10
108.1091092235
 20
81.5915055863
  0
VERTEX
  8
0
 62
7
  6
CONTINUOUS
 10
108.2532654964
 20
81.6374000469
  0
VERTEX
  8
0
 62
7
  6
CONTINUOUS
 10
108.3946242065
 20
81.6912963633
  0
VERTEX
  8
0
 62
7
  6
CONTINUOUS
 10
108.5327449469
 20
81.7530268008
  0
VERTEX
  8
0
 62
7
  6
CONTINUOUS
 10
108.6671909788
 20
81.8223963882
  0
VERTEX
  8
0
 62
7
  6
CONTINUOUS
 10
108.7975399489
 20
81.8991870882
  0
VERTEX
  8
0
 62
7
  6
CONTINUOUS
 10
108.9233836848
 20
81.9831584054
  0
VERTEX
  8
0
 62
7
  6
CONTINUOUS
 10
109.0443265658
 20
82.0740463806
  0
VERTEX
  8
0
 62
7
  6
CONTINUOUS
 10
109.1599898916
 20
82.1715665229
  0
VERTEX
  8
0
 62
7
  6
CONTINUOUS
 10
109.27001
 20
82.2754124033
  0
VERTEX
  8
0
 62
7
  6
CONTINUOUS
 10
109.374039142
 20
82.3852555296
  0
VERTEX
  8
0
 62
7
  6
CONTINUOUS
 10
109.4717536987
 20
82.500754026
  0
VERTEX
  8
0
 62
7
  6
CONTINUOUS
 10
109.5628479217
 20
82.6215471391
  0
VERTEX
  8
0
 62
7
  6
CONTINUOUS
 10
109.6470319452
 20
82.747250594
  0
VERTEX
  8
0
 62
7
  6
CONTINUOUS
 10
109.7240415516
 20
82.8774689094
  0
VERTEX
  8
0
 62
7
  6
CONTINUOUS
 10
109.7936395555
 20
83.0118014216
  0
VERTEX
  8
0
 62
7
  6
CONTINUOUS
 10
109.8499009864
 20
83.1362066212
  0
SEQEND
  0
POLYLINE
  8
0
 62
7
  6
CONTINUOUS
 66
1
 70
0
  0
VERTEX
  8
0
 62
7
  6
CONTINUOUS
 10
132.6293176658
 20
81.0862066212
  0
VERTEX
  8
0
 62
7
  6
CONTINUOUS
 10
132.7791587421
 20
81.0903676824
  0
VERTEX
  8
0
 62
7
  6
CONTINUOUS
 10
132.9285364067
 20
81.102837866
  0
VERTEX
  8
0
 62
7
  6
CONTINUOUS
 10
133.0769825863
 20
81.1235771835
  0
VERTEX
  8
0
 62
7
  6
CONTINUOUS
 10
133.2240484324
 20
81.1525220779
  0
VERTEX
  8
0
 62
7
  6
CONTINUOUS
 10
133.3692904555
 20
81.1895859938
  0
VERTEX
  8
0
 62
7
  6
CONTINUOUS
 10
133.5122506503
 20
81.2346527559
  0
VERTEX
  8
0
 62
7
  6
CONTINUOUS
 10
133.6524846913
 20
81.2875817333
  0
VERTEX
  8
0
 62
7
  6
CONTINUOUS
 10
133.7895651352
 20
81.3482110967
  0
VERTEX
  8
0
 62
7
  6
CONTINUOUS
 10
133.9230737445
 20
81.4163562364
  0
VERTEX
  8
0
 62
7
  6
CONTINUOUS
 10
134.052594528
 20
81.4918051946
  0
VERTEX
  8
0
 62
7
  6
CONTINUOUS
 10
134.1777274271
 20
81.5743247302
  0
VERTEX
  8
0
 62
7
  6
CONTINUOUS
 10
134.2980882667
 20
81.6636613518
  0
VERTEX
  8
0
 62
7
  6
CONTINUOUS
 10
134.4133059205
 20
81.7595395965
  0
VERTEX
  8
0
 62
7
  6
CONTINUOUS
 10
134.5230255153
 20
81.8616641679
  0
VERTEX
  8
0
 62
7
  6
CONTINUOUS
 10
134.6269099123
 20
81.9697214853
  0
VERTEX
  8
0
 62
7
  6
CONTINUOUS
 10
134.724637837
 20
82.083377618
  0
VERTEX
  8
0
 62
7
  6
CONTINUOUS
 10
134.8159051124
 20
82.2022782601
  0
VERTEX
  8
0
 62
7
  6
CONTINUOUS
 10
134.9004341159
 20
82.3260612246
  0
VERTEX
  8
0
 62
7
  6
CONTINUOUS
 10
134.9779664466
 20
82.454349064
  0
VERTEX
  8
0
 62
7
  6
CONTINUOUS
 10
135.0482603275
 20
82.586742757
  0
VERTEX
  8
0
 62
7
  6
CONTINUOUS
 10
135.1110947802
 20
82.7228245495
  0
VERTEX
  8
0
 62
7
  6
CONTINUOUS
 10
135.1662813731
 20
82.8621846731
  0
VERTEX
  8
0
 62
7
  6
CONTINUOUS
 10
135.2136522886
 20
83.0044018196
  0
VERTEX
  8
0
 62
7
  6
CONTINUOUS
 10
135.2499105606
 20
83.1362066212
  0
SEQEND
  0
LINE
  8
DEFAULT_1
 62
2
  6
CENTER
 10
343.4499145077
 20
86.2734616212
 11
14.8999145077
 21
86.2734616212
  0
LINE
  8
0
 62
7
  6
CONTINUOUS
 10
22.7554462825
 20
91.1157900837
 11
23.3086380933
 21
91.1157900837
  0
LINE
  8
0
 62
7
  6
CONTINUOUS
 10
23.3086380933
 20
91.9282900837
 11
22.8937441383
 21
91.9282900837
  0
LINE
  8
0
 62
7
  6
CONTINUOUS
 10
18.3299145077
 20
95.3137066212
 11
21.2341698681
 21
95.3137066212
  0
LINE
  8
0
 62
7
  6
CONTINUOUS
 10
22.0639570032
 20
95.3137066212
 11
24.1384252284
 21
95.3137066212
  0
LINE
  8
0
 62
7
  6
CONTINUOUS
 10
24.8299145077
 20
96.1262066212
 11
18.3299145077
 21
96.1262066212
  0
LINE
  8
0
 62
7
  6
CONTINUOUS
 10
160.6292529829
 20
86.2889594504
 11
158.0187862569
 21
92.9539808785
  0
POLYLINE
  8
0
 62
7
  6
CONTINUOUS
 66
1
 70
0
  0
VERTEX
  8
0
 62
7
  6
CONTINUOUS
 10
147.9499105606
 20
140.1362066212
  0
VERTEX
  8
0
 62
7
  6
CONTINUOUS
 10
147.9136568082
 20
140.2679964832
  0
VERTEX
  8
0
 62
7
  6
CONTINUOUS
 10
147.8662864843
 20
140.4102145361
  0
VERTEX
  8
0
 62
7
  6
CONTINUOUS
 10
147.8111003972
 20
140.5495755836
  0
VERTEX
  8
0
 62
7
  6
CONTINUOUS
 10
147.7482663643
 20
140.6856583111
  0
VERTEX
  8
0
 62
7
  6
CONTINUOUS
 10
147.6779728176
 20
140.8180529436
  0
VERTEX
  8
0
 62
7
  6
CONTINUOUS
 10
147.6004407365
 20
140.9463417202
  0
VERTEX
  8
0
 62
7
  6
CONTINUOUS
 10
147.5159118994
 20
141.0701256131
  0
VERTEX
  8
0
 62
7
  6
CONTINUOUS
 10
147.4246447091
 20
141.1890271684
  0
VERTEX
  8
0
 62
7
  6
CONTINUOUS
 10
147.3269167903
 20
141.3026841934
  0
VERTEX
  8
0
 62
7
  6
CONTINUOUS
 10
147.2230323227
 20
141.4107423762
  0
VERTEX
  8
0
 62
7
  6
CONTINUOUS
 10
147.1133125839
 20
141.5128677804
  0
VERTEX
  8
0
 62
7
  6
CONTINUOUS
 10
146.9980947159
 20
141.6087468202
  0
VERTEX
  8
0
 62
7
  6
CONTINUOUS
 10
146.8777335956
 20
141.698084194
  0
VERTEX
  8
0
 62
7
  6
CONTINUOUS
 10
146.752600354
 20
141.7806044339
  0
VERTEX
  8
0
 62
7
  6
CONTINUOUS
 10
146.6230791712
 20
141.8560540435
  0
VERTEX
  8
0
 62
7
  6
CONTINUOUS
 10
146.4895701116
 20
141.9241997775
  0
VERTEX
  8
0
 62
7
  6
CONTINUOUS
 10
146.3524891713
 20
141.9848296746
  0
VERTEX
  8
0
 62
7
  6
CONTINUOUS
 10
146.2122545917
 20
142.0377591227
  0
VERTEX
  8
0
 62
7
  6
CONTINUOUS
 10
146.0692938191
 20
142.0828262901
  0
VERTEX
  8
0
 62
7
  6
CONTINUOUS
 10
145.9240511821
 20
142.1198905437
  0
VERTEX
  8
0
 62
7
  6
CONTINUOUS
 10
145.7769846892
 20
142.1488357054
  0
VERTEX
  8
0
 62
7
  6
CONTINUOUS
 10
145.6285378335
 20
142.1695752174
  0
VERTEX
  8
0
 62
7
  6
CONTINUOUS
 10
145.4791594667
 20
142.1820455198
  0
VERTEX
  8
0
 62
7
  6
CONTINUOUS
 10
145.3293176658
 20
142.1862066212
  0
SEQEND
  0
POLYLINE
  8
0
 62
7
  6
CONTINUOUS
 66
1
 70
0
  0
VERTEX
  8
0
 62
7
  6
CONTINUOUS
 10
173.349914083
 20
140.1362066212
  0
VERTEX
  8
0
 62
7
  6
CONTINUOUS
 10
173.3385970852
 20
140.2749757298
  0
VERTEX
  8
0
 62
7
  6
CONTINUOUS
 10
173.3180957134
 20
140.4255675116
  0
VERTEX
  8
0
 62
7
  6
CONTINUOUS
 10
173.2891530919
 20
140.5747690927
  0
VERTEX
  8
0
 62
7
  6
CONTINUOUS
 10
173.2518615957
 20
140.722104147
  0
VERTEX
  8
0
 62
7
  6
CONTINUOUS
 10
173.2063384153
 20
140.8671095154
  0
VERTEX
  8
0
 62
7
  6
CONTINUOUS
 10
173.1527288279
 20
141.0093222714
  0
VERTEX
  8
0
 62
7
  6
CONTINUOUS
 10
173.0912026645
 20
141.1482924686
  0
VERTEX
  8
0
 62
7
  6
CONTINUOUS
 10
173.0219536047
 20
141.2835824008
  0
VERTEX
  8
0
 62
7
  6
CONTINUOUS
 10
172.9452027853
 20
141.4147599951
  0
VERTEX
  8
0
 62
7
  6
CONTINUOUS
 10
172.8611922527
 20
141.5414117556
  0
VERTEX
  8
0
 62
7
  6
CONTINUOUS
 10
172.7701884421
 20
141.6631359021
  0
VERTEX
  8
0
 62
7
  6
CONTINUOUS
 10
172.6724797736
 20
141.7795466449
  0
VERTEX
  8
0
 62
7
  6
CONTINUOUS
 10
172.5683757833
 20
141.8902752005
  0
VERTEX
  8
0
 62
7
  6
CONTINUOUS
 10
172.4582064126
 20
141.9949706369
  0
VERTEX
  8
0
 62
7
  6
CONTINUOUS
 10
172.3423206547
 20
142.0933013071
  0
VERTEX
  8
0
 62
7
  6
CONTINUOUS
 10
172.2210857336
 20
142.1849556159
  0
VERTEX
  8
0
 62
7
  6
CONTINUOUS
 10
172.0948858394
 20
142.2696431249
  0
VERTEX
  8
0
 62
7
  6
CONTINUOUS
 10
171.9641206856
 20
142.3470956027
  0
VERTEX
  8
0
 62
7
  6
CONTINUOUS
 10
171.8292054229
 20
142.417067227
  0
VERTEX
  8
0
 62
7
  6
CONTINUOUS
 10
171.6905652928
 20
142.4793373741
  0
VERTEX
  8
0
 62
7
  6
CONTINUOUS
 10
171.5486427826
 20
142.5337073195
  0
VERTEX
  8
0
 62
7
  6
CONTINUOUS
 10
171.4038852662
 20
142.5800057845
  0
VERTEX
  8
0
 62
7
  6
CONTINUOUS
 10
171.2567503215
 20
142.6180862084
  0
VERTEX
  8
0
 62
7
  6
CONTINUOUS
 10
171.1077076596
 20
142.6478270381
  0
VERTEX
  8
0
 62
7
  6
CONTINUOUS
 10
170.9572268722
 20
142.6691346609
  0
VERTEX
  8
0
 62
7
  6
CONTINUOUS
 10
170.8057894668
 20
142.6819411589
  0
VERTEX
  8
0
 62
7
  6
CONTINUOUS
 10
170.6540815599
 20
142.6862066212
  0
SEQEND
  0
LINE
  8
0
 62
7
  6
CONTINUOUS
 10
170.6499145077
 20
129.9542159411
 11
170.6499145077
 21
114.711781763
  0
LINE
  8
0
 62
7
  6
CONTINUOUS
 10
173.6499145077
 20
82.7862066212
 11
173.6499145077
 21
86.179551881
  0
LINE
  8
0
 62
7
  6
CONTINUOUS
 10
176.3499145077
 20
106.8362066212
 11
176.3499145077
 21
93.3186727767
  0
LINE
  8
0
 62
7
  6
CONTINUOUS
 10
173.3499145077
 20
137.0928650955
 11
173.3497316485
 21
140.0231021172
  0
LINE
  8
0
 62
7
  6
CONTINUOUS
 10
173.3499141024
 20
140.1362066212
 11
173.3497316485
 21
140.0231021172
  0
LINE
  8
0
 62
7
  6
CONTINUOUS
 10
350.7499145077
 20
108.8362066212
 11
337.7499145077
 21
108.8362066212
  0
LINE
  8
0
 62
7
  6
CONTINUOUS
 10
326.7499145077
 20
108.8362066212
 11
312.3499145077
 21
108.8362066212
  0
LINE
  8
0
 62
7
  6
CONTINUOUS
 10
301.3499145077
 20
108.8362066212
 11
286.9499145077
 21
108.8362066212
  0
LINE
  8
0
 62
7
  6
CONTINUOUS
 10
275.9499145077
 20
108.8362066212
 11
261.5499145077
 21
108.8362066212
  0
LINE
  8
0
 62
7
  6
CONTINUOUS
 10
250.5499145077
 20
108.8362066212
 11
236.1499145077
 21
108.8362066212
  0
LINE
  8
0
 62
7
  6
CONTINUOUS
 10
225.1499145077
 20
108.8362066212
 11
210.7499145077
 21
108.8362066212
  0
LINE
  8
0
 62
7
  6
CONTINUOUS
 10
199.7499145077
 20
108.8362066212
 11
185.3499145077
 21
108.8362066212
  0
LINE
  8
0
 62
7
  6
CONTINUOUS
 10
174.3499145077
 20
108.8362066212
 11
159.9499145077
 21
108.8362066212
  0
LINE
  8
0
 62
7
  6
CONTINUOUS
 10
148.9499145077
 20
108.8362066212
 11
134.5499145077
 21
108.8362066212
  0
LINE
  8
0
 62
7
  6
CONTINUOUS
 10
123.5499145077
 20
108.8362066212
 11
109.1499145077
 21
108.8362066212
  0
LINE
  8
0
 62
7
  6
CONTINUOUS
 10
98.1499145077
 20
109.8862066212
 11
88.1067687572
 21
109.8862066212
  0
LINE
  8
0
 62
7
  6
CONTINUOUS
 10
67.8930602582
 20
110.3862066212
 11
60.8067687572
 21
110.3862066212
  0
LINE
  8
0
 62
7
  6
CONTINUOUS
 10
38.9680602582
 20
110.8862066212
 11
31.8817687572
 21
110.8862066212
  0
LINE
  8
DEFAULT_1
 62
2
  6
CENTER
 10
183.9749145077
 20
111.6362066212
 11
11.3667743831
 21
111.6362066212
  0
LINE
  8
DEFAULT_1
 62
2
  6
CENTER
 10
183.9749145077
 20
111.6362066212
 11
356.580493537
 21
111.6362066212
  0
LINE
  8
0
 62
7
  6
CONTINUOUS
 10
160.9705786623
 20
136.9834508119
 11
163.5810339924
 21
130.31893022
  0
LINE
  8
0
 62
7
  6
CONTINUOUS
 10
186.0292529829
 20
86.2889594504
 11
183.4187862569
 21
92.9539808785
  0
LINE
  8
0
 62
7
  6
CONTINUOUS
 10
183.3499145077
 20
106.8362066212
 11
183.3499145077
 21
93.3186727767
  0
LINE
  8
DEFAULT_1
 62
2
  6
CENTER
 10
183.9749145077
 20
111.6362066212
 11
183.9749145077
 21
88.3270417156
  0
LINE
  8
DEFAULT_1
 62
2
  6
CENTER
 10
183.9749145077
 20
111.6362066212
 11
183.9749145077
 21
133.7170240893
  0
LINE
  8
0
 62
7
  6
CONTINUOUS
 10
186.0499145077
 20
86.179551881
 11
186.0499145077
 21
82.7862066212
  0
LINE
  8
0
 62
7
  6
CONTINUOUS
 10
186.3499145077
 20
137.0928650955
 11
186.3499145077
 21
140.4862066212
  0
LINE
  8
0
 62
7
  6
CONTINUOUS
 10
189.0499145077
 20
129.9542159411
 11
189.0499145077
 21
114.711781763
  0
LINE
  8
0
 62
7
  6
CONTINUOUS
 10
196.0499145077
 20
129.9542159411
 11
196.0499145077
 21
114.711781763
  0
LINE
  8
0
 62
7
  6
CONTINUOUS
 10
173.6705760325
 20
86.2889594504
 11
176.2810427585
 21
92.9539808785
  0
LINE
  8
0
 62
7
  6
CONTINUOUS
 10
196.118795023
 20
130.31893022
 11
198.7292503531
 21
136.9834508119
  0
LINE
  8
0
 62
7
  6
CONTINUOUS
 10
53.4180602582
 20
112.6262066212
 11
46.3317687572
 21
112.6262066212
  0
LINE
  8
0
 62
7
  6
CONTINUOUS
 10
81.1930602582
 20
113.0762066212
 11
74.1067687572
 21
113.0762066212
  0
LINE
  8
0
 62
7
  6
CONTINUOUS
 10
339.4499145077
 20
114.261546655
 11
325.0499145077
 21
114.261546655
  0
LINE
  8
0
 62
7
  6
CONTINUOUS
 10
314.0499145077
 20
114.261546655
 11
299.6499145077
 21
114.261546655
  0
LINE
  8
0
 62
7
  6
CONTINUOUS
 10
288.6499145077
 20
114.261546655
 11
274.2499145077
 21
114.261546655
  0
LINE
  8
0
 62
7
  6
CONTINUOUS
 10
263.2499145077
 20
114.261546655
 11
248.8499145077
 21
114.261546655
  0
LINE
  8
0
 62
7
  6
CONTINUOUS
 10
237.8499145077
 20
114.261546655
 11
223.4499145077
 21
114.261546655
  0
LINE
  8
0
 62
7
  6
CONTINUOUS
 10
212.4499145077
 20
114.261546655
 11
198.0499145077
 21
114.261546655
  0
LINE
  8
0
 62
7
  6
CONTINUOUS
 10
187.0499145077
 20
114.261546655
 11
172.6499145077
 21
114.261546655
  0
LINE
  8
0
 62
7
  6
CONTINUOUS
 10
161.6499145077
 20
114.261546655
 11
147.2499145077
 21
114.261546655
  0
LINE
  8
0
 62
7
  6
CONTINUOUS
 10
136.2499145077
 20
114.261546655
 11
121.8499145077
 21
114.261546655
  0
LINE
  8
0
 62
7
  6
CONTINUOUS
 10
110.8499145077
 20
114.261546655
 11
96.4499145077
 21
114.261546655
  0
LINE
  8
0
 62
7
  6
CONTINUOUS
 10
348.7499145077
 20
114.261546655
 11
350.7499145077
 21
114.261546655
  0
LINE
  8
0
 62
7
  6
CONTINUOUS
 10
186.3705786623
 20
136.9834508119
 11
188.9810339924
 21
130.31893022
  0
LINE
  8
0
 62
7
  6
CONTINUOUS
 10
198.7499145077
 20
140.4862066212
 11
198.7499145077
 21
137.0928650955
  0
LINE
  8
0
 62
7
  6
CONTINUOUS
 10
199.0499145077
 20
82.3862066212
 11
199.0499145077
 21
86.179551881
  0
LINE
  8
0
 62
7
  6
CONTINUOUS
 10
201.7499145077
 20
106.8362066212
 11
201.7499145077
 21
93.3186727767
  0
LINE
  8
0
 62
7
  6
CONTINUOUS
 10
208.7499145077
 20
106.8362066212
 11
208.7499145077
 21
93.3186727767
  0
LINE
  8
0
 62
7
  6
CONTINUOUS
 10
211.4499145077
 20
86.179551881
 11
211.4499145077
 21
82.3862066212
  0
LINE
  8
0
 62
7
  6
CONTINUOUS
 10
199.0705760325
 20
86.2889594504
 11
201.6810427585
 21
92.9539808785
  0
LINE
  8
0
 62
7
  6
CONTINUOUS
 10
221.518795023
 20
130.31893022
 11
224.1292503531
 21
136.9834508119
  0
LINE
  8
DEFAULT_1
 62
2
  6
CENTER
 10
369.1499145077
 20
137.0362066212
 11
10.1499145077
 21
137.0362066212
  0
LINE
  8
0
 62
7
  6
CONTINUOUS
 10
211.4292529829
 20
86.2889594504
 11
208.8187862569
 21
92.9539808785
  0
LINE
  8
0
 62
7
  6
CONTINUOUS
 10
211.7499145077
 20
137.0928650955
 11
211.7499145077
 21
140.8862066212
  0
LINE
  8
0
 62
7
  6
CONTINUOUS
 10
214.4499145077
 20
129.9542159411
 11
214.4499145077
 21
114.711781763
  0
LINE
  8
0
 62
7
  6
CONTINUOUS
 10
221.4499145077
 20
129.9542159411
 11
221.4499145077
 21
114.711781763
  0
LINE
  8
0
 62
7
  6
CONTINUOUS
 10
224.1499145077
 20
140.8862066212
 11
224.1499145077
 21
137.0928650955
  0
LINE
  8
0
 62
7
  6
CONTINUOUS
 10
224.4499145077
 20
81.8862066212
 11
224.4499145077
 21
86.179551881
  0
POLYLINE
  8
0
 62
7
  6
CONTINUOUS
 66
1
 70
0
  0
VERTEX
  8
0
 62
7
  6
CONTINUOUS
 10
163.6457474553
 20
142.6862066212
  0
VERTEX
  8
0
 62
7
  6
CONTINUOUS
 10
163.4939226422
 20
142.6819345772
  0
VERTEX
  8
0
 62
7
  6
CONTINUOUS
 10
163.3425277884
 20
142.6691262585
  0
VERTEX
  8
0
 62
7
  6
CONTINUOUS
 10
163.1920580863
 20
142.6478162542
  0
VERTEX
  8
0
 62
7
  6
CONTINUOUS
 10
163.0430134856
 20
142.6180712756
  0
VERTEX
  8
0
 62
7
  6
CONTINUOUS
 10
162.8958792904
 20
142.5799871502
  0
VERTEX
  8
0
 62
7
  6
CONTINUOUS
 10
162.7511266717
 20
142.5336864037
  0
VERTEX
  8
0
 62
7
  6
CONTINUOUS
 10
162.6092096935
 20
142.4793149116
  0
VERTEX
  8
0
 62
7
  6
CONTINUOUS
 10
162.470573801
 20
142.4170431562
  0
VERTEX
  8
0
 62
7
  6
CONTINUOUS
 10
162.3356621476
 20
142.347069976
  0
VERTEX
  8
0
 62
7
  6
CONTINUOUS
 10
162.2049007785
 20
142.2696163723
  0
VERTEX
  8
0
 62
7
  6
CONTINUOUS
 10
162.078704914
 20
142.1849282714
  0
VERTEX
  8
0
 62
7
  6
CONTINUOUS
 10
161.9574739472
 20
142.093273734
  0
VERTEX
  8
0
 62
7
  6
CONTINUOUS
 10
161.8415919712
 20
141.9949431254
  0
VERTEX
  8
0
 62
7
  6
CONTINUOUS
 10
161.731426256
 20
141.8902480791
  0
VERTEX
  8
0
 62
7
  6
CONTINUOUS
 10
161.6273257909
 20
141.7795202506
  0
VERTEX
  8
0
 62
7
  6
CONTINUOUS
 10
161.5296204759
 20
141.6631105409
  0
VERTEX
  8
0
 62
7
  6
CONTINUOUS
 10
161.4386198182
 20
141.541387708
  0
VERTEX
  8
0
 62
7
  6
CONTINUOUS
 10
161.354612221
 20
141.4147375271
  0
VERTEX
  8
0
 62
7
  6
CONTINUOUS
 10
161.2778641015
 20
141.2835617599
  0
VERTEX
  8
0
 62
7
  6
CONTINUOUS
 10
161.2086174874
 20
141.1482738801
  0
VERTEX
  8
0
 62
7
  6
CONTINUOUS
 10
161.147093499
 20
141.0093059367
  0
VERTEX
  8
0
 62
7
  6
CONTINUOUS
 10
161.0934858011
 20
140.8670956108
  0
VERTEX
  8
0
 62
7
  6
CONTINUOUS
 10
161.0479642124
 20
140.7220928249
  0
VERTEX
  8
0
 62
7
  6
CONTINUOUS
 10
161.0106739996
 20
140.5747604792
  0
VERTEX
  8
0
 62
7
  6
CONTINUOUS
 10
160.9817323446
 20
140.4255617063
  0
VERTEX
  8
0
 62
7
  6
CONTINUOUS
 10
160.9612316156
 20
140.2749728048
  0
VERTEX
  8
0
 62
7
  6
CONTINUOUS
 10
160.9499149324
 20
140.1362066212
  0
SEQEND
  0
POLYLINE
  8
0
 62
7
  6
CONTINUOUS
 66
1
 70
0
  0
VERTEX
  8
0
 62
7
  6
CONTINUOUS
 10
87.4121544487
 20
142.3862066212
  0
VERTEX
  8
0
 62
7
  6
CONTINUOUS
 10
87.2601205691
 20
142.3819227898
  0
VERTEX
  8
0
 62
7
  6
CONTINUOUS
 10
87.1085546824
 20
142.3690832547
  0
VERTEX
  8
0
 62
7
  6
CONTINUOUS
 10
86.9579503507
 20
142.3477284231
  0
VERTEX
  8
0
 62
7
  6
CONTINUOUS
 10
86.808788901
 20
142.3179264833
  0
VERTEX
  8
0
 62
7
  6
CONTINUOUS
 10
86.6615412235
 20
142.2797715233
  0
VERTEX
  8
0
 62
7
  6
CONTINUOUS
 10
86.516676919
 20
142.2333852106
  0
VERTEX
  8
0
 62
7
  6
CONTINUOUS
 10
86.3746539725
 20
142.1789142184
  0
VERTEX
  8
0
 62
7
  6
CONTINUOUS
 10
86.235924363
 20
142.1165318691
  0
VERTEX
  8
0
 62
7
  6
CONTINUOUS
 10
86.1009276452
 20
142.0464358318
  0
VERTEX
  8
0
 62
7
  6
CONTINUOUS
 10
85.9700926857
 20
141.9688487725
  0
VERTEX
  8
0
 62
7
  6
CONTINUOUS
 10
85.8438345534
 20
141.8840168362
  0
VERTEX
  8
0
 62
7
  6
CONTINUOUS
 10
85.7225540244
 20
141.7922092883
  0
VERTEX
  8
0
 62
7
  6
CONTINUOUS
 10
85.606636071
 20
141.6937175448
  0
VERTEX
  8
0
 62
7
  6
CONTINUOUS
 10
85.4964485181
 20
141.5888541255
  0
VERTEX
  8
0
 62
7
  6
CONTINUOUS
 10
85.3923411815
 20
141.4779519352
  0
VERTEX
  8
0
 62
7
  6
CONTINUOUS
 10
85.2946444267
 20
141.3613628976
  0
VERTEX
  8
0
 62
7
  6
CONTINUOUS
 10
85.2036683486
 20
141.2394570594
  0
VERTEX
  8
0
 62
7
  6
CONTINUOUS
 10
85.1197017929
 20
141.1126214802
  0
VERTEX
  8
0
 62
7
  6
CONTINUOUS
 10
85.0430109476
 20
140.981258199
  0
VERTEX
  8
0
 62
7
  6
CONTINUOUS
 10
84.973839805
 20
140.845785191
  0
VERTEX
  8
0
 62
7
  6
CONTINUOUS
 10
84.9124070893
 20
140.706630756
  0
VERTEX
  8
0
 62
7
  6
CONTINUOUS
 10
84.858908753
 20
140.5642387913
  0
VERTEX
  8
0
 62
7
  6
CONTINUOUS
 10
84.8135136233
 20
140.4190586037
  0
VERTEX
  8
0
 62
7
  6
CONTINUOUS
 10
84.776366721
 20
140.2715540546
  0
VERTEX
  8
0
 62
7
  6
CONTINUOUS
 10
84.7499164805
 20
140.1362066212
  0
SEQEND
  0
POLYLINE
  8
0
 62
7
  6
CONTINUOUS
 66
1
 70
0
  0
VERTEX
  8
0
 62
7
  6
CONTINUOUS
 10
60.8121544487
 20
142.3862066212
  0
VERTEX
  8
0
 62
7
  6
CONTINUOUS
 10
60.6601212956
 20
142.3819228307
  0
VERTEX
  8
0
 62
7
  6
CONTINUOUS
 10
60.5085556954
 20
142.3690833694
  0
VERTEX
  8
0
 62
7
  6
CONTINUOUS
 10
60.357951374
 20
142.3477285978
  0
VERTEX
  8
0
 62
7
  6
CONTINUOUS
 10
60.2087898224
 20
142.3179266946
  0
VERTEX
  8
0
 62
7
  6
CONTINUOUS
 10
60.0615420687
 20
142.2797717679
  0
VERTEX
  8
0
 62
7
  6
CONTINUOUS
 10
59.9166777184
 20
142.2333854916
  0
VERTEX
  8
0
 62
7
  6
CONTINUOUS
 10
59.77465472
 20
142.1789145295
  0
VERTEX
  8
0
 62
7
  6
CONTINUOUS
 10
59.6359250489
 20
142.116532201
  0
VERTEX
  8
0
 62
7
  6
CONTINUOUS
 10
59.5009282703
 20
142.046436179
  0
VERTEX
  8
0
 62
7
  6
CONTINUOUS
 10
59.3700932529
 20
141.9688491308
  0
VERTEX
  8
0
 62
7
  6
CONTINUOUS
 10
59.2438350636
 20
141.8840172003
  0
VERTEX
  8
0
 62
7
  6
CONTINUOUS
 10
59.1225544783
 20
141.7922096525
  0
VERTEX
  8
0
 62
7
  6
CONTINUOUS
 10
59.0066364702
 20
141.6937179039
  0
VERTEX
  8
0
 62
7
  6
CONTINUOUS
 10
58.896448865
 20
141.5888544748
  0
VERTEX
  8
0
 62
7
  6
CONTINUOUS
 10
58.7923414785
 20
141.47795227
  0
VERTEX
  8
0
 62
7
  6
CONTINUOUS
 10
58.6946446766
 20
141.3613632135
  0
VERTEX
  8
0
 62
7
  6
CONTINUOUS
 10
58.6036685546
 20
141.2394573523
  0
VERTEX
  8
0
 62
7
  6
CONTINUOUS
 10
58.5197019584
 20
141.1126217462
  0
VERTEX
  8
0
 62
7
  6
CONTINUOUS
 10
58.4430110764
 20
140.9812584346
  0
VERTEX
  8
0
 62
7
  6
CONTINUOUS
 10
58.3738399011
 20
140.8457853931
  0
VERTEX
  8
0
 62
7
  6
CONTINUOUS
 10
58.312407157
 20
140.7066309218
  0
VERTEX
  8
0
 62
7
  6
CONTINUOUS
 10
58.2589087966
 20
140.5642389183
  0
VERTEX
  8
0
 62
7
  6
CONTINUOUS
 10
58.2135136476
 20
140.4190586898
  0
VERTEX
  8
0
 62
7
  6
CONTINUOUS
 10
58.1763667307
 20
140.2715540983
  0
VERTEX
  8
0
 62
7
  6
CONTINUOUS
 10
58.1499164805
 20
140.1362066212
  0
SEQEND
  0
POLYLINE
  8
0
 62
7
  6
CONTINUOUS
 66
1
 70
0
  0
VERTEX
  8
0
 62
7
  6
CONTINUOUS
 10
31.8621544487
 20
142.3862066212
  0
VERTEX
  8
0
 62
7
  6
CONTINUOUS
 10
31.7101201283
 20
142.3819227649
  0
VERTEX
  8
0
 62
7
  6
CONTINUOUS
 10
31.5585540676
 20
142.3690831852
  0
VERTEX
  8
0
 62
7
  6
CONTINUOUS
 10
31.4079497297
 20
142.3477283171
  0
VERTEX
  8
0
 62
7
  6
CONTINUOUS
 10
31.2587883418
 20
142.3179263551
  0
VERTEX
  8
0
 62
7
  6
CONTINUOUS
 10
31.1115407105
 20
142.2797713749
  0
VERTEX
  8
0
 62
7
  6
CONTINUOUS
 10
30.966676434
 20
142.2333850401
  0
VERTEX
  8
0
 62
7
  6
CONTINUOUS
 10
30.8246535189
 20
142.1789140296
  0
VERTEX
  8
0
 62
7
  6
CONTINUOUS
 10
30.6859239467
 20
142.1165316676
  0
VERTEX
  8
0
 62
7
  6
CONTINUOUS
 10
30.5509272659
 20
142.0464356211
  0
VERTEX
  8
0
 62
7
  6
CONTINUOUS
 10
30.4200923415
 20
141.9688485551
  0
VERTEX
  8
0
 62
7
  6
CONTINUOUS
 10
30.2938342437
 20
141.8840166153
  0
VERTEX
  8
0
 62
7
  6
CONTINUOUS
 10
30.1725537489
 20
141.7922090673
  0
VERTEX
  8
0
 62
7
  6
CONTINUOUS
 10
30.0566358287
 20
141.6937173269
  0
VERTEX
  8
0
 62
7
  6
CONTINUOUS
 10
29.9464483076
 20
141.5888539136
  0
VERTEX
  8
0
 62
7
  6
CONTINUOUS
 10
29.8423410012
 20
141.477951732
  0
VERTEX
  8
0
 62
7
  6
CONTINUOUS
 10
29.744644275
 20
141.3613627059
  0
VERTEX
  8
0
 62
7
  6
CONTINUOUS
 10
29.6536682236
 20
141.2394568817
  0
VERTEX
  8
0
 62
7
  6
CONTINUOUS
 10
29.5697016924
 20
141.1126213188
  0
VERTEX
  8
0
 62
7
  6
CONTINUOUS
 10
29.4930108695
 20
140.981258056
  0
VERTEX
  8
0
 62
7
  6
CONTINUOUS
 10
29.4238397467
 20
140.8457850684
  0
VERTEX
  8
0
 62
7
  6
CONTINUOUS
 10
29.3624070483
 20
140.7066306554
  0
VERTEX
  8
0
 62
7
  6
CONTINUOUS
 10
29.3089087265
 20
140.5642387142
  0
VERTEX
  8
0
 62
7
  6
CONTINUOUS
 10
29.2635136085
 20
140.4190585514
  0
VERTEX
  8
0
 62
7
  6
CONTINUOUS
 10
29.2263667151
 20
140.2715540281
  0
VERTEX
  8
0
 62
7
  6
CONTINUOUS
 10
29.1999164805
 20
140.1362066212
  0
SEQEND
  0
POLYLINE
  8
0
 62
7
  6
CONTINUOUS
 66
1
 70
0
  0
VERTEX
  8
0
 62
7
  6
CONTINUOUS
 10
112.6373931834
 20
141.7862066212
  0
VERTEX
  8
0
 62
7
  6
CONTINUOUS
 10
112.4861617523
 20
141.7819678917
  0
VERTEX
  8
0
 62
7
  6
CONTINUOUS
 10
112.3354073829
 20
141.7692652626
  0
VERTEX
  8
0
 62
7
  6
CONTINUOUS
 10
112.1856065734
 20
141.748139537
  0
VERTEX
  8
0
 62
7
  6
CONTINUOUS
 10
112.0372204518
 20
141.7186558939
  0
VERTEX
  8
0
 62
7
  6
CONTINUOUS
 10
111.8907160836
 20
141.6809065891
  0
VERTEX
  8
0
 62
7
  6
CONTINUOUS
 10
111.7465591478
 20
141.6350116678
  0
VERTEX
  8
0
 62
7
  6
CONTINUOUS
 10
111.6051998171
 20
141.5811148139
  0
VERTEX
  8
0
 62
7
  6
CONTINUOUS
 10
111.4670785047
 20
141.5193837656
  0
VERTEX
  8
0
 62
7
  6
CONTINUOUS
 10
111.3326319558
 20
141.4500134978
  0
VERTEX
  8
0
 62
7
  6
CONTINUOUS
 10
111.2022825295
 20
141.3732220523
  0
VERTEX
  8
0
 62
7
  6
CONTINUOUS
 10
111.076438404
 20
141.2892499293
  0
VERTEX
  8
0
 62
7
  6
CONTINUOUS
 10
110.9554952051
 20
141.1983610931
  0
VERTEX
  8
0
 62
7
  6
CONTINUOUS
 10
110.8398316378
 20
141.1008400402
  0
VERTEX
  8
0
 62
7
  6
CONTINUOUS
 10
110.7298113691
 20
140.9969932057
  0
VERTEX
  8
0
 62
7
  6
CONTINUOUS
 10
110.6257821519
 20
140.8871490882
  0
VERTEX
  8
0
 62
7
  6
CONTINUOUS
 10
110.5280676087
 20
140.7716495699
  0
VERTEX
  8
0
 62
7
  6
CONTINUOUS
 10
110.4369734908
 20
140.6508554112
  0
VERTEX
  8
0
 62
7
  6
CONTINUOUS
 10
110.3527896668
 20
140.5251508942
  0
VERTEX
  8
0
 62
7
  6
CONTINUOUS
 10
110.2757803563
 20
140.3949315077
  0
VERTEX
  8
0
 62
7
  6
CONTINUOUS
 10
110.2061827463
 20
140.2605979226
  0
VERTEX
  8
0
 62
7
  6
CONTINUOUS
 10
110.149928029
 20
140.1362066212
  0
SEQEND
  0
POLYLINE
  8
0
 62
7
  6
CONTINUOUS
 66
1
 70
0
  0
VERTEX
  8
0
 62
7
  6
CONTINUOUS
 10
138.1705113497
 20
142.1862066212
  0
VERTEX
  8
0
 62
7
  6
CONTINUOUS
 10
138.0206695287
 20
142.1820455187
  0
VERTEX
  8
0
 62
7
  6
CONTINUOUS
 10
137.8712911488
 20
142.1695752137
  0
VERTEX
  8
0
 62
7
  6
CONTINUOUS
 10
137.7228442856
 20
142.1488356985
  0
VERTEX
  8
0
 62
7
  6
CONTINUOUS
 10
137.5757777898
 20
142.1198905339
  0
VERTEX
  8
0
 62
7
  6
CONTINUOUS
 10
137.4305351533
 20
142.0828262779
  0
VERTEX
  8
0
 62
7
  6
CONTINUOUS
 10
137.2875743835
 20
142.0377591088
  0
VERTEX
  8
0
 62
7
  6
CONTINUOUS
 10
137.1473398079
 20
141.9848296598
  0
VERTEX
  8
0
 62
7
  6
CONTINUOUS
 10
137.0102588717
 20
141.9241997622
  0
VERTEX
  8
0
 62
7
  6
CONTINUOUS
 10
136.8767498155
 20
141.8560540278
  0
VERTEX
  8
0
 62
7
  6
CONTINUOUS
 10
136.7472286355
 20
141.7806044178
  0
VERTEX
  8
0
 62
7
  6
CONTINUOUS
 10
136.6220953964
 20
141.6980841776
  0
VERTEX
  8
0
 62
7
  6
CONTINUOUS
 10
136.5017342785
 20
141.6087468037
  0
VERTEX
  8
0
 62
7
  6
CONTINUOUS
 10
136.386516413
 20
141.5128677641
  0
VERTEX
  8
0
 62
7
  6
CONTINUOUS
 10
136.2767966767
 20
141.4107423605
  0
VERTEX
  8
0
 62
7
  6
CONTINUOUS
 10
136.1729122116
 20
141.3026841785
  0
VERTEX
  8
0
 62
7
  6
CONTINUOUS
 10
136.0751842951
 20
141.1890271546
  0
VERTEX
  8
0
 62
7
  6
CONTINUOUS
 10
135.9839171069
 20
141.0701256005
  0
VERTEX
  8
0
 62
7
  6
CONTINUOUS
 10
135.8993882718
 20
140.946341709
  0
VERTEX
  8
0
 62
7
  6
CONTINUOUS
 10
135.8218561923
 20
140.8180529339
  0
VERTEX
  8
0
 62
7
  6
CONTINUOUS
 10
135.7515626472
 20
140.6856583031
  0
VERTEX
  8
0
 62
7
  6
CONTINUOUS
 10
135.6887286155
 20
140.5495755774
  0
VERTEX
  8
0
 62
7
  6
CONTINUOUS
 10
135.6335425296
 20
140.4102145318
  0
VERTEX
  8
0
 62
7
  6
CONTINUOUS
 10
135.5861722066
 20
140.267996481
  0
VERTEX
  8
0
 62
7
  6
CONTINUOUS
 10
135.5499184548
 20
140.1362066212
  0
SEQEND
  0
LINE
  8
0
 62
7
  6
CONTINUOUS
 10
120.0624346536
 20
141.7862066212
 11
112.6373943618
 21
141.7862066212
  0
LINE
  8
0
 62
7
  6
CONTINUOUS
 10
145.3281893584
 20
142.1862066212
 11
138.1716396571
 21
142.1862066212
  0
LINE
  8
0
 62
7
  6
CONTINUOUS
 10
94.4869650704
 20
142.3862066212
 11
87.412863945
 21
142.3862066212
  0
LINE
  8
0
 62
7
  6
CONTINUOUS
 10
67.8869650704
 20
142.3862066212
 11
60.812863945
 21
142.3862066212
  0
LINE
  8
0
 62
7
  6
CONTINUOUS
 10
38.9369650704
 20
142.3862066212
 11
31.862863945
 21
142.3862066212
  0
LINE
  8
0
 62
7
  6
CONTINUOUS
 10
170.6538750412
 20
142.6862066212
 11
163.6459539742
 21
142.6862066212
  0
LINE
  8
0
 62
7
  6
CONTINUOUS
 10
196.0499145077
 20
143.1862066212
 11
189.0499145077
 21
143.1862066212
  0
LINE
  8
0
 62
7
  6
CONTINUOUS
 10
221.4499145077
 20
143.5862066212
 11
214.4499145077
 21
143.5862066212
  0
LINE
  8
0
 62
7
  6
CONTINUOUS
 10
246.8499145077
 20
144.0862066212
 11
239.8499145077
 21
144.0862066212
  0
LINE
  8
0
 62
7
  6
CONTINUOUS
 10
272.2499145077
 20
144.3862066212
 11
265.2499145077
 21
144.3862066212
  0
LINE
  8
0
 62
7
  6
CONTINUOUS
 10
297.6499145077
 20
144.4862066212
 11
290.6499145077
 21
144.4862066212
  0
LINE
  8
0
 62
7
  6
CONTINUOUS
 10
348.4499145077
 20
145.0362066212
 11
341.4499145077
 21
145.0362066212
  0
LINE
  8
0
 62
7
  6
CONTINUOUS
 10
323.0499145077
 20
145.0362066212
 11
316.0499145077
 21
145.0362066212
  0
LINE
  8
0
 62
7
  6
CONTINUOUS
 10
211.7705786623
 20
136.9834508119
 11
214.3810339924
 21
130.31893022
  0
LINE
  8
0
 62
7
  6
CONTINUOUS
 10
236.8292529829
 20
86.2889594504
 11
234.2187862569
 21
92.9539808785
  0
LINE
  8
0
 62
7
  6
CONTINUOUS
 10
227.1499145077
 20
106.8362066212
 11
227.1499145077
 21
93.3186727767
  0
LINE
  8
0
 62
7
  6
CONTINUOUS
 10
234.1499145077
 20
106.8362066212
 11
234.1499145077
 21
93.3186727767
  0
LINE
  8
0
 62
7
  6
CONTINUOUS
 10
236.8499145077
 20
86.179551881
 11
236.8499145077
 21
81.8862066212
  0
LINE
  8
0
 62
7
  6
CONTINUOUS
 10
237.1499145077
 20
137.0928650955
 11
237.1499145077
 21
141.3862066212
  0
LINE
  8
0
 62
7
  6
CONTINUOUS
 10
239.8499145077
 20
129.9542159411
 11
239.8499145077
 21
114.711781763
  0
LINE
  8
0
 62
7
  6
CONTINUOUS
 10
224.4705760325
 20
86.2889594504
 11
227.0810427585
 21
92.9539808785
  0
LINE
  8
0
 62
7
  6
CONTINUOUS
 10
246.918795023
 20
130.31893022
 11
249.5292503531
 21
136.9834508119
  0
POLYLINE
  8
0
 62
7
  6
CONTINUOUS
 66
1
 70
0
  0
VERTEX
  8
0
 62
7
  6
CONTINUOUS
 10
348.371041581
 20
112.4453419979
  0
VERTEX
  8
0
 62
7
  6
CONTINUOUS
 10
348.3535608387
 20
112.4510150069
  0
VERTEX
  8
0
 62
7
  6
CONTINUOUS
 10
348.3376200883
 20
112.4563460553
  0
SEQEND
  0
POLYLINE
  8
0
 62
7
  6
CONTINUOUS
 66
1
 70
0
  0
VERTEX
  8
0
 62
7
  6
CONTINUOUS
 10
348.2856893781
 20
112.4740086788
  0
VERTEX
  8
0
 62
7
  6
CONTINUOUS
 10
348.2749604316
 20
112.4775440187
  0
VERTEX
  8
0
 62
7
  6
CONTINUOUS
 10
348.2647391885
 20
112.4808168048
  0
VERTEX
  8
0
 62
7
  6
CONTINUOUS
 10
348.2549284544
 20
112.4838486237
  0
VERTEX
  8
0
 62
7
  6
CONTINUOUS
 10
348.245896403
 20
112.4865066699
  0
VERTEX
  8
0
 62
7
  6
CONTINUOUS
 10
348.2374657957
 20
112.4888687948
  0
VERTEX
  8
0
 62
7
  6
CONTINUOUS
 10
348.2292704519
 20
112.4910341751
  0
VERTEX
  8
0
 62
7
  6
CONTINUOUS
 10
348.2208391361
 20
112.4930959089
  0
VERTEX
  8
0
 62
7
  6
CONTINUOUS
 10
348.2117528729
 20
112.4951274745
  0
VERTEX
  8
0
 62
7
  6
CONTINUOUS
 10
348.2017918484
 20
112.497091123
  0
VERTEX
  8
0
 62
7
  6
CONTINUOUS
 10
348.1907546858
 20
112.4989262361
  0
VERTEX
  8
0
 62
7
  6
CONTINUOUS
 10
348.178530205
 20
112.5004546759
  0
VERTEX
  8
0
 62
7
  6
CONTINUOUS
 10
348.1647260707
 20
112.5015562944
  0
VERTEX
  8
0
 62
7
  6
CONTINUOUS
 10
348.1499145077
 20
112.5019978848
  0
SEQEND
  0
LINE
  8
0
 62
7
  6
CONTINUOUS
 10
348.3376200883
 20
112.4563460553
 11
348.2856893781
 21
112.4740086788
  0
LINE
  8
0
 62
7
  6
CONTINUOUS
 10
246.8499145077
 20
129.9542159411
 11
246.8499145077
 21
114.711781763
  0
LINE
  8
0
 62
7
  6
CONTINUOUS
 10
249.5499145077
 20
141.3862066212
 11
249.5499145077
 21
137.0928650955
  0
LINE
  8
0
 62
7
  6
CONTINUOUS
 10
249.8499145077
 20
81.5862066212
 11
249.8499145077
 21
86.179551881
  0
LINE
  8
0
 62
7
  6
CONTINUOUS
 10
252.5499145077
 20
106.8362066212
 11
252.5499145077
 21
93.3186727767
  0
LINE
  8
0
 62
7
  6
CONTINUOUS
 10
249.8705760325
 20
86.2889594504
 11
252.4810427585
 21
92.9539808785
  0
LINE
  8
0
 62
7
  6
CONTINUOUS
 10
237.1705786623
 20
136.9834508119
 11
239.7810339924
 21
130.31893022
  0
LINE
  8
0
 62
7
  6
CONTINUOUS
 10
262.2292529829
 20
86.2889594504
 11
259.6187862569
 21
92.9539808785
  0
LINE
  8
0
 62
7
  6
CONTINUOUS
 10
259.5499145077
 20
106.8362066212
 11
259.5499145077
 21
93.3186727767
  0
LINE
  8
0
 62
7
  6
CONTINUOUS
 10
262.2499145077
 20
86.179551881
 11
262.2499145077
 21
81.5862066212
  0
LINE
  8
0
 62
7
  6
CONTINUOUS
 10
262.5499145077
 20
137.0928650955
 11
262.5499145077
 21
141.6862066212
  0
LINE
  8
0
 62
7
  6
CONTINUOUS
 10
265.2499145077
 20
129.9542159411
 11
265.2499145077
 21
114.711781763
  0
LINE
  8
0
 62
7
  6
CONTINUOUS
 10
272.318795023
 20
130.31893022
 11
274.9292503531
 21
136.9834508119
  0
LINE
  8
0
 62
7
  6
CONTINUOUS
 10
262.5705786623
 20
136.9834508119
 11
265.1810339924
 21
130.31893022
  0
LINE
  8
0
 62
7
  6
CONTINUOUS
 10
272.2499145077
 20
129.9542159411
 11
272.2499145077
 21
114.711781763
  0
LINE
  8
0
 62
7
  6
CONTINUOUS
 10
274.9499145077
 20
141.6862066212
 11
274.9499145077
 21
137.0928650955
  0
LINE
  8
0
 62
7
  6
CONTINUOUS
 10
275.2499145077
 20
80.9362066212
 11
275.2499145077
 21
86.179551881
  0
LINE
  8
0
 62
7
  6
CONTINUOUS
 10
277.9499145077
 20
106.8362066212
 11
277.9499145077
 21
93.3186727767
  0
LINE
  8
0
 62
7
  6
CONTINUOUS
 10
284.9499145077
 20
106.8362066212
 11
284.9499145077
 21
93.3186727767
  0
LINE
  8
0
 62
7
  6
CONTINUOUS
 10
275.2705760325
 20
86.2889594504
 11
277.8810427585
 21
92.9539808785
  0
LINE
  8
0
 62
7
  6
CONTINUOUS
 10
297.718795023
 20
130.31893022
 11
300.3292503531
 21
136.9834508119
  0
LINE
  8
0
 62
7
  6
CONTINUOUS
 10
287.6292529829
 20
86.2889594504
 11
285.0187862569
 21
92.9539808785
  0
LINE
  8
0
 62
7
  6
CONTINUOUS
 10
287.6499145077
 20
80.9362066212
 11
287.6499145077
 21
86.179551881
  0
LINE
  8
0
 62
7
  6
CONTINUOUS
 10
287.9499145077
 20
137.0928650955
 11
287.9499145077
 21
141.7862066212
  0
LINE
  8
0
 62
7
  6
CONTINUOUS
 10
290.6499145077
 20
129.9542159411
 11
290.6499145077
 21
114.711781763
  0
LINE
  8
0
 62
7
  6
CONTINUOUS
 10
297.6499145077
 20
129.9542159411
 11
297.6499145077
 21
114.711781763
  0
LINE
  8
0
 62
7
  6
CONTINUOUS
 10
300.3499145077
 20
141.7862066212
 11
300.3499145077
 21
137.0928650955
  0
LINE
  8
0
 62
7
  6
CONTINUOUS
 10
300.6499145077
 20
80.9362066212
 11
300.6499145077
 21
86.179551881
  0
LINE
  8
0
 62
7
  6
CONTINUOUS
 10
287.9705786623
 20
136.9834508119
 11
290.5810339924
 21
130.31893022
  0
LINE
  8
0
 62
7
  6
CONTINUOUS
 10
313.0292529829
 20
86.2889594504
 11
310.4187862569
 21
92.9539808785
  0
LINE
  8
0
 62
7
  6
CONTINUOUS
 10
303.3499145077
 20
106.8362066212
 11
303.3499145077
 21
93.3186727767
  0
LINE
  8
0
 62
7
  6
CONTINUOUS
 10
310.3499145077
 20
106.8362066212
 11
310.3499145077
 21
93.3186727767
  0
LINE
  8
0
 62
7
  6
CONTINUOUS
 10
313.0499145077
 20
86.179551881
 11
313.0499145077
 21
80.9362066212
  0
LINE
  8
0
 62
7
  6
CONTINUOUS
 10
313.3499145077
 20
137.0928650955
 11
313.3499145077
 21
142.3362066212
  0
LINE
  8
0
 62
7
  6
CONTINUOUS
 10
300.6705760325
 20
86.2889594504
 11
303.2810427585
 21
92.9539808785
  0
LINE
  8
0
 62
7
  6
CONTINUOUS
 10
323.118795023
 20
130.31893022
 11
325.7292503531
 21
136.9834508119
  0
LINE
  8
0
 62
7
  6
CONTINUOUS
 10
313.3705786623
 20
136.9834508119
 11
315.9810339924
 21
130.31893022
  0
LINE
  8
0
 62
7
  6
CONTINUOUS
 10
316.0499145077
 20
129.9542159411
 11
316.0499145077
 21
114.711781763
  0
LINE
  8
0
 62
7
  6
CONTINUOUS
 10
323.0499145077
 20
129.9542159411
 11
323.0499145077
 21
114.711781763
  0
LINE
  8
0
 62
7
  6
CONTINUOUS
 10
325.7499145077
 20
142.3362066212
 11
325.7499145077
 21
137.0928650955
  0
LINE
  8
0
 62
7
  6
CONTINUOUS
 10
326.0499145077
 20
80.9362066212
 11
326.0499145077
 21
86.179551881
  0
LINE
  8
0
 62
7
  6
CONTINUOUS
 10
328.7499145077
 20
106.8362066212
 11
328.7499145077
 21
93.3186727767
  0
LINE
  8
0
 62
7
  6
CONTINUOUS
 10
326.0705760325
 20
86.2889594504
 11
328.6810427585
 21
92.9539808785
  0
LINE
  8
0
 62
7
  6
CONTINUOUS
 10
348.518795023
 20
130.31893022
 11
351.1292503531
 21
136.9834508119
  0
LINE
  8
0
 62
7
  6
CONTINUOUS
 10
338.4292529829
 20
86.2889594504
 11
335.8187862569
 21
92.9539808785
  0
LINE
  8
0
 62
7
  6
CONTINUOUS
 10
335.7499145077
 20
106.8362066212
 11
335.7499145077
 21
93.3186727767
  0
LINE
  8
0
 62
7
  6
CONTINUOUS
 10
338.4499145077
 20
86.179551881
 11
338.4499145077
 21
80.9362066212
  0
LINE
  8
0
 62
7
  6
CONTINUOUS
 10
338.7499145077
 20
137.0928650955
 11
338.7499145077
 21
142.3362066212
  0
LINE
  8
0
 62
7
  6
CONTINUOUS
 10
341.4499145077
 20
129.9542159411
 11
341.4499145077
 21
114.711781763
  0
LINE
  8
0
 62
7
  6
CONTINUOUS
 10
338.7705786623
 20
136.9834508119
 11
341.3810339924
 21
130.31893022
  0
LINE
  8
0
 62
7
  6
CONTINUOUS
 10
348.4499145077
 20
112.8256852787
 11
348.4499145077
 21
129.9542159411
  0
LINE
  8
0
 62
7
  6
CONTINUOUS
 10
351.0499145077
 20
113.961546176
 11
351.0499145077
 21
109.1362066212
  0
LINE
  8
0
 62
7
  6
CONTINUOUS
 10
351.1499145077
 20
142.3362066212
 11
351.1499145077
 21
137.0928650955
  0
LINE
  8
0
 62
7
  6
CONTINUOUS
 10
16.8999145077
 20
206.0948603209
 11
16.8999145077
 21
220.4948603209
  0
LINE
  8
0
 62
7
  6
CONTINUOUS
 10
18.3299145077
 20
220.7948603209
 11
18.3299145077
 21
220.9448603209
  0
POLYLINE
  8
0
 62
7
  6
CONTINUOUS
 66
1
 70
0
  0
VERTEX
  8
0
 62
7
  6
CONTINUOUS
 10
16.8999145077
 20
209.4215292745
  0
VERTEX
  8
0
 62
7
  6
CONTINUOUS
 10
16.9034447942
 20
209.5259468331
  0
VERTEX
  8
0
 62
7
  6
CONTINUOUS
 10
16.9139976577
 20
209.6405745422
  0
VERTEX
  8
0
 62
7
  6
CONTINUOUS
 10
16.9314556667
 20
209.7657593682
  0
VERTEX
  8
0
 62
7
  6
CONTINUOUS
 10
16.9556676224
 20
209.9021085211
  0
VERTEX
  8
0
 62
7
  6
CONTINUOUS
 10
16.9863559449
 20
210.0499481386
  0
VERTEX
  8
0
 62
7
  6
CONTINUOUS
 10
17.0230948713
 20
210.2094687192
  0
VERTEX
  8
0
 62
7
  6
CONTINUOUS
 10
17.065207875
 20
210.3804009785
  0
VERTEX
  8
0
 62
7
  6
CONTINUOUS
 10
17.1117408673
 20
210.5620045169
  0
VERTEX
  8
0
 62
7
  6
CONTINUOUS
 10
17.213165701
 20
210.9527055859
  0
SEQEND
  0
LINE
  8
0
 62
7
  6
CONTINUOUS
 10
21.5107655798
 20
220.7948603209
 11
21.5107655798
 21
220.9448603209
  0
LINE
  8
0
 62
7
  6
CONTINUOUS
 10
21.7873612915
 20
220.7948603209
 11
21.7873612915
 21
220.9448603209
  0
LINE
  8
0
 62
7
  6
CONTINUOUS
 10
22.3405527149
 20
220.7948603209
 11
22.3405527149
 21
220.9448603209
  0
LINE
  8
0
 62
7
  6
CONTINUOUS
 10
22.7554462825
 20
220.7948603209
 11
22.7554462825
 21
220.9448603209
  0
LINE
  8
0
 62
7
  6
CONTINUOUS
 10
23.3086380933
 20
220.7948603209
 11
23.3086380933
 21
220.9448603209
  0
LINE
  8
0
 62
7
  6
CONTINUOUS
 10
23.7235316609
 20
220.7948603209
 11
23.7235316609
 21
220.9448603209
  0
LINE
  8
0
 62
7
  6
CONTINUOUS
 10
24.2767230843
 20
220.7948603209
 11
24.2767230843
 21
220.9448603209
  0
LINE
  8
0
 62
7
  6
CONTINUOUS
 10
24.6916166519
 20
220.7948603209
 11
24.6916166519
 21
220.9448603209
  0
LINE
  8
0
 62
7
  6
CONTINUOUS
 10
24.8299145077
 20
220.7948603209
 11
24.8299145077
 21
220.9448603209
  0
LINE
  8
0
 62
7
  6
CONTINUOUS
 10
26.5999145077
 20
206.0948603209
 11
26.5999145077
 21
220.4948603209
  0
POLYLINE
  8
0
 62
7
  6
CONTINUOUS
 66
1
 70
0
  0
VERTEX
  8
0
 62
7
  6
CONTINUOUS
 10
17.213165701
 20
210.9527055859
  0
VERTEX
  8
0
 62
7
  6
CONTINUOUS
 10
17.2654420763
 20
211.1597257214
  0
VERTEX
  8
0
 62
7
  6
CONTINUOUS
 10
17.3167670714
 20
211.3723085259
  0
VERTEX
  8
0
 62
7
  6
CONTINUOUS
 10
17.3656071395
 20
211.5882858853
  0
VERTEX
  8
0
 62
7
  6
CONTINUOUS
 10
17.4106464191
 20
211.8057151601
  0
VERTEX
  8
0
 62
7
  6
CONTINUOUS
 10
17.4507863462
 20
212.0226280974
  0
VERTEX
  8
0
 62
7
  6
CONTINUOUS
 10
17.485374172
 20
212.238216667
  0
VERTEX
  8
0
 62
7
  6
CONTINUOUS
 10
17.5139740016
 20
212.4519425958
  0
VERTEX
  8
0
 62
7
  6
CONTINUOUS
 10
17.5363794449
 20
212.664021213
  0
VERTEX
  8
0
 62
7
  6
CONTINUOUS
 10
17.5524483107
 20
212.8745482253
  0
VERTEX
  8
0
 62
7
  6
CONTINUOUS
 10
17.562122821
 20
213.0837909359
  0
VERTEX
  8
0
 62
7
  6
CONTINUOUS
 10
17.5653986145
 20
213.2925496769
  0
VERTEX
  8
0
 62
7
  6
CONTINUOUS
 10
17.5622687568
 20
213.5011702879
  0
VERTEX
  8
0
 62
7
  6
CONTINUOUS
 10
17.5527378603
 20
213.7104275513
  0
VERTEX
  8
0
 62
7
  6
CONTINUOUS
 10
17.5368133915
 20
213.9209200517
  0
VERTEX
  8
0
 62
7
  6
CONTINUOUS
 10
17.5145605886
 20
214.1328740129
  0
VERTEX
  8
0
 62
7
  6
CONTINUOUS
 10
17.4860755598
 20
214.3467359093
  0
VERTEX
  8
0
 62
7
  6
CONTINUOUS
 10
17.4516414327
 20
214.562144806
  0
VERTEX
  8
0
 62
7
  6
CONTINUOUS
 10
17.4116616737
 20
214.7788333841
  0
VERTEX
  8
0
 62
7
  6
CONTINUOUS
 10
17.3667620394
 20
214.9961122697
  0
VERTEX
  8
0
 62
7
  6
CONTINUOUS
 10
17.3178976683
 20
215.2125865573
  0
VERTEX
  8
0
 62
7
  6
CONTINUOUS
 10
17.2664896618
 20
215.4257645261
  0
VERTEX
  8
0
 62
7
  6
CONTINUOUS
 10
17.2140368015
 20
215.6336189884
  0
VERTEX
  8
0
 62
7
  6
CONTINUOUS
 10
17.1119191633
 20
216.0270282249
  0
SEQEND
  0
POLYLINE
  8
0
 62
7
  6
CONTINUOUS
 66
1
 70
0
  0
VERTEX
  8
0
 62
7
  6
CONTINUOUS
 10
17.1119191633
 20
216.0270282249
  0
VERTEX
  8
0
 62
7
  6
CONTINUOUS
 10
17.065236119
 20
216.2092076979
  0
VERTEX
  8
0
 62
7
  6
CONTINUOUS
 10
17.0230883795
 20
216.380279049
  0
VERTEX
  8
0
 62
7
  6
CONTINUOUS
 10
16.9863904458
 20
216.5396156567
  0
VERTEX
  8
0
 62
7
  6
CONTINUOUS
 10
16.9557086072
 20
216.6874004985
  0
VERTEX
  8
0
 62
7
  6
CONTINUOUS
 10
16.9314887453
 20
216.8237541557
  0
VERTEX
  8
0
 62
7
  6
CONTINUOUS
 10
16.914007256
 20
216.94906413
  0
VERTEX
  8
0
 62
7
  6
CONTINUOUS
 10
16.9034422193
 20
217.0638137709
  0
VERTEX
  8
0
 62
7
  6
CONTINUOUS
 10
16.8999145077
 20
217.1681913672
  0
SEQEND
  0
POLYLINE
  8
0
 62
7
  6
CONTINUOUS
 66
1
 70
0
  0
VERTEX
  8
0
 62
7
  6
CONTINUOUS
 10
44.2499145077
 20
208.9744099953
  0
VERTEX
  8
0
 62
7
  6
CONTINUOUS
 10
44.2507318362
 20
208.8990955458
  0
VERTEX
  8
0
 62
7
  6
CONTINUOUS
 10
44.2540607854
 20
208.8038147328
  0
VERTEX
  8
0
 62
7
  6
CONTINUOUS
 10
44.2600256424
 20
208.7061396751
  0
VERTEX
  8
0
 62
7
  6
CONTINUOUS
 10
44.2686571494
 20
208.6061943237
  0
VERTEX
  8
0
 62
7
  6
CONTINUOUS
 10
44.2799409481
 20
208.5041703062
  0
VERTEX
  8
0
 62
7
  6
CONTINUOUS
 10
44.2939145451
 20
208.3999045593
  0
VERTEX
  8
0
 62
7
  6
CONTINUOUS
 10
44.3106931215
 20
208.2935361755
  0
VERTEX
  8
0
 62
7
  6
CONTINUOUS
 10
44.3304206394
 20
208.1852009309
  0
VERTEX
  8
0
 62
7
  6
CONTINUOUS
 10
44.3531951707
 20
208.075025111
  0
VERTEX
  8
0
 62
7
  6
CONTINUOUS
 10
44.3791044114
 20
207.9632833447
  0
VERTEX
  8
0
 62
7
  6
CONTINUOUS
 10
44.4082726999
 20
207.850397214
  0
VERTEX
  8
0
 62
7
  6
CONTINUOUS
 10
44.4408019513
 20
207.7368038959
  0
VERTEX
  8
0
 62
7
  6
CONTINUOUS
 10
44.4767852546
 20
207.6229061624
  0
VERTEX
  8
0
 62
7
  6
CONTINUOUS
 10
44.5162528416
 20
207.5093550153
  0
VERTEX
  8
0
 62
7
  6
CONTINUOUS
 10
44.5593181346
 20
207.3965536825
  0
VERTEX
  8
0
 62
7
  6
CONTINUOUS
 10
44.6061726366
 20
207.2847274541
  0
VERTEX
  8
0
 62
7
  6
CONTINUOUS
 10
44.6572058041
 20
207.1739185414
  0
VERTEX
  8
0
 62
7
  6
CONTINUOUS
 10
44.7128900701
 20
207.0642074649
  0
VERTEX
  8
0
 62
7
  6
CONTINUOUS
 10
44.7736819284
 20
206.955911354
  0
VERTEX
  8
0
 62
7
  6
CONTINUOUS
 10
44.8398797665
 20
206.8498415913
  0
VERTEX
  8
0
 62
7
  6
CONTINUOUS
 10
44.9116651375
 20
206.7471586945
  0
VERTEX
  8
0
 62
7
  6
CONTINUOUS
 10
44.9892973132
 20
206.6489748293
  0
VERTEX
  8
0
 62
7
  6
CONTINUOUS
 10
45.0728762374
 20
206.5565826087
  0
VERTEX
  8
0
 62
7
  6
CONTINUOUS
 10
45.1561911791
 20
206.4768026855
  0
SEQEND
  0
LINE
  8
0
 62
7
  6
CONTINUOUS
 10
44.2499145077
 20
215.5453212719
 11
44.2503610895
 21
215.1160743975
  0
LINE
  8
0
 62
7
  6
CONTINUOUS
 10
44.2499145077
 20
215.5453212719
 11
44.2499145077
 21
217.6153106467
  0
LINE
  8
0
 62
7
  6
CONTINUOUS
 10
44.250152822
 20
213.9948919522
 11
44.2503769858
 21
211.6203185018
  0
LINE
  8
0
 62
7
  6
CONTINUOUS
 10
44.2503610895
 20
215.1160743975
 11
44.250152822
 21
213.9948919522
  0
LINE
  8
0
 62
7
  6
CONTINUOUS
 10
44.2503769858
 20
211.6203185018
 11
44.2499145077
 21
208.9744099951
  0
POLYLINE
  8
0
 62
7
  6
CONTINUOUS
 66
1
 70
0
  0
VERTEX
  8
0
 62
7
  6
CONTINUOUS
 10
56.6499145077
 20
217.6153106465
  0
VERTEX
  8
0
 62
7
  6
CONTINUOUS
 10
56.6490971792
 20
217.690625096
  0
VERTEX
  8
0
 62
7
  6
CONTINUOUS
 10
56.64576823
 20
217.785905909
  0
VERTEX
  8
0
 62
7
  6
CONTINUOUS
 10
56.639803373
 20
217.8835809667
  0
VERTEX
  8
0
 62
7
  6
CONTINUOUS
 10
56.6311718661
 20
217.9835263181
  0
VERTEX
  8
0
 62
7
  6
CONTINUOUS
 10
56.6198880673
 20
218.0855503356
  0
VERTEX
  8
0
 62
7
  6
CONTINUOUS
 10
56.6059144703
 20
218.1898160824
  0
VERTEX
  8
0
 62
7
  6
CONTINUOUS
 10
56.589135894
 20
218.2961844663
  0
VERTEX
  8
0
 62
7
  6
CONTINUOUS
 10
56.569408376
 20
218.4045197108
  0
VERTEX
  8
0
 62
7
  6
CONTINUOUS
 10
56.5466338447
 20
218.5146955308
  0
VERTEX
  8
0
 62
7
  6
CONTINUOUS
 10
56.5207246041
 20
218.6264372971
  0
VERTEX
  8
0
 62
7
  6
CONTINUOUS
 10
56.4915563155
 20
218.7393234278
  0
VERTEX
  8
0
 62
7
  6
CONTINUOUS
 10
56.4590270641
 20
218.8529167458
  0
VERTEX
  8
0
 62
7
  6
CONTINUOUS
 10
56.4230437608
 20
218.9668144794
  0
VERTEX
  8
0
 62
7
  6
CONTINUOUS
 10
56.3835761738
 20
219.0803656265
  0
VERTEX
  8
0
 62
7
  6
CONTINUOUS
 10
56.3405108808
 20
219.1931669593
  0
VERTEX
  8
0
 62
7
  6
CONTINUOUS
 10
56.2936563789
 20
219.3049931877
  0
VERTEX
  8
0
 62
7
  6
CONTINUOUS
 10
56.2426232113
 20
219.4158021004
  0
VERTEX
  8
0
 62
7
  6
CONTINUOUS
 10
56.1869389453
 20
219.5255131769
  0
VERTEX
  8
0
 62
7
  6
CONTINUOUS
 10
56.126147087
 20
219.6338092878
  0
VERTEX
  8
0
 62
7
  6
CONTINUOUS
 10
56.0599492489
 20
219.7398790505
  0
VERTEX
  8
0
 62
7
  6
CONTINUOUS
 10
55.9881638779
 20
219.8425619473
  0
VERTEX
  8
0
 62
7
  6
CONTINUOUS
 10
55.9105317022
 20
219.9407458125
  0
VERTEX
  8
0
 62
7
  6
CONTINUOUS
 10
55.826952778
 20
220.0331380331
  0
VERTEX
  8
0
 62
7
  6
CONTINUOUS
 10
55.7436378363
 20
220.1129179563
  0
SEQEND
  0
LINE
  8
0
 62
7
  6
CONTINUOUS
 10
56.6499145077
 20
211.0443993699
 11
56.6494679201
 21
211.4736662982
  0
LINE
  8
0
 62
7
  6
CONTINUOUS
 10
56.6499145077
 20
211.0443993698
 11
56.6499145077
 21
208.9744099951
  0
LINE
  8
0
 62
7
  6
CONTINUOUS
 10
56.6494679201
 20
211.4736662982
 11
56.6498516701
 21
212.9435323592
  0
POLYLINE
  8
0
 62
7
  6
CONTINUOUS
 66
1
 70
0
  0
VERTEX
  8
0
 62
7
  6
CONTINUOUS
 10
56.6498516701
 20
212.9435323592
  0
VERTEX
  8
0
 62
7
  6
CONTINUOUS
 10
56.6496776057
 20
215.3917895025
  0
VERTEX
  8
0
 62
7
  6
CONTINUOUS
 10
56.6499145077
 20
217.6153106467
  0
SEQEND
  0
POLYLINE
  8
0
 62
7
  6
CONTINUOUS
 66
1
 70
0
  0
VERTEX
  8
0
 62
7
  6
CONTINUOUS
 10
72.0499145077
 20
208.9744099953
  0
VERTEX
  8
0
 62
7
  6
CONTINUOUS
 10
72.0507318362
 20
208.8990955458
  0
VERTEX
  8
0
 62
7
  6
CONTINUOUS
 10
72.0540607854
 20
208.8038147327
  0
VERTEX
  8
0
 62
7
  6
CONTINUOUS
 10
72.0600256424
 20
208.7061396751
  0
VERTEX
  8
0
 62
7
  6
CONTINUOUS
 10
72.0686571494
 20
208.6061943237
  0
VERTEX
  8
0
 62
7
  6
CONTINUOUS
 10
72.0799409481
 20
208.5041703062
  0
VERTEX
  8
0
 62
7
  6
CONTINUOUS
 10
72.0939145451
 20
208.3999045593
  0
VERTEX
  8
0
 62
7
  6
CONTINUOUS
 10
72.1106931215
 20
208.2935361755
  0
VERTEX
  8
0
 62
7
  6
CONTINUOUS
 10
72.1304206394
 20
208.1852009309
  0
VERTEX
  8
0
 62
7
  6
CONTINUOUS
 10
72.1531951707
 20
208.075025111
  0
VERTEX
  8
0
 62
7
  6
CONTINUOUS
 10
72.1791044114
 20
207.9632833447
  0
VERTEX
  8
0
 62
7
  6
CONTINUOUS
 10
72.2082726999
 20
207.850397214
  0
VERTEX
  8
0
 62
7
  6
CONTINUOUS
 10
72.2408019513
 20
207.7368038959
  0
VERTEX
  8
0
 62
7
  6
CONTINUOUS
 10
72.2767852546
 20
207.6229061624
  0
VERTEX
  8
0
 62
7
  6
CONTINUOUS
 10
72.3162528416
 20
207.5093550152
  0
VERTEX
  8
0
 62
7
  6
CONTINUOUS
 10
72.3593181346
 20
207.3965536825
  0
VERTEX
  8
0
 62
7
  6
CONTINUOUS
 10
72.4061726366
 20
207.2847274541
  0
VERTEX
  8
0
 62
7
  6
CONTINUOUS
 10
72.4572058041
 20
207.1739185414
  0
VERTEX
  8
0
 62
7
  6
CONTINUOUS
 10
72.5128900701
 20
207.0642074648
  0
VERTEX
  8
0
 62
7
  6
CONTINUOUS
 10
72.5736819284
 20
206.955911354
  0
VERTEX
  8
0
 62
7
  6
CONTINUOUS
 10
72.6398797665
 20
206.8498415913
  0
VERTEX
  8
0
 62
7
  6
CONTINUOUS
 10
72.7116651376
 20
206.7471586945
  0
VERTEX
  8
0
 62
7
  6
CONTINUOUS
 10
72.7892973132
 20
206.6489748293
  0
VERTEX
  8
0
 62
7
  6
CONTINUOUS
 10
72.8728762374
 20
206.5565826087
  0
VERTEX
  8
0
 62
7
  6
CONTINUOUS
 10
72.9561911791
 20
206.4768026855
  0
SEQEND
  0
LINE
  8
0
 62
7
  6
CONTINUOUS
 10
72.0499145077
 20
215.5453212719
 11
72.0503610895
 21
215.1160743975
  0
LINE
  8
0
 62
7
  6
CONTINUOUS
 10
72.0499145077
 20
215.5453212719
 11
72.0499145077
 21
217.6153106467
  0
LINE
  8
0
 62
7
  6
CONTINUOUS
 10
72.050152822
 20
213.9948919522
 11
72.0503769858
 21
211.6203185018
  0
LINE
  8
0
 62
7
  6
CONTINUOUS
 10
72.0503610895
 20
215.1160743975
 11
72.050152822
 21
213.9948919522
  0
LINE
  8
0
 62
7
  6
CONTINUOUS
 10
72.0503769858
 20
211.6203185018
 11
72.0499145077
 21
208.9744099951
  0
POLYLINE
  8
0
 62
7
  6
CONTINUOUS
 66
1
 70
0
  0
VERTEX
  8
0
 62
7
  6
CONTINUOUS
 10
84.4499145077
 20
217.6153106465
  0
VERTEX
  8
0
 62
7
  6
CONTINUOUS
 10
84.4490971792
 20
217.690625096
  0
VERTEX
  8
0
 62
7
  6
CONTINUOUS
 10
84.44576823
 20
217.785905909
  0
VERTEX
  8
0
 62
7
  6
CONTINUOUS
 10
84.439803373
 20
217.8835809667
  0
VERTEX
  8
0
 62
7
  6
CONTINUOUS
 10
84.4311718661
 20
217.9835263181
  0
VERTEX
  8
0
 62
7
  6
CONTINUOUS
 10
84.4198880673
 20
218.0855503356
  0
VERTEX
  8
0
 62
7
  6
CONTINUOUS
 10
84.4059144703
 20
218.1898160825
  0
VERTEX
  8
0
 62
7
  6
CONTINUOUS
 10
84.389135894
 20
218.2961844663
  0
VERTEX
  8
0
 62
7
  6
CONTINUOUS
 10
84.369408376
 20
218.4045197109
  0
VERTEX
  8
0
 62
7
  6
CONTINUOUS
 10
84.3466338447
 20
218.5146955308
  0
VERTEX
  8
0
 62
7
  6
CONTINUOUS
 10
84.320724604
 20
218.6264372971
  0
VERTEX
  8
0
 62
7
  6
CONTINUOUS
 10
84.2915563155
 20
218.7393234278
  0
VERTEX
  8
0
 62
7
  6
CONTINUOUS
 10
84.2590270641
 20
218.8529167459
  0
VERTEX
  8
0
 62
7
  6
CONTINUOUS
 10
84.2230437608
 20
218.9668144795
  0
VERTEX
  8
0
 62
7
  6
CONTINUOUS
 10
84.1835761738
 20
219.0803656266
  0
VERTEX
  8
0
 62
7
  6
CONTINUOUS
 10
84.1405108808
 20
219.1931669593
  0
VERTEX
  8
0
 62
7
  6
CONTINUOUS
 10
84.0936563788
 20
219.3049931877
  0
VERTEX
  8
0
 62
7
  6
CONTINUOUS
 10
84.0426232113
 20
219.4158021004
  0
VERTEX
  8
0
 62
7
  6
CONTINUOUS
 10
83.9869389453
 20
219.525513177
  0
VERTEX
  8
0
 62
7
  6
CONTINUOUS
 10
83.926147087
 20
219.6338092878
  0
VERTEX
  8
0
 62
7
  6
CONTINUOUS
 10
83.8599492489
 20
219.7398790505
  0
VERTEX
  8
0
 62
7
  6
CONTINUOUS
 10
83.7881638778
 20
219.8425619473
  0
VERTEX
  8
0
 62
7
  6
CONTINUOUS
 10
83.7105317022
 20
219.9407458125
  0
VERTEX
  8
0
 62
7
  6
CONTINUOUS
 10
83.626952778
 20
220.0331380331
  0
VERTEX
  8
0
 62
7
  6
CONTINUOUS
 10
83.5436378363
 20
220.1129179563
  0
SEQEND
  0
LINE
  8
0
 62
7
  6
CONTINUOUS
 10
84.4499145077
 20
211.0443993698
 11
84.4494679201
 21
211.4736662982
  0
LINE
  8
0
 62
7
  6
CONTINUOUS
 10
84.4499145077
 20
211.0443993698
 11
84.4499145077
 21
208.9744099951
  0
LINE
  8
0
 62
7
  6
CONTINUOUS
 10
84.4494679201
 20
211.4736662982
 11
84.4498516701
 21
212.9435323592
  0
POLYLINE
  8
0
 62
7
  6
CONTINUOUS
 66
1
 70
0
  0
VERTEX
  8
0
 62
7
  6
CONTINUOUS
 10
84.4498516701
 20
212.9435323592
  0
VERTEX
  8
0
 62
7
  6
CONTINUOUS
 10
84.4496776057
 20
215.3917895025
  0
VERTEX
  8
0
 62
7
  6
CONTINUOUS
 10
84.4499145077
 20
217.6153106467
  0
SEQEND
  0
POLYLINE
  8
0
 62
7
  6
CONTINUOUS
 66
1
 70
0
  0
VERTEX
  8
0
 62
7
  6
CONTINUOUS
 10
45.1561891387
 20
220.1129161424
  0
VERTEX
  8
0
 62
7
  6
CONTINUOUS
 10
45.0738936061
 20
220.0342179083
  0
VERTEX
  8
0
 62
7
  6
CONTINUOUS
 10
44.9904366411
 20
219.9421836669
  0
VERTEX
  8
0
 62
7
  6
CONTINUOUS
 10
44.9128042071
 20
219.8441740942
  0
VERTEX
  8
0
 62
7
  6
CONTINUOUS
 10
44.8409883341
 20
219.7415733517
  0
VERTEX
  8
0
 62
7
  6
CONTINUOUS
 10
44.7747167987
 20
219.6355264357
  0
VERTEX
  8
0
 62
7
  6
CONTINUOUS
 10
44.7138211083
 20
219.5272035312
  0
VERTEX
  8
0
 62
7
  6
CONTINUOUS
 10
44.6580668353
 20
219.4175173344
  0
VERTEX
  8
0
 62
7
  6
CONTINUOUS
 10
44.6069633697
 20
219.3067486642
  0
VERTEX
  8
0
 62
7
  6
CONTINUOUS
 10
44.5600343361
 20
219.1949625034
  0
VERTEX
  8
0
 62
7
  6
CONTINUOUS
 10
44.5169115928
 20
219.0821819437
  0
VERTEX
  8
0
 62
7
  6
CONTINUOUS
 10
44.4774217183
 20
218.9687036682
  0
VERTEX
  8
0
 62
7
  6
CONTINUOUS
 10
44.4413990956
 20
218.8548057766
  0
VERTEX
  8
0
 62
7
  6
CONTINUOUS
 10
44.408781907
 20
218.7410522467
  0
VERTEX
  8
0
 62
7
  6
CONTINUOUS
 10
44.3795513402
 20
218.6281755029
  0
VERTEX
  8
0
 62
7
  6
CONTINUOUS
 10
44.3535858128
 20
218.5164731101
  0
VERTEX
  8
0
 62
7
  6
CONTINUOUS
 10
44.3307626274
 20
218.4062746006
  0
VERTEX
  8
0
 62
7
  6
CONTINUOUS
 10
44.3109913977
 20
218.297893686
  0
VERTEX
  8
0
 62
7
  6
CONTINUOUS
 10
44.2941671212
 20
218.191477942
  0
VERTEX
  8
0
 62
7
  6
CONTINUOUS
 10
44.2801459966
 20
218.0871935688
  0
VERTEX
  8
0
 62
7
  6
CONTINUOUS
 10
44.2688039483
 20
217.9851593422
  0
VERTEX
  8
0
 62
7
  6
CONTINUOUS
 10
44.2601198577
 20
217.8852194267
  0
VERTEX
  8
0
 62
7
  6
CONTINUOUS
 10
44.2541179676
 20
217.7875063804
  0
VERTEX
  8
0
 62
7
  6
CONTINUOUS
 10
44.2507593329
 20
217.6921340282
  0
VERTEX
  8
0
 62
7
  6
CONTINUOUS
 10
44.2499145077
 20
217.6153106467
  0
SEQEND
  0
POLYLINE
  8
0
 62
7
  6
CONTINUOUS
 66
1
 70
0
  0
VERTEX
  8
0
 62
7
  6
CONTINUOUS
 10
97.4499145078
 20
209.3284921847
  0
VERTEX
  8
0
 62
7
  6
CONTINUOUS
 10
97.4508400249
 20
209.2400679696
  0
VERTEX
  8
0
 62
7
  6
CONTINUOUS
 10
97.454550932
 20
209.1296101065
  0
VERTEX
  8
0
 62
7
  6
CONTINUOUS
 10
97.4613210623
 20
209.0145559316
  0
VERTEX
  8
0
 62
7
  6
CONTINUOUS
 10
97.4713231156
 20
208.8949496627
  0
VERTEX
  8
0
 62
7
  6
CONTINUOUS
 10
97.4846360817
 20
208.7709097678
  0
VERTEX
  8
0
 62
7
  6
CONTINUOUS
 10
97.5012653609
 20
208.6427403153
  0
VERTEX
  8
0
 62
7
  6
CONTINUOUS
 10
97.5213409452
 20
208.5111335239
  0
VERTEX
  8
0
 62
7
  6
CONTINUOUS
 10
97.5449950084
 20
208.3770179279
  0
VERTEX
  8
0
 62
7
  6
CONTINUOUS
 10
97.5723076842
 20
208.2409434707
  0
VERTEX
  8
0
 62
7
  6
CONTINUOUS
 10
97.6033580256
 20
208.1033443895
  0
VERTEX
  8
0
 62
7
  6
CONTINUOUS
 10
97.6383569826
 20
207.964428192
  0
VERTEX
  8
0
 62
7
  6
CONTINUOUS
 10
97.6774771937
 20
207.8245920783
  0
VERTEX
  8
0
 62
7
  6
CONTINUOUS
 10
97.7208595268
 20
207.6845005369
  0
VERTEX
  8
0
 62
7
  6
CONTINUOUS
 10
97.7686433578
 20
207.5448467951
  0
VERTEX
  8
0
 62
7
  6
CONTINUOUS
 10
97.8209476933
 20
207.4063459377
  0
VERTEX
  8
0
 62
7
  6
CONTINUOUS
 10
97.8778962633
 20
207.2697038538
  0
VERTEX
  8
0
 62
7
  6
CONTINUOUS
 10
97.9399542912
 20
207.1351511069
  0
VERTEX
  8
0
 62
7
  6
CONTINUOUS
 10
98.0077450255
 20
207.0028297355
  0
VERTEX
  8
0
 62
7
  6
CONTINUOUS
 10
98.081877424
 20
206.873165052
  0
VERTEX
  8
0
 62
7
  6
CONTINUOUS
 10
98.1625585561
 20
206.7476491139
  0
VERTEX
  8
0
 62
7
  6
CONTINUOUS
 10
98.2488159996
 20
206.6292343483
  0
VERTEX
  8
0
 62
7
  6
CONTINUOUS
 10
98.3398619778
 20
206.5200688117
  0
VERTEX
  8
0
 62
7
  6
CONTINUOUS
 10
98.4344289228
 20
206.4221408759
  0
VERTEX
  8
0
 62
7
  6
CONTINUOUS
 10
98.5308772372
 20
206.3369081208
  0
VERTEX
  8
0
 62
7
  6
CONTINUOUS
 10
98.6205866402
 20
206.2697409414
  0
SEQEND
  0
LINE
  8
0
 62
7
  6
CONTINUOUS
 10
97.4499145077
 20
216.2006623285
 11
97.4515256358
 21
216.0200923053
  0
LINE
  8
0
 62
7
  6
CONTINUOUS
 10
97.4515256358
 20
216.0200923053
 11
97.4522448207
 21
215.8231947904
  0
LINE
  8
0
 62
7
  6
CONTINUOUS
 10
97.4499556864
 20
213.0686349326
 11
97.4521730525
 21
211.3985992495
  0
LINE
  8
0
 62
7
  6
CONTINUOUS
 10
97.4499145077
 20
209.3284921847
 11
97.4499145077
 21
210.3890583133
  0
LINE
  8
0
 62
7
  6
CONTINUOUS
 10
97.4499145077
 20
216.2006623285
 11
97.4499145077
 21
217.2612284571
  0
LINE
  8
0
 62
7
  6
CONTINUOUS
 10
97.4521730525
 20
211.3985992495
 11
97.4523547434
 21
210.8777202433
  0
LINE
  8
0
 62
7
  6
CONTINUOUS
 10
97.4522448207
 20
215.8231947904
 11
97.452298196
 21
215.3319970752
  0
LINE
  8
0
 62
7
  6
CONTINUOUS
 10
97.452298196
 20
215.3319970752
 11
97.4499556864
 21
213.0686349326
  0
LINE
  8
0
 62
7
  6
CONTINUOUS
 10
97.4523547434
 20
210.8777202433
 11
97.4519766083
 21
210.6636483742
  0
LINE
  8
0
 62
7
  6
CONTINUOUS
 10
97.4519766083
 20
210.6636483742
 11
97.4499145077
 21
210.3890583133
  0
POLYLINE
  8
0
 62
7
  6
CONTINUOUS
 66
1
 70
0
  0
VERTEX
  8
0
 62
7
  6
CONTINUOUS
 10
55.7436398767
 20
206.4768044994
  0
VERTEX
  8
0
 62
7
  6
CONTINUOUS
 10
55.8259354094
 20
206.5555027335
  0
VERTEX
  8
0
 62
7
  6
CONTINUOUS
 10
55.9093923744
 20
206.6475369749
  0
VERTEX
  8
0
 62
7
  6
CONTINUOUS
 10
55.9870248085
 20
206.7455465477
  0
VERTEX
  8
0
 62
7
  6
CONTINUOUS
 10
56.0588406815
 20
206.8481472903
  0
VERTEX
  8
0
 62
7
  6
CONTINUOUS
 10
56.1251122168
 20
206.9541942062
  0
VERTEX
  8
0
 62
7
  6
CONTINUOUS
 10
56.1860079072
 20
207.0625171107
  0
VERTEX
  8
0
 62
7
  6
CONTINUOUS
 10
56.2417621802
 20
207.1722033075
  0
VERTEX
  8
0
 62
7
  6
CONTINUOUS
 10
56.2928656458
 20
207.2829719777
  0
VERTEX
  8
0
 62
7
  6
CONTINUOUS
 10
56.3397946794
 20
207.3947581385
  0
VERTEX
  8
0
 62
7
  6
CONTINUOUS
 10
56.3829174227
 20
207.5075386982
  0
VERTEX
  8
0
 62
7
  6
CONTINUOUS
 10
56.4224072971
 20
207.6210169737
  0
VERTEX
  8
0
 62
7
  6
CONTINUOUS
 10
56.4584299199
 20
207.7349148653
  0
VERTEX
  8
0
 62
7
  6
CONTINUOUS
 10
56.4910471085
 20
207.8486683952
  0
VERTEX
  8
0
 62
7
  6
CONTINUOUS
 10
56.5202776753
 20
207.9615451389
  0
VERTEX
  8
0
 62
7
  6
CONTINUOUS
 10
56.5462432027
 20
208.0732475317
  0
VERTEX
  8
0
 62
7
  6
CONTINUOUS
 10
56.5690663881
 20
208.1834460412
  0
VERTEX
  8
0
 62
7
  6
CONTINUOUS
 10
56.5888376177
 20
208.2918269558
  0
VERTEX
  8
0
 62
7
  6
CONTINUOUS
 10
56.6056618943
 20
208.3982426998
  0
VERTEX
  8
0
 62
7
  6
CONTINUOUS
 10
56.6196830189
 20
208.502527073
  0
VERTEX
  8
0
 62
7
  6
CONTINUOUS
 10
56.6310250671
 20
208.6045612995
  0
VERTEX
  8
0
 62
7
  6
CONTINUOUS
 10
56.6397091578
 20
208.7045012151
  0
VERTEX
  8
0
 62
7
  6
CONTINUOUS
 10
56.6457110478
 20
208.8022142614
  0
VERTEX
  8
0
 62
7
  6
CONTINUOUS
 10
56.6490696826
 20
208.8975866136
  0
VERTEX
  8
0
 62
7
  6
CONTINUOUS
 10
56.6499145077
 20
208.9744099951
  0
SEQEND
  0
POLYLINE
  8
0
 62
7
  6
CONTINUOUS
 66
1
 70
0
  0
VERTEX
  8
0
 62
7
  6
CONTINUOUS
 10
72.9561891387
 20
220.1129161424
  0
VERTEX
  8
0
 62
7
  6
CONTINUOUS
 10
72.873893606
 20
220.0342179082
  0
VERTEX
  8
0
 62
7
  6
CONTINUOUS
 10
72.790436641
 20
219.9421836668
  0
VERTEX
  8
0
 62
7
  6
CONTINUOUS
 10
72.7128042069
 20
219.8441740939
  0
VERTEX
  8
0
 62
7
  6
CONTINUOUS
 10
72.6409883339
 20
219.7415733514
  0
VERTEX
  8
0
 62
7
  6
CONTINUOUS
 10
72.5747167986
 20
219.6355264354
  0
VERTEX
  8
0
 62
7
  6
CONTINUOUS
 10
72.5138211082
 20
219.527203531
  0
VERTEX
  8
0
 62
7
  6
CONTINUOUS
 10
72.4580668352
 20
219.4175173342
  0
VERTEX
  8
0
 62
7
  6
CONTINUOUS
 10
72.4069633696
 20
219.306748664
  0
VERTEX
  8
0
 62
7
  6
CONTINUOUS
 10
72.360034336
 20
219.1949625033
  0
VERTEX
  8
0
 62
7
  6
CONTINUOUS
 10
72.3169115927
 20
219.0821819435
  0
VERTEX
  8
0
 62
7
  6
CONTINUOUS
 10
72.2774217183
 20
218.968703668
  0
VERTEX
  8
0
 62
7
  6
CONTINUOUS
 10
72.2413990956
 20
218.8548057764
  0
VERTEX
  8
0
 62
7
  6
CONTINUOUS
 10
72.2087819069
 20
218.7410522466
  0
VERTEX
  8
0
 62
7
  6
CONTINUOUS
 10
72.1795513401
 20
218.6281755028
  0
VERTEX
  8
0
 62
7
  6
CONTINUOUS
 10
72.1535858127
 20
218.51647311
  0
VERTEX
  8
0
 62
7
  6
CONTINUOUS
 10
72.1307626274
 20
218.4062746005
  0
VERTEX
  8
0
 62
7
  6
CONTINUOUS
 10
72.1109913977
 20
218.297893686
  0
VERTEX
  8
0
 62
7
  6
CONTINUOUS
 10
72.0941671212
 20
218.191477942
  0
VERTEX
  8
0
 62
7
  6
CONTINUOUS
 10
72.0801459966
 20
218.0871935687
  0
VERTEX
  8
0
 62
7
  6
CONTINUOUS
 10
72.0688039483
 20
217.9851593422
  0
VERTEX
  8
0
 62
7
  6
CONTINUOUS
 10
72.0601198577
 20
217.8852194267
  0
VERTEX
  8
0
 62
7
  6
CONTINUOUS
 10
72.0541179676
 20
217.7875063804
  0
VERTEX
  8
0
 62
7
  6
CONTINUOUS
 10
72.0507593329
 20
217.6921340282
  0
VERTEX
  8
0
 62
7
  6
CONTINUOUS
 10
72.0499145077
 20
217.6153106467
  0
SEQEND
  0
POLYLINE
  8
0
 62
7
  6
CONTINUOUS
 66
1
 70
0
  0
VERTEX
  8
0
 62
7
  6
CONTINUOUS
 10
122.8499145078
 20
209.0791488981
  0
VERTEX
  8
0
 62
7
  6
CONTINUOUS
 10
122.8507643772
 20
208.9999175047
  0
VERTEX
  8
0
 62
7
  6
CONTINUOUS
 10
122.8541627793
 20
208.9011439585
  0
VERTEX
  8
0
 62
7
  6
CONTINUOUS
 10
122.8603338043
 20
208.7986776671
  0
VERTEX
  8
0
 62
7
  6
CONTINUOUS
 10
122.8694429359
 20
208.6922767083
  0
VERTEX
  8
0
 62
7
  6
CONTINUOUS
 10
122.8815972025
 20
208.5818445926
  0
VERTEX
  8
0
 62
7
  6
CONTINUOUS
 10
122.896845281
 20
208.4676819187
  0
VERTEX
  8
0
 62
7
  6
CONTINUOUS
 10
122.9153040742
 20
208.350547135
  0
VERTEX
  8
0
 62
7
  6
CONTINUOUS
 10
122.9370616641
 20
208.231297261
  0
VERTEX
  8
0
 62
7
  6
CONTINUOUS
 10
122.9621633127
 20
208.1103952737
  0
VERTEX
  8
0
 62
7
  6
CONTINUOUS
 10
122.9907094744
 20
207.9880990722
  0
VERTEX
  8
0
 62
7
  6
CONTINUOUS
 10
123.0228950118
 20
207.8645617511
  0
VERTEX
  8
0
 62
7
  6
CONTINUOUS
 10
123.0588856137
 20
207.7401382568
  0
VERTEX
  8
0
 62
7
  6
CONTINUOUS
 10
123.0987607832
 20
207.6155482294
  0
VERTEX
  8
0
 62
7
  6
CONTINUOUS
 10
123.1425434099
 20
207.4915704135
  0
VERTEX
  8
0
 62
7
  6
CONTINUOUS
 10
123.190339493
 20
207.368748978
  0
VERTEX
  8
0
 62
7
  6
CONTINUOUS
 10
123.2423328151
 20
207.2474858788
  0
VERTEX
  8
0
 62
7
  6
CONTINUOUS
 10
123.2991578951
 20
207.1273736946
  0
VERTEX
  8
0
 62
7
  6
CONTINUOUS
 10
123.3615254295
 20
207.008367449
  0
VERTEX
  8
0
 62
7
  6
CONTINUOUS
 10
123.4300520084
 20
206.8909659404
  0
VERTEX
  8
0
 62
7
  6
CONTINUOUS
 10
123.5046070196
 20
206.7770262324
  0
VERTEX
  8
0
 62
7
  6
CONTINUOUS
 10
123.5847198874
 20
206.6687578662
  0
VERTEX
  8
0
 62
7
  6
CONTINUOUS
 10
123.6698593788
 20
206.5680859503
  0
VERTEX
  8
0
 62
7
  6
CONTINUOUS
 10
123.7590965028
 20
206.4767890459
  0
VERTEX
  8
0
 62
7
  6
CONTINUOUS
 10
123.8442517154
 20
206.4018446918
  0
SEQEND
  0
POLYLINE
  8
0
 62
7
  6
CONTINUOUS
 66
1
 70
0
  0
VERTEX
  8
0
 62
7
  6
CONTINUOUS
 10
109.8499145077
 20
217.2612310558
  0
VERTEX
  8
0
 62
7
  6
CONTINUOUS
 10
109.8489806075
 20
217.3495377268
  0
VERTEX
  8
0
 62
7
  6
CONTINUOUS
 10
109.845273262
 20
217.4593714393
  0
VERTEX
  8
0
 62
7
  6
CONTINUOUS
 10
109.8385061918
 20
217.5744108874
  0
VERTEX
  8
0
 62
7
  6
CONTINUOUS
 10
109.8285105405
 20
217.694337322
  0
VERTEX
  8
0
 62
7
  6
CONTINUOUS
 10
109.8151978644
 20
217.8187656849
  0
VERTEX
  8
0
 62
7
  6
CONTINUOUS
 10
109.7985404599
 20
217.947265129
  0
VERTEX
  8
0
 62
7
  6
CONTINUOUS
 10
109.7784164616
 20
218.0791216872
  0
VERTEX
  8
0
 62
7
  6
CONTINUOUS
 10
109.7547013208
 20
218.2134697967
  0
VERTEX
  8
0
 62
7
  6
CONTINUOUS
 10
109.7273112226
 20
218.3497676734
  0
VERTEX
  8
0
 62
7
  6
CONTINUOUS
 10
109.6961545873
 20
218.4876812775
  0
VERTEX
  8
0
 62
7
  6
CONTINUOUS
 10
109.6610234129
 20
218.6269487221
  0
VERTEX
  8
0
 62
7
  6
CONTINUOUS
 10
109.6217206655
 20
218.767222371
  0
VERTEX
  8
0
 62
7
  6
CONTINUOUS
 10
109.5781142991
 20
218.9078276864
  0
VERTEX
  8
0
 62
7
  6
CONTINUOUS
 10
109.5301615493
 20
219.047756679
  0
VERTEX
  8
0
 62
7
  6
CONTINUOUS
 10
109.4776581873
 20
219.1864682553
  0
VERTEX
  8
0
 62
7
  6
CONTINUOUS
 10
109.4203015848
 20
219.3235902298
  0
VERTEX
  8
0
 62
7
  6
CONTINUOUS
 10
109.3578253656
 20
219.4585540041
  0
VERTEX
  8
0
 62
7
  6
CONTINUOUS
 10
109.2897378165
 20
219.5910167745
  0
VERTEX
  8
0
 62
7
  6
CONTINUOUS
 10
109.2155146063
 20
219.720395544
  0
VERTEX
  8
0
 62
7
  6
CONTINUOUS
 10
109.1350393241
 20
219.8452813547
  0
VERTEX
  8
0
 62
7
  6
CONTINUOUS
 10
109.049120637
 20
219.9630056653
  0
VERTEX
  8
0
 62
7
  6
CONTINUOUS
 10
108.9584896394
 20
220.0714685254
  0
VERTEX
  8
0
 62
7
  6
CONTINUOUS
 10
108.8643077834
 20
220.1687659371
  0
VERTEX
  8
0
 62
7
  6
CONTINUOUS
 10
108.7681820345
 20
220.2534845003
  0
VERTEX
  8
0
 62
7
  6
CONTINUOUS
 10
108.6793330259
 20
220.3199173962
  0
SEQEND
  0
LINE
  8
0
 62
7
  6
CONTINUOUS
 10
109.8499145077
 20
210.3890583132
 11
109.8483034122
 21
210.5696229615
  0
LINE
  8
0
 62
7
  6
CONTINUOUS
 10
109.8483034122
 20
210.5696229615
 11
109.8475842048
 21
210.7665198181
  0
LINE
  8
0
 62
7
  6
CONTINUOUS
 10
122.8499145077
 20
215.854250548
 11
122.8506066195
 21
215.6110866931
  0
LINE
  8
0
 62
7
  6
CONTINUOUS
 10
109.8499145077
 20
217.2612310564
 11
109.8499145077
 21
216.2006623285
  0
LINE
  8
0
 62
7
  6
CONTINUOUS
 10
109.8499145077
 20
210.3890583133
 11
109.8499145077
 21
209.3284895853
  0
LINE
  8
0
 62
7
  6
CONTINUOUS
 10
122.8499145077
 20
215.854250548
 11
122.8499145077
 21
217.5105717449
  0
LINE
  8
0
 62
7
  6
CONTINUOUS
 10
122.8506066195
 20
215.6110866931
 11
122.8508525192
 21
215.0934293025
  0
LINE
  8
0
 62
7
  6
CONTINUOUS
 10
109.8475842048
 20
210.7665198181
 11
109.8475308152
 21
211.2577164907
  0
LINE
  8
0
 62
7
  6
CONTINUOUS
 10
109.8497523832
 20
212.8886773673
 11
109.8474554595
 21
215.592808735
  0
LINE
  8
0
 62
7
  6
CONTINUOUS
 10
122.8508525192
 20
215.0934293025
 11
122.8508549976
 21
211.2246730011
  0
LINE
  8
0
 62
7
  6
CONTINUOUS
 10
109.8474554595
 20
215.592808735
 11
109.8475841948
 21
215.8231947904
  0
LINE
  8
0
 62
7
  6
CONTINUOUS
 10
109.8475308152
 20
211.2577164907
 11
109.8497523832
 21
212.8886773673
  0
LINE
  8
0
 62
7
  6
CONTINUOUS
 10
122.8499673828
 20
210.7603729589
 11
122.8499145077
 21
209.0791488969
  0
POLYLINE
  8
0
 62
7
  6
CONTINUOUS
 66
1
 70
0
  0
VERTEX
  8
0
 62
7
  6
CONTINUOUS
 10
122.8508549976
 20
211.2246730011
  0
VERTEX
  8
0
 62
7
  6
CONTINUOUS
 10
122.8503433912
 20
210.8657949375
  0
VERTEX
  8
0
 62
7
  6
CONTINUOUS
 10
122.8499673828
 20
210.7603729589
  0
SEQEND
  0
LINE
  8
0
 62
7
  6
CONTINUOUS
 10
109.8475841948
 20
215.8231947904
 11
109.8483033796
 21
216.0200923053
  0
LINE
  8
0
 62
7
  6
CONTINUOUS
 10
109.8483033796
 20
216.0200923053
 11
109.8499145077
 21
216.2006623285
  0
POLYLINE
  8
0
 62
7
  6
CONTINUOUS
 66
1
 70
0
  0
VERTEX
  8
0
 62
7
  6
CONTINUOUS
 10
83.5436398767
 20
206.4768044994
  0
VERTEX
  8
0
 62
7
  6
CONTINUOUS
 10
83.6259354094
 20
206.5555027336
  0
VERTEX
  8
0
 62
7
  6
CONTINUOUS
 10
83.7093923745
 20
206.647536975
  0
VERTEX
  8
0
 62
7
  6
CONTINUOUS
 10
83.7870248085
 20
206.7455465478
  0
VERTEX
  8
0
 62
7
  6
CONTINUOUS
 10
83.8588406815
 20
206.8481472903
  0
VERTEX
  8
0
 62
7
  6
CONTINUOUS
 10
83.9251122168
 20
206.9541942063
  0
VERTEX
  8
0
 62
7
  6
CONTINUOUS
 10
83.9860079072
 20
207.0625171108
  0
VERTEX
  8
0
 62
7
  6
CONTINUOUS
 10
84.0417621802
 20
207.1722033076
  0
VERTEX
  8
0
 62
7
  6
CONTINUOUS
 10
84.0928656458
 20
207.2829719777
  0
VERTEX
  8
0
 62
7
  6
CONTINUOUS
 10
84.1397946794
 20
207.3947581385
  0
VERTEX
  8
0
 62
7
  6
CONTINUOUS
 10
84.1829174227
 20
207.5075386982
  0
VERTEX
  8
0
 62
7
  6
CONTINUOUS
 10
84.2224072972
 20
207.6210169738
  0
VERTEX
  8
0
 62
7
  6
CONTINUOUS
 10
84.2584299199
 20
207.7349148653
  0
VERTEX
  8
0
 62
7
  6
CONTINUOUS
 10
84.2910471085
 20
207.8486683952
  0
VERTEX
  8
0
 62
7
  6
CONTINUOUS
 10
84.3202776753
 20
207.961545139
  0
VERTEX
  8
0
 62
7
  6
CONTINUOUS
 10
84.3462432027
 20
208.0732475318
  0
VERTEX
  8
0
 62
7
  6
CONTINUOUS
 10
84.3690663881
 20
208.1834460413
  0
VERTEX
  8
0
 62
7
  6
CONTINUOUS
 10
84.3888376177
 20
208.2918269558
  0
VERTEX
  8
0
 62
7
  6
CONTINUOUS
 10
84.4056618943
 20
208.3982426998
  0
VERTEX
  8
0
 62
7
  6
CONTINUOUS
 10
84.4196830189
 20
208.502527073
  0
VERTEX
  8
0
 62
7
  6
CONTINUOUS
 10
84.4310250671
 20
208.6045612995
  0
VERTEX
  8
0
 62
7
  6
CONTINUOUS
 10
84.4397091578
 20
208.7045012151
  0
VERTEX
  8
0
 62
7
  6
CONTINUOUS
 10
84.4457110478
 20
208.8022142614
  0
VERTEX
  8
0
 62
7
  6
CONTINUOUS
 10
84.4490696826
 20
208.8975866136
  0
VERTEX
  8
0
 62
7
  6
CONTINUOUS
 10
84.4499145077
 20
208.9744099951
  0
SEQEND
  0
POLYLINE
  8
0
 62
7
  6
CONTINUOUS
 66
1
 70
0
  0
VERTEX
  8
0
 62
7
  6
CONTINUOUS
 10
135.2499145077
 20
217.5105717437
  0
VERTEX
  8
0
 62
7
  6
CONTINUOUS
 10
135.2490646382
 20
217.5898031371
  0
VERTEX
  8
0
 62
7
  6
CONTINUOUS
 10
135.2456662361
 20
217.6885766833
  0
VERTEX
  8
0
 62
7
  6
CONTINUOUS
 10
135.2394952111
 20
217.7910429747
  0
VERTEX
  8
0
 62
7
  6
CONTINUOUS
 10
135.2303860795
 20
217.8974439335
  0
VERTEX
  8
0
 62
7
  6
CONTINUOUS
 10
135.218231813
 20
218.0078760491
  0
VERTEX
  8
0
 62
7
  6
CONTINUOUS
 10
135.2029837344
 20
218.122038723
  0
VERTEX
  8
0
 62
7
  6
CONTINUOUS
 10
135.1845249413
 20
218.2391735068
  0
VERTEX
  8
0
 62
7
  6
CONTINUOUS
 10
135.1627673513
 20
218.3584233808
  0
VERTEX
  8
0
 62
7
  6
CONTINUOUS
 10
135.1376657027
 20
218.4793253681
  0
VERTEX
  8
0
 62
7
  6
CONTINUOUS
 10
135.109119541
 20
218.6016215696
  0
VERTEX
  8
0
 62
7
  6
CONTINUOUS
 10
135.0769340037
 20
218.7251588907
  0
VERTEX
  8
0
 62
7
  6
CONTINUOUS
 10
135.0409434018
 20
218.849582385
  0
VERTEX
  8
0
 62
7
  6
CONTINUOUS
 10
135.0010682323
 20
218.9741724124
  0
VERTEX
  8
0
 62
7
  6
CONTINUOUS
 10
134.9572856055
 20
219.0981502283
  0
VERTEX
  8
0
 62
7
  6
CONTINUOUS
 10
134.9094895224
 20
219.2209716638
  0
VERTEX
  8
0
 62
7
  6
CONTINUOUS
 10
134.8574962003
 20
219.3422347629
  0
VERTEX
  8
0
 62
7
  6
CONTINUOUS
 10
134.8006711203
 20
219.4623469472
  0
VERTEX
  8
0
 62
7
  6
CONTINUOUS
 10
134.738303586
 20
219.5813531928
  0
VERTEX
  8
0
 62
7
  6
CONTINUOUS
 10
134.669777007
 20
219.6987547014
  0
VERTEX
  8
0
 62
7
  6
CONTINUOUS
 10
134.5952219958
 20
219.8126944094
  0
VERTEX
  8
0
 62
7
  6
CONTINUOUS
 10
134.515109128
 20
219.9209627756
  0
VERTEX
  8
0
 62
7
  6
CONTINUOUS
 10
134.4299696367
 20
220.0216346914
  0
VERTEX
  8
0
 62
7
  6
CONTINUOUS
 10
134.3407325126
 20
220.1129315959
  0
VERTEX
  8
0
 62
7
  6
CONTINUOUS
 10
134.2555773001
 20
220.18787595
  0
SEQEND
  0
LINE
  8
0
 62
7
  6
CONTINUOUS
 10
135.2499145077
 20
210.7354700938
 11
135.2492224187
 21
210.9786214429
  0
LINE
  8
0
 62
7
  6
CONTINUOUS
 10
135.2499145077
 20
210.7354700938
 11
135.2499145077
 21
209.0791488969
  0
LINE
  8
0
 62
7
  6
CONTINUOUS
 10
135.2492224187
 20
210.9786214429
 11
135.2489764871
 21
211.4962571273
  0
LINE
  8
0
 62
7
  6
CONTINUOUS
 10
135.2499105606
 20
213.2948603209
 11
135.2490570289
 21
215.4913522909
  0
LINE
  8
0
 62
7
  6
CONTINUOUS
 10
135.2489764871
 20
211.4962571273
 11
135.2499105606
 21
213.2948603209
  0
LINE
  8
0
 62
7
  6
CONTINUOUS
 10
135.2498616327
 20
215.8293476849
 11
135.2499145077
 21
217.5105717449
  0
POLYLINE
  8
0
 62
7
  6
CONTINUOUS
 66
1
 70
0
  0
VERTEX
  8
0
 62
7
  6
CONTINUOUS
 10
135.2490570289
 20
215.4913522909
  0
VERTEX
  8
0
 62
7
  6
CONTINUOUS
 10
135.2494856121
 20
215.7239215126
  0
VERTEX
  8
0
 62
7
  6
CONTINUOUS
 10
135.2498616327
 20
215.8293476849
  0
SEQEND
  0
POLYLINE
  8
0
 62
7
  6
CONTINUOUS
 66
1
 70
0
  0
VERTEX
  8
0
 62
7
  6
CONTINUOUS
 10
123.8442523457
 20
220.1878764637
  0
VERTEX
  8
0
 62
7
  6
CONTINUOUS
 10
123.7589743809
 20
220.1128143235
  0
VERTEX
  8
0
 62
7
  6
CONTINUOUS
 10
123.6699386957
 20
220.0217182255
  0
VERTEX
  8
0
 62
7
  6
CONTINUOUS
 10
123.5848250986
 20
219.9210922501
  0
VERTEX
  8
0
 62
7
  6
CONTINUOUS
 10
123.5046300874
 20
219.8127265871
  0
VERTEX
  8
0
 62
7
  6
CONTINUOUS
 10
123.4299455675
 20
219.6985840129
  0
VERTEX
  8
0
 62
7
  6
CONTINUOUS
 10
123.3612944143
 20
219.5809390769
  0
VERTEX
  8
0
 62
7
  6
CONTINUOUS
 10
123.2988383684
 20
219.4617092027
  0
VERTEX
  8
0
 62
7
  6
CONTINUOUS
 10
123.2419585316
 20
219.3414058062
  0
VERTEX
  8
0
 62
7
  6
CONTINUOUS
 10
123.1899280849
 20
219.2199646014
  0
VERTEX
  8
0
 62
7
  6
CONTINUOUS
 10
123.1421032041
 20
219.0969565908
  0
VERTEX
  8
0
 62
7
  6
CONTINUOUS
 10
123.0982940349
 20
218.972753378
  0
VERTEX
  8
0
 62
7
  6
CONTINUOUS
 10
123.0584018749
 20
218.8479518608
  0
VERTEX
  8
0
 62
7
  6
CONTINUOUS
 10
123.022410465
 20
218.7233930875
  0
VERTEX
  8
0
 62
7
  6
CONTINUOUS
 10
122.9902250365
 20
218.5996571622
  0
VERTEX
  8
0
 62
7
  6
CONTINUOUS
 10
122.9616899936
 20
218.4771629513
  0
VERTEX
  8
0
 62
7
  6
CONTINUOUS
 10
122.9366175264
 20
218.3561861051
  0
VERTEX
  8
0
 62
7
  6
CONTINUOUS
 10
122.9148970499
 20
218.2368604532
  0
VERTEX
  8
0
 62
7
  6
CONTINUOUS
 10
122.8964832942
 20
218.1196425903
  0
VERTEX
  8
0
 62
7
  6
CONTINUOUS
 10
122.8812860268
 20
218.0053362015
  0
VERTEX
  8
0
 62
7
  6
CONTINUOUS
 10
122.8692007868
 20
217.8947263436
  0
VERTEX
  8
0
 62
7
  6
CONTINUOUS
 10
122.8601626506
 20
217.788186578
  0
VERTEX
  8
0
 62
7
  6
CONTINUOUS
 10
122.8540560039
 20
217.6857744424
  0
VERTEX
  8
0
 62
7
  6
CONTINUOUS
 10
122.8507202797
 20
217.5874063147
  0
VERTEX
  8
0
 62
7
  6
CONTINUOUS
 10
122.8499145078
 20
217.5105771459
  0
SEQEND
  0
POLYLINE
  8
0
 62
7
  6
CONTINUOUS
 66
1
 70
0
  0
VERTEX
  8
0
 62
7
  6
CONTINUOUS
 10
98.62057814
 20
220.3199738619
  0
VERTEX
  8
0
 62
7
  6
CONTINUOUS
 10
98.531599825
 20
220.2534416646
  0
VERTEX
  8
0
 62
7
  6
CONTINUOUS
 10
98.4352391212
 20
220.1684870313
  0
VERTEX
  8
0
 62
7
  6
CONTINUOUS
 10
98.3407864906
 20
220.0708391162
  0
VERTEX
  8
0
 62
7
  6
CONTINUOUS
 10
98.2499088581
 20
219.9619626185
  0
VERTEX
  8
0
 62
7
  6
CONTINUOUS
 10
98.1638125841
 20
219.8438340608
  0
VERTEX
  8
0
 62
7
  6
CONTINUOUS
 10
98.0832693008
 20
219.7186521137
  0
VERTEX
  8
0
 62
7
  6
CONTINUOUS
 10
98.0091119079
 20
219.5891882774
  0
VERTEX
  8
0
 62
7
  6
CONTINUOUS
 10
97.9411800514
 20
219.4568408925
  0
VERTEX
  8
0
 62
7
  6
CONTINUOUS
 10
97.8788908674
 20
219.3221202297
  0
VERTEX
  8
0
 62
7
  6
CONTINUOUS
 10
97.8217042438
 20
219.1852737684
  0
VERTEX
  8
0
 62
7
  6
CONTINUOUS
 10
97.7693279746
 20
219.0467933988
  0
VERTEX
  8
0
 62
7
  6
CONTINUOUS
 10
97.7214679053
 20
218.9070514659
  0
VERTEX
  8
0
 62
7
  6
CONTINUOUS
 10
97.6779340886
 20
218.7666140494
  0
VERTEX
  8
0
 62
7
  6
CONTINUOUS
 10
97.6386939524
 20
218.6265138901
  0
VERTEX
  8
0
 62
7
  6
CONTINUOUS
 10
97.603619999
 20
218.4874376987
  0
VERTEX
  8
0
 62
7
  6
CONTINUOUS
 10
97.5725121876
 20
218.3497285762
  0
VERTEX
  8
0
 62
7
  6
CONTINUOUS
 10
97.5451583988
 20
218.21363198
  0
VERTEX
  8
0
 62
7
  6
CONTINUOUS
 10
97.5214697838
 20
218.079459607
  0
VERTEX
  8
0
 62
7
  6
CONTINUOUS
 10
97.5013647868
 20
217.9477556318
  0
VERTEX
  8
0
 62
7
  6
CONTINUOUS
 10
97.4847108991
 20
217.8194360457
  0
VERTEX
  8
0
 62
7
  6
CONTINUOUS
 10
97.4713825184
 20
217.695232582
  0
VERTEX
  8
0
 62
7
  6
CONTINUOUS
 10
97.4613665945
 20
217.5754943514
  0
VERTEX
  8
0
 62
7
  6
CONTINUOUS
 10
97.4545835699
 20
217.460456329
  0
VERTEX
  8
0
 62
7
  6
CONTINUOUS
 10
97.4508590389
 20
217.3503104514
  0
VERTEX
  8
0
 62
7
  6
CONTINUOUS
 10
97.4499145081
 20
217.2612816245
  0
SEQEND
  0
POLYLINE
  8
0
 62
7
  6
CONTINUOUS
 66
1
 70
0
  0
VERTEX
  8
0
 62
7
  6
CONTINUOUS
 10
148.2499145077
 20
208.8394376792
  0
VERTEX
  8
0
 62
7
  6
CONTINUOUS
 10
148.2507159021
 20
208.7667446259
  0
VERTEX
  8
0
 62
7
  6
CONTINUOUS
 10
148.2539472403
 20
208.6754170398
  0
VERTEX
  8
0
 62
7
  6
CONTINUOUS
 10
148.2597656525
 20
208.5815820379
  0
VERTEX
  8
0
 62
7
  6
CONTINUOUS
 10
148.2682763911
 20
208.485332322
  0
VERTEX
  8
0
 62
7
  6
CONTINUOUS
 10
148.2795725809
 20
208.3867639077
  0
VERTEX
  8
0
 62
7
  6
CONTINUOUS
 10
148.2937619271
 20
208.2858817282
  0
VERTEX
  8
0
 62
7
  6
CONTINUOUS
 10
148.3109447708
 20
208.1827575476
  0
VERTEX
  8
0
 62
7
  6
CONTINUOUS
 10
148.3311941321
 20
208.0775226068
  0
VERTEX
  8
0
 62
7
  6
CONTINUOUS
 10
148.3545854097
 20
207.9704024294
  0
VERTEX
  8
0
 62
7
  6
CONTINUOUS
 10
148.3813014111
 20
207.8617667642
  0
VERTEX
  8
0
 62
7
  6
CONTINUOUS
 10
148.4114759615
 20
207.7520530542
  0
VERTEX
  8
0
 62
7
  6
CONTINUOUS
 10
148.4451461421
 20
207.641873063
  0
VERTEX
  8
0
 62
7
  6
CONTINUOUS
 10
148.4824446306
 20
207.5317210801
  0
VERTEX
  8
0
 62
7
  6
CONTINUOUS
 10
148.5234890239
 20
207.4220279201
  0
VERTEX
  8
0
 62
7
  6
CONTINUOUS
 10
148.5684730513
 20
207.3130142548
  0
VERTEX
  8
0
 62
7
  6
CONTINUOUS
 10
148.6177940693
 20
207.2047051139
  0
VERTEX
  8
0
 62
7
  6
CONTINUOUS
 10
148.6719139426
 20
207.0972867378
  0
VERTEX
  8
0
 62
7
  6
CONTINUOUS
 10
148.7313173314
 20
206.9911095343
  0
VERTEX
  8
0
 62
7
  6
CONTINUOUS
 10
148.7963605023
 20
206.8869619633
  0
VERTEX
  8
0
 62
7
  6
CONTINUOUS
 10
148.8676182727
 20
206.7856147089
  0
VERTEX
  8
0
 62
7
  6
CONTINUOUS
 10
148.9455112642
 20
206.6882118604
  0
VERTEX
  8
0
 62
7
  6
CONTINUOUS
 10
149.0239347325
 20
206.6026124765
  0
SEQEND
  0
LINE
  8
0
 62
7
  6
CONTINUOUS
 10
148.2499145077
 20
217.7502829626
 11
148.249963602
 21
212.2779125322
  0
LINE
  8
0
 62
7
  6
CONTINUOUS
 10
148.249963602
 20
212.2779125322
 11
148.2499145077
 21
208.8394376792
  0
POLYLINE
  8
0
 62
7
  6
CONTINUOUS
 66
1
 70
0
  0
VERTEX
  8
0
 62
7
  6
CONTINUOUS
 10
108.6793252732
 20
206.2697979202
  0
VERTEX
  8
0
 62
7
  6
CONTINUOUS
 10
108.7690321366
 20
206.3369685132
  0
VERTEX
  8
0
 62
7
  6
CONTINUOUS
 10
108.86547723
 20
206.4222052047
  0
VERTEX
  8
0
 62
7
  6
CONTINUOUS
 10
108.9600409789
 20
206.5201377284
  0
VERTEX
  8
0
 62
7
  6
CONTINUOUS
 10
109.0510833366
 20
206.6293078776
  0
VERTEX
  8
0
 62
7
  6
CONTINUOUS
 10
109.1373364727
 20
206.7477265297
  0
VERTEX
  8
0
 62
7
  6
CONTINUOUS
 10
109.2180122556
 20
206.8732445231
  0
VERTEX
  8
0
 62
7
  6
CONTINUOUS
 10
109.2921381469
 20
207.0029083258
  0
VERTEX
  8
0
 62
7
  6
CONTINUOUS
 10
109.359921825
 20
207.1352262214
  0
VERTEX
  8
0
 62
7
  6
CONTINUOUS
 10
109.4219729187
 20
207.2697738738
  0
VERTEX
  8
0
 62
7
  6
CONTINUOUS
 10
109.4789152089
 20
207.4064103941
  0
VERTEX
  8
0
 62
7
  6
CONTINUOUS
 10
109.5312141449
 20
207.5449060954
  0
VERTEX
  8
0
 62
7
  6
CONTINUOUS
 10
109.5789933205
 20
207.6845550703
  0
VERTEX
  8
0
 62
7
  6
CONTINUOUS
 10
109.6223715978
 20
207.8246420618
  0
VERTEX
  8
0
 62
7
  6
CONTINUOUS
 10
109.661488212
 20
207.964473567
  0
VERTEX
  8
0
 62
7
  6
CONTINUOUS
 10
109.6964839529
 20
208.1033849248
  0
VERTEX
  8
0
 62
7
  6
CONTINUOUS
 10
109.7275314739
 20
208.2409790613
  0
VERTEX
  8
0
 62
7
  6
CONTINUOUS
 10
109.7548417281
 20
208.3770486028
  0
VERTEX
  8
0
 62
7
  6
CONTINUOUS
 10
109.7784937559
 20
208.511159459
  0
VERTEX
  8
0
 62
7
  6
CONTINUOUS
 10
109.7985676697
 20
208.642761702
  0
VERTEX
  8
0
 62
7
  6
CONTINUOUS
 10
109.8151956214
 20
208.7709268126
  0
VERTEX
  8
0
 62
7
  6
CONTINUOUS
 10
109.8285075682
 20
208.894962637
  0
VERTEX
  8
0
 62
7
  6
CONTINUOUS
 10
109.8385088684
 20
209.0145650741
  0
VERTEX
  8
0
 62
7
  6
CONTINUOUS
 10
109.8452784792
 20
209.1296155061
  0
VERTEX
  8
0
 62
7
  6
CONTINUOUS
 10
109.8489890815
 20
209.2400695254
  0
VERTEX
  8
0
 62
7
  6
CONTINUOUS
 10
109.8499145069
 20
209.3284148694
  0
SEQEND
  0
POLYLINE
  8
0
 62
7
  6
CONTINUOUS
 66
1
 70
0
  0
VERTEX
  8
0
 62
7
  6
CONTINUOUS
 10
160.6499145077
 20
217.7502829626
  0
VERTEX
  8
0
 62
7
  6
CONTINUOUS
 10
160.6491131134
 20
217.8229760158
  0
VERTEX
  8
0
 62
7
  6
CONTINUOUS
 10
160.6458817751
 20
217.914303602
  0
VERTEX
  8
0
 62
7
  6
CONTINUOUS
 10
160.6400633629
 20
218.0081386038
  0
VERTEX
  8
0
 62
7
  6
CONTINUOUS
 10
160.6315526244
 20
218.1043883198
  0
VERTEX
  8
0
 62
7
  6
CONTINUOUS
 10
160.6202564346
 20
218.2029567341
  0
VERTEX
  8
0
 62
7
  6
CONTINUOUS
 10
160.6060670883
 20
218.3038389135
  0
VERTEX
  8
0
 62
7
  6
CONTINUOUS
 10
160.5888842447
 20
218.4069630942
  0
VERTEX
  8
0
 62
7
  6
CONTINUOUS
 10
160.5686348833
 20
218.512198035
  0
VERTEX
  8
0
 62
7
  6
CONTINUOUS
 10
160.5452436057
 20
218.6193182124
  0
VERTEX
  8
0
 62
7
  6
CONTINUOUS
 10
160.5185276044
 20
218.7279538776
  0
VERTEX
  8
0
 62
7
  6
CONTINUOUS
 10
160.4883530539
 20
218.8376675876
  0
VERTEX
  8
0
 62
7
  6
CONTINUOUS
 10
160.4546828733
 20
218.9478475787
  0
VERTEX
  8
0
 62
7
  6
CONTINUOUS
 10
160.4173843849
 20
219.0579995616
  0
VERTEX
  8
0
 62
7
  6
CONTINUOUS
 10
160.3763399915
 20
219.1676927217
  0
VERTEX
  8
0
 62
7
  6
CONTINUOUS
 10
160.3313559641
 20
219.276706387
  0
VERTEX
  8
0
 62
7
  6
CONTINUOUS
 10
160.2820349461
 20
219.3850155279
  0
VERTEX
  8
0
 62
7
  6
CONTINUOUS
 10
160.2279150728
 20
219.492433904
  0
VERTEX
  8
0
 62
7
  6
CONTINUOUS
 10
160.168511684
 20
219.5986111075
  0
VERTEX
  8
0
 62
7
  6
CONTINUOUS
 10
160.1034685131
 20
219.7027586785
  0
VERTEX
  8
0
 62
7
  6
CONTINUOUS
 10
160.0322107427
 20
219.8041059329
  0
VERTEX
  8
0
 62
7
  6
CONTINUOUS
 10
159.9543177512
 20
219.9015087814
  0
VERTEX
  8
0
 62
7
  6
CONTINUOUS
 10
159.8758942829
 20
219.9871081652
  0
SEQEND
  0
LINE
  8
0
 62
7
  6
CONTINUOUS
 10
160.6499145077
 20
208.8394376792
 11
160.6498728822
 21
212.6156985202
  0
LINE
  8
0
 62
7
  6
CONTINUOUS
 10
160.6498728822
 20
212.6156985202
 11
160.6499145077
 21
217.7502829626
  0
POLYLINE
  8
0
 62
7
  6
CONTINUOUS
 66
1
 70
0
  0
VERTEX
  8
0
 62
7
  6
CONTINUOUS
 10
149.0239423899
 20
219.9871159593
  0
VERTEX
  8
0
 62
7
  6
CONTINUOUS
 10
148.9441935283
 20
219.8999544522
  0
VERTEX
  8
0
 62
7
  6
CONTINUOUS
 10
148.8660289978
 20
219.8019880993
  0
VERTEX
  8
0
 62
7
  6
CONTINUOUS
 10
148.7947803422
 20
219.7004644547
  0
VERTEX
  8
0
 62
7
  6
CONTINUOUS
 10
148.729826521
 20
219.5962869657
  0
VERTEX
  8
0
 62
7
  6
CONTINUOUS
 10
148.670620414
 20
219.4902009919
  0
VERTEX
  8
0
 62
7
  6
CONTINUOUS
 10
148.616634507
 20
219.3827519846
  0
VERTEX
  8
0
 62
7
  6
CONTINUOUS
 10
148.5673974841
 20
219.2743241249
  0
VERTEX
  8
0
 62
7
  6
CONTINUOUS
 10
148.5224988364
 20
219.1651729416
  0
VERTEX
  8
0
 62
7
  6
CONTINUOUS
 10
148.4815503591
 20
219.055439685
  0
VERTEX
  8
0
 62
7
  6
CONTINUOUS
 10
148.4443332776
 20
218.945327704
  0
VERTEX
  8
0
 62
7
  6
CONTINUOUS
 10
148.4107270182
 20
218.8351853379
  0
VERTEX
  8
0
 62
7
  6
CONTINUOUS
 10
148.3806606765
 20
218.7255846225
  0
VERTEX
  8
0
 62
7
  6
CONTINUOUS
 10
148.3540348476
 20
218.6170050799
  0
VERTEX
  8
0
 62
7
  6
CONTINUOUS
 10
148.3307253405
 20
218.509901567
  0
VERTEX
  8
0
 62
7
  6
CONTINUOUS
 10
148.3105731352
 20
218.4046612225
  0
VERTEX
  8
0
 62
7
  6
CONTINUOUS
 10
148.2934958112
 20
218.3016249746
  0
VERTEX
  8
0
 62
7
  6
CONTINUOUS
 10
148.2793787567
 20
218.2008461878
  0
VERTEX
  8
0
 62
7
  6
CONTINUOUS
 10
148.2681347262
 20
218.1024099398
  0
VERTEX
  8
0
 62
7
  6
CONTINUOUS
 10
148.2596677672
 20
218.0063048966
  0
VERTEX
  8
0
 62
7
  6
CONTINUOUS
 10
148.2538852432
 20
217.9126092118
  0
VERTEX
  8
0
 62
7
  6
CONTINUOUS
 10
148.2506867428
 20
217.821413768
  0
VERTEX
  8
0
 62
7
  6
CONTINUOUS
 10
148.2499145077
 20
217.7502829626
  0
SEQEND
  0
POLYLINE
  8
0
 62
7
  6
CONTINUOUS
 66
1
 70
0
  0
VERTEX
  8
0
 62
7
  6
CONTINUOUS
 10
134.2555766697
 20
206.401844178
  0
VERTEX
  8
0
 62
7
  6
CONTINUOUS
 10
134.3408546345
 20
206.4769063182
  0
VERTEX
  8
0
 62
7
  6
CONTINUOUS
 10
134.4298903197
 20
206.5680024163
  0
VERTEX
  8
0
 62
7
  6
CONTINUOUS
 10
134.5150039168
 20
206.6686283916
  0
VERTEX
  8
0
 62
7
  6
CONTINUOUS
 10
134.595198928
 20
206.7769940546
  0
VERTEX
  8
0
 62
7
  6
CONTINUOUS
 10
134.6698834479
 20
206.8911366288
  0
VERTEX
  8
0
 62
7
  6
CONTINUOUS
 10
134.7385346011
 20
207.0087815649
  0
VERTEX
  8
0
 62
7
  6
CONTINUOUS
 10
134.800990647
 20
207.128011439
  0
VERTEX
  8
0
 62
7
  6
CONTINUOUS
 10
134.8578704839
 20
207.2483148356
  0
VERTEX
  8
0
 62
7
  6
CONTINUOUS
 10
134.9099009306
 20
207.3697560403
  0
VERTEX
  8
0
 62
7
  6
CONTINUOUS
 10
134.9577258113
 20
207.4927640509
  0
VERTEX
  8
0
 62
7
  6
CONTINUOUS
 10
135.0015349805
 20
207.6169672637
  0
VERTEX
  8
0
 62
7
  6
CONTINUOUS
 10
135.0414271405
 20
207.7417687809
  0
VERTEX
  8
0
 62
7
  6
CONTINUOUS
 10
135.0774185504
 20
207.8663275543
  0
VERTEX
  8
0
 62
7
  6
CONTINUOUS
 10
135.1096039789
 20
207.9900634795
  0
VERTEX
  8
0
 62
7
  6
CONTINUOUS
 10
135.1381390218
 20
208.1125576904
  0
VERTEX
  8
0
 62
7
  6
CONTINUOUS
 10
135.1632114891
 20
208.2335345367
  0
VERTEX
  8
0
 62
7
  6
CONTINUOUS
 10
135.1849319655
 20
208.3528601885
  0
VERTEX
  8
0
 62
7
  6
CONTINUOUS
 10
135.2033457212
 20
208.4700780515
  0
VERTEX
  8
0
 62
7
  6
CONTINUOUS
 10
135.2185429886
 20
208.5843844402
  0
VERTEX
  8
0
 62
7
  6
CONTINUOUS
 10
135.2306282286
 20
208.6949942982
  0
VERTEX
  8
0
 62
7
  6
CONTINUOUS
 10
135.2396663648
 20
208.8015340637
  0
VERTEX
  8
0
 62
7
  6
CONTINUOUS
 10
135.2457730115
 20
208.9039461993
  0
VERTEX
  8
0
 62
7
  6
CONTINUOUS
 10
135.2491087357
 20
209.002314327
  0
VERTEX
  8
0
 62
7
  6
CONTINUOUS
 10
135.2499145076
 20
209.0791434958
  0
SEQEND
  0
POLYLINE
  8
0
 62
7
  6
CONTINUOUS
 66
1
 70
0
  0
VERTEX
  8
0
 62
7
  6
CONTINUOUS
 10
173.6499145078
 20
208.6678837894
  0
VERTEX
  8
0
 62
7
  6
CONTINUOUS
 10
173.6506353086
 20
208.602147522
  0
VERTEX
  8
0
 62
7
  6
CONTINUOUS
 10
173.6536102292
 20
208.5183723056
  0
VERTEX
  8
0
 62
7
  6
CONTINUOUS
 10
173.6589944614
 20
208.4324912684
  0
VERTEX
  8
0
 62
7
  6
CONTINUOUS
 10
173.6669296682
 20
208.3442186202
  0
VERTEX
  8
0
 62
7
  6
CONTINUOUS
 10
173.6775823152
 20
208.2533173628
  0
VERTEX
  8
0
 62
7
  6
CONTINUOUS
 10
173.6910872275
 20
208.1599183094
  0
VERTEX
  8
0
 62
7
  6
CONTINUOUS
 10
173.7074751668
 20
208.0646424239
  0
VERTEX
  8
0
 62
7
  6
CONTINUOUS
 10
173.7267495561
 20
207.9681036279
  0
VERTEX
  8
0
 62
7
  6
CONTINUOUS
 10
173.748969524
 20
207.8708344957
  0
VERTEX
  8
0
 62
7
  6
CONTINUOUS
 10
173.7741765726
 20
207.7733245105
  0
VERTEX
  8
0
 62
7
  6
CONTINUOUS
 10
173.8024390641
 20
207.6758491779
  0
VERTEX
  8
0
 62
7
  6
CONTINUOUS
 10
173.8338113734
 20
207.5786683308
  0
VERTEX
  8
0
 62
7
  6
CONTINUOUS
 10
173.8683552594
 20
207.4820192628
  0
VERTEX
  8
0
 62
7
  6
CONTINUOUS
 10
173.9061948395
 20
207.3861684184
  0
VERTEX
  8
0
 62
7
  6
CONTINUOUS
 10
173.9474475881
 20
207.2914588865
  0
VERTEX
  8
0
 62
7
  6
CONTINUOUS
 10
173.9922205089
 20
207.1982705526
  0
VERTEX
  8
0
 62
7
  6
CONTINUOUS
 10
174.0406355457
 20
207.1069952066
  0
VERTEX
  8
0
 62
7
  6
CONTINUOUS
 10
174.0929026741
 20
207.0180192457
  0
VERTEX
  8
0
 62
7
  6
CONTINUOUS
 10
174.1492334391
 20
206.9317488638
  0
VERTEX
  8
0
 62
7
  6
CONTINUOUS
 10
174.2035955591
 20
206.8567776111
  0
SEQEND
  0
LINE
  8
0
 62
7
  6
CONTINUOUS
 10
173.6499145077
 20
208.6678837894
 11
173.6499145077
 21
217.9218368524
  0
POLYLINE
  8
0
 62
7
  6
CONTINUOUS
 66
1
 70
0
  0
VERTEX
  8
0
 62
7
  6
CONTINUOUS
 10
174.2036304036
 20
219.7329886851
  0
VERTEX
  8
0
 62
7
  6
CONTINUOUS
 10
174.148772755
 20
219.6573841501
  0
VERTEX
  8
0
 62
7
  6
CONTINUOUS
 10
174.0923558115
 20
219.5711138355
  0
VERTEX
  8
0
 62
7
  6
CONTINUOUS
 10
174.0399111137
 20
219.4819806156
  0
VERTEX
  8
0
 62
7
  6
CONTINUOUS
 10
173.9912980673
 20
219.3903880571
  0
VERTEX
  8
0
 62
7
  6
CONTINUOUS
 10
173.9463739605
 20
219.2967121777
  0
VERTEX
  8
0
 62
7
  6
CONTINUOUS
 10
173.9050555495
 20
219.2014316105
  0
VERTEX
  8
0
 62
7
  6
CONTINUOUS
 10
173.8672285528
 20
219.1050170636
  0
VERTEX
  8
0
 62
7
  6
CONTINUOUS
 10
173.832741244
 20
219.0078986032
  0
VERTEX
  8
0
 62
7
  6
CONTINUOUS
 10
173.8014109889
 20
218.9103504757
  0
VERTEX
  8
0
 62
7
  6
CONTINUOUS
 10
173.7731694939
 20
218.8125798867
  0
VERTEX
  8
0
 62
7
  6
CONTINUOUS
 10
173.7479947031
 20
218.7148588434
  0
VERTEX
  8
0
 62
7
  6
CONTINUOUS
 10
173.7258313861
 20
218.6173916731
  0
VERTEX
  8
0
 62
7
  6
CONTINUOUS
 10
173.706655745
 20
218.5206704216
  0
VERTEX
  8
0
 62
7
  6
CONTINUOUS
 10
173.690394799
 20
218.4251517089
  0
VERTEX
  8
0
 62
7
  6
CONTINUOUS
 10
173.6770272342
 20
218.3314805971
  0
VERTEX
  8
0
 62
7
  6
CONTINUOUS
 10
173.6665031371
 20
218.2403058846
  0
VERTEX
  8
0
 62
7
  6
CONTINUOUS
 10
173.6586886537
 20
218.1519019844
  0
VERTEX
  8
0
 62
7
  6
CONTINUOUS
 10
173.6534284976
 20
218.0663862828
  0
VERTEX
  8
0
 62
7
  6
CONTINUOUS
 10
173.6505709908
 20
217.9838399638
  0
VERTEX
  8
0
 62
7
  6
CONTINUOUS
 10
173.6499145079
 20
217.9218196143
  0
SEQEND
  0
POLYLINE
  8
0
 62
7
  6
CONTINUOUS
 66
1
 70
0
  0
VERTEX
  8
0
 62
7
  6
CONTINUOUS
 10
159.8758866255
 20
206.6026046824
  0
VERTEX
  8
0
 62
7
  6
CONTINUOUS
 10
159.9556354871
 20
206.6897661896
  0
VERTEX
  8
0
 62
7
  6
CONTINUOUS
 10
160.0338000176
 20
206.7877325425
  0
VERTEX
  8
0
 62
7
  6
CONTINUOUS
 10
160.1050486732
 20
206.8892561871
  0
VERTEX
  8
0
 62
7
  6
CONTINUOUS
 10
160.1700024945
 20
206.9934336761
  0
VERTEX
  8
0
 62
7
  6
CONTINUOUS
 10
160.2292086014
 20
207.0995196499
  0
VERTEX
  8
0
 62
7
  6
CONTINUOUS
 10
160.2831945085
 20
207.2069686572
  0
VERTEX
  8
0
 62
7
  6
CONTINUOUS
 10
160.3324315314
 20
207.3153965169
  0
VERTEX
  8
0
 62
7
  6
CONTINUOUS
 10
160.3773301791
 20
207.4245477002
  0
VERTEX
  8
0
 62
7
  6
CONTINUOUS
 10
160.4182786564
 20
207.5342809568
  0
VERTEX
  8
0
 62
7
  6
CONTINUOUS
 10
160.4554957379
 20
207.6443929378
  0
VERTEX
  8
0
 62
7
  6
CONTINUOUS
 10
160.4891019972
 20
207.7545353039
  0
VERTEX
  8
0
 62
7
  6
CONTINUOUS
 10
160.5191683389
 20
207.8641360193
  0
VERTEX
  8
0
 62
7
  6
CONTINUOUS
 10
160.5457941678
 20
207.9727155619
  0
VERTEX
  8
0
 62
7
  6
CONTINUOUS
 10
160.5691036749
 20
208.0798190748
  0
VERTEX
  8
0
 62
7
  6
CONTINUOUS
 10
160.5892558802
 20
208.1850594193
  0
VERTEX
  8
0
 62
7
  6
CONTINUOUS
 10
160.6063332043
 20
208.2880956672
  0
VERTEX
  8
0
 62
7
  6
CONTINUOUS
 10
160.6204502587
 20
208.388874454
  0
VERTEX
  8
0
 62
7
  6
CONTINUOUS
 10
160.6316942892
 20
208.487310702
  0
VERTEX
  8
0
 62
7
  6
CONTINUOUS
 10
160.6401612483
 20
208.5834157452
  0
VERTEX
  8
0
 62
7
  6
CONTINUOUS
 10
160.6459437722
 20
208.67711143
  0
VERTEX
  8
0
 62
7
  6
CONTINUOUS
 10
160.6491422726
 20
208.7683068737
  0
VERTEX
  8
0
 62
7
  6
CONTINUOUS
 10
160.6499145077
 20
208.8394376792
  0
SEQEND
  0
POLYLINE
  8
0
 62
7
  6
CONTINUOUS
 66
1
 70
0
  0
VERTEX
  8
0
 62
7
  6
CONTINUOUS
 10
351.0911603492
 20
210.0448603209
  0
VERTEX
  8
0
 62
7
  6
CONTINUOUS
 10
351.1102085699
 20
210.0452241731
  0
VERTEX
  8
0
 62
7
  6
CONTINUOUS
 10
351.1292503531
 20
210.0463154824
  0
SEQEND
  0
LINE
  8
0
 62
7
  6
CONTINUOUS
 10
17.1999145077
 20
205.7948603209
 11
350.7499145077
 21
205.7948603209
  0
LINE
  8
0
 62
7
  6
CONTINUOUS
 10
351.0499145077
 20
210.0448603209
 11
351.0911603492
 21
210.0448603209
  0
LINE
  8
DEFAULT_1
 62
2
  6
CENTER
 10
9.6924670241
 20
213.2948603209
 11
354.6146908784
 21
213.2948603209
  0
LINE
  8
0
 62
7
  6
CONTINUOUS
 10
174.2036280026
 20
206.8567351003
 11
174.2035955909
 21
206.8567775679
  0
POLYLINE
  8
0
 62
7
  6
CONTINUOUS
 66
1
 70
0
  0
VERTEX
  8
0
 62
7
  6
CONTINUOUS
 10
186.0499145077
 20
217.9218368524
  0
VERTEX
  8
0
 62
7
  6
CONTINUOUS
 10
186.0491937068
 20
217.9875731197
  0
VERTEX
  8
0
 62
7
  6
CONTINUOUS
 10
186.0462187863
 20
218.0713483361
  0
VERTEX
  8
0
 62
7
  6
CONTINUOUS
 10
186.0408345541
 20
218.1572293733
  0
VERTEX
  8
0
 62
7
  6
CONTINUOUS
 10
186.0328993473
 20
218.2455020215
  0
VERTEX
  8
0
 62
7
  6
CONTINUOUS
 10
186.0222467002
 20
218.3364032789
  0
VERTEX
  8
0
 62
7
  6
CONTINUOUS
 10
186.0087417879
 20
218.4298023323
  0
VERTEX
  8
0
 62
7
  6
CONTINUOUS
 10
185.9923538486
 20
218.5250782177
  0
VERTEX
  8
0
 62
7
  6
CONTINUOUS
 10
185.9730794593
 20
218.6216170138
  0
VERTEX
  8
0
 62
7
  6
CONTINUOUS
 10
185.9508594914
 20
218.718886146
  0
VERTEX
  8
0
 62
7
  6
CONTINUOUS
 10
185.9256524428
 20
218.8163961312
  0
VERTEX
  8
0
 62
7
  6
CONTINUOUS
 10
185.8973899514
 20
218.9138714638
  0
VERTEX
  8
0
 62
7
  6
CONTINUOUS
 10
185.8660176421
 20
219.011052311
  0
VERTEX
  8
0
 62
7
  6
CONTINUOUS
 10
185.831473756
 20
219.1077013789
  0
VERTEX
  8
0
 62
7
  6
CONTINUOUS
 10
185.7936341759
 20
219.2035522233
  0
VERTEX
  8
0
 62
7
  6
CONTINUOUS
 10
185.7523814273
 20
219.2982617552
  0
VERTEX
  8
0
 62
7
  6
CONTINUOUS
 10
185.7076085065
 20
219.3914500891
  0
VERTEX
  8
0
 62
7
  6
CONTINUOUS
 10
185.6591934697
 20
219.4827254351
  0
VERTEX
  8
0
 62
7
  6
CONTINUOUS
 10
185.6069263414
 20
219.5717013961
  0
VERTEX
  8
0
 62
7
  6
CONTINUOUS
 10
185.5505955764
 20
219.6579717779
  0
VERTEX
  8
0
 62
7
  6
CONTINUOUS
 10
185.4962334564
 20
219.7329430306
  0
SEQEND
  0
LINE
  8
DEFAULT_1
 62
2
  6
CENTER
 10
183.9749145077
 20
226.5843340051
 11
183.9749145077
 21
200.0053866367
  0
LINE
  8
0
 62
7
  6
CONTINUOUS
 10
186.0499145077
 20
217.9218368524
 11
186.0499145077
 21
208.6678837894
  0
POLYLINE
  8
0
 62
7
  6
CONTINUOUS
 66
1
 70
0
  0
VERTEX
  8
0
 62
7
  6
CONTINUOUS
 10
199.427364624
 20
219.4717270665
  0
VERTEX
  8
0
 62
7
  6
CONTINUOUS
 10
199.3835336472
 20
219.3942873558
  0
VERTEX
  8
0
 62
7
  6
CONTINUOUS
 10
199.3383697043
 20
219.306167601
  0
VERTEX
  8
0
 62
7
  6
CONTINUOUS
 10
199.2969868299
 20
219.216381851
  0
VERTEX
  8
0
 62
7
  6
CONTINUOUS
 10
199.2593105136
 20
219.1253561812
  0
VERTEX
  8
0
 62
7
  6
CONTINUOUS
 10
199.2252224979
 20
219.0335406993
  0
VERTEX
  8
0
 62
7
  6
CONTINUOUS
 10
199.1945298808
 20
218.9413027272
  0
VERTEX
  8
0
 62
7
  6
CONTINUOUS
 10
199.167095751
 20
218.8492071966
  0
VERTEX
  8
0
 62
7
  6
CONTINUOUS
 10
199.1427325044
 20
218.7574025543
  0
VERTEX
  8
0
 62
7
  6
CONTINUOUS
 10
199.1215158179
 20
218.6664679126
  0
VERTEX
  8
0
 62
7
  6
CONTINUOUS
 10
199.1033439785
 20
218.576658707
  0
VERTEX
  8
0
 62
7
  6
CONTINUOUS
 10
199.0880823409
 20
218.4883626113
  0
VERTEX
  8
0
 62
7
  6
CONTINUOUS
 10
199.0755571185
 20
218.4017155467
  0
VERTEX
  8
0
 62
7
  6
CONTINUOUS
 10
199.0656573946
 20
218.3169177999
  0
VERTEX
  8
0
 62
7
  6
CONTINUOUS
 10
199.058271274
 20
218.2340625081
  0
VERTEX
  8
0
 62
7
  6
CONTINUOUS
 10
199.0532696293
 20
218.1532137759
  0
VERTEX
  8
0
 62
7
  6
CONTINUOUS
 10
199.0505387624
 20
218.0744519764
  0
VERTEX
  8
0
 62
7
  6
CONTINUOUS
 10
199.0499145083
 20
218.0152152068
  0
SEQEND
  0
POLYLINE
  8
0
 62
7
  6
CONTINUOUS
 66
1
 70
0
  0
VERTEX
  8
0
 62
7
  6
CONTINUOUS
 10
185.4961986119
 20
206.8567319566
  0
VERTEX
  8
0
 62
7
  6
CONTINUOUS
 10
185.5510562605
 20
206.9323364916
  0
VERTEX
  8
0
 62
7
  6
CONTINUOUS
 10
185.6074732039
 20
207.0186068063
  0
VERTEX
  8
0
 62
7
  6
CONTINUOUS
 10
185.6599179017
 20
207.1077400261
  0
VERTEX
  8
0
 62
7
  6
CONTINUOUS
 10
185.7085309482
 20
207.1993325846
  0
VERTEX
  8
0
 62
7
  6
CONTINUOUS
 10
185.7534550549
 20
207.2930084641
  0
VERTEX
  8
0
 62
7
  6
CONTINUOUS
 10
185.794773466
 20
207.3882890313
  0
VERTEX
  8
0
 62
7
  6
CONTINUOUS
 10
185.8326004626
 20
207.4847035781
  0
VERTEX
  8
0
 62
7
  6
CONTINUOUS
 10
185.8670877714
 20
207.5818220386
  0
VERTEX
  8
0
 62
7
  6
CONTINUOUS
 10
185.8984180265
 20
207.6793701661
  0
VERTEX
  8
0
 62
7
  6
CONTINUOUS
 10
185.9266595215
 20
207.7771407551
  0
VERTEX
  8
0
 62
7
  6
CONTINUOUS
 10
185.9518343124
 20
207.8748617984
  0
VERTEX
  8
0
 62
7
  6
CONTINUOUS
 10
185.9739976294
 20
207.9723289687
  0
VERTEX
  8
0
 62
7
  6
CONTINUOUS
 10
185.9931732705
 20
208.0690502202
  0
VERTEX
  8
0
 62
7
  6
CONTINUOUS
 10
186.0094342164
 20
208.1645689329
  0
VERTEX
  8
0
 62
7
  6
CONTINUOUS
 10
186.0228017812
 20
208.2582400447
  0
VERTEX
  8
0
 62
7
  6
CONTINUOUS
 10
186.0333258784
 20
208.3494147572
  0
VERTEX
  8
0
 62
7
  6
CONTINUOUS
 10
186.0411403617
 20
208.4378186574
  0
VERTEX
  8
0
 62
7
  6
CONTINUOUS
 10
186.0464005178
 20
208.523334359
  0
VERTEX
  8
0
 62
7
  6
CONTINUOUS
 10
186.0492580247
 20
208.605880678
  0
VERTEX
  8
0
 62
7
  6
CONTINUOUS
 10
186.0499145076
 20
208.6679010274
  0
SEQEND
  0
LINE
  8
0
 62
7
  6
CONTINUOUS
 10
351.0499145077
 20
216.5448603209
 11
351.0911603492
 21
216.5448603209
  0
LINE
  8
0
 62
7
  6
CONTINUOUS
 10
17.1999145077
 20
220.7948603209
 11
350.7499145077
 21
220.7948603209
  0
LINE
  8
0
 62
7
  6
CONTINUOUS
 10
18.3299145077
 20
220.9448603209
 11
24.8299145077
 21
220.9448603209
  0
POLYLINE
  8
0
 62
7
  6
CONTINUOUS
 66
1
 70
0
  0
VERTEX
  8
0
 62
7
  6
CONTINUOUS
 10
351.1292503531
 20
216.5434051593
  0
VERTEX
  8
0
 62
7
  6
CONTINUOUS
 10
351.1102085699
 20
216.5444964686
  0
VERTEX
  8
0
 62
7
  6
CONTINUOUS
 10
351.0911603492
 20
216.5448603209
  0
SEQEND
  0
LINE
  8
0
 62
7
  6
CONTINUOUS
 10
185.4962010128
 20
219.7329855414
 11
185.4962334246
 21
219.7329430739
  0
LINE
  8
0
 62
7
  6
CONTINUOUS
 10
199.4273780026
 20
207.117971007
 11
199.4273421639
 21
207.1180314621
  0
POLYLINE
  8
0
 62
7
  6
CONTINUOUS
 66
1
 70
0
  0
VERTEX
  8
0
 62
7
  6
CONTINUOUS
 10
199.0499145078
 20
208.5744246401
  0
VERTEX
  8
0
 62
7
  6
CONTINUOUS
 10
199.0505640971
 20
208.5134902964
  0
VERTEX
  8
0
 62
7
  6
CONTINUOUS
 10
199.0533353044
 20
208.4343037778
  0
VERTEX
  8
0
 62
7
  6
CONTINUOUS
 10
199.0584027989
 20
208.3532140638
  0
VERTEX
  8
0
 62
7
  6
CONTINUOUS
 10
199.0658810523
 20
208.2702609526
  0
VERTEX
  8
0
 62
7
  6
CONTINUOUS
 10
199.0758651857
 20
208.1855294743
  0
VERTEX
  8
0
 62
7
  6
CONTINUOUS
 10
199.0884593905
 20
208.099024846
  0
VERTEX
  8
0
 62
7
  6
CONTINUOUS
 10
199.1037914992
 20
208.0108112854
  0
VERTEX
  8
0
 62
7
  6
CONTINUOUS
 10
199.1220296689
 20
207.9210372615
  0
VERTEX
  8
0
 62
7
  6
CONTINUOUS
 10
199.1432943406
 20
207.830135818
  0
VERTEX
  8
0
 62
7
  6
CONTINUOUS
 10
199.1676443484
 20
207.7385642443
  0
VERTEX
  8
0
 62
7
  6
CONTINUOUS
 10
199.195115528
 20
207.646679479
  0
VERTEX
  8
0
 62
7
  6
CONTINUOUS
 10
199.225845844
 20
207.5547703061
  0
VERTEX
  8
0
 62
7
  6
CONTINUOUS
 10
199.2599805202
 20
207.4632056379
  0
VERTEX
  8
0
 62
7
  6
CONTINUOUS
 10
199.2976314946
 20
207.3724177151
  0
VERTEX
  8
0
 62
7
  6
CONTINUOUS
 10
199.338908718
 20
207.2828206743
  0
VERTEX
  8
0
 62
7
  6
CONTINUOUS
 10
199.3839697668
 20
207.1947478345
  0
VERTEX
  8
0
 62
7
  6
CONTINUOUS
 10
199.427342231
 20
207.1180313489
  0
SEQEND
  0
LINE
  8
0
 62
7
  6
CONTINUOUS
 10
199.0499145077
 20
208.5744508583
 11
199.0499145077
 21
218.0152697835
  0
POLYLINE
  8
0
 62
7
  6
CONTINUOUS
 66
1
 70
0
  0
VERTEX
  8
0
 62
7
  6
CONTINUOUS
 10
211.0724643914
 20
207.1179935752
  0
VERTEX
  8
0
 62
7
  6
CONTINUOUS
 10
211.1162953683
 20
207.195433286
  0
VERTEX
  8
0
 62
7
  6
CONTINUOUS
 10
211.1614593111
 20
207.2835530407
  0
VERTEX
  8
0
 62
7
  6
CONTINUOUS
 10
211.2028421855
 20
207.3733387907
  0
VERTEX
  8
0
 62
7
  6
CONTINUOUS
 10
211.2405185018
 20
207.4643644606
  0
VERTEX
  8
0
 62
7
  6
CONTINUOUS
 10
211.2746065175
 20
207.5561799425
  0
VERTEX
  8
0
 62
7
  6
CONTINUOUS
 10
211.3052991347
 20
207.6484179146
  0
VERTEX
  8
0
 62
7
  6
CONTINUOUS
 10
211.3327332645
 20
207.7405134452
  0
VERTEX
  8
0
 62
7
  6
CONTINUOUS
 10
211.357096511
 20
207.8323180875
  0
VERTEX
  8
0
 62
7
  6
CONTINUOUS
 10
211.3783131975
 20
207.9232527292
  0
VERTEX
  8
0
 62
7
  6
CONTINUOUS
 10
211.3964850369
 20
208.0130619347
  0
VERTEX
  8
0
 62
7
  6
CONTINUOUS
 10
211.4117466745
 20
208.1013580305
  0
VERTEX
  8
0
 62
7
  6
CONTINUOUS
 10
211.4242718969
 20
208.188005095
  0
VERTEX
  8
0
 62
7
  6
CONTINUOUS
 10
211.4341716208
 20
208.2728028419
  0
VERTEX
  8
0
 62
7
  6
CONTINUOUS
 10
211.4415577414
 20
208.3556581337
  0
VERTEX
  8
0
 62
7
  6
CONTINUOUS
 10
211.4465593862
 20
208.4365068659
  0
VERTEX
  8
0
 62
7
  6
CONTINUOUS
 10
211.449290253
 20
208.5152686653
  0
VERTEX
  8
0
 62
7
  6
CONTINUOUS
 10
211.4499145071
 20
208.5745054349
  0
SEQEND
  0
POLYLINE
  8
0
 62
7
  6
CONTINUOUS
 66
1
 70
0
  0
VERTEX
  8
0
 62
7
  6
CONTINUOUS
 10
351.1292503531
 20
216.5434051593
  0
VERTEX
  8
0
 62
7
  6
CONTINUOUS
 10
351.1382356879
 20
216.542502786
  0
VERTEX
  8
0
 62
7
  6
CONTINUOUS
 10
351.1447062198
 20
216.5413505716
  0
VERTEX
  8
0
 62
7
  6
CONTINUOUS
 10
351.148607462
 20
216.5399445563
  0
VERTEX
  8
0
 62
7
  6
CONTINUOUS
 10
351.1499145077
 20
216.5382832466
  0
SEQEND
  0
LINE
  8
0
 62
7
  6
CONTINUOUS
 10
211.0724510128
 20
219.4717496347
 11
211.0724868515
 21
219.4716891796
  0
POLYLINE
  8
0
 62
7
  6
CONTINUOUS
 66
1
 70
0
  0
VERTEX
  8
0
 62
7
  6
CONTINUOUS
 10
211.4499145076
 20
218.0152960017
  0
VERTEX
  8
0
 62
7
  6
CONTINUOUS
 10
211.4492649183
 20
218.0762303453
  0
VERTEX
  8
0
 62
7
  6
CONTINUOUS
 10
211.4464937111
 20
218.155416864
  0
VERTEX
  8
0
 62
7
  6
CONTINUOUS
 10
211.4414262165
 20
218.236506578
  0
VERTEX
  8
0
 62
7
  6
CONTINUOUS
 10
211.4339479631
 20
218.3194596892
  0
VERTEX
  8
0
 62
7
  6
CONTINUOUS
 10
211.4239638298
 20
218.4041911675
  0
VERTEX
  8
0
 62
7
  6
CONTINUOUS
 10
211.4113696249
 20
218.4906957958
  0
VERTEX
  8
0
 62
7
  6
CONTINUOUS
 10
211.3960375162
 20
218.5789093564
  0
VERTEX
  8
0
 62
7
  6
CONTINUOUS
 10
211.3777993465
 20
218.6686833802
  0
VERTEX
  8
0
 62
7
  6
CONTINUOUS
 10
211.3565346748
 20
218.7595848238
  0
VERTEX
  8
0
 62
7
  6
CONTINUOUS
 10
211.3321846671
 20
218.8511563975
  0
VERTEX
  8
0
 62
7
  6
CONTINUOUS
 10
211.3047134875
 20
218.9430411627
  0
VERTEX
  8
0
 62
7
  6
CONTINUOUS
 10
211.2739831714
 20
219.0349503357
  0
VERTEX
  8
0
 62
7
  6
CONTINUOUS
 10
211.2398484952
 20
219.1265150038
  0
VERTEX
  8
0
 62
7
  6
CONTINUOUS
 10
211.2021975208
 20
219.2173029266
  0
VERTEX
  8
0
 62
7
  6
CONTINUOUS
 10
211.1609202974
 20
219.3068999675
  0
VERTEX
  8
0
 62
7
  6
CONTINUOUS
 10
211.1158592486
 20
219.3949728072
  0
VERTEX
  8
0
 62
7
  6
CONTINUOUS
 10
211.0724867844
 20
219.4716892928
  0
SEQEND
  0
POLYLINE
  8
0
 62
7
  6
CONTINUOUS
 66
1
 70
0
  0
VERTEX
  8
0
 62
7
  6
CONTINUOUS
 10
224.4499145077
 20
208.5085581957
  0
VERTEX
  8
0
 62
7
  6
CONTINUOUS
 10
224.4505076007
 20
208.4513513363
  0
VERTEX
  8
0
 62
7
  6
CONTINUOUS
 10
224.4530216711
 20
208.3775149697
  0
VERTEX
  8
0
 62
7
  6
CONTINUOUS
 10
224.4575519789
 20
208.3029915669
  0
VERTEX
  8
0
 62
7
  6
CONTINUOUS
 10
224.4641788737
 20
208.2275365133
  0
VERTEX
  8
0
 62
7
  6
CONTINUOUS
 10
224.4730145872
 20
208.1509282066
  0
VERTEX
  8
0
 62
7
  6
CONTINUOUS
 10
224.4842063566
 20
208.0729491218
  0
VERTEX
  8
0
 62
7
  6
CONTINUOUS
 10
224.4979246868
 20
207.9934712776
  0
VERTEX
  8
0
 62
7
  6
CONTINUOUS
 10
224.514356816
 20
207.9124555073
  0
VERTEX
  8
0
 62
7
  6
CONTINUOUS
 10
224.5337069547
 20
207.8299293083
  0
VERTEX
  8
0
 62
7
  6
CONTINUOUS
 10
224.5561855496
 20
207.7460258814
  0
VERTEX
  8
0
 62
7
  6
CONTINUOUS
 10
224.5820294826
 20
207.660912536
  0
VERTEX
  8
0
 62
7
  6
CONTINUOUS
 10
224.6069465829
 20
207.5874937353
  0
SEQEND
  0
LINE
  8
0
 62
7
  6
CONTINUOUS
 10
211.4499145077
 20
218.0152697835
 11
211.4499145077
 21
208.5744508583
  0
LINE
  8
0
 62
7
  6
CONTINUOUS
 10
224.4499145077
 20
208.5085581957
 11
224.4499145077
 21
218.0811624461
  0
POLYLINE
  8
0
 62
7
  6
CONTINUOUS
 66
1
 70
0
  0
VERTEX
  8
0
 62
7
  6
CONTINUOUS
 10
224.6070668253
 20
219.0025638318
  0
VERTEX
  8
0
 62
7
  6
CONTINUOUS
 10
224.5816608374
 20
218.9276387575
  0
VERTEX
  8
0
 62
7
  6
CONTINUOUS
 10
224.5558297652
 20
218.8423500334
  0
VERTEX
  8
0
 62
7
  6
CONTINUOUS
 10
224.5333748155
 20
218.7582770055
  0
VERTEX
  8
0
 62
7
  6
CONTINUOUS
 10
224.5140536976
 20
218.6755930547
  0
VERTEX
  8
0
 62
7
  6
CONTINUOUS
 10
224.4976528416
 20
218.5944345827
  0
VERTEX
  8
0
 62
7
  6
CONTINUOUS
 10
224.4839670242
 20
218.5148330041
  0
VERTEX
  8
0
 62
7
  6
CONTINUOUS
 10
224.4728101631
 20
218.4367615055
  0
VERTEX
  8
0
 62
7
  6
CONTINUOUS
 10
224.4640130878
 20
218.3601096239
  0
VERTEX
  8
0
 62
7
  6
CONTINUOUS
 10
224.4574287843
 20
218.2846780721
  0
VERTEX
  8
0
 62
7
  6
CONTINUOUS
 10
224.4529438769
 20
218.210264534
  0
VERTEX
  8
0
 62
7
  6
CONTINUOUS
 10
224.4504753077
 20
218.1366450437
  0
VERTEX
  8
0
 62
7
  6
CONTINUOUS
 10
224.4499145078
 20
218.0811783729
  0
SEQEND
  0
LINE
  8
0
 62
7
  6
CONTINUOUS
 10
224.6070655026
 20
207.5871605151
 11
224.6069462101
 21
207.58749478
  0
POLYLINE
  8
0
 62
7
  6
CONTINUOUS
 66
1
 70
0
  0
VERTEX
  8
0
 62
7
  6
CONTINUOUS
 10
236.8499145077
 20
218.081162446
  0
VERTEX
  8
0
 62
7
  6
CONTINUOUS
 10
236.8493214147
 20
218.1383693054
  0
VERTEX
  8
0
 62
7
  6
CONTINUOUS
 10
236.8468073443
 20
218.212205672
  0
VERTEX
  8
0
 62
7
  6
CONTINUOUS
 10
236.8422770365
 20
218.2867290748
  0
VERTEX
  8
0
 62
7
  6
CONTINUOUS
 10
236.8356501417
 20
218.3621841283
  0
VERTEX
  8
0
 62
7
  6
CONTINUOUS
 10
236.8268144283
 20
218.4387924351
  0
VERTEX
  8
0
 62
7
  6
CONTINUOUS
 10
236.8156226589
 20
218.5167715199
  0
VERTEX
  8
0
 62
7
  6
CONTINUOUS
 10
236.8019043286
 20
218.596249364
  0
VERTEX
  8
0
 62
7
  6
CONTINUOUS
 10
236.7854721995
 20
218.6772651344
  0
VERTEX
  8
0
 62
7
  6
CONTINUOUS
 10
236.7661220608
 20
218.7597913334
  0
VERTEX
  8
0
 62
7
  6
CONTINUOUS
 10
236.7436434658
 20
218.8436947603
  0
VERTEX
  8
0
 62
7
  6
CONTINUOUS
 10
236.7177995329
 20
218.9288081057
  0
VERTEX
  8
0
 62
7
  6
CONTINUOUS
 10
236.6928824325
 20
219.0022269065
  0
SEQEND
  0
LINE
  8
0
 62
7
  6
CONTINUOUS
 10
236.8499145077
 20
218.0811624461
 11
236.8499145077
 21
208.5085581957
  0
POLYLINE
  8
0
 62
7
  6
CONTINUOUS
 66
1
 70
0
  0
VERTEX
  8
0
 62
7
  6
CONTINUOUS
 10
236.6927621901
 20
207.58715681
  0
VERTEX
  8
0
 62
7
  6
CONTINUOUS
 10
236.7181681781
 20
207.6620818842
  0
VERTEX
  8
0
 62
7
  6
CONTINUOUS
 10
236.7439992502
 20
207.7473706084
  0
VERTEX
  8
0
 62
7
  6
CONTINUOUS
 10
236.7664541999
 20
207.8314436363
  0
VERTEX
  8
0
 62
7
  6
CONTINUOUS
 10
236.7857753179
 20
207.9141275871
  0
VERTEX
  8
0
 62
7
  6
CONTINUOUS
 10
236.8021761738
 20
207.995286059
  0
VERTEX
  8
0
 62
7
  6
CONTINUOUS
 10
236.8158619912
 20
208.0748876377
  0
VERTEX
  8
0
 62
7
  6
CONTINUOUS
 10
236.8270188523
 20
208.1529591363
  0
VERTEX
  8
0
 62
7
  6
CONTINUOUS
 10
236.8358159276
 20
208.2296110179
  0
VERTEX
  8
0
 62
7
  6
CONTINUOUS
 10
236.8424002312
 20
208.3050425697
  0
VERTEX
  8
0
 62
7
  6
CONTINUOUS
 10
236.8468851385
 20
208.3794561078
  0
VERTEX
  8
0
 62
7
  6
CONTINUOUS
 10
236.8493537078
 20
208.4530755981
  0
VERTEX
  8
0
 62
7
  6
CONTINUOUS
 10
236.8499145077
 20
208.5085422688
  0
SEQEND
  0
LINE
  8
0
 62
7
  6
CONTINUOUS
 10
236.6927635128
 20
219.0025601267
 11
236.6928828054
 21
219.0022258618
  0
POLYLINE
  8
0
 62
7
  6
CONTINUOUS
 66
1
 70
0
  0
VERTEX
  8
0
 62
7
  6
CONTINUOUS
 10
249.8499145077
 20
208.4952054691
  0
VERTEX
  8
0
 62
7
  6
CONTINUOUS
 10
249.8509161004
 20
208.4216382619
  0
VERTEX
  8
0
 62
7
  6
CONTINUOUS
 10
249.8539143988
 20
208.3481852701
  0
VERTEX
  8
0
 62
7
  6
CONTINUOUS
 10
249.8589043093
 20
208.2748512105
  0
VERTEX
  8
0
 62
7
  6
CONTINUOUS
 10
249.8658883124
 20
208.2016397138
  0
VERTEX
  8
0
 62
7
  6
CONTINUOUS
 10
249.8748780026
 20
208.128554852
  0
SEQEND
  0
LINE
  8
0
 62
7
  6
CONTINUOUS
 10
249.8499145077
 20
208.4952054691
 11
249.8499145077
 21
218.0945151726
  0
POLYLINE
  8
0
 62
7
  6
CONTINUOUS
 66
1
 70
0
  0
VERTEX
  8
0
 62
7
  6
CONTINUOUS
 10
249.8748780026
 20
218.4611657898
  0
VERTEX
  8
0
 62
7
  6
CONTINUOUS
 10
249.8658883124
 20
218.3880809278
  0
VERTEX
  8
0
 62
7
  6
CONTINUOUS
 10
249.8589043092
 20
218.314869431
  0
VERTEX
  8
0
 62
7
  6
CONTINUOUS
 10
249.8539143988
 20
218.2415353714
  0
VERTEX
  8
0
 62
7
  6
CONTINUOUS
 10
249.8509161004
 20
218.1680823796
  0
VERTEX
  8
0
 62
7
  6
CONTINUOUS
 10
249.8499145077
 20
218.0945151726
  0
SEQEND
  0
POLYLINE
  8
0
 62
7
  6
CONTINUOUS
 66
1
 70
0
  0
VERTEX
  8
0
 62
7
  6
CONTINUOUS
 10
262.2499145077
 20
218.0945151726
  0
VERTEX
  8
0
 62
7
  6
CONTINUOUS
 10
262.248912915
 20
218.1680823798
  0
VERTEX
  8
0
 62
7
  6
CONTINUOUS
 10
262.2459146166
 20
218.2415353716
  0
VERTEX
  8
0
 62
7
  6
CONTINUOUS
 10
262.2409247062
 20
218.3148694313
  0
VERTEX
  8
0
 62
7
  6
CONTINUOUS
 10
262.233940703
 20
218.3880809279
  0
VERTEX
  8
0
 62
7
  6
CONTINUOUS
 10
262.2249510128
 20
218.4611657898
  0
SEQEND
  0
LINE
  8
0
 62
7
  6
CONTINUOUS
 10
262.2499145077
 20
218.0945151726
 11
262.2499145077
 21
208.4952054691
  0
POLYLINE
  8
0
 62
7
  6
CONTINUOUS
 66
1
 70
0
  0
VERTEX
  8
0
 62
7
  6
CONTINUOUS
 10
262.2249510128
 20
208.128554852
  0
VERTEX
  8
0
 62
7
  6
CONTINUOUS
 10
262.233940703
 20
208.201639714
  0
VERTEX
  8
0
 62
7
  6
CONTINUOUS
 10
262.2409247062
 20
208.2748512108
  0
VERTEX
  8
0
 62
7
  6
CONTINUOUS
 10
262.2459146166
 20
208.3481852704
  0
VERTEX
  8
0
 62
7
  6
CONTINUOUS
 10
262.248912915
 20
208.4216382621
  0
VERTEX
  8
0
 62
7
  6
CONTINUOUS
 10
262.2499145077
 20
208.4952054691
  0
SEQEND
  0
LINE
  8
0
 62
7
  6
CONTINUOUS
 10
275.2499145077
 20
208.4948603209
 11
275.2499145077
 21
218.0948603209
  0
LINE
  8
0
 62
7
  6
CONTINUOUS
 10
287.6499145077
 20
218.0948603209
 11
287.6499145077
 21
208.4948603209
  0
LINE
  8
0
 62
7
  6
CONTINUOUS
 10
300.6499145077
 20
208.4948603209
 11
300.6499145077
 21
218.0948603209
  0
LINE
  8
0
 62
7
  6
CONTINUOUS
 10
313.0499145077
 20
208.4948603209
 11
313.0499145077
 21
218.0948603209
  0
LINE
  8
0
 62
7
  6
CONTINUOUS
 10
326.0499145077
 20
208.4948603209
 11
326.0499145077
 21
218.0948603209
  0
POLYLINE
  8
0
 62
7
  6
CONTINUOUS
 66
1
 70
0
  0
VERTEX
  8
0
 62
7
  6
CONTINUOUS
 10
351.1499145077
 20
210.0514373952
  0
VERTEX
  8
0
 62
7
  6
CONTINUOUS
 10
351.148607462
 20
210.0497760854
  0
VERTEX
  8
0
 62
7
  6
CONTINUOUS
 10
351.1447062198
 20
210.0483700702
  0
VERTEX
  8
0
 62
7
  6
CONTINUOUS
 10
351.1382356879
 20
210.0472178558
  0
VERTEX
  8
0
 62
7
  6
CONTINUOUS
 10
351.1292503531
 20
210.0463154824
  0
SEQEND
  0
LINE
  8
0
 62
7
  6
CONTINUOUS
 10
338.4499145077
 20
208.4948603209
 11
338.4499145077
 21
218.0948603209
  0
LINE
  8
0
 62
7
  6
CONTINUOUS
 10
351.0499145077
 20
220.4948603209
 11
351.0499145077
 21
206.0948603209
  0
LINE
  8
0
 62
7
  6
CONTINUOUS
 10
351.1499145077
 20
208.4948603209
 11
351.1499145077
 21
218.0948603209
  0
LINE
  8
0
 62
7
  6
CONTINUOUS
 10
380.0092105263
 20
78.2362066212
 11
379.7092105263
 21
78.2362066212
  0
LINE
  8
0
 62
7
  6
CONTINUOUS
 10
379.7092105263
 20
78.8862066212
 11
380.0092105263
 21
78.8862066212
  0
LINE
  8
0
 62
7
  6
CONTINUOUS
 10
379.7092105263
 20
79.1862066212
 11
380.0092105263
 21
79.1862066212
  0
POLYLINE
  8
0
 62
7
  6
CONTINUOUS
 66
1
 70
0
  0
VERTEX
  8
0
 62
7
  6
CONTINUOUS
 10
381.7221363434
 20
79.9827012993
  0
VERTEX
  8
0
 62
7
  6
CONTINUOUS
 10
381.9523795758
 20
79.9865956634
  0
VERTEX
  8
0
 62
7
  6
CONTINUOUS
 10
382.2758291344
 20
80.0054589339
  0
VERTEX
  8
0
 62
7
  6
CONTINUOUS
 10
382.5885256597
 20
80.0392287245
  0
VERTEX
  8
0
 62
7
  6
CONTINUOUS
 10
382.8902664793
 20
80.0872875212
  0
VERTEX
  8
0
 62
7
  6
CONTINUOUS
 10
383.1802807957
 20
80.1487029984
  0
VERTEX
  8
0
 62
7
  6
CONTINUOUS
 10
383.4584128697
 20
80.2224800722
  0
VERTEX
  8
0
 62
7
  6
CONTINUOUS
 10
383.7247486528
 20
80.307994746
  0
VERTEX
  8
0
 62
7
  6
CONTINUOUS
 10
383.9795000079
 20
80.4045695398
  0
VERTEX
  8
0
 62
7
  6
CONTINUOUS
 10
384.2229285447
 20
80.5114529656
  0
VERTEX
  8
0
 62
7
  6
CONTINUOUS
 10
384.4547325611
 20
80.6275626502
  0
VERTEX
  8
0
 62
7
  6
CONTINUOUS
 10
384.6746425225
 20
80.7518326954
  0
VERTEX
  8
0
 62
7
  6
CONTINUOUS
 10
384.8826848528
 20
80.8833847669
  0
VERTEX
  8
0
 62
7
  6
CONTINUOUS
 10
385.0788430148
 20
81.0213510557
  0
VERTEX
  8
0
 62
7
  6
CONTINUOUS
 10
385.263666045
 20
81.165278913
  0
VERTEX
  8
0
 62
7
  6
CONTINUOUS
 10
385.4376610304
 20
81.314612866
  0
VERTEX
  8
0
 62
7
  6
CONTINUOUS
 10
385.6014559277
 20
81.4689081958
  0
VERTEX
  8
0
 62
7
  6
CONTINUOUS
 10
385.7555527385
 20
81.6277734822
  0
VERTEX
  8
0
 62
7
  6
CONTINUOUS
 10
385.9004509683
 20
81.7909113068
  0
VERTEX
  8
0
 62
7
  6
CONTINUOUS
 10
386.0364709537
 20
81.9578278258
  0
VERTEX
  8
0
 62
7
  6
CONTINUOUS
 10
386.1633291767
 20
82.1274203982
  0
VERTEX
  8
0
 62
7
  6
CONTINUOUS
 10
386.2814163371
 20
82.2993770552
  0
VERTEX
  8
0
 62
7
  6
CONTINUOUS
 10
386.3910404333
 20
82.4732466682
  0
VERTEX
  8
0
 62
7
  6
CONTINUOUS
 10
386.4926360552
 20
82.6486474514
  0
VERTEX
  8
0
 62
7
  6
CONTINUOUS
 10
386.5867568965
 20
82.8255013333
  0
VERTEX
  8
0
 62
7
  6
CONTINUOUS
 10
386.6738824928
 20
83.0037836716
  0
VERTEX
  8
0
 62
7
  6
CONTINUOUS
 10
386.754449693
 20
83.1836728076
  0
VERTEX
  8
0
 62
7
  6
CONTINUOUS
 10
386.8287054686
 20
83.3650104171
  0
VERTEX
  8
0
 62
7
  6
CONTINUOUS
 10
386.8968263494
 20
83.5473800874
  0
VERTEX
  8
0
 62
7
  6
CONTINUOUS
 10
386.9590072005
 20
83.7303515539
  0
VERTEX
  8
0
 62
7
  6
CONTINUOUS
 10
387.0108119184
 20
83.8976986563
  0
SEQEND
  0
LINE
  8
0
 62
7
  6
CONTINUOUS
 10
379.7092105263
 20
79.6862066212
 11
380.0092105263
 21
79.6862066212
  0
LINE
  8
0
 62
7
  6
CONTINUOUS
 10
377.9938987603
 20
79.9827616017
 11
381.7236837504
 21
79.9827615961
  0
LINE
  8
0
 62
7
  6
CONTINUOUS
 10
381.7245214643
 20
79.9827616017
 11
381.7221510997
 21
79.9827619599
  0
LINE
  8
0
 62
7
  6
CONTINUOUS
 10
377.7582526947
 20
79.9868635968
 11
377.9964137128
 21
79.9827012761
  0
LINE
  8
DEFAULT_1
 62
2
  6
CENTER
 10
379.8592105263
 20
86.2734616212
 11
371.7219555263
 21
86.2734616212
  0
LINE
  8
DEFAULT_1
 62
2
  6
CENTER
 10
379.8592105263
 20
86.2734616212
 11
387.9964655263
 21
86.2734616212
  0
LINE
  8
0
 62
7
  6
CONTINUOUS
 10
387.3592105263
 20
90.9803731588
 11
387.5092105263
 21
90.9803731588
  0
LINE
  8
0
 62
7
  6
CONTINUOUS
 10
387.3592105263
 20
91.9282900837
 11
387.5092105263
 21
91.9282900837
  0
LINE
  8
0
 62
7
  6
CONTINUOUS
 10
387.3592105263
 20
93.0116233525
 11
387.5092105263
 21
93.0116233525
  0
LINE
  8
0
 62
7
  6
CONTINUOUS
 10
387.3592105263
 20
95.3137066212
 11
387.5092105263
 21
95.3137066212
  0
POLYLINE
  8
0
 62
7
  6
CONTINUOUS
 66
1
 70
0
  0
VERTEX
  8
0
 62
7
  6
CONTINUOUS
 10
372.7076091348
 20
83.8976986564
  0
VERTEX
  8
0
 62
7
  6
CONTINUOUS
 10
372.7593711751
 20
83.7304833981
  0
VERTEX
  8
0
 62
7
  6
CONTINUOUS
 10
372.8215008756
 20
83.5476434242
  0
VERTEX
  8
0
 62
7
  6
CONTINUOUS
 10
372.8895617042
 20
83.3654038773
  0
VERTEX
  8
0
 62
7
  6
CONTINUOUS
 10
372.9637482651
 20
83.1841937697
  0
VERTEX
  8
0
 62
7
  6
CONTINUOUS
 10
373.0442367592
 20
83.0044287674
  0
VERTEX
  8
0
 62
7
  6
CONTINUOUS
 10
373.131272925
 20
82.8262686726
  0
VERTEX
  8
0
 62
7
  6
CONTINUOUS
 10
373.2252922604
 20
82.649535258
  0
VERTEX
  8
0
 62
7
  6
CONTINUOUS
 10
373.3267728621
 20
82.4742530147
  0
VERTEX
  8
0
 62
7
  6
CONTINUOUS
 10
373.4362663521
 20
82.3004997611
  0
VERTEX
  8
0
 62
7
  6
CONTINUOUS
 10
373.5542087936
 20
82.1286531943
  0
VERTEX
  8
0
 62
7
  6
CONTINUOUS
 10
373.6809068398
 20
81.9591647842
  0
VERTEX
  8
0
 62
7
  6
CONTINUOUS
 10
373.8167537283
 20
81.7923420997
  0
VERTEX
  8
0
 62
7
  6
CONTINUOUS
 10
373.9614709497
 20
81.6292802743
  0
VERTEX
  8
0
 62
7
  6
CONTINUOUS
 10
374.1153690899
 20
81.4704825756
  0
VERTEX
  8
0
 62
7
  6
CONTINUOUS
 10
374.2789437626
 20
81.3162478926
  0
VERTEX
  8
0
 62
7
  6
CONTINUOUS
 10
374.4526898199
 20
81.1669697029
  0
VERTEX
  8
0
 62
7
  6
CONTINUOUS
 10
374.6372357853
 20
81.0230869985
  0
VERTEX
  8
0
 62
7
  6
CONTINUOUS
 10
374.8331018029
 20
80.8851444203
  0
VERTEX
  8
0
 62
7
  6
CONTINUOUS
 10
375.04086168
 20
80.7535796464
  0
VERTEX
  8
0
 62
7
  6
CONTINUOUS
 10
375.2605242018
 20
80.6292500984
  0
VERTEX
  8
0
 62
7
  6
CONTINUOUS
 10
375.492081515
 20
80.5130572799
  0
VERTEX
  8
0
 62
7
  6
CONTINUOUS
 10
375.7352091404
 20
80.4060894745
  0
VERTEX
  8
0
 62
7
  6
CONTINUOUS
 10
375.9895839124
 20
80.3094273567
  0
VERTEX
  8
0
 62
7
  6
CONTINUOUS
 10
376.255443814
 20
80.2238193947
  0
VERTEX
  8
0
 62
7
  6
CONTINUOUS
 10
376.5329551348
 20
80.1499418177
  0
VERTEX
  8
0
 62
7
  6
CONTINUOUS
 10
376.8222236105
 20
80.0883913923
  0
VERTEX
  8
0
 62
7
  6
CONTINUOUS
 10
377.1232058079
 20
80.0401251302
  0
VERTEX
  8
0
 62
7
  6
CONTINUOUS
 10
377.4352357351
 20
80.0060747176
  0
VERTEX
  8
0
 62
7
  6
CONTINUOUS
 10
377.7582526947
 20
79.9868635968
  0
SEQEND
  0
LINE
  8
0
 62
7
  6
CONTINUOUS
 10
387.3592105263
 20
96.1262066212
 11
387.5092105263
 21
96.1262066212
  0
POLYLINE
  8
0
 62
7
  6
CONTINUOUS
 66
1
 70
0
  0
VERTEX
  8
0
 62
7
  6
CONTINUOUS
 10
372.3592105263
 20
86.3114721442
  0
VERTEX
  8
0
 62
7
  6
CONTINUOUS
 10
372.3659838514
 20
85.9719077773
  0
VERTEX
  8
0
 62
7
  6
CONTINUOUS
 10
372.3875157801
 20
85.6172625907
  0
VERTEX
  8
0
 62
7
  6
CONTINUOUS
 10
372.4236690228
 20
85.2644436554
  0
VERTEX
  8
0
 62
7
  6
CONTINUOUS
 10
372.4743018907
 20
84.9140530543
  0
VERTEX
  8
0
 62
7
  6
CONTINUOUS
 10
372.5392845485
 20
84.5666849598
  0
VERTEX
  8
0
 62
7
  6
CONTINUOUS
 10
372.6184977848
 20
84.2229349915
  0
VERTEX
  8
0
 62
7
  6
CONTINUOUS
 10
372.7075925853
 20
83.8976937628
  0
SEQEND
  0
LINE
  8
0
 62
7
  6
CONTINUOUS
 10
372.3592105263
 20
85.5862066212
 11
372.3592105263
 21
137.6862066212
  0
LINE
  8
0
 62
7
  6
CONTINUOUS
 10
376.6092105263
 20
120.6862066212
 11
376.6092105263
 21
136.8862066212
  0
LINE
  8
0
 62
7
  6
CONTINUOUS
 10
376.7592105263
 20
117.5362066212
 11
376.7592105263
 21
137.0362066212
  0
LINE
  8
DEFAULT_1
 62
2
  6
CENTER
 10
379.8592105263
 20
137.0362066212
 11
379.8592105263
 21
132.0361066212
  0
LINE
  8
DEFAULT_1
 62
2
  6
CENTER
 10
379.8592105263
 20
86.2734616212
 11
379.8592105263
 21
78.1362066212
  0
LINE
  8
DEFAULT_1
 62
2
  6
CENTER
 10
379.8592105263
 20
86.2734616212
 11
379.8592105263
 21
94.4107166212
  0
LINE
  8
DEFAULT_1
 62
2
  6
CENTER
 10
379.8592105263
 20
137.0362066212
 11
379.8592105263
 21
142.0363066212
  0
LINE
  8
0
 62
7
  6
CONTINUOUS
 10
382.9592105263
 20
117.5362066212
 11
382.9592105263
 21
137.0362066212
  0
LINE
  8
0
 62
7
  6
CONTINUOUS
 10
383.1092105263
 20
120.6862066212
 11
383.1092105263
 21
136.8862066212
  0
LINE
  8
0
 62
7
  6
CONTINUOUS
 10
387.3592105263
 20
85.5862066212
 11
387.3592105263
 21
137.6862066212
  0
LINE
  8
0
 62
7
  6
CONTINUOUS
 10
387.5092105263
 20
96.1262066212
 11
387.5092105263
 21
90.9803731588
  0
POLYLINE
  8
0
 62
7
  6
CONTINUOUS
 66
1
 70
0
  0
VERTEX
  8
0
 62
7
  6
CONTINUOUS
 10
387.0108284673
 20
83.8976937628
  0
VERTEX
  8
0
 62
7
  6
CONTINUOUS
 10
387.099592208
 20
84.2216243283
  0
VERTEX
  8
0
 62
7
  6
CONTINUOUS
 10
387.1788591646
 20
84.5653561954
  0
VERTEX
  8
0
 62
7
  6
CONTINUOUS
 10
387.2438966394
 20
84.912710857
  0
VERTEX
  8
0
 62
7
  6
CONTINUOUS
 10
387.2945851576
 20
85.2630927306
  0
VERTEX
  8
0
 62
7
  6
CONTINUOUS
 10
387.3307946252
 20
85.6159076811
  0
VERTEX
  8
0
 62
7
  6
CONTINUOUS
 10
387.3523830928
 20
85.9705536599
  0
VERTEX
  8
0
 62
7
  6
CONTINUOUS
 10
387.3592105263
 20
86.3114721441
  0
SEQEND
  0
LINE
  8
DEFAULT_1
 62
2
  6
CENTER
 10
379.8592105263
 20
137.0362066212
 11
374.8591105263
 21
137.0362066212
  0
LINE
  8
DEFAULT_1
 62
2
  6
CENTER
 10
379.8592105263
 20
137.0362066212
 11
384.8593105263
 21
137.0362066212
  0
LINE
  8
0
 62
7
  6
CONTINUOUS
 10
380.0092105263
 20
142.3862066212
 11
379.7092105263
 21
142.3862066212
  0
LINE
  8
0
 62
7
  6
CONTINUOUS
 10
380.0092105263
 20
142.6862066212
 11
379.7092105263
 21
142.6862066212
  0
LINE
  8
0
 62
7
  6
CONTINUOUS
 10
380.0092105263
 20
143.1862066212
 11
379.7092105263
 21
143.1862066212
  0
LINE
  8
0
 62
7
  6
CONTINUOUS
 10
380.0092105263
 20
143.5862066212
 11
379.7092105263
 21
143.5862066212
  0
LINE
  8
0
 62
7
  6
CONTINUOUS
 10
380.0092105263
 20
144.0862066212
 11
379.7092105263
 21
144.0862066212
  0
LINE
  8
0
 62
7
  6
CONTINUOUS
 10
380.0092105263
 20
144.3862066212
 11
379.7092105263
 21
144.3862066212
  0
LINE
  8
0
 62
7
  6
CONTINUOUS
 10
380.0092105263
 20
144.4862066212
 11
379.7092105263
 21
144.4862066212
  0
LINE
  8
0
 62
7
  6
CONTINUOUS
 10
380.0092105263
 20
145.0362066212
 11
379.7092105263
 21
145.0362066212
  0
ARC
  8
0
 62
7
  6
CONTINUOUS
 10
20.8999145077
 20
83.9827615961
 40
4.0
 50
180.0
 51
291.0
  0
ARC
  8
0
 62
7
  6
CONTINUOUS
 10
56.3499145077
 20
86.179548147
 40
0.3
 50
0.0
 51
21.39
  0
ARC
  8
0
 62
7
  6
CONTINUOUS
 10
44.5499145077
 20
86.179548147
 40
0.3
 50
158.61
 51
180.0
  0
ARC
  8
0
 62
7
  6
CONTINUOUS
 10
54.9499145077
 20
93.3181973014
 40
1.0
 50
180.0
 51
201.39
  0
ARC
  8
0
 62
7
  6
CONTINUOUS
 10
45.9499145077
 20
93.3181973014
 40
1.0
 50
338.61
 51
360.0
  0
ARC
  8
0
 62
7
  6
CONTINUOUS
 10
97.7499145077
 20
86.179548147
 40
0.3
 50
158.61
 51
180.0
  0
ARC
  8
0
 62
7
  6
CONTINUOUS
 10
84.1499145077
 20
86.179548147
 40
0.3
 50
0.0
 51
21.39
  0
ARC
  8
0
 62
7
  6
CONTINUOUS
 10
72.3499145077
 20
86.179548147
 40
0.3
 50
158.61
 51
180.0
  0
ARC
  8
0
 62
7
  6
CONTINUOUS
 10
99.1499145077
 20
93.3181973014
 40
1.0
 50
338.61
 51
360.0
  0
ARC
  8
0
 62
7
  6
CONTINUOUS
 10
82.7499145077
 20
93.3181973014
 40
1.0
 50
180.0
 51
201.39
  0
ARC
  8
0
 62
7
  6
CONTINUOUS
 10
73.7499145077
 20
93.3181973014
 40
1.0
 50
338.61
 51
360.0
  0
ARC
  8
0
 62
7
  6
CONTINUOUS
 10
24.8999145077
 20
100.8306929941
 40
1.0
 50
180.0
 51
210.0
  0
ARC
  8
0
 62
7
  6
CONTINUOUS
 10
26.2999145077
 20
95.8058218635
 40
0.3
 50
0.0
 51
30.0
  0
ARC
  8
0
 62
7
  6
CONTINUOUS
 10
29.8999145077
 20
102.075925247
 40
6.0
 50
135.0
 51
180.0
  0
ARC
  8
0
 62
7
  6
CONTINUOUS
 10
57.9499145077
 20
103.5293523718
 40
4.0
 50
135.0
 51
180.0
  0
ARC
  8
0
 62
7
  6
CONTINUOUS
 10
31.8817687572
 20
106.8862066212
 40
4.0
 50
90.0
 51
135.0
  0
ARC
  8
0
 62
7
  6
CONTINUOUS
 10
38.9680602582
 20
106.8862066212
 40
4.0
 50
45.0
 51
90.0
  0
ARC
  8
0
 62
7
  6
CONTINUOUS
 10
42.9499145077
 20
102.9043523718
 40
4.0
 50
0.0
 51
45.0
  0
ARC
  8
0
 62
7
  6
CONTINUOUS
 10
19.8999145077
 20
107.4496755306
 40
3.0
 50
111.6592507071
 51
180.0
  0
ARC
  8
0
 62
7
  6
CONTINUOUS
 10
88.1067687572
 20
105.8862066212
 40
4.0
 50
90.0
 51
135.0
  0
ARC
  8
0
 62
7
  6
CONTINUOUS
 10
85.7499145077
 20
103.5293523718
 40
4.0
 50
135.0
 51
180.0
  0
ARC
  8
0
 62
7
  6
CONTINUOUS
 10
60.8067687572
 20
106.3862066212
 40
4.0
 50
90.0
 51
135.0
  0
ARC
  8
0
 62
7
  6
CONTINUOUS
 10
67.8930602582
 20
106.3862066212
 40
4.0
 50
45.0
 51
90.0
  0
ARC
  8
0
 62
7
  6
CONTINUOUS
 10
70.7499145077
 20
103.5293523718
 40
4.0
 50
0.0
 51
45.0
  0
ARC
  8
0
 62
7
  6
CONTINUOUS
 10
98.1499145077
 20
107.8862066212
 40
2.0
 50
0.0
 51
90.0
  0
ARC
  8
0
 62
7
  6
CONTINUOUS
 10
134.9499145077
 20
86.179551881
 40
0.3
 50
0.0
 51
21.3886228278
  0
ARC
  8
0
 62
7
  6
CONTINUOUS
 10
109.5499145077
 20
86.179551881
 40
0.3
 50
0.0
 51
21.3886228278
  0
ARC
  8
0
 62
7
  6
CONTINUOUS
 10
123.1499145077
 20
86.179551881
 40
0.3
 50
158.6113771722
 51
180.0
  0
ARC
  8
0
 62
7
  6
CONTINUOUS
 10
133.5499145077
 20
93.3186727767
 40
1.0
 50
180.0
 51
201.3886228278
  0
ARC
  8
0
 62
7
  6
CONTINUOUS
 10
108.1499145077
 20
93.3186727767
 40
1.0
 50
180.0
 51
201.3886228278
  0
ARC
  8
0
 62
7
  6
CONTINUOUS
 10
124.5499145077
 20
93.3186727767
 40
1.0
 50
338.6113771722
 51
360.0
  0
ARC
  8
0
 62
7
  6
CONTINUOUS
 10
183.3499145077
 20
82.7862066212
 40
2.7
 50
270.0
 51
360.0
  0
ARC
  8
0
 62
7
  6
CONTINUOUS
 10
176.3499145077
 20
82.7862066212
 40
2.7
 50
180.0
 51
270.0
  0
ARC
  8
0
 62
7
  6
CONTINUOUS
 10
173.9499145077
 20
86.179551881
 40
0.3
 50
158.6113771722
 51
180.0
  0
ARC
  8
0
 62
7
  6
CONTINUOUS
 10
160.3499145077
 20
86.179551881
 40
0.3
 50
0.0
 51
21.3886228278
  0
ARC
  8
0
 62
7
  6
CONTINUOUS
 10
148.5499145077
 20
86.179551881
 40
0.3
 50
158.6113771722
 51
180.0
  0
ARC
  8
0
 62
7
  6
CONTINUOUS
 10
184.3499145077
 20
93.3186727767
 40
1.0
 50
180.0
 51
201.3886228278
  0
ARC
  8
0
 62
7
  6
CONTINUOUS
 10
158.9499145077
 20
93.3186727767
 40
1.0
 50
180.0
 51
201.3886228278
  0
ARC
  8
0
 62
7
  6
CONTINUOUS
 10
175.3499145077
 20
93.3186727767
 40
1.0
 50
338.6113771722
 51
360.0
  0
ARC
  8
0
 62
7
  6
CONTINUOUS
 10
149.9499145077
 20
93.3186727767
 40
1.0
 50
338.6113771722
 51
360.0
  0
ARC
  8
0
 62
7
  6
CONTINUOUS
 10
185.3499145077
 20
106.8362066212
 40
2.0
 50
90.0
 51
180.0
  0
ARC
  8
0
 62
7
  6
CONTINUOUS
 10
174.3499145077
 20
106.8362066212
 40
2.0
 50
0.0
 51
90.0
  0
ARC
  8
0
 62
7
  6
CONTINUOUS
 10
159.9499145077
 20
106.8362066212
 40
2.0
 50
90.0
 51
180.0
  0
ARC
  8
0
 62
7
  6
CONTINUOUS
 10
134.5499145077
 20
106.8362066212
 40
2.0
 50
90.0
 51
180.0
  0
ARC
  8
0
 62
7
  6
CONTINUOUS
 10
148.9499145077
 20
106.8362066212
 40
2.0
 50
0.0
 51
90.0
  0
ARC
  8
0
 62
7
  6
CONTINUOUS
 10
123.5499145077
 20
106.8362066212
 40
2.0
 50
0.0
 51
90.0
  0
ARC
  8
0
 62
7
  6
CONTINUOUS
 10
109.1499145077
 20
106.8362066212
 40
2.0
 50
90.0
 51
180.0
  0
ARC
  8
0
 62
7
  6
CONTINUOUS
 10
53.4180602582
 20
116.6262066212
 40
4.0
 50
270.0
 51
315.0
  0
ARC
  8
0
 62
7
  6
CONTINUOUS
 10
46.3317687572
 20
116.6262066212
 40
4.0
 50
225.0
 51
270.0
  0
ARC
  8
0
 62
7
  6
CONTINUOUS
 10
27.8999145077
 20
118.1584523096
 40
4.0
 50
291.6592507071
 51
360.0
  0
ARC
  8
0
 62
7
  6
CONTINUOUS
 10
42.8999145077
 20
120.0580608707
 40
4.0
 50
180.0
 51
225.0
  0
ARC
  8
0
 62
7
  6
CONTINUOUS
 10
56.8499145077
 20
120.0580608707
 40
4.0
 50
315.0
 51
360.0
  0
ARC
  8
0
 62
7
  6
CONTINUOUS
 10
74.1067687572
 20
117.0762066212
 40
4.0
 50
225.0
 51
270.0
  0
ARC
  8
0
 62
7
  6
CONTINUOUS
 10
81.1930602582
 20
117.0762066212
 40
4.0
 50
270.0
 51
315.0
  0
ARC
  8
0
 62
7
  6
CONTINUOUS
 10
96.4499145077
 20
116.261546655
 40
2.0
 50
194.3396488341
 51
270.0
  0
ARC
  8
0
 62
7
  6
CONTINUOUS
 10
83.4499145077
 20
119.3330608707
 40
4.0
 50
315.0
 51
360.0
  0
ARC
  8
0
 62
7
  6
CONTINUOUS
 10
71.8499145077
 20
119.3330608707
 40
4.0
 50
180.0
 51
225.0
  0
ARC
  8
0
 62
7
  6
CONTINUOUS
 10
39.8999145077
 20
129.9542159411
 40
1.0
 50
158.61
 51
180.0
  0
ARC
  8
0
 62
7
  6
CONTINUOUS
 10
59.8499145077
 20
129.9542159411
 40
1.0
 50
0.0
 51
21.3899999999
  0
ARC
  8
0
 62
7
  6
CONTINUOUS
 10
30.8999145077
 20
129.9542159411
 40
1.0
 50
0.0
 51
21.39
  0
ARC
  8
0
 62
7
  6
CONTINUOUS
 10
41.2999145077
 20
137.0928650955
 40
0.3
 50
338.61
 51
360.0
  0
ARC
  8
0
 62
7
  6
CONTINUOUS
 10
58.4499145077
 20
137.0928650955
 40
0.3
 50
180.0
 51
201.39
  0
ARC
  8
0
 62
7
  6
CONTINUOUS
 10
29.4999145077
 20
137.0928650955
 40
0.3
 50
180.0
 51
201.39
  0
ARC
  8
0
 62
7
  6
CONTINUOUS
 10
68.8499145077
 20
129.9542159411
 40
1.0
 50
158.61
 51
180.0
  0
ARC
  8
0
 62
7
  6
CONTINUOUS
 10
95.4499145077
 20
129.9542159411
 40
1.0
 50
158.61
 51
180.0
  0
ARC
  8
0
 62
7
  6
CONTINUOUS
 10
86.4499145077
 20
129.9542159411
 40
1.0
 50
0.0
 51
21.39
  0
ARC
  8
0
 62
7
  6
CONTINUOUS
 10
70.2499145077
 20
137.0928650955
 40
0.3
 50
338.61
 51
360.0
  0
ARC
  8
0
 62
7
  6
CONTINUOUS
 10
85.0499145077
 20
137.0928650955
 40
0.3
 50
180.0
 51
201.39
  0
ARC
  8
0
 62
7
  6
CONTINUOUS
 10
96.8499145077
 20
137.0928650955
 40
0.3
 50
338.61
 51
360.0
  0
ARC
  8
0
 62
7
  6
CONTINUOUS
 10
136.2499145077
 20
116.261546655
 40
2.0
 50
270.0
 51
345.6603512635
  0
ARC
  8
0
 62
7
  6
CONTINUOUS
 10
147.2499145077
 20
116.261546655
 40
2.0
 50
194.3396487365
 51
270.0
  0
ARC
  8
0
 62
7
  6
CONTINUOUS
 10
121.8499145077
 20
116.261546655
 40
2.0
 50
194.3396488341
 51
270.0
  0
ARC
  8
0
 62
7
  6
CONTINUOUS
 10
110.8499145077
 20
116.261546655
 40
2.0
 50
270.0
 51
345.6603511659
  0
ARC
  8
0
 62
7
  6
CONTINUOUS
 10
172.6499145077
 20
116.261546655
 40
2.0
 50
180.0
 51
270.0
  0
ARC
  8
0
 62
7
  6
CONTINUOUS
 10
161.6499145077
 20
116.261546655
 40
2.0
 50
270.0
 51
360.0
  0
ARC
  8
0
 62
7
  6
CONTINUOUS
 10
137.2499145077
 20
129.9542159411
 40
1.0
 50
0.0
 51
21.39
  0
ARC
  8
0
 62
7
  6
CONTINUOUS
 10
111.8499145077
 20
129.9542159411
 40
1.0
 50
0.0
 51
21.39
  0
ARC
  8
0
 62
7
  6
CONTINUOUS
 10
120.8499145077
 20
129.9542159411
 40
1.0
 50
158.61
 51
180.0
  0
ARC
  8
0
 62
7
  6
CONTINUOUS
 10
135.8499145077
 20
137.0928650955
 40
0.3
 50
180.0
 51
201.39
  0
ARC
  8
0
 62
7
  6
CONTINUOUS
 10
110.4499145077
 20
137.0928650955
 40
0.3
 50
180.0
 51
201.39
  0
ARC
  8
0
 62
7
  6
CONTINUOUS
 10
122.2499145077
 20
137.0928650955
 40
0.3
 50
338.61
 51
360.0
  0
ARC
  8
0
 62
7
  6
CONTINUOUS
 10
171.6499145077
 20
129.9542159411
 40
1.0
 50
158.61
 51
180.0
  0
ARC
  8
0
 62
7
  6
CONTINUOUS
 10
162.6499145077
 20
129.9542159411
 40
1.0
 50
0.0
 51
21.39
  0
ARC
  8
0
 62
7
  6
CONTINUOUS
 10
146.2499145077
 20
129.9542159411
 40
1.0
 50
158.61
 51
180.0
  0
ARC
  8
0
 62
7
  6
CONTINUOUS
 10
161.2499145077
 20
137.0928650955
 40
0.3
 50
180.0
 51
201.39
  0
ARC
  8
0
 62
7
  6
CONTINUOUS
 10
173.0499145077
 20
137.0928650955
 40
0.3
 50
338.61
 51
360.0
  0
ARC
  8
0
 62
7
  6
CONTINUOUS
 10
147.6499145077
 20
137.0928650955
 40
0.3
 50
338.61
 51
360.0
  0
ARC
  8
0
 62
7
  6
CONTINUOUS
 10
208.7499145077
 20
82.3862066212
 40
2.7
 50
270.0
 51
360.0
  0
ARC
  8
0
 62
7
  6
CONTINUOUS
 10
201.7499145077
 20
82.3862066212
 40
2.7
 50
180.0
 51
270.0
  0
ARC
  8
0
 62
7
  6
CONTINUOUS
 10
199.3499145077
 20
86.179551881
 40
0.3
 50
158.6113771722
 51
180.0
  0
ARC
  8
0
 62
7
  6
CONTINUOUS
 10
185.7499145077
 20
86.179551881
 40
0.3
 50
0.0
 51
21.3886228278
  0
ARC
  8
0
 62
7
  6
CONTINUOUS
 10
211.1499145077
 20
86.179551881
 40
0.3
 50
0.0
 51
21.3886228278
  0
ARC
  8
0
 62
7
  6
CONTINUOUS
 10
209.7499145077
 20
93.3186727767
 40
1.0
 50
180.0
 51
201.3886228278
  0
ARC
  8
0
 62
7
  6
CONTINUOUS
 10
200.7499145077
 20
93.3186727767
 40
1.0
 50
338.6113771722
 51
360.0
  0
ARC
  8
0
 62
7
  6
CONTINUOUS
 10
227.1499145077
 20
81.8862066212
 40
2.7
 50
180.0
 51
270.0
  0
ARC
  8
0
 62
7
  6
CONTINUOUS
 10
252.5499145077
 20
81.5862066212
 40
2.7
 50
180.0
 51
270.0
  0
ARC
  8
0
 62
7
  6
CONTINUOUS
 10
234.1499145077
 20
81.8862066212
 40
2.7
 50
270.0
 51
360.0
  0
ARC
  8
0
 62
7
  6
CONTINUOUS
 10
259.5499145077
 20
81.5862066212
 40
2.7
 50
270.0
 51
360.0
  0
ARC
  8
0
 62
7
  6
CONTINUOUS
 10
224.7499145077
 20
86.179551881
 40
0.3
 50
158.6113771722
 51
180.0
  0
ARC
  8
0
 62
7
  6
CONTINUOUS
 10
250.1499145077
 20
86.179551881
 40
0.3
 50
158.6113771722
 51
180.0
  0
ARC
  8
0
 62
7
  6
CONTINUOUS
 10
236.5499145077
 20
86.179551881
 40
0.3
 50
0.0
 51
21.3886228278
  0
ARC
  8
0
 62
7
  6
CONTINUOUS
 10
261.9499145077
 20
86.179551881
 40
0.3
 50
0.0
 51
21.3886228278
  0
ARC
  8
0
 62
7
  6
CONTINUOUS
 10
226.1499145077
 20
93.3186727767
 40
1.0
 50
338.6113771722
 51
360.0
  0
ARC
  8
0
 62
7
  6
CONTINUOUS
 10
251.5499145077
 20
93.3186727767
 40
1.0
 50
338.6113771722
 51
360.0
  0
ARC
  8
0
 62
7
  6
CONTINUOUS
 10
235.1499145077
 20
93.3186727767
 40
1.0
 50
180.0
 51
201.3886228278
  0
ARC
  8
0
 62
7
  6
CONTINUOUS
 10
260.5499145077
 20
93.3186727767
 40
1.0
 50
180.0
 51
201.3886228278
  0
ARC
  8
0
 62
7
  6
CONTINUOUS
 10
225.1499145077
 20
106.8362066212
 40
2.0
 50
0.0
 51
90.0
  0
ARC
  8
0
 62
7
  6
CONTINUOUS
 10
210.7499145077
 20
106.8362066212
 40
2.0
 50
90.0
 51
180.0
  0
ARC
  8
0
 62
7
  6
CONTINUOUS
 10
199.7499145077
 20
106.8362066212
 40
2.0
 50
0.0
 51
90.0
  0
ARC
  8
0
 62
7
  6
CONTINUOUS
 10
250.5499145077
 20
106.8362066212
 40
2.0
 50
0.0
 51
90.0
  0
ARC
  8
0
 62
7
  6
CONTINUOUS
 10
236.1499145077
 20
106.8362066212
 40
2.0
 50
90.0
 51
180.0
  0
ARC
  8
0
 62
7
  6
CONTINUOUS
 10
261.5499145077
 20
106.8362066212
 40
2.0
 50
90.0
 51
180.0
  0
ARC
  8
0
 62
7
  6
CONTINUOUS
 10
277.9499145077
 20
80.9362066212
 40
2.7
 50
180.0
 51
270.0
  0
ARC
  8
0
 62
7
  6
CONTINUOUS
 10
303.3499145077
 20
80.9362066212
 40
2.7
 50
180.0
 51
270.0
  0
ARC
  8
0
 62
7
  6
CONTINUOUS
 10
284.9499145077
 20
80.9362066212
 40
2.7
 50
270.0
 51
360.0
  0
ARC
  8
0
 62
7
  6
CONTINUOUS
 10
275.5499145077
 20
86.179551881
 40
0.3
 50
158.6113771722
 51
180.0
  0
ARC
  8
0
 62
7
  6
CONTINUOUS
 10
300.9499145077
 20
86.179551881
 40
0.3
 50
158.6113771722
 51
180.0
  0
ARC
  8
0
 62
7
  6
CONTINUOUS
 10
287.3499145077
 20
86.179551881
 40
0.3
 50
0.0
 51
21.3886228278
  0
ARC
  8
0
 62
7
  6
CONTINUOUS
 10
276.9499145077
 20
93.3186727767
 40
1.0
 50
338.6113771722
 51
360.0
  0
ARC
  8
0
 62
7
  6
CONTINUOUS
 10
302.3499145077
 20
93.3186727767
 40
1.0
 50
338.6113771722
 51
360.0
  0
ARC
  8
0
 62
7
  6
CONTINUOUS
 10
285.9499145077
 20
93.3186727767
 40
1.0
 50
180.0
 51
201.3886228278
  0
ARC
  8
0
 62
7
  6
CONTINUOUS
 10
310.3499145077
 20
80.9362066212
 40
2.7
 50
270.0
 51
360.0
  0
ARC
  8
0
 62
7
  6
CONTINUOUS
 10
335.7499145077
 20
80.9362066212
 40
2.7
 50
270.0
 51
360.0
  0
ARC
  8
0
 62
7
  6
CONTINUOUS
 10
328.7499145077
 20
80.9362066212
 40
2.7
 50
180.0
 51
270.0
  0
ARC
  8
0
 62
7
  6
CONTINUOUS
 10
326.3499145077
 20
86.179551881
 40
0.3
 50
158.6113771722
 51
180.0
  0
ARC
  8
0
 62
7
  6
CONTINUOUS
 10
312.7499145077
 20
86.179551881
 40
0.3
 50
0.0
 51
21.3886228278
  0
ARC
  8
0
 62
7
  6
CONTINUOUS
 10
338.1499145077
 20
86.179551881
 40
0.3
 50
0.0
 51
21.3886228278
  0
ARC
  8
0
 62
7
  6
CONTINUOUS
 10
327.7499145077
 20
93.3186727767
 40
1.0
 50
338.6113771722
 51
360.0
  0
ARC
  8
0
 62
7
  6
CONTINUOUS
 10
311.3499145077
 20
93.3186727767
 40
1.0
 50
180.0
 51
201.3886228278
  0
ARC
  8
0
 62
7
  6
CONTINUOUS
 10
336.7499145077
 20
93.3186727767
 40
1.0
 50
180.0
 51
201.3886228278
  0
ARC
  8
0
 62
7
  6
CONTINUOUS
 10
275.9499145077
 20
106.8362066212
 40
2.0
 50
0.0
 51
90.0
  0
ARC
  8
0
 62
7
  6
CONTINUOUS
 10
301.3499145077
 20
106.8362066212
 40
2.0
 50
0.0
 51
90.0
  0
ARC
  8
0
 62
7
  6
CONTINUOUS
 10
286.9499145077
 20
106.8362066212
 40
2.0
 50
90.0
 51
180.0
  0
ARC
  8
0
 62
7
  6
CONTINUOUS
 10
312.3499145077
 20
106.8362066212
 40
2.0
 50
90.0
 51
180.0
  0
ARC
  8
0
 62
7
  6
CONTINUOUS
 10
326.7499145077
 20
106.8362066212
 40
2.0
 50
0.0
 51
90.0
  0
ARC
  8
0
 62
7
  6
CONTINUOUS
 10
337.7499145077
 20
106.8362066212
 40
2.0
 50
90.0
 51
180.0
  0
ARC
  8
0
 62
7
  6
CONTINUOUS
 10
350.7499145077
 20
109.1362066212
 40
0.3
 50
270.0
 51
360.0
  0
ARC
  8
0
 62
7
  6
CONTINUOUS
 10
263.2499145077
 20
116.261546655
 40
2.0
 50
270.0
 51
360.0
  0
ARC
  8
0
 62
7
  6
CONTINUOUS
 10
237.8499145077
 20
116.261546655
 40
2.0
 50
270.0
 51
360.0
  0
ARC
  8
0
 62
7
  6
CONTINUOUS
 10
248.8499145077
 20
116.261546655
 40
2.0
 50
180.0
 51
270.0
  0
ARC
  8
0
 62
7
  6
CONTINUOUS
 10
223.4499145077
 20
116.261546655
 40
2.0
 50
180.0
 51
270.0
  0
ARC
  8
0
 62
7
  6
CONTINUOUS
 10
212.4499145077
 20
116.261546655
 40
2.0
 50
270.0
 51
360.0
  0
ARC
  8
0
 62
7
  6
CONTINUOUS
 10
187.0499145077
 20
116.261546655
 40
2.0
 50
270.0
 51
360.0
  0
ARC
  8
0
 62
7
  6
CONTINUOUS
 10
198.0499145077
 20
116.261546655
 40
2.0
 50
180.0
 51
270.0
  0
ARC
  8
0
 62
7
  6
CONTINUOUS
 10
213.4499145077
 20
129.9542159411
 40
1.0
 50
0.0
 51
21.39
  0
ARC
  8
0
 62
7
  6
CONTINUOUS
 10
222.4499145077
 20
129.9542159411
 40
1.0
 50
158.61
 51
180.0
  0
ARC
  8
0
 62
7
  6
CONTINUOUS
 10
188.0499145077
 20
129.9542159411
 40
1.0
 50
0.0
 51
21.39
  0
ARC
  8
0
 62
7
  6
CONTINUOUS
 10
197.0499145077
 20
129.9542159411
 40
1.0
 50
158.61
 51
180.0
  0
ARC
  8
0
 62
7
  6
CONTINUOUS
 10
214.4499145077
 20
140.8862066212
 40
2.7
 50
90.0
 51
180.0
  0
ARC
  8
0
 62
7
  6
CONTINUOUS
 10
221.4499145077
 20
140.8862066212
 40
2.7
 50
0.0
 51
90.0
  0
ARC
  8
0
 62
7
  6
CONTINUOUS
 10
189.0499145077
 20
140.4862066212
 40
2.7
 50
90.0
 51
180.0
  0
ARC
  8
0
 62
7
  6
CONTINUOUS
 10
196.0499145077
 20
140.4862066212
 40
2.7
 50
0.0
 51
90.0
  0
ARC
  8
0
 62
7
  6
CONTINUOUS
 10
198.4499145077
 20
137.0928650955
 40
0.3
 50
338.61
 51
360.0
  0
ARC
  8
0
 62
7
  6
CONTINUOUS
 10
186.6499145077
 20
137.0928650955
 40
0.3
 50
180.0
 51
201.39
  0
ARC
  8
0
 62
7
  6
CONTINUOUS
 10
223.8499145077
 20
137.0928650955
 40
0.3
 50
338.61
 51
360.0
  0
ARC
  8
0
 62
7
  6
CONTINUOUS
 10
212.0499145077
 20
137.0928650955
 40
0.3
 50
180.0
 51
201.39
  0
ARC
  8
0
 62
7
  6
CONTINUOUS
 10
247.8499145077
 20
129.9542159411
 40
1.0
 50
158.61
 51
180.0
  0
ARC
  8
0
 62
7
  6
CONTINUOUS
 10
238.8499145077
 20
129.9542159411
 40
1.0
 50
0.0
 51
21.39
  0
ARC
  8
0
 62
7
  6
CONTINUOUS
 10
264.2499145077
 20
129.9542159411
 40
1.0
 50
0.0
 51
21.39
  0
ARC
  8
0
 62
7
  6
CONTINUOUS
 10
239.8499145077
 20
141.3862066212
 40
2.7
 50
90.0
 51
180.0
  0
ARC
  8
0
 62
7
  6
CONTINUOUS
 10
246.8499145077
 20
141.3862066212
 40
2.7
 50
0.0
 51
90.0
  0
ARC
  8
0
 62
7
  6
CONTINUOUS
 10
265.2499145077
 20
141.6862066212
 40
2.7
 50
90.0
 51
180.0
  0
ARC
  8
0
 62
7
  6
CONTINUOUS
 10
249.2499145077
 20
137.0928650955
 40
0.3
 50
338.61
 51
360.0
  0
ARC
  8
0
 62
7
  6
CONTINUOUS
 10
237.4499145077
 20
137.0928650955
 40
0.3
 50
180.0
 51
201.39
  0
ARC
  8
0
 62
7
  6
CONTINUOUS
 10
262.8499145077
 20
137.0928650955
 40
0.3
 50
180.0
 51
201.39
  0
ARC
  8
0
 62
7
  6
CONTINUOUS
 10
274.2499145077
 20
116.261546655
 40
2.0
 50
180.0
 51
270.0
  0
ARC
  8
0
 62
7
  6
CONTINUOUS
 10
288.6499145077
 20
116.261546655
 40
2.0
 50
270.0
 51
360.0
  0
ARC
  8
0
 62
7
  6
CONTINUOUS
 10
299.6499145077
 20
116.261546655
 40
2.0
 50
180.0
 51
270.0
  0
ARC
  8
0
 62
7
  6
CONTINUOUS
 10
314.0499145077
 20
116.261546655
 40
2.0
 50
270.0
 51
360.0
  0
ARC
  8
0
 62
7
  6
CONTINUOUS
 10
325.0499145077
 20
116.261546655
 40
2.0
 50
180.0
 51
270.0
  0
ARC
  8
0
 62
7
  6
CONTINUOUS
 10
339.4499145077
 20
116.261546655
 40
2.0
 50
270.0
 51
360.0
  0
ARC
  8
0
 62
7
  6
CONTINUOUS
 10
350.7499145077
 20
113.961546655
 40
0.3
 50
0.0
 51
90.0
  0
ARC
  8
0
 62
7
  6
CONTINUOUS
 10
348.7499145077
 20
114.561546655
 40
0.3
 50
180.0000000001
 51
270.0
  0
ARC
  8
0
 62
7
  6
CONTINUOUS
 10
273.2499145077
 20
129.9542159411
 40
1.0
 50
158.61
 51
180.0
  0
ARC
  8
0
 62
7
  6
CONTINUOUS
 10
289.6499145077
 20
129.9542159411
 40
1.0
 50
0.0
 51
21.39
  0
ARC
  8
0
 62
7
  6
CONTINUOUS
 10
298.6499145077
 20
129.9542159411
 40
1.0
 50
158.61
 51
180.0
  0
ARC
  8
0
 62
7
  6
CONTINUOUS
 10
272.2499145077
 20
141.6862066212
 40
2.7
 50
0.0
 51
90.0
  0
ARC
  8
0
 62
7
  6
CONTINUOUS
 10
290.6499145077
 20
141.7862066212
 40
2.7
 50
90.0
 51
180.0
  0
ARC
  8
0
 62
7
  6
CONTINUOUS
 10
297.6499145077
 20
141.7862066212
 40
2.7
 50
0.0
 51
90.0
  0
ARC
  8
0
 62
7
  6
CONTINUOUS
 10
274.6499145077
 20
137.0928650955
 40
0.3
 50
338.61
 51
360.0
  0
ARC
  8
0
 62
7
  6
CONTINUOUS
 10
288.2499145077
 20
137.0928650955
 40
0.3
 50
180.0
 51
201.39
  0
ARC
  8
0
 62
7
  6
CONTINUOUS
 10
300.0499145077
 20
137.0928650955
 40
0.3
 50
338.61
 51
360.0
  0
ARC
  8
0
 62
7
  6
CONTINUOUS
 10
315.0499145077
 20
129.9542159411
 40
1.0
 50
0.0
 51
21.39
  0
ARC
  8
0
 62
7
  6
CONTINUOUS
 10
324.0499145077
 20
129.9542159411
 40
1.0
 50
158.61
 51
180.0
  0
ARC
  8
0
 62
7
  6
CONTINUOUS
 10
340.4499145077
 20
129.9542159411
 40
1.0
 50
0.0
 51
21.39
  0
ARC
  8
0
 62
7
  6
CONTINUOUS
 10
349.4499145077
 20
129.9542159411
 40
1.0
 50
158.61
 51
180.0
  0
ARC
  8
0
 62
7
  6
CONTINUOUS
 10
323.0499145077
 20
142.3362066212
 40
2.7
 50
0.0
 51
90.0
  0
ARC
  8
0
 62
7
  6
CONTINUOUS
 10
316.0499145077
 20
142.3362066212
 40
2.7
 50
90.0
 51
180.0
  0
ARC
  8
0
 62
7
  6
CONTINUOUS
 10
348.4499145077
 20
142.3362066212
 40
2.7
 50
0.0
 51
90.0
  0
ARC
  8
0
 62
7
  6
CONTINUOUS
 10
341.4499145077
 20
142.3362066212
 40
2.7
 50
90.0
 51
180.0
  0
ARC
  8
0
 62
7
  6
CONTINUOUS
 10
313.6499145077
 20
137.0928650955
 40
0.3
 50
180.0
 51
201.39
  0
ARC
  8
0
 62
7
  6
CONTINUOUS
 10
325.4499145077
 20
137.0928650955
 40
0.3
 50
338.61
 51
360.0
  0
ARC
  8
0
 62
7
  6
CONTINUOUS
 10
339.0499145077
 20
137.0928650955
 40
0.3
 50
180.0
 51
201.39
  0
ARC
  8
0
 62
7
  6
CONTINUOUS
 10
350.8499145077
 20
137.0928650955
 40
0.3
 50
338.61
 51
360.0
  0
ARC
  8
0
 62
7
  6
CONTINUOUS
 10
26.2999145077
 20
206.0948603209
 40
0.3
 50
270.0
 51
360.0
  0
ARC
  8
0
 62
7
  6
CONTINUOUS
 10
17.1999145077
 20
206.0948603209
 40
0.3
 50
180.0
 51
270.0
  0
ARC
  8
0
 62
7
  6
CONTINUOUS
 10
81.7499145077
 20
208.4948603209
 40
2.7
 50
270.0
 51
311.631788963
  0
ARC
  8
0
 62
7
  6
CONTINUOUS
 10
74.7499145077
 20
208.4948603209
 40
2.7
 50
228.368211037
 51
270.0
  0
ARC
  8
0
 62
7
  6
CONTINUOUS
 10
53.9499145077
 20
208.4948603209
 40
2.7
 50
270.0
 51
311.631788963
  0
ARC
  8
0
 62
7
  6
CONTINUOUS
 10
46.9499145077
 20
208.4948603209
 40
2.7
 50
228.368211037
 51
270.0
  0
ARC
  8
0
 62
7
  6
CONTINUOUS
 10
100.1499145077
 20
208.4948603209
 40
2.7
 50
235.4992233667
 51
270.0
  0
ARC
  8
0
 62
7
  6
CONTINUOUS
 10
176.3499145077
 20
208.4948603209
 40
2.7
 50
217.3522122831
 51
270.0
  0
ARC
  8
0
 62
7
  6
CONTINUOUS
 10
157.9499145077
 20
208.4948603209
 40
2.7
 50
270.0
 51
315.5059886601
  0
ARC
  8
0
 62
7
  6
CONTINUOUS
 10
183.3499145077
 20
208.4948603209
 40
2.7
 50
270.0
 51
322.6477877169
  0
ARC
  8
0
 62
7
  6
CONTINUOUS
 10
132.5499145077
 20
208.4948603209
 40
2.7
 50
270.0
 51
309.1776145195
  0
ARC
  8
0
 62
7
  6
CONTINUOUS
 10
150.9499145077
 20
208.4948603209
 40
2.7
 50
224.4940113399
 51
270.0
  0
ARC
  8
0
 62
7
  6
CONTINUOUS
 10
107.1499145077
 20
208.4948603209
 40
2.7
 50
270.0
 51
304.5029526035
  0
ARC
  8
0
 62
7
  6
CONTINUOUS
 10
125.5499145077
 20
208.4948603209
 40
2.7
 50
230.8223854805
 51
270.0
  0
ARC
  8
0
 62
7
  6
CONTINUOUS
 10
157.9499145077
 20
218.0948603209
 40
2.7
 50
44.4940113399
 51
90.0
  0
ARC
  8
0
 62
7
  6
CONTINUOUS
 10
183.3499145077
 20
218.0948603209
 40
2.7
 50
37.3522122831
 51
90.0
  0
ARC
  8
0
 62
7
  6
CONTINUOUS
 10
176.3499145077
 20
218.0948603209
 40
2.7
 50
90.0
 51
142.6477877169
  0
ARC
  8
0
 62
7
  6
CONTINUOUS
 10
132.5499145077
 20
218.0948603209
 40
2.7
 50
50.8223854805
 51
90.0
  0
ARC
  8
0
 62
7
  6
CONTINUOUS
 10
150.9499145077
 20
218.0948603209
 40
2.7
 50
90.0
 51
135.5059886601
  0
ARC
  8
0
 62
7
  6
CONTINUOUS
 10
81.7499145077
 20
218.0948603209
 40
2.7
 50
48.368211037
 51
90.0
  0
ARC
  8
0
 62
7
  6
CONTINUOUS
 10
74.7499145077
 20
218.0948603209
 40
2.7
 50
90.0
 51
131.631788963
  0
ARC
  8
0
 62
7
  6
CONTINUOUS
 10
53.9499145077
 20
218.0948603209
 40
2.7
 50
48.368211037
 51
90.0
  0
ARC
  8
0
 62
7
  6
CONTINUOUS
 10
46.9499145077
 20
218.0948603209
 40
2.7
 50
90.0
 51
131.631788963
  0
ARC
  8
0
 62
7
  6
CONTINUOUS
 10
100.1499145077
 20
218.0948603209
 40
2.7
 50
90.0
 51
124.5007766333
  0
ARC
  8
0
 62
7
  6
CONTINUOUS
 10
107.1499145077
 20
218.0948603209
 40
2.7
 50
55.4970473965
 51
90.0
  0
ARC
  8
0
 62
7
  6
CONTINUOUS
 10
125.5499145077
 20
218.0948603209
 40
2.7
 50
90.0
 51
129.1776145195
  0
ARC
  8
0
 62
7
  6
CONTINUOUS
 10
26.2999145077
 20
220.4948603209
 40
0.3
 50
0.0
 51
90.0
  0
ARC
  8
0
 62
7
  6
CONTINUOUS
 10
17.1999145077
 20
220.4948603209
 40
0.3
 50
90.0
 51
180.0
  0
ARC
  8
0
 62
7
  6
CONTINUOUS
 10
201.7499145077
 20
208.4948603209
 40
2.7
 50
210.6610991337
 51
270.0
  0
ARC
  8
0
 62
7
  6
CONTINUOUS
 10
227.1499145077
 20
208.4948603209
 40
2.7
 50
199.6446201865
 51
270.0
  0
ARC
  8
0
 62
7
  6
CONTINUOUS
 10
252.5499145077
 20
208.4948603209
 40
2.7
 50
187.7972888843
 51
270.0
  0
ARC
  8
0
 62
7
  6
CONTINUOUS
 10
234.1499145077
 20
208.4948603209
 40
2.7
 50
270.0
 51
340.3553798135
  0
ARC
  8
0
 62
7
  6
CONTINUOUS
 10
208.7499145077
 20
208.4948603209
 40
2.7
 50
270.0
 51
329.3389008663
  0
ARC
  8
0
 62
7
  6
CONTINUOUS
 10
277.9499145077
 20
208.4948603209
 40
2.7
 50
180.0
 51
270.0
  0
ARC
  8
0
 62
7
  6
CONTINUOUS
 10
259.5499145077
 20
208.4948603209
 40
2.7
 50
270.0
 51
352.2027111156
  0
ARC
  8
0
 62
7
  6
CONTINUOUS
 10
310.3499145077
 20
208.4948603209
 40
2.7
 50
270.0
 51
360.0
  0
ARC
  8
0
 62
7
  6
CONTINUOUS
 10
303.3499145077
 20
208.4948603209
 40
2.7
 50
180.0
 51
270.0
  0
ARC
  8
0
 62
7
  6
CONTINUOUS
 10
284.9499145077
 20
208.4948603209
 40
2.7
 50
270.0
 51
360.0
  0
ARC
  8
0
 62
7
  6
CONTINUOUS
 10
348.4499145077
 20
208.4948603209
 40
2.7
 50
344.3659011504
 51
360.0
  0
ARC
  8
0
 62
7
  6
CONTINUOUS
 10
335.7499145077
 20
208.4948603209
 40
2.7
 50
270.0
 51
360.0
  0
ARC
  8
0
 62
7
  6
CONTINUOUS
 10
328.7499145077
 20
208.4948603209
 40
2.7
 50
180.0
 51
270.0
  0
ARC
  8
0
 62
7
  6
CONTINUOUS
 10
350.7499145077
 20
206.0948603209
 40
0.3
 50
270.0
 51
360.0
  0
ARC
  8
0
 62
7
  6
CONTINUOUS
 10
201.7499145077
 20
218.0948603209
 40
2.7
 50
90.0
 51
149.3389008663
  0
ARC
  8
0
 62
7
  6
CONTINUOUS
 10
227.1499145077
 20
218.0948603209
 40
2.7
 50
90.0
 51
160.3553798135
  0
ARC
  8
0
 62
7
  6
CONTINUOUS
 10
208.7499145077
 20
218.0948603209
 40
2.7
 50
30.6610991337
 51
90.0
  0
ARC
  8
0
 62
7
  6
CONTINUOUS
 10
252.5499145077
 20
218.0948603209
 40
2.7
 50
90.0
 51
172.2027111156
  0
ARC
  8
0
 62
7
  6
CONTINUOUS
 10
234.1499145077
 20
218.0948603209
 40
2.7
 50
19.6446201865
 51
90.0
  0
ARC
  8
0
 62
7
  6
CONTINUOUS
 10
277.9499145077
 20
218.0948603209
 40
2.7
 50
90.0
 51
180.0
  0
ARC
  8
0
 62
7
  6
CONTINUOUS
 10
259.5499145077
 20
218.0948603209
 40
2.7
 50
7.7972888843
 51
90.0
  0
ARC
  8
0
 62
7
  6
CONTINUOUS
 10
310.3499145077
 20
218.0948603209
 40
2.7
 50
0.0
 51
90.0
  0
ARC
  8
0
 62
7
  6
CONTINUOUS
 10
303.3499145077
 20
218.0948603209
 40
2.7
 50
90.0
 51
180.0
  0
ARC
  8
0
 62
7
  6
CONTINUOUS
 10
284.9499145077
 20
218.0948603209
 40
2.7
 50
0.0
 51
90.0
  0
ARC
  8
0
 62
7
  6
CONTINUOUS
 10
335.7499145077
 20
218.0948603209
 40
2.7
 50
0.0
 51
90.0
  0
ARC
  8
0
 62
7
  6
CONTINUOUS
 10
328.7499145077
 20
218.0948603209
 40
2.7
 50
90.0
 51
180.0
  0
ARC
  8
0
 62
7
  6
CONTINUOUS
 10
348.4499145077
 20
218.0948603209
 40
2.7
 50
0.0
 51
15.6341013656
  0
ARC
  8
0
 62
7
  6
CONTINUOUS
 10
350.7499145077
 20
220.4948603209
 40
0.3
 50
0.0
 51
90.0
  0
ARC
  8
0
 62
7
  6
CONTINUOUS
 10
379.7092105263
 20
87.0362066212
 40
7.35
 50
253.3437507869
 51
270.0
  0
ARC
  8
0
 62
7
  6
CONTINUOUS
 10
379.7092105263
 20
86.5362066212
 40
7.35
 50
235.1221184929
 51
270.0
  0
ARC
  8
0
 62
7
  6
CONTINUOUS
 10
379.7092105263
 20
86.2362066212
 40
7.35
 50
180.0
 51
187.8618326924
  0
ARC
  8
0
 62
7
  6
CONTINUOUS
 10
379.7092105263
 20
86.2362066212
 40
7.35
 50
220.3799867893
 51
270.0
  0
ARC
  8
0
 62
7
  6
CONTINUOUS
 10
379.7092105263
 20
85.5862066212
 40
7.35
 50
180.0
 51
270.0
  0
ARC
  8
0
 62
7
  6
CONTINUOUS
 10
379.7092105263
 20
135.8362066212
 40
7.35
 50
90.0
 51
180.0
  0
ARC
  8
0
 62
7
  6
CONTINUOUS
 10
379.7092105263
 20
135.3362066212
 40
7.35
 50
90.0
 51
180.0
  0
ARC
  8
0
 62
7
  6
CONTINUOUS
 10
379.7092105263
 20
136.2362066212
 40
7.35
 50
90.0
 51
180.0
  0
ARC
  8
0
 62
7
  6
CONTINUOUS
 10
379.7092105263
 20
136.7362066212
 40
7.35
 50
90.0
 51
180.0
  0
ARC
  8
0
 62
7
  6
CONTINUOUS
 10
379.7092105263
 20
137.0362066212
 40
7.35
 50
90.0
 51
180.0
  0
ARC
  8
0
 62
7
  6
CONTINUOUS
 10
379.7092105263
 20
137.1362066212
 40
7.35
 50
90.0
 51
180.0
  0
ARC
  8
0
 62
7
  6
CONTINUOUS
 10
379.7092105263
 20
137.6862066212
 40
7.35
 50
90.0
 51
180.0
  0
ARC
  8
0
 62
7
  6
CONTINUOUS
 10
379.7092105263
 20
135.0362066212
 40
7.35
 50
90.0
 51
180.0
  0
CIRCLE
  8
0
 62
7
  6
CONTINUOUS
 10
379.8592105263
 20
86.2734616212
 40
4.5
  0
CIRCLE
  8
0
 62
7
  6
CONTINUOUS
 10
379.8592105263
 20
86.2734616212
 40
3.137255
  0
ARC
  8
0
 62
7
  6
CONTINUOUS
 10
380.0092105263
 20
86.2362066212
 40
7.35
 50
270.0
 51
319.6272670932
  0
ARC
  8
0
 62
7
  6
CONTINUOUS
 10
380.0092105263
 20
86.2362066212
 40
7.35
 50
352.1318373491
 51
360.0
  0
ARC
  8
0
 62
7
  6
CONTINUOUS
 10
380.0092105263
 20
85.5862066212
 40
7.35
 50
270.0
 51
360.0
  0
ARC
  8
0
 62
7
  6
CONTINUOUS
 10
380.0092105263
 20
87.0362066212
 40
7.35
 50
270.0
 51
286.6564896682
  0
ARC
  8
0
 62
7
  6
CONTINUOUS
 10
380.0092105263
 20
86.5362066212
 40
7.35
 50
270.0
 51
304.8740411324
  0
ARC
  8
0
 62
7
  6
CONTINUOUS
 10
379.8592105263
 20
120.6862066212
 40
3.25
 50
180.0
 51
360.0
  0
ARC
  8
0
 62
7
  6
CONTINUOUS
 10
379.8592105263
 20
119.0162066212
 40
3.25
 50
197.4173413012
 51
342.5826753181
  0
ARC
  8
0
 62
7
  6
CONTINUOUS
 10
379.8592105263
 20
118.8662066212
 40
3.1
 50
180.0
 51
268.3402725948
  0
ARC
  8
0
 62
7
  6
CONTINUOUS
 10
379.8592105263
 20
118.8662066212
 40
3.1
 50
271.6597277585
 51
360.0
  0
ARC
  8
0
 62
7
  6
CONTINUOUS
 10
379.8592105263
 20
117.5362066212
 40
3.1
 50
180.0
 51
360.0
  0
ARC
  8
0
 62
7
  6
CONTINUOUS
 10
379.8592105263
 20
136.8862066212
 40
3.25
 50
0.0
 51
180.0
  0
ARC
  8
0
 62
7
  6
CONTINUOUS
 10
379.8592105263
 20
137.0362066212
 40
3.1
 50
94.183786955
 51
180.0
  0
ARC
  8
0
 62
7
  6
CONTINUOUS
 10
379.8592105263
 20
137.0362066212
 40
3.1
 50
0.0
 51
85.81607984
  0
ARC
  8
0
 62
7
  6
CONTINUOUS
 10
380.0092105263
 20
135.3362066212
 40
7.35
 50
0.0
 51
90.0
  0
ARC
  8
0
 62
7
  6
CONTINUOUS
 10
380.0092105263
 20
135.8362066212
 40
7.35
 50
0.0
 51
90.0
  0
ARC
  8
0
 62
7
  6
CONTINUOUS
 10
380.0092105263
 20
136.2362066212
 40
7.35
 50
0.0
 51
90.0
  0
ARC
  8
0
 62
7
  6
CONTINUOUS
 10
380.0092105263
 20
136.7362066212
 40
7.35
 50
0.0
 51
90.0
  0
ARC
  8
0
 62
7
  6
CONTINUOUS
 10
380.0092105263
 20
137.0362066212
 40
7.35
 50
0.0
 51
90.0
  0
ARC
  8
0
 62
7
  6
CONTINUOUS
 10
380.0092105263
 20
137.6862066212
 40
7.35
 50
0.0
 51
90.0
  0
ARC
  8
0
 62
7
  6
CONTINUOUS
 10
380.0092105263
 20
137.1362066212
 40
7.35
 50
0.0
 51
90.0
  0
ARC
  8
0
 62
7
  6
CONTINUOUS
 10
380.0092105263
 20
135.0362066212
 40
7.35
 50
0.0
 51
90.0
  0
ENDSEC
  0
EOF
