  0
SECTION
  2
HEADER
  9
$EXTMAX
 10
420.0
 20
297.0
 30
0.0
  9
$EXTMIN
 10
0.0
 20
0.0
 30
0.0
  9
$LIMMIN
 10
0.0
 20
0.0
  9
$LIMMAX
 10
420.0
 20
297.0
  9
$VIEWCTR
 10
210.0
 20
148.5
  9
$VIEWSIZE
 40
297.0
  9
$CLAYER
  8
0
  9
$LTSCALE
 40
23.1
  9
$CELTYPE
  6
BYLAYER
  9
$DIMSCALE
 40
1.0
  9
$DIMASZ
 40
3.5
  9
$DIMEXO
 40
2.625
  9
$DIMDLI
 40
15.96
  9
$DIMEXE
 40
7.56
  9
$DIMCEN
 40
3.78
  9
$DIMLFAC
 40
1.0
  9
$DIMBLK
  1
_FILLED
  9
$DIMTXT
 40
3.5
  9
$PDMODE
 70
3
  9
$PDSIZE
 40
0.3125
  9
$TILEMODE
 70
1
  0
ENDSEC
  0
SECTION
  2
TABLES
  0
TABLE
  2
LTYPE
 70
6
  0
LTYPE
  2
BYBLOCK
 70
0
  3

 72
65
 73
0
 40
0.0
  0
LTYPE
  2
BYLAYER
 70
0
  3

 72
65
 73
0
 40
0.0
  0
LTYPE
  2
CONTINUOUS
 70
64
  3
Solid line
 72
65
 73
0
 40
0.0
  0
LTYPE
  2
CENTER
 70
64
  3
____ _ ____ _ ____ _ ____ _ ____ _ ____ _ ____
 72
65
 73
4
 40
0.6
 49
0.375
 49
-0.075
 49
0.075
 49
-0.075
  0
LTYPE
  2
HIDDEN
 70
64
  3
- - - - - - - - - - - - - - - - - - - -
 72
65
 73
2
 40
0.2
 49
0.1
 49
-0.1
  0
LTYPE
  2
PHANTOM
 70
64
  3
_____ _ _ _____ _ _ _____ _ _ _____
 72
65
 73
6
 40
0.8
 49
0.45
 49
-0.05
 49
0.1
 49
-0.05
 49
0.1
 49
-0.05
  0
LTYPE
  2
DOT
 70
64
  3
. . . . . . . . . . . . . . . . . . . .
 72
65
 73
2
 40
0.2
 49
0.1
 49
-0.1
  0
LTYPE
  2
DASHED
 70
64
  3
- - - - - - - - - - - - - - - - - - - -
 72
65
 73
2
 40
0.2
 49
0.1
 49
-0.1
  0
ENDTAB
  0
TABLE
  2
LAYER
 70
36
  0
LAYER
  2
0
 70
0
 62
7
  6
CONTINUOUS
  0
LAYER
  2
DEFAULT_1
 70
0
 62
7
  6
CENTER
  0
LAYER
  2
DEFAULT_2
 70
0
 62
8
  6
HIDDEN
  0
LAYER
  2
DEFAULT_3
 70
0
 62
7
  6
PHANTOM
  0
LAYER
  2
AXES
 70
0
 62
7
  6
CONTINUOUS
  0
LAYER
  2
CSYS
 70
0
 62
7
  6
CONTINUOUS
  0
LAYER
  2
CURVE
 70
0
 62
7
  6
CONTINUOUS
  0
LAYER
  2
CURVES
 70
0
 62
7
  6
CONTINUOUS
  0
LAYER
  2
PLANES
 70
0
 62
7
  6
CONTINUOUS
  0
LAYER
  2
QUILT
 70
0
 62
7
  6
CONTINUOUS
  0
LAYER
  2
SURF-A
 70
0
 62
7
  6
CONTINUOUS
  0
LAYER
  2
SURFACE
 70
0
 62
7
  6
CONTINUOUS
  0
ENDTAB
  0
TABLE
  2
STYLE
 70
1
  0
STYLE
  2
STANDARD
 70
0
 40
0.0
 41
0.8
 50
0.0
 71
0
 42
0.2
  3
txt
  4

  0
STYLE
  2
TEXTSTYLE_1
 70
0
 40
0.0
 41
0.8
 50
0.0
 71
0
 42
0.2
  3
gdt
  4

  0
STYLE
  2
TEXTSTYLE_2
 70
0
 40
0.0
 41
0.6
 50
0.0
 71
0
 42
0.2
  3
txt
  4

  0
STYLE
  2
TEXTSTYLE_3
 70
0
 40
0.0
 41
1.0
 50
0.0
 71
0
 42
0.2
  3
ftb_____.ttf
  4

  0
STYLE
  2
TEXTSTYLE_4
 70
0
 40
0.0
 41
1.0
 50
0.0
 71
0
 42
0.2
  3
fti_____.ttf
  4

  0
STYLE
  2
TEXTSTYLE_5
 70
0
 40
0.0
 41
1.0
 50
0.0
 71
0
 42
0.2
  3
frutiger light.ttf
  4

  0
STYLE
  2
TEXTSTYLE_6
 70
0
 40
0.0
 41
0.7
 50
0.0
 71
0
 42
0.2
  3
txt
  4

  0
STYLE
  2
TEXTSTYLE_7
 70
0
 40
0.0
 41
0.6
 50
0.0
 71
0
 42
0.2
  3
txt
  4

  0
ENDTAB
  0
ENDSEC
  0
SECTION
  2
BLOCKS
  0
BLOCK
  8
0
 62
2
  6
CONTINUOUS
  2
SYMBOL_5_BL1
 70
64
 10
382.7840918555
 20
35.5067593403
  0
TEXT
  8
0
 62
7
  6
CONTINUOUS
 10
373.842376864
 20
30.5995157174
  7
TEXTSTYLE_4
 40
1.0655737705
  1
The brand for plastic modular belts and chains
 41
1.0
 72
0
  0
LINE
  8
0
 62
7
  6
CONTINUOUS
 10
358.7621602445
 20
36.0805298321
 11
358.7621602445
 21
33.9493822911
  0
LINE
  8
0
 62
7
  6
CONTINUOUS
 10
359.0512227376
 20
30.9584509954
 11
359.0512227376
 21
31.0552420547
  0
LINE
  8
0
 62
7
  6
CONTINUOUS
 10
358.7621602445
 20
31.0229783683
 11
358.8199727462
 21
30.8293962497
  0
LINE
  8
0
 62
7
  6
CONTINUOUS
 10
360.1556028675
 20
33.867415078
 11
360.1556028675
 21
36.0805298321
  0
LINE
  8
0
 62
7
  6
CONTINUOUS
 10
361.0746601894
 20
32.0231527829
 11
361.0746601894
 21
30.5067593403
  0
LINE
  8
0
 62
7
  6
CONTINUOUS
 10
361.3637227445
 20
30.5067593403
 11
361.3637227445
 21
31.2488242184
  0
LINE
  8
0
 62
7
  6
CONTINUOUS
 10
361.3637227445
 20
31.3778789641
 11
361.3637227445
 21
32.0231527829
  0
LINE
  8
0
 62
7
  6
CONTINUOUS
 10
358.8199727462
 20
31.216560532
 11
358.7621602445
 21
31.0229783683
  0
LINE
  8
0
 62
7
  6
CONTINUOUS
 10
359.1668477307
 20
30.7971325633
 11
359.0512227376
 21
30.9584509954
  0
LINE
  8
0
 62
7
  6
CONTINUOUS
 10
360.2652852997
 20
31.3133515913
 11
360.3230977445
 21
31.216560532
  0
LINE
  8
0
 62
7
  6
CONTINUOUS
 10
360.6121602997
 20
31.216560532
 11
360.5543476894
 21
31.3456152777
  0
LINE
  8
0
 62
7
  6
CONTINUOUS
 10
362.0408487691
 20
36.0805298321
 11
362.0408487691
 21
34.2772511436
  0
LINE
  8
0
 62
7
  6
CONTINUOUS
 10
362.0408487691
 20
32.9657757338
 11
362.0408487691
 21
32.3100380288
  0
LINE
  8
0
 62
7
  6
CONTINUOUS
 10
362.4043477445
 20
31.1520331591
 11
362.4043477445
 21
30.5067593403
  0
LINE
  8
0
 62
7
  6
CONTINUOUS
 10
362.6934101343
 20
30.5067593403
 11
362.6934101343
 21
31.1520331591
  0
LINE
  8
0
 62
7
  6
CONTINUOUS
 10
359.0512227376
 20
31.0552420547
 11
359.1090352445
 21
31.1842968456
  0
LINE
  8
0
 62
7
  6
CONTINUOUS
 10
358.8199727462
 20
30.8293962497
 11
358.9355977445
 21
30.7003414814
  0
LINE
  8
0
 62
7
  6
CONTINUOUS
 10
362.3465351343
 20
31.2810879048
 11
362.4043477445
 21
31.1520331591
  0
LINE
  8
0
 62
7
  6
CONTINUOUS
 10
363.1559103548
 20
30.7971325633
 11
363.2137226343
 21
30.668077795
  0
LINE
  8
0
 62
7
  6
CONTINUOUS
 10
362.6934101343
 20
31.1520331591
 11
362.6355978548
 21
31.3133515913
  0
LINE
  8
0
 62
7
  6
CONTINUOUS
 10
363.1559103548
 20
31.3456152777
 11
363.1559103548
 21
31.2810879048
  0
LINE
  8
0
 62
7
  6
CONTINUOUS
 10
363.1559103548
 20
30.8939236226
 11
363.1559103548
 21
30.7971325633
  0
LINE
  8
0
 62
7
  6
CONTINUOUS
 10
363.4342913921
 20
32.3100380288
 11
363.4342913921
 21
36.0805298321
  0
LINE
  8
0
 62
7
  6
CONTINUOUS
 10
363.4449727445
 20
30.7648688543
 11
363.4449727445
 21
30.8293962497
  0
LINE
  8
0
 62
7
  6
CONTINUOUS
 10
363.7621602445
 20
36.0805298321
 11
363.7621602445
 21
32.3100380288
  0
LINE
  8
0
 62
7
  6
CONTINUOUS
 10
360.5543476894
 20
30.7003414814
 11
360.6121602997
 21
30.8293962497
  0
LINE
  8
0
 62
7
  6
CONTINUOUS
 10
364.9480979651
 20
30.6035504109
 11
364.890285024
 21
30.7648688543
  0
LINE
  8
0
 62
7
  6
CONTINUOUS
 10
364.6012229651
 20
31.2810879048
 11
364.6012229651
 21
31.1842968456
  0
LINE
  8
0
 62
7
  6
CONTINUOUS
 10
364.6012229651
 20
31.0552420547
 11
364.6012229651
 21
30.8616599362
  0
LINE
  8
0
 62
7
  6
CONTINUOUS
 10
364.890285024
 20
30.7648688543
 11
364.890285024
 21
31.2810879048
  0
LINE
  8
0
 62
7
  6
CONTINUOUS
 10
365.1556028675
 20
32.3100380288
 11
365.1556028675
 21
34.1133167174
  0
LINE
  8
0
 62
7
  6
CONTINUOUS
 10
365.1556028675
 20
35.4247921272
 11
365.1556028675
 21
36.0805298321
  0
LINE
  8
0
 62
7
  6
CONTINUOUS
 10
365.4684104651
 20
32.0231527829
 11
365.4684104651
 21
31.8618343508
  0
LINE
  8
0
 62
7
  6
CONTINUOUS
 10
365.4684104651
 20
31.5391973962
 11
365.4684104651
 21
30.5067593403
  0
LINE
  8
0
 62
7
  6
CONTINUOUS
 10
365.757472524
 20
30.5067593403
 11
365.757472524
 21
31.5391973962
  0
LINE
  8
0
 62
7
  6
CONTINUOUS
 10
365.757472524
 20
31.8618343508
 11
365.757472524
 21
32.0231527829
  0
LINE
  8
0
 62
7
  6
CONTINUOUS
 10
360.3230977445
 20
30.8293962497
 11
360.2652852997
 21
30.7326051679
  0
LINE
  8
0
 62
7
  6
CONTINUOUS
 10
362.6355978548
 20
31.3133515913
 11
362.5777852445
 21
31.3778789641
  0
LINE
  8
0
 62
7
  6
CONTINUOUS
 10
363.5027853548
 20
30.7003414814
 11
363.4449727445
 21
30.7648688543
  0
LINE
  8
0
 62
7
  6
CONTINUOUS
 10
364.6590352445
 20
30.5712867188
 11
364.716847524
 21
30.5067593403
  0
LINE
  8
0
 62
7
  6
CONTINUOUS
 10
364.6012229651
 20
30.668077795
 11
364.6590352445
 21
30.5712867188
  0
LINE
  8
0
 62
7
  6
CONTINUOUS
 10
365.0059102445
 20
30.5067593403
 11
364.9480979651
 21
30.6035504109
  0
LINE
  8
0
 62
7
  6
CONTINUOUS
 10
364.890285024
 20
31.2810879048
 11
364.8324727445
 21
31.3778789641
  0
LINE
  8
0
 62
7
  6
CONTINUOUS
 10
366.2199727445
 20
31.5391973962
 11
366.2199727445
 21
30.5067593403
  0
LINE
  8
0
 62
7
  6
CONTINUOUS
 10
366.5090354651
 20
30.5067593403
 11
366.5090354651
 21
31.2488242184
  0
LINE
  8
0
 62
7
  6
CONTINUOUS
 10
366.5090354651
 20
31.3778789641
 11
366.5090354651
 21
31.5391973962
  0
LINE
  8
0
 62
7
  6
CONTINUOUS
 10
367.0408487691
 20
34.5231527829
 11
367.0408487691
 21
32.3100380288
  0
LINE
  8
0
 62
7
  6
CONTINUOUS
 10
358.9355977445
 20
31.3456152777
 11
358.8199727462
 21
31.216560532
  0
LINE
  8
0
 62
7
  6
CONTINUOUS
 10
359.1090352445
 20
31.1842968456
 11
359.1668477307
 21
31.2488242184
  0
LINE
  8
0
 62
7
  6
CONTINUOUS
 10
358.9355977445
 20
30.7003414814
 11
359.0512227376
 21
30.6358140973
  0
LINE
  8
0
 62
7
  6
CONTINUOUS
 10
359.3402852307
 20
30.7003414814
 11
359.1668477307
 21
30.7971325633
  0
LINE
  8
0
 62
7
  6
CONTINUOUS
 10
364.543410024
 20
31.3456152777
 11
364.6012229651
 21
31.2810879048
  0
LINE
  8
0
 62
7
  6
CONTINUOUS
 10
367.491847524
 20
31.2810879048
 11
367.5496604651
 21
31.1197694727
  0
LINE
  8
0
 62
7
  6
CONTINUOUS
 10
367.838722524
 20
31.1197694727
 11
367.7809102445
 21
31.2810879048
  0
LINE
  8
0
 62
7
  6
CONTINUOUS
 10
367.5496604651
 20
31.1197694727
 11
367.5496604651
 21
30.5067593403
  0
LINE
  8
0
 62
7
  6
CONTINUOUS
 10
367.838722524
 20
30.5067593403
 11
367.838722524
 21
31.1197694727
  0
LINE
  8
0
 62
7
  6
CONTINUOUS
 10
368.3012227445
 20
31.3456152777
 11
368.3012227445
 21
31.2810879048
  0
LINE
  8
0
 62
7
  6
CONTINUOUS
 10
368.4342913921
 20
32.3100380288
 11
368.4342913921
 21
34.4411855698
  0
LINE
  8
0
 62
7
  6
CONTINUOUS
 10
368.7621602445
 20
36.0805298321
 11
368.7621602445
 21
32.3100380288
  0
LINE
  8
0
 62
7
  6
CONTINUOUS
 10
363.4449727445
 20
30.8293962497
 11
363.5027853548
 21
30.926187309
  0
LINE
  8
0
 62
7
  6
CONTINUOUS
 10
359.0512227376
 20
30.6358140973
 11
359.2246602583
 21
30.5712867188
  0
LINE
  8
0
 62
7
  6
CONTINUOUS
 10
360.5543476894
 20
31.3456152777
 11
360.3809101894
 21
31.4424063369
  0
LINE
  8
0
 62
7
  6
CONTINUOUS
 10
363.2137226343
 20
30.668077795
 11
363.3871601343
 21
30.5712867188
  0
LINE
  8
0
 62
7
  6
CONTINUOUS
 10
362.2309102445
 20
31.3456152777
 11
362.3465351343
 21
31.2810879048
  0
LINE
  8
0
 62
7
  6
CONTINUOUS
 10
362.5777852445
 20
31.3778789641
 11
362.4621603548
 21
31.4424063369
  0
LINE
  8
0
 62
7
  6
CONTINUOUS
 10
368.3012227445
 20
30.7648688543
 11
368.4168479651
 21
30.6358140973
  0
LINE
  8
0
 62
7
  6
CONTINUOUS
 10
368.6480977445
 20
30.7003414814
 11
368.5902854651
 21
30.7648688543
  0
LINE
  8
0
 62
7
  6
CONTINUOUS
 10
368.3012227445
 20
31.2810879048
 11
368.4168479651
 21
31.1520331591
  0
LINE
  8
0
 62
7
  6
CONTINUOUS
 10
367.7809102445
 20
31.2810879048
 11
367.7230979651
 21
31.3778789641
  0
LINE
  8
0
 62
7
  6
CONTINUOUS
 10
370.1512223035
 20
30.7003414814
 11
370.1512223035
 21
30.7648688543
  0
LINE
  8
0
 62
7
  6
CONTINUOUS
 10
370.1556028675
 20
32.3100380288
 11
370.1556028675
 21
36.0805298321
  0
LINE
  8
0
 62
7
  6
CONTINUOUS
 10
363.2137226343
 20
31.4101426505
 11
363.1559103548
 21
31.3456152777
  0
LINE
  8
0
 62
7
  6
CONTINUOUS
 10
360.091847717
 20
31.3778789641
 11
360.2652852997
 21
31.3133515913
  0
LINE
  8
0
 62
7
  6
CONTINUOUS
 10
364.8324727445
 20
31.3778789641
 11
364.716847524
 21
31.4424063369
  0
LINE
  8
0
 62
7
  6
CONTINUOUS
 10
368.6480977445
 20
31.216560532
 11
368.5902854651
 21
31.2810879048
  0
LINE
  8
0
 62
7
  6
CONTINUOUS
 10
369.8043479651
 20
30.8293962497
 11
369.8621602445
 21
30.7648688543
  0
LINE
  8
0
 62
7
  6
CONTINUOUS
 10
370.1512223035
 20
30.7648688543
 11
370.0355977445
 21
30.8939236226
  0
LINE
  8
0
 62
7
  6
CONTINUOUS
 10
369.8043479651
 20
31.3456152777
 11
369.8621602445
 21
31.2810879048
  0
LINE
  8
0
 62
7
  6
CONTINUOUS
 10
370.1512223035
 20
31.2810879048
 11
370.0355977445
 21
31.4101426505
  0
LINE
  8
0
 62
7
  6
CONTINUOUS
 10
363.4449727445
 20
31.2810879048
 11
363.5027853548
 21
31.3456152777
  0
LINE
  8
0
 62
7
  6
CONTINUOUS
 10
363.2715352445
 20
31.0229783683
 11
363.1559103548
 21
30.8939236226
  0
LINE
  8
0
 62
7
  6
CONTINUOUS
 10
364.6012229651
 20
30.8616599362
 11
364.543410024
 21
30.7971325633
  0
LINE
  8
0
 62
7
  6
CONTINUOUS
 10
364.543410024
 20
30.6035504109
 11
364.6012229651
 21
30.668077795
  0
LINE
  8
0
 62
7
  6
CONTINUOUS
 10
363.3871601343
 20
30.5712867188
 11
363.5027853548
 21
30.5390230296
  0
LINE
  8
0
 62
7
  6
CONTINUOUS
 10
360.3809101894
 20
31.4424063369
 11
360.1496602445
 21
31.5069337098
  0
LINE
  8
0
 62
7
  6
CONTINUOUS
 10
363.7340351343
 20
30.6358140973
 11
363.5027853548
 21
30.7003414814
  0
LINE
  8
0
 62
7
  6
CONTINUOUS
 10
362.4621603548
 20
31.4424063369
 11
362.2887228548
 21
31.5069337098
  0
LINE
  8
0
 62
7
  6
CONTINUOUS
 10
364.716847524
 20
31.4424063369
 11
364.543410024
 21
31.5069337098
  0
LINE
  8
0
 62
7
  6
CONTINUOUS
 10
367.3762229651
 20
31.3456152777
 11
367.491847524
 21
31.2810879048
  0
LINE
  8
0
 62
7
  6
CONTINUOUS
 10
367.7230979651
 20
31.3778789641
 11
367.6074727445
 21
31.4424063369
  0
LINE
  8
0
 62
7
  6
CONTINUOUS
 10
359.2246602583
 20
30.5712867188
 11
359.3980977583
 21
30.5390230296
  0
LINE
  8
0
 62
7
  6
CONTINUOUS
 10
359.6871602721
 20
30.6358140973
 11
359.3402852307
 21
30.7003414814
  0
LINE
  8
0
 62
7
  6
CONTINUOUS
 10
362.1152853548
 20
31.3778789641
 11
362.2309102445
 21
31.3456152777
  0
LINE
  8
0
 62
7
  6
CONTINUOUS
 10
364.4277854651
 20
31.3778789641
 11
364.543410024
 21
31.3456152777
  0
LINE
  8
0
 62
7
  6
CONTINUOUS
 10
368.7637229651
 20
30.668077795
 11
368.6480977445
 21
30.7003414814
  0
LINE
  8
0
 62
7
  6
CONTINUOUS
 10
367.2605977445
 20
31.3778789641
 11
367.3762229651
 21
31.3456152777
  0
LINE
  8
0
 62
7
  6
CONTINUOUS
 10
368.4168479651
 20
30.6358140973
 11
368.5902854651
 21
30.5712867188
  0
LINE
  8
0
 62
7
  6
CONTINUOUS
 10
367.6074727445
 20
31.4424063369
 11
367.4340352445
 21
31.5069337098
  0
LINE
  8
0
 62
7
  6
CONTINUOUS
 10
368.8215352445
 20
31.1520331591
 11
368.6480977445
 21
31.216560532
  0
LINE
  8
0
 62
7
  6
CONTINUOUS
 10
369.6309104651
 20
30.8939236226
 11
369.8043479651
 21
30.8293962497
  0
LINE
  8
0
 62
7
  6
CONTINUOUS
 10
370.0355977445
 20
31.4101426505
 11
369.8621602445
 21
31.4746700234
  0
LINE
  8
0
 62
7
  6
CONTINUOUS
 10
368.4168479651
 20
31.1520331591
 11
368.6480977445
 21
31.0552420547
  0
LINE
  8
0
 62
7
  6
CONTINUOUS
 10
370.0355977445
 20
30.8939236226
 11
369.8043479651
 21
30.9907146818
  0
LINE
  8
0
 62
7
  6
CONTINUOUS
 10
368.5902854651
 20
31.2810879048
 11
368.6480977445
 21
31.3456152777
  0
LINE
  8
0
 62
7
  6
CONTINUOUS
 10
359.0512227376
 20
31.4101426505
 11
358.9355977445
 21
31.3456152777
  0
LINE
  8
0
 62
7
  6
CONTINUOUS
 10
359.1668477307
 20
31.2488242184
 11
359.3402852307
 21
31.3456152777
  0
LINE
  8
0
 62
7
  6
CONTINUOUS
 10
361.4793477997
 20
31.4424063369
 11
361.3637227445
 21
31.3778789641
  0
LINE
  8
0
 62
7
  6
CONTINUOUS
 10
361.3637227445
 20
31.2488242184
 11
361.4793477997
 21
31.3133515913
  0
LINE
  8
0
 62
7
  6
CONTINUOUS
 10
360.3809101894
 20
30.6035504109
 11
360.5543476894
 21
30.7003414814
  0
LINE
  8
0
 62
7
  6
CONTINUOUS
 10
359.3980977583
 20
30.5390230296
 11
359.744972717
 21
30.5067593403
  0
LINE
  8
0
 62
7
  6
CONTINUOUS
 10
363.5027853548
 20
30.5390230296
 11
363.7340351343
 21
30.5067593403
  0
LINE
  8
0
 62
7
  6
CONTINUOUS
 10
361.8840352445
 20
31.4101426505
 11
362.1152853548
 21
31.3778789641
  0
LINE
  8
0
 62
7
  6
CONTINUOUS
 10
364.1965353548
 20
31.4101426505
 11
364.4277854651
 21
31.3778789641
  0
LINE
  8
0
 62
7
  6
CONTINUOUS
 10
368.6480977445
 20
31.0552420547
 11
369.6309104651
 21
30.8939236226
  0
LINE
  8
0
 62
7
  6
CONTINUOUS
 10
369.8043479651
 20
30.9907146818
 11
368.8215352445
 21
31.1520331591
  0
LINE
  8
0
 62
7
  6
CONTINUOUS
 10
362.2887228548
 20
31.5069337098
 11
362.1152853548
 21
31.5391973962
  0
LINE
  8
0
 62
7
  6
CONTINUOUS
 10
368.5902854651
 20
30.5712867188
 11
368.7637229651
 21
30.5390230296
  0
LINE
  8
0
 62
7
  6
CONTINUOUS
 10
367.4340352445
 20
31.5069337098
 11
367.2605977445
 21
31.5391973962
  0
LINE
  8
0
 62
7
  6
CONTINUOUS
 10
369.6887227445
 20
31.3778789641
 11
369.8043479651
 21
31.3456152777
  0
LINE
  8
0
 62
7
  6
CONTINUOUS
 10
369.8621602445
 20
30.7648688543
 11
369.8043479651
 21
30.7003414814
  0
LINE
  8
0
 62
7
  6
CONTINUOUS
 10
368.4168479651
 20
31.4424063369
 11
368.3012227445
 21
31.3456152777
  0
LINE
  8
0
 62
7
  6
CONTINUOUS
 10
363.3293478548
 20
31.4746700234
 11
363.2137226343
 21
31.4101426505
  0
LINE
  8
0
 62
7
  6
CONTINUOUS
 10
363.3871601343
 20
31.0875057863
 11
363.2715352445
 21
31.0229783683
  0
LINE
  8
0
 62
7
  6
CONTINUOUS
 10
363.5027853548
 20
30.926187309
 11
363.6184102445
 21
30.9907146818
  0
LINE
  8
0
 62
7
  6
CONTINUOUS
 10
361.0746601894
 20
30.5067593403
 11
361.3637227445
 21
30.5067593403
  0
LINE
  8
0
 62
7
  6
CONTINUOUS
 10
362.4043477445
 20
30.5067593403
 11
362.6934101343
 21
30.5067593403
  0
LINE
  8
0
 62
7
  6
CONTINUOUS
 10
363.7340351343
 20
30.5067593403
 11
364.0809101343
 21
30.5067593403
  0
LINE
  8
0
 62
7
  6
CONTINUOUS
 10
364.716847524
 20
30.5067593403
 11
365.0059102445
 21
30.5067593403
  0
LINE
  8
0
 62
7
  6
CONTINUOUS
 10
365.4684104651
 20
30.5067593403
 11
365.757472524
 21
30.5067593403
  0
LINE
  8
0
 62
7
  6
CONTINUOUS
 10
366.2199727445
 20
30.5067593403
 11
366.5090354651
 21
30.5067593403
  0
LINE
  8
0
 62
7
  6
CONTINUOUS
 10
367.5496604651
 20
30.5067593403
 11
367.838722524
 21
30.5067593403
  0
LINE
  8
0
 62
7
  6
CONTINUOUS
 10
369.1105979651
 20
30.5067593403
 11
369.4574729651
 21
30.5067593403
  0
LINE
  8
0
 62
7
  6
CONTINUOUS
 10
369.4574729651
 20
30.6358140973
 11
369.1105979651
 21
30.6358140973
  0
LINE
  8
0
 62
7
  6
CONTINUOUS
 10
364.0809101343
 20
30.6358140973
 11
363.7340351343
 21
30.6358140973
  0
LINE
  8
0
 62
7
  6
CONTINUOUS
 10
368.5902854651
 20
30.7648688543
 11
368.3012227445
 21
30.7648688543
  0
LINE
  8
0
 62
7
  6
CONTINUOUS
 10
360.6121602997
 20
30.8293962497
 11
360.3230977445
 21
30.8293962497
  0
LINE
  8
0
 62
7
  6
CONTINUOUS
 10
359.6871602721
 20
31.4101426505
 11
360.091847717
 21
31.3778789641
  0
LINE
  8
0
 62
7
  6
CONTINUOUS
 10
360.1496602445
 20
31.5069337098
 11
359.744972717
 21
31.5391973962
  0
LINE
  8
0
 62
7
  6
CONTINUOUS
 10
368.7637229651
 20
30.5390230296
 11
369.1105979651
 21
30.5067593403
  0
LINE
  8
0
 62
7
  6
CONTINUOUS
 10
369.1105979651
 20
30.6358140973
 11
368.7637229651
 21
30.668077795
  0
LINE
  8
0
 62
7
  6
CONTINUOUS
 10
364.543410024
 20
31.5069337098
 11
364.1965353548
 21
31.5391973962
  0
LINE
  8
0
 62
7
  6
CONTINUOUS
 10
369.3418477445
 20
31.4101426505
 11
369.6887227445
 21
31.3778789641
  0
LINE
  8
0
 62
7
  6
CONTINUOUS
 10
369.6887227445
 20
31.5069337098
 11
369.3418477445
 21
31.5391973962
  0
LINE
  8
0
 62
7
  6
CONTINUOUS
 10
367.0293479651
 20
31.4101426505
 11
367.2605977445
 21
31.3778789641
  0
LINE
  8
0
 62
7
  6
CONTINUOUS
 10
369.8621602445
 20
31.4746700234
 11
369.6887227445
 21
31.5069337098
  0
LINE
  8
0
 62
7
  6
CONTINUOUS
 10
370.0355977445
 20
30.6035504109
 11
370.1512223035
 21
30.7003414814
  0
LINE
  8
0
 62
7
  6
CONTINUOUS
 10
364.543410024
 20
30.7971325633
 11
364.369972524
 21
30.7003414814
  0
LINE
  8
0
 62
7
  6
CONTINUOUS
 10
366.624660024
 20
31.4424063369
 11
366.5090354651
 21
31.3778789641
  0
LINE
  8
0
 62
7
  6
CONTINUOUS
 10
366.5090354651
 20
31.2488242184
 11
366.624660024
 21
31.3133515913
  0
LINE
  8
0
 62
7
  6
CONTINUOUS
 10
359.2246602583
 20
31.4746700234
 11
359.0512227376
 21
31.4101426505
  0
LINE
  8
0
 62
7
  6
CONTINUOUS
 10
361.6527851343
 20
31.5069337098
 11
361.4793477997
 21
31.4424063369
  0
LINE
  8
0
 62
7
  6
CONTINUOUS
 10
361.4793477997
 20
31.3133515913
 11
361.6527851343
 21
31.3778789641
  0
LINE
  8
0
 62
7
  6
CONTINUOUS
 10
360.2652852997
 20
30.7326051679
 11
360.091847717
 21
30.668077795
  0
LINE
  8
0
 62
7
  6
CONTINUOUS
 10
369.6887227445
 20
30.668077795
 11
369.4574729651
 21
30.6358140973
  0
LINE
  8
0
 62
7
  6
CONTINUOUS
 10
364.0809101343
 20
30.5067593403
 11
364.369972524
 21
30.5390230296
  0
LINE
  8
0
 62
7
  6
CONTINUOUS
 10
369.4574729651
 20
30.5067593403
 11
369.8043479651
 21
30.5390230296
  0
LINE
  8
0
 62
7
  6
CONTINUOUS
 10
359.744972717
 20
30.5067593403
 11
360.1496602445
 21
30.5390230296
  0
LINE
  8
0
 62
7
  6
CONTINUOUS
 10
360.091847717
 20
30.668077795
 11
359.6871602721
 21
30.6358140973
  0
LINE
  8
0
 62
7
  6
CONTINUOUS
 10
363.9652852445
 20
31.0552420547
 11
364.6012229651
 21
31.0552420547
  0
LINE
  8
0
 62
7
  6
CONTINUOUS
 10
364.6012229651
 20
31.1842968456
 11
363.9652852445
 21
31.1842968456
  0
LINE
  8
0
 62
7
  6
CONTINUOUS
 10
360.3230977445
 20
31.216560532
 11
360.6121602997
 21
31.216560532
  0
LINE
  8
0
 62
7
  6
CONTINUOUS
 10
363.1559103548
 20
31.2810879048
 11
363.4449727445
 21
31.2810879048
  0
LINE
  8
0
 62
7
  6
CONTINUOUS
 10
369.8621602445
 20
31.2810879048
 11
370.1512223035
 21
31.2810879048
  0
LINE
  8
0
 62
7
  6
CONTINUOUS
 10
363.8496603548
 20
31.4101426505
 11
364.1965353548
 21
31.4101426505
  0
LINE
  8
0
 62
7
  6
CONTINUOUS
 10
368.9949727445
 20
31.4101426505
 11
369.3418477445
 21
31.4101426505
  0
LINE
  8
0
 62
7
  6
CONTINUOUS
 10
369.3418477445
 20
31.5391973962
 11
368.9949727445
 21
31.5391973962
  0
LINE
  8
0
 62
7
  6
CONTINUOUS
 10
367.2605977445
 20
31.5391973962
 11
367.0293479651
 21
31.5391973962
  0
LINE
  8
0
 62
7
  6
CONTINUOUS
 10
366.5090354651
 20
31.5391973962
 11
366.2199727445
 21
31.5391973962
  0
LINE
  8
0
 62
7
  6
CONTINUOUS
 10
365.757472524
 20
31.5391973962
 11
365.4684104651
 21
31.5391973962
  0
LINE
  8
0
 62
7
  6
CONTINUOUS
 10
364.1965353548
 20
31.5391973962
 11
363.8496603548
 21
31.5391973962
  0
LINE
  8
0
 62
7
  6
CONTINUOUS
 10
362.1152853548
 20
31.5391973962
 11
361.8840352445
 21
31.5391973962
  0
LINE
  8
0
 62
7
  6
CONTINUOUS
 10
365.4684104651
 20
31.8618343508
 11
365.757472524
 21
31.8618343508
  0
LINE
  8
0
 62
7
  6
CONTINUOUS
 10
365.757472524
 20
32.0231527829
 11
365.4684104651
 21
32.0231527829
  0
LINE
  8
0
 62
7
  6
CONTINUOUS
 10
361.3637227445
 20
32.0231527829
 11
361.0746601894
 21
32.0231527829
  0
LINE
  8
0
 62
7
  6
CONTINUOUS
 10
360.4015045068
 20
32.3100380288
 11
360.8140758554
 21
32.3100380288
  0
LINE
  8
0
 62
7
  6
CONTINUOUS
 10
362.0408487691
 20
32.3100380288
 11
363.4342913921
 21
32.3100380288
  0
LINE
  8
0
 62
7
  6
CONTINUOUS
 10
363.7621602445
 20
32.3100380288
 11
365.1556028675
 21
32.3100380288
  0
LINE
  8
0
 62
7
  6
CONTINUOUS
 10
367.0408487691
 20
32.3100380288
 11
368.4342913921
 21
32.3100380288
  0
LINE
  8
0
 62
7
  6
CONTINUOUS
 10
368.7621602445
 20
32.3100380288
 11
370.1556028675
 21
32.3100380288
  0
LINE
  8
0
 62
7
  6
CONTINUOUS
 10
366.798097524
 20
31.5069337098
 11
366.624660024
 21
31.4424063369
  0
LINE
  8
0
 62
7
  6
CONTINUOUS
 10
364.369972524
 20
30.5390230296
 11
364.543410024
 21
30.6035504109
  0
LINE
  8
0
 62
7
  6
CONTINUOUS
 10
369.8043479651
 20
30.5390230296
 11
370.0355977445
 21
30.6035504109
  0
LINE
  8
0
 62
7
  6
CONTINUOUS
 10
369.8043479651
 20
30.7003414814
 11
369.6887227445
 21
30.668077795
  0
LINE
  8
0
 62
7
  6
CONTINUOUS
 10
368.7637229651
 20
31.3778789641
 11
368.9949727445
 21
31.4101426505
  0
LINE
  8
0
 62
7
  6
CONTINUOUS
 10
366.798097524
 20
31.3778789641
 11
367.0293479651
 21
31.4101426505
  0
LINE
  8
0
 62
7
  6
CONTINUOUS
 10
363.7340351343
 20
31.0229783683
 11
363.9652852445
 21
31.0552420547
  0
LINE
  8
0
 62
7
  6
CONTINUOUS
 10
367.0293479651
 20
31.5391973962
 11
366.798097524
 21
31.5069337098
  0
LINE
  8
0
 62
7
  6
CONTINUOUS
 10
363.6184102445
 20
31.3778789641
 11
363.8496603548
 21
31.4101426505
  0
LINE
  8
0
 62
7
  6
CONTINUOUS
 10
368.9949727445
 20
31.5391973962
 11
368.6480977445
 21
31.5069337098
  0
LINE
  8
0
 62
7
  6
CONTINUOUS
 10
363.9652852445
 20
31.1842968456
 11
363.6184102445
 21
31.1520331591
  0
LINE
  8
0
 62
7
  6
CONTINUOUS
 10
359.744972717
 20
31.5391973962
 11
359.3980977583
 21
31.5069337098
  0
LINE
  8
0
 62
7
  6
CONTINUOUS
 10
363.8496603548
 20
31.5391973962
 11
363.4449727445
 21
31.5069337098
  0
LINE
  8
0
 62
7
  6
CONTINUOUS
 10
361.221176638
 20
33.4575790124
 11
360.565438933
 21
33.4575790124
  0
LINE
  8
0
 62
7
  6
CONTINUOUS
 10
366.624660024
 20
31.3133515913
 11
366.798097524
 21
31.3778789641
  0
LINE
  8
0
 62
7
  6
CONTINUOUS
 10
368.6480977445
 20
31.3456152777
 11
368.7637229651
 21
31.3778789641
  0
LINE
  8
0
 62
7
  6
CONTINUOUS
 10
368.6480977445
 20
31.5069337098
 11
368.4168479651
 21
31.4424063369
  0
LINE
  8
0
 62
7
  6
CONTINUOUS
 10
364.369972524
 20
30.7003414814
 11
364.0809101343
 21
30.6358140973
  0
LINE
  8
0
 62
7
  6
CONTINUOUS
 10
361.6527851343
 20
31.3778789641
 11
361.8840352445
 21
31.4101426505
  0
LINE
  8
0
 62
7
  6
CONTINUOUS
 10
361.8840352445
 20
31.5391973962
 11
361.6527851343
 21
31.5069337098
  0
LINE
  8
0
 62
7
  6
CONTINUOUS
 10
359.4559102445
 20
31.3778789641
 11
359.6871602721
 21
31.4101426505
  0
LINE
  8
0
 62
7
  6
CONTINUOUS
 10
365.9752749986
 20
34.9329888485
 11
366.6310127035
 21
34.9329888485
  0
LINE
  8
0
 62
7
  6
CONTINUOUS
 10
363.6184102445
 20
30.9907146818
 11
363.7340351343
 21
31.0229783683
  0
LINE
  8
0
 62
7
  6
CONTINUOUS
 10
363.6184102445
 20
31.1520331591
 11
363.3871601343
 21
31.0875057863
  0
LINE
  8
0
 62
7
  6
CONTINUOUS
 10
363.5027853548
 20
31.3456152777
 11
363.6184102445
 21
31.3778789641
  0
LINE
  8
0
 62
7
  6
CONTINUOUS
 10
360.1496602445
 20
30.5390230296
 11
360.3809101894
 21
30.6035504109
  0
LINE
  8
0
 62
7
  6
CONTINUOUS
 10
363.4449727445
 20
31.5069337098
 11
363.3293478548
 21
31.4746700234
  0
LINE
  8
0
 62
7
  6
CONTINUOUS
 10
359.3980977583
 20
31.5069337098
 11
359.2246602583
 21
31.4746700234
  0
LINE
  8
0
 62
7
  6
CONTINUOUS
 10
370.1556028675
 20
36.0805298321
 11
368.7621602445
 21
36.0805298321
  0
LINE
  8
0
 62
7
  6
CONTINUOUS
 10
366.7949471298
 20
36.0805298321
 11
366.3823757812
 21
36.0805298321
  0
LINE
  8
0
 62
7
  6
CONTINUOUS
 10
365.1556028675
 20
36.0805298321
 11
363.7621602445
 21
36.0805298321
  0
LINE
  8
0
 62
7
  6
CONTINUOUS
 10
363.4342913921
 20
36.0805298321
 11
362.0408487691
 21
36.0805298321
  0
LINE
  8
0
 62
7
  6
CONTINUOUS
 10
360.1556028675
 20
36.0805298321
 11
358.7621602445
 21
36.0805298321
  0
LINE
  8
0
 62
7
  6
CONTINUOUS
 10
359.3402852307
 20
31.3456152777
 11
359.4559102445
 21
31.3778789641
  0
CIRCLE
  8
0
 62
7
  6
CONTINUOUS
 10
369.458881556
 20
38.4165954059
 40
2.0901639344
  0
ARC
  8
0
 62
7
  6
CONTINUOUS
 10
360.4015045068
 20
33.9493822911
 40
1.6393442623
 50
180.0
 51
270.0
  0
ARC
  8
0
 62
7
  6
CONTINUOUS
 10
366.7949471298
 20
34.4411855698
 40
1.6393442623
 50
0.0
 51
90.0
  0
ARC
  8
0
 62
7
  6
CONTINUOUS
 10
360.8140758554
 20
33.7854478649
 40
1.4754098361
 50
270.0
 51
326.2510114041
  0
ARC
  8
0
 62
7
  6
CONTINUOUS
 10
366.3823757812
 20
34.6051199961
 40
1.4754098361
 50
90.0
 51
146.2510114041
  0
ARC
  8
0
 62
7
  6
CONTINUOUS
 10
361.221176638
 20
34.2772511436
 40
0.8196721311
 50
270.0
 51
360.0
  0
ARC
  8
0
 62
7
  6
CONTINUOUS
 10
365.9752749986
 20
34.1133167174
 40
0.8196721311
 50
90.0
 51
180.0
  0
ARC
  8
0
 62
7
  6
CONTINUOUS
 10
360.565438933
 20
33.867415078
 40
0.4098360656
 50
180.0
 51
270.0
  0
ARC
  8
0
 62
7
  6
CONTINUOUS
 10
366.6310127035
 20
34.5231527829
 40
0.4098360656
 50
0.0
 51
90.0
  0
SOLID
  8
0
 62
7
  6
CONTINUOUS
 10
365.4684104651
 20
31.8618347111
 11
365.4684104651
 21
32.0231531947
 12
365.757472524
 22
31.8618347111
 13
365.757472524
 23
32.0231531947
  0
SOLID
  8
0
 62
7
  6
CONTINUOUS
 10
359.744972717
 20
31.5391977439
 11
360.1496602445
 21
31.5069333244
 12
359.3980977583
 22
31.5069333244
 13
359.3980977583
 23
31.5069333244
  0
SOLID
  8
0
 62
7
  6
CONTINUOUS
 10
359.2246602583
 20
31.4746706537
 11
359.3980977583
 21
31.5069333244
 12
360.1496602445
 22
31.5069333244
 13
360.1496602445
 23
31.5069333244
  0
SOLID
  8
0
 62
7
  6
CONTINUOUS
 10
360.1496602445
 20
31.5069333244
 11
360.3809101894
 21
31.4424063504
 12
359.2246602583
 22
31.4746706537
 13
359.2246602583
 23
31.4746706537
  0
SOLID
  8
0
 62
7
  6
CONTINUOUS
 10
359.0512227376
 20
31.4101419116
 11
359.2246602583
 21
31.4746706537
 12
360.3809101894
 22
31.4424063504
 13
360.3809101894
 23
31.4424063504
  0
SOLID
  8
0
 62
7
  6
CONTINUOUS
 10
359.0512227376
 20
31.4101419116
 11
360.3809101894
 21
31.4424063504
 12
359.6871602721
 22
31.4101419116
 13
359.6871602721
 23
31.4101419116
  0
SOLID
  8
0
 62
7
  6
CONTINUOUS
 10
359.6871602721
 20
31.4101419116
 11
360.3809101894
 21
31.4424063504
 12
360.091847717
 22
31.3778792603
 13
360.091847717
 23
31.3778792603
  0
SOLID
  8
0
 62
7
  6
CONTINUOUS
 10
360.3809101894
 20
31.4424063504
 11
360.5543476894
 21
31.345614957
 12
360.091847717
 22
31.3778792603
 13
360.091847717
 23
31.3778792603
  0
SOLID
  8
0
 62
7
  6
CONTINUOUS
 10
360.2652852997
 20
31.3133521701
 11
360.091847717
 21
31.3778792603
 12
360.5543476894
 22
31.345614957
 13
360.5543476894
 23
31.345614957
  0
SOLID
  8
0
 62
7
  6
CONTINUOUS
 10
360.2652852997
 20
31.3133521701
 11
360.5543476894
 21
31.345614957
 12
360.3230977445
 22
31.2165606992
 13
360.3230977445
 23
31.2165606992
  0
SOLID
  8
0
 62
7
  6
CONTINUOUS
 10
360.5543476894
 20
31.345614957
 11
360.6121602997
 21
31.2165606992
 12
360.3230977445
 22
31.2165606992
 13
360.3230977445
 23
31.2165606992
  0
SOLID
  8
0
 62
7
  6
CONTINUOUS
 10
361.6527851343
 20
31.5069329918
 11
361.8840352445
 21
31.5391972951
 12
362.1152853548
 22
31.5391972951
 13
362.1152853548
 23
31.5391972951
  0
SOLID
  8
0
 62
7
  6
CONTINUOUS
 10
362.1152853548
 20
31.5391972951
 11
362.2887228548
 21
31.5069329918
 12
361.6527851343
 22
31.5069329918
 13
361.6527851343
 23
31.5069329918
  0
SOLID
  8
0
 62
7
  6
CONTINUOUS
 10
361.4793477997
 20
31.4424059016
 11
361.6527851343
 21
31.5069329918
 12
362.2887228548
 22
31.5069329918
 13
362.2887228548
 23
31.5069329918
  0
SOLID
  8
0
 62
7
  6
CONTINUOUS
 10
362.2887228548
 20
31.5069329918
 11
362.4621603548
 21
31.4424059016
 12
361.4793477997
 22
31.4424059016
 13
361.4793477997
 23
31.4424059016
  0
SOLID
  8
0
 62
7
  6
CONTINUOUS
 10
362.4621603548
 20
31.4424059016
 11
361.8840352445
 21
31.4101420472
 12
361.4793477997
 22
31.4424059016
 13
361.4793477997
 23
31.4424059016
  0
SOLID
  8
0
 62
7
  6
CONTINUOUS
 10
361.3637227445
 20
31.3778788115
 11
361.4793477997
 21
31.4424059016
 12
361.8840352445
 22
31.4101420472
 13
361.8840352445
 23
31.4101420472
  0
SOLID
  8
0
 62
7
  6
CONTINUOUS
 10
361.8840352445
 20
31.4101420472
 11
361.6527851343
 21
31.3778788115
 12
361.3637227445
 22
31.3778788115
 13
361.3637227445
 23
31.3778788115
  0
SOLID
  8
0
 62
7
  6
CONTINUOUS
 10
361.8840352445
 20
31.4101420472
 11
362.4621603548
 21
31.4424059016
 12
362.1152853548
 22
31.3778788115
 13
362.1152853548
 23
31.3778788115
  0
SOLID
  8
0
 62
7
  6
CONTINUOUS
 10
362.4621603548
 20
31.4424059016
 11
362.5777852445
 21
31.3778788115
 12
362.1152853548
 22
31.3778788115
 13
362.1152853548
 23
31.3778788115
  0
SOLID
  8
0
 62
7
  6
CONTINUOUS
 10
362.2309102445
 20
31.345614957
 11
362.1152853548
 21
31.3778788115
 12
362.5777852445
 22
31.3778788115
 13
362.5777852445
 23
31.3778788115
  0
SOLID
  8
0
 62
7
  6
CONTINUOUS
 10
362.5777852445
 20
31.3778788115
 11
362.6355978548
 21
31.3133517213
 12
362.2309102445
 22
31.345614957
 13
362.2309102445
 23
31.345614957
  0
SOLID
  8
0
 62
7
  6
CONTINUOUS
 10
362.3465351343
 20
31.2810878668
 11
362.2309102445
 21
31.345614957
 12
362.6355978548
 22
31.3133517213
 13
362.6355978548
 23
31.3133517213
  0
SOLID
  8
0
 62
7
  6
CONTINUOUS
 10
362.3465351343
 20
31.2810878668
 11
362.6355978548
 21
31.3133517213
 12
362.4043477445
 22
31.1520332377
 13
362.4043477445
 23
31.1520332377
  0
SOLID
  8
0
 62
7
  6
CONTINUOUS
 10
362.6355978548
 20
31.3133517213
 11
362.6934101343
 21
31.1520332377
 12
362.4043477445
 22
31.1520332377
 13
362.4043477445
 23
31.1520332377
  0
SOLID
  8
0
 62
7
  6
CONTINUOUS
 10
361.6527851343
 20
31.3778788115
 11
361.4793477997
 21
31.3133517213
 12
361.3637227445
 22
31.3778788115
 13
361.3637227445
 23
31.3778788115
  0
SOLID
  8
0
 62
7
  6
CONTINUOUS
 10
361.4793477997
 20
31.3133517213
 11
361.3637227445
 21
31.2488235635
 12
361.3637227445
 22
31.3778788115
 13
361.3637227445
 23
31.3778788115
  0
SOLID
  8
0
 62
7
  6
CONTINUOUS
 10
361.3637227445
 20
31.2488235635
 11
361.0746601894
 21
30.5067593033
 12
361.3637227445
 22
31.3778788115
 13
361.3637227445
 23
31.3778788115
  0
SOLID
  8
0
 62
7
  6
CONTINUOUS
 10
361.3637227445
 20
31.3778788115
 11
361.0746601894
 21
30.5067593033
 12
361.3637227445
 22
32.0231527459
 13
361.3637227445
 23
32.0231527459
  0
SOLID
  8
0
 62
7
  6
CONTINUOUS
 10
361.0746601894
 20
30.5067593033
 11
361.0746601894
 21
32.0231527459
 12
361.3637227445
 22
32.0231527459
 13
361.3637227445
 23
32.0231527459
  0
SOLID
  8
0
 62
7
  6
CONTINUOUS
 10
361.3637227445
 20
31.2488235635
 11
361.3637227445
 21
30.5067593033
 12
361.0746601894
 22
30.5067593033
 13
361.0746601894
 23
30.5067593033
  0
SOLID
  8
0
 62
7
  6
CONTINUOUS
 10
362.4043477445
 20
30.5067593033
 11
362.4043477445
 21
31.1520332377
 12
362.6934101343
 22
31.1520332377
 13
362.6934101343
 23
31.1520332377
  0
SOLID
  8
0
 62
7
  6
CONTINUOUS
 10
362.6934101343
 20
31.1520332377
 11
362.6934101343
 21
30.5067593033
 12
362.4043477445
 22
30.5067593033
 13
362.4043477445
 23
30.5067593033
  0
SOLID
  8
0
 62
7
  6
CONTINUOUS
 10
363.4449727445
 20
31.506933758
 11
363.8496603548
 21
31.5391977507
 12
364.1965353548
 22
31.5391977507
 13
364.1965353548
 23
31.5391977507
  0
SOLID
  8
0
 62
7
  6
CONTINUOUS
 10
364.1965353548
 20
31.5391977507
 11
364.543410024
 21
31.506933758
 12
363.4449727445
 22
31.506933758
 13
363.4449727445
 23
31.506933758
  0
SOLID
  8
0
 62
7
  6
CONTINUOUS
 10
363.3293478548
 20
31.4746706537
 11
363.4449727445
 21
31.506933758
 12
364.543410024
 22
31.506933758
 13
364.543410024
 23
31.506933758
  0
SOLID
  8
0
 62
7
  6
CONTINUOUS
 10
364.543410024
 20
31.506933758
 11
364.716847524
 21
31.4424063504
 12
363.3293478548
 22
31.4746706537
 13
363.3293478548
 23
31.4746706537
  0
SOLID
  8
0
 62
7
  6
CONTINUOUS
 10
363.2137226343
 20
31.4101417797
 11
363.3293478548
 21
31.4746706537
 12
364.716847524
 22
31.4424063504
 13
364.716847524
 23
31.4424063504
  0
SOLID
  8
0
 62
7
  6
CONTINUOUS
 10
363.2137226343
 20
31.4101417797
 11
364.716847524
 21
31.4424063504
 12
363.8496603548
 22
31.4101417797
 13
363.8496603548
 23
31.4101417797
  0
SOLID
  8
0
 62
7
  6
CONTINUOUS
 10
363.8496603548
 20
31.4101417797
 11
364.716847524
 21
31.4424063504
 12
364.1965353548
 22
31.4101417797
 13
364.1965353548
 23
31.4101417797
  0
SOLID
  8
0
 62
7
  6
CONTINUOUS
 10
364.1965353548
 20
31.4101417797
 11
364.716847524
 21
31.4424063504
 12
364.4277854651
 22
31.3778793357
 13
364.4277854651
 23
31.3778793357
  0
SOLID
  8
0
 62
7
  6
CONTINUOUS
 10
364.716847524
 20
31.4424063504
 11
364.8324727445
 21
31.3778793357
 12
364.4277854651
 22
31.3778793357
 13
364.4277854651
 23
31.3778793357
  0
SOLID
  8
0
 62
7
  6
CONTINUOUS
 10
363.1559103548
 20
31.3456153429
 11
363.2137226343
 21
31.4101417797
 12
363.8496603548
 22
31.4101417797
 13
363.8496603548
 23
31.4101417797
  0
SOLID
  8
0
 62
7
  6
CONTINUOUS
 10
364.543410024
 20
31.3456153429
 11
364.4277854651
 21
31.3778793357
 12
364.8324727445
 22
31.3778793357
 13
364.8324727445
 23
31.3778793357
  0
SOLID
  8
0
 62
7
  6
CONTINUOUS
 10
364.543410024
 20
31.3456153429
 11
364.8324727445
 21
31.3778793357
 12
364.6012229651
 22
31.2810881318
 13
364.6012229651
 23
31.2810881318
  0
SOLID
  8
0
 62
7
  6
CONTINUOUS
 10
364.8324727445
 20
31.3778793357
 11
364.890285024
 21
31.2810881318
 12
364.6012229651
 22
31.2810881318
 13
364.6012229651
 23
31.2810881318
  0
SOLID
  8
0
 62
7
  6
CONTINUOUS
 10
364.6012229651
 20
31.1842964734
 11
364.6012229651
 21
31.2810881318
 12
364.890285024
 22
31.2810881318
 13
364.890285024
 23
31.2810881318
  0
SOLID
  8
0
 62
7
  6
CONTINUOUS
 10
364.6012229651
 20
31.1842964734
 11
364.890285024
 21
31.2810881318
 12
364.6012229651
 22
31.0552422931
 13
364.6012229651
 23
31.0552422931
  0
SOLID
  8
0
 62
7
  6
CONTINUOUS
 10
364.6012229651
 20
31.0552422931
 11
364.890285024
 21
31.2810881318
 12
364.6012229651
 22
30.8616599362
 13
364.6012229651
 23
30.8616599362
  0
SOLID
  8
0
 62
7
  6
CONTINUOUS
 10
364.890285024
 20
31.2810881318
 11
364.890285024
 21
30.7648681127
 12
364.6012229651
 22
30.8616599362
 13
364.6012229651
 23
30.8616599362
  0
SOLID
  8
0
 62
7
  6
CONTINUOUS
 10
366.798097524
 20
31.5069339419
 11
367.0293479651
 21
31.5391976292
 12
367.2605977445
 22
31.5391976292
 13
367.2605977445
 23
31.5391976292
  0
SOLID
  8
0
 62
7
  6
CONTINUOUS
 10
367.2605977445
 20
31.5391976292
 11
367.4340352445
 21
31.5069339419
 12
366.798097524
 22
31.5069339419
 13
366.798097524
 23
31.5069339419
  0
SOLID
  8
0
 62
7
  6
CONTINUOUS
 10
366.624660024
 20
31.4424065674
 11
366.798097524
 21
31.5069339419
 12
367.4340352445
 22
31.5069339419
 13
367.4340352445
 23
31.5069339419
  0
SOLID
  8
0
 62
7
  6
CONTINUOUS
 10
367.4340352445
 20
31.5069339419
 11
367.6074727445
 21
31.4424065674
 12
366.624660024
 22
31.4424065674
 13
366.624660024
 23
31.4424065674
  0
SOLID
  8
0
 62
7
  6
CONTINUOUS
 10
367.6074727445
 20
31.4424065674
 11
367.0293479651
 21
31.4101420472
 12
366.624660024
 22
31.4424065674
 13
366.624660024
 23
31.4424065674
  0
SOLID
  8
0
 62
7
  6
CONTINUOUS
 10
366.5090354651
 20
31.377879193
 11
366.624660024
 21
31.4424065674
 12
367.0293479651
 22
31.4101420472
 13
367.0293479651
 23
31.4101420472
  0
SOLID
  8
0
 62
7
  6
CONTINUOUS
 10
367.0293479651
 20
31.4101420472
 11
366.798097524
 21
31.377879193
 12
366.5090354651
 22
31.377879193
 13
366.5090354651
 23
31.377879193
  0
SOLID
  8
0
 62
7
  6
CONTINUOUS
 10
367.0293479651
 20
31.4101420472
 11
367.6074727445
 21
31.4424065674
 12
367.2605977445
 22
31.377879193
 13
367.2605977445
 23
31.377879193
  0
SOLID
  8
0
 62
7
  6
CONTINUOUS
 10
367.6074727445
 20
31.4424065674
 11
367.7230979651
 21
31.377879193
 12
367.2605977445
 22
31.377879193
 13
367.2605977445
 23
31.377879193
  0
SOLID
  8
0
 62
7
  6
CONTINUOUS
 10
367.3762229651
 20
31.345614957
 11
367.2605977445
 21
31.377879193
 12
367.7230979651
 22
31.377879193
 13
367.7230979651
 23
31.377879193
  0
SOLID
  8
0
 62
7
  6
CONTINUOUS
 10
367.3762229651
 20
31.345614957
 11
367.7230979651
 21
31.377879193
 12
367.491847524
 22
31.2810881312
 13
367.491847524
 23
31.2810881312
  0
SOLID
  8
0
 62
7
  6
CONTINUOUS
 10
367.7230979651
 20
31.377879193
 11
367.7809102445
 21
31.2810881312
 12
367.491847524
 22
31.2810881312
 13
367.491847524
 23
31.2810881312
  0
SOLID
  8
0
 62
7
  6
CONTINUOUS
 10
367.5496604651
 20
31.119769695
 11
367.491847524
 21
31.2810881312
 12
367.7809102445
 22
31.2810881312
 13
367.7809102445
 23
31.2810881312
  0
SOLID
  8
0
 62
7
  6
CONTINUOUS
 10
367.7809102445
 20
31.2810881312
 11
367.838722524
 21
31.119769695
 12
367.5496604651
 22
31.119769695
 13
367.5496604651
 23
31.119769695
  0
SOLID
  8
0
 62
7
  6
CONTINUOUS
 10
366.798097524
 20
31.377879193
 11
366.624660024
 21
31.3133521701
 12
366.5090354651
 22
31.377879193
 13
366.5090354651
 23
31.377879193
  0
SOLID
  8
0
 62
7
  6
CONTINUOUS
 10
366.624660024
 20
31.3133521701
 11
366.5090354651
 21
31.2488235635
 12
366.5090354651
 22
31.377879193
 13
366.5090354651
 23
31.377879193
  0
SOLID
  8
0
 62
7
  6
CONTINUOUS
 10
366.5090354651
 20
31.2488235635
 11
366.2199727445
 21
30.5067596374
 12
366.5090354651
 22
31.377879193
 13
366.5090354651
 23
31.377879193
  0
SOLID
  8
0
 62
7
  6
CONTINUOUS
 10
366.5090354651
 20
31.377879193
 11
366.2199727445
 21
30.5067596374
 12
366.5090354651
 22
31.5391976292
 13
366.5090354651
 23
31.5391976292
  0
SOLID
  8
0
 62
7
  6
CONTINUOUS
 10
366.2199727445
 20
30.5067596374
 11
366.2199727445
 21
31.5391976292
 12
366.5090354651
 22
31.5391976292
 13
366.5090354651
 23
31.5391976292
  0
SOLID
  8
0
 62
7
  6
CONTINUOUS
 10
366.5090354651
 20
31.2488235635
 11
366.5090354651
 21
30.5067596374
 12
366.2199727445
 22
30.5067596374
 13
366.2199727445
 23
30.5067596374
  0
SOLID
  8
0
 62
7
  6
CONTINUOUS
 10
367.5496604651
 20
30.5067596374
 11
367.5496604651
 21
31.119769695
 12
367.838722524
 22
31.119769695
 13
367.838722524
 23
31.119769695
  0
SOLID
  8
0
 62
7
  6
CONTINUOUS
 10
367.838722524
 20
31.119769695
 11
367.838722524
 21
30.5067596374
 12
367.5496604651
 22
30.5067596374
 13
367.5496604651
 23
30.5067596374
  0
SOLID
  8
0
 62
7
  6
CONTINUOUS
 10
368.6480977445
 20
31.5069334157
 11
368.9949727445
 21
31.539197762
 12
369.3418477445
 22
31.539197762
 13
369.3418477445
 23
31.539197762
  0
SOLID
  8
0
 62
7
  6
CONTINUOUS
 10
369.3418477445
 20
31.539197762
 11
369.6887227445
 21
31.5069334157
 12
368.6480977445
 22
31.5069334157
 13
368.6480977445
 23
31.5069334157
  0
SOLID
  8
0
 62
7
  6
CONTINUOUS
 10
368.4168479651
 20
31.4424063504
 11
368.6480977445
 21
31.5069334157
 12
369.6887227445
 22
31.5069334157
 13
369.6887227445
 23
31.5069334157
  0
SOLID
  8
0
 62
7
  6
CONTINUOUS
 10
368.4168479651
 20
31.4424063504
 11
369.6887227445
 21
31.5069334406
 12
369.8621602445
 22
31.4746706537
 13
369.8621602445
 23
31.4746706537
  0
SOLID
  8
0
 62
7
  6
CONTINUOUS
 10
368.4168479651
 20
31.4424063504
 11
369.8621602445
 21
31.4746706537
 12
368.9949727445
 22
31.4101421267
 13
368.9949727445
 23
31.4101421267
  0
SOLID
  8
0
 62
7
  6
CONTINUOUS
 10
368.9949727445
 20
31.4101421267
 11
369.8621602445
 21
31.4746706537
 12
369.3418477445
 22
31.4101421267
 13
369.3418477445
 23
31.4101421267
  0
SOLID
  8
0
 62
7
  6
CONTINUOUS
 10
369.8621602445
 20
31.4746706537
 11
370.0355977445
 21
31.4101421267
 12
369.3418477445
 22
31.4101421267
 13
369.3418477445
 23
31.4101421267
  0
SOLID
  8
0
 62
7
  6
CONTINUOUS
 10
369.6887227445
 20
31.3778792603
 11
369.3418477445
 21
31.4101421267
 12
370.0355977445
 22
31.4101421267
 13
370.0355977445
 23
31.4101421267
  0
SOLID
  8
0
 62
7
  6
CONTINUOUS
 10
368.3012227445
 20
31.3456148845
 11
368.4168479651
 21
31.4424063504
 12
368.9949727445
 22
31.4101421267
 13
368.9949727445
 23
31.4101421267
  0
SOLID
  8
0
 62
7
  6
CONTINUOUS
 10
369.6887227445
 20
31.3778792603
 11
370.0355977445
 21
31.4101421267
 12
369.8043479651
 22
31.3456148845
 13
369.8043479651
 23
31.3456148845
  0
SOLID
  8
0
 62
7
  6
CONTINUOUS
 10
369.8043479651
 20
31.3456148845
 11
370.0355977445
 21
31.4101421267
 12
369.8621602445
 22
31.281087868
 13
369.8621602445
 23
31.281087868
  0
SOLID
  8
0
 62
7
  6
CONTINUOUS
 10
370.0355977445
 20
31.4101421267
 11
370.1512223035
 21
31.281087868
 12
369.8621602445
 22
31.281087868
 13
369.8621602445
 23
31.281087868
  0
SOLID
  8
0
 62
7
  6
CONTINUOUS
 10
359.4559102445
 20
31.3778792603
 11
358.9355977445
 21
31.3456148963
 12
359.6871602721
 22
31.4101421155
 13
359.6871602721
 23
31.4101421155
  0
SOLID
  8
0
 62
7
  6
CONTINUOUS
 10
358.9355977445
 20
31.3456148963
 11
359.0512227376
 21
31.4101421155
 12
359.6871602721
 22
31.4101421155
 13
359.6871602721
 23
31.4101421155
  0
SOLID
  8
0
 62
7
  6
CONTINUOUS
 10
359.4559102445
 20
31.3778792603
 11
359.3402852307
 21
31.3456148963
 12
358.9355977445
 22
31.3456148963
 13
358.9355977445
 23
31.3456148963
  0
SOLID
  8
0
 62
7
  6
CONTINUOUS
 10
358.8199727462
 20
31.2165607767
 11
358.9355977445
 21
31.3456148963
 12
359.3402852307
 22
31.3456148963
 13
359.3402852307
 23
31.3456148963
  0
SOLID
  8
0
 62
7
  6
CONTINUOUS
 10
363.1559103548
 20
31.3456149608
 11
363.8496603548
 21
31.4101420472
 12
363.6184102445
 22
31.3778792603
 13
363.6184102445
 23
31.3778792603
  0
SOLID
  8
0
 62
7
  6
CONTINUOUS
 10
363.6184102445
 20
31.3778792603
 11
363.5027853548
 21
31.3456149608
 12
363.1559103548
 22
31.3456149608
 13
363.1559103548
 23
31.3456149608
  0
SOLID
  8
0
 62
7
  6
CONTINUOUS
 10
363.1559103548
 20
31.2810878707
 11
363.1559103548
 21
31.3456149608
 12
363.5027853548
 22
31.3456149608
 13
363.5027853548
 23
31.3456149608
  0
SOLID
  8
0
 62
7
  6
CONTINUOUS
 10
363.5027853548
 20
31.3456149608
 11
363.4449727445
 21
31.2810878707
 12
363.1559103548
 22
31.2810878707
 13
363.1559103548
 23
31.2810878707
  0
SOLID
  8
0
 62
7
  6
CONTINUOUS
 10
368.3012227445
 20
31.3456149608
 11
368.9949727445
 21
31.4101420472
 12
368.7637229651
 22
31.3778792603
 13
368.7637229651
 23
31.3778792603
  0
SOLID
  8
0
 62
7
  6
CONTINUOUS
 10
368.7637229651
 20
31.3778792603
 11
368.6480977445
 21
31.3456149608
 12
368.3012227445
 22
31.3456149608
 13
368.3012227445
 23
31.3456149608
  0
SOLID
  8
0
 62
7
  6
CONTINUOUS
 10
368.3012227445
 20
31.2810878707
 11
368.3012227445
 21
31.3456149608
 12
368.6480977445
 22
31.3456149608
 13
368.6480977445
 23
31.3456149608
  0
SOLID
  8
0
 62
7
  6
CONTINUOUS
 10
368.6480977445
 20
31.3456149608
 11
368.5902854651
 21
31.2810878707
 12
368.3012227445
 22
31.2810878707
 13
368.3012227445
 23
31.2810878707
  0
SOLID
  8
0
 62
7
  6
CONTINUOUS
 10
368.4168479651
 20
31.1520336865
 11
368.3012227445
 21
31.2810878707
 12
368.5902854651
 22
31.2810878707
 13
368.5902854651
 23
31.2810878707
  0
SOLID
  8
0
 62
7
  6
CONTINUOUS
 10
358.8199727462
 20
31.2165607767
 11
359.3402852307
 21
31.345614957
 12
359.1668477307
 22
31.2488235635
 13
359.1668477307
 23
31.2488235635
  0
SOLID
  8
0
 62
7
  6
CONTINUOUS
 10
359.1668477307
 20
31.2488235635
 11
359.1090352445
 21
31.1842964734
 12
358.8199727462
 22
31.2165607767
 13
358.8199727462
 23
31.2165607767
  0
SOLID
  8
0
 62
7
  6
CONTINUOUS
 10
358.7621602445
 20
31.0229779898
 11
358.8199727462
 21
31.2165607767
 12
359.1090352445
 22
31.1842964734
 13
359.1090352445
 23
31.1842964734
  0
SOLID
  8
0
 62
7
  6
CONTINUOUS
 10
363.6184102445
 20
31.1520336865
 11
363.9652852445
 21
31.1842964611
 12
364.6012229651
 22
31.1842964611
 13
364.6012229651
 23
31.1842964611
  0
SOLID
  8
0
 62
7
  6
CONTINUOUS
 10
363.6184102445
 20
31.1520336865
 11
364.6012229651
 21
31.1842964611
 12
363.3871601343
 22
31.0875057863
 13
363.3871601343
 23
31.0875057863
  0
SOLID
  8
0
 62
7
  6
CONTINUOUS
 10
363.3871601343
 20
31.0875057863
 11
364.6012229651
 21
31.1842964611
 12
363.9652852445
 22
31.0552422808
 13
363.9652852445
 23
31.0552422808
  0
SOLID
  8
0
 62
7
  6
CONTINUOUS
 10
364.6012229651
 20
31.1842964611
 11
364.6012229651
 21
31.0552422808
 12
363.9652852445
 22
31.0552422808
 13
363.9652852445
 23
31.0552422808
  0
SOLID
  8
0
 62
7
  6
CONTINUOUS
 10
368.4168479651
 20
31.1520338754
 11
368.5902854651
 21
31.2810878668
 12
368.6480977445
 22
31.2165607767
 13
368.6480977445
 23
31.2165607767
  0
SOLID
  8
0
 62
7
  6
CONTINUOUS
 10
368.6480977445
 20
31.2165607767
 11
368.8215352445
 21
31.1520338754
 12
368.4168479651
 22
31.1520338754
 13
368.4168479651
 23
31.1520338754
  0
SOLID
  8
0
 62
7
  6
CONTINUOUS
 10
368.6480977445
 20
31.0552422931
 11
368.4168479651
 21
31.1520338754
 12
368.8215352445
 22
31.1520338754
 13
368.8215352445
 23
31.1520338754
  0
SOLID
  8
0
 62
7
  6
CONTINUOUS
 10
368.8215352445
 20
31.1520338754
 11
369.8043479651
 21
30.9907152029
 12
368.6480977445
 22
31.0552422931
 13
368.6480977445
 23
31.0552422931
  0
SOLID
  8
0
 62
7
  6
CONTINUOUS
 10
369.6309104651
 20
30.8939239876
 11
368.6480977445
 21
31.0552422931
 12
369.8043479651
 22
30.9907152029
 13
369.8043479651
 23
30.9907152029
  0
SOLID
  8
0
 62
7
  6
CONTINUOUS
 10
369.8043479651
 20
30.9907152029
 11
370.0355977445
 21
30.8939239876
 12
369.6309104651
 22
30.8939239876
 13
369.6309104651
 23
30.8939239876
  0
SOLID
  8
0
 62
7
  6
CONTINUOUS
 10
369.8043479651
 20
30.8293967193
 11
369.6309104651
 21
30.8939239876
 12
370.0355977445
 22
30.8939239876
 13
370.0355977445
 23
30.8939239876
  0
SOLID
  8
0
 62
7
  6
CONTINUOUS
 10
369.8043479651
 20
30.8293967193
 11
370.0355977445
 21
30.8939239876
 12
369.8621602445
 22
30.7648682694
 13
369.8621602445
 23
30.7648682694
  0
SOLID
  8
0
 62
7
  6
CONTINUOUS
 10
370.0355977445
 20
30.8939239876
 11
370.1512223035
 21
30.7648682694
 12
369.8621602445
 22
30.7648682694
 13
369.8621602445
 23
30.7648682694
  0
SOLID
  8
0
 62
7
  6
CONTINUOUS
 10
369.8043479651
 20
30.7003411846
 11
369.8621602445
 21
30.7648682694
 12
370.1512223035
 22
30.7648682694
 13
370.1512223035
 23
30.7648682694
  0
SOLID
  8
0
 62
7
  6
CONTINUOUS
 10
370.1512223035
 20
30.7648682694
 11
370.1512223035
 21
30.7003411846
 12
369.8043479651
 22
30.7003411846
 13
369.8043479651
 23
30.7003411846
  0
SOLID
  8
0
 62
7
  6
CONTINUOUS
 10
369.6887227445
 20
30.6680782357
 11
369.8043479651
 21
30.7003411846
 12
370.1512223035
 22
30.7003411846
 13
370.1512223035
 23
30.7003411846
  0
SOLID
  8
0
 62
7
  6
CONTINUOUS
 10
369.6887227445
 20
30.6680782357
 11
370.1512223035
 21
30.7003411846
 12
369.4574729651
 22
30.6358140998
 13
369.4574729651
 23
30.6358140998
  0
SOLID
  8
0
 62
7
  6
CONTINUOUS
 10
370.1512223035
 20
30.7003411846
 11
370.0355977445
 21
30.6035511455
 12
369.4574729651
 22
30.6358140998
 13
369.4574729651
 23
30.6358140998
  0
SOLID
  8
0
 62
7
  6
CONTINUOUS
 10
370.0355977445
 20
30.6035511455
 11
368.5902854651
 21
30.5712868422
 12
369.4574729651
 22
30.6358140998
 13
369.4574729651
 23
30.6358140998
  0
SOLID
  8
0
 62
7
  6
CONTINUOUS
 10
369.4574729651
 20
30.6358140998
 11
368.5902854651
 21
30.5712868422
 12
369.1105979651
 22
30.6358140998
 13
369.1105979651
 23
30.6358140998
  0
SOLID
  8
0
 62
7
  6
CONTINUOUS
 10
368.5902854651
 20
30.5712868422
 11
368.4168479651
 21
30.6358140998
 12
369.1105979651
 22
30.6358140998
 13
369.1105979651
 23
30.6358140998
  0
SOLID
  8
0
 62
7
  6
CONTINUOUS
 10
368.5902854651
 20
30.5712868422
 11
370.0355977445
 21
30.6035511455
 12
368.7637229651
 22
30.5390223111
 13
368.7637229651
 23
30.5390223111
  0
SOLID
  8
0
 62
7
  6
CONTINUOUS
 10
370.0355977445
 20
30.6035511455
 11
369.8043479651
 21
30.5390223111
 12
368.7637229651
 22
30.5390223111
 13
368.7637229651
 23
30.5390223111
  0
SOLID
  8
0
 62
7
  6
CONTINUOUS
 10
369.1105979651
 20
30.5067599302
 11
368.7637229651
 21
30.5390223111
 12
369.8043479651
 22
30.5390223111
 13
369.8043479651
 23
30.5390223111
  0
SOLID
  8
0
 62
7
  6
CONTINUOUS
 10
369.8043479651
 20
30.5390223111
 11
369.4574729651
 21
30.5067599302
 12
369.1105979651
 22
30.5067599302
 13
369.1105979651
 23
30.5067599302
  0
SOLID
  8
0
 62
7
  6
CONTINUOUS
 10
358.7621602445
 20
31.0229779898
 11
359.1090352445
 21
31.1842964734
 12
359.0512227376
 22
31.0552422931
 13
359.0512227376
 23
31.0552422931
  0
SOLID
  8
0
 62
7
  6
CONTINUOUS
 10
359.0512227376
 20
31.0552422931
 11
359.0512227376
 21
30.9584509954
 12
358.7621602445
 22
31.0229779898
 13
358.7621602445
 23
31.0229779898
  0
SOLID
  8
0
 62
7
  6
CONTINUOUS
 10
358.8199727462
 20
30.8293967193
 11
358.7621602445
 21
31.0229779898
 12
359.0512227376
 22
30.9584509954
 13
359.0512227376
 23
30.9584509954
  0
SOLID
  8
0
 62
7
  6
CONTINUOUS
 10
359.0512227376
 20
30.9584509954
 11
359.1668477307
 21
30.797132416
 12
358.8199727462
 22
30.8293967193
 13
358.8199727462
 23
30.8293967193
  0
SOLID
  8
0
 62
7
  6
CONTINUOUS
 10
358.9355977445
 20
30.7003413087
 11
358.8199727462
 21
30.8293967193
 12
359.1668477307
 22
30.797132416
 13
359.1668477307
 23
30.797132416
  0
SOLID
  8
0
 62
7
  6
CONTINUOUS
 10
359.1668477307
 20
30.797132416
 11
359.3402852307
 21
30.7003413087
 12
358.9355977445
 22
30.7003413087
 13
358.9355977445
 23
30.7003413087
  0
SOLID
  8
0
 62
7
  6
CONTINUOUS
 10
359.0512227376
 20
30.6358140759
 11
358.9355977445
 21
30.7003413087
 12
359.3402852307
 22
30.7003413087
 13
359.3402852307
 23
30.7003413087
  0
SOLID
  8
0
 62
7
  6
CONTINUOUS
 10
359.3402852307
 20
30.7003413087
 11
359.6871602721
 21
30.6358140759
 12
359.0512227376
 22
30.6358140759
 13
359.0512227376
 23
30.6358140759
  0
SOLID
  8
0
 62
7
  6
CONTINUOUS
 10
359.2246602583
 20
30.5712868422
 11
359.0512227376
 21
30.6358140759
 12
359.6871602721
 22
30.6358140759
 13
359.6871602721
 23
30.6358140759
  0
SOLID
  8
0
 62
7
  6
CONTINUOUS
 10
363.2715352445
 20
31.0229779808
 11
363.3871601343
 21
31.0875057863
 12
363.9652852445
 22
31.0552422931
 13
363.9652852445
 23
31.0552422931
  0
SOLID
  8
0
 62
7
  6
CONTINUOUS
 10
363.9652852445
 20
31.0552422931
 11
363.7340351343
 21
31.0229779808
 12
363.2715352445
 22
31.0229779808
 13
363.2715352445
 23
31.0229779808
  0
SOLID
  8
0
 62
7
  6
CONTINUOUS
 10
363.1559103548
 20
30.8939238094
 11
363.2715352445
 21
31.0229779808
 12
363.7340351343
 22
31.0229779808
 13
363.7340351343
 23
31.0229779808
  0
SOLID
  8
0
 62
7
  6
CONTINUOUS
 10
363.5027853548
 20
30.926187309
 11
363.1559103548
 21
30.8939238094
 12
363.6184102445
 22
30.9907152029
 13
363.6184102445
 23
30.9907152029
  0
SOLID
  8
0
 62
7
  6
CONTINUOUS
 10
363.1559103548
 20
30.8939238094
 11
363.7340351343
 21
31.0229779898
 12
363.6184102445
 22
30.9907152029
 13
363.6184102445
 23
30.9907152029
  0
SOLID
  8
0
 62
7
  6
CONTINUOUS
 10
363.5027853548
 20
30.926187309
 11
363.4449727445
 21
30.8293967193
 12
363.1559103548
 22
30.8939238094
 13
363.1559103548
 23
30.8939238094
  0
SOLID
  8
0
 62
7
  6
CONTINUOUS
 10
363.1559103548
 20
30.797132416
 11
363.1559103548
 21
30.8939238094
 12
363.4449727445
 22
30.8293967193
 13
363.4449727445
 23
30.8293967193
  0
SOLID
  8
0
 62
7
  6
CONTINUOUS
 10
363.4449727445
 20
30.8293967193
 11
363.4449727445
 21
30.7648681127
 12
363.1559103548
 22
30.797132416
 13
363.1559103548
 23
30.797132416
  0
SOLID
  8
0
 62
7
  6
CONTINUOUS
 10
363.2137226343
 20
30.6680782357
 11
363.1559103548
 21
30.797132416
 12
363.4449727445
 22
30.7648681127
 13
363.4449727445
 23
30.7648681127
  0
SOLID
  8
0
 62
7
  6
CONTINUOUS
 10
364.6012229651
 20
30.8616599362
 11
364.890285024
 21
30.7648681127
 12
364.543410024
 22
30.797132416
 13
364.543410024
 23
30.797132416
  0
SOLID
  8
0
 62
7
  6
CONTINUOUS
 10
364.369972524
 20
30.7003410226
 11
364.543410024
 21
30.797132416
 12
364.890285024
 22
30.7648681127
 13
364.890285024
 23
30.7648681127
  0
SOLID
  8
0
 62
7
  6
CONTINUOUS
 10
364.369972524
 20
30.7003410226
 11
364.890285024
 21
30.7648681127
 12
364.6012229651
 22
30.6680782357
 13
364.6012229651
 23
30.6680782357
  0
SOLID
  8
0
 62
7
  6
CONTINUOUS
 10
364.890285024
 20
30.7648681127
 11
364.9480979651
 21
30.6035511455
 12
364.6012229651
 22
30.6680782357
 13
364.6012229651
 23
30.6680782357
  0
SOLID
  8
0
 62
7
  6
CONTINUOUS
 10
364.6590352445
 20
30.5712868422
 11
364.6012229651
 21
30.6680782357
 12
364.9480979651
 22
30.6035511455
 13
364.9480979651
 23
30.6035511455
  0
SOLID
  8
0
 62
7
  6
CONTINUOUS
 10
364.6590352445
 20
30.5712868422
 11
364.9480979651
 21
30.6035511455
 12
364.716847524
 22
30.5067598731
 13
364.716847524
 23
30.5067598731
  0
SOLID
  8
0
 62
7
  6
CONTINUOUS
 10
364.9480979651
 20
30.6035511455
 11
365.0059102445
 21
30.5067598731
 12
364.716847524
 22
30.5067598731
 13
364.716847524
 23
30.5067598731
  0
SOLID
  8
0
 62
7
  6
CONTINUOUS
 10
360.2652852997
 20
30.7326051679
 11
360.3230977445
 21
30.8293966612
 12
360.6121602997
 22
30.8293966612
 13
360.6121602997
 23
30.8293966612
  0
SOLID
  8
0
 62
7
  6
CONTINUOUS
 10
360.6121602997
 20
30.8293966612
 11
360.5543476894
 21
30.7003410226
 12
360.2652852997
 22
30.7326051679
 13
360.2652852997
 23
30.7326051679
  0
SOLID
  8
0
 62
7
  6
CONTINUOUS
 10
360.091847717
 20
30.6680782357
 11
360.2652852997
 21
30.7326051679
 12
360.5543476894
 22
30.7003410226
 13
360.5543476894
 23
30.7003410226
  0
SOLID
  8
0
 62
7
  6
CONTINUOUS
 10
360.091847717
 20
30.6680782357
 11
360.5543476894
 21
30.7003410226
 12
359.6871602721
 22
30.6358139324
 13
359.6871602721
 23
30.6358139324
  0
SOLID
  8
0
 62
7
  6
CONTINUOUS
 10
360.5543476894
 20
30.7003410226
 11
360.3809101894
 21
30.6035511455
 12
359.6871602721
 22
30.6358139324
 13
359.6871602721
 23
30.6358139324
  0
SOLID
  8
0
 62
7
  6
CONTINUOUS
 10
359.2246602583
 20
30.5712868422
 11
359.6871602721
 21
30.6358139324
 12
360.3809101894
 22
30.6035511455
 13
360.3809101894
 23
30.6035511455
  0
SOLID
  8
0
 62
7
  6
CONTINUOUS
 10
359.2246602583
 20
30.5712868422
 11
360.3809101894
 21
30.6035511455
 12
359.3980977583
 22
30.5390224228
 13
359.3980977583
 23
30.5390224228
  0
SOLID
  8
0
 62
7
  6
CONTINUOUS
 10
360.3809101894
 20
30.6035511455
 11
360.1496602445
 21
30.5390224228
 12
359.3980977583
 22
30.5390224228
 13
359.3980977583
 23
30.5390224228
  0
SOLID
  8
0
 62
7
  6
CONTINUOUS
 10
359.744972717
 20
30.5067597521
 11
359.3980977583
 21
30.5390224228
 12
360.1496602445
 22
30.5390224228
 13
360.1496602445
 23
30.5390224228
  0
SOLID
  8
0
 62
7
  6
CONTINUOUS
 10
363.2137226343
 20
30.6680782357
 11
363.4449727445
 21
30.7648681127
 12
363.5027853548
 22
30.7003410226
 13
363.5027853548
 23
30.7003410226
  0
SOLID
  8
0
 62
7
  6
CONTINUOUS
 10
363.5027853548
 20
30.7003410226
 11
363.7340351343
 21
30.6358139324
 12
363.2137226343
 22
30.6680782357
 13
363.2137226343
 23
30.6680782357
  0
SOLID
  8
0
 62
7
  6
CONTINUOUS
 10
363.3871601343
 20
30.5712868422
 11
363.2137226343
 21
30.6680782357
 12
363.7340351343
 22
30.6358139324
 13
363.7340351343
 23
30.6358139324
  0
SOLID
  8
0
 62
7
  6
CONTINUOUS
 10
364.0809101343
 20
30.6358139363
 11
364.369972524
 21
30.7003410226
 12
364.6012229651
 22
30.6680782357
 13
364.6012229651
 23
30.6680782357
  0
SOLID
  8
0
 62
7
  6
CONTINUOUS
 10
364.6012229651
 20
30.6680782357
 11
364.543410024
 21
30.6035511455
 12
364.0809101343
 22
30.6358139363
 13
364.0809101343
 23
30.6358139363
  0
SOLID
  8
0
 62
7
  6
CONTINUOUS
 10
364.543410024
 20
30.6035511455
 11
363.3871601343
 21
30.5712868422
 12
364.0809101343
 22
30.6358139363
 13
364.0809101343
 23
30.6358139363
  0
SOLID
  8
0
 62
7
  6
CONTINUOUS
 10
363.3871601343
 20
30.5712868422
 11
363.7340351343
 21
30.6358139363
 12
364.0809101343
 22
30.6358139363
 13
364.0809101343
 23
30.6358139363
  0
SOLID
  8
0
 62
7
  6
CONTINUOUS
 10
363.3871601343
 20
30.5712868422
 11
364.543410024
 21
30.6035511455
 12
363.5027853548
 22
30.5390225267
 13
363.5027853548
 23
30.5390225267
  0
SOLID
  8
0
 62
7
  6
CONTINUOUS
 10
364.543410024
 20
30.6035511455
 11
364.369972524
 21
30.5390225267
 12
363.5027853548
 22
30.5390225267
 13
363.5027853548
 23
30.5390225267
  0
SOLID
  8
0
 62
7
  6
CONTINUOUS
 10
363.7340351343
 20
30.5067596914
 11
363.5027853548
 21
30.5390225267
 12
364.369972524
 22
30.5390225267
 13
364.369972524
 23
30.5390225267
  0
SOLID
  8
0
 62
7
  6
CONTINUOUS
 10
364.369972524
 20
30.5390225267
 11
364.0809101343
 21
30.5067596914
 12
363.7340351343
 22
30.5067596914
 13
363.7340351343
 23
30.5067596914
  0
SOLID
  8
0
 62
7
  6
CONTINUOUS
 10
368.7637229651
 20
30.6680782357
 11
368.4168479651
 21
30.6358138717
 12
368.6480977445
 22
30.7003410226
 13
368.6480977445
 23
30.7003410226
  0
SOLID
  8
0
 62
7
  6
CONTINUOUS
 10
368.6480977445
 20
30.7003410226
 11
368.4168479651
 21
30.6358138717
 12
368.5902854651
 22
30.7648680521
 13
368.5902854651
 23
30.7648680521
  0
SOLID
  8
0
 62
7
  6
CONTINUOUS
 10
368.4168479651
 20
30.6358138717
 11
368.3012227445
 21
30.7648680521
 12
368.5902854651
 22
30.7648680521
 13
368.5902854651
 23
30.7648680521
  0
SOLID
  8
0
 62
7
  6
CONTINUOUS
 10
368.7637229651
 20
30.6680782357
 11
369.1105979651
 21
30.6358138717
 12
368.4168479651
 22
30.6358138717
 13
368.4168479651
 23
30.6358138717
  0
SOLID
  8
0
 62
7
  6
CONTINUOUS
 10
365.4684104651
 20
30.5067597521
 11
365.4684104651
 21
31.5391977439
 12
365.757472524
 22
30.5067597521
 13
365.757472524
 23
31.5391977439
  0
ENDBLK
  8
0
  6
BYBLOCK
 62
0
  0
BLOCK
  8
0
 62
2
  6
CONTINUOUS
  2
SYMBOL_0_BL0
 70
64
 10
240.8592468615
 20
19.762288695
  0
TEXT
  8
0
 62
7
  6
CONTINUOUS
 10
227.1239507038
 20
19.1357028027
  7
TEXTSTYLE_3
 40
2.7338706658
  1
Ammeraal Beltech
 41
1.0
 51
15.0
 72
0
  0
TEXT
  8
0
 62
7
  6
CONTINUOUS
 10
237.9247515296
 20
16.8621661299
  7
TEXTSTYLE_4
 40
1.0935482663
  1
Innovation & Service in Belting
 41
1.0
 72
0
  0
LINE
  8
0
 62
7
  6
CONTINUOUS
 10
221.0994100525
 20
19.9022961113
 11
221.8775620458
 21
23.5632134089
  0
LINE
  8
0
 62
7
  6
CONTINUOUS
 10
231.9727303357
 20
27.2266073205
 11
222.3653797889
 21
24.1049898993
  0
LINE
  8
0
 62
7
  6
CONTINUOUS
 10
221.3246933848
 20
19.2089453082
 11
228.8317686459
 21
12.4495443822
  0
LINE
  8
0
 62
7
  6
CONTINUOUS
 10
221.5872277955
 20
20.4440726016
 11
232.3954971607
 21
23.9558922005
  0
LINE
  8
0
 62
7
  6
CONTINUOUS
 10
232.3912920235
 20
13.6061036368
 11
223.9458323548
 21
21.2104296785
  0
LINE
  8
0
 62
7
  6
CONTINUOUS
 10
232.9111147433
 20
26.3816822048
 11
231.9345552061
 21
21.7873308023
  0
LINE
  8
0
 62
7
  6
CONTINUOUS
 10
231.2347532584
 20
18.4950214885
 11
230.5483050469
 21
15.2655365641
  0
LINE
  8
0
 62
7
  6
CONTINUOUS
 10
233.5922108419
 20
13.9963058145
 11
234.5484423775
 21
18.4950214885
  0
LINE
  8
0
 62
7
  6
CONTINUOUS
 10
235.2482443252
 20
21.7873308023
 11
235.6924861276
 21
23.8773241617
  0
LINE
  8
0
 62
7
  6
CONTINUOUS
 10
229.5448697213
 20
12.2979700695
 11
233.1043930989
 21
13.4545293241
  0
LINE
  8
0
 62
7
  6
CONTINUOUS
 10
232.685831411
 20
27.0750330078
 11
235.4672027953
 21
24.5706749648
  0
ARC
  8
0
 62
7
  6
CONTINUOUS
 10
222.5906631212
 20
23.4116390962
 40
0.7290321776
 50
108.0
 51
168.0
  0
ARC
  8
0
 62
7
  6
CONTINUOUS
 10
232.198013668
 20
26.5332565175
 40
0.7290321776
 50
348.0
 51
108.0
  0
ARC
  8
0
 62
7
  6
CONTINUOUS
 10
234.9793850522
 20
24.0288984744
 40
0.7290321776
 50
348.0
 51
48.0
  0
ARC
  8
0
 62
7
  6
CONTINUOUS
 10
229.319586389
 20
12.9913208726
 40
0.7290321776
 50
228.0
 51
288.0
  0
ARC
  8
0
 62
7
  6
CONTINUOUS
 10
221.8125111278
 20
19.7507217986
 40
0.7290321776
 50
108.0
 51
228.0
  0
ARC
  8
0
 62
7
  6
CONTINUOUS
 10
232.8791097665
 20
14.1478801272
 40
0.7290321776
 50
228.0
 51
348.0
  0
ENDBLK
  8
0
  6
BYBLOCK
 62
0
  0
ENDSEC
  0
SECTION
  2
ENTITIES
  0
TEXT
  8
0
 62
5
  6
CONTINUOUS
 10
304.937007874
 20
25.636
  7
TEXTSTYLE_2
 40
2.8
  1
Scale :
 41
0.6
 51
0.000019
 72
0
  0
TEXT
  8
0
 62
5
  6
CONTINUOUS
 10
324.937007874
 20
25.636
  7
TEXTSTYLE_2
 40
2.8
  1
Belt type:
 41
0.6
 51
0.000019
 72
0
  0
INSERT
  8
0
 62
2
  6
CONTINUOUS
  2
SYMBOL_0_BL0
 10
240.8592468615
 20
19.762288695
  0
INSERT
  8
0
 62
2
  6
CONTINUOUS
  2
SYMBOL_5_BL1
 10
382.7840918555
 20
35.5067593403
  0
LINE
  8
0
 62
2
  6
CONTINUOUS
 10
218.937007874
 20
30.0
 11
408.937007874
 21
30.0
  0
LINE
  8
0
 62
2
  6
CONTINUOUS
 10
218.937007874
 20
30.0
 11
218.937007874
 21
10.0
  0
LINE
  8
0
 62
2
  6
CONTINUOUS
 10
218.937007874
 20
10.0
 11
408.937007874
 21
10.0
  0
LINE
  8
0
 62
2
  6
CONTINUOUS
 10
303.937007874
 20
30.0
 11
303.937007874
 21
10.0
  0
LINE
  8
0
 62
2
  6
CONTINUOUS
 10
323.937007874
 20
30.0
 11
323.937007874
 21
10.0
  0
LINE
  8
0
 62
2
  6
CONTINUOUS
 10
408.937007874
 20
30.0
 11
408.937007874
 21
10.0
  0
TEXT
  8
0
 62
5
  6
CONTINUOUS
 10
221.937007874
 20
23.303
  7
TEXTSTYLE_5
 40
1.52
  1
                                                                     Ammeraal Beltech Modular A/S
 41
1.0
 72
0
  0
TEXT
  8
0
 62
5
  6
CONTINUOUS
 10
221.937007874
 20
20.595
  7
TEXTSTYLE_5
 40
1.5
  1
                                                                      Hjulmagervej 21, 7100 Vejle,  DK
 41
1.0
 72
0
  0
TEXT
  8
0
 62
5
  6
CONTINUOUS
 10
221.937007874
 20
17.881
  7
TEXTSTYLE_5
 40
1.495
  1
                                                                      tel: 
 41
1.0
 72
0
  0
TEXT
  8
0
 62
5
  6
CONTINUOUS
 10
266.9239544389
 20
17.881
  7
TEXTSTYLE_5
 40
1.51
  1
+45 75723100     fax: +45 75723348
 41
1.0
 72
0
  0
TEXT
  8
0
 62
5
  6
CONTINUOUS
 10
221.937007874
 20
15.177
  7
TEXTSTYLE_5
 40
1.5
  1
                                                                      admin@unichains.dk  www.unichains.com
 41
1.0
 72
0
  0
TEXT
  8
0
 62
5
  6
CONTINUOUS
 10
308.687007874
 20
13.75
  7
TEXTSTYLE_6
 40
5.0
  1
1:1
 41
0.7
 72
1
 11
313.937007874
 21
13.75
  0
TEXT
  8
0
 62
5
  6
CONTINUOUS
 10
326.937007874
 20
13.75
  7
TEXTSTYLE_7
 40
7.5
  1
uni Flex ASB-43 K600
 41
0.49875
 72
0
  0
LINE
  8
0
 62
7
  6
CONTINUOUS
 10
0.0
 20
0.0
 11
0.0
 21
297.0
  0
LINE
  8
0
 62
7
  6
CONTINUOUS
 10
8.937007874
 20
10.0
 11
8.937007874
 21
287.0
  0
LINE
  8
0
 62
7
  6
CONTINUOUS
 10
0.0
 20
0.0
 11
420.0
 21
0.0
  0
LINE
  8
0
 62
7
  6
CONTINUOUS
 10
408.937007874
 20
10.0
 11
8.937007874
 21
10.0
  0
LINE
  8
0
 62
7
  6
CONTINUOUS
 10
218.937007874
 20
30.0
 11
408.937007874
 21
30.0
  0
LINE
  8
0
 62
7
  6
CONTINUOUS
 10
210.0
 20
297.0
 11
210.0
 21
292.0
  0
LINE
  8
0
 62
7
  6
CONTINUOUS
 10
210.0
 20
0.0
 11
210.0
 21
5.0
  0
LINE
  8
0
 62
7
  6
CONTINUOUS
 10
8.937007874
 20
287.0
 11
408.937007874
 21
287.0
  0
LINE
  8
0
 62
7
  6
CONTINUOUS
 10
0.0
 20
297.0
 11
420.0
 21
297.0
  0
LINE
  8
0
 62
7
  6
CONTINUOUS
 10
408.937007874
 20
287.0
 11
408.937007874
 21
10.0
  0
LINE
  8
0
 62
7
  6
CONTINUOUS
 10
420.0
 20
0.0
 11
420.0
 21
297.0
  0
LINE
  8
0
 62
7
  6
CONTINUOUS
 10
176.0404953212
 20
116.4145547985
 11
177.0404953212
 21
116.4145547985
  0
LINE
  8
0
 62
7
  6
CONTINUOUS
 10
189.7944953212
 20
116.4145547985
 11
190.7944953212
 21
116.4145547985
  0
LINE
  8
0
 62
7
  6
CONTINUOUS
 10
204.2944953212
 20
116.4145547985
 11
205.2944953212
 21
116.4145547985
  0
LINE
  8
0
 62
7
  6
CONTINUOUS
 10
219.9194953212
 20
116.4145547985
 11
220.9194953212
 21
116.4145547985
  0
LINE
  8
DEFAULT_1
 62
2
  6
CENTER
 10
82.2444953212
 20
120.7645547985
 11
225.4194809581
 21
120.7645547985
  0
LINE
  8
0
 62
7
  6
CONTINUOUS
 10
77.8944953212
 20
149.7645547985
 11
77.8944953212
 21
145.5130172732
  0
LINE
  8
0
 62
7
  6
CONTINUOUS
 10
78.6484953212
 20
133.6805547985
 11
78.6484953212
 21
142.4522765063
  0
LINE
  8
0
 62
7
  6
CONTINUOUS
 10
83.8899121237
 20
145.4762211654
 11
83.1557726463
 21
142.5749301992
  0
LINE
  8
0
 62
7
  6
CONTINUOUS
 10
172.2904953212
 20
132.6805547985
 11
167.6944953212
 21
132.6805547985
  0
LINE
  8
0
 62
7
  6
CONTINUOUS
 10
159.1944953212
 20
132.6805547985
 11
154.9944953212
 21
132.6805547985
  0
LINE
  8
0
 62
7
  6
CONTINUOUS
 10
146.4944953212
 20
132.6805547985
 11
142.2944953212
 21
132.6805547985
  0
LINE
  8
0
 62
7
  6
CONTINUOUS
 10
133.7944953212
 20
132.6805547985
 11
129.5944953212
 21
132.6805547985
  0
LINE
  8
0
 62
7
  6
CONTINUOUS
 10
121.0944953212
 20
132.6805547985
 11
116.8944953212
 21
132.6805547985
  0
LINE
  8
0
 62
7
  6
CONTINUOUS
 10
108.3944953212
 20
132.6805547985
 11
104.1944953212
 21
132.6805547985
  0
LINE
  8
0
 62
7
  6
CONTINUOUS
 10
95.6944953212
 20
132.6805547985
 11
91.4944953212
 21
132.6805547985
  0
LINE
  8
0
 62
7
  6
CONTINUOUS
 10
82.9944953212
 20
132.6805547985
 11
79.6484953212
 21
132.6805547985
  0
LINE
  8
0
 62
7
  6
CONTINUOUS
 10
185.3444953212
 20
133.0145547985
 11
181.4904953212
 21
133.0145547985
  0
LINE
  8
0
 62
7
  6
CONTINUOUS
 10
195.2444953212
 20
133.0145547985
 11
199.8444953212
 21
133.0145547985
  0
LINE
  8
0
 62
7
  6
CONTINUOUS
 10
210.0444953212
 20
133.1645547985
 11
214.1694953212
 21
133.1645547985
  0
LINE
  8
0
 62
7
  6
CONTINUOUS
 10
219.0444953212
 20
133.7145547985
 11
220.7944953212
 21
133.7145547985
  0
LINE
  8
0
 62
7
  6
CONTINUOUS
 10
205.5444953212
 20
133.8145547985
 11
204.0444953212
 21
133.8145547985
  0
LINE
  8
0
 62
7
  6
CONTINUOUS
 10
191.1944953212
 20
133.9645547985
 11
189.3944953212
 21
133.9645547985
  0
LINE
  8
0
 62
7
  6
CONTINUOUS
 10
177.1904953212
 20
133.9645547985
 11
175.8904953212
 21
133.9645547985
  0
LINE
  8
0
 62
7
  6
CONTINUOUS
 10
78.6332179962
 20
142.5749301992
 11
77.8990785187
 21
145.4762211654
  0
LINE
  8
0
 62
7
  6
CONTINUOUS
 10
83.1404953212
 20
142.4522765063
 11
83.1404953212
 21
138.2685547985
  0
LINE
  8
0
 62
7
  6
CONTINUOUS
 10
83.8944953212
 20
145.5130172732
 11
83.8944953212
 21
149.7645547985
  0
LINE
  8
0
 62
7
  6
CONTINUOUS
 10
84.2444953212
 20
117.9650650557
 11
84.2444953212
 21
121.4389569325
  0
LINE
  8
0
 62
7
  6
CONTINUOUS
 10
84.9944953212
 20
124.4838898533
 11
84.9944953212
 21
130.6805547985
  0
LINE
  8
0
 62
7
  6
CONTINUOUS
 10
89.4944953212
 20
130.6805547985
 11
89.4944953212
 21
124.4838898533
  0
LINE
  8
0
 62
7
  6
CONTINUOUS
 10
90.2444953212
 20
117.9650650557
 11
90.2444953212
 21
121.4389569325
  0
LINE
  8
0
 62
7
  6
CONTINUOUS
 10
90.5944953212
 20
149.7645547985
 11
90.5944953212
 21
145.5130172732
  0
LINE
  8
0
 62
7
  6
CONTINUOUS
 10
91.3484953212
 20
138.2685547985
 11
91.3484953212
 21
142.4522765063
  0
LINE
  8
0
 62
7
  6
CONTINUOUS
 10
95.8404953212
 20
142.4522765063
 11
95.8404953212
 21
138.2685547985
  0
LINE
  8
0
 62
7
  6
CONTINUOUS
 10
96.5944953212
 20
145.5130172732
 11
96.5944953212
 21
149.7645547985
  0
LINE
  8
0
 62
7
  6
CONTINUOUS
 10
84.2490785187
 20
121.4757530404
 11
84.9792179962
 21
124.3612361604
  0
LINE
  8
0
 62
7
  6
CONTINUOUS
 10
96.5899121237
 20
145.4762211654
 11
95.8557726463
 21
142.5749301992
  0
LINE
  8
AXES
 62
2
  6
CENTER
 10
75.8944953212
 20
146.1645547985
 11
230.7944953212
 21
146.1645547985
  0
LINE
  8
0
 62
7
  6
CONTINUOUS
 10
89.5097726463
 20
124.3612361604
 11
90.2399121237
 21
121.4757530404
  0
LINE
  8
0
 62
7
  6
CONTINUOUS
 10
91.3332179962
 20
142.5749301992
 11
90.5990785187
 21
145.4762211654
  0
LINE
  8
0
 62
7
  6
CONTINUOUS
 10
96.9444953212
 20
117.9650650557
 11
96.9444953212
 21
121.4389569325
  0
LINE
  8
0
 62
7
  6
CONTINUOUS
 10
97.6944953212
 20
124.4838898533
 11
97.6944953212
 21
130.6805547985
  0
LINE
  8
0
 62
7
  6
CONTINUOUS
 10
102.1944953212
 20
130.6805547985
 11
102.1944953212
 21
124.4838898533
  0
LINE
  8
0
 62
7
  6
CONTINUOUS
 10
102.9444953212
 20
117.9650650557
 11
102.9444953212
 21
121.4389569325
  0
LINE
  8
0
 62
7
  6
CONTINUOUS
 10
103.2944953212
 20
149.7645547985
 11
103.2944953212
 21
145.5130172732
  0
LINE
  8
0
 62
7
  6
CONTINUOUS
 10
104.0484953212
 20
138.2685547985
 11
104.0484953212
 21
142.4522765063
  0
LINE
  8
0
 62
7
  6
CONTINUOUS
 10
108.5404953212
 20
142.4522765063
 11
108.5404953212
 21
138.2685547985
  0
LINE
  8
0
 62
7
  6
CONTINUOUS
 10
109.2944953212
 20
145.5130172732
 11
109.2944953212
 21
149.7645547985
  0
LINE
  8
0
 62
7
  6
CONTINUOUS
 10
109.6444953212
 20
117.9650650557
 11
109.6444953212
 21
121.4389569325
  0
LINE
  8
0
 62
7
  6
CONTINUOUS
 10
110.3944953212
 20
124.4838898533
 11
110.3944953212
 21
130.6805547985
  0
LINE
  8
0
 62
7
  6
CONTINUOUS
 10
96.9490785187
 20
121.4757530404
 11
97.6792179962
 21
124.3612361604
  0
LINE
  8
0
 62
7
  6
CONTINUOUS
 10
109.2899121237
 20
145.4762211654
 11
108.5557726463
 21
142.5749301992
  0
LINE
  8
0
 62
7
  6
CONTINUOUS
 10
78.6444953212
 20
150.5145547985
 11
83.1444953212
 21
150.5145547985
  0
LINE
  8
0
 62
7
  6
CONTINUOUS
 10
91.3444953212
 20
150.5145547985
 11
95.8444953212
 21
150.5145547985
  0
LINE
  8
0
 62
7
  6
CONTINUOUS
 10
104.0444953212
 20
150.5145547985
 11
108.5444953212
 21
150.5145547985
  0
LINE
  8
0
 62
7
  6
CONTINUOUS
 10
116.7444953212
 20
150.5145547985
 11
121.2444953212
 21
150.5145547985
  0
LINE
  8
0
 62
7
  6
CONTINUOUS
 10
129.4444953212
 20
150.5145547985
 11
133.9444953212
 21
150.5145547985
  0
LINE
  8
0
 62
7
  6
CONTINUOUS
 10
142.1444953212
 20
150.5145547985
 11
146.6444953212
 21
150.5145547985
  0
LINE
  8
0
 62
7
  6
CONTINUOUS
 10
154.8444953212
 20
150.5145547985
 11
159.3444953212
 21
150.5145547985
  0
LINE
  8
0
 62
7
  6
CONTINUOUS
 10
167.5444953212
 20
150.5145547985
 11
172.0444953212
 21
150.5145547985
  0
LINE
  8
0
 62
7
  6
CONTINUOUS
 10
181.0364953212
 20
150.5145547985
 11
185.5484953212
 21
150.5145547985
  0
LINE
  8
0
 62
7
  6
CONTINUOUS
 10
195.0404953212
 20
150.5145547985
 11
199.5484953212
 21
150.5145547985
  0
LINE
  8
0
 62
7
  6
CONTINUOUS
 10
210.0404953212
 20
150.5145547985
 11
214.5484953212
 21
150.5145547985
  0
LINE
  8
0
 62
7
  6
CONTINUOUS
 10
102.2097726463
 20
124.3612361604
 11
102.9399121237
 21
121.4757530404
  0
LINE
  8
0
 62
7
  6
CONTINUOUS
 10
104.0332179962
 20
142.5749301992
 11
103.2990785187
 21
145.4762211654
  0
LINE
  8
0
 62
7
  6
CONTINUOUS
 10
114.8944953212
 20
130.6805547985
 11
114.8944953212
 21
124.4838898533
  0
LINE
  8
0
 62
7
  6
CONTINUOUS
 10
115.6444953212
 20
117.9650650557
 11
115.6444953212
 21
121.4389569325
  0
LINE
  8
0
 62
7
  6
CONTINUOUS
 10
115.9944953212
 20
149.7645547985
 11
115.9944953212
 21
145.5130172732
  0
LINE
  8
0
 62
7
  6
CONTINUOUS
 10
116.7484953212
 20
138.2685547985
 11
116.7484953212
 21
142.4522765063
  0
LINE
  8
0
 62
7
  6
CONTINUOUS
 10
121.2404953212
 20
142.4522765063
 11
121.2404953212
 21
138.2685547985
  0
LINE
  8
0
 62
7
  6
CONTINUOUS
 10
121.9944953212
 20
145.5130172732
 11
121.9944953212
 21
149.7645547985
  0
LINE
  8
0
 62
7
  6
CONTINUOUS
 10
122.3444953212
 20
117.9650650557
 11
122.3444953212
 21
121.4389569325
  0
LINE
  8
0
 62
7
  6
CONTINUOUS
 10
123.0944953212
 20
124.4838898533
 11
123.0944953212
 21
130.6805547985
  0
LINE
  8
0
 62
7
  6
CONTINUOUS
 10
109.6490785187
 20
121.4757530404
 11
110.3792179962
 21
124.3612361604
  0
LINE
  8
0
 62
7
  6
CONTINUOUS
 10
121.9899121237
 20
145.4762211654
 11
121.2557726463
 21
142.5749301992
  0
LINE
  8
0
 62
7
  6
CONTINUOUS
 10
122.3490785187
 20
121.4757530404
 11
123.0792179962
 21
124.3612361604
  0
LINE
  8
0
 62
7
  6
CONTINUOUS
 10
227.4530190342
 20
150.813180963
 11
225.640006744
 21
150.1651248737
  0
LINE
  8
0
 62
7
  6
CONTINUOUS
 10
114.9097726463
 20
124.3612361604
 11
115.6399121237
 21
121.4757530404
  0
LINE
  8
0
 62
7
  6
CONTINUOUS
 10
116.7332179962
 20
142.5749301992
 11
115.9990785187
 21
145.4762211654
  0
LINE
  8
0
 62
7
  6
CONTINUOUS
 10
127.6097726463
 20
124.3612361604
 11
128.3399121237
 21
121.4757530404
  0
LINE
  8
0
 62
7
  6
CONTINUOUS
 10
127.5944953212
 20
130.6805547985
 11
127.5944953212
 21
124.4838898533
  0
LINE
  8
0
 62
7
  6
CONTINUOUS
 10
128.3444953212
 20
117.9650650557
 11
128.3444953212
 21
121.4389569325
  0
LINE
  8
0
 62
7
  6
CONTINUOUS
 10
128.6944953212
 20
149.7645547985
 11
128.6944953212
 21
145.5130172732
  0
LINE
  8
0
 62
7
  6
CONTINUOUS
 10
129.4484953212
 20
138.2685547985
 11
129.4484953212
 21
142.4522765063
  0
LINE
  8
0
 62
7
  6
CONTINUOUS
 10
133.9404953212
 20
142.4522765063
 11
133.9404953212
 21
138.2685547985
  0
LINE
  8
0
 62
7
  6
CONTINUOUS
 10
134.6944953212
 20
145.5130172732
 11
134.6944953212
 21
149.7645547985
  0
LINE
  8
0
 62
7
  6
CONTINUOUS
 10
135.0444953212
 20
117.9650650557
 11
135.0444953212
 21
121.4389569325
  0
LINE
  8
0
 62
7
  6
CONTINUOUS
 10
135.7944953212
 20
124.4838898533
 11
135.7944953212
 21
130.6805547985
  0
LINE
  8
0
 62
7
  6
CONTINUOUS
 10
134.6899121237
 20
145.4762211654
 11
133.9557726463
 21
142.5749301992
  0
LINE
  8
0
 62
7
  6
CONTINUOUS
 10
135.0490785187
 20
121.4757530404
 11
135.7792179962
 21
124.3612361604
  0
LINE
  8
0
 62
7
  6
CONTINUOUS
 10
228.804248883
 20
134.1831468667
 11
226.6499522806
 21
133.4130996701
  0
LINE
  8
0
 62
7
  6
CONTINUOUS
 10
129.4332179962
 20
142.5749301992
 11
128.6990785187
 21
145.4762211654
  0
LINE
  8
0
 62
7
  6
CONTINUOUS
 10
140.3097726463
 20
124.3612361604
 11
141.0399121237
 21
121.4757530404
  0
LINE
  8
0
 62
7
  6
CONTINUOUS
 10
140.2944953212
 20
130.6805547985
 11
140.2944953212
 21
124.4838898533
  0
LINE
  8
0
 62
7
  6
CONTINUOUS
 10
141.0444953212
 20
117.9650650557
 11
141.0444953212
 21
121.4389569325
  0
LINE
  8
0
 62
7
  6
CONTINUOUS
 10
141.3944953212
 20
149.7645547985
 11
141.3944953212
 21
145.5130172732
  0
LINE
  8
0
 62
7
  6
CONTINUOUS
 10
142.1484953212
 20
138.2685547985
 11
142.1484953212
 21
142.4522765063
  0
LINE
  8
0
 62
7
  6
CONTINUOUS
 10
146.6404953212
 20
142.4522765063
 11
146.6404953212
 21
138.2685547985
  0
LINE
  8
0
 62
7
  6
CONTINUOUS
 10
147.3944953212
 20
145.5130172732
 11
147.3944953212
 21
149.7645547985
  0
LINE
  8
0
 62
7
  6
CONTINUOUS
 10
147.7444953212
 20
117.9650650557
 11
147.7444953212
 21
121.4389569325
  0
LINE
  8
0
 62
7
  6
CONTINUOUS
 10
148.4944953212
 20
124.4838898533
 11
148.4944953212
 21
130.6805547985
  0
LINE
  8
0
 62
7
  6
CONTINUOUS
 10
152.9944953212
 20
130.6805547985
 11
152.9944953212
 21
124.4838898533
  0
LINE
  8
0
 62
7
  6
CONTINUOUS
 10
147.3899121237
 20
145.4762211654
 11
146.6557726463
 21
142.5749301992
  0
LINE
  8
0
 62
7
  6
CONTINUOUS
 10
147.7490785187
 20
121.4757530404
 11
148.4792179962
 21
124.3612361604
  0
LINE
  8
0
 62
7
  6
CONTINUOUS
 10
142.1332179962
 20
142.5749301992
 11
141.3990785187
 21
145.4762211654
  0
LINE
  8
0
 62
7
  6
CONTINUOUS
 10
153.0097726463
 20
124.3612361604
 11
153.7399121237
 21
121.4757530404
  0
LINE
  8
0
 62
7
  6
CONTINUOUS
 10
153.7444953212
 20
117.9650650557
 11
153.7444953212
 21
121.4389569325
  0
LINE
  8
0
 62
7
  6
CONTINUOUS
 10
154.0944953212
 20
149.7645547985
 11
154.0944953212
 21
145.5130172732
  0
LINE
  8
0
 62
7
  6
CONTINUOUS
 10
154.8484953212
 20
138.2685547985
 11
154.8484953212
 21
142.4522765063
  0
LINE
  8
0
 62
7
  6
CONTINUOUS
 10
159.3404953212
 20
142.4522765063
 11
159.3404953212
 21
138.2685547985
  0
LINE
  8
0
 62
7
  6
CONTINUOUS
 10
160.0944953212
 20
145.5130172732
 11
160.0944953212
 21
149.7645547985
  0
LINE
  8
0
 62
7
  6
CONTINUOUS
 10
160.4444953212
 20
117.9650650557
 11
160.4444953212
 21
121.4389569325
  0
LINE
  8
0
 62
7
  6
CONTINUOUS
 10
161.1944953212
 20
124.4838898533
 11
161.1944953212
 21
130.6805547985
  0
LINE
  8
0
 62
7
  6
CONTINUOUS
 10
165.6944953212
 20
130.6805547985
 11
165.6944953212
 21
124.4838898533
  0
LINE
  8
0
 62
7
  6
CONTINUOUS
 10
166.4444953212
 20
117.9650650557
 11
166.4444953212
 21
121.4389569325
  0
LINE
  8
0
 62
7
  6
CONTINUOUS
 10
166.7944953212
 20
149.7645547985
 11
166.7944953212
 21
145.5130172732
  0
LINE
  8
0
 62
7
  6
CONTINUOUS
 10
160.0899121237
 20
145.4762211654
 11
159.3557726463
 21
142.5749301992
  0
LINE
  8
0
 62
7
  6
CONTINUOUS
 10
160.4490785187
 20
121.4757530404
 11
161.1792179962
 21
124.3612361604
  0
LINE
  8
0
 62
7
  6
CONTINUOUS
 10
172.0557726463
 20
142.5749301992
 11
172.7899121237
 21
145.4762211654
  0
LINE
  8
0
 62
7
  6
CONTINUOUS
 10
154.8332179962
 20
142.5749301992
 11
154.0990785187
 21
145.4762211654
  0
LINE
  8
0
 62
7
  6
CONTINUOUS
 10
165.7097726463
 20
124.3612361604
 11
166.4399121237
 21
121.4757530404
  0
LINE
  8
0
 62
7
  6
CONTINUOUS
 10
167.5484953212
 20
138.2685547985
 11
167.5484953212
 21
142.4522765063
  0
LINE
  8
0
 62
7
  6
CONTINUOUS
 10
172.0404953212
 20
137.8145547985
 11
172.0404953212
 21
142.4522765063
  0
LINE
  8
0
 62
7
  6
CONTINUOUS
 10
172.7944953212
 20
145.5130172732
 11
172.7944953212
 21
149.7645547985
  0
LINE
  8
0
 62
7
  6
CONTINUOUS
 10
173.5405096844
 20
117.4443329462
 11
173.5405096844
 21
121.4389569325
  0
LINE
  8
0
 62
7
  6
CONTINUOUS
 10
174.2904953212
 20
124.4838330907
 11
174.2904953212
 21
130.6805547985
  0
LINE
  8
0
 62
7
  6
CONTINUOUS
 10
178.7904953212
 20
130.3145547985
 11
178.7904953212
 21
124.4838330907
  0
LINE
  8
0
 62
7
  6
CONTINUOUS
 10
179.5404809581
 20
117.4443329462
 11
179.5404809581
 21
121.4389569325
  0
LINE
  8
0
 62
7
  6
CONTINUOUS
 10
180.2864953212
 20
149.7645547985
 11
180.2864953212
 21
145.5130172732
  0
LINE
  8
0
 62
7
  6
CONTINUOUS
 10
181.0404953212
 20
142.4522765063
 11
181.0404953212
 21
137.8145547985
  0
LINE
  8
0
 62
7
  6
CONTINUOUS
 10
173.5450928819
 20
121.4757530404
 11
174.2752179962
 21
124.3611793977
  0
LINE
  8
0
 62
7
  6
CONTINUOUS
 10
185.5597726463
 20
142.5749301992
 11
186.2939121237
 21
145.4762211654
  0
LINE
  8
0
 62
7
  6
CONTINUOUS
 10
167.5332179962
 20
142.5749301992
 11
166.7990785187
 21
145.4762211654
  0
LINE
  8
0
 62
7
  6
CONTINUOUS
 10
178.8057726463
 20
124.3611793977
 11
179.5358977605
 21
121.4757530404
  0
LINE
  8
0
 62
7
  6
CONTINUOUS
 10
180.2910785187
 20
145.4762211654
 11
181.0252179962
 21
142.5749301992
  0
LINE
  8
0
 62
7
  6
CONTINUOUS
 10
185.5444953212
 20
137.8145547985
 11
185.5444953212
 21
142.4522765063
  0
LINE
  8
0
 62
7
  6
CONTINUOUS
 10
186.2984953212
 20
145.5130172732
 11
186.2984953212
 21
149.7645547985
  0
LINE
  8
0
 62
7
  6
CONTINUOUS
 10
187.2945096844
 20
117.4504448908
 11
187.2945096844
 21
121.4389569325
  0
LINE
  8
0
 62
7
  6
CONTINUOUS
 10
188.0444953212
 20
124.4838330907
 11
188.0444953212
 21
130.3145547985
  0
LINE
  8
0
 62
7
  6
CONTINUOUS
 10
192.5444953212
 20
124.4838330907
 11
192.5444953212
 21
130.3145547985
  0
LINE
  8
0
 62
7
  6
CONTINUOUS
 10
193.2944809581
 20
117.4504448908
 11
193.2944809581
 21
121.4389569325
  0
LINE
  8
0
 62
7
  6
CONTINUOUS
 10
194.2904953212
 20
149.7645547985
 11
194.2904953212
 21
145.5130172732
  0
LINE
  8
0
 62
7
  6
CONTINUOUS
 10
195.0444953212
 20
142.4522765063
 11
195.0444953212
 21
137.8145547985
  0
LINE
  8
0
 62
7
  6
CONTINUOUS
 10
187.2990928819
 20
121.4757530404
 11
188.0292179962
 21
124.3611793977
  0
LINE
  8
0
 62
7
  6
CONTINUOUS
 10
199.5597726463
 20
142.5749301992
 11
200.2939121237
 21
145.4762211654
  0
LINE
  8
0
 62
7
  6
CONTINUOUS
 10
193.2898977605
 20
121.4757530404
 11
192.5597726463
 21
124.3611793977
  0
LINE
  8
0
 62
7
  6
CONTINUOUS
 10
194.2950785187
 20
145.4762211654
 11
195.0292179962
 21
142.5749301992
  0
LINE
  8
0
 62
7
  6
CONTINUOUS
 10
199.5444953212
 20
138.3145547985
 11
199.5444953212
 21
142.4522765063
  0
LINE
  8
0
 62
7
  6
CONTINUOUS
 10
200.2984953212
 20
145.5130172732
 11
200.2984953212
 21
149.7645547985
  0
LINE
  8
0
 62
7
  6
CONTINUOUS
 10
201.7945096844
 20
117.4504448908
 11
201.7945096844
 21
121.4389569325
  0
LINE
  8
0
 62
7
  6
CONTINUOUS
 10
202.5444953212
 20
130.3145547985
 11
202.5444953212
 21
124.4838330907
  0
LINE
  8
0
 62
7
  6
CONTINUOUS
 10
207.0444953212
 20
124.4838330907
 11
207.0444953212
 21
130.1645547985
  0
LINE
  8
0
 62
7
  6
CONTINUOUS
 10
207.7944809581
 20
117.4504448908
 11
207.7944809581
 21
121.4389569325
  0
LINE
  8
0
 62
7
  6
CONTINUOUS
 10
209.2904953212
 20
149.7645547985
 11
209.2904953212
 21
145.5130172732
  0
LINE
  8
0
 62
7
  6
CONTINUOUS
 10
202.5292179962
 20
124.3611793977
 11
201.7990928819
 21
121.4757530404
  0
LINE
  8
0
 62
7
  6
CONTINUOUS
 10
215.2939127727
 20
145.4764433997
 11
214.559770483
 21
142.5749261277
  0
LINE
  8
0
 62
7
  6
CONTINUOUS
 10
207.7898977605
 20
121.4757530404
 11
207.0597726463
 21
124.3611793977
  0
LINE
  8
0
 62
7
  6
CONTINUOUS
 10
209.2950785187
 20
145.4762211654
 11
210.0292179962
 21
142.5749301992
  0
LINE
  8
0
 62
7
  6
CONTINUOUS
 10
210.0444953212
 20
142.4522765063
 11
210.0444953212
 21
138.3145547985
  0
LINE
  8
0
 62
7
  6
CONTINUOUS
 10
214.5444953212
 20
142.4522809841
 11
214.5444953212
 21
138.2145547985
  0
LINE
  8
0
 62
7
  6
CONTINUOUS
 10
215.2984953212
 20
145.5132369428
 11
215.2984953212
 21
149.7645547985
  0
LINE
  8
0
 62
7
  6
CONTINUOUS
 10
217.4195096844
 20
117.4504448908
 11
217.4195096844
 21
121.4389569325
  0
LINE
  8
0
 62
7
  6
CONTINUOUS
 10
218.1694953212
 20
129.1645547985
 11
218.1694953212
 21
124.4838330907
  0
LINE
  8
0
 62
7
  6
CONTINUOUS
 10
222.6694953212
 20
124.4838330907
 11
222.6694953212
 21
127.7631929535
  0
LINE
  8
0
 62
7
  6
CONTINUOUS
 10
223.4194809581
 20
117.4504448908
 11
223.4194809581
 21
121.4389569325
  0
LINE
  8
0
 62
7
  6
CONTINUOUS
 10
218.1542179962
 20
124.3611793977
 11
217.4240928819
 21
121.4757530404
  0
LINE
  8
0
 62
7
  6
CONTINUOUS
 10
223.4148977605
 20
121.4757530404
 11
222.6847726463
 21
124.3611793977
  0
LINE
  8
0
 62
7
  6
CONTINUOUS
 10
225.5404953212
 20
150.0238772062
 11
225.5404953212
 21
136.4760727372
  0
LINE
  8
0
 62
7
  6
CONTINUOUS
 10
230.7944953212
 20
148.4590309595
 11
230.7944953212
 21
137.0081278327
  0
LINE
  8
SURFACE
 62
7
  6
CONTINUOUS
 10
310.9910166787
 20
116.4145547985
 11
306.9910166787
 21
116.4145547985
  0
POLYLINE
  8
0
 62
7
  6
CONTINUOUS
 66
1
 70
0
  0
VERTEX
  8
0
 62
7
  6
CONTINUOUS
 10
303.4097151699
 20
148.5146349786
  0
VERTEX
  8
0
 62
7
  6
CONTINUOUS
 10
303.2903446155
 20
148.1872826608
  0
VERTEX
  8
0
 62
7
  6
CONTINUOUS
 10
303.1820993119
 20
147.8208414025
  0
VERTEX
  8
0
 62
7
  6
CONTINUOUS
 10
303.0976172773
 20
147.4469215924
  0
VERTEX
  8
0
 62
7
  6
CONTINUOUS
 10
303.0881462984
 20
147.3872152688
  0
SEQEND
  0
LINE
  8
DEFAULT_1
 62
2
  6
CENTER
 10
314.2410166787
 20
120.7645547985
 11
310.9911166787
 21
120.7645547985
  0
LINE
  8
0
 62
2
  6
CONTINUOUS
 10
310.0410166787
 20
120.7645547985
 11
307.9410166787
 21
120.7645547985
  0
LINE
  8
DEFAULT_1
 62
2
  6
CENTER
 10
303.7410166787
 20
120.7645547985
 11
306.9909166787
 21
120.7645547985
  0
LINE
  8
0
 62
7
  6
CONTINUOUS
 10
302.9910166787
 20
120.4145547985
 11
302.9910166787
 21
146.5145547985
  0
LINE
  8
AXES
 62
7
  6
CONTINUOUS
 10
306.8910166787
 20
120.7645547985
 11
306.8910166787
 21
128.8145547985
  0
LINE
  8
AXES
 62
2
  6
CENTER
 10
308.9910166787
 20
151.4145547985
 11
308.9910166787
 21
150.2645547985
  0
LINE
  8
AXES
 62
2
  6
CONTINUOUS
 10
308.9910166787
 20
147.2145547985
 11
308.9910166787
 21
145.1145547985
  0
LINE
  8
DEFAULT_1
 62
2
  6
CENTER
 10
308.9910166787
 20
126.0145547985
 11
308.9910166787
 21
122.7646547985
  0
LINE
  8
0
 62
2
  6
CONTINUOUS
 10
308.9910166787
 20
121.8145547985
 11
308.9910166787
 21
119.7145547985
  0
LINE
  8
DEFAULT_1
 62
2
  6
CENTER
 10
308.9910166787
 20
115.5145547985
 11
308.9910166787
 21
118.7644547985
  0
LINE
  8
AXES
 62
2
  6
CENTER
 10
308.9910166787
 20
140.9145547985
 11
308.9910166787
 21
142.0645547985
  0
LINE
  8
0
 62
7
  6
CONTINUOUS
 10
314.8410166787
 20
132.6805547985
 11
308.9910166787
 21
132.6805547985
  0
LINE
  8
AXES
 62
7
  6
CONTINUOUS
 10
311.0910166787
 20
120.7645547985
 11
311.0910166787
 21
128.8145547985
  0
LINE
  8
0
 62
7
  6
CONTINUOUS
 10
314.9910166787
 20
120.4145547985
 11
314.9910166787
 21
146.5145547985
  0
POLYLINE
  8
0
 62
7
  6
CONTINUOUS
 66
1
 70
0
  0
VERTEX
  8
0
 62
7
  6
CONTINUOUS
 10
314.2458060952
 20
148.8372953064
  0
VERTEX
  8
0
 62
7
  6
CONTINUOUS
 10
314.2433539754
 20
148.8454902505
  0
VERTEX
  8
0
 62
7
  6
CONTINUOUS
 10
314.1817353792
 20
149.0458672861
  0
VERTEX
  8
0
 62
7
  6
CONTINUOUS
 10
314.1181493791
 20
149.2473381722
  0
VERTEX
  8
0
 62
7
  6
CONTINUOUS
 10
314.0586722223
 20
149.4313826359
  0
SEQEND
  0
LINE
  8
AXES
 62
2
  6
CENTER
 10
314.2410166787
 20
146.1645547985
 11
313.0910166787
 21
146.1645547985
  0
LINE
  8
AXES
 62
2
  6
CONTINUOUS
 10
310.0410166787
 20
146.1645547985
 11
307.9410166787
 21
146.1645547985
  0
LINE
  8
AXES
 62
2
  6
CENTER
 10
303.7410166787
 20
146.1645547985
 11
304.8910166787
 21
146.1645547985
  0
LINE
  8
0
 62
7
  6
CONTINUOUS
 10
314.0406110527
 20
149.4684295045
 11
314.035690236
 21
149.4753270413
  0
POLYLINE
  8
0
 62
7
  6
CONTINUOUS
 66
1
 70
0
  0
VERTEX
  8
0
 62
7
  6
CONTINUOUS
 10
314.0586723102
 20
149.431381298
  0
VERTEX
  8
0
 62
7
  6
CONTINUOUS
 10
314.0509348184
 20
149.4504987781
  0
VERTEX
  8
0
 62
7
  6
CONTINUOUS
 10
314.0406110527
 20
149.4684295045
  0
SEQEND
  0
POLYLINE
  8
0
 62
7
  6
CONTINUOUS
 66
1
 70
0
  0
VERTEX
  8
0
 62
7
  6
CONTINUOUS
 10
314.0356903106
 20
149.4753267002
  0
VERTEX
  8
0
 62
7
  6
CONTINUOUS
 10
313.9059562314
 20
149.6372386549
  0
VERTEX
  8
0
 62
7
  6
CONTINUOUS
 10
313.7433735057
 20
149.8166330964
  0
VERTEX
  8
0
 62
7
  6
CONTINUOUS
 10
313.5658600568
 20
149.9878478871
  0
VERTEX
  8
0
 62
7
  6
CONTINUOUS
 10
313.37283409
 20
150.1497987682
  0
VERTEX
  8
0
 62
7
  6
CONTINUOUS
 10
313.1637199081
 20
150.3013136301
  0
VERTEX
  8
0
 62
7
  6
CONTINUOUS
 10
312.9379468829
 20
150.4411255567
  0
VERTEX
  8
0
 62
7
  6
CONTINUOUS
 10
312.6949350969
 20
150.5678686481
  0
VERTEX
  8
0
 62
7
  6
CONTINUOUS
 10
312.4339692604
 20
150.6801042194
  0
VERTEX
  8
0
 62
7
  6
CONTINUOUS
 10
312.1540335867
 20
150.7762958648
  0
VERTEX
  8
0
 62
7
  6
CONTINUOUS
 10
311.8540326633
 20
150.8546232062
  0
VERTEX
  8
0
 62
7
  6
CONTINUOUS
 10
311.5322600202
 20
150.913008265
  0
VERTEX
  8
0
 62
7
  6
CONTINUOUS
 10
311.1863589593
 20
150.9488471511
  0
VERTEX
  8
0
 62
7
  6
CONTINUOUS
 10
310.8711247292
 20
150.9590547916
  0
SEQEND
  0
POLYLINE
  8
0
 62
7
  6
CONTINUOUS
 66
1
 70
0
  0
VERTEX
  8
0
 62
7
  6
CONTINUOUS
 10
307.1110616454
 20
150.9590541873
  0
VERTEX
  8
0
 62
7
  6
CONTINUOUS
 10
306.874619667
 20
150.9533524258
  0
VERTEX
  8
0
 62
7
  6
CONTINUOUS
 10
306.5470824601
 20
150.9258078263
  0
VERTEX
  8
0
 62
7
  6
CONTINUOUS
 10
306.2381213128
 20
150.8774622328
  0
VERTEX
  8
0
 62
7
  6
CONTINUOUS
 10
305.9471175179
 20
150.8103114587
  0
VERTEX
  8
0
 62
7
  6
CONTINUOUS
 10
305.6726726317
 20
150.7258423994
  0
VERTEX
  8
0
 62
7
  6
CONTINUOUS
 10
305.4134681152
 20
150.6251108363
  0
VERTEX
  8
0
 62
7
  6
CONTINUOUS
 10
305.1690636598
 20
150.5091694729
  0
VERTEX
  8
0
 62
7
  6
CONTINUOUS
 10
304.939814053
 20
150.3793892846
  0
VERTEX
  8
0
 62
7
  6
CONTINUOUS
 10
304.7260623249
 20
150.2372878174
  0
VERTEX
  8
0
 62
7
  6
CONTINUOUS
 10
304.5280744597
 20
150.0845335958
  0
VERTEX
  8
0
 62
7
  6
CONTINUOUS
 10
304.3459582323
 20
149.9229019733
  0
VERTEX
  8
0
 62
7
  6
CONTINUOUS
 10
304.1796763348
 20
149.7542782174
  0
VERTEX
  8
0
 62
7
  6
CONTINUOUS
 10
304.0289472231
 20
149.5805307505
  0
VERTEX
  8
0
 62
7
  6
CONTINUOUS
 10
303.892904826
 20
149.4029515465
  0
VERTEX
  8
0
 62
7
  6
CONTINUOUS
 10
303.7705494806
 20
149.2225388546
  0
VERTEX
  8
0
 62
7
  6
CONTINUOUS
 10
303.6609035327
 20
149.0401401418
  0
VERTEX
  8
0
 62
7
  6
CONTINUOUS
 10
303.563017485
 20
148.8564559153
  0
VERTEX
  8
0
 62
7
  6
CONTINUOUS
 10
303.4759673051
 20
148.6720150163
  0
VERTEX
  8
0
 62
7
  6
CONTINUOUS
 10
303.4097155863
 20
148.5146348125
  0
SEQEND
  0
LINE
  8
0
 62
7
  6
CONTINUOUS
 10
306.9910166787
 20
150.5145547985
 11
310.9910166787
 21
150.5145547985
  0
LINE
  8
0
 62
7
  6
CONTINUOUS
 10
310.8702347023
 20
150.9590531716
 11
307.1102599992
 21
150.9590531649
  0
LINE
  8
0
 62
7
  6
CONTINUOUS
 10
310.8722162851
 20
150.9590531182
 11
310.8711455944
 21
150.959053156
  0
POLYLINE
  8
AXES
 62
7
  6
CONTINUOUS
 66
1
 70
0
  0
VERTEX
  8
AXES
 62
7
  6
CONTINUOUS
 10
201.6763265605
 20
203.2173608288
  0
VERTEX
  8
AXES
 62
7
  6
CONTINUOUS
 10
201.543787541
 20
203.1829502146
  0
VERTEX
  8
AXES
 62
7
  6
CONTINUOUS
 10
201.4101694256
 20
203.1374429923
  0
VERTEX
  8
AXES
 62
7
  6
CONTINUOUS
 10
201.2775269145
 20
203.0824086458
  0
VERTEX
  8
AXES
 62
7
  6
CONTINUOUS
 10
201.1481466741
 20
203.0201599737
  0
VERTEX
  8
AXES
 62
7
  6
CONTINUOUS
 10
201.0241832151
 20
202.9533849366
  0
VERTEX
  8
AXES
 62
7
  6
CONTINUOUS
 10
200.9092859662
 20
202.885890975
  0
VERTEX
  8
AXES
 62
7
  6
CONTINUOUS
 10
200.8066370709
 20
202.8214555671
  0
VERTEX
  8
AXES
 62
7
  6
CONTINUOUS
 10
200.7185632837
 20
202.7632861773
  0
VERTEX
  8
AXES
 62
7
  6
CONTINUOUS
 10
200.6460788627
 20
202.7134919505
  0
VERTEX
  8
AXES
 62
7
  6
CONTINUOUS
 10
200.5886997771
 20
202.6728110458
  0
VERTEX
  8
AXES
 62
7
  6
CONTINUOUS
 10
200.5455988292
 20
202.6413959139
  0
VERTEX
  8
AXES
 62
7
  6
CONTINUOUS
 10
200.5157943875
 20
202.6190149073
  0
VERTEX
  8
AXES
 62
7
  6
CONTINUOUS
 10
200.4989437793
 20
202.6057127732
  0
VERTEX
  8
AXES
 62
7
  6
CONTINUOUS
 10
200.4944953264
 20
202.6014242953
  0
SEQEND
  0
POLYLINE
  8
0
 62
7
  6
CONTINUOUS
 66
1
 70
0
  0
VERTEX
  8
0
 62
7
  6
CONTINUOUS
 10
201.0468069732
 20
198.7555081495
  0
VERTEX
  8
0
 62
7
  6
CONTINUOUS
 10
200.8613252738
 20
198.7233998448
  0
VERTEX
  8
0
 62
7
  6
CONTINUOUS
 10
200.7890528598
 20
198.7117665397
  0
VERTEX
  8
0
 62
7
  6
CONTINUOUS
 10
200.7300701098
 20
198.704100979
  0
VERTEX
  8
0
 62
7
  6
CONTINUOUS
 10
200.6854498675
 20
198.7013408304
  0
SEQEND
  0
LINE
  8
AXES
 62
7
  6
CONTINUOUS
 10
77.8944953212
 20
209.9513408304
 11
77.8944953212
 21
206.6977122521
  0
LINE
  8
AXES
 62
7
  6
CONTINUOUS
 10
77.8944953212
 20
202.7049694088
 11
77.8944953212
 21
199.4513408304
  0
LINE
  8
AXES
 62
7
  6
CONTINUOUS
 10
77.8944953212
 20
202.7173557475
 11
77.8944953212
 21
206.6853259134
  0
LINE
  8
0
 62
7
  6
CONTINUOUS
 10
78.6484953212
 20
210.5513408304
 11
78.6484953212
 21
198.8513408304
  0
POLYLINE
  8
AXES
 62
7
  6
CONTINUOUS
 66
1
 70
0
  0
VERTEX
  8
AXES
 62
7
  6
CONTINUOUS
 10
78.2562850247
 20
204.7013408304
  0
VERTEX
  8
AXES
 62
7
  6
CONTINUOUS
 10
78.2535449789
 20
204.4883556737
  0
VERTEX
  8
AXES
 62
7
  6
CONTINUOUS
 10
78.2453442788
 20
204.2773978678
  0
VERTEX
  8
AXES
 62
7
  6
CONTINUOUS
 10
78.2317418454
 20
204.0704955533
  0
VERTEX
  8
AXES
 62
7
  6
CONTINUOUS
 10
78.2128380665
 20
203.8696787371
  0
VERTEX
  8
AXES
 62
7
  6
CONTINUOUS
 10
78.1887776905
 20
203.6769737822
  0
VERTEX
  8
AXES
 62
7
  6
CONTINUOUS
 10
78.1597535357
 20
203.4943946776
  0
VERTEX
  8
AXES
 62
7
  6
CONTINUOUS
 10
78.1260105064
 20
203.3239275281
  0
VERTEX
  8
AXES
 62
7
  6
CONTINUOUS
 10
78.0878490526
 20
203.1675066822
  0
VERTEX
  8
AXES
 62
7
  6
CONTINUOUS
 10
78.0456279073
 20
203.026985398
  0
VERTEX
  8
AXES
 62
7
  6
CONTINUOUS
 10
77.9997653593
 20
202.9041002677
  0
VERTEX
  8
AXES
 62
7
  6
CONTINUOUS
 10
77.9507382484
 20
202.8004305225
  0
VERTEX
  8
AXES
 62
7
  6
CONTINUOUS
 10
77.8990785187
 20
202.7173557475
  0
SEQEND
  0
POLYLINE
  8
AXES
 62
7
  6
CONTINUOUS
 66
1
 70
0
  0
VERTEX
  8
AXES
 62
7
  6
CONTINUOUS
 10
77.8990785187
 20
202.7173557475
  0
VERTEX
  8
AXES
 62
7
  6
CONTINUOUS
 10
77.8956445791
 20
202.711113192
  0
VERTEX
  8
AXES
 62
7
  6
CONTINUOUS
 10
77.8944953212
 20
202.7049694088
  0
SEQEND
  0
POLYLINE
  8
0
 62
7
  6
CONTINUOUS
 66
1
 70
0
  0
VERTEX
  8
0
 62
7
  6
CONTINUOUS
 10
201.9716594966
 20
198.8442185403
  0
VERTEX
  8
0
 62
7
  6
CONTINUOUS
 10
201.8280035525
 20
198.8413498609
  0
VERTEX
  8
0
 62
7
  6
CONTINUOUS
 10
201.6854769964
 20
198.8342368367
  0
VERTEX
  8
0
 62
7
  6
CONTINUOUS
 10
201.5452623172
 20
198.8231994059
  0
VERTEX
  8
0
 62
7
  6
CONTINUOUS
 10
201.4091388993
 20
198.8088225046
  0
VERTEX
  8
0
 62
7
  6
CONTINUOUS
 10
201.279336996
 20
198.7919941925
  0
VERTEX
  8
0
 62
7
  6
CONTINUOUS
 10
201.157930369
 20
198.773814121
  0
VERTEX
  8
0
 62
7
  6
CONTINUOUS
 10
201.0468069732
 20
198.7555081495
  0
SEQEND
  0
LINE
  8
SURFACE
 62
7
  6
CONTINUOUS
 10
165.6944953212
 20
198.7013408304
 11
161.1944953212
 21
198.7013408304
  0
LINE
  8
SURFACE
 62
7
  6
CONTINUOUS
 10
152.9944953212
 20
198.7013408304
 11
148.4944953212
 21
198.7013408304
  0
LINE
  8
SURFACE
 62
7
  6
CONTINUOUS
 10
102.1944953212
 20
198.7013408304
 11
97.6944953212
 21
198.7013408304
  0
LINE
  8
SURFACE
 62
7
  6
CONTINUOUS
 10
89.4944953212
 20
198.7013408304
 11
84.9944953212
 21
198.7013408304
  0
LINE
  8
0
 62
7
  6
CONTINUOUS
 10
78.6444864068
 20
198.7013408304
 11
230.6444953212
 21
198.7013408304
  0
LINE
  8
AXES
 62
2
  6
CENTER
 10
75.8944953212
 20
204.7013408304
 11
230.7944953212
 21
204.7013408304
  0
POLYLINE
  8
0
 62
7
  6
CONTINUOUS
 66
1
 70
0
  0
VERTEX
  8
0
 62
7
  6
CONTINUOUS
 10
208.903540775
 20
198.7013408304
  0
VERTEX
  8
0
 62
7
  6
CONTINUOUS
 10
208.8598473311
 20
198.7040058523
  0
VERTEX
  8
0
 62
7
  6
CONTINUOUS
 10
208.8015990942
 20
198.7115195261
  0
VERTEX
  8
0
 62
7
  6
CONTINUOUS
 10
208.7285407336
 20
198.7232517873
  0
SEQEND
  0
POLYLINE
  8
AXES
 62
7
  6
CONTINUOUS
 66
1
 70
0
  0
VERTEX
  8
AXES
 62
7
  6
CONTINUOUS
 10
77.8990785187
 20
206.6853259134
  0
VERTEX
  8
AXES
 62
7
  6
CONTINUOUS
 10
77.9507382323
 20
206.6022511683
  0
VERTEX
  8
AXES
 62
7
  6
CONTINUOUS
 10
77.9997653776
 20
206.4985813496
  0
VERTEX
  8
AXES
 62
7
  6
CONTINUOUS
 10
78.0456279779
 20
206.3756960518
  0
VERTEX
  8
AXES
 62
7
  6
CONTINUOUS
 10
78.0878491826
 20
206.2351744982
  0
VERTEX
  8
AXES
 62
7
  6
CONTINUOUS
 10
78.1260106896
 20
206.0787532995
  0
VERTEX
  8
AXES
 62
7
  6
CONTINUOUS
 10
78.1597537514
 20
205.9082857695
  0
VERTEX
  8
AXES
 62
7
  6
CONTINUOUS
 10
78.1887779113
 20
205.7257063174
  0
VERTEX
  8
AXES
 62
7
  6
CONTINUOUS
 10
78.2128382617
 20
205.5330011348
  0
VERTEX
  8
AXES
 62
7
  6
CONTINUOUS
 10
78.2317419893
 20
205.3321843019
  0
VERTEX
  8
AXES
 62
7
  6
CONTINUOUS
 10
78.2453443595
 20
205.1252822456
  0
VERTEX
  8
AXES
 62
7
  6
CONTINUOUS
 10
78.2535450034
 20
204.9143250354
  0
VERTEX
  8
AXES
 62
7
  6
CONTINUOUS
 10
78.2562850247
 20
204.7013408304
  0
SEQEND
  0
POLYLINE
  8
AXES
 62
7
  6
CONTINUOUS
 66
1
 70
0
  0
VERTEX
  8
AXES
 62
7
  6
CONTINUOUS
 10
77.8944953212
 20
206.6977122521
  0
VERTEX
  8
AXES
 62
7
  6
CONTINUOUS
 10
77.8956445791
 20
206.6915684689
  0
VERTEX
  8
AXES
 62
7
  6
CONTINUOUS
 10
77.8990785187
 20
206.6853259134
  0
SEQEND
  0
LINE
  8
0
 62
7
  6
CONTINUOUS
 10
84.2444953212
 20
199.4513408304
 11
84.2444953212
 21
209.9513408304
  0
LINE
  8
0
 62
7
  6
CONTINUOUS
 10
90.2444953212
 20
199.4513408304
 11
90.2444953212
 21
209.9513408304
  0
LINE
  8
0
 62
7
  6
CONTINUOUS
 10
78.6444854154
 20
210.7013408304
 11
226.4772831196
 21
210.7013408304
  0
LINE
  8
0
 62
7
  6
CONTINUOUS
 10
96.9444953212
 20
199.4513408304
 11
96.9444953212
 21
209.9513408304
  0
LINE
  8
0
 62
7
  6
CONTINUOUS
 10
102.9444953212
 20
199.4513408304
 11
102.9444953212
 21
209.9513408304
  0
LINE
  8
0
 62
7
  6
CONTINUOUS
 10
109.6444953212
 20
199.4513408304
 11
109.6444953212
 21
209.9513408304
  0
POLYLINE
  8
0
 62
7
  6
CONTINUOUS
 66
1
 70
0
  0
VERTEX
  8
0
 62
7
  6
CONTINUOUS
 10
208.7285407336
 20
198.7232517873
  0
VERTEX
  8
0
 62
7
  6
CONTINUOUS
 10
208.541228539
 20
198.7556707412
  0
VERTEX
  8
0
 62
7
  6
CONTINUOUS
 10
208.4294544686
 20
198.7740681705
  0
VERTEX
  8
0
 62
7
  6
CONTINUOUS
 10
208.3078647601
 20
198.7922453736
  0
VERTEX
  8
0
 62
7
  6
CONTINUOUS
 10
208.1783990736
 20
198.8089941518
  0
VERTEX
  8
0
 62
7
  6
CONTINUOUS
 10
208.0431525339
 20
198.8232527072
  0
VERTEX
  8
0
 62
7
  6
CONTINUOUS
 10
207.9038535873
 20
198.8342148637
  0
VERTEX
  8
0
 62
7
  6
CONTINUOUS
 10
207.761539447
 20
198.8413304428
  0
VERTEX
  8
0
 62
7
  6
CONTINUOUS
 10
207.6169876625
 20
198.8442250065
  0
SEQEND
  0
LINE
  8
0
 62
7
  6
CONTINUOUS
 10
115.6444953212
 20
199.4513408304
 11
115.6444953212
 21
209.9513408304
  0
LINE
  8
0
 62
7
  6
CONTINUOUS
 10
122.3444953212
 20
199.4513408304
 11
122.3444953212
 21
209.9513408304
  0
LINE
  8
0
 62
7
  6
CONTINUOUS
 10
230.6784723454
 20
209.7283229178
 11
226.5112601438
 21
210.6974420345
  0
POLYLINE
  8
AXES
 62
7
  6
CONTINUOUS
 66
1
 70
0
  0
VERTEX
  8
AXES
 62
7
  6
CONTINUOUS
 10
207.912664082
 20
203.2173608288
  0
VERTEX
  8
AXES
 62
7
  6
CONTINUOUS
 10
207.8876118051
 20
203.225196976
  0
VERTEX
  8
AXES
 62
7
  6
CONTINUOUS
 10
207.863887731
 20
203.2377390801
  0
VERTEX
  8
AXES
 62
7
  6
CONTINUOUS
 10
207.8425391256
 20
203.2548828836
  0
VERTEX
  8
AXES
 62
7
  6
CONTINUOUS
 10
207.8236619114
 20
203.2774619239
  0
VERTEX
  8
AXES
 62
7
  6
CONTINUOUS
 10
207.8084486348
 20
203.305825227
  0
VERTEX
  8
AXES
 62
7
  6
CONTINUOUS
 10
207.7982812866
 20
203.3399054047
  0
VERTEX
  8
AXES
 62
7
  6
CONTINUOUS
 10
207.7944809581
 20
203.3803216181
  0
SEQEND
  0
LINE
  8
0
 62
7
  6
CONTINUOUS
 10
128.3444953212
 20
199.4513408304
 11
128.3444953212
 21
209.9513408304
  0
LINE
  8
0
 62
7
  6
CONTINUOUS
 10
135.0444953212
 20
199.4513408304
 11
135.0444953212
 21
209.9513408304
  0
LINE
  8
0
 62
7
  6
CONTINUOUS
 10
141.0444953212
 20
199.4513408304
 11
141.0444953212
 21
209.9513408304
  0
LINE
  8
0
 62
7
  6
CONTINUOUS
 10
147.7444953212
 20
199.4513408304
 11
147.7444953212
 21
209.9513408304
  0
LINE
  8
0
 62
7
  6
CONTINUOUS
 10
153.7444953212
 20
199.4513408304
 11
153.7444953212
 21
209.9513408304
  0
LINE
  8
0
 62
7
  6
CONTINUOUS
 10
160.4444953212
 20
199.4513408304
 11
160.4444953212
 21
209.9513408304
  0
LINE
  8
0
 62
7
  6
CONTINUOUS
 10
166.4444953212
 20
199.4513408304
 11
166.4444953212
 21
209.9513408304
  0
LINE
  8
0
 62
7
  6
CONTINUOUS
 10
173.5405096844
 20
199.4513408304
 11
173.5405096844
 21
209.9513408304
  0
POLYLINE
  8
AXES
 62
7
  6
CONTINUOUS
 66
1
 70
0
  0
VERTEX
  8
AXES
 62
7
  6
CONTINUOUS
 10
209.094495316
 20
202.6014242746
  0
VERTEX
  8
AXES
 62
7
  6
CONTINUOUS
 10
209.09004778
 20
202.6057120054
  0
VERTEX
  8
AXES
 62
7
  6
CONTINUOUS
 10
209.0731998499
 20
202.6190121517
  0
VERTEX
  8
AXES
 62
7
  6
CONTINUOUS
 10
209.0434051457
 20
202.6413860531
  0
VERTEX
  8
AXES
 62
7
  6
CONTINUOUS
 10
209.0003181833
 20
202.6727913903
  0
VERTEX
  8
AXES
 62
7
  6
CONTINUOUS
 10
208.9429563471
 20
202.7134607987
  0
VERTEX
  8
AXES
 62
7
  6
CONTINUOUS
 10
208.8705001193
 20
202.7632370592
  0
VERTEX
  8
AXES
 62
7
  6
CONTINUOUS
 10
208.7824591555
 20
202.8213873923
  0
VERTEX
  8
AXES
 62
7
  6
CONTINUOUS
 10
208.6798240691
 20
202.8858182253
  0
VERTEX
  8
AXES
 62
7
  6
CONTINUOUS
 10
208.5649209011
 20
202.9533208419
  0
VERTEX
  8
AXES
 62
7
  6
CONTINUOUS
 10
208.4409407894
 20
203.0201104423
  0
VERTEX
  8
AXES
 62
7
  6
CONTINUOUS
 10
208.3115398118
 20
203.082374438
  0
VERTEX
  8
AXES
 62
7
  6
CONTINUOUS
 10
208.1788563897
 20
203.1374296599
  0
VERTEX
  8
AXES
 62
7
  6
CONTINUOUS
 10
208.0452126169
 20
203.1829473506
  0
VERTEX
  8
AXES
 62
7
  6
CONTINUOUS
 10
207.912664082
 20
203.2173608288
  0
SEQEND
  0
LINE
  8
0
 62
7
  6
CONTINUOUS
 10
179.5404809581
 20
199.4513408304
 11
179.5404809581
 21
209.9513408304
  0
LINE
  8
0
 62
7
  6
CONTINUOUS
 10
187.2945096844
 20
199.4513408304
 11
187.2945096844
 21
209.9513408304
  0
LINE
  8
0
 62
7
  6
CONTINUOUS
 10
193.2944809581
 20
199.4513408304
 11
193.2944809581
 21
209.9513408304
  0
LINE
  8
0
 62
7
  6
CONTINUOUS
 10
200.4944953212
 20
202.6019859103
 11
200.4944953212
 21
198.8513408304
  0
LINE
  8
0
 62
7
  6
CONTINUOUS
 10
201.7945096844
 20
199.715080326
 11
201.7945096844
 21
209.9513408304
  0
POLYLINE
  8
AXES
 62
7
  6
CONTINUOUS
 66
1
 70
0
  0
VERTEX
  8
AXES
 62
7
  6
CONTINUOUS
 10
201.7945096844
 20
203.3803216181
  0
VERTEX
  8
AXES
 62
7
  6
CONTINUOUS
 10
201.7907093558
 20
203.3399054047
  0
VERTEX
  8
AXES
 62
7
  6
CONTINUOUS
 10
201.7805420076
 20
203.305825227
  0
VERTEX
  8
AXES
 62
7
  6
CONTINUOUS
 10
201.765328731
 20
203.2774619239
  0
VERTEX
  8
AXES
 62
7
  6
CONTINUOUS
 10
201.7464515169
 20
203.2548828836
  0
VERTEX
  8
AXES
 62
7
  6
CONTINUOUS
 10
201.7251029115
 20
203.2377390801
  0
VERTEX
  8
AXES
 62
7
  6
CONTINUOUS
 10
201.7013788373
 20
203.225196976
  0
VERTEX
  8
AXES
 62
7
  6
CONTINUOUS
 10
201.6763265605
 20
203.2173608288
  0
SEQEND
  0
LINE
  8
0
 62
7
  6
CONTINUOUS
 10
207.7944809581
 20
199.715080518
 11
207.7944809581
 21
209.9513408304
  0
LINE
  8
0
 62
7
  6
CONTINUOUS
 10
209.0944953212
 20
202.6019858538
 11
209.0944953212
 21
198.8513408304
  0
LINE
  8
0
 62
7
  6
CONTINUOUS
 10
217.4195096844
 20
199.4513408304
 11
217.4195096844
 21
209.9513408304
  0
POLYLINE
  8
AXES
 62
7
  6
CONTINUOUS
 66
1
 70
0
  0
VERTEX
  8
AXES
 62
7
  6
CONTINUOUS
 10
223.4194809581
 20
205.6843301404
  0
VERTEX
  8
AXES
 62
7
  6
CONTINUOUS
 10
223.451527793
 20
205.5730447104
  0
VERTEX
  8
AXES
 62
7
  6
CONTINUOUS
 10
223.4955515609
 20
205.3815651828
  0
VERTEX
  8
AXES
 62
7
  6
CONTINUOUS
 10
223.5288773745
 20
205.1879924281
  0
VERTEX
  8
AXES
 62
7
  6
CONTINUOUS
 10
223.5511669146
 20
204.9935767458
  0
VERTEX
  8
AXES
 62
7
  6
CONTINUOUS
 10
223.5623346202
 20
204.7985116342
  0
VERTEX
  8
AXES
 62
7
  6
CONTINUOUS
 10
223.5623246455
 20
204.6038214214
  0
VERTEX
  8
AXES
 62
7
  6
CONTINUOUS
 10
223.5511361799
 20
204.408747595
  0
VERTEX
  8
AXES
 62
7
  6
CONTINUOUS
 10
223.5288281961
 20
204.2143463838
  0
VERTEX
  8
AXES
 62
7
  6
CONTINUOUS
 10
223.4954821735
 20
204.0207714292
  0
VERTEX
  8
AXES
 62
7
  6
CONTINUOUS
 10
223.4514419991
 20
203.829305752
  0
VERTEX
  8
AXES
 62
7
  6
CONTINUOUS
 10
223.4194809581
 20
203.7183570685
  0
SEQEND
  0
LINE
  8
0
 62
7
  6
CONTINUOUS
 10
223.4194809581
 20
199.4513408304
 11
223.4194809581
 21
209.9513408304
  0
LINE
  8
0
 62
7
  6
CONTINUOUS
 10
230.7944953212
 20
198.8513408304
 11
230.7944953212
 21
209.5822217138
  0
ARC
  8
0
 62
7
  6
CONTINUOUS
 10
87.2444953212
 20
120.4145547985
 40
4.0
 50
224.4153085972
 51
315.5846914028
  0
ARC
  8
0
 62
7
  6
CONTINUOUS
 10
97.4444955282
 20
117.965064758
 40
0.5000000086
 50
179.9999658822
 51
224.4152676244
  0
ARC
  8
0
 62
7
  6
CONTINUOUS
 10
84.7444955282
 20
117.965064758
 40
0.5000000086
 50
179.9999658822
 51
224.4152676244
  0
ARC
  8
0
 62
7
  6
CONTINUOUS
 10
89.7444953212
 20
117.9650650557
 40
0.5
 50
315.5846914028
 51
360.0
  0
ARC
  8
AXES
 62
7
  6
CONTINUOUS
 10
89.9944953212
 20
124.4838898533
 40
0.5
 50
186.3116101259
 51
187.8883898741
  0
ARC
  8
0
 62
7
  6
CONTINUOUS
 10
89.9944953212
 20
124.4838898533
 40
0.5
 50
180.0
 51
194.2
  0
ARC
  8
0
 62
7
  6
CONTINUOUS
 10
84.4944953212
 20
124.4838898533
 40
0.5
 50
345.8
 51
360.0
  0
ARC
  8
0
 62
7
  6
CONTINUOUS
 10
97.1944953212
 20
124.4838898533
 40
0.5
 50
345.8
 51
360.0
  0
ARC
  8
0
 62
7
  6
CONTINUOUS
 10
90.0944953212
 20
121.4389569325
 40
0.15
 50
0.0
 51
14.2
  0
ARC
  8
AXES
 62
7
  6
CONTINUOUS
 10
90.0944953212
 20
121.4389569325
 40
0.15
 50
0.0
 51
14.2
  0
ARC
  8
0
 62
7
  6
CONTINUOUS
 10
97.0944954442
 20
121.4389574187
 40
0.15
 50
165.8001915619
 51
180.0001857066
  0
ARC
  8
AXES
 62
7
  6
CONTINUOUS
 10
97.0944953212
 20
121.4389569325
 40
0.15
 50
165.8
 51
180.0
  0
ARC
  8
0
 62
7
  6
CONTINUOUS
 10
84.3944954442
 20
121.4389574187
 40
0.15
 50
165.8001915619
 51
180.0001857066
  0
ARC
  8
AXES
 62
7
  6
CONTINUOUS
 10
84.3944953212
 20
121.4389569325
 40
0.15
 50
165.8
 51
180.0
  0
ARC
  8
0
 62
7
  6
CONTINUOUS
 10
99.9444953212
 20
120.4145547985
 40
4.0
 50
224.4153085972
 51
315.5846914028
  0
ARC
  8
0
 62
7
  6
CONTINUOUS
 10
112.6444953212
 20
120.4145547985
 40
4.0
 50
224.4153085972
 51
315.5846914028
  0
ARC
  8
0
 62
7
  6
CONTINUOUS
 10
110.1444955282
 20
117.965064758
 40
0.5000000086
 50
179.9999658822
 51
224.4152676244
  0
ARC
  8
0
 62
7
  6
CONTINUOUS
 10
115.1444953212
 20
117.9650650557
 40
0.5
 50
315.5846914028
 51
360.0
  0
ARC
  8
0
 62
7
  6
CONTINUOUS
 10
102.4444953212
 20
117.9650650557
 40
0.5
 50
315.5846914028
 51
360.0
  0
ARC
  8
AXES
 62
7
  6
CONTINUOUS
 10
102.6944953212
 20
124.4838898533
 40
0.5
 50
186.3116101259
 51
187.8883898741
  0
ARC
  8
0
 62
7
  6
CONTINUOUS
 10
102.6944953212
 20
124.4838898533
 40
0.5
 50
180.0
 51
194.2
  0
ARC
  8
AXES
 62
7
  6
CONTINUOUS
 10
115.3944953212
 20
124.4838898533
 40
0.5
 50
186.3116101259
 51
187.8883898741
  0
ARC
  8
0
 62
7
  6
CONTINUOUS
 10
115.3944953212
 20
124.4838898533
 40
0.5
 50
180.0
 51
194.2
  0
ARC
  8
0
 62
7
  6
CONTINUOUS
 10
109.8944953212
 20
124.4838898533
 40
0.5
 50
345.8
 51
360.0
  0
ARC
  8
0
 62
7
  6
CONTINUOUS
 10
115.4944953212
 20
121.4389569325
 40
0.15
 50
0.0
 51
14.2
  0
ARC
  8
AXES
 62
7
  6
CONTINUOUS
 10
115.4944953212
 20
121.4389569325
 40
0.15
 50
0.0
 51
14.2
  0
ARC
  8
0
 62
7
  6
CONTINUOUS
 10
102.7944953212
 20
121.4389569325
 40
0.15
 50
0.0
 51
14.2
  0
ARC
  8
AXES
 62
7
  6
CONTINUOUS
 10
102.7944953212
 20
121.4389569325
 40
0.15
 50
0.0
 51
14.2
  0
ARC
  8
0
 62
7
  6
CONTINUOUS
 10
109.7944954442
 20
121.4389574187
 40
0.15
 50
165.8001915619
 51
180.0001857066
  0
ARC
  8
AXES
 62
7
  6
CONTINUOUS
 10
109.7944953212
 20
121.4389569325
 40
0.15
 50
165.8
 51
180.0
  0
ARC
  8
0
 62
7
  6
CONTINUOUS
 10
91.4944953212
 20
130.6805547985
 40
2.0
 50
90.0
 51
180.0
  0
ARC
  8
0
 62
7
  6
CONTINUOUS
 10
104.1944953212
 20
130.6805547985
 40
2.0
 50
90.0
 51
180.0
  0
ARC
  8
0
 62
7
  6
CONTINUOUS
 10
95.6944953212
 20
130.6805547985
 40
2.0
 50
0.0
 51
90.0
  0
ARC
  8
0
 62
7
  6
CONTINUOUS
 10
108.3944953212
 20
130.6805547985
 40
2.0
 50
0.0
 51
90.0
  0
ARC
  8
0
 62
7
  6
CONTINUOUS
 10
82.9944953212
 20
130.6805547985
 40
2.0
 50
0.0
 51
90.0
  0
ARC
  8
0
 62
7
  6
CONTINUOUS
 10
79.6484953212
 20
133.6805547985
 40
1.0
 50
180.0
 51
270.0
  0
ARC
  8
0
 62
7
  6
CONTINUOUS
 10
125.3444953212
 20
120.4145547985
 40
4.0
 50
224.4153085972
 51
315.5846914028
  0
ARC
  8
0
 62
7
  6
CONTINUOUS
 10
135.5444955282
 20
117.965064758
 40
0.5000000086
 50
179.9999658822
 51
224.4152676244
  0
ARC
  8
0
 62
7
  6
CONTINUOUS
 10
122.8444955282
 20
117.965064758
 40
0.5000000086
 50
179.9999658822
 51
224.4152676244
  0
ARC
  8
0
 62
7
  6
CONTINUOUS
 10
127.8444953212
 20
117.9650650557
 40
0.5
 50
315.5846914028
 51
360.0
  0
ARC
  8
0
 62
7
  6
CONTINUOUS
 10
128.0944953212
 20
124.4838898533
 40
0.5
 50
180.0
 51
194.2
  0
ARC
  8
0
 62
7
  6
CONTINUOUS
 10
122.5944953212
 20
124.4838898533
 40
0.5
 50
345.8
 51
360.0
  0
ARC
  8
0
 62
7
  6
CONTINUOUS
 10
135.2944953212
 20
124.4838898533
 40
0.5
 50
345.8
 51
360.0
  0
ARC
  8
0
 62
7
  6
CONTINUOUS
 10
128.1944953212
 20
121.4389569325
 40
0.15
 50
0.0
 51
14.2
  0
ARC
  8
AXES
 62
7
  6
CONTINUOUS
 10
128.1944953212
 20
121.4389569325
 40
0.15
 50
0.0
 51
14.2
  0
ARC
  8
0
 62
7
  6
CONTINUOUS
 10
135.1944954442
 20
121.4389574187
 40
0.15
 50
165.8001915619
 51
180.0001857066
  0
ARC
  8
AXES
 62
7
  6
CONTINUOUS
 10
135.1944953212
 20
121.4389569325
 40
0.15
 50
165.8
 51
180.0
  0
ARC
  8
0
 62
7
  6
CONTINUOUS
 10
122.4944954442
 20
121.4389574187
 40
0.15
 50
165.8001915619
 51
180.0001857066
  0
ARC
  8
AXES
 62
7
  6
CONTINUOUS
 10
122.4944953212
 20
121.4389569325
 40
0.15
 50
165.8
 51
180.0
  0
ARC
  8
0
 62
7
  6
CONTINUOUS
 10
138.0444953212
 20
120.4145547985
 40
4.0
 50
224.4153085972
 51
315.5846914028
  0
ARC
  8
0
 62
7
  6
CONTINUOUS
 10
150.7444953212
 20
120.4145547985
 40
4.0
 50
224.4153085972
 51
315.5846914028
  0
ARC
  8
0
 62
7
  6
CONTINUOUS
 10
148.2444955282
 20
117.965064758
 40
0.5000000086
 50
179.9999658822
 51
224.4152676244
  0
ARC
  8
0
 62
7
  6
CONTINUOUS
 10
153.2444953212
 20
117.9650650557
 40
0.5
 50
315.5846914028
 51
360.0
  0
ARC
  8
0
 62
7
  6
CONTINUOUS
 10
140.5444953212
 20
117.9650650557
 40
0.5
 50
315.5846914028
 51
360.0
  0
ARC
  8
AXES
 62
7
  6
CONTINUOUS
 10
140.7944953212
 20
124.4838898533
 40
0.5
 50
186.3116101259
 51
187.8883898741
  0
ARC
  8
0
 62
7
  6
CONTINUOUS
 10
140.7944953212
 20
124.4838898533
 40
0.5
 50
180.0
 51
194.2
  0
ARC
  8
0
 62
7
  6
CONTINUOUS
 10
147.9944953212
 20
124.4838898533
 40
0.5
 50
345.8
 51
360.0
  0
ARC
  8
0
 62
7
  6
CONTINUOUS
 10
140.8944953212
 20
121.4389569325
 40
0.15
 50
0.0
 51
14.2
  0
ARC
  8
AXES
 62
7
  6
CONTINUOUS
 10
140.8944953212
 20
121.4389569325
 40
0.15
 50
0.0
 51
14.2
  0
ARC
  8
0
 62
7
  6
CONTINUOUS
 10
147.8944954442
 20
121.4389574187
 40
0.15
 50
165.8001915619
 51
180.0001857066
  0
ARC
  8
AXES
 62
7
  6
CONTINUOUS
 10
147.8944953212
 20
121.4389569325
 40
0.15
 50
165.8
 51
180.0
  0
ARC
  8
0
 62
7
  6
CONTINUOUS
 10
116.8944953212
 20
130.6805547985
 40
2.0
 50
90.0
 51
180.0
  0
ARC
  8
0
 62
7
  6
CONTINUOUS
 10
129.5944953212
 20
130.6805547985
 40
2.0
 50
90.0
 51
180.0
  0
ARC
  8
0
 62
7
  6
CONTINUOUS
 10
121.0944953212
 20
130.6805547985
 40
2.0
 50
0.0
 51
90.0
  0
ARC
  8
0
 62
7
  6
CONTINUOUS
 10
142.2944953212
 20
130.6805547985
 40
2.0
 50
90.0
 51
180.0
  0
ARC
  8
0
 62
7
  6
CONTINUOUS
 10
133.7944953212
 20
130.6805547985
 40
2.0
 50
0.0
 51
90.0
  0
ARC
  8
0
 62
7
  6
CONTINUOUS
 10
146.4944953212
 20
130.6805547985
 40
2.0
 50
0.0
 51
90.0
  0
ARC
  8
0
 62
7
  6
CONTINUOUS
 10
87.2444953212
 20
138.2685547985
 40
4.104
 50
180.0
 51
360.0
  0
ARC
  8
0
 62
7
  6
CONTINUOUS
 10
99.9444953212
 20
138.2685547985
 40
4.104
 50
180.0
 51
360.0
  0
ARC
  8
0
 62
7
  6
CONTINUOUS
 10
112.6444953212
 20
138.2685547985
 40
4.104
 50
180.0
 51
360.0
  0
ARC
  8
0
 62
7
  6
CONTINUOUS
 10
90.8484953212
 20
142.4522765063
 40
0.5
 50
0.0
 51
14.2
  0
ARC
  8
0
 62
7
  6
CONTINUOUS
 10
103.5484953212
 20
142.4522765063
 40
0.5
 50
0.0
 51
14.2
  0
ARC
  8
0
 62
7
  6
CONTINUOUS
 10
96.3404953212
 20
142.4522765063
 40
0.5
 50
165.8
 51
180.0
  0
ARC
  8
0
 62
7
  6
CONTINUOUS
 10
109.0404953212
 20
142.4522765063
 40
0.5
 50
165.8
 51
180.0
  0
ARC
  8
0
 62
7
  6
CONTINUOUS
 10
83.6404953212
 20
142.4522765063
 40
0.5
 50
165.8
 51
180.0
  0
ARC
  8
0
 62
7
  6
CONTINUOUS
 10
78.1484953212
 20
142.4522765063
 40
0.5
 50
0.0
 51
14.2
  0
ARC
  8
0
 62
7
  6
CONTINUOUS
 10
108.5444953212
 20
149.7645547985
 40
0.75
 50
0.0
 51
90.0
  0
ARC
  8
0
 62
7
  6
CONTINUOUS
 10
104.0444953212
 20
149.7645547985
 40
0.75
 50
90.0
 51
180.0
  0
ARC
  8
0
 62
7
  6
CONTINUOUS
 10
95.8444953212
 20
149.7645547985
 40
0.75
 50
0.0
 51
90.0
  0
ARC
  8
0
 62
7
  6
CONTINUOUS
 10
91.3444953212
 20
149.7645547985
 40
0.75
 50
90.0
 51
180.0
  0
ARC
  8
0
 62
7
  6
CONTINUOUS
 10
78.6444953212
 20
149.7645547985
 40
0.75
 50
90.0
 51
180.0
  0
ARC
  8
0
 62
7
  6
CONTINUOUS
 10
83.1444953212
 20
149.7645547985
 40
0.75
 50
0.0
 51
90.0
  0
ARC
  8
0
 62
7
  6
CONTINUOUS
 10
103.4444953212
 20
145.5130172732
 40
0.15
 50
180.0
 51
194.2
  0
ARC
  8
0
 62
7
  6
CONTINUOUS
 10
96.4444950263
 20
145.5130161078
 40
0.15
 50
345.8004591917
 51
0.0004451523
  0
ARC
  8
0
 62
7
  6
CONTINUOUS
 10
109.1444950263
 20
145.5130161078
 40
0.15
 50
345.8004591917
 51
0.0004451523
  0
ARC
  8
0
 62
7
  6
CONTINUOUS
 10
78.0444953212
 20
145.5130172732
 40
0.15
 50
180.0
 51
194.2
  0
ARC
  8
0
 62
7
  6
CONTINUOUS
 10
90.7444953212
 20
145.5130172732
 40
0.15
 50
180.0
 51
194.2
  0
ARC
  8
0
 62
7
  6
CONTINUOUS
 10
83.7444950263
 20
145.5130161078
 40
0.15
 50
345.8004591917
 51
0.0004451523
  0
ARC
  8
0
 62
7
  6
CONTINUOUS
 10
125.3444953212
 20
138.2685547985
 40
4.104
 50
180.0
 51
360.0
  0
ARC
  8
0
 62
7
  6
CONTINUOUS
 10
138.0444953212
 20
138.2685547985
 40
4.104
 50
180.0
 51
360.0
  0
ARC
  8
0
 62
7
  6
CONTINUOUS
 10
150.7444953212
 20
138.2685547985
 40
4.104
 50
180.0
 51
360.0
  0
ARC
  8
0
 62
7
  6
CONTINUOUS
 10
116.2484953212
 20
142.4522765063
 40
0.5
 50
0.0
 51
14.2
  0
ARC
  8
0
 62
7
  6
CONTINUOUS
 10
128.9484953212
 20
142.4522765063
 40
0.5
 50
0.0
 51
14.2
  0
ARC
  8
0
 62
7
  6
CONTINUOUS
 10
121.7404953212
 20
142.4522765063
 40
0.5
 50
165.8
 51
180.0
  0
ARC
  8
0
 62
7
  6
CONTINUOUS
 10
141.6484953212
 20
142.4522765063
 40
0.5
 50
0.0
 51
14.2
  0
ARC
  8
0
 62
7
  6
CONTINUOUS
 10
134.4404953212
 20
142.4522765063
 40
0.5
 50
165.8
 51
180.0
  0
ARC
  8
0
 62
7
  6
CONTINUOUS
 10
147.1404953212
 20
142.4522765063
 40
0.5
 50
165.8
 51
180.0
  0
ARC
  8
0
 62
7
  6
CONTINUOUS
 10
146.6444953212
 20
149.7645547985
 40
0.75
 50
0.0
 51
90.0
  0
ARC
  8
0
 62
7
  6
CONTINUOUS
 10
142.1444953212
 20
149.7645547985
 40
0.75
 50
90.0
 51
180.0
  0
ARC
  8
0
 62
7
  6
CONTINUOUS
 10
133.9444953212
 20
149.7645547985
 40
0.75
 50
0.0
 51
90.0
  0
ARC
  8
0
 62
7
  6
CONTINUOUS
 10
129.4444953212
 20
149.7645547985
 40
0.75
 50
90.0
 51
180.0
  0
ARC
  8
0
 62
7
  6
CONTINUOUS
 10
121.2444953212
 20
149.7645547985
 40
0.75
 50
0.0
 51
90.0
  0
ARC
  8
0
 62
7
  6
CONTINUOUS
 10
116.7444953212
 20
149.7645547985
 40
0.75
 50
90.0
 51
180.0
  0
ARC
  8
0
 62
7
  6
CONTINUOUS
 10
116.1444953212
 20
145.5130172732
 40
0.15
 50
180.0
 51
194.2
  0
ARC
  8
0
 62
7
  6
CONTINUOUS
 10
147.2444950263
 20
145.5130161078
 40
0.15
 50
345.8004591917
 51
0.0004451523
  0
ARC
  8
0
 62
7
  6
CONTINUOUS
 10
141.5444953212
 20
145.5130172732
 40
0.15
 50
180.0
 51
194.2
  0
ARC
  8
0
 62
7
  6
CONTINUOUS
 10
134.5444950263
 20
145.5130161078
 40
0.15
 50
345.8004591917
 51
0.0004451523
  0
ARC
  8
0
 62
7
  6
CONTINUOUS
 10
128.8444953212
 20
145.5130172732
 40
0.15
 50
180.0
 51
194.2
  0
ARC
  8
0
 62
7
  6
CONTINUOUS
 10
121.8444950263
 20
145.5130161078
 40
0.15
 50
345.8004591917
 51
0.0004451523
  0
ARC
  8
0
 62
7
  6
CONTINUOUS
 10
176.0404953212
 20
120.9545547985
 40
4.54
 50
240.3272196412
 51
270.0
  0
ARC
  8
0
 62
7
  6
CONTINUOUS
 10
177.0404953212
 20
120.9545547985
 40
4.54
 50
270.0
 51
299.6727803588
  0
ARC
  8
0
 62
7
  6
CONTINUOUS
 10
189.7944953212
 20
120.9145547985
 40
4.5
 50
240.0002375645
 51
270.0
  0
ARC
  8
0
 62
7
  6
CONTINUOUS
 10
190.7944953212
 20
120.9145547985
 40
4.5
 50
270.0
 51
299.9997624355
  0
ARC
  8
0
 62
7
  6
CONTINUOUS
 10
163.4444953212
 20
120.4145547985
 40
4.0
 50
224.4153085972
 51
315.5846914028
  0
ARC
  8
0
 62
7
  6
CONTINUOUS
 10
160.9444955282
 20
117.965064758
 40
0.5000000086
 50
179.9999658822
 51
224.4152676244
  0
ARC
  8
0
 62
7
  6
CONTINUOUS
 10
187.7945093725
 20
117.4504450215
 40
0.5000000053
 50
180.0000149787
 51
240.0002760042
  0
ARC
  8
0
 62
7
  6
CONTINUOUS
 10
174.0405093633
 20
117.4443330806
 40
0.5000000052
 50
180.0000154056
 51
240.3272592315
  0
ARC
  8
0
 62
7
  6
CONTINUOUS
 10
179.0404809581
 20
117.4443329462
 40
0.5
 50
299.6727803588
 51
360.0
  0
ARC
  8
0
 62
7
  6
CONTINUOUS
 10
165.9444953212
 20
117.9650650557
 40
0.5
 50
315.5846914028
 51
360.0
  0
ARC
  8
0
 62
7
  6
CONTINUOUS
 10
179.3904809581
 20
121.4389569325
 40
0.15
 50
0.0
 51
14.2
  0
ARC
  8
AXES
 62
7
  6
CONTINUOUS
 10
179.3904809581
 20
121.4389569325
 40
0.15
 50
0.0
 51
14.2
  0
ARC
  8
0
 62
7
  6
CONTINUOUS
 10
187.4445098074
 20
121.4389574187
 40
0.15
 50
165.8001915619
 51
180.0001857066
  0
ARC
  8
AXES
 62
7
  6
CONTINUOUS
 10
187.4445096844
 20
121.4389569325
 40
0.15
 50
165.8
 51
180.0
  0
ARC
  8
0
 62
7
  6
CONTINUOUS
 10
166.2944953212
 20
121.4389569325
 40
0.15
 50
0.0
 51
14.2
  0
ARC
  8
AXES
 62
7
  6
CONTINUOUS
 10
166.2944953212
 20
121.4389569325
 40
0.15
 50
0.0
 51
14.2
  0
ARC
  8
0
 62
7
  6
CONTINUOUS
 10
173.6905098074
 20
121.4389574187
 40
0.15
 50
165.8001915619
 51
180.0001857066
  0
ARC
  8
AXES
 62
7
  6
CONTINUOUS
 10
173.6905096844
 20
121.4389569325
 40
0.15
 50
165.8
 51
180.0
  0
ARC
  8
0
 62
7
  6
CONTINUOUS
 10
153.5944953212
 20
121.4389569325
 40
0.15
 50
0.0
 51
14.2
  0
ARC
  8
AXES
 62
7
  6
CONTINUOUS
 10
153.5944953212
 20
121.4389569325
 40
0.15
 50
0.0
 51
14.2
  0
ARC
  8
0
 62
7
  6
CONTINUOUS
 10
160.5944954442
 20
121.4389574187
 40
0.15
 50
165.8001915619
 51
180.0001857066
  0
ARC
  8
AXES
 62
7
  6
CONTINUOUS
 10
160.5944953212
 20
121.4389569325
 40
0.15
 50
165.8
 51
180.0
  0
ARC
  8
0
 62
7
  6
CONTINUOUS
 10
153.4944953212
 20
124.4838898533
 40
0.5
 50
180.0
 51
194.2
  0
ARC
  8
AXES
 62
7
  6
CONTINUOUS
 10
166.1944953212
 20
124.4838898533
 40
0.5
 50
186.311610126
 51
187.888389874
  0
ARC
  8
0
 62
7
  6
CONTINUOUS
 10
166.1944953212
 20
124.4838898533
 40
0.5
 50
180.0
 51
194.2
  0
ARC
  8
0
 62
7
  6
CONTINUOUS
 10
160.6944953212
 20
124.4838898533
 40
0.5
 50
345.8
 51
360.0
  0
ARC
  8
0
 62
7
  6
CONTINUOUS
 10
154.9944953212
 20
130.6805547985
 40
2.0
 50
90.0
 51
180.0
  0
ARC
  8
0
 62
7
  6
CONTINUOUS
 10
167.6944953212
 20
130.6805547985
 40
2.0
 50
90.0
 51
180.0
  0
ARC
  8
0
 62
7
  6
CONTINUOUS
 10
159.1944953212
 20
130.6805547985
 40
2.0
 50
0.0
 51
90.0
  0
ARC
  8
0
 62
7
  6
CONTINUOUS
 10
173.7904953212
 20
124.4838330907
 40
0.5
 50
345.8
 51
360.0
  0
ARC
  8
AXES
 62
7
  6
CONTINUOUS
 10
179.2904953212
 20
124.4838330907
 40
0.5
 50
186.311610126
 51
187.888389874
  0
ARC
  8
0
 62
7
  6
CONTINUOUS
 10
179.2904953212
 20
124.4838330907
 40
0.5
 50
180.0
 51
194.2
  0
ARC
  8
0
 62
7
  6
CONTINUOUS
 10
187.5444953212
 20
124.4838330907
 40
0.5
 50
345.8
 51
360.0
  0
ARC
  8
0
 62
7
  6
CONTINUOUS
 10
181.4904953212
 20
130.3145547985
 40
2.7
 50
90.0
 51
180.0
  0
ARC
  8
0
 62
7
  6
CONTINUOUS
 10
185.3444953212
 20
130.3145547985
 40
2.7
 50
0.0
 51
90.0
  0
ARC
  8
0
 62
7
  6
CONTINUOUS
 10
172.2904953212
 20
130.6805547985
 40
2.0
 50
0.0
 51
90.0
  0
ARC
  8
0
 62
7
  6
CONTINUOUS
 10
204.2944953212
 20
120.9145547985
 40
4.5
 50
240.0002375645
 51
270.0
  0
ARC
  8
0
 62
7
  6
CONTINUOUS
 10
205.2944953212
 20
120.9145547985
 40
4.5
 50
270.0
 51
299.9997624355
  0
ARC
  8
0
 62
7
  6
CONTINUOUS
 10
220.9194953212
 20
120.9145547985
 40
4.5
 50
270.0
 51
299.9997624355
  0
ARC
  8
0
 62
7
  6
CONTINUOUS
 10
219.9194953212
 20
120.9145547985
 40
4.5
 50
240.0002375645
 51
270.0
  0
ARC
  8
AXES
 62
7
  6
CONTINUOUS
 10
201.9944953212
 20
120.7445547985
 40
1.5
 50
94.1260708806
 51
257.7538206432
  0
ARC
  8
AXES
 62
7
  6
CONTINUOUS
 10
207.5944953212
 20
120.7445547985
 40
1.5
 50
282.2461793568
 51
85.8739291194
  0
ARC
  8
0
 62
7
  6
CONTINUOUS
 10
217.9195093725
 20
117.4504450215
 40
0.5000000053
 50
180.0000149787
 51
240.0002760042
  0
ARC
  8
0
 62
7
  6
CONTINUOUS
 10
202.2945093725
 20
117.4504450215
 40
0.5000000053
 50
180.0000149787
 51
240.0002760042
  0
ARC
  8
0
 62
7
  6
CONTINUOUS
 10
222.9194809581
 20
117.4504448908
 40
0.5
 50
299.9997624355
 51
360.0
  0
ARC
  8
0
 62
7
  6
CONTINUOUS
 10
207.2944809581
 20
117.4504448908
 40
0.5
 50
299.9997624355
 51
360.0
  0
ARC
  8
0
 62
7
  6
CONTINUOUS
 10
192.7944809581
 20
117.4504448908
 40
0.5
 50
299.9997624355
 51
360.0
  0
ARC
  8
AXES
 62
7
  6
CONTINUOUS
 10
201.8757756843
 20
122.3902782406
 40
0.15
 50
274.1260708806
 51
345.8
  0
ARC
  8
AXES
 62
7
  6
CONTINUOUS
 10
201.6445096844
 20
119.1321001312
 40
0.15
 50
0.0
 51
77.7538206432
  0
ARC
  8
AXES
 62
7
  6
CONTINUOUS
 10
193.1444809581
 20
121.4389569325
 40
0.15
 50
0.0
 51
14.2
  0
ARC
  8
0
 62
7
  6
CONTINUOUS
 10
193.14448074
 20
121.4389577942
 40
0.15
 50
359.9996708549
 51
14.199660478
  0
ARC
  8
0
 62
7
  6
CONTINUOUS
 10
201.9445096844
 20
121.4389569325
 40
0.15
 50
165.8
 51
180.0
  0
ARC
  8
0
 62
7
  6
CONTINUOUS
 10
217.5695096844
 20
121.4389569325
 40
0.15
 50
165.8
 51
180.0
  0
ARC
  8
AXES
 62
7
  6
CONTINUOUS
 10
217.5695096844
 20
121.4389569325
 40
0.15
 50
165.8
 51
180.0
  0
ARC
  8
0
 62
7
  6
CONTINUOUS
 10
207.64448074
 20
121.4389577942
 40
0.15
 50
359.9996708549
 51
14.199660478
  0
ARC
  8
AXES
 62
7
  6
CONTINUOUS
 10
207.7132149582
 20
122.3902782406
 40
0.15
 50
194.2
 51
265.8739291194
  0
ARC
  8
AXES
 62
7
  6
CONTINUOUS
 10
207.9444809581
 20
119.1321001312
 40
0.15
 50
102.2461793568
 51
180.0
  0
ARC
  8
0
 62
7
  6
CONTINUOUS
 10
223.26948074
 20
121.4389577942
 40
0.15
 50
359.9996708549
 51
14.1996604781
  0
ARC
  8
AXES
 62
7
  6
CONTINUOUS
 10
223.2694809581
 20
121.4389569325
 40
0.15
 50
0.0
 51
14.2
  0
ARC
  8
AXES
 62
7
  6
CONTINUOUS
 10
193.0444953212
 20
124.4838330907
 40
0.5
 50
186.311610126
 51
187.8883898741
  0
ARC
  8
0
 62
7
  6
CONTINUOUS
 10
193.0444953212
 20
124.4838330907
 40
0.5
 50
180.0
 51
194.2
  0
ARC
  8
AXES
 62
7
  6
CONTINUOUS
 10
202.0444953212
 20
124.4838330907
 40
0.5
 50
352.111610126
 51
353.688389874
  0
ARC
  8
0
 62
7
  6
CONTINUOUS
 10
202.0444953212
 20
124.4838330907
 40
0.5
 50
345.8
 51
360.0
  0
ARC
  8
AXES
 62
7
  6
CONTINUOUS
 10
207.5444953212
 20
124.4838330907
 40
0.5
 50
186.311610126
 51
187.888389874
  0
ARC
  8
0
 62
7
  6
CONTINUOUS
 10
207.5444953212
 20
124.4838330907
 40
0.5
 50
180.0
 51
194.2
  0
ARC
  8
0
 62
7
  6
CONTINUOUS
 10
210.0444953212
 20
130.1645547985
 40
3.0
 50
90.0
 51
180.0
  0
ARC
  8
0
 62
7
  6
CONTINUOUS
 10
195.2444953212
 20
130.3145547985
 40
2.7
 50
90.0
 51
180.0
  0
ARC
  8
0
 62
7
  6
CONTINUOUS
 10
199.8444953212
 20
130.3145547985
 40
2.7
 50
0.0
 51
90.0
  0
ARC
  8
0
 62
7
  6
CONTINUOUS
 10
223.1694953212
 20
124.4838330907
 40
0.5
 50
180.0
 51
194.2
  0
ARC
  8
AXES
 62
7
  6
CONTINUOUS
 10
223.1694953212
 20
124.4838330907
 40
0.5
 50
186.3116101259
 51
187.8883898741
  0
ARC
  8
0
 62
7
  6
CONTINUOUS
 10
217.6694953212
 20
124.4838330907
 40
0.5
 50
345.8
 51
360.0
  0
ARC
  8
AXES
 62
7
  6
CONTINUOUS
 10
217.6694953212
 20
124.4838330907
 40
0.5
 50
352.111610126
 51
353.688389874
  0
ARC
  8
0
 62
7
  6
CONTINUOUS
 10
228.6694953212
 20
127.7631929535
 40
6.0
 50
109.6692848961
 51
180.0
  0
ARC
  8
AXES
 62
7
  6
CONTINUOUS
 10
228.6694953212
 20
127.7631929535
 40
6.0
 50
176.3794452709
 51
180.0
  0
ARC
  8
AXES
 62
7
  6
CONTINUOUS
 10
228.6694953212
 20
127.7631929535
 40
6.0
 50
174.6840231156
 51
175.1978928611
  0
ARC
  8
0
 62
7
  6
CONTINUOUS
 10
214.1694953212
 20
129.1645547985
 40
4.0
 50
0.0
 51
90.0
  0
ARC
  8
0
 62
7
  6
CONTINUOUS
 10
163.4444953212
 20
138.2685547985
 40
4.104
 50
180.0
 51
360.0
  0
ARC
  8
0
 62
7
  6
CONTINUOUS
 10
154.3484953212
 20
142.4522765063
 40
0.5
 50
0.0
 51
14.2
  0
ARC
  8
0
 62
7
  6
CONTINUOUS
 10
167.0484953212
 20
142.4522765063
 40
0.5
 50
0.0
 51
14.2
  0
ARC
  8
0
 62
7
  6
CONTINUOUS
 10
159.8404953212
 20
142.4522765063
 40
0.5
 50
165.8
 51
180.0
  0
ARC
  8
0
 62
7
  6
CONTINUOUS
 10
172.5404953212
 20
142.4522765063
 40
0.5
 50
165.8
 51
180.0
  0
ARC
  8
0
 62
7
  6
CONTINUOUS
 10
177.1904953212
 20
137.8145547985
 40
3.85
 50
270.0
 51
360.0
  0
ARC
  8
0
 62
7
  6
CONTINUOUS
 10
175.8904953212
 20
137.8145547985
 40
3.85
 50
180.0
 51
270.0
  0
ARC
  8
0
 62
7
  6
CONTINUOUS
 10
191.1944953212
 20
137.8145547985
 40
3.85
 50
270.0
 51
360.0
  0
ARC
  8
0
 62
7
  6
CONTINUOUS
 10
189.3944953212
 20
137.8145547985
 40
3.85
 50
180.0
 51
270.0
  0
ARC
  8
0
 62
7
  6
CONTINUOUS
 10
180.5404953212
 20
142.4522765063
 40
0.5
 50
0.0
 51
14.2
  0
ARC
  8
0
 62
7
  6
CONTINUOUS
 10
186.0444953212
 20
142.4522765063
 40
0.5
 50
165.8
 51
180.0
  0
ARC
  8
0
 62
7
  6
CONTINUOUS
 10
159.3444953212
 20
149.7645547985
 40
0.75
 50
0.0
 51
90.0
  0
ARC
  8
0
 62
7
  6
CONTINUOUS
 10
154.8444953212
 20
149.7645547985
 40
0.75
 50
90.0
 51
180.0
  0
ARC
  8
0
 62
7
  6
CONTINUOUS
 10
167.5444953212
 20
149.7645547985
 40
0.75
 50
90.0
 51
180.0
  0
ARC
  8
0
 62
7
  6
CONTINUOUS
 10
185.5484953212
 20
149.7645547985
 40
0.75
 50
0.0
 51
90.0
  0
ARC
  8
0
 62
7
  6
CONTINUOUS
 10
181.0364953212
 20
149.7645547985
 40
0.75
 50
90.0
 51
180.0
  0
ARC
  8
0
 62
7
  6
CONTINUOUS
 10
172.0444953212
 20
149.7645547985
 40
0.75
 50
0.0
 51
90.0
  0
ARC
  8
0
 62
7
  6
CONTINUOUS
 10
186.1484953212
 20
145.5130172732
 40
0.15
 50
345.8
 51
360.0
  0
ARC
  8
0
 62
7
  6
CONTINUOUS
 10
172.6444953212
 20
145.5130172732
 40
0.15
 50
345.8
 51
360.0
  0
ARC
  8
0
 62
7
  6
CONTINUOUS
 10
180.4364955393
 20
145.5130164115
 40
0.15
 50
179.9996708549
 51
194.199660478
  0
ARC
  8
0
 62
7
  6
CONTINUOUS
 10
166.9444953212
 20
145.5130172732
 40
0.15
 50
180.0
 51
194.2
  0
ARC
  8
0
 62
7
  6
CONTINUOUS
 10
159.9444950263
 20
145.5130161078
 40
0.15
 50
345.8004591917
 51
0.0004451523
  0
ARC
  8
0
 62
7
  6
CONTINUOUS
 10
154.2444953212
 20
145.5130172732
 40
0.15
 50
180.0
 51
194.2
  0
ARC
  8
0
 62
7
  6
CONTINUOUS
 10
205.5444953212
 20
138.3145547985
 40
4.5
 50
270.0
 51
360.0
  0
ARC
  8
0
 62
7
  6
CONTINUOUS
 10
204.0444953212
 20
138.3145547985
 40
4.5
 50
180.0
 51
270.0
  0
ARC
  8
0
 62
7
  6
CONTINUOUS
 10
194.5444953212
 20
142.4522765063
 40
0.5
 50
0.0
 51
14.2
  0
ARC
  8
0
 62
7
  6
CONTINUOUS
 10
209.5444953212
 20
142.4522765063
 40
0.5
 50
0.0
 51
14.2
  0
ARC
  8
0
 62
7
  6
CONTINUOUS
 10
200.0444953212
 20
142.4522765063
 40
0.5
 50
165.8
 51
180.0
  0
ARC
  8
0
 62
7
  6
CONTINUOUS
 10
220.7944953212
 20
139.2145547985
 40
5.5
 50
270.0
 51
329.2118097615
  0
ARC
  8
0
 62
7
  6
CONTINUOUS
 10
219.0444953212
 20
138.2145547985
 40
4.5
 50
180.0
 51
270.0
  0
ARC
  8
0
 62
7
  6
CONTINUOUS
 10
227.7944953212
 20
137.0081066443
 40
3.0
 50
289.6689206604
 51
0.0004046687
  0
ARC
  8
0
 62
7
  6
CONTINUOUS
 10
225.3904953212
 20
136.4760727372
 40
0.15
 50
329.2118097615
 51
360.0
  0
ARC
  8
0
 62
7
  6
CONTINUOUS
 10
215.0444953212
 20
142.4522809841
 40
0.5
 50
165.8010105549
 51
180.0
  0
ARC
  8
0
 62
7
  6
CONTINUOUS
 10
228.2944953212
 20
148.4590531716
 40
2.5
 50
359.9994909368
 51
109.6692853863
  0
ARC
  8
0
 62
7
  6
CONTINUOUS
 10
214.5484953212
 20
149.7645547985
 40
0.75
 50
0.0
 51
90.0
  0
ARC
  8
0
 62
7
  6
CONTINUOUS
 10
210.0404953212
 20
149.7645547985
 40
0.75
 50
90.0
 51
180.0
  0
ARC
  8
0
 62
7
  6
CONTINUOUS
 10
199.5484953212
 20
149.7645547985
 40
0.75
 50
0.0
 51
90.0
  0
ARC
  8
0
 62
7
  6
CONTINUOUS
 10
195.0404953212
 20
149.7645547985
 40
0.75
 50
90.0
 51
180.0
  0
ARC
  8
0
 62
7
  6
CONTINUOUS
 10
225.6904953212
 20
150.0238770164
 40
0.15
 50
109.6692609838
 51
179.9999275007
  0
ARC
  8
0
 62
7
  6
CONTINUOUS
 10
215.1484950262
 20
145.513235777
 40
0.15
 50
345.8014698847
 51
0.0004452882
  0
ARC
  8
0
 62
7
  6
CONTINUOUS
 10
200.1484953212
 20
145.5130172732
 40
0.15
 50
345.8
 51
360.0
  0
ARC
  8
0
 62
7
  6
CONTINUOUS
 10
209.4404955393
 20
145.5130164115
 40
0.15
 50
179.9996708549
 51
194.1996604781
  0
ARC
  8
0
 62
7
  6
CONTINUOUS
 10
194.4404955393
 20
145.5130164115
 40
0.15
 50
179.9996708549
 51
194.199660478
  0
ARC
  8
0
 62
7
  6
CONTINUOUS
 10
303.1410166787
 20
133.5645547985
 40
0.15
 50
146.250000016
 51
180.0
  0
ARC
  8
0
 62
7
  6
CONTINUOUS
 10
303.1410166787
 20
133.7239378219
 40
0.1499999671
 50
179.9998090059
 51
252.634248814
  0
ARC
  8
0
 62
7
  6
CONTINUOUS
 10
306.9910166787
 20
120.4145547985
 40
4.0
 50
180.0
 51
270.0
  0
ARC
  8
0
 62
7
  6
CONTINUOUS
 10
306.9910166787
 20
146.5145547985
 40
4.0
 50
90.0
 51
180.0
  0
ARC
  8
AXES
 62
7
  6
CONTINUOUS
 10
308.9910166787
 20
120.7645547985
 40
2.1
 50
180.0
 51
360.0
  0
ARC
  8
0
 62
7
  6
CONTINUOUS
 10
310.9910166787
 20
120.4145547985
 40
4.0
 50
270.0
 51
360.0
  0
ARC
  8
AXES
 62
7
  6
CONTINUOUS
 10
308.9910166787
 20
128.8145547985
 40
2.1
 50
0.0
 51
180.0
  0
ARC
  8
0
 62
7
  6
CONTINUOUS
 10
314.8410166787
 20
132.8305547985
 40
0.15
 50
270.0
 51
360.0
  0
CIRCLE
  8
AXES
 62
7
  6
CONTINUOUS
 10
308.9910166787
 20
146.1645547985
 40
2.1
  0
ARC
  8
0
 62
7
  6
CONTINUOUS
 10
308.9910166787
 20
152.4305547985
 40
19.75
 50
252.6343058201
 51
270.0
  0
ARC
  8
0
 62
7
  6
CONTINUOUS
 10
310.9910166787
 20
146.5145547985
 40
4.0
 50
0.0
 51
90.0
  0
ARC
  8
0
 62
7
  6
CONTINUOUS
 10
104.1984953212
 20
198.8513408304
 40
0.15
 50
258.7500000115
 51
268.477024442
  0
ARC
  8
0
 62
7
  6
CONTINUOUS
 10
95.6904953212
 20
198.8513408304
 40
0.15
 50
271.5229755581
 51
281.25
  0
ARC
  8
0
 62
7
  6
CONTINUOUS
 10
108.3904953212
 20
198.8513408304
 40
0.15
 50
271.5229755581
 51
281.25
  0
ARC
  8
0
 62
7
  6
CONTINUOUS
 10
78.7984953212
 20
198.8513408304
 40
0.15
 50
180.0
 51
270.0
  0
ARC
  8
0
 62
7
  6
CONTINUOUS
 10
91.4984953212
 20
198.8513408304
 40
0.15
 50
258.7500000115
 51
268.477024442
  0
ARC
  8
0
 62
7
  6
CONTINUOUS
 10
82.9904953212
 20
198.8513408304
 40
0.15
 50
271.5229755581
 51
281.25
  0
ARC
  8
0
 62
7
  6
CONTINUOUS
 10
78.6444953212
 20
199.4513408304
 40
0.75
 50
180.0
 51
269.9993189859
  0
ARC
  8
0
 62
7
  6
CONTINUOUS
 10
114.8944953212
 20
199.4513408304
 40
0.75
 50
270.0
 51
360.0
  0
ARC
  8
0
 62
7
  6
CONTINUOUS
 10
110.3944953212
 20
199.4513408304
 40
0.75
 50
180.0
 51
270.0
  0
ARC
  8
0
 62
7
  6
CONTINUOUS
 10
102.1944953212
 20
199.4513408304
 40
0.75
 50
270.0
 51
360.0
  0
ARC
  8
0
 62
7
  6
CONTINUOUS
 10
97.6944953212
 20
199.4513408304
 40
0.75
 50
180.0
 51
270.0
  0
ARC
  8
0
 62
7
  6
CONTINUOUS
 10
84.9944953212
 20
199.4513408304
 40
0.75
 50
180.0
 51
270.0
  0
ARC
  8
0
 62
7
  6
CONTINUOUS
 10
89.4944953212
 20
199.4513408304
 40
0.75
 50
270.0
 51
360.0
  0
ARC
  8
0
 62
7
  6
CONTINUOUS
 10
116.8984953212
 20
198.8513408304
 40
0.15
 50
258.7500000115
 51
268.477024442
  0
ARC
  8
0
 62
7
  6
CONTINUOUS
 10
146.4904953212
 20
198.8513408304
 40
0.15
 50
271.5229755581
 51
281.25
  0
ARC
  8
0
 62
7
  6
CONTINUOUS
 10
142.2984953212
 20
198.8513408304
 40
0.15
 50
258.7500000115
 51
268.477024442
  0
ARC
  8
0
 62
7
  6
CONTINUOUS
 10
133.7904953212
 20
198.8513408304
 40
0.15
 50
271.5229755581
 51
281.25
  0
ARC
  8
0
 62
7
  6
CONTINUOUS
 10
129.5984953212
 20
198.8513408304
 40
0.15
 50
258.7500000115
 51
268.477024442
  0
ARC
  8
0
 62
7
  6
CONTINUOUS
 10
121.0904953212
 20
198.8513408304
 40
0.15
 50
271.5229755581
 51
281.25
  0
ARC
  8
0
 62
7
  6
CONTINUOUS
 10
152.9944953212
 20
199.4513408304
 40
0.75
 50
270.0
 51
360.0
  0
ARC
  8
0
 62
7
  6
CONTINUOUS
 10
148.4944953212
 20
199.4513408304
 40
0.75
 50
180.0
 51
270.0
  0
ARC
  8
0
 62
7
  6
CONTINUOUS
 10
140.2944953212
 20
199.4513408304
 40
0.75
 50
270.0
 51
360.0
  0
ARC
  8
0
 62
7
  6
CONTINUOUS
 10
135.7944953212
 20
199.4513408304
 40
0.75
 50
180.0
 51
270.0
  0
ARC
  8
0
 62
7
  6
CONTINUOUS
 10
127.5944953212
 20
199.4513408304
 40
0.75
 50
270.0
 51
360.0
  0
ARC
  8
0
 62
7
  6
CONTINUOUS
 10
123.0944953212
 20
199.4513408304
 40
0.75
 50
180.0
 51
270.0
  0
ARC
  8
0
 62
7
  6
CONTINUOUS
 10
84.9944953212
 20
209.9513408304
 40
0.75
 50
90.0
 51
180.0
  0
ARC
  8
0
 62
7
  6
CONTINUOUS
 10
89.4944953212
 20
209.9513408304
 40
0.75
 50
0.0
 51
90.0
  0
ARC
  8
0
 62
7
  6
CONTINUOUS
 10
97.6944953212
 20
209.9513408304
 40
0.75
 50
90.0
 51
180.0
  0
ARC
  8
0
 62
7
  6
CONTINUOUS
 10
102.1944953212
 20
209.9513408304
 40
0.75
 50
0.0
 51
90.0
  0
ARC
  8
0
 62
7
  6
CONTINUOUS
 10
110.3944953212
 20
209.9513408304
 40
0.75
 50
90.0
 51
180.0
  0
ARC
  8
0
 62
7
  6
CONTINUOUS
 10
114.8944953212
 20
209.9513408304
 40
0.75
 50
0.0
 51
90.0
  0
ARC
  8
0
 62
7
  6
CONTINUOUS
 10
123.0944953212
 20
209.9513408304
 40
0.75
 50
90.0
 51
180.0
  0
ARC
  8
0
 62
7
  6
CONTINUOUS
 10
127.5944953212
 20
209.9513408304
 40
0.75
 50
0.0
 51
90.0
  0
ARC
  8
0
 62
7
  6
CONTINUOUS
 10
135.7944953212
 20
209.9513408304
 40
0.75
 50
90.0
 51
180.0
  0
ARC
  8
0
 62
7
  6
CONTINUOUS
 10
140.2944953212
 20
209.9513408304
 40
0.75
 50
0.0
 51
90.0
  0
ARC
  8
0
 62
7
  6
CONTINUOUS
 10
148.4944953212
 20
209.9513408304
 40
0.75
 50
90.0
 51
180.0
  0
ARC
  8
0
 62
7
  6
CONTINUOUS
 10
152.9944953212
 20
209.9513408304
 40
0.75
 50
0.0
 51
90.0
  0
ARC
  8
0
 62
7
  6
CONTINUOUS
 10
78.6444953212
 20
209.9513408304
 40
0.75
 50
90.0007567541
 51
180.0
  0
ARC
  8
0
 62
7
  6
CONTINUOUS
 10
78.7984953212
 20
210.5513408304
 40
0.15
 50
90.0
 51
180.0
  0
ARC
  8
0
 62
7
  6
CONTINUOUS
 10
167.6984953212
 20
198.8513408304
 40
0.15
 50
258.7500000115
 51
268.477024442
  0
ARC
  8
0
 62
7
  6
CONTINUOUS
 10
159.1904953212
 20
198.8513408304
 40
0.15
 50
271.5229755581
 51
281.25
  0
ARC
  8
0
 62
7
  6
CONTINUOUS
 10
154.9984953212
 20
198.8513408304
 40
0.15
 50
258.7500000115
 51
268.477024442
  0
ARC
  8
0
 62
7
  6
CONTINUOUS
 10
192.5444809581
 20
199.4513408304
 40
0.75
 50
270.0
 51
360.0
  0
ARC
  8
0
 62
7
  6
CONTINUOUS
 10
188.0445096844
 20
199.4513408304
 40
0.75
 50
180.0
 51
270.0
  0
ARC
  8
0
 62
7
  6
CONTINUOUS
 10
178.7904809581
 20
199.4513408304
 40
0.75
 50
270.0
 51
360.0
  0
ARC
  8
0
 62
7
  6
CONTINUOUS
 10
174.2905096844
 20
199.4513408304
 40
0.75
 50
180.0
 51
270.0
  0
ARC
  8
0
 62
7
  6
CONTINUOUS
 10
165.6944953212
 20
199.4513408304
 40
0.75
 50
270.0
 51
360.0
  0
ARC
  8
0
 62
7
  6
CONTINUOUS
 10
161.1944953212
 20
199.4513408304
 40
0.75
 50
180.0
 51
270.0
  0
ARC
  8
0
 62
7
  6
CONTINUOUS
 10
200.6444953212
 20
198.8513408304
 40
0.15
 50
180.0
 51
270.0
  0
ARC
  8
0
 62
7
  6
CONTINUOUS
 10
208.9444953212
 20
198.8513408304
 40
0.15
 50
270.0
 51
360.0
  0
ARC
  8
0
 62
7
  6
CONTINUOUS
 10
230.6444953212
 20
198.8513408304
 40
0.15
 50
270.0
 51
360.0
  0
ARC
  8
0
 62
7
  6
CONTINUOUS
 10
222.6694809581
 20
199.4513408304
 40
0.75
 50
270.0
 51
360.0
  0
ARC
  8
0
 62
7
  6
CONTINUOUS
 10
218.1695096844
 20
199.4513408304
 40
0.75
 50
180.0
 51
270.0
  0
ARC
  8
0
 62
7
  6
CONTINUOUS
 10
192.5444809581
 20
209.9513408304
 40
0.75
 50
0.0
 51
90.0
  0
ARC
  8
0
 62
7
  6
CONTINUOUS
 10
188.0445096844
 20
209.9513408304
 40
0.75
 50
90.0
 51
180.0
  0
ARC
  8
0
 62
7
  6
CONTINUOUS
 10
161.1944953212
 20
209.9513408304
 40
0.75
 50
90.0
 51
180.0
  0
ARC
  8
0
 62
7
  6
CONTINUOUS
 10
165.6944953212
 20
209.9513408304
 40
0.75
 50
0.0
 51
90.0
  0
ARC
  8
0
 62
7
  6
CONTINUOUS
 10
174.2905096844
 20
209.9513408304
 40
0.75
 50
90.0
 51
180.0
  0
ARC
  8
0
 62
7
  6
CONTINUOUS
 10
178.7904809581
 20
209.9513408304
 40
0.75
 50
0.0
 51
90.0
  0
ARC
  8
0
 62
7
  6
CONTINUOUS
 10
202.5445096844
 20
209.9513408304
 40
0.75
 50
90.0
 51
180.0
  0
ARC
  8
0
 62
7
  6
CONTINUOUS
 10
218.1695096844
 20
209.9513408304
 40
0.75
 50
90.0
 51
180.0
  0
ARC
  8
0
 62
7
  6
CONTINUOUS
 10
222.6694809581
 20
209.9513408304
 40
0.75
 50
0.0
 51
90.0
  0
ARC
  8
0
 62
7
  6
CONTINUOUS
 10
207.0444809581
 20
209.9513408304
 40
0.75
 50
0.0
 51
90.0
  0
ARC
  8
0
 62
7
  6
CONTINUOUS
 10
230.644495023
 20
209.5822217831
 40
0.15
 50
359.9999735133
 51
76.9079900035
  0
ARC
  8
0
 62
7
  6
CONTINUOUS
 10
226.4772831196
 20
210.5513408304
 40
0.15
 50
76.9081069356
 51
90.0
  0
ENDSEC
  0
EOF
