  0
SECTION
  2
HEADER
  9
$EXTMAX
 10
420.0
 20
297.0
 30
0.0
  9
$EXTMIN
 10
0.0
 20
0.0
 30
0.0
  9
$LIMMIN
 10
0.0
 20
0.0
  9
$LIMMAX
 10
420.0
 20
297.0
  9
$VIEWCTR
 10
210.0
 20
148.5
  9
$VIEWSIZE
 40
297.0
  9
$CLAYER
  8
0
  9
$LTSCALE
 40
23.1
  9
$CELTYPE
  6
BYLAYER
  9
$DIMSCALE
 40
1.0
  9
$DIMASZ
 40
3.5
  9
$DIMEXO
 40
2.625
  9
$DIMDLI
 40
15.96
  9
$DIMEXE
 40
7.56
  9
$DIMCEN
 40
3.78
  9
$DIMLFAC
 40
1.0
  9
$DIMBLK
  1
_FILLED
  9
$DIMTXT
 40
3.5
  9
$PDMODE
 70
3
  9
$PDSIZE
 40
0.3125
  9
$TILEMODE
 70
1
  0
ENDSEC
  0
SECTION
  2
TABLES
  0
TABLE
  2
LTYPE
 70
6
  0
LTYPE
  2
BYBLOCK
 70
0
  3

 72
65
 73
0
 40
0.0
  0
LTYPE
  2
BYLAYER
 70
0
  3

 72
65
 73
0
 40
0.0
  0
LTYPE
  2
CONTINUOUS
 70
64
  3
Solid line
 72
65
 73
0
 40
0.0
  0
LTYPE
  2
CENTER
 70
64
  3
____ _ ____ _ ____ _ ____ _ ____ _ ____ _ ____
 72
65
 73
4
 40
0.6
 49
0.375
 49
-0.075
 49
0.075
 49
-0.075
  0
LTYPE
  2
HIDDEN
 70
64
  3
- - - - - - - - - - - - - - - - - - - -
 72
65
 73
2
 40
0.2
 49
0.1
 49
-0.1
  0
LTYPE
  2
PHANTOM
 70
64
  3
_____ _ _ _____ _ _ _____ _ _ _____
 72
65
 73
6
 40
0.8
 49
0.45
 49
-0.05
 49
0.1
 49
-0.05
 49
0.1
 49
-0.05
  0
LTYPE
  2
DOT
 70
64
  3
. . . . . . . . . . . . . . . . . . . .
 72
65
 73
2
 40
0.2
 49
0.1
 49
-0.1
  0
LTYPE
  2
DASHED
 70
64
  3
- - - - - - - - - - - - - - - - - - - -
 72
65
 73
2
 40
0.2
 49
0.1
 49
-0.1
  0
ENDTAB
  0
TABLE
  2
LAYER
 70
36
  0
LAYER
  2
0
 70
0
 62
7
  6
CONTINUOUS
  0
LAYER
  2
DEFAULT_1
 70
0
 62
7
  6
CENTER
  0
LAYER
  2
DEFAULT_2
 70
0
 62
8
  6
HIDDEN
  0
LAYER
  2
DEFAULT_3
 70
0
 62
7
  6
PHANTOM
  0
LAYER
  2
AXES
 70
0
 62
7
  6
CONTINUOUS
  0
LAYER
  2
CSYS
 70
0
 62
7
  6
CONTINUOUS
  0
LAYER
  2
CURVE
 70
0
 62
7
  6
CONTINUOUS
  0
LAYER
  2
CURVES
 70
0
 62
7
  6
CONTINUOUS
  0
LAYER
  2
PLANES
 70
0
 62
7
  6
CONTINUOUS
  0
LAYER
  2
QUILT
 70
0
 62
7
  6
CONTINUOUS
  0
LAYER
  2
SURF-A
 70
0
 62
7
  6
CONTINUOUS
  0
LAYER
  2
SURFACE
 70
0
 62
7
  6
CONTINUOUS
  0
ENDTAB
  0
TABLE
  2
STYLE
 70
1
  0
STYLE
  2
STANDARD
 70
0
 40
0.0
 41
0.8
 50
0.0
 71
0
 42
0.2
  3
txt
  4

  0
STYLE
  2
TEXTSTYLE_1
 70
0
 40
0.0
 41
0.8
 50
0.0
 71
0
 42
0.2
  3
gdt
  4

  0
STYLE
  2
TEXTSTYLE_2
 70
0
 40
0.0
 41
0.6
 50
0.0
 71
0
 42
0.2
  3
txt
  4

  0
STYLE
  2
TEXTSTYLE_3
 70
0
 40
0.0
 41
1.0
 50
0.0
 71
0
 42
0.2
  3
ftb_____.ttf
  4

  0
STYLE
  2
TEXTSTYLE_4
 70
0
 40
0.0
 41
1.0
 50
0.0
 71
0
 42
0.2
  3
fti_____.ttf
  4

  0
STYLE
  2
TEXTSTYLE_5
 70
0
 40
0.0
 41
1.0
 50
0.0
 71
0
 42
0.2
  3
frutiger light.ttf
  4

  0
STYLE
  2
TEXTSTYLE_6
 70
0
 40
0.0
 41
0.7
 50
0.0
 71
0
 42
0.2
  3
txt
  4

  0
STYLE
  2
TEXTSTYLE_7
 70
0
 40
0.0
 41
0.6
 50
0.0
 71
0
 42
0.2
  3
txt
  4

  0
ENDTAB
  0
ENDSEC
  0
SECTION
  2
BLOCKS
  0
BLOCK
  8
0
 62
2
  6
CONTINUOUS
  2
SYMBOL_5_BL1
 70
64
 10
382.7840918555
 20
35.5067593403
  0
TEXT
  8
0
 62
7
  6
CONTINUOUS
 10
373.842376864
 20
30.5995157174
  7
TEXTSTYLE_4
 40
1.0655737705
  1
The brand for plastic modular belts and chains
 41
1.0
 72
0
  0
LINE
  8
0
 62
7
  6
CONTINUOUS
 10
358.7621602445
 20
36.0805298321
 11
358.7621602445
 21
33.9493822911
  0
LINE
  8
0
 62
7
  6
CONTINUOUS
 10
359.0512227376
 20
30.9584509954
 11
359.0512227376
 21
31.0552420547
  0
LINE
  8
0
 62
7
  6
CONTINUOUS
 10
358.7621602445
 20
31.0229783683
 11
358.8199727462
 21
30.8293962497
  0
LINE
  8
0
 62
7
  6
CONTINUOUS
 10
360.1556028675
 20
33.867415078
 11
360.1556028675
 21
36.0805298321
  0
LINE
  8
0
 62
7
  6
CONTINUOUS
 10
361.0746601894
 20
32.0231527829
 11
361.0746601894
 21
30.5067593403
  0
LINE
  8
0
 62
7
  6
CONTINUOUS
 10
361.3637227445
 20
30.5067593403
 11
361.3637227445
 21
31.2488242184
  0
LINE
  8
0
 62
7
  6
CONTINUOUS
 10
361.3637227445
 20
31.3778789641
 11
361.3637227445
 21
32.0231527829
  0
LINE
  8
0
 62
7
  6
CONTINUOUS
 10
358.8199727462
 20
31.216560532
 11
358.7621602445
 21
31.0229783683
  0
LINE
  8
0
 62
7
  6
CONTINUOUS
 10
359.1668477307
 20
30.7971325633
 11
359.0512227376
 21
30.9584509954
  0
LINE
  8
0
 62
7
  6
CONTINUOUS
 10
360.2652852997
 20
31.3133515913
 11
360.3230977445
 21
31.216560532
  0
LINE
  8
0
 62
7
  6
CONTINUOUS
 10
360.6121602997
 20
31.216560532
 11
360.5543476894
 21
31.3456152777
  0
LINE
  8
0
 62
7
  6
CONTINUOUS
 10
362.0408487691
 20
36.0805298321
 11
362.0408487691
 21
34.2772511436
  0
LINE
  8
0
 62
7
  6
CONTINUOUS
 10
362.0408487691
 20
32.9657757338
 11
362.0408487691
 21
32.3100380288
  0
LINE
  8
0
 62
7
  6
CONTINUOUS
 10
362.4043477445
 20
31.1520331591
 11
362.4043477445
 21
30.5067593403
  0
LINE
  8
0
 62
7
  6
CONTINUOUS
 10
362.6934101343
 20
30.5067593403
 11
362.6934101343
 21
31.1520331591
  0
LINE
  8
0
 62
7
  6
CONTINUOUS
 10
359.0512227376
 20
31.0552420547
 11
359.1090352445
 21
31.1842968456
  0
LINE
  8
0
 62
7
  6
CONTINUOUS
 10
358.8199727462
 20
30.8293962497
 11
358.9355977445
 21
30.7003414814
  0
LINE
  8
0
 62
7
  6
CONTINUOUS
 10
362.3465351343
 20
31.2810879048
 11
362.4043477445
 21
31.1520331591
  0
LINE
  8
0
 62
7
  6
CONTINUOUS
 10
363.1559103548
 20
30.7971325633
 11
363.2137226343
 21
30.668077795
  0
LINE
  8
0
 62
7
  6
CONTINUOUS
 10
362.6934101343
 20
31.1520331591
 11
362.6355978548
 21
31.3133515913
  0
LINE
  8
0
 62
7
  6
CONTINUOUS
 10
363.1559103548
 20
31.3456152777
 11
363.1559103548
 21
31.2810879048
  0
LINE
  8
0
 62
7
  6
CONTINUOUS
 10
363.1559103548
 20
30.8939236226
 11
363.1559103548
 21
30.7971325633
  0
LINE
  8
0
 62
7
  6
CONTINUOUS
 10
363.4342913921
 20
32.3100380288
 11
363.4342913921
 21
36.0805298321
  0
LINE
  8
0
 62
7
  6
CONTINUOUS
 10
363.4449727445
 20
30.7648688543
 11
363.4449727445
 21
30.8293962497
  0
LINE
  8
0
 62
7
  6
CONTINUOUS
 10
363.7621602445
 20
36.0805298321
 11
363.7621602445
 21
32.3100380288
  0
LINE
  8
0
 62
7
  6
CONTINUOUS
 10
360.5543476894
 20
30.7003414814
 11
360.6121602997
 21
30.8293962497
  0
LINE
  8
0
 62
7
  6
CONTINUOUS
 10
364.9480979651
 20
30.6035504109
 11
364.890285024
 21
30.7648688543
  0
LINE
  8
0
 62
7
  6
CONTINUOUS
 10
364.6012229651
 20
31.2810879048
 11
364.6012229651
 21
31.1842968456
  0
LINE
  8
0
 62
7
  6
CONTINUOUS
 10
364.6012229651
 20
31.0552420547
 11
364.6012229651
 21
30.8616599362
  0
LINE
  8
0
 62
7
  6
CONTINUOUS
 10
364.890285024
 20
30.7648688543
 11
364.890285024
 21
31.2810879048
  0
LINE
  8
0
 62
7
  6
CONTINUOUS
 10
365.1556028675
 20
32.3100380288
 11
365.1556028675
 21
34.1133167174
  0
LINE
  8
0
 62
7
  6
CONTINUOUS
 10
365.1556028675
 20
35.4247921272
 11
365.1556028675
 21
36.0805298321
  0
LINE
  8
0
 62
7
  6
CONTINUOUS
 10
365.4684104651
 20
32.0231527829
 11
365.4684104651
 21
31.8618343508
  0
LINE
  8
0
 62
7
  6
CONTINUOUS
 10
365.4684104651
 20
31.5391973962
 11
365.4684104651
 21
30.5067593403
  0
LINE
  8
0
 62
7
  6
CONTINUOUS
 10
365.757472524
 20
30.5067593403
 11
365.757472524
 21
31.5391973962
  0
LINE
  8
0
 62
7
  6
CONTINUOUS
 10
365.757472524
 20
31.8618343508
 11
365.757472524
 21
32.0231527829
  0
LINE
  8
0
 62
7
  6
CONTINUOUS
 10
360.3230977445
 20
30.8293962497
 11
360.2652852997
 21
30.7326051679
  0
LINE
  8
0
 62
7
  6
CONTINUOUS
 10
362.6355978548
 20
31.3133515913
 11
362.5777852445
 21
31.3778789641
  0
LINE
  8
0
 62
7
  6
CONTINUOUS
 10
363.5027853548
 20
30.7003414814
 11
363.4449727445
 21
30.7648688543
  0
LINE
  8
0
 62
7
  6
CONTINUOUS
 10
364.6590352445
 20
30.5712867188
 11
364.716847524
 21
30.5067593403
  0
LINE
  8
0
 62
7
  6
CONTINUOUS
 10
364.6012229651
 20
30.668077795
 11
364.6590352445
 21
30.5712867188
  0
LINE
  8
0
 62
7
  6
CONTINUOUS
 10
365.0059102445
 20
30.5067593403
 11
364.9480979651
 21
30.6035504109
  0
LINE
  8
0
 62
7
  6
CONTINUOUS
 10
364.890285024
 20
31.2810879048
 11
364.8324727445
 21
31.3778789641
  0
LINE
  8
0
 62
7
  6
CONTINUOUS
 10
366.2199727445
 20
31.5391973962
 11
366.2199727445
 21
30.5067593403
  0
LINE
  8
0
 62
7
  6
CONTINUOUS
 10
366.5090354651
 20
30.5067593403
 11
366.5090354651
 21
31.2488242184
  0
LINE
  8
0
 62
7
  6
CONTINUOUS
 10
366.5090354651
 20
31.3778789641
 11
366.5090354651
 21
31.5391973962
  0
LINE
  8
0
 62
7
  6
CONTINUOUS
 10
367.0408487691
 20
34.5231527829
 11
367.0408487691
 21
32.3100380288
  0
LINE
  8
0
 62
7
  6
CONTINUOUS
 10
358.9355977445
 20
31.3456152777
 11
358.8199727462
 21
31.216560532
  0
LINE
  8
0
 62
7
  6
CONTINUOUS
 10
359.1090352445
 20
31.1842968456
 11
359.1668477307
 21
31.2488242184
  0
LINE
  8
0
 62
7
  6
CONTINUOUS
 10
358.9355977445
 20
30.7003414814
 11
359.0512227376
 21
30.6358140973
  0
LINE
  8
0
 62
7
  6
CONTINUOUS
 10
359.3402852307
 20
30.7003414814
 11
359.1668477307
 21
30.7971325633
  0
LINE
  8
0
 62
7
  6
CONTINUOUS
 10
364.543410024
 20
31.3456152777
 11
364.6012229651
 21
31.2810879048
  0
LINE
  8
0
 62
7
  6
CONTINUOUS
 10
367.491847524
 20
31.2810879048
 11
367.5496604651
 21
31.1197694727
  0
LINE
  8
0
 62
7
  6
CONTINUOUS
 10
367.838722524
 20
31.1197694727
 11
367.7809102445
 21
31.2810879048
  0
LINE
  8
0
 62
7
  6
CONTINUOUS
 10
367.5496604651
 20
31.1197694727
 11
367.5496604651
 21
30.5067593403
  0
LINE
  8
0
 62
7
  6
CONTINUOUS
 10
367.838722524
 20
30.5067593403
 11
367.838722524
 21
31.1197694727
  0
LINE
  8
0
 62
7
  6
CONTINUOUS
 10
368.3012227445
 20
31.3456152777
 11
368.3012227445
 21
31.2810879048
  0
LINE
  8
0
 62
7
  6
CONTINUOUS
 10
368.4342913921
 20
32.3100380288
 11
368.4342913921
 21
34.4411855698
  0
LINE
  8
0
 62
7
  6
CONTINUOUS
 10
368.7621602445
 20
36.0805298321
 11
368.7621602445
 21
32.3100380288
  0
LINE
  8
0
 62
7
  6
CONTINUOUS
 10
363.4449727445
 20
30.8293962497
 11
363.5027853548
 21
30.926187309
  0
LINE
  8
0
 62
7
  6
CONTINUOUS
 10
359.0512227376
 20
30.6358140973
 11
359.2246602583
 21
30.5712867188
  0
LINE
  8
0
 62
7
  6
CONTINUOUS
 10
360.5543476894
 20
31.3456152777
 11
360.3809101894
 21
31.4424063369
  0
LINE
  8
0
 62
7
  6
CONTINUOUS
 10
363.2137226343
 20
30.668077795
 11
363.3871601343
 21
30.5712867188
  0
LINE
  8
0
 62
7
  6
CONTINUOUS
 10
362.2309102445
 20
31.3456152777
 11
362.3465351343
 21
31.2810879048
  0
LINE
  8
0
 62
7
  6
CONTINUOUS
 10
362.5777852445
 20
31.3778789641
 11
362.4621603548
 21
31.4424063369
  0
LINE
  8
0
 62
7
  6
CONTINUOUS
 10
368.3012227445
 20
30.7648688543
 11
368.4168479651
 21
30.6358140973
  0
LINE
  8
0
 62
7
  6
CONTINUOUS
 10
368.6480977445
 20
30.7003414814
 11
368.5902854651
 21
30.7648688543
  0
LINE
  8
0
 62
7
  6
CONTINUOUS
 10
368.3012227445
 20
31.2810879048
 11
368.4168479651
 21
31.1520331591
  0
LINE
  8
0
 62
7
  6
CONTINUOUS
 10
367.7809102445
 20
31.2810879048
 11
367.7230979651
 21
31.3778789641
  0
LINE
  8
0
 62
7
  6
CONTINUOUS
 10
370.1512223035
 20
30.7003414814
 11
370.1512223035
 21
30.7648688543
  0
LINE
  8
0
 62
7
  6
CONTINUOUS
 10
370.1556028675
 20
32.3100380288
 11
370.1556028675
 21
36.0805298321
  0
LINE
  8
0
 62
7
  6
CONTINUOUS
 10
363.2137226343
 20
31.4101426505
 11
363.1559103548
 21
31.3456152777
  0
LINE
  8
0
 62
7
  6
CONTINUOUS
 10
360.091847717
 20
31.3778789641
 11
360.2652852997
 21
31.3133515913
  0
LINE
  8
0
 62
7
  6
CONTINUOUS
 10
364.8324727445
 20
31.3778789641
 11
364.716847524
 21
31.4424063369
  0
LINE
  8
0
 62
7
  6
CONTINUOUS
 10
368.6480977445
 20
31.216560532
 11
368.5902854651
 21
31.2810879048
  0
LINE
  8
0
 62
7
  6
CONTINUOUS
 10
369.8043479651
 20
30.8293962497
 11
369.8621602445
 21
30.7648688543
  0
LINE
  8
0
 62
7
  6
CONTINUOUS
 10
370.1512223035
 20
30.7648688543
 11
370.0355977445
 21
30.8939236226
  0
LINE
  8
0
 62
7
  6
CONTINUOUS
 10
369.8043479651
 20
31.3456152777
 11
369.8621602445
 21
31.2810879048
  0
LINE
  8
0
 62
7
  6
CONTINUOUS
 10
370.1512223035
 20
31.2810879048
 11
370.0355977445
 21
31.4101426505
  0
LINE
  8
0
 62
7
  6
CONTINUOUS
 10
363.4449727445
 20
31.2810879048
 11
363.5027853548
 21
31.3456152777
  0
LINE
  8
0
 62
7
  6
CONTINUOUS
 10
363.2715352445
 20
31.0229783683
 11
363.1559103548
 21
30.8939236226
  0
LINE
  8
0
 62
7
  6
CONTINUOUS
 10
364.6012229651
 20
30.8616599362
 11
364.543410024
 21
30.7971325633
  0
LINE
  8
0
 62
7
  6
CONTINUOUS
 10
364.543410024
 20
30.6035504109
 11
364.6012229651
 21
30.668077795
  0
LINE
  8
0
 62
7
  6
CONTINUOUS
 10
363.3871601343
 20
30.5712867188
 11
363.5027853548
 21
30.5390230296
  0
LINE
  8
0
 62
7
  6
CONTINUOUS
 10
360.3809101894
 20
31.4424063369
 11
360.1496602445
 21
31.5069337098
  0
LINE
  8
0
 62
7
  6
CONTINUOUS
 10
363.7340351343
 20
30.6358140973
 11
363.5027853548
 21
30.7003414814
  0
LINE
  8
0
 62
7
  6
CONTINUOUS
 10
362.4621603548
 20
31.4424063369
 11
362.2887228548
 21
31.5069337098
  0
LINE
  8
0
 62
7
  6
CONTINUOUS
 10
364.716847524
 20
31.4424063369
 11
364.543410024
 21
31.5069337098
  0
LINE
  8
0
 62
7
  6
CONTINUOUS
 10
367.3762229651
 20
31.3456152777
 11
367.491847524
 21
31.2810879048
  0
LINE
  8
0
 62
7
  6
CONTINUOUS
 10
367.7230979651
 20
31.3778789641
 11
367.6074727445
 21
31.4424063369
  0
LINE
  8
0
 62
7
  6
CONTINUOUS
 10
359.2246602583
 20
30.5712867188
 11
359.3980977583
 21
30.5390230296
  0
LINE
  8
0
 62
7
  6
CONTINUOUS
 10
359.6871602721
 20
30.6358140973
 11
359.3402852307
 21
30.7003414814
  0
LINE
  8
0
 62
7
  6
CONTINUOUS
 10
362.1152853548
 20
31.3778789641
 11
362.2309102445
 21
31.3456152777
  0
LINE
  8
0
 62
7
  6
CONTINUOUS
 10
364.4277854651
 20
31.3778789641
 11
364.543410024
 21
31.3456152777
  0
LINE
  8
0
 62
7
  6
CONTINUOUS
 10
368.7637229651
 20
30.668077795
 11
368.6480977445
 21
30.7003414814
  0
LINE
  8
0
 62
7
  6
CONTINUOUS
 10
367.2605977445
 20
31.3778789641
 11
367.3762229651
 21
31.3456152777
  0
LINE
  8
0
 62
7
  6
CONTINUOUS
 10
368.4168479651
 20
30.6358140973
 11
368.5902854651
 21
30.5712867188
  0
LINE
  8
0
 62
7
  6
CONTINUOUS
 10
367.6074727445
 20
31.4424063369
 11
367.4340352445
 21
31.5069337098
  0
LINE
  8
0
 62
7
  6
CONTINUOUS
 10
368.8215352445
 20
31.1520331591
 11
368.6480977445
 21
31.216560532
  0
LINE
  8
0
 62
7
  6
CONTINUOUS
 10
369.6309104651
 20
30.8939236226
 11
369.8043479651
 21
30.8293962497
  0
LINE
  8
0
 62
7
  6
CONTINUOUS
 10
370.0355977445
 20
31.4101426505
 11
369.8621602445
 21
31.4746700234
  0
LINE
  8
0
 62
7
  6
CONTINUOUS
 10
368.4168479651
 20
31.1520331591
 11
368.6480977445
 21
31.0552420547
  0
LINE
  8
0
 62
7
  6
CONTINUOUS
 10
370.0355977445
 20
30.8939236226
 11
369.8043479651
 21
30.9907146818
  0
LINE
  8
0
 62
7
  6
CONTINUOUS
 10
368.5902854651
 20
31.2810879048
 11
368.6480977445
 21
31.3456152777
  0
LINE
  8
0
 62
7
  6
CONTINUOUS
 10
359.0512227376
 20
31.4101426505
 11
358.9355977445
 21
31.3456152777
  0
LINE
  8
0
 62
7
  6
CONTINUOUS
 10
359.1668477307
 20
31.2488242184
 11
359.3402852307
 21
31.3456152777
  0
LINE
  8
0
 62
7
  6
CONTINUOUS
 10
361.4793477997
 20
31.4424063369
 11
361.3637227445
 21
31.3778789641
  0
LINE
  8
0
 62
7
  6
CONTINUOUS
 10
361.3637227445
 20
31.2488242184
 11
361.4793477997
 21
31.3133515913
  0
LINE
  8
0
 62
7
  6
CONTINUOUS
 10
360.3809101894
 20
30.6035504109
 11
360.5543476894
 21
30.7003414814
  0
LINE
  8
0
 62
7
  6
CONTINUOUS
 10
359.3980977583
 20
30.5390230296
 11
359.744972717
 21
30.5067593403
  0
LINE
  8
0
 62
7
  6
CONTINUOUS
 10
363.5027853548
 20
30.5390230296
 11
363.7340351343
 21
30.5067593403
  0
LINE
  8
0
 62
7
  6
CONTINUOUS
 10
361.8840352445
 20
31.4101426505
 11
362.1152853548
 21
31.3778789641
  0
LINE
  8
0
 62
7
  6
CONTINUOUS
 10
364.1965353548
 20
31.4101426505
 11
364.4277854651
 21
31.3778789641
  0
LINE
  8
0
 62
7
  6
CONTINUOUS
 10
368.6480977445
 20
31.0552420547
 11
369.6309104651
 21
30.8939236226
  0
LINE
  8
0
 62
7
  6
CONTINUOUS
 10
369.8043479651
 20
30.9907146818
 11
368.8215352445
 21
31.1520331591
  0
LINE
  8
0
 62
7
  6
CONTINUOUS
 10
362.2887228548
 20
31.5069337098
 11
362.1152853548
 21
31.5391973962
  0
LINE
  8
0
 62
7
  6
CONTINUOUS
 10
368.5902854651
 20
30.5712867188
 11
368.7637229651
 21
30.5390230296
  0
LINE
  8
0
 62
7
  6
CONTINUOUS
 10
367.4340352445
 20
31.5069337098
 11
367.2605977445
 21
31.5391973962
  0
LINE
  8
0
 62
7
  6
CONTINUOUS
 10
369.6887227445
 20
31.3778789641
 11
369.8043479651
 21
31.3456152777
  0
LINE
  8
0
 62
7
  6
CONTINUOUS
 10
369.8621602445
 20
30.7648688543
 11
369.8043479651
 21
30.7003414814
  0
LINE
  8
0
 62
7
  6
CONTINUOUS
 10
368.4168479651
 20
31.4424063369
 11
368.3012227445
 21
31.3456152777
  0
LINE
  8
0
 62
7
  6
CONTINUOUS
 10
363.3293478548
 20
31.4746700234
 11
363.2137226343
 21
31.4101426505
  0
LINE
  8
0
 62
7
  6
CONTINUOUS
 10
363.3871601343
 20
31.0875057863
 11
363.2715352445
 21
31.0229783683
  0
LINE
  8
0
 62
7
  6
CONTINUOUS
 10
363.5027853548
 20
30.926187309
 11
363.6184102445
 21
30.9907146818
  0
LINE
  8
0
 62
7
  6
CONTINUOUS
 10
361.0746601894
 20
30.5067593403
 11
361.3637227445
 21
30.5067593403
  0
LINE
  8
0
 62
7
  6
CONTINUOUS
 10
362.4043477445
 20
30.5067593403
 11
362.6934101343
 21
30.5067593403
  0
LINE
  8
0
 62
7
  6
CONTINUOUS
 10
363.7340351343
 20
30.5067593403
 11
364.0809101343
 21
30.5067593403
  0
LINE
  8
0
 62
7
  6
CONTINUOUS
 10
364.716847524
 20
30.5067593403
 11
365.0059102445
 21
30.5067593403
  0
LINE
  8
0
 62
7
  6
CONTINUOUS
 10
365.4684104651
 20
30.5067593403
 11
365.757472524
 21
30.5067593403
  0
LINE
  8
0
 62
7
  6
CONTINUOUS
 10
366.2199727445
 20
30.5067593403
 11
366.5090354651
 21
30.5067593403
  0
LINE
  8
0
 62
7
  6
CONTINUOUS
 10
367.5496604651
 20
30.5067593403
 11
367.838722524
 21
30.5067593403
  0
LINE
  8
0
 62
7
  6
CONTINUOUS
 10
369.1105979651
 20
30.5067593403
 11
369.4574729651
 21
30.5067593403
  0
LINE
  8
0
 62
7
  6
CONTINUOUS
 10
369.4574729651
 20
30.6358140973
 11
369.1105979651
 21
30.6358140973
  0
LINE
  8
0
 62
7
  6
CONTINUOUS
 10
364.0809101343
 20
30.6358140973
 11
363.7340351343
 21
30.6358140973
  0
LINE
  8
0
 62
7
  6
CONTINUOUS
 10
368.5902854651
 20
30.7648688543
 11
368.3012227445
 21
30.7648688543
  0
LINE
  8
0
 62
7
  6
CONTINUOUS
 10
360.6121602997
 20
30.8293962497
 11
360.3230977445
 21
30.8293962497
  0
LINE
  8
0
 62
7
  6
CONTINUOUS
 10
359.6871602721
 20
31.4101426505
 11
360.091847717
 21
31.3778789641
  0
LINE
  8
0
 62
7
  6
CONTINUOUS
 10
360.1496602445
 20
31.5069337098
 11
359.744972717
 21
31.5391973962
  0
LINE
  8
0
 62
7
  6
CONTINUOUS
 10
368.7637229651
 20
30.5390230296
 11
369.1105979651
 21
30.5067593403
  0
LINE
  8
0
 62
7
  6
CONTINUOUS
 10
369.1105979651
 20
30.6358140973
 11
368.7637229651
 21
30.668077795
  0
LINE
  8
0
 62
7
  6
CONTINUOUS
 10
364.543410024
 20
31.5069337098
 11
364.1965353548
 21
31.5391973962
  0
LINE
  8
0
 62
7
  6
CONTINUOUS
 10
369.3418477445
 20
31.4101426505
 11
369.6887227445
 21
31.3778789641
  0
LINE
  8
0
 62
7
  6
CONTINUOUS
 10
369.6887227445
 20
31.5069337098
 11
369.3418477445
 21
31.5391973962
  0
LINE
  8
0
 62
7
  6
CONTINUOUS
 10
367.0293479651
 20
31.4101426505
 11
367.2605977445
 21
31.3778789641
  0
LINE
  8
0
 62
7
  6
CONTINUOUS
 10
369.8621602445
 20
31.4746700234
 11
369.6887227445
 21
31.5069337098
  0
LINE
  8
0
 62
7
  6
CONTINUOUS
 10
370.0355977445
 20
30.6035504109
 11
370.1512223035
 21
30.7003414814
  0
LINE
  8
0
 62
7
  6
CONTINUOUS
 10
364.543410024
 20
30.7971325633
 11
364.369972524
 21
30.7003414814
  0
LINE
  8
0
 62
7
  6
CONTINUOUS
 10
366.624660024
 20
31.4424063369
 11
366.5090354651
 21
31.3778789641
  0
LINE
  8
0
 62
7
  6
CONTINUOUS
 10
366.5090354651
 20
31.2488242184
 11
366.624660024
 21
31.3133515913
  0
LINE
  8
0
 62
7
  6
CONTINUOUS
 10
359.2246602583
 20
31.4746700234
 11
359.0512227376
 21
31.4101426505
  0
LINE
  8
0
 62
7
  6
CONTINUOUS
 10
361.6527851343
 20
31.5069337098
 11
361.4793477997
 21
31.4424063369
  0
LINE
  8
0
 62
7
  6
CONTINUOUS
 10
361.4793477997
 20
31.3133515913
 11
361.6527851343
 21
31.3778789641
  0
LINE
  8
0
 62
7
  6
CONTINUOUS
 10
360.2652852997
 20
30.7326051679
 11
360.091847717
 21
30.668077795
  0
LINE
  8
0
 62
7
  6
CONTINUOUS
 10
369.6887227445
 20
30.668077795
 11
369.4574729651
 21
30.6358140973
  0
LINE
  8
0
 62
7
  6
CONTINUOUS
 10
364.0809101343
 20
30.5067593403
 11
364.369972524
 21
30.5390230296
  0
LINE
  8
0
 62
7
  6
CONTINUOUS
 10
369.4574729651
 20
30.5067593403
 11
369.8043479651
 21
30.5390230296
  0
LINE
  8
0
 62
7
  6
CONTINUOUS
 10
359.744972717
 20
30.5067593403
 11
360.1496602445
 21
30.5390230296
  0
LINE
  8
0
 62
7
  6
CONTINUOUS
 10
360.091847717
 20
30.668077795
 11
359.6871602721
 21
30.6358140973
  0
LINE
  8
0
 62
7
  6
CONTINUOUS
 10
363.9652852445
 20
31.0552420547
 11
364.6012229651
 21
31.0552420547
  0
LINE
  8
0
 62
7
  6
CONTINUOUS
 10
364.6012229651
 20
31.1842968456
 11
363.9652852445
 21
31.1842968456
  0
LINE
  8
0
 62
7
  6
CONTINUOUS
 10
360.3230977445
 20
31.216560532
 11
360.6121602997
 21
31.216560532
  0
LINE
  8
0
 62
7
  6
CONTINUOUS
 10
363.1559103548
 20
31.2810879048
 11
363.4449727445
 21
31.2810879048
  0
LINE
  8
0
 62
7
  6
CONTINUOUS
 10
369.8621602445
 20
31.2810879048
 11
370.1512223035
 21
31.2810879048
  0
LINE
  8
0
 62
7
  6
CONTINUOUS
 10
363.8496603548
 20
31.4101426505
 11
364.1965353548
 21
31.4101426505
  0
LINE
  8
0
 62
7
  6
CONTINUOUS
 10
368.9949727445
 20
31.4101426505
 11
369.3418477445
 21
31.4101426505
  0
LINE
  8
0
 62
7
  6
CONTINUOUS
 10
369.3418477445
 20
31.5391973962
 11
368.9949727445
 21
31.5391973962
  0
LINE
  8
0
 62
7
  6
CONTINUOUS
 10
367.2605977445
 20
31.5391973962
 11
367.0293479651
 21
31.5391973962
  0
LINE
  8
0
 62
7
  6
CONTINUOUS
 10
366.5090354651
 20
31.5391973962
 11
366.2199727445
 21
31.5391973962
  0
LINE
  8
0
 62
7
  6
CONTINUOUS
 10
365.757472524
 20
31.5391973962
 11
365.4684104651
 21
31.5391973962
  0
LINE
  8
0
 62
7
  6
CONTINUOUS
 10
364.1965353548
 20
31.5391973962
 11
363.8496603548
 21
31.5391973962
  0
LINE
  8
0
 62
7
  6
CONTINUOUS
 10
362.1152853548
 20
31.5391973962
 11
361.8840352445
 21
31.5391973962
  0
LINE
  8
0
 62
7
  6
CONTINUOUS
 10
365.4684104651
 20
31.8618343508
 11
365.757472524
 21
31.8618343508
  0
LINE
  8
0
 62
7
  6
CONTINUOUS
 10
365.757472524
 20
32.0231527829
 11
365.4684104651
 21
32.0231527829
  0
LINE
  8
0
 62
7
  6
CONTINUOUS
 10
361.3637227445
 20
32.0231527829
 11
361.0746601894
 21
32.0231527829
  0
LINE
  8
0
 62
7
  6
CONTINUOUS
 10
360.4015045068
 20
32.3100380288
 11
360.8140758554
 21
32.3100380288
  0
LINE
  8
0
 62
7
  6
CONTINUOUS
 10
362.0408487691
 20
32.3100380288
 11
363.4342913921
 21
32.3100380288
  0
LINE
  8
0
 62
7
  6
CONTINUOUS
 10
363.7621602445
 20
32.3100380288
 11
365.1556028675
 21
32.3100380288
  0
LINE
  8
0
 62
7
  6
CONTINUOUS
 10
367.0408487691
 20
32.3100380288
 11
368.4342913921
 21
32.3100380288
  0
LINE
  8
0
 62
7
  6
CONTINUOUS
 10
368.7621602445
 20
32.3100380288
 11
370.1556028675
 21
32.3100380288
  0
LINE
  8
0
 62
7
  6
CONTINUOUS
 10
366.798097524
 20
31.5069337098
 11
366.624660024
 21
31.4424063369
  0
LINE
  8
0
 62
7
  6
CONTINUOUS
 10
364.369972524
 20
30.5390230296
 11
364.543410024
 21
30.6035504109
  0
LINE
  8
0
 62
7
  6
CONTINUOUS
 10
369.8043479651
 20
30.5390230296
 11
370.0355977445
 21
30.6035504109
  0
LINE
  8
0
 62
7
  6
CONTINUOUS
 10
369.8043479651
 20
30.7003414814
 11
369.6887227445
 21
30.668077795
  0
LINE
  8
0
 62
7
  6
CONTINUOUS
 10
368.7637229651
 20
31.3778789641
 11
368.9949727445
 21
31.4101426505
  0
LINE
  8
0
 62
7
  6
CONTINUOUS
 10
366.798097524
 20
31.3778789641
 11
367.0293479651
 21
31.4101426505
  0
LINE
  8
0
 62
7
  6
CONTINUOUS
 10
363.7340351343
 20
31.0229783683
 11
363.9652852445
 21
31.0552420547
  0
LINE
  8
0
 62
7
  6
CONTINUOUS
 10
367.0293479651
 20
31.5391973962
 11
366.798097524
 21
31.5069337098
  0
LINE
  8
0
 62
7
  6
CONTINUOUS
 10
363.6184102445
 20
31.3778789641
 11
363.8496603548
 21
31.4101426505
  0
LINE
  8
0
 62
7
  6
CONTINUOUS
 10
368.9949727445
 20
31.5391973962
 11
368.6480977445
 21
31.5069337098
  0
LINE
  8
0
 62
7
  6
CONTINUOUS
 10
363.9652852445
 20
31.1842968456
 11
363.6184102445
 21
31.1520331591
  0
LINE
  8
0
 62
7
  6
CONTINUOUS
 10
359.744972717
 20
31.5391973962
 11
359.3980977583
 21
31.5069337098
  0
LINE
  8
0
 62
7
  6
CONTINUOUS
 10
363.8496603548
 20
31.5391973962
 11
363.4449727445
 21
31.5069337098
  0
LINE
  8
0
 62
7
  6
CONTINUOUS
 10
361.221176638
 20
33.4575790124
 11
360.565438933
 21
33.4575790124
  0
LINE
  8
0
 62
7
  6
CONTINUOUS
 10
366.624660024
 20
31.3133515913
 11
366.798097524
 21
31.3778789641
  0
LINE
  8
0
 62
7
  6
CONTINUOUS
 10
368.6480977445
 20
31.3456152777
 11
368.7637229651
 21
31.3778789641
  0
LINE
  8
0
 62
7
  6
CONTINUOUS
 10
368.6480977445
 20
31.5069337098
 11
368.4168479651
 21
31.4424063369
  0
LINE
  8
0
 62
7
  6
CONTINUOUS
 10
364.369972524
 20
30.7003414814
 11
364.0809101343
 21
30.6358140973
  0
LINE
  8
0
 62
7
  6
CONTINUOUS
 10
361.6527851343
 20
31.3778789641
 11
361.8840352445
 21
31.4101426505
  0
LINE
  8
0
 62
7
  6
CONTINUOUS
 10
361.8840352445
 20
31.5391973962
 11
361.6527851343
 21
31.5069337098
  0
LINE
  8
0
 62
7
  6
CONTINUOUS
 10
359.4559102445
 20
31.3778789641
 11
359.6871602721
 21
31.4101426505
  0
LINE
  8
0
 62
7
  6
CONTINUOUS
 10
365.9752749986
 20
34.9329888485
 11
366.6310127035
 21
34.9329888485
  0
LINE
  8
0
 62
7
  6
CONTINUOUS
 10
363.6184102445
 20
30.9907146818
 11
363.7340351343
 21
31.0229783683
  0
LINE
  8
0
 62
7
  6
CONTINUOUS
 10
363.6184102445
 20
31.1520331591
 11
363.3871601343
 21
31.0875057863
  0
LINE
  8
0
 62
7
  6
CONTINUOUS
 10
363.5027853548
 20
31.3456152777
 11
363.6184102445
 21
31.3778789641
  0
LINE
  8
0
 62
7
  6
CONTINUOUS
 10
360.1496602445
 20
30.5390230296
 11
360.3809101894
 21
30.6035504109
  0
LINE
  8
0
 62
7
  6
CONTINUOUS
 10
363.4449727445
 20
31.5069337098
 11
363.3293478548
 21
31.4746700234
  0
LINE
  8
0
 62
7
  6
CONTINUOUS
 10
359.3980977583
 20
31.5069337098
 11
359.2246602583
 21
31.4746700234
  0
LINE
  8
0
 62
7
  6
CONTINUOUS
 10
370.1556028675
 20
36.0805298321
 11
368.7621602445
 21
36.0805298321
  0
LINE
  8
0
 62
7
  6
CONTINUOUS
 10
366.7949471298
 20
36.0805298321
 11
366.3823757812
 21
36.0805298321
  0
LINE
  8
0
 62
7
  6
CONTINUOUS
 10
365.1556028675
 20
36.0805298321
 11
363.7621602445
 21
36.0805298321
  0
LINE
  8
0
 62
7
  6
CONTINUOUS
 10
363.4342913921
 20
36.0805298321
 11
362.0408487691
 21
36.0805298321
  0
LINE
  8
0
 62
7
  6
CONTINUOUS
 10
360.1556028675
 20
36.0805298321
 11
358.7621602445
 21
36.0805298321
  0
LINE
  8
0
 62
7
  6
CONTINUOUS
 10
359.3402852307
 20
31.3456152777
 11
359.4559102445
 21
31.3778789641
  0
CIRCLE
  8
0
 62
7
  6
CONTINUOUS
 10
369.458881556
 20
38.4165954059
 40
2.0901639344
  0
ARC
  8
0
 62
7
  6
CONTINUOUS
 10
360.4015045068
 20
33.9493822911
 40
1.6393442623
 50
180.0
 51
270.0
  0
ARC
  8
0
 62
7
  6
CONTINUOUS
 10
366.7949471298
 20
34.4411855698
 40
1.6393442623
 50
0.0
 51
90.0
  0
ARC
  8
0
 62
7
  6
CONTINUOUS
 10
360.8140758554
 20
33.7854478649
 40
1.4754098361
 50
270.0
 51
326.2510114041
  0
ARC
  8
0
 62
7
  6
CONTINUOUS
 10
366.3823757812
 20
34.6051199961
 40
1.4754098361
 50
90.0
 51
146.2510114041
  0
ARC
  8
0
 62
7
  6
CONTINUOUS
 10
361.221176638
 20
34.2772511436
 40
0.8196721311
 50
270.0
 51
360.0
  0
ARC
  8
0
 62
7
  6
CONTINUOUS
 10
365.9752749986
 20
34.1133167174
 40
0.8196721311
 50
90.0
 51
180.0
  0
ARC
  8
0
 62
7
  6
CONTINUOUS
 10
360.565438933
 20
33.867415078
 40
0.4098360656
 50
180.0
 51
270.0
  0
ARC
  8
0
 62
7
  6
CONTINUOUS
 10
366.6310127035
 20
34.5231527829
 40
0.4098360656
 50
0.0
 51
90.0
  0
SOLID
  8
0
 62
7
  6
CONTINUOUS
 10
365.4684104651
 20
31.8618347111
 11
365.4684104651
 21
32.0231531947
 12
365.757472524
 22
31.8618347111
 13
365.757472524
 23
32.0231531947
  0
SOLID
  8
0
 62
7
  6
CONTINUOUS
 10
359.744972717
 20
31.5391977439
 11
360.1496602445
 21
31.5069333244
 12
359.3980977583
 22
31.5069333244
 13
359.3980977583
 23
31.5069333244
  0
SOLID
  8
0
 62
7
  6
CONTINUOUS
 10
359.2246602583
 20
31.4746706537
 11
359.3980977583
 21
31.5069333244
 12
360.1496602445
 22
31.5069333244
 13
360.1496602445
 23
31.5069333244
  0
SOLID
  8
0
 62
7
  6
CONTINUOUS
 10
360.1496602445
 20
31.5069333244
 11
360.3809101894
 21
31.4424063504
 12
359.2246602583
 22
31.4746706537
 13
359.2246602583
 23
31.4746706537
  0
SOLID
  8
0
 62
7
  6
CONTINUOUS
 10
359.0512227376
 20
31.4101419116
 11
359.2246602583
 21
31.4746706537
 12
360.3809101894
 22
31.4424063504
 13
360.3809101894
 23
31.4424063504
  0
SOLID
  8
0
 62
7
  6
CONTINUOUS
 10
359.0512227376
 20
31.4101419116
 11
360.3809101894
 21
31.4424063504
 12
359.6871602721
 22
31.4101419116
 13
359.6871602721
 23
31.4101419116
  0
SOLID
  8
0
 62
7
  6
CONTINUOUS
 10
359.6871602721
 20
31.4101419116
 11
360.3809101894
 21
31.4424063504
 12
360.091847717
 22
31.3778792603
 13
360.091847717
 23
31.3778792603
  0
SOLID
  8
0
 62
7
  6
CONTINUOUS
 10
360.3809101894
 20
31.4424063504
 11
360.5543476894
 21
31.345614957
 12
360.091847717
 22
31.3778792603
 13
360.091847717
 23
31.3778792603
  0
SOLID
  8
0
 62
7
  6
CONTINUOUS
 10
360.2652852997
 20
31.3133521701
 11
360.091847717
 21
31.3778792603
 12
360.5543476894
 22
31.345614957
 13
360.5543476894
 23
31.345614957
  0
SOLID
  8
0
 62
7
  6
CONTINUOUS
 10
360.2652852997
 20
31.3133521701
 11
360.5543476894
 21
31.345614957
 12
360.3230977445
 22
31.2165606992
 13
360.3230977445
 23
31.2165606992
  0
SOLID
  8
0
 62
7
  6
CONTINUOUS
 10
360.5543476894
 20
31.345614957
 11
360.6121602997
 21
31.2165606992
 12
360.3230977445
 22
31.2165606992
 13
360.3230977445
 23
31.2165606992
  0
SOLID
  8
0
 62
7
  6
CONTINUOUS
 10
361.6527851343
 20
31.5069329918
 11
361.8840352445
 21
31.5391972951
 12
362.1152853548
 22
31.5391972951
 13
362.1152853548
 23
31.5391972951
  0
SOLID
  8
0
 62
7
  6
CONTINUOUS
 10
362.1152853548
 20
31.5391972951
 11
362.2887228548
 21
31.5069329918
 12
361.6527851343
 22
31.5069329918
 13
361.6527851343
 23
31.5069329918
  0
SOLID
  8
0
 62
7
  6
CONTINUOUS
 10
361.4793477997
 20
31.4424059016
 11
361.6527851343
 21
31.5069329918
 12
362.2887228548
 22
31.5069329918
 13
362.2887228548
 23
31.5069329918
  0
SOLID
  8
0
 62
7
  6
CONTINUOUS
 10
362.2887228548
 20
31.5069329918
 11
362.4621603548
 21
31.4424059016
 12
361.4793477997
 22
31.4424059016
 13
361.4793477997
 23
31.4424059016
  0
SOLID
  8
0
 62
7
  6
CONTINUOUS
 10
362.4621603548
 20
31.4424059016
 11
361.8840352445
 21
31.4101420472
 12
361.4793477997
 22
31.4424059016
 13
361.4793477997
 23
31.4424059016
  0
SOLID
  8
0
 62
7
  6
CONTINUOUS
 10
361.3637227445
 20
31.3778788115
 11
361.4793477997
 21
31.4424059016
 12
361.8840352445
 22
31.4101420472
 13
361.8840352445
 23
31.4101420472
  0
SOLID
  8
0
 62
7
  6
CONTINUOUS
 10
361.8840352445
 20
31.4101420472
 11
361.6527851343
 21
31.3778788115
 12
361.3637227445
 22
31.3778788115
 13
361.3637227445
 23
31.3778788115
  0
SOLID
  8
0
 62
7
  6
CONTINUOUS
 10
361.8840352445
 20
31.4101420472
 11
362.4621603548
 21
31.4424059016
 12
362.1152853548
 22
31.3778788115
 13
362.1152853548
 23
31.3778788115
  0
SOLID
  8
0
 62
7
  6
CONTINUOUS
 10
362.4621603548
 20
31.4424059016
 11
362.5777852445
 21
31.3778788115
 12
362.1152853548
 22
31.3778788115
 13
362.1152853548
 23
31.3778788115
  0
SOLID
  8
0
 62
7
  6
CONTINUOUS
 10
362.2309102445
 20
31.345614957
 11
362.1152853548
 21
31.3778788115
 12
362.5777852445
 22
31.3778788115
 13
362.5777852445
 23
31.3778788115
  0
SOLID
  8
0
 62
7
  6
CONTINUOUS
 10
362.5777852445
 20
31.3778788115
 11
362.6355978548
 21
31.3133517213
 12
362.2309102445
 22
31.345614957
 13
362.2309102445
 23
31.345614957
  0
SOLID
  8
0
 62
7
  6
CONTINUOUS
 10
362.3465351343
 20
31.2810878668
 11
362.2309102445
 21
31.345614957
 12
362.6355978548
 22
31.3133517213
 13
362.6355978548
 23
31.3133517213
  0
SOLID
  8
0
 62
7
  6
CONTINUOUS
 10
362.3465351343
 20
31.2810878668
 11
362.6355978548
 21
31.3133517213
 12
362.4043477445
 22
31.1520332377
 13
362.4043477445
 23
31.1520332377
  0
SOLID
  8
0
 62
7
  6
CONTINUOUS
 10
362.6355978548
 20
31.3133517213
 11
362.6934101343
 21
31.1520332377
 12
362.4043477445
 22
31.1520332377
 13
362.4043477445
 23
31.1520332377
  0
SOLID
  8
0
 62
7
  6
CONTINUOUS
 10
361.6527851343
 20
31.3778788115
 11
361.4793477997
 21
31.3133517213
 12
361.3637227445
 22
31.3778788115
 13
361.3637227445
 23
31.3778788115
  0
SOLID
  8
0
 62
7
  6
CONTINUOUS
 10
361.4793477997
 20
31.3133517213
 11
361.3637227445
 21
31.2488235635
 12
361.3637227445
 22
31.3778788115
 13
361.3637227445
 23
31.3778788115
  0
SOLID
  8
0
 62
7
  6
CONTINUOUS
 10
361.3637227445
 20
31.2488235635
 11
361.0746601894
 21
30.5067593033
 12
361.3637227445
 22
31.3778788115
 13
361.3637227445
 23
31.3778788115
  0
SOLID
  8
0
 62
7
  6
CONTINUOUS
 10
361.3637227445
 20
31.3778788115
 11
361.0746601894
 21
30.5067593033
 12
361.3637227445
 22
32.0231527459
 13
361.3637227445
 23
32.0231527459
  0
SOLID
  8
0
 62
7
  6
CONTINUOUS
 10
361.0746601894
 20
30.5067593033
 11
361.0746601894
 21
32.0231527459
 12
361.3637227445
 22
32.0231527459
 13
361.3637227445
 23
32.0231527459
  0
SOLID
  8
0
 62
7
  6
CONTINUOUS
 10
361.3637227445
 20
31.2488235635
 11
361.3637227445
 21
30.5067593033
 12
361.0746601894
 22
30.5067593033
 13
361.0746601894
 23
30.5067593033
  0
SOLID
  8
0
 62
7
  6
CONTINUOUS
 10
362.4043477445
 20
30.5067593033
 11
362.4043477445
 21
31.1520332377
 12
362.6934101343
 22
31.1520332377
 13
362.6934101343
 23
31.1520332377
  0
SOLID
  8
0
 62
7
  6
CONTINUOUS
 10
362.6934101343
 20
31.1520332377
 11
362.6934101343
 21
30.5067593033
 12
362.4043477445
 22
30.5067593033
 13
362.4043477445
 23
30.5067593033
  0
SOLID
  8
0
 62
7
  6
CONTINUOUS
 10
363.4449727445
 20
31.506933758
 11
363.8496603548
 21
31.5391977507
 12
364.1965353548
 22
31.5391977507
 13
364.1965353548
 23
31.5391977507
  0
SOLID
  8
0
 62
7
  6
CONTINUOUS
 10
364.1965353548
 20
31.5391977507
 11
364.543410024
 21
31.506933758
 12
363.4449727445
 22
31.506933758
 13
363.4449727445
 23
31.506933758
  0
SOLID
  8
0
 62
7
  6
CONTINUOUS
 10
363.3293478548
 20
31.4746706537
 11
363.4449727445
 21
31.506933758
 12
364.543410024
 22
31.506933758
 13
364.543410024
 23
31.506933758
  0
SOLID
  8
0
 62
7
  6
CONTINUOUS
 10
364.543410024
 20
31.506933758
 11
364.716847524
 21
31.4424063504
 12
363.3293478548
 22
31.4746706537
 13
363.3293478548
 23
31.4746706537
  0
SOLID
  8
0
 62
7
  6
CONTINUOUS
 10
363.2137226343
 20
31.4101417797
 11
363.3293478548
 21
31.4746706537
 12
364.716847524
 22
31.4424063504
 13
364.716847524
 23
31.4424063504
  0
SOLID
  8
0
 62
7
  6
CONTINUOUS
 10
363.2137226343
 20
31.4101417797
 11
364.716847524
 21
31.4424063504
 12
363.8496603548
 22
31.4101417797
 13
363.8496603548
 23
31.4101417797
  0
SOLID
  8
0
 62
7
  6
CONTINUOUS
 10
363.8496603548
 20
31.4101417797
 11
364.716847524
 21
31.4424063504
 12
364.1965353548
 22
31.4101417797
 13
364.1965353548
 23
31.4101417797
  0
SOLID
  8
0
 62
7
  6
CONTINUOUS
 10
364.1965353548
 20
31.4101417797
 11
364.716847524
 21
31.4424063504
 12
364.4277854651
 22
31.3778793357
 13
364.4277854651
 23
31.3778793357
  0
SOLID
  8
0
 62
7
  6
CONTINUOUS
 10
364.716847524
 20
31.4424063504
 11
364.8324727445
 21
31.3778793357
 12
364.4277854651
 22
31.3778793357
 13
364.4277854651
 23
31.3778793357
  0
SOLID
  8
0
 62
7
  6
CONTINUOUS
 10
363.1559103548
 20
31.3456153429
 11
363.2137226343
 21
31.4101417797
 12
363.8496603548
 22
31.4101417797
 13
363.8496603548
 23
31.4101417797
  0
SOLID
  8
0
 62
7
  6
CONTINUOUS
 10
364.543410024
 20
31.3456153429
 11
364.4277854651
 21
31.3778793357
 12
364.8324727445
 22
31.3778793357
 13
364.8324727445
 23
31.3778793357
  0
SOLID
  8
0
 62
7
  6
CONTINUOUS
 10
364.543410024
 20
31.3456153429
 11
364.8324727445
 21
31.3778793357
 12
364.6012229651
 22
31.2810881318
 13
364.6012229651
 23
31.2810881318
  0
SOLID
  8
0
 62
7
  6
CONTINUOUS
 10
364.8324727445
 20
31.3778793357
 11
364.890285024
 21
31.2810881318
 12
364.6012229651
 22
31.2810881318
 13
364.6012229651
 23
31.2810881318
  0
SOLID
  8
0
 62
7
  6
CONTINUOUS
 10
364.6012229651
 20
31.1842964734
 11
364.6012229651
 21
31.2810881318
 12
364.890285024
 22
31.2810881318
 13
364.890285024
 23
31.2810881318
  0
SOLID
  8
0
 62
7
  6
CONTINUOUS
 10
364.6012229651
 20
31.1842964734
 11
364.890285024
 21
31.2810881318
 12
364.6012229651
 22
31.0552422931
 13
364.6012229651
 23
31.0552422931
  0
SOLID
  8
0
 62
7
  6
CONTINUOUS
 10
364.6012229651
 20
31.0552422931
 11
364.890285024
 21
31.2810881318
 12
364.6012229651
 22
30.8616599362
 13
364.6012229651
 23
30.8616599362
  0
SOLID
  8
0
 62
7
  6
CONTINUOUS
 10
364.890285024
 20
31.2810881318
 11
364.890285024
 21
30.7648681127
 12
364.6012229651
 22
30.8616599362
 13
364.6012229651
 23
30.8616599362
  0
SOLID
  8
0
 62
7
  6
CONTINUOUS
 10
366.798097524
 20
31.5069339419
 11
367.0293479651
 21
31.5391976292
 12
367.2605977445
 22
31.5391976292
 13
367.2605977445
 23
31.5391976292
  0
SOLID
  8
0
 62
7
  6
CONTINUOUS
 10
367.2605977445
 20
31.5391976292
 11
367.4340352445
 21
31.5069339419
 12
366.798097524
 22
31.5069339419
 13
366.798097524
 23
31.5069339419
  0
SOLID
  8
0
 62
7
  6
CONTINUOUS
 10
366.624660024
 20
31.4424065674
 11
366.798097524
 21
31.5069339419
 12
367.4340352445
 22
31.5069339419
 13
367.4340352445
 23
31.5069339419
  0
SOLID
  8
0
 62
7
  6
CONTINUOUS
 10
367.4340352445
 20
31.5069339419
 11
367.6074727445
 21
31.4424065674
 12
366.624660024
 22
31.4424065674
 13
366.624660024
 23
31.4424065674
  0
SOLID
  8
0
 62
7
  6
CONTINUOUS
 10
367.6074727445
 20
31.4424065674
 11
367.0293479651
 21
31.4101420472
 12
366.624660024
 22
31.4424065674
 13
366.624660024
 23
31.4424065674
  0
SOLID
  8
0
 62
7
  6
CONTINUOUS
 10
366.5090354651
 20
31.377879193
 11
366.624660024
 21
31.4424065674
 12
367.0293479651
 22
31.4101420472
 13
367.0293479651
 23
31.4101420472
  0
SOLID
  8
0
 62
7
  6
CONTINUOUS
 10
367.0293479651
 20
31.4101420472
 11
366.798097524
 21
31.377879193
 12
366.5090354651
 22
31.377879193
 13
366.5090354651
 23
31.377879193
  0
SOLID
  8
0
 62
7
  6
CONTINUOUS
 10
367.0293479651
 20
31.4101420472
 11
367.6074727445
 21
31.4424065674
 12
367.2605977445
 22
31.377879193
 13
367.2605977445
 23
31.377879193
  0
SOLID
  8
0
 62
7
  6
CONTINUOUS
 10
367.6074727445
 20
31.4424065674
 11
367.7230979651
 21
31.377879193
 12
367.2605977445
 22
31.377879193
 13
367.2605977445
 23
31.377879193
  0
SOLID
  8
0
 62
7
  6
CONTINUOUS
 10
367.3762229651
 20
31.345614957
 11
367.2605977445
 21
31.377879193
 12
367.7230979651
 22
31.377879193
 13
367.7230979651
 23
31.377879193
  0
SOLID
  8
0
 62
7
  6
CONTINUOUS
 10
367.3762229651
 20
31.345614957
 11
367.7230979651
 21
31.377879193
 12
367.491847524
 22
31.2810881312
 13
367.491847524
 23
31.2810881312
  0
SOLID
  8
0
 62
7
  6
CONTINUOUS
 10
367.7230979651
 20
31.377879193
 11
367.7809102445
 21
31.2810881312
 12
367.491847524
 22
31.2810881312
 13
367.491847524
 23
31.2810881312
  0
SOLID
  8
0
 62
7
  6
CONTINUOUS
 10
367.5496604651
 20
31.119769695
 11
367.491847524
 21
31.2810881312
 12
367.7809102445
 22
31.2810881312
 13
367.7809102445
 23
31.2810881312
  0
SOLID
  8
0
 62
7
  6
CONTINUOUS
 10
367.7809102445
 20
31.2810881312
 11
367.838722524
 21
31.119769695
 12
367.5496604651
 22
31.119769695
 13
367.5496604651
 23
31.119769695
  0
SOLID
  8
0
 62
7
  6
CONTINUOUS
 10
366.798097524
 20
31.377879193
 11
366.624660024
 21
31.3133521701
 12
366.5090354651
 22
31.377879193
 13
366.5090354651
 23
31.377879193
  0
SOLID
  8
0
 62
7
  6
CONTINUOUS
 10
366.624660024
 20
31.3133521701
 11
366.5090354651
 21
31.2488235635
 12
366.5090354651
 22
31.377879193
 13
366.5090354651
 23
31.377879193
  0
SOLID
  8
0
 62
7
  6
CONTINUOUS
 10
366.5090354651
 20
31.2488235635
 11
366.2199727445
 21
30.5067596374
 12
366.5090354651
 22
31.377879193
 13
366.5090354651
 23
31.377879193
  0
SOLID
  8
0
 62
7
  6
CONTINUOUS
 10
366.5090354651
 20
31.377879193
 11
366.2199727445
 21
30.5067596374
 12
366.5090354651
 22
31.5391976292
 13
366.5090354651
 23
31.5391976292
  0
SOLID
  8
0
 62
7
  6
CONTINUOUS
 10
366.2199727445
 20
30.5067596374
 11
366.2199727445
 21
31.5391976292
 12
366.5090354651
 22
31.5391976292
 13
366.5090354651
 23
31.5391976292
  0
SOLID
  8
0
 62
7
  6
CONTINUOUS
 10
366.5090354651
 20
31.2488235635
 11
366.5090354651
 21
30.5067596374
 12
366.2199727445
 22
30.5067596374
 13
366.2199727445
 23
30.5067596374
  0
SOLID
  8
0
 62
7
  6
CONTINUOUS
 10
367.5496604651
 20
30.5067596374
 11
367.5496604651
 21
31.119769695
 12
367.838722524
 22
31.119769695
 13
367.838722524
 23
31.119769695
  0
SOLID
  8
0
 62
7
  6
CONTINUOUS
 10
367.838722524
 20
31.119769695
 11
367.838722524
 21
30.5067596374
 12
367.5496604651
 22
30.5067596374
 13
367.5496604651
 23
30.5067596374
  0
SOLID
  8
0
 62
7
  6
CONTINUOUS
 10
368.6480977445
 20
31.5069334157
 11
368.9949727445
 21
31.539197762
 12
369.3418477445
 22
31.539197762
 13
369.3418477445
 23
31.539197762
  0
SOLID
  8
0
 62
7
  6
CONTINUOUS
 10
369.3418477445
 20
31.539197762
 11
369.6887227445
 21
31.5069334157
 12
368.6480977445
 22
31.5069334157
 13
368.6480977445
 23
31.5069334157
  0
SOLID
  8
0
 62
7
  6
CONTINUOUS
 10
368.4168479651
 20
31.4424063504
 11
368.6480977445
 21
31.5069334157
 12
369.6887227445
 22
31.5069334157
 13
369.6887227445
 23
31.5069334157
  0
SOLID
  8
0
 62
7
  6
CONTINUOUS
 10
368.4168479651
 20
31.4424063504
 11
369.6887227445
 21
31.5069334406
 12
369.8621602445
 22
31.4746706537
 13
369.8621602445
 23
31.4746706537
  0
SOLID
  8
0
 62
7
  6
CONTINUOUS
 10
368.4168479651
 20
31.4424063504
 11
369.8621602445
 21
31.4746706537
 12
368.9949727445
 22
31.4101421267
 13
368.9949727445
 23
31.4101421267
  0
SOLID
  8
0
 62
7
  6
CONTINUOUS
 10
368.9949727445
 20
31.4101421267
 11
369.8621602445
 21
31.4746706537
 12
369.3418477445
 22
31.4101421267
 13
369.3418477445
 23
31.4101421267
  0
SOLID
  8
0
 62
7
  6
CONTINUOUS
 10
369.8621602445
 20
31.4746706537
 11
370.0355977445
 21
31.4101421267
 12
369.3418477445
 22
31.4101421267
 13
369.3418477445
 23
31.4101421267
  0
SOLID
  8
0
 62
7
  6
CONTINUOUS
 10
369.6887227445
 20
31.3778792603
 11
369.3418477445
 21
31.4101421267
 12
370.0355977445
 22
31.4101421267
 13
370.0355977445
 23
31.4101421267
  0
SOLID
  8
0
 62
7
  6
CONTINUOUS
 10
368.3012227445
 20
31.3456148845
 11
368.4168479651
 21
31.4424063504
 12
368.9949727445
 22
31.4101421267
 13
368.9949727445
 23
31.4101421267
  0
SOLID
  8
0
 62
7
  6
CONTINUOUS
 10
369.6887227445
 20
31.3778792603
 11
370.0355977445
 21
31.4101421267
 12
369.8043479651
 22
31.3456148845
 13
369.8043479651
 23
31.3456148845
  0
SOLID
  8
0
 62
7
  6
CONTINUOUS
 10
369.8043479651
 20
31.3456148845
 11
370.0355977445
 21
31.4101421267
 12
369.8621602445
 22
31.281087868
 13
369.8621602445
 23
31.281087868
  0
SOLID
  8
0
 62
7
  6
CONTINUOUS
 10
370.0355977445
 20
31.4101421267
 11
370.1512223035
 21
31.281087868
 12
369.8621602445
 22
31.281087868
 13
369.8621602445
 23
31.281087868
  0
SOLID
  8
0
 62
7
  6
CONTINUOUS
 10
359.4559102445
 20
31.3778792603
 11
358.9355977445
 21
31.3456148963
 12
359.6871602721
 22
31.4101421155
 13
359.6871602721
 23
31.4101421155
  0
SOLID
  8
0
 62
7
  6
CONTINUOUS
 10
358.9355977445
 20
31.3456148963
 11
359.0512227376
 21
31.4101421155
 12
359.6871602721
 22
31.4101421155
 13
359.6871602721
 23
31.4101421155
  0
SOLID
  8
0
 62
7
  6
CONTINUOUS
 10
359.4559102445
 20
31.3778792603
 11
359.3402852307
 21
31.3456148963
 12
358.9355977445
 22
31.3456148963
 13
358.9355977445
 23
31.3456148963
  0
SOLID
  8
0
 62
7
  6
CONTINUOUS
 10
358.8199727462
 20
31.2165607767
 11
358.9355977445
 21
31.3456148963
 12
359.3402852307
 22
31.3456148963
 13
359.3402852307
 23
31.3456148963
  0
SOLID
  8
0
 62
7
  6
CONTINUOUS
 10
363.1559103548
 20
31.3456149608
 11
363.8496603548
 21
31.4101420472
 12
363.6184102445
 22
31.3778792603
 13
363.6184102445
 23
31.3778792603
  0
SOLID
  8
0
 62
7
  6
CONTINUOUS
 10
363.6184102445
 20
31.3778792603
 11
363.5027853548
 21
31.3456149608
 12
363.1559103548
 22
31.3456149608
 13
363.1559103548
 23
31.3456149608
  0
SOLID
  8
0
 62
7
  6
CONTINUOUS
 10
363.1559103548
 20
31.2810878707
 11
363.1559103548
 21
31.3456149608
 12
363.5027853548
 22
31.3456149608
 13
363.5027853548
 23
31.3456149608
  0
SOLID
  8
0
 62
7
  6
CONTINUOUS
 10
363.5027853548
 20
31.3456149608
 11
363.4449727445
 21
31.2810878707
 12
363.1559103548
 22
31.2810878707
 13
363.1559103548
 23
31.2810878707
  0
SOLID
  8
0
 62
7
  6
CONTINUOUS
 10
368.3012227445
 20
31.3456149608
 11
368.9949727445
 21
31.4101420472
 12
368.7637229651
 22
31.3778792603
 13
368.7637229651
 23
31.3778792603
  0
SOLID
  8
0
 62
7
  6
CONTINUOUS
 10
368.7637229651
 20
31.3778792603
 11
368.6480977445
 21
31.3456149608
 12
368.3012227445
 22
31.3456149608
 13
368.3012227445
 23
31.3456149608
  0
SOLID
  8
0
 62
7
  6
CONTINUOUS
 10
368.3012227445
 20
31.2810878707
 11
368.3012227445
 21
31.3456149608
 12
368.6480977445
 22
31.3456149608
 13
368.6480977445
 23
31.3456149608
  0
SOLID
  8
0
 62
7
  6
CONTINUOUS
 10
368.6480977445
 20
31.3456149608
 11
368.5902854651
 21
31.2810878707
 12
368.3012227445
 22
31.2810878707
 13
368.3012227445
 23
31.2810878707
  0
SOLID
  8
0
 62
7
  6
CONTINUOUS
 10
368.4168479651
 20
31.1520336865
 11
368.3012227445
 21
31.2810878707
 12
368.5902854651
 22
31.2810878707
 13
368.5902854651
 23
31.2810878707
  0
SOLID
  8
0
 62
7
  6
CONTINUOUS
 10
358.8199727462
 20
31.2165607767
 11
359.3402852307
 21
31.345614957
 12
359.1668477307
 22
31.2488235635
 13
359.1668477307
 23
31.2488235635
  0
SOLID
  8
0
 62
7
  6
CONTINUOUS
 10
359.1668477307
 20
31.2488235635
 11
359.1090352445
 21
31.1842964734
 12
358.8199727462
 22
31.2165607767
 13
358.8199727462
 23
31.2165607767
  0
SOLID
  8
0
 62
7
  6
CONTINUOUS
 10
358.7621602445
 20
31.0229779898
 11
358.8199727462
 21
31.2165607767
 12
359.1090352445
 22
31.1842964734
 13
359.1090352445
 23
31.1842964734
  0
SOLID
  8
0
 62
7
  6
CONTINUOUS
 10
363.6184102445
 20
31.1520336865
 11
363.9652852445
 21
31.1842964611
 12
364.6012229651
 22
31.1842964611
 13
364.6012229651
 23
31.1842964611
  0
SOLID
  8
0
 62
7
  6
CONTINUOUS
 10
363.6184102445
 20
31.1520336865
 11
364.6012229651
 21
31.1842964611
 12
363.3871601343
 22
31.0875057863
 13
363.3871601343
 23
31.0875057863
  0
SOLID
  8
0
 62
7
  6
CONTINUOUS
 10
363.3871601343
 20
31.0875057863
 11
364.6012229651
 21
31.1842964611
 12
363.9652852445
 22
31.0552422808
 13
363.9652852445
 23
31.0552422808
  0
SOLID
  8
0
 62
7
  6
CONTINUOUS
 10
364.6012229651
 20
31.1842964611
 11
364.6012229651
 21
31.0552422808
 12
363.9652852445
 22
31.0552422808
 13
363.9652852445
 23
31.0552422808
  0
SOLID
  8
0
 62
7
  6
CONTINUOUS
 10
368.4168479651
 20
31.1520338754
 11
368.5902854651
 21
31.2810878668
 12
368.6480977445
 22
31.2165607767
 13
368.6480977445
 23
31.2165607767
  0
SOLID
  8
0
 62
7
  6
CONTINUOUS
 10
368.6480977445
 20
31.2165607767
 11
368.8215352445
 21
31.1520338754
 12
368.4168479651
 22
31.1520338754
 13
368.4168479651
 23
31.1520338754
  0
SOLID
  8
0
 62
7
  6
CONTINUOUS
 10
368.6480977445
 20
31.0552422931
 11
368.4168479651
 21
31.1520338754
 12
368.8215352445
 22
31.1520338754
 13
368.8215352445
 23
31.1520338754
  0
SOLID
  8
0
 62
7
  6
CONTINUOUS
 10
368.8215352445
 20
31.1520338754
 11
369.8043479651
 21
30.9907152029
 12
368.6480977445
 22
31.0552422931
 13
368.6480977445
 23
31.0552422931
  0
SOLID
  8
0
 62
7
  6
CONTINUOUS
 10
369.6309104651
 20
30.8939239876
 11
368.6480977445
 21
31.0552422931
 12
369.8043479651
 22
30.9907152029
 13
369.8043479651
 23
30.9907152029
  0
SOLID
  8
0
 62
7
  6
CONTINUOUS
 10
369.8043479651
 20
30.9907152029
 11
370.0355977445
 21
30.8939239876
 12
369.6309104651
 22
30.8939239876
 13
369.6309104651
 23
30.8939239876
  0
SOLID
  8
0
 62
7
  6
CONTINUOUS
 10
369.8043479651
 20
30.8293967193
 11
369.6309104651
 21
30.8939239876
 12
370.0355977445
 22
30.8939239876
 13
370.0355977445
 23
30.8939239876
  0
SOLID
  8
0
 62
7
  6
CONTINUOUS
 10
369.8043479651
 20
30.8293967193
 11
370.0355977445
 21
30.8939239876
 12
369.8621602445
 22
30.7648682694
 13
369.8621602445
 23
30.7648682694
  0
SOLID
  8
0
 62
7
  6
CONTINUOUS
 10
370.0355977445
 20
30.8939239876
 11
370.1512223035
 21
30.7648682694
 12
369.8621602445
 22
30.7648682694
 13
369.8621602445
 23
30.7648682694
  0
SOLID
  8
0
 62
7
  6
CONTINUOUS
 10
369.8043479651
 20
30.7003411846
 11
369.8621602445
 21
30.7648682694
 12
370.1512223035
 22
30.7648682694
 13
370.1512223035
 23
30.7648682694
  0
SOLID
  8
0
 62
7
  6
CONTINUOUS
 10
370.1512223035
 20
30.7648682694
 11
370.1512223035
 21
30.7003411846
 12
369.8043479651
 22
30.7003411846
 13
369.8043479651
 23
30.7003411846
  0
SOLID
  8
0
 62
7
  6
CONTINUOUS
 10
369.6887227445
 20
30.6680782357
 11
369.8043479651
 21
30.7003411846
 12
370.1512223035
 22
30.7003411846
 13
370.1512223035
 23
30.7003411846
  0
SOLID
  8
0
 62
7
  6
CONTINUOUS
 10
369.6887227445
 20
30.6680782357
 11
370.1512223035
 21
30.7003411846
 12
369.4574729651
 22
30.6358140998
 13
369.4574729651
 23
30.6358140998
  0
SOLID
  8
0
 62
7
  6
CONTINUOUS
 10
370.1512223035
 20
30.7003411846
 11
370.0355977445
 21
30.6035511455
 12
369.4574729651
 22
30.6358140998
 13
369.4574729651
 23
30.6358140998
  0
SOLID
  8
0
 62
7
  6
CONTINUOUS
 10
370.0355977445
 20
30.6035511455
 11
368.5902854651
 21
30.5712868422
 12
369.4574729651
 22
30.6358140998
 13
369.4574729651
 23
30.6358140998
  0
SOLID
  8
0
 62
7
  6
CONTINUOUS
 10
369.4574729651
 20
30.6358140998
 11
368.5902854651
 21
30.5712868422
 12
369.1105979651
 22
30.6358140998
 13
369.1105979651
 23
30.6358140998
  0
SOLID
  8
0
 62
7
  6
CONTINUOUS
 10
368.5902854651
 20
30.5712868422
 11
368.4168479651
 21
30.6358140998
 12
369.1105979651
 22
30.6358140998
 13
369.1105979651
 23
30.6358140998
  0
SOLID
  8
0
 62
7
  6
CONTINUOUS
 10
368.5902854651
 20
30.5712868422
 11
370.0355977445
 21
30.6035511455
 12
368.7637229651
 22
30.5390223111
 13
368.7637229651
 23
30.5390223111
  0
SOLID
  8
0
 62
7
  6
CONTINUOUS
 10
370.0355977445
 20
30.6035511455
 11
369.8043479651
 21
30.5390223111
 12
368.7637229651
 22
30.5390223111
 13
368.7637229651
 23
30.5390223111
  0
SOLID
  8
0
 62
7
  6
CONTINUOUS
 10
369.1105979651
 20
30.5067599302
 11
368.7637229651
 21
30.5390223111
 12
369.8043479651
 22
30.5390223111
 13
369.8043479651
 23
30.5390223111
  0
SOLID
  8
0
 62
7
  6
CONTINUOUS
 10
369.8043479651
 20
30.5390223111
 11
369.4574729651
 21
30.5067599302
 12
369.1105979651
 22
30.5067599302
 13
369.1105979651
 23
30.5067599302
  0
SOLID
  8
0
 62
7
  6
CONTINUOUS
 10
358.7621602445
 20
31.0229779898
 11
359.1090352445
 21
31.1842964734
 12
359.0512227376
 22
31.0552422931
 13
359.0512227376
 23
31.0552422931
  0
SOLID
  8
0
 62
7
  6
CONTINUOUS
 10
359.0512227376
 20
31.0552422931
 11
359.0512227376
 21
30.9584509954
 12
358.7621602445
 22
31.0229779898
 13
358.7621602445
 23
31.0229779898
  0
SOLID
  8
0
 62
7
  6
CONTINUOUS
 10
358.8199727462
 20
30.8293967193
 11
358.7621602445
 21
31.0229779898
 12
359.0512227376
 22
30.9584509954
 13
359.0512227376
 23
30.9584509954
  0
SOLID
  8
0
 62
7
  6
CONTINUOUS
 10
359.0512227376
 20
30.9584509954
 11
359.1668477307
 21
30.797132416
 12
358.8199727462
 22
30.8293967193
 13
358.8199727462
 23
30.8293967193
  0
SOLID
  8
0
 62
7
  6
CONTINUOUS
 10
358.9355977445
 20
30.7003413087
 11
358.8199727462
 21
30.8293967193
 12
359.1668477307
 22
30.797132416
 13
359.1668477307
 23
30.797132416
  0
SOLID
  8
0
 62
7
  6
CONTINUOUS
 10
359.1668477307
 20
30.797132416
 11
359.3402852307
 21
30.7003413087
 12
358.9355977445
 22
30.7003413087
 13
358.9355977445
 23
30.7003413087
  0
SOLID
  8
0
 62
7
  6
CONTINUOUS
 10
359.0512227376
 20
30.6358140759
 11
358.9355977445
 21
30.7003413087
 12
359.3402852307
 22
30.7003413087
 13
359.3402852307
 23
30.7003413087
  0
SOLID
  8
0
 62
7
  6
CONTINUOUS
 10
359.3402852307
 20
30.7003413087
 11
359.6871602721
 21
30.6358140759
 12
359.0512227376
 22
30.6358140759
 13
359.0512227376
 23
30.6358140759
  0
SOLID
  8
0
 62
7
  6
CONTINUOUS
 10
359.2246602583
 20
30.5712868422
 11
359.0512227376
 21
30.6358140759
 12
359.6871602721
 22
30.6358140759
 13
359.6871602721
 23
30.6358140759
  0
SOLID
  8
0
 62
7
  6
CONTINUOUS
 10
363.2715352445
 20
31.0229779808
 11
363.3871601343
 21
31.0875057863
 12
363.9652852445
 22
31.0552422931
 13
363.9652852445
 23
31.0552422931
  0
SOLID
  8
0
 62
7
  6
CONTINUOUS
 10
363.9652852445
 20
31.0552422931
 11
363.7340351343
 21
31.0229779808
 12
363.2715352445
 22
31.0229779808
 13
363.2715352445
 23
31.0229779808
  0
SOLID
  8
0
 62
7
  6
CONTINUOUS
 10
363.1559103548
 20
30.8939238094
 11
363.2715352445
 21
31.0229779808
 12
363.7340351343
 22
31.0229779808
 13
363.7340351343
 23
31.0229779808
  0
SOLID
  8
0
 62
7
  6
CONTINUOUS
 10
363.5027853548
 20
30.926187309
 11
363.1559103548
 21
30.8939238094
 12
363.6184102445
 22
30.9907152029
 13
363.6184102445
 23
30.9907152029
  0
SOLID
  8
0
 62
7
  6
CONTINUOUS
 10
363.1559103548
 20
30.8939238094
 11
363.7340351343
 21
31.0229779898
 12
363.6184102445
 22
30.9907152029
 13
363.6184102445
 23
30.9907152029
  0
SOLID
  8
0
 62
7
  6
CONTINUOUS
 10
363.5027853548
 20
30.926187309
 11
363.4449727445
 21
30.8293967193
 12
363.1559103548
 22
30.8939238094
 13
363.1559103548
 23
30.8939238094
  0
SOLID
  8
0
 62
7
  6
CONTINUOUS
 10
363.1559103548
 20
30.797132416
 11
363.1559103548
 21
30.8939238094
 12
363.4449727445
 22
30.8293967193
 13
363.4449727445
 23
30.8293967193
  0
SOLID
  8
0
 62
7
  6
CONTINUOUS
 10
363.4449727445
 20
30.8293967193
 11
363.4449727445
 21
30.7648681127
 12
363.1559103548
 22
30.797132416
 13
363.1559103548
 23
30.797132416
  0
SOLID
  8
0
 62
7
  6
CONTINUOUS
 10
363.2137226343
 20
30.6680782357
 11
363.1559103548
 21
30.797132416
 12
363.4449727445
 22
30.7648681127
 13
363.4449727445
 23
30.7648681127
  0
SOLID
  8
0
 62
7
  6
CONTINUOUS
 10
364.6012229651
 20
30.8616599362
 11
364.890285024
 21
30.7648681127
 12
364.543410024
 22
30.797132416
 13
364.543410024
 23
30.797132416
  0
SOLID
  8
0
 62
7
  6
CONTINUOUS
 10
364.369972524
 20
30.7003410226
 11
364.543410024
 21
30.797132416
 12
364.890285024
 22
30.7648681127
 13
364.890285024
 23
30.7648681127
  0
SOLID
  8
0
 62
7
  6
CONTINUOUS
 10
364.369972524
 20
30.7003410226
 11
364.890285024
 21
30.7648681127
 12
364.6012229651
 22
30.6680782357
 13
364.6012229651
 23
30.6680782357
  0
SOLID
  8
0
 62
7
  6
CONTINUOUS
 10
364.890285024
 20
30.7648681127
 11
364.9480979651
 21
30.6035511455
 12
364.6012229651
 22
30.6680782357
 13
364.6012229651
 23
30.6680782357
  0
SOLID
  8
0
 62
7
  6
CONTINUOUS
 10
364.6590352445
 20
30.5712868422
 11
364.6012229651
 21
30.6680782357
 12
364.9480979651
 22
30.6035511455
 13
364.9480979651
 23
30.6035511455
  0
SOLID
  8
0
 62
7
  6
CONTINUOUS
 10
364.6590352445
 20
30.5712868422
 11
364.9480979651
 21
30.6035511455
 12
364.716847524
 22
30.5067598731
 13
364.716847524
 23
30.5067598731
  0
SOLID
  8
0
 62
7
  6
CONTINUOUS
 10
364.9480979651
 20
30.6035511455
 11
365.0059102445
 21
30.5067598731
 12
364.716847524
 22
30.5067598731
 13
364.716847524
 23
30.5067598731
  0
SOLID
  8
0
 62
7
  6
CONTINUOUS
 10
360.2652852997
 20
30.7326051679
 11
360.3230977445
 21
30.8293966612
 12
360.6121602997
 22
30.8293966612
 13
360.6121602997
 23
30.8293966612
  0
SOLID
  8
0
 62
7
  6
CONTINUOUS
 10
360.6121602997
 20
30.8293966612
 11
360.5543476894
 21
30.7003410226
 12
360.2652852997
 22
30.7326051679
 13
360.2652852997
 23
30.7326051679
  0
SOLID
  8
0
 62
7
  6
CONTINUOUS
 10
360.091847717
 20
30.6680782357
 11
360.2652852997
 21
30.7326051679
 12
360.5543476894
 22
30.7003410226
 13
360.5543476894
 23
30.7003410226
  0
SOLID
  8
0
 62
7
  6
CONTINUOUS
 10
360.091847717
 20
30.6680782357
 11
360.5543476894
 21
30.7003410226
 12
359.6871602721
 22
30.6358139324
 13
359.6871602721
 23
30.6358139324
  0
SOLID
  8
0
 62
7
  6
CONTINUOUS
 10
360.5543476894
 20
30.7003410226
 11
360.3809101894
 21
30.6035511455
 12
359.6871602721
 22
30.6358139324
 13
359.6871602721
 23
30.6358139324
  0
SOLID
  8
0
 62
7
  6
CONTINUOUS
 10
359.2246602583
 20
30.5712868422
 11
359.6871602721
 21
30.6358139324
 12
360.3809101894
 22
30.6035511455
 13
360.3809101894
 23
30.6035511455
  0
SOLID
  8
0
 62
7
  6
CONTINUOUS
 10
359.2246602583
 20
30.5712868422
 11
360.3809101894
 21
30.6035511455
 12
359.3980977583
 22
30.5390224228
 13
359.3980977583
 23
30.5390224228
  0
SOLID
  8
0
 62
7
  6
CONTINUOUS
 10
360.3809101894
 20
30.6035511455
 11
360.1496602445
 21
30.5390224228
 12
359.3980977583
 22
30.5390224228
 13
359.3980977583
 23
30.5390224228
  0
SOLID
  8
0
 62
7
  6
CONTINUOUS
 10
359.744972717
 20
30.5067597521
 11
359.3980977583
 21
30.5390224228
 12
360.1496602445
 22
30.5390224228
 13
360.1496602445
 23
30.5390224228
  0
SOLID
  8
0
 62
7
  6
CONTINUOUS
 10
363.2137226343
 20
30.6680782357
 11
363.4449727445
 21
30.7648681127
 12
363.5027853548
 22
30.7003410226
 13
363.5027853548
 23
30.7003410226
  0
SOLID
  8
0
 62
7
  6
CONTINUOUS
 10
363.5027853548
 20
30.7003410226
 11
363.7340351343
 21
30.6358139324
 12
363.2137226343
 22
30.6680782357
 13
363.2137226343
 23
30.6680782357
  0
SOLID
  8
0
 62
7
  6
CONTINUOUS
 10
363.3871601343
 20
30.5712868422
 11
363.2137226343
 21
30.6680782357
 12
363.7340351343
 22
30.6358139324
 13
363.7340351343
 23
30.6358139324
  0
SOLID
  8
0
 62
7
  6
CONTINUOUS
 10
364.0809101343
 20
30.6358139363
 11
364.369972524
 21
30.7003410226
 12
364.6012229651
 22
30.6680782357
 13
364.6012229651
 23
30.6680782357
  0
SOLID
  8
0
 62
7
  6
CONTINUOUS
 10
364.6012229651
 20
30.6680782357
 11
364.543410024
 21
30.6035511455
 12
364.0809101343
 22
30.6358139363
 13
364.0809101343
 23
30.6358139363
  0
SOLID
  8
0
 62
7
  6
CONTINUOUS
 10
364.543410024
 20
30.6035511455
 11
363.3871601343
 21
30.5712868422
 12
364.0809101343
 22
30.6358139363
 13
364.0809101343
 23
30.6358139363
  0
SOLID
  8
0
 62
7
  6
CONTINUOUS
 10
363.3871601343
 20
30.5712868422
 11
363.7340351343
 21
30.6358139363
 12
364.0809101343
 22
30.6358139363
 13
364.0809101343
 23
30.6358139363
  0
SOLID
  8
0
 62
7
  6
CONTINUOUS
 10
363.3871601343
 20
30.5712868422
 11
364.543410024
 21
30.6035511455
 12
363.5027853548
 22
30.5390225267
 13
363.5027853548
 23
30.5390225267
  0
SOLID
  8
0
 62
7
  6
CONTINUOUS
 10
364.543410024
 20
30.6035511455
 11
364.369972524
 21
30.5390225267
 12
363.5027853548
 22
30.5390225267
 13
363.5027853548
 23
30.5390225267
  0
SOLID
  8
0
 62
7
  6
CONTINUOUS
 10
363.7340351343
 20
30.5067596914
 11
363.5027853548
 21
30.5390225267
 12
364.369972524
 22
30.5390225267
 13
364.369972524
 23
30.5390225267
  0
SOLID
  8
0
 62
7
  6
CONTINUOUS
 10
364.369972524
 20
30.5390225267
 11
364.0809101343
 21
30.5067596914
 12
363.7340351343
 22
30.5067596914
 13
363.7340351343
 23
30.5067596914
  0
SOLID
  8
0
 62
7
  6
CONTINUOUS
 10
368.7637229651
 20
30.6680782357
 11
368.4168479651
 21
30.6358138717
 12
368.6480977445
 22
30.7003410226
 13
368.6480977445
 23
30.7003410226
  0
SOLID
  8
0
 62
7
  6
CONTINUOUS
 10
368.6480977445
 20
30.7003410226
 11
368.4168479651
 21
30.6358138717
 12
368.5902854651
 22
30.7648680521
 13
368.5902854651
 23
30.7648680521
  0
SOLID
  8
0
 62
7
  6
CONTINUOUS
 10
368.4168479651
 20
30.6358138717
 11
368.3012227445
 21
30.7648680521
 12
368.5902854651
 22
30.7648680521
 13
368.5902854651
 23
30.7648680521
  0
SOLID
  8
0
 62
7
  6
CONTINUOUS
 10
368.7637229651
 20
30.6680782357
 11
369.1105979651
 21
30.6358138717
 12
368.4168479651
 22
30.6358138717
 13
368.4168479651
 23
30.6358138717
  0
SOLID
  8
0
 62
7
  6
CONTINUOUS
 10
365.4684104651
 20
30.5067597521
 11
365.4684104651
 21
31.5391977439
 12
365.757472524
 22
30.5067597521
 13
365.757472524
 23
31.5391977439
  0
ENDBLK
  8
0
  6
BYBLOCK
 62
0
  0
BLOCK
  8
0
 62
2
  6
CONTINUOUS
  2
SYMBOL_0_BL0
 70
64
 10
240.8592468615
 20
19.762288695
  0
TEXT
  8
0
 62
7
  6
CONTINUOUS
 10
227.1239507038
 20
19.1357028027
  7
TEXTSTYLE_3
 40
2.7338706658
  1
Ammeraal Beltech
 41
1.0
 51
15.0
 72
0
  0
TEXT
  8
0
 62
7
  6
CONTINUOUS
 10
237.9247515296
 20
16.8621661299
  7
TEXTSTYLE_4
 40
1.0935482663
  1
Innovation & Service in Belting
 41
1.0
 72
0
  0
LINE
  8
0
 62
7
  6
CONTINUOUS
 10
221.0994100525
 20
19.9022961113
 11
221.8775620458
 21
23.5632134089
  0
LINE
  8
0
 62
7
  6
CONTINUOUS
 10
231.9727303357
 20
27.2266073205
 11
222.3653797889
 21
24.1049898993
  0
LINE
  8
0
 62
7
  6
CONTINUOUS
 10
221.3246933848
 20
19.2089453082
 11
228.8317686459
 21
12.4495443822
  0
LINE
  8
0
 62
7
  6
CONTINUOUS
 10
221.5872277955
 20
20.4440726016
 11
232.3954971607
 21
23.9558922005
  0
LINE
  8
0
 62
7
  6
CONTINUOUS
 10
232.3912920235
 20
13.6061036368
 11
223.9458323548
 21
21.2104296785
  0
LINE
  8
0
 62
7
  6
CONTINUOUS
 10
232.9111147433
 20
26.3816822048
 11
231.9345552061
 21
21.7873308023
  0
LINE
  8
0
 62
7
  6
CONTINUOUS
 10
231.2347532584
 20
18.4950214885
 11
230.5483050469
 21
15.2655365641
  0
LINE
  8
0
 62
7
  6
CONTINUOUS
 10
233.5922108419
 20
13.9963058145
 11
234.5484423775
 21
18.4950214885
  0
LINE
  8
0
 62
7
  6
CONTINUOUS
 10
235.2482443252
 20
21.7873308023
 11
235.6924861276
 21
23.8773241617
  0
LINE
  8
0
 62
7
  6
CONTINUOUS
 10
229.5448697213
 20
12.2979700695
 11
233.1043930989
 21
13.4545293241
  0
LINE
  8
0
 62
7
  6
CONTINUOUS
 10
232.685831411
 20
27.0750330078
 11
235.4672027953
 21
24.5706749648
  0
ARC
  8
0
 62
7
  6
CONTINUOUS
 10
222.5906631212
 20
23.4116390962
 40
0.7290321776
 50
108.0
 51
168.0
  0
ARC
  8
0
 62
7
  6
CONTINUOUS
 10
232.198013668
 20
26.5332565175
 40
0.7290321776
 50
348.0
 51
108.0
  0
ARC
  8
0
 62
7
  6
CONTINUOUS
 10
234.9793850522
 20
24.0288984744
 40
0.7290321776
 50
348.0
 51
48.0
  0
ARC
  8
0
 62
7
  6
CONTINUOUS
 10
229.319586389
 20
12.9913208726
 40
0.7290321776
 50
228.0
 51
288.0
  0
ARC
  8
0
 62
7
  6
CONTINUOUS
 10
221.8125111278
 20
19.7507217986
 40
0.7290321776
 50
108.0
 51
228.0
  0
ARC
  8
0
 62
7
  6
CONTINUOUS
 10
232.8791097665
 20
14.1478801272
 40
0.7290321776
 50
228.0
 51
348.0
  0
ENDBLK
  8
0
  6
BYBLOCK
 62
0
  0
ENDSEC
  0
SECTION
  2
ENTITIES
  0
TEXT
  8
0
 62
5
  6
CONTINUOUS
 10
304.937007874
 20
25.636
  7
TEXTSTYLE_2
 40
2.8
  1
Scale :
 41
0.6
 51
0.000019
 72
0
  0
TEXT
  8
0
 62
5
  6
CONTINUOUS
 10
324.937007874
 20
25.636
  7
TEXTSTYLE_2
 40
2.8
  1
Belt type:
 41
0.6
 51
0.000019
 72
0
  0
INSERT
  8
0
 62
2
  6
CONTINUOUS
  2
SYMBOL_0_BL0
 10
240.8592468615
 20
19.762288695
  0
INSERT
  8
0
 62
2
  6
CONTINUOUS
  2
SYMBOL_5_BL1
 10
382.7840918555
 20
35.5067593403
  0
LINE
  8
0
 62
2
  6
CONTINUOUS
 10
218.937007874
 20
30.0
 11
408.937007874
 21
30.0
  0
LINE
  8
0
 62
2
  6
CONTINUOUS
 10
218.937007874
 20
30.0
 11
218.937007874
 21
10.0
  0
LINE
  8
0
 62
2
  6
CONTINUOUS
 10
218.937007874
 20
10.0
 11
408.937007874
 21
10.0
  0
LINE
  8
0
 62
2
  6
CONTINUOUS
 10
303.937007874
 20
30.0
 11
303.937007874
 21
10.0
  0
LINE
  8
0
 62
2
  6
CONTINUOUS
 10
323.937007874
 20
30.0
 11
323.937007874
 21
10.0
  0
LINE
  8
0
 62
2
  6
CONTINUOUS
 10
408.937007874
 20
30.0
 11
408.937007874
 21
10.0
  0
TEXT
  8
0
 62
5
  6
CONTINUOUS
 10
221.937007874
 20
23.303
  7
TEXTSTYLE_5
 40
1.52
  1
                                                                     Ammeraal Beltech Modular A/S
 41
1.0
 72
0
  0
TEXT
  8
0
 62
5
  6
CONTINUOUS
 10
221.937007874
 20
20.595
  7
TEXTSTYLE_5
 40
1.5
  1
                                                                      Hjulmagervej 21, 7100 Vejle,  DK
 41
1.0
 72
0
  0
TEXT
  8
0
 62
5
  6
CONTINUOUS
 10
221.937007874
 20
17.881
  7
TEXTSTYLE_5
 40
1.495
  1
                                                                      tel: 
 41
1.0
 72
0
  0
TEXT
  8
0
 62
5
  6
CONTINUOUS
 10
266.9239544389
 20
17.881
  7
TEXTSTYLE_5
 40
1.51
  1
+45 75723100     fax: +45 75723348
 41
1.0
 72
0
  0
TEXT
  8
0
 62
5
  6
CONTINUOUS
 10
221.937007874
 20
15.177
  7
TEXTSTYLE_5
 40
1.5
  1
                                                                      admin@unichains.dk  www.unichains.com
 41
1.0
 72
0
  0
TEXT
  8
0
 62
5
  6
CONTINUOUS
 10
308.687007874
 20
13.75
  7
TEXTSTYLE_6
 40
5.0
  1
1:1
 41
0.7
 72
1
 11
313.937007874
 21
13.75
  0
TEXT
  8
0
 62
5
  6
CONTINUOUS
 10
326.937007874
 20
13.75
  7
TEXTSTYLE_7
 40
7.5
  1
uni Flex ASB-43 K300
 41
0.49875
 72
0
  0
LINE
  8
0
 62
7
  6
CONTINUOUS
 10
0.0
 20
0.0
 11
0.0
 21
297.0
  0
LINE
  8
0
 62
7
  6
CONTINUOUS
 10
8.937007874
 20
10.0
 11
8.937007874
 21
287.0
  0
LINE
  8
0
 62
7
  6
CONTINUOUS
 10
0.0
 20
0.0
 11
420.0
 21
0.0
  0
LINE
  8
0
 62
7
  6
CONTINUOUS
 10
408.937007874
 20
10.0
 11
8.937007874
 21
10.0
  0
LINE
  8
0
 62
7
  6
CONTINUOUS
 10
218.937007874
 20
30.0
 11
408.937007874
 21
30.0
  0
LINE
  8
0
 62
7
  6
CONTINUOUS
 10
210.0
 20
297.0
 11
210.0
 21
292.0
  0
LINE
  8
0
 62
7
  6
CONTINUOUS
 10
210.0
 20
0.0
 11
210.0
 21
5.0
  0
LINE
  8
0
 62
7
  6
CONTINUOUS
 10
8.937007874
 20
287.0
 11
408.937007874
 21
287.0
  0
LINE
  8
0
 62
7
  6
CONTINUOUS
 10
0.0
 20
297.0
 11
420.0
 21
297.0
  0
LINE
  8
0
 62
7
  6
CONTINUOUS
 10
408.937007874
 20
287.0
 11
408.937007874
 21
10.0
  0
LINE
  8
0
 62
7
  6
CONTINUOUS
 10
420.0
 20
0.0
 11
420.0
 21
297.0
  0
POLYLINE
  8
AXES
 62
7
  6
CONTINUOUS
 66
1
 70
0
  0
VERTEX
  8
AXES
 62
7
  6
CONTINUOUS
 10
147.6137376398
 20
220.7608571518
  0
VERTEX
  8
AXES
 62
7
  6
CONTINUOUS
 10
147.4830441302
 20
220.7270009654
  0
VERTEX
  8
AXES
 62
7
  6
CONTINUOUS
 10
147.3509100611
 20
220.6821982634
  0
VERTEX
  8
AXES
 62
7
  6
CONTINUOUS
 10
147.2191186928
 20
220.6277801407
  0
VERTEX
  8
AXES
 62
7
  6
CONTINUOUS
 10
147.0895788884
 20
220.5657096604
  0
VERTEX
  8
AXES
 62
7
  6
CONTINUOUS
 10
146.9654829891
 20
220.4990745855
  0
VERTEX
  8
AXES
 62
7
  6
CONTINUOUS
 10
146.8502286425
 20
220.4315368285
  0
VERTEX
  8
AXES
 62
7
  6
CONTINUOUS
 10
146.74681431
 20
220.3667366237
  0
VERTEX
  8
AXES
 62
7
  6
CONTINUOUS
 10
146.6578795034
 20
220.3080679743
  0
VERTEX
  8
AXES
 62
7
  6
CONTINUOUS
 10
146.5847841894
 20
220.2578926388
  0
VERTEX
  8
AXES
 62
7
  6
CONTINUOUS
 10
146.526904435
 20
220.2168782276
  0
VERTEX
  8
AXES
 62
7
  6
CONTINUOUS
 10
146.4835097318
 20
220.1852618341
  0
VERTEX
  8
AXES
 62
7
  6
CONTINUOUS
 10
146.4535562697
 20
220.1627800277
  0
VERTEX
  8
AXES
 62
7
  6
CONTINUOUS
 10
146.4364675881
 20
220.1493033956
  0
VERTEX
  8
AXES
 62
7
  6
CONTINUOUS
 10
146.4319064023
 20
220.1449274763
  0
SEQEND
  0
POLYLINE
  8
0
 62
7
  6
CONTINUOUS
 66
1
 70
0
  0
VERTEX
  8
0
 62
7
  6
CONTINUOUS
 10
146.9422217343
 20
216.2917898759
  0
VERTEX
  8
0
 62
7
  6
CONTINUOUS
 10
146.7785828756
 20
216.2635201097
  0
VERTEX
  8
0
 62
7
  6
CONTINUOUS
 10
146.7144440032
 20
216.2535064898
  0
VERTEX
  8
0
 62
7
  6
CONTINUOUS
 10
146.6623518179
 20
216.2470850718
  0
VERTEX
  8
0
 62
7
  6
CONTINUOUS
 10
146.6228609468
 20
216.2448371534
  0
SEQEND
  0
POLYLINE
  8
0
 62
7
  6
CONTINUOUS
 66
1
 70
0
  0
VERTEX
  8
0
 62
7
  6
CONTINUOUS
 10
147.9092101508
 20
216.3877175281
  0
VERTEX
  8
0
 62
7
  6
CONTINUOUS
 10
147.7760125134
 20
216.3852062206
  0
VERTEX
  8
0
 62
7
  6
CONTINUOUS
 10
147.6438401835
 20
216.3790416177
  0
VERTEX
  8
0
 62
7
  6
CONTINUOUS
 10
147.5134735799
 20
216.3694556519
  0
VERTEX
  8
0
 62
7
  6
CONTINUOUS
 10
147.3862431086
 20
216.3568701657
  0
VERTEX
  8
0
 62
7
  6
CONTINUOUS
 10
147.2638730662
 20
216.3419326876
  0
VERTEX
  8
0
 62
7
  6
CONTINUOUS
 10
147.1480647007
 20
216.3254696088
  0
VERTEX
  8
0
 62
7
  6
CONTINUOUS
 10
147.0403838338
 20
216.3084240448
  0
VERTEX
  8
0
 62
7
  6
CONTINUOUS
 10
146.9422217343
 20
216.2917898759
  0
SEQEND
  0
LINE
  8
0
 62
7
  6
CONTINUOUS
 10
100.7818959983
 20
216.2448371534
 11
176.5819064006
 21
216.2448371534
  0
LINE
  8
AXES
 62
2
  6
CENTER
 10
98.0319064006
 20
222.2448371534
 11
176.7319064006
 21
222.2448371534
  0
POLYLINE
  8
0
 62
7
  6
CONTINUOUS
 66
1
 70
0
  0
VERTEX
  8
0
 62
7
  6
CONTINUOUS
 10
154.8409518543
 20
216.2448371534
  0
VERTEX
  8
0
 62
7
  6
CONTINUOUS
 10
154.801671422
 20
216.2470648225
  0
VERTEX
  8
0
 62
7
  6
CONTINUOUS
 10
154.7495233082
 20
216.2534844025
  0
VERTEX
  8
0
 62
7
  6
CONTINUOUS
 10
154.6847184159
 20
216.2636048583
  0
SEQEND
  0
LINE
  8
0
 62
7
  6
CONTINUOUS
 10
100.7818967927
 20
228.2448371534
 11
172.4146941989
 21
228.2448371534
  0
POLYLINE
  8
0
 62
7
  6
CONTINUOUS
 66
1
 70
0
  0
VERTEX
  8
0
 62
7
  6
CONTINUOUS
 10
154.6847184159
 20
216.2636048583
  0
VERTEX
  8
0
 62
7
  6
CONTINUOUS
 10
154.5192984883
 20
216.2921866153
  0
VERTEX
  8
0
 62
7
  6
CONTINUOUS
 10
154.4204402255
 20
216.3089163678
  0
VERTEX
  8
0
 62
7
  6
CONTINUOUS
 10
154.3124713242
 20
216.3259638296
  0
VERTEX
  8
0
 62
7
  6
CONTINUOUS
 10
154.1968612957
 20
216.3423406608
  0
VERTEX
  8
0
 62
7
  6
CONTINUOUS
 10
154.0752056348
 20
216.3571320808
  0
VERTEX
  8
0
 62
7
  6
CONTINUOUS
 10
153.9491022876
 20
216.3695626099
  0
VERTEX
  8
0
 62
7
  6
CONTINUOUS
 10
153.8197919012
 20
216.3790525266
  0
VERTEX
  8
0
 62
7
  6
CONTINUOUS
 10
153.6880349456
 20
216.385198517
  0
VERTEX
  8
0
 62
7
  6
CONTINUOUS
 10
153.5546015766
 20
216.3877172972
  0
SEQEND
  0
LINE
  8
0
 62
7
  6
CONTINUOUS
 10
176.6158834248
 20
227.2718192407
 11
172.4486712231
 21
228.2409383574
  0
POLYLINE
  8
AXES
 62
7
  6
CONTINUOUS
 66
1
 70
0
  0
VERTEX
  8
AXES
 62
7
  6
CONTINUOUS
 10
153.8500751613
 20
220.7608571518
  0
VERTEX
  8
AXES
 62
7
  6
CONTINUOUS
 10
153.8282222952
 20
220.7674111777
  0
VERTEX
  8
AXES
 62
7
  6
CONTINUOUS
 10
153.8072923607
 20
220.7775154564
  0
VERTEX
  8
AXES
 62
7
  6
CONTINUOUS
 10
153.788034926
 20
220.7910761629
  0
VERTEX
  8
AXES
 62
7
  6
CONTINUOUS
 10
153.7704970724
 20
220.8085306647
  0
VERTEX
  8
AXES
 62
7
  6
CONTINUOUS
 10
153.755145325
 20
220.8304227965
  0
VERTEX
  8
AXES
 62
7
  6
CONTINUOUS
 10
153.7429562996
 20
220.8568546438
  0
VERTEX
  8
AXES
 62
7
  6
CONTINUOUS
 10
153.7348750908
 20
220.8878591952
  0
VERTEX
  8
AXES
 62
7
  6
CONTINUOUS
 10
153.7318920374
 20
220.923817941
  0
SEQEND
  0
POLYLINE
  8
AXES
 62
7
  6
CONTINUOUS
 66
1
 70
0
  0
VERTEX
  8
AXES
 62
7
  6
CONTINUOUS
 10
100.0364895981
 20
220.2608520704
  0
VERTEX
  8
AXES
 62
7
  6
CONTINUOUS
 10
100.0330551142
 20
220.2546080432
  0
VERTEX
  8
AXES
 62
7
  6
CONTINUOUS
 10
100.0319064006
 20
220.2484657317
  0
SEQEND
  0
POLYLINE
  8
AXES
 62
7
  6
CONTINUOUS
 66
1
 70
0
  0
VERTEX
  8
AXES
 62
7
  6
CONTINUOUS
 10
100.0364895981
 20
224.2288222363
  0
VERTEX
  8
AXES
 62
7
  6
CONTINUOUS
 10
100.0842624415
 20
224.1528840178
  0
VERTEX
  8
AXES
 62
7
  6
CONTINUOUS
 10
100.1298281932
 20
224.0593121034
  0
VERTEX
  8
AXES
 62
7
  6
CONTINUOUS
 10
100.1727636029
 20
223.9491720601
  0
VERTEX
  8
AXES
 62
7
  6
CONTINUOUS
 10
100.2126848654
 20
223.8236794047
  0
VERTEX
  8
AXES
 62
7
  6
CONTINUOUS
 10
100.2492504778
 20
223.6841705313
  0
VERTEX
  8
AXES
 62
7
  6
CONTINUOUS
 10
100.2821621468
 20
223.5320753004
  0
VERTEX
  8
AXES
 62
7
  6
CONTINUOUS
 10
100.311164329
 20
223.3688923865
  0
VERTEX
  8
AXES
 62
7
  6
CONTINUOUS
 10
100.3360430256
 20
223.1961663404
  0
VERTEX
  8
AXES
 62
7
  6
CONTINUOUS
 10
100.3566234229
 20
223.0154707085
  0
VERTEX
  8
AXES
 62
7
  6
CONTINUOUS
 10
100.3727673665
 20
222.8283946085
  0
VERTEX
  8
AXES
 62
7
  6
CONTINUOUS
 10
100.3843707932
 20
222.6365329141
  0
VERTEX
  8
AXES
 62
7
  6
CONTINUOUS
 10
100.3913612521
 20
222.4414822319
  0
VERTEX
  8
AXES
 62
7
  6
CONTINUOUS
 10
100.3936961041
 20
222.2448371534
  0
SEQEND
  0
LINE
  8
AXES
 62
7
  6
CONTINUOUS
 10
100.0319064006
 20
216.9948125187
 11
100.0319064006
 21
220.2484657317
  0
LINE
  8
AXES
 62
7
  6
CONTINUOUS
 10
100.0319064006
 20
220.2608520704
 11
100.0319064006
 21
224.2288222363
  0
LINE
  8
AXES
 62
7
  6
CONTINUOUS
 10
100.0319064006
 20
224.241208575
 11
100.0319064006
 21
227.4948621404
  0
LINE
  8
0
 62
7
  6
CONTINUOUS
 10
100.7859064006
 20
228.0948371534
 11
100.7859064006
 21
216.3948371534
  0
LINE
  8
0
 62
7
  6
CONTINUOUS
 10
106.3819064006
 20
216.9948371534
 11
106.3819064006
 21
227.4948371534
  0
POLYLINE
  8
AXES
 62
7
  6
CONTINUOUS
 66
1
 70
0
  0
VERTEX
  8
AXES
 62
7
  6
CONTINUOUS
 10
100.3936961041
 20
222.2448371534
  0
VERTEX
  8
AXES
 62
7
  6
CONTINUOUS
 10
100.3913612338
 20
222.0481913062
  0
VERTEX
  8
AXES
 62
7
  6
CONTINUOUS
 10
100.384370732
 20
221.8531401182
  0
VERTEX
  8
AXES
 62
7
  6
CONTINUOUS
 10
100.3727672544
 20
221.6612781666
  0
VERTEX
  8
AXES
 62
7
  6
CONTINUOUS
 10
100.3566232662
 20
221.4742020292
  0
VERTEX
  8
AXES
 62
7
  6
CONTINUOUS
 10
100.3360428411
 20
221.2935065308
  0
VERTEX
  8
AXES
 62
7
  6
CONTINUOUS
 10
100.3111641374
 20
221.1207807257
  0
VERTEX
  8
AXES
 62
7
  6
CONTINUOUS
 10
100.2821619709
 20
220.9575981103
  0
VERTEX
  8
AXES
 62
7
  6
CONTINUOUS
 10
100.2492503363
 20
220.8055031813
  0
VERTEX
  8
AXES
 62
7
  6
CONTINUOUS
 10
100.2126847693
 20
220.6659945689
  0
VERTEX
  8
AXES
 62
7
  6
CONTINUOUS
 10
100.1727635533
 20
220.5405021053
  0
VERTEX
  8
AXES
 62
7
  6
CONTINUOUS
 10
100.1298281832
 20
220.4303621805
  0
VERTEX
  8
AXES
 62
7
  6
CONTINUOUS
 10
100.0842624564
 20
220.3367903161
  0
VERTEX
  8
AXES
 62
7
  6
CONTINUOUS
 10
100.0364895981
 20
220.2608520704
  0
SEQEND
  0
POLYLINE
  8
AXES
 62
7
  6
CONTINUOUS
 66
1
 70
0
  0
VERTEX
  8
AXES
 62
7
  6
CONTINUOUS
 10
100.0319064006
 20
224.241208575
  0
VERTEX
  8
AXES
 62
7
  6
CONTINUOUS
 10
100.0330551142
 20
224.2350662635
  0
VERTEX
  8
AXES
 62
7
  6
CONTINUOUS
 10
100.0364895981
 20
224.2288222363
  0
SEQEND
  0
LINE
  8
0
 62
7
  6
CONTINUOUS
 10
112.3819064006
 20
216.9948371534
 11
112.3819064006
 21
227.4948371534
  0
LINE
  8
0
 62
7
  6
CONTINUOUS
 10
119.4779207637
 20
216.9948371534
 11
119.4779207637
 21
227.4948371534
  0
POLYLINE
  8
AXES
 62
7
  6
CONTINUOUS
 66
1
 70
0
  0
VERTEX
  8
AXES
 62
7
  6
CONTINUOUS
 10
155.0319063988
 20
220.1449274231
  0
VERTEX
  8
AXES
 62
7
  6
CONTINUOUS
 10
155.0273484548
 20
220.1493006863
  0
VERTEX
  8
AXES
 62
7
  6
CONTINUOUS
 10
155.01026959
 20
220.1627700252
  0
VERTEX
  8
AXES
 62
7
  6
CONTINUOUS
 10
154.9803295289
 20
220.1852422722
  0
VERTEX
  8
AXES
 62
7
  6
CONTINUOUS
 10
154.9369378002
 20
220.2168570587
  0
VERTEX
  8
AXES
 62
7
  6
CONTINUOUS
 10
154.8790594454
 20
220.2578711001
  0
VERTEX
  8
AXES
 62
7
  6
CONTINUOUS
 10
154.8059687738
 20
220.3080440481
  0
VERTEX
  8
AXES
 62
7
  6
CONTINUOUS
 10
154.7170549722
 20
220.3667002081
  0
VERTEX
  8
AXES
 62
7
  6
CONTINUOUS
 10
154.6136620486
 20
220.4314894699
  0
VERTEX
  8
AXES
 62
7
  6
CONTINUOUS
 10
154.498424089
 20
220.4990214838
  0
VERTEX
  8
AXES
 62
7
  6
CONTINUOUS
 10
154.3743362845
 20
220.5656574761
  0
VERTEX
  8
AXES
 62
7
  6
CONTINUOUS
 10
154.2447980918
 20
220.6277336082
  0
VERTEX
  8
AXES
 62
7
  6
CONTINUOUS
 10
154.1129902407
 20
220.6821652576
  0
VERTEX
  8
AXES
 62
7
  6
CONTINUOUS
 10
153.9808074854
 20
220.7269893261
  0
VERTEX
  8
AXES
 62
7
  6
CONTINUOUS
 10
153.8500751613
 20
220.7608571518
  0
SEQEND
  0
LINE
  8
0
 62
7
  6
CONTINUOUS
 10
125.4778920374
 20
216.9948371534
 11
125.4778920374
 21
227.4948371534
  0
LINE
  8
0
 62
7
  6
CONTINUOUS
 10
133.2319207637
 20
216.9948371534
 11
133.2319207637
 21
227.4948371534
  0
LINE
  8
0
 62
7
  6
CONTINUOUS
 10
139.2318920374
 20
216.9948371534
 11
139.2318920374
 21
227.4948371534
  0
LINE
  8
0
 62
7
  6
CONTINUOUS
 10
146.4319064006
 20
220.1454891455
 11
146.4319064006
 21
216.3948371534
  0
LINE
  8
0
 62
7
  6
CONTINUOUS
 10
147.7319207637
 20
217.2585758042
 11
147.7319207637
 21
227.4948371534
  0
POLYLINE
  8
AXES
 62
7
  6
CONTINUOUS
 66
1
 70
0
  0
VERTEX
  8
AXES
 62
7
  6
CONTINUOUS
 10
147.7319207637
 20
220.923817941
  0
VERTEX
  8
AXES
 62
7
  6
CONTINUOUS
 10
147.7289377103
 20
220.8878591952
  0
VERTEX
  8
AXES
 62
7
  6
CONTINUOUS
 10
147.7208565015
 20
220.8568546438
  0
VERTEX
  8
AXES
 62
7
  6
CONTINUOUS
 10
147.7086674762
 20
220.8304227965
  0
VERTEX
  8
AXES
 62
7
  6
CONTINUOUS
 10
147.6933157287
 20
220.8085306647
  0
VERTEX
  8
AXES
 62
7
  6
CONTINUOUS
 10
147.6757778751
 20
220.7910761629
  0
VERTEX
  8
AXES
 62
7
  6
CONTINUOUS
 10
147.6565204404
 20
220.7775154564
  0
VERTEX
  8
AXES
 62
7
  6
CONTINUOUS
 10
147.6355905059
 20
220.7674111777
  0
VERTEX
  8
AXES
 62
7
  6
CONTINUOUS
 10
147.6137376398
 20
220.7608571518
  0
SEQEND
  0
LINE
  8
0
 62
7
  6
CONTINUOUS
 10
153.7318920374
 20
217.2585754413
 11
153.7318920374
 21
227.4948371534
  0
LINE
  8
0
 62
7
  6
CONTINUOUS
 10
155.0319064006
 20
220.1454889479
 11
155.0319064006
 21
216.3948371534
  0
LINE
  8
0
 62
7
  6
CONTINUOUS
 10
163.3569207637
 20
216.9948371534
 11
163.3569207637
 21
227.4948371534
  0
POLYLINE
  8
AXES
 62
7
  6
CONTINUOUS
 66
1
 70
0
  0
VERTEX
  8
AXES
 62
7
  6
CONTINUOUS
 10
169.3568920374
 20
223.2289469827
  0
VERTEX
  8
AXES
 62
7
  6
CONTINUOUS
 10
169.3714947567
 20
223.1814001681
  0
VERTEX
  8
AXES
 62
7
  6
CONTINUOUS
 10
169.4176677242
 20
222.9972470632
  0
VERTEX
  8
AXES
 62
7
  6
CONTINUOUS
 10
169.4540800402
 20
222.8102181783
  0
VERTEX
  8
AXES
 62
7
  6
CONTINUOUS
 10
169.4801815477
 20
222.6222946051
  0
VERTEX
  8
AXES
 62
7
  6
CONTINUOUS
 10
169.4959056449
 20
222.4334303453
  0
VERTEX
  8
AXES
 62
7
  6
CONTINUOUS
 10
169.501133338
 20
222.2446645181
  0
VERTEX
  8
AXES
 62
7
  6
CONTINUOUS
 10
169.4958856432
 20
222.0558835777
  0
VERTEX
  8
AXES
 62
7
  6
CONTINUOUS
 10
169.4801421319
 20
221.8670250797
  0
VERTEX
  8
AXES
 62
7
  6
CONTINUOUS
 10
169.454022508
 20
221.6791112367
  0
VERTEX
  8
AXES
 62
7
  6
CONTINUOUS
 10
169.4175905217
 20
221.4920807325
  0
VERTEX
  8
AXES
 62
7
  6
CONTINUOUS
 10
169.3714034599
 20
221.3079469146
  0
VERTEX
  8
AXES
 62
7
  6
CONTINUOUS
 10
169.3568920374
 20
221.2607130916
  0
SEQEND
  0
LINE
  8
0
 62
7
  6
CONTINUOUS
 10
169.3568920374
 20
216.9948371534
 11
169.3568920374
 21
227.4948371534
  0
LINE
  8
0
 62
7
  6
CONTINUOUS
 10
176.7319064006
 20
216.3948371534
 11
176.7319064006
 21
227.1257180367
  0
LINE
  8
0
 62
7
  6
CONTINUOUS
 10
121.9779064006
 20
105.3600581198
 11
122.9779064006
 21
105.3600581198
  0
LINE
  8
0
 62
7
  6
CONTINUOUS
 10
135.7319064006
 20
105.3600581198
 11
136.7319064006
 21
105.3600581198
  0
LINE
  8
0
 62
7
  6
CONTINUOUS
 10
150.2319064006
 20
105.3600581198
 11
151.2319064006
 21
105.3600581198
  0
LINE
  8
0
 62
7
  6
CONTINUOUS
 10
165.8569064006
 20
105.3600581198
 11
166.8569064006
 21
105.3600581198
  0
LINE
  8
DEFAULT_1
 62
2
  6
CENTER
 10
104.3819064006
 20
109.7100581198
 11
171.3568920374
 21
109.7100581198
  0
LINE
  8
0
 62
7
  6
CONTINUOUS
 10
118.2279064006
 20
121.6260581198
 11
113.6319064006
 21
121.6260581198
  0
LINE
  8
0
 62
7
  6
CONTINUOUS
 10
101.7859064006
 20
121.6260581198
 11
105.1319064006
 21
121.6260581198
  0
LINE
  8
0
 62
7
  6
CONTINUOUS
 10
131.2819064006
 20
121.9600581198
 11
127.4279064006
 21
121.9600581198
  0
LINE
  8
0
 62
7
  6
CONTINUOUS
 10
141.1819064006
 20
121.9600581198
 11
145.7819064006
 21
121.9600581198
  0
LINE
  8
0
 62
7
  6
CONTINUOUS
 10
155.9819064006
 20
122.1100581198
 11
160.1069064006
 21
122.1100581198
  0
LINE
  8
0
 62
7
  6
CONTINUOUS
 10
164.9819064006
 20
122.6600581198
 11
166.7319064006
 21
122.6600581198
  0
LINE
  8
0
 62
7
  6
CONTINUOUS
 10
151.4819064006
 20
122.7600581198
 11
149.9819064006
 21
122.7600581198
  0
LINE
  8
0
 62
7
  6
CONTINUOUS
 10
137.1319064006
 20
122.9100581198
 11
135.3319064006
 21
122.9100581198
  0
LINE
  8
0
 62
7
  6
CONTINUOUS
 10
123.1279064006
 20
122.9100581198
 11
121.8279064006
 21
122.9100581198
  0
LINE
  8
AXES
 62
2
  6
CENTER
 10
98.0319064006
 20
135.1100581198
 11
176.7319064006
 21
135.1100581198
  0
LINE
  8
0
 62
7
  6
CONTINUOUS
 10
100.7819064006
 20
139.4600581198
 11
105.2819064006
 21
139.4600581198
  0
LINE
  8
0
 62
7
  6
CONTINUOUS
 10
113.4819064006
 20
139.4600581198
 11
117.9819064006
 21
139.4600581198
  0
LINE
  8
0
 62
7
  6
CONTINUOUS
 10
126.9739064006
 20
139.4600581198
 11
131.4859064006
 21
139.4600581198
  0
LINE
  8
0
 62
7
  6
CONTINUOUS
 10
140.9779064006
 20
139.4600581198
 11
145.4859064006
 21
139.4600581198
  0
LINE
  8
0
 62
7
  6
CONTINUOUS
 10
155.9779064006
 20
139.4600581198
 11
160.4859064006
 21
139.4600581198
  0
LINE
  8
0
 62
7
  6
CONTINUOUS
 10
173.3904301135
 20
139.7586842843
 11
171.5774178233
 21
139.110628195
  0
LINE
  8
0
 62
7
  6
CONTINUOUS
 10
174.7416632285
 20
123.1286513555
 11
172.5873633625
 21
122.3586029923
  0
LINE
  8
0
 62
7
  6
CONTINUOUS
 10
100.0319064006
 20
138.7100581198
 11
100.0319064006
 21
134.4585205945
  0
LINE
  8
0
 62
7
  6
CONTINUOUS
 10
100.7859064006
 20
131.3977798276
 11
100.7859064006
 21
122.6260581198
  0
LINE
  8
0
 62
7
  6
CONTINUOUS
 10
100.0364895981
 20
134.4217244866
 11
100.7706290755
 21
131.5204335205
  0
LINE
  8
0
 62
7
  6
CONTINUOUS
 10
105.2779064006
 20
127.2140581198
 11
105.2779064006
 21
131.3977798276
  0
LINE
  8
0
 62
7
  6
CONTINUOUS
 10
106.0319064006
 20
134.4585205945
 11
106.0319064006
 21
138.7100581198
  0
LINE
  8
0
 62
7
  6
CONTINUOUS
 10
106.3819064006
 20
106.910568377
 11
106.3819064006
 21
110.3844602538
  0
LINE
  8
0
 62
7
  6
CONTINUOUS
 10
107.1319064006
 20
119.6260581198
 11
107.1319064006
 21
113.4293931746
  0
LINE
  8
0
 62
7
  6
CONTINUOUS
 10
111.6319064006
 20
119.6260581198
 11
111.6319064006
 21
113.4293931746
  0
LINE
  8
0
 62
7
  6
CONTINUOUS
 10
112.3819064006
 20
106.910568377
 11
112.3819064006
 21
110.3844602538
  0
LINE
  8
0
 62
7
  6
CONTINUOUS
 10
112.7319064006
 20
138.7100581198
 11
112.7319064006
 21
134.4585205945
  0
LINE
  8
0
 62
7
  6
CONTINUOUS
 10
113.4859064006
 20
131.3977798276
 11
113.4859064006
 21
127.2140581198
  0
LINE
  8
0
 62
7
  6
CONTINUOUS
 10
105.2931837256
 20
131.5204335205
 11
106.027323203
 21
134.4217244866
  0
LINE
  8
0
 62
7
  6
CONTINUOUS
 10
107.1166290755
 20
113.3067394817
 11
106.3864895981
 21
110.4212563616
  0
LINE
  8
0
 62
7
  6
CONTINUOUS
 10
117.9931837256
 20
131.5204335205
 11
118.727323203
 21
134.4217244866
  0
LINE
  8
0
 62
7
  6
CONTINUOUS
 10
111.6471837256
 20
113.3067394817
 11
112.377323203
 21
110.4212563616
  0
LINE
  8
0
 62
7
  6
CONTINUOUS
 10
112.7364895981
 20
134.4217244866
 11
113.4706290755
 21
131.5204335205
  0
LINE
  8
0
 62
7
  6
CONTINUOUS
 10
117.9779064006
 20
126.7600581198
 11
117.9779064006
 21
131.3977798276
  0
LINE
  8
0
 62
7
  6
CONTINUOUS
 10
118.7319064006
 20
134.4585205945
 11
118.7319064006
 21
138.7100581198
  0
LINE
  8
0
 62
7
  6
CONTINUOUS
 10
119.4779207637
 20
106.3898362675
 11
119.4779207637
 21
110.3844602538
  0
LINE
  8
0
 62
7
  6
CONTINUOUS
 10
120.2279064006
 20
113.429336412
 11
120.2279064006
 21
119.6260581198
  0
LINE
  8
0
 62
7
  6
CONTINUOUS
 10
124.7279064006
 20
119.2600581198
 11
124.7279064006
 21
113.429336412
  0
LINE
  8
0
 62
7
  6
CONTINUOUS
 10
125.4778920374
 20
106.3898362675
 11
125.4778920374
 21
110.3844602538
  0
LINE
  8
0
 62
7
  6
CONTINUOUS
 10
126.2239064006
 20
138.7100581198
 11
126.2239064006
 21
134.4585205945
  0
LINE
  8
0
 62
7
  6
CONTINUOUS
 10
126.9779064006
 20
131.3977798276
 11
126.9779064006
 21
126.7600581198
  0
LINE
  8
0
 62
7
  6
CONTINUOUS
 10
119.4825039612
 20
110.4212563616
 11
120.2126290755
 21
113.306682719
  0
LINE
  8
0
 62
7
  6
CONTINUOUS
 10
131.4971837256
 20
131.5204335205
 11
132.231323203
 21
134.4217244866
  0
LINE
  8
0
 62
7
  6
CONTINUOUS
 10
124.7431837256
 20
113.306682719
 11
125.4733088399
 21
110.4212563616
  0
LINE
  8
0
 62
7
  6
CONTINUOUS
 10
126.2284895981
 20
134.4217244866
 11
126.9626290755
 21
131.5204335205
  0
LINE
  8
0
 62
7
  6
CONTINUOUS
 10
131.4819064006
 20
126.7600581198
 11
131.4819064006
 21
131.3977798276
  0
LINE
  8
0
 62
7
  6
CONTINUOUS
 10
132.2359064006
 20
134.4585205945
 11
132.2359064006
 21
138.7100581198
  0
LINE
  8
0
 62
7
  6
CONTINUOUS
 10
133.2319207637
 20
106.3959482121
 11
133.2319207637
 21
110.3844602538
  0
LINE
  8
0
 62
7
  6
CONTINUOUS
 10
133.9819064006
 20
113.429336412
 11
133.9819064006
 21
119.2600581198
  0
LINE
  8
0
 62
7
  6
CONTINUOUS
 10
138.4819064006
 20
113.429336412
 11
138.4819064006
 21
119.2600581198
  0
LINE
  8
0
 62
7
  6
CONTINUOUS
 10
139.2318920374
 20
106.3959482121
 11
139.2318920374
 21
110.3844602538
  0
LINE
  8
0
 62
7
  6
CONTINUOUS
 10
140.2279064006
 20
138.7100581198
 11
140.2279064006
 21
134.4585205945
  0
LINE
  8
0
 62
7
  6
CONTINUOUS
 10
140.9819064006
 20
131.3977798276
 11
140.9819064006
 21
126.7600581198
  0
LINE
  8
0
 62
7
  6
CONTINUOUS
 10
133.2365039612
 20
110.4212563616
 11
133.9666290755
 21
113.306682719
  0
LINE
  8
0
 62
7
  6
CONTINUOUS
 10
145.4971837256
 20
131.5204335205
 11
146.231323203
 21
134.4217244866
  0
LINE
  8
0
 62
7
  6
CONTINUOUS
 10
139.2273088399
 20
110.4212563616
 11
138.4971837256
 21
113.306682719
  0
LINE
  8
0
 62
7
  6
CONTINUOUS
 10
140.2324895981
 20
134.4217244866
 11
140.9666290755
 21
131.5204335205
  0
LINE
  8
0
 62
7
  6
CONTINUOUS
 10
153.7273088399
 20
110.4212563616
 11
152.9971837256
 21
113.306682719
  0
LINE
  8
0
 62
7
  6
CONTINUOUS
 10
145.4819064006
 20
127.2600581198
 11
145.4819064006
 21
131.3977798276
  0
LINE
  8
0
 62
7
  6
CONTINUOUS
 10
146.2359064006
 20
134.4585205945
 11
146.2359064006
 21
138.7100581198
  0
LINE
  8
0
 62
7
  6
CONTINUOUS
 10
147.7319207637
 20
106.3959482121
 11
147.7319207637
 21
110.3844602538
  0
LINE
  8
0
 62
7
  6
CONTINUOUS
 10
148.4819064006
 20
119.2600581198
 11
148.4819064006
 21
113.429336412
  0
LINE
  8
0
 62
7
  6
CONTINUOUS
 10
152.9819064006
 20
113.429336412
 11
152.9819064006
 21
119.1100581198
  0
LINE
  8
0
 62
7
  6
CONTINUOUS
 10
153.7318920374
 20
106.3959482121
 11
153.7318920374
 21
110.3844602538
  0
LINE
  8
0
 62
7
  6
CONTINUOUS
 10
155.2279064006
 20
138.7100581198
 11
155.2279064006
 21
134.4585205945
  0
LINE
  8
0
 62
7
  6
CONTINUOUS
 10
155.9819064006
 20
131.3977798276
 11
155.9819064006
 21
127.2600581198
  0
LINE
  8
0
 62
7
  6
CONTINUOUS
 10
148.4666290755
 20
113.306682719
 11
147.7365039612
 21
110.4212563616
  0
LINE
  8
0
 62
7
  6
CONTINUOUS
 10
161.231323852
 20
134.421946721
 11
160.4971815624
 21
131.520429449
  0
LINE
  8
0
 62
7
  6
CONTINUOUS
 10
155.2324895981
 20
134.4217244866
 11
155.9666290755
 21
131.5204335205
  0
LINE
  8
0
 62
7
  6
CONTINUOUS
 10
160.4819064006
 20
131.3977843054
 11
160.4819064006
 21
127.1600581198
  0
LINE
  8
0
 62
7
  6
CONTINUOUS
 10
161.2359064006
 20
134.4587402641
 11
161.2359064006
 21
138.7100581198
  0
LINE
  8
0
 62
7
  6
CONTINUOUS
 10
163.3569207637
 20
106.3959482121
 11
163.3569207637
 21
110.3844602538
  0
LINE
  8
0
 62
7
  6
CONTINUOUS
 10
164.1069064006
 20
118.1100581198
 11
164.1069064006
 21
113.429336412
  0
LINE
  8
0
 62
7
  6
CONTINUOUS
 10
168.6069064006
 20
113.429336412
 11
168.6069064006
 21
116.7086962747
  0
LINE
  8
0
 62
7
  6
CONTINUOUS
 10
169.3568920374
 20
106.3959482121
 11
169.3568920374
 21
110.3844602538
  0
LINE
  8
0
 62
7
  6
CONTINUOUS
 10
171.4779064006
 20
138.9693805275
 11
171.4779064006
 21
125.4215760585
  0
LINE
  8
0
 62
7
  6
CONTINUOUS
 10
164.0916290755
 20
113.306682719
 11
163.3615039612
 21
110.4212563616
  0
LINE
  8
0
 62
7
  6
CONTINUOUS
 10
169.3523088399
 20
110.4212563616
 11
168.6221837256
 21
113.306682719
  0
LINE
  8
0
 62
7
  6
CONTINUOUS
 10
176.7319064006
 20
137.4045367769
 11
176.7319064006
 21
125.9536273781
  0
LINE
  8
SURFACE
 62
7
  6
CONTINUOUS
 10
275.9608293886
 20
105.3600581198
 11
271.9608293886
 21
105.3600581198
  0
LINE
  8
DEFAULT_1
 62
2
  6
CENTER
 10
279.2108293886
 20
109.7100581198
 11
275.9609293886
 21
109.7100581198
  0
LINE
  8
0
 62
2
  6
CONTINUOUS
 10
275.0108293886
 20
109.7100581198
 11
272.9108293886
 21
109.7100581198
  0
LINE
  8
DEFAULT_1
 62
2
  6
CENTER
 10
268.7108293886
 20
109.7100581198
 11
271.9607293886
 21
109.7100581198
  0
LINE
  8
0
 62
7
  6
CONTINUOUS
 10
279.8108293886
 20
121.6260581198
 11
273.9608293886
 21
121.6260581198
  0
LINE
  8
0
 62
7
  6
CONTINUOUS
 10
267.9608293886
 20
109.3600581198
 11
267.9608293886
 21
135.4600581198
  0
POLYLINE
  8
0
 62
7
  6
CONTINUOUS
 66
1
 70
0
  0
VERTEX
  8
0
 62
7
  6
CONTINUOUS
 10
268.3795278798
 20
137.4601382999
  0
VERTEX
  8
0
 62
7
  6
CONTINUOUS
 10
268.2601573253
 20
137.1327859821
  0
VERTEX
  8
0
 62
7
  6
CONTINUOUS
 10
268.1519120218
 20
136.7663447238
  0
VERTEX
  8
0
 62
7
  6
CONTINUOUS
 10
268.0674299872
 20
136.3924249137
  0
VERTEX
  8
0
 62
7
  6
CONTINUOUS
 10
268.0579590082
 20
136.3327185901
  0
SEQEND
  0
LINE
  8
AXES
 62
7
  6
CONTINUOUS
 10
271.8608293886
 20
109.7100581198
 11
271.8608293886
 21
117.7600581198
  0
LINE
  8
AXES
 62
2
  6
CENTER
 10
273.9608293886
 20
140.3600581198
 11
273.9608293886
 21
139.2100581198
  0
LINE
  8
AXES
 62
2
  6
CONTINUOUS
 10
273.9608293886
 20
136.1600581198
 11
273.9608293886
 21
134.0600581198
  0
LINE
  8
DEFAULT_1
 62
2
  6
CENTER
 10
273.9608293886
 20
114.9600581198
 11
273.9608293886
 21
111.7101581198
  0
LINE
  8
0
 62
2
  6
CONTINUOUS
 10
273.9608293886
 20
110.7600581198
 11
273.9608293886
 21
108.6600581198
  0
LINE
  8
DEFAULT_1
 62
2
  6
CENTER
 10
273.9608293886
 20
104.4600581198
 11
273.9608293886
 21
107.7099581198
  0
LINE
  8
AXES
 62
2
  6
CENTER
 10
273.9608293886
 20
129.8600581198
 11
273.9608293886
 21
131.0100581198
  0
LINE
  8
AXES
 62
7
  6
CONTINUOUS
 10
276.0608293886
 20
109.7100581198
 11
276.0608293886
 21
117.7600581198
  0
LINE
  8
AXES
 62
2
  6
CENTER
 10
279.2108293886
 20
135.1100581198
 11
278.0608293886
 21
135.1100581198
  0
LINE
  8
AXES
 62
2
  6
CONTINUOUS
 10
275.0108293886
 20
135.1100581198
 11
272.9108293886
 21
135.1100581198
  0
LINE
  8
AXES
 62
2
  6
CENTER
 10
268.7108293886
 20
135.1100581198
 11
269.8608293886
 21
135.1100581198
  0
LINE
  8
0
 62
7
  6
CONTINUOUS
 10
279.9608293886
 20
109.3600581198
 11
279.9608293886
 21
135.4600581198
  0
POLYLINE
  8
0
 62
7
  6
CONTINUOUS
 66
1
 70
0
  0
VERTEX
  8
0
 62
7
  6
CONTINUOUS
 10
272.0808743553
 20
139.9045575086
  0
VERTEX
  8
0
 62
7
  6
CONTINUOUS
 10
271.8444324067
 20
139.8988557485
  0
VERTEX
  8
0
 62
7
  6
CONTINUOUS
 10
271.5168951959
 20
139.8713111507
  0
VERTEX
  8
0
 62
7
  6
CONTINUOUS
 10
271.2079340449
 20
139.8229655584
  0
VERTEX
  8
0
 62
7
  6
CONTINUOUS
 10
270.9169302472
 20
139.7558147852
  0
VERTEX
  8
0
 62
7
  6
CONTINUOUS
 10
270.6424853586
 20
139.6713457266
  0
VERTEX
  8
0
 62
7
  6
CONTINUOUS
 10
270.38328084
 20
139.570614164
  0
VERTEX
  8
0
 62
7
  6
CONTINUOUS
 10
270.1388763825
 20
139.4546728009
  0
VERTEX
  8
0
 62
7
  6
CONTINUOUS
 10
269.9096267738
 20
139.3248926126
  0
VERTEX
  8
0
 62
7
  6
CONTINUOUS
 10
269.6958750439
 20
139.1827911452
  0
VERTEX
  8
0
 62
7
  6
CONTINUOUS
 10
269.4978871771
 20
139.0300369233
  0
VERTEX
  8
0
 62
7
  6
CONTINUOUS
 10
269.3157709482
 20
138.8684053003
  0
VERTEX
  8
0
 62
7
  6
CONTINUOUS
 10
269.1494890494
 20
138.6997815438
  0
VERTEX
  8
0
 62
7
  6
CONTINUOUS
 10
268.9987599366
 20
138.5260340762
  0
VERTEX
  8
0
 62
7
  6
CONTINUOUS
 10
268.8627175386
 20
138.3484548716
  0
VERTEX
  8
0
 62
7
  6
CONTINUOUS
 10
268.7403621924
 20
138.1680421789
  0
VERTEX
  8
0
 62
7
  6
CONTINUOUS
 10
268.6307162439
 20
137.9856434655
  0
VERTEX
  8
0
 62
7
  6
CONTINUOUS
 10
268.5328301956
 20
137.8019592381
  0
VERTEX
  8
0
 62
7
  6
CONTINUOUS
 10
268.4457800153
 20
137.6175183384
  0
VERTEX
  8
0
 62
7
  6
CONTINUOUS
 10
268.3795282962
 20
137.4601381338
  0
SEQEND
  0
LINE
  8
0
 62
7
  6
CONTINUOUS
 10
271.9608293886
 20
139.4600581198
 11
275.9608293886
 21
139.4600581198
  0
LINE
  8
0
 62
7
  6
CONTINUOUS
 10
275.8417443062
 20
139.904556476
 11
272.0800727095
 21
139.9045564862
  0
POLYLINE
  8
0
 62
7
  6
CONTINUOUS
 66
1
 70
0
  0
VERTEX
  8
0
 62
7
  6
CONTINUOUS
 10
279.0055034942
 20
138.4208286163
  0
VERTEX
  8
0
 62
7
  6
CONTINUOUS
 10
278.8848716833
 20
138.5719669447
  0
VERTEX
  8
0
 62
7
  6
CONTINUOUS
 10
278.7330594139
 20
138.7414550202
  0
VERTEX
  8
0
 62
7
  6
CONTINUOUS
 10
278.5680792083
 20
138.9038060971
  0
VERTEX
  8
0
 62
7
  6
CONTINUOUS
 10
278.3894475095
 20
139.0581248501
  0
VERTEX
  8
0
 62
7
  6
CONTINUOUS
 10
278.196682275
 20
139.2034508821
  0
VERTEX
  8
0
 62
7
  6
CONTINUOUS
 10
277.9893091349
 20
139.3387476417
  0
VERTEX
  8
0
 62
7
  6
CONTINUOUS
 10
277.766845723
 20
139.4629053911
  0
VERTEX
  8
0
 62
7
  6
CONTINUOUS
 10
277.5287769373
 20
139.5747368127
  0
VERTEX
  8
0
 62
7
  6
CONTINUOUS
 10
277.2743452344
 20
139.6730217463
  0
VERTEX
  8
0
 62
7
  6
CONTINUOUS
 10
277.0026549347
 20
139.7563718805
  0
VERTEX
  8
0
 62
7
  6
CONTINUOUS
 10
276.7126840741
 20
139.8231666094
  0
VERTEX
  8
0
 62
7
  6
CONTINUOUS
 10
276.4027155326
 20
139.8715574182
  0
VERTEX
  8
0
 62
7
  6
CONTINUOUS
 10
276.0708350519
 20
139.8991626844
  0
VERTEX
  8
0
 62
7
  6
CONTINUOUS
 10
275.840785721
 20
139.9045572275
  0
SEQEND
  0
LINE
  8
0
 62
7
  6
CONTINUOUS
 10
279.0104237593
 20
138.4139328307
 11
279.0054970975
 21
138.4208380885
  0
POLYLINE
  8
0
 62
7
  6
CONTINUOUS
 66
1
 70
0
  0
VERTEX
  8
0
 62
7
  6
CONTINUOUS
 10
279.028485026
 20
138.3768846013
  0
VERTEX
  8
0
 62
7
  6
CONTINUOUS
 10
279.0207475232
 20
138.3960021099
  0
VERTEX
  8
0
 62
7
  6
CONTINUOUS
 10
279.0104237593
 20
138.4139328307
  0
SEQEND
  0
POLYLINE
  8
0
 62
7
  6
CONTINUOUS
 66
1
 70
0
  0
VERTEX
  8
0
 62
7
  6
CONTINUOUS
 10
279.215618498
 20
137.7827990278
  0
VERTEX
  8
0
 62
7
  6
CONTINUOUS
 10
279.2131525844
 20
137.7910400003
  0
VERTEX
  8
0
 62
7
  6
CONTINUOUS
 10
279.1515404907
 20
137.9913951349
  0
VERTEX
  8
0
 62
7
  6
CONTINUOUS
 10
279.0879593732
 20
138.1928499771
  0
VERTEX
  8
0
 62
7
  6
CONTINUOUS
 10
279.0284849199
 20
138.3768859196
  0
SEQEND
  0
ARC
  8
0
 62
7
  6
CONTINUOUS
 10
133.9819207637
 20
216.9948371534
 40
0.75
 50
180.0
 51
270.0
  0
ARC
  8
0
 62
7
  6
CONTINUOUS
 10
138.4818920374
 20
216.9948371534
 40
0.75
 50
270.0
 51
360.0
  0
ARC
  8
0
 62
7
  6
CONTINUOUS
 10
120.2279207637
 20
216.9948371534
 40
0.75
 50
180.0
 51
270.0
  0
ARC
  8
0
 62
7
  6
CONTINUOUS
 10
111.6319064006
 20
216.9948371534
 40
0.75
 50
270.0
 51
360.0
  0
ARC
  8
0
 62
7
  6
CONTINUOUS
 10
107.1319064006
 20
216.9948371534
 40
0.75
 50
180.0
 51
270.0
  0
ARC
  8
0
 62
7
  6
CONTINUOUS
 10
124.7278920374
 20
216.9948371534
 40
0.75
 50
270.0
 51
360.0
  0
ARC
  8
0
 62
7
  6
CONTINUOUS
 10
100.7819064006
 20
216.9948371534
 40
0.75
 50
180.0018819526
 51
269.9992053213
  0
ARC
  8
0
 62
7
  6
CONTINUOUS
 10
100.9359064006
 20
216.3948371534
 40
0.15
 50
180.0
 51
270.0
  0
ARC
  8
0
 62
7
  6
CONTINUOUS
 10
113.6359064006
 20
216.3948371534
 40
0.15
 50
258.75
 51
268.4770244418
  0
ARC
  8
0
 62
7
  6
CONTINUOUS
 10
105.1279064006
 20
216.3948371534
 40
0.15
 50
271.522975558
 51
281.2499999879
  0
ARC
  8
0
 62
7
  6
CONTINUOUS
 10
138.4818920374
 20
227.4948371534
 40
0.75
 50
0.0
 51
90.0
  0
ARC
  8
0
 62
7
  6
CONTINUOUS
 10
133.9819207637
 20
227.4948371534
 40
0.75
 50
90.0
 51
180.0
  0
ARC
  8
0
 62
7
  6
CONTINUOUS
 10
124.7278920374
 20
227.4948371534
 40
0.75
 50
0.0
 51
90.0
  0
ARC
  8
0
 62
7
  6
CONTINUOUS
 10
120.2279207637
 20
227.4948371534
 40
0.75
 50
90.0
 51
180.0
  0
ARC
  8
0
 62
7
  6
CONTINUOUS
 10
111.6319064006
 20
227.4948371534
 40
0.75
 50
0.0
 51
90.0
  0
ARC
  8
0
 62
7
  6
CONTINUOUS
 10
107.1319064006
 20
227.4948371534
 40
0.75
 50
90.0
 51
180.0
  0
ARC
  8
0
 62
7
  6
CONTINUOUS
 10
100.7819064006
 20
227.4948371534
 40
0.75
 50
90.0007339907
 51
179.9980911304
  0
ARC
  8
0
 62
7
  6
CONTINUOUS
 10
100.9359064006
 20
228.0948371534
 40
0.15
 50
90.0
 51
180.0
  0
ARC
  8
0
 62
7
  6
CONTINUOUS
 10
164.1069207637
 20
216.9948371534
 40
0.75
 50
180.0
 51
270.0
  0
ARC
  8
0
 62
7
  6
CONTINUOUS
 10
168.6068920374
 20
216.9948371534
 40
0.75
 50
270.0
 51
360.0
  0
ARC
  8
0
 62
7
  6
CONTINUOUS
 10
154.8819064006
 20
216.3948371534
 40
0.15
 50
270.0
 51
360.0
  0
ARC
  8
0
 62
7
  6
CONTINUOUS
 10
146.5819064006
 20
216.3948371534
 40
0.15
 50
180.0
 51
270.0
  0
ARC
  8
0
 62
7
  6
CONTINUOUS
 10
176.5819064006
 20
216.3948371534
 40
0.15
 50
270.0
 51
360.0
  0
ARC
  8
0
 62
7
  6
CONTINUOUS
 10
168.6068920374
 20
227.4948371534
 40
0.75
 50
0.0
 51
90.0
  0
ARC
  8
0
 62
7
  6
CONTINUOUS
 10
164.1069207637
 20
227.4948371534
 40
0.75
 50
90.0
 51
180.0
  0
ARC
  8
0
 62
7
  6
CONTINUOUS
 10
148.4819207637
 20
227.4948371534
 40
0.75
 50
90.0
 51
180.0
  0
ARC
  8
0
 62
7
  6
CONTINUOUS
 10
152.9818920374
 20
227.4948371534
 40
0.75
 50
0.0
 51
90.0
  0
ARC
  8
0
 62
7
  6
CONTINUOUS
 10
176.5819061557
 20
227.1257180936
 40
0.15
 50
359.9999782516
 51
76.9080109216
  0
ARC
  8
0
 62
7
  6
CONTINUOUS
 10
172.4146941989
 20
228.0948371534
 40
0.15
 50
76.9081069357
 51
90.0
  0
ARC
  8
0
 62
7
  6
CONTINUOUS
 10
109.3819064006
 20
109.3600581198
 40
4.0
 50
224.4153085972
 51
315.5846914028
  0
ARC
  8
0
 62
7
  6
CONTINUOUS
 10
106.8819066029
 20
106.9105680855
 40
0.5000000085
 50
179.9999665947
 51
224.4152685108
  0
ARC
  8
0
 62
7
  6
CONTINUOUS
 10
112.1319064006
 20
113.4293931746
 40
0.5
 50
180.0
 51
194.2
  0
ARC
  8
AXES
 62
7
  6
CONTINUOUS
 10
106.6319064006
 20
113.4293931746
 40
0.5
 50
345.8
 51
360.0
  0
ARC
  8
0
 62
7
  6
CONTINUOUS
 10
106.6319064006
 20
113.4293931746
 40
0.5
 50
345.8
 51
360.0
  0
ARC
  8
0
 62
7
  6
CONTINUOUS
 10
111.8819064006
 20
106.910568377
 40
0.5
 50
315.5846914028
 51
360.0
  0
ARC
  8
0
 62
7
  6
CONTINUOUS
 10
112.2319064006
 20
110.3844602538
 40
0.15
 50
0.0
 51
14.2
  0
ARC
  8
AXES
 62
7
  6
CONTINUOUS
 10
112.2319064006
 20
110.3844602538
 40
0.15
 50
0.0
 51
14.2
  0
ARC
  8
0
 62
7
  6
CONTINUOUS
 10
106.5319064006
 20
110.3844602538
 40
0.15
 50
165.8
 51
180.0
  0
ARC
  8
AXES
 62
7
  6
CONTINUOUS
 10
106.5319064006
 20
110.3844602538
 40
0.15
 50
165.8
 51
180.0
  0
ARC
  8
0
 62
7
  6
CONTINUOUS
 10
113.6319064006
 20
119.6260581198
 40
2.0
 50
90.0
 51
180.0
  0
ARC
  8
0
 62
7
  6
CONTINUOUS
 10
118.2279064006
 20
119.6260581198
 40
2.0
 50
0.0
 51
90.0
  0
ARC
  8
0
 62
7
  6
CONTINUOUS
 10
105.1319064006
 20
119.6260581198
 40
2.0
 50
0.0
 51
90.0
  0
ARC
  8
0
 62
7
  6
CONTINUOUS
 10
101.7859064006
 20
122.6260581198
 40
1.0
 50
180.0
 51
270.0
  0
ARC
  8
0
 62
7
  6
CONTINUOUS
 10
121.9779064006
 20
109.9000581198
 40
4.54
 50
240.3272196412
 51
270.0
  0
ARC
  8
0
 62
7
  6
CONTINUOUS
 10
122.9779064006
 20
109.9000581198
 40
4.54
 50
270.0
 51
299.6727803588
  0
ARC
  8
0
 62
7
  6
CONTINUOUS
 10
135.7319064006
 20
109.8600581198
 40
4.5
 50
240.0002375645
 51
270.0
  0
ARC
  8
0
 62
7
  6
CONTINUOUS
 10
136.7319064006
 20
109.8600581198
 40
4.5
 50
270.0
 51
299.9997624355
  0
ARC
  8
0
 62
7
  6
CONTINUOUS
 10
119.977920489
 20
106.3898363834
 40
0.5000000044
 50
180.0000132829
 51
240.3272535662
  0
ARC
  8
0
 62
7
  6
CONTINUOUS
 10
133.7319204971
 20
106.3959483248
 40
0.5000000045
 50
180.0000129167
 51
240.0002704844
  0
ARC
  8
0
 62
7
  6
CONTINUOUS
 10
119.7279064006
 20
113.429336412
 40
0.5
 50
345.8
 51
360.0
  0
ARC
  8
0
 62
7
  6
CONTINUOUS
 10
125.2279064006
 20
113.429336412
 40
0.5
 50
180.0
 51
194.2
  0
ARC
  8
0
 62
7
  6
CONTINUOUS
 10
124.9778920374
 20
106.3898362675
 40
0.5
 50
299.6727803588
 51
360.0
  0
ARC
  8
0
 62
7
  6
CONTINUOUS
 10
133.4819064006
 20
113.429336412
 40
0.5
 50
345.8
 51
360.0
  0
ARC
  8
0
 62
7
  6
CONTINUOUS
 10
119.6279208034
 20
110.3844604105
 40
0.15
 50
165.8000617642
 51
180.0000598766
  0
ARC
  8
0
 62
7
  6
CONTINUOUS
 10
125.3278920374
 20
110.3844602538
 40
0.15
 50
0.0
 51
14.2
  0
ARC
  8
AXES
 62
7
  6
CONTINUOUS
 10
125.3278920374
 20
110.3844602538
 40
0.15
 50
0.0
 51
14.2
  0
ARC
  8
0
 62
7
  6
CONTINUOUS
 10
133.3819208034
 20
110.3844604105
 40
0.15
 50
165.8000617642
 51
180.0000598766
  0
ARC
  8
0
 62
7
  6
CONTINUOUS
 10
127.4279064006
 20
119.2600581198
 40
2.7
 50
90.0
 51
180.0
  0
ARC
  8
0
 62
7
  6
CONTINUOUS
 10
131.2819064006
 20
119.2600581198
 40
2.7
 50
0.0
 51
90.0
  0
ARC
  8
0
 62
7
  6
CONTINUOUS
 10
109.3819064006
 20
127.2140581198
 40
4.104
 50
180.0
 51
360.0
  0
ARC
  8
0
 62
7
  6
CONTINUOUS
 10
112.9859064006
 20
131.3977798276
 40
0.5
 50
0.0
 51
14.2
  0
ARC
  8
0
 62
7
  6
CONTINUOUS
 10
118.4779064006
 20
131.3977798276
 40
0.5
 50
165.8
 51
180.0
  0
ARC
  8
0
 62
7
  6
CONTINUOUS
 10
100.2859064006
 20
131.3977798276
 40
0.5
 50
0.0
 51
14.2
  0
ARC
  8
0
 62
7
  6
CONTINUOUS
 10
105.7779064006
 20
131.3977798276
 40
0.5
 50
165.8
 51
180.0
  0
ARC
  8
0
 62
7
  6
CONTINUOUS
 10
105.2819064006
 20
138.7100581198
 40
0.75
 50
0.0
 51
90.0
  0
ARC
  8
0
 62
7
  6
CONTINUOUS
 10
100.7819064006
 20
138.7100581198
 40
0.75
 50
90.0
 51
180.0
  0
ARC
  8
0
 62
7
  6
CONTINUOUS
 10
113.4819064006
 20
138.7100581198
 40
0.75
 50
90.0
 51
180.0
  0
ARC
  8
0
 62
7
  6
CONTINUOUS
 10
117.9819064006
 20
138.7100581198
 40
0.75
 50
0.0
 51
90.0
  0
ARC
  8
0
 62
7
  6
CONTINUOUS
 10
118.5819064006
 20
134.4585205945
 40
0.15
 50
345.8
 51
360.0
  0
ARC
  8
0
 62
7
  6
CONTINUOUS
 10
100.1819065324
 20
134.4585200733
 40
0.15
 50
179.999800919
 51
194.1997946428
  0
ARC
  8
0
 62
7
  6
CONTINUOUS
 10
112.8819065324
 20
134.4585200733
 40
0.15
 50
179.999800919
 51
194.1997946428
  0
ARC
  8
0
 62
7
  6
CONTINUOUS
 10
105.8819064006
 20
134.4585205945
 40
0.15
 50
345.8
 51
360.0
  0
ARC
  8
0
 62
7
  6
CONTINUOUS
 10
123.1279064006
 20
126.7600581198
 40
3.85
 50
270.0
 51
360.0
  0
ARC
  8
0
 62
7
  6
CONTINUOUS
 10
121.8279064006
 20
126.7600581198
 40
3.85
 50
180.0
 51
270.0
  0
ARC
  8
0
 62
7
  6
CONTINUOUS
 10
137.1319064006
 20
126.7600581198
 40
3.85
 50
270.0
 51
360.0
  0
ARC
  8
0
 62
7
  6
CONTINUOUS
 10
135.3319064006
 20
126.7600581198
 40
3.85
 50
180.0
 51
270.0
  0
ARC
  8
0
 62
7
  6
CONTINUOUS
 10
126.4779064006
 20
131.3977798276
 40
0.5
 50
0.0
 51
14.2
  0
ARC
  8
0
 62
7
  6
CONTINUOUS
 10
131.9819064006
 20
131.3977798276
 40
0.5
 50
165.8
 51
180.0
  0
ARC
  8
0
 62
7
  6
CONTINUOUS
 10
126.9739064006
 20
138.7100581198
 40
0.75
 50
90.0
 51
180.0
  0
ARC
  8
0
 62
7
  6
CONTINUOUS
 10
131.4859064006
 20
138.7100581198
 40
0.75
 50
0.0
 51
90.0
  0
ARC
  8
0
 62
7
  6
CONTINUOUS
 10
126.3739065324
 20
134.4585200733
 40
0.15
 50
179.999800919
 51
194.1997946428
  0
ARC
  8
0
 62
7
  6
CONTINUOUS
 10
132.0859064006
 20
134.4585205945
 40
0.15
 50
345.8
 51
360.0
  0
ARC
  8
0
 62
7
  6
CONTINUOUS
 10
150.2319064006
 20
109.8600581198
 40
4.5
 50
240.0002375645
 51
270.0
  0
ARC
  8
0
 62
7
  6
CONTINUOUS
 10
151.2319064006
 20
109.8600581198
 40
4.5
 50
270.0
 51
299.9997624355
  0
ARC
  8
AXES
 62
7
  6
CONTINUOUS
 10
147.9319064006
 20
109.6900581198
 40
1.5
 50
94.1260708806
 51
257.7538206432
  0
ARC
  8
AXES
 62
7
  6
CONTINUOUS
 10
153.5319064006
 20
109.6900581198
 40
1.5
 50
282.2461793568
 51
85.8739291194
  0
ARC
  8
0
 62
7
  6
CONTINUOUS
 10
148.2319204971
 20
106.3959483248
 40
0.5000000045
 50
180.0000129167
 51
240.0002704844
  0
ARC
  8
0
 62
7
  6
CONTINUOUS
 10
138.7318920374
 20
106.3959482121
 40
0.5
 50
299.9997624355
 51
360.0
  0
ARC
  8
0
 62
7
  6
CONTINUOUS
 10
153.2318920374
 20
106.3959482121
 40
0.5
 50
299.9997624355
 51
360.0
  0
ARC
  8
0
 62
7
  6
CONTINUOUS
 10
153.5818919055
 20
110.384460775
 40
0.15
 50
359.9998009189
 51
14.1997946428
  0
ARC
  8
AXES
 62
7
  6
CONTINUOUS
 10
153.6506260375
 20
111.3357815618
 40
0.15
 50
194.2
 51
265.8739291194
  0
ARC
  8
AXES
 62
7
  6
CONTINUOUS
 10
153.8818920374
 20
108.0776034525
 40
0.15
 50
102.2461793568
 51
180.0
  0
ARC
  8
AXES
 62
7
  6
CONTINUOUS
 10
147.8131867636
 20
111.3357815618
 40
0.15
 50
274.1260708806
 51
345.8
  0
ARC
  8
AXES
 62
7
  6
CONTINUOUS
 10
147.5819207637
 20
108.0776034525
 40
0.15
 50
0.0
 51
77.7538206432
  0
ARC
  8
AXES
 62
7
  6
CONTINUOUS
 10
139.0818920374
 20
110.3844602538
 40
0.15
 50
0.0
 51
14.2
  0
ARC
  8
0
 62
7
  6
CONTINUOUS
 10
139.0818919055
 20
110.384460775
 40
0.15
 50
359.999800919
 51
14.1997946428
  0
ARC
  8
0
 62
7
  6
CONTINUOUS
 10
147.8819207637
 20
110.3844602538
 40
0.15
 50
165.8
 51
180.0
  0
ARC
  8
0
 62
7
  6
CONTINUOUS
 10
155.9819064006
 20
119.1100581198
 40
3.0
 50
90.0
 51
180.0
  0
ARC
  8
0
 62
7
  6
CONTINUOUS
 10
141.1819064006
 20
119.2600581198
 40
2.7
 50
90.0
 51
180.0
  0
ARC
  8
0
 62
7
  6
CONTINUOUS
 10
145.7819064006
 20
119.2600581198
 40
2.7
 50
0.0
 51
90.0
  0
ARC
  8
0
 62
7
  6
CONTINUOUS
 10
138.9819064006
 20
113.429336412
 40
0.5
 50
180.0
 51
194.2
  0
ARC
  8
0
 62
7
  6
CONTINUOUS
 10
147.9819064006
 20
113.429336412
 40
0.5
 50
345.8
 51
360.0
  0
ARC
  8
0
 62
7
  6
CONTINUOUS
 10
153.4819064006
 20
113.429336412
 40
0.5
 50
180.0
 51
194.2
  0
ARC
  8
0
 62
7
  6
CONTINUOUS
 10
165.8569064006
 20
109.8600581198
 40
4.5
 50
240.0002375645
 51
270.0
  0
ARC
  8
0
 62
7
  6
CONTINUOUS
 10
166.8569064006
 20
109.8600581198
 40
4.5
 50
270.0
 51
299.9997624355
  0
ARC
  8
0
 62
7
  6
CONTINUOUS
 10
163.8569204971
 20
106.3959483248
 40
0.5000000045
 50
180.0000129167
 51
240.0002704844
  0
ARC
  8
0
 62
7
  6
CONTINUOUS
 10
168.8568920374
 20
106.3959482121
 40
0.5
 50
299.9997624355
 51
360.0
  0
ARC
  8
0
 62
7
  6
CONTINUOUS
 10
163.5069207637
 20
110.3844602538
 40
0.15
 50
165.8
 51
180.0
  0
ARC
  8
AXES
 62
7
  6
CONTINUOUS
 10
163.5069207637
 20
110.3844602538
 40
0.15
 50
165.8
 51
180.0
  0
ARC
  8
0
 62
7
  6
CONTINUOUS
 10
169.2068919055
 20
110.384460775
 40
0.15
 50
359.999800919
 51
14.1997946428
  0
ARC
  8
AXES
 62
7
  6
CONTINUOUS
 10
169.2068920374
 20
110.3844602538
 40
0.15
 50
0.0
 51
14.2
  0
ARC
  8
AXES
 62
7
  6
CONTINUOUS
 10
174.6069064006
 20
116.7086962747
 40
6.0
 50
176.4927999793
 51
180.0
  0
ARC
  8
AXES
 62
7
  6
CONTINUOUS
 10
174.6069064006
 20
116.7086962747
 40
6.0
 50
174.8194672786
 51
175.3332578109
  0
ARC
  8
0
 62
7
  6
CONTINUOUS
 10
174.6069064006
 20
116.7086962747
 40
6.0
 50
109.6692848698
 51
180.0
  0
ARC
  8
0
 62
7
  6
CONTINUOUS
 10
160.1069064006
 20
118.1100581198
 40
4.0
 50
0.0
 51
90.0
  0
ARC
  8
0
 62
7
  6
CONTINUOUS
 10
163.6069064006
 20
113.429336412
 40
0.5
 50
345.8
 51
360.0
  0
ARC
  8
0
 62
7
  6
CONTINUOUS
 10
169.1069064006
 20
113.429336412
 40
0.5
 50
180.0
 51
194.2
  0
ARC
  8
0
 62
7
  6
CONTINUOUS
 10
151.4819064006
 20
127.2600581198
 40
4.5
 50
270.0
 51
360.0
  0
ARC
  8
0
 62
7
  6
CONTINUOUS
 10
149.9819064006
 20
127.2600581198
 40
4.5
 50
180.0
 51
270.0
  0
ARC
  8
0
 62
7
  6
CONTINUOUS
 10
140.4819064006
 20
131.3977798276
 40
0.5
 50
0.0
 51
14.2
  0
ARC
  8
0
 62
7
  6
CONTINUOUS
 10
155.4819064006
 20
131.3977798276
 40
0.5
 50
0.0
 51
14.2
  0
ARC
  8
0
 62
7
  6
CONTINUOUS
 10
145.9819064006
 20
131.3977798276
 40
0.5
 50
165.8
 51
180.0
  0
ARC
  8
0
 62
7
  6
CONTINUOUS
 10
140.9779064006
 20
138.7100581198
 40
0.75
 50
90.0
 51
180.0
  0
ARC
  8
0
 62
7
  6
CONTINUOUS
 10
145.4859064006
 20
138.7100581198
 40
0.75
 50
0.0
 51
90.0
  0
ARC
  8
0
 62
7
  6
CONTINUOUS
 10
155.9779064006
 20
138.7100581198
 40
0.75
 50
90.0
 51
180.0
  0
ARC
  8
0
 62
7
  6
CONTINUOUS
 10
140.3779065324
 20
134.4585200733
 40
0.15
 50
179.999800919
 51
194.1997946428
  0
ARC
  8
0
 62
7
  6
CONTINUOUS
 10
146.0859064006
 20
134.4585205945
 40
0.15
 50
345.8
 51
360.0
  0
ARC
  8
0
 62
7
  6
CONTINUOUS
 10
155.3779065324
 20
134.4585200733
 40
0.15
 50
179.999800919
 51
194.1997946428
  0
ARC
  8
0
 62
7
  6
CONTINUOUS
 10
166.7319064006
 20
128.1600581198
 40
5.5
 50
270.0
 51
329.2118097615
  0
ARC
  8
0
 62
7
  6
CONTINUOUS
 10
164.9819064006
 20
127.1600581198
 40
4.5
 50
180.0
 51
270.0
  0
ARC
  8
0
 62
7
  6
CONTINUOUS
 10
173.7319064006
 20
125.9536099656
 40
3.0
 50
289.6692853863
 51
360.0
  0
ARC
  8
0
 62
7
  6
CONTINUOUS
 10
160.9819064006
 20
131.3977843054
 40
0.5
 50
165.8010105549
 51
180.0
  0
ARC
  8
0
 62
7
  6
CONTINUOUS
 10
171.3279064006
 20
125.4215760585
 40
0.15
 50
329.2118097615
 51
360.0
  0
ARC
  8
0
 62
7
  6
CONTINUOUS
 10
174.2319064006
 20
137.4045564929
 40
2.5
 50
359.9995481416
 51
109.6692853863
  0
ARC
  8
0
 62
7
  6
CONTINUOUS
 10
160.4859064006
 20
138.7100581198
 40
0.75
 50
0.0
 51
90.0
  0
ARC
  8
0
 62
7
  6
CONTINUOUS
 10
171.6279064006
 20
138.9693803619
 40
0.15
 50
109.6692640954
 51
179.9999367453
  0
ARC
  8
0
 62
7
  6
CONTINUOUS
 10
161.0859060975
 20
134.4587390663
 40
0.15
 50
345.8014825109
 51
0.0004575287
  0
ARC
  8
0
 62
7
  6
CONTINUOUS
 10
268.1108293886
 20
122.5100581198
 40
0.15
 50
146.250000016
 51
180.0
  0
ARC
  8
0
 62
7
  6
CONTINUOUS
 10
268.1108293886
 20
122.6694411432
 40
0.1499999671
 50
179.9998090059
 51
252.634248814
  0
ARC
  8
0
 62
7
  6
CONTINUOUS
 10
271.9608293886
 20
109.3600581198
 40
4.0
 50
180.0
 51
270.0
  0
ARC
  8
0
 62
7
  6
CONTINUOUS
 10
271.9608293886
 20
135.4600581198
 40
4.0
 50
90.0
 51
180.0
  0
ARC
  8
AXES
 62
7
  6
CONTINUOUS
 10
273.9608293886
 20
109.7100581198
 40
2.1
 50
180.0
 51
360.0
  0
ARC
  8
0
 62
7
  6
CONTINUOUS
 10
275.9608293886
 20
109.3600581198
 40
4.0
 50
270.0
 51
360.0
  0
ARC
  8
AXES
 62
7
  6
CONTINUOUS
 10
273.9608293886
 20
117.7600581198
 40
2.1
 50
0.0
 51
180.0
  0
ARC
  8
0
 62
7
  6
CONTINUOUS
 10
279.8108293886
 20
121.7760581198
 40
0.15
 50
270.0
 51
360.0
  0
CIRCLE
  8
AXES
 62
7
  6
CONTINUOUS
 10
273.9608293886
 20
135.1100581198
 40
2.1
  0
ARC
  8
0
 62
7
  6
CONTINUOUS
 10
273.9608293886
 20
141.3760581198
 40
19.75
 50
252.6343058201
 51
270.0
  0
ARC
  8
0
 62
7
  6
CONTINUOUS
 10
275.9608293886
 20
135.4600581198
 40
4.0
 50
0.0
 51
90.0
  0
ENDSEC
  0
EOF
