  0
SECTION
  2
HEADER
  9
$EXTMAX
 10
420.0
 20
297.0
 30
0.0
  9
$EXTMIN
 10
0.0
 20
0.0
 30
0.0
  9
$LIMMIN
 10
0.0
 20
0.0
  9
$LIMMAX
 10
420.0
 20
297.0
  9
$VIEWCTR
 10
210.0
 20
148.5
  9
$VIEWSIZE
 40
297.0
  9
$CLAYER
  8
0
  9
$LTSCALE
 40
23.1
  9
$CELTYPE
  6
BYLAYER
  9
$DIMSCALE
 40
1.0
  9
$DIMASZ
 40
3.5
  9
$DIMEXO
 40
1.0
  9
$DIMDLI
 40
15.96
  9
$DIMEXE
 40
2.0
  9
$DIMCEN
 40
3.78
  9
$DIMLFAC
 40
1.0
  9
$DIMBLK
  1
_FILLED
  9
$DIMALT
 70
0
  9
$DIMALTF
 40
0.0393700787
  9
$DIMTXT
 40
3.5
  9
$AUNITS
 70
0
  9
$PDMODE
 70
3
  9
$PDSIZE
 40
0.3125
  9
$TILEMODE
 70
1
  0
ENDSEC
  0
SECTION
  2
TABLES
  0
TABLE
  2
LTYPE
 70
6
  0
LTYPE
  2
BYBLOCK
 70
0
  3

 72
65
 73
0
 40
0.0
  0
LTYPE
  2
BYLAYER
 70
0
  3

 72
65
 73
0
 40
0.0
  0
LTYPE
  2
CONTINUOUS
 70
64
  3
Solid line
 72
65
 73
0
 40
0.0
  0
LTYPE
  2
CENTER
 70
64
  3
____ _ ____ _ ____ _ ____ _ ____ _ ____ _ ____
 72
65
 73
4
 40
0.6
 49
0.375
 49
-0.075
 49
0.075
 49
-0.075
  0
LTYPE
  2
HIDDEN
 70
64
  3
- - - - - - - - - - - - - - - - - - - -
 72
65
 73
2
 40
0.2
 49
0.1
 49
-0.1
  0
LTYPE
  2
PHANTOM
 70
64
  3
_____ _ _ _____ _ _ _____ _ _ _____
 72
65
 73
6
 40
0.8
 49
0.45
 49
-0.05
 49
0.1
 49
-0.05
 49
0.1
 49
-0.05
  0
LTYPE
  2
DOT
 70
64
  3
. . . . . . . . . . . . . . . . . . . .
 72
65
 73
2
 40
0.2
 49
0.1
 49
-0.1
  0
LTYPE
  2
DASHED
 70
64
  3
- - - - - - - - - - - - - - - - - - - -
 72
65
 73
2
 40
0.2
 49
0.1
 49
-0.1
  0
ENDTAB
  0
TABLE
  2
LAYER
 70
36
  0
LAYER
  2
0
 70
0
 62
7
  6
CONTINUOUS
  0
LAYER
  2
DEFAULT_1
 70
0
 62
7
  6
CENTER
  0
LAYER
  2
DEFAULT_2
 70
0
 62
8
  6
HIDDEN
  0
LAYER
  2
DEFAULT_3
 70
0
 62
7
  6
PHANTOM
  0
LAYER
  2
AXES
 70
0
 62
7
  6
CONTINUOUS
  0
LAYER
  2
CSYS
 70
0
 62
7
  6
CONTINUOUS
  0
LAYER
  2
CURVE
 70
0
 62
7
  6
CONTINUOUS
  0
LAYER
  2
CURVES
 70
0
 62
7
  6
CONTINUOUS
  0
LAYER
  2
PLANES
 70
0
 62
7
  6
CONTINUOUS
  0
LAYER
  2
QUILT
 70
0
 62
7
  6
CONTINUOUS
  0
LAYER
  2
SURFACE
 70
0
 62
7
  6
CONTINUOUS
  0
ENDTAB
  0
TABLE
  2
STYLE
 70
1
  0
STYLE
  2
STANDARD
 70
0
 40
0.0
 41
0.8
 50
0.0
 71
0
 42
0.2
  3
txt
  4

  0
STYLE
  2
TEXTSTYLE_1
 70
0
 40
0.0
 41
0.8
 50
0.0
 71
0
 42
0.2
  3
gdt
  4

  0
STYLE
  2
TEXTSTYLE_2
 70
0
 40
0.0
 41
0.6
 50
0.0
 71
0
 42
0.2
  3
txt
  4

  0
STYLE
  2
TEXTSTYLE_3
 70
0
 40
0.0
 41
1.0
 50
0.0
 71
0
 42
0.2
  3
ftb_____.ttf
  4

  0
STYLE
  2
TEXTSTYLE_4
 70
0
 40
0.0
 41
1.0
 50
0.0
 71
0
 42
0.2
  3
fti_____.ttf
  4

  0
STYLE
  2
TEXTSTYLE_5
 70
0
 40
0.0
 41
1.0
 50
0.0
 71
0
 42
0.2
  3
frutiger light.ttf
  4

  0
STYLE
  2
TEXTSTYLE_6
 70
0
 40
0.0
 41
0.7
 50
0.0
 71
0
 42
0.2
  3
txt
  4

  0
STYLE
  2
TEXTSTYLE_7
 70
0
 40
0.0
 41
0.6
 50
0.0
 71
0
 42
0.2
  3
txt
  4

  0
ENDTAB
  0
ENDSEC
  0
SECTION
  2
BLOCKS
  0
BLOCK
  8
0
 62
2
  6
CONTINUOUS
  2
UNI_LOGO2_BL1
 70
64
 10
382.7840918555
 20
35.5067593403
  0
TEXT
  8
0
 62
7
  6
CONTINUOUS
 10
373.842376864
 20
30.5995157174
  7
TEXTSTYLE_4
 40
1.0655737705
  1
The brand for plastic modular belts and chains
 41
1.0
 72
0
  0
LINE
  8
0
 62
7
  6
CONTINUOUS
 10
358.7621602445
 20
36.0805298321
 11
358.7621602445
 21
33.9493822911
  0
LINE
  8
0
 62
7
  6
CONTINUOUS
 10
359.0512227376
 20
30.9584509954
 11
359.0512227376
 21
31.0552420547
  0
LINE
  8
0
 62
7
  6
CONTINUOUS
 10
358.7621602445
 20
31.0229783683
 11
358.8199727462
 21
30.8293962497
  0
LINE
  8
0
 62
7
  6
CONTINUOUS
 10
360.1556028675
 20
33.867415078
 11
360.1556028675
 21
36.0805298321
  0
LINE
  8
0
 62
7
  6
CONTINUOUS
 10
361.0746601894
 20
32.0231527829
 11
361.0746601894
 21
30.5067593403
  0
LINE
  8
0
 62
7
  6
CONTINUOUS
 10
361.3637227445
 20
30.5067593403
 11
361.3637227445
 21
31.2488242184
  0
LINE
  8
0
 62
7
  6
CONTINUOUS
 10
361.3637227445
 20
31.3778789641
 11
361.3637227445
 21
32.0231527829
  0
LINE
  8
0
 62
7
  6
CONTINUOUS
 10
358.8199727462
 20
31.216560532
 11
358.7621602445
 21
31.0229783683
  0
LINE
  8
0
 62
7
  6
CONTINUOUS
 10
359.1668477307
 20
30.7971325633
 11
359.0512227376
 21
30.9584509954
  0
LINE
  8
0
 62
7
  6
CONTINUOUS
 10
360.2652852997
 20
31.3133515913
 11
360.3230977445
 21
31.216560532
  0
LINE
  8
0
 62
7
  6
CONTINUOUS
 10
360.6121602997
 20
31.216560532
 11
360.5543476894
 21
31.3456152777
  0
LINE
  8
0
 62
7
  6
CONTINUOUS
 10
362.0408487691
 20
36.0805298321
 11
362.0408487691
 21
34.2772511436
  0
LINE
  8
0
 62
7
  6
CONTINUOUS
 10
362.0408487691
 20
32.9657757338
 11
362.0408487691
 21
32.3100380288
  0
LINE
  8
0
 62
7
  6
CONTINUOUS
 10
362.4043477445
 20
31.1520331591
 11
362.4043477445
 21
30.5067593403
  0
LINE
  8
0
 62
7
  6
CONTINUOUS
 10
362.6934101343
 20
30.5067593403
 11
362.6934101343
 21
31.1520331591
  0
LINE
  8
0
 62
7
  6
CONTINUOUS
 10
359.0512227376
 20
31.0552420547
 11
359.1090352445
 21
31.1842968456
  0
LINE
  8
0
 62
7
  6
CONTINUOUS
 10
358.8199727462
 20
30.8293962497
 11
358.9355977445
 21
30.7003414814
  0
LINE
  8
0
 62
7
  6
CONTINUOUS
 10
362.3465351343
 20
31.2810879048
 11
362.4043477445
 21
31.1520331591
  0
LINE
  8
0
 62
7
  6
CONTINUOUS
 10
363.1559103548
 20
30.7971325633
 11
363.2137226343
 21
30.668077795
  0
LINE
  8
0
 62
7
  6
CONTINUOUS
 10
362.6934101343
 20
31.1520331591
 11
362.6355978548
 21
31.3133515913
  0
LINE
  8
0
 62
7
  6
CONTINUOUS
 10
363.1559103548
 20
31.3456152777
 11
363.1559103548
 21
31.2810879048
  0
LINE
  8
0
 62
7
  6
CONTINUOUS
 10
363.1559103548
 20
30.8939236226
 11
363.1559103548
 21
30.7971325633
  0
LINE
  8
0
 62
7
  6
CONTINUOUS
 10
363.4342913921
 20
32.3100380288
 11
363.4342913921
 21
36.0805298321
  0
LINE
  8
0
 62
7
  6
CONTINUOUS
 10
363.4449727445
 20
30.7648688543
 11
363.4449727445
 21
30.8293962497
  0
LINE
  8
0
 62
7
  6
CONTINUOUS
 10
363.7621602445
 20
36.0805298321
 11
363.7621602445
 21
32.3100380288
  0
LINE
  8
0
 62
7
  6
CONTINUOUS
 10
360.5543476894
 20
30.7003414814
 11
360.6121602997
 21
30.8293962497
  0
LINE
  8
0
 62
7
  6
CONTINUOUS
 10
364.9480979651
 20
30.6035504109
 11
364.890285024
 21
30.7648688543
  0
LINE
  8
0
 62
7
  6
CONTINUOUS
 10
364.6012229651
 20
31.2810879048
 11
364.6012229651
 21
31.1842968456
  0
LINE
  8
0
 62
7
  6
CONTINUOUS
 10
364.6012229651
 20
31.0552420547
 11
364.6012229651
 21
30.8616599362
  0
LINE
  8
0
 62
7
  6
CONTINUOUS
 10
364.890285024
 20
30.7648688543
 11
364.890285024
 21
31.2810879048
  0
LINE
  8
0
 62
7
  6
CONTINUOUS
 10
365.1556028675
 20
32.3100380288
 11
365.1556028675
 21
34.1133167174
  0
LINE
  8
0
 62
7
  6
CONTINUOUS
 10
365.1556028675
 20
35.4247921272
 11
365.1556028675
 21
36.0805298321
  0
LINE
  8
0
 62
7
  6
CONTINUOUS
 10
365.4684104651
 20
32.0231527829
 11
365.4684104651
 21
31.8618343508
  0
LINE
  8
0
 62
7
  6
CONTINUOUS
 10
365.4684104651
 20
31.5391973962
 11
365.4684104651
 21
30.5067593403
  0
LINE
  8
0
 62
7
  6
CONTINUOUS
 10
365.757472524
 20
30.5067593403
 11
365.757472524
 21
31.5391973962
  0
LINE
  8
0
 62
7
  6
CONTINUOUS
 10
365.757472524
 20
31.8618343508
 11
365.757472524
 21
32.0231527829
  0
LINE
  8
0
 62
7
  6
CONTINUOUS
 10
360.3230977445
 20
30.8293962497
 11
360.2652852997
 21
30.7326051679
  0
LINE
  8
0
 62
7
  6
CONTINUOUS
 10
362.6355978548
 20
31.3133515913
 11
362.5777852445
 21
31.3778789641
  0
LINE
  8
0
 62
7
  6
CONTINUOUS
 10
363.5027853548
 20
30.7003414814
 11
363.4449727445
 21
30.7648688543
  0
LINE
  8
0
 62
7
  6
CONTINUOUS
 10
364.6590352445
 20
30.5712867188
 11
364.716847524
 21
30.5067593403
  0
LINE
  8
0
 62
7
  6
CONTINUOUS
 10
364.6012229651
 20
30.668077795
 11
364.6590352445
 21
30.5712867188
  0
LINE
  8
0
 62
7
  6
CONTINUOUS
 10
365.0059102445
 20
30.5067593403
 11
364.9480979651
 21
30.6035504109
  0
LINE
  8
0
 62
7
  6
CONTINUOUS
 10
364.890285024
 20
31.2810879048
 11
364.8324727445
 21
31.3778789641
  0
LINE
  8
0
 62
7
  6
CONTINUOUS
 10
366.2199727445
 20
31.5391973962
 11
366.2199727445
 21
30.5067593403
  0
LINE
  8
0
 62
7
  6
CONTINUOUS
 10
366.5090354651
 20
30.5067593403
 11
366.5090354651
 21
31.2488242184
  0
LINE
  8
0
 62
7
  6
CONTINUOUS
 10
366.5090354651
 20
31.3778789641
 11
366.5090354651
 21
31.5391973962
  0
LINE
  8
0
 62
7
  6
CONTINUOUS
 10
367.0408487691
 20
34.5231527829
 11
367.0408487691
 21
32.3100380288
  0
LINE
  8
0
 62
7
  6
CONTINUOUS
 10
358.9355977445
 20
31.3456152777
 11
358.8199727462
 21
31.216560532
  0
LINE
  8
0
 62
7
  6
CONTINUOUS
 10
359.1090352445
 20
31.1842968456
 11
359.1668477307
 21
31.2488242184
  0
LINE
  8
0
 62
7
  6
CONTINUOUS
 10
358.9355977445
 20
30.7003414814
 11
359.0512227376
 21
30.6358140973
  0
LINE
  8
0
 62
7
  6
CONTINUOUS
 10
359.3402852307
 20
30.7003414814
 11
359.1668477307
 21
30.7971325633
  0
LINE
  8
0
 62
7
  6
CONTINUOUS
 10
364.543410024
 20
31.3456152777
 11
364.6012229651
 21
31.2810879048
  0
LINE
  8
0
 62
7
  6
CONTINUOUS
 10
367.491847524
 20
31.2810879048
 11
367.5496604651
 21
31.1197694727
  0
LINE
  8
0
 62
7
  6
CONTINUOUS
 10
367.838722524
 20
31.1197694727
 11
367.7809102445
 21
31.2810879048
  0
LINE
  8
0
 62
7
  6
CONTINUOUS
 10
367.5496604651
 20
31.1197694727
 11
367.5496604651
 21
30.5067593403
  0
LINE
  8
0
 62
7
  6
CONTINUOUS
 10
367.838722524
 20
30.5067593403
 11
367.838722524
 21
31.1197694727
  0
LINE
  8
0
 62
7
  6
CONTINUOUS
 10
368.3012227445
 20
31.3456152777
 11
368.3012227445
 21
31.2810879048
  0
LINE
  8
0
 62
7
  6
CONTINUOUS
 10
368.4342913921
 20
32.3100380288
 11
368.4342913921
 21
34.4411855698
  0
LINE
  8
0
 62
7
  6
CONTINUOUS
 10
368.7621602445
 20
36.0805298321
 11
368.7621602445
 21
32.3100380288
  0
LINE
  8
0
 62
7
  6
CONTINUOUS
 10
363.4449727445
 20
30.8293962497
 11
363.5027853548
 21
30.926187309
  0
LINE
  8
0
 62
7
  6
CONTINUOUS
 10
359.0512227376
 20
30.6358140973
 11
359.2246602583
 21
30.5712867188
  0
LINE
  8
0
 62
7
  6
CONTINUOUS
 10
360.5543476894
 20
31.3456152777
 11
360.3809101894
 21
31.4424063369
  0
LINE
  8
0
 62
7
  6
CONTINUOUS
 10
363.2137226343
 20
30.668077795
 11
363.3871601343
 21
30.5712867188
  0
LINE
  8
0
 62
7
  6
CONTINUOUS
 10
362.2309102445
 20
31.3456152777
 11
362.3465351343
 21
31.2810879048
  0
LINE
  8
0
 62
7
  6
CONTINUOUS
 10
362.5777852445
 20
31.3778789641
 11
362.4621603548
 21
31.4424063369
  0
LINE
  8
0
 62
7
  6
CONTINUOUS
 10
368.3012227445
 20
30.7648688543
 11
368.4168479651
 21
30.6358140973
  0
LINE
  8
0
 62
7
  6
CONTINUOUS
 10
368.6480977445
 20
30.7003414814
 11
368.5902854651
 21
30.7648688543
  0
LINE
  8
0
 62
7
  6
CONTINUOUS
 10
368.3012227445
 20
31.2810879048
 11
368.4168479651
 21
31.1520331591
  0
LINE
  8
0
 62
7
  6
CONTINUOUS
 10
367.7809102445
 20
31.2810879048
 11
367.7230979651
 21
31.3778789641
  0
LINE
  8
0
 62
7
  6
CONTINUOUS
 10
370.1512223035
 20
30.7003414814
 11
370.1512223035
 21
30.7648688543
  0
LINE
  8
0
 62
7
  6
CONTINUOUS
 10
370.1556028675
 20
32.3100380288
 11
370.1556028675
 21
36.0805298321
  0
LINE
  8
0
 62
7
  6
CONTINUOUS
 10
363.2137226343
 20
31.4101426505
 11
363.1559103548
 21
31.3456152777
  0
LINE
  8
0
 62
7
  6
CONTINUOUS
 10
360.091847717
 20
31.3778789641
 11
360.2652852997
 21
31.3133515913
  0
LINE
  8
0
 62
7
  6
CONTINUOUS
 10
364.8324727445
 20
31.3778789641
 11
364.716847524
 21
31.4424063369
  0
LINE
  8
0
 62
7
  6
CONTINUOUS
 10
368.6480977445
 20
31.216560532
 11
368.5902854651
 21
31.2810879048
  0
LINE
  8
0
 62
7
  6
CONTINUOUS
 10
369.8043479651
 20
30.8293962497
 11
369.8621602445
 21
30.7648688543
  0
LINE
  8
0
 62
7
  6
CONTINUOUS
 10
370.1512223035
 20
30.7648688543
 11
370.0355977445
 21
30.8939236226
  0
LINE
  8
0
 62
7
  6
CONTINUOUS
 10
369.8043479651
 20
31.3456152777
 11
369.8621602445
 21
31.2810879048
  0
LINE
  8
0
 62
7
  6
CONTINUOUS
 10
370.1512223035
 20
31.2810879048
 11
370.0355977445
 21
31.4101426505
  0
LINE
  8
0
 62
7
  6
CONTINUOUS
 10
363.4449727445
 20
31.2810879048
 11
363.5027853548
 21
31.3456152777
  0
LINE
  8
0
 62
7
  6
CONTINUOUS
 10
363.2715352445
 20
31.0229783683
 11
363.1559103548
 21
30.8939236226
  0
LINE
  8
0
 62
7
  6
CONTINUOUS
 10
364.6012229651
 20
30.8616599362
 11
364.543410024
 21
30.7971325633
  0
LINE
  8
0
 62
7
  6
CONTINUOUS
 10
364.543410024
 20
30.6035504109
 11
364.6012229651
 21
30.668077795
  0
LINE
  8
0
 62
7
  6
CONTINUOUS
 10
363.3871601343
 20
30.5712867188
 11
363.5027853548
 21
30.5390230296
  0
LINE
  8
0
 62
7
  6
CONTINUOUS
 10
360.3809101894
 20
31.4424063369
 11
360.1496602445
 21
31.5069337098
  0
LINE
  8
0
 62
7
  6
CONTINUOUS
 10
363.7340351343
 20
30.6358140973
 11
363.5027853548
 21
30.7003414814
  0
LINE
  8
0
 62
7
  6
CONTINUOUS
 10
362.4621603548
 20
31.4424063369
 11
362.2887228548
 21
31.5069337098
  0
LINE
  8
0
 62
7
  6
CONTINUOUS
 10
364.716847524
 20
31.4424063369
 11
364.543410024
 21
31.5069337098
  0
LINE
  8
0
 62
7
  6
CONTINUOUS
 10
367.3762229651
 20
31.3456152777
 11
367.491847524
 21
31.2810879048
  0
LINE
  8
0
 62
7
  6
CONTINUOUS
 10
367.7230979651
 20
31.3778789641
 11
367.6074727445
 21
31.4424063369
  0
LINE
  8
0
 62
7
  6
CONTINUOUS
 10
359.2246602583
 20
30.5712867188
 11
359.3980977583
 21
30.5390230296
  0
LINE
  8
0
 62
7
  6
CONTINUOUS
 10
359.6871602721
 20
30.6358140973
 11
359.3402852307
 21
30.7003414814
  0
LINE
  8
0
 62
7
  6
CONTINUOUS
 10
362.1152853548
 20
31.3778789641
 11
362.2309102445
 21
31.3456152777
  0
LINE
  8
0
 62
7
  6
CONTINUOUS
 10
364.4277854651
 20
31.3778789641
 11
364.543410024
 21
31.3456152777
  0
LINE
  8
0
 62
7
  6
CONTINUOUS
 10
368.7637229651
 20
30.668077795
 11
368.6480977445
 21
30.7003414814
  0
LINE
  8
0
 62
7
  6
CONTINUOUS
 10
367.2605977445
 20
31.3778789641
 11
367.3762229651
 21
31.3456152777
  0
LINE
  8
0
 62
7
  6
CONTINUOUS
 10
368.4168479651
 20
30.6358140973
 11
368.5902854651
 21
30.5712867188
  0
LINE
  8
0
 62
7
  6
CONTINUOUS
 10
367.6074727445
 20
31.4424063369
 11
367.4340352445
 21
31.5069337098
  0
LINE
  8
0
 62
7
  6
CONTINUOUS
 10
368.8215352445
 20
31.1520331591
 11
368.6480977445
 21
31.216560532
  0
LINE
  8
0
 62
7
  6
CONTINUOUS
 10
369.6309104651
 20
30.8939236226
 11
369.8043479651
 21
30.8293962497
  0
LINE
  8
0
 62
7
  6
CONTINUOUS
 10
370.0355977445
 20
31.4101426505
 11
369.8621602445
 21
31.4746700234
  0
LINE
  8
0
 62
7
  6
CONTINUOUS
 10
368.4168479651
 20
31.1520331591
 11
368.6480977445
 21
31.0552420547
  0
LINE
  8
0
 62
7
  6
CONTINUOUS
 10
370.0355977445
 20
30.8939236226
 11
369.8043479651
 21
30.9907146818
  0
LINE
  8
0
 62
7
  6
CONTINUOUS
 10
368.5902854651
 20
31.2810879048
 11
368.6480977445
 21
31.3456152777
  0
LINE
  8
0
 62
7
  6
CONTINUOUS
 10
359.0512227376
 20
31.4101426505
 11
358.9355977445
 21
31.3456152777
  0
LINE
  8
0
 62
7
  6
CONTINUOUS
 10
359.1668477307
 20
31.2488242184
 11
359.3402852307
 21
31.3456152777
  0
LINE
  8
0
 62
7
  6
CONTINUOUS
 10
361.4793477997
 20
31.4424063369
 11
361.3637227445
 21
31.3778789641
  0
LINE
  8
0
 62
7
  6
CONTINUOUS
 10
361.3637227445
 20
31.2488242184
 11
361.4793477997
 21
31.3133515913
  0
LINE
  8
0
 62
7
  6
CONTINUOUS
 10
360.3809101894
 20
30.6035504109
 11
360.5543476894
 21
30.7003414814
  0
LINE
  8
0
 62
7
  6
CONTINUOUS
 10
359.3980977583
 20
30.5390230296
 11
359.744972717
 21
30.5067593403
  0
LINE
  8
0
 62
7
  6
CONTINUOUS
 10
363.5027853548
 20
30.5390230296
 11
363.7340351343
 21
30.5067593403
  0
LINE
  8
0
 62
7
  6
CONTINUOUS
 10
361.8840352445
 20
31.4101426505
 11
362.1152853548
 21
31.3778789641
  0
LINE
  8
0
 62
7
  6
CONTINUOUS
 10
364.1965353548
 20
31.4101426505
 11
364.4277854651
 21
31.3778789641
  0
LINE
  8
0
 62
7
  6
CONTINUOUS
 10
368.6480977445
 20
31.0552420547
 11
369.6309104651
 21
30.8939236226
  0
LINE
  8
0
 62
7
  6
CONTINUOUS
 10
369.8043479651
 20
30.9907146818
 11
368.8215352445
 21
31.1520331591
  0
LINE
  8
0
 62
7
  6
CONTINUOUS
 10
362.2887228548
 20
31.5069337098
 11
362.1152853548
 21
31.5391973962
  0
LINE
  8
0
 62
7
  6
CONTINUOUS
 10
368.5902854651
 20
30.5712867188
 11
368.7637229651
 21
30.5390230296
  0
LINE
  8
0
 62
7
  6
CONTINUOUS
 10
367.4340352445
 20
31.5069337098
 11
367.2605977445
 21
31.5391973962
  0
LINE
  8
0
 62
7
  6
CONTINUOUS
 10
369.6887227445
 20
31.3778789641
 11
369.8043479651
 21
31.3456152777
  0
LINE
  8
0
 62
7
  6
CONTINUOUS
 10
369.8621602445
 20
30.7648688543
 11
369.8043479651
 21
30.7003414814
  0
LINE
  8
0
 62
7
  6
CONTINUOUS
 10
368.4168479651
 20
31.4424063369
 11
368.3012227445
 21
31.3456152777
  0
LINE
  8
0
 62
7
  6
CONTINUOUS
 10
363.3293478548
 20
31.4746700234
 11
363.2137226343
 21
31.4101426505
  0
LINE
  8
0
 62
7
  6
CONTINUOUS
 10
363.3871601343
 20
31.0875057863
 11
363.2715352445
 21
31.0229783683
  0
LINE
  8
0
 62
7
  6
CONTINUOUS
 10
363.5027853548
 20
30.926187309
 11
363.6184102445
 21
30.9907146818
  0
LINE
  8
0
 62
7
  6
CONTINUOUS
 10
361.0746601894
 20
30.5067593403
 11
361.3637227445
 21
30.5067593403
  0
LINE
  8
0
 62
7
  6
CONTINUOUS
 10
362.4043477445
 20
30.5067593403
 11
362.6934101343
 21
30.5067593403
  0
LINE
  8
0
 62
7
  6
CONTINUOUS
 10
363.7340351343
 20
30.5067593403
 11
364.0809101343
 21
30.5067593403
  0
LINE
  8
0
 62
7
  6
CONTINUOUS
 10
364.716847524
 20
30.5067593403
 11
365.0059102445
 21
30.5067593403
  0
LINE
  8
0
 62
7
  6
CONTINUOUS
 10
365.4684104651
 20
30.5067593403
 11
365.757472524
 21
30.5067593403
  0
LINE
  8
0
 62
7
  6
CONTINUOUS
 10
366.2199727445
 20
30.5067593403
 11
366.5090354651
 21
30.5067593403
  0
LINE
  8
0
 62
7
  6
CONTINUOUS
 10
367.5496604651
 20
30.5067593403
 11
367.838722524
 21
30.5067593403
  0
LINE
  8
0
 62
7
  6
CONTINUOUS
 10
369.1105979651
 20
30.5067593403
 11
369.4574729651
 21
30.5067593403
  0
LINE
  8
0
 62
7
  6
CONTINUOUS
 10
369.4574729651
 20
30.6358140973
 11
369.1105979651
 21
30.6358140973
  0
LINE
  8
0
 62
7
  6
CONTINUOUS
 10
364.0809101343
 20
30.6358140973
 11
363.7340351343
 21
30.6358140973
  0
LINE
  8
0
 62
7
  6
CONTINUOUS
 10
368.5902854651
 20
30.7648688543
 11
368.3012227445
 21
30.7648688543
  0
LINE
  8
0
 62
7
  6
CONTINUOUS
 10
360.6121602997
 20
30.8293962497
 11
360.3230977445
 21
30.8293962497
  0
LINE
  8
0
 62
7
  6
CONTINUOUS
 10
359.6871602721
 20
31.4101426505
 11
360.091847717
 21
31.3778789641
  0
LINE
  8
0
 62
7
  6
CONTINUOUS
 10
360.1496602445
 20
31.5069337098
 11
359.744972717
 21
31.5391973962
  0
LINE
  8
0
 62
7
  6
CONTINUOUS
 10
368.7637229651
 20
30.5390230296
 11
369.1105979651
 21
30.5067593403
  0
LINE
  8
0
 62
7
  6
CONTINUOUS
 10
369.1105979651
 20
30.6358140973
 11
368.7637229651
 21
30.668077795
  0
LINE
  8
0
 62
7
  6
CONTINUOUS
 10
364.543410024
 20
31.5069337098
 11
364.1965353548
 21
31.5391973962
  0
LINE
  8
0
 62
7
  6
CONTINUOUS
 10
369.3418477445
 20
31.4101426505
 11
369.6887227445
 21
31.3778789641
  0
LINE
  8
0
 62
7
  6
CONTINUOUS
 10
369.6887227445
 20
31.5069337098
 11
369.3418477445
 21
31.5391973962
  0
LINE
  8
0
 62
7
  6
CONTINUOUS
 10
367.0293479651
 20
31.4101426505
 11
367.2605977445
 21
31.3778789641
  0
LINE
  8
0
 62
7
  6
CONTINUOUS
 10
369.8621602445
 20
31.4746700234
 11
369.6887227445
 21
31.5069337098
  0
LINE
  8
0
 62
7
  6
CONTINUOUS
 10
370.0355977445
 20
30.6035504109
 11
370.1512223035
 21
30.7003414814
  0
LINE
  8
0
 62
7
  6
CONTINUOUS
 10
364.543410024
 20
30.7971325633
 11
364.369972524
 21
30.7003414814
  0
LINE
  8
0
 62
7
  6
CONTINUOUS
 10
366.624660024
 20
31.4424063369
 11
366.5090354651
 21
31.3778789641
  0
LINE
  8
0
 62
7
  6
CONTINUOUS
 10
366.5090354651
 20
31.2488242184
 11
366.624660024
 21
31.3133515913
  0
LINE
  8
0
 62
7
  6
CONTINUOUS
 10
359.2246602583
 20
31.4746700234
 11
359.0512227376
 21
31.4101426505
  0
LINE
  8
0
 62
7
  6
CONTINUOUS
 10
361.6527851343
 20
31.5069337098
 11
361.4793477997
 21
31.4424063369
  0
LINE
  8
0
 62
7
  6
CONTINUOUS
 10
361.4793477997
 20
31.3133515913
 11
361.6527851343
 21
31.3778789641
  0
LINE
  8
0
 62
7
  6
CONTINUOUS
 10
360.2652852997
 20
30.7326051679
 11
360.091847717
 21
30.668077795
  0
LINE
  8
0
 62
7
  6
CONTINUOUS
 10
369.6887227445
 20
30.668077795
 11
369.4574729651
 21
30.6358140973
  0
LINE
  8
0
 62
7
  6
CONTINUOUS
 10
364.0809101343
 20
30.5067593403
 11
364.369972524
 21
30.5390230296
  0
LINE
  8
0
 62
7
  6
CONTINUOUS
 10
369.4574729651
 20
30.5067593403
 11
369.8043479651
 21
30.5390230296
  0
LINE
  8
0
 62
7
  6
CONTINUOUS
 10
359.744972717
 20
30.5067593403
 11
360.1496602445
 21
30.5390230296
  0
LINE
  8
0
 62
7
  6
CONTINUOUS
 10
360.091847717
 20
30.668077795
 11
359.6871602721
 21
30.6358140973
  0
LINE
  8
0
 62
7
  6
CONTINUOUS
 10
363.9652852445
 20
31.0552420547
 11
364.6012229651
 21
31.0552420547
  0
LINE
  8
0
 62
7
  6
CONTINUOUS
 10
364.6012229651
 20
31.1842968456
 11
363.9652852445
 21
31.1842968456
  0
LINE
  8
0
 62
7
  6
CONTINUOUS
 10
360.3230977445
 20
31.216560532
 11
360.6121602997
 21
31.216560532
  0
LINE
  8
0
 62
7
  6
CONTINUOUS
 10
363.1559103548
 20
31.2810879048
 11
363.4449727445
 21
31.2810879048
  0
LINE
  8
0
 62
7
  6
CONTINUOUS
 10
369.8621602445
 20
31.2810879048
 11
370.1512223035
 21
31.2810879048
  0
LINE
  8
0
 62
7
  6
CONTINUOUS
 10
363.8496603548
 20
31.4101426505
 11
364.1965353548
 21
31.4101426505
  0
LINE
  8
0
 62
7
  6
CONTINUOUS
 10
368.9949727445
 20
31.4101426505
 11
369.3418477445
 21
31.4101426505
  0
LINE
  8
0
 62
7
  6
CONTINUOUS
 10
369.3418477445
 20
31.5391973962
 11
368.9949727445
 21
31.5391973962
  0
LINE
  8
0
 62
7
  6
CONTINUOUS
 10
367.2605977445
 20
31.5391973962
 11
367.0293479651
 21
31.5391973962
  0
LINE
  8
0
 62
7
  6
CONTINUOUS
 10
366.5090354651
 20
31.5391973962
 11
366.2199727445
 21
31.5391973962
  0
LINE
  8
0
 62
7
  6
CONTINUOUS
 10
365.757472524
 20
31.5391973962
 11
365.4684104651
 21
31.5391973962
  0
LINE
  8
0
 62
7
  6
CONTINUOUS
 10
364.1965353548
 20
31.5391973962
 11
363.8496603548
 21
31.5391973962
  0
LINE
  8
0
 62
7
  6
CONTINUOUS
 10
362.1152853548
 20
31.5391973962
 11
361.8840352445
 21
31.5391973962
  0
LINE
  8
0
 62
7
  6
CONTINUOUS
 10
365.4684104651
 20
31.8618343508
 11
365.757472524
 21
31.8618343508
  0
LINE
  8
0
 62
7
  6
CONTINUOUS
 10
365.757472524
 20
32.0231527829
 11
365.4684104651
 21
32.0231527829
  0
LINE
  8
0
 62
7
  6
CONTINUOUS
 10
361.3637227445
 20
32.0231527829
 11
361.0746601894
 21
32.0231527829
  0
LINE
  8
0
 62
7
  6
CONTINUOUS
 10
360.4015045068
 20
32.3100380288
 11
360.8140758554
 21
32.3100380288
  0
LINE
  8
0
 62
7
  6
CONTINUOUS
 10
362.0408487691
 20
32.3100380288
 11
363.4342913921
 21
32.3100380288
  0
LINE
  8
0
 62
7
  6
CONTINUOUS
 10
363.7621602445
 20
32.3100380288
 11
365.1556028675
 21
32.3100380288
  0
LINE
  8
0
 62
7
  6
CONTINUOUS
 10
367.0408487691
 20
32.3100380288
 11
368.4342913921
 21
32.3100380288
  0
LINE
  8
0
 62
7
  6
CONTINUOUS
 10
368.7621602445
 20
32.3100380288
 11
370.1556028675
 21
32.3100380288
  0
LINE
  8
0
 62
7
  6
CONTINUOUS
 10
366.798097524
 20
31.5069337098
 11
366.624660024
 21
31.4424063369
  0
LINE
  8
0
 62
7
  6
CONTINUOUS
 10
364.369972524
 20
30.5390230296
 11
364.543410024
 21
30.6035504109
  0
LINE
  8
0
 62
7
  6
CONTINUOUS
 10
369.8043479651
 20
30.5390230296
 11
370.0355977445
 21
30.6035504109
  0
LINE
  8
0
 62
7
  6
CONTINUOUS
 10
369.8043479651
 20
30.7003414814
 11
369.6887227445
 21
30.668077795
  0
LINE
  8
0
 62
7
  6
CONTINUOUS
 10
368.7637229651
 20
31.3778789641
 11
368.9949727445
 21
31.4101426505
  0
LINE
  8
0
 62
7
  6
CONTINUOUS
 10
366.798097524
 20
31.3778789641
 11
367.0293479651
 21
31.4101426505
  0
LINE
  8
0
 62
7
  6
CONTINUOUS
 10
363.7340351343
 20
31.0229783683
 11
363.9652852445
 21
31.0552420547
  0
LINE
  8
0
 62
7
  6
CONTINUOUS
 10
367.0293479651
 20
31.5391973962
 11
366.798097524
 21
31.5069337098
  0
LINE
  8
0
 62
7
  6
CONTINUOUS
 10
363.6184102445
 20
31.3778789641
 11
363.8496603548
 21
31.4101426505
  0
LINE
  8
0
 62
7
  6
CONTINUOUS
 10
368.9949727445
 20
31.5391973962
 11
368.6480977445
 21
31.5069337098
  0
LINE
  8
0
 62
7
  6
CONTINUOUS
 10
363.9652852445
 20
31.1842968456
 11
363.6184102445
 21
31.1520331591
  0
LINE
  8
0
 62
7
  6
CONTINUOUS
 10
359.744972717
 20
31.5391973962
 11
359.3980977583
 21
31.5069337098
  0
LINE
  8
0
 62
7
  6
CONTINUOUS
 10
363.8496603548
 20
31.5391973962
 11
363.4449727445
 21
31.5069337098
  0
LINE
  8
0
 62
7
  6
CONTINUOUS
 10
361.221176638
 20
33.4575790124
 11
360.565438933
 21
33.4575790124
  0
LINE
  8
0
 62
7
  6
CONTINUOUS
 10
366.624660024
 20
31.3133515913
 11
366.798097524
 21
31.3778789641
  0
LINE
  8
0
 62
7
  6
CONTINUOUS
 10
368.6480977445
 20
31.3456152777
 11
368.7637229651
 21
31.3778789641
  0
LINE
  8
0
 62
7
  6
CONTINUOUS
 10
368.6480977445
 20
31.5069337098
 11
368.4168479651
 21
31.4424063369
  0
LINE
  8
0
 62
7
  6
CONTINUOUS
 10
364.369972524
 20
30.7003414814
 11
364.0809101343
 21
30.6358140973
  0
LINE
  8
0
 62
7
  6
CONTINUOUS
 10
361.6527851343
 20
31.3778789641
 11
361.8840352445
 21
31.4101426505
  0
LINE
  8
0
 62
7
  6
CONTINUOUS
 10
361.8840352445
 20
31.5391973962
 11
361.6527851343
 21
31.5069337098
  0
LINE
  8
0
 62
7
  6
CONTINUOUS
 10
359.4559102445
 20
31.3778789641
 11
359.6871602721
 21
31.4101426505
  0
LINE
  8
0
 62
7
  6
CONTINUOUS
 10
365.9752749986
 20
34.9329888485
 11
366.6310127035
 21
34.9329888485
  0
LINE
  8
0
 62
7
  6
CONTINUOUS
 10
363.6184102445
 20
30.9907146818
 11
363.7340351343
 21
31.0229783683
  0
LINE
  8
0
 62
7
  6
CONTINUOUS
 10
363.6184102445
 20
31.1520331591
 11
363.3871601343
 21
31.0875057863
  0
LINE
  8
0
 62
7
  6
CONTINUOUS
 10
363.5027853548
 20
31.3456152777
 11
363.6184102445
 21
31.3778789641
  0
LINE
  8
0
 62
7
  6
CONTINUOUS
 10
360.1496602445
 20
30.5390230296
 11
360.3809101894
 21
30.6035504109
  0
LINE
  8
0
 62
7
  6
CONTINUOUS
 10
363.4449727445
 20
31.5069337098
 11
363.3293478548
 21
31.4746700234
  0
LINE
  8
0
 62
7
  6
CONTINUOUS
 10
359.3980977583
 20
31.5069337098
 11
359.2246602583
 21
31.4746700234
  0
LINE
  8
0
 62
7
  6
CONTINUOUS
 10
370.1556028675
 20
36.0805298321
 11
368.7621602445
 21
36.0805298321
  0
LINE
  8
0
 62
7
  6
CONTINUOUS
 10
366.7949471298
 20
36.0805298321
 11
366.3823757812
 21
36.0805298321
  0
LINE
  8
0
 62
7
  6
CONTINUOUS
 10
365.1556028675
 20
36.0805298321
 11
363.7621602445
 21
36.0805298321
  0
LINE
  8
0
 62
7
  6
CONTINUOUS
 10
363.4342913921
 20
36.0805298321
 11
362.0408487691
 21
36.0805298321
  0
LINE
  8
0
 62
7
  6
CONTINUOUS
 10
360.1556028675
 20
36.0805298321
 11
358.7621602445
 21
36.0805298321
  0
LINE
  8
0
 62
7
  6
CONTINUOUS
 10
359.3402852307
 20
31.3456152777
 11
359.4559102445
 21
31.3778789641
  0
CIRCLE
  8
0
 62
7
  6
CONTINUOUS
 10
369.458881556
 20
38.4165954059
 40
2.0901639344
  0
ARC
  8
0
 62
7
  6
CONTINUOUS
 10
360.4015045068
 20
33.9493822911
 40
1.6393442623
 50
180.0
 51
270.0
  0
ARC
  8
0
 62
7
  6
CONTINUOUS
 10
366.7949471298
 20
34.4411855698
 40
1.6393442623
 50
0.0
 51
90.0
  0
ARC
  8
0
 62
7
  6
CONTINUOUS
 10
360.8140758554
 20
33.7854478649
 40
1.4754098361
 50
270.0
 51
326.2510114041
  0
ARC
  8
0
 62
7
  6
CONTINUOUS
 10
366.3823757812
 20
34.6051199961
 40
1.4754098361
 50
90.0
 51
146.2510114041
  0
ARC
  8
0
 62
7
  6
CONTINUOUS
 10
361.221176638
 20
34.2772511436
 40
0.8196721311
 50
270.0
 51
360.0
  0
ARC
  8
0
 62
7
  6
CONTINUOUS
 10
365.9752749986
 20
34.1133167174
 40
0.8196721311
 50
90.0
 51
180.0
  0
ARC
  8
0
 62
7
  6
CONTINUOUS
 10
360.565438933
 20
33.867415078
 40
0.4098360656
 50
180.0
 51
270.0
  0
ARC
  8
0
 62
7
  6
CONTINUOUS
 10
366.6310127035
 20
34.5231527829
 40
0.4098360656
 50
0.0
 51
90.0
  0
SOLID
  8
0
 62
7
  6
CONTINUOUS
 10
365.4684104651
 20
31.8618347111
 11
365.4684104651
 21
32.0231531947
 12
365.757472524
 22
31.8618347111
 13
365.757472524
 23
32.0231531947
  0
SOLID
  8
0
 62
7
  6
CONTINUOUS
 10
359.744972717
 20
31.5391977439
 11
360.1496602445
 21
31.5069333244
 12
359.3980977583
 22
31.5069333244
 13
359.3980977583
 23
31.5069333244
  0
SOLID
  8
0
 62
7
  6
CONTINUOUS
 10
359.2246602583
 20
31.4746706537
 11
359.3980977583
 21
31.5069333244
 12
360.1496602445
 22
31.5069333244
 13
360.1496602445
 23
31.5069333244
  0
SOLID
  8
0
 62
7
  6
CONTINUOUS
 10
360.1496602445
 20
31.5069333244
 11
360.3809101894
 21
31.4424063504
 12
359.2246602583
 22
31.4746706537
 13
359.2246602583
 23
31.4746706537
  0
SOLID
  8
0
 62
7
  6
CONTINUOUS
 10
359.0512227376
 20
31.4101419116
 11
359.2246602583
 21
31.4746706537
 12
360.3809101894
 22
31.4424063504
 13
360.3809101894
 23
31.4424063504
  0
SOLID
  8
0
 62
7
  6
CONTINUOUS
 10
359.0512227376
 20
31.4101419116
 11
360.3809101894
 21
31.4424063504
 12
359.6871602721
 22
31.4101419116
 13
359.6871602721
 23
31.4101419116
  0
SOLID
  8
0
 62
7
  6
CONTINUOUS
 10
359.6871602721
 20
31.4101419116
 11
360.3809101894
 21
31.4424063504
 12
360.091847717
 22
31.3778792603
 13
360.091847717
 23
31.3778792603
  0
SOLID
  8
0
 62
7
  6
CONTINUOUS
 10
360.3809101894
 20
31.4424063504
 11
360.5543476894
 21
31.345614957
 12
360.091847717
 22
31.3778792603
 13
360.091847717
 23
31.3778792603
  0
SOLID
  8
0
 62
7
  6
CONTINUOUS
 10
360.2652852997
 20
31.3133521701
 11
360.091847717
 21
31.3778792603
 12
360.5543476894
 22
31.345614957
 13
360.5543476894
 23
31.345614957
  0
SOLID
  8
0
 62
7
  6
CONTINUOUS
 10
360.2652852997
 20
31.3133521701
 11
360.5543476894
 21
31.345614957
 12
360.3230977445
 22
31.2165606992
 13
360.3230977445
 23
31.2165606992
  0
SOLID
  8
0
 62
7
  6
CONTINUOUS
 10
360.5543476894
 20
31.345614957
 11
360.6121602997
 21
31.2165606992
 12
360.3230977445
 22
31.2165606992
 13
360.3230977445
 23
31.2165606992
  0
SOLID
  8
0
 62
7
  6
CONTINUOUS
 10
361.6527851343
 20
31.5069329918
 11
361.8840352445
 21
31.5391972951
 12
362.1152853548
 22
31.5391972951
 13
362.1152853548
 23
31.5391972951
  0
SOLID
  8
0
 62
7
  6
CONTINUOUS
 10
362.1152853548
 20
31.5391972951
 11
362.2887228548
 21
31.5069329918
 12
361.6527851343
 22
31.5069329918
 13
361.6527851343
 23
31.5069329918
  0
SOLID
  8
0
 62
7
  6
CONTINUOUS
 10
361.4793477997
 20
31.4424059016
 11
361.6527851343
 21
31.5069329918
 12
362.2887228548
 22
31.5069329918
 13
362.2887228548
 23
31.5069329918
  0
SOLID
  8
0
 62
7
  6
CONTINUOUS
 10
362.2887228548
 20
31.5069329918
 11
362.4621603548
 21
31.4424059016
 12
361.4793477997
 22
31.4424059016
 13
361.4793477997
 23
31.4424059016
  0
SOLID
  8
0
 62
7
  6
CONTINUOUS
 10
362.4621603548
 20
31.4424059016
 11
361.8840352445
 21
31.4101420472
 12
361.4793477997
 22
31.4424059016
 13
361.4793477997
 23
31.4424059016
  0
SOLID
  8
0
 62
7
  6
CONTINUOUS
 10
361.3637227445
 20
31.3778788115
 11
361.4793477997
 21
31.4424059016
 12
361.8840352445
 22
31.4101420472
 13
361.8840352445
 23
31.4101420472
  0
SOLID
  8
0
 62
7
  6
CONTINUOUS
 10
361.8840352445
 20
31.4101420472
 11
361.6527851343
 21
31.3778788115
 12
361.3637227445
 22
31.3778788115
 13
361.3637227445
 23
31.3778788115
  0
SOLID
  8
0
 62
7
  6
CONTINUOUS
 10
361.8840352445
 20
31.4101420472
 11
362.4621603548
 21
31.4424059016
 12
362.1152853548
 22
31.3778788115
 13
362.1152853548
 23
31.3778788115
  0
SOLID
  8
0
 62
7
  6
CONTINUOUS
 10
362.4621603548
 20
31.4424059016
 11
362.5777852445
 21
31.3778788115
 12
362.1152853548
 22
31.3778788115
 13
362.1152853548
 23
31.3778788115
  0
SOLID
  8
0
 62
7
  6
CONTINUOUS
 10
362.2309102445
 20
31.345614957
 11
362.1152853548
 21
31.3778788115
 12
362.5777852445
 22
31.3778788115
 13
362.5777852445
 23
31.3778788115
  0
SOLID
  8
0
 62
7
  6
CONTINUOUS
 10
362.5777852445
 20
31.3778788115
 11
362.6355978548
 21
31.3133517213
 12
362.2309102445
 22
31.345614957
 13
362.2309102445
 23
31.345614957
  0
SOLID
  8
0
 62
7
  6
CONTINUOUS
 10
362.3465351343
 20
31.2810878668
 11
362.2309102445
 21
31.345614957
 12
362.6355978548
 22
31.3133517213
 13
362.6355978548
 23
31.3133517213
  0
SOLID
  8
0
 62
7
  6
CONTINUOUS
 10
362.3465351343
 20
31.2810878668
 11
362.6355978548
 21
31.3133517213
 12
362.4043477445
 22
31.1520332377
 13
362.4043477445
 23
31.1520332377
  0
SOLID
  8
0
 62
7
  6
CONTINUOUS
 10
362.6355978548
 20
31.3133517213
 11
362.6934101343
 21
31.1520332377
 12
362.4043477445
 22
31.1520332377
 13
362.4043477445
 23
31.1520332377
  0
SOLID
  8
0
 62
7
  6
CONTINUOUS
 10
361.6527851343
 20
31.3778788115
 11
361.4793477997
 21
31.3133517213
 12
361.3637227445
 22
31.3778788115
 13
361.3637227445
 23
31.3778788115
  0
SOLID
  8
0
 62
7
  6
CONTINUOUS
 10
361.4793477997
 20
31.3133517213
 11
361.3637227445
 21
31.2488235635
 12
361.3637227445
 22
31.3778788115
 13
361.3637227445
 23
31.3778788115
  0
SOLID
  8
0
 62
7
  6
CONTINUOUS
 10
361.3637227445
 20
31.2488235635
 11
361.0746601894
 21
30.5067593033
 12
361.3637227445
 22
31.3778788115
 13
361.3637227445
 23
31.3778788115
  0
SOLID
  8
0
 62
7
  6
CONTINUOUS
 10
361.3637227445
 20
31.3778788115
 11
361.0746601894
 21
30.5067593033
 12
361.3637227445
 22
32.0231527459
 13
361.3637227445
 23
32.0231527459
  0
SOLID
  8
0
 62
7
  6
CONTINUOUS
 10
361.0746601894
 20
30.5067593033
 11
361.0746601894
 21
32.0231527459
 12
361.3637227445
 22
32.0231527459
 13
361.3637227445
 23
32.0231527459
  0
SOLID
  8
0
 62
7
  6
CONTINUOUS
 10
361.3637227445
 20
31.2488235635
 11
361.3637227445
 21
30.5067593033
 12
361.0746601894
 22
30.5067593033
 13
361.0746601894
 23
30.5067593033
  0
SOLID
  8
0
 62
7
  6
CONTINUOUS
 10
362.4043477445
 20
30.5067593033
 11
362.4043477445
 21
31.1520332377
 12
362.6934101343
 22
31.1520332377
 13
362.6934101343
 23
31.1520332377
  0
SOLID
  8
0
 62
7
  6
CONTINUOUS
 10
362.6934101343
 20
31.1520332377
 11
362.6934101343
 21
30.5067593033
 12
362.4043477445
 22
30.5067593033
 13
362.4043477445
 23
30.5067593033
  0
SOLID
  8
0
 62
7
  6
CONTINUOUS
 10
363.4449727445
 20
31.506933758
 11
363.8496603548
 21
31.5391977507
 12
364.1965353548
 22
31.5391977507
 13
364.1965353548
 23
31.5391977507
  0
SOLID
  8
0
 62
7
  6
CONTINUOUS
 10
364.1965353548
 20
31.5391977507
 11
364.543410024
 21
31.506933758
 12
363.4449727445
 22
31.506933758
 13
363.4449727445
 23
31.506933758
  0
SOLID
  8
0
 62
7
  6
CONTINUOUS
 10
363.3293478548
 20
31.4746706537
 11
363.4449727445
 21
31.506933758
 12
364.543410024
 22
31.506933758
 13
364.543410024
 23
31.506933758
  0
SOLID
  8
0
 62
7
  6
CONTINUOUS
 10
364.543410024
 20
31.506933758
 11
364.716847524
 21
31.4424063504
 12
363.3293478548
 22
31.4746706537
 13
363.3293478548
 23
31.4746706537
  0
SOLID
  8
0
 62
7
  6
CONTINUOUS
 10
363.2137226343
 20
31.4101417797
 11
363.3293478548
 21
31.4746706537
 12
364.716847524
 22
31.4424063504
 13
364.716847524
 23
31.4424063504
  0
SOLID
  8
0
 62
7
  6
CONTINUOUS
 10
363.2137226343
 20
31.4101417797
 11
364.716847524
 21
31.4424063504
 12
363.8496603548
 22
31.4101417797
 13
363.8496603548
 23
31.4101417797
  0
SOLID
  8
0
 62
7
  6
CONTINUOUS
 10
363.8496603548
 20
31.4101417797
 11
364.716847524
 21
31.4424063504
 12
364.1965353548
 22
31.4101417797
 13
364.1965353548
 23
31.4101417797
  0
SOLID
  8
0
 62
7
  6
CONTINUOUS
 10
364.1965353548
 20
31.4101417797
 11
364.716847524
 21
31.4424063504
 12
364.4277854651
 22
31.3778793357
 13
364.4277854651
 23
31.3778793357
  0
SOLID
  8
0
 62
7
  6
CONTINUOUS
 10
364.716847524
 20
31.4424063504
 11
364.8324727445
 21
31.3778793357
 12
364.4277854651
 22
31.3778793357
 13
364.4277854651
 23
31.3778793357
  0
SOLID
  8
0
 62
7
  6
CONTINUOUS
 10
363.1559103548
 20
31.3456153429
 11
363.2137226343
 21
31.4101417797
 12
363.8496603548
 22
31.4101417797
 13
363.8496603548
 23
31.4101417797
  0
SOLID
  8
0
 62
7
  6
CONTINUOUS
 10
364.543410024
 20
31.3456153429
 11
364.4277854651
 21
31.3778793357
 12
364.8324727445
 22
31.3778793357
 13
364.8324727445
 23
31.3778793357
  0
SOLID
  8
0
 62
7
  6
CONTINUOUS
 10
364.543410024
 20
31.3456153429
 11
364.8324727445
 21
31.3778793357
 12
364.6012229651
 22
31.2810881318
 13
364.6012229651
 23
31.2810881318
  0
SOLID
  8
0
 62
7
  6
CONTINUOUS
 10
364.8324727445
 20
31.3778793357
 11
364.890285024
 21
31.2810881318
 12
364.6012229651
 22
31.2810881318
 13
364.6012229651
 23
31.2810881318
  0
SOLID
  8
0
 62
7
  6
CONTINUOUS
 10
364.6012229651
 20
31.1842964734
 11
364.6012229651
 21
31.2810881318
 12
364.890285024
 22
31.2810881318
 13
364.890285024
 23
31.2810881318
  0
SOLID
  8
0
 62
7
  6
CONTINUOUS
 10
364.6012229651
 20
31.1842964734
 11
364.890285024
 21
31.2810881318
 12
364.6012229651
 22
31.0552422931
 13
364.6012229651
 23
31.0552422931
  0
SOLID
  8
0
 62
7
  6
CONTINUOUS
 10
364.6012229651
 20
31.0552422931
 11
364.890285024
 21
31.2810881318
 12
364.6012229651
 22
30.8616599362
 13
364.6012229651
 23
30.8616599362
  0
SOLID
  8
0
 62
7
  6
CONTINUOUS
 10
364.890285024
 20
31.2810881318
 11
364.890285024
 21
30.7648681127
 12
364.6012229651
 22
30.8616599362
 13
364.6012229651
 23
30.8616599362
  0
SOLID
  8
0
 62
7
  6
CONTINUOUS
 10
366.798097524
 20
31.5069339419
 11
367.0293479651
 21
31.5391976292
 12
367.2605977445
 22
31.5391976292
 13
367.2605977445
 23
31.5391976292
  0
SOLID
  8
0
 62
7
  6
CONTINUOUS
 10
367.2605977445
 20
31.5391976292
 11
367.4340352445
 21
31.5069339419
 12
366.798097524
 22
31.5069339419
 13
366.798097524
 23
31.5069339419
  0
SOLID
  8
0
 62
7
  6
CONTINUOUS
 10
366.624660024
 20
31.4424065674
 11
366.798097524
 21
31.5069339419
 12
367.4340352445
 22
31.5069339419
 13
367.4340352445
 23
31.5069339419
  0
SOLID
  8
0
 62
7
  6
CONTINUOUS
 10
367.4340352445
 20
31.5069339419
 11
367.6074727445
 21
31.4424065674
 12
366.624660024
 22
31.4424065674
 13
366.624660024
 23
31.4424065674
  0
SOLID
  8
0
 62
7
  6
CONTINUOUS
 10
367.6074727445
 20
31.4424065674
 11
367.0293479651
 21
31.4101420472
 12
366.624660024
 22
31.4424065674
 13
366.624660024
 23
31.4424065674
  0
SOLID
  8
0
 62
7
  6
CONTINUOUS
 10
366.5090354651
 20
31.377879193
 11
366.624660024
 21
31.4424065674
 12
367.0293479651
 22
31.4101420472
 13
367.0293479651
 23
31.4101420472
  0
SOLID
  8
0
 62
7
  6
CONTINUOUS
 10
367.0293479651
 20
31.4101420472
 11
366.798097524
 21
31.377879193
 12
366.5090354651
 22
31.377879193
 13
366.5090354651
 23
31.377879193
  0
SOLID
  8
0
 62
7
  6
CONTINUOUS
 10
367.0293479651
 20
31.4101420472
 11
367.6074727445
 21
31.4424065674
 12
367.2605977445
 22
31.377879193
 13
367.2605977445
 23
31.377879193
  0
SOLID
  8
0
 62
7
  6
CONTINUOUS
 10
367.6074727445
 20
31.4424065674
 11
367.7230979651
 21
31.377879193
 12
367.2605977445
 22
31.377879193
 13
367.2605977445
 23
31.377879193
  0
SOLID
  8
0
 62
7
  6
CONTINUOUS
 10
367.3762229651
 20
31.345614957
 11
367.2605977445
 21
31.377879193
 12
367.7230979651
 22
31.377879193
 13
367.7230979651
 23
31.377879193
  0
SOLID
  8
0
 62
7
  6
CONTINUOUS
 10
367.3762229651
 20
31.345614957
 11
367.7230979651
 21
31.377879193
 12
367.491847524
 22
31.2810881312
 13
367.491847524
 23
31.2810881312
  0
SOLID
  8
0
 62
7
  6
CONTINUOUS
 10
367.7230979651
 20
31.377879193
 11
367.7809102445
 21
31.2810881312
 12
367.491847524
 22
31.2810881312
 13
367.491847524
 23
31.2810881312
  0
SOLID
  8
0
 62
7
  6
CONTINUOUS
 10
367.5496604651
 20
31.119769695
 11
367.491847524
 21
31.2810881312
 12
367.7809102445
 22
31.2810881312
 13
367.7809102445
 23
31.2810881312
  0
SOLID
  8
0
 62
7
  6
CONTINUOUS
 10
367.7809102445
 20
31.2810881312
 11
367.838722524
 21
31.119769695
 12
367.5496604651
 22
31.119769695
 13
367.5496604651
 23
31.119769695
  0
SOLID
  8
0
 62
7
  6
CONTINUOUS
 10
366.798097524
 20
31.377879193
 11
366.624660024
 21
31.3133521701
 12
366.5090354651
 22
31.377879193
 13
366.5090354651
 23
31.377879193
  0
SOLID
  8
0
 62
7
  6
CONTINUOUS
 10
366.624660024
 20
31.3133521701
 11
366.5090354651
 21
31.2488235635
 12
366.5090354651
 22
31.377879193
 13
366.5090354651
 23
31.377879193
  0
SOLID
  8
0
 62
7
  6
CONTINUOUS
 10
366.5090354651
 20
31.2488235635
 11
366.2199727445
 21
30.5067596374
 12
366.5090354651
 22
31.377879193
 13
366.5090354651
 23
31.377879193
  0
SOLID
  8
0
 62
7
  6
CONTINUOUS
 10
366.5090354651
 20
31.377879193
 11
366.2199727445
 21
30.5067596374
 12
366.5090354651
 22
31.5391976292
 13
366.5090354651
 23
31.5391976292
  0
SOLID
  8
0
 62
7
  6
CONTINUOUS
 10
366.2199727445
 20
30.5067596374
 11
366.2199727445
 21
31.5391976292
 12
366.5090354651
 22
31.5391976292
 13
366.5090354651
 23
31.5391976292
  0
SOLID
  8
0
 62
7
  6
CONTINUOUS
 10
366.5090354651
 20
31.2488235635
 11
366.5090354651
 21
30.5067596374
 12
366.2199727445
 22
30.5067596374
 13
366.2199727445
 23
30.5067596374
  0
SOLID
  8
0
 62
7
  6
CONTINUOUS
 10
367.5496604651
 20
30.5067596374
 11
367.5496604651
 21
31.119769695
 12
367.838722524
 22
31.119769695
 13
367.838722524
 23
31.119769695
  0
SOLID
  8
0
 62
7
  6
CONTINUOUS
 10
367.838722524
 20
31.119769695
 11
367.838722524
 21
30.5067596374
 12
367.5496604651
 22
30.5067596374
 13
367.5496604651
 23
30.5067596374
  0
SOLID
  8
0
 62
7
  6
CONTINUOUS
 10
368.6480977445
 20
31.5069334157
 11
368.9949727445
 21
31.539197762
 12
369.3418477445
 22
31.539197762
 13
369.3418477445
 23
31.539197762
  0
SOLID
  8
0
 62
7
  6
CONTINUOUS
 10
369.3418477445
 20
31.539197762
 11
369.6887227445
 21
31.5069334157
 12
368.6480977445
 22
31.5069334157
 13
368.6480977445
 23
31.5069334157
  0
SOLID
  8
0
 62
7
  6
CONTINUOUS
 10
368.4168479651
 20
31.4424063504
 11
368.6480977445
 21
31.5069334157
 12
369.6887227445
 22
31.5069334157
 13
369.6887227445
 23
31.5069334157
  0
SOLID
  8
0
 62
7
  6
CONTINUOUS
 10
368.4168479651
 20
31.4424063504
 11
369.6887227445
 21
31.5069334406
 12
369.8621602445
 22
31.4746706537
 13
369.8621602445
 23
31.4746706537
  0
SOLID
  8
0
 62
7
  6
CONTINUOUS
 10
368.4168479651
 20
31.4424063504
 11
369.8621602445
 21
31.4746706537
 12
368.9949727445
 22
31.4101421267
 13
368.9949727445
 23
31.4101421267
  0
SOLID
  8
0
 62
7
  6
CONTINUOUS
 10
368.9949727445
 20
31.4101421267
 11
369.8621602445
 21
31.4746706537
 12
369.3418477445
 22
31.4101421267
 13
369.3418477445
 23
31.4101421267
  0
SOLID
  8
0
 62
7
  6
CONTINUOUS
 10
369.8621602445
 20
31.4746706537
 11
370.0355977445
 21
31.4101421267
 12
369.3418477445
 22
31.4101421267
 13
369.3418477445
 23
31.4101421267
  0
SOLID
  8
0
 62
7
  6
CONTINUOUS
 10
369.6887227445
 20
31.3778792603
 11
369.3418477445
 21
31.4101421267
 12
370.0355977445
 22
31.4101421267
 13
370.0355977445
 23
31.4101421267
  0
SOLID
  8
0
 62
7
  6
CONTINUOUS
 10
368.3012227445
 20
31.3456148845
 11
368.4168479651
 21
31.4424063504
 12
368.9949727445
 22
31.4101421267
 13
368.9949727445
 23
31.4101421267
  0
SOLID
  8
0
 62
7
  6
CONTINUOUS
 10
369.6887227445
 20
31.3778792603
 11
370.0355977445
 21
31.4101421267
 12
369.8043479651
 22
31.3456148845
 13
369.8043479651
 23
31.3456148845
  0
SOLID
  8
0
 62
7
  6
CONTINUOUS
 10
369.8043479651
 20
31.3456148845
 11
370.0355977445
 21
31.4101421267
 12
369.8621602445
 22
31.281087868
 13
369.8621602445
 23
31.281087868
  0
SOLID
  8
0
 62
7
  6
CONTINUOUS
 10
370.0355977445
 20
31.4101421267
 11
370.1512223035
 21
31.281087868
 12
369.8621602445
 22
31.281087868
 13
369.8621602445
 23
31.281087868
  0
SOLID
  8
0
 62
7
  6
CONTINUOUS
 10
359.4559102445
 20
31.3778792603
 11
358.9355977445
 21
31.3456148963
 12
359.6871602721
 22
31.4101421155
 13
359.6871602721
 23
31.4101421155
  0
SOLID
  8
0
 62
7
  6
CONTINUOUS
 10
358.9355977445
 20
31.3456148963
 11
359.0512227376
 21
31.4101421155
 12
359.6871602721
 22
31.4101421155
 13
359.6871602721
 23
31.4101421155
  0
SOLID
  8
0
 62
7
  6
CONTINUOUS
 10
359.4559102445
 20
31.3778792603
 11
359.3402852307
 21
31.3456148963
 12
358.9355977445
 22
31.3456148963
 13
358.9355977445
 23
31.3456148963
  0
SOLID
  8
0
 62
7
  6
CONTINUOUS
 10
358.8199727462
 20
31.2165607767
 11
358.9355977445
 21
31.3456148963
 12
359.3402852307
 22
31.3456148963
 13
359.3402852307
 23
31.3456148963
  0
SOLID
  8
0
 62
7
  6
CONTINUOUS
 10
363.1559103548
 20
31.3456149608
 11
363.8496603548
 21
31.4101420472
 12
363.6184102445
 22
31.3778792603
 13
363.6184102445
 23
31.3778792603
  0
SOLID
  8
0
 62
7
  6
CONTINUOUS
 10
363.6184102445
 20
31.3778792603
 11
363.5027853548
 21
31.3456149608
 12
363.1559103548
 22
31.3456149608
 13
363.1559103548
 23
31.3456149608
  0
SOLID
  8
0
 62
7
  6
CONTINUOUS
 10
363.1559103548
 20
31.2810878707
 11
363.1559103548
 21
31.3456149608
 12
363.5027853548
 22
31.3456149608
 13
363.5027853548
 23
31.3456149608
  0
SOLID
  8
0
 62
7
  6
CONTINUOUS
 10
363.5027853548
 20
31.3456149608
 11
363.4449727445
 21
31.2810878707
 12
363.1559103548
 22
31.2810878707
 13
363.1559103548
 23
31.2810878707
  0
SOLID
  8
0
 62
7
  6
CONTINUOUS
 10
368.3012227445
 20
31.3456149608
 11
368.9949727445
 21
31.4101420472
 12
368.7637229651
 22
31.3778792603
 13
368.7637229651
 23
31.3778792603
  0
SOLID
  8
0
 62
7
  6
CONTINUOUS
 10
368.7637229651
 20
31.3778792603
 11
368.6480977445
 21
31.3456149608
 12
368.3012227445
 22
31.3456149608
 13
368.3012227445
 23
31.3456149608
  0
SOLID
  8
0
 62
7
  6
CONTINUOUS
 10
368.3012227445
 20
31.2810878707
 11
368.3012227445
 21
31.3456149608
 12
368.6480977445
 22
31.3456149608
 13
368.6480977445
 23
31.3456149608
  0
SOLID
  8
0
 62
7
  6
CONTINUOUS
 10
368.6480977445
 20
31.3456149608
 11
368.5902854651
 21
31.2810878707
 12
368.3012227445
 22
31.2810878707
 13
368.3012227445
 23
31.2810878707
  0
SOLID
  8
0
 62
7
  6
CONTINUOUS
 10
368.4168479651
 20
31.1520336865
 11
368.3012227445
 21
31.2810878707
 12
368.5902854651
 22
31.2810878707
 13
368.5902854651
 23
31.2810878707
  0
SOLID
  8
0
 62
7
  6
CONTINUOUS
 10
358.8199727462
 20
31.2165607767
 11
359.3402852307
 21
31.345614957
 12
359.1668477307
 22
31.2488235635
 13
359.1668477307
 23
31.2488235635
  0
SOLID
  8
0
 62
7
  6
CONTINUOUS
 10
359.1668477307
 20
31.2488235635
 11
359.1090352445
 21
31.1842964734
 12
358.8199727462
 22
31.2165607767
 13
358.8199727462
 23
31.2165607767
  0
SOLID
  8
0
 62
7
  6
CONTINUOUS
 10
358.7621602445
 20
31.0229779898
 11
358.8199727462
 21
31.2165607767
 12
359.1090352445
 22
31.1842964734
 13
359.1090352445
 23
31.1842964734
  0
SOLID
  8
0
 62
7
  6
CONTINUOUS
 10
363.6184102445
 20
31.1520336865
 11
363.9652852445
 21
31.1842964611
 12
364.6012229651
 22
31.1842964611
 13
364.6012229651
 23
31.1842964611
  0
SOLID
  8
0
 62
7
  6
CONTINUOUS
 10
363.6184102445
 20
31.1520336865
 11
364.6012229651
 21
31.1842964611
 12
363.3871601343
 22
31.0875057863
 13
363.3871601343
 23
31.0875057863
  0
SOLID
  8
0
 62
7
  6
CONTINUOUS
 10
363.3871601343
 20
31.0875057863
 11
364.6012229651
 21
31.1842964611
 12
363.9652852445
 22
31.0552422808
 13
363.9652852445
 23
31.0552422808
  0
SOLID
  8
0
 62
7
  6
CONTINUOUS
 10
364.6012229651
 20
31.1842964611
 11
364.6012229651
 21
31.0552422808
 12
363.9652852445
 22
31.0552422808
 13
363.9652852445
 23
31.0552422808
  0
SOLID
  8
0
 62
7
  6
CONTINUOUS
 10
368.4168479651
 20
31.1520338754
 11
368.5902854651
 21
31.2810878668
 12
368.6480977445
 22
31.2165607767
 13
368.6480977445
 23
31.2165607767
  0
SOLID
  8
0
 62
7
  6
CONTINUOUS
 10
368.6480977445
 20
31.2165607767
 11
368.8215352445
 21
31.1520338754
 12
368.4168479651
 22
31.1520338754
 13
368.4168479651
 23
31.1520338754
  0
SOLID
  8
0
 62
7
  6
CONTINUOUS
 10
368.6480977445
 20
31.0552422931
 11
368.4168479651
 21
31.1520338754
 12
368.8215352445
 22
31.1520338754
 13
368.8215352445
 23
31.1520338754
  0
SOLID
  8
0
 62
7
  6
CONTINUOUS
 10
368.8215352445
 20
31.1520338754
 11
369.8043479651
 21
30.9907152029
 12
368.6480977445
 22
31.0552422931
 13
368.6480977445
 23
31.0552422931
  0
SOLID
  8
0
 62
7
  6
CONTINUOUS
 10
369.6309104651
 20
30.8939239876
 11
368.6480977445
 21
31.0552422931
 12
369.8043479651
 22
30.9907152029
 13
369.8043479651
 23
30.9907152029
  0
SOLID
  8
0
 62
7
  6
CONTINUOUS
 10
369.8043479651
 20
30.9907152029
 11
370.0355977445
 21
30.8939239876
 12
369.6309104651
 22
30.8939239876
 13
369.6309104651
 23
30.8939239876
  0
SOLID
  8
0
 62
7
  6
CONTINUOUS
 10
369.8043479651
 20
30.8293967193
 11
369.6309104651
 21
30.8939239876
 12
370.0355977445
 22
30.8939239876
 13
370.0355977445
 23
30.8939239876
  0
SOLID
  8
0
 62
7
  6
CONTINUOUS
 10
369.8043479651
 20
30.8293967193
 11
370.0355977445
 21
30.8939239876
 12
369.8621602445
 22
30.7648682694
 13
369.8621602445
 23
30.7648682694
  0
SOLID
  8
0
 62
7
  6
CONTINUOUS
 10
370.0355977445
 20
30.8939239876
 11
370.1512223035
 21
30.7648682694
 12
369.8621602445
 22
30.7648682694
 13
369.8621602445
 23
30.7648682694
  0
SOLID
  8
0
 62
7
  6
CONTINUOUS
 10
369.8043479651
 20
30.7003411846
 11
369.8621602445
 21
30.7648682694
 12
370.1512223035
 22
30.7648682694
 13
370.1512223035
 23
30.7648682694
  0
SOLID
  8
0
 62
7
  6
CONTINUOUS
 10
370.1512223035
 20
30.7648682694
 11
370.1512223035
 21
30.7003411846
 12
369.8043479651
 22
30.7003411846
 13
369.8043479651
 23
30.7003411846
  0
SOLID
  8
0
 62
7
  6
CONTINUOUS
 10
369.6887227445
 20
30.6680782357
 11
369.8043479651
 21
30.7003411846
 12
370.1512223035
 22
30.7003411846
 13
370.1512223035
 23
30.7003411846
  0
SOLID
  8
0
 62
7
  6
CONTINUOUS
 10
369.6887227445
 20
30.6680782357
 11
370.1512223035
 21
30.7003411846
 12
369.4574729651
 22
30.6358140998
 13
369.4574729651
 23
30.6358140998
  0
SOLID
  8
0
 62
7
  6
CONTINUOUS
 10
370.1512223035
 20
30.7003411846
 11
370.0355977445
 21
30.6035511455
 12
369.4574729651
 22
30.6358140998
 13
369.4574729651
 23
30.6358140998
  0
SOLID
  8
0
 62
7
  6
CONTINUOUS
 10
370.0355977445
 20
30.6035511455
 11
368.5902854651
 21
30.5712868422
 12
369.4574729651
 22
30.6358140998
 13
369.4574729651
 23
30.6358140998
  0
SOLID
  8
0
 62
7
  6
CONTINUOUS
 10
369.4574729651
 20
30.6358140998
 11
368.5902854651
 21
30.5712868422
 12
369.1105979651
 22
30.6358140998
 13
369.1105979651
 23
30.6358140998
  0
SOLID
  8
0
 62
7
  6
CONTINUOUS
 10
368.5902854651
 20
30.5712868422
 11
368.4168479651
 21
30.6358140998
 12
369.1105979651
 22
30.6358140998
 13
369.1105979651
 23
30.6358140998
  0
SOLID
  8
0
 62
7
  6
CONTINUOUS
 10
368.5902854651
 20
30.5712868422
 11
370.0355977445
 21
30.6035511455
 12
368.7637229651
 22
30.5390223111
 13
368.7637229651
 23
30.5390223111
  0
SOLID
  8
0
 62
7
  6
CONTINUOUS
 10
370.0355977445
 20
30.6035511455
 11
369.8043479651
 21
30.5390223111
 12
368.7637229651
 22
30.5390223111
 13
368.7637229651
 23
30.5390223111
  0
SOLID
  8
0
 62
7
  6
CONTINUOUS
 10
369.1105979651
 20
30.5067599302
 11
368.7637229651
 21
30.5390223111
 12
369.8043479651
 22
30.5390223111
 13
369.8043479651
 23
30.5390223111
  0
SOLID
  8
0
 62
7
  6
CONTINUOUS
 10
369.8043479651
 20
30.5390223111
 11
369.4574729651
 21
30.5067599302
 12
369.1105979651
 22
30.5067599302
 13
369.1105979651
 23
30.5067599302
  0
SOLID
  8
0
 62
7
  6
CONTINUOUS
 10
358.7621602445
 20
31.0229779898
 11
359.1090352445
 21
31.1842964734
 12
359.0512227376
 22
31.0552422931
 13
359.0512227376
 23
31.0552422931
  0
SOLID
  8
0
 62
7
  6
CONTINUOUS
 10
359.0512227376
 20
31.0552422931
 11
359.0512227376
 21
30.9584509954
 12
358.7621602445
 22
31.0229779898
 13
358.7621602445
 23
31.0229779898
  0
SOLID
  8
0
 62
7
  6
CONTINUOUS
 10
358.8199727462
 20
30.8293967193
 11
358.7621602445
 21
31.0229779898
 12
359.0512227376
 22
30.9584509954
 13
359.0512227376
 23
30.9584509954
  0
SOLID
  8
0
 62
7
  6
CONTINUOUS
 10
359.0512227376
 20
30.9584509954
 11
359.1668477307
 21
30.797132416
 12
358.8199727462
 22
30.8293967193
 13
358.8199727462
 23
30.8293967193
  0
SOLID
  8
0
 62
7
  6
CONTINUOUS
 10
358.9355977445
 20
30.7003413087
 11
358.8199727462
 21
30.8293967193
 12
359.1668477307
 22
30.797132416
 13
359.1668477307
 23
30.797132416
  0
SOLID
  8
0
 62
7
  6
CONTINUOUS
 10
359.1668477307
 20
30.797132416
 11
359.3402852307
 21
30.7003413087
 12
358.9355977445
 22
30.7003413087
 13
358.9355977445
 23
30.7003413087
  0
SOLID
  8
0
 62
7
  6
CONTINUOUS
 10
359.0512227376
 20
30.6358140759
 11
358.9355977445
 21
30.7003413087
 12
359.3402852307
 22
30.7003413087
 13
359.3402852307
 23
30.7003413087
  0
SOLID
  8
0
 62
7
  6
CONTINUOUS
 10
359.3402852307
 20
30.7003413087
 11
359.6871602721
 21
30.6358140759
 12
359.0512227376
 22
30.6358140759
 13
359.0512227376
 23
30.6358140759
  0
SOLID
  8
0
 62
7
  6
CONTINUOUS
 10
359.2246602583
 20
30.5712868422
 11
359.0512227376
 21
30.6358140759
 12
359.6871602721
 22
30.6358140759
 13
359.6871602721
 23
30.6358140759
  0
SOLID
  8
0
 62
7
  6
CONTINUOUS
 10
363.2715352445
 20
31.0229779808
 11
363.3871601343
 21
31.0875057863
 12
363.9652852445
 22
31.0552422931
 13
363.9652852445
 23
31.0552422931
  0
SOLID
  8
0
 62
7
  6
CONTINUOUS
 10
363.9652852445
 20
31.0552422931
 11
363.7340351343
 21
31.0229779808
 12
363.2715352445
 22
31.0229779808
 13
363.2715352445
 23
31.0229779808
  0
SOLID
  8
0
 62
7
  6
CONTINUOUS
 10
363.1559103548
 20
30.8939238094
 11
363.2715352445
 21
31.0229779808
 12
363.7340351343
 22
31.0229779808
 13
363.7340351343
 23
31.0229779808
  0
SOLID
  8
0
 62
7
  6
CONTINUOUS
 10
363.5027853548
 20
30.926187309
 11
363.1559103548
 21
30.8939238094
 12
363.6184102445
 22
30.9907152029
 13
363.6184102445
 23
30.9907152029
  0
SOLID
  8
0
 62
7
  6
CONTINUOUS
 10
363.1559103548
 20
30.8939238094
 11
363.7340351343
 21
31.0229779898
 12
363.6184102445
 22
30.9907152029
 13
363.6184102445
 23
30.9907152029
  0
SOLID
  8
0
 62
7
  6
CONTINUOUS
 10
363.5027853548
 20
30.926187309
 11
363.4449727445
 21
30.8293967193
 12
363.1559103548
 22
30.8939238094
 13
363.1559103548
 23
30.8939238094
  0
SOLID
  8
0
 62
7
  6
CONTINUOUS
 10
363.1559103548
 20
30.797132416
 11
363.1559103548
 21
30.8939238094
 12
363.4449727445
 22
30.8293967193
 13
363.4449727445
 23
30.8293967193
  0
SOLID
  8
0
 62
7
  6
CONTINUOUS
 10
363.4449727445
 20
30.8293967193
 11
363.4449727445
 21
30.7648681127
 12
363.1559103548
 22
30.797132416
 13
363.1559103548
 23
30.797132416
  0
SOLID
  8
0
 62
7
  6
CONTINUOUS
 10
363.2137226343
 20
30.6680782357
 11
363.1559103548
 21
30.797132416
 12
363.4449727445
 22
30.7648681127
 13
363.4449727445
 23
30.7648681127
  0
SOLID
  8
0
 62
7
  6
CONTINUOUS
 10
364.6012229651
 20
30.8616599362
 11
364.890285024
 21
30.7648681127
 12
364.543410024
 22
30.797132416
 13
364.543410024
 23
30.797132416
  0
SOLID
  8
0
 62
7
  6
CONTINUOUS
 10
364.369972524
 20
30.7003410226
 11
364.543410024
 21
30.797132416
 12
364.890285024
 22
30.7648681127
 13
364.890285024
 23
30.7648681127
  0
SOLID
  8
0
 62
7
  6
CONTINUOUS
 10
364.369972524
 20
30.7003410226
 11
364.890285024
 21
30.7648681127
 12
364.6012229651
 22
30.6680782357
 13
364.6012229651
 23
30.6680782357
  0
SOLID
  8
0
 62
7
  6
CONTINUOUS
 10
364.890285024
 20
30.7648681127
 11
364.9480979651
 21
30.6035511455
 12
364.6012229651
 22
30.6680782357
 13
364.6012229651
 23
30.6680782357
  0
SOLID
  8
0
 62
7
  6
CONTINUOUS
 10
364.6590352445
 20
30.5712868422
 11
364.6012229651
 21
30.6680782357
 12
364.9480979651
 22
30.6035511455
 13
364.9480979651
 23
30.6035511455
  0
SOLID
  8
0
 62
7
  6
CONTINUOUS
 10
364.6590352445
 20
30.5712868422
 11
364.9480979651
 21
30.6035511455
 12
364.716847524
 22
30.5067598731
 13
364.716847524
 23
30.5067598731
  0
SOLID
  8
0
 62
7
  6
CONTINUOUS
 10
364.9480979651
 20
30.6035511455
 11
365.0059102445
 21
30.5067598731
 12
364.716847524
 22
30.5067598731
 13
364.716847524
 23
30.5067598731
  0
SOLID
  8
0
 62
7
  6
CONTINUOUS
 10
360.2652852997
 20
30.7326051679
 11
360.3230977445
 21
30.8293966612
 12
360.6121602997
 22
30.8293966612
 13
360.6121602997
 23
30.8293966612
  0
SOLID
  8
0
 62
7
  6
CONTINUOUS
 10
360.6121602997
 20
30.8293966612
 11
360.5543476894
 21
30.7003410226
 12
360.2652852997
 22
30.7326051679
 13
360.2652852997
 23
30.7326051679
  0
SOLID
  8
0
 62
7
  6
CONTINUOUS
 10
360.091847717
 20
30.6680782357
 11
360.2652852997
 21
30.7326051679
 12
360.5543476894
 22
30.7003410226
 13
360.5543476894
 23
30.7003410226
  0
SOLID
  8
0
 62
7
  6
CONTINUOUS
 10
360.091847717
 20
30.6680782357
 11
360.5543476894
 21
30.7003410226
 12
359.6871602721
 22
30.6358139324
 13
359.6871602721
 23
30.6358139324
  0
SOLID
  8
0
 62
7
  6
CONTINUOUS
 10
360.5543476894
 20
30.7003410226
 11
360.3809101894
 21
30.6035511455
 12
359.6871602721
 22
30.6358139324
 13
359.6871602721
 23
30.6358139324
  0
SOLID
  8
0
 62
7
  6
CONTINUOUS
 10
359.2246602583
 20
30.5712868422
 11
359.6871602721
 21
30.6358139324
 12
360.3809101894
 22
30.6035511455
 13
360.3809101894
 23
30.6035511455
  0
SOLID
  8
0
 62
7
  6
CONTINUOUS
 10
359.2246602583
 20
30.5712868422
 11
360.3809101894
 21
30.6035511455
 12
359.3980977583
 22
30.5390224228
 13
359.3980977583
 23
30.5390224228
  0
SOLID
  8
0
 62
7
  6
CONTINUOUS
 10
360.3809101894
 20
30.6035511455
 11
360.1496602445
 21
30.5390224228
 12
359.3980977583
 22
30.5390224228
 13
359.3980977583
 23
30.5390224228
  0
SOLID
  8
0
 62
7
  6
CONTINUOUS
 10
359.744972717
 20
30.5067597521
 11
359.3980977583
 21
30.5390224228
 12
360.1496602445
 22
30.5390224228
 13
360.1496602445
 23
30.5390224228
  0
SOLID
  8
0
 62
7
  6
CONTINUOUS
 10
363.2137226343
 20
30.6680782357
 11
363.4449727445
 21
30.7648681127
 12
363.5027853548
 22
30.7003410226
 13
363.5027853548
 23
30.7003410226
  0
SOLID
  8
0
 62
7
  6
CONTINUOUS
 10
363.5027853548
 20
30.7003410226
 11
363.7340351343
 21
30.6358139324
 12
363.2137226343
 22
30.6680782357
 13
363.2137226343
 23
30.6680782357
  0
SOLID
  8
0
 62
7
  6
CONTINUOUS
 10
363.3871601343
 20
30.5712868422
 11
363.2137226343
 21
30.6680782357
 12
363.7340351343
 22
30.6358139324
 13
363.7340351343
 23
30.6358139324
  0
SOLID
  8
0
 62
7
  6
CONTINUOUS
 10
364.0809101343
 20
30.6358139363
 11
364.369972524
 21
30.7003410226
 12
364.6012229651
 22
30.6680782357
 13
364.6012229651
 23
30.6680782357
  0
SOLID
  8
0
 62
7
  6
CONTINUOUS
 10
364.6012229651
 20
30.6680782357
 11
364.543410024
 21
30.6035511455
 12
364.0809101343
 22
30.6358139363
 13
364.0809101343
 23
30.6358139363
  0
SOLID
  8
0
 62
7
  6
CONTINUOUS
 10
364.543410024
 20
30.6035511455
 11
363.3871601343
 21
30.5712868422
 12
364.0809101343
 22
30.6358139363
 13
364.0809101343
 23
30.6358139363
  0
SOLID
  8
0
 62
7
  6
CONTINUOUS
 10
363.3871601343
 20
30.5712868422
 11
363.7340351343
 21
30.6358139363
 12
364.0809101343
 22
30.6358139363
 13
364.0809101343
 23
30.6358139363
  0
SOLID
  8
0
 62
7
  6
CONTINUOUS
 10
363.3871601343
 20
30.5712868422
 11
364.543410024
 21
30.6035511455
 12
363.5027853548
 22
30.5390225267
 13
363.5027853548
 23
30.5390225267
  0
SOLID
  8
0
 62
7
  6
CONTINUOUS
 10
364.543410024
 20
30.6035511455
 11
364.369972524
 21
30.5390225267
 12
363.5027853548
 22
30.5390225267
 13
363.5027853548
 23
30.5390225267
  0
SOLID
  8
0
 62
7
  6
CONTINUOUS
 10
363.7340351343
 20
30.5067596914
 11
363.5027853548
 21
30.5390225267
 12
364.369972524
 22
30.5390225267
 13
364.369972524
 23
30.5390225267
  0
SOLID
  8
0
 62
7
  6
CONTINUOUS
 10
364.369972524
 20
30.5390225267
 11
364.0809101343
 21
30.5067596914
 12
363.7340351343
 22
30.5067596914
 13
363.7340351343
 23
30.5067596914
  0
SOLID
  8
0
 62
7
  6
CONTINUOUS
 10
368.7637229651
 20
30.6680782357
 11
368.4168479651
 21
30.6358138717
 12
368.6480977445
 22
30.7003410226
 13
368.6480977445
 23
30.7003410226
  0
SOLID
  8
0
 62
7
  6
CONTINUOUS
 10
368.6480977445
 20
30.7003410226
 11
368.4168479651
 21
30.6358138717
 12
368.5902854651
 22
30.7648680521
 13
368.5902854651
 23
30.7648680521
  0
SOLID
  8
0
 62
7
  6
CONTINUOUS
 10
368.4168479651
 20
30.6358138717
 11
368.3012227445
 21
30.7648680521
 12
368.5902854651
 22
30.7648680521
 13
368.5902854651
 23
30.7648680521
  0
SOLID
  8
0
 62
7
  6
CONTINUOUS
 10
368.7637229651
 20
30.6680782357
 11
369.1105979651
 21
30.6358138717
 12
368.4168479651
 22
30.6358138717
 13
368.4168479651
 23
30.6358138717
  0
SOLID
  8
0
 62
7
  6
CONTINUOUS
 10
365.4684104651
 20
30.5067597521
 11
365.4684104651
 21
31.5391977439
 12
365.757472524
 22
30.5067597521
 13
365.757472524
 23
31.5391977439
  0
ENDBLK
  8
0
  6
BYBLOCK
 62
0
  0
BLOCK
  8
0
 62
2
  6
CONTINUOUS
  2
AMMEAAL_LOGO_BL0
 70
64
 10
240.8592468615
 20
19.762288695
  0
TEXT
  8
0
 62
7
  6
CONTINUOUS
 10
227.1239507038
 20
19.1357028027
  7
TEXTSTYLE_3
 40
2.7338706658
  1
Ammeraal Beltech
 41
1.0
 51
15.0
 72
0
  0
TEXT
  8
0
 62
7
  6
CONTINUOUS
 10
237.9247515296
 20
16.8621661299
  7
TEXTSTYLE_4
 40
1.0935482663
  1
Innovation & Service in Belting
 41
1.0
 72
0
  0
LINE
  8
0
 62
7
  6
CONTINUOUS
 10
221.0994100525
 20
19.9022961113
 11
221.8775620458
 21
23.5632134089
  0
LINE
  8
0
 62
7
  6
CONTINUOUS
 10
231.9727303357
 20
27.2266073205
 11
222.3653797889
 21
24.1049898993
  0
LINE
  8
0
 62
7
  6
CONTINUOUS
 10
221.3246933848
 20
19.2089453082
 11
228.8317686459
 21
12.4495443822
  0
LINE
  8
0
 62
7
  6
CONTINUOUS
 10
221.5872277955
 20
20.4440726016
 11
232.3954971607
 21
23.9558922005
  0
LINE
  8
0
 62
7
  6
CONTINUOUS
 10
232.3912920235
 20
13.6061036368
 11
223.9458323548
 21
21.2104296785
  0
LINE
  8
0
 62
7
  6
CONTINUOUS
 10
232.9111147433
 20
26.3816822048
 11
231.9345552061
 21
21.7873308023
  0
LINE
  8
0
 62
7
  6
CONTINUOUS
 10
231.2347532584
 20
18.4950214885
 11
230.5483050469
 21
15.2655365641
  0
LINE
  8
0
 62
7
  6
CONTINUOUS
 10
233.5922108419
 20
13.9963058145
 11
234.5484423775
 21
18.4950214885
  0
LINE
  8
0
 62
7
  6
CONTINUOUS
 10
235.2482443252
 20
21.7873308023
 11
235.6924861276
 21
23.8773241617
  0
LINE
  8
0
 62
7
  6
CONTINUOUS
 10
229.5448697213
 20
12.2979700695
 11
233.1043930989
 21
13.4545293241
  0
LINE
  8
0
 62
7
  6
CONTINUOUS
 10
232.685831411
 20
27.0750330078
 11
235.4672027953
 21
24.5706749648
  0
ARC
  8
0
 62
7
  6
CONTINUOUS
 10
222.5906631212
 20
23.4116390962
 40
0.7290321776
 50
108.0
 51
168.0
  0
ARC
  8
0
 62
7
  6
CONTINUOUS
 10
232.198013668
 20
26.5332565175
 40
0.7290321776
 50
348.0
 51
108.0
  0
ARC
  8
0
 62
7
  6
CONTINUOUS
 10
234.9793850522
 20
24.0288984744
 40
0.7290321776
 50
348.0
 51
48.0
  0
ARC
  8
0
 62
7
  6
CONTINUOUS
 10
229.319586389
 20
12.9913208726
 40
0.7290321776
 50
228.0
 51
288.0
  0
ARC
  8
0
 62
7
  6
CONTINUOUS
 10
221.8125111278
 20
19.7507217986
 40
0.7290321776
 50
108.0
 51
228.0
  0
ARC
  8
0
 62
7
  6
CONTINUOUS
 10
232.8791097665
 20
14.1478801272
 40
0.7290321776
 50
228.0
 51
348.0
  0
ENDBLK
  8
0
  6
BYBLOCK
 62
0
  0
ENDSEC
  0
SECTION
  2
ENTITIES
  0
TEXT
  8
0
 62
5
  6
CONTINUOUS
 10
304.937007874
 20
25.636
  7
TEXTSTYLE_2
 40
2.8
  1
Scale :
 41
0.6
 51
0.000019
 72
0
  0
TEXT
  8
0
 62
5
  6
CONTINUOUS
 10
324.937007874
 20
25.636
  7
TEXTSTYLE_2
 40
2.8
  1
Belt type:
 41
0.6
 51
0.000019
 72
0
  0
INSERT
  8
0
 62
2
  6
CONTINUOUS
  2
AMMEAAL_LOGO_BL0
 10
240.8592468615
 20
19.762288695
  0
INSERT
  8
0
 62
2
  6
CONTINUOUS
  2
UNI_LOGO2_BL1
 10
382.7840918555
 20
35.5067593403
  0
LINE
  8
0
 62
2
  6
CONTINUOUS
 10
218.937007874
 20
30.0
 11
408.937007874
 21
30.0
  0
LINE
  8
0
 62
2
  6
CONTINUOUS
 10
218.937007874
 20
30.0
 11
218.937007874
 21
10.0
  0
LINE
  8
0
 62
2
  6
CONTINUOUS
 10
218.937007874
 20
10.0
 11
408.937007874
 21
10.0
  0
LINE
  8
0
 62
2
  6
CONTINUOUS
 10
303.937007874
 20
30.0
 11
303.937007874
 21
10.0
  0
LINE
  8
0
 62
2
  6
CONTINUOUS
 10
323.937007874
 20
30.0
 11
323.937007874
 21
10.0
  0
LINE
  8
0
 62
2
  6
CONTINUOUS
 10
408.937007874
 20
30.0
 11
408.937007874
 21
10.0
  0
TEXT
  8
0
 62
5
  6
CONTINUOUS
 10
221.937007874
 20
23.303
  7
TEXTSTYLE_5
 40
1.52
  1
                                                                     Ammeraal Beltech Modular A/S
 41
1.0
 72
0
  0
TEXT
  8
0
 62
5
  6
CONTINUOUS
 10
221.937007874
 20
20.595
  7
TEXTSTYLE_5
 40
1.5
  1
                                                                      Hjulmagervej 21, 7100 Vejle,  DK
 41
1.0
 72
0
  0
TEXT
  8
0
 62
5
  6
CONTINUOUS
 10
221.937007874
 20
17.881
  7
TEXTSTYLE_5
 40
1.495
  1
                                                                      tel: 
 41
1.0
 72
0
  0
TEXT
  8
0
 62
5
  6
CONTINUOUS
 10
266.9239544389
 20
17.881
  7
TEXTSTYLE_5
 40
1.51
  1
+45 75723100     fax: +45 75723348
 41
1.0
 72
0
  0
TEXT
  8
0
 62
5
  6
CONTINUOUS
 10
221.937007874
 20
15.177
  7
TEXTSTYLE_5
 40
1.5
  1
                                                                      admin@unichains.dk  www.unichains.com
 41
1.0
 72
0
  0
TEXT
  8
0
 62
5
  6
CONTINUOUS
 10
308.687007874
 20
13.75
  7
TEXTSTYLE_6
 40
5.0
  1
1:1
 41
0.7
 72
1
 11
313.937007874
 21
13.75
  0
TEXT
  8
0
 62
5
  6
CONTINUOUS
 10
326.937007874
 20
13.75
  7
TEXTSTYLE_7
 40
7.5
  1
uni Flex ASB-43 K1200
 41
0.4869047619
 72
0
  0
LINE
  8
0
 62
7
  6
CONTINUOUS
 10
0.0
 20
0.0
 11
0.0
 21
297.0
  0
LINE
  8
0
 62
7
  6
CONTINUOUS
 10
8.937007874
 20
10.0
 11
8.937007874
 21
287.0
  0
LINE
  8
0
 62
7
  6
CONTINUOUS
 10
0.0
 20
0.0
 11
420.0
 21
0.0
  0
LINE
  8
0
 62
7
  6
CONTINUOUS
 10
408.937007874
 20
10.0
 11
8.937007874
 21
10.0
  0
LINE
  8
0
 62
7
  6
CONTINUOUS
 10
218.937007874
 20
30.0
 11
408.937007874
 21
30.0
  0
LINE
  8
0
 62
7
  6
CONTINUOUS
 10
210.0
 20
297.0
 11
210.0
 21
292.0
  0
LINE
  8
0
 62
7
  6
CONTINUOUS
 10
210.0
 20
0.0
 11
210.0
 21
5.0
  0
LINE
  8
0
 62
7
  6
CONTINUOUS
 10
8.937007874
 20
287.0
 11
408.937007874
 21
287.0
  0
LINE
  8
0
 62
7
  6
CONTINUOUS
 10
0.0
 20
297.0
 11
420.0
 21
297.0
  0
LINE
  8
0
 62
7
  6
CONTINUOUS
 10
408.937007874
 20
287.0
 11
408.937007874
 21
10.0
  0
LINE
  8
0
 62
7
  6
CONTINUOUS
 10
420.0
 20
0.0
 11
420.0
 21
297.0
  0
LINE
  8
AXES
 62
7
  6
CONTINUOUS
 10
36.9314117647
 20
219.1760463937
 11
36.9314117647
 21
229.6760463937
  0
LINE
  8
0
 62
7
  6
CONTINUOUS
 10
37.6814117647
 20
218.5760463937
 11
37.6814117647
 21
230.2760463937
  0
LINE
  8
SURFACE
 62
7
  6
CONTINUOUS
 10
43.2814117647
 20
229.6760463937
 11
43.2814117647
 21
219.1760463937
  0
LINE
  8
SURFACE
 62
7
  6
CONTINUOUS
 10
49.2814117647
 20
219.1760463937
 11
49.2814117647
 21
229.6760463937
  0
LINE
  8
SURFACE
 62
7
  6
CONTINUOUS
 10
55.9814117647
 20
229.6760463937
 11
55.9814117647
 21
219.1760463937
  0
LINE
  8
SURFACE
 62
7
  6
CONTINUOUS
 10
61.9814117647
 20
219.1760463937
 11
61.9814117647
 21
229.6760463937
  0
LINE
  8
SURFACE
 62
7
  6
CONTINUOUS
 10
68.6814117647
 20
229.6760463937
 11
68.6814117647
 21
219.1760463937
  0
LINE
  8
SURFACE
 62
7
  6
CONTINUOUS
 10
74.6814117647
 20
219.1760463937
 11
74.6814117647
 21
229.6760463937
  0
LINE
  8
SURFACE
 62
7
  6
CONTINUOUS
 10
81.3814117647
 20
229.6760463937
 11
81.3814117647
 21
226.4260463937
  0
LINE
  8
SURFACE
 62
7
  6
CONTINUOUS
 10
81.3814117647
 20
219.1760463937
 11
81.3814117647
 21
221.1760463937
  0
LINE
  8
0
 62
7
  6
CONTINUOUS
 10
81.3814117647
 20
219.1760463937
 11
81.3814117647
 21
226.4260463937
  0
LINE
  8
0
 62
7
  6
CONTINUOUS
 10
87.3814117647
 20
219.1760463937
 11
87.3814117647
 21
226.4260463937
  0
LINE
  8
SURFACE
 62
7
  6
CONTINUOUS
 10
87.3814117647
 20
226.4260463937
 11
87.3814117647
 21
229.6760463937
  0
POLYLINE
  8
0
 62
7
  6
CONTINUOUS
 66
1
 70
0
  0
VERTEX
  8
0
 62
7
  6
CONTINUOUS
 10
87.3814117647
 20
221.1760463937
  0
VERTEX
  8
0
 62
7
  6
CONTINUOUS
 10
87.3662025846
 20
220.8254629822
  0
VERTEX
  8
0
 62
7
  6
CONTINUOUS
 10
87.3117971792
 20
220.499082278
  0
VERTEX
  8
0
 62
7
  6
CONTINUOUS
 10
87.2260656077
 20
220.2483972799
  0
VERTEX
  8
0
 62
7
  6
CONTINUOUS
 10
87.1177765223
 20
220.0597354507
  0
VERTEX
  8
0
 62
7
  6
CONTINUOUS
 10
86.9996555741
 20
219.9287834741
  0
VERTEX
  8
0
 62
7
  6
CONTINUOUS
 10
86.8791649447
 20
219.8443899921
  0
VERTEX
  8
0
 62
7
  6
CONTINUOUS
 10
86.7555857286
 20
219.7959703239
  0
VERTEX
  8
0
 62
7
  6
CONTINUOUS
 10
86.6314117647
 20
219.7802950827
  0
SEQEND
  0
LINE
  8
SURFACE
 62
7
  6
CONTINUOUS
 10
94.0814117647
 20
229.6760463937
 11
94.0814117647
 21
219.1760463937
  0
LINE
  8
SURFACE
 62
7
  6
CONTINUOUS
 10
100.0814117647
 20
219.1760463937
 11
100.0814117647
 21
229.6760463937
  0
LINE
  8
SURFACE
 62
7
  6
CONTINUOUS
 10
106.7814117647
 20
229.6760463937
 11
106.7814117647
 21
219.1760463937
  0
LINE
  8
SURFACE
 62
7
  6
CONTINUOUS
 10
112.7814117647
 20
219.1760463937
 11
112.7814117647
 21
229.6760463937
  0
LINE
  8
SURFACE
 62
7
  6
CONTINUOUS
 10
119.4814117647
 20
229.6760463937
 11
119.4814117647
 21
219.1760463937
  0
LINE
  8
SURFACE
 62
7
  6
CONTINUOUS
 10
125.4814117647
 20
219.1760463937
 11
125.4814117647
 21
229.6760463937
  0
LINE
  8
SURFACE
 62
7
  6
CONTINUOUS
 10
132.1814117647
 20
229.6760463937
 11
132.1814117647
 21
219.1760463937
  0
LINE
  8
SURFACE
 62
7
  6
CONTINUOUS
 10
138.1814117647
 20
219.1760463937
 11
138.1814117647
 21
229.6760463937
  0
LINE
  8
SURFACE
 62
7
  6
CONTINUOUS
 10
144.8814117647
 20
229.6760463937
 11
144.8814117647
 21
226.4260463937
  0
LINE
  8
SURFACE
 62
7
  6
CONTINUOUS
 10
144.8814117647
 20
219.1760463937
 11
144.8814117647
 21
221.1760463937
  0
LINE
  8
0
 62
7
  6
CONTINUOUS
 10
144.8814117647
 20
219.1760463937
 11
144.8814117647
 21
226.4260463937
  0
LINE
  8
0
 62
7
  6
CONTINUOUS
 10
150.8814117647
 20
219.1760463937
 11
150.8814117647
 21
226.4260463937
  0
LINE
  8
SURFACE
 62
7
  6
CONTINUOUS
 10
150.8814117647
 20
226.4260463937
 11
150.8814117647
 21
229.6760463937
  0
LINE
  8
SURFACE
 62
7
  6
CONTINUOUS
 10
157.5814117647
 20
229.6760463937
 11
157.5814117647
 21
219.1760463937
  0
POLYLINE
  8
0
 62
7
  6
CONTINUOUS
 66
1
 70
0
  0
VERTEX
  8
0
 62
7
  6
CONTINUOUS
 10
150.8814117647
 20
221.1760463937
  0
VERTEX
  8
0
 62
7
  6
CONTINUOUS
 10
150.8662025846
 20
220.8254629822
  0
VERTEX
  8
0
 62
7
  6
CONTINUOUS
 10
150.8117971792
 20
220.499082278
  0
VERTEX
  8
0
 62
7
  6
CONTINUOUS
 10
150.7260656077
 20
220.2483972799
  0
VERTEX
  8
0
 62
7
  6
CONTINUOUS
 10
150.6177765223
 20
220.0597354507
  0
VERTEX
  8
0
 62
7
  6
CONTINUOUS
 10
150.4996555741
 20
219.9287834741
  0
VERTEX
  8
0
 62
7
  6
CONTINUOUS
 10
150.3791649447
 20
219.8443899921
  0
VERTEX
  8
0
 62
7
  6
CONTINUOUS
 10
150.2555857286
 20
219.7959703239
  0
VERTEX
  8
0
 62
7
  6
CONTINUOUS
 10
150.1314117647
 20
219.7802950827
  0
SEQEND
  0
LINE
  8
SURFACE
 62
7
  6
CONTINUOUS
 10
163.5814117647
 20
219.1760463937
 11
163.5814117647
 21
229.6760463937
  0
LINE
  8
SURFACE
 62
7
  6
CONTINUOUS
 10
170.2814117647
 20
229.6760463937
 11
170.2814117647
 21
219.1760463937
  0
LINE
  8
SURFACE
 62
7
  6
CONTINUOUS
 10
176.2814117647
 20
219.1760463937
 11
176.2814117647
 21
229.6760463937
  0
POLYLINE
  8
0
 62
7
  6
CONTINUOUS
 66
1
 70
0
  0
VERTEX
  8
0
 62
7
  6
CONTINUOUS
 10
82.1314117647
 20
219.7802950827
  0
VERTEX
  8
0
 62
7
  6
CONTINUOUS
 10
82.0072810559
 20
219.7959593103
  0
VERTEX
  8
0
 62
7
  6
CONTINUOUS
 10
81.8837231707
 20
219.8443553433
  0
VERTEX
  8
0
 62
7
  6
CONTINUOUS
 10
81.7632839446
 20
219.9286813161
  0
VERTEX
  8
0
 62
7
  6
CONTINUOUS
 10
81.645220889
 20
220.059496345
  0
VERTEX
  8
0
 62
7
  6
CONTINUOUS
 10
81.5369286236
 20
220.248019365
  0
VERTEX
  8
0
 62
7
  6
CONTINUOUS
 10
81.4511752711
 20
220.4984885712
  0
VERTEX
  8
0
 62
7
  6
CONTINUOUS
 10
81.3966885819
 20
220.8247613208
  0
VERTEX
  8
0
 62
7
  6
CONTINUOUS
 10
81.3814117647
 20
221.1760463937
  0
SEQEND
  0
POLYLINE
  8
0
 62
7
  6
CONTINUOUS
 66
1
 70
0
  0
VERTEX
  8
0
 62
7
  6
CONTINUOUS
 10
145.6314117647
 20
219.7802950827
  0
VERTEX
  8
0
 62
7
  6
CONTINUOUS
 10
145.5072810559
 20
219.7959593103
  0
VERTEX
  8
0
 62
7
  6
CONTINUOUS
 10
145.3837231707
 20
219.8443553433
  0
VERTEX
  8
0
 62
7
  6
CONTINUOUS
 10
145.2632839446
 20
219.9286813161
  0
VERTEX
  8
0
 62
7
  6
CONTINUOUS
 10
145.145220889
 20
220.059496345
  0
VERTEX
  8
0
 62
7
  6
CONTINUOUS
 10
145.0369286236
 20
220.248019365
  0
VERTEX
  8
0
 62
7
  6
CONTINUOUS
 10
144.9511752711
 20
220.4984885712
  0
VERTEX
  8
0
 62
7
  6
CONTINUOUS
 10
144.8966885819
 20
220.8247613208
  0
VERTEX
  8
0
 62
7
  6
CONTINUOUS
 10
144.8814117647
 20
221.1760463937
  0
SEQEND
  0
LINE
  8
SURFACE
 62
7
  6
CONTINUOUS
 10
182.9814117647
 20
229.6760463937
 11
182.9814117647
 21
219.1760463937
  0
LINE
  8
SURFACE
 62
7
  6
CONTINUOUS
 10
188.9814117647
 20
219.1760463937
 11
188.9814117647
 21
229.6760463937
  0
LINE
  8
DEFAULT_1
 62
2
  6
CENTER
 10
189.1564117647
 20
215.9342431248
 11
189.1564117647
 21
232.917849674
  0
LINE
  8
0
 62
7
  6
CONTINUOUS
 10
340.6314117647
 20
218.4260463937
 11
323.4314117647
 21
218.4260463937
  0
LINE
  8
SURFACE
 62
7
  6
CONTINUOUS
 10
323.4314073627
 20
218.4260463937
 11
315.231417278
 21
218.4260463937
  0
LINE
  8
0
 62
7
  6
CONTINUOUS
 10
315.2314117647
 20
218.4260463937
 11
310.7314117647
 21
218.4260463937
  0
LINE
  8
SURFACE
 62
7
  6
CONTINUOUS
 10
310.7314073627
 20
218.4260463937
 11
302.531417278
 21
218.4260463937
  0
LINE
  8
0
 62
7
  6
CONTINUOUS
 10
302.5314117647
 20
218.4260463937
 11
298.0314117647
 21
218.4260463937
  0
LINE
  8
SURFACE
 62
7
  6
CONTINUOUS
 10
298.0314073627
 20
218.4260463937
 11
289.831417278
 21
218.4260463937
  0
LINE
  8
0
 62
7
  6
CONTINUOUS
 10
289.8314117647
 20
218.4260463937
 11
285.3314117647
 21
218.4260463937
  0
LINE
  8
SURFACE
 62
7
  6
CONTINUOUS
 10
285.3314073627
 20
218.4260463937
 11
277.131417278
 21
218.4260463937
  0
LINE
  8
0
 62
7
  6
CONTINUOUS
 10
277.1314117647
 20
218.4260463937
 11
272.6314117647
 21
218.4260463937
  0
LINE
  8
SURFACE
 62
7
  6
CONTINUOUS
 10
272.6314073627
 20
218.4260463937
 11
264.431417278
 21
218.4260463937
  0
LINE
  8
0
 62
7
  6
CONTINUOUS
 10
264.4314117647
 20
218.4260463937
 11
259.9314117647
 21
218.4260463937
  0
LINE
  8
SURFACE
 62
7
  6
CONTINUOUS
 10
259.9314073627
 20
218.4260463937
 11
251.731417278
 21
218.4260463937
  0
LINE
  8
0
 62
7
  6
CONTINUOUS
 10
251.7314117647
 20
218.4260463937
 11
247.2314117647
 21
218.4260463937
  0
LINE
  8
SURFACE
 62
7
  6
CONTINUOUS
 10
247.2314073627
 20
218.4260463937
 11
239.031417278
 21
218.4260463937
  0
LINE
  8
0
 62
7
  6
CONTINUOUS
 10
239.0314117647
 20
218.4260463937
 11
234.5314117647
 21
218.4260463937
  0
LINE
  8
SURFACE
 62
7
  6
CONTINUOUS
 10
234.5314073627
 20
218.4260463937
 11
226.331417278
 21
218.4260463937
  0
LINE
  8
0
 62
7
  6
CONTINUOUS
 10
226.3314117647
 20
218.4260463937
 11
221.8314117647
 21
218.4260463937
  0
LINE
  8
SURFACE
 62
7
  6
CONTINUOUS
 10
221.8314073627
 20
218.4260463937
 11
213.631417278
 21
218.4260463937
  0
LINE
  8
0
 62
7
  6
CONTINUOUS
 10
213.6314117647
 20
218.4260463937
 11
209.1314117647
 21
218.4260463937
  0
LINE
  8
SURFACE
 62
7
  6
CONTINUOUS
 10
209.1314073627
 20
218.4260463937
 11
200.931417278
 21
218.4260463937
  0
LINE
  8
0
 62
7
  6
CONTINUOUS
 10
200.9314117647
 20
218.4260463937
 11
196.4314117647
 21
218.4260463937
  0
LINE
  8
SURFACE
 62
7
  6
CONTINUOUS
 10
196.4314073627
 20
218.4260463937
 11
188.231417278
 21
218.4260463937
  0
LINE
  8
0
 62
7
  6
CONTINUOUS
 10
188.2314117647
 20
218.4260463937
 11
183.7314117647
 21
218.4260463937
  0
LINE
  8
SURFACE
 62
7
  6
CONTINUOUS
 10
183.7314073627
 20
218.4260463937
 11
175.531417278
 21
218.4260463937
  0
LINE
  8
0
 62
7
  6
CONTINUOUS
 10
175.5314117647
 20
218.4260463937
 11
171.0314117647
 21
218.4260463937
  0
LINE
  8
SURFACE
 62
7
  6
CONTINUOUS
 10
171.0314073627
 20
218.4260463937
 11
162.831417278
 21
218.4260463937
  0
LINE
  8
0
 62
7
  6
CONTINUOUS
 10
162.8314117647
 20
218.4260463937
 11
158.3314117647
 21
218.4260463937
  0
LINE
  8
SURFACE
 62
7
  6
CONTINUOUS
 10
158.3314073627
 20
218.4260463937
 11
150.131417278
 21
218.4260463937
  0
LINE
  8
0
 62
7
  6
CONTINUOUS
 10
150.1314117647
 20
218.4260463937
 11
145.6314117647
 21
218.4260463937
  0
LINE
  8
SURFACE
 62
7
  6
CONTINUOUS
 10
145.6314073627
 20
218.4260463937
 11
137.431417278
 21
218.4260463937
  0
LINE
  8
0
 62
7
  6
CONTINUOUS
 10
137.4314117647
 20
218.4260463937
 11
132.9314117647
 21
218.4260463937
  0
LINE
  8
SURFACE
 62
7
  6
CONTINUOUS
 10
132.9314073627
 20
218.4260463937
 11
124.731417278
 21
218.4260463937
  0
LINE
  8
0
 62
7
  6
CONTINUOUS
 10
124.7314117647
 20
218.4260463937
 11
120.2314117647
 21
218.4260463937
  0
LINE
  8
SURFACE
 62
7
  6
CONTINUOUS
 10
120.2314073627
 20
218.4260463937
 11
112.031417278
 21
218.4260463937
  0
LINE
  8
0
 62
7
  6
CONTINUOUS
 10
112.0314117647
 20
218.4260463937
 11
107.5314117647
 21
218.4260463937
  0
LINE
  8
SURFACE
 62
7
  6
CONTINUOUS
 10
107.5314073627
 20
218.4260463937
 11
99.331417278
 21
218.4260463937
  0
LINE
  8
0
 62
7
  6
CONTINUOUS
 10
99.3314117647
 20
218.4260463937
 11
94.8314117647
 21
218.4260463937
  0
LINE
  8
SURFACE
 62
7
  6
CONTINUOUS
 10
94.8314073627
 20
218.4260463937
 11
86.631417278
 21
218.4260463937
  0
LINE
  8
0
 62
7
  6
CONTINUOUS
 10
86.6314117647
 20
218.4260463937
 11
82.1314117647
 21
218.4260463937
  0
LINE
  8
SURFACE
 62
7
  6
CONTINUOUS
 10
82.1314073627
 20
218.4260463937
 11
73.931417278
 21
218.4260463937
  0
LINE
  8
0
 62
7
  6
CONTINUOUS
 10
73.9314117647
 20
218.4260463937
 11
69.4314117647
 21
218.4260463937
  0
LINE
  8
SURFACE
 62
7
  6
CONTINUOUS
 10
69.4314073627
 20
218.4260463937
 11
61.231417278
 21
218.4260463937
  0
LINE
  8
0
 62
7
  6
CONTINUOUS
 10
61.2314117647
 20
218.4260463937
 11
56.7314117647
 21
218.4260463937
  0
LINE
  8
SURFACE
 62
7
  6
CONTINUOUS
 10
56.7314117647
 20
218.4260463937
 11
48.531417278
 21
218.4260463937
  0
LINE
  8
0
 62
7
  6
CONTINUOUS
 10
48.5314117647
 20
218.4260463937
 11
37.8314117647
 21
218.4260463937
  0
LINE
  8
SURFACE
 62
7
  6
CONTINUOUS
 10
37.8314117647
 20
218.4260463937
 11
37.6814117647
 21
218.4260463937
  0
LINE
  8
0
 62
7
  6
CONTINUOUS
 10
302.5314117647
 20
219.7802950827
 11
298.0314117647
 21
219.7802950827
  0
LINE
  8
0
 62
7
  6
CONTINUOUS
 10
239.0314117647
 20
219.7802950827
 11
234.5314117647
 21
219.7802950827
  0
LINE
  8
0
 62
7
  6
CONTINUOUS
 10
150.1314117647
 20
219.7802950827
 11
145.6314117647
 21
219.7802950827
  0
LINE
  8
0
 62
7
  6
CONTINUOUS
 10
86.6314117647
 20
219.7802950827
 11
82.1314117647
 21
219.7802950827
  0
LINE
  8
AXES
 62
7
  6
CONTINUOUS
 10
36.9314117647
 20
222.3260463937
 11
37.6814117647
 21
222.3260463937
  0
LINE
  8
0
 62
7
  6
CONTINUOUS
 10
81.3814117647
 20
224.4260463937
 11
87.3814117647
 21
224.4260463937
  0
LINE
  8
0
 62
7
  6
CONTINUOUS
 10
144.8814117647
 20
224.4260463937
 11
150.8814117647
 21
224.4260463937
  0
LINE
  8
0
 62
7
  6
CONTINUOUS
 10
233.7814117647
 20
224.4260463937
 11
239.7814117647
 21
224.4260463937
  0
LINE
  8
0
 62
7
  6
CONTINUOUS
 10
297.2814117647
 20
224.4260463937
 11
303.2814117647
 21
224.4260463937
  0
LINE
  8
AXES
 62
2
  6
CENTER
 10
34.4420887504
 20
224.4260463937
 11
343.3814117647
 21
224.4260463937
  0
POLYLINE
  8
0
 62
7
  6
CONTINUOUS
 66
1
 70
0
  0
VERTEX
  8
0
 62
7
  6
CONTINUOUS
 10
234.5314117647
 20
219.7802950827
  0
VERTEX
  8
0
 62
7
  6
CONTINUOUS
 10
234.4072810559
 20
219.7959593103
  0
VERTEX
  8
0
 62
7
  6
CONTINUOUS
 10
234.2837231707
 20
219.8443553433
  0
VERTEX
  8
0
 62
7
  6
CONTINUOUS
 10
234.1632839446
 20
219.9286813161
  0
VERTEX
  8
0
 62
7
  6
CONTINUOUS
 10
234.045220889
 20
220.059496345
  0
VERTEX
  8
0
 62
7
  6
CONTINUOUS
 10
233.9369286236
 20
220.248019365
  0
VERTEX
  8
0
 62
7
  6
CONTINUOUS
 10
233.8511752711
 20
220.4984885712
  0
VERTEX
  8
0
 62
7
  6
CONTINUOUS
 10
233.7966885819
 20
220.8247613208
  0
VERTEX
  8
0
 62
7
  6
CONTINUOUS
 10
233.7814117647
 20
221.1760463937
  0
SEQEND
  0
LINE
  8
SURFACE
 62
7
  6
CONTINUOUS
 10
195.6814117647
 20
229.6760463937
 11
195.6814117647
 21
219.1760463937
  0
LINE
  8
AXES
 62
7
  6
CONTINUOUS
 10
36.9314117647
 20
226.5260463937
 11
37.6814117647
 21
226.5260463937
  0
LINE
  8
SURFACE
 62
7
  6
CONTINUOUS
 10
37.6814074862
 20
230.4260463937
 11
37.8314117647
 21
230.4260463937
  0
LINE
  8
0
 62
7
  6
CONTINUOUS
 10
37.8314117647
 20
230.4260463937
 11
48.5314117647
 21
230.4260463937
  0
LINE
  8
0
 62
7
  6
CONTINUOUS
 10
56.7314117647
 20
230.4260463937
 11
61.2314117647
 21
230.4260463937
  0
LINE
  8
0
 62
7
  6
CONTINUOUS
 10
69.4314117647
 20
230.4260463937
 11
73.9314117647
 21
230.4260463937
  0
LINE
  8
0
 62
7
  6
CONTINUOUS
 10
82.1314117647
 20
230.4260463937
 11
86.6314117647
 21
230.4260463937
  0
LINE
  8
0
 62
7
  6
CONTINUOUS
 10
94.8314117647
 20
230.4260463937
 11
99.3314117647
 21
230.4260463937
  0
LINE
  8
0
 62
7
  6
CONTINUOUS
 10
107.5314117647
 20
230.4260463937
 11
112.0314117647
 21
230.4260463937
  0
LINE
  8
0
 62
7
  6
CONTINUOUS
 10
120.2314117647
 20
230.4260463937
 11
124.7314117647
 21
230.4260463937
  0
LINE
  8
0
 62
7
  6
CONTINUOUS
 10
132.9314117647
 20
230.4260463937
 11
137.4314117647
 21
230.4260463937
  0
LINE
  8
0
 62
7
  6
CONTINUOUS
 10
145.6314117647
 20
230.4260463937
 11
150.1314117647
 21
230.4260463937
  0
LINE
  8
0
 62
7
  6
CONTINUOUS
 10
158.3314117647
 20
230.4260463937
 11
162.8314117647
 21
230.4260463937
  0
LINE
  8
0
 62
7
  6
CONTINUOUS
 10
171.0314117647
 20
230.4260463937
 11
175.5314117647
 21
230.4260463937
  0
LINE
  8
0
 62
7
  6
CONTINUOUS
 10
183.7314117647
 20
230.4260463937
 11
188.2314117647
 21
230.4260463937
  0
LINE
  8
0
 62
7
  6
CONTINUOUS
 10
196.4314117647
 20
230.4260463937
 11
200.9314117647
 21
230.4260463937
  0
LINE
  8
0
 62
7
  6
CONTINUOUS
 10
209.1314117647
 20
230.4260463937
 11
213.6314117647
 21
230.4260463937
  0
LINE
  8
0
 62
7
  6
CONTINUOUS
 10
221.8314117647
 20
230.4260463937
 11
226.3314117647
 21
230.4260463937
  0
LINE
  8
0
 62
7
  6
CONTINUOUS
 10
234.5314117647
 20
230.4260463937
 11
239.0314117647
 21
230.4260463937
  0
LINE
  8
0
 62
7
  6
CONTINUOUS
 10
247.2314117647
 20
230.4260463937
 11
251.7314117647
 21
230.4260463937
  0
LINE
  8
0
 62
7
  6
CONTINUOUS
 10
259.9314117647
 20
230.4260463937
 11
264.4314117647
 21
230.4260463937
  0
LINE
  8
0
 62
7
  6
CONTINUOUS
 10
272.6314117647
 20
230.4260463937
 11
277.1314117647
 21
230.4260463937
  0
LINE
  8
0
 62
7
  6
CONTINUOUS
 10
285.3314117647
 20
230.4260463937
 11
289.8314117647
 21
230.4260463937
  0
LINE
  8
0
 62
7
  6
CONTINUOUS
 10
298.0314117647
 20
230.4260463937
 11
302.5314117647
 21
230.4260463937
  0
LINE
  8
0
 62
7
  6
CONTINUOUS
 10
310.7314117647
 20
230.4260463937
 11
315.2314117647
 21
230.4260463937
  0
LINE
  8
SURFACE
 62
7
  6
CONTINUOUS
 10
44.0314117647
 20
230.4260463937
 11
323.4314062514
 21
230.4260463937
  0
LINE
  8
0
 62
7
  6
CONTINUOUS
 10
323.4314117647
 20
230.4260463937
 11
340.6314117647
 21
230.4260463937
  0
POLYLINE
  8
0
 62
7
  6
CONTINUOUS
 66
1
 70
0
  0
VERTEX
  8
0
 62
7
  6
CONTINUOUS
 10
298.0314117647
 20
219.7802950827
  0
VERTEX
  8
0
 62
7
  6
CONTINUOUS
 10
297.9072810559
 20
219.7959593103
  0
VERTEX
  8
0
 62
7
  6
CONTINUOUS
 10
297.7837231707
 20
219.8443553433
  0
VERTEX
  8
0
 62
7
  6
CONTINUOUS
 10
297.6632839446
 20
219.9286813161
  0
VERTEX
  8
0
 62
7
  6
CONTINUOUS
 10
297.545220889
 20
220.059496345
  0
VERTEX
  8
0
 62
7
  6
CONTINUOUS
 10
297.4369286236
 20
220.248019365
  0
VERTEX
  8
0
 62
7
  6
CONTINUOUS
 10
297.3511752711
 20
220.4984885712
  0
VERTEX
  8
0
 62
7
  6
CONTINUOUS
 10
297.2966885819
 20
220.8247613208
  0
VERTEX
  8
0
 62
7
  6
CONTINUOUS
 10
297.2814117647
 20
221.1760463937
  0
SEQEND
  0
LINE
  8
SURFACE
 62
7
  6
CONTINUOUS
 10
201.6814117647
 20
219.1760463937
 11
201.6814117647
 21
229.6760463937
  0
LINE
  8
SURFACE
 62
7
  6
CONTINUOUS
 10
208.3814117647
 20
229.6760463937
 11
208.3814117647
 21
219.1760463937
  0
LINE
  8
SURFACE
 62
7
  6
CONTINUOUS
 10
214.3814117647
 20
219.1760463937
 11
214.3814117647
 21
229.6760463937
  0
LINE
  8
SURFACE
 62
7
  6
CONTINUOUS
 10
221.0814117647
 20
229.6760463937
 11
221.0814117647
 21
219.1760463937
  0
LINE
  8
SURFACE
 62
7
  6
CONTINUOUS
 10
227.0814117647
 20
219.1760463937
 11
227.0814117647
 21
229.6760463937
  0
LINE
  8
SURFACE
 62
7
  6
CONTINUOUS
 10
233.7814117647
 20
229.6760463937
 11
233.7814117647
 21
226.4260463937
  0
LINE
  8
SURFACE
 62
7
  6
CONTINUOUS
 10
233.7814117647
 20
219.1760463937
 11
233.7814117647
 21
221.1760463937
  0
LINE
  8
0
 62
7
  6
CONTINUOUS
 10
233.7814117647
 20
219.1760463937
 11
233.7814117647
 21
226.4260463937
  0
LINE
  8
0
 62
7
  6
CONTINUOUS
 10
239.7814117647
 20
219.1760463937
 11
239.7814117647
 21
226.4260463937
  0
LINE
  8
SURFACE
 62
7
  6
CONTINUOUS
 10
239.7814117647
 20
226.4260463937
 11
239.7814117647
 21
229.6760463937
  0
POLYLINE
  8
0
 62
7
  6
CONTINUOUS
 66
1
 70
0
  0
VERTEX
  8
0
 62
7
  6
CONTINUOUS
 10
239.7814117647
 20
221.1760463937
  0
VERTEX
  8
0
 62
7
  6
CONTINUOUS
 10
239.7662025846
 20
220.8254629822
  0
VERTEX
  8
0
 62
7
  6
CONTINUOUS
 10
239.7117971792
 20
220.499082278
  0
VERTEX
  8
0
 62
7
  6
CONTINUOUS
 10
239.6260656077
 20
220.2483972799
  0
VERTEX
  8
0
 62
7
  6
CONTINUOUS
 10
239.5177765223
 20
220.0597354507
  0
VERTEX
  8
0
 62
7
  6
CONTINUOUS
 10
239.3996555741
 20
219.9287834741
  0
VERTEX
  8
0
 62
7
  6
CONTINUOUS
 10
239.2791649447
 20
219.8443899921
  0
VERTEX
  8
0
 62
7
  6
CONTINUOUS
 10
239.1555857286
 20
219.7959703239
  0
VERTEX
  8
0
 62
7
  6
CONTINUOUS
 10
239.0314117647
 20
219.7802950827
  0
SEQEND
  0
LINE
  8
SURFACE
 62
7
  6
CONTINUOUS
 10
246.4814117647
 20
229.6760463937
 11
246.4814117647
 21
219.1760463937
  0
LINE
  8
SURFACE
 62
7
  6
CONTINUOUS
 10
252.4814117647
 20
219.1760463937
 11
252.4814117647
 21
229.6760463937
  0
LINE
  8
SURFACE
 62
7
  6
CONTINUOUS
 10
259.1814117647
 20
229.6760463937
 11
259.1814117647
 21
219.1760463937
  0
LINE
  8
SURFACE
 62
7
  6
CONTINUOUS
 10
265.1814117647
 20
219.1760463937
 11
265.1814117647
 21
229.6760463937
  0
LINE
  8
SURFACE
 62
7
  6
CONTINUOUS
 10
271.8814117647
 20
229.6760463937
 11
271.8814117647
 21
219.1760463937
  0
LINE
  8
SURFACE
 62
7
  6
CONTINUOUS
 10
277.8814117647
 20
219.1760463937
 11
277.8814117647
 21
229.6760463937
  0
LINE
  8
SURFACE
 62
7
  6
CONTINUOUS
 10
284.5814117647
 20
229.6760463937
 11
284.5814117647
 21
219.1760463937
  0
LINE
  8
SURFACE
 62
7
  6
CONTINUOUS
 10
290.5814117647
 20
219.1760463937
 11
290.5814117647
 21
229.6760463937
  0
LINE
  8
SURFACE
 62
7
  6
CONTINUOUS
 10
297.2814117647
 20
229.6760463937
 11
297.2814117647
 21
226.4260463937
  0
LINE
  8
SURFACE
 62
7
  6
CONTINUOUS
 10
297.2814117647
 20
219.1760463937
 11
297.2814117647
 21
221.1760463937
  0
LINE
  8
0
 62
7
  6
CONTINUOUS
 10
297.2814117647
 20
219.1760463937
 11
297.2814117647
 21
226.4260463937
  0
LINE
  8
0
 62
7
  6
CONTINUOUS
 10
303.2814117647
 20
219.1760463937
 11
303.2814117647
 21
226.4260463937
  0
LINE
  8
SURFACE
 62
7
  6
CONTINUOUS
 10
303.2814117647
 20
226.4260463937
 11
303.2814117647
 21
229.6760463937
  0
LINE
  8
SURFACE
 62
7
  6
CONTINUOUS
 10
309.9814117647
 20
229.6760463937
 11
309.9814117647
 21
219.1760463937
  0
POLYLINE
  8
0
 62
7
  6
CONTINUOUS
 66
1
 70
0
  0
VERTEX
  8
0
 62
7
  6
CONTINUOUS
 10
303.2814117647
 20
221.1760463937
  0
VERTEX
  8
0
 62
7
  6
CONTINUOUS
 10
303.2662025846
 20
220.8254629822
  0
VERTEX
  8
0
 62
7
  6
CONTINUOUS
 10
303.2117971792
 20
220.499082278
  0
VERTEX
  8
0
 62
7
  6
CONTINUOUS
 10
303.1260656077
 20
220.2483972799
  0
VERTEX
  8
0
 62
7
  6
CONTINUOUS
 10
303.0177765223
 20
220.0597354507
  0
VERTEX
  8
0
 62
7
  6
CONTINUOUS
 10
302.8996555741
 20
219.9287834741
  0
VERTEX
  8
0
 62
7
  6
CONTINUOUS
 10
302.7791649447
 20
219.8443899921
  0
VERTEX
  8
0
 62
7
  6
CONTINUOUS
 10
302.6555857286
 20
219.7959703239
  0
VERTEX
  8
0
 62
7
  6
CONTINUOUS
 10
302.5314117647
 20
219.7802950827
  0
SEQEND
  0
LINE
  8
SURFACE
 62
7
  6
CONTINUOUS
 10
315.9814117647
 20
219.1760463937
 11
315.9814117647
 21
229.6760463937
  0
LINE
  8
SURFACE
 62
7
  6
CONTINUOUS
 10
322.6814117647
 20
229.6760463937
 11
322.6814117647
 21
219.1760463937
  0
LINE
  8
0
 62
7
  6
CONTINUOUS
 10
328.6814117647
 20
219.1760463937
 11
328.6814117647
 21
229.6760463937
  0
LINE
  8
0
 62
7
  6
CONTINUOUS
 10
335.3814117647
 20
229.6760463937
 11
335.3814117647
 21
219.1760463937
  0
LINE
  8
0
 62
7
  6
CONTINUOUS
 10
341.3814117647
 20
219.1760463937
 11
341.3814117647
 21
229.6760463937
  0
LINE
  8
SURFACE
 62
7
  6
CONTINUOUS
 10
36.9314117647
 20
159.9374641272
 11
36.9314117647
 21
156.4635722504
  0
LINE
  8
0
 62
7
  6
CONTINUOUS
 10
37.6814117647
 20
143.3335035437
 11
37.6814117647
 21
153.4186393296
  0
LINE
  8
SURFACE
 62
7
  6
CONTINUOUS
 10
42.1814117647
 20
146.4204828904
 11
42.1814117647
 21
153.4186393296
  0
LINE
  8
SURFACE
 62
7
  6
CONTINUOUS
 10
42.9314117647
 20
159.9374641272
 11
42.9314117647
 21
156.4635722504
  0
LINE
  8
SURFACE
 62
7
  6
CONTINUOUS
 10
43.2814117647
 20
132.3895119097
 11
43.2814117647
 21
128.1379743844
  0
LINE
  8
SURFACE
 62
7
  6
CONTINUOUS
 10
44.0354117647
 20
139.6339743844
 11
44.0354117647
 21
135.4502526766
  0
LINE
  8
SURFACE
 62
7
  6
CONTINUOUS
 10
42.1966890898
 20
153.5412930225
 11
42.9268285672
 21
156.4267761426
  0
LINE
  8
SURFACE
 62
7
  6
CONTINUOUS
 10
36.9359949622
 20
156.4267761426
 11
37.6661344397
 21
153.5412930225
  0
LINE
  8
SURFACE
 62
7
  6
CONTINUOUS
 10
37.6661344397
 20
153.5412930225
 11
37.6814117647
 21
153.4186393296
  0
POLYLINE
  8
AXES
 62
7
  6
CONTINUOUS
 66
1
 70
0
  0
VERTEX
  8
AXES
 62
7
  6
CONTINUOUS
 10
42.1951479353
 20
146.9879743844
  0
VERTEX
  8
AXES
 62
7
  6
CONTINUOUS
 10
42.1922015522
 20
147.0121625188
  0
VERTEX
  8
AXES
 62
7
  6
CONTINUOUS
 10
42.1855489355
 20
147.0842598878
  0
VERTEX
  8
AXES
 62
7
  6
CONTINUOUS
 10
42.1814117647
 20
147.2023257564
  0
SEQEND
  0
LINE
  8
SURFACE
 62
7
  6
CONTINUOUS
 10
48.5274117647
 20
135.4502526766
 11
48.5274117647
 21
139.6339743844
  0
LINE
  8
SURFACE
 62
7
  6
CONTINUOUS
 10
49.2814117647
 20
128.1379743844
 11
49.2814117647
 21
132.3895119097
  0
LINE
  8
SURFACE
 62
7
  6
CONTINUOUS
 10
49.6314117647
 20
159.9374641272
 11
49.6314117647
 21
156.4635722504
  0
LINE
  8
SURFACE
 62
7
  6
CONTINUOUS
 10
50.3814117647
 20
153.4186393296
 11
50.3814117647
 21
146.4205335615
  0
LINE
  8
SURFACE
 62
7
  6
CONTINUOUS
 10
54.8814117647
 20
146.4204828904
 11
54.8814117647
 21
153.4186393296
  0
LINE
  8
SURFACE
 62
7
  6
CONTINUOUS
 10
55.6314117647
 20
159.9374641272
 11
55.6314117647
 21
156.4635722504
  0
LINE
  8
SURFACE
 62
7
  6
CONTINUOUS
 10
55.9814117647
 20
132.3895119097
 11
55.9814117647
 21
128.1379743844
  0
LINE
  8
SURFACE
 62
7
  6
CONTINUOUS
 10
56.7354117647
 20
139.6339743844
 11
56.7354117647
 21
135.4502526766
  0
POLYLINE
  8
AXES
 62
7
  6
CONTINUOUS
 66
1
 70
0
  0
VERTEX
  8
AXES
 62
7
  6
CONTINUOUS
 10
50.3814117647
 20
147.2023257564
  0
VERTEX
  8
AXES
 62
7
  6
CONTINUOUS
 10
50.3772746411
 20
147.0842605587
  0
VERTEX
  8
AXES
 62
7
  6
CONTINUOUS
 10
50.3706219803
 20
147.0121625457
  0
VERTEX
  8
AXES
 62
7
  6
CONTINUOUS
 10
50.3676755941
 20
146.9879743844
  0
SEQEND
  0
LINE
  8
SURFACE
 62
7
  6
CONTINUOUS
 10
44.0201344397
 20
135.3275989837
 11
43.2859949622
 21
132.4263080176
  0
LINE
  8
SURFACE
 62
7
  6
CONTINUOUS
 10
54.8966890898
 20
153.5412930225
 11
55.6268285672
 21
156.4267761426
  0
LINE
  8
SURFACE
 62
7
  6
CONTINUOUS
 10
49.2768285672
 20
132.4263080176
 11
48.5426890898
 21
135.3275989837
  0
LINE
  8
SURFACE
 62
7
  6
CONTINUOUS
 10
48.5426890898
 20
135.3275989837
 11
48.5274117647
 21
135.4502526766
  0
LINE
  8
SURFACE
 62
7
  6
CONTINUOUS
 10
50.3661344397
 20
153.5412930225
 11
50.3814117647
 21
153.4186393296
  0
POLYLINE
  8
AXES
 62
7
  6
CONTINUOUS
 66
1
 70
0
  0
VERTEX
  8
AXES
 62
7
  6
CONTINUOUS
 10
54.8951479353
 20
146.9879743844
  0
VERTEX
  8
AXES
 62
7
  6
CONTINUOUS
 10
54.8922015522
 20
147.0121625188
  0
VERTEX
  8
AXES
 62
7
  6
CONTINUOUS
 10
54.8855489355
 20
147.0842598878
  0
VERTEX
  8
AXES
 62
7
  6
CONTINUOUS
 10
54.8814117647
 20
147.2023257564
  0
SEQEND
  0
LINE
  8
SURFACE
 62
7
  6
CONTINUOUS
 10
61.2274117647
 20
135.4502526766
 11
61.2274117647
 21
139.6339743844
  0
LINE
  8
SURFACE
 62
7
  6
CONTINUOUS
 10
61.9814117647
 20
128.1379743844
 11
61.9814117647
 21
132.3895119097
  0
LINE
  8
SURFACE
 62
7
  6
CONTINUOUS
 10
62.3314117647
 20
159.9374641272
 11
62.3314117647
 21
156.4635722504
  0
LINE
  8
SURFACE
 62
7
  6
CONTINUOUS
 10
63.0814117647
 20
153.4186393296
 11
63.0814117647
 21
146.4205335615
  0
POLYLINE
  8
AXES
 62
7
  6
CONTINUOUS
 66
1
 70
0
  0
VERTEX
  8
AXES
 62
7
  6
CONTINUOUS
 10
63.0814117647
 20
147.2023257564
  0
VERTEX
  8
AXES
 62
7
  6
CONTINUOUS
 10
63.0772746411
 20
147.0842605587
  0
VERTEX
  8
AXES
 62
7
  6
CONTINUOUS
 10
63.0706219803
 20
147.0121625457
  0
VERTEX
  8
AXES
 62
7
  6
CONTINUOUS
 10
63.0676755941
 20
146.9879743844
  0
SEQEND
  0
LINE
  8
SURFACE
 62
7
  6
CONTINUOUS
 10
56.7201344397
 20
135.3275989837
 11
55.9859949622
 21
132.4263080176
  0
LINE
  8
SURFACE
 62
7
  6
CONTINUOUS
 10
49.6359949622
 20
156.4267761426
 11
50.3661344397
 21
153.5412930225
  0
LINE
  8
SURFACE
 62
7
  6
CONTINUOUS
 10
61.9768285672
 20
132.4263080176
 11
61.2426890898
 21
135.3275989837
  0
LINE
  8
SURFACE
 62
7
  6
CONTINUOUS
 10
61.2426890898
 20
135.3275989837
 11
61.2274117647
 21
135.4502526766
  0
LINE
  8
SURFACE
 62
7
  6
CONTINUOUS
 10
63.0661344397
 20
153.5412930225
 11
63.0814117647
 21
153.4186393296
  0
LINE
  8
SURFACE
 62
7
  6
CONTINUOUS
 10
67.5814117647
 20
146.4204828904
 11
67.5814117647
 21
153.4186393296
  0
LINE
  8
SURFACE
 62
7
  6
CONTINUOUS
 10
68.3314117647
 20
159.9374641272
 11
68.3314117647
 21
156.4635722504
  0
LINE
  8
SURFACE
 62
7
  6
CONTINUOUS
 10
68.6814117647
 20
132.3895119097
 11
68.6814117647
 21
128.1379743844
  0
LINE
  8
SURFACE
 62
7
  6
CONTINUOUS
 10
69.4354117647
 20
139.6339743844
 11
69.4354117647
 21
135.4502526766
  0
LINE
  8
SURFACE
 62
7
  6
CONTINUOUS
 10
73.9274117647
 20
135.4502526766
 11
73.9274117647
 21
139.6339743844
  0
LINE
  8
SURFACE
 62
7
  6
CONTINUOUS
 10
74.6814117647
 20
128.1379743844
 11
74.6814117647
 21
132.3895119097
  0
LINE
  8
SURFACE
 62
7
  6
CONTINUOUS
 10
75.0314117647
 20
159.9374641272
 11
75.0314117647
 21
156.4635722504
  0
LINE
  8
SURFACE
 62
7
  6
CONTINUOUS
 10
75.7814117647
 20
153.4186393296
 11
75.7814117647
 21
146.4205335615
  0
POLYLINE
  8
AXES
 62
7
  6
CONTINUOUS
 66
1
 70
0
  0
VERTEX
  8
AXES
 62
7
  6
CONTINUOUS
 10
75.7814117647
 20
147.2023257564
  0
VERTEX
  8
AXES
 62
7
  6
CONTINUOUS
 10
75.7772746411
 20
147.0842605587
  0
VERTEX
  8
AXES
 62
7
  6
CONTINUOUS
 10
75.7706219803
 20
147.0121625457
  0
VERTEX
  8
AXES
 62
7
  6
CONTINUOUS
 10
75.7676755941
 20
146.9879743844
  0
SEQEND
  0
LINE
  8
SURFACE
 62
7
  6
CONTINUOUS
 10
67.5966890898
 20
153.5412930225
 11
68.3268285672
 21
156.4267761426
  0
LINE
  8
SURFACE
 62
7
  6
CONTINUOUS
 10
69.4201344397
 20
135.3275989837
 11
68.6859949622
 21
132.4263080176
  0
LINE
  8
SURFACE
 62
7
  6
CONTINUOUS
 10
62.3359949622
 20
156.4267761426
 11
63.0661344397
 21
153.5412930225
  0
LINE
  8
SURFACE
 62
7
  6
CONTINUOUS
 10
74.6768285672
 20
132.4263080176
 11
73.9426890898
 21
135.3275989837
  0
LINE
  8
SURFACE
 62
7
  6
CONTINUOUS
 10
73.9426890898
 20
135.3275989837
 11
73.9274117647
 21
135.4502526766
  0
POLYLINE
  8
AXES
 62
7
  6
CONTINUOUS
 66
1
 70
0
  0
VERTEX
  8
AXES
 62
7
  6
CONTINUOUS
 10
67.5951479353
 20
146.9879743844
  0
VERTEX
  8
AXES
 62
7
  6
CONTINUOUS
 10
67.5922015522
 20
147.0121625188
  0
VERTEX
  8
AXES
 62
7
  6
CONTINUOUS
 10
67.5855489355
 20
147.0842598878
  0
VERTEX
  8
AXES
 62
7
  6
CONTINUOUS
 10
67.5814117647
 20
147.2023257564
  0
SEQEND
  0
LINE
  8
SURFACE
 62
7
  6
CONTINUOUS
 10
80.2814117647
 20
146.4204828904
 11
80.2814117647
 21
153.4186393296
  0
LINE
  8
SURFACE
 62
7
  6
CONTINUOUS
 10
81.0314117647
 20
159.9374641272
 11
81.0314117647
 21
156.4635722504
  0
LINE
  8
SURFACE
 62
7
  6
CONTINUOUS
 10
81.3814117647
 20
132.3895119097
 11
81.3814117647
 21
128.1379743844
  0
LINE
  8
SURFACE
 62
7
  6
CONTINUOUS
 10
82.1354117647
 20
139.6339743844
 11
82.1354117647
 21
135.4502526766
  0
LINE
  8
SURFACE
 62
7
  6
CONTINUOUS
 10
86.6274117647
 20
135.4502526766
 11
86.6274117647
 21
139.6339743844
  0
LINE
  8
SURFACE
 62
7
  6
CONTINUOUS
 10
87.3814117647
 20
128.1379743844
 11
87.3814117647
 21
132.3895119097
  0
LINE
  8
SURFACE
 62
7
  6
CONTINUOUS
 10
80.2966890898
 20
153.5412930225
 11
81.0268285672
 21
156.4267761426
  0
LINE
  8
SURFACE
 62
7
  6
CONTINUOUS
 10
82.1201344397
 20
135.3275989837
 11
81.3859949622
 21
132.4263080176
  0
LINE
  8
SURFACE
 62
7
  6
CONTINUOUS
 10
75.0359949622
 20
156.4267761426
 11
75.7661344397
 21
153.5412930225
  0
LINE
  8
SURFACE
 62
7
  6
CONTINUOUS
 10
87.3768285672
 20
132.4263080176
 11
86.6426890898
 21
135.3275989837
  0
LINE
  8
SURFACE
 62
7
  6
CONTINUOUS
 10
75.7661344397
 20
153.5412930225
 11
75.7814117647
 21
153.4186393296
  0
LINE
  8
SURFACE
 62
7
  6
CONTINUOUS
 10
86.6426890898
 20
135.3275989837
 11
86.6274117647
 21
135.4502526766
  0
POLYLINE
  8
AXES
 62
7
  6
CONTINUOUS
 66
1
 70
0
  0
VERTEX
  8
AXES
 62
7
  6
CONTINUOUS
 10
80.2951479353
 20
146.9879743844
  0
VERTEX
  8
AXES
 62
7
  6
CONTINUOUS
 10
80.2922015522
 20
147.0121625188
  0
VERTEX
  8
AXES
 62
7
  6
CONTINUOUS
 10
80.2855489355
 20
147.0842598878
  0
VERTEX
  8
AXES
 62
7
  6
CONTINUOUS
 10
80.2814117647
 20
147.2023257564
  0
SEQEND
  0
LINE
  8
SURFACE
 62
7
  6
CONTINUOUS
 10
87.7314117647
 20
159.9374641272
 11
87.7314117647
 21
156.4635722504
  0
LINE
  8
SURFACE
 62
7
  6
CONTINUOUS
 10
88.4814117647
 20
153.4186393296
 11
88.4814117647
 21
146.4205335615
  0
LINE
  8
SURFACE
 62
7
  6
CONTINUOUS
 10
92.9814117647
 20
146.4204828904
 11
92.9814117647
 21
153.4186393296
  0
LINE
  8
SURFACE
 62
7
  6
CONTINUOUS
 10
93.7314117647
 20
159.9374641272
 11
93.7314117647
 21
156.4635722504
  0
LINE
  8
SURFACE
 62
7
  6
CONTINUOUS
 10
94.0814117647
 20
132.3895119097
 11
94.0814117647
 21
128.1379743844
  0
LINE
  8
SURFACE
 62
7
  6
CONTINUOUS
 10
94.8354117647
 20
139.6339743844
 11
94.8354117647
 21
135.4502526766
  0
POLYLINE
  8
AXES
 62
7
  6
CONTINUOUS
 66
1
 70
0
  0
VERTEX
  8
AXES
 62
7
  6
CONTINUOUS
 10
88.4814117647
 20
147.2023257564
  0
VERTEX
  8
AXES
 62
7
  6
CONTINUOUS
 10
88.4772746411
 20
147.0842605587
  0
VERTEX
  8
AXES
 62
7
  6
CONTINUOUS
 10
88.4706219803
 20
147.0121625457
  0
VERTEX
  8
AXES
 62
7
  6
CONTINUOUS
 10
88.4676755941
 20
146.9879743844
  0
SEQEND
  0
LINE
  8
SURFACE
 62
7
  6
CONTINUOUS
 10
92.9966890898
 20
153.5412930225
 11
93.7268285672
 21
156.4267761426
  0
LINE
  8
SURFACE
 62
7
  6
CONTINUOUS
 10
87.7359949622
 20
156.4267761426
 11
88.4661344397
 21
153.5412930225
  0
LINE
  8
SURFACE
 62
7
  6
CONTINUOUS
 10
88.4661344397
 20
153.5412930225
 11
88.4814117647
 21
153.4186393296
  0
POLYLINE
  8
AXES
 62
7
  6
CONTINUOUS
 66
1
 70
0
  0
VERTEX
  8
AXES
 62
7
  6
CONTINUOUS
 10
92.9951479353
 20
146.9879743844
  0
VERTEX
  8
AXES
 62
7
  6
CONTINUOUS
 10
92.9922015522
 20
147.0121625188
  0
VERTEX
  8
AXES
 62
7
  6
CONTINUOUS
 10
92.9855489355
 20
147.0842598878
  0
VERTEX
  8
AXES
 62
7
  6
CONTINUOUS
 10
92.9814117647
 20
147.2023257564
  0
SEQEND
  0
LINE
  8
SURFACE
 62
7
  6
CONTINUOUS
 10
99.3274117647
 20
135.4502526766
 11
99.3274117647
 21
139.6339743844
  0
LINE
  8
SURFACE
 62
7
  6
CONTINUOUS
 10
100.0814117647
 20
128.1379743844
 11
100.0814117647
 21
132.3895119097
  0
LINE
  8
SURFACE
 62
7
  6
CONTINUOUS
 10
100.4314117647
 20
159.9374641272
 11
100.4314117647
 21
156.4635722504
  0
LINE
  8
SURFACE
 62
7
  6
CONTINUOUS
 10
101.1814117647
 20
153.4186393296
 11
101.1814117647
 21
146.4205335615
  0
LINE
  8
SURFACE
 62
7
  6
CONTINUOUS
 10
105.6814117647
 20
146.4204828904
 11
105.6814117647
 21
153.4186393296
  0
LINE
  8
SURFACE
 62
7
  6
CONTINUOUS
 10
106.4314117647
 20
159.9374641272
 11
106.4314117647
 21
156.4635722504
  0
LINE
  8
SURFACE
 62
7
  6
CONTINUOUS
 10
106.7814117647
 20
132.3895119097
 11
106.7814117647
 21
128.1379743844
  0
LINE
  8
SURFACE
 62
7
  6
CONTINUOUS
 10
107.5354117647
 20
139.6339743844
 11
107.5354117647
 21
135.4502526766
  0
POLYLINE
  8
AXES
 62
7
  6
CONTINUOUS
 66
1
 70
0
  0
VERTEX
  8
AXES
 62
7
  6
CONTINUOUS
 10
101.1814117647
 20
147.2023257564
  0
VERTEX
  8
AXES
 62
7
  6
CONTINUOUS
 10
101.1772746411
 20
147.0842605587
  0
VERTEX
  8
AXES
 62
7
  6
CONTINUOUS
 10
101.1706219803
 20
147.0121625457
  0
VERTEX
  8
AXES
 62
7
  6
CONTINUOUS
 10
101.1676755941
 20
146.9879743844
  0
SEQEND
  0
LINE
  8
SURFACE
 62
7
  6
CONTINUOUS
 10
94.8201344397
 20
135.3275989837
 11
94.0859949622
 21
132.4263080176
  0
LINE
  8
SURFACE
 62
7
  6
CONTINUOUS
 10
105.6966890898
 20
153.5412930225
 11
106.4268285672
 21
156.4267761426
  0
LINE
  8
SURFACE
 62
7
  6
CONTINUOUS
 10
100.0768285672
 20
132.4263080176
 11
99.3426890898
 21
135.3275989837
  0
LINE
  8
SURFACE
 62
7
  6
CONTINUOUS
 10
100.4359949622
 20
156.4267761426
 11
101.1661344397
 21
153.5412930225
  0
LINE
  8
SURFACE
 62
7
  6
CONTINUOUS
 10
99.3426890898
 20
135.3275989837
 11
99.3274117647
 21
135.4502526766
  0
LINE
  8
SURFACE
 62
7
  6
CONTINUOUS
 10
101.1661344397
 20
153.5412930225
 11
101.1814117647
 21
153.4186393296
  0
POLYLINE
  8
AXES
 62
7
  6
CONTINUOUS
 66
1
 70
0
  0
VERTEX
  8
AXES
 62
7
  6
CONTINUOUS
 10
105.6951479353
 20
146.9879743844
  0
VERTEX
  8
AXES
 62
7
  6
CONTINUOUS
 10
105.6922015522
 20
147.0121625188
  0
VERTEX
  8
AXES
 62
7
  6
CONTINUOUS
 10
105.6855489355
 20
147.0842598878
  0
VERTEX
  8
AXES
 62
7
  6
CONTINUOUS
 10
105.6814117647
 20
147.2023257564
  0
SEQEND
  0
LINE
  8
SURFACE
 62
7
  6
CONTINUOUS
 10
112.0274117647
 20
135.4502526766
 11
112.0274117647
 21
139.6339743844
  0
LINE
  8
SURFACE
 62
7
  6
CONTINUOUS
 10
112.7814117647
 20
128.1379743844
 11
112.7814117647
 21
132.3895119097
  0
LINE
  8
SURFACE
 62
7
  6
CONTINUOUS
 10
113.1314117647
 20
159.9374641272
 11
113.1314117647
 21
156.4635722504
  0
LINE
  8
SURFACE
 62
7
  6
CONTINUOUS
 10
113.8814117647
 20
153.4186393296
 11
113.8814117647
 21
146.4205335615
  0
LINE
  8
SURFACE
 62
7
  6
CONTINUOUS
 10
118.3814117647
 20
146.4204828904
 11
118.3814117647
 21
153.4186393296
  0
POLYLINE
  8
AXES
 62
7
  6
CONTINUOUS
 66
1
 70
0
  0
VERTEX
  8
AXES
 62
7
  6
CONTINUOUS
 10
113.8814117647
 20
147.2023257564
  0
VERTEX
  8
AXES
 62
7
  6
CONTINUOUS
 10
113.8772746411
 20
147.0842605587
  0
VERTEX
  8
AXES
 62
7
  6
CONTINUOUS
 10
113.8706219803
 20
147.0121625457
  0
VERTEX
  8
AXES
 62
7
  6
CONTINUOUS
 10
113.8676755941
 20
146.9879743844
  0
SEQEND
  0
LINE
  8
SURFACE
 62
7
  6
CONTINUOUS
 10
107.5201344397
 20
135.3275989837
 11
106.7859949622
 21
132.4263080176
  0
LINE
  8
SURFACE
 62
7
  6
CONTINUOUS
 10
118.3966890898
 20
153.5412930225
 11
119.1268285672
 21
156.4267761426
  0
LINE
  8
SURFACE
 62
7
  6
CONTINUOUS
 10
112.7768285672
 20
132.4263080176
 11
112.0426890898
 21
135.3275989837
  0
LINE
  8
SURFACE
 62
7
  6
CONTINUOUS
 10
113.1359949622
 20
156.4267761426
 11
113.8661344397
 21
153.5412930225
  0
LINE
  8
SURFACE
 62
7
  6
CONTINUOUS
 10
112.0426890898
 20
135.3275989837
 11
112.0274117647
 21
135.4502526766
  0
LINE
  8
SURFACE
 62
7
  6
CONTINUOUS
 10
113.8661344397
 20
153.5412930225
 11
113.8814117647
 21
153.4186393296
  0
LINE
  8
SURFACE
 62
7
  6
CONTINUOUS
 10
119.1314117647
 20
159.9374641272
 11
119.1314117647
 21
156.4635722504
  0
LINE
  8
SURFACE
 62
7
  6
CONTINUOUS
 10
119.4814117647
 20
132.3895119097
 11
119.4814117647
 21
128.1379743844
  0
LINE
  8
SURFACE
 62
7
  6
CONTINUOUS
 10
120.2354117647
 20
139.6339743844
 11
120.2354117647
 21
135.4502526766
  0
LINE
  8
SURFACE
 62
7
  6
CONTINUOUS
 10
124.7274117647
 20
135.4502526766
 11
124.7274117647
 21
139.6339743844
  0
LINE
  8
SURFACE
 62
7
  6
CONTINUOUS
 10
125.4814117647
 20
128.1379743844
 11
125.4814117647
 21
132.3895119097
  0
LINE
  8
SURFACE
 62
7
  6
CONTINUOUS
 10
125.8314117647
 20
159.9374641272
 11
125.8314117647
 21
156.4635722504
  0
LINE
  8
SURFACE
 62
7
  6
CONTINUOUS
 10
126.5814117647
 20
153.4186393296
 11
126.5814117647
 21
146.4205335615
  0
POLYLINE
  8
AXES
 62
7
  6
CONTINUOUS
 66
1
 70
0
  0
VERTEX
  8
AXES
 62
7
  6
CONTINUOUS
 10
126.5814117647
 20
147.2023257564
  0
VERTEX
  8
AXES
 62
7
  6
CONTINUOUS
 10
126.5772746411
 20
147.0842605587
  0
VERTEX
  8
AXES
 62
7
  6
CONTINUOUS
 10
126.5706219803
 20
147.0121625457
  0
VERTEX
  8
AXES
 62
7
  6
CONTINUOUS
 10
126.5676755941
 20
146.9879743844
  0
SEQEND
  0
LINE
  8
SURFACE
 62
7
  6
CONTINUOUS
 10
120.2201344397
 20
135.3275989837
 11
119.4859949622
 21
132.4263080176
  0
LINE
  8
SURFACE
 62
7
  6
CONTINUOUS
 10
125.4768285672
 20
132.4263080176
 11
124.7426890898
 21
135.3275989837
  0
LINE
  8
SURFACE
 62
7
  6
CONTINUOUS
 10
124.7426890898
 20
135.3275989837
 11
124.7274117647
 21
135.4502526766
  0
LINE
  8
SURFACE
 62
7
  6
CONTINUOUS
 10
126.5661344397
 20
153.5412930225
 11
126.5814117647
 21
153.4186393296
  0
POLYLINE
  8
AXES
 62
7
  6
CONTINUOUS
 66
1
 70
0
  0
VERTEX
  8
AXES
 62
7
  6
CONTINUOUS
 10
118.3951479353
 20
146.9879743844
  0
VERTEX
  8
AXES
 62
7
  6
CONTINUOUS
 10
118.3922015522
 20
147.0121625188
  0
VERTEX
  8
AXES
 62
7
  6
CONTINUOUS
 10
118.3855489355
 20
147.0842598878
  0
VERTEX
  8
AXES
 62
7
  6
CONTINUOUS
 10
118.3814117647
 20
147.2023257564
  0
SEQEND
  0
LINE
  8
SURFACE
 62
7
  6
CONTINUOUS
 10
131.0814117647
 20
146.4204828904
 11
131.0814117647
 21
153.4186393296
  0
LINE
  8
SURFACE
 62
7
  6
CONTINUOUS
 10
131.8314117647
 20
159.9374641272
 11
131.8314117647
 21
156.4635722504
  0
LINE
  8
SURFACE
 62
7
  6
CONTINUOUS
 10
132.1814117647
 20
132.3895119097
 11
132.1814117647
 21
128.1379743844
  0
LINE
  8
SURFACE
 62
7
  6
CONTINUOUS
 10
132.9354117647
 20
139.6339743844
 11
132.9354117647
 21
135.4502526766
  0
LINE
  8
SURFACE
 62
7
  6
CONTINUOUS
 10
137.4274117647
 20
135.4502526766
 11
137.4274117647
 21
139.6339743844
  0
LINE
  8
SURFACE
 62
7
  6
CONTINUOUS
 10
138.1814117647
 20
128.1379743844
 11
138.1814117647
 21
132.3895119097
  0
LINE
  8
SURFACE
 62
7
  6
CONTINUOUS
 10
138.5314117647
 20
159.9374641272
 11
138.5314117647
 21
156.4635722504
  0
LINE
  8
SURFACE
 62
7
  6
CONTINUOUS
 10
131.0966890898
 20
153.5412930225
 11
131.8268285672
 21
156.4267761426
  0
LINE
  8
SURFACE
 62
7
  6
CONTINUOUS
 10
132.9201344397
 20
135.3275989837
 11
132.1859949622
 21
132.4263080176
  0
LINE
  8
SURFACE
 62
7
  6
CONTINUOUS
 10
125.8359949622
 20
156.4267761426
 11
126.5661344397
 21
153.5412930225
  0
LINE
  8
SURFACE
 62
7
  6
CONTINUOUS
 10
138.1768285672
 20
132.4263080176
 11
137.4426890898
 21
135.3275989837
  0
LINE
  8
SURFACE
 62
7
  6
CONTINUOUS
 10
137.4426890898
 20
135.3275989837
 11
137.4274117647
 21
135.4502526766
  0
POLYLINE
  8
AXES
 62
7
  6
CONTINUOUS
 66
1
 70
0
  0
VERTEX
  8
AXES
 62
7
  6
CONTINUOUS
 10
131.0951479353
 20
146.9879743844
  0
VERTEX
  8
AXES
 62
7
  6
CONTINUOUS
 10
131.0922015522
 20
147.0121625188
  0
VERTEX
  8
AXES
 62
7
  6
CONTINUOUS
 10
131.0855489355
 20
147.0842598878
  0
VERTEX
  8
AXES
 62
7
  6
CONTINUOUS
 10
131.0814117647
 20
147.2023257564
  0
SEQEND
  0
LINE
  8
SURFACE
 62
7
  6
CONTINUOUS
 10
139.2814117647
 20
153.4186393296
 11
139.2814117647
 21
146.4205335615
  0
LINE
  8
SURFACE
 62
7
  6
CONTINUOUS
 10
143.7814117647
 20
146.4204828904
 11
143.7814117647
 21
153.4186393296
  0
LINE
  8
SURFACE
 62
7
  6
CONTINUOUS
 10
144.5314117647
 20
159.9374641272
 11
144.5314117647
 21
156.4635722504
  0
LINE
  8
SURFACE
 62
7
  6
CONTINUOUS
 10
144.8814117647
 20
132.3895119097
 11
144.8814117647
 21
128.1379743844
  0
LINE
  8
SURFACE
 62
7
  6
CONTINUOUS
 10
145.6354117647
 20
139.6339743844
 11
145.6354117647
 21
135.4502526766
  0
POLYLINE
  8
AXES
 62
7
  6
CONTINUOUS
 66
1
 70
0
  0
VERTEX
  8
AXES
 62
7
  6
CONTINUOUS
 10
139.2814117647
 20
147.2023257564
  0
VERTEX
  8
AXES
 62
7
  6
CONTINUOUS
 10
139.2772746411
 20
147.0842605587
  0
VERTEX
  8
AXES
 62
7
  6
CONTINUOUS
 10
139.2706219803
 20
147.0121625457
  0
VERTEX
  8
AXES
 62
7
  6
CONTINUOUS
 10
139.2676755941
 20
146.9879743844
  0
SEQEND
  0
LINE
  8
SURFACE
 62
7
  6
CONTINUOUS
 10
143.7966890898
 20
153.5412930225
 11
144.5268285672
 21
156.4267761426
  0
LINE
  8
SURFACE
 62
7
  6
CONTINUOUS
 10
145.6201344397
 20
135.3275989837
 11
144.8859949622
 21
132.4263080176
  0
LINE
  8
SURFACE
 62
7
  6
CONTINUOUS
 10
138.5359949622
 20
156.4267761426
 11
139.2661344397
 21
153.5412930225
  0
LINE
  8
SURFACE
 62
7
  6
CONTINUOUS
 10
150.8768285672
 20
132.4263080176
 11
150.1426890898
 21
135.3275989837
  0
LINE
  8
SURFACE
 62
7
  6
CONTINUOUS
 10
139.2661344397
 20
153.5412930225
 11
139.2814117647
 21
153.4186393296
  0
LINE
  8
SURFACE
 62
7
  6
CONTINUOUS
 10
150.1426890898
 20
135.3275989837
 11
150.1274117647
 21
135.4502526766
  0
POLYLINE
  8
AXES
 62
7
  6
CONTINUOUS
 66
1
 70
0
  0
VERTEX
  8
AXES
 62
7
  6
CONTINUOUS
 10
143.7951479353
 20
146.9879743844
  0
VERTEX
  8
AXES
 62
7
  6
CONTINUOUS
 10
143.7922015522
 20
147.0121625188
  0
VERTEX
  8
AXES
 62
7
  6
CONTINUOUS
 10
143.7855489355
 20
147.0842598878
  0
VERTEX
  8
AXES
 62
7
  6
CONTINUOUS
 10
143.7814117647
 20
147.2023257564
  0
SEQEND
  0
LINE
  8
SURFACE
 62
7
  6
CONTINUOUS
 10
150.1274117647
 20
135.4502526766
 11
150.1274117647
 21
139.6339743844
  0
LINE
  8
SURFACE
 62
7
  6
CONTINUOUS
 10
150.8814117647
 20
128.1379743844
 11
150.8814117647
 21
132.3895119097
  0
LINE
  8
SURFACE
 62
7
  6
CONTINUOUS
 10
151.2314117647
 20
159.9374641272
 11
151.2314117647
 21
156.4635722504
  0
LINE
  8
SURFACE
 62
7
  6
CONTINUOUS
 10
151.9814117647
 20
153.4186393296
 11
151.9814117647
 21
146.4205335615
  0
LINE
  8
SURFACE
 62
7
  6
CONTINUOUS
 10
156.4814117647
 20
146.4204828904
 11
156.4814117647
 21
153.4186393296
  0
LINE
  8
SURFACE
 62
7
  6
CONTINUOUS
 10
157.2314117647
 20
159.9374641272
 11
157.2314117647
 21
156.4635722504
  0
LINE
  8
SURFACE
 62
7
  6
CONTINUOUS
 10
157.5814117647
 20
132.3895119097
 11
157.5814117647
 21
128.1379743844
  0
LINE
  8
SURFACE
 62
7
  6
CONTINUOUS
 10
158.3354117647
 20
139.6339743844
 11
158.3354117647
 21
135.4502526766
  0
POLYLINE
  8
AXES
 62
7
  6
CONTINUOUS
 66
1
 70
0
  0
VERTEX
  8
AXES
 62
7
  6
CONTINUOUS
 10
151.9814117647
 20
147.2023257564
  0
VERTEX
  8
AXES
 62
7
  6
CONTINUOUS
 10
151.9772746411
 20
147.0842605587
  0
VERTEX
  8
AXES
 62
7
  6
CONTINUOUS
 10
151.9706219803
 20
147.0121625457
  0
VERTEX
  8
AXES
 62
7
  6
CONTINUOUS
 10
151.9676755941
 20
146.9879743844
  0
SEQEND
  0
LINE
  8
SURFACE
 62
7
  6
CONTINUOUS
 10
156.4966890898
 20
153.5412930225
 11
157.2268285672
 21
156.4267761426
  0
LINE
  8
SURFACE
 62
7
  6
CONTINUOUS
 10
151.2359949622
 20
156.4267761426
 11
151.9661344397
 21
153.5412930225
  0
LINE
  8
SURFACE
 62
7
  6
CONTINUOUS
 10
151.9661344397
 20
153.5412930225
 11
151.9814117647
 21
153.4186393296
  0
POLYLINE
  8
AXES
 62
7
  6
CONTINUOUS
 66
1
 70
0
  0
VERTEX
  8
AXES
 62
7
  6
CONTINUOUS
 10
156.4951479353
 20
146.9879743844
  0
VERTEX
  8
AXES
 62
7
  6
CONTINUOUS
 10
156.4922015522
 20
147.0121625188
  0
VERTEX
  8
AXES
 62
7
  6
CONTINUOUS
 10
156.4855489355
 20
147.0842598878
  0
VERTEX
  8
AXES
 62
7
  6
CONTINUOUS
 10
156.4814117647
 20
147.2023257564
  0
SEQEND
  0
LINE
  8
SURFACE
 62
7
  6
CONTINUOUS
 10
162.8274117647
 20
135.4502526766
 11
162.8274117647
 21
139.6339743844
  0
LINE
  8
SURFACE
 62
7
  6
CONTINUOUS
 10
163.5814117647
 20
128.1379743844
 11
163.5814117647
 21
132.3895119097
  0
LINE
  8
SURFACE
 62
7
  6
CONTINUOUS
 10
163.9314117647
 20
159.9374641272
 11
163.9314117647
 21
156.4635722504
  0
LINE
  8
SURFACE
 62
7
  6
CONTINUOUS
 10
164.6814117647
 20
153.4186393296
 11
164.6814117647
 21
146.4205335615
  0
LINE
  8
SURFACE
 62
7
  6
CONTINUOUS
 10
169.1814117647
 20
146.4204828904
 11
169.1814117647
 21
153.4186393296
  0
LINE
  8
SURFACE
 62
7
  6
CONTINUOUS
 10
169.9314117647
 20
159.9374641272
 11
169.9314117647
 21
156.4635722504
  0
POLYLINE
  8
AXES
 62
7
  6
CONTINUOUS
 66
1
 70
0
  0
VERTEX
  8
AXES
 62
7
  6
CONTINUOUS
 10
164.6814117647
 20
147.2023257564
  0
VERTEX
  8
AXES
 62
7
  6
CONTINUOUS
 10
164.6772746411
 20
147.0842605587
  0
VERTEX
  8
AXES
 62
7
  6
CONTINUOUS
 10
164.6706219803
 20
147.0121625457
  0
VERTEX
  8
AXES
 62
7
  6
CONTINUOUS
 10
164.6676755941
 20
146.9879743844
  0
SEQEND
  0
LINE
  8
SURFACE
 62
7
  6
CONTINUOUS
 10
158.3201344397
 20
135.3275989837
 11
157.5859949622
 21
132.4263080176
  0
LINE
  8
SURFACE
 62
7
  6
CONTINUOUS
 10
169.1966890898
 20
153.5412930225
 11
169.9268285672
 21
156.4267761426
  0
LINE
  8
SURFACE
 62
7
  6
CONTINUOUS
 10
163.5768285672
 20
132.4263080176
 11
162.8426890898
 21
135.3275989837
  0
LINE
  8
SURFACE
 62
7
  6
CONTINUOUS
 10
163.9359949622
 20
156.4267761426
 11
164.6661344397
 21
153.5412930225
  0
LINE
  8
SURFACE
 62
7
  6
CONTINUOUS
 10
162.8426890898
 20
135.3275989837
 11
162.8274117647
 21
135.4502526766
  0
LINE
  8
SURFACE
 62
7
  6
CONTINUOUS
 10
164.6661344397
 20
153.5412930225
 11
164.6814117647
 21
153.4186393296
  0
POLYLINE
  8
AXES
 62
7
  6
CONTINUOUS
 66
1
 70
0
  0
VERTEX
  8
AXES
 62
7
  6
CONTINUOUS
 10
169.1951479353
 20
146.9879743844
  0
VERTEX
  8
AXES
 62
7
  6
CONTINUOUS
 10
169.1922015522
 20
147.0121625188
  0
VERTEX
  8
AXES
 62
7
  6
CONTINUOUS
 10
169.1855489355
 20
147.0842598878
  0
VERTEX
  8
AXES
 62
7
  6
CONTINUOUS
 10
169.1814117647
 20
147.2023257564
  0
SEQEND
  0
LINE
  8
SURFACE
 62
7
  6
CONTINUOUS
 10
170.2814117647
 20
132.3895119097
 11
170.2814117647
 21
128.1379743844
  0
LINE
  8
SURFACE
 62
7
  6
CONTINUOUS
 10
171.0354117647
 20
139.6339743844
 11
171.0354117647
 21
135.4502526766
  0
LINE
  8
SURFACE
 62
7
  6
CONTINUOUS
 10
175.5274117647
 20
135.4502526766
 11
175.5274117647
 21
139.6339743844
  0
LINE
  8
SURFACE
 62
7
  6
CONTINUOUS
 10
176.2814117647
 20
128.1379743844
 11
176.2814117647
 21
132.3895119097
  0
LINE
  8
SURFACE
 62
7
  6
CONTINUOUS
 10
176.6314117647
 20
159.9374641272
 11
176.6314117647
 21
156.4635722504
  0
LINE
  8
SURFACE
 62
7
  6
CONTINUOUS
 10
177.3814117647
 20
153.4186393296
 11
177.3814117647
 21
146.4205335615
  0
POLYLINE
  8
AXES
 62
7
  6
CONTINUOUS
 66
1
 70
0
  0
VERTEX
  8
AXES
 62
7
  6
CONTINUOUS
 10
177.3814117647
 20
147.2023257564
  0
VERTEX
  8
AXES
 62
7
  6
CONTINUOUS
 10
177.3772746411
 20
147.0842605587
  0
VERTEX
  8
AXES
 62
7
  6
CONTINUOUS
 10
177.3706219803
 20
147.0121625457
  0
VERTEX
  8
AXES
 62
7
  6
CONTINUOUS
 10
177.3676755941
 20
146.9879743844
  0
SEQEND
  0
LINE
  8
SURFACE
 62
7
  6
CONTINUOUS
 10
171.0201344397
 20
135.3275989837
 11
170.2859949622
 21
132.4263080176
  0
LINE
  8
SURFACE
 62
7
  6
CONTINUOUS
 10
181.8966890898
 20
153.5412930225
 11
182.6268285672
 21
156.4267761426
  0
LINE
  8
0
 62
7
  6
CONTINUOUS
 10
327.9314117647
 20
127.3879743844
 11
323.4314117647
 21
127.3879743844
  0
LINE
  8
0
 62
7
  6
CONTINUOUS
 10
315.2314117647
 20
127.3879743844
 11
310.7314117647
 21
127.3879743844
  0
LINE
  8
0
 62
7
  6
CONTINUOUS
 10
302.5314117647
 20
127.3879743844
 11
298.0314117647
 21
127.3879743844
  0
LINE
  8
0
 62
7
  6
CONTINUOUS
 10
289.8314117647
 20
127.3879743844
 11
285.3314117647
 21
127.3879743844
  0
LINE
  8
0
 62
7
  6
CONTINUOUS
 10
277.1314117647
 20
127.3879743844
 11
272.6314117647
 21
127.3879743844
  0
LINE
  8
0
 62
7
  6
CONTINUOUS
 10
264.4314117647
 20
127.3879743844
 11
259.9314117647
 21
127.3879743844
  0
LINE
  8
0
 62
7
  6
CONTINUOUS
 10
251.7314117647
 20
127.3879743844
 11
247.2314117647
 21
127.3879743844
  0
LINE
  8
0
 62
7
  6
CONTINUOUS
 10
239.0314117647
 20
127.3879743844
 11
234.5314117647
 21
127.3879743844
  0
LINE
  8
0
 62
7
  6
CONTINUOUS
 10
226.3314117647
 20
127.3879743844
 11
221.8314117647
 21
127.3879743844
  0
LINE
  8
0
 62
7
  6
CONTINUOUS
 10
213.6314117647
 20
127.3879743844
 11
209.1314117647
 21
127.3879743844
  0
LINE
  8
0
 62
7
  6
CONTINUOUS
 10
200.9314117647
 20
127.3879743844
 11
196.4314117647
 21
127.3879743844
  0
LINE
  8
0
 62
7
  6
CONTINUOUS
 10
188.2314117647
 20
127.3879743844
 11
183.7314117647
 21
127.3879743844
  0
LINE
  8
0
 62
7
  6
CONTINUOUS
 10
175.5314117647
 20
127.3879743844
 11
171.0314117647
 21
127.3879743844
  0
LINE
  8
0
 62
7
  6
CONTINUOUS
 10
162.8314117647
 20
127.3879743844
 11
158.3314117647
 21
127.3879743844
  0
LINE
  8
0
 62
7
  6
CONTINUOUS
 10
150.1314117647
 20
127.3879743844
 11
145.6314117647
 21
127.3879743844
  0
LINE
  8
0
 62
7
  6
CONTINUOUS
 10
137.4314117647
 20
127.3879743844
 11
132.9314117647
 21
127.3879743844
  0
LINE
  8
0
 62
7
  6
CONTINUOUS
 10
124.7314117647
 20
127.3879743844
 11
120.2314117647
 21
127.3879743844
  0
LINE
  8
0
 62
7
  6
CONTINUOUS
 10
112.0314117647
 20
127.3879743844
 11
107.5314117647
 21
127.3879743844
  0
LINE
  8
0
 62
7
  6
CONTINUOUS
 10
99.3314117647
 20
127.3879743844
 11
94.8314117647
 21
127.3879743844
  0
LINE
  8
0
 62
7
  6
CONTINUOUS
 10
86.6314117647
 20
127.3879743844
 11
82.1314117647
 21
127.3879743844
  0
LINE
  8
0
 62
7
  6
CONTINUOUS
 10
73.9314117647
 20
127.3879743844
 11
69.4314117647
 21
127.3879743844
  0
LINE
  8
0
 62
7
  6
CONTINUOUS
 10
61.2314117647
 20
127.3879743844
 11
56.7314117647
 21
127.3879743844
  0
LINE
  8
0
 62
7
  6
CONTINUOUS
 10
48.5314117647
 20
127.3879743844
 11
44.0314117647
 21
127.3879743844
  0
LINE
  8
0
 62
7
  6
CONTINUOUS
 10
336.1314117647
 20
127.3879743844
 11
340.6314117647
 21
127.3879743844
  0
LINE
  8
AXES
 62
2
  6
CENTER
 10
41.2814117647
 20
131.7379743844
 11
343.3814117647
 21
131.7379743844
  0
LINE
  8
SURFACE
 62
7
  6
CONTINUOUS
 10
176.2768285672
 20
132.4263080176
 11
175.5426890898
 21
135.3275989837
  0
LINE
  8
SURFACE
 62
7
  6
CONTINUOUS
 10
176.6359949622
 20
156.4267761426
 11
177.3661344397
 21
153.5412930225
  0
LINE
  8
SURFACE
 62
7
  6
CONTINUOUS
 10
175.5426890898
 20
135.3275989837
 11
175.5274117647
 21
135.4502526766
  0
LINE
  8
SURFACE
 62
7
  6
CONTINUOUS
 10
177.3661344397
 20
153.5412930225
 11
177.3814117647
 21
153.4186393296
  0
LINE
  8
SURFACE
 62
7
  6
CONTINUOUS
 10
181.8814117647
 20
146.4204828904
 11
181.8814117647
 21
153.4186393296
  0
LINE
  8
SURFACE
 62
7
  6
CONTINUOUS
 10
182.6314117647
 20
159.9374641272
 11
182.6314117647
 21
156.4635722504
  0
LINE
  8
SURFACE
 62
7
  6
CONTINUOUS
 10
182.9814117647
 20
132.3895119097
 11
182.9814117647
 21
128.1379743844
  0
LINE
  8
SURFACE
 62
7
  6
CONTINUOUS
 10
183.7354117647
 20
139.6339743844
 11
183.7354117647
 21
135.4502526766
  0
LINE
  8
SURFACE
 62
7
  6
CONTINUOUS
 10
188.2274117647
 20
135.4502526766
 11
188.2274117647
 21
139.6339743844
  0
LINE
  8
SURFACE
 62
7
  6
CONTINUOUS
 10
188.9814117647
 20
128.1379743844
 11
188.9814117647
 21
132.3895119097
  0
LINE
  8
DEFAULT_1
 62
2
  6
CENTER
 10
189.1564117647
 20
165.4171864952
 11
189.1564117647
 21
146.7880743844
  0
LINE
  8
0
 62
2
  6
CONTINUOUS
 10
189.1564117647
 20
145.8379743844
 11
189.1564117647
 21
143.7379743844
  0
LINE
  8
DEFAULT_1
 62
2
  6
CENTER
 10
189.1564117647
 20
124.3674127395
 11
189.1564117647
 21
142.7878743844
  0
LINE
  8
SURFACE
 62
7
  6
CONTINUOUS
 10
189.3314117647
 20
159.9374641272
 11
189.3314117647
 21
156.4635722504
  0
LINE
  8
SURFACE
 62
7
  6
CONTINUOUS
 10
190.0814117647
 20
153.4186393296
 11
190.0814117647
 21
146.4205335615
  0
POLYLINE
  8
AXES
 62
7
  6
CONTINUOUS
 66
1
 70
0
  0
VERTEX
  8
AXES
 62
7
  6
CONTINUOUS
 10
190.0814117647
 20
147.2023257564
  0
VERTEX
  8
AXES
 62
7
  6
CONTINUOUS
 10
190.0772746411
 20
147.0842605587
  0
VERTEX
  8
AXES
 62
7
  6
CONTINUOUS
 10
190.0706219803
 20
147.0121625457
  0
VERTEX
  8
AXES
 62
7
  6
CONTINUOUS
 10
190.0676755941
 20
146.9879743844
  0
SEQEND
  0
LINE
  8
SURFACE
 62
7
  6
CONTINUOUS
 10
183.7201344397
 20
135.3275989837
 11
182.9859949622
 21
132.4263080176
  0
LINE
  8
DEFAULT_1
 62
2
  6
CENTER
 10
349.5150786704
 20
144.7879743844
 11
191.1565117647
 21
144.7879743844
  0
LINE
  8
0
 62
2
  6
CONTINUOUS
 10
190.2064117647
 20
144.7879743844
 11
188.1064117647
 21
144.7879743844
  0
LINE
  8
DEFAULT_1
 62
2
  6
CENTER
 10
29.5834044623
 20
144.7879743844
 11
187.1563117647
 21
144.7879743844
  0
LINE
  8
0
 62
7
  6
CONTINUOUS
 10
340.4774117647
 20
145.2219743844
 11
336.2814117647
 21
145.2219743844
  0
LINE
  8
0
 62
7
  6
CONTINUOUS
 10
327.7814117647
 20
145.2219743844
 11
323.5814117647
 21
145.2219743844
  0
LINE
  8
SURFACE
 62
7
  6
CONTINUOUS
 10
315.0814117647
 20
145.2219743844
 11
310.8814117647
 21
145.2219743844
  0
LINE
  8
SURFACE
 62
7
  6
CONTINUOUS
 10
302.3814117647
 20
145.2219743844
 11
298.1814117647
 21
145.2219743844
  0
LINE
  8
SURFACE
 62
7
  6
CONTINUOUS
 10
289.6814117647
 20
145.2219743844
 11
285.4814117647
 21
145.2219743844
  0
LINE
  8
SURFACE
 62
7
  6
CONTINUOUS
 10
276.9814117647
 20
145.2219743844
 11
272.7814117647
 21
145.2219743844
  0
LINE
  8
SURFACE
 62
7
  6
CONTINUOUS
 10
264.2814117647
 20
145.2219743844
 11
260.0814117647
 21
145.2219743844
  0
LINE
  8
SURFACE
 62
7
  6
CONTINUOUS
 10
251.5814117647
 20
145.2219743844
 11
247.3814117647
 21
145.2219743844
  0
LINE
  8
SURFACE
 62
7
  6
CONTINUOUS
 10
238.8814117647
 20
145.2219743844
 11
234.6814117647
 21
145.2219743844
  0
LINE
  8
SURFACE
 62
7
  6
CONTINUOUS
 10
226.1814117647
 20
145.2219743844
 11
221.9814117647
 21
145.2219743844
  0
LINE
  8
SURFACE
 62
7
  6
CONTINUOUS
 10
213.4814117647
 20
145.2219743844
 11
209.2814117647
 21
145.2219743844
  0
LINE
  8
SURFACE
 62
7
  6
CONTINUOUS
 10
200.7814117647
 20
145.2219743844
 11
196.5814117647
 21
145.2219743844
  0
LINE
  8
SURFACE
 62
7
  6
CONTINUOUS
 10
188.0814117647
 20
145.2219743844
 11
183.8814117647
 21
145.2219743844
  0
LINE
  8
SURFACE
 62
7
  6
CONTINUOUS
 10
175.3814117647
 20
145.2219743844
 11
171.1814117647
 21
145.2219743844
  0
LINE
  8
SURFACE
 62
7
  6
CONTINUOUS
 10
162.6814117647
 20
145.2219743844
 11
158.4814117647
 21
145.2219743844
  0
LINE
  8
SURFACE
 62
7
  6
CONTINUOUS
 10
149.9814117647
 20
145.2219743844
 11
145.7814117647
 21
145.2219743844
  0
LINE
  8
SURFACE
 62
7
  6
CONTINUOUS
 10
137.2814117647
 20
145.2219743844
 11
133.0814117647
 21
145.2219743844
  0
LINE
  8
SURFACE
 62
7
  6
CONTINUOUS
 10
124.5814117647
 20
145.2219743844
 11
120.3814117647
 21
145.2219743844
  0
LINE
  8
SURFACE
 62
7
  6
CONTINUOUS
 10
111.8814117647
 20
145.2219743844
 11
107.6814117647
 21
145.2219743844
  0
LINE
  8
SURFACE
 62
7
  6
CONTINUOUS
 10
99.1814117647
 20
145.2219743844
 11
94.9814117647
 21
145.2219743844
  0
LINE
  8
SURFACE
 62
7
  6
CONTINUOUS
 10
86.4814117647
 20
145.2219743844
 11
82.2814117647
 21
145.2219743844
  0
LINE
  8
SURFACE
 62
7
  6
CONTINUOUS
 10
73.7814117647
 20
145.2219743844
 11
69.5814117647
 21
145.2219743844
  0
LINE
  8
SURFACE
 62
7
  6
CONTINUOUS
 10
61.0814117647
 20
145.2219743844
 11
56.8814117647
 21
145.2219743844
  0
LINE
  8
SURFACE
 62
7
  6
CONTINUOUS
 10
48.3814117647
 20
145.2219743844
 11
44.1814117647
 21
145.2219743844
  0
LINE
  8
SURFACE
 62
7
  6
CONTINUOUS
 10
188.9768285672
 20
132.4263080176
 11
188.2426890898
 21
135.3275989837
  0
LINE
  8
SURFACE
 62
7
  6
CONTINUOUS
 10
188.2426890898
 20
135.3275989837
 11
188.2274117647
 21
135.4502526766
  0
POLYLINE
  8
AXES
 62
7
  6
CONTINUOUS
 66
1
 70
0
  0
VERTEX
  8
AXES
 62
7
  6
CONTINUOUS
 10
181.8951479353
 20
146.9879743844
  0
VERTEX
  8
AXES
 62
7
  6
CONTINUOUS
 10
181.8922015522
 20
147.0121625188
  0
VERTEX
  8
AXES
 62
7
  6
CONTINUOUS
 10
181.8855489355
 20
147.0842598878
  0
VERTEX
  8
AXES
 62
7
  6
CONTINUOUS
 10
181.8814117647
 20
147.2023257564
  0
SEQEND
  0
LINE
  8
SURFACE
 62
7
  6
CONTINUOUS
 10
194.5814117647
 20
146.4204828904
 11
194.5814117647
 21
153.4186393296
  0
LINE
  8
SURFACE
 62
7
  6
CONTINUOUS
 10
195.3314117647
 20
159.9374641272
 11
195.3314117647
 21
156.4635722504
  0
LINE
  8
SURFACE
 62
7
  6
CONTINUOUS
 10
195.6814117647
 20
132.3895119097
 11
195.6814117647
 21
128.1379743844
  0
LINE
  8
SURFACE
 62
7
  6
CONTINUOUS
 10
196.4354117647
 20
139.6339743844
 11
196.4354117647
 21
135.4502526766
  0
LINE
  8
SURFACE
 62
7
  6
CONTINUOUS
 10
194.5966890898
 20
153.5412930225
 11
195.3268285672
 21
156.4267761426
  0
LINE
  8
SURFACE
 62
7
  6
CONTINUOUS
 10
196.4201344397
 20
135.3275989837
 11
195.6859949622
 21
132.4263080176
  0
LINE
  8
SURFACE
 62
7
  6
CONTINUOUS
 10
189.3359949622
 20
156.4267761426
 11
190.0661344397
 21
153.5412930225
  0
LINE
  8
SURFACE
 62
7
  6
CONTINUOUS
 10
201.6768285672
 20
132.4263080176
 11
200.9426890898
 21
135.3275989837
  0
LINE
  8
SURFACE
 62
7
  6
CONTINUOUS
 10
190.0661344397
 20
153.5412930225
 11
190.0814117647
 21
153.4186393296
  0
LINE
  8
SURFACE
 62
7
  6
CONTINUOUS
 10
200.9426890898
 20
135.3275989837
 11
200.9274117647
 21
135.4502526766
  0
POLYLINE
  8
AXES
 62
7
  6
CONTINUOUS
 66
1
 70
0
  0
VERTEX
  8
AXES
 62
7
  6
CONTINUOUS
 10
194.5951479353
 20
146.9879743844
  0
VERTEX
  8
AXES
 62
7
  6
CONTINUOUS
 10
194.5922015522
 20
147.0121625188
  0
VERTEX
  8
AXES
 62
7
  6
CONTINUOUS
 10
194.5855489355
 20
147.0842598878
  0
VERTEX
  8
AXES
 62
7
  6
CONTINUOUS
 10
194.5814117647
 20
147.2023257564
  0
SEQEND
  0
LINE
  8
SURFACE
 62
7
  6
CONTINUOUS
 10
200.9274117647
 20
135.4502526766
 11
200.9274117647
 21
139.6339743844
  0
LINE
  8
SURFACE
 62
7
  6
CONTINUOUS
 10
201.6814117647
 20
128.1379743844
 11
201.6814117647
 21
132.3895119097
  0
LINE
  8
SURFACE
 62
7
  6
CONTINUOUS
 10
202.0314117647
 20
159.9374641272
 11
202.0314117647
 21
156.4635722504
  0
LINE
  8
SURFACE
 62
7
  6
CONTINUOUS
 10
202.7814117647
 20
153.4186393296
 11
202.7814117647
 21
146.4205335615
  0
LINE
  8
SURFACE
 62
7
  6
CONTINUOUS
 10
207.2814117647
 20
146.4204828904
 11
207.2814117647
 21
153.4186393296
  0
LINE
  8
SURFACE
 62
7
  6
CONTINUOUS
 10
208.0314117647
 20
159.9374641272
 11
208.0314117647
 21
156.4635722504
  0
LINE
  8
SURFACE
 62
7
  6
CONTINUOUS
 10
208.3814117647
 20
132.3895119097
 11
208.3814117647
 21
128.1379743844
  0
LINE
  8
SURFACE
 62
7
  6
CONTINUOUS
 10
209.1354117647
 20
139.6339743844
 11
209.1354117647
 21
135.4502526766
  0
POLYLINE
  8
AXES
 62
7
  6
CONTINUOUS
 66
1
 70
0
  0
VERTEX
  8
AXES
 62
7
  6
CONTINUOUS
 10
202.7814117647
 20
147.2023257564
  0
VERTEX
  8
AXES
 62
7
  6
CONTINUOUS
 10
202.7772746411
 20
147.0842605587
  0
VERTEX
  8
AXES
 62
7
  6
CONTINUOUS
 10
202.7706219803
 20
147.0121625457
  0
VERTEX
  8
AXES
 62
7
  6
CONTINUOUS
 10
202.7676755941
 20
146.9879743844
  0
SEQEND
  0
LINE
  8
SURFACE
 62
7
  6
CONTINUOUS
 10
207.2966890898
 20
153.5412930225
 11
208.0268285672
 21
156.4267761426
  0
LINE
  8
SURFACE
 62
7
  6
CONTINUOUS
 10
209.1201344397
 20
135.3275989837
 11
208.3859949622
 21
132.4263080176
  0
LINE
  8
DEFAULT_1
 62
2
  6
CENTER
 10
34.9314117647
 20
157.1379743844
 11
337.0314117647
 21
157.1379743844
  0
LINE
  8
SURFACE
 62
7
  6
CONTINUOUS
 10
202.0359949622
 20
156.4267761426
 11
202.7661344397
 21
153.5412930225
  0
LINE
  8
SURFACE
 62
7
  6
CONTINUOUS
 10
214.3768285672
 20
132.4263080176
 11
213.6426890898
 21
135.3275989837
  0
LINE
  8
SURFACE
 62
7
  6
CONTINUOUS
 10
202.7661344397
 20
153.5412930225
 11
202.7814117647
 21
153.4186393296
  0
POLYLINE
  8
AXES
 62
7
  6
CONTINUOUS
 66
1
 70
0
  0
VERTEX
  8
AXES
 62
7
  6
CONTINUOUS
 10
207.2951479353
 20
146.9879743844
  0
VERTEX
  8
AXES
 62
7
  6
CONTINUOUS
 10
207.2922015522
 20
147.0121625188
  0
VERTEX
  8
AXES
 62
7
  6
CONTINUOUS
 10
207.2855489355
 20
147.0842598878
  0
VERTEX
  8
AXES
 62
7
  6
CONTINUOUS
 10
207.2814117647
 20
147.2023257564
  0
SEQEND
  0
LINE
  8
SURFACE
 62
7
  6
CONTINUOUS
 10
213.6274117647
 20
135.4502526766
 11
213.6274117647
 21
139.6339743844
  0
LINE
  8
SURFACE
 62
7
  6
CONTINUOUS
 10
214.3814117647
 20
128.1379743844
 11
214.3814117647
 21
132.3895119097
  0
LINE
  8
SURFACE
 62
7
  6
CONTINUOUS
 10
214.7314117647
 20
159.9374641272
 11
214.7314117647
 21
156.4635722504
  0
LINE
  8
SURFACE
 62
7
  6
CONTINUOUS
 10
215.4814117647
 20
153.4186393296
 11
215.4814117647
 21
146.4205335615
  0
LINE
  8
SURFACE
 62
7
  6
CONTINUOUS
 10
219.9814117647
 20
146.4204828904
 11
219.9814117647
 21
153.4186393296
  0
LINE
  8
SURFACE
 62
7
  6
CONTINUOUS
 10
220.7314117647
 20
159.9374641272
 11
220.7314117647
 21
156.4635722504
  0
LINE
  8
SURFACE
 62
7
  6
CONTINUOUS
 10
221.0814117647
 20
132.3895119097
 11
221.0814117647
 21
128.1379743844
  0
POLYLINE
  8
AXES
 62
7
  6
CONTINUOUS
 66
1
 70
0
  0
VERTEX
  8
AXES
 62
7
  6
CONTINUOUS
 10
215.4814117647
 20
147.2023257564
  0
VERTEX
  8
AXES
 62
7
  6
CONTINUOUS
 10
215.4772746411
 20
147.0842605587
  0
VERTEX
  8
AXES
 62
7
  6
CONTINUOUS
 10
215.4706219803
 20
147.0121625457
  0
VERTEX
  8
AXES
 62
7
  6
CONTINUOUS
 10
215.4676755941
 20
146.9879743844
  0
SEQEND
  0
LINE
  8
SURFACE
 62
7
  6
CONTINUOUS
 10
219.9966890898
 20
153.5412930225
 11
220.7268285672
 21
156.4267761426
  0
LINE
  8
SURFACE
 62
7
  6
CONTINUOUS
 10
214.7359949622
 20
156.4267761426
 11
215.4661344397
 21
153.5412930225
  0
LINE
  8
SURFACE
 62
7
  6
CONTINUOUS
 10
213.6426890898
 20
135.3275989837
 11
213.6274117647
 21
135.4502526766
  0
LINE
  8
SURFACE
 62
7
  6
CONTINUOUS
 10
215.4661344397
 20
153.5412930225
 11
215.4814117647
 21
153.4186393296
  0
POLYLINE
  8
AXES
 62
7
  6
CONTINUOUS
 66
1
 70
0
  0
VERTEX
  8
AXES
 62
7
  6
CONTINUOUS
 10
219.9951479353
 20
146.9879743844
  0
VERTEX
  8
AXES
 62
7
  6
CONTINUOUS
 10
219.9922015522
 20
147.0121625188
  0
VERTEX
  8
AXES
 62
7
  6
CONTINUOUS
 10
219.9855489355
 20
147.0842598878
  0
VERTEX
  8
AXES
 62
7
  6
CONTINUOUS
 10
219.9814117647
 20
147.2023257564
  0
SEQEND
  0
LINE
  8
SURFACE
 62
7
  6
CONTINUOUS
 10
221.8354117647
 20
139.6339743844
 11
221.8354117647
 21
135.4502526766
  0
LINE
  8
SURFACE
 62
7
  6
CONTINUOUS
 10
226.3274117647
 20
135.4502526766
 11
226.3274117647
 21
139.6339743844
  0
LINE
  8
SURFACE
 62
7
  6
CONTINUOUS
 10
227.0814117647
 20
128.1379743844
 11
227.0814117647
 21
132.3895119097
  0
LINE
  8
SURFACE
 62
7
  6
CONTINUOUS
 10
227.4314117647
 20
159.9374641272
 11
227.4314117647
 21
156.4635722504
  0
LINE
  8
SURFACE
 62
7
  6
CONTINUOUS
 10
228.1814117647
 20
153.4186393296
 11
228.1814117647
 21
146.4205335615
  0
POLYLINE
  8
AXES
 62
7
  6
CONTINUOUS
 66
1
 70
0
  0
VERTEX
  8
AXES
 62
7
  6
CONTINUOUS
 10
228.1814117647
 20
147.2023257564
  0
VERTEX
  8
AXES
 62
7
  6
CONTINUOUS
 10
228.1772746411
 20
147.0842605587
  0
VERTEX
  8
AXES
 62
7
  6
CONTINUOUS
 10
228.1706219803
 20
147.0121625457
  0
VERTEX
  8
AXES
 62
7
  6
CONTINUOUS
 10
228.1676755941
 20
146.9879743844
  0
SEQEND
  0
LINE
  8
SURFACE
 62
7
  6
CONTINUOUS
 10
221.8201344397
 20
135.3275989837
 11
221.0859949622
 21
132.4263080176
  0
LINE
  8
SURFACE
 62
7
  6
CONTINUOUS
 10
232.6966890898
 20
153.5412930225
 11
233.4268285672
 21
156.4267761426
  0
LINE
  8
SURFACE
 62
7
  6
CONTINUOUS
 10
227.0768285672
 20
132.4263080176
 11
226.3426890898
 21
135.3275989837
  0
LINE
  8
SURFACE
 62
7
  6
CONTINUOUS
 10
227.4359949622
 20
156.4267761426
 11
228.1661344397
 21
153.5412930225
  0
LINE
  8
SURFACE
 62
7
  6
CONTINUOUS
 10
226.3426890898
 20
135.3275989837
 11
226.3274117647
 21
135.4502526766
  0
LINE
  8
SURFACE
 62
7
  6
CONTINUOUS
 10
228.1661344397
 20
153.5412930225
 11
228.1814117647
 21
153.4186393296
  0
LINE
  8
SURFACE
 62
7
  6
CONTINUOUS
 10
232.6814117647
 20
146.4204828904
 11
232.6814117647
 21
153.4186393296
  0
LINE
  8
SURFACE
 62
7
  6
CONTINUOUS
 10
233.4314117647
 20
159.9374641272
 11
233.4314117647
 21
156.4635722504
  0
LINE
  8
SURFACE
 62
7
  6
CONTINUOUS
 10
233.7814117647
 20
132.3895119097
 11
233.7814117647
 21
128.1379743844
  0
LINE
  8
SURFACE
 62
7
  6
CONTINUOUS
 10
234.5354117647
 20
139.6339743844
 11
234.5354117647
 21
135.4502526766
  0
LINE
  8
SURFACE
 62
7
  6
CONTINUOUS
 10
239.0274117647
 20
135.4502526766
 11
239.0274117647
 21
139.6339743844
  0
LINE
  8
SURFACE
 62
7
  6
CONTINUOUS
 10
239.7814117647
 20
128.1379743844
 11
239.7814117647
 21
132.3895119097
  0
LINE
  8
SURFACE
 62
7
  6
CONTINUOUS
 10
240.1314117647
 20
159.9374641272
 11
240.1314117647
 21
156.4635722504
  0
LINE
  8
SURFACE
 62
7
  6
CONTINUOUS
 10
240.8814117647
 20
153.4186393296
 11
240.8814117647
 21
146.4205335615
  0
POLYLINE
  8
AXES
 62
7
  6
CONTINUOUS
 66
1
 70
0
  0
VERTEX
  8
AXES
 62
7
  6
CONTINUOUS
 10
240.8814117647
 20
147.2023257564
  0
VERTEX
  8
AXES
 62
7
  6
CONTINUOUS
 10
240.8772746411
 20
147.0842605587
  0
VERTEX
  8
AXES
 62
7
  6
CONTINUOUS
 10
240.8706219803
 20
147.0121625457
  0
VERTEX
  8
AXES
 62
7
  6
CONTINUOUS
 10
240.8676755941
 20
146.9879743844
  0
SEQEND
  0
LINE
  8
SURFACE
 62
7
  6
CONTINUOUS
 10
234.5201344397
 20
135.3275989837
 11
233.7859949622
 21
132.4263080176
  0
LINE
  8
SURFACE
 62
7
  6
CONTINUOUS
 10
245.3966890898
 20
153.5412930225
 11
246.1268285672
 21
156.4267761426
  0
LINE
  8
SURFACE
 62
7
  6
CONTINUOUS
 10
239.7768285672
 20
132.4263080176
 11
239.0426890898
 21
135.3275989837
  0
LINE
  8
SURFACE
 62
7
  6
CONTINUOUS
 10
240.1359949622
 20
156.4267761426
 11
240.8661344397
 21
153.5412930225
  0
LINE
  8
SURFACE
 62
7
  6
CONTINUOUS
 10
239.0426890898
 20
135.3275989837
 11
239.0274117647
 21
135.4502526766
  0
LINE
  8
SURFACE
 62
7
  6
CONTINUOUS
 10
240.8661344397
 20
153.5412930225
 11
240.8814117647
 21
153.4186393296
  0
POLYLINE
  8
AXES
 62
7
  6
CONTINUOUS
 66
1
 70
0
  0
VERTEX
  8
AXES
 62
7
  6
CONTINUOUS
 10
232.6951479353
 20
146.9879743844
  0
VERTEX
  8
AXES
 62
7
  6
CONTINUOUS
 10
232.6922015522
 20
147.0121625188
  0
VERTEX
  8
AXES
 62
7
  6
CONTINUOUS
 10
232.6855489355
 20
147.0842598878
  0
VERTEX
  8
AXES
 62
7
  6
CONTINUOUS
 10
232.6814117647
 20
147.2023257564
  0
SEQEND
  0
LINE
  8
SURFACE
 62
7
  6
CONTINUOUS
 10
245.3814117647
 20
146.4204828904
 11
245.3814117647
 21
153.4186393296
  0
LINE
  8
SURFACE
 62
7
  6
CONTINUOUS
 10
246.1314117647
 20
159.9374641272
 11
246.1314117647
 21
156.4635722504
  0
LINE
  8
SURFACE
 62
7
  6
CONTINUOUS
 10
246.4814117647
 20
132.3895119097
 11
246.4814117647
 21
128.1379743844
  0
LINE
  8
SURFACE
 62
7
  6
CONTINUOUS
 10
247.2354117647
 20
139.6339743844
 11
247.2354117647
 21
135.4502526766
  0
LINE
  8
SURFACE
 62
7
  6
CONTINUOUS
 10
251.7274117647
 20
135.4502526766
 11
251.7274117647
 21
139.6339743844
  0
LINE
  8
SURFACE
 62
7
  6
CONTINUOUS
 10
247.2201344397
 20
135.3275989837
 11
246.4859949622
 21
132.4263080176
  0
LINE
  8
SURFACE
 62
7
  6
CONTINUOUS
 10
252.4768285672
 20
132.4263080176
 11
251.7426890898
 21
135.3275989837
  0
LINE
  8
SURFACE
 62
7
  6
CONTINUOUS
 10
251.7426890898
 20
135.3275989837
 11
251.7274117647
 21
135.4502526766
  0
POLYLINE
  8
AXES
 62
7
  6
CONTINUOUS
 66
1
 70
0
  0
VERTEX
  8
AXES
 62
7
  6
CONTINUOUS
 10
245.3951479353
 20
146.9879743844
  0
VERTEX
  8
AXES
 62
7
  6
CONTINUOUS
 10
245.3922015522
 20
147.0121625188
  0
VERTEX
  8
AXES
 62
7
  6
CONTINUOUS
 10
245.3855489355
 20
147.0842598878
  0
VERTEX
  8
AXES
 62
7
  6
CONTINUOUS
 10
245.3814117647
 20
147.2023257564
  0
SEQEND
  0
LINE
  8
SURFACE
 62
7
  6
CONTINUOUS
 10
252.4814117647
 20
128.1379743844
 11
252.4814117647
 21
132.3895119097
  0
LINE
  8
SURFACE
 62
7
  6
CONTINUOUS
 10
252.8314117647
 20
159.9374641272
 11
252.8314117647
 21
156.4635722504
  0
LINE
  8
SURFACE
 62
7
  6
CONTINUOUS
 10
253.5814117647
 20
153.4186393296
 11
253.5814117647
 21
146.4205335615
  0
LINE
  8
SURFACE
 62
7
  6
CONTINUOUS
 10
258.0814117647
 20
146.4204828904
 11
258.0814117647
 21
153.4186393296
  0
LINE
  8
SURFACE
 62
7
  6
CONTINUOUS
 10
258.8314117647
 20
159.9374641272
 11
258.8314117647
 21
156.4635722504
  0
LINE
  8
SURFACE
 62
7
  6
CONTINUOUS
 10
259.1814117647
 20
132.3895119097
 11
259.1814117647
 21
128.1379743844
  0
LINE
  8
SURFACE
 62
7
  6
CONTINUOUS
 10
259.9354117647
 20
139.6339743844
 11
259.9354117647
 21
135.4502526766
  0
POLYLINE
  8
AXES
 62
7
  6
CONTINUOUS
 66
1
 70
0
  0
VERTEX
  8
AXES
 62
7
  6
CONTINUOUS
 10
253.5814117647
 20
147.2023257564
  0
VERTEX
  8
AXES
 62
7
  6
CONTINUOUS
 10
253.5772746411
 20
147.0842605587
  0
VERTEX
  8
AXES
 62
7
  6
CONTINUOUS
 10
253.5706219803
 20
147.0121625457
  0
VERTEX
  8
AXES
 62
7
  6
CONTINUOUS
 10
253.5676755941
 20
146.9879743844
  0
SEQEND
  0
LINE
  8
SURFACE
 62
7
  6
CONTINUOUS
 10
258.0966890898
 20
153.5412930225
 11
258.8268285672
 21
156.4267761426
  0
LINE
  8
SURFACE
 62
7
  6
CONTINUOUS
 10
259.9201344397
 20
135.3275989837
 11
259.1859949622
 21
132.4263080176
  0
LINE
  8
SURFACE
 62
7
  6
CONTINUOUS
 10
252.8359949622
 20
156.4267761426
 11
253.5661344397
 21
153.5412930225
  0
LINE
  8
SURFACE
 62
7
  6
CONTINUOUS
 10
265.1768285672
 20
132.4263080176
 11
264.4426890898
 21
135.3275989837
  0
LINE
  8
SURFACE
 62
7
  6
CONTINUOUS
 10
253.5661344397
 20
153.5412930225
 11
253.5814117647
 21
153.4186393296
  0
POLYLINE
  8
AXES
 62
7
  6
CONTINUOUS
 66
1
 70
0
  0
VERTEX
  8
AXES
 62
7
  6
CONTINUOUS
 10
258.0951479353
 20
146.9879743844
  0
VERTEX
  8
AXES
 62
7
  6
CONTINUOUS
 10
258.0922015522
 20
147.0121625188
  0
VERTEX
  8
AXES
 62
7
  6
CONTINUOUS
 10
258.0855489355
 20
147.0842598878
  0
VERTEX
  8
AXES
 62
7
  6
CONTINUOUS
 10
258.0814117647
 20
147.2023257564
  0
SEQEND
  0
LINE
  8
SURFACE
 62
7
  6
CONTINUOUS
 10
264.4274117647
 20
135.4502526766
 11
264.4274117647
 21
139.6339743844
  0
LINE
  8
SURFACE
 62
7
  6
CONTINUOUS
 10
265.1814117647
 20
128.1379743844
 11
265.1814117647
 21
132.3895119097
  0
LINE
  8
SURFACE
 62
7
  6
CONTINUOUS
 10
265.5314117647
 20
159.9374641272
 11
265.5314117647
 21
156.4635722504
  0
LINE
  8
SURFACE
 62
7
  6
CONTINUOUS
 10
266.2814117647
 20
153.4186393296
 11
266.2814117647
 21
146.4205335615
  0
LINE
  8
SURFACE
 62
7
  6
CONTINUOUS
 10
270.7814117647
 20
146.4204828904
 11
270.7814117647
 21
153.4186393296
  0
LINE
  8
SURFACE
 62
7
  6
CONTINUOUS
 10
271.5314117647
 20
159.9374641272
 11
271.5314117647
 21
156.4635722504
  0
LINE
  8
SURFACE
 62
7
  6
CONTINUOUS
 10
271.8814117647
 20
132.3895119097
 11
271.8814117647
 21
128.1379743844
  0
LINE
  8
SURFACE
 62
7
  6
CONTINUOUS
 10
272.6354117647
 20
139.6339743844
 11
272.6354117647
 21
135.4502526766
  0
POLYLINE
  8
AXES
 62
7
  6
CONTINUOUS
 66
1
 70
0
  0
VERTEX
  8
AXES
 62
7
  6
CONTINUOUS
 10
266.2814117647
 20
147.2023257564
  0
VERTEX
  8
AXES
 62
7
  6
CONTINUOUS
 10
266.2772746411
 20
147.0842605587
  0
VERTEX
  8
AXES
 62
7
  6
CONTINUOUS
 10
266.2706219803
 20
147.0121625457
  0
VERTEX
  8
AXES
 62
7
  6
CONTINUOUS
 10
266.2676755941
 20
146.9879743844
  0
SEQEND
  0
LINE
  8
SURFACE
 62
7
  6
CONTINUOUS
 10
270.7966890898
 20
153.5412930225
 11
271.5268285672
 21
156.4267761426
  0
LINE
  8
SURFACE
 62
7
  6
CONTINUOUS
 10
272.6201344397
 20
135.3275989837
 11
271.8859949622
 21
132.4263080176
  0
LINE
  8
SURFACE
 62
7
  6
CONTINUOUS
 10
265.5359949622
 20
156.4267761426
 11
266.2661344397
 21
153.5412930225
  0
LINE
  8
SURFACE
 62
7
  6
CONTINUOUS
 10
277.8768285672
 20
132.4263080176
 11
277.1426890898
 21
135.3275989837
  0
LINE
  8
SURFACE
 62
7
  6
CONTINUOUS
 10
264.4426890898
 20
135.3275989837
 11
264.4274117647
 21
135.4502526766
  0
LINE
  8
SURFACE
 62
7
  6
CONTINUOUS
 10
266.2661344397
 20
153.5412930225
 11
266.2814117647
 21
153.4186393296
  0
POLYLINE
  8
AXES
 62
7
  6
CONTINUOUS
 66
1
 70
0
  0
VERTEX
  8
AXES
 62
7
  6
CONTINUOUS
 10
270.7951479353
 20
146.9879743844
  0
VERTEX
  8
AXES
 62
7
  6
CONTINUOUS
 10
270.7922015522
 20
147.0121625188
  0
VERTEX
  8
AXES
 62
7
  6
CONTINUOUS
 10
270.7855489355
 20
147.0842598878
  0
VERTEX
  8
AXES
 62
7
  6
CONTINUOUS
 10
270.7814117647
 20
147.2023257564
  0
SEQEND
  0
LINE
  8
SURFACE
 62
7
  6
CONTINUOUS
 10
277.1274117647
 20
135.4502526766
 11
277.1274117647
 21
139.6339743844
  0
LINE
  8
SURFACE
 62
7
  6
CONTINUOUS
 10
277.8814117647
 20
128.1379743844
 11
277.8814117647
 21
132.3895119097
  0
LINE
  8
SURFACE
 62
7
  6
CONTINUOUS
 10
278.2314117647
 20
159.9374641272
 11
278.2314117647
 21
156.4635722504
  0
LINE
  8
SURFACE
 62
7
  6
CONTINUOUS
 10
278.9814117647
 20
153.4186393296
 11
278.9814117647
 21
146.4205335615
  0
POLYLINE
  8
AXES
 62
7
  6
CONTINUOUS
 66
1
 70
0
  0
VERTEX
  8
AXES
 62
7
  6
CONTINUOUS
 10
278.9814117647
 20
147.2023257564
  0
VERTEX
  8
AXES
 62
7
  6
CONTINUOUS
 10
278.9772746411
 20
147.0842605587
  0
VERTEX
  8
AXES
 62
7
  6
CONTINUOUS
 10
278.9706219803
 20
147.0121625457
  0
VERTEX
  8
AXES
 62
7
  6
CONTINUOUS
 10
278.9676755941
 20
146.9879743844
  0
SEQEND
  0
LINE
  8
SURFACE
 62
7
  6
CONTINUOUS
 10
283.4966890898
 20
153.5412930225
 11
284.2268285672
 21
156.4267761426
  0
LINE
  8
SURFACE
 62
7
  6
CONTINUOUS
 10
278.2359949622
 20
156.4267761426
 11
278.9661344397
 21
153.5412930225
  0
LINE
  8
SURFACE
 62
7
  6
CONTINUOUS
 10
277.1426890898
 20
135.3275989837
 11
277.1274117647
 21
135.4502526766
  0
LINE
  8
SURFACE
 62
7
  6
CONTINUOUS
 10
278.9661344397
 20
153.5412930225
 11
278.9814117647
 21
153.4186393296
  0
LINE
  8
SURFACE
 62
7
  6
CONTINUOUS
 10
283.4814117647
 20
146.4204828904
 11
283.4814117647
 21
153.4186393296
  0
LINE
  8
SURFACE
 62
7
  6
CONTINUOUS
 10
284.2314117647
 20
159.9374641272
 11
284.2314117647
 21
156.4635722504
  0
LINE
  8
SURFACE
 62
7
  6
CONTINUOUS
 10
284.5814117647
 20
132.3895119097
 11
284.5814117647
 21
128.1379743844
  0
LINE
  8
SURFACE
 62
7
  6
CONTINUOUS
 10
285.3354117647
 20
139.6339743844
 11
285.3354117647
 21
135.4502526766
  0
LINE
  8
SURFACE
 62
7
  6
CONTINUOUS
 10
289.8274117647
 20
135.4502526766
 11
289.8274117647
 21
139.6339743844
  0
LINE
  8
SURFACE
 62
7
  6
CONTINUOUS
 10
290.5814117647
 20
128.1379743844
 11
290.5814117647
 21
132.3895119097
  0
LINE
  8
SURFACE
 62
7
  6
CONTINUOUS
 10
290.9314117647
 20
159.9374641272
 11
290.9314117647
 21
156.4635722504
  0
LINE
  8
SURFACE
 62
7
  6
CONTINUOUS
 10
291.6814117647
 20
153.4186393296
 11
291.6814117647
 21
146.4205335615
  0
POLYLINE
  8
AXES
 62
7
  6
CONTINUOUS
 66
1
 70
0
  0
VERTEX
  8
AXES
 62
7
  6
CONTINUOUS
 10
291.6814117647
 20
147.2023257564
  0
VERTEX
  8
AXES
 62
7
  6
CONTINUOUS
 10
291.6772746411
 20
147.0842605587
  0
VERTEX
  8
AXES
 62
7
  6
CONTINUOUS
 10
291.6706219803
 20
147.0121625457
  0
VERTEX
  8
AXES
 62
7
  6
CONTINUOUS
 10
291.6676755941
 20
146.9879743844
  0
SEQEND
  0
LINE
  8
SURFACE
 62
7
  6
CONTINUOUS
 10
285.3201344397
 20
135.3275989837
 11
284.5859949622
 21
132.4263080176
  0
LINE
  8
SURFACE
 62
7
  6
CONTINUOUS
 10
296.1966890898
 20
153.5412930225
 11
296.9268285672
 21
156.4267761426
  0
LINE
  8
SURFACE
 62
7
  6
CONTINUOUS
 10
290.5768285672
 20
132.4263080176
 11
289.8426890898
 21
135.3275989837
  0
LINE
  8
SURFACE
 62
7
  6
CONTINUOUS
 10
290.9359949622
 20
156.4267761426
 11
291.6661344397
 21
153.5412930225
  0
LINE
  8
SURFACE
 62
7
  6
CONTINUOUS
 10
289.8426890898
 20
135.3275989837
 11
289.8274117647
 21
135.4502526766
  0
LINE
  8
SURFACE
 62
7
  6
CONTINUOUS
 10
291.6661344397
 20
153.5412930225
 11
291.6814117647
 21
153.4186393296
  0
POLYLINE
  8
AXES
 62
7
  6
CONTINUOUS
 66
1
 70
0
  0
VERTEX
  8
AXES
 62
7
  6
CONTINUOUS
 10
283.4951479353
 20
146.9879743844
  0
VERTEX
  8
AXES
 62
7
  6
CONTINUOUS
 10
283.4922015522
 20
147.0121625188
  0
VERTEX
  8
AXES
 62
7
  6
CONTINUOUS
 10
283.4855489355
 20
147.0842598878
  0
VERTEX
  8
AXES
 62
7
  6
CONTINUOUS
 10
283.4814117647
 20
147.2023257564
  0
SEQEND
  0
LINE
  8
SURFACE
 62
7
  6
CONTINUOUS
 10
296.1814117647
 20
146.4204828904
 11
296.1814117647
 21
153.4186393296
  0
LINE
  8
SURFACE
 62
7
  6
CONTINUOUS
 10
296.9314117647
 20
159.9374641272
 11
296.9314117647
 21
156.4635722504
  0
LINE
  8
SURFACE
 62
7
  6
CONTINUOUS
 10
297.2814117647
 20
132.3895119097
 11
297.2814117647
 21
128.1379743844
  0
LINE
  8
SURFACE
 62
7
  6
CONTINUOUS
 10
298.0354117647
 20
139.6339743844
 11
298.0354117647
 21
135.4502526766
  0
LINE
  8
SURFACE
 62
7
  6
CONTINUOUS
 10
302.5274117647
 20
135.4502526766
 11
302.5274117647
 21
139.6339743844
  0
LINE
  8
SURFACE
 62
7
  6
CONTINUOUS
 10
303.2814117647
 20
128.1379743844
 11
303.2814117647
 21
132.3895119097
  0
LINE
  8
SURFACE
 62
7
  6
CONTINUOUS
 10
303.6314117647
 20
159.9374641272
 11
303.6314117647
 21
156.4635722504
  0
LINE
  8
SURFACE
 62
7
  6
CONTINUOUS
 10
298.0201344397
 20
135.3275989837
 11
297.2859949622
 21
132.4263080176
  0
LINE
  8
SURFACE
 62
7
  6
CONTINUOUS
 10
308.8966890898
 20
153.5412930225
 11
309.6268285672
 21
156.4267761426
  0
LINE
  8
SURFACE
 62
7
  6
CONTINUOUS
 10
303.2768285672
 20
132.4263080176
 11
302.5426890898
 21
135.3275989837
  0
LINE
  8
SURFACE
 62
7
  6
CONTINUOUS
 10
303.6359949622
 20
156.4267761426
 11
304.3661344397
 21
153.5412930225
  0
LINE
  8
SURFACE
 62
7
  6
CONTINUOUS
 10
302.5426890898
 20
135.3275989837
 11
302.5274117647
 21
135.4502526766
  0
POLYLINE
  8
AXES
 62
7
  6
CONTINUOUS
 66
1
 70
0
  0
VERTEX
  8
AXES
 62
7
  6
CONTINUOUS
 10
296.1951479353
 20
146.9879743844
  0
VERTEX
  8
AXES
 62
7
  6
CONTINUOUS
 10
296.1922015522
 20
147.0121625188
  0
VERTEX
  8
AXES
 62
7
  6
CONTINUOUS
 10
296.1855489355
 20
147.0842598878
  0
VERTEX
  8
AXES
 62
7
  6
CONTINUOUS
 10
296.1814117647
 20
147.2023257564
  0
SEQEND
  0
LINE
  8
SURFACE
 62
7
  6
CONTINUOUS
 10
304.3814117647
 20
153.4186393296
 11
304.3814117647
 21
146.4205335615
  0
LINE
  8
SURFACE
 62
7
  6
CONTINUOUS
 10
308.8814117647
 20
146.4204828904
 11
308.8814117647
 21
153.4186393296
  0
LINE
  8
SURFACE
 62
7
  6
CONTINUOUS
 10
309.6314117647
 20
159.9374641272
 11
309.6314117647
 21
156.4635722504
  0
LINE
  8
SURFACE
 62
7
  6
CONTINUOUS
 10
309.9814117647
 20
132.3895119097
 11
309.9814117647
 21
128.1379743844
  0
LINE
  8
SURFACE
 62
7
  6
CONTINUOUS
 10
310.7354117647
 20
139.6339743844
 11
310.7354117647
 21
135.4502526766
  0
POLYLINE
  8
AXES
 62
7
  6
CONTINUOUS
 66
1
 70
0
  0
VERTEX
  8
AXES
 62
7
  6
CONTINUOUS
 10
304.3814117647
 20
147.2023257564
  0
VERTEX
  8
AXES
 62
7
  6
CONTINUOUS
 10
304.3772746411
 20
147.0842605587
  0
VERTEX
  8
AXES
 62
7
  6
CONTINUOUS
 10
304.3706219803
 20
147.0121625457
  0
VERTEX
  8
AXES
 62
7
  6
CONTINUOUS
 10
304.3676755941
 20
146.9879743844
  0
SEQEND
  0
LINE
  8
SURFACE
 62
7
  6
CONTINUOUS
 10
310.7201344397
 20
135.3275989837
 11
309.9859949622
 21
132.4263080176
  0
LINE
  8
SURFACE
 62
7
  6
CONTINUOUS
 10
315.9768285672
 20
132.4263080176
 11
315.2426890898
 21
135.3275989837
  0
LINE
  8
SURFACE
 62
7
  6
CONTINUOUS
 10
304.3661344397
 20
153.5412930225
 11
304.3814117647
 21
153.4186393296
  0
LINE
  8
SURFACE
 62
7
  6
CONTINUOUS
 10
315.2426890898
 20
135.3275989837
 11
315.2274117647
 21
135.4502526766
  0
POLYLINE
  8
AXES
 62
7
  6
CONTINUOUS
 66
1
 70
0
  0
VERTEX
  8
AXES
 62
7
  6
CONTINUOUS
 10
308.8951479353
 20
146.9879743844
  0
VERTEX
  8
AXES
 62
7
  6
CONTINUOUS
 10
308.8922015522
 20
147.0121625188
  0
VERTEX
  8
AXES
 62
7
  6
CONTINUOUS
 10
308.8855489355
 20
147.0842598878
  0
VERTEX
  8
AXES
 62
7
  6
CONTINUOUS
 10
308.8814117647
 20
147.2023257564
  0
SEQEND
  0
LINE
  8
SURFACE
 62
7
  6
CONTINUOUS
 10
315.2274117647
 20
135.4502526766
 11
315.2274117647
 21
139.6339743844
  0
LINE
  8
SURFACE
 62
7
  6
CONTINUOUS
 10
315.9814117647
 20
128.1379743844
 11
315.9814117647
 21
132.3895119097
  0
LINE
  8
SURFACE
 62
7
  6
CONTINUOUS
 10
316.3314117647
 20
159.9374641272
 11
316.3314117647
 21
156.4635722504
  0
LINE
  8
SURFACE
 62
7
  6
CONTINUOUS
 10
317.0814117647
 20
153.4186393296
 11
317.0814117647
 21
146.4205335615
  0
LINE
  8
SURFACE
 62
7
  6
CONTINUOUS
 10
321.5814117647
 20
146.4204828904
 11
321.5814117647
 21
153.4186393296
  0
LINE
  8
SURFACE
 62
7
  6
CONTINUOUS
 10
322.3314117647
 20
159.9374641272
 11
322.3314117647
 21
156.4635722504
  0
LINE
  8
SURFACE
 62
7
  6
CONTINUOUS
 10
322.6814117647
 20
132.3895119097
 11
322.6814117647
 21
128.1379743844
  0
LINE
  8
SURFACE
 62
7
  6
CONTINUOUS
 10
323.4354117647
 20
139.6339743844
 11
323.4354117647
 21
135.4502526766
  0
POLYLINE
  8
AXES
 62
7
  6
CONTINUOUS
 66
1
 70
0
  0
VERTEX
  8
AXES
 62
7
  6
CONTINUOUS
 10
317.0814117647
 20
147.2023257564
  0
VERTEX
  8
AXES
 62
7
  6
CONTINUOUS
 10
317.0772746411
 20
147.0842605587
  0
VERTEX
  8
AXES
 62
7
  6
CONTINUOUS
 10
317.0706219803
 20
147.0121625457
  0
VERTEX
  8
AXES
 62
7
  6
CONTINUOUS
 10
317.0676755941
 20
146.9879743844
  0
SEQEND
  0
LINE
  8
SURFACE
 62
7
  6
CONTINUOUS
 10
321.5966890898
 20
153.5412930225
 11
322.3268285672
 21
156.4267761426
  0
LINE
  8
SURFACE
 62
7
  6
CONTINUOUS
 10
323.4201344397
 20
135.3275989837
 11
322.6859949622
 21
132.4263080176
  0
LINE
  8
SURFACE
 62
7
  6
CONTINUOUS
 10
316.3359949622
 20
156.4267761426
 11
317.0661344397
 21
153.5412930225
  0
LINE
  8
0
 62
7
  6
CONTINUOUS
 10
328.6768285672
 20
132.4263080176
 11
327.9426890898
 21
135.3275989837
  0
LINE
  8
SURFACE
 62
7
  6
CONTINUOUS
 10
317.0661344397
 20
153.5412930225
 11
317.0814117647
 21
153.4186393296
  0
POLYLINE
  8
AXES
 62
7
  6
CONTINUOUS
 66
1
 70
0
  0
VERTEX
  8
AXES
 62
7
  6
CONTINUOUS
 10
321.5951479353
 20
146.9879743844
  0
VERTEX
  8
AXES
 62
7
  6
CONTINUOUS
 10
321.5922015522
 20
147.0121625188
  0
VERTEX
  8
AXES
 62
7
  6
CONTINUOUS
 10
321.5855489355
 20
147.0842598878
  0
VERTEX
  8
AXES
 62
7
  6
CONTINUOUS
 10
321.5814117647
 20
147.2023257564
  0
SEQEND
  0
LINE
  8
0
 62
7
  6
CONTINUOUS
 10
327.9274117647
 20
135.4502526766
 11
327.9274117647
 21
139.6339743844
  0
LINE
  8
0
 62
7
  6
CONTINUOUS
 10
328.6814117647
 20
128.1379743844
 11
328.6814117647
 21
132.3895119097
  0
LINE
  8
0
 62
7
  6
CONTINUOUS
 10
329.0314117647
 20
159.9374641272
 11
329.0314117647
 21
156.4635722504
  0
LINE
  8
0
 62
7
  6
CONTINUOUS
 10
329.7814117647
 20
153.4186393296
 11
329.7814117647
 21
146.4205335615
  0
LINE
  8
0
 62
7
  6
CONTINUOUS
 10
334.2814117647
 20
146.4204828904
 11
334.2814117647
 21
153.4186393296
  0
LINE
  8
0
 62
7
  6
CONTINUOUS
 10
335.0314117647
 20
159.9374641272
 11
335.0314117647
 21
156.4635722504
  0
LINE
  8
0
 62
7
  6
CONTINUOUS
 10
335.3814117647
 20
132.3895119097
 11
335.3814117647
 21
128.1379743844
  0
LINE
  8
0
 62
7
  6
CONTINUOUS
 10
336.1354117647
 20
139.6339743844
 11
336.1354117647
 21
135.4502526766
  0
LINE
  8
0
 62
7
  6
CONTINUOUS
 10
340.6274117647
 20
135.4502526766
 11
340.6274117647
 21
145.0719743844
  0
LINE
  8
0
 62
7
  6
CONTINUOUS
 10
341.3814117647
 20
128.1379743844
 11
341.3814117647
 21
132.3895119097
  0
POLYLINE
  8
AXES
 62
7
  6
CONTINUOUS
 66
1
 70
0
  0
VERTEX
  8
AXES
 62
7
  6
CONTINUOUS
 10
329.7814117647
 20
147.2023257564
  0
VERTEX
  8
AXES
 62
7
  6
CONTINUOUS
 10
329.7772746411
 20
147.0842605587
  0
VERTEX
  8
AXES
 62
7
  6
CONTINUOUS
 10
329.7706219803
 20
147.0121625457
  0
VERTEX
  8
AXES
 62
7
  6
CONTINUOUS
 10
329.7676755941
 20
146.9879743844
  0
SEQEND
  0
LINE
  8
0
 62
7
  6
CONTINUOUS
 10
334.2966890898
 20
153.5412930225
 11
335.0268285672
 21
156.4267761426
  0
LINE
  8
0
 62
7
  6
CONTINUOUS
 10
336.1201344397
 20
135.3275989837
 11
335.3859949622
 21
132.4263080176
  0
LINE
  8
0
 62
7
  6
CONTINUOUS
 10
329.0359949622
 20
156.4267761426
 11
329.7661344397
 21
153.5412930225
  0
LINE
  8
0
 62
7
  6
CONTINUOUS
 10
341.3768285672
 20
132.4263080176
 11
340.6426890898
 21
135.3275989837
  0
LINE
  8
0
 62
7
  6
CONTINUOUS
 10
327.9426890898
 20
135.3275989837
 11
327.9274117647
 21
135.4502526766
  0
LINE
  8
0
 62
7
  6
CONTINUOUS
 10
329.7661344397
 20
153.5412930225
 11
329.7814117647
 21
153.4186393296
  0
LINE
  8
0
 62
7
  6
CONTINUOUS
 10
340.6426890898
 20
135.3275989837
 11
340.6274117647
 21
135.4502526766
  0
POLYLINE
  8
AXES
 62
7
  6
CONTINUOUS
 66
1
 70
0
  0
VERTEX
  8
AXES
 62
7
  6
CONTINUOUS
 10
334.2951479353
 20
146.9879743844
  0
VERTEX
  8
AXES
 62
7
  6
CONTINUOUS
 10
334.2922015522
 20
147.0121625188
  0
VERTEX
  8
AXES
 62
7
  6
CONTINUOUS
 10
334.2855489355
 20
147.0842598878
  0
VERTEX
  8
AXES
 62
7
  6
CONTINUOUS
 10
334.2814117647
 20
147.2023257564
  0
SEQEND
  0
LINE
  8
SURFACE
 62
7
  6
CONTINUOUS
 10
372.9321872761
 20
127.3879743844
 11
368.9321872761
 21
127.3879743844
  0
LINE
  8
AXES
 62
2
  6
CENTER
 10
376.1821872761
 20
131.7379743844
 11
375.0321872761
 21
131.7379743844
  0
LINE
  8
AXES
 62
2
  6
CONTINUOUS
 10
371.9821872761
 20
131.7379743844
 11
369.8821872761
 21
131.7379743844
  0
LINE
  8
AXES
 62
2
  6
CENTER
 10
365.6821872761
 20
131.7379743844
 11
366.8321872761
 21
131.7379743844
  0
LINE
  8
0
 62
7
  6
CONTINUOUS
 10
364.9321872761
 20
139.6339743844
 11
364.9321872761
 21
153.4186393296
  0
LINE
  8
SURFACE
 62
7
  6
CONTINUOUS
 10
364.9321872761
 20
131.3879743844
 11
364.9321872761
 21
157.4879743844
  0
POLYLINE
  8
0
 62
7
  6
CONTINUOUS
 66
1
 70
0
  0
VERTEX
  8
0
 62
7
  6
CONTINUOUS
 10
364.9321872761
 20
143.3335033293
  0
VERTEX
  8
0
 62
7
  6
CONTINUOUS
 10
364.940239185
 20
143.285019119
  0
VERTEX
  8
0
 62
7
  6
CONTINUOUS
 10
364.9638965873
 20
143.2412684476
  0
VERTEX
  8
0
 62
7
  6
CONTINUOUS
 10
365.0015976282
 20
143.2069914547
  0
VERTEX
  8
0
 62
7
  6
CONTINUOUS
 10
365.0499419677
 20
143.1870104036
  0
VERTEX
  8
0
 62
7
  6
CONTINUOUS
 10
365.0821872761
 20
143.1835035528
  0
SEQEND
  0
LINE
  8
AXES
 62
7
  6
CONTINUOUS
 10
368.8321872761
 20
149.0879743844
 11
368.8321872761
 21
157.1379743844
  0
LINE
  8
0
 62
7
  6
CONTINUOUS
 10
365.0821872761
 20
143.1835035437
 11
376.7821872761
 21
143.1835035437
  0
LINE
  8
AXES
 62
7
  6
CONTINUOUS
 10
372.9161723591
 20
132.4263080176
 11
372.9285586978
 21
132.3895119097
  0
LINE
  8
DEFAULT_1
 62
2
  6
CENTER
 10
370.9321872761
 20
162.3879743844
 11
370.9321872761
 21
159.1380743844
  0
LINE
  8
0
 62
2
  6
CONTINUOUS
 10
370.9321872761
 20
158.1879743844
 11
370.9321872761
 21
156.0879743844
  0
LINE
  8
AXES
 62
2
  6
CENTER
 10
370.9321872761
 20
136.9879743844
 11
370.9321872761
 21
135.8379743844
  0
LINE
  8
AXES
 62
2
  6
CONTINUOUS
 10
370.9321872761
 20
132.7879743844
 11
370.9321872761
 21
130.6879743844
  0
LINE
  8
AXES
 62
2
  6
CENTER
 10
370.9321872761
 20
126.4879743844
 11
370.9321872761
 21
127.6379743844
  0
LINE
  8
DEFAULT_1
 62
2
  6
CENTER
 10
370.9321872761
 20
151.8879743844
 11
370.9321872761
 21
155.1378743844
  0
LINE
  8
DEFAULT_1
 62
2
  6
CENTER
 10
362.4403840072
 20
144.7879743844
 11
379.4239905564
 21
144.7879743844
  0
LINE
  8
AXES
 62
7
  6
CONTINUOUS
 10
373.0321872761
 20
149.0879743844
 11
373.0321872761
 21
157.1379743844
  0
LINE
  8
AXES
 62
7
  6
CONTINUOUS
 10
368.9358158544
 20
132.3895119097
 11
368.9482021931
 21
132.4263080176
  0
LINE
  8
0
 62
7
  6
CONTINUOUS
 10
376.9321872761
 20
153.4186393296
 11
376.9321872761
 21
139.6339743844
  0
LINE
  8
SURFACE
 62
7
  6
CONTINUOUS
 10
376.9321872761
 20
131.3879743844
 11
376.9321872761
 21
157.4879743844
  0
POLYLINE
  8
0
 62
7
  6
CONTINUOUS
 66
1
 70
0
  0
VERTEX
  8
0
 62
7
  6
CONTINUOUS
 10
376.9321872761
 20
143.3335033608
  0
VERTEX
  8
0
 62
7
  6
CONTINUOUS
 10
376.9241351059
 20
143.285018354
  0
VERTEX
  8
0
 62
7
  6
CONTINUOUS
 10
376.9004775774
 20
143.2412679507
  0
VERTEX
  8
0
 62
7
  6
CONTINUOUS
 10
376.862776559
 20
143.2069912222
  0
VERTEX
  8
0
 62
7
  6
CONTINUOUS
 10
376.8144323675
 20
143.1870103558
  0
VERTEX
  8
0
 62
7
  6
CONTINUOUS
 10
376.7821872761
 20
143.1835035528
  0
SEQEND
  0
LINE
  8
DEFAULT_1
 62
2
  6
CENTER
 10
376.1821872761
 20
157.1379743844
 11
372.9322872761
 21
157.1379743844
  0
LINE
  8
0
 62
2
  6
CONTINUOUS
 10
371.9821872761
 20
157.1379743844
 11
369.8821872761
 21
157.1379743844
  0
LINE
  8
DEFAULT_1
 62
2
  6
CENTER
 10
365.6821872761
 20
157.1379743844
 11
368.9320872761
 21
157.1379743844
  0
LINE
  8
SURFACE
 62
7
  6
CONTINUOUS
 10
372.9321872761
 20
161.4879743844
 11
368.9321872761
 21
161.4879743844
  0
ARC
  8
0
 62
7
  6
CONTINUOUS
 10
37.8314117647
 20
218.5760463937
 40
0.15
 50
180.0
 51
270.0
  0
ARC
  8
SURFACE
 62
7
  6
CONTINUOUS
 10
37.8314117647
 20
218.5760463937
 40
0.15
 50
206.7172459164
 51
213.0986514705
  0
ARC
  8
SURFACE
 62
7
  6
CONTINUOUS
 10
44.0314117647
 20
219.1760463937
 40
0.75
 50
180.0
 51
270.0
  0
ARC
  8
SURFACE
 62
7
  6
CONTINUOUS
 10
37.6814117647
 20
219.1760463937
 40
0.75
 50
180.0
 51
269.9995011032
  0
ARC
  8
SURFACE
 62
7
  6
CONTINUOUS
 10
56.7314117647
 20
219.1760463937
 40
0.75
 50
180.0
 51
270.0
  0
ARC
  8
SURFACE
 62
7
  6
CONTINUOUS
 10
48.5314117647
 20
219.1760463937
 40
0.75
 50
270.0
 51
360.0
  0
ARC
  8
SURFACE
 62
7
  6
CONTINUOUS
 10
69.4314117647
 20
219.1760463937
 40
0.75
 50
180.0
 51
270.0
  0
ARC
  8
SURFACE
 62
7
  6
CONTINUOUS
 10
61.2314117647
 20
219.1760463937
 40
0.75
 50
270.0
 51
360.0
  0
ARC
  8
SURFACE
 62
7
  6
CONTINUOUS
 10
82.1314117647
 20
219.1760463937
 40
0.75
 50
180.0
 51
270.0
  0
ARC
  8
SURFACE
 62
7
  6
CONTINUOUS
 10
73.9314117647
 20
219.1760463937
 40
0.75
 50
270.0
 51
360.0
  0
ARC
  8
SURFACE
 62
7
  6
CONTINUOUS
 10
94.8314117647
 20
219.1760463937
 40
0.75
 50
180.0
 51
270.0
  0
ARC
  8
SURFACE
 62
7
  6
CONTINUOUS
 10
86.6314117647
 20
219.1760463937
 40
0.75
 50
270.0
 51
360.0
  0
ARC
  8
SURFACE
 62
7
  6
CONTINUOUS
 10
107.5314117647
 20
219.1760463937
 40
0.75
 50
180.0
 51
270.0
  0
ARC
  8
SURFACE
 62
7
  6
CONTINUOUS
 10
99.3314117647
 20
219.1760463937
 40
0.75
 50
270.0
 51
360.0
  0
ARC
  8
SURFACE
 62
7
  6
CONTINUOUS
 10
112.0314117647
 20
219.1760463937
 40
0.75
 50
270.0
 51
360.0
  0
ARC
  8
SURFACE
 62
7
  6
CONTINUOUS
 10
188.2314117647
 20
219.1760463937
 40
0.75
 50
270.0
 51
360.0
  0
ARC
  8
SURFACE
 62
7
  6
CONTINUOUS
 10
120.2314117647
 20
219.1760463937
 40
0.75
 50
180.0
 51
270.0
  0
ARC
  8
SURFACE
 62
7
  6
CONTINUOUS
 10
132.9314117647
 20
219.1760463937
 40
0.75
 50
180.0
 51
270.0
  0
ARC
  8
SURFACE
 62
7
  6
CONTINUOUS
 10
175.5314117647
 20
219.1760463937
 40
0.75
 50
270.0
 51
360.0
  0
ARC
  8
SURFACE
 62
7
  6
CONTINUOUS
 10
124.7314117647
 20
219.1760463937
 40
0.75
 50
270.0
 51
360.0
  0
ARC
  8
SURFACE
 62
7
  6
CONTINUOUS
 10
183.7314117647
 20
219.1760463937
 40
0.75
 50
180.0
 51
270.0
  0
ARC
  8
SURFACE
 62
7
  6
CONTINUOUS
 10
145.6314117647
 20
219.1760463937
 40
0.75
 50
180.0
 51
270.0
  0
ARC
  8
SURFACE
 62
7
  6
CONTINUOUS
 10
162.8314117647
 20
219.1760463937
 40
0.75
 50
270.0
 51
360.0
  0
ARC
  8
SURFACE
 62
7
  6
CONTINUOUS
 10
137.4314117647
 20
219.1760463937
 40
0.75
 50
270.0
 51
360.0
  0
ARC
  8
SURFACE
 62
7
  6
CONTINUOUS
 10
171.0314117647
 20
219.1760463937
 40
0.75
 50
180.0
 51
270.0
  0
ARC
  8
SURFACE
 62
7
  6
CONTINUOUS
 10
158.3314117647
 20
219.1760463937
 40
0.75
 50
180.0
 51
270.0
  0
ARC
  8
SURFACE
 62
7
  6
CONTINUOUS
 10
150.1314117647
 20
219.1760463937
 40
0.75
 50
270.0
 51
360.0
  0
ARC
  8
SURFACE
 62
7
  6
CONTINUOUS
 10
44.0314117647
 20
229.6760463937
 40
0.75
 50
90.0
 51
180.0
  0
ARC
  8
SURFACE
 62
7
  6
CONTINUOUS
 10
37.6814117647
 20
229.6760463937
 40
0.75
 50
90.0003268569
 51
180.0
  0
ARC
  8
SURFACE
 62
7
  6
CONTINUOUS
 10
56.7314117647
 20
229.6760463937
 40
0.75
 50
90.0
 51
180.0
  0
ARC
  8
SURFACE
 62
7
  6
CONTINUOUS
 10
48.5314117647
 20
229.6760463937
 40
0.75
 50
0.0
 51
90.0
  0
ARC
  8
SURFACE
 62
7
  6
CONTINUOUS
 10
69.4314117647
 20
229.6760463937
 40
0.75
 50
90.0
 51
180.0
  0
ARC
  8
SURFACE
 62
7
  6
CONTINUOUS
 10
61.2314117647
 20
229.6760463937
 40
0.75
 50
0.0
 51
90.0
  0
ARC
  8
SURFACE
 62
7
  6
CONTINUOUS
 10
82.1314117647
 20
229.6760463937
 40
0.75
 50
90.0
 51
180.0
  0
ARC
  8
SURFACE
 62
7
  6
CONTINUOUS
 10
73.9314117647
 20
229.6760463937
 40
0.75
 50
0.0
 51
90.0
  0
ARC
  8
SURFACE
 62
7
  6
CONTINUOUS
 10
94.8314117647
 20
229.6760463937
 40
0.75
 50
90.0
 51
180.0
  0
ARC
  8
SURFACE
 62
7
  6
CONTINUOUS
 10
86.6314117647
 20
229.6760463937
 40
0.75
 50
0.0
 51
90.0
  0
ARC
  8
SURFACE
 62
7
  6
CONTINUOUS
 10
107.5314117647
 20
229.6760463937
 40
0.75
 50
90.0
 51
180.0
  0
ARC
  8
SURFACE
 62
7
  6
CONTINUOUS
 10
99.3314117647
 20
229.6760463937
 40
0.75
 50
0.0
 51
90.0
  0
ARC
  8
SURFACE
 62
7
  6
CONTINUOUS
 10
112.0314117647
 20
229.6760463937
 40
0.75
 50
0.0
 51
90.0
  0
ARC
  8
SURFACE
 62
7
  6
CONTINUOUS
 10
37.8314117647
 20
230.2760463937
 40
0.15
 50
90.0
 51
117.6698726555
  0
ARC
  8
SURFACE
 62
7
  6
CONTINUOUS
 10
37.8314117647
 20
230.2760463937
 40
0.15
 50
121.2337438308
 51
180.0
  0
ARC
  8
0
 62
7
  6
CONTINUOUS
 10
37.8314117647
 20
230.2760463937
 40
0.15
 50
90.0
 51
180.0
  0
ARC
  8
SURFACE
 62
7
  6
CONTINUOUS
 10
188.2314117647
 20
229.6760463937
 40
0.75
 50
0.0
 51
90.0
  0
ARC
  8
SURFACE
 62
7
  6
CONTINUOUS
 10
120.2314117647
 20
229.6760463937
 40
0.75
 50
90.0
 51
180.0
  0
ARC
  8
SURFACE
 62
7
  6
CONTINUOUS
 10
132.9314117647
 20
229.6760463937
 40
0.75
 50
90.0
 51
180.0
  0
ARC
  8
SURFACE
 62
7
  6
CONTINUOUS
 10
175.5314117647
 20
229.6760463937
 40
0.75
 50
0.0
 51
90.0
  0
ARC
  8
SURFACE
 62
7
  6
CONTINUOUS
 10
124.7314117647
 20
229.6760463937
 40
0.75
 50
0.0
 51
90.0
  0
ARC
  8
SURFACE
 62
7
  6
CONTINUOUS
 10
183.7314117647
 20
229.6760463937
 40
0.75
 50
90.0
 51
180.0
  0
ARC
  8
SURFACE
 62
7
  6
CONTINUOUS
 10
145.6314117647
 20
229.6760463937
 40
0.75
 50
90.0
 51
180.0
  0
ARC
  8
SURFACE
 62
7
  6
CONTINUOUS
 10
162.8314117647
 20
229.6760463937
 40
0.75
 50
0.0
 51
90.0
  0
ARC
  8
SURFACE
 62
7
  6
CONTINUOUS
 10
137.4314117647
 20
229.6760463937
 40
0.75
 50
0.0
 51
90.0
  0
ARC
  8
SURFACE
 62
7
  6
CONTINUOUS
 10
171.0314117647
 20
229.6760463937
 40
0.75
 50
90.0
 51
180.0
  0
ARC
  8
SURFACE
 62
7
  6
CONTINUOUS
 10
158.3314117647
 20
229.6760463937
 40
0.75
 50
90.0
 51
180.0
  0
ARC
  8
SURFACE
 62
7
  6
CONTINUOUS
 10
150.1314117647
 20
229.6760463937
 40
0.75
 50
0.0
 51
90.0
  0
ARC
  8
0
 62
7
  6
CONTINUOUS
 10
327.9314117647
 20
219.1760463937
 40
0.75
 50
270.0
 51
360.0
  0
ARC
  8
SURFACE
 62
7
  6
CONTINUOUS
 10
315.2314117647
 20
219.1760463937
 40
0.75
 50
270.0
 51
360.0
  0
ARC
  8
SURFACE
 62
7
  6
CONTINUOUS
 10
302.5314117647
 20
219.1760463937
 40
0.75
 50
270.0
 51
360.0
  0
ARC
  8
SURFACE
 62
7
  6
CONTINUOUS
 10
289.8314117647
 20
219.1760463937
 40
0.75
 50
270.0
 51
360.0
  0
ARC
  8
SURFACE
 62
7
  6
CONTINUOUS
 10
277.1314117647
 20
219.1760463937
 40
0.75
 50
270.0
 51
360.0
  0
ARC
  8
SURFACE
 62
7
  6
CONTINUOUS
 10
298.0314117647
 20
219.1760463937
 40
0.75
 50
180.0
 51
270.0
  0
ARC
  8
SURFACE
 62
7
  6
CONTINUOUS
 10
285.3314117647
 20
219.1760463937
 40
0.75
 50
180.0
 51
270.0
  0
ARC
  8
SURFACE
 62
7
  6
CONTINUOUS
 10
310.7314117647
 20
219.1760463937
 40
0.75
 50
180.0
 51
270.0
  0
ARC
  8
SURFACE
 62
7
  6
CONTINUOUS
 10
323.4314117647
 20
219.1760463937
 40
0.75
 50
180.0
 51
270.0
  0
ARC
  8
SURFACE
 62
7
  6
CONTINUOUS
 10
264.4314117647
 20
219.1760463937
 40
0.75
 50
270.0
 51
360.0
  0
ARC
  8
0
 62
7
  6
CONTINUOUS
 10
336.1314117647
 20
219.1760463937
 40
0.75
 50
180.0
 51
270.0
  0
ARC
  8
SURFACE
 62
7
  6
CONTINUOUS
 10
272.6314117647
 20
219.1760463937
 40
0.75
 50
180.0
 51
270.0
  0
ARC
  8
SURFACE
 62
7
  6
CONTINUOUS
 10
251.7314117647
 20
219.1760463937
 40
0.75
 50
270.0
 51
360.0
  0
ARC
  8
SURFACE
 62
7
  6
CONTINUOUS
 10
259.9314117647
 20
219.1760463937
 40
0.75
 50
180.0
 51
270.0
  0
ARC
  8
0
 62
7
  6
CONTINUOUS
 10
340.6314117647
 20
219.1760463937
 40
0.75
 50
270.0
 51
360.0
  0
ARC
  8
SURFACE
 62
7
  6
CONTINUOUS
 10
239.0314117647
 20
219.1760463937
 40
0.75
 50
270.0
 51
360.0
  0
ARC
  8
SURFACE
 62
7
  6
CONTINUOUS
 10
247.2314117647
 20
219.1760463937
 40
0.75
 50
180.0
 51
270.0
  0
ARC
  8
SURFACE
 62
7
  6
CONTINUOUS
 10
226.3314117647
 20
219.1760463937
 40
0.75
 50
270.0
 51
360.0
  0
ARC
  8
SURFACE
 62
7
  6
CONTINUOUS
 10
234.5314117647
 20
219.1760463937
 40
0.75
 50
180.0
 51
270.0
  0
ARC
  8
SURFACE
 62
7
  6
CONTINUOUS
 10
213.6314117647
 20
219.1760463937
 40
0.75
 50
270.0
 51
360.0
  0
ARC
  8
SURFACE
 62
7
  6
CONTINUOUS
 10
221.8314117647
 20
219.1760463937
 40
0.75
 50
180.0
 51
270.0
  0
ARC
  8
SURFACE
 62
7
  6
CONTINUOUS
 10
200.9314117647
 20
219.1760463937
 40
0.75
 50
270.0
 51
360.0
  0
ARC
  8
SURFACE
 62
7
  6
CONTINUOUS
 10
209.1314117647
 20
219.1760463937
 40
0.75
 50
180.0
 51
270.0
  0
ARC
  8
SURFACE
 62
7
  6
CONTINUOUS
 10
196.4314117647
 20
219.1760463937
 40
0.75
 50
180.0
 51
270.0
  0
ARC
  8
0
 62
7
  6
CONTINUOUS
 10
336.1314117647
 20
229.6760463937
 40
0.75
 50
90.0
 51
180.0
  0
ARC
  8
SURFACE
 62
7
  6
CONTINUOUS
 10
323.4314117647
 20
229.6760463937
 40
0.75
 50
90.0
 51
180.0
  0
ARC
  8
SURFACE
 62
7
  6
CONTINUOUS
 10
310.7314117647
 20
229.6760463937
 40
0.75
 50
90.0
 51
180.0
  0
ARC
  8
SURFACE
 62
7
  6
CONTINUOUS
 10
298.0314117647
 20
229.6760463937
 40
0.75
 50
90.0
 51
180.0
  0
ARC
  8
SURFACE
 62
7
  6
CONTINUOUS
 10
277.1314117647
 20
229.6760463937
 40
0.75
 50
0.0
 51
90.0
  0
ARC
  8
SURFACE
 62
7
  6
CONTINUOUS
 10
285.3314117647
 20
229.6760463937
 40
0.75
 50
90.0
 51
180.0
  0
ARC
  8
SURFACE
 62
7
  6
CONTINUOUS
 10
289.8314117647
 20
229.6760463937
 40
0.75
 50
0.0
 51
90.0
  0
ARC
  8
SURFACE
 62
7
  6
CONTINUOUS
 10
302.5314117647
 20
229.6760463937
 40
0.75
 50
0.0
 51
90.0
  0
ARC
  8
SURFACE
 62
7
  6
CONTINUOUS
 10
264.4314117647
 20
229.6760463937
 40
0.75
 50
0.0
 51
90.0
  0
ARC
  8
SURFACE
 62
7
  6
CONTINUOUS
 10
315.2314117647
 20
229.6760463937
 40
0.75
 50
0.0
 51
90.0
  0
ARC
  8
SURFACE
 62
7
  6
CONTINUOUS
 10
272.6314117647
 20
229.6760463937
 40
0.75
 50
90.0
 51
180.0
  0
ARC
  8
0
 62
7
  6
CONTINUOUS
 10
327.9314117647
 20
229.6760463937
 40
0.75
 50
0.0
 51
90.0
  0
ARC
  8
SURFACE
 62
7
  6
CONTINUOUS
 10
251.7314117647
 20
229.6760463937
 40
0.75
 50
0.0
 51
90.0
  0
ARC
  8
SURFACE
 62
7
  6
CONTINUOUS
 10
259.9314117647
 20
229.6760463937
 40
0.75
 50
90.0
 51
180.0
  0
ARC
  8
0
 62
7
  6
CONTINUOUS
 10
340.6314117647
 20
229.6760463937
 40
0.75
 50
0.0
 51
90.0
  0
ARC
  8
SURFACE
 62
7
  6
CONTINUOUS
 10
239.0314117647
 20
229.6760463937
 40
0.75
 50
0.0
 51
90.0
  0
ARC
  8
SURFACE
 62
7
  6
CONTINUOUS
 10
247.2314117647
 20
229.6760463937
 40
0.75
 50
90.0
 51
180.0
  0
ARC
  8
SURFACE
 62
7
  6
CONTINUOUS
 10
226.3314117647
 20
229.6760463937
 40
0.75
 50
0.0
 51
90.0
  0
ARC
  8
SURFACE
 62
7
  6
CONTINUOUS
 10
234.5314117647
 20
229.6760463937
 40
0.75
 50
90.0
 51
180.0
  0
ARC
  8
SURFACE
 62
7
  6
CONTINUOUS
 10
213.6314117647
 20
229.6760463937
 40
0.75
 50
0.0
 51
90.0
  0
ARC
  8
SURFACE
 62
7
  6
CONTINUOUS
 10
221.8314117647
 20
229.6760463937
 40
0.75
 50
90.0
 51
180.0
  0
ARC
  8
SURFACE
 62
7
  6
CONTINUOUS
 10
200.9314117647
 20
229.6760463937
 40
0.75
 50
0.0
 51
90.0
  0
ARC
  8
SURFACE
 62
7
  6
CONTINUOUS
 10
209.1314117647
 20
229.6760463937
 40
0.75
 50
90.0
 51
180.0
  0
ARC
  8
SURFACE
 62
7
  6
CONTINUOUS
 10
196.4314117647
 20
229.6760463937
 40
0.75
 50
90.0
 51
180.0
  0
ARC
  8
SURFACE
 62
7
  6
CONTINUOUS
 10
44.0314117647
 20
128.1379743844
 40
0.75
 50
180.0
 51
270.0
  0
ARC
  8
SURFACE
 62
7
  6
CONTINUOUS
 10
56.7314117647
 20
128.1379743844
 40
0.75
 50
180.0
 51
270.0
  0
ARC
  8
SURFACE
 62
7
  6
CONTINUOUS
 10
48.5314117647
 20
128.1379743844
 40
0.75
 50
270.0
 51
360.0
  0
ARC
  8
SURFACE
 62
7
  6
CONTINUOUS
 10
69.4314117647
 20
128.1379743844
 40
0.75
 50
180.0
 51
270.0
  0
ARC
  8
SURFACE
 62
7
  6
CONTINUOUS
 10
61.2314117647
 20
128.1379743844
 40
0.75
 50
270.0
 51
360.0
  0
ARC
  8
SURFACE
 62
7
  6
CONTINUOUS
 10
73.9314117647
 20
128.1379743844
 40
0.75
 50
270.0
 51
360.0
  0
ARC
  8
SURFACE
 62
7
  6
CONTINUOUS
 10
43.5354117647
 20
135.4502526766
 40
0.5
 50
345.8
 51
360.0
  0
ARC
  8
SURFACE
 62
7
  6
CONTINUOUS
 10
56.2354117647
 20
135.4502526766
 40
0.5
 50
345.8
 51
360.0
  0
ARC
  8
SURFACE
 62
7
  6
CONTINUOUS
 10
49.0274117647
 20
135.4502526766
 40
0.5
 50
180.0
 51
194.2
  0
ARC
  8
SURFACE
 62
7
  6
CONTINUOUS
 10
68.9354117647
 20
135.4502526766
 40
0.5
 50
345.8
 51
360.0
  0
ARC
  8
SURFACE
 62
7
  6
CONTINUOUS
 10
61.7274117647
 20
135.4502526766
 40
0.5
 50
180.0
 51
194.2
  0
ARC
  8
SURFACE
 62
7
  6
CONTINUOUS
 10
74.4274117647
 20
135.4502526766
 40
0.5
 50
180.0
 51
194.2
  0
ARC
  8
SURFACE
 62
7
  6
CONTINUOUS
 10
43.4314117647
 20
132.3895119097
 40
0.15
 50
165.8
 51
180.0
  0
ARC
  8
SURFACE
 62
7
  6
CONTINUOUS
 10
49.131409131
 20
132.3895223181
 40
0.15
 50
359.9960244191
 51
14.1958989767
  0
ARC
  8
SURFACE
 62
7
  6
CONTINUOUS
 10
56.1314117647
 20
132.3895119097
 40
0.15
 50
165.8
 51
180.0
  0
ARC
  8
SURFACE
 62
7
  6
CONTINUOUS
 10
61.831409131
 20
132.3895223181
 40
0.15
 50
359.9960244191
 51
14.1958989767
  0
ARC
  8
SURFACE
 62
7
  6
CONTINUOUS
 10
68.8314117647
 20
132.3895119097
 40
0.15
 50
165.8
 51
180.0
  0
ARC
  8
SURFACE
 62
7
  6
CONTINUOUS
 10
74.531409131
 20
132.3895223181
 40
0.15
 50
359.9960244191
 51
14.1958989767
  0
ARC
  8
SURFACE
 62
7
  6
CONTINUOUS
 10
82.1314117647
 20
128.1379743844
 40
0.75
 50
180.0
 51
270.0
  0
ARC
  8
SURFACE
 62
7
  6
CONTINUOUS
 10
94.8314117647
 20
128.1379743844
 40
0.75
 50
180.0
 51
270.0
  0
ARC
  8
SURFACE
 62
7
  6
CONTINUOUS
 10
86.6314117647
 20
128.1379743844
 40
0.75
 50
270.0
 51
360.0
  0
ARC
  8
SURFACE
 62
7
  6
CONTINUOUS
 10
107.5314117647
 20
128.1379743844
 40
0.75
 50
180.0
 51
270.0
  0
ARC
  8
SURFACE
 62
7
  6
CONTINUOUS
 10
99.3314117647
 20
128.1379743844
 40
0.75
 50
270.0
 51
360.0
  0
ARC
  8
SURFACE
 62
7
  6
CONTINUOUS
 10
112.0314117647
 20
128.1379743844
 40
0.75
 50
270.0
 51
360.0
  0
ARC
  8
SURFACE
 62
7
  6
CONTINUOUS
 10
81.6354117647
 20
135.4502526766
 40
0.5
 50
345.8
 51
360.0
  0
ARC
  8
SURFACE
 62
7
  6
CONTINUOUS
 10
94.3354117647
 20
135.4502526766
 40
0.5
 50
345.8
 51
360.0
  0
ARC
  8
SURFACE
 62
7
  6
CONTINUOUS
 10
87.1274117647
 20
135.4502526766
 40
0.5
 50
180.0
 51
194.2
  0
ARC
  8
SURFACE
 62
7
  6
CONTINUOUS
 10
107.0354117647
 20
135.4502526766
 40
0.5
 50
345.8
 51
360.0
  0
ARC
  8
SURFACE
 62
7
  6
CONTINUOUS
 10
99.8274117647
 20
135.4502526766
 40
0.5
 50
180.0
 51
194.2
  0
ARC
  8
SURFACE
 62
7
  6
CONTINUOUS
 10
112.5274117647
 20
135.4502526766
 40
0.5
 50
180.0
 51
194.2
  0
ARC
  8
SURFACE
 62
7
  6
CONTINUOUS
 10
81.5314117647
 20
132.3895119097
 40
0.15
 50
165.8
 51
180.0
  0
ARC
  8
SURFACE
 62
7
  6
CONTINUOUS
 10
87.231409131
 20
132.3895223181
 40
0.15
 50
359.9960244191
 51
14.1958989767
  0
ARC
  8
SURFACE
 62
7
  6
CONTINUOUS
 10
94.2314117647
 20
132.3895119097
 40
0.15
 50
165.8
 51
180.0
  0
ARC
  8
SURFACE
 62
7
  6
CONTINUOUS
 10
99.931409131
 20
132.3895223181
 40
0.15
 50
359.9960244191
 51
14.1958989767
  0
ARC
  8
SURFACE
 62
7
  6
CONTINUOUS
 10
106.9314117647
 20
132.3895119097
 40
0.15
 50
165.8
 51
180.0
  0
ARC
  8
SURFACE
 62
7
  6
CONTINUOUS
 10
112.631409131
 20
132.3895223181
 40
0.15
 50
359.9960244191
 51
14.1958989767
  0
ARC
  8
0
 62
7
  6
CONTINUOUS
 10
39.9314117647
 20
139.6339743844
 40
4.104
 50
0.0
 51
119.5809689326
  0
ARC
  8
SURFACE
 62
7
  6
CONTINUOUS
 10
52.6314117647
 20
139.6339743844
 40
4.104
 50
0.0
 51
180.0
  0
ARC
  8
SURFACE
 62
7
  6
CONTINUOUS
 10
65.3314117647
 20
139.6339743844
 40
4.104
 50
0.0
 51
180.0
  0
ARC
  8
SURFACE
 62
7
  6
CONTINUOUS
 10
78.0314117647
 20
139.6339743844
 40
4.104
 50
0.0
 51
180.0
  0
ARC
  8
SURFACE
 62
7
  6
CONTINUOUS
 10
90.7314117647
 20
139.6339743844
 40
4.104
 50
0.0
 51
180.0
  0
ARC
  8
SURFACE
 62
7
  6
CONTINUOUS
 10
103.4314117647
 20
139.6339743844
 40
4.104
 50
0.0
 51
180.0
  0
ARC
  8
0
 62
7
  6
CONTINUOUS
 10
37.8314117647
 20
143.3335035437
 40
0.15
 50
180.0
 51
299.5809689334
  0
ARC
  8
SURFACE
 62
7
  6
CONTINUOUS
 10
120.2314117647
 20
128.1379743844
 40
0.75
 50
180.0
 51
270.0
  0
ARC
  8
SURFACE
 62
7
  6
CONTINUOUS
 10
132.9314117647
 20
128.1379743844
 40
0.75
 50
180.0
 51
270.0
  0
ARC
  8
SURFACE
 62
7
  6
CONTINUOUS
 10
124.7314117647
 20
128.1379743844
 40
0.75
 50
270.0
 51
360.0
  0
ARC
  8
SURFACE
 62
7
  6
CONTINUOUS
 10
145.6314117647
 20
128.1379743844
 40
0.75
 50
180.0
 51
270.0
  0
ARC
  8
SURFACE
 62
7
  6
CONTINUOUS
 10
137.4314117647
 20
128.1379743844
 40
0.75
 50
270.0
 51
360.0
  0
ARC
  8
SURFACE
 62
7
  6
CONTINUOUS
 10
150.1314117647
 20
128.1379743844
 40
0.75
 50
270.0
 51
360.0
  0
ARC
  8
SURFACE
 62
7
  6
CONTINUOUS
 10
119.7354117647
 20
135.4502526766
 40
0.5
 50
345.8
 51
360.0
  0
ARC
  8
SURFACE
 62
7
  6
CONTINUOUS
 10
132.4354117647
 20
135.4502526766
 40
0.5
 50
345.8
 51
360.0
  0
ARC
  8
SURFACE
 62
7
  6
CONTINUOUS
 10
125.2274117647
 20
135.4502526766
 40
0.5
 50
180.0
 51
194.2
  0
ARC
  8
SURFACE
 62
7
  6
CONTINUOUS
 10
145.1354117647
 20
135.4502526766
 40
0.5
 50
345.8
 51
360.0
  0
ARC
  8
SURFACE
 62
7
  6
CONTINUOUS
 10
137.9274117647
 20
135.4502526766
 40
0.5
 50
180.0
 51
194.2
  0
ARC
  8
SURFACE
 62
7
  6
CONTINUOUS
 10
150.6274117647
 20
135.4502526766
 40
0.5
 50
180.0
 51
194.2
  0
ARC
  8
SURFACE
 62
7
  6
CONTINUOUS
 10
119.6314117647
 20
132.3895119097
 40
0.15
 50
165.8
 51
180.0
  0
ARC
  8
SURFACE
 62
7
  6
CONTINUOUS
 10
125.331409131
 20
132.3895223181
 40
0.15
 50
359.9960244191
 51
14.1958989767
  0
ARC
  8
SURFACE
 62
7
  6
CONTINUOUS
 10
132.3314117647
 20
132.3895119097
 40
0.15
 50
165.8
 51
180.0
  0
ARC
  8
SURFACE
 62
7
  6
CONTINUOUS
 10
138.031409131
 20
132.3895223181
 40
0.15
 50
359.9960244191
 51
14.1958989767
  0
ARC
  8
SURFACE
 62
7
  6
CONTINUOUS
 10
145.0314117647
 20
132.3895119097
 40
0.15
 50
165.8
 51
180.0
  0
ARC
  8
SURFACE
 62
7
  6
CONTINUOUS
 10
150.731409131
 20
132.3895223181
 40
0.15
 50
359.9960244191
 51
14.1958989767
  0
ARC
  8
SURFACE
 62
7
  6
CONTINUOUS
 10
188.2314117647
 20
128.1379743844
 40
0.75
 50
270.0
 51
360.0
  0
ARC
  8
SURFACE
 62
7
  6
CONTINUOUS
 10
158.3314117647
 20
128.1379743844
 40
0.75
 50
180.0
 51
270.0
  0
ARC
  8
SURFACE
 62
7
  6
CONTINUOUS
 10
175.5314117647
 20
128.1379743844
 40
0.75
 50
270.0
 51
360.0
  0
ARC
  8
SURFACE
 62
7
  6
CONTINUOUS
 10
183.7314117647
 20
128.1379743844
 40
0.75
 50
180.0
 51
270.0
  0
ARC
  8
SURFACE
 62
7
  6
CONTINUOUS
 10
162.8314117647
 20
128.1379743844
 40
0.75
 50
270.0
 51
360.0
  0
ARC
  8
SURFACE
 62
7
  6
CONTINUOUS
 10
171.0314117647
 20
128.1379743844
 40
0.75
 50
180.0
 51
270.0
  0
ARC
  8
SURFACE
 62
7
  6
CONTINUOUS
 10
188.7274117647
 20
135.4502526766
 40
0.5
 50
180.0
 51
194.2
  0
ARC
  8
SURFACE
 62
7
  6
CONTINUOUS
 10
157.8354117647
 20
135.4502526766
 40
0.5
 50
345.8
 51
360.0
  0
ARC
  8
SURFACE
 62
7
  6
CONTINUOUS
 10
176.0274117647
 20
135.4502526766
 40
0.5
 50
180.0
 51
194.2
  0
ARC
  8
SURFACE
 62
7
  6
CONTINUOUS
 10
183.2354117647
 20
135.4502526766
 40
0.5
 50
345.8
 51
360.0
  0
ARC
  8
SURFACE
 62
7
  6
CONTINUOUS
 10
163.3274117647
 20
135.4502526766
 40
0.5
 50
180.0
 51
194.2
  0
ARC
  8
SURFACE
 62
7
  6
CONTINUOUS
 10
170.5354117647
 20
135.4502526766
 40
0.5
 50
345.8
 51
360.0
  0
ARC
  8
SURFACE
 62
7
  6
CONTINUOUS
 10
188.831409131
 20
132.3895223181
 40
0.15
 50
359.9960244191
 51
14.1958989767
  0
ARC
  8
SURFACE
 62
7
  6
CONTINUOUS
 10
157.7314117647
 20
132.3895119097
 40
0.15
 50
165.8
 51
180.0
  0
ARC
  8
SURFACE
 62
7
  6
CONTINUOUS
 10
183.1314117647
 20
132.3895119097
 40
0.15
 50
165.8
 51
180.0
  0
ARC
  8
SURFACE
 62
7
  6
CONTINUOUS
 10
176.131409131
 20
132.3895223181
 40
0.15
 50
359.9960244191
 51
14.1958989767
  0
ARC
  8
SURFACE
 62
7
  6
CONTINUOUS
 10
163.431409131
 20
132.3895223181
 40
0.15
 50
359.9960244191
 51
14.1958989767
  0
ARC
  8
SURFACE
 62
7
  6
CONTINUOUS
 10
170.4314117647
 20
132.3895119097
 40
0.15
 50
165.8
 51
180.0
  0
ARC
  8
SURFACE
 62
7
  6
CONTINUOUS
 10
116.1314117647
 20
139.6339743844
 40
4.104
 50
0.0
 51
180.0
  0
ARC
  8
SURFACE
 62
7
  6
CONTINUOUS
 10
128.8314117647
 20
139.6339743844
 40
4.104
 50
0.0
 51
180.0
  0
ARC
  8
SURFACE
 62
7
  6
CONTINUOUS
 10
141.5314117647
 20
139.6339743844
 40
4.104
 50
0.0
 51
180.0
  0
ARC
  8
SURFACE
 62
7
  6
CONTINUOUS
 10
154.2314117647
 20
139.6339743844
 40
4.104
 50
0.0
 51
180.0
  0
ARC
  8
SURFACE
 62
7
  6
CONTINUOUS
 10
179.6314117647
 20
139.6339743844
 40
4.104
 50
0.0
 51
180.0
  0
ARC
  8
SURFACE
 62
7
  6
CONTINUOUS
 10
166.9314117647
 20
139.6339743844
 40
4.104
 50
0.0
 51
180.0
  0
ARC
  8
SURFACE
 62
7
  6
CONTINUOUS
 10
44.1814117647
 20
147.2219743844
 40
2.0
 50
186.7189899125
 51
270.0
  0
ARC
  8
SURFACE
 62
7
  6
CONTINUOUS
 10
56.8814117647
 20
147.2219743844
 40
2.0
 50
186.7189899125
 51
270.0
  0
ARC
  8
SURFACE
 62
7
  6
CONTINUOUS
 10
48.3814117647
 20
147.2219743844
 40
2.0
 50
270.0
 51
353.2810100152
  0
ARC
  8
SURFACE
 62
7
  6
CONTINUOUS
 10
69.5814117647
 20
147.2219743844
 40
2.0
 50
186.7189899125
 51
270.0
  0
ARC
  8
SURFACE
 62
7
  6
CONTINUOUS
 10
61.0814117647
 20
147.2219743844
 40
2.0
 50
270.0
 51
353.2810100152
  0
ARC
  8
SURFACE
 62
7
  6
CONTINUOUS
 10
82.2814117647
 20
147.2219743844
 40
2.0
 50
186.7189899125
 51
270.0
  0
ARC
  8
SURFACE
 62
7
  6
CONTINUOUS
 10
73.7814117647
 20
147.2219743844
 40
2.0
 50
270.0
 51
353.2810100152
  0
ARC
  8
SURFACE
 62
7
  6
CONTINUOUS
 10
94.9814117647
 20
147.2219743844
 40
2.0
 50
186.7189899125
 51
270.0
  0
ARC
  8
SURFACE
 62
7
  6
CONTINUOUS
 10
86.4814117647
 20
147.2219743844
 40
2.0
 50
270.0
 51
353.2810100152
  0
ARC
  8
SURFACE
 62
7
  6
CONTINUOUS
 10
107.6814117647
 20
147.2219743844
 40
2.0
 50
186.7189899125
 51
270.0
  0
ARC
  8
SURFACE
 62
7
  6
CONTINUOUS
 10
99.1814117647
 20
147.2219743844
 40
2.0
 50
270.0
 51
353.2810100152
  0
ARC
  8
SURFACE
 62
7
  6
CONTINUOUS
 10
111.8814117647
 20
147.2219743844
 40
2.0
 50
270.0
 51
353.2810100152
  0
ARC
  8
SURFACE
 62
7
  6
CONTINUOUS
 10
42.6814117647
 20
153.4186393296
 40
0.5
 50
165.8
 51
180.0
  0
ARC
  8
AXES
 62
7
  6
CONTINUOUS
 10
42.6814117647
 20
153.4186393296
 40
0.5
 50
171.0638278438
 51
174.737302028
  0
ARC
  8
SURFACE
 62
7
  6
CONTINUOUS
 10
37.1814117647
 20
153.4186393296
 40
0.5
 50
0.0
 51
14.2
  0
ARC
  8
AXES
 62
7
  6
CONTINUOUS
 10
37.1814117647
 20
153.4186393296
 40
0.5
 50
5.262697972
 51
8.9361721562
  0
ARC
  8
SURFACE
 62
7
  6
CONTINUOUS
 10
55.3814117647
 20
153.4186393296
 40
0.5
 50
165.8
 51
180.0
  0
ARC
  8
AXES
 62
7
  6
CONTINUOUS
 10
55.3814117647
 20
153.4186393296
 40
0.5
 50
171.0638278438
 51
174.7373020279
  0
ARC
  8
SURFACE
 62
7
  6
CONTINUOUS
 10
49.8814117647
 20
153.4186393296
 40
0.5
 50
0.0
 51
14.2
  0
ARC
  8
AXES
 62
7
  6
CONTINUOUS
 10
49.8814117647
 20
153.4186393296
 40
0.5
 50
5.2626979721
 51
8.9361721563
  0
ARC
  8
SURFACE
 62
7
  6
CONTINUOUS
 10
68.0814117647
 20
153.4186393296
 40
0.5
 50
165.8
 51
180.0
  0
ARC
  8
AXES
 62
7
  6
CONTINUOUS
 10
68.0814117647
 20
153.4186393296
 40
0.5
 50
171.0638278438
 51
174.737302028
  0
ARC
  8
SURFACE
 62
7
  6
CONTINUOUS
 10
62.5814117647
 20
153.4186393296
 40
0.5
 50
0.0
 51
14.2
  0
ARC
  8
AXES
 62
7
  6
CONTINUOUS
 10
62.5814117647
 20
153.4186393296
 40
0.5
 50
5.262697972
 51
8.9361721562
  0
ARC
  8
SURFACE
 62
7
  6
CONTINUOUS
 10
80.7814117647
 20
153.4186393296
 40
0.5
 50
165.8
 51
180.0
  0
ARC
  8
AXES
 62
7
  6
CONTINUOUS
 10
80.7814117647
 20
153.4186393296
 40
0.5
 50
171.0638278437
 51
174.737302028
  0
ARC
  8
SURFACE
 62
7
  6
CONTINUOUS
 10
75.2814117647
 20
153.4186393296
 40
0.5
 50
0.0
 51
14.2
  0
ARC
  8
AXES
 62
7
  6
CONTINUOUS
 10
75.2814117647
 20
153.4186393296
 40
0.5
 50
5.2626979721
 51
8.9361721563
  0
ARC
  8
SURFACE
 62
7
  6
CONTINUOUS
 10
93.4814117647
 20
153.4186393296
 40
0.5
 50
165.8
 51
180.0
  0
ARC
  8
AXES
 62
7
  6
CONTINUOUS
 10
93.4814117647
 20
153.4186393296
 40
0.5
 50
171.0638278437
 51
174.737302028
  0
ARC
  8
SURFACE
 62
7
  6
CONTINUOUS
 10
87.9814117647
 20
153.4186393296
 40
0.5
 50
0.0
 51
14.2
  0
ARC
  8
AXES
 62
7
  6
CONTINUOUS
 10
87.9814117647
 20
153.4186393296
 40
0.5
 50
5.262697972
 51
8.9361721563
  0
ARC
  8
SURFACE
 62
7
  6
CONTINUOUS
 10
106.1814117647
 20
153.4186393296
 40
0.5
 50
165.8
 51
180.0
  0
ARC
  8
AXES
 62
7
  6
CONTINUOUS
 10
106.1814117647
 20
153.4186393296
 40
0.5
 50
171.0638278438
 51
174.737302028
  0
ARC
  8
SURFACE
 62
7
  6
CONTINUOUS
 10
100.6814117647
 20
153.4186393296
 40
0.5
 50
0.0
 51
14.2
  0
ARC
  8
AXES
 62
7
  6
CONTINUOUS
 10
100.6814117647
 20
153.4186393296
 40
0.5
 50
5.262697972
 51
8.9361721563
  0
ARC
  8
SURFACE
 62
7
  6
CONTINUOUS
 10
42.7814117647
 20
156.4635722504
 40
0.15
 50
345.8
 51
360.0
  0
ARC
  8
AXES
 62
7
  6
CONTINUOUS
 10
42.7814117647
 20
156.4635722504
 40
0.15
 50
345.8
 51
360.0
  0
ARC
  8
AXES
 62
7
  6
CONTINUOUS
 10
37.0814117647
 20
156.4635722504
 40
0.15
 50
180.0
 51
194.2
  0
ARC
  8
SURFACE
 62
7
  6
CONTINUOUS
 10
37.0814144954
 20
156.463561459
 40
0.15
 50
179.9958781125
 51
194.1957480523
  0
ARC
  8
AXES
 62
7
  6
CONTINUOUS
 10
49.7814117647
 20
156.4635722504
 40
0.15
 50
180.0
 51
194.2
  0
ARC
  8
SURFACE
 62
7
  6
CONTINUOUS
 10
49.7814144954
 20
156.463561459
 40
0.15
 50
179.9958781125
 51
194.1957480523
  0
ARC
  8
SURFACE
 62
7
  6
CONTINUOUS
 10
39.9314117647
 20
157.4879743844
 40
4.0
 50
44.4153085972
 51
135.5846914028
  0
ARC
  8
SURFACE
 62
7
  6
CONTINUOUS
 10
55.4814117647
 20
156.4635722504
 40
0.15
 50
345.8
 51
360.0
  0
ARC
  8
AXES
 62
7
  6
CONTINUOUS
 10
55.4814117647
 20
156.4635722504
 40
0.15
 50
345.8
 51
360.0
  0
ARC
  8
SURFACE
 62
7
  6
CONTINUOUS
 10
68.1814117647
 20
156.4635722504
 40
0.15
 50
345.8
 51
360.0
  0
ARC
  8
AXES
 62
7
  6
CONTINUOUS
 10
68.1814117647
 20
156.4635722504
 40
0.15
 50
345.8
 51
360.0
  0
ARC
  8
AXES
 62
7
  6
CONTINUOUS
 10
62.4814117647
 20
156.4635722504
 40
0.15
 50
180.0
 51
194.2
  0
ARC
  8
SURFACE
 62
7
  6
CONTINUOUS
 10
62.4814144954
 20
156.463561459
 40
0.15
 50
179.9958781125
 51
194.1957480523
  0
ARC
  8
SURFACE
 62
7
  6
CONTINUOUS
 10
52.6314117647
 20
157.4879743844
 40
4.0
 50
44.4153085972
 51
135.5846914028
  0
ARC
  8
SURFACE
 62
7
  6
CONTINUOUS
 10
65.3314117647
 20
157.4879743844
 40
4.0
 50
44.4153085972
 51
135.5846914028
  0
ARC
  8
SURFACE
 62
7
  6
CONTINUOUS
 10
42.4314111795
 20
159.9374649218
 40
0.5000000197
 50
359.9999089471
 51
44.4151966284
  0
ARC
  8
SURFACE
 62
7
  6
CONTINUOUS
 10
55.1314111795
 20
159.9374649218
 40
0.5000000197
 50
359.9999089471
 51
44.4151966284
  0
ARC
  8
SURFACE
 62
7
  6
CONTINUOUS
 10
67.8314111795
 20
159.9374649218
 40
0.5000000197
 50
359.9999089471
 51
44.4151966284
  0
ARC
  8
SURFACE
 62
7
  6
CONTINUOUS
 10
37.4314117647
 20
159.9374641272
 40
0.5
 50
135.5846914028
 51
180.0
  0
ARC
  8
SURFACE
 62
7
  6
CONTINUOUS
 10
50.1314117647
 20
159.9374641272
 40
0.5
 50
135.5846914028
 51
180.0
  0
ARC
  8
SURFACE
 62
7
  6
CONTINUOUS
 10
62.8314117647
 20
159.9374641272
 40
0.5
 50
135.5846914028
 51
180.0
  0
ARC
  8
SURFACE
 62
7
  6
CONTINUOUS
 10
80.8814117647
 20
156.4635722504
 40
0.15
 50
345.8
 51
360.0
  0
ARC
  8
AXES
 62
7
  6
CONTINUOUS
 10
80.8814117647
 20
156.4635722504
 40
0.15
 50
345.8
 51
360.0
  0
ARC
  8
AXES
 62
7
  6
CONTINUOUS
 10
75.1814117647
 20
156.4635722504
 40
0.15
 50
180.0
 51
194.2
  0
ARC
  8
SURFACE
 62
7
  6
CONTINUOUS
 10
75.1814144954
 20
156.463561459
 40
0.15
 50
179.9958781125
 51
194.1957480523
  0
ARC
  8
AXES
 62
7
  6
CONTINUOUS
 10
87.8814117647
 20
156.4635722504
 40
0.15
 50
180.0
 51
194.2
  0
ARC
  8
SURFACE
 62
7
  6
CONTINUOUS
 10
87.8814144954
 20
156.463561459
 40
0.15
 50
179.9958781125
 51
194.1957480523
  0
ARC
  8
SURFACE
 62
7
  6
CONTINUOUS
 10
78.0314117647
 20
157.4879743844
 40
4.0
 50
44.4153085972
 51
135.5846914028
  0
ARC
  8
SURFACE
 62
7
  6
CONTINUOUS
 10
93.5814117647
 20
156.4635722504
 40
0.15
 50
345.8
 51
360.0
  0
ARC
  8
AXES
 62
7
  6
CONTINUOUS
 10
93.5814117647
 20
156.4635722504
 40
0.15
 50
345.8
 51
360.0
  0
ARC
  8
SURFACE
 62
7
  6
CONTINUOUS
 10
106.2814117647
 20
156.4635722504
 40
0.15
 50
345.8
 51
360.0
  0
ARC
  8
AXES
 62
7
  6
CONTINUOUS
 10
106.2814117647
 20
156.4635722504
 40
0.15
 50
345.8
 51
360.0
  0
ARC
  8
AXES
 62
7
  6
CONTINUOUS
 10
100.5814117647
 20
156.4635722504
 40
0.15
 50
180.0
 51
194.2
  0
ARC
  8
SURFACE
 62
7
  6
CONTINUOUS
 10
100.5814144954
 20
156.463561459
 40
0.15
 50
179.9958781125
 51
194.1957480523
  0
ARC
  8
SURFACE
 62
7
  6
CONTINUOUS
 10
90.7314117647
 20
157.4879743844
 40
4.0
 50
44.4153085972
 51
135.5846914028
  0
ARC
  8
SURFACE
 62
7
  6
CONTINUOUS
 10
103.4314117647
 20
157.4879743844
 40
4.0
 50
44.4153085972
 51
135.5846914028
  0
ARC
  8
SURFACE
 62
7
  6
CONTINUOUS
 10
80.5314111795
 20
159.9374649218
 40
0.5000000197
 50
359.9999089471
 51
44.4151966284
  0
ARC
  8
SURFACE
 62
7
  6
CONTINUOUS
 10
93.2314111795
 20
159.9374649218
 40
0.5000000197
 50
359.9999089471
 51
44.4151966284
  0
ARC
  8
SURFACE
 62
7
  6
CONTINUOUS
 10
105.9314111795
 20
159.9374649218
 40
0.5000000197
 50
359.9999089471
 51
44.4151966284
  0
ARC
  8
SURFACE
 62
7
  6
CONTINUOUS
 10
75.5314117647
 20
159.9374641272
 40
0.5
 50
135.5846914028
 51
180.0
  0
ARC
  8
SURFACE
 62
7
  6
CONTINUOUS
 10
88.2314117647
 20
159.9374641272
 40
0.5
 50
135.5846914028
 51
180.0
  0
ARC
  8
SURFACE
 62
7
  6
CONTINUOUS
 10
100.9314117647
 20
159.9374641272
 40
0.5
 50
135.5846914028
 51
180.0
  0
ARC
  8
SURFACE
 62
7
  6
CONTINUOUS
 10
120.3814117647
 20
147.2219743844
 40
2.0
 50
186.7189899125
 51
270.0
  0
ARC
  8
SURFACE
 62
7
  6
CONTINUOUS
 10
133.0814117647
 20
147.2219743844
 40
2.0
 50
186.7189899125
 51
270.0
  0
ARC
  8
SURFACE
 62
7
  6
CONTINUOUS
 10
124.5814117647
 20
147.2219743844
 40
2.0
 50
270.0
 51
353.2810100152
  0
ARC
  8
SURFACE
 62
7
  6
CONTINUOUS
 10
145.7814117647
 20
147.2219743844
 40
2.0
 50
186.7189899125
 51
270.0
  0
ARC
  8
SURFACE
 62
7
  6
CONTINUOUS
 10
137.2814117647
 20
147.2219743844
 40
2.0
 50
270.0
 51
353.2810100152
  0
ARC
  8
SURFACE
 62
7
  6
CONTINUOUS
 10
158.4814117647
 20
147.2219743844
 40
2.0
 50
186.7189899125
 51
270.0
  0
ARC
  8
SURFACE
 62
7
  6
CONTINUOUS
 10
149.9814117647
 20
147.2219743844
 40
2.0
 50
270.0
 51
353.2810100152
  0
ARC
  8
SURFACE
 62
7
  6
CONTINUOUS
 10
171.1814117647
 20
147.2219743844
 40
2.0
 50
186.7189899125
 51
270.0
  0
ARC
  8
SURFACE
 62
7
  6
CONTINUOUS
 10
162.6814117647
 20
147.2219743844
 40
2.0
 50
270.0
 51
353.2810100152
  0
ARC
  8
SURFACE
 62
7
  6
CONTINUOUS
 10
183.8814117647
 20
147.2219743844
 40
2.0
 50
186.7189899125
 51
270.0
  0
ARC
  8
SURFACE
 62
7
  6
CONTINUOUS
 10
175.3814117647
 20
147.2219743844
 40
2.0
 50
270.0
 51
353.2810100152
  0
ARC
  8
SURFACE
 62
7
  6
CONTINUOUS
 10
188.0814117647
 20
147.2219743844
 40
2.0
 50
270.0
 51
353.2810100152
  0
ARC
  8
SURFACE
 62
7
  6
CONTINUOUS
 10
118.8814117647
 20
153.4186393296
 40
0.5
 50
165.8
 51
180.0
  0
ARC
  8
AXES
 62
7
  6
CONTINUOUS
 10
118.8814117647
 20
153.4186393296
 40
0.5
 50
171.0638278437
 51
174.737302028
  0
ARC
  8
SURFACE
 62
7
  6
CONTINUOUS
 10
113.3814117647
 20
153.4186393296
 40
0.5
 50
0.0
 51
14.2
  0
ARC
  8
AXES
 62
7
  6
CONTINUOUS
 10
113.3814117647
 20
153.4186393296
 40
0.5
 50
5.262697972
 51
8.9361721562
  0
ARC
  8
SURFACE
 62
7
  6
CONTINUOUS
 10
131.5814117647
 20
153.4186393296
 40
0.5
 50
165.8
 51
180.0
  0
ARC
  8
AXES
 62
7
  6
CONTINUOUS
 10
131.5814117647
 20
153.4186393296
 40
0.5
 50
171.0638278437
 51
174.737302028
  0
ARC
  8
SURFACE
 62
7
  6
CONTINUOUS
 10
126.0814117647
 20
153.4186393296
 40
0.5
 50
0.0
 51
14.2
  0
ARC
  8
AXES
 62
7
  6
CONTINUOUS
 10
126.0814117647
 20
153.4186393296
 40
0.5
 50
5.262697972
 51
8.9361721563
  0
ARC
  8
SURFACE
 62
7
  6
CONTINUOUS
 10
144.2814117647
 20
153.4186393296
 40
0.5
 50
165.8
 51
180.0
  0
ARC
  8
AXES
 62
7
  6
CONTINUOUS
 10
144.2814117647
 20
153.4186393296
 40
0.5
 50
171.0638278437
 51
174.737302028
  0
ARC
  8
SURFACE
 62
7
  6
CONTINUOUS
 10
138.7814117647
 20
153.4186393296
 40
0.5
 50
0.0
 51
14.2
  0
ARC
  8
AXES
 62
7
  6
CONTINUOUS
 10
138.7814117647
 20
153.4186393296
 40
0.5
 50
5.262697972
 51
8.9361721563
  0
ARC
  8
AXES
 62
7
  6
CONTINUOUS
 10
176.8814117647
 20
153.4186393296
 40
0.5
 50
5.262697972
 51
8.9361721563
  0
ARC
  8
SURFACE
 62
7
  6
CONTINUOUS
 10
176.8814117647
 20
153.4186393296
 40
0.5
 50
0.0
 51
14.2
  0
ARC
  8
SURFACE
 62
7
  6
CONTINUOUS
 10
156.9814117647
 20
153.4186393296
 40
0.5
 50
165.8
 51
180.0
  0
ARC
  8
AXES
 62
7
  6
CONTINUOUS
 10
156.9814117647
 20
153.4186393296
 40
0.5
 50
171.0638278437
 51
174.737302028
  0
ARC
  8
AXES
 62
7
  6
CONTINUOUS
 10
182.3814117647
 20
153.4186393296
 40
0.5
 50
171.0638278438
 51
174.737302028
  0
ARC
  8
SURFACE
 62
7
  6
CONTINUOUS
 10
182.3814117647
 20
153.4186393296
 40
0.5
 50
165.8
 51
180.0
  0
ARC
  8
SURFACE
 62
7
  6
CONTINUOUS
 10
151.4814117647
 20
153.4186393296
 40
0.5
 50
0.0
 51
14.2
  0
ARC
  8
AXES
 62
7
  6
CONTINUOUS
 10
151.4814117647
 20
153.4186393296
 40
0.5
 50
5.262697972
 51
8.9361721563
  0
ARC
  8
AXES
 62
7
  6
CONTINUOUS
 10
164.1814117647
 20
153.4186393296
 40
0.5
 50
5.262697972
 51
8.9361721563
  0
ARC
  8
SURFACE
 62
7
  6
CONTINUOUS
 10
164.1814117647
 20
153.4186393296
 40
0.5
 50
0.0
 51
14.2
  0
ARC
  8
SURFACE
 62
7
  6
CONTINUOUS
 10
169.6814117647
 20
153.4186393296
 40
0.5
 50
165.8
 51
180.0
  0
ARC
  8
AXES
 62
7
  6
CONTINUOUS
 10
169.6814117647
 20
153.4186393296
 40
0.5
 50
171.0638278437
 51
174.737302028
  0
ARC
  8
SURFACE
 62
7
  6
CONTINUOUS
 10
118.9814117647
 20
156.4635722504
 40
0.15
 50
345.8
 51
360.0
  0
ARC
  8
AXES
 62
7
  6
CONTINUOUS
 10
118.9814117647
 20
156.4635722504
 40
0.15
 50
345.8
 51
360.0
  0
ARC
  8
AXES
 62
7
  6
CONTINUOUS
 10
113.2814117647
 20
156.4635722504
 40
0.15
 50
180.0
 51
194.2
  0
ARC
  8
SURFACE
 62
7
  6
CONTINUOUS
 10
113.2814144954
 20
156.463561459
 40
0.15
 50
179.9958781125
 51
194.1957480523
  0
ARC
  8
AXES
 62
7
  6
CONTINUOUS
 10
125.9814117647
 20
156.4635722504
 40
0.15
 50
180.0
 51
194.2
  0
ARC
  8
SURFACE
 62
7
  6
CONTINUOUS
 10
125.9814144954
 20
156.463561459
 40
0.15
 50
179.9958781125
 51
194.1957480523
  0
ARC
  8
SURFACE
 62
7
  6
CONTINUOUS
 10
116.1314117647
 20
157.4879743844
 40
4.0
 50
44.4153085972
 51
135.5846914028
  0
ARC
  8
SURFACE
 62
7
  6
CONTINUOUS
 10
131.6814117647
 20
156.4635722504
 40
0.15
 50
345.8
 51
360.0
  0
ARC
  8
AXES
 62
7
  6
CONTINUOUS
 10
131.6814117647
 20
156.4635722504
 40
0.15
 50
345.8
 51
360.0
  0
ARC
  8
SURFACE
 62
7
  6
CONTINUOUS
 10
144.3814117647
 20
156.4635722504
 40
0.15
 50
345.8
 51
360.0
  0
ARC
  8
AXES
 62
7
  6
CONTINUOUS
 10
144.3814117647
 20
156.4635722504
 40
0.15
 50
345.8
 51
360.0
  0
ARC
  8
AXES
 62
7
  6
CONTINUOUS
 10
138.6814117647
 20
156.4635722504
 40
0.15
 50
180.0
 51
194.2
  0
ARC
  8
SURFACE
 62
7
  6
CONTINUOUS
 10
138.6814144954
 20
156.463561459
 40
0.15
 50
179.9958781125
 51
194.1957480523
  0
ARC
  8
SURFACE
 62
7
  6
CONTINUOUS
 10
128.8314117647
 20
157.4879743844
 40
4.0
 50
44.4153085972
 51
135.5846914028
  0
ARC
  8
SURFACE
 62
7
  6
CONTINUOUS
 10
141.5314117647
 20
157.4879743844
 40
4.0
 50
44.4153085972
 51
135.5846914028
  0
ARC
  8
SURFACE
 62
7
  6
CONTINUOUS
 10
118.6314111795
 20
159.9374649218
 40
0.5000000197
 50
359.9999089471
 51
44.4151966284
  0
ARC
  8
SURFACE
 62
7
  6
CONTINUOUS
 10
131.3314111795
 20
159.9374649218
 40
0.5000000197
 50
359.9999089471
 51
44.4151966284
  0
ARC
  8
SURFACE
 62
7
  6
CONTINUOUS
 10
144.0314111795
 20
159.9374649218
 40
0.5000000197
 50
359.9999089471
 51
44.4151966284
  0
ARC
  8
SURFACE
 62
7
  6
CONTINUOUS
 10
113.6314117647
 20
159.9374641272
 40
0.5
 50
135.5846914028
 51
180.0
  0
ARC
  8
SURFACE
 62
7
  6
CONTINUOUS
 10
126.3314117647
 20
159.9374641272
 40
0.5
 50
135.5846914028
 51
180.0
  0
ARC
  8
SURFACE
 62
7
  6
CONTINUOUS
 10
139.0314117647
 20
159.9374641272
 40
0.5
 50
135.5846914028
 51
180.0
  0
ARC
  8
SURFACE
 62
7
  6
CONTINUOUS
 10
157.0814117647
 20
156.4635722504
 40
0.15
 50
345.8
 51
360.0
  0
ARC
  8
AXES
 62
7
  6
CONTINUOUS
 10
157.0814117647
 20
156.4635722504
 40
0.15
 50
345.8
 51
360.0
  0
ARC
  8
AXES
 62
7
  6
CONTINUOUS
 10
151.3814117647
 20
156.4635722504
 40
0.15
 50
180.0
 51
194.2
  0
ARC
  8
SURFACE
 62
7
  6
CONTINUOUS
 10
151.3814144954
 20
156.463561459
 40
0.15
 50
179.9958781125
 51
194.1957480523
  0
ARC
  8
SURFACE
 62
7
  6
CONTINUOUS
 10
164.0814144954
 20
156.463561459
 40
0.15
 50
179.9958781125
 51
194.1957480523
  0
ARC
  8
AXES
 62
7
  6
CONTINUOUS
 10
164.0814117647
 20
156.4635722504
 40
0.15
 50
180.0
 51
194.2
  0
ARC
  8
SURFACE
 62
7
  6
CONTINUOUS
 10
154.2314117647
 20
157.4879743844
 40
4.0
 50
44.4153085972
 51
135.5846914028
  0
ARC
  8
SURFACE
 62
7
  6
CONTINUOUS
 10
176.7814144954
 20
156.463561459
 40
0.15
 50
179.9958781125
 51
194.1957480523
  0
ARC
  8
AXES
 62
7
  6
CONTINUOUS
 10
176.7814117647
 20
156.4635722504
 40
0.15
 50
180.0
 51
194.2
  0
ARC
  8
AXES
 62
7
  6
CONTINUOUS
 10
182.4814117647
 20
156.4635722504
 40
0.15
 50
345.8
 51
360.0
  0
ARC
  8
SURFACE
 62
7
  6
CONTINUOUS
 10
182.4814117647
 20
156.4635722504
 40
0.15
 50
345.8
 51
360.0
  0
ARC
  8
SURFACE
 62
7
  6
CONTINUOUS
 10
169.7814117647
 20
156.4635722504
 40
0.15
 50
345.8
 51
360.0
  0
ARC
  8
AXES
 62
7
  6
CONTINUOUS
 10
169.7814117647
 20
156.4635722504
 40
0.15
 50
345.8
 51
360.0
  0
ARC
  8
SURFACE
 62
7
  6
CONTINUOUS
 10
179.6314117647
 20
157.4879743844
 40
4.0
 50
44.4153085972
 51
135.5846914028
  0
ARC
  8
SURFACE
 62
7
  6
CONTINUOUS
 10
166.9314117647
 20
157.4879743844
 40
4.0
 50
44.4153085972
 51
135.5846914028
  0
ARC
  8
SURFACE
 62
7
  6
CONTINUOUS
 10
156.7314111795
 20
159.9374649218
 40
0.5000000197
 50
359.9999089471
 51
44.4151966284
  0
ARC
  8
SURFACE
 62
7
  6
CONTINUOUS
 10
182.1314111795
 20
159.9374649218
 40
0.5000000197
 50
359.9999089471
 51
44.4151966284
  0
ARC
  8
SURFACE
 62
7
  6
CONTINUOUS
 10
169.4314111795
 20
159.9374649218
 40
0.5000000197
 50
359.9999089471
 51
44.4151966284
  0
ARC
  8
SURFACE
 62
7
  6
CONTINUOUS
 10
177.1314117647
 20
159.9374641272
 40
0.5
 50
135.5846914028
 51
180.0
  0
ARC
  8
SURFACE
 62
7
  6
CONTINUOUS
 10
151.7314117647
 20
159.9374641272
 40
0.5
 50
135.5846914028
 51
180.0
  0
ARC
  8
SURFACE
 62
7
  6
CONTINUOUS
 10
164.4314117647
 20
159.9374641272
 40
0.5
 50
135.5846914028
 51
180.0
  0
ARC
  8
SURFACE
 62
7
  6
CONTINUOUS
 10
226.3314117647
 20
128.1379743844
 40
0.75
 50
270.0
 51
360.0
  0
ARC
  8
SURFACE
 62
7
  6
CONTINUOUS
 10
213.6314117647
 20
128.1379743844
 40
0.75
 50
270.0
 51
360.0
  0
ARC
  8
SURFACE
 62
7
  6
CONTINUOUS
 10
221.8314117647
 20
128.1379743844
 40
0.75
 50
180.0
 51
270.0
  0
ARC
  8
SURFACE
 62
7
  6
CONTINUOUS
 10
200.9314117647
 20
128.1379743844
 40
0.75
 50
270.0
 51
360.0
  0
ARC
  8
SURFACE
 62
7
  6
CONTINUOUS
 10
209.1314117647
 20
128.1379743844
 40
0.75
 50
180.0
 51
270.0
  0
ARC
  8
SURFACE
 62
7
  6
CONTINUOUS
 10
196.4314117647
 20
128.1379743844
 40
0.75
 50
180.0
 51
270.0
  0
ARC
  8
SURFACE
 62
7
  6
CONTINUOUS
 10
226.931409131
 20
132.3895223181
 40
0.15
 50
359.9960244191
 51
14.1958989767
  0
ARC
  8
SURFACE
 62
7
  6
CONTINUOUS
 10
221.2314117647
 20
132.3895119097
 40
0.15
 50
165.8
 51
180.0
  0
ARC
  8
SURFACE
 62
7
  6
CONTINUOUS
 10
214.231409131
 20
132.3895223181
 40
0.15
 50
359.9960244191
 51
14.1958989767
  0
ARC
  8
SURFACE
 62
7
  6
CONTINUOUS
 10
208.5314117647
 20
132.3895119097
 40
0.15
 50
165.8
 51
180.0
  0
ARC
  8
SURFACE
 62
7
  6
CONTINUOUS
 10
201.531409131
 20
132.3895223181
 40
0.15
 50
359.9960244191
 51
14.1958989767
  0
ARC
  8
SURFACE
 62
7
  6
CONTINUOUS
 10
195.8314117647
 20
132.3895119097
 40
0.15
 50
165.8
 51
180.0
  0
ARC
  8
SURFACE
 62
7
  6
CONTINUOUS
 10
264.4314117647
 20
128.1379743844
 40
0.75
 50
270.0
 51
360.0
  0
ARC
  8
SURFACE
 62
7
  6
CONTINUOUS
 10
251.7314117647
 20
128.1379743844
 40
0.75
 50
270.0
 51
360.0
  0
ARC
  8
SURFACE
 62
7
  6
CONTINUOUS
 10
259.9314117647
 20
128.1379743844
 40
0.75
 50
180.0
 51
270.0
  0
ARC
  8
SURFACE
 62
7
  6
CONTINUOUS
 10
239.0314117647
 20
128.1379743844
 40
0.75
 50
270.0
 51
360.0
  0
ARC
  8
SURFACE
 62
7
  6
CONTINUOUS
 10
247.2314117647
 20
128.1379743844
 40
0.75
 50
180.0
 51
270.0
  0
ARC
  8
SURFACE
 62
7
  6
CONTINUOUS
 10
234.5314117647
 20
128.1379743844
 40
0.75
 50
180.0
 51
270.0
  0
ARC
  8
SURFACE
 62
7
  6
CONTINUOUS
 10
265.031409131
 20
132.3895223181
 40
0.15
 50
359.9960244191
 51
14.1958989767
  0
ARC
  8
SURFACE
 62
7
  6
CONTINUOUS
 10
259.3314117647
 20
132.3895119097
 40
0.15
 50
165.8
 51
180.0
  0
ARC
  8
SURFACE
 62
7
  6
CONTINUOUS
 10
252.331409131
 20
132.3895223181
 40
0.15
 50
359.9960244191
 51
14.1958989767
  0
ARC
  8
SURFACE
 62
7
  6
CONTINUOUS
 10
246.6314117647
 20
132.3895119097
 40
0.15
 50
165.8
 51
180.0
  0
ARC
  8
SURFACE
 62
7
  6
CONTINUOUS
 10
239.631409131
 20
132.3895223181
 40
0.15
 50
359.9960244191
 51
14.1958989767
  0
ARC
  8
SURFACE
 62
7
  6
CONTINUOUS
 10
233.9314117647
 20
132.3895119097
 40
0.15
 50
165.8
 51
180.0
  0
ARC
  8
SURFACE
 62
7
  6
CONTINUOUS
 10
255.8314117647
 20
139.6339743844
 40
4.104
 50
0.0
 51
180.0
  0
ARC
  8
SURFACE
 62
7
  6
CONTINUOUS
 10
243.1314117647
 20
139.6339743844
 40
4.104
 50
0.0
 51
180.0
  0
ARC
  8
SURFACE
 62
7
  6
CONTINUOUS
 10
230.4314117647
 20
139.6339743844
 40
4.104
 50
0.0
 51
180.0
  0
ARC
  8
SURFACE
 62
7
  6
CONTINUOUS
 10
217.7314117647
 20
139.6339743844
 40
4.104
 50
0.0
 51
180.0
  0
ARC
  8
SURFACE
 62
7
  6
CONTINUOUS
 10
205.0314117647
 20
139.6339743844
 40
4.104
 50
0.0
 51
180.0
  0
ARC
  8
SURFACE
 62
7
  6
CONTINUOUS
 10
192.3314117647
 20
139.6339743844
 40
4.104
 50
0.0
 51
180.0
  0
ARC
  8
SURFACE
 62
7
  6
CONTINUOUS
 10
264.9274117647
 20
135.4502526766
 40
0.5
 50
180.0
 51
194.2
  0
ARC
  8
SURFACE
 62
7
  6
CONTINUOUS
 10
252.2274117647
 20
135.4502526766
 40
0.5
 50
180.0
 51
194.2
  0
ARC
  8
SURFACE
 62
7
  6
CONTINUOUS
 10
259.4354117647
 20
135.4502526766
 40
0.5
 50
345.8
 51
360.0
  0
ARC
  8
SURFACE
 62
7
  6
CONTINUOUS
 10
239.5274117647
 20
135.4502526766
 40
0.5
 50
180.0
 51
194.2
  0
ARC
  8
SURFACE
 62
7
  6
CONTINUOUS
 10
246.7354117647
 20
135.4502526766
 40
0.5
 50
345.8
 51
360.0
  0
ARC
  8
SURFACE
 62
7
  6
CONTINUOUS
 10
226.8274117647
 20
135.4502526766
 40
0.5
 50
180.0
 51
194.2
  0
ARC
  8
SURFACE
 62
7
  6
CONTINUOUS
 10
234.0354117647
 20
135.4502526766
 40
0.5
 50
345.8
 51
360.0
  0
ARC
  8
SURFACE
 62
7
  6
CONTINUOUS
 10
214.1274117647
 20
135.4502526766
 40
0.5
 50
180.0
 51
194.2
  0
ARC
  8
SURFACE
 62
7
  6
CONTINUOUS
 10
221.3354117647
 20
135.4502526766
 40
0.5
 50
345.8
 51
360.0
  0
ARC
  8
SURFACE
 62
7
  6
CONTINUOUS
 10
201.4274117647
 20
135.4502526766
 40
0.5
 50
180.0
 51
194.2
  0
ARC
  8
SURFACE
 62
7
  6
CONTINUOUS
 10
208.6354117647
 20
135.4502526766
 40
0.5
 50
345.8
 51
360.0
  0
ARC
  8
SURFACE
 62
7
  6
CONTINUOUS
 10
195.9354117647
 20
135.4502526766
 40
0.5
 50
345.8
 51
360.0
  0
ARC
  8
SURFACE
 62
7
  6
CONTINUOUS
 10
302.5314117647
 20
128.1379743844
 40
0.75
 50
270.0
 51
360.0
  0
ARC
  8
SURFACE
 62
7
  6
CONTINUOUS
 10
289.8314117647
 20
128.1379743844
 40
0.75
 50
270.0
 51
360.0
  0
ARC
  8
SURFACE
 62
7
  6
CONTINUOUS
 10
298.0314117647
 20
128.1379743844
 40
0.75
 50
180.0
 51
270.0
  0
ARC
  8
SURFACE
 62
7
  6
CONTINUOUS
 10
277.1314117647
 20
128.1379743844
 40
0.75
 50
270.0
 51
360.0
  0
ARC
  8
SURFACE
 62
7
  6
CONTINUOUS
 10
285.3314117647
 20
128.1379743844
 40
0.75
 50
180.0
 51
270.0
  0
ARC
  8
SURFACE
 62
7
  6
CONTINUOUS
 10
272.6314117647
 20
128.1379743844
 40
0.75
 50
180.0
 51
270.0
  0
ARC
  8
SURFACE
 62
7
  6
CONTINUOUS
 10
303.131409131
 20
132.3895223181
 40
0.15
 50
359.9960244191
 51
14.1958989767
  0
ARC
  8
SURFACE
 62
7
  6
CONTINUOUS
 10
297.4314117647
 20
132.3895119097
 40
0.15
 50
165.8
 51
180.0
  0
ARC
  8
SURFACE
 62
7
  6
CONTINUOUS
 10
290.431409131
 20
132.3895223181
 40
0.15
 50
359.9960244191
 51
14.1958989767
  0
ARC
  8
SURFACE
 62
7
  6
CONTINUOUS
 10
284.7314117647
 20
132.3895119097
 40
0.15
 50
165.8
 51
180.0
  0
ARC
  8
SURFACE
 62
7
  6
CONTINUOUS
 10
277.731409131
 20
132.3895223181
 40
0.15
 50
359.9960244191
 51
14.1958989767
  0
ARC
  8
SURFACE
 62
7
  6
CONTINUOUS
 10
272.0314117647
 20
132.3895119097
 40
0.15
 50
165.8
 51
180.0
  0
ARC
  8
SURFACE
 62
7
  6
CONTINUOUS
 10
315.2314117647
 20
128.1379743844
 40
0.75
 50
270.0
 51
360.0
  0
ARC
  8
0
 62
7
  6
CONTINUOUS
 10
336.1314117647
 20
128.1379743844
 40
0.75
 50
180.0
 51
270.0
  0
ARC
  8
0
 62
7
  6
CONTINUOUS
 10
327.9314117647
 20
128.1379743844
 40
0.75
 50
270.0
 51
360.0
  0
ARC
  8
SURFACE
 62
7
  6
CONTINUOUS
 10
323.4314117647
 20
128.1379743844
 40
0.75
 50
180.0
 51
270.0
  0
ARC
  8
0
 62
7
  6
CONTINUOUS
 10
340.6314117647
 20
128.1379743844
 40
0.75
 50
270.0
 51
360.0
  0
ARC
  8
SURFACE
 62
7
  6
CONTINUOUS
 10
310.7314117647
 20
128.1379743844
 40
0.75
 50
180.0
 51
270.0
  0
ARC
  8
0
 62
7
  6
CONTINUOUS
 10
335.5314117647
 20
132.3895119097
 40
0.15
 50
165.8
 51
180.0
  0
ARC
  8
0
 62
7
  6
CONTINUOUS
 10
328.531409131
 20
132.3895223181
 40
0.15
 50
359.9960244191
 51
14.1958989767
  0
ARC
  8
SURFACE
 62
7
  6
CONTINUOUS
 10
322.8314117647
 20
132.3895119097
 40
0.15
 50
165.8
 51
180.0
  0
ARC
  8
SURFACE
 62
7
  6
CONTINUOUS
 10
315.831409131
 20
132.3895223181
 40
0.15
 50
359.9960244191
 51
14.1958989767
  0
ARC
  8
0
 62
7
  6
CONTINUOUS
 10
341.2314117473
 20
132.3895119785
 40
0.15
 50
359.9999737064
 51
14.1999728776
  0
ARC
  8
SURFACE
 62
7
  6
CONTINUOUS
 10
310.1314117647
 20
132.3895119097
 40
0.15
 50
165.8
 51
180.0
  0
ARC
  8
0
 62
7
  6
CONTINUOUS
 10
332.0314117647
 20
139.6339743844
 40
4.104
 50
0.0
 51
180.0
  0
ARC
  8
SURFACE
 62
7
  6
CONTINUOUS
 10
319.3314117647
 20
139.6339743844
 40
4.104
 50
0.0
 51
180.0
  0
ARC
  8
SURFACE
 62
7
  6
CONTINUOUS
 10
306.6314117647
 20
139.6339743844
 40
4.104
 50
0.0
 51
180.0
  0
ARC
  8
SURFACE
 62
7
  6
CONTINUOUS
 10
293.9314117647
 20
139.6339743844
 40
4.104
 50
0.0
 51
180.0
  0
ARC
  8
SURFACE
 62
7
  6
CONTINUOUS
 10
281.2314117647
 20
139.6339743844
 40
4.104
 50
0.0
 51
180.0
  0
ARC
  8
SURFACE
 62
7
  6
CONTINUOUS
 10
268.5314117647
 20
139.6339743844
 40
4.104
 50
0.0
 51
180.0
  0
ARC
  8
0
 62
7
  6
CONTINUOUS
 10
328.4274117647
 20
135.4502526766
 40
0.5
 50
180.0
 51
194.2
  0
ARC
  8
0
 62
7
  6
CONTINUOUS
 10
335.6354117647
 20
135.4502526766
 40
0.5
 50
345.8
 51
360.0
  0
ARC
  8
SURFACE
 62
7
  6
CONTINUOUS
 10
315.7274117647
 20
135.4502526766
 40
0.5
 50
180.0
 51
194.2
  0
ARC
  8
SURFACE
 62
7
  6
CONTINUOUS
 10
322.9354117647
 20
135.4502526766
 40
0.5
 50
345.8
 51
360.0
  0
ARC
  8
0
 62
7
  6
CONTINUOUS
 10
341.1274117647
 20
135.4502526766
 40
0.5
 50
180.0
 51
194.2
  0
ARC
  8
SURFACE
 62
7
  6
CONTINUOUS
 10
303.0274117647
 20
135.4502526766
 40
0.5
 50
180.0
 51
194.2
  0
ARC
  8
SURFACE
 62
7
  6
CONTINUOUS
 10
310.2354117647
 20
135.4502526766
 40
0.5
 50
345.8
 51
360.0
  0
ARC
  8
SURFACE
 62
7
  6
CONTINUOUS
 10
290.3274117647
 20
135.4502526766
 40
0.5
 50
180.0
 51
194.2
  0
ARC
  8
SURFACE
 62
7
  6
CONTINUOUS
 10
297.5354117647
 20
135.4502526766
 40
0.5
 50
345.8
 51
360.0
  0
ARC
  8
SURFACE
 62
7
  6
CONTINUOUS
 10
277.6274117647
 20
135.4502526766
 40
0.5
 50
180.0
 51
194.2
  0
ARC
  8
SURFACE
 62
7
  6
CONTINUOUS
 10
284.8354117647
 20
135.4502526766
 40
0.5
 50
345.8
 51
360.0
  0
ARC
  8
SURFACE
 62
7
  6
CONTINUOUS
 10
272.1354117647
 20
135.4502526766
 40
0.5
 50
345.8
 51
360.0
  0
ARC
  8
SURFACE
 62
7
  6
CONTINUOUS
 10
196.5814117647
 20
147.2219743844
 40
2.0
 50
186.7189899125
 51
270.0
  0
ARC
  8
SURFACE
 62
7
  6
CONTINUOUS
 10
209.2814117647
 20
147.2219743844
 40
2.0
 50
186.7189899125
 51
270.0
  0
ARC
  8
SURFACE
 62
7
  6
CONTINUOUS
 10
200.7814117647
 20
147.2219743844
 40
2.0
 50
270.0
 51
353.2810100152
  0
ARC
  8
SURFACE
 62
7
  6
CONTINUOUS
 10
221.9814117647
 20
147.2219743844
 40
2.0
 50
186.7189899125
 51
270.0
  0
ARC
  8
SURFACE
 62
7
  6
CONTINUOUS
 10
213.4814117647
 20
147.2219743844
 40
2.0
 50
270.0
 51
353.2810100152
  0
ARC
  8
SURFACE
 62
7
  6
CONTINUOUS
 10
234.6814117647
 20
147.2219743844
 40
2.0
 50
186.7189899125
 51
270.0
  0
ARC
  8
SURFACE
 62
7
  6
CONTINUOUS
 10
226.1814117647
 20
147.2219743844
 40
2.0
 50
270.0
 51
353.2810100152
  0
ARC
  8
SURFACE
 62
7
  6
CONTINUOUS
 10
247.3814117647
 20
147.2219743844
 40
2.0
 50
186.7189899125
 51
270.0
  0
ARC
  8
SURFACE
 62
7
  6
CONTINUOUS
 10
238.8814117647
 20
147.2219743844
 40
2.0
 50
270.0
 51
353.2810100152
  0
ARC
  8
SURFACE
 62
7
  6
CONTINUOUS
 10
260.0814117647
 20
147.2219743844
 40
2.0
 50
186.7189899125
 51
270.0
  0
ARC
  8
SURFACE
 62
7
  6
CONTINUOUS
 10
251.5814117647
 20
147.2219743844
 40
2.0
 50
270.0
 51
353.2810100152
  0
ARC
  8
SURFACE
 62
7
  6
CONTINUOUS
 10
264.2814117647
 20
147.2219743844
 40
2.0
 50
270.0
 51
353.2810100152
  0
ARC
  8
AXES
 62
7
  6
CONTINUOUS
 10
214.9814117647
 20
153.4186393296
 40
0.5
 50
5.2626979721
 51
8.9361721563
  0
ARC
  8
SURFACE
 62
7
  6
CONTINUOUS
 10
214.9814117647
 20
153.4186393296
 40
0.5
 50
0.0
 51
14.2
  0
ARC
  8
AXES
 62
7
  6
CONTINUOUS
 10
220.4814117647
 20
153.4186393296
 40
0.5
 50
171.0638278438
 51
174.737302028
  0
ARC
  8
SURFACE
 62
7
  6
CONTINUOUS
 10
220.4814117647
 20
153.4186393296
 40
0.5
 50
165.8
 51
180.0
  0
ARC
  8
AXES
 62
7
  6
CONTINUOUS
 10
202.2814117647
 20
153.4186393296
 40
0.5
 50
5.262697972
 51
8.9361721563
  0
ARC
  8
SURFACE
 62
7
  6
CONTINUOUS
 10
202.2814117647
 20
153.4186393296
 40
0.5
 50
0.0
 51
14.2
  0
ARC
  8
AXES
 62
7
  6
CONTINUOUS
 10
207.7814117647
 20
153.4186393296
 40
0.5
 50
171.0638278438
 51
174.737302028
  0
ARC
  8
SURFACE
 62
7
  6
CONTINUOUS
 10
207.7814117647
 20
153.4186393296
 40
0.5
 50
165.8
 51
180.0
  0
ARC
  8
AXES
 62
7
  6
CONTINUOUS
 10
189.5814117647
 20
153.4186393296
 40
0.5
 50
5.262697972
 51
8.9361721563
  0
ARC
  8
SURFACE
 62
7
  6
CONTINUOUS
 10
189.5814117647
 20
153.4186393296
 40
0.5
 50
0.0
 51
14.2
  0
ARC
  8
AXES
 62
7
  6
CONTINUOUS
 10
195.0814117647
 20
153.4186393296
 40
0.5
 50
171.0638278437
 51
174.737302028
  0
ARC
  8
SURFACE
 62
7
  6
CONTINUOUS
 10
195.0814117647
 20
153.4186393296
 40
0.5
 50
165.8
 51
180.0
  0
ARC
  8
SURFACE
 62
7
  6
CONTINUOUS
 10
214.8814144954
 20
156.463561459
 40
0.15
 50
179.9958781125
 51
194.1957480523
  0
ARC
  8
AXES
 62
7
  6
CONTINUOUS
 10
214.8814117647
 20
156.4635722504
 40
0.15
 50
180.0
 51
194.2
  0
ARC
  8
AXES
 62
7
  6
CONTINUOUS
 10
220.5814117647
 20
156.4635722504
 40
0.15
 50
345.8
 51
360.0
  0
ARC
  8
SURFACE
 62
7
  6
CONTINUOUS
 10
220.5814117647
 20
156.4635722504
 40
0.15
 50
345.8
 51
360.0
  0
ARC
  8
SURFACE
 62
7
  6
CONTINUOUS
 10
202.1814144954
 20
156.463561459
 40
0.15
 50
179.9958781125
 51
194.1957480523
  0
ARC
  8
AXES
 62
7
  6
CONTINUOUS
 10
202.1814117647
 20
156.4635722504
 40
0.15
 50
180.0
 51
194.2
  0
ARC
  8
AXES
 62
7
  6
CONTINUOUS
 10
207.8814117647
 20
156.4635722504
 40
0.15
 50
345.8000000002
 51
359.9999999997
  0
ARC
  8
SURFACE
 62
7
  6
CONTINUOUS
 10
207.8814117647
 20
156.4635722504
 40
0.15
 50
345.8
 51
360.0
  0
ARC
  8
SURFACE
 62
7
  6
CONTINUOUS
 10
189.4814144954
 20
156.463561459
 40
0.15
 50
179.9958781125
 51
194.1957480523
  0
ARC
  8
AXES
 62
7
  6
CONTINUOUS
 10
189.4814117647
 20
156.4635722504
 40
0.15
 50
180.0
 51
194.2
  0
ARC
  8
AXES
 62
7
  6
CONTINUOUS
 10
195.1814117647
 20
156.4635722504
 40
0.15
 50
345.8
 51
360.0
  0
ARC
  8
SURFACE
 62
7
  6
CONTINUOUS
 10
195.1814117647
 20
156.4635722504
 40
0.15
 50
345.8
 51
360.0
  0
ARC
  8
SURFACE
 62
7
  6
CONTINUOUS
 10
192.3314117647
 20
157.4879743844
 40
4.0
 50
44.4153085972
 51
135.5846914028
  0
ARC
  8
SURFACE
 62
7
  6
CONTINUOUS
 10
194.8314111795
 20
159.9374649218
 40
0.5000000197
 50
359.9999089471
 51
44.4151966284
  0
ARC
  8
SURFACE
 62
7
  6
CONTINUOUS
 10
202.5314117647
 20
159.9374641272
 40
0.5
 50
135.5846914028
 51
180.0
  0
ARC
  8
SURFACE
 62
7
  6
CONTINUOUS
 10
189.8314117647
 20
159.9374641272
 40
0.5
 50
135.5846914028
 51
180.0
  0
ARC
  8
SURFACE
 62
7
  6
CONTINUOUS
 10
217.7314117647
 20
157.4879743844
 40
4.0
 50
44.4153085972
 51
135.5846914028
  0
ARC
  8
SURFACE
 62
7
  6
CONTINUOUS
 10
205.0314117647
 20
157.4879743844
 40
4.0
 50
44.4153085972
 51
135.5846914028
  0
ARC
  8
SURFACE
 62
7
  6
CONTINUOUS
 10
220.2314111795
 20
159.9374649218
 40
0.5000000197
 50
359.9999089471
 51
44.4151966284
  0
ARC
  8
SURFACE
 62
7
  6
CONTINUOUS
 10
207.5314111795
 20
159.9374649218
 40
0.5000000197
 50
359.9999089471
 51
44.4151966284
  0
ARC
  8
SURFACE
 62
7
  6
CONTINUOUS
 10
215.2314117647
 20
159.9374641272
 40
0.5
 50
135.5846914028
 51
180.0
  0
ARC
  8
AXES
 62
7
  6
CONTINUOUS
 10
253.0814117647
 20
153.4186393296
 40
0.5
 50
5.262697972
 51
8.9361721562
  0
ARC
  8
SURFACE
 62
7
  6
CONTINUOUS
 10
253.0814117647
 20
153.4186393296
 40
0.5
 50
0.0
 51
14.2
  0
ARC
  8
AXES
 62
7
  6
CONTINUOUS
 10
258.5814117647
 20
153.4186393296
 40
0.5
 50
171.0638278437
 51
174.737302028
  0
ARC
  8
SURFACE
 62
7
  6
CONTINUOUS
 10
258.5814117647
 20
153.4186393296
 40
0.5
 50
165.8
 51
180.0
  0
ARC
  8
AXES
 62
7
  6
CONTINUOUS
 10
240.3814117647
 20
153.4186393296
 40
0.5
 50
5.262697972
 51
8.9361721564
  0
ARC
  8
SURFACE
 62
7
  6
CONTINUOUS
 10
240.3814117647
 20
153.4186393296
 40
0.5
 50
0.0
 51
14.2
  0
ARC
  8
AXES
 62
7
  6
CONTINUOUS
 10
245.8814117647
 20
153.4186393296
 40
0.5
 50
171.0638278437
 51
174.737302028
  0
ARC
  8
SURFACE
 62
7
  6
CONTINUOUS
 10
245.8814117647
 20
153.4186393296
 40
0.5
 50
165.8
 51
180.0
  0
ARC
  8
AXES
 62
7
  6
CONTINUOUS
 10
227.6814117647
 20
153.4186393296
 40
0.5
 50
5.262697972
 51
8.9361721563
  0
ARC
  8
SURFACE
 62
7
  6
CONTINUOUS
 10
227.6814117647
 20
153.4186393296
 40
0.5
 50
0.0
 51
14.2
  0
ARC
  8
AXES
 62
7
  6
CONTINUOUS
 10
233.1814117647
 20
153.4186393296
 40
0.5
 50
171.0638278437
 51
174.737302028
  0
ARC
  8
SURFACE
 62
7
  6
CONTINUOUS
 10
233.1814117647
 20
153.4186393296
 40
0.5
 50
165.8
 51
180.0
  0
ARC
  8
SURFACE
 62
7
  6
CONTINUOUS
 10
252.9814144954
 20
156.463561459
 40
0.15
 50
179.9958781125
 51
194.1957480523
  0
ARC
  8
AXES
 62
7
  6
CONTINUOUS
 10
252.9814117647
 20
156.4635722504
 40
0.15
 50
180.0
 51
194.1999999999
  0
ARC
  8
AXES
 62
7
  6
CONTINUOUS
 10
258.6814117647
 20
156.4635722504
 40
0.15
 50
345.8000000001
 51
359.9999999999
  0
ARC
  8
SURFACE
 62
7
  6
CONTINUOUS
 10
258.6814117647
 20
156.4635722504
 40
0.15
 50
345.8
 51
360.0
  0
ARC
  8
SURFACE
 62
7
  6
CONTINUOUS
 10
240.2814144954
 20
156.463561459
 40
0.15
 50
179.9958781125
 51
194.1957480523
  0
ARC
  8
AXES
 62
7
  6
CONTINUOUS
 10
240.2814117647
 20
156.4635722504
 40
0.15
 50
180.0
 51
194.2
  0
ARC
  8
AXES
 62
7
  6
CONTINUOUS
 10
245.9814117647
 20
156.4635722504
 40
0.15
 50
345.8000000001
 51
359.9999999999
  0
ARC
  8
SURFACE
 62
7
  6
CONTINUOUS
 10
245.9814117647
 20
156.4635722504
 40
0.15
 50
345.8
 51
360.0
  0
ARC
  8
SURFACE
 62
7
  6
CONTINUOUS
 10
227.5814144954
 20
156.463561459
 40
0.15
 50
179.9958781125
 51
194.1957480523
  0
ARC
  8
AXES
 62
7
  6
CONTINUOUS
 10
227.5814117647
 20
156.4635722504
 40
0.15
 50
180.0
 51
194.2
  0
ARC
  8
AXES
 62
7
  6
CONTINUOUS
 10
233.2814117647
 20
156.4635722504
 40
0.15
 50
345.8
 51
360.0
  0
ARC
  8
SURFACE
 62
7
  6
CONTINUOUS
 10
233.2814117647
 20
156.4635722504
 40
0.15
 50
345.8
 51
360.0
  0
ARC
  8
SURFACE
 62
7
  6
CONTINUOUS
 10
230.4314117647
 20
157.4879743844
 40
4.0
 50
44.4153085972
 51
135.5846914028
  0
ARC
  8
SURFACE
 62
7
  6
CONTINUOUS
 10
232.9314111795
 20
159.9374649218
 40
0.5000000197
 50
359.9999089471
 51
44.4151966284
  0
ARC
  8
SURFACE
 62
7
  6
CONTINUOUS
 10
240.6314117647
 20
159.9374641272
 40
0.5
 50
135.5846914028
 51
180.0
  0
ARC
  8
SURFACE
 62
7
  6
CONTINUOUS
 10
227.9314117647
 20
159.9374641272
 40
0.5
 50
135.5846914028
 51
180.0
  0
ARC
  8
SURFACE
 62
7
  6
CONTINUOUS
 10
255.8314117647
 20
157.4879743844
 40
4.0
 50
44.4153085972
 51
135.5846914028
  0
ARC
  8
SURFACE
 62
7
  6
CONTINUOUS
 10
243.1314117647
 20
157.4879743844
 40
4.0
 50
44.4153085972
 51
135.5846914028
  0
ARC
  8
SURFACE
 62
7
  6
CONTINUOUS
 10
258.3314111795
 20
159.9374649218
 40
0.5000000197
 50
359.9999089471
 51
44.4151966284
  0
ARC
  8
SURFACE
 62
7
  6
CONTINUOUS
 10
245.6314111795
 20
159.9374649218
 40
0.5000000197
 50
359.9999089471
 51
44.4151966284
  0
ARC
  8
SURFACE
 62
7
  6
CONTINUOUS
 10
253.3314117647
 20
159.9374641272
 40
0.5
 50
135.5846914028
 51
180.0
  0
ARC
  8
SURFACE
 62
7
  6
CONTINUOUS
 10
272.7814117647
 20
147.2219743844
 40
2.0
 50
186.7189899125
 51
270.0
  0
ARC
  8
SURFACE
 62
7
  6
CONTINUOUS
 10
285.4814117647
 20
147.2219743844
 40
2.0
 50
186.7189899125
 51
270.0
  0
ARC
  8
SURFACE
 62
7
  6
CONTINUOUS
 10
276.9814117647
 20
147.2219743844
 40
2.0
 50
270.0
 51
353.2810100152
  0
ARC
  8
SURFACE
 62
7
  6
CONTINUOUS
 10
298.1814117647
 20
147.2219743844
 40
2.0
 50
186.7189899125
 51
270.0
  0
ARC
  8
SURFACE
 62
7
  6
CONTINUOUS
 10
289.6814117647
 20
147.2219743844
 40
2.0
 50
270.0
 51
353.2810100152
  0
ARC
  8
SURFACE
 62
7
  6
CONTINUOUS
 10
310.8814117647
 20
147.2219743844
 40
2.0
 50
186.7189899125
 51
270.0
  0
ARC
  8
SURFACE
 62
7
  6
CONTINUOUS
 10
302.3814117647
 20
147.2219743844
 40
2.0
 50
270.0
 51
353.2810100152
  0
ARC
  8
SURFACE
 62
7
  6
CONTINUOUS
 10
323.5814117647
 20
147.2219743844
 40
2.0
 50
186.7189899125
 51
270.0
  0
ARC
  8
SURFACE
 62
7
  6
CONTINUOUS
 10
315.0814117647
 20
147.2219743844
 40
2.0
 50
270.0
 51
353.2810100152
  0
ARC
  8
0
 62
7
  6
CONTINUOUS
 10
336.2814117647
 20
147.2219743844
 40
2.0
 50
186.7189899125
 51
270.0
  0
ARC
  8
0
 62
7
  6
CONTINUOUS
 10
327.7814117647
 20
147.2219743844
 40
2.0
 50
270.0
 51
353.2810100152
  0
ARC
  8
0
 62
7
  6
CONTINUOUS
 10
340.4774117647
 20
145.0719743844
 40
0.15
 50
0.0
 51
90.0
  0
ARC
  8
AXES
 62
7
  6
CONTINUOUS
 10
291.1814117647
 20
153.4186393296
 40
0.5
 50
5.262697972
 51
8.9361721562
  0
ARC
  8
SURFACE
 62
7
  6
CONTINUOUS
 10
291.1814117647
 20
153.4186393296
 40
0.5
 50
0.0
 51
14.2
  0
ARC
  8
AXES
 62
7
  6
CONTINUOUS
 10
296.6814117647
 20
153.4186393296
 40
0.5
 50
171.0638278438
 51
174.737302028
  0
ARC
  8
SURFACE
 62
7
  6
CONTINUOUS
 10
296.6814117647
 20
153.4186393296
 40
0.5
 50
165.8
 51
180.0
  0
ARC
  8
AXES
 62
7
  6
CONTINUOUS
 10
278.4814117647
 20
153.4186393296
 40
0.5
 50
5.2626979721
 51
8.9361721563
  0
ARC
  8
SURFACE
 62
7
  6
CONTINUOUS
 10
278.4814117647
 20
153.4186393296
 40
0.5
 50
0.0
 51
14.2
  0
ARC
  8
AXES
 62
7
  6
CONTINUOUS
 10
283.9814117647
 20
153.4186393296
 40
0.5
 50
171.0638278437
 51
174.737302028
  0
ARC
  8
SURFACE
 62
7
  6
CONTINUOUS
 10
283.9814117647
 20
153.4186393296
 40
0.5
 50
165.8
 51
180.0
  0
ARC
  8
AXES
 62
7
  6
CONTINUOUS
 10
265.7814117647
 20
153.4186393296
 40
0.5
 50
5.262697972
 51
8.9361721563
  0
ARC
  8
SURFACE
 62
7
  6
CONTINUOUS
 10
265.7814117647
 20
153.4186393296
 40
0.5
 50
0.0
 51
14.2
  0
ARC
  8
AXES
 62
7
  6
CONTINUOUS
 10
271.2814117647
 20
153.4186393296
 40
0.5
 50
171.0638278437
 51
174.7373020279
  0
ARC
  8
SURFACE
 62
7
  6
CONTINUOUS
 10
271.2814117647
 20
153.4186393296
 40
0.5
 50
165.8
 51
180.0
  0
ARC
  8
SURFACE
 62
7
  6
CONTINUOUS
 10
291.0814144954
 20
156.463561459
 40
0.15
 50
179.9958781125
 51
194.1957480523
  0
ARC
  8
AXES
 62
7
  6
CONTINUOUS
 10
291.0814117647
 20
156.4635722504
 40
0.15
 50
180.0
 51
194.2
  0
ARC
  8
AXES
 62
7
  6
CONTINUOUS
 10
296.7814117647
 20
156.4635722504
 40
0.15
 50
345.8
 51
360.0
  0
ARC
  8
SURFACE
 62
7
  6
CONTINUOUS
 10
296.7814117647
 20
156.4635722504
 40
0.15
 50
345.8
 51
360.0
  0
ARC
  8
SURFACE
 62
7
  6
CONTINUOUS
 10
278.3814144954
 20
156.463561459
 40
0.15
 50
179.9958781125
 51
194.1957480523
  0
ARC
  8
AXES
 62
7
  6
CONTINUOUS
 10
278.3814117647
 20
156.4635722504
 40
0.15
 50
180.0
 51
194.2
  0
ARC
  8
AXES
 62
7
  6
CONTINUOUS
 10
284.0814117647
 20
156.4635722504
 40
0.15
 50
345.8
 51
360.0
  0
ARC
  8
SURFACE
 62
7
  6
CONTINUOUS
 10
284.0814117647
 20
156.4635722504
 40
0.15
 50
345.8
 51
360.0
  0
ARC
  8
SURFACE
 62
7
  6
CONTINUOUS
 10
265.6814144954
 20
156.463561459
 40
0.15
 50
179.9958781125
 51
194.1957480523
  0
ARC
  8
AXES
 62
7
  6
CONTINUOUS
 10
265.6814117647
 20
156.4635722504
 40
0.15
 50
180.0
 51
194.2
  0
ARC
  8
AXES
 62
7
  6
CONTINUOUS
 10
271.3814117647
 20
156.4635722504
 40
0.15
 50
345.8
 51
360.0
  0
ARC
  8
SURFACE
 62
7
  6
CONTINUOUS
 10
271.3814117647
 20
156.4635722504
 40
0.15
 50
345.8
 51
360.0
  0
ARC
  8
SURFACE
 62
7
  6
CONTINUOUS
 10
268.5314117647
 20
157.4879743844
 40
4.0
 50
44.4153085972
 51
135.5846914028
  0
ARC
  8
SURFACE
 62
7
  6
CONTINUOUS
 10
271.0314111795
 20
159.9374649218
 40
0.5000000197
 50
359.9999089471
 51
44.4151966284
  0
ARC
  8
SURFACE
 62
7
  6
CONTINUOUS
 10
278.7314117647
 20
159.9374641272
 40
0.5
 50
135.5846914028
 51
180.0
  0
ARC
  8
SURFACE
 62
7
  6
CONTINUOUS
 10
266.0314117647
 20
159.9374641272
 40
0.5
 50
135.5846914028
 51
180.0
  0
ARC
  8
SURFACE
 62
7
  6
CONTINUOUS
 10
293.9314117647
 20
157.4879743844
 40
4.0
 50
44.4153085972
 51
135.5846914028
  0
ARC
  8
SURFACE
 62
7
  6
CONTINUOUS
 10
281.2314117647
 20
157.4879743844
 40
4.0
 50
44.4153085972
 51
135.5846914028
  0
ARC
  8
SURFACE
 62
7
  6
CONTINUOUS
 10
296.4314111795
 20
159.9374649218
 40
0.5000000197
 50
359.9999089471
 51
44.4151966284
  0
ARC
  8
SURFACE
 62
7
  6
CONTINUOUS
 10
283.7314111795
 20
159.9374649218
 40
0.5000000197
 50
359.9999089471
 51
44.4151966284
  0
ARC
  8
SURFACE
 62
7
  6
CONTINUOUS
 10
291.4314117647
 20
159.9374641272
 40
0.5
 50
135.5846914028
 51
180.0
  0
ARC
  8
AXES
 62
7
  6
CONTINUOUS
 10
329.2814117647
 20
153.4186393296
 40
0.5
 50
5.262697972
 51
8.9361721562
  0
ARC
  8
0
 62
7
  6
CONTINUOUS
 10
329.2814117647
 20
153.4186393296
 40
0.5
 50
0.0
 51
14.2
  0
ARC
  8
AXES
 62
7
  6
CONTINUOUS
 10
334.7814117647
 20
153.4186393296
 40
0.5
 50
171.0638278437
 51
174.737302028
  0
ARC
  8
0
 62
7
  6
CONTINUOUS
 10
334.7814117647
 20
153.4186393296
 40
0.5
 50
165.8
 51
180.0
  0
ARC
  8
AXES
 62
7
  6
CONTINUOUS
 10
316.5814117647
 20
153.4186393296
 40
0.5
 50
5.2626979721
 51
8.9361721563
  0
ARC
  8
SURFACE
 62
7
  6
CONTINUOUS
 10
316.5814117647
 20
153.4186393296
 40
0.5
 50
0.0
 51
14.2
  0
ARC
  8
AXES
 62
7
  6
CONTINUOUS
 10
322.0814117647
 20
153.4186393296
 40
0.5
 50
171.0638278437
 51
174.737302028
  0
ARC
  8
SURFACE
 62
7
  6
CONTINUOUS
 10
322.0814117647
 20
153.4186393296
 40
0.5
 50
165.8
 51
180.0
  0
ARC
  8
AXES
 62
7
  6
CONTINUOUS
 10
303.8814117647
 20
153.4186393296
 40
0.5
 50
5.262697972
 51
8.9361721563
  0
ARC
  8
SURFACE
 62
7
  6
CONTINUOUS
 10
303.8814117647
 20
153.4186393296
 40
0.5
 50
0.0
 51
14.2
  0
ARC
  8
AXES
 62
7
  6
CONTINUOUS
 10
309.3814117647
 20
153.4186393296
 40
0.5
 50
171.0638278437
 51
174.7373020279
  0
ARC
  8
SURFACE
 62
7
  6
CONTINUOUS
 10
309.3814117647
 20
153.4186393296
 40
0.5
 50
165.8
 51
180.0
  0
ARC
  8
0
 62
7
  6
CONTINUOUS
 10
329.1814144954
 20
156.463561459
 40
0.15
 50
179.9958781125
 51
194.1957480523
  0
ARC
  8
AXES
 62
7
  6
CONTINUOUS
 10
329.1814117647
 20
156.4635722504
 40
0.15
 50
180.0
 51
194.2
  0
ARC
  8
AXES
 62
7
  6
CONTINUOUS
 10
334.8814117647
 20
156.4635722504
 40
0.15
 50
345.8
 51
359.9999999999
  0
ARC
  8
0
 62
7
  6
CONTINUOUS
 10
334.8814117647
 20
156.4635722504
 40
0.15
 50
345.8
 51
360.0
  0
ARC
  8
SURFACE
 62
7
  6
CONTINUOUS
 10
316.4814144954
 20
156.463561459
 40
0.15
 50
179.9958781125
 51
194.1957480523
  0
ARC
  8
AXES
 62
7
  6
CONTINUOUS
 10
316.4814117647
 20
156.4635722504
 40
0.15
 50
180.0
 51
194.2
  0
ARC
  8
AXES
 62
7
  6
CONTINUOUS
 10
322.1814117647
 20
156.4635722504
 40
0.15
 50
345.8
 51
360.0
  0
ARC
  8
SURFACE
 62
7
  6
CONTINUOUS
 10
322.1814117647
 20
156.4635722504
 40
0.15
 50
345.8
 51
360.0
  0
ARC
  8
SURFACE
 62
7
  6
CONTINUOUS
 10
303.7814144954
 20
156.463561459
 40
0.15
 50
179.9958781125
 51
194.1957480523
  0
ARC
  8
AXES
 62
7
  6
CONTINUOUS
 10
303.7814117647
 20
156.4635722504
 40
0.15
 50
180.0
 51
194.2
  0
ARC
  8
AXES
 62
7
  6
CONTINUOUS
 10
309.4814117647
 20
156.4635722504
 40
0.15
 50
345.7999999999
 51
360.0
  0
ARC
  8
SURFACE
 62
7
  6
CONTINUOUS
 10
309.4814117647
 20
156.4635722504
 40
0.15
 50
345.8
 51
360.0
  0
ARC
  8
SURFACE
 62
7
  6
CONTINUOUS
 10
306.6314117647
 20
157.4879743844
 40
4.0
 50
44.4153085972
 51
135.5846914028
  0
ARC
  8
SURFACE
 62
7
  6
CONTINUOUS
 10
309.1314111795
 20
159.9374649218
 40
0.5000000197
 50
359.9999089471
 51
44.4151966284
  0
ARC
  8
SURFACE
 62
7
  6
CONTINUOUS
 10
316.8314117647
 20
159.9374641272
 40
0.5
 50
135.5846914028
 51
180.0
  0
ARC
  8
SURFACE
 62
7
  6
CONTINUOUS
 10
304.1314117647
 20
159.9374641272
 40
0.5
 50
135.5846914028
 51
180.0
  0
ARC
  8
0
 62
7
  6
CONTINUOUS
 10
332.0314117647
 20
157.4879743844
 40
4.0
 50
44.4153085972
 51
135.5846914028
  0
ARC
  8
SURFACE
 62
7
  6
CONTINUOUS
 10
319.3314117647
 20
157.4879743844
 40
4.0
 50
44.4153085972
 51
135.5846914028
  0
ARC
  8
0
 62
7
  6
CONTINUOUS
 10
334.5314111795
 20
159.9374649218
 40
0.5000000197
 50
359.9999089471
 51
44.4151966284
  0
ARC
  8
SURFACE
 62
7
  6
CONTINUOUS
 10
321.8314111795
 20
159.9374649218
 40
0.5000000197
 50
359.9999089471
 51
44.4151966284
  0
ARC
  8
0
 62
7
  6
CONTINUOUS
 10
329.5314117647
 20
159.9374641272
 40
0.5
 50
135.5846914028
 51
180.0
  0
ARC
  8
0
 62
7
  6
CONTINUOUS
 10
368.9321872761
 20
131.3879743844
 40
4.0
 50
229.0487239195
 51
238.4938826501
  0
ARC
  8
SURFACE
 62
7
  6
CONTINUOUS
 10
368.9321872761
 20
131.3879743844
 40
4.0
 50
180.0
 51
270.0
  0
ARC
  8
0
 62
7
  6
CONTINUOUS
 10
368.9321872761
 20
131.3879743844
 40
4.0
 50
180.0
 51
228.5903778907
  0
ARC
  8
0
 62
7
  6
CONTINUOUS
 10
368.9321872761
 20
157.4879743844
 40
4.0
 50
117.2697209957
 51
130.0056683049
  0
ARC
  8
0
 62
7
  6
CONTINUOUS
 10
368.9321872761
 20
157.4879743844
 40
4.0
 50
155.0040706863
 51
163.6499815098
  0
ARC
  8
0
 62
7
  6
CONTINUOUS
 10
368.9321872761
 20
157.4879743844
 40
4.0
 50
167.5019307327
 51
180.0
  0
ARC
  8
SURFACE
 62
7
  6
CONTINUOUS
 10
368.9321872761
 20
157.4879743844
 40
4.0
 50
90.0005757288
 51
180.0
  0
ARC
  8
AXES
 62
7
  6
CONTINUOUS
 10
370.9321872761
 20
131.7379743844
 40
2.1
 50
161.9253432337
 51
18.0746567663
  0
ARC
  8
AXES
 62
7
  6
CONTINUOUS
 10
370.9321872761
 20
131.7379743844
 40
2.1
 50
19.1339596844
 51
160.8660403156
  0
ARC
  8
0
 62
7
  6
CONTINUOUS
 10
372.9321872761
 20
131.3879743844
 40
4.0
 50
301.4937994376
 51
315.0000056165
  0
ARC
  8
0
 62
7
  6
CONTINUOUS
 10
372.9321872761
 20
131.3879743844
 40
4.0
 50
346.5061674723
 51
360.0
  0
ARC
  8
0
 62
7
  6
CONTINUOUS
 10
372.9321872761
 20
131.3879743844
 40
4.0
 50
283.493840065
 51
286.0063776398
  0
ARC
  8
0
 62
7
  6
CONTINUOUS
 10
372.9321872761
 20
131.3879743844
 40
4.0
 50
328.4938893568
 51
346.4938831962
  0
ARC
  8
SURFACE
 62
7
  6
CONTINUOUS
 10
372.9321872761
 20
131.3879743844
 40
4.0
 50
270.0
 51
360.0
  0
ARC
  8
AXES
 62
7
  6
CONTINUOUS
 10
370.9321872761
 20
149.0879743844
 40
2.1
 50
180.0
 51
360.0
  0
ARC
  8
AXES
 62
7
  6
CONTINUOUS
 10
370.9321872761
 20
157.1379743844
 40
2.1
 50
0.0
 51
180.0
  0
ARC
  8
0
 62
7
  6
CONTINUOUS
 10
372.9321872761
 20
157.4879743844
 40
4.0
 50
0.0
 51
16.3500895573
  0
ARC
  8
0
 62
7
  6
CONTINUOUS
 10
372.9321872761
 20
157.4879743844
 40
4.0
 50
49.9943204473
 51
62.7302645575
  0
ARC
  8
SURFACE
 62
7
  6
CONTINUOUS
 10
372.9321872761
 20
157.4879743844
 40
4.0
 50
0.0
 51
89.9994157434
  0
ENDSEC
  0
EOF
