  0
SECTION
  2
HEADER
  9
$EXTMAX
 10
420.0
 20
297.0
 30
0.0
  9
$EXTMIN
 10
0.0
 20
0.0
 30
0.0
  9
$LIMMIN
 10
0.0
 20
0.0
  9
$LIMMAX
 10
420.0
 20
297.0
  9
$VIEWCTR
 10
210.0
 20
148.5
  9
$VIEWSIZE
 40
297.0
  9
$CLAYER
  8
0
  9
$LTSCALE
 40
23.1
  9
$CELTYPE
  6
BYLAYER
  9
$DIMSCALE
 40
1.0
  9
$DIMASZ
 40
3.5
  9
$DIMEXO
 40
1.0
  9
$DIMDLI
 40
15.96
  9
$DIMEXE
 40
2.0
  9
$DIMCEN
 40
3.78
  9
$DIMLFAC
 40
1.0
  9
$DIMBLK
  1
_FILLED
  9
$DIMTXT
 40
3.5
  9
$AUNITS
 70
0
  9
$PDMODE
 70
3
  9
$PDSIZE
 40
0.3125
  9
$TILEMODE
 70
1
  0
ENDSEC
  0
SECTION
  2
TABLES
  0
TABLE
  2
LTYPE
 70
6
  0
LTYPE
  2
BYBLOCK
 70
0
  3

 72
65
 73
0
 40
0.0
  0
LTYPE
  2
BYLAYER
 70
0
  3

 72
65
 73
0
 40
0.0
  0
LTYPE
  2
CONTINUOUS
 70
64
  3
Solid line
 72
65
 73
0
 40
0.0
  0
LTYPE
  2
CENTER
 70
64
  3
____ _ ____ _ ____ _ ____ _ ____ _ ____ _ ____
 72
65
 73
4
 40
0.6
 49
0.375
 49
-0.075
 49
0.075
 49
-0.075
  0
LTYPE
  2
HIDDEN
 70
64
  3
- - - - - - - - - - - - - - - - - - - -
 72
65
 73
2
 40
0.2
 49
0.1
 49
-0.1
  0
LTYPE
  2
PHANTOM
 70
64
  3
_____ _ _ _____ _ _ _____ _ _ _____
 72
65
 73
6
 40
0.8
 49
0.45
 49
-0.05
 49
0.1
 49
-0.05
 49
0.1
 49
-0.05
  0
LTYPE
  2
DOT
 70
64
  3
. . . . . . . . . . . . . . . . . . . .
 72
65
 73
2
 40
0.2
 49
0.1
 49
-0.1
  0
LTYPE
  2
DASHED
 70
64
  3
- - - - - - - - - - - - - - - - - - - -
 72
65
 73
2
 40
0.2
 49
0.1
 49
-0.1
  0
ENDTAB
  0
TABLE
  2
LAYER
 70
36
  0
LAYER
  2
0
 70
0
 62
7
  6
CONTINUOUS
  0
LAYER
  2
DEFAULT_1
 70
0
 62
7
  6
CENTER
  0
LAYER
  2
DEFAULT_2
 70
0
 62
8
  6
HIDDEN
  0
LAYER
  2
DEFAULT_3
 70
0
 62
7
  6
PHANTOM
  0
LAYER
  2
CURVE
 70
0
 62
7
  6
CONTINUOUS
  0
LAYER
  2
PLAN
 70
0
 62
7
  6
CONTINUOUS
  0
LAYER
  2
SURFACE
 70
0
 62
7
  6
CONTINUOUS
  0
ENDTAB
  0
TABLE
  2
STYLE
 70
1
  0
STYLE
  2
STANDARD
 70
0
 40
0.0
 41
0.8
 50
0.0
 71
0
 42
0.2
  3
txt
  4

  0
STYLE
  2
TEXTSTYLE_1
 70
0
 40
0.0
 41
0.8
 50
0.0
 71
0
 42
0.2
  3
gdt
  4

  0
STYLE
  2
TEXTSTYLE_2
 70
0
 40
0.0
 41
0.6
 50
0.0
 71
0
 42
0.2
  3
txt
  4

  0
STYLE
  2
TEXTSTYLE_3
 70
0
 40
0.0
 41
1.0
 50
0.0
 71
0
 42
0.2
  3
ftb_____.ttf
  4

  0
STYLE
  2
TEXTSTYLE_4
 70
0
 40
0.0
 41
1.0
 50
0.0
 71
0
 42
0.2
  3
fti_____.ttf
  4

  0
STYLE
  2
TEXTSTYLE_5
 70
0
 40
0.0
 41
1.0
 50
0.0
 71
0
 42
0.2
  3
frutiger light.ttf
  4

  0
STYLE
  2
TEXTSTYLE_6
 70
0
 40
0.0
 41
0.7
 50
0.0
 71
0
 42
0.2
  3
txt
  4

  0
STYLE
  2
TEXTSTYLE_7
 70
0
 40
0.0
 41
0.55
 50
0.0
 71
0
 42
0.2
  3
txt
  4

  0
ENDTAB
  0
ENDSEC
  0
SECTION
  2
BLOCKS
  0
BLOCK
  8
0
 62
2
  6
CONTINUOUS
  2
UNI_LOGO2_BL1
 70
64
 10
382.7840918555
 20
35.5067593403
  0
TEXT
  8
0
 62
7
  6
CONTINUOUS
 10
373.842376864
 20
30.5995157174
  7
TEXTSTYLE_4
 40
1.0655737705
  1
The brand for plastic modular belts and chains
 41
1.0
 72
0
  0
LINE
  8
0
 62
7
  6
CONTINUOUS
 10
358.7621602445
 20
36.0805298321
 11
358.7621602445
 21
33.9493822911
  0
LINE
  8
0
 62
7
  6
CONTINUOUS
 10
359.0512227376
 20
30.9584509954
 11
359.0512227376
 21
31.0552420547
  0
LINE
  8
0
 62
7
  6
CONTINUOUS
 10
358.7621602445
 20
31.0229783683
 11
358.8199727462
 21
30.8293962497
  0
LINE
  8
0
 62
7
  6
CONTINUOUS
 10
360.1556028675
 20
33.867415078
 11
360.1556028675
 21
36.0805298321
  0
LINE
  8
0
 62
7
  6
CONTINUOUS
 10
361.0746601894
 20
32.0231527829
 11
361.0746601894
 21
30.5067593403
  0
LINE
  8
0
 62
7
  6
CONTINUOUS
 10
361.3637227445
 20
30.5067593403
 11
361.3637227445
 21
31.2488242184
  0
LINE
  8
0
 62
7
  6
CONTINUOUS
 10
361.3637227445
 20
31.3778789641
 11
361.3637227445
 21
32.0231527829
  0
LINE
  8
0
 62
7
  6
CONTINUOUS
 10
358.8199727462
 20
31.216560532
 11
358.7621602445
 21
31.0229783683
  0
LINE
  8
0
 62
7
  6
CONTINUOUS
 10
359.1668477307
 20
30.7971325633
 11
359.0512227376
 21
30.9584509954
  0
LINE
  8
0
 62
7
  6
CONTINUOUS
 10
360.2652852997
 20
31.3133515913
 11
360.3230977445
 21
31.216560532
  0
LINE
  8
0
 62
7
  6
CONTINUOUS
 10
360.6121602997
 20
31.216560532
 11
360.5543476894
 21
31.3456152777
  0
LINE
  8
0
 62
7
  6
CONTINUOUS
 10
362.0408487691
 20
36.0805298321
 11
362.0408487691
 21
34.2772511436
  0
LINE
  8
0
 62
7
  6
CONTINUOUS
 10
362.0408487691
 20
32.9657757338
 11
362.0408487691
 21
32.3100380288
  0
LINE
  8
0
 62
7
  6
CONTINUOUS
 10
362.4043477445
 20
31.1520331591
 11
362.4043477445
 21
30.5067593403
  0
LINE
  8
0
 62
7
  6
CONTINUOUS
 10
362.6934101343
 20
30.5067593403
 11
362.6934101343
 21
31.1520331591
  0
LINE
  8
0
 62
7
  6
CONTINUOUS
 10
359.0512227376
 20
31.0552420547
 11
359.1090352445
 21
31.1842968456
  0
LINE
  8
0
 62
7
  6
CONTINUOUS
 10
358.8199727462
 20
30.8293962497
 11
358.9355977445
 21
30.7003414814
  0
LINE
  8
0
 62
7
  6
CONTINUOUS
 10
362.3465351343
 20
31.2810879048
 11
362.4043477445
 21
31.1520331591
  0
LINE
  8
0
 62
7
  6
CONTINUOUS
 10
363.1559103548
 20
30.7971325633
 11
363.2137226343
 21
30.668077795
  0
LINE
  8
0
 62
7
  6
CONTINUOUS
 10
362.6934101343
 20
31.1520331591
 11
362.6355978548
 21
31.3133515913
  0
LINE
  8
0
 62
7
  6
CONTINUOUS
 10
363.1559103548
 20
31.3456152777
 11
363.1559103548
 21
31.2810879048
  0
LINE
  8
0
 62
7
  6
CONTINUOUS
 10
363.1559103548
 20
30.8939236226
 11
363.1559103548
 21
30.7971325633
  0
LINE
  8
0
 62
7
  6
CONTINUOUS
 10
363.4342913921
 20
32.3100380288
 11
363.4342913921
 21
36.0805298321
  0
LINE
  8
0
 62
7
  6
CONTINUOUS
 10
363.4449727445
 20
30.7648688543
 11
363.4449727445
 21
30.8293962497
  0
LINE
  8
0
 62
7
  6
CONTINUOUS
 10
363.7621602445
 20
36.0805298321
 11
363.7621602445
 21
32.3100380288
  0
LINE
  8
0
 62
7
  6
CONTINUOUS
 10
360.5543476894
 20
30.7003414814
 11
360.6121602997
 21
30.8293962497
  0
LINE
  8
0
 62
7
  6
CONTINUOUS
 10
364.9480979651
 20
30.6035504109
 11
364.890285024
 21
30.7648688543
  0
LINE
  8
0
 62
7
  6
CONTINUOUS
 10
364.6012229651
 20
31.2810879048
 11
364.6012229651
 21
31.1842968456
  0
LINE
  8
0
 62
7
  6
CONTINUOUS
 10
364.6012229651
 20
31.0552420547
 11
364.6012229651
 21
30.8616599362
  0
LINE
  8
0
 62
7
  6
CONTINUOUS
 10
364.890285024
 20
30.7648688543
 11
364.890285024
 21
31.2810879048
  0
LINE
  8
0
 62
7
  6
CONTINUOUS
 10
365.1556028675
 20
32.3100380288
 11
365.1556028675
 21
34.1133167174
  0
LINE
  8
0
 62
7
  6
CONTINUOUS
 10
365.1556028675
 20
35.4247921272
 11
365.1556028675
 21
36.0805298321
  0
LINE
  8
0
 62
7
  6
CONTINUOUS
 10
365.4684104651
 20
32.0231527829
 11
365.4684104651
 21
31.8618343508
  0
LINE
  8
0
 62
7
  6
CONTINUOUS
 10
365.4684104651
 20
31.5391973962
 11
365.4684104651
 21
30.5067593403
  0
LINE
  8
0
 62
7
  6
CONTINUOUS
 10
365.757472524
 20
30.5067593403
 11
365.757472524
 21
31.5391973962
  0
LINE
  8
0
 62
7
  6
CONTINUOUS
 10
365.757472524
 20
31.8618343508
 11
365.757472524
 21
32.0231527829
  0
LINE
  8
0
 62
7
  6
CONTINUOUS
 10
360.3230977445
 20
30.8293962497
 11
360.2652852997
 21
30.7326051679
  0
LINE
  8
0
 62
7
  6
CONTINUOUS
 10
362.6355978548
 20
31.3133515913
 11
362.5777852445
 21
31.3778789641
  0
LINE
  8
0
 62
7
  6
CONTINUOUS
 10
363.5027853548
 20
30.7003414814
 11
363.4449727445
 21
30.7648688543
  0
LINE
  8
0
 62
7
  6
CONTINUOUS
 10
364.6590352445
 20
30.5712867188
 11
364.716847524
 21
30.5067593403
  0
LINE
  8
0
 62
7
  6
CONTINUOUS
 10
364.6012229651
 20
30.668077795
 11
364.6590352445
 21
30.5712867188
  0
LINE
  8
0
 62
7
  6
CONTINUOUS
 10
365.0059102445
 20
30.5067593403
 11
364.9480979651
 21
30.6035504109
  0
LINE
  8
0
 62
7
  6
CONTINUOUS
 10
364.890285024
 20
31.2810879048
 11
364.8324727445
 21
31.3778789641
  0
LINE
  8
0
 62
7
  6
CONTINUOUS
 10
366.2199727445
 20
31.5391973962
 11
366.2199727445
 21
30.5067593403
  0
LINE
  8
0
 62
7
  6
CONTINUOUS
 10
366.5090354651
 20
30.5067593403
 11
366.5090354651
 21
31.2488242184
  0
LINE
  8
0
 62
7
  6
CONTINUOUS
 10
366.5090354651
 20
31.3778789641
 11
366.5090354651
 21
31.5391973962
  0
LINE
  8
0
 62
7
  6
CONTINUOUS
 10
367.0408487691
 20
34.5231527829
 11
367.0408487691
 21
32.3100380288
  0
LINE
  8
0
 62
7
  6
CONTINUOUS
 10
358.9355977445
 20
31.3456152777
 11
358.8199727462
 21
31.216560532
  0
LINE
  8
0
 62
7
  6
CONTINUOUS
 10
359.1090352445
 20
31.1842968456
 11
359.1668477307
 21
31.2488242184
  0
LINE
  8
0
 62
7
  6
CONTINUOUS
 10
358.9355977445
 20
30.7003414814
 11
359.0512227376
 21
30.6358140973
  0
LINE
  8
0
 62
7
  6
CONTINUOUS
 10
359.3402852307
 20
30.7003414814
 11
359.1668477307
 21
30.7971325633
  0
LINE
  8
0
 62
7
  6
CONTINUOUS
 10
364.543410024
 20
31.3456152777
 11
364.6012229651
 21
31.2810879048
  0
LINE
  8
0
 62
7
  6
CONTINUOUS
 10
367.491847524
 20
31.2810879048
 11
367.5496604651
 21
31.1197694727
  0
LINE
  8
0
 62
7
  6
CONTINUOUS
 10
367.838722524
 20
31.1197694727
 11
367.7809102445
 21
31.2810879048
  0
LINE
  8
0
 62
7
  6
CONTINUOUS
 10
367.5496604651
 20
31.1197694727
 11
367.5496604651
 21
30.5067593403
  0
LINE
  8
0
 62
7
  6
CONTINUOUS
 10
367.838722524
 20
30.5067593403
 11
367.838722524
 21
31.1197694727
  0
LINE
  8
0
 62
7
  6
CONTINUOUS
 10
368.3012227445
 20
31.3456152777
 11
368.3012227445
 21
31.2810879048
  0
LINE
  8
0
 62
7
  6
CONTINUOUS
 10
368.4342913921
 20
32.3100380288
 11
368.4342913921
 21
34.4411855698
  0
LINE
  8
0
 62
7
  6
CONTINUOUS
 10
368.7621602445
 20
36.0805298321
 11
368.7621602445
 21
32.3100380288
  0
LINE
  8
0
 62
7
  6
CONTINUOUS
 10
363.4449727445
 20
30.8293962497
 11
363.5027853548
 21
30.926187309
  0
LINE
  8
0
 62
7
  6
CONTINUOUS
 10
359.0512227376
 20
30.6358140973
 11
359.2246602583
 21
30.5712867188
  0
LINE
  8
0
 62
7
  6
CONTINUOUS
 10
360.5543476894
 20
31.3456152777
 11
360.3809101894
 21
31.4424063369
  0
LINE
  8
0
 62
7
  6
CONTINUOUS
 10
363.2137226343
 20
30.668077795
 11
363.3871601343
 21
30.5712867188
  0
LINE
  8
0
 62
7
  6
CONTINUOUS
 10
362.2309102445
 20
31.3456152777
 11
362.3465351343
 21
31.2810879048
  0
LINE
  8
0
 62
7
  6
CONTINUOUS
 10
362.5777852445
 20
31.3778789641
 11
362.4621603548
 21
31.4424063369
  0
LINE
  8
0
 62
7
  6
CONTINUOUS
 10
368.3012227445
 20
30.7648688543
 11
368.4168479651
 21
30.6358140973
  0
LINE
  8
0
 62
7
  6
CONTINUOUS
 10
368.6480977445
 20
30.7003414814
 11
368.5902854651
 21
30.7648688543
  0
LINE
  8
0
 62
7
  6
CONTINUOUS
 10
368.3012227445
 20
31.2810879048
 11
368.4168479651
 21
31.1520331591
  0
LINE
  8
0
 62
7
  6
CONTINUOUS
 10
367.7809102445
 20
31.2810879048
 11
367.7230979651
 21
31.3778789641
  0
LINE
  8
0
 62
7
  6
CONTINUOUS
 10
370.1512223035
 20
30.7003414814
 11
370.1512223035
 21
30.7648688543
  0
LINE
  8
0
 62
7
  6
CONTINUOUS
 10
370.1556028675
 20
32.3100380288
 11
370.1556028675
 21
36.0805298321
  0
LINE
  8
0
 62
7
  6
CONTINUOUS
 10
363.2137226343
 20
31.4101426505
 11
363.1559103548
 21
31.3456152777
  0
LINE
  8
0
 62
7
  6
CONTINUOUS
 10
360.091847717
 20
31.3778789641
 11
360.2652852997
 21
31.3133515913
  0
LINE
  8
0
 62
7
  6
CONTINUOUS
 10
364.8324727445
 20
31.3778789641
 11
364.716847524
 21
31.4424063369
  0
LINE
  8
0
 62
7
  6
CONTINUOUS
 10
368.6480977445
 20
31.216560532
 11
368.5902854651
 21
31.2810879048
  0
LINE
  8
0
 62
7
  6
CONTINUOUS
 10
369.8043479651
 20
30.8293962497
 11
369.8621602445
 21
30.7648688543
  0
LINE
  8
0
 62
7
  6
CONTINUOUS
 10
370.1512223035
 20
30.7648688543
 11
370.0355977445
 21
30.8939236226
  0
LINE
  8
0
 62
7
  6
CONTINUOUS
 10
369.8043479651
 20
31.3456152777
 11
369.8621602445
 21
31.2810879048
  0
LINE
  8
0
 62
7
  6
CONTINUOUS
 10
370.1512223035
 20
31.2810879048
 11
370.0355977445
 21
31.4101426505
  0
LINE
  8
0
 62
7
  6
CONTINUOUS
 10
363.4449727445
 20
31.2810879048
 11
363.5027853548
 21
31.3456152777
  0
LINE
  8
0
 62
7
  6
CONTINUOUS
 10
363.2715352445
 20
31.0229783683
 11
363.1559103548
 21
30.8939236226
  0
LINE
  8
0
 62
7
  6
CONTINUOUS
 10
364.6012229651
 20
30.8616599362
 11
364.543410024
 21
30.7971325633
  0
LINE
  8
0
 62
7
  6
CONTINUOUS
 10
364.543410024
 20
30.6035504109
 11
364.6012229651
 21
30.668077795
  0
LINE
  8
0
 62
7
  6
CONTINUOUS
 10
363.3871601343
 20
30.5712867188
 11
363.5027853548
 21
30.5390230296
  0
LINE
  8
0
 62
7
  6
CONTINUOUS
 10
360.3809101894
 20
31.4424063369
 11
360.1496602445
 21
31.5069337098
  0
LINE
  8
0
 62
7
  6
CONTINUOUS
 10
363.7340351343
 20
30.6358140973
 11
363.5027853548
 21
30.7003414814
  0
LINE
  8
0
 62
7
  6
CONTINUOUS
 10
362.4621603548
 20
31.4424063369
 11
362.2887228548
 21
31.5069337098
  0
LINE
  8
0
 62
7
  6
CONTINUOUS
 10
364.716847524
 20
31.4424063369
 11
364.543410024
 21
31.5069337098
  0
LINE
  8
0
 62
7
  6
CONTINUOUS
 10
367.3762229651
 20
31.3456152777
 11
367.491847524
 21
31.2810879048
  0
LINE
  8
0
 62
7
  6
CONTINUOUS
 10
367.7230979651
 20
31.3778789641
 11
367.6074727445
 21
31.4424063369
  0
LINE
  8
0
 62
7
  6
CONTINUOUS
 10
359.2246602583
 20
30.5712867188
 11
359.3980977583
 21
30.5390230296
  0
LINE
  8
0
 62
7
  6
CONTINUOUS
 10
359.6871602721
 20
30.6358140973
 11
359.3402852307
 21
30.7003414814
  0
LINE
  8
0
 62
7
  6
CONTINUOUS
 10
362.1152853548
 20
31.3778789641
 11
362.2309102445
 21
31.3456152777
  0
LINE
  8
0
 62
7
  6
CONTINUOUS
 10
364.4277854651
 20
31.3778789641
 11
364.543410024
 21
31.3456152777
  0
LINE
  8
0
 62
7
  6
CONTINUOUS
 10
368.7637229651
 20
30.668077795
 11
368.6480977445
 21
30.7003414814
  0
LINE
  8
0
 62
7
  6
CONTINUOUS
 10
367.2605977445
 20
31.3778789641
 11
367.3762229651
 21
31.3456152777
  0
LINE
  8
0
 62
7
  6
CONTINUOUS
 10
368.4168479651
 20
30.6358140973
 11
368.5902854651
 21
30.5712867188
  0
LINE
  8
0
 62
7
  6
CONTINUOUS
 10
367.6074727445
 20
31.4424063369
 11
367.4340352445
 21
31.5069337098
  0
LINE
  8
0
 62
7
  6
CONTINUOUS
 10
368.8215352445
 20
31.1520331591
 11
368.6480977445
 21
31.216560532
  0
LINE
  8
0
 62
7
  6
CONTINUOUS
 10
369.6309104651
 20
30.8939236226
 11
369.8043479651
 21
30.8293962497
  0
LINE
  8
0
 62
7
  6
CONTINUOUS
 10
370.0355977445
 20
31.4101426505
 11
369.8621602445
 21
31.4746700234
  0
LINE
  8
0
 62
7
  6
CONTINUOUS
 10
368.4168479651
 20
31.1520331591
 11
368.6480977445
 21
31.0552420547
  0
LINE
  8
0
 62
7
  6
CONTINUOUS
 10
370.0355977445
 20
30.8939236226
 11
369.8043479651
 21
30.9907146818
  0
LINE
  8
0
 62
7
  6
CONTINUOUS
 10
368.5902854651
 20
31.2810879048
 11
368.6480977445
 21
31.3456152777
  0
LINE
  8
0
 62
7
  6
CONTINUOUS
 10
359.0512227376
 20
31.4101426505
 11
358.9355977445
 21
31.3456152777
  0
LINE
  8
0
 62
7
  6
CONTINUOUS
 10
359.1668477307
 20
31.2488242184
 11
359.3402852307
 21
31.3456152777
  0
LINE
  8
0
 62
7
  6
CONTINUOUS
 10
361.4793477997
 20
31.4424063369
 11
361.3637227445
 21
31.3778789641
  0
LINE
  8
0
 62
7
  6
CONTINUOUS
 10
361.3637227445
 20
31.2488242184
 11
361.4793477997
 21
31.3133515913
  0
LINE
  8
0
 62
7
  6
CONTINUOUS
 10
360.3809101894
 20
30.6035504109
 11
360.5543476894
 21
30.7003414814
  0
LINE
  8
0
 62
7
  6
CONTINUOUS
 10
359.3980977583
 20
30.5390230296
 11
359.744972717
 21
30.5067593403
  0
LINE
  8
0
 62
7
  6
CONTINUOUS
 10
363.5027853548
 20
30.5390230296
 11
363.7340351343
 21
30.5067593403
  0
LINE
  8
0
 62
7
  6
CONTINUOUS
 10
361.8840352445
 20
31.4101426505
 11
362.1152853548
 21
31.3778789641
  0
LINE
  8
0
 62
7
  6
CONTINUOUS
 10
364.1965353548
 20
31.4101426505
 11
364.4277854651
 21
31.3778789641
  0
LINE
  8
0
 62
7
  6
CONTINUOUS
 10
368.6480977445
 20
31.0552420547
 11
369.6309104651
 21
30.8939236226
  0
LINE
  8
0
 62
7
  6
CONTINUOUS
 10
369.8043479651
 20
30.9907146818
 11
368.8215352445
 21
31.1520331591
  0
LINE
  8
0
 62
7
  6
CONTINUOUS
 10
362.2887228548
 20
31.5069337098
 11
362.1152853548
 21
31.5391973962
  0
LINE
  8
0
 62
7
  6
CONTINUOUS
 10
368.5902854651
 20
30.5712867188
 11
368.7637229651
 21
30.5390230296
  0
LINE
  8
0
 62
7
  6
CONTINUOUS
 10
367.4340352445
 20
31.5069337098
 11
367.2605977445
 21
31.5391973962
  0
LINE
  8
0
 62
7
  6
CONTINUOUS
 10
369.6887227445
 20
31.3778789641
 11
369.8043479651
 21
31.3456152777
  0
LINE
  8
0
 62
7
  6
CONTINUOUS
 10
369.8621602445
 20
30.7648688543
 11
369.8043479651
 21
30.7003414814
  0
LINE
  8
0
 62
7
  6
CONTINUOUS
 10
368.4168479651
 20
31.4424063369
 11
368.3012227445
 21
31.3456152777
  0
LINE
  8
0
 62
7
  6
CONTINUOUS
 10
363.3293478548
 20
31.4746700234
 11
363.2137226343
 21
31.4101426505
  0
LINE
  8
0
 62
7
  6
CONTINUOUS
 10
363.3871601343
 20
31.0875057863
 11
363.2715352445
 21
31.0229783683
  0
LINE
  8
0
 62
7
  6
CONTINUOUS
 10
363.5027853548
 20
30.926187309
 11
363.6184102445
 21
30.9907146818
  0
LINE
  8
0
 62
7
  6
CONTINUOUS
 10
361.0746601894
 20
30.5067593403
 11
361.3637227445
 21
30.5067593403
  0
LINE
  8
0
 62
7
  6
CONTINUOUS
 10
362.4043477445
 20
30.5067593403
 11
362.6934101343
 21
30.5067593403
  0
LINE
  8
0
 62
7
  6
CONTINUOUS
 10
363.7340351343
 20
30.5067593403
 11
364.0809101343
 21
30.5067593403
  0
LINE
  8
0
 62
7
  6
CONTINUOUS
 10
364.716847524
 20
30.5067593403
 11
365.0059102445
 21
30.5067593403
  0
LINE
  8
0
 62
7
  6
CONTINUOUS
 10
365.4684104651
 20
30.5067593403
 11
365.757472524
 21
30.5067593403
  0
LINE
  8
0
 62
7
  6
CONTINUOUS
 10
366.2199727445
 20
30.5067593403
 11
366.5090354651
 21
30.5067593403
  0
LINE
  8
0
 62
7
  6
CONTINUOUS
 10
367.5496604651
 20
30.5067593403
 11
367.838722524
 21
30.5067593403
  0
LINE
  8
0
 62
7
  6
CONTINUOUS
 10
369.1105979651
 20
30.5067593403
 11
369.4574729651
 21
30.5067593403
  0
LINE
  8
0
 62
7
  6
CONTINUOUS
 10
369.4574729651
 20
30.6358140973
 11
369.1105979651
 21
30.6358140973
  0
LINE
  8
0
 62
7
  6
CONTINUOUS
 10
364.0809101343
 20
30.6358140973
 11
363.7340351343
 21
30.6358140973
  0
LINE
  8
0
 62
7
  6
CONTINUOUS
 10
368.5902854651
 20
30.7648688543
 11
368.3012227445
 21
30.7648688543
  0
LINE
  8
0
 62
7
  6
CONTINUOUS
 10
360.6121602997
 20
30.8293962497
 11
360.3230977445
 21
30.8293962497
  0
LINE
  8
0
 62
7
  6
CONTINUOUS
 10
359.6871602721
 20
31.4101426505
 11
360.091847717
 21
31.3778789641
  0
LINE
  8
0
 62
7
  6
CONTINUOUS
 10
360.1496602445
 20
31.5069337098
 11
359.744972717
 21
31.5391973962
  0
LINE
  8
0
 62
7
  6
CONTINUOUS
 10
368.7637229651
 20
30.5390230296
 11
369.1105979651
 21
30.5067593403
  0
LINE
  8
0
 62
7
  6
CONTINUOUS
 10
369.1105979651
 20
30.6358140973
 11
368.7637229651
 21
30.668077795
  0
LINE
  8
0
 62
7
  6
CONTINUOUS
 10
364.543410024
 20
31.5069337098
 11
364.1965353548
 21
31.5391973962
  0
LINE
  8
0
 62
7
  6
CONTINUOUS
 10
369.3418477445
 20
31.4101426505
 11
369.6887227445
 21
31.3778789641
  0
LINE
  8
0
 62
7
  6
CONTINUOUS
 10
369.6887227445
 20
31.5069337098
 11
369.3418477445
 21
31.5391973962
  0
LINE
  8
0
 62
7
  6
CONTINUOUS
 10
367.0293479651
 20
31.4101426505
 11
367.2605977445
 21
31.3778789641
  0
LINE
  8
0
 62
7
  6
CONTINUOUS
 10
369.8621602445
 20
31.4746700234
 11
369.6887227445
 21
31.5069337098
  0
LINE
  8
0
 62
7
  6
CONTINUOUS
 10
370.0355977445
 20
30.6035504109
 11
370.1512223035
 21
30.7003414814
  0
LINE
  8
0
 62
7
  6
CONTINUOUS
 10
364.543410024
 20
30.7971325633
 11
364.369972524
 21
30.7003414814
  0
LINE
  8
0
 62
7
  6
CONTINUOUS
 10
366.624660024
 20
31.4424063369
 11
366.5090354651
 21
31.3778789641
  0
LINE
  8
0
 62
7
  6
CONTINUOUS
 10
366.5090354651
 20
31.2488242184
 11
366.624660024
 21
31.3133515913
  0
LINE
  8
0
 62
7
  6
CONTINUOUS
 10
359.2246602583
 20
31.4746700234
 11
359.0512227376
 21
31.4101426505
  0
LINE
  8
0
 62
7
  6
CONTINUOUS
 10
361.6527851343
 20
31.5069337098
 11
361.4793477997
 21
31.4424063369
  0
LINE
  8
0
 62
7
  6
CONTINUOUS
 10
361.4793477997
 20
31.3133515913
 11
361.6527851343
 21
31.3778789641
  0
LINE
  8
0
 62
7
  6
CONTINUOUS
 10
360.2652852997
 20
30.7326051679
 11
360.091847717
 21
30.668077795
  0
LINE
  8
0
 62
7
  6
CONTINUOUS
 10
369.6887227445
 20
30.668077795
 11
369.4574729651
 21
30.6358140973
  0
LINE
  8
0
 62
7
  6
CONTINUOUS
 10
364.0809101343
 20
30.5067593403
 11
364.369972524
 21
30.5390230296
  0
LINE
  8
0
 62
7
  6
CONTINUOUS
 10
369.4574729651
 20
30.5067593403
 11
369.8043479651
 21
30.5390230296
  0
LINE
  8
0
 62
7
  6
CONTINUOUS
 10
359.744972717
 20
30.5067593403
 11
360.1496602445
 21
30.5390230296
  0
LINE
  8
0
 62
7
  6
CONTINUOUS
 10
360.091847717
 20
30.668077795
 11
359.6871602721
 21
30.6358140973
  0
LINE
  8
0
 62
7
  6
CONTINUOUS
 10
363.9652852445
 20
31.0552420547
 11
364.6012229651
 21
31.0552420547
  0
LINE
  8
0
 62
7
  6
CONTINUOUS
 10
364.6012229651
 20
31.1842968456
 11
363.9652852445
 21
31.1842968456
  0
LINE
  8
0
 62
7
  6
CONTINUOUS
 10
360.3230977445
 20
31.216560532
 11
360.6121602997
 21
31.216560532
  0
LINE
  8
0
 62
7
  6
CONTINUOUS
 10
363.1559103548
 20
31.2810879048
 11
363.4449727445
 21
31.2810879048
  0
LINE
  8
0
 62
7
  6
CONTINUOUS
 10
369.8621602445
 20
31.2810879048
 11
370.1512223035
 21
31.2810879048
  0
LINE
  8
0
 62
7
  6
CONTINUOUS
 10
363.8496603548
 20
31.4101426505
 11
364.1965353548
 21
31.4101426505
  0
LINE
  8
0
 62
7
  6
CONTINUOUS
 10
368.9949727445
 20
31.4101426505
 11
369.3418477445
 21
31.4101426505
  0
LINE
  8
0
 62
7
  6
CONTINUOUS
 10
369.3418477445
 20
31.5391973962
 11
368.9949727445
 21
31.5391973962
  0
LINE
  8
0
 62
7
  6
CONTINUOUS
 10
367.2605977445
 20
31.5391973962
 11
367.0293479651
 21
31.5391973962
  0
LINE
  8
0
 62
7
  6
CONTINUOUS
 10
366.5090354651
 20
31.5391973962
 11
366.2199727445
 21
31.5391973962
  0
LINE
  8
0
 62
7
  6
CONTINUOUS
 10
365.757472524
 20
31.5391973962
 11
365.4684104651
 21
31.5391973962
  0
LINE
  8
0
 62
7
  6
CONTINUOUS
 10
364.1965353548
 20
31.5391973962
 11
363.8496603548
 21
31.5391973962
  0
LINE
  8
0
 62
7
  6
CONTINUOUS
 10
362.1152853548
 20
31.5391973962
 11
361.8840352445
 21
31.5391973962
  0
LINE
  8
0
 62
7
  6
CONTINUOUS
 10
365.4684104651
 20
31.8618343508
 11
365.757472524
 21
31.8618343508
  0
LINE
  8
0
 62
7
  6
CONTINUOUS
 10
365.757472524
 20
32.0231527829
 11
365.4684104651
 21
32.0231527829
  0
LINE
  8
0
 62
7
  6
CONTINUOUS
 10
361.3637227445
 20
32.0231527829
 11
361.0746601894
 21
32.0231527829
  0
LINE
  8
0
 62
7
  6
CONTINUOUS
 10
360.4015045068
 20
32.3100380288
 11
360.8140758554
 21
32.3100380288
  0
LINE
  8
0
 62
7
  6
CONTINUOUS
 10
362.0408487691
 20
32.3100380288
 11
363.4342913921
 21
32.3100380288
  0
LINE
  8
0
 62
7
  6
CONTINUOUS
 10
363.7621602445
 20
32.3100380288
 11
365.1556028675
 21
32.3100380288
  0
LINE
  8
0
 62
7
  6
CONTINUOUS
 10
367.0408487691
 20
32.3100380288
 11
368.4342913921
 21
32.3100380288
  0
LINE
  8
0
 62
7
  6
CONTINUOUS
 10
368.7621602445
 20
32.3100380288
 11
370.1556028675
 21
32.3100380288
  0
LINE
  8
0
 62
7
  6
CONTINUOUS
 10
366.798097524
 20
31.5069337098
 11
366.624660024
 21
31.4424063369
  0
LINE
  8
0
 62
7
  6
CONTINUOUS
 10
364.369972524
 20
30.5390230296
 11
364.543410024
 21
30.6035504109
  0
LINE
  8
0
 62
7
  6
CONTINUOUS
 10
369.8043479651
 20
30.5390230296
 11
370.0355977445
 21
30.6035504109
  0
LINE
  8
0
 62
7
  6
CONTINUOUS
 10
369.8043479651
 20
30.7003414814
 11
369.6887227445
 21
30.668077795
  0
LINE
  8
0
 62
7
  6
CONTINUOUS
 10
368.7637229651
 20
31.3778789641
 11
368.9949727445
 21
31.4101426505
  0
LINE
  8
0
 62
7
  6
CONTINUOUS
 10
366.798097524
 20
31.3778789641
 11
367.0293479651
 21
31.4101426505
  0
LINE
  8
0
 62
7
  6
CONTINUOUS
 10
363.7340351343
 20
31.0229783683
 11
363.9652852445
 21
31.0552420547
  0
LINE
  8
0
 62
7
  6
CONTINUOUS
 10
367.0293479651
 20
31.5391973962
 11
366.798097524
 21
31.5069337098
  0
LINE
  8
0
 62
7
  6
CONTINUOUS
 10
363.6184102445
 20
31.3778789641
 11
363.8496603548
 21
31.4101426505
  0
LINE
  8
0
 62
7
  6
CONTINUOUS
 10
368.9949727445
 20
31.5391973962
 11
368.6480977445
 21
31.5069337098
  0
LINE
  8
0
 62
7
  6
CONTINUOUS
 10
363.9652852445
 20
31.1842968456
 11
363.6184102445
 21
31.1520331591
  0
LINE
  8
0
 62
7
  6
CONTINUOUS
 10
359.744972717
 20
31.5391973962
 11
359.3980977583
 21
31.5069337098
  0
LINE
  8
0
 62
7
  6
CONTINUOUS
 10
363.8496603548
 20
31.5391973962
 11
363.4449727445
 21
31.5069337098
  0
LINE
  8
0
 62
7
  6
CONTINUOUS
 10
361.221176638
 20
33.4575790124
 11
360.565438933
 21
33.4575790124
  0
LINE
  8
0
 62
7
  6
CONTINUOUS
 10
366.624660024
 20
31.3133515913
 11
366.798097524
 21
31.3778789641
  0
LINE
  8
0
 62
7
  6
CONTINUOUS
 10
368.6480977445
 20
31.3456152777
 11
368.7637229651
 21
31.3778789641
  0
LINE
  8
0
 62
7
  6
CONTINUOUS
 10
368.6480977445
 20
31.5069337098
 11
368.4168479651
 21
31.4424063369
  0
LINE
  8
0
 62
7
  6
CONTINUOUS
 10
364.369972524
 20
30.7003414814
 11
364.0809101343
 21
30.6358140973
  0
LINE
  8
0
 62
7
  6
CONTINUOUS
 10
361.6527851343
 20
31.3778789641
 11
361.8840352445
 21
31.4101426505
  0
LINE
  8
0
 62
7
  6
CONTINUOUS
 10
361.8840352445
 20
31.5391973962
 11
361.6527851343
 21
31.5069337098
  0
LINE
  8
0
 62
7
  6
CONTINUOUS
 10
359.4559102445
 20
31.3778789641
 11
359.6871602721
 21
31.4101426505
  0
LINE
  8
0
 62
7
  6
CONTINUOUS
 10
365.9752749986
 20
34.9329888485
 11
366.6310127035
 21
34.9329888485
  0
LINE
  8
0
 62
7
  6
CONTINUOUS
 10
363.6184102445
 20
30.9907146818
 11
363.7340351343
 21
31.0229783683
  0
LINE
  8
0
 62
7
  6
CONTINUOUS
 10
363.6184102445
 20
31.1520331591
 11
363.3871601343
 21
31.0875057863
  0
LINE
  8
0
 62
7
  6
CONTINUOUS
 10
363.5027853548
 20
31.3456152777
 11
363.6184102445
 21
31.3778789641
  0
LINE
  8
0
 62
7
  6
CONTINUOUS
 10
360.1496602445
 20
30.5390230296
 11
360.3809101894
 21
30.6035504109
  0
LINE
  8
0
 62
7
  6
CONTINUOUS
 10
363.4449727445
 20
31.5069337098
 11
363.3293478548
 21
31.4746700234
  0
LINE
  8
0
 62
7
  6
CONTINUOUS
 10
359.3980977583
 20
31.5069337098
 11
359.2246602583
 21
31.4746700234
  0
LINE
  8
0
 62
7
  6
CONTINUOUS
 10
370.1556028675
 20
36.0805298321
 11
368.7621602445
 21
36.0805298321
  0
LINE
  8
0
 62
7
  6
CONTINUOUS
 10
366.7949471298
 20
36.0805298321
 11
366.3823757812
 21
36.0805298321
  0
LINE
  8
0
 62
7
  6
CONTINUOUS
 10
365.1556028675
 20
36.0805298321
 11
363.7621602445
 21
36.0805298321
  0
LINE
  8
0
 62
7
  6
CONTINUOUS
 10
363.4342913921
 20
36.0805298321
 11
362.0408487691
 21
36.0805298321
  0
LINE
  8
0
 62
7
  6
CONTINUOUS
 10
360.1556028675
 20
36.0805298321
 11
358.7621602445
 21
36.0805298321
  0
LINE
  8
0
 62
7
  6
CONTINUOUS
 10
359.3402852307
 20
31.3456152777
 11
359.4559102445
 21
31.3778789641
  0
CIRCLE
  8
0
 62
7
  6
CONTINUOUS
 10
369.458881556
 20
38.4165954059
 40
2.0901639344
  0
ARC
  8
0
 62
7
  6
CONTINUOUS
 10
360.4015045068
 20
33.9493822911
 40
1.6393442623
 50
180.0
 51
270.0
  0
ARC
  8
0
 62
7
  6
CONTINUOUS
 10
366.7949471298
 20
34.4411855698
 40
1.6393442623
 50
0.0
 51
90.0
  0
ARC
  8
0
 62
7
  6
CONTINUOUS
 10
360.8140758554
 20
33.7854478649
 40
1.4754098361
 50
270.0
 51
326.2510114041
  0
ARC
  8
0
 62
7
  6
CONTINUOUS
 10
366.3823757812
 20
34.6051199961
 40
1.4754098361
 50
90.0
 51
146.2510114041
  0
ARC
  8
0
 62
7
  6
CONTINUOUS
 10
361.221176638
 20
34.2772511436
 40
0.8196721311
 50
270.0
 51
360.0
  0
ARC
  8
0
 62
7
  6
CONTINUOUS
 10
365.9752749986
 20
34.1133167174
 40
0.8196721311
 50
90.0
 51
180.0
  0
ARC
  8
0
 62
7
  6
CONTINUOUS
 10
360.565438933
 20
33.867415078
 40
0.4098360656
 50
180.0
 51
270.0
  0
ARC
  8
0
 62
7
  6
CONTINUOUS
 10
366.6310127035
 20
34.5231527829
 40
0.4098360656
 50
0.0
 51
90.0
  0
SOLID
  8
0
 62
7
  6
CONTINUOUS
 10
365.4684104651
 20
31.8618347111
 11
365.4684104651
 21
32.0231531947
 12
365.757472524
 22
31.8618347111
 13
365.757472524
 23
32.0231531947
  0
SOLID
  8
0
 62
7
  6
CONTINUOUS
 10
359.744972717
 20
31.5391977439
 11
360.1496602445
 21
31.5069333244
 12
359.3980977583
 22
31.5069333244
 13
359.3980977583
 23
31.5069333244
  0
SOLID
  8
0
 62
7
  6
CONTINUOUS
 10
359.2246602583
 20
31.4746706537
 11
359.3980977583
 21
31.5069333244
 12
360.1496602445
 22
31.5069333244
 13
360.1496602445
 23
31.5069333244
  0
SOLID
  8
0
 62
7
  6
CONTINUOUS
 10
360.1496602445
 20
31.5069333244
 11
360.3809101894
 21
31.4424063504
 12
359.2246602583
 22
31.4746706537
 13
359.2246602583
 23
31.4746706537
  0
SOLID
  8
0
 62
7
  6
CONTINUOUS
 10
359.0512227376
 20
31.4101419116
 11
359.2246602583
 21
31.4746706537
 12
360.3809101894
 22
31.4424063504
 13
360.3809101894
 23
31.4424063504
  0
SOLID
  8
0
 62
7
  6
CONTINUOUS
 10
359.0512227376
 20
31.4101419116
 11
360.3809101894
 21
31.4424063504
 12
359.6871602721
 22
31.4101419116
 13
359.6871602721
 23
31.4101419116
  0
SOLID
  8
0
 62
7
  6
CONTINUOUS
 10
359.6871602721
 20
31.4101419116
 11
360.3809101894
 21
31.4424063504
 12
360.091847717
 22
31.3778792603
 13
360.091847717
 23
31.3778792603
  0
SOLID
  8
0
 62
7
  6
CONTINUOUS
 10
360.3809101894
 20
31.4424063504
 11
360.5543476894
 21
31.345614957
 12
360.091847717
 22
31.3778792603
 13
360.091847717
 23
31.3778792603
  0
SOLID
  8
0
 62
7
  6
CONTINUOUS
 10
360.2652852997
 20
31.3133521701
 11
360.091847717
 21
31.3778792603
 12
360.5543476894
 22
31.345614957
 13
360.5543476894
 23
31.345614957
  0
SOLID
  8
0
 62
7
  6
CONTINUOUS
 10
360.2652852997
 20
31.3133521701
 11
360.5543476894
 21
31.345614957
 12
360.3230977445
 22
31.2165606992
 13
360.3230977445
 23
31.2165606992
  0
SOLID
  8
0
 62
7
  6
CONTINUOUS
 10
360.5543476894
 20
31.345614957
 11
360.6121602997
 21
31.2165606992
 12
360.3230977445
 22
31.2165606992
 13
360.3230977445
 23
31.2165606992
  0
SOLID
  8
0
 62
7
  6
CONTINUOUS
 10
361.6527851343
 20
31.5069329918
 11
361.8840352445
 21
31.5391972951
 12
362.1152853548
 22
31.5391972951
 13
362.1152853548
 23
31.5391972951
  0
SOLID
  8
0
 62
7
  6
CONTINUOUS
 10
362.1152853548
 20
31.5391972951
 11
362.2887228548
 21
31.5069329918
 12
361.6527851343
 22
31.5069329918
 13
361.6527851343
 23
31.5069329918
  0
SOLID
  8
0
 62
7
  6
CONTINUOUS
 10
361.4793477997
 20
31.4424059016
 11
361.6527851343
 21
31.5069329918
 12
362.2887228548
 22
31.5069329918
 13
362.2887228548
 23
31.5069329918
  0
SOLID
  8
0
 62
7
  6
CONTINUOUS
 10
362.2887228548
 20
31.5069329918
 11
362.4621603548
 21
31.4424059016
 12
361.4793477997
 22
31.4424059016
 13
361.4793477997
 23
31.4424059016
  0
SOLID
  8
0
 62
7
  6
CONTINUOUS
 10
362.4621603548
 20
31.4424059016
 11
361.8840352445
 21
31.4101420472
 12
361.4793477997
 22
31.4424059016
 13
361.4793477997
 23
31.4424059016
  0
SOLID
  8
0
 62
7
  6
CONTINUOUS
 10
361.3637227445
 20
31.3778788115
 11
361.4793477997
 21
31.4424059016
 12
361.8840352445
 22
31.4101420472
 13
361.8840352445
 23
31.4101420472
  0
SOLID
  8
0
 62
7
  6
CONTINUOUS
 10
361.8840352445
 20
31.4101420472
 11
361.6527851343
 21
31.3778788115
 12
361.3637227445
 22
31.3778788115
 13
361.3637227445
 23
31.3778788115
  0
SOLID
  8
0
 62
7
  6
CONTINUOUS
 10
361.8840352445
 20
31.4101420472
 11
362.4621603548
 21
31.4424059016
 12
362.1152853548
 22
31.3778788115
 13
362.1152853548
 23
31.3778788115
  0
SOLID
  8
0
 62
7
  6
CONTINUOUS
 10
362.4621603548
 20
31.4424059016
 11
362.5777852445
 21
31.3778788115
 12
362.1152853548
 22
31.3778788115
 13
362.1152853548
 23
31.3778788115
  0
SOLID
  8
0
 62
7
  6
CONTINUOUS
 10
362.2309102445
 20
31.345614957
 11
362.1152853548
 21
31.3778788115
 12
362.5777852445
 22
31.3778788115
 13
362.5777852445
 23
31.3778788115
  0
SOLID
  8
0
 62
7
  6
CONTINUOUS
 10
362.5777852445
 20
31.3778788115
 11
362.6355978548
 21
31.3133517213
 12
362.2309102445
 22
31.345614957
 13
362.2309102445
 23
31.345614957
  0
SOLID
  8
0
 62
7
  6
CONTINUOUS
 10
362.3465351343
 20
31.2810878668
 11
362.2309102445
 21
31.345614957
 12
362.6355978548
 22
31.3133517213
 13
362.6355978548
 23
31.3133517213
  0
SOLID
  8
0
 62
7
  6
CONTINUOUS
 10
362.3465351343
 20
31.2810878668
 11
362.6355978548
 21
31.3133517213
 12
362.4043477445
 22
31.1520332377
 13
362.4043477445
 23
31.1520332377
  0
SOLID
  8
0
 62
7
  6
CONTINUOUS
 10
362.6355978548
 20
31.3133517213
 11
362.6934101343
 21
31.1520332377
 12
362.4043477445
 22
31.1520332377
 13
362.4043477445
 23
31.1520332377
  0
SOLID
  8
0
 62
7
  6
CONTINUOUS
 10
361.6527851343
 20
31.3778788115
 11
361.4793477997
 21
31.3133517213
 12
361.3637227445
 22
31.3778788115
 13
361.3637227445
 23
31.3778788115
  0
SOLID
  8
0
 62
7
  6
CONTINUOUS
 10
361.4793477997
 20
31.3133517213
 11
361.3637227445
 21
31.2488235635
 12
361.3637227445
 22
31.3778788115
 13
361.3637227445
 23
31.3778788115
  0
SOLID
  8
0
 62
7
  6
CONTINUOUS
 10
361.3637227445
 20
31.2488235635
 11
361.0746601894
 21
30.5067593033
 12
361.3637227445
 22
31.3778788115
 13
361.3637227445
 23
31.3778788115
  0
SOLID
  8
0
 62
7
  6
CONTINUOUS
 10
361.3637227445
 20
31.3778788115
 11
361.0746601894
 21
30.5067593033
 12
361.3637227445
 22
32.0231527459
 13
361.3637227445
 23
32.0231527459
  0
SOLID
  8
0
 62
7
  6
CONTINUOUS
 10
361.0746601894
 20
30.5067593033
 11
361.0746601894
 21
32.0231527459
 12
361.3637227445
 22
32.0231527459
 13
361.3637227445
 23
32.0231527459
  0
SOLID
  8
0
 62
7
  6
CONTINUOUS
 10
361.3637227445
 20
31.2488235635
 11
361.3637227445
 21
30.5067593033
 12
361.0746601894
 22
30.5067593033
 13
361.0746601894
 23
30.5067593033
  0
SOLID
  8
0
 62
7
  6
CONTINUOUS
 10
362.4043477445
 20
30.5067593033
 11
362.4043477445
 21
31.1520332377
 12
362.6934101343
 22
31.1520332377
 13
362.6934101343
 23
31.1520332377
  0
SOLID
  8
0
 62
7
  6
CONTINUOUS
 10
362.6934101343
 20
31.1520332377
 11
362.6934101343
 21
30.5067593033
 12
362.4043477445
 22
30.5067593033
 13
362.4043477445
 23
30.5067593033
  0
SOLID
  8
0
 62
7
  6
CONTINUOUS
 10
363.4449727445
 20
31.506933758
 11
363.8496603548
 21
31.5391977507
 12
364.1965353548
 22
31.5391977507
 13
364.1965353548
 23
31.5391977507
  0
SOLID
  8
0
 62
7
  6
CONTINUOUS
 10
364.1965353548
 20
31.5391977507
 11
364.543410024
 21
31.506933758
 12
363.4449727445
 22
31.506933758
 13
363.4449727445
 23
31.506933758
  0
SOLID
  8
0
 62
7
  6
CONTINUOUS
 10
363.3293478548
 20
31.4746706537
 11
363.4449727445
 21
31.506933758
 12
364.543410024
 22
31.506933758
 13
364.543410024
 23
31.506933758
  0
SOLID
  8
0
 62
7
  6
CONTINUOUS
 10
364.543410024
 20
31.506933758
 11
364.716847524
 21
31.4424063504
 12
363.3293478548
 22
31.4746706537
 13
363.3293478548
 23
31.4746706537
  0
SOLID
  8
0
 62
7
  6
CONTINUOUS
 10
363.2137226343
 20
31.4101417797
 11
363.3293478548
 21
31.4746706537
 12
364.716847524
 22
31.4424063504
 13
364.716847524
 23
31.4424063504
  0
SOLID
  8
0
 62
7
  6
CONTINUOUS
 10
363.2137226343
 20
31.4101417797
 11
364.716847524
 21
31.4424063504
 12
363.8496603548
 22
31.4101417797
 13
363.8496603548
 23
31.4101417797
  0
SOLID
  8
0
 62
7
  6
CONTINUOUS
 10
363.8496603548
 20
31.4101417797
 11
364.716847524
 21
31.4424063504
 12
364.1965353548
 22
31.4101417797
 13
364.1965353548
 23
31.4101417797
  0
SOLID
  8
0
 62
7
  6
CONTINUOUS
 10
364.1965353548
 20
31.4101417797
 11
364.716847524
 21
31.4424063504
 12
364.4277854651
 22
31.3778793357
 13
364.4277854651
 23
31.3778793357
  0
SOLID
  8
0
 62
7
  6
CONTINUOUS
 10
364.716847524
 20
31.4424063504
 11
364.8324727445
 21
31.3778793357
 12
364.4277854651
 22
31.3778793357
 13
364.4277854651
 23
31.3778793357
  0
SOLID
  8
0
 62
7
  6
CONTINUOUS
 10
363.1559103548
 20
31.3456153429
 11
363.2137226343
 21
31.4101417797
 12
363.8496603548
 22
31.4101417797
 13
363.8496603548
 23
31.4101417797
  0
SOLID
  8
0
 62
7
  6
CONTINUOUS
 10
364.543410024
 20
31.3456153429
 11
364.4277854651
 21
31.3778793357
 12
364.8324727445
 22
31.3778793357
 13
364.8324727445
 23
31.3778793357
  0
SOLID
  8
0
 62
7
  6
CONTINUOUS
 10
364.543410024
 20
31.3456153429
 11
364.8324727445
 21
31.3778793357
 12
364.6012229651
 22
31.2810881318
 13
364.6012229651
 23
31.2810881318
  0
SOLID
  8
0
 62
7
  6
CONTINUOUS
 10
364.8324727445
 20
31.3778793357
 11
364.890285024
 21
31.2810881318
 12
364.6012229651
 22
31.2810881318
 13
364.6012229651
 23
31.2810881318
  0
SOLID
  8
0
 62
7
  6
CONTINUOUS
 10
364.6012229651
 20
31.1842964734
 11
364.6012229651
 21
31.2810881318
 12
364.890285024
 22
31.2810881318
 13
364.890285024
 23
31.2810881318
  0
SOLID
  8
0
 62
7
  6
CONTINUOUS
 10
364.6012229651
 20
31.1842964734
 11
364.890285024
 21
31.2810881318
 12
364.6012229651
 22
31.0552422931
 13
364.6012229651
 23
31.0552422931
  0
SOLID
  8
0
 62
7
  6
CONTINUOUS
 10
364.6012229651
 20
31.0552422931
 11
364.890285024
 21
31.2810881318
 12
364.6012229651
 22
30.8616599362
 13
364.6012229651
 23
30.8616599362
  0
SOLID
  8
0
 62
7
  6
CONTINUOUS
 10
364.890285024
 20
31.2810881318
 11
364.890285024
 21
30.7648681127
 12
364.6012229651
 22
30.8616599362
 13
364.6012229651
 23
30.8616599362
  0
SOLID
  8
0
 62
7
  6
CONTINUOUS
 10
366.798097524
 20
31.5069339419
 11
367.0293479651
 21
31.5391976292
 12
367.2605977445
 22
31.5391976292
 13
367.2605977445
 23
31.5391976292
  0
SOLID
  8
0
 62
7
  6
CONTINUOUS
 10
367.2605977445
 20
31.5391976292
 11
367.4340352445
 21
31.5069339419
 12
366.798097524
 22
31.5069339419
 13
366.798097524
 23
31.5069339419
  0
SOLID
  8
0
 62
7
  6
CONTINUOUS
 10
366.624660024
 20
31.4424065674
 11
366.798097524
 21
31.5069339419
 12
367.4340352445
 22
31.5069339419
 13
367.4340352445
 23
31.5069339419
  0
SOLID
  8
0
 62
7
  6
CONTINUOUS
 10
367.4340352445
 20
31.5069339419
 11
367.6074727445
 21
31.4424065674
 12
366.624660024
 22
31.4424065674
 13
366.624660024
 23
31.4424065674
  0
SOLID
  8
0
 62
7
  6
CONTINUOUS
 10
367.6074727445
 20
31.4424065674
 11
367.0293479651
 21
31.4101420472
 12
366.624660024
 22
31.4424065674
 13
366.624660024
 23
31.4424065674
  0
SOLID
  8
0
 62
7
  6
CONTINUOUS
 10
366.5090354651
 20
31.377879193
 11
366.624660024
 21
31.4424065674
 12
367.0293479651
 22
31.4101420472
 13
367.0293479651
 23
31.4101420472
  0
SOLID
  8
0
 62
7
  6
CONTINUOUS
 10
367.0293479651
 20
31.4101420472
 11
366.798097524
 21
31.377879193
 12
366.5090354651
 22
31.377879193
 13
366.5090354651
 23
31.377879193
  0
SOLID
  8
0
 62
7
  6
CONTINUOUS
 10
367.0293479651
 20
31.4101420472
 11
367.6074727445
 21
31.4424065674
 12
367.2605977445
 22
31.377879193
 13
367.2605977445
 23
31.377879193
  0
SOLID
  8
0
 62
7
  6
CONTINUOUS
 10
367.6074727445
 20
31.4424065674
 11
367.7230979651
 21
31.377879193
 12
367.2605977445
 22
31.377879193
 13
367.2605977445
 23
31.377879193
  0
SOLID
  8
0
 62
7
  6
CONTINUOUS
 10
367.3762229651
 20
31.345614957
 11
367.2605977445
 21
31.377879193
 12
367.7230979651
 22
31.377879193
 13
367.7230979651
 23
31.377879193
  0
SOLID
  8
0
 62
7
  6
CONTINUOUS
 10
367.3762229651
 20
31.345614957
 11
367.7230979651
 21
31.377879193
 12
367.491847524
 22
31.2810881312
 13
367.491847524
 23
31.2810881312
  0
SOLID
  8
0
 62
7
  6
CONTINUOUS
 10
367.7230979651
 20
31.377879193
 11
367.7809102445
 21
31.2810881312
 12
367.491847524
 22
31.2810881312
 13
367.491847524
 23
31.2810881312
  0
SOLID
  8
0
 62
7
  6
CONTINUOUS
 10
367.5496604651
 20
31.119769695
 11
367.491847524
 21
31.2810881312
 12
367.7809102445
 22
31.2810881312
 13
367.7809102445
 23
31.2810881312
  0
SOLID
  8
0
 62
7
  6
CONTINUOUS
 10
367.7809102445
 20
31.2810881312
 11
367.838722524
 21
31.119769695
 12
367.5496604651
 22
31.119769695
 13
367.5496604651
 23
31.119769695
  0
SOLID
  8
0
 62
7
  6
CONTINUOUS
 10
366.798097524
 20
31.377879193
 11
366.624660024
 21
31.3133521701
 12
366.5090354651
 22
31.377879193
 13
366.5090354651
 23
31.377879193
  0
SOLID
  8
0
 62
7
  6
CONTINUOUS
 10
366.624660024
 20
31.3133521701
 11
366.5090354651
 21
31.2488235635
 12
366.5090354651
 22
31.377879193
 13
366.5090354651
 23
31.377879193
  0
SOLID
  8
0
 62
7
  6
CONTINUOUS
 10
366.5090354651
 20
31.2488235635
 11
366.2199727445
 21
30.5067596374
 12
366.5090354651
 22
31.377879193
 13
366.5090354651
 23
31.377879193
  0
SOLID
  8
0
 62
7
  6
CONTINUOUS
 10
366.5090354651
 20
31.377879193
 11
366.2199727445
 21
30.5067596374
 12
366.5090354651
 22
31.5391976292
 13
366.5090354651
 23
31.5391976292
  0
SOLID
  8
0
 62
7
  6
CONTINUOUS
 10
366.2199727445
 20
30.5067596374
 11
366.2199727445
 21
31.5391976292
 12
366.5090354651
 22
31.5391976292
 13
366.5090354651
 23
31.5391976292
  0
SOLID
  8
0
 62
7
  6
CONTINUOUS
 10
366.5090354651
 20
31.2488235635
 11
366.5090354651
 21
30.5067596374
 12
366.2199727445
 22
30.5067596374
 13
366.2199727445
 23
30.5067596374
  0
SOLID
  8
0
 62
7
  6
CONTINUOUS
 10
367.5496604651
 20
30.5067596374
 11
367.5496604651
 21
31.119769695
 12
367.838722524
 22
31.119769695
 13
367.838722524
 23
31.119769695
  0
SOLID
  8
0
 62
7
  6
CONTINUOUS
 10
367.838722524
 20
31.119769695
 11
367.838722524
 21
30.5067596374
 12
367.5496604651
 22
30.5067596374
 13
367.5496604651
 23
30.5067596374
  0
SOLID
  8
0
 62
7
  6
CONTINUOUS
 10
368.6480977445
 20
31.5069334157
 11
368.9949727445
 21
31.539197762
 12
369.3418477445
 22
31.539197762
 13
369.3418477445
 23
31.539197762
  0
SOLID
  8
0
 62
7
  6
CONTINUOUS
 10
369.3418477445
 20
31.539197762
 11
369.6887227445
 21
31.5069334157
 12
368.6480977445
 22
31.5069334157
 13
368.6480977445
 23
31.5069334157
  0
SOLID
  8
0
 62
7
  6
CONTINUOUS
 10
368.4168479651
 20
31.4424063504
 11
368.6480977445
 21
31.5069334157
 12
369.6887227445
 22
31.5069334157
 13
369.6887227445
 23
31.5069334157
  0
SOLID
  8
0
 62
7
  6
CONTINUOUS
 10
368.4168479651
 20
31.4424063504
 11
369.6887227445
 21
31.5069334406
 12
369.8621602445
 22
31.4746706537
 13
369.8621602445
 23
31.4746706537
  0
SOLID
  8
0
 62
7
  6
CONTINUOUS
 10
368.4168479651
 20
31.4424063504
 11
369.8621602445
 21
31.4746706537
 12
368.9949727445
 22
31.4101421267
 13
368.9949727445
 23
31.4101421267
  0
SOLID
  8
0
 62
7
  6
CONTINUOUS
 10
368.9949727445
 20
31.4101421267
 11
369.8621602445
 21
31.4746706537
 12
369.3418477445
 22
31.4101421267
 13
369.3418477445
 23
31.4101421267
  0
SOLID
  8
0
 62
7
  6
CONTINUOUS
 10
369.8621602445
 20
31.4746706537
 11
370.0355977445
 21
31.4101421267
 12
369.3418477445
 22
31.4101421267
 13
369.3418477445
 23
31.4101421267
  0
SOLID
  8
0
 62
7
  6
CONTINUOUS
 10
369.6887227445
 20
31.3778792603
 11
369.3418477445
 21
31.4101421267
 12
370.0355977445
 22
31.4101421267
 13
370.0355977445
 23
31.4101421267
  0
SOLID
  8
0
 62
7
  6
CONTINUOUS
 10
368.3012227445
 20
31.3456148845
 11
368.4168479651
 21
31.4424063504
 12
368.9949727445
 22
31.4101421267
 13
368.9949727445
 23
31.4101421267
  0
SOLID
  8
0
 62
7
  6
CONTINUOUS
 10
369.6887227445
 20
31.3778792603
 11
370.0355977445
 21
31.4101421267
 12
369.8043479651
 22
31.3456148845
 13
369.8043479651
 23
31.3456148845
  0
SOLID
  8
0
 62
7
  6
CONTINUOUS
 10
369.8043479651
 20
31.3456148845
 11
370.0355977445
 21
31.4101421267
 12
369.8621602445
 22
31.281087868
 13
369.8621602445
 23
31.281087868
  0
SOLID
  8
0
 62
7
  6
CONTINUOUS
 10
370.0355977445
 20
31.4101421267
 11
370.1512223035
 21
31.281087868
 12
369.8621602445
 22
31.281087868
 13
369.8621602445
 23
31.281087868
  0
SOLID
  8
0
 62
7
  6
CONTINUOUS
 10
359.4559102445
 20
31.3778792603
 11
358.9355977445
 21
31.3456148963
 12
359.6871602721
 22
31.4101421155
 13
359.6871602721
 23
31.4101421155
  0
SOLID
  8
0
 62
7
  6
CONTINUOUS
 10
358.9355977445
 20
31.3456148963
 11
359.0512227376
 21
31.4101421155
 12
359.6871602721
 22
31.4101421155
 13
359.6871602721
 23
31.4101421155
  0
SOLID
  8
0
 62
7
  6
CONTINUOUS
 10
359.4559102445
 20
31.3778792603
 11
359.3402852307
 21
31.3456148963
 12
358.9355977445
 22
31.3456148963
 13
358.9355977445
 23
31.3456148963
  0
SOLID
  8
0
 62
7
  6
CONTINUOUS
 10
358.8199727462
 20
31.2165607767
 11
358.9355977445
 21
31.3456148963
 12
359.3402852307
 22
31.3456148963
 13
359.3402852307
 23
31.3456148963
  0
SOLID
  8
0
 62
7
  6
CONTINUOUS
 10
363.1559103548
 20
31.3456149608
 11
363.8496603548
 21
31.4101420472
 12
363.6184102445
 22
31.3778792603
 13
363.6184102445
 23
31.3778792603
  0
SOLID
  8
0
 62
7
  6
CONTINUOUS
 10
363.6184102445
 20
31.3778792603
 11
363.5027853548
 21
31.3456149608
 12
363.1559103548
 22
31.3456149608
 13
363.1559103548
 23
31.3456149608
  0
SOLID
  8
0
 62
7
  6
CONTINUOUS
 10
363.1559103548
 20
31.2810878707
 11
363.1559103548
 21
31.3456149608
 12
363.5027853548
 22
31.3456149608
 13
363.5027853548
 23
31.3456149608
  0
SOLID
  8
0
 62
7
  6
CONTINUOUS
 10
363.5027853548
 20
31.3456149608
 11
363.4449727445
 21
31.2810878707
 12
363.1559103548
 22
31.2810878707
 13
363.1559103548
 23
31.2810878707
  0
SOLID
  8
0
 62
7
  6
CONTINUOUS
 10
368.3012227445
 20
31.3456149608
 11
368.9949727445
 21
31.4101420472
 12
368.7637229651
 22
31.3778792603
 13
368.7637229651
 23
31.3778792603
  0
SOLID
  8
0
 62
7
  6
CONTINUOUS
 10
368.7637229651
 20
31.3778792603
 11
368.6480977445
 21
31.3456149608
 12
368.3012227445
 22
31.3456149608
 13
368.3012227445
 23
31.3456149608
  0
SOLID
  8
0
 62
7
  6
CONTINUOUS
 10
368.3012227445
 20
31.2810878707
 11
368.3012227445
 21
31.3456149608
 12
368.6480977445
 22
31.3456149608
 13
368.6480977445
 23
31.3456149608
  0
SOLID
  8
0
 62
7
  6
CONTINUOUS
 10
368.6480977445
 20
31.3456149608
 11
368.5902854651
 21
31.2810878707
 12
368.3012227445
 22
31.2810878707
 13
368.3012227445
 23
31.2810878707
  0
SOLID
  8
0
 62
7
  6
CONTINUOUS
 10
368.4168479651
 20
31.1520336865
 11
368.3012227445
 21
31.2810878707
 12
368.5902854651
 22
31.2810878707
 13
368.5902854651
 23
31.2810878707
  0
SOLID
  8
0
 62
7
  6
CONTINUOUS
 10
358.8199727462
 20
31.2165607767
 11
359.3402852307
 21
31.345614957
 12
359.1668477307
 22
31.2488235635
 13
359.1668477307
 23
31.2488235635
  0
SOLID
  8
0
 62
7
  6
CONTINUOUS
 10
359.1668477307
 20
31.2488235635
 11
359.1090352445
 21
31.1842964734
 12
358.8199727462
 22
31.2165607767
 13
358.8199727462
 23
31.2165607767
  0
SOLID
  8
0
 62
7
  6
CONTINUOUS
 10
358.7621602445
 20
31.0229779898
 11
358.8199727462
 21
31.2165607767
 12
359.1090352445
 22
31.1842964734
 13
359.1090352445
 23
31.1842964734
  0
SOLID
  8
0
 62
7
  6
CONTINUOUS
 10
363.6184102445
 20
31.1520336865
 11
363.9652852445
 21
31.1842964611
 12
364.6012229651
 22
31.1842964611
 13
364.6012229651
 23
31.1842964611
  0
SOLID
  8
0
 62
7
  6
CONTINUOUS
 10
363.6184102445
 20
31.1520336865
 11
364.6012229651
 21
31.1842964611
 12
363.3871601343
 22
31.0875057863
 13
363.3871601343
 23
31.0875057863
  0
SOLID
  8
0
 62
7
  6
CONTINUOUS
 10
363.3871601343
 20
31.0875057863
 11
364.6012229651
 21
31.1842964611
 12
363.9652852445
 22
31.0552422808
 13
363.9652852445
 23
31.0552422808
  0
SOLID
  8
0
 62
7
  6
CONTINUOUS
 10
364.6012229651
 20
31.1842964611
 11
364.6012229651
 21
31.0552422808
 12
363.9652852445
 22
31.0552422808
 13
363.9652852445
 23
31.0552422808
  0
SOLID
  8
0
 62
7
  6
CONTINUOUS
 10
368.4168479651
 20
31.1520338754
 11
368.5902854651
 21
31.2810878668
 12
368.6480977445
 22
31.2165607767
 13
368.6480977445
 23
31.2165607767
  0
SOLID
  8
0
 62
7
  6
CONTINUOUS
 10
368.6480977445
 20
31.2165607767
 11
368.8215352445
 21
31.1520338754
 12
368.4168479651
 22
31.1520338754
 13
368.4168479651
 23
31.1520338754
  0
SOLID
  8
0
 62
7
  6
CONTINUOUS
 10
368.6480977445
 20
31.0552422931
 11
368.4168479651
 21
31.1520338754
 12
368.8215352445
 22
31.1520338754
 13
368.8215352445
 23
31.1520338754
  0
SOLID
  8
0
 62
7
  6
CONTINUOUS
 10
368.8215352445
 20
31.1520338754
 11
369.8043479651
 21
30.9907152029
 12
368.6480977445
 22
31.0552422931
 13
368.6480977445
 23
31.0552422931
  0
SOLID
  8
0
 62
7
  6
CONTINUOUS
 10
369.6309104651
 20
30.8939239876
 11
368.6480977445
 21
31.0552422931
 12
369.8043479651
 22
30.9907152029
 13
369.8043479651
 23
30.9907152029
  0
SOLID
  8
0
 62
7
  6
CONTINUOUS
 10
369.8043479651
 20
30.9907152029
 11
370.0355977445
 21
30.8939239876
 12
369.6309104651
 22
30.8939239876
 13
369.6309104651
 23
30.8939239876
  0
SOLID
  8
0
 62
7
  6
CONTINUOUS
 10
369.8043479651
 20
30.8293967193
 11
369.6309104651
 21
30.8939239876
 12
370.0355977445
 22
30.8939239876
 13
370.0355977445
 23
30.8939239876
  0
SOLID
  8
0
 62
7
  6
CONTINUOUS
 10
369.8043479651
 20
30.8293967193
 11
370.0355977445
 21
30.8939239876
 12
369.8621602445
 22
30.7648682694
 13
369.8621602445
 23
30.7648682694
  0
SOLID
  8
0
 62
7
  6
CONTINUOUS
 10
370.0355977445
 20
30.8939239876
 11
370.1512223035
 21
30.7648682694
 12
369.8621602445
 22
30.7648682694
 13
369.8621602445
 23
30.7648682694
  0
SOLID
  8
0
 62
7
  6
CONTINUOUS
 10
369.8043479651
 20
30.7003411846
 11
369.8621602445
 21
30.7648682694
 12
370.1512223035
 22
30.7648682694
 13
370.1512223035
 23
30.7648682694
  0
SOLID
  8
0
 62
7
  6
CONTINUOUS
 10
370.1512223035
 20
30.7648682694
 11
370.1512223035
 21
30.7003411846
 12
369.8043479651
 22
30.7003411846
 13
369.8043479651
 23
30.7003411846
  0
SOLID
  8
0
 62
7
  6
CONTINUOUS
 10
369.6887227445
 20
30.6680782357
 11
369.8043479651
 21
30.7003411846
 12
370.1512223035
 22
30.7003411846
 13
370.1512223035
 23
30.7003411846
  0
SOLID
  8
0
 62
7
  6
CONTINUOUS
 10
369.6887227445
 20
30.6680782357
 11
370.1512223035
 21
30.7003411846
 12
369.4574729651
 22
30.6358140998
 13
369.4574729651
 23
30.6358140998
  0
SOLID
  8
0
 62
7
  6
CONTINUOUS
 10
370.1512223035
 20
30.7003411846
 11
370.0355977445
 21
30.6035511455
 12
369.4574729651
 22
30.6358140998
 13
369.4574729651
 23
30.6358140998
  0
SOLID
  8
0
 62
7
  6
CONTINUOUS
 10
370.0355977445
 20
30.6035511455
 11
368.5902854651
 21
30.5712868422
 12
369.4574729651
 22
30.6358140998
 13
369.4574729651
 23
30.6358140998
  0
SOLID
  8
0
 62
7
  6
CONTINUOUS
 10
369.4574729651
 20
30.6358140998
 11
368.5902854651
 21
30.5712868422
 12
369.1105979651
 22
30.6358140998
 13
369.1105979651
 23
30.6358140998
  0
SOLID
  8
0
 62
7
  6
CONTINUOUS
 10
368.5902854651
 20
30.5712868422
 11
368.4168479651
 21
30.6358140998
 12
369.1105979651
 22
30.6358140998
 13
369.1105979651
 23
30.6358140998
  0
SOLID
  8
0
 62
7
  6
CONTINUOUS
 10
368.5902854651
 20
30.5712868422
 11
370.0355977445
 21
30.6035511455
 12
368.7637229651
 22
30.5390223111
 13
368.7637229651
 23
30.5390223111
  0
SOLID
  8
0
 62
7
  6
CONTINUOUS
 10
370.0355977445
 20
30.6035511455
 11
369.8043479651
 21
30.5390223111
 12
368.7637229651
 22
30.5390223111
 13
368.7637229651
 23
30.5390223111
  0
SOLID
  8
0
 62
7
  6
CONTINUOUS
 10
369.1105979651
 20
30.5067599302
 11
368.7637229651
 21
30.5390223111
 12
369.8043479651
 22
30.5390223111
 13
369.8043479651
 23
30.5390223111
  0
SOLID
  8
0
 62
7
  6
CONTINUOUS
 10
369.8043479651
 20
30.5390223111
 11
369.4574729651
 21
30.5067599302
 12
369.1105979651
 22
30.5067599302
 13
369.1105979651
 23
30.5067599302
  0
SOLID
  8
0
 62
7
  6
CONTINUOUS
 10
358.7621602445
 20
31.0229779898
 11
359.1090352445
 21
31.1842964734
 12
359.0512227376
 22
31.0552422931
 13
359.0512227376
 23
31.0552422931
  0
SOLID
  8
0
 62
7
  6
CONTINUOUS
 10
359.0512227376
 20
31.0552422931
 11
359.0512227376
 21
30.9584509954
 12
358.7621602445
 22
31.0229779898
 13
358.7621602445
 23
31.0229779898
  0
SOLID
  8
0
 62
7
  6
CONTINUOUS
 10
358.8199727462
 20
30.8293967193
 11
358.7621602445
 21
31.0229779898
 12
359.0512227376
 22
30.9584509954
 13
359.0512227376
 23
30.9584509954
  0
SOLID
  8
0
 62
7
  6
CONTINUOUS
 10
359.0512227376
 20
30.9584509954
 11
359.1668477307
 21
30.797132416
 12
358.8199727462
 22
30.8293967193
 13
358.8199727462
 23
30.8293967193
  0
SOLID
  8
0
 62
7
  6
CONTINUOUS
 10
358.9355977445
 20
30.7003413087
 11
358.8199727462
 21
30.8293967193
 12
359.1668477307
 22
30.797132416
 13
359.1668477307
 23
30.797132416
  0
SOLID
  8
0
 62
7
  6
CONTINUOUS
 10
359.1668477307
 20
30.797132416
 11
359.3402852307
 21
30.7003413087
 12
358.9355977445
 22
30.7003413087
 13
358.9355977445
 23
30.7003413087
  0
SOLID
  8
0
 62
7
  6
CONTINUOUS
 10
359.0512227376
 20
30.6358140759
 11
358.9355977445
 21
30.7003413087
 12
359.3402852307
 22
30.7003413087
 13
359.3402852307
 23
30.7003413087
  0
SOLID
  8
0
 62
7
  6
CONTINUOUS
 10
359.3402852307
 20
30.7003413087
 11
359.6871602721
 21
30.6358140759
 12
359.0512227376
 22
30.6358140759
 13
359.0512227376
 23
30.6358140759
  0
SOLID
  8
0
 62
7
  6
CONTINUOUS
 10
359.2246602583
 20
30.5712868422
 11
359.0512227376
 21
30.6358140759
 12
359.6871602721
 22
30.6358140759
 13
359.6871602721
 23
30.6358140759
  0
SOLID
  8
0
 62
7
  6
CONTINUOUS
 10
363.2715352445
 20
31.0229779808
 11
363.3871601343
 21
31.0875057863
 12
363.9652852445
 22
31.0552422931
 13
363.9652852445
 23
31.0552422931
  0
SOLID
  8
0
 62
7
  6
CONTINUOUS
 10
363.9652852445
 20
31.0552422931
 11
363.7340351343
 21
31.0229779808
 12
363.2715352445
 22
31.0229779808
 13
363.2715352445
 23
31.0229779808
  0
SOLID
  8
0
 62
7
  6
CONTINUOUS
 10
363.1559103548
 20
30.8939238094
 11
363.2715352445
 21
31.0229779808
 12
363.7340351343
 22
31.0229779808
 13
363.7340351343
 23
31.0229779808
  0
SOLID
  8
0
 62
7
  6
CONTINUOUS
 10
363.5027853548
 20
30.926187309
 11
363.1559103548
 21
30.8939238094
 12
363.6184102445
 22
30.9907152029
 13
363.6184102445
 23
30.9907152029
  0
SOLID
  8
0
 62
7
  6
CONTINUOUS
 10
363.1559103548
 20
30.8939238094
 11
363.7340351343
 21
31.0229779898
 12
363.6184102445
 22
30.9907152029
 13
363.6184102445
 23
30.9907152029
  0
SOLID
  8
0
 62
7
  6
CONTINUOUS
 10
363.5027853548
 20
30.926187309
 11
363.4449727445
 21
30.8293967193
 12
363.1559103548
 22
30.8939238094
 13
363.1559103548
 23
30.8939238094
  0
SOLID
  8
0
 62
7
  6
CONTINUOUS
 10
363.1559103548
 20
30.797132416
 11
363.1559103548
 21
30.8939238094
 12
363.4449727445
 22
30.8293967193
 13
363.4449727445
 23
30.8293967193
  0
SOLID
  8
0
 62
7
  6
CONTINUOUS
 10
363.4449727445
 20
30.8293967193
 11
363.4449727445
 21
30.7648681127
 12
363.1559103548
 22
30.797132416
 13
363.1559103548
 23
30.797132416
  0
SOLID
  8
0
 62
7
  6
CONTINUOUS
 10
363.2137226343
 20
30.6680782357
 11
363.1559103548
 21
30.797132416
 12
363.4449727445
 22
30.7648681127
 13
363.4449727445
 23
30.7648681127
  0
SOLID
  8
0
 62
7
  6
CONTINUOUS
 10
364.6012229651
 20
30.8616599362
 11
364.890285024
 21
30.7648681127
 12
364.543410024
 22
30.797132416
 13
364.543410024
 23
30.797132416
  0
SOLID
  8
0
 62
7
  6
CONTINUOUS
 10
364.369972524
 20
30.7003410226
 11
364.543410024
 21
30.797132416
 12
364.890285024
 22
30.7648681127
 13
364.890285024
 23
30.7648681127
  0
SOLID
  8
0
 62
7
  6
CONTINUOUS
 10
364.369972524
 20
30.7003410226
 11
364.890285024
 21
30.7648681127
 12
364.6012229651
 22
30.6680782357
 13
364.6012229651
 23
30.6680782357
  0
SOLID
  8
0
 62
7
  6
CONTINUOUS
 10
364.890285024
 20
30.7648681127
 11
364.9480979651
 21
30.6035511455
 12
364.6012229651
 22
30.6680782357
 13
364.6012229651
 23
30.6680782357
  0
SOLID
  8
0
 62
7
  6
CONTINUOUS
 10
364.6590352445
 20
30.5712868422
 11
364.6012229651
 21
30.6680782357
 12
364.9480979651
 22
30.6035511455
 13
364.9480979651
 23
30.6035511455
  0
SOLID
  8
0
 62
7
  6
CONTINUOUS
 10
364.6590352445
 20
30.5712868422
 11
364.9480979651
 21
30.6035511455
 12
364.716847524
 22
30.5067598731
 13
364.716847524
 23
30.5067598731
  0
SOLID
  8
0
 62
7
  6
CONTINUOUS
 10
364.9480979651
 20
30.6035511455
 11
365.0059102445
 21
30.5067598731
 12
364.716847524
 22
30.5067598731
 13
364.716847524
 23
30.5067598731
  0
SOLID
  8
0
 62
7
  6
CONTINUOUS
 10
360.2652852997
 20
30.7326051679
 11
360.3230977445
 21
30.8293966612
 12
360.6121602997
 22
30.8293966612
 13
360.6121602997
 23
30.8293966612
  0
SOLID
  8
0
 62
7
  6
CONTINUOUS
 10
360.6121602997
 20
30.8293966612
 11
360.5543476894
 21
30.7003410226
 12
360.2652852997
 22
30.7326051679
 13
360.2652852997
 23
30.7326051679
  0
SOLID
  8
0
 62
7
  6
CONTINUOUS
 10
360.091847717
 20
30.6680782357
 11
360.2652852997
 21
30.7326051679
 12
360.5543476894
 22
30.7003410226
 13
360.5543476894
 23
30.7003410226
  0
SOLID
  8
0
 62
7
  6
CONTINUOUS
 10
360.091847717
 20
30.6680782357
 11
360.5543476894
 21
30.7003410226
 12
359.6871602721
 22
30.6358139324
 13
359.6871602721
 23
30.6358139324
  0
SOLID
  8
0
 62
7
  6
CONTINUOUS
 10
360.5543476894
 20
30.7003410226
 11
360.3809101894
 21
30.6035511455
 12
359.6871602721
 22
30.6358139324
 13
359.6871602721
 23
30.6358139324
  0
SOLID
  8
0
 62
7
  6
CONTINUOUS
 10
359.2246602583
 20
30.5712868422
 11
359.6871602721
 21
30.6358139324
 12
360.3809101894
 22
30.6035511455
 13
360.3809101894
 23
30.6035511455
  0
SOLID
  8
0
 62
7
  6
CONTINUOUS
 10
359.2246602583
 20
30.5712868422
 11
360.3809101894
 21
30.6035511455
 12
359.3980977583
 22
30.5390224228
 13
359.3980977583
 23
30.5390224228
  0
SOLID
  8
0
 62
7
  6
CONTINUOUS
 10
360.3809101894
 20
30.6035511455
 11
360.1496602445
 21
30.5390224228
 12
359.3980977583
 22
30.5390224228
 13
359.3980977583
 23
30.5390224228
  0
SOLID
  8
0
 62
7
  6
CONTINUOUS
 10
359.744972717
 20
30.5067597521
 11
359.3980977583
 21
30.5390224228
 12
360.1496602445
 22
30.5390224228
 13
360.1496602445
 23
30.5390224228
  0
SOLID
  8
0
 62
7
  6
CONTINUOUS
 10
363.2137226343
 20
30.6680782357
 11
363.4449727445
 21
30.7648681127
 12
363.5027853548
 22
30.7003410226
 13
363.5027853548
 23
30.7003410226
  0
SOLID
  8
0
 62
7
  6
CONTINUOUS
 10
363.5027853548
 20
30.7003410226
 11
363.7340351343
 21
30.6358139324
 12
363.2137226343
 22
30.6680782357
 13
363.2137226343
 23
30.6680782357
  0
SOLID
  8
0
 62
7
  6
CONTINUOUS
 10
363.3871601343
 20
30.5712868422
 11
363.2137226343
 21
30.6680782357
 12
363.7340351343
 22
30.6358139324
 13
363.7340351343
 23
30.6358139324
  0
SOLID
  8
0
 62
7
  6
CONTINUOUS
 10
364.0809101343
 20
30.6358139363
 11
364.369972524
 21
30.7003410226
 12
364.6012229651
 22
30.6680782357
 13
364.6012229651
 23
30.6680782357
  0
SOLID
  8
0
 62
7
  6
CONTINUOUS
 10
364.6012229651
 20
30.6680782357
 11
364.543410024
 21
30.6035511455
 12
364.0809101343
 22
30.6358139363
 13
364.0809101343
 23
30.6358139363
  0
SOLID
  8
0
 62
7
  6
CONTINUOUS
 10
364.543410024
 20
30.6035511455
 11
363.3871601343
 21
30.5712868422
 12
364.0809101343
 22
30.6358139363
 13
364.0809101343
 23
30.6358139363
  0
SOLID
  8
0
 62
7
  6
CONTINUOUS
 10
363.3871601343
 20
30.5712868422
 11
363.7340351343
 21
30.6358139363
 12
364.0809101343
 22
30.6358139363
 13
364.0809101343
 23
30.6358139363
  0
SOLID
  8
0
 62
7
  6
CONTINUOUS
 10
363.3871601343
 20
30.5712868422
 11
364.543410024
 21
30.6035511455
 12
363.5027853548
 22
30.5390225267
 13
363.5027853548
 23
30.5390225267
  0
SOLID
  8
0
 62
7
  6
CONTINUOUS
 10
364.543410024
 20
30.6035511455
 11
364.369972524
 21
30.5390225267
 12
363.5027853548
 22
30.5390225267
 13
363.5027853548
 23
30.5390225267
  0
SOLID
  8
0
 62
7
  6
CONTINUOUS
 10
363.7340351343
 20
30.5067596914
 11
363.5027853548
 21
30.5390225267
 12
364.369972524
 22
30.5390225267
 13
364.369972524
 23
30.5390225267
  0
SOLID
  8
0
 62
7
  6
CONTINUOUS
 10
364.369972524
 20
30.5390225267
 11
364.0809101343
 21
30.5067596914
 12
363.7340351343
 22
30.5067596914
 13
363.7340351343
 23
30.5067596914
  0
SOLID
  8
0
 62
7
  6
CONTINUOUS
 10
368.7637229651
 20
30.6680782357
 11
368.4168479651
 21
30.6358138717
 12
368.6480977445
 22
30.7003410226
 13
368.6480977445
 23
30.7003410226
  0
SOLID
  8
0
 62
7
  6
CONTINUOUS
 10
368.6480977445
 20
30.7003410226
 11
368.4168479651
 21
30.6358138717
 12
368.5902854651
 22
30.7648680521
 13
368.5902854651
 23
30.7648680521
  0
SOLID
  8
0
 62
7
  6
CONTINUOUS
 10
368.4168479651
 20
30.6358138717
 11
368.3012227445
 21
30.7648680521
 12
368.5902854651
 22
30.7648680521
 13
368.5902854651
 23
30.7648680521
  0
SOLID
  8
0
 62
7
  6
CONTINUOUS
 10
368.7637229651
 20
30.6680782357
 11
369.1105979651
 21
30.6358138717
 12
368.4168479651
 22
30.6358138717
 13
368.4168479651
 23
30.6358138717
  0
SOLID
  8
0
 62
7
  6
CONTINUOUS
 10
365.4684104651
 20
30.5067597521
 11
365.4684104651
 21
31.5391977439
 12
365.757472524
 22
30.5067597521
 13
365.757472524
 23
31.5391977439
  0
ENDBLK
  8
0
  6
BYBLOCK
 62
0
  0
BLOCK
  8
0
 62
2
  6
CONTINUOUS
  2
AMMEAAL_LOGO_BL0
 70
64
 10
240.8592468615
 20
19.762288695
  0
TEXT
  8
0
 62
7
  6
CONTINUOUS
 10
227.1239507038
 20
19.1357028027
  7
TEXTSTYLE_3
 40
2.7338706658
  1
Ammeraal Beltech
 41
1.0
 51
15.0
 72
0
  0
TEXT
  8
0
 62
7
  6
CONTINUOUS
 10
237.9247515296
 20
16.8621661299
  7
TEXTSTYLE_4
 40
1.0935482663
  1
Innovation & Service in Belting
 41
1.0
 72
0
  0
LINE
  8
0
 62
7
  6
CONTINUOUS
 10
221.0994100525
 20
19.9022961113
 11
221.8775620458
 21
23.5632134089
  0
LINE
  8
0
 62
7
  6
CONTINUOUS
 10
231.9727303357
 20
27.2266073205
 11
222.3653797889
 21
24.1049898993
  0
LINE
  8
0
 62
7
  6
CONTINUOUS
 10
221.3246933848
 20
19.2089453082
 11
228.8317686459
 21
12.4495443822
  0
LINE
  8
0
 62
7
  6
CONTINUOUS
 10
221.5872277955
 20
20.4440726016
 11
232.3954971607
 21
23.9558922005
  0
LINE
  8
0
 62
7
  6
CONTINUOUS
 10
232.3912920235
 20
13.6061036368
 11
223.9458323548
 21
21.2104296785
  0
LINE
  8
0
 62
7
  6
CONTINUOUS
 10
232.9111147433
 20
26.3816822048
 11
231.9345552061
 21
21.7873308023
  0
LINE
  8
0
 62
7
  6
CONTINUOUS
 10
231.2347532584
 20
18.4950214885
 11
230.5483050469
 21
15.2655365641
  0
LINE
  8
0
 62
7
  6
CONTINUOUS
 10
233.5922108419
 20
13.9963058145
 11
234.5484423775
 21
18.4950214885
  0
LINE
  8
0
 62
7
  6
CONTINUOUS
 10
235.2482443252
 20
21.7873308023
 11
235.6924861276
 21
23.8773241617
  0
LINE
  8
0
 62
7
  6
CONTINUOUS
 10
229.5448697213
 20
12.2979700695
 11
233.1043930989
 21
13.4545293241
  0
LINE
  8
0
 62
7
  6
CONTINUOUS
 10
232.685831411
 20
27.0750330078
 11
235.4672027953
 21
24.5706749648
  0
ARC
  8
0
 62
7
  6
CONTINUOUS
 10
222.5906631212
 20
23.4116390962
 40
0.7290321776
 50
108.0
 51
168.0
  0
ARC
  8
0
 62
7
  6
CONTINUOUS
 10
232.198013668
 20
26.5332565175
 40
0.7290321776
 50
348.0
 51
108.0
  0
ARC
  8
0
 62
7
  6
CONTINUOUS
 10
234.9793850522
 20
24.0288984744
 40
0.7290321776
 50
348.0
 51
48.0
  0
ARC
  8
0
 62
7
  6
CONTINUOUS
 10
229.319586389
 20
12.9913208726
 40
0.7290321776
 50
228.0
 51
288.0
  0
ARC
  8
0
 62
7
  6
CONTINUOUS
 10
221.8125111278
 20
19.7507217986
 40
0.7290321776
 50
108.0
 51
228.0
  0
ARC
  8
0
 62
7
  6
CONTINUOUS
 10
232.8791097665
 20
14.1478801272
 40
0.7290321776
 50
228.0
 51
348.0
  0
ENDBLK
  8
0
  6
BYBLOCK
 62
0
  0
ENDSEC
  0
SECTION
  2
ENTITIES
  0
TEXT
  8
0
 62
5
  6
CONTINUOUS
 10
304.937007874
 20
25.636
  7
TEXTSTYLE_2
 40
2.8
  1
Scale :
 41
0.6
 51
0.000019
 72
0
  0
TEXT
  8
0
 62
5
  6
CONTINUOUS
 10
324.937007874
 20
25.636
  7
TEXTSTYLE_2
 40
2.8
  1
Belt type:
 41
0.6
 51
0.000019
 72
0
  0
INSERT
  8
0
 62
2
  6
CONTINUOUS
  2
AMMEAAL_LOGO_BL0
 10
240.8592468615
 20
19.762288695
  0
INSERT
  8
0
 62
2
  6
CONTINUOUS
  2
UNI_LOGO2_BL1
 10
382.7840918555
 20
35.5067593403
  0
LINE
  8
0
 62
2
  6
CONTINUOUS
 10
218.937007874
 20
30.0
 11
408.937007874
 21
30.0
  0
LINE
  8
0
 62
2
  6
CONTINUOUS
 10
218.937007874
 20
30.0
 11
218.937007874
 21
10.0
  0
LINE
  8
0
 62
2
  6
CONTINUOUS
 10
218.937007874
 20
10.0
 11
408.937007874
 21
10.0
  0
LINE
  8
0
 62
2
  6
CONTINUOUS
 10
303.937007874
 20
30.0
 11
303.937007874
 21
10.0
  0
LINE
  8
0
 62
2
  6
CONTINUOUS
 10
323.937007874
 20
30.0
 11
323.937007874
 21
10.0
  0
LINE
  8
0
 62
2
  6
CONTINUOUS
 10
408.937007874
 20
30.0
 11
408.937007874
 21
10.0
  0
TEXT
  8
0
 62
5
  6
CONTINUOUS
 10
221.937007874
 20
23.303
  7
TEXTSTYLE_5
 40
1.52
  1
                                                                     Ammeraal Beltech Modular A/S
 41
1.0
 72
0
  0
TEXT
  8
0
 62
5
  6
CONTINUOUS
 10
221.937007874
 20
20.595
  7
TEXTSTYLE_5
 40
1.5
  1
                                                                      Hjulmagervej 21, 7100 Vejle,  DK
 41
1.0
 72
0
  0
TEXT
  8
0
 62
5
  6
CONTINUOUS
 10
221.937007874
 20
17.881
  7
TEXTSTYLE_5
 40
1.495
  1
                                                                      tel: 
 41
1.0
 72
0
  0
TEXT
  8
0
 62
5
  6
CONTINUOUS
 10
266.9239544389
 20
17.881
  7
TEXTSTYLE_5
 40
1.51
  1
+45 75723100     fax: +45 75723348
 41
1.0
 72
0
  0
TEXT
  8
0
 62
5
  6
CONTINUOUS
 10
221.937007874
 20
15.177
  7
TEXTSTYLE_5
 40
1.5
  1
                                                                      admin@unichains.dk  www.unichains.com
 41
1.0
 72
0
  0
TEXT
  8
0
 62
5
  6
CONTINUOUS
 10
308.687007874
 20
13.75
  7
TEXTSTYLE_6
 40
5.0
  1
1:1
 41
0.7
 72
1
 11
313.937007874
 21
13.75
  0
TEXT
  8
0
 62
5
  6
CONTINUOUS
 10
326.937007874
 20
13.75
  7
TEXTSTYLE_7
 40
7.5
  1
uni Flex ASB K1200 Both
 41
0.4503623188
 72
0
  0
LINE
  8
0
 62
7
  6
CONTINUOUS
 10
0.0
 20
0.0
 11
0.0
 21
297.0
  0
LINE
  8
0
 62
7
  6
CONTINUOUS
 10
8.937007874
 20
10.0
 11
8.937007874
 21
287.0
  0
LINE
  8
0
 62
7
  6
CONTINUOUS
 10
0.0
 20
0.0
 11
420.0
 21
0.0
  0
LINE
  8
0
 62
7
  6
CONTINUOUS
 10
408.937007874
 20
10.0
 11
8.937007874
 21
10.0
  0
LINE
  8
0
 62
7
  6
CONTINUOUS
 10
218.937007874
 20
30.0
 11
408.937007874
 21
30.0
  0
LINE
  8
0
 62
7
  6
CONTINUOUS
 10
210.0
 20
297.0
 11
210.0
 21
292.0
  0
LINE
  8
0
 62
7
  6
CONTINUOUS
 10
210.0
 20
0.0
 11
210.0
 21
5.0
  0
LINE
  8
0
 62
7
  6
CONTINUOUS
 10
8.937007874
 20
287.0
 11
408.937007874
 21
287.0
  0
LINE
  8
0
 62
7
  6
CONTINUOUS
 10
0.0
 20
297.0
 11
420.0
 21
297.0
  0
LINE
  8
0
 62
7
  6
CONTINUOUS
 10
408.937007874
 20
287.0
 11
408.937007874
 21
10.0
  0
LINE
  8
0
 62
7
  6
CONTINUOUS
 10
420.0
 20
0.0
 11
420.0
 21
297.0
  0
LINE
  8
0
 62
7
  6
CONTINUOUS
 10
41.9686826536
 20
196.8633748516
 11
41.9686826536
 21
186.1324939682
  0
LINE
  8
0
 62
7
  6
CONTINUOUS
 10
49.3436826536
 20
186.7324939682
 11
49.3436826536
 21
197.2324939682
  0
LINE
  8
0
 62
7
  6
CONTINUOUS
 10
55.3436826536
 20
186.7324939682
 11
55.3436826536
 21
197.2324939682
  0
POLYLINE
  8
0
 62
7
  6
CONTINUOUS
 66
1
 70
0
  0
VERTEX
  8
0
 62
7
  6
CONTINUOUS
 10
49.3436826536
 20
190.9922920172
  0
VERTEX
  8
0
 62
7
  6
CONTINUOUS
 10
49.3235282189
 20
191.0515285798
  0
VERTEX
  8
0
 62
7
  6
CONTINUOUS
 10
49.2350008536
 20
191.4622121549
  0
VERTEX
  8
0
 62
7
  6
CONTINUOUS
 10
49.1966284362
 20
191.8787238409
  0
VERTEX
  8
0
 62
7
  6
CONTINUOUS
 10
49.1966544279
 20
192.0871101054
  0
VERTEX
  8
0
 62
7
  6
CONTINUOUS
 10
49.2351264331
 20
192.5035914079
  0
VERTEX
  8
0
 62
7
  6
CONTINUOUS
 10
49.3237571211
 20
192.9142820431
  0
VERTEX
  8
0
 62
7
  6
CONTINUOUS
 10
49.3436826536
 20
192.972805099
  0
SEQEND
  0
LINE
  8
0
 62
7
  6
CONTINUOUS
 10
63.6786826536
 20
189.8831822503
 11
63.6786826536
 21
186.1324939682
  0
LINE
  8
0
 62
7
  6
CONTINUOUS
 10
64.9686826536
 20
186.9952772097
 11
64.9686826536
 21
197.2324939682
  0
LINE
  8
0
 62
7
  6
CONTINUOUS
 10
70.9686826536
 20
186.9952772097
 11
70.9686826536
 21
197.2324939682
  0
LINE
  8
0
 62
7
  6
CONTINUOUS
 10
72.2586826536
 20
189.8831823837
 11
72.2586826536
 21
186.1324939682
  0
POLYLINE
  8
0
 62
7
  6
CONTINUOUS
 66
1
 70
0
  0
VERTEX
  8
0
 62
7
  6
CONTINUOUS
 10
64.9686826536
 20
190.6587530333
  0
VERTEX
  8
0
 62
7
  6
CONTINUOUS
 10
64.965054126
 20
190.6193590881
  0
VERTEX
  8
0
 62
7
  6
CONTINUOUS
 10
64.9405109565
 20
190.5577288107
  0
VERTEX
  8
0
 62
7
  6
CONTINUOUS
 10
64.9216485775
 20
190.5347230449
  0
VERTEX
  8
0
 62
7
  6
CONTINUOUS
 10
64.8764744466
 20
190.5045061221
  0
VERTEX
  8
0
 62
7
  6
CONTINUOUS
 10
64.8514099263
 20
190.4965084536
  0
SEQEND
  0
LINE
  8
0
 62
7
  6
CONTINUOUS
 10
79.4686826536
 20
186.7324939682
 11
79.4686826536
 21
197.2324939682
  0
LINE
  8
0
 62
7
  6
CONTINUOUS
 10
85.4686826536
 20
186.7324939682
 11
85.4686826536
 21
197.2324939682
  0
LINE
  8
0
 62
7
  6
CONTINUOUS
 10
93.2186826536
 20
197.2324939682
 11
93.2186826536
 21
186.7324939682
  0
LINE
  8
0
 62
7
  6
CONTINUOUS
 10
99.2186826536
 20
186.7324939682
 11
99.2186826536
 21
197.2324939682
  0
LINE
  8
0
 62
7
  6
CONTINUOUS
 10
106.3186826536
 20
197.2324939682
 11
106.3186826536
 21
186.7324939682
  0
LINE
  8
0
 62
7
  6
CONTINUOUS
 10
112.3186826536
 20
186.7324939682
 11
112.3186826536
 21
197.2324939682
  0
LINE
  8
0
 62
7
  6
CONTINUOUS
 10
119.0186826536
 20
197.2324939682
 11
119.0186826536
 21
186.7324939682
  0
POLYLINE
  8
0
 62
7
  6
CONTINUOUS
 66
1
 70
0
  0
VERTEX
  8
0
 62
7
  6
CONTINUOUS
 10
72.2586826476
 20
189.8825761615
  0
VERTEX
  8
0
 62
7
  6
CONTINUOUS
 10
72.234160307
 20
189.9026311264
  0
VERTEX
  8
0
 62
7
  6
CONTINUOUS
 10
72.1506041481
 20
189.963909609
  0
VERTEX
  8
0
 62
7
  6
CONTINUOUS
 10
72.0012624571
 20
190.0667708268
  0
VERTEX
  8
0
 62
7
  6
CONTINUOUS
 10
71.8999335789
 20
190.1323272519
  0
VERTEX
  8
0
 62
7
  6
CONTINUOUS
 10
71.6488601124
 20
190.2784623578
  0
VERTEX
  8
0
 62
7
  6
CONTINUOUS
 10
71.3652694261
 20
190.4100206472
  0
VERTEX
  8
0
 62
7
  6
CONTINUOUS
 10
71.0859553808
 20
190.4965084536
  0
SEQEND
  0
LINE
  8
0
 62
7
  6
CONTINUOUS
 10
125.0186826536
 20
186.7324939682
 11
125.0186826536
 21
197.2324939682
  0
LINE
  8
0
 62
7
  6
CONTINUOUS
 10
131.7186826536
 20
197.2324939682
 11
131.7186826536
 21
186.7324939682
  0
LINE
  8
0
 62
7
  6
CONTINUOUS
 10
137.7186826536
 20
186.7324939682
 11
137.7186826536
 21
197.2324939682
  0
LINE
  8
0
 62
7
  6
CONTINUOUS
 10
144.4186826536
 20
197.2324939682
 11
144.4186826536
 21
186.7324939682
  0
LINE
  8
0
 62
7
  6
CONTINUOUS
 10
150.4186826536
 20
186.7324939682
 11
150.4186826536
 21
197.2324939682
  0
LINE
  8
0
 62
7
  6
CONTINUOUS
 10
157.1186826536
 20
197.2324939682
 11
157.1186826536
 21
186.7324939682
  0
LINE
  8
0
 62
7
  6
CONTINUOUS
 10
163.1186826536
 20
186.7324939682
 11
163.1186826536
 21
197.2324939682
  0
POLYLINE
  8
0
 62
7
  6
CONTINUOUS
 66
1
 70
0
  0
VERTEX
  8
0
 62
7
  6
CONTINUOUS
 10
64.8514099263
 20
190.4965084536
  0
VERTEX
  8
0
 62
7
  6
CONTINUOUS
 10
64.5720631005
 20
190.4100078173
  0
VERTEX
  8
0
 62
7
  6
CONTINUOUS
 10
64.2883794327
 20
190.2783955686
  0
VERTEX
  8
0
 62
7
  6
CONTINUOUS
 10
64.0373692569
 20
190.1322879249
  0
VERTEX
  8
0
 62
7
  6
CONTINUOUS
 10
63.9360414519
 20
190.0667300541
  0
VERTEX
  8
0
 62
7
  6
CONTINUOUS
 10
63.7867244657
 20
189.9638834015
  0
VERTEX
  8
0
 62
7
  6
CONTINUOUS
 10
63.7031924489
 20
189.9026215631
  0
VERTEX
  8
0
 62
7
  6
CONTINUOUS
 10
63.6786826594
 20
189.8825762687
  0
SEQEND
  0
POLYLINE
  8
0
 62
7
  6
CONTINUOUS
 66
1
 70
0
  0
VERTEX
  8
0
 62
7
  6
CONTINUOUS
 10
71.0859553808
 20
190.4965084536
  0
VERTEX
  8
0
 62
7
  6
CONTINUOUS
 10
71.0609251985
 20
190.5044916565
  0
VERTEX
  8
0
 62
7
  6
CONTINUOUS
 10
71.0157058951
 20
190.534733792
  0
VERTEX
  8
0
 62
7
  6
CONTINUOUS
 10
70.996834204
 20
190.5577591888
  0
VERTEX
  8
0
 62
7
  6
CONTINUOUS
 10
70.9722766296
 20
190.6195402874
  0
VERTEX
  8
0
 62
7
  6
CONTINUOUS
 10
70.9686826536
 20
190.6587530333
  0
SEQEND
  0
LINE
  8
0
 62
7
  6
CONTINUOUS
 10
169.8186826536
 20
197.2324939682
 11
169.8186826536
 21
186.7324939682
  0
LINE
  8
0
 62
7
  6
CONTINUOUS
 10
175.8186826536
 20
186.7324939682
 11
175.8186826536
 21
197.2324939682
  0
LINE
  8
0
 62
7
  6
CONTINUOUS
 10
182.5186826536
 20
197.2324939682
 11
182.5186826536
 21
186.7324939682
  0
LINE
  8
0
 62
7
  6
CONTINUOUS
 10
188.5186826536
 20
186.7324939682
 11
188.5186826536
 21
197.2324939682
  0
LINE
  8
0
 62
7
  6
CONTINUOUS
 10
42.1186826536
 20
185.9824939682
 11
341.6186826536
 21
185.9824939682
  0
LINE
  8
DEFAULT_1
 62
2
  6
CENTER
 10
39.2684901245
 20
191.9824939682
 11
344.468875289
 21
191.9824939682
  0
LINE
  8
0
 62
7
  6
CONTINUOUS
 10
195.2186826536
 20
186.7324939682
 11
195.2186826536
 21
197.2324939682
  0
LINE
  8
0
 62
7
  6
CONTINUOUS
 10
201.2186826536
 20
186.7324939682
 11
201.2186826536
 21
197.2324939682
  0
LINE
  8
0
 62
7
  6
CONTINUOUS
 10
46.2858948552
 20
197.9824939682
 11
337.4514704519
 21
197.9824939682
  0
LINE
  8
0
 62
7
  6
CONTINUOUS
 10
207.9186826536
 20
186.7324939682
 11
207.9186826536
 21
197.2324939682
  0
LINE
  8
0
 62
7
  6
CONTINUOUS
 10
213.9186826536
 20
186.7324939682
 11
213.9186826536
 21
197.2324939682
  0
LINE
  8
0
 62
7
  6
CONTINUOUS
 10
220.6186826536
 20
186.7324939682
 11
220.6186826536
 21
197.2324939682
  0
LINE
  8
0
 62
7
  6
CONTINUOUS
 10
226.6186826536
 20
186.7324939682
 11
226.6186826536
 21
197.2324939682
  0
POLYLINE
  8
0
 62
7
  6
CONTINUOUS
 66
1
 70
0
  0
VERTEX
  8
0
 62
7
  6
CONTINUOUS
 10
312.6514099263
 20
190.4965084536
  0
VERTEX
  8
0
 62
7
  6
CONTINUOUS
 10
312.3720631005
 20
190.4100078173
  0
VERTEX
  8
0
 62
7
  6
CONTINUOUS
 10
312.0883794327
 20
190.2783955686
  0
VERTEX
  8
0
 62
7
  6
CONTINUOUS
 10
311.8373692569
 20
190.1322879249
  0
VERTEX
  8
0
 62
7
  6
CONTINUOUS
 10
311.7360414519
 20
190.0667300541
  0
VERTEX
  8
0
 62
7
  6
CONTINUOUS
 10
311.5867244657
 20
189.9638834015
  0
VERTEX
  8
0
 62
7
  6
CONTINUOUS
 10
311.5031924489
 20
189.9026215631
  0
VERTEX
  8
0
 62
7
  6
CONTINUOUS
 10
311.4786826594
 20
189.8825762687
  0
SEQEND
  0
LINE
  8
0
 62
7
  6
CONTINUOUS
 10
42.0847056294
 20
197.0094760556
 11
46.251917831
 21
197.9785951723
  0
LINE
  8
0
 62
7
  6
CONTINUOUS
 10
337.4854474761
 20
197.9785951723
 11
341.6526596778
 21
197.0094760556
  0
POLYLINE
  8
0
 62
7
  6
CONTINUOUS
 66
1
 70
0
  0
VERTEX
  8
0
 62
7
  6
CONTINUOUS
 10
318.8859553808
 20
190.4965084536
  0
VERTEX
  8
0
 62
7
  6
CONTINUOUS
 10
318.8609251985
 20
190.5044916565
  0
VERTEX
  8
0
 62
7
  6
CONTINUOUS
 10
318.8157058951
 20
190.534733792
  0
VERTEX
  8
0
 62
7
  6
CONTINUOUS
 10
318.796834204
 20
190.5577591888
  0
VERTEX
  8
0
 62
7
  6
CONTINUOUS
 10
318.7722766296
 20
190.6195402874
  0
VERTEX
  8
0
 62
7
  6
CONTINUOUS
 10
318.7686826536
 20
190.6587530333
  0
SEQEND
  0
LINE
  8
0
 62
7
  6
CONTINUOUS
 10
233.3186826536
 20
186.7324939682
 11
233.3186826536
 21
197.2324939682
  0
LINE
  8
0
 62
7
  6
CONTINUOUS
 10
239.3186826536
 20
186.7324939682
 11
239.3186826536
 21
197.2324939682
  0
LINE
  8
0
 62
7
  6
CONTINUOUS
 10
246.0186826536
 20
186.7324939682
 11
246.0186826536
 21
197.2324939682
  0
LINE
  8
0
 62
7
  6
CONTINUOUS
 10
252.0186826536
 20
186.7324939682
 11
252.0186826536
 21
197.2324939682
  0
LINE
  8
0
 62
7
  6
CONTINUOUS
 10
258.7186826536
 20
186.7324939682
 11
258.7186826536
 21
197.2324939682
  0
LINE
  8
0
 62
7
  6
CONTINUOUS
 10
264.7186826536
 20
186.7324939682
 11
264.7186826536
 21
197.2324939682
  0
LINE
  8
0
 62
7
  6
CONTINUOUS
 10
271.4186826536
 20
186.7324939682
 11
271.4186826536
 21
197.2324939682
  0
POLYLINE
  8
0
 62
7
  6
CONTINUOUS
 66
1
 70
0
  0
VERTEX
  8
0
 62
7
  6
CONTINUOUS
 10
320.0586826476
 20
189.8825761615
  0
VERTEX
  8
0
 62
7
  6
CONTINUOUS
 10
320.034160307
 20
189.9026311264
  0
VERTEX
  8
0
 62
7
  6
CONTINUOUS
 10
319.9506041481
 20
189.963909609
  0
VERTEX
  8
0
 62
7
  6
CONTINUOUS
 10
319.8012624571
 20
190.0667708268
  0
VERTEX
  8
0
 62
7
  6
CONTINUOUS
 10
319.6999335789
 20
190.1323272519
  0
VERTEX
  8
0
 62
7
  6
CONTINUOUS
 10
319.4488601124
 20
190.2784623578
  0
VERTEX
  8
0
 62
7
  6
CONTINUOUS
 10
319.1652694261
 20
190.4100206472
  0
VERTEX
  8
0
 62
7
  6
CONTINUOUS
 10
318.8859553808
 20
190.4965084536
  0
SEQEND
  0
LINE
  8
0
 62
7
  6
CONTINUOUS
 10
277.4186826536
 20
186.7324939682
 11
277.4186826536
 21
197.2324939682
  0
LINE
  8
0
 62
7
  6
CONTINUOUS
 10
284.5186826536
 20
197.2324939682
 11
284.5186826536
 21
186.7324939682
  0
LINE
  8
0
 62
7
  6
CONTINUOUS
 10
290.5186826536
 20
186.7324939682
 11
290.5186826536
 21
197.2324939682
  0
LINE
  8
0
 62
7
  6
CONTINUOUS
 10
298.2686826536
 20
186.7324939682
 11
298.2686826536
 21
197.2324939682
  0
LINE
  8
0
 62
7
  6
CONTINUOUS
 10
304.2686826536
 20
186.7324939682
 11
304.2686826536
 21
197.2324939682
  0
LINE
  8
0
 62
7
  6
CONTINUOUS
 10
311.4786826536
 20
189.8831822503
 11
311.4786826536
 21
186.1324939682
  0
LINE
  8
0
 62
7
  6
CONTINUOUS
 10
312.7686826536
 20
186.9952772097
 11
312.7686826536
 21
197.2324939682
  0
POLYLINE
  8
0
 62
7
  6
CONTINUOUS
 66
1
 70
0
  0
VERTEX
  8
0
 62
7
  6
CONTINUOUS
 10
312.7686826536
 20
190.6587530333
  0
VERTEX
  8
0
 62
7
  6
CONTINUOUS
 10
312.765054126
 20
190.6193590881
  0
VERTEX
  8
0
 62
7
  6
CONTINUOUS
 10
312.7405109565
 20
190.5577288107
  0
VERTEX
  8
0
 62
7
  6
CONTINUOUS
 10
312.7216485775
 20
190.5347230449
  0
VERTEX
  8
0
 62
7
  6
CONTINUOUS
 10
312.6764744466
 20
190.5045061221
  0
VERTEX
  8
0
 62
7
  6
CONTINUOUS
 10
312.6514099263
 20
190.4965084536
  0
SEQEND
  0
LINE
  8
0
 62
7
  6
CONTINUOUS
 10
318.7686826536
 20
186.9952772097
 11
318.7686826536
 21
197.2324939682
  0
LINE
  8
0
 62
7
  6
CONTINUOUS
 10
320.0586826536
 20
189.8831823837
 11
320.0586826536
 21
186.1324939682
  0
LINE
  8
0
 62
7
  6
CONTINUOUS
 10
328.3936826536
 20
186.7324939682
 11
328.3936826536
 21
197.2324939682
  0
LINE
  8
0
 62
7
  6
CONTINUOUS
 10
334.3936826536
 20
186.7324939682
 11
334.3936826536
 21
197.2324939682
  0
LINE
  8
0
 62
7
  6
CONTINUOUS
 10
341.7686826536
 20
196.8633748516
 11
341.7686826536
 21
186.1324939682
  0
POLYLINE
  8
0
 62
7
  6
CONTINUOUS
 66
1
 70
0
  0
VERTEX
  8
0
 62
7
  6
CONTINUOUS
 10
334.3936826536
 20
192.9728027126
  0
VERTEX
  8
0
 62
7
  6
CONTINUOUS
 10
334.413613961
 20
192.9142612968
  0
VERTEX
  8
0
 62
7
  6
CONTINUOUS
 10
334.5022404256
 20
192.5035813384
  0
VERTEX
  8
0
 62
7
  6
CONTINUOUS
 10
334.540710835
 20
192.0871115371
  0
VERTEX
  8
0
 62
7
  6
CONTINUOUS
 10
334.5407370862
 20
191.8787308803
  0
VERTEX
  8
0
 62
7
  6
CONTINUOUS
 10
334.5023672931
 20
191.4622306127
  0
VERTEX
  8
0
 62
7
  6
CONTINUOUS
 10
334.4138451492
 20
191.0515575651
  0
VERTEX
  8
0
 62
7
  6
CONTINUOUS
 10
334.3936826536
 20
190.9922954528
  0
SEQEND
  0
LINE
  8
0
 62
7
  6
CONTINUOUS
 10
41.9686826536
 20
142.8058407955
 11
41.9686826536
 21
131.3659896971
  0
LINE
  8
0
 62
7
  6
CONTINUOUS
 10
47.2186826536
 20
133.7153670824
 11
47.2186826536
 21
144.3603359517
  0
LINE
  8
0
 62
7
  6
CONTINUOUS
 10
49.3436826536
 20
111.766598146
 11
49.3436826536
 21
115.7469012386
  0
LINE
  8
0
 62
7
  6
CONTINUOUS
 10
50.0936826536
 20
122.1068636998
 11
50.0936826536
 21
118.8269198952
  0
LINE
  8
0
 62
7
  6
CONTINUOUS
 10
54.5936826536
 20
118.8269198952
 11
54.5936826536
 21
123.5153670824
  0
LINE
  8
0
 62
7
  6
CONTINUOUS
 10
55.3436826536
 20
111.766598146
 11
55.3436826536
 21
115.7469012386
  0
LINE
  8
0
 62
7
  6
CONTINUOUS
 10
57.4686826536
 20
144.1153670824
 11
57.4686826536
 21
139.8838329263
  0
LINE
  8
0
 62
7
  6
CONTINUOUS
 10
58.2186826536
 20
136.8038142696
 11
58.2186826536
 21
132.5653670824
  0
LINE
  8
0
 62
7
  6
CONTINUOUS
 10
50.0936826536
 20
118.8269198952
 11
50.0787539036
 21
118.7056520827
  0
LINE
  8
0
 62
7
  6
CONTINUOUS
 10
50.0787539036
 20
118.7056520827
 11
49.3481612785
 21
115.7832815823
  0
LINE
  8
0
 62
7
  6
CONTINUOUS
 10
55.3392040286
 20
115.7832815823
 11
54.6086114035
 21
118.7056520827
  0
LINE
  8
0
 62
7
  6
CONTINUOUS
 10
54.6086114035
 20
118.7056520827
 11
54.5936826536
 21
118.8269198952
  0
LINE
  8
0
 62
7
  6
CONTINUOUS
 10
58.2037539036
 20
136.9250820821
 11
58.2186826536
 21
136.8038142696
  0
LINE
  8
0
 62
7
  6
CONTINUOUS
 10
62.7186826536
 20
132.6653670824
 11
62.7186826536
 21
136.8038142696
  0
LINE
  8
0
 62
7
  6
CONTINUOUS
 10
63.4686826536
 20
139.8838329263
 11
63.4686826536
 21
144.1153670824
  0
LINE
  8
0
 62
7
  6
CONTINUOUS
 10
64.9686826536
 20
111.794901997
 11
64.9686826536
 21
115.7469012386
  0
LINE
  8
0
 62
7
  6
CONTINUOUS
 10
65.7186826536
 20
124.5153670824
 11
65.7186826536
 21
118.8269198952
  0
LINE
  8
0
 62
7
  6
CONTINUOUS
 10
70.2186826536
 20
118.8269198952
 11
70.2186826536
 21
124.6653670824
  0
LINE
  8
0
 62
7
  6
CONTINUOUS
 10
70.9686826536
 20
111.794901997
 11
70.9686826536
 21
115.7469012386
  0
LINE
  8
0
 62
7
  6
CONTINUOUS
 10
62.7186826536
 20
136.8038142696
 11
62.7336114035
 21
136.9250820821
  0
LINE
  8
0
 62
7
  6
CONTINUOUS
 10
65.7186826536
 20
118.8269198952
 11
65.7037539036
 21
118.7056520827
  0
LINE
  8
0
 62
7
  6
CONTINUOUS
 10
62.7336114035
 20
136.9250820821
 11
63.4642040286
 21
139.8474525825
  0
LINE
  8
0
 62
7
  6
CONTINUOUS
 10
58.2037539036
 20
136.9250820821
 11
57.4731612785
 21
139.8474525825
  0
LINE
  8
0
 62
7
  6
CONTINUOUS
 10
70.9642040286
 20
115.7832815823
 11
70.2336114035
 21
118.7056520827
  0
LINE
  8
0
 62
7
  6
CONTINUOUS
 10
70.2336114035
 20
118.7056520827
 11
70.2186826536
 21
118.8269198952
  0
LINE
  8
0
 62
7
  6
CONTINUOUS
 10
72.4686826536
 20
144.1153670824
 11
72.4686826536
 21
139.8838329263
  0
LINE
  8
0
 62
7
  6
CONTINUOUS
 10
73.2186826536
 20
136.8038142696
 11
73.2186826536
 21
132.6653670824
  0
LINE
  8
0
 62
7
  6
CONTINUOUS
 10
77.7186826536
 20
132.1653670824
 11
77.7186826536
 21
136.8038142696
  0
LINE
  8
0
 62
7
  6
CONTINUOUS
 10
78.4686826536
 20
139.8838329263
 11
78.4686826536
 21
144.1153670824
  0
LINE
  8
0
 62
7
  6
CONTINUOUS
 10
79.4686826536
 20
111.794901997
 11
79.4686826536
 21
115.7469012386
  0
LINE
  8
0
 62
7
  6
CONTINUOUS
 10
80.2186826536
 20
124.6653670824
 11
80.2186826536
 21
118.8269198952
  0
LINE
  8
0
 62
7
  6
CONTINUOUS
 10
77.7186826536
 20
136.8038142696
 11
77.7336114035
 21
136.9250820821
  0
LINE
  8
0
 62
7
  6
CONTINUOUS
 10
64.9731612785
 20
115.7832815823
 11
65.7037539036
 21
118.7056520827
  0
LINE
  8
0
 62
7
  6
CONTINUOUS
 10
77.7336114035
 20
136.9250820821
 11
78.4642040286
 21
139.8474525825
  0
LINE
  8
0
 62
7
  6
CONTINUOUS
 10
46.6013478508
 20
132.8422540121
 11
47.1886826536
 21
133.6253670824
  0
LINE
  8
0
 62
7
  6
CONTINUOUS
 10
73.2037539036
 20
136.9250820821
 11
72.4731612785
 21
139.8474525825
  0
LINE
  8
0
 62
7
  6
CONTINUOUS
 10
73.2037539036
 20
136.9250820821
 11
73.2186826536
 21
136.8038142696
  0
LINE
  8
0
 62
7
  6
CONTINUOUS
 10
84.7186826536
 20
118.8269198952
 11
84.7186826536
 21
124.6653670824
  0
LINE
  8
0
 62
7
  6
CONTINUOUS
 10
85.4686826536
 20
111.794901997
 11
85.4686826536
 21
115.7469012386
  0
LINE
  8
0
 62
7
  6
CONTINUOUS
 10
86.4686826536
 20
144.1153670824
 11
86.4686826536
 21
139.8838329263
  0
LINE
  8
0
 62
7
  6
CONTINUOUS
 10
87.2186826536
 20
136.8038142696
 11
87.2186826536
 21
132.1653670824
  0
LINE
  8
0
 62
7
  6
CONTINUOUS
 10
91.7186826536
 20
132.1653670824
 11
91.7186826536
 21
136.8038142696
  0
LINE
  8
0
 62
7
  6
CONTINUOUS
 10
80.2186826536
 20
118.8269198952
 11
80.2037539036
 21
118.7056520827
  0
LINE
  8
0
 62
7
  6
CONTINUOUS
 10
91.7186826536
 20
136.8038142696
 11
91.7336114035
 21
136.9250820821
  0
LINE
  8
0
 62
7
  6
CONTINUOUS
 10
80.2037539036
 20
118.7056520827
 11
79.4731612785
 21
115.7832815823
  0
LINE
  8
0
 62
7
  6
CONTINUOUS
 10
85.4642040286
 20
115.7832815823
 11
84.7336114035
 21
118.7056520827
  0
LINE
  8
0
 62
7
  6
CONTINUOUS
 10
87.2037539036
 20
136.9250820821
 11
86.4731612785
 21
139.8474525825
  0
LINE
  8
0
 62
7
  6
CONTINUOUS
 10
84.7336114035
 20
118.7056520827
 11
84.7186826536
 21
118.8269198952
  0
LINE
  8
0
 62
7
  6
CONTINUOUS
 10
87.2037539036
 20
136.9250820821
 11
87.2186826536
 21
136.8038142696
  0
LINE
  8
0
 62
7
  6
CONTINUOUS
 10
92.4686826536
 20
139.8838329263
 11
92.4686826536
 21
144.1153670824
  0
LINE
  8
0
 62
7
  6
CONTINUOUS
 10
93.2186826536
 20
115.7469012386
 11
93.2186826536
 21
111.794901997
  0
LINE
  8
0
 62
7
  6
CONTINUOUS
 10
93.9686826536
 20
124.6653670824
 11
93.9686826536
 21
118.8269198952
  0
LINE
  8
0
 62
7
  6
CONTINUOUS
 10
98.4686826536
 20
118.8269198952
 11
98.4686826536
 21
124.631377571
  0
LINE
  8
0
 62
7
  6
CONTINUOUS
 10
99.2186826536
 20
111.794901997
 11
99.2186826536
 21
115.7469012386
  0
LINE
  8
0
 62
7
  6
CONTINUOUS
 10
99.9686826536
 20
139.8838329263
 11
99.9686826536
 21
144.1153670824
  0
LINE
  8
0
 62
7
  6
CONTINUOUS
 10
100.7186826536
 20
136.8038142696
 11
100.7186826536
 21
132.1653670824
  0
LINE
  8
0
 62
7
  6
CONTINUOUS
 10
93.9686826536
 20
118.8269198952
 11
93.9537539036
 21
118.7056520827
  0
LINE
  8
0
 62
7
  6
CONTINUOUS
 10
91.7336114035
 20
136.9250820821
 11
92.4642040286
 21
139.8474525825
  0
LINE
  8
0
 62
7
  6
CONTINUOUS
 10
93.9537539036
 20
118.7056520827
 11
93.2231612785
 21
115.7832815823
  0
LINE
  8
0
 62
7
  6
CONTINUOUS
 10
49.5581127395
 20
111.3561721372
 11
49.5656037911
 21
111.3510350117
  0
LINE
  8
0
 62
7
  6
CONTINUOUS
 10
99.2142040286
 20
115.7832815823
 11
98.4836114035
 21
118.7056520827
  0
LINE
  8
0
 62
7
  6
CONTINUOUS
 10
98.4836114035
 20
118.7056520827
 11
98.4686826536
 21
118.8269198952
  0
LINE
  8
0
 62
7
  6
CONTINUOUS
 10
100.7037539036
 20
136.9250820821
 11
100.7186826536
 21
136.8038142696
  0
LINE
  8
0
 62
7
  6
CONTINUOUS
 10
107.0258861043
 20
125.5428475787
 11
107.0686826536
 21
125.1313728491
  0
LINE
  8
0
 62
7
  6
CONTINUOUS
 10
105.2186826536
 20
132.6153670824
 11
105.2186826536
 21
136.8038142696
  0
LINE
  8
0
 62
7
  6
CONTINUOUS
 10
105.9686826536
 20
139.8838329263
 11
105.9686826536
 21
144.1153670824
  0
LINE
  8
0
 62
7
  6
CONTINUOUS
 10
106.3186826536
 20
115.7469012386
 11
106.3186826536
 21
112.3306351507
  0
LINE
  8
0
 62
7
  6
CONTINUOUS
 10
107.0686826536
 20
125.131377571
 11
107.0686826536
 21
118.8269198952
  0
LINE
  8
0
 62
7
  6
CONTINUOUS
 10
111.5686826536
 20
118.8269198952
 11
111.5686826536
 21
125.131377571
  0
LINE
  8
0
 62
7
  6
CONTINUOUS
 10
112.3186826536
 20
112.3306351507
 11
112.3186826536
 21
115.7469012386
  0
LINE
  8
0
 62
7
  6
CONTINUOUS
 10
105.2186826536
 20
136.8038142696
 11
105.2336114035
 21
136.9250820821
  0
LINE
  8
0
 62
7
  6
CONTINUOUS
 10
107.0686826536
 20
118.8269198952
 11
107.0537539036
 21
118.7056520827
  0
LINE
  8
0
 62
7
  6
CONTINUOUS
 10
105.2336114035
 20
136.9250820821
 11
105.9642040286
 21
139.8474525825
  0
LINE
  8
0
 62
7
  6
CONTINUOUS
 10
65.2182674235
 20
111.3621294897
 11
65.2248914522
 21
111.3583399932
  0
LINE
  8
0
 62
7
  6
CONTINUOUS
 10
100.7037539036
 20
136.9250820821
 11
99.9731612785
 21
139.8474525825
  0
LINE
  8
0
 62
7
  6
CONTINUOUS
 10
112.3142040286
 20
115.7832815823
 11
111.5836114035
 21
118.7056520827
  0
LINE
  8
0
 62
7
  6
CONTINUOUS
 10
111.5836114035
 20
118.7056520827
 11
111.5686826536
 21
118.8269198952
  0
LINE
  8
0
 62
7
  6
CONTINUOUS
 10
119.7258881725
 20
125.542837743
 11
119.7686826536
 21
125.1313728497
  0
LINE
  8
0
 62
7
  6
CONTINUOUS
 10
112.6686826536
 20
139.8838329263
 11
112.6686826536
 21
144.1153670824
  0
LINE
  8
0
 62
7
  6
CONTINUOUS
 10
113.4186826536
 20
136.8038142696
 11
113.4186826536
 21
132.6153670824
  0
LINE
  8
0
 62
7
  6
CONTINUOUS
 10
117.9186826536
 20
132.6153670824
 11
117.9186826536
 21
136.8038142696
  0
LINE
  8
0
 62
7
  6
CONTINUOUS
 10
118.6686826536
 20
139.8838329263
 11
118.6686826536
 21
144.1153670824
  0
LINE
  8
0
 62
7
  6
CONTINUOUS
 10
119.0186826536
 20
115.7469012386
 11
119.0186826536
 21
112.3306351507
  0
LINE
  8
0
 62
7
  6
CONTINUOUS
 10
119.7686826536
 20
125.131377571
 11
119.7686826536
 21
118.8269198952
  0
POLYLINE
  8
0
 62
7
  6
CONTINUOUS
 66
1
 70
0
  0
VERTEX
  8
0
 62
7
  6
CONTINUOUS
 10
111.5686826536
 20
125.1313725394
  0
VERTEX
  8
0
 62
7
  6
CONTINUOUS
 10
111.6108502024
 20
125.5398449025
  0
VERTEX
  8
0
 62
7
  6
CONTINUOUS
 10
111.7534994009
 20
125.9710111975
  0
VERTEX
  8
0
 62
7
  6
CONTINUOUS
 10
111.9898786634
 20
126.3590675347
  0
VERTEX
  8
0
 62
7
  6
CONTINUOUS
 10
112.307736231
 20
126.6837600246
  0
VERTEX
  8
0
 62
7
  6
CONTINUOUS
 10
112.6905730464
 20
126.9282816144
  0
VERTEX
  8
0
 62
7
  6
CONTINUOUS
 10
113.11832714
 20
127.0800101168
  0
SEQEND
  0
LINE
  8
0
 62
7
  6
CONTINUOUS
 10
117.9186826536
 20
136.8038142696
 11
117.9336114035
 21
136.9250820821
  0
LINE
  8
0
 62
7
  6
CONTINUOUS
 10
119.7686826536
 20
118.8269198952
 11
119.7537539036
 21
118.7056520827
  0
LINE
  8
0
 62
7
  6
CONTINUOUS
 10
107.0537539036
 20
118.7056520827
 11
106.3231612785
 21
115.7832815823
  0
LINE
  8
0
 62
7
  6
CONTINUOUS
 10
117.9336114035
 20
136.9250820821
 11
118.6642040286
 21
139.8474525825
  0
LINE
  8
0
 62
7
  6
CONTINUOUS
 10
79.7182674237
 20
111.3621294896
 11
79.7248914522
 21
111.3583399932
  0
LINE
  8
0
 62
7
  6
CONTINUOUS
 10
106.4584339001
 20
111.983752801
 11
106.4653752543
 21
111.9763606568
  0
LINE
  8
0
 62
7
  6
CONTINUOUS
 10
106.4509937357
 20
111.9917923222
 11
106.4655891505
 21
111.9761329461
  0
LINE
  8
0
 62
7
  6
CONTINUOUS
 10
106.4506147361
 20
111.992206277
 11
106.4535233129
 21
111.9890402363
  0
POLYLINE
  8
0
 62
7
  6
CONTINUOUS
 66
1
 70
0
  0
VERTEX
  8
0
 62
7
  6
CONTINUOUS
 10
106.4463281687
 20
111.9969404423
  0
VERTEX
  8
0
 62
7
  6
CONTINUOUS
 10
106.4474940641
 20
111.9956431783
  0
VERTEX
  8
0
 62
7
  6
CONTINUOUS
 10
106.4506147361
 20
111.992206277
  0
SEQEND
  0
LINE
  8
0
 62
7
  6
CONTINUOUS
 10
113.4037539036
 20
136.9250820821
 11
112.6731612785
 21
139.8474525825
  0
LINE
  8
0
 62
7
  6
CONTINUOUS
 10
113.4037539036
 20
136.9250820821
 11
113.4186826536
 21
136.8038142696
  0
LINE
  8
0
 62
7
  6
CONTINUOUS
 10
132.425887667
 20
125.5428401468
 11
132.4686826536
 21
125.1313728496
  0
LINE
  8
0
 62
7
  6
CONTINUOUS
 10
124.2686826536
 20
118.8269198952
 11
124.2686826536
 21
125.131377571
  0
LINE
  8
0
 62
7
  6
CONTINUOUS
 10
125.0186826536
 20
112.3306351507
 11
125.0186826536
 21
115.7469012386
  0
LINE
  8
0
 62
7
  6
CONTINUOUS
 10
125.3686826536
 20
139.8838329263
 11
125.3686826536
 21
144.1153670824
  0
LINE
  8
0
 62
7
  6
CONTINUOUS
 10
126.1186826536
 20
136.8038142696
 11
126.1186826536
 21
132.6153670824
  0
LINE
  8
0
 62
7
  6
CONTINUOUS
 10
130.6186826536
 20
132.6153670824
 11
130.6186826536
 21
136.8038142696
  0
LINE
  8
0
 62
7
  6
CONTINUOUS
 10
131.3686826536
 20
139.8838329263
 11
131.3686826536
 21
144.1153670824
  0
LINE
  8
0
 62
7
  6
CONTINUOUS
 10
131.7186826536
 20
115.7469012386
 11
131.7186826536
 21
112.3306351507
  0
LINE
  8
0
 62
7
  6
CONTINUOUS
 10
132.4686826536
 20
125.131377571
 11
132.4686826536
 21
118.8269198952
  0
POLYLINE
  8
0
 62
7
  6
CONTINUOUS
 66
1
 70
0
  0
VERTEX
  8
0
 62
7
  6
CONTINUOUS
 10
124.2686826536
 20
125.1313725407
  0
VERTEX
  8
0
 62
7
  6
CONTINUOUS
 10
124.310846301
 20
125.5398262067
  0
VERTEX
  8
0
 62
7
  6
CONTINUOUS
 10
124.4534851655
 20
125.9709804244
  0
VERTEX
  8
0
 62
7
  6
CONTINUOUS
 10
124.6898480093
 20
126.3590281125
  0
VERTEX
  8
0
 62
7
  6
CONTINUOUS
 10
125.0076801683
 20
126.6837144823
  0
VERTEX
  8
0
 62
7
  6
CONTINUOUS
 10
125.3904917392
 20
126.9282418755
  0
VERTEX
  8
0
 62
7
  6
CONTINUOUS
 10
125.8182515548
 20
127.0799926452
  0
SEQEND
  0
LINE
  8
0
 62
7
  6
CONTINUOUS
 10
130.6186826536
 20
136.8038142696
 11
130.6336114035
 21
136.9250820821
  0
LINE
  8
0
 62
7
  6
CONTINUOUS
 10
119.7537539036
 20
118.7056520827
 11
119.0231612785
 21
115.7832815823
  0
LINE
  8
0
 62
7
  6
CONTINUOUS
 10
130.6336114035
 20
136.9250820821
 11
131.3642040286
 21
139.8474525825
  0
LINE
  8
0
 62
7
  6
CONTINUOUS
 10
55.1217402
 20
111.3510203689
 11
55.1294127509
 21
111.3562836733
  0
LINE
  8
0
 62
7
  6
CONTINUOUS
 10
93.4682674237
 20
111.3621294896
 11
93.4748914522
 21
111.3583399932
  0
LINE
  8
0
 62
7
  6
CONTINUOUS
 10
119.1584338992
 20
111.983752802
 11
119.1653752542
 21
111.9763606568
  0
LINE
  8
0
 62
7
  6
CONTINUOUS
 10
119.1509937339
 20
111.9917923241
 11
119.1655891505
 21
111.976132946
  0
LINE
  8
0
 62
7
  6
CONTINUOUS
 10
119.1506147354
 20
111.9922062779
 11
119.1535233121
 21
111.9890402372
  0
POLYLINE
  8
0
 62
7
  6
CONTINUOUS
 66
1
 70
0
  0
VERTEX
  8
0
 62
7
  6
CONTINUOUS
 10
119.1463281682
 20
111.9969404429
  0
VERTEX
  8
0
 62
7
  6
CONTINUOUS
 10
119.1474940634
 20
111.9956431791
  0
VERTEX
  8
0
 62
7
  6
CONTINUOUS
 10
119.1506147354
 20
111.9922062779
  0
SEQEND
  0
LINE
  8
0
 62
7
  6
CONTINUOUS
 10
125.0142040286
 20
115.7832815823
 11
124.2836114035
 21
118.7056520827
  0
LINE
  8
0
 62
7
  6
CONTINUOUS
 10
126.1037539036
 20
136.9250820821
 11
125.3731612785
 21
139.8474525825
  0
LINE
  8
0
 62
7
  6
CONTINUOUS
 10
124.2836114035
 20
118.7056520827
 11
124.2686826536
 21
118.8269198952
  0
LINE
  8
0
 62
7
  6
CONTINUOUS
 10
126.1037539036
 20
136.9250820821
 11
126.1186826536
 21
136.8038142696
  0
LINE
  8
0
 62
7
  6
CONTINUOUS
 10
136.9686826536
 20
118.8269198952
 11
136.9686826536
 21
125.131377571
  0
LINE
  8
0
 62
7
  6
CONTINUOUS
 10
137.7186826536
 20
112.3306351507
 11
137.7186826536
 21
115.7469012386
  0
LINE
  8
0
 62
7
  6
CONTINUOUS
 10
138.0686826536
 20
139.8838329263
 11
138.0686826536
 21
144.1153670824
  0
LINE
  8
0
 62
7
  6
CONTINUOUS
 10
138.8186826536
 20
136.8038142696
 11
138.8186826536
 21
132.6153670824
  0
POLYLINE
  8
0
 62
7
  6
CONTINUOUS
 66
1
 70
0
  0
VERTEX
  8
0
 62
7
  6
CONTINUOUS
 10
136.9686826536
 20
125.1313725402
  0
VERTEX
  8
0
 62
7
  6
CONTINUOUS
 10
137.010847938
 20
125.5398340513
  0
VERTEX
  8
0
 62
7
  6
CONTINUOUS
 10
137.1534911386
 20
125.9709933369
  0
VERTEX
  8
0
 62
7
  6
CONTINUOUS
 10
137.3898608718
 20
126.3590446543
  0
VERTEX
  8
0
 62
7
  6
CONTINUOUS
 10
137.7077036915
 20
126.6837335916
  0
VERTEX
  8
0
 62
7
  6
CONTINUOUS
 10
138.0905258554
 20
126.9282585503
  0
VERTEX
  8
0
 62
7
  6
CONTINUOUS
 10
138.5182832914
 20
127.0799999815
  0
SEQEND
  0
LINE
  8
0
 62
7
  6
CONTINUOUS
 10
132.4686826536
 20
118.8269198952
 11
132.4537539036
 21
118.7056520827
  0
LINE
  8
0
 62
7
  6
CONTINUOUS
 10
132.4537539036
 20
118.7056520827
 11
131.7231612785
 21
115.7832815823
  0
LINE
  8
0
 62
7
  6
CONTINUOUS
 10
55.1217091397
 20
111.3510074284
 11
55.1251042854
 21
111.3533163231
  0
LINE
  8
0
 62
7
  6
CONTINUOUS
 10
46.1458035135
 20
127.7450194245
 11
43.9426222236
 21
128.5469118347
  0
LINE
  8
0
 62
7
  6
CONTINUOUS
 10
131.8584338991
 20
111.9837528021
 11
131.8653752542
 21
111.9763606568
  0
LINE
  8
0
 62
7
  6
CONTINUOUS
 10
131.8509937332
 20
111.9917923249
 11
131.8655891506
 21
111.976132946
  0
LINE
  8
0
 62
7
  6
CONTINUOUS
 10
131.8506147353
 20
111.992206278
 11
131.853523312
 21
111.9890402373
  0
POLYLINE
  8
0
 62
7
  6
CONTINUOUS
 66
1
 70
0
  0
VERTEX
  8
0
 62
7
  6
CONTINUOUS
 10
131.8463281681
 20
111.9969404429
  0
VERTEX
  8
0
 62
7
  6
CONTINUOUS
 10
131.8474940633
 20
111.9956431792
  0
VERTEX
  8
0
 62
7
  6
CONTINUOUS
 10
131.8506147353
 20
111.992206278
  0
SEQEND
  0
LINE
  8
0
 62
7
  6
CONTINUOUS
 10
137.7142040286
 20
115.7832815823
 11
136.9836114035
 21
118.7056520827
  0
LINE
  8
0
 62
7
  6
CONTINUOUS
 10
138.8037539036
 20
136.9250820821
 11
138.0731612785
 21
139.8474525825
  0
LINE
  8
0
 62
7
  6
CONTINUOUS
 10
136.9836114035
 20
118.7056520827
 11
136.9686826536
 21
118.8269198952
  0
LINE
  8
0
 62
7
  6
CONTINUOUS
 10
138.8037539036
 20
136.9250820821
 11
138.8186826536
 21
136.8038142696
  0
LINE
  8
0
 62
7
  6
CONTINUOUS
 10
145.1258899467
 20
125.5428293055
 11
145.1686826536
 21
125.1313728503
  0
LINE
  8
0
 62
7
  6
CONTINUOUS
 10
143.3186826536
 20
132.6153670824
 11
143.3186826536
 21
136.8038142696
  0
LINE
  8
0
 62
7
  6
CONTINUOUS
 10
144.0686826536
 20
139.8838329263
 11
144.0686826536
 21
144.1153670824
  0
LINE
  8
0
 62
7
  6
CONTINUOUS
 10
144.4186826536
 20
115.7469012386
 11
144.4186826536
 21
112.3306351507
  0
LINE
  8
0
 62
7
  6
CONTINUOUS
 10
145.1686826536
 20
125.131377571
 11
145.1686826536
 21
118.8269198952
  0
LINE
  8
0
 62
7
  6
CONTINUOUS
 10
149.6686826536
 20
118.8269198952
 11
149.6686826536
 21
125.131377571
  0
LINE
  8
0
 62
7
  6
CONTINUOUS
 10
150.4186826536
 20
112.3306351507
 11
150.4186826536
 21
115.7469012386
  0
LINE
  8
0
 62
7
  6
CONTINUOUS
 10
150.7686826536
 20
139.8838329263
 11
150.7686826536
 21
144.1153670824
  0
LINE
  8
0
 62
7
  6
CONTINUOUS
 10
151.5186826536
 20
136.8038142696
 11
151.5186826536
 21
132.6153670824
  0
POLYLINE
  8
0
 62
7
  6
CONTINUOUS
 66
1
 70
0
  0
VERTEX
  8
0
 62
7
  6
CONTINUOUS
 10
149.6686826536
 20
125.1313725411
  0
VERTEX
  8
0
 62
7
  6
CONTINUOUS
 10
149.7108449603
 20
125.5398197818
  0
VERTEX
  8
0
 62
7
  6
CONTINUOUS
 10
149.853480273
 20
125.9709698478
  0
VERTEX
  8
0
 62
7
  6
CONTINUOUS
 10
150.0898374739
 20
126.3590145632
  0
VERTEX
  8
0
 62
7
  6
CONTINUOUS
 10
150.4076609019
 20
126.6836988305
  0
VERTEX
  8
0
 62
7
  6
CONTINUOUS
 10
150.790463796
 20
126.9282282172
  0
VERTEX
  8
0
 62
7
  6
CONTINUOUS
 10
151.2182255319
 20
127.0799866293
  0
SEQEND
  0
LINE
  8
0
 62
7
  6
CONTINUOUS
 10
143.3186826536
 20
136.8038142696
 11
143.3336114035
 21
136.9250820821
  0
LINE
  8
0
 62
7
  6
CONTINUOUS
 10
145.1686826536
 20
118.8269198952
 11
145.1537539036
 21
118.7056520827
  0
LINE
  8
0
 62
7
  6
CONTINUOUS
 10
143.3336114035
 20
136.9250820821
 11
144.0642040286
 21
139.8474525825
  0
LINE
  8
0
 62
7
  6
CONTINUOUS
 10
145.1537539036
 20
118.7056520827
 11
144.4231612785
 21
115.7832815823
  0
LINE
  8
0
 62
7
  6
CONTINUOUS
 10
112.1887562949
 20
111.9944107174
 11
112.1912017363
 21
111.9971242389
  0
LINE
  8
0
 62
7
  6
CONTINUOUS
 10
112.1859501049
 20
111.9913309674
 11
112.1892950905
 21
111.9950046453
  0
LINE
  8
0
 62
7
  6
CONTINUOUS
 10
112.181706788
 20
111.9867323572
 11
112.1859501049
 21
111.9913309674
  0
LINE
  8
0
 62
7
  6
CONTINUOUS
 10
112.1843542953
 20
111.9896303847
 11
112.1849775063
 21
111.9902999029
  0
LINE
  8
0
 62
7
  6
CONTINUOUS
 10
112.1761338896
 20
111.9807630385
 11
112.181706788
 21
111.9867323572
  0
LINE
  8
0
 62
7
  6
CONTINUOUS
 10
112.1717761566
 20
111.976132946
 11
112.1761338896
 21
111.9807630385
  0
LINE
  8
0
 62
7
  6
CONTINUOUS
 10
70.7124377734
 20
111.3583194357
 11
70.7191191221
 21
111.3621417823
  0
LINE
  8
0
 62
7
  6
CONTINUOUS
 10
144.558433899
 20
111.9837528022
 11
144.5653752543
 21
111.9763606568
  0
LINE
  8
0
 62
7
  6
CONTINUOUS
 10
157.2584338993
 20
111.9837528018
 11
157.2653752542
 21
111.9763606568
  0
LINE
  8
0
 62
7
  6
CONTINUOUS
 10
144.5509937337
 20
111.9917923244
 11
144.5655891505
 21
111.976132946
  0
LINE
  8
0
 62
7
  6
CONTINUOUS
 10
157.2509937339
 20
111.9917923242
 11
157.2655891505
 21
111.976132946
  0
LINE
  8
0
 62
7
  6
CONTINUOUS
 10
144.5506147352
 20
111.9922062781
 11
144.5535233119
 21
111.9890402374
  0
LINE
  8
0
 62
7
  6
CONTINUOUS
 10
157.2506147355
 20
111.9922062777
 11
157.2535233122
 21
111.989040237
  0
POLYLINE
  8
0
 62
7
  6
CONTINUOUS
 66
1
 70
0
  0
VERTEX
  8
0
 62
7
  6
CONTINUOUS
 10
144.546328168
 20
111.996940443
  0
VERTEX
  8
0
 62
7
  6
CONTINUOUS
 10
144.5474940632
 20
111.9956431793
  0
VERTEX
  8
0
 62
7
  6
CONTINUOUS
 10
144.5506147352
 20
111.9922062781
  0
SEQEND
  0
POLYLINE
  8
0
 62
7
  6
CONTINUOUS
 66
1
 70
0
  0
VERTEX
  8
0
 62
7
  6
CONTINUOUS
 10
157.2463281683
 20
111.9969404428
  0
VERTEX
  8
0
 62
7
  6
CONTINUOUS
 10
157.2474940635
 20
111.9956431789
  0
VERTEX
  8
0
 62
7
  6
CONTINUOUS
 10
157.2506147355
 20
111.9922062777
  0
SEQEND
  0
LINE
  8
0
 62
7
  6
CONTINUOUS
 10
150.4142040286
 20
115.7832815823
 11
149.6836114035
 21
118.7056520827
  0
LINE
  8
0
 62
7
  6
CONTINUOUS
 10
149.6836114035
 20
118.7056520827
 11
149.6686826536
 21
118.8269198952
  0
LINE
  8
0
 62
7
  6
CONTINUOUS
 10
151.5037539036
 20
136.9250820821
 11
151.5186826536
 21
136.8038142696
  0
LINE
  8
0
 62
7
  6
CONTINUOUS
 10
157.8258890151
 20
125.5428337359
 11
157.8686826536
 21
125.13137285
  0
LINE
  8
0
 62
7
  6
CONTINUOUS
 10
156.0186826536
 20
132.6153670824
 11
156.0186826536
 21
136.8038142696
  0
LINE
  8
0
 62
7
  6
CONTINUOUS
 10
156.7686826536
 20
139.8838329263
 11
156.7686826536
 21
144.1153670824
  0
LINE
  8
0
 62
7
  6
CONTINUOUS
 10
157.1186826536
 20
115.7469012386
 11
157.1186826536
 21
112.3306351507
  0
LINE
  8
0
 62
7
  6
CONTINUOUS
 10
157.8686826536
 20
125.131377571
 11
157.8686826536
 21
118.8269198952
  0
LINE
  8
0
 62
7
  6
CONTINUOUS
 10
162.3686826536
 20
118.8269198952
 11
162.3686826536
 21
125.131377571
  0
LINE
  8
0
 62
7
  6
CONTINUOUS
 10
156.0186826536
 20
136.8038142696
 11
156.0336114035
 21
136.9250820821
  0
LINE
  8
0
 62
7
  6
CONTINUOUS
 10
157.8686826536
 20
118.8269198952
 11
157.8537539036
 21
118.7056520827
  0
LINE
  8
0
 62
7
  6
CONTINUOUS
 10
156.0336114035
 20
136.9250820821
 11
156.7642040286
 21
139.8474525825
  0
LINE
  8
0
 62
7
  6
CONTINUOUS
 10
157.8537539036
 20
118.7056520827
 11
157.1231612785
 21
115.7832815823
  0
LINE
  8
0
 62
7
  6
CONTINUOUS
 10
124.8887562946
 20
111.994410717
 11
124.8912017355
 21
111.997124238
  0
LINE
  8
0
 62
7
  6
CONTINUOUS
 10
124.8859501065
 20
111.9913309692
 11
124.889295092
 21
111.995004647
  0
LINE
  8
0
 62
7
  6
CONTINUOUS
 10
124.8817067898
 20
111.9867323591
 11
124.8859501065
 21
111.9913309692
  0
LINE
  8
0
 62
7
  6
CONTINUOUS
 10
124.8843542953
 20
111.9896303847
 11
124.8849775094
 21
111.9902999063
  0
LINE
  8
0
 62
7
  6
CONTINUOUS
 10
124.8761338914
 20
111.9807630405
 11
124.8817067898
 21
111.9867323591
  0
LINE
  8
0
 62
7
  6
CONTINUOUS
 10
124.8717761566
 20
111.976132946
 11
124.8761338914
 21
111.9807630405
  0
LINE
  8
0
 62
7
  6
CONTINUOUS
 10
85.2124377735
 20
111.3583194357
 11
85.2191191219
 21
111.3621417822
  0
LINE
  8
0
 62
7
  6
CONTINUOUS
 10
47.1199856751
 20
144.5012898448
 11
45.3237330119
 21
145.1550723474
  0
LINE
  8
0
 62
7
  6
CONTINUOUS
 10
169.9584339004
 20
111.9837528007
 11
169.9653752542
 21
111.9763606568
  0
LINE
  8
0
 62
7
  6
CONTINUOUS
 10
169.950993734
 20
111.991792324
 11
169.9655891505
 21
111.976132946
  0
LINE
  8
0
 62
7
  6
CONTINUOUS
 10
169.9506147364
 20
111.9922062767
 11
169.9535233132
 21
111.989040236
  0
POLYLINE
  8
0
 62
7
  6
CONTINUOUS
 66
1
 70
0
  0
VERTEX
  8
0
 62
7
  6
CONTINUOUS
 10
169.9463281688
 20
111.9969404421
  0
VERTEX
  8
0
 62
7
  6
CONTINUOUS
 10
169.9474940643
 20
111.995643178
  0
VERTEX
  8
0
 62
7
  6
CONTINUOUS
 10
169.9506147364
 20
111.9922062767
  0
SEQEND
  0
LINE
  8
0
 62
7
  6
CONTINUOUS
 10
151.5037539036
 20
136.9250820821
 11
150.7731612785
 21
139.8474525825
  0
LINE
  8
0
 62
7
  6
CONTINUOUS
 10
163.1142040286
 20
115.7832815823
 11
162.3836114035
 21
118.7056520827
  0
LINE
  8
0
 62
7
  6
CONTINUOUS
 10
162.3836114035
 20
118.7056520827
 11
162.3686826536
 21
118.8269198952
  0
LINE
  8
0
 62
7
  6
CONTINUOUS
 10
170.5258866828
 20
125.5428448275
 11
170.5686826536
 21
125.1313728493
  0
LINE
  8
0
 62
7
  6
CONTINUOUS
 10
163.1186826536
 20
112.3306351507
 11
163.1186826536
 21
115.7469012386
  0
LINE
  8
0
 62
7
  6
CONTINUOUS
 10
163.4686826536
 20
139.8838329263
 11
163.4686826536
 21
144.1153670824
  0
LINE
  8
0
 62
7
  6
CONTINUOUS
 10
164.2186826536
 20
136.8038142696
 11
164.2186826536
 21
132.6153670824
  0
LINE
  8
0
 62
7
  6
CONTINUOUS
 10
168.7186826536
 20
132.6153670824
 11
168.7186826536
 21
136.8038142696
  0
LINE
  8
0
 62
7
  6
CONTINUOUS
 10
169.4686826536
 20
139.8838329263
 11
169.4686826536
 21
144.1153670824
  0
LINE
  8
0
 62
7
  6
CONTINUOUS
 10
169.8186826536
 20
115.7469012386
 11
169.8186826536
 21
112.3306351507
  0
LINE
  8
0
 62
7
  6
CONTINUOUS
 10
170.5686826536
 20
125.131377571
 11
170.5686826536
 21
118.8269198952
  0
POLYLINE
  8
0
 62
7
  6
CONTINUOUS
 66
1
 70
0
  0
VERTEX
  8
0
 62
7
  6
CONTINUOUS
 10
162.3686826536
 20
125.1313725404
  0
VERTEX
  8
0
 62
7
  6
CONTINUOUS
 10
162.41084723
 20
125.5398306585
  0
VERTEX
  8
0
 62
7
  6
CONTINUOUS
 10
162.5534885553
 20
125.9709877524
  0
VERTEX
  8
0
 62
7
  6
CONTINUOUS
 10
162.7898553088
 20
126.3590375001
  0
VERTEX
  8
0
 62
7
  6
CONTINUOUS
 10
163.1076935177
 20
126.6837253269
  0
VERTEX
  8
0
 62
7
  6
CONTINUOUS
 10
163.4905111002
 20
126.9282513386
  0
VERTEX
  8
0
 62
7
  6
CONTINUOUS
 10
163.9182695697
 20
127.0799968096
  0
SEQEND
  0
LINE
  8
0
 62
7
  6
CONTINUOUS
 10
168.7186826536
 20
136.8038142696
 11
168.7336114035
 21
136.9250820821
  0
LINE
  8
0
 62
7
  6
CONTINUOUS
 10
170.5686826536
 20
118.8269198952
 11
170.5537539036
 21
118.7056520827
  0
LINE
  8
0
 62
7
  6
CONTINUOUS
 10
168.7336114035
 20
136.9250820821
 11
169.4642040286
 21
139.8474525825
  0
LINE
  8
0
 62
7
  6
CONTINUOUS
 10
137.5887562946
 20
111.994410717
 11
137.5912017361
 21
111.9971242386
  0
LINE
  8
0
 62
7
  6
CONTINUOUS
 10
137.5859501048
 20
111.9913309674
 11
137.5892950904
 21
111.9950046453
  0
LINE
  8
0
 62
7
  6
CONTINUOUS
 10
137.581706788
 20
111.9867323572
 11
137.5859501048
 21
111.9913309674
  0
LINE
  8
0
 62
7
  6
CONTINUOUS
 10
137.5843542953
 20
111.9896303847
 11
137.5849775066
 21
111.9902999033
  0
LINE
  8
0
 62
7
  6
CONTINUOUS
 10
137.5761338895
 20
111.9807630385
 11
137.581706788
 21
111.9867323572
  0
LINE
  8
0
 62
7
  6
CONTINUOUS
 10
137.5717761566
 20
111.976132946
 11
137.5761338895
 21
111.9807630385
  0
LINE
  8
0
 62
7
  6
CONTINUOUS
 10
98.9624377736
 20
111.3583194357
 11
98.9691191219
 21
111.3621417822
  0
LINE
  8
0
 62
7
  6
CONTINUOUS
 10
332.2670656217
 20
110.7653670824
 11
330.5202996854
 21
110.7653670824
  0
LINE
  8
0
 62
7
  6
CONTINUOUS
 10
316.2686826536
 20
110.7653670824
 11
315.2686826536
 21
110.7653670824
  0
LINE
  8
0
 62
7
  6
CONTINUOUS
 10
301.7686826536
 20
110.7653670824
 11
300.7686826536
 21
110.7653670824
  0
LINE
  8
0
 62
7
  6
CONTINUOUS
 10
288.0186826536
 20
110.7653670824
 11
287.0186826536
 21
110.7653670824
  0
LINE
  8
0
 62
7
  6
CONTINUOUS
 10
274.4686826536
 20
110.7653670824
 11
274.3686826536
 21
110.7653670824
  0
LINE
  8
0
 62
7
  6
CONTINUOUS
 10
261.7686826536
 20
110.7653670824
 11
261.6686826536
 21
110.7653670824
  0
LINE
  8
0
 62
7
  6
CONTINUOUS
 10
249.0686826536
 20
110.7653670824
 11
248.9686826536
 21
110.7653670824
  0
LINE
  8
0
 62
7
  6
CONTINUOUS
 10
236.3686826536
 20
110.7653670824
 11
236.2686826536
 21
110.7653670824
  0
LINE
  8
0
 62
7
  6
CONTINUOUS
 10
223.6686826536
 20
110.7653670824
 11
223.5686826536
 21
110.7653670824
  0
LINE
  8
0
 62
7
  6
CONTINUOUS
 10
210.9686826536
 20
110.7653670824
 11
210.8686826536
 21
110.7653670824
  0
LINE
  8
0
 62
7
  6
CONTINUOUS
 10
198.2686826536
 20
110.7653670824
 11
198.1686826536
 21
110.7653670824
  0
LINE
  8
0
 62
7
  6
CONTINUOUS
 10
51.4702996854
 20
110.7653670824
 11
53.2170656217
 21
110.7653670824
  0
LINE
  8
0
 62
7
  6
CONTINUOUS
 10
67.4686826536
 20
110.7653670824
 11
68.4686826536
 21
110.7653670824
  0
LINE
  8
0
 62
7
  6
CONTINUOUS
 10
81.9686826536
 20
110.7653670824
 11
82.9686826536
 21
110.7653670824
  0
LINE
  8
0
 62
7
  6
CONTINUOUS
 10
95.7186826536
 20
110.7653670824
 11
96.7186826536
 21
110.7653670824
  0
LINE
  8
0
 62
7
  6
CONTINUOUS
 10
109.2686826536
 20
110.7653670824
 11
109.3686826536
 21
110.7653670824
  0
LINE
  8
0
 62
7
  6
CONTINUOUS
 10
121.9686826536
 20
110.7653670824
 11
122.0686826536
 21
110.7653670824
  0
LINE
  8
0
 62
7
  6
CONTINUOUS
 10
134.6686826536
 20
110.7653670824
 11
134.7686826536
 21
110.7653670824
  0
LINE
  8
0
 62
7
  6
CONTINUOUS
 10
147.3686826536
 20
110.7653670824
 11
147.4686826536
 21
110.7653670824
  0
LINE
  8
0
 62
7
  6
CONTINUOUS
 10
160.0686826536
 20
110.7653670824
 11
160.1686826536
 21
110.7653670824
  0
LINE
  8
0
 62
7
  6
CONTINUOUS
 10
172.7686826536
 20
110.7653670824
 11
172.8686826536
 21
110.7653670824
  0
LINE
  8
0
 62
7
  6
CONTINUOUS
 10
185.4686826536
 20
110.7653670824
 11
185.5686826536
 21
110.7653670824
  0
LINE
  8
0
 62
7
  6
CONTINUOUS
 10
182.6584338993
 20
111.9837528018
 11
182.6653752542
 21
111.9763606568
  0
LINE
  8
0
 62
7
  6
CONTINUOUS
 10
182.6509937341
 20
111.991792324
 11
182.6655891505
 21
111.976132946
  0
LINE
  8
0
 62
7
  6
CONTINUOUS
 10
182.6506147355
 20
111.9922062778
 11
182.6535233122
 21
111.9890402371
  0
POLYLINE
  8
0
 62
7
  6
CONTINUOUS
 66
1
 70
0
  0
VERTEX
  8
0
 62
7
  6
CONTINUOUS
 10
182.6463281683
 20
111.9969404428
  0
VERTEX
  8
0
 62
7
  6
CONTINUOUS
 10
182.6474940635
 20
111.995643179
  0
VERTEX
  8
0
 62
7
  6
CONTINUOUS
 10
182.6506147355
 20
111.9922062778
  0
SEQEND
  0
LINE
  8
0
 62
7
  6
CONTINUOUS
 10
164.2037539036
 20
136.9250820821
 11
163.4731612785
 21
139.8474525825
  0
LINE
  8
0
 62
7
  6
CONTINUOUS
 10
175.8142040286
 20
115.7832815823
 11
175.0836114035
 21
118.7056520827
  0
LINE
  8
0
 62
7
  6
CONTINUOUS
 10
164.2037539036
 20
136.9250820821
 11
164.2186826536
 21
136.8038142696
  0
LINE
  8
0
 62
7
  6
CONTINUOUS
 10
183.2258890217
 20
125.5428337045
 11
183.2686826536
 21
125.13137285
  0
LINE
  8
0
 62
7
  6
CONTINUOUS
 10
175.0686826536
 20
118.8269198952
 11
175.0686826536
 21
125.131377571
  0
LINE
  8
0
 62
7
  6
CONTINUOUS
 10
175.8186826536
 20
112.3306351507
 11
175.8186826536
 21
115.7469012386
  0
LINE
  8
0
 62
7
  6
CONTINUOUS
 10
176.1686826536
 20
139.8838329263
 11
176.1686826536
 21
144.1153670824
  0
LINE
  8
0
 62
7
  6
CONTINUOUS
 10
176.9186826536
 20
136.8038142696
 11
176.9186826536
 21
132.6153670824
  0
LINE
  8
0
 62
7
  6
CONTINUOUS
 10
181.4186826536
 20
132.6153670824
 11
181.4186826536
 21
136.8038142696
  0
LINE
  8
0
 62
7
  6
CONTINUOUS
 10
182.1686826536
 20
139.8838329263
 11
182.1686826536
 21
144.1153670824
  0
LINE
  8
0
 62
7
  6
CONTINUOUS
 10
182.5186826536
 20
115.7469012386
 11
182.5186826536
 21
112.3306351507
  0
POLYLINE
  8
0
 62
7
  6
CONTINUOUS
 66
1
 70
0
  0
VERTEX
  8
0
 62
7
  6
CONTINUOUS
 10
175.0686826536
 20
125.1313725404
  0
VERTEX
  8
0
 62
7
  6
CONTINUOUS
 10
175.1108471677
 20
125.5398303599
  0
VERTEX
  8
0
 62
7
  6
CONTINUOUS
 10
175.2534883279
 20
125.9709872608
  0
VERTEX
  8
0
 62
7
  6
CONTINUOUS
 10
175.4898548192
 20
126.3590368704
  0
VERTEX
  8
0
 62
7
  6
CONTINUOUS
 10
175.8076926222
 20
126.6837245994
  0
VERTEX
  8
0
 62
7
  6
CONTINUOUS
 10
176.1905098015
 20
126.9282507038
  0
VERTEX
  8
0
 62
7
  6
CONTINUOUS
 10
176.6182683616
 20
127.0799965304
  0
SEQEND
  0
LINE
  8
0
 62
7
  6
CONTINUOUS
 10
181.4186826536
 20
136.8038142696
 11
181.4336114035
 21
136.9250820821
  0
LINE
  8
0
 62
7
  6
CONTINUOUS
 10
170.5537539036
 20
118.7056520827
 11
169.8231612785
 21
115.7832815823
  0
LINE
  8
0
 62
7
  6
CONTINUOUS
 10
181.4336114035
 20
136.9250820821
 11
182.1642040286
 21
139.8474525825
  0
LINE
  8
0
 62
7
  6
CONTINUOUS
 10
150.2887562948
 20
111.9944107173
 11
150.2912017365
 21
111.9971242391
  0
LINE
  8
0
 62
7
  6
CONTINUOUS
 10
150.2859501041
 20
111.9913309666
 11
150.2892950898
 21
111.9950046445
  0
LINE
  8
0
 62
7
  6
CONTINUOUS
 10
150.2817067872
 20
111.9867323563
 11
150.2859501041
 21
111.9913309666
  0
LINE
  8
0
 62
7
  6
CONTINUOUS
 10
150.2843542953
 20
111.9896303847
 11
150.2849775034
 21
111.9902998998
  0
LINE
  8
0
 62
7
  6
CONTINUOUS
 10
150.2761338887
 20
111.9807630376
 11
150.2817067872
 21
111.9867323563
  0
LINE
  8
0
 62
7
  6
CONTINUOUS
 10
150.2717761566
 20
111.976132946
 11
150.2761338887
 21
111.9807630376
  0
LINE
  8
0
 62
7
  6
CONTINUOUS
 10
278.2182636486
 20
127.0799954409
 11
278.6300323162
 21
127.128844294
  0
LINE
  8
0
 62
7
  6
CONTINUOUS
 10
265.5182659355
 20
127.0799959696
 11
265.9300321289
 21
127.1288442817
  0
LINE
  8
0
 62
7
  6
CONTINUOUS
 10
252.8182593614
 20
127.0799944498
 11
253.2300326606
 21
127.1288443166
  0
LINE
  8
0
 62
7
  6
CONTINUOUS
 10
240.118261175
 20
127.0799948691
 11
240.5300325253
 21
127.1288443077
  0
LINE
  8
0
 62
7
  6
CONTINUOUS
 10
227.4182681852
 20
127.0799964896
 11
227.8300319426
 21
127.1288442695
  0
LINE
  8
PLAN
 62
2
  6
CENTER
 10
328.3936826536
 20
115.1153670824
 11
44.3665207877
 21
115.1153670824
  0
POLYLINE
  8
0
 62
7
  6
CONTINUOUS
 66
1
 70
0
  0
VERTEX
  8
0
 62
7
  6
CONTINUOUS
 10
105.1101132838
 20
127.128662064
  0
VERTEX
  8
0
 62
7
  6
CONTINUOUS
 10
105.5185554784
 20
127.0801216179
  0
VERTEX
  8
0
 62
7
  6
CONTINUOUS
 10
105.9458914668
 20
126.9287215725
  0
VERTEX
  8
0
 62
7
  6
CONTINUOUS
 10
106.3284488083
 20
126.6847180308
  0
VERTEX
  8
0
 62
7
  6
CONTINUOUS
 10
106.6462346908
 20
126.3606758555
  0
VERTEX
  8
0
 62
7
  6
CONTINUOUS
 10
106.8827921274
 20
125.9733284831
  0
VERTEX
  8
0
 62
7
  6
CONTINUOUS
 10
107.0258861043
 20
125.5428475787
  0
SEQEND
  0
POLYLINE
  8
0
 62
7
  6
CONTINUOUS
 66
1
 70
0
  0
VERTEX
  8
0
 62
7
  6
CONTINUOUS
 10
117.8101098927
 20
127.1286622862
  0
VERTEX
  8
0
 62
7
  6
CONTINUOUS
 10
118.2185953065
 20
127.0801124224
  0
VERTEX
  8
0
 62
7
  6
CONTINUOUS
 10
118.6459342594
 20
126.9287006848
  0
VERTEX
  8
0
 62
7
  6
CONTINUOUS
 10
119.0284783026
 20
126.6846941089
  0
VERTEX
  8
0
 62
7
  6
CONTINUOUS
 10
119.346250832
 20
126.3606551412
  0
VERTEX
  8
0
 62
7
  6
CONTINUOUS
 10
119.5827996372
 20
125.9733123033
  0
VERTEX
  8
0
 62
7
  6
CONTINUOUS
 10
119.7258881725
 20
125.542837743
  0
SEQEND
  0
POLYLINE
  8
0
 62
7
  6
CONTINUOUS
 66
1
 70
0
  0
VERTEX
  8
0
 62
7
  6
CONTINUOUS
 10
130.5101107305
 20
127.1286622313
  0
VERTEX
  8
0
 62
7
  6
CONTINUOUS
 10
130.9185855674
 20
127.080114671
  0
VERTEX
  8
0
 62
7
  6
CONTINUOUS
 10
131.345923801
 20
126.9287057898
  0
VERTEX
  8
0
 62
7
  6
CONTINUOUS
 10
131.7284710943
 20
126.6846999553
  0
VERTEX
  8
0
 62
7
  6
CONTINUOUS
 10
132.0462468871
 20
126.3606602039
  0
VERTEX
  8
0
 62
7
  6
CONTINUOUS
 10
132.2827978018
 20
125.9733162577
  0
VERTEX
  8
0
 62
7
  6
CONTINUOUS
 10
132.425887667
 20
125.5428401468
  0
SEQEND
  0
POLYLINE
  8
0
 62
7
  6
CONTINUOUS
 66
1
 70
0
  0
VERTEX
  8
0
 62
7
  6
CONTINUOUS
 10
143.2101069505
 20
127.1286624791
  0
VERTEX
  8
0
 62
7
  6
CONTINUOUS
 10
143.6186295241
 20
127.0801045215
  0
VERTEX
  8
0
 62
7
  6
CONTINUOUS
 10
144.0459709706
 20
126.9286827644
  0
VERTEX
  8
0
 62
7
  6
CONTINUOUS
 10
144.4285036045
 20
126.6846735865
  0
VERTEX
  8
0
 62
7
  6
CONTINUOUS
 10
144.7462646799
 20
126.3606373695
  0
VERTEX
  8
0
 62
7
  6
CONTINUOUS
 10
144.98280608
 20
125.9732984221
  0
VERTEX
  8
0
 62
7
  6
CONTINUOUS
 10
145.1258899467
 20
125.5428293055
  0
SEQEND
  0
POLYLINE
  8
0
 62
7
  6
CONTINUOUS
 66
1
 70
0
  0
VERTEX
  8
0
 62
7
  6
CONTINUOUS
 10
155.9101084962
 20
127.1286623778
  0
VERTEX
  8
0
 62
7
  6
CONTINUOUS
 10
156.3186115505
 20
127.0801086717
  0
VERTEX
  8
0
 62
7
  6
CONTINUOUS
 10
156.7459516942
 20
126.9286921742
  0
VERTEX
  8
0
 62
7
  6
CONTINUOUS
 10
157.128490319
 20
126.6846843624
  0
VERTEX
  8
0
 62
7
  6
CONTINUOUS
 10
157.4462574086
 20
126.3606467013
  0
VERTEX
  8
0
 62
7
  6
CONTINUOUS
 10
157.682802697
 20
125.973305711
  0
VERTEX
  8
0
 62
7
  6
CONTINUOUS
 10
157.8258890151
 20
125.5428337359
  0
SEQEND
  0
LINE
  8
0
 62
7
  6
CONTINUOUS
 10
195.3581889329
 20
111.9840139193
 11
195.3655856113
 21
111.976136696
  0
LINE
  8
0
 62
7
  6
CONTINUOUS
 10
195.3533509964
 20
111.9892259122
 11
195.3581889329
 21
111.9840139193
  0
LINE
  8
0
 62
7
  6
CONTINUOUS
 10
195.350456764
 20
111.9923784616
 11
195.3533509964
 21
111.9892259122
  0
POLYLINE
  8
0
 62
7
  6
CONTINUOUS
 66
1
 70
0
  0
VERTEX
  8
0
 62
7
  6
CONTINUOUS
 10
195.3461299903
 20
111.9971617161
  0
VERTEX
  8
0
 62
7
  6
CONTINUOUS
 10
195.3473121421
 20
111.9958448846
  0
VERTEX
  8
0
 62
7
  6
CONTINUOUS
 10
195.350456764
 20
111.9923784616
  0
SEQEND
  0
LINE
  8
0
 62
7
  6
CONTINUOUS
 10
176.9037539036
 20
136.9250820821
 11
176.1731612785
 21
139.8474525825
  0
LINE
  8
0
 62
7
  6
CONTINUOUS
 10
175.0836114035
 20
118.7056520827
 11
175.0686826536
 21
118.8269198952
  0
LINE
  8
0
 62
7
  6
CONTINUOUS
 10
176.9037539036
 20
136.9250820821
 11
176.9186826536
 21
136.8038142696
  0
LINE
  8
0
 62
7
  6
CONTINUOUS
 10
183.2686826536
 20
125.131377571
 11
183.2686826536
 21
118.8269198952
  0
LINE
  8
0
 62
7
  6
CONTINUOUS
 10
187.7686826536
 20
118.8269198952
 11
187.7686826536
 21
125.131377571
  0
LINE
  8
0
 62
7
  6
CONTINUOUS
 10
188.5186826536
 20
112.3306351507
 11
188.5186826536
 21
115.7469012386
  0
LINE
  8
0
 62
7
  6
CONTINUOUS
 10
188.8686826536
 20
139.8838329263
 11
188.8686826536
 21
144.1153670824
  0
LINE
  8
0
 62
7
  6
CONTINUOUS
 10
189.6186826536
 20
136.8038142696
 11
189.6186826536
 21
132.6153670824
  0
POLYLINE
  8
0
 62
7
  6
CONTINUOUS
 66
1
 70
0
  0
VERTEX
  8
0
 62
7
  6
CONTINUOUS
 10
187.7686826536
 20
125.1313725406
  0
VERTEX
  8
0
 62
7
  6
CONTINUOUS
 10
187.8108467324
 20
125.5398282741
  0
VERTEX
  8
0
 62
7
  6
CONTINUOUS
 10
187.9534867397
 20
125.9709838275
  0
VERTEX
  8
0
 62
7
  6
CONTINUOUS
 10
188.1898513992
 20
126.3590324722
  0
VERTEX
  8
0
 62
7
  6
CONTINUOUS
 10
188.5076863677
 20
126.6837195185
  0
VERTEX
  8
0
 62
7
  6
CONTINUOUS
 10
188.8905007304
 20
126.9282462702
  0
VERTEX
  8
0
 62
7
  6
CONTINUOUS
 10
189.3182599223
 20
127.0799945795
  0
SEQEND
  0
LINE
  8
0
 62
7
  6
CONTINUOUS
 10
183.2686826536
 20
118.8269198952
 11
183.2537539036
 21
118.7056520827
  0
LINE
  8
0
 62
7
  6
CONTINUOUS
 10
183.2537539036
 20
118.7056520827
 11
182.5231612785
 21
115.7832815823
  0
LINE
  8
0
 62
7
  6
CONTINUOUS
 10
194.8642040286
 20
139.8474525825
 11
194.1336114035
 21
136.9250820821
  0
LINE
  8
0
 62
7
  6
CONTINUOUS
 10
162.9887562942
 20
111.9944107166
 11
162.9912017362
 21
111.9971242387
  0
LINE
  8
0
 62
7
  6
CONTINUOUS
 10
162.9859501034
 20
111.9913309658
 11
162.9892950891
 21
111.9950046438
  0
LINE
  8
0
 62
7
  6
CONTINUOUS
 10
162.9817067864
 20
111.9867323555
 11
162.9859501034
 21
111.9913309658
  0
LINE
  8
0
 62
7
  6
CONTINUOUS
 10
162.9843542953
 20
111.9896303847
 11
162.984977504
 21
111.9902999004
  0
LINE
  8
0
 62
7
  6
CONTINUOUS
 10
162.9761338879
 20
111.9807630367
 11
162.9817067864
 21
111.9867323555
  0
LINE
  8
0
 62
7
  6
CONTINUOUS
 10
162.9717761566
 20
111.976132946
 11
162.9761338879
 21
111.9807630367
  0
LINE
  8
0
 62
7
  6
CONTINUOUS
 10
214.7182748069
 20
127.0799980203
 11
215.1300314092
 21
127.1288442346
  0
LINE
  8
0
 62
7
  6
CONTINUOUS
 10
202.018262823
 20
127.0799952501
 11
202.4300323731
 21
127.1288442977
  0
LINE
  8
0
 62
7
  6
CONTINUOUS
 10
189.3182599223
 20
127.0799945795
 11
189.7300325931
 21
127.1288443122
  0
LINE
  8
0
 62
7
  6
CONTINUOUS
 10
176.6182683616
 20
127.0799965304
 11
177.030031937
 21
127.1288442691
  0
LINE
  8
0
 62
7
  6
CONTINUOUS
 10
163.9182695697
 20
127.0799968096
 11
164.3300318208
 21
127.1288442615
  0
LINE
  8
0
 62
7
  6
CONTINUOUS
 10
151.2182255319
 20
127.0799866293
 11
151.6300354259
 21
127.1288444978
  0
LINE
  8
0
 62
7
  6
CONTINUOUS
 10
138.5182832914
 20
127.0799999815
 11
138.9300306973
 21
127.1288441879
  0
LINE
  8
0
 62
7
  6
CONTINUOUS
 10
257.4686826536
 20
127.131377571
 11
253.2686826536
 21
127.131377571
  0
LINE
  8
0
 62
7
  6
CONTINUOUS
 10
244.7686826536
 20
127.131377571
 11
240.5686826536
 21
127.131377571
  0
LINE
  8
0
 62
7
  6
CONTINUOUS
 10
219.3686826536
 20
127.131377571
 11
215.1686826536
 21
127.131377571
  0
LINE
  8
0
 62
7
  6
CONTINUOUS
 10
206.6686826536
 20
127.131377571
 11
202.4686826536
 21
127.131377571
  0
LINE
  8
0
 62
7
  6
CONTINUOUS
 10
193.9686826536
 20
127.131377571
 11
189.7686826536
 21
127.131377571
  0
LINE
  8
0
 62
7
  6
CONTINUOUS
 10
181.2686826536
 20
127.131377571
 11
177.0686826536
 21
127.131377571
  0
LINE
  8
0
 62
7
  6
CONTINUOUS
 10
168.5686826536
 20
127.131377571
 11
164.3686826536
 21
127.131377571
  0
LINE
  8
0
 62
7
  6
CONTINUOUS
 10
155.8686826536
 20
127.131377571
 11
151.6686826536
 21
127.131377571
  0
LINE
  8
0
 62
7
  6
CONTINUOUS
 10
143.1686826536
 20
127.131377571
 11
138.9686826536
 21
127.131377571
  0
LINE
  8
0
 62
7
  6
CONTINUOUS
 10
130.4686826536
 20
127.131377571
 11
126.2686826536
 21
127.131377571
  0
LINE
  8
0
 62
7
  6
CONTINUOUS
 10
117.7686826536
 20
127.131377571
 11
113.5686826536
 21
127.131377571
  0
LINE
  8
0
 62
7
  6
CONTINUOUS
 10
105.0686826536
 20
127.131377571
 11
100.9686826536
 21
127.131377571
  0
LINE
  8
0
 62
7
  6
CONTINUOUS
 10
227.8686826536
 20
127.131377571
 11
232.0686826536
 21
127.131377571
  0
LINE
  8
0
 62
7
  6
CONTINUOUS
 10
265.9686826536
 20
127.131377571
 11
270.1686826536
 21
127.131377571
  0
LINE
  8
0
 62
7
  6
CONTINUOUS
 10
278.6686826536
 20
127.131377571
 11
282.7686826536
 21
127.131377571
  0
LINE
  8
0
 62
7
  6
CONTINUOUS
 10
310.8186826536
 20
127.3653670824
 11
306.2186826536
 21
127.3653670824
  0
LINE
  8
0
 62
7
  6
CONTINUOUS
 10
296.3186826536
 20
127.3653670824
 11
292.4686826536
 21
127.3653670824
  0
LINE
  8
0
 62
7
  6
CONTINUOUS
 10
72.9186826536
 20
127.3653670824
 11
77.5186826536
 21
127.3653670824
  0
LINE
  8
0
 62
7
  6
CONTINUOUS
 10
87.4186826536
 20
127.3653670824
 11
91.2686826536
 21
127.3653670824
  0
LINE
  8
0
 62
7
  6
CONTINUOUS
 10
325.1436826536
 20
127.5153670824
 11
321.0186826536
 21
127.5153670824
  0
LINE
  8
0
 62
7
  6
CONTINUOUS
 10
58.5936826536
 20
127.5153670824
 11
62.7186826536
 21
127.5153670824
  0
LINE
  8
0
 62
7
  6
CONTINUOUS
 10
331.8186826536
 20
128.0653670824
 11
330.0186826536
 21
128.0653670824
  0
LINE
  8
0
 62
7
  6
CONTINUOUS
 10
53.7186826536
 20
128.0653670824
 11
51.9186826536
 21
128.0653670824
  0
LINE
  8
0
 62
7
  6
CONTINUOUS
 10
316.5186826536
 20
128.1653670824
 11
315.0186826536
 21
128.1653670824
  0
LINE
  8
0
 62
7
  6
CONTINUOUS
 10
68.7186826536
 20
128.1653670824
 11
67.2186826536
 21
128.1653670824
  0
LINE
  8
0
 62
7
  6
CONTINUOUS
 10
302.1686826536
 20
128.3153670824
 11
300.3686826536
 21
128.3153670824
  0
LINE
  8
0
 62
7
  6
CONTINUOUS
 10
288.1686826536
 20
128.3153670824
 11
286.8686826536
 21
128.3153670824
  0
LINE
  8
0
 62
7
  6
CONTINUOUS
 10
96.8686826536
 20
128.3153670824
 11
95.5686826536
 21
128.3153670824
  0
LINE
  8
0
 62
7
  6
CONTINUOUS
 10
83.3686826536
 20
128.3153670824
 11
81.5686826536
 21
128.3153670824
  0
POLYLINE
  8
0
 62
7
  6
CONTINUOUS
 66
1
 70
0
  0
VERTEX
  8
0
 62
7
  6
CONTINUOUS
 10
168.6101123433
 20
127.1286621256
  0
VERTEX
  8
0
 62
7
  6
CONTINUOUS
 10
169.0185666135
 20
127.0801190471
  0
VERTEX
  8
0
 62
7
  6
CONTINUOUS
 10
169.4459034365
 20
126.92871573
  0
VERTEX
  8
0
 62
7
  6
CONTINUOUS
 10
169.8284570584
 20
126.6847113395
  0
VERTEX
  8
0
 62
7
  6
CONTINUOUS
 10
170.1462392057
 20
126.3606700615
  0
VERTEX
  8
0
 62
7
  6
CONTINUOUS
 10
170.382794228
 20
125.9733239574
  0
VERTEX
  8
0
 62
7
  6
CONTINUOUS
 10
170.5258866828
 20
125.5428448275
  0
SEQEND
  0
POLYLINE
  8
0
 62
7
  6
CONTINUOUS
 66
1
 70
0
  0
VERTEX
  8
0
 62
7
  6
CONTINUOUS
 10
181.3101085023
 20
127.1286623774
  0
VERTEX
  8
0
 62
7
  6
CONTINUOUS
 10
181.7186116777
 20
127.0801086424
  0
VERTEX
  8
0
 62
7
  6
CONTINUOUS
 10
182.1459518306
 20
126.9286921076
  0
VERTEX
  8
0
 62
7
  6
CONTINUOUS
 10
182.528490413
 20
126.6846842861
  0
VERTEX
  8
0
 62
7
  6
CONTINUOUS
 10
182.84625746
 20
126.3606466352
  0
VERTEX
  8
0
 62
7
  6
CONTINUOUS
 10
183.082802721
 20
125.9733056594
  0
VERTEX
  8
0
 62
7
  6
CONTINUOUS
 10
183.2258890217
 20
125.5428337045
  0
SEQEND
  0
POLYLINE
  8
0
 62
7
  6
CONTINUOUS
 66
1
 70
0
  0
VERTEX
  8
0
 62
7
  6
CONTINUOUS
 10
194.0101125438
 20
127.1286621125
  0
VERTEX
  8
0
 62
7
  6
CONTINUOUS
 10
194.4185644817
 20
127.0801195393
  0
VERTEX
  8
0
 62
7
  6
CONTINUOUS
 10
194.8459011452
 20
126.9287168484
  0
VERTEX
  8
0
 62
7
  6
CONTINUOUS
 10
195.2284554791
 20
126.6847126204
  0
VERTEX
  8
0
 62
7
  6
CONTINUOUS
 10
195.5462383415
 20
126.3606711706
  0
VERTEX
  8
0
 62
7
  6
CONTINUOUS
 10
195.7827938259
 20
125.9733248237
  0
VERTEX
  8
0
 62
7
  6
CONTINUOUS
 10
195.9258865721
 20
125.5428453541
  0
SEQEND
  0
POLYLINE
  8
0
 62
7
  6
CONTINUOUS
 66
1
 70
0
  0
VERTEX
  8
0
 62
7
  6
CONTINUOUS
 10
206.7101073416
 20
127.1286624535
  0
VERTEX
  8
0
 62
7
  6
CONTINUOUS
 10
207.1186249764
 20
127.0801055716
  0
VERTEX
  8
0
 62
7
  6
CONTINUOUS
 10
207.5459660949
 20
126.9286851445
  0
VERTEX
  8
0
 62
7
  6
CONTINUOUS
 10
207.9285002441
 20
126.6846763121
  0
VERTEX
  8
0
 62
7
  6
CONTINUOUS
 10
208.2462628407
 20
126.3606397299
  0
VERTEX
  8
0
 62
7
  6
CONTINUOUS
 10
208.4828052243
 20
125.9733002658
  0
VERTEX
  8
0
 62
7
  6
CONTINUOUS
 10
208.625889711
 20
125.5428304261
  0
SEQEND
  0
POLYLINE
  8
0
 62
7
  6
CONTINUOUS
 66
1
 70
0
  0
VERTEX
  8
0
 62
7
  6
CONTINUOUS
 10
219.4101137613
 20
127.1286620327
  0
VERTEX
  8
0
 62
7
  6
CONTINUOUS
 10
219.8185503266
 20
127.0801228073
  0
VERTEX
  8
0
 62
7
  6
CONTINUOUS
 10
220.2458859275
 20
126.9287242762
  0
VERTEX
  8
0
 62
7
  6
CONTINUOUS
 10
220.6284449903
 20
126.6847211274
  0
VERTEX
  8
0
 62
7
  6
CONTINUOUS
 10
220.9462326015
 20
126.3606785368
  0
VERTEX
  8
0
 62
7
  6
CONTINUOUS
 10
221.1827911553
 20
125.9733305774
  0
VERTEX
  8
0
 62
7
  6
CONTINUOUS
 10
221.3258858365
 20
125.5428488519
  0
SEQEND
  0
POLYLINE
  8
0
 62
7
  6
CONTINUOUS
 66
1
 70
0
  0
VERTEX
  8
0
 62
7
  6
CONTINUOUS
 10
232.1101100924
 20
127.1286622732
  0
VERTEX
  8
0
 62
7
  6
CONTINUOUS
 10
232.5185928901
 20
127.0801129803
  0
VERTEX
  8
0
 62
7
  6
CONTINUOUS
 10
232.9459316649
 20
126.9287019512
  0
VERTEX
  8
0
 62
7
  6
CONTINUOUS
 10
233.3284765144
 20
126.6846955592
  0
VERTEX
  8
0
 62
7
  6
CONTINUOUS
 10
233.6462498534
 20
126.3606563971
  0
VERTEX
  8
0
 62
7
  6
CONTINUOUS
 10
233.8827991819
 20
125.9733132843
  0
VERTEX
  8
0
 62
7
  6
CONTINUOUS
 10
234.0258880471
 20
125.5428383394
  0
SEQEND
  0
POLYLINE
  8
0
 62
7
  6
CONTINUOUS
 66
1
 70
0
  0
VERTEX
  8
0
 62
7
  6
CONTINUOUS
 10
244.8101095297
 20
127.12866231
  0
VERTEX
  8
0
 62
7
  6
CONTINUOUS
 10
245.2185994828
 20
127.0801114581
  0
VERTEX
  8
0
 62
7
  6
CONTINUOUS
 10
245.645938743
 20
126.9286984962
  0
VERTEX
  8
0
 62
7
  6
CONTINUOUS
 10
246.0284813928
 20
126.6846916024
  0
VERTEX
  8
0
 62
7
  6
CONTINUOUS
 10
246.3462525233
 20
126.3606529708
  0
VERTEX
  8
0
 62
7
  6
CONTINUOUS
 10
246.5828004241
 20
125.973310608
  0
VERTEX
  8
0
 62
7
  6
CONTINUOUS
 10
246.7258883892
 20
125.5428367125
  0
SEQEND
  0
LINE
  8
0
 62
7
  6
CONTINUOUS
 10
208.0581889329
 20
111.9840139194
 11
208.0655856113
 21
111.976136696
  0
LINE
  8
0
 62
7
  6
CONTINUOUS
 10
208.0533509963
 20
111.9892259122
 11
208.0581889329
 21
111.9840139194
  0
LINE
  8
0
 62
7
  6
CONTINUOUS
 10
208.0504567639
 20
111.9923784617
 11
208.0533509963
 21
111.9892259122
  0
POLYLINE
  8
0
 62
7
  6
CONTINUOUS
 66
1
 70
0
  0
VERTEX
  8
0
 62
7
  6
CONTINUOUS
 10
208.0461299902
 20
111.9971617162
  0
VERTEX
  8
0
 62
7
  6
CONTINUOUS
 10
208.047312142
 20
111.9958448847
  0
VERTEX
  8
0
 62
7
  6
CONTINUOUS
 10
208.0504567639
 20
111.9923784617
  0
SEQEND
  0
LINE
  8
0
 62
7
  6
CONTINUOUS
 10
188.5142040286
 20
115.7832815823
 11
187.7836114035
 21
118.7056520827
  0
LINE
  8
0
 62
7
  6
CONTINUOUS
 10
189.6037539036
 20
136.9250820821
 11
188.8731612785
 21
139.8474525825
  0
LINE
  8
0
 62
7
  6
CONTINUOUS
 10
187.7836114035
 20
118.7056520827
 11
187.7686826536
 21
118.8269198952
  0
LINE
  8
0
 62
7
  6
CONTINUOUS
 10
189.6037539036
 20
136.9250820821
 11
189.6186826536
 21
136.8038142696
  0
LINE
  8
0
 62
7
  6
CONTINUOUS
 10
195.9258865721
 20
125.5428453541
 11
195.9686826536
 21
125.1313728493
  0
LINE
  8
0
 62
7
  6
CONTINUOUS
 10
194.1186826536
 20
136.8038142696
 11
194.1186826536
 21
132.6153670824
  0
LINE
  8
0
 62
7
  6
CONTINUOUS
 10
194.8686826536
 20
144.1153670824
 11
194.8686826536
 21
139.8838329263
  0
LINE
  8
0
 62
7
  6
CONTINUOUS
 10
195.2186826536
 20
112.3306351507
 11
195.2186826536
 21
115.7469012386
  0
LINE
  8
0
 62
7
  6
CONTINUOUS
 10
195.9686826536
 20
125.131377571
 11
195.9686826536
 21
118.8269198952
  0
LINE
  8
0
 62
7
  6
CONTINUOUS
 10
200.4686826536
 20
125.131377571
 11
200.4686826536
 21
118.8269198952
  0
LINE
  8
0
 62
7
  6
CONTINUOUS
 10
201.2186826536
 20
115.7469012386
 11
201.2186826536
 21
112.3306351507
  0
LINE
  8
0
 62
7
  6
CONTINUOUS
 10
201.5686826536
 20
139.8838329263
 11
201.5686826536
 21
144.1153670824
  0
LINE
  8
0
 62
7
  6
CONTINUOUS
 10
202.3186826536
 20
136.8038142696
 11
202.3186826536
 21
132.6153670824
  0
POLYLINE
  8
0
 62
7
  6
CONTINUOUS
 66
1
 70
0
  0
VERTEX
  8
0
 62
7
  6
CONTINUOUS
 10
200.4686826536
 20
125.1313725405
  0
VERTEX
  8
0
 62
7
  6
CONTINUOUS
 10
200.510846882
 20
125.5398289909
  0
VERTEX
  8
0
 62
7
  6
CONTINUOUS
 10
200.6534872855
 20
125.9709850075
  0
VERTEX
  8
0
 62
7
  6
CONTINUOUS
 10
200.8898525746
 20
126.3590339838
  0
VERTEX
  8
0
 62
7
  6
CONTINUOUS
 10
201.2076885172
 20
126.6837212647
  0
VERTEX
  8
0
 62
7
  6
CONTINUOUS
 10
201.590503848
 20
126.9282477939
  0
VERTEX
  8
0
 62
7
  6
CONTINUOUS
 10
202.018262823
 20
127.0799952501
  0
SEQEND
  0
LINE
  8
0
 62
7
  6
CONTINUOUS
 10
194.1186826536
 20
136.8038142696
 11
194.1336114035
 21
136.9250820821
  0
LINE
  8
0
 62
7
  6
CONTINUOUS
 10
195.9686826536
 20
118.8269198952
 11
195.9537539036
 21
118.7056520827
  0
LINE
  8
0
 62
7
  6
CONTINUOUS
 10
195.9537539036
 20
118.7056520827
 11
195.2231612785
 21
115.7832815823
  0
LINE
  8
0
 62
7
  6
CONTINUOUS
 10
175.6887562936
 20
111.9944107159
 11
175.6912017355
 21
111.997124238
  0
LINE
  8
0
 62
7
  6
CONTINUOUS
 10
188.3887562935
 20
111.9944107158
 11
188.3912017354
 21
111.9971242379
  0
LINE
  8
0
 62
7
  6
CONTINUOUS
 10
188.3877180175
 20
111.993266198
 11
188.3892950896
 21
111.9950046444
  0
LINE
  8
0
 62
7
  6
CONTINUOUS
 10
175.6859501038
 20
111.9913309663
 11
175.6892950895
 21
111.9950046443
  0
LINE
  8
0
 62
7
  6
CONTINUOUS
 10
175.6817067869
 20
111.986732356
 11
175.6859501038
 21
111.9913309663
  0
LINE
  8
0
 62
7
  6
CONTINUOUS
 10
175.6843542953
 20
111.9896303847
 11
175.6849775054
 21
111.990299902
  0
LINE
  8
0
 62
7
  6
CONTINUOUS
 10
175.6761338884
 20
111.9807630373
 11
175.6817067869
 21
111.986732356
  0
LINE
  8
0
 62
7
  6
CONTINUOUS
 10
175.6717761566
 20
111.976132946
 11
175.6761338884
 21
111.9807630373
  0
LINE
  8
0
 62
7
  6
CONTINUOUS
 10
125.8182515548
 20
127.0799926452
 11
126.2300332607
 21
127.1288443559
  0
LINE
  8
0
 62
7
  6
CONTINUOUS
 10
113.11832714
 20
127.0800101168
 11
113.5300271422
 21
127.1288439549
  0
LINE
  8
DEFAULT_1
 62
2
  6
CENTER
 10
39.2684901245
 20
140.5153670824
 11
344.468875289
 21
140.5153670824
  0
POLYLINE
  8
0
 62
7
  6
CONTINUOUS
 66
1
 70
0
  0
VERTEX
  8
0
 62
7
  6
CONTINUOUS
 10
257.510109957
 20
127.128662282
  0
VERTEX
  8
0
 62
7
  6
CONTINUOUS
 10
257.918594465
 20
127.0801126167
  0
VERTEX
  8
0
 62
7
  6
CONTINUOUS
 10
258.3459333559
 20
126.9287011258
  0
VERTEX
  8
0
 62
7
  6
CONTINUOUS
 10
258.7284776799
 20
126.6846946139
  0
VERTEX
  8
0
 62
7
  6
CONTINUOUS
 10
259.0462504913
 20
126.3606555786
  0
VERTEX
  8
0
 62
7
  6
CONTINUOUS
 10
259.2827994787
 20
125.9733126449
  0
VERTEX
  8
0
 62
7
  6
CONTINUOUS
 10
259.4258881288
 20
125.5428379507
  0
SEQEND
  0
POLYLINE
  8
0
 62
7
  6
CONTINUOUS
 66
1
 70
0
  0
VERTEX
  8
0
 62
7
  6
CONTINUOUS
 10
270.2101091979
 20
127.1286623318
  0
VERTEX
  8
0
 62
7
  6
CONTINUOUS
 10
270.618603292
 20
127.0801105786
  0
VERTEX
  8
0
 62
7
  6
CONTINUOUS
 10
271.0459428318
 20
126.9286965003
  0
VERTEX
  8
0
 62
7
  6
CONTINUOUS
 10
271.4284842108
 20
126.6846893167
  0
VERTEX
  8
0
 62
7
  6
CONTINUOUS
 10
271.7462540656
 20
126.3606509915
  0
VERTEX
  8
0
 62
7
  6
CONTINUOUS
 10
271.9828011417
 20
125.973309062
  0
VERTEX
  8
0
 62
7
  6
CONTINUOUS
 10
272.1258885868
 20
125.5428357728
  0
SEQEND
  0
LINE
  8
0
 62
7
  6
CONTINUOUS
 10
220.7581889326
 20
111.9840139198
 11
220.7655856113
 21
111.9761366959
  0
LINE
  8
0
 62
7
  6
CONTINUOUS
 10
220.753350996
 20
111.9892259126
 11
220.7581889326
 21
111.9840139198
  0
LINE
  8
0
 62
7
  6
CONTINUOUS
 10
220.7504567636
 20
111.992378462
 11
220.753350996
 21
111.9892259126
  0
POLYLINE
  8
0
 62
7
  6
CONTINUOUS
 66
1
 70
0
  0
VERTEX
  8
0
 62
7
  6
CONTINUOUS
 10
220.7461299901
 20
111.9971617164
  0
VERTEX
  8
0
 62
7
  6
CONTINUOUS
 10
220.7473121418
 20
111.995844885
  0
VERTEX
  8
0
 62
7
  6
CONTINUOUS
 10
220.7504567636
 20
111.992378462
  0
SEQEND
  0
LINE
  8
0
 62
7
  6
CONTINUOUS
 10
220.7460620701
 20
111.9972376605
 11
220.7471983519
 21
111.9959716387
  0
LINE
  8
0
 62
7
  6
CONTINUOUS
 10
200.4836114035
 20
118.7056520827
 11
201.2142040286
 21
115.7832815823
  0
LINE
  8
0
 62
7
  6
CONTINUOUS
 10
201.5731612785
 20
139.8474525825
 11
202.3037539036
 21
136.9250820821
  0
LINE
  8
0
 62
7
  6
CONTINUOUS
 10
200.4836114035
 20
118.7056520827
 11
200.4686826536
 21
118.8269198952
  0
LINE
  8
0
 62
7
  6
CONTINUOUS
 10
202.3037539036
 20
136.9250820821
 11
202.3186826536
 21
136.8038142696
  0
LINE
  8
0
 62
7
  6
CONTINUOUS
 10
208.625889711
 20
125.5428304261
 11
208.6686826536
 21
125.1313728502
  0
LINE
  8
0
 62
7
  6
CONTINUOUS
 10
206.8186826536
 20
136.8038142696
 11
206.8186826536
 21
132.6153670824
  0
LINE
  8
0
 62
7
  6
CONTINUOUS
 10
207.5686826536
 20
144.1153670824
 11
207.5686826536
 21
139.8838329263
  0
LINE
  8
0
 62
7
  6
CONTINUOUS
 10
207.9186826536
 20
112.3306351507
 11
207.9186826536
 21
115.7469012386
  0
LINE
  8
0
 62
7
  6
CONTINUOUS
 10
208.6686826536
 20
125.131377571
 11
208.6686826536
 21
118.8269198952
  0
LINE
  8
0
 62
7
  6
CONTINUOUS
 10
213.1686826536
 20
125.131377571
 11
213.1686826536
 21
118.8269198952
  0
LINE
  8
0
 62
7
  6
CONTINUOUS
 10
206.8186826536
 20
136.8038142696
 11
206.8336114035
 21
136.9250820821
  0
LINE
  8
0
 62
7
  6
CONTINUOUS
 10
208.6686826536
 20
118.8269198952
 11
208.6537539036
 21
118.7056520827
  0
LINE
  8
0
 62
7
  6
CONTINUOUS
 10
207.5642040286
 20
139.8474525825
 11
206.8336114035
 21
136.9250820821
  0
LINE
  8
0
 62
7
  6
CONTINUOUS
 10
208.6537539036
 20
118.7056520827
 11
207.9231612785
 21
115.7832815823
  0
LINE
  8
0
 62
7
  6
CONTINUOUS
 10
201.088840229
 20
111.9945023491
 11
201.0914010737
 21
111.9973470279
  0
LINE
  8
0
 62
7
  6
CONTINUOUS
 10
201.086397818
 20
111.9918205938
 11
201.088840229
 21
111.9945023491
  0
LINE
  8
0
 62
7
  6
CONTINUOUS
 10
188.383962416
 20
111.9891696575
 11
188.3877180175
 21
111.993266198
  0
LINE
  8
0
 62
7
  6
CONTINUOUS
 10
201.0823576563
 20
111.9874353501
 11
201.086397818
 21
111.9918205938
  0
LINE
  8
0
 62
7
  6
CONTINUOUS
 10
188.3791205932
 20
111.9839541562
 11
188.3849775049
 21
111.9902999014
  0
LINE
  8
0
 62
7
  6
CONTINUOUS
 10
201.0843542953
 20
111.9896303847
 11
201.0848545484
 21
111.9901676142
  0
LINE
  8
0
 62
7
  6
CONTINUOUS
 10
201.0761912998
 20
111.9808242272
 11
201.0817606185
 21
111.9867903569
  0
LINE
  8
0
 62
7
  6
CONTINUOUS
 10
201.0717796958
 20
111.9761366959
 11
201.0770515769
 21
111.9817430592
  0
LINE
  8
0
 62
7
  6
CONTINUOUS
 10
188.3717761566
 20
111.976132946
 11
188.3791205932
 21
111.9839541562
  0
LINE
  8
0
 62
7
  6
CONTINUOUS
 10
325.5186826536
 20
144.8653670824
 11
321.0186826536
 21
144.8653670824
  0
LINE
  8
0
 62
7
  6
CONTINUOUS
 10
310.5186826536
 20
144.8653670824
 11
306.0186826536
 21
144.8653670824
  0
LINE
  8
0
 62
7
  6
CONTINUOUS
 10
296.5186826536
 20
144.8653670824
 11
292.0186826536
 21
144.8653670824
  0
LINE
  8
0
 62
7
  6
CONTINUOUS
 10
283.0186826536
 20
144.8653670824
 11
278.5186826536
 21
144.8653670824
  0
LINE
  8
0
 62
7
  6
CONTINUOUS
 10
91.7186826536
 20
144.8653670824
 11
87.2186826536
 21
144.8653670824
  0
LINE
  8
0
 62
7
  6
CONTINUOUS
 10
77.7186826536
 20
144.8653670824
 11
73.2186826536
 21
144.8653670824
  0
LINE
  8
0
 62
7
  6
CONTINUOUS
 10
62.7186826536
 20
144.8653670824
 11
58.2186826536
 21
144.8653670824
  0
LINE
  8
0
 62
7
  6
CONTINUOUS
 10
100.7186826536
 20
144.8653670824
 11
105.2186826536
 21
144.8653670824
  0
LINE
  8
0
 62
7
  6
CONTINUOUS
 10
113.4186826536
 20
144.8653670824
 11
117.9186826536
 21
144.8653670824
  0
LINE
  8
0
 62
7
  6
CONTINUOUS
 10
126.1186826536
 20
144.8653670824
 11
130.6186826536
 21
144.8653670824
  0
LINE
  8
0
 62
7
  6
CONTINUOUS
 10
138.8186826536
 20
144.8653670824
 11
143.3186826536
 21
144.8653670824
  0
LINE
  8
0
 62
7
  6
CONTINUOUS
 10
151.5186826536
 20
144.8653670824
 11
156.0186826536
 21
144.8653670824
  0
LINE
  8
0
 62
7
  6
CONTINUOUS
 10
164.2186826536
 20
144.8653670824
 11
168.7186826536
 21
144.8653670824
  0
LINE
  8
0
 62
7
  6
CONTINUOUS
 10
176.9186826536
 20
144.8653670824
 11
181.4186826536
 21
144.8653670824
  0
LINE
  8
0
 62
7
  6
CONTINUOUS
 10
189.6186826536
 20
144.8653670824
 11
194.1186826536
 21
144.8653670824
  0
LINE
  8
0
 62
7
  6
CONTINUOUS
 10
202.3186826536
 20
144.8653670824
 11
206.8186826536
 21
144.8653670824
  0
LINE
  8
0
 62
7
  6
CONTINUOUS
 10
215.0186826536
 20
144.8653670824
 11
219.5186826536
 21
144.8653670824
  0
LINE
  8
0
 62
7
  6
CONTINUOUS
 10
227.7186826536
 20
144.8653670824
 11
232.2186826536
 21
144.8653670824
  0
LINE
  8
0
 62
7
  6
CONTINUOUS
 10
240.4186826536
 20
144.8653670824
 11
244.9186826536
 21
144.8653670824
  0
LINE
  8
0
 62
7
  6
CONTINUOUS
 10
253.1186826536
 20
144.8653670824
 11
257.6186826536
 21
144.8653670824
  0
LINE
  8
0
 62
7
  6
CONTINUOUS
 10
265.8186826536
 20
144.8653670824
 11
270.3186826536
 21
144.8653670824
  0
LINE
  8
0
 62
7
  6
CONTINUOUS
 10
233.4581889329
 20
111.9840139194
 11
233.4655856113
 21
111.976136696
  0
LINE
  8
0
 62
7
  6
CONTINUOUS
 10
233.4533509964
 20
111.9892259122
 11
233.4581889329
 21
111.9840139194
  0
LINE
  8
0
 62
7
  6
CONTINUOUS
 10
233.450456764
 20
111.9923784616
 11
233.4533509964
 21
111.9892259122
  0
POLYLINE
  8
0
 62
7
  6
CONTINUOUS
 66
1
 70
0
  0
VERTEX
  8
0
 62
7
  6
CONTINUOUS
 10
233.4461299903
 20
111.9971617161
  0
VERTEX
  8
0
 62
7
  6
CONTINUOUS
 10
233.4473121421
 20
111.9958448846
  0
VERTEX
  8
0
 62
7
  6
CONTINUOUS
 10
233.450456764
 20
111.9923784616
  0
SEQEND
  0
LINE
  8
0
 62
7
  6
CONTINUOUS
 10
233.4460620701
 20
111.9972376605
 11
233.447198352
 21
111.9959716386
  0
LINE
  8
0
 62
7
  6
CONTINUOUS
 10
213.1836114035
 20
118.7056520827
 11
213.9142040286
 21
115.7832815823
  0
LINE
  8
0
 62
7
  6
CONTINUOUS
 10
213.1836114035
 20
118.7056520827
 11
213.1686826536
 21
118.8269198952
  0
LINE
  8
0
 62
7
  6
CONTINUOUS
 10
221.3258858365
 20
125.5428488519
 11
221.3686826536
 21
125.131372849
  0
LINE
  8
0
 62
7
  6
CONTINUOUS
 10
213.9186826536
 20
115.7469012386
 11
213.9186826536
 21
112.3306351507
  0
LINE
  8
0
 62
7
  6
CONTINUOUS
 10
214.2686826536
 20
139.8838329263
 11
214.2686826536
 21
144.1153670824
  0
LINE
  8
0
 62
7
  6
CONTINUOUS
 10
215.0186826536
 20
136.8038142696
 11
215.0186826536
 21
132.6153670824
  0
LINE
  8
0
 62
7
  6
CONTINUOUS
 10
219.5186826536
 20
136.8038142696
 11
219.5186826536
 21
132.6153670824
  0
LINE
  8
0
 62
7
  6
CONTINUOUS
 10
220.2686826536
 20
144.1153670824
 11
220.2686826536
 21
139.8838329263
  0
LINE
  8
0
 62
7
  6
CONTINUOUS
 10
220.6186826536
 20
112.3306351507
 11
220.6186826536
 21
115.7469012386
  0
LINE
  8
0
 62
7
  6
CONTINUOUS
 10
221.3686826536
 20
125.131377571
 11
221.3686826536
 21
118.8269198952
  0
POLYLINE
  8
0
 62
7
  6
CONTINUOUS
 66
1
 70
0
  0
VERTEX
  8
0
 62
7
  6
CONTINUOUS
 10
213.1686826536
 20
125.1313725403
  0
VERTEX
  8
0
 62
7
  6
CONTINUOUS
 10
213.2108475002
 20
125.5398319532
  0
VERTEX
  8
0
 62
7
  6
CONTINUOUS
 10
213.3534895411
 20
125.9709898836
  0
VERTEX
  8
0
 62
7
  6
CONTINUOUS
 10
213.5898574318
 20
126.3590402304
  0
VERTEX
  8
0
 62
7
  6
CONTINUOUS
 10
213.9076974002
 20
126.6837284809
  0
VERTEX
  8
0
 62
7
  6
CONTINUOUS
 10
214.2905167311
 20
126.9282540908
  0
VERTEX
  8
0
 62
7
  6
CONTINUOUS
 10
214.7182748069
 20
127.0799980203
  0
SEQEND
  0
LINE
  8
0
 62
7
  6
CONTINUOUS
 10
219.5186826536
 20
136.8038142696
 11
219.5336114035
 21
136.9250820821
  0
LINE
  8
0
 62
7
  6
CONTINUOUS
 10
221.3686826536
 20
118.8269198952
 11
221.3537539036
 21
118.7056520827
  0
LINE
  8
0
 62
7
  6
CONTINUOUS
 10
220.2642040286
 20
139.8474525825
 11
219.5336114035
 21
136.9250820821
  0
LINE
  8
0
 62
7
  6
CONTINUOUS
 10
213.7888402286
 20
111.9945023487
 11
213.7914010738
 21
111.997347028
  0
LINE
  8
0
 62
7
  6
CONTINUOUS
 10
213.7863978176
 20
111.9918205934
 11
213.7888402286
 21
111.9945023487
  0
LINE
  8
0
 62
7
  6
CONTINUOUS
 10
213.7823576559
 20
111.9874353496
 11
213.7863978176
 21
111.9918205934
  0
LINE
  8
0
 62
7
  6
CONTINUOUS
 10
213.7843542953
 20
111.9896303847
 11
213.7848545494
 21
111.9901676152
  0
LINE
  8
0
 62
7
  6
CONTINUOUS
 10
213.7761913
 20
111.9808242275
 11
213.7817606187
 21
111.9867903571
  0
LINE
  8
0
 62
7
  6
CONTINUOUS
 10
213.7717796958
 20
111.976136696
 11
213.7770515764
 21
111.9817430587
  0
LINE
  8
0
 62
7
  6
CONTINUOUS
 10
284.7682452277
 20
111.3621423365
 11
284.7749275329
 21
111.3583194361
  0
LINE
  8
0
 62
7
  6
CONTINUOUS
 10
246.1581889331
 20
111.9840139192
 11
246.1655856113
 21
111.9761366959
  0
LINE
  8
0
 62
7
  6
CONTINUOUS
 10
246.1533509965
 20
111.989225912
 11
246.1581889331
 21
111.9840139192
  0
LINE
  8
0
 62
7
  6
CONTINUOUS
 10
246.1504567641
 20
111.9923784615
 11
246.1533509965
 21
111.989225912
  0
POLYLINE
  8
0
 62
7
  6
CONTINUOUS
 66
1
 70
0
  0
VERTEX
  8
0
 62
7
  6
CONTINUOUS
 10
246.1461299904
 20
111.997161716
  0
VERTEX
  8
0
 62
7
  6
CONTINUOUS
 10
246.1473121422
 20
111.9958448845
  0
VERTEX
  8
0
 62
7
  6
CONTINUOUS
 10
246.1504567641
 20
111.9923784615
  0
SEQEND
  0
LINE
  8
0
 62
7
  6
CONTINUOUS
 10
246.1460620701
 20
111.9972376605
 11
246.1471983518
 21
111.9959716387
  0
LINE
  8
0
 62
7
  6
CONTINUOUS
 10
214.2731612785
 20
139.8474525825
 11
215.0037539036
 21
136.9250820821
  0
LINE
  8
0
 62
7
  6
CONTINUOUS
 10
225.8836114035
 20
118.7056520827
 11
226.6142040286
 21
115.7832815823
  0
LINE
  8
0
 62
7
  6
CONTINUOUS
 10
215.0037539036
 20
136.9250820821
 11
215.0186826536
 21
136.8038142696
  0
LINE
  8
0
 62
7
  6
CONTINUOUS
 10
234.0258880471
 20
125.5428383394
 11
234.0686826536
 21
125.1313728497
  0
LINE
  8
0
 62
7
  6
CONTINUOUS
 10
225.8686826536
 20
125.131377571
 11
225.8686826536
 21
118.8269198952
  0
LINE
  8
0
 62
7
  6
CONTINUOUS
 10
226.6186826536
 20
115.7469012386
 11
226.6186826536
 21
112.3306351507
  0
LINE
  8
0
 62
7
  6
CONTINUOUS
 10
226.9686826536
 20
139.8838329263
 11
226.9686826536
 21
144.1153670824
  0
LINE
  8
0
 62
7
  6
CONTINUOUS
 10
227.7186826536
 20
136.8038142696
 11
227.7186826536
 21
132.6153670824
  0
LINE
  8
0
 62
7
  6
CONTINUOUS
 10
232.2186826536
 20
136.8038142696
 11
232.2186826536
 21
132.6153670824
  0
LINE
  8
0
 62
7
  6
CONTINUOUS
 10
232.9686826536
 20
144.1153670824
 11
232.9686826536
 21
139.8838329263
  0
LINE
  8
0
 62
7
  6
CONTINUOUS
 10
233.3186826536
 20
112.3306351507
 11
233.3186826536
 21
115.7469012386
  0
POLYLINE
  8
0
 62
7
  6
CONTINUOUS
 66
1
 70
0
  0
VERTEX
  8
0
 62
7
  6
CONTINUOUS
 10
225.8686826536
 20
125.1313725404
  0
VERTEX
  8
0
 62
7
  6
CONTINUOUS
 10
225.9108471586
 20
125.5398303163
  0
VERTEX
  8
0
 62
7
  6
CONTINUOUS
 10
226.0534882947
 20
125.970987189
  0
VERTEX
  8
0
 62
7
  6
CONTINUOUS
 10
226.2898547477
 20
126.3590367785
  0
VERTEX
  8
0
 62
7
  6
CONTINUOUS
 10
226.6076924915
 20
126.6837244932
  0
VERTEX
  8
0
 62
7
  6
CONTINUOUS
 10
226.9905096119
 20
126.9282506111
  0
VERTEX
  8
0
 62
7
  6
CONTINUOUS
 10
227.4182681852
 20
127.0799964896
  0
SEQEND
  0
LINE
  8
0
 62
7
  6
CONTINUOUS
 10
232.2186826536
 20
136.8038142696
 11
232.2336114035
 21
136.9250820821
  0
LINE
  8
0
 62
7
  6
CONTINUOUS
 10
221.3537539036
 20
118.7056520827
 11
220.6231612785
 21
115.7832815823
  0
LINE
  8
0
 62
7
  6
CONTINUOUS
 10
232.9642040286
 20
139.8474525825
 11
232.2336114035
 21
136.9250820821
  0
LINE
  8
0
 62
7
  6
CONTINUOUS
 10
226.4888402295
 20
111.9945023497
 11
226.4914010739
 21
111.9973470281
  0
LINE
  8
0
 62
7
  6
CONTINUOUS
 10
226.4863978185
 20
111.9918205944
 11
226.4888402295
 21
111.9945023497
  0
LINE
  8
0
 62
7
  6
CONTINUOUS
 10
226.4823576569
 20
111.9874353508
 11
226.4863978185
 21
111.9918205944
  0
LINE
  8
0
 62
7
  6
CONTINUOUS
 10
226.4843542953
 20
111.9896303847
 11
226.4848545483
 21
111.990167614
  0
LINE
  8
0
 62
7
  6
CONTINUOUS
 10
226.4761913001
 20
111.9808242276
 11
226.4817606188
 21
111.9867903572
  0
LINE
  8
0
 62
7
  6
CONTINUOUS
 10
226.4717796958
 20
111.9761366959
 11
226.4770515775
 21
111.9817430599
  0
LINE
  8
0
 62
7
  6
CONTINUOUS
 10
338.4136322952
 20
145.1550723474
 11
336.6173796321
 21
144.5012898448
  0
LINE
  8
0
 62
7
  6
CONTINUOUS
 10
298.5182452276
 20
111.3621423365
 11
298.5249275329
 21
111.3583194361
  0
LINE
  8
0
 62
7
  6
CONTINUOUS
 10
313.0182452277
 20
111.3621423365
 11
313.0249275329
 21
111.3583194361
  0
LINE
  8
0
 62
7
  6
CONTINUOUS
 10
258.8581889328
 20
111.9840139195
 11
258.8655856113
 21
111.976136696
  0
LINE
  8
0
 62
7
  6
CONTINUOUS
 10
258.8533509963
 20
111.9892259123
 11
258.8581889328
 21
111.9840139195
  0
LINE
  8
0
 62
7
  6
CONTINUOUS
 10
258.8504567639
 20
111.9923784617
 11
258.8533509963
 21
111.9892259123
  0
POLYLINE
  8
0
 62
7
  6
CONTINUOUS
 66
1
 70
0
  0
VERTEX
  8
0
 62
7
  6
CONTINUOUS
 10
258.8461299902
 20
111.9971617162
  0
VERTEX
  8
0
 62
7
  6
CONTINUOUS
 10
258.847312142
 20
111.9958448847
  0
VERTEX
  8
0
 62
7
  6
CONTINUOUS
 10
258.8504567639
 20
111.9923784617
  0
SEQEND
  0
LINE
  8
0
 62
7
  6
CONTINUOUS
 10
258.8460620701
 20
111.9972376605
 11
258.8471983519
 21
111.9959716386
  0
LINE
  8
0
 62
7
  6
CONTINUOUS
 10
226.9731612785
 20
139.8474525825
 11
227.7037539036
 21
136.9250820821
  0
LINE
  8
0
 62
7
  6
CONTINUOUS
 10
225.8836114035
 20
118.7056520827
 11
225.8686826536
 21
118.8269198952
  0
LINE
  8
0
 62
7
  6
CONTINUOUS
 10
227.7037539036
 20
136.9250820821
 11
227.7186826536
 21
136.8038142696
  0
LINE
  8
0
 62
7
  6
CONTINUOUS
 10
234.0686826536
 20
125.131377571
 11
234.0686826536
 21
118.8269198952
  0
LINE
  8
0
 62
7
  6
CONTINUOUS
 10
238.5686826536
 20
125.131377571
 11
238.5686826536
 21
118.8269198952
  0
LINE
  8
0
 62
7
  6
CONTINUOUS
 10
239.3186826536
 20
115.7469012386
 11
239.3186826536
 21
112.3306351507
  0
LINE
  8
0
 62
7
  6
CONTINUOUS
 10
239.6686826536
 20
139.8838329263
 11
239.6686826536
 21
144.1153670824
  0
LINE
  8
0
 62
7
  6
CONTINUOUS
 10
240.4186826536
 20
136.8038142696
 11
240.4186826536
 21
132.6153670824
  0
POLYLINE
  8
0
 62
7
  6
CONTINUOUS
 66
1
 70
0
  0
VERTEX
  8
0
 62
7
  6
CONTINUOUS
 10
238.5686826536
 20
125.1313725405
  0
VERTEX
  8
0
 62
7
  6
CONTINUOUS
 10
238.610846797
 20
125.5398285837
  0
VERTEX
  8
0
 62
7
  6
CONTINUOUS
 10
238.7534869754
 20
125.9709843371
  0
VERTEX
  8
0
 62
7
  6
CONTINUOUS
 10
238.9898519068
 20
126.3590331249
  0
VERTEX
  8
0
 62
7
  6
CONTINUOUS
 10
239.3076872959
 20
126.6837202726
  0
VERTEX
  8
0
 62
7
  6
CONTINUOUS
 10
239.6905020767
 20
126.9282469282
  0
VERTEX
  8
0
 62
7
  6
CONTINUOUS
 10
240.118261175
 20
127.0799948691
  0
SEQEND
  0
LINE
  8
0
 62
7
  6
CONTINUOUS
 10
234.0686826536
 20
118.8269198952
 11
234.0537539036
 21
118.7056520827
  0
LINE
  8
0
 62
7
  6
CONTINUOUS
 10
234.0537539036
 20
118.7056520827
 11
233.3231612785
 21
115.7832815823
  0
LINE
  8
0
 62
7
  6
CONTINUOUS
 10
245.6642040286
 20
139.8474525825
 11
244.9336114035
 21
136.9250820821
  0
LINE
  8
0
 62
7
  6
CONTINUOUS
 10
239.1888402289
 20
111.994502349
 11
239.1914010741
 21
111.9973470283
  0
LINE
  8
0
 62
7
  6
CONTINUOUS
 10
239.1863978179
 20
111.9918205937
 11
239.1888402289
 21
111.994502349
  0
LINE
  8
0
 62
7
  6
CONTINUOUS
 10
239.1823576562
 20
111.98743535
 11
239.1863978179
 21
111.9918205937
  0
LINE
  8
0
 62
7
  6
CONTINUOUS
 10
239.1843542953
 20
111.9896303847
 11
239.1848545491
 21
111.9901676149
  0
LINE
  8
0
 62
7
  6
CONTINUOUS
 10
239.1761913006
 20
111.9808242281
 11
239.1817606192
 21
111.9867903577
  0
LINE
  8
0
 62
7
  6
CONTINUOUS
 10
239.1717796958
 20
111.9761366959
 11
239.1770515768
 21
111.9817430591
  0
LINE
  8
0
 62
7
  6
CONTINUOUS
 10
271.5581889327
 20
111.9840139196
 11
271.5655856113
 21
111.976136696
  0
LINE
  8
0
 62
7
  6
CONTINUOUS
 10
271.5533509962
 20
111.9892259124
 11
271.5581889327
 21
111.9840139196
  0
LINE
  8
0
 62
7
  6
CONTINUOUS
 10
271.5504567638
 20
111.9923784618
 11
271.5533509962
 21
111.9892259124
  0
POLYLINE
  8
0
 62
7
  6
CONTINUOUS
 66
1
 70
0
  0
VERTEX
  8
0
 62
7
  6
CONTINUOUS
 10
271.5461299902
 20
111.9971617163
  0
VERTEX
  8
0
 62
7
  6
CONTINUOUS
 10
271.5473121419
 20
111.9958448848
  0
VERTEX
  8
0
 62
7
  6
CONTINUOUS
 10
271.5504567638
 20
111.9923784618
  0
SEQEND
  0
LINE
  8
0
 62
7
  6
CONTINUOUS
 10
271.5460620701
 20
111.9972376605
 11
271.5471983519
 21
111.9959716386
  0
LINE
  8
0
 62
7
  6
CONTINUOUS
 10
238.5836114035
 20
118.7056520827
 11
239.3142040286
 21
115.7832815823
  0
LINE
  8
0
 62
7
  6
CONTINUOUS
 10
239.6731612785
 20
139.8474525825
 11
240.4037539036
 21
136.9250820821
  0
LINE
  8
0
 62
7
  6
CONTINUOUS
 10
238.5836114035
 20
118.7056520827
 11
238.5686826536
 21
118.8269198952
  0
LINE
  8
0
 62
7
  6
CONTINUOUS
 10
240.4037539036
 20
136.9250820821
 11
240.4186826536
 21
136.8038142696
  0
LINE
  8
0
 62
7
  6
CONTINUOUS
 10
246.7258883892
 20
125.5428367125
 11
246.7686826536
 21
125.1313728498
  0
LINE
  8
0
 62
7
  6
CONTINUOUS
 10
244.9186826536
 20
136.8038142696
 11
244.9186826536
 21
132.6153670824
  0
LINE
  8
0
 62
7
  6
CONTINUOUS
 10
245.6686826536
 20
144.1153670824
 11
245.6686826536
 21
139.8838329263
  0
LINE
  8
0
 62
7
  6
CONTINUOUS
 10
246.0186826536
 20
112.3306351507
 11
246.0186826536
 21
115.7469012386
  0
LINE
  8
0
 62
7
  6
CONTINUOUS
 10
246.7686826536
 20
125.131377571
 11
246.7686826536
 21
118.8269198952
  0
LINE
  8
0
 62
7
  6
CONTINUOUS
 10
251.2686826536
 20
125.131377571
 11
251.2686826536
 21
118.8269198952
  0
LINE
  8
0
 62
7
  6
CONTINUOUS
 10
252.0186826536
 20
115.7469012386
 11
252.0186826536
 21
112.3306351507
  0
LINE
  8
0
 62
7
  6
CONTINUOUS
 10
252.3686826536
 20
139.8838329263
 11
252.3686826536
 21
144.1153670824
  0
LINE
  8
0
 62
7
  6
CONTINUOUS
 10
253.1186826536
 20
136.8038142696
 11
253.1186826536
 21
132.6153670824
  0
POLYLINE
  8
0
 62
7
  6
CONTINUOUS
 66
1
 70
0
  0
VERTEX
  8
0
 62
7
  6
CONTINUOUS
 10
251.2686826536
 20
125.1313725406
  0
VERTEX
  8
0
 62
7
  6
CONTINUOUS
 10
251.3108467035
 20
125.5398281355
  0
VERTEX
  8
0
 62
7
  6
CONTINUOUS
 10
251.4534866341
 20
125.9709835993
  0
VERTEX
  8
0
 62
7
  6
CONTINUOUS
 10
251.6898511719
 20
126.3590321798
  0
VERTEX
  8
0
 62
7
  6
CONTINUOUS
 10
252.007685952
 20
126.6837191808
  0
VERTEX
  8
0
 62
7
  6
CONTINUOUS
 10
252.3905001276
 20
126.9282459755
  0
VERTEX
  8
0
 62
7
  6
CONTINUOUS
 10
252.8182593614
 20
127.0799944498
  0
SEQEND
  0
LINE
  8
0
 62
7
  6
CONTINUOUS
 10
244.9186826536
 20
136.8038142696
 11
244.9336114035
 21
136.9250820821
  0
LINE
  8
0
 62
7
  6
CONTINUOUS
 10
246.7686826536
 20
118.8269198952
 11
246.7537539036
 21
118.7056520827
  0
LINE
  8
0
 62
7
  6
CONTINUOUS
 10
246.7537539036
 20
118.7056520827
 11
246.0231612785
 21
115.7832815823
  0
LINE
  8
0
 62
7
  6
CONTINUOUS
 10
251.8888402287
 20
111.9945023488
 11
251.8914010739
 21
111.9973470282
  0
LINE
  8
0
 62
7
  6
CONTINUOUS
 10
251.8863978176
 20
111.9918205934
 11
251.8888402287
 21
111.9945023488
  0
LINE
  8
0
 62
7
  6
CONTINUOUS
 10
251.8823576559
 20
111.9874353497
 11
251.8863978176
 21
111.9918205934
  0
LINE
  8
0
 62
7
  6
CONTINUOUS
 10
251.8843542953
 20
111.9896303847
 11
251.8848545489
 21
111.9901676147
  0
LINE
  8
0
 62
7
  6
CONTINUOUS
 10
251.8761913004
 20
111.9808242278
 11
251.881760619
 21
111.9867903575
  0
LINE
  8
0
 62
7
  6
CONTINUOUS
 10
251.8717796958
 20
111.976136696
 11
251.8770515765
 21
111.9817430588
  0
LINE
  8
0
 62
7
  6
CONTINUOUS
 10
339.7947430835
 20
128.5469118347
 11
337.5915617936
 21
127.7450194245
  0
LINE
  8
0
 62
7
  6
CONTINUOUS
 10
328.6079301161
 20
111.3562993049
 11
328.6156251597
 21
111.3510203333
  0
LINE
  8
0
 62
7
  6
CONTINUOUS
 10
251.2836114035
 20
118.7056520827
 11
252.0142040286
 21
115.7832815823
  0
LINE
  8
0
 62
7
  6
CONTINUOUS
 10
252.3731612785
 20
139.8474525825
 11
253.1037539036
 21
136.9250820821
  0
LINE
  8
0
 62
7
  6
CONTINUOUS
 10
251.2836114035
 20
118.7056520827
 11
251.2686826536
 21
118.8269198952
  0
LINE
  8
0
 62
7
  6
CONTINUOUS
 10
253.1037539036
 20
136.9250820821
 11
253.1186826536
 21
136.8038142696
  0
LINE
  8
0
 62
7
  6
CONTINUOUS
 10
259.4258881288
 20
125.5428379507
 11
259.4686826536
 21
125.1313728497
  0
LINE
  8
0
 62
7
  6
CONTINUOUS
 10
257.6186826536
 20
136.8038142696
 11
257.6186826536
 21
132.6153670824
  0
LINE
  8
0
 62
7
  6
CONTINUOUS
 10
258.3686826536
 20
144.1153670824
 11
258.3686826536
 21
139.8838329263
  0
LINE
  8
0
 62
7
  6
CONTINUOUS
 10
258.7186826536
 20
112.3306351507
 11
258.7186826536
 21
115.7469012386
  0
LINE
  8
0
 62
7
  6
CONTINUOUS
 10
259.4686826536
 20
125.131377571
 11
259.4686826536
 21
118.8269198952
  0
LINE
  8
0
 62
7
  6
CONTINUOUS
 10
257.6186826536
 20
136.8038142696
 11
257.6336114035
 21
136.9250820821
  0
LINE
  8
0
 62
7
  6
CONTINUOUS
 10
259.4686826536
 20
118.8269198952
 11
259.4537539036
 21
118.7056520827
  0
LINE
  8
0
 62
7
  6
CONTINUOUS
 10
258.3642040286
 20
139.8474525825
 11
257.6336114035
 21
136.9250820821
  0
LINE
  8
0
 62
7
  6
CONTINUOUS
 10
259.4537539036
 20
118.7056520827
 11
258.7231612785
 21
115.7832815823
  0
LINE
  8
0
 62
7
  6
CONTINUOUS
 10
264.5888402289
 20
111.994502349
 11
264.5914010738
 21
111.9973470281
  0
LINE
  8
0
 62
7
  6
CONTINUOUS
 10
264.5863978179
 20
111.9918205937
 11
264.5888402289
 21
111.994502349
  0
LINE
  8
0
 62
7
  6
CONTINUOUS
 10
264.5823576562
 20
111.98743535
 11
264.5863978179
 21
111.9918205937
  0
LINE
  8
0
 62
7
  6
CONTINUOUS
 10
264.5843542953
 20
111.9896303847
 11
264.5848545486
 21
111.9901676144
  0
LINE
  8
0
 62
7
  6
CONTINUOUS
 10
264.5761913001
 20
111.9808242275
 11
264.5817606187
 21
111.9867903572
  0
LINE
  8
0
 62
7
  6
CONTINUOUS
 10
264.5717796958
 20
111.976136696
 11
264.5770515768
 21
111.9817430591
  0
LINE
  8
0
 62
7
  6
CONTINUOUS
 10
290.2624745656
 20
111.3583403971
 11
290.2691034096
 21
111.3621326882
  0
LINE
  8
0
 62
7
  6
CONTINUOUS
 10
263.9836114035
 20
118.7056520827
 11
264.7142040286
 21
115.7832815823
  0
LINE
  8
0
 62
7
  6
CONTINUOUS
 10
263.9836114035
 20
118.7056520827
 11
263.9686826536
 21
118.8269198952
  0
LINE
  8
0
 62
7
  6
CONTINUOUS
 10
272.1258885868
 20
125.5428357728
 11
272.1686826536
 21
125.1313728499
  0
LINE
  8
0
 62
7
  6
CONTINUOUS
 10
263.9686826536
 20
125.131377571
 11
263.9686826536
 21
118.8269198952
  0
LINE
  8
0
 62
7
  6
CONTINUOUS
 10
264.7186826536
 20
115.7469012386
 11
264.7186826536
 21
112.3306351507
  0
LINE
  8
0
 62
7
  6
CONTINUOUS
 10
265.0686826536
 20
139.8838329263
 11
265.0686826536
 21
144.1153670824
  0
LINE
  8
0
 62
7
  6
CONTINUOUS
 10
265.8186826536
 20
136.8038142696
 11
265.8186826536
 21
132.6153670824
  0
LINE
  8
0
 62
7
  6
CONTINUOUS
 10
270.3186826536
 20
136.8038142696
 11
270.3186826536
 21
132.6153670824
  0
LINE
  8
0
 62
7
  6
CONTINUOUS
 10
271.0686826536
 20
144.1153670824
 11
271.0686826536
 21
139.8838329263
  0
LINE
  8
0
 62
7
  6
CONTINUOUS
 10
271.4186826536
 20
112.3306351507
 11
271.4186826536
 21
115.7469012386
  0
LINE
  8
0
 62
7
  6
CONTINUOUS
 10
272.1686826536
 20
125.131377571
 11
272.1686826536
 21
118.8269198952
  0
POLYLINE
  8
0
 62
7
  6
CONTINUOUS
 66
1
 70
0
  0
VERTEX
  8
0
 62
7
  6
CONTINUOUS
 10
263.9686826536
 20
125.1313725405
  0
VERTEX
  8
0
 62
7
  6
CONTINUOUS
 10
264.0108470425
 20
125.5398297602
  0
VERTEX
  8
0
 62
7
  6
CONTINUOUS
 10
264.1534878713
 20
125.9709862737
  0
VERTEX
  8
0
 62
7
  6
CONTINUOUS
 10
264.3898538359
 20
126.3590356059
  0
VERTEX
  8
0
 62
7
  6
CONTINUOUS
 10
264.707690824
 20
126.6837231386
  0
VERTEX
  8
0
 62
7
  6
CONTINUOUS
 10
265.0905071935
 20
126.9282494291
  0
VERTEX
  8
0
 62
7
  6
CONTINUOUS
 10
265.5182659355
 20
127.0799959696
  0
SEQEND
  0
LINE
  8
0
 62
7
  6
CONTINUOUS
 10
270.3186826536
 20
136.8038142696
 11
270.3336114035
 21
136.9250820821
  0
LINE
  8
0
 62
7
  6
CONTINUOUS
 10
272.1686826536
 20
118.8269198952
 11
272.1537539036
 21
118.7056520827
  0
LINE
  8
0
 62
7
  6
CONTINUOUS
 10
271.0642040286
 20
139.8474525825
 11
270.3336114035
 21
136.9250820821
  0
LINE
  8
0
 62
7
  6
CONTINUOUS
 10
272.1537539036
 20
118.7056520827
 11
271.4231612785
 21
115.7832815823
  0
LINE
  8
0
 62
7
  6
CONTINUOUS
 10
277.2888402288
 20
111.9945023488
 11
277.2914010739
 21
111.9973470281
  0
LINE
  8
0
 62
7
  6
CONTINUOUS
 10
277.2863978177
 20
111.9918205935
 11
277.2888402288
 21
111.9945023488
  0
LINE
  8
0
 62
7
  6
CONTINUOUS
 10
277.282357656
 20
111.9874353498
 11
277.2863978177
 21
111.9918205935
  0
LINE
  8
0
 62
7
  6
CONTINUOUS
 10
277.2843542953
 20
111.9896303847
 11
277.2848545487
 21
111.9901676145
  0
LINE
  8
0
 62
7
  6
CONTINUOUS
 10
277.2761913002
 20
111.9808242276
 11
277.2817606188
 21
111.9867903573
  0
LINE
  8
0
 62
7
  6
CONTINUOUS
 10
277.2717796958
 20
111.976136696
 11
277.2770515766
 21
111.9817430589
  0
LINE
  8
0
 62
7
  6
CONTINUOUS
 10
304.0124745655
 20
111.3583403971
 11
304.0191034097
 21
111.3621326882
  0
LINE
  8
0
 62
7
  6
CONTINUOUS
 10
318.5124745656
 20
111.3583403971
 11
318.5191034096
 21
111.3621326882
  0
LINE
  8
0
 62
7
  6
CONTINUOUS
 10
265.0731612785
 20
139.8474525825
 11
265.8037539036
 21
136.9250820821
  0
LINE
  8
0
 62
7
  6
CONTINUOUS
 10
276.6836114035
 20
118.7056520827
 11
277.4142040286
 21
115.7832815823
  0
LINE
  8
0
 62
7
  6
CONTINUOUS
 10
265.8037539036
 20
136.9250820821
 11
265.8186826536
 21
136.8038142696
  0
LINE
  8
0
 62
7
  6
CONTINUOUS
 10
276.6686826536
 20
125.131377571
 11
276.6686826536
 21
118.8269198952
  0
LINE
  8
0
 62
7
  6
CONTINUOUS
 10
277.4186826536
 20
115.7469012386
 11
277.4186826536
 21
112.3306351507
  0
LINE
  8
0
 62
7
  6
CONTINUOUS
 10
277.7686826536
 20
139.8838329263
 11
277.7686826536
 21
144.1153670824
  0
LINE
  8
0
 62
7
  6
CONTINUOUS
 10
278.5186826536
 20
136.8038142696
 11
278.5186826536
 21
132.6153670824
  0
LINE
  8
0
 62
7
  6
CONTINUOUS
 10
283.0186826536
 20
136.8038142696
 11
283.0186826536
 21
132.1653670824
  0
LINE
  8
0
 62
7
  6
CONTINUOUS
 10
283.7686826536
 20
144.1153670824
 11
283.7686826536
 21
139.8838329263
  0
POLYLINE
  8
0
 62
7
  6
CONTINUOUS
 66
1
 70
0
  0
VERTEX
  8
0
 62
7
  6
CONTINUOUS
 10
276.6686826536
 20
125.1313725405
  0
VERTEX
  8
0
 62
7
  6
CONTINUOUS
 10
276.7108469246
 20
125.539829195
  0
VERTEX
  8
0
 62
7
  6
CONTINUOUS
 10
276.8534874409
 20
125.9709853433
  0
VERTEX
  8
0
 62
7
  6
CONTINUOUS
 10
277.0898529092
 20
126.359034414
  0
VERTEX
  8
0
 62
7
  6
CONTINUOUS
 10
277.4076891291
 20
126.6837217618
  0
VERTEX
  8
0
 62
7
  6
CONTINUOUS
 10
277.7905047354
 20
126.9282482277
  0
VERTEX
  8
0
 62
7
  6
CONTINUOUS
 10
278.2182636486
 20
127.0799954409
  0
SEQEND
  0
LINE
  8
0
 62
7
  6
CONTINUOUS
 10
283.0186826536
 20
136.8038142696
 11
283.0336114035
 21
136.9250820821
  0
LINE
  8
0
 62
7
  6
CONTINUOUS
 10
283.7642040286
 20
139.8474525825
 11
283.0336114035
 21
136.9250820821
  0
LINE
  8
0
 62
7
  6
CONTINUOUS
 10
277.7731612785
 20
139.8474525825
 11
278.5037539036
 21
136.9250820821
  0
LINE
  8
0
 62
7
  6
CONTINUOUS
 10
289.7836114035
 20
118.7056520827
 11
290.5142040286
 21
115.7832815823
  0
LINE
  8
0
 62
7
  6
CONTINUOUS
 10
276.6836114035
 20
118.7056520827
 11
276.6686826536
 21
118.8269198952
  0
LINE
  8
0
 62
7
  6
CONTINUOUS
 10
278.5037539036
 20
136.9250820821
 11
278.5186826536
 21
136.8038142696
  0
LINE
  8
0
 62
7
  6
CONTINUOUS
 10
284.5186826536
 20
115.7469012386
 11
284.5186826536
 21
111.794901997
  0
LINE
  8
0
 62
7
  6
CONTINUOUS
 10
285.2686826536
 20
124.631377571
 11
285.2686826536
 21
118.8269198952
  0
LINE
  8
0
 62
7
  6
CONTINUOUS
 10
289.7686826536
 20
124.6653670824
 11
289.7686826536
 21
118.8269198952
  0
LINE
  8
0
 62
7
  6
CONTINUOUS
 10
290.5186826536
 20
115.7469012386
 11
290.5186826536
 21
111.794901997
  0
LINE
  8
0
 62
7
  6
CONTINUOUS
 10
291.2686826536
 20
144.1153670824
 11
291.2686826536
 21
139.8838329263
  0
LINE
  8
0
 62
7
  6
CONTINUOUS
 10
292.0186826536
 20
136.8038142696
 11
292.0186826536
 21
132.1653670824
  0
LINE
  8
0
 62
7
  6
CONTINUOUS
 10
285.2686826536
 20
118.8269198952
 11
285.2537539036
 21
118.7056520827
  0
LINE
  8
0
 62
7
  6
CONTINUOUS
 10
284.5231612785
 20
115.7832815823
 11
285.2537539036
 21
118.7056520827
  0
LINE
  8
0
 62
7
  6
CONTINUOUS
 10
297.2642040286
 20
139.8474525825
 11
296.5336114035
 21
136.9250820821
  0
LINE
  8
0
 62
7
  6
CONTINUOUS
 10
334.1717401479
 20
111.3510203335
 11
334.1794396809
 21
111.3563020074
  0
LINE
  8
0
 62
7
  6
CONTINUOUS
 10
291.2731612785
 20
139.8474525825
 11
292.0037539036
 21
136.9250820821
  0
LINE
  8
0
 62
7
  6
CONTINUOUS
 10
289.7836114035
 20
118.7056520827
 11
289.7686826536
 21
118.8269198952
  0
LINE
  8
0
 62
7
  6
CONTINUOUS
 10
292.0037539036
 20
136.9250820821
 11
292.0186826536
 21
136.8038142696
  0
LINE
  8
0
 62
7
  6
CONTINUOUS
 10
296.5186826536
 20
136.8038142696
 11
296.5186826536
 21
132.1653670824
  0
LINE
  8
0
 62
7
  6
CONTINUOUS
 10
297.2686826536
 20
144.1153670824
 11
297.2686826536
 21
139.8838329263
  0
LINE
  8
0
 62
7
  6
CONTINUOUS
 10
298.2686826536
 20
111.794901997
 11
298.2686826536
 21
115.7469012386
  0
LINE
  8
0
 62
7
  6
CONTINUOUS
 10
299.0186826536
 20
124.6653670824
 11
299.0186826536
 21
118.8269198952
  0
LINE
  8
0
 62
7
  6
CONTINUOUS
 10
303.5186826536
 20
124.6653670824
 11
303.5186826536
 21
118.8269198952
  0
LINE
  8
0
 62
7
  6
CONTINUOUS
 10
304.2686826536
 20
115.7469012386
 11
304.2686826536
 21
111.794901997
  0
LINE
  8
0
 62
7
  6
CONTINUOUS
 10
296.5186826536
 20
136.8038142696
 11
296.5336114035
 21
136.9250820821
  0
LINE
  8
0
 62
7
  6
CONTINUOUS
 10
299.0186826536
 20
118.8269198952
 11
299.0037539036
 21
118.7056520827
  0
LINE
  8
0
 62
7
  6
CONTINUOUS
 10
298.2731612785
 20
115.7832815823
 11
299.0037539036
 21
118.7056520827
  0
LINE
  8
0
 62
7
  6
CONTINUOUS
 10
303.5336114035
 20
118.7056520827
 11
304.2642040286
 21
115.7832815823
  0
LINE
  8
0
 62
7
  6
CONTINUOUS
 10
305.2731612785
 20
139.8474525825
 11
306.0037539036
 21
136.9250820821
  0
LINE
  8
0
 62
7
  6
CONTINUOUS
 10
303.5336114035
 20
118.7056520827
 11
303.5186826536
 21
118.8269198952
  0
LINE
  8
0
 62
7
  6
CONTINUOUS
 10
305.2686826536
 20
144.1153670824
 11
305.2686826536
 21
139.8838329263
  0
LINE
  8
0
 62
7
  6
CONTINUOUS
 10
306.0186826536
 20
136.8038142696
 11
306.0186826536
 21
132.1653670824
  0
LINE
  8
0
 62
7
  6
CONTINUOUS
 10
310.5186826536
 20
136.8038142696
 11
310.5186826536
 21
132.6653670824
  0
LINE
  8
0
 62
7
  6
CONTINUOUS
 10
311.2686826536
 20
144.1153670824
 11
311.2686826536
 21
139.8838329263
  0
LINE
  8
0
 62
7
  6
CONTINUOUS
 10
312.7686826536
 20
111.794901997
 11
312.7686826536
 21
115.7469012386
  0
LINE
  8
0
 62
7
  6
CONTINUOUS
 10
313.5186826536
 20
124.6653670824
 11
313.5186826536
 21
118.8269198952
  0
LINE
  8
0
 62
7
  6
CONTINUOUS
 10
310.5186826536
 20
136.8038142696
 11
310.5336114035
 21
136.9250820821
  0
LINE
  8
0
 62
7
  6
CONTINUOUS
 10
313.5186826536
 20
118.8269198952
 11
313.5037539036
 21
118.7056520827
  0
LINE
  8
0
 62
7
  6
CONTINUOUS
 10
311.2642040286
 20
139.8474525825
 11
310.5336114035
 21
136.9250820821
  0
LINE
  8
0
 62
7
  6
CONTINUOUS
 10
312.7731612785
 20
115.7832815823
 11
313.5037539036
 21
118.7056520827
  0
LINE
  8
0
 62
7
  6
CONTINUOUS
 10
337.1360174563
 20
132.8422540121
 11
336.5486826536
 21
133.6253670824
  0
LINE
  8
0
 62
7
  6
CONTINUOUS
 10
318.7642040286
 20
115.7832815823
 11
318.0336114035
 21
118.7056520827
  0
LINE
  8
0
 62
7
  6
CONTINUOUS
 10
306.0037539036
 20
136.9250820821
 11
306.0186826536
 21
136.8038142696
  0
LINE
  8
0
 62
7
  6
CONTINUOUS
 10
318.0186826536
 20
124.5153670824
 11
318.0186826536
 21
118.8269198952
  0
LINE
  8
0
 62
7
  6
CONTINUOUS
 10
318.7686826536
 20
115.7469012386
 11
318.7686826536
 21
111.794901997
  0
LINE
  8
0
 62
7
  6
CONTINUOUS
 10
320.2686826536
 20
144.1153670824
 11
320.2686826536
 21
139.8838329263
  0
LINE
  8
0
 62
7
  6
CONTINUOUS
 10
321.0186826536
 20
136.8038142696
 11
321.0186826536
 21
132.6653670824
  0
LINE
  8
0
 62
7
  6
CONTINUOUS
 10
325.5186826536
 20
136.8038142696
 11
325.5336114035
 21
136.9250820821
  0
LINE
  8
0
 62
7
  6
CONTINUOUS
 10
326.2642040286
 20
139.8474525825
 11
325.5336114035
 21
136.9250820821
  0
LINE
  8
0
 62
7
  6
CONTINUOUS
 10
320.2731612785
 20
139.8474525825
 11
321.0037539036
 21
136.9250820821
  0
LINE
  8
0
 62
7
  6
CONTINUOUS
 10
318.0336114035
 20
118.7056520827
 11
318.0186826536
 21
118.8269198952
  0
LINE
  8
0
 62
7
  6
CONTINUOUS
 10
321.0037539036
 20
136.9250820821
 11
321.0186826536
 21
136.8038142696
  0
LINE
  8
0
 62
7
  6
CONTINUOUS
 10
325.5186826536
 20
136.8038142696
 11
325.5186826536
 21
132.5653670824
  0
LINE
  8
0
 62
7
  6
CONTINUOUS
 10
326.2686826536
 20
144.1153670824
 11
326.2686826536
 21
139.8838329263
  0
LINE
  8
0
 62
7
  6
CONTINUOUS
 10
328.3936826536
 20
111.766598146
 11
328.3936826536
 21
115.7469012386
  0
LINE
  8
0
 62
7
  6
CONTINUOUS
 10
329.1436826536
 20
123.5153670824
 11
329.1436826536
 21
118.8269198952
  0
LINE
  8
0
 62
7
  6
CONTINUOUS
 10
333.6436826536
 20
122.1068636998
 11
333.6436826536
 21
118.8269198952
  0
LINE
  8
0
 62
7
  6
CONTINUOUS
 10
334.3936826536
 20
115.7469012386
 11
334.3936826536
 21
111.766598146
  0
LINE
  8
0
 62
7
  6
CONTINUOUS
 10
336.5186826536
 20
144.3603359517
 11
336.5186826536
 21
133.7153670824
  0
LINE
  8
0
 62
7
  6
CONTINUOUS
 10
341.7686826536
 20
142.8058407955
 11
341.7686826536
 21
131.3659896971
  0
LINE
  8
0
 62
7
  6
CONTINUOUS
 10
329.1436826536
 20
118.8269198952
 11
329.1287539036
 21
118.7056520827
  0
LINE
  8
0
 62
7
  6
CONTINUOUS
 10
328.3981612785
 20
115.7832815823
 11
329.1287539036
 21
118.7056520827
  0
LINE
  8
0
 62
7
  6
CONTINUOUS
 10
333.6586114035
 20
118.7056520827
 11
334.3892040286
 21
115.7832815823
  0
LINE
  8
0
 62
7
  6
CONTINUOUS
 10
333.6586114035
 20
118.7056520827
 11
333.6436826536
 21
118.8269198952
  0
LINE
  8
0
 62
7
  6
CONTINUOUS
 10
371.6079152249
 20
110.7653670824
 11
375.6079152249
 21
110.7653670824
  0
LINE
  8
PLAN
 62
2
  6
CENTER
 10
378.8579152249
 20
115.1153670824
 11
375.6080152249
 21
115.1153670824
  0
LINE
  8
PLAN
 62
2
  6
CONTINUOUS
 10
374.6579152249
 20
115.1153670824
 11
372.5579152249
 21
115.1153670824
  0
LINE
  8
PLAN
 62
2
  6
CENTER
 10
368.3579152249
 20
115.1153670824
 11
371.6078152249
 21
115.1153670824
  0
LINE
  8
DEFAULT_2
 62
8
  6
HIDDEN
 10
367.7507323159
 20
113.7060550961
 11
367.7507510185
 21
113.705987886
  0
LINE
  8
0
 62
7
  6
CONTINUOUS
 10
367.7477017741
 20
113.7170253665
 11
367.7504969499
 21
113.7069010077
  0
LINE
  8
0
 62
7
  6
CONTINUOUS
 10
367.7435113267
 20
113.7325423098
 11
367.7477017741
 21
113.7170253665
  0
LINE
  8
DEFAULT_2
 62
8
  6
HIDDEN
 10
367.7435113267
 20
113.7325423098
 11
367.745106153
 21
113.7265981529
  0
LINE
  8
0
 62
7
  6
CONTINUOUS
 10
367.7396235282
 20
113.7472407461
 11
367.7435113267
 21
113.7325423098
  0
LINE
  8
0
 62
7
  6
CONTINUOUS
 10
367.7348169131
 20
113.7657569127
 11
367.7396235282
 21
113.7472407461
  0
LINE
  8
0
 62
7
  6
CONTINUOUS
 10
367.7290963511
 20
113.7882456583
 11
367.7348169131
 21
113.7657569127
  0
LINE
  8
0
 62
7
  6
CONTINUOUS
 10
367.7224714753
 20
113.8149041304
 11
367.7290963511
 21
113.7882456583
  0
LINE
  8
DEFAULT_2
 62
8
  6
HIDDEN
 10
367.7183779143
 20
113.8317613941
 11
367.7188288436
 21
113.829888386
  0
LINE
  8
DEFAULT_2
 62
8
  6
HIDDEN
 10
367.7224714753
 20
113.8149041304
 11
367.723614225
 21
113.8102537601
  0
LINE
  8
DEFAULT_2
 62
8
  6
HIDDEN
 10
367.7149865661
 20
113.8459783193
 11
367.7183779143
 21
113.8317613941
  0
LINE
  8
DEFAULT_2
 62
8
  6
HIDDEN
 10
368.2001416369
 20
143.1666766571
 11
368.0557612934
 21
142.8626503919
  0
LINE
  8
DEFAULT_2
 62
8
  6
HIDDEN
 10
367.7109578499
 20
113.8631858048
 11
367.7127225384
 21
113.8556047338
  0
LINE
  8
DEFAULT_2
 62
8
  6
HIDDEN
 10
367.6866517524
 20
113.9755949161
 11
367.6884117261
 21
113.9668937476
  0
LINE
  8
DEFAULT_2
 62
8
  6
HIDDEN
 10
367.6931987392
 20
113.9437098721
 11
367.6936082934
 21
113.941756855
  0
POLYLINE
  8
0
 62
7
  6
CONTINUOUS
 66
1
 70
0
  0
VERTEX
  8
0
 62
7
  6
CONTINUOUS
 10
367.6735495066
 20
114.0437206566
  0
VERTEX
  8
0
 62
7
  6
CONTINUOUS
 10
367.6785643427
 20
114.0169021205
  0
VERTEX
  8
0
 62
7
  6
CONTINUOUS
 10
367.6835243988
 20
113.9913019908
  0
VERTEX
  8
0
 62
7
  6
CONTINUOUS
 10
367.6884117261
 20
113.9668937476
  0
VERTEX
  8
0
 62
7
  6
CONTINUOUS
 10
367.6931987392
 20
113.9437098721
  0
VERTEX
  8
0
 62
7
  6
CONTINUOUS
 10
367.6978613731
 20
113.9217690896
  0
VERTEX
  8
0
 62
7
  6
CONTINUOUS
 10
367.7023838857
 20
113.9010534544
  0
VERTEX
  8
0
 62
7
  6
CONTINUOUS
 10
367.7067532441
 20
113.8815355326
  0
VERTEX
  8
0
 62
7
  6
CONTINUOUS
 10
367.7109578499
 20
113.8631858048
  0
VERTEX
  8
0
 62
7
  6
CONTINUOUS
 10
367.7149865661
 20
113.8459783193
  0
VERTEX
  8
0
 62
7
  6
CONTINUOUS
 10
367.7224714753
 20
113.8149041304
  0
SEQEND
  0
LINE
  8
DEFAULT_2
 62
8
  6
HIDDEN
 10
367.6722453405
 20
114.0508567229
 11
367.6735495066
 21
114.0437206566
  0
LINE
  8
DEFAULT_2
 62
8
  6
HIDDEN
 10
367.6785011835
 20
114.0173552302
 11
367.6795066655
 21
114.0119706405
  0
LINE
  8
0
 62
7
  6
CONTINUOUS
 10
367.6634421016
 20
114.1011353424
 11
367.6735495066
 21
114.0437206566
  0
LINE
  8
DEFAULT_2
 62
8
  6
HIDDEN
 10
367.6629523851
 20
114.1041122902
 11
367.6657565395
 21
114.0877082802
  0
LINE
  8
0
 62
7
  6
CONTINUOUS
 10
367.6576472709
 20
114.1364706772
 11
367.6649283326
 21
114.0923599111
  0
LINE
  8
0
 62
7
  6
CONTINUOUS
 10
367.6485175532
 20
114.1968069041
 11
367.6534275739
 21
114.1635975946
  0
LINE
  8
0
 62
7
  6
CONTINUOUS
 10
367.6246523504
 20
114.3998187387
 11
367.6304506058
 21
114.3413663313
  0
LINE
  8
DEFAULT_2
 62
8
  6
HIDDEN
 10
367.6302149027
 20
114.3435812986
 11
367.630450608
 21
114.3413663094
  0
LINE
  8
0
 62
7
  6
CONTINUOUS
 10
367.6224098391
 20
114.4252720345
 11
367.6261679116
 21
114.3837247159
  0
LINE
  8
0
 62
7
  6
CONTINUOUS
 10
367.6189844524
 20
114.4682079213
 11
367.6246523504
 21
114.3998187387
  0
LINE
  8
DEFAULT_2
 62
8
  6
HIDDEN
 10
367.6133082233
 20
114.5581784593
 11
367.6145220351
 21
114.5370883603
  0
LINE
  8
0
 62
7
  6
CONTINUOUS
 10
367.6145220351
 20
114.5370883603
 11
367.6159368395
 21
114.5125059945
  0
POLYLINE
  8
0
 62
7
  6
CONTINUOUS
 66
1
 70
0
  0
VERTEX
  8
0
 62
7
  6
CONTINUOUS
 10
368.0557524497
 20
142.8626540111
  0
VERTEX
  8
0
 62
7
  6
CONTINUOUS
 10
367.7733488732
 20
141.9829388928
  0
VERTEX
  8
0
 62
7
  6
CONTINUOUS
 10
367.679536941
 20
141.5043682963
  0
VERTEX
  8
0
 62
7
  6
CONTINUOUS
 10
367.6079152249
 20
140.5750553062
  0
SEQEND
  0
POLYLINE
  8
0
 62
7
  6
CONTINUOUS
 66
1
 70
0
  0
VERTEX
  8
0
 62
7
  6
CONTINUOUS
 10
367.643489571
 20
114.2329843298
  0
VERTEX
  8
0
 62
7
  6
CONTINUOUS
 10
367.650475814
 20
114.1832951194
  0
VERTEX
  8
0
 62
7
  6
CONTINUOUS
 10
367.6584107413
 20
114.1317205829
  0
SEQEND
  0
LINE
  8
0
 62
7
  6
CONTINUOUS
 10
367.6367755779
 20
114.285691265
 11
367.6437082461
 21
114.231387851
  0
LINE
  8
0
 62
7
  6
CONTINUOUS
 10
367.6345173009
 20
114.304785179
 11
367.6390296275
 21
114.2673769452
  0
LINE
  8
0
 62
7
  6
CONTINUOUS
 10
367.6302149027
 20
114.3435812986
 11
367.6367755779
 21
114.285691265
  0
POLYLINE
  8
0
 62
7
  6
CONTINUOUS
 66
1
 70
0
  0
VERTEX
  8
0
 62
7
  6
CONTINUOUS
 10
367.6116417857
 20
114.5925315845
  0
VERTEX
  8
0
 62
7
  6
CONTINUOUS
 10
367.6151079781
 20
114.5254181852
  0
VERTEX
  8
0
 62
7
  6
CONTINUOUS
 10
367.6194894821
 20
114.4611989157
  0
SEQEND
  0
LINE
  8
DEFAULT_2
 62
8
  6
HIDDEN
 10
367.6111429042
 20
114.60523069
 11
367.6133082233
 21
114.5581784593
  0
LINE
  8
DEFAULT_2
 62
8
  6
HIDDEN
 10
367.608400851
 20
114.7034130699
 11
367.6094898439
 21
114.653649187
  0
LINE
  8
DEFAULT_2
 62
8
  6
HIDDEN
 10
367.6079302282
 20
114.7544957941
 11
367.6084008509
 21
114.7034130776
  0
POLYLINE
  8
0
 62
7
  6
CONTINUOUS
 66
1
 70
0
  0
VERTEX
  8
0
 62
7
  6
CONTINUOUS
 10
367.6079731447
 20
114.7498375157
  0
VERTEX
  8
0
 62
7
  6
CONTINUOUS
 10
367.6080270447
 20
114.7353810473
  0
VERTEX
  8
0
 62
7
  6
CONTINUOUS
 10
367.6092321106
 20
114.6625445408
  0
VERTEX
  8
0
 62
7
  6
CONTINUOUS
 10
367.6116417857
 20
114.5925315845
  0
SEQEND
  0
LINE
  8
DEFAULT_2
 62
8
  6
HIDDEN
 10
367.6079152249
 20
114.7653670824
 11
367.6079731447
 21
114.7498375157
  0
LINE
  8
0
 62
7
  6
CONTINUOUS
 10
367.6079152249
 20
114.7653670824
 11
367.6079152249
 21
140.8653670824
  0
LINE
  8
DEFAULT_2
 62
8
  6
HIDDEN
 10
379.4579152249
 20
127.131377571
 11
373.6079152249
 21
127.131377571
  0
LINE
  8
DEFAULT_2
 62
8
  6
HIDDEN
 10
379.4579152249
 20
127.3653670824
 11
367.7579152249
 21
127.3653670824
  0
LINE
  8
DEFAULT_2
 62
8
  6
HIDDEN
 10
379.4579152249
 20
127.5153670824
 11
367.7579152249
 21
127.5153670824
  0
LINE
  8
DEFAULT_2
 62
8
  6
HIDDEN
 10
379.4579152249
 20
128.0653670824
 11
367.7579152249
 21
128.0653670824
  0
LINE
  8
DEFAULT_2
 62
8
  6
HIDDEN
 10
379.4579152249
 20
128.1653670824
 11
367.7579152249
 21
128.1653670824
  0
LINE
  8
DEFAULT_2
 62
8
  6
HIDDEN
 10
379.4579152249
 20
128.3153670824
 11
367.7579152249
 21
128.3153670824
  0
LINE
  8
DEFAULT_2
 62
8
  6
HIDDEN
 10
367.7579152249
 20
128.5153670824
 11
379.4579152249
 21
128.5153670824
  0
LINE
  8
0
 62
7
  6
CONTINUOUS
 10
371.5079152249
 20
115.1153670824
 11
371.5079152249
 21
123.1653670824
  0
LINE
  8
PLAN
 62
2
  6
CENTER
 10
373.6079152249
 20
145.7653670824
 11
373.6079152249
 21
142.5154670824
  0
LINE
  8
PLAN
 62
2
  6
CONTINUOUS
 10
373.6079152249
 20
141.5653670824
 11
373.6079152249
 21
139.4653670824
  0
LINE
  8
PLAN
 62
2
  6
CENTER
 10
373.6079152249
 20
120.3653670824
 11
373.6079152249
 21
117.1154670824
  0
LINE
  8
PLAN
 62
2
  6
CONTINUOUS
 10
373.6079152249
 20
116.1653670824
 11
373.6079152249
 21
114.0653670824
  0
LINE
  8
PLAN
 62
2
  6
CENTER
 10
373.6079152249
 20
109.8653670824
 11
373.6079152249
 21
113.1152670824
  0
LINE
  8
PLAN
 62
2
  6
CENTER
 10
373.6079152249
 20
135.2653670824
 11
373.6079152249
 21
138.5152670824
  0
LINE
  8
DEFAULT_2
 62
8
  6
HIDDEN
 10
375.6107044324
 20
139.8838329263
 11
375.5988673139
 21
139.8474525825
  0
LINE
  8
DEFAULT_2
 62
8
  6
HIDDEN
 10
371.6169631359
 20
139.8474525825
 11
371.6051260174
 21
139.8838329263
  0
LINE
  8
0
 62
7
  6
CONTINUOUS
 10
375.7079152249
 20
115.1153670824
 11
375.7079152249
 21
123.1653670824
  0
LINE
  8
DEFAULT_2
 62
8
  6
HIDDEN
 10
379.5971766671
 20
139.4354917067
 11
379.5956460266
 21
139.4627039064
  0
POLYLINE
  8
0
 62
7
  6
CONTINUOUS
 66
1
 70
0
  0
VERTEX
  8
0
 62
7
  6
CONTINUOUS
 10
379.6079152239
 20
139.0583141045
  0
VERTEX
  8
0
 62
7
  6
CONTINUOUS
 10
379.5956460266
 20
139.4627039064
  0
VERTEX
  8
0
 62
7
  6
CONTINUOUS
 10
379.5601642497
 20
139.8920221938
  0
VERTEX
  8
0
 62
7
  6
CONTINUOUS
 10
379.5052676491
 20
140.3289184935
  0
VERTEX
  8
0
 62
7
  6
CONTINUOUS
 10
379.4336926392
 20
140.7716648049
  0
VERTEX
  8
0
 62
7
  6
CONTINUOUS
 10
379.3468831342
 20
141.2218505597
  0
VERTEX
  8
0
 62
7
  6
CONTINUOUS
 10
379.2979577199
 20
141.4507426992
  0
VERTEX
  8
0
 62
7
  6
CONTINUOUS
 10
379.1901211718
 20
141.91400799
  0
VERTEX
  8
0
 62
7
  6
CONTINUOUS
 10
379.0702085969
 20
142.3822449969
  0
VERTEX
  8
0
 62
7
  6
CONTINUOUS
 10
378.9401518101
 20
142.8511531536
  0
VERTEX
  8
0
 62
7
  6
CONTINUOUS
 10
378.8020689986
 20
143.3162942603
  0
SEQEND
  0
LINE
  8
0
 62
7
  6
CONTINUOUS
 10
379.6079152249
 20
114.7653670824
 11
379.6079152249
 21
140.8653670824
  0
LINE
  8
DEFAULT_2
 62
8
  6
HIDDEN
 10
379.5641232071
 20
139.8538020929
 11
379.5601642497
 21
139.8920221938
  0
LINE
  8
PLAN
 62
2
  6
CENTER
 10
378.8579152249
 20
140.5153670824
 11
375.6080152249
 21
140.5153670824
  0
LINE
  8
PLAN
 62
2
  6
CONTINUOUS
 10
374.6579152249
 20
140.5153670824
 11
372.5579152249
 21
140.5153670824
  0
LINE
  8
PLAN
 62
2
  6
CENTER
 10
368.3579152249
 20
140.5153670824
 11
371.6078152249
 21
140.5153670824
  0
LINE
  8
0
 62
7
  6
CONTINUOUS
 10
378.803936979
 20
143.3101894917
 11
378.6714241499
 21
143.7323047498
  0
LINE
  8
DEFAULT_2
 62
8
  6
HIDDEN
 10
378.9435393601
 20
142.8393562092
 11
378.9401518101
 21
142.8511531536
  0
LINE
  8
DEFAULT_2
 62
8
  6
HIDDEN
 10
379.0747894294
 20
142.3650657955
 11
379.0702085969
 21
142.3822449969
  0
LINE
  8
DEFAULT_2
 62
8
  6
HIDDEN
 10
379.195562156
 20
141.8917295467
 11
379.1901211718
 21
141.91400799
  0
LINE
  8
DEFAULT_2
 62
8
  6
HIDDEN
 10
379.3039720121
 20
141.4233460409
 11
379.2979577199
 21
141.4507426992
  0
LINE
  8
DEFAULT_2
 62
8
  6
HIDDEN
 10
379.35306524
 20
141.1918639444
 11
379.3468831342
 21
141.2218505597
  0
LINE
  8
DEFAULT_2
 62
8
  6
HIDDEN
 10
379.4399230701
 20
140.736392532
 11
379.4336926392
 21
140.7716648049
  0
LINE
  8
DEFAULT_2
 62
8
  6
HIDDEN
 10
379.5108549822
 20
140.2898398805
 11
379.5052676491
 21
140.3289184935
  0
LINE
  8
DEFAULT_2
 62
8
  6
HIDDEN
 10
378.6543503903
 20
143.7682186514
 11
378.6713316689
 21
143.7325956373
  0
POLYLINE
  8
0
 62
7
  6
CONTINUOUS
 66
1
 70
0
  0
VERTEX
  8
0
 62
7
  6
CONTINUOUS
 10
378.6713328544
 20
143.732591973
  0
VERTEX
  8
0
 62
7
  6
CONTINUOUS
 10
378.6658227101
 20
143.7470364226
  0
VERTEX
  8
0
 62
7
  6
CONTINUOUS
 10
378.6489739911
 20
143.7759418287
  0
SEQEND
  0
POLYLINE
  8
0
 62
7
  6
CONTINUOUS
 66
1
 70
0
  0
VERTEX
  8
0
 62
7
  6
CONTINUOUS
 10
378.6489330318
 20
143.7759853344
  0
VERTEX
  8
0
 62
7
  6
CONTINUOUS
 10
378.4880674398
 20
143.9773467069
  0
VERTEX
  8
0
 62
7
  6
CONTINUOUS
 10
378.0347450248
 20
144.4224419243
  0
SEQEND
  0
LINE
  8
DEFAULT_2
 62
8
  6
HIDDEN
 10
378.6489693899
 20
143.7759480133
 11
378.6543503903
 21
143.7682186514
  0
LINE
  8
DEFAULT_2
 62
8
  6
HIDDEN
 10
375.6079152249
 20
144.8653670824
 11
371.6079152249
 21
144.8653670824
  0
LINE
  8
DEFAULT_2
 62
8
  6
HIDDEN
 10
377.1641641443
 20
144.9570471422
 11
377.1543848398
 21
144.961855847
  0
LINE
  8
DEFAULT_2
 62
8
  6
HIDDEN
 10
378.0318192717
 20
144.4253137088
 11
377.473183124
 21
144.8050955363
  0
POLYLINE
  8
0
 62
7
  6
CONTINUOUS
 66
1
 70
0
  0
VERTEX
  8
0
 62
7
  6
CONTINUOUS
 10
378.0379344612
 20
144.420259177
  0
VERTEX
  8
0
 62
7
  6
CONTINUOUS
 10
377.4859545073
 20
144.7980164421
  0
VERTEX
  8
0
 62
7
  6
CONTINUOUS
 10
377.1641641443
 20
144.9570471422
  0
SEQEND
  0
LINE
  8
DEFAULT_2
 62
8
  6
HIDDEN
 10
378.0347450248
 20
144.4224419243
 11
378.0318192717
 21
144.4253137088
  0
LINE
  8
DEFAULT_2
 62
8
  6
HIDDEN
 10
371.7995771121
 20
145.3058584589
 11
371.5639910555
 21
145.2936893555
  0
POLYLINE
  8
0
 62
7
  6
CONTINUOUS
 66
1
 70
0
  0
VERTEX
  8
0
 62
7
  6
CONTINUOUS
 10
371.5639910555
 20
145.2936893555
  0
VERTEX
  8
0
 62
7
  6
CONTINUOUS
 10
371.2866209164
 20
145.2793619121
  0
VERTEX
  8
0
 62
7
  6
CONTINUOUS
 10
370.582995772
 20
145.1466667341
  0
VERTEX
  8
0
 62
7
  6
CONTINUOUS
 10
369.9686760764
 20
144.9199495645
  0
VERTEX
  8
0
 62
7
  6
CONTINUOUS
 10
369.4354586001
 20
144.6153206911
  0
VERTEX
  8
0
 62
7
  6
CONTINUOUS
 10
368.9691385509
 20
144.2340797037
  0
VERTEX
  8
0
 62
7
  6
CONTINUOUS
 10
368.577716217
 20
143.7904986347
  0
VERTEX
  8
0
 62
7
  6
CONTINUOUS
 10
368.2661917708
 20
143.3057605174
  0
VERTEX
  8
0
 62
7
  6
CONTINUOUS
 10
368.2001416369
 20
143.1666766571
  0
SEQEND
  0
POLYLINE
  8
0
 62
7
  6
CONTINUOUS
 66
1
 70
0
  0
VERTEX
  8
0
 62
7
  6
CONTINUOUS
 10
371.7925923839
 20
145.3058569552
  0
VERTEX
  8
0
 62
7
  6
CONTINUOUS
 10
371.641498446
 20
145.3034311087
  0
VERTEX
  8
0
 62
7
  6
CONTINUOUS
 10
370.7682458223
 20
145.1936736853
  0
VERTEX
  8
0
 62
7
  6
CONTINUOUS
 10
370.0698207729
 20
144.9653807321
  0
VERTEX
  8
0
 62
7
  6
CONTINUOUS
 10
369.4850882305
 20
144.6488539197
  0
VERTEX
  8
0
 62
7
  6
CONTINUOUS
 10
369.2284101721
 20
144.4618429262
  0
VERTEX
  8
0
 62
7
  6
CONTINUOUS
 10
368.7830952615
 20
144.0407871197
  0
VERTEX
  8
0
 62
7
  6
CONTINUOUS
 10
368.424468291
 20
143.5711411276
  0
VERTEX
  8
0
 62
7
  6
CONTINUOUS
 10
368.147559194
 20
143.0718696891
  0
VERTEX
  8
0
 62
7
  6
CONTINUOUS
 10
368.0557612936
 20
142.8626503918
  0
SEQEND
  0
LINE
  8
0
 62
7
  6
CONTINUOUS
 10
375.434936786
 20
145.3058148502
 11
371.7968169353
 21
145.3058407955
  0
LINE
  8
DEFAULT_2
 62
8
  6
HIDDEN
 10
376.4326170536
 20
145.1964881394
 11
375.5683921629
 21
145.3035984953
  0
LINE
  8
DEFAULT_2
 62
8
  6
HIDDEN
 10
377.1543848398
 20
144.961855847
 11
376.4326170536
 21
145.1964881394
  0
POLYLINE
  8
0
 62
7
  6
CONTINUOUS
 66
1
 70
0
  0
VERTEX
  8
0
 62
7
  6
CONTINUOUS
 10
377.1690472218
 20
144.9554385775
  0
VERTEX
  8
0
 62
7
  6
CONTINUOUS
 10
376.4477083102
 20
145.1930592884
  0
VERTEX
  8
0
 62
7
  6
CONTINUOUS
 10
375.5845678252
 20
145.3030858788
  0
VERTEX
  8
0
 62
7
  6
CONTINUOUS
 10
375.4349010604
 20
145.3058122642
  0
SEQEND
  0
ARC
  8
0
 62
7
  6
CONTINUOUS
 10
63.8286826536
 20
186.1324939682
 40
0.15
 50
180.0
 51
270.0
  0
ARC
  8
0
 62
7
  6
CONTINUOUS
 10
72.1086826536
 20
186.1324939682
 40
0.15
 50
270.0
 51
360.0
  0
ARC
  8
0
 62
7
  6
CONTINUOUS
 10
42.1186826536
 20
186.1324939682
 40
0.15
 50
180.0
 51
270.0
  0
ARC
  8
0
 62
7
  6
CONTINUOUS
 10
80.2186826536
 20
186.7324939682
 40
0.75
 50
180.0
 51
270.0
  0
ARC
  8
0
 62
7
  6
CONTINUOUS
 10
107.0686826536
 20
186.7324939682
 40
0.75
 50
180.0
 51
270.0
  0
ARC
  8
0
 62
7
  6
CONTINUOUS
 10
93.9686826536
 20
186.7324939682
 40
0.75
 50
180.0
 51
270.0
  0
ARC
  8
0
 62
7
  6
CONTINUOUS
 10
98.4686826536
 20
186.7324939682
 40
0.75
 50
270.0
 51
360.0
  0
ARC
  8
0
 62
7
  6
CONTINUOUS
 10
111.5686826536
 20
186.7324939682
 40
0.75
 50
270.0
 51
360.0
  0
ARC
  8
0
 62
7
  6
CONTINUOUS
 10
84.7186826536
 20
186.7324939682
 40
0.75
 50
270.0
 51
360.0
  0
ARC
  8
0
 62
7
  6
CONTINUOUS
 10
54.5936826536
 20
186.7324939682
 40
0.75
 50
270.0
 51
360.0
  0
ARC
  8
0
 62
7
  6
CONTINUOUS
 10
50.0936826536
 20
186.7324939682
 40
0.75
 50
180.0
 51
270.0
  0
ARC
  8
0
 62
7
  6
CONTINUOUS
 10
119.7686826536
 20
186.7324939682
 40
0.75
 50
180.0
 51
270.0
  0
ARC
  8
0
 62
7
  6
CONTINUOUS
 10
136.9686826536
 20
186.7324939682
 40
0.75
 50
270.0
 51
360.0
  0
ARC
  8
0
 62
7
  6
CONTINUOUS
 10
132.4686826536
 20
186.7324939682
 40
0.75
 50
180.0
 51
270.0
  0
ARC
  8
0
 62
7
  6
CONTINUOUS
 10
149.6686826536
 20
186.7324939682
 40
0.75
 50
270.0
 51
360.0
  0
ARC
  8
0
 62
7
  6
CONTINUOUS
 10
145.1686826536
 20
186.7324939682
 40
0.75
 50
180.0
 51
270.0
  0
ARC
  8
0
 62
7
  6
CONTINUOUS
 10
124.2686826536
 20
186.7324939682
 40
0.75
 50
270.0
 51
360.0
  0
ARC
  8
0
 62
7
  6
CONTINUOUS
 10
162.3686826536
 20
186.7324939682
 40
0.75
 50
270.0
 51
360.0
  0
ARC
  8
0
 62
7
  6
CONTINUOUS
 10
157.8686826536
 20
186.7324939682
 40
0.75
 50
180.0
 51
270.0
  0
ARC
  8
0
 62
7
  6
CONTINUOUS
 10
175.0686826536
 20
186.7324939682
 40
0.75
 50
270.0
 51
360.0
  0
ARC
  8
0
 62
7
  6
CONTINUOUS
 10
170.5686826536
 20
186.7324939682
 40
0.75
 50
180.0
 51
270.0
  0
ARC
  8
0
 62
7
  6
CONTINUOUS
 10
187.7686826536
 20
186.7324939682
 40
0.75
 50
270.0
 51
360.0
  0
ARC
  8
0
 62
7
  6
CONTINUOUS
 10
183.2686826536
 20
186.7324939682
 40
0.75
 50
180.0
 51
270.0
  0
ARC
  8
0
 62
7
  6
CONTINUOUS
 10
42.1186826536
 20
196.8633748516
 40
0.15
 50
103.0918930643
 51
180.0
  0
ARC
  8
0
 62
7
  6
CONTINUOUS
 10
70.2186826536
 20
197.2324939682
 40
0.75
 50
0.0
 51
90.0
  0
ARC
  8
0
 62
7
  6
CONTINUOUS
 10
50.0936826536
 20
197.2324939682
 40
0.75
 50
90.0
 51
180.0
  0
ARC
  8
0
 62
7
  6
CONTINUOUS
 10
54.5936826536
 20
197.2324939682
 40
0.75
 50
0.0
 51
90.0
  0
ARC
  8
0
 62
7
  6
CONTINUOUS
 10
65.7186826536
 20
197.2324939682
 40
0.75
 50
90.0
 51
180.0
  0
ARC
  8
0
 62
7
  6
CONTINUOUS
 10
98.4686826536
 20
197.2324939682
 40
0.75
 50
0.0
 51
90.0
  0
ARC
  8
0
 62
7
  6
CONTINUOUS
 10
111.5686826536
 20
197.2324939682
 40
0.75
 50
0.0
 51
90.0
  0
ARC
  8
0
 62
7
  6
CONTINUOUS
 10
93.9686826536
 20
197.2324939682
 40
0.75
 50
90.0
 51
180.0
  0
ARC
  8
0
 62
7
  6
CONTINUOUS
 10
84.7186826536
 20
197.2324939682
 40
0.75
 50
0.0
 51
90.0
  0
ARC
  8
0
 62
7
  6
CONTINUOUS
 10
80.2186826536
 20
197.2324939682
 40
0.75
 50
90.0
 51
180.0
  0
ARC
  8
0
 62
7
  6
CONTINUOUS
 10
107.0686826536
 20
197.2324939682
 40
0.75
 50
90.0
 51
180.0
  0
ARC
  8
0
 62
7
  6
CONTINUOUS
 10
46.2858948552
 20
197.8324939682
 40
0.15
 50
90.0
 51
103.0918930643
  0
ARC
  8
0
 62
7
  6
CONTINUOUS
 10
124.2686826536
 20
197.2324939682
 40
0.75
 50
0.0
 51
90.0
  0
ARC
  8
0
 62
7
  6
CONTINUOUS
 10
136.9686826536
 20
197.2324939682
 40
0.75
 50
0.0
 51
90.0
  0
ARC
  8
0
 62
7
  6
CONTINUOUS
 10
149.6686826536
 20
197.2324939682
 40
0.75
 50
0.0
 51
90.0
  0
ARC
  8
0
 62
7
  6
CONTINUOUS
 10
162.3686826536
 20
197.2324939682
 40
0.75
 50
0.0
 51
90.0
  0
ARC
  8
0
 62
7
  6
CONTINUOUS
 10
175.0686826536
 20
197.2324939682
 40
0.75
 50
0.0
 51
90.0
  0
ARC
  8
0
 62
7
  6
CONTINUOUS
 10
187.7686826536
 20
197.2324939682
 40
0.75
 50
0.0
 51
90.0
  0
ARC
  8
0
 62
7
  6
CONTINUOUS
 10
183.2686826536
 20
197.2324939682
 40
0.75
 50
90.0
 51
180.0
  0
ARC
  8
0
 62
7
  6
CONTINUOUS
 10
170.5686826536
 20
197.2324939682
 40
0.75
 50
90.0
 51
180.0
  0
ARC
  8
0
 62
7
  6
CONTINUOUS
 10
157.8686826536
 20
197.2324939682
 40
0.75
 50
90.0
 51
180.0
  0
ARC
  8
0
 62
7
  6
CONTINUOUS
 10
145.1686826536
 20
197.2324939682
 40
0.75
 50
90.0
 51
180.0
  0
ARC
  8
0
 62
7
  6
CONTINUOUS
 10
132.4686826536
 20
197.2324939682
 40
0.75
 50
90.0
 51
180.0
  0
ARC
  8
0
 62
7
  6
CONTINUOUS
 10
119.7686826536
 20
197.2324939682
 40
0.75
 50
90.0
 51
180.0
  0
ARC
  8
0
 62
7
  6
CONTINUOUS
 10
263.9686826536
 20
186.7324939682
 40
0.75
 50
270.0
 51
360.0
  0
ARC
  8
0
 62
7
  6
CONTINUOUS
 10
238.5686826536
 20
186.7324939682
 40
0.75
 50
270.0
 51
360.0
  0
ARC
  8
0
 62
7
  6
CONTINUOUS
 10
225.8686826536
 20
186.7324939682
 40
0.75
 50
270.0
 51
360.0
  0
ARC
  8
0
 62
7
  6
CONTINUOUS
 10
213.1686826536
 20
186.7324939682
 40
0.75
 50
270.0
 51
360.0
  0
ARC
  8
0
 62
7
  6
CONTINUOUS
 10
246.7686826536
 20
186.7324939682
 40
0.75
 50
180.0
 51
270.0
  0
ARC
  8
0
 62
7
  6
CONTINUOUS
 10
195.9686826536
 20
186.7324939682
 40
0.75
 50
180.0
 51
270.0
  0
ARC
  8
0
 62
7
  6
CONTINUOUS
 10
208.6686826536
 20
186.7324939682
 40
0.75
 50
180.0
 51
270.0
  0
ARC
  8
0
 62
7
  6
CONTINUOUS
 10
221.3686826536
 20
186.7324939682
 40
0.75
 50
180.0
 51
270.0
  0
ARC
  8
0
 62
7
  6
CONTINUOUS
 10
200.4686826536
 20
186.7324939682
 40
0.75
 50
270.0
 51
360.0
  0
ARC
  8
0
 62
7
  6
CONTINUOUS
 10
234.0686826536
 20
186.7324939682
 40
0.75
 50
180.0
 51
270.0
  0
ARC
  8
0
 62
7
  6
CONTINUOUS
 10
259.4686826536
 20
186.7324939682
 40
0.75
 50
180.0
 51
270.0
  0
ARC
  8
0
 62
7
  6
CONTINUOUS
 10
251.2686826536
 20
186.7324939682
 40
0.75
 50
270.0
 51
360.0
  0
ARC
  8
0
 62
7
  6
CONTINUOUS
 10
311.6286826536
 20
186.1324939682
 40
0.15
 50
180.0
 51
270.0
  0
ARC
  8
0
 62
7
  6
CONTINUOUS
 10
319.9086826536
 20
186.1324939682
 40
0.15
 50
270.0
 51
360.0
  0
ARC
  8
0
 62
7
  6
CONTINUOUS
 10
341.6186826536
 20
186.1324939682
 40
0.15
 50
270.0
 51
360.0
  0
ARC
  8
0
 62
7
  6
CONTINUOUS
 10
276.6686826536
 20
186.7324939682
 40
0.75
 50
270.0
 51
360.0
  0
ARC
  8
0
 62
7
  6
CONTINUOUS
 10
285.2686826536
 20
186.7324939682
 40
0.75
 50
180.0
 51
270.0
  0
ARC
  8
0
 62
7
  6
CONTINUOUS
 10
272.1686826536
 20
186.7324939682
 40
0.75
 50
180.0
 51
270.0
  0
ARC
  8
0
 62
7
  6
CONTINUOUS
 10
289.7686826536
 20
186.7324939682
 40
0.75
 50
270.0
 51
360.0
  0
ARC
  8
0
 62
7
  6
CONTINUOUS
 10
303.5186826536
 20
186.7324939682
 40
0.75
 50
270.0
 51
360.0
  0
ARC
  8
0
 62
7
  6
CONTINUOUS
 10
299.0186826536
 20
186.7324939682
 40
0.75
 50
180.0
 51
270.0
  0
ARC
  8
0
 62
7
  6
CONTINUOUS
 10
333.6436826536
 20
186.7324939682
 40
0.75
 50
270.0
 51
360.0
  0
ARC
  8
0
 62
7
  6
CONTINUOUS
 10
329.1436826536
 20
186.7324939682
 40
0.75
 50
180.0
 51
270.0
  0
ARC
  8
0
 62
7
  6
CONTINUOUS
 10
251.2686826536
 20
197.2324939682
 40
0.75
 50
0.0
 51
90.0
  0
ARC
  8
0
 62
7
  6
CONTINUOUS
 10
263.9686826536
 20
197.2324939682
 40
0.75
 50
0.0
 51
90.0
  0
ARC
  8
0
 62
7
  6
CONTINUOUS
 10
200.4686826536
 20
197.2324939682
 40
0.75
 50
0.0
 51
90.0
  0
ARC
  8
0
 62
7
  6
CONTINUOUS
 10
213.1686826536
 20
197.2324939682
 40
0.75
 50
0.0
 51
90.0
  0
ARC
  8
0
 62
7
  6
CONTINUOUS
 10
225.8686826536
 20
197.2324939682
 40
0.75
 50
0.0
 51
90.0
  0
ARC
  8
0
 62
7
  6
CONTINUOUS
 10
238.5686826536
 20
197.2324939682
 40
0.75
 50
0.0
 51
90.0
  0
ARC
  8
0
 62
7
  6
CONTINUOUS
 10
234.0686826536
 20
197.2324939682
 40
0.75
 50
90.0
 51
180.0
  0
ARC
  8
0
 62
7
  6
CONTINUOUS
 10
221.3686826536
 20
197.2324939682
 40
0.75
 50
90.0
 51
180.0
  0
ARC
  8
0
 62
7
  6
CONTINUOUS
 10
246.7686826536
 20
197.2324939682
 40
0.75
 50
90.0
 51
180.0
  0
ARC
  8
0
 62
7
  6
CONTINUOUS
 10
259.4686826536
 20
197.2324939682
 40
0.75
 50
90.0
 51
180.0
  0
ARC
  8
0
 62
7
  6
CONTINUOUS
 10
208.6686826536
 20
197.2324939682
 40
0.75
 50
90.0
 51
180.0
  0
ARC
  8
0
 62
7
  6
CONTINUOUS
 10
195.9686826536
 20
197.2324939682
 40
0.75
 50
90.0
 51
180.0
  0
ARC
  8
0
 62
7
  6
CONTINUOUS
 10
289.7686826536
 20
197.2324939682
 40
0.75
 50
0.0
 51
90.0
  0
ARC
  8
0
 62
7
  6
CONTINUOUS
 10
303.5186826536
 20
197.2324939682
 40
0.75
 50
0.0
 51
90.0
  0
ARC
  8
0
 62
7
  6
CONTINUOUS
 10
276.6686826536
 20
197.2324939682
 40
0.75
 50
0.0
 51
90.0
  0
ARC
  8
0
 62
7
  6
CONTINUOUS
 10
285.2686826536
 20
197.2324939682
 40
0.75
 50
90.0
 51
180.0
  0
ARC
  8
0
 62
7
  6
CONTINUOUS
 10
299.0186826536
 20
197.2324939682
 40
0.75
 50
90.0
 51
180.0
  0
ARC
  8
0
 62
7
  6
CONTINUOUS
 10
272.1686826536
 20
197.2324939682
 40
0.75
 50
90.0
 51
180.0
  0
ARC
  8
0
 62
7
  6
CONTINUOUS
 10
341.6186826536
 20
196.8633748516
 40
0.15
 50
0.0
 51
76.9081069357
  0
ARC
  8
0
 62
7
  6
CONTINUOUS
 10
318.0186826536
 20
197.2324939682
 40
0.75
 50
0.0
 51
90.0
  0
ARC
  8
0
 62
7
  6
CONTINUOUS
 10
313.5186826536
 20
197.2324939682
 40
0.75
 50
90.0
 51
180.0
  0
ARC
  8
0
 62
7
  6
CONTINUOUS
 10
329.1436826536
 20
197.2324939682
 40
0.75
 50
90.0
 51
180.0
  0
ARC
  8
0
 62
7
  6
CONTINUOUS
 10
333.6436826536
 20
197.2324939682
 40
0.75
 50
0.0
 51
90.0
  0
ARC
  8
0
 62
7
  6
CONTINUOUS
 10
337.4514704519
 20
197.8324939682
 40
0.15
 50
76.9081069356
 51
90.0
  0
ARC
  8
0
 62
7
  6
CONTINUOUS
 10
54.8436826536
 20
111.766598146
 40
0.5
 50
304.8303536935
 51
360.0
  0
ARC
  8
0
 62
7
  6
CONTINUOUS
 10
49.8436826536
 20
111.766598146
 40
0.5
 50
180.0
 51
235.1696466527
  0
ARC
  8
0
 62
7
  6
CONTINUOUS
 10
53.2170656217
 20
114.1553670824
 40
3.39
 50
270.0
 51
304.1832626614
  0
ARC
  8
0
 62
7
  6
CONTINUOUS
 10
51.4702996854
 20
114.1553670824
 40
3.39
 50
235.8165364841
 51
270.0
  0
ARC
  8
0
 62
7
  6
CONTINUOUS
 10
64.8186826536
 20
113.4851186544
 40
0.15
 50
0.0
 51
77.3977351585
  0
ARC
  8
0
 62
7
  6
CONTINUOUS
 10
70.4686826536
 20
111.794901997
 40
0.5
 50
300.0554705128
 51
360.0
  0
ARC
  8
0
 62
7
  6
CONTINUOUS
 10
79.9686826536
 20
111.794901997
 40
0.5
 50
180.0
 51
239.9445295657
  0
ARC
  8
0
 62
7
  6
CONTINUOUS
 10
65.4686826536
 20
111.794901997
 40
0.5
 50
180.0
 51
239.9445295409
  0
ARC
  8
0
 62
7
  6
CONTINUOUS
 10
71.1186826536
 20
113.4851186544
 40
0.15
 50
102.6022648415
 51
180.0
  0
ARC
  8
0
 62
7
  6
CONTINUOUS
 10
67.4686826536
 20
115.3070337491
 40
4.5416666667
 50
240.3404462268
 51
270.0
  0
ARC
  8
0
 62
7
  6
CONTINUOUS
 10
68.4686826536
 20
115.3070337491
 40
4.5416666667
 50
270.0
 51
299.6595537732
  0
ARC
  8
0
 62
7
  6
CONTINUOUS
 10
70.7586826536
 20
115.0953670824
 40
1.5
 50
282.6022648415
 51
85.8042132223
  0
ARC
  8
0
 62
7
  6
CONTINUOUS
 10
65.1786826536
 20
115.0953670824
 40
1.5
 50
94.1957867777
 51
257.3977351585
  0
ARC
  8
0
 62
7
  6
CONTINUOUS
 10
70.8794046722
 20
116.7409448516
 40
0.15
 50
194.0362434679
 51
265.8042132222
  0
ARC
  8
0
 62
7
  6
CONTINUOUS
 10
65.0579606349
 20
116.7409448516
 40
0.15
 50
274.1957867778
 51
345.9637565319
  0
ARC
  8
0
 62
7
  6
CONTINUOUS
 10
49.4936826536
 20
115.7469012386
 40
0.15
 50
165.9637565321
 51
180.0
  0
ARC
  8
0
 62
7
  6
CONTINUOUS
 10
55.1936826536
 20
115.7469012386
 40
0.15
 50
0.0
 51
14.0362434679
  0
ARC
  8
0
 62
7
  6
CONTINUOUS
 10
70.8186826536
 20
115.7469012386
 40
0.15
 50
0.0
 51
14.0362434679
  0
ARC
  8
0
 62
7
  6
CONTINUOUS
 10
79.6186826536
 20
115.7469012386
 40
0.15
 50
165.9637565321
 51
180.0
  0
ARC
  8
0
 62
7
  6
CONTINUOUS
 10
65.1186826536
 20
115.7469012386
 40
0.15
 50
165.9637565321
 51
180.0
  0
ARC
  8
0
 62
7
  6
CONTINUOUS
 10
84.9686826536
 20
111.794901997
 40
0.5
 50
300.0554704451
 51
360.0
  0
ARC
  8
0
 62
7
  6
CONTINUOUS
 10
93.7186826536
 20
111.794901997
 40
0.5
 50
180.0
 51
239.9445295703
  0
ARC
  8
0
 62
7
  6
CONTINUOUS
 10
98.7186826536
 20
111.794901997
 40
0.5
 50
300.0554704107
 51
360.0
  0
ARC
  8
0
 62
7
  6
CONTINUOUS
 10
111.8186826536
 20
112.3306351507
 40
0.5
 50
317.1039398275
 51
360.0
  0
ARC
  8
0
 62
7
  6
CONTINUOUS
 10
106.8186826536
 20
112.3306351507
 40
0.5
 50
180.0
 51
223.0008752289
  0
ARC
  8
0
 62
7
  6
CONTINUOUS
 10
96.7186826536
 20
115.3070337491
 40
4.5416666667
 50
270.0
 51
299.6595537732
  0
ARC
  8
0
 62
7
  6
CONTINUOUS
 10
95.7186826536
 20
115.3070337491
 40
4.5416666667
 50
240.3404462268
 51
270.0
  0
ARC
  8
0
 62
7
  6
CONTINUOUS
 10
81.9686826536
 20
115.3070337491
 40
4.5416666667
 50
240.3404462268
 51
270.0
  0
ARC
  8
0
 62
7
  6
CONTINUOUS
 10
82.9686826536
 20
115.3070337491
 40
4.5416666667
 50
270.0
 51
299.6595537732
  0
ARC
  8
0
 62
7
  6
CONTINUOUS
 10
85.3186826536
 20
115.7469012386
 40
0.15
 50
0.0
 51
14.0362434679
  0
ARC
  8
0
 62
7
  6
CONTINUOUS
 10
93.3686826536
 20
115.7469012386
 40
0.15
 50
165.9637565321
 51
180.0
  0
ARC
  8
0
 62
7
  6
CONTINUOUS
 10
109.2686826536
 20
114.6153670824
 40
3.85
 50
223.0008752289
 51
270.0
  0
ARC
  8
0
 62
7
  6
CONTINUOUS
 10
109.3686826536
 20
114.6153670824
 40
3.85
 50
270.0
 51
316.9991247711
  0
ARC
  8
0
 62
7
  6
CONTINUOUS
 10
99.0686826536
 20
115.7469012386
 40
0.15
 50
0.0
 51
14.0362434679
  0
ARC
  8
0
 62
7
  6
CONTINUOUS
 10
106.4686826536
 20
115.7469012386
 40
0.15
 50
165.9637565321
 51
180.0
  0
ARC
  8
0
 62
7
  6
CONTINUOUS
 10
112.1686826536
 20
115.7469012386
 40
0.15
 50
0.0
 51
14.0362434679
  0
ARC
  8
0
 62
7
  6
CONTINUOUS
 10
49.5936826536
 20
118.8269198952
 40
0.5
 50
345.9637565321
 51
360.0
  0
ARC
  8
0
 62
7
  6
CONTINUOUS
 10
55.0936826536
 20
118.8269198952
 40
0.5
 50
180.0
 51
194.0362434679
  0
ARC
  8
0
 62
7
  6
CONTINUOUS
 10
70.7186826536
 20
118.8269198952
 40
0.5
 50
180.0
 51
194.0362434679
  0
ARC
  8
0
 62
7
  6
CONTINUOUS
 10
65.2186826536
 20
118.8269198952
 40
0.5
 50
345.9637565321
 51
360.0
  0
ARC
  8
0
 62
7
  6
CONTINUOUS
 10
44.0936826536
 20
122.1068636998
 40
6.0
 50
0.0
 51
70.0
  0
ARC
  8
0
 62
7
  6
CONTINUOUS
 10
58.5936826536
 20
123.5153670824
 40
4.0
 50
90.0
 51
180.0
  0
ARC
  8
0
 62
7
  6
CONTINUOUS
 10
62.7186826536
 20
124.5153670824
 40
3.0
 50
0.0
 51
90.0
  0
ARC
  8
0
 62
7
  6
CONTINUOUS
 10
72.9186826536
 20
124.6653670824
 40
2.7
 50
90.0
 51
180.0
  0
ARC
  8
0
 62
7
  6
CONTINUOUS
 10
77.5186826536
 20
124.6653670824
 40
2.7
 50
0.0
 51
90.0
  0
ARC
  8
0
 62
7
  6
CONTINUOUS
 10
98.9686826536
 20
118.8269198952
 40
0.5
 50
180.0
 51
194.0362434679
  0
ARC
  8
0
 62
7
  6
CONTINUOUS
 10
85.2186826536
 20
118.8269198952
 40
0.5
 50
180.0
 51
194.0362434679
  0
ARC
  8
0
 62
7
  6
CONTINUOUS
 10
93.4686826536
 20
118.8269198952
 40
0.5
 50
345.9637565321
 51
360.0
  0
ARC
  8
0
 62
7
  6
CONTINUOUS
 10
79.7186826536
 20
118.8269198952
 40
0.5
 50
345.9637565321
 51
360.0
  0
ARC
  8
0
 62
7
  6
CONTINUOUS
 10
106.5686826536
 20
118.8269198952
 40
0.5
 50
345.9637565321
 51
360.0
  0
ARC
  8
0
 62
7
  6
CONTINUOUS
 10
112.0686826536
 20
118.8269198952
 40
0.5
 50
180.0
 51
194.0362434679
  0
ARC
  8
0
 62
7
  6
CONTINUOUS
 10
87.4186826536
 20
124.6653670824
 40
2.7
 50
90.0
 51
180.0
  0
ARC
  8
0
 62
7
  6
CONTINUOUS
 10
91.2686826536
 20
124.6653670824
 40
2.7
 50
0.0
 51
90.0
  0
ARC
  8
0
 62
7
  6
CONTINUOUS
 10
100.9686826536
 20
124.631377571
 40
2.5
 50
90.0
 51
180.0
  0
ARC
  8
0
 62
7
  6
CONTINUOUS
 10
105.0686826536
 20
125.131377571
 40
2.0
 50
0.0
 51
90.0
  0
ARC
  8
0
 62
7
  6
CONTINUOUS
 10
113.5686826536
 20
125.131377571
 40
2.0
 50
90.0
 51
180.0
  0
ARC
  8
0
 62
7
  6
CONTINUOUS
 10
149.9186826536
 20
112.3306351507
 40
0.5
 50
317.1039393456
 51
360.0
  0
ARC
  8
0
 62
7
  6
CONTINUOUS
 10
137.2186826536
 20
112.3306351507
 40
0.5
 50
317.1039398813
 51
360.0
  0
ARC
  8
0
 62
7
  6
CONTINUOUS
 10
124.5186826536
 20
112.3306351507
 40
0.5
 50
317.1039403601
 51
360.0
  0
ARC
  8
0
 62
7
  6
CONTINUOUS
 10
144.9186826536
 20
112.3306351507
 40
0.5
 50
180.0
 51
223.0008752289
  0
ARC
  8
0
 62
7
  6
CONTINUOUS
 10
132.2186826536
 20
112.3306351507
 40
0.5
 50
180.0
 51
223.0008752289
  0
ARC
  8
0
 62
7
  6
CONTINUOUS
 10
119.5186826536
 20
112.3306351507
 40
0.5
 50
180.0
 51
223.0008752289
  0
ARC
  8
0
 62
7
  6
CONTINUOUS
 10
134.6686826536
 20
114.6153670824
 40
3.85
 50
223.0008752289
 51
270.0
  0
ARC
  8
0
 62
7
  6
CONTINUOUS
 10
121.9686826536
 20
114.6153670824
 40
3.85
 50
223.0008752289
 51
270.0
  0
ARC
  8
0
 62
7
  6
CONTINUOUS
 10
122.0686826536
 20
114.6153670824
 40
3.85
 50
270.0
 51
316.9991247711
  0
ARC
  8
0
 62
7
  6
CONTINUOUS
 10
119.1686826536
 20
115.7469012386
 40
0.15
 50
165.9637565321
 51
180.0
  0
ARC
  8
0
 62
7
  6
CONTINUOUS
 10
131.8686826536
 20
115.7469012386
 40
0.15
 50
165.9637565321
 51
180.0
  0
ARC
  8
0
 62
7
  6
CONTINUOUS
 10
124.8686826536
 20
115.7469012386
 40
0.15
 50
0.0
 51
14.0362434679
  0
ARC
  8
0
 62
7
  6
CONTINUOUS
 10
147.3686826536
 20
114.6153670824
 40
3.85
 50
223.0008752289
 51
270.0
  0
ARC
  8
0
 62
7
  6
CONTINUOUS
 10
147.4686826536
 20
114.6153670824
 40
3.85
 50
270.0
 51
316.9991247711
  0
ARC
  8
0
 62
7
  6
CONTINUOUS
 10
134.7686826536
 20
114.6153670824
 40
3.85
 50
270.0
 51
316.9991247711
  0
ARC
  8
0
 62
7
  6
CONTINUOUS
 10
150.2686826536
 20
115.7469012386
 40
0.15
 50
0.0
 51
14.0362434679
  0
ARC
  8
0
 62
7
  6
CONTINUOUS
 10
144.5686826536
 20
115.7469012386
 40
0.15
 50
165.9637565321
 51
180.0
  0
ARC
  8
0
 62
7
  6
CONTINUOUS
 10
137.5686826536
 20
115.7469012386
 40
0.15
 50
0.0
 51
14.0362434679
  0
ARC
  8
0
 62
7
  6
CONTINUOUS
 10
188.0186826536
 20
112.3306351507
 40
0.5
 50
317.1039395939
 51
360.0
  0
ARC
  8
0
 62
7
  6
CONTINUOUS
 10
175.3186826536
 20
112.3306351507
 40
0.5
 50
317.1039396777
 51
360.0
  0
ARC
  8
0
 62
7
  6
CONTINUOUS
 10
162.6186826536
 20
112.3306351507
 40
0.5
 50
317.1039394424
 51
360.0
  0
ARC
  8
0
 62
7
  6
CONTINUOUS
 10
183.0186826536
 20
112.3306351507
 40
0.5
 50
180.0
 51
223.0008752289
  0
ARC
  8
0
 62
7
  6
CONTINUOUS
 10
170.3186826536
 20
112.3306351507
 40
0.5
 50
180.0
 51
223.0008752289
  0
ARC
  8
0
 62
7
  6
CONTINUOUS
 10
157.6186826536
 20
112.3306351507
 40
0.5
 50
180.0
 51
223.0008752289
  0
ARC
  8
0
 62
7
  6
CONTINUOUS
 10
172.7686826536
 20
114.6153670824
 40
3.85
 50
223.0008752289
 51
270.0
  0
ARC
  8
0
 62
7
  6
CONTINUOUS
 10
160.0686826536
 20
114.6153670824
 40
3.85
 50
223.0008752289
 51
270.0
  0
ARC
  8
0
 62
7
  6
CONTINUOUS
 10
160.1686826536
 20
114.6153670824
 40
3.85
 50
270.0
 51
316.9991247711
  0
ARC
  8
0
 62
7
  6
CONTINUOUS
 10
169.9686826536
 20
115.7469012386
 40
0.15
 50
165.9637565321
 51
180.0
  0
ARC
  8
0
 62
7
  6
CONTINUOUS
 10
162.9686826536
 20
115.7469012386
 40
0.15
 50
0.0
 51
14.0362434679
  0
ARC
  8
0
 62
7
  6
CONTINUOUS
 10
157.2686826536
 20
115.7469012386
 40
0.15
 50
165.9637565321
 51
180.0
  0
ARC
  8
0
 62
7
  6
CONTINUOUS
 10
185.4686826536
 20
114.6153670824
 40
3.85
 50
223.0008752289
 51
270.0
  0
ARC
  8
0
 62
7
  6
CONTINUOUS
 10
185.5686826536
 20
114.6153670824
 40
3.85
 50
270.0
 51
316.9991247711
  0
ARC
  8
0
 62
7
  6
CONTINUOUS
 10
172.8686826536
 20
114.6153670824
 40
3.85
 50
270.0
 51
316.9991247711
  0
ARC
  8
0
 62
7
  6
CONTINUOUS
 10
188.3686826536
 20
115.7469012386
 40
0.15
 50
0.0
 51
14.0362434679
  0
ARC
  8
0
 62
7
  6
CONTINUOUS
 10
182.6686826536
 20
115.7469012386
 40
0.15
 50
165.9637565321
 51
180.0
  0
ARC
  8
0
 62
7
  6
CONTINUOUS
 10
175.6686826536
 20
115.7469012386
 40
0.15
 50
0.0
 51
14.0362434679
  0
ARC
  8
0
 62
7
  6
CONTINUOUS
 10
189.7686826536
 20
125.131377571
 40
2.0
 50
90.0
 51
180.0
  0
ARC
  8
0
 62
7
  6
CONTINUOUS
 10
181.2686826536
 20
125.131377571
 40
2.0
 50
0.0
 51
90.0
  0
ARC
  8
0
 62
7
  6
CONTINUOUS
 10
177.0686826536
 20
125.131377571
 40
2.0
 50
90.0
 51
180.0
  0
ARC
  8
0
 62
7
  6
CONTINUOUS
 10
168.5686826536
 20
125.131377571
 40
2.0
 50
0.0
 51
90.0
  0
ARC
  8
0
 62
7
  6
CONTINUOUS
 10
164.3686826536
 20
125.131377571
 40
2.0
 50
90.0
 51
180.0
  0
ARC
  8
0
 62
7
  6
CONTINUOUS
 10
155.8686826536
 20
125.131377571
 40
2.0
 50
0.0
 51
90.0
  0
ARC
  8
0
 62
7
  6
CONTINUOUS
 10
151.6686826536
 20
125.131377571
 40
2.0
 50
90.0
 51
180.0
  0
ARC
  8
0
 62
7
  6
CONTINUOUS
 10
143.1686826536
 20
125.131377571
 40
2.0
 50
0.0
 51
90.0
  0
ARC
  8
0
 62
7
  6
CONTINUOUS
 10
117.7686826536
 20
125.131377571
 40
2.0
 50
0.0
 51
90.0
  0
ARC
  8
0
 62
7
  6
CONTINUOUS
 10
138.9686826536
 20
125.131377571
 40
2.0
 50
90.0
 51
180.0
  0
ARC
  8
0
 62
7
  6
CONTINUOUS
 10
130.4686826536
 20
125.131377571
 40
2.0
 50
0.0
 51
90.0
  0
ARC
  8
0
 62
7
  6
CONTINUOUS
 10
126.2686826536
 20
125.131377571
 40
2.0
 50
90.0
 51
180.0
  0
ARC
  8
0
 62
7
  6
CONTINUOUS
 10
188.2686826536
 20
118.8269198952
 40
0.5
 50
180.0
 51
194.0362434679
  0
ARC
  8
0
 62
7
  6
CONTINUOUS
 10
182.7686826536
 20
118.8269198952
 40
0.5
 50
345.9637565321
 51
360.0
  0
ARC
  8
0
 62
7
  6
CONTINUOUS
 10
170.0686826536
 20
118.8269198952
 40
0.5
 50
345.9637565321
 51
360.0
  0
ARC
  8
0
 62
7
  6
CONTINUOUS
 10
175.5686826536
 20
118.8269198952
 40
0.5
 50
180.0
 51
194.0362434679
  0
ARC
  8
0
 62
7
  6
CONTINUOUS
 10
162.8686826536
 20
118.8269198952
 40
0.5
 50
180.0
 51
194.0362434679
  0
ARC
  8
0
 62
7
  6
CONTINUOUS
 10
157.3686826536
 20
118.8269198952
 40
0.5
 50
345.9637565321
 51
360.0
  0
ARC
  8
0
 62
7
  6
CONTINUOUS
 10
150.1686826536
 20
118.8269198952
 40
0.5
 50
180.0
 51
194.0362434679
  0
ARC
  8
0
 62
7
  6
CONTINUOUS
 10
144.6686826536
 20
118.8269198952
 40
0.5
 50
345.9637565321
 51
360.0
  0
ARC
  8
0
 62
7
  6
CONTINUOUS
 10
119.2686826536
 20
118.8269198952
 40
0.5
 50
345.9637565321
 51
360.0
  0
ARC
  8
0
 62
7
  6
CONTINUOUS
 10
137.4686826536
 20
118.8269198952
 40
0.5
 50
180.0
 51
194.0362434679
  0
ARC
  8
0
 62
7
  6
CONTINUOUS
 10
131.9686826536
 20
118.8269198952
 40
0.5
 50
345.9637565321
 51
360.0
  0
ARC
  8
0
 62
7
  6
CONTINUOUS
 10
124.7686826536
 20
118.8269198952
 40
0.5
 50
180.0
 51
194.0362434679
  0
ARC
  8
0
 62
7
  6
CONTINUOUS
 10
44.9686826536
 20
131.3659896971
 40
3.0
 50
180.0
 51
250.0
  0
ARC
  8
0
 62
7
  6
CONTINUOUS
 10
51.9186826536
 20
133.5938996911
 40
5.5285326087
 50
192.0717067813
 51
270.0
  0
ARC
  8
0
 62
7
  6
CONTINUOUS
 10
53.7186826536
 20
132.5653670824
 40
4.5
 50
270.0
 51
360.0
  0
ARC
  8
0
 62
7
  6
CONTINUOUS
 10
47.0013478508
 20
132.5422540121
 40
0.5
 50
143.1301023542
 51
192.0717067813
  0
ARC
  8
0
 62
7
  6
CONTINUOUS
 10
47.0686826536
 20
133.7153670824
 40
0.15
 50
323.1301023541
 51
360.0
  0
ARC
  8
0
 62
7
  6
CONTINUOUS
 10
67.2186826536
 20
132.6653670824
 40
4.5
 50
180.0
 51
270.0
  0
ARC
  8
0
 62
7
  6
CONTINUOUS
 10
68.7186826536
 20
132.6653670824
 40
4.5
 50
270.0
 51
360.0
  0
ARC
  8
0
 62
7
  6
CONTINUOUS
 10
57.7186826536
 20
136.8038142696
 40
0.5
 50
0.0
 51
14.0362434679
  0
ARC
  8
0
 62
7
  6
CONTINUOUS
 10
63.2186826536
 20
136.8038142696
 40
0.5
 50
165.9637565321
 51
180.0
  0
ARC
  8
0
 62
7
  6
CONTINUOUS
 10
72.7186826536
 20
136.8038142696
 40
0.5
 50
0.0
 51
14.0362434679
  0
ARC
  8
0
 62
7
  6
CONTINUOUS
 10
78.2186826536
 20
136.8038142696
 40
0.5
 50
165.9637565321
 51
180.0
  0
ARC
  8
0
 62
7
  6
CONTINUOUS
 10
109.3186826536
 20
132.6153670824
 40
4.1
 50
180.0
 51
360.0
  0
ARC
  8
0
 62
7
  6
CONTINUOUS
 10
83.3686826536
 20
132.1653670824
 40
3.85
 50
270.0
 51
360.0
  0
ARC
  8
0
 62
7
  6
CONTINUOUS
 10
81.5686826536
 20
132.1653670824
 40
3.85
 50
180.0
 51
270.0
  0
ARC
  8
0
 62
7
  6
CONTINUOUS
 10
95.5686826536
 20
132.1653670824
 40
3.85
 50
180.0
 51
270.0
  0
ARC
  8
0
 62
7
  6
CONTINUOUS
 10
96.8686826536
 20
132.1653670824
 40
3.85
 50
270.0
 51
360.0
  0
ARC
  8
0
 62
7
  6
CONTINUOUS
 10
86.7186826536
 20
136.8038142696
 40
0.5
 50
0.0
 51
14.0362434679
  0
ARC
  8
0
 62
7
  6
CONTINUOUS
 10
92.2186826536
 20
136.8038142696
 40
0.5
 50
165.9637565321
 51
180.0
  0
ARC
  8
0
 62
7
  6
CONTINUOUS
 10
100.2186826536
 20
136.8038142696
 40
0.5
 50
0.0
 51
14.0362434679
  0
ARC
  8
0
 62
7
  6
CONTINUOUS
 10
105.7186826536
 20
136.8038142696
 40
0.5
 50
165.9637565321
 51
180.0
  0
ARC
  8
0
 62
7
  6
CONTINUOUS
 10
112.9186826536
 20
136.8038142696
 40
0.5
 50
0.0
 51
14.0362434679
  0
ARC
  8
0
 62
7
  6
CONTINUOUS
 10
44.4686826536
 20
142.8058407955
 40
2.5
 50
70.0
 51
180.0
  0
ARC
  8
0
 62
7
  6
CONTINUOUS
 10
91.7186826536
 20
144.1153670824
 40
0.75
 50
0.0
 51
90.0
  0
ARC
  8
0
 62
7
  6
CONTINUOUS
 10
77.7186826536
 20
144.1153670824
 40
0.75
 50
0.0
 51
90.0
  0
ARC
  8
0
 62
7
  6
CONTINUOUS
 10
105.2186826536
 20
144.1153670824
 40
0.75
 50
0.0
 51
90.0
  0
ARC
  8
0
 62
7
  6
CONTINUOUS
 10
62.7186826536
 20
144.1153670824
 40
0.75
 50
0.0
 51
90.0
  0
ARC
  8
0
 62
7
  6
CONTINUOUS
 10
87.2186826536
 20
144.1153670824
 40
0.75
 50
90.0
 51
180.0
  0
ARC
  8
0
 62
7
  6
CONTINUOUS
 10
58.2186826536
 20
144.1153670824
 40
0.75
 50
90.0
 51
180.0
  0
ARC
  8
0
 62
7
  6
CONTINUOUS
 10
100.7186826536
 20
144.1153670824
 40
0.75
 50
90.0
 51
180.0
  0
ARC
  8
0
 62
7
  6
CONTINUOUS
 10
73.2186826536
 20
144.1153670824
 40
0.75
 50
90.0
 51
180.0
  0
ARC
  8
0
 62
7
  6
CONTINUOUS
 10
113.4186826536
 20
144.1153670824
 40
0.75
 50
90.0
 51
180.0
  0
ARC
  8
0
 62
7
  6
CONTINUOUS
 10
86.6186826536
 20
139.8838329263
 40
0.15
 50
180.0
 51
194.0362434679
  0
ARC
  8
0
 62
7
  6
CONTINUOUS
 10
92.3186826536
 20
139.8838329263
 40
0.15
 50
345.9637565321
 51
360.0
  0
ARC
  8
0
 62
7
  6
CONTINUOUS
 10
57.6186826536
 20
139.8838329263
 40
0.15
 50
180.0
 51
194.0362434679
  0
ARC
  8
0
 62
7
  6
CONTINUOUS
 10
63.3186826536
 20
139.8838329263
 40
0.15
 50
345.9637565321
 51
360.0
  0
ARC
  8
0
 62
7
  6
CONTINUOUS
 10
47.0686826536
 20
144.3603359517
 40
0.15
 50
0.0
 51
70.0
  0
ARC
  8
0
 62
7
  6
CONTINUOUS
 10
72.6186826536
 20
139.8838329263
 40
0.15
 50
180.0
 51
194.0362434679
  0
ARC
  8
0
 62
7
  6
CONTINUOUS
 10
78.3186826536
 20
139.8838329263
 40
0.15
 50
345.9637565321
 51
360.0
  0
ARC
  8
0
 62
7
  6
CONTINUOUS
 10
100.1186826536
 20
139.8838329263
 40
0.15
 50
180.0
 51
194.0362434679
  0
ARC
  8
0
 62
7
  6
CONTINUOUS
 10
105.8186826536
 20
139.8838329263
 40
0.15
 50
345.9637565321
 51
360.0
  0
ARC
  8
0
 62
7
  6
CONTINUOUS
 10
112.8186826536
 20
139.8838329263
 40
0.15
 50
180.0
 51
194.0362434679
  0
ARC
  8
0
 62
7
  6
CONTINUOUS
 10
185.5186826536
 20
132.6153670824
 40
4.1
 50
180.0
 51
360.0
  0
ARC
  8
0
 62
7
  6
CONTINUOUS
 10
172.8186826536
 20
132.6153670824
 40
4.1
 50
180.0
 51
360.0
  0
ARC
  8
0
 62
7
  6
CONTINUOUS
 10
160.1186826536
 20
132.6153670824
 40
4.1
 50
180.0
 51
360.0
  0
ARC
  8
0
 62
7
  6
CONTINUOUS
 10
147.4186826536
 20
132.6153670824
 40
4.1
 50
180.0
 51
360.0
  0
ARC
  8
0
 62
7
  6
CONTINUOUS
 10
134.7186826536
 20
132.6153670824
 40
4.1
 50
180.0
 51
360.0
  0
ARC
  8
0
 62
7
  6
CONTINUOUS
 10
122.0186826536
 20
132.6153670824
 40
4.1
 50
180.0
 51
360.0
  0
ARC
  8
0
 62
7
  6
CONTINUOUS
 10
181.9186826536
 20
136.8038142696
 40
0.5
 50
165.9637565321
 51
180.0
  0
ARC
  8
0
 62
7
  6
CONTINUOUS
 10
189.1186826536
 20
136.8038142696
 40
0.5
 50
0.0
 51
14.0362434679
  0
ARC
  8
0
 62
7
  6
CONTINUOUS
 10
176.4186826536
 20
136.8038142696
 40
0.5
 50
0.0
 51
14.0362434679
  0
ARC
  8
0
 62
7
  6
CONTINUOUS
 10
169.2186826536
 20
136.8038142696
 40
0.5
 50
165.9637565321
 51
180.0
  0
ARC
  8
0
 62
7
  6
CONTINUOUS
 10
163.7186826536
 20
136.8038142696
 40
0.5
 50
0.0
 51
14.0362434679
  0
ARC
  8
0
 62
7
  6
CONTINUOUS
 10
156.5186826536
 20
136.8038142696
 40
0.5
 50
165.9637565321
 51
180.0
  0
ARC
  8
0
 62
7
  6
CONTINUOUS
 10
143.8186826536
 20
136.8038142696
 40
0.5
 50
165.9637565321
 51
180.0
  0
ARC
  8
0
 62
7
  6
CONTINUOUS
 10
151.0186826536
 20
136.8038142696
 40
0.5
 50
0.0
 51
14.0362434679
  0
ARC
  8
0
 62
7
  6
CONTINUOUS
 10
138.3186826536
 20
136.8038142696
 40
0.5
 50
0.0
 51
14.0362434679
  0
ARC
  8
0
 62
7
  6
CONTINUOUS
 10
131.1186826536
 20
136.8038142696
 40
0.5
 50
165.9637565321
 51
180.0
  0
ARC
  8
0
 62
7
  6
CONTINUOUS
 10
118.4186826536
 20
136.8038142696
 40
0.5
 50
165.9637565321
 51
180.0
  0
ARC
  8
0
 62
7
  6
CONTINUOUS
 10
125.6186826536
 20
136.8038142696
 40
0.5
 50
0.0
 51
14.0362434679
  0
ARC
  8
0
 62
7
  6
CONTINUOUS
 10
117.9186826536
 20
144.1153670824
 40
0.75
 50
0.0
 51
90.0
  0
ARC
  8
0
 62
7
  6
CONTINUOUS
 10
143.3186826536
 20
144.1153670824
 40
0.75
 50
0.0
 51
90.0
  0
ARC
  8
0
 62
7
  6
CONTINUOUS
 10
156.0186826536
 20
144.1153670824
 40
0.75
 50
0.0
 51
90.0
  0
ARC
  8
0
 62
7
  6
CONTINUOUS
 10
168.7186826536
 20
144.1153670824
 40
0.75
 50
0.0
 51
90.0
  0
ARC
  8
0
 62
7
  6
CONTINUOUS
 10
181.4186826536
 20
144.1153670824
 40
0.75
 50
0.0
 51
90.0
  0
ARC
  8
0
 62
7
  6
CONTINUOUS
 10
189.6186826536
 20
144.1153670824
 40
0.75
 50
90.0
 51
180.0
  0
ARC
  8
0
 62
7
  6
CONTINUOUS
 10
176.9186826536
 20
144.1153670824
 40
0.75
 50
90.0
 51
180.0
  0
ARC
  8
0
 62
7
  6
CONTINUOUS
 10
164.2186826536
 20
144.1153670824
 40
0.75
 50
90.0
 51
180.0
  0
ARC
  8
0
 62
7
  6
CONTINUOUS
 10
151.5186826536
 20
144.1153670824
 40
0.75
 50
90.0
 51
180.0
  0
ARC
  8
0
 62
7
  6
CONTINUOUS
 10
130.6186826536
 20
144.1153670824
 40
0.75
 50
0.0
 51
90.0
  0
ARC
  8
0
 62
7
  6
CONTINUOUS
 10
138.8186826536
 20
144.1153670824
 40
0.75
 50
90.0
 51
180.0
  0
ARC
  8
0
 62
7
  6
CONTINUOUS
 10
126.1186826536
 20
144.1153670824
 40
0.75
 50
90.0
 51
180.0
  0
ARC
  8
0
 62
7
  6
CONTINUOUS
 10
189.0186826536
 20
139.8838329263
 40
0.15
 50
180.0
 51
194.0362434679
  0
ARC
  8
0
 62
7
  6
CONTINUOUS
 10
182.0186826536
 20
139.8838329263
 40
0.15
 50
345.9637565321
 51
360.0
  0
ARC
  8
0
 62
7
  6
CONTINUOUS
 10
176.3186826536
 20
139.8838329263
 40
0.15
 50
180.0
 51
194.0362434679
  0
ARC
  8
0
 62
7
  6
CONTINUOUS
 10
169.3186826536
 20
139.8838329263
 40
0.15
 50
345.9637565321
 51
360.0
  0
ARC
  8
0
 62
7
  6
CONTINUOUS
 10
163.6186826536
 20
139.8838329263
 40
0.15
 50
180.0
 51
194.0362434679
  0
ARC
  8
0
 62
7
  6
CONTINUOUS
 10
156.6186826536
 20
139.8838329263
 40
0.15
 50
345.9637565321
 51
360.0
  0
ARC
  8
0
 62
7
  6
CONTINUOUS
 10
150.9186826536
 20
139.8838329263
 40
0.15
 50
180.0
 51
194.0362434679
  0
ARC
  8
0
 62
7
  6
CONTINUOUS
 10
143.9186826536
 20
139.8838329263
 40
0.15
 50
345.9637565321
 51
360.0
  0
ARC
  8
0
 62
7
  6
CONTINUOUS
 10
138.2186826536
 20
139.8838329263
 40
0.15
 50
180.0
 51
194.0362434679
  0
ARC
  8
0
 62
7
  6
CONTINUOUS
 10
131.2186826536
 20
139.8838329263
 40
0.15
 50
345.9637565321
 51
360.0
  0
ARC
  8
0
 62
7
  6
CONTINUOUS
 10
125.5186826536
 20
139.8838329263
 40
0.15
 50
180.0
 51
194.0362434679
  0
ARC
  8
0
 62
7
  6
CONTINUOUS
 10
118.5186826536
 20
139.8838329263
 40
0.15
 50
345.9637565321
 51
360.0
  0
ARC
  8
0
 62
7
  6
CONTINUOUS
 10
213.4186826536
 20
112.3306351507
 40
0.5
 50
317.0832439293
 51
360.0
  0
ARC
  8
0
 62
7
  6
CONTINUOUS
 10
226.1186826536
 20
112.3306351507
 40
0.5
 50
317.0832437486
 51
360.0
  0
ARC
  8
0
 62
7
  6
CONTINUOUS
 10
200.7186826536
 20
112.3306351507
 40
0.5
 50
317.0832437746
 51
360.0
  0
ARC
  8
0
 62
7
  6
CONTINUOUS
 10
195.7186826536
 20
112.3306351507
 40
0.5
 50
180.0
 51
223.0008752289
  0
ARC
  8
0
 62
7
  6
CONTINUOUS
 10
221.1186826536
 20
112.3306351507
 40
0.5
 50
180.0
 51
223.0008752289
  0
ARC
  8
0
 62
7
  6
CONTINUOUS
 10
208.4186826536
 20
112.3306351507
 40
0.5
 50
180.0
 51
223.0008752289
  0
ARC
  8
0
 62
7
  6
CONTINUOUS
 10
198.2686826536
 20
114.6153670824
 40
3.85
 50
270.0
 51
316.9991247711
  0
ARC
  8
0
 62
7
  6
CONTINUOUS
 10
198.1686826536
 20
114.6153670824
 40
3.85
 50
223.0008752289
 51
270.0
  0
ARC
  8
0
 62
7
  6
CONTINUOUS
 10
210.8686826536
 20
114.6153670824
 40
3.85
 50
223.0008752289
 51
270.0
  0
ARC
  8
0
 62
7
  6
CONTINUOUS
 10
201.0686826536
 20
115.7469012386
 40
0.15
 50
0.0
 51
14.0362434679
  0
ARC
  8
0
 62
7
  6
CONTINUOUS
 10
195.3686826536
 20
115.7469012386
 40
0.15
 50
165.9637565321
 51
180.0
  0
ARC
  8
0
 62
7
  6
CONTINUOUS
 10
208.0686826536
 20
115.7469012386
 40
0.15
 50
165.9637565321
 51
180.0
  0
ARC
  8
0
 62
7
  6
CONTINUOUS
 10
223.5686826536
 20
114.6153670824
 40
3.85
 50
223.0008752289
 51
270.0
  0
ARC
  8
0
 62
7
  6
CONTINUOUS
 10
223.6686826536
 20
114.6153670824
 40
3.85
 50
270.0
 51
316.9991247711
  0
ARC
  8
0
 62
7
  6
CONTINUOUS
 10
210.9686826536
 20
114.6153670824
 40
3.85
 50
270.0
 51
316.9991247711
  0
ARC
  8
0
 62
7
  6
CONTINUOUS
 10
220.7686826536
 20
115.7469012386
 40
0.15
 50
165.9637565321
 51
180.0
  0
ARC
  8
0
 62
7
  6
CONTINUOUS
 10
226.4686826536
 20
115.7469012386
 40
0.15
 50
0.0
 51
14.0362434679
  0
ARC
  8
0
 62
7
  6
CONTINUOUS
 10
213.7686826536
 20
115.7469012386
 40
0.15
 50
0.0
 51
14.0362434679
  0
ARC
  8
0
 62
7
  6
CONTINUOUS
 10
264.2186826536
 20
112.3306351507
 40
0.5
 50
317.0832438037
 51
360.0
  0
ARC
  8
0
 62
7
  6
CONTINUOUS
 10
238.8186826536
 20
112.3306351507
 40
0.5
 50
317.0832438888
 51
360.0
  0
ARC
  8
0
 62
7
  6
CONTINUOUS
 10
259.2186826536
 20
112.3306351507
 40
0.5
 50
180.0
 51
223.0008752289
  0
ARC
  8
0
 62
7
  6
CONTINUOUS
 10
246.5186826536
 20
112.3306351507
 40
0.5
 50
180.0
 51
223.0008752289
  0
ARC
  8
0
 62
7
  6
CONTINUOUS
 10
251.5186826536
 20
112.3306351507
 40
0.5
 50
317.0832438526
 51
360.0
  0
ARC
  8
0
 62
7
  6
CONTINUOUS
 10
233.8186826536
 20
112.3306351507
 40
0.5
 50
180.0
 51
223.0008752289
  0
ARC
  8
0
 62
7
  6
CONTINUOUS
 10
248.9686826536
 20
114.6153670824
 40
3.85
 50
223.0008752289
 51
270.0
  0
ARC
  8
0
 62
7
  6
CONTINUOUS
 10
236.3686826536
 20
114.6153670824
 40
3.85
 50
270.0
 51
316.9991247711
  0
ARC
  8
0
 62
7
  6
CONTINUOUS
 10
236.2686826536
 20
114.6153670824
 40
3.85
 50
223.0008752289
 51
270.0
  0
ARC
  8
0
 62
7
  6
CONTINUOUS
 10
246.1686826536
 20
115.7469012386
 40
0.15
 50
165.9637565321
 51
180.0
  0
ARC
  8
0
 62
7
  6
CONTINUOUS
 10
239.1686826536
 20
115.7469012386
 40
0.15
 50
0.0
 51
14.0362434679
  0
ARC
  8
0
 62
7
  6
CONTINUOUS
 10
233.4686826536
 20
115.7469012386
 40
0.15
 50
165.9637565321
 51
180.0
  0
ARC
  8
0
 62
7
  6
CONTINUOUS
 10
261.7686826536
 20
114.6153670824
 40
3.85
 50
270.0
 51
316.9991247711
  0
ARC
  8
0
 62
7
  6
CONTINUOUS
 10
261.6686826536
 20
114.6153670824
 40
3.85
 50
223.0008752289
 51
270.0
  0
ARC
  8
0
 62
7
  6
CONTINUOUS
 10
249.0686826536
 20
114.6153670824
 40
3.85
 50
270.0
 51
316.9991247711
  0
ARC
  8
0
 62
7
  6
CONTINUOUS
 10
251.8686826536
 20
115.7469012386
 40
0.15
 50
0.0
 51
14.0362434679
  0
ARC
  8
0
 62
7
  6
CONTINUOUS
 10
264.5686826536
 20
115.7469012386
 40
0.15
 50
0.0
 51
14.0362434679
  0
ARC
  8
0
 62
7
  6
CONTINUOUS
 10
258.8686826536
 20
115.7469012386
 40
0.15
 50
165.9637565321
 51
180.0
  0
ARC
  8
0
 62
7
  6
CONTINUOUS
 10
253.2686826536
 20
125.131377571
 40
2.0
 50
90.0
 51
180.0
  0
ARC
  8
0
 62
7
  6
CONTINUOUS
 10
244.7686826536
 20
125.131377571
 40
2.0
 50
0.0
 51
90.0
  0
ARC
  8
0
 62
7
  6
CONTINUOUS
 10
265.9686826536
 20
125.131377571
 40
2.0
 50
90.0
 51
180.0
  0
ARC
  8
0
 62
7
  6
CONTINUOUS
 10
257.4686826536
 20
125.131377571
 40
2.0
 50
0.0
 51
90.0
  0
ARC
  8
0
 62
7
  6
CONTINUOUS
 10
202.4686826536
 20
125.131377571
 40
2.0
 50
90.0
 51
180.0
  0
ARC
  8
0
 62
7
  6
CONTINUOUS
 10
193.9686826536
 20
125.131377571
 40
2.0
 50
0.0
 51
90.0
  0
ARC
  8
0
 62
7
  6
CONTINUOUS
 10
240.5686826536
 20
125.131377571
 40
2.0
 50
90.0
 51
180.0
  0
ARC
  8
0
 62
7
  6
CONTINUOUS
 10
232.0686826536
 20
125.131377571
 40
2.0
 50
0.0
 51
90.0
  0
ARC
  8
0
 62
7
  6
CONTINUOUS
 10
219.3686826536
 20
125.131377571
 40
2.0
 50
0.0
 51
90.0
  0
ARC
  8
0
 62
7
  6
CONTINUOUS
 10
227.8686826536
 20
125.131377571
 40
2.0
 50
90.0
 51
180.0
  0
ARC
  8
0
 62
7
  6
CONTINUOUS
 10
215.1686826536
 20
125.131377571
 40
2.0
 50
90.0
 51
180.0
  0
ARC
  8
0
 62
7
  6
CONTINUOUS
 10
206.6686826536
 20
125.131377571
 40
2.0
 50
0.0
 51
90.0
  0
ARC
  8
0
 62
7
  6
CONTINUOUS
 10
251.7686826536
 20
118.8269198952
 40
0.5
 50
180.0
 51
194.0362434679
  0
ARC
  8
0
 62
7
  6
CONTINUOUS
 10
246.2686826536
 20
118.8269198952
 40
0.5
 50
345.9637565321
 51
360.0
  0
ARC
  8
0
 62
7
  6
CONTINUOUS
 10
264.4686826536
 20
118.8269198952
 40
0.5
 50
180.0
 51
194.0362434679
  0
ARC
  8
0
 62
7
  6
CONTINUOUS
 10
258.9686826536
 20
118.8269198952
 40
0.5
 50
345.9637565321
 51
360.0
  0
ARC
  8
0
 62
7
  6
CONTINUOUS
 10
200.9686826536
 20
118.8269198952
 40
0.5
 50
180.0
 51
194.0362434679
  0
ARC
  8
0
 62
7
  6
CONTINUOUS
 10
195.4686826536
 20
118.8269198952
 40
0.5
 50
345.9637565321
 51
360.0
  0
ARC
  8
0
 62
7
  6
CONTINUOUS
 10
233.5686826536
 20
118.8269198952
 40
0.5
 50
345.9637565321
 51
360.0
  0
ARC
  8
0
 62
7
  6
CONTINUOUS
 10
239.0686826536
 20
118.8269198952
 40
0.5
 50
180.0
 51
194.0362434679
  0
ARC
  8
0
 62
7
  6
CONTINUOUS
 10
220.8686826536
 20
118.8269198952
 40
0.5
 50
345.9637565321
 51
360.0
  0
ARC
  8
0
 62
7
  6
CONTINUOUS
 10
226.3686826536
 20
118.8269198952
 40
0.5
 50
180.0
 51
194.0362434679
  0
ARC
  8
0
 62
7
  6
CONTINUOUS
 10
213.6686826536
 20
118.8269198952
 40
0.5
 50
180.0
 51
194.0362434679
  0
ARC
  8
0
 62
7
  6
CONTINUOUS
 10
208.1686826536
 20
118.8269198952
 40
0.5
 50
345.9637565321
 51
360.0
  0
ARC
  8
0
 62
7
  6
CONTINUOUS
 10
285.0186826536
 20
111.794901997
 40
0.5
 50
180.0
 51
239.9415875921
  0
ARC
  8
0
 62
7
  6
CONTINUOUS
 10
276.9186826536
 20
112.3306351507
 40
0.5
 50
317.0832438198
 51
360.0
  0
ARC
  8
0
 62
7
  6
CONTINUOUS
 10
271.9186826536
 20
112.3306351507
 40
0.5
 50
180.0
 51
223.0008752289
  0
ARC
  8
0
 62
7
  6
CONTINUOUS
 10
290.0186826536
 20
111.794901997
 40
0.5
 50
300.0584124094
 51
360.0
  0
ARC
  8
0
 62
7
  6
CONTINUOUS
 10
298.7686826536
 20
111.794901997
 40
0.5
 50
180.0
 51
239.9415875835
  0
ARC
  8
0
 62
7
  6
CONTINUOUS
 10
274.4686826536
 20
114.6153670824
 40
3.85
 50
270.0
 51
316.9991247711
  0
ARC
  8
0
 62
7
  6
CONTINUOUS
 10
274.3686826536
 20
114.6153670824
 40
3.85
 50
223.0008752289
 51
270.0
  0
ARC
  8
0
 62
7
  6
CONTINUOUS
 10
284.6686826536
 20
115.7469012386
 40
0.15
 50
165.9637565321
 51
180.0
  0
ARC
  8
0
 62
7
  6
CONTINUOUS
 10
277.2686826536
 20
115.7469012386
 40
0.15
 50
0.0
 51
14.0362434679
  0
ARC
  8
0
 62
7
  6
CONTINUOUS
 10
271.5686826536
 20
115.7469012386
 40
0.15
 50
165.9637565321
 51
180.0
  0
ARC
  8
0
 62
7
  6
CONTINUOUS
 10
288.0186826536
 20
115.3070337491
 40
4.5416666667
 50
270.0
 51
299.6595537732
  0
ARC
  8
0
 62
7
  6
CONTINUOUS
 10
300.7686826536
 20
115.3070337491
 40
4.5416666667
 50
240.3404462268
 51
270.0
  0
ARC
  8
0
 62
7
  6
CONTINUOUS
 10
301.7686826536
 20
115.3070337491
 40
4.5416666667
 50
270.0
 51
299.6595537732
  0
ARC
  8
0
 62
7
  6
CONTINUOUS
 10
287.0186826536
 20
115.3070337491
 40
4.5416666667
 50
240.3404462268
 51
270.0
  0
ARC
  8
0
 62
7
  6
CONTINUOUS
 10
298.4186826536
 20
115.7469012386
 40
0.15
 50
165.9637565321
 51
180.0
  0
ARC
  8
0
 62
7
  6
CONTINUOUS
 10
290.3686826536
 20
115.7469012386
 40
0.15
 50
0.0
 51
14.0362434679
  0
ARC
  8
0
 62
7
  6
CONTINUOUS
 10
303.7686826536
 20
111.794901997
 40
0.5
 50
300.0584124014
 51
360.0
  0
ARC
  8
0
 62
7
  6
CONTINUOUS
 10
318.2686826536
 20
111.794901997
 40
0.5
 50
300.0584124054
 51
360.0
  0
ARC
  8
0
 62
7
  6
CONTINUOUS
 10
313.2686826536
 20
111.794901997
 40
0.5
 50
180.0
 51
239.9415875918
  0
ARC
  8
0
 62
7
  6
CONTINUOUS
 10
312.6186826536
 20
113.4851186544
 40
0.15
 50
0.0
 51
77.3977351585
  0
ARC
  8
0
 62
7
  6
CONTINUOUS
 10
333.8936826536
 20
111.766598146
 40
0.5
 50
304.8558730129
 51
360.0
  0
ARC
  8
0
 62
7
  6
CONTINUOUS
 10
328.8936826536
 20
111.766598146
 40
0.5
 50
180.0
 51
235.1441268423
  0
ARC
  8
0
 62
7
  6
CONTINUOUS
 10
330.5202996854
 20
114.1553670824
 40
3.39
 50
235.8167326483
 51
270.0
  0
ARC
  8
0
 62
7
  6
CONTINUOUS
 10
332.2670656217
 20
114.1553670824
 40
3.39
 50
270.0
 51
304.1836473549
  0
ARC
  8
0
 62
7
  6
CONTINUOUS
 10
318.9186826536
 20
113.4851186544
 40
0.15
 50
102.6022648415
 51
180.0
  0
ARC
  8
0
 62
7
  6
CONTINUOUS
 10
315.2686826536
 20
115.3070337491
 40
4.5416666667
 50
240.3404462268
 51
270.0
  0
ARC
  8
0
 62
7
  6
CONTINUOUS
 10
316.2686826536
 20
115.3070337491
 40
4.5416666667
 50
270.0
 51
299.6595537732
  0
ARC
  8
0
 62
7
  6
CONTINUOUS
 10
318.5586826536
 20
115.0953670824
 40
1.5
 50
282.6022648415
 51
85.8042132223
  0
ARC
  8
0
 62
7
  6
CONTINUOUS
 10
312.9786826536
 20
115.0953670824
 40
1.5
 50
94.1957867777
 51
257.3977351585
  0
ARC
  8
0
 62
7
  6
CONTINUOUS
 10
312.8579606349
 20
116.7409448516
 40
0.15
 50
274.1957867777
 51
345.9637565321
  0
ARC
  8
0
 62
7
  6
CONTINUOUS
 10
318.6794046722
 20
116.7409448516
 40
0.15
 50
194.0362434679
 51
265.8042132223
  0
ARC
  8
0
 62
7
  6
CONTINUOUS
 10
334.2436826536
 20
115.7469012386
 40
0.15
 50
0.0
 51
14.0362434679
  0
ARC
  8
0
 62
7
  6
CONTINUOUS
 10
312.9186826536
 20
115.7469012386
 40
0.15
 50
165.9637565321
 51
180.0
  0
ARC
  8
0
 62
7
  6
CONTINUOUS
 10
328.5436826536
 20
115.7469012386
 40
0.15
 50
165.9637565321
 51
180.0
  0
ARC
  8
0
 62
7
  6
CONTINUOUS
 10
304.1186826536
 20
115.7469012386
 40
0.15
 50
0.0
 51
14.0362434679
  0
ARC
  8
0
 62
7
  6
CONTINUOUS
 10
318.6186826536
 20
115.7469012386
 40
0.15
 50
0.0
 51
14.0362434679
  0
ARC
  8
0
 62
7
  6
CONTINUOUS
 10
284.7686826536
 20
118.8269198952
 40
0.5
 50
345.9637565321
 51
360.0
  0
ARC
  8
0
 62
7
  6
CONTINUOUS
 10
298.5186826536
 20
118.8269198952
 40
0.5
 50
345.9637565321
 51
360.0
  0
ARC
  8
0
 62
7
  6
CONTINUOUS
 10
290.2686826536
 20
118.8269198952
 40
0.5
 50
180.0
 51
194.0362434679
  0
ARC
  8
0
 62
7
  6
CONTINUOUS
 10
304.0186826536
 20
118.8269198952
 40
0.5
 50
180.0
 51
194.0362434679
  0
ARC
  8
0
 62
7
  6
CONTINUOUS
 10
277.1686826536
 20
118.8269198952
 40
0.5
 50
180.0
 51
194.0362434679
  0
ARC
  8
0
 62
7
  6
CONTINUOUS
 10
271.6686826536
 20
118.8269198952
 40
0.5
 50
345.9637565321
 51
360.0
  0
ARC
  8
0
 62
7
  6
CONTINUOUS
 10
292.4686826536
 20
124.6653670824
 40
2.7
 50
90.0
 51
180.0
  0
ARC
  8
0
 62
7
  6
CONTINUOUS
 10
296.3186826536
 20
124.6653670824
 40
2.7
 50
0.0
 51
90.0
  0
ARC
  8
0
 62
7
  6
CONTINUOUS
 10
282.7686826536
 20
124.631377571
 40
2.5
 50
0.0
 51
90.0
  0
ARC
  8
0
 62
7
  6
CONTINUOUS
 10
278.6686826536
 20
125.131377571
 40
2.0
 50
90.0
 51
180.0
  0
ARC
  8
0
 62
7
  6
CONTINUOUS
 10
270.1686826536
 20
125.131377571
 40
2.0
 50
0.0
 51
90.0
  0
ARC
  8
0
 62
7
  6
CONTINUOUS
 10
334.1436826536
 20
118.8269198952
 40
0.5
 50
180.0
 51
194.0362434679
  0
ARC
  8
0
 62
7
  6
CONTINUOUS
 10
313.0186826536
 20
118.8269198952
 40
0.5
 50
345.9637565321
 51
360.0
  0
ARC
  8
0
 62
7
  6
CONTINUOUS
 10
328.6436826536
 20
118.8269198952
 40
0.5
 50
345.9637565321
 51
360.0
  0
ARC
  8
0
 62
7
  6
CONTINUOUS
 10
318.5186826536
 20
118.8269198952
 40
0.5
 50
180.0
 51
194.0362434679
  0
ARC
  8
0
 62
7
  6
CONTINUOUS
 10
321.0186826536
 20
124.5153670824
 40
3.0
 50
90.0
 51
180.0
  0
ARC
  8
0
 62
7
  6
CONTINUOUS
 10
306.2186826536
 20
124.6653670824
 40
2.7
 50
90.0
 51
180.0
  0
ARC
  8
0
 62
7
  6
CONTINUOUS
 10
310.8186826536
 20
124.6653670824
 40
2.7
 50
0.0
 51
90.0
  0
ARC
  8
0
 62
7
  6
CONTINUOUS
 10
339.6436826536
 20
122.1068636998
 40
6.0
 50
110.0
 51
180.0
  0
ARC
  8
0
 62
7
  6
CONTINUOUS
 10
325.1436826536
 20
123.5153670824
 40
4.0
 50
0.0
 51
90.0
  0
ARC
  8
0
 62
7
  6
CONTINUOUS
 10
249.0186826536
 20
132.6153670824
 40
4.1
 50
180.0
 51
360.0
  0
ARC
  8
0
 62
7
  6
CONTINUOUS
 10
261.7186826536
 20
132.6153670824
 40
4.1
 50
180.0
 51
360.0
  0
ARC
  8
0
 62
7
  6
CONTINUOUS
 10
236.3186826536
 20
132.6153670824
 40
4.1
 50
180.0
 51
360.0
  0
ARC
  8
0
 62
7
  6
CONTINUOUS
 10
198.2186826536
 20
132.6153670824
 40
4.1
 50
180.0
 51
360.0
  0
ARC
  8
0
 62
7
  6
CONTINUOUS
 10
223.6186826536
 20
132.6153670824
 40
4.1
 50
180.0
 51
360.0
  0
ARC
  8
0
 62
7
  6
CONTINUOUS
 10
210.9186826536
 20
132.6153670824
 40
4.1
 50
180.0
 51
360.0
  0
ARC
  8
0
 62
7
  6
CONTINUOUS
 10
252.6186826536
 20
136.8038142696
 40
0.5
 50
0.0
 51
14.0362434679
  0
ARC
  8
0
 62
7
  6
CONTINUOUS
 10
245.4186826536
 20
136.8038142696
 40
0.5
 50
165.9637565321
 51
180.0
  0
ARC
  8
0
 62
7
  6
CONTINUOUS
 10
265.3186826536
 20
136.8038142696
 40
0.5
 50
0.0
 51
14.0362434679
  0
ARC
  8
0
 62
7
  6
CONTINUOUS
 10
258.1186826536
 20
136.8038142696
 40
0.5
 50
165.9637565321
 51
180.0
  0
ARC
  8
0
 62
7
  6
CONTINUOUS
 10
232.7186826536
 20
136.8038142696
 40
0.5
 50
165.9637565321
 51
180.0
  0
ARC
  8
0
 62
7
  6
CONTINUOUS
 10
239.9186826536
 20
136.8038142696
 40
0.5
 50
0.0
 51
14.0362434679
  0
ARC
  8
0
 62
7
  6
CONTINUOUS
 10
201.8186826536
 20
136.8038142696
 40
0.5
 50
0.0
 51
14.0362434679
  0
ARC
  8
0
 62
7
  6
CONTINUOUS
 10
220.0186826536
 20
136.8038142696
 40
0.5
 50
165.9637565321
 51
180.0
  0
ARC
  8
0
 62
7
  6
CONTINUOUS
 10
227.2186826536
 20
136.8038142696
 40
0.5
 50
0.0
 51
14.0362434679
  0
ARC
  8
0
 62
7
  6
CONTINUOUS
 10
194.6186826536
 20
136.8038142696
 40
0.5
 50
165.9637565321
 51
180.0
  0
ARC
  8
0
 62
7
  6
CONTINUOUS
 10
214.5186826536
 20
136.8038142696
 40
0.5
 50
0.0
 51
14.0362434679
  0
ARC
  8
0
 62
7
  6
CONTINUOUS
 10
207.3186826536
 20
136.8038142696
 40
0.5
 50
165.9637565321
 51
180.0
  0
ARC
  8
0
 62
7
  6
CONTINUOUS
 10
201.7186826536
 20
139.8838329263
 40
0.15
 50
180.0
 51
194.0362434679
  0
ARC
  8
0
 62
7
  6
CONTINUOUS
 10
194.7186826536
 20
139.8838329263
 40
0.15
 50
345.9637565321
 51
360.0
  0
ARC
  8
0
 62
7
  6
CONTINUOUS
 10
220.1186826536
 20
139.8838329263
 40
0.15
 50
345.9637565321
 51
360.0
  0
ARC
  8
0
 62
7
  6
CONTINUOUS
 10
227.1186826536
 20
139.8838329263
 40
0.15
 50
180.0
 51
194.0362434679
  0
ARC
  8
0
 62
7
  6
CONTINUOUS
 10
214.4186826536
 20
139.8838329263
 40
0.15
 50
180.0
 51
194.0362434679
  0
ARC
  8
0
 62
7
  6
CONTINUOUS
 10
207.4186826536
 20
139.8838329263
 40
0.15
 50
345.9637565321
 51
360.0
  0
ARC
  8
0
 62
7
  6
CONTINUOUS
 10
194.1186826536
 20
144.1153670824
 40
0.75
 50
0.0
 51
90.0
  0
ARC
  8
0
 62
7
  6
CONTINUOUS
 10
206.8186826536
 20
144.1153670824
 40
0.75
 50
0.0
 51
90.0
  0
ARC
  8
0
 62
7
  6
CONTINUOUS
 10
227.7186826536
 20
144.1153670824
 40
0.75
 50
90.0
 51
180.0
  0
ARC
  8
0
 62
7
  6
CONTINUOUS
 10
219.5186826536
 20
144.1153670824
 40
0.75
 50
0.0
 51
90.0
  0
ARC
  8
0
 62
7
  6
CONTINUOUS
 10
202.3186826536
 20
144.1153670824
 40
0.75
 50
90.0
 51
180.0
  0
ARC
  8
0
 62
7
  6
CONTINUOUS
 10
215.0186826536
 20
144.1153670824
 40
0.75
 50
90.0
 51
180.0
  0
ARC
  8
0
 62
7
  6
CONTINUOUS
 10
252.5186826536
 20
139.8838329263
 40
0.15
 50
180.0
 51
194.0362434679
  0
ARC
  8
0
 62
7
  6
CONTINUOUS
 10
245.5186826536
 20
139.8838329263
 40
0.15
 50
345.9637565321
 51
360.0
  0
ARC
  8
0
 62
7
  6
CONTINUOUS
 10
265.2186826536
 20
139.8838329263
 40
0.15
 50
180.0
 51
194.0362434679
  0
ARC
  8
0
 62
7
  6
CONTINUOUS
 10
258.2186826536
 20
139.8838329263
 40
0.15
 50
345.9637565321
 51
360.0
  0
ARC
  8
0
 62
7
  6
CONTINUOUS
 10
232.8186826536
 20
139.8838329263
 40
0.15
 50
345.9637565321
 51
360.0
  0
ARC
  8
0
 62
7
  6
CONTINUOUS
 10
239.8186826536
 20
139.8838329263
 40
0.15
 50
180.0
 51
194.0362434679
  0
ARC
  8
0
 62
7
  6
CONTINUOUS
 10
244.9186826536
 20
144.1153670824
 40
0.75
 50
0.0
 51
90.0
  0
ARC
  8
0
 62
7
  6
CONTINUOUS
 10
257.6186826536
 20
144.1153670824
 40
0.75
 50
0.0
 51
90.0
  0
ARC
  8
0
 62
7
  6
CONTINUOUS
 10
232.2186826536
 20
144.1153670824
 40
0.75
 50
0.0
 51
90.0
  0
ARC
  8
0
 62
7
  6
CONTINUOUS
 10
253.1186826536
 20
144.1153670824
 40
0.75
 50
90.0
 51
180.0
  0
ARC
  8
0
 62
7
  6
CONTINUOUS
 10
265.8186826536
 20
144.1153670824
 40
0.75
 50
90.0
 51
180.0
  0
ARC
  8
0
 62
7
  6
CONTINUOUS
 10
240.4186826536
 20
144.1153670824
 40
0.75
 50
90.0
 51
180.0
  0
ARC
  8
0
 62
7
  6
CONTINUOUS
 10
274.4186826536
 20
132.6153670824
 40
4.1
 50
180.0
 51
360.0
  0
ARC
  8
0
 62
7
  6
CONTINUOUS
 10
302.1686826536
 20
132.1653670824
 40
3.85
 50
270.0
 51
360.0
  0
ARC
  8
0
 62
7
  6
CONTINUOUS
 10
300.3686826536
 20
132.1653670824
 40
3.85
 50
180.0
 51
270.0
  0
ARC
  8
0
 62
7
  6
CONTINUOUS
 10
288.1686826536
 20
132.1653670824
 40
3.85
 50
270.0
 51
360.0
  0
ARC
  8
0
 62
7
  6
CONTINUOUS
 10
286.8686826536
 20
132.1653670824
 40
3.85
 50
180.0
 51
270.0
  0
ARC
  8
0
 62
7
  6
CONTINUOUS
 10
297.0186826536
 20
136.8038142696
 40
0.5
 50
165.9637565321
 51
180.0
  0
ARC
  8
0
 62
7
  6
CONTINUOUS
 10
291.5186826536
 20
136.8038142696
 40
0.5
 50
0.0
 51
14.0362434679
  0
ARC
  8
0
 62
7
  6
CONTINUOUS
 10
283.5186826536
 20
136.8038142696
 40
0.5
 50
165.9637565321
 51
180.0
  0
ARC
  8
0
 62
7
  6
CONTINUOUS
 10
278.0186826536
 20
136.8038142696
 40
0.5
 50
0.0
 51
14.0362434679
  0
ARC
  8
0
 62
7
  6
CONTINUOUS
 10
270.8186826536
 20
136.8038142696
 40
0.5
 50
165.9637565321
 51
180.0
  0
ARC
  8
0
 62
7
  6
CONTINUOUS
 10
316.5186826536
 20
132.6653670824
 40
4.5
 50
270.0
 51
360.0
  0
ARC
  8
0
 62
7
  6
CONTINUOUS
 10
315.0186826536
 20
132.6653670824
 40
4.5
 50
180.0
 51
270.0
  0
ARC
  8
0
 62
7
  6
CONTINUOUS
 10
338.7686826536
 20
131.3659896971
 40
3.0
 50
290.0
 51
360.0
  0
ARC
  8
0
 62
7
  6
CONTINUOUS
 10
330.0186826536
 20
132.5653670824
 40
4.5
 50
180.0
 51
270.0
  0
ARC
  8
0
 62
7
  6
CONTINUOUS
 10
331.8186826536
 20
133.5938996911
 40
5.5285326087
 50
270.0
 51
347.9282932187
  0
ARC
  8
0
 62
7
  6
CONTINUOUS
 10
336.7360174563
 20
132.5422540121
 40
0.5
 50
347.9282932187
 51
36.8698976458
  0
ARC
  8
0
 62
7
  6
CONTINUOUS
 10
336.6686826536
 20
133.7153670824
 40
0.15
 50
180.0
 51
216.8698976458
  0
ARC
  8
0
 62
7
  6
CONTINUOUS
 10
326.0186826536
 20
136.8038142696
 40
0.5
 50
165.9637565321
 51
180.0
  0
ARC
  8
0
 62
7
  6
CONTINUOUS
 10
311.0186826536
 20
136.8038142696
 40
0.5
 50
165.9637565321
 51
180.0
  0
ARC
  8
0
 62
7
  6
CONTINUOUS
 10
320.5186826536
 20
136.8038142696
 40
0.5
 50
0.0
 51
14.0362434679
  0
ARC
  8
0
 62
7
  6
CONTINUOUS
 10
305.5186826536
 20
136.8038142696
 40
0.5
 50
0.0
 51
14.0362434679
  0
ARC
  8
0
 62
7
  6
CONTINUOUS
 10
297.1186826536
 20
139.8838329263
 40
0.15
 50
345.9637565321
 51
360.0
  0
ARC
  8
0
 62
7
  6
CONTINUOUS
 10
291.4186826536
 20
139.8838329263
 40
0.15
 50
180.0
 51
194.0362434679
  0
ARC
  8
0
 62
7
  6
CONTINUOUS
 10
283.6186826536
 20
139.8838329263
 40
0.15
 50
345.9637565321
 51
360.0
  0
ARC
  8
0
 62
7
  6
CONTINUOUS
 10
277.9186826536
 20
139.8838329263
 40
0.15
 50
180.0
 51
194.0362434679
  0
ARC
  8
0
 62
7
  6
CONTINUOUS
 10
270.9186826536
 20
139.8838329263
 40
0.15
 50
345.9637565321
 51
360.0
  0
ARC
  8
0
 62
7
  6
CONTINUOUS
 10
296.5186826536
 20
144.1153670824
 40
0.75
 50
0.0
 51
90.0
  0
ARC
  8
0
 62
7
  6
CONTINUOUS
 10
270.3186826536
 20
144.1153670824
 40
0.75
 50
0.0
 51
90.0
  0
ARC
  8
0
 62
7
  6
CONTINUOUS
 10
292.0186826536
 20
144.1153670824
 40
0.75
 50
90.0
 51
180.0
  0
ARC
  8
0
 62
7
  6
CONTINUOUS
 10
283.0186826536
 20
144.1153670824
 40
0.75
 50
0.0
 51
90.0
  0
ARC
  8
0
 62
7
  6
CONTINUOUS
 10
278.5186826536
 20
144.1153670824
 40
0.75
 50
90.0
 51
180.0
  0
ARC
  8
0
 62
7
  6
CONTINUOUS
 10
326.1186826536
 20
139.8838329263
 40
0.15
 50
345.9637565321
 51
360.0
  0
ARC
  8
0
 62
7
  6
CONTINUOUS
 10
311.1186826536
 20
139.8838329263
 40
0.15
 50
345.9637565321
 51
360.0
  0
ARC
  8
0
 62
7
  6
CONTINUOUS
 10
320.4186826536
 20
139.8838329263
 40
0.15
 50
180.0
 51
194.0362434679
  0
ARC
  8
0
 62
7
  6
CONTINUOUS
 10
305.4186826536
 20
139.8838329263
 40
0.15
 50
180.0
 51
194.0362434679
  0
ARC
  8
0
 62
7
  6
CONTINUOUS
 10
310.5186826536
 20
144.1153670824
 40
0.75
 50
0.0
 51
90.0
  0
ARC
  8
0
 62
7
  6
CONTINUOUS
 10
306.0186826536
 20
144.1153670824
 40
0.75
 50
90.0
 51
180.0
  0
ARC
  8
0
 62
7
  6
CONTINUOUS
 10
321.0186826536
 20
144.1153670824
 40
0.75
 50
90.0
 51
180.0
  0
ARC
  8
0
 62
7
  6
CONTINUOUS
 10
339.2686826536
 20
142.8058407955
 40
2.5
 50
0.0
 51
110.0
  0
ARC
  8
0
 62
7
  6
CONTINUOUS
 10
325.5186826536
 20
144.1153670824
 40
0.75
 50
0.0
 51
90.0
  0
ARC
  8
0
 62
7
  6
CONTINUOUS
 10
336.6686826536
 20
144.3603359517
 40
0.15
 50
110.0
 51
180.0
  0
ARC
  8
DEFAULT_2
 62
8
  6
HIDDEN
 10
367.7579152249
 20
128.3653670824
 40
0.15
 50
90.0
 51
180.0
  0
ARC
  8
DEFAULT_2
 62
8
  6
HIDDEN
 10
367.7579152249
 20
128.1653670824
 40
0.15
 50
90.0
 51
180.0
  0
ARC
  8
DEFAULT_2
 62
8
  6
HIDDEN
 10
367.7579152249
 20
127.9153670824
 40
0.15
 50
90.0
 51
180.0
  0
ARC
  8
DEFAULT_2
 62
8
  6
HIDDEN
 10
367.7579152249
 20
128.0153670824
 40
0.15
 50
90.0
 51
180.0
  0
ARC
  8
DEFAULT_2
 62
8
  6
HIDDEN
 10
367.7579152249
 20
127.5153670824
 40
0.15
 50
180.0
 51
270.0
  0
ARC
  8
DEFAULT_2
 62
8
  6
HIDDEN
 10
367.7579152249
 20
127.6653670824
 40
0.15
 50
180.0
 51
270.0
  0
ARC
  8
DEFAULT_2
 62
8
  6
HIDDEN
 10
367.7579152249
 20
128.0790617838
 40
0.15
 50
180.0
 51
254.4704960349
  0
ARC
  8
0
 62
7
  6
CONTINUOUS
 10
371.6079152249
 20
114.7653670824
 40
4.0
 50
180.0
 51
270.0
  0
ARC
  8
DEFAULT_2
 62
8
  6
HIDDEN
 10
371.6079152249
 20
140.8653670824
 40
4.0
 50
90.0
 51
158.421081932
  0
ARC
  8
0
 62
7
  6
CONTINUOUS
 10
371.6079152249
 20
140.8653670824
 40
4.0
 50
158.421081932
 51
180.0
  0
ARC
  8
0
 62
7
  6
CONTINUOUS
 10
373.6079152249
 20
115.1153670824
 40
2.1
 50
180.0
 51
360.0
  0
ARC
  8
0
 62
7
  6
CONTINUOUS
 10
375.6079152249
 20
114.7653670824
 40
4.0
 50
270.0
 51
360.0
  0
ARC
  8
0
 62
7
  6
CONTINUOUS
 10
373.6079152249
 20
123.1653670824
 40
2.1
 50
0.0
 51
180.0
  0
ARC
  8
DEFAULT_2
 62
8
  6
HIDDEN
 10
379.4579152249
 20
128.3653670824
 40
0.15
 50
0.0
 51
90.0
  0
ARC
  8
DEFAULT_2
 62
8
  6
HIDDEN
 10
379.4579152249
 20
127.9153670824
 40
0.15
 50
0.0
 51
90.0
  0
ARC
  8
DEFAULT_2
 62
8
  6
HIDDEN
 10
379.4579152249
 20
128.1653670824
 40
0.15
 50
0.0
 51
90.0
  0
ARC
  8
DEFAULT_2
 62
8
  6
HIDDEN
 10
379.4579152249
 20
128.0153670824
 40
0.15
 50
0.0
 51
90.0
  0
ARC
  8
DEFAULT_2
 62
8
  6
HIDDEN
 10
379.4579152249
 20
127.6653670824
 40
0.15
 50
270.0
 51
360.0
  0
ARC
  8
DEFAULT_2
 62
8
  6
HIDDEN
 10
379.4579152249
 20
127.5153670824
 40
0.15
 50
270.0
 51
360.0
  0
ARC
  8
DEFAULT_2
 62
8
  6
HIDDEN
 10
379.4579152249
 20
127.281377571
 40
0.15
 50
270.0
 51
360.0
  0
CIRCLE
  8
0
 62
7
  6
CONTINUOUS
 10
373.6079152249
 20
140.5153670824
 40
2.75
  0
CIRCLE
  8
0
 62
7
  6
CONTINUOUS
 10
373.6079152249
 20
140.5153670824
 40
2.1
  0
ARC
  8
DEFAULT_2
 62
8
  6
HIDDEN
 10
373.6079152249
 20
149.131377571
 40
22.0
 50
254.4704960349
 51
270.0
  0
ARC
  8
DEFAULT_2
 62
8
  6
HIDDEN
 10
375.6079152249
 20
140.8653670824
 40
4.0
 50
36.2697368691
 51
90.0
  0
ARC
  8
0
 62
7
  6
CONTINUOUS
 10
375.6079152249
 20
140.8653670824
 40
4.0
 50
0.0
 51
36.2697368691
  0
ENDSEC
  0
EOF
