  0
SECTION
  2
HEADER
  9
$EXTMAX
 10
420.0
 20
297.0
 30
0.0
  9
$EXTMIN
 10
0.0
 20
0.0
 30
0.0
  9
$LIMMIN
 10
0.0
 20
0.0
  9
$LIMMAX
 10
420.0
 20
297.0
  9
$VIEWCTR
 10
210.0
 20
148.5
  9
$VIEWSIZE
 40
297.0
  9
$CLAYER
  8
0
  9
$LTSCALE
 40
23.1
  9
$CELTYPE
  6
BYLAYER
  9
$DIMSCALE
 40
1.0
  9
$DIMASZ
 40
3.5
  9
$DIMEXO
 40
2.625
  9
$DIMDLI
 40
15.96
  9
$DIMEXE
 40
7.56
  9
$DIMCEN
 40
3.78
  9
$DIMLFAC
 40
1.0
  9
$DIMBLK
  1
_FILLED
  9
$DIMTXT
 40
3.5
  9
$PDMODE
 70
3
  9
$PDSIZE
 40
0.3125
  9
$TILEMODE
 70
1
  0
ENDSEC
  0
SECTION
  2
TABLES
  0
TABLE
  2
LTYPE
 70
6
  0
LTYPE
  2
BYBLOCK
 70
0
  3

 72
65
 73
0
 40
0.0
  0
LTYPE
  2
BYLAYER
 70
0
  3

 72
65
 73
0
 40
0.0
  0
LTYPE
  2
CONTINUOUS
 70
64
  3
Solid line
 72
65
 73
0
 40
0.0
  0
LTYPE
  2
CENTER
 70
64
  3
____ _ ____ _ ____ _ ____ _ ____ _ ____ _ ____
 72
65
 73
4
 40
0.6
 49
0.375
 49
-0.075
 49
0.075
 49
-0.075
  0
LTYPE
  2
HIDDEN
 70
64
  3
- - - - - - - - - - - - - - - - - - - -
 72
65
 73
2
 40
0.2
 49
0.1
 49
-0.1
  0
LTYPE
  2
PHANTOM
 70
64
  3
_____ _ _ _____ _ _ _____ _ _ _____
 72
65
 73
6
 40
0.8
 49
0.45
 49
-0.05
 49
0.1
 49
-0.05
 49
0.1
 49
-0.05
  0
LTYPE
  2
DOT
 70
64
  3
. . . . . . . . . . . . . . . . . . . .
 72
65
 73
2
 40
0.2
 49
0.1
 49
-0.1
  0
LTYPE
  2
DASHED
 70
64
  3
- - - - - - - - - - - - - - - - - - - -
 72
65
 73
2
 40
0.2
 49
0.1
 49
-0.1
  0
ENDTAB
  0
TABLE
  2
LAYER
 70
36
  0
LAYER
  2
0
 70
0
 62
7
  6
CONTINUOUS
  0
LAYER
  2
DEFAULT_1
 70
0
 62
7
  6
CENTER
  0
LAYER
  2
DEFAULT_2
 70
0
 62
8
  6
HIDDEN
  0
LAYER
  2
DEFAULT_3
 70
0
 62
7
  6
PHANTOM
  0
LAYER
  2
AXES
 70
0
 62
7
  6
CONTINUOUS
  0
LAYER
  2
CSYS
 70
0
 62
7
  6
CONTINUOUS
  0
LAYER
  2
CURVE
 70
0
 62
7
  6
CONTINUOUS
  0
LAYER
  2
CURVES
 70
0
 62
7
  6
CONTINUOUS
  0
LAYER
  2
PLANES
 70
0
 62
7
  6
CONTINUOUS
  0
LAYER
  2
QUILT
 70
0
 62
7
  6
CONTINUOUS
  0
LAYER
  2
SURF-A
 70
0
 62
7
  6
CONTINUOUS
  0
LAYER
  2
SURFACE
 70
0
 62
7
  6
CONTINUOUS
  0
ENDTAB
  0
TABLE
  2
STYLE
 70
1
  0
STYLE
  2
STANDARD
 70
0
 40
0.0
 41
0.8
 50
0.0
 71
0
 42
0.2
  3
txt
  4

  0
STYLE
  2
TEXTSTYLE_1
 70
0
 40
0.0
 41
0.8
 50
0.0
 71
0
 42
0.2
  3
gdt
  4

  0
STYLE
  2
TEXTSTYLE_2
 70
0
 40
0.0
 41
0.6
 50
0.0
 71
0
 42
0.2
  3
txt
  4

  0
STYLE
  2
TEXTSTYLE_3
 70
0
 40
0.0
 41
1.0
 50
0.0
 71
0
 42
0.2
  3
ftb_____.ttf
  4

  0
STYLE
  2
TEXTSTYLE_4
 70
0
 40
0.0
 41
1.0
 50
0.0
 71
0
 42
0.2
  3
fti_____.ttf
  4

  0
STYLE
  2
TEXTSTYLE_5
 70
0
 40
0.0
 41
1.0
 50
0.0
 71
0
 42
0.2
  3
frutiger light.ttf
  4

  0
STYLE
  2
TEXTSTYLE_6
 70
0
 40
0.0
 41
0.7
 50
0.0
 71
0
 42
0.2
  3
txt
  4

  0
STYLE
  2
TEXTSTYLE_7
 70
0
 40
0.0
 41
0.4
 50
0.0
 71
0
 42
0.2
  3
txt
  4

  0
ENDTAB
  0
ENDSEC
  0
SECTION
  2
BLOCKS
  0
BLOCK
  8
0
 62
2
  6
CONTINUOUS
  2
SYMBOL_5_BL1
 70
64
 10
382.7840918555
 20
35.5067593403
  0
TEXT
  8
0
 62
7
  6
CONTINUOUS
 10
373.842376864
 20
30.5995157174
  7
TEXTSTYLE_4
 40
1.0655737705
  1
The brand for plastic modular belts and chains
 41
1.0
 72
0
  0
LINE
  8
0
 62
7
  6
CONTINUOUS
 10
358.7621602445
 20
36.0805298321
 11
358.7621602445
 21
33.9493822911
  0
LINE
  8
0
 62
7
  6
CONTINUOUS
 10
359.0512227376
 20
30.9584509954
 11
359.0512227376
 21
31.0552420547
  0
LINE
  8
0
 62
7
  6
CONTINUOUS
 10
358.7621602445
 20
31.0229783683
 11
358.8199727462
 21
30.8293962497
  0
LINE
  8
0
 62
7
  6
CONTINUOUS
 10
360.1556028675
 20
33.867415078
 11
360.1556028675
 21
36.0805298321
  0
LINE
  8
0
 62
7
  6
CONTINUOUS
 10
361.0746601894
 20
32.0231527829
 11
361.0746601894
 21
30.5067593403
  0
LINE
  8
0
 62
7
  6
CONTINUOUS
 10
361.3637227445
 20
30.5067593403
 11
361.3637227445
 21
31.2488242184
  0
LINE
  8
0
 62
7
  6
CONTINUOUS
 10
361.3637227445
 20
31.3778789641
 11
361.3637227445
 21
32.0231527829
  0
LINE
  8
0
 62
7
  6
CONTINUOUS
 10
358.8199727462
 20
31.216560532
 11
358.7621602445
 21
31.0229783683
  0
LINE
  8
0
 62
7
  6
CONTINUOUS
 10
359.1668477307
 20
30.7971325633
 11
359.0512227376
 21
30.9584509954
  0
LINE
  8
0
 62
7
  6
CONTINUOUS
 10
360.2652852997
 20
31.3133515913
 11
360.3230977445
 21
31.216560532
  0
LINE
  8
0
 62
7
  6
CONTINUOUS
 10
360.6121602997
 20
31.216560532
 11
360.5543476894
 21
31.3456152777
  0
LINE
  8
0
 62
7
  6
CONTINUOUS
 10
362.0408487691
 20
36.0805298321
 11
362.0408487691
 21
34.2772511436
  0
LINE
  8
0
 62
7
  6
CONTINUOUS
 10
362.0408487691
 20
32.9657757338
 11
362.0408487691
 21
32.3100380288
  0
LINE
  8
0
 62
7
  6
CONTINUOUS
 10
362.4043477445
 20
31.1520331591
 11
362.4043477445
 21
30.5067593403
  0
LINE
  8
0
 62
7
  6
CONTINUOUS
 10
362.6934101343
 20
30.5067593403
 11
362.6934101343
 21
31.1520331591
  0
LINE
  8
0
 62
7
  6
CONTINUOUS
 10
359.0512227376
 20
31.0552420547
 11
359.1090352445
 21
31.1842968456
  0
LINE
  8
0
 62
7
  6
CONTINUOUS
 10
358.8199727462
 20
30.8293962497
 11
358.9355977445
 21
30.7003414814
  0
LINE
  8
0
 62
7
  6
CONTINUOUS
 10
362.3465351343
 20
31.2810879048
 11
362.4043477445
 21
31.1520331591
  0
LINE
  8
0
 62
7
  6
CONTINUOUS
 10
363.1559103548
 20
30.7971325633
 11
363.2137226343
 21
30.668077795
  0
LINE
  8
0
 62
7
  6
CONTINUOUS
 10
362.6934101343
 20
31.1520331591
 11
362.6355978548
 21
31.3133515913
  0
LINE
  8
0
 62
7
  6
CONTINUOUS
 10
363.1559103548
 20
31.3456152777
 11
363.1559103548
 21
31.2810879048
  0
LINE
  8
0
 62
7
  6
CONTINUOUS
 10
363.1559103548
 20
30.8939236226
 11
363.1559103548
 21
30.7971325633
  0
LINE
  8
0
 62
7
  6
CONTINUOUS
 10
363.4342913921
 20
32.3100380288
 11
363.4342913921
 21
36.0805298321
  0
LINE
  8
0
 62
7
  6
CONTINUOUS
 10
363.4449727445
 20
30.7648688543
 11
363.4449727445
 21
30.8293962497
  0
LINE
  8
0
 62
7
  6
CONTINUOUS
 10
363.7621602445
 20
36.0805298321
 11
363.7621602445
 21
32.3100380288
  0
LINE
  8
0
 62
7
  6
CONTINUOUS
 10
360.5543476894
 20
30.7003414814
 11
360.6121602997
 21
30.8293962497
  0
LINE
  8
0
 62
7
  6
CONTINUOUS
 10
364.9480979651
 20
30.6035504109
 11
364.890285024
 21
30.7648688543
  0
LINE
  8
0
 62
7
  6
CONTINUOUS
 10
364.6012229651
 20
31.2810879048
 11
364.6012229651
 21
31.1842968456
  0
LINE
  8
0
 62
7
  6
CONTINUOUS
 10
364.6012229651
 20
31.0552420547
 11
364.6012229651
 21
30.8616599362
  0
LINE
  8
0
 62
7
  6
CONTINUOUS
 10
364.890285024
 20
30.7648688543
 11
364.890285024
 21
31.2810879048
  0
LINE
  8
0
 62
7
  6
CONTINUOUS
 10
365.1556028675
 20
32.3100380288
 11
365.1556028675
 21
34.1133167174
  0
LINE
  8
0
 62
7
  6
CONTINUOUS
 10
365.1556028675
 20
35.4247921272
 11
365.1556028675
 21
36.0805298321
  0
LINE
  8
0
 62
7
  6
CONTINUOUS
 10
365.4684104651
 20
32.0231527829
 11
365.4684104651
 21
31.8618343508
  0
LINE
  8
0
 62
7
  6
CONTINUOUS
 10
365.4684104651
 20
31.5391973962
 11
365.4684104651
 21
30.5067593403
  0
LINE
  8
0
 62
7
  6
CONTINUOUS
 10
365.757472524
 20
30.5067593403
 11
365.757472524
 21
31.5391973962
  0
LINE
  8
0
 62
7
  6
CONTINUOUS
 10
365.757472524
 20
31.8618343508
 11
365.757472524
 21
32.0231527829
  0
LINE
  8
0
 62
7
  6
CONTINUOUS
 10
360.3230977445
 20
30.8293962497
 11
360.2652852997
 21
30.7326051679
  0
LINE
  8
0
 62
7
  6
CONTINUOUS
 10
362.6355978548
 20
31.3133515913
 11
362.5777852445
 21
31.3778789641
  0
LINE
  8
0
 62
7
  6
CONTINUOUS
 10
363.5027853548
 20
30.7003414814
 11
363.4449727445
 21
30.7648688543
  0
LINE
  8
0
 62
7
  6
CONTINUOUS
 10
364.6590352445
 20
30.5712867188
 11
364.716847524
 21
30.5067593403
  0
LINE
  8
0
 62
7
  6
CONTINUOUS
 10
364.6012229651
 20
30.668077795
 11
364.6590352445
 21
30.5712867188
  0
LINE
  8
0
 62
7
  6
CONTINUOUS
 10
365.0059102445
 20
30.5067593403
 11
364.9480979651
 21
30.6035504109
  0
LINE
  8
0
 62
7
  6
CONTINUOUS
 10
364.890285024
 20
31.2810879048
 11
364.8324727445
 21
31.3778789641
  0
LINE
  8
0
 62
7
  6
CONTINUOUS
 10
366.2199727445
 20
31.5391973962
 11
366.2199727445
 21
30.5067593403
  0
LINE
  8
0
 62
7
  6
CONTINUOUS
 10
366.5090354651
 20
30.5067593403
 11
366.5090354651
 21
31.2488242184
  0
LINE
  8
0
 62
7
  6
CONTINUOUS
 10
366.5090354651
 20
31.3778789641
 11
366.5090354651
 21
31.5391973962
  0
LINE
  8
0
 62
7
  6
CONTINUOUS
 10
367.0408487691
 20
34.5231527829
 11
367.0408487691
 21
32.3100380288
  0
LINE
  8
0
 62
7
  6
CONTINUOUS
 10
358.9355977445
 20
31.3456152777
 11
358.8199727462
 21
31.216560532
  0
LINE
  8
0
 62
7
  6
CONTINUOUS
 10
359.1090352445
 20
31.1842968456
 11
359.1668477307
 21
31.2488242184
  0
LINE
  8
0
 62
7
  6
CONTINUOUS
 10
358.9355977445
 20
30.7003414814
 11
359.0512227376
 21
30.6358140973
  0
LINE
  8
0
 62
7
  6
CONTINUOUS
 10
359.3402852307
 20
30.7003414814
 11
359.1668477307
 21
30.7971325633
  0
LINE
  8
0
 62
7
  6
CONTINUOUS
 10
364.543410024
 20
31.3456152777
 11
364.6012229651
 21
31.2810879048
  0
LINE
  8
0
 62
7
  6
CONTINUOUS
 10
367.491847524
 20
31.2810879048
 11
367.5496604651
 21
31.1197694727
  0
LINE
  8
0
 62
7
  6
CONTINUOUS
 10
367.838722524
 20
31.1197694727
 11
367.7809102445
 21
31.2810879048
  0
LINE
  8
0
 62
7
  6
CONTINUOUS
 10
367.5496604651
 20
31.1197694727
 11
367.5496604651
 21
30.5067593403
  0
LINE
  8
0
 62
7
  6
CONTINUOUS
 10
367.838722524
 20
30.5067593403
 11
367.838722524
 21
31.1197694727
  0
LINE
  8
0
 62
7
  6
CONTINUOUS
 10
368.3012227445
 20
31.3456152777
 11
368.3012227445
 21
31.2810879048
  0
LINE
  8
0
 62
7
  6
CONTINUOUS
 10
368.4342913921
 20
32.3100380288
 11
368.4342913921
 21
34.4411855698
  0
LINE
  8
0
 62
7
  6
CONTINUOUS
 10
368.7621602445
 20
36.0805298321
 11
368.7621602445
 21
32.3100380288
  0
LINE
  8
0
 62
7
  6
CONTINUOUS
 10
363.4449727445
 20
30.8293962497
 11
363.5027853548
 21
30.926187309
  0
LINE
  8
0
 62
7
  6
CONTINUOUS
 10
359.0512227376
 20
30.6358140973
 11
359.2246602583
 21
30.5712867188
  0
LINE
  8
0
 62
7
  6
CONTINUOUS
 10
360.5543476894
 20
31.3456152777
 11
360.3809101894
 21
31.4424063369
  0
LINE
  8
0
 62
7
  6
CONTINUOUS
 10
363.2137226343
 20
30.668077795
 11
363.3871601343
 21
30.5712867188
  0
LINE
  8
0
 62
7
  6
CONTINUOUS
 10
362.2309102445
 20
31.3456152777
 11
362.3465351343
 21
31.2810879048
  0
LINE
  8
0
 62
7
  6
CONTINUOUS
 10
362.5777852445
 20
31.3778789641
 11
362.4621603548
 21
31.4424063369
  0
LINE
  8
0
 62
7
  6
CONTINUOUS
 10
368.3012227445
 20
30.7648688543
 11
368.4168479651
 21
30.6358140973
  0
LINE
  8
0
 62
7
  6
CONTINUOUS
 10
368.6480977445
 20
30.7003414814
 11
368.5902854651
 21
30.7648688543
  0
LINE
  8
0
 62
7
  6
CONTINUOUS
 10
368.3012227445
 20
31.2810879048
 11
368.4168479651
 21
31.1520331591
  0
LINE
  8
0
 62
7
  6
CONTINUOUS
 10
367.7809102445
 20
31.2810879048
 11
367.7230979651
 21
31.3778789641
  0
LINE
  8
0
 62
7
  6
CONTINUOUS
 10
370.1512223035
 20
30.7003414814
 11
370.1512223035
 21
30.7648688543
  0
LINE
  8
0
 62
7
  6
CONTINUOUS
 10
370.1556028675
 20
32.3100380288
 11
370.1556028675
 21
36.0805298321
  0
LINE
  8
0
 62
7
  6
CONTINUOUS
 10
363.2137226343
 20
31.4101426505
 11
363.1559103548
 21
31.3456152777
  0
LINE
  8
0
 62
7
  6
CONTINUOUS
 10
360.091847717
 20
31.3778789641
 11
360.2652852997
 21
31.3133515913
  0
LINE
  8
0
 62
7
  6
CONTINUOUS
 10
364.8324727445
 20
31.3778789641
 11
364.716847524
 21
31.4424063369
  0
LINE
  8
0
 62
7
  6
CONTINUOUS
 10
368.6480977445
 20
31.216560532
 11
368.5902854651
 21
31.2810879048
  0
LINE
  8
0
 62
7
  6
CONTINUOUS
 10
369.8043479651
 20
30.8293962497
 11
369.8621602445
 21
30.7648688543
  0
LINE
  8
0
 62
7
  6
CONTINUOUS
 10
370.1512223035
 20
30.7648688543
 11
370.0355977445
 21
30.8939236226
  0
LINE
  8
0
 62
7
  6
CONTINUOUS
 10
369.8043479651
 20
31.3456152777
 11
369.8621602445
 21
31.2810879048
  0
LINE
  8
0
 62
7
  6
CONTINUOUS
 10
370.1512223035
 20
31.2810879048
 11
370.0355977445
 21
31.4101426505
  0
LINE
  8
0
 62
7
  6
CONTINUOUS
 10
363.4449727445
 20
31.2810879048
 11
363.5027853548
 21
31.3456152777
  0
LINE
  8
0
 62
7
  6
CONTINUOUS
 10
363.2715352445
 20
31.0229783683
 11
363.1559103548
 21
30.8939236226
  0
LINE
  8
0
 62
7
  6
CONTINUOUS
 10
364.6012229651
 20
30.8616599362
 11
364.543410024
 21
30.7971325633
  0
LINE
  8
0
 62
7
  6
CONTINUOUS
 10
364.543410024
 20
30.6035504109
 11
364.6012229651
 21
30.668077795
  0
LINE
  8
0
 62
7
  6
CONTINUOUS
 10
363.3871601343
 20
30.5712867188
 11
363.5027853548
 21
30.5390230296
  0
LINE
  8
0
 62
7
  6
CONTINUOUS
 10
360.3809101894
 20
31.4424063369
 11
360.1496602445
 21
31.5069337098
  0
LINE
  8
0
 62
7
  6
CONTINUOUS
 10
363.7340351343
 20
30.6358140973
 11
363.5027853548
 21
30.7003414814
  0
LINE
  8
0
 62
7
  6
CONTINUOUS
 10
362.4621603548
 20
31.4424063369
 11
362.2887228548
 21
31.5069337098
  0
LINE
  8
0
 62
7
  6
CONTINUOUS
 10
364.716847524
 20
31.4424063369
 11
364.543410024
 21
31.5069337098
  0
LINE
  8
0
 62
7
  6
CONTINUOUS
 10
367.3762229651
 20
31.3456152777
 11
367.491847524
 21
31.2810879048
  0
LINE
  8
0
 62
7
  6
CONTINUOUS
 10
367.7230979651
 20
31.3778789641
 11
367.6074727445
 21
31.4424063369
  0
LINE
  8
0
 62
7
  6
CONTINUOUS
 10
359.2246602583
 20
30.5712867188
 11
359.3980977583
 21
30.5390230296
  0
LINE
  8
0
 62
7
  6
CONTINUOUS
 10
359.6871602721
 20
30.6358140973
 11
359.3402852307
 21
30.7003414814
  0
LINE
  8
0
 62
7
  6
CONTINUOUS
 10
362.1152853548
 20
31.3778789641
 11
362.2309102445
 21
31.3456152777
  0
LINE
  8
0
 62
7
  6
CONTINUOUS
 10
364.4277854651
 20
31.3778789641
 11
364.543410024
 21
31.3456152777
  0
LINE
  8
0
 62
7
  6
CONTINUOUS
 10
368.7637229651
 20
30.668077795
 11
368.6480977445
 21
30.7003414814
  0
LINE
  8
0
 62
7
  6
CONTINUOUS
 10
367.2605977445
 20
31.3778789641
 11
367.3762229651
 21
31.3456152777
  0
LINE
  8
0
 62
7
  6
CONTINUOUS
 10
368.4168479651
 20
30.6358140973
 11
368.5902854651
 21
30.5712867188
  0
LINE
  8
0
 62
7
  6
CONTINUOUS
 10
367.6074727445
 20
31.4424063369
 11
367.4340352445
 21
31.5069337098
  0
LINE
  8
0
 62
7
  6
CONTINUOUS
 10
368.8215352445
 20
31.1520331591
 11
368.6480977445
 21
31.216560532
  0
LINE
  8
0
 62
7
  6
CONTINUOUS
 10
369.6309104651
 20
30.8939236226
 11
369.8043479651
 21
30.8293962497
  0
LINE
  8
0
 62
7
  6
CONTINUOUS
 10
370.0355977445
 20
31.4101426505
 11
369.8621602445
 21
31.4746700234
  0
LINE
  8
0
 62
7
  6
CONTINUOUS
 10
368.4168479651
 20
31.1520331591
 11
368.6480977445
 21
31.0552420547
  0
LINE
  8
0
 62
7
  6
CONTINUOUS
 10
370.0355977445
 20
30.8939236226
 11
369.8043479651
 21
30.9907146818
  0
LINE
  8
0
 62
7
  6
CONTINUOUS
 10
368.5902854651
 20
31.2810879048
 11
368.6480977445
 21
31.3456152777
  0
LINE
  8
0
 62
7
  6
CONTINUOUS
 10
359.0512227376
 20
31.4101426505
 11
358.9355977445
 21
31.3456152777
  0
LINE
  8
0
 62
7
  6
CONTINUOUS
 10
359.1668477307
 20
31.2488242184
 11
359.3402852307
 21
31.3456152777
  0
LINE
  8
0
 62
7
  6
CONTINUOUS
 10
361.4793477997
 20
31.4424063369
 11
361.3637227445
 21
31.3778789641
  0
LINE
  8
0
 62
7
  6
CONTINUOUS
 10
361.3637227445
 20
31.2488242184
 11
361.4793477997
 21
31.3133515913
  0
LINE
  8
0
 62
7
  6
CONTINUOUS
 10
360.3809101894
 20
30.6035504109
 11
360.5543476894
 21
30.7003414814
  0
LINE
  8
0
 62
7
  6
CONTINUOUS
 10
359.3980977583
 20
30.5390230296
 11
359.744972717
 21
30.5067593403
  0
LINE
  8
0
 62
7
  6
CONTINUOUS
 10
363.5027853548
 20
30.5390230296
 11
363.7340351343
 21
30.5067593403
  0
LINE
  8
0
 62
7
  6
CONTINUOUS
 10
361.8840352445
 20
31.4101426505
 11
362.1152853548
 21
31.3778789641
  0
LINE
  8
0
 62
7
  6
CONTINUOUS
 10
364.1965353548
 20
31.4101426505
 11
364.4277854651
 21
31.3778789641
  0
LINE
  8
0
 62
7
  6
CONTINUOUS
 10
368.6480977445
 20
31.0552420547
 11
369.6309104651
 21
30.8939236226
  0
LINE
  8
0
 62
7
  6
CONTINUOUS
 10
369.8043479651
 20
30.9907146818
 11
368.8215352445
 21
31.1520331591
  0
LINE
  8
0
 62
7
  6
CONTINUOUS
 10
362.2887228548
 20
31.5069337098
 11
362.1152853548
 21
31.5391973962
  0
LINE
  8
0
 62
7
  6
CONTINUOUS
 10
368.5902854651
 20
30.5712867188
 11
368.7637229651
 21
30.5390230296
  0
LINE
  8
0
 62
7
  6
CONTINUOUS
 10
367.4340352445
 20
31.5069337098
 11
367.2605977445
 21
31.5391973962
  0
LINE
  8
0
 62
7
  6
CONTINUOUS
 10
369.6887227445
 20
31.3778789641
 11
369.8043479651
 21
31.3456152777
  0
LINE
  8
0
 62
7
  6
CONTINUOUS
 10
369.8621602445
 20
30.7648688543
 11
369.8043479651
 21
30.7003414814
  0
LINE
  8
0
 62
7
  6
CONTINUOUS
 10
368.4168479651
 20
31.4424063369
 11
368.3012227445
 21
31.3456152777
  0
LINE
  8
0
 62
7
  6
CONTINUOUS
 10
363.3293478548
 20
31.4746700234
 11
363.2137226343
 21
31.4101426505
  0
LINE
  8
0
 62
7
  6
CONTINUOUS
 10
363.3871601343
 20
31.0875057863
 11
363.2715352445
 21
31.0229783683
  0
LINE
  8
0
 62
7
  6
CONTINUOUS
 10
363.5027853548
 20
30.926187309
 11
363.6184102445
 21
30.9907146818
  0
LINE
  8
0
 62
7
  6
CONTINUOUS
 10
361.0746601894
 20
30.5067593403
 11
361.3637227445
 21
30.5067593403
  0
LINE
  8
0
 62
7
  6
CONTINUOUS
 10
362.4043477445
 20
30.5067593403
 11
362.6934101343
 21
30.5067593403
  0
LINE
  8
0
 62
7
  6
CONTINUOUS
 10
363.7340351343
 20
30.5067593403
 11
364.0809101343
 21
30.5067593403
  0
LINE
  8
0
 62
7
  6
CONTINUOUS
 10
364.716847524
 20
30.5067593403
 11
365.0059102445
 21
30.5067593403
  0
LINE
  8
0
 62
7
  6
CONTINUOUS
 10
365.4684104651
 20
30.5067593403
 11
365.757472524
 21
30.5067593403
  0
LINE
  8
0
 62
7
  6
CONTINUOUS
 10
366.2199727445
 20
30.5067593403
 11
366.5090354651
 21
30.5067593403
  0
LINE
  8
0
 62
7
  6
CONTINUOUS
 10
367.5496604651
 20
30.5067593403
 11
367.838722524
 21
30.5067593403
  0
LINE
  8
0
 62
7
  6
CONTINUOUS
 10
369.1105979651
 20
30.5067593403
 11
369.4574729651
 21
30.5067593403
  0
LINE
  8
0
 62
7
  6
CONTINUOUS
 10
369.4574729651
 20
30.6358140973
 11
369.1105979651
 21
30.6358140973
  0
LINE
  8
0
 62
7
  6
CONTINUOUS
 10
364.0809101343
 20
30.6358140973
 11
363.7340351343
 21
30.6358140973
  0
LINE
  8
0
 62
7
  6
CONTINUOUS
 10
368.5902854651
 20
30.7648688543
 11
368.3012227445
 21
30.7648688543
  0
LINE
  8
0
 62
7
  6
CONTINUOUS
 10
360.6121602997
 20
30.8293962497
 11
360.3230977445
 21
30.8293962497
  0
LINE
  8
0
 62
7
  6
CONTINUOUS
 10
359.6871602721
 20
31.4101426505
 11
360.091847717
 21
31.3778789641
  0
LINE
  8
0
 62
7
  6
CONTINUOUS
 10
360.1496602445
 20
31.5069337098
 11
359.744972717
 21
31.5391973962
  0
LINE
  8
0
 62
7
  6
CONTINUOUS
 10
368.7637229651
 20
30.5390230296
 11
369.1105979651
 21
30.5067593403
  0
LINE
  8
0
 62
7
  6
CONTINUOUS
 10
369.1105979651
 20
30.6358140973
 11
368.7637229651
 21
30.668077795
  0
LINE
  8
0
 62
7
  6
CONTINUOUS
 10
364.543410024
 20
31.5069337098
 11
364.1965353548
 21
31.5391973962
  0
LINE
  8
0
 62
7
  6
CONTINUOUS
 10
369.3418477445
 20
31.4101426505
 11
369.6887227445
 21
31.3778789641
  0
LINE
  8
0
 62
7
  6
CONTINUOUS
 10
369.6887227445
 20
31.5069337098
 11
369.3418477445
 21
31.5391973962
  0
LINE
  8
0
 62
7
  6
CONTINUOUS
 10
367.0293479651
 20
31.4101426505
 11
367.2605977445
 21
31.3778789641
  0
LINE
  8
0
 62
7
  6
CONTINUOUS
 10
369.8621602445
 20
31.4746700234
 11
369.6887227445
 21
31.5069337098
  0
LINE
  8
0
 62
7
  6
CONTINUOUS
 10
370.0355977445
 20
30.6035504109
 11
370.1512223035
 21
30.7003414814
  0
LINE
  8
0
 62
7
  6
CONTINUOUS
 10
364.543410024
 20
30.7971325633
 11
364.369972524
 21
30.7003414814
  0
LINE
  8
0
 62
7
  6
CONTINUOUS
 10
366.624660024
 20
31.4424063369
 11
366.5090354651
 21
31.3778789641
  0
LINE
  8
0
 62
7
  6
CONTINUOUS
 10
366.5090354651
 20
31.2488242184
 11
366.624660024
 21
31.3133515913
  0
LINE
  8
0
 62
7
  6
CONTINUOUS
 10
359.2246602583
 20
31.4746700234
 11
359.0512227376
 21
31.4101426505
  0
LINE
  8
0
 62
7
  6
CONTINUOUS
 10
361.6527851343
 20
31.5069337098
 11
361.4793477997
 21
31.4424063369
  0
LINE
  8
0
 62
7
  6
CONTINUOUS
 10
361.4793477997
 20
31.3133515913
 11
361.6527851343
 21
31.3778789641
  0
LINE
  8
0
 62
7
  6
CONTINUOUS
 10
360.2652852997
 20
30.7326051679
 11
360.091847717
 21
30.668077795
  0
LINE
  8
0
 62
7
  6
CONTINUOUS
 10
369.6887227445
 20
30.668077795
 11
369.4574729651
 21
30.6358140973
  0
LINE
  8
0
 62
7
  6
CONTINUOUS
 10
364.0809101343
 20
30.5067593403
 11
364.369972524
 21
30.5390230296
  0
LINE
  8
0
 62
7
  6
CONTINUOUS
 10
369.4574729651
 20
30.5067593403
 11
369.8043479651
 21
30.5390230296
  0
LINE
  8
0
 62
7
  6
CONTINUOUS
 10
359.744972717
 20
30.5067593403
 11
360.1496602445
 21
30.5390230296
  0
LINE
  8
0
 62
7
  6
CONTINUOUS
 10
360.091847717
 20
30.668077795
 11
359.6871602721
 21
30.6358140973
  0
LINE
  8
0
 62
7
  6
CONTINUOUS
 10
363.9652852445
 20
31.0552420547
 11
364.6012229651
 21
31.0552420547
  0
LINE
  8
0
 62
7
  6
CONTINUOUS
 10
364.6012229651
 20
31.1842968456
 11
363.9652852445
 21
31.1842968456
  0
LINE
  8
0
 62
7
  6
CONTINUOUS
 10
360.3230977445
 20
31.216560532
 11
360.6121602997
 21
31.216560532
  0
LINE
  8
0
 62
7
  6
CONTINUOUS
 10
363.1559103548
 20
31.2810879048
 11
363.4449727445
 21
31.2810879048
  0
LINE
  8
0
 62
7
  6
CONTINUOUS
 10
369.8621602445
 20
31.2810879048
 11
370.1512223035
 21
31.2810879048
  0
LINE
  8
0
 62
7
  6
CONTINUOUS
 10
363.8496603548
 20
31.4101426505
 11
364.1965353548
 21
31.4101426505
  0
LINE
  8
0
 62
7
  6
CONTINUOUS
 10
368.9949727445
 20
31.4101426505
 11
369.3418477445
 21
31.4101426505
  0
LINE
  8
0
 62
7
  6
CONTINUOUS
 10
369.3418477445
 20
31.5391973962
 11
368.9949727445
 21
31.5391973962
  0
LINE
  8
0
 62
7
  6
CONTINUOUS
 10
367.2605977445
 20
31.5391973962
 11
367.0293479651
 21
31.5391973962
  0
LINE
  8
0
 62
7
  6
CONTINUOUS
 10
366.5090354651
 20
31.5391973962
 11
366.2199727445
 21
31.5391973962
  0
LINE
  8
0
 62
7
  6
CONTINUOUS
 10
365.757472524
 20
31.5391973962
 11
365.4684104651
 21
31.5391973962
  0
LINE
  8
0
 62
7
  6
CONTINUOUS
 10
364.1965353548
 20
31.5391973962
 11
363.8496603548
 21
31.5391973962
  0
LINE
  8
0
 62
7
  6
CONTINUOUS
 10
362.1152853548
 20
31.5391973962
 11
361.8840352445
 21
31.5391973962
  0
LINE
  8
0
 62
7
  6
CONTINUOUS
 10
365.4684104651
 20
31.8618343508
 11
365.757472524
 21
31.8618343508
  0
LINE
  8
0
 62
7
  6
CONTINUOUS
 10
365.757472524
 20
32.0231527829
 11
365.4684104651
 21
32.0231527829
  0
LINE
  8
0
 62
7
  6
CONTINUOUS
 10
361.3637227445
 20
32.0231527829
 11
361.0746601894
 21
32.0231527829
  0
LINE
  8
0
 62
7
  6
CONTINUOUS
 10
360.4015045068
 20
32.3100380288
 11
360.8140758554
 21
32.3100380288
  0
LINE
  8
0
 62
7
  6
CONTINUOUS
 10
362.0408487691
 20
32.3100380288
 11
363.4342913921
 21
32.3100380288
  0
LINE
  8
0
 62
7
  6
CONTINUOUS
 10
363.7621602445
 20
32.3100380288
 11
365.1556028675
 21
32.3100380288
  0
LINE
  8
0
 62
7
  6
CONTINUOUS
 10
367.0408487691
 20
32.3100380288
 11
368.4342913921
 21
32.3100380288
  0
LINE
  8
0
 62
7
  6
CONTINUOUS
 10
368.7621602445
 20
32.3100380288
 11
370.1556028675
 21
32.3100380288
  0
LINE
  8
0
 62
7
  6
CONTINUOUS
 10
366.798097524
 20
31.5069337098
 11
366.624660024
 21
31.4424063369
  0
LINE
  8
0
 62
7
  6
CONTINUOUS
 10
364.369972524
 20
30.5390230296
 11
364.543410024
 21
30.6035504109
  0
LINE
  8
0
 62
7
  6
CONTINUOUS
 10
369.8043479651
 20
30.5390230296
 11
370.0355977445
 21
30.6035504109
  0
LINE
  8
0
 62
7
  6
CONTINUOUS
 10
369.8043479651
 20
30.7003414814
 11
369.6887227445
 21
30.668077795
  0
LINE
  8
0
 62
7
  6
CONTINUOUS
 10
368.7637229651
 20
31.3778789641
 11
368.9949727445
 21
31.4101426505
  0
LINE
  8
0
 62
7
  6
CONTINUOUS
 10
366.798097524
 20
31.3778789641
 11
367.0293479651
 21
31.4101426505
  0
LINE
  8
0
 62
7
  6
CONTINUOUS
 10
363.7340351343
 20
31.0229783683
 11
363.9652852445
 21
31.0552420547
  0
LINE
  8
0
 62
7
  6
CONTINUOUS
 10
367.0293479651
 20
31.5391973962
 11
366.798097524
 21
31.5069337098
  0
LINE
  8
0
 62
7
  6
CONTINUOUS
 10
363.6184102445
 20
31.3778789641
 11
363.8496603548
 21
31.4101426505
  0
LINE
  8
0
 62
7
  6
CONTINUOUS
 10
368.9949727445
 20
31.5391973962
 11
368.6480977445
 21
31.5069337098
  0
LINE
  8
0
 62
7
  6
CONTINUOUS
 10
363.9652852445
 20
31.1842968456
 11
363.6184102445
 21
31.1520331591
  0
LINE
  8
0
 62
7
  6
CONTINUOUS
 10
359.744972717
 20
31.5391973962
 11
359.3980977583
 21
31.5069337098
  0
LINE
  8
0
 62
7
  6
CONTINUOUS
 10
363.8496603548
 20
31.5391973962
 11
363.4449727445
 21
31.5069337098
  0
LINE
  8
0
 62
7
  6
CONTINUOUS
 10
361.221176638
 20
33.4575790124
 11
360.565438933
 21
33.4575790124
  0
LINE
  8
0
 62
7
  6
CONTINUOUS
 10
366.624660024
 20
31.3133515913
 11
366.798097524
 21
31.3778789641
  0
LINE
  8
0
 62
7
  6
CONTINUOUS
 10
368.6480977445
 20
31.3456152777
 11
368.7637229651
 21
31.3778789641
  0
LINE
  8
0
 62
7
  6
CONTINUOUS
 10
368.6480977445
 20
31.5069337098
 11
368.4168479651
 21
31.4424063369
  0
LINE
  8
0
 62
7
  6
CONTINUOUS
 10
364.369972524
 20
30.7003414814
 11
364.0809101343
 21
30.6358140973
  0
LINE
  8
0
 62
7
  6
CONTINUOUS
 10
361.6527851343
 20
31.3778789641
 11
361.8840352445
 21
31.4101426505
  0
LINE
  8
0
 62
7
  6
CONTINUOUS
 10
361.8840352445
 20
31.5391973962
 11
361.6527851343
 21
31.5069337098
  0
LINE
  8
0
 62
7
  6
CONTINUOUS
 10
359.4559102445
 20
31.3778789641
 11
359.6871602721
 21
31.4101426505
  0
LINE
  8
0
 62
7
  6
CONTINUOUS
 10
365.9752749986
 20
34.9329888485
 11
366.6310127035
 21
34.9329888485
  0
LINE
  8
0
 62
7
  6
CONTINUOUS
 10
363.6184102445
 20
30.9907146818
 11
363.7340351343
 21
31.0229783683
  0
LINE
  8
0
 62
7
  6
CONTINUOUS
 10
363.6184102445
 20
31.1520331591
 11
363.3871601343
 21
31.0875057863
  0
LINE
  8
0
 62
7
  6
CONTINUOUS
 10
363.5027853548
 20
31.3456152777
 11
363.6184102445
 21
31.3778789641
  0
LINE
  8
0
 62
7
  6
CONTINUOUS
 10
360.1496602445
 20
30.5390230296
 11
360.3809101894
 21
30.6035504109
  0
LINE
  8
0
 62
7
  6
CONTINUOUS
 10
363.4449727445
 20
31.5069337098
 11
363.3293478548
 21
31.4746700234
  0
LINE
  8
0
 62
7
  6
CONTINUOUS
 10
359.3980977583
 20
31.5069337098
 11
359.2246602583
 21
31.4746700234
  0
LINE
  8
0
 62
7
  6
CONTINUOUS
 10
370.1556028675
 20
36.0805298321
 11
368.7621602445
 21
36.0805298321
  0
LINE
  8
0
 62
7
  6
CONTINUOUS
 10
366.7949471298
 20
36.0805298321
 11
366.3823757812
 21
36.0805298321
  0
LINE
  8
0
 62
7
  6
CONTINUOUS
 10
365.1556028675
 20
36.0805298321
 11
363.7621602445
 21
36.0805298321
  0
LINE
  8
0
 62
7
  6
CONTINUOUS
 10
363.4342913921
 20
36.0805298321
 11
362.0408487691
 21
36.0805298321
  0
LINE
  8
0
 62
7
  6
CONTINUOUS
 10
360.1556028675
 20
36.0805298321
 11
358.7621602445
 21
36.0805298321
  0
LINE
  8
0
 62
7
  6
CONTINUOUS
 10
359.3402852307
 20
31.3456152777
 11
359.4559102445
 21
31.3778789641
  0
CIRCLE
  8
0
 62
7
  6
CONTINUOUS
 10
369.458881556
 20
38.4165954059
 40
2.0901639344
  0
ARC
  8
0
 62
7
  6
CONTINUOUS
 10
360.4015045068
 20
33.9493822911
 40
1.6393442623
 50
180.0
 51
270.0
  0
ARC
  8
0
 62
7
  6
CONTINUOUS
 10
366.7949471298
 20
34.4411855698
 40
1.6393442623
 50
0.0
 51
90.0
  0
ARC
  8
0
 62
7
  6
CONTINUOUS
 10
360.8140758554
 20
33.7854478649
 40
1.4754098361
 50
270.0
 51
326.2510114041
  0
ARC
  8
0
 62
7
  6
CONTINUOUS
 10
366.3823757812
 20
34.6051199961
 40
1.4754098361
 50
90.0
 51
146.2510114041
  0
ARC
  8
0
 62
7
  6
CONTINUOUS
 10
361.221176638
 20
34.2772511436
 40
0.8196721311
 50
270.0
 51
360.0
  0
ARC
  8
0
 62
7
  6
CONTINUOUS
 10
365.9752749986
 20
34.1133167174
 40
0.8196721311
 50
90.0
 51
180.0
  0
ARC
  8
0
 62
7
  6
CONTINUOUS
 10
360.565438933
 20
33.867415078
 40
0.4098360656
 50
180.0
 51
270.0
  0
ARC
  8
0
 62
7
  6
CONTINUOUS
 10
366.6310127035
 20
34.5231527829
 40
0.4098360656
 50
0.0
 51
90.0
  0
SOLID
  8
0
 62
7
  6
CONTINUOUS
 10
365.4684104651
 20
31.8618347111
 11
365.4684104651
 21
32.0231531947
 12
365.757472524
 22
31.8618347111
 13
365.757472524
 23
32.0231531947
  0
SOLID
  8
0
 62
7
  6
CONTINUOUS
 10
359.744972717
 20
31.5391977439
 11
360.1496602445
 21
31.5069333244
 12
359.3980977583
 22
31.5069333244
 13
359.3980977583
 23
31.5069333244
  0
SOLID
  8
0
 62
7
  6
CONTINUOUS
 10
359.2246602583
 20
31.4746706537
 11
359.3980977583
 21
31.5069333244
 12
360.1496602445
 22
31.5069333244
 13
360.1496602445
 23
31.5069333244
  0
SOLID
  8
0
 62
7
  6
CONTINUOUS
 10
360.1496602445
 20
31.5069333244
 11
360.3809101894
 21
31.4424063504
 12
359.2246602583
 22
31.4746706537
 13
359.2246602583
 23
31.4746706537
  0
SOLID
  8
0
 62
7
  6
CONTINUOUS
 10
359.0512227376
 20
31.4101419116
 11
359.2246602583
 21
31.4746706537
 12
360.3809101894
 22
31.4424063504
 13
360.3809101894
 23
31.4424063504
  0
SOLID
  8
0
 62
7
  6
CONTINUOUS
 10
359.0512227376
 20
31.4101419116
 11
360.3809101894
 21
31.4424063504
 12
359.6871602721
 22
31.4101419116
 13
359.6871602721
 23
31.4101419116
  0
SOLID
  8
0
 62
7
  6
CONTINUOUS
 10
359.6871602721
 20
31.4101419116
 11
360.3809101894
 21
31.4424063504
 12
360.091847717
 22
31.3778792603
 13
360.091847717
 23
31.3778792603
  0
SOLID
  8
0
 62
7
  6
CONTINUOUS
 10
360.3809101894
 20
31.4424063504
 11
360.5543476894
 21
31.345614957
 12
360.091847717
 22
31.3778792603
 13
360.091847717
 23
31.3778792603
  0
SOLID
  8
0
 62
7
  6
CONTINUOUS
 10
360.2652852997
 20
31.3133521701
 11
360.091847717
 21
31.3778792603
 12
360.5543476894
 22
31.345614957
 13
360.5543476894
 23
31.345614957
  0
SOLID
  8
0
 62
7
  6
CONTINUOUS
 10
360.2652852997
 20
31.3133521701
 11
360.5543476894
 21
31.345614957
 12
360.3230977445
 22
31.2165606992
 13
360.3230977445
 23
31.2165606992
  0
SOLID
  8
0
 62
7
  6
CONTINUOUS
 10
360.5543476894
 20
31.345614957
 11
360.6121602997
 21
31.2165606992
 12
360.3230977445
 22
31.2165606992
 13
360.3230977445
 23
31.2165606992
  0
SOLID
  8
0
 62
7
  6
CONTINUOUS
 10
361.6527851343
 20
31.5069329918
 11
361.8840352445
 21
31.5391972951
 12
362.1152853548
 22
31.5391972951
 13
362.1152853548
 23
31.5391972951
  0
SOLID
  8
0
 62
7
  6
CONTINUOUS
 10
362.1152853548
 20
31.5391972951
 11
362.2887228548
 21
31.5069329918
 12
361.6527851343
 22
31.5069329918
 13
361.6527851343
 23
31.5069329918
  0
SOLID
  8
0
 62
7
  6
CONTINUOUS
 10
361.4793477997
 20
31.4424059016
 11
361.6527851343
 21
31.5069329918
 12
362.2887228548
 22
31.5069329918
 13
362.2887228548
 23
31.5069329918
  0
SOLID
  8
0
 62
7
  6
CONTINUOUS
 10
362.2887228548
 20
31.5069329918
 11
362.4621603548
 21
31.4424059016
 12
361.4793477997
 22
31.4424059016
 13
361.4793477997
 23
31.4424059016
  0
SOLID
  8
0
 62
7
  6
CONTINUOUS
 10
362.4621603548
 20
31.4424059016
 11
361.8840352445
 21
31.4101420472
 12
361.4793477997
 22
31.4424059016
 13
361.4793477997
 23
31.4424059016
  0
SOLID
  8
0
 62
7
  6
CONTINUOUS
 10
361.3637227445
 20
31.3778788115
 11
361.4793477997
 21
31.4424059016
 12
361.8840352445
 22
31.4101420472
 13
361.8840352445
 23
31.4101420472
  0
SOLID
  8
0
 62
7
  6
CONTINUOUS
 10
361.8840352445
 20
31.4101420472
 11
361.6527851343
 21
31.3778788115
 12
361.3637227445
 22
31.3778788115
 13
361.3637227445
 23
31.3778788115
  0
SOLID
  8
0
 62
7
  6
CONTINUOUS
 10
361.8840352445
 20
31.4101420472
 11
362.4621603548
 21
31.4424059016
 12
362.1152853548
 22
31.3778788115
 13
362.1152853548
 23
31.3778788115
  0
SOLID
  8
0
 62
7
  6
CONTINUOUS
 10
362.4621603548
 20
31.4424059016
 11
362.5777852445
 21
31.3778788115
 12
362.1152853548
 22
31.3778788115
 13
362.1152853548
 23
31.3778788115
  0
SOLID
  8
0
 62
7
  6
CONTINUOUS
 10
362.2309102445
 20
31.345614957
 11
362.1152853548
 21
31.3778788115
 12
362.5777852445
 22
31.3778788115
 13
362.5777852445
 23
31.3778788115
  0
SOLID
  8
0
 62
7
  6
CONTINUOUS
 10
362.5777852445
 20
31.3778788115
 11
362.6355978548
 21
31.3133517213
 12
362.2309102445
 22
31.345614957
 13
362.2309102445
 23
31.345614957
  0
SOLID
  8
0
 62
7
  6
CONTINUOUS
 10
362.3465351343
 20
31.2810878668
 11
362.2309102445
 21
31.345614957
 12
362.6355978548
 22
31.3133517213
 13
362.6355978548
 23
31.3133517213
  0
SOLID
  8
0
 62
7
  6
CONTINUOUS
 10
362.3465351343
 20
31.2810878668
 11
362.6355978548
 21
31.3133517213
 12
362.4043477445
 22
31.1520332377
 13
362.4043477445
 23
31.1520332377
  0
SOLID
  8
0
 62
7
  6
CONTINUOUS
 10
362.6355978548
 20
31.3133517213
 11
362.6934101343
 21
31.1520332377
 12
362.4043477445
 22
31.1520332377
 13
362.4043477445
 23
31.1520332377
  0
SOLID
  8
0
 62
7
  6
CONTINUOUS
 10
361.6527851343
 20
31.3778788115
 11
361.4793477997
 21
31.3133517213
 12
361.3637227445
 22
31.3778788115
 13
361.3637227445
 23
31.3778788115
  0
SOLID
  8
0
 62
7
  6
CONTINUOUS
 10
361.4793477997
 20
31.3133517213
 11
361.3637227445
 21
31.2488235635
 12
361.3637227445
 22
31.3778788115
 13
361.3637227445
 23
31.3778788115
  0
SOLID
  8
0
 62
7
  6
CONTINUOUS
 10
361.3637227445
 20
31.2488235635
 11
361.0746601894
 21
30.5067593033
 12
361.3637227445
 22
31.3778788115
 13
361.3637227445
 23
31.3778788115
  0
SOLID
  8
0
 62
7
  6
CONTINUOUS
 10
361.3637227445
 20
31.3778788115
 11
361.0746601894
 21
30.5067593033
 12
361.3637227445
 22
32.0231527459
 13
361.3637227445
 23
32.0231527459
  0
SOLID
  8
0
 62
7
  6
CONTINUOUS
 10
361.0746601894
 20
30.5067593033
 11
361.0746601894
 21
32.0231527459
 12
361.3637227445
 22
32.0231527459
 13
361.3637227445
 23
32.0231527459
  0
SOLID
  8
0
 62
7
  6
CONTINUOUS
 10
361.3637227445
 20
31.2488235635
 11
361.3637227445
 21
30.5067593033
 12
361.0746601894
 22
30.5067593033
 13
361.0746601894
 23
30.5067593033
  0
SOLID
  8
0
 62
7
  6
CONTINUOUS
 10
362.4043477445
 20
30.5067593033
 11
362.4043477445
 21
31.1520332377
 12
362.6934101343
 22
31.1520332377
 13
362.6934101343
 23
31.1520332377
  0
SOLID
  8
0
 62
7
  6
CONTINUOUS
 10
362.6934101343
 20
31.1520332377
 11
362.6934101343
 21
30.5067593033
 12
362.4043477445
 22
30.5067593033
 13
362.4043477445
 23
30.5067593033
  0
SOLID
  8
0
 62
7
  6
CONTINUOUS
 10
363.4449727445
 20
31.506933758
 11
363.8496603548
 21
31.5391977507
 12
364.1965353548
 22
31.5391977507
 13
364.1965353548
 23
31.5391977507
  0
SOLID
  8
0
 62
7
  6
CONTINUOUS
 10
364.1965353548
 20
31.5391977507
 11
364.543410024
 21
31.506933758
 12
363.4449727445
 22
31.506933758
 13
363.4449727445
 23
31.506933758
  0
SOLID
  8
0
 62
7
  6
CONTINUOUS
 10
363.3293478548
 20
31.4746706537
 11
363.4449727445
 21
31.506933758
 12
364.543410024
 22
31.506933758
 13
364.543410024
 23
31.506933758
  0
SOLID
  8
0
 62
7
  6
CONTINUOUS
 10
364.543410024
 20
31.506933758
 11
364.716847524
 21
31.4424063504
 12
363.3293478548
 22
31.4746706537
 13
363.3293478548
 23
31.4746706537
  0
SOLID
  8
0
 62
7
  6
CONTINUOUS
 10
363.2137226343
 20
31.4101417797
 11
363.3293478548
 21
31.4746706537
 12
364.716847524
 22
31.4424063504
 13
364.716847524
 23
31.4424063504
  0
SOLID
  8
0
 62
7
  6
CONTINUOUS
 10
363.2137226343
 20
31.4101417797
 11
364.716847524
 21
31.4424063504
 12
363.8496603548
 22
31.4101417797
 13
363.8496603548
 23
31.4101417797
  0
SOLID
  8
0
 62
7
  6
CONTINUOUS
 10
363.8496603548
 20
31.4101417797
 11
364.716847524
 21
31.4424063504
 12
364.1965353548
 22
31.4101417797
 13
364.1965353548
 23
31.4101417797
  0
SOLID
  8
0
 62
7
  6
CONTINUOUS
 10
364.1965353548
 20
31.4101417797
 11
364.716847524
 21
31.4424063504
 12
364.4277854651
 22
31.3778793357
 13
364.4277854651
 23
31.3778793357
  0
SOLID
  8
0
 62
7
  6
CONTINUOUS
 10
364.716847524
 20
31.4424063504
 11
364.8324727445
 21
31.3778793357
 12
364.4277854651
 22
31.3778793357
 13
364.4277854651
 23
31.3778793357
  0
SOLID
  8
0
 62
7
  6
CONTINUOUS
 10
363.1559103548
 20
31.3456153429
 11
363.2137226343
 21
31.4101417797
 12
363.8496603548
 22
31.4101417797
 13
363.8496603548
 23
31.4101417797
  0
SOLID
  8
0
 62
7
  6
CONTINUOUS
 10
364.543410024
 20
31.3456153429
 11
364.4277854651
 21
31.3778793357
 12
364.8324727445
 22
31.3778793357
 13
364.8324727445
 23
31.3778793357
  0
SOLID
  8
0
 62
7
  6
CONTINUOUS
 10
364.543410024
 20
31.3456153429
 11
364.8324727445
 21
31.3778793357
 12
364.6012229651
 22
31.2810881318
 13
364.6012229651
 23
31.2810881318
  0
SOLID
  8
0
 62
7
  6
CONTINUOUS
 10
364.8324727445
 20
31.3778793357
 11
364.890285024
 21
31.2810881318
 12
364.6012229651
 22
31.2810881318
 13
364.6012229651
 23
31.2810881318
  0
SOLID
  8
0
 62
7
  6
CONTINUOUS
 10
364.6012229651
 20
31.1842964734
 11
364.6012229651
 21
31.2810881318
 12
364.890285024
 22
31.2810881318
 13
364.890285024
 23
31.2810881318
  0
SOLID
  8
0
 62
7
  6
CONTINUOUS
 10
364.6012229651
 20
31.1842964734
 11
364.890285024
 21
31.2810881318
 12
364.6012229651
 22
31.0552422931
 13
364.6012229651
 23
31.0552422931
  0
SOLID
  8
0
 62
7
  6
CONTINUOUS
 10
364.6012229651
 20
31.0552422931
 11
364.890285024
 21
31.2810881318
 12
364.6012229651
 22
30.8616599362
 13
364.6012229651
 23
30.8616599362
  0
SOLID
  8
0
 62
7
  6
CONTINUOUS
 10
364.890285024
 20
31.2810881318
 11
364.890285024
 21
30.7648681127
 12
364.6012229651
 22
30.8616599362
 13
364.6012229651
 23
30.8616599362
  0
SOLID
  8
0
 62
7
  6
CONTINUOUS
 10
366.798097524
 20
31.5069339419
 11
367.0293479651
 21
31.5391976292
 12
367.2605977445
 22
31.5391976292
 13
367.2605977445
 23
31.5391976292
  0
SOLID
  8
0
 62
7
  6
CONTINUOUS
 10
367.2605977445
 20
31.5391976292
 11
367.4340352445
 21
31.5069339419
 12
366.798097524
 22
31.5069339419
 13
366.798097524
 23
31.5069339419
  0
SOLID
  8
0
 62
7
  6
CONTINUOUS
 10
366.624660024
 20
31.4424065674
 11
366.798097524
 21
31.5069339419
 12
367.4340352445
 22
31.5069339419
 13
367.4340352445
 23
31.5069339419
  0
SOLID
  8
0
 62
7
  6
CONTINUOUS
 10
367.4340352445
 20
31.5069339419
 11
367.6074727445
 21
31.4424065674
 12
366.624660024
 22
31.4424065674
 13
366.624660024
 23
31.4424065674
  0
SOLID
  8
0
 62
7
  6
CONTINUOUS
 10
367.6074727445
 20
31.4424065674
 11
367.0293479651
 21
31.4101420472
 12
366.624660024
 22
31.4424065674
 13
366.624660024
 23
31.4424065674
  0
SOLID
  8
0
 62
7
  6
CONTINUOUS
 10
366.5090354651
 20
31.377879193
 11
366.624660024
 21
31.4424065674
 12
367.0293479651
 22
31.4101420472
 13
367.0293479651
 23
31.4101420472
  0
SOLID
  8
0
 62
7
  6
CONTINUOUS
 10
367.0293479651
 20
31.4101420472
 11
366.798097524
 21
31.377879193
 12
366.5090354651
 22
31.377879193
 13
366.5090354651
 23
31.377879193
  0
SOLID
  8
0
 62
7
  6
CONTINUOUS
 10
367.0293479651
 20
31.4101420472
 11
367.6074727445
 21
31.4424065674
 12
367.2605977445
 22
31.377879193
 13
367.2605977445
 23
31.377879193
  0
SOLID
  8
0
 62
7
  6
CONTINUOUS
 10
367.6074727445
 20
31.4424065674
 11
367.7230979651
 21
31.377879193
 12
367.2605977445
 22
31.377879193
 13
367.2605977445
 23
31.377879193
  0
SOLID
  8
0
 62
7
  6
CONTINUOUS
 10
367.3762229651
 20
31.345614957
 11
367.2605977445
 21
31.377879193
 12
367.7230979651
 22
31.377879193
 13
367.7230979651
 23
31.377879193
  0
SOLID
  8
0
 62
7
  6
CONTINUOUS
 10
367.3762229651
 20
31.345614957
 11
367.7230979651
 21
31.377879193
 12
367.491847524
 22
31.2810881312
 13
367.491847524
 23
31.2810881312
  0
SOLID
  8
0
 62
7
  6
CONTINUOUS
 10
367.7230979651
 20
31.377879193
 11
367.7809102445
 21
31.2810881312
 12
367.491847524
 22
31.2810881312
 13
367.491847524
 23
31.2810881312
  0
SOLID
  8
0
 62
7
  6
CONTINUOUS
 10
367.5496604651
 20
31.119769695
 11
367.491847524
 21
31.2810881312
 12
367.7809102445
 22
31.2810881312
 13
367.7809102445
 23
31.2810881312
  0
SOLID
  8
0
 62
7
  6
CONTINUOUS
 10
367.7809102445
 20
31.2810881312
 11
367.838722524
 21
31.119769695
 12
367.5496604651
 22
31.119769695
 13
367.5496604651
 23
31.119769695
  0
SOLID
  8
0
 62
7
  6
CONTINUOUS
 10
366.798097524
 20
31.377879193
 11
366.624660024
 21
31.3133521701
 12
366.5090354651
 22
31.377879193
 13
366.5090354651
 23
31.377879193
  0
SOLID
  8
0
 62
7
  6
CONTINUOUS
 10
366.624660024
 20
31.3133521701
 11
366.5090354651
 21
31.2488235635
 12
366.5090354651
 22
31.377879193
 13
366.5090354651
 23
31.377879193
  0
SOLID
  8
0
 62
7
  6
CONTINUOUS
 10
366.5090354651
 20
31.2488235635
 11
366.2199727445
 21
30.5067596374
 12
366.5090354651
 22
31.377879193
 13
366.5090354651
 23
31.377879193
  0
SOLID
  8
0
 62
7
  6
CONTINUOUS
 10
366.5090354651
 20
31.377879193
 11
366.2199727445
 21
30.5067596374
 12
366.5090354651
 22
31.5391976292
 13
366.5090354651
 23
31.5391976292
  0
SOLID
  8
0
 62
7
  6
CONTINUOUS
 10
366.2199727445
 20
30.5067596374
 11
366.2199727445
 21
31.5391976292
 12
366.5090354651
 22
31.5391976292
 13
366.5090354651
 23
31.5391976292
  0
SOLID
  8
0
 62
7
  6
CONTINUOUS
 10
366.5090354651
 20
31.2488235635
 11
366.5090354651
 21
30.5067596374
 12
366.2199727445
 22
30.5067596374
 13
366.2199727445
 23
30.5067596374
  0
SOLID
  8
0
 62
7
  6
CONTINUOUS
 10
367.5496604651
 20
30.5067596374
 11
367.5496604651
 21
31.119769695
 12
367.838722524
 22
31.119769695
 13
367.838722524
 23
31.119769695
  0
SOLID
  8
0
 62
7
  6
CONTINUOUS
 10
367.838722524
 20
31.119769695
 11
367.838722524
 21
30.5067596374
 12
367.5496604651
 22
30.5067596374
 13
367.5496604651
 23
30.5067596374
  0
SOLID
  8
0
 62
7
  6
CONTINUOUS
 10
368.6480977445
 20
31.5069334157
 11
368.9949727445
 21
31.539197762
 12
369.3418477445
 22
31.539197762
 13
369.3418477445
 23
31.539197762
  0
SOLID
  8
0
 62
7
  6
CONTINUOUS
 10
369.3418477445
 20
31.539197762
 11
369.6887227445
 21
31.5069334157
 12
368.6480977445
 22
31.5069334157
 13
368.6480977445
 23
31.5069334157
  0
SOLID
  8
0
 62
7
  6
CONTINUOUS
 10
368.4168479651
 20
31.4424063504
 11
368.6480977445
 21
31.5069334157
 12
369.6887227445
 22
31.5069334157
 13
369.6887227445
 23
31.5069334157
  0
SOLID
  8
0
 62
7
  6
CONTINUOUS
 10
368.4168479651
 20
31.4424063504
 11
369.6887227445
 21
31.5069334406
 12
369.8621602445
 22
31.4746706537
 13
369.8621602445
 23
31.4746706537
  0
SOLID
  8
0
 62
7
  6
CONTINUOUS
 10
368.4168479651
 20
31.4424063504
 11
369.8621602445
 21
31.4746706537
 12
368.9949727445
 22
31.4101421267
 13
368.9949727445
 23
31.4101421267
  0
SOLID
  8
0
 62
7
  6
CONTINUOUS
 10
368.9949727445
 20
31.4101421267
 11
369.8621602445
 21
31.4746706537
 12
369.3418477445
 22
31.4101421267
 13
369.3418477445
 23
31.4101421267
  0
SOLID
  8
0
 62
7
  6
CONTINUOUS
 10
369.8621602445
 20
31.4746706537
 11
370.0355977445
 21
31.4101421267
 12
369.3418477445
 22
31.4101421267
 13
369.3418477445
 23
31.4101421267
  0
SOLID
  8
0
 62
7
  6
CONTINUOUS
 10
369.6887227445
 20
31.3778792603
 11
369.3418477445
 21
31.4101421267
 12
370.0355977445
 22
31.4101421267
 13
370.0355977445
 23
31.4101421267
  0
SOLID
  8
0
 62
7
  6
CONTINUOUS
 10
368.3012227445
 20
31.3456148845
 11
368.4168479651
 21
31.4424063504
 12
368.9949727445
 22
31.4101421267
 13
368.9949727445
 23
31.4101421267
  0
SOLID
  8
0
 62
7
  6
CONTINUOUS
 10
369.6887227445
 20
31.3778792603
 11
370.0355977445
 21
31.4101421267
 12
369.8043479651
 22
31.3456148845
 13
369.8043479651
 23
31.3456148845
  0
SOLID
  8
0
 62
7
  6
CONTINUOUS
 10
369.8043479651
 20
31.3456148845
 11
370.0355977445
 21
31.4101421267
 12
369.8621602445
 22
31.281087868
 13
369.8621602445
 23
31.281087868
  0
SOLID
  8
0
 62
7
  6
CONTINUOUS
 10
370.0355977445
 20
31.4101421267
 11
370.1512223035
 21
31.281087868
 12
369.8621602445
 22
31.281087868
 13
369.8621602445
 23
31.281087868
  0
SOLID
  8
0
 62
7
  6
CONTINUOUS
 10
359.4559102445
 20
31.3778792603
 11
358.9355977445
 21
31.3456148963
 12
359.6871602721
 22
31.4101421155
 13
359.6871602721
 23
31.4101421155
  0
SOLID
  8
0
 62
7
  6
CONTINUOUS
 10
358.9355977445
 20
31.3456148963
 11
359.0512227376
 21
31.4101421155
 12
359.6871602721
 22
31.4101421155
 13
359.6871602721
 23
31.4101421155
  0
SOLID
  8
0
 62
7
  6
CONTINUOUS
 10
359.4559102445
 20
31.3778792603
 11
359.3402852307
 21
31.3456148963
 12
358.9355977445
 22
31.3456148963
 13
358.9355977445
 23
31.3456148963
  0
SOLID
  8
0
 62
7
  6
CONTINUOUS
 10
358.8199727462
 20
31.2165607767
 11
358.9355977445
 21
31.3456148963
 12
359.3402852307
 22
31.3456148963
 13
359.3402852307
 23
31.3456148963
  0
SOLID
  8
0
 62
7
  6
CONTINUOUS
 10
363.1559103548
 20
31.3456149608
 11
363.8496603548
 21
31.4101420472
 12
363.6184102445
 22
31.3778792603
 13
363.6184102445
 23
31.3778792603
  0
SOLID
  8
0
 62
7
  6
CONTINUOUS
 10
363.6184102445
 20
31.3778792603
 11
363.5027853548
 21
31.3456149608
 12
363.1559103548
 22
31.3456149608
 13
363.1559103548
 23
31.3456149608
  0
SOLID
  8
0
 62
7
  6
CONTINUOUS
 10
363.1559103548
 20
31.2810878707
 11
363.1559103548
 21
31.3456149608
 12
363.5027853548
 22
31.3456149608
 13
363.5027853548
 23
31.3456149608
  0
SOLID
  8
0
 62
7
  6
CONTINUOUS
 10
363.5027853548
 20
31.3456149608
 11
363.4449727445
 21
31.2810878707
 12
363.1559103548
 22
31.2810878707
 13
363.1559103548
 23
31.2810878707
  0
SOLID
  8
0
 62
7
  6
CONTINUOUS
 10
368.3012227445
 20
31.3456149608
 11
368.9949727445
 21
31.4101420472
 12
368.7637229651
 22
31.3778792603
 13
368.7637229651
 23
31.3778792603
  0
SOLID
  8
0
 62
7
  6
CONTINUOUS
 10
368.7637229651
 20
31.3778792603
 11
368.6480977445
 21
31.3456149608
 12
368.3012227445
 22
31.3456149608
 13
368.3012227445
 23
31.3456149608
  0
SOLID
  8
0
 62
7
  6
CONTINUOUS
 10
368.3012227445
 20
31.2810878707
 11
368.3012227445
 21
31.3456149608
 12
368.6480977445
 22
31.3456149608
 13
368.6480977445
 23
31.3456149608
  0
SOLID
  8
0
 62
7
  6
CONTINUOUS
 10
368.6480977445
 20
31.3456149608
 11
368.5902854651
 21
31.2810878707
 12
368.3012227445
 22
31.2810878707
 13
368.3012227445
 23
31.2810878707
  0
SOLID
  8
0
 62
7
  6
CONTINUOUS
 10
368.4168479651
 20
31.1520336865
 11
368.3012227445
 21
31.2810878707
 12
368.5902854651
 22
31.2810878707
 13
368.5902854651
 23
31.2810878707
  0
SOLID
  8
0
 62
7
  6
CONTINUOUS
 10
358.8199727462
 20
31.2165607767
 11
359.3402852307
 21
31.345614957
 12
359.1668477307
 22
31.2488235635
 13
359.1668477307
 23
31.2488235635
  0
SOLID
  8
0
 62
7
  6
CONTINUOUS
 10
359.1668477307
 20
31.2488235635
 11
359.1090352445
 21
31.1842964734
 12
358.8199727462
 22
31.2165607767
 13
358.8199727462
 23
31.2165607767
  0
SOLID
  8
0
 62
7
  6
CONTINUOUS
 10
358.7621602445
 20
31.0229779898
 11
358.8199727462
 21
31.2165607767
 12
359.1090352445
 22
31.1842964734
 13
359.1090352445
 23
31.1842964734
  0
SOLID
  8
0
 62
7
  6
CONTINUOUS
 10
363.6184102445
 20
31.1520336865
 11
363.9652852445
 21
31.1842964611
 12
364.6012229651
 22
31.1842964611
 13
364.6012229651
 23
31.1842964611
  0
SOLID
  8
0
 62
7
  6
CONTINUOUS
 10
363.6184102445
 20
31.1520336865
 11
364.6012229651
 21
31.1842964611
 12
363.3871601343
 22
31.0875057863
 13
363.3871601343
 23
31.0875057863
  0
SOLID
  8
0
 62
7
  6
CONTINUOUS
 10
363.3871601343
 20
31.0875057863
 11
364.6012229651
 21
31.1842964611
 12
363.9652852445
 22
31.0552422808
 13
363.9652852445
 23
31.0552422808
  0
SOLID
  8
0
 62
7
  6
CONTINUOUS
 10
364.6012229651
 20
31.1842964611
 11
364.6012229651
 21
31.0552422808
 12
363.9652852445
 22
31.0552422808
 13
363.9652852445
 23
31.0552422808
  0
SOLID
  8
0
 62
7
  6
CONTINUOUS
 10
368.4168479651
 20
31.1520338754
 11
368.5902854651
 21
31.2810878668
 12
368.6480977445
 22
31.2165607767
 13
368.6480977445
 23
31.2165607767
  0
SOLID
  8
0
 62
7
  6
CONTINUOUS
 10
368.6480977445
 20
31.2165607767
 11
368.8215352445
 21
31.1520338754
 12
368.4168479651
 22
31.1520338754
 13
368.4168479651
 23
31.1520338754
  0
SOLID
  8
0
 62
7
  6
CONTINUOUS
 10
368.6480977445
 20
31.0552422931
 11
368.4168479651
 21
31.1520338754
 12
368.8215352445
 22
31.1520338754
 13
368.8215352445
 23
31.1520338754
  0
SOLID
  8
0
 62
7
  6
CONTINUOUS
 10
368.8215352445
 20
31.1520338754
 11
369.8043479651
 21
30.9907152029
 12
368.6480977445
 22
31.0552422931
 13
368.6480977445
 23
31.0552422931
  0
SOLID
  8
0
 62
7
  6
CONTINUOUS
 10
369.6309104651
 20
30.8939239876
 11
368.6480977445
 21
31.0552422931
 12
369.8043479651
 22
30.9907152029
 13
369.8043479651
 23
30.9907152029
  0
SOLID
  8
0
 62
7
  6
CONTINUOUS
 10
369.8043479651
 20
30.9907152029
 11
370.0355977445
 21
30.8939239876
 12
369.6309104651
 22
30.8939239876
 13
369.6309104651
 23
30.8939239876
  0
SOLID
  8
0
 62
7
  6
CONTINUOUS
 10
369.8043479651
 20
30.8293967193
 11
369.6309104651
 21
30.8939239876
 12
370.0355977445
 22
30.8939239876
 13
370.0355977445
 23
30.8939239876
  0
SOLID
  8
0
 62
7
  6
CONTINUOUS
 10
369.8043479651
 20
30.8293967193
 11
370.0355977445
 21
30.8939239876
 12
369.8621602445
 22
30.7648682694
 13
369.8621602445
 23
30.7648682694
  0
SOLID
  8
0
 62
7
  6
CONTINUOUS
 10
370.0355977445
 20
30.8939239876
 11
370.1512223035
 21
30.7648682694
 12
369.8621602445
 22
30.7648682694
 13
369.8621602445
 23
30.7648682694
  0
SOLID
  8
0
 62
7
  6
CONTINUOUS
 10
369.8043479651
 20
30.7003411846
 11
369.8621602445
 21
30.7648682694
 12
370.1512223035
 22
30.7648682694
 13
370.1512223035
 23
30.7648682694
  0
SOLID
  8
0
 62
7
  6
CONTINUOUS
 10
370.1512223035
 20
30.7648682694
 11
370.1512223035
 21
30.7003411846
 12
369.8043479651
 22
30.7003411846
 13
369.8043479651
 23
30.7003411846
  0
SOLID
  8
0
 62
7
  6
CONTINUOUS
 10
369.6887227445
 20
30.6680782357
 11
369.8043479651
 21
30.7003411846
 12
370.1512223035
 22
30.7003411846
 13
370.1512223035
 23
30.7003411846
  0
SOLID
  8
0
 62
7
  6
CONTINUOUS
 10
369.6887227445
 20
30.6680782357
 11
370.1512223035
 21
30.7003411846
 12
369.4574729651
 22
30.6358140998
 13
369.4574729651
 23
30.6358140998
  0
SOLID
  8
0
 62
7
  6
CONTINUOUS
 10
370.1512223035
 20
30.7003411846
 11
370.0355977445
 21
30.6035511455
 12
369.4574729651
 22
30.6358140998
 13
369.4574729651
 23
30.6358140998
  0
SOLID
  8
0
 62
7
  6
CONTINUOUS
 10
370.0355977445
 20
30.6035511455
 11
368.5902854651
 21
30.5712868422
 12
369.4574729651
 22
30.6358140998
 13
369.4574729651
 23
30.6358140998
  0
SOLID
  8
0
 62
7
  6
CONTINUOUS
 10
369.4574729651
 20
30.6358140998
 11
368.5902854651
 21
30.5712868422
 12
369.1105979651
 22
30.6358140998
 13
369.1105979651
 23
30.6358140998
  0
SOLID
  8
0
 62
7
  6
CONTINUOUS
 10
368.5902854651
 20
30.5712868422
 11
368.4168479651
 21
30.6358140998
 12
369.1105979651
 22
30.6358140998
 13
369.1105979651
 23
30.6358140998
  0
SOLID
  8
0
 62
7
  6
CONTINUOUS
 10
368.5902854651
 20
30.5712868422
 11
370.0355977445
 21
30.6035511455
 12
368.7637229651
 22
30.5390223111
 13
368.7637229651
 23
30.5390223111
  0
SOLID
  8
0
 62
7
  6
CONTINUOUS
 10
370.0355977445
 20
30.6035511455
 11
369.8043479651
 21
30.5390223111
 12
368.7637229651
 22
30.5390223111
 13
368.7637229651
 23
30.5390223111
  0
SOLID
  8
0
 62
7
  6
CONTINUOUS
 10
369.1105979651
 20
30.5067599302
 11
368.7637229651
 21
30.5390223111
 12
369.8043479651
 22
30.5390223111
 13
369.8043479651
 23
30.5390223111
  0
SOLID
  8
0
 62
7
  6
CONTINUOUS
 10
369.8043479651
 20
30.5390223111
 11
369.4574729651
 21
30.5067599302
 12
369.1105979651
 22
30.5067599302
 13
369.1105979651
 23
30.5067599302
  0
SOLID
  8
0
 62
7
  6
CONTINUOUS
 10
358.7621602445
 20
31.0229779898
 11
359.1090352445
 21
31.1842964734
 12
359.0512227376
 22
31.0552422931
 13
359.0512227376
 23
31.0552422931
  0
SOLID
  8
0
 62
7
  6
CONTINUOUS
 10
359.0512227376
 20
31.0552422931
 11
359.0512227376
 21
30.9584509954
 12
358.7621602445
 22
31.0229779898
 13
358.7621602445
 23
31.0229779898
  0
SOLID
  8
0
 62
7
  6
CONTINUOUS
 10
358.8199727462
 20
30.8293967193
 11
358.7621602445
 21
31.0229779898
 12
359.0512227376
 22
30.9584509954
 13
359.0512227376
 23
30.9584509954
  0
SOLID
  8
0
 62
7
  6
CONTINUOUS
 10
359.0512227376
 20
30.9584509954
 11
359.1668477307
 21
30.797132416
 12
358.8199727462
 22
30.8293967193
 13
358.8199727462
 23
30.8293967193
  0
SOLID
  8
0
 62
7
  6
CONTINUOUS
 10
358.9355977445
 20
30.7003413087
 11
358.8199727462
 21
30.8293967193
 12
359.1668477307
 22
30.797132416
 13
359.1668477307
 23
30.797132416
  0
SOLID
  8
0
 62
7
  6
CONTINUOUS
 10
359.1668477307
 20
30.797132416
 11
359.3402852307
 21
30.7003413087
 12
358.9355977445
 22
30.7003413087
 13
358.9355977445
 23
30.7003413087
  0
SOLID
  8
0
 62
7
  6
CONTINUOUS
 10
359.0512227376
 20
30.6358140759
 11
358.9355977445
 21
30.7003413087
 12
359.3402852307
 22
30.7003413087
 13
359.3402852307
 23
30.7003413087
  0
SOLID
  8
0
 62
7
  6
CONTINUOUS
 10
359.3402852307
 20
30.7003413087
 11
359.6871602721
 21
30.6358140759
 12
359.0512227376
 22
30.6358140759
 13
359.0512227376
 23
30.6358140759
  0
SOLID
  8
0
 62
7
  6
CONTINUOUS
 10
359.2246602583
 20
30.5712868422
 11
359.0512227376
 21
30.6358140759
 12
359.6871602721
 22
30.6358140759
 13
359.6871602721
 23
30.6358140759
  0
SOLID
  8
0
 62
7
  6
CONTINUOUS
 10
363.2715352445
 20
31.0229779808
 11
363.3871601343
 21
31.0875057863
 12
363.9652852445
 22
31.0552422931
 13
363.9652852445
 23
31.0552422931
  0
SOLID
  8
0
 62
7
  6
CONTINUOUS
 10
363.9652852445
 20
31.0552422931
 11
363.7340351343
 21
31.0229779808
 12
363.2715352445
 22
31.0229779808
 13
363.2715352445
 23
31.0229779808
  0
SOLID
  8
0
 62
7
  6
CONTINUOUS
 10
363.1559103548
 20
30.8939238094
 11
363.2715352445
 21
31.0229779808
 12
363.7340351343
 22
31.0229779808
 13
363.7340351343
 23
31.0229779808
  0
SOLID
  8
0
 62
7
  6
CONTINUOUS
 10
363.5027853548
 20
30.926187309
 11
363.1559103548
 21
30.8939238094
 12
363.6184102445
 22
30.9907152029
 13
363.6184102445
 23
30.9907152029
  0
SOLID
  8
0
 62
7
  6
CONTINUOUS
 10
363.1559103548
 20
30.8939238094
 11
363.7340351343
 21
31.0229779898
 12
363.6184102445
 22
30.9907152029
 13
363.6184102445
 23
30.9907152029
  0
SOLID
  8
0
 62
7
  6
CONTINUOUS
 10
363.5027853548
 20
30.926187309
 11
363.4449727445
 21
30.8293967193
 12
363.1559103548
 22
30.8939238094
 13
363.1559103548
 23
30.8939238094
  0
SOLID
  8
0
 62
7
  6
CONTINUOUS
 10
363.1559103548
 20
30.797132416
 11
363.1559103548
 21
30.8939238094
 12
363.4449727445
 22
30.8293967193
 13
363.4449727445
 23
30.8293967193
  0
SOLID
  8
0
 62
7
  6
CONTINUOUS
 10
363.4449727445
 20
30.8293967193
 11
363.4449727445
 21
30.7648681127
 12
363.1559103548
 22
30.797132416
 13
363.1559103548
 23
30.797132416
  0
SOLID
  8
0
 62
7
  6
CONTINUOUS
 10
363.2137226343
 20
30.6680782357
 11
363.1559103548
 21
30.797132416
 12
363.4449727445
 22
30.7648681127
 13
363.4449727445
 23
30.7648681127
  0
SOLID
  8
0
 62
7
  6
CONTINUOUS
 10
364.6012229651
 20
30.8616599362
 11
364.890285024
 21
30.7648681127
 12
364.543410024
 22
30.797132416
 13
364.543410024
 23
30.797132416
  0
SOLID
  8
0
 62
7
  6
CONTINUOUS
 10
364.369972524
 20
30.7003410226
 11
364.543410024
 21
30.797132416
 12
364.890285024
 22
30.7648681127
 13
364.890285024
 23
30.7648681127
  0
SOLID
  8
0
 62
7
  6
CONTINUOUS
 10
364.369972524
 20
30.7003410226
 11
364.890285024
 21
30.7648681127
 12
364.6012229651
 22
30.6680782357
 13
364.6012229651
 23
30.6680782357
  0
SOLID
  8
0
 62
7
  6
CONTINUOUS
 10
364.890285024
 20
30.7648681127
 11
364.9480979651
 21
30.6035511455
 12
364.6012229651
 22
30.6680782357
 13
364.6012229651
 23
30.6680782357
  0
SOLID
  8
0
 62
7
  6
CONTINUOUS
 10
364.6590352445
 20
30.5712868422
 11
364.6012229651
 21
30.6680782357
 12
364.9480979651
 22
30.6035511455
 13
364.9480979651
 23
30.6035511455
  0
SOLID
  8
0
 62
7
  6
CONTINUOUS
 10
364.6590352445
 20
30.5712868422
 11
364.9480979651
 21
30.6035511455
 12
364.716847524
 22
30.5067598731
 13
364.716847524
 23
30.5067598731
  0
SOLID
  8
0
 62
7
  6
CONTINUOUS
 10
364.9480979651
 20
30.6035511455
 11
365.0059102445
 21
30.5067598731
 12
364.716847524
 22
30.5067598731
 13
364.716847524
 23
30.5067598731
  0
SOLID
  8
0
 62
7
  6
CONTINUOUS
 10
360.2652852997
 20
30.7326051679
 11
360.3230977445
 21
30.8293966612
 12
360.6121602997
 22
30.8293966612
 13
360.6121602997
 23
30.8293966612
  0
SOLID
  8
0
 62
7
  6
CONTINUOUS
 10
360.6121602997
 20
30.8293966612
 11
360.5543476894
 21
30.7003410226
 12
360.2652852997
 22
30.7326051679
 13
360.2652852997
 23
30.7326051679
  0
SOLID
  8
0
 62
7
  6
CONTINUOUS
 10
360.091847717
 20
30.6680782357
 11
360.2652852997
 21
30.7326051679
 12
360.5543476894
 22
30.7003410226
 13
360.5543476894
 23
30.7003410226
  0
SOLID
  8
0
 62
7
  6
CONTINUOUS
 10
360.091847717
 20
30.6680782357
 11
360.5543476894
 21
30.7003410226
 12
359.6871602721
 22
30.6358139324
 13
359.6871602721
 23
30.6358139324
  0
SOLID
  8
0
 62
7
  6
CONTINUOUS
 10
360.5543476894
 20
30.7003410226
 11
360.3809101894
 21
30.6035511455
 12
359.6871602721
 22
30.6358139324
 13
359.6871602721
 23
30.6358139324
  0
SOLID
  8
0
 62
7
  6
CONTINUOUS
 10
359.2246602583
 20
30.5712868422
 11
359.6871602721
 21
30.6358139324
 12
360.3809101894
 22
30.6035511455
 13
360.3809101894
 23
30.6035511455
  0
SOLID
  8
0
 62
7
  6
CONTINUOUS
 10
359.2246602583
 20
30.5712868422
 11
360.3809101894
 21
30.6035511455
 12
359.3980977583
 22
30.5390224228
 13
359.3980977583
 23
30.5390224228
  0
SOLID
  8
0
 62
7
  6
CONTINUOUS
 10
360.3809101894
 20
30.6035511455
 11
360.1496602445
 21
30.5390224228
 12
359.3980977583
 22
30.5390224228
 13
359.3980977583
 23
30.5390224228
  0
SOLID
  8
0
 62
7
  6
CONTINUOUS
 10
359.744972717
 20
30.5067597521
 11
359.3980977583
 21
30.5390224228
 12
360.1496602445
 22
30.5390224228
 13
360.1496602445
 23
30.5390224228
  0
SOLID
  8
0
 62
7
  6
CONTINUOUS
 10
363.2137226343
 20
30.6680782357
 11
363.4449727445
 21
30.7648681127
 12
363.5027853548
 22
30.7003410226
 13
363.5027853548
 23
30.7003410226
  0
SOLID
  8
0
 62
7
  6
CONTINUOUS
 10
363.5027853548
 20
30.7003410226
 11
363.7340351343
 21
30.6358139324
 12
363.2137226343
 22
30.6680782357
 13
363.2137226343
 23
30.6680782357
  0
SOLID
  8
0
 62
7
  6
CONTINUOUS
 10
363.3871601343
 20
30.5712868422
 11
363.2137226343
 21
30.6680782357
 12
363.7340351343
 22
30.6358139324
 13
363.7340351343
 23
30.6358139324
  0
SOLID
  8
0
 62
7
  6
CONTINUOUS
 10
364.0809101343
 20
30.6358139363
 11
364.369972524
 21
30.7003410226
 12
364.6012229651
 22
30.6680782357
 13
364.6012229651
 23
30.6680782357
  0
SOLID
  8
0
 62
7
  6
CONTINUOUS
 10
364.6012229651
 20
30.6680782357
 11
364.543410024
 21
30.6035511455
 12
364.0809101343
 22
30.6358139363
 13
364.0809101343
 23
30.6358139363
  0
SOLID
  8
0
 62
7
  6
CONTINUOUS
 10
364.543410024
 20
30.6035511455
 11
363.3871601343
 21
30.5712868422
 12
364.0809101343
 22
30.6358139363
 13
364.0809101343
 23
30.6358139363
  0
SOLID
  8
0
 62
7
  6
CONTINUOUS
 10
363.3871601343
 20
30.5712868422
 11
363.7340351343
 21
30.6358139363
 12
364.0809101343
 22
30.6358139363
 13
364.0809101343
 23
30.6358139363
  0
SOLID
  8
0
 62
7
  6
CONTINUOUS
 10
363.3871601343
 20
30.5712868422
 11
364.543410024
 21
30.6035511455
 12
363.5027853548
 22
30.5390225267
 13
363.5027853548
 23
30.5390225267
  0
SOLID
  8
0
 62
7
  6
CONTINUOUS
 10
364.543410024
 20
30.6035511455
 11
364.369972524
 21
30.5390225267
 12
363.5027853548
 22
30.5390225267
 13
363.5027853548
 23
30.5390225267
  0
SOLID
  8
0
 62
7
  6
CONTINUOUS
 10
363.7340351343
 20
30.5067596914
 11
363.5027853548
 21
30.5390225267
 12
364.369972524
 22
30.5390225267
 13
364.369972524
 23
30.5390225267
  0
SOLID
  8
0
 62
7
  6
CONTINUOUS
 10
364.369972524
 20
30.5390225267
 11
364.0809101343
 21
30.5067596914
 12
363.7340351343
 22
30.5067596914
 13
363.7340351343
 23
30.5067596914
  0
SOLID
  8
0
 62
7
  6
CONTINUOUS
 10
368.7637229651
 20
30.6680782357
 11
368.4168479651
 21
30.6358138717
 12
368.6480977445
 22
30.7003410226
 13
368.6480977445
 23
30.7003410226
  0
SOLID
  8
0
 62
7
  6
CONTINUOUS
 10
368.6480977445
 20
30.7003410226
 11
368.4168479651
 21
30.6358138717
 12
368.5902854651
 22
30.7648680521
 13
368.5902854651
 23
30.7648680521
  0
SOLID
  8
0
 62
7
  6
CONTINUOUS
 10
368.4168479651
 20
30.6358138717
 11
368.3012227445
 21
30.7648680521
 12
368.5902854651
 22
30.7648680521
 13
368.5902854651
 23
30.7648680521
  0
SOLID
  8
0
 62
7
  6
CONTINUOUS
 10
368.7637229651
 20
30.6680782357
 11
369.1105979651
 21
30.6358138717
 12
368.4168479651
 22
30.6358138717
 13
368.4168479651
 23
30.6358138717
  0
SOLID
  8
0
 62
7
  6
CONTINUOUS
 10
365.4684104651
 20
30.5067597521
 11
365.4684104651
 21
31.5391977439
 12
365.757472524
 22
30.5067597521
 13
365.757472524
 23
31.5391977439
  0
ENDBLK
  8
0
  6
BYBLOCK
 62
0
  0
BLOCK
  8
0
 62
2
  6
CONTINUOUS
  2
SYMBOL_0_BL0
 70
64
 10
240.8592468615
 20
19.762288695
  0
TEXT
  8
0
 62
7
  6
CONTINUOUS
 10
227.1239507038
 20
19.1357028027
  7
TEXTSTYLE_3
 40
2.7338706658
  1
Ammeraal Beltech
 41
1.0
 51
15.0
 72
0
  0
TEXT
  8
0
 62
7
  6
CONTINUOUS
 10
237.9247515296
 20
16.8621661299
  7
TEXTSTYLE_4
 40
1.0935482663
  1
Innovation & Service in Belting
 41
1.0
 72
0
  0
LINE
  8
0
 62
7
  6
CONTINUOUS
 10
221.0994100525
 20
19.9022961113
 11
221.8775620458
 21
23.5632134089
  0
LINE
  8
0
 62
7
  6
CONTINUOUS
 10
231.9727303357
 20
27.2266073205
 11
222.3653797889
 21
24.1049898993
  0
LINE
  8
0
 62
7
  6
CONTINUOUS
 10
221.3246933848
 20
19.2089453082
 11
228.8317686459
 21
12.4495443822
  0
LINE
  8
0
 62
7
  6
CONTINUOUS
 10
221.5872277955
 20
20.4440726016
 11
232.3954971607
 21
23.9558922005
  0
LINE
  8
0
 62
7
  6
CONTINUOUS
 10
232.3912920235
 20
13.6061036368
 11
223.9458323548
 21
21.2104296785
  0
LINE
  8
0
 62
7
  6
CONTINUOUS
 10
232.9111147433
 20
26.3816822048
 11
231.9345552061
 21
21.7873308023
  0
LINE
  8
0
 62
7
  6
CONTINUOUS
 10
231.2347532584
 20
18.4950214885
 11
230.5483050469
 21
15.2655365641
  0
LINE
  8
0
 62
7
  6
CONTINUOUS
 10
233.5922108419
 20
13.9963058145
 11
234.5484423775
 21
18.4950214885
  0
LINE
  8
0
 62
7
  6
CONTINUOUS
 10
235.2482443252
 20
21.7873308023
 11
235.6924861276
 21
23.8773241617
  0
LINE
  8
0
 62
7
  6
CONTINUOUS
 10
229.5448697213
 20
12.2979700695
 11
233.1043930989
 21
13.4545293241
  0
LINE
  8
0
 62
7
  6
CONTINUOUS
 10
232.685831411
 20
27.0750330078
 11
235.4672027953
 21
24.5706749648
  0
ARC
  8
0
 62
7
  6
CONTINUOUS
 10
222.5906631212
 20
23.4116390962
 40
0.7290321776
 50
108.0
 51
168.0
  0
ARC
  8
0
 62
7
  6
CONTINUOUS
 10
232.198013668
 20
26.5332565175
 40
0.7290321776
 50
348.0
 51
108.0
  0
ARC
  8
0
 62
7
  6
CONTINUOUS
 10
234.9793850522
 20
24.0288984744
 40
0.7290321776
 50
348.0
 51
48.0
  0
ARC
  8
0
 62
7
  6
CONTINUOUS
 10
229.319586389
 20
12.9913208726
 40
0.7290321776
 50
228.0
 51
288.0
  0
ARC
  8
0
 62
7
  6
CONTINUOUS
 10
221.8125111278
 20
19.7507217986
 40
0.7290321776
 50
108.0
 51
228.0
  0
ARC
  8
0
 62
7
  6
CONTINUOUS
 10
232.8791097665
 20
14.1478801272
 40
0.7290321776
 50
228.0
 51
348.0
  0
ENDBLK
  8
0
  6
BYBLOCK
 62
0
  0
ENDSEC
  0
SECTION
  2
ENTITIES
  0
TEXT
  8
0
 62
5
  6
CONTINUOUS
 10
304.937007874
 20
25.636
  7
TEXTSTYLE_2
 40
2.8
  1
Scale :
 41
0.6
 51
0.000019
 72
0
  0
TEXT
  8
0
 62
5
  6
CONTINUOUS
 10
324.937007874
 20
25.636
  7
TEXTSTYLE_2
 40
2.8
  1
Belt type:
 41
0.6
 51
0.000019
 72
0
  0
INSERT
  8
0
 62
2
  6
CONTINUOUS
  2
SYMBOL_0_BL0
 10
240.8592468615
 20
19.762288695
  0
INSERT
  8
0
 62
2
  6
CONTINUOUS
  2
SYMBOL_5_BL1
 10
382.7840918555
 20
35.5067593403
  0
LINE
  8
0
 62
2
  6
CONTINUOUS
 10
218.937007874
 20
30.0
 11
408.937007874
 21
30.0
  0
LINE
  8
0
 62
2
  6
CONTINUOUS
 10
218.937007874
 20
30.0
 11
218.937007874
 21
10.0
  0
LINE
  8
0
 62
2
  6
CONTINUOUS
 10
218.937007874
 20
10.0
 11
408.937007874
 21
10.0
  0
LINE
  8
0
 62
2
  6
CONTINUOUS
 10
303.937007874
 20
30.0
 11
303.937007874
 21
10.0
  0
LINE
  8
0
 62
2
  6
CONTINUOUS
 10
323.937007874
 20
30.0
 11
323.937007874
 21
10.0
  0
LINE
  8
0
 62
2
  6
CONTINUOUS
 10
408.937007874
 20
30.0
 11
408.937007874
 21
10.0
  0
TEXT
  8
0
 62
5
  6
CONTINUOUS
 10
221.937007874
 20
23.303
  7
TEXTSTYLE_5
 40
1.52
  1
                                                                     Ammeraal Beltech Modular A/S
 41
1.0
 72
0
  0
TEXT
  8
0
 62
5
  6
CONTINUOUS
 10
221.937007874
 20
20.595
  7
TEXTSTYLE_5
 40
1.5
  1
                                                                      Hjulmagervej 21, 7100 Vejle,  DK
 41
1.0
 72
0
  0
TEXT
  8
0
 62
5
  6
CONTINUOUS
 10
221.937007874
 20
17.881
  7
TEXTSTYLE_5
 40
1.495
  1
                                                                      tel: 
 41
1.0
 72
0
  0
TEXT
  8
0
 62
5
  6
CONTINUOUS
 10
266.9239544389
 20
17.881
  7
TEXTSTYLE_5
 40
1.51
  1
+45 75723100     fax: +45 75723348
 41
1.0
 72
0
  0
TEXT
  8
0
 62
5
  6
CONTINUOUS
 10
221.937007874
 20
15.177
  7
TEXTSTYLE_5
 40
1.5
  1
                                                                      admin@unichains.dk  www.unichains.com
 41
1.0
 72
0
  0
TEXT
  8
0
 62
5
  6
CONTINUOUS
 10
308.687007874
 20
13.75
  7
TEXTSTYLE_6
 40
5.0
  1
1:1
 41
0.7
 72
1
 11
313.937007874
 21
13.75
  0
TEXT
  8
0
 62
5
  6
CONTINUOUS
 10
326.937007874
 20
13.75
  7
TEXTSTYLE_7
 40
7.5
  1
uni Flex ASB-43 Tab K600
 41
0.3375
 72
0
  0
LINE
  8
0
 62
7
  6
CONTINUOUS
 10
0.0
 20
0.0
 11
0.0
 21
297.0
  0
LINE
  8
0
 62
7
  6
CONTINUOUS
 10
8.937007874
 20
10.0
 11
8.937007874
 21
287.0
  0
LINE
  8
0
 62
7
  6
CONTINUOUS
 10
0.0
 20
0.0
 11
420.0
 21
0.0
  0
LINE
  8
0
 62
7
  6
CONTINUOUS
 10
408.937007874
 20
10.0
 11
8.937007874
 21
10.0
  0
LINE
  8
0
 62
7
  6
CONTINUOUS
 10
218.937007874
 20
30.0
 11
408.937007874
 21
30.0
  0
LINE
  8
0
 62
7
  6
CONTINUOUS
 10
210.0
 20
297.0
 11
210.0
 21
292.0
  0
LINE
  8
0
 62
7
  6
CONTINUOUS
 10
210.0
 20
0.0
 11
210.0
 21
5.0
  0
LINE
  8
0
 62
7
  6
CONTINUOUS
 10
8.937007874
 20
287.0
 11
408.937007874
 21
287.0
  0
LINE
  8
0
 62
7
  6
CONTINUOUS
 10
0.0
 20
297.0
 11
420.0
 21
297.0
  0
LINE
  8
0
 62
7
  6
CONTINUOUS
 10
408.937007874
 20
287.0
 11
408.937007874
 21
10.0
  0
LINE
  8
0
 62
7
  6
CONTINUOUS
 10
420.0
 20
0.0
 11
420.0
 21
297.0
  0
LINE
  8
0
 62
7
  6
CONTINUOUS
 10
156.6249658818
 20
124.9222164133
 11
157.6249658818
 21
124.9222164133
  0
LINE
  8
0
 62
7
  6
CONTINUOUS
 10
170.3789658818
 20
124.9222164133
 11
171.3789658818
 21
124.9222164133
  0
LINE
  8
0
 62
7
  6
CONTINUOUS
 10
184.8789658818
 20
124.9222164133
 11
185.8789658818
 21
124.9222164133
  0
LINE
  8
0
 62
7
  6
CONTINUOUS
 10
200.5039658818
 20
124.9222164133
 11
201.5039658818
 21
124.9222164133
  0
LINE
  8
DEFAULT_1
 62
2
  6
CENTER
 10
67.2440908818
 20
129.2722164133
 11
213.7244824276
 21
129.2722164133
  0
LINE
  8
0
 62
7
  6
CONTINUOUS
 10
58.4789658818
 20
158.2722164133
 11
58.4789658818
 21
154.020678888
  0
LINE
  8
0
 62
7
  6
CONTINUOUS
 10
59.2329658818
 20
142.1882164133
 11
59.2329658818
 21
150.9599381211
  0
LINE
  8
0
 62
7
  6
CONTINUOUS
 10
64.4743826843
 20
153.9838827802
 11
63.7402432069
 21
151.0825918141
  0
LINE
  8
0
 62
7
  6
CONTINUOUS
 10
152.8749658818
 20
141.1882164133
 11
148.2789658818
 21
141.1882164133
  0
LINE
  8
0
 62
7
  6
CONTINUOUS
 10
139.7789658818
 20
141.1882164133
 11
135.5789658818
 21
141.1882164133
  0
LINE
  8
0
 62
7
  6
CONTINUOUS
 10
127.0789658818
 20
141.1882164133
 11
122.8789658818
 21
141.1882164133
  0
LINE
  8
0
 62
7
  6
CONTINUOUS
 10
114.3789658818
 20
141.1882164133
 11
110.1789658818
 21
141.1882164133
  0
LINE
  8
0
 62
7
  6
CONTINUOUS
 10
101.6789658818
 20
141.1882164133
 11
97.4789658818
 21
141.1882164133
  0
LINE
  8
0
 62
7
  6
CONTINUOUS
 10
88.9789658818
 20
141.1882164133
 11
84.7789658818
 21
141.1882164133
  0
LINE
  8
0
 62
7
  6
CONTINUOUS
 10
76.2789658818
 20
141.1882164133
 11
72.0789658818
 21
141.1882164133
  0
LINE
  8
0
 62
7
  6
CONTINUOUS
 10
63.5789658818
 20
141.1882164133
 11
60.2329658818
 21
141.1882164133
  0
LINE
  8
0
 62
7
  6
CONTINUOUS
 10
165.9289658818
 20
141.5222164133
 11
162.0749658818
 21
141.5222164133
  0
LINE
  8
0
 62
7
  6
CONTINUOUS
 10
175.8289658818
 20
141.5222164133
 11
180.4289658818
 21
141.5222164133
  0
LINE
  8
0
 62
7
  6
CONTINUOUS
 10
190.6289658818
 20
141.6722164133
 11
194.7539658818
 21
141.6722164133
  0
LINE
  8
0
 62
7
  6
CONTINUOUS
 10
199.6289658818
 20
142.2222164133
 11
201.3789658818
 21
142.2222164133
  0
LINE
  8
0
 62
7
  6
CONTINUOUS
 10
186.1289658818
 20
142.3222164133
 11
184.6289658818
 21
142.3222164133
  0
LINE
  8
0
 62
7
  6
CONTINUOUS
 10
171.7789658818
 20
142.4722164133
 11
169.9789658818
 21
142.4722164133
  0
LINE
  8
0
 62
7
  6
CONTINUOUS
 10
157.7749658818
 20
142.4722164133
 11
156.4749658818
 21
142.4722164133
  0
LINE
  8
0
 62
7
  6
CONTINUOUS
 10
59.2176885568
 20
151.0825918141
 11
58.4835490794
 21
153.9838827802
  0
LINE
  8
0
 62
7
  6
CONTINUOUS
 10
63.7249658818
 20
150.9599381211
 11
63.7249658818
 21
146.7762164133
  0
LINE
  8
0
 62
7
  6
CONTINUOUS
 10
64.4789658818
 20
154.020678888
 11
64.4789658818
 21
158.2722164133
  0
LINE
  8
0
 62
7
  6
CONTINUOUS
 10
64.8289658818
 20
126.4727266705
 11
64.8289658818
 21
129.9466185473
  0
LINE
  8
0
 62
7
  6
CONTINUOUS
 10
65.5789658818
 20
132.9915514681
 11
65.5789658818
 21
139.1882164133
  0
LINE
  8
0
 62
7
  6
CONTINUOUS
 10
70.0789658818
 20
139.1882164133
 11
70.0789658818
 21
132.9915514681
  0
LINE
  8
0
 62
7
  6
CONTINUOUS
 10
70.8289658818
 20
126.4727266705
 11
70.8289658818
 21
129.9466185473
  0
LINE
  8
0
 62
7
  6
CONTINUOUS
 10
71.1789658818
 20
158.2722164133
 11
71.1789658818
 21
154.020678888
  0
LINE
  8
0
 62
7
  6
CONTINUOUS
 10
71.9329658818
 20
146.7762164133
 11
71.9329658818
 21
150.9599381211
  0
LINE
  8
0
 62
7
  6
CONTINUOUS
 10
76.4249658818
 20
150.9599381211
 11
76.4249658818
 21
146.7762164133
  0
LINE
  8
0
 62
7
  6
CONTINUOUS
 10
77.1789658818
 20
154.020678888
 11
77.1789658818
 21
158.2722164133
  0
LINE
  8
0
 62
7
  6
CONTINUOUS
 10
64.8335490794
 20
129.9834146552
 11
65.5636885568
 21
132.8688977752
  0
LINE
  8
0
 62
7
  6
CONTINUOUS
 10
77.1743826843
 20
153.9838827802
 11
76.4402432069
 21
151.0825918141
  0
POLYLINE
  8
0
 62
7
  6
CONTINUOUS
 66
1
 70
0
  0
VERTEX
  8
0
 62
7
  6
CONTINUOUS
 10
200.2249658818
 20
151.9610467259
  0
VERTEX
  8
0
 62
7
  6
CONTINUOUS
 10
200.0161489502
 20
151.9502742536
  0
VERTEX
  8
0
 62
7
  6
CONTINUOUS
 10
199.8086131278
 20
151.9178591505
  0
VERTEX
  8
0
 62
7
  6
CONTINUOUS
 10
199.6058580354
 20
151.8642015917
  0
VERTEX
  8
0
 62
7
  6
CONTINUOUS
 10
199.4109293927
 20
151.7902880312
  0
VERTEX
  8
0
 62
7
  6
CONTINUOUS
 10
199.2242394014
 20
151.6962993781
  0
VERTEX
  8
0
 62
7
  6
CONTINUOUS
 10
199.0479963795
 20
151.5830596232
  0
VERTEX
  8
0
 62
7
  6
CONTINUOUS
 10
198.8851803854
 20
151.4524156687
  0
VERTEX
  8
0
 62
7
  6
CONTINUOUS
 10
198.7378864825
 20
151.3063490328
  0
VERTEX
  8
0
 62
7
  6
CONTINUOUS
 10
198.6061711864
 20
151.1449079849
  0
VERTEX
  8
0
 62
7
  6
CONTINUOUS
 10
198.4920124146
 20
150.9701212563
  0
VERTEX
  8
0
 62
7
  6
CONTINUOUS
 10
198.3972535331
 20
150.7848744558
  0
VERTEX
  8
0
 62
7
  6
CONTINUOUS
 10
198.3227113573
 20
150.5912662994
  0
VERTEX
  8
0
 62
7
  6
CONTINUOUS
 10
198.2685762683
 20
150.3896355643
  0
VERTEX
  8
0
 62
7
  6
CONTINUOUS
 10
198.2358502245
 20
150.1828974073
  0
VERTEX
  8
0
 62
7
  6
CONTINUOUS
 10
198.2249658818
 20
149.9744541091
  0
SEQEND
  0
POLYLINE
  8
0
 62
7
  6
CONTINUOUS
 66
1
 70
0
  0
VERTEX
  8
0
 62
7
  6
CONTINUOUS
 10
205.8249658818
 20
151.9610467259
  0
VERTEX
  8
0
 62
7
  6
CONTINUOUS
 10
205.87169342
 20
151.961620219
  0
VERTEX
  8
0
 62
7
  6
CONTINUOUS
 10
205.917586474
 20
151.9633422347
  0
VERTEX
  8
0
 62
7
  6
CONTINUOUS
 10
205.9609381355
 20
151.9661502946
  0
VERTEX
  8
0
 62
7
  6
CONTINUOUS
 10
206.0010073529
 20
151.9699874062
  0
VERTEX
  8
0
 62
7
  6
CONTINUOUS
 10
206.0370930588
 20
151.9748087315
  0
VERTEX
  8
0
 62
7
  6
CONTINUOUS
 10
206.0678821288
 20
151.9804618684
  0
VERTEX
  8
0
 62
7
  6
CONTINUOUS
 10
206.0923878429
 20
151.9867400995
  0
VERTEX
  8
0
 62
7
  6
CONTINUOUS
 10
206.1103095357
 20
151.9935282005
  0
VERTEX
  8
0
 62
7
  6
CONTINUOUS
 10
206.1213031071
 20
152.0007154622
  0
VERTEX
  8
0
 62
7
  6
CONTINUOUS
 10
206.1249658818
 20
152.0080357012
  0
SEQEND
  0
LINE
  8
0
 62
7
  6
CONTINUOUS
 10
205.7922933161
 20
145.3408881993
 11
206.1249658818
 21
145.3408881993
  0
LINE
  8
0
 62
7
  6
CONTINUOUS
 10
205.8249658818
 20
151.9610467259
 11
200.2249658818
 21
151.9610467259
  0
LINE
  8
AXES
 62
2
  6
CENTER
 10
56.4789658818
 20
154.6722164133
 11
211.3789658818
 21
154.6722164133
  0
LINE
  8
0
 62
7
  6
CONTINUOUS
 10
205.9170698043
 20
145.14063232
 11
200.2249658818
 21
145.1408881993
  0
LINE
  8
0
 62
7
  6
CONTINUOUS
 10
205.792293308
 20
151.7610467259
 11
206.1249658818
 21
151.7610467259
  0
LINE
  8
0
 62
7
  6
CONTINUOUS
 10
70.0942432069
 20
132.8688977752
 11
70.8243826843
 21
129.9834146552
  0
LINE
  8
0
 62
7
  6
CONTINUOUS
 10
71.9176885568
 20
151.0825918141
 11
71.1835490794
 21
153.9838827802
  0
LINE
  8
0
 62
7
  6
CONTINUOUS
 10
77.5289658818
 20
126.4727266705
 11
77.5289658818
 21
129.9466185473
  0
LINE
  8
0
 62
7
  6
CONTINUOUS
 10
78.2789658818
 20
132.9915514681
 11
78.2789658818
 21
139.1882164133
  0
LINE
  8
0
 62
7
  6
CONTINUOUS
 10
82.7789658818
 20
139.1882164133
 11
82.7789658818
 21
132.9915514681
  0
LINE
  8
0
 62
7
  6
CONTINUOUS
 10
83.5289658818
 20
126.4727266705
 11
83.5289658818
 21
129.9466185473
  0
LINE
  8
0
 62
7
  6
CONTINUOUS
 10
83.8789658818
 20
158.2722164133
 11
83.8789658818
 21
154.020678888
  0
LINE
  8
0
 62
7
  6
CONTINUOUS
 10
84.6329658818
 20
146.7762164133
 11
84.6329658818
 21
150.9599381211
  0
LINE
  8
0
 62
7
  6
CONTINUOUS
 10
89.1249658818
 20
150.9599381211
 11
89.1249658818
 21
146.7762164133
  0
LINE
  8
0
 62
7
  6
CONTINUOUS
 10
89.8789658818
 20
154.020678888
 11
89.8789658818
 21
158.2722164133
  0
LINE
  8
0
 62
7
  6
CONTINUOUS
 10
90.2289658818
 20
126.4727266705
 11
90.2289658818
 21
129.9466185473
  0
LINE
  8
0
 62
7
  6
CONTINUOUS
 10
90.9789658818
 20
132.9915514681
 11
90.9789658818
 21
139.1882164133
  0
LINE
  8
0
 62
7
  6
CONTINUOUS
 10
77.5335490794
 20
129.9834146552
 11
78.2636885568
 21
132.8688977752
  0
LINE
  8
0
 62
7
  6
CONTINUOUS
 10
89.8743826843
 20
153.9838827802
 11
89.1402432069
 21
151.0825918141
  0
LINE
  8
0
 62
7
  6
CONTINUOUS
 10
59.2289658818
 20
159.0222164133
 11
63.7289658818
 21
159.0222164133
  0
LINE
  8
0
 62
7
  6
CONTINUOUS
 10
71.9289658818
 20
159.0222164133
 11
76.4289658818
 21
159.0222164133
  0
LINE
  8
0
 62
7
  6
CONTINUOUS
 10
84.6289658818
 20
159.0222164133
 11
89.1289658818
 21
159.0222164133
  0
LINE
  8
0
 62
7
  6
CONTINUOUS
 10
97.3289658818
 20
159.0222164133
 11
101.8289658818
 21
159.0222164133
  0
LINE
  8
0
 62
7
  6
CONTINUOUS
 10
110.0289658818
 20
159.0222164133
 11
114.5289658818
 21
159.0222164133
  0
LINE
  8
0
 62
7
  6
CONTINUOUS
 10
122.7289658818
 20
159.0222164133
 11
127.2289658818
 21
159.0222164133
  0
LINE
  8
0
 62
7
  6
CONTINUOUS
 10
135.4289658818
 20
159.0222164133
 11
139.9289658818
 21
159.0222164133
  0
LINE
  8
0
 62
7
  6
CONTINUOUS
 10
148.1289658818
 20
159.0222164133
 11
152.6289658818
 21
159.0222164133
  0
LINE
  8
0
 62
7
  6
CONTINUOUS
 10
161.6209658818
 20
159.0222164133
 11
166.1329658818
 21
159.0222164133
  0
LINE
  8
0
 62
7
  6
CONTINUOUS
 10
175.6249658818
 20
159.0222164133
 11
180.1329658818
 21
159.0222164133
  0
LINE
  8
0
 62
7
  6
CONTINUOUS
 10
190.6249658818
 20
159.0222164133
 11
195.1329658818
 21
159.0222164133
  0
LINE
  8
0
 62
7
  6
CONTINUOUS
 10
82.7942432069
 20
132.8688977752
 11
83.5243826843
 21
129.9834146552
  0
LINE
  8
0
 62
7
  6
CONTINUOUS
 10
84.6176885568
 20
151.0825918141
 11
83.8835490794
 21
153.9838827802
  0
LINE
  8
0
 62
7
  6
CONTINUOUS
 10
95.4789658818
 20
139.1882164133
 11
95.4789658818
 21
132.9915514681
  0
LINE
  8
0
 62
7
  6
CONTINUOUS
 10
96.2289658818
 20
126.4727266705
 11
96.2289658818
 21
129.9466185473
  0
LINE
  8
0
 62
7
  6
CONTINUOUS
 10
96.5789658818
 20
158.2722164133
 11
96.5789658818
 21
154.020678888
  0
LINE
  8
0
 62
7
  6
CONTINUOUS
 10
97.3329658818
 20
146.7762164133
 11
97.3329658818
 21
150.9599381211
  0
LINE
  8
0
 62
7
  6
CONTINUOUS
 10
101.8249658818
 20
150.9599381211
 11
101.8249658818
 21
146.7762164133
  0
LINE
  8
0
 62
7
  6
CONTINUOUS
 10
102.5789658818
 20
154.020678888
 11
102.5789658818
 21
158.2722164133
  0
LINE
  8
0
 62
7
  6
CONTINUOUS
 10
102.9289658818
 20
126.4727266705
 11
102.9289658818
 21
129.9466185473
  0
LINE
  8
0
 62
7
  6
CONTINUOUS
 10
103.6789658818
 20
132.9915514681
 11
103.6789658818
 21
139.1882164133
  0
LINE
  8
0
 62
7
  6
CONTINUOUS
 10
90.2335490794
 20
129.9834146552
 11
90.9636885568
 21
132.8688977752
  0
LINE
  8
0
 62
7
  6
CONTINUOUS
 10
102.5743826843
 20
153.9838827802
 11
101.8402432069
 21
151.0825918141
  0
LINE
  8
0
 62
7
  6
CONTINUOUS
 10
102.9335490794
 20
129.9834146552
 11
103.6636885568
 21
132.8688977752
  0
LINE
  8
0
 62
7
  6
CONTINUOUS
 10
208.0374895948
 20
159.3208425778
 11
206.2244773046
 21
158.6727864885
  0
POLYLINE
  8
0
 62
7
  6
CONTINUOUS
 66
1
 70
0
  0
VERTEX
  8
0
 62
7
  6
CONTINUOUS
 10
206.1249658818
 20
145.1355908066
  0
VERTEX
  8
0
 62
7
  6
CONTINUOUS
 10
206.1212567811
 20
145.1364211162
  0
VERTEX
  8
0
 62
7
  6
CONTINUOUS
 10
206.1101420616
 20
145.1372352223
  0
VERTEX
  8
0
 62
7
  6
CONTINUOUS
 10
206.0920587957
 20
145.1380027718
  0
VERTEX
  8
0
 62
7
  6
CONTINUOUS
 10
206.0673850346
 20
145.1387112472
  0
VERTEX
  8
0
 62
7
  6
CONTINUOUS
 10
206.0364617615
 20
145.1393476352
  0
VERTEX
  8
0
 62
7
  6
CONTINUOUS
 10
206.0003232773
 20
145.1398888399
  0
VERTEX
  8
0
 62
7
  6
CONTINUOUS
 10
205.9170698043
 20
145.14063232
  0
SEQEND
  0
LINE
  8
0
 62
7
  6
CONTINUOUS
 10
95.4942432069
 20
132.8688977752
 11
96.2243826843
 21
129.9834146552
  0
LINE
  8
0
 62
7
  6
CONTINUOUS
 10
97.3176885568
 20
151.0825918141
 11
96.5835490794
 21
153.9838827802
  0
LINE
  8
0
 62
7
  6
CONTINUOUS
 10
108.1942432069
 20
132.8688977752
 11
108.9243826843
 21
129.9834146552
  0
LINE
  8
0
 62
7
  6
CONTINUOUS
 10
108.1789658818
 20
139.1882164133
 11
108.1789658818
 21
132.9915514681
  0
LINE
  8
0
 62
7
  6
CONTINUOUS
 10
108.9289658818
 20
126.4727266705
 11
108.9289658818
 21
129.9466185473
  0
LINE
  8
0
 62
7
  6
CONTINUOUS
 10
109.2789658818
 20
158.2722164133
 11
109.2789658818
 21
154.020678888
  0
LINE
  8
0
 62
7
  6
CONTINUOUS
 10
110.0329658818
 20
146.7762164133
 11
110.0329658818
 21
150.9599381211
  0
LINE
  8
0
 62
7
  6
CONTINUOUS
 10
114.5249658818
 20
150.9599381211
 11
114.5249658818
 21
146.7762164133
  0
LINE
  8
0
 62
7
  6
CONTINUOUS
 10
115.2789658818
 20
154.020678888
 11
115.2789658818
 21
158.2722164133
  0
LINE
  8
0
 62
7
  6
CONTINUOUS
 10
115.6289658818
 20
126.4727266705
 11
115.6289658818
 21
129.9466185473
  0
LINE
  8
0
 62
7
  6
CONTINUOUS
 10
116.3789658818
 20
132.9915514681
 11
116.3789658818
 21
139.1882164133
  0
LINE
  8
0
 62
7
  6
CONTINUOUS
 10
115.2743826843
 20
153.9838827802
 11
114.5402432069
 21
151.0825918141
  0
LINE
  8
0
 62
7
  6
CONTINUOUS
 10
115.6335490794
 20
129.9834146552
 11
116.3636885568
 21
132.8688977752
  0
LINE
  8
0
 62
7
  6
CONTINUOUS
 10
209.3887194436
 20
142.6908084815
 11
207.2344228412
 21
141.9207612849
  0
LINE
  8
0
 62
7
  6
CONTINUOUS
 10
110.0176885568
 20
151.0825918141
 11
109.2835490794
 21
153.9838827802
  0
LINE
  8
0
 62
7
  6
CONTINUOUS
 10
120.8942432069
 20
132.8688977752
 11
121.6243826843
 21
129.9834146552
  0
LINE
  8
0
 62
7
  6
CONTINUOUS
 10
120.8789658818
 20
139.1882164133
 11
120.8789658818
 21
132.9915514681
  0
LINE
  8
0
 62
7
  6
CONTINUOUS
 10
121.6289658818
 20
126.4727266705
 11
121.6289658818
 21
129.9466185473
  0
LINE
  8
0
 62
7
  6
CONTINUOUS
 10
121.9789658818
 20
158.2722164133
 11
121.9789658818
 21
154.020678888
  0
LINE
  8
0
 62
7
  6
CONTINUOUS
 10
122.7329658818
 20
146.7762164133
 11
122.7329658818
 21
150.9599381211
  0
LINE
  8
0
 62
7
  6
CONTINUOUS
 10
127.2249658818
 20
150.9599381211
 11
127.2249658818
 21
146.7762164133
  0
LINE
  8
0
 62
7
  6
CONTINUOUS
 10
127.9789658818
 20
154.020678888
 11
127.9789658818
 21
158.2722164133
  0
LINE
  8
0
 62
7
  6
CONTINUOUS
 10
128.3289658818
 20
126.4727266705
 11
128.3289658818
 21
129.9466185473
  0
LINE
  8
0
 62
7
  6
CONTINUOUS
 10
129.0789658818
 20
132.9915514681
 11
129.0789658818
 21
139.1882164133
  0
LINE
  8
0
 62
7
  6
CONTINUOUS
 10
133.5789658818
 20
139.1882164133
 11
133.5789658818
 21
132.9915514681
  0
LINE
  8
0
 62
7
  6
CONTINUOUS
 10
127.9743826843
 20
153.9838827802
 11
127.2402432069
 21
151.0825918141
  0
LINE
  8
0
 62
7
  6
CONTINUOUS
 10
128.3335490794
 20
129.9834146552
 11
129.0636885568
 21
132.8688977752
  0
LINE
  8
0
 62
7
  6
CONTINUOUS
 10
122.7176885568
 20
151.0825918141
 11
121.9835490794
 21
153.9838827802
  0
LINE
  8
0
 62
7
  6
CONTINUOUS
 10
133.5942432069
 20
132.8688977752
 11
134.3243826843
 21
129.9834146552
  0
LINE
  8
0
 62
7
  6
CONTINUOUS
 10
134.3289658818
 20
126.4727266705
 11
134.3289658818
 21
129.9466185473
  0
LINE
  8
0
 62
7
  6
CONTINUOUS
 10
134.6789658818
 20
158.2722164133
 11
134.6789658818
 21
154.020678888
  0
LINE
  8
0
 62
7
  6
CONTINUOUS
 10
135.4329658818
 20
146.7762164133
 11
135.4329658818
 21
150.9599381211
  0
LINE
  8
0
 62
7
  6
CONTINUOUS
 10
139.9249658818
 20
150.9599381211
 11
139.9249658818
 21
146.7762164133
  0
LINE
  8
0
 62
7
  6
CONTINUOUS
 10
140.6789658818
 20
154.020678888
 11
140.6789658818
 21
158.2722164133
  0
LINE
  8
0
 62
7
  6
CONTINUOUS
 10
141.0289658818
 20
126.4727266705
 11
141.0289658818
 21
129.9466185473
  0
LINE
  8
0
 62
7
  6
CONTINUOUS
 10
141.7789658818
 20
132.9915514681
 11
141.7789658818
 21
139.1882164133
  0
LINE
  8
0
 62
7
  6
CONTINUOUS
 10
146.2789658818
 20
139.1882164133
 11
146.2789658818
 21
132.9915514681
  0
LINE
  8
0
 62
7
  6
CONTINUOUS
 10
147.0289658818
 20
126.4727266705
 11
147.0289658818
 21
129.9466185473
  0
LINE
  8
0
 62
7
  6
CONTINUOUS
 10
147.3789658818
 20
158.2722164133
 11
147.3789658818
 21
154.020678888
  0
LINE
  8
0
 62
7
  6
CONTINUOUS
 10
140.6743826843
 20
153.9838827802
 11
139.9402432069
 21
151.0825918141
  0
LINE
  8
0
 62
7
  6
CONTINUOUS
 10
141.0335490794
 20
129.9834146552
 11
141.7636885568
 21
132.8688977752
  0
LINE
  8
0
 62
7
  6
CONTINUOUS
 10
152.6402432069
 20
151.0825918141
 11
153.3743826843
 21
153.9838827802
  0
LINE
  8
0
 62
7
  6
CONTINUOUS
 10
135.4176885568
 20
151.0825918141
 11
134.6835490794
 21
153.9838827802
  0
LINE
  8
0
 62
7
  6
CONTINUOUS
 10
146.2942432069
 20
132.8688977752
 11
147.0243826843
 21
129.9834146552
  0
LINE
  8
0
 62
7
  6
CONTINUOUS
 10
148.1329658818
 20
146.7762164133
 11
148.1329658818
 21
150.9599381211
  0
LINE
  8
0
 62
7
  6
CONTINUOUS
 10
152.6249658818
 20
146.3222164133
 11
152.6249658818
 21
150.9599381211
  0
LINE
  8
0
 62
7
  6
CONTINUOUS
 10
153.3789658818
 20
154.020678888
 11
153.3789658818
 21
158.2722164133
  0
LINE
  8
0
 62
7
  6
CONTINUOUS
 10
154.124980245
 20
125.951994561
 11
154.124980245
 21
129.9466185473
  0
LINE
  8
0
 62
7
  6
CONTINUOUS
 10
154.8749658818
 20
132.9914947055
 11
154.8749658818
 21
139.1882164133
  0
LINE
  8
0
 62
7
  6
CONTINUOUS
 10
159.3749658818
 20
138.8222164133
 11
159.3749658818
 21
132.9914947055
  0
LINE
  8
0
 62
7
  6
CONTINUOUS
 10
160.1249515187
 20
125.951994561
 11
160.1249515187
 21
129.9466185473
  0
LINE
  8
0
 62
7
  6
CONTINUOUS
 10
160.8709658818
 20
158.2722164133
 11
160.8709658818
 21
154.020678888
  0
LINE
  8
0
 62
7
  6
CONTINUOUS
 10
161.6249658818
 20
150.9599381211
 11
161.6249658818
 21
146.3222164133
  0
LINE
  8
0
 62
7
  6
CONTINUOUS
 10
154.1295634425
 20
129.9834146552
 11
154.8596885568
 21
132.8688410125
  0
LINE
  8
0
 62
7
  6
CONTINUOUS
 10
166.1442432069
 20
151.0825918141
 11
166.8783826843
 21
153.9838827802
  0
LINE
  8
0
 62
7
  6
CONTINUOUS
 10
148.1176885568
 20
151.0825918141
 11
147.3835490794
 21
153.9838827802
  0
LINE
  8
0
 62
7
  6
CONTINUOUS
 10
159.3902432069
 20
132.8688410125
 11
160.1203683212
 21
129.9834146552
  0
LINE
  8
0
 62
7
  6
CONTINUOUS
 10
160.8755490794
 20
153.9838827802
 11
161.6096885568
 21
151.0825918141
  0
LINE
  8
0
 62
7
  6
CONTINUOUS
 10
166.1289658818
 20
146.3222164133
 11
166.1289658818
 21
150.9599381211
  0
LINE
  8
0
 62
7
  6
CONTINUOUS
 10
166.8829658818
 20
154.020678888
 11
166.8829658818
 21
158.2722164133
  0
LINE
  8
0
 62
7
  6
CONTINUOUS
 10
167.878980245
 20
125.9581065056
 11
167.878980245
 21
129.9466185473
  0
LINE
  8
0
 62
7
  6
CONTINUOUS
 10
168.6289658818
 20
132.9914947055
 11
168.6289658818
 21
138.8222164133
  0
LINE
  8
0
 62
7
  6
CONTINUOUS
 10
173.1289658818
 20
132.9914947055
 11
173.1289658818
 21
138.8222164133
  0
LINE
  8
0
 62
7
  6
CONTINUOUS
 10
173.8789515187
 20
125.9581065056
 11
173.8789515187
 21
129.9466185473
  0
LINE
  8
0
 62
7
  6
CONTINUOUS
 10
174.8749658818
 20
158.2722164133
 11
174.8749658818
 21
154.020678888
  0
LINE
  8
0
 62
7
  6
CONTINUOUS
 10
175.6289658818
 20
150.9599381211
 11
175.6289658818
 21
146.3222164133
  0
LINE
  8
0
 62
7
  6
CONTINUOUS
 10
167.8835634425
 20
129.9834146552
 11
168.6136885568
 21
132.8688410125
  0
LINE
  8
0
 62
7
  6
CONTINUOUS
 10
180.1442432069
 20
151.0825918141
 11
180.8783826843
 21
153.9838827802
  0
LINE
  8
0
 62
7
  6
CONTINUOUS
 10
173.8743683212
 20
129.9834146552
 11
173.1442432069
 21
132.8688410125
  0
LINE
  8
0
 62
7
  6
CONTINUOUS
 10
174.8795490794
 20
153.9838827802
 11
175.6136885568
 21
151.0825918141
  0
LINE
  8
0
 62
7
  6
CONTINUOUS
 10
180.1289658818
 20
146.8222164133
 11
180.1289658818
 21
150.9599381211
  0
LINE
  8
0
 62
7
  6
CONTINUOUS
 10
180.8829658818
 20
154.020678888
 11
180.8829658818
 21
158.2722164133
  0
LINE
  8
0
 62
7
  6
CONTINUOUS
 10
182.378980245
 20
125.9581065056
 11
182.378980245
 21
129.9466185473
  0
LINE
  8
0
 62
7
  6
CONTINUOUS
 10
183.1289658818
 20
138.8222164133
 11
183.1289658818
 21
132.9914947055
  0
LINE
  8
0
 62
7
  6
CONTINUOUS
 10
187.6289658818
 20
132.9914947055
 11
187.6289658818
 21
138.6722164133
  0
LINE
  8
0
 62
7
  6
CONTINUOUS
 10
188.3789515187
 20
125.9581065056
 11
188.3789515187
 21
129.9466185473
  0
LINE
  8
0
 62
7
  6
CONTINUOUS
 10
189.8749658818
 20
158.2722164133
 11
189.8749658818
 21
154.020678888
  0
LINE
  8
0
 62
7
  6
CONTINUOUS
 10
183.1136885568
 20
132.8688410125
 11
182.3835634425
 21
129.9834146552
  0
LINE
  8
0
 62
7
  6
CONTINUOUS
 10
195.8783833333
 20
153.9841050145
 11
195.1442410437
 21
151.0825877425
  0
LINE
  8
0
 62
7
  6
CONTINUOUS
 10
188.3743683212
 20
129.9834146552
 11
187.6442432069
 21
132.8688410125
  0
LINE
  8
0
 62
7
  6
CONTINUOUS
 10
189.8795490794
 20
153.9838827802
 11
190.6136885568
 21
151.0825918141
  0
POLYLINE
  8
0
 62
7
  6
CONTINUOUS
 66
1
 70
0
  0
VERTEX
  8
0
 62
7
  6
CONTINUOUS
 10
198.2249658818
 20
147.1369545604
  0
VERTEX
  8
0
 62
7
  6
CONTINUOUS
 10
198.2358600639
 20
146.928733556
  0
VERTEX
  8
0
 62
7
  6
CONTINUOUS
 10
198.2686782622
 20
146.7216219689
  0
VERTEX
  8
0
 62
7
  6
CONTINUOUS
 10
198.3230580693
 20
146.5191276848
  0
VERTEX
  8
0
 62
7
  6
CONTINUOUS
 10
198.3980356015
 20
146.3242933453
  0
VERTEX
  8
0
 62
7
  6
CONTINUOUS
 10
198.493426378
 20
146.1375943561
  0
VERTEX
  8
0
 62
7
  6
CONTINUOUS
 10
198.6083438251
 20
145.9613289922
  0
VERTEX
  8
0
 62
7
  6
CONTINUOUS
 10
198.7408373978
 20
145.7985409286
  0
VERTEX
  8
0
 62
7
  6
CONTINUOUS
 10
198.8888280242
 20
145.6513439417
  0
VERTEX
  8
0
 62
7
  6
CONTINUOUS
 10
199.0521525879
 20
145.5198331721
  0
VERTEX
  8
0
 62
7
  6
CONTINUOUS
 10
199.2285944649
 20
145.40601918
  0
VERTEX
  8
0
 62
7
  6
CONTINUOUS
 10
199.4151082539
 20
145.311715194
  0
VERTEX
  8
0
 62
7
  6
CONTINUOUS
 10
199.6095234283
 20
145.2376618341
  0
VERTEX
  8
0
 62
7
  6
CONTINUOUS
 10
199.811395977
 20
145.1839926027
  0
VERTEX
  8
0
 62
7
  6
CONTINUOUS
 10
200.0176888621
 20
145.1516273946
  0
VERTEX
  8
0
 62
7
  6
CONTINUOUS
 10
200.2249658818
 20
145.1408881993
  0
SEQEND
  0
LINE
  8
0
 62
7
  6
CONTINUOUS
 10
190.6289658818
 20
150.9599381211
 11
190.6289658818
 21
146.8222164133
  0
LINE
  8
0
 62
7
  6
CONTINUOUS
 10
195.1289658818
 20
150.9599425989
 11
195.1289658818
 21
146.7222164133
  0
LINE
  8
0
 62
7
  6
CONTINUOUS
 10
195.8829658818
 20
154.0208985576
 11
195.8829658818
 21
158.2722164133
  0
LINE
  8
0
 62
7
  6
CONTINUOUS
 10
198.003980245
 20
125.9581065056
 11
198.003980245
 21
129.9466185473
  0
LINE
  8
0
 62
7
  6
CONTINUOUS
 10
198.2249658818
 20
147.1369545604
 11
198.2249658818
 21
149.9744541091
  0
LINE
  8
0
 62
7
  6
CONTINUOUS
 10
198.7539658818
 20
137.6722164133
 11
198.7539658818
 21
132.9914947055
  0
LINE
  8
0
 62
7
  6
CONTINUOUS
 10
203.2539658818
 20
132.9914947055
 11
203.2539658818
 21
136.2708545683
  0
LINE
  8
0
 62
7
  6
CONTINUOUS
 10
204.0039515187
 20
125.9581065056
 11
204.0039515187
 21
129.9466185473
  0
LINE
  8
0
 62
7
  6
CONTINUOUS
 10
198.7386885568
 20
132.8688410125
 11
198.0085634425
 21
129.9834146552
  0
LINE
  8
0
 62
7
  6
CONTINUOUS
 10
203.9993683212
 20
129.9834146552
 11
203.2692432069
 21
132.8688410125
  0
LINE
  8
0
 62
7
  6
CONTINUOUS
 10
206.1249658818
 20
158.531538821
 11
206.1249658818
 21
144.983734352
  0
LINE
  8
0
 62
7
  6
CONTINUOUS
 10
211.3789658818
 20
156.9666925743
 11
211.3789658818
 21
145.5157894475
  0
LINE
  8
SURFACE
 62
7
  6
CONTINUOUS
 10
316.7790308341
 20
124.9222164133
 11
312.7790308341
 21
124.9222164133
  0
LINE
  8
0
 62
7
  6
CONTINUOUS
 10
294.7790308341
 20
150.3682934478
 11
294.7790308341
 21
146.2049136764
  0
LINE
  8
DEFAULT_1
 62
2
  6
CENTER
 10
320.0290308341
 20
129.2722164133
 11
316.7791308341
 21
129.2722164133
  0
LINE
  8
0
 62
2
  6
CONTINUOUS
 10
315.8290308341
 20
129.2722164133
 11
313.7290308341
 21
129.2722164133
  0
LINE
  8
DEFAULT_1
 62
2
  6
CENTER
 10
309.5290308341
 20
129.2722164133
 11
312.7789308341
 21
129.2722164133
  0
POLYLINE
  8
0
 62
7
  6
CONTINUOUS
 66
1
 70
0
  0
VERTEX
  8
0
 62
7
  6
CONTINUOUS
 10
308.7790308341
 20
153.5478340521
  0
VERTEX
  8
0
 62
7
  6
CONTINUOUS
 10
308.7337139113
 20
153.5052971948
  0
VERTEX
  8
0
 62
7
  6
CONTINUOUS
 10
308.6800340099
 20
153.4660349439
  0
VERTEX
  8
0
 62
7
  6
CONTINUOUS
 10
308.6231000336
 20
153.4348947802
  0
VERTEX
  8
0
 62
7
  6
CONTINUOUS
 10
308.5641920443
 20
153.4124200043
  0
VERTEX
  8
0
 62
7
  6
CONTINUOUS
 10
308.5048900768
 20
153.3987455218
  0
SEQEND
  0
POLYLINE
  8
0
 62
7
  6
CONTINUOUS
 66
1
 70
0
  0
VERTEX
  8
0
 62
7
  6
CONTINUOUS
 10
309.1977293254
 20
157.0222965934
  0
VERTEX
  8
0
 62
7
  6
CONTINUOUS
 10
309.0783587709
 20
156.6949442756
  0
VERTEX
  8
0
 62
7
  6
CONTINUOUS
 10
308.9701134674
 20
156.3285030173
  0
VERTEX
  8
0
 62
7
  6
CONTINUOUS
 10
308.8856314328
 20
155.9545832072
  0
VERTEX
  8
0
 62
7
  6
CONTINUOUS
 10
308.8761604538
 20
155.8948768836
  0
SEQEND
  0
LINE
  8
0
 62
7
  6
CONTINUOUS
 10
320.6290308341
 20
141.1882164133
 11
314.7790308341
 21
141.1882164133
  0
LINE
  8
0
 62
7
  6
CONTINUOUS
 10
308.7790308341
 20
128.9222164133
 11
308.7790308341
 21
155.0222164133
  0
LINE
  8
0
 62
7
  6
CONTINUOUS
 10
308.7790308341
 20
145.3408881993
 11
299.4720544503
 21
145.3408881993
  0
LINE
  8
0
 62
7
  6
CONTINUOUS
 10
295.7615784277
 20
145.2050659813
 11
308.3860117967
 21
144.9847056771
  0
LINE
  8
AXES
 62
7
  6
CONTINUOUS
 10
312.6790308341
 20
129.2722164133
 11
312.6790308341
 21
137.3222164133
  0
LINE
  8
AXES
 62
2
  6
CENTER
 10
314.7790308341
 20
159.9222164133
 11
314.7790308341
 21
158.7722164133
  0
LINE
  8
AXES
 62
2
  6
CONTINUOUS
 10
314.7790308341
 20
155.7222164133
 11
314.7790308341
 21
153.6222164133
  0
LINE
  8
DEFAULT_1
 62
2
  6
CENTER
 10
314.7790308341
 20
134.5222164133
 11
314.7790308341
 21
131.2723164133
  0
LINE
  8
0
 62
2
  6
CONTINUOUS
 10
314.7790308341
 20
130.3222164133
 11
314.7790308341
 21
128.2222164133
  0
LINE
  8
DEFAULT_1
 62
2
  6
CENTER
 10
314.7790308341
 20
124.0222164133
 11
314.7790308341
 21
127.2721164133
  0
LINE
  8
AXES
 62
2
  6
CENTER
 10
314.7790308341
 20
149.4222164133
 11
314.7790308341
 21
150.5722164133
  0
LINE
  8
AXES
 62
7
  6
CONTINUOUS
 10
316.8790308341
 20
129.2722164133
 11
316.8790308341
 21
137.3222164133
  0
LINE
  8
0
 62
7
  6
CONTINUOUS
 10
299.4720544521
 20
151.7610467259
 11
308.7790308341
 21
151.7610467259
  0
LINE
  8
0
 62
7
  6
CONTINUOUS
 10
320.7790308341
 20
128.9222164133
 11
320.7790308341
 21
155.0222164133
  0
LINE
  8
0
 62
7
  6
CONTINUOUS
 10
295.6224162104
 20
151.3559532372
 11
308.5048900768
 21
153.3987455218
  0
LINE
  8
AXES
 62
2
  6
CENTER
 10
320.0290308341
 20
154.6722164133
 11
318.8790308341
 21
154.6722164133
  0
LINE
  8
AXES
 62
2
  6
CONTINUOUS
 10
315.8290308341
 20
154.6722164133
 11
313.7290308341
 21
154.6722164133
  0
LINE
  8
AXES
 62
2
  6
CENTER
 10
309.5290308341
 20
154.6722164133
 11
310.6790308341
 21
154.6722164133
  0
LINE
  8
0
 62
7
  6
CONTINUOUS
 10
312.7790308341
 20
159.0222164133
 11
316.7790308341
 21
159.0222164133
  0
POLYLINE
  8
0
 62
7
  6
CONTINUOUS
 66
1
 70
0
  0
VERTEX
  8
0
 62
7
  6
CONTINUOUS
 10
319.8466864657
 20
157.9390429128
  0
VERTEX
  8
0
 62
7
  6
CONTINUOUS
 10
319.8389489739
 20
157.9581603929
  0
VERTEX
  8
0
 62
7
  6
CONTINUOUS
 10
319.8286252081
 20
157.9760911193
  0
SEQEND
  0
POLYLINE
  8
0
 62
7
  6
CONTINUOUS
 66
1
 70
0
  0
VERTEX
  8
0
 62
7
  6
CONTINUOUS
 10
320.033820238
 20
157.3449569377
  0
VERTEX
  8
0
 62
7
  6
CONTINUOUS
 10
320.0313675053
 20
157.3531539272
  0
VERTEX
  8
0
 62
7
  6
CONTINUOUS
 10
319.9697491966
 20
157.553529986
  0
VERTEX
  8
0
 62
7
  6
CONTINUOUS
 10
319.9061634146
 20
157.7550001623
  0
VERTEX
  8
0
 62
7
  6
CONTINUOUS
 10
319.8466863777
 20
157.9390442507
  0
SEQEND
  0
POLYLINE
  8
0
 62
7
  6
CONTINUOUS
 66
1
 70
0
  0
VERTEX
  8
0
 62
7
  6
CONTINUOUS
 10
312.8990758008
 20
159.4667158022
  0
VERTEX
  8
0
 62
7
  6
CONTINUOUS
 10
312.6626338225
 20
159.4610140406
  0
VERTEX
  8
0
 62
7
  6
CONTINUOUS
 10
312.3350966155
 20
159.4334694411
  0
VERTEX
  8
0
 62
7
  6
CONTINUOUS
 10
312.0261354682
 20
159.3851238476
  0
VERTEX
  8
0
 62
7
  6
CONTINUOUS
 10
311.7351316734
 20
159.3179730735
  0
VERTEX
  8
0
 62
7
  6
CONTINUOUS
 10
311.4606867871
 20
159.2335040142
  0
VERTEX
  8
0
 62
7
  6
CONTINUOUS
 10
311.2014822706
 20
159.1327724511
  0
VERTEX
  8
0
 62
7
  6
CONTINUOUS
 10
310.9570778152
 20
159.0168310877
  0
VERTEX
  8
0
 62
7
  6
CONTINUOUS
 10
310.7278282085
 20
158.8870508994
  0
VERTEX
  8
0
 62
7
  6
CONTINUOUS
 10
310.5140764803
 20
158.7449494322
  0
VERTEX
  8
0
 62
7
  6
CONTINUOUS
 10
310.3160886152
 20
158.5921952106
  0
VERTEX
  8
0
 62
7
  6
CONTINUOUS
 10
310.1339723877
 20
158.4305635881
  0
VERTEX
  8
0
 62
7
  6
CONTINUOUS
 10
309.9676904902
 20
158.2619398322
  0
VERTEX
  8
0
 62
7
  6
CONTINUOUS
 10
309.8169613785
 20
158.0881923653
  0
VERTEX
  8
0
 62
7
  6
CONTINUOUS
 10
309.6809189814
 20
157.9106131614
  0
VERTEX
  8
0
 62
7
  6
CONTINUOUS
 10
309.558563636
 20
157.7302004694
  0
VERTEX
  8
0
 62
7
  6
CONTINUOUS
 10
309.4489176881
 20
157.5478017566
  0
VERTEX
  8
0
 62
7
  6
CONTINUOUS
 10
309.3510316404
 20
157.3641175301
  0
VERTEX
  8
0
 62
7
  6
CONTINUOUS
 10
309.2639814605
 20
157.1796766311
  0
VERTEX
  8
0
 62
7
  6
CONTINUOUS
 10
309.1977297418
 20
157.0222964273
  0
SEQEND
  0
LINE
  8
0
 62
7
  6
CONTINUOUS
 10
316.6582488577
 20
159.4667147864
 11
312.8982741547
 21
159.4667147797
  0
LINE
  8
0
 62
7
  6
CONTINUOUS
 10
316.6602304405
 20
159.466714733
 11
316.6591597498
 21
159.4667147708
  0
POLYLINE
  8
0
 62
7
  6
CONTINUOUS
 66
1
 70
0
  0
VERTEX
  8
0
 62
7
  6
CONTINUOUS
 10
319.823704466
 20
157.982988315
  0
VERTEX
  8
0
 62
7
  6
CONTINUOUS
 10
319.6939703868
 20
158.1449002697
  0
VERTEX
  8
0
 62
7
  6
CONTINUOUS
 10
319.5313876612
 20
158.3242947112
  0
VERTEX
  8
0
 62
7
  6
CONTINUOUS
 10
319.3538742123
 20
158.4955095019
  0
VERTEX
  8
0
 62
7
  6
CONTINUOUS
 10
319.1608482455
 20
158.657460383
  0
VERTEX
  8
0
 62
7
  6
CONTINUOUS
 10
318.9517340635
 20
158.8089752449
  0
VERTEX
  8
0
 62
7
  6
CONTINUOUS
 10
318.7259610384
 20
158.9487871715
  0
VERTEX
  8
0
 62
7
  6
CONTINUOUS
 10
318.4829492523
 20
159.0755302629
  0
VERTEX
  8
0
 62
7
  6
CONTINUOUS
 10
318.2219834158
 20
159.1877658342
  0
VERTEX
  8
0
 62
7
  6
CONTINUOUS
 10
317.9420477421
 20
159.2839574796
  0
VERTEX
  8
0
 62
7
  6
CONTINUOUS
 10
317.6420468188
 20
159.362284821
  0
VERTEX
  8
0
 62
7
  6
CONTINUOUS
 10
317.3202741757
 20
159.4206698798
  0
VERTEX
  8
0
 62
7
  6
CONTINUOUS
 10
316.9743731147
 20
159.4565087659
  0
VERTEX
  8
0
 62
7
  6
CONTINUOUS
 10
316.6591388846
 20
159.4667164064
  0
SEQEND
  0
LINE
  8
0
 62
7
  6
CONTINUOUS
 10
319.8286252081
 20
157.9760911193
 11
319.8237043914
 21
157.9829886561
  0
POLYLINE
  8
AXES
 62
7
  6
CONTINUOUS
 66
1
 70
0
  0
VERTEX
  8
AXES
 62
7
  6
CONTINUOUS
 10
182.2607971211
 20
218.9916451953
  0
VERTEX
  8
AXES
 62
7
  6
CONTINUOUS
 10
182.1282581017
 20
218.9572345811
  0
VERTEX
  8
AXES
 62
7
  6
CONTINUOUS
 10
181.9946399863
 20
218.9117273587
  0
VERTEX
  8
AXES
 62
7
  6
CONTINUOUS
 10
181.8619974751
 20
218.8566930122
  0
VERTEX
  8
AXES
 62
7
  6
CONTINUOUS
 10
181.7326172347
 20
218.7944443401
  0
VERTEX
  8
AXES
 62
7
  6
CONTINUOUS
 10
181.6086537757
 20
218.727669303
  0
VERTEX
  8
AXES
 62
7
  6
CONTINUOUS
 10
181.4937565268
 20
218.6601753414
  0
VERTEX
  8
AXES
 62
7
  6
CONTINUOUS
 10
181.3911076315
 20
218.5957399335
  0
VERTEX
  8
AXES
 62
7
  6
CONTINUOUS
 10
181.3030338443
 20
218.5375705437
  0
VERTEX
  8
AXES
 62
7
  6
CONTINUOUS
 10
181.2305494233
 20
218.4877763169
  0
VERTEX
  8
AXES
 62
7
  6
CONTINUOUS
 10
181.1731703377
 20
218.4470954122
  0
VERTEX
  8
AXES
 62
7
  6
CONTINUOUS
 10
181.1300693898
 20
218.4156802803
  0
VERTEX
  8
AXES
 62
7
  6
CONTINUOUS
 10
181.1002649481
 20
218.3932992737
  0
VERTEX
  8
AXES
 62
7
  6
CONTINUOUS
 10
181.0834143399
 20
218.3799971396
  0
VERTEX
  8
AXES
 62
7
  6
CONTINUOUS
 10
181.078965887
 20
218.3757086617
  0
SEQEND
  0
POLYLINE
  8
0
 62
7
  6
CONTINUOUS
 66
1
 70
0
  0
VERTEX
  8
0
 62
7
  6
CONTINUOUS
 10
181.6312775338
 20
214.5297925159
  0
VERTEX
  8
0
 62
7
  6
CONTINUOUS
 10
181.4457958345
 20
214.4976842112
  0
VERTEX
  8
0
 62
7
  6
CONTINUOUS
 10
181.3735234204
 20
214.4860509061
  0
VERTEX
  8
0
 62
7
  6
CONTINUOUS
 10
181.3145406705
 20
214.4783853454
  0
VERTEX
  8
0
 62
7
  6
CONTINUOUS
 10
181.2699204281
 20
214.4756251969
  0
SEQEND
  0
LINE
  8
0
 62
7
  6
CONTINUOUS
 10
199.2249658818
 20
200.4756251969
 11
207.9434780952
 21
200.4756251969
  0
LINE
  8
AXES
 62
7
  6
CONTINUOUS
 10
58.4789658818
 20
225.7256251969
 11
58.4789658818
 21
222.4719966185
  0
LINE
  8
AXES
 62
7
  6
CONTINUOUS
 10
58.4789658818
 20
218.4792537752
 11
58.4789658818
 21
215.2256251969
  0
LINE
  8
AXES
 62
7
  6
CONTINUOUS
 10
58.4789658818
 20
218.4916401139
 11
58.4789658818
 21
222.4596102799
  0
LINE
  8
0
 62
7
  6
CONTINUOUS
 10
59.2329658818
 20
226.3256251969
 11
59.2329658818
 21
214.6256251969
  0
POLYLINE
  8
AXES
 62
7
  6
CONTINUOUS
 66
1
 70
0
  0
VERTEX
  8
AXES
 62
7
  6
CONTINUOUS
 10
58.8407555853
 20
220.4756251969
  0
VERTEX
  8
AXES
 62
7
  6
CONTINUOUS
 10
58.8380155395
 20
220.2626400402
  0
VERTEX
  8
AXES
 62
7
  6
CONTINUOUS
 10
58.8298148394
 20
220.0516822343
  0
VERTEX
  8
AXES
 62
7
  6
CONTINUOUS
 10
58.816212406
 20
219.8447799198
  0
VERTEX
  8
AXES
 62
7
  6
CONTINUOUS
 10
58.7973086271
 20
219.6439631035
  0
VERTEX
  8
AXES
 62
7
  6
CONTINUOUS
 10
58.7732482512
 20
219.4512581486
  0
VERTEX
  8
AXES
 62
7
  6
CONTINUOUS
 10
58.7442240963
 20
219.2686790441
  0
VERTEX
  8
AXES
 62
7
  6
CONTINUOUS
 10
58.710481067
 20
219.0982118945
  0
VERTEX
  8
AXES
 62
7
  6
CONTINUOUS
 10
58.6723196132
 20
218.9417910486
  0
VERTEX
  8
AXES
 62
7
  6
CONTINUOUS
 10
58.6300984679
 20
218.8012697644
  0
VERTEX
  8
AXES
 62
7
  6
CONTINUOUS
 10
58.5842359199
 20
218.6783846341
  0
VERTEX
  8
AXES
 62
7
  6
CONTINUOUS
 10
58.535208809
 20
218.5747148889
  0
VERTEX
  8
AXES
 62
7
  6
CONTINUOUS
 10
58.4835490794
 20
218.4916401139
  0
SEQEND
  0
POLYLINE
  8
AXES
 62
7
  6
CONTINUOUS
 66
1
 70
0
  0
VERTEX
  8
AXES
 62
7
  6
CONTINUOUS
 10
58.4835490794
 20
218.4916401139
  0
VERTEX
  8
AXES
 62
7
  6
CONTINUOUS
 10
58.4801151397
 20
218.4853975584
  0
VERTEX
  8
AXES
 62
7
  6
CONTINUOUS
 10
58.4789658818
 20
218.4792537752
  0
SEQEND
  0
POLYLINE
  8
0
 62
7
  6
CONTINUOUS
 66
1
 70
0
  0
VERTEX
  8
0
 62
7
  6
CONTINUOUS
 10
182.5561300572
 20
214.6185029067
  0
VERTEX
  8
0
 62
7
  6
CONTINUOUS
 10
182.4124741131
 20
214.6156342273
  0
VERTEX
  8
0
 62
7
  6
CONTINUOUS
 10
182.269947557
 20
214.6085212031
  0
VERTEX
  8
0
 62
7
  6
CONTINUOUS
 10
182.1297328778
 20
214.5974837723
  0
VERTEX
  8
0
 62
7
  6
CONTINUOUS
 10
181.9936094599
 20
214.583106871
  0
VERTEX
  8
0
 62
7
  6
CONTINUOUS
 10
181.8638075566
 20
214.5662785589
  0
VERTEX
  8
0
 62
7
  6
CONTINUOUS
 10
181.7424009296
 20
214.5480984874
  0
VERTEX
  8
0
 62
7
  6
CONTINUOUS
 10
181.6312775338
 20
214.5297925159
  0
SEQEND
  0
LINE
  8
0
 62
7
  6
CONTINUOUS
 10
205.8249658818
 20
205.1685024948
 11
205.7922933161
 21
205.1684795648
  0
LINE
  8
0
 62
7
  6
CONTINUOUS
 10
205.8249658818
 20
205.1349154563
 11
200.2249658818
 21
205.1349154563
  0
LINE
  8
0
 62
7
  6
CONTINUOUS
 10
205.6749664353
 20
205.4277756481
 11
198.2249658818
 21
205.4277756481
  0
LINE
  8
SURFACE
 62
7
  6
CONTINUOUS
 10
146.2789658818
 20
214.4756251969
 11
141.7789658818
 21
214.4756251969
  0
LINE
  8
SURFACE
 62
7
  6
CONTINUOUS
 10
133.5789658818
 20
214.4756251969
 11
129.0789658818
 21
214.4756251969
  0
LINE
  8
SURFACE
 62
7
  6
CONTINUOUS
 10
82.7789658818
 20
214.4756251969
 11
78.2789658818
 21
214.4756251969
  0
LINE
  8
SURFACE
 62
7
  6
CONTINUOUS
 10
70.0789658818
 20
214.4756251969
 11
65.5789658818
 21
214.4756251969
  0
LINE
  8
0
 62
7
  6
CONTINUOUS
 10
59.2289569674
 20
214.4756251969
 11
211.2289658818
 21
214.4756251969
  0
POLYLINE
  8
AXES
 62
7
  6
CONTINUOUS
 66
1
 70
0
  0
VERTEX
  8
AXES
 62
7
  6
CONTINUOUS
 10
58.4789658818
 20
222.4719966185
  0
VERTEX
  8
AXES
 62
7
  6
CONTINUOUS
 10
58.4801151397
 20
222.4658528353
  0
VERTEX
  8
AXES
 62
7
  6
CONTINUOUS
 10
58.4835490794
 20
222.4596102799
  0
SEQEND
  0
LINE
  8
0
 62
7
  6
CONTINUOUS
 10
64.8289658818
 20
215.2256251969
 11
64.8289658818
 21
225.7256251969
  0
LINE
  8
0
 62
7
  6
CONTINUOUS
 10
70.8289658818
 20
215.2256251969
 11
70.8289658818
 21
225.7256251969
  0
LINE
  8
AXES
 62
2
  6
CENTER
 10
56.4789658818
 20
220.4756251969
 11
211.3789658818
 21
220.4756251969
  0
LINE
  8
0
 62
7
  6
CONTINUOUS
 10
59.228955976
 20
226.4756251969
 11
207.0617536802
 21
226.4756251969
  0
POLYLINE
  8
0
 62
7
  6
CONTINUOUS
 66
1
 70
0
  0
VERTEX
  8
0
 62
7
  6
CONTINUOUS
 10
189.4880113356
 20
214.4756251969
  0
VERTEX
  8
0
 62
7
  6
CONTINUOUS
 10
189.4443178917
 20
214.4782902187
  0
VERTEX
  8
0
 62
7
  6
CONTINUOUS
 10
189.3860696548
 20
214.4858038925
  0
VERTEX
  8
0
 62
7
  6
CONTINUOUS
 10
189.3130112942
 20
214.4975361538
  0
SEQEND
  0
POLYLINE
  8
AXES
 62
7
  6
CONTINUOUS
 66
1
 70
0
  0
VERTEX
  8
AXES
 62
7
  6
CONTINUOUS
 10
58.4835490794
 20
222.4596102799
  0
VERTEX
  8
AXES
 62
7
  6
CONTINUOUS
 10
58.5352087929
 20
222.3765355347
  0
VERTEX
  8
AXES
 62
7
  6
CONTINUOUS
 10
58.5842359382
 20
222.272865716
  0
VERTEX
  8
AXES
 62
7
  6
CONTINUOUS
 10
58.6300985385
 20
222.1499804182
  0
VERTEX
  8
AXES
 62
7
  6
CONTINUOUS
 10
58.6723197432
 20
222.0094588646
  0
VERTEX
  8
AXES
 62
7
  6
CONTINUOUS
 10
58.7104812502
 20
221.8530376659
  0
VERTEX
  8
AXES
 62
7
  6
CONTINUOUS
 10
58.744224312
 20
221.682570136
  0
VERTEX
  8
AXES
 62
7
  6
CONTINUOUS
 10
58.7732484719
 20
221.4999906838
  0
VERTEX
  8
AXES
 62
7
  6
CONTINUOUS
 10
58.7973088223
 20
221.3072855012
  0
VERTEX
  8
AXES
 62
7
  6
CONTINUOUS
 10
58.8162125499
 20
221.1064686683
  0
VERTEX
  8
AXES
 62
7
  6
CONTINUOUS
 10
58.8298149201
 20
220.899566612
  0
VERTEX
  8
AXES
 62
7
  6
CONTINUOUS
 10
58.838015564
 20
220.6886094018
  0
VERTEX
  8
AXES
 62
7
  6
CONTINUOUS
 10
58.8407555853
 20
220.4756251969
  0
SEQEND
  0
LINE
  8
0
 62
7
  6
CONTINUOUS
 10
77.5289658818
 20
215.2256251969
 11
77.5289658818
 21
225.7256251969
  0
LINE
  8
0
 62
7
  6
CONTINUOUS
 10
83.5289658818
 20
215.2256251969
 11
83.5289658818
 21
225.7256251969
  0
LINE
  8
0
 62
7
  6
CONTINUOUS
 10
90.2289658818
 20
215.2256251969
 11
90.2289658818
 21
225.7256251969
  0
POLYLINE
  8
0
 62
7
  6
CONTINUOUS
 66
1
 70
0
  0
VERTEX
  8
0
 62
7
  6
CONTINUOUS
 10
189.3130112942
 20
214.4975361538
  0
VERTEX
  8
0
 62
7
  6
CONTINUOUS
 10
189.1256990997
 20
214.5299551076
  0
VERTEX
  8
0
 62
7
  6
CONTINUOUS
 10
189.0139250292
 20
214.5483525369
  0
VERTEX
  8
0
 62
7
  6
CONTINUOUS
 10
188.8923353207
 20
214.56652974
  0
VERTEX
  8
0
 62
7
  6
CONTINUOUS
 10
188.7628696342
 20
214.5832785182
  0
VERTEX
  8
0
 62
7
  6
CONTINUOUS
 10
188.6276230945
 20
214.5975370736
  0
VERTEX
  8
0
 62
7
  6
CONTINUOUS
 10
188.4883241479
 20
214.6084992301
  0
VERTEX
  8
0
 62
7
  6
CONTINUOUS
 10
188.3460100076
 20
214.6156148092
  0
VERTEX
  8
0
 62
7
  6
CONTINUOUS
 10
188.2014582231
 20
214.6185093729
  0
SEQEND
  0
LINE
  8
0
 62
7
  6
CONTINUOUS
 10
96.2289658818
 20
215.2256251969
 11
96.2289658818
 21
225.7256251969
  0
LINE
  8
0
 62
7
  6
CONTINUOUS
 10
102.9289658818
 20
215.2256251969
 11
102.9289658818
 21
225.7256251969
  0
LINE
  8
0
 62
7
  6
CONTINUOUS
 10
108.9289658818
 20
215.2256251969
 11
108.9289658818
 21
225.7256251969
  0
LINE
  8
0
 62
7
  6
CONTINUOUS
 10
115.6289658818
 20
215.2256251969
 11
115.6289658818
 21
225.7256251969
  0
LINE
  8
0
 62
7
  6
CONTINUOUS
 10
211.262942906
 20
225.5026072843
 11
207.0957307044
 21
226.4717264009
  0
POLYLINE
  8
AXES
 62
7
  6
CONTINUOUS
 66
1
 70
0
  0
VERTEX
  8
AXES
 62
7
  6
CONTINUOUS
 10
188.4971346426
 20
218.9916451953
  0
VERTEX
  8
AXES
 62
7
  6
CONTINUOUS
 10
188.4720902061
 20
218.9994780923
  0
VERTEX
  8
AXES
 62
7
  6
CONTINUOUS
 10
188.4483746032
 20
219.0120127562
  0
VERTEX
  8
AXES
 62
7
  6
CONTINUOUS
 10
188.4270302038
 20
219.0291472474
  0
VERTEX
  8
AXES
 62
7
  6
CONTINUOUS
 10
188.4081511747
 20
219.0517187419
  0
VERTEX
  8
AXES
 62
7
  6
CONTINUOUS
 10
188.3929305733
 20
219.0800820651
  0
VERTEX
  8
AXES
 62
7
  6
CONTINUOUS
 10
188.3827550534
 20
219.1141733669
  0
VERTEX
  8
AXES
 62
7
  6
CONTINUOUS
 10
188.3789515187
 20
219.1546059846
  0
SEQEND
  0
LINE
  8
0
 62
7
  6
CONTINUOUS
 10
121.6289658818
 20
215.2256251969
 11
121.6289658818
 21
225.7256251969
  0
LINE
  8
0
 62
7
  6
CONTINUOUS
 10
128.3289658818
 20
215.2256251969
 11
128.3289658818
 21
225.7256251969
  0
LINE
  8
0
 62
7
  6
CONTINUOUS
 10
134.3289658818
 20
215.2256251969
 11
134.3289658818
 21
225.7256251969
  0
LINE
  8
0
 62
7
  6
CONTINUOUS
 10
141.0289658818
 20
215.2256251969
 11
141.0289658818
 21
225.7256251969
  0
LINE
  8
0
 62
7
  6
CONTINUOUS
 10
147.0289658818
 20
215.2256251969
 11
147.0289658818
 21
225.7256251969
  0
LINE
  8
0
 62
7
  6
CONTINUOUS
 10
154.124980245
 20
215.2256251969
 11
154.124980245
 21
225.7256251969
  0
POLYLINE
  8
AXES
 62
7
  6
CONTINUOUS
 66
1
 70
0
  0
VERTEX
  8
AXES
 62
7
  6
CONTINUOUS
 10
189.6789658767
 20
218.375708641
  0
VERTEX
  8
AXES
 62
7
  6
CONTINUOUS
 10
189.6745183406
 20
218.3799963719
  0
VERTEX
  8
AXES
 62
7
  6
CONTINUOUS
 10
189.6576704105
 20
218.3932965182
  0
VERTEX
  8
AXES
 62
7
  6
CONTINUOUS
 10
189.6278757064
 20
218.4156704195
  0
VERTEX
  8
AXES
 62
7
  6
CONTINUOUS
 10
189.5847887439
 20
218.4470757567
  0
VERTEX
  8
AXES
 62
7
  6
CONTINUOUS
 10
189.5274269077
 20
218.4877451651
  0
VERTEX
  8
AXES
 62
7
  6
CONTINUOUS
 10
189.4549706799
 20
218.5375214256
  0
VERTEX
  8
AXES
 62
7
  6
CONTINUOUS
 10
189.3669297161
 20
218.5956717587
  0
VERTEX
  8
AXES
 62
7
  6
CONTINUOUS
 10
189.2642946297
 20
218.6601025918
  0
VERTEX
  8
AXES
 62
7
  6
CONTINUOUS
 10
189.1493914618
 20
218.7276052083
  0
VERTEX
  8
AXES
 62
7
  6
CONTINUOUS
 10
189.02541135
 20
218.7943948087
  0
VERTEX
  8
AXES
 62
7
  6
CONTINUOUS
 10
188.8960103724
 20
218.8566588044
  0
VERTEX
  8
AXES
 62
7
  6
CONTINUOUS
 10
188.7633269503
 20
218.9117140263
  0
VERTEX
  8
AXES
 62
7
  6
CONTINUOUS
 10
188.6296831776
 20
218.957231717
  0
VERTEX
  8
AXES
 62
7
  6
CONTINUOUS
 10
188.4971346426
 20
218.9916451953
  0
SEQEND
  0
LINE
  8
0
 62
7
  6
CONTINUOUS
 10
160.1249515187
 20
215.2256251969
 11
160.1249515187
 21
225.7256251969
  0
LINE
  8
0
 62
7
  6
CONTINUOUS
 10
167.878980245
 20
215.2256251969
 11
167.878980245
 21
225.7256251969
  0
POLYLINE
  8
0
 62
7
  6
CONTINUOUS
 66
1
 70
0
  0
VERTEX
  8
0
 62
7
  6
CONTINUOUS
 10
198.2249658818
 20
205.3777272148
  0
VERTEX
  8
0
 62
7
  6
CONTINUOUS
 10
198.2358600639
 20
205.3618760079
  0
VERTEX
  8
0
 62
7
  6
CONTINUOUS
 10
198.2686782622
 20
205.3439373031
  0
VERTEX
  8
0
 62
7
  6
CONTINUOUS
 10
198.3230580693
 20
205.3242986388
  0
VERTEX
  8
0
 62
7
  6
CONTINUOUS
 10
198.3980356015
 20
205.3034372063
  0
VERTEX
  8
0
 62
7
  6
CONTINUOUS
 10
198.493426378
 20
205.2816324586
  0
VERTEX
  8
0
 62
7
  6
CONTINUOUS
 10
198.6083438251
 20
205.2594112991
  0
VERTEX
  8
0
 62
7
  6
CONTINUOUS
 10
198.7408373978
 20
205.2374739844
  0
VERTEX
  8
0
 62
7
  6
CONTINUOUS
 10
198.8888280242
 20
205.2164639179
  0
VERTEX
  8
0
 62
7
  6
CONTINUOUS
 10
199.0521525879
 20
205.1967469141
  0
VERTEX
  8
0
 62
7
  6
CONTINUOUS
 10
199.2285944649
 20
205.1789604303
  0
VERTEX
  8
0
 62
7
  6
CONTINUOUS
 10
199.4151082539
 20
205.1637135468
  0
VERTEX
  8
0
 62
7
  6
CONTINUOUS
 10
199.6095234283
 20
205.1514164331
  0
VERTEX
  8
0
 62
7
  6
CONTINUOUS
 10
199.811395977
 20
205.1423256124
  0
VERTEX
  8
0
 62
7
  6
CONTINUOUS
 10
200.0176888621
 20
205.1367707291
  0
VERTEX
  8
0
 62
7
  6
CONTINUOUS
 10
200.2249658818
 20
205.1349154563
  0
SEQEND
  0
LINE
  8
0
 62
7
  6
CONTINUOUS
 10
173.8789515187
 20
215.2256251969
 11
173.8789515187
 21
225.7256251969
  0
LINE
  8
0
 62
7
  6
CONTINUOUS
 10
181.0789658818
 20
218.3762702768
 11
181.0789658818
 21
214.6256251969
  0
LINE
  8
0
 62
7
  6
CONTINUOUS
 10
182.378980245
 20
215.4893646924
 11
182.378980245
 21
225.7256251969
  0
POLYLINE
  8
AXES
 62
7
  6
CONTINUOUS
 66
1
 70
0
  0
VERTEX
  8
AXES
 62
7
  6
CONTINUOUS
 10
182.378980245
 20
219.1546059846
  0
VERTEX
  8
AXES
 62
7
  6
CONTINUOUS
 10
182.3751767102
 20
219.1141733669
  0
VERTEX
  8
AXES
 62
7
  6
CONTINUOUS
 10
182.3650011903
 20
219.0800820651
  0
VERTEX
  8
AXES
 62
7
  6
CONTINUOUS
 10
182.3497805889
 20
219.0517187419
  0
VERTEX
  8
AXES
 62
7
  6
CONTINUOUS
 10
182.3309015599
 20
219.0291472474
  0
VERTEX
  8
AXES
 62
7
  6
CONTINUOUS
 10
182.3095571605
 20
219.0120127562
  0
VERTEX
  8
AXES
 62
7
  6
CONTINUOUS
 10
182.2858415576
 20
218.9994780923
  0
VERTEX
  8
AXES
 62
7
  6
CONTINUOUS
 10
182.2607971211
 20
218.9916451953
  0
SEQEND
  0
LINE
  8
0
 62
7
  6
CONTINUOUS
 10
188.3789515187
 20
215.4893648845
 11
188.3789515187
 21
225.7256251969
  0
LINE
  8
0
 62
7
  6
CONTINUOUS
 10
189.6789658818
 20
218.3762702202
 11
189.6789658818
 21
214.6256251969
  0
LINE
  8
0
 62
7
  6
CONTINUOUS
 10
198.003980245
 20
215.2256251969
 11
198.003980245
 21
225.7256251969
  0
LINE
  8
0
 62
7
  6
CONTINUOUS
 10
198.2249658818
 20
201.4756251969
 11
198.2249658818
 21
205.4277708869
  0
LINE
  8
0
 62
7
  6
CONTINUOUS
 10
204.0039515187
 20
215.2256251969
 11
204.0039515187
 21
225.7256251969
  0
LINE
  8
0
 62
7
  6
CONTINUOUS
 10
205.9749658818
 20
205.7277751685
 11
205.9749658818
 21
214.4756251969
  0
LINE
  8
0
 62
7
  6
CONTINUOUS
 10
206.0896075662
 20
214.4756251969
 11
206.0896075674
 21
205.4689217987
  0
LINE
  8
0
 62
7
  6
CONTINUOUS
 10
206.1249658818
 20
205.4384028821
 11
206.1249658818
 21
214.4756251969
  0
LINE
  8
0
 62
7
  6
CONTINUOUS
 10
211.3789658818
 20
214.6256251969
 11
211.3789658818
 21
225.3565060802
  0
LINE
  8
0
 62
7
  6
CONTINUOUS
 10
210.6582710713
 20
214.1000446127
 11
209.9398233449
 21
202.3535281178
  0
POLYLINE
  8
0
 62
7
  6
CONTINUOUS
 66
1
 70
0
  0
VERTEX
  8
0
 62
7
  6
CONTINUOUS
 10
206.0896075674
 20
205.4689217987
  0
VERTEX
  8
0
 62
7
  6
CONTINUOUS
 10
206.0864233609
 20
205.4248522554
  0
VERTEX
  8
0
 62
7
  6
CONTINUOUS
 10
206.0768912035
 20
205.3816355326
  0
VERTEX
  8
0
 62
7
  6
CONTINUOUS
 10
206.0613624357
 20
205.3406708695
  0
VERTEX
  8
0
 62
7
  6
CONTINUOUS
 10
206.0401510459
 20
205.3025303489
  0
VERTEX
  8
0
 62
7
  6
CONTINUOUS
 10
206.0134813589
 20
205.2677206055
  0
VERTEX
  8
0
 62
7
  6
CONTINUOUS
 10
205.9819837532
 20
205.2372017745
  0
VERTEX
  8
0
 62
7
  6
CONTINUOUS
 10
205.9466682309
 20
205.2118718505
  0
VERTEX
  8
0
 62
7
  6
CONTINUOUS
 10
205.9083221784
 20
205.1921213248
  0
VERTEX
  8
0
 62
7
  6
CONTINUOUS
 10
205.8674058296
 20
205.1781385821
  0
VERTEX
  8
0
 62
7
  6
CONTINUOUS
 10
205.8229869301
 20
205.168648813
  0
SEQEND
  0
POLYLINE
  8
0
 62
7
  6
CONTINUOUS
 66
1
 70
0
  0
VERTEX
  8
0
 62
7
  6
CONTINUOUS
 10
206.1249658818
 20
205.4384028821
  0
VERTEX
  8
0
 62
7
  6
CONTINUOUS
 10
206.1212567811
 20
205.3908344775
  0
VERTEX
  8
0
 62
7
  6
CONTINUOUS
 10
206.1101420616
 20
205.3441943667
  0
VERTEX
  8
0
 62
7
  6
CONTINUOUS
 10
206.0920587957
 20
205.3002214872
  0
VERTEX
  8
0
 62
7
  6
CONTINUOUS
 10
206.0673850346
 20
205.2596329574
  0
VERTEX
  8
0
 62
7
  6
CONTINUOUS
 10
206.0364617615
 20
205.2231743154
  0
VERTEX
  8
0
 62
7
  6
CONTINUOUS
 10
206.0003232773
 20
205.1921687162
  0
VERTEX
  8
0
 62
7
  6
CONTINUOUS
 10
205.960292457
 20
205.1675518409
  0
VERTEX
  8
0
 62
7
  6
CONTINUOUS
 10
205.9170698043
 20
205.1495747691
  0
VERTEX
  8
0
 62
7
  6
CONTINUOUS
 10
205.8713976673
 20
205.1385730859
  0
VERTEX
  8
0
 62
7
  6
CONTINUOUS
 10
205.8249658818
 20
205.1349154563
  0
SEQEND
  0
POLYLINE
  8
0
 62
7
  6
CONTINUOUS
 66
1
 70
0
  0
VERTEX
  8
0
 62
7
  6
CONTINUOUS
 10
206.1212171197
 20
205.4244789208
  0
VERTEX
  8
0
 62
7
  6
CONTINUOUS
 10
206.110073272
 20
205.3778180535
  0
VERTEX
  8
0
 62
7
  6
CONTINUOUS
 10
206.0918436739
 20
205.3335761614
  0
VERTEX
  8
0
 62
7
  6
CONTINUOUS
 10
206.0670179769
 20
205.2928512422
  0
VERTEX
  8
0
 62
7
  6
CONTINUOUS
 10
206.0362653909
 20
205.2566564702
  0
VERTEX
  8
0
 62
7
  6
CONTINUOUS
 10
206.0003907509
 20
205.225857178
  0
VERTEX
  8
0
 62
7
  6
CONTINUOUS
 10
205.9603074912
 20
205.2011665023
  0
VERTEX
  8
0
 62
7
  6
CONTINUOUS
 10
205.9170060662
 20
205.1831373188
  0
VERTEX
  8
0
 62
7
  6
CONTINUOUS
 10
205.8715324172
 20
205.1721634223
  0
VERTEX
  8
0
 62
7
  6
CONTINUOUS
 10
205.8229869301
 20
205.168648813
  0
SEQEND
  0
POLYLINE
  8
AXES
 62
7
  6
CONTINUOUS
 66
1
 70
0
  0
VERTEX
  8
AXES
 62
7
  6
CONTINUOUS
 10
204.0039515187
 20
221.4586145068
  0
VERTEX
  8
AXES
 62
7
  6
CONTINUOUS
 10
204.0359983536
 20
221.3473290769
  0
VERTEX
  8
AXES
 62
7
  6
CONTINUOUS
 10
204.0800221216
 20
221.1558495492
  0
VERTEX
  8
AXES
 62
7
  6
CONTINUOUS
 10
204.1133479351
 20
220.9622767945
  0
VERTEX
  8
AXES
 62
7
  6
CONTINUOUS
 10
204.1356374752
 20
220.7678611123
  0
VERTEX
  8
AXES
 62
7
  6
CONTINUOUS
 10
204.1468051809
 20
220.5727960006
  0
VERTEX
  8
AXES
 62
7
  6
CONTINUOUS
 10
204.1467952061
 20
220.3781057878
  0
VERTEX
  8
AXES
 62
7
  6
CONTINUOUS
 10
204.1356067405
 20
220.1830319614
  0
VERTEX
  8
AXES
 62
7
  6
CONTINUOUS
 10
204.1132987567
 20
219.9886307502
  0
VERTEX
  8
AXES
 62
7
  6
CONTINUOUS
 10
204.0799527341
 20
219.7950557956
  0
VERTEX
  8
AXES
 62
7
  6
CONTINUOUS
 10
204.0359125598
 20
219.6035901184
  0
VERTEX
  8
AXES
 62
7
  6
CONTINUOUS
 10
204.0039515187
 20
219.4926414349
  0
SEQEND
  0
ARC
  8
0
 62
7
  6
CONTINUOUS
 10
67.8289658818
 20
128.9222164133
 40
4.0
 50
224.4153085972
 51
315.5846914028
  0
ARC
  8
0
 62
7
  6
CONTINUOUS
 10
80.5289658818
 20
128.9222164133
 40
4.0
 50
224.4153085972
 51
315.5846914028
  0
ARC
  8
0
 62
7
  6
CONTINUOUS
 10
78.0289660889
 20
126.4727263728
 40
0.5000000086
 50
179.9999658822
 51
224.4152676244
  0
ARC
  8
0
 62
7
  6
CONTINUOUS
 10
65.3289660889
 20
126.4727263728
 40
0.5000000086
 50
179.9999658822
 51
224.4152676244
  0
ARC
  8
0
 62
7
  6
CONTINUOUS
 10
83.0289658818
 20
126.4727266705
 40
0.5
 50
315.5846914028
 51
360.0
  0
ARC
  8
0
 62
7
  6
CONTINUOUS
 10
70.3289658818
 20
126.4727266705
 40
0.5
 50
315.5846914028
 51
360.0
  0
ARC
  8
AXES
 62
7
  6
CONTINUOUS
 10
70.5789658818
 20
132.9915514681
 40
0.5
 50
186.3116101259
 51
187.8883898741
  0
ARC
  8
0
 62
7
  6
CONTINUOUS
 10
70.5789658818
 20
132.9915514681
 40
0.5
 50
180.0
 51
194.2
  0
ARC
  8
0
 62
7
  6
CONTINUOUS
 10
65.0789658818
 20
132.9915514681
 40
0.5
 50
345.8
 51
360.0
  0
ARC
  8
AXES
 62
7
  6
CONTINUOUS
 10
83.2789658818
 20
132.9915514681
 40
0.5
 50
186.3116101259
 51
187.8883898741
  0
ARC
  8
0
 62
7
  6
CONTINUOUS
 10
83.2789658818
 20
132.9915514681
 40
0.5
 50
180.0
 51
194.2
  0
ARC
  8
0
 62
7
  6
CONTINUOUS
 10
77.7789658818
 20
132.9915514681
 40
0.5
 50
345.8
 51
360.0
  0
ARC
  8
0
 62
7
  6
CONTINUOUS
 10
83.3789658818
 20
129.9466185473
 40
0.15
 50
0.0
 51
14.2
  0
ARC
  8
AXES
 62
7
  6
CONTINUOUS
 10
83.3789658818
 20
129.9466185473
 40
0.15
 50
0.0
 51
14.2
  0
ARC
  8
0
 62
7
  6
CONTINUOUS
 10
70.6789658818
 20
129.9466185473
 40
0.15
 50
0.0
 51
14.2
  0
ARC
  8
AXES
 62
7
  6
CONTINUOUS
 10
70.6789658818
 20
129.9466185473
 40
0.15
 50
0.0
 51
14.2
  0
ARC
  8
0
 62
7
  6
CONTINUOUS
 10
77.6789660049
 20
129.9466190335
 40
0.15
 50
165.8001915619
 51
180.0001857066
  0
ARC
  8
AXES
 62
7
  6
CONTINUOUS
 10
77.6789658818
 20
129.9466185473
 40
0.15
 50
165.8
 51
180.0
  0
ARC
  8
0
 62
7
  6
CONTINUOUS
 10
64.9789660049
 20
129.9466190335
 40
0.15
 50
165.8001915619
 51
180.0001857066
  0
ARC
  8
AXES
 62
7
  6
CONTINUOUS
 10
64.9789658818
 20
129.9466185473
 40
0.15
 50
165.8
 51
180.0
  0
ARC
  8
0
 62
7
  6
CONTINUOUS
 10
93.2289658818
 20
128.9222164133
 40
4.0
 50
224.4153085972
 51
315.5846914028
  0
ARC
  8
0
 62
7
  6
CONTINUOUS
 10
105.9289658818
 20
128.9222164133
 40
4.0
 50
224.4153085972
 51
315.5846914028
  0
ARC
  8
0
 62
7
  6
CONTINUOUS
 10
103.4289660889
 20
126.4727263728
 40
0.5000000086
 50
179.9999658822
 51
224.4152676244
  0
ARC
  8
0
 62
7
  6
CONTINUOUS
 10
90.7289660889
 20
126.4727263728
 40
0.5000000086
 50
179.9999658822
 51
224.4152676244
  0
ARC
  8
0
 62
7
  6
CONTINUOUS
 10
95.7289658818
 20
126.4727266705
 40
0.5
 50
315.5846914028
 51
360.0
  0
ARC
  8
AXES
 62
7
  6
CONTINUOUS
 10
95.9789658818
 20
132.9915514681
 40
0.5
 50
186.3116101259
 51
187.8883898741
  0
ARC
  8
0
 62
7
  6
CONTINUOUS
 10
95.9789658818
 20
132.9915514681
 40
0.5
 50
180.0
 51
194.2
  0
ARC
  8
0
 62
7
  6
CONTINUOUS
 10
90.4789658818
 20
132.9915514681
 40
0.5
 50
345.8
 51
360.0
  0
ARC
  8
0
 62
7
  6
CONTINUOUS
 10
103.1789658818
 20
132.9915514681
 40
0.5
 50
345.8
 51
360.0
  0
ARC
  8
0
 62
7
  6
CONTINUOUS
 10
96.0789658818
 20
129.9466185473
 40
0.15
 50
0.0
 51
14.2
  0
ARC
  8
AXES
 62
7
  6
CONTINUOUS
 10
96.0789658818
 20
129.9466185473
 40
0.15
 50
0.0
 51
14.2
  0
ARC
  8
0
 62
7
  6
CONTINUOUS
 10
103.0789660049
 20
129.9466190335
 40
0.15
 50
165.8001915619
 51
180.0001857066
  0
ARC
  8
AXES
 62
7
  6
CONTINUOUS
 10
103.0789658818
 20
129.9466185473
 40
0.15
 50
165.8
 51
180.0
  0
ARC
  8
0
 62
7
  6
CONTINUOUS
 10
90.3789660049
 20
129.9466190335
 40
0.15
 50
165.8001915619
 51
180.0001857066
  0
ARC
  8
AXES
 62
7
  6
CONTINUOUS
 10
90.3789658818
 20
129.9466185473
 40
0.15
 50
165.8
 51
180.0
  0
ARC
  8
0
 62
7
  6
CONTINUOUS
 10
72.0789658818
 20
139.1882164133
 40
2.0
 50
90.0
 51
180.0
  0
ARC
  8
0
 62
7
  6
CONTINUOUS
 10
84.7789658818
 20
139.1882164133
 40
2.0
 50
90.0
 51
180.0
  0
ARC
  8
0
 62
7
  6
CONTINUOUS
 10
76.2789658818
 20
139.1882164133
 40
2.0
 50
0.0
 51
90.0
  0
ARC
  8
0
 62
7
  6
CONTINUOUS
 10
97.4789658818
 20
139.1882164133
 40
2.0
 50
90.0
 51
180.0
  0
ARC
  8
0
 62
7
  6
CONTINUOUS
 10
88.9789658818
 20
139.1882164133
 40
2.0
 50
0.0
 51
90.0
  0
ARC
  8
0
 62
7
  6
CONTINUOUS
 10
101.6789658818
 20
139.1882164133
 40
2.0
 50
0.0
 51
90.0
  0
ARC
  8
0
 62
7
  6
CONTINUOUS
 10
63.5789658818
 20
139.1882164133
 40
2.0
 50
0.0
 51
90.0
  0
ARC
  8
0
 62
7
  6
CONTINUOUS
 10
60.2329658818
 20
142.1882164133
 40
1.0
 50
180.0
 51
270.0
  0
ARC
  8
0
 62
7
  6
CONTINUOUS
 10
118.6289658818
 20
128.9222164133
 40
4.0
 50
224.4153085972
 51
315.5846914028
  0
ARC
  8
0
 62
7
  6
CONTINUOUS
 10
131.3289658818
 20
128.9222164133
 40
4.0
 50
224.4153085972
 51
315.5846914028
  0
ARC
  8
0
 62
7
  6
CONTINUOUS
 10
116.1289660889
 20
126.4727263728
 40
0.5000000086
 50
179.9999658822
 51
224.4152676244
  0
ARC
  8
0
 62
7
  6
CONTINUOUS
 10
128.8289660889
 20
126.4727263728
 40
0.5000000086
 50
179.9999658822
 51
224.4152676244
  0
ARC
  8
0
 62
7
  6
CONTINUOUS
 10
121.1289658818
 20
126.4727266705
 40
0.5
 50
315.5846914028
 51
360.0
  0
ARC
  8
0
 62
7
  6
CONTINUOUS
 10
108.4289658818
 20
126.4727266705
 40
0.5
 50
315.5846914028
 51
360.0
  0
ARC
  8
0
 62
7
  6
CONTINUOUS
 10
108.6789658818
 20
132.9915514681
 40
0.5
 50
180.0
 51
194.2
  0
ARC
  8
AXES
 62
7
  6
CONTINUOUS
 10
121.3789658818
 20
132.9915514681
 40
0.5
 50
186.3116101259
 51
187.8883898741
  0
ARC
  8
0
 62
7
  6
CONTINUOUS
 10
121.3789658818
 20
132.9915514681
 40
0.5
 50
180.0
 51
194.2
  0
ARC
  8
0
 62
7
  6
CONTINUOUS
 10
115.8789658818
 20
132.9915514681
 40
0.5
 50
345.8
 51
360.0
  0
ARC
  8
0
 62
7
  6
CONTINUOUS
 10
128.5789658818
 20
132.9915514681
 40
0.5
 50
345.8
 51
360.0
  0
ARC
  8
0
 62
7
  6
CONTINUOUS
 10
121.4789658818
 20
129.9466185473
 40
0.15
 50
0.0
 51
14.2
  0
ARC
  8
AXES
 62
7
  6
CONTINUOUS
 10
121.4789658818
 20
129.9466185473
 40
0.15
 50
0.0
 51
14.2
  0
ARC
  8
0
 62
7
  6
CONTINUOUS
 10
128.4789660049
 20
129.9466190335
 40
0.15
 50
165.8001915619
 51
180.0001857066
  0
ARC
  8
AXES
 62
7
  6
CONTINUOUS
 10
128.4789658818
 20
129.9466185473
 40
0.15
 50
165.8
 51
180.0
  0
ARC
  8
0
 62
7
  6
CONTINUOUS
 10
108.7789658818
 20
129.9466185473
 40
0.15
 50
0.0
 51
14.2
  0
ARC
  8
AXES
 62
7
  6
CONTINUOUS
 10
108.7789658818
 20
129.9466185473
 40
0.15
 50
0.0
 51
14.2
  0
ARC
  8
0
 62
7
  6
CONTINUOUS
 10
115.7789660049
 20
129.9466190335
 40
0.15
 50
165.8001915619
 51
180.0001857066
  0
ARC
  8
AXES
 62
7
  6
CONTINUOUS
 10
115.7789658818
 20
129.9466185473
 40
0.15
 50
165.8
 51
180.0
  0
ARC
  8
0
 62
7
  6
CONTINUOUS
 10
144.0289658818
 20
128.9222164133
 40
4.0
 50
224.4153085972
 51
315.5846914028
  0
ARC
  8
0
 62
7
  6
CONTINUOUS
 10
141.5289660889
 20
126.4727263728
 40
0.5000000086
 50
179.9999658822
 51
224.4152676244
  0
ARC
  8
0
 62
7
  6
CONTINUOUS
 10
154.624979924
 20
125.9519946954
 40
0.5000000052
 50
180.0000154056
 51
240.3272592315
  0
ARC
  8
0
 62
7
  6
CONTINUOUS
 10
133.8289658818
 20
126.4727266705
 40
0.5
 50
315.5846914028
 51
360.0
  0
ARC
  8
0
 62
7
  6
CONTINUOUS
 10
146.5289658818
 20
126.4727266705
 40
0.5
 50
315.5846914028
 51
360.0
  0
ARC
  8
0
 62
7
  6
CONTINUOUS
 10
134.0789658818
 20
132.9915514681
 40
0.5
 50
180.0
 51
194.2
  0
ARC
  8
AXES
 62
7
  6
CONTINUOUS
 10
146.7789658818
 20
132.9915514681
 40
0.5
 50
186.311610126
 51
187.888389874
  0
ARC
  8
0
 62
7
  6
CONTINUOUS
 10
146.7789658818
 20
132.9915514681
 40
0.5
 50
180.0
 51
194.2
  0
ARC
  8
0
 62
7
  6
CONTINUOUS
 10
141.2789658818
 20
132.9915514681
 40
0.5
 50
345.8
 51
360.0
  0
ARC
  8
0
 62
7
  6
CONTINUOUS
 10
154.3749658818
 20
132.9914947055
 40
0.5
 50
345.8
 51
360.0
  0
ARC
  8
0
 62
7
  6
CONTINUOUS
 10
146.8789658818
 20
129.9466185473
 40
0.15
 50
0.0
 51
14.2
  0
ARC
  8
AXES
 62
7
  6
CONTINUOUS
 10
146.8789658818
 20
129.9466185473
 40
0.15
 50
0.0
 51
14.2
  0
ARC
  8
0
 62
7
  6
CONTINUOUS
 10
154.274980368
 20
129.9466190335
 40
0.15
 50
165.8001915619
 51
180.0001857066
  0
ARC
  8
AXES
 62
7
  6
CONTINUOUS
 10
154.274980245
 20
129.9466185473
 40
0.15
 50
165.8
 51
180.0
  0
ARC
  8
0
 62
7
  6
CONTINUOUS
 10
134.1789658818
 20
129.9466185473
 40
0.15
 50
0.0
 51
14.2
  0
ARC
  8
AXES
 62
7
  6
CONTINUOUS
 10
134.1789658818
 20
129.9466185473
 40
0.15
 50
0.0
 51
14.2
  0
ARC
  8
0
 62
7
  6
CONTINUOUS
 10
141.1789660049
 20
129.9466190335
 40
0.15
 50
165.8001915619
 51
180.0001857066
  0
ARC
  8
AXES
 62
7
  6
CONTINUOUS
 10
141.1789658818
 20
129.9466185473
 40
0.15
 50
165.8
 51
180.0
  0
ARC
  8
0
 62
7
  6
CONTINUOUS
 10
110.1789658818
 20
139.1882164133
 40
2.0
 50
90.0
 51
180.0
  0
ARC
  8
0
 62
7
  6
CONTINUOUS
 10
122.8789658818
 20
139.1882164133
 40
2.0
 50
90.0
 51
180.0
  0
ARC
  8
0
 62
7
  6
CONTINUOUS
 10
114.3789658818
 20
139.1882164133
 40
2.0
 50
0.0
 51
90.0
  0
ARC
  8
0
 62
7
  6
CONTINUOUS
 10
135.5789658818
 20
139.1882164133
 40
2.0
 50
90.0
 51
180.0
  0
ARC
  8
0
 62
7
  6
CONTINUOUS
 10
127.0789658818
 20
139.1882164133
 40
2.0
 50
0.0
 51
90.0
  0
ARC
  8
0
 62
7
  6
CONTINUOUS
 10
148.2789658818
 20
139.1882164133
 40
2.0
 50
90.0
 51
180.0
  0
ARC
  8
0
 62
7
  6
CONTINUOUS
 10
139.7789658818
 20
139.1882164133
 40
2.0
 50
0.0
 51
90.0
  0
ARC
  8
0
 62
7
  6
CONTINUOUS
 10
152.8749658818
 20
139.1882164133
 40
2.0
 50
0.0
 51
90.0
  0
ARC
  8
0
 62
7
  6
CONTINUOUS
 10
67.8289658818
 20
146.7762164133
 40
4.104
 50
180.0
 51
360.0
  0
ARC
  8
0
 62
7
  6
CONTINUOUS
 10
80.5289658818
 20
146.7762164133
 40
4.104
 50
180.0
 51
360.0
  0
ARC
  8
0
 62
7
  6
CONTINUOUS
 10
93.2289658818
 20
146.7762164133
 40
4.104
 50
180.0
 51
360.0
  0
ARC
  8
0
 62
7
  6
CONTINUOUS
 10
71.4329658818
 20
150.9599381211
 40
0.5
 50
0.0
 51
14.2
  0
ARC
  8
0
 62
7
  6
CONTINUOUS
 10
84.1329658818
 20
150.9599381211
 40
0.5
 50
0.0
 51
14.2
  0
ARC
  8
0
 62
7
  6
CONTINUOUS
 10
76.9249658818
 20
150.9599381211
 40
0.5
 50
165.8
 51
180.0
  0
ARC
  8
0
 62
7
  6
CONTINUOUS
 10
96.8329658818
 20
150.9599381211
 40
0.5
 50
0.0
 51
14.2
  0
ARC
  8
0
 62
7
  6
CONTINUOUS
 10
89.6249658818
 20
150.9599381211
 40
0.5
 50
165.8
 51
180.0
  0
ARC
  8
0
 62
7
  6
CONTINUOUS
 10
102.3249658818
 20
150.9599381211
 40
0.5
 50
165.8
 51
180.0
  0
ARC
  8
0
 62
7
  6
CONTINUOUS
 10
64.2249658818
 20
150.9599381211
 40
0.5
 50
165.8
 51
180.0
  0
ARC
  8
0
 62
7
  6
CONTINUOUS
 10
58.7329658818
 20
150.9599381211
 40
0.5
 50
0.0
 51
14.2
  0
ARC
  8
0
 62
7
  6
CONTINUOUS
 10
101.8289658818
 20
158.2722164133
 40
0.75
 50
0.0
 51
90.0
  0
ARC
  8
0
 62
7
  6
CONTINUOUS
 10
97.3289658818
 20
158.2722164133
 40
0.75
 50
90.0
 51
180.0
  0
ARC
  8
0
 62
7
  6
CONTINUOUS
 10
89.1289658818
 20
158.2722164133
 40
0.75
 50
0.0
 51
90.0
  0
ARC
  8
0
 62
7
  6
CONTINUOUS
 10
84.6289658818
 20
158.2722164133
 40
0.75
 50
90.0
 51
180.0
  0
ARC
  8
0
 62
7
  6
CONTINUOUS
 10
76.4289658818
 20
158.2722164133
 40
0.75
 50
0.0
 51
90.0
  0
ARC
  8
0
 62
7
  6
CONTINUOUS
 10
71.9289658818
 20
158.2722164133
 40
0.75
 50
90.0
 51
180.0
  0
ARC
  8
0
 62
7
  6
CONTINUOUS
 10
59.2289658818
 20
158.2722164133
 40
0.75
 50
90.0
 51
180.0
  0
ARC
  8
0
 62
7
  6
CONTINUOUS
 10
63.7289658818
 20
158.2722164133
 40
0.75
 50
0.0
 51
90.0
  0
ARC
  8
0
 62
7
  6
CONTINUOUS
 10
84.0289658818
 20
154.020678888
 40
0.15
 50
180.0
 51
194.2
  0
ARC
  8
0
 62
7
  6
CONTINUOUS
 10
77.0289655869
 20
154.0206777226
 40
0.15
 50
345.8004591917
 51
0.0004451523
  0
ARC
  8
0
 62
7
  6
CONTINUOUS
 10
96.7289658818
 20
154.020678888
 40
0.15
 50
180.0
 51
194.2
  0
ARC
  8
0
 62
7
  6
CONTINUOUS
 10
89.7289655869
 20
154.0206777226
 40
0.15
 50
345.8004591917
 51
0.0004451523
  0
ARC
  8
0
 62
7
  6
CONTINUOUS
 10
58.6289658818
 20
154.020678888
 40
0.15
 50
180.0
 51
194.2
  0
ARC
  8
0
 62
7
  6
CONTINUOUS
 10
71.3289658818
 20
154.020678888
 40
0.15
 50
180.0
 51
194.2
  0
ARC
  8
0
 62
7
  6
CONTINUOUS
 10
64.3289655869
 20
154.0206777226
 40
0.15
 50
345.8004591917
 51
0.0004451523
  0
ARC
  8
0
 62
7
  6
CONTINUOUS
 10
102.4289655869
 20
154.0206777226
 40
0.15
 50
345.8004591917
 51
0.0004451523
  0
ARC
  8
0
 62
7
  6
CONTINUOUS
 10
105.9289658818
 20
146.7762164133
 40
4.104
 50
180.0
 51
360.0
  0
ARC
  8
0
 62
7
  6
CONTINUOUS
 10
118.6289658818
 20
146.7762164133
 40
4.104
 50
180.0
 51
360.0
  0
ARC
  8
0
 62
7
  6
CONTINUOUS
 10
131.3289658818
 20
146.7762164133
 40
4.104
 50
180.0
 51
360.0
  0
ARC
  8
0
 62
7
  6
CONTINUOUS
 10
144.0289658818
 20
146.7762164133
 40
4.104
 50
180.0
 51
360.0
  0
ARC
  8
0
 62
7
  6
CONTINUOUS
 10
109.5329658818
 20
150.9599381211
 40
0.5
 50
0.0
 51
14.2
  0
ARC
  8
0
 62
7
  6
CONTINUOUS
 10
122.2329658818
 20
150.9599381211
 40
0.5
 50
0.0
 51
14.2
  0
ARC
  8
0
 62
7
  6
CONTINUOUS
 10
115.0249658818
 20
150.9599381211
 40
0.5
 50
165.8
 51
180.0
  0
ARC
  8
0
 62
7
  6
CONTINUOUS
 10
134.9329658818
 20
150.9599381211
 40
0.5
 50
0.0
 51
14.2
  0
ARC
  8
0
 62
7
  6
CONTINUOUS
 10
127.7249658818
 20
150.9599381211
 40
0.5
 50
165.8
 51
180.0
  0
ARC
  8
0
 62
7
  6
CONTINUOUS
 10
147.6329658818
 20
150.9599381211
 40
0.5
 50
0.0
 51
14.2
  0
ARC
  8
0
 62
7
  6
CONTINUOUS
 10
140.4249658818
 20
150.9599381211
 40
0.5
 50
165.8
 51
180.0
  0
ARC
  8
0
 62
7
  6
CONTINUOUS
 10
153.1249658818
 20
150.9599381211
 40
0.5
 50
165.8
 51
180.0
  0
ARC
  8
0
 62
7
  6
CONTINUOUS
 10
139.9289658818
 20
158.2722164133
 40
0.75
 50
0.0
 51
90.0
  0
ARC
  8
0
 62
7
  6
CONTINUOUS
 10
135.4289658818
 20
158.2722164133
 40
0.75
 50
90.0
 51
180.0
  0
ARC
  8
0
 62
7
  6
CONTINUOUS
 10
127.2289658818
 20
158.2722164133
 40
0.75
 50
0.0
 51
90.0
  0
ARC
  8
0
 62
7
  6
CONTINUOUS
 10
122.7289658818
 20
158.2722164133
 40
0.75
 50
90.0
 51
180.0
  0
ARC
  8
0
 62
7
  6
CONTINUOUS
 10
114.5289658818
 20
158.2722164133
 40
0.75
 50
0.0
 51
90.0
  0
ARC
  8
0
 62
7
  6
CONTINUOUS
 10
110.0289658818
 20
158.2722164133
 40
0.75
 50
90.0
 51
180.0
  0
ARC
  8
0
 62
7
  6
CONTINUOUS
 10
148.1289658818
 20
158.2722164133
 40
0.75
 50
90.0
 51
180.0
  0
ARC
  8
0
 62
7
  6
CONTINUOUS
 10
152.6289658818
 20
158.2722164133
 40
0.75
 50
0.0
 51
90.0
  0
ARC
  8
0
 62
7
  6
CONTINUOUS
 10
153.2289658818
 20
154.020678888
 40
0.15
 50
345.8
 51
360.0
  0
ARC
  8
0
 62
7
  6
CONTINUOUS
 10
147.5289658818
 20
154.020678888
 40
0.15
 50
180.0
 51
194.2
  0
ARC
  8
0
 62
7
  6
CONTINUOUS
 10
140.5289655869
 20
154.0206777226
 40
0.15
 50
345.8004591917
 51
0.0004451523
  0
ARC
  8
0
 62
7
  6
CONTINUOUS
 10
134.8289658818
 20
154.020678888
 40
0.15
 50
180.0
 51
194.2
  0
ARC
  8
0
 62
7
  6
CONTINUOUS
 10
127.8289655869
 20
154.0206777226
 40
0.15
 50
345.8004591917
 51
0.0004451523
  0
ARC
  8
0
 62
7
  6
CONTINUOUS
 10
122.1289658818
 20
154.020678888
 40
0.15
 50
180.0
 51
194.2
  0
ARC
  8
0
 62
7
  6
CONTINUOUS
 10
115.1289655869
 20
154.0206777226
 40
0.15
 50
345.8004591917
 51
0.0004451523
  0
ARC
  8
0
 62
7
  6
CONTINUOUS
 10
109.4289658818
 20
154.020678888
 40
0.15
 50
180.0
 51
194.2
  0
ARC
  8
0
 62
7
  6
CONTINUOUS
 10
156.6249658818
 20
129.4622164133
 40
4.54
 50
240.3272196412
 51
270.0
  0
ARC
  8
0
 62
7
  6
CONTINUOUS
 10
157.6249658818
 20
129.4622164133
 40
4.54
 50
270.0
 51
299.6727803588
  0
ARC
  8
0
 62
7
  6
CONTINUOUS
 10
170.3789658818
 20
129.4222164133
 40
4.5
 50
240.0002375645
 51
270.0
  0
ARC
  8
0
 62
7
  6
CONTINUOUS
 10
171.3789658818
 20
129.4222164133
 40
4.5
 50
270.0
 51
299.9997624355
  0
ARC
  8
AXES
 62
7
  6
CONTINUOUS
 10
182.5789658818
 20
129.2522164133
 40
1.5
 50
94.1260708806
 51
257.7538206432
  0
ARC
  8
0
 62
7
  6
CONTINUOUS
 10
182.8789799331
 20
125.9581066363
 40
0.5000000053
 50
180.0000149787
 51
240.0002760042
  0
ARC
  8
0
 62
7
  6
CONTINUOUS
 10
168.3789799331
 20
125.9581066363
 40
0.5000000053
 50
180.0000149787
 51
240.0002760042
  0
ARC
  8
0
 62
7
  6
CONTINUOUS
 10
173.3789515187
 20
125.9581065056
 40
0.5
 50
299.9997624355
 51
360.0
  0
ARC
  8
0
 62
7
  6
CONTINUOUS
 10
159.6249515187
 20
125.951994561
 40
0.5
 50
299.6727803588
 51
360.0
  0
ARC
  8
AXES
 62
7
  6
CONTINUOUS
 10
182.4602462449
 20
130.8979398554
 40
0.15
 50
274.1260708806
 51
345.8
  0
ARC
  8
AXES
 62
7
  6
CONTINUOUS
 10
182.228980245
 20
127.639761746
 40
0.15
 50
0.0
 51
77.7538206432
  0
ARC
  8
AXES
 62
7
  6
CONTINUOUS
 10
173.7289515187
 20
129.9466185473
 40
0.15
 50
0.0
 51
14.2
  0
ARC
  8
0
 62
7
  6
CONTINUOUS
 10
173.7289513006
 20
129.946619409
 40
0.15
 50
359.9996708549
 51
14.199660478
  0
ARC
  8
0
 62
7
  6
CONTINUOUS
 10
182.528980245
 20
129.9466185473
 40
0.15
 50
165.8
 51
180.0
  0
ARC
  8
0
 62
7
  6
CONTINUOUS
 10
159.9749515187
 20
129.9466185473
 40
0.15
 50
0.0
 51
14.2
  0
ARC
  8
AXES
 62
7
  6
CONTINUOUS
 10
159.9749515187
 20
129.9466185473
 40
0.15
 50
0.0
 51
14.2
  0
ARC
  8
0
 62
7
  6
CONTINUOUS
 10
168.028980368
 20
129.9466190335
 40
0.15
 50
165.8001915619
 51
180.0001857066
  0
ARC
  8
AXES
 62
7
  6
CONTINUOUS
 10
168.028980245
 20
129.9466185473
 40
0.15
 50
165.8
 51
180.0
  0
ARC
  8
AXES
 62
7
  6
CONTINUOUS
 10
159.8749658818
 20
132.9914947055
 40
0.5
 50
186.311610126
 51
187.888389874
  0
ARC
  8
0
 62
7
  6
CONTINUOUS
 10
159.8749658818
 20
132.9914947055
 40
0.5
 50
180.0
 51
194.2
  0
ARC
  8
0
 62
7
  6
CONTINUOUS
 10
168.1289658818
 20
132.9914947055
 40
0.5
 50
345.8
 51
360.0
  0
ARC
  8
0
 62
7
  6
CONTINUOUS
 10
162.0749658818
 20
138.8222164133
 40
2.7
 50
90.0
 51
180.0
  0
ARC
  8
0
 62
7
  6
CONTINUOUS
 10
165.9289658818
 20
138.8222164133
 40
2.7
 50
0.0
 51
90.0
  0
ARC
  8
AXES
 62
7
  6
CONTINUOUS
 10
173.6289658818
 20
132.9914947055
 40
0.5
 50
186.3116101259
 51
187.8883898741
  0
ARC
  8
0
 62
7
  6
CONTINUOUS
 10
173.6289658818
 20
132.9914947055
 40
0.5
 50
180.0
 51
194.2
  0
ARC
  8
AXES
 62
7
  6
CONTINUOUS
 10
182.6289658818
 20
132.9914947055
 40
0.5
 50
352.111610126
 51
353.688389874
  0
ARC
  8
0
 62
7
  6
CONTINUOUS
 10
182.6289658818
 20
132.9914947055
 40
0.5
 50
345.8
 51
360.0
  0
ARC
  8
0
 62
7
  6
CONTINUOUS
 10
175.8289658818
 20
138.8222164133
 40
2.7
 50
90.0
 51
180.0
  0
ARC
  8
0
 62
7
  6
CONTINUOUS
 10
180.4289658818
 20
138.8222164133
 40
2.7
 50
0.0
 51
90.0
  0
ARC
  8
0
 62
7
  6
CONTINUOUS
 10
184.8789658818
 20
129.4222164133
 40
4.5
 50
240.0002375645
 51
270.0
  0
ARC
  8
0
 62
7
  6
CONTINUOUS
 10
185.8789658818
 20
129.4222164133
 40
4.5
 50
270.0
 51
299.9997624355
  0
ARC
  8
0
 62
7
  6
CONTINUOUS
 10
201.5039658818
 20
129.4222164133
 40
4.5
 50
270.0
 51
299.9997624355
  0
ARC
  8
0
 62
7
  6
CONTINUOUS
 10
200.5039658818
 20
129.4222164133
 40
4.5
 50
240.0002375645
 51
270.0
  0
ARC
  8
AXES
 62
7
  6
CONTINUOUS
 10
188.1789658818
 20
129.2522164133
 40
1.5
 50
282.2461793568
 51
85.8739291194
  0
ARC
  8
0
 62
7
  6
CONTINUOUS
 10
198.5039799331
 20
125.9581066363
 40
0.5000000053
 50
180.0000149787
 51
240.0002760042
  0
ARC
  8
0
 62
7
  6
CONTINUOUS
 10
203.5039515187
 20
125.9581065056
 40
0.5
 50
299.9997624355
 51
360.0
  0
ARC
  8
0
 62
7
  6
CONTINUOUS
 10
187.8789515187
 20
125.9581065056
 40
0.5
 50
299.9997624355
 51
360.0
  0
ARC
  8
0
 62
7
  6
CONTINUOUS
 10
198.153980245
 20
129.9466185473
 40
0.15
 50
165.8
 51
180.0
  0
ARC
  8
AXES
 62
7
  6
CONTINUOUS
 10
198.153980245
 20
129.9466185473
 40
0.15
 50
165.8
 51
180.0
  0
ARC
  8
0
 62
7
  6
CONTINUOUS
 10
188.2289513006
 20
129.946619409
 40
0.15
 50
359.9996708549
 51
14.199660478
  0
ARC
  8
AXES
 62
7
  6
CONTINUOUS
 10
188.2976855188
 20
130.8979398554
 40
0.15
 50
194.2
 51
265.8739291194
  0
ARC
  8
AXES
 62
7
  6
CONTINUOUS
 10
188.5289515187
 20
127.639761746
 40
0.15
 50
102.2461793568
 51
180.0
  0
ARC
  8
0
 62
7
  6
CONTINUOUS
 10
203.8539513006
 20
129.946619409
 40
0.15
 50
359.9996708549
 51
14.1996604781
  0
ARC
  8
AXES
 62
7
  6
CONTINUOUS
 10
203.8539515187
 20
129.9466185473
 40
0.15
 50
0.0
 51
14.2
  0
ARC
  8
AXES
 62
7
  6
CONTINUOUS
 10
188.1289658818
 20
132.9914947055
 40
0.5
 50
186.3116101259
 51
187.8883898741
  0
ARC
  8
0
 62
7
  6
CONTINUOUS
 10
188.1289658818
 20
132.9914947055
 40
0.5
 50
180.0
 51
194.2
  0
ARC
  8
0
 62
7
  6
CONTINUOUS
 10
198.2539658818
 20
132.9914947055
 40
0.5
 50
345.8
 51
360.0
  0
ARC
  8
AXES
 62
7
  6
CONTINUOUS
 10
198.2539658818
 20
132.9914947055
 40
0.5
 50
352.111610126
 51
353.688389874
  0
ARC
  8
0
 62
7
  6
CONTINUOUS
 10
194.7539658818
 20
137.6722164133
 40
4.0
 50
0.0
 51
90.0
  0
ARC
  8
0
 62
7
  6
CONTINUOUS
 10
190.6289658818
 20
138.6722164133
 40
3.0
 50
90.0
 51
180.0
  0
ARC
  8
0
 62
7
  6
CONTINUOUS
 10
203.7539658818
 20
132.9914947055
 40
0.5
 50
180.0
 51
194.2
  0
ARC
  8
AXES
 62
7
  6
CONTINUOUS
 10
203.7539658818
 20
132.9914947055
 40
0.5
 50
186.3116101259
 51
187.8883898741
  0
ARC
  8
AXES
 62
7
  6
CONTINUOUS
 10
209.2539658818
 20
136.2708545683
 40
6.0
 50
176.3794452709
 51
180.0
  0
ARC
  8
AXES
 62
7
  6
CONTINUOUS
 10
209.2539658818
 20
136.2708545683
 40
6.0
 50
174.6840231156
 51
175.1978928611
  0
ARC
  8
0
 62
7
  6
CONTINUOUS
 10
209.2539658818
 20
136.2708545683
 40
6.0
 50
109.6692848961
 51
180.0
  0
ARC
  8
0
 62
7
  6
CONTINUOUS
 10
157.7749658818
 20
146.3222164133
 40
3.85
 50
270.0
 51
360.0
  0
ARC
  8
0
 62
7
  6
CONTINUOUS
 10
156.4749658818
 20
146.3222164133
 40
3.85
 50
180.0
 51
270.0
  0
ARC
  8
0
 62
7
  6
CONTINUOUS
 10
171.7789658818
 20
146.3222164133
 40
3.85
 50
270.0
 51
360.0
  0
ARC
  8
0
 62
7
  6
CONTINUOUS
 10
169.9789658818
 20
146.3222164133
 40
3.85
 50
180.0
 51
270.0
  0
ARC
  8
0
 62
7
  6
CONTINUOUS
 10
161.1249658818
 20
150.9599381211
 40
0.5
 50
0.0
 51
14.2
  0
ARC
  8
0
 62
7
  6
CONTINUOUS
 10
175.1289658818
 20
150.9599381211
 40
0.5
 50
0.0
 51
14.2
  0
ARC
  8
0
 62
7
  6
CONTINUOUS
 10
166.6289658818
 20
150.9599381211
 40
0.5
 50
165.8
 51
180.0
  0
ARC
  8
0
 62
7
  6
CONTINUOUS
 10
201.3789658818
 20
147.7222164133
 40
5.5
 50
270.0
 51
329.2118097615
  0
ARC
  8
0
 62
7
  6
CONTINUOUS
 10
186.1289658818
 20
146.8222164133
 40
4.5
 50
270.0
 51
360.0
  0
ARC
  8
0
 62
7
  6
CONTINUOUS
 10
184.6289658818
 20
146.8222164133
 40
4.5
 50
180.0
 51
270.0
  0
ARC
  8
0
 62
7
  6
CONTINUOUS
 10
199.6289658818
 20
146.7222164133
 40
4.5
 50
180.0
 51
270.0
  0
ARC
  8
0
 62
7
  6
CONTINUOUS
 10
190.1289658818
 20
150.9599381211
 40
0.5
 50
0.0
 51
14.2
  0
ARC
  8
0
 62
7
  6
CONTINUOUS
 10
180.6289658818
 20
150.9599381211
 40
0.5
 50
165.8
 51
180.0
  0
ARC
  8
0
 62
7
  6
CONTINUOUS
 10
195.6289658818
 20
150.9599425989
 40
0.5
 50
165.8010105549
 51
180.0
  0
ARC
  8
0
 62
7
  6
CONTINUOUS
 10
195.1329658818
 20
158.2722164133
 40
0.75
 50
0.0
 51
90.0
  0
ARC
  8
0
 62
7
  6
CONTINUOUS
 10
190.6249658818
 20
158.2722164133
 40
0.75
 50
90.0
 51
180.0
  0
ARC
  8
0
 62
7
  6
CONTINUOUS
 10
180.1329658818
 20
158.2722164133
 40
0.75
 50
0.0
 51
90.0
  0
ARC
  8
0
 62
7
  6
CONTINUOUS
 10
175.6249658818
 20
158.2722164133
 40
0.75
 50
90.0
 51
180.0
  0
ARC
  8
0
 62
7
  6
CONTINUOUS
 10
166.1329658818
 20
158.2722164133
 40
0.75
 50
0.0
 51
90.0
  0
ARC
  8
0
 62
7
  6
CONTINUOUS
 10
161.6209658818
 20
158.2722164133
 40
0.75
 50
90.0
 51
180.0
  0
ARC
  8
0
 62
7
  6
CONTINUOUS
 10
195.7329655869
 20
154.0208973918
 40
0.15
 50
345.8014698847
 51
0.0004452882
  0
ARC
  8
0
 62
7
  6
CONTINUOUS
 10
180.7329658818
 20
154.020678888
 40
0.15
 50
345.8
 51
360.0
  0
ARC
  8
0
 62
7
  6
CONTINUOUS
 10
190.0249660999
 20
154.0206780263
 40
0.15
 50
179.9996708549
 51
194.1996604781
  0
ARC
  8
0
 62
7
  6
CONTINUOUS
 10
166.7329658818
 20
154.020678888
 40
0.15
 50
345.8
 51
360.0
  0
ARC
  8
0
 62
7
  6
CONTINUOUS
 10
175.0249660999
 20
154.0206780263
 40
0.15
 50
179.9996708549
 51
194.199660478
  0
ARC
  8
0
 62
7
  6
CONTINUOUS
 10
161.0209660999
 20
154.0206780263
 40
0.15
 50
179.9996708549
 51
194.199660478
  0
ARC
  8
0
 62
7
  6
CONTINUOUS
 10
250.9749658818
 20
148.5509674626
 40
45.0
 50
175.9093257589
 51
184.0906742411
  0
ARC
  8
0
 62
7
  6
CONTINUOUS
 10
208.3789658818
 20
145.5157682591
 40
3.0
 50
289.6689206604
 51
0.0004046687
  0
ARC
  8
0
 62
7
  6
CONTINUOUS
 10
205.9749658818
 20
144.983734352
 40
0.15
 50
329.2118097615
 51
360.0
  0
ARC
  8
0
 62
7
  6
CONTINUOUS
 10
208.8789658818
 20
156.9667147864
 40
2.5
 50
359.9994909368
 51
109.6692853863
  0
ARC
  8
0
 62
7
  6
CONTINUOUS
 10
206.2749658818
 20
158.5315386312
 40
0.15
 50
109.6692609838
 51
179.9999275007
  0
ARC
  8
0
 62
7
  6
CONTINUOUS
 10
279.7311812854
 20
148.5509674626
 40
20.0
 50
350.1828781766
 51
9.8171218234
  0
ARC
  8
0
 62
7
  6
CONTINUOUS
 10
295.7790308341
 20
150.3682932146
 40
1.0
 50
99.0104490613
 51
179.9999866381
  0
ARC
  8
0
 62
7
  6
CONTINUOUS
 10
295.7790308341
 20
146.204913684
 40
1.0
 50
180.0000004341
 51
269.0000000076
  0
ARC
  8
0
 62
7
  6
CONTINUOUS
 10
312.7790308341
 20
128.9222164133
 40
4.0
 50
180.0
 51
270.0
  0
ARC
  8
0
 62
7
  6
CONTINUOUS
 10
308.3790308341
 20
144.5847665991
 40
0.4
 50
8.9001227921
 51
89.0
  0
ARC
  8
0
 62
7
  6
CONTINUOUS
 10
308.9290308341
 20
142.0722164133
 40
0.15
 50
146.250000016
 51
180.0
  0
ARC
  8
0
 62
7
  6
CONTINUOUS
 10
308.9290308341
 20
142.2315994367
 40
0.1499999671
 50
179.9998090059
 51
252.634248814
  0
ARC
  8
AXES
 62
7
  6
CONTINUOUS
 10
314.7790308341
 20
129.2722164133
 40
2.1
 50
180.0
 51
360.0
  0
ARC
  8
0
 62
7
  6
CONTINUOUS
 10
316.7790308341
 20
128.9222164133
 40
4.0
 50
270.0
 51
360.0
  0
ARC
  8
AXES
 62
7
  6
CONTINUOUS
 10
314.7790308341
 20
137.3222164133
 40
2.1
 50
0.0
 51
180.0
  0
ARC
  8
0
 62
7
  6
CONTINUOUS
 10
320.6290308341
 20
141.3382164133
 40
0.15
 50
270.0
 51
360.0
  0
ARC
  8
0
 62
7
  6
CONTINUOUS
 10
308.3790308341
 20
153.7837855995
 40
0.4
 50
285.133196972
 51
360.0
  0
ARC
  8
0
 62
7
  6
CONTINUOUS
 10
312.7790308341
 20
155.0222164133
 40
4.0
 50
90.0
 51
180.0
  0
CIRCLE
  8
AXES
 62
7
  6
CONTINUOUS
 10
314.7790308341
 20
154.6722164133
 40
2.1
  0
ARC
  8
0
 62
7
  6
CONTINUOUS
 10
316.7790308341
 20
155.0222164133
 40
4.0
 50
0.0
 51
90.0
  0
ARC
  8
0
 62
7
  6
CONTINUOUS
 10
314.7790308341
 20
160.9382164133
 40
19.75
 50
252.6343058201
 51
270.0
  0
ARC
  8
0
 62
7
  6
CONTINUOUS
 10
76.2749658818
 20
214.6256251969
 40
0.15
 50
271.5229755581
 51
281.25
  0
ARC
  8
0
 62
7
  6
CONTINUOUS
 10
59.3829658818
 20
214.6256251969
 40
0.15
 50
180.0
 51
270.0
  0
ARC
  8
0
 62
7
  6
CONTINUOUS
 10
72.0829658818
 20
214.6256251969
 40
0.15
 50
258.7500000115
 51
268.477024442
  0
ARC
  8
0
 62
7
  6
CONTINUOUS
 10
63.5749658818
 20
214.6256251969
 40
0.15
 50
271.5229755581
 51
281.25
  0
ARC
  8
0
 62
7
  6
CONTINUOUS
 10
65.5789658818
 20
215.2256251969
 40
0.75
 50
180.0
 51
270.0
  0
ARC
  8
0
 62
7
  6
CONTINUOUS
 10
70.0789658818
 20
215.2256251969
 40
0.75
 50
270.0
 51
360.0
  0
ARC
  8
0
 62
7
  6
CONTINUOUS
 10
59.2289658818
 20
215.2256251969
 40
0.75
 50
180.0
 51
269.9993189859
  0
ARC
  8
0
 62
7
  6
CONTINUOUS
 10
84.7829658818
 20
214.6256251969
 40
0.15
 50
258.7500000115
 51
268.477024442
  0
ARC
  8
0
 62
7
  6
CONTINUOUS
 10
88.9749658818
 20
214.6256251969
 40
0.15
 50
271.5229755581
 51
281.25
  0
ARC
  8
0
 62
7
  6
CONTINUOUS
 10
78.2789658818
 20
215.2256251969
 40
0.75
 50
180.0
 51
270.0
  0
ARC
  8
0
 62
7
  6
CONTINUOUS
 10
82.7789658818
 20
215.2256251969
 40
0.75
 50
270.0
 51
360.0
  0
ARC
  8
0
 62
7
  6
CONTINUOUS
 10
90.9789658818
 20
215.2256251969
 40
0.75
 50
180.0
 51
270.0
  0
ARC
  8
0
 62
7
  6
CONTINUOUS
 10
95.4789658818
 20
215.2256251969
 40
0.75
 50
270.0
 51
360.0
  0
ARC
  8
0
 62
7
  6
CONTINUOUS
 10
65.5789658818
 20
225.7256251969
 40
0.75
 50
90.0
 51
180.0
  0
ARC
  8
0
 62
7
  6
CONTINUOUS
 10
70.0789658818
 20
225.7256251969
 40
0.75
 50
0.0
 51
90.0
  0
ARC
  8
0
 62
7
  6
CONTINUOUS
 10
78.2789658818
 20
225.7256251969
 40
0.75
 50
90.0
 51
180.0
  0
ARC
  8
0
 62
7
  6
CONTINUOUS
 10
82.7789658818
 20
225.7256251969
 40
0.75
 50
0.0
 51
90.0
  0
ARC
  8
0
 62
7
  6
CONTINUOUS
 10
90.9789658818
 20
225.7256251969
 40
0.75
 50
90.0
 51
180.0
  0
ARC
  8
0
 62
7
  6
CONTINUOUS
 10
95.4789658818
 20
225.7256251969
 40
0.75
 50
0.0
 51
90.0
  0
ARC
  8
0
 62
7
  6
CONTINUOUS
 10
59.2289658818
 20
225.7256251969
 40
0.75
 50
90.0007567541
 51
180.0
  0
ARC
  8
0
 62
7
  6
CONTINUOUS
 10
59.3829658818
 20
226.3256251969
 40
0.15
 50
90.0
 51
180.0
  0
ARC
  8
0
 62
7
  6
CONTINUOUS
 10
97.4829658818
 20
214.6256251969
 40
0.15
 50
258.7500000115
 51
268.477024442
  0
ARC
  8
0
 62
7
  6
CONTINUOUS
 10
114.3749658818
 20
214.6256251969
 40
0.15
 50
271.5229755581
 51
281.25
  0
ARC
  8
0
 62
7
  6
CONTINUOUS
 10
110.1829658818
 20
214.6256251969
 40
0.15
 50
258.7500000115
 51
268.477024442
  0
ARC
  8
0
 62
7
  6
CONTINUOUS
 10
101.6749658818
 20
214.6256251969
 40
0.15
 50
271.5229755581
 51
281.25
  0
ARC
  8
0
 62
7
  6
CONTINUOUS
 10
103.6789658818
 20
215.2256251969
 40
0.75
 50
180.0
 51
270.0
  0
ARC
  8
0
 62
7
  6
CONTINUOUS
 10
108.1789658818
 20
215.2256251969
 40
0.75
 50
270.0
 51
360.0
  0
ARC
  8
0
 62
7
  6
CONTINUOUS
 10
127.0749658818
 20
214.6256251969
 40
0.15
 50
271.5229755581
 51
281.25
  0
ARC
  8
0
 62
7
  6
CONTINUOUS
 10
122.8829658818
 20
214.6256251969
 40
0.15
 50
258.7500000115
 51
268.477024442
  0
ARC
  8
0
 62
7
  6
CONTINUOUS
 10
133.5789658818
 20
215.2256251969
 40
0.75
 50
270.0
 51
360.0
  0
ARC
  8
0
 62
7
  6
CONTINUOUS
 10
129.0789658818
 20
215.2256251969
 40
0.75
 50
180.0
 51
270.0
  0
ARC
  8
0
 62
7
  6
CONTINUOUS
 10
120.8789658818
 20
215.2256251969
 40
0.75
 50
270.0
 51
360.0
  0
ARC
  8
0
 62
7
  6
CONTINUOUS
 10
116.3789658818
 20
215.2256251969
 40
0.75
 50
180.0
 51
270.0
  0
ARC
  8
0
 62
7
  6
CONTINUOUS
 10
103.6789658818
 20
225.7256251969
 40
0.75
 50
90.0
 51
180.0
  0
ARC
  8
0
 62
7
  6
CONTINUOUS
 10
108.1789658818
 20
225.7256251969
 40
0.75
 50
0.0
 51
90.0
  0
ARC
  8
0
 62
7
  6
CONTINUOUS
 10
116.3789658818
 20
225.7256251969
 40
0.75
 50
90.0
 51
180.0
  0
ARC
  8
0
 62
7
  6
CONTINUOUS
 10
120.8789658818
 20
225.7256251969
 40
0.75
 50
0.0
 51
90.0
  0
ARC
  8
0
 62
7
  6
CONTINUOUS
 10
129.0789658818
 20
225.7256251969
 40
0.75
 50
90.0
 51
180.0
  0
ARC
  8
0
 62
7
  6
CONTINUOUS
 10
133.5789658818
 20
225.7256251969
 40
0.75
 50
0.0
 51
90.0
  0
ARC
  8
0
 62
7
  6
CONTINUOUS
 10
207.943553748
 20
202.4756251969
 40
2.0
 50
269.9971858617
 51
356.5
  0
ARC
  8
0
 62
7
  6
CONTINUOUS
 10
199.2249661346
 20
201.4756251969
 40
1.0
 50
180.0
 51
269.999985519
  0
ARC
  8
0
 62
7
  6
CONTINUOUS
 10
205.6749664353
 20
205.7277751685
 40
0.2999999929
 50
270.0
 51
360.0
  0
ARC
  8
0
 62
7
  6
CONTINUOUS
 10
173.1289515187
 20
215.2256251969
 40
0.75
 50
270.0
 51
360.0
  0
ARC
  8
0
 62
7
  6
CONTINUOUS
 10
168.628980245
 20
215.2256251969
 40
0.75
 50
180.0
 51
270.0
  0
ARC
  8
0
 62
7
  6
CONTINUOUS
 10
159.3749515187
 20
215.2256251969
 40
0.75
 50
270.0
 51
360.0
  0
ARC
  8
0
 62
7
  6
CONTINUOUS
 10
154.874980245
 20
215.2256251969
 40
0.75
 50
180.0
 51
270.0
  0
ARC
  8
0
 62
7
  6
CONTINUOUS
 10
146.2789658818
 20
215.2256251969
 40
0.75
 50
270.0
 51
360.0
  0
ARC
  8
0
 62
7
  6
CONTINUOUS
 10
141.7789658818
 20
215.2256251969
 40
0.75
 50
180.0
 51
270.0
  0
ARC
  8
0
 62
7
  6
CONTINUOUS
 10
148.2829658818
 20
214.6256251969
 40
0.15
 50
258.7500000115
 51
268.477024442
  0
ARC
  8
0
 62
7
  6
CONTINUOUS
 10
139.7749658818
 20
214.6256251969
 40
0.15
 50
271.5229755581
 51
281.25
  0
ARC
  8
0
 62
7
  6
CONTINUOUS
 10
135.5829658818
 20
214.6256251969
 40
0.15
 50
258.7500000115
 51
268.477024442
  0
ARC
  8
0
 62
7
  6
CONTINUOUS
 10
173.1289515187
 20
225.7256251969
 40
0.75
 50
0.0
 51
90.0
  0
ARC
  8
0
 62
7
  6
CONTINUOUS
 10
168.628980245
 20
225.7256251969
 40
0.75
 50
90.0
 51
180.0
  0
ARC
  8
0
 62
7
  6
CONTINUOUS
 10
141.7789658818
 20
225.7256251969
 40
0.75
 50
90.0
 51
180.0
  0
ARC
  8
0
 62
7
  6
CONTINUOUS
 10
146.2789658818
 20
225.7256251969
 40
0.75
 50
0.0
 51
90.0
  0
ARC
  8
0
 62
7
  6
CONTINUOUS
 10
154.874980245
 20
225.7256251969
 40
0.75
 50
90.0
 51
180.0
  0
ARC
  8
0
 62
7
  6
CONTINUOUS
 10
159.3749515187
 20
225.7256251969
 40
0.75
 50
0.0
 51
90.0
  0
ARC
  8
0
 62
7
  6
CONTINUOUS
 10
203.2539515187
 20
215.2256251969
 40
0.75
 50
270.0
 51
360.0
  0
ARC
  8
0
 62
7
  6
CONTINUOUS
 10
198.753980245
 20
215.2256251969
 40
0.75
 50
180.0
 51
270.0
  0
ARC
  8
0
 62
7
  6
CONTINUOUS
 10
211.057524517
 20
214.0756251969
 40
0.3999999212
 50
89.9999321408
 51
176.4999958573
  0
ARC
  8
0
 62
7
  6
CONTINUOUS
 10
181.2289658818
 20
214.6256251969
 40
0.15
 50
180.0
 51
270.0
  0
ARC
  8
0
 62
7
  6
CONTINUOUS
 10
189.5289658818
 20
214.6256251969
 40
0.15
 50
270.0
 51
360.0
  0
ARC
  8
0
 62
7
  6
CONTINUOUS
 10
211.2289658818
 20
214.6256251969
 40
0.15
 50
270.0
 51
360.0
  0
ARC
  8
0
 62
7
  6
CONTINUOUS
 10
183.128980245
 20
225.7256251969
 40
0.75
 50
90.0
 51
180.0
  0
ARC
  8
0
 62
7
  6
CONTINUOUS
 10
198.753980245
 20
225.7256251969
 40
0.75
 50
90.0
 51
180.0
  0
ARC
  8
0
 62
7
  6
CONTINUOUS
 10
203.2539515187
 20
225.7256251969
 40
0.75
 50
0.0
 51
90.0
  0
ARC
  8
0
 62
7
  6
CONTINUOUS
 10
187.6289515187
 20
225.7256251969
 40
0.75
 50
0.0
 51
90.0
  0
ARC
  8
0
 62
7
  6
CONTINUOUS
 10
211.2289655837
 20
225.3565061495
 40
0.15
 50
359.9999735133
 51
76.9079900035
  0
ARC
  8
0
 62
7
  6
CONTINUOUS
 10
207.0617536802
 20
226.3256251969
 40
0.15
 50
76.9081069356
 51
90.0
  0
ENDSEC
  0
EOF
