  0
SECTION
  2
HEADER
  9
$EXTMAX
 10
420.0
 20
297.0
 30
0.0
  9
$EXTMIN
 10
0.0
 20
0.0
 30
0.0
  9
$LIMMIN
 10
0.0
 20
0.0
  9
$LIMMAX
 10
420.0
 20
297.0
  9
$VIEWCTR
 10
210.0
 20
148.5
  9
$VIEWSIZE
 40
297.0
  9
$CLAYER
  8
0
  9
$LTSCALE
 40
23.1
  9
$CELTYPE
  6
BYLAYER
  9
$DIMSCALE
 40
1.0
  9
$DIMASZ
 40
3.5
  9
$DIMEXO
 40
2.625
  9
$DIMDLI
 40
15.96
  9
$DIMEXE
 40
7.56
  9
$DIMCEN
 40
3.78
  9
$DIMLFAC
 40
1.0
  9
$DIMBLK
  1
_FILLED
  9
$DIMTXT
 40
3.5
  9
$PDMODE
 70
3
  9
$PDSIZE
 40
0.3125
  9
$TILEMODE
 70
1
  0
ENDSEC
  0
SECTION
  2
TABLES
  0
TABLE
  2
LTYPE
 70
6
  0
LTYPE
  2
BYBLOCK
 70
0
  3

 72
65
 73
0
 40
0.0
  0
LTYPE
  2
BYLAYER
 70
0
  3

 72
65
 73
0
 40
0.0
  0
LTYPE
  2
CONTINUOUS
 70
64
  3
Solid line
 72
65
 73
0
 40
0.0
  0
LTYPE
  2
CENTER
 70
64
  3
____ _ ____ _ ____ _ ____ _ ____ _ ____ _ ____
 72
65
 73
4
 40
0.6
 49
0.375
 49
-0.075
 49
0.075
 49
-0.075
  0
LTYPE
  2
HIDDEN
 70
64
  3
- - - - - - - - - - - - - - - - - - - -
 72
65
 73
2
 40
0.2
 49
0.1
 49
-0.1
  0
LTYPE
  2
PHANTOM
 70
64
  3
_____ _ _ _____ _ _ _____ _ _ _____
 72
65
 73
6
 40
0.8
 49
0.45
 49
-0.05
 49
0.1
 49
-0.05
 49
0.1
 49
-0.05
  0
LTYPE
  2
DOT
 70
64
  3
. . . . . . . . . . . . . . . . . . . .
 72
65
 73
2
 40
0.2
 49
0.1
 49
-0.1
  0
LTYPE
  2
DASHED
 70
64
  3
- - - - - - - - - - - - - - - - - - - -
 72
65
 73
2
 40
0.2
 49
0.1
 49
-0.1
  0
ENDTAB
  0
TABLE
  2
LAYER
 70
36
  0
LAYER
  2
0
 70
0
 62
7
  6
CONTINUOUS
  0
LAYER
  2
DEFAULT_1
 70
0
 62
7
  6
CENTER
  0
LAYER
  2
DEFAULT_2
 70
0
 62
8
  6
HIDDEN
  0
LAYER
  2
DEFAULT_3
 70
0
 62
7
  6
PHANTOM
  0
LAYER
  2
AXES
 70
0
 62
7
  6
CONTINUOUS
  0
LAYER
  2
CSYS
 70
0
 62
7
  6
CONTINUOUS
  0
LAYER
  2
CURVE
 70
0
 62
7
  6
CONTINUOUS
  0
LAYER
  2
CURVES
 70
0
 62
7
  6
CONTINUOUS
  0
LAYER
  2
PLANES
 70
0
 62
7
  6
CONTINUOUS
  0
LAYER
  2
QUILT
 70
0
 62
7
  6
CONTINUOUS
  0
LAYER
  2
SURF-A
 70
0
 62
7
  6
CONTINUOUS
  0
LAYER
  2
SURFACE
 70
0
 62
7
  6
CONTINUOUS
  0
ENDTAB
  0
TABLE
  2
STYLE
 70
1
  0
STYLE
  2
STANDARD
 70
0
 40
0.0
 41
0.8
 50
0.0
 71
0
 42
0.2
  3
txt
  4

  0
STYLE
  2
TEXTSTYLE_1
 70
0
 40
0.0
 41
0.8
 50
0.0
 71
0
 42
0.2
  3
gdt
  4

  0
STYLE
  2
TEXTSTYLE_2
 70
0
 40
0.0
 41
0.6
 50
0.0
 71
0
 42
0.2
  3
txt
  4

  0
STYLE
  2
TEXTSTYLE_3
 70
0
 40
0.0
 41
1.0
 50
0.0
 71
0
 42
0.2
  3
ftb_____.ttf
  4

  0
STYLE
  2
TEXTSTYLE_4
 70
0
 40
0.0
 41
1.0
 50
0.0
 71
0
 42
0.2
  3
fti_____.ttf
  4

  0
STYLE
  2
TEXTSTYLE_5
 70
0
 40
0.0
 41
1.0
 50
0.0
 71
0
 42
0.2
  3
frutiger light.ttf
  4

  0
STYLE
  2
TEXTSTYLE_6
 70
0
 40
0.0
 41
0.7
 50
0.0
 71
0
 42
0.2
  3
txt
  4

  0
STYLE
  2
TEXTSTYLE_7
 70
0
 40
0.0
 41
0.45
 50
0.0
 71
0
 42
0.2
  3
txt
  4

  0
ENDTAB
  0
ENDSEC
  0
SECTION
  2
BLOCKS
  0
BLOCK
  8
0
 62
2
  6
CONTINUOUS
  2
SYMBOL_5_BL1
 70
64
 10
382.7840918555
 20
35.5067593403
  0
TEXT
  8
0
 62
7
  6
CONTINUOUS
 10
373.842376864
 20
30.5995157174
  7
TEXTSTYLE_4
 40
1.0655737705
  1
The brand for plastic modular belts and chains
 41
1.0
 72
0
  0
LINE
  8
0
 62
7
  6
CONTINUOUS
 10
358.7621602445
 20
36.0805298321
 11
358.7621602445
 21
33.9493822911
  0
LINE
  8
0
 62
7
  6
CONTINUOUS
 10
359.0512227376
 20
30.9584509954
 11
359.0512227376
 21
31.0552420547
  0
LINE
  8
0
 62
7
  6
CONTINUOUS
 10
358.7621602445
 20
31.0229783683
 11
358.8199727462
 21
30.8293962497
  0
LINE
  8
0
 62
7
  6
CONTINUOUS
 10
360.1556028675
 20
33.867415078
 11
360.1556028675
 21
36.0805298321
  0
LINE
  8
0
 62
7
  6
CONTINUOUS
 10
361.0746601894
 20
32.0231527829
 11
361.0746601894
 21
30.5067593403
  0
LINE
  8
0
 62
7
  6
CONTINUOUS
 10
361.3637227445
 20
30.5067593403
 11
361.3637227445
 21
31.2488242184
  0
LINE
  8
0
 62
7
  6
CONTINUOUS
 10
361.3637227445
 20
31.3778789641
 11
361.3637227445
 21
32.0231527829
  0
LINE
  8
0
 62
7
  6
CONTINUOUS
 10
358.8199727462
 20
31.216560532
 11
358.7621602445
 21
31.0229783683
  0
LINE
  8
0
 62
7
  6
CONTINUOUS
 10
359.1668477307
 20
30.7971325633
 11
359.0512227376
 21
30.9584509954
  0
LINE
  8
0
 62
7
  6
CONTINUOUS
 10
360.2652852997
 20
31.3133515913
 11
360.3230977445
 21
31.216560532
  0
LINE
  8
0
 62
7
  6
CONTINUOUS
 10
360.6121602997
 20
31.216560532
 11
360.5543476894
 21
31.3456152777
  0
LINE
  8
0
 62
7
  6
CONTINUOUS
 10
362.0408487691
 20
36.0805298321
 11
362.0408487691
 21
34.2772511436
  0
LINE
  8
0
 62
7
  6
CONTINUOUS
 10
362.0408487691
 20
32.9657757338
 11
362.0408487691
 21
32.3100380288
  0
LINE
  8
0
 62
7
  6
CONTINUOUS
 10
362.4043477445
 20
31.1520331591
 11
362.4043477445
 21
30.5067593403
  0
LINE
  8
0
 62
7
  6
CONTINUOUS
 10
362.6934101343
 20
30.5067593403
 11
362.6934101343
 21
31.1520331591
  0
LINE
  8
0
 62
7
  6
CONTINUOUS
 10
359.0512227376
 20
31.0552420547
 11
359.1090352445
 21
31.1842968456
  0
LINE
  8
0
 62
7
  6
CONTINUOUS
 10
358.8199727462
 20
30.8293962497
 11
358.9355977445
 21
30.7003414814
  0
LINE
  8
0
 62
7
  6
CONTINUOUS
 10
362.3465351343
 20
31.2810879048
 11
362.4043477445
 21
31.1520331591
  0
LINE
  8
0
 62
7
  6
CONTINUOUS
 10
363.1559103548
 20
30.7971325633
 11
363.2137226343
 21
30.668077795
  0
LINE
  8
0
 62
7
  6
CONTINUOUS
 10
362.6934101343
 20
31.1520331591
 11
362.6355978548
 21
31.3133515913
  0
LINE
  8
0
 62
7
  6
CONTINUOUS
 10
363.1559103548
 20
31.3456152777
 11
363.1559103548
 21
31.2810879048
  0
LINE
  8
0
 62
7
  6
CONTINUOUS
 10
363.1559103548
 20
30.8939236226
 11
363.1559103548
 21
30.7971325633
  0
LINE
  8
0
 62
7
  6
CONTINUOUS
 10
363.4342913921
 20
32.3100380288
 11
363.4342913921
 21
36.0805298321
  0
LINE
  8
0
 62
7
  6
CONTINUOUS
 10
363.4449727445
 20
30.7648688543
 11
363.4449727445
 21
30.8293962497
  0
LINE
  8
0
 62
7
  6
CONTINUOUS
 10
363.7621602445
 20
36.0805298321
 11
363.7621602445
 21
32.3100380288
  0
LINE
  8
0
 62
7
  6
CONTINUOUS
 10
360.5543476894
 20
30.7003414814
 11
360.6121602997
 21
30.8293962497
  0
LINE
  8
0
 62
7
  6
CONTINUOUS
 10
364.9480979651
 20
30.6035504109
 11
364.890285024
 21
30.7648688543
  0
LINE
  8
0
 62
7
  6
CONTINUOUS
 10
364.6012229651
 20
31.2810879048
 11
364.6012229651
 21
31.1842968456
  0
LINE
  8
0
 62
7
  6
CONTINUOUS
 10
364.6012229651
 20
31.0552420547
 11
364.6012229651
 21
30.8616599362
  0
LINE
  8
0
 62
7
  6
CONTINUOUS
 10
364.890285024
 20
30.7648688543
 11
364.890285024
 21
31.2810879048
  0
LINE
  8
0
 62
7
  6
CONTINUOUS
 10
365.1556028675
 20
32.3100380288
 11
365.1556028675
 21
34.1133167174
  0
LINE
  8
0
 62
7
  6
CONTINUOUS
 10
365.1556028675
 20
35.4247921272
 11
365.1556028675
 21
36.0805298321
  0
LINE
  8
0
 62
7
  6
CONTINUOUS
 10
365.4684104651
 20
32.0231527829
 11
365.4684104651
 21
31.8618343508
  0
LINE
  8
0
 62
7
  6
CONTINUOUS
 10
365.4684104651
 20
31.5391973962
 11
365.4684104651
 21
30.5067593403
  0
LINE
  8
0
 62
7
  6
CONTINUOUS
 10
365.757472524
 20
30.5067593403
 11
365.757472524
 21
31.5391973962
  0
LINE
  8
0
 62
7
  6
CONTINUOUS
 10
365.757472524
 20
31.8618343508
 11
365.757472524
 21
32.0231527829
  0
LINE
  8
0
 62
7
  6
CONTINUOUS
 10
360.3230977445
 20
30.8293962497
 11
360.2652852997
 21
30.7326051679
  0
LINE
  8
0
 62
7
  6
CONTINUOUS
 10
362.6355978548
 20
31.3133515913
 11
362.5777852445
 21
31.3778789641
  0
LINE
  8
0
 62
7
  6
CONTINUOUS
 10
363.5027853548
 20
30.7003414814
 11
363.4449727445
 21
30.7648688543
  0
LINE
  8
0
 62
7
  6
CONTINUOUS
 10
364.6590352445
 20
30.5712867188
 11
364.716847524
 21
30.5067593403
  0
LINE
  8
0
 62
7
  6
CONTINUOUS
 10
364.6012229651
 20
30.668077795
 11
364.6590352445
 21
30.5712867188
  0
LINE
  8
0
 62
7
  6
CONTINUOUS
 10
365.0059102445
 20
30.5067593403
 11
364.9480979651
 21
30.6035504109
  0
LINE
  8
0
 62
7
  6
CONTINUOUS
 10
364.890285024
 20
31.2810879048
 11
364.8324727445
 21
31.3778789641
  0
LINE
  8
0
 62
7
  6
CONTINUOUS
 10
366.2199727445
 20
31.5391973962
 11
366.2199727445
 21
30.5067593403
  0
LINE
  8
0
 62
7
  6
CONTINUOUS
 10
366.5090354651
 20
30.5067593403
 11
366.5090354651
 21
31.2488242184
  0
LINE
  8
0
 62
7
  6
CONTINUOUS
 10
366.5090354651
 20
31.3778789641
 11
366.5090354651
 21
31.5391973962
  0
LINE
  8
0
 62
7
  6
CONTINUOUS
 10
367.0408487691
 20
34.5231527829
 11
367.0408487691
 21
32.3100380288
  0
LINE
  8
0
 62
7
  6
CONTINUOUS
 10
358.9355977445
 20
31.3456152777
 11
358.8199727462
 21
31.216560532
  0
LINE
  8
0
 62
7
  6
CONTINUOUS
 10
359.1090352445
 20
31.1842968456
 11
359.1668477307
 21
31.2488242184
  0
LINE
  8
0
 62
7
  6
CONTINUOUS
 10
358.9355977445
 20
30.7003414814
 11
359.0512227376
 21
30.6358140973
  0
LINE
  8
0
 62
7
  6
CONTINUOUS
 10
359.3402852307
 20
30.7003414814
 11
359.1668477307
 21
30.7971325633
  0
LINE
  8
0
 62
7
  6
CONTINUOUS
 10
364.543410024
 20
31.3456152777
 11
364.6012229651
 21
31.2810879048
  0
LINE
  8
0
 62
7
  6
CONTINUOUS
 10
367.491847524
 20
31.2810879048
 11
367.5496604651
 21
31.1197694727
  0
LINE
  8
0
 62
7
  6
CONTINUOUS
 10
367.838722524
 20
31.1197694727
 11
367.7809102445
 21
31.2810879048
  0
LINE
  8
0
 62
7
  6
CONTINUOUS
 10
367.5496604651
 20
31.1197694727
 11
367.5496604651
 21
30.5067593403
  0
LINE
  8
0
 62
7
  6
CONTINUOUS
 10
367.838722524
 20
30.5067593403
 11
367.838722524
 21
31.1197694727
  0
LINE
  8
0
 62
7
  6
CONTINUOUS
 10
368.3012227445
 20
31.3456152777
 11
368.3012227445
 21
31.2810879048
  0
LINE
  8
0
 62
7
  6
CONTINUOUS
 10
368.4342913921
 20
32.3100380288
 11
368.4342913921
 21
34.4411855698
  0
LINE
  8
0
 62
7
  6
CONTINUOUS
 10
368.7621602445
 20
36.0805298321
 11
368.7621602445
 21
32.3100380288
  0
LINE
  8
0
 62
7
  6
CONTINUOUS
 10
363.4449727445
 20
30.8293962497
 11
363.5027853548
 21
30.926187309
  0
LINE
  8
0
 62
7
  6
CONTINUOUS
 10
359.0512227376
 20
30.6358140973
 11
359.2246602583
 21
30.5712867188
  0
LINE
  8
0
 62
7
  6
CONTINUOUS
 10
360.5543476894
 20
31.3456152777
 11
360.3809101894
 21
31.4424063369
  0
LINE
  8
0
 62
7
  6
CONTINUOUS
 10
363.2137226343
 20
30.668077795
 11
363.3871601343
 21
30.5712867188
  0
LINE
  8
0
 62
7
  6
CONTINUOUS
 10
362.2309102445
 20
31.3456152777
 11
362.3465351343
 21
31.2810879048
  0
LINE
  8
0
 62
7
  6
CONTINUOUS
 10
362.5777852445
 20
31.3778789641
 11
362.4621603548
 21
31.4424063369
  0
LINE
  8
0
 62
7
  6
CONTINUOUS
 10
368.3012227445
 20
30.7648688543
 11
368.4168479651
 21
30.6358140973
  0
LINE
  8
0
 62
7
  6
CONTINUOUS
 10
368.6480977445
 20
30.7003414814
 11
368.5902854651
 21
30.7648688543
  0
LINE
  8
0
 62
7
  6
CONTINUOUS
 10
368.3012227445
 20
31.2810879048
 11
368.4168479651
 21
31.1520331591
  0
LINE
  8
0
 62
7
  6
CONTINUOUS
 10
367.7809102445
 20
31.2810879048
 11
367.7230979651
 21
31.3778789641
  0
LINE
  8
0
 62
7
  6
CONTINUOUS
 10
370.1512223035
 20
30.7003414814
 11
370.1512223035
 21
30.7648688543
  0
LINE
  8
0
 62
7
  6
CONTINUOUS
 10
370.1556028675
 20
32.3100380288
 11
370.1556028675
 21
36.0805298321
  0
LINE
  8
0
 62
7
  6
CONTINUOUS
 10
363.2137226343
 20
31.4101426505
 11
363.1559103548
 21
31.3456152777
  0
LINE
  8
0
 62
7
  6
CONTINUOUS
 10
360.091847717
 20
31.3778789641
 11
360.2652852997
 21
31.3133515913
  0
LINE
  8
0
 62
7
  6
CONTINUOUS
 10
364.8324727445
 20
31.3778789641
 11
364.716847524
 21
31.4424063369
  0
LINE
  8
0
 62
7
  6
CONTINUOUS
 10
368.6480977445
 20
31.216560532
 11
368.5902854651
 21
31.2810879048
  0
LINE
  8
0
 62
7
  6
CONTINUOUS
 10
369.8043479651
 20
30.8293962497
 11
369.8621602445
 21
30.7648688543
  0
LINE
  8
0
 62
7
  6
CONTINUOUS
 10
370.1512223035
 20
30.7648688543
 11
370.0355977445
 21
30.8939236226
  0
LINE
  8
0
 62
7
  6
CONTINUOUS
 10
369.8043479651
 20
31.3456152777
 11
369.8621602445
 21
31.2810879048
  0
LINE
  8
0
 62
7
  6
CONTINUOUS
 10
370.1512223035
 20
31.2810879048
 11
370.0355977445
 21
31.4101426505
  0
LINE
  8
0
 62
7
  6
CONTINUOUS
 10
363.4449727445
 20
31.2810879048
 11
363.5027853548
 21
31.3456152777
  0
LINE
  8
0
 62
7
  6
CONTINUOUS
 10
363.2715352445
 20
31.0229783683
 11
363.1559103548
 21
30.8939236226
  0
LINE
  8
0
 62
7
  6
CONTINUOUS
 10
364.6012229651
 20
30.8616599362
 11
364.543410024
 21
30.7971325633
  0
LINE
  8
0
 62
7
  6
CONTINUOUS
 10
364.543410024
 20
30.6035504109
 11
364.6012229651
 21
30.668077795
  0
LINE
  8
0
 62
7
  6
CONTINUOUS
 10
363.3871601343
 20
30.5712867188
 11
363.5027853548
 21
30.5390230296
  0
LINE
  8
0
 62
7
  6
CONTINUOUS
 10
360.3809101894
 20
31.4424063369
 11
360.1496602445
 21
31.5069337098
  0
LINE
  8
0
 62
7
  6
CONTINUOUS
 10
363.7340351343
 20
30.6358140973
 11
363.5027853548
 21
30.7003414814
  0
LINE
  8
0
 62
7
  6
CONTINUOUS
 10
362.4621603548
 20
31.4424063369
 11
362.2887228548
 21
31.5069337098
  0
LINE
  8
0
 62
7
  6
CONTINUOUS
 10
364.716847524
 20
31.4424063369
 11
364.543410024
 21
31.5069337098
  0
LINE
  8
0
 62
7
  6
CONTINUOUS
 10
367.3762229651
 20
31.3456152777
 11
367.491847524
 21
31.2810879048
  0
LINE
  8
0
 62
7
  6
CONTINUOUS
 10
367.7230979651
 20
31.3778789641
 11
367.6074727445
 21
31.4424063369
  0
LINE
  8
0
 62
7
  6
CONTINUOUS
 10
359.2246602583
 20
30.5712867188
 11
359.3980977583
 21
30.5390230296
  0
LINE
  8
0
 62
7
  6
CONTINUOUS
 10
359.6871602721
 20
30.6358140973
 11
359.3402852307
 21
30.7003414814
  0
LINE
  8
0
 62
7
  6
CONTINUOUS
 10
362.1152853548
 20
31.3778789641
 11
362.2309102445
 21
31.3456152777
  0
LINE
  8
0
 62
7
  6
CONTINUOUS
 10
364.4277854651
 20
31.3778789641
 11
364.543410024
 21
31.3456152777
  0
LINE
  8
0
 62
7
  6
CONTINUOUS
 10
368.7637229651
 20
30.668077795
 11
368.6480977445
 21
30.7003414814
  0
LINE
  8
0
 62
7
  6
CONTINUOUS
 10
367.2605977445
 20
31.3778789641
 11
367.3762229651
 21
31.3456152777
  0
LINE
  8
0
 62
7
  6
CONTINUOUS
 10
368.4168479651
 20
30.6358140973
 11
368.5902854651
 21
30.5712867188
  0
LINE
  8
0
 62
7
  6
CONTINUOUS
 10
367.6074727445
 20
31.4424063369
 11
367.4340352445
 21
31.5069337098
  0
LINE
  8
0
 62
7
  6
CONTINUOUS
 10
368.8215352445
 20
31.1520331591
 11
368.6480977445
 21
31.216560532
  0
LINE
  8
0
 62
7
  6
CONTINUOUS
 10
369.6309104651
 20
30.8939236226
 11
369.8043479651
 21
30.8293962497
  0
LINE
  8
0
 62
7
  6
CONTINUOUS
 10
370.0355977445
 20
31.4101426505
 11
369.8621602445
 21
31.4746700234
  0
LINE
  8
0
 62
7
  6
CONTINUOUS
 10
368.4168479651
 20
31.1520331591
 11
368.6480977445
 21
31.0552420547
  0
LINE
  8
0
 62
7
  6
CONTINUOUS
 10
370.0355977445
 20
30.8939236226
 11
369.8043479651
 21
30.9907146818
  0
LINE
  8
0
 62
7
  6
CONTINUOUS
 10
368.5902854651
 20
31.2810879048
 11
368.6480977445
 21
31.3456152777
  0
LINE
  8
0
 62
7
  6
CONTINUOUS
 10
359.0512227376
 20
31.4101426505
 11
358.9355977445
 21
31.3456152777
  0
LINE
  8
0
 62
7
  6
CONTINUOUS
 10
359.1668477307
 20
31.2488242184
 11
359.3402852307
 21
31.3456152777
  0
LINE
  8
0
 62
7
  6
CONTINUOUS
 10
361.4793477997
 20
31.4424063369
 11
361.3637227445
 21
31.3778789641
  0
LINE
  8
0
 62
7
  6
CONTINUOUS
 10
361.3637227445
 20
31.2488242184
 11
361.4793477997
 21
31.3133515913
  0
LINE
  8
0
 62
7
  6
CONTINUOUS
 10
360.3809101894
 20
30.6035504109
 11
360.5543476894
 21
30.7003414814
  0
LINE
  8
0
 62
7
  6
CONTINUOUS
 10
359.3980977583
 20
30.5390230296
 11
359.744972717
 21
30.5067593403
  0
LINE
  8
0
 62
7
  6
CONTINUOUS
 10
363.5027853548
 20
30.5390230296
 11
363.7340351343
 21
30.5067593403
  0
LINE
  8
0
 62
7
  6
CONTINUOUS
 10
361.8840352445
 20
31.4101426505
 11
362.1152853548
 21
31.3778789641
  0
LINE
  8
0
 62
7
  6
CONTINUOUS
 10
364.1965353548
 20
31.4101426505
 11
364.4277854651
 21
31.3778789641
  0
LINE
  8
0
 62
7
  6
CONTINUOUS
 10
368.6480977445
 20
31.0552420547
 11
369.6309104651
 21
30.8939236226
  0
LINE
  8
0
 62
7
  6
CONTINUOUS
 10
369.8043479651
 20
30.9907146818
 11
368.8215352445
 21
31.1520331591
  0
LINE
  8
0
 62
7
  6
CONTINUOUS
 10
362.2887228548
 20
31.5069337098
 11
362.1152853548
 21
31.5391973962
  0
LINE
  8
0
 62
7
  6
CONTINUOUS
 10
368.5902854651
 20
30.5712867188
 11
368.7637229651
 21
30.5390230296
  0
LINE
  8
0
 62
7
  6
CONTINUOUS
 10
367.4340352445
 20
31.5069337098
 11
367.2605977445
 21
31.5391973962
  0
LINE
  8
0
 62
7
  6
CONTINUOUS
 10
369.6887227445
 20
31.3778789641
 11
369.8043479651
 21
31.3456152777
  0
LINE
  8
0
 62
7
  6
CONTINUOUS
 10
369.8621602445
 20
30.7648688543
 11
369.8043479651
 21
30.7003414814
  0
LINE
  8
0
 62
7
  6
CONTINUOUS
 10
368.4168479651
 20
31.4424063369
 11
368.3012227445
 21
31.3456152777
  0
LINE
  8
0
 62
7
  6
CONTINUOUS
 10
363.3293478548
 20
31.4746700234
 11
363.2137226343
 21
31.4101426505
  0
LINE
  8
0
 62
7
  6
CONTINUOUS
 10
363.3871601343
 20
31.0875057863
 11
363.2715352445
 21
31.0229783683
  0
LINE
  8
0
 62
7
  6
CONTINUOUS
 10
363.5027853548
 20
30.926187309
 11
363.6184102445
 21
30.9907146818
  0
LINE
  8
0
 62
7
  6
CONTINUOUS
 10
361.0746601894
 20
30.5067593403
 11
361.3637227445
 21
30.5067593403
  0
LINE
  8
0
 62
7
  6
CONTINUOUS
 10
362.4043477445
 20
30.5067593403
 11
362.6934101343
 21
30.5067593403
  0
LINE
  8
0
 62
7
  6
CONTINUOUS
 10
363.7340351343
 20
30.5067593403
 11
364.0809101343
 21
30.5067593403
  0
LINE
  8
0
 62
7
  6
CONTINUOUS
 10
364.716847524
 20
30.5067593403
 11
365.0059102445
 21
30.5067593403
  0
LINE
  8
0
 62
7
  6
CONTINUOUS
 10
365.4684104651
 20
30.5067593403
 11
365.757472524
 21
30.5067593403
  0
LINE
  8
0
 62
7
  6
CONTINUOUS
 10
366.2199727445
 20
30.5067593403
 11
366.5090354651
 21
30.5067593403
  0
LINE
  8
0
 62
7
  6
CONTINUOUS
 10
367.5496604651
 20
30.5067593403
 11
367.838722524
 21
30.5067593403
  0
LINE
  8
0
 62
7
  6
CONTINUOUS
 10
369.1105979651
 20
30.5067593403
 11
369.4574729651
 21
30.5067593403
  0
LINE
  8
0
 62
7
  6
CONTINUOUS
 10
369.4574729651
 20
30.6358140973
 11
369.1105979651
 21
30.6358140973
  0
LINE
  8
0
 62
7
  6
CONTINUOUS
 10
364.0809101343
 20
30.6358140973
 11
363.7340351343
 21
30.6358140973
  0
LINE
  8
0
 62
7
  6
CONTINUOUS
 10
368.5902854651
 20
30.7648688543
 11
368.3012227445
 21
30.7648688543
  0
LINE
  8
0
 62
7
  6
CONTINUOUS
 10
360.6121602997
 20
30.8293962497
 11
360.3230977445
 21
30.8293962497
  0
LINE
  8
0
 62
7
  6
CONTINUOUS
 10
359.6871602721
 20
31.4101426505
 11
360.091847717
 21
31.3778789641
  0
LINE
  8
0
 62
7
  6
CONTINUOUS
 10
360.1496602445
 20
31.5069337098
 11
359.744972717
 21
31.5391973962
  0
LINE
  8
0
 62
7
  6
CONTINUOUS
 10
368.7637229651
 20
30.5390230296
 11
369.1105979651
 21
30.5067593403
  0
LINE
  8
0
 62
7
  6
CONTINUOUS
 10
369.1105979651
 20
30.6358140973
 11
368.7637229651
 21
30.668077795
  0
LINE
  8
0
 62
7
  6
CONTINUOUS
 10
364.543410024
 20
31.5069337098
 11
364.1965353548
 21
31.5391973962
  0
LINE
  8
0
 62
7
  6
CONTINUOUS
 10
369.3418477445
 20
31.4101426505
 11
369.6887227445
 21
31.3778789641
  0
LINE
  8
0
 62
7
  6
CONTINUOUS
 10
369.6887227445
 20
31.5069337098
 11
369.3418477445
 21
31.5391973962
  0
LINE
  8
0
 62
7
  6
CONTINUOUS
 10
367.0293479651
 20
31.4101426505
 11
367.2605977445
 21
31.3778789641
  0
LINE
  8
0
 62
7
  6
CONTINUOUS
 10
369.8621602445
 20
31.4746700234
 11
369.6887227445
 21
31.5069337098
  0
LINE
  8
0
 62
7
  6
CONTINUOUS
 10
370.0355977445
 20
30.6035504109
 11
370.1512223035
 21
30.7003414814
  0
LINE
  8
0
 62
7
  6
CONTINUOUS
 10
364.543410024
 20
30.7971325633
 11
364.369972524
 21
30.7003414814
  0
LINE
  8
0
 62
7
  6
CONTINUOUS
 10
366.624660024
 20
31.4424063369
 11
366.5090354651
 21
31.3778789641
  0
LINE
  8
0
 62
7
  6
CONTINUOUS
 10
366.5090354651
 20
31.2488242184
 11
366.624660024
 21
31.3133515913
  0
LINE
  8
0
 62
7
  6
CONTINUOUS
 10
359.2246602583
 20
31.4746700234
 11
359.0512227376
 21
31.4101426505
  0
LINE
  8
0
 62
7
  6
CONTINUOUS
 10
361.6527851343
 20
31.5069337098
 11
361.4793477997
 21
31.4424063369
  0
LINE
  8
0
 62
7
  6
CONTINUOUS
 10
361.4793477997
 20
31.3133515913
 11
361.6527851343
 21
31.3778789641
  0
LINE
  8
0
 62
7
  6
CONTINUOUS
 10
360.2652852997
 20
30.7326051679
 11
360.091847717
 21
30.668077795
  0
LINE
  8
0
 62
7
  6
CONTINUOUS
 10
369.6887227445
 20
30.668077795
 11
369.4574729651
 21
30.6358140973
  0
LINE
  8
0
 62
7
  6
CONTINUOUS
 10
364.0809101343
 20
30.5067593403
 11
364.369972524
 21
30.5390230296
  0
LINE
  8
0
 62
7
  6
CONTINUOUS
 10
369.4574729651
 20
30.5067593403
 11
369.8043479651
 21
30.5390230296
  0
LINE
  8
0
 62
7
  6
CONTINUOUS
 10
359.744972717
 20
30.5067593403
 11
360.1496602445
 21
30.5390230296
  0
LINE
  8
0
 62
7
  6
CONTINUOUS
 10
360.091847717
 20
30.668077795
 11
359.6871602721
 21
30.6358140973
  0
LINE
  8
0
 62
7
  6
CONTINUOUS
 10
363.9652852445
 20
31.0552420547
 11
364.6012229651
 21
31.0552420547
  0
LINE
  8
0
 62
7
  6
CONTINUOUS
 10
364.6012229651
 20
31.1842968456
 11
363.9652852445
 21
31.1842968456
  0
LINE
  8
0
 62
7
  6
CONTINUOUS
 10
360.3230977445
 20
31.216560532
 11
360.6121602997
 21
31.216560532
  0
LINE
  8
0
 62
7
  6
CONTINUOUS
 10
363.1559103548
 20
31.2810879048
 11
363.4449727445
 21
31.2810879048
  0
LINE
  8
0
 62
7
  6
CONTINUOUS
 10
369.8621602445
 20
31.2810879048
 11
370.1512223035
 21
31.2810879048
  0
LINE
  8
0
 62
7
  6
CONTINUOUS
 10
363.8496603548
 20
31.4101426505
 11
364.1965353548
 21
31.4101426505
  0
LINE
  8
0
 62
7
  6
CONTINUOUS
 10
368.9949727445
 20
31.4101426505
 11
369.3418477445
 21
31.4101426505
  0
LINE
  8
0
 62
7
  6
CONTINUOUS
 10
369.3418477445
 20
31.5391973962
 11
368.9949727445
 21
31.5391973962
  0
LINE
  8
0
 62
7
  6
CONTINUOUS
 10
367.2605977445
 20
31.5391973962
 11
367.0293479651
 21
31.5391973962
  0
LINE
  8
0
 62
7
  6
CONTINUOUS
 10
366.5090354651
 20
31.5391973962
 11
366.2199727445
 21
31.5391973962
  0
LINE
  8
0
 62
7
  6
CONTINUOUS
 10
365.757472524
 20
31.5391973962
 11
365.4684104651
 21
31.5391973962
  0
LINE
  8
0
 62
7
  6
CONTINUOUS
 10
364.1965353548
 20
31.5391973962
 11
363.8496603548
 21
31.5391973962
  0
LINE
  8
0
 62
7
  6
CONTINUOUS
 10
362.1152853548
 20
31.5391973962
 11
361.8840352445
 21
31.5391973962
  0
LINE
  8
0
 62
7
  6
CONTINUOUS
 10
365.4684104651
 20
31.8618343508
 11
365.757472524
 21
31.8618343508
  0
LINE
  8
0
 62
7
  6
CONTINUOUS
 10
365.757472524
 20
32.0231527829
 11
365.4684104651
 21
32.0231527829
  0
LINE
  8
0
 62
7
  6
CONTINUOUS
 10
361.3637227445
 20
32.0231527829
 11
361.0746601894
 21
32.0231527829
  0
LINE
  8
0
 62
7
  6
CONTINUOUS
 10
360.4015045068
 20
32.3100380288
 11
360.8140758554
 21
32.3100380288
  0
LINE
  8
0
 62
7
  6
CONTINUOUS
 10
362.0408487691
 20
32.3100380288
 11
363.4342913921
 21
32.3100380288
  0
LINE
  8
0
 62
7
  6
CONTINUOUS
 10
363.7621602445
 20
32.3100380288
 11
365.1556028675
 21
32.3100380288
  0
LINE
  8
0
 62
7
  6
CONTINUOUS
 10
367.0408487691
 20
32.3100380288
 11
368.4342913921
 21
32.3100380288
  0
LINE
  8
0
 62
7
  6
CONTINUOUS
 10
368.7621602445
 20
32.3100380288
 11
370.1556028675
 21
32.3100380288
  0
LINE
  8
0
 62
7
  6
CONTINUOUS
 10
366.798097524
 20
31.5069337098
 11
366.624660024
 21
31.4424063369
  0
LINE
  8
0
 62
7
  6
CONTINUOUS
 10
364.369972524
 20
30.5390230296
 11
364.543410024
 21
30.6035504109
  0
LINE
  8
0
 62
7
  6
CONTINUOUS
 10
369.8043479651
 20
30.5390230296
 11
370.0355977445
 21
30.6035504109
  0
LINE
  8
0
 62
7
  6
CONTINUOUS
 10
369.8043479651
 20
30.7003414814
 11
369.6887227445
 21
30.668077795
  0
LINE
  8
0
 62
7
  6
CONTINUOUS
 10
368.7637229651
 20
31.3778789641
 11
368.9949727445
 21
31.4101426505
  0
LINE
  8
0
 62
7
  6
CONTINUOUS
 10
366.798097524
 20
31.3778789641
 11
367.0293479651
 21
31.4101426505
  0
LINE
  8
0
 62
7
  6
CONTINUOUS
 10
363.7340351343
 20
31.0229783683
 11
363.9652852445
 21
31.0552420547
  0
LINE
  8
0
 62
7
  6
CONTINUOUS
 10
367.0293479651
 20
31.5391973962
 11
366.798097524
 21
31.5069337098
  0
LINE
  8
0
 62
7
  6
CONTINUOUS
 10
363.6184102445
 20
31.3778789641
 11
363.8496603548
 21
31.4101426505
  0
LINE
  8
0
 62
7
  6
CONTINUOUS
 10
368.9949727445
 20
31.5391973962
 11
368.6480977445
 21
31.5069337098
  0
LINE
  8
0
 62
7
  6
CONTINUOUS
 10
363.9652852445
 20
31.1842968456
 11
363.6184102445
 21
31.1520331591
  0
LINE
  8
0
 62
7
  6
CONTINUOUS
 10
359.744972717
 20
31.5391973962
 11
359.3980977583
 21
31.5069337098
  0
LINE
  8
0
 62
7
  6
CONTINUOUS
 10
363.8496603548
 20
31.5391973962
 11
363.4449727445
 21
31.5069337098
  0
LINE
  8
0
 62
7
  6
CONTINUOUS
 10
361.221176638
 20
33.4575790124
 11
360.565438933
 21
33.4575790124
  0
LINE
  8
0
 62
7
  6
CONTINUOUS
 10
366.624660024
 20
31.3133515913
 11
366.798097524
 21
31.3778789641
  0
LINE
  8
0
 62
7
  6
CONTINUOUS
 10
368.6480977445
 20
31.3456152777
 11
368.7637229651
 21
31.3778789641
  0
LINE
  8
0
 62
7
  6
CONTINUOUS
 10
368.6480977445
 20
31.5069337098
 11
368.4168479651
 21
31.4424063369
  0
LINE
  8
0
 62
7
  6
CONTINUOUS
 10
364.369972524
 20
30.7003414814
 11
364.0809101343
 21
30.6358140973
  0
LINE
  8
0
 62
7
  6
CONTINUOUS
 10
361.6527851343
 20
31.3778789641
 11
361.8840352445
 21
31.4101426505
  0
LINE
  8
0
 62
7
  6
CONTINUOUS
 10
361.8840352445
 20
31.5391973962
 11
361.6527851343
 21
31.5069337098
  0
LINE
  8
0
 62
7
  6
CONTINUOUS
 10
359.4559102445
 20
31.3778789641
 11
359.6871602721
 21
31.4101426505
  0
LINE
  8
0
 62
7
  6
CONTINUOUS
 10
365.9752749986
 20
34.9329888485
 11
366.6310127035
 21
34.9329888485
  0
LINE
  8
0
 62
7
  6
CONTINUOUS
 10
363.6184102445
 20
30.9907146818
 11
363.7340351343
 21
31.0229783683
  0
LINE
  8
0
 62
7
  6
CONTINUOUS
 10
363.6184102445
 20
31.1520331591
 11
363.3871601343
 21
31.0875057863
  0
LINE
  8
0
 62
7
  6
CONTINUOUS
 10
363.5027853548
 20
31.3456152777
 11
363.6184102445
 21
31.3778789641
  0
LINE
  8
0
 62
7
  6
CONTINUOUS
 10
360.1496602445
 20
30.5390230296
 11
360.3809101894
 21
30.6035504109
  0
LINE
  8
0
 62
7
  6
CONTINUOUS
 10
363.4449727445
 20
31.5069337098
 11
363.3293478548
 21
31.4746700234
  0
LINE
  8
0
 62
7
  6
CONTINUOUS
 10
359.3980977583
 20
31.5069337098
 11
359.2246602583
 21
31.4746700234
  0
LINE
  8
0
 62
7
  6
CONTINUOUS
 10
370.1556028675
 20
36.0805298321
 11
368.7621602445
 21
36.0805298321
  0
LINE
  8
0
 62
7
  6
CONTINUOUS
 10
366.7949471298
 20
36.0805298321
 11
366.3823757812
 21
36.0805298321
  0
LINE
  8
0
 62
7
  6
CONTINUOUS
 10
365.1556028675
 20
36.0805298321
 11
363.7621602445
 21
36.0805298321
  0
LINE
  8
0
 62
7
  6
CONTINUOUS
 10
363.4342913921
 20
36.0805298321
 11
362.0408487691
 21
36.0805298321
  0
LINE
  8
0
 62
7
  6
CONTINUOUS
 10
360.1556028675
 20
36.0805298321
 11
358.7621602445
 21
36.0805298321
  0
LINE
  8
0
 62
7
  6
CONTINUOUS
 10
359.3402852307
 20
31.3456152777
 11
359.4559102445
 21
31.3778789641
  0
CIRCLE
  8
0
 62
7
  6
CONTINUOUS
 10
369.458881556
 20
38.4165954059
 40
2.0901639344
  0
ARC
  8
0
 62
7
  6
CONTINUOUS
 10
360.4015045068
 20
33.9493822911
 40
1.6393442623
 50
180.0
 51
270.0
  0
ARC
  8
0
 62
7
  6
CONTINUOUS
 10
366.7949471298
 20
34.4411855698
 40
1.6393442623
 50
0.0
 51
90.0
  0
ARC
  8
0
 62
7
  6
CONTINUOUS
 10
360.8140758554
 20
33.7854478649
 40
1.4754098361
 50
270.0
 51
326.2510114041
  0
ARC
  8
0
 62
7
  6
CONTINUOUS
 10
366.3823757812
 20
34.6051199961
 40
1.4754098361
 50
90.0
 51
146.2510114041
  0
ARC
  8
0
 62
7
  6
CONTINUOUS
 10
361.221176638
 20
34.2772511436
 40
0.8196721311
 50
270.0
 51
360.0
  0
ARC
  8
0
 62
7
  6
CONTINUOUS
 10
365.9752749986
 20
34.1133167174
 40
0.8196721311
 50
90.0
 51
180.0
  0
ARC
  8
0
 62
7
  6
CONTINUOUS
 10
360.565438933
 20
33.867415078
 40
0.4098360656
 50
180.0
 51
270.0
  0
ARC
  8
0
 62
7
  6
CONTINUOUS
 10
366.6310127035
 20
34.5231527829
 40
0.4098360656
 50
0.0
 51
90.0
  0
SOLID
  8
0
 62
7
  6
CONTINUOUS
 10
365.4684104651
 20
31.8618347111
 11
365.4684104651
 21
32.0231531947
 12
365.757472524
 22
31.8618347111
 13
365.757472524
 23
32.0231531947
  0
SOLID
  8
0
 62
7
  6
CONTINUOUS
 10
359.744972717
 20
31.5391977439
 11
360.1496602445
 21
31.5069333244
 12
359.3980977583
 22
31.5069333244
 13
359.3980977583
 23
31.5069333244
  0
SOLID
  8
0
 62
7
  6
CONTINUOUS
 10
359.2246602583
 20
31.4746706537
 11
359.3980977583
 21
31.5069333244
 12
360.1496602445
 22
31.5069333244
 13
360.1496602445
 23
31.5069333244
  0
SOLID
  8
0
 62
7
  6
CONTINUOUS
 10
360.1496602445
 20
31.5069333244
 11
360.3809101894
 21
31.4424063504
 12
359.2246602583
 22
31.4746706537
 13
359.2246602583
 23
31.4746706537
  0
SOLID
  8
0
 62
7
  6
CONTINUOUS
 10
359.0512227376
 20
31.4101419116
 11
359.2246602583
 21
31.4746706537
 12
360.3809101894
 22
31.4424063504
 13
360.3809101894
 23
31.4424063504
  0
SOLID
  8
0
 62
7
  6
CONTINUOUS
 10
359.0512227376
 20
31.4101419116
 11
360.3809101894
 21
31.4424063504
 12
359.6871602721
 22
31.4101419116
 13
359.6871602721
 23
31.4101419116
  0
SOLID
  8
0
 62
7
  6
CONTINUOUS
 10
359.6871602721
 20
31.4101419116
 11
360.3809101894
 21
31.4424063504
 12
360.091847717
 22
31.3778792603
 13
360.091847717
 23
31.3778792603
  0
SOLID
  8
0
 62
7
  6
CONTINUOUS
 10
360.3809101894
 20
31.4424063504
 11
360.5543476894
 21
31.345614957
 12
360.091847717
 22
31.3778792603
 13
360.091847717
 23
31.3778792603
  0
SOLID
  8
0
 62
7
  6
CONTINUOUS
 10
360.2652852997
 20
31.3133521701
 11
360.091847717
 21
31.3778792603
 12
360.5543476894
 22
31.345614957
 13
360.5543476894
 23
31.345614957
  0
SOLID
  8
0
 62
7
  6
CONTINUOUS
 10
360.2652852997
 20
31.3133521701
 11
360.5543476894
 21
31.345614957
 12
360.3230977445
 22
31.2165606992
 13
360.3230977445
 23
31.2165606992
  0
SOLID
  8
0
 62
7
  6
CONTINUOUS
 10
360.5543476894
 20
31.345614957
 11
360.6121602997
 21
31.2165606992
 12
360.3230977445
 22
31.2165606992
 13
360.3230977445
 23
31.2165606992
  0
SOLID
  8
0
 62
7
  6
CONTINUOUS
 10
361.6527851343
 20
31.5069329918
 11
361.8840352445
 21
31.5391972951
 12
362.1152853548
 22
31.5391972951
 13
362.1152853548
 23
31.5391972951
  0
SOLID
  8
0
 62
7
  6
CONTINUOUS
 10
362.1152853548
 20
31.5391972951
 11
362.2887228548
 21
31.5069329918
 12
361.6527851343
 22
31.5069329918
 13
361.6527851343
 23
31.5069329918
  0
SOLID
  8
0
 62
7
  6
CONTINUOUS
 10
361.4793477997
 20
31.4424059016
 11
361.6527851343
 21
31.5069329918
 12
362.2887228548
 22
31.5069329918
 13
362.2887228548
 23
31.5069329918
  0
SOLID
  8
0
 62
7
  6
CONTINUOUS
 10
362.2887228548
 20
31.5069329918
 11
362.4621603548
 21
31.4424059016
 12
361.4793477997
 22
31.4424059016
 13
361.4793477997
 23
31.4424059016
  0
SOLID
  8
0
 62
7
  6
CONTINUOUS
 10
362.4621603548
 20
31.4424059016
 11
361.8840352445
 21
31.4101420472
 12
361.4793477997
 22
31.4424059016
 13
361.4793477997
 23
31.4424059016
  0
SOLID
  8
0
 62
7
  6
CONTINUOUS
 10
361.3637227445
 20
31.3778788115
 11
361.4793477997
 21
31.4424059016
 12
361.8840352445
 22
31.4101420472
 13
361.8840352445
 23
31.4101420472
  0
SOLID
  8
0
 62
7
  6
CONTINUOUS
 10
361.8840352445
 20
31.4101420472
 11
361.6527851343
 21
31.3778788115
 12
361.3637227445
 22
31.3778788115
 13
361.3637227445
 23
31.3778788115
  0
SOLID
  8
0
 62
7
  6
CONTINUOUS
 10
361.8840352445
 20
31.4101420472
 11
362.4621603548
 21
31.4424059016
 12
362.1152853548
 22
31.3778788115
 13
362.1152853548
 23
31.3778788115
  0
SOLID
  8
0
 62
7
  6
CONTINUOUS
 10
362.4621603548
 20
31.4424059016
 11
362.5777852445
 21
31.3778788115
 12
362.1152853548
 22
31.3778788115
 13
362.1152853548
 23
31.3778788115
  0
SOLID
  8
0
 62
7
  6
CONTINUOUS
 10
362.2309102445
 20
31.345614957
 11
362.1152853548
 21
31.3778788115
 12
362.5777852445
 22
31.3778788115
 13
362.5777852445
 23
31.3778788115
  0
SOLID
  8
0
 62
7
  6
CONTINUOUS
 10
362.5777852445
 20
31.3778788115
 11
362.6355978548
 21
31.3133517213
 12
362.2309102445
 22
31.345614957
 13
362.2309102445
 23
31.345614957
  0
SOLID
  8
0
 62
7
  6
CONTINUOUS
 10
362.3465351343
 20
31.2810878668
 11
362.2309102445
 21
31.345614957
 12
362.6355978548
 22
31.3133517213
 13
362.6355978548
 23
31.3133517213
  0
SOLID
  8
0
 62
7
  6
CONTINUOUS
 10
362.3465351343
 20
31.2810878668
 11
362.6355978548
 21
31.3133517213
 12
362.4043477445
 22
31.1520332377
 13
362.4043477445
 23
31.1520332377
  0
SOLID
  8
0
 62
7
  6
CONTINUOUS
 10
362.6355978548
 20
31.3133517213
 11
362.6934101343
 21
31.1520332377
 12
362.4043477445
 22
31.1520332377
 13
362.4043477445
 23
31.1520332377
  0
SOLID
  8
0
 62
7
  6
CONTINUOUS
 10
361.6527851343
 20
31.3778788115
 11
361.4793477997
 21
31.3133517213
 12
361.3637227445
 22
31.3778788115
 13
361.3637227445
 23
31.3778788115
  0
SOLID
  8
0
 62
7
  6
CONTINUOUS
 10
361.4793477997
 20
31.3133517213
 11
361.3637227445
 21
31.2488235635
 12
361.3637227445
 22
31.3778788115
 13
361.3637227445
 23
31.3778788115
  0
SOLID
  8
0
 62
7
  6
CONTINUOUS
 10
361.3637227445
 20
31.2488235635
 11
361.0746601894
 21
30.5067593033
 12
361.3637227445
 22
31.3778788115
 13
361.3637227445
 23
31.3778788115
  0
SOLID
  8
0
 62
7
  6
CONTINUOUS
 10
361.3637227445
 20
31.3778788115
 11
361.0746601894
 21
30.5067593033
 12
361.3637227445
 22
32.0231527459
 13
361.3637227445
 23
32.0231527459
  0
SOLID
  8
0
 62
7
  6
CONTINUOUS
 10
361.0746601894
 20
30.5067593033
 11
361.0746601894
 21
32.0231527459
 12
361.3637227445
 22
32.0231527459
 13
361.3637227445
 23
32.0231527459
  0
SOLID
  8
0
 62
7
  6
CONTINUOUS
 10
361.3637227445
 20
31.2488235635
 11
361.3637227445
 21
30.5067593033
 12
361.0746601894
 22
30.5067593033
 13
361.0746601894
 23
30.5067593033
  0
SOLID
  8
0
 62
7
  6
CONTINUOUS
 10
362.4043477445
 20
30.5067593033
 11
362.4043477445
 21
31.1520332377
 12
362.6934101343
 22
31.1520332377
 13
362.6934101343
 23
31.1520332377
  0
SOLID
  8
0
 62
7
  6
CONTINUOUS
 10
362.6934101343
 20
31.1520332377
 11
362.6934101343
 21
30.5067593033
 12
362.4043477445
 22
30.5067593033
 13
362.4043477445
 23
30.5067593033
  0
SOLID
  8
0
 62
7
  6
CONTINUOUS
 10
363.4449727445
 20
31.506933758
 11
363.8496603548
 21
31.5391977507
 12
364.1965353548
 22
31.5391977507
 13
364.1965353548
 23
31.5391977507
  0
SOLID
  8
0
 62
7
  6
CONTINUOUS
 10
364.1965353548
 20
31.5391977507
 11
364.543410024
 21
31.506933758
 12
363.4449727445
 22
31.506933758
 13
363.4449727445
 23
31.506933758
  0
SOLID
  8
0
 62
7
  6
CONTINUOUS
 10
363.3293478548
 20
31.4746706537
 11
363.4449727445
 21
31.506933758
 12
364.543410024
 22
31.506933758
 13
364.543410024
 23
31.506933758
  0
SOLID
  8
0
 62
7
  6
CONTINUOUS
 10
364.543410024
 20
31.506933758
 11
364.716847524
 21
31.4424063504
 12
363.3293478548
 22
31.4746706537
 13
363.3293478548
 23
31.4746706537
  0
SOLID
  8
0
 62
7
  6
CONTINUOUS
 10
363.2137226343
 20
31.4101417797
 11
363.3293478548
 21
31.4746706537
 12
364.716847524
 22
31.4424063504
 13
364.716847524
 23
31.4424063504
  0
SOLID
  8
0
 62
7
  6
CONTINUOUS
 10
363.2137226343
 20
31.4101417797
 11
364.716847524
 21
31.4424063504
 12
363.8496603548
 22
31.4101417797
 13
363.8496603548
 23
31.4101417797
  0
SOLID
  8
0
 62
7
  6
CONTINUOUS
 10
363.8496603548
 20
31.4101417797
 11
364.716847524
 21
31.4424063504
 12
364.1965353548
 22
31.4101417797
 13
364.1965353548
 23
31.4101417797
  0
SOLID
  8
0
 62
7
  6
CONTINUOUS
 10
364.1965353548
 20
31.4101417797
 11
364.716847524
 21
31.4424063504
 12
364.4277854651
 22
31.3778793357
 13
364.4277854651
 23
31.3778793357
  0
SOLID
  8
0
 62
7
  6
CONTINUOUS
 10
364.716847524
 20
31.4424063504
 11
364.8324727445
 21
31.3778793357
 12
364.4277854651
 22
31.3778793357
 13
364.4277854651
 23
31.3778793357
  0
SOLID
  8
0
 62
7
  6
CONTINUOUS
 10
363.1559103548
 20
31.3456153429
 11
363.2137226343
 21
31.4101417797
 12
363.8496603548
 22
31.4101417797
 13
363.8496603548
 23
31.4101417797
  0
SOLID
  8
0
 62
7
  6
CONTINUOUS
 10
364.543410024
 20
31.3456153429
 11
364.4277854651
 21
31.3778793357
 12
364.8324727445
 22
31.3778793357
 13
364.8324727445
 23
31.3778793357
  0
SOLID
  8
0
 62
7
  6
CONTINUOUS
 10
364.543410024
 20
31.3456153429
 11
364.8324727445
 21
31.3778793357
 12
364.6012229651
 22
31.2810881318
 13
364.6012229651
 23
31.2810881318
  0
SOLID
  8
0
 62
7
  6
CONTINUOUS
 10
364.8324727445
 20
31.3778793357
 11
364.890285024
 21
31.2810881318
 12
364.6012229651
 22
31.2810881318
 13
364.6012229651
 23
31.2810881318
  0
SOLID
  8
0
 62
7
  6
CONTINUOUS
 10
364.6012229651
 20
31.1842964734
 11
364.6012229651
 21
31.2810881318
 12
364.890285024
 22
31.2810881318
 13
364.890285024
 23
31.2810881318
  0
SOLID
  8
0
 62
7
  6
CONTINUOUS
 10
364.6012229651
 20
31.1842964734
 11
364.890285024
 21
31.2810881318
 12
364.6012229651
 22
31.0552422931
 13
364.6012229651
 23
31.0552422931
  0
SOLID
  8
0
 62
7
  6
CONTINUOUS
 10
364.6012229651
 20
31.0552422931
 11
364.890285024
 21
31.2810881318
 12
364.6012229651
 22
30.8616599362
 13
364.6012229651
 23
30.8616599362
  0
SOLID
  8
0
 62
7
  6
CONTINUOUS
 10
364.890285024
 20
31.2810881318
 11
364.890285024
 21
30.7648681127
 12
364.6012229651
 22
30.8616599362
 13
364.6012229651
 23
30.8616599362
  0
SOLID
  8
0
 62
7
  6
CONTINUOUS
 10
366.798097524
 20
31.5069339419
 11
367.0293479651
 21
31.5391976292
 12
367.2605977445
 22
31.5391976292
 13
367.2605977445
 23
31.5391976292
  0
SOLID
  8
0
 62
7
  6
CONTINUOUS
 10
367.2605977445
 20
31.5391976292
 11
367.4340352445
 21
31.5069339419
 12
366.798097524
 22
31.5069339419
 13
366.798097524
 23
31.5069339419
  0
SOLID
  8
0
 62
7
  6
CONTINUOUS
 10
366.624660024
 20
31.4424065674
 11
366.798097524
 21
31.5069339419
 12
367.4340352445
 22
31.5069339419
 13
367.4340352445
 23
31.5069339419
  0
SOLID
  8
0
 62
7
  6
CONTINUOUS
 10
367.4340352445
 20
31.5069339419
 11
367.6074727445
 21
31.4424065674
 12
366.624660024
 22
31.4424065674
 13
366.624660024
 23
31.4424065674
  0
SOLID
  8
0
 62
7
  6
CONTINUOUS
 10
367.6074727445
 20
31.4424065674
 11
367.0293479651
 21
31.4101420472
 12
366.624660024
 22
31.4424065674
 13
366.624660024
 23
31.4424065674
  0
SOLID
  8
0
 62
7
  6
CONTINUOUS
 10
366.5090354651
 20
31.377879193
 11
366.624660024
 21
31.4424065674
 12
367.0293479651
 22
31.4101420472
 13
367.0293479651
 23
31.4101420472
  0
SOLID
  8
0
 62
7
  6
CONTINUOUS
 10
367.0293479651
 20
31.4101420472
 11
366.798097524
 21
31.377879193
 12
366.5090354651
 22
31.377879193
 13
366.5090354651
 23
31.377879193
  0
SOLID
  8
0
 62
7
  6
CONTINUOUS
 10
367.0293479651
 20
31.4101420472
 11
367.6074727445
 21
31.4424065674
 12
367.2605977445
 22
31.377879193
 13
367.2605977445
 23
31.377879193
  0
SOLID
  8
0
 62
7
  6
CONTINUOUS
 10
367.6074727445
 20
31.4424065674
 11
367.7230979651
 21
31.377879193
 12
367.2605977445
 22
31.377879193
 13
367.2605977445
 23
31.377879193
  0
SOLID
  8
0
 62
7
  6
CONTINUOUS
 10
367.3762229651
 20
31.345614957
 11
367.2605977445
 21
31.377879193
 12
367.7230979651
 22
31.377879193
 13
367.7230979651
 23
31.377879193
  0
SOLID
  8
0
 62
7
  6
CONTINUOUS
 10
367.3762229651
 20
31.345614957
 11
367.7230979651
 21
31.377879193
 12
367.491847524
 22
31.2810881312
 13
367.491847524
 23
31.2810881312
  0
SOLID
  8
0
 62
7
  6
CONTINUOUS
 10
367.7230979651
 20
31.377879193
 11
367.7809102445
 21
31.2810881312
 12
367.491847524
 22
31.2810881312
 13
367.491847524
 23
31.2810881312
  0
SOLID
  8
0
 62
7
  6
CONTINUOUS
 10
367.5496604651
 20
31.119769695
 11
367.491847524
 21
31.2810881312
 12
367.7809102445
 22
31.2810881312
 13
367.7809102445
 23
31.2810881312
  0
SOLID
  8
0
 62
7
  6
CONTINUOUS
 10
367.7809102445
 20
31.2810881312
 11
367.838722524
 21
31.119769695
 12
367.5496604651
 22
31.119769695
 13
367.5496604651
 23
31.119769695
  0
SOLID
  8
0
 62
7
  6
CONTINUOUS
 10
366.798097524
 20
31.377879193
 11
366.624660024
 21
31.3133521701
 12
366.5090354651
 22
31.377879193
 13
366.5090354651
 23
31.377879193
  0
SOLID
  8
0
 62
7
  6
CONTINUOUS
 10
366.624660024
 20
31.3133521701
 11
366.5090354651
 21
31.2488235635
 12
366.5090354651
 22
31.377879193
 13
366.5090354651
 23
31.377879193
  0
SOLID
  8
0
 62
7
  6
CONTINUOUS
 10
366.5090354651
 20
31.2488235635
 11
366.2199727445
 21
30.5067596374
 12
366.5090354651
 22
31.377879193
 13
366.5090354651
 23
31.377879193
  0
SOLID
  8
0
 62
7
  6
CONTINUOUS
 10
366.5090354651
 20
31.377879193
 11
366.2199727445
 21
30.5067596374
 12
366.5090354651
 22
31.5391976292
 13
366.5090354651
 23
31.5391976292
  0
SOLID
  8
0
 62
7
  6
CONTINUOUS
 10
366.2199727445
 20
30.5067596374
 11
366.2199727445
 21
31.5391976292
 12
366.5090354651
 22
31.5391976292
 13
366.5090354651
 23
31.5391976292
  0
SOLID
  8
0
 62
7
  6
CONTINUOUS
 10
366.5090354651
 20
31.2488235635
 11
366.5090354651
 21
30.5067596374
 12
366.2199727445
 22
30.5067596374
 13
366.2199727445
 23
30.5067596374
  0
SOLID
  8
0
 62
7
  6
CONTINUOUS
 10
367.5496604651
 20
30.5067596374
 11
367.5496604651
 21
31.119769695
 12
367.838722524
 22
31.119769695
 13
367.838722524
 23
31.119769695
  0
SOLID
  8
0
 62
7
  6
CONTINUOUS
 10
367.838722524
 20
31.119769695
 11
367.838722524
 21
30.5067596374
 12
367.5496604651
 22
30.5067596374
 13
367.5496604651
 23
30.5067596374
  0
SOLID
  8
0
 62
7
  6
CONTINUOUS
 10
368.6480977445
 20
31.5069334157
 11
368.9949727445
 21
31.539197762
 12
369.3418477445
 22
31.539197762
 13
369.3418477445
 23
31.539197762
  0
SOLID
  8
0
 62
7
  6
CONTINUOUS
 10
369.3418477445
 20
31.539197762
 11
369.6887227445
 21
31.5069334157
 12
368.6480977445
 22
31.5069334157
 13
368.6480977445
 23
31.5069334157
  0
SOLID
  8
0
 62
7
  6
CONTINUOUS
 10
368.4168479651
 20
31.4424063504
 11
368.6480977445
 21
31.5069334157
 12
369.6887227445
 22
31.5069334157
 13
369.6887227445
 23
31.5069334157
  0
SOLID
  8
0
 62
7
  6
CONTINUOUS
 10
368.4168479651
 20
31.4424063504
 11
369.6887227445
 21
31.5069334406
 12
369.8621602445
 22
31.4746706537
 13
369.8621602445
 23
31.4746706537
  0
SOLID
  8
0
 62
7
  6
CONTINUOUS
 10
368.4168479651
 20
31.4424063504
 11
369.8621602445
 21
31.4746706537
 12
368.9949727445
 22
31.4101421267
 13
368.9949727445
 23
31.4101421267
  0
SOLID
  8
0
 62
7
  6
CONTINUOUS
 10
368.9949727445
 20
31.4101421267
 11
369.8621602445
 21
31.4746706537
 12
369.3418477445
 22
31.4101421267
 13
369.3418477445
 23
31.4101421267
  0
SOLID
  8
0
 62
7
  6
CONTINUOUS
 10
369.8621602445
 20
31.4746706537
 11
370.0355977445
 21
31.4101421267
 12
369.3418477445
 22
31.4101421267
 13
369.3418477445
 23
31.4101421267
  0
SOLID
  8
0
 62
7
  6
CONTINUOUS
 10
369.6887227445
 20
31.3778792603
 11
369.3418477445
 21
31.4101421267
 12
370.0355977445
 22
31.4101421267
 13
370.0355977445
 23
31.4101421267
  0
SOLID
  8
0
 62
7
  6
CONTINUOUS
 10
368.3012227445
 20
31.3456148845
 11
368.4168479651
 21
31.4424063504
 12
368.9949727445
 22
31.4101421267
 13
368.9949727445
 23
31.4101421267
  0
SOLID
  8
0
 62
7
  6
CONTINUOUS
 10
369.6887227445
 20
31.3778792603
 11
370.0355977445
 21
31.4101421267
 12
369.8043479651
 22
31.3456148845
 13
369.8043479651
 23
31.3456148845
  0
SOLID
  8
0
 62
7
  6
CONTINUOUS
 10
369.8043479651
 20
31.3456148845
 11
370.0355977445
 21
31.4101421267
 12
369.8621602445
 22
31.281087868
 13
369.8621602445
 23
31.281087868
  0
SOLID
  8
0
 62
7
  6
CONTINUOUS
 10
370.0355977445
 20
31.4101421267
 11
370.1512223035
 21
31.281087868
 12
369.8621602445
 22
31.281087868
 13
369.8621602445
 23
31.281087868
  0
SOLID
  8
0
 62
7
  6
CONTINUOUS
 10
359.4559102445
 20
31.3778792603
 11
358.9355977445
 21
31.3456148963
 12
359.6871602721
 22
31.4101421155
 13
359.6871602721
 23
31.4101421155
  0
SOLID
  8
0
 62
7
  6
CONTINUOUS
 10
358.9355977445
 20
31.3456148963
 11
359.0512227376
 21
31.4101421155
 12
359.6871602721
 22
31.4101421155
 13
359.6871602721
 23
31.4101421155
  0
SOLID
  8
0
 62
7
  6
CONTINUOUS
 10
359.4559102445
 20
31.3778792603
 11
359.3402852307
 21
31.3456148963
 12
358.9355977445
 22
31.3456148963
 13
358.9355977445
 23
31.3456148963
  0
SOLID
  8
0
 62
7
  6
CONTINUOUS
 10
358.8199727462
 20
31.2165607767
 11
358.9355977445
 21
31.3456148963
 12
359.3402852307
 22
31.3456148963
 13
359.3402852307
 23
31.3456148963
  0
SOLID
  8
0
 62
7
  6
CONTINUOUS
 10
363.1559103548
 20
31.3456149608
 11
363.8496603548
 21
31.4101420472
 12
363.6184102445
 22
31.3778792603
 13
363.6184102445
 23
31.3778792603
  0
SOLID
  8
0
 62
7
  6
CONTINUOUS
 10
363.6184102445
 20
31.3778792603
 11
363.5027853548
 21
31.3456149608
 12
363.1559103548
 22
31.3456149608
 13
363.1559103548
 23
31.3456149608
  0
SOLID
  8
0
 62
7
  6
CONTINUOUS
 10
363.1559103548
 20
31.2810878707
 11
363.1559103548
 21
31.3456149608
 12
363.5027853548
 22
31.3456149608
 13
363.5027853548
 23
31.3456149608
  0
SOLID
  8
0
 62
7
  6
CONTINUOUS
 10
363.5027853548
 20
31.3456149608
 11
363.4449727445
 21
31.2810878707
 12
363.1559103548
 22
31.2810878707
 13
363.1559103548
 23
31.2810878707
  0
SOLID
  8
0
 62
7
  6
CONTINUOUS
 10
368.3012227445
 20
31.3456149608
 11
368.9949727445
 21
31.4101420472
 12
368.7637229651
 22
31.3778792603
 13
368.7637229651
 23
31.3778792603
  0
SOLID
  8
0
 62
7
  6
CONTINUOUS
 10
368.7637229651
 20
31.3778792603
 11
368.6480977445
 21
31.3456149608
 12
368.3012227445
 22
31.3456149608
 13
368.3012227445
 23
31.3456149608
  0
SOLID
  8
0
 62
7
  6
CONTINUOUS
 10
368.3012227445
 20
31.2810878707
 11
368.3012227445
 21
31.3456149608
 12
368.6480977445
 22
31.3456149608
 13
368.6480977445
 23
31.3456149608
  0
SOLID
  8
0
 62
7
  6
CONTINUOUS
 10
368.6480977445
 20
31.3456149608
 11
368.5902854651
 21
31.2810878707
 12
368.3012227445
 22
31.2810878707
 13
368.3012227445
 23
31.2810878707
  0
SOLID
  8
0
 62
7
  6
CONTINUOUS
 10
368.4168479651
 20
31.1520336865
 11
368.3012227445
 21
31.2810878707
 12
368.5902854651
 22
31.2810878707
 13
368.5902854651
 23
31.2810878707
  0
SOLID
  8
0
 62
7
  6
CONTINUOUS
 10
358.8199727462
 20
31.2165607767
 11
359.3402852307
 21
31.345614957
 12
359.1668477307
 22
31.2488235635
 13
359.1668477307
 23
31.2488235635
  0
SOLID
  8
0
 62
7
  6
CONTINUOUS
 10
359.1668477307
 20
31.2488235635
 11
359.1090352445
 21
31.1842964734
 12
358.8199727462
 22
31.2165607767
 13
358.8199727462
 23
31.2165607767
  0
SOLID
  8
0
 62
7
  6
CONTINUOUS
 10
358.7621602445
 20
31.0229779898
 11
358.8199727462
 21
31.2165607767
 12
359.1090352445
 22
31.1842964734
 13
359.1090352445
 23
31.1842964734
  0
SOLID
  8
0
 62
7
  6
CONTINUOUS
 10
363.6184102445
 20
31.1520336865
 11
363.9652852445
 21
31.1842964611
 12
364.6012229651
 22
31.1842964611
 13
364.6012229651
 23
31.1842964611
  0
SOLID
  8
0
 62
7
  6
CONTINUOUS
 10
363.6184102445
 20
31.1520336865
 11
364.6012229651
 21
31.1842964611
 12
363.3871601343
 22
31.0875057863
 13
363.3871601343
 23
31.0875057863
  0
SOLID
  8
0
 62
7
  6
CONTINUOUS
 10
363.3871601343
 20
31.0875057863
 11
364.6012229651
 21
31.1842964611
 12
363.9652852445
 22
31.0552422808
 13
363.9652852445
 23
31.0552422808
  0
SOLID
  8
0
 62
7
  6
CONTINUOUS
 10
364.6012229651
 20
31.1842964611
 11
364.6012229651
 21
31.0552422808
 12
363.9652852445
 22
31.0552422808
 13
363.9652852445
 23
31.0552422808
  0
SOLID
  8
0
 62
7
  6
CONTINUOUS
 10
368.4168479651
 20
31.1520338754
 11
368.5902854651
 21
31.2810878668
 12
368.6480977445
 22
31.2165607767
 13
368.6480977445
 23
31.2165607767
  0
SOLID
  8
0
 62
7
  6
CONTINUOUS
 10
368.6480977445
 20
31.2165607767
 11
368.8215352445
 21
31.1520338754
 12
368.4168479651
 22
31.1520338754
 13
368.4168479651
 23
31.1520338754
  0
SOLID
  8
0
 62
7
  6
CONTINUOUS
 10
368.6480977445
 20
31.0552422931
 11
368.4168479651
 21
31.1520338754
 12
368.8215352445
 22
31.1520338754
 13
368.8215352445
 23
31.1520338754
  0
SOLID
  8
0
 62
7
  6
CONTINUOUS
 10
368.8215352445
 20
31.1520338754
 11
369.8043479651
 21
30.9907152029
 12
368.6480977445
 22
31.0552422931
 13
368.6480977445
 23
31.0552422931
  0
SOLID
  8
0
 62
7
  6
CONTINUOUS
 10
369.6309104651
 20
30.8939239876
 11
368.6480977445
 21
31.0552422931
 12
369.8043479651
 22
30.9907152029
 13
369.8043479651
 23
30.9907152029
  0
SOLID
  8
0
 62
7
  6
CONTINUOUS
 10
369.8043479651
 20
30.9907152029
 11
370.0355977445
 21
30.8939239876
 12
369.6309104651
 22
30.8939239876
 13
369.6309104651
 23
30.8939239876
  0
SOLID
  8
0
 62
7
  6
CONTINUOUS
 10
369.8043479651
 20
30.8293967193
 11
369.6309104651
 21
30.8939239876
 12
370.0355977445
 22
30.8939239876
 13
370.0355977445
 23
30.8939239876
  0
SOLID
  8
0
 62
7
  6
CONTINUOUS
 10
369.8043479651
 20
30.8293967193
 11
370.0355977445
 21
30.8939239876
 12
369.8621602445
 22
30.7648682694
 13
369.8621602445
 23
30.7648682694
  0
SOLID
  8
0
 62
7
  6
CONTINUOUS
 10
370.0355977445
 20
30.8939239876
 11
370.1512223035
 21
30.7648682694
 12
369.8621602445
 22
30.7648682694
 13
369.8621602445
 23
30.7648682694
  0
SOLID
  8
0
 62
7
  6
CONTINUOUS
 10
369.8043479651
 20
30.7003411846
 11
369.8621602445
 21
30.7648682694
 12
370.1512223035
 22
30.7648682694
 13
370.1512223035
 23
30.7648682694
  0
SOLID
  8
0
 62
7
  6
CONTINUOUS
 10
370.1512223035
 20
30.7648682694
 11
370.1512223035
 21
30.7003411846
 12
369.8043479651
 22
30.7003411846
 13
369.8043479651
 23
30.7003411846
  0
SOLID
  8
0
 62
7
  6
CONTINUOUS
 10
369.6887227445
 20
30.6680782357
 11
369.8043479651
 21
30.7003411846
 12
370.1512223035
 22
30.7003411846
 13
370.1512223035
 23
30.7003411846
  0
SOLID
  8
0
 62
7
  6
CONTINUOUS
 10
369.6887227445
 20
30.6680782357
 11
370.1512223035
 21
30.7003411846
 12
369.4574729651
 22
30.6358140998
 13
369.4574729651
 23
30.6358140998
  0
SOLID
  8
0
 62
7
  6
CONTINUOUS
 10
370.1512223035
 20
30.7003411846
 11
370.0355977445
 21
30.6035511455
 12
369.4574729651
 22
30.6358140998
 13
369.4574729651
 23
30.6358140998
  0
SOLID
  8
0
 62
7
  6
CONTINUOUS
 10
370.0355977445
 20
30.6035511455
 11
368.5902854651
 21
30.5712868422
 12
369.4574729651
 22
30.6358140998
 13
369.4574729651
 23
30.6358140998
  0
SOLID
  8
0
 62
7
  6
CONTINUOUS
 10
369.4574729651
 20
30.6358140998
 11
368.5902854651
 21
30.5712868422
 12
369.1105979651
 22
30.6358140998
 13
369.1105979651
 23
30.6358140998
  0
SOLID
  8
0
 62
7
  6
CONTINUOUS
 10
368.5902854651
 20
30.5712868422
 11
368.4168479651
 21
30.6358140998
 12
369.1105979651
 22
30.6358140998
 13
369.1105979651
 23
30.6358140998
  0
SOLID
  8
0
 62
7
  6
CONTINUOUS
 10
368.5902854651
 20
30.5712868422
 11
370.0355977445
 21
30.6035511455
 12
368.7637229651
 22
30.5390223111
 13
368.7637229651
 23
30.5390223111
  0
SOLID
  8
0
 62
7
  6
CONTINUOUS
 10
370.0355977445
 20
30.6035511455
 11
369.8043479651
 21
30.5390223111
 12
368.7637229651
 22
30.5390223111
 13
368.7637229651
 23
30.5390223111
  0
SOLID
  8
0
 62
7
  6
CONTINUOUS
 10
369.1105979651
 20
30.5067599302
 11
368.7637229651
 21
30.5390223111
 12
369.8043479651
 22
30.5390223111
 13
369.8043479651
 23
30.5390223111
  0
SOLID
  8
0
 62
7
  6
CONTINUOUS
 10
369.8043479651
 20
30.5390223111
 11
369.4574729651
 21
30.5067599302
 12
369.1105979651
 22
30.5067599302
 13
369.1105979651
 23
30.5067599302
  0
SOLID
  8
0
 62
7
  6
CONTINUOUS
 10
358.7621602445
 20
31.0229779898
 11
359.1090352445
 21
31.1842964734
 12
359.0512227376
 22
31.0552422931
 13
359.0512227376
 23
31.0552422931
  0
SOLID
  8
0
 62
7
  6
CONTINUOUS
 10
359.0512227376
 20
31.0552422931
 11
359.0512227376
 21
30.9584509954
 12
358.7621602445
 22
31.0229779898
 13
358.7621602445
 23
31.0229779898
  0
SOLID
  8
0
 62
7
  6
CONTINUOUS
 10
358.8199727462
 20
30.8293967193
 11
358.7621602445
 21
31.0229779898
 12
359.0512227376
 22
30.9584509954
 13
359.0512227376
 23
30.9584509954
  0
SOLID
  8
0
 62
7
  6
CONTINUOUS
 10
359.0512227376
 20
30.9584509954
 11
359.1668477307
 21
30.797132416
 12
358.8199727462
 22
30.8293967193
 13
358.8199727462
 23
30.8293967193
  0
SOLID
  8
0
 62
7
  6
CONTINUOUS
 10
358.9355977445
 20
30.7003413087
 11
358.8199727462
 21
30.8293967193
 12
359.1668477307
 22
30.797132416
 13
359.1668477307
 23
30.797132416
  0
SOLID
  8
0
 62
7
  6
CONTINUOUS
 10
359.1668477307
 20
30.797132416
 11
359.3402852307
 21
30.7003413087
 12
358.9355977445
 22
30.7003413087
 13
358.9355977445
 23
30.7003413087
  0
SOLID
  8
0
 62
7
  6
CONTINUOUS
 10
359.0512227376
 20
30.6358140759
 11
358.9355977445
 21
30.7003413087
 12
359.3402852307
 22
30.7003413087
 13
359.3402852307
 23
30.7003413087
  0
SOLID
  8
0
 62
7
  6
CONTINUOUS
 10
359.3402852307
 20
30.7003413087
 11
359.6871602721
 21
30.6358140759
 12
359.0512227376
 22
30.6358140759
 13
359.0512227376
 23
30.6358140759
  0
SOLID
  8
0
 62
7
  6
CONTINUOUS
 10
359.2246602583
 20
30.5712868422
 11
359.0512227376
 21
30.6358140759
 12
359.6871602721
 22
30.6358140759
 13
359.6871602721
 23
30.6358140759
  0
SOLID
  8
0
 62
7
  6
CONTINUOUS
 10
363.2715352445
 20
31.0229779808
 11
363.3871601343
 21
31.0875057863
 12
363.9652852445
 22
31.0552422931
 13
363.9652852445
 23
31.0552422931
  0
SOLID
  8
0
 62
7
  6
CONTINUOUS
 10
363.9652852445
 20
31.0552422931
 11
363.7340351343
 21
31.0229779808
 12
363.2715352445
 22
31.0229779808
 13
363.2715352445
 23
31.0229779808
  0
SOLID
  8
0
 62
7
  6
CONTINUOUS
 10
363.1559103548
 20
30.8939238094
 11
363.2715352445
 21
31.0229779808
 12
363.7340351343
 22
31.0229779808
 13
363.7340351343
 23
31.0229779808
  0
SOLID
  8
0
 62
7
  6
CONTINUOUS
 10
363.5027853548
 20
30.926187309
 11
363.1559103548
 21
30.8939238094
 12
363.6184102445
 22
30.9907152029
 13
363.6184102445
 23
30.9907152029
  0
SOLID
  8
0
 62
7
  6
CONTINUOUS
 10
363.1559103548
 20
30.8939238094
 11
363.7340351343
 21
31.0229779898
 12
363.6184102445
 22
30.9907152029
 13
363.6184102445
 23
30.9907152029
  0
SOLID
  8
0
 62
7
  6
CONTINUOUS
 10
363.5027853548
 20
30.926187309
 11
363.4449727445
 21
30.8293967193
 12
363.1559103548
 22
30.8939238094
 13
363.1559103548
 23
30.8939238094
  0
SOLID
  8
0
 62
7
  6
CONTINUOUS
 10
363.1559103548
 20
30.797132416
 11
363.1559103548
 21
30.8939238094
 12
363.4449727445
 22
30.8293967193
 13
363.4449727445
 23
30.8293967193
  0
SOLID
  8
0
 62
7
  6
CONTINUOUS
 10
363.4449727445
 20
30.8293967193
 11
363.4449727445
 21
30.7648681127
 12
363.1559103548
 22
30.797132416
 13
363.1559103548
 23
30.797132416
  0
SOLID
  8
0
 62
7
  6
CONTINUOUS
 10
363.2137226343
 20
30.6680782357
 11
363.1559103548
 21
30.797132416
 12
363.4449727445
 22
30.7648681127
 13
363.4449727445
 23
30.7648681127
  0
SOLID
  8
0
 62
7
  6
CONTINUOUS
 10
364.6012229651
 20
30.8616599362
 11
364.890285024
 21
30.7648681127
 12
364.543410024
 22
30.797132416
 13
364.543410024
 23
30.797132416
  0
SOLID
  8
0
 62
7
  6
CONTINUOUS
 10
364.369972524
 20
30.7003410226
 11
364.543410024
 21
30.797132416
 12
364.890285024
 22
30.7648681127
 13
364.890285024
 23
30.7648681127
  0
SOLID
  8
0
 62
7
  6
CONTINUOUS
 10
364.369972524
 20
30.7003410226
 11
364.890285024
 21
30.7648681127
 12
364.6012229651
 22
30.6680782357
 13
364.6012229651
 23
30.6680782357
  0
SOLID
  8
0
 62
7
  6
CONTINUOUS
 10
364.890285024
 20
30.7648681127
 11
364.9480979651
 21
30.6035511455
 12
364.6012229651
 22
30.6680782357
 13
364.6012229651
 23
30.6680782357
  0
SOLID
  8
0
 62
7
  6
CONTINUOUS
 10
364.6590352445
 20
30.5712868422
 11
364.6012229651
 21
30.6680782357
 12
364.9480979651
 22
30.6035511455
 13
364.9480979651
 23
30.6035511455
  0
SOLID
  8
0
 62
7
  6
CONTINUOUS
 10
364.6590352445
 20
30.5712868422
 11
364.9480979651
 21
30.6035511455
 12
364.716847524
 22
30.5067598731
 13
364.716847524
 23
30.5067598731
  0
SOLID
  8
0
 62
7
  6
CONTINUOUS
 10
364.9480979651
 20
30.6035511455
 11
365.0059102445
 21
30.5067598731
 12
364.716847524
 22
30.5067598731
 13
364.716847524
 23
30.5067598731
  0
SOLID
  8
0
 62
7
  6
CONTINUOUS
 10
360.2652852997
 20
30.7326051679
 11
360.3230977445
 21
30.8293966612
 12
360.6121602997
 22
30.8293966612
 13
360.6121602997
 23
30.8293966612
  0
SOLID
  8
0
 62
7
  6
CONTINUOUS
 10
360.6121602997
 20
30.8293966612
 11
360.5543476894
 21
30.7003410226
 12
360.2652852997
 22
30.7326051679
 13
360.2652852997
 23
30.7326051679
  0
SOLID
  8
0
 62
7
  6
CONTINUOUS
 10
360.091847717
 20
30.6680782357
 11
360.2652852997
 21
30.7326051679
 12
360.5543476894
 22
30.7003410226
 13
360.5543476894
 23
30.7003410226
  0
SOLID
  8
0
 62
7
  6
CONTINUOUS
 10
360.091847717
 20
30.6680782357
 11
360.5543476894
 21
30.7003410226
 12
359.6871602721
 22
30.6358139324
 13
359.6871602721
 23
30.6358139324
  0
SOLID
  8
0
 62
7
  6
CONTINUOUS
 10
360.5543476894
 20
30.7003410226
 11
360.3809101894
 21
30.6035511455
 12
359.6871602721
 22
30.6358139324
 13
359.6871602721
 23
30.6358139324
  0
SOLID
  8
0
 62
7
  6
CONTINUOUS
 10
359.2246602583
 20
30.5712868422
 11
359.6871602721
 21
30.6358139324
 12
360.3809101894
 22
30.6035511455
 13
360.3809101894
 23
30.6035511455
  0
SOLID
  8
0
 62
7
  6
CONTINUOUS
 10
359.2246602583
 20
30.5712868422
 11
360.3809101894
 21
30.6035511455
 12
359.3980977583
 22
30.5390224228
 13
359.3980977583
 23
30.5390224228
  0
SOLID
  8
0
 62
7
  6
CONTINUOUS
 10
360.3809101894
 20
30.6035511455
 11
360.1496602445
 21
30.5390224228
 12
359.3980977583
 22
30.5390224228
 13
359.3980977583
 23
30.5390224228
  0
SOLID
  8
0
 62
7
  6
CONTINUOUS
 10
359.744972717
 20
30.5067597521
 11
359.3980977583
 21
30.5390224228
 12
360.1496602445
 22
30.5390224228
 13
360.1496602445
 23
30.5390224228
  0
SOLID
  8
0
 62
7
  6
CONTINUOUS
 10
363.2137226343
 20
30.6680782357
 11
363.4449727445
 21
30.7648681127
 12
363.5027853548
 22
30.7003410226
 13
363.5027853548
 23
30.7003410226
  0
SOLID
  8
0
 62
7
  6
CONTINUOUS
 10
363.5027853548
 20
30.7003410226
 11
363.7340351343
 21
30.6358139324
 12
363.2137226343
 22
30.6680782357
 13
363.2137226343
 23
30.6680782357
  0
SOLID
  8
0
 62
7
  6
CONTINUOUS
 10
363.3871601343
 20
30.5712868422
 11
363.2137226343
 21
30.6680782357
 12
363.7340351343
 22
30.6358139324
 13
363.7340351343
 23
30.6358139324
  0
SOLID
  8
0
 62
7
  6
CONTINUOUS
 10
364.0809101343
 20
30.6358139363
 11
364.369972524
 21
30.7003410226
 12
364.6012229651
 22
30.6680782357
 13
364.6012229651
 23
30.6680782357
  0
SOLID
  8
0
 62
7
  6
CONTINUOUS
 10
364.6012229651
 20
30.6680782357
 11
364.543410024
 21
30.6035511455
 12
364.0809101343
 22
30.6358139363
 13
364.0809101343
 23
30.6358139363
  0
SOLID
  8
0
 62
7
  6
CONTINUOUS
 10
364.543410024
 20
30.6035511455
 11
363.3871601343
 21
30.5712868422
 12
364.0809101343
 22
30.6358139363
 13
364.0809101343
 23
30.6358139363
  0
SOLID
  8
0
 62
7
  6
CONTINUOUS
 10
363.3871601343
 20
30.5712868422
 11
363.7340351343
 21
30.6358139363
 12
364.0809101343
 22
30.6358139363
 13
364.0809101343
 23
30.6358139363
  0
SOLID
  8
0
 62
7
  6
CONTINUOUS
 10
363.3871601343
 20
30.5712868422
 11
364.543410024
 21
30.6035511455
 12
363.5027853548
 22
30.5390225267
 13
363.5027853548
 23
30.5390225267
  0
SOLID
  8
0
 62
7
  6
CONTINUOUS
 10
364.543410024
 20
30.6035511455
 11
364.369972524
 21
30.5390225267
 12
363.5027853548
 22
30.5390225267
 13
363.5027853548
 23
30.5390225267
  0
SOLID
  8
0
 62
7
  6
CONTINUOUS
 10
363.7340351343
 20
30.5067596914
 11
363.5027853548
 21
30.5390225267
 12
364.369972524
 22
30.5390225267
 13
364.369972524
 23
30.5390225267
  0
SOLID
  8
0
 62
7
  6
CONTINUOUS
 10
364.369972524
 20
30.5390225267
 11
364.0809101343
 21
30.5067596914
 12
363.7340351343
 22
30.5067596914
 13
363.7340351343
 23
30.5067596914
  0
SOLID
  8
0
 62
7
  6
CONTINUOUS
 10
368.7637229651
 20
30.6680782357
 11
368.4168479651
 21
30.6358138717
 12
368.6480977445
 22
30.7003410226
 13
368.6480977445
 23
30.7003410226
  0
SOLID
  8
0
 62
7
  6
CONTINUOUS
 10
368.6480977445
 20
30.7003410226
 11
368.4168479651
 21
30.6358138717
 12
368.5902854651
 22
30.7648680521
 13
368.5902854651
 23
30.7648680521
  0
SOLID
  8
0
 62
7
  6
CONTINUOUS
 10
368.4168479651
 20
30.6358138717
 11
368.3012227445
 21
30.7648680521
 12
368.5902854651
 22
30.7648680521
 13
368.5902854651
 23
30.7648680521
  0
SOLID
  8
0
 62
7
  6
CONTINUOUS
 10
368.7637229651
 20
30.6680782357
 11
369.1105979651
 21
30.6358138717
 12
368.4168479651
 22
30.6358138717
 13
368.4168479651
 23
30.6358138717
  0
SOLID
  8
0
 62
7
  6
CONTINUOUS
 10
365.4684104651
 20
30.5067597521
 11
365.4684104651
 21
31.5391977439
 12
365.757472524
 22
30.5067597521
 13
365.757472524
 23
31.5391977439
  0
ENDBLK
  8
0
  6
BYBLOCK
 62
0
  0
BLOCK
  8
0
 62
2
  6
CONTINUOUS
  2
SYMBOL_0_BL0
 70
64
 10
240.8592468615
 20
19.762288695
  0
TEXT
  8
0
 62
7
  6
CONTINUOUS
 10
227.1239507038
 20
19.1357028027
  7
TEXTSTYLE_3
 40
2.7338706658
  1
Ammeraal Beltech
 41
1.0
 51
15.0
 72
0
  0
TEXT
  8
0
 62
7
  6
CONTINUOUS
 10
237.9247515296
 20
16.8621661299
  7
TEXTSTYLE_4
 40
1.0935482663
  1
Innovation & Service in Belting
 41
1.0
 72
0
  0
LINE
  8
0
 62
7
  6
CONTINUOUS
 10
221.0994100525
 20
19.9022961113
 11
221.8775620458
 21
23.5632134089
  0
LINE
  8
0
 62
7
  6
CONTINUOUS
 10
231.9727303357
 20
27.2266073205
 11
222.3653797889
 21
24.1049898993
  0
LINE
  8
0
 62
7
  6
CONTINUOUS
 10
221.3246933848
 20
19.2089453082
 11
228.8317686459
 21
12.4495443822
  0
LINE
  8
0
 62
7
  6
CONTINUOUS
 10
221.5872277955
 20
20.4440726016
 11
232.3954971607
 21
23.9558922005
  0
LINE
  8
0
 62
7
  6
CONTINUOUS
 10
232.3912920235
 20
13.6061036368
 11
223.9458323548
 21
21.2104296785
  0
LINE
  8
0
 62
7
  6
CONTINUOUS
 10
232.9111147433
 20
26.3816822048
 11
231.9345552061
 21
21.7873308023
  0
LINE
  8
0
 62
7
  6
CONTINUOUS
 10
231.2347532584
 20
18.4950214885
 11
230.5483050469
 21
15.2655365641
  0
LINE
  8
0
 62
7
  6
CONTINUOUS
 10
233.5922108419
 20
13.9963058145
 11
234.5484423775
 21
18.4950214885
  0
LINE
  8
0
 62
7
  6
CONTINUOUS
 10
235.2482443252
 20
21.7873308023
 11
235.6924861276
 21
23.8773241617
  0
LINE
  8
0
 62
7
  6
CONTINUOUS
 10
229.5448697213
 20
12.2979700695
 11
233.1043930989
 21
13.4545293241
  0
LINE
  8
0
 62
7
  6
CONTINUOUS
 10
232.685831411
 20
27.0750330078
 11
235.4672027953
 21
24.5706749648
  0
ARC
  8
0
 62
7
  6
CONTINUOUS
 10
222.5906631212
 20
23.4116390962
 40
0.7290321776
 50
108.0
 51
168.0
  0
ARC
  8
0
 62
7
  6
CONTINUOUS
 10
232.198013668
 20
26.5332565175
 40
0.7290321776
 50
348.0
 51
108.0
  0
ARC
  8
0
 62
7
  6
CONTINUOUS
 10
234.9793850522
 20
24.0288984744
 40
0.7290321776
 50
348.0
 51
48.0
  0
ARC
  8
0
 62
7
  6
CONTINUOUS
 10
229.319586389
 20
12.9913208726
 40
0.7290321776
 50
228.0
 51
288.0
  0
ARC
  8
0
 62
7
  6
CONTINUOUS
 10
221.8125111278
 20
19.7507217986
 40
0.7290321776
 50
108.0
 51
228.0
  0
ARC
  8
0
 62
7
  6
CONTINUOUS
 10
232.8791097665
 20
14.1478801272
 40
0.7290321776
 50
228.0
 51
348.0
  0
ENDBLK
  8
0
  6
BYBLOCK
 62
0
  0
ENDSEC
  0
SECTION
  2
ENTITIES
  0
TEXT
  8
0
 62
5
  6
CONTINUOUS
 10
304.937007874
 20
25.636
  7
TEXTSTYLE_2
 40
2.8
  1
Scale :
 41
0.6
 51
0.000019
 72
0
  0
TEXT
  8
0
 62
5
  6
CONTINUOUS
 10
324.937007874
 20
25.636
  7
TEXTSTYLE_2
 40
2.8
  1
Belt type:
 41
0.6
 51
0.000019
 72
0
  0
INSERT
  8
0
 62
2
  6
CONTINUOUS
  2
SYMBOL_0_BL0
 10
240.8592468615
 20
19.762288695
  0
INSERT
  8
0
 62
2
  6
CONTINUOUS
  2
SYMBOL_5_BL1
 10
382.7840918555
 20
35.5067593403
  0
LINE
  8
0
 62
2
  6
CONTINUOUS
 10
218.937007874
 20
30.0
 11
408.937007874
 21
30.0
  0
LINE
  8
0
 62
2
  6
CONTINUOUS
 10
218.937007874
 20
30.0
 11
218.937007874
 21
10.0
  0
LINE
  8
0
 62
2
  6
CONTINUOUS
 10
218.937007874
 20
10.0
 11
408.937007874
 21
10.0
  0
LINE
  8
0
 62
2
  6
CONTINUOUS
 10
303.937007874
 20
30.0
 11
303.937007874
 21
10.0
  0
LINE
  8
0
 62
2
  6
CONTINUOUS
 10
323.937007874
 20
30.0
 11
323.937007874
 21
10.0
  0
LINE
  8
0
 62
2
  6
CONTINUOUS
 10
408.937007874
 20
30.0
 11
408.937007874
 21
10.0
  0
TEXT
  8
0
 62
5
  6
CONTINUOUS
 10
221.937007874
 20
23.303
  7
TEXTSTYLE_5
 40
1.52
  1
                                                                     Ammeraal Beltech Modular A/S
 41
1.0
 72
0
  0
TEXT
  8
0
 62
5
  6
CONTINUOUS
 10
221.937007874
 20
20.595
  7
TEXTSTYLE_5
 40
1.5
  1
                                                                      Hjulmagervej 21, 7100 Vejle,  DK
 41
1.0
 72
0
  0
TEXT
  8
0
 62
5
  6
CONTINUOUS
 10
221.937007874
 20
17.881
  7
TEXTSTYLE_5
 40
1.495
  1
                                                                      tel: 
 41
1.0
 72
0
  0
TEXT
  8
0
 62
5
  6
CONTINUOUS
 10
266.9239544389
 20
17.881
  7
TEXTSTYLE_5
 40
1.51
  1
+45 75723100     fax: +45 75723348
 41
1.0
 72
0
  0
TEXT
  8
0
 62
5
  6
CONTINUOUS
 10
221.937007874
 20
15.177
  7
TEXTSTYLE_5
 40
1.5
  1
                                                                      admin@unichains.dk  www.unichains.com
 41
1.0
 72
0
  0
TEXT
  8
0
 62
5
  6
CONTINUOUS
 10
308.687007874
 20
13.75
  7
TEXTSTYLE_6
 40
5.0
  1
1:1
 41
0.7
 72
1
 11
313.937007874
 21
13.75
  0
TEXT
  8
0
 62
5
  6
CONTINUOUS
 10
326.937007874
 20
13.75
  7
TEXTSTYLE_7
 40
7.5
  1
uni Flex ASB-43 Tab K580
 41
0.3796875
 72
0
  0
LINE
  8
0
 62
7
  6
CONTINUOUS
 10
0.0
 20
0.0
 11
0.0
 21
297.0
  0
LINE
  8
0
 62
7
  6
CONTINUOUS
 10
8.937007874
 20
10.0
 11
8.937007874
 21
287.0
  0
LINE
  8
0
 62
7
  6
CONTINUOUS
 10
0.0
 20
0.0
 11
420.0
 21
0.0
  0
LINE
  8
0
 62
7
  6
CONTINUOUS
 10
408.937007874
 20
10.0
 11
8.937007874
 21
10.0
  0
LINE
  8
0
 62
7
  6
CONTINUOUS
 10
218.937007874
 20
30.0
 11
408.937007874
 21
30.0
  0
LINE
  8
0
 62
7
  6
CONTINUOUS
 10
210.0
 20
297.0
 11
210.0
 21
292.0
  0
LINE
  8
0
 62
7
  6
CONTINUOUS
 10
210.0
 20
0.0
 11
210.0
 21
5.0
  0
LINE
  8
0
 62
7
  6
CONTINUOUS
 10
8.937007874
 20
287.0
 11
408.937007874
 21
287.0
  0
LINE
  8
0
 62
7
  6
CONTINUOUS
 10
0.0
 20
297.0
 11
420.0
 21
297.0
  0
LINE
  8
0
 62
7
  6
CONTINUOUS
 10
408.937007874
 20
287.0
 11
408.937007874
 21
10.0
  0
LINE
  8
0
 62
7
  6
CONTINUOUS
 10
420.0
 20
0.0
 11
420.0
 21
297.0
  0
LINE
  8
0
 62
7
  6
CONTINUOUS
 10
78.9304663915
 20
208.9820507957
 11
78.2121490801
 21
220.7264350227
  0
LINE
  8
0
 62
7
  6
CONTINUOUS
 10
77.4913238545
 20
231.9828964903
 11
77.4913238545
 21
221.2520156069
  0
LINE
  8
0
 62
7
  6
CONTINUOUS
 10
82.7453238545
 20
221.1020156069
 11
82.7453238545
 21
212.0676355799
  0
LINE
  8
0
 62
7
  6
CONTINUOUS
 10
82.7806736775
 20
221.1020156069
 11
82.7806736763
 21
212.09815549
  0
LINE
  8
0
 62
7
  6
CONTINUOUS
 10
82.8953238545
 20
212.357028135
 11
82.8953238545
 21
221.1020156069
  0
LINE
  8
0
 62
7
  6
CONTINUOUS
 10
84.8663382177
 20
221.8520156069
 11
84.8663382177
 21
232.3520156069
  0
LINE
  8
0
 62
7
  6
CONTINUOUS
 10
90.6453238545
 20
212.0570238526
 11
90.6453238545
 21
208.1041478747
  0
LINE
  8
0
 62
7
  6
CONTINUOUS
 10
90.8663094914
 20
221.8520156069
 11
90.8663094914
 21
232.3520156069
  0
POLYLINE
  8
AXES
 62
7
  6
CONTINUOUS
 66
1
 70
0
  0
VERTEX
  8
AXES
 62
7
  6
CONTINUOUS
 10
84.8663382177
 20
226.119026297
  0
VERTEX
  8
AXES
 62
7
  6
CONTINUOUS
 10
84.8342913828
 20
226.2303117269
  0
VERTEX
  8
AXES
 62
7
  6
CONTINUOUS
 10
84.7902676148
 20
226.4217912545
  0
VERTEX
  8
AXES
 62
7
  6
CONTINUOUS
 10
84.7569418012
 20
226.6153640092
  0
VERTEX
  8
AXES
 62
7
  6
CONTINUOUS
 10
84.7346522611
 20
226.8097796915
  0
VERTEX
  8
AXES
 62
7
  6
CONTINUOUS
 10
84.7234845555
 20
227.0048448032
  0
VERTEX
  8
AXES
 62
7
  6
CONTINUOUS
 10
84.7234945303
 20
227.199535016
  0
VERTEX
  8
AXES
 62
7
  6
CONTINUOUS
 10
84.7346829958
 20
227.3946088424
  0
VERTEX
  8
AXES
 62
7
  6
CONTINUOUS
 10
84.7569909796
 20
227.5890100536
  0
VERTEX
  8
AXES
 62
7
  6
CONTINUOUS
 10
84.7903370023
 20
227.7825850082
  0
VERTEX
  8
AXES
 62
7
  6
CONTINUOUS
 10
84.8343771766
 20
227.9740506854
  0
VERTEX
  8
AXES
 62
7
  6
CONTINUOUS
 10
84.8663382177
 20
228.0849993689
  0
SEQEND
  0
LINE
  8
0
 62
7
  6
CONTINUOUS
 10
99.1913238545
 20
225.0026599289
 11
99.1913238545
 21
221.2520156069
  0
LINE
  8
0
 62
7
  6
CONTINUOUS
 10
100.4913382177
 20
222.1157553318
 11
100.4913382177
 21
232.3520156069
  0
POLYLINE
  8
AXES
 62
7
  6
CONTINUOUS
 66
1
 70
0
  0
VERTEX
  8
AXES
 62
7
  6
CONTINUOUS
 10
100.4913382177
 20
225.7809963946
  0
VERTEX
  8
AXES
 62
7
  6
CONTINUOUS
 10
100.4875533286
 20
225.7406592823
  0
VERTEX
  8
AXES
 62
7
  6
CONTINUOUS
 10
100.4774464864
 20
225.7066841089
  0
VERTEX
  8
AXES
 62
7
  6
CONTINUOUS
 10
100.4622902373
 20
225.6783329442
  0
VERTEX
  8
AXES
 62
7
  6
CONTINUOUS
 10
100.443421427
 20
225.6556957063
  0
VERTEX
  8
AXES
 62
7
  6
CONTINUOUS
 10
100.4220303513
 20
225.6384787467
  0
VERTEX
  8
AXES
 62
7
  6
CONTINUOUS
 10
100.3982400846
 20
225.6258853195
  0
VERTEX
  8
AXES
 62
7
  6
CONTINUOUS
 10
100.3731550938
 20
225.6180356053
  0
SEQEND
  0
LINE
  8
0
 62
7
  6
CONTINUOUS
 10
106.4913094914
 20
222.1157554423
 11
106.4913094914
 21
232.3520156069
  0
LINE
  8
0
 62
7
  6
CONTINUOUS
 10
107.7913238545
 20
225.0026598828
 11
107.7913238545
 21
221.2520156069
  0
LINE
  8
0
 62
7
  6
CONTINUOUS
 10
114.9913382177
 20
221.8520156069
 11
114.9913382177
 21
232.3520156069
  0
LINE
  8
0
 62
7
  6
CONTINUOUS
 10
120.9913094914
 20
221.8520156069
 11
120.9913094914
 21
232.3520156069
  0
LINE
  8
0
 62
7
  6
CONTINUOUS
 10
128.7453382177
 20
221.8520156069
 11
128.7453382177
 21
232.3520156069
  0
LINE
  8
0
 62
7
  6
CONTINUOUS
 10
134.7453094914
 20
221.8520156069
 11
134.7453094914
 21
232.3520156069
  0
LINE
  8
0
 62
7
  6
CONTINUOUS
 10
141.8413238545
 20
221.8520156069
 11
141.8413238545
 21
232.3520156069
  0
LINE
  8
0
 62
7
  6
CONTINUOUS
 10
147.8413238545
 20
221.8520156069
 11
147.8413238545
 21
232.3520156069
  0
LINE
  8
0
 62
7
  6
CONTINUOUS
 10
154.5413238545
 20
221.8520156069
 11
154.5413238545
 21
232.3520156069
  0
LINE
  8
0
 62
7
  6
CONTINUOUS
 10
160.5413238545
 20
221.8520156069
 11
160.5413238545
 21
232.3520156069
  0
POLYLINE
  8
AXES
 62
7
  6
CONTINUOUS
 66
1
 70
0
  0
VERTEX
  8
AXES
 62
7
  6
CONTINUOUS
 10
107.7913238487
 20
225.0020981313
  0
VERTEX
  8
AXES
 62
7
  6
CONTINUOUS
 10
107.7868884164
 20
225.0063766469
  0
VERTEX
  8
AXES
 62
7
  6
CONTINUOUS
 10
107.7700624405
 20
225.019660822
  0
VERTEX
  8
AXES
 62
7
  6
CONTINUOUS
 10
107.7402979092
 20
225.0420133229
  0
VERTEX
  8
AXES
 62
7
  6
CONTINUOUS
 10
107.6972587309
 20
225.0733855684
  0
VERTEX
  8
AXES
 62
7
  6
CONTINUOUS
 10
107.6399547539
 20
225.1140168303
  0
VERTEX
  8
AXES
 62
7
  6
CONTINUOUS
 10
107.5675621966
 20
225.1637541667
  0
VERTEX
  8
AXES
 62
7
  6
CONTINUOUS
 10
107.4795663591
 20
225.221882215
  0
VERTEX
  8
AXES
 62
7
  6
CONTINUOUS
 10
107.3768922317
 20
225.2863469725
  0
VERTEX
  8
AXES
 62
7
  6
CONTINUOUS
 10
107.2618449936
 20
225.3539416386
  0
VERTEX
  8
AXES
 62
7
  6
CONTINUOUS
 10
107.1376759791
 20
225.4208329713
  0
VERTEX
  8
AXES
 62
7
  6
CONTINUOUS
 10
107.0081156101
 20
225.4831628346
  0
VERTEX
  8
AXES
 62
7
  6
CONTINUOUS
 10
106.8754227774
 20
225.5382037869
  0
VERTEX
  8
AXES
 62
7
  6
CONTINUOUS
 10
106.7418795364
 20
225.5836707629
  0
VERTEX
  8
AXES
 62
7
  6
CONTINUOUS
 10
106.6094926153
 20
225.6180356053
  0
SEQEND
  0
LINE
  8
0
 62
7
  6
CONTINUOUS
 10
167.2413238545
 20
221.8520156069
 11
167.2413238545
 21
232.3520156069
  0
LINE
  8
0
 62
7
  6
CONTINUOUS
 10
173.2413238545
 20
221.8520156069
 11
173.2413238545
 21
232.3520156069
  0
LINE
  8
0
 62
7
  6
CONTINUOUS
 10
179.9413238545
 20
221.8520156069
 11
179.9413238545
 21
232.3520156069
  0
LINE
  8
0
 62
7
  6
CONTINUOUS
 10
185.9413238545
 20
221.8520156069
 11
185.9413238545
 21
232.3520156069
  0
LINE
  8
0
 62
7
  6
CONTINUOUS
 10
192.6413238545
 20
221.8520156069
 11
192.6413238545
 21
232.3520156069
  0
LINE
  8
0
 62
7
  6
CONTINUOUS
 10
198.6413238545
 20
221.8520156069
 11
198.6413238545
 21
232.3520156069
  0
POLYLINE
  8
0
 62
7
  6
CONTINUOUS
 66
1
 70
0
  0
VERTEX
  8
0
 62
7
  6
CONTINUOUS
 10
83.0473028263
 20
211.7978822666
  0
VERTEX
  8
0
 62
7
  6
CONTINUOUS
 10
83.0028827992
 20
211.8073702726
  0
VERTEX
  8
0
 62
7
  6
CONTINUOUS
 10
82.9619652683
 20
211.821352291
  0
VERTEX
  8
0
 62
7
  6
CONTINUOUS
 10
82.9236180738
 20
211.8411023536
  0
VERTEX
  8
0
 62
7
  6
CONTINUOUS
 10
82.8883014621
 20
211.8664320517
  0
VERTEX
  8
0
 62
7
  6
CONTINUOUS
 10
82.8568027749
 20
211.8969509556
  0
VERTEX
  8
0
 62
7
  6
CONTINUOUS
 10
82.8301320987
 20
211.9317610583
  0
VERTEX
  8
0
 62
7
  6
CONTINUOUS
 10
82.8089199102
 20
211.9699021262
  0
VERTEX
  8
0
 62
7
  6
CONTINUOUS
 10
82.7933905507
 20
212.0108674815
  0
VERTEX
  8
0
 62
7
  6
CONTINUOUS
 10
82.7838580179
 20
212.0540850407
  0
VERTEX
  8
0
 62
7
  6
CONTINUOUS
 10
82.7806736763
 20
212.09815549
  0
SEQEND
  0
POLYLINE
  8
AXES
 62
7
  6
CONTINUOUS
 66
1
 70
0
  0
VERTEX
  8
AXES
 62
7
  6
CONTINUOUS
 10
106.6094926153
 20
225.6180356053
  0
VERTEX
  8
AXES
 62
7
  6
CONTINUOUS
 10
106.5844076245
 20
225.6258853195
  0
VERTEX
  8
AXES
 62
7
  6
CONTINUOUS
 10
106.5606173578
 20
225.6384787467
  0
VERTEX
  8
AXES
 62
7
  6
CONTINUOUS
 10
106.539226282
 20
225.6556957063
  0
VERTEX
  8
AXES
 62
7
  6
CONTINUOUS
 10
106.5203574717
 20
225.6783329442
  0
VERTEX
  8
AXES
 62
7
  6
CONTINUOUS
 10
106.5052012226
 20
225.7066841089
  0
VERTEX
  8
AXES
 62
7
  6
CONTINUOUS
 10
106.4950943804
 20
225.7406592823
  0
VERTEX
  8
AXES
 62
7
  6
CONTINUOUS
 10
106.4913094914
 20
225.7809963946
  0
SEQEND
  0
LINE
  8
0
 62
7
  6
CONTINUOUS
 10
205.3413238545
 20
221.8520156069
 11
205.3413238545
 21
232.3520156069
  0
LINE
  8
0
 62
7
  6
CONTINUOUS
 10
211.3413238545
 20
221.8520156069
 11
211.3413238545
 21
232.3520156069
  0
LINE
  8
0
 62
7
  6
CONTINUOUS
 10
80.9268116598
 20
207.1041478747
 11
89.6453238545
 21
207.1041478747
  0
POLYLINE
  8
0
 62
7
  6
CONTINUOUS
 66
1
 70
0
  0
VERTEX
  8
0
 62
7
  6
CONTINUOUS
 10
83.0473028263
 20
211.7978822666
  0
VERTEX
  8
0
 62
7
  6
CONTINUOUS
 10
82.9987572185
 20
211.8013970984
  0
VERTEX
  8
0
 62
7
  6
CONTINUOUS
 10
82.9532837428
 20
211.8123709659
  0
VERTEX
  8
0
 62
7
  6
CONTINUOUS
 10
82.9099823099
 20
211.8304001576
  0
VERTEX
  8
0
 62
7
  6
CONTINUOUS
 10
82.8698991543
 20
211.8550907672
  0
VERTEX
  8
0
 62
7
  6
CONTINUOUS
 10
82.8340245106
 20
211.8858900465
  0
VERTEX
  8
0
 62
7
  6
CONTINUOUS
 10
82.8032718586
 20
211.9220848824
  0
VERTEX
  8
0
 62
7
  6
CONTINUOUS
 10
82.7784460835
 20
211.9628099365
  0
VERTEX
  8
0
 62
7
  6
CONTINUOUS
 10
82.7602164763
 20
212.0070518756
  0
VERTEX
  8
0
 62
7
  6
CONTINUOUS
 10
82.7490726202
 20
212.0537128021
  0
SEQEND
  0
POLYLINE
  8
0
 62
7
  6
CONTINUOUS
 66
1
 70
0
  0
VERTEX
  8
0
 62
7
  6
CONTINUOUS
 10
83.0453238545
 20
211.7641478747
  0
VERTEX
  8
0
 62
7
  6
CONTINUOUS
 10
82.9988920924
 20
211.7678055041
  0
VERTEX
  8
0
 62
7
  6
CONTINUOUS
 10
82.9532199728
 20
211.778807188
  0
VERTEX
  8
0
 62
7
  6
CONTINUOUS
 10
82.9099973304
 20
211.7967842637
  0
VERTEX
  8
0
 62
7
  6
CONTINUOUS
 10
82.8699665132
 20
211.8214011485
  0
VERTEX
  8
0
 62
7
  6
CONTINUOUS
 10
82.8338280249
 20
211.8524067656
  0
VERTEX
  8
0
 62
7
  6
CONTINUOUS
 10
82.8029047413
 20
211.8888654367
  0
VERTEX
  8
0
 62
7
  6
CONTINUOUS
 10
82.7782309669
 20
211.9294540069
  0
VERTEX
  8
0
 62
7
  6
CONTINUOUS
 10
82.7601476881
 20
211.9734269373
  0
VERTEX
  8
0
 62
7
  6
CONTINUOUS
 10
82.749032959
 20
212.0200671085
  0
VERTEX
  8
0
 62
7
  6
CONTINUOUS
 10
82.7453238545
 20
212.0676355799
  0
SEQEND
  0
POLYLINE
  8
0
 62
7
  6
CONTINUOUS
 66
1
 70
0
  0
VERTEX
  8
0
 62
7
  6
CONTINUOUS
 10
107.4240584338
 20
221.1241483201
  0
VERTEX
  8
0
 62
7
  6
CONTINUOUS
 10
107.4963501791
 20
221.1125033911
  0
VERTEX
  8
0
 62
7
  6
CONTINUOUS
 10
107.5555039219
 20
221.104801101
  0
VERTEX
  8
0
 62
7
  6
CONTINUOUS
 10
107.6003712115
 20
221.1020156069
  0
SEQEND
  0
LINE
  8
0
 62
7
  6
CONTINUOUS
 10
218.0413238545
 20
221.8520156069
 11
218.0413238545
 21
232.3520156069
  0
LINE
  8
0
 62
7
  6
CONTINUOUS
 10
224.0413238545
 20
221.8520156069
 11
224.0413238545
 21
232.3520156069
  0
POLYLINE
  8
0
 62
7
  6
CONTINUOUS
 66
1
 70
0
  0
VERTEX
  8
0
 62
7
  6
CONTINUOUS
 10
88.6453238545
 20
211.7641478747
  0
VERTEX
  8
0
 62
7
  6
CONTINUOUS
 10
88.8526007564
 20
211.7660032119
  0
VERTEX
  8
0
 62
7
  6
CONTINUOUS
 10
89.0588935435
 20
211.7715582896
  0
VERTEX
  8
0
 62
7
  6
CONTINUOUS
 10
89.2607660186
 20
211.7806494339
  0
VERTEX
  8
0
 62
7
  6
CONTINUOUS
 10
89.4551811445
 20
211.7929469956
  0
VERTEX
  8
0
 62
7
  6
CONTINUOUS
 10
89.6416949083
 20
211.8081944509
  0
VERTEX
  8
0
 62
7
  6
CONTINUOUS
 10
89.8181367892
 20
211.825981627
  0
VERTEX
  8
0
 62
7
  6
CONTINUOUS
 10
89.9814613827
 20
211.8456994329
  0
VERTEX
  8
0
 62
7
  6
CONTINUOUS
 10
90.1294520565
 20
211.8667103984
  0
VERTEX
  8
0
 62
7
  6
CONTINUOUS
 10
90.2619456873
 20
211.8886487076
  0
VERTEX
  8
0
 62
7
  6
CONTINUOUS
 10
90.376863197
 20
211.9108709434
  0
VERTEX
  8
0
 62
7
  6
CONTINUOUS
 10
90.4722540318
 20
211.9326768292
  0
VERTEX
  8
0
 62
7
  6
CONTINUOUS
 10
90.5472316101
 20
211.9535394457
  0
VERTEX
  8
0
 62
7
  6
CONTINUOUS
 10
90.6016114499
 20
211.9731793361
  0
VERTEX
  8
0
 62
7
  6
CONTINUOUS
 10
90.6344296667
 20
211.9911192906
  0
VERTEX
  8
0
 62
7
  6
CONTINUOUS
 10
90.6453238545
 20
212.0069717495
  0
SEQEND
  0
LINE
  8
0
 62
7
  6
CONTINUOUS
 10
83.0453238545
 20
211.7641478747
 11
88.6453238545
 21
211.7641478747
  0
LINE
  8
0
 62
7
  6
CONTINUOUS
 10
83.1953233009
 20
212.0570286147
 11
90.6453238545
 21
212.0570286147
  0
LINE
  8
0
 62
7
  6
CONTINUOUS
 10
77.6413238545
 20
221.1020156069
 11
223.2913238545
 21
221.1020156069
  0
LINE
  8
0
 62
7
  6
CONTINUOUS
 10
83.0779877366
 20
211.7977132212
 11
83.0453238545
 21
211.7977361409
  0
POLYLINE
  8
0
 62
7
  6
CONTINUOUS
 66
1
 70
0
  0
VERTEX
  8
0
 62
7
  6
CONTINUOUS
 10
106.3141595219
 20
221.2448933216
  0
VERTEX
  8
0
 62
7
  6
CONTINUOUS
 10
106.4577246089
 20
221.2420278304
  0
VERTEX
  8
0
 62
7
  6
CONTINUOUS
 10
106.6001653885
 20
221.234923031
  0
VERTEX
  8
0
 62
7
  6
CONTINUOUS
 10
106.7403013318
 20
221.223897846
  0
VERTEX
  8
0
 62
7
  6
CONTINUOUS
 10
106.8763534578
 20
221.2095359328
  0
VERTEX
  8
0
 62
7
  6
CONTINUOUS
 10
107.00609632
 20
221.1927231936
  0
VERTEX
  8
0
 62
7
  6
CONTINUOUS
 10
107.1274607938
 20
221.1745566468
  0
VERTEX
  8
0
 62
7
  6
CONTINUOUS
 10
107.2385605861
 20
221.1562598158
  0
VERTEX
  8
0
 62
7
  6
CONTINUOUS
 10
107.4240584338
 20
221.1241483201
  0
SEQEND
  0
POLYLINE
  8
0
 62
7
  6
CONTINUOUS
 66
1
 70
0
  0
VERTEX
  8
0
 62
7
  6
CONTINUOUS
 10
99.3822767269
 20
221.1020156069
  0
VERTEX
  8
0
 62
7
  6
CONTINUOUS
 10
99.4222569537
 20
221.1043106932
  0
VERTEX
  8
0
 62
7
  6
CONTINUOUS
 10
99.4744900754
 20
221.1107749421
  0
VERTEX
  8
0
 62
7
  6
CONTINUOUS
 10
99.5393530897
 20
221.1209228116
  0
VERTEX
  8
0
 62
7
  6
CONTINUOUS
 10
99.7048125859
 20
221.1495174245
  0
SEQEND
  0
LINE
  8
AXES
 62
2
  6
CENTER
 10
77.4913238545
 20
227.1020156069
 11
219.6913238545
 21
227.1020156069
  0
LINE
  8
0
 62
7
  6
CONTINUOUS
 10
81.8085360562
 20
233.1020156069
 11
223.2913238545
 21
233.1020156069
  0
POLYLINE
  8
0
 62
7
  6
CONTINUOUS
 66
1
 70
0
  0
VERTEX
  8
0
 62
7
  6
CONTINUOUS
 10
99.7048125859
 20
221.1495174245
  0
VERTEX
  8
0
 62
7
  6
CONTINUOUS
 10
99.8036364268
 20
221.1662340703
  0
VERTEX
  8
0
 62
7
  6
CONTINUOUS
 10
99.9115404213
 20
221.1832599256
  0
VERTEX
  8
0
 62
7
  6
CONTINUOUS
 10
100.0270603968
 20
221.1996105319
  0
VERTEX
  8
0
 62
7
  6
CONTINUOUS
 10
100.1485953359
 20
221.2143736109
  0
VERTEX
  8
0
 62
7
  6
CONTINUOUS
 10
100.2745543321
 20
221.2267778567
  0
VERTEX
  8
0
 62
7
  6
CONTINUOUS
 10
100.4037238674
 20
221.2362481731
  0
VERTEX
  8
0
 62
7
  6
CONTINUOUS
 10
100.535348489
 20
221.2423819947
  0
VERTEX
  8
0
 62
7
  6
CONTINUOUS
 10
100.6686276215
 20
221.2448956903
  0
SEQEND
  0
POLYLINE
  8
AXES
 62
7
  6
CONTINUOUS
 66
1
 70
0
  0
VERTEX
  8
AXES
 62
7
  6
CONTINUOUS
 10
100.3731550938
 20
225.6180356053
  0
VERTEX
  8
AXES
 62
7
  6
CONTINUOUS
 10
100.2407784759
 20
225.583673863
  0
VERTEX
  8
AXES
 62
7
  6
CONTINUOUS
 10
100.1072594266
 20
225.5382168573
  0
VERTEX
  8
AXES
 62
7
  6
CONTINUOUS
 10
99.9746059099
 20
225.4831960111
  0
VERTEX
  8
AXES
 62
7
  6
CONTINUOUS
 10
99.8450644952
 20
225.420880424
  0
VERTEX
  8
AXES
 62
7
  6
CONTINUOUS
 10
99.720911647
 20
225.3540031719
  0
VERTEX
  8
AXES
 62
7
  6
CONTINUOUS
 10
99.6058702314
 20
225.2864169059
  0
VERTEX
  8
AXES
 62
7
  6
CONTINUOUS
 10
99.5031820391
 20
225.221947239
  0
VERTEX
  8
AXES
 62
7
  6
CONTINUOUS
 10
99.4151545619
 20
225.1638007848
  0
VERTEX
  8
AXES
 62
7
  6
CONTINUOUS
 10
99.3427349309
 20
225.114046173
  0
VERTEX
  8
AXES
 62
7
  6
CONTINUOUS
 10
99.2854143205
 20
225.0734038037
  0
VERTEX
  8
AXES
 62
7
  6
CONTINUOUS
 10
99.2423621078
 20
225.0420224265
  0
VERTEX
  8
AXES
 62
7
  6
CONTINUOUS
 10
99.2125882991
 20
225.0196631451
  0
VERTEX
  8
AXES
 62
7
  6
CONTINUOUS
 10
99.1957600386
 20
225.0063772716
  0
VERTEX
  8
AXES
 62
7
  6
CONTINUOUS
 10
99.1913238603
 20
225.0020981431
  0
SEQEND
  0
LINE
  8
0
 62
7
  6
CONTINUOUS
 10
77.6073468303
 20
232.1289976943
 11
81.774559032
 21
233.098116811
  0
LINE
  8
0
 62
7
  6
CONTINUOUS
 10
77.4913238545
 20
146.046299526
 11
77.4913238545
 21
134.5954017977
  0
LINE
  8
0
 62
7
  6
CONTINUOUS
 10
82.7453238545
 20
134.0633438903
 11
82.7453238545
 21
147.6111483593
  0
LINE
  8
0
 62
7
  6
CONTINUOUS
 10
84.8663382177
 20
115.0377160439
 11
84.8663382177
 21
119.0262280856
  0
LINE
  8
0
 62
7
  6
CONTINUOUS
 10
85.6163238545
 20
122.0711042438
 11
85.6163238545
 21
125.3504641066
  0
POLYLINE
  8
0
 62
7
  6
CONTINUOUS
 66
1
 70
0
  0
VERTEX
  8
0
 62
7
  6
CONTINUOUS
 10
90.6453238545
 20
139.0542889487
  0
VERTEX
  8
0
 62
7
  6
CONTINUOUS
 10
90.6344394976
 20
139.2627325841
  0
VERTEX
  8
0
 62
7
  6
CONTINUOUS
 10
90.6017134226
 20
139.4694709678
  0
VERTEX
  8
0
 62
7
  6
CONTINUOUS
 10
90.5475783004
 20
139.6711018262
  0
VERTEX
  8
0
 62
7
  6
CONTINUOUS
 10
90.4730361001
 20
139.8647100178
  0
VERTEX
  8
0
 62
7
  6
CONTINUOUS
 10
90.3782772087
 20
140.0499567842
  0
VERTEX
  8
0
 62
7
  6
CONTINUOUS
 10
90.2641184462
 20
140.2247434238
  0
VERTEX
  8
0
 62
7
  6
CONTINUOUS
 10
90.1324031771
 20
140.3861843487
  0
VERTEX
  8
0
 62
7
  6
CONTINUOUS
 10
89.9851093116
 20
140.5322508489
  0
VERTEX
  8
0
 62
7
  6
CONTINUOUS
 10
89.8222933579
 20
140.6628946686
  0
VERTEX
  8
0
 62
7
  6
CONTINUOUS
 10
89.6460503736
 20
140.7761342999
  0
VERTEX
  8
0
 62
7
  6
CONTINUOUS
 10
89.4593604103
 20
140.8701228491
  0
VERTEX
  8
0
 62
7
  6
CONTINUOUS
 10
89.2644317796
 20
140.9440363303
  0
VERTEX
  8
0
 62
7
  6
CONTINUOUS
 10
89.0616766794
 20
140.9976938348
  0
VERTEX
  8
0
 62
7
  6
CONTINUOUS
 10
88.8541408298
 20
141.0301089075
  0
VERTEX
  8
0
 62
7
  6
CONTINUOUS
 10
88.6453238545
 20
141.0408813705
  0
SEQEND
  0
LINE
  8
0
 62
7
  6
CONTINUOUS
 10
90.1163238545
 20
122.0711042438
 11
90.1163238545
 21
126.7518259516
  0
LINE
  8
0
 62
7
  6
CONTINUOUS
 10
90.6453238545
 20
139.0542889487
 11
90.6453238545
 21
136.2165514986
  0
LINE
  8
0
 62
7
  6
CONTINUOUS
 10
90.8663094914
 20
115.0377160439
 11
90.8663094914
 21
119.0262280856
  0
LINE
  8
0
 62
7
  6
CONTINUOUS
 10
92.9873238545
 20
147.3518259516
 11
92.9873238545
 21
143.1005080959
  0
LINE
  8
0
 62
7
  6
CONTINUOUS
 10
93.7413238545
 20
135.8018259516
 11
93.7413238545
 21
140.0395521372
  0
LINE
  8
0
 62
7
  6
CONTINUOUS
 10
98.2413238545
 20
135.9018259516
 11
98.2413238545
 21
140.0395476594
  0
LINE
  8
0
 62
7
  6
CONTINUOUS
 10
98.9953238545
 20
143.1002884263
 11
98.9953238545
 21
147.3518259516
  0
LINE
  8
0
 62
7
  6
CONTINUOUS
 10
100.4913382177
 20
115.0377160439
 11
100.4913382177
 21
119.0262280856
  0
LINE
  8
0
 62
7
  6
CONTINUOUS
 10
101.2413238545
 20
127.7518259516
 11
101.2413238545
 21
122.0711042438
  0
LINE
  8
AXES
 62
7
  6
CONTINUOUS
 10
85.4709214152
 20
121.4342011063
 11
84.8709214152
 21
119.0630241935
  0
LINE
  8
0
 62
7
  6
CONTINUOUS
 10
84.8709214152
 20
119.0630241935
 11
85.6010465295
 21
121.9484505508
  0
LINE
  8
0
 62
7
  6
CONTINUOUS
 10
98.2566011796
 20
140.1622013524
 11
98.990740657
 21
143.0634923185
  0
LINE
  8
0
 62
7
  6
CONTINUOUS
 10
90.8617262938
 20
119.0630241935
 11
90.1316011796
 21
121.9484505508
  0
LINE
  8
0
 62
7
  6
CONTINUOUS
 10
93.7260486927
 20
140.1621972808
 11
92.9919064031
 21
143.0637145528
  0
LINE
  8
0
 62
7
  6
CONTINUOUS
 10
105.7413238545
 20
127.9018259516
 11
105.7413238545
 21
122.0711042438
  0
LINE
  8
0
 62
7
  6
CONTINUOUS
 10
106.4913094914
 20
115.0377160439
 11
106.4913094914
 21
119.0262280856
  0
LINE
  8
0
 62
7
  6
CONTINUOUS
 10
107.9873238545
 20
147.3518259516
 11
107.9873238545
 21
143.1002884263
  0
LINE
  8
0
 62
7
  6
CONTINUOUS
 10
108.7413238545
 20
140.0395476594
 11
108.7413238545
 21
135.9018259516
  0
LINE
  8
0
 62
7
  6
CONTINUOUS
 10
113.2413238545
 20
135.4018259516
 11
113.2413238545
 21
140.0395476594
  0
LINE
  8
0
 62
7
  6
CONTINUOUS
 10
113.9953238545
 20
143.1002884263
 11
113.9953238545
 21
147.3518259516
  0
LINE
  8
0
 62
7
  6
CONTINUOUS
 10
114.9913382177
 20
115.0377160439
 11
114.9913382177
 21
119.0262280856
  0
LINE
  8
0
 62
7
  6
CONTINUOUS
 10
115.7413238545
 20
122.0711042438
 11
115.7413238545
 21
127.9018259516
  0
LINE
  8
0
 62
7
  6
CONTINUOUS
 10
101.2260465295
 20
121.9484505508
 11
100.4959214152
 21
119.0630241935
  0
LINE
  8
0
 62
7
  6
CONTINUOUS
 10
113.2566011796
 20
140.1622013524
 11
113.990740657
 21
143.0634923185
  0
POLYLINE
  8
0
 62
7
  6
CONTINUOUS
 66
1
 70
0
  0
VERTEX
  8
0
 62
7
  6
CONTINUOUS
 10
82.7453238545
 20
141.0878773165
  0
VERTEX
  8
0
 62
7
  6
CONTINUOUS
 10
82.7489866283
 20
141.0805559925
  0
VERTEX
  8
0
 62
7
  6
CONTINUOUS
 10
82.7599801972
 20
141.0733676653
  0
VERTEX
  8
0
 62
7
  6
CONTINUOUS
 10
82.7779018866
 20
141.0665785578
  0
VERTEX
  8
0
 62
7
  6
CONTINUOUS
 10
82.8024075972
 20
141.0602993954
  0
VERTEX
  8
0
 62
7
  6
CONTINUOUS
 10
82.8331966644
 20
141.0546454197
  0
VERTEX
  8
0
 62
7
  6
CONTINUOUS
 10
82.8692823691
 20
141.0498233787
  0
VERTEX
  8
0
 62
7
  6
CONTINUOUS
 10
82.9093515873
 20
141.0459856974
  0
VERTEX
  8
0
 62
7
  6
CONTINUOUS
 10
82.9527032515
 20
141.0431772203
  0
VERTEX
  8
0
 62
7
  6
CONTINUOUS
 10
82.9985963102
 20
141.0414549489
  0
VERTEX
  8
0
 62
7
  6
CONTINUOUS
 10
83.0453238545
 20
141.0408813705
  0
SEQEND
  0
LINE
  8
0
 62
7
  6
CONTINUOUS
 10
105.7566011796
 20
121.9484505508
 11
106.4867262938
 21
119.0630241935
  0
LINE
  8
0
 62
7
  6
CONTINUOUS
 10
107.991907052
 20
143.0634923185
 11
108.7260465295
 21
140.1622013524
  0
LINE
  8
0
 62
7
  6
CONTINUOUS
 10
120.2413238545
 20
127.9018259516
 11
120.2413238545
 21
122.0711042438
  0
LINE
  8
0
 62
7
  6
CONTINUOUS
 10
120.9913094914
 20
115.0377160439
 11
120.9913094914
 21
119.0262280856
  0
LINE
  8
0
 62
7
  6
CONTINUOUS
 10
121.9873238545
 20
147.3518259516
 11
121.9873238545
 21
143.1002884263
  0
LINE
  8
0
 62
7
  6
CONTINUOUS
 10
122.7413238545
 20
140.0395476594
 11
122.7413238545
 21
135.4018259516
  0
LINE
  8
0
 62
7
  6
CONTINUOUS
 10
127.2453238545
 20
135.4018259516
 11
127.2453238545
 21
140.0395476594
  0
LINE
  8
0
 62
7
  6
CONTINUOUS
 10
127.9993238545
 20
143.1002884263
 11
127.9993238545
 21
147.3518259516
  0
LINE
  8
0
 62
7
  6
CONTINUOUS
 10
128.7453382177
 20
115.0316040993
 11
128.7453382177
 21
119.0262280856
  0
LINE
  8
0
 62
7
  6
CONTINUOUS
 10
129.4953238545
 20
122.0711042438
 11
129.4953238545
 21
127.9018259516
  0
LINE
  8
AXES
 62
7
  6
CONTINUOUS
 10
115.5959214152
 20
121.4342011063
 11
114.9959214152
 21
119.0630241935
  0
LINE
  8
0
 62
7
  6
CONTINUOUS
 10
114.9959214152
 20
119.0630241935
 11
115.7260465295
 21
121.9484505508
  0
LINE
  8
0
 62
7
  6
CONTINUOUS
 10
127.2606011796
 20
140.1622013524
 11
127.994740657
 21
143.0634923185
  0
LINE
  8
0
 62
7
  6
CONTINUOUS
 10
120.2566011796
 20
121.9484505508
 11
120.9867262938
 21
119.0630241935
  0
LINE
  8
0
 62
7
  6
CONTINUOUS
 10
121.991907052
 20
143.0634923185
 11
122.7260465295
 21
140.1622013524
  0
LINE
  8
0
 62
7
  6
CONTINUOUS
 10
133.9953238545
 20
128.2678259516
 11
133.9953238545
 21
122.0711042438
  0
LINE
  8
0
 62
7
  6
CONTINUOUS
 10
134.7453094914
 20
115.0316040993
 11
134.7453094914
 21
119.0262280856
  0
LINE
  8
0
 62
7
  6
CONTINUOUS
 10
135.4913238545
 20
147.3518259516
 11
135.4913238545
 21
143.1002884263
  0
LINE
  8
0
 62
7
  6
CONTINUOUS
 10
136.2453238545
 20
140.0395476594
 11
136.2453238545
 21
135.4018259516
  0
LINE
  8
0
 62
7
  6
CONTINUOUS
 10
140.7373238545
 20
140.0395476594
 11
140.7373238545
 21
135.8558259516
  0
LINE
  8
0
 62
7
  6
CONTINUOUS
 10
141.4913238545
 20
143.1002884263
 11
141.4913238545
 21
147.3518259516
  0
LINE
  8
0
 62
7
  6
CONTINUOUS
 10
141.8413238545
 20
115.5523362088
 11
141.8413238545
 21
119.0262280856
  0
LINE
  8
0
 62
7
  6
CONTINUOUS
 10
142.5913238545
 20
122.0711610064
 11
142.5913238545
 21
128.2678259516
  0
LINE
  8
0
 62
7
  6
CONTINUOUS
 10
128.7499214152
 20
119.0630241935
 11
129.4800465295
 21
121.9484505508
  0
LINE
  8
0
 62
7
  6
CONTINUOUS
 10
141.486740657
 20
143.0634923185
 11
140.7526011796
 21
140.1622013524
  0
LINE
  8
0
 62
7
  6
CONTINUOUS
 10
134.0106011796
 20
121.9484505508
 11
134.7407262938
 21
119.0630241935
  0
LINE
  8
0
 62
7
  6
CONTINUOUS
 10
135.495907052
 20
143.0634923185
 11
136.2300465295
 21
140.1622013524
  0
LINE
  8
0
 62
7
  6
CONTINUOUS
 10
147.0913238545
 20
128.2678259516
 11
147.0913238545
 21
122.0711610064
  0
LINE
  8
0
 62
7
  6
CONTINUOUS
 10
147.8413238545
 20
115.5523362088
 11
147.8413238545
 21
119.0262280856
  0
LINE
  8
0
 62
7
  6
CONTINUOUS
 10
148.1913238545
 20
147.3518259516
 11
148.1913238545
 21
143.1002884263
  0
LINE
  8
0
 62
7
  6
CONTINUOUS
 10
148.9453238545
 20
135.8558259516
 11
148.9453238545
 21
140.0395476594
  0
LINE
  8
0
 62
7
  6
CONTINUOUS
 10
153.4373238545
 20
140.0395476594
 11
153.4373238545
 21
135.8558259516
  0
LINE
  8
0
 62
7
  6
CONTINUOUS
 10
154.1913238545
 20
143.1002884263
 11
154.1913238545
 21
147.3518259516
  0
LINE
  8
0
 62
7
  6
CONTINUOUS
 10
154.5413238545
 20
115.5523362088
 11
154.5413238545
 21
119.0262280856
  0
LINE
  8
0
 62
7
  6
CONTINUOUS
 10
155.2913238545
 20
122.0711610064
 11
155.2913238545
 21
128.2678259516
  0
LINE
  8
AXES
 62
7
  6
CONTINUOUS
 10
142.445907052
 20
121.4342011063
 11
141.845907052
 21
119.0630241935
  0
LINE
  8
0
 62
7
  6
CONTINUOUS
 10
141.845907052
 20
119.0630241935
 11
142.5760465295
 21
121.9485073135
  0
LINE
  8
0
 62
7
  6
CONTINUOUS
 10
154.186740657
 20
143.0634923185
 11
153.4526011796
 21
140.1622013524
  0
LINE
  8
0
 62
7
  6
CONTINUOUS
 10
147.1066011796
 20
121.9485073135
 11
147.836740657
 21
119.0630241935
  0
LINE
  8
0
 62
7
  6
CONTINUOUS
 10
148.9300465295
 20
140.1622013524
 11
148.195907052
 21
143.0634923185
  0
LINE
  8
0
 62
7
  6
CONTINUOUS
 10
159.7913238545
 20
128.2678259516
 11
159.7913238545
 21
122.0711610064
  0
LINE
  8
0
 62
7
  6
CONTINUOUS
 10
160.5413238545
 20
115.5523362088
 11
160.5413238545
 21
119.0262280856
  0
LINE
  8
0
 62
7
  6
CONTINUOUS
 10
160.8913238545
 20
147.3518259516
 11
160.8913238545
 21
143.1002884263
  0
LINE
  8
0
 62
7
  6
CONTINUOUS
 10
161.6453238545
 20
135.8558259516
 11
161.6453238545
 21
140.0395476594
  0
LINE
  8
0
 62
7
  6
CONTINUOUS
 10
166.1373238545
 20
140.0395476594
 11
166.1373238545
 21
135.8558259516
  0
LINE
  8
0
 62
7
  6
CONTINUOUS
 10
166.8913238545
 20
143.1002884263
 11
166.8913238545
 21
147.3518259516
  0
LINE
  8
0
 62
7
  6
CONTINUOUS
 10
167.2413238545
 20
115.5523362088
 11
167.2413238545
 21
119.0262280856
  0
LINE
  8
0
 62
7
  6
CONTINUOUS
 10
167.9913238545
 20
122.0711610064
 11
167.9913238545
 21
128.2678259516
  0
LINE
  8
0
 62
7
  6
CONTINUOUS
 10
172.4913238545
 20
128.2678259516
 11
172.4913238545
 21
122.0711610064
  0
LINE
  8
AXES
 62
7
  6
CONTINUOUS
 10
155.145907052
 20
121.4342011063
 11
154.545907052
 21
119.0630241935
  0
LINE
  8
0
 62
7
  6
CONTINUOUS
 10
154.545907052
 20
119.0630241935
 11
155.2760465295
 21
121.9485073135
  0
LINE
  8
0
 62
7
  6
CONTINUOUS
 10
166.886740657
 20
143.0634923185
 11
166.1526011796
 21
140.1622013524
  0
LINE
  8
AXES
 62
7
  6
CONTINUOUS
 10
167.845907052
 20
121.4342011063
 11
167.245907052
 21
119.0630241935
  0
LINE
  8
0
 62
7
  6
CONTINUOUS
 10
167.245907052
 20
119.0630241935
 11
167.9760465295
 21
121.9485073135
  0
LINE
  8
0
 62
7
  6
CONTINUOUS
 10
159.8066011796
 20
121.9485073135
 11
160.536740657
 21
119.0630241935
  0
LINE
  8
0
 62
7
  6
CONTINUOUS
 10
161.6300465295
 20
140.1622013524
 11
160.895907052
 21
143.0634923185
  0
LINE
  8
0
 62
7
  6
CONTINUOUS
 10
172.5066011796
 20
121.9485073135
 11
173.236740657
 21
119.0630241935
  0
LINE
  8
0
 62
7
  6
CONTINUOUS
 10
173.2413238545
 20
115.5523362088
 11
173.2413238545
 21
119.0262280856
  0
LINE
  8
0
 62
7
  6
CONTINUOUS
 10
173.5913238545
 20
147.3518259516
 11
173.5913238545
 21
143.1002884263
  0
LINE
  8
0
 62
7
  6
CONTINUOUS
 10
174.3453238545
 20
135.8558259516
 11
174.3453238545
 21
140.0395476594
  0
LINE
  8
0
 62
7
  6
CONTINUOUS
 10
178.8373238545
 20
140.0395476594
 11
178.8373238545
 21
135.8558259516
  0
LINE
  8
0
 62
7
  6
CONTINUOUS
 10
179.5913238545
 20
143.1002884263
 11
179.5913238545
 21
147.3518259516
  0
LINE
  8
0
 62
7
  6
CONTINUOUS
 10
179.9413238545
 20
115.5523362088
 11
179.9413238545
 21
119.0262280856
  0
LINE
  8
0
 62
7
  6
CONTINUOUS
 10
180.6913238545
 20
122.0711610064
 11
180.6913238545
 21
128.2678259516
  0
LINE
  8
0
 62
7
  6
CONTINUOUS
 10
185.1913238545
 20
128.2678259516
 11
185.1913238545
 21
122.0711610064
  0
LINE
  8
0
 62
7
  6
CONTINUOUS
 10
185.9413238545
 20
115.5523362088
 11
185.9413238545
 21
119.0262280856
  0
LINE
  8
0
 62
7
  6
CONTINUOUS
 10
186.2913238545
 20
147.3518259516
 11
186.2913238545
 21
143.1002884263
  0
LINE
  8
0
 62
7
  6
CONTINUOUS
 10
187.0453238545
 20
135.8558259516
 11
187.0453238545
 21
140.0395476594
  0
LINE
  8
0
 62
7
  6
CONTINUOUS
 10
179.586740657
 20
143.0634923185
 11
178.8526011796
 21
140.1622013524
  0
LINE
  8
AXES
 62
7
  6
CONTINUOUS
 10
180.545907052
 20
121.4342011063
 11
179.945907052
 21
119.0630241935
  0
LINE
  8
0
 62
7
  6
CONTINUOUS
 10
179.945907052
 20
119.0630241935
 11
180.6760465295
 21
121.9485073135
  0
LINE
  8
0
 62
7
  6
CONTINUOUS
 10
79.4815701849
 20
131.7704180584
 11
81.6358669687
 21
131.0003707969
  0
LINE
  8
0
 62
7
  6
CONTINUOUS
 10
174.3300465295
 20
140.1622013524
 11
173.595907052
 21
143.0634923185
  0
LINE
  8
0
 62
7
  6
CONTINUOUS
 10
185.2066011796
 20
121.9485073135
 11
185.936740657
 21
119.0630241935
  0
LINE
  8
0
 62
7
  6
CONTINUOUS
 10
191.5373238545
 20
140.0395476594
 11
191.5373238545
 21
135.8558259516
  0
LINE
  8
0
 62
7
  6
CONTINUOUS
 10
192.2913238545
 20
143.1002884263
 11
192.2913238545
 21
147.3518259516
  0
LINE
  8
0
 62
7
  6
CONTINUOUS
 10
192.6413238545
 20
115.5523362088
 11
192.6413238545
 21
119.0262280856
  0
LINE
  8
0
 62
7
  6
CONTINUOUS
 10
193.3913238545
 20
122.0711610064
 11
193.3913238545
 21
128.2678259516
  0
LINE
  8
0
 62
7
  6
CONTINUOUS
 10
197.8913238545
 20
128.2678259516
 11
197.8913238545
 21
122.0711610064
  0
LINE
  8
0
 62
7
  6
CONTINUOUS
 10
198.6413238545
 20
115.5523362088
 11
198.6413238545
 21
119.0262280856
  0
LINE
  8
0
 62
7
  6
CONTINUOUS
 10
198.9913238545
 20
147.3518259516
 11
198.9913238545
 21
143.1002884263
  0
LINE
  8
0
 62
7
  6
CONTINUOUS
 10
199.7453238545
 20
135.8558259516
 11
199.7453238545
 21
140.0395476594
  0
LINE
  8
0
 62
7
  6
CONTINUOUS
 10
192.286740657
 20
143.0634923185
 11
191.5526011796
 21
140.1622013524
  0
LINE
  8
AXES
 62
7
  6
CONTINUOUS
 10
193.245907052
 20
121.4342011063
 11
192.645907052
 21
119.0630241935
  0
LINE
  8
0
 62
7
  6
CONTINUOUS
 10
192.645907052
 20
119.0630241935
 11
193.3760465295
 21
121.9485073135
  0
LINE
  8
0
 62
7
  6
CONTINUOUS
 10
82.6458124317
 20
147.7523960268
 11
80.8328001416
 21
148.4004521161
  0
LINE
  8
0
 62
7
  6
CONTINUOUS
 10
187.0300465295
 20
140.1622013524
 11
186.295907052
 21
143.0634923185
  0
LINE
  8
0
 62
7
  6
CONTINUOUS
 10
197.9066011796
 20
121.9485073135
 11
198.636740657
 21
119.0630241935
  0
LINE
  8
0
 62
7
  6
CONTINUOUS
 10
204.2373238545
 20
140.0395476594
 11
204.2373238545
 21
135.8558259516
  0
LINE
  8
0
 62
7
  6
CONTINUOUS
 10
204.9913238545
 20
143.1002884263
 11
204.9913238545
 21
147.3518259516
  0
LINE
  8
0
 62
7
  6
CONTINUOUS
 10
205.3413238545
 20
115.5523362088
 11
205.3413238545
 21
119.0262280856
  0
LINE
  8
0
 62
7
  6
CONTINUOUS
 10
206.0913238545
 20
122.0711610064
 11
206.0913238545
 21
128.2678259516
  0
LINE
  8
0
 62
7
  6
CONTINUOUS
 10
210.5913238545
 20
128.2678259516
 11
210.5913238545
 21
122.0711610064
  0
LINE
  8
0
 62
7
  6
CONTINUOUS
 10
211.3413238545
 20
115.5523362088
 11
211.3413238545
 21
119.0262280856
  0
LINE
  8
0
 62
7
  6
CONTINUOUS
 10
211.6913238545
 20
147.3518259516
 11
211.6913238545
 21
143.1002884263
  0
LINE
  8
0
 62
7
  6
CONTINUOUS
 10
212.4453238545
 20
135.8558259516
 11
212.4453238545
 21
140.0395476594
  0
LINE
  8
0
 62
7
  6
CONTINUOUS
 10
204.986740657
 20
143.0634923185
 11
204.2526011796
 21
140.1622013524
  0
LINE
  8
0
 62
7
  6
CONTINUOUS
 10
205.345907052
 20
119.0630241935
 11
206.0760465295
 21
121.9485073135
  0
LINE
  8
0
 62
7
  6
CONTINUOUS
 10
216.9526011796
 20
140.1622013524
 11
217.686740657
 21
143.0634923185
  0
LINE
  8
0
 62
7
  6
CONTINUOUS
 10
87.3663238545
 20
114.0018259516
 11
88.3663238545
 21
114.0018259516
  0
LINE
  8
0
 62
7
  6
CONTINUOUS
 10
102.9913238545
 20
114.0018259516
 11
103.9913238545
 21
114.0018259516
  0
LINE
  8
0
 62
7
  6
CONTINUOUS
 10
117.4913238545
 20
114.0018259516
 11
118.4913238545
 21
114.0018259516
  0
LINE
  8
0
 62
7
  6
CONTINUOUS
 10
131.2453238545
 20
114.0018259516
 11
132.2453238545
 21
114.0018259516
  0
LINE
  8
DEFAULT_1
 62
2
  6
CENTER
 10
75.1458073088
 20
118.3518259516
 11
221.6261988545
 21
118.3518259516
  0
LINE
  8
0
 62
7
  6
CONTINUOUS
 10
199.7300465295
 20
140.1622013524
 11
198.995907052
 21
143.0634923185
  0
LINE
  8
0
 62
7
  6
CONTINUOUS
 10
210.6066011796
 20
121.9485073135
 11
211.336740657
 21
119.0630241935
  0
LINE
  8
0
 62
7
  6
CONTINUOUS
 10
212.4300465295
 20
140.1622013524
 11
211.695907052
 21
143.0634923185
  0
LINE
  8
0
 62
7
  6
CONTINUOUS
 10
216.9373238545
 20
135.8558259516
 11
216.9373238545
 21
140.0395476594
  0
LINE
  8
0
 62
7
  6
CONTINUOUS
 10
217.6913238545
 20
143.1002884263
 11
217.6913238545
 21
147.3518259516
  0
LINE
  8
0
 62
7
  6
CONTINUOUS
 10
218.0413238545
 20
115.5523362088
 11
218.0413238545
 21
119.0262280856
  0
LINE
  8
0
 62
7
  6
CONTINUOUS
 10
218.7913238545
 20
122.0711610064
 11
218.7913238545
 21
128.2678259516
  0
LINE
  8
0
 62
7
  6
CONTINUOUS
 10
223.2913238545
 20
122.0711610064
 11
223.2913238545
 21
130.7518259516
  0
LINE
  8
0
 62
7
  6
CONTINUOUS
 10
224.0413238545
 20
115.5523362088
 11
224.0413238545
 21
119.0262280856
  0
LINE
  8
0
 62
7
  6
CONTINUOUS
 10
218.045907052
 20
119.0630241935
 11
218.7760465295
 21
121.9485073135
  0
LINE
  8
0
 62
7
  6
CONTINUOUS
 10
216.7913238545
 20
130.2678259516
 11
212.5913238545
 21
130.2678259516
  0
LINE
  8
0
 62
7
  6
CONTINUOUS
 10
204.0913238545
 20
130.2678259516
 11
199.8913238545
 21
130.2678259516
  0
LINE
  8
0
 62
7
  6
CONTINUOUS
 10
191.3913238545
 20
130.2678259516
 11
187.1913238545
 21
130.2678259516
  0
LINE
  8
0
 62
7
  6
CONTINUOUS
 10
178.6913238545
 20
130.2678259516
 11
174.4913238545
 21
130.2678259516
  0
LINE
  8
0
 62
7
  6
CONTINUOUS
 10
165.9913238545
 20
130.2678259516
 11
161.7913238545
 21
130.2678259516
  0
LINE
  8
0
 62
7
  6
CONTINUOUS
 10
153.2913238545
 20
130.2678259516
 11
149.0913238545
 21
130.2678259516
  0
LINE
  8
0
 62
7
  6
CONTINUOUS
 10
140.5913238545
 20
130.2678259516
 11
135.9953238545
 21
130.2678259516
  0
LINE
  8
0
 62
7
  6
CONTINUOUS
 10
126.7953238545
 20
130.6018259516
 11
122.9413238545
 21
130.6018259516
  0
LINE
  8
0
 62
7
  6
CONTINUOUS
 10
113.0413238545
 20
130.6018259516
 11
108.4413238545
 21
130.6018259516
  0
LINE
  8
0
 62
7
  6
CONTINUOUS
 10
94.1163238545
 20
130.7518259516
 11
98.2413238545
 21
130.7518259516
  0
LINE
  8
0
 62
7
  6
CONTINUOUS
 10
87.4913238545
 20
131.3018259516
 11
89.2413238545
 21
131.3018259516
  0
LINE
  8
0
 62
7
  6
CONTINUOUS
 10
104.2413238545
 20
131.4018259516
 11
102.7413238545
 21
131.4018259516
  0
LINE
  8
0
 62
7
  6
CONTINUOUS
 10
132.3953238545
 20
131.5518259516
 11
131.0953238545
 21
131.5518259516
  0
LINE
  8
0
 62
7
  6
CONTINUOUS
 10
118.8913238545
 20
131.5518259516
 11
117.0913238545
 21
131.5518259516
  0
LINE
  8
0
 62
7
  6
CONTINUOUS
 10
222.2913238545
 20
131.7518259516
 11
221.0413238545
 21
131.7518259516
  0
LINE
  8
0
 62
7
  6
CONTINUOUS
 10
224.036740657
 20
119.0630241935
 11
223.3066011796
 21
121.9485073135
  0
POLYLINE
  8
0
 62
7
  6
CONTINUOUS
 66
1
 70
0
  0
VERTEX
  8
0
 62
7
  6
CONTINUOUS
 10
88.6453238545
 20
134.220485349
  0
VERTEX
  8
0
 62
7
  6
CONTINUOUS
 10
88.8526007564
 20
134.2312245309
  0
VERTEX
  8
0
 62
7
  6
CONTINUOUS
 10
89.0588935435
 20
134.2635897023
  0
VERTEX
  8
0
 62
7
  6
CONTINUOUS
 10
89.2607660186
 20
134.3172588801
  0
VERTEX
  8
0
 62
7
  6
CONTINUOUS
 10
89.4551811445
 20
134.3913121761
  0
VERTEX
  8
0
 62
7
  6
CONTINUOUS
 10
89.6416949083
 20
134.4856160931
  0
VERTEX
  8
0
 62
7
  6
CONTINUOUS
 10
89.8181367892
 20
134.5994300216
  0
VERTEX
  8
0
 62
7
  6
CONTINUOUS
 10
89.9814613827
 20
134.7309407416
  0
VERTEX
  8
0
 62
7
  6
CONTINUOUS
 10
90.1294520565
 20
134.8781376963
  0
VERTEX
  8
0
 62
7
  6
CONTINUOUS
 10
90.2619456873
 20
135.0409257473
  0
VERTEX
  8
0
 62
7
  6
CONTINUOUS
 10
90.376863197
 20
135.2171911208
  0
VERTEX
  8
0
 62
7
  6
CONTINUOUS
 10
90.4722540318
 20
135.4038901378
  0
VERTEX
  8
0
 62
7
  6
CONTINUOUS
 10
90.5472316101
 20
135.5987245131
  0
VERTEX
  8
0
 62
7
  6
CONTINUOUS
 10
90.6016114499
 20
135.8012188363
  0
VERTEX
  8
0
 62
7
  6
CONTINUOUS
 10
90.6344296667
 20
136.0083304619
  0
VERTEX
  8
0
 62
7
  6
CONTINUOUS
 10
90.6453238545
 20
136.2165514986
  0
SEQEND
  0
POLYLINE
  8
0
 62
7
  6
CONTINUOUS
 66
1
 70
0
  0
VERTEX
  8
0
 62
7
  6
CONTINUOUS
 10
82.8338280249
 20
134.2189447844
  0
VERTEX
  8
0
 62
7
  6
CONTINUOUS
 10
82.8029047413
 20
134.2183083959
  0
VERTEX
  8
0
 62
7
  6
CONTINUOUS
 10
82.7782309669
 20
134.2175999198
  0
VERTEX
  8
0
 62
7
  6
CONTINUOUS
 10
82.7601476881
 20
134.2168323694
  0
VERTEX
  8
0
 62
7
  6
CONTINUOUS
 10
82.749032959
 20
134.2160182622
  0
VERTEX
  8
0
 62
7
  6
CONTINUOUS
 10
82.7453238545
 20
134.2151879514
  0
SEQEND
  0
LINE
  8
0
 62
7
  6
CONTINUOUS
 10
82.9099973304
 20
134.2199156787
 11
82.8338280249
 21
134.2189447844
  0
LINE
  8
0
 62
7
  6
CONTINUOUS
 10
82.9988920924
 20
134.2204215049
 11
82.9099973304
 21
134.2199156787
  0
LINE
  8
0
 62
7
  6
CONTINUOUS
 10
82.9988920924
 20
134.2204215049
 11
88.6453238545
 21
134.220485349
  0
LINE
  8
0
 62
7
  6
CONTINUOUS
 10
82.7453238545
 20
140.8408813705
 11
83.0779877285
 21
140.8408813705
  0
LINE
  8
0
 62
7
  6
CONTINUOUS
 10
83.0453238545
 20
141.0408813705
 11
88.6453238545
 21
141.0408813705
  0
LINE
  8
AXES
 62
2
  6
CENTER
 10
77.4913238545
 20
143.7518259516
 11
219.6913238545
 21
143.7518259516
  0
LINE
  8
0
 62
7
  6
CONTINUOUS
 10
83.0779877366
 20
134.420485349
 11
82.7453238545
 21
134.420485349
  0
LINE
  8
0
 62
7
  6
CONTINUOUS
 10
93.7373238545
 20
148.1018259516
 11
98.2453238545
 21
148.1018259516
  0
LINE
  8
0
 62
7
  6
CONTINUOUS
 10
108.7373238545
 20
148.1018259516
 11
113.2453238545
 21
148.1018259516
  0
LINE
  8
0
 62
7
  6
CONTINUOUS
 10
122.7373238545
 20
148.1018259516
 11
127.2493238545
 21
148.1018259516
  0
LINE
  8
0
 62
7
  6
CONTINUOUS
 10
136.2413238545
 20
148.1018259516
 11
140.7413238545
 21
148.1018259516
  0
LINE
  8
0
 62
7
  6
CONTINUOUS
 10
148.9413238545
 20
148.1018259516
 11
153.4413238545
 21
148.1018259516
  0
LINE
  8
0
 62
7
  6
CONTINUOUS
 10
161.6413238545
 20
148.1018259516
 11
166.1413238545
 21
148.1018259516
  0
LINE
  8
0
 62
7
  6
CONTINUOUS
 10
174.3413238545
 20
148.1018259516
 11
178.8413238545
 21
148.1018259516
  0
LINE
  8
0
 62
7
  6
CONTINUOUS
 10
187.0413238545
 20
148.1018259516
 11
191.5413238545
 21
148.1018259516
  0
LINE
  8
0
 62
7
  6
CONTINUOUS
 10
199.7413238545
 20
148.1018259516
 11
204.2413238545
 21
148.1018259516
  0
LINE
  8
0
 62
7
  6
CONTINUOUS
 10
212.4413238545
 20
148.1018259516
 11
216.9413238545
 21
148.1018259516
  0
LINE
  8
0
 62
7
  6
CONTINUOUS
 10
293.6398890878
 20
114.0018259516
 11
297.6398890878
 21
114.0018259516
  0
LINE
  8
0
 62
7
  6
CONTINUOUS
 10
275.6420213556
 20
135.2863242133
 11
275.6420213556
 21
139.4465797113
  0
LINE
  8
DEFAULT_1
 62
2
  6
CENTER
 10
300.8898890878
 20
118.3518259516
 11
297.6399890878
 21
118.3518259516
  0
LINE
  8
0
 62
2
  6
CONTINUOUS
 10
296.6898890878
 20
118.3518259516
 11
294.5898890878
 21
118.3518259516
  0
LINE
  8
DEFAULT_1
 62
2
  6
CENTER
 10
290.3898890878
 20
118.3518259516
 11
293.6397890878
 21
118.3518259516
  0
POLYLINE
  8
0
 62
7
  6
CONTINUOUS
 66
1
 70
0
  0
VERTEX
  8
0
 62
7
  6
CONTINUOUS
 10
290.0585875878
 20
146.1019061282
  0
VERTEX
  8
0
 62
7
  6
CONTINUOUS
 10
289.9392162178
 20
145.7745514012
  0
VERTEX
  8
0
 62
7
  6
CONTINUOUS
 10
289.8309706964
 20
145.4081086181
  0
VERTEX
  8
0
 62
7
  6
CONTINUOUS
 10
289.7464888014
 20
145.0341881361
  0
VERTEX
  8
0
 62
7
  6
CONTINUOUS
 10
289.6862337836
 20
144.6543305678
  0
VERTEX
  8
0
 62
7
  6
CONTINUOUS
 10
289.6506126395
 20
144.2701022493
  0
VERTEX
  8
0
 62
7
  6
CONTINUOUS
 10
289.639889213
 20
143.9128247145
  0
SEQEND
  0
LINE
  8
0
 62
7
  6
CONTINUOUS
 10
289.6398890878
 20
118.0018259516
 11
289.6398890878
 21
144.1018259516
  0
LINE
  8
0
 62
7
  6
CONTINUOUS
 10
276.6245689492
 20
134.2846755196
 11
289.2468700504
 21
134.0643524343
  0
LINE
  8
AXES
 62
7
  6
CONTINUOUS
 10
293.5398890878
 20
118.3518259516
 11
293.5398890878
 21
126.4018259516
  0
LINE
  8
AXES
 62
2
  6
CENTER
 10
295.6398890878
 20
149.0018259516
 11
295.6398890878
 21
147.8518259516
  0
LINE
  8
AXES
 62
2
  6
CONTINUOUS
 10
295.6398890878
 20
144.8018259516
 11
295.6398890878
 21
142.7018259516
  0
LINE
  8
DEFAULT_1
 62
2
  6
CENTER
 10
295.6398890878
 20
123.6018259516
 11
295.6398890878
 21
120.3519259516
  0
LINE
  8
0
 62
2
  6
CONTINUOUS
 10
295.6398890878
 20
119.4018259516
 11
295.6398890878
 21
117.3018259516
  0
LINE
  8
DEFAULT_1
 62
2
  6
CENTER
 10
295.6398890878
 20
113.1018259516
 11
295.6398890878
 21
116.3517259516
  0
LINE
  8
AXES
 62
2
  6
CENTER
 10
295.6398890878
 20
138.5018259516
 11
295.6398890878
 21
139.6518259516
  0
LINE
  8
AXES
 62
7
  6
CONTINUOUS
 10
297.7398890878
 20
118.3518259516
 11
297.7398890878
 21
126.4018259516
  0
POLYLINE
  8
0
 62
7
  6
CONTINUOUS
 66
1
 70
0
  0
VERTEX
  8
0
 62
7
  6
CONTINUOUS
 10
301.6398888614
 20
142.423266559
  0
VERTEX
  8
0
 62
7
  6
CONTINUOUS
 10
301.6390231988
 20
142.5261186006
  0
VERTEX
  8
0
 62
7
  6
CONTINUOUS
 10
301.6351065861
 20
142.6691159616
  0
VERTEX
  8
0
 62
7
  6
CONTINUOUS
 10
301.627853269
 20
142.8198357045
  0
VERTEX
  8
0
 62
7
  6
CONTINUOUS
 10
301.6172621095
 20
142.9759737604
  0
VERTEX
  8
0
 62
7
  6
CONTINUOUS
 10
301.6034818452
 20
143.1355430622
  0
VERTEX
  8
0
 62
7
  6
CONTINUOUS
 10
301.586694637
 20
143.297465451
  0
VERTEX
  8
0
 62
7
  6
CONTINUOUS
 10
301.5670615507
 20
143.4612771806
  0
VERTEX
  8
0
 62
7
  6
CONTINUOUS
 10
301.5447329532
 20
143.626661382
  0
VERTEX
  8
0
 62
7
  6
CONTINUOUS
 10
301.5198465008
 20
143.7933984326
  0
VERTEX
  8
0
 62
7
  6
CONTINUOUS
 10
301.4925006137
 20
143.9615024339
  0
VERTEX
  8
0
 62
7
  6
CONTINUOUS
 10
301.4626995334
 20
144.1314170235
  0
VERTEX
  8
0
 62
7
  6
CONTINUOUS
 10
301.4304071559
 20
144.3036247327
  0
VERTEX
  8
0
 62
7
  6
CONTINUOUS
 10
301.3956057548
 20
144.4783959829
  0
VERTEX
  8
0
 62
7
  6
CONTINUOUS
 10
301.3583687046
 20
144.6554710556
  0
VERTEX
  8
0
 62
7
  6
CONTINUOUS
 10
301.3187900448
 20
144.8345451116
  0
VERTEX
  8
0
 62
7
  6
CONTINUOUS
 10
301.2769659095
 20
145.0153367322
  0
VERTEX
  8
0
 62
7
  6
CONTINUOUS
 10
301.232960074
 20
145.1977099015
  0
VERTEX
  8
0
 62
7
  6
CONTINUOUS
 10
301.1866105424
 20
145.3824348051
  0
VERTEX
  8
0
 62
7
  6
CONTINUOUS
 10
301.1376255335
 20
145.5706219544
  0
VERTEX
  8
0
 62
7
  6
CONTINUOUS
 10
301.0856978338
 20
145.7633080395
  0
VERTEX
  8
0
 62
7
  6
CONTINUOUS
 10
301.0305387593
 20
145.9613014332
  0
VERTEX
  8
0
 62
7
  6
CONTINUOUS
 10
300.9719965845
 20
146.1648656344
  0
VERTEX
  8
0
 62
7
  6
CONTINUOUS
 10
300.9099487491
 20
146.3741123616
  0
VERTEX
  8
0
 62
7
  6
CONTINUOUS
 10
300.8442722877
 20
146.5891607146
  0
VERTEX
  8
0
 62
7
  6
CONTINUOUS
 10
300.7748419629
 20
146.8101038706
  0
SEQEND
  0
LINE
  8
0
 62
7
  6
CONTINUOUS
 10
301.6398890878
 20
118.0018259516
 11
301.6398890878
 21
144.1018259516
  0
LINE
  8
0
 62
7
  6
CONTINUOUS
 10
289.3025442459
 20
142.4683245496
 11
276.4853834604
 21
140.4355794567
  0
LINE
  8
AXES
 62
2
  6
CENTER
 10
300.8898890878
 20
143.7518259516
 11
299.7398890878
 21
143.7518259516
  0
LINE
  8
AXES
 62
2
  6
CONTINUOUS
 10
296.6898890878
 20
143.7518259516
 11
294.5898890878
 21
143.7518259516
  0
LINE
  8
AXES
 62
2
  6
CENTER
 10
290.3898890878
 20
143.7518259516
 11
291.5398890878
 21
143.7518259516
  0
LINE
  8
0
 62
7
  6
CONTINUOUS
 10
300.7748419629
 20
146.8101038706
 11
300.7075447808
 21
147.018654447
  0
POLYLINE
  8
0
 62
7
  6
CONTINUOUS
 66
1
 70
0
  0
VERTEX
  8
0
 62
7
  6
CONTINUOUS
 10
293.7599395489
 20
148.5463252927
  0
VERTEX
  8
0
 62
7
  6
CONTINUOUS
 10
293.5233868047
 20
148.5406184749
  0
VERTEX
  8
0
 62
7
  6
CONTINUOUS
 10
293.1958445456
 20
148.5130657249
  0
VERTEX
  8
0
 62
7
  6
CONTINUOUS
 10
292.8868790018
 20
148.4647111147
  0
VERTEX
  8
0
 62
7
  6
CONTINUOUS
 10
292.5958703847
 20
148.397550392
  0
VERTEX
  8
0
 62
7
  6
CONTINUOUS
 10
292.3214205152
 20
148.3130702611
  0
VERTEX
  8
0
 62
7
  6
CONTINUOUS
 10
292.0622118526
 20
148.2123265751
  0
VERTEX
  8
0
 62
7
  6
CONTINUOUS
 10
291.8178051565
 20
148.0963725615
  0
VERTEX
  8
0
 62
7
  6
CONTINUOUS
 10
291.5885548042
 20
147.966579466
  0
VERTEX
  8
0
 62
7
  6
CONTINUOUS
 10
291.3748041711
 20
147.8244653207
  0
VERTEX
  8
0
 62
7
  6
CONTINUOUS
 10
291.1768193666
 20
147.6716991081
  0
VERTEX
  8
0
 62
7
  6
CONTINUOUS
 10
290.9947071594
 20
147.510055756
  0
VERTEX
  8
0
 62
7
  6
CONTINUOUS
 10
290.8284292598
 20
147.3414199231
  0
VERTEX
  8
0
 62
7
  6
CONTINUOUS
 10
290.6777032695
 20
147.1676591085
  0
VERTEX
  8
0
 62
7
  6
CONTINUOUS
 10
290.5416651761
 20
146.9900673445
  0
VERTEX
  8
0
 62
7
  6
CONTINUOUS
 10
290.4193187389
 20
146.8096485583
  0
VERTEX
  8
0
 62
7
  6
CONTINUOUS
 10
290.3096886835
 20
146.6272569704
  0
VERTEX
  8
0
 62
7
  6
CONTINUOUS
 10
290.2118262274
 20
146.443599759
  0
VERTEX
  8
0
 62
7
  6
CONTINUOUS
 10
290.1248048225
 20
146.2592069948
  0
VERTEX
  8
0
 62
7
  6
CONTINUOUS
 10
290.058587756
 20
146.1019060611
  0
SEQEND
  0
LINE
  8
0
 62
7
  6
CONTINUOUS
 10
293.7587646766
 20
148.5463242841
 11
297.521078586
 21
148.5463242745
  0
POLYLINE
  8
0
 62
7
  6
CONTINUOUS
 66
1
 70
0
  0
VERTEX
  8
0
 62
7
  6
CONTINUOUS
 10
300.6845625344
 20
147.0625968947
  0
VERTEX
  8
0
 62
7
  6
CONTINUOUS
 10
300.5531805023
 20
147.2264513168
  0
VERTEX
  8
0
 62
7
  6
CONTINUOUS
 10
300.3904647289
 20
147.4057425837
  0
VERTEX
  8
0
 62
7
  6
CONTINUOUS
 10
300.2128143192
 20
147.576845994
  0
VERTEX
  8
0
 62
7
  6
CONTINUOUS
 10
300.0196528093
 20
147.7386724292
  0
VERTEX
  8
0
 62
7
  6
CONTINUOUS
 10
299.8104044027
 20
147.8900518692
  0
VERTEX
  8
0
 62
7
  6
CONTINUOUS
 10
299.584499407
 20
148.0297178214
  0
VERTEX
  8
0
 62
7
  6
CONTINUOUS
 10
299.3413601083
 20
148.1563025189
  0
VERTEX
  8
0
 62
7
  6
CONTINUOUS
 10
299.0802708442
 20
148.2683679026
  0
VERTEX
  8
0
 62
7
  6
CONTINUOUS
 10
298.8001913244
 20
148.3643859092
  0
VERTEX
  8
0
 62
7
  6
CONTINUOUS
 10
298.4999967266
 20
148.4425369399
  0
VERTEX
  8
0
 62
7
  6
CONTINUOUS
 10
298.1780259731
 20
148.5007221467
  0
VERTEX
  8
0
 62
7
  6
CONTINUOUS
 10
297.8320394132
 20
148.5363263072
  0
VERTEX
  8
0
 62
7
  6
CONTINUOUS
 10
297.5199083688
 20
148.54632561
  0
SEQEND
  0
POLYLINE
  8
0
 62
7
  6
CONTINUOUS
 66
1
 70
0
  0
VERTEX
  8
0
 62
7
  6
CONTINUOUS
 10
300.6845630123
 20
147.0625977118
  0
VERTEX
  8
0
 62
7
  6
CONTINUOUS
 10
300.6971632158
 20
147.0429399126
  0
VERTEX
  8
0
 62
7
  6
CONTINUOUS
 10
300.7065886522
 20
147.0214829725
  0
VERTEX
  8
0
 62
7
  6
CONTINUOUS
 10
300.7075542153
 20
147.0186233759
  0
SEQEND
  0
ARC
  8
0
 62
7
  6
CONTINUOUS
 10
80.9267359883
 20
209.1041478747
 40
2.0
 50
183.5
 51
270.0028131855
  0
ARC
  8
0
 62
7
  6
CONTINUOUS
 10
89.6453236069
 20
208.1041478747
 40
1.0
 50
270.0000141879
 51
360.0
  0
ARC
  8
0
 62
7
  6
CONTINUOUS
 10
83.1953233009
 20
212.357028135
 40
0.2999999929
 50
180.0
 51
270.0
  0
ARC
  8
0
 62
7
  6
CONTINUOUS
 10
90.1163094914
 20
221.8520156069
 40
0.75
 50
270.0
 51
360.0
  0
ARC
  8
0
 62
7
  6
CONTINUOUS
 10
85.6163382177
 20
221.8520156069
 40
0.75
 50
180.0
 51
270.0
  0
ARC
  8
0
 62
7
  6
CONTINUOUS
 10
77.812895659
 20
220.7020156069
 40
0.3999999171
 50
3.5000043567
 51
90.0000713647
  0
ARC
  8
0
 62
7
  6
CONTINUOUS
 10
107.6413238545
 20
221.2520156069
 40
0.15
 50
270.0
 51
360.0
  0
ARC
  8
0
 62
7
  6
CONTINUOUS
 10
99.3413238545
 20
221.2520156069
 40
0.15
 50
180.0
 51
270.0
  0
ARC
  8
0
 62
7
  6
CONTINUOUS
 10
77.6413238545
 20
221.2520156069
 40
0.15
 50
180.0
 51
270.0
  0
ARC
  8
0
 62
7
  6
CONTINUOUS
 10
85.6163382177
 20
232.3520156069
 40
0.75
 50
90.0
 51
180.0
  0
ARC
  8
0
 62
7
  6
CONTINUOUS
 10
90.1163094914
 20
232.3520156069
 40
0.75
 50
0.0
 51
90.0
  0
ARC
  8
0
 62
7
  6
CONTINUOUS
 10
101.2413382177
 20
232.3520156069
 40
0.75
 50
90.0
 51
180.0
  0
ARC
  8
0
 62
7
  6
CONTINUOUS
 10
105.7413094914
 20
232.3520156069
 40
0.75
 50
0.0
 51
90.0
  0
ARC
  8
0
 62
7
  6
CONTINUOUS
 10
81.8085360562
 20
232.9520156069
 40
0.15
 50
90.0
 51
103.0918930643
  0
ARC
  8
0
 62
7
  6
CONTINUOUS
 10
77.6413238545
 20
231.9828964903
 40
0.15
 50
103.0918930644
 51
180.0
  0
ARC
  8
0
 62
7
  6
CONTINUOUS
 10
120.2413094914
 20
221.8520156069
 40
0.75
 50
270.0
 51
360.0
  0
ARC
  8
0
 62
7
  6
CONTINUOUS
 10
115.7413382177
 20
221.8520156069
 40
0.75
 50
180.0
 51
270.0
  0
ARC
  8
0
 62
7
  6
CONTINUOUS
 10
147.0913238545
 20
221.8520156069
 40
0.75
 50
270.0
 51
360.0
  0
ARC
  8
0
 62
7
  6
CONTINUOUS
 10
142.5913238545
 20
221.8520156069
 40
0.75
 50
180.0
 51
270.0
  0
ARC
  8
0
 62
7
  6
CONTINUOUS
 10
133.9953094914
 20
221.8520156069
 40
0.75
 50
270.0
 51
360.0
  0
ARC
  8
0
 62
7
  6
CONTINUOUS
 10
129.4953382177
 20
221.8520156069
 40
0.75
 50
180.0
 51
270.0
  0
ARC
  8
0
 62
7
  6
CONTINUOUS
 10
140.5873238545
 20
221.2520156069
 40
0.15
 50
271.5229755582
 51
281.25
  0
ARC
  8
0
 62
7
  6
CONTINUOUS
 10
149.0953238545
 20
221.2520156069
 40
0.15
 50
258.7500000141
 51
268.477024442
  0
ARC
  8
0
 62
7
  6
CONTINUOUS
 10
115.7413382177
 20
232.3520156069
 40
0.75
 50
90.0
 51
180.0
  0
ARC
  8
0
 62
7
  6
CONTINUOUS
 10
120.2413094914
 20
232.3520156069
 40
0.75
 50
0.0
 51
90.0
  0
ARC
  8
0
 62
7
  6
CONTINUOUS
 10
129.4953382177
 20
232.3520156069
 40
0.75
 50
90.0
 51
180.0
  0
ARC
  8
0
 62
7
  6
CONTINUOUS
 10
133.9953094914
 20
232.3520156069
 40
0.75
 50
0.0
 51
90.0
  0
ARC
  8
0
 62
7
  6
CONTINUOUS
 10
142.5913238545
 20
232.3520156069
 40
0.75
 50
90.0
 51
180.0
  0
ARC
  8
0
 62
7
  6
CONTINUOUS
 10
147.0913238545
 20
232.3520156069
 40
0.75
 50
0.0
 51
90.0
  0
ARC
  8
0
 62
7
  6
CONTINUOUS
 10
185.1913238545
 20
221.8520156069
 40
0.75
 50
270.0
 51
360.0
  0
ARC
  8
0
 62
7
  6
CONTINUOUS
 10
180.6913238545
 20
221.8520156069
 40
0.75
 50
180.0
 51
270.0
  0
ARC
  8
0
 62
7
  6
CONTINUOUS
 10
172.4913238545
 20
221.8520156069
 40
0.75
 50
270.0
 51
360.0
  0
ARC
  8
0
 62
7
  6
CONTINUOUS
 10
167.9913238545
 20
221.8520156069
 40
0.75
 50
180.0
 51
270.0
  0
ARC
  8
0
 62
7
  6
CONTINUOUS
 10
159.7913238545
 20
221.8520156069
 40
0.75
 50
270.0
 51
360.0
  0
ARC
  8
0
 62
7
  6
CONTINUOUS
 10
155.2913238545
 20
221.8520156069
 40
0.75
 50
180.0
 51
270.0
  0
ARC
  8
0
 62
7
  6
CONTINUOUS
 10
178.6873238545
 20
221.2520156069
 40
0.15
 50
271.5229755582
 51
281.25
  0
ARC
  8
0
 62
7
  6
CONTINUOUS
 10
187.1953238545
 20
221.2520156069
 40
0.15
 50
258.7500000141
 51
268.477024442
  0
ARC
  8
0
 62
7
  6
CONTINUOUS
 10
165.9873238545
 20
221.2520156069
 40
0.15
 50
271.5229755582
 51
281.25
  0
ARC
  8
0
 62
7
  6
CONTINUOUS
 10
174.4953238545
 20
221.2520156069
 40
0.15
 50
258.7500000141
 51
268.477024442
  0
ARC
  8
0
 62
7
  6
CONTINUOUS
 10
153.2873238545
 20
221.2520156069
 40
0.15
 50
271.5229755582
 51
281.25
  0
ARC
  8
0
 62
7
  6
CONTINUOUS
 10
161.7953238545
 20
221.2520156069
 40
0.15
 50
258.7500000141
 51
268.477024442
  0
ARC
  8
0
 62
7
  6
CONTINUOUS
 10
185.1913238545
 20
232.3520156069
 40
0.75
 50
0.0
 51
90.0
  0
ARC
  8
0
 62
7
  6
CONTINUOUS
 10
180.6913238545
 20
232.3520156069
 40
0.75
 50
90.0
 51
180.0
  0
ARC
  8
0
 62
7
  6
CONTINUOUS
 10
172.4913238545
 20
232.3520156069
 40
0.75
 50
0.0
 51
90.0
  0
ARC
  8
0
 62
7
  6
CONTINUOUS
 10
167.9913238545
 20
232.3520156069
 40
0.75
 50
90.0
 51
180.0
  0
ARC
  8
0
 62
7
  6
CONTINUOUS
 10
159.7913238545
 20
232.3520156069
 40
0.75
 50
0.0
 51
90.0
  0
ARC
  8
0
 62
7
  6
CONTINUOUS
 10
155.2913238545
 20
232.3520156069
 40
0.75
 50
90.0
 51
180.0
  0
ARC
  8
0
 62
7
  6
CONTINUOUS
 10
223.2913238545
 20
221.8520156069
 40
0.75
 50
270.0
 51
360.0
  0
ARC
  8
0
 62
7
  6
CONTINUOUS
 10
218.7913238545
 20
221.8520156069
 40
0.75
 50
180.0
 51
270.0
  0
ARC
  8
0
 62
7
  6
CONTINUOUS
 10
210.5913238545
 20
221.8520156069
 40
0.75
 50
270.0
 51
360.0
  0
ARC
  8
0
 62
7
  6
CONTINUOUS
 10
206.0913238545
 20
221.8520156069
 40
0.75
 50
180.0
 51
270.0
  0
ARC
  8
0
 62
7
  6
CONTINUOUS
 10
197.8913238545
 20
221.8520156069
 40
0.75
 50
270.0
 51
360.0
  0
ARC
  8
0
 62
7
  6
CONTINUOUS
 10
193.3913238545
 20
221.8520156069
 40
0.75
 50
180.0
 51
270.0
  0
ARC
  8
0
 62
7
  6
CONTINUOUS
 10
204.0873238545
 20
221.2520156069
 40
0.15
 50
271.5229755582
 51
281.25
  0
ARC
  8
0
 62
7
  6
CONTINUOUS
 10
212.5953238545
 20
221.2520156069
 40
0.15
 50
258.7500000141
 51
268.477024442
  0
ARC
  8
0
 62
7
  6
CONTINUOUS
 10
191.3873238545
 20
221.2520156069
 40
0.15
 50
271.5229755582
 51
281.25
  0
ARC
  8
0
 62
7
  6
CONTINUOUS
 10
199.8953238545
 20
221.2520156069
 40
0.15
 50
258.7500000141
 51
268.477024442
  0
ARC
  8
0
 62
7
  6
CONTINUOUS
 10
216.7873238545
 20
221.2520156069
 40
0.15
 50
271.5229755578
 51
281.2499999718
  0
ARC
  8
0
 62
7
  6
CONTINUOUS
 10
223.2913238545
 20
232.3520156069
 40
0.75
 50
0.0
 51
90.0
  0
ARC
  8
0
 62
7
  6
CONTINUOUS
 10
218.7913238545
 20
232.3520156069
 40
0.75
 50
90.0
 51
180.0
  0
ARC
  8
0
 62
7
  6
CONTINUOUS
 10
210.5913238545
 20
232.3520156069
 40
0.75
 50
0.0
 51
90.0
  0
ARC
  8
0
 62
7
  6
CONTINUOUS
 10
206.0913238545
 20
232.3520156069
 40
0.75
 50
90.0
 51
180.0
  0
ARC
  8
0
 62
7
  6
CONTINUOUS
 10
197.8913238545
 20
232.3520156069
 40
0.75
 50
0.0
 51
90.0
  0
ARC
  8
0
 62
7
  6
CONTINUOUS
 10
193.3913238545
 20
232.3520156069
 40
0.75
 50
90.0
 51
180.0
  0
ARC
  8
0
 62
7
  6
CONTINUOUS
 10
103.9913238545
 20
118.5018259516
 40
4.5
 50
270.0
 51
299.9997624355
  0
ARC
  8
0
 62
7
  6
CONTINUOUS
 10
102.9913238545
 20
118.5018259516
 40
4.5
 50
240.0002375645
 51
270.0
  0
ARC
  8
0
 62
7
  6
CONTINUOUS
 10
88.3663238545
 20
118.5018259516
 40
4.5
 50
270.0
 51
299.9997624355
  0
ARC
  8
0
 62
7
  6
CONTINUOUS
 10
87.3663238545
 20
118.5018259516
 40
4.5
 50
240.0002375645
 51
270.0
  0
ARC
  8
AXES
 62
7
  6
CONTINUOUS
 10
100.6913238545
 20
118.3318259516
 40
1.5
 50
94.1260708806
 51
257.7538206432
  0
ARC
  8
0
 62
7
  6
CONTINUOUS
 10
100.9913379062
 20
115.0377161745
 40
0.5000000053
 50
180.0000149619
 51
240.000275953
  0
ARC
  8
0
 62
7
  6
CONTINUOUS
 10
85.3663379062
 20
115.0377161745
 40
0.5000000053
 50
180.0000149619
 51
240.000275953
  0
ARC
  8
0
 62
7
  6
CONTINUOUS
 10
90.3663094914
 20
115.0377160439
 40
0.5
 50
299.9997624355
 51
360.0
  0
ARC
  8
AXES
 62
7
  6
CONTINUOUS
 10
100.5726042176
 20
119.9775493937
 40
0.15
 50
274.1260708806
 51
345.8
  0
ARC
  8
AXES
 62
7
  6
CONTINUOUS
 10
100.3413382177
 20
116.7193712843
 40
0.15
 50
0.0
 51
77.7538206431
  0
ARC
  8
AXES
 62
7
  6
CONTINUOUS
 10
90.7163094914
 20
119.0262280856
 40
0.15
 50
0.0
 51
14.2
  0
ARC
  8
0
 62
7
  6
CONTINUOUS
 10
90.7163092656
 20
119.0262289779
 40
0.15
 50
359.9996591503
 51
14.1996484045
  0
ARC
  8
0
 62
7
  6
CONTINUOUS
 10
100.6413382177
 20
119.0262280856
 40
0.15
 50
165.8
 51
180.0
  0
ARC
  8
0
 62
7
  6
CONTINUOUS
 10
85.0163383939
 20
119.026228782
 40
0.15
 50
165.8002743954
 51
180.0002660079
  0
ARC
  8
AXES
 62
7
  6
CONTINUOUS
 10
85.0163382177
 20
119.0262280856
 40
0.15
 50
165.8
 51
180.0
  0
ARC
  8
AXES
 62
7
  6
CONTINUOUS
 10
79.6163238545
 20
125.3504641066
 40
6.0
 50
4.1303086462
 51
5.3177256585
  0
ARC
  8
0
 62
7
  6
CONTINUOUS
 10
79.6163238545
 20
125.3504641066
 40
6.0
 50
0.0
 51
70.3307143578
  0
ARC
  8
0
 62
7
  6
CONTINUOUS
 10
94.1163238545
 20
126.7518259516
 40
4.0
 50
90.0
 51
180.0
  0
ARC
  8
0
 62
7
  6
CONTINUOUS
 10
98.2413238545
 20
127.7518259516
 40
3.0
 50
0.0
 51
90.0
  0
ARC
  8
0
 62
7
  6
CONTINUOUS
 10
100.7413238545
 20
122.0711042438
 40
0.5
 50
345.8
 51
360.0
  0
ARC
  8
0
 62
7
  6
CONTINUOUS
 10
85.1163238545
 20
122.0711042438
 40
0.5
 50
345.8
 51
360.0
  0
ARC
  8
AXES
 62
7
  6
CONTINUOUS
 10
90.6163238545
 20
122.0711042438
 40
0.5
 50
180.0
 51
194.2
  0
ARC
  8
0
 62
7
  6
CONTINUOUS
 10
90.6163238545
 20
122.0711042438
 40
0.5
 50
180.0
 51
194.2
  0
ARC
  8
0
 62
7
  6
CONTINUOUS
 10
118.4913238545
 20
118.5018259516
 40
4.5
 50
270.0
 51
299.9997624355
  0
ARC
  8
0
 62
7
  6
CONTINUOUS
 10
117.4913238545
 20
118.5018259516
 40
4.5
 50
240.0002375645
 51
270.0
  0
ARC
  8
AXES
 62
7
  6
CONTINUOUS
 10
106.2913238545
 20
118.3318259516
 40
1.5
 50
282.2461793568
 51
85.8739291194
  0
ARC
  8
0
 62
7
  6
CONTINUOUS
 10
129.2453378971
 20
115.0316042336
 40
0.5000000052
 50
180.0000153883
 51
240.3272591796
  0
ARC
  8
0
 62
7
  6
CONTINUOUS
 10
115.4913379062
 20
115.0377161745
 40
0.5000000053
 50
180.0000149619
 51
240.000275953
  0
ARC
  8
0
 62
7
  6
CONTINUOUS
 10
120.4913094914
 20
115.0377160439
 40
0.5
 50
299.9997624355
 51
360.0
  0
ARC
  8
0
 62
7
  6
CONTINUOUS
 10
105.9913094914
 20
115.0377160439
 40
0.5
 50
299.9997624355
 51
360.0
  0
ARC
  8
AXES
 62
7
  6
CONTINUOUS
 10
115.1413382177
 20
119.0262280856
 40
0.15
 50
165.8
 51
180.0
  0
ARC
  8
0
 62
7
  6
CONTINUOUS
 10
115.1413383939
 20
119.026228782
 40
0.15
 50
165.8002743954
 51
180.0002660079
  0
ARC
  8
0
 62
7
  6
CONTINUOUS
 10
106.3413094914
 20
119.0262280856
 40
0.15
 50
0.0
 51
14.2
  0
ARC
  8
AXES
 62
7
  6
CONTINUOUS
 10
106.4100434915
 20
119.9775493937
 40
0.15
 50
194.2
 51
265.8739291194
  0
ARC
  8
AXES
 62
7
  6
CONTINUOUS
 10
106.6413094914
 20
116.7193712843
 40
0.15
 50
102.2461793568
 51
180.0
  0
ARC
  8
0
 62
7
  6
CONTINUOUS
 10
128.8953383939
 20
119.026228782
 40
0.15
 50
165.8002743954
 51
180.0002660079
  0
ARC
  8
AXES
 62
7
  6
CONTINUOUS
 10
128.8953382177
 20
119.0262280856
 40
0.15
 50
165.8
 51
180.0
  0
ARC
  8
AXES
 62
7
  6
CONTINUOUS
 10
120.8413094914
 20
119.0262280856
 40
0.15
 50
0.0
 51
14.2
  0
ARC
  8
0
 62
7
  6
CONTINUOUS
 10
120.8413094914
 20
119.0262280856
 40
0.15
 50
0.0
 51
14.2
  0
ARC
  8
0
 62
7
  6
CONTINUOUS
 10
126.7953238545
 20
127.9018259516
 40
2.7
 50
0.0
 51
90.0
  0
ARC
  8
0
 62
7
  6
CONTINUOUS
 10
113.0413238545
 20
127.9018259516
 40
2.7
 50
0.0
 51
90.0
  0
ARC
  8
0
 62
7
  6
CONTINUOUS
 10
122.9413238545
 20
127.9018259516
 40
2.7
 50
90.0
 51
180.0
  0
ARC
  8
0
 62
7
  6
CONTINUOUS
 10
108.4413238545
 20
127.9018259516
 40
2.7
 50
90.0
 51
180.0
  0
ARC
  8
0
 62
7
  6
CONTINUOUS
 10
128.9953238545
 20
122.0711042438
 40
0.5
 50
345.8
 51
360.0
  0
ARC
  8
0
 62
7
  6
CONTINUOUS
 10
120.7413238545
 20
122.0711042438
 40
0.5
 50
180.0
 51
194.2
  0
ARC
  8
0
 62
7
  6
CONTINUOUS
 10
115.2413238545
 20
122.0711042438
 40
0.5
 50
345.8
 51
360.0
  0
ARC
  8
0
 62
7
  6
CONTINUOUS
 10
106.2413238545
 20
122.0711042438
 40
0.5
 50
180.0
 51
194.2
  0
ARC
  8
0
 62
7
  6
CONTINUOUS
 10
37.8953238545
 20
137.6306833597
 40
45.0
 50
355.9091741788
 51
4.0908258212
  0
ARC
  8
0
 62
7
  6
CONTINUOUS
 10
80.4913238545
 20
134.5953777974
 40
3.0
 50
179.9995416281
 51
250.3310771527
  0
ARC
  8
0
 62
7
  6
CONTINUOUS
 10
79.9913238545
 20
146.0463243247
 40
2.5
 50
70.3307146137
 51
180.0005683457
  0
ARC
  8
0
 62
7
  6
CONTINUOUS
 10
82.5953238545
 20
147.6111481709
 40
0.15
 50
0.0000719716
 51
70.3307388386
  0
ARC
  8
0
 62
7
  6
CONTINUOUS
 10
87.4913238545
 20
136.8018259516
 40
5.5
 50
210.7881902385
 51
270.0
  0
ARC
  8
0
 62
7
  6
CONTINUOUS
 10
102.7413238545
 20
135.9018259516
 40
4.5
 50
180.0
 51
270.0
  0
ARC
  8
0
 62
7
  6
CONTINUOUS
 10
104.2413238545
 20
135.9018259516
 40
4.5
 50
270.0
 51
360.0
  0
ARC
  8
0
 62
7
  6
CONTINUOUS
 10
89.2413238545
 20
135.8018259516
 40
4.5
 50
270.0
 51
360.0
  0
ARC
  8
0
 62
7
  6
CONTINUOUS
 10
117.0913238545
 20
135.4018259516
 40
3.85
 50
180.0
 51
270.0
  0
ARC
  8
0
 62
7
  6
CONTINUOUS
 10
118.8913238545
 20
135.4018259516
 40
3.85
 50
270.0
 51
360.0
  0
ARC
  8
0
 62
7
  6
CONTINUOUS
 10
127.7453238545
 20
140.0395476594
 40
0.5
 50
165.8
 51
180.0
  0
ARC
  8
0
 62
7
  6
CONTINUOUS
 10
122.2413238545
 20
140.0395476594
 40
0.5
 50
0.0
 51
14.2
  0
ARC
  8
0
 62
7
  6
CONTINUOUS
 10
113.7413238545
 20
140.0395476594
 40
0.5
 50
165.8
 51
180.0
  0
ARC
  8
0
 62
7
  6
CONTINUOUS
 10
108.2413238545
 20
140.0395476594
 40
0.5
 50
0.0
 51
14.2
  0
ARC
  8
0
 62
7
  6
CONTINUOUS
 10
98.7413238545
 20
140.0395476594
 40
0.5
 50
165.8
 51
180.0
  0
ARC
  8
0
 62
7
  6
CONTINUOUS
 10
93.2413238545
 20
140.0395521372
 40
0.5
 50
0.0
 51
14.1989894451
  0
ARC
  8
0
 62
7
  6
CONTINUOUS
 10
82.8953238545
 20
134.0633438903
 40
0.15
 50
180.0
 51
210.7881902385
  0
ARC
  8
0
 62
7
  6
CONTINUOUS
 10
93.7373238545
 20
147.3518259516
 40
0.75
 50
90.0
 51
180.0
  0
ARC
  8
0
 62
7
  6
CONTINUOUS
 10
98.2453238545
 20
147.3518259516
 40
0.75
 50
0.0
 51
90.0
  0
ARC
  8
0
 62
7
  6
CONTINUOUS
 10
108.7373238545
 20
147.3518259516
 40
0.75
 50
90.0
 51
180.0
  0
ARC
  8
0
 62
7
  6
CONTINUOUS
 10
113.2453238545
 20
147.3518259516
 40
0.75
 50
0.0
 51
90.0
  0
ARC
  8
0
 62
7
  6
CONTINUOUS
 10
122.7373238545
 20
147.3518259516
 40
0.75
 50
90.0
 51
180.0
  0
ARC
  8
0
 62
7
  6
CONTINUOUS
 10
127.2493238545
 20
147.3518259516
 40
0.75
 50
0.0
 51
90.0
  0
ARC
  8
0
 62
7
  6
CONTINUOUS
 10
93.1373238545
 20
143.1005080959
 40
0.15
 50
180.0
 51
194.1989894452
  0
ARC
  8
0
 62
7
  6
CONTINUOUS
 10
127.8493238545
 20
143.1002884263
 40
0.15
 50
345.8
 51
360.0
  0
ARC
  8
0
 62
7
  6
CONTINUOUS
 10
122.1373240803
 20
143.100287534
 40
0.15
 50
179.9996591503
 51
194.1996484045
  0
ARC
  8
0
 62
7
  6
CONTINUOUS
 10
113.8453238545
 20
143.1002884263
 40
0.15
 50
345.8
 51
360.0
  0
ARC
  8
0
 62
7
  6
CONTINUOUS
 10
108.1373240803
 20
143.100287534
 40
0.15
 50
179.9996591504
 51
194.1996484044
  0
ARC
  8
0
 62
7
  6
CONTINUOUS
 10
98.8453238545
 20
143.1002884263
 40
0.15
 50
345.8
 51
360.0
  0
ARC
  8
0
 62
7
  6
CONTINUOUS
 10
132.2453238545
 20
118.5418259516
 40
4.54
 50
270.0
 51
299.6727803588
  0
ARC
  8
0
 62
7
  6
CONTINUOUS
 10
131.2453238545
 20
118.5418259516
 40
4.54
 50
240.3272196412
 51
270.0
  0
ARC
  8
0
 62
7
  6
CONTINUOUS
 10
144.8413238545
 20
118.0018259516
 40
4.0
 50
224.4153085972
 51
315.5846914028
  0
ARC
  8
0
 62
7
  6
CONTINUOUS
 10
142.3413240615
 20
115.5523359111
 40
0.5000000086
 50
179.9999658822
 51
224.4152676244
  0
ARC
  8
0
 62
7
  6
CONTINUOUS
 10
147.3413238545
 20
115.5523362088
 40
0.5
 50
315.5846914028
 51
360.0
  0
ARC
  8
0
 62
7
  6
CONTINUOUS
 10
134.2453094914
 20
115.0316040993
 40
0.5
 50
299.6727803588
 51
360.0
  0
ARC
  8
0
 62
7
  6
CONTINUOUS
 10
142.0913238545
 20
122.0711610064
 40
0.5
 50
345.8
 51
360.0
  0
ARC
  8
0
 62
7
  6
CONTINUOUS
 10
147.5913238545
 20
122.0711610064
 40
0.5
 50
180.0
 51
194.2
  0
ARC
  8
AXES
 62
7
  6
CONTINUOUS
 10
147.5913238545
 20
122.0711610064
 40
0.5
 50
180.0
 51
194.2
  0
ARC
  8
0
 62
7
  6
CONTINUOUS
 10
134.4953238545
 20
122.0711042438
 40
0.5
 50
180.0
 51
194.2
  0
ARC
  8
0
 62
7
  6
CONTINUOUS
 10
141.9913240307
 20
119.026228782
 40
0.15
 50
165.8002743954
 51
180.0002660079
  0
ARC
  8
AXES
 62
7
  6
CONTINUOUS
 10
141.9913238545
 20
119.0262280856
 40
0.15
 50
165.8
 51
180.0
  0
ARC
  8
AXES
 62
7
  6
CONTINUOUS
 10
134.5953094914
 20
119.0262280856
 40
0.15
 50
0.0
 51
14.2
  0
ARC
  8
0
 62
7
  6
CONTINUOUS
 10
134.5953094914
 20
119.0262280856
 40
0.15
 50
0.0
 51
14.2
  0
ARC
  8
AXES
 62
7
  6
CONTINUOUS
 10
147.6913238545
 20
119.0262280856
 40
0.15
 50
0.0
 51
14.2
  0
ARC
  8
0
 62
7
  6
CONTINUOUS
 10
147.6913238545
 20
119.0262280856
 40
0.15
 50
0.0
 51
14.2
  0
ARC
  8
0
 62
7
  6
CONTINUOUS
 10
170.2413238545
 20
118.0018259516
 40
4.0
 50
224.4153085972
 51
315.5846914028
  0
ARC
  8
0
 62
7
  6
CONTINUOUS
 10
157.5413238545
 20
118.0018259516
 40
4.0
 50
224.4153085972
 51
315.5846914028
  0
ARC
  8
0
 62
7
  6
CONTINUOUS
 10
167.7413240615
 20
115.5523359111
 40
0.5000000086
 50
179.9999658822
 51
224.4152676244
  0
ARC
  8
0
 62
7
  6
CONTINUOUS
 10
155.0413240615
 20
115.5523359111
 40
0.5000000086
 50
179.9999658822
 51
224.4152676244
  0
ARC
  8
0
 62
7
  6
CONTINUOUS
 10
160.0413238545
 20
115.5523362088
 40
0.5
 50
315.5846914028
 51
360.0
  0
ARC
  8
0
 62
7
  6
CONTINUOUS
 10
172.7413238545
 20
115.5523362088
 40
0.5
 50
315.5846914028
 51
360.0
  0
ARC
  8
0
 62
7
  6
CONTINUOUS
 10
167.4913238545
 20
122.0711610064
 40
0.5
 50
345.8
 51
360.0
  0
ARC
  8
0
 62
7
  6
CONTINUOUS
 10
172.9913238545
 20
122.0711610064
 40
0.5
 50
180.0
 51
194.2
  0
ARC
  8
AXES
 62
7
  6
CONTINUOUS
 10
172.9913238545
 20
122.0711610064
 40
0.5
 50
180.0
 51
194.2
  0
ARC
  8
0
 62
7
  6
CONTINUOUS
 10
154.7913238545
 20
122.0711610064
 40
0.5
 50
345.8
 51
360.0
  0
ARC
  8
0
 62
7
  6
CONTINUOUS
 10
160.2913238545
 20
122.0711610064
 40
0.5
 50
180.0
 51
194.2
  0
ARC
  8
AXES
 62
7
  6
CONTINUOUS
 10
160.2913238545
 20
122.0711610064
 40
0.5
 50
180.0
 51
194.2
  0
ARC
  8
0
 62
7
  6
CONTINUOUS
 10
154.6913240307
 20
119.026228782
 40
0.15
 50
165.8002743954
 51
180.0002660079
  0
ARC
  8
AXES
 62
7
  6
CONTINUOUS
 10
154.6913238545
 20
119.0262280856
 40
0.15
 50
165.8
 51
180.0
  0
ARC
  8
0
 62
7
  6
CONTINUOUS
 10
167.3913240307
 20
119.026228782
 40
0.15
 50
165.8002743954
 51
180.0002660079
  0
ARC
  8
AXES
 62
7
  6
CONTINUOUS
 10
167.3913238545
 20
119.0262280856
 40
0.15
 50
165.8
 51
180.0
  0
ARC
  8
AXES
 62
7
  6
CONTINUOUS
 10
160.3913238545
 20
119.0262280856
 40
0.15
 50
0.0
 51
14.2
  0
ARC
  8
0
 62
7
  6
CONTINUOUS
 10
160.3913238545
 20
119.0262280856
 40
0.15
 50
0.0
 51
14.2
  0
ARC
  8
AXES
 62
7
  6
CONTINUOUS
 10
173.0913238545
 20
119.0262280856
 40
0.15
 50
0.0
 51
14.2
  0
ARC
  8
0
 62
7
  6
CONTINUOUS
 10
173.0913238545
 20
119.0262280856
 40
0.15
 50
0.0
 51
14.2
  0
ARC
  8
0
 62
7
  6
CONTINUOUS
 10
165.9913238545
 20
128.2678259516
 40
2.0
 50
0.0
 51
90.0
  0
ARC
  8
0
 62
7
  6
CONTINUOUS
 10
174.4913238545
 20
128.2678259516
 40
2.0
 50
90.0
 51
180.0
  0
ARC
  8
0
 62
7
  6
CONTINUOUS
 10
153.2913238545
 20
128.2678259516
 40
2.0
 50
0.0
 51
90.0
  0
ARC
  8
0
 62
7
  6
CONTINUOUS
 10
161.7913238545
 20
128.2678259516
 40
2.0
 50
90.0
 51
180.0
  0
ARC
  8
0
 62
7
  6
CONTINUOUS
 10
140.5913238545
 20
128.2678259516
 40
2.0
 50
0.0
 51
90.0
  0
ARC
  8
0
 62
7
  6
CONTINUOUS
 10
149.0913238545
 20
128.2678259516
 40
2.0
 50
90.0
 51
180.0
  0
ARC
  8
0
 62
7
  6
CONTINUOUS
 10
135.9953238545
 20
128.2678259516
 40
2.0
 50
90.0
 51
180.0
  0
ARC
  8
0
 62
7
  6
CONTINUOUS
 10
195.6413238545
 20
118.0018259516
 40
4.0
 50
224.4153085972
 51
315.5846914028
  0
ARC
  8
0
 62
7
  6
CONTINUOUS
 10
182.9413238545
 20
118.0018259516
 40
4.0
 50
224.4153085972
 51
315.5846914028
  0
ARC
  8
0
 62
7
  6
CONTINUOUS
 10
193.1413240615
 20
115.5523359111
 40
0.5000000086
 50
179.9999658822
 51
224.4152676244
  0
ARC
  8
0
 62
7
  6
CONTINUOUS
 10
180.4413240615
 20
115.5523359111
 40
0.5000000086
 50
179.9999658822
 51
224.4152676244
  0
ARC
  8
0
 62
7
  6
CONTINUOUS
 10
198.1413238545
 20
115.5523362088
 40
0.5
 50
315.5846914028
 51
360.0
  0
ARC
  8
0
 62
7
  6
CONTINUOUS
 10
185.4413238545
 20
115.5523362088
 40
0.5
 50
315.5846914028
 51
360.0
  0
ARC
  8
0
 62
7
  6
CONTINUOUS
 10
192.8913238545
 20
122.0711610064
 40
0.5
 50
345.8
 51
360.0
  0
ARC
  8
0
 62
7
  6
CONTINUOUS
 10
198.3913238545
 20
122.0711610064
 40
0.5
 50
180.0
 51
194.2
  0
ARC
  8
AXES
 62
7
  6
CONTINUOUS
 10
198.3913238545
 20
122.0711610064
 40
0.5
 50
180.0
 51
194.2
  0
ARC
  8
0
 62
7
  6
CONTINUOUS
 10
180.1913238545
 20
122.0711610064
 40
0.5
 50
345.8
 51
360.0
  0
ARC
  8
0
 62
7
  6
CONTINUOUS
 10
185.6913238545
 20
122.0711610064
 40
0.5
 50
180.0
 51
194.2
  0
ARC
  8
AXES
 62
7
  6
CONTINUOUS
 10
185.6913238545
 20
122.0711610064
 40
0.5
 50
180.0
 51
194.2
  0
ARC
  8
0
 62
7
  6
CONTINUOUS
 10
180.0913240307
 20
119.026228782
 40
0.15
 50
165.8002743954
 51
180.0002660079
  0
ARC
  8
AXES
 62
7
  6
CONTINUOUS
 10
180.0913238545
 20
119.0262280856
 40
0.15
 50
165.8
 51
180.0
  0
ARC
  8
0
 62
7
  6
CONTINUOUS
 10
192.7913240307
 20
119.026228782
 40
0.15
 50
165.8002743954
 51
180.0002660079
  0
ARC
  8
AXES
 62
7
  6
CONTINUOUS
 10
192.7913238545
 20
119.0262280856
 40
0.15
 50
165.8
 51
180.0
  0
ARC
  8
AXES
 62
7
  6
CONTINUOUS
 10
185.7913238545
 20
119.0262280856
 40
0.15
 50
0.0
 51
14.2
  0
ARC
  8
0
 62
7
  6
CONTINUOUS
 10
185.7913238545
 20
119.0262280856
 40
0.15
 50
0.0
 51
14.2
  0
ARC
  8
AXES
 62
7
  6
CONTINUOUS
 10
198.4913238545
 20
119.0262280856
 40
0.15
 50
0.0
 51
14.2
  0
ARC
  8
0
 62
7
  6
CONTINUOUS
 10
198.4913238545
 20
119.0262280856
 40
0.15
 50
0.0
 51
14.2
  0
ARC
  8
0
 62
7
  6
CONTINUOUS
 10
221.0413238545
 20
118.0018259516
 40
4.0
 50
224.4153085972
 51
315.5846914028
  0
ARC
  8
0
 62
7
  6
CONTINUOUS
 10
208.3413238545
 20
118.0018259516
 40
4.0
 50
224.4153085972
 51
315.5846914028
  0
ARC
  8
0
 62
7
  6
CONTINUOUS
 10
218.5413240615
 20
115.5523359111
 40
0.5000000086
 50
179.9999658822
 51
224.4152676244
  0
ARC
  8
0
 62
7
  6
CONTINUOUS
 10
205.8413240615
 20
115.5523359111
 40
0.5000000086
 50
179.9999658822
 51
224.4152676244
  0
ARC
  8
0
 62
7
  6
CONTINUOUS
 10
223.5413238545
 20
115.5523362088
 40
0.5
 50
315.5846914028
 51
360.0
  0
ARC
  8
0
 62
7
  6
CONTINUOUS
 10
210.8413238545
 20
115.5523362088
 40
0.5
 50
315.5846914028
 51
360.0
  0
ARC
  8
0
 62
7
  6
CONTINUOUS
 10
218.2913238545
 20
122.0711610064
 40
0.5
 50
345.8
 51
360.0
  0
ARC
  8
0
 62
7
  6
CONTINUOUS
 10
223.7913238545
 20
122.0711610064
 40
0.5
 50
180.0
 51
194.2
  0
ARC
  8
AXES
 62
7
  6
CONTINUOUS
 10
223.7913238545
 20
122.0711610064
 40
0.5
 50
186.311610126
 51
187.888389874
  0
ARC
  8
0
 62
7
  6
CONTINUOUS
 10
205.5913238545
 20
122.0711610064
 40
0.5
 50
345.8
 51
360.0
  0
ARC
  8
0
 62
7
  6
CONTINUOUS
 10
211.0913238545
 20
122.0711610064
 40
0.5
 50
180.0
 51
194.2
  0
ARC
  8
AXES
 62
7
  6
CONTINUOUS
 10
211.0913238545
 20
122.0711610064
 40
0.5
 50
180.0
 51
194.2
  0
ARC
  8
0
 62
7
  6
CONTINUOUS
 10
223.8913236287
 20
119.0262289779
 40
0.15
 50
359.9996591504
 51
14.1996484044
  0
ARC
  8
AXES
 62
7
  6
CONTINUOUS
 10
223.8913238545
 20
119.0262280856
 40
0.15
 50
0.0
 51
14.2
  0
ARC
  8
0
 62
7
  6
CONTINUOUS
 10
205.4913240307
 20
119.026228782
 40
0.15
 50
165.8002743954
 51
180.0002660079
  0
ARC
  8
AXES
 62
7
  6
CONTINUOUS
 10
205.4913238545
 20
119.0262280856
 40
0.15
 50
165.8
 51
180.0
  0
ARC
  8
0
 62
7
  6
CONTINUOUS
 10
218.1913240307
 20
119.026228782
 40
0.15
 50
165.8002743954
 51
180.0002660079
  0
ARC
  8
AXES
 62
7
  6
CONTINUOUS
 10
218.1913238545
 20
119.0262280856
 40
0.15
 50
165.8
 51
180.0
  0
ARC
  8
AXES
 62
7
  6
CONTINUOUS
 10
211.1913238545
 20
119.0262280856
 40
0.15
 50
0.0
 51
14.2
  0
ARC
  8
0
 62
7
  6
CONTINUOUS
 10
211.1913238545
 20
119.0262280856
 40
0.15
 50
0.0
 51
14.2
  0
ARC
  8
0
 62
7
  6
CONTINUOUS
 10
216.7913238545
 20
128.2678259516
 40
2.0
 50
0.0
 51
90.0
  0
ARC
  8
0
 62
7
  6
CONTINUOUS
 10
204.0913238545
 20
128.2678259516
 40
2.0
 50
0.0
 51
90.0
  0
ARC
  8
0
 62
7
  6
CONTINUOUS
 10
212.5913238545
 20
128.2678259516
 40
2.0
 50
90.0
 51
180.0
  0
ARC
  8
0
 62
7
  6
CONTINUOUS
 10
191.3913238545
 20
128.2678259516
 40
2.0
 50
0.0
 51
90.0
  0
ARC
  8
0
 62
7
  6
CONTINUOUS
 10
199.8913238545
 20
128.2678259516
 40
2.0
 50
90.0
 51
180.0
  0
ARC
  8
0
 62
7
  6
CONTINUOUS
 10
178.6913238545
 20
128.2678259516
 40
2.0
 50
0.0
 51
90.0
  0
ARC
  8
0
 62
7
  6
CONTINUOUS
 10
187.1913238545
 20
128.2678259516
 40
2.0
 50
90.0
 51
180.0
  0
ARC
  8
0
 62
7
  6
CONTINUOUS
 10
222.2913238545
 20
130.7518259516
 40
1.0
 50
0.0
 51
90.0
  0
ARC
  8
0
 62
7
  6
CONTINUOUS
 10
170.2413238545
 20
135.8558259516
 40
4.104
 50
180.0
 51
360.0
  0
ARC
  8
0
 62
7
  6
CONTINUOUS
 10
157.5413238545
 20
135.8558259516
 40
4.104
 50
180.0
 51
360.0
  0
ARC
  8
0
 62
7
  6
CONTINUOUS
 10
144.8413238545
 20
135.8558259516
 40
4.104
 50
180.0
 51
360.0
  0
ARC
  8
0
 62
7
  6
CONTINUOUS
 10
131.0953238545
 20
135.4018259516
 40
3.85
 50
180.0
 51
270.0
  0
ARC
  8
0
 62
7
  6
CONTINUOUS
 10
132.3953238545
 20
135.4018259516
 40
3.85
 50
270.0
 51
360.0
  0
ARC
  8
0
 62
7
  6
CONTINUOUS
 10
166.6373238545
 20
140.0395476594
 40
0.5
 50
165.8
 51
180.0
  0
ARC
  8
0
 62
7
  6
CONTINUOUS
 10
173.8453238545
 20
140.0395476594
 40
0.5
 50
0.0
 51
14.2
  0
ARC
  8
0
 62
7
  6
CONTINUOUS
 10
153.9373238545
 20
140.0395476594
 40
0.5
 50
165.8
 51
180.0
  0
ARC
  8
0
 62
7
  6
CONTINUOUS
 10
161.1453238545
 20
140.0395476594
 40
0.5
 50
0.0
 51
14.2
  0
ARC
  8
0
 62
7
  6
CONTINUOUS
 10
141.2373238545
 20
140.0395476594
 40
0.5
 50
165.8
 51
180.0
  0
ARC
  8
0
 62
7
  6
CONTINUOUS
 10
148.4453238545
 20
140.0395476594
 40
0.5
 50
0.0
 51
14.2
  0
ARC
  8
0
 62
7
  6
CONTINUOUS
 10
135.7453238545
 20
140.0395476594
 40
0.5
 50
0.0
 51
14.2
  0
ARC
  8
0
 62
7
  6
CONTINUOUS
 10
136.2413238545
 20
147.3518259516
 40
0.75
 50
90.0
 51
180.0
  0
ARC
  8
0
 62
7
  6
CONTINUOUS
 10
140.7413238545
 20
147.3518259516
 40
0.75
 50
0.0
 51
90.0
  0
ARC
  8
0
 62
7
  6
CONTINUOUS
 10
148.9413238545
 20
147.3518259516
 40
0.75
 50
90.0
 51
180.0
  0
ARC
  8
0
 62
7
  6
CONTINUOUS
 10
153.4413238545
 20
147.3518259516
 40
0.75
 50
0.0
 51
90.0
  0
ARC
  8
0
 62
7
  6
CONTINUOUS
 10
161.6413238545
 20
147.3518259516
 40
0.75
 50
90.0
 51
180.0
  0
ARC
  8
0
 62
7
  6
CONTINUOUS
 10
166.1413238545
 20
147.3518259516
 40
0.75
 50
0.0
 51
90.0
  0
ARC
  8
0
 62
7
  6
CONTINUOUS
 10
174.3413238545
 20
147.3518259516
 40
0.75
 50
90.0
 51
180.0
  0
ARC
  8
0
 62
7
  6
CONTINUOUS
 10
166.7413236931
 20
143.1002877885
 40
0.15
 50
345.8002513166
 51
0.0002436328
  0
ARC
  8
0
 62
7
  6
CONTINUOUS
 10
173.7413238545
 20
143.1002884263
 40
0.15
 50
180.0
 51
194.2
  0
ARC
  8
0
 62
7
  6
CONTINUOUS
 10
154.0413236931
 20
143.1002877885
 40
0.15
 50
345.8002513166
 51
0.0002436328
  0
ARC
  8
0
 62
7
  6
CONTINUOUS
 10
161.0413238545
 20
143.1002884263
 40
0.15
 50
180.0
 51
194.2
  0
ARC
  8
0
 62
7
  6
CONTINUOUS
 10
141.3413236931
 20
143.1002877885
 40
0.15
 50
345.8002513166
 51
0.0002436328
  0
ARC
  8
0
 62
7
  6
CONTINUOUS
 10
148.3413238545
 20
143.1002884263
 40
0.15
 50
180.0
 51
194.2
  0
ARC
  8
0
 62
7
  6
CONTINUOUS
 10
135.6413240803
 20
143.100287534
 40
0.15
 50
179.9996591504
 51
194.1996484045
  0
ARC
  8
0
 62
7
  6
CONTINUOUS
 10
195.6413238545
 20
135.8558259516
 40
4.104
 50
180.0
 51
360.0
  0
ARC
  8
0
 62
7
  6
CONTINUOUS
 10
182.9413238545
 20
135.8558259516
 40
4.104
 50
180.0
 51
360.0
  0
ARC
  8
0
 62
7
  6
CONTINUOUS
 10
192.0373238545
 20
140.0395476594
 40
0.5
 50
165.8
 51
180.0
  0
ARC
  8
0
 62
7
  6
CONTINUOUS
 10
199.2453238545
 20
140.0395476594
 40
0.5
 50
0.0
 51
14.2
  0
ARC
  8
0
 62
7
  6
CONTINUOUS
 10
179.3373238545
 20
140.0395476594
 40
0.5
 50
165.8
 51
180.0
  0
ARC
  8
0
 62
7
  6
CONTINUOUS
 10
186.5453238545
 20
140.0395476594
 40
0.5
 50
0.0
 51
14.2
  0
ARC
  8
0
 62
7
  6
CONTINUOUS
 10
221.0413238545
 20
135.8558259516
 40
4.104
 50
180.0
 51
270.0
  0
ARC
  8
0
 62
7
  6
CONTINUOUS
 10
208.3413238545
 20
135.8558259516
 40
4.104
 50
180.0
 51
360.0
  0
ARC
  8
0
 62
7
  6
CONTINUOUS
 10
217.4373238545
 20
140.0395476594
 40
0.5
 50
165.8
 51
180.0
  0
ARC
  8
0
 62
7
  6
CONTINUOUS
 10
204.7373238545
 20
140.0395476594
 40
0.5
 50
165.8
 51
180.0
  0
ARC
  8
0
 62
7
  6
CONTINUOUS
 10
211.9453238545
 20
140.0395476594
 40
0.5
 50
0.0
 51
14.2
  0
ARC
  8
0
 62
7
  6
CONTINUOUS
 10
191.5413238545
 20
147.3518259516
 40
0.75
 50
0.0
 51
90.0
  0
ARC
  8
0
 62
7
  6
CONTINUOUS
 10
199.7413238545
 20
147.3518259516
 40
0.75
 50
90.0
 51
180.0
  0
ARC
  8
0
 62
7
  6
CONTINUOUS
 10
204.2413238545
 20
147.3518259516
 40
0.75
 50
0.0
 51
90.0
  0
ARC
  8
0
 62
7
  6
CONTINUOUS
 10
212.4413238545
 20
147.3518259516
 40
0.75
 50
90.0
 51
180.0
  0
ARC
  8
0
 62
7
  6
CONTINUOUS
 10
216.9413238545
 20
147.3518259516
 40
0.75
 50
0.0
 51
90.0
  0
ARC
  8
0
 62
7
  6
CONTINUOUS
 10
178.8413238545
 20
147.3518259516
 40
0.75
 50
0.0
 51
90.0
  0
ARC
  8
0
 62
7
  6
CONTINUOUS
 10
187.0413238545
 20
147.3518259516
 40
0.75
 50
90.0
 51
180.0
  0
ARC
  8
0
 62
7
  6
CONTINUOUS
 10
204.8413236931
 20
143.1002877885
 40
0.15
 50
345.8002513166
 51
0.0002436328
  0
ARC
  8
0
 62
7
  6
CONTINUOUS
 10
211.8413238545
 20
143.1002884263
 40
0.15
 50
180.0
 51
194.2
  0
ARC
  8
0
 62
7
  6
CONTINUOUS
 10
192.1413236931
 20
143.1002877885
 40
0.15
 50
345.8002513166
 51
0.0002436328
  0
ARC
  8
0
 62
7
  6
CONTINUOUS
 10
199.1413238545
 20
143.1002884263
 40
0.15
 50
180.0
 51
194.2
  0
ARC
  8
0
 62
7
  6
CONTINUOUS
 10
179.4413236931
 20
143.1002877885
 40
0.15
 50
345.8002513166
 51
0.0002436328
  0
ARC
  8
0
 62
7
  6
CONTINUOUS
 10
186.4413238545
 20
143.1002884263
 40
0.15
 50
180.0
 51
194.2
  0
ARC
  8
0
 62
7
  6
CONTINUOUS
 10
217.5413238545
 20
143.1002884263
 40
0.15
 50
345.8
 51
360.0
  0
ARC
  8
0
 62
7
  6
CONTINUOUS
 10
276.6420213556
 20
135.2845234406
 40
1.0
 50
180.0000129436
 51
269.0
  0
ARC
  8
0
 62
7
  6
CONTINUOUS
 10
276.6420213556
 20
139.4479233519
 40
1.0
 50
99.0118011229
 51
179.9999996674
  0
ARC
  8
0
 62
7
  6
CONTINUOUS
 10
293.6398890878
 20
118.0018259516
 40
4.0
 50
180.0
 51
270.0
  0
ARC
  8
AXES
 62
7
  6
CONTINUOUS
 10
295.6398890878
 20
118.3518259516
 40
2.1
 50
180.0
 51
360.0
  0
ARC
  8
0
 62
7
  6
CONTINUOUS
 10
297.6398890878
 20
118.0018259516
 40
4.0
 50
270.0
 51
360.0
  0
ARC
  8
AXES
 62
7
  6
CONTINUOUS
 10
295.6398890878
 20
126.4018259516
 40
2.1
 50
0.0
 51
180.0
  0
ARC
  8
0
 62
7
  6
CONTINUOUS
 10
289.2398890878
 20
133.6644133562
 40
0.4
 50
0.0
 51
89.0
  0
ARC
  8
0
 62
7
  6
CONTINUOUS
 10
289.2398890878
 20
142.8633865304
 40
0.3999999245
 50
279.0118114672
 51
0.0000657068
  0
ARC
  8
0
 62
7
  6
CONTINUOUS
 10
293.6398890878
 20
144.1018259516
 40
4.0
 50
168.1117443856
 51
180.0
  0
CIRCLE
  8
0
 62
7
  6
CONTINUOUS
 10
295.6398890878
 20
143.7518259516
 40
2.75
  0
CIRCLE
  8
0
 62
7
  6
CONTINUOUS
 10
295.6398890878
 20
143.7518259516
 40
2.1
  0
ARC
  8
0
 62
7
  6
CONTINUOUS
 10
297.6398890878
 20
144.1018259516
 40
4.0
 50
0.0
 51
35.5189698752
  0
ENDSEC
  0
EOF
