  0
SECTION
  2
HEADER
  9
$EXTMAX
 10
420.0
 20
297.0
 30
0.0
  9
$EXTMIN
 10
0.0
 20
0.0
 30
0.0
  9
$LIMMIN
 10
0.0
 20
0.0
  9
$LIMMAX
 10
420.0
 20
297.0
  9
$VIEWCTR
 10
210.0
 20
148.5
  9
$VIEWSIZE
 40
297.0
  9
$CLAYER
  8
0
  9
$LTSCALE
 40
23.1
  9
$CELTYPE
  6
BYLAYER
  9
$DIMSCALE
 40
1.0
  9
$DIMASZ
 40
3.5
  9
$DIMEXO
 40
2.625
  9
$DIMDLI
 40
15.96
  9
$DIMEXE
 40
7.56
  9
$DIMCEN
 40
3.78
  9
$DIMLFAC
 40
1.0
  9
$DIMBLK
  1
_FILLED
  9
$DIMTXT
 40
3.5
  9
$PDMODE
 70
3
  9
$PDSIZE
 40
0.3125
  9
$TILEMODE
 70
1
  0
ENDSEC
  0
SECTION
  2
TABLES
  0
TABLE
  2
LTYPE
 70
6
  0
LTYPE
  2
BYBLOCK
 70
0
  3

 72
65
 73
0
 40
0.0
  0
LTYPE
  2
BYLAYER
 70
0
  3

 72
65
 73
0
 40
0.0
  0
LTYPE
  2
CONTINUOUS
 70
64
  3
Solid line
 72
65
 73
0
 40
0.0
  0
LTYPE
  2
CENTER
 70
64
  3
____ _ ____ _ ____ _ ____ _ ____ _ ____ _ ____
 72
65
 73
4
 40
0.6
 49
0.375
 49
-0.075
 49
0.075
 49
-0.075
  0
LTYPE
  2
HIDDEN
 70
64
  3
- - - - - - - - - - - - - - - - - - - -
 72
65
 73
2
 40
0.2
 49
0.1
 49
-0.1
  0
LTYPE
  2
PHANTOM
 70
64
  3
_____ _ _ _____ _ _ _____ _ _ _____
 72
65
 73
6
 40
0.8
 49
0.45
 49
-0.05
 49
0.1
 49
-0.05
 49
0.1
 49
-0.05
  0
LTYPE
  2
DOT
 70
64
  3
. . . . . . . . . . . . . . . . . . . .
 72
65
 73
2
 40
0.2
 49
0.1
 49
-0.1
  0
LTYPE
  2
DASHED
 70
64
  3
- - - - - - - - - - - - - - - - - - - -
 72
65
 73
2
 40
0.2
 49
0.1
 49
-0.1
  0
ENDTAB
  0
TABLE
  2
LAYER
 70
36
  0
LAYER
  2
0
 70
0
 62
7
  6
CONTINUOUS
  0
LAYER
  2
DEFAULT_1
 70
0
 62
7
  6
CENTER
  0
LAYER
  2
DEFAULT_2
 70
0
 62
8
  6
HIDDEN
  0
LAYER
  2
DEFAULT_3
 70
0
 62
7
  6
PHANTOM
  0
LAYER
  2
AXES
 70
0
 62
7
  6
CONTINUOUS
  0
LAYER
  2
CSYS
 70
0
 62
7
  6
CONTINUOUS
  0
LAYER
  2
CURVE
 70
0
 62
7
  6
CONTINUOUS
  0
LAYER
  2
CURVES
 70
0
 62
7
  6
CONTINUOUS
  0
LAYER
  2
PLANES
 70
0
 62
7
  6
CONTINUOUS
  0
LAYER
  2
QUILT
 70
0
 62
7
  6
CONTINUOUS
  0
LAYER
  2
SURF-A
 70
0
 62
7
  6
CONTINUOUS
  0
LAYER
  2
SURFACE
 70
0
 62
7
  6
CONTINUOUS
  0
ENDTAB
  0
TABLE
  2
STYLE
 70
1
  0
STYLE
  2
STANDARD
 70
0
 40
0.0
 41
0.8
 50
0.0
 71
0
 42
0.2
  3
txt
  4

  0
STYLE
  2
TEXTSTYLE_1
 70
0
 40
0.0
 41
0.8
 50
0.0
 71
0
 42
0.2
  3
gdt
  4

  0
STYLE
  2
TEXTSTYLE_2
 70
0
 40
0.0
 41
0.6
 50
0.0
 71
0
 42
0.2
  3
txt
  4

  0
STYLE
  2
TEXTSTYLE_3
 70
0
 40
0.0
 41
1.0
 50
0.0
 71
0
 42
0.2
  3
ftb_____.ttf
  4

  0
STYLE
  2
TEXTSTYLE_4
 70
0
 40
0.0
 41
1.0
 50
0.0
 71
0
 42
0.2
  3
fti_____.ttf
  4

  0
STYLE
  2
TEXTSTYLE_5
 70
0
 40
0.0
 41
1.0
 50
0.0
 71
0
 42
0.2
  3
frutiger light.ttf
  4

  0
STYLE
  2
TEXTSTYLE_6
 70
0
 40
0.0
 41
0.7
 50
0.0
 71
0
 42
0.2
  3
txt
  4

  0
STYLE
  2
TEXTSTYLE_7
 70
0
 40
0.0
 41
0.5
 50
0.0
 71
0
 42
0.2
  3
txt
  4

  0
ENDTAB
  0
ENDSEC
  0
SECTION
  2
BLOCKS
  0
BLOCK
  8
0
 62
2
  6
CONTINUOUS
  2
SYMBOL_5_BL1
 70
64
 10
382.7840918555
 20
35.5067593403
  0
TEXT
  8
0
 62
7
  6
CONTINUOUS
 10
373.842376864
 20
30.5995157174
  7
TEXTSTYLE_4
 40
1.0655737705
  1
The brand for plastic modular belts and chains
 41
1.0
 72
0
  0
LINE
  8
0
 62
7
  6
CONTINUOUS
 10
358.7621602445
 20
36.0805298321
 11
358.7621602445
 21
33.9493822911
  0
LINE
  8
0
 62
7
  6
CONTINUOUS
 10
359.0512227376
 20
30.9584509954
 11
359.0512227376
 21
31.0552420547
  0
LINE
  8
0
 62
7
  6
CONTINUOUS
 10
358.7621602445
 20
31.0229783683
 11
358.8199727462
 21
30.8293962497
  0
LINE
  8
0
 62
7
  6
CONTINUOUS
 10
360.1556028675
 20
33.867415078
 11
360.1556028675
 21
36.0805298321
  0
LINE
  8
0
 62
7
  6
CONTINUOUS
 10
361.0746601894
 20
32.0231527829
 11
361.0746601894
 21
30.5067593403
  0
LINE
  8
0
 62
7
  6
CONTINUOUS
 10
361.3637227445
 20
30.5067593403
 11
361.3637227445
 21
31.2488242184
  0
LINE
  8
0
 62
7
  6
CONTINUOUS
 10
361.3637227445
 20
31.3778789641
 11
361.3637227445
 21
32.0231527829
  0
LINE
  8
0
 62
7
  6
CONTINUOUS
 10
358.8199727462
 20
31.216560532
 11
358.7621602445
 21
31.0229783683
  0
LINE
  8
0
 62
7
  6
CONTINUOUS
 10
359.1668477307
 20
30.7971325633
 11
359.0512227376
 21
30.9584509954
  0
LINE
  8
0
 62
7
  6
CONTINUOUS
 10
360.2652852997
 20
31.3133515913
 11
360.3230977445
 21
31.216560532
  0
LINE
  8
0
 62
7
  6
CONTINUOUS
 10
360.6121602997
 20
31.216560532
 11
360.5543476894
 21
31.3456152777
  0
LINE
  8
0
 62
7
  6
CONTINUOUS
 10
362.0408487691
 20
36.0805298321
 11
362.0408487691
 21
34.2772511436
  0
LINE
  8
0
 62
7
  6
CONTINUOUS
 10
362.0408487691
 20
32.9657757338
 11
362.0408487691
 21
32.3100380288
  0
LINE
  8
0
 62
7
  6
CONTINUOUS
 10
362.4043477445
 20
31.1520331591
 11
362.4043477445
 21
30.5067593403
  0
LINE
  8
0
 62
7
  6
CONTINUOUS
 10
362.6934101343
 20
30.5067593403
 11
362.6934101343
 21
31.1520331591
  0
LINE
  8
0
 62
7
  6
CONTINUOUS
 10
359.0512227376
 20
31.0552420547
 11
359.1090352445
 21
31.1842968456
  0
LINE
  8
0
 62
7
  6
CONTINUOUS
 10
358.8199727462
 20
30.8293962497
 11
358.9355977445
 21
30.7003414814
  0
LINE
  8
0
 62
7
  6
CONTINUOUS
 10
362.3465351343
 20
31.2810879048
 11
362.4043477445
 21
31.1520331591
  0
LINE
  8
0
 62
7
  6
CONTINUOUS
 10
363.1559103548
 20
30.7971325633
 11
363.2137226343
 21
30.668077795
  0
LINE
  8
0
 62
7
  6
CONTINUOUS
 10
362.6934101343
 20
31.1520331591
 11
362.6355978548
 21
31.3133515913
  0
LINE
  8
0
 62
7
  6
CONTINUOUS
 10
363.1559103548
 20
31.3456152777
 11
363.1559103548
 21
31.2810879048
  0
LINE
  8
0
 62
7
  6
CONTINUOUS
 10
363.1559103548
 20
30.8939236226
 11
363.1559103548
 21
30.7971325633
  0
LINE
  8
0
 62
7
  6
CONTINUOUS
 10
363.4342913921
 20
32.3100380288
 11
363.4342913921
 21
36.0805298321
  0
LINE
  8
0
 62
7
  6
CONTINUOUS
 10
363.4449727445
 20
30.7648688543
 11
363.4449727445
 21
30.8293962497
  0
LINE
  8
0
 62
7
  6
CONTINUOUS
 10
363.7621602445
 20
36.0805298321
 11
363.7621602445
 21
32.3100380288
  0
LINE
  8
0
 62
7
  6
CONTINUOUS
 10
360.5543476894
 20
30.7003414814
 11
360.6121602997
 21
30.8293962497
  0
LINE
  8
0
 62
7
  6
CONTINUOUS
 10
364.9480979651
 20
30.6035504109
 11
364.890285024
 21
30.7648688543
  0
LINE
  8
0
 62
7
  6
CONTINUOUS
 10
364.6012229651
 20
31.2810879048
 11
364.6012229651
 21
31.1842968456
  0
LINE
  8
0
 62
7
  6
CONTINUOUS
 10
364.6012229651
 20
31.0552420547
 11
364.6012229651
 21
30.8616599362
  0
LINE
  8
0
 62
7
  6
CONTINUOUS
 10
364.890285024
 20
30.7648688543
 11
364.890285024
 21
31.2810879048
  0
LINE
  8
0
 62
7
  6
CONTINUOUS
 10
365.1556028675
 20
32.3100380288
 11
365.1556028675
 21
34.1133167174
  0
LINE
  8
0
 62
7
  6
CONTINUOUS
 10
365.1556028675
 20
35.4247921272
 11
365.1556028675
 21
36.0805298321
  0
LINE
  8
0
 62
7
  6
CONTINUOUS
 10
365.4684104651
 20
32.0231527829
 11
365.4684104651
 21
31.8618343508
  0
LINE
  8
0
 62
7
  6
CONTINUOUS
 10
365.4684104651
 20
31.5391973962
 11
365.4684104651
 21
30.5067593403
  0
LINE
  8
0
 62
7
  6
CONTINUOUS
 10
365.757472524
 20
30.5067593403
 11
365.757472524
 21
31.5391973962
  0
LINE
  8
0
 62
7
  6
CONTINUOUS
 10
365.757472524
 20
31.8618343508
 11
365.757472524
 21
32.0231527829
  0
LINE
  8
0
 62
7
  6
CONTINUOUS
 10
360.3230977445
 20
30.8293962497
 11
360.2652852997
 21
30.7326051679
  0
LINE
  8
0
 62
7
  6
CONTINUOUS
 10
362.6355978548
 20
31.3133515913
 11
362.5777852445
 21
31.3778789641
  0
LINE
  8
0
 62
7
  6
CONTINUOUS
 10
363.5027853548
 20
30.7003414814
 11
363.4449727445
 21
30.7648688543
  0
LINE
  8
0
 62
7
  6
CONTINUOUS
 10
364.6590352445
 20
30.5712867188
 11
364.716847524
 21
30.5067593403
  0
LINE
  8
0
 62
7
  6
CONTINUOUS
 10
364.6012229651
 20
30.668077795
 11
364.6590352445
 21
30.5712867188
  0
LINE
  8
0
 62
7
  6
CONTINUOUS
 10
365.0059102445
 20
30.5067593403
 11
364.9480979651
 21
30.6035504109
  0
LINE
  8
0
 62
7
  6
CONTINUOUS
 10
364.890285024
 20
31.2810879048
 11
364.8324727445
 21
31.3778789641
  0
LINE
  8
0
 62
7
  6
CONTINUOUS
 10
366.2199727445
 20
31.5391973962
 11
366.2199727445
 21
30.5067593403
  0
LINE
  8
0
 62
7
  6
CONTINUOUS
 10
366.5090354651
 20
30.5067593403
 11
366.5090354651
 21
31.2488242184
  0
LINE
  8
0
 62
7
  6
CONTINUOUS
 10
366.5090354651
 20
31.3778789641
 11
366.5090354651
 21
31.5391973962
  0
LINE
  8
0
 62
7
  6
CONTINUOUS
 10
367.0408487691
 20
34.5231527829
 11
367.0408487691
 21
32.3100380288
  0
LINE
  8
0
 62
7
  6
CONTINUOUS
 10
358.9355977445
 20
31.3456152777
 11
358.8199727462
 21
31.216560532
  0
LINE
  8
0
 62
7
  6
CONTINUOUS
 10
359.1090352445
 20
31.1842968456
 11
359.1668477307
 21
31.2488242184
  0
LINE
  8
0
 62
7
  6
CONTINUOUS
 10
358.9355977445
 20
30.7003414814
 11
359.0512227376
 21
30.6358140973
  0
LINE
  8
0
 62
7
  6
CONTINUOUS
 10
359.3402852307
 20
30.7003414814
 11
359.1668477307
 21
30.7971325633
  0
LINE
  8
0
 62
7
  6
CONTINUOUS
 10
364.543410024
 20
31.3456152777
 11
364.6012229651
 21
31.2810879048
  0
LINE
  8
0
 62
7
  6
CONTINUOUS
 10
367.491847524
 20
31.2810879048
 11
367.5496604651
 21
31.1197694727
  0
LINE
  8
0
 62
7
  6
CONTINUOUS
 10
367.838722524
 20
31.1197694727
 11
367.7809102445
 21
31.2810879048
  0
LINE
  8
0
 62
7
  6
CONTINUOUS
 10
367.5496604651
 20
31.1197694727
 11
367.5496604651
 21
30.5067593403
  0
LINE
  8
0
 62
7
  6
CONTINUOUS
 10
367.838722524
 20
30.5067593403
 11
367.838722524
 21
31.1197694727
  0
LINE
  8
0
 62
7
  6
CONTINUOUS
 10
368.3012227445
 20
31.3456152777
 11
368.3012227445
 21
31.2810879048
  0
LINE
  8
0
 62
7
  6
CONTINUOUS
 10
368.4342913921
 20
32.3100380288
 11
368.4342913921
 21
34.4411855698
  0
LINE
  8
0
 62
7
  6
CONTINUOUS
 10
368.7621602445
 20
36.0805298321
 11
368.7621602445
 21
32.3100380288
  0
LINE
  8
0
 62
7
  6
CONTINUOUS
 10
363.4449727445
 20
30.8293962497
 11
363.5027853548
 21
30.926187309
  0
LINE
  8
0
 62
7
  6
CONTINUOUS
 10
359.0512227376
 20
30.6358140973
 11
359.2246602583
 21
30.5712867188
  0
LINE
  8
0
 62
7
  6
CONTINUOUS
 10
360.5543476894
 20
31.3456152777
 11
360.3809101894
 21
31.4424063369
  0
LINE
  8
0
 62
7
  6
CONTINUOUS
 10
363.2137226343
 20
30.668077795
 11
363.3871601343
 21
30.5712867188
  0
LINE
  8
0
 62
7
  6
CONTINUOUS
 10
362.2309102445
 20
31.3456152777
 11
362.3465351343
 21
31.2810879048
  0
LINE
  8
0
 62
7
  6
CONTINUOUS
 10
362.5777852445
 20
31.3778789641
 11
362.4621603548
 21
31.4424063369
  0
LINE
  8
0
 62
7
  6
CONTINUOUS
 10
368.3012227445
 20
30.7648688543
 11
368.4168479651
 21
30.6358140973
  0
LINE
  8
0
 62
7
  6
CONTINUOUS
 10
368.6480977445
 20
30.7003414814
 11
368.5902854651
 21
30.7648688543
  0
LINE
  8
0
 62
7
  6
CONTINUOUS
 10
368.3012227445
 20
31.2810879048
 11
368.4168479651
 21
31.1520331591
  0
LINE
  8
0
 62
7
  6
CONTINUOUS
 10
367.7809102445
 20
31.2810879048
 11
367.7230979651
 21
31.3778789641
  0
LINE
  8
0
 62
7
  6
CONTINUOUS
 10
370.1512223035
 20
30.7003414814
 11
370.1512223035
 21
30.7648688543
  0
LINE
  8
0
 62
7
  6
CONTINUOUS
 10
370.1556028675
 20
32.3100380288
 11
370.1556028675
 21
36.0805298321
  0
LINE
  8
0
 62
7
  6
CONTINUOUS
 10
363.2137226343
 20
31.4101426505
 11
363.1559103548
 21
31.3456152777
  0
LINE
  8
0
 62
7
  6
CONTINUOUS
 10
360.091847717
 20
31.3778789641
 11
360.2652852997
 21
31.3133515913
  0
LINE
  8
0
 62
7
  6
CONTINUOUS
 10
364.8324727445
 20
31.3778789641
 11
364.716847524
 21
31.4424063369
  0
LINE
  8
0
 62
7
  6
CONTINUOUS
 10
368.6480977445
 20
31.216560532
 11
368.5902854651
 21
31.2810879048
  0
LINE
  8
0
 62
7
  6
CONTINUOUS
 10
369.8043479651
 20
30.8293962497
 11
369.8621602445
 21
30.7648688543
  0
LINE
  8
0
 62
7
  6
CONTINUOUS
 10
370.1512223035
 20
30.7648688543
 11
370.0355977445
 21
30.8939236226
  0
LINE
  8
0
 62
7
  6
CONTINUOUS
 10
369.8043479651
 20
31.3456152777
 11
369.8621602445
 21
31.2810879048
  0
LINE
  8
0
 62
7
  6
CONTINUOUS
 10
370.1512223035
 20
31.2810879048
 11
370.0355977445
 21
31.4101426505
  0
LINE
  8
0
 62
7
  6
CONTINUOUS
 10
363.4449727445
 20
31.2810879048
 11
363.5027853548
 21
31.3456152777
  0
LINE
  8
0
 62
7
  6
CONTINUOUS
 10
363.2715352445
 20
31.0229783683
 11
363.1559103548
 21
30.8939236226
  0
LINE
  8
0
 62
7
  6
CONTINUOUS
 10
364.6012229651
 20
30.8616599362
 11
364.543410024
 21
30.7971325633
  0
LINE
  8
0
 62
7
  6
CONTINUOUS
 10
364.543410024
 20
30.6035504109
 11
364.6012229651
 21
30.668077795
  0
LINE
  8
0
 62
7
  6
CONTINUOUS
 10
363.3871601343
 20
30.5712867188
 11
363.5027853548
 21
30.5390230296
  0
LINE
  8
0
 62
7
  6
CONTINUOUS
 10
360.3809101894
 20
31.4424063369
 11
360.1496602445
 21
31.5069337098
  0
LINE
  8
0
 62
7
  6
CONTINUOUS
 10
363.7340351343
 20
30.6358140973
 11
363.5027853548
 21
30.7003414814
  0
LINE
  8
0
 62
7
  6
CONTINUOUS
 10
362.4621603548
 20
31.4424063369
 11
362.2887228548
 21
31.5069337098
  0
LINE
  8
0
 62
7
  6
CONTINUOUS
 10
364.716847524
 20
31.4424063369
 11
364.543410024
 21
31.5069337098
  0
LINE
  8
0
 62
7
  6
CONTINUOUS
 10
367.3762229651
 20
31.3456152777
 11
367.491847524
 21
31.2810879048
  0
LINE
  8
0
 62
7
  6
CONTINUOUS
 10
367.7230979651
 20
31.3778789641
 11
367.6074727445
 21
31.4424063369
  0
LINE
  8
0
 62
7
  6
CONTINUOUS
 10
359.2246602583
 20
30.5712867188
 11
359.3980977583
 21
30.5390230296
  0
LINE
  8
0
 62
7
  6
CONTINUOUS
 10
359.6871602721
 20
30.6358140973
 11
359.3402852307
 21
30.7003414814
  0
LINE
  8
0
 62
7
  6
CONTINUOUS
 10
362.1152853548
 20
31.3778789641
 11
362.2309102445
 21
31.3456152777
  0
LINE
  8
0
 62
7
  6
CONTINUOUS
 10
364.4277854651
 20
31.3778789641
 11
364.543410024
 21
31.3456152777
  0
LINE
  8
0
 62
7
  6
CONTINUOUS
 10
368.7637229651
 20
30.668077795
 11
368.6480977445
 21
30.7003414814
  0
LINE
  8
0
 62
7
  6
CONTINUOUS
 10
367.2605977445
 20
31.3778789641
 11
367.3762229651
 21
31.3456152777
  0
LINE
  8
0
 62
7
  6
CONTINUOUS
 10
368.4168479651
 20
30.6358140973
 11
368.5902854651
 21
30.5712867188
  0
LINE
  8
0
 62
7
  6
CONTINUOUS
 10
367.6074727445
 20
31.4424063369
 11
367.4340352445
 21
31.5069337098
  0
LINE
  8
0
 62
7
  6
CONTINUOUS
 10
368.8215352445
 20
31.1520331591
 11
368.6480977445
 21
31.216560532
  0
LINE
  8
0
 62
7
  6
CONTINUOUS
 10
369.6309104651
 20
30.8939236226
 11
369.8043479651
 21
30.8293962497
  0
LINE
  8
0
 62
7
  6
CONTINUOUS
 10
370.0355977445
 20
31.4101426505
 11
369.8621602445
 21
31.4746700234
  0
LINE
  8
0
 62
7
  6
CONTINUOUS
 10
368.4168479651
 20
31.1520331591
 11
368.6480977445
 21
31.0552420547
  0
LINE
  8
0
 62
7
  6
CONTINUOUS
 10
370.0355977445
 20
30.8939236226
 11
369.8043479651
 21
30.9907146818
  0
LINE
  8
0
 62
7
  6
CONTINUOUS
 10
368.5902854651
 20
31.2810879048
 11
368.6480977445
 21
31.3456152777
  0
LINE
  8
0
 62
7
  6
CONTINUOUS
 10
359.0512227376
 20
31.4101426505
 11
358.9355977445
 21
31.3456152777
  0
LINE
  8
0
 62
7
  6
CONTINUOUS
 10
359.1668477307
 20
31.2488242184
 11
359.3402852307
 21
31.3456152777
  0
LINE
  8
0
 62
7
  6
CONTINUOUS
 10
361.4793477997
 20
31.4424063369
 11
361.3637227445
 21
31.3778789641
  0
LINE
  8
0
 62
7
  6
CONTINUOUS
 10
361.3637227445
 20
31.2488242184
 11
361.4793477997
 21
31.3133515913
  0
LINE
  8
0
 62
7
  6
CONTINUOUS
 10
360.3809101894
 20
30.6035504109
 11
360.5543476894
 21
30.7003414814
  0
LINE
  8
0
 62
7
  6
CONTINUOUS
 10
359.3980977583
 20
30.5390230296
 11
359.744972717
 21
30.5067593403
  0
LINE
  8
0
 62
7
  6
CONTINUOUS
 10
363.5027853548
 20
30.5390230296
 11
363.7340351343
 21
30.5067593403
  0
LINE
  8
0
 62
7
  6
CONTINUOUS
 10
361.8840352445
 20
31.4101426505
 11
362.1152853548
 21
31.3778789641
  0
LINE
  8
0
 62
7
  6
CONTINUOUS
 10
364.1965353548
 20
31.4101426505
 11
364.4277854651
 21
31.3778789641
  0
LINE
  8
0
 62
7
  6
CONTINUOUS
 10
368.6480977445
 20
31.0552420547
 11
369.6309104651
 21
30.8939236226
  0
LINE
  8
0
 62
7
  6
CONTINUOUS
 10
369.8043479651
 20
30.9907146818
 11
368.8215352445
 21
31.1520331591
  0
LINE
  8
0
 62
7
  6
CONTINUOUS
 10
362.2887228548
 20
31.5069337098
 11
362.1152853548
 21
31.5391973962
  0
LINE
  8
0
 62
7
  6
CONTINUOUS
 10
368.5902854651
 20
30.5712867188
 11
368.7637229651
 21
30.5390230296
  0
LINE
  8
0
 62
7
  6
CONTINUOUS
 10
367.4340352445
 20
31.5069337098
 11
367.2605977445
 21
31.5391973962
  0
LINE
  8
0
 62
7
  6
CONTINUOUS
 10
369.6887227445
 20
31.3778789641
 11
369.8043479651
 21
31.3456152777
  0
LINE
  8
0
 62
7
  6
CONTINUOUS
 10
369.8621602445
 20
30.7648688543
 11
369.8043479651
 21
30.7003414814
  0
LINE
  8
0
 62
7
  6
CONTINUOUS
 10
368.4168479651
 20
31.4424063369
 11
368.3012227445
 21
31.3456152777
  0
LINE
  8
0
 62
7
  6
CONTINUOUS
 10
363.3293478548
 20
31.4746700234
 11
363.2137226343
 21
31.4101426505
  0
LINE
  8
0
 62
7
  6
CONTINUOUS
 10
363.3871601343
 20
31.0875057863
 11
363.2715352445
 21
31.0229783683
  0
LINE
  8
0
 62
7
  6
CONTINUOUS
 10
363.5027853548
 20
30.926187309
 11
363.6184102445
 21
30.9907146818
  0
LINE
  8
0
 62
7
  6
CONTINUOUS
 10
361.0746601894
 20
30.5067593403
 11
361.3637227445
 21
30.5067593403
  0
LINE
  8
0
 62
7
  6
CONTINUOUS
 10
362.4043477445
 20
30.5067593403
 11
362.6934101343
 21
30.5067593403
  0
LINE
  8
0
 62
7
  6
CONTINUOUS
 10
363.7340351343
 20
30.5067593403
 11
364.0809101343
 21
30.5067593403
  0
LINE
  8
0
 62
7
  6
CONTINUOUS
 10
364.716847524
 20
30.5067593403
 11
365.0059102445
 21
30.5067593403
  0
LINE
  8
0
 62
7
  6
CONTINUOUS
 10
365.4684104651
 20
30.5067593403
 11
365.757472524
 21
30.5067593403
  0
LINE
  8
0
 62
7
  6
CONTINUOUS
 10
366.2199727445
 20
30.5067593403
 11
366.5090354651
 21
30.5067593403
  0
LINE
  8
0
 62
7
  6
CONTINUOUS
 10
367.5496604651
 20
30.5067593403
 11
367.838722524
 21
30.5067593403
  0
LINE
  8
0
 62
7
  6
CONTINUOUS
 10
369.1105979651
 20
30.5067593403
 11
369.4574729651
 21
30.5067593403
  0
LINE
  8
0
 62
7
  6
CONTINUOUS
 10
369.4574729651
 20
30.6358140973
 11
369.1105979651
 21
30.6358140973
  0
LINE
  8
0
 62
7
  6
CONTINUOUS
 10
364.0809101343
 20
30.6358140973
 11
363.7340351343
 21
30.6358140973
  0
LINE
  8
0
 62
7
  6
CONTINUOUS
 10
368.5902854651
 20
30.7648688543
 11
368.3012227445
 21
30.7648688543
  0
LINE
  8
0
 62
7
  6
CONTINUOUS
 10
360.6121602997
 20
30.8293962497
 11
360.3230977445
 21
30.8293962497
  0
LINE
  8
0
 62
7
  6
CONTINUOUS
 10
359.6871602721
 20
31.4101426505
 11
360.091847717
 21
31.3778789641
  0
LINE
  8
0
 62
7
  6
CONTINUOUS
 10
360.1496602445
 20
31.5069337098
 11
359.744972717
 21
31.5391973962
  0
LINE
  8
0
 62
7
  6
CONTINUOUS
 10
368.7637229651
 20
30.5390230296
 11
369.1105979651
 21
30.5067593403
  0
LINE
  8
0
 62
7
  6
CONTINUOUS
 10
369.1105979651
 20
30.6358140973
 11
368.7637229651
 21
30.668077795
  0
LINE
  8
0
 62
7
  6
CONTINUOUS
 10
364.543410024
 20
31.5069337098
 11
364.1965353548
 21
31.5391973962
  0
LINE
  8
0
 62
7
  6
CONTINUOUS
 10
369.3418477445
 20
31.4101426505
 11
369.6887227445
 21
31.3778789641
  0
LINE
  8
0
 62
7
  6
CONTINUOUS
 10
369.6887227445
 20
31.5069337098
 11
369.3418477445
 21
31.5391973962
  0
LINE
  8
0
 62
7
  6
CONTINUOUS
 10
367.0293479651
 20
31.4101426505
 11
367.2605977445
 21
31.3778789641
  0
LINE
  8
0
 62
7
  6
CONTINUOUS
 10
369.8621602445
 20
31.4746700234
 11
369.6887227445
 21
31.5069337098
  0
LINE
  8
0
 62
7
  6
CONTINUOUS
 10
370.0355977445
 20
30.6035504109
 11
370.1512223035
 21
30.7003414814
  0
LINE
  8
0
 62
7
  6
CONTINUOUS
 10
364.543410024
 20
30.7971325633
 11
364.369972524
 21
30.7003414814
  0
LINE
  8
0
 62
7
  6
CONTINUOUS
 10
366.624660024
 20
31.4424063369
 11
366.5090354651
 21
31.3778789641
  0
LINE
  8
0
 62
7
  6
CONTINUOUS
 10
366.5090354651
 20
31.2488242184
 11
366.624660024
 21
31.3133515913
  0
LINE
  8
0
 62
7
  6
CONTINUOUS
 10
359.2246602583
 20
31.4746700234
 11
359.0512227376
 21
31.4101426505
  0
LINE
  8
0
 62
7
  6
CONTINUOUS
 10
361.6527851343
 20
31.5069337098
 11
361.4793477997
 21
31.4424063369
  0
LINE
  8
0
 62
7
  6
CONTINUOUS
 10
361.4793477997
 20
31.3133515913
 11
361.6527851343
 21
31.3778789641
  0
LINE
  8
0
 62
7
  6
CONTINUOUS
 10
360.2652852997
 20
30.7326051679
 11
360.091847717
 21
30.668077795
  0
LINE
  8
0
 62
7
  6
CONTINUOUS
 10
369.6887227445
 20
30.668077795
 11
369.4574729651
 21
30.6358140973
  0
LINE
  8
0
 62
7
  6
CONTINUOUS
 10
364.0809101343
 20
30.5067593403
 11
364.369972524
 21
30.5390230296
  0
LINE
  8
0
 62
7
  6
CONTINUOUS
 10
369.4574729651
 20
30.5067593403
 11
369.8043479651
 21
30.5390230296
  0
LINE
  8
0
 62
7
  6
CONTINUOUS
 10
359.744972717
 20
30.5067593403
 11
360.1496602445
 21
30.5390230296
  0
LINE
  8
0
 62
7
  6
CONTINUOUS
 10
360.091847717
 20
30.668077795
 11
359.6871602721
 21
30.6358140973
  0
LINE
  8
0
 62
7
  6
CONTINUOUS
 10
363.9652852445
 20
31.0552420547
 11
364.6012229651
 21
31.0552420547
  0
LINE
  8
0
 62
7
  6
CONTINUOUS
 10
364.6012229651
 20
31.1842968456
 11
363.9652852445
 21
31.1842968456
  0
LINE
  8
0
 62
7
  6
CONTINUOUS
 10
360.3230977445
 20
31.216560532
 11
360.6121602997
 21
31.216560532
  0
LINE
  8
0
 62
7
  6
CONTINUOUS
 10
363.1559103548
 20
31.2810879048
 11
363.4449727445
 21
31.2810879048
  0
LINE
  8
0
 62
7
  6
CONTINUOUS
 10
369.8621602445
 20
31.2810879048
 11
370.1512223035
 21
31.2810879048
  0
LINE
  8
0
 62
7
  6
CONTINUOUS
 10
363.8496603548
 20
31.4101426505
 11
364.1965353548
 21
31.4101426505
  0
LINE
  8
0
 62
7
  6
CONTINUOUS
 10
368.9949727445
 20
31.4101426505
 11
369.3418477445
 21
31.4101426505
  0
LINE
  8
0
 62
7
  6
CONTINUOUS
 10
369.3418477445
 20
31.5391973962
 11
368.9949727445
 21
31.5391973962
  0
LINE
  8
0
 62
7
  6
CONTINUOUS
 10
367.2605977445
 20
31.5391973962
 11
367.0293479651
 21
31.5391973962
  0
LINE
  8
0
 62
7
  6
CONTINUOUS
 10
366.5090354651
 20
31.5391973962
 11
366.2199727445
 21
31.5391973962
  0
LINE
  8
0
 62
7
  6
CONTINUOUS
 10
365.757472524
 20
31.5391973962
 11
365.4684104651
 21
31.5391973962
  0
LINE
  8
0
 62
7
  6
CONTINUOUS
 10
364.1965353548
 20
31.5391973962
 11
363.8496603548
 21
31.5391973962
  0
LINE
  8
0
 62
7
  6
CONTINUOUS
 10
362.1152853548
 20
31.5391973962
 11
361.8840352445
 21
31.5391973962
  0
LINE
  8
0
 62
7
  6
CONTINUOUS
 10
365.4684104651
 20
31.8618343508
 11
365.757472524
 21
31.8618343508
  0
LINE
  8
0
 62
7
  6
CONTINUOUS
 10
365.757472524
 20
32.0231527829
 11
365.4684104651
 21
32.0231527829
  0
LINE
  8
0
 62
7
  6
CONTINUOUS
 10
361.3637227445
 20
32.0231527829
 11
361.0746601894
 21
32.0231527829
  0
LINE
  8
0
 62
7
  6
CONTINUOUS
 10
360.4015045068
 20
32.3100380288
 11
360.8140758554
 21
32.3100380288
  0
LINE
  8
0
 62
7
  6
CONTINUOUS
 10
362.0408487691
 20
32.3100380288
 11
363.4342913921
 21
32.3100380288
  0
LINE
  8
0
 62
7
  6
CONTINUOUS
 10
363.7621602445
 20
32.3100380288
 11
365.1556028675
 21
32.3100380288
  0
LINE
  8
0
 62
7
  6
CONTINUOUS
 10
367.0408487691
 20
32.3100380288
 11
368.4342913921
 21
32.3100380288
  0
LINE
  8
0
 62
7
  6
CONTINUOUS
 10
368.7621602445
 20
32.3100380288
 11
370.1556028675
 21
32.3100380288
  0
LINE
  8
0
 62
7
  6
CONTINUOUS
 10
366.798097524
 20
31.5069337098
 11
366.624660024
 21
31.4424063369
  0
LINE
  8
0
 62
7
  6
CONTINUOUS
 10
364.369972524
 20
30.5390230296
 11
364.543410024
 21
30.6035504109
  0
LINE
  8
0
 62
7
  6
CONTINUOUS
 10
369.8043479651
 20
30.5390230296
 11
370.0355977445
 21
30.6035504109
  0
LINE
  8
0
 62
7
  6
CONTINUOUS
 10
369.8043479651
 20
30.7003414814
 11
369.6887227445
 21
30.668077795
  0
LINE
  8
0
 62
7
  6
CONTINUOUS
 10
368.7637229651
 20
31.3778789641
 11
368.9949727445
 21
31.4101426505
  0
LINE
  8
0
 62
7
  6
CONTINUOUS
 10
366.798097524
 20
31.3778789641
 11
367.0293479651
 21
31.4101426505
  0
LINE
  8
0
 62
7
  6
CONTINUOUS
 10
363.7340351343
 20
31.0229783683
 11
363.9652852445
 21
31.0552420547
  0
LINE
  8
0
 62
7
  6
CONTINUOUS
 10
367.0293479651
 20
31.5391973962
 11
366.798097524
 21
31.5069337098
  0
LINE
  8
0
 62
7
  6
CONTINUOUS
 10
363.6184102445
 20
31.3778789641
 11
363.8496603548
 21
31.4101426505
  0
LINE
  8
0
 62
7
  6
CONTINUOUS
 10
368.9949727445
 20
31.5391973962
 11
368.6480977445
 21
31.5069337098
  0
LINE
  8
0
 62
7
  6
CONTINUOUS
 10
363.9652852445
 20
31.1842968456
 11
363.6184102445
 21
31.1520331591
  0
LINE
  8
0
 62
7
  6
CONTINUOUS
 10
359.744972717
 20
31.5391973962
 11
359.3980977583
 21
31.5069337098
  0
LINE
  8
0
 62
7
  6
CONTINUOUS
 10
363.8496603548
 20
31.5391973962
 11
363.4449727445
 21
31.5069337098
  0
LINE
  8
0
 62
7
  6
CONTINUOUS
 10
361.221176638
 20
33.4575790124
 11
360.565438933
 21
33.4575790124
  0
LINE
  8
0
 62
7
  6
CONTINUOUS
 10
366.624660024
 20
31.3133515913
 11
366.798097524
 21
31.3778789641
  0
LINE
  8
0
 62
7
  6
CONTINUOUS
 10
368.6480977445
 20
31.3456152777
 11
368.7637229651
 21
31.3778789641
  0
LINE
  8
0
 62
7
  6
CONTINUOUS
 10
368.6480977445
 20
31.5069337098
 11
368.4168479651
 21
31.4424063369
  0
LINE
  8
0
 62
7
  6
CONTINUOUS
 10
364.369972524
 20
30.7003414814
 11
364.0809101343
 21
30.6358140973
  0
LINE
  8
0
 62
7
  6
CONTINUOUS
 10
361.6527851343
 20
31.3778789641
 11
361.8840352445
 21
31.4101426505
  0
LINE
  8
0
 62
7
  6
CONTINUOUS
 10
361.8840352445
 20
31.5391973962
 11
361.6527851343
 21
31.5069337098
  0
LINE
  8
0
 62
7
  6
CONTINUOUS
 10
359.4559102445
 20
31.3778789641
 11
359.6871602721
 21
31.4101426505
  0
LINE
  8
0
 62
7
  6
CONTINUOUS
 10
365.9752749986
 20
34.9329888485
 11
366.6310127035
 21
34.9329888485
  0
LINE
  8
0
 62
7
  6
CONTINUOUS
 10
363.6184102445
 20
30.9907146818
 11
363.7340351343
 21
31.0229783683
  0
LINE
  8
0
 62
7
  6
CONTINUOUS
 10
363.6184102445
 20
31.1520331591
 11
363.3871601343
 21
31.0875057863
  0
LINE
  8
0
 62
7
  6
CONTINUOUS
 10
363.5027853548
 20
31.3456152777
 11
363.6184102445
 21
31.3778789641
  0
LINE
  8
0
 62
7
  6
CONTINUOUS
 10
360.1496602445
 20
30.5390230296
 11
360.3809101894
 21
30.6035504109
  0
LINE
  8
0
 62
7
  6
CONTINUOUS
 10
363.4449727445
 20
31.5069337098
 11
363.3293478548
 21
31.4746700234
  0
LINE
  8
0
 62
7
  6
CONTINUOUS
 10
359.3980977583
 20
31.5069337098
 11
359.2246602583
 21
31.4746700234
  0
LINE
  8
0
 62
7
  6
CONTINUOUS
 10
370.1556028675
 20
36.0805298321
 11
368.7621602445
 21
36.0805298321
  0
LINE
  8
0
 62
7
  6
CONTINUOUS
 10
366.7949471298
 20
36.0805298321
 11
366.3823757812
 21
36.0805298321
  0
LINE
  8
0
 62
7
  6
CONTINUOUS
 10
365.1556028675
 20
36.0805298321
 11
363.7621602445
 21
36.0805298321
  0
LINE
  8
0
 62
7
  6
CONTINUOUS
 10
363.4342913921
 20
36.0805298321
 11
362.0408487691
 21
36.0805298321
  0
LINE
  8
0
 62
7
  6
CONTINUOUS
 10
360.1556028675
 20
36.0805298321
 11
358.7621602445
 21
36.0805298321
  0
LINE
  8
0
 62
7
  6
CONTINUOUS
 10
359.3402852307
 20
31.3456152777
 11
359.4559102445
 21
31.3778789641
  0
CIRCLE
  8
0
 62
7
  6
CONTINUOUS
 10
369.458881556
 20
38.4165954059
 40
2.0901639344
  0
ARC
  8
0
 62
7
  6
CONTINUOUS
 10
360.4015045068
 20
33.9493822911
 40
1.6393442623
 50
180.0
 51
270.0
  0
ARC
  8
0
 62
7
  6
CONTINUOUS
 10
366.7949471298
 20
34.4411855698
 40
1.6393442623
 50
0.0
 51
90.0
  0
ARC
  8
0
 62
7
  6
CONTINUOUS
 10
360.8140758554
 20
33.7854478649
 40
1.4754098361
 50
270.0
 51
326.2510114041
  0
ARC
  8
0
 62
7
  6
CONTINUOUS
 10
366.3823757812
 20
34.6051199961
 40
1.4754098361
 50
90.0
 51
146.2510114041
  0
ARC
  8
0
 62
7
  6
CONTINUOUS
 10
361.221176638
 20
34.2772511436
 40
0.8196721311
 50
270.0
 51
360.0
  0
ARC
  8
0
 62
7
  6
CONTINUOUS
 10
365.9752749986
 20
34.1133167174
 40
0.8196721311
 50
90.0
 51
180.0
  0
ARC
  8
0
 62
7
  6
CONTINUOUS
 10
360.565438933
 20
33.867415078
 40
0.4098360656
 50
180.0
 51
270.0
  0
ARC
  8
0
 62
7
  6
CONTINUOUS
 10
366.6310127035
 20
34.5231527829
 40
0.4098360656
 50
0.0
 51
90.0
  0
SOLID
  8
0
 62
7
  6
CONTINUOUS
 10
365.4684104651
 20
31.8618347111
 11
365.4684104651
 21
32.0231531947
 12
365.757472524
 22
31.8618347111
 13
365.757472524
 23
32.0231531947
  0
SOLID
  8
0
 62
7
  6
CONTINUOUS
 10
359.744972717
 20
31.5391977439
 11
360.1496602445
 21
31.5069333244
 12
359.3980977583
 22
31.5069333244
 13
359.3980977583
 23
31.5069333244
  0
SOLID
  8
0
 62
7
  6
CONTINUOUS
 10
359.2246602583
 20
31.4746706537
 11
359.3980977583
 21
31.5069333244
 12
360.1496602445
 22
31.5069333244
 13
360.1496602445
 23
31.5069333244
  0
SOLID
  8
0
 62
7
  6
CONTINUOUS
 10
360.1496602445
 20
31.5069333244
 11
360.3809101894
 21
31.4424063504
 12
359.2246602583
 22
31.4746706537
 13
359.2246602583
 23
31.4746706537
  0
SOLID
  8
0
 62
7
  6
CONTINUOUS
 10
359.0512227376
 20
31.4101419116
 11
359.2246602583
 21
31.4746706537
 12
360.3809101894
 22
31.4424063504
 13
360.3809101894
 23
31.4424063504
  0
SOLID
  8
0
 62
7
  6
CONTINUOUS
 10
359.0512227376
 20
31.4101419116
 11
360.3809101894
 21
31.4424063504
 12
359.6871602721
 22
31.4101419116
 13
359.6871602721
 23
31.4101419116
  0
SOLID
  8
0
 62
7
  6
CONTINUOUS
 10
359.6871602721
 20
31.4101419116
 11
360.3809101894
 21
31.4424063504
 12
360.091847717
 22
31.3778792603
 13
360.091847717
 23
31.3778792603
  0
SOLID
  8
0
 62
7
  6
CONTINUOUS
 10
360.3809101894
 20
31.4424063504
 11
360.5543476894
 21
31.345614957
 12
360.091847717
 22
31.3778792603
 13
360.091847717
 23
31.3778792603
  0
SOLID
  8
0
 62
7
  6
CONTINUOUS
 10
360.2652852997
 20
31.3133521701
 11
360.091847717
 21
31.3778792603
 12
360.5543476894
 22
31.345614957
 13
360.5543476894
 23
31.345614957
  0
SOLID
  8
0
 62
7
  6
CONTINUOUS
 10
360.2652852997
 20
31.3133521701
 11
360.5543476894
 21
31.345614957
 12
360.3230977445
 22
31.2165606992
 13
360.3230977445
 23
31.2165606992
  0
SOLID
  8
0
 62
7
  6
CONTINUOUS
 10
360.5543476894
 20
31.345614957
 11
360.6121602997
 21
31.2165606992
 12
360.3230977445
 22
31.2165606992
 13
360.3230977445
 23
31.2165606992
  0
SOLID
  8
0
 62
7
  6
CONTINUOUS
 10
361.6527851343
 20
31.5069329918
 11
361.8840352445
 21
31.5391972951
 12
362.1152853548
 22
31.5391972951
 13
362.1152853548
 23
31.5391972951
  0
SOLID
  8
0
 62
7
  6
CONTINUOUS
 10
362.1152853548
 20
31.5391972951
 11
362.2887228548
 21
31.5069329918
 12
361.6527851343
 22
31.5069329918
 13
361.6527851343
 23
31.5069329918
  0
SOLID
  8
0
 62
7
  6
CONTINUOUS
 10
361.4793477997
 20
31.4424059016
 11
361.6527851343
 21
31.5069329918
 12
362.2887228548
 22
31.5069329918
 13
362.2887228548
 23
31.5069329918
  0
SOLID
  8
0
 62
7
  6
CONTINUOUS
 10
362.2887228548
 20
31.5069329918
 11
362.4621603548
 21
31.4424059016
 12
361.4793477997
 22
31.4424059016
 13
361.4793477997
 23
31.4424059016
  0
SOLID
  8
0
 62
7
  6
CONTINUOUS
 10
362.4621603548
 20
31.4424059016
 11
361.8840352445
 21
31.4101420472
 12
361.4793477997
 22
31.4424059016
 13
361.4793477997
 23
31.4424059016
  0
SOLID
  8
0
 62
7
  6
CONTINUOUS
 10
361.3637227445
 20
31.3778788115
 11
361.4793477997
 21
31.4424059016
 12
361.8840352445
 22
31.4101420472
 13
361.8840352445
 23
31.4101420472
  0
SOLID
  8
0
 62
7
  6
CONTINUOUS
 10
361.8840352445
 20
31.4101420472
 11
361.6527851343
 21
31.3778788115
 12
361.3637227445
 22
31.3778788115
 13
361.3637227445
 23
31.3778788115
  0
SOLID
  8
0
 62
7
  6
CONTINUOUS
 10
361.8840352445
 20
31.4101420472
 11
362.4621603548
 21
31.4424059016
 12
362.1152853548
 22
31.3778788115
 13
362.1152853548
 23
31.3778788115
  0
SOLID
  8
0
 62
7
  6
CONTINUOUS
 10
362.4621603548
 20
31.4424059016
 11
362.5777852445
 21
31.3778788115
 12
362.1152853548
 22
31.3778788115
 13
362.1152853548
 23
31.3778788115
  0
SOLID
  8
0
 62
7
  6
CONTINUOUS
 10
362.2309102445
 20
31.345614957
 11
362.1152853548
 21
31.3778788115
 12
362.5777852445
 22
31.3778788115
 13
362.5777852445
 23
31.3778788115
  0
SOLID
  8
0
 62
7
  6
CONTINUOUS
 10
362.5777852445
 20
31.3778788115
 11
362.6355978548
 21
31.3133517213
 12
362.2309102445
 22
31.345614957
 13
362.2309102445
 23
31.345614957
  0
SOLID
  8
0
 62
7
  6
CONTINUOUS
 10
362.3465351343
 20
31.2810878668
 11
362.2309102445
 21
31.345614957
 12
362.6355978548
 22
31.3133517213
 13
362.6355978548
 23
31.3133517213
  0
SOLID
  8
0
 62
7
  6
CONTINUOUS
 10
362.3465351343
 20
31.2810878668
 11
362.6355978548
 21
31.3133517213
 12
362.4043477445
 22
31.1520332377
 13
362.4043477445
 23
31.1520332377
  0
SOLID
  8
0
 62
7
  6
CONTINUOUS
 10
362.6355978548
 20
31.3133517213
 11
362.6934101343
 21
31.1520332377
 12
362.4043477445
 22
31.1520332377
 13
362.4043477445
 23
31.1520332377
  0
SOLID
  8
0
 62
7
  6
CONTINUOUS
 10
361.6527851343
 20
31.3778788115
 11
361.4793477997
 21
31.3133517213
 12
361.3637227445
 22
31.3778788115
 13
361.3637227445
 23
31.3778788115
  0
SOLID
  8
0
 62
7
  6
CONTINUOUS
 10
361.4793477997
 20
31.3133517213
 11
361.3637227445
 21
31.2488235635
 12
361.3637227445
 22
31.3778788115
 13
361.3637227445
 23
31.3778788115
  0
SOLID
  8
0
 62
7
  6
CONTINUOUS
 10
361.3637227445
 20
31.2488235635
 11
361.0746601894
 21
30.5067593033
 12
361.3637227445
 22
31.3778788115
 13
361.3637227445
 23
31.3778788115
  0
SOLID
  8
0
 62
7
  6
CONTINUOUS
 10
361.3637227445
 20
31.3778788115
 11
361.0746601894
 21
30.5067593033
 12
361.3637227445
 22
32.0231527459
 13
361.3637227445
 23
32.0231527459
  0
SOLID
  8
0
 62
7
  6
CONTINUOUS
 10
361.0746601894
 20
30.5067593033
 11
361.0746601894
 21
32.0231527459
 12
361.3637227445
 22
32.0231527459
 13
361.3637227445
 23
32.0231527459
  0
SOLID
  8
0
 62
7
  6
CONTINUOUS
 10
361.3637227445
 20
31.2488235635
 11
361.3637227445
 21
30.5067593033
 12
361.0746601894
 22
30.5067593033
 13
361.0746601894
 23
30.5067593033
  0
SOLID
  8
0
 62
7
  6
CONTINUOUS
 10
362.4043477445
 20
30.5067593033
 11
362.4043477445
 21
31.1520332377
 12
362.6934101343
 22
31.1520332377
 13
362.6934101343
 23
31.1520332377
  0
SOLID
  8
0
 62
7
  6
CONTINUOUS
 10
362.6934101343
 20
31.1520332377
 11
362.6934101343
 21
30.5067593033
 12
362.4043477445
 22
30.5067593033
 13
362.4043477445
 23
30.5067593033
  0
SOLID
  8
0
 62
7
  6
CONTINUOUS
 10
363.4449727445
 20
31.506933758
 11
363.8496603548
 21
31.5391977507
 12
364.1965353548
 22
31.5391977507
 13
364.1965353548
 23
31.5391977507
  0
SOLID
  8
0
 62
7
  6
CONTINUOUS
 10
364.1965353548
 20
31.5391977507
 11
364.543410024
 21
31.506933758
 12
363.4449727445
 22
31.506933758
 13
363.4449727445
 23
31.506933758
  0
SOLID
  8
0
 62
7
  6
CONTINUOUS
 10
363.3293478548
 20
31.4746706537
 11
363.4449727445
 21
31.506933758
 12
364.543410024
 22
31.506933758
 13
364.543410024
 23
31.506933758
  0
SOLID
  8
0
 62
7
  6
CONTINUOUS
 10
364.543410024
 20
31.506933758
 11
364.716847524
 21
31.4424063504
 12
363.3293478548
 22
31.4746706537
 13
363.3293478548
 23
31.4746706537
  0
SOLID
  8
0
 62
7
  6
CONTINUOUS
 10
363.2137226343
 20
31.4101417797
 11
363.3293478548
 21
31.4746706537
 12
364.716847524
 22
31.4424063504
 13
364.716847524
 23
31.4424063504
  0
SOLID
  8
0
 62
7
  6
CONTINUOUS
 10
363.2137226343
 20
31.4101417797
 11
364.716847524
 21
31.4424063504
 12
363.8496603548
 22
31.4101417797
 13
363.8496603548
 23
31.4101417797
  0
SOLID
  8
0
 62
7
  6
CONTINUOUS
 10
363.8496603548
 20
31.4101417797
 11
364.716847524
 21
31.4424063504
 12
364.1965353548
 22
31.4101417797
 13
364.1965353548
 23
31.4101417797
  0
SOLID
  8
0
 62
7
  6
CONTINUOUS
 10
364.1965353548
 20
31.4101417797
 11
364.716847524
 21
31.4424063504
 12
364.4277854651
 22
31.3778793357
 13
364.4277854651
 23
31.3778793357
  0
SOLID
  8
0
 62
7
  6
CONTINUOUS
 10
364.716847524
 20
31.4424063504
 11
364.8324727445
 21
31.3778793357
 12
364.4277854651
 22
31.3778793357
 13
364.4277854651
 23
31.3778793357
  0
SOLID
  8
0
 62
7
  6
CONTINUOUS
 10
363.1559103548
 20
31.3456153429
 11
363.2137226343
 21
31.4101417797
 12
363.8496603548
 22
31.4101417797
 13
363.8496603548
 23
31.4101417797
  0
SOLID
  8
0
 62
7
  6
CONTINUOUS
 10
364.543410024
 20
31.3456153429
 11
364.4277854651
 21
31.3778793357
 12
364.8324727445
 22
31.3778793357
 13
364.8324727445
 23
31.3778793357
  0
SOLID
  8
0
 62
7
  6
CONTINUOUS
 10
364.543410024
 20
31.3456153429
 11
364.8324727445
 21
31.3778793357
 12
364.6012229651
 22
31.2810881318
 13
364.6012229651
 23
31.2810881318
  0
SOLID
  8
0
 62
7
  6
CONTINUOUS
 10
364.8324727445
 20
31.3778793357
 11
364.890285024
 21
31.2810881318
 12
364.6012229651
 22
31.2810881318
 13
364.6012229651
 23
31.2810881318
  0
SOLID
  8
0
 62
7
  6
CONTINUOUS
 10
364.6012229651
 20
31.1842964734
 11
364.6012229651
 21
31.2810881318
 12
364.890285024
 22
31.2810881318
 13
364.890285024
 23
31.2810881318
  0
SOLID
  8
0
 62
7
  6
CONTINUOUS
 10
364.6012229651
 20
31.1842964734
 11
364.890285024
 21
31.2810881318
 12
364.6012229651
 22
31.0552422931
 13
364.6012229651
 23
31.0552422931
  0
SOLID
  8
0
 62
7
  6
CONTINUOUS
 10
364.6012229651
 20
31.0552422931
 11
364.890285024
 21
31.2810881318
 12
364.6012229651
 22
30.8616599362
 13
364.6012229651
 23
30.8616599362
  0
SOLID
  8
0
 62
7
  6
CONTINUOUS
 10
364.890285024
 20
31.2810881318
 11
364.890285024
 21
30.7648681127
 12
364.6012229651
 22
30.8616599362
 13
364.6012229651
 23
30.8616599362
  0
SOLID
  8
0
 62
7
  6
CONTINUOUS
 10
366.798097524
 20
31.5069339419
 11
367.0293479651
 21
31.5391976292
 12
367.2605977445
 22
31.5391976292
 13
367.2605977445
 23
31.5391976292
  0
SOLID
  8
0
 62
7
  6
CONTINUOUS
 10
367.2605977445
 20
31.5391976292
 11
367.4340352445
 21
31.5069339419
 12
366.798097524
 22
31.5069339419
 13
366.798097524
 23
31.5069339419
  0
SOLID
  8
0
 62
7
  6
CONTINUOUS
 10
366.624660024
 20
31.4424065674
 11
366.798097524
 21
31.5069339419
 12
367.4340352445
 22
31.5069339419
 13
367.4340352445
 23
31.5069339419
  0
SOLID
  8
0
 62
7
  6
CONTINUOUS
 10
367.4340352445
 20
31.5069339419
 11
367.6074727445
 21
31.4424065674
 12
366.624660024
 22
31.4424065674
 13
366.624660024
 23
31.4424065674
  0
SOLID
  8
0
 62
7
  6
CONTINUOUS
 10
367.6074727445
 20
31.4424065674
 11
367.0293479651
 21
31.4101420472
 12
366.624660024
 22
31.4424065674
 13
366.624660024
 23
31.4424065674
  0
SOLID
  8
0
 62
7
  6
CONTINUOUS
 10
366.5090354651
 20
31.377879193
 11
366.624660024
 21
31.4424065674
 12
367.0293479651
 22
31.4101420472
 13
367.0293479651
 23
31.4101420472
  0
SOLID
  8
0
 62
7
  6
CONTINUOUS
 10
367.0293479651
 20
31.4101420472
 11
366.798097524
 21
31.377879193
 12
366.5090354651
 22
31.377879193
 13
366.5090354651
 23
31.377879193
  0
SOLID
  8
0
 62
7
  6
CONTINUOUS
 10
367.0293479651
 20
31.4101420472
 11
367.6074727445
 21
31.4424065674
 12
367.2605977445
 22
31.377879193
 13
367.2605977445
 23
31.377879193
  0
SOLID
  8
0
 62
7
  6
CONTINUOUS
 10
367.6074727445
 20
31.4424065674
 11
367.7230979651
 21
31.377879193
 12
367.2605977445
 22
31.377879193
 13
367.2605977445
 23
31.377879193
  0
SOLID
  8
0
 62
7
  6
CONTINUOUS
 10
367.3762229651
 20
31.345614957
 11
367.2605977445
 21
31.377879193
 12
367.7230979651
 22
31.377879193
 13
367.7230979651
 23
31.377879193
  0
SOLID
  8
0
 62
7
  6
CONTINUOUS
 10
367.3762229651
 20
31.345614957
 11
367.7230979651
 21
31.377879193
 12
367.491847524
 22
31.2810881312
 13
367.491847524
 23
31.2810881312
  0
SOLID
  8
0
 62
7
  6
CONTINUOUS
 10
367.7230979651
 20
31.377879193
 11
367.7809102445
 21
31.2810881312
 12
367.491847524
 22
31.2810881312
 13
367.491847524
 23
31.2810881312
  0
SOLID
  8
0
 62
7
  6
CONTINUOUS
 10
367.5496604651
 20
31.119769695
 11
367.491847524
 21
31.2810881312
 12
367.7809102445
 22
31.2810881312
 13
367.7809102445
 23
31.2810881312
  0
SOLID
  8
0
 62
7
  6
CONTINUOUS
 10
367.7809102445
 20
31.2810881312
 11
367.838722524
 21
31.119769695
 12
367.5496604651
 22
31.119769695
 13
367.5496604651
 23
31.119769695
  0
SOLID
  8
0
 62
7
  6
CONTINUOUS
 10
366.798097524
 20
31.377879193
 11
366.624660024
 21
31.3133521701
 12
366.5090354651
 22
31.377879193
 13
366.5090354651
 23
31.377879193
  0
SOLID
  8
0
 62
7
  6
CONTINUOUS
 10
366.624660024
 20
31.3133521701
 11
366.5090354651
 21
31.2488235635
 12
366.5090354651
 22
31.377879193
 13
366.5090354651
 23
31.377879193
  0
SOLID
  8
0
 62
7
  6
CONTINUOUS
 10
366.5090354651
 20
31.2488235635
 11
366.2199727445
 21
30.5067596374
 12
366.5090354651
 22
31.377879193
 13
366.5090354651
 23
31.377879193
  0
SOLID
  8
0
 62
7
  6
CONTINUOUS
 10
366.5090354651
 20
31.377879193
 11
366.2199727445
 21
30.5067596374
 12
366.5090354651
 22
31.5391976292
 13
366.5090354651
 23
31.5391976292
  0
SOLID
  8
0
 62
7
  6
CONTINUOUS
 10
366.2199727445
 20
30.5067596374
 11
366.2199727445
 21
31.5391976292
 12
366.5090354651
 22
31.5391976292
 13
366.5090354651
 23
31.5391976292
  0
SOLID
  8
0
 62
7
  6
CONTINUOUS
 10
366.5090354651
 20
31.2488235635
 11
366.5090354651
 21
30.5067596374
 12
366.2199727445
 22
30.5067596374
 13
366.2199727445
 23
30.5067596374
  0
SOLID
  8
0
 62
7
  6
CONTINUOUS
 10
367.5496604651
 20
30.5067596374
 11
367.5496604651
 21
31.119769695
 12
367.838722524
 22
31.119769695
 13
367.838722524
 23
31.119769695
  0
SOLID
  8
0
 62
7
  6
CONTINUOUS
 10
367.838722524
 20
31.119769695
 11
367.838722524
 21
30.5067596374
 12
367.5496604651
 22
30.5067596374
 13
367.5496604651
 23
30.5067596374
  0
SOLID
  8
0
 62
7
  6
CONTINUOUS
 10
368.6480977445
 20
31.5069334157
 11
368.9949727445
 21
31.539197762
 12
369.3418477445
 22
31.539197762
 13
369.3418477445
 23
31.539197762
  0
SOLID
  8
0
 62
7
  6
CONTINUOUS
 10
369.3418477445
 20
31.539197762
 11
369.6887227445
 21
31.5069334157
 12
368.6480977445
 22
31.5069334157
 13
368.6480977445
 23
31.5069334157
  0
SOLID
  8
0
 62
7
  6
CONTINUOUS
 10
368.4168479651
 20
31.4424063504
 11
368.6480977445
 21
31.5069334157
 12
369.6887227445
 22
31.5069334157
 13
369.6887227445
 23
31.5069334157
  0
SOLID
  8
0
 62
7
  6
CONTINUOUS
 10
368.4168479651
 20
31.4424063504
 11
369.6887227445
 21
31.5069334406
 12
369.8621602445
 22
31.4746706537
 13
369.8621602445
 23
31.4746706537
  0
SOLID
  8
0
 62
7
  6
CONTINUOUS
 10
368.4168479651
 20
31.4424063504
 11
369.8621602445
 21
31.4746706537
 12
368.9949727445
 22
31.4101421267
 13
368.9949727445
 23
31.4101421267
  0
SOLID
  8
0
 62
7
  6
CONTINUOUS
 10
368.9949727445
 20
31.4101421267
 11
369.8621602445
 21
31.4746706537
 12
369.3418477445
 22
31.4101421267
 13
369.3418477445
 23
31.4101421267
  0
SOLID
  8
0
 62
7
  6
CONTINUOUS
 10
369.8621602445
 20
31.4746706537
 11
370.0355977445
 21
31.4101421267
 12
369.3418477445
 22
31.4101421267
 13
369.3418477445
 23
31.4101421267
  0
SOLID
  8
0
 62
7
  6
CONTINUOUS
 10
369.6887227445
 20
31.3778792603
 11
369.3418477445
 21
31.4101421267
 12
370.0355977445
 22
31.4101421267
 13
370.0355977445
 23
31.4101421267
  0
SOLID
  8
0
 62
7
  6
CONTINUOUS
 10
368.3012227445
 20
31.3456148845
 11
368.4168479651
 21
31.4424063504
 12
368.9949727445
 22
31.4101421267
 13
368.9949727445
 23
31.4101421267
  0
SOLID
  8
0
 62
7
  6
CONTINUOUS
 10
369.6887227445
 20
31.3778792603
 11
370.0355977445
 21
31.4101421267
 12
369.8043479651
 22
31.3456148845
 13
369.8043479651
 23
31.3456148845
  0
SOLID
  8
0
 62
7
  6
CONTINUOUS
 10
369.8043479651
 20
31.3456148845
 11
370.0355977445
 21
31.4101421267
 12
369.8621602445
 22
31.281087868
 13
369.8621602445
 23
31.281087868
  0
SOLID
  8
0
 62
7
  6
CONTINUOUS
 10
370.0355977445
 20
31.4101421267
 11
370.1512223035
 21
31.281087868
 12
369.8621602445
 22
31.281087868
 13
369.8621602445
 23
31.281087868
  0
SOLID
  8
0
 62
7
  6
CONTINUOUS
 10
359.4559102445
 20
31.3778792603
 11
358.9355977445
 21
31.3456148963
 12
359.6871602721
 22
31.4101421155
 13
359.6871602721
 23
31.4101421155
  0
SOLID
  8
0
 62
7
  6
CONTINUOUS
 10
358.9355977445
 20
31.3456148963
 11
359.0512227376
 21
31.4101421155
 12
359.6871602721
 22
31.4101421155
 13
359.6871602721
 23
31.4101421155
  0
SOLID
  8
0
 62
7
  6
CONTINUOUS
 10
359.4559102445
 20
31.3778792603
 11
359.3402852307
 21
31.3456148963
 12
358.9355977445
 22
31.3456148963
 13
358.9355977445
 23
31.3456148963
  0
SOLID
  8
0
 62
7
  6
CONTINUOUS
 10
358.8199727462
 20
31.2165607767
 11
358.9355977445
 21
31.3456148963
 12
359.3402852307
 22
31.3456148963
 13
359.3402852307
 23
31.3456148963
  0
SOLID
  8
0
 62
7
  6
CONTINUOUS
 10
363.1559103548
 20
31.3456149608
 11
363.8496603548
 21
31.4101420472
 12
363.6184102445
 22
31.3778792603
 13
363.6184102445
 23
31.3778792603
  0
SOLID
  8
0
 62
7
  6
CONTINUOUS
 10
363.6184102445
 20
31.3778792603
 11
363.5027853548
 21
31.3456149608
 12
363.1559103548
 22
31.3456149608
 13
363.1559103548
 23
31.3456149608
  0
SOLID
  8
0
 62
7
  6
CONTINUOUS
 10
363.1559103548
 20
31.2810878707
 11
363.1559103548
 21
31.3456149608
 12
363.5027853548
 22
31.3456149608
 13
363.5027853548
 23
31.3456149608
  0
SOLID
  8
0
 62
7
  6
CONTINUOUS
 10
363.5027853548
 20
31.3456149608
 11
363.4449727445
 21
31.2810878707
 12
363.1559103548
 22
31.2810878707
 13
363.1559103548
 23
31.2810878707
  0
SOLID
  8
0
 62
7
  6
CONTINUOUS
 10
368.3012227445
 20
31.3456149608
 11
368.9949727445
 21
31.4101420472
 12
368.7637229651
 22
31.3778792603
 13
368.7637229651
 23
31.3778792603
  0
SOLID
  8
0
 62
7
  6
CONTINUOUS
 10
368.7637229651
 20
31.3778792603
 11
368.6480977445
 21
31.3456149608
 12
368.3012227445
 22
31.3456149608
 13
368.3012227445
 23
31.3456149608
  0
SOLID
  8
0
 62
7
  6
CONTINUOUS
 10
368.3012227445
 20
31.2810878707
 11
368.3012227445
 21
31.3456149608
 12
368.6480977445
 22
31.3456149608
 13
368.6480977445
 23
31.3456149608
  0
SOLID
  8
0
 62
7
  6
CONTINUOUS
 10
368.6480977445
 20
31.3456149608
 11
368.5902854651
 21
31.2810878707
 12
368.3012227445
 22
31.2810878707
 13
368.3012227445
 23
31.2810878707
  0
SOLID
  8
0
 62
7
  6
CONTINUOUS
 10
368.4168479651
 20
31.1520336865
 11
368.3012227445
 21
31.2810878707
 12
368.5902854651
 22
31.2810878707
 13
368.5902854651
 23
31.2810878707
  0
SOLID
  8
0
 62
7
  6
CONTINUOUS
 10
358.8199727462
 20
31.2165607767
 11
359.3402852307
 21
31.345614957
 12
359.1668477307
 22
31.2488235635
 13
359.1668477307
 23
31.2488235635
  0
SOLID
  8
0
 62
7
  6
CONTINUOUS
 10
359.1668477307
 20
31.2488235635
 11
359.1090352445
 21
31.1842964734
 12
358.8199727462
 22
31.2165607767
 13
358.8199727462
 23
31.2165607767
  0
SOLID
  8
0
 62
7
  6
CONTINUOUS
 10
358.7621602445
 20
31.0229779898
 11
358.8199727462
 21
31.2165607767
 12
359.1090352445
 22
31.1842964734
 13
359.1090352445
 23
31.1842964734
  0
SOLID
  8
0
 62
7
  6
CONTINUOUS
 10
363.6184102445
 20
31.1520336865
 11
363.9652852445
 21
31.1842964611
 12
364.6012229651
 22
31.1842964611
 13
364.6012229651
 23
31.1842964611
  0
SOLID
  8
0
 62
7
  6
CONTINUOUS
 10
363.6184102445
 20
31.1520336865
 11
364.6012229651
 21
31.1842964611
 12
363.3871601343
 22
31.0875057863
 13
363.3871601343
 23
31.0875057863
  0
SOLID
  8
0
 62
7
  6
CONTINUOUS
 10
363.3871601343
 20
31.0875057863
 11
364.6012229651
 21
31.1842964611
 12
363.9652852445
 22
31.0552422808
 13
363.9652852445
 23
31.0552422808
  0
SOLID
  8
0
 62
7
  6
CONTINUOUS
 10
364.6012229651
 20
31.1842964611
 11
364.6012229651
 21
31.0552422808
 12
363.9652852445
 22
31.0552422808
 13
363.9652852445
 23
31.0552422808
  0
SOLID
  8
0
 62
7
  6
CONTINUOUS
 10
368.4168479651
 20
31.1520338754
 11
368.5902854651
 21
31.2810878668
 12
368.6480977445
 22
31.2165607767
 13
368.6480977445
 23
31.2165607767
  0
SOLID
  8
0
 62
7
  6
CONTINUOUS
 10
368.6480977445
 20
31.2165607767
 11
368.8215352445
 21
31.1520338754
 12
368.4168479651
 22
31.1520338754
 13
368.4168479651
 23
31.1520338754
  0
SOLID
  8
0
 62
7
  6
CONTINUOUS
 10
368.6480977445
 20
31.0552422931
 11
368.4168479651
 21
31.1520338754
 12
368.8215352445
 22
31.1520338754
 13
368.8215352445
 23
31.1520338754
  0
SOLID
  8
0
 62
7
  6
CONTINUOUS
 10
368.8215352445
 20
31.1520338754
 11
369.8043479651
 21
30.9907152029
 12
368.6480977445
 22
31.0552422931
 13
368.6480977445
 23
31.0552422931
  0
SOLID
  8
0
 62
7
  6
CONTINUOUS
 10
369.6309104651
 20
30.8939239876
 11
368.6480977445
 21
31.0552422931
 12
369.8043479651
 22
30.9907152029
 13
369.8043479651
 23
30.9907152029
  0
SOLID
  8
0
 62
7
  6
CONTINUOUS
 10
369.8043479651
 20
30.9907152029
 11
370.0355977445
 21
30.8939239876
 12
369.6309104651
 22
30.8939239876
 13
369.6309104651
 23
30.8939239876
  0
SOLID
  8
0
 62
7
  6
CONTINUOUS
 10
369.8043479651
 20
30.8293967193
 11
369.6309104651
 21
30.8939239876
 12
370.0355977445
 22
30.8939239876
 13
370.0355977445
 23
30.8939239876
  0
SOLID
  8
0
 62
7
  6
CONTINUOUS
 10
369.8043479651
 20
30.8293967193
 11
370.0355977445
 21
30.8939239876
 12
369.8621602445
 22
30.7648682694
 13
369.8621602445
 23
30.7648682694
  0
SOLID
  8
0
 62
7
  6
CONTINUOUS
 10
370.0355977445
 20
30.8939239876
 11
370.1512223035
 21
30.7648682694
 12
369.8621602445
 22
30.7648682694
 13
369.8621602445
 23
30.7648682694
  0
SOLID
  8
0
 62
7
  6
CONTINUOUS
 10
369.8043479651
 20
30.7003411846
 11
369.8621602445
 21
30.7648682694
 12
370.1512223035
 22
30.7648682694
 13
370.1512223035
 23
30.7648682694
  0
SOLID
  8
0
 62
7
  6
CONTINUOUS
 10
370.1512223035
 20
30.7648682694
 11
370.1512223035
 21
30.7003411846
 12
369.8043479651
 22
30.7003411846
 13
369.8043479651
 23
30.7003411846
  0
SOLID
  8
0
 62
7
  6
CONTINUOUS
 10
369.6887227445
 20
30.6680782357
 11
369.8043479651
 21
30.7003411846
 12
370.1512223035
 22
30.7003411846
 13
370.1512223035
 23
30.7003411846
  0
SOLID
  8
0
 62
7
  6
CONTINUOUS
 10
369.6887227445
 20
30.6680782357
 11
370.1512223035
 21
30.7003411846
 12
369.4574729651
 22
30.6358140998
 13
369.4574729651
 23
30.6358140998
  0
SOLID
  8
0
 62
7
  6
CONTINUOUS
 10
370.1512223035
 20
30.7003411846
 11
370.0355977445
 21
30.6035511455
 12
369.4574729651
 22
30.6358140998
 13
369.4574729651
 23
30.6358140998
  0
SOLID
  8
0
 62
7
  6
CONTINUOUS
 10
370.0355977445
 20
30.6035511455
 11
368.5902854651
 21
30.5712868422
 12
369.4574729651
 22
30.6358140998
 13
369.4574729651
 23
30.6358140998
  0
SOLID
  8
0
 62
7
  6
CONTINUOUS
 10
369.4574729651
 20
30.6358140998
 11
368.5902854651
 21
30.5712868422
 12
369.1105979651
 22
30.6358140998
 13
369.1105979651
 23
30.6358140998
  0
SOLID
  8
0
 62
7
  6
CONTINUOUS
 10
368.5902854651
 20
30.5712868422
 11
368.4168479651
 21
30.6358140998
 12
369.1105979651
 22
30.6358140998
 13
369.1105979651
 23
30.6358140998
  0
SOLID
  8
0
 62
7
  6
CONTINUOUS
 10
368.5902854651
 20
30.5712868422
 11
370.0355977445
 21
30.6035511455
 12
368.7637229651
 22
30.5390223111
 13
368.7637229651
 23
30.5390223111
  0
SOLID
  8
0
 62
7
  6
CONTINUOUS
 10
370.0355977445
 20
30.6035511455
 11
369.8043479651
 21
30.5390223111
 12
368.7637229651
 22
30.5390223111
 13
368.7637229651
 23
30.5390223111
  0
SOLID
  8
0
 62
7
  6
CONTINUOUS
 10
369.1105979651
 20
30.5067599302
 11
368.7637229651
 21
30.5390223111
 12
369.8043479651
 22
30.5390223111
 13
369.8043479651
 23
30.5390223111
  0
SOLID
  8
0
 62
7
  6
CONTINUOUS
 10
369.8043479651
 20
30.5390223111
 11
369.4574729651
 21
30.5067599302
 12
369.1105979651
 22
30.5067599302
 13
369.1105979651
 23
30.5067599302
  0
SOLID
  8
0
 62
7
  6
CONTINUOUS
 10
358.7621602445
 20
31.0229779898
 11
359.1090352445
 21
31.1842964734
 12
359.0512227376
 22
31.0552422931
 13
359.0512227376
 23
31.0552422931
  0
SOLID
  8
0
 62
7
  6
CONTINUOUS
 10
359.0512227376
 20
31.0552422931
 11
359.0512227376
 21
30.9584509954
 12
358.7621602445
 22
31.0229779898
 13
358.7621602445
 23
31.0229779898
  0
SOLID
  8
0
 62
7
  6
CONTINUOUS
 10
358.8199727462
 20
30.8293967193
 11
358.7621602445
 21
31.0229779898
 12
359.0512227376
 22
30.9584509954
 13
359.0512227376
 23
30.9584509954
  0
SOLID
  8
0
 62
7
  6
CONTINUOUS
 10
359.0512227376
 20
30.9584509954
 11
359.1668477307
 21
30.797132416
 12
358.8199727462
 22
30.8293967193
 13
358.8199727462
 23
30.8293967193
  0
SOLID
  8
0
 62
7
  6
CONTINUOUS
 10
358.9355977445
 20
30.7003413087
 11
358.8199727462
 21
30.8293967193
 12
359.1668477307
 22
30.797132416
 13
359.1668477307
 23
30.797132416
  0
SOLID
  8
0
 62
7
  6
CONTINUOUS
 10
359.1668477307
 20
30.797132416
 11
359.3402852307
 21
30.7003413087
 12
358.9355977445
 22
30.7003413087
 13
358.9355977445
 23
30.7003413087
  0
SOLID
  8
0
 62
7
  6
CONTINUOUS
 10
359.0512227376
 20
30.6358140759
 11
358.9355977445
 21
30.7003413087
 12
359.3402852307
 22
30.7003413087
 13
359.3402852307
 23
30.7003413087
  0
SOLID
  8
0
 62
7
  6
CONTINUOUS
 10
359.3402852307
 20
30.7003413087
 11
359.6871602721
 21
30.6358140759
 12
359.0512227376
 22
30.6358140759
 13
359.0512227376
 23
30.6358140759
  0
SOLID
  8
0
 62
7
  6
CONTINUOUS
 10
359.2246602583
 20
30.5712868422
 11
359.0512227376
 21
30.6358140759
 12
359.6871602721
 22
30.6358140759
 13
359.6871602721
 23
30.6358140759
  0
SOLID
  8
0
 62
7
  6
CONTINUOUS
 10
363.2715352445
 20
31.0229779808
 11
363.3871601343
 21
31.0875057863
 12
363.9652852445
 22
31.0552422931
 13
363.9652852445
 23
31.0552422931
  0
SOLID
  8
0
 62
7
  6
CONTINUOUS
 10
363.9652852445
 20
31.0552422931
 11
363.7340351343
 21
31.0229779808
 12
363.2715352445
 22
31.0229779808
 13
363.2715352445
 23
31.0229779808
  0
SOLID
  8
0
 62
7
  6
CONTINUOUS
 10
363.1559103548
 20
30.8939238094
 11
363.2715352445
 21
31.0229779808
 12
363.7340351343
 22
31.0229779808
 13
363.7340351343
 23
31.0229779808
  0
SOLID
  8
0
 62
7
  6
CONTINUOUS
 10
363.5027853548
 20
30.926187309
 11
363.1559103548
 21
30.8939238094
 12
363.6184102445
 22
30.9907152029
 13
363.6184102445
 23
30.9907152029
  0
SOLID
  8
0
 62
7
  6
CONTINUOUS
 10
363.1559103548
 20
30.8939238094
 11
363.7340351343
 21
31.0229779898
 12
363.6184102445
 22
30.9907152029
 13
363.6184102445
 23
30.9907152029
  0
SOLID
  8
0
 62
7
  6
CONTINUOUS
 10
363.5027853548
 20
30.926187309
 11
363.4449727445
 21
30.8293967193
 12
363.1559103548
 22
30.8939238094
 13
363.1559103548
 23
30.8939238094
  0
SOLID
  8
0
 62
7
  6
CONTINUOUS
 10
363.1559103548
 20
30.797132416
 11
363.1559103548
 21
30.8939238094
 12
363.4449727445
 22
30.8293967193
 13
363.4449727445
 23
30.8293967193
  0
SOLID
  8
0
 62
7
  6
CONTINUOUS
 10
363.4449727445
 20
30.8293967193
 11
363.4449727445
 21
30.7648681127
 12
363.1559103548
 22
30.797132416
 13
363.1559103548
 23
30.797132416
  0
SOLID
  8
0
 62
7
  6
CONTINUOUS
 10
363.2137226343
 20
30.6680782357
 11
363.1559103548
 21
30.797132416
 12
363.4449727445
 22
30.7648681127
 13
363.4449727445
 23
30.7648681127
  0
SOLID
  8
0
 62
7
  6
CONTINUOUS
 10
364.6012229651
 20
30.8616599362
 11
364.890285024
 21
30.7648681127
 12
364.543410024
 22
30.797132416
 13
364.543410024
 23
30.797132416
  0
SOLID
  8
0
 62
7
  6
CONTINUOUS
 10
364.369972524
 20
30.7003410226
 11
364.543410024
 21
30.797132416
 12
364.890285024
 22
30.7648681127
 13
364.890285024
 23
30.7648681127
  0
SOLID
  8
0
 62
7
  6
CONTINUOUS
 10
364.369972524
 20
30.7003410226
 11
364.890285024
 21
30.7648681127
 12
364.6012229651
 22
30.6680782357
 13
364.6012229651
 23
30.6680782357
  0
SOLID
  8
0
 62
7
  6
CONTINUOUS
 10
364.890285024
 20
30.7648681127
 11
364.9480979651
 21
30.6035511455
 12
364.6012229651
 22
30.6680782357
 13
364.6012229651
 23
30.6680782357
  0
SOLID
  8
0
 62
7
  6
CONTINUOUS
 10
364.6590352445
 20
30.5712868422
 11
364.6012229651
 21
30.6680782357
 12
364.9480979651
 22
30.6035511455
 13
364.9480979651
 23
30.6035511455
  0
SOLID
  8
0
 62
7
  6
CONTINUOUS
 10
364.6590352445
 20
30.5712868422
 11
364.9480979651
 21
30.6035511455
 12
364.716847524
 22
30.5067598731
 13
364.716847524
 23
30.5067598731
  0
SOLID
  8
0
 62
7
  6
CONTINUOUS
 10
364.9480979651
 20
30.6035511455
 11
365.0059102445
 21
30.5067598731
 12
364.716847524
 22
30.5067598731
 13
364.716847524
 23
30.5067598731
  0
SOLID
  8
0
 62
7
  6
CONTINUOUS
 10
360.2652852997
 20
30.7326051679
 11
360.3230977445
 21
30.8293966612
 12
360.6121602997
 22
30.8293966612
 13
360.6121602997
 23
30.8293966612
  0
SOLID
  8
0
 62
7
  6
CONTINUOUS
 10
360.6121602997
 20
30.8293966612
 11
360.5543476894
 21
30.7003410226
 12
360.2652852997
 22
30.7326051679
 13
360.2652852997
 23
30.7326051679
  0
SOLID
  8
0
 62
7
  6
CONTINUOUS
 10
360.091847717
 20
30.6680782357
 11
360.2652852997
 21
30.7326051679
 12
360.5543476894
 22
30.7003410226
 13
360.5543476894
 23
30.7003410226
  0
SOLID
  8
0
 62
7
  6
CONTINUOUS
 10
360.091847717
 20
30.6680782357
 11
360.5543476894
 21
30.7003410226
 12
359.6871602721
 22
30.6358139324
 13
359.6871602721
 23
30.6358139324
  0
SOLID
  8
0
 62
7
  6
CONTINUOUS
 10
360.5543476894
 20
30.7003410226
 11
360.3809101894
 21
30.6035511455
 12
359.6871602721
 22
30.6358139324
 13
359.6871602721
 23
30.6358139324
  0
SOLID
  8
0
 62
7
  6
CONTINUOUS
 10
359.2246602583
 20
30.5712868422
 11
359.6871602721
 21
30.6358139324
 12
360.3809101894
 22
30.6035511455
 13
360.3809101894
 23
30.6035511455
  0
SOLID
  8
0
 62
7
  6
CONTINUOUS
 10
359.2246602583
 20
30.5712868422
 11
360.3809101894
 21
30.6035511455
 12
359.3980977583
 22
30.5390224228
 13
359.3980977583
 23
30.5390224228
  0
SOLID
  8
0
 62
7
  6
CONTINUOUS
 10
360.3809101894
 20
30.6035511455
 11
360.1496602445
 21
30.5390224228
 12
359.3980977583
 22
30.5390224228
 13
359.3980977583
 23
30.5390224228
  0
SOLID
  8
0
 62
7
  6
CONTINUOUS
 10
359.744972717
 20
30.5067597521
 11
359.3980977583
 21
30.5390224228
 12
360.1496602445
 22
30.5390224228
 13
360.1496602445
 23
30.5390224228
  0
SOLID
  8
0
 62
7
  6
CONTINUOUS
 10
363.2137226343
 20
30.6680782357
 11
363.4449727445
 21
30.7648681127
 12
363.5027853548
 22
30.7003410226
 13
363.5027853548
 23
30.7003410226
  0
SOLID
  8
0
 62
7
  6
CONTINUOUS
 10
363.5027853548
 20
30.7003410226
 11
363.7340351343
 21
30.6358139324
 12
363.2137226343
 22
30.6680782357
 13
363.2137226343
 23
30.6680782357
  0
SOLID
  8
0
 62
7
  6
CONTINUOUS
 10
363.3871601343
 20
30.5712868422
 11
363.2137226343
 21
30.6680782357
 12
363.7340351343
 22
30.6358139324
 13
363.7340351343
 23
30.6358139324
  0
SOLID
  8
0
 62
7
  6
CONTINUOUS
 10
364.0809101343
 20
30.6358139363
 11
364.369972524
 21
30.7003410226
 12
364.6012229651
 22
30.6680782357
 13
364.6012229651
 23
30.6680782357
  0
SOLID
  8
0
 62
7
  6
CONTINUOUS
 10
364.6012229651
 20
30.6680782357
 11
364.543410024
 21
30.6035511455
 12
364.0809101343
 22
30.6358139363
 13
364.0809101343
 23
30.6358139363
  0
SOLID
  8
0
 62
7
  6
CONTINUOUS
 10
364.543410024
 20
30.6035511455
 11
363.3871601343
 21
30.5712868422
 12
364.0809101343
 22
30.6358139363
 13
364.0809101343
 23
30.6358139363
  0
SOLID
  8
0
 62
7
  6
CONTINUOUS
 10
363.3871601343
 20
30.5712868422
 11
363.7340351343
 21
30.6358139363
 12
364.0809101343
 22
30.6358139363
 13
364.0809101343
 23
30.6358139363
  0
SOLID
  8
0
 62
7
  6
CONTINUOUS
 10
363.3871601343
 20
30.5712868422
 11
364.543410024
 21
30.6035511455
 12
363.5027853548
 22
30.5390225267
 13
363.5027853548
 23
30.5390225267
  0
SOLID
  8
0
 62
7
  6
CONTINUOUS
 10
364.543410024
 20
30.6035511455
 11
364.369972524
 21
30.5390225267
 12
363.5027853548
 22
30.5390225267
 13
363.5027853548
 23
30.5390225267
  0
SOLID
  8
0
 62
7
  6
CONTINUOUS
 10
363.7340351343
 20
30.5067596914
 11
363.5027853548
 21
30.5390225267
 12
364.369972524
 22
30.5390225267
 13
364.369972524
 23
30.5390225267
  0
SOLID
  8
0
 62
7
  6
CONTINUOUS
 10
364.369972524
 20
30.5390225267
 11
364.0809101343
 21
30.5067596914
 12
363.7340351343
 22
30.5067596914
 13
363.7340351343
 23
30.5067596914
  0
SOLID
  8
0
 62
7
  6
CONTINUOUS
 10
368.7637229651
 20
30.6680782357
 11
368.4168479651
 21
30.6358138717
 12
368.6480977445
 22
30.7003410226
 13
368.6480977445
 23
30.7003410226
  0
SOLID
  8
0
 62
7
  6
CONTINUOUS
 10
368.6480977445
 20
30.7003410226
 11
368.4168479651
 21
30.6358138717
 12
368.5902854651
 22
30.7648680521
 13
368.5902854651
 23
30.7648680521
  0
SOLID
  8
0
 62
7
  6
CONTINUOUS
 10
368.4168479651
 20
30.6358138717
 11
368.3012227445
 21
30.7648680521
 12
368.5902854651
 22
30.7648680521
 13
368.5902854651
 23
30.7648680521
  0
SOLID
  8
0
 62
7
  6
CONTINUOUS
 10
368.7637229651
 20
30.6680782357
 11
369.1105979651
 21
30.6358138717
 12
368.4168479651
 22
30.6358138717
 13
368.4168479651
 23
30.6358138717
  0
SOLID
  8
0
 62
7
  6
CONTINUOUS
 10
365.4684104651
 20
30.5067597521
 11
365.4684104651
 21
31.5391977439
 12
365.757472524
 22
30.5067597521
 13
365.757472524
 23
31.5391977439
  0
ENDBLK
  8
0
  6
BYBLOCK
 62
0
  0
BLOCK
  8
0
 62
2
  6
CONTINUOUS
  2
SYMBOL_0_BL0
 70
64
 10
240.8592468615
 20
19.762288695
  0
TEXT
  8
0
 62
7
  6
CONTINUOUS
 10
227.1239507038
 20
19.1357028027
  7
TEXTSTYLE_3
 40
2.7338706658
  1
Ammeraal Beltech
 41
1.0
 51
15.0
 72
0
  0
TEXT
  8
0
 62
7
  6
CONTINUOUS
 10
237.9247515296
 20
16.8621661299
  7
TEXTSTYLE_4
 40
1.0935482663
  1
Innovation & Service in Belting
 41
1.0
 72
0
  0
LINE
  8
0
 62
7
  6
CONTINUOUS
 10
221.0994100525
 20
19.9022961113
 11
221.8775620458
 21
23.5632134089
  0
LINE
  8
0
 62
7
  6
CONTINUOUS
 10
231.9727303357
 20
27.2266073205
 11
222.3653797889
 21
24.1049898993
  0
LINE
  8
0
 62
7
  6
CONTINUOUS
 10
221.3246933848
 20
19.2089453082
 11
228.8317686459
 21
12.4495443822
  0
LINE
  8
0
 62
7
  6
CONTINUOUS
 10
221.5872277955
 20
20.4440726016
 11
232.3954971607
 21
23.9558922005
  0
LINE
  8
0
 62
7
  6
CONTINUOUS
 10
232.3912920235
 20
13.6061036368
 11
223.9458323548
 21
21.2104296785
  0
LINE
  8
0
 62
7
  6
CONTINUOUS
 10
232.9111147433
 20
26.3816822048
 11
231.9345552061
 21
21.7873308023
  0
LINE
  8
0
 62
7
  6
CONTINUOUS
 10
231.2347532584
 20
18.4950214885
 11
230.5483050469
 21
15.2655365641
  0
LINE
  8
0
 62
7
  6
CONTINUOUS
 10
233.5922108419
 20
13.9963058145
 11
234.5484423775
 21
18.4950214885
  0
LINE
  8
0
 62
7
  6
CONTINUOUS
 10
235.2482443252
 20
21.7873308023
 11
235.6924861276
 21
23.8773241617
  0
LINE
  8
0
 62
7
  6
CONTINUOUS
 10
229.5448697213
 20
12.2979700695
 11
233.1043930989
 21
13.4545293241
  0
LINE
  8
0
 62
7
  6
CONTINUOUS
 10
232.685831411
 20
27.0750330078
 11
235.4672027953
 21
24.5706749648
  0
ARC
  8
0
 62
7
  6
CONTINUOUS
 10
222.5906631212
 20
23.4116390962
 40
0.7290321776
 50
108.0
 51
168.0
  0
ARC
  8
0
 62
7
  6
CONTINUOUS
 10
232.198013668
 20
26.5332565175
 40
0.7290321776
 50
348.0
 51
108.0
  0
ARC
  8
0
 62
7
  6
CONTINUOUS
 10
234.9793850522
 20
24.0288984744
 40
0.7290321776
 50
348.0
 51
48.0
  0
ARC
  8
0
 62
7
  6
CONTINUOUS
 10
229.319586389
 20
12.9913208726
 40
0.7290321776
 50
228.0
 51
288.0
  0
ARC
  8
0
 62
7
  6
CONTINUOUS
 10
221.8125111278
 20
19.7507217986
 40
0.7290321776
 50
108.0
 51
228.0
  0
ARC
  8
0
 62
7
  6
CONTINUOUS
 10
232.8791097665
 20
14.1478801272
 40
0.7290321776
 50
228.0
 51
348.0
  0
ENDBLK
  8
0
  6
BYBLOCK
 62
0
  0
ENDSEC
  0
SECTION
  2
ENTITIES
  0
TEXT
  8
0
 62
5
  6
CONTINUOUS
 10
304.937007874
 20
25.636
  7
TEXTSTYLE_2
 40
2.8
  1
Scale :
 41
0.6
 51
0.000019
 72
0
  0
TEXT
  8
0
 62
5
  6
CONTINUOUS
 10
324.937007874
 20
25.636
  7
TEXTSTYLE_2
 40
2.8
  1
Belt type:
 41
0.6
 51
0.000019
 72
0
  0
INSERT
  8
0
 62
2
  6
CONTINUOUS
  2
SYMBOL_0_BL0
 10
240.8592468615
 20
19.762288695
  0
INSERT
  8
0
 62
2
  6
CONTINUOUS
  2
SYMBOL_5_BL1
 10
382.7840918555
 20
35.5067593403
  0
LINE
  8
0
 62
2
  6
CONTINUOUS
 10
218.937007874
 20
30.0
 11
408.937007874
 21
30.0
  0
LINE
  8
0
 62
2
  6
CONTINUOUS
 10
218.937007874
 20
30.0
 11
218.937007874
 21
10.0
  0
LINE
  8
0
 62
2
  6
CONTINUOUS
 10
218.937007874
 20
10.0
 11
408.937007874
 21
10.0
  0
LINE
  8
0
 62
2
  6
CONTINUOUS
 10
303.937007874
 20
30.0
 11
303.937007874
 21
10.0
  0
LINE
  8
0
 62
2
  6
CONTINUOUS
 10
323.937007874
 20
30.0
 11
323.937007874
 21
10.0
  0
LINE
  8
0
 62
2
  6
CONTINUOUS
 10
408.937007874
 20
30.0
 11
408.937007874
 21
10.0
  0
TEXT
  8
0
 62
5
  6
CONTINUOUS
 10
221.937007874
 20
23.303
  7
TEXTSTYLE_5
 40
1.52
  1
                                                                     Ammeraal Beltech Modular A/S
 41
1.0
 72
0
  0
TEXT
  8
0
 62
5
  6
CONTINUOUS
 10
221.937007874
 20
20.595
  7
TEXTSTYLE_5
 40
1.5
  1
                                                                      Hjulmagervej 21, 7100 Vejle,  DK
 41
1.0
 72
0
  0
TEXT
  8
0
 62
5
  6
CONTINUOUS
 10
221.937007874
 20
17.881
  7
TEXTSTYLE_5
 40
1.495
  1
                                                                      tel: 
 41
1.0
 72
0
  0
TEXT
  8
0
 62
5
  6
CONTINUOUS
 10
266.9239544389
 20
17.881
  7
TEXTSTYLE_5
 40
1.51
  1
+45 75723100     fax: +45 75723348
 41
1.0
 72
0
  0
TEXT
  8
0
 62
5
  6
CONTINUOUS
 10
221.937007874
 20
15.177
  7
TEXTSTYLE_5
 40
1.5
  1
                                                                      admin@unichains.dk  www.unichains.com
 41
1.0
 72
0
  0
TEXT
  8
0
 62
5
  6
CONTINUOUS
 10
308.687007874
 20
13.75
  7
TEXTSTYLE_6
 40
5.0
  1
1:1
 41
0.7
 72
1
 11
313.937007874
 21
13.75
  0
TEXT
  8
0
 62
5
  6
CONTINUOUS
 10
326.937007874
 20
13.75
  7
TEXTSTYLE_7
 40
7.5
  1
uni Flex ASB-43 Tab K300
 41
0.421875
 72
0
  0
LINE
  8
0
 62
7
  6
CONTINUOUS
 10
0.0
 20
0.0
 11
0.0
 21
297.0
  0
LINE
  8
0
 62
7
  6
CONTINUOUS
 10
8.937007874
 20
10.0
 11
8.937007874
 21
287.0
  0
LINE
  8
0
 62
7
  6
CONTINUOUS
 10
0.0
 20
0.0
 11
420.0
 21
0.0
  0
LINE
  8
0
 62
7
  6
CONTINUOUS
 10
408.937007874
 20
10.0
 11
8.937007874
 21
10.0
  0
LINE
  8
0
 62
7
  6
CONTINUOUS
 10
218.937007874
 20
30.0
 11
408.937007874
 21
30.0
  0
LINE
  8
0
 62
7
  6
CONTINUOUS
 10
210.0
 20
297.0
 11
210.0
 21
292.0
  0
LINE
  8
0
 62
7
  6
CONTINUOUS
 10
210.0
 20
0.0
 11
210.0
 21
5.0
  0
LINE
  8
0
 62
7
  6
CONTINUOUS
 10
8.937007874
 20
287.0
 11
408.937007874
 21
287.0
  0
LINE
  8
0
 62
7
  6
CONTINUOUS
 10
0.0
 20
297.0
 11
420.0
 21
297.0
  0
LINE
  8
0
 62
7
  6
CONTINUOUS
 10
408.937007874
 20
287.0
 11
408.937007874
 21
10.0
  0
LINE
  8
0
 62
7
  6
CONTINUOUS
 10
420.0
 20
0.0
 11
420.0
 21
297.0
  0
POLYLINE
  8
AXES
 62
7
  6
CONTINUOUS
 66
1
 70
0
  0
VERTEX
  8
AXES
 62
7
  6
CONTINUOUS
 10
163.9636571677
 20
236.8863931541
  0
VERTEX
  8
AXES
 62
7
  6
CONTINUOUS
 10
163.8329636581
 20
236.8525369677
  0
VERTEX
  8
AXES
 62
7
  6
CONTINUOUS
 10
163.700829589
 20
236.8077342657
  0
VERTEX
  8
AXES
 62
7
  6
CONTINUOUS
 10
163.5690382207
 20
236.753316143
  0
VERTEX
  8
AXES
 62
7
  6
CONTINUOUS
 10
163.4394984163
 20
236.6912456627
  0
VERTEX
  8
AXES
 62
7
  6
CONTINUOUS
 10
163.315402517
 20
236.6246105878
  0
VERTEX
  8
AXES
 62
7
  6
CONTINUOUS
 10
163.2001481704
 20
236.5570728308
  0
VERTEX
  8
AXES
 62
7
  6
CONTINUOUS
 10
163.0967338379
 20
236.492272626
  0
VERTEX
  8
AXES
 62
7
  6
CONTINUOUS
 10
163.0077990313
 20
236.4336039766
  0
VERTEX
  8
AXES
 62
7
  6
CONTINUOUS
 10
162.9347037173
 20
236.3834286411
  0
VERTEX
  8
AXES
 62
7
  6
CONTINUOUS
 10
162.8768239629
 20
236.34241423
  0
VERTEX
  8
AXES
 62
7
  6
CONTINUOUS
 10
162.8334292596
 20
236.3107978365
  0
VERTEX
  8
AXES
 62
7
  6
CONTINUOUS
 10
162.8034757976
 20
236.2883160301
  0
VERTEX
  8
AXES
 62
7
  6
CONTINUOUS
 10
162.786387116
 20
236.274839398
  0
VERTEX
  8
AXES
 62
7
  6
CONTINUOUS
 10
162.7818259302
 20
236.2704634787
  0
SEQEND
  0
POLYLINE
  8
0
 62
7
  6
CONTINUOUS
 66
1
 70
0
  0
VERTEX
  8
0
 62
7
  6
CONTINUOUS
 10
163.2921412622
 20
232.4173258782
  0
VERTEX
  8
0
 62
7
  6
CONTINUOUS
 10
163.1285024035
 20
232.389056112
  0
VERTEX
  8
0
 62
7
  6
CONTINUOUS
 10
163.0643635311
 20
232.3790424921
  0
VERTEX
  8
0
 62
7
  6
CONTINUOUS
 10
163.0122713458
 20
232.3726210741
  0
VERTEX
  8
0
 62
7
  6
CONTINUOUS
 10
162.9727804747
 20
232.3703731557
  0
SEQEND
  0
LINE
  8
0
 62
7
  6
CONTINUOUS
 10
180.9278259285
 20
218.3703731557
 11
189.6463381419
 21
218.3703731557
  0
POLYLINE
  8
0
 62
7
  6
CONTINUOUS
 66
1
 70
0
  0
VERTEX
  8
0
 62
7
  6
CONTINUOUS
 10
164.2591296787
 20
232.5132535304
  0
VERTEX
  8
0
 62
7
  6
CONTINUOUS
 10
164.1259320413
 20
232.510742223
  0
VERTEX
  8
0
 62
7
  6
CONTINUOUS
 10
163.9937597114
 20
232.5045776201
  0
VERTEX
  8
0
 62
7
  6
CONTINUOUS
 10
163.8633931078
 20
232.4949916543
  0
VERTEX
  8
0
 62
7
  6
CONTINUOUS
 10
163.7361626365
 20
232.4824061681
  0
VERTEX
  8
0
 62
7
  6
CONTINUOUS
 10
163.6137925941
 20
232.4674686899
  0
VERTEX
  8
0
 62
7
  6
CONTINUOUS
 10
163.4979842286
 20
232.4510056112
  0
VERTEX
  8
0
 62
7
  6
CONTINUOUS
 10
163.3903033617
 20
232.4339600471
  0
VERTEX
  8
0
 62
7
  6
CONTINUOUS
 10
163.2921412622
 20
232.4173258782
  0
SEQEND
  0
LINE
  8
0
 62
7
  6
CONTINUOUS
 10
187.5278259285
 20
223.0632504536
 11
187.4951533628
 21
223.0632275236
  0
LINE
  8
0
 62
7
  6
CONTINUOUS
 10
187.5278259285
 20
223.0296634151
 11
181.9278259285
 21
223.0296634151
  0
LINE
  8
0
 62
7
  6
CONTINUOUS
 10
187.3778264819
 20
223.322523607
 11
179.9278259285
 21
223.322523607
  0
LINE
  8
0
 62
7
  6
CONTINUOUS
 10
117.1318155262
 20
232.3703731557
 11
192.9318259285
 21
232.3703731557
  0
LINE
  8
AXES
 62
2
  6
CENTER
 10
114.3818259285
 20
238.3703731557
 11
193.0818259285
 21
238.3703731557
  0
LINE
  8
0
 62
7
  6
CONTINUOUS
 10
117.1318163206
 20
244.3703731557
 11
188.7646137268
 21
244.3703731557
  0
POLYLINE
  8
0
 62
7
  6
CONTINUOUS
 66
1
 70
0
  0
VERTEX
  8
0
 62
7
  6
CONTINUOUS
 10
171.1908713822
 20
232.3703731557
  0
VERTEX
  8
0
 62
7
  6
CONTINUOUS
 10
171.1515909499
 20
232.3726008249
  0
VERTEX
  8
0
 62
7
  6
CONTINUOUS
 10
171.0994428361
 20
232.3790204048
  0
VERTEX
  8
0
 62
7
  6
CONTINUOUS
 10
171.0346379437
 20
232.3891408606
  0
SEQEND
  0
POLYLINE
  8
0
 62
7
  6
CONTINUOUS
 66
1
 70
0
  0
VERTEX
  8
0
 62
7
  6
CONTINUOUS
 10
171.0346379437
 20
232.3891408606
  0
VERTEX
  8
0
 62
7
  6
CONTINUOUS
 10
170.8692180162
 20
232.4177226177
  0
VERTEX
  8
0
 62
7
  6
CONTINUOUS
 10
170.7703597533
 20
232.4344523701
  0
VERTEX
  8
0
 62
7
  6
CONTINUOUS
 10
170.6623908521
 20
232.451499832
  0
VERTEX
  8
0
 62
7
  6
CONTINUOUS
 10
170.5467808236
 20
232.4678766632
  0
VERTEX
  8
0
 62
7
  6
CONTINUOUS
 10
170.4251251627
 20
232.4826680832
  0
VERTEX
  8
0
 62
7
  6
CONTINUOUS
 10
170.2990218155
 20
232.4950986123
  0
VERTEX
  8
0
 62
7
  6
CONTINUOUS
 10
170.1697114291
 20
232.504588529
  0
VERTEX
  8
0
 62
7
  6
CONTINUOUS
 10
170.0379544735
 20
232.5107345194
  0
VERTEX
  8
0
 62
7
  6
CONTINUOUS
 10
169.9045211045
 20
232.5132532996
  0
SEQEND
  0
POLYLINE
  8
AXES
 62
7
  6
CONTINUOUS
 66
1
 70
0
  0
VERTEX
  8
AXES
 62
7
  6
CONTINUOUS
 10
170.1999946892
 20
236.8863931541
  0
VERTEX
  8
AXES
 62
7
  6
CONTINUOUS
 10
170.1781470501
 20
236.8929451571
  0
VERTEX
  8
AXES
 62
7
  6
CONTINUOUS
 10
170.1572233602
 20
236.9030447265
  0
VERTEX
  8
AXES
 62
7
  6
CONTINUOUS
 10
170.1379700274
 20
236.9165991448
  0
VERTEX
  8
AXES
 62
7
  6
CONTINUOUS
 10
170.120433048
 20
236.9340472163
  0
VERTEX
  8
AXES
 62
7
  6
CONTINUOUS
 10
170.1050781529
 20
236.955935742
  0
VERTEX
  8
AXES
 62
7
  6
CONTINUOUS
 10
170.0928832684
 20
236.9823698906
  0
VERTEX
  8
AXES
 62
7
  6
CONTINUOUS
 10
170.0847966218
 20
237.013383515
  0
VERTEX
  8
AXES
 62
7
  6
CONTINUOUS
 10
170.0818115653
 20
237.0493539434
  0
SEQEND
  0
LINE
  8
0
 62
7
  6
CONTINUOUS
 10
192.9658029527
 20
243.3973552431
 11
188.798590751
 21
244.3664743598
  0
POLYLINE
  8
AXES
 62
7
  6
CONTINUOUS
 66
1
 70
0
  0
VERTEX
  8
AXES
 62
7
  6
CONTINUOUS
 10
116.386409126
 20
236.3863880727
  0
VERTEX
  8
AXES
 62
7
  6
CONTINUOUS
 10
116.3829746421
 20
236.3801440456
  0
VERTEX
  8
AXES
 62
7
  6
CONTINUOUS
 10
116.3818259285
 20
236.374001734
  0
SEQEND
  0
POLYLINE
  8
AXES
 62
7
  6
CONTINUOUS
 66
1
 70
0
  0
VERTEX
  8
AXES
 62
7
  6
CONTINUOUS
 10
116.386409126
 20
240.3543582387
  0
VERTEX
  8
AXES
 62
7
  6
CONTINUOUS
 10
116.4341819694
 20
240.2784200201
  0
VERTEX
  8
AXES
 62
7
  6
CONTINUOUS
 10
116.4797477211
 20
240.1848481057
  0
VERTEX
  8
AXES
 62
7
  6
CONTINUOUS
 10
116.5226831308
 20
240.0747080625
  0
VERTEX
  8
AXES
 62
7
  6
CONTINUOUS
 10
116.5626043933
 20
239.949215407
  0
VERTEX
  8
AXES
 62
7
  6
CONTINUOUS
 10
116.5991700057
 20
239.8097065337
  0
VERTEX
  8
AXES
 62
7
  6
CONTINUOUS
 10
116.6320816747
 20
239.6576113027
  0
VERTEX
  8
AXES
 62
7
  6
CONTINUOUS
 10
116.6610838569
 20
239.4944283888
  0
VERTEX
  8
AXES
 62
7
  6
CONTINUOUS
 10
116.6859625535
 20
239.3217023428
  0
VERTEX
  8
AXES
 62
7
  6
CONTINUOUS
 10
116.7065429507
 20
239.1410067108
  0
VERTEX
  8
AXES
 62
7
  6
CONTINUOUS
 10
116.7226868944
 20
238.9539306108
  0
VERTEX
  8
AXES
 62
7
  6
CONTINUOUS
 10
116.7342903211
 20
238.7620689165
  0
VERTEX
  8
AXES
 62
7
  6
CONTINUOUS
 10
116.74128078
 20
238.5670182342
  0
VERTEX
  8
AXES
 62
7
  6
CONTINUOUS
 10
116.743615632
 20
238.3703731557
  0
SEQEND
  0
LINE
  8
AXES
 62
7
  6
CONTINUOUS
 10
116.3818259285
 20
233.120348521
 11
116.3818259285
 21
236.374001734
  0
LINE
  8
AXES
 62
7
  6
CONTINUOUS
 10
116.3818259285
 20
236.3863880727
 11
116.3818259285
 21
240.3543582387
  0
LINE
  8
AXES
 62
7
  6
CONTINUOUS
 10
116.3818259285
 20
240.3667445773
 11
116.3818259285
 21
243.6203981427
  0
LINE
  8
0
 62
7
  6
CONTINUOUS
 10
117.1358259285
 20
244.2203731557
 11
117.1358259285
 21
232.5203731557
  0
LINE
  8
0
 62
7
  6
CONTINUOUS
 10
122.7318259285
 20
233.1203731557
 11
122.7318259285
 21
243.6203731557
  0
POLYLINE
  8
AXES
 62
7
  6
CONTINUOUS
 66
1
 70
0
  0
VERTEX
  8
AXES
 62
7
  6
CONTINUOUS
 10
116.743615632
 20
238.3703731557
  0
VERTEX
  8
AXES
 62
7
  6
CONTINUOUS
 10
116.7412807617
 20
238.1737273085
  0
VERTEX
  8
AXES
 62
7
  6
CONTINUOUS
 10
116.7342902599
 20
237.9786761205
  0
VERTEX
  8
AXES
 62
7
  6
CONTINUOUS
 10
116.7226867823
 20
237.7868141689
  0
VERTEX
  8
AXES
 62
7
  6
CONTINUOUS
 10
116.7065427941
 20
237.5997380315
  0
VERTEX
  8
AXES
 62
7
  6
CONTINUOUS
 10
116.685962369
 20
237.4190425332
  0
VERTEX
  8
AXES
 62
7
  6
CONTINUOUS
 10
116.6610836653
 20
237.246316728
  0
VERTEX
  8
AXES
 62
7
  6
CONTINUOUS
 10
116.6320814988
 20
237.0831341126
  0
VERTEX
  8
AXES
 62
7
  6
CONTINUOUS
 10
116.5991698642
 20
236.9310391836
  0
VERTEX
  8
AXES
 62
7
  6
CONTINUOUS
 10
116.5626042972
 20
236.7915305712
  0
VERTEX
  8
AXES
 62
7
  6
CONTINUOUS
 10
116.5226830812
 20
236.6660381077
  0
VERTEX
  8
AXES
 62
7
  6
CONTINUOUS
 10
116.4797477111
 20
236.5558981828
  0
VERTEX
  8
AXES
 62
7
  6
CONTINUOUS
 10
116.4341819843
 20
236.4623263185
  0
VERTEX
  8
AXES
 62
7
  6
CONTINUOUS
 10
116.386409126
 20
236.3863880727
  0
SEQEND
  0
POLYLINE
  8
AXES
 62
7
  6
CONTINUOUS
 66
1
 70
0
  0
VERTEX
  8
AXES
 62
7
  6
CONTINUOUS
 10
116.3818259285
 20
240.3667445773
  0
VERTEX
  8
AXES
 62
7
  6
CONTINUOUS
 10
116.3829746421
 20
240.3606022658
  0
VERTEX
  8
AXES
 62
7
  6
CONTINUOUS
 10
116.386409126
 20
240.3543582387
  0
SEQEND
  0
LINE
  8
0
 62
7
  6
CONTINUOUS
 10
128.7318259285
 20
233.1203731557
 11
128.7318259285
 21
243.6203731557
  0
LINE
  8
0
 62
7
  6
CONTINUOUS
 10
135.8278402916
 20
233.1203731557
 11
135.8278402916
 21
243.6203731557
  0
POLYLINE
  8
AXES
 62
7
  6
CONTINUOUS
 66
1
 70
0
  0
VERTEX
  8
AXES
 62
7
  6
CONTINUOUS
 10
171.3818259267
 20
236.2704634255
  0
VERTEX
  8
AXES
 62
7
  6
CONTINUOUS
 10
171.3772679827
 20
236.2748366886
  0
VERTEX
  8
AXES
 62
7
  6
CONTINUOUS
 10
171.3601891179
 20
236.2883060275
  0
VERTEX
  8
AXES
 62
7
  6
CONTINUOUS
 10
171.3302490567
 20
236.3107782745
  0
VERTEX
  8
AXES
 62
7
  6
CONTINUOUS
 10
171.2868573281
 20
236.342393061
  0
VERTEX
  8
AXES
 62
7
  6
CONTINUOUS
 10
171.2289789733
 20
236.3834071024
  0
VERTEX
  8
AXES
 62
7
  6
CONTINUOUS
 10
171.1558883017
 20
236.4335800504
  0
VERTEX
  8
AXES
 62
7
  6
CONTINUOUS
 10
171.0669745001
 20
236.4922362105
  0
VERTEX
  8
AXES
 62
7
  6
CONTINUOUS
 10
170.9635815765
 20
236.5570254722
  0
VERTEX
  8
AXES
 62
7
  6
CONTINUOUS
 10
170.8483436169
 20
236.6245574861
  0
VERTEX
  8
AXES
 62
7
  6
CONTINUOUS
 10
170.7242558124
 20
236.6911934784
  0
VERTEX
  8
AXES
 62
7
  6
CONTINUOUS
 10
170.5947176197
 20
236.7532696105
  0
VERTEX
  8
AXES
 62
7
  6
CONTINUOUS
 10
170.4629097686
 20
236.80770126
  0
VERTEX
  8
AXES
 62
7
  6
CONTINUOUS
 10
170.3307270133
 20
236.8525253284
  0
VERTEX
  8
AXES
 62
7
  6
CONTINUOUS
 10
170.1999946892
 20
236.8863931541
  0
SEQEND
  0
LINE
  8
0
 62
7
  6
CONTINUOUS
 10
141.8278115653
 20
233.1203731557
 11
141.8278115653
 21
243.6203731557
  0
LINE
  8
0
 62
7
  6
CONTINUOUS
 10
149.5818402916
 20
233.1203731557
 11
149.5818402916
 21
243.6203731557
  0
POLYLINE
  8
0
 62
7
  6
CONTINUOUS
 66
1
 70
0
  0
VERTEX
  8
0
 62
7
  6
CONTINUOUS
 10
179.9278259285
 20
223.2724751736
  0
VERTEX
  8
0
 62
7
  6
CONTINUOUS
 10
179.9374109913
 20
223.2576677692
  0
VERTEX
  8
0
 62
7
  6
CONTINUOUS
 10
179.9662966538
 20
223.2410050845
  0
VERTEX
  8
0
 62
7
  6
CONTINUOUS
 10
180.0142367573
 20
223.2227979111
  0
VERTEX
  8
0
 62
7
  6
CONTINUOUS
 10
180.0804587649
 20
223.2034422531
  0
VERTEX
  8
0
 62
7
  6
CONTINUOUS
 10
180.1645011129
 20
223.1832276823
  0
VERTEX
  8
0
 62
7
  6
CONTINUOUS
 10
180.2659295692
 20
223.1624975239
  0
VERTEX
  8
0
 62
7
  6
CONTINUOUS
 10
180.383283142
 20
223.141810516
  0
VERTEX
  8
0
 62
7
  6
CONTINUOUS
 10
180.5150401758
 20
223.1216835474
  0
VERTEX
  8
0
 62
7
  6
CONTINUOUS
 10
180.6607529196
 20
223.102464326
  0
VERTEX
  8
0
 62
7
  6
CONTINUOUS
 10
180.8192591044
 20
223.0846190794
  0
VERTEX
  8
0
 62
7
  6
CONTINUOUS
 10
180.9883071997
 20
223.0686885747
  0
VERTEX
  8
0
 62
7
  6
CONTINUOUS
 10
181.1653050833
 20
223.0551381114
  0
VERTEX
  8
0
 62
7
  6
CONTINUOUS
 10
181.3493453508
 20
223.0442244083
  0
VERTEX
  8
0
 62
7
  6
CONTINUOUS
 10
181.5395841858
 20
223.0361902896
  0
VERTEX
  8
0
 62
7
  6
CONTINUOUS
 10
181.7333660005
 20
223.0312961263
  0
VERTEX
  8
0
 62
7
  6
CONTINUOUS
 10
181.9278259285
 20
223.0296634151
  0
SEQEND
  0
LINE
  8
0
 62
7
  6
CONTINUOUS
 10
155.5818115653
 20
233.1203731557
 11
155.5818115653
 21
243.6203731557
  0
LINE
  8
0
 62
7
  6
CONTINUOUS
 10
162.7818259285
 20
236.2710251478
 11
162.7818259285
 21
232.5203731557
  0
LINE
  8
0
 62
7
  6
CONTINUOUS
 10
164.0818402916
 20
233.3841118066
 11
164.0818402916
 21
243.6203731557
  0
POLYLINE
  8
AXES
 62
7
  6
CONTINUOUS
 66
1
 70
0
  0
VERTEX
  8
AXES
 62
7
  6
CONTINUOUS
 10
164.0818402916
 20
237.0493539434
  0
VERTEX
  8
AXES
 62
7
  6
CONTINUOUS
 10
164.0788552352
 20
237.013383515
  0
VERTEX
  8
AXES
 62
7
  6
CONTINUOUS
 10
164.0707685886
 20
236.9823698906
  0
VERTEX
  8
AXES
 62
7
  6
CONTINUOUS
 10
164.058573704
 20
236.955935742
  0
VERTEX
  8
AXES
 62
7
  6
CONTINUOUS
 10
164.0432188089
 20
236.9340472163
  0
VERTEX
  8
AXES
 62
7
  6
CONTINUOUS
 10
164.0256818295
 20
236.9165991448
  0
VERTEX
  8
AXES
 62
7
  6
CONTINUOUS
 10
164.0064284967
 20
236.9030447265
  0
VERTEX
  8
AXES
 62
7
  6
CONTINUOUS
 10
163.9855048068
 20
236.8929451571
  0
VERTEX
  8
AXES
 62
7
  6
CONTINUOUS
 10
163.9636571677
 20
236.8863931541
  0
SEQEND
  0
LINE
  8
0
 62
7
  6
CONTINUOUS
 10
170.0818115653
 20
233.3841114436
 11
170.0818115653
 21
243.6203731557
  0
LINE
  8
0
 62
7
  6
CONTINUOUS
 10
171.3818259285
 20
236.2710249502
 11
171.3818259285
 21
232.5203731557
  0
LINE
  8
0
 62
7
  6
CONTINUOUS
 10
179.7068402916
 20
233.1203731557
 11
179.7068402916
 21
243.6203731557
  0
LINE
  8
0
 62
7
  6
CONTINUOUS
 10
179.9278259285
 20
219.3703731557
 11
179.9278259285
 21
223.3225188458
  0
POLYLINE
  8
AXES
 62
7
  6
CONTINUOUS
 66
1
 70
0
  0
VERTEX
  8
AXES
 62
7
  6
CONTINUOUS
 10
185.7068115653
 20
239.354482985
  0
VERTEX
  8
AXES
 62
7
  6
CONTINUOUS
 10
185.7214142846
 20
239.3069361705
  0
VERTEX
  8
AXES
 62
7
  6
CONTINUOUS
 10
185.7675872521
 20
239.1227830655
  0
VERTEX
  8
AXES
 62
7
  6
CONTINUOUS
 10
185.803999568
 20
238.9357541806
  0
VERTEX
  8
AXES
 62
7
  6
CONTINUOUS
 10
185.8301010755
 20
238.7478306075
  0
VERTEX
  8
AXES
 62
7
  6
CONTINUOUS
 10
185.8458251728
 20
238.5589663476
  0
VERTEX
  8
AXES
 62
7
  6
CONTINUOUS
 10
185.8510528659
 20
238.3702005205
  0
VERTEX
  8
AXES
 62
7
  6
CONTINUOUS
 10
185.8458051711
 20
238.18141958
  0
VERTEX
  8
AXES
 62
7
  6
CONTINUOUS
 10
185.8300616598
 20
237.992561082
  0
VERTEX
  8
AXES
 62
7
  6
CONTINUOUS
 10
185.8039420359
 20
237.8046472391
  0
VERTEX
  8
AXES
 62
7
  6
CONTINUOUS
 10
185.7675100495
 20
237.6176167348
  0
VERTEX
  8
AXES
 62
7
  6
CONTINUOUS
 10
185.7213229878
 20
237.433482917
  0
VERTEX
  8
AXES
 62
7
  6
CONTINUOUS
 10
185.7068115653
 20
237.386249094
  0
SEQEND
  0
LINE
  8
0
 62
7
  6
CONTINUOUS
 10
185.7068115653
 20
233.1203731557
 11
185.7068115653
 21
243.6203731557
  0
LINE
  8
0
 62
7
  6
CONTINUOUS
 10
187.6778259285
 20
223.6225231274
 11
187.6778259285
 21
232.3703731557
  0
LINE
  8
0
 62
7
  6
CONTINUOUS
 10
187.7924676128
 20
232.3703731557
 11
187.792467614
 21
223.3636697576
  0
LINE
  8
0
 62
7
  6
CONTINUOUS
 10
187.8278259285
 20
223.333150841
 11
187.8278259285
 21
232.3703731557
  0
LINE
  8
0
 62
7
  6
CONTINUOUS
 10
193.0818259285
 20
232.5203731557
 11
193.0818259285
 21
243.251254039
  0
LINE
  8
0
 62
7
  6
CONTINUOUS
 10
192.361131118
 20
231.9947925715
 11
191.6426833915
 21
220.2482760766
  0
POLYLINE
  8
0
 62
7
  6
CONTINUOUS
 66
1
 70
0
  0
VERTEX
  8
0
 62
7
  6
CONTINUOUS
 10
187.792467614
 20
223.3636697576
  0
VERTEX
  8
0
 62
7
  6
CONTINUOUS
 10
187.7892834077
 20
223.3196002142
  0
VERTEX
  8
0
 62
7
  6
CONTINUOUS
 10
187.7797512503
 20
223.2763834913
  0
VERTEX
  8
0
 62
7
  6
CONTINUOUS
 10
187.7642224825
 20
223.2354188282
  0
VERTEX
  8
0
 62
7
  6
CONTINUOUS
 10
187.7430110927
 20
223.1972783076
  0
VERTEX
  8
0
 62
7
  6
CONTINUOUS
 10
187.7163414056
 20
223.1624685642
  0
VERTEX
  8
0
 62
7
  6
CONTINUOUS
 10
187.6848437999
 20
223.1319497332
  0
VERTEX
  8
0
 62
7
  6
CONTINUOUS
 10
187.6495282776
 20
223.1066198092
  0
VERTEX
  8
0
 62
7
  6
CONTINUOUS
 10
187.6111822252
 20
223.0868692835
  0
VERTEX
  8
0
 62
7
  6
CONTINUOUS
 10
187.5702658763
 20
223.0728865407
  0
VERTEX
  8
0
 62
7
  6
CONTINUOUS
 10
187.5258469767
 20
223.0633967718
  0
SEQEND
  0
POLYLINE
  8
0
 62
7
  6
CONTINUOUS
 66
1
 70
0
  0
VERTEX
  8
0
 62
7
  6
CONTINUOUS
 10
187.8278259285
 20
223.333150841
  0
VERTEX
  8
0
 62
7
  6
CONTINUOUS
 10
187.8241168277
 20
223.2855824363
  0
VERTEX
  8
0
 62
7
  6
CONTINUOUS
 10
187.8130021082
 20
223.2389423255
  0
VERTEX
  8
0
 62
7
  6
CONTINUOUS
 10
187.7949188424
 20
223.194969446
  0
VERTEX
  8
0
 62
7
  6
CONTINUOUS
 10
187.7702450812
 20
223.1543809162
  0
VERTEX
  8
0
 62
7
  6
CONTINUOUS
 10
187.7393218082
 20
223.1179222742
  0
VERTEX
  8
0
 62
7
  6
CONTINUOUS
 10
187.703183324
 20
223.086916675
  0
VERTEX
  8
0
 62
7
  6
CONTINUOUS
 10
187.6631525036
 20
223.0622997997
  0
VERTEX
  8
0
 62
7
  6
CONTINUOUS
 10
187.6199298509
 20
223.044322728
  0
VERTEX
  8
0
 62
7
  6
CONTINUOUS
 10
187.5742577139
 20
223.0333210447
  0
VERTEX
  8
0
 62
7
  6
CONTINUOUS
 10
187.5278259285
 20
223.0296634151
  0
SEQEND
  0
POLYLINE
  8
0
 62
7
  6
CONTINUOUS
 66
1
 70
0
  0
VERTEX
  8
0
 62
7
  6
CONTINUOUS
 10
187.8240771663
 20
223.3192268796
  0
VERTEX
  8
0
 62
7
  6
CONTINUOUS
 10
187.8129333186
 20
223.2725660123
  0
VERTEX
  8
0
 62
7
  6
CONTINUOUS
 10
187.7947037205
 20
223.2283241202
  0
VERTEX
  8
0
 62
7
  6
CONTINUOUS
 10
187.7698780236
 20
223.187599201
  0
VERTEX
  8
0
 62
7
  6
CONTINUOUS
 10
187.7391254376
 20
223.151404429
  0
VERTEX
  8
0
 62
7
  6
CONTINUOUS
 10
187.7032507975
 20
223.1206051369
  0
VERTEX
  8
0
 62
7
  6
CONTINUOUS
 10
187.6631675378
 20
223.0959144612
  0
VERTEX
  8
0
 62
7
  6
CONTINUOUS
 10
187.6198661128
 20
223.0778852776
  0
VERTEX
  8
0
 62
7
  6
CONTINUOUS
 10
187.5743924638
 20
223.0669113811
  0
VERTEX
  8
0
 62
7
  6
CONTINUOUS
 10
187.5258469767
 20
223.0633967718
  0
SEQEND
  0
LINE
  8
0
 62
7
  6
CONTINUOUS
 10
138.3278259285
 20
86.348523785
 11
139.3278259285
 21
86.348523785
  0
LINE
  8
0
 62
7
  6
CONTINUOUS
 10
152.0818259285
 20
86.348523785
 11
153.0818259285
 21
86.348523785
  0
LINE
  8
0
 62
7
  6
CONTINUOUS
 10
166.5818259285
 20
86.348523785
 11
167.5818259285
 21
86.348523785
  0
LINE
  8
0
 62
7
  6
CONTINUOUS
 10
182.2068259285
 20
86.348523785
 11
183.2068259285
 21
86.348523785
  0
LINE
  8
DEFAULT_1
 62
2
  6
CENTER
 10
120.7318259285
 20
90.698523785
 11
187.7068115653
 21
90.698523785
  0
POLYLINE
  8
0
 62
7
  6
CONTINUOUS
 66
1
 70
0
  0
VERTEX
  8
0
 62
7
  6
CONTINUOUS
 10
181.9278259285
 20
113.3873540976
  0
VERTEX
  8
0
 62
7
  6
CONTINUOUS
 10
181.7319005433
 20
113.3778738344
  0
VERTEX
  8
0
 62
7
  6
CONTINUOUS
 10
181.536916298
 20
113.349334766
  0
VERTEX
  8
0
 62
7
  6
CONTINUOUS
 10
181.3457768155
 20
113.3020150883
  0
VERTEX
  8
0
 62
7
  6
CONTINUOUS
 10
181.1611481226
 20
113.2367004953
  0
VERTEX
  8
0
 62
7
  6
CONTINUOUS
 10
180.9838092392
 20
113.1537671583
  0
VERTEX
  8
0
 62
7
  6
CONTINUOUS
 10
180.8147779054
 20
113.0534901186
  0
VERTEX
  8
0
 62
7
  6
CONTINUOUS
 10
180.6566423619
 20
112.9372226137
  0
VERTEX
  8
0
 62
7
  6
CONTINUOUS
 10
180.511613472
 20
112.8067626433
  0
VERTEX
  8
0
 62
7
  6
CONTINUOUS
 10
180.3806910339
 20
112.6633360898
  0
VERTEX
  8
0
 62
7
  6
CONTINUOUS
 10
180.2641082979
 20
112.5071723841
  0
VERTEX
  8
0
 62
7
  6
CONTINUOUS
 10
180.1633522522
 20
112.3399734013
  0
VERTEX
  8
0
 62
7
  6
CONTINUOUS
 10
180.0798379702
 20
112.1641584419
  0
VERTEX
  8
0
 62
7
  6
CONTINUOUS
 10
180.0139683742
 20
111.9807524819
  0
VERTEX
  8
0
 62
7
  6
CONTINUOUS
 10
179.9662218332
 20
111.7906271004
  0
VERTEX
  8
0
 62
7
  6
CONTINUOUS
 10
179.9374053816
 20
111.596353114
  0
VERTEX
  8
0
 62
7
  6
CONTINUOUS
 10
179.9278259285
 20
111.4007614809
  0
SEQEND
  0
POLYLINE
  8
0
 62
7
  6
CONTINUOUS
 66
1
 70
0
  0
VERTEX
  8
0
 62
7
  6
CONTINUOUS
 10
187.5278259285
 20
113.3873540976
  0
VERTEX
  8
0
 62
7
  6
CONTINUOUS
 10
187.5745534666
 20
113.3879275908
  0
VERTEX
  8
0
 62
7
  6
CONTINUOUS
 10
187.6204465206
 20
113.3896496064
  0
VERTEX
  8
0
 62
7
  6
CONTINUOUS
 10
187.6637981821
 20
113.3924576663
  0
VERTEX
  8
0
 62
7
  6
CONTINUOUS
 10
187.7038673995
 20
113.3962947779
  0
VERTEX
  8
0
 62
7
  6
CONTINUOUS
 10
187.7399531054
 20
113.4011161032
  0
VERTEX
  8
0
 62
7
  6
CONTINUOUS
 10
187.7707421754
 20
113.4067692401
  0
VERTEX
  8
0
 62
7
  6
CONTINUOUS
 10
187.7952478896
 20
113.4130474713
  0
VERTEX
  8
0
 62
7
  6
CONTINUOUS
 10
187.8131695823
 20
113.4198355722
  0
VERTEX
  8
0
 62
7
  6
CONTINUOUS
 10
187.8241631537
 20
113.427022834
  0
VERTEX
  8
0
 62
7
  6
CONTINUOUS
 10
187.8278259285
 20
113.4343430729
  0
SEQEND
  0
LINE
  8
0
 62
7
  6
CONTINUOUS
 10
134.5778259285
 20
102.614523785
 11
129.9818259285
 21
102.614523785
  0
LINE
  8
0
 62
7
  6
CONTINUOUS
 10
118.1358259285
 20
102.614523785
 11
121.4818259285
 21
102.614523785
  0
LINE
  8
0
 62
7
  6
CONTINUOUS
 10
147.6318259285
 20
102.948523785
 11
143.7778259285
 21
102.948523785
  0
LINE
  8
0
 62
7
  6
CONTINUOUS
 10
157.5318259285
 20
102.948523785
 11
162.1318259285
 21
102.948523785
  0
LINE
  8
0
 62
7
  6
CONTINUOUS
 10
172.3318259285
 20
103.098523785
 11
176.4568259285
 21
103.098523785
  0
LINE
  8
0
 62
7
  6
CONTINUOUS
 10
181.3318259285
 20
103.648523785
 11
183.0818259285
 21
103.648523785
  0
LINE
  8
0
 62
7
  6
CONTINUOUS
 10
167.8318259285
 20
103.748523785
 11
166.3318259285
 21
103.748523785
  0
LINE
  8
0
 62
7
  6
CONTINUOUS
 10
153.4818259285
 20
103.898523785
 11
151.6818259285
 21
103.898523785
  0
LINE
  8
0
 62
7
  6
CONTINUOUS
 10
139.4778259285
 20
103.898523785
 11
138.1778259285
 21
103.898523785
  0
LINE
  8
0
 62
7
  6
CONTINUOUS
 10
187.4951533628
 20
106.767195571
 11
187.8278259285
 21
106.767195571
  0
LINE
  8
0
 62
7
  6
CONTINUOUS
 10
187.5278259285
 20
113.3873540976
 11
181.9278259285
 21
113.3873540976
  0
LINE
  8
0
 62
7
  6
CONTINUOUS
 10
187.6199298509
 20
106.5669396918
 11
181.9278259285
 21
106.567195571
  0
LINE
  8
0
 62
7
  6
CONTINUOUS
 10
187.4951533547
 20
113.1873540976
 11
187.8278259285
 21
113.1873540976
  0
LINE
  8
AXES
 62
2
  6
CENTER
 10
114.3818259285
 20
116.098523785
 11
193.0818259285
 21
116.098523785
  0
LINE
  8
0
 62
7
  6
CONTINUOUS
 10
117.1318259285
 20
120.448523785
 11
121.6318259285
 21
120.448523785
  0
LINE
  8
0
 62
7
  6
CONTINUOUS
 10
129.8318259285
 20
120.448523785
 11
134.3318259285
 21
120.448523785
  0
LINE
  8
0
 62
7
  6
CONTINUOUS
 10
143.3238259285
 20
120.448523785
 11
147.8358259285
 21
120.448523785
  0
LINE
  8
0
 62
7
  6
CONTINUOUS
 10
157.3278259285
 20
120.448523785
 11
161.8358259285
 21
120.448523785
  0
LINE
  8
0
 62
7
  6
CONTINUOUS
 10
172.3278259285
 20
120.448523785
 11
176.8358259285
 21
120.448523785
  0
POLYLINE
  8
0
 62
7
  6
CONTINUOUS
 66
1
 70
0
  0
VERTEX
  8
0
 62
7
  6
CONTINUOUS
 10
187.8278259285
 20
106.5618981783
  0
VERTEX
  8
0
 62
7
  6
CONTINUOUS
 10
187.8241168277
 20
106.5627284879
  0
VERTEX
  8
0
 62
7
  6
CONTINUOUS
 10
187.8130021082
 20
106.563542594
  0
VERTEX
  8
0
 62
7
  6
CONTINUOUS
 10
187.7949188424
 20
106.5643101435
  0
VERTEX
  8
0
 62
7
  6
CONTINUOUS
 10
187.7702450812
 20
106.5650186189
  0
VERTEX
  8
0
 62
7
  6
CONTINUOUS
 10
187.7393218082
 20
106.5656550069
  0
VERTEX
  8
0
 62
7
  6
CONTINUOUS
 10
187.703183324
 20
106.5661962116
  0
VERTEX
  8
0
 62
7
  6
CONTINUOUS
 10
187.6199298509
 20
106.5669396918
  0
SEQEND
  0
LINE
  8
0
 62
7
  6
CONTINUOUS
 10
189.7403496414
 20
120.7471499495
 11
187.9273373512
 21
120.0990938602
  0
LINE
  8
0
 62
7
  6
CONTINUOUS
 10
191.0915827564
 20
104.1171170207
 11
188.9372828904
 21
103.3470686576
  0
LINE
  8
0
 62
7
  6
CONTINUOUS
 10
116.3818259285
 20
119.698523785
 11
116.3818259285
 21
115.4469862598
  0
LINE
  8
0
 62
7
  6
CONTINUOUS
 10
117.1358259285
 20
112.3862454928
 11
117.1358259285
 21
103.614523785
  0
LINE
  8
0
 62
7
  6
CONTINUOUS
 10
116.386409126
 20
115.4101901519
 11
117.1205486034
 21
112.5088991858
  0
LINE
  8
0
 62
7
  6
CONTINUOUS
 10
121.6278259285
 20
108.202523785
 11
121.6278259285
 21
112.3862454928
  0
LINE
  8
0
 62
7
  6
CONTINUOUS
 10
122.3818259285
 20
115.4469862598
 11
122.3818259285
 21
119.698523785
  0
LINE
  8
0
 62
7
  6
CONTINUOUS
 10
122.7318259285
 20
87.8990340422
 11
122.7318259285
 21
91.372925919
  0
LINE
  8
0
 62
7
  6
CONTINUOUS
 10
123.4818259285
 20
100.614523785
 11
123.4818259285
 21
94.4178588398
  0
LINE
  8
0
 62
7
  6
CONTINUOUS
 10
127.9818259285
 20
100.614523785
 11
127.9818259285
 21
94.4178588398
  0
LINE
  8
0
 62
7
  6
CONTINUOUS
 10
128.7318259285
 20
87.8990340422
 11
128.7318259285
 21
91.372925919
  0
LINE
  8
0
 62
7
  6
CONTINUOUS
 10
129.0818259285
 20
119.698523785
 11
129.0818259285
 21
115.4469862598
  0
LINE
  8
0
 62
7
  6
CONTINUOUS
 10
129.8358259285
 20
112.3862454928
 11
129.8358259285
 21
108.202523785
  0
LINE
  8
0
 62
7
  6
CONTINUOUS
 10
121.6431032535
 20
112.5088991858
 11
122.3772427309
 21
115.4101901519
  0
LINE
  8
0
 62
7
  6
CONTINUOUS
 10
123.4665486034
 20
94.2952051469
 11
122.736409126
 21
91.4097220269
  0
LINE
  8
0
 62
7
  6
CONTINUOUS
 10
134.3431032535
 20
112.5088991858
 11
135.0772427309
 21
115.4101901519
  0
LINE
  8
0
 62
7
  6
CONTINUOUS
 10
127.9971032535
 20
94.2952051469
 11
128.7272427309
 21
91.4097220269
  0
LINE
  8
0
 62
7
  6
CONTINUOUS
 10
129.086409126
 20
115.4101901519
 11
129.8205486034
 21
112.5088991858
  0
LINE
  8
0
 62
7
  6
CONTINUOUS
 10
134.3278259285
 20
107.748523785
 11
134.3278259285
 21
112.3862454928
  0
LINE
  8
0
 62
7
  6
CONTINUOUS
 10
135.0818259285
 20
115.4469862598
 11
135.0818259285
 21
119.698523785
  0
LINE
  8
0
 62
7
  6
CONTINUOUS
 10
135.8278402916
 20
87.3783019327
 11
135.8278402916
 21
91.372925919
  0
LINE
  8
0
 62
7
  6
CONTINUOUS
 10
136.5778259285
 20
94.4178020772
 11
136.5778259285
 21
100.614523785
  0
LINE
  8
0
 62
7
  6
CONTINUOUS
 10
141.0778259285
 20
100.248523785
 11
141.0778259285
 21
94.4178020772
  0
LINE
  8
0
 62
7
  6
CONTINUOUS
 10
141.8278115653
 20
87.3783019327
 11
141.8278115653
 21
91.372925919
  0
LINE
  8
0
 62
7
  6
CONTINUOUS
 10
142.5738259285
 20
119.698523785
 11
142.5738259285
 21
115.4469862598
  0
LINE
  8
0
 62
7
  6
CONTINUOUS
 10
143.3278259285
 20
112.3862454928
 11
143.3278259285
 21
107.748523785
  0
LINE
  8
0
 62
7
  6
CONTINUOUS
 10
135.8324234891
 20
91.4097220269
 11
136.5625486034
 21
94.2951483843
  0
LINE
  8
0
 62
7
  6
CONTINUOUS
 10
147.8471032535
 20
112.5088991858
 11
148.5812427309
 21
115.4101901519
  0
LINE
  8
0
 62
7
  6
CONTINUOUS
 10
141.0931032535
 20
94.2951483843
 11
141.8232283678
 21
91.4097220269
  0
LINE
  8
0
 62
7
  6
CONTINUOUS
 10
142.578409126
 20
115.4101901519
 11
143.3125486034
 21
112.5088991858
  0
LINE
  8
0
 62
7
  6
CONTINUOUS
 10
147.8318259285
 20
107.748523785
 11
147.8318259285
 21
112.3862454928
  0
LINE
  8
0
 62
7
  6
CONTINUOUS
 10
148.5858259285
 20
115.4469862598
 11
148.5858259285
 21
119.698523785
  0
LINE
  8
0
 62
7
  6
CONTINUOUS
 10
149.5818402916
 20
87.3844138773
 11
149.5818402916
 21
91.372925919
  0
LINE
  8
0
 62
7
  6
CONTINUOUS
 10
150.3318259285
 20
94.4178020772
 11
150.3318259285
 21
100.248523785
  0
LINE
  8
0
 62
7
  6
CONTINUOUS
 10
154.8318259285
 20
94.4178020772
 11
154.8318259285
 21
100.248523785
  0
LINE
  8
0
 62
7
  6
CONTINUOUS
 10
155.5818115653
 20
87.3844138773
 11
155.5818115653
 21
91.372925919
  0
LINE
  8
0
 62
7
  6
CONTINUOUS
 10
156.5778259285
 20
119.698523785
 11
156.5778259285
 21
115.4469862598
  0
LINE
  8
0
 62
7
  6
CONTINUOUS
 10
157.3318259285
 20
112.3862454928
 11
157.3318259285
 21
107.748523785
  0
LINE
  8
0
 62
7
  6
CONTINUOUS
 10
149.5864234891
 20
91.4097220269
 11
150.3165486034
 21
94.2951483843
  0
LINE
  8
0
 62
7
  6
CONTINUOUS
 10
161.8471032535
 20
112.5088991858
 11
162.5812427309
 21
115.4101901519
  0
LINE
  8
0
 62
7
  6
CONTINUOUS
 10
155.5772283678
 20
91.4097220269
 11
154.8471032535
 21
94.2951483843
  0
LINE
  8
0
 62
7
  6
CONTINUOUS
 10
156.582409126
 20
115.4101901519
 11
157.3165486034
 21
112.5088991858
  0
LINE
  8
0
 62
7
  6
CONTINUOUS
 10
170.0772283678
 20
91.4097220269
 11
169.3471032535
 21
94.2951483843
  0
LINE
  8
0
 62
7
  6
CONTINUOUS
 10
161.8318259285
 20
108.248523785
 11
161.8318259285
 21
112.3862454928
  0
LINE
  8
0
 62
7
  6
CONTINUOUS
 10
162.5858259285
 20
115.4469862598
 11
162.5858259285
 21
119.698523785
  0
LINE
  8
0
 62
7
  6
CONTINUOUS
 10
164.0818402916
 20
87.3844138773
 11
164.0818402916
 21
91.372925919
  0
LINE
  8
0
 62
7
  6
CONTINUOUS
 10
164.8318259285
 20
100.248523785
 11
164.8318259285
 21
94.4178020772
  0
LINE
  8
0
 62
7
  6
CONTINUOUS
 10
169.3318259285
 20
94.4178020772
 11
169.3318259285
 21
100.098523785
  0
LINE
  8
0
 62
7
  6
CONTINUOUS
 10
170.0818115653
 20
87.3844138773
 11
170.0818115653
 21
91.372925919
  0
LINE
  8
0
 62
7
  6
CONTINUOUS
 10
171.5778259285
 20
119.698523785
 11
171.5778259285
 21
115.4469862598
  0
LINE
  8
0
 62
7
  6
CONTINUOUS
 10
172.3318259285
 20
112.3862454928
 11
172.3318259285
 21
108.248523785
  0
LINE
  8
0
 62
7
  6
CONTINUOUS
 10
164.8165486034
 20
94.2951483843
 11
164.0864234891
 21
91.4097220269
  0
LINE
  8
0
 62
7
  6
CONTINUOUS
 10
177.5812433799
 20
115.4104123862
 11
176.8471010903
 21
112.5088951142
  0
LINE
  8
0
 62
7
  6
CONTINUOUS
 10
171.582409126
 20
115.4101901519
 11
172.3165486034
 21
112.5088991858
  0
POLYLINE
  8
0
 62
7
  6
CONTINUOUS
 66
1
 70
0
  0
VERTEX
  8
0
 62
7
  6
CONTINUOUS
 10
179.9278259285
 20
108.5632619321
  0
VERTEX
  8
0
 62
7
  6
CONTINUOUS
 10
179.9374109913
 20
108.3679186803
  0
VERTEX
  8
0
 62
7
  6
CONTINUOUS
 10
179.9662966538
 20
108.1733636313
  0
VERTEX
  8
0
 62
7
  6
CONTINUOUS
 10
180.0142367573
 20
107.9825110334
  0
VERTEX
  8
0
 62
7
  6
CONTINUOUS
 10
180.0804587649
 20
107.798037861
  0
VERTEX
  8
0
 62
7
  6
CONTINUOUS
 10
180.1645011129
 20
107.6209145837
  0
VERTEX
  8
0
 62
7
  6
CONTINUOUS
 10
180.2659295692
 20
107.4523124628
  0
VERTEX
  8
0
 62
7
  6
CONTINUOUS
 10
180.383283142
 20
107.2947636196
  0
VERTEX
  8
0
 62
7
  6
CONTINUOUS
 10
180.5150401758
 20
107.1500384361
  0
VERTEX
  8
0
 62
7
  6
CONTINUOUS
 10
180.6607529196
 20
107.0185681653
  0
VERTEX
  8
0
 62
7
  6
CONTINUOUS
 10
180.8192591044
 20
106.9016313992
  0
VERTEX
  8
0
 62
7
  6
CONTINUOUS
 10
180.9883071997
 20
106.80096108
  0
VERTEX
  8
0
 62
7
  6
CONTINUOUS
 10
181.1653050833
 20
106.7178385612
  0
VERTEX
  8
0
 62
7
  6
CONTINUOUS
 10
181.3493453508
 20
106.6524413793
  0
VERTEX
  8
0
 62
7
  6
CONTINUOUS
 10
181.5395841858
 20
106.605132203
  0
VERTEX
  8
0
 62
7
  6
CONTINUOUS
 10
181.7333660005
 20
106.5766446305
  0
VERTEX
  8
0
 62
7
  6
CONTINUOUS
 10
181.9278259285
 20
106.567195571
  0
SEQEND
  0
LINE
  8
0
 62
7
  6
CONTINUOUS
 10
176.8318259285
 20
112.3862499706
 11
176.8318259285
 21
108.148523785
  0
LINE
  8
0
 62
7
  6
CONTINUOUS
 10
177.5858259285
 20
115.4472059293
 11
177.5858259285
 21
119.698523785
  0
LINE
  8
0
 62
7
  6
CONTINUOUS
 10
179.7068402916
 20
87.3844138773
 11
179.7068402916
 21
91.372925919
  0
LINE
  8
0
 62
7
  6
CONTINUOUS
 10
179.9278259285
 20
108.5632619321
 11
179.9278259285
 21
111.4007614809
  0
LINE
  8
0
 62
7
  6
CONTINUOUS
 10
180.4568259285
 20
99.098523785
 11
180.4568259285
 21
94.4178020772
  0
LINE
  8
0
 62
7
  6
CONTINUOUS
 10
184.9568259285
 20
94.4178020772
 11
184.9568259285
 21
97.69716194
  0
LINE
  8
0
 62
7
  6
CONTINUOUS
 10
185.7068115653
 20
87.3844138773
 11
185.7068115653
 21
91.372925919
  0
LINE
  8
0
 62
7
  6
CONTINUOUS
 10
187.8278259285
 20
119.9578461927
 11
187.8278259285
 21
106.4100417237
  0
LINE
  8
0
 62
7
  6
CONTINUOUS
 10
180.4415486034
 20
94.2951483843
 11
179.7114234891
 21
91.4097220269
  0
LINE
  8
0
 62
7
  6
CONTINUOUS
 10
185.7022283678
 20
91.4097220269
 11
184.9721032535
 21
94.2951483843
  0
LINE
  8
0
 62
7
  6
CONTINUOUS
 10
193.0818259285
 20
118.3930024421
 11
193.0818259285
 21
106.9420930434
  0
LINE
  8
SURFACE
 62
7
  6
CONTINUOUS
 10
325.5466658201
 20
86.348523785
 11
321.5466658201
 21
86.348523785
  0
LINE
  8
DEFAULT_1
 62
2
  6
CENTER
 10
328.7966658201
 20
90.698523785
 11
325.5467658201
 21
90.698523785
  0
LINE
  8
0
 62
2
  6
CONTINUOUS
 10
324.5966658201
 20
90.698523785
 11
322.4966658201
 21
90.698523785
  0
LINE
  8
DEFAULT_1
 62
2
  6
CENTER
 10
318.2966658201
 20
90.698523785
 11
321.5465658201
 21
90.698523785
  0
LINE
  8
0
 62
7
  6
CONTINUOUS
 10
303.5466658201
 20
111.7946008195
 11
303.5466658201
 21
107.6312210481
  0
LINE
  8
0
 62
7
  6
CONTINUOUS
 10
329.3966658201
 20
102.614523785
 11
323.5466658201
 21
102.614523785
  0
LINE
  8
0
 62
7
  6
CONTINUOUS
 10
317.5466658201
 20
106.767195571
 11
308.2396894362
 21
106.767195571
  0
LINE
  8
0
 62
7
  6
CONTINUOUS
 10
304.5292134136
 20
106.631373353
 11
317.1536467827
 21
106.4110130488
  0
POLYLINE
  8
0
 62
7
  6
CONTINUOUS
 66
1
 70
0
  0
VERTEX
  8
0
 62
7
  6
CONTINUOUS
 10
317.9653643113
 20
118.4486039651
  0
VERTEX
  8
0
 62
7
  6
CONTINUOUS
 10
317.8459937568
 20
118.1212516473
  0
VERTEX
  8
0
 62
7
  6
CONTINUOUS
 10
317.7377484533
 20
117.7548103891
  0
VERTEX
  8
0
 62
7
  6
CONTINUOUS
 10
317.6532664187
 20
117.3808905789
  0
VERTEX
  8
0
 62
7
  6
CONTINUOUS
 10
317.6437954397
 20
117.3211842553
  0
SEQEND
  0
POLYLINE
  8
0
 62
7
  6
CONTINUOUS
 66
1
 70
0
  0
VERTEX
  8
0
 62
7
  6
CONTINUOUS
 10
317.5466658201
 20
114.9740999061
  0
VERTEX
  8
0
 62
7
  6
CONTINUOUS
 10
317.5009709842
 20
114.9312901986
  0
VERTEX
  8
0
 62
7
  6
CONTINUOUS
 10
317.4473647128
 20
114.8921487625
  0
VERTEX
  8
0
 62
7
  6
CONTINUOUS
 10
317.3905224007
 20
114.8611039882
  0
VERTEX
  8
0
 62
7
  6
CONTINUOUS
 10
317.3317184785
 20
114.8386943744
  0
VERTEX
  8
0
 62
7
  6
CONTINUOUS
 10
317.2725251115
 20
114.8250529012
  0
SEQEND
  0
LINE
  8
0
 62
7
  6
CONTINUOUS
 10
317.5466658201
 20
90.348523785
 11
317.5466658201
 21
116.448523785
  0
LINE
  8
AXES
 62
7
  6
CONTINUOUS
 10
321.4466658201
 20
90.698523785
 11
321.4466658201
 21
98.748523785
  0
LINE
  8
0
 62
7
  6
CONTINUOUS
 10
304.3900511963
 20
112.782260609
 11
317.2725251115
 21
114.8250529012
  0
LINE
  8
0
 62
7
  6
CONTINUOUS
 10
308.239689438
 20
113.1873540976
 11
317.5466658201
 21
113.1873540976
  0
LINE
  8
AXES
 62
2
  6
CENTER
 10
328.7966658201
 20
116.098523785
 11
327.6466658201
 21
116.098523785
  0
LINE
  8
AXES
 62
2
  6
CONTINUOUS
 10
324.5966658201
 20
116.098523785
 11
322.4966658201
 21
116.098523785
  0
LINE
  8
AXES
 62
2
  6
CENTER
 10
318.2966658201
 20
116.098523785
 11
319.4466658201
 21
116.098523785
  0
LINE
  8
AXES
 62
2
  6
CENTER
 10
323.5466658201
 20
121.348523785
 11
323.5466658201
 21
120.198523785
  0
LINE
  8
AXES
 62
2
  6
CONTINUOUS
 10
323.5466658201
 20
117.148523785
 11
323.5466658201
 21
115.048523785
  0
LINE
  8
DEFAULT_1
 62
2
  6
CENTER
 10
323.5466658201
 20
95.948523785
 11
323.5466658201
 21
92.698623785
  0
LINE
  8
0
 62
2
  6
CONTINUOUS
 10
323.5466658201
 20
91.748523785
 11
323.5466658201
 21
89.648523785
  0
LINE
  8
DEFAULT_1
 62
2
  6
CENTER
 10
323.5466658201
 20
85.448523785
 11
323.5466658201
 21
88.698423785
  0
LINE
  8
AXES
 62
2
  6
CENTER
 10
323.5466658201
 20
110.848523785
 11
323.5466658201
 21
111.998523785
  0
LINE
  8
AXES
 62
7
  6
CONTINUOUS
 10
325.6466658201
 20
90.698523785
 11
325.6466658201
 21
98.748523785
  0
POLYLINE
  8
0
 62
7
  6
CONTINUOUS
 66
1
 70
0
  0
VERTEX
  8
0
 62
7
  6
CONTINUOUS
 10
321.6667107868
 20
120.8930231739
  0
VERTEX
  8
0
 62
7
  6
CONTINUOUS
 10
321.4302688382
 20
120.8873214138
  0
VERTEX
  8
0
 62
7
  6
CONTINUOUS
 10
321.1027316274
 20
120.8597768159
  0
VERTEX
  8
0
 62
7
  6
CONTINUOUS
 10
320.7937704765
 20
120.8114312236
  0
VERTEX
  8
0
 62
7
  6
CONTINUOUS
 10
320.5027666787
 20
120.7442804504
  0
VERTEX
  8
0
 62
7
  6
CONTINUOUS
 10
320.2283217901
 20
120.6598113918
  0
VERTEX
  8
0
 62
7
  6
CONTINUOUS
 10
319.9691172715
 20
120.5590798292
  0
VERTEX
  8
0
 62
7
  6
CONTINUOUS
 10
319.7247128141
 20
120.4431384661
  0
VERTEX
  8
0
 62
7
  6
CONTINUOUS
 10
319.4954632054
 20
120.3133582778
  0
VERTEX
  8
0
 62
7
  6
CONTINUOUS
 10
319.2817114754
 20
120.1712568104
  0
VERTEX
  8
0
 62
7
  6
CONTINUOUS
 10
319.0837236086
 20
120.0185025885
  0
VERTEX
  8
0
 62
7
  6
CONTINUOUS
 10
318.9016073797
 20
119.8568709656
  0
VERTEX
  8
0
 62
7
  6
CONTINUOUS
 10
318.7353254809
 20
119.6882472091
  0
VERTEX
  8
0
 62
7
  6
CONTINUOUS
 10
318.5845963681
 20
119.5144997415
  0
VERTEX
  8
0
 62
7
  6
CONTINUOUS
 10
318.4485539701
 20
119.3369205369
  0
VERTEX
  8
0
 62
7
  6
CONTINUOUS
 10
318.3261986239
 20
119.1565078442
  0
VERTEX
  8
0
 62
7
  6
CONTINUOUS
 10
318.2165526754
 20
118.9741091307
  0
VERTEX
  8
0
 62
7
  6
CONTINUOUS
 10
318.1186666272
 20
118.7904249034
  0
VERTEX
  8
0
 62
7
  6
CONTINUOUS
 10
318.0316164469
 20
118.6059840036
  0
VERTEX
  8
0
 62
7
  6
CONTINUOUS
 10
317.9653647277
 20
118.448603799
  0
SEQEND
  0
LINE
  8
0
 62
7
  6
CONTINUOUS
 10
321.5466658201
 20
120.448523785
 11
325.5466658201
 21
120.448523785
  0
LINE
  8
0
 62
7
  6
CONTINUOUS
 10
325.4275807377
 20
120.8930221412
 11
321.665909141
 21
120.8930221514
  0
LINE
  8
0
 62
7
  6
CONTINUOUS
 10
329.5466658201
 20
90.348523785
 11
329.5466658201
 21
116.448523785
  0
POLYLINE
  8
0
 62
7
  6
CONTINUOUS
 66
1
 70
0
  0
VERTEX
  8
0
 62
7
  6
CONTINUOUS
 10
328.5913399258
 20
119.4092942815
  0
VERTEX
  8
0
 62
7
  6
CONTINUOUS
 10
328.4707081149
 20
119.56043261
  0
VERTEX
  8
0
 62
7
  6
CONTINUOUS
 10
328.3188958454
 20
119.7299206854
  0
VERTEX
  8
0
 62
7
  6
CONTINUOUS
 10
328.1539156399
 20
119.8922717624
  0
VERTEX
  8
0
 62
7
  6
CONTINUOUS
 10
327.9752839411
 20
120.0465905153
  0
VERTEX
  8
0
 62
7
  6
CONTINUOUS
 10
327.7825187065
 20
120.1919165473
  0
VERTEX
  8
0
 62
7
  6
CONTINUOUS
 10
327.5751455664
 20
120.327213307
  0
VERTEX
  8
0
 62
7
  6
CONTINUOUS
 10
327.3526821545
 20
120.4513710563
  0
VERTEX
  8
0
 62
7
  6
CONTINUOUS
 10
327.1146133688
 20
120.5632024779
  0
VERTEX
  8
0
 62
7
  6
CONTINUOUS
 10
326.860181666
 20
120.6614874116
  0
VERTEX
  8
0
 62
7
  6
CONTINUOUS
 10
326.5884913662
 20
120.7448375458
  0
VERTEX
  8
0
 62
7
  6
CONTINUOUS
 10
326.2985205056
 20
120.8116322746
  0
VERTEX
  8
0
 62
7
  6
CONTINUOUS
 10
325.9885519641
 20
120.8600230834
  0
VERTEX
  8
0
 62
7
  6
CONTINUOUS
 10
325.6566714835
 20
120.8876283496
  0
VERTEX
  8
0
 62
7
  6
CONTINUOUS
 10
325.4266221526
 20
120.8930228928
  0
SEQEND
  0
LINE
  8
0
 62
7
  6
CONTINUOUS
 10
328.5962601908
 20
119.4023984959
 11
328.591333529
 21
119.4093037538
  0
POLYLINE
  8
0
 62
7
  6
CONTINUOUS
 66
1
 70
0
  0
VERTEX
  8
0
 62
7
  6
CONTINUOUS
 10
328.6143214575
 20
119.3653502665
  0
VERTEX
  8
0
 62
7
  6
CONTINUOUS
 10
328.6065839547
 20
119.3844677751
  0
VERTEX
  8
0
 62
7
  6
CONTINUOUS
 10
328.5962601908
 20
119.4023984959
  0
SEQEND
  0
POLYLINE
  8
0
 62
7
  6
CONTINUOUS
 66
1
 70
0
  0
VERTEX
  8
0
 62
7
  6
CONTINUOUS
 10
328.8014549179
 20
118.7712647082
  0
VERTEX
  8
0
 62
7
  6
CONTINUOUS
 10
328.798988436
 20
118.779507577
  0
VERTEX
  8
0
 62
7
  6
CONTINUOUS
 10
328.7373766091
 20
118.9798618052
  0
VERTEX
  8
0
 62
7
  6
CONTINUOUS
 10
328.6737956938
 20
119.1813159894
  0
VERTEX
  8
0
 62
7
  6
CONTINUOUS
 10
328.6143213514
 20
119.3653515848
  0
SEQEND
  0
ARC
  8
0
 62
7
  6
CONTINUOUS
 10
127.9818259285
 20
233.1203731557
 40
0.75
 50
270.0
 51
360.0
  0
ARC
  8
0
 62
7
  6
CONTINUOUS
 10
123.4818259285
 20
233.1203731557
 40
0.75
 50
180.0
 51
270.0
  0
ARC
  8
0
 62
7
  6
CONTINUOUS
 10
117.1318259285
 20
233.1203731557
 40
0.75
 50
180.0018819526
 51
269.9992053213
  0
ARC
  8
0
 62
7
  6
CONTINUOUS
 10
117.2858259285
 20
232.5203731557
 40
0.15
 50
180.0
 51
270.0
  0
ARC
  8
0
 62
7
  6
CONTINUOUS
 10
129.9858259285
 20
232.5203731557
 40
0.15
 50
258.75
 51
268.4770244418
  0
ARC
  8
0
 62
7
  6
CONTINUOUS
 10
121.4778259285
 20
232.5203731557
 40
0.15
 50
271.522975558
 51
281.2499999879
  0
ARC
  8
0
 62
7
  6
CONTINUOUS
 10
117.1318259285
 20
243.6203731557
 40
0.75
 50
90.0007339907
 51
179.9980911304
  0
ARC
  8
0
 62
7
  6
CONTINUOUS
 10
123.4818259285
 20
243.6203731557
 40
0.75
 50
90.0
 51
180.0
  0
ARC
  8
0
 62
7
  6
CONTINUOUS
 10
127.9818259285
 20
243.6203731557
 40
0.75
 50
0.0
 51
90.0
  0
ARC
  8
0
 62
7
  6
CONTINUOUS
 10
117.2858259285
 20
244.2203731557
 40
0.15
 50
90.0
 51
180.0
  0
ARC
  8
0
 62
7
  6
CONTINUOUS
 10
150.3318402916
 20
233.1203731557
 40
0.75
 50
180.0
 51
270.0
  0
ARC
  8
0
 62
7
  6
CONTINUOUS
 10
154.8318115653
 20
233.1203731557
 40
0.75
 50
270.0
 51
360.0
  0
ARC
  8
0
 62
7
  6
CONTINUOUS
 10
136.5778402916
 20
233.1203731557
 40
0.75
 50
180.0
 51
270.0
  0
ARC
  8
0
 62
7
  6
CONTINUOUS
 10
141.0778115653
 20
233.1203731557
 40
0.75
 50
270.0
 51
360.0
  0
ARC
  8
0
 62
7
  6
CONTINUOUS
 10
154.8318115653
 20
243.6203731557
 40
0.75
 50
0.0
 51
90.0
  0
ARC
  8
0
 62
7
  6
CONTINUOUS
 10
150.3318402916
 20
243.6203731557
 40
0.75
 50
90.0
 51
180.0
  0
ARC
  8
0
 62
7
  6
CONTINUOUS
 10
141.0778115653
 20
243.6203731557
 40
0.75
 50
0.0
 51
90.0
  0
ARC
  8
0
 62
7
  6
CONTINUOUS
 10
136.5778402916
 20
243.6203731557
 40
0.75
 50
90.0
 51
180.0
  0
ARC
  8
0
 62
7
  6
CONTINUOUS
 10
189.6464137946
 20
220.3703731557
 40
2.0
 50
269.9971858617
 51
356.5
  0
ARC
  8
0
 62
7
  6
CONTINUOUS
 10
180.9278261407
 20
219.3703731557
 40
1.0
 50
180.0
 51
269.9999878379
  0
ARC
  8
0
 62
7
  6
CONTINUOUS
 10
187.3778264819
 20
223.6225231274
 40
0.2999999929
 50
270.0
 51
360.0
  0
ARC
  8
0
 62
7
  6
CONTINUOUS
 10
180.4568402916
 20
233.1203731557
 40
0.75
 50
180.0
 51
270.0
  0
ARC
  8
0
 62
7
  6
CONTINUOUS
 10
184.9568115653
 20
233.1203731557
 40
0.75
 50
270.0
 51
360.0
  0
ARC
  8
0
 62
7
  6
CONTINUOUS
 10
184.9568115653
 20
243.6203731557
 40
0.75
 50
0.0
 51
90.0
  0
ARC
  8
0
 62
7
  6
CONTINUOUS
 10
180.4568402916
 20
243.6203731557
 40
0.75
 50
90.0
 51
180.0
  0
ARC
  8
0
 62
7
  6
CONTINUOUS
 10
164.8318402916
 20
243.6203731557
 40
0.75
 50
90.0
 51
180.0
  0
ARC
  8
0
 62
7
  6
CONTINUOUS
 10
169.3318115653
 20
243.6203731557
 40
0.75
 50
0.0
 51
90.0
  0
ARC
  8
0
 62
7
  6
CONTINUOUS
 10
192.7603846356
 20
231.9703731557
 40
0.3999999332
 50
89.99994246
 51
176.4999964873
  0
ARC
  8
0
 62
7
  6
CONTINUOUS
 10
171.2318259285
 20
232.5203731557
 40
0.15
 50
270.0
 51
360.0
  0
ARC
  8
0
 62
7
  6
CONTINUOUS
 10
162.9318259285
 20
232.5203731557
 40
0.15
 50
180.0
 51
270.0
  0
ARC
  8
0
 62
7
  6
CONTINUOUS
 10
192.9318259285
 20
232.5203731557
 40
0.15
 50
270.0
 51
360.0
  0
ARC
  8
0
 62
7
  6
CONTINUOUS
 10
192.9318256836
 20
243.251254096
 40
0.15
 50
359.9999782516
 51
76.9080109216
  0
ARC
  8
0
 62
7
  6
CONTINUOUS
 10
188.7646137268
 20
244.2203731557
 40
0.15
 50
76.9081069357
 51
90.0
  0
ARC
  8
0
 62
7
  6
CONTINUOUS
 10
138.3278259285
 20
90.888523785
 40
4.54
 50
240.3272196412
 51
270.0
  0
ARC
  8
0
 62
7
  6
CONTINUOUS
 10
139.3278259285
 20
90.888523785
 40
4.54
 50
270.0
 51
299.6727803588
  0
ARC
  8
0
 62
7
  6
CONTINUOUS
 10
125.7318259285
 20
90.348523785
 40
4.0
 50
224.4153085972
 51
315.5846914028
  0
ARC
  8
0
 62
7
  6
CONTINUOUS
 10
123.2318261308
 20
87.8990337507
 40
0.5000000085
 50
179.9999665947
 51
224.4152685108
  0
ARC
  8
0
 62
7
  6
CONTINUOUS
 10
136.3278400169
 20
87.3783020486
 40
0.5000000044
 50
180.0000132829
 51
240.3272535662
  0
ARC
  8
0
 62
7
  6
CONTINUOUS
 10
128.4818259285
 20
94.4178588398
 40
0.5
 50
180.0
 51
194.2
  0
ARC
  8
AXES
 62
7
  6
CONTINUOUS
 10
122.9818259285
 20
94.4178588398
 40
0.5
 50
345.8
 51
360.0
  0
ARC
  8
0
 62
7
  6
CONTINUOUS
 10
122.9818259285
 20
94.4178588398
 40
0.5
 50
345.8
 51
360.0
  0
ARC
  8
0
 62
7
  6
CONTINUOUS
 10
136.0778259285
 20
94.4178020772
 40
0.5
 50
345.8
 51
360.0
  0
ARC
  8
0
 62
7
  6
CONTINUOUS
 10
141.5778259285
 20
94.4178020772
 40
0.5
 50
180.0
 51
194.2
  0
ARC
  8
0
 62
7
  6
CONTINUOUS
 10
128.2318259285
 20
87.8990340422
 40
0.5
 50
315.5846914028
 51
360.0
  0
ARC
  8
0
 62
7
  6
CONTINUOUS
 10
141.3278115653
 20
87.3783019327
 40
0.5
 50
299.6727803588
 51
360.0
  0
ARC
  8
0
 62
7
  6
CONTINUOUS
 10
128.5818259285
 20
91.372925919
 40
0.15
 50
0.0
 51
14.2
  0
ARC
  8
AXES
 62
7
  6
CONTINUOUS
 10
128.5818259285
 20
91.372925919
 40
0.15
 50
0.0
 51
14.2
  0
ARC
  8
0
 62
7
  6
CONTINUOUS
 10
135.9778403313
 20
91.3729260758
 40
0.15
 50
165.8000617642
 51
180.0000598766
  0
ARC
  8
0
 62
7
  6
CONTINUOUS
 10
141.6778115653
 20
91.372925919
 40
0.15
 50
0.0
 51
14.2
  0
ARC
  8
AXES
 62
7
  6
CONTINUOUS
 10
141.6778115653
 20
91.372925919
 40
0.15
 50
0.0
 51
14.2
  0
ARC
  8
0
 62
7
  6
CONTINUOUS
 10
122.8818259285
 20
91.372925919
 40
0.15
 50
165.8
 51
180.0
  0
ARC
  8
AXES
 62
7
  6
CONTINUOUS
 10
122.8818259285
 20
91.372925919
 40
0.15
 50
165.8
 51
180.0
  0
ARC
  8
0
 62
7
  6
CONTINUOUS
 10
143.7778259285
 20
100.248523785
 40
2.7
 50
90.0
 51
180.0
  0
ARC
  8
0
 62
7
  6
CONTINUOUS
 10
129.9818259285
 20
100.614523785
 40
2.0
 50
90.0
 51
180.0
  0
ARC
  8
0
 62
7
  6
CONTINUOUS
 10
134.5778259285
 20
100.614523785
 40
2.0
 50
0.0
 51
90.0
  0
ARC
  8
0
 62
7
  6
CONTINUOUS
 10
121.4818259285
 20
100.614523785
 40
2.0
 50
0.0
 51
90.0
  0
ARC
  8
0
 62
7
  6
CONTINUOUS
 10
118.1358259285
 20
103.614523785
 40
1.0
 50
180.0
 51
270.0
  0
ARC
  8
0
 62
7
  6
CONTINUOUS
 10
152.0818259285
 20
90.848523785
 40
4.5
 50
240.0002375645
 51
270.0
  0
ARC
  8
0
 62
7
  6
CONTINUOUS
 10
153.0818259285
 20
90.848523785
 40
4.5
 50
270.0
 51
299.9997624355
  0
ARC
  8
0
 62
7
  6
CONTINUOUS
 10
166.5818259285
 20
90.848523785
 40
4.5
 50
240.0002375645
 51
270.0
  0
ARC
  8
0
 62
7
  6
CONTINUOUS
 10
167.5818259285
 20
90.848523785
 40
4.5
 50
270.0
 51
299.9997624355
  0
ARC
  8
AXES
 62
7
  6
CONTINUOUS
 10
164.2818259285
 20
90.678523785
 40
1.5
 50
94.1260708806
 51
257.7538206432
  0
ARC
  8
AXES
 62
7
  6
CONTINUOUS
 10
169.8818259285
 20
90.678523785
 40
1.5
 50
282.2461793568
 51
85.8739291194
  0
ARC
  8
0
 62
7
  6
CONTINUOUS
 10
150.081840025
 20
87.3844139901
 40
0.5000000045
 50
180.0000129167
 51
240.0002704844
  0
ARC
  8
0
 62
7
  6
CONTINUOUS
 10
164.581840025
 20
87.3844139901
 40
0.5000000045
 50
180.0000129167
 51
240.0002704844
  0
ARC
  8
0
 62
7
  6
CONTINUOUS
 10
155.0818115653
 20
87.3844138773
 40
0.5
 50
299.9997624355
 51
360.0
  0
ARC
  8
0
 62
7
  6
CONTINUOUS
 10
169.5818115653
 20
87.3844138773
 40
0.5
 50
299.9997624355
 51
360.0
  0
ARC
  8
0
 62
7
  6
CONTINUOUS
 10
149.8318259285
 20
94.4178020772
 40
0.5
 50
345.8
 51
360.0
  0
ARC
  8
0
 62
7
  6
CONTINUOUS
 10
155.3318259285
 20
94.4178020772
 40
0.5
 50
180.0
 51
194.2
  0
ARC
  8
0
 62
7
  6
CONTINUOUS
 10
164.3318259285
 20
94.4178020772
 40
0.5
 50
345.8
 51
360.0
  0
ARC
  8
0
 62
7
  6
CONTINUOUS
 10
169.8318259285
 20
94.4178020772
 40
0.5
 50
180.0
 51
194.2
  0
ARC
  8
0
 62
7
  6
CONTINUOUS
 10
169.9318114334
 20
91.3729264402
 40
0.15
 50
359.9998009189
 51
14.1997946428
  0
ARC
  8
AXES
 62
7
  6
CONTINUOUS
 10
170.0005455654
 20
92.3242472271
 40
0.15
 50
194.2
 51
265.8739291194
  0
ARC
  8
AXES
 62
7
  6
CONTINUOUS
 10
170.2318115653
 20
89.0660691177
 40
0.15
 50
102.2461793568
 51
180.0
  0
ARC
  8
AXES
 62
7
  6
CONTINUOUS
 10
164.1631062915
 20
92.3242472271
 40
0.15
 50
274.1260708806
 51
345.8
  0
ARC
  8
AXES
 62
7
  6
CONTINUOUS
 10
163.9318402916
 20
89.0660691177
 40
0.15
 50
0.0
 51
77.7538206432
  0
ARC
  8
AXES
 62
7
  6
CONTINUOUS
 10
155.4318115653
 20
91.372925919
 40
0.15
 50
0.0
 51
14.2
  0
ARC
  8
0
 62
7
  6
CONTINUOUS
 10
155.4318114334
 20
91.3729264402
 40
0.15
 50
359.999800919
 51
14.1997946428
  0
ARC
  8
0
 62
7
  6
CONTINUOUS
 10
164.2318402916
 20
91.372925919
 40
0.15
 50
165.8
 51
180.0
  0
ARC
  8
0
 62
7
  6
CONTINUOUS
 10
149.7318403313
 20
91.3729260758
 40
0.15
 50
165.8000617642
 51
180.0000598766
  0
ARC
  8
0
 62
7
  6
CONTINUOUS
 10
172.3318259285
 20
100.098523785
 40
3.0
 50
90.0
 51
180.0
  0
ARC
  8
0
 62
7
  6
CONTINUOUS
 10
157.5318259285
 20
100.248523785
 40
2.7
 50
90.0
 51
180.0
  0
ARC
  8
0
 62
7
  6
CONTINUOUS
 10
147.6318259285
 20
100.248523785
 40
2.7
 50
0.0
 51
90.0
  0
ARC
  8
0
 62
7
  6
CONTINUOUS
 10
162.1318259285
 20
100.248523785
 40
2.7
 50
0.0
 51
90.0
  0
ARC
  8
0
 62
7
  6
CONTINUOUS
 10
125.7318259285
 20
108.202523785
 40
4.104
 50
180.0
 51
360.0
  0
ARC
  8
0
 62
7
  6
CONTINUOUS
 10
139.4778259285
 20
107.748523785
 40
3.85
 50
270.0
 51
360.0
  0
ARC
  8
0
 62
7
  6
CONTINUOUS
 10
138.1778259285
 20
107.748523785
 40
3.85
 50
180.0
 51
270.0
  0
ARC
  8
0
 62
7
  6
CONTINUOUS
 10
129.3358259285
 20
112.3862454928
 40
0.5
 50
0.0
 51
14.2
  0
ARC
  8
0
 62
7
  6
CONTINUOUS
 10
142.8278259285
 20
112.3862454928
 40
0.5
 50
0.0
 51
14.2
  0
ARC
  8
0
 62
7
  6
CONTINUOUS
 10
134.8278259285
 20
112.3862454928
 40
0.5
 50
165.8
 51
180.0
  0
ARC
  8
0
 62
7
  6
CONTINUOUS
 10
116.6358259285
 20
112.3862454928
 40
0.5
 50
0.0
 51
14.2
  0
ARC
  8
0
 62
7
  6
CONTINUOUS
 10
122.1278259285
 20
112.3862454928
 40
0.5
 50
165.8
 51
180.0
  0
ARC
  8
0
 62
7
  6
CONTINUOUS
 10
121.6318259285
 20
119.698523785
 40
0.75
 50
0.0
 51
90.0
  0
ARC
  8
0
 62
7
  6
CONTINUOUS
 10
117.1318259285
 20
119.698523785
 40
0.75
 50
90.0
 51
180.0
  0
ARC
  8
0
 62
7
  6
CONTINUOUS
 10
129.8318259285
 20
119.698523785
 40
0.75
 50
90.0
 51
180.0
  0
ARC
  8
0
 62
7
  6
CONTINUOUS
 10
134.3318259285
 20
119.698523785
 40
0.75
 50
0.0
 51
90.0
  0
ARC
  8
0
 62
7
  6
CONTINUOUS
 10
143.3238259285
 20
119.698523785
 40
0.75
 50
90.0
 51
180.0
  0
ARC
  8
0
 62
7
  6
CONTINUOUS
 10
134.9318259285
 20
115.4469862598
 40
0.15
 50
345.8
 51
360.0
  0
ARC
  8
0
 62
7
  6
CONTINUOUS
 10
142.7238260603
 20
115.4469857386
 40
0.15
 50
179.999800919
 51
194.1997946428
  0
ARC
  8
0
 62
7
  6
CONTINUOUS
 10
116.5318260603
 20
115.4469857386
 40
0.15
 50
179.999800919
 51
194.1997946428
  0
ARC
  8
0
 62
7
  6
CONTINUOUS
 10
129.2318260603
 20
115.4469857386
 40
0.15
 50
179.999800919
 51
194.1997946428
  0
ARC
  8
0
 62
7
  6
CONTINUOUS
 10
122.2318259285
 20
115.4469862598
 40
0.15
 50
345.8
 51
360.0
  0
ARC
  8
0
 62
7
  6
CONTINUOUS
 10
167.8318259285
 20
108.248523785
 40
4.5
 50
270.0
 51
360.0
  0
ARC
  8
0
 62
7
  6
CONTINUOUS
 10
166.3318259285
 20
108.248523785
 40
4.5
 50
180.0
 51
270.0
  0
ARC
  8
0
 62
7
  6
CONTINUOUS
 10
153.4818259285
 20
107.748523785
 40
3.85
 50
270.0
 51
360.0
  0
ARC
  8
0
 62
7
  6
CONTINUOUS
 10
151.6818259285
 20
107.748523785
 40
3.85
 50
180.0
 51
270.0
  0
ARC
  8
0
 62
7
  6
CONTINUOUS
 10
156.8318259285
 20
112.3862454928
 40
0.5
 50
0.0
 51
14.2
  0
ARC
  8
0
 62
7
  6
CONTINUOUS
 10
148.3318259285
 20
112.3862454928
 40
0.5
 50
165.8
 51
180.0
  0
ARC
  8
0
 62
7
  6
CONTINUOUS
 10
171.8318259285
 20
112.3862454928
 40
0.5
 50
0.0
 51
14.2
  0
ARC
  8
0
 62
7
  6
CONTINUOUS
 10
162.3318259285
 20
112.3862454928
 40
0.5
 50
165.8
 51
180.0
  0
ARC
  8
0
 62
7
  6
CONTINUOUS
 10
147.8358259285
 20
119.698523785
 40
0.75
 50
0.0
 51
90.0
  0
ARC
  8
0
 62
7
  6
CONTINUOUS
 10
157.3278259285
 20
119.698523785
 40
0.75
 50
90.0
 51
180.0
  0
ARC
  8
0
 62
7
  6
CONTINUOUS
 10
161.8358259285
 20
119.698523785
 40
0.75
 50
0.0
 51
90.0
  0
ARC
  8
0
 62
7
  6
CONTINUOUS
 10
172.3278259285
 20
119.698523785
 40
0.75
 50
90.0
 51
180.0
  0
ARC
  8
0
 62
7
  6
CONTINUOUS
 10
148.4358259285
 20
115.4469862598
 40
0.15
 50
345.8
 51
360.0
  0
ARC
  8
0
 62
7
  6
CONTINUOUS
 10
156.7278260603
 20
115.4469857386
 40
0.15
 50
179.999800919
 51
194.1997946428
  0
ARC
  8
0
 62
7
  6
CONTINUOUS
 10
162.4358259285
 20
115.4469862598
 40
0.15
 50
345.8
 51
360.0
  0
ARC
  8
0
 62
7
  6
CONTINUOUS
 10
171.7278260603
 20
115.4469857386
 40
0.15
 50
179.999800919
 51
194.1997946428
  0
ARC
  8
AXES
 62
7
  6
CONTINUOUS
 10
190.9568259285
 20
97.69716194
 40
6.0
 50
176.4927999793
 51
180.0
  0
ARC
  8
AXES
 62
7
  6
CONTINUOUS
 10
190.9568259285
 20
97.69716194
 40
6.0
 50
174.8194672786
 51
175.3332578109
  0
ARC
  8
0
 62
7
  6
CONTINUOUS
 10
190.9568259285
 20
97.69716194
 40
6.0
 50
109.6692848698
 51
180.0
  0
ARC
  8
0
 62
7
  6
CONTINUOUS
 10
182.2068259285
 20
90.848523785
 40
4.5
 50
240.0002375645
 51
270.0
  0
ARC
  8
0
 62
7
  6
CONTINUOUS
 10
183.2068259285
 20
90.848523785
 40
4.5
 50
270.0
 51
299.9997624355
  0
ARC
  8
0
 62
7
  6
CONTINUOUS
 10
176.4568259285
 20
99.098523785
 40
4.0
 50
0.0
 51
90.0
  0
ARC
  8
0
 62
7
  6
CONTINUOUS
 10
180.206840025
 20
87.3844139901
 40
0.5000000045
 50
180.0000129167
 51
240.0002704844
  0
ARC
  8
0
 62
7
  6
CONTINUOUS
 10
185.2068115653
 20
87.3844138773
 40
0.5
 50
299.9997624355
 51
360.0
  0
ARC
  8
0
 62
7
  6
CONTINUOUS
 10
179.9568259285
 20
94.4178020772
 40
0.5
 50
345.8
 51
360.0
  0
ARC
  8
0
 62
7
  6
CONTINUOUS
 10
185.4568259285
 20
94.4178020772
 40
0.5
 50
180.0
 51
194.2
  0
ARC
  8
0
 62
7
  6
CONTINUOUS
 10
179.8568402916
 20
91.372925919
 40
0.15
 50
165.8
 51
180.0
  0
ARC
  8
AXES
 62
7
  6
CONTINUOUS
 10
179.8568402916
 20
91.372925919
 40
0.15
 50
165.8
 51
180.0
  0
ARC
  8
0
 62
7
  6
CONTINUOUS
 10
185.5568114334
 20
91.3729264402
 40
0.15
 50
359.999800919
 51
14.1997946428
  0
ARC
  8
AXES
 62
7
  6
CONTINUOUS
 10
185.5568115653
 20
91.372925919
 40
0.15
 50
0.0
 51
14.2
  0
ARC
  8
0
 62
7
  6
CONTINUOUS
 10
232.6778259285
 20
109.9772748343
 40
45.0
 50
175.9093257589
 51
184.0906742411
  0
ARC
  8
0
 62
7
  6
CONTINUOUS
 10
183.0818259285
 20
109.148523785
 40
5.5
 50
270.0
 51
329.2118097615
  0
ARC
  8
0
 62
7
  6
CONTINUOUS
 10
181.3318259285
 20
108.148523785
 40
4.5
 50
180.0
 51
270.0
  0
ARC
  8
0
 62
7
  6
CONTINUOUS
 10
190.0818259285
 20
106.9420756308
 40
3.0
 50
289.6692853863
 51
360.0
  0
ARC
  8
0
 62
7
  6
CONTINUOUS
 10
190.5818259285
 20
118.3930221581
 40
2.5
 50
359.9995481416
 51
109.6692853863
  0
ARC
  8
0
 62
7
  6
CONTINUOUS
 10
176.8358259285
 20
119.698523785
 40
0.75
 50
0.0
 51
90.0
  0
ARC
  8
0
 62
7
  6
CONTINUOUS
 10
177.3318259285
 20
112.3862499706
 40
0.5
 50
165.8010105549
 51
180.0
  0
ARC
  8
0
 62
7
  6
CONTINUOUS
 10
187.6778259285
 20
106.4100417237
 40
0.15
 50
329.2118097615
 51
360.0
  0
ARC
  8
0
 62
7
  6
CONTINUOUS
 10
187.9778259285
 20
119.9578460271
 40
0.15
 50
109.6692640954
 51
179.9999367453
  0
ARC
  8
0
 62
7
  6
CONTINUOUS
 10
177.4358256254
 20
115.4472047315
 40
0.15
 50
345.8014825109
 51
0.0004575287
  0
ARC
  8
0
 62
7
  6
CONTINUOUS
 10
288.4988162714
 20
109.9772748343
 40
20.0
 50
350.1828781766
 51
9.8171218234
  0
ARC
  8
0
 62
7
  6
CONTINUOUS
 10
304.5466658201
 20
111.7946006235
 40
1.0
 50
99.0104493944
 51
179.9999887652
  0
ARC
  8
0
 62
7
  6
CONTINUOUS
 10
304.5466658201
 20
107.6312210557
 40
1.0
 50
180.0000004341
 51
269.0000000076
  0
ARC
  8
0
 62
7
  6
CONTINUOUS
 10
321.5466658201
 20
90.348523785
 40
4.0
 50
180.0
 51
270.0
  0
ARC
  8
0
 62
7
  6
CONTINUOUS
 10
317.1466658201
 20
106.0110739708
 40
0.4
 50
8.0895593807
 51
89.0
  0
ARC
  8
0
 62
7
  6
CONTINUOUS
 10
317.6966658201
 20
103.498523785
 40
0.15
 50
146.250000016
 51
180.0
  0
ARC
  8
0
 62
7
  6
CONTINUOUS
 10
317.6966658201
 20
103.6579068085
 40
0.1499999671
 50
179.9998090059
 51
252.634248814
  0
ARC
  8
AXES
 62
7
  6
CONTINUOUS
 10
323.5466658201
 20
90.698523785
 40
2.1
 50
180.0
 51
360.0
  0
ARC
  8
0
 62
7
  6
CONTINUOUS
 10
325.5466658201
 20
90.348523785
 40
4.0
 50
270.0
 51
360.0
  0
ARC
  8
AXES
 62
7
  6
CONTINUOUS
 10
323.5466658201
 20
98.748523785
 40
2.1
 50
0.0
 51
180.0
  0
ARC
  8
0
 62
7
  6
CONTINUOUS
 10
329.3966658201
 20
102.764523785
 40
0.15
 50
270.0
 51
360.0
  0
ARC
  8
0
 62
7
  6
CONTINUOUS
 10
317.1466658201
 20
115.2100929712
 40
0.4
 50
285.1332006224
 51
360.0
  0
ARC
  8
0
 62
7
  6
CONTINUOUS
 10
321.5466658201
 20
116.448523785
 40
4.0
 50
90.0
 51
180.0
  0
CIRCLE
  8
AXES
 62
7
  6
CONTINUOUS
 10
323.5466658201
 20
116.098523785
 40
2.1
  0
ARC
  8
0
 62
7
  6
CONTINUOUS
 10
325.5466658201
 20
116.448523785
 40
4.0
 50
0.0
 51
90.0
  0
ARC
  8
0
 62
7
  6
CONTINUOUS
 10
323.5466658201
 20
122.364523785
 40
19.75
 50
252.6343058201
 51
270.0
  0
ENDSEC
  0
EOF
