  0
SECTION
  2
HEADER
  9
$EXTMAX
 10
420.0
 20
297.0
 30
0.0
  9
$EXTMIN
 10
0.0
 20
0.0
 30
0.0
  9
$LIMMIN
 10
0.0
 20
0.0
  9
$LIMMAX
 10
420.0
 20
297.0
  9
$VIEWCTR
 10
210.0
 20
148.5
  9
$VIEWSIZE
 40
297.0
  9
$CLAYER
  8
0
  9
$LTSCALE
 40
23.1
  9
$CELTYPE
  6
BYLAYER
  9
$DIMSCALE
 40
1.0
  9
$DIMASZ
 40
3.5
  9
$DIMEXO
 40
2.625
  9
$DIMDLI
 40
15.96
  9
$DIMEXE
 40
7.56
  9
$DIMCEN
 40
3.78
  9
$DIMLFAC
 40
1.0
  9
$DIMBLK
  1
_FILLED
  9
$DIMTXT
 40
3.5
  9
$PDMODE
 70
3
  9
$PDSIZE
 40
0.3125
  9
$TILEMODE
 70
1
  0
ENDSEC
  0
SECTION
  2
TABLES
  0
TABLE
  2
LTYPE
 70
6
  0
LTYPE
  2
BYBLOCK
 70
0
  3

 72
65
 73
0
 40
0.0
  0
LTYPE
  2
BYLAYER
 70
0
  3

 72
65
 73
0
 40
0.0
  0
LTYPE
  2
CONTINUOUS
 70
64
  3
Solid line
 72
65
 73
0
 40
0.0
  0
LTYPE
  2
CENTER
 70
64
  3
____ _ ____ _ ____ _ ____ _ ____ _ ____ _ ____
 72
65
 73
4
 40
0.6
 49
0.375
 49
-0.075
 49
0.075
 49
-0.075
  0
LTYPE
  2
HIDDEN
 70
64
  3
- - - - - - - - - - - - - - - - - - - -
 72
65
 73
2
 40
0.2
 49
0.1
 49
-0.1
  0
LTYPE
  2
PHANTOM
 70
64
  3
_____ _ _ _____ _ _ _____ _ _ _____
 72
65
 73
6
 40
0.8
 49
0.45
 49
-0.05
 49
0.1
 49
-0.05
 49
0.1
 49
-0.05
  0
LTYPE
  2
DOT
 70
64
  3
. . . . . . . . . . . . . . . . . . . .
 72
65
 73
2
 40
0.2
 49
0.1
 49
-0.1
  0
LTYPE
  2
DASHED
 70
64
  3
- - - - - - - - - - - - - - - - - - - -
 72
65
 73
2
 40
0.2
 49
0.1
 49
-0.1
  0
ENDTAB
  0
TABLE
  2
LAYER
 70
36
  0
LAYER
  2
0
 70
0
 62
7
  6
CONTINUOUS
  0
LAYER
  2
DEFAULT_1
 70
0
 62
7
  6
CENTER
  0
LAYER
  2
DEFAULT_2
 70
0
 62
8
  6
HIDDEN
  0
LAYER
  2
DEFAULT_3
 70
0
 62
7
  6
PHANTOM
  0
LAYER
  2
AXES
 70
0
 62
7
  6
CONTINUOUS
  0
LAYER
  2
CSYS
 70
0
 62
7
  6
CONTINUOUS
  0
LAYER
  2
CURVE
 70
0
 62
7
  6
CONTINUOUS
  0
LAYER
  2
CURVES
 70
0
 62
7
  6
CONTINUOUS
  0
LAYER
  2
PLANES
 70
0
 62
7
  6
CONTINUOUS
  0
LAYER
  2
QUILT
 70
0
 62
7
  6
CONTINUOUS
  0
LAYER
  2
SURF-A
 70
0
 62
7
  6
CONTINUOUS
  0
LAYER
  2
SURFACE
 70
0
 62
7
  6
CONTINUOUS
  0
ENDTAB
  0
TABLE
  2
STYLE
 70
1
  0
STYLE
  2
STANDARD
 70
0
 40
0.0
 41
0.8
 50
0.0
 71
0
 42
0.2
  3
txt
  4

  0
STYLE
  2
TEXTSTYLE_1
 70
0
 40
0.0
 41
0.8
 50
0.0
 71
0
 42
0.2
  3
gdt
  4

  0
STYLE
  2
TEXTSTYLE_2
 70
0
 40
0.0
 41
0.6
 50
0.0
 71
0
 42
0.2
  3
txt
  4

  0
STYLE
  2
TEXTSTYLE_3
 70
0
 40
0.0
 41
1.0
 50
0.0
 71
0
 42
0.2
  3
ftb_____.ttf
  4

  0
STYLE
  2
TEXTSTYLE_4
 70
0
 40
0.0
 41
1.0
 50
0.0
 71
0
 42
0.2
  3
fti_____.ttf
  4

  0
STYLE
  2
TEXTSTYLE_5
 70
0
 40
0.0
 41
1.0
 50
0.0
 71
0
 42
0.2
  3
frutiger light.ttf
  4

  0
STYLE
  2
TEXTSTYLE_6
 70
0
 40
0.0
 41
0.7
 50
0.0
 71
0
 42
0.2
  3
txt
  4

  0
STYLE
  2
TEXTSTYLE_7
 70
0
 40
0.0
 41
0.5
 50
0.0
 71
0
 42
0.2
  3
txt
  4

  0
ENDTAB
  0
ENDSEC
  0
SECTION
  2
BLOCKS
  0
BLOCK
  8
0
 62
2
  6
CONTINUOUS
  2
SYMBOL_5_BL1
 70
64
 10
382.7840918555
 20
35.5067593403
  0
TEXT
  8
0
 62
7
  6
CONTINUOUS
 10
373.842376864
 20
30.5995157174
  7
TEXTSTYLE_4
 40
1.0655737705
  1
The brand for plastic modular belts and chains
 41
1.0
 72
0
  0
LINE
  8
0
 62
7
  6
CONTINUOUS
 10
358.7621602445
 20
36.0805298321
 11
358.7621602445
 21
33.9493822911
  0
LINE
  8
0
 62
7
  6
CONTINUOUS
 10
359.0512227376
 20
30.9584509954
 11
359.0512227376
 21
31.0552420547
  0
LINE
  8
0
 62
7
  6
CONTINUOUS
 10
358.7621602445
 20
31.0229783683
 11
358.8199727462
 21
30.8293962497
  0
LINE
  8
0
 62
7
  6
CONTINUOUS
 10
360.1556028675
 20
33.867415078
 11
360.1556028675
 21
36.0805298321
  0
LINE
  8
0
 62
7
  6
CONTINUOUS
 10
361.0746601894
 20
32.0231527829
 11
361.0746601894
 21
30.5067593403
  0
LINE
  8
0
 62
7
  6
CONTINUOUS
 10
361.3637227445
 20
30.5067593403
 11
361.3637227445
 21
31.2488242184
  0
LINE
  8
0
 62
7
  6
CONTINUOUS
 10
361.3637227445
 20
31.3778789641
 11
361.3637227445
 21
32.0231527829
  0
LINE
  8
0
 62
7
  6
CONTINUOUS
 10
358.8199727462
 20
31.216560532
 11
358.7621602445
 21
31.0229783683
  0
LINE
  8
0
 62
7
  6
CONTINUOUS
 10
359.1668477307
 20
30.7971325633
 11
359.0512227376
 21
30.9584509954
  0
LINE
  8
0
 62
7
  6
CONTINUOUS
 10
360.2652852997
 20
31.3133515913
 11
360.3230977445
 21
31.216560532
  0
LINE
  8
0
 62
7
  6
CONTINUOUS
 10
360.6121602997
 20
31.216560532
 11
360.5543476894
 21
31.3456152777
  0
LINE
  8
0
 62
7
  6
CONTINUOUS
 10
362.0408487691
 20
36.0805298321
 11
362.0408487691
 21
34.2772511436
  0
LINE
  8
0
 62
7
  6
CONTINUOUS
 10
362.0408487691
 20
32.9657757338
 11
362.0408487691
 21
32.3100380288
  0
LINE
  8
0
 62
7
  6
CONTINUOUS
 10
362.4043477445
 20
31.1520331591
 11
362.4043477445
 21
30.5067593403
  0
LINE
  8
0
 62
7
  6
CONTINUOUS
 10
362.6934101343
 20
30.5067593403
 11
362.6934101343
 21
31.1520331591
  0
LINE
  8
0
 62
7
  6
CONTINUOUS
 10
359.0512227376
 20
31.0552420547
 11
359.1090352445
 21
31.1842968456
  0
LINE
  8
0
 62
7
  6
CONTINUOUS
 10
358.8199727462
 20
30.8293962497
 11
358.9355977445
 21
30.7003414814
  0
LINE
  8
0
 62
7
  6
CONTINUOUS
 10
362.3465351343
 20
31.2810879048
 11
362.4043477445
 21
31.1520331591
  0
LINE
  8
0
 62
7
  6
CONTINUOUS
 10
363.1559103548
 20
30.7971325633
 11
363.2137226343
 21
30.668077795
  0
LINE
  8
0
 62
7
  6
CONTINUOUS
 10
362.6934101343
 20
31.1520331591
 11
362.6355978548
 21
31.3133515913
  0
LINE
  8
0
 62
7
  6
CONTINUOUS
 10
363.1559103548
 20
31.3456152777
 11
363.1559103548
 21
31.2810879048
  0
LINE
  8
0
 62
7
  6
CONTINUOUS
 10
363.1559103548
 20
30.8939236226
 11
363.1559103548
 21
30.7971325633
  0
LINE
  8
0
 62
7
  6
CONTINUOUS
 10
363.4342913921
 20
32.3100380288
 11
363.4342913921
 21
36.0805298321
  0
LINE
  8
0
 62
7
  6
CONTINUOUS
 10
363.4449727445
 20
30.7648688543
 11
363.4449727445
 21
30.8293962497
  0
LINE
  8
0
 62
7
  6
CONTINUOUS
 10
363.7621602445
 20
36.0805298321
 11
363.7621602445
 21
32.3100380288
  0
LINE
  8
0
 62
7
  6
CONTINUOUS
 10
360.5543476894
 20
30.7003414814
 11
360.6121602997
 21
30.8293962497
  0
LINE
  8
0
 62
7
  6
CONTINUOUS
 10
364.9480979651
 20
30.6035504109
 11
364.890285024
 21
30.7648688543
  0
LINE
  8
0
 62
7
  6
CONTINUOUS
 10
364.6012229651
 20
31.2810879048
 11
364.6012229651
 21
31.1842968456
  0
LINE
  8
0
 62
7
  6
CONTINUOUS
 10
364.6012229651
 20
31.0552420547
 11
364.6012229651
 21
30.8616599362
  0
LINE
  8
0
 62
7
  6
CONTINUOUS
 10
364.890285024
 20
30.7648688543
 11
364.890285024
 21
31.2810879048
  0
LINE
  8
0
 62
7
  6
CONTINUOUS
 10
365.1556028675
 20
32.3100380288
 11
365.1556028675
 21
34.1133167174
  0
LINE
  8
0
 62
7
  6
CONTINUOUS
 10
365.1556028675
 20
35.4247921272
 11
365.1556028675
 21
36.0805298321
  0
LINE
  8
0
 62
7
  6
CONTINUOUS
 10
365.4684104651
 20
32.0231527829
 11
365.4684104651
 21
31.8618343508
  0
LINE
  8
0
 62
7
  6
CONTINUOUS
 10
365.4684104651
 20
31.5391973962
 11
365.4684104651
 21
30.5067593403
  0
LINE
  8
0
 62
7
  6
CONTINUOUS
 10
365.757472524
 20
30.5067593403
 11
365.757472524
 21
31.5391973962
  0
LINE
  8
0
 62
7
  6
CONTINUOUS
 10
365.757472524
 20
31.8618343508
 11
365.757472524
 21
32.0231527829
  0
LINE
  8
0
 62
7
  6
CONTINUOUS
 10
360.3230977445
 20
30.8293962497
 11
360.2652852997
 21
30.7326051679
  0
LINE
  8
0
 62
7
  6
CONTINUOUS
 10
362.6355978548
 20
31.3133515913
 11
362.5777852445
 21
31.3778789641
  0
LINE
  8
0
 62
7
  6
CONTINUOUS
 10
363.5027853548
 20
30.7003414814
 11
363.4449727445
 21
30.7648688543
  0
LINE
  8
0
 62
7
  6
CONTINUOUS
 10
364.6590352445
 20
30.5712867188
 11
364.716847524
 21
30.5067593403
  0
LINE
  8
0
 62
7
  6
CONTINUOUS
 10
364.6012229651
 20
30.668077795
 11
364.6590352445
 21
30.5712867188
  0
LINE
  8
0
 62
7
  6
CONTINUOUS
 10
365.0059102445
 20
30.5067593403
 11
364.9480979651
 21
30.6035504109
  0
LINE
  8
0
 62
7
  6
CONTINUOUS
 10
364.890285024
 20
31.2810879048
 11
364.8324727445
 21
31.3778789641
  0
LINE
  8
0
 62
7
  6
CONTINUOUS
 10
366.2199727445
 20
31.5391973962
 11
366.2199727445
 21
30.5067593403
  0
LINE
  8
0
 62
7
  6
CONTINUOUS
 10
366.5090354651
 20
30.5067593403
 11
366.5090354651
 21
31.2488242184
  0
LINE
  8
0
 62
7
  6
CONTINUOUS
 10
366.5090354651
 20
31.3778789641
 11
366.5090354651
 21
31.5391973962
  0
LINE
  8
0
 62
7
  6
CONTINUOUS
 10
367.0408487691
 20
34.5231527829
 11
367.0408487691
 21
32.3100380288
  0
LINE
  8
0
 62
7
  6
CONTINUOUS
 10
358.9355977445
 20
31.3456152777
 11
358.8199727462
 21
31.216560532
  0
LINE
  8
0
 62
7
  6
CONTINUOUS
 10
359.1090352445
 20
31.1842968456
 11
359.1668477307
 21
31.2488242184
  0
LINE
  8
0
 62
7
  6
CONTINUOUS
 10
358.9355977445
 20
30.7003414814
 11
359.0512227376
 21
30.6358140973
  0
LINE
  8
0
 62
7
  6
CONTINUOUS
 10
359.3402852307
 20
30.7003414814
 11
359.1668477307
 21
30.7971325633
  0
LINE
  8
0
 62
7
  6
CONTINUOUS
 10
364.543410024
 20
31.3456152777
 11
364.6012229651
 21
31.2810879048
  0
LINE
  8
0
 62
7
  6
CONTINUOUS
 10
367.491847524
 20
31.2810879048
 11
367.5496604651
 21
31.1197694727
  0
LINE
  8
0
 62
7
  6
CONTINUOUS
 10
367.838722524
 20
31.1197694727
 11
367.7809102445
 21
31.2810879048
  0
LINE
  8
0
 62
7
  6
CONTINUOUS
 10
367.5496604651
 20
31.1197694727
 11
367.5496604651
 21
30.5067593403
  0
LINE
  8
0
 62
7
  6
CONTINUOUS
 10
367.838722524
 20
30.5067593403
 11
367.838722524
 21
31.1197694727
  0
LINE
  8
0
 62
7
  6
CONTINUOUS
 10
368.3012227445
 20
31.3456152777
 11
368.3012227445
 21
31.2810879048
  0
LINE
  8
0
 62
7
  6
CONTINUOUS
 10
368.4342913921
 20
32.3100380288
 11
368.4342913921
 21
34.4411855698
  0
LINE
  8
0
 62
7
  6
CONTINUOUS
 10
368.7621602445
 20
36.0805298321
 11
368.7621602445
 21
32.3100380288
  0
LINE
  8
0
 62
7
  6
CONTINUOUS
 10
363.4449727445
 20
30.8293962497
 11
363.5027853548
 21
30.926187309
  0
LINE
  8
0
 62
7
  6
CONTINUOUS
 10
359.0512227376
 20
30.6358140973
 11
359.2246602583
 21
30.5712867188
  0
LINE
  8
0
 62
7
  6
CONTINUOUS
 10
360.5543476894
 20
31.3456152777
 11
360.3809101894
 21
31.4424063369
  0
LINE
  8
0
 62
7
  6
CONTINUOUS
 10
363.2137226343
 20
30.668077795
 11
363.3871601343
 21
30.5712867188
  0
LINE
  8
0
 62
7
  6
CONTINUOUS
 10
362.2309102445
 20
31.3456152777
 11
362.3465351343
 21
31.2810879048
  0
LINE
  8
0
 62
7
  6
CONTINUOUS
 10
362.5777852445
 20
31.3778789641
 11
362.4621603548
 21
31.4424063369
  0
LINE
  8
0
 62
7
  6
CONTINUOUS
 10
368.3012227445
 20
30.7648688543
 11
368.4168479651
 21
30.6358140973
  0
LINE
  8
0
 62
7
  6
CONTINUOUS
 10
368.6480977445
 20
30.7003414814
 11
368.5902854651
 21
30.7648688543
  0
LINE
  8
0
 62
7
  6
CONTINUOUS
 10
368.3012227445
 20
31.2810879048
 11
368.4168479651
 21
31.1520331591
  0
LINE
  8
0
 62
7
  6
CONTINUOUS
 10
367.7809102445
 20
31.2810879048
 11
367.7230979651
 21
31.3778789641
  0
LINE
  8
0
 62
7
  6
CONTINUOUS
 10
370.1512223035
 20
30.7003414814
 11
370.1512223035
 21
30.7648688543
  0
LINE
  8
0
 62
7
  6
CONTINUOUS
 10
370.1556028675
 20
32.3100380288
 11
370.1556028675
 21
36.0805298321
  0
LINE
  8
0
 62
7
  6
CONTINUOUS
 10
363.2137226343
 20
31.4101426505
 11
363.1559103548
 21
31.3456152777
  0
LINE
  8
0
 62
7
  6
CONTINUOUS
 10
360.091847717
 20
31.3778789641
 11
360.2652852997
 21
31.3133515913
  0
LINE
  8
0
 62
7
  6
CONTINUOUS
 10
364.8324727445
 20
31.3778789641
 11
364.716847524
 21
31.4424063369
  0
LINE
  8
0
 62
7
  6
CONTINUOUS
 10
368.6480977445
 20
31.216560532
 11
368.5902854651
 21
31.2810879048
  0
LINE
  8
0
 62
7
  6
CONTINUOUS
 10
369.8043479651
 20
30.8293962497
 11
369.8621602445
 21
30.7648688543
  0
LINE
  8
0
 62
7
  6
CONTINUOUS
 10
370.1512223035
 20
30.7648688543
 11
370.0355977445
 21
30.8939236226
  0
LINE
  8
0
 62
7
  6
CONTINUOUS
 10
369.8043479651
 20
31.3456152777
 11
369.8621602445
 21
31.2810879048
  0
LINE
  8
0
 62
7
  6
CONTINUOUS
 10
370.1512223035
 20
31.2810879048
 11
370.0355977445
 21
31.4101426505
  0
LINE
  8
0
 62
7
  6
CONTINUOUS
 10
363.4449727445
 20
31.2810879048
 11
363.5027853548
 21
31.3456152777
  0
LINE
  8
0
 62
7
  6
CONTINUOUS
 10
363.2715352445
 20
31.0229783683
 11
363.1559103548
 21
30.8939236226
  0
LINE
  8
0
 62
7
  6
CONTINUOUS
 10
364.6012229651
 20
30.8616599362
 11
364.543410024
 21
30.7971325633
  0
LINE
  8
0
 62
7
  6
CONTINUOUS
 10
364.543410024
 20
30.6035504109
 11
364.6012229651
 21
30.668077795
  0
LINE
  8
0
 62
7
  6
CONTINUOUS
 10
363.3871601343
 20
30.5712867188
 11
363.5027853548
 21
30.5390230296
  0
LINE
  8
0
 62
7
  6
CONTINUOUS
 10
360.3809101894
 20
31.4424063369
 11
360.1496602445
 21
31.5069337098
  0
LINE
  8
0
 62
7
  6
CONTINUOUS
 10
363.7340351343
 20
30.6358140973
 11
363.5027853548
 21
30.7003414814
  0
LINE
  8
0
 62
7
  6
CONTINUOUS
 10
362.4621603548
 20
31.4424063369
 11
362.2887228548
 21
31.5069337098
  0
LINE
  8
0
 62
7
  6
CONTINUOUS
 10
364.716847524
 20
31.4424063369
 11
364.543410024
 21
31.5069337098
  0
LINE
  8
0
 62
7
  6
CONTINUOUS
 10
367.3762229651
 20
31.3456152777
 11
367.491847524
 21
31.2810879048
  0
LINE
  8
0
 62
7
  6
CONTINUOUS
 10
367.7230979651
 20
31.3778789641
 11
367.6074727445
 21
31.4424063369
  0
LINE
  8
0
 62
7
  6
CONTINUOUS
 10
359.2246602583
 20
30.5712867188
 11
359.3980977583
 21
30.5390230296
  0
LINE
  8
0
 62
7
  6
CONTINUOUS
 10
359.6871602721
 20
30.6358140973
 11
359.3402852307
 21
30.7003414814
  0
LINE
  8
0
 62
7
  6
CONTINUOUS
 10
362.1152853548
 20
31.3778789641
 11
362.2309102445
 21
31.3456152777
  0
LINE
  8
0
 62
7
  6
CONTINUOUS
 10
364.4277854651
 20
31.3778789641
 11
364.543410024
 21
31.3456152777
  0
LINE
  8
0
 62
7
  6
CONTINUOUS
 10
368.7637229651
 20
30.668077795
 11
368.6480977445
 21
30.7003414814
  0
LINE
  8
0
 62
7
  6
CONTINUOUS
 10
367.2605977445
 20
31.3778789641
 11
367.3762229651
 21
31.3456152777
  0
LINE
  8
0
 62
7
  6
CONTINUOUS
 10
368.4168479651
 20
30.6358140973
 11
368.5902854651
 21
30.5712867188
  0
LINE
  8
0
 62
7
  6
CONTINUOUS
 10
367.6074727445
 20
31.4424063369
 11
367.4340352445
 21
31.5069337098
  0
LINE
  8
0
 62
7
  6
CONTINUOUS
 10
368.8215352445
 20
31.1520331591
 11
368.6480977445
 21
31.216560532
  0
LINE
  8
0
 62
7
  6
CONTINUOUS
 10
369.6309104651
 20
30.8939236226
 11
369.8043479651
 21
30.8293962497
  0
LINE
  8
0
 62
7
  6
CONTINUOUS
 10
370.0355977445
 20
31.4101426505
 11
369.8621602445
 21
31.4746700234
  0
LINE
  8
0
 62
7
  6
CONTINUOUS
 10
368.4168479651
 20
31.1520331591
 11
368.6480977445
 21
31.0552420547
  0
LINE
  8
0
 62
7
  6
CONTINUOUS
 10
370.0355977445
 20
30.8939236226
 11
369.8043479651
 21
30.9907146818
  0
LINE
  8
0
 62
7
  6
CONTINUOUS
 10
368.5902854651
 20
31.2810879048
 11
368.6480977445
 21
31.3456152777
  0
LINE
  8
0
 62
7
  6
CONTINUOUS
 10
359.0512227376
 20
31.4101426505
 11
358.9355977445
 21
31.3456152777
  0
LINE
  8
0
 62
7
  6
CONTINUOUS
 10
359.1668477307
 20
31.2488242184
 11
359.3402852307
 21
31.3456152777
  0
LINE
  8
0
 62
7
  6
CONTINUOUS
 10
361.4793477997
 20
31.4424063369
 11
361.3637227445
 21
31.3778789641
  0
LINE
  8
0
 62
7
  6
CONTINUOUS
 10
361.3637227445
 20
31.2488242184
 11
361.4793477997
 21
31.3133515913
  0
LINE
  8
0
 62
7
  6
CONTINUOUS
 10
360.3809101894
 20
30.6035504109
 11
360.5543476894
 21
30.7003414814
  0
LINE
  8
0
 62
7
  6
CONTINUOUS
 10
359.3980977583
 20
30.5390230296
 11
359.744972717
 21
30.5067593403
  0
LINE
  8
0
 62
7
  6
CONTINUOUS
 10
363.5027853548
 20
30.5390230296
 11
363.7340351343
 21
30.5067593403
  0
LINE
  8
0
 62
7
  6
CONTINUOUS
 10
361.8840352445
 20
31.4101426505
 11
362.1152853548
 21
31.3778789641
  0
LINE
  8
0
 62
7
  6
CONTINUOUS
 10
364.1965353548
 20
31.4101426505
 11
364.4277854651
 21
31.3778789641
  0
LINE
  8
0
 62
7
  6
CONTINUOUS
 10
368.6480977445
 20
31.0552420547
 11
369.6309104651
 21
30.8939236226
  0
LINE
  8
0
 62
7
  6
CONTINUOUS
 10
369.8043479651
 20
30.9907146818
 11
368.8215352445
 21
31.1520331591
  0
LINE
  8
0
 62
7
  6
CONTINUOUS
 10
362.2887228548
 20
31.5069337098
 11
362.1152853548
 21
31.5391973962
  0
LINE
  8
0
 62
7
  6
CONTINUOUS
 10
368.5902854651
 20
30.5712867188
 11
368.7637229651
 21
30.5390230296
  0
LINE
  8
0
 62
7
  6
CONTINUOUS
 10
367.4340352445
 20
31.5069337098
 11
367.2605977445
 21
31.5391973962
  0
LINE
  8
0
 62
7
  6
CONTINUOUS
 10
369.6887227445
 20
31.3778789641
 11
369.8043479651
 21
31.3456152777
  0
LINE
  8
0
 62
7
  6
CONTINUOUS
 10
369.8621602445
 20
30.7648688543
 11
369.8043479651
 21
30.7003414814
  0
LINE
  8
0
 62
7
  6
CONTINUOUS
 10
368.4168479651
 20
31.4424063369
 11
368.3012227445
 21
31.3456152777
  0
LINE
  8
0
 62
7
  6
CONTINUOUS
 10
363.3293478548
 20
31.4746700234
 11
363.2137226343
 21
31.4101426505
  0
LINE
  8
0
 62
7
  6
CONTINUOUS
 10
363.3871601343
 20
31.0875057863
 11
363.2715352445
 21
31.0229783683
  0
LINE
  8
0
 62
7
  6
CONTINUOUS
 10
363.5027853548
 20
30.926187309
 11
363.6184102445
 21
30.9907146818
  0
LINE
  8
0
 62
7
  6
CONTINUOUS
 10
361.0746601894
 20
30.5067593403
 11
361.3637227445
 21
30.5067593403
  0
LINE
  8
0
 62
7
  6
CONTINUOUS
 10
362.4043477445
 20
30.5067593403
 11
362.6934101343
 21
30.5067593403
  0
LINE
  8
0
 62
7
  6
CONTINUOUS
 10
363.7340351343
 20
30.5067593403
 11
364.0809101343
 21
30.5067593403
  0
LINE
  8
0
 62
7
  6
CONTINUOUS
 10
364.716847524
 20
30.5067593403
 11
365.0059102445
 21
30.5067593403
  0
LINE
  8
0
 62
7
  6
CONTINUOUS
 10
365.4684104651
 20
30.5067593403
 11
365.757472524
 21
30.5067593403
  0
LINE
  8
0
 62
7
  6
CONTINUOUS
 10
366.2199727445
 20
30.5067593403
 11
366.5090354651
 21
30.5067593403
  0
LINE
  8
0
 62
7
  6
CONTINUOUS
 10
367.5496604651
 20
30.5067593403
 11
367.838722524
 21
30.5067593403
  0
LINE
  8
0
 62
7
  6
CONTINUOUS
 10
369.1105979651
 20
30.5067593403
 11
369.4574729651
 21
30.5067593403
  0
LINE
  8
0
 62
7
  6
CONTINUOUS
 10
369.4574729651
 20
30.6358140973
 11
369.1105979651
 21
30.6358140973
  0
LINE
  8
0
 62
7
  6
CONTINUOUS
 10
364.0809101343
 20
30.6358140973
 11
363.7340351343
 21
30.6358140973
  0
LINE
  8
0
 62
7
  6
CONTINUOUS
 10
368.5902854651
 20
30.7648688543
 11
368.3012227445
 21
30.7648688543
  0
LINE
  8
0
 62
7
  6
CONTINUOUS
 10
360.6121602997
 20
30.8293962497
 11
360.3230977445
 21
30.8293962497
  0
LINE
  8
0
 62
7
  6
CONTINUOUS
 10
359.6871602721
 20
31.4101426505
 11
360.091847717
 21
31.3778789641
  0
LINE
  8
0
 62
7
  6
CONTINUOUS
 10
360.1496602445
 20
31.5069337098
 11
359.744972717
 21
31.5391973962
  0
LINE
  8
0
 62
7
  6
CONTINUOUS
 10
368.7637229651
 20
30.5390230296
 11
369.1105979651
 21
30.5067593403
  0
LINE
  8
0
 62
7
  6
CONTINUOUS
 10
369.1105979651
 20
30.6358140973
 11
368.7637229651
 21
30.668077795
  0
LINE
  8
0
 62
7
  6
CONTINUOUS
 10
364.543410024
 20
31.5069337098
 11
364.1965353548
 21
31.5391973962
  0
LINE
  8
0
 62
7
  6
CONTINUOUS
 10
369.3418477445
 20
31.4101426505
 11
369.6887227445
 21
31.3778789641
  0
LINE
  8
0
 62
7
  6
CONTINUOUS
 10
369.6887227445
 20
31.5069337098
 11
369.3418477445
 21
31.5391973962
  0
LINE
  8
0
 62
7
  6
CONTINUOUS
 10
367.0293479651
 20
31.4101426505
 11
367.2605977445
 21
31.3778789641
  0
LINE
  8
0
 62
7
  6
CONTINUOUS
 10
369.8621602445
 20
31.4746700234
 11
369.6887227445
 21
31.5069337098
  0
LINE
  8
0
 62
7
  6
CONTINUOUS
 10
370.0355977445
 20
30.6035504109
 11
370.1512223035
 21
30.7003414814
  0
LINE
  8
0
 62
7
  6
CONTINUOUS
 10
364.543410024
 20
30.7971325633
 11
364.369972524
 21
30.7003414814
  0
LINE
  8
0
 62
7
  6
CONTINUOUS
 10
366.624660024
 20
31.4424063369
 11
366.5090354651
 21
31.3778789641
  0
LINE
  8
0
 62
7
  6
CONTINUOUS
 10
366.5090354651
 20
31.2488242184
 11
366.624660024
 21
31.3133515913
  0
LINE
  8
0
 62
7
  6
CONTINUOUS
 10
359.2246602583
 20
31.4746700234
 11
359.0512227376
 21
31.4101426505
  0
LINE
  8
0
 62
7
  6
CONTINUOUS
 10
361.6527851343
 20
31.5069337098
 11
361.4793477997
 21
31.4424063369
  0
LINE
  8
0
 62
7
  6
CONTINUOUS
 10
361.4793477997
 20
31.3133515913
 11
361.6527851343
 21
31.3778789641
  0
LINE
  8
0
 62
7
  6
CONTINUOUS
 10
360.2652852997
 20
30.7326051679
 11
360.091847717
 21
30.668077795
  0
LINE
  8
0
 62
7
  6
CONTINUOUS
 10
369.6887227445
 20
30.668077795
 11
369.4574729651
 21
30.6358140973
  0
LINE
  8
0
 62
7
  6
CONTINUOUS
 10
364.0809101343
 20
30.5067593403
 11
364.369972524
 21
30.5390230296
  0
LINE
  8
0
 62
7
  6
CONTINUOUS
 10
369.4574729651
 20
30.5067593403
 11
369.8043479651
 21
30.5390230296
  0
LINE
  8
0
 62
7
  6
CONTINUOUS
 10
359.744972717
 20
30.5067593403
 11
360.1496602445
 21
30.5390230296
  0
LINE
  8
0
 62
7
  6
CONTINUOUS
 10
360.091847717
 20
30.668077795
 11
359.6871602721
 21
30.6358140973
  0
LINE
  8
0
 62
7
  6
CONTINUOUS
 10
363.9652852445
 20
31.0552420547
 11
364.6012229651
 21
31.0552420547
  0
LINE
  8
0
 62
7
  6
CONTINUOUS
 10
364.6012229651
 20
31.1842968456
 11
363.9652852445
 21
31.1842968456
  0
LINE
  8
0
 62
7
  6
CONTINUOUS
 10
360.3230977445
 20
31.216560532
 11
360.6121602997
 21
31.216560532
  0
LINE
  8
0
 62
7
  6
CONTINUOUS
 10
363.1559103548
 20
31.2810879048
 11
363.4449727445
 21
31.2810879048
  0
LINE
  8
0
 62
7
  6
CONTINUOUS
 10
369.8621602445
 20
31.2810879048
 11
370.1512223035
 21
31.2810879048
  0
LINE
  8
0
 62
7
  6
CONTINUOUS
 10
363.8496603548
 20
31.4101426505
 11
364.1965353548
 21
31.4101426505
  0
LINE
  8
0
 62
7
  6
CONTINUOUS
 10
368.9949727445
 20
31.4101426505
 11
369.3418477445
 21
31.4101426505
  0
LINE
  8
0
 62
7
  6
CONTINUOUS
 10
369.3418477445
 20
31.5391973962
 11
368.9949727445
 21
31.5391973962
  0
LINE
  8
0
 62
7
  6
CONTINUOUS
 10
367.2605977445
 20
31.5391973962
 11
367.0293479651
 21
31.5391973962
  0
LINE
  8
0
 62
7
  6
CONTINUOUS
 10
366.5090354651
 20
31.5391973962
 11
366.2199727445
 21
31.5391973962
  0
LINE
  8
0
 62
7
  6
CONTINUOUS
 10
365.757472524
 20
31.5391973962
 11
365.4684104651
 21
31.5391973962
  0
LINE
  8
0
 62
7
  6
CONTINUOUS
 10
364.1965353548
 20
31.5391973962
 11
363.8496603548
 21
31.5391973962
  0
LINE
  8
0
 62
7
  6
CONTINUOUS
 10
362.1152853548
 20
31.5391973962
 11
361.8840352445
 21
31.5391973962
  0
LINE
  8
0
 62
7
  6
CONTINUOUS
 10
365.4684104651
 20
31.8618343508
 11
365.757472524
 21
31.8618343508
  0
LINE
  8
0
 62
7
  6
CONTINUOUS
 10
365.757472524
 20
32.0231527829
 11
365.4684104651
 21
32.0231527829
  0
LINE
  8
0
 62
7
  6
CONTINUOUS
 10
361.3637227445
 20
32.0231527829
 11
361.0746601894
 21
32.0231527829
  0
LINE
  8
0
 62
7
  6
CONTINUOUS
 10
360.4015045068
 20
32.3100380288
 11
360.8140758554
 21
32.3100380288
  0
LINE
  8
0
 62
7
  6
CONTINUOUS
 10
362.0408487691
 20
32.3100380288
 11
363.4342913921
 21
32.3100380288
  0
LINE
  8
0
 62
7
  6
CONTINUOUS
 10
363.7621602445
 20
32.3100380288
 11
365.1556028675
 21
32.3100380288
  0
LINE
  8
0
 62
7
  6
CONTINUOUS
 10
367.0408487691
 20
32.3100380288
 11
368.4342913921
 21
32.3100380288
  0
LINE
  8
0
 62
7
  6
CONTINUOUS
 10
368.7621602445
 20
32.3100380288
 11
370.1556028675
 21
32.3100380288
  0
LINE
  8
0
 62
7
  6
CONTINUOUS
 10
366.798097524
 20
31.5069337098
 11
366.624660024
 21
31.4424063369
  0
LINE
  8
0
 62
7
  6
CONTINUOUS
 10
364.369972524
 20
30.5390230296
 11
364.543410024
 21
30.6035504109
  0
LINE
  8
0
 62
7
  6
CONTINUOUS
 10
369.8043479651
 20
30.5390230296
 11
370.0355977445
 21
30.6035504109
  0
LINE
  8
0
 62
7
  6
CONTINUOUS
 10
369.8043479651
 20
30.7003414814
 11
369.6887227445
 21
30.668077795
  0
LINE
  8
0
 62
7
  6
CONTINUOUS
 10
368.7637229651
 20
31.3778789641
 11
368.9949727445
 21
31.4101426505
  0
LINE
  8
0
 62
7
  6
CONTINUOUS
 10
366.798097524
 20
31.3778789641
 11
367.0293479651
 21
31.4101426505
  0
LINE
  8
0
 62
7
  6
CONTINUOUS
 10
363.7340351343
 20
31.0229783683
 11
363.9652852445
 21
31.0552420547
  0
LINE
  8
0
 62
7
  6
CONTINUOUS
 10
367.0293479651
 20
31.5391973962
 11
366.798097524
 21
31.5069337098
  0
LINE
  8
0
 62
7
  6
CONTINUOUS
 10
363.6184102445
 20
31.3778789641
 11
363.8496603548
 21
31.4101426505
  0
LINE
  8
0
 62
7
  6
CONTINUOUS
 10
368.9949727445
 20
31.5391973962
 11
368.6480977445
 21
31.5069337098
  0
LINE
  8
0
 62
7
  6
CONTINUOUS
 10
363.9652852445
 20
31.1842968456
 11
363.6184102445
 21
31.1520331591
  0
LINE
  8
0
 62
7
  6
CONTINUOUS
 10
359.744972717
 20
31.5391973962
 11
359.3980977583
 21
31.5069337098
  0
LINE
  8
0
 62
7
  6
CONTINUOUS
 10
363.8496603548
 20
31.5391973962
 11
363.4449727445
 21
31.5069337098
  0
LINE
  8
0
 62
7
  6
CONTINUOUS
 10
361.221176638
 20
33.4575790124
 11
360.565438933
 21
33.4575790124
  0
LINE
  8
0
 62
7
  6
CONTINUOUS
 10
366.624660024
 20
31.3133515913
 11
366.798097524
 21
31.3778789641
  0
LINE
  8
0
 62
7
  6
CONTINUOUS
 10
368.6480977445
 20
31.3456152777
 11
368.7637229651
 21
31.3778789641
  0
LINE
  8
0
 62
7
  6
CONTINUOUS
 10
368.6480977445
 20
31.5069337098
 11
368.4168479651
 21
31.4424063369
  0
LINE
  8
0
 62
7
  6
CONTINUOUS
 10
364.369972524
 20
30.7003414814
 11
364.0809101343
 21
30.6358140973
  0
LINE
  8
0
 62
7
  6
CONTINUOUS
 10
361.6527851343
 20
31.3778789641
 11
361.8840352445
 21
31.4101426505
  0
LINE
  8
0
 62
7
  6
CONTINUOUS
 10
361.8840352445
 20
31.5391973962
 11
361.6527851343
 21
31.5069337098
  0
LINE
  8
0
 62
7
  6
CONTINUOUS
 10
359.4559102445
 20
31.3778789641
 11
359.6871602721
 21
31.4101426505
  0
LINE
  8
0
 62
7
  6
CONTINUOUS
 10
365.9752749986
 20
34.9329888485
 11
366.6310127035
 21
34.9329888485
  0
LINE
  8
0
 62
7
  6
CONTINUOUS
 10
363.6184102445
 20
30.9907146818
 11
363.7340351343
 21
31.0229783683
  0
LINE
  8
0
 62
7
  6
CONTINUOUS
 10
363.6184102445
 20
31.1520331591
 11
363.3871601343
 21
31.0875057863
  0
LINE
  8
0
 62
7
  6
CONTINUOUS
 10
363.5027853548
 20
31.3456152777
 11
363.6184102445
 21
31.3778789641
  0
LINE
  8
0
 62
7
  6
CONTINUOUS
 10
360.1496602445
 20
30.5390230296
 11
360.3809101894
 21
30.6035504109
  0
LINE
  8
0
 62
7
  6
CONTINUOUS
 10
363.4449727445
 20
31.5069337098
 11
363.3293478548
 21
31.4746700234
  0
LINE
  8
0
 62
7
  6
CONTINUOUS
 10
359.3980977583
 20
31.5069337098
 11
359.2246602583
 21
31.4746700234
  0
LINE
  8
0
 62
7
  6
CONTINUOUS
 10
370.1556028675
 20
36.0805298321
 11
368.7621602445
 21
36.0805298321
  0
LINE
  8
0
 62
7
  6
CONTINUOUS
 10
366.7949471298
 20
36.0805298321
 11
366.3823757812
 21
36.0805298321
  0
LINE
  8
0
 62
7
  6
CONTINUOUS
 10
365.1556028675
 20
36.0805298321
 11
363.7621602445
 21
36.0805298321
  0
LINE
  8
0
 62
7
  6
CONTINUOUS
 10
363.4342913921
 20
36.0805298321
 11
362.0408487691
 21
36.0805298321
  0
LINE
  8
0
 62
7
  6
CONTINUOUS
 10
360.1556028675
 20
36.0805298321
 11
358.7621602445
 21
36.0805298321
  0
LINE
  8
0
 62
7
  6
CONTINUOUS
 10
359.3402852307
 20
31.3456152777
 11
359.4559102445
 21
31.3778789641
  0
CIRCLE
  8
0
 62
7
  6
CONTINUOUS
 10
369.458881556
 20
38.4165954059
 40
2.0901639344
  0
ARC
  8
0
 62
7
  6
CONTINUOUS
 10
360.4015045068
 20
33.9493822911
 40
1.6393442623
 50
180.0
 51
270.0
  0
ARC
  8
0
 62
7
  6
CONTINUOUS
 10
366.7949471298
 20
34.4411855698
 40
1.6393442623
 50
0.0
 51
90.0
  0
ARC
  8
0
 62
7
  6
CONTINUOUS
 10
360.8140758554
 20
33.7854478649
 40
1.4754098361
 50
270.0
 51
326.2510114041
  0
ARC
  8
0
 62
7
  6
CONTINUOUS
 10
366.3823757812
 20
34.6051199961
 40
1.4754098361
 50
90.0
 51
146.2510114041
  0
ARC
  8
0
 62
7
  6
CONTINUOUS
 10
361.221176638
 20
34.2772511436
 40
0.8196721311
 50
270.0
 51
360.0
  0
ARC
  8
0
 62
7
  6
CONTINUOUS
 10
365.9752749986
 20
34.1133167174
 40
0.8196721311
 50
90.0
 51
180.0
  0
ARC
  8
0
 62
7
  6
CONTINUOUS
 10
360.565438933
 20
33.867415078
 40
0.4098360656
 50
180.0
 51
270.0
  0
ARC
  8
0
 62
7
  6
CONTINUOUS
 10
366.6310127035
 20
34.5231527829
 40
0.4098360656
 50
0.0
 51
90.0
  0
SOLID
  8
0
 62
7
  6
CONTINUOUS
 10
365.4684104651
 20
31.8618347111
 11
365.4684104651
 21
32.0231531947
 12
365.757472524
 22
31.8618347111
 13
365.757472524
 23
32.0231531947
  0
SOLID
  8
0
 62
7
  6
CONTINUOUS
 10
359.744972717
 20
31.5391977439
 11
360.1496602445
 21
31.5069333244
 12
359.3980977583
 22
31.5069333244
 13
359.3980977583
 23
31.5069333244
  0
SOLID
  8
0
 62
7
  6
CONTINUOUS
 10
359.2246602583
 20
31.4746706537
 11
359.3980977583
 21
31.5069333244
 12
360.1496602445
 22
31.5069333244
 13
360.1496602445
 23
31.5069333244
  0
SOLID
  8
0
 62
7
  6
CONTINUOUS
 10
360.1496602445
 20
31.5069333244
 11
360.3809101894
 21
31.4424063504
 12
359.2246602583
 22
31.4746706537
 13
359.2246602583
 23
31.4746706537
  0
SOLID
  8
0
 62
7
  6
CONTINUOUS
 10
359.0512227376
 20
31.4101419116
 11
359.2246602583
 21
31.4746706537
 12
360.3809101894
 22
31.4424063504
 13
360.3809101894
 23
31.4424063504
  0
SOLID
  8
0
 62
7
  6
CONTINUOUS
 10
359.0512227376
 20
31.4101419116
 11
360.3809101894
 21
31.4424063504
 12
359.6871602721
 22
31.4101419116
 13
359.6871602721
 23
31.4101419116
  0
SOLID
  8
0
 62
7
  6
CONTINUOUS
 10
359.6871602721
 20
31.4101419116
 11
360.3809101894
 21
31.4424063504
 12
360.091847717
 22
31.3778792603
 13
360.091847717
 23
31.3778792603
  0
SOLID
  8
0
 62
7
  6
CONTINUOUS
 10
360.3809101894
 20
31.4424063504
 11
360.5543476894
 21
31.345614957
 12
360.091847717
 22
31.3778792603
 13
360.091847717
 23
31.3778792603
  0
SOLID
  8
0
 62
7
  6
CONTINUOUS
 10
360.2652852997
 20
31.3133521701
 11
360.091847717
 21
31.3778792603
 12
360.5543476894
 22
31.345614957
 13
360.5543476894
 23
31.345614957
  0
SOLID
  8
0
 62
7
  6
CONTINUOUS
 10
360.2652852997
 20
31.3133521701
 11
360.5543476894
 21
31.345614957
 12
360.3230977445
 22
31.2165606992
 13
360.3230977445
 23
31.2165606992
  0
SOLID
  8
0
 62
7
  6
CONTINUOUS
 10
360.5543476894
 20
31.345614957
 11
360.6121602997
 21
31.2165606992
 12
360.3230977445
 22
31.2165606992
 13
360.3230977445
 23
31.2165606992
  0
SOLID
  8
0
 62
7
  6
CONTINUOUS
 10
361.6527851343
 20
31.5069329918
 11
361.8840352445
 21
31.5391972951
 12
362.1152853548
 22
31.5391972951
 13
362.1152853548
 23
31.5391972951
  0
SOLID
  8
0
 62
7
  6
CONTINUOUS
 10
362.1152853548
 20
31.5391972951
 11
362.2887228548
 21
31.5069329918
 12
361.6527851343
 22
31.5069329918
 13
361.6527851343
 23
31.5069329918
  0
SOLID
  8
0
 62
7
  6
CONTINUOUS
 10
361.4793477997
 20
31.4424059016
 11
361.6527851343
 21
31.5069329918
 12
362.2887228548
 22
31.5069329918
 13
362.2887228548
 23
31.5069329918
  0
SOLID
  8
0
 62
7
  6
CONTINUOUS
 10
362.2887228548
 20
31.5069329918
 11
362.4621603548
 21
31.4424059016
 12
361.4793477997
 22
31.4424059016
 13
361.4793477997
 23
31.4424059016
  0
SOLID
  8
0
 62
7
  6
CONTINUOUS
 10
362.4621603548
 20
31.4424059016
 11
361.8840352445
 21
31.4101420472
 12
361.4793477997
 22
31.4424059016
 13
361.4793477997
 23
31.4424059016
  0
SOLID
  8
0
 62
7
  6
CONTINUOUS
 10
361.3637227445
 20
31.3778788115
 11
361.4793477997
 21
31.4424059016
 12
361.8840352445
 22
31.4101420472
 13
361.8840352445
 23
31.4101420472
  0
SOLID
  8
0
 62
7
  6
CONTINUOUS
 10
361.8840352445
 20
31.4101420472
 11
361.6527851343
 21
31.3778788115
 12
361.3637227445
 22
31.3778788115
 13
361.3637227445
 23
31.3778788115
  0
SOLID
  8
0
 62
7
  6
CONTINUOUS
 10
361.8840352445
 20
31.4101420472
 11
362.4621603548
 21
31.4424059016
 12
362.1152853548
 22
31.3778788115
 13
362.1152853548
 23
31.3778788115
  0
SOLID
  8
0
 62
7
  6
CONTINUOUS
 10
362.4621603548
 20
31.4424059016
 11
362.5777852445
 21
31.3778788115
 12
362.1152853548
 22
31.3778788115
 13
362.1152853548
 23
31.3778788115
  0
SOLID
  8
0
 62
7
  6
CONTINUOUS
 10
362.2309102445
 20
31.345614957
 11
362.1152853548
 21
31.3778788115
 12
362.5777852445
 22
31.3778788115
 13
362.5777852445
 23
31.3778788115
  0
SOLID
  8
0
 62
7
  6
CONTINUOUS
 10
362.5777852445
 20
31.3778788115
 11
362.6355978548
 21
31.3133517213
 12
362.2309102445
 22
31.345614957
 13
362.2309102445
 23
31.345614957
  0
SOLID
  8
0
 62
7
  6
CONTINUOUS
 10
362.3465351343
 20
31.2810878668
 11
362.2309102445
 21
31.345614957
 12
362.6355978548
 22
31.3133517213
 13
362.6355978548
 23
31.3133517213
  0
SOLID
  8
0
 62
7
  6
CONTINUOUS
 10
362.3465351343
 20
31.2810878668
 11
362.6355978548
 21
31.3133517213
 12
362.4043477445
 22
31.1520332377
 13
362.4043477445
 23
31.1520332377
  0
SOLID
  8
0
 62
7
  6
CONTINUOUS
 10
362.6355978548
 20
31.3133517213
 11
362.6934101343
 21
31.1520332377
 12
362.4043477445
 22
31.1520332377
 13
362.4043477445
 23
31.1520332377
  0
SOLID
  8
0
 62
7
  6
CONTINUOUS
 10
361.6527851343
 20
31.3778788115
 11
361.4793477997
 21
31.3133517213
 12
361.3637227445
 22
31.3778788115
 13
361.3637227445
 23
31.3778788115
  0
SOLID
  8
0
 62
7
  6
CONTINUOUS
 10
361.4793477997
 20
31.3133517213
 11
361.3637227445
 21
31.2488235635
 12
361.3637227445
 22
31.3778788115
 13
361.3637227445
 23
31.3778788115
  0
SOLID
  8
0
 62
7
  6
CONTINUOUS
 10
361.3637227445
 20
31.2488235635
 11
361.0746601894
 21
30.5067593033
 12
361.3637227445
 22
31.3778788115
 13
361.3637227445
 23
31.3778788115
  0
SOLID
  8
0
 62
7
  6
CONTINUOUS
 10
361.3637227445
 20
31.3778788115
 11
361.0746601894
 21
30.5067593033
 12
361.3637227445
 22
32.0231527459
 13
361.3637227445
 23
32.0231527459
  0
SOLID
  8
0
 62
7
  6
CONTINUOUS
 10
361.0746601894
 20
30.5067593033
 11
361.0746601894
 21
32.0231527459
 12
361.3637227445
 22
32.0231527459
 13
361.3637227445
 23
32.0231527459
  0
SOLID
  8
0
 62
7
  6
CONTINUOUS
 10
361.3637227445
 20
31.2488235635
 11
361.3637227445
 21
30.5067593033
 12
361.0746601894
 22
30.5067593033
 13
361.0746601894
 23
30.5067593033
  0
SOLID
  8
0
 62
7
  6
CONTINUOUS
 10
362.4043477445
 20
30.5067593033
 11
362.4043477445
 21
31.1520332377
 12
362.6934101343
 22
31.1520332377
 13
362.6934101343
 23
31.1520332377
  0
SOLID
  8
0
 62
7
  6
CONTINUOUS
 10
362.6934101343
 20
31.1520332377
 11
362.6934101343
 21
30.5067593033
 12
362.4043477445
 22
30.5067593033
 13
362.4043477445
 23
30.5067593033
  0
SOLID
  8
0
 62
7
  6
CONTINUOUS
 10
363.4449727445
 20
31.506933758
 11
363.8496603548
 21
31.5391977507
 12
364.1965353548
 22
31.5391977507
 13
364.1965353548
 23
31.5391977507
  0
SOLID
  8
0
 62
7
  6
CONTINUOUS
 10
364.1965353548
 20
31.5391977507
 11
364.543410024
 21
31.506933758
 12
363.4449727445
 22
31.506933758
 13
363.4449727445
 23
31.506933758
  0
SOLID
  8
0
 62
7
  6
CONTINUOUS
 10
363.3293478548
 20
31.4746706537
 11
363.4449727445
 21
31.506933758
 12
364.543410024
 22
31.506933758
 13
364.543410024
 23
31.506933758
  0
SOLID
  8
0
 62
7
  6
CONTINUOUS
 10
364.543410024
 20
31.506933758
 11
364.716847524
 21
31.4424063504
 12
363.3293478548
 22
31.4746706537
 13
363.3293478548
 23
31.4746706537
  0
SOLID
  8
0
 62
7
  6
CONTINUOUS
 10
363.2137226343
 20
31.4101417797
 11
363.3293478548
 21
31.4746706537
 12
364.716847524
 22
31.4424063504
 13
364.716847524
 23
31.4424063504
  0
SOLID
  8
0
 62
7
  6
CONTINUOUS
 10
363.2137226343
 20
31.4101417797
 11
364.716847524
 21
31.4424063504
 12
363.8496603548
 22
31.4101417797
 13
363.8496603548
 23
31.4101417797
  0
SOLID
  8
0
 62
7
  6
CONTINUOUS
 10
363.8496603548
 20
31.4101417797
 11
364.716847524
 21
31.4424063504
 12
364.1965353548
 22
31.4101417797
 13
364.1965353548
 23
31.4101417797
  0
SOLID
  8
0
 62
7
  6
CONTINUOUS
 10
364.1965353548
 20
31.4101417797
 11
364.716847524
 21
31.4424063504
 12
364.4277854651
 22
31.3778793357
 13
364.4277854651
 23
31.3778793357
  0
SOLID
  8
0
 62
7
  6
CONTINUOUS
 10
364.716847524
 20
31.4424063504
 11
364.8324727445
 21
31.3778793357
 12
364.4277854651
 22
31.3778793357
 13
364.4277854651
 23
31.3778793357
  0
SOLID
  8
0
 62
7
  6
CONTINUOUS
 10
363.1559103548
 20
31.3456153429
 11
363.2137226343
 21
31.4101417797
 12
363.8496603548
 22
31.4101417797
 13
363.8496603548
 23
31.4101417797
  0
SOLID
  8
0
 62
7
  6
CONTINUOUS
 10
364.543410024
 20
31.3456153429
 11
364.4277854651
 21
31.3778793357
 12
364.8324727445
 22
31.3778793357
 13
364.8324727445
 23
31.3778793357
  0
SOLID
  8
0
 62
7
  6
CONTINUOUS
 10
364.543410024
 20
31.3456153429
 11
364.8324727445
 21
31.3778793357
 12
364.6012229651
 22
31.2810881318
 13
364.6012229651
 23
31.2810881318
  0
SOLID
  8
0
 62
7
  6
CONTINUOUS
 10
364.8324727445
 20
31.3778793357
 11
364.890285024
 21
31.2810881318
 12
364.6012229651
 22
31.2810881318
 13
364.6012229651
 23
31.2810881318
  0
SOLID
  8
0
 62
7
  6
CONTINUOUS
 10
364.6012229651
 20
31.1842964734
 11
364.6012229651
 21
31.2810881318
 12
364.890285024
 22
31.2810881318
 13
364.890285024
 23
31.2810881318
  0
SOLID
  8
0
 62
7
  6
CONTINUOUS
 10
364.6012229651
 20
31.1842964734
 11
364.890285024
 21
31.2810881318
 12
364.6012229651
 22
31.0552422931
 13
364.6012229651
 23
31.0552422931
  0
SOLID
  8
0
 62
7
  6
CONTINUOUS
 10
364.6012229651
 20
31.0552422931
 11
364.890285024
 21
31.2810881318
 12
364.6012229651
 22
30.8616599362
 13
364.6012229651
 23
30.8616599362
  0
SOLID
  8
0
 62
7
  6
CONTINUOUS
 10
364.890285024
 20
31.2810881318
 11
364.890285024
 21
30.7648681127
 12
364.6012229651
 22
30.8616599362
 13
364.6012229651
 23
30.8616599362
  0
SOLID
  8
0
 62
7
  6
CONTINUOUS
 10
366.798097524
 20
31.5069339419
 11
367.0293479651
 21
31.5391976292
 12
367.2605977445
 22
31.5391976292
 13
367.2605977445
 23
31.5391976292
  0
SOLID
  8
0
 62
7
  6
CONTINUOUS
 10
367.2605977445
 20
31.5391976292
 11
367.4340352445
 21
31.5069339419
 12
366.798097524
 22
31.5069339419
 13
366.798097524
 23
31.5069339419
  0
SOLID
  8
0
 62
7
  6
CONTINUOUS
 10
366.624660024
 20
31.4424065674
 11
366.798097524
 21
31.5069339419
 12
367.4340352445
 22
31.5069339419
 13
367.4340352445
 23
31.5069339419
  0
SOLID
  8
0
 62
7
  6
CONTINUOUS
 10
367.4340352445
 20
31.5069339419
 11
367.6074727445
 21
31.4424065674
 12
366.624660024
 22
31.4424065674
 13
366.624660024
 23
31.4424065674
  0
SOLID
  8
0
 62
7
  6
CONTINUOUS
 10
367.6074727445
 20
31.4424065674
 11
367.0293479651
 21
31.4101420472
 12
366.624660024
 22
31.4424065674
 13
366.624660024
 23
31.4424065674
  0
SOLID
  8
0
 62
7
  6
CONTINUOUS
 10
366.5090354651
 20
31.377879193
 11
366.624660024
 21
31.4424065674
 12
367.0293479651
 22
31.4101420472
 13
367.0293479651
 23
31.4101420472
  0
SOLID
  8
0
 62
7
  6
CONTINUOUS
 10
367.0293479651
 20
31.4101420472
 11
366.798097524
 21
31.377879193
 12
366.5090354651
 22
31.377879193
 13
366.5090354651
 23
31.377879193
  0
SOLID
  8
0
 62
7
  6
CONTINUOUS
 10
367.0293479651
 20
31.4101420472
 11
367.6074727445
 21
31.4424065674
 12
367.2605977445
 22
31.377879193
 13
367.2605977445
 23
31.377879193
  0
SOLID
  8
0
 62
7
  6
CONTINUOUS
 10
367.6074727445
 20
31.4424065674
 11
367.7230979651
 21
31.377879193
 12
367.2605977445
 22
31.377879193
 13
367.2605977445
 23
31.377879193
  0
SOLID
  8
0
 62
7
  6
CONTINUOUS
 10
367.3762229651
 20
31.345614957
 11
367.2605977445
 21
31.377879193
 12
367.7230979651
 22
31.377879193
 13
367.7230979651
 23
31.377879193
  0
SOLID
  8
0
 62
7
  6
CONTINUOUS
 10
367.3762229651
 20
31.345614957
 11
367.7230979651
 21
31.377879193
 12
367.491847524
 22
31.2810881312
 13
367.491847524
 23
31.2810881312
  0
SOLID
  8
0
 62
7
  6
CONTINUOUS
 10
367.7230979651
 20
31.377879193
 11
367.7809102445
 21
31.2810881312
 12
367.491847524
 22
31.2810881312
 13
367.491847524
 23
31.2810881312
  0
SOLID
  8
0
 62
7
  6
CONTINUOUS
 10
367.5496604651
 20
31.119769695
 11
367.491847524
 21
31.2810881312
 12
367.7809102445
 22
31.2810881312
 13
367.7809102445
 23
31.2810881312
  0
SOLID
  8
0
 62
7
  6
CONTINUOUS
 10
367.7809102445
 20
31.2810881312
 11
367.838722524
 21
31.119769695
 12
367.5496604651
 22
31.119769695
 13
367.5496604651
 23
31.119769695
  0
SOLID
  8
0
 62
7
  6
CONTINUOUS
 10
366.798097524
 20
31.377879193
 11
366.624660024
 21
31.3133521701
 12
366.5090354651
 22
31.377879193
 13
366.5090354651
 23
31.377879193
  0
SOLID
  8
0
 62
7
  6
CONTINUOUS
 10
366.624660024
 20
31.3133521701
 11
366.5090354651
 21
31.2488235635
 12
366.5090354651
 22
31.377879193
 13
366.5090354651
 23
31.377879193
  0
SOLID
  8
0
 62
7
  6
CONTINUOUS
 10
366.5090354651
 20
31.2488235635
 11
366.2199727445
 21
30.5067596374
 12
366.5090354651
 22
31.377879193
 13
366.5090354651
 23
31.377879193
  0
SOLID
  8
0
 62
7
  6
CONTINUOUS
 10
366.5090354651
 20
31.377879193
 11
366.2199727445
 21
30.5067596374
 12
366.5090354651
 22
31.5391976292
 13
366.5090354651
 23
31.5391976292
  0
SOLID
  8
0
 62
7
  6
CONTINUOUS
 10
366.2199727445
 20
30.5067596374
 11
366.2199727445
 21
31.5391976292
 12
366.5090354651
 22
31.5391976292
 13
366.5090354651
 23
31.5391976292
  0
SOLID
  8
0
 62
7
  6
CONTINUOUS
 10
366.5090354651
 20
31.2488235635
 11
366.5090354651
 21
30.5067596374
 12
366.2199727445
 22
30.5067596374
 13
366.2199727445
 23
30.5067596374
  0
SOLID
  8
0
 62
7
  6
CONTINUOUS
 10
367.5496604651
 20
30.5067596374
 11
367.5496604651
 21
31.119769695
 12
367.838722524
 22
31.119769695
 13
367.838722524
 23
31.119769695
  0
SOLID
  8
0
 62
7
  6
CONTINUOUS
 10
367.838722524
 20
31.119769695
 11
367.838722524
 21
30.5067596374
 12
367.5496604651
 22
30.5067596374
 13
367.5496604651
 23
30.5067596374
  0
SOLID
  8
0
 62
7
  6
CONTINUOUS
 10
368.6480977445
 20
31.5069334157
 11
368.9949727445
 21
31.539197762
 12
369.3418477445
 22
31.539197762
 13
369.3418477445
 23
31.539197762
  0
SOLID
  8
0
 62
7
  6
CONTINUOUS
 10
369.3418477445
 20
31.539197762
 11
369.6887227445
 21
31.5069334157
 12
368.6480977445
 22
31.5069334157
 13
368.6480977445
 23
31.5069334157
  0
SOLID
  8
0
 62
7
  6
CONTINUOUS
 10
368.4168479651
 20
31.4424063504
 11
368.6480977445
 21
31.5069334157
 12
369.6887227445
 22
31.5069334157
 13
369.6887227445
 23
31.5069334157
  0
SOLID
  8
0
 62
7
  6
CONTINUOUS
 10
368.4168479651
 20
31.4424063504
 11
369.6887227445
 21
31.5069334406
 12
369.8621602445
 22
31.4746706537
 13
369.8621602445
 23
31.4746706537
  0
SOLID
  8
0
 62
7
  6
CONTINUOUS
 10
368.4168479651
 20
31.4424063504
 11
369.8621602445
 21
31.4746706537
 12
368.9949727445
 22
31.4101421267
 13
368.9949727445
 23
31.4101421267
  0
SOLID
  8
0
 62
7
  6
CONTINUOUS
 10
368.9949727445
 20
31.4101421267
 11
369.8621602445
 21
31.4746706537
 12
369.3418477445
 22
31.4101421267
 13
369.3418477445
 23
31.4101421267
  0
SOLID
  8
0
 62
7
  6
CONTINUOUS
 10
369.8621602445
 20
31.4746706537
 11
370.0355977445
 21
31.4101421267
 12
369.3418477445
 22
31.4101421267
 13
369.3418477445
 23
31.4101421267
  0
SOLID
  8
0
 62
7
  6
CONTINUOUS
 10
369.6887227445
 20
31.3778792603
 11
369.3418477445
 21
31.4101421267
 12
370.0355977445
 22
31.4101421267
 13
370.0355977445
 23
31.4101421267
  0
SOLID
  8
0
 62
7
  6
CONTINUOUS
 10
368.3012227445
 20
31.3456148845
 11
368.4168479651
 21
31.4424063504
 12
368.9949727445
 22
31.4101421267
 13
368.9949727445
 23
31.4101421267
  0
SOLID
  8
0
 62
7
  6
CONTINUOUS
 10
369.6887227445
 20
31.3778792603
 11
370.0355977445
 21
31.4101421267
 12
369.8043479651
 22
31.3456148845
 13
369.8043479651
 23
31.3456148845
  0
SOLID
  8
0
 62
7
  6
CONTINUOUS
 10
369.8043479651
 20
31.3456148845
 11
370.0355977445
 21
31.4101421267
 12
369.8621602445
 22
31.281087868
 13
369.8621602445
 23
31.281087868
  0
SOLID
  8
0
 62
7
  6
CONTINUOUS
 10
370.0355977445
 20
31.4101421267
 11
370.1512223035
 21
31.281087868
 12
369.8621602445
 22
31.281087868
 13
369.8621602445
 23
31.281087868
  0
SOLID
  8
0
 62
7
  6
CONTINUOUS
 10
359.4559102445
 20
31.3778792603
 11
358.9355977445
 21
31.3456148963
 12
359.6871602721
 22
31.4101421155
 13
359.6871602721
 23
31.4101421155
  0
SOLID
  8
0
 62
7
  6
CONTINUOUS
 10
358.9355977445
 20
31.3456148963
 11
359.0512227376
 21
31.4101421155
 12
359.6871602721
 22
31.4101421155
 13
359.6871602721
 23
31.4101421155
  0
SOLID
  8
0
 62
7
  6
CONTINUOUS
 10
359.4559102445
 20
31.3778792603
 11
359.3402852307
 21
31.3456148963
 12
358.9355977445
 22
31.3456148963
 13
358.9355977445
 23
31.3456148963
  0
SOLID
  8
0
 62
7
  6
CONTINUOUS
 10
358.8199727462
 20
31.2165607767
 11
358.9355977445
 21
31.3456148963
 12
359.3402852307
 22
31.3456148963
 13
359.3402852307
 23
31.3456148963
  0
SOLID
  8
0
 62
7
  6
CONTINUOUS
 10
363.1559103548
 20
31.3456149608
 11
363.8496603548
 21
31.4101420472
 12
363.6184102445
 22
31.3778792603
 13
363.6184102445
 23
31.3778792603
  0
SOLID
  8
0
 62
7
  6
CONTINUOUS
 10
363.6184102445
 20
31.3778792603
 11
363.5027853548
 21
31.3456149608
 12
363.1559103548
 22
31.3456149608
 13
363.1559103548
 23
31.3456149608
  0
SOLID
  8
0
 62
7
  6
CONTINUOUS
 10
363.1559103548
 20
31.2810878707
 11
363.1559103548
 21
31.3456149608
 12
363.5027853548
 22
31.3456149608
 13
363.5027853548
 23
31.3456149608
  0
SOLID
  8
0
 62
7
  6
CONTINUOUS
 10
363.5027853548
 20
31.3456149608
 11
363.4449727445
 21
31.2810878707
 12
363.1559103548
 22
31.2810878707
 13
363.1559103548
 23
31.2810878707
  0
SOLID
  8
0
 62
7
  6
CONTINUOUS
 10
368.3012227445
 20
31.3456149608
 11
368.9949727445
 21
31.4101420472
 12
368.7637229651
 22
31.3778792603
 13
368.7637229651
 23
31.3778792603
  0
SOLID
  8
0
 62
7
  6
CONTINUOUS
 10
368.7637229651
 20
31.3778792603
 11
368.6480977445
 21
31.3456149608
 12
368.3012227445
 22
31.3456149608
 13
368.3012227445
 23
31.3456149608
  0
SOLID
  8
0
 62
7
  6
CONTINUOUS
 10
368.3012227445
 20
31.2810878707
 11
368.3012227445
 21
31.3456149608
 12
368.6480977445
 22
31.3456149608
 13
368.6480977445
 23
31.3456149608
  0
SOLID
  8
0
 62
7
  6
CONTINUOUS
 10
368.6480977445
 20
31.3456149608
 11
368.5902854651
 21
31.2810878707
 12
368.3012227445
 22
31.2810878707
 13
368.3012227445
 23
31.2810878707
  0
SOLID
  8
0
 62
7
  6
CONTINUOUS
 10
368.4168479651
 20
31.1520336865
 11
368.3012227445
 21
31.2810878707
 12
368.5902854651
 22
31.2810878707
 13
368.5902854651
 23
31.2810878707
  0
SOLID
  8
0
 62
7
  6
CONTINUOUS
 10
358.8199727462
 20
31.2165607767
 11
359.3402852307
 21
31.345614957
 12
359.1668477307
 22
31.2488235635
 13
359.1668477307
 23
31.2488235635
  0
SOLID
  8
0
 62
7
  6
CONTINUOUS
 10
359.1668477307
 20
31.2488235635
 11
359.1090352445
 21
31.1842964734
 12
358.8199727462
 22
31.2165607767
 13
358.8199727462
 23
31.2165607767
  0
SOLID
  8
0
 62
7
  6
CONTINUOUS
 10
358.7621602445
 20
31.0229779898
 11
358.8199727462
 21
31.2165607767
 12
359.1090352445
 22
31.1842964734
 13
359.1090352445
 23
31.1842964734
  0
SOLID
  8
0
 62
7
  6
CONTINUOUS
 10
363.6184102445
 20
31.1520336865
 11
363.9652852445
 21
31.1842964611
 12
364.6012229651
 22
31.1842964611
 13
364.6012229651
 23
31.1842964611
  0
SOLID
  8
0
 62
7
  6
CONTINUOUS
 10
363.6184102445
 20
31.1520336865
 11
364.6012229651
 21
31.1842964611
 12
363.3871601343
 22
31.0875057863
 13
363.3871601343
 23
31.0875057863
  0
SOLID
  8
0
 62
7
  6
CONTINUOUS
 10
363.3871601343
 20
31.0875057863
 11
364.6012229651
 21
31.1842964611
 12
363.9652852445
 22
31.0552422808
 13
363.9652852445
 23
31.0552422808
  0
SOLID
  8
0
 62
7
  6
CONTINUOUS
 10
364.6012229651
 20
31.1842964611
 11
364.6012229651
 21
31.0552422808
 12
363.9652852445
 22
31.0552422808
 13
363.9652852445
 23
31.0552422808
  0
SOLID
  8
0
 62
7
  6
CONTINUOUS
 10
368.4168479651
 20
31.1520338754
 11
368.5902854651
 21
31.2810878668
 12
368.6480977445
 22
31.2165607767
 13
368.6480977445
 23
31.2165607767
  0
SOLID
  8
0
 62
7
  6
CONTINUOUS
 10
368.6480977445
 20
31.2165607767
 11
368.8215352445
 21
31.1520338754
 12
368.4168479651
 22
31.1520338754
 13
368.4168479651
 23
31.1520338754
  0
SOLID
  8
0
 62
7
  6
CONTINUOUS
 10
368.6480977445
 20
31.0552422931
 11
368.4168479651
 21
31.1520338754
 12
368.8215352445
 22
31.1520338754
 13
368.8215352445
 23
31.1520338754
  0
SOLID
  8
0
 62
7
  6
CONTINUOUS
 10
368.8215352445
 20
31.1520338754
 11
369.8043479651
 21
30.9907152029
 12
368.6480977445
 22
31.0552422931
 13
368.6480977445
 23
31.0552422931
  0
SOLID
  8
0
 62
7
  6
CONTINUOUS
 10
369.6309104651
 20
30.8939239876
 11
368.6480977445
 21
31.0552422931
 12
369.8043479651
 22
30.9907152029
 13
369.8043479651
 23
30.9907152029
  0
SOLID
  8
0
 62
7
  6
CONTINUOUS
 10
369.8043479651
 20
30.9907152029
 11
370.0355977445
 21
30.8939239876
 12
369.6309104651
 22
30.8939239876
 13
369.6309104651
 23
30.8939239876
  0
SOLID
  8
0
 62
7
  6
CONTINUOUS
 10
369.8043479651
 20
30.8293967193
 11
369.6309104651
 21
30.8939239876
 12
370.0355977445
 22
30.8939239876
 13
370.0355977445
 23
30.8939239876
  0
SOLID
  8
0
 62
7
  6
CONTINUOUS
 10
369.8043479651
 20
30.8293967193
 11
370.0355977445
 21
30.8939239876
 12
369.8621602445
 22
30.7648682694
 13
369.8621602445
 23
30.7648682694
  0
SOLID
  8
0
 62
7
  6
CONTINUOUS
 10
370.0355977445
 20
30.8939239876
 11
370.1512223035
 21
30.7648682694
 12
369.8621602445
 22
30.7648682694
 13
369.8621602445
 23
30.7648682694
  0
SOLID
  8
0
 62
7
  6
CONTINUOUS
 10
369.8043479651
 20
30.7003411846
 11
369.8621602445
 21
30.7648682694
 12
370.1512223035
 22
30.7648682694
 13
370.1512223035
 23
30.7648682694
  0
SOLID
  8
0
 62
7
  6
CONTINUOUS
 10
370.1512223035
 20
30.7648682694
 11
370.1512223035
 21
30.7003411846
 12
369.8043479651
 22
30.7003411846
 13
369.8043479651
 23
30.7003411846
  0
SOLID
  8
0
 62
7
  6
CONTINUOUS
 10
369.6887227445
 20
30.6680782357
 11
369.8043479651
 21
30.7003411846
 12
370.1512223035
 22
30.7003411846
 13
370.1512223035
 23
30.7003411846
  0
SOLID
  8
0
 62
7
  6
CONTINUOUS
 10
369.6887227445
 20
30.6680782357
 11
370.1512223035
 21
30.7003411846
 12
369.4574729651
 22
30.6358140998
 13
369.4574729651
 23
30.6358140998
  0
SOLID
  8
0
 62
7
  6
CONTINUOUS
 10
370.1512223035
 20
30.7003411846
 11
370.0355977445
 21
30.6035511455
 12
369.4574729651
 22
30.6358140998
 13
369.4574729651
 23
30.6358140998
  0
SOLID
  8
0
 62
7
  6
CONTINUOUS
 10
370.0355977445
 20
30.6035511455
 11
368.5902854651
 21
30.5712868422
 12
369.4574729651
 22
30.6358140998
 13
369.4574729651
 23
30.6358140998
  0
SOLID
  8
0
 62
7
  6
CONTINUOUS
 10
369.4574729651
 20
30.6358140998
 11
368.5902854651
 21
30.5712868422
 12
369.1105979651
 22
30.6358140998
 13
369.1105979651
 23
30.6358140998
  0
SOLID
  8
0
 62
7
  6
CONTINUOUS
 10
368.5902854651
 20
30.5712868422
 11
368.4168479651
 21
30.6358140998
 12
369.1105979651
 22
30.6358140998
 13
369.1105979651
 23
30.6358140998
  0
SOLID
  8
0
 62
7
  6
CONTINUOUS
 10
368.5902854651
 20
30.5712868422
 11
370.0355977445
 21
30.6035511455
 12
368.7637229651
 22
30.5390223111
 13
368.7637229651
 23
30.5390223111
  0
SOLID
  8
0
 62
7
  6
CONTINUOUS
 10
370.0355977445
 20
30.6035511455
 11
369.8043479651
 21
30.5390223111
 12
368.7637229651
 22
30.5390223111
 13
368.7637229651
 23
30.5390223111
  0
SOLID
  8
0
 62
7
  6
CONTINUOUS
 10
369.1105979651
 20
30.5067599302
 11
368.7637229651
 21
30.5390223111
 12
369.8043479651
 22
30.5390223111
 13
369.8043479651
 23
30.5390223111
  0
SOLID
  8
0
 62
7
  6
CONTINUOUS
 10
369.8043479651
 20
30.5390223111
 11
369.4574729651
 21
30.5067599302
 12
369.1105979651
 22
30.5067599302
 13
369.1105979651
 23
30.5067599302
  0
SOLID
  8
0
 62
7
  6
CONTINUOUS
 10
358.7621602445
 20
31.0229779898
 11
359.1090352445
 21
31.1842964734
 12
359.0512227376
 22
31.0552422931
 13
359.0512227376
 23
31.0552422931
  0
SOLID
  8
0
 62
7
  6
CONTINUOUS
 10
359.0512227376
 20
31.0552422931
 11
359.0512227376
 21
30.9584509954
 12
358.7621602445
 22
31.0229779898
 13
358.7621602445
 23
31.0229779898
  0
SOLID
  8
0
 62
7
  6
CONTINUOUS
 10
358.8199727462
 20
30.8293967193
 11
358.7621602445
 21
31.0229779898
 12
359.0512227376
 22
30.9584509954
 13
359.0512227376
 23
30.9584509954
  0
SOLID
  8
0
 62
7
  6
CONTINUOUS
 10
359.0512227376
 20
30.9584509954
 11
359.1668477307
 21
30.797132416
 12
358.8199727462
 22
30.8293967193
 13
358.8199727462
 23
30.8293967193
  0
SOLID
  8
0
 62
7
  6
CONTINUOUS
 10
358.9355977445
 20
30.7003413087
 11
358.8199727462
 21
30.8293967193
 12
359.1668477307
 22
30.797132416
 13
359.1668477307
 23
30.797132416
  0
SOLID
  8
0
 62
7
  6
CONTINUOUS
 10
359.1668477307
 20
30.797132416
 11
359.3402852307
 21
30.7003413087
 12
358.9355977445
 22
30.7003413087
 13
358.9355977445
 23
30.7003413087
  0
SOLID
  8
0
 62
7
  6
CONTINUOUS
 10
359.0512227376
 20
30.6358140759
 11
358.9355977445
 21
30.7003413087
 12
359.3402852307
 22
30.7003413087
 13
359.3402852307
 23
30.7003413087
  0
SOLID
  8
0
 62
7
  6
CONTINUOUS
 10
359.3402852307
 20
30.7003413087
 11
359.6871602721
 21
30.6358140759
 12
359.0512227376
 22
30.6358140759
 13
359.0512227376
 23
30.6358140759
  0
SOLID
  8
0
 62
7
  6
CONTINUOUS
 10
359.2246602583
 20
30.5712868422
 11
359.0512227376
 21
30.6358140759
 12
359.6871602721
 22
30.6358140759
 13
359.6871602721
 23
30.6358140759
  0
SOLID
  8
0
 62
7
  6
CONTINUOUS
 10
363.2715352445
 20
31.0229779808
 11
363.3871601343
 21
31.0875057863
 12
363.9652852445
 22
31.0552422931
 13
363.9652852445
 23
31.0552422931
  0
SOLID
  8
0
 62
7
  6
CONTINUOUS
 10
363.9652852445
 20
31.0552422931
 11
363.7340351343
 21
31.0229779808
 12
363.2715352445
 22
31.0229779808
 13
363.2715352445
 23
31.0229779808
  0
SOLID
  8
0
 62
7
  6
CONTINUOUS
 10
363.1559103548
 20
30.8939238094
 11
363.2715352445
 21
31.0229779808
 12
363.7340351343
 22
31.0229779808
 13
363.7340351343
 23
31.0229779808
  0
SOLID
  8
0
 62
7
  6
CONTINUOUS
 10
363.5027853548
 20
30.926187309
 11
363.1559103548
 21
30.8939238094
 12
363.6184102445
 22
30.9907152029
 13
363.6184102445
 23
30.9907152029
  0
SOLID
  8
0
 62
7
  6
CONTINUOUS
 10
363.1559103548
 20
30.8939238094
 11
363.7340351343
 21
31.0229779898
 12
363.6184102445
 22
30.9907152029
 13
363.6184102445
 23
30.9907152029
  0
SOLID
  8
0
 62
7
  6
CONTINUOUS
 10
363.5027853548
 20
30.926187309
 11
363.4449727445
 21
30.8293967193
 12
363.1559103548
 22
30.8939238094
 13
363.1559103548
 23
30.8939238094
  0
SOLID
  8
0
 62
7
  6
CONTINUOUS
 10
363.1559103548
 20
30.797132416
 11
363.1559103548
 21
30.8939238094
 12
363.4449727445
 22
30.8293967193
 13
363.4449727445
 23
30.8293967193
  0
SOLID
  8
0
 62
7
  6
CONTINUOUS
 10
363.4449727445
 20
30.8293967193
 11
363.4449727445
 21
30.7648681127
 12
363.1559103548
 22
30.797132416
 13
363.1559103548
 23
30.797132416
  0
SOLID
  8
0
 62
7
  6
CONTINUOUS
 10
363.2137226343
 20
30.6680782357
 11
363.1559103548
 21
30.797132416
 12
363.4449727445
 22
30.7648681127
 13
363.4449727445
 23
30.7648681127
  0
SOLID
  8
0
 62
7
  6
CONTINUOUS
 10
364.6012229651
 20
30.8616599362
 11
364.890285024
 21
30.7648681127
 12
364.543410024
 22
30.797132416
 13
364.543410024
 23
30.797132416
  0
SOLID
  8
0
 62
7
  6
CONTINUOUS
 10
364.369972524
 20
30.7003410226
 11
364.543410024
 21
30.797132416
 12
364.890285024
 22
30.7648681127
 13
364.890285024
 23
30.7648681127
  0
SOLID
  8
0
 62
7
  6
CONTINUOUS
 10
364.369972524
 20
30.7003410226
 11
364.890285024
 21
30.7648681127
 12
364.6012229651
 22
30.6680782357
 13
364.6012229651
 23
30.6680782357
  0
SOLID
  8
0
 62
7
  6
CONTINUOUS
 10
364.890285024
 20
30.7648681127
 11
364.9480979651
 21
30.6035511455
 12
364.6012229651
 22
30.6680782357
 13
364.6012229651
 23
30.6680782357
  0
SOLID
  8
0
 62
7
  6
CONTINUOUS
 10
364.6590352445
 20
30.5712868422
 11
364.6012229651
 21
30.6680782357
 12
364.9480979651
 22
30.6035511455
 13
364.9480979651
 23
30.6035511455
  0
SOLID
  8
0
 62
7
  6
CONTINUOUS
 10
364.6590352445
 20
30.5712868422
 11
364.9480979651
 21
30.6035511455
 12
364.716847524
 22
30.5067598731
 13
364.716847524
 23
30.5067598731
  0
SOLID
  8
0
 62
7
  6
CONTINUOUS
 10
364.9480979651
 20
30.6035511455
 11
365.0059102445
 21
30.5067598731
 12
364.716847524
 22
30.5067598731
 13
364.716847524
 23
30.5067598731
  0
SOLID
  8
0
 62
7
  6
CONTINUOUS
 10
360.2652852997
 20
30.7326051679
 11
360.3230977445
 21
30.8293966612
 12
360.6121602997
 22
30.8293966612
 13
360.6121602997
 23
30.8293966612
  0
SOLID
  8
0
 62
7
  6
CONTINUOUS
 10
360.6121602997
 20
30.8293966612
 11
360.5543476894
 21
30.7003410226
 12
360.2652852997
 22
30.7326051679
 13
360.2652852997
 23
30.7326051679
  0
SOLID
  8
0
 62
7
  6
CONTINUOUS
 10
360.091847717
 20
30.6680782357
 11
360.2652852997
 21
30.7326051679
 12
360.5543476894
 22
30.7003410226
 13
360.5543476894
 23
30.7003410226
  0
SOLID
  8
0
 62
7
  6
CONTINUOUS
 10
360.091847717
 20
30.6680782357
 11
360.5543476894
 21
30.7003410226
 12
359.6871602721
 22
30.6358139324
 13
359.6871602721
 23
30.6358139324
  0
SOLID
  8
0
 62
7
  6
CONTINUOUS
 10
360.5543476894
 20
30.7003410226
 11
360.3809101894
 21
30.6035511455
 12
359.6871602721
 22
30.6358139324
 13
359.6871602721
 23
30.6358139324
  0
SOLID
  8
0
 62
7
  6
CONTINUOUS
 10
359.2246602583
 20
30.5712868422
 11
359.6871602721
 21
30.6358139324
 12
360.3809101894
 22
30.6035511455
 13
360.3809101894
 23
30.6035511455
  0
SOLID
  8
0
 62
7
  6
CONTINUOUS
 10
359.2246602583
 20
30.5712868422
 11
360.3809101894
 21
30.6035511455
 12
359.3980977583
 22
30.5390224228
 13
359.3980977583
 23
30.5390224228
  0
SOLID
  8
0
 62
7
  6
CONTINUOUS
 10
360.3809101894
 20
30.6035511455
 11
360.1496602445
 21
30.5390224228
 12
359.3980977583
 22
30.5390224228
 13
359.3980977583
 23
30.5390224228
  0
SOLID
  8
0
 62
7
  6
CONTINUOUS
 10
359.744972717
 20
30.5067597521
 11
359.3980977583
 21
30.5390224228
 12
360.1496602445
 22
30.5390224228
 13
360.1496602445
 23
30.5390224228
  0
SOLID
  8
0
 62
7
  6
CONTINUOUS
 10
363.2137226343
 20
30.6680782357
 11
363.4449727445
 21
30.7648681127
 12
363.5027853548
 22
30.7003410226
 13
363.5027853548
 23
30.7003410226
  0
SOLID
  8
0
 62
7
  6
CONTINUOUS
 10
363.5027853548
 20
30.7003410226
 11
363.7340351343
 21
30.6358139324
 12
363.2137226343
 22
30.6680782357
 13
363.2137226343
 23
30.6680782357
  0
SOLID
  8
0
 62
7
  6
CONTINUOUS
 10
363.3871601343
 20
30.5712868422
 11
363.2137226343
 21
30.6680782357
 12
363.7340351343
 22
30.6358139324
 13
363.7340351343
 23
30.6358139324
  0
SOLID
  8
0
 62
7
  6
CONTINUOUS
 10
364.0809101343
 20
30.6358139363
 11
364.369972524
 21
30.7003410226
 12
364.6012229651
 22
30.6680782357
 13
364.6012229651
 23
30.6680782357
  0
SOLID
  8
0
 62
7
  6
CONTINUOUS
 10
364.6012229651
 20
30.6680782357
 11
364.543410024
 21
30.6035511455
 12
364.0809101343
 22
30.6358139363
 13
364.0809101343
 23
30.6358139363
  0
SOLID
  8
0
 62
7
  6
CONTINUOUS
 10
364.543410024
 20
30.6035511455
 11
363.3871601343
 21
30.5712868422
 12
364.0809101343
 22
30.6358139363
 13
364.0809101343
 23
30.6358139363
  0
SOLID
  8
0
 62
7
  6
CONTINUOUS
 10
363.3871601343
 20
30.5712868422
 11
363.7340351343
 21
30.6358139363
 12
364.0809101343
 22
30.6358139363
 13
364.0809101343
 23
30.6358139363
  0
SOLID
  8
0
 62
7
  6
CONTINUOUS
 10
363.3871601343
 20
30.5712868422
 11
364.543410024
 21
30.6035511455
 12
363.5027853548
 22
30.5390225267
 13
363.5027853548
 23
30.5390225267
  0
SOLID
  8
0
 62
7
  6
CONTINUOUS
 10
364.543410024
 20
30.6035511455
 11
364.369972524
 21
30.5390225267
 12
363.5027853548
 22
30.5390225267
 13
363.5027853548
 23
30.5390225267
  0
SOLID
  8
0
 62
7
  6
CONTINUOUS
 10
363.7340351343
 20
30.5067596914
 11
363.5027853548
 21
30.5390225267
 12
364.369972524
 22
30.5390225267
 13
364.369972524
 23
30.5390225267
  0
SOLID
  8
0
 62
7
  6
CONTINUOUS
 10
364.369972524
 20
30.5390225267
 11
364.0809101343
 21
30.5067596914
 12
363.7340351343
 22
30.5067596914
 13
363.7340351343
 23
30.5067596914
  0
SOLID
  8
0
 62
7
  6
CONTINUOUS
 10
368.7637229651
 20
30.6680782357
 11
368.4168479651
 21
30.6358138717
 12
368.6480977445
 22
30.7003410226
 13
368.6480977445
 23
30.7003410226
  0
SOLID
  8
0
 62
7
  6
CONTINUOUS
 10
368.6480977445
 20
30.7003410226
 11
368.4168479651
 21
30.6358138717
 12
368.5902854651
 22
30.7648680521
 13
368.5902854651
 23
30.7648680521
  0
SOLID
  8
0
 62
7
  6
CONTINUOUS
 10
368.4168479651
 20
30.6358138717
 11
368.3012227445
 21
30.7648680521
 12
368.5902854651
 22
30.7648680521
 13
368.5902854651
 23
30.7648680521
  0
SOLID
  8
0
 62
7
  6
CONTINUOUS
 10
368.7637229651
 20
30.6680782357
 11
369.1105979651
 21
30.6358138717
 12
368.4168479651
 22
30.6358138717
 13
368.4168479651
 23
30.6358138717
  0
SOLID
  8
0
 62
7
  6
CONTINUOUS
 10
365.4684104651
 20
30.5067597521
 11
365.4684104651
 21
31.5391977439
 12
365.757472524
 22
30.5067597521
 13
365.757472524
 23
31.5391977439
  0
ENDBLK
  8
0
  6
BYBLOCK
 62
0
  0
BLOCK
  8
0
 62
2
  6
CONTINUOUS
  2
SYMBOL_0_BL0
 70
64
 10
240.8592468615
 20
19.762288695
  0
TEXT
  8
0
 62
7
  6
CONTINUOUS
 10
227.1239507038
 20
19.1357028027
  7
TEXTSTYLE_3
 40
2.7338706658
  1
Ammeraal Beltech
 41
1.0
 51
15.0
 72
0
  0
TEXT
  8
0
 62
7
  6
CONTINUOUS
 10
237.9247515296
 20
16.8621661299
  7
TEXTSTYLE_4
 40
1.0935482663
  1
Innovation & Service in Belting
 41
1.0
 72
0
  0
LINE
  8
0
 62
7
  6
CONTINUOUS
 10
221.0994100525
 20
19.9022961113
 11
221.8775620458
 21
23.5632134089
  0
LINE
  8
0
 62
7
  6
CONTINUOUS
 10
231.9727303357
 20
27.2266073205
 11
222.3653797889
 21
24.1049898993
  0
LINE
  8
0
 62
7
  6
CONTINUOUS
 10
221.3246933848
 20
19.2089453082
 11
228.8317686459
 21
12.4495443822
  0
LINE
  8
0
 62
7
  6
CONTINUOUS
 10
221.5872277955
 20
20.4440726016
 11
232.3954971607
 21
23.9558922005
  0
LINE
  8
0
 62
7
  6
CONTINUOUS
 10
232.3912920235
 20
13.6061036368
 11
223.9458323548
 21
21.2104296785
  0
LINE
  8
0
 62
7
  6
CONTINUOUS
 10
232.9111147433
 20
26.3816822048
 11
231.9345552061
 21
21.7873308023
  0
LINE
  8
0
 62
7
  6
CONTINUOUS
 10
231.2347532584
 20
18.4950214885
 11
230.5483050469
 21
15.2655365641
  0
LINE
  8
0
 62
7
  6
CONTINUOUS
 10
233.5922108419
 20
13.9963058145
 11
234.5484423775
 21
18.4950214885
  0
LINE
  8
0
 62
7
  6
CONTINUOUS
 10
235.2482443252
 20
21.7873308023
 11
235.6924861276
 21
23.8773241617
  0
LINE
  8
0
 62
7
  6
CONTINUOUS
 10
229.5448697213
 20
12.2979700695
 11
233.1043930989
 21
13.4545293241
  0
LINE
  8
0
 62
7
  6
CONTINUOUS
 10
232.685831411
 20
27.0750330078
 11
235.4672027953
 21
24.5706749648
  0
ARC
  8
0
 62
7
  6
CONTINUOUS
 10
222.5906631212
 20
23.4116390962
 40
0.7290321776
 50
108.0
 51
168.0
  0
ARC
  8
0
 62
7
  6
CONTINUOUS
 10
232.198013668
 20
26.5332565175
 40
0.7290321776
 50
348.0
 51
108.0
  0
ARC
  8
0
 62
7
  6
CONTINUOUS
 10
234.9793850522
 20
24.0288984744
 40
0.7290321776
 50
348.0
 51
48.0
  0
ARC
  8
0
 62
7
  6
CONTINUOUS
 10
229.319586389
 20
12.9913208726
 40
0.7290321776
 50
228.0
 51
288.0
  0
ARC
  8
0
 62
7
  6
CONTINUOUS
 10
221.8125111278
 20
19.7507217986
 40
0.7290321776
 50
108.0
 51
228.0
  0
ARC
  8
0
 62
7
  6
CONTINUOUS
 10
232.8791097665
 20
14.1478801272
 40
0.7290321776
 50
228.0
 51
348.0
  0
ENDBLK
  8
0
  6
BYBLOCK
 62
0
  0
ENDSEC
  0
SECTION
  2
ENTITIES
  0
TEXT
  8
0
 62
5
  6
CONTINUOUS
 10
304.937007874
 20
25.636
  7
TEXTSTYLE_2
 40
2.8
  1
Scale :
 41
0.6
 51
0.000019
 72
0
  0
TEXT
  8
0
 62
5
  6
CONTINUOUS
 10
324.937007874
 20
25.636
  7
TEXTSTYLE_2
 40
2.8
  1
Belt type:
 41
0.6
 51
0.000019
 72
0
  0
INSERT
  8
0
 62
2
  6
CONTINUOUS
  2
SYMBOL_0_BL0
 10
240.8592468615
 20
19.762288695
  0
INSERT
  8
0
 62
2
  6
CONTINUOUS
  2
SYMBOL_5_BL1
 10
382.7840918555
 20
35.5067593403
  0
LINE
  8
0
 62
2
  6
CONTINUOUS
 10
218.937007874
 20
30.0
 11
408.937007874
 21
30.0
  0
LINE
  8
0
 62
2
  6
CONTINUOUS
 10
218.937007874
 20
30.0
 11
218.937007874
 21
10.0
  0
LINE
  8
0
 62
2
  6
CONTINUOUS
 10
218.937007874
 20
10.0
 11
408.937007874
 21
10.0
  0
LINE
  8
0
 62
2
  6
CONTINUOUS
 10
303.937007874
 20
30.0
 11
303.937007874
 21
10.0
  0
LINE
  8
0
 62
2
  6
CONTINUOUS
 10
323.937007874
 20
30.0
 11
323.937007874
 21
10.0
  0
LINE
  8
0
 62
2
  6
CONTINUOUS
 10
408.937007874
 20
30.0
 11
408.937007874
 21
10.0
  0
TEXT
  8
0
 62
5
  6
CONTINUOUS
 10
221.937007874
 20
23.303
  7
TEXTSTYLE_5
 40
1.52
  1
                                                                     Ammeraal Beltech Modular A/S
 41
1.0
 72
0
  0
TEXT
  8
0
 62
5
  6
CONTINUOUS
 10
221.937007874
 20
20.595
  7
TEXTSTYLE_5
 40
1.5
  1
                                                                      Hjulmagervej 21, 7100 Vejle,  DK
 41
1.0
 72
0
  0
TEXT
  8
0
 62
5
  6
CONTINUOUS
 10
221.937007874
 20
17.881
  7
TEXTSTYLE_5
 40
1.495
  1
                                                                      tel: 
 41
1.0
 72
0
  0
TEXT
  8
0
 62
5
  6
CONTINUOUS
 10
266.9239544389
 20
17.881
  7
TEXTSTYLE_5
 40
1.51
  1
+45 75723100     fax: +45 75723348
 41
1.0
 72
0
  0
TEXT
  8
0
 62
5
  6
CONTINUOUS
 10
221.937007874
 20
15.177
  7
TEXTSTYLE_5
 40
1.5
  1
                                                                      admin@unichains.dk  www.unichains.com
 41
1.0
 72
0
  0
TEXT
  8
0
 62
5
  6
CONTINUOUS
 10
308.687007874
 20
13.75
  7
TEXTSTYLE_6
 40
5.0
  1
1:1
 41
0.7
 72
1
 11
313.937007874
 21
13.75
  0
TEXT
  8
0
 62
5
  6
CONTINUOUS
 10
326.937007874
 20
13.75
  7
TEXTSTYLE_7
 40
7.5
  1
uni Flex ASB-43 Tab K279
 41
0.421875
 72
0
  0
LINE
  8
0
 62
7
  6
CONTINUOUS
 10
0.0
 20
0.0
 11
0.0
 21
297.0
  0
LINE
  8
0
 62
7
  6
CONTINUOUS
 10
8.937007874
 20
10.0
 11
8.937007874
 21
287.0
  0
LINE
  8
0
 62
7
  6
CONTINUOUS
 10
0.0
 20
0.0
 11
420.0
 21
0.0
  0
LINE
  8
0
 62
7
  6
CONTINUOUS
 10
408.937007874
 20
10.0
 11
8.937007874
 21
10.0
  0
LINE
  8
0
 62
7
  6
CONTINUOUS
 10
218.937007874
 20
30.0
 11
408.937007874
 21
30.0
  0
LINE
  8
0
 62
7
  6
CONTINUOUS
 10
210.0
 20
297.0
 11
210.0
 21
292.0
  0
LINE
  8
0
 62
7
  6
CONTINUOUS
 10
210.0
 20
0.0
 11
210.0
 21
5.0
  0
LINE
  8
0
 62
7
  6
CONTINUOUS
 10
8.937007874
 20
287.0
 11
408.937007874
 21
287.0
  0
LINE
  8
0
 62
7
  6
CONTINUOUS
 10
0.0
 20
297.0
 11
420.0
 21
297.0
  0
LINE
  8
0
 62
7
  6
CONTINUOUS
 10
408.937007874
 20
287.0
 11
408.937007874
 21
10.0
  0
LINE
  8
0
 62
7
  6
CONTINUOUS
 10
420.0
 20
0.0
 11
420.0
 21
297.0
  0
LINE
  8
0
 62
7
  6
CONTINUOUS
 10
111.1951699572
 20
146.3769863998
 11
111.1951699572
 21
134.9260808664
  0
LINE
  8
0
 62
7
  6
CONTINUOUS
 10
116.4491699572
 20
134.3940274989
 11
116.4491699572
 21
147.9418319679
  0
POLYLINE
  8
0
 62
7
  6
CONTINUOUS
 66
1
 70
0
  0
VERTEX
  8
0
 62
7
  6
CONTINUOUS
 10
124.3491699572
 20
139.3849725573
  0
VERTEX
  8
0
 62
7
  6
CONTINUOUS
 10
124.3395891583
 20
139.5805780762
  0
VERTEX
  8
0
 62
7
  6
CONTINUOUS
 10
124.3107686309
 20
139.7748657262
  0
VERTEX
  8
0
 62
7
  6
CONTINUOUS
 10
124.2630155706
 20
139.9650032125
  0
VERTEX
  8
0
 62
7
  6
CONTINUOUS
 10
124.197138134
 20
140.1484175659
  0
VERTEX
  8
0
 62
7
  6
CONTINUOUS
 10
124.1136245625
 20
140.3242204872
  0
VERTEX
  8
0
 62
7
  6
CONTINUOUS
 10
124.0128938748
 20
140.4913745833
  0
VERTEX
  8
0
 62
7
  6
CONTINUOUS
 10
123.8963670633
 20
140.6474723142
  0
VERTEX
  8
0
 62
7
  6
CONTINUOUS
 10
123.765456699
 20
140.790900312
  0
VERTEX
  8
0
 62
7
  6
CONTINUOUS
 10
123.6204253345
 20
140.9213754797
  0
VERTEX
  8
0
 62
7
  6
CONTINUOUS
 10
123.4622844977
 20
141.0376573357
  0
VERTEX
  8
0
 62
7
  6
CONTINUOUS
 10
123.2932453116
 20
141.137947296
  0
VERTEX
  8
0
 62
7
  6
CONTINUOUS
 10
123.1158964966
 20
141.2208916001
  0
VERTEX
  8
0
 62
7
  6
CONTINUOUS
 10
122.9312571365
 20
141.2862146561
  0
VERTEX
  8
0
 62
7
  6
CONTINUOUS
 10
122.7401056714
 20
141.3335405711
  0
VERTEX
  8
0
 62
7
  6
CONTINUOUS
 10
122.5451085555
 20
141.3620834462
  0
VERTEX
  8
0
 62
7
  6
CONTINUOUS
 10
122.3491699572
 20
141.371564979
  0
SEQEND
  0
LINE
  8
0
 62
7
  6
CONTINUOUS
 10
118.5701843203
 20
115.3683996525
 11
118.5701843203
 21
119.3569116942
  0
LINE
  8
0
 62
7
  6
CONTINUOUS
 10
119.3201699572
 20
122.4017878524
 11
119.3201699572
 21
125.6811477152
  0
LINE
  8
0
 62
7
  6
CONTINUOUS
 10
123.8201699572
 20
122.4017878524
 11
123.8201699572
 21
127.0825095602
  0
LINE
  8
0
 62
7
  6
CONTINUOUS
 10
124.3491699572
 20
139.3849725573
 11
124.3491699572
 21
136.5472351072
  0
LINE
  8
0
 62
7
  6
CONTINUOUS
 10
124.570155594
 20
115.3683996525
 11
124.570155594
 21
119.3569116942
  0
LINE
  8
0
 62
7
  6
CONTINUOUS
 10
126.6911699572
 20
147.6825095602
 11
126.6911699572
 21
143.4311917045
  0
LINE
  8
0
 62
7
  6
CONTINUOUS
 10
127.4451699572
 20
136.1325095602
 11
127.4451699572
 21
140.3702357458
  0
LINE
  8
0
 62
7
  6
CONTINUOUS
 10
131.9451699572
 20
136.2325095602
 11
131.9451699572
 21
140.370231268
  0
LINE
  8
0
 62
7
  6
CONTINUOUS
 10
118.5747675178
 20
119.3937078021
 11
119.3048926321
 21
122.2791341594
  0
LINE
  8
0
 62
7
  6
CONTINUOUS
 10
124.5655723965
 20
119.3937078021
 11
123.8354472822
 21
122.2791341594
  0
LINE
  8
0
 62
7
  6
CONTINUOUS
 10
127.4298947953
 20
140.4928808894
 11
126.6957525057
 21
143.3943981614
  0
LINE
  8
0
 62
7
  6
CONTINUOUS
 10
132.6991699572
 20
143.4309720349
 11
132.6991699572
 21
147.6825095602
  0
LINE
  8
0
 62
7
  6
CONTINUOUS
 10
134.1951843203
 20
115.3683996525
 11
134.1951843203
 21
119.3569116942
  0
LINE
  8
0
 62
7
  6
CONTINUOUS
 10
134.9451699572
 20
128.0825095602
 11
134.9451699572
 21
122.4017878524
  0
LINE
  8
0
 62
7
  6
CONTINUOUS
 10
139.4451699572
 20
128.2325095602
 11
139.4451699572
 21
122.4017878524
  0
LINE
  8
0
 62
7
  6
CONTINUOUS
 10
140.195155594
 20
115.3683996525
 11
140.195155594
 21
119.3569116942
  0
LINE
  8
0
 62
7
  6
CONTINUOUS
 10
141.6911699572
 20
147.6825095602
 11
141.6911699572
 21
143.4309720349
  0
LINE
  8
0
 62
7
  6
CONTINUOUS
 10
142.4451699572
 20
140.370231268
 11
142.4451699572
 21
136.2325095602
  0
LINE
  8
0
 62
7
  6
CONTINUOUS
 10
131.9604472822
 20
140.4928849609
 11
132.6945867596
 21
143.3941759271
  0
LINE
  8
0
 62
7
  6
CONTINUOUS
 10
134.9298926321
 20
122.2791341594
 11
134.1997675178
 21
119.3937078021
  0
POLYLINE
  8
0
 62
7
  6
CONTINUOUS
 66
1
 70
0
  0
VERTEX
  8
0
 62
7
  6
CONTINUOUS
 10
116.4491699572
 20
141.4185609251
  0
VERTEX
  8
0
 62
7
  6
CONTINUOUS
 10
116.452832731
 20
141.4112396011
  0
VERTEX
  8
0
 62
7
  6
CONTINUOUS
 10
116.4638262999
 20
141.4040512739
  0
VERTEX
  8
0
 62
7
  6
CONTINUOUS
 10
116.4817479892
 20
141.3972621664
  0
VERTEX
  8
0
 62
7
  6
CONTINUOUS
 10
116.5062536999
 20
141.390983004
  0
VERTEX
  8
0
 62
7
  6
CONTINUOUS
 10
116.537042767
 20
141.3853290283
  0
VERTEX
  8
0
 62
7
  6
CONTINUOUS
 10
116.5731284718
 20
141.3805069873
  0
VERTEX
  8
0
 62
7
  6
CONTINUOUS
 10
116.6131976899
 20
141.376669306
  0
VERTEX
  8
0
 62
7
  6
CONTINUOUS
 10
116.6565493541
 20
141.3738608289
  0
VERTEX
  8
0
 62
7
  6
CONTINUOUS
 10
116.7024424128
 20
141.3721385575
  0
VERTEX
  8
0
 62
7
  6
CONTINUOUS
 10
116.7491699572
 20
141.371564979
  0
SEQEND
  0
LINE
  8
0
 62
7
  6
CONTINUOUS
 10
139.4604472822
 20
122.2791341594
 11
140.1905723965
 21
119.3937078021
  0
LINE
  8
0
 62
7
  6
CONTINUOUS
 10
141.6957531547
 20
143.3941759271
 11
142.4298926321
 21
140.4928849609
  0
LINE
  8
0
 62
7
  6
CONTINUOUS
 10
146.9451699572
 20
135.7325095602
 11
146.9451699572
 21
140.370231268
  0
LINE
  8
0
 62
7
  6
CONTINUOUS
 10
147.6991699572
 20
143.4309720349
 11
147.6991699572
 21
147.6825095602
  0
LINE
  8
0
 62
7
  6
CONTINUOUS
 10
148.6951843203
 20
115.3683996525
 11
148.6951843203
 21
119.3569116942
  0
LINE
  8
0
 62
7
  6
CONTINUOUS
 10
149.4451699572
 20
122.4017878524
 11
149.4451699572
 21
128.2325095602
  0
LINE
  8
0
 62
7
  6
CONTINUOUS
 10
153.9451699572
 20
128.2325095602
 11
153.9451699572
 21
122.4017878524
  0
LINE
  8
0
 62
7
  6
CONTINUOUS
 10
154.695155594
 20
115.3683996525
 11
154.695155594
 21
119.3569116942
  0
LINE
  8
0
 62
7
  6
CONTINUOUS
 10
155.6911699572
 20
147.6825095602
 11
155.6911699572
 21
143.4309720349
  0
LINE
  8
0
 62
7
  6
CONTINUOUS
 10
156.4451699572
 20
140.370231268
 11
156.4451699572
 21
135.7325095602
  0
LINE
  8
0
 62
7
  6
CONTINUOUS
 10
160.9491699572
 20
135.7325095602
 11
160.9491699572
 21
140.370231268
  0
LINE
  8
0
 62
7
  6
CONTINUOUS
 10
146.9604472822
 20
140.4928849609
 11
147.6945867596
 21
143.3941759271
  0
LINE
  8
0
 62
7
  6
CONTINUOUS
 10
148.6997675178
 20
119.3937078021
 11
149.4298926321
 21
122.2791341594
  0
LINE
  8
0
 62
7
  6
CONTINUOUS
 10
153.9604472822
 20
122.2791341594
 11
154.6905723965
 21
119.3937078021
  0
LINE
  8
0
 62
7
  6
CONTINUOUS
 10
155.6957531547
 20
143.3941759271
 11
156.4298926321
 21
140.4928849609
  0
LINE
  8
0
 62
7
  6
CONTINUOUS
 10
161.7031699572
 20
143.4309720349
 11
161.7031699572
 21
147.6825095602
  0
LINE
  8
0
 62
7
  6
CONTINUOUS
 10
162.4491843203
 20
115.3622877079
 11
162.4491843203
 21
119.3569116942
  0
LINE
  8
0
 62
7
  6
CONTINUOUS
 10
163.1991699572
 20
122.4017878524
 11
163.1991699572
 21
128.2325095602
  0
LINE
  8
0
 62
7
  6
CONTINUOUS
 10
167.6991699572
 20
128.5985095602
 11
167.6991699572
 21
122.4017878524
  0
LINE
  8
0
 62
7
  6
CONTINUOUS
 10
168.449155594
 20
115.3622877079
 11
168.449155594
 21
119.3569116942
  0
LINE
  8
0
 62
7
  6
CONTINUOUS
 10
169.1951699572
 20
147.6825095602
 11
169.1951699572
 21
143.4309720349
  0
LINE
  8
0
 62
7
  6
CONTINUOUS
 10
169.9491699572
 20
140.370231268
 11
169.9491699572
 21
135.7325095602
  0
LINE
  8
0
 62
7
  6
CONTINUOUS
 10
174.4411699572
 20
140.370231268
 11
174.4411699572
 21
136.1865095602
  0
LINE
  8
0
 62
7
  6
CONTINUOUS
 10
175.1951699572
 20
143.4309720349
 11
175.1951699572
 21
147.6825095602
  0
LINE
  8
0
 62
7
  6
CONTINUOUS
 10
175.5451699572
 20
115.8830198174
 11
175.5451699572
 21
119.3569116942
  0
LINE
  8
0
 62
7
  6
CONTINUOUS
 10
160.9644472822
 20
140.4928849609
 11
161.6985867596
 21
143.3941759271
  0
LINE
  8
0
 62
7
  6
CONTINUOUS
 10
162.4537675178
 20
119.3937078021
 11
163.1838926321
 21
122.2791341594
  0
LINE
  8
0
 62
7
  6
CONTINUOUS
 10
167.7144472822
 20
122.2791341594
 11
168.4445723965
 21
119.3937078021
  0
LINE
  8
0
 62
7
  6
CONTINUOUS
 10
169.1997531547
 20
143.3941759271
 11
169.9338926321
 21
140.4928849609
  0
LINE
  8
0
 62
7
  6
CONTINUOUS
 10
176.2951699572
 20
122.401844615
 11
176.2951699572
 21
128.5985095602
  0
LINE
  8
0
 62
7
  6
CONTINUOUS
 10
180.7951699572
 20
131.0825095602
 11
180.7951699572
 21
122.401844615
  0
LINE
  8
0
 62
7
  6
CONTINUOUS
 10
181.5451699572
 20
115.8830198174
 11
181.5451699572
 21
119.3569116942
  0
LINE
  8
0
 62
7
  6
CONTINUOUS
 10
175.1905867596
 20
143.3941759271
 11
174.4564472822
 21
140.4928849609
  0
LINE
  8
0
 62
7
  6
CONTINUOUS
 10
175.5497531547
 20
119.3937078021
 11
176.2798926321
 21
122.2791909221
  0
LINE
  8
0
 62
7
  6
CONTINUOUS
 10
180.8104472822
 20
122.2791909221
 11
181.5405867596
 21
119.3937078021
  0
LINE
  8
0
 62
7
  6
CONTINUOUS
 10
113.1854130559
 20
132.1011028221
 11
115.3397130698
 21
131.3310544061
  0
LINE
  8
0
 62
7
  6
CONTINUOUS
 10
116.3496585344
 20
148.0830796354
 11
114.5366462442
 21
148.7311357247
  0
LINE
  8
0
 62
7
  6
CONTINUOUS
 10
121.0701699572
 20
114.3325095602
 11
122.0701699572
 21
114.3325095602
  0
LINE
  8
0
 62
7
  6
CONTINUOUS
 10
136.6951699572
 20
114.3325095602
 11
137.6951699572
 21
114.3325095602
  0
LINE
  8
0
 62
7
  6
CONTINUOUS
 10
151.1951699572
 20
114.3325095602
 11
152.1951699572
 21
114.3325095602
  0
LINE
  8
0
 62
7
  6
CONTINUOUS
 10
164.9491699572
 20
114.3325095602
 11
165.9491699572
 21
114.3325095602
  0
LINE
  8
DEFAULT_1
 62
2
  6
CENTER
 10
108.8496534115
 20
118.6825095602
 11
177.3202949572
 21
118.6825095602
  0
POLYLINE
  8
0
 62
7
  6
CONTINUOUS
 66
1
 70
0
  0
VERTEX
  8
0
 62
7
  6
CONTINUOUS
 10
122.3491699572
 20
134.5511689576
  0
VERTEX
  8
0
 62
7
  6
CONTINUOUS
 10
122.5436191717
 20
134.5606169725
  0
VERTEX
  8
0
 62
7
  6
CONTINUOUS
 10
122.7373906457
 20
134.5891014311
  0
VERTEX
  8
0
 62
7
  6
CONTINUOUS
 10
122.9276195547
 20
134.6364054222
  0
VERTEX
  8
0
 62
7
  6
CONTINUOUS
 10
123.1116503473
 20
134.7017952934
  0
VERTEX
  8
0
 62
7
  6
CONTINUOUS
 10
123.28863872
 20
134.7849079244
  0
VERTEX
  8
0
 62
7
  6
CONTINUOUS
 10
123.457679244
 20
134.8855665326
  0
VERTEX
  8
0
 62
7
  6
CONTINUOUS
 10
123.6161811219
 20
135.00249099
  0
VERTEX
  8
0
 62
7
  6
CONTINUOUS
 10
123.7618936282
 20
135.133949951
  0
VERTEX
  8
0
 62
7
  6
CONTINUOUS
 10
123.8936634546
 20
135.2786771463
  0
VERTEX
  8
0
 62
7
  6
CONTINUOUS
 10
124.0110651583
 20
135.4362840286
  0
VERTEX
  8
0
 62
7
  6
CONTINUOUS
 10
124.1125130442
 20
135.6049219316
  0
VERTEX
  8
0
 62
7
  6
CONTINUOUS
 10
124.1965535602
 20
135.7820506791
  0
VERTEX
  8
0
 62
7
  6
CONTINUOUS
 10
124.2627680455
 20
135.9665135666
  0
VERTEX
  8
0
 62
7
  6
CONTINUOUS
 10
124.3107031011
 20
136.1573562613
  0
VERTEX
  8
0
 62
7
  6
CONTINUOUS
 10
124.3395858831
 20
136.3519019262
  0
VERTEX
  8
0
 62
7
  6
CONTINUOUS
 10
124.3491699572
 20
136.5472351072
  0
SEQEND
  0
POLYLINE
  8
0
 62
7
  6
CONTINUOUS
 66
1
 70
0
  0
VERTEX
  8
0
 62
7
  6
CONTINUOUS
 10
116.5376741276
 20
134.5496283929
  0
VERTEX
  8
0
 62
7
  6
CONTINUOUS
 10
116.506750844
 20
134.5489920045
  0
VERTEX
  8
0
 62
7
  6
CONTINUOUS
 10
116.4820770695
 20
134.5482835283
  0
VERTEX
  8
0
 62
7
  6
CONTINUOUS
 10
116.4639937908
 20
134.547515978
  0
VERTEX
  8
0
 62
7
  6
CONTINUOUS
 10
116.4528790617
 20
134.5467018708
  0
VERTEX
  8
0
 62
7
  6
CONTINUOUS
 10
116.4491699572
 20
134.54587156
  0
SEQEND
  0
LINE
  8
0
 62
7
  6
CONTINUOUS
 10
116.6138434331
 20
134.5505992873
 11
116.5376741276
 21
134.5496283929
  0
LINE
  8
0
 62
7
  6
CONTINUOUS
 10
116.7027381951
 20
134.5511051135
 11
116.6138434331
 21
134.5505992873
  0
LINE
  8
0
 62
7
  6
CONTINUOUS
 10
174.2951699572
 20
130.5985095602
 11
169.6991699572
 21
130.5985095602
  0
LINE
  8
0
 62
7
  6
CONTINUOUS
 10
160.4991699572
 20
130.9325095602
 11
156.6451699572
 21
130.9325095602
  0
LINE
  8
0
 62
7
  6
CONTINUOUS
 10
146.7451699572
 20
130.9325095602
 11
142.1451699572
 21
130.9325095602
  0
LINE
  8
0
 62
7
  6
CONTINUOUS
 10
127.8201699572
 20
131.0825095602
 11
131.9451699572
 21
131.0825095602
  0
LINE
  8
0
 62
7
  6
CONTINUOUS
 10
121.1951699572
 20
131.6325095602
 11
122.9451699572
 21
131.6325095602
  0
LINE
  8
0
 62
7
  6
CONTINUOUS
 10
137.9451699572
 20
131.7325095602
 11
136.4451699572
 21
131.7325095602
  0
LINE
  8
0
 62
7
  6
CONTINUOUS
 10
166.0991699572
 20
131.8825095602
 11
164.7991699572
 21
131.8825095602
  0
LINE
  8
0
 62
7
  6
CONTINUOUS
 10
152.5951699572
 20
131.8825095602
 11
150.7951699572
 21
131.8825095602
  0
LINE
  8
0
 62
7
  6
CONTINUOUS
 10
178.5451699572
 20
132.0825095602
 11
179.7951699572
 21
132.0825095602
  0
LINE
  8
0
 62
7
  6
CONTINUOUS
 10
116.7027381951
 20
134.5511051135
 11
122.3491699572
 21
134.5511689576
  0
LINE
  8
0
 62
7
  6
CONTINUOUS
 10
116.4491699572
 20
141.171564979
 11
116.781833831
 21
141.171564979
  0
LINE
  8
0
 62
7
  6
CONTINUOUS
 10
116.7491699572
 20
141.371564979
 11
122.3491699572
 21
141.371564979
  0
LINE
  8
0
 62
7
  6
CONTINUOUS
 10
116.7818338391
 20
134.7511689576
 11
116.4491699572
 21
134.7511689576
  0
LINE
  8
AXES
 62
2
  6
CENTER
 10
111.1951699572
 20
144.0825095602
 11
177.1951699572
 21
144.0825095602
  0
LINE
  8
0
 62
7
  6
CONTINUOUS
 10
127.4411699572
 20
148.4325095602
 11
131.9491699572
 21
148.4325095602
  0
LINE
  8
0
 62
7
  6
CONTINUOUS
 10
142.4411699572
 20
148.4325095602
 11
146.9491699572
 21
148.4325095602
  0
LINE
  8
0
 62
7
  6
CONTINUOUS
 10
156.4411699572
 20
148.4325095602
 11
160.9531699572
 21
148.4325095602
  0
LINE
  8
0
 62
7
  6
CONTINUOUS
 10
169.9451699572
 20
148.4325095602
 11
174.4451699572
 21
148.4325095602
  0
LINE
  8
0
 62
7
  6
CONTINUOUS
 10
294.9093137638
 20
114.3325095602
 11
298.9093137638
 21
114.3325095602
  0
LINE
  8
DEFAULT_1
 62
2
  6
CENTER
 10
302.1593137638
 20
118.6825095602
 11
298.9094137638
 21
118.6825095602
  0
LINE
  8
0
 62
2
  6
CONTINUOUS
 10
297.9593137638
 20
118.6825095602
 11
295.8593137638
 21
118.6825095602
  0
LINE
  8
DEFAULT_1
 62
2
  6
CENTER
 10
291.6593137638
 20
118.6825095602
 11
294.9092137638
 21
118.6825095602
  0
LINE
  8
0
 62
7
  6
CONTINUOUS
 10
276.9114460316
 20
135.6170078219
 11
276.9114460316
 21
139.7772633198
  0
LINE
  8
0
 62
7
  6
CONTINUOUS
 10
277.8939936252
 20
134.6153591281
 11
290.5162947264
 21
134.3950360429
  0
POLYLINE
  8
0
 62
7
  6
CONTINUOUS
 66
1
 70
0
  0
VERTEX
  8
0
 62
7
  6
CONTINUOUS
 10
291.3280122634
 20
146.432589737
  0
VERTEX
  8
0
 62
7
  6
CONTINUOUS
 10
291.2086407464
 20
146.1052345793
  0
VERTEX
  8
0
 62
7
  6
CONTINUOUS
 10
291.1003951949
 20
145.738791545
  0
VERTEX
  8
0
 62
7
  6
CONTINUOUS
 10
291.0159133171
 20
145.3648709098
  0
VERTEX
  8
0
 62
7
  6
CONTINUOUS
 10
290.9556583805
 20
144.9850135651
  0
VERTEX
  8
0
 62
7
  6
CONTINUOUS
 10
290.9200373033
 20
144.6007855049
  0
VERTEX
  8
0
 62
7
  6
CONTINUOUS
 10
290.9093138897
 20
144.2435083231
  0
SEQEND
  0
LINE
  8
0
 62
7
  6
CONTINUOUS
 10
290.9093137638
 20
118.3325095602
 11
290.9093137638
 21
144.4325095602
  0
LINE
  8
AXES
 62
7
  6
CONTINUOUS
 10
294.8093137638
 20
118.6825095602
 11
294.8093137638
 21
126.7325095602
  0
LINE
  8
0
 62
7
  6
CONTINUOUS
 10
290.5719689219
 20
142.7990081582
 11
277.7548081364
 21
140.7662630652
  0
LINE
  8
AXES
 62
2
  6
CENTER
 10
302.1593137638
 20
144.0825095602
 11
301.0093137638
 21
144.0825095602
  0
LINE
  8
AXES
 62
2
  6
CONTINUOUS
 10
297.9593137638
 20
144.0825095602
 11
295.8593137638
 21
144.0825095602
  0
LINE
  8
AXES
 62
2
  6
CENTER
 10
291.6593137638
 20
144.0825095602
 11
292.8093137638
 21
144.0825095602
  0
LINE
  8
AXES
 62
2
  6
CENTER
 10
296.9093137638
 20
149.3325095602
 11
296.9093137638
 21
148.1825095602
  0
LINE
  8
AXES
 62
2
  6
CONTINUOUS
 10
296.9093137638
 20
145.1325095602
 11
296.9093137638
 21
143.0325095602
  0
LINE
  8
DEFAULT_1
 62
2
  6
CENTER
 10
296.9093137638
 20
123.9325095602
 11
296.9093137638
 21
120.6826095602
  0
LINE
  8
0
 62
2
  6
CONTINUOUS
 10
296.9093137638
 20
119.7325095602
 11
296.9093137638
 21
117.6325095602
  0
LINE
  8
DEFAULT_1
 62
2
  6
CENTER
 10
296.9093137638
 20
113.4325095602
 11
296.9093137638
 21
116.6824095602
  0
LINE
  8
AXES
 62
2
  6
CENTER
 10
296.9093137638
 20
138.8325095602
 11
296.9093137638
 21
139.9825095602
  0
LINE
  8
AXES
 62
7
  6
CONTINUOUS
 10
299.0093137638
 20
118.6825095602
 11
299.0093137638
 21
126.7325095602
  0
POLYLINE
  8
0
 62
7
  6
CONTINUOUS
 66
1
 70
0
  0
VERTEX
  8
0
 62
7
  6
CONTINUOUS
 10
295.0293652755
 20
148.8770088946
  0
VERTEX
  8
0
 62
7
  6
CONTINUOUS
 10
294.7928085477
 20
148.8713019446
  0
VERTEX
  8
0
 62
7
  6
CONTINUOUS
 10
294.465265863
 20
148.8437489315
  0
VERTEX
  8
0
 62
7
  6
CONTINUOUS
 10
294.1563000564
 20
148.7953940182
  0
VERTEX
  8
0
 62
7
  6
CONTINUOUS
 10
293.8652910085
 20
148.7282329128
  0
VERTEX
  8
0
 62
7
  6
CONTINUOUS
 10
293.5908409628
 20
148.6437523984
  0
VERTEX
  8
0
 62
7
  6
CONTINUOUS
 10
293.3316321068
 20
148.5430082778
  0
VERTEX
  8
0
 62
7
  6
CONTINUOUS
 10
293.087225086
 20
148.4270537031
  0
VERTEX
  8
0
 62
7
  6
CONTINUOUS
 10
292.8579747346
 20
148.2972601541
  0
VERTEX
  8
0
 62
7
  6
CONTINUOUS
 10
292.6442242212
 20
148.1551456152
  0
VERTEX
  8
0
 62
7
  6
CONTINUOUS
 10
292.4462394543
 20
148.00237891
  0
VERTEX
  8
0
 62
7
  6
CONTINUOUS
 10
292.2641273445
 20
147.8407350984
  0
VERTEX
  8
0
 62
7
  6
CONTINUOUS
 10
292.0978496071
 20
147.6720988378
  0
VERTEX
  8
0
 62
7
  6
CONTINUOUS
 10
291.9471236843
 20
147.4983374852
  0
VERTEX
  8
0
 62
7
  6
CONTINUOUS
 10
291.8110857584
 20
147.3207452877
  0
VERTEX
  8
0
 62
7
  6
CONTINUOUS
 10
291.6887395972
 20
147.1403261794
  0
VERTEX
  8
0
 62
7
  6
CONTINUOUS
 10
291.5791101087
 20
146.9579348289
  0
VERTEX
  8
0
 62
7
  6
CONTINUOUS
 10
291.4812486244
 20
146.7742788377
  0
VERTEX
  8
0
 62
7
  6
CONTINUOUS
 10
291.3942283291
 20
146.5898879126
  0
VERTEX
  8
0
 62
7
  6
CONTINUOUS
 10
291.3280124339
 20
146.432589669
  0
SEQEND
  0
LINE
  8
0
 62
7
  6
CONTINUOUS
 10
295.0282177235
 20
148.8770078966
 11
298.7897133873
 21
148.8770079333
  0
POLYLINE
  8
0
 62
7
  6
CONTINUOUS
 66
1
 70
0
  0
VERTEX
  8
0
 62
7
  6
CONTINUOUS
 10
302.9093135569
 20
142.7539501676
  0
VERTEX
  8
0
 62
7
  6
CONTINUOUS
 10
302.9084481335
 20
142.8567926866
  0
VERTEX
  8
0
 62
7
  6
CONTINUOUS
 10
302.904526293
 20
142.9999287677
  0
VERTEX
  8
0
 62
7
  6
CONTINUOUS
 10
302.8972584262
 20
143.1508545718
  0
VERTEX
  8
0
 62
7
  6
CONTINUOUS
 10
302.8866463008
 20
143.3071815404
  0
VERTEX
  8
0
 62
7
  6
CONTINUOUS
 10
302.8728458024
 20
143.4668655901
  0
VERTEX
  8
0
 62
7
  6
CONTINUOUS
 10
302.8560420742
 20
143.6288390818
  0
VERTEX
  8
0
 62
7
  6
CONTINUOUS
 10
302.8363981308
 20
143.7926508157
  0
VERTEX
  8
0
 62
7
  6
CONTINUOUS
 10
302.8140652652
 20
143.9579945138
  0
VERTEX
  8
0
 62
7
  6
CONTINUOUS
 10
302.7891809799
 20
144.124660011
  0
VERTEX
  8
0
 62
7
  6
CONTINUOUS
 10
302.761844157
 20
144.2926657911
  0
VERTEX
  8
0
 62
7
  6
CONTINUOUS
 10
302.7320558819
 20
144.4624771404
  0
VERTEX
  8
0
 62
7
  6
CONTINUOUS
 10
302.6997746435
 20
144.6346039886
  0
VERTEX
  8
0
 62
7
  6
CONTINUOUS
 10
302.6649789235
 20
144.8093318697
  0
VERTEX
  8
0
 62
7
  6
CONTINUOUS
 10
302.6277425291
 20
144.98639022
  0
VERTEX
  8
0
 62
7
  6
CONTINUOUS
 10
302.5881620921
 20
145.1654631317
  0
VERTEX
  8
0
 62
7
  6
CONTINUOUS
 10
302.5463352409
 20
145.3462539735
  0
VERTEX
  8
0
 62
7
  6
CONTINUOUS
 10
302.5023288809
 20
145.5286221368
  0
VERTEX
  8
0
 62
7
  6
CONTINUOUS
 10
302.4559806664
 20
145.7133306481
  0
VERTEX
  8
0
 62
7
  6
CONTINUOUS
 10
302.4069989557
 20
145.9014992691
  0
VERTEX
  8
0
 62
7
  6
CONTINUOUS
 10
302.3550756813
 20
146.0941608547
  0
VERTEX
  8
0
 62
7
  6
CONTINUOUS
 10
302.2999222833
 20
146.2921304434
  0
VERTEX
  8
0
 62
7
  6
CONTINUOUS
 10
302.2413861971
 20
146.4956665832
  0
VERTEX
  8
0
 62
7
  6
CONTINUOUS
 10
302.1793459043
 20
146.7048878571
  0
VERTEX
  8
0
 62
7
  6
CONTINUOUS
 10
302.1136777232
 20
146.9199043004
  0
VERTEX
  8
0
 62
7
  6
CONTINUOUS
 10
302.0442564721
 20
147.1408187733
  0
SEQEND
  0
LINE
  8
0
 62
7
  6
CONTINUOUS
 10
302.9093137638
 20
118.3325095602
 11
302.9093137638
 21
144.4325095602
  0
POLYLINE
  8
0
 62
7
  6
CONTINUOUS
 66
1
 70
0
  0
VERTEX
  8
0
 62
7
  6
CONTINUOUS
 10
301.9539879161
 20
147.3932801131
  0
VERTEX
  8
0
 62
7
  6
CONTINUOUS
 10
301.8317229966
 20
147.5463567472
  0
VERTEX
  8
0
 62
7
  6
CONTINUOUS
 10
301.679796475
 20
147.7157376926
  0
VERTEX
  8
0
 62
7
  6
CONTINUOUS
 10
301.5147007117
 20
147.8779759986
  0
VERTEX
  8
0
 62
7
  6
CONTINUOUS
 10
301.3359554209
 20
148.0321725521
  0
VERTEX
  8
0
 62
7
  6
CONTINUOUS
 10
301.1430776139
 20
148.1773685811
  0
VERTEX
  8
0
 62
7
  6
CONTINUOUS
 10
300.9355941159
 20
148.3125279234
  0
VERTEX
  8
0
 62
7
  6
CONTINUOUS
 10
300.7130272901
 20
148.4365386565
  0
VERTEX
  8
0
 62
7
  6
CONTINUOUS
 10
300.4748621188
 20
148.5482136671
  0
VERTEX
  8
0
 62
7
  6
CONTINUOUS
 10
300.2203265481
 20
148.6463388821
  0
VERTEX
  8
0
 62
7
  6
CONTINUOUS
 10
299.948513701
 20
148.7295269543
  0
VERTEX
  8
0
 62
7
  6
CONTINUOUS
 10
299.6583967228
 20
148.7961530441
  0
VERTEX
  8
0
 62
7
  6
CONTINUOUS
 10
299.3482993273
 20
148.8443560087
  0
VERTEX
  8
0
 62
7
  6
CONTINUOUS
 10
299.0163687238
 20
148.871752998
  0
VERTEX
  8
0
 62
7
  6
CONTINUOUS
 10
298.7893012227
 20
148.8770083111
  0
SEQEND
  0
POLYLINE
  8
0
 62
7
  6
CONTINUOUS
 66
1
 70
0
  0
VERTEX
  8
0
 62
7
  6
CONTINUOUS
 10
301.9539880704
 20
147.3932808156
  0
VERTEX
  8
0
 62
7
  6
CONTINUOUS
 10
301.9665883718
 20
147.3736226258
  0
VERTEX
  8
0
 62
7
  6
CONTINUOUS
 10
301.9760135495
 20
147.3521659471
  0
VERTEX
  8
0
 62
7
  6
CONTINUOUS
 10
301.9769619281
 20
147.3493589094
  0
SEQEND
  0
LINE
  8
0
 62
7
  6
CONTINUOUS
 10
302.0442564721
 20
147.1408187733
 11
301.9769692957
 21
147.3493373693
  0
LINE
  8
0
 62
7
  6
CONTINUOUS
 10
112.6343124941
 20
209.1873485925
 11
111.9159951828
 21
220.9317328196
  0
LINE
  8
0
 62
7
  6
CONTINUOUS
 10
111.1951699572
 20
232.1881942871
 11
111.1951699572
 21
221.4573134038
  0
LINE
  8
0
 62
7
  6
CONTINUOUS
 10
116.4491699572
 20
221.3073134038
 11
116.4491699572
 21
212.2729333768
  0
LINE
  8
0
 62
7
  6
CONTINUOUS
 10
116.4845197802
 20
221.3073134038
 11
116.484519779
 21
212.3034532868
  0
LINE
  8
0
 62
7
  6
CONTINUOUS
 10
116.5991699572
 20
212.562325932
 11
116.5991699572
 21
221.3073134038
  0
LINE
  8
0
 62
7
  6
CONTINUOUS
 10
118.5701843203
 20
222.0573134038
 11
118.5701843203
 21
232.5573134038
  0
LINE
  8
0
 62
7
  6
CONTINUOUS
 10
124.3491699572
 20
212.2623216495
 11
124.3491699572
 21
208.3094456716
  0
LINE
  8
0
 62
7
  6
CONTINUOUS
 10
124.570155594
 20
222.0573134038
 11
124.570155594
 21
232.5573134038
  0
LINE
  8
0
 62
7
  6
CONTINUOUS
 10
132.8951699572
 20
225.207957857
 11
132.8951699572
 21
221.4573134038
  0
LINE
  8
0
 62
7
  6
CONTINUOUS
 10
134.1951843203
 20
222.3210513131
 11
134.1951843203
 21
232.5573134038
  0
POLYLINE
  8
AXES
 62
7
  6
CONTINUOUS
 66
1
 70
0
  0
VERTEX
  8
AXES
 62
7
  6
CONTINUOUS
 10
134.1951843203
 20
225.9862941914
  0
VERTEX
  8
AXES
 62
7
  6
CONTINUOUS
 10
134.1921935781
 20
225.9502906246
  0
VERTEX
  8
AXES
 62
7
  6
CONTINUOUS
 10
134.1841164429
 20
225.9193208089
  0
VERTEX
  8
AXES
 62
7
  6
CONTINUOUS
 10
134.1719383113
 20
225.8929116688
  0
VERTEX
  8
AXES
 62
7
  6
CONTINUOUS
 10
134.1565905412
 20
225.8710202301
  0
VERTEX
  8
AXES
 62
7
  6
CONTINUOUS
 10
134.1390461084
 20
225.853556324
  0
VERTEX
  8
AXES
 62
7
  6
CONTINUOUS
 10
134.1197748817
 20
225.8399863573
  0
VERTEX
  8
AXES
 62
7
  6
CONTINUOUS
 10
134.0988380729
 20
225.8298812405
  0
VERTEX
  8
AXES
 62
7
  6
CONTINUOUS
 10
134.0770011964
 20
225.8233334022
  0
SEQEND
  0
POLYLINE
  8
AXES
 62
7
  6
CONTINUOUS
 66
1
 70
0
  0
VERTEX
  8
AXES
 62
7
  6
CONTINUOUS
 10
118.5701843203
 20
226.3232035744
  0
VERTEX
  8
AXES
 62
7
  6
CONTINUOUS
 10
118.555581601
 20
226.3707503889
  0
VERTEX
  8
AXES
 62
7
  6
CONTINUOUS
 10
118.5094086335
 20
226.5549034939
  0
VERTEX
  8
AXES
 62
7
  6
CONTINUOUS
 10
118.4729963176
 20
226.7419323788
  0
VERTEX
  8
AXES
 62
7
  6
CONTINUOUS
 10
118.4468948101
 20
226.9298559519
  0
VERTEX
  8
AXES
 62
7
  6
CONTINUOUS
 10
118.4311707128
 20
227.1187202118
  0
VERTEX
  8
AXES
 62
7
  6
CONTINUOUS
 10
118.4259430197
 20
227.307486039
  0
VERTEX
  8
AXES
 62
7
  6
CONTINUOUS
 10
118.4311907145
 20
227.4962669794
  0
VERTEX
  8
AXES
 62
7
  6
CONTINUOUS
 10
118.4469342258
 20
227.6851254775
  0
VERTEX
  8
AXES
 62
7
  6
CONTINUOUS
 10
118.4730538498
 20
227.8730393204
  0
VERTEX
  8
AXES
 62
7
  6
CONTINUOUS
 10
118.5094858361
 20
228.0600698247
  0
VERTEX
  8
AXES
 62
7
  6
CONTINUOUS
 10
118.5556728979
 20
228.2442036425
  0
VERTEX
  8
AXES
 62
7
  6
CONTINUOUS
 10
118.5701843203
 20
228.2914374655
  0
SEQEND
  0
LINE
  8
0
 62
7
  6
CONTINUOUS
 10
140.195155594
 20
222.3210515301
 11
140.195155594
 21
232.5573134038
  0
LINE
  8
0
 62
7
  6
CONTINUOUS
 10
141.4951699572
 20
225.207957737
 11
141.4951699572
 21
221.4573134038
  0
LINE
  8
0
 62
7
  6
CONTINUOUS
 10
148.6951843203
 20
222.0573134038
 11
148.6951843203
 21
232.5573134038
  0
LINE
  8
0
 62
7
  6
CONTINUOUS
 10
154.695155594
 20
222.0573134038
 11
154.695155594
 21
232.5573134038
  0
LINE
  8
0
 62
7
  6
CONTINUOUS
 10
162.4491843203
 20
222.0573134038
 11
162.4491843203
 21
232.5573134038
  0
LINE
  8
0
 62
7
  6
CONTINUOUS
 10
168.449155594
 20
222.0573134038
 11
168.449155594
 21
232.5573134038
  0
LINE
  8
0
 62
7
  6
CONTINUOUS
 10
175.5451699572
 20
222.0573134038
 11
175.5451699572
 21
232.5573134038
  0
LINE
  8
0
 62
7
  6
CONTINUOUS
 10
181.5451699572
 20
222.0573134038
 11
181.5451699572
 21
232.5573134038
  0
POLYLINE
  8
AXES
 62
7
  6
CONTINUOUS
 66
1
 70
0
  0
VERTEX
  8
AXES
 62
7
  6
CONTINUOUS
 10
141.4951699542
 20
225.2074007706
  0
VERTEX
  8
AXES
 62
7
  6
CONTINUOUS
 10
141.4907335908
 20
225.2116752211
  0
VERTEX
  8
AXES
 62
7
  6
CONTINUOUS
 10
141.4740048099
 20
225.224884817
  0
VERTEX
  8
AXES
 62
7
  6
CONTINUOUS
 10
141.4446108758
 20
225.2469657389
  0
VERTEX
  8
AXES
 62
7
  6
CONTINUOUS
 10
141.4019545456
 20
225.2780718061
  0
VERTEX
  8
AXES
 62
7
  6
CONTINUOUS
 10
141.3450872321
 20
225.3184151096
  0
VERTEX
  8
AXES
 62
7
  6
CONTINUOUS
 10
141.2733646929
 20
225.3677304705
  0
VERTEX
  8
AXES
 62
7
  6
CONTINUOUS
 10
141.1862801307
 20
225.4253266513
  0
VERTEX
  8
AXES
 62
7
  6
CONTINUOUS
 10
141.0835596605
 20
225.4899238726
  0
VERTEX
  8
AXES
 62
7
  6
CONTINUOUS
 10
140.9671022821
 20
225.5584418472
  0
VERTEX
  8
AXES
 62
7
  6
CONTINUOUS
 10
140.8400629174
 20
225.6268767308
  0
VERTEX
  8
AXES
 62
7
  6
CONTINUOUS
 10
140.7067658305
 20
225.6907893445
  0
VERTEX
  8
AXES
 62
7
  6
CONTINUOUS
 10
140.5727931483
 20
225.7459436165
  0
VERTEX
  8
AXES
 62
7
  6
CONTINUOUS
 10
140.441363233
 20
225.7902753609
  0
VERTEX
  8
AXES
 62
7
  6
CONTINUOUS
 10
140.3133387179
 20
225.8233334022
  0
SEQEND
  0
POLYLINE
  8
0
 62
7
  6
CONTINUOUS
 66
1
 70
0
  0
VERTEX
  8
0
 62
7
  6
CONTINUOUS
 10
116.751148929
 20
212.0031800634
  0
VERTEX
  8
0
 62
7
  6
CONTINUOUS
 10
116.7067289018
 20
212.0126680692
  0
VERTEX
  8
0
 62
7
  6
CONTINUOUS
 10
116.6658113708
 20
212.0266500876
  0
VERTEX
  8
0
 62
7
  6
CONTINUOUS
 10
116.6274641763
 20
212.0464001503
  0
VERTEX
  8
0
 62
7
  6
CONTINUOUS
 10
116.5921475646
 20
212.0717298484
  0
VERTEX
  8
0
 62
7
  6
CONTINUOUS
 10
116.5606488774
 20
212.1022487523
  0
VERTEX
  8
0
 62
7
  6
CONTINUOUS
 10
116.5339782011
 20
212.137058855
  0
VERTEX
  8
0
 62
7
  6
CONTINUOUS
 10
116.5127660126
 20
212.1751999229
  0
VERTEX
  8
0
 62
7
  6
CONTINUOUS
 10
116.4972366531
 20
212.2161652783
  0
VERTEX
  8
0
 62
7
  6
CONTINUOUS
 10
116.4877041203
 20
212.2593828375
  0
VERTEX
  8
0
 62
7
  6
CONTINUOUS
 10
116.484519779
 20
212.3034532868
  0
SEQEND
  0
POLYLINE
  8
AXES
 62
7
  6
CONTINUOUS
 66
1
 70
0
  0
VERTEX
  8
AXES
 62
7
  6
CONTINUOUS
 10
140.3133387179
 20
225.8233334022
  0
VERTEX
  8
AXES
 62
7
  6
CONTINUOUS
 10
140.2915018414
 20
225.8298812405
  0
VERTEX
  8
AXES
 62
7
  6
CONTINUOUS
 10
140.2705650327
 20
225.8399863573
  0
VERTEX
  8
AXES
 62
7
  6
CONTINUOUS
 10
140.2512938059
 20
225.853556324
  0
VERTEX
  8
AXES
 62
7
  6
CONTINUOUS
 10
140.2337493731
 20
225.8710202301
  0
VERTEX
  8
AXES
 62
7
  6
CONTINUOUS
 10
140.2184016031
 20
225.8929116688
  0
VERTEX
  8
AXES
 62
7
  6
CONTINUOUS
 10
140.2062234714
 20
225.9193208089
  0
VERTEX
  8
AXES
 62
7
  6
CONTINUOUS
 10
140.1981463362
 20
225.9502906246
  0
VERTEX
  8
AXES
 62
7
  6
CONTINUOUS
 10
140.195155594
 20
225.9862941914
  0
SEQEND
  0
LINE
  8
0
 62
7
  6
CONTINUOUS
 10
114.6306577625
 20
207.3094456716
 11
123.3491699572
 21
207.3094456716
  0
POLYLINE
  8
0
 62
7
  6
CONTINUOUS
 66
1
 70
0
  0
VERTEX
  8
0
 62
7
  6
CONTINUOUS
 10
116.751148929
 20
212.0031800634
  0
VERTEX
  8
0
 62
7
  6
CONTINUOUS
 10
116.7026033212
 20
212.0066948952
  0
VERTEX
  8
0
 62
7
  6
CONTINUOUS
 10
116.6571298454
 20
212.0176687627
  0
VERTEX
  8
0
 62
7
  6
CONTINUOUS
 10
116.6138284125
 20
212.0356979544
  0
VERTEX
  8
0
 62
7
  6
CONTINUOUS
 10
116.5737452569
 20
212.060388564
  0
VERTEX
  8
0
 62
7
  6
CONTINUOUS
 10
116.5378706132
 20
212.0911878433
  0
VERTEX
  8
0
 62
7
  6
CONTINUOUS
 10
116.5071179612
 20
212.1273826792
  0
VERTEX
  8
0
 62
7
  6
CONTINUOUS
 10
116.4822921862
 20
212.1681077333
  0
VERTEX
  8
0
 62
7
  6
CONTINUOUS
 10
116.464062579
 20
212.2123496725
  0
VERTEX
  8
0
 62
7
  6
CONTINUOUS
 10
116.4529187228
 20
212.2590105989
  0
SEQEND
  0
POLYLINE
  8
0
 62
7
  6
CONTINUOUS
 66
1
 70
0
  0
VERTEX
  8
0
 62
7
  6
CONTINUOUS
 10
116.7491699572
 20
211.9694456716
  0
VERTEX
  8
0
 62
7
  6
CONTINUOUS
 10
116.7027381951
 20
211.9731033009
  0
VERTEX
  8
0
 62
7
  6
CONTINUOUS
 10
116.6570660755
 20
211.9841049848
  0
VERTEX
  8
0
 62
7
  6
CONTINUOUS
 10
116.6138434331
 20
212.0020820605
  0
VERTEX
  8
0
 62
7
  6
CONTINUOUS
 10
116.5738126158
 20
212.0266989453
  0
VERTEX
  8
0
 62
7
  6
CONTINUOUS
 10
116.5376741276
 20
212.0577045624
  0
VERTEX
  8
0
 62
7
  6
CONTINUOUS
 10
116.506750844
 20
212.0941632335
  0
VERTEX
  8
0
 62
7
  6
CONTINUOUS
 10
116.4820770695
 20
212.1347518037
  0
VERTEX
  8
0
 62
7
  6
CONTINUOUS
 10
116.4639937908
 20
212.1787247341
  0
VERTEX
  8
0
 62
7
  6
CONTINUOUS
 10
116.4528790617
 20
212.2253649053
  0
VERTEX
  8
0
 62
7
  6
CONTINUOUS
 10
116.4491699572
 20
212.2729333768
  0
SEQEND
  0
POLYLINE
  8
0
 62
7
  6
CONTINUOUS
 66
1
 70
0
  0
VERTEX
  8
0
 62
7
  6
CONTINUOUS
 10
141.1488789747
 20
221.325932524
  0
VERTEX
  8
0
 62
7
  6
CONTINUOUS
 10
141.2129519017
 20
221.3159370763
  0
VERTEX
  8
0
 62
7
  6
CONTINUOUS
 10
141.2648909436
 20
221.3095453048
  0
VERTEX
  8
0
 62
7
  6
CONTINUOUS
 10
141.3042154109
 20
221.3073134038
  0
SEQEND
  0
POLYLINE
  8
0
 62
7
  6
CONTINUOUS
 66
1
 70
0
  0
VERTEX
  8
0
 62
7
  6
CONTINUOUS
 10
122.3491699572
 20
211.9694456716
  0
VERTEX
  8
0
 62
7
  6
CONTINUOUS
 10
122.5436191717
 20
211.9710782611
  0
VERTEX
  8
0
 62
7
  6
CONTINUOUS
 10
122.7373906457
 20
211.97597207
  0
VERTEX
  8
0
 62
7
  6
CONTINUOUS
 10
122.9276195547
 20
211.9840056179
  0
VERTEX
  8
0
 62
7
  6
CONTINUOUS
 10
123.1116503473
 20
211.9949185499
  0
VERTEX
  8
0
 62
7
  6
CONTINUOUS
 10
123.28863872
 20
212.0084680079
  0
VERTEX
  8
0
 62
7
  6
CONTINUOUS
 10
123.457679244
 20
212.0243974488
  0
VERTEX
  8
0
 62
7
  6
CONTINUOUS
 10
123.6161811219
 20
212.0422418043
  0
VERTEX
  8
0
 62
7
  6
CONTINUOUS
 10
123.7618936282
 20
212.0614605596
  0
VERTEX
  8
0
 62
7
  6
CONTINUOUS
 10
123.8936634546
 20
212.0815891456
  0
VERTEX
  8
0
 62
7
  6
CONTINUOUS
 10
124.0110651583
 20
212.1022849838
  0
VERTEX
  8
0
 62
7
  6
CONTINUOUS
 10
124.1125130442
 20
212.1230204274
  0
VERTEX
  8
0
 62
7
  6
CONTINUOUS
 10
124.1965535602
 20
212.1432363634
  0
VERTEX
  8
0
 62
7
  6
CONTINUOUS
 10
124.2627680455
 20
212.1625917341
  0
VERTEX
  8
0
 62
7
  6
CONTINUOUS
 10
124.3107031011
 20
212.1807988773
  0
VERTEX
  8
0
 62
7
  6
CONTINUOUS
 10
124.3395858831
 20
212.197461783
  0
VERTEX
  8
0
 62
7
  6
CONTINUOUS
 10
124.3491699572
 20
212.2122695463
  0
SEQEND
  0
LINE
  8
0
 62
7
  6
CONTINUOUS
 10
116.7491699572
 20
211.9694456716
 11
122.3491699572
 21
211.9694456716
  0
LINE
  8
0
 62
7
  6
CONTINUOUS
 10
116.8991694037
 20
212.2623264116
 11
124.3491699572
 21
212.2623264116
  0
LINE
  8
0
 62
7
  6
CONTINUOUS
 10
111.3451699572
 20
221.3073134038
 11
180.7951699572
 21
221.3073134038
  0
LINE
  8
0
 62
7
  6
CONTINUOUS
 10
116.7818338391
 20
212.003011018
 11
116.7491699572
 21
212.0030339377
  0
POLYLINE
  8
0
 62
7
  6
CONTINUOUS
 66
1
 70
0
  0
VERTEX
  8
0
 62
7
  6
CONTINUOUS
 10
140.0178661134
 20
221.4501938658
  0
VERTEX
  8
0
 62
7
  6
CONTINUOUS
 10
140.1510048503
 20
221.4476844058
  0
VERTEX
  8
0
 62
7
  6
CONTINUOUS
 10
140.2832906461
 20
221.4415145794
  0
VERTEX
  8
0
 62
7
  6
CONTINUOUS
 10
140.4138302355
 20
221.4319122021
  0
VERTEX
  8
0
 62
7
  6
CONTINUOUS
 10
140.541156387
 20
221.4193105365
  0
VERTEX
  8
0
 62
7
  6
CONTINUOUS
 10
140.6635714928
 20
221.4043600349
  0
VERTEX
  8
0
 62
7
  6
CONTINUOUS
 10
140.7794124937
 20
221.387885296
  0
VERTEX
  8
0
 62
7
  6
CONTINUOUS
 10
140.8871088462
 20
221.3708316382
  0
VERTEX
  8
0
 62
7
  6
CONTINUOUS
 10
140.9852696991
 20
221.3541942644
  0
VERTEX
  8
0
 62
7
  6
CONTINUOUS
 10
141.1488789747
 20
221.325932524
  0
SEQEND
  0
POLYLINE
  8
0
 62
7
  6
CONTINUOUS
 66
1
 70
0
  0
VERTEX
  8
0
 62
7
  6
CONTINUOUS
 10
133.0861245034
 20
221.3073134038
  0
VERTEX
  8
0
 62
7
  6
CONTINUOUS
 10
133.1253783985
 20
221.3095385236
  0
VERTEX
  8
0
 62
7
  6
CONTINUOUS
 10
133.1774997217
 20
221.3159530327
  0
VERTEX
  8
0
 62
7
  6
CONTINUOUS
 10
133.2422984958
 20
221.3260712577
  0
VERTEX
  8
0
 62
7
  6
CONTINUOUS
 10
133.407707878
 20
221.3546507624
  0
SEQEND
  0
LINE
  8
AXES
 62
2
  6
CENTER
 10
111.1951699572
 20
227.3073134038
 11
177.1951699572
 21
227.3073134038
  0
LINE
  8
0
 62
7
  6
CONTINUOUS
 10
115.5123821588
 20
233.3073134038
 11
180.7951699572
 21
233.3073134038
  0
LINE
  8
SURFACE
 62
7
  6
CONTINUOUS
 10
176.2951699572
 20
233.3073134038
 11
180.7951699572
 21
233.3073134038
  0
POLYLINE
  8
0
 62
7
  6
CONTINUOUS
 66
1
 70
0
  0
VERTEX
  8
0
 62
7
  6
CONTINUOUS
 10
133.407707878
 20
221.3546507624
  0
VERTEX
  8
0
 62
7
  6
CONTINUOUS
 10
133.5065659731
 20
221.3713810781
  0
VERTEX
  8
0
 62
7
  6
CONTINUOUS
 10
133.6145434383
 20
221.3884308112
  0
VERTEX
  8
0
 62
7
  6
CONTINUOUS
 10
133.7301722272
 20
221.404811253
  0
VERTEX
  8
0
 62
7
  6
CONTINUOUS
 10
133.8518888409
 20
221.4196103381
  0
VERTEX
  8
0
 62
7
  6
CONTINUOUS
 10
133.9781059747
 20
221.4320502425
  0
VERTEX
  8
0
 62
7
  6
CONTINUOUS
 10
134.1074764292
 20
221.4415403288
  0
VERTEX
  8
0
 62
7
  6
CONTINUOUS
 10
134.2391501506
 20
221.4476783179
  0
VERTEX
  8
0
 62
7
  6
CONTINUOUS
 10
134.3724734602
 20
221.4501933025
  0
SEQEND
  0
POLYLINE
  8
AXES
 62
7
  6
CONTINUOUS
 66
1
 70
0
  0
VERTEX
  8
AXES
 62
7
  6
CONTINUOUS
 10
134.0770011964
 20
225.8233334022
  0
VERTEX
  8
AXES
 62
7
  6
CONTINUOUS
 10
133.948994016
 20
225.7902805306
  0
VERTEX
  8
AXES
 62
7
  6
CONTINUOUS
 10
133.8175661966
 20
225.7459509086
  0
VERTEX
  8
AXES
 62
7
  6
CONTINUOUS
 10
133.6835748524
 20
225.690789688
  0
VERTEX
  8
AXES
 62
7
  6
CONTINUOUS
 10
133.5502890323
 20
225.6268828796
  0
VERTEX
  8
AXES
 62
7
  6
CONTINUOUS
 10
133.4232575759
 20
225.5584531248
  0
VERTEX
  8
AXES
 62
7
  6
CONTINUOUS
 10
133.3067909402
 20
225.4899303964
  0
VERTEX
  8
AXES
 62
7
  6
CONTINUOUS
 10
133.2040681662
 20
225.425332073
  0
VERTEX
  8
AXES
 62
7
  6
CONTINUOUS
 10
133.1169847913
 20
225.3677369377
  0
VERTEX
  8
AXES
 62
7
  6
CONTINUOUS
 10
133.0452681459
 20
225.3184259262
  0
VERTEX
  8
AXES
 62
7
  6
CONTINUOUS
 10
132.9884046132
 20
225.27808566
  0
VERTEX
  8
AXES
 62
7
  6
CONTINUOUS
 10
132.9457480971
 20
225.2469798408
  0
VERTEX
  8
AXES
 62
7
  6
CONTINUOUS
 10
132.9163438635
 20
225.2248915327
  0
VERTEX
  8
AXES
 62
7
  6
CONTINUOUS
 10
132.8996082654
 20
225.2116768473
  0
VERTEX
  8
AXES
 62
7
  6
CONTINUOUS
 10
132.8951699601
 20
225.2074007585
  0
SEQEND
  0
LINE
  8
0
 62
7
  6
CONTINUOUS
 10
111.311192933
 20
232.3342954912
 11
115.4784051346
 21
233.3034146078
  0
ARC
  8
AXES
 62
7
  6
CONTINUOUS
 10
113.3201699572
 20
125.6811477152
 40
6.0
 50
3.9530070754
 51
5.1666136033
  0
ARC
  8
0
 62
7
  6
CONTINUOUS
 10
113.3201699572
 20
125.6811477152
 40
6.0
 50
0.0
 51
70.3307143739
  0
ARC
  8
0
 62
7
  6
CONTINUOUS
 10
122.0701699572
 20
118.8325095602
 40
4.5
 50
270.0
 51
299.9997624355
  0
ARC
  8
0
 62
7
  6
CONTINUOUS
 10
121.0701699572
 20
118.8325095602
 40
4.5
 50
240.0002375645
 51
270.0
  0
ARC
  8
0
 62
7
  6
CONTINUOUS
 10
119.0701840533
 20
115.3683997654
 40
0.5000000045
 50
180.000012934
 51
240.000270534
  0
ARC
  8
0
 62
7
  6
CONTINUOUS
 10
124.070155594
 20
115.3683996525
 40
0.5
 50
299.9997624355
 51
360.0
  0
ARC
  8
0
 62
7
  6
CONTINUOUS
 10
118.8201699572
 20
122.4017878524
 40
0.5
 50
345.8
 51
360.0
  0
ARC
  8
0
 62
7
  6
CONTINUOUS
 10
124.3201699572
 20
122.4017878524
 40
0.5
 50
180.0
 51
194.2
  0
ARC
  8
AXES
 62
7
  6
CONTINUOUS
 10
124.420155594
 20
119.3569116942
 40
0.15
 50
0.0
 51
14.2
  0
ARC
  8
0
 62
7
  6
CONTINUOUS
 10
124.4201554678
 20
119.3569121928
 40
0.15
 50
359.9998095318
 51
14.1998035272
  0
ARC
  8
0
 62
7
  6
CONTINUOUS
 10
118.7201843569
 20
119.3569118388
 40
0.15
 50
165.8000570027
 51
180.0000552607
  0
ARC
  8
0
 62
7
  6
CONTINUOUS
 10
71.5991699572
 20
137.9613669683
 40
45.0
 50
355.9091741788
 51
4.0908258212
  0
ARC
  8
0
 62
7
  6
CONTINUOUS
 10
121.1951699572
 20
137.1325095602
 40
5.5
 50
210.7881902385
 51
270.0
  0
ARC
  8
0
 62
7
  6
CONTINUOUS
 10
122.9451699572
 20
136.1325095602
 40
4.5
 50
270.0
 51
360.0
  0
ARC
  8
0
 62
7
  6
CONTINUOUS
 10
114.1951699572
 20
134.926061406
 40
3.0
 50
179.9996283335
 51
250.3310116083
  0
ARC
  8
0
 62
7
  6
CONTINUOUS
 10
113.6951699572
 20
146.3770079333
 40
2.5
 50
70.3307146137
 51
180.0004935127
  0
ARC
  8
0
 62
7
  6
CONTINUOUS
 10
116.5991699572
 20
134.3940274989
 40
0.15
 50
180.0
 51
210.7881902385
  0
ARC
  8
0
 62
7
  6
CONTINUOUS
 10
116.2991699572
 20
147.9418318023
 40
0.15
 50
0.0000632547
 51
70.3307359046
  0
ARC
  8
0
 62
7
  6
CONTINUOUS
 10
152.1951699572
 20
118.8325095602
 40
4.5
 50
270.0
 51
299.9997624355
  0
ARC
  8
0
 62
7
  6
CONTINUOUS
 10
151.1951699572
 20
118.8325095602
 40
4.5
 50
240.0002375645
 51
270.0
  0
ARC
  8
0
 62
7
  6
CONTINUOUS
 10
137.6951699572
 20
118.8325095602
 40
4.5
 50
270.0
 51
299.9997624355
  0
ARC
  8
0
 62
7
  6
CONTINUOUS
 10
136.6951699572
 20
118.8325095602
 40
4.5
 50
240.0002375645
 51
270.0
  0
ARC
  8
AXES
 62
7
  6
CONTINUOUS
 10
134.3951699572
 20
118.6625095602
 40
1.5
 50
94.1260708806
 51
257.7538206432
  0
ARC
  8
AXES
 62
7
  6
CONTINUOUS
 10
139.9951699572
 20
118.6625095602
 40
1.5
 50
282.2461793568
 51
85.8739291194
  0
ARC
  8
0
 62
7
  6
CONTINUOUS
 10
134.6951840533
 20
115.3683997654
 40
0.5000000045
 50
180.000012934
 51
240.000270534
  0
ARC
  8
0
 62
7
  6
CONTINUOUS
 10
149.1951840533
 20
115.3683997654
 40
0.5000000045
 50
180.000012934
 51
240.000270534
  0
ARC
  8
0
 62
7
  6
CONTINUOUS
 10
139.695155594
 20
115.3683996525
 40
0.5
 50
299.9997624355
 51
360.0
  0
ARC
  8
0
 62
7
  6
CONTINUOUS
 10
154.195155594
 20
115.3683996525
 40
0.5
 50
299.9997624355
 51
360.0
  0
ARC
  8
0
 62
7
  6
CONTINUOUS
 10
148.9451699572
 20
122.4017878524
 40
0.5
 50
345.8
 51
360.0
  0
ARC
  8
0
 62
7
  6
CONTINUOUS
 10
154.4451699572
 20
122.4017878524
 40
0.5
 50
180.0
 51
194.2
  0
ARC
  8
0
 62
7
  6
CONTINUOUS
 10
134.4451699572
 20
122.4017878524
 40
0.5
 50
345.8
 51
360.0
  0
ARC
  8
0
 62
7
  6
CONTINUOUS
 10
139.9451699572
 20
122.4017878524
 40
0.5
 50
180.0
 51
194.2
  0
ARC
  8
AXES
 62
7
  6
CONTINUOUS
 10
134.2764503202
 20
120.3082330023
 40
0.15
 50
274.1260708806
 51
345.8
  0
ARC
  8
AXES
 62
7
  6
CONTINUOUS
 10
134.0451843203
 20
117.0500548929
 40
0.15
 50
0.0
 51
77.7538206431
  0
ARC
  8
0
 62
7
  6
CONTINUOUS
 10
134.3451843203
 20
119.3569116942
 40
0.15
 50
165.8
 51
180.0
  0
ARC
  8
0
 62
7
  6
CONTINUOUS
 10
148.8451843569
 20
119.3569118388
 40
0.15
 50
165.8000570027
 51
180.0000552607
  0
ARC
  8
0
 62
7
  6
CONTINUOUS
 10
140.045155594
 20
119.3569116942
 40
0.15
 50
0.0
 51
14.2
  0
ARC
  8
AXES
 62
7
  6
CONTINUOUS
 10
140.1138895941
 20
120.3082330023
 40
0.15
 50
194.2
 51
265.8739291194
  0
ARC
  8
AXES
 62
7
  6
CONTINUOUS
 10
140.345155594
 20
117.0500548929
 40
0.15
 50
102.2461793568
 51
180.0
  0
ARC
  8
AXES
 62
7
  6
CONTINUOUS
 10
154.545155594
 20
119.3569116942
 40
0.15
 50
0.0
 51
14.2
  0
ARC
  8
0
 62
7
  6
CONTINUOUS
 10
154.545155594
 20
119.3569116942
 40
0.15
 50
0.0
 51
14.2
  0
ARC
  8
0
 62
7
  6
CONTINUOUS
 10
127.8201699572
 20
127.0825095602
 40
4.0
 50
90.0
 51
180.0
  0
ARC
  8
0
 62
7
  6
CONTINUOUS
 10
131.9451699572
 20
128.0825095602
 40
3.0
 50
0.0
 51
90.0
  0
ARC
  8
0
 62
7
  6
CONTINUOUS
 10
146.7451699572
 20
128.2325095602
 40
2.7
 50
0.0
 51
90.0
  0
ARC
  8
0
 62
7
  6
CONTINUOUS
 10
142.1451699572
 20
128.2325095602
 40
2.7
 50
90.0
 51
180.0
  0
ARC
  8
0
 62
7
  6
CONTINUOUS
 10
165.9491699572
 20
118.8725095602
 40
4.54
 50
270.0
 51
299.6727803588
  0
ARC
  8
0
 62
7
  6
CONTINUOUS
 10
164.9491699572
 20
118.8725095602
 40
4.54
 50
240.3272196412
 51
270.0
  0
ARC
  8
0
 62
7
  6
CONTINUOUS
 10
178.5451699572
 20
118.3325095602
 40
4.0
 50
224.4153085972
 51
315.5846914028
  0
ARC
  8
0
 62
7
  6
CONTINUOUS
 10
176.0451701596
 20
115.8830195257
 40
0.5000000085
 50
179.9999665677
 51
224.4152684785
  0
ARC
  8
0
 62
7
  6
CONTINUOUS
 10
162.9491840452
 20
115.3622878239
 40
0.5000000044
 50
180.000013301
 51
240.327253618
  0
ARC
  8
0
 62
7
  6
CONTINUOUS
 10
175.7951699572
 20
122.401844615
 40
0.5
 50
345.8
 51
360.0
  0
ARC
  8
0
 62
7
  6
CONTINUOUS
 10
181.2951699572
 20
122.401844615
 40
0.5
 50
180.0
 51
194.2
  0
ARC
  8
AXES
 62
7
  6
CONTINUOUS
 10
181.2951699572
 20
122.401844615
 40
0.5
 50
180.0
 51
194.2
  0
ARC
  8
0
 62
7
  6
CONTINUOUS
 10
162.6991699572
 20
122.4017878524
 40
0.5
 50
345.8
 51
360.0
  0
ARC
  8
0
 62
7
  6
CONTINUOUS
 10
168.1991699572
 20
122.4017878524
 40
0.5
 50
180.0
 51
194.2
  0
ARC
  8
0
 62
7
  6
CONTINUOUS
 10
167.949155594
 20
115.3622877079
 40
0.5
 50
299.6727803588
 51
360.0
  0
ARC
  8
0
 62
7
  6
CONTINUOUS
 10
181.0451699572
 20
115.8830198174
 40
0.5
 50
315.5846914028
 51
360.0
  0
ARC
  8
AXES
 62
7
  6
CONTINUOUS
 10
181.3951699572
 20
119.3569116942
 40
0.15
 50
0.0
 51
14.2
  0
ARC
  8
0
 62
7
  6
CONTINUOUS
 10
181.3951699572
 20
119.3569116942
 40
0.15
 50
0.0
 51
14.2
  0
ARC
  8
0
 62
7
  6
CONTINUOUS
 10
162.5991843569
 20
119.3569118388
 40
0.15
 50
165.8000570027
 51
180.0000552606
  0
ARC
  8
0
 62
7
  6
CONTINUOUS
 10
175.6951699938
 20
119.3569118388
 40
0.15
 50
165.8000570026
 51
180.0000552606
  0
ARC
  8
AXES
 62
7
  6
CONTINUOUS
 10
168.299155594
 20
119.3569116942
 40
0.15
 50
0.0
 51
14.2
  0
ARC
  8
0
 62
7
  6
CONTINUOUS
 10
168.299155594
 20
119.3569116942
 40
0.15
 50
0.0
 51
14.2
  0
ARC
  8
0
 62
7
  6
CONTINUOUS
 10
160.4991699572
 20
128.2325095602
 40
2.7
 50
0.0
 51
90.0
  0
ARC
  8
0
 62
7
  6
CONTINUOUS
 10
156.6451699572
 20
128.2325095602
 40
2.7
 50
90.0
 51
180.0
  0
ARC
  8
0
 62
7
  6
CONTINUOUS
 10
174.2951699572
 20
128.5985095602
 40
2.0
 50
0.0
 51
90.0
  0
ARC
  8
0
 62
7
  6
CONTINUOUS
 10
169.6991699572
 20
128.5985095602
 40
2.0
 50
90.0
 51
180.0
  0
ARC
  8
0
 62
7
  6
CONTINUOUS
 10
179.7951699572
 20
131.0825095602
 40
1.0
 50
0.0
 51
90.0
  0
ARC
  8
0
 62
7
  6
CONTINUOUS
 10
136.4451699572
 20
136.2325095602
 40
4.5
 50
180.0
 51
270.0
  0
ARC
  8
0
 62
7
  6
CONTINUOUS
 10
137.9451699572
 20
136.2325095602
 40
4.5
 50
270.0
 51
360.0
  0
ARC
  8
0
 62
7
  6
CONTINUOUS
 10
150.7951699572
 20
135.7325095602
 40
3.85
 50
180.0
 51
270.0
  0
ARC
  8
0
 62
7
  6
CONTINUOUS
 10
152.5951699572
 20
135.7325095602
 40
3.85
 50
270.0
 51
360.0
  0
ARC
  8
0
 62
7
  6
CONTINUOUS
 10
147.4451699572
 20
140.370231268
 40
0.5
 50
165.8
 51
180.0
  0
ARC
  8
0
 62
7
  6
CONTINUOUS
 10
132.4451699572
 20
140.370231268
 40
0.5
 50
165.8
 51
180.0
  0
ARC
  8
0
 62
7
  6
CONTINUOUS
 10
141.9451699572
 20
140.370231268
 40
0.5
 50
0.0
 51
14.2
  0
ARC
  8
0
 62
7
  6
CONTINUOUS
 10
126.9451699572
 20
140.3702357458
 40
0.5
 50
0.0
 51
14.1989894451
  0
ARC
  8
0
 62
7
  6
CONTINUOUS
 10
146.9491699572
 20
147.6825095602
 40
0.75
 50
0.0
 51
90.0
  0
ARC
  8
0
 62
7
  6
CONTINUOUS
 10
142.4411699572
 20
147.6825095602
 40
0.75
 50
90.0
 51
180.0
  0
ARC
  8
0
 62
7
  6
CONTINUOUS
 10
131.9491699572
 20
147.6825095602
 40
0.75
 50
0.0
 51
90.0
  0
ARC
  8
0
 62
7
  6
CONTINUOUS
 10
127.4411699572
 20
147.6825095602
 40
0.75
 50
90.0
 51
180.0
  0
ARC
  8
0
 62
7
  6
CONTINUOUS
 10
126.8411699572
 20
143.4311917045
 40
0.15
 50
180.0
 51
194.1989894451
  0
ARC
  8
0
 62
7
  6
CONTINUOUS
 10
141.8411700833
 20
143.4309715363
 40
0.15
 50
179.9998095317
 51
194.1998035271
  0
ARC
  8
0
 62
7
  6
CONTINUOUS
 10
132.5491699572
 20
143.4309720349
 40
0.15
 50
345.8
 51
360.0
  0
ARC
  8
0
 62
7
  6
CONTINUOUS
 10
147.5491699572
 20
143.4309720349
 40
0.15
 50
345.8
 51
360.0
  0
ARC
  8
0
 62
7
  6
CONTINUOUS
 10
178.5451699572
 20
136.1865095602
 40
4.104
 50
180.0
 51
270.0
  0
ARC
  8
0
 62
7
  6
CONTINUOUS
 10
164.7991699572
 20
135.7325095602
 40
3.85
 50
180.0
 51
270.0
  0
ARC
  8
0
 62
7
  6
CONTINUOUS
 10
166.0991699572
 20
135.7325095602
 40
3.85
 50
270.0
 51
360.0
  0
ARC
  8
0
 62
7
  6
CONTINUOUS
 10
174.9411699572
 20
140.370231268
 40
0.5
 50
165.8
 51
180.0
  0
ARC
  8
0
 62
7
  6
CONTINUOUS
 10
161.4491699572
 20
140.370231268
 40
0.5
 50
165.8
 51
180.0
  0
ARC
  8
0
 62
7
  6
CONTINUOUS
 10
169.4491699572
 20
140.370231268
 40
0.5
 50
0.0
 51
14.2
  0
ARC
  8
0
 62
7
  6
CONTINUOUS
 10
155.9451699572
 20
140.370231268
 40
0.5
 50
0.0
 51
14.2
  0
ARC
  8
0
 62
7
  6
CONTINUOUS
 10
174.4451699572
 20
147.6825095602
 40
0.75
 50
0.0
 51
90.0
  0
ARC
  8
0
 62
7
  6
CONTINUOUS
 10
169.9451699572
 20
147.6825095602
 40
0.75
 50
90.0
 51
180.0
  0
ARC
  8
0
 62
7
  6
CONTINUOUS
 10
160.9531699572
 20
147.6825095602
 40
0.75
 50
0.0
 51
90.0
  0
ARC
  8
0
 62
7
  6
CONTINUOUS
 10
156.4411699572
 20
147.6825095602
 40
0.75
 50
90.0
 51
180.0
  0
ARC
  8
0
 62
7
  6
CONTINUOUS
 10
155.8411700833
 20
143.4309715363
 40
0.15
 50
179.9998095317
 51
194.1998035271
  0
ARC
  8
0
 62
7
  6
CONTINUOUS
 10
169.3451700833
 20
143.4309715363
 40
0.15
 50
179.9998095317
 51
194.1998035271
  0
ARC
  8
0
 62
7
  6
CONTINUOUS
 10
161.5531699572
 20
143.4309720349
 40
0.15
 50
345.8
 51
360.0
  0
ARC
  8
0
 62
7
  6
CONTINUOUS
 10
175.0451696531
 20
143.4309708332
 40
0.15
 50
345.8004735088
 51
0.000459032
  0
ARC
  8
0
 62
7
  6
CONTINUOUS
 10
277.9114460316
 20
135.6152070132
 40
1.0
 50
180.0000108799
 51
269.0
  0
ARC
  8
0
 62
7
  6
CONTINUOUS
 10
277.9114460316
 20
139.7786069605
 40
1.0
 50
99.0118011229
 51
179.9999996674
  0
ARC
  8
0
 62
7
  6
CONTINUOUS
 10
294.9093137638
 20
118.3325095602
 40
4.0
 50
180.0
 51
270.0
  0
ARC
  8
AXES
 62
7
  6
CONTINUOUS
 10
296.9093137638
 20
118.6825095602
 40
2.1
 50
180.0
 51
360.0
  0
ARC
  8
0
 62
7
  6
CONTINUOUS
 10
298.9093137638
 20
118.3325095602
 40
4.0
 50
270.0
 51
360.0
  0
ARC
  8
AXES
 62
7
  6
CONTINUOUS
 10
296.9093137638
 20
126.7325095602
 40
2.1
 50
0.0
 51
180.0
  0
ARC
  8
0
 62
7
  6
CONTINUOUS
 10
290.5093137638
 20
133.9950969648
 40
0.4
 50
0.0
 51
89.0
  0
ARC
  8
0
 62
7
  6
CONTINUOUS
 10
290.5093137638
 20
143.1940702087
 40
0.399999936
 50
279.0118099046
 51
0.000055731
  0
ARC
  8
0
 62
7
  6
CONTINUOUS
 10
294.9093137638
 20
144.4325095602
 40
4.0
 50
167.3960896858
 51
180.0
  0
CIRCLE
  8
0
 62
7
  6
CONTINUOUS
 10
296.9093137638
 20
144.0825095602
 40
2.75
  0
CIRCLE
  8
0
 62
7
  6
CONTINUOUS
 10
296.9093137638
 20
144.0825095602
 40
2.1
  0
ARC
  8
0
 62
7
  6
CONTINUOUS
 10
298.9093137638
 20
144.4325095602
 40
4.0
 50
0.0
 51
35.51896219
  0
ARC
  8
0
 62
7
  6
CONTINUOUS
 10
114.630582091
 20
209.3094456716
 40
2.0
 50
183.5
 51
270.0028131855
  0
ARC
  8
0
 62
7
  6
CONTINUOUS
 10
123.3491697493
 20
208.3094456716
 40
1.0
 50
270.0000119125
 51
360.0
  0
ARC
  8
0
 62
7
  6
CONTINUOUS
 10
116.8991694037
 20
212.562325932
 40
0.2999999929
 50
180.0
 51
270.0
  0
ARC
  8
0
 62
7
  6
CONTINUOUS
 10
139.445155594
 20
232.5573134038
 40
0.75
 50
0.0
 51
90.0
  0
ARC
  8
0
 62
7
  6
CONTINUOUS
 10
134.9451843203
 20
232.5573134038
 40
0.75
 50
90.0
 51
180.0
  0
ARC
  8
0
 62
7
  6
CONTINUOUS
 10
123.820155594
 20
232.5573134038
 40
0.75
 50
0.0
 51
90.0
  0
ARC
  8
0
 62
7
  6
CONTINUOUS
 10
119.3201843203
 20
232.5573134038
 40
0.75
 50
90.0
 51
180.0
  0
ARC
  8
0
 62
7
  6
CONTINUOUS
 10
119.3201843203
 20
222.0573134038
 40
0.75
 50
180.0
 51
270.0
  0
ARC
  8
0
 62
7
  6
CONTINUOUS
 10
123.820155594
 20
222.0573134038
 40
0.75
 50
270.0
 51
360.0
  0
ARC
  8
0
 62
7
  6
CONTINUOUS
 10
111.5167416856
 20
220.9073134038
 40
0.3999999298
 50
3.5000036919
 51
90.0000604751
  0
ARC
  8
0
 62
7
  6
CONTINUOUS
 10
133.0451699572
 20
221.4573134038
 40
0.15
 50
180.0
 51
270.0
  0
ARC
  8
0
 62
7
  6
CONTINUOUS
 10
141.3451699572
 20
221.4573134038
 40
0.15
 50
270.0
 51
360.0
  0
ARC
  8
0
 62
7
  6
CONTINUOUS
 10
115.5123821588
 20
233.1573134038
 40
0.15
 50
90.0
 51
103.0918930643
  0
ARC
  8
0
 62
7
  6
CONTINUOUS
 10
111.3451699572
 20
232.1881942871
 40
0.15
 50
103.0918930644
 51
180.0
  0
ARC
  8
0
 62
7
  6
CONTINUOUS
 10
111.3451699572
 20
221.4573134038
 40
0.15
 50
180.0
 51
270.0
  0
ARC
  8
0
 62
7
  6
CONTINUOUS
 10
153.945155594
 20
232.5573134038
 40
0.75
 50
0.0
 51
90.0
  0
ARC
  8
0
 62
7
  6
CONTINUOUS
 10
163.1991843203
 20
232.5573134038
 40
0.75
 50
90.0
 51
180.0
  0
ARC
  8
0
 62
7
  6
CONTINUOUS
 10
167.699155594
 20
232.5573134038
 40
0.75
 50
0.0
 51
90.0
  0
ARC
  8
0
 62
7
  6
CONTINUOUS
 10
176.2951699572
 20
232.5573134038
 40
0.75
 50
90.0
 51
180.0
  0
ARC
  8
0
 62
7
  6
CONTINUOUS
 10
180.7951699572
 20
232.5573134038
 40
0.75
 50
0.0
 51
90.0
  0
ARC
  8
0
 62
7
  6
CONTINUOUS
 10
149.4451843203
 20
222.0573134038
 40
0.75
 50
180.0
 51
270.0
  0
ARC
  8
0
 62
7
  6
CONTINUOUS
 10
153.945155594
 20
222.0573134038
 40
0.75
 50
270.0
 51
360.0
  0
ARC
  8
0
 62
7
  6
CONTINUOUS
 10
163.1991843203
 20
222.0573134038
 40
0.75
 50
180.0
 51
270.0
  0
ARC
  8
0
 62
7
  6
CONTINUOUS
 10
167.699155594
 20
222.0573134038
 40
0.75
 50
270.0
 51
360.0
  0
ARC
  8
0
 62
7
  6
CONTINUOUS
 10
176.2951699572
 20
222.0573134038
 40
0.75
 50
180.0
 51
270.0
  0
ARC
  8
0
 62
7
  6
CONTINUOUS
 10
180.7951699572
 20
222.0573134038
 40
0.75
 50
270.0
 51
360.0
  0
ARC
  8
0
 62
7
  6
CONTINUOUS
 10
149.4451843203
 20
232.5573134038
 40
0.75
 50
90.0
 51
180.0
  0
ARC
  8
0
 62
7
  6
CONTINUOUS
 10
174.2911699572
 20
221.4573134038
 40
0.15
 50
271.5229755582
 51
281.25
  0
ENDSEC
  0
EOF
