  0
SECTION
  2
HEADER
  9
$EXTMAX
 10
594.0
 20
420.0
 30
0.0
  9
$EXTMIN
 10
0.0
 20
0.0
 30
0.0
  9
$LIMMIN
 10
0.0
 20
0.0
  9
$LIMMAX
 10
594.0
 20
420.0
  9
$VIEWCTR
 10
297.0
 20
210.0
  9
$VIEWSIZE
 40
420.0
  9
$CLAYER
  8
0
  9
$LTSCALE
 40
32.67
  9
$CELTYPE
  6
BYLAYER
  9
$DIMSCALE
 40
1.0
  9
$DIMASZ
 40
3.5
  9
$DIMEXO
 40
1.0
  9
$DIMDLI
 40
22.572
  9
$DIMEXE
 40
2.0
  9
$DIMCEN
 40
5.346
  9
$DIMLFAC
 40
1.0
  9
$DIMBLK
  1
_FILLED
  9
$DIMALT
 70
0
  9
$DIMALTF
 40
0.0393700787
  9
$DIMTXT
 40
3.5
  9
$AUNITS
 70
0
  9
$PDMODE
 70
3
  9
$PDSIZE
 40
0.3125
  9
$TILEMODE
 70
1
  0
ENDSEC
  0
SECTION
  2
TABLES
  0
TABLE
  2
LTYPE
 70
6
  0
LTYPE
  2
BYBLOCK
 70
0
  3

 72
65
 73
0
 40
0.0
  0
LTYPE
  2
BYLAYER
 70
0
  3

 72
65
 73
0
 40
0.0
  0
LTYPE
  2
CONTINUOUS
 70
64
  3
Solid line
 72
65
 73
0
 40
0.0
  0
LTYPE
  2
CENTER
 70
64
  3
____ _ ____ _ ____ _ ____ _ ____ _ ____ _ ____
 72
65
 73
4
 40
0.6
 49
0.375
 49
-0.075
 49
0.075
 49
-0.075
  0
LTYPE
  2
HIDDEN
 70
64
  3
- - - - - - - - - - - - - - - - - - - -
 72
65
 73
2
 40
0.2
 49
0.1
 49
-0.1
  0
LTYPE
  2
PHANTOM
 70
64
  3
_____ _ _ _____ _ _ _____ _ _ _____
 72
65
 73
6
 40
0.8
 49
0.45
 49
-0.05
 49
0.1
 49
-0.05
 49
0.1
 49
-0.05
  0
LTYPE
  2
DOT
 70
64
  3
. . . . . . . . . . . . . . . . . . . .
 72
65
 73
2
 40
0.2
 49
0.1
 49
-0.1
  0
LTYPE
  2
DASHED
 70
64
  3
- - - - - - - - - - - - - - - - - - - -
 72
65
 73
2
 40
0.2
 49
0.1
 49
-0.1
  0
ENDTAB
  0
TABLE
  2
LAYER
 70
36
  0
LAYER
  2
0
 70
0
 62
7
  6
CONTINUOUS
  0
LAYER
  2
DEFAULT_1
 70
0
 62
7
  6
CENTER
  0
LAYER
  2
DEFAULT_2
 70
0
 62
8
  6
HIDDEN
  0
LAYER
  2
DEFAULT_3
 70
0
 62
7
  6
PHANTOM
  0
LAYER
  2
CURVE
 70
0
 62
7
  6
CONTINUOUS
  0
LAYER
  2
NIDE_PLAN
 70
0
 62
7
  6
CONTINUOUS
  0
LAYER
  2
PLAN
 70
0
 62
7
  6
CONTINUOUS
  0
LAYER
  2
SURFACE
 70
0
 62
7
  6
CONTINUOUS
  0
ENDTAB
  0
TABLE
  2
STYLE
 70
1
  0
STYLE
  2
STANDARD
 70
0
 40
0.0
 41
0.8
 50
0.0
 71
0
 42
0.2
  3
txt
  4

  0
STYLE
  2
TEXTSTYLE_1
 70
0
 40
0.0
 41
0.8
 50
0.0
 71
0
 42
0.2
  3
gdt
  4

  0
STYLE
  2
TEXTSTYLE_2
 70
0
 40
0.0
 41
0.6
 50
0.0
 71
0
 42
0.2
  3
txt
  4

  0
STYLE
  2
TEXTSTYLE_3
 70
0
 40
0.0
 41
1.0
 50
0.0
 71
0
 42
0.2
  3
ftb_____.ttf
  4

  0
STYLE
  2
TEXTSTYLE_4
 70
0
 40
0.0
 41
1.0
 50
0.0
 71
0
 42
0.2
  3
fti_____.ttf
  4

  0
STYLE
  2
TEXTSTYLE_5
 70
0
 40
0.0
 41
1.0
 50
0.0
 71
0
 42
0.2
  3
frutiger light.ttf
  4

  0
STYLE
  2
TEXTSTYLE_6
 70
0
 40
0.0
 41
0.7
 50
0.0
 71
0
 42
0.2
  3
txt
  4

  0
STYLE
  2
TEXTSTYLE_7
 70
0
 40
0.0
 41
0.3
 50
0.0
 71
0
 42
0.2
  3
txt
  4

  0
ENDTAB
  0
ENDSEC
  0
SECTION
  2
BLOCKS
  0
BLOCK
  8
0
 62
2
  6
CONTINUOUS
  2
UNI_LOGO2_BL1
 70
64
 10
557.4079930916
 20
35.8092573885
  0
TEXT
  8
0
 62
7
  6
CONTINUOUS
 10
548.4662781001
 20
30.9020137655
  7
TEXTSTYLE_4
 40
1.0655737705
  1
The brand for plastic modular belts and chains
 41
1.0
 72
0
  0
LINE
  8
0
 62
7
  6
CONTINUOUS
 10
533.3860614807
 20
36.3830278803
 11
533.3860614807
 21
34.2518803393
  0
LINE
  8
0
 62
7
  6
CONTINUOUS
 10
533.6751239738
 20
31.2609490436
 11
533.6751239738
 21
31.3577401029
  0
LINE
  8
0
 62
7
  6
CONTINUOUS
 10
533.3860614807
 20
31.3254764164
 11
533.4438739824
 21
31.1318942979
  0
LINE
  8
0
 62
7
  6
CONTINUOUS
 10
534.7795041036
 20
34.1699131262
 11
534.7795041036
 21
36.3830278803
  0
LINE
  8
0
 62
7
  6
CONTINUOUS
 10
535.6985614255
 20
32.3256508311
 11
535.6985614255
 21
30.8092573885
  0
LINE
  8
0
 62
7
  6
CONTINUOUS
 10
535.9876239807
 20
30.8092573885
 11
535.9876239807
 21
31.5513222666
  0
LINE
  8
0
 62
7
  6
CONTINUOUS
 10
535.9876239807
 20
31.6803770123
 11
535.9876239807
 21
32.3256508311
  0
LINE
  8
0
 62
7
  6
CONTINUOUS
 10
533.4438739824
 20
31.5190585802
 11
533.3860614807
 21
31.3254764164
  0
LINE
  8
0
 62
7
  6
CONTINUOUS
 10
533.7907489669
 20
31.0996306115
 11
533.6751239738
 21
31.2609490436
  0
LINE
  8
0
 62
7
  6
CONTINUOUS
 10
534.8891865358
 20
31.6158496394
 11
534.9469989807
 21
31.5190585802
  0
LINE
  8
0
 62
7
  6
CONTINUOUS
 10
535.2360615358
 20
31.5190585802
 11
535.1782489255
 21
31.6481133259
  0
LINE
  8
0
 62
7
  6
CONTINUOUS
 10
536.6647500053
 20
36.3830278803
 11
536.6647500053
 21
34.5797491918
  0
LINE
  8
0
 62
7
  6
CONTINUOUS
 10
536.6647500053
 20
33.2682737819
 11
536.6647500053
 21
32.612536077
  0
LINE
  8
0
 62
7
  6
CONTINUOUS
 10
537.0282489807
 20
31.4545312073
 11
537.0282489807
 21
30.8092573885
  0
LINE
  8
0
 62
7
  6
CONTINUOUS
 10
537.3173113704
 20
30.8092573885
 11
537.3173113704
 21
31.4545312073
  0
LINE
  8
0
 62
7
  6
CONTINUOUS
 10
533.6751239738
 20
31.3577401029
 11
533.7329364807
 21
31.4867948937
  0
LINE
  8
0
 62
7
  6
CONTINUOUS
 10
533.4438739824
 20
31.1318942979
 11
533.5594989807
 21
31.0028395296
  0
LINE
  8
0
 62
7
  6
CONTINUOUS
 10
536.9704363704
 20
31.583585953
 11
537.0282489807
 21
31.4545312073
  0
LINE
  8
0
 62
7
  6
CONTINUOUS
 10
537.7798115909
 20
31.0996306115
 11
537.8376238704
 21
30.9705758432
  0
LINE
  8
0
 62
7
  6
CONTINUOUS
 10
537.3173113704
 20
31.4545312073
 11
537.2594990909
 21
31.6158496394
  0
LINE
  8
0
 62
7
  6
CONTINUOUS
 10
537.7798115909
 20
31.6481133259
 11
537.7798115909
 21
31.583585953
  0
LINE
  8
0
 62
7
  6
CONTINUOUS
 10
537.7798115909
 20
31.1964216708
 11
537.7798115909
 21
31.0996306115
  0
LINE
  8
0
 62
7
  6
CONTINUOUS
 10
538.0581926282
 20
32.612536077
 11
538.0581926282
 21
36.3830278803
  0
LINE
  8
0
 62
7
  6
CONTINUOUS
 10
538.0688739807
 20
31.0673669025
 11
538.0688739807
 21
31.1318942979
  0
LINE
  8
0
 62
7
  6
CONTINUOUS
 10
538.3860614807
 20
36.3830278803
 11
538.3860614807
 21
32.612536077
  0
LINE
  8
0
 62
7
  6
CONTINUOUS
 10
535.1782489255
 20
31.0028395296
 11
535.2360615358
 21
31.1318942979
  0
LINE
  8
0
 62
7
  6
CONTINUOUS
 10
539.5719992012
 20
30.9060484591
 11
539.5141862601
 21
31.0673669025
  0
LINE
  8
0
 62
7
  6
CONTINUOUS
 10
539.2251242012
 20
31.583585953
 11
539.2251242012
 21
31.4867948937
  0
LINE
  8
0
 62
7
  6
CONTINUOUS
 10
539.2251242012
 20
31.3577401029
 11
539.2251242012
 21
31.1641579843
  0
LINE
  8
0
 62
7
  6
CONTINUOUS
 10
539.5141862601
 20
31.0673669025
 11
539.5141862601
 21
31.583585953
  0
LINE
  8
0
 62
7
  6
CONTINUOUS
 10
539.7795041036
 20
32.612536077
 11
539.7795041036
 21
34.4158147655
  0
LINE
  8
0
 62
7
  6
CONTINUOUS
 10
539.7795041036
 20
35.7272901754
 11
539.7795041036
 21
36.3830278803
  0
LINE
  8
0
 62
7
  6
CONTINUOUS
 10
540.0923117012
 20
32.3256508311
 11
540.0923117012
 21
32.164332399
  0
LINE
  8
0
 62
7
  6
CONTINUOUS
 10
540.0923117012
 20
31.8416954444
 11
540.0923117012
 21
30.8092573885
  0
LINE
  8
0
 62
7
  6
CONTINUOUS
 10
540.3813737601
 20
30.8092573885
 11
540.3813737601
 21
31.8416954444
  0
LINE
  8
0
 62
7
  6
CONTINUOUS
 10
540.3813737601
 20
32.164332399
 11
540.3813737601
 21
32.3256508311
  0
LINE
  8
0
 62
7
  6
CONTINUOUS
 10
534.9469989807
 20
31.1318942979
 11
534.8891865358
 21
31.035103216
  0
LINE
  8
0
 62
7
  6
CONTINUOUS
 10
537.2594990909
 20
31.6158496394
 11
537.2016864807
 21
31.6803770123
  0
LINE
  8
0
 62
7
  6
CONTINUOUS
 10
538.1266865909
 20
31.0028395296
 11
538.0688739807
 21
31.0673669025
  0
LINE
  8
0
 62
7
  6
CONTINUOUS
 10
539.2829364807
 20
30.873784767
 11
539.3407487601
 21
30.8092573885
  0
LINE
  8
0
 62
7
  6
CONTINUOUS
 10
539.2251242012
 20
30.9705758432
 11
539.2829364807
 21
30.873784767
  0
LINE
  8
0
 62
7
  6
CONTINUOUS
 10
539.6298114807
 20
30.8092573885
 11
539.5719992012
 21
30.9060484591
  0
LINE
  8
0
 62
7
  6
CONTINUOUS
 10
539.5141862601
 20
31.583585953
 11
539.4563739807
 21
31.6803770123
  0
LINE
  8
0
 62
7
  6
CONTINUOUS
 10
540.8438739807
 20
31.8416954444
 11
540.8438739807
 21
30.8092573885
  0
LINE
  8
0
 62
7
  6
CONTINUOUS
 10
541.1329367012
 20
30.8092573885
 11
541.1329367012
 21
31.5513222666
  0
LINE
  8
0
 62
7
  6
CONTINUOUS
 10
541.1329367012
 20
31.6803770123
 11
541.1329367012
 21
31.8416954444
  0
LINE
  8
0
 62
7
  6
CONTINUOUS
 10
541.6647500053
 20
34.8256508311
 11
541.6647500053
 21
32.612536077
  0
LINE
  8
0
 62
7
  6
CONTINUOUS
 10
533.5594989807
 20
31.6481133259
 11
533.4438739824
 21
31.5190585802
  0
LINE
  8
0
 62
7
  6
CONTINUOUS
 10
533.7329364807
 20
31.4867948937
 11
533.7907489669
 21
31.5513222666
  0
LINE
  8
0
 62
7
  6
CONTINUOUS
 10
533.5594989807
 20
31.0028395296
 11
533.6751239738
 21
30.9383121455
  0
LINE
  8
0
 62
7
  6
CONTINUOUS
 10
533.9641864669
 20
31.0028395296
 11
533.7907489669
 21
31.0996306115
  0
LINE
  8
0
 62
7
  6
CONTINUOUS
 10
539.1673112601
 20
31.6481133259
 11
539.2251242012
 21
31.583585953
  0
LINE
  8
0
 62
7
  6
CONTINUOUS
 10
542.1157487601
 20
31.583585953
 11
542.1735617012
 21
31.4222675209
  0
LINE
  8
0
 62
7
  6
CONTINUOUS
 10
542.4626237601
 20
31.4222675209
 11
542.4048114807
 21
31.583585953
  0
LINE
  8
0
 62
7
  6
CONTINUOUS
 10
542.1735617012
 20
31.4222675209
 11
542.1735617012
 21
30.8092573885
  0
LINE
  8
0
 62
7
  6
CONTINUOUS
 10
542.4626237601
 20
30.8092573885
 11
542.4626237601
 21
31.4222675209
  0
LINE
  8
0
 62
7
  6
CONTINUOUS
 10
542.9251239807
 20
31.6481133259
 11
542.9251239807
 21
31.583585953
  0
LINE
  8
0
 62
7
  6
CONTINUOUS
 10
543.0581926282
 20
32.612536077
 11
543.0581926282
 21
34.743683618
  0
LINE
  8
0
 62
7
  6
CONTINUOUS
 10
543.3860614807
 20
36.3830278803
 11
543.3860614807
 21
32.612536077
  0
LINE
  8
0
 62
7
  6
CONTINUOUS
 10
538.0688739807
 20
31.1318942979
 11
538.1266865909
 21
31.2286853572
  0
LINE
  8
0
 62
7
  6
CONTINUOUS
 10
533.6751239738
 20
30.9383121455
 11
533.8485614944
 21
30.873784767
  0
LINE
  8
0
 62
7
  6
CONTINUOUS
 10
535.1782489255
 20
31.6481133259
 11
535.0048114255
 21
31.7449043851
  0
LINE
  8
0
 62
7
  6
CONTINUOUS
 10
537.8376238704
 20
30.9705758432
 11
538.0110613704
 21
30.873784767
  0
LINE
  8
0
 62
7
  6
CONTINUOUS
 10
536.8548114807
 20
31.6481133259
 11
536.9704363704
 21
31.583585953
  0
LINE
  8
0
 62
7
  6
CONTINUOUS
 10
537.2016864807
 20
31.6803770123
 11
537.0860615909
 21
31.7449043851
  0
LINE
  8
0
 62
7
  6
CONTINUOUS
 10
542.9251239807
 20
31.0673669025
 11
543.0407492012
 21
30.9383121455
  0
LINE
  8
0
 62
7
  6
CONTINUOUS
 10
543.2719989807
 20
31.0028395296
 11
543.2141867012
 21
31.0673669025
  0
LINE
  8
0
 62
7
  6
CONTINUOUS
 10
542.9251239807
 20
31.583585953
 11
543.0407492012
 21
31.4545312073
  0
LINE
  8
0
 62
7
  6
CONTINUOUS
 10
542.4048114807
 20
31.583585953
 11
542.3469992012
 21
31.6803770123
  0
LINE
  8
0
 62
7
  6
CONTINUOUS
 10
544.7751235396
 20
31.0028395296
 11
544.7751235396
 21
31.0673669025
  0
LINE
  8
0
 62
7
  6
CONTINUOUS
 10
544.7795041036
 20
32.612536077
 11
544.7795041036
 21
36.3830278803
  0
LINE
  8
0
 62
7
  6
CONTINUOUS
 10
537.8376238704
 20
31.7126406987
 11
537.7798115909
 21
31.6481133259
  0
LINE
  8
0
 62
7
  6
CONTINUOUS
 10
534.7157489531
 20
31.6803770123
 11
534.8891865358
 21
31.6158496394
  0
LINE
  8
0
 62
7
  6
CONTINUOUS
 10
539.4563739807
 20
31.6803770123
 11
539.3407487601
 21
31.7449043851
  0
LINE
  8
0
 62
7
  6
CONTINUOUS
 10
543.2719989807
 20
31.5190585802
 11
543.2141867012
 21
31.583585953
  0
LINE
  8
0
 62
7
  6
CONTINUOUS
 10
544.4282492012
 20
31.1318942979
 11
544.4860614807
 21
31.0673669025
  0
LINE
  8
0
 62
7
  6
CONTINUOUS
 10
544.7751235396
 20
31.0673669025
 11
544.6594989807
 21
31.1964216708
  0
LINE
  8
0
 62
7
  6
CONTINUOUS
 10
544.4282492012
 20
31.6481133259
 11
544.4860614807
 21
31.583585953
  0
LINE
  8
0
 62
7
  6
CONTINUOUS
 10
544.7751235396
 20
31.583585953
 11
544.6594989807
 21
31.7126406987
  0
LINE
  8
0
 62
7
  6
CONTINUOUS
 10
538.0688739807
 20
31.583585953
 11
538.1266865909
 21
31.6481133259
  0
LINE
  8
0
 62
7
  6
CONTINUOUS
 10
537.8954364807
 20
31.3254764164
 11
537.7798115909
 21
31.1964216708
  0
LINE
  8
0
 62
7
  6
CONTINUOUS
 10
539.2251242012
 20
31.1641579843
 11
539.1673112601
 21
31.0996306115
  0
LINE
  8
0
 62
7
  6
CONTINUOUS
 10
539.1673112601
 20
30.9060484591
 11
539.2251242012
 21
30.9705758432
  0
LINE
  8
0
 62
7
  6
CONTINUOUS
 10
538.0110613704
 20
30.873784767
 11
538.1266865909
 21
30.8415210777
  0
LINE
  8
0
 62
7
  6
CONTINUOUS
 10
535.0048114255
 20
31.7449043851
 11
534.7735614807
 21
31.809431758
  0
LINE
  8
0
 62
7
  6
CONTINUOUS
 10
538.3579363704
 20
30.9383121455
 11
538.1266865909
 21
31.0028395296
  0
LINE
  8
0
 62
7
  6
CONTINUOUS
 10
537.0860615909
 20
31.7449043851
 11
536.9126240909
 21
31.809431758
  0
LINE
  8
0
 62
7
  6
CONTINUOUS
 10
539.3407487601
 20
31.7449043851
 11
539.1673112601
 21
31.809431758
  0
LINE
  8
0
 62
7
  6
CONTINUOUS
 10
542.0001242012
 20
31.6481133259
 11
542.1157487601
 21
31.583585953
  0
LINE
  8
0
 62
7
  6
CONTINUOUS
 10
542.3469992012
 20
31.6803770123
 11
542.2313739807
 21
31.7449043851
  0
LINE
  8
0
 62
7
  6
CONTINUOUS
 10
533.8485614944
 20
30.873784767
 11
534.0219989944
 21
30.8415210777
  0
LINE
  8
0
 62
7
  6
CONTINUOUS
 10
534.3110615082
 20
30.9383121455
 11
533.9641864669
 21
31.0028395296
  0
LINE
  8
0
 62
7
  6
CONTINUOUS
 10
536.7391865909
 20
31.6803770123
 11
536.8548114807
 21
31.6481133259
  0
LINE
  8
0
 62
7
  6
CONTINUOUS
 10
539.0516867012
 20
31.6803770123
 11
539.1673112601
 21
31.6481133259
  0
LINE
  8
0
 62
7
  6
CONTINUOUS
 10
543.3876242012
 20
30.9705758432
 11
543.2719989807
 21
31.0028395296
  0
LINE
  8
0
 62
7
  6
CONTINUOUS
 10
541.8844989807
 20
31.6803770123
 11
542.0001242012
 21
31.6481133259
  0
LINE
  8
0
 62
7
  6
CONTINUOUS
 10
543.0407492012
 20
30.9383121455
 11
543.2141867012
 21
30.873784767
  0
LINE
  8
0
 62
7
  6
CONTINUOUS
 10
542.2313739807
 20
31.7449043851
 11
542.0579364807
 21
31.809431758
  0
LINE
  8
0
 62
7
  6
CONTINUOUS
 10
543.4454364807
 20
31.4545312073
 11
543.2719989807
 21
31.5190585802
  0
LINE
  8
0
 62
7
  6
CONTINUOUS
 10
544.2548117012
 20
31.1964216708
 11
544.4282492012
 21
31.1318942979
  0
LINE
  8
0
 62
7
  6
CONTINUOUS
 10
544.6594989807
 20
31.7126406987
 11
544.4860614807
 21
31.7771680715
  0
LINE
  8
0
 62
7
  6
CONTINUOUS
 10
543.0407492012
 20
31.4545312073
 11
543.2719989807
 21
31.3577401029
  0
LINE
  8
0
 62
7
  6
CONTINUOUS
 10
544.6594989807
 20
31.1964216708
 11
544.4282492012
 21
31.29321273
  0
LINE
  8
0
 62
7
  6
CONTINUOUS
 10
543.2141867012
 20
31.583585953
 11
543.2719989807
 21
31.6481133259
  0
LINE
  8
0
 62
7
  6
CONTINUOUS
 10
533.6751239738
 20
31.7126406987
 11
533.5594989807
 21
31.6481133259
  0
LINE
  8
0
 62
7
  6
CONTINUOUS
 10
533.7907489669
 20
31.5513222666
 11
533.9641864669
 21
31.6481133259
  0
LINE
  8
0
 62
7
  6
CONTINUOUS
 10
536.1032490358
 20
31.7449043851
 11
535.9876239807
 21
31.6803770123
  0
LINE
  8
0
 62
7
  6
CONTINUOUS
 10
535.9876239807
 20
31.5513222666
 11
536.1032490358
 21
31.6158496394
  0
LINE
  8
0
 62
7
  6
CONTINUOUS
 10
535.0048114255
 20
30.9060484591
 11
535.1782489255
 21
31.0028395296
  0
LINE
  8
0
 62
7
  6
CONTINUOUS
 10
534.0219989944
 20
30.8415210777
 11
534.3688739531
 21
30.8092573885
  0
LINE
  8
0
 62
7
  6
CONTINUOUS
 10
538.1266865909
 20
30.8415210777
 11
538.3579363704
 21
30.8092573885
  0
LINE
  8
0
 62
7
  6
CONTINUOUS
 10
536.5079364807
 20
31.7126406987
 11
536.7391865909
 21
31.6803770123
  0
LINE
  8
0
 62
7
  6
CONTINUOUS
 10
538.8204365909
 20
31.7126406987
 11
539.0516867012
 21
31.6803770123
  0
LINE
  8
0
 62
7
  6
CONTINUOUS
 10
543.2719989807
 20
31.3577401029
 11
544.2548117012
 21
31.1964216708
  0
LINE
  8
0
 62
7
  6
CONTINUOUS
 10
544.4282492012
 20
31.29321273
 11
543.4454364807
 21
31.4545312073
  0
LINE
  8
0
 62
7
  6
CONTINUOUS
 10
536.9126240909
 20
31.809431758
 11
536.7391865909
 21
31.8416954444
  0
LINE
  8
0
 62
7
  6
CONTINUOUS
 10
543.2141867012
 20
30.873784767
 11
543.3876242012
 21
30.8415210777
  0
LINE
  8
0
 62
7
  6
CONTINUOUS
 10
542.0579364807
 20
31.809431758
 11
541.8844989807
 21
31.8416954444
  0
LINE
  8
0
 62
7
  6
CONTINUOUS
 10
544.3126239807
 20
31.6803770123
 11
544.4282492012
 21
31.6481133259
  0
LINE
  8
0
 62
7
  6
CONTINUOUS
 10
544.4860614807
 20
31.0673669025
 11
544.4282492012
 21
31.0028395296
  0
LINE
  8
0
 62
7
  6
CONTINUOUS
 10
543.0407492012
 20
31.7449043851
 11
542.9251239807
 21
31.6481133259
  0
LINE
  8
0
 62
7
  6
CONTINUOUS
 10
537.9532490909
 20
31.7771680715
 11
537.8376238704
 21
31.7126406987
  0
LINE
  8
0
 62
7
  6
CONTINUOUS
 10
538.0110613704
 20
31.3900038345
 11
537.8954364807
 21
31.3254764164
  0
LINE
  8
0
 62
7
  6
CONTINUOUS
 10
538.1266865909
 20
31.2286853572
 11
538.2423114807
 21
31.29321273
  0
LINE
  8
0
 62
7
  6
CONTINUOUS
 10
535.6985614255
 20
30.8092573885
 11
535.9876239807
 21
30.8092573885
  0
LINE
  8
0
 62
7
  6
CONTINUOUS
 10
537.0282489807
 20
30.8092573885
 11
537.3173113704
 21
30.8092573885
  0
LINE
  8
0
 62
7
  6
CONTINUOUS
 10
538.3579363704
 20
30.8092573885
 11
538.7048113704
 21
30.8092573885
  0
LINE
  8
0
 62
7
  6
CONTINUOUS
 10
539.3407487601
 20
30.8092573885
 11
539.6298114807
 21
30.8092573885
  0
LINE
  8
0
 62
7
  6
CONTINUOUS
 10
540.0923117012
 20
30.8092573885
 11
540.3813737601
 21
30.8092573885
  0
LINE
  8
0
 62
7
  6
CONTINUOUS
 10
540.8438739807
 20
30.8092573885
 11
541.1329367012
 21
30.8092573885
  0
LINE
  8
0
 62
7
  6
CONTINUOUS
 10
542.1735617012
 20
30.8092573885
 11
542.4626237601
 21
30.8092573885
  0
LINE
  8
0
 62
7
  6
CONTINUOUS
 10
543.7344992012
 20
30.8092573885
 11
544.0813742012
 21
30.8092573885
  0
LINE
  8
0
 62
7
  6
CONTINUOUS
 10
544.0813742012
 20
30.9383121455
 11
543.7344992012
 21
30.9383121455
  0
LINE
  8
0
 62
7
  6
CONTINUOUS
 10
538.7048113704
 20
30.9383121455
 11
538.3579363704
 21
30.9383121455
  0
LINE
  8
0
 62
7
  6
CONTINUOUS
 10
543.2141867012
 20
31.0673669025
 11
542.9251239807
 21
31.0673669025
  0
LINE
  8
0
 62
7
  6
CONTINUOUS
 10
535.2360615358
 20
31.1318942979
 11
534.9469989807
 21
31.1318942979
  0
LINE
  8
0
 62
7
  6
CONTINUOUS
 10
534.3110615082
 20
31.7126406987
 11
534.7157489531
 21
31.6803770123
  0
LINE
  8
0
 62
7
  6
CONTINUOUS
 10
534.7735614807
 20
31.809431758
 11
534.3688739531
 21
31.8416954444
  0
LINE
  8
0
 62
7
  6
CONTINUOUS
 10
543.3876242012
 20
30.8415210777
 11
543.7344992012
 21
30.8092573885
  0
LINE
  8
0
 62
7
  6
CONTINUOUS
 10
543.7344992012
 20
30.9383121455
 11
543.3876242012
 21
30.9705758432
  0
LINE
  8
0
 62
7
  6
CONTINUOUS
 10
539.1673112601
 20
31.809431758
 11
538.8204365909
 21
31.8416954444
  0
LINE
  8
0
 62
7
  6
CONTINUOUS
 10
543.9657489807
 20
31.7126406987
 11
544.3126239807
 21
31.6803770123
  0
LINE
  8
0
 62
7
  6
CONTINUOUS
 10
544.3126239807
 20
31.809431758
 11
543.9657489807
 21
31.8416954444
  0
LINE
  8
0
 62
7
  6
CONTINUOUS
 10
541.6532492012
 20
31.7126406987
 11
541.8844989807
 21
31.6803770123
  0
LINE
  8
0
 62
7
  6
CONTINUOUS
 10
544.4860614807
 20
31.7771680715
 11
544.3126239807
 21
31.809431758
  0
LINE
  8
0
 62
7
  6
CONTINUOUS
 10
544.6594989807
 20
30.9060484591
 11
544.7751235396
 21
31.0028395296
  0
LINE
  8
0
 62
7
  6
CONTINUOUS
 10
539.1673112601
 20
31.0996306115
 11
538.9938737601
 21
31.0028395296
  0
LINE
  8
0
 62
7
  6
CONTINUOUS
 10
541.2485612601
 20
31.7449043851
 11
541.1329367012
 21
31.6803770123
  0
LINE
  8
0
 62
7
  6
CONTINUOUS
 10
541.1329367012
 20
31.5513222666
 11
541.2485612601
 21
31.6158496394
  0
LINE
  8
0
 62
7
  6
CONTINUOUS
 10
533.8485614944
 20
31.7771680715
 11
533.6751239738
 21
31.7126406987
  0
LINE
  8
0
 62
7
  6
CONTINUOUS
 10
536.2766863704
 20
31.809431758
 11
536.1032490358
 21
31.7449043851
  0
LINE
  8
0
 62
7
  6
CONTINUOUS
 10
536.1032490358
 20
31.6158496394
 11
536.2766863704
 21
31.6803770123
  0
LINE
  8
0
 62
7
  6
CONTINUOUS
 10
534.8891865358
 20
31.035103216
 11
534.7157489531
 21
30.9705758432
  0
LINE
  8
0
 62
7
  6
CONTINUOUS
 10
544.3126239807
 20
30.9705758432
 11
544.0813742012
 21
30.9383121455
  0
LINE
  8
0
 62
7
  6
CONTINUOUS
 10
538.7048113704
 20
30.8092573885
 11
538.9938737601
 21
30.8415210777
  0
LINE
  8
0
 62
7
  6
CONTINUOUS
 10
544.0813742012
 20
30.8092573885
 11
544.4282492012
 21
30.8415210777
  0
LINE
  8
0
 62
7
  6
CONTINUOUS
 10
534.3688739531
 20
30.8092573885
 11
534.7735614807
 21
30.8415210777
  0
LINE
  8
0
 62
7
  6
CONTINUOUS
 10
534.7157489531
 20
30.9705758432
 11
534.3110615082
 21
30.9383121455
  0
LINE
  8
0
 62
7
  6
CONTINUOUS
 10
538.5891864807
 20
31.3577401029
 11
539.2251242012
 21
31.3577401029
  0
LINE
  8
0
 62
7
  6
CONTINUOUS
 10
539.2251242012
 20
31.4867948937
 11
538.5891864807
 21
31.4867948937
  0
LINE
  8
0
 62
7
  6
CONTINUOUS
 10
534.9469989807
 20
31.5190585802
 11
535.2360615358
 21
31.5190585802
  0
LINE
  8
0
 62
7
  6
CONTINUOUS
 10
537.7798115909
 20
31.583585953
 11
538.0688739807
 21
31.583585953
  0
LINE
  8
0
 62
7
  6
CONTINUOUS
 10
544.4860614807
 20
31.583585953
 11
544.7751235396
 21
31.583585953
  0
LINE
  8
0
 62
7
  6
CONTINUOUS
 10
538.4735615909
 20
31.7126406987
 11
538.8204365909
 21
31.7126406987
  0
LINE
  8
0
 62
7
  6
CONTINUOUS
 10
543.6188739807
 20
31.7126406987
 11
543.9657489807
 21
31.7126406987
  0
LINE
  8
0
 62
7
  6
CONTINUOUS
 10
543.9657489807
 20
31.8416954444
 11
543.6188739807
 21
31.8416954444
  0
LINE
  8
0
 62
7
  6
CONTINUOUS
 10
541.8844989807
 20
31.8416954444
 11
541.6532492012
 21
31.8416954444
  0
LINE
  8
0
 62
7
  6
CONTINUOUS
 10
541.1329367012
 20
31.8416954444
 11
540.8438739807
 21
31.8416954444
  0
LINE
  8
0
 62
7
  6
CONTINUOUS
 10
540.3813737601
 20
31.8416954444
 11
540.0923117012
 21
31.8416954444
  0
LINE
  8
0
 62
7
  6
CONTINUOUS
 10
538.8204365909
 20
31.8416954444
 11
538.4735615909
 21
31.8416954444
  0
LINE
  8
0
 62
7
  6
CONTINUOUS
 10
536.7391865909
 20
31.8416954444
 11
536.5079364807
 21
31.8416954444
  0
LINE
  8
0
 62
7
  6
CONTINUOUS
 10
540.0923117012
 20
32.164332399
 11
540.3813737601
 21
32.164332399
  0
LINE
  8
0
 62
7
  6
CONTINUOUS
 10
540.3813737601
 20
32.3256508311
 11
540.0923117012
 21
32.3256508311
  0
LINE
  8
0
 62
7
  6
CONTINUOUS
 10
535.9876239807
 20
32.3256508311
 11
535.6985614255
 21
32.3256508311
  0
LINE
  8
0
 62
7
  6
CONTINUOUS
 10
535.025405743
 20
32.612536077
 11
535.4379770916
 21
32.612536077
  0
LINE
  8
0
 62
7
  6
CONTINUOUS
 10
536.6647500053
 20
32.612536077
 11
538.0581926282
 21
32.612536077
  0
LINE
  8
0
 62
7
  6
CONTINUOUS
 10
538.3860614807
 20
32.612536077
 11
539.7795041036
 21
32.612536077
  0
LINE
  8
0
 62
7
  6
CONTINUOUS
 10
541.6647500053
 20
32.612536077
 11
543.0581926282
 21
32.612536077
  0
LINE
  8
0
 62
7
  6
CONTINUOUS
 10
543.3860614807
 20
32.612536077
 11
544.7795041036
 21
32.612536077
  0
LINE
  8
0
 62
7
  6
CONTINUOUS
 10
541.4219987601
 20
31.809431758
 11
541.2485612601
 21
31.7449043851
  0
LINE
  8
0
 62
7
  6
CONTINUOUS
 10
538.9938737601
 20
30.8415210777
 11
539.1673112601
 21
30.9060484591
  0
LINE
  8
0
 62
7
  6
CONTINUOUS
 10
544.4282492012
 20
30.8415210777
 11
544.6594989807
 21
30.9060484591
  0
LINE
  8
0
 62
7
  6
CONTINUOUS
 10
544.4282492012
 20
31.0028395296
 11
544.3126239807
 21
30.9705758432
  0
LINE
  8
0
 62
7
  6
CONTINUOUS
 10
543.3876242012
 20
31.6803770123
 11
543.6188739807
 21
31.7126406987
  0
LINE
  8
0
 62
7
  6
CONTINUOUS
 10
541.4219987601
 20
31.6803770123
 11
541.6532492012
 21
31.7126406987
  0
LINE
  8
0
 62
7
  6
CONTINUOUS
 10
538.3579363704
 20
31.3254764164
 11
538.5891864807
 21
31.3577401029
  0
LINE
  8
0
 62
7
  6
CONTINUOUS
 10
541.6532492012
 20
31.8416954444
 11
541.4219987601
 21
31.809431758
  0
LINE
  8
0
 62
7
  6
CONTINUOUS
 10
538.2423114807
 20
31.6803770123
 11
538.4735615909
 21
31.7126406987
  0
LINE
  8
0
 62
7
  6
CONTINUOUS
 10
543.6188739807
 20
31.8416954444
 11
543.2719989807
 21
31.809431758
  0
LINE
  8
0
 62
7
  6
CONTINUOUS
 10
538.5891864807
 20
31.4867948937
 11
538.2423114807
 21
31.4545312073
  0
LINE
  8
0
 62
7
  6
CONTINUOUS
 10
534.3688739531
 20
31.8416954444
 11
534.0219989944
 21
31.809431758
  0
LINE
  8
0
 62
7
  6
CONTINUOUS
 10
538.4735615909
 20
31.8416954444
 11
538.0688739807
 21
31.809431758
  0
LINE
  8
0
 62
7
  6
CONTINUOUS
 10
535.8450778741
 20
33.7600770606
 11
535.1893401692
 21
33.7600770606
  0
LINE
  8
0
 62
7
  6
CONTINUOUS
 10
541.2485612601
 20
31.6158496394
 11
541.4219987601
 21
31.6803770123
  0
LINE
  8
0
 62
7
  6
CONTINUOUS
 10
543.2719989807
 20
31.6481133259
 11
543.3876242012
 21
31.6803770123
  0
LINE
  8
0
 62
7
  6
CONTINUOUS
 10
543.2719989807
 20
31.809431758
 11
543.0407492012
 21
31.7449043851
  0
LINE
  8
0
 62
7
  6
CONTINUOUS
 10
538.9938737601
 20
31.0028395296
 11
538.7048113704
 21
30.9383121455
  0
LINE
  8
0
 62
7
  6
CONTINUOUS
 10
536.2766863704
 20
31.6803770123
 11
536.5079364807
 21
31.7126406987
  0
LINE
  8
0
 62
7
  6
CONTINUOUS
 10
536.5079364807
 20
31.8416954444
 11
536.2766863704
 21
31.809431758
  0
LINE
  8
0
 62
7
  6
CONTINUOUS
 10
534.0798114807
 20
31.6803770123
 11
534.3110615082
 21
31.7126406987
  0
LINE
  8
0
 62
7
  6
CONTINUOUS
 10
540.5991762348
 20
35.2354868967
 11
541.2549139397
 21
35.2354868967
  0
LINE
  8
0
 62
7
  6
CONTINUOUS
 10
538.2423114807
 20
31.29321273
 11
538.3579363704
 21
31.3254764164
  0
LINE
  8
0
 62
7
  6
CONTINUOUS
 10
538.2423114807
 20
31.4545312073
 11
538.0110613704
 21
31.3900038345
  0
LINE
  8
0
 62
7
  6
CONTINUOUS
 10
538.1266865909
 20
31.6481133259
 11
538.2423114807
 21
31.6803770123
  0
LINE
  8
0
 62
7
  6
CONTINUOUS
 10
534.7735614807
 20
30.8415210777
 11
535.0048114255
 21
30.9060484591
  0
LINE
  8
0
 62
7
  6
CONTINUOUS
 10
538.0688739807
 20
31.809431758
 11
537.9532490909
 21
31.7771680715
  0
LINE
  8
0
 62
7
  6
CONTINUOUS
 10
534.0219989944
 20
31.809431758
 11
533.8485614944
 21
31.7771680715
  0
LINE
  8
0
 62
7
  6
CONTINUOUS
 10
544.7795041036
 20
36.3830278803
 11
543.3860614807
 21
36.3830278803
  0
LINE
  8
0
 62
7
  6
CONTINUOUS
 10
541.4188483659
 20
36.3830278803
 11
541.0062770173
 21
36.3830278803
  0
LINE
  8
0
 62
7
  6
CONTINUOUS
 10
539.7795041036
 20
36.3830278803
 11
538.3860614807
 21
36.3830278803
  0
LINE
  8
0
 62
7
  6
CONTINUOUS
 10
538.0581926282
 20
36.3830278803
 11
536.6647500053
 21
36.3830278803
  0
LINE
  8
0
 62
7
  6
CONTINUOUS
 10
534.7795041036
 20
36.3830278803
 11
533.3860614807
 21
36.3830278803
  0
LINE
  8
0
 62
7
  6
CONTINUOUS
 10
533.9641864669
 20
31.6481133259
 11
534.0798114807
 21
31.6803770123
  0
CIRCLE
  8
0
 62
7
  6
CONTINUOUS
 10
544.0827827921
 20
38.7190934541
 40
2.0901639344
  0
ARC
  8
0
 62
7
  6
CONTINUOUS
 10
535.025405743
 20
34.2518803393
 40
1.6393442623
 50
180.0
 51
270.0
  0
ARC
  8
0
 62
7
  6
CONTINUOUS
 10
541.4188483659
 20
34.743683618
 40
1.6393442623
 50
0.0
 51
90.0
  0
ARC
  8
0
 62
7
  6
CONTINUOUS
 10
535.4379770916
 20
34.0879459131
 40
1.4754098361
 50
270.0
 51
326.2510114041
  0
ARC
  8
0
 62
7
  6
CONTINUOUS
 10
541.0062770173
 20
34.9076180442
 40
1.4754098361
 50
90.0
 51
146.2510114041
  0
ARC
  8
0
 62
7
  6
CONTINUOUS
 10
535.8450778741
 20
34.5797491918
 40
0.8196721311
 50
270.0
 51
360.0
  0
ARC
  8
0
 62
7
  6
CONTINUOUS
 10
540.5991762348
 20
34.4158147655
 40
0.8196721311
 50
90.0
 51
180.0
  0
ARC
  8
0
 62
7
  6
CONTINUOUS
 10
535.1893401692
 20
34.1699131262
 40
0.4098360656
 50
180.0
 51
270.0
  0
ARC
  8
0
 62
7
  6
CONTINUOUS
 10
541.2549139397
 20
34.8256508311
 40
0.4098360656
 50
0.0
 51
90.0
  0
SOLID
  8
0
 62
7
  6
CONTINUOUS
 10
540.0923117012
 20
32.1643327593
 11
540.0923117012
 21
32.3256512429
 12
540.3813737601
 22
32.1643327593
 13
540.3813737601
 23
32.3256512429
  0
SOLID
  8
0
 62
7
  6
CONTINUOUS
 10
534.3688739531
 20
31.841695792
 11
534.7735614807
 21
31.8094316148
 12
534.0219989944
 22
31.8094316148
 13
534.0219989944
 23
31.8094316148
  0
SOLID
  8
0
 62
7
  6
CONTINUOUS
 10
533.8485614944
 20
31.7771687019
 11
534.0219989944
 21
31.8094316148
 12
534.7735614807
 22
31.8094316148
 13
534.7735614807
 23
31.8094316148
  0
SOLID
  8
0
 62
7
  6
CONTINUOUS
 10
534.7735614807
 20
31.8094316148
 11
535.0048114255
 21
31.7449043986
 12
533.8485614944
 22
31.7771687019
 13
533.8485614944
 23
31.7771687019
  0
SOLID
  8
0
 62
7
  6
CONTINUOUS
 10
533.6751239738
 20
31.712640202
 11
533.8485614944
 21
31.7771687019
 12
535.0048114255
 22
31.7449043986
 13
535.0048114255
 23
31.7449043986
  0
SOLID
  8
0
 62
7
  6
CONTINUOUS
 10
533.6751239738
 20
31.712640202
 11
535.0048114255
 21
31.7449043986
 12
534.3110615082
 22
31.712640202
 13
534.3110615082
 23
31.712640202
  0
SOLID
  8
0
 62
7
  6
CONTINUOUS
 10
534.3110615082
 20
31.712640202
 11
535.0048114255
 21
31.7449043986
 12
534.7157489531
 22
31.6803773084
 13
534.7157489531
 23
31.6803773084
  0
SOLID
  8
0
 62
7
  6
CONTINUOUS
 10
535.0048114255
 20
31.7449043986
 11
535.1782489255
 21
31.6481130052
 12
534.7157489531
 22
31.6803773084
 13
534.7157489531
 23
31.6803773084
  0
SOLID
  8
0
 62
7
  6
CONTINUOUS
 10
534.8891865358
 20
31.6158502183
 11
534.7157489531
 21
31.6803773084
 12
535.1782489255
 22
31.6481130052
 13
535.1782489255
 23
31.6481130052
  0
SOLID
  8
0
 62
7
  6
CONTINUOUS
 10
534.8891865358
 20
31.6158502183
 11
535.1782489255
 21
31.6481130052
 12
534.9469989807
 22
31.5190586669
 13
534.9469989807
 23
31.5190586669
  0
SOLID
  8
0
 62
7
  6
CONTINUOUS
 10
535.1782489255
 20
31.6481130052
 11
535.2360615358
 21
31.5190586669
 12
534.9469989807
 22
31.5190586669
 13
534.9469989807
 23
31.5190586669
  0
SOLID
  8
0
 62
7
  6
CONTINUOUS
 10
536.2766863704
 20
31.8094307377
 11
536.5079364807
 21
31.841695041
 12
536.7391865909
 22
31.841695041
 13
536.7391865909
 23
31.841695041
  0
SOLID
  8
0
 62
7
  6
CONTINUOUS
 10
536.7391865909
 20
31.841695041
 11
536.9126240909
 21
31.8094307377
 12
536.2766863704
 22
31.8094307377
 13
536.2766863704
 23
31.8094307377
  0
SOLID
  8
0
 62
7
  6
CONTINUOUS
 10
536.1032490358
 20
31.7449036475
 11
536.2766863704
 21
31.8094307377
 12
536.9126240909
 22
31.8094307377
 13
536.9126240909
 23
31.8094307377
  0
SOLID
  8
0
 62
7
  6
CONTINUOUS
 10
536.9126240909
 20
31.8094307377
 11
537.0860615909
 21
31.7449036475
 12
536.1032490358
 22
31.7449036475
 13
536.1032490358
 23
31.7449036475
  0
SOLID
  8
0
 62
7
  6
CONTINUOUS
 10
537.0860615909
 20
31.7449036475
 11
536.5079364807
 21
31.7126400953
 12
536.1032490358
 22
31.7449036475
 13
536.1032490358
 23
31.7449036475
  0
SOLID
  8
0
 62
7
  6
CONTINUOUS
 10
535.9876239807
 20
31.6803765574
 11
536.1032490358
 21
31.7449036475
 12
536.5079364807
 22
31.7126400953
 13
536.5079364807
 23
31.7126400953
  0
SOLID
  8
0
 62
7
  6
CONTINUOUS
 10
536.5079364807
 20
31.7126400953
 11
536.2766863704
 21
31.6803765574
 12
535.9876239807
 22
31.6803765574
 13
535.9876239807
 23
31.6803765574
  0
SOLID
  8
0
 62
7
  6
CONTINUOUS
 10
536.5079364807
 20
31.7126400953
 11
537.0860615909
 21
31.7449036475
 12
536.7391865909
 22
31.6803765574
 13
536.7391865909
 23
31.6803765574
  0
SOLID
  8
0
 62
7
  6
CONTINUOUS
 10
537.0860615909
 20
31.7449036475
 11
537.2016864807
 21
31.6803765574
 12
536.7391865909
 22
31.6803765574
 13
536.7391865909
 23
31.6803765574
  0
SOLID
  8
0
 62
7
  6
CONTINUOUS
 10
536.8548114807
 20
31.6481130052
 11
536.7391865909
 21
31.6803765574
 12
537.2016864807
 22
31.6803765574
 13
537.2016864807
 23
31.6803765574
  0
SOLID
  8
0
 62
7
  6
CONTINUOUS
 10
537.2016864807
 20
31.6803765574
 11
537.2594990909
 21
31.6158494672
 12
536.8548114807
 22
31.6481130052
 13
536.8548114807
 23
31.6481130052
  0
SOLID
  8
0
 62
7
  6
CONTINUOUS
 10
536.9704363704
 20
31.583585915
 11
536.8548114807
 21
31.6481130052
 12
537.2594990909
 22
31.6158494672
 13
537.2594990909
 23
31.6158494672
  0
SOLID
  8
0
 62
7
  6
CONTINUOUS
 10
536.9704363704
 20
31.583585915
 11
537.2594990909
 21
31.6158494672
 12
537.0282489807
 22
31.4545309836
 13
537.0282489807
 23
31.4545309836
  0
SOLID
  8
0
 62
7
  6
CONTINUOUS
 10
537.2594990909
 20
31.6158494672
 11
537.3173113704
 21
31.4545309836
 12
537.0282489807
 22
31.4545309836
 13
537.0282489807
 23
31.4545309836
  0
SOLID
  8
0
 62
7
  6
CONTINUOUS
 10
536.2766863704
 20
31.6803765574
 11
536.1032490358
 21
31.6158494672
 12
535.9876239807
 22
31.6803765574
 13
535.9876239807
 23
31.6803765574
  0
SOLID
  8
0
 62
7
  6
CONTINUOUS
 10
536.1032490358
 20
31.6158494672
 11
535.9876239807
 21
31.5513216117
 12
535.9876239807
 22
31.6803765574
 13
535.9876239807
 23
31.6803765574
  0
SOLID
  8
0
 62
7
  6
CONTINUOUS
 10
535.9876239807
 20
31.5513216117
 11
535.6985614255
 21
30.8092570492
 12
535.9876239807
 22
31.6803765574
 13
535.9876239807
 23
31.6803765574
  0
SOLID
  8
0
 62
7
  6
CONTINUOUS
 10
535.9876239807
 20
31.6803765574
 11
535.6985614255
 21
30.8092570492
 12
535.9876239807
 22
32.3256504918
 13
535.9876239807
 23
32.3256504918
  0
SOLID
  8
0
 62
7
  6
CONTINUOUS
 10
535.6985614255
 20
30.8092570492
 11
535.6985614255
 21
32.3256504918
 12
535.9876239807
 22
32.3256504918
 13
535.9876239807
 23
32.3256504918
  0
SOLID
  8
0
 62
7
  6
CONTINUOUS
 10
535.9876239807
 20
31.5513216117
 11
535.9876239807
 21
30.8092570492
 12
535.6985614255
 22
30.8092570492
 13
535.6985614255
 23
30.8092570492
  0
SOLID
  8
0
 62
7
  6
CONTINUOUS
 10
537.0282489807
 20
30.8092570492
 11
537.0282489807
 21
31.4545309836
 12
537.3173113704
 22
31.4545309836
 13
537.3173113704
 23
31.4545309836
  0
SOLID
  8
0
 62
7
  6
CONTINUOUS
 10
537.3173113704
 20
31.4545309836
 11
537.3173113704
 21
30.8092570492
 12
537.0282489807
 22
30.8092570492
 13
537.0282489807
 23
30.8092570492
  0
SOLID
  8
0
 62
7
  6
CONTINUOUS
 10
538.0688739807
 20
31.809431823
 11
538.4735615909
 21
31.8416958158
 12
538.8204365909
 22
31.8416958158
 13
538.8204365909
 23
31.8416958158
  0
SOLID
  8
0
 62
7
  6
CONTINUOUS
 10
538.8204365909
 20
31.8416958158
 11
539.1673112601
 21
31.809431823
 12
538.0688739807
 22
31.809431823
 13
538.0688739807
 23
31.809431823
  0
SOLID
  8
0
 62
7
  6
CONTINUOUS
 10
537.9532490909
 20
31.7771687019
 11
538.0688739807
 21
31.809431823
 12
539.1673112601
 22
31.809431823
 13
539.1673112601
 23
31.809431823
  0
SOLID
  8
0
 62
7
  6
CONTINUOUS
 10
539.1673112601
 20
31.809431823
 11
539.3407487601
 21
31.7449043986
 12
537.9532490909
 22
31.7771687019
 13
537.9532490909
 23
31.7771687019
  0
SOLID
  8
0
 62
7
  6
CONTINUOUS
 10
537.8376238704
 20
31.7126398448
 11
537.9532490909
 21
31.7771687019
 12
539.3407487601
 22
31.7449043986
 13
539.3407487601
 23
31.7449043986
  0
SOLID
  8
0
 62
7
  6
CONTINUOUS
 10
537.8376238704
 20
31.7126398448
 11
539.3407487601
 21
31.7449043986
 12
538.4735615909
 22
31.7126398448
 13
538.4735615909
 23
31.7126398448
  0
SOLID
  8
0
 62
7
  6
CONTINUOUS
 10
538.4735615909
 20
31.7126398448
 11
539.3407487601
 21
31.7449043986
 12
538.8204365909
 22
31.7126398448
 13
538.8204365909
 23
31.7126398448
  0
SOLID
  8
0
 62
7
  6
CONTINUOUS
 10
538.8204365909
 20
31.7126398448
 11
539.3407487601
 21
31.7449043986
 12
539.0516867012
 22
31.6803774007
 13
539.0516867012
 23
31.6803774007
  0
SOLID
  8
0
 62
7
  6
CONTINUOUS
 10
539.3407487601
 20
31.7449043986
 11
539.4563739807
 21
31.6803774007
 12
539.0516867012
 22
31.6803774007
 13
539.0516867012
 23
31.6803774007
  0
SOLID
  8
0
 62
7
  6
CONTINUOUS
 10
537.7798115909
 20
31.6481126336
 11
537.8376238704
 21
31.7126398448
 12
538.4735615909
 22
31.7126398448
 13
538.4735615909
 23
31.7126398448
  0
SOLID
  8
0
 62
7
  6
CONTINUOUS
 10
539.1673112601
 20
31.6481126336
 11
539.0516867012
 21
31.6803774007
 12
539.4563739807
 22
31.6803774007
 13
539.4563739807
 23
31.6803774007
  0
SOLID
  8
0
 62
7
  6
CONTINUOUS
 10
539.1673112601
 20
31.6481126336
 11
539.4563739807
 21
31.6803774007
 12
539.2251242012
 22
31.5835861968
 13
539.2251242012
 23
31.5835861968
  0
SOLID
  8
0
 62
7
  6
CONTINUOUS
 10
539.4563739807
 20
31.6803774007
 11
539.5141862601
 21
31.5835861968
 12
539.2251242012
 22
31.5835861968
 13
539.2251242012
 23
31.5835861968
  0
SOLID
  8
0
 62
7
  6
CONTINUOUS
 10
539.2251242012
 20
31.4867945216
 11
539.2251242012
 21
31.5835861968
 12
539.5141862601
 22
31.5835861968
 13
539.5141862601
 23
31.5835861968
  0
SOLID
  8
0
 62
7
  6
CONTINUOUS
 10
539.2251242012
 20
31.4867945216
 11
539.5141862601
 21
31.5835861968
 12
539.2251242012
 22
31.3577403412
 13
539.2251242012
 23
31.3577403412
  0
SOLID
  8
0
 62
7
  6
CONTINUOUS
 10
539.2251242012
 20
31.3577403412
 11
539.5141862601
 21
31.5835861968
 12
539.2251242012
 22
31.1641579843
 13
539.2251242012
 23
31.1641579843
  0
SOLID
  8
0
 62
7
  6
CONTINUOUS
 10
539.5141862601
 20
31.5835861968
 11
539.5141862601
 21
31.0673661609
 12
539.2251242012
 22
31.1641579843
 13
539.2251242012
 23
31.1641579843
  0
SOLID
  8
0
 62
7
  6
CONTINUOUS
 10
541.4219987601
 20
31.8094310465
 11
541.6532492012
 21
31.8416957661
 12
541.8844989807
 22
31.8416957661
 13
541.8844989807
 23
31.8416957661
  0
SOLID
  8
0
 62
7
  6
CONTINUOUS
 10
541.8844989807
 20
31.8416957661
 11
542.0579364807
 21
31.8094310465
 12
541.4219987601
 22
31.8094310465
 13
541.4219987601
 23
31.8094310465
  0
SOLID
  8
0
 62
7
  6
CONTINUOUS
 10
541.2485612601
 20
31.7449047044
 11
541.4219987601
 21
31.8094310465
 12
542.0579364807
 22
31.8094310465
 13
542.0579364807
 23
31.8094310465
  0
SOLID
  8
0
 62
7
  6
CONTINUOUS
 10
542.0579364807
 20
31.8094310465
 11
542.2313739807
 21
31.7449047044
 12
541.2485612601
 22
31.7449047044
 13
541.2485612601
 23
31.7449047044
  0
SOLID
  8
0
 62
7
  6
CONTINUOUS
 10
542.2313739807
 20
31.7449047044
 11
541.6532492012
 21
31.7126400953
 12
541.2485612601
 22
31.7449047044
 13
541.2485612601
 23
31.7449047044
  0
SOLID
  8
0
 62
7
  6
CONTINUOUS
 10
541.1329367012
 20
31.6803773299
 11
541.2485612601
 21
31.7449047044
 12
541.6532492012
 22
31.7126400953
 13
541.6532492012
 23
31.7126400953
  0
SOLID
  8
0
 62
7
  6
CONTINUOUS
 10
541.6532492012
 20
31.7126400953
 11
541.4219987601
 21
31.6803773299
 12
541.1329367012
 22
31.6803773299
 13
541.1329367012
 23
31.6803773299
  0
SOLID
  8
0
 62
7
  6
CONTINUOUS
 10
541.6532492012
 20
31.7126400953
 11
542.2313739807
 21
31.7449047044
 12
541.8844989807
 22
31.6803773299
 13
541.8844989807
 23
31.6803773299
  0
SOLID
  8
0
 62
7
  6
CONTINUOUS
 10
542.2313739807
 20
31.7449047044
 11
542.3469992012
 21
31.6803773299
 12
541.8844989807
 22
31.6803773299
 13
541.8844989807
 23
31.6803773299
  0
SOLID
  8
0
 62
7
  6
CONTINUOUS
 10
542.0001242012
 20
31.6481130052
 11
541.8844989807
 21
31.6803773299
 12
542.3469992012
 22
31.6803773299
 13
542.3469992012
 23
31.6803773299
  0
SOLID
  8
0
 62
7
  6
CONTINUOUS
 10
542.0001242012
 20
31.6481130052
 11
542.3469992012
 21
31.6803773299
 12
542.1157487601
 22
31.5835862682
 13
542.1157487601
 23
31.5835862682
  0
SOLID
  8
0
 62
7
  6
CONTINUOUS
 10
542.3469992012
 20
31.6803773299
 11
542.4048114807
 21
31.5835862682
 12
542.1157487601
 22
31.5835862682
 13
542.1157487601
 23
31.5835862682
  0
SOLID
  8
0
 62
7
  6
CONTINUOUS
 10
542.1735617012
 20
31.422267832
 11
542.1157487601
 21
31.5835862682
 12
542.4048114807
 22
31.5835862682
 13
542.4048114807
 23
31.5835862682
  0
SOLID
  8
0
 62
7
  6
CONTINUOUS
 10
542.4048114807
 20
31.5835862682
 11
542.4626237601
 21
31.422267832
 12
542.1735617012
 22
31.422267832
 13
542.1735617012
 23
31.422267832
  0
SOLID
  8
0
 62
7
  6
CONTINUOUS
 10
541.4219987601
 20
31.6803773299
 11
541.2485612601
 21
31.6158502183
 12
541.1329367012
 22
31.6803773299
 13
541.1329367012
 23
31.6803773299
  0
SOLID
  8
0
 62
7
  6
CONTINUOUS
 10
541.2485612601
 20
31.6158502183
 11
541.1329367012
 21
31.5513216117
 12
541.1329367012
 22
31.6803773299
 13
541.1329367012
 23
31.6803773299
  0
SOLID
  8
0
 62
7
  6
CONTINUOUS
 10
541.1329367012
 20
31.5513216117
 11
540.8438739807
 21
30.8092577743
 12
541.1329367012
 22
31.6803773299
 13
541.1329367012
 23
31.6803773299
  0
SOLID
  8
0
 62
7
  6
CONTINUOUS
 10
541.1329367012
 20
31.6803773299
 11
540.8438739807
 21
30.8092577743
 12
541.1329367012
 22
31.8416957661
 13
541.1329367012
 23
31.8416957661
  0
SOLID
  8
0
 62
7
  6
CONTINUOUS
 10
540.8438739807
 20
30.8092577743
 11
540.8438739807
 21
31.8416957661
 12
541.1329367012
 22
31.8416957661
 13
541.1329367012
 23
31.8416957661
  0
SOLID
  8
0
 62
7
  6
CONTINUOUS
 10
541.1329367012
 20
31.5513216117
 11
541.1329367012
 21
30.8092577743
 12
540.8438739807
 22
30.8092577743
 13
540.8438739807
 23
30.8092577743
  0
SOLID
  8
0
 62
7
  6
CONTINUOUS
 10
542.1735617012
 20
30.8092577743
 11
542.1735617012
 21
31.422267832
 12
542.4626237601
 22
31.422267832
 13
542.4626237601
 23
31.422267832
  0
SOLID
  8
0
 62
7
  6
CONTINUOUS
 10
542.4626237601
 20
31.422267832
 11
542.4626237601
 21
30.8092577743
 12
542.1735617012
 22
30.8092577743
 13
542.1735617012
 23
30.8092577743
  0
SOLID
  8
0
 62
7
  6
CONTINUOUS
 10
543.2719989807
 20
31.8094314924
 11
543.6188739807
 21
31.8416958387
 12
543.9657489807
 22
31.8416958387
 13
543.9657489807
 23
31.8416958387
  0
SOLID
  8
0
 62
7
  6
CONTINUOUS
 10
543.9657489807
 20
31.8416958387
 11
544.3126239807
 21
31.8094314924
 12
543.2719989807
 22
31.8094314924
 13
543.2719989807
 23
31.8094314924
  0
SOLID
  8
0
 62
7
  6
CONTINUOUS
 10
543.0407492012
 20
31.7449043986
 11
543.2719989807
 21
31.8094314924
 12
544.3126239807
 22
31.8094314924
 13
544.3126239807
 23
31.8094314924
  0
SOLID
  8
0
 62
7
  6
CONTINUOUS
 10
543.0407492012
 20
31.7449043986
 11
544.3126239807
 21
31.8094314888
 12
544.4860614807
 22
31.7771687019
 13
544.4860614807
 23
31.7771687019
  0
SOLID
  8
0
 62
7
  6
CONTINUOUS
 10
543.0407492012
 20
31.7449043986
 11
544.4860614807
 21
31.7771687019
 12
543.6188739807
 22
31.7126401399
 13
543.6188739807
 23
31.7126401399
  0
SOLID
  8
0
 62
7
  6
CONTINUOUS
 10
543.6188739807
 20
31.7126401399
 11
544.4860614807
 21
31.7771687019
 12
543.9657489807
 22
31.7126401399
 13
543.9657489807
 23
31.7126401399
  0
SOLID
  8
0
 62
7
  6
CONTINUOUS
 10
544.4860614807
 20
31.7771687019
 11
544.6594989807
 21
31.7126401399
 12
543.9657489807
 22
31.7126401399
 13
543.9657489807
 23
31.7126401399
  0
SOLID
  8
0
 62
7
  6
CONTINUOUS
 10
544.3126239807
 20
31.6803773084
 11
543.9657489807
 21
31.7126401399
 12
544.6594989807
 22
31.7126401399
 13
544.6594989807
 23
31.7126401399
  0
SOLID
  8
0
 62
7
  6
CONTINUOUS
 10
542.9251239807
 20
31.6481128977
 11
543.0407492012
 21
31.7449043986
 12
543.6188739807
 22
31.7126401399
 13
543.6188739807
 23
31.7126401399
  0
SOLID
  8
0
 62
7
  6
CONTINUOUS
 10
544.3126239807
 20
31.6803773084
 11
544.6594989807
 21
31.7126401399
 12
544.4282492012
 22
31.6481128977
 13
544.4282492012
 23
31.6481128977
  0
SOLID
  8
0
 62
7
  6
CONTINUOUS
 10
544.4282492012
 20
31.6481128977
 11
544.6594989807
 21
31.7126401399
 12
544.4860614807
 22
31.5835858812
 13
544.4860614807
 23
31.5835858812
  0
SOLID
  8
0
 62
7
  6
CONTINUOUS
 10
544.6594989807
 20
31.7126401399
 11
544.7751235396
 21
31.5835858812
 12
544.4860614807
 22
31.5835858812
 13
544.4860614807
 23
31.5835858812
  0
SOLID
  8
0
 62
7
  6
CONTINUOUS
 10
534.0798114807
 20
31.6803773084
 11
533.5594989807
 21
31.6481129264
 12
534.3110615082
 22
31.7126401456
 13
534.3110615082
 23
31.7126401456
  0
SOLID
  8
0
 62
7
  6
CONTINUOUS
 10
533.5594989807
 20
31.6481129264
 11
533.6751239738
 21
31.7126401456
 12
534.3110615082
 22
31.7126401456
 13
534.3110615082
 23
31.7126401456
  0
SOLID
  8
0
 62
7
  6
CONTINUOUS
 10
534.0798114807
 20
31.6803773084
 11
533.9641864669
 21
31.6481129264
 12
533.5594989807
 22
31.6481129264
 13
533.5594989807
 23
31.6481129264
  0
SOLID
  8
0
 62
7
  6
CONTINUOUS
 10
533.4438739824
 20
31.5190588248
 11
533.5594989807
 21
31.6481129264
 12
533.9641864669
 22
31.6481129264
 13
533.9641864669
 23
31.6481129264
  0
SOLID
  8
0
 62
7
  6
CONTINUOUS
 10
537.7798115909
 20
31.6481130555
 11
538.4735615909
 21
31.7126400953
 12
538.2423114807
 22
31.6803773084
 13
538.2423114807
 23
31.6803773084
  0
SOLID
  8
0
 62
7
  6
CONTINUOUS
 10
538.2423114807
 20
31.6803773084
 11
538.1266865909
 21
31.6481130555
 12
537.7798115909
 22
31.6481130555
 13
537.7798115909
 23
31.6481130555
  0
SOLID
  8
0
 62
7
  6
CONTINUOUS
 10
537.7798115909
 20
31.5835859653
 11
537.7798115909
 21
31.6481130555
 12
538.1266865909
 22
31.6481130555
 13
538.1266865909
 23
31.6481130555
  0
SOLID
  8
0
 62
7
  6
CONTINUOUS
 10
538.1266865909
 20
31.6481130555
 11
538.0688739807
 21
31.5835859653
 12
537.7798115909
 22
31.5835859653
 13
537.7798115909
 23
31.5835859653
  0
SOLID
  8
0
 62
7
  6
CONTINUOUS
 10
542.9251239807
 20
31.6481130555
 11
543.6188739807
 21
31.7126400953
 12
543.3876242012
 22
31.6803773084
 13
543.3876242012
 23
31.6803773084
  0
SOLID
  8
0
 62
7
  6
CONTINUOUS
 10
543.3876242012
 20
31.6803773084
 11
543.2719989807
 21
31.6481130555
 12
542.9251239807
 22
31.6481130555
 13
542.9251239807
 23
31.6481130555
  0
SOLID
  8
0
 62
7
  6
CONTINUOUS
 10
542.9251239807
 20
31.5835859653
 11
542.9251239807
 21
31.6481130555
 12
543.2719989807
 22
31.6481130555
 13
543.2719989807
 23
31.6481130555
  0
SOLID
  8
0
 62
7
  6
CONTINUOUS
 10
543.2719989807
 20
31.6481130555
 11
543.2141867012
 21
31.5835859653
 12
542.9251239807
 22
31.5835859653
 13
542.9251239807
 23
31.5835859653
  0
SOLID
  8
0
 62
7
  6
CONTINUOUS
 10
543.0407492012
 20
31.4545317347
 11
542.9251239807
 21
31.5835859653
 12
543.2141867012
 22
31.5835859653
 13
543.2141867012
 23
31.5835859653
  0
SOLID
  8
0
 62
7
  6
CONTINUOUS
 10
533.4438739824
 20
31.5190588248
 11
533.9641864669
 21
31.6481130052
 12
533.7907489669
 22
31.5513216117
 13
533.7907489669
 23
31.5513216117
  0
SOLID
  8
0
 62
7
  6
CONTINUOUS
 10
533.7907489669
 20
31.5513216117
 11
533.7329364807
 21
31.4867945216
 12
533.4438739824
 22
31.5190588248
 13
533.4438739824
 23
31.5190588248
  0
SOLID
  8
0
 62
7
  6
CONTINUOUS
 10
533.3860614807
 20
31.325476038
 11
533.4438739824
 21
31.5190588248
 12
533.7329364807
 22
31.4867945216
 13
533.7329364807
 23
31.4867945216
  0
SOLID
  8
0
 62
7
  6
CONTINUOUS
 10
538.2423114807
 20
31.4545317347
 11
538.5891864807
 21
31.4867945557
 12
539.2251242012
 22
31.4867945557
 13
539.2251242012
 23
31.4867945557
  0
SOLID
  8
0
 62
7
  6
CONTINUOUS
 10
538.2423114807
 20
31.4545317347
 11
539.2251242012
 21
31.4867945557
 12
538.0110613704
 22
31.3900038345
 13
538.0110613704
 23
31.3900038345
  0
SOLID
  8
0
 62
7
  6
CONTINUOUS
 10
538.0110613704
 20
31.3900038345
 11
539.2251242012
 21
31.4867945557
 12
538.5891864807
 22
31.3577403754
 13
538.5891864807
 23
31.3577403754
  0
SOLID
  8
0
 62
7
  6
CONTINUOUS
 10
539.2251242012
 20
31.4867945557
 11
539.2251242012
 21
31.3577403754
 12
538.5891864807
 22
31.3577403754
 13
538.5891864807
 23
31.3577403754
  0
SOLID
  8
0
 62
7
  6
CONTINUOUS
 10
543.0407492012
 20
31.4545313481
 11
543.2141867012
 21
31.583585915
 12
543.2719989807
 22
31.5190588248
 13
543.2719989807
 23
31.5190588248
  0
SOLID
  8
0
 62
7
  6
CONTINUOUS
 10
543.2719989807
 20
31.5190588248
 11
543.4454364807
 21
31.4545313481
 12
543.0407492012
 22
31.4545313481
 13
543.0407492012
 23
31.4545313481
  0
SOLID
  8
0
 62
7
  6
CONTINUOUS
 10
543.2719989807
 20
31.3577403412
 11
543.0407492012
 21
31.4545313481
 12
543.4454364807
 22
31.4545313481
 13
543.4454364807
 23
31.4545313481
  0
SOLID
  8
0
 62
7
  6
CONTINUOUS
 10
543.4454364807
 20
31.4545313481
 11
544.4282492012
 21
31.2932132511
 12
543.2719989807
 22
31.3577403412
 13
543.2719989807
 23
31.3577403412
  0
SOLID
  8
0
 62
7
  6
CONTINUOUS
 10
544.2548117012
 20
31.1964222346
 11
543.2719989807
 21
31.3577403412
 12
544.4282492012
 22
31.2932132511
 13
544.4282492012
 23
31.2932132511
  0
SOLID
  8
0
 62
7
  6
CONTINUOUS
 10
544.4282492012
 20
31.2932132511
 11
544.6594989807
 21
31.1964222346
 12
544.2548117012
 22
31.1964222346
 13
544.2548117012
 23
31.1964222346
  0
SOLID
  8
0
 62
7
  6
CONTINUOUS
 10
544.4282492012
 20
31.1318947675
 11
544.2548117012
 21
31.1964222346
 12
544.6594989807
 22
31.1964222346
 13
544.6594989807
 23
31.1964222346
  0
SOLID
  8
0
 62
7
  6
CONTINUOUS
 10
544.4282492012
 20
31.1318947675
 11
544.6594989807
 21
31.1964222346
 12
544.4860614807
 22
31.0673665164
 13
544.4860614807
 23
31.0673665164
  0
SOLID
  8
0
 62
7
  6
CONTINUOUS
 10
544.6594989807
 20
31.1964222346
 11
544.7751235396
 21
31.0673665164
 12
544.4860614807
 22
31.0673665164
 13
544.4860614807
 23
31.0673665164
  0
SOLID
  8
0
 62
7
  6
CONTINUOUS
 10
544.4282492012
 20
31.0028394316
 11
544.4860614807
 21
31.0673665164
 12
544.7751235396
 22
31.0673665164
 13
544.7751235396
 23
31.0673665164
  0
SOLID
  8
0
 62
7
  6
CONTINUOUS
 10
544.7751235396
 20
31.0673665164
 11
544.7751235396
 21
31.0028394316
 12
544.4282492012
 22
31.0028394316
 13
544.4282492012
 23
31.0028394316
  0
SOLID
  8
0
 62
7
  6
CONTINUOUS
 10
544.3126239807
 20
30.9705762839
 11
544.4282492012
 21
31.0028394316
 12
544.7751235396
 22
31.0028394316
 13
544.7751235396
 23
31.0028394316
  0
SOLID
  8
0
 62
7
  6
CONTINUOUS
 10
544.3126239807
 20
30.9705762839
 11
544.7751235396
 21
31.0028394316
 12
544.0813742012
 22
30.9383123468
 13
544.0813742012
 23
30.9383123468
  0
SOLID
  8
0
 62
7
  6
CONTINUOUS
 10
544.7751235396
 20
31.0028394316
 11
544.6594989807
 21
30.9060491937
 12
544.0813742012
 22
30.9383123468
 13
544.0813742012
 23
30.9383123468
  0
SOLID
  8
0
 62
7
  6
CONTINUOUS
 10
544.6594989807
 20
30.9060491937
 11
543.2141867012
 21
30.8737848904
 12
544.0813742012
 22
30.9383123468
 13
544.0813742012
 23
30.9383123468
  0
SOLID
  8
0
 62
7
  6
CONTINUOUS
 10
544.0813742012
 20
30.9383123468
 11
543.2141867012
 21
30.8737848904
 12
543.7344992012
 22
30.9383123468
 13
543.7344992012
 23
30.9383123468
  0
SOLID
  8
0
 62
7
  6
CONTINUOUS
 10
543.2141867012
 20
30.8737848904
 11
543.0407492012
 21
30.9383123468
 12
543.7344992012
 22
30.9383123468
 13
543.7344992012
 23
30.9383123468
  0
SOLID
  8
0
 62
7
  6
CONTINUOUS
 10
543.2141867012
 20
30.8737848904
 11
544.6594989807
 21
30.9060491937
 12
543.3876242012
 22
30.8415205581
 13
543.3876242012
 23
30.8415205581
  0
SOLID
  8
0
 62
7
  6
CONTINUOUS
 10
544.6594989807
 20
30.9060491937
 11
544.4282492012
 21
30.8415205581
 12
543.3876242012
 22
30.8415205581
 13
543.3876242012
 23
30.8415205581
  0
SOLID
  8
0
 62
7
  6
CONTINUOUS
 10
543.7344992012
 20
30.8092581772
 11
543.3876242012
 21
30.8415205581
 12
544.4282492012
 22
30.8415205581
 13
544.4282492012
 23
30.8415205581
  0
SOLID
  8
0
 62
7
  6
CONTINUOUS
 10
544.4282492012
 20
30.8415205581
 11
544.0813742012
 21
30.8092581772
 12
543.7344992012
 22
30.8092581772
 13
543.7344992012
 23
30.8092581772
  0
SOLID
  8
0
 62
7
  6
CONTINUOUS
 10
533.3860614807
 20
31.325476038
 11
533.7329364807
 21
31.4867945216
 12
533.6751239738
 22
31.3577403412
 13
533.6751239738
 23
31.3577403412
  0
SOLID
  8
0
 62
7
  6
CONTINUOUS
 10
533.6751239738
 20
31.3577403412
 11
533.6751239738
 21
31.2609490436
 12
533.3860614807
 22
31.325476038
 13
533.3860614807
 23
31.325476038
  0
SOLID
  8
0
 62
7
  6
CONTINUOUS
 10
533.4438739824
 20
31.1318947675
 11
533.3860614807
 21
31.325476038
 12
533.6751239738
 22
31.2609490436
 13
533.6751239738
 23
31.2609490436
  0
SOLID
  8
0
 62
7
  6
CONTINUOUS
 10
533.6751239738
 20
31.2609490436
 11
533.7907489669
 21
31.0996304642
 12
533.4438739824
 22
31.1318947675
 13
533.4438739824
 23
31.1318947675
  0
SOLID
  8
0
 62
7
  6
CONTINUOUS
 10
533.5594989807
 20
31.0028388804
 11
533.4438739824
 21
31.1318947675
 12
533.7907489669
 22
31.0996304642
 13
533.7907489669
 23
31.0996304642
  0
SOLID
  8
0
 62
7
  6
CONTINUOUS
 10
533.7907489669
 20
31.0996304642
 11
533.9641864669
 21
31.0028388804
 12
533.5594989807
 22
31.0028388804
 13
533.5594989807
 23
31.0028388804
  0
SOLID
  8
0
 62
7
  6
CONTINUOUS
 10
533.6751239738
 20
30.9383122606
 11
533.5594989807
 21
31.0028388804
 12
533.9641864669
 22
31.0028388804
 13
533.9641864669
 23
31.0028388804
  0
SOLID
  8
0
 62
7
  6
CONTINUOUS
 10
533.9641864669
 20
31.0028388804
 11
534.3110615082
 21
30.9383122606
 12
533.6751239738
 22
30.9383122606
 13
533.6751239738
 23
30.9383122606
  0
SOLID
  8
0
 62
7
  6
CONTINUOUS
 10
533.8485614944
 20
30.8737848904
 11
533.6751239738
 21
30.9383122606
 12
534.3110615082
 22
30.9383122606
 13
534.3110615082
 23
30.9383122606
  0
SOLID
  8
0
 62
7
  6
CONTINUOUS
 10
537.8954364807
 20
31.3254759532
 11
538.0110613704
 21
31.3900038345
 12
538.5891864807
 22
31.3577403412
 13
538.5891864807
 23
31.3577403412
  0
SOLID
  8
0
 62
7
  6
CONTINUOUS
 10
538.5891864807
 20
31.3577403412
 11
538.3579363704
 21
31.3254759532
 12
537.8954364807
 22
31.3254759532
 13
537.8954364807
 23
31.3254759532
  0
SOLID
  8
0
 62
7
  6
CONTINUOUS
 10
537.7798115909
 20
31.1964218576
 11
537.8954364807
 21
31.3254759532
 12
538.3579363704
 22
31.3254759532
 13
538.3579363704
 23
31.3254759532
  0
SOLID
  8
0
 62
7
  6
CONTINUOUS
 10
538.1266865909
 20
31.2286853572
 11
537.7798115909
 21
31.1964218576
 12
538.2423114807
 22
31.2932132511
 13
538.2423114807
 23
31.2932132511
  0
SOLID
  8
0
 62
7
  6
CONTINUOUS
 10
537.7798115909
 20
31.1964218576
 11
538.3579363704
 21
31.325476038
 12
538.2423114807
 22
31.2932132511
 13
538.2423114807
 23
31.2932132511
  0
SOLID
  8
0
 62
7
  6
CONTINUOUS
 10
538.1266865909
 20
31.2286853572
 11
538.0688739807
 21
31.1318947675
 12
537.7798115909
 22
31.1964218576
 13
537.7798115909
 23
31.1964218576
  0
SOLID
  8
0
 62
7
  6
CONTINUOUS
 10
537.7798115909
 20
31.0996304642
 11
537.7798115909
 21
31.1964218576
 12
538.0688739807
 22
31.1318947675
 13
538.0688739807
 23
31.1318947675
  0
SOLID
  8
0
 62
7
  6
CONTINUOUS
 10
538.0688739807
 20
31.1318947675
 11
538.0688739807
 21
31.0673661609
 12
537.7798115909
 22
31.0996304642
 13
537.7798115909
 23
31.0996304642
  0
SOLID
  8
0
 62
7
  6
CONTINUOUS
 10
537.8376238704
 20
30.9705762839
 11
537.7798115909
 21
31.0996304642
 12
538.0688739807
 22
31.0673661609
 13
538.0688739807
 23
31.0673661609
  0
SOLID
  8
0
 62
7
  6
CONTINUOUS
 10
539.2251242012
 20
31.1641579843
 11
539.5141862601
 21
31.0673661609
 12
539.1673112601
 22
31.0996304642
 13
539.1673112601
 23
31.0996304642
  0
SOLID
  8
0
 62
7
  6
CONTINUOUS
 10
538.9938737601
 20
31.0028390707
 11
539.1673112601
 21
31.0996304642
 12
539.5141862601
 22
31.0673661609
 13
539.5141862601
 23
31.0673661609
  0
SOLID
  8
0
 62
7
  6
CONTINUOUS
 10
538.9938737601
 20
31.0028390707
 11
539.5141862601
 21
31.0673661609
 12
539.2251242012
 22
30.9705762839
 13
539.2251242012
 23
30.9705762839
  0
SOLID
  8
0
 62
7
  6
CONTINUOUS
 10
539.5141862601
 20
31.0673661609
 11
539.5719992012
 21
30.9060491937
 12
539.2251242012
 22
30.9705762839
 13
539.2251242012
 23
30.9705762839
  0
SOLID
  8
0
 62
7
  6
CONTINUOUS
 10
539.2829364807
 20
30.8737848904
 11
539.2251242012
 21
30.9705762839
 12
539.5719992012
 22
30.9060491937
 13
539.5719992012
 23
30.9060491937
  0
SOLID
  8
0
 62
7
  6
CONTINUOUS
 10
539.2829364807
 20
30.8737848904
 11
539.5719992012
 21
30.9060491937
 12
539.3407487601
 22
30.8092576254
 13
539.3407487601
 23
30.8092576254
  0
SOLID
  8
0
 62
7
  6
CONTINUOUS
 10
539.5719992012
 20
30.9060491937
 11
539.6298114807
 21
30.8092576254
 12
539.3407487601
 22
30.8092576254
 13
539.3407487601
 23
30.8092576254
  0
SOLID
  8
0
 62
7
  6
CONTINUOUS
 10
534.8891865358
 20
31.035103216
 11
534.9469989807
 21
31.1318946289
 12
535.2360615358
 22
31.1318946289
 13
535.2360615358
 23
31.1318946289
  0
SOLID
  8
0
 62
7
  6
CONTINUOUS
 10
535.2360615358
 20
31.1318946289
 11
535.1782489255
 21
31.0028390707
 12
534.8891865358
 22
31.035103216
 13
534.8891865358
 23
31.035103216
  0
SOLID
  8
0
 62
7
  6
CONTINUOUS
 10
534.7157489531
 20
30.9705762839
 11
534.8891865358
 21
31.035103216
 12
535.1782489255
 22
31.0028390707
 13
535.1782489255
 23
31.0028390707
  0
SOLID
  8
0
 62
7
  6
CONTINUOUS
 10
534.7157489531
 20
30.9705762839
 11
535.1782489255
 21
31.0028390707
 12
534.3110615082
 22
30.9383119806
 13
534.3110615082
 23
30.9383119806
  0
SOLID
  8
0
 62
7
  6
CONTINUOUS
 10
535.1782489255
 20
31.0028390707
 11
535.0048114255
 21
30.9060491937
 12
534.3110615082
 22
30.9383119806
 13
534.3110615082
 23
30.9383119806
  0
SOLID
  8
0
 62
7
  6
CONTINUOUS
 10
533.8485614944
 20
30.8737848904
 11
534.3110615082
 21
30.9383119806
 12
535.0048114255
 22
30.9060491937
 13
535.0048114255
 23
30.9060491937
  0
SOLID
  8
0
 62
7
  6
CONTINUOUS
 10
533.8485614944
 20
30.8737848904
 11
535.0048114255
 21
30.9060491937
 12
534.0219989944
 22
30.8415207131
 13
534.0219989944
 23
30.8415207131
  0
SOLID
  8
0
 62
7
  6
CONTINUOUS
 10
535.0048114255
 20
30.9060491937
 11
534.7735614807
 21
30.8415207131
 12
534.0219989944
 22
30.8415207131
 13
534.0219989944
 23
30.8415207131
  0
SOLID
  8
0
 62
7
  6
CONTINUOUS
 10
534.3688739531
 20
30.8092578002
 11
534.0219989944
 21
30.8415207131
 12
534.7735614807
 22
30.8415207131
 13
534.7735614807
 23
30.8415207131
  0
SOLID
  8
0
 62
7
  6
CONTINUOUS
 10
537.8376238704
 20
30.9705762839
 11
538.0688739807
 21
31.0673661609
 12
538.1266865909
 22
31.0028390707
 13
538.1266865909
 23
31.0028390707
  0
SOLID
  8
0
 62
7
  6
CONTINUOUS
 10
538.1266865909
 20
31.0028390707
 11
538.3579363704
 21
30.9383119806
 12
537.8376238704
 22
30.9705762839
 13
537.8376238704
 23
30.9705762839
  0
SOLID
  8
0
 62
7
  6
CONTINUOUS
 10
538.0110613704
 20
30.8737848904
 11
537.8376238704
 21
30.9705762839
 12
538.3579363704
 22
30.9383119806
 13
538.3579363704
 23
30.9383119806
  0
SOLID
  8
0
 62
7
  6
CONTINUOUS
 10
538.7048113704
 20
30.9383119664
 11
538.9938737601
 21
31.0028390707
 12
539.2251242012
 22
30.9705762839
 13
539.2251242012
 23
30.9705762839
  0
SOLID
  8
0
 62
7
  6
CONTINUOUS
 10
539.2251242012
 20
30.9705762839
 11
539.1673112601
 21
30.9060491937
 12
538.7048113704
 22
30.9383119664
 13
538.7048113704
 23
30.9383119664
  0
SOLID
  8
0
 62
7
  6
CONTINUOUS
 10
539.1673112601
 20
30.9060491937
 11
538.0110613704
 21
30.8737848904
 12
538.7048113704
 22
30.9383119664
 13
538.7048113704
 23
30.9383119664
  0
SOLID
  8
0
 62
7
  6
CONTINUOUS
 10
538.0110613704
 20
30.8737848904
 11
538.3579363704
 21
30.9383119664
 12
538.7048113704
 22
30.9383119664
 13
538.7048113704
 23
30.9383119664
  0
SOLID
  8
0
 62
7
  6
CONTINUOUS
 10
538.0110613704
 20
30.8737848904
 11
539.1673112601
 21
30.9060491937
 12
538.1266865909
 22
30.8415205568
 13
538.1266865909
 23
30.8415205568
  0
SOLID
  8
0
 62
7
  6
CONTINUOUS
 10
539.1673112601
 20
30.9060491937
 11
538.9938737601
 21
30.8415205568
 12
538.1266865909
 22
30.8415205568
 13
538.1266865909
 23
30.8415205568
  0
SOLID
  8
0
 62
7
  6
CONTINUOUS
 10
538.3579363704
 20
30.8092577215
 11
538.1266865909
 21
30.8415205568
 12
538.9938737601
 22
30.8415205568
 13
538.9938737601
 23
30.8415205568
  0
SOLID
  8
0
 62
7
  6
CONTINUOUS
 10
538.9938737601
 20
30.8415205568
 11
538.7048113704
 21
30.8092577215
 12
538.3579363704
 22
30.8092577215
 13
538.3579363704
 23
30.8092577215
  0
SOLID
  8
0
 62
7
  6
CONTINUOUS
 10
543.3876242012
 20
30.9705762839
 11
543.0407492012
 21
30.9383119664
 12
543.2719989807
 22
31.0028390707
 13
543.2719989807
 23
31.0028390707
  0
SOLID
  8
0
 62
7
  6
CONTINUOUS
 10
543.2719989807
 20
31.0028390707
 11
543.0407492012
 21
30.9383119664
 12
543.2141867012
 22
31.0673661467
 13
543.2141867012
 23
31.0673661467
  0
SOLID
  8
0
 62
7
  6
CONTINUOUS
 10
543.0407492012
 20
30.9383119664
 11
542.9251239807
 21
31.0673661467
 12
543.2141867012
 22
31.0673661467
 13
543.2141867012
 23
31.0673661467
  0
SOLID
  8
0
 62
7
  6
CONTINUOUS
 10
543.3876242012
 20
30.9705762839
 11
543.7344992012
 21
30.9383119664
 12
543.0407492012
 22
30.9383119664
 13
543.0407492012
 23
30.9383119664
  0
SOLID
  8
0
 62
7
  6
CONTINUOUS
 10
540.0923117012
 20
30.8092578002
 11
540.0923117012
 21
31.841695792
 12
540.3813737601
 22
30.8092578002
 13
540.3813737601
 23
31.841695792
  0
ENDBLK
  8
0
  6
BYBLOCK
 62
0
  0
BLOCK
  8
0
 62
2
  6
CONTINUOUS
  2
AMMEAAL_LOGO_BL0
 70
64
 10
416.1419631151
 20
19.7009994242
  0
TEXT
  8
0
 62
7
  6
CONTINUOUS
 10
402.4066669574
 20
19.0744135318
  7
TEXTSTYLE_3
 40
2.7338706658
  1
Ammeraal Beltech
 41
1.0
 51
15.0
 72
0
  0
TEXT
  8
0
 62
7
  6
CONTINUOUS
 10
413.2074677831
 20
16.800876859
  7
TEXTSTYLE_4
 40
1.0935482663
  1
Innovation & Service in Belting
 41
1.0
 72
0
  0
LINE
  8
0
 62
7
  6
CONTINUOUS
 10
396.382126306
 20
19.8410068404
 11
397.1602782994
 21
23.5019241381
  0
LINE
  8
0
 62
7
  6
CONTINUOUS
 10
407.2554465892
 20
27.1653180497
 11
397.6480960424
 21
24.0437006284
  0
LINE
  8
0
 62
7
  6
CONTINUOUS
 10
396.6074096383
 20
19.1476560374
 11
404.1144848995
 21
12.3882551114
  0
LINE
  8
0
 62
7
  6
CONTINUOUS
 10
396.869944049
 20
20.3827833308
 11
407.6782134142
 21
23.8946029297
  0
LINE
  8
0
 62
7
  6
CONTINUOUS
 10
407.674008277
 20
13.544814366
 11
399.2285486083
 21
21.1491404077
  0
LINE
  8
0
 62
7
  6
CONTINUOUS
 10
408.1938309968
 20
26.320392934
 11
407.2172714596
 21
21.7260415315
  0
LINE
  8
0
 62
7
  6
CONTINUOUS
 10
406.5174695119
 20
18.4337322177
 11
405.8310213004
 21
15.2042472933
  0
LINE
  8
0
 62
7
  6
CONTINUOUS
 10
408.8749270954
 20
13.9350165436
 11
409.831158631
 21
18.4337322177
  0
LINE
  8
0
 62
7
  6
CONTINUOUS
 10
410.5309605787
 20
21.7260415315
 11
410.9752023811
 21
23.8160348909
  0
LINE
  8
0
 62
7
  6
CONTINUOUS
 10
404.8275859748
 20
12.2366807987
 11
408.3871093524
 21
13.3932400533
  0
LINE
  8
0
 62
7
  6
CONTINUOUS
 10
407.9685476645
 20
27.013743737
 11
410.7499190488
 21
24.5093856939
  0
ARC
  8
0
 62
7
  6
CONTINUOUS
 10
397.8733793747
 20
23.3503498254
 40
0.7290321776
 50
108.0
 51
168.0
  0
ARC
  8
0
 62
7
  6
CONTINUOUS
 10
407.4807299215
 20
26.4719672466
 40
0.7290321776
 50
348.0
 51
108.0
  0
ARC
  8
0
 62
7
  6
CONTINUOUS
 10
410.2621013058
 20
23.9676092036
 40
0.7290321776
 50
348.0
 51
48.0
  0
ARC
  8
0
 62
7
  6
CONTINUOUS
 10
404.6023026425
 20
12.9300316018
 40
0.7290321776
 50
228.0
 51
288.0
  0
ARC
  8
0
 62
7
  6
CONTINUOUS
 10
397.0952273813
 20
19.6894325277
 40
0.7290321776
 50
108.0
 51
228.0
  0
ARC
  8
0
 62
7
  6
CONTINUOUS
 10
408.1618260201
 20
14.0865908563
 40
0.7290321776
 50
228.0
 51
348.0
  0
ENDBLK
  8
0
  6
BYBLOCK
 62
0
  0
ENDSEC
  0
SECTION
  2
ENTITIES
  0
TEXT
  8
0
 62
5
  6
CONTINUOUS
 10
480.0
 20
25.636
  7
TEXTSTYLE_2
 40
2.8
  1
Scale :
 41
0.6
 51
0.000019
 72
0
  0
TEXT
  8
0
 62
5
  6
CONTINUOUS
 10
500.0
 20
25.636
  7
TEXTSTYLE_2
 40
2.8
  1
Belt type:
 41
0.6
 51
0.000019
 72
0
  0
INSERT
  8
0
 62
2
  6
CONTINUOUS
  2
AMMEAAL_LOGO_BL0
 10
416.1419631151
 20
19.7009994242
  0
INSERT
  8
0
 62
2
  6
CONTINUOUS
  2
UNI_LOGO2_BL1
 10
557.4079930916
 20
35.8092573885
  0
LINE
  8
0
 62
2
  6
CONTINUOUS
 10
394.0
 20
30.0
 11
584.0
 21
30.0
  0
LINE
  8
0
 62
2
  6
CONTINUOUS
 10
394.0
 20
30.0
 11
394.0
 21
10.0
  0
LINE
  8
0
 62
2
  6
CONTINUOUS
 10
394.0
 20
10.0
 11
584.0
 21
10.0
  0
LINE
  8
0
 62
2
  6
CONTINUOUS
 10
479.0
 20
30.0
 11
479.0
 21
10.0
  0
LINE
  8
0
 62
2
  6
CONTINUOUS
 10
499.0
 20
30.0
 11
499.0
 21
10.0
  0
LINE
  8
0
 62
2
  6
CONTINUOUS
 10
584.0
 20
30.0
 11
584.0
 21
10.0
  0
TEXT
  8
0
 62
5
  6
CONTINUOUS
 10
397.0
 20
23.303
  7
TEXTSTYLE_5
 40
1.52
  1
                                                                     Ammeraal Beltech Modular A/S
 41
1.0
 72
0
  0
TEXT
  8
0
 62
5
  6
CONTINUOUS
 10
397.0
 20
20.595
  7
TEXTSTYLE_5
 40
1.5
  1
                                                                      Hjulmagervej 21, 7100 Vejle,  DK
 41
1.0
 72
0
  0
TEXT
  8
0
 62
5
  6
CONTINUOUS
 10
397.0
 20
17.881
  7
TEXTSTYLE_5
 40
1.495
  1
                                                                      tel: 
 41
1.0
 72
0
  0
TEXT
  8
0
 62
5
  6
CONTINUOUS
 10
441.9869465649
 20
17.881
  7
TEXTSTYLE_5
 40
1.51
  1
+45 75723100     fax: +45 75723348
 41
1.0
 72
0
  0
TEXT
  8
0
 62
5
  6
CONTINUOUS
 10
397.0
 20
15.177
  7
TEXTSTYLE_5
 40
1.5
  1
                                                                      admin@unichains.dk  www.unichains.com
 41
1.0
 72
0
  0
TEXT
  8
0
 62
5
  6
CONTINUOUS
 10
483.75
 20
13.75
  7
TEXTSTYLE_6
 40
5.0
  1
1:1
 41
0.7
 72
1
 11
489.0
 21
13.75
  0
TEXT
  8
0
 62
5
  6
CONTINUOUS
 10
502.0
 20
13.75
  7
TEXTSTYLE_7
 40
7.5
  1
43% Open Radius 2,2 Bottom Tab Hold Down K1200 Both (IL Style)
 41
0.2441532258
 72
0
  0
LINE
  8
0
 62
7
  6
CONTINUOUS
 10
0.0
 20
0.0
 11
0.0
 21
420.0
  0
LINE
  8
0
 62
7
  6
CONTINUOUS
 10
10.0
 20
10.0
 11
10.0
 21
410.0
  0
LINE
  8
0
 62
7
  6
CONTINUOUS
 10
0.0
 20
0.0
 11
594.0
 21
0.0
  0
LINE
  8
0
 62
7
  6
CONTINUOUS
 10
10.0
 20
10.0
 11
584.0
 21
10.0
  0
LINE
  8
0
 62
7
  6
CONTINUOUS
 10
394.0
 20
30.0
 11
584.0
 21
30.0
  0
LINE
  8
0
 62
7
  6
CONTINUOUS
 10
179.0
 20
5.0
 11
179.0
 21
10.0
  0
LINE
  8
0
 62
7
  6
CONTINUOUS
 10
179.0
 20
410.0
 11
179.0
 21
415.0
  0
LINE
  8
0
 62
7
  6
CONTINUOUS
 10
594.0
 20
420.0
 11
584.0
 21
410.0
  0
LINE
  8
0
 62
7
  6
CONTINUOUS
 10
384.0
 20
410.0
 11
384.0
 21
415.0
  0
LINE
  8
0
 62
7
  6
CONTINUOUS
 10
584.0
 20
297.0
 11
589.0
 21
297.0
  0
LINE
  8
0
 62
7
  6
CONTINUOUS
 10
10.0
 20
410.0
 11
584.0
 21
410.0
  0
LINE
  8
0
 62
7
  6
CONTINUOUS
 10
0.0
 20
420.0
 11
594.0
 21
420.0
  0
LINE
  8
0
 62
7
  6
CONTINUOUS
 10
584.0
 20
10.0
 11
584.0
 21
410.0
  0
LINE
  8
0
 62
7
  6
CONTINUOUS
 10
594.0
 20
0.0
 11
594.0
 21
420.0
  0
LINE
  8
SURFACE
 62
7
  6
CONTINUOUS
 10
96.8092431021
 20
327.2466366651
 11
96.8092431021
 21
316.3657557818
  0
LINE
  8
SURFACE
 62
7
  6
CONTINUOUS
 10
104.1842431021
 20
316.3657557818
 11
104.1842431021
 21
327.6157557818
  0
LINE
  8
SURFACE
 62
7
  6
CONTINUOUS
 10
110.1842431021
 20
316.3657557818
 11
110.1842431021
 21
327.6157557818
  0
POLYLINE
  8
SURFACE
 62
7
  6
CONTINUOUS
 66
1
 70
0
  0
VERTEX
  8
SURFACE
 62
7
  6
CONTINUOUS
 10
110.1842431021
 20
317.7186092302
  0
VERTEX
  8
SURFACE
 62
7
  6
CONTINUOUS
 10
110.1684778859
 20
317.8668001539
  0
VERTEX
  8
SURFACE
 62
7
  6
CONTINUOUS
 10
110.1207582096
 20
318.023634458
  0
VERTEX
  8
SURFACE
 62
7
  6
CONTINUOUS
 10
110.0478729107
 20
318.1677182413
  0
VERTEX
  8
SURFACE
 62
7
  6
CONTINUOUS
 10
109.9656647339
 20
318.2781950963
  0
SEQEND
  0
POLYLINE
  8
SURFACE
 62
7
  6
CONTINUOUS
 66
1
 70
0
  0
VERTEX
  8
SURFACE
 62
7
  6
CONTINUOUS
 10
125.8092431021
 20
321.0420148468
  0
VERTEX
  8
SURFACE
 62
7
  6
CONTINUOUS
 10
125.810970691
 20
321.014550972
  0
VERTEX
  8
SURFACE
 62
7
  6
CONTINUOUS
 10
125.8229618856
 20
320.968330744
  0
VERTEX
  8
SURFACE
 62
7
  6
CONTINUOUS
 10
125.8433859867
 20
320.932674586
  0
VERTEX
  8
SURFACE
 62
7
  6
CONTINUOUS
 10
125.8558476137
 20
320.9184849706
  0
VERTEX
  8
SURFACE
 62
7
  6
CONTINUOUS
 10
125.8830839871
 20
320.897129864
  0
VERTEX
  8
SURFACE
 62
7
  6
CONTINUOUS
 10
125.9118389793
 20
320.8838450802
  0
VERTEX
  8
SURFACE
 62
7
  6
CONTINUOUS
 10
125.9265158294
 20
320.8797702671
  0
SEQEND
  0
LINE
  8
SURFACE
 62
7
  6
CONTINUOUS
 10
118.5192431021
 20
303.9657557818
 11
118.5192431021
 21
320.265851022
  0
LINE
  8
SURFACE
 62
7
  6
CONTINUOUS
 10
119.8092431021
 20
316.5761695296
 11
119.8092431021
 21
327.6157557818
  0
LINE
  8
SURFACE
 62
7
  6
CONTINUOUS
 10
123.1692431021
 20
306.4517235845
 11
123.1692431021
 21
315.8657557818
  0
LINE
  8
SURFACE
 62
7
  6
CONTINUOUS
 10
125.8092431021
 20
316.5761695296
 11
125.8092431021
 21
327.6157557818
  0
LINE
  8
SURFACE
 62
7
  6
CONTINUOUS
 10
127.0992431021
 20
316.3657557818
 11
127.0992431021
 21
320.265851022
  0
POLYLINE
  8
SURFACE
 62
7
  6
CONTINUOUS
 66
1
 70
0
  0
VERTEX
  8
SURFACE
 62
7
  6
CONTINUOUS
 10
118.5192431021
 20
316.3342908798
  0
VERTEX
  8
SURFACE
 62
7
  6
CONTINUOUS
 10
118.5171520459
 20
316.3160343538
  0
VERTEX
  8
SURFACE
 62
7
  6
CONTINUOUS
 10
118.5021988198
 20
316.2791156299
  0
VERTEX
  8
SURFACE
 62
7
  6
CONTINUOUS
 10
118.4772998066
 20
316.2519339102
  0
VERTEX
  8
SURFACE
 62
7
  6
CONTINUOUS
 10
118.4455845559
 20
316.23955613
  0
VERTEX
  8
SURFACE
 62
7
  6
CONTINUOUS
 10
118.4062989257
 20
316.2427207584
  0
VERTEX
  8
SURFACE
 62
7
  6
CONTINUOUS
 10
118.3834320746
 20
316.249961507
  0
VERTEX
  8
SURFACE
 62
7
  6
CONTINUOUS
 10
118.3289719401
 20
316.2743941153
  0
VERTEX
  8
SURFACE
 62
7
  6
CONTINUOUS
 10
118.2588337553
 20
316.3083801777
  0
VERTEX
  8
SURFACE
 62
7
  6
CONTINUOUS
 10
118.1712626354
 20
316.3422826737
  0
VERTEX
  8
SURFACE
 62
7
  6
CONTINUOUS
 10
118.1243781369
 20
316.3545818701
  0
SEQEND
  0
POLYLINE
  8
SURFACE
 62
7
  6
CONTINUOUS
 66
1
 70
0
  0
VERTEX
  8
SURFACE
 62
7
  6
CONTINUOUS
 10
119.8092431021
 20
316.5761695296
  0
VERTEX
  8
SURFACE
 62
7
  6
CONTINUOUS
 10
119.8022092792
 20
316.5611354207
  0
VERTEX
  8
SURFACE
 62
7
  6
CONTINUOUS
 10
119.7821101525
 20
316.5481809728
  0
VERTEX
  8
SURFACE
 62
7
  6
CONTINUOUS
 10
119.7678762844
 20
316.5427843556
  0
VERTEX
  8
SURFACE
 62
7
  6
CONTINUOUS
 10
119.7328984873
 20
316.5345064414
  0
VERTEX
  8
SURFACE
 62
7
  6
CONTINUOUS
 10
119.6919703748
 20
316.5298261037
  0
SEQEND
  0
POLYLINE
  8
SURFACE
 62
7
  6
CONTINUOUS
 66
1
 70
0
  0
VERTEX
  8
SURFACE
 62
7
  6
CONTINUOUS
 10
104.4028214703
 20
318.2781950963
  0
VERTEX
  8
SURFACE
 62
7
  6
CONTINUOUS
 10
104.3205972493
 20
318.1676923927
  0
VERTEX
  8
SURFACE
 62
7
  6
CONTINUOUS
 10
104.2477277346
 20
318.0236338134
  0
VERTEX
  8
SURFACE
 62
7
  6
CONTINUOUS
 10
104.2000081308
 20
317.8667992427
  0
VERTEX
  8
SURFACE
 62
7
  6
CONTINUOUS
 10
104.1842431021
 20
317.7186092302
  0
SEQEND
  0
POLYLINE
  8
0
 62
7
  6
CONTINUOUS
 66
1
 70
0
  0
VERTEX
  8
0
 62
7
  6
CONTINUOUS
 10
104.1842431021
 20
321.3689690378
  0
VERTEX
  8
0
 62
7
  6
CONTINUOUS
 10
104.1291351848
 20
321.5706999575
  0
VERTEX
  8
0
 62
7
  6
CONTINUOUS
 10
104.0804976376
 20
321.8143267969
  0
VERTEX
  8
0
 62
7
  6
CONTINUOUS
 10
104.0494465332
 20
322.0593626845
  0
VERTEX
  8
0
 62
7
  6
CONTINUOUS
 10
104.0361533546
 20
322.3045660188
  0
VERTEX
  8
0
 62
7
  6
CONTINUOUS
 10
104.0361571576
 20
322.4271559792
  0
VERTEX
  8
0
 62
7
  6
CONTINUOUS
 10
104.0494657376
 20
322.6723612033
  0
VERTEX
  8
0
 62
7
  6
CONTINUOUS
 10
104.0805320929
 20
322.9173959458
  0
VERTEX
  8
0
 62
7
  6
CONTINUOUS
 10
104.1291843947
 20
323.1610197486
  0
VERTEX
  8
0
 62
7
  6
CONTINUOUS
 10
104.1842431021
 20
323.3625237441
  0
SEQEND
  0
POLYLINE
  8
SURFACE
 62
7
  6
CONTINUOUS
 66
1
 70
0
  0
VERTEX
  8
SURFACE
 62
7
  6
CONTINUOUS
 10
118.4982857938
 20
316.0089974741
  0
VERTEX
  8
SURFACE
 62
7
  6
CONTINUOUS
 10
118.5149922041
 20
315.9308166701
  0
VERTEX
  8
SURFACE
 62
7
  6
CONTINUOUS
 10
118.5192431956
 20
315.8657557818
  0
SEQEND
  0
POLYLINE
  8
SURFACE
 62
7
  6
CONTINUOUS
 66
1
 70
0
  0
VERTEX
  8
SURFACE
 62
7
  6
CONTINUOUS
 10
125.8092431021
 20
317.6868871445
  0
VERTEX
  8
SURFACE
 62
7
  6
CONTINUOUS
 10
125.7939473012
 20
317.8295845205
  0
VERTEX
  8
SURFACE
 62
7
  6
CONTINUOUS
 10
125.7476806779
 20
317.9802562295
  0
VERTEX
  8
SURFACE
 62
7
  6
CONTINUOUS
 10
125.7144966714
 20
318.0526019163
  0
VERTEX
  8
SURFACE
 62
7
  6
CONTINUOUS
 10
125.6369116331
 20
318.1771482493
  0
VERTEX
  8
SURFACE
 62
7
  6
CONTINUOUS
 10
125.5566657825
 20
318.26664233
  0
SEQEND
  0
POLYLINE
  8
SURFACE
 62
7
  6
CONTINUOUS
 66
1
 70
0
  0
VERTEX
  8
SURFACE
 62
7
  6
CONTINUOUS
 10
140.3092431021
 20
317.6868871445
  0
VERTEX
  8
SURFACE
 62
7
  6
CONTINUOUS
 10
140.2939375243
 20
317.8296316074
  0
VERTEX
  8
SURFACE
 62
7
  6
CONTINUOUS
 10
140.2476402397
 20
317.980355496
  0
VERTEX
  8
SURFACE
 62
7
  6
CONTINUOUS
 10
140.2144296397
 20
318.0527327473
  0
VERTEX
  8
SURFACE
 62
7
  6
CONTINUOUS
 10
140.1368949391
 20
318.1771704061
  0
VERTEX
  8
SURFACE
 62
7
  6
CONTINUOUS
 10
140.0566657825
 20
318.26664233
  0
SEQEND
  0
LINE
  8
SURFACE
 62
7
  6
CONTINUOUS
 10
130.9692431021
 20
304.3157877915
 11
130.9692431021
 21
306.3657557384
  0
LINE
  8
SURFACE
 62
7
  6
CONTINUOUS
 10
134.3092431021
 20
316.3657557818
 11
134.3092431021
 21
327.6157557818
  0
LINE
  8
SURFACE
 62
7
  6
CONTINUOUS
 10
140.3092431021
 20
316.3657557818
 11
140.3092431021
 21
327.6157557818
  0
POLYLINE
  8
SURFACE
 62
7
  6
CONTINUOUS
 66
1
 70
0
  0
VERTEX
  8
SURFACE
 62
7
  6
CONTINUOUS
 10
106.3108601339
 20
320.3657557818
  0
VERTEX
  8
SURFACE
 62
7
  6
CONTINUOUS
 10
105.790280465
 20
319.8000184698
  0
VERTEX
  8
SURFACE
 62
7
  6
CONTINUOUS
 10
105.2887012547
 20
319.2534195631
  0
VERTEX
  8
SURFACE
 62
7
  6
CONTINUOUS
 10
104.8222214918
 20
318.7421370542
  0
VERTEX
  8
SURFACE
 62
7
  6
CONTINUOUS
 10
104.4028214703
 20
318.2781950963
  0
SEQEND
  0
LINE
  8
SURFACE
 62
7
  6
CONTINUOUS
 10
148.0592431021
 20
316.3657557818
 11
148.0592431021
 21
327.6157557818
  0
LINE
  8
SURFACE
 62
7
  6
CONTINUOUS
 10
154.0592431021
 20
317.1157557818
 11
154.0592431021
 21
327.6157557818
  0
LINE
  8
SURFACE
 62
7
  6
CONTINUOUS
 10
161.1592431021
 20
317.1157557818
 11
161.1592431021
 21
327.6157557818
  0
POLYLINE
  8
SURFACE
 62
7
  6
CONTINUOUS
 66
1
 70
0
  0
VERTEX
  8
SURFACE
 62
7
  6
CONTINUOUS
 10
120.0618204217
 20
318.26664233
  0
VERTEX
  8
SURFACE
 62
7
  6
CONTINUOUS
 10
119.9815772311
 20
318.1771517799
  0
VERTEX
  8
SURFACE
 62
7
  6
CONTINUOUS
 10
119.9039991701
 20
318.0526207293
  0
VERTEX
  8
SURFACE
 62
7
  6
CONTINUOUS
 10
119.8708114956
 20
317.9802708847
  0
VERTEX
  8
SURFACE
 62
7
  6
CONTINUOUS
 10
119.8245403667
 20
317.8295915708
  0
VERTEX
  8
SURFACE
 62
7
  6
CONTINUOUS
 10
119.8092431021
 20
317.6868871445
  0
SEQEND
  0
POLYLINE
  8
SURFACE
 62
7
  6
CONTINUOUS
 66
1
 70
0
  0
VERTEX
  8
SURFACE
 62
7
  6
CONTINUOUS
 10
134.5618204217
 20
318.26664233
  0
VERTEX
  8
SURFACE
 62
7
  6
CONTINUOUS
 10
134.4815772311
 20
318.1771517799
  0
VERTEX
  8
SURFACE
 62
7
  6
CONTINUOUS
 10
134.4039991701
 20
318.0526207293
  0
VERTEX
  8
SURFACE
 62
7
  6
CONTINUOUS
 10
134.3708114956
 20
317.9802708847
  0
VERTEX
  8
SURFACE
 62
7
  6
CONTINUOUS
 10
134.3245403667
 20
317.8295915708
  0
VERTEX
  8
SURFACE
 62
7
  6
CONTINUOUS
 10
134.3092431021
 20
317.6868871445
  0
SEQEND
  0
POLYLINE
  8
SURFACE
 62
7
  6
CONTINUOUS
 66
1
 70
0
  0
VERTEX
  8
SURFACE
 62
7
  6
CONTINUOUS
 10
122.3092431021
 20
320.3657557818
  0
VERTEX
  8
SURFACE
 62
7
  6
CONTINUOUS
 10
121.7062800114
 20
319.8000607976
  0
VERTEX
  8
SURFACE
 62
7
  6
CONTINUOUS
 10
121.1210065104
 20
319.251965393
  0
VERTEX
  8
SURFACE
 62
7
  6
CONTINUOUS
 10
120.5689028598
 20
318.7368852617
  0
VERTEX
  8
SURFACE
 62
7
  6
CONTINUOUS
 10
120.0618204217
 20
318.26664233
  0
SEQEND
  0
LINE
  8
SURFACE
 62
7
  6
CONTINUOUS
 10
167.1592431021
 20
317.1157557818
 11
167.1592431021
 21
327.6157557818
  0
LINE
  8
SURFACE
 62
7
  6
CONTINUOUS
 10
173.8592431021
 20
317.1157557818
 11
173.8592431021
 21
327.6157557818
  0
POLYLINE
  8
SURFACE
 62
7
  6
CONTINUOUS
 66
1
 70
0
  0
VERTEX
  8
SURFACE
 62
7
  6
CONTINUOUS
 10
148.3118204217
 20
318.26664233
  0
VERTEX
  8
SURFACE
 62
7
  6
CONTINUOUS
 10
148.2315772311
 20
318.1771517799
  0
VERTEX
  8
SURFACE
 62
7
  6
CONTINUOUS
 10
148.1539991701
 20
318.0526207293
  0
VERTEX
  8
SURFACE
 62
7
  6
CONTINUOUS
 10
148.1208114956
 20
317.9802708847
  0
VERTEX
  8
SURFACE
 62
7
  6
CONTINUOUS
 10
148.0745403667
 20
317.8295915708
  0
VERTEX
  8
SURFACE
 62
7
  6
CONTINUOUS
 10
148.0592431021
 20
317.6868871445
  0
SEQEND
  0
POLYLINE
  8
SURFACE
 62
7
  6
CONTINUOUS
 66
1
 70
0
  0
VERTEX
  8
SURFACE
 62
7
  6
CONTINUOUS
 10
136.8092431021
 20
320.3657557818
  0
VERTEX
  8
SURFACE
 62
7
  6
CONTINUOUS
 10
136.2062800114
 20
319.8000607976
  0
VERTEX
  8
SURFACE
 62
7
  6
CONTINUOUS
 10
135.6210065104
 20
319.251965393
  0
VERTEX
  8
SURFACE
 62
7
  6
CONTINUOUS
 10
135.0689028598
 20
318.7368852617
  0
VERTEX
  8
SURFACE
 62
7
  6
CONTINUOUS
 10
134.5618204217
 20
318.26664233
  0
SEQEND
  0
POLYLINE
  8
SURFACE
 62
7
  6
CONTINUOUS
 66
1
 70
0
  0
VERTEX
  8
SURFACE
 62
7
  6
CONTINUOUS
 10
150.5592431021
 20
320.3657557818
  0
VERTEX
  8
SURFACE
 62
7
  6
CONTINUOUS
 10
149.9562800114
 20
319.8000607976
  0
VERTEX
  8
SURFACE
 62
7
  6
CONTINUOUS
 10
149.3710065104
 20
319.251965393
  0
VERTEX
  8
SURFACE
 62
7
  6
CONTINUOUS
 10
148.8189028598
 20
318.7368852617
  0
VERTEX
  8
SURFACE
 62
7
  6
CONTINUOUS
 10
148.3118204217
 20
318.26664233
  0
SEQEND
  0
POLYLINE
  8
SURFACE
 62
7
  6
CONTINUOUS
 66
1
 70
0
  0
VERTEX
  8
SURFACE
 62
7
  6
CONTINUOUS
 10
108.0576260703
 20
320.3657557818
  0
VERTEX
  8
SURFACE
 62
7
  6
CONTINUOUS
 10
108.5782057392
 20
319.8000184698
  0
VERTEX
  8
SURFACE
 62
7
  6
CONTINUOUS
 10
109.0797849495
 20
319.2534195631
  0
VERTEX
  8
SURFACE
 62
7
  6
CONTINUOUS
 10
109.5462647123
 20
318.7421370544
  0
VERTEX
  8
SURFACE
 62
7
  6
CONTINUOUS
 10
109.9656647339
 20
318.2781950963
  0
SEQEND
  0
LINE
  8
SURFACE
 62
7
  6
CONTINUOUS
 10
179.8592431021
 20
317.1157557818
 11
179.8592431021
 21
327.6157557818
  0
LINE
  8
SURFACE
 62
7
  6
CONTINUOUS
 10
186.5592431021
 20
317.1157557818
 11
186.5592431021
 21
327.6157557818
  0
LINE
  8
SURFACE
 62
7
  6
CONTINUOUS
 10
192.5592431021
 20
317.1157557818
 11
192.5592431021
 21
327.6157557818
  0
LINE
  8
SURFACE
 62
7
  6
CONTINUOUS
 10
199.2592431021
 20
317.1157557818
 11
199.2592431021
 21
327.6157557818
  0
LINE
  8
SURFACE
 62
7
  6
CONTINUOUS
 10
205.2592431021
 20
317.1157557818
 11
205.2592431021
 21
327.6157557818
  0
LINE
  8
SURFACE
 62
7
  6
CONTINUOUS
 10
211.9592431021
 20
317.1157557818
 11
211.9592431021
 21
327.6157557818
  0
POLYLINE
  8
SURFACE
 62
7
  6
CONTINUOUS
 66
1
 70
0
  0
VERTEX
  8
SURFACE
 62
7
  6
CONTINUOUS
 10
118.6089205299
 20
316.3698472143
  0
VERTEX
  8
SURFACE
 62
7
  6
CONTINUOUS
 10
118.5578219225
 20
316.3512212179
  0
VERTEX
  8
SURFACE
 62
7
  6
CONTINUOUS
 10
118.5281626711
 20
316.3105982845
  0
VERTEX
  8
SURFACE
 62
7
  6
CONTINUOUS
 10
118.5192431021
 20
316.2502421737
  0
SEQEND
  0
POLYLINE
  8
SURFACE
 62
7
  6
CONTINUOUS
 66
1
 70
0
  0
VERTEX
  8
SURFACE
 62
7
  6
CONTINUOUS
 10
127.0992431021
 20
320.2658493494
  0
VERTEX
  8
SURFACE
 62
7
  6
CONTINUOUS
 10
127.0859486264
 20
320.2772341272
  0
VERTEX
  8
SURFACE
 62
7
  6
CONTINUOUS
 10
127.0396937189
 20
320.312037227
  0
VERTEX
  8
SURFACE
 62
7
  6
CONTINUOUS
 10
126.957604823
 20
320.3709386656
  0
VERTEX
  8
SURFACE
 62
7
  6
CONTINUOUS
 10
126.8358257909
 20
320.454009125
  0
VERTEX
  8
SURFACE
 62
7
  6
CONTINUOUS
 10
126.7590636125
 20
320.5038387907
  0
VERTEX
  8
SURFACE
 62
7
  6
CONTINUOUS
 10
126.5748499875
 20
320.6148036073
  0
VERTEX
  8
SURFACE
 62
7
  6
CONTINUOUS
 10
126.3604368737
 20
320.7264524151
  0
VERTEX
  8
SURFACE
 62
7
  6
CONTINUOUS
 10
126.1385484942
 20
320.8183507105
  0
VERTEX
  8
SURFACE
 62
7
  6
CONTINUOUS
 10
125.9265158294
 20
320.8797702671
  0
SEQEND
  0
POLYLINE
  8
SURFACE
 62
7
  6
CONTINUOUS
 66
1
 70
0
  0
VERTEX
  8
SURFACE
 62
7
  6
CONTINUOUS
 10
123.3092431021
 20
320.3657557818
  0
VERTEX
  8
SURFACE
 62
7
  6
CONTINUOUS
 10
123.9122062581
 20
319.8000607363
  0
VERTEX
  8
SURFACE
 62
7
  6
CONTINUOUS
 10
124.4974798234
 20
319.2519652719
  0
VERTEX
  8
SURFACE
 62
7
  6
CONTINUOUS
 10
125.049583316
 20
318.7368852881
  0
VERTEX
  8
SURFACE
 62
7
  6
CONTINUOUS
 10
125.5566657825
 20
318.26664233
  0
SEQEND
  0
POLYLINE
  8
SURFACE
 62
7
  6
CONTINUOUS
 66
1
 70
0
  0
VERTEX
  8
SURFACE
 62
7
  6
CONTINUOUS
 10
137.8092431021
 20
320.3657557818
  0
VERTEX
  8
SURFACE
 62
7
  6
CONTINUOUS
 10
138.4122061928
 20
319.8000607976
  0
VERTEX
  8
SURFACE
 62
7
  6
CONTINUOUS
 10
138.9974796938
 20
319.251965393
  0
VERTEX
  8
SURFACE
 62
7
  6
CONTINUOUS
 10
139.5495833444
 20
318.7368852617
  0
VERTEX
  8
SURFACE
 62
7
  6
CONTINUOUS
 10
140.0566657825
 20
318.26664233
  0
SEQEND
  0
LINE
  8
SURFACE
 62
7
  6
CONTINUOUS
 10
217.9592431021
 20
317.1157557818
 11
217.9592431021
 21
327.6157557818
  0
LINE
  8
SURFACE
 62
7
  6
CONTINUOUS
 10
224.6592431021
 20
317.1157557818
 11
224.6592431021
 21
327.6157557818
  0
LINE
  8
SURFACE
 62
7
  6
CONTINUOUS
 10
230.6592431021
 20
317.1157557818
 11
230.6592431021
 21
327.6157557818
  0
POLYLINE
  8
SURFACE
 62
7
  6
CONTINUOUS
 66
1
 70
0
  0
VERTEX
  8
SURFACE
 62
7
  6
CONTINUOUS
 10
119.6919703748
 20
320.8797702671
  0
VERTEX
  8
SURFACE
 62
7
  6
CONTINUOUS
 10
119.4822874209
 20
320.8191797478
  0
VERTEX
  8
SURFACE
 62
7
  6
CONTINUOUS
 10
119.2628160915
 20
320.7286945202
  0
VERTEX
  8
SURFACE
 62
7
  6
CONTINUOUS
 10
119.0501633984
 20
320.6184956621
  0
VERTEX
  8
SURFACE
 62
7
  6
CONTINUOUS
 10
118.8665151087
 20
320.5083409702
  0
VERTEX
  8
SURFACE
 62
7
  6
CONTINUOUS
 10
118.7896168646
 20
320.458606741
  0
VERTEX
  8
SURFACE
 62
7
  6
CONTINUOUS
 10
118.6669412047
 20
320.3751885259
  0
VERTEX
  8
SURFACE
 62
7
  6
CONTINUOUS
 10
118.5833251604
 20
320.3153630615
  0
VERTEX
  8
SURFACE
 62
7
  6
CONTINUOUS
 10
118.5350165588
 20
320.2791676483
  0
VERTEX
  8
SURFACE
 62
7
  6
CONTINUOUS
 10
118.5192431021
 20
320.265851022
  0
SEQEND
  0
LINE
  8
SURFACE
 62
7
  6
CONTINUOUS
 10
237.3592431021
 20
317.1157557818
 11
237.3592431021
 21
327.6157557818
  0
LINE
  8
SURFACE
 62
7
  6
CONTINUOUS
 10
243.3592431021
 20
317.1157557818
 11
243.3592431021
 21
327.6157557818
  0
LINE
  8
0
 62
7
  6
CONTINUOUS
 10
250.0592431021
 20
317.1157557818
 11
250.0592431021
 21
327.6157557818
  0
LINE
  8
0
 62
7
  6
CONTINUOUS
 10
256.0592431021
 20
317.1157557818
 11
256.0592431021
 21
327.6157557818
  0
LINE
  8
0
 62
7
  6
CONTINUOUS
 10
262.7592431021
 20
317.1157557818
 11
262.7592431021
 21
327.6157557818
  0
LINE
  8
0
 62
7
  6
CONTINUOUS
 10
268.7592431021
 20
317.1157557818
 11
268.7592431021
 21
327.6157557818
  0
LINE
  8
0
 62
7
  6
CONTINUOUS
 10
275.4592431021
 20
317.1157557818
 11
275.4592431021
 21
327.6157557818
  0
LINE
  8
0
 62
7
  6
CONTINUOUS
 10
281.4592431021
 20
317.1157557818
 11
281.4592431021
 21
327.6157557818
  0
POLYLINE
  8
SURFACE
 62
7
  6
CONTINUOUS
 66
1
 70
0
  0
VERTEX
  8
SURFACE
 62
7
  6
CONTINUOUS
 10
118.1243775471
 20
316.3545774997
  0
VERTEX
  8
SURFACE
 62
7
  6
CONTINUOUS
 10
118.1764627592
 20
316.3403945092
  0
VERTEX
  8
SURFACE
 62
7
  6
CONTINUOUS
 10
118.2501011561
 20
316.3092696253
  0
VERTEX
  8
SURFACE
 62
7
  6
CONTINUOUS
 10
118.3178375726
 20
316.2668060789
  0
VERTEX
  8
SURFACE
 62
7
  6
CONTINUOUS
 10
118.3779400861
 20
316.2140896717
  0
VERTEX
  8
SURFACE
 62
7
  6
CONTINUOUS
 10
118.428872437
 20
316.1524679316
  0
VERTEX
  8
SURFACE
 62
7
  6
CONTINUOUS
 10
118.4693324753
 20
316.0835162571
  0
VERTEX
  8
SURFACE
 62
7
  6
CONTINUOUS
 10
118.4982857938
 20
316.0089974741
  0
SEQEND
  0
LINE
  8
0
 62
7
  6
CONTINUOUS
 10
288.1592431021
 20
317.1157557818
 11
288.1592431021
 21
327.6157557818
  0
LINE
  8
0
 62
7
  6
CONTINUOUS
 10
294.1592431021
 20
317.1157557818
 11
294.1592431021
 21
327.6157557818
  0
POLYLINE
  8
SURFACE
 62
7
  6
CONTINUOUS
 66
1
 70
0
  0
VERTEX
  8
SURFACE
 62
7
  6
CONTINUOUS
 10
118.1243781369
 20
316.3545818701
  0
VERTEX
  8
SURFACE
 62
7
  6
CONTINUOUS
 10
118.0717738863
 20
316.3630468109
  0
VERTEX
  8
SURFACE
 62
7
  6
CONTINUOUS
 10
118.0210501725
 20
316.3657557818
  0
SEQEND
  0
LINE
  8
0
 62
7
  6
CONTINUOUS
 10
300.8592431021
 20
317.1157557818
 11
300.8592431021
 21
327.6157557818
  0
LINE
  8
0
 62
7
  6
CONTINUOUS
 10
306.8592431021
 20
317.1157557818
 11
306.8592431021
 21
327.6157557818
  0
LINE
  8
0
 62
7
  6
CONTINUOUS
 10
313.5592431021
 20
317.1157557818
 11
313.5592431021
 21
327.6157557818
  0
POLYLINE
  8
0
 62
7
  6
CONTINUOUS
 66
1
 70
0
  0
VERTEX
  8
0
 62
7
  6
CONTINUOUS
 10
355.6092431021
 20
320.3657557818
  0
VERTEX
  8
0
 62
7
  6
CONTINUOUS
 10
355.0062800114
 20
319.8000607976
  0
VERTEX
  8
0
 62
7
  6
CONTINUOUS
 10
354.4210065104
 20
319.251965393
  0
VERTEX
  8
0
 62
7
  6
CONTINUOUS
 10
353.8689028598
 20
318.7368852617
  0
VERTEX
  8
0
 62
7
  6
CONTINUOUS
 10
353.3618204217
 20
318.26664233
  0
SEQEND
  0
POLYLINE
  8
0
 62
7
  6
CONTINUOUS
 66
1
 70
0
  0
VERTEX
  8
0
 62
7
  6
CONTINUOUS
 10
375.2941080644
 20
316.3545818694
  0
VERTEX
  8
0
 62
7
  6
CONTINUOUS
 10
375.3467123179
 20
316.3630468109
  0
VERTEX
  8
0
 62
7
  6
CONTINUOUS
 10
375.3974360317
 20
316.3657557818
  0
SEQEND
  0
POLYLINE
  8
0
 62
7
  6
CONTINUOUS
 66
1
 70
0
  0
VERTEX
  8
0
 62
7
  6
CONTINUOUS
 10
367.4919703748
 20
316.5298261037
  0
VERTEX
  8
0
 62
7
  6
CONTINUOUS
 10
367.5328984439
 20
316.5345064341
  0
VERTEX
  8
0
 62
7
  6
CONTINUOUS
 10
367.5678762731
 20
316.542784352
  0
VERTEX
  8
0
 62
7
  6
CONTINUOUS
 10
367.5821101423
 20
316.5481809683
  0
VERTEX
  8
0
 62
7
  6
CONTINUOUS
 10
367.602209274
 20
316.5611354155
  0
VERTEX
  8
0
 62
7
  6
CONTINUOUS
 10
367.6092431021
 20
316.5761695296
  0
SEQEND
  0
LINE
  8
0
 62
7
  6
CONTINUOUS
 10
373.8992431021
 20
302.9657557818
 11
370.3261156714
 21
302.9657557818
  0
LINE
  8
SURFACE
 62
7
  6
CONTINUOUS
 10
119.5192431021
 20
302.9657557818
 11
123.0923705328
 21
302.9657557818
  0
LINE
  8
0
 62
7
  6
CONTINUOUS
 10
370.0492431021
 20
307.3657557818
 11
363.4492431021
 21
307.3657557818
  0
LINE
  8
SURFACE
 62
7
  6
CONTINUOUS
 10
129.9692431021
 20
307.3657557818
 11
123.3692431021
 21
307.3657557818
  0
LINE
  8
0
 62
7
  6
CONTINUOUS
 10
370.1724714155
 20
302.9696927913
 11
363.3980283501
 21
303.317100128
  0
POLYLINE
  8
SURFACE
 62
7
  6
CONTINUOUS
 66
1
 70
0
  0
VERTEX
  8
SURFACE
 62
7
  6
CONTINUOUS
 10
125.9265158294
 20
316.5298261037
  0
VERTEX
  8
SURFACE
 62
7
  6
CONTINUOUS
 10
126.1561093538
 20
316.5095335436
  0
VERTEX
  8
SURFACE
 62
7
  6
CONTINUOUS
 10
126.3741049619
 20
316.4812750336
  0
VERTEX
  8
SURFACE
 62
7
  6
CONTINUOUS
 10
126.5732455926
 20
316.4487826729
  0
VERTEX
  8
SURFACE
 62
7
  6
CONTINUOUS
 10
126.7461258742
 20
316.4167668424
  0
VERTEX
  8
SURFACE
 62
7
  6
CONTINUOUS
 10
126.8870273894
 20
316.3899368836
  0
VERTEX
  8
SURFACE
 62
7
  6
CONTINUOUS
 10
126.992823366
 20
316.3720843045
  0
VERTEX
  8
SURFACE
 62
7
  6
CONTINUOUS
 10
127.0624929099
 20
316.3657557818
  0
SEQEND
  0
POLYLINE
  8
SURFACE
 62
7
  6
CONTINUOUS
 66
1
 70
0
  0
VERTEX
  8
SURFACE
 62
7
  6
CONTINUOUS
 10
125.9265158294
 20
316.5298261037
  0
VERTEX
  8
SURFACE
 62
7
  6
CONTINUOUS
 10
125.8855877603
 20
316.5345064341
  0
VERTEX
  8
SURFACE
 62
7
  6
CONTINUOUS
 10
125.8506099311
 20
316.542784352
  0
VERTEX
  8
SURFACE
 62
7
  6
CONTINUOUS
 10
125.8363760619
 20
316.5481809683
  0
VERTEX
  8
SURFACE
 62
7
  6
CONTINUOUS
 10
125.8162769302
 20
316.5611354155
  0
VERTEX
  8
SURFACE
 62
7
  6
CONTINUOUS
 10
125.8092431021
 20
316.5761695296
  0
SEQEND
  0
LINE
  8
0
 62
7
  6
CONTINUOUS
 10
319.5592431021
 20
317.1157557818
 11
319.5592431021
 21
327.6157557818
  0
LINE
  8
0
 62
7
  6
CONTINUOUS
 10
326.2592431021
 20
317.1157557818
 11
326.2592431021
 21
327.6157557818
  0
LINE
  8
0
 62
7
  6
CONTINUOUS
 10
332.2592431021
 20
317.1157557818
 11
332.2592431021
 21
327.6157557818
  0
POLYLINE
  8
0
 62
7
  6
CONTINUOUS
 66
1
 70
0
  0
VERTEX
  8
0
 62
7
  6
CONTINUOUS
 10
370.1092431021
 20
320.3657557818
  0
VERTEX
  8
0
 62
7
  6
CONTINUOUS
 10
369.5062799461
 20
319.8000607363
  0
VERTEX
  8
0
 62
7
  6
CONTINUOUS
 10
368.9210063809
 20
319.2519652719
  0
VERTEX
  8
0
 62
7
  6
CONTINUOUS
 10
368.3689028882
 20
318.7368852881
  0
VERTEX
  8
0
 62
7
  6
CONTINUOUS
 10
367.8618204217
 20
318.26664233
  0
SEQEND
  0
POLYLINE
  8
0
 62
7
  6
CONTINUOUS
 66
1
 70
0
  0
VERTEX
  8
0
 62
7
  6
CONTINUOUS
 10
366.3192431021
 20
320.2658493494
  0
VERTEX
  8
0
 62
7
  6
CONTINUOUS
 10
366.3325375778
 20
320.2772341272
  0
VERTEX
  8
0
 62
7
  6
CONTINUOUS
 10
366.3787924853
 20
320.312037227
  0
VERTEX
  8
0
 62
7
  6
CONTINUOUS
 10
366.4608813812
 20
320.3709386656
  0
VERTEX
  8
0
 62
7
  6
CONTINUOUS
 10
366.5826604134
 20
320.454009125
  0
VERTEX
  8
0
 62
7
  6
CONTINUOUS
 10
366.6594225918
 20
320.5038387907
  0
VERTEX
  8
0
 62
7
  6
CONTINUOUS
 10
366.8436362167
 20
320.6148036073
  0
VERTEX
  8
0
 62
7
  6
CONTINUOUS
 10
367.0580493305
 20
320.7264524151
  0
VERTEX
  8
0
 62
7
  6
CONTINUOUS
 10
367.27993771
 20
320.8183507105
  0
VERTEX
  8
0
 62
7
  6
CONTINUOUS
 10
367.4919703748
 20
320.8797702671
  0
SEQEND
  0
POLYLINE
  8
0
 62
7
  6
CONTINUOUS
 66
1
 70
0
  0
VERTEX
  8
0
 62
7
  6
CONTINUOUS
 10
367.4919703748
 20
316.5298261037
  0
VERTEX
  8
0
 62
7
  6
CONTINUOUS
 10
367.2623768504
 20
316.5095335436
  0
VERTEX
  8
0
 62
7
  6
CONTINUOUS
 10
367.0443812423
 20
316.4812750336
  0
VERTEX
  8
0
 62
7
  6
CONTINUOUS
 10
366.8452406116
 20
316.4487826729
  0
VERTEX
  8
0
 62
7
  6
CONTINUOUS
 10
366.67236033
 20
316.4167668424
  0
VERTEX
  8
0
 62
7
  6
CONTINUOUS
 10
366.5314588149
 20
316.3899368836
  0
VERTEX
  8
0
 62
7
  6
CONTINUOUS
 10
366.4256628382
 20
316.3720843045
  0
VERTEX
  8
0
 62
7
  6
CONTINUOUS
 10
366.3559932943
 20
316.3657557818
  0
SEQEND
  0
LINE
  8
SURFACE
 62
7
  6
CONTINUOUS
 10
123.2460147887
 20
302.9696927913
 11
130.0204578541
 21
303.317100128
  0
LINE
  8
0
 62
7
  6
CONTINUOUS
 10
159.9092431021
 20
316.3657557818
 11
155.8092431021
 21
316.3657557818
  0
LINE
  8
SURFACE
 62
7
  6
CONTINUOUS
 10
118.0210501793
 20
316.3657557818
 11
96.8092431021
 21
316.3657557818
  0
LINE
  8
SURFACE
 62
7
  6
CONTINUOUS
 10
123.3173811036
 20
316.3657557818
 11
155.8092431021
 21
316.3657557818
  0
LINE
  8
SURFACE
 62
7
  6
CONTINUOUS
 10
159.9092431021
 20
316.3657557818
 11
244.6092431021
 21
316.3657557818
  0
LINE
  8
0
 62
7
  6
CONTINUOUS
 10
244.6092431021
 20
316.3657557818
 11
370.1011051006
 21
316.3657557818
  0
LINE
  8
0
 62
7
  6
CONTINUOUS
 10
375.3974360249
 20
316.3657557818
 11
396.6092431021
 21
316.3657557818
  0
LINE
  8
SURFACE
 62
7
  6
CONTINUOUS
 10
117.5192431021
 20
320.2657557818
 11
118.5192431021
 21
320.2657557818
  0
LINE
  8
0
 62
7
  6
CONTINUOUS
 10
374.8992431021
 20
320.2657557818
 11
375.8992431021
 21
320.2657557818
  0
LINE
  8
0
 62
7
  6
CONTINUOUS
 10
339.3592431021
 20
317.1157557818
 11
339.3592431021
 21
327.6157557818
  0
LINE
  8
0
 62
7
  6
CONTINUOUS
 10
345.3592431021
 20
316.3657557818
 11
345.3592431021
 21
327.6157557818
  0
POLYLINE
  8
0
 62
7
  6
CONTINUOUS
 66
1
 70
0
  0
VERTEX
  8
0
 62
7
  6
CONTINUOUS
 10
353.1092431021
 20
317.6868871445
  0
VERTEX
  8
0
 62
7
  6
CONTINUOUS
 10
353.1245486799
 20
317.8296316074
  0
VERTEX
  8
0
 62
7
  6
CONTINUOUS
 10
353.1708459645
 20
317.980355496
  0
VERTEX
  8
0
 62
7
  6
CONTINUOUS
 10
353.2040565645
 20
318.0527327473
  0
VERTEX
  8
0
 62
7
  6
CONTINUOUS
 10
353.2815912652
 20
318.1771704061
  0
VERTEX
  8
0
 62
7
  6
CONTINUOUS
 10
353.3618204217
 20
318.26664233
  0
SEQEND
  0
POLYLINE
  8
0
 62
7
  6
CONTINUOUS
 66
1
 70
0
  0
VERTEX
  8
0
 62
7
  6
CONTINUOUS
 10
385.3608601339
 20
320.3657557818
  0
VERTEX
  8
0
 62
7
  6
CONTINUOUS
 10
384.840280465
 20
319.8000184698
  0
VERTEX
  8
0
 62
7
  6
CONTINUOUS
 10
384.3387012547
 20
319.2534195631
  0
VERTEX
  8
0
 62
7
  6
CONTINUOUS
 10
383.8722214919
 20
318.7421370544
  0
VERTEX
  8
0
 62
7
  6
CONTINUOUS
 10
383.4528214703
 20
318.2781950963
  0
SEQEND
  0
LINE
  8
SURFACE
 62
7
  6
CONTINUOUS
 10
104.9214532472
 20
328.3657557818
 11
101.1264553037
 21
328.3657557818
  0
LINE
  8
SURFACE
 62
7
  6
CONTINUOUS
 10
104.9342431021
 20
328.3657557818
 11
155.8092431021
 21
328.3657557818
  0
LINE
  8
0
 62
7
  6
CONTINUOUS
 10
155.8092431021
 20
328.3657557818
 11
159.9092431021
 21
328.3657557818
  0
LINE
  8
SURFACE
 62
7
  6
CONTINUOUS
 10
159.9092431021
 20
328.3657557818
 11
244.6092431021
 21
328.3657557818
  0
LINE
  8
0
 62
7
  6
CONTINUOUS
 10
244.6092431021
 20
328.3657557818
 11
388.4842431021
 21
328.3657557818
  0
LINE
  8
0
 62
7
  6
CONTINUOUS
 10
388.4970329571
 20
328.3657557818
 11
392.2920309005
 21
328.3657557818
  0
LINE
  8
0
 62
7
  6
CONTINUOUS
 10
374.8095656744
 20
316.3698472143
 11
374.7162858499
 21
316.384609732
  0
POLYLINE
  8
0
 62
7
  6
CONTINUOUS
 66
1
 70
0
  0
VERTEX
  8
0
 62
7
  6
CONTINUOUS
 10
374.7162858499
 20
316.384609732
  0
VERTEX
  8
0
 62
7
  6
CONTINUOUS
 10
374.434935411
 20
316.4376654094
  0
VERTEX
  8
0
 62
7
  6
CONTINUOUS
 10
374.3469926618
 20
316.4533801993
  0
VERTEX
  8
0
 62
7
  6
CONTINUOUS
 10
374.1545924343
 20
316.4841363158
  0
VERTEX
  8
0
 62
7
  6
CONTINUOUS
 10
373.9456830381
 20
316.51067238
  0
VERTEX
  8
0
 62
7
  6
CONTINUOUS
 10
373.7265158294
 20
316.5298261037
  0
SEQEND
  0
POLYLINE
  8
0
 62
7
  6
CONTINUOUS
 66
1
 70
0
  0
VERTEX
  8
0
 62
7
  6
CONTINUOUS
 10
373.7265158294
 20
320.8797702671
  0
VERTEX
  8
0
 62
7
  6
CONTINUOUS
 10
373.711853806
 20
320.8838411496
  0
VERTEX
  8
0
 62
7
  6
CONTINUOUS
 10
373.6831659544
 20
320.8971159907
  0
VERTEX
  8
0
 62
7
  6
CONTINUOUS
 10
373.6559000633
 20
320.9185041552
  0
VERTEX
  8
0
 62
7
  6
CONTINUOUS
 10
373.6433807121
 20
320.9327250306
  0
VERTEX
  8
0
 62
7
  6
CONTINUOUS
 10
373.6229122693
 20
320.9683775515
  0
VERTEX
  8
0
 62
7
  6
CONTINUOUS
 10
373.610963666
 20
321.0145719385
  0
VERTEX
  8
0
 62
7
  6
CONTINUOUS
 10
373.6092431021
 20
321.0420148468
  0
SEQEND
  0
POLYLINE
  8
0
 62
7
  6
CONTINUOUS
 66
1
 70
0
  0
VERTEX
  8
0
 62
7
  6
CONTINUOUS
 10
373.7265158294
 20
320.8797702671
  0
VERTEX
  8
0
 62
7
  6
CONTINUOUS
 10
373.9361987833
 20
320.8191797478
  0
VERTEX
  8
0
 62
7
  6
CONTINUOUS
 10
374.1556701127
 20
320.7286945202
  0
VERTEX
  8
0
 62
7
  6
CONTINUOUS
 10
374.3683228058
 20
320.6184956621
  0
VERTEX
  8
0
 62
7
  6
CONTINUOUS
 10
374.5519710955
 20
320.5083409702
  0
VERTEX
  8
0
 62
7
  6
CONTINUOUS
 10
374.6288693396
 20
320.458606741
  0
VERTEX
  8
0
 62
7
  6
CONTINUOUS
 10
374.7515449995
 20
320.3751885259
  0
VERTEX
  8
0
 62
7
  6
CONTINUOUS
 10
374.8351610438
 20
320.3153630615
  0
VERTEX
  8
0
 62
7
  6
CONTINUOUS
 10
374.8834696454
 20
320.2791676483
  0
VERTEX
  8
0
 62
7
  6
CONTINUOUS
 10
374.8992431021
 20
320.265851022
  0
SEQEND
  0
POLYLINE
  8
0
 62
7
  6
CONTINUOUS
 66
1
 70
0
  0
VERTEX
  8
0
 62
7
  6
CONTINUOUS
 10
374.8095656744
 20
316.3698472143
  0
VERTEX
  8
0
 62
7
  6
CONTINUOUS
 10
374.8606642817
 20
316.3512212179
  0
VERTEX
  8
0
 62
7
  6
CONTINUOUS
 10
374.8903235331
 20
316.3105982845
  0
VERTEX
  8
0
 62
7
  6
CONTINUOUS
 10
374.8992431021
 20
316.2502421737
  0
SEQEND
  0
POLYLINE
  8
0
 62
7
  6
CONTINUOUS
 66
1
 70
0
  0
VERTEX
  8
0
 62
7
  6
CONTINUOUS
 10
342.8592431021
 20
320.3657557818
  0
VERTEX
  8
0
 62
7
  6
CONTINUOUS
 10
343.4622061928
 20
319.8000607976
  0
VERTEX
  8
0
 62
7
  6
CONTINUOUS
 10
344.0474796938
 20
319.251965393
  0
VERTEX
  8
0
 62
7
  6
CONTINUOUS
 10
344.5995833444
 20
318.7368852617
  0
VERTEX
  8
0
 62
7
  6
CONTINUOUS
 10
345.1066657825
 20
318.26664233
  0
SEQEND
  0
LINE
  8
0
 62
7
  6
CONTINUOUS
 10
353.1092431021
 20
316.3657557818
 11
353.1092431021
 21
327.6157557818
  0
LINE
  8
0
 62
7
  6
CONTINUOUS
 10
359.1092431021
 20
316.3657557818
 11
359.1092431021
 21
327.6157557818
  0
LINE
  8
0
 62
7
  6
CONTINUOUS
 10
362.4492431021
 20
304.3157877915
 11
362.4492431021
 21
306.3657557384
  0
LINE
  8
0
 62
7
  6
CONTINUOUS
 10
366.3192431021
 20
320.265851022
 11
366.3192431021
 21
316.3657557818
  0
POLYLINE
  8
0
 62
7
  6
CONTINUOUS
 66
1
 70
0
  0
VERTEX
  8
0
 62
7
  6
CONTINUOUS
 10
367.6092431021
 20
321.0420148468
  0
VERTEX
  8
0
 62
7
  6
CONTINUOUS
 10
367.6075155132
 20
321.014550972
  0
VERTEX
  8
0
 62
7
  6
CONTINUOUS
 10
367.5955243186
 20
320.968330744
  0
VERTEX
  8
0
 62
7
  6
CONTINUOUS
 10
367.5751002175
 20
320.932674586
  0
VERTEX
  8
0
 62
7
  6
CONTINUOUS
 10
367.5626385905
 20
320.9184849706
  0
VERTEX
  8
0
 62
7
  6
CONTINUOUS
 10
367.5354022172
 20
320.897129864
  0
VERTEX
  8
0
 62
7
  6
CONTINUOUS
 10
367.5066472249
 20
320.8838450802
  0
VERTEX
  8
0
 62
7
  6
CONTINUOUS
 10
367.4919703748
 20
320.8797702671
  0
SEQEND
  0
POLYLINE
  8
0
 62
7
  6
CONTINUOUS
 66
1
 70
0
  0
VERTEX
  8
0
 62
7
  6
CONTINUOUS
 10
367.6092431021
 20
317.6868871445
  0
VERTEX
  8
0
 62
7
  6
CONTINUOUS
 10
367.624538903
 20
317.8295845205
  0
VERTEX
  8
0
 62
7
  6
CONTINUOUS
 10
367.6708055264
 20
317.9802562295
  0
VERTEX
  8
0
 62
7
  6
CONTINUOUS
 10
367.7039895328
 20
318.0526019163
  0
VERTEX
  8
0
 62
7
  6
CONTINUOUS
 10
367.7815745711
 20
318.1771482493
  0
VERTEX
  8
0
 62
7
  6
CONTINUOUS
 10
367.8618204217
 20
318.26664233
  0
SEQEND
  0
POLYLINE
  8
SURFACE
 62
7
  6
CONTINUOUS
 66
1
 70
0
  0
VERTEX
  8
SURFACE
 62
7
  6
CONTINUOUS
 10
118.9835507932
 20
316.4376654094
  0
VERTEX
  8
SURFACE
 62
7
  6
CONTINUOUS
 10
119.0714935424
 20
316.4533801993
  0
VERTEX
  8
SURFACE
 62
7
  6
CONTINUOUS
 10
119.26389377
 20
316.4841363158
  0
VERTEX
  8
SURFACE
 62
7
  6
CONTINUOUS
 10
119.4728031662
 20
316.51067238
  0
VERTEX
  8
SURFACE
 62
7
  6
CONTINUOUS
 10
119.6919703748
 20
316.5298261037
  0
SEQEND
  0
POLYLINE
  8
SURFACE
 62
7
  6
CONTINUOUS
 66
1
 70
0
  0
VERTEX
  8
SURFACE
 62
7
  6
CONTINUOUS
 10
118.6089205299
 20
316.3698472143
  0
VERTEX
  8
SURFACE
 62
7
  6
CONTINUOUS
 10
118.7022003543
 20
316.384609732
  0
VERTEX
  8
SURFACE
 62
7
  6
CONTINUOUS
 10
118.9835507932
 20
316.4376654094
  0
SEQEND
  0
LINE
  8
0
 62
7
  6
CONTINUOUS
 10
392.3260079247
 20
328.3618569858
 11
396.4932201263
 21
327.3927378692
  0
POLYLINE
  8
0
 62
7
  6
CONTINUOUS
 66
1
 70
0
  0
VERTEX
  8
0
 62
7
  6
CONTINUOUS
 10
356.6092431021
 20
320.3657557818
  0
VERTEX
  8
0
 62
7
  6
CONTINUOUS
 10
357.2122061928
 20
319.8000607976
  0
VERTEX
  8
0
 62
7
  6
CONTINUOUS
 10
357.7974796938
 20
319.251965393
  0
VERTEX
  8
0
 62
7
  6
CONTINUOUS
 10
358.3495833444
 20
318.7368852617
  0
VERTEX
  8
0
 62
7
  6
CONTINUOUS
 10
358.8566657825
 20
318.26664233
  0
SEQEND
  0
POLYLINE
  8
0
 62
7
  6
CONTINUOUS
 66
1
 70
0
  0
VERTEX
  8
0
 62
7
  6
CONTINUOUS
 10
345.1066657825
 20
318.26664233
  0
VERTEX
  8
0
 62
7
  6
CONTINUOUS
 10
345.1869089731
 20
318.1771517799
  0
VERTEX
  8
0
 62
7
  6
CONTINUOUS
 10
345.2644870341
 20
318.0526207293
  0
VERTEX
  8
0
 62
7
  6
CONTINUOUS
 10
345.2976747086
 20
317.9802708847
  0
VERTEX
  8
0
 62
7
  6
CONTINUOUS
 10
345.3439458375
 20
317.8295915708
  0
VERTEX
  8
0
 62
7
  6
CONTINUOUS
 10
345.3592431021
 20
317.6868871445
  0
SEQEND
  0
POLYLINE
  8
0
 62
7
  6
CONTINUOUS
 66
1
 70
0
  0
VERTEX
  8
0
 62
7
  6
CONTINUOUS
 10
358.8566657825
 20
318.26664233
  0
VERTEX
  8
0
 62
7
  6
CONTINUOUS
 10
358.9369089731
 20
318.1771517799
  0
VERTEX
  8
0
 62
7
  6
CONTINUOUS
 10
359.0144870341
 20
318.0526207293
  0
VERTEX
  8
0
 62
7
  6
CONTINUOUS
 10
359.0476747086
 20
317.9802708847
  0
VERTEX
  8
0
 62
7
  6
CONTINUOUS
 10
359.0939458375
 20
317.8295915708
  0
VERTEX
  8
0
 62
7
  6
CONTINUOUS
 10
359.1092431021
 20
317.6868871445
  0
SEQEND
  0
LINE
  8
0
 62
7
  6
CONTINUOUS
 10
367.6092431021
 20
316.5761695296
 11
367.6092431021
 21
327.6157557818
  0
LINE
  8
0
 62
7
  6
CONTINUOUS
 10
370.2492431021
 20
306.4517235845
 11
370.2492431021
 21
315.8657557818
  0
LINE
  8
0
 62
7
  6
CONTINUOUS
 10
373.6092431021
 20
316.5761695296
 11
373.6092431021
 21
327.6157557818
  0
LINE
  8
0
 62
7
  6
CONTINUOUS
 10
374.8992431021
 20
303.9657557818
 11
374.8992431021
 21
320.265851022
  0
LINE
  8
0
 62
7
  6
CONTINUOUS
 10
383.2342431021
 20
316.3657557818
 11
383.2342431021
 21
327.6157557818
  0
LINE
  8
0
 62
7
  6
CONTINUOUS
 10
374.8992430086
 20
315.8657557818
 11
374.9033393124
 21
315.9296269242
  0
POLYLINE
  8
0
 62
7
  6
CONTINUOUS
 66
1
 70
0
  0
VERTEX
  8
0
 62
7
  6
CONTINUOUS
 10
383.2342431021
 20
317.7186092302
  0
VERTEX
  8
0
 62
7
  6
CONTINUOUS
 10
383.2500083183
 20
317.8668001539
  0
VERTEX
  8
0
 62
7
  6
CONTINUOUS
 10
383.2977279946
 20
318.023634458
  0
VERTEX
  8
0
 62
7
  6
CONTINUOUS
 10
383.3706132935
 20
318.1677182413
  0
VERTEX
  8
0
 62
7
  6
CONTINUOUS
 10
383.4528214703
 20
318.2781950963
  0
SEQEND
  0
POLYLINE
  8
0
 62
7
  6
CONTINUOUS
 66
1
 70
0
  0
VERTEX
  8
0
 62
7
  6
CONTINUOUS
 10
374.9033393124
 20
315.9296269242
  0
VERTEX
  8
0
 62
7
  6
CONTINUOUS
 10
374.919896016
 20
316.0079755205
  0
VERTEX
  8
0
 62
7
  6
CONTINUOUS
 10
374.9487482213
 20
316.0826761151
  0
VERTEX
  8
0
 62
7
  6
CONTINUOUS
 10
374.9891558712
 20
316.1518126154
  0
VERTEX
  8
0
 62
7
  6
CONTINUOUS
 10
375.0400824508
 20
316.2136115737
  0
VERTEX
  8
0
 62
7
  6
CONTINUOUS
 10
375.1002216145
 20
316.2664877979
  0
VERTEX
  8
0
 62
7
  6
CONTINUOUS
 10
375.1680311018
 20
316.3090852096
  0
VERTEX
  8
0
 62
7
  6
CONTINUOUS
 10
375.2417712991
 20
316.340310914
  0
VERTEX
  8
0
 62
7
  6
CONTINUOUS
 10
375.2941086542
 20
316.3545774991
  0
SEQEND
  0
POLYLINE
  8
0
 62
7
  6
CONTINUOUS
 66
1
 70
0
  0
VERTEX
  8
0
 62
7
  6
CONTINUOUS
 10
389.2342431021
 20
321.3688898217
  0
VERTEX
  8
0
 62
7
  6
CONTINUOUS
 10
389.2464697569
 20
321.4067370491
  0
VERTEX
  8
0
 62
7
  6
CONTINUOUS
 10
389.3055038196
 20
321.6425172886
  0
VERTEX
  8
0
 62
7
  6
CONTINUOUS
 10
389.3484667862
 20
321.8830630878
  0
VERTEX
  8
0
 62
7
  6
CONTINUOUS
 10
389.3743418964
 20
322.1245454338
  0
VERTEX
  8
0
 62
7
  6
CONTINUOUS
 10
389.3828848142
 20
322.3657557818
  0
SEQEND
  0
POLYLINE
  8
SURFACE
 62
7
  6
CONTINUOUS
 66
1
 70
0
  0
VERTEX
  8
SURFACE
 62
7
  6
CONTINUOUS
 10
119.6919703748
 20
320.8797702671
  0
VERTEX
  8
SURFACE
 62
7
  6
CONTINUOUS
 10
119.7066323983
 20
320.8838411496
  0
VERTEX
  8
SURFACE
 62
7
  6
CONTINUOUS
 10
119.7353202499
 20
320.8971159907
  0
VERTEX
  8
SURFACE
 62
7
  6
CONTINUOUS
 10
119.7625861409
 20
320.9185041552
  0
VERTEX
  8
SURFACE
 62
7
  6
CONTINUOUS
 10
119.7751054921
 20
320.9327250306
  0
VERTEX
  8
SURFACE
 62
7
  6
CONTINUOUS
 10
119.7955739349
 20
320.9683775515
  0
VERTEX
  8
SURFACE
 62
7
  6
CONTINUOUS
 10
119.8075225383
 20
321.0145719385
  0
VERTEX
  8
SURFACE
 62
7
  6
CONTINUOUS
 10
119.8092431021
 20
321.0420148468
  0
SEQEND
  0
LINE
  8
SURFACE
 62
7
  6
CONTINUOUS
 10
101.0924782795
 20
328.3618569858
 11
96.9252660779
 21
327.3927378692
  0
POLYLINE
  8
0
 62
7
  6
CONTINUOUS
 66
1
 70
0
  0
VERTEX
  8
0
 62
7
  6
CONTINUOUS
 10
371.1092431021
 20
320.3657557818
  0
VERTEX
  8
0
 62
7
  6
CONTINUOUS
 10
371.7122061928
 20
319.8000607976
  0
VERTEX
  8
0
 62
7
  6
CONTINUOUS
 10
372.2974796938
 20
319.251965393
  0
VERTEX
  8
0
 62
7
  6
CONTINUOUS
 10
372.8495833444
 20
318.7368852617
  0
VERTEX
  8
0
 62
7
  6
CONTINUOUS
 10
373.3566657825
 20
318.26664233
  0
SEQEND
  0
POLYLINE
  8
0
 62
7
  6
CONTINUOUS
 66
1
 70
0
  0
VERTEX
  8
0
 62
7
  6
CONTINUOUS
 10
387.1076260703
 20
320.3657557818
  0
VERTEX
  8
0
 62
7
  6
CONTINUOUS
 10
387.6282057392
 20
319.8000184698
  0
VERTEX
  8
0
 62
7
  6
CONTINUOUS
 10
388.1297849495
 20
319.2534195631
  0
VERTEX
  8
0
 62
7
  6
CONTINUOUS
 10
388.5962647124
 20
318.7421370542
  0
VERTEX
  8
0
 62
7
  6
CONTINUOUS
 10
389.0156647339
 20
318.2781950963
  0
SEQEND
  0
POLYLINE
  8
0
 62
7
  6
CONTINUOUS
 66
1
 70
0
  0
VERTEX
  8
0
 62
7
  6
CONTINUOUS
 10
373.3566657825
 20
318.26664233
  0
VERTEX
  8
0
 62
7
  6
CONTINUOUS
 10
373.4369089731
 20
318.1771517799
  0
VERTEX
  8
0
 62
7
  6
CONTINUOUS
 10
373.5144870341
 20
318.0526207293
  0
VERTEX
  8
0
 62
7
  6
CONTINUOUS
 10
373.5476747086
 20
317.9802708847
  0
VERTEX
  8
0
 62
7
  6
CONTINUOUS
 10
373.5939458375
 20
317.8295915708
  0
VERTEX
  8
0
 62
7
  6
CONTINUOUS
 10
373.6092431021
 20
317.6868871445
  0
SEQEND
  0
POLYLINE
  8
0
 62
7
  6
CONTINUOUS
 66
1
 70
0
  0
VERTEX
  8
0
 62
7
  6
CONTINUOUS
 10
373.6092431021
 20
316.5761695296
  0
VERTEX
  8
0
 62
7
  6
CONTINUOUS
 10
373.616276925
 20
316.5611354207
  0
VERTEX
  8
0
 62
7
  6
CONTINUOUS
 10
373.6363760518
 20
316.5481809728
  0
VERTEX
  8
0
 62
7
  6
CONTINUOUS
 10
373.6506099199
 20
316.5427843556
  0
VERTEX
  8
0
 62
7
  6
CONTINUOUS
 10
373.685587717
 20
316.5345064414
  0
VERTEX
  8
0
 62
7
  6
CONTINUOUS
 10
373.7265158294
 20
316.5298261037
  0
SEQEND
  0
POLYLINE
  8
0
 62
7
  6
CONTINUOUS
 66
1
 70
0
  0
VERTEX
  8
0
 62
7
  6
CONTINUOUS
 10
374.8992431021
 20
316.3342908798
  0
VERTEX
  8
0
 62
7
  6
CONTINUOUS
 10
374.9013341583
 20
316.3160343538
  0
VERTEX
  8
0
 62
7
  6
CONTINUOUS
 10
374.9162873844
 20
316.2791156299
  0
VERTEX
  8
0
 62
7
  6
CONTINUOUS
 10
374.9411863976
 20
316.2519339102
  0
VERTEX
  8
0
 62
7
  6
CONTINUOUS
 10
374.9729016483
 20
316.23955613
  0
VERTEX
  8
0
 62
7
  6
CONTINUOUS
 10
375.0121872786
 20
316.2427207584
  0
VERTEX
  8
0
 62
7
  6
CONTINUOUS
 10
375.0350541296
 20
316.249961507
  0
VERTEX
  8
0
 62
7
  6
CONTINUOUS
 10
375.0895142642
 20
316.2743941153
  0
VERTEX
  8
0
 62
7
  6
CONTINUOUS
 10
375.1596524489
 20
316.3083801777
  0
VERTEX
  8
0
 62
7
  6
CONTINUOUS
 10
375.2472235688
 20
316.3422826737
  0
VERTEX
  8
0
 62
7
  6
CONTINUOUS
 10
375.2941080644
 20
316.3545818694
  0
SEQEND
  0
POLYLINE
  8
0
 62
7
  6
CONTINUOUS
 66
1
 70
0
  0
VERTEX
  8
0
 62
7
  6
CONTINUOUS
 10
389.3828848142
 20
322.3657557818
  0
VERTEX
  8
0
 62
7
  6
CONTINUOUS
 10
389.3742996615
 20
322.6070971509
  0
VERTEX
  8
0
 62
7
  6
CONTINUOUS
 10
389.3485829398
 20
322.8477319529
  0
VERTEX
  8
0
 62
7
  6
CONTINUOUS
 10
389.3057543545
 20
323.0878403773
  0
VERTEX
  8
0
 62
7
  6
CONTINUOUS
 10
389.2466301103
 20
323.3244036829
  0
VERTEX
  8
0
 62
7
  6
CONTINUOUS
 10
389.2342431021
 20
323.3627604065
  0
SEQEND
  0
LINE
  8
0
 62
7
  6
CONTINUOUS
 10
389.2342431021
 20
316.3657557818
 11
389.2342431021
 21
327.6157557818
  0
LINE
  8
0
 62
7
  6
CONTINUOUS
 10
396.6092431021
 20
327.2466366651
 11
396.6092431021
 21
316.3657557818
  0
POLYLINE
  8
0
 62
7
  6
CONTINUOUS
 66
1
 70
0
  0
VERTEX
  8
0
 62
7
  6
CONTINUOUS
 10
389.0156647339
 20
318.2781950963
  0
VERTEX
  8
0
 62
7
  6
CONTINUOUS
 10
389.0978889549
 20
318.1676923927
  0
VERTEX
  8
0
 62
7
  6
CONTINUOUS
 10
389.1707584696
 20
318.0236338134
  0
VERTEX
  8
0
 62
7
  6
CONTINUOUS
 10
389.2184780734
 20
317.8667992427
  0
VERTEX
  8
0
 62
7
  6
CONTINUOUS
 10
389.2342431021
 20
317.7186092302
  0
SEQEND
  0
POLYLINE
  8
SURFACE
 62
7
  6
CONTINUOUS
 66
1
 70
0
  0
VERTEX
  8
SURFACE
 62
7
  6
CONTINUOUS
 10
102.0592431021
 20
167.4149979607
  0
VERTEX
  8
SURFACE
 62
7
  6
CONTINUOUS
 10
102.0678288134
 20
167.3121537189
  0
VERTEX
  8
SURFACE
 62
7
  6
CONTINUOUS
 10
102.087378258
 20
167.2251448819
  0
VERTEX
  8
SURFACE
 62
7
  6
CONTINUOUS
 10
102.1154643228
 20
167.1404193922
  0
VERTEX
  8
SURFACE
 62
7
  6
CONTINUOUS
 10
102.158882243
 20
167.037563363
  0
VERTEX
  8
SURFACE
 62
7
  6
CONTINUOUS
 10
102.2213633788
 20
166.9133114244
  0
VERTEX
  8
SURFACE
 62
7
  6
CONTINUOUS
 10
102.3057965782
 20
166.7662657366
  0
VERTEX
  8
SURFACE
 62
7
  6
CONTINUOUS
 10
102.4164710438
 20
166.5933608084
  0
VERTEX
  8
SURFACE
 62
7
  6
CONTINUOUS
 10
102.5592429591
 20
166.3901971201
  0
SEQEND
  0
LINE
  8
SURFACE
 62
7
  6
CONTINUOUS
 10
96.8092431021
 20
167.9840316314
 11
96.8092431021
 21
180.8520307365
  0
LINE
  8
SURFACE
 62
7
  6
CONTINUOUS
 10
102.0592431021
 20
181.0834090167
 11
102.0592431021
 21
167.4149979607
  0
LINE
  8
SURFACE
 62
7
  6
CONTINUOUS
 10
104.1842431021
 20
148.3846400803
 11
104.1842431021
 21
152.3649431729
  0
LINE
  8
SURFACE
 62
7
  6
CONTINUOUS
 10
104.9342431021
 20
155.4449618296
 11
104.9342431021
 21
158.7249056341
  0
LINE
  8
SURFACE
 62
7
  6
CONTINUOUS
 10
109.4342431021
 20
160.1334090167
 11
109.4342431021
 21
155.4449618296
  0
LINE
  8
SURFACE
 62
7
  6
CONTINUOUS
 10
110.1842431021
 20
148.3846400803
 11
110.1842431021
 21
152.3649431729
  0
LINE
  8
SURFACE
 62
7
  6
CONTINUOUS
 10
112.3092431021
 20
176.5018748606
 11
112.3092431021
 21
180.7334090167
  0
LINE
  8
SURFACE
 62
7
  6
CONTINUOUS
 10
113.0592431021
 20
169.1834090167
 11
113.0592431021
 21
173.4218562039
  0
POLYLINE
  8
SURFACE
 62
7
  6
CONTINUOUS
 66
1
 70
0
  0
VERTEX
  8
SURFACE
 62
7
  6
CONTINUOUS
 10
101.9092431021
 20
175.3914445805
  0
VERTEX
  8
SURFACE
 62
7
  6
CONTINUOUS
 10
101.9708253021
 20
175.7709544782
  0
VERTEX
  8
SURFACE
 62
7
  6
CONTINUOUS
 10
102.0140697493
 20
176.0746058303
  0
VERTEX
  8
SURFACE
 62
7
  6
CONTINUOUS
 10
102.041103451
 20
176.3197108906
  0
VERTEX
  8
SURFACE
 62
7
  6
CONTINUOUS
 10
102.0551449485
 20
176.5188799967
  0
VERTEX
  8
SURFACE
 62
7
  6
CONTINUOUS
 10
102.0592431021
 20
176.6818872398
  0
SEQEND
  0
LINE
  8
SURFACE
 62
7
  6
CONTINUOUS
 10
104.1887217271
 20
152.4013235167
 11
104.9193143522
 21
155.323694017
  0
LINE
  8
SURFACE
 62
7
  6
CONTINUOUS
 10
109.449171852
 20
155.323694017
 11
110.1797644771
 21
152.4013235167
  0
LINE
  8
SURFACE
 62
7
  6
CONTINUOUS
 10
117.5592431021
 20
173.4218562039
 11
117.5592431021
 21
169.2834090167
  0
LINE
  8
SURFACE
 62
7
  6
CONTINUOUS
 10
118.3092431021
 20
176.5018748606
 11
118.3092431021
 21
180.7334090167
  0
LINE
  8
SURFACE
 62
7
  6
CONTINUOUS
 10
118.5192431021
 20
151.7134090167
 11
118.5192431021
 21
163.1334090167
  0
LINE
  8
SURFACE
 62
7
  6
CONTINUOUS
 10
119.8092431021
 20
148.4129439313
 11
119.8092431021
 21
152.3649431729
  0
LINE
  8
SURFACE
 62
7
  6
CONTINUOUS
 10
120.5592431021
 20
155.4449618296
 11
120.5592431021
 21
161.1334090167
  0
LINE
  8
SURFACE
 62
7
  6
CONTINUOUS
 10
125.0592431021
 20
161.2834090167
 11
125.0592431021
 21
155.4449618296
  0
LINE
  8
SURFACE
 62
7
  6
CONTINUOUS
 10
125.8092431021
 20
148.4129439313
 11
125.8092431021
 21
152.3649431729
  0
LINE
  8
SURFACE
 62
7
  6
CONTINUOUS
 10
127.3092431021
 20
176.5018748606
 11
127.3092431021
 21
180.7334090167
  0
LINE
  8
SURFACE
 62
7
  6
CONTINUOUS
 10
128.0592431021
 20
169.2834090167
 11
128.0592431021
 21
173.4218562039
  0
LINE
  8
SURFACE
 62
7
  6
CONTINUOUS
 10
130.9692431021
 20
156.0226812548
 11
130.9692431021
 21
161.2441367787
  0
LINE
  8
SURFACE
 62
7
  6
CONTINUOUS
 10
118.3047644771
 20
176.4654945168
 11
117.574171852
 21
173.5431240165
  0
LINE
  8
SURFACE
 62
7
  6
CONTINUOUS
 10
119.8137217271
 20
152.4013235167
 11
120.5443143522
 21
155.323694017
  0
LINE
  8
SURFACE
 62
7
  6
CONTINUOUS
 10
113.0443143522
 20
173.5431240165
 11
112.3137217271
 21
176.4654945168
  0
LINE
  8
SURFACE
 62
7
  6
CONTINUOUS
 10
125.8047644771
 20
152.4013235167
 11
125.074171852
 21
155.323694017
  0
LINE
  8
SURFACE
 62
7
  6
CONTINUOUS
 10
132.5592431021
 20
173.4218562039
 11
132.5592431021
 21
168.7834090167
  0
LINE
  8
SURFACE
 62
7
  6
CONTINUOUS
 10
133.3092431021
 20
176.5018748606
 11
133.3092431021
 21
180.7334090167
  0
LINE
  8
SURFACE
 62
7
  6
CONTINUOUS
 10
134.3092431021
 20
148.4129439313
 11
134.3092431021
 21
152.3649431729
  0
LINE
  8
SURFACE
 62
7
  6
CONTINUOUS
 10
135.0592431021
 20
155.4449618296
 11
135.0592431021
 21
161.2834090167
  0
LINE
  8
SURFACE
 62
7
  6
CONTINUOUS
 10
139.5592431021
 20
161.2834090167
 11
139.5592431021
 21
155.4449618296
  0
LINE
  8
SURFACE
 62
7
  6
CONTINUOUS
 10
140.3092431021
 20
148.4129439313
 11
140.3092431021
 21
152.3649431729
  0
LINE
  8
SURFACE
 62
7
  6
CONTINUOUS
 10
141.3092431021
 20
176.5018748606
 11
141.3092431021
 21
180.7334090167
  0
LINE
  8
SURFACE
 62
7
  6
CONTINUOUS
 10
142.0592431021
 20
168.7834090167
 11
142.0592431021
 21
173.4218562039
  0
LINE
  8
SURFACE
 62
7
  6
CONTINUOUS
 10
146.5592431021
 20
173.4218562039
 11
146.5592431021
 21
168.7834090167
  0
LINE
  8
SURFACE
 62
7
  6
CONTINUOUS
 10
147.3092431021
 20
176.5018748606
 11
147.3092431021
 21
180.7334090167
  0
LINE
  8
SURFACE
 62
7
  6
CONTINUOUS
 10
148.0592431021
 20
148.4129439313
 11
148.0592431021
 21
152.3649431729
  0
LINE
  8
SURFACE
 62
7
  6
CONTINUOUS
 10
148.8092431021
 20
155.4449618296
 11
148.8092431021
 21
161.2834090167
  0
LINE
  8
SURFACE
 62
7
  6
CONTINUOUS
 10
133.3047644771
 20
176.4654945168
 11
132.574171852
 21
173.5431240165
  0
LINE
  8
SURFACE
 62
7
  6
CONTINUOUS
 10
134.3137217271
 20
152.4013235167
 11
135.0443143522
 21
155.323694017
  0
LINE
  8
SURFACE
 62
7
  6
CONTINUOUS
 10
147.3047644771
 20
176.4654945168
 11
146.574171852
 21
173.5431240165
  0
LINE
  8
SURFACE
 62
7
  6
CONTINUOUS
 10
128.0443143522
 20
173.5431240165
 11
127.3137217271
 21
176.4654945168
  0
LINE
  8
SURFACE
 62
7
  6
CONTINUOUS
 10
139.574171852
 20
155.323694017
 11
140.3047644771
 21
152.4013235167
  0
LINE
  8
SURFACE
 62
7
  6
CONTINUOUS
 10
142.0443143522
 20
173.5431240165
 11
141.3137217271
 21
176.4654945168
  0
LINE
  8
SURFACE
 62
7
  6
CONTINUOUS
 10
153.3092431021
 20
161.2494195053
 11
153.3092431021
 21
155.4449618296
  0
LINE
  8
SURFACE
 62
7
  6
CONTINUOUS
 10
154.0592431021
 20
148.4129439313
 11
154.0592431021
 21
152.3649431729
  0
LINE
  8
SURFACE
 62
7
  6
CONTINUOUS
 10
154.8092431021
 20
176.5018748606
 11
154.8092431021
 21
180.7334090167
  0
LINE
  8
SURFACE
 62
7
  6
CONTINUOUS
 10
155.5592431021
 20
168.7834090167
 11
155.5592431021
 21
173.4218562039
  0
LINE
  8
SURFACE
 62
7
  6
CONTINUOUS
 10
160.0592431021
 20
173.4218562039
 11
160.0592431021
 21
169.2334090167
  0
LINE
  8
SURFACE
 62
7
  6
CONTINUOUS
 10
160.8092431021
 20
176.5018748606
 11
160.8092431021
 21
180.7334090167
  0
LINE
  8
SURFACE
 62
7
  6
CONTINUOUS
 10
161.1592431021
 20
148.948677085
 11
161.1592431021
 21
152.3649431729
  0
LINE
  8
SURFACE
 62
7
  6
CONTINUOUS
 10
161.9092431021
 20
155.4449618296
 11
161.9092431021
 21
161.7494195053
  0
LINE
  8
SURFACE
 62
7
  6
CONTINUOUS
 10
166.4092431021
 20
161.7494195053
 11
166.4092431021
 21
155.4449618296
  0
LINE
  8
SURFACE
 62
7
  6
CONTINUOUS
 10
167.1592431021
 20
148.948677085
 11
167.1592431021
 21
152.3649431729
  0
LINE
  8
SURFACE
 62
7
  6
CONTINUOUS
 10
167.5092431021
 20
176.5018748606
 11
167.5092431021
 21
180.7334090167
  0
LINE
  8
SURFACE
 62
7
  6
CONTINUOUS
 10
168.2592431021
 20
169.2334090167
 11
168.2592431021
 21
173.4218562039
  0
POLYLINE
  8
SURFACE
 62
7
  6
CONTINUOUS
 66
1
 70
0
  0
VERTEX
  8
SURFACE
 62
7
  6
CONTINUOUS
 10
166.4092431021
 20
161.7494190473
  0
VERTEX
  8
SURFACE
 62
7
  6
CONTINUOUS
 10
166.420447395
 20
161.9607882122
  0
VERTEX
  8
SURFACE
 62
7
  6
CONTINUOUS
 10
166.4568080939
 20
162.182947302
  0
VERTEX
  8
SURFACE
 62
7
  6
CONTINUOUS
 10
166.5179406817
 20
162.3997136118
  0
VERTEX
  8
SURFACE
 62
7
  6
CONTINUOUS
 10
166.6030848003
 20
162.6082933199
  0
VERTEX
  8
SURFACE
 62
7
  6
CONTINUOUS
 10
166.7111647778
 20
162.8060084673
  0
VERTEX
  8
SURFACE
 62
7
  6
CONTINUOUS
 10
166.8408065195
 20
162.990327055
  0
VERTEX
  8
SURFACE
 62
7
  6
CONTINUOUS
 10
166.990356783
 20
163.1588935382
  0
VERTEX
  8
SURFACE
 62
7
  6
CONTINUOUS
 10
167.1579053225
 20
163.3095581033
  0
VERTEX
  8
SURFACE
 62
7
  6
CONTINUOUS
 10
167.3413091625
 20
163.4404034051
  0
VERTEX
  8
SURFACE
 62
7
  6
CONTINUOUS
 10
167.5382188796
 20
163.5497690585
  0
VERTEX
  8
SURFACE
 62
7
  6
CONTINUOUS
 10
167.7461064745
 20
163.6362739019
  0
VERTEX
  8
SURFACE
 62
7
  6
CONTINUOUS
 10
167.9622901885
 20
163.6988353673
  0
VERTEX
  8
SURFACE
 62
7
  6
CONTINUOUS
 10
168.1646021943
 20
163.733384893
  0
SEQEND
  0
LINE
  8
SURFACE
 62
7
  6
CONTINUOUS
 10
148.0637217271
 20
152.4013235167
 11
148.7943143522
 21
155.323694017
  0
LINE
  8
SURFACE
 62
7
  6
CONTINUOUS
 10
160.8047644771
 20
176.4654945168
 11
160.074171852
 21
173.5431240165
  0
LINE
  8
SURFACE
 62
7
  6
CONTINUOUS
 10
161.1637217271
 20
152.4013235167
 11
161.8943143522
 21
155.323694017
  0
LINE
  8
SURFACE
 62
7
  6
CONTINUOUS
 10
101.9092431021
 20
170.5963116115
 11
102.0592431021
 21
170.7332416933
  0
LINE
  8
SURFACE
 62
7
  6
CONTINUOUS
 10
153.324171852
 20
155.323694017
 11
154.0547644771
 21
152.4013235167
  0
LINE
  8
SURFACE
 62
7
  6
CONTINUOUS
 10
155.5443143522
 20
173.5431240165
 11
154.8137217271
 21
176.4654945168
  0
LINE
  8
SURFACE
 62
7
  6
CONTINUOUS
 10
166.424171852
 20
155.323694017
 11
167.1547644771
 21
152.4013235167
  0
LINE
  8
SURFACE
 62
7
  6
CONTINUOUS
 10
172.7592431021
 20
173.4218562039
 11
172.7592431021
 21
169.2334090167
  0
LINE
  8
SURFACE
 62
7
  6
CONTINUOUS
 10
173.5092431021
 20
176.5018748606
 11
173.5092431021
 21
180.7334090167
  0
LINE
  8
SURFACE
 62
7
  6
CONTINUOUS
 10
173.8592431021
 20
148.948677085
 11
173.8592431021
 21
152.3649431729
  0
LINE
  8
SURFACE
 62
7
  6
CONTINUOUS
 10
174.6092431021
 20
155.4449618296
 11
174.6092431021
 21
161.7494195053
  0
LINE
  8
SURFACE
 62
7
  6
CONTINUOUS
 10
179.1092431021
 20
161.7494195053
 11
179.1092431021
 21
155.4449618296
  0
LINE
  8
SURFACE
 62
7
  6
CONTINUOUS
 10
179.8592431021
 20
148.948677085
 11
179.8592431021
 21
152.3649431729
  0
LINE
  8
SURFACE
 62
7
  6
CONTINUOUS
 10
180.2092431021
 20
176.5018748606
 11
180.2092431021
 21
180.7334090167
  0
LINE
  8
SURFACE
 62
7
  6
CONTINUOUS
 10
180.9592431021
 20
169.2334090167
 11
180.9592431021
 21
173.4218562039
  0
LINE
  8
SURFACE
 62
7
  6
CONTINUOUS
 10
185.4592431021
 20
173.4218562039
 11
185.4592431021
 21
169.2334090167
  0
LINE
  8
SURFACE
 62
7
  6
CONTINUOUS
 10
186.2092431021
 20
176.5018748606
 11
186.2092431021
 21
180.7334090167
  0
LINE
  8
SURFACE
 62
7
  6
CONTINUOUS
 10
186.5592431021
 20
148.948677085
 11
186.5592431021
 21
152.3649431729
  0
LINE
  8
SURFACE
 62
7
  6
CONTINUOUS
 10
187.3092431021
 20
155.4449618296
 11
187.3092431021
 21
161.7494195053
  0
POLYLINE
  8
SURFACE
 62
7
  6
CONTINUOUS
 66
1
 70
0
  0
VERTEX
  8
SURFACE
 62
7
  6
CONTINUOUS
 10
179.1092431021
 20
161.7494190473
  0
VERTEX
  8
SURFACE
 62
7
  6
CONTINUOUS
 10
179.1204473948
 20
161.9607882108
  0
VERTEX
  8
SURFACE
 62
7
  6
CONTINUOUS
 10
179.1568080932
 20
162.1829472993
  0
VERTEX
  8
SURFACE
 62
7
  6
CONTINUOUS
 10
179.2179406804
 20
162.3997136078
  0
VERTEX
  8
SURFACE
 62
7
  6
CONTINUOUS
 10
179.3030847979
 20
162.6082933148
  0
VERTEX
  8
SURFACE
 62
7
  6
CONTINUOUS
 10
179.4111647741
 20
162.8060084614
  0
VERTEX
  8
SURFACE
 62
7
  6
CONTINUOUS
 10
179.5408065142
 20
162.9903270484
  0
VERTEX
  8
SURFACE
 62
7
  6
CONTINUOUS
 10
179.6903567761
 20
163.1588935312
  0
VERTEX
  8
SURFACE
 62
7
  6
CONTINUOUS
 10
179.8579053137
 20
163.3095580962
  0
VERTEX
  8
SURFACE
 62
7
  6
CONTINUOUS
 10
180.0413091518
 20
163.4404033983
  0
VERTEX
  8
SURFACE
 62
7
  6
CONTINUOUS
 10
180.2382188668
 20
163.5497690524
  0
VERTEX
  8
SURFACE
 62
7
  6
CONTINUOUS
 10
180.4461064601
 20
163.6362738969
  0
VERTEX
  8
SURFACE
 62
7
  6
CONTINUOUS
 10
180.6622901718
 20
163.6988353635
  0
VERTEX
  8
SURFACE
 62
7
  6
CONTINUOUS
 10
180.8646021862
 20
163.7333848925
  0
SEQEND
  0
LINE
  8
SURFACE
 62
7
  6
CONTINUOUS
 10
173.5047644771
 20
176.4654945168
 11
172.774171852
 21
173.5431240165
  0
LINE
  8
SURFACE
 62
7
  6
CONTINUOUS
 10
173.8637217271
 20
152.4013235167
 11
174.5943143522
 21
155.323694017
  0
LINE
  8
SURFACE
 62
7
  6
CONTINUOUS
 10
186.2047644771
 20
176.4654945168
 11
185.474171852
 21
173.5431240165
  0
LINE
  8
SURFACE
 62
7
  6
CONTINUOUS
 10
104.3986480394
 20
147.9742315751
 11
104.4061544001
 21
147.9690836311
  0
LINE
  8
SURFACE
 62
7
  6
CONTINUOUS
 10
161.2989776967
 20
148.6018125687
 11
161.3059325639
 21
148.5944059179
  0
LINE
  8
SURFACE
 62
7
  6
CONTINUOUS
 10
161.2910722169
 20
148.6103603274
 11
161.3019401305
 21
148.5986469756
  0
LINE
  8
SURFACE
 62
7
  6
CONTINUOUS
 10
161.2902069984
 20
148.6113095189
 11
161.2926336469
 21
148.6086567907
  0
LINE
  8
SURFACE
 62
7
  6
CONTINUOUS
 10
161.286423116
 20
148.6155025929
 11
161.2894974636
 21
148.6120895623
  0
POLYLINE
  8
SURFACE
 62
7
  6
CONTINUOUS
 66
1
 70
0
  0
VERTEX
  8
SURFACE
 62
7
  6
CONTINUOUS
 10
161.2877091759
 20
148.6140685357
  0
VERTEX
  8
SURFACE
 62
7
  6
CONTINUOUS
 10
161.2881562463
 20
148.613572287
  0
VERTEX
  8
SURFACE
 62
7
  6
CONTINUOUS
 10
161.2902069984
 20
148.6113095189
  0
SEQEND
  0
LINE
  8
SURFACE
 62
7
  6
CONTINUOUS
 10
168.2443143522
 20
173.5431240165
 11
167.5137217271
 21
176.4654945168
  0
LINE
  8
SURFACE
 62
7
  6
CONTINUOUS
 10
179.124171852
 20
155.323694017
 11
179.8547644771
 21
152.4013235167
  0
LINE
  8
SURFACE
 62
7
  6
CONTINUOUS
 10
180.9443143522
 20
173.5431240165
 11
180.2137217271
 21
176.4654945168
  0
LINE
  8
SURFACE
 62
7
  6
CONTINUOUS
 10
191.8092431021
 20
161.7494195053
 11
191.8092431021
 21
155.4449618296
  0
LINE
  8
SURFACE
 62
7
  6
CONTINUOUS
 10
192.5592431021
 20
148.948677085
 11
192.5592431021
 21
152.3649431729
  0
LINE
  8
SURFACE
 62
7
  6
CONTINUOUS
 10
192.9092431021
 20
176.5018748606
 11
192.9092431021
 21
180.7334090167
  0
LINE
  8
SURFACE
 62
7
  6
CONTINUOUS
 10
193.6592431021
 20
169.2334090167
 11
193.6592431021
 21
173.4218562039
  0
LINE
  8
SURFACE
 62
7
  6
CONTINUOUS
 10
198.1592431021
 20
173.4218562039
 11
198.1592431021
 21
169.2334090167
  0
LINE
  8
SURFACE
 62
7
  6
CONTINUOUS
 10
198.9092431021
 20
176.5018748606
 11
198.9092431021
 21
180.7334090167
  0
LINE
  8
SURFACE
 62
7
  6
CONTINUOUS
 10
199.2592431021
 20
148.948677085
 11
199.2592431021
 21
152.3649431729
  0
LINE
  8
SURFACE
 62
7
  6
CONTINUOUS
 10
200.0092431021
 20
155.4449618296
 11
200.0092431021
 21
161.7494195053
  0
LINE
  8
SURFACE
 62
7
  6
CONTINUOUS
 10
204.5092431021
 20
161.7494195053
 11
204.5092431021
 21
155.4449618296
  0
LINE
  8
SURFACE
 62
7
  6
CONTINUOUS
 10
205.2592431021
 20
148.948677085
 11
205.2592431021
 21
152.3649431729
  0
LINE
  8
SURFACE
 62
7
  6
CONTINUOUS
 10
205.6092431021
 20
176.5018748606
 11
205.6092431021
 21
180.7334090167
  0
POLYLINE
  8
SURFACE
 62
7
  6
CONTINUOUS
 66
1
 70
0
  0
VERTEX
  8
SURFACE
 62
7
  6
CONTINUOUS
 10
191.8092431021
 20
161.7494190473
  0
VERTEX
  8
SURFACE
 62
7
  6
CONTINUOUS
 10
191.8204473949
 20
161.960788212
  0
VERTEX
  8
SURFACE
 62
7
  6
CONTINUOUS
 10
191.8568080938
 20
162.1829473016
  0
VERTEX
  8
SURFACE
 62
7
  6
CONTINUOUS
 10
191.9179406815
 20
162.3997136112
  0
VERTEX
  8
SURFACE
 62
7
  6
CONTINUOUS
 10
192.0030847999
 20
162.608293319
  0
VERTEX
  8
SURFACE
 62
7
  6
CONTINUOUS
 10
192.1111647772
 20
162.8060084664
  0
VERTEX
  8
SURFACE
 62
7
  6
CONTINUOUS
 10
192.2408065186
 20
162.9903270539
  0
VERTEX
  8
SURFACE
 62
7
  6
CONTINUOUS
 10
192.3903567819
 20
163.158893537
  0
VERTEX
  8
SURFACE
 62
7
  6
CONTINUOUS
 10
192.5579053211
 20
163.3095581021
  0
VERTEX
  8
SURFACE
 62
7
  6
CONTINUOUS
 10
192.7413091608
 20
163.440403404
  0
VERTEX
  8
SURFACE
 62
7
  6
CONTINUOUS
 10
192.9382188775
 20
163.5497690576
  0
VERTEX
  8
SURFACE
 62
7
  6
CONTINUOUS
 10
193.1461064722
 20
163.6362739011
  0
VERTEX
  8
SURFACE
 62
7
  6
CONTINUOUS
 10
193.3622901858
 20
163.6988353667
  0
VERTEX
  8
SURFACE
 62
7
  6
CONTINUOUS
 10
193.564602193
 20
163.7333848929
  0
SEQEND
  0
POLYLINE
  8
SURFACE
 62
7
  6
CONTINUOUS
 66
1
 70
0
  0
VERTEX
  8
SURFACE
 62
7
  6
CONTINUOUS
 10
204.5092431021
 20
161.7494190473
  0
VERTEX
  8
SURFACE
 62
7
  6
CONTINUOUS
 10
204.520447395
 20
161.9607882126
  0
VERTEX
  8
SURFACE
 62
7
  6
CONTINUOUS
 10
204.556808094
 20
162.1829473028
  0
VERTEX
  8
SURFACE
 62
7
  6
CONTINUOUS
 10
204.6179406821
 20
162.399713613
  0
VERTEX
  8
SURFACE
 62
7
  6
CONTINUOUS
 10
204.703084801
 20
162.6082933213
  0
VERTEX
  8
SURFACE
 62
7
  6
CONTINUOUS
 10
204.8111647789
 20
162.8060084691
  0
VERTEX
  8
SURFACE
 62
7
  6
CONTINUOUS
 10
204.940806521
 20
162.9903270569
  0
VERTEX
  8
SURFACE
 62
7
  6
CONTINUOUS
 10
205.0903567851
 20
163.1588935402
  0
VERTEX
  8
SURFACE
 62
7
  6
CONTINUOUS
 10
205.257905325
 20
163.3095581053
  0
VERTEX
  8
SURFACE
 62
7
  6
CONTINUOUS
 10
205.4413091656
 20
163.4404034071
  0
VERTEX
  8
SURFACE
 62
7
  6
CONTINUOUS
 10
205.6382188833
 20
163.5497690603
  0
VERTEX
  8
SURFACE
 62
7
  6
CONTINUOUS
 10
205.8461064786
 20
163.6362739034
  0
VERTEX
  8
SURFACE
 62
7
  6
CONTINUOUS
 10
206.0622901933
 20
163.6988353685
  0
VERTEX
  8
SURFACE
 62
7
  6
CONTINUOUS
 10
206.2646021967
 20
163.7333848932
  0
SEQEND
  0
LINE
  8
SURFACE
 62
7
  6
CONTINUOUS
 10
186.5637217271
 20
152.4013235167
 11
187.2943143522
 21
155.323694017
  0
LINE
  8
SURFACE
 62
7
  6
CONTINUOUS
 10
198.9047644771
 20
176.4654945168
 11
198.174171852
 21
173.5431240165
  0
LINE
  8
SURFACE
 62
7
  6
CONTINUOUS
 10
199.2637217271
 20
152.4013235167
 11
199.9943143522
 21
155.323694017
  0
LINE
  8
SURFACE
 62
7
  6
CONTINUOUS
 10
109.9623013977
 20
147.9690628119
 11
109.9697482185
 21
147.9741689899
  0
LINE
  8
SURFACE
 62
7
  6
CONTINUOUS
 10
120.0588329835
 20
147.980168466
 11
120.0654507971
 21
147.9763825547
  0
LINE
  8
SURFACE
 62
7
  6
CONTINUOUS
 10
134.5588329897
 20
147.9801684624
 11
134.5654507971
 21
147.9763825547
  0
LINE
  8
SURFACE
 62
7
  6
CONTINUOUS
 10
173.9989776967
 20
148.6018125687
 11
174.0059325639
 21
148.5944059179
  0
LINE
  8
SURFACE
 62
7
  6
CONTINUOUS
 10
186.6989776967
 20
148.6018125687
 11
186.7059325639
 21
148.5944059179
  0
LINE
  8
SURFACE
 62
7
  6
CONTINUOUS
 10
173.9910722168
 20
148.6103603275
 11
174.0019401305
 21
148.5986469756
  0
LINE
  8
SURFACE
 62
7
  6
CONTINUOUS
 10
186.6910722168
 20
148.6103603275
 11
186.7019401305
 21
148.5986469755
  0
LINE
  8
SURFACE
 62
7
  6
CONTINUOUS
 10
173.9902069984
 20
148.6113095189
 11
173.9926336469
 21
148.6086567907
  0
LINE
  8
SURFACE
 62
7
  6
CONTINUOUS
 10
186.6902069984
 20
148.6113095189
 11
186.6926336469
 21
148.6086567907
  0
LINE
  8
SURFACE
 62
7
  6
CONTINUOUS
 10
173.9864231159
 20
148.6155025929
 11
173.9894974636
 21
148.6120895623
  0
POLYLINE
  8
SURFACE
 62
7
  6
CONTINUOUS
 66
1
 70
0
  0
VERTEX
  8
SURFACE
 62
7
  6
CONTINUOUS
 10
173.9877091759
 20
148.6140685357
  0
VERTEX
  8
SURFACE
 62
7
  6
CONTINUOUS
 10
173.9881562463
 20
148.613572287
  0
VERTEX
  8
SURFACE
 62
7
  6
CONTINUOUS
 10
173.9902069984
 20
148.6113095189
  0
SEQEND
  0
LINE
  8
SURFACE
 62
7
  6
CONTINUOUS
 10
186.686423116
 20
148.6155025929
 11
186.6894974636
 21
148.6120895623
  0
POLYLINE
  8
SURFACE
 62
7
  6
CONTINUOUS
 66
1
 70
0
  0
VERTEX
  8
SURFACE
 62
7
  6
CONTINUOUS
 10
186.6877091759
 20
148.6140685357
  0
VERTEX
  8
SURFACE
 62
7
  6
CONTINUOUS
 10
186.6881562463
 20
148.613572287
  0
VERTEX
  8
SURFACE
 62
7
  6
CONTINUOUS
 10
186.6902069984
 20
148.6113095189
  0
SEQEND
  0
LINE
  8
SURFACE
 62
7
  6
CONTINUOUS
 10
191.824171852
 20
155.323694017
 11
192.5547644771
 21
152.4013235167
  0
LINE
  8
SURFACE
 62
7
  6
CONTINUOUS
 10
193.6443143522
 20
173.5431240165
 11
192.9137217271
 21
176.4654945168
  0
LINE
  8
SURFACE
 62
7
  6
CONTINUOUS
 10
204.524171852
 20
155.323694017
 11
205.2547644771
 21
152.4013235167
  0
LINE
  8
SURFACE
 62
7
  6
CONTINUOUS
 10
206.3592431021
 20
169.2334090167
 11
206.3592431021
 21
173.4218562039
  0
LINE
  8
SURFACE
 62
7
  6
CONTINUOUS
 10
210.8592431021
 20
173.4218562039
 11
210.8592431021
 21
169.2334090167
  0
LINE
  8
SURFACE
 62
7
  6
CONTINUOUS
 10
211.6092431021
 20
176.5018748606
 11
211.6092431021
 21
180.7334090167
  0
LINE
  8
SURFACE
 62
7
  6
CONTINUOUS
 10
211.9592431021
 20
148.948677085
 11
211.9592431021
 21
152.3649431729
  0
LINE
  8
SURFACE
 62
7
  6
CONTINUOUS
 10
212.7092431021
 20
155.4449618296
 11
212.7092431021
 21
161.7494195053
  0
LINE
  8
SURFACE
 62
7
  6
CONTINUOUS
 10
217.2092431021
 20
161.7494195053
 11
217.2092431021
 21
155.4449618296
  0
LINE
  8
SURFACE
 62
7
  6
CONTINUOUS
 10
217.9592431021
 20
148.948677085
 11
217.9592431021
 21
152.3649431729
  0
LINE
  8
SURFACE
 62
7
  6
CONTINUOUS
 10
218.3092431021
 20
176.5018748606
 11
218.3092431021
 21
180.7334090167
  0
LINE
  8
SURFACE
 62
7
  6
CONTINUOUS
 10
219.0592431021
 20
169.2334090167
 11
219.0592431021
 21
173.4218562039
  0
LINE
  8
SURFACE
 62
7
  6
CONTINUOUS
 10
223.5592431021
 20
173.4218562039
 11
223.5592431021
 21
169.2334090167
  0
LINE
  8
SURFACE
 62
7
  6
CONTINUOUS
 10
224.3092431021
 20
176.5018748606
 11
224.3092431021
 21
180.7334090167
  0
LINE
  8
SURFACE
 62
7
  6
CONTINUOUS
 10
224.6592431021
 20
148.948677085
 11
224.6592431021
 21
152.3649431729
  0
POLYLINE
  8
SURFACE
 62
7
  6
CONTINUOUS
 66
1
 70
0
  0
VERTEX
  8
SURFACE
 62
7
  6
CONTINUOUS
 10
217.2092431021
 20
161.7494190473
  0
VERTEX
  8
SURFACE
 62
7
  6
CONTINUOUS
 10
217.2204473949
 20
161.9607882113
  0
VERTEX
  8
SURFACE
 62
7
  6
CONTINUOUS
 10
217.2568080935
 20
162.1829473003
  0
VERTEX
  8
SURFACE
 62
7
  6
CONTINUOUS
 10
217.3179406809
 20
162.3997136092
  0
VERTEX
  8
SURFACE
 62
7
  6
CONTINUOUS
 10
217.4030847988
 20
162.6082933166
  0
VERTEX
  8
SURFACE
 62
7
  6
CONTINUOUS
 10
217.5111647754
 20
162.8060084635
  0
VERTEX
  8
SURFACE
 62
7
  6
CONTINUOUS
 10
217.6408065161
 20
162.9903270508
  0
VERTEX
  8
SURFACE
 62
7
  6
CONTINUOUS
 10
217.7903567786
 20
163.1588935337
  0
VERTEX
  8
SURFACE
 62
7
  6
CONTINUOUS
 10
217.9579053169
 20
163.3095580987
  0
VERTEX
  8
SURFACE
 62
7
  6
CONTINUOUS
 10
218.1413091557
 20
163.4404034008
  0
VERTEX
  8
SURFACE
 62
7
  6
CONTINUOUS
 10
218.3382188714
 20
163.5497690546
  0
VERTEX
  8
SURFACE
 62
7
  6
CONTINUOUS
 10
218.5461064653
 20
163.6362738987
  0
VERTEX
  8
SURFACE
 62
7
  6
CONTINUOUS
 10
218.7622901778
 20
163.6988353649
  0
VERTEX
  8
SURFACE
 62
7
  6
CONTINUOUS
 10
218.9646021891
 20
163.7333848927
  0
SEQEND
  0
LINE
  8
SURFACE
 62
7
  6
CONTINUOUS
 10
211.6047644771
 20
176.4654945168
 11
210.874171852
 21
173.5431240165
  0
LINE
  8
SURFACE
 62
7
  6
CONTINUOUS
 10
211.9637217271
 20
152.4013235167
 11
212.6943143522
 21
155.323694017
  0
LINE
  8
SURFACE
 62
7
  6
CONTINUOUS
 10
224.3047644771
 20
176.4654945168
 11
223.574171852
 21
173.5431240165
  0
LINE
  8
SURFACE
 62
7
  6
CONTINUOUS
 10
167.0284334352
 20
148.6114784223
 11
167.0318276889
 21
148.6152393634
  0
LINE
  8
SURFACE
 62
7
  6
CONTINUOUS
 10
179.7284334352
 20
148.6114784223
 11
179.7318276889
 21
148.6152393634
  0
LINE
  8
SURFACE
 62
7
  6
CONTINUOUS
 10
167.0259847475
 20
148.6087997834
 11
167.0284334352
 21
148.6114784223
  0
LINE
  8
SURFACE
 62
7
  6
CONTINUOUS
 10
179.7259847475
 20
148.6087997834
 11
179.7284334352
 21
148.6114784223
  0
LINE
  8
SURFACE
 62
7
  6
CONTINUOUS
 10
167.0223035913
 20
148.6048134611
 11
167.0259847475
 21
148.6087997834
  0
LINE
  8
SURFACE
 62
7
  6
CONTINUOUS
 10
179.7223035913
 20
148.6048134611
 11
179.7259847475
 21
148.6087997834
  0
LINE
  8
SURFACE
 62
7
  6
CONTINUOUS
 10
167.0176341861
 20
148.5998073823
 11
167.0223035913
 21
148.6048134611
  0
LINE
  8
SURFACE
 62
7
  6
CONTINUOUS
 10
179.7176341861
 20
148.5998073823
 11
179.7223035913
 21
148.6048134611
  0
LINE
  8
SURFACE
 62
7
  6
CONTINUOUS
 10
167.012340231
 20
148.594178722
 11
167.0176341861
 21
148.5998073823
  0
LINE
  8
SURFACE
 62
7
  6
CONTINUOUS
 10
179.712340231
 20
148.594178722
 11
179.7176341861
 21
148.5998073823
  0
LINE
  8
SURFACE
 62
7
  6
CONTINUOUS
 10
148.3088329897
 20
147.9801684624
 11
148.3154507971
 21
147.9763825547
  0
LINE
  8
SURFACE
 62
7
  6
CONTINUOUS
 10
199.3989776967
 20
148.6018125688
 11
199.4059325639
 21
148.5944059179
  0
LINE
  8
SURFACE
 62
7
  6
CONTINUOUS
 10
212.0989776967
 20
148.6018125688
 11
212.1059325639
 21
148.5944059179
  0
LINE
  8
SURFACE
 62
7
  6
CONTINUOUS
 10
199.3910722169
 20
148.6103603275
 11
199.4019401304
 21
148.5986469756
  0
LINE
  8
SURFACE
 62
7
  6
CONTINUOUS
 10
212.0947385701
 20
148.6063733793
 11
212.0989776967
 21
148.6018125688
  0
LINE
  8
SURFACE
 62
7
  6
CONTINUOUS
 10
212.0913710843
 20
148.6100339608
 11
212.0947385701
 21
148.6063733793
  0
LINE
  8
SURFACE
 62
7
  6
CONTINUOUS
 10
199.3902069984
 20
148.6113095189
 11
199.3926336469
 21
148.6086567907
  0
LINE
  8
SURFACE
 62
7
  6
CONTINUOUS
 10
212.0891347077
 20
148.6124900039
 11
212.0918532874
 21
148.6095064282
  0
LINE
  8
SURFACE
 62
7
  6
CONTINUOUS
 10
199.3864231159
 20
148.615502593
 11
199.3894974636
 21
148.6120895623
  0
POLYLINE
  8
SURFACE
 62
7
  6
CONTINUOUS
 66
1
 70
0
  0
VERTEX
  8
SURFACE
 62
7
  6
CONTINUOUS
 10
199.3877091759
 20
148.6140685357
  0
VERTEX
  8
SURFACE
 62
7
  6
CONTINUOUS
 10
199.3881562463
 20
148.613572287
  0
VERTEX
  8
SURFACE
 62
7
  6
CONTINUOUS
 10
199.3902069984
 20
148.6113095189
  0
SEQEND
  0
LINE
  8
SURFACE
 62
7
  6
CONTINUOUS
 10
212.087299413
 20
148.6145243817
 11
212.0894974636
 21
148.6120895623
  0
LINE
  8
SURFACE
 62
7
  6
CONTINUOUS
 10
212.0864717614
 20
148.6154481613
 11
212.0875105771
 21
148.6142892037
  0
LINE
  8
SURFACE
 62
7
  6
CONTINUOUS
 10
206.3443143522
 20
173.5431240165
 11
205.6137217271
 21
176.4654945168
  0
LINE
  8
SURFACE
 62
7
  6
CONTINUOUS
 10
217.224171852
 20
155.323694017
 11
217.9547644771
 21
152.4013235167
  0
LINE
  8
SURFACE
 62
7
  6
CONTINUOUS
 10
219.0443143522
 20
173.5431240165
 11
218.3137217271
 21
176.4654945168
  0
LINE
  8
SURFACE
 62
7
  6
CONTINUOUS
 10
225.4092431021
 20
155.4449618296
 11
225.4092431021
 21
161.7494195053
  0
LINE
  8
SURFACE
 62
7
  6
CONTINUOUS
 10
229.9092431021
 20
161.7494195053
 11
229.9092431021
 21
155.4449618296
  0
LINE
  8
SURFACE
 62
7
  6
CONTINUOUS
 10
230.6592431021
 20
148.948677085
 11
230.6592431021
 21
152.3649431729
  0
LINE
  8
SURFACE
 62
7
  6
CONTINUOUS
 10
231.0092431021
 20
176.5018748606
 11
231.0092431021
 21
180.7334090167
  0
LINE
  8
SURFACE
 62
7
  6
CONTINUOUS
 10
231.7592431021
 20
169.2334090167
 11
231.7592431021
 21
173.4218562039
  0
LINE
  8
SURFACE
 62
7
  6
CONTINUOUS
 10
236.2592431021
 20
173.4218562039
 11
236.2592431021
 21
169.2334090167
  0
LINE
  8
SURFACE
 62
7
  6
CONTINUOUS
 10
237.0092431021
 20
176.5018748606
 11
237.0092431021
 21
180.7334090167
  0
LINE
  8
SURFACE
 62
7
  6
CONTINUOUS
 10
237.3592431021
 20
148.948677085
 11
237.3592431021
 21
152.3649431729
  0
LINE
  8
SURFACE
 62
7
  6
CONTINUOUS
 10
238.1092431021
 20
155.4449618296
 11
238.1092431021
 21
161.7494195053
  0
LINE
  8
SURFACE
 62
7
  6
CONTINUOUS
 10
242.6092431021
 20
161.7494195053
 11
242.6092431021
 21
155.4449618296
  0
LINE
  8
SURFACE
 62
7
  6
CONTINUOUS
 10
243.3592431021
 20
148.948677085
 11
243.3592431021
 21
152.3649431729
  0
POLYLINE
  8
SURFACE
 62
7
  6
CONTINUOUS
 66
1
 70
0
  0
VERTEX
  8
SURFACE
 62
7
  6
CONTINUOUS
 10
229.9092431021
 20
161.7494190473
  0
VERTEX
  8
SURFACE
 62
7
  6
CONTINUOUS
 10
229.9204473949
 20
161.9607882114
  0
VERTEX
  8
SURFACE
 62
7
  6
CONTINUOUS
 10
229.9568080935
 20
162.1829473006
  0
VERTEX
  8
SURFACE
 62
7
  6
CONTINUOUS
 10
230.017940681
 20
162.3997136097
  0
VERTEX
  8
SURFACE
 62
7
  6
CONTINUOUS
 10
230.103084799
 20
162.6082933171
  0
VERTEX
  8
SURFACE
 62
7
  6
CONTINUOUS
 10
230.2111647758
 20
162.8060084642
  0
VERTEX
  8
SURFACE
 62
7
  6
CONTINUOUS
 10
230.3408065167
 20
162.9903270515
  0
VERTEX
  8
SURFACE
 62
7
  6
CONTINUOUS
 10
230.4903567793
 20
163.1588935344
  0
VERTEX
  8
SURFACE
 62
7
  6
CONTINUOUS
 10
230.6579053178
 20
163.3095580995
  0
VERTEX
  8
SURFACE
 62
7
  6
CONTINUOUS
 10
230.8413091568
 20
163.4404034015
  0
VERTEX
  8
SURFACE
 62
7
  6
CONTINUOUS
 10
231.0382188728
 20
163.5497690553
  0
VERTEX
  8
SURFACE
 62
7
  6
CONTINUOUS
 10
231.2461064668
 20
163.6362738992
  0
VERTEX
  8
SURFACE
 62
7
  6
CONTINUOUS
 10
231.4622901796
 20
163.6988353653
  0
VERTEX
  8
SURFACE
 62
7
  6
CONTINUOUS
 10
231.66460219
 20
163.7333848927
  0
SEQEND
  0
POLYLINE
  8
SURFACE
 62
7
  6
CONTINUOUS
 66
1
 70
0
  0
VERTEX
  8
SURFACE
 62
7
  6
CONTINUOUS
 10
242.6092431021
 20
161.7494190473
  0
VERTEX
  8
SURFACE
 62
7
  6
CONTINUOUS
 10
242.6204473949
 20
161.9607882118
  0
VERTEX
  8
SURFACE
 62
7
  6
CONTINUOUS
 10
242.6568080937
 20
162.1829473012
  0
VERTEX
  8
SURFACE
 62
7
  6
CONTINUOUS
 10
242.7179406813
 20
162.3997136106
  0
VERTEX
  8
SURFACE
 62
7
  6
CONTINUOUS
 10
242.8030847996
 20
162.6082933184
  0
VERTEX
  8
SURFACE
 62
7
  6
CONTINUOUS
 10
242.9111647767
 20
162.8060084656
  0
VERTEX
  8
SURFACE
 62
7
  6
CONTINUOUS
 10
243.0408065179
 20
162.9903270531
  0
VERTEX
  8
SURFACE
 62
7
  6
CONTINUOUS
 10
243.190356781
 20
163.1588935361
  0
VERTEX
  8
SURFACE
 62
7
  6
CONTINUOUS
 10
243.3579053199
 20
163.3095581012
  0
VERTEX
  8
SURFACE
 62
7
  6
CONTINUOUS
 10
243.5413091594
 20
163.4404034031
  0
VERTEX
  8
SURFACE
 62
7
  6
CONTINUOUS
 10
243.7382188759
 20
163.5497690567
  0
VERTEX
  8
SURFACE
 62
7
  6
CONTINUOUS
 10
243.9461064703
 20
163.6362739004
  0
VERTEX
  8
SURFACE
 62
7
  6
CONTINUOUS
 10
244.1622901836
 20
163.6988353662
  0
VERTEX
  8
SURFACE
 62
7
  6
CONTINUOUS
 10
244.364602192
 20
163.7333848929
  0
SEQEND
  0
LINE
  8
SURFACE
 62
7
  6
CONTINUOUS
 10
224.6637217271
 20
152.4013235167
 11
225.3943143522
 21
155.323694017
  0
LINE
  8
SURFACE
 62
7
  6
CONTINUOUS
 10
237.0047644771
 20
176.4654945168
 11
236.274171852
 21
173.5431240165
  0
LINE
  8
SURFACE
 62
7
  6
CONTINUOUS
 10
237.3637217271
 20
152.4013235167
 11
238.0943143522
 21
155.323694017
  0
LINE
  8
SURFACE
 62
7
  6
CONTINUOUS
 10
192.4300334321
 20
148.6132434725
 11
192.4320144428
 21
148.6154481613
  0
LINE
  8
SURFACE
 62
7
  6
CONTINUOUS
 10
205.1284334352
 20
148.6114784224
 11
205.1318276889
 21
148.6152393634
  0
LINE
  8
SURFACE
 62
7
  6
CONTINUOUS
 10
192.4278561852
 20
148.6108446611
 11
192.4300334321
 21
148.6132434725
  0
LINE
  8
SURFACE
 62
7
  6
CONTINUOUS
 10
205.1259847475
 20
148.6087997834
 11
205.1284334352
 21
148.6114784224
  0
LINE
  8
SURFACE
 62
7
  6
CONTINUOUS
 10
192.4253103813
 20
148.6080662312
 11
192.4278561852
 21
148.6108446611
  0
LINE
  8
SURFACE
 62
7
  6
CONTINUOUS
 10
205.1223035913
 20
148.6048134611
 11
205.1259847475
 21
148.6087997834
  0
LINE
  8
SURFACE
 62
7
  6
CONTINUOUS
 10
192.4214609645
 20
148.6039064598
 11
192.4253103813
 21
148.6080662312
  0
LINE
  8
SURFACE
 62
7
  6
CONTINUOUS
 10
205.1176341861
 20
148.5998073823
 11
205.1223035913
 21
148.6048134611
  0
LINE
  8
SURFACE
 62
7
  6
CONTINUOUS
 10
192.4165460738
 20
148.5986469756
 11
192.4214609645
 21
148.6039064598
  0
LINE
  8
SURFACE
 62
7
  6
CONTINUOUS
 10
192.412340231
 20
148.594178722
 11
192.4165460738
 21
148.5986469756
  0
LINE
  8
SURFACE
 62
7
  6
CONTINUOUS
 10
205.112340231
 20
148.594178722
 11
205.1176341861
 21
148.5998073823
  0
LINE
  8
SURFACE
 62
7
  6
CONTINUOUS
 10
125.55299859
 20
147.976361579
 11
125.5596721024
 21
147.9801793939
  0
LINE
  8
SURFACE
 62
7
  6
CONTINUOUS
 10
140.05299859
 20
147.976361579
 11
140.0596721022
 21
147.9801793938
  0
LINE
  8
SURFACE
 62
7
  6
CONTINUOUS
 10
153.80299859
 20
147.976361579
 11
153.8096721022
 21
147.9801793938
  0
LINE
  8
SURFACE
 62
7
  6
CONTINUOUS
 10
100.9863639621
 20
164.3630613588
 11
98.7831826721
 21
165.164953769
  0
LINE
  8
SURFACE
 62
7
  6
CONTINUOUS
 10
101.0729865894
 20
164.3307754413
 11
100.9863639621
 21
164.3630613588
  0
LINE
  8
SURFACE
 62
7
  6
CONTINUOUS
 10
224.7989776967
 20
148.6018125687
 11
224.8059325639
 21
148.5944059179
  0
LINE
  8
SURFACE
 62
7
  6
CONTINUOUS
 10
237.4989776967
 20
148.6018125687
 11
237.5059325638
 21
148.594405918
  0
LINE
  8
SURFACE
 62
7
  6
CONTINUOUS
 10
224.7910722169
 20
148.6103603275
 11
224.8019401305
 21
148.5986469756
  0
LINE
  8
SURFACE
 62
7
  6
CONTINUOUS
 10
237.4910722169
 20
148.6103603275
 11
237.5019401305
 21
148.5986469755
  0
LINE
  8
SURFACE
 62
7
  6
CONTINUOUS
 10
224.7902069984
 20
148.6113095189
 11
224.7926336469
 21
148.6086567907
  0
LINE
  8
SURFACE
 62
7
  6
CONTINUOUS
 10
237.4902069984
 20
148.6113095189
 11
237.4926336469
 21
148.6086567907
  0
LINE
  8
SURFACE
 62
7
  6
CONTINUOUS
 10
224.7864231159
 20
148.615502593
 11
224.7894974636
 21
148.6120895623
  0
POLYLINE
  8
SURFACE
 62
7
  6
CONTINUOUS
 66
1
 70
0
  0
VERTEX
  8
SURFACE
 62
7
  6
CONTINUOUS
 10
224.7877091759
 20
148.6140685357
  0
VERTEX
  8
SURFACE
 62
7
  6
CONTINUOUS
 10
224.7881562463
 20
148.613572287
  0
VERTEX
  8
SURFACE
 62
7
  6
CONTINUOUS
 10
224.7902069984
 20
148.6113095189
  0
SEQEND
  0
LINE
  8
SURFACE
 62
7
  6
CONTINUOUS
 10
237.486423116
 20
148.6155025929
 11
237.4894974636
 21
148.6120895623
  0
POLYLINE
  8
SURFACE
 62
7
  6
CONTINUOUS
 66
1
 70
0
  0
VERTEX
  8
SURFACE
 62
7
  6
CONTINUOUS
 10
237.4877091759
 20
148.6140685357
  0
VERTEX
  8
SURFACE
 62
7
  6
CONTINUOUS
 10
237.4881562463
 20
148.613572287
  0
VERTEX
  8
SURFACE
 62
7
  6
CONTINUOUS
 10
237.4902069984
 20
148.6113095189
  0
SEQEND
  0
LINE
  8
SURFACE
 62
7
  6
CONTINUOUS
 10
229.924171852
 20
155.323694017
 11
230.6547644771
 21
152.4013235167
  0
LINE
  8
SURFACE
 62
7
  6
CONTINUOUS
 10
231.7443143522
 20
173.5431240165
 11
231.0137217271
 21
176.4654945168
  0
LINE
  8
SURFACE
 62
7
  6
CONTINUOUS
 10
242.624171852
 20
155.323694017
 11
243.3547644771
 21
152.4013235167
  0
LINE
  8
SURFACE
 62
7
  6
CONTINUOUS
 10
243.7092431021
 20
176.5018748606
 11
243.7092431021
 21
180.7334090167
  0
LINE
  8
SURFACE
 62
7
  6
CONTINUOUS
 10
244.4592431021
 20
169.2334090167
 11
244.4592431021
 21
173.4218562039
  0
LINE
  8
0
 62
7
  6
CONTINUOUS
 10
248.9592431021
 20
169.2334090167
 11
248.9592431021
 21
173.4218562039
  0
LINE
  8
0
 62
7
  6
CONTINUOUS
 10
249.7092431021
 20
176.5018748606
 11
249.7092431021
 21
180.7334090167
  0
LINE
  8
0
 62
7
  6
CONTINUOUS
 10
250.0592431021
 20
148.948677085
 11
250.0592431021
 21
152.3649431729
  0
LINE
  8
0
 62
7
  6
CONTINUOUS
 10
250.8092431021
 20
161.7494195053
 11
250.8092431021
 21
155.4449618296
  0
LINE
  8
0
 62
7
  6
CONTINUOUS
 10
255.3092431021
 20
155.4449618296
 11
255.3092431021
 21
161.7494195053
  0
LINE
  8
0
 62
7
  6
CONTINUOUS
 10
256.0592431021
 20
148.948677085
 11
256.0592431021
 21
152.3649431729
  0
LINE
  8
0
 62
7
  6
CONTINUOUS
 10
256.4092431021
 20
176.5018748606
 11
256.4092431021
 21
180.7334090167
  0
LINE
  8
0
 62
7
  6
CONTINUOUS
 10
257.1592431021
 20
173.4218562039
 11
257.1592431021
 21
169.2334090167
  0
LINE
  8
0
 62
7
  6
CONTINUOUS
 10
261.6592431021
 20
169.2334090167
 11
261.6592431021
 21
173.4218562039
  0
POLYLINE
  8
0
 62
7
  6
CONTINUOUS
 66
1
 70
0
  0
VERTEX
  8
0
 62
7
  6
CONTINUOUS
 10
255.3092431021
 20
161.749419014
  0
VERTEX
  8
0
 62
7
  6
CONTINUOUS
 10
255.3203314512
 20
161.959694752
  0
VERTEX
  8
0
 62
7
  6
CONTINUOUS
 10
255.3565915773
 20
162.1819712564
  0
VERTEX
  8
0
 62
7
  6
CONTINUOUS
 10
255.4176483082
 20
162.3988627788
  0
VERTEX
  8
0
 62
7
  6
CONTINUOUS
 10
255.502741639
 20
162.6075713615
  0
VERTEX
  8
0
 62
7
  6
CONTINUOUS
 10
255.6107956159
 20
162.8054149644
  0
VERTEX
  8
0
 62
7
  6
CONTINUOUS
 10
255.7404352742
 20
162.9898576746
  0
VERTEX
  8
0
 62
7
  6
CONTINUOUS
 10
255.8900059351
 20
163.1585402455
  0
VERTEX
  8
0
 62
7
  6
CONTINUOUS
 10
256.0575953954
 20
163.3093094542
  0
VERTEX
  8
0
 62
7
  6
CONTINUOUS
 10
256.2410582531
 20
163.4402449056
  0
VERTEX
  8
0
 62
7
  6
CONTINUOUS
 10
256.4380422469
 20
163.549683584
  0
VERTEX
  8
0
 62
7
  6
CONTINUOUS
 10
256.6460161522
 20
163.6362421529
  0
VERTEX
  8
0
 62
7
  6
CONTINUOUS
 10
256.862294788
 20
163.698836422
  0
VERTEX
  8
0
 62
7
  6
CONTINUOUS
 10
257.0646539022
 20
163.7333882821
  0
SEQEND
  0
LINE
  8
0
 62
7
  6
CONTINUOUS
 10
248.974171852
 20
173.5431240165
 11
249.7047644771
 21
176.4654945168
  0
LINE
  8
0
 62
7
  6
CONTINUOUS
 10
250.7943143522
 20
155.323694017
 11
250.0637217271
 21
152.4013235167
  0
LINE
  8
0
 62
7
  6
CONTINUOUS
 10
261.674171852
 20
173.5431240165
 11
262.4047644771
 21
176.4654945168
  0
LINE
  8
SURFACE
 62
7
  6
CONTINUOUS
 10
217.8300334321
 20
148.6132434725
 11
217.8320144428
 21
148.6154481613
  0
LINE
  8
SURFACE
 62
7
  6
CONTINUOUS
 10
230.5300334321
 20
148.6132434724
 11
230.5320144428
 21
148.6154481613
  0
LINE
  8
SURFACE
 62
7
  6
CONTINUOUS
 10
217.8278561852
 20
148.6108446611
 11
217.8300334321
 21
148.6132434725
  0
LINE
  8
SURFACE
 62
7
  6
CONTINUOUS
 10
230.5278561852
 20
148.6108446611
 11
230.5300334321
 21
148.6132434724
  0
LINE
  8
SURFACE
 62
7
  6
CONTINUOUS
 10
217.8253103813
 20
148.6080662312
 11
217.8278561852
 21
148.6108446611
  0
LINE
  8
SURFACE
 62
7
  6
CONTINUOUS
 10
230.5253103813
 20
148.6080662312
 11
230.5278561852
 21
148.6108446611
  0
LINE
  8
SURFACE
 62
7
  6
CONTINUOUS
 10
217.8214609645
 20
148.6039064598
 11
217.8253103813
 21
148.6080662312
  0
LINE
  8
SURFACE
 62
7
  6
CONTINUOUS
 10
230.5214609645
 20
148.6039064598
 11
230.5253103813
 21
148.6080662312
  0
LINE
  8
SURFACE
 62
7
  6
CONTINUOUS
 10
217.8165460738
 20
148.5986469756
 11
217.8214609645
 21
148.6039064598
  0
LINE
  8
SURFACE
 62
7
  6
CONTINUOUS
 10
230.5165460738
 20
148.5986469755
 11
230.5214609645
 21
148.6039064598
  0
LINE
  8
SURFACE
 62
7
  6
CONTINUOUS
 10
217.812340231
 20
148.594178722
 11
217.8165460738
 21
148.5986469756
  0
LINE
  8
SURFACE
 62
7
  6
CONTINUOUS
 10
230.512340231
 20
148.594178722
 11
230.5165460738
 21
148.5986469755
  0
LINE
  8
SURFACE
 62
7
  6
CONTINUOUS
 10
125.473371477
 20
153.7268955172
 11
130.4064763621
 21
155.2586652992
  0
LINE
  8
SURFACE
 62
7
  6
CONTINUOUS
 10
130.4064763553
 20
162.0081527364
 11
126.044929858
 21
163.3624489217
  0
LINE
  8
SURFACE
 62
7
  6
CONTINUOUS
 10
98.8222733171
 20
182.2615696677
 11
102.0592431021
 21
181.0834090167
  0
LINE
  8
0
 62
7
  6
CONTINUOUS
 10
250.1988406791
 20
148.6019580418
 11
250.2061459732
 21
148.594178722
  0
LINE
  8
0
 62
7
  6
CONTINUOUS
 10
262.8988406791
 20
148.6019580418
 11
262.9061459732
 21
148.594178722
  0
LINE
  8
0
 62
7
  6
CONTINUOUS
 10
250.1946121322
 20
148.6065090093
 11
250.1988406791
 21
148.6019580418
  0
LINE
  8
0
 62
7
  6
CONTINUOUS
 10
262.8946121322
 20
148.6065090093
 11
262.8988406791
 21
148.6019580418
  0
LINE
  8
0
 62
7
  6
CONTINUOUS
 10
250.1918532874
 20
148.6095064282
 11
250.1946121322
 21
148.6065090093
  0
LINE
  8
0
 62
7
  6
CONTINUOUS
 10
262.8918532874
 20
148.6095064282
 11
262.8946121322
 21
148.6065090093
  0
LINE
  8
0
 62
7
  6
CONTINUOUS
 10
250.1894974636
 20
148.6120895623
 11
250.1918532874
 21
148.6095064282
  0
LINE
  8
0
 62
7
  6
CONTINUOUS
 10
262.8894974636
 20
148.6120895623
 11
262.8918532874
 21
148.6095064282
  0
LINE
  8
0
 62
7
  6
CONTINUOUS
 10
250.1866136532
 20
148.6152895044
 11
250.1896595852
 21
148.6119114696
  0
LINE
  8
0
 62
7
  6
CONTINUOUS
 10
262.8866136532
 20
148.6152895044
 11
262.8896595852
 21
148.6119114696
  0
LINE
  8
0
 62
7
  6
CONTINUOUS
 10
250.186423116
 20
148.6155025929
 11
250.1864717614
 21
148.6154481612
  0
LINE
  8
0
 62
7
  6
CONTINUOUS
 10
262.886423116
 20
148.6155025929
 11
262.8864717614
 21
148.6154481613
  0
LINE
  8
SURFACE
 62
7
  6
CONTINUOUS
 10
244.4443143522
 20
173.5431240165
 11
243.7137217271
 21
176.4654945168
  0
LINE
  8
0
 62
7
  6
CONTINUOUS
 10
256.0547644771
 20
152.4013235167
 11
255.324171852
 21
155.323694017
  0
LINE
  8
0
 62
7
  6
CONTINUOUS
 10
256.4137217271
 20
176.4654945168
 11
257.1443143522
 21
173.5431240165
  0
LINE
  8
0
 62
7
  6
CONTINUOUS
 10
262.4092431021
 20
176.5018748606
 11
262.4092431021
 21
180.7334090167
  0
LINE
  8
0
 62
7
  6
CONTINUOUS
 10
262.7592431021
 20
148.948677085
 11
262.7592431021
 21
152.3649431729
  0
LINE
  8
0
 62
7
  6
CONTINUOUS
 10
263.5092431021
 20
161.7494195053
 11
263.5092431021
 21
155.4449618296
  0
LINE
  8
0
 62
7
  6
CONTINUOUS
 10
268.0092431021
 20
155.4449618296
 11
268.0092431021
 21
161.7494195053
  0
LINE
  8
0
 62
7
  6
CONTINUOUS
 10
268.7592431021
 20
148.948677085
 11
268.7592431021
 21
152.3649431729
  0
LINE
  8
0
 62
7
  6
CONTINUOUS
 10
269.1092431021
 20
176.5018748606
 11
269.1092431021
 21
180.7334090167
  0
LINE
  8
0
 62
7
  6
CONTINUOUS
 10
269.8592431021
 20
173.4218562039
 11
269.8592431021
 21
169.2334090167
  0
LINE
  8
0
 62
7
  6
CONTINUOUS
 10
274.3592431021
 20
169.2334090167
 11
274.3592431021
 21
173.4218562039
  0
LINE
  8
0
 62
7
  6
CONTINUOUS
 10
275.1092431021
 20
176.5018748606
 11
275.1092431021
 21
180.7334090167
  0
LINE
  8
0
 62
7
  6
CONTINUOUS
 10
275.4592431021
 20
148.948677085
 11
275.4592431021
 21
152.3649431729
  0
LINE
  8
0
 62
7
  6
CONTINUOUS
 10
276.2092431021
 20
161.7494195053
 11
276.2092431021
 21
155.4449618296
  0
POLYLINE
  8
0
 62
7
  6
CONTINUOUS
 66
1
 70
0
  0
VERTEX
  8
0
 62
7
  6
CONTINUOUS
 10
268.0092431021
 20
161.749419014
  0
VERTEX
  8
0
 62
7
  6
CONTINUOUS
 10
268.0203314511
 20
161.9596947519
  0
VERTEX
  8
0
 62
7
  6
CONTINUOUS
 10
268.0565915772
 20
162.1819712564
  0
VERTEX
  8
0
 62
7
  6
CONTINUOUS
 10
268.1176483082
 20
162.3988627786
  0
VERTEX
  8
0
 62
7
  6
CONTINUOUS
 10
268.2027416389
 20
162.6075713614
  0
VERTEX
  8
0
 62
7
  6
CONTINUOUS
 10
268.3107956158
 20
162.8054149642
  0
VERTEX
  8
0
 62
7
  6
CONTINUOUS
 10
268.440435274
 20
162.9898576744
  0
VERTEX
  8
0
 62
7
  6
CONTINUOUS
 10
268.5900059348
 20
163.1585402453
  0
VERTEX
  8
0
 62
7
  6
CONTINUOUS
 10
268.7575953951
 20
163.3093094539
  0
VERTEX
  8
0
 62
7
  6
CONTINUOUS
 10
268.9410582528
 20
163.4402449054
  0
VERTEX
  8
0
 62
7
  6
CONTINUOUS
 10
269.1380422465
 20
163.5496835838
  0
VERTEX
  8
0
 62
7
  6
CONTINUOUS
 10
269.3460161517
 20
163.6362421527
  0
VERTEX
  8
0
 62
7
  6
CONTINUOUS
 10
269.5622947874
 20
163.6988364218
  0
VERTEX
  8
0
 62
7
  6
CONTINUOUS
 10
269.7646539019
 20
163.7333882821
  0
SEQEND
  0
LINE
  8
0
 62
7
  6
CONTINUOUS
 10
263.4943143522
 20
155.323694017
 11
262.7637217271
 21
152.4013235167
  0
LINE
  8
0
 62
7
  6
CONTINUOUS
 10
274.374171852
 20
173.5431240165
 11
275.1047644771
 21
176.4654945168
  0
LINE
  8
0
 62
7
  6
CONTINUOUS
 10
276.1943143522
 20
155.323694017
 11
275.4637217271
 21
152.4013235167
  0
LINE
  8
SURFACE
 62
7
  6
CONTINUOUS
 10
243.2300334321
 20
148.6132434724
 11
243.2320144428
 21
148.6154481613
  0
LINE
  8
0
 62
7
  6
CONTINUOUS
 10
255.9300334321
 20
148.6132434724
 11
255.9320144428
 21
148.6154481613
  0
LINE
  8
SURFACE
 62
7
  6
CONTINUOUS
 10
243.2278561852
 20
148.6108446611
 11
243.2300334321
 21
148.6132434724
  0
LINE
  8
0
 62
7
  6
CONTINUOUS
 10
255.9278561852
 20
148.6108446611
 11
255.9303299579
 21
148.613572287
  0
LINE
  8
SURFACE
 62
7
  6
CONTINUOUS
 10
243.2253103813
 20
148.6080662312
 11
243.2278561852
 21
148.6108446611
  0
LINE
  8
0
 62
7
  6
CONTINUOUS
 10
255.9253103813
 20
148.6080662312
 11
255.9282792058
 21
148.6113095189
  0
LINE
  8
0
 62
7
  6
CONTINUOUS
 10
255.9223035913
 20
148.6048134611
 11
255.9258525573
 21
148.6086567907
  0
LINE
  8
SURFACE
 62
7
  6
CONTINUOUS
 10
243.2214609645
 20
148.6039064598
 11
243.2253103813
 21
148.6080662312
  0
LINE
  8
0
 62
7
  6
CONTINUOUS
 10
255.9249147439
 20
148.607672319
 11
255.9250575669
 21
148.6078255376
  0
LINE
  8
0
 62
7
  6
CONTINUOUS
 10
255.9176341861
 20
148.5998073823
 11
255.9223035913
 21
148.6048134611
  0
LINE
  8
SURFACE
 62
7
  6
CONTINUOUS
 10
243.2165460738
 20
148.5986469755
 11
243.2214609645
 21
148.6039064598
  0
LINE
  8
0
 62
7
  6
CONTINUOUS
 10
255.9125536404
 20
148.594405918
 11
255.9176341861
 21
148.5998073823
  0
LINE
  8
SURFACE
 62
7
  6
CONTINUOUS
 10
243.212340231
 20
148.594178722
 11
243.2165460738
 21
148.5986469755
  0
LINE
  8
SURFACE
 62
7
  6
CONTINUOUS
 10
240.4092431021
 20
147.3834090167
 11
240.3092431021
 21
147.3834090167
  0
LINE
  8
SURFACE
 62
7
  6
CONTINUOUS
 10
227.7092431021
 20
147.3834090167
 11
227.6092431021
 21
147.3834090167
  0
LINE
  8
SURFACE
 62
7
  6
CONTINUOUS
 10
215.0092431021
 20
147.3834090167
 11
214.9092431021
 21
147.3834090167
  0
LINE
  8
SURFACE
 62
7
  6
CONTINUOUS
 10
202.3092431021
 20
147.3834090167
 11
202.2092431021
 21
147.3834090167
  0
LINE
  8
SURFACE
 62
7
  6
CONTINUOUS
 10
189.6092431021
 20
147.3834090167
 11
189.5092431021
 21
147.3834090167
  0
LINE
  8
SURFACE
 62
7
  6
CONTINUOUS
 10
176.9092431021
 20
147.3834090167
 11
176.8092431021
 21
147.3834090167
  0
LINE
  8
SURFACE
 62
7
  6
CONTINUOUS
 10
164.2092431021
 20
147.3834090167
 11
164.1092431021
 21
147.3834090167
  0
LINE
  8
SURFACE
 62
7
  6
CONTINUOUS
 10
151.5592431021
 20
147.3834090167
 11
150.5592431021
 21
147.3834090167
  0
LINE
  8
SURFACE
 62
7
  6
CONTINUOUS
 10
137.8092431021
 20
147.3834090167
 11
136.8092431021
 21
147.3834090167
  0
LINE
  8
SURFACE
 62
7
  6
CONTINUOUS
 10
123.3092431021
 20
147.3834090167
 11
122.3092431021
 21
147.3834090167
  0
LINE
  8
SURFACE
 62
7
  6
CONTINUOUS
 10
108.0576260703
 20
147.3834090167
 11
106.3108601339
 21
147.3834090167
  0
LINE
  8
0
 62
7
  6
CONTINUOUS
 10
253.0092431021
 20
147.3834090167
 11
253.1092431021
 21
147.3834090167
  0
LINE
  8
0
 62
7
  6
CONTINUOUS
 10
265.7092431021
 20
147.3834090167
 11
265.8092431021
 21
147.3834090167
  0
LINE
  8
0
 62
7
  6
CONTINUOUS
 10
278.4092431021
 20
147.3834090167
 11
278.5092431021
 21
147.3834090167
  0
LINE
  8
0
 62
7
  6
CONTINUOUS
 10
291.1092431021
 20
147.3834090167
 11
291.2092431021
 21
147.3834090167
  0
LINE
  8
0
 62
7
  6
CONTINUOUS
 10
303.8092431021
 20
147.3834090167
 11
303.9092431021
 21
147.3834090167
  0
LINE
  8
0
 62
7
  6
CONTINUOUS
 10
316.5092431021
 20
147.3834090167
 11
316.6092431021
 21
147.3834090167
  0
LINE
  8
0
 62
7
  6
CONTINUOUS
 10
329.2092431021
 20
147.3834090167
 11
329.3092431021
 21
147.3834090167
  0
LINE
  8
0
 62
7
  6
CONTINUOUS
 10
341.8592431021
 20
147.3834090167
 11
342.8592431021
 21
147.3834090167
  0
LINE
  8
0
 62
7
  6
CONTINUOUS
 10
355.6092431021
 20
147.3834090167
 11
356.6092431021
 21
147.3834090167
  0
LINE
  8
0
 62
7
  6
CONTINUOUS
 10
370.1092431021
 20
147.3834090167
 11
371.1092431021
 21
147.3834090167
  0
LINE
  8
0
 62
7
  6
CONTINUOUS
 10
385.3608601339
 20
147.3834090167
 11
387.1076260703
 21
147.3834090167
  0
POLYLINE
  8
SURFACE
 62
7
  6
CONTINUOUS
 66
1
 70
0
  0
VERTEX
  8
SURFACE
 62
7
  6
CONTINUOUS
 10
160.1538323069
 20
163.7333882818
  0
VERTEX
  8
SURFACE
 62
7
  6
CONTINUOUS
 10
160.3561914263
 20
163.6988364197
  0
VERTEX
  8
SURFACE
 62
7
  6
CONTINUOUS
 10
160.5724700607
 20
163.6362421498
  0
VERTEX
  8
SURFACE
 62
7
  6
CONTINUOUS
 10
160.780443965
 20
163.5496835803
  0
VERTEX
  8
SURFACE
 62
7
  6
CONTINUOUS
 10
160.9774279575
 20
163.4402449015
  0
VERTEX
  8
SURFACE
 62
7
  6
CONTINUOUS
 10
161.1608908141
 20
163.3093094499
  0
VERTEX
  8
SURFACE
 62
7
  6
CONTINUOUS
 10
161.3284802733
 20
163.1585402413
  0
VERTEX
  8
SURFACE
 62
7
  6
CONTINUOUS
 10
161.4780509332
 20
162.9898576706
  0
VERTEX
  8
SURFACE
 62
7
  6
CONTINUOUS
 10
161.6076905905
 20
162.8054149608
  0
VERTEX
  8
SURFACE
 62
7
  6
CONTINUOUS
 10
161.7157445667
 20
162.6075713585
  0
VERTEX
  8
SURFACE
 62
7
  6
CONTINUOUS
 10
161.8008378968
 20
162.3988627763
  0
VERTEX
  8
SURFACE
 62
7
  6
CONTINUOUS
 10
161.8618946273
 20
162.1819712548
  0
VERTEX
  8
SURFACE
 62
7
  6
CONTINUOUS
 10
161.8981547532
 20
161.9596947511
  0
VERTEX
  8
SURFACE
 62
7
  6
CONTINUOUS
 10
161.9092431021
 20
161.749419014
  0
SEQEND
  0
POLYLINE
  8
SURFACE
 62
7
  6
CONTINUOUS
 66
1
 70
0
  0
VERTEX
  8
SURFACE
 62
7
  6
CONTINUOUS
 10
172.8538323041
 20
163.733388282
  0
VERTEX
  8
SURFACE
 62
7
  6
CONTINUOUS
 10
173.0561914204
 20
163.698836421
  0
VERTEX
  8
SURFACE
 62
7
  6
CONTINUOUS
 10
173.2724700557
 20
163.6362421516
  0
VERTEX
  8
SURFACE
 62
7
  6
CONTINUOUS
 10
173.4804439605
 20
163.5496835824
  0
VERTEX
  8
SURFACE
 62
7
  6
CONTINUOUS
 10
173.6774279538
 20
163.4402449039
  0
VERTEX
  8
SURFACE
 62
7
  6
CONTINUOUS
 10
173.860890811
 20
163.3093094524
  0
VERTEX
  8
SURFACE
 62
7
  6
CONTINUOUS
 10
174.0284802709
 20
163.1585402437
  0
VERTEX
  8
SURFACE
 62
7
  6
CONTINUOUS
 10
174.1780509314
 20
162.9898576729
  0
VERTEX
  8
SURFACE
 62
7
  6
CONTINUOUS
 10
174.3076905892
 20
162.8054149629
  0
VERTEX
  8
SURFACE
 62
7
  6
CONTINUOUS
 10
174.4157445658
 20
162.6075713603
  0
VERTEX
  8
SURFACE
 62
7
  6
CONTINUOUS
 10
174.5008378963
 20
162.3988627778
  0
VERTEX
  8
SURFACE
 62
7
  6
CONTINUOUS
 10
174.5618946271
 20
162.1819712557
  0
VERTEX
  8
SURFACE
 62
7
  6
CONTINUOUS
 10
174.5981547531
 20
161.9596947516
  0
VERTEX
  8
SURFACE
 62
7
  6
CONTINUOUS
 10
174.6092431021
 20
161.749419014
  0
SEQEND
  0
POLYLINE
  8
SURFACE
 62
7
  6
CONTINUOUS
 66
1
 70
0
  0
VERTEX
  8
SURFACE
 62
7
  6
CONTINUOUS
 10
185.553832305
 20
163.7333882819
  0
VERTEX
  8
SURFACE
 62
7
  6
CONTINUOUS
 10
185.7561914224
 20
163.6988364206
  0
VERTEX
  8
SURFACE
 62
7
  6
CONTINUOUS
 10
185.9724700574
 20
163.636242151
  0
VERTEX
  8
SURFACE
 62
7
  6
CONTINUOUS
 10
186.180443962
 20
163.5496835817
  0
VERTEX
  8
SURFACE
 62
7
  6
CONTINUOUS
 10
186.3774279551
 20
163.4402449031
  0
VERTEX
  8
SURFACE
 62
7
  6
CONTINUOUS
 10
186.5608908121
 20
163.3093094515
  0
VERTEX
  8
SURFACE
 62
7
  6
CONTINUOUS
 10
186.7284802717
 20
163.1585402429
  0
VERTEX
  8
SURFACE
 62
7
  6
CONTINUOUS
 10
186.878050932
 20
162.9898576721
  0
VERTEX
  8
SURFACE
 62
7
  6
CONTINUOUS
 10
187.0076905896
 20
162.8054149622
  0
VERTEX
  8
SURFACE
 62
7
  6
CONTINUOUS
 10
187.1157445661
 20
162.6075713596
  0
VERTEX
  8
SURFACE
 62
7
  6
CONTINUOUS
 10
187.2008378965
 20
162.3988627773
  0
VERTEX
  8
SURFACE
 62
7
  6
CONTINUOUS
 10
187.2618946272
 20
162.1819712554
  0
VERTEX
  8
SURFACE
 62
7
  6
CONTINUOUS
 10
187.2981547531
 20
161.9596947515
  0
VERTEX
  8
SURFACE
 62
7
  6
CONTINUOUS
 10
187.3092431021
 20
161.749419014
  0
SEQEND
  0
POLYLINE
  8
SURFACE
 62
7
  6
CONTINUOUS
 66
1
 70
0
  0
VERTEX
  8
SURFACE
 62
7
  6
CONTINUOUS
 10
198.2538323049
 20
163.7333882819
  0
VERTEX
  8
SURFACE
 62
7
  6
CONTINUOUS
 10
198.4561914221
 20
163.6988364206
  0
VERTEX
  8
SURFACE
 62
7
  6
CONTINUOUS
 10
198.6724700571
 20
163.6362421511
  0
VERTEX
  8
SURFACE
 62
7
  6
CONTINUOUS
 10
198.8804439618
 20
163.5496835818
  0
VERTEX
  8
SURFACE
 62
7
  6
CONTINUOUS
 10
199.0774279549
 20
163.4402449032
  0
VERTEX
  8
SURFACE
 62
7
  6
CONTINUOUS
 10
199.2608908119
 20
163.3093094517
  0
VERTEX
  8
SURFACE
 62
7
  6
CONTINUOUS
 10
199.4284802716
 20
163.158540243
  0
VERTEX
  8
SURFACE
 62
7
  6
CONTINUOUS
 10
199.5780509319
 20
162.9898576723
  0
VERTEX
  8
SURFACE
 62
7
  6
CONTINUOUS
 10
199.7076905896
 20
162.8054149623
  0
VERTEX
  8
SURFACE
 62
7
  6
CONTINUOUS
 10
199.8157445661
 20
162.6075713597
  0
VERTEX
  8
SURFACE
 62
7
  6
CONTINUOUS
 10
199.9008378965
 20
162.3988627773
  0
VERTEX
  8
SURFACE
 62
7
  6
CONTINUOUS
 10
199.9618946272
 20
162.1819712555
  0
VERTEX
  8
SURFACE
 62
7
  6
CONTINUOUS
 10
199.9981547531
 20
161.9596947515
  0
VERTEX
  8
SURFACE
 62
7
  6
CONTINUOUS
 10
200.0092431021
 20
161.749419014
  0
SEQEND
  0
LINE
  8
0
 62
7
  6
CONTINUOUS
 10
275.5988406791
 20
148.6019580419
 11
275.6061459732
 21
148.594178722
  0
LINE
  8
0
 62
7
  6
CONTINUOUS
 10
288.2988406791
 20
148.6019580419
 11
288.3061459732
 21
148.594178722
  0
LINE
  8
0
 62
7
  6
CONTINUOUS
 10
275.5946121322
 20
148.6065090093
 11
275.5988406791
 21
148.6019580419
  0
LINE
  8
0
 62
7
  6
CONTINUOUS
 10
288.2946121322
 20
148.6065090093
 11
288.2988406791
 21
148.6019580419
  0
LINE
  8
0
 62
7
  6
CONTINUOUS
 10
275.5918532874
 20
148.6095064282
 11
275.5946121322
 21
148.6065090093
  0
LINE
  8
0
 62
7
  6
CONTINUOUS
 10
288.2918532874
 20
148.6095064282
 11
288.2946121322
 21
148.6065090093
  0
LINE
  8
0
 62
7
  6
CONTINUOUS
 10
275.5894974636
 20
148.6120895623
 11
275.5918532874
 21
148.6095064282
  0
LINE
  8
0
 62
7
  6
CONTINUOUS
 10
288.2894974636
 20
148.6120895623
 11
288.2918532874
 21
148.6095064282
  0
LINE
  8
0
 62
7
  6
CONTINUOUS
 10
275.5866136532
 20
148.6152895044
 11
275.5896595852
 21
148.6119114696
  0
LINE
  8
0
 62
7
  6
CONTINUOUS
 10
288.2866136532
 20
148.6152895044
 11
288.2896595852
 21
148.6119114696
  0
LINE
  8
0
 62
7
  6
CONTINUOUS
 10
275.5864231159
 20
148.615502593
 11
275.5864717614
 21
148.6154481613
  0
LINE
  8
0
 62
7
  6
CONTINUOUS
 10
288.2864231159
 20
148.615502593
 11
288.2864717614
 21
148.6154481613
  0
LINE
  8
0
 62
7
  6
CONTINUOUS
 10
268.7547644771
 20
152.4013235167
 11
268.024171852
 21
155.323694017
  0
LINE
  8
0
 62
7
  6
CONTINUOUS
 10
269.1137217271
 20
176.4654945168
 11
269.8443143522
 21
173.5431240165
  0
LINE
  8
0
 62
7
  6
CONTINUOUS
 10
281.4547644771
 20
152.4013235167
 11
280.724171852
 21
155.323694017
  0
LINE
  8
0
 62
7
  6
CONTINUOUS
 10
280.7092431021
 20
155.4449618296
 11
280.7092431021
 21
161.7494195053
  0
LINE
  8
0
 62
7
  6
CONTINUOUS
 10
281.4592431021
 20
148.948677085
 11
281.4592431021
 21
152.3649431729
  0
LINE
  8
0
 62
7
  6
CONTINUOUS
 10
281.8092431021
 20
176.5018748606
 11
281.8092431021
 21
180.7334090167
  0
LINE
  8
0
 62
7
  6
CONTINUOUS
 10
282.5592431021
 20
173.4218562039
 11
282.5592431021
 21
169.2334090167
  0
LINE
  8
0
 62
7
  6
CONTINUOUS
 10
287.0592431021
 20
169.2334090167
 11
287.0592431021
 21
173.4218562039
  0
LINE
  8
0
 62
7
  6
CONTINUOUS
 10
287.8092431021
 20
176.5018748606
 11
287.8092431021
 21
180.7334090167
  0
LINE
  8
0
 62
7
  6
CONTINUOUS
 10
288.1592431021
 20
148.948677085
 11
288.1592431021
 21
152.3649431729
  0
LINE
  8
0
 62
7
  6
CONTINUOUS
 10
288.9092431021
 20
161.7494195053
 11
288.9092431021
 21
155.4449618296
  0
LINE
  8
0
 62
7
  6
CONTINUOUS
 10
293.4092431021
 20
155.4449618296
 11
293.4092431021
 21
161.7494195053
  0
LINE
  8
0
 62
7
  6
CONTINUOUS
 10
294.1592431021
 20
148.948677085
 11
294.1592431021
 21
152.3649431729
  0
LINE
  8
0
 62
7
  6
CONTINUOUS
 10
294.5092431021
 20
176.5018748606
 11
294.5092431021
 21
180.7334090167
  0
LINE
  8
0
 62
7
  6
CONTINUOUS
 10
295.2592431021
 20
173.4218562039
 11
295.2592431021
 21
169.2334090167
  0
POLYLINE
  8
0
 62
7
  6
CONTINUOUS
 66
1
 70
0
  0
VERTEX
  8
0
 62
7
  6
CONTINUOUS
 10
280.7092431021
 20
161.749419014
  0
VERTEX
  8
0
 62
7
  6
CONTINUOUS
 10
280.7203314511
 20
161.9596947515
  0
VERTEX
  8
0
 62
7
  6
CONTINUOUS
 10
280.756591577
 20
162.1819712554
  0
VERTEX
  8
0
 62
7
  6
CONTINUOUS
 10
280.8176483077
 20
162.3988627772
  0
VERTEX
  8
0
 62
7
  6
CONTINUOUS
 10
280.9027416381
 20
162.6075713596
  0
VERTEX
  8
0
 62
7
  6
CONTINUOUS
 10
281.0107956145
 20
162.8054149622
  0
VERTEX
  8
0
 62
7
  6
CONTINUOUS
 10
281.1404352722
 20
162.9898576721
  0
VERTEX
  8
0
 62
7
  6
CONTINUOUS
 10
281.2900059324
 20
163.1585402429
  0
VERTEX
  8
0
 62
7
  6
CONTINUOUS
 10
281.4575953921
 20
163.3093094515
  0
VERTEX
  8
0
 62
7
  6
CONTINUOUS
 10
281.6410582491
 20
163.440244903
  0
VERTEX
  8
0
 62
7
  6
CONTINUOUS
 10
281.8380422421
 20
163.5496835817
  0
VERTEX
  8
0
 62
7
  6
CONTINUOUS
 10
282.0460161467
 20
163.636242151
  0
VERTEX
  8
0
 62
7
  6
CONTINUOUS
 10
282.2622947817
 20
163.6988364205
  0
VERTEX
  8
0
 62
7
  6
CONTINUOUS
 10
282.4646538991
 20
163.7333882819
  0
SEQEND
  0
POLYLINE
  8
0
 62
7
  6
CONTINUOUS
 66
1
 70
0
  0
VERTEX
  8
0
 62
7
  6
CONTINUOUS
 10
293.4092431021
 20
161.749419014
  0
VERTEX
  8
0
 62
7
  6
CONTINUOUS
 10
293.4203314511
 20
161.9596947516
  0
VERTEX
  8
0
 62
7
  6
CONTINUOUS
 10
293.4565915771
 20
162.1819712556
  0
VERTEX
  8
0
 62
7
  6
CONTINUOUS
 10
293.5176483078
 20
162.3988627776
  0
VERTEX
  8
0
 62
7
  6
CONTINUOUS
 10
293.6027416383
 20
162.60757136
  0
VERTEX
  8
0
 62
7
  6
CONTINUOUS
 10
293.7107956148
 20
162.8054149627
  0
VERTEX
  8
0
 62
7
  6
CONTINUOUS
 10
293.8404352726
 20
162.9898576726
  0
VERTEX
  8
0
 62
7
  6
CONTINUOUS
 10
293.990005933
 20
163.1585402434
  0
VERTEX
  8
0
 62
7
  6
CONTINUOUS
 10
294.1575953928
 20
163.3093094521
  0
VERTEX
  8
0
 62
7
  6
CONTINUOUS
 10
294.3410582499
 20
163.4402449036
  0
VERTEX
  8
0
 62
7
  6
CONTINUOUS
 10
294.5380422431
 20
163.5496835822
  0
VERTEX
  8
0
 62
7
  6
CONTINUOUS
 10
294.7460161479
 20
163.6362421514
  0
VERTEX
  8
0
 62
7
  6
CONTINUOUS
 10
294.962294783
 20
163.6988364208
  0
VERTEX
  8
0
 62
7
  6
CONTINUOUS
 10
295.1646538998
 20
163.733388282
  0
SEQEND
  0
LINE
  8
0
 62
7
  6
CONTINUOUS
 10
287.074171852
 20
173.5431240165
 11
287.8047644771
 21
176.4654945168
  0
LINE
  8
0
 62
7
  6
CONTINUOUS
 10
288.8943143522
 20
155.323694017
 11
288.1637217271
 21
152.4013235167
  0
LINE
  8
0
 62
7
  6
CONTINUOUS
 10
299.774171852
 20
173.5431240165
 11
300.5047644771
 21
176.4654945168
  0
LINE
  8
0
 62
7
  6
CONTINUOUS
 10
268.6300334321
 20
148.6132434725
 11
268.6320144428
 21
148.6154481613
  0
LINE
  8
0
 62
7
  6
CONTINUOUS
 10
281.3300334321
 20
148.6132434725
 11
281.3320144428
 21
148.6154481613
  0
LINE
  8
0
 62
7
  6
CONTINUOUS
 10
268.6278561852
 20
148.6108446611
 11
268.6303299579
 21
148.613572287
  0
LINE
  8
0
 62
7
  6
CONTINUOUS
 10
281.3278561852
 20
148.6108446611
 11
281.3303299579
 21
148.613572287
  0
LINE
  8
0
 62
7
  6
CONTINUOUS
 10
268.6253103813
 20
148.6080662312
 11
268.6282792058
 21
148.6113095189
  0
LINE
  8
0
 62
7
  6
CONTINUOUS
 10
281.3253103813
 20
148.6080662312
 11
281.3282792058
 21
148.6113095189
  0
LINE
  8
0
 62
7
  6
CONTINUOUS
 10
268.6223035913
 20
148.6048134611
 11
268.6258525573
 21
148.6086567907
  0
LINE
  8
0
 62
7
  6
CONTINUOUS
 10
281.3223035913
 20
148.6048134611
 11
281.3258525573
 21
148.6086567907
  0
LINE
  8
0
 62
7
  6
CONTINUOUS
 10
268.6249147439
 20
148.607672319
 11
268.625057564
 21
148.6078255345
  0
LINE
  8
0
 62
7
  6
CONTINUOUS
 10
281.3249147439
 20
148.607672319
 11
281.3250575657
 21
148.6078255363
  0
LINE
  8
0
 62
7
  6
CONTINUOUS
 10
268.6176341861
 20
148.5998073823
 11
268.6223035913
 21
148.6048134611
  0
LINE
  8
0
 62
7
  6
CONTINUOUS
 10
281.3176341861
 20
148.5998073823
 11
281.3223035913
 21
148.6048134611
  0
LINE
  8
0
 62
7
  6
CONTINUOUS
 10
268.6125536404
 20
148.5944059179
 11
268.6176341861
 21
148.5998073823
  0
LINE
  8
0
 62
7
  6
CONTINUOUS
 10
281.3125536403
 20
148.5944059179
 11
281.3176341861
 21
148.5998073823
  0
LINE
  8
0
 62
7
  6
CONTINUOUS
 10
312.3092431021
 20
163.7494195053
 11
308.1092431021
 21
163.7494195053
  0
LINE
  8
0
 62
7
  6
CONTINUOUS
 10
299.6092431021
 20
163.7494195053
 11
295.4092431021
 21
163.7494195053
  0
LINE
  8
0
 62
7
  6
CONTINUOUS
 10
274.2092431021
 20
163.7494195053
 11
270.0092431021
 21
163.7494195053
  0
LINE
  8
0
 62
7
  6
CONTINUOUS
 10
261.5092431021
 20
163.7494195053
 11
257.3092431021
 21
163.7494195053
  0
LINE
  8
0
 62
7
  6
CONTINUOUS
 10
248.8092431021
 20
163.7494195053
 11
244.6092431021
 21
163.7494195053
  0
LINE
  8
SURFACE
 62
7
  6
CONTINUOUS
 10
210.7092431021
 20
163.7494195053
 11
206.5092431021
 21
163.7494195053
  0
LINE
  8
SURFACE
 62
7
  6
CONTINUOUS
 10
172.6092431021
 20
163.7494195053
 11
168.4092431021
 21
163.7494195053
  0
LINE
  8
0
 62
7
  6
CONTINUOUS
 10
159.9092431021
 20
163.7494195053
 11
155.8092431021
 21
163.7494195053
  0
LINE
  8
SURFACE
 62
7
  6
CONTINUOUS
 10
181.1092431021
 20
163.7494195053
 11
185.3092431021
 21
163.7494195053
  0
LINE
  8
SURFACE
 62
7
  6
CONTINUOUS
 10
193.8092431021
 20
163.7494195053
 11
198.0092431021
 21
163.7494195053
  0
LINE
  8
SURFACE
 62
7
  6
CONTINUOUS
 10
219.2092431021
 20
163.7494195053
 11
223.4092431021
 21
163.7494195053
  0
LINE
  8
SURFACE
 62
7
  6
CONTINUOUS
 10
231.9092431021
 20
163.7494195053
 11
236.1092431021
 21
163.7494195053
  0
LINE
  8
0
 62
7
  6
CONTINUOUS
 10
282.7092431021
 20
163.7494195053
 11
286.9092431021
 21
163.7494195053
  0
LINE
  8
0
 62
7
  6
CONTINUOUS
 10
320.8092431021
 20
163.7494195053
 11
325.0092431021
 21
163.7494195053
  0
LINE
  8
0
 62
7
  6
CONTINUOUS
 10
333.5092431021
 20
163.7494195053
 11
337.6092431021
 21
163.7494195053
  0
LINE
  8
SURFACE
 62
7
  6
CONTINUOUS
 10
146.1092431021
 20
163.9834090167
 11
142.2592431021
 21
163.9834090167
  0
LINE
  8
SURFACE
 62
7
  6
CONTINUOUS
 10
132.3592431021
 20
163.9834090167
 11
127.7592431021
 21
163.9834090167
  0
LINE
  8
0
 62
7
  6
CONTINUOUS
 10
347.3092431021
 20
163.9834090167
 11
351.1592431021
 21
163.9834090167
  0
LINE
  8
0
 62
7
  6
CONTINUOUS
 10
361.0592431021
 20
163.9834090167
 11
365.6592431021
 21
163.9834090167
  0
LINE
  8
SURFACE
 62
7
  6
CONTINUOUS
 10
117.5592431021
 20
164.1334090167
 11
113.4342431021
 21
164.1334090167
  0
LINE
  8
0
 62
7
  6
CONTINUOUS
 10
375.8592431021
 20
164.1334090167
 11
379.9842431021
 21
164.1334090167
  0
LINE
  8
0
 62
7
  6
CONTINUOUS
 10
386.6592431021
 20
164.6834090167
 11
384.8592431021
 21
164.6834090167
  0
LINE
  8
SURFACE
 62
7
  6
CONTINUOUS
 10
106.7592431021
 20
164.6834090167
 11
108.5592431021
 21
164.6834090167
  0
LINE
  8
0
 62
7
  6
CONTINUOUS
 10
371.3592431021
 20
164.7834090167
 11
369.8592431021
 21
164.7834090167
  0
LINE
  8
SURFACE
 62
7
  6
CONTINUOUS
 10
122.0592431021
 20
164.7834090167
 11
123.5592431021
 21
164.7834090167
  0
LINE
  8
0
 62
7
  6
CONTINUOUS
 10
357.0092431021
 20
164.9334090167
 11
355.2092431021
 21
164.9334090167
  0
LINE
  8
0
 62
7
  6
CONTINUOUS
 10
343.0092431021
 20
164.9334090167
 11
341.7092431021
 21
164.9334090167
  0
LINE
  8
SURFACE
 62
7
  6
CONTINUOUS
 10
136.4092431021
 20
164.9334090167
 11
138.2092431021
 21
164.9334090167
  0
LINE
  8
SURFACE
 62
7
  6
CONTINUOUS
 10
150.4092431021
 20
164.9334090167
 11
151.7092431021
 21
164.9334090167
  0
POLYLINE
  8
SURFACE
 62
7
  6
CONTINUOUS
 66
1
 70
0
  0
VERTEX
  8
SURFACE
 62
7
  6
CONTINUOUS
 10
210.9538323018
 20
163.7333882821
  0
VERTEX
  8
SURFACE
 62
7
  6
CONTINUOUS
 10
211.1561914158
 20
163.6988364221
  0
VERTEX
  8
SURFACE
 62
7
  6
CONTINUOUS
 10
211.3724700517
 20
163.636242153
  0
VERTEX
  8
SURFACE
 62
7
  6
CONTINUOUS
 10
211.580443957
 20
163.5496835841
  0
VERTEX
  8
SURFACE
 62
7
  6
CONTINUOUS
 10
211.7774279508
 20
163.4402449057
  0
VERTEX
  8
SURFACE
 62
7
  6
CONTINUOUS
 10
211.9608908086
 20
163.3093094543
  0
VERTEX
  8
SURFACE
 62
7
  6
CONTINUOUS
 10
212.128480269
 20
163.1585402457
  0
VERTEX
  8
SURFACE
 62
7
  6
CONTINUOUS
 10
212.2780509299
 20
162.9898576748
  0
VERTEX
  8
SURFACE
 62
7
  6
CONTINUOUS
 10
212.4076905882
 20
162.8054149646
  0
VERTEX
  8
SURFACE
 62
7
  6
CONTINUOUS
 10
212.5157445652
 20
162.6075713617
  0
VERTEX
  8
SURFACE
 62
7
  6
CONTINUOUS
 10
212.600837896
 20
162.3988627789
  0
VERTEX
  8
SURFACE
 62
7
  6
CONTINUOUS
 10
212.6618946269
 20
162.1819712565
  0
VERTEX
  8
SURFACE
 62
7
  6
CONTINUOUS
 10
212.6981547531
 20
161.959694752
  0
VERTEX
  8
SURFACE
 62
7
  6
CONTINUOUS
 10
212.7092431021
 20
161.749419014
  0
SEQEND
  0
POLYLINE
  8
SURFACE
 62
7
  6
CONTINUOUS
 66
1
 70
0
  0
VERTEX
  8
SURFACE
 62
7
  6
CONTINUOUS
 10
223.6538322988
 20
163.7333882823
  0
VERTEX
  8
SURFACE
 62
7
  6
CONTINUOUS
 10
223.8561914096
 20
163.6988364235
  0
VERTEX
  8
SURFACE
 62
7
  6
CONTINUOUS
 10
224.0724700463
 20
163.6362421549
  0
VERTEX
  8
SURFACE
 62
7
  6
CONTINUOUS
 10
224.2804439522
 20
163.5496835865
  0
VERTEX
  8
SURFACE
 62
7
  6
CONTINUOUS
 10
224.4774279468
 20
163.4402449083
  0
VERTEX
  8
SURFACE
 62
7
  6
CONTINUOUS
 10
224.6608908053
 20
163.309309457
  0
VERTEX
  8
SURFACE
 62
7
  6
CONTINUOUS
 10
224.8284802664
 20
163.1585402483
  0
VERTEX
  8
SURFACE
 62
7
  6
CONTINUOUS
 10
224.9780509279
 20
162.9898576773
  0
VERTEX
  8
SURFACE
 62
7
  6
CONTINUOUS
 10
225.1076905868
 20
162.8054149668
  0
VERTEX
  8
SURFACE
 62
7
  6
CONTINUOUS
 10
225.2157445642
 20
162.6075713636
  0
VERTEX
  8
SURFACE
 62
7
  6
CONTINUOUS
 10
225.3008378954
 20
162.3988627804
  0
VERTEX
  8
SURFACE
 62
7
  6
CONTINUOUS
 10
225.3618946267
 20
162.1819712575
  0
VERTEX
  8
SURFACE
 62
7
  6
CONTINUOUS
 10
225.398154753
 20
161.9596947525
  0
VERTEX
  8
SURFACE
 62
7
  6
CONTINUOUS
 10
225.4092431021
 20
161.749419014
  0
SEQEND
  0
POLYLINE
  8
SURFACE
 62
7
  6
CONTINUOUS
 66
1
 70
0
  0
VERTEX
  8
SURFACE
 62
7
  6
CONTINUOUS
 10
236.3538323059
 20
163.7333882819
  0
VERTEX
  8
SURFACE
 62
7
  6
CONTINUOUS
 10
236.5561914242
 20
163.6988364201
  0
VERTEX
  8
SURFACE
 62
7
  6
CONTINUOUS
 10
236.7724700589
 20
163.6362421505
  0
VERTEX
  8
SURFACE
 62
7
  6
CONTINUOUS
 10
236.9804439634
 20
163.549683581
  0
VERTEX
  8
SURFACE
 62
7
  6
CONTINUOUS
 10
237.1774279562
 20
163.4402449023
  0
VERTEX
  8
SURFACE
 62
7
  6
CONTINUOUS
 10
237.360890813
 20
163.3093094508
  0
VERTEX
  8
SURFACE
 62
7
  6
CONTINUOUS
 10
237.5284802725
 20
163.1585402421
  0
VERTEX
  8
SURFACE
 62
7
  6
CONTINUOUS
 10
237.6780509326
 20
162.9898576714
  0
VERTEX
  8
SURFACE
 62
7
  6
CONTINUOUS
 10
237.80769059
 20
162.8054149616
  0
VERTEX
  8
SURFACE
 62
7
  6
CONTINUOUS
 10
237.9157445664
 20
162.6075713591
  0
VERTEX
  8
SURFACE
 62
7
  6
CONTINUOUS
 10
238.0008378967
 20
162.3988627768
  0
VERTEX
  8
SURFACE
 62
7
  6
CONTINUOUS
 10
238.0618946272
 20
162.1819712551
  0
VERTEX
  8
SURFACE
 62
7
  6
CONTINUOUS
 10
238.0981547531
 20
161.9596947513
  0
VERTEX
  8
SURFACE
 62
7
  6
CONTINUOUS
 10
238.1092431021
 20
161.749419014
  0
SEQEND
  0
POLYLINE
  8
0
 62
7
  6
CONTINUOUS
 66
1
 70
0
  0
VERTEX
  8
0
 62
7
  6
CONTINUOUS
 10
249.0538840119
 20
163.7333848929
  0
VERTEX
  8
0
 62
7
  6
CONTINUOUS
 10
249.2561960199
 20
163.6988353664
  0
VERTEX
  8
0
 62
7
  6
CONTINUOUS
 10
249.4723797333
 20
163.6362739006
  0
VERTEX
  8
0
 62
7
  6
CONTINUOUS
 10
249.6802673278
 20
163.549769057
  0
VERTEX
  8
0
 62
7
  6
CONTINUOUS
 10
249.8771770443
 20
163.4404034034
  0
VERTEX
  8
0
 62
7
  6
CONTINUOUS
 10
250.0605808839
 20
163.3095581015
  0
VERTEX
  8
0
 62
7
  6
CONTINUOUS
 10
250.2281294229
 20
163.1588935364
  0
VERTEX
  8
0
 62
7
  6
CONTINUOUS
 10
250.3776796861
 20
162.9903270533
  0
VERTEX
  8
0
 62
7
  6
CONTINUOUS
 10
250.5073214273
 20
162.8060084658
  0
VERTEX
  8
0
 62
7
  6
CONTINUOUS
 10
250.6154014045
 20
162.6082933186
  0
VERTEX
  8
0
 62
7
  6
CONTINUOUS
 10
250.7005455228
 20
162.3997136108
  0
VERTEX
  8
0
 62
7
  6
CONTINUOUS
 10
250.7616781105
 20
162.1829473013
  0
VERTEX
  8
0
 62
7
  6
CONTINUOUS
 10
250.7980388093
 20
161.9607882118
  0
VERTEX
  8
0
 62
7
  6
CONTINUOUS
 10
250.8092431021
 20
161.7494190473
  0
SEQEND
  0
POLYLINE
  8
0
 62
7
  6
CONTINUOUS
 66
1
 70
0
  0
VERTEX
  8
0
 62
7
  6
CONTINUOUS
 10
261.7538840112
 20
163.7333848929
  0
VERTEX
  8
0
 62
7
  6
CONTINUOUS
 10
261.9561960183
 20
163.6988353668
  0
VERTEX
  8
0
 62
7
  6
CONTINUOUS
 10
262.1723797319
 20
163.6362739011
  0
VERTEX
  8
0
 62
7
  6
CONTINUOUS
 10
262.3802673266
 20
163.5497690576
  0
VERTEX
  8
0
 62
7
  6
CONTINUOUS
 10
262.5771770433
 20
163.4404034041
  0
VERTEX
  8
0
 62
7
  6
CONTINUOUS
 10
262.7605808831
 20
163.3095581022
  0
VERTEX
  8
0
 62
7
  6
CONTINUOUS
 10
262.9281294222
 20
163.1588935371
  0
VERTEX
  8
0
 62
7
  6
CONTINUOUS
 10
263.0776796856
 20
162.990327054
  0
VERTEX
  8
0
 62
7
  6
CONTINUOUS
 10
263.207321427
 20
162.8060084664
  0
VERTEX
  8
0
 62
7
  6
CONTINUOUS
 10
263.3154014043
 20
162.6082933191
  0
VERTEX
  8
0
 62
7
  6
CONTINUOUS
 10
263.4005455227
 20
162.3997136112
  0
VERTEX
  8
0
 62
7
  6
CONTINUOUS
 10
263.4616781105
 20
162.1829473016
  0
VERTEX
  8
0
 62
7
  6
CONTINUOUS
 10
263.4980388093
 20
161.960788212
  0
VERTEX
  8
0
 62
7
  6
CONTINUOUS
 10
263.5092431021
 20
161.7494190473
  0
SEQEND
  0
POLYLINE
  8
0
 62
7
  6
CONTINUOUS
 66
1
 70
0
  0
VERTEX
  8
0
 62
7
  6
CONTINUOUS
 10
274.4538840113
 20
163.7333848929
  0
VERTEX
  8
0
 62
7
  6
CONTINUOUS
 10
274.6561960187
 20
163.6988353667
  0
VERTEX
  8
0
 62
7
  6
CONTINUOUS
 10
274.8723797323
 20
163.636273901
  0
VERTEX
  8
0
 62
7
  6
CONTINUOUS
 10
275.0802673269
 20
163.5497690574
  0
VERTEX
  8
0
 62
7
  6
CONTINUOUS
 10
275.2771770436
 20
163.4404034039
  0
VERTEX
  8
0
 62
7
  6
CONTINUOUS
 10
275.4605808833
 20
163.309558102
  0
VERTEX
  8
0
 62
7
  6
CONTINUOUS
 10
275.6281294224
 20
163.1588935369
  0
VERTEX
  8
0
 62
7
  6
CONTINUOUS
 10
275.7776796857
 20
162.9903270538
  0
VERTEX
  8
0
 62
7
  6
CONTINUOUS
 10
275.9073214271
 20
162.8060084663
  0
VERTEX
  8
0
 62
7
  6
CONTINUOUS
 10
276.0154014043
 20
162.608293319
  0
VERTEX
  8
0
 62
7
  6
CONTINUOUS
 10
276.1005455227
 20
162.3997136111
  0
VERTEX
  8
0
 62
7
  6
CONTINUOUS
 10
276.1616781105
 20
162.1829473015
  0
VERTEX
  8
0
 62
7
  6
CONTINUOUS
 10
276.1980388093
 20
161.9607882119
  0
VERTEX
  8
0
 62
7
  6
CONTINUOUS
 10
276.2092431021
 20
161.7494190473
  0
SEQEND
  0
POLYLINE
  8
0
 62
7
  6
CONTINUOUS
 66
1
 70
0
  0
VERTEX
  8
0
 62
7
  6
CONTINUOUS
 10
287.1538840091
 20
163.7333848931
  0
VERTEX
  8
0
 62
7
  6
CONTINUOUS
 10
287.3561960142
 20
163.6988353677
  0
VERTEX
  8
0
 62
7
  6
CONTINUOUS
 10
287.5723797284
 20
163.6362739024
  0
VERTEX
  8
0
 62
7
  6
CONTINUOUS
 10
287.7802673235
 20
163.5497690591
  0
VERTEX
  8
0
 62
7
  6
CONTINUOUS
 10
287.9771770407
 20
163.4404034057
  0
VERTEX
  8
0
 62
7
  6
CONTINUOUS
 10
288.1605808809
 20
163.3095581039
  0
VERTEX
  8
0
 62
7
  6
CONTINUOUS
 10
288.3281294205
 20
163.1588935388
  0
VERTEX
  8
0
 62
7
  6
CONTINUOUS
 10
288.4776796843
 20
162.9903270556
  0
VERTEX
  8
0
 62
7
  6
CONTINUOUS
 10
288.6073214261
 20
162.8060084679
  0
VERTEX
  8
0
 62
7
  6
CONTINUOUS
 10
288.7154014037
 20
162.6082933203
  0
VERTEX
  8
0
 62
7
  6
CONTINUOUS
 10
288.8005455224
 20
162.3997136122
  0
VERTEX
  8
0
 62
7
  6
CONTINUOUS
 10
288.8616781103
 20
162.1829473023
  0
VERTEX
  8
0
 62
7
  6
CONTINUOUS
 10
288.8980388092
 20
161.9607882123
  0
VERTEX
  8
0
 62
7
  6
CONTINUOUS
 10
288.9092431021
 20
161.7494190473
  0
SEQEND
  0
POLYLINE
  8
0
 62
7
  6
CONTINUOUS
 66
1
 70
0
  0
VERTEX
  8
0
 62
7
  6
CONTINUOUS
 10
299.8538840098
 20
163.733384893
  0
VERTEX
  8
0
 62
7
  6
CONTINUOUS
 10
300.0561960156
 20
163.6988353674
  0
VERTEX
  8
0
 62
7
  6
CONTINUOUS
 10
300.2723797296
 20
163.6362739019
  0
VERTEX
  8
0
 62
7
  6
CONTINUOUS
 10
300.4802673246
 20
163.5497690586
  0
VERTEX
  8
0
 62
7
  6
CONTINUOUS
 10
300.6771770416
 20
163.4404034052
  0
VERTEX
  8
0
 62
7
  6
CONTINUOUS
 10
300.8605808817
 20
163.3095581033
  0
VERTEX
  8
0
 62
7
  6
CONTINUOUS
 10
301.0281294211
 20
163.1588935382
  0
VERTEX
  8
0
 62
7
  6
CONTINUOUS
 10
301.1776796847
 20
162.990327055
  0
VERTEX
  8
0
 62
7
  6
CONTINUOUS
 10
301.3073214264
 20
162.8060084674
  0
VERTEX
  8
0
 62
7
  6
CONTINUOUS
 10
301.4154014039
 20
162.6082933199
  0
VERTEX
  8
0
 62
7
  6
CONTINUOUS
 10
301.5005455225
 20
162.3997136118
  0
VERTEX
  8
0
 62
7
  6
CONTINUOUS
 10
301.5616781104
 20
162.182947302
  0
VERTEX
  8
0
 62
7
  6
CONTINUOUS
 10
301.5980388093
 20
161.9607882122
  0
VERTEX
  8
0
 62
7
  6
CONTINUOUS
 10
301.6092431021
 20
161.7494190473
  0
SEQEND
  0
POLYLINE
  8
0
 62
7
  6
CONTINUOUS
 66
1
 70
0
  0
VERTEX
  8
0
 62
7
  6
CONTINUOUS
 10
312.5538840096
 20
163.733384893
  0
VERTEX
  8
0
 62
7
  6
CONTINUOUS
 10
312.7561960151
 20
163.6988353675
  0
VERTEX
  8
0
 62
7
  6
CONTINUOUS
 10
312.9723797292
 20
163.6362739021
  0
VERTEX
  8
0
 62
7
  6
CONTINUOUS
 10
313.1802673242
 20
163.5497690588
  0
VERTEX
  8
0
 62
7
  6
CONTINUOUS
 10
313.3771770413
 20
163.4404034053
  0
VERTEX
  8
0
 62
7
  6
CONTINUOUS
 10
313.5605808814
 20
163.3095581035
  0
VERTEX
  8
0
 62
7
  6
CONTINUOUS
 10
313.7281294209
 20
163.1588935384
  0
VERTEX
  8
0
 62
7
  6
CONTINUOUS
 10
313.8776796846
 20
162.9903270552
  0
VERTEX
  8
0
 62
7
  6
CONTINUOUS
 10
314.0073214263
 20
162.8060084676
  0
VERTEX
  8
0
 62
7
  6
CONTINUOUS
 10
314.1154014038
 20
162.60829332
  0
VERTEX
  8
0
 62
7
  6
CONTINUOUS
 10
314.2005455224
 20
162.3997136119
  0
VERTEX
  8
0
 62
7
  6
CONTINUOUS
 10
314.2616781103
 20
162.1829473021
  0
VERTEX
  8
0
 62
7
  6
CONTINUOUS
 10
314.2980388093
 20
161.9607882122
  0
VERTEX
  8
0
 62
7
  6
CONTINUOUS
 10
314.3092431021
 20
161.7494190473
  0
SEQEND
  0
LINE
  8
0
 62
7
  6
CONTINUOUS
 10
300.9988406791
 20
148.6019580419
 11
301.0061459732
 21
148.594178722
  0
LINE
  8
0
 62
7
  6
CONTINUOUS
 10
313.6988406791
 20
148.6019580419
 11
313.7061459732
 21
148.594178722
  0
LINE
  8
0
 62
7
  6
CONTINUOUS
 10
300.9946121322
 20
148.6065090093
 11
300.9988406791
 21
148.6019580419
  0
LINE
  8
0
 62
7
  6
CONTINUOUS
 10
313.6946121322
 20
148.6065090093
 11
313.6988406791
 21
148.6019580419
  0
LINE
  8
0
 62
7
  6
CONTINUOUS
 10
300.9918532874
 20
148.6095064282
 11
300.9946121322
 21
148.6065090093
  0
LINE
  8
0
 62
7
  6
CONTINUOUS
 10
313.6918532874
 20
148.6095064282
 11
313.6946121322
 21
148.6065090093
  0
LINE
  8
0
 62
7
  6
CONTINUOUS
 10
300.9894974636
 20
148.6120895623
 11
300.9918532874
 21
148.6095064282
  0
LINE
  8
0
 62
7
  6
CONTINUOUS
 10
313.6894974636
 20
148.6120895623
 11
313.6918532874
 21
148.6095064282
  0
LINE
  8
0
 62
7
  6
CONTINUOUS
 10
300.9866136532
 20
148.6152895044
 11
300.9896595852
 21
148.6119114696
  0
LINE
  8
0
 62
7
  6
CONTINUOUS
 10
313.6866136532
 20
148.6152895044
 11
313.6896595852
 21
148.6119114696
  0
LINE
  8
0
 62
7
  6
CONTINUOUS
 10
300.9864231159
 20
148.615502593
 11
300.9864717614
 21
148.6154481613
  0
LINE
  8
0
 62
7
  6
CONTINUOUS
 10
313.6864231159
 20
148.6155025929
 11
313.6864717614
 21
148.6154481613
  0
LINE
  8
0
 62
7
  6
CONTINUOUS
 10
281.8137217271
 20
176.4654945168
 11
282.5443143522
 21
173.5431240165
  0
LINE
  8
0
 62
7
  6
CONTINUOUS
 10
294.1547644771
 20
152.4013235167
 11
293.424171852
 21
155.323694017
  0
LINE
  8
0
 62
7
  6
CONTINUOUS
 10
294.5137217271
 20
176.4654945168
 11
295.2443143522
 21
173.5431240165
  0
LINE
  8
0
 62
7
  6
CONTINUOUS
 10
299.7592431021
 20
169.2334090167
 11
299.7592431021
 21
173.4218562039
  0
LINE
  8
0
 62
7
  6
CONTINUOUS
 10
300.5092431021
 20
176.5018748606
 11
300.5092431021
 21
180.7334090167
  0
LINE
  8
0
 62
7
  6
CONTINUOUS
 10
300.8592431021
 20
148.948677085
 11
300.8592431021
 21
152.3649431729
  0
LINE
  8
0
 62
7
  6
CONTINUOUS
 10
301.6092431021
 20
161.7494195053
 11
301.6092431021
 21
155.4449618296
  0
LINE
  8
0
 62
7
  6
CONTINUOUS
 10
306.1092431021
 20
155.4449618296
 11
306.1092431021
 21
161.7494195053
  0
LINE
  8
0
 62
7
  6
CONTINUOUS
 10
306.8592431021
 20
148.948677085
 11
306.8592431021
 21
152.3649431729
  0
LINE
  8
0
 62
7
  6
CONTINUOUS
 10
307.2092431021
 20
176.5018748606
 11
307.2092431021
 21
180.7334090167
  0
LINE
  8
0
 62
7
  6
CONTINUOUS
 10
307.9592431021
 20
173.4218562039
 11
307.9592431021
 21
169.2334090167
  0
LINE
  8
0
 62
7
  6
CONTINUOUS
 10
312.4592431021
 20
169.2334090167
 11
312.4592431021
 21
173.4218562039
  0
LINE
  8
0
 62
7
  6
CONTINUOUS
 10
313.2092431021
 20
176.5018748606
 11
313.2092431021
 21
180.7334090167
  0
LINE
  8
0
 62
7
  6
CONTINUOUS
 10
313.5592431021
 20
148.948677085
 11
313.5592431021
 21
152.3649431729
  0
LINE
  8
0
 62
7
  6
CONTINUOUS
 10
314.3092431021
 20
161.7494195053
 11
314.3092431021
 21
155.4449618296
  0
POLYLINE
  8
0
 62
7
  6
CONTINUOUS
 66
1
 70
0
  0
VERTEX
  8
0
 62
7
  6
CONTINUOUS
 10
306.1092431021
 20
161.749419014
  0
VERTEX
  8
0
 62
7
  6
CONTINUOUS
 10
306.1203314511
 20
161.9596947513
  0
VERTEX
  8
0
 62
7
  6
CONTINUOUS
 10
306.156591577
 20
162.1819712551
  0
VERTEX
  8
0
 62
7
  6
CONTINUOUS
 10
306.2176483076
 20
162.3988627768
  0
VERTEX
  8
0
 62
7
  6
CONTINUOUS
 10
306.3027416378
 20
162.6075713591
  0
VERTEX
  8
0
 62
7
  6
CONTINUOUS
 10
306.4107956142
 20
162.8054149616
  0
VERTEX
  8
0
 62
7
  6
CONTINUOUS
 10
306.5404352716
 20
162.9898576714
  0
VERTEX
  8
0
 62
7
  6
CONTINUOUS
 10
306.6900059317
 20
163.1585402421
  0
VERTEX
  8
0
 62
7
  6
CONTINUOUS
 10
306.8575953912
 20
163.3093094508
  0
VERTEX
  8
0
 62
7
  6
CONTINUOUS
 10
307.041058248
 20
163.4402449023
  0
VERTEX
  8
0
 62
7
  6
CONTINUOUS
 10
307.2380422408
 20
163.549683581
  0
VERTEX
  8
0
 62
7
  6
CONTINUOUS
 10
307.4460161453
 20
163.6362421505
  0
VERTEX
  8
0
 62
7
  6
CONTINUOUS
 10
307.66229478
 20
163.6988364201
  0
VERTEX
  8
0
 62
7
  6
CONTINUOUS
 10
307.8646538983
 20
163.7333882819
  0
SEQEND
  0
LINE
  8
0
 62
7
  6
CONTINUOUS
 10
301.5943143522
 20
155.323694017
 11
300.8637217271
 21
152.4013235167
  0
LINE
  8
0
 62
7
  6
CONTINUOUS
 10
312.474171852
 20
173.5431240165
 11
313.2047644771
 21
176.4654945168
  0
LINE
  8
0
 62
7
  6
CONTINUOUS
 10
314.2943143522
 20
155.323694017
 11
313.5637217271
 21
152.4013235167
  0
LINE
  8
0
 62
7
  6
CONTINUOUS
 10
294.0300334321
 20
148.6132434725
 11
294.0320144428
 21
148.6154481613
  0
LINE
  8
0
 62
7
  6
CONTINUOUS
 10
306.7300334321
 20
148.6132434725
 11
306.7320144428
 21
148.6154481613
  0
LINE
  8
0
 62
7
  6
CONTINUOUS
 10
294.0278561852
 20
148.6108446611
 11
294.0303299579
 21
148.613572287
  0
LINE
  8
0
 62
7
  6
CONTINUOUS
 10
306.7278561852
 20
148.6108446611
 11
306.7303299579
 21
148.613572287
  0
LINE
  8
0
 62
7
  6
CONTINUOUS
 10
294.0253103813
 20
148.6080662312
 11
294.0282792058
 21
148.6113095189
  0
LINE
  8
0
 62
7
  6
CONTINUOUS
 10
306.7253103813
 20
148.6080662312
 11
306.7282792058
 21
148.6113095189
  0
LINE
  8
0
 62
7
  6
CONTINUOUS
 10
294.0223035913
 20
148.6048134611
 11
294.0258525573
 21
148.6086567907
  0
LINE
  8
0
 62
7
  6
CONTINUOUS
 10
306.7223035913
 20
148.6048134611
 11
306.7258525573
 21
148.6086567907
  0
LINE
  8
0
 62
7
  6
CONTINUOUS
 10
294.0249147439
 20
148.607672319
 11
294.0250575681
 21
148.6078255389
  0
LINE
  8
0
 62
7
  6
CONTINUOUS
 10
306.7249147439
 20
148.607672319
 11
306.7250575658
 21
148.6078255364
  0
LINE
  8
0
 62
7
  6
CONTINUOUS
 10
294.0176341861
 20
148.5998073823
 11
294.0223035913
 21
148.6048134611
  0
LINE
  8
0
 62
7
  6
CONTINUOUS
 10
306.7176341861
 20
148.5998073823
 11
306.7223035913
 21
148.6048134611
  0
LINE
  8
0
 62
7
  6
CONTINUOUS
 10
294.0125536403
 20
148.5944059179
 11
294.0176341861
 21
148.5998073823
  0
LINE
  8
0
 62
7
  6
CONTINUOUS
 10
306.7125536404
 20
148.5944059179
 11
306.7176341861
 21
148.5998073823
  0
LINE
  8
0
 62
7
  6
CONTINUOUS
 10
394.5962128871
 20
182.2615696677
 11
391.3592431021
 21
181.0834090167
  0
LINE
  8
0
 62
7
  6
CONTINUOUS
 10
380.3592431021
 20
181.4834090167
 11
375.8592431021
 21
181.4834090167
  0
LINE
  8
0
 62
7
  6
CONTINUOUS
 10
365.3592431021
 20
181.4834090167
 11
360.8592431021
 21
181.4834090167
  0
LINE
  8
0
 62
7
  6
CONTINUOUS
 10
351.3592431021
 20
181.4834090167
 11
346.8592431021
 21
181.4834090167
  0
LINE
  8
0
 62
7
  6
CONTINUOUS
 10
337.8592431021
 20
181.4834090167
 11
333.3592431021
 21
181.4834090167
  0
LINE
  8
0
 62
7
  6
CONTINUOUS
 10
248.9592431021
 20
181.4834090167
 11
244.4592431021
 21
181.4834090167
  0
LINE
  8
SURFACE
 62
7
  6
CONTINUOUS
 10
236.2592431021
 20
181.4834090167
 11
231.7592431021
 21
181.4834090167
  0
LINE
  8
SURFACE
 62
7
  6
CONTINUOUS
 10
223.5592431021
 20
181.4834090167
 11
219.0592431021
 21
181.4834090167
  0
LINE
  8
SURFACE
 62
7
  6
CONTINUOUS
 10
210.8592431021
 20
181.4834090167
 11
206.3592431021
 21
181.4834090167
  0
LINE
  8
SURFACE
 62
7
  6
CONTINUOUS
 10
198.1592431021
 20
181.4834090167
 11
193.6592431021
 21
181.4834090167
  0
LINE
  8
SURFACE
 62
7
  6
CONTINUOUS
 10
185.4592431021
 20
181.4834090167
 11
180.9592431021
 21
181.4834090167
  0
LINE
  8
SURFACE
 62
7
  6
CONTINUOUS
 10
172.7592431021
 20
181.4834090167
 11
168.2592431021
 21
181.4834090167
  0
LINE
  8
SURFACE
 62
7
  6
CONTINUOUS
 10
113.0592431021
 20
181.4834090167
 11
117.5592431021
 21
181.4834090167
  0
LINE
  8
SURFACE
 62
7
  6
CONTINUOUS
 10
128.0592431021
 20
181.4834090167
 11
132.5592431021
 21
181.4834090167
  0
LINE
  8
SURFACE
 62
7
  6
CONTINUOUS
 10
142.0592431021
 20
181.4834090167
 11
146.5592431021
 21
181.4834090167
  0
LINE
  8
0
 62
7
  6
CONTINUOUS
 10
155.5592431021
 20
181.4834090167
 11
160.0592431021
 21
181.4834090167
  0
LINE
  8
0
 62
7
  6
CONTINUOUS
 10
257.1592431021
 20
181.4834090167
 11
261.6592431021
 21
181.4834090167
  0
LINE
  8
0
 62
7
  6
CONTINUOUS
 10
269.8592431021
 20
181.4834090167
 11
274.3592431021
 21
181.4834090167
  0
LINE
  8
0
 62
7
  6
CONTINUOUS
 10
282.5592431021
 20
181.4834090167
 11
287.0592431021
 21
181.4834090167
  0
LINE
  8
0
 62
7
  6
CONTINUOUS
 10
295.2592431021
 20
181.4834090167
 11
299.7592431021
 21
181.4834090167
  0
LINE
  8
0
 62
7
  6
CONTINUOUS
 10
307.9592431021
 20
181.4834090167
 11
312.4592431021
 21
181.4834090167
  0
LINE
  8
0
 62
7
  6
CONTINUOUS
 10
320.6592431021
 20
181.4834090167
 11
325.1592431021
 21
181.4834090167
  0
POLYLINE
  8
0
 62
7
  6
CONTINUOUS
 66
1
 70
0
  0
VERTEX
  8
0
 62
7
  6
CONTINUOUS
 10
325.2538840118
 20
163.7333848929
  0
VERTEX
  8
0
 62
7
  6
CONTINUOUS
 10
325.4561960197
 20
163.6988353664
  0
VERTEX
  8
0
 62
7
  6
CONTINUOUS
 10
325.6723797332
 20
163.6362739007
  0
VERTEX
  8
0
 62
7
  6
CONTINUOUS
 10
325.8802673277
 20
163.5497690571
  0
VERTEX
  8
0
 62
7
  6
CONTINUOUS
 10
326.0771770442
 20
163.4404034035
  0
VERTEX
  8
0
 62
7
  6
CONTINUOUS
 10
326.2605808838
 20
163.3095581016
  0
VERTEX
  8
0
 62
7
  6
CONTINUOUS
 10
326.4281294228
 20
163.1588935365
  0
VERTEX
  8
0
 62
7
  6
CONTINUOUS
 10
326.577679686
 20
162.9903270534
  0
VERTEX
  8
0
 62
7
  6
CONTINUOUS
 10
326.7073214273
 20
162.8060084659
  0
VERTEX
  8
0
 62
7
  6
CONTINUOUS
 10
326.8154014045
 20
162.6082933186
  0
VERTEX
  8
0
 62
7
  6
CONTINUOUS
 10
326.9005455228
 20
162.3997136108
  0
VERTEX
  8
0
 62
7
  6
CONTINUOUS
 10
326.9616781105
 20
162.1829473014
  0
VERTEX
  8
0
 62
7
  6
CONTINUOUS
 10
326.9980388093
 20
161.9607882119
  0
VERTEX
  8
0
 62
7
  6
CONTINUOUS
 10
327.0092431021
 20
161.7494190473
  0
SEQEND
  0
LINE
  8
0
 62
7
  6
CONTINUOUS
 10
367.9451147272
 20
153.7268955172
 11
363.0120098421
 21
155.2586652992
  0
LINE
  8
0
 62
7
  6
CONTINUOUS
 10
339.6088141019
 20
147.9801793939
 11
339.6154876142
 21
147.976361579
  0
LINE
  8
0
 62
7
  6
CONTINUOUS
 10
353.3588141018
 20
147.9801793939
 11
353.3654876142
 21
147.976361579
  0
LINE
  8
0
 62
7
  6
CONTINUOUS
 10
367.8588141018
 20
147.9801793939
 11
367.8654876142
 21
147.976361579
  0
LINE
  8
0
 62
7
  6
CONTINUOUS
 10
326.3988406791
 20
148.6019580419
 11
326.4061459732
 21
148.594178722
  0
LINE
  8
0
 62
7
  6
CONTINUOUS
 10
326.3946121322
 20
148.6065090093
 11
326.3988406791
 21
148.6019580419
  0
LINE
  8
0
 62
7
  6
CONTINUOUS
 10
326.3918532874
 20
148.6095064282
 11
326.3946121322
 21
148.6065090093
  0
LINE
  8
0
 62
7
  6
CONTINUOUS
 10
326.3894974636
 20
148.6120895623
 11
326.3918532874
 21
148.6095064282
  0
LINE
  8
0
 62
7
  6
CONTINUOUS
 10
326.3866136532
 20
148.6152895044
 11
326.3896595852
 21
148.6119114696
  0
LINE
  8
0
 62
7
  6
CONTINUOUS
 10
326.3864231159
 20
148.6155025929
 11
326.3864717614
 21
148.6154481613
  0
LINE
  8
0
 62
7
  6
CONTINUOUS
 10
306.8547644771
 20
152.4013235167
 11
306.124171852
 21
155.323694017
  0
LINE
  8
0
 62
7
  6
CONTINUOUS
 10
307.2137217271
 20
176.4654945168
 11
307.9443143522
 21
173.5431240165
  0
LINE
  8
0
 62
7
  6
CONTINUOUS
 10
319.5547644771
 20
152.4013235167
 11
318.824171852
 21
155.323694017
  0
LINE
  8
0
 62
7
  6
CONTINUOUS
 10
318.8092431021
 20
155.4449618296
 11
318.8092431021
 21
161.7494195053
  0
LINE
  8
0
 62
7
  6
CONTINUOUS
 10
319.5592431021
 20
148.948677085
 11
319.5592431021
 21
152.3649431729
  0
LINE
  8
0
 62
7
  6
CONTINUOUS
 10
319.9092431021
 20
176.5018748606
 11
319.9092431021
 21
180.7334090167
  0
LINE
  8
0
 62
7
  6
CONTINUOUS
 10
320.6592431021
 20
173.4218562039
 11
320.6592431021
 21
169.2334090167
  0
LINE
  8
0
 62
7
  6
CONTINUOUS
 10
325.1592431021
 20
169.2334090167
 11
325.1592431021
 21
173.4218562039
  0
LINE
  8
0
 62
7
  6
CONTINUOUS
 10
325.9092431021
 20
176.5018748606
 11
325.9092431021
 21
180.7334090167
  0
LINE
  8
0
 62
7
  6
CONTINUOUS
 10
326.2592431021
 20
148.948677085
 11
326.2592431021
 21
152.3649431729
  0
LINE
  8
0
 62
7
  6
CONTINUOUS
 10
327.0092431021
 20
161.7494195053
 11
327.0092431021
 21
155.4449618296
  0
LINE
  8
0
 62
7
  6
CONTINUOUS
 10
331.5092431021
 20
155.4449618296
 11
331.5092431021
 21
161.7494195053
  0
LINE
  8
0
 62
7
  6
CONTINUOUS
 10
332.2592431021
 20
148.948677085
 11
332.2592431021
 21
152.3649431729
  0
LINE
  8
0
 62
7
  6
CONTINUOUS
 10
332.6092431021
 20
176.5018748606
 11
332.6092431021
 21
180.7334090167
  0
LINE
  8
0
 62
7
  6
CONTINUOUS
 10
333.3592431021
 20
173.4218562039
 11
333.3592431021
 21
169.2334090167
  0
POLYLINE
  8
0
 62
7
  6
CONTINUOUS
 66
1
 70
0
  0
VERTEX
  8
0
 62
7
  6
CONTINUOUS
 10
318.8092431021
 20
161.749419014
  0
VERTEX
  8
0
 62
7
  6
CONTINUOUS
 10
318.8203314511
 20
161.9596947517
  0
VERTEX
  8
0
 62
7
  6
CONTINUOUS
 10
318.8565915772
 20
162.1819712559
  0
VERTEX
  8
0
 62
7
  6
CONTINUOUS
 10
318.917648308
 20
162.398862778
  0
VERTEX
  8
0
 62
7
  6
CONTINUOUS
 10
319.0027416385
 20
162.6075713606
  0
VERTEX
  8
0
 62
7
  6
CONTINUOUS
 10
319.1107956153
 20
162.8054149633
  0
VERTEX
  8
0
 62
7
  6
CONTINUOUS
 10
319.2404352732
 20
162.9898576734
  0
VERTEX
  8
0
 62
7
  6
CONTINUOUS
 10
319.3900059338
 20
163.1585402442
  0
VERTEX
  8
0
 62
7
  6
CONTINUOUS
 10
319.5575953937
 20
163.3093094528
  0
VERTEX
  8
0
 62
7
  6
CONTINUOUS
 10
319.7410582511
 20
163.4402449043
  0
VERTEX
  8
0
 62
7
  6
CONTINUOUS
 10
319.9380422445
 20
163.5496835828
  0
VERTEX
  8
0
 62
7
  6
CONTINUOUS
 10
320.1460161495
 20
163.6362421519
  0
VERTEX
  8
0
 62
7
  6
CONTINUOUS
 10
320.3622947848
 20
163.6988364213
  0
VERTEX
  8
0
 62
7
  6
CONTINUOUS
 10
320.5646539007
 20
163.733388282
  0
SEQEND
  0
POLYLINE
  8
0
 62
7
  6
CONTINUOUS
 66
1
 70
0
  0
VERTEX
  8
0
 62
7
  6
CONTINUOUS
 10
331.5092431021
 20
161.749419014
  0
VERTEX
  8
0
 62
7
  6
CONTINUOUS
 10
331.5203314511
 20
161.9596947515
  0
VERTEX
  8
0
 62
7
  6
CONTINUOUS
 10
331.556591577
 20
162.1819712554
  0
VERTEX
  8
0
 62
7
  6
CONTINUOUS
 10
331.6176483077
 20
162.3988627773
  0
VERTEX
  8
0
 62
7
  6
CONTINUOUS
 10
331.7027416381
 20
162.6075713597
  0
VERTEX
  8
0
 62
7
  6
CONTINUOUS
 10
331.8107956146
 20
162.8054149623
  0
VERTEX
  8
0
 62
7
  6
CONTINUOUS
 10
331.9404352722
 20
162.9898576722
  0
VERTEX
  8
0
 62
7
  6
CONTINUOUS
 10
332.0900059325
 20
163.1585402429
  0
VERTEX
  8
0
 62
7
  6
CONTINUOUS
 10
332.2575953922
 20
163.3093094516
  0
VERTEX
  8
0
 62
7
  6
CONTINUOUS
 10
332.4410582492
 20
163.4402449031
  0
VERTEX
  8
0
 62
7
  6
CONTINUOUS
 10
332.6380422423
 20
163.5496835817
  0
VERTEX
  8
0
 62
7
  6
CONTINUOUS
 10
332.8460161469
 20
163.636242151
  0
VERTEX
  8
0
 62
7
  6
CONTINUOUS
 10
333.0622947819
 20
163.6988364206
  0
VERTEX
  8
0
 62
7
  6
CONTINUOUS
 10
333.2646538992
 20
163.7333882819
  0
SEQEND
  0
LINE
  8
0
 62
7
  6
CONTINUOUS
 10
325.174171852
 20
173.5431240165
 11
325.9047644771
 21
176.4654945168
  0
LINE
  8
0
 62
7
  6
CONTINUOUS
 10
326.9943143522
 20
155.323694017
 11
326.2637217271
 21
152.4013235167
  0
LINE
  8
0
 62
7
  6
CONTINUOUS
 10
337.874171852
 20
173.5431240165
 11
338.6047644771
 21
176.4654945168
  0
LINE
  8
0
 62
7
  6
CONTINUOUS
 10
319.4300334321
 20
148.6132434725
 11
319.4320144428
 21
148.6154481613
  0
LINE
  8
0
 62
7
  6
CONTINUOUS
 10
332.1300334321
 20
148.6132434725
 11
332.1320144428
 21
148.6154481613
  0
LINE
  8
0
 62
7
  6
CONTINUOUS
 10
319.4278561852
 20
148.6108446611
 11
319.4303299579
 21
148.613572287
  0
LINE
  8
0
 62
7
  6
CONTINUOUS
 10
332.1278561852
 20
148.6108446611
 11
332.1303299579
 21
148.613572287
  0
LINE
  8
0
 62
7
  6
CONTINUOUS
 10
319.4253103813
 20
148.6080662312
 11
319.4282792058
 21
148.6113095189
  0
LINE
  8
0
 62
7
  6
CONTINUOUS
 10
332.1253103813
 20
148.6080662312
 11
332.1282792058
 21
148.6113095189
  0
LINE
  8
0
 62
7
  6
CONTINUOUS
 10
319.4223035913
 20
148.6048134611
 11
319.4258525573
 21
148.6086567907
  0
LINE
  8
0
 62
7
  6
CONTINUOUS
 10
332.1223035913
 20
148.6048134611
 11
332.1258525573
 21
148.6086567907
  0
LINE
  8
0
 62
7
  6
CONTINUOUS
 10
319.4249147439
 20
148.607672319
 11
319.425057566
 21
148.6078255367
  0
LINE
  8
0
 62
7
  6
CONTINUOUS
 10
332.1249147439
 20
148.607672319
 11
332.1250575657
 21
148.6078255363
  0
LINE
  8
0
 62
7
  6
CONTINUOUS
 10
319.4176341861
 20
148.5998073823
 11
319.4221758704
 21
148.6046771001
  0
LINE
  8
0
 62
7
  6
CONTINUOUS
 10
332.1176341861
 20
148.5998073823
 11
332.1221758704
 21
148.6046771001
  0
LINE
  8
0
 62
7
  6
CONTINUOUS
 10
319.4125536403
 20
148.5944059179
 11
319.4176341861
 21
148.5998073823
  0
LINE
  8
0
 62
7
  6
CONTINUOUS
 10
332.1125536403
 20
148.5944059179
 11
332.1176341861
 21
148.5998073823
  0
LINE
  8
0
 62
7
  6
CONTINUOUS
 10
345.1030354071
 20
147.9763825547
 11
345.1096532163
 21
147.9801684635
  0
LINE
  8
0
 62
7
  6
CONTINUOUS
 10
392.3454996149
 20
164.3307754413
 11
392.4321222422
 21
164.3630613588
  0
LINE
  8
0
 62
7
  6
CONTINUOUS
 10
392.4321222422
 20
164.3630613588
 11
394.6353035321
 21
165.164953769
  0
LINE
  8
0
 62
7
  6
CONTINUOUS
 10
363.0120098489
 20
162.0081527364
 11
367.3735563462
 21
163.3624489217
  0
LINE
  8
0
 62
7
  6
CONTINUOUS
 10
383.4487379849
 20
147.9741689905
 11
383.4561848066
 21
147.9690628119
  0
LINE
  8
0
 62
7
  6
CONTINUOUS
 10
319.9137217271
 20
176.4654945168
 11
320.6443143522
 21
173.5431240165
  0
LINE
  8
0
 62
7
  6
CONTINUOUS
 10
332.2547644771
 20
152.4013235167
 11
331.524171852
 21
155.323694017
  0
LINE
  8
0
 62
7
  6
CONTINUOUS
 10
332.6137217271
 20
176.4654945168
 11
333.3443143522
 21
173.5431240165
  0
LINE
  8
0
 62
7
  6
CONTINUOUS
 10
337.8592431021
 20
168.7834090167
 11
337.8592431021
 21
173.4218562039
  0
LINE
  8
0
 62
7
  6
CONTINUOUS
 10
338.6092431021
 20
176.5018748606
 11
338.6092431021
 21
180.7334090167
  0
LINE
  8
0
 62
7
  6
CONTINUOUS
 10
339.3592431021
 20
148.4129439313
 11
339.3592431021
 21
152.3649431729
  0
LINE
  8
0
 62
7
  6
CONTINUOUS
 10
340.1092431021
 20
161.2494195053
 11
340.1092431021
 21
155.4449618296
  0
LINE
  8
0
 62
7
  6
CONTINUOUS
 10
344.6092431021
 20
155.4449618296
 11
344.6092431021
 21
161.2834090167
  0
LINE
  8
0
 62
7
  6
CONTINUOUS
 10
345.3592431021
 20
148.4129439313
 11
345.3592431021
 21
152.3649431729
  0
LINE
  8
0
 62
7
  6
CONTINUOUS
 10
346.1092431021
 20
176.5018748606
 11
346.1092431021
 21
180.7334090167
  0
LINE
  8
0
 62
7
  6
CONTINUOUS
 10
346.8592431021
 20
173.4218562039
 11
346.8592431021
 21
168.7834090167
  0
LINE
  8
0
 62
7
  6
CONTINUOUS
 10
351.3592431021
 20
168.7834090167
 11
351.3592431021
 21
173.4218562039
  0
LINE
  8
0
 62
7
  6
CONTINUOUS
 10
352.1092431021
 20
176.5018748606
 11
352.1092431021
 21
180.7334090167
  0
LINE
  8
0
 62
7
  6
CONTINUOUS
 10
353.1092431021
 20
148.4129439313
 11
353.1092431021
 21
152.3649431729
  0
LINE
  8
0
 62
7
  6
CONTINUOUS
 10
353.8592431021
 20
161.2834090167
 11
353.8592431021
 21
155.4449618296
  0
LINE
  8
0
 62
7
  6
CONTINUOUS
 10
340.0943143522
 20
155.323694017
 11
339.3637217271
 21
152.4013235167
  0
LINE
  8
0
 62
7
  6
CONTINUOUS
 10
351.374171852
 20
173.5431240165
 11
352.1047644771
 21
176.4654945168
  0
LINE
  8
0
 62
7
  6
CONTINUOUS
 10
353.8443143522
 20
155.323694017
 11
353.1137217271
 21
152.4013235167
  0
LINE
  8
0
 62
7
  6
CONTINUOUS
 10
358.8530354071
 20
147.9763825547
 11
358.8596532152
 21
147.9801684628
  0
LINE
  8
0
 62
7
  6
CONTINUOUS
 10
373.3530354071
 20
147.9763825547
 11
373.3596532161
 21
147.9801684633
  0
LINE
  8
0
 62
7
  6
CONTINUOUS
 10
345.3547644771
 20
152.4013235167
 11
344.624171852
 21
155.323694017
  0
LINE
  8
0
 62
7
  6
CONTINUOUS
 10
346.1137217271
 20
176.4654945168
 11
346.8443143522
 21
173.5431240165
  0
LINE
  8
0
 62
7
  6
CONTINUOUS
 10
359.1047644771
 20
152.4013235167
 11
358.374171852
 21
155.323694017
  0
LINE
  8
0
 62
7
  6
CONTINUOUS
 10
358.3592431021
 20
155.4449618296
 11
358.3592431021
 21
161.2834090167
  0
LINE
  8
0
 62
7
  6
CONTINUOUS
 10
359.1092431021
 20
148.4129439313
 11
359.1092431021
 21
152.3649431729
  0
LINE
  8
0
 62
7
  6
CONTINUOUS
 10
360.1092431021
 20
176.5018748606
 11
360.1092431021
 21
180.7334090167
  0
LINE
  8
0
 62
7
  6
CONTINUOUS
 10
360.8592431021
 20
173.4218562039
 11
360.8592431021
 21
168.7834090167
  0
LINE
  8
0
 62
7
  6
CONTINUOUS
 10
362.4492431021
 20
156.0226812548
 11
362.4492431021
 21
161.2441367787
  0
LINE
  8
0
 62
7
  6
CONTINUOUS
 10
365.3592431021
 20
169.2834090167
 11
365.3592431021
 21
173.4218562039
  0
LINE
  8
0
 62
7
  6
CONTINUOUS
 10
366.1092431021
 20
176.5018748606
 11
366.1092431021
 21
180.7334090167
  0
LINE
  8
0
 62
7
  6
CONTINUOUS
 10
367.6092431021
 20
148.4129439313
 11
367.6092431021
 21
152.3649431729
  0
LINE
  8
0
 62
7
  6
CONTINUOUS
 10
368.3592431021
 20
161.2834090167
 11
368.3592431021
 21
155.4449618296
  0
LINE
  8
0
 62
7
  6
CONTINUOUS
 10
372.8592431021
 20
155.4449618296
 11
372.8592431021
 21
161.1334090167
  0
LINE
  8
0
 62
7
  6
CONTINUOUS
 10
365.374171852
 20
173.5431240165
 11
366.1047644771
 21
176.4654945168
  0
LINE
  8
0
 62
7
  6
CONTINUOUS
 10
367.6137217271
 20
152.4013235167
 11
368.3443143522
 21
155.323694017
  0
LINE
  8
0
 62
7
  6
CONTINUOUS
 10
389.0123318041
 20
147.9690836311
 11
389.0198381639
 21
147.9742315745
  0
LINE
  8
0
 62
7
  6
CONTINUOUS
 10
391.5092431021
 20
170.5963116115
 11
391.3592431021
 21
170.7332416933
  0
LINE
  8
0
 62
7
  6
CONTINUOUS
 10
360.1137217271
 20
176.4654945168
 11
360.8443143522
 21
173.5431240165
  0
LINE
  8
0
 62
7
  6
CONTINUOUS
 10
373.6047644771
 20
152.4013235167
 11
372.874171852
 21
155.323694017
  0
LINE
  8
0
 62
7
  6
CONTINUOUS
 10
373.6092431021
 20
148.4129439313
 11
373.6092431021
 21
152.3649431729
  0
LINE
  8
0
 62
7
  6
CONTINUOUS
 10
374.8992431021
 20
151.7134090167
 11
374.8992431021
 21
163.1334090167
  0
LINE
  8
0
 62
7
  6
CONTINUOUS
 10
375.1092431021
 20
176.5018748606
 11
375.1092431021
 21
180.7334090167
  0
LINE
  8
0
 62
7
  6
CONTINUOUS
 10
375.8592431021
 20
173.4218562039
 11
375.8592431021
 21
169.2834090167
  0
LINE
  8
0
 62
7
  6
CONTINUOUS
 10
380.3592431021
 20
169.1834090167
 11
380.3592431021
 21
173.4218562039
  0
LINE
  8
0
 62
7
  6
CONTINUOUS
 10
381.1092431021
 20
176.5018748606
 11
381.1092431021
 21
180.7334090167
  0
LINE
  8
0
 62
7
  6
CONTINUOUS
 10
383.2342431021
 20
148.3846400803
 11
383.2342431021
 21
152.3649431729
  0
LINE
  8
0
 62
7
  6
CONTINUOUS
 10
383.9842431021
 20
160.1334090167
 11
383.9842431021
 21
155.4449618296
  0
LINE
  8
0
 62
7
  6
CONTINUOUS
 10
388.4842431021
 20
155.4449618296
 11
388.4842431021
 21
158.7249056341
  0
LINE
  8
0
 62
7
  6
CONTINUOUS
 10
389.2342431021
 20
148.3846400803
 11
389.2342431021
 21
152.3649431729
  0
LINE
  8
0
 62
7
  6
CONTINUOUS
 10
391.3592431021
 20
181.0834090167
 11
391.3592431021
 21
167.4149979607
  0
POLYLINE
  8
0
 62
7
  6
CONTINUOUS
 66
1
 70
0
  0
VERTEX
  8
0
 62
7
  6
CONTINUOUS
 10
391.3592431021
 20
167.4149979607
  0
VERTEX
  8
0
 62
7
  6
CONTINUOUS
 10
391.3506573909
 20
167.3121537189
  0
VERTEX
  8
0
 62
7
  6
CONTINUOUS
 10
391.3311079462
 20
167.2251448819
  0
VERTEX
  8
0
 62
7
  6
CONTINUOUS
 10
391.3030218815
 20
167.1404193922
  0
VERTEX
  8
0
 62
7
  6
CONTINUOUS
 10
391.2596039612
 20
167.037563363
  0
VERTEX
  8
0
 62
7
  6
CONTINUOUS
 10
391.1971228254
 20
166.9133114244
  0
VERTEX
  8
0
 62
7
  6
CONTINUOUS
 10
391.1126896261
 20
166.7662657366
  0
VERTEX
  8
0
 62
7
  6
CONTINUOUS
 10
391.0020151604
 20
166.5933608084
  0
VERTEX
  8
0
 62
7
  6
CONTINUOUS
 10
390.8592432451
 20
166.3901971201
  0
SEQEND
  0
LINE
  8
0
 62
7
  6
CONTINUOUS
 10
380.374171852
 20
173.5431240165
 11
381.1047644771
 21
176.4654945168
  0
LINE
  8
0
 62
7
  6
CONTINUOUS
 10
383.9693143522
 20
155.323694017
 11
383.2387217271
 21
152.4013235167
  0
LINE
  8
0
 62
7
  6
CONTINUOUS
 10
375.1137217271
 20
176.4654945168
 11
375.8443143522
 21
173.5431240165
  0
LINE
  8
0
 62
7
  6
CONTINUOUS
 10
389.2297644771
 20
152.4013235167
 11
388.499171852
 21
155.323694017
  0
POLYLINE
  8
0
 62
7
  6
CONTINUOUS
 66
1
 70
0
  0
VERTEX
  8
0
 62
7
  6
CONTINUOUS
 10
391.5092431021
 20
175.3914445805
  0
VERTEX
  8
0
 62
7
  6
CONTINUOUS
 10
391.4476609021
 20
175.7709544782
  0
VERTEX
  8
0
 62
7
  6
CONTINUOUS
 10
391.4044164549
 20
176.0746058303
  0
VERTEX
  8
0
 62
7
  6
CONTINUOUS
 10
391.3773827532
 20
176.3197108906
  0
VERTEX
  8
0
 62
7
  6
CONTINUOUS
 10
391.3633412557
 20
176.5188799967
  0
VERTEX
  8
0
 62
7
  6
CONTINUOUS
 10
391.3592431021
 20
176.6818872398
  0
SEQEND
  0
LINE
  8
0
 62
7
  6
CONTINUOUS
 10
396.6092431021
 20
167.9840316314
 11
396.6092431021
 21
180.8520307365
  0
LINE
  8
DEFAULT_2
 62
8
  6
HIDDEN
 10
434.8095241013
 20
327.3854983449
 11
434.7829048817
 21
327.3714296456
  0
POLYLINE
  8
SURFACE
 62
7
  6
CONTINUOUS
 66
1
 70
0
  0
VERTEX
  8
SURFACE
 62
7
  6
CONTINUOUS
 10
434.8195872755
 20
327.3892326386
  0
VERTEX
  8
SURFACE
 62
7
  6
CONTINUOUS
 10
434.8083879486
 20
327.3850767356
  0
VERTEX
  8
SURFACE
 62
7
  6
CONTINUOUS
 10
434.7829048749
 20
327.3714296411
  0
SEQEND
  0
LINE
  8
DEFAULT_2
 62
8
  6
HIDDEN
 10
434.8195891887
 20
327.3892332631
 11
434.8095241013
 21
327.3854983449
  0
LINE
  8
SURFACE
 62
7
  6
CONTINUOUS
 10
435.0403892574
 20
327.460405864
 11
434.8195926948
 21
327.3892344315
  0
POLYLINE
  8
0
 62
7
  6
CONTINUOUS
 66
1
 70
0
  0
VERTEX
  8
0
 62
7
  6
CONTINUOUS
 10
435.4466070707
 20
327.5856965084
  0
VERTEX
  8
0
 62
7
  6
CONTINUOUS
 10
435.2553301078
 20
327.5279500135
  0
VERTEX
  8
0
 62
7
  6
CONTINUOUS
 10
434.8195927225
 20
327.3892344405
  0
SEQEND
  0
POLYLINE
  8
DEFAULT_2
 62
8
  6
HIDDEN
 66
1
 70
0
  0
VERTEX
  8
DEFAULT_2
 62
8
  6
HIDDEN
 10
434.346697518
 20
327.0495324937
  0
VERTEX
  8
DEFAULT_2
 62
8
  6
HIDDEN
 10
434.1773596689
 20
326.9028024794
  0
VERTEX
  8
DEFAULT_2
 62
8
  6
HIDDEN
 10
433.9937223596
 20
326.7211647114
  0
VERTEX
  8
DEFAULT_2
 62
8
  6
HIDDEN
 10
433.8100444786
 20
326.5105625449
  0
VERTEX
  8
DEFAULT_2
 62
8
  6
HIDDEN
 10
433.6315208491
 20
326.2698231502
  0
VERTEX
  8
DEFAULT_2
 62
8
  6
HIDDEN
 10
433.4636907056
 20
325.9987630064
  0
VERTEX
  8
DEFAULT_2
 62
8
  6
HIDDEN
 10
433.3110593417
 20
325.6961205544
  0
VERTEX
  8
DEFAULT_2
 62
8
  6
HIDDEN
 10
433.2419464489
 20
325.5327522932
  0
VERTEX
  8
DEFAULT_2
 62
8
  6
HIDDEN
 10
433.1214552082
 20
325.1827587998
  0
VERTEX
  8
DEFAULT_2
 62
8
  6
HIDDEN
 10
433.028366654
 20
324.8021004838
  0
VERTEX
  8
DEFAULT_2
 62
8
  6
HIDDEN
 10
432.966304417
 20
324.3840312201
  0
VERTEX
  8
DEFAULT_2
 62
8
  6
HIDDEN
 10
432.9414161977
 20
323.886819024
  0
SEQEND
  0
POLYLINE
  8
SURFACE
 62
7
  6
CONTINUOUS
 66
1
 70
0
  0
VERTEX
  8
SURFACE
 62
7
  6
CONTINUOUS
 10
434.346697518
 20
327.0495324937
  0
VERTEX
  8
SURFACE
 62
7
  6
CONTINUOUS
 10
434.1773596689
 20
326.9028024794
  0
VERTEX
  8
SURFACE
 62
7
  6
CONTINUOUS
 10
433.9937223596
 20
326.7211647114
  0
VERTEX
  8
SURFACE
 62
7
  6
CONTINUOUS
 10
433.8100444786
 20
326.5105625449
  0
VERTEX
  8
SURFACE
 62
7
  6
CONTINUOUS
 10
433.6315208491
 20
326.2698231502
  0
VERTEX
  8
SURFACE
 62
7
  6
CONTINUOUS
 10
433.4636907056
 20
325.9987630064
  0
VERTEX
  8
SURFACE
 62
7
  6
CONTINUOUS
 10
433.3110593417
 20
325.6961205544
  0
VERTEX
  8
SURFACE
 62
7
  6
CONTINUOUS
 10
433.2419464489
 20
325.5327522932
  0
VERTEX
  8
SURFACE
 62
7
  6
CONTINUOUS
 10
433.1214552082
 20
325.1827587998
  0
VERTEX
  8
SURFACE
 62
7
  6
CONTINUOUS
 10
433.028366654
 20
324.8021004838
  0
VERTEX
  8
SURFACE
 62
7
  6
CONTINUOUS
 10
432.966304417
 20
324.3840312201
  0
VERTEX
  8
SURFACE
 62
7
  6
CONTINUOUS
 10
432.9414161977
 20
323.886819024
  0
SEQEND
  0
POLYLINE
  8
DEFAULT_2
 62
8
  6
HIDDEN
 66
1
 70
0
  0
VERTEX
  8
DEFAULT_2
 62
8
  6
HIDDEN
 10
434.7828873188
 20
327.3714179263
  0
VERTEX
  8
DEFAULT_2
 62
8
  6
HIDDEN
 10
434.6370896764
 20
327.2708674904
  0
VERTEX
  8
DEFAULT_2
 62
8
  6
HIDDEN
 10
434.4833331538
 20
327.1573533796
  0
VERTEX
  8
DEFAULT_2
 62
8
  6
HIDDEN
 10
434.346697518
 20
327.0495324937
  0
SEQEND
  0
POLYLINE
  8
SURFACE
 62
7
  6
CONTINUOUS
 66
1
 70
0
  0
VERTEX
  8
SURFACE
 62
7
  6
CONTINUOUS
 10
434.7828873188
 20
327.3714179263
  0
VERTEX
  8
SURFACE
 62
7
  6
CONTINUOUS
 10
434.6370896764
 20
327.2708674904
  0
VERTEX
  8
SURFACE
 62
7
  6
CONTINUOUS
 10
434.4833331538
 20
327.1573533796
  0
VERTEX
  8
SURFACE
 62
7
  6
CONTINUOUS
 10
434.346697518
 20
327.0495324937
  0
SEQEND
  0
POLYLINE
  8
DEFAULT_2
 62
8
  6
HIDDEN
 66
1
 70
0
  0
VERTEX
  8
DEFAULT_2
 62
8
  6
HIDDEN
 10
432.94143713
 20
320.7668739482
  0
VERTEX
  8
DEFAULT_2
 62
8
  6
HIDDEN
 10
432.9829932226
 20
320.1433582014
  0
VERTEX
  8
DEFAULT_2
 62
8
  6
HIDDEN
 10
433.095166557
 20
319.5821380361
  0
VERTEX
  8
DEFAULT_2
 62
8
  6
HIDDEN
 10
433.2638100963
 20
319.0871319277
  0
VERTEX
  8
DEFAULT_2
 62
8
  6
HIDDEN
 10
433.3639377474
 20
318.866320583
  0
VERTEX
  8
DEFAULT_2
 62
8
  6
HIDDEN
 10
433.5848078544
 20
318.4780454669
  0
VERTEX
  8
DEFAULT_2
 62
8
  6
HIDDEN
 10
433.824153747
 20
318.1518687555
  0
VERTEX
  8
DEFAULT_2
 62
8
  6
HIDDEN
 10
434.0720299865
 20
317.8800882275
  0
VERTEX
  8
DEFAULT_2
 62
8
  6
HIDDEN
 10
434.320664001
 20
317.6553711292
  0
VERTEX
  8
DEFAULT_2
 62
8
  6
HIDDEN
 10
434.4414162175
 20
317.5599935827
  0
SEQEND
  0
POLYLINE
  8
SURFACE
 62
7
  6
CONTINUOUS
 66
1
 70
0
  0
VERTEX
  8
SURFACE
 62
7
  6
CONTINUOUS
 10
432.94143713
 20
320.7668739482
  0
VERTEX
  8
SURFACE
 62
7
  6
CONTINUOUS
 10
432.9829932226
 20
320.1433582014
  0
VERTEX
  8
SURFACE
 62
7
  6
CONTINUOUS
 10
433.095166557
 20
319.5821380361
  0
VERTEX
  8
SURFACE
 62
7
  6
CONTINUOUS
 10
433.2638100963
 20
319.0871319277
  0
VERTEX
  8
SURFACE
 62
7
  6
CONTINUOUS
 10
433.3639377474
 20
318.866320583
  0
VERTEX
  8
SURFACE
 62
7
  6
CONTINUOUS
 10
433.5848078544
 20
318.4780454669
  0
VERTEX
  8
SURFACE
 62
7
  6
CONTINUOUS
 10
433.824153747
 20
318.1518687555
  0
VERTEX
  8
SURFACE
 62
7
  6
CONTINUOUS
 10
434.0720299865
 20
317.8800882275
  0
VERTEX
  8
SURFACE
 62
7
  6
CONTINUOUS
 10
434.320664001
 20
317.6553711292
  0
VERTEX
  8
SURFACE
 62
7
  6
CONTINUOUS
 10
434.4414162175
 20
317.5599935827
  0
SEQEND
  0
LINE
  8
DEFAULT_2
 62
8
  6
HIDDEN
 10
432.9414162175
 20
323.8867498896
 11
432.94143713
 21
320.7668739482
  0
LINE
  8
SURFACE
 62
7
  6
CONTINUOUS
 10
432.94143713
 20
320.7668739482
 11
432.9414162175
 21
323.8867498896
  0
LINE
  8
DEFAULT_2
 62
8
  6
HIDDEN
 10
433.8100379373
 20
324.3657557818
 11
433.8100379373
 21
320.3657557818
  0
LINE
  8
SURFACE
 62
8
  6
HIDDEN
 10
433.8100379373
 20
324.3657557818
 11
433.8100379373
 21
320.3657557818
  0
LINE
  8
SURFACE
 62
8
  6
HIDDEN
 10
434.2100379373
 20
321.7657557818
 11
434.2100379373
 21
322.9657557818
  0
LINE
  8
DEFAULT_2
 62
8
  6
HIDDEN
 10
434.2100379373
 20
321.7657557818
 11
434.2100379373
 21
322.9657557818
  0
POLYLINE
  8
SURFACE
 62
8
  6
HIDDEN
 66
1
 70
0
  0
VERTEX
  8
SURFACE
 62
8
  6
HIDDEN
 10
434.2100379373
 20
322.9657557818
  0
VERTEX
  8
SURFACE
 62
8
  6
HIDDEN
 10
434.2496468687
 20
323.5986799772
  0
VERTEX
  8
SURFACE
 62
8
  6
HIDDEN
 10
434.3682819399
 20
324.2242691461
  0
VERTEX
  8
SURFACE
 62
8
  6
HIDDEN
 10
434.5653249661
 20
324.8350421622
  0
VERTEX
  8
SURFACE
 62
8
  6
HIDDEN
 10
434.8396100534
 20
325.4232607199
  0
VERTEX
  8
SURFACE
 62
8
  6
HIDDEN
 10
435.1892352951
 20
325.9808668876
  0
VERTEX
  8
SURFACE
 62
8
  6
HIDDEN
 10
435.6113272051
 20
326.4994965908
  0
VERTEX
  8
SURFACE
 62
8
  6
HIDDEN
 10
436.1017901391
 20
326.9705895338
  0
VERTEX
  8
SURFACE
 62
8
  6
HIDDEN
 10
436.655069389
 20
327.385594898
  0
VERTEX
  8
SURFACE
 62
8
  6
HIDDEN
 10
437.2639779014
 20
327.7362809183
  0
VERTEX
  8
SURFACE
 62
8
  6
HIDDEN
 10
437.919638682
 20
328.0151281829
  0
VERTEX
  8
SURFACE
 62
8
  6
HIDDEN
 10
438.6115597143
 20
328.2157557818
  0
SEQEND
  0
POLYLINE
  8
DEFAULT_2
 62
8
  6
HIDDEN
 66
1
 70
0
  0
VERTEX
  8
DEFAULT_2
 62
8
  6
HIDDEN
 10
434.2100379373
 20
322.9657557818
  0
VERTEX
  8
DEFAULT_2
 62
8
  6
HIDDEN
 10
434.2496468687
 20
323.5986799772
  0
VERTEX
  8
DEFAULT_2
 62
8
  6
HIDDEN
 10
434.3682819399
 20
324.2242691461
  0
VERTEX
  8
DEFAULT_2
 62
8
  6
HIDDEN
 10
434.5653249661
 20
324.8350421622
  0
VERTEX
  8
DEFAULT_2
 62
8
  6
HIDDEN
 10
434.8396100534
 20
325.4232607199
  0
VERTEX
  8
DEFAULT_2
 62
8
  6
HIDDEN
 10
435.1892352951
 20
325.9808668876
  0
VERTEX
  8
DEFAULT_2
 62
8
  6
HIDDEN
 10
435.6113272051
 20
326.4994965908
  0
VERTEX
  8
DEFAULT_2
 62
8
  6
HIDDEN
 10
436.1017901391
 20
326.9705895338
  0
VERTEX
  8
DEFAULT_2
 62
8
  6
HIDDEN
 10
436.655069389
 20
327.385594898
  0
VERTEX
  8
DEFAULT_2
 62
8
  6
HIDDEN
 10
437.2639779014
 20
327.7362809183
  0
VERTEX
  8
DEFAULT_2
 62
8
  6
HIDDEN
 10
437.919638682
 20
328.0151281829
  0
VERTEX
  8
DEFAULT_2
 62
8
  6
HIDDEN
 10
438.6115597143
 20
328.2157557818
  0
SEQEND
  0
POLYLINE
  8
SURFACE
 62
8
  6
HIDDEN
 66
1
 70
0
  0
VERTEX
  8
SURFACE
 62
8
  6
HIDDEN
 10
433.0318772864
 20
321.7657557818
  0
VERTEX
  8
SURFACE
 62
8
  6
HIDDEN
 10
432.9812183427
 20
321.429753406
  0
VERTEX
  8
SURFACE
 62
8
  6
HIDDEN
 10
432.9414126376
 20
320.7814853746
  0
SEQEND
  0
POLYLINE
  8
DEFAULT_2
 62
8
  6
HIDDEN
 66
1
 70
0
  0
VERTEX
  8
DEFAULT_2
 62
8
  6
HIDDEN
 10
433.0318772864
 20
321.7657557818
  0
VERTEX
  8
DEFAULT_2
 62
8
  6
HIDDEN
 10
432.9812183427
 20
321.429753406
  0
VERTEX
  8
DEFAULT_2
 62
8
  6
HIDDEN
 10
432.9414126376
 20
320.7814853746
  0
SEQEND
  0
POLYLINE
  8
DEFAULT_2
 62
8
  6
HIDDEN
 66
1
 70
0
  0
VERTEX
  8
DEFAULT_2
 62
8
  6
HIDDEN
 10
451.3639197712
 20
315.8657557818
  0
VERTEX
  8
DEFAULT_2
 62
8
  6
HIDDEN
 10
451.5020172268
 20
315.9730486031
  0
VERTEX
  8
DEFAULT_2
 62
8
  6
HIDDEN
 10
451.7553910063
 20
316.1510900621
  0
VERTEX
  8
DEFAULT_2
 62
8
  6
HIDDEN
 10
451.869084451
 20
316.2171683897
  0
VERTEX
  8
DEFAULT_2
 62
8
  6
HIDDEN
 10
452.0707667741
 20
316.306939277
  0
VERTEX
  8
DEFAULT_2
 62
8
  6
HIDDEN
 10
452.1600379373
 20
316.3342908798
  0
SEQEND
  0
POLYLINE
  8
SURFACE
 62
7
  6
CONTINUOUS
 66
1
 70
0
  0
VERTEX
  8
SURFACE
 62
7
  6
CONTINUOUS
 10
451.3639197712
 20
315.8657557818
  0
VERTEX
  8
SURFACE
 62
7
  6
CONTINUOUS
 10
451.5020172268
 20
315.9730486031
  0
VERTEX
  8
SURFACE
 62
7
  6
CONTINUOUS
 10
451.7553910063
 20
316.1510900621
  0
VERTEX
  8
SURFACE
 62
7
  6
CONTINUOUS
 10
451.869084451
 20
316.2171683897
  0
VERTEX
  8
SURFACE
 62
7
  6
CONTINUOUS
 10
452.0707667741
 20
316.306939277
  0
VERTEX
  8
SURFACE
 62
7
  6
CONTINUOUS
 10
452.1600379373
 20
316.3342908798
  0
SEQEND
  0
POLYLINE
  8
DEFAULT_2
 62
8
  6
HIDDEN
 66
1
 70
0
  0
VERTEX
  8
DEFAULT_2
 62
8
  6
HIDDEN
 10
463.5800379373
 20
316.2502421737
  0
VERTEX
  8
DEFAULT_2
 62
8
  6
HIDDEN
 10
463.385581167
 20
316.1527307907
  0
VERTEX
  8
DEFAULT_2
 62
8
  6
HIDDEN
 10
463.2738515268
 20
316.0909625028
  0
VERTEX
  8
DEFAULT_2
 62
8
  6
HIDDEN
 10
463.0221460823
 20
315.9542199887
  0
SEQEND
  0
POLYLINE
  8
SURFACE
 62
7
  6
CONTINUOUS
 66
1
 70
0
  0
VERTEX
  8
SURFACE
 62
7
  6
CONTINUOUS
 10
463.5800379373
 20
316.2502421737
  0
VERTEX
  8
SURFACE
 62
7
  6
CONTINUOUS
 10
463.385581167
 20
316.1527307907
  0
VERTEX
  8
SURFACE
 62
7
  6
CONTINUOUS
 10
463.2738515268
 20
316.0909625028
  0
VERTEX
  8
SURFACE
 62
7
  6
CONTINUOUS
 10
463.0221460823
 20
315.9542199887
  0
SEQEND
  0
POLYLINE
  8
SURFACE
 62
8
  6
HIDDEN
 66
1
 70
0
  0
VERTEX
  8
SURFACE
 62
8
  6
HIDDEN
 10
434.2100379373
 20
321.7657557818
  0
VERTEX
  8
SURFACE
 62
8
  6
HIDDEN
 10
434.2488195153
 20
321.1394541274
  0
VERTEX
  8
SURFACE
 62
8
  6
HIDDEN
 10
434.3649852574
 20
320.5202395737
  0
VERTEX
  8
SURFACE
 62
8
  6
HIDDEN
 10
434.5579518295
 20
319.9153552153
  0
VERTEX
  8
SURFACE
 62
8
  6
HIDDEN
 10
434.826602156
 20
319.332315629
  0
VERTEX
  8
SURFACE
 62
8
  6
HIDDEN
 10
435.1691237389
 20
318.7789161305
  0
VERTEX
  8
SURFACE
 62
8
  6
HIDDEN
 10
435.5827829154
 20
318.2632484743
  0
VERTEX
  8
SURFACE
 62
8
  6
HIDDEN
 10
436.0636843261
 20
317.7936032309
  0
VERTEX
  8
SURFACE
 62
8
  6
HIDDEN
 10
436.6065469846
 20
317.378275658
  0
VERTEX
  8
SURFACE
 62
8
  6
HIDDEN
 10
437.2045370878
 20
317.0252777393
  0
VERTEX
  8
SURFACE
 62
8
  6
HIDDEN
 10
437.8491979435
 20
316.7419743925
  0
VERTEX
  8
SURFACE
 62
8
  6
HIDDEN
 10
438.5305103489
 20
316.534677978
  0
VERTEX
  8
SURFACE
 62
8
  6
HIDDEN
 10
439.2371014484
 20
316.4082487745
  0
VERTEX
  8
SURFACE
 62
8
  6
HIDDEN
 10
439.9565979087
 20
316.3657557818
  0
SEQEND
  0
POLYLINE
  8
DEFAULT_2
 62
8
  6
HIDDEN
 66
1
 70
0
  0
VERTEX
  8
DEFAULT_2
 62
8
  6
HIDDEN
 10
434.2100379373
 20
321.7657557818
  0
VERTEX
  8
DEFAULT_2
 62
8
  6
HIDDEN
 10
434.2488195153
 20
321.1394541274
  0
VERTEX
  8
DEFAULT_2
 62
8
  6
HIDDEN
 10
434.3649852574
 20
320.5202395737
  0
VERTEX
  8
DEFAULT_2
 62
8
  6
HIDDEN
 10
434.5579518295
 20
319.9153552153
  0
VERTEX
  8
DEFAULT_2
 62
8
  6
HIDDEN
 10
434.826602156
 20
319.332315629
  0
VERTEX
  8
DEFAULT_2
 62
8
  6
HIDDEN
 10
435.1691237389
 20
318.7789161305
  0
VERTEX
  8
DEFAULT_2
 62
8
  6
HIDDEN
 10
435.5827829154
 20
318.2632484743
  0
VERTEX
  8
DEFAULT_2
 62
8
  6
HIDDEN
 10
436.0636843261
 20
317.7936032309
  0
VERTEX
  8
DEFAULT_2
 62
8
  6
HIDDEN
 10
436.6065469846
 20
317.378275658
  0
VERTEX
  8
DEFAULT_2
 62
8
  6
HIDDEN
 10
437.2045370878
 20
317.0252777393
  0
VERTEX
  8
DEFAULT_2
 62
8
  6
HIDDEN
 10
437.8491979435
 20
316.7419743925
  0
VERTEX
  8
DEFAULT_2
 62
8
  6
HIDDEN
 10
438.5305103489
 20
316.534677978
  0
VERTEX
  8
DEFAULT_2
 62
8
  6
HIDDEN
 10
439.2371014484
 20
316.4082487745
  0
VERTEX
  8
DEFAULT_2
 62
8
  6
HIDDEN
 10
439.9565979087
 20
316.3657557818
  0
SEQEND
  0
POLYLINE
  8
DEFAULT_2
 62
8
  6
HIDDEN
 66
1
 70
0
  0
VERTEX
  8
DEFAULT_2
 62
8
  6
HIDDEN
 10
444.5602052608
 20
328.2157557818
  0
VERTEX
  8
DEFAULT_2
 62
8
  6
HIDDEN
 10
444.5611595733
 20
328.2334342291
  0
VERTEX
  8
DEFAULT_2
 62
8
  6
HIDDEN
 10
444.5690289578
 20
328.2687307253
  0
VERTEX
  8
DEFAULT_2
 62
8
  6
HIDDEN
 10
444.5859040024
 20
328.3032371274
  0
VERTEX
  8
DEFAULT_2
 62
8
  6
HIDDEN
 10
444.5982341391
 20
328.3194966452
  0
VERTEX
  8
DEFAULT_2
 62
8
  6
HIDDEN
 10
444.631237843
 20
328.3472433516
  0
VERTEX
  8
DEFAULT_2
 62
8
  6
HIDDEN
 10
444.673849856
 20
328.3635709976
  0
VERTEX
  8
DEFAULT_2
 62
8
  6
HIDDEN
 10
444.6971353426
 20
328.3657557818
  0
SEQEND
  0
POLYLINE
  8
SURFACE
 62
8
  6
HIDDEN
 66
1
 70
0
  0
VERTEX
  8
SURFACE
 62
8
  6
HIDDEN
 10
444.5602052608
 20
328.2157557818
  0
VERTEX
  8
SURFACE
 62
8
  6
HIDDEN
 10
444.5611595733
 20
328.2334342291
  0
VERTEX
  8
SURFACE
 62
8
  6
HIDDEN
 10
444.5690289578
 20
328.2687307253
  0
VERTEX
  8
SURFACE
 62
8
  6
HIDDEN
 10
444.5859040024
 20
328.3032371274
  0
VERTEX
  8
SURFACE
 62
8
  6
HIDDEN
 10
444.5982341391
 20
328.3194966452
  0
VERTEX
  8
SURFACE
 62
8
  6
HIDDEN
 10
444.631237843
 20
328.3472433516
  0
VERTEX
  8
SURFACE
 62
8
  6
HIDDEN
 10
444.673849856
 20
328.3635709976
  0
VERTEX
  8
SURFACE
 62
8
  6
HIDDEN
 10
444.6971353426
 20
328.3657557818
  0
SEQEND
  0
LINE
  8
SURFACE
 62
8
  6
HIDDEN
 10
453.9226453089
 20
306.9837952335
 11
453.9200253896
 21
306.983045206
  0
LINE
  8
DEFAULT_2
 62
8
  6
HIDDEN
 10
453.9226446381
 20
306.9837950433
 11
453.9200209502
 21
306.9830439283
  0
LINE
  8
DEFAULT_2
 62
8
  6
HIDDEN
 10
444.5602052608
 20
328.2157557818
 11
444.5602052608
 21
328.3657557818
  0
LINE
  8
SURFACE
 62
8
  6
HIDDEN
 10
444.5602052608
 20
328.2157557818
 11
444.5602052608
 21
328.3657557818
  0
LINE
  8
SURFACE
 62
8
  6
HIDDEN
 10
450.1600379373
 20
328.2157557818
 11
450.1600379373
 21
316.5157557818
  0
LINE
  8
DEFAULT_2
 62
8
  6
HIDDEN
 10
450.1600379373
 20
316.5157557818
 11
450.1600379373
 21
328.2157557818
  0
LINE
  8
DEFAULT_2
 62
8
  6
HIDDEN
 10
450.3600379373
 20
328.2157557818
 11
450.3600379373
 21
316.3657557818
  0
LINE
  8
SURFACE
 62
8
  6
HIDDEN
 10
450.3600379373
 20
328.2157557818
 11
450.3600379373
 21
316.3657557818
  0
LINE
  8
DEFAULT_2
 62
8
  6
HIDDEN
 10
450.5100379373
 20
316.07829584
 11
450.5100379373
 21
328.2157557818
  0
LINE
  8
SURFACE
 62
8
  6
HIDDEN
 10
450.5100379373
 20
316.07829584
 11
450.5100379373
 21
328.2157557818
  0
LINE
  8
DEFAULT_2
 62
8
  6
HIDDEN
 10
450.6100379373
 20
316.3657557818
 11
450.6100379373
 21
328.2157557818
  0
LINE
  8
SURFACE
 62
8
  6
HIDDEN
 10
450.6100379373
 20
316.3657557818
 11
450.6100379373
 21
328.2157557818
  0
LINE
  8
DEFAULT_2
 62
8
  6
HIDDEN
 10
451.1600379373
 20
316.3657557818
 11
451.1600379373
 21
328.2157557818
  0
LINE
  8
SURFACE
 62
8
  6
HIDDEN
 10
451.1600379373
 20
316.3657557818
 11
451.1600379373
 21
328.2157557818
  0
LINE
  8
SURFACE
 62
8
  6
HIDDEN
 10
451.3100379373
 20
328.2157557818
 11
451.3100379373
 21
316.3657557818
  0
LINE
  8
DEFAULT_2
 62
8
  6
HIDDEN
 10
451.3100379373
 20
328.2157557818
 11
451.3100379373
 21
316.3657557818
  0
LINE
  8
SURFACE
 62
8
  6
HIDDEN
 10
451.5440274488
 20
328.2157557818
 11
451.5440274488
 21
322.3657557818
  0
LINE
  8
DEFAULT_2
 62
8
  6
HIDDEN
 10
451.5440274488
 20
328.2157557818
 11
451.5440274488
 21
322.3657557818
  0
LINE
  8
0
 62
7
  6
CONTINUOUS
 10
451.7573739305
 20
303.8690607051
 11
451.7576359077
 21
303.866436032
  0
LINE
  8
DEFAULT_2
 62
8
  6
HIDDEN
 10
451.7573739305
 20
303.8690607051
 11
450.5549878576
 21
315.9154156566
  0
LINE
  8
SURFACE
 62
7
  6
CONTINUOUS
 10
451.7576359077
 20
303.866436032
 11
450.5549878576
 21
315.9154156566
  0
LINE
  8
0
 62
7
  6
CONTINUOUS
 10
461.6240821469
 20
303.7869535667
 11
461.6245591308
 21
303.7895782397
  0
LINE
  8
DEFAULT_2
 62
8
  6
HIDDEN
 10
461.6245591308
 20
303.7895782397
 11
463.8390046941
 21
315.9748850916
  0
LINE
  8
SURFACE
 62
7
  6
CONTINUOUS
 10
461.6240821469
 20
303.7869535667
 11
463.8390046941
 21
315.9748850916
  0
LINE
  8
SURFACE
 62
8
  6
HIDDEN
 10
461.8687941723
 20
305.1335170874
 11
461.8689065382
 21
305.1341357657
  0
LINE
  8
DEFAULT_2
 62
8
  6
HIDDEN
 10
467.9100379373
 20
324.3657557818
 11
467.9100379373
 21
320.3657557818
  0
LINE
  8
SURFACE
 62
7
  6
CONTINUOUS
 10
467.9100379373
 20
324.3657557818
 11
467.9100379373
 21
320.3657557818
  0
LINE
  8
DEFAULT_2
 62
8
  6
HIDDEN
 10
452.7526914777
 20
302.9657557818
 11
460.640197109
 21
302.9657557818
  0
LINE
  8
SURFACE
 62
7
  6
CONTINUOUS
 10
452.7526914777
 20
302.9657557818
 11
460.640197109
 21
302.9657557818
  0
POLYLINE
  8
DEFAULT_2
 62
8
  6
HIDDEN
 66
1
 70
0
  0
VERTEX
  8
DEFAULT_2
 62
8
  6
HIDDEN
 10
452.1600379373
 20
316.3342908798
  0
VERTEX
  8
DEFAULT_2
 62
8
  6
HIDDEN
 10
452.0954024991
 20
316.3160343538
  0
VERTEX
  8
DEFAULT_2
 62
8
  6
HIDDEN
 10
451.9761954586
 20
316.2791156299
  0
VERTEX
  8
DEFAULT_2
 62
8
  6
HIDDEN
 10
451.8734592378
 20
316.2519339102
  0
VERTEX
  8
DEFAULT_2
 62
8
  6
HIDDEN
 10
451.7833530412
 20
316.23955613
  0
VERTEX
  8
DEFAULT_2
 62
8
  6
HIDDEN
 10
451.6983757601
 20
316.2427207584
  0
VERTEX
  8
DEFAULT_2
 62
8
  6
HIDDEN
 10
451.6568705499
 20
316.249961507
  0
VERTEX
  8
DEFAULT_2
 62
8
  6
HIDDEN
 10
451.5732337034
 20
316.2743941153
  0
SEQEND
  0
POLYLINE
  8
SURFACE
 62
7
  6
CONTINUOUS
 66
1
 70
0
  0
VERTEX
  8
SURFACE
 62
7
  6
CONTINUOUS
 10
452.1600379373
 20
316.3342908798
  0
VERTEX
  8
SURFACE
 62
7
  6
CONTINUOUS
 10
452.0954024991
 20
316.3160343538
  0
VERTEX
  8
SURFACE
 62
7
  6
CONTINUOUS
 10
451.9761954586
 20
316.2791156299
  0
VERTEX
  8
SURFACE
 62
7
  6
CONTINUOUS
 10
451.8734592378
 20
316.2519339102
  0
VERTEX
  8
SURFACE
 62
7
  6
CONTINUOUS
 10
451.7833530412
 20
316.23955613
  0
VERTEX
  8
SURFACE
 62
7
  6
CONTINUOUS
 10
451.6983757601
 20
316.2427207584
  0
VERTEX
  8
SURFACE
 62
7
  6
CONTINUOUS
 10
451.6568705499
 20
316.249961507
  0
VERTEX
  8
SURFACE
 62
7
  6
CONTINUOUS
 10
451.5732337034
 20
316.2743941153
  0
SEQEND
  0
POLYLINE
  8
SURFACE
 62
7
  6
CONTINUOUS
 66
1
 70
0
  0
VERTEX
  8
SURFACE
 62
7
  6
CONTINUOUS
 10
463.9180440552
 20
316.3512212179
  0
VERTEX
  8
SURFACE
 62
7
  6
CONTINUOUS
 10
463.7433754661
 20
316.3105982845
  0
VERTEX
  8
SURFACE
 62
7
  6
CONTINUOUS
 10
463.5800379373
 20
316.2502421737
  0
SEQEND
  0
POLYLINE
  8
DEFAULT_2
 62
8
  6
HIDDEN
 66
1
 70
0
  0
VERTEX
  8
DEFAULT_2
 62
8
  6
HIDDEN
 10
464.0909099783
 20
316.3698472143
  0
VERTEX
  8
DEFAULT_2
 62
8
  6
HIDDEN
 10
463.9180440552
 20
316.3512212179
  0
VERTEX
  8
DEFAULT_2
 62
8
  6
HIDDEN
 10
463.7433754661
 20
316.3105982845
  0
VERTEX
  8
DEFAULT_2
 62
8
  6
HIDDEN
 10
463.5800379373
 20
316.2502421737
  0
SEQEND
  0
LINE
  8
SURFACE
 62
7
  6
CONTINUOUS
 10
464.0909099783
 20
316.3698472143
 11
463.9180440552
 21
316.3512212179
  0
POLYLINE
  8
DEFAULT_2
 62
8
  6
HIDDEN
 66
1
 70
0
  0
VERTEX
  8
DEFAULT_2
 62
8
  6
HIDDEN
 10
436.9792421615
 20
316.4595699347
  0
VERTEX
  8
DEFAULT_2
 62
8
  6
HIDDEN
 10
436.2890687252
 20
316.6242537575
  0
VERTEX
  8
DEFAULT_2
 62
8
  6
HIDDEN
 10
435.9546887663
 20
316.7359508989
  0
VERTEX
  8
DEFAULT_2
 62
8
  6
HIDDEN
 10
435.3141057764
 20
317.0148638823
  0
VERTEX
  8
DEFAULT_2
 62
8
  6
HIDDEN
 10
434.7191370736
 20
317.3625592903
  0
VERTEX
  8
DEFAULT_2
 62
8
  6
HIDDEN
 10
434.4414162175
 20
317.5599935827
  0
SEQEND
  0
POLYLINE
  8
DEFAULT_2
 62
8
  6
HIDDEN
 66
1
 70
0
  0
VERTEX
  8
DEFAULT_2
 62
8
  6
HIDDEN
 10
451.5732337034
 20
316.2743941153
  0
VERTEX
  8
DEFAULT_2
 62
8
  6
HIDDEN
 10
451.4018357689
 20
316.3422826737
  0
VERTEX
  8
DEFAULT_2
 62
8
  6
HIDDEN
 10
451.3265454463
 20
316.3630468109
  0
VERTEX
  8
DEFAULT_2
 62
8
  6
HIDDEN
 10
451.2950583629
 20
316.3657557818
  0
SEQEND
  0
POLYLINE
  8
SURFACE
 62
7
  6
CONTINUOUS
 66
1
 70
0
  0
VERTEX
  8
SURFACE
 62
7
  6
CONTINUOUS
 10
451.5732337034
 20
316.2743941153
  0
VERTEX
  8
SURFACE
 62
7
  6
CONTINUOUS
 10
451.4018357689
 20
316.3422826737
  0
VERTEX
  8
SURFACE
 62
7
  6
CONTINUOUS
 10
451.3265454463
 20
316.3630468109
  0
VERTEX
  8
SURFACE
 62
7
  6
CONTINUOUS
 10
451.2950583629
 20
316.3657557818
  0
SEQEND
  0
LINE
  8
SURFACE
 62
8
  6
HIDDEN
 10
463.5800379373
 20
320.265851022
 11
463.5600379373
 21
320.2657557818
  0
LINE
  8
DEFAULT_2
 62
8
  6
HIDDEN
 10
463.9100379373
 20
316.3657557818
 11
437.8100379373
 21
316.3657557818
  0
LINE
  8
SURFACE
 62
7
  6
CONTINUOUS
 10
437.8100379373
 20
316.3657557818
 11
463.9100379373
 21
316.3657557818
  0
LINE
  8
SURFACE
 62
7
  6
CONTINUOUS
 10
463.5600379373
 20
320.2657557818
 11
455.5100379373
 21
320.2657557818
  0
LINE
  8
SURFACE
 62
8
  6
HIDDEN
 10
451.160437458
 20
320.2657557818
 11
455.5100379373
 21
320.2657557818
  0
LINE
  8
DEFAULT_2
 62
8
  6
HIDDEN
 10
451.160437458
 20
320.2657557818
 11
463.5600379373
 21
320.2657557818
  0
POLYLINE
  8
DEFAULT_2
 62
8
  6
HIDDEN
 66
1
 70
0
  0
VERTEX
  8
DEFAULT_2
 62
8
  6
HIDDEN
 10
438.0457541788
 20
316.3657557818
  0
VERTEX
  8
DEFAULT_2
 62
8
  6
HIDDEN
 10
437.6881424481
 20
316.3762220647
  0
VERTEX
  8
DEFAULT_2
 62
8
  6
HIDDEN
 10
436.9792421615
 20
316.4595699347
  0
SEQEND
  0
POLYLINE
  8
SURFACE
 62
7
  6
CONTINUOUS
 66
1
 70
0
  0
VERTEX
  8
SURFACE
 62
7
  6
CONTINUOUS
 10
438.0457541788
 20
316.3657557818
  0
VERTEX
  8
SURFACE
 62
7
  6
CONTINUOUS
 10
437.6881424481
 20
316.3762220647
  0
VERTEX
  8
SURFACE
 62
7
  6
CONTINUOUS
 10
436.9792421615
 20
316.4595699347
  0
VERTEX
  8
SURFACE
 62
7
  6
CONTINUOUS
 10
436.2890687252
 20
316.6242537575
  0
VERTEX
  8
SURFACE
 62
7
  6
CONTINUOUS
 10
435.9546887663
 20
316.7359508989
  0
VERTEX
  8
SURFACE
 62
7
  6
CONTINUOUS
 10
435.3141057764
 20
317.0148638823
  0
VERTEX
  8
SURFACE
 62
7
  6
CONTINUOUS
 10
434.7191370736
 20
317.3625592903
  0
VERTEX
  8
SURFACE
 62
7
  6
CONTINUOUS
 10
434.4414162175
 20
317.5599935827
  0
SEQEND
  0
POLYLINE
  8
SURFACE
 62
8
  6
HIDDEN
 66
1
 70
0
  0
VERTEX
  8
SURFACE
 62
8
  6
HIDDEN
 10
439.9020023735
 20
328.3657557818
  0
VERTEX
  8
SURFACE
 62
8
  6
HIDDEN
 10
439.5224924758
 20
328.3525316299
  0
VERTEX
  8
SURFACE
 62
8
  6
HIDDEN
 10
439.2188411237
 20
328.3230468533
  0
VERTEX
  8
SURFACE
 62
8
  6
HIDDEN
 10
438.9737360634
 20
328.2872599662
  0
VERTEX
  8
SURFACE
 62
8
  6
HIDDEN
 10
438.7745669574
 20
328.2505789238
  0
VERTEX
  8
SURFACE
 62
8
  6
HIDDEN
 10
438.6115597143
 20
328.2157557818
  0
SEQEND
  0
POLYLINE
  8
DEFAULT_2
 62
8
  6
HIDDEN
 66
1
 70
0
  0
VERTEX
  8
DEFAULT_2
 62
8
  6
HIDDEN
 10
439.9020023735
 20
328.3657557818
  0
VERTEX
  8
DEFAULT_2
 62
8
  6
HIDDEN
 10
439.5224924758
 20
328.3525316299
  0
VERTEX
  8
DEFAULT_2
 62
8
  6
HIDDEN
 10
439.2188411237
 20
328.3230468533
  0
VERTEX
  8
DEFAULT_2
 62
8
  6
HIDDEN
 10
438.9737360634
 20
328.2872599662
  0
VERTEX
  8
DEFAULT_2
 62
8
  6
HIDDEN
 10
438.7745669574
 20
328.2505789238
  0
VERTEX
  8
DEFAULT_2
 62
8
  6
HIDDEN
 10
438.6115597143
 20
328.2157557818
  0
SEQEND
  0
POLYLINE
  8
DEFAULT_2
 62
8
  6
HIDDEN
 66
1
 70
0
  0
VERTEX
  8
DEFAULT_2
 62
8
  6
HIDDEN
 10
439.6170909152
 20
328.3657557818
  0
VERTEX
  8
DEFAULT_2
 62
8
  6
HIDDEN
 10
439.453092632
 20
328.3636355663
  0
VERTEX
  8
DEFAULT_2
 62
8
  6
HIDDEN
 10
439.2505148671
 20
328.3556349605
  0
VERTEX
  8
DEFAULT_2
 62
8
  6
HIDDEN
 10
439.0311148566
 20
328.3410524685
  0
VERTEX
  8
DEFAULT_2
 62
8
  6
HIDDEN
 10
438.7995709781
 20
328.3197809445
  0
VERTEX
  8
DEFAULT_2
 62
8
  6
HIDDEN
 10
438.55880769
 20
328.2919806262
  0
VERTEX
  8
DEFAULT_2
 62
8
  6
HIDDEN
 10
438.3072717961
 20
328.2574097154
  0
VERTEX
  8
DEFAULT_2
 62
8
  6
HIDDEN
 10
438.0411851211
 20
328.2153127619
  0
VERTEX
  8
DEFAULT_2
 62
8
  6
HIDDEN
 10
437.7564197677
 20
328.1645734553
  0
VERTEX
  8
DEFAULT_2
 62
8
  6
HIDDEN
 10
437.4543011524
 20
328.1049080641
  0
VERTEX
  8
DEFAULT_2
 62
8
  6
HIDDEN
 10
437.1372312085
 20
328.0364006429
  0
VERTEX
  8
DEFAULT_2
 62
8
  6
HIDDEN
 10
436.8057655318
 20
327.9588723542
  0
VERTEX
  8
DEFAULT_2
 62
8
  6
HIDDEN
 10
436.455140173
 20
327.8708033485
  0
VERTEX
  8
DEFAULT_2
 62
8
  6
HIDDEN
 10
436.0803637681
 20
327.7702926914
  0
VERTEX
  8
DEFAULT_2
 62
8
  6
HIDDEN
 10
435.6794659531
 20
327.6559965805
  0
VERTEX
  8
DEFAULT_2
 62
8
  6
HIDDEN
 10
435.4466070707
 20
327.5856965084
  0
SEQEND
  0
POLYLINE
  8
SURFACE
 62
7
  6
CONTINUOUS
 66
1
 70
0
  0
VERTEX
  8
SURFACE
 62
7
  6
CONTINUOUS
 10
439.6170909152
 20
328.3657557818
  0
VERTEX
  8
SURFACE
 62
7
  6
CONTINUOUS
 10
439.5440512283
 20
328.3653258415
  0
VERTEX
  8
SURFACE
 62
7
  6
CONTINUOUS
 10
439.3463782185
 20
328.3601181247
  0
VERTEX
  8
SURFACE
 62
7
  6
CONTINUOUS
 10
439.1284081447
 20
328.3482299245
  0
VERTEX
  8
SURFACE
 62
7
  6
CONTINUOUS
 10
438.8956514857
 20
328.3292946784
  0
VERTEX
  8
SURFACE
 62
7
  6
CONTINUOUS
 10
438.652355286
 20
328.3034284422
  0
VERTEX
  8
SURFACE
 62
7
  6
CONTINUOUS
 10
438.398770864
 20
328.2706008838
  0
VERTEX
  8
SURFACE
 62
7
  6
CONTINUOUS
 10
438.1315639462
 20
328.2302131606
  0
VERTEX
  8
SURFACE
 62
7
  6
CONTINUOUS
 10
437.845650576
 20
328.1810710721
  0
VERTEX
  8
SURFACE
 62
7
  6
CONTINUOUS
 10
437.6953864198
 20
328.1529857869
  0
VERTEX
  8
SURFACE
 62
7
  6
CONTINUOUS
 10
437.3821897183
 20
328.0898381784
  0
VERTEX
  8
SURFACE
 62
7
  6
CONTINUOUS
 10
437.0529901406
 20
328.0172502076
  0
VERTEX
  8
SURFACE
 62
7
  6
CONTINUOUS
 10
436.7079530174
 20
327.9349098792
  0
VERTEX
  8
SURFACE
 62
7
  6
CONTINUOUS
 10
436.3440413436
 20
327.8416734499
  0
VERTEX
  8
SURFACE
 62
7
  6
CONTINUOUS
 10
435.9416957923
 20
327.7315268003
  0
VERTEX
  8
SURFACE
 62
7
  6
CONTINUOUS
 10
435.4994860813
 20
327.602528426
  0
VERTEX
  8
SURFACE
 62
7
  6
CONTINUOUS
 10
435.0403892574
 20
327.460405864
  0
SEQEND
  0
LINE
  8
DEFAULT_2
 62
8
  6
HIDDEN
 10
463.5600379373
 20
324.4657557818
 11
455.5100379373
 21
324.4657557818
  0
LINE
  8
SURFACE
 62
7
  6
CONTINUOUS
 10
455.5100379373
 20
324.4657557818
 11
463.5600379373
 21
324.4657557818
  0
LINE
  8
DEFAULT_2
 62
8
  6
HIDDEN
 10
463.9100379373
 20
328.3657557818
 11
437.8100379373
 21
328.3657557818
  0
LINE
  8
SURFACE
 62
7
  6
CONTINUOUS
 10
437.8100379373
 20
328.3657557818
 11
463.9100379373
 21
328.3657557818
  0
ARC
  8
SURFACE
 62
7
  6
CONTINUOUS
 10
123.0923705328
 20
305.9657557818
 40
3.0
 50
270.0
 51
272.9356734464
  0
ARC
  8
SURFACE
 62
7
  6
CONTINUOUS
 10
129.9692431021
 20
306.3657557818
 40
1.0
 50
0.0
 51
90.0
  0
ARC
  8
SURFACE
 62
7
  6
CONTINUOUS
 10
129.9692431021
 20
304.3157877915
 40
1.0
 50
272.9356734464
 51
360.0
  0
ARC
  8
SURFACE
 62
7
  6
CONTINUOUS
 10
119.5192431021
 20
303.9657557818
 40
1.0
 50
180.0
 51
270.0
  0
ARC
  8
SURFACE
 62
7
  6
CONTINUOUS
 10
123.6692431021
 20
315.8657557818
 40
0.5
 50
90.0
 51
180.0
  0
ARC
  8
SURFACE
 62
7
  6
CONTINUOUS
 10
123.3692431021
 20
307.5657557818
 40
0.2
 50
180.0
 51
270.0
  0
ARC
  8
SURFACE
 62
7
  6
CONTINUOUS
 10
153.3092431021
 20
317.1157557818
 40
0.75
 50
270.0
 51
360.0
  0
ARC
  8
SURFACE
 62
7
  6
CONTINUOUS
 10
166.4092431021
 20
317.1157557818
 40
0.75
 50
270.0
 51
360.0
  0
ARC
  8
SURFACE
 62
7
  6
CONTINUOUS
 10
161.9092431021
 20
317.1157557818
 40
0.75
 50
180.0
 51
270.0
  0
ARC
  8
SURFACE
 62
7
  6
CONTINUOUS
 10
153.3092431021
 20
327.6157557818
 40
0.75
 50
0.0
 51
90.0
  0
ARC
  8
SURFACE
 62
7
  6
CONTINUOUS
 10
148.8092431021
 20
327.6157557818
 40
0.75
 50
90.0
 51
180.0
  0
ARC
  8
SURFACE
 62
7
  6
CONTINUOUS
 10
139.5592431021
 20
327.6157557818
 40
0.75
 50
0.0
 51
90.0
  0
ARC
  8
SURFACE
 62
7
  6
CONTINUOUS
 10
120.5592431021
 20
327.6157557818
 40
0.75
 50
90.0
 51
180.0
  0
ARC
  8
SURFACE
 62
7
  6
CONTINUOUS
 10
125.0592431021
 20
327.6157557818
 40
0.75
 50
0.0
 51
90.0
  0
ARC
  8
SURFACE
 62
7
  6
CONTINUOUS
 10
135.0592431021
 20
327.6157557818
 40
0.75
 50
90.0
 51
180.0
  0
ARC
  8
SURFACE
 62
7
  6
CONTINUOUS
 10
109.4342431021
 20
327.6157557818
 40
0.75
 50
0.0
 51
90.0
  0
ARC
  8
SURFACE
 62
7
  6
CONTINUOUS
 10
104.9342431021
 20
327.6157557818
 40
0.75
 50
90.0
 51
180.0
  0
ARC
  8
SURFACE
 62
7
  6
CONTINUOUS
 10
166.4092431021
 20
327.6157557818
 40
0.75
 50
0.0
 51
90.0
  0
ARC
  8
SURFACE
 62
7
  6
CONTINUOUS
 10
161.9092431021
 20
327.6157557818
 40
0.75
 50
90.0
 51
180.0
  0
ARC
  8
SURFACE
 62
7
  6
CONTINUOUS
 10
101.1264553037
 20
328.2157557818
 40
0.15
 50
90.0
 51
103.0918930644
  0
ARC
  8
SURFACE
 62
7
  6
CONTINUOUS
 10
96.9592431021
 20
327.2466366651
 40
0.15
 50
103.0918930644
 51
180.0
  0
ARC
  8
SURFACE
 62
7
  6
CONTINUOUS
 10
191.8092431021
 20
317.1157557818
 40
0.75
 50
270.0
 51
360.0
  0
ARC
  8
SURFACE
 62
7
  6
CONTINUOUS
 10
187.3092431021
 20
317.1157557818
 40
0.75
 50
180.0
 51
270.0
  0
ARC
  8
SURFACE
 62
7
  6
CONTINUOUS
 10
179.1092431021
 20
317.1157557818
 40
0.75
 50
270.0
 51
360.0
  0
ARC
  8
SURFACE
 62
7
  6
CONTINUOUS
 10
174.6092431021
 20
317.1157557818
 40
0.75
 50
180.0
 51
270.0
  0
ARC
  8
SURFACE
 62
7
  6
CONTINUOUS
 10
200.0092431021
 20
317.1157557818
 40
0.75
 50
180.0
 51
270.0
  0
ARC
  8
SURFACE
 62
7
  6
CONTINUOUS
 10
204.5092431021
 20
317.1157557818
 40
0.75
 50
270.0
 51
360.0
  0
ARC
  8
SURFACE
 62
7
  6
CONTINUOUS
 10
242.6092431021
 20
317.1157557818
 40
0.75
 50
270.0
 51
360.0
  0
ARC
  8
SURFACE
 62
7
  6
CONTINUOUS
 10
238.1092431021
 20
317.1157557818
 40
0.75
 50
180.0
 51
270.0
  0
ARC
  8
SURFACE
 62
7
  6
CONTINUOUS
 10
212.7092431021
 20
317.1157557818
 40
0.75
 50
180.0
 51
270.0
  0
ARC
  8
SURFACE
 62
7
  6
CONTINUOUS
 10
217.2092431021
 20
317.1157557818
 40
0.75
 50
270.0
 51
360.0
  0
ARC
  8
SURFACE
 62
7
  6
CONTINUOUS
 10
229.9092431021
 20
317.1157557818
 40
0.75
 50
270.0
 51
360.0
  0
ARC
  8
SURFACE
 62
7
  6
CONTINUOUS
 10
225.4092431021
 20
317.1157557818
 40
0.75
 50
180.0
 51
270.0
  0
ARC
  8
SURFACE
 62
7
  6
CONTINUOUS
 10
187.3092431021
 20
327.6157557818
 40
0.75
 50
90.0
 51
180.0
  0
ARC
  8
SURFACE
 62
7
  6
CONTINUOUS
 10
191.8092431021
 20
327.6157557818
 40
0.75
 50
0.0
 51
90.0
  0
ARC
  8
SURFACE
 62
7
  6
CONTINUOUS
 10
174.6092431021
 20
327.6157557818
 40
0.75
 50
90.0
 51
180.0
  0
ARC
  8
SURFACE
 62
7
  6
CONTINUOUS
 10
179.1092431021
 20
327.6157557818
 40
0.75
 50
0.0
 51
90.0
  0
ARC
  8
SURFACE
 62
7
  6
CONTINUOUS
 10
200.0092431021
 20
327.6157557818
 40
0.75
 50
90.0
 51
180.0
  0
ARC
  8
SURFACE
 62
7
  6
CONTINUOUS
 10
204.5092431021
 20
327.6157557818
 40
0.75
 50
0.0
 51
90.0
  0
ARC
  8
SURFACE
 62
7
  6
CONTINUOUS
 10
238.1092431021
 20
327.6157557818
 40
0.75
 50
90.0
 51
180.0
  0
ARC
  8
SURFACE
 62
7
  6
CONTINUOUS
 10
242.6092431021
 20
327.6157557818
 40
0.75
 50
0.0
 51
90.0
  0
ARC
  8
SURFACE
 62
7
  6
CONTINUOUS
 10
212.7092431021
 20
327.6157557818
 40
0.75
 50
90.0
 51
180.0
  0
ARC
  8
SURFACE
 62
7
  6
CONTINUOUS
 10
217.2092431021
 20
327.6157557818
 40
0.75
 50
0.0
 51
90.0
  0
ARC
  8
SURFACE
 62
7
  6
CONTINUOUS
 10
229.9092431021
 20
327.6157557818
 40
0.75
 50
0.0
 51
90.0
  0
ARC
  8
SURFACE
 62
7
  6
CONTINUOUS
 10
225.4092431021
 20
327.6157557818
 40
0.75
 50
90.0
 51
180.0
  0
ARC
  8
0
 62
7
  6
CONTINUOUS
 10
370.3261156714
 20
305.9657557818
 40
3.0
 50
267.0643265536
 51
270.0
  0
ARC
  8
0
 62
7
  6
CONTINUOUS
 10
363.4492431021
 20
306.3657557818
 40
1.0
 50
90.0
 51
180.0
  0
ARC
  8
0
 62
7
  6
CONTINUOUS
 10
373.8992431021
 20
303.9657557818
 40
1.0
 50
270.0
 51
360.0
  0
ARC
  8
0
 62
7
  6
CONTINUOUS
 10
363.4492431021
 20
304.3157877915
 40
1.0
 50
180.0
 51
267.0643265536
  0
ARC
  8
0
 62
7
  6
CONTINUOUS
 10
369.7492431021
 20
315.8657557818
 40
0.5
 50
0.0
 51
90.0
  0
ARC
  8
0
 62
7
  6
CONTINUOUS
 10
370.0492431021
 20
307.5657557818
 40
0.2
 50
270.0
 51
360.0
  0
ARC
  8
0
 62
7
  6
CONTINUOUS
 10
314.3092431021
 20
317.1157557818
 40
0.75
 50
180.0
 51
270.0
  0
ARC
  8
0
 62
7
  6
CONTINUOUS
 10
318.8092431021
 20
317.1157557818
 40
0.75
 50
270.0
 51
360.0
  0
ARC
  8
0
 62
7
  6
CONTINUOUS
 10
288.9092431021
 20
317.1157557818
 40
0.75
 50
180.0
 51
270.0
  0
ARC
  8
0
 62
7
  6
CONTINUOUS
 10
293.4092431021
 20
317.1157557818
 40
0.75
 50
270.0
 51
360.0
  0
ARC
  8
0
 62
7
  6
CONTINUOUS
 10
276.2092431021
 20
317.1157557818
 40
0.75
 50
180.0
 51
270.0
  0
ARC
  8
0
 62
7
  6
CONTINUOUS
 10
280.7092431021
 20
317.1157557818
 40
0.75
 50
270.0
 51
360.0
  0
ARC
  8
0
 62
7
  6
CONTINUOUS
 10
263.5092431021
 20
317.1157557818
 40
0.75
 50
180.0
 51
270.0
  0
ARC
  8
0
 62
7
  6
CONTINUOUS
 10
268.0092431021
 20
317.1157557818
 40
0.75
 50
270.0
 51
360.0
  0
ARC
  8
0
 62
7
  6
CONTINUOUS
 10
250.8092431021
 20
317.1157557818
 40
0.75
 50
180.0
 51
270.0
  0
ARC
  8
0
 62
7
  6
CONTINUOUS
 10
255.3092431021
 20
317.1157557818
 40
0.75
 50
270.0
 51
360.0
  0
ARC
  8
0
 62
7
  6
CONTINUOUS
 10
301.6092431021
 20
317.1157557818
 40
0.75
 50
180.0
 51
270.0
  0
ARC
  8
0
 62
7
  6
CONTINUOUS
 10
306.1092431021
 20
317.1157557818
 40
0.75
 50
270.0
 51
360.0
  0
ARC
  8
0
 62
7
  6
CONTINUOUS
 10
318.8092431021
 20
327.6157557818
 40
0.75
 50
0.0
 51
90.0
  0
ARC
  8
0
 62
7
  6
CONTINUOUS
 10
314.3092431021
 20
327.6157557818
 40
0.75
 50
90.0
 51
180.0
  0
ARC
  8
0
 62
7
  6
CONTINUOUS
 10
293.4092431021
 20
327.6157557818
 40
0.75
 50
0.0
 51
90.0
  0
ARC
  8
0
 62
7
  6
CONTINUOUS
 10
288.9092431021
 20
327.6157557818
 40
0.75
 50
90.0
 51
180.0
  0
ARC
  8
0
 62
7
  6
CONTINUOUS
 10
280.7092431021
 20
327.6157557818
 40
0.75
 50
0.0
 51
90.0
  0
ARC
  8
0
 62
7
  6
CONTINUOUS
 10
276.2092431021
 20
327.6157557818
 40
0.75
 50
90.0
 51
180.0
  0
ARC
  8
0
 62
7
  6
CONTINUOUS
 10
268.0092431021
 20
327.6157557818
 40
0.75
 50
0.0
 51
90.0
  0
ARC
  8
0
 62
7
  6
CONTINUOUS
 10
263.5092431021
 20
327.6157557818
 40
0.75
 50
90.0
 51
180.0
  0
ARC
  8
0
 62
7
  6
CONTINUOUS
 10
255.3092431021
 20
327.6157557818
 40
0.75
 50
0.0
 51
90.0
  0
ARC
  8
0
 62
7
  6
CONTINUOUS
 10
250.8092431021
 20
327.6157557818
 40
0.75
 50
90.0
 51
180.0
  0
ARC
  8
0
 62
7
  6
CONTINUOUS
 10
306.1092431021
 20
327.6157557818
 40
0.75
 50
0.0
 51
90.0
  0
ARC
  8
0
 62
7
  6
CONTINUOUS
 10
301.6092431021
 20
327.6157557818
 40
0.75
 50
90.0
 51
180.0
  0
ARC
  8
0
 62
7
  6
CONTINUOUS
 10
331.5092431021
 20
317.1157557818
 40
0.75
 50
270.0
 51
360.0
  0
ARC
  8
0
 62
7
  6
CONTINUOUS
 10
327.0092431021
 20
317.1157557818
 40
0.75
 50
180.0
 51
270.0
  0
ARC
  8
0
 62
7
  6
CONTINUOUS
 10
340.1092431021
 20
317.1157557818
 40
0.75
 50
180.0
 51
270.0
  0
ARC
  8
0
 62
7
  6
CONTINUOUS
 10
372.8592431021
 20
327.6157557818
 40
0.75
 50
0.0
 51
90.0
  0
ARC
  8
0
 62
7
  6
CONTINUOUS
 10
368.3592431021
 20
327.6157557818
 40
0.75
 50
90.0
 51
180.0
  0
ARC
  8
0
 62
7
  6
CONTINUOUS
 10
331.5092431021
 20
327.6157557818
 40
0.75
 50
0.0
 51
90.0
  0
ARC
  8
0
 62
7
  6
CONTINUOUS
 10
344.6092431021
 20
327.6157557818
 40
0.75
 50
0.0
 51
90.0
  0
ARC
  8
0
 62
7
  6
CONTINUOUS
 10
340.1092431021
 20
327.6157557818
 40
0.75
 50
90.0
 51
180.0
  0
ARC
  8
0
 62
7
  6
CONTINUOUS
 10
353.8592431021
 20
327.6157557818
 40
0.75
 50
90.0
 51
180.0
  0
ARC
  8
0
 62
7
  6
CONTINUOUS
 10
358.3592431021
 20
327.6157557818
 40
0.75
 50
0.0
 51
90.0
  0
ARC
  8
0
 62
7
  6
CONTINUOUS
 10
383.9842431021
 20
327.6157557818
 40
0.75
 50
90.0
 51
180.0
  0
ARC
  8
0
 62
7
  6
CONTINUOUS
 10
388.4842431021
 20
327.6157557818
 40
0.75
 50
0.0
 51
90.0
  0
ARC
  8
0
 62
7
  6
CONTINUOUS
 10
327.0092431021
 20
327.6157557818
 40
0.75
 50
90.0
 51
180.0
  0
ARC
  8
0
 62
7
  6
CONTINUOUS
 10
392.2920309005
 20
328.2157557818
 40
0.15
 50
76.9081069356
 51
90.0
  0
ARC
  8
0
 62
7
  6
CONTINUOUS
 10
396.4592431021
 20
327.2466366651
 40
0.15
 50
0.0
 51
76.9081069356
  0
ARC
  8
SURFACE
 62
7
  6
CONTINUOUS
 10
108.0576260703
 20
150.7734090167
 40
3.39
 50
270.0
 51
304.1831103357
  0
ARC
  8
SURFACE
 62
7
  6
CONTINUOUS
 10
106.3108601339
 20
150.7734090167
 40
3.39
 50
235.8164911925
 51
270.0
  0
ARC
  8
SURFACE
 62
7
  6
CONTINUOUS
 10
120.0192431021
 20
151.7134090167
 40
1.5
 50
180.0
 51
257.3977351585
  0
ARC
  8
SURFACE
 62
7
  6
CONTINUOUS
 10
125.5992431021
 20
151.7134090167
 40
1.5
 50
282.6022648415
 51
85.8042132223
  0
ARC
  8
SURFACE
 62
7
  6
CONTINUOUS
 10
134.8092431021
 20
148.4129439313
 40
0.5
 50
180.0
 51
239.9451467244
  0
ARC
  8
SURFACE
 62
7
  6
CONTINUOUS
 10
120.3092431021
 20
148.4129439313
 40
0.5
 50
180.0
 51
239.9451459039
  0
ARC
  8
SURFACE
 62
7
  6
CONTINUOUS
 10
104.6842431021
 20
148.3846400803
 40
0.5
 50
180.0
 51
235.166071921
  0
ARC
  8
SURFACE
 62
7
  6
CONTINUOUS
 10
125.3092431021
 20
148.4129439313
 40
0.5
 50
300.0572956283
 51
360.0
  0
ARC
  8
SURFACE
 62
7
  6
CONTINUOUS
 10
109.6842431021
 20
148.3846400803
 40
0.5
 50
304.8213002959
 51
360.0
  0
ARC
  8
SURFACE
 62
7
  6
CONTINUOUS
 10
125.9592431021
 20
150.1031605887
 40
0.15
 50
102.6022648414
 51
180.0
  0
ARC
  8
SURFACE
 62
7
  6
CONTINUOUS
 10
119.6592431021
 20
150.1031605887
 40
0.15
 50
0.0
 51
77.3977351585
  0
ARC
  8
SURFACE
 62
7
  6
CONTINUOUS
 10
123.3092431021
 20
151.9250756834
 40
4.5416666667
 50
270.0
 51
299.6595537732
  0
ARC
  8
SURFACE
 62
7
  6
CONTINUOUS
 10
122.3092431021
 20
151.9250756834
 40
4.5416666667
 50
240.3404462268
 51
270.0
  0
ARC
  8
SURFACE
 62
7
  6
CONTINUOUS
 10
120.0592431021
 20
155.4449618296
 40
0.5
 50
345.9637565321
 51
360.0
  0
ARC
  8
SURFACE
 62
7
  6
CONTINUOUS
 10
134.5592431021
 20
155.4449618296
 40
0.5
 50
345.9637565321
 51
360.0
  0
ARC
  8
SURFACE
 62
7
  6
CONTINUOUS
 10
109.9342431021
 20
155.4449618296
 40
0.5
 50
180.0
 51
194.0362434679
  0
ARC
  8
SURFACE
 62
7
  6
CONTINUOUS
 10
104.4342431021
 20
155.4449618296
 40
0.5
 50
345.9637565321
 51
360.0
  0
ARC
  8
SURFACE
 62
7
  6
CONTINUOUS
 10
125.5592431021
 20
155.4449618296
 40
0.5
 50
180.0
 51
194.0362434679
  0
ARC
  8
SURFACE
 62
7
  6
CONTINUOUS
 10
125.6592431021
 20
152.3649431729
 40
0.15
 50
0.0
 51
14.0362434679
  0
ARC
  8
SURFACE
 62
7
  6
CONTINUOUS
 10
110.0342431021
 20
152.3649431729
 40
0.15
 50
0.0
 51
14.0362434679
  0
ARC
  8
SURFACE
 62
7
  6
CONTINUOUS
 10
134.4592431021
 20
152.3649431729
 40
0.15
 50
165.9637565321
 51
180.0
  0
ARC
  8
SURFACE
 62
7
  6
CONTINUOUS
 10
119.9592431021
 20
152.3649431729
 40
0.15
 50
165.9637565321
 51
180.0
  0
ARC
  8
SURFACE
 62
7
  6
CONTINUOUS
 10
104.3342431021
 20
152.3649431729
 40
0.15
 50
165.9637130145
 51
180.0
  0
ARC
  8
SURFACE
 62
7
  6
CONTINUOUS
 10
125.7199651208
 20
153.3589867859
 40
0.15
 50
194.0362434679
 51
265.8042132223
  0
ARC
  8
SURFACE
 62
7
  6
CONTINUOUS
 10
148.5592431021
 20
148.4129439313
 40
0.5
 50
180.0
 51
239.9451467294
  0
ARC
  8
SURFACE
 62
7
  6
CONTINUOUS
 10
139.8092431021
 20
148.4129439313
 40
0.5
 50
300.0572956011
 51
360.0
  0
ARC
  8
SURFACE
 62
7
  6
CONTINUOUS
 10
153.5592431021
 20
148.4129439313
 40
0.5
 50
300.0572956022
 51
360.0
  0
ARC
  8
SURFACE
 62
7
  6
CONTINUOUS
 10
161.6592431021
 20
148.948677085
 40
0.5
 50
180.0
 51
223.0008752289
  0
ARC
  8
SURFACE
 62
7
  6
CONTINUOUS
 10
166.6592431021
 20
148.948677085
 40
0.5
 50
317.0226356567
 51
360.0
  0
ARC
  8
SURFACE
 62
7
  6
CONTINUOUS
 10
164.1092431021
 20
151.2334090167
 40
3.85
 50
223.0008752289
 51
270.0
  0
ARC
  8
SURFACE
 62
7
  6
CONTINUOUS
 10
164.2092431021
 20
151.2334090167
 40
3.85
 50
270.0
 51
316.9991247711
  0
ARC
  8
SURFACE
 62
7
  6
CONTINUOUS
 10
150.5592431021
 20
151.9250756834
 40
4.5416666667
 50
240.3404462268
 51
270.0
  0
ARC
  8
SURFACE
 62
7
  6
CONTINUOUS
 10
137.8092431021
 20
151.9250756834
 40
4.5416666667
 50
270.0
 51
299.6595537732
  0
ARC
  8
SURFACE
 62
7
  6
CONTINUOUS
 10
136.8092431021
 20
151.9250756834
 40
4.5416666667
 50
240.3404462268
 51
270.0
  0
ARC
  8
SURFACE
 62
7
  6
CONTINUOUS
 10
151.5592431021
 20
151.9250756834
 40
4.5416666667
 50
270.0
 51
299.6595537732
  0
ARC
  8
SURFACE
 62
7
  6
CONTINUOUS
 10
140.1592431021
 20
152.3649431729
 40
0.15
 50
0.0
 51
14.0362434679
  0
ARC
  8
SURFACE
 62
7
  6
CONTINUOUS
 10
148.2092431021
 20
152.3649431729
 40
0.15
 50
165.9637565321
 51
180.0
  0
ARC
  8
SURFACE
 62
7
  6
CONTINUOUS
 10
140.0592431021
 20
155.4449618296
 40
0.5
 50
180.0
 51
194.0362434679
  0
ARC
  8
SURFACE
 62
7
  6
CONTINUOUS
 10
148.3092431021
 20
155.4449618296
 40
0.5
 50
345.9637565321
 51
360.0
  0
ARC
  8
SURFACE
 62
7
  6
CONTINUOUS
 10
153.9092431021
 20
152.3649431729
 40
0.15
 50
0.0
 51
14.0362434679
  0
ARC
  8
SURFACE
 62
7
  6
CONTINUOUS
 10
161.3092431021
 20
152.3649431729
 40
0.15
 50
165.9637565321
 51
180.0
  0
ARC
  8
SURFACE
 62
7
  6
CONTINUOUS
 10
167.0092431021
 20
152.3649431729
 40
0.15
 50
0.0
 51
14.0362434679
  0
ARC
  8
SURFACE
 62
7
  6
CONTINUOUS
 10
153.8092431021
 20
155.4449618296
 40
0.5
 50
180.0
 51
194.0362434679
  0
ARC
  8
SURFACE
 62
7
  6
CONTINUOUS
 10
166.9092431021
 20
155.4449618296
 40
0.5
 50
180.0
 51
194.0362434679
  0
ARC
  8
SURFACE
 62
7
  6
CONTINUOUS
 10
161.4092431021
 20
155.4449618296
 40
0.5
 50
345.9637565321
 51
360.0
  0
ARC
  8
SURFACE
 62
7
  6
CONTINUOUS
 10
98.9342431021
 20
158.7249056341
 40
6.0
 50
0.0
 51
69.1172178048
  0
ARC
  8
SURFACE
 62
7
  6
CONTINUOUS
 10
113.4342431021
 20
160.1334090167
 40
4.0
 50
90.0
 51
180.0
  0
ARC
  8
SURFACE
 62
7
  6
CONTINUOUS
 10
117.5592431021
 20
161.1334090167
 40
3.0
 50
0.0
 51
90.0
  0
ARC
  8
SURFACE
 62
7
  6
CONTINUOUS
 10
146.1092431021
 20
161.2834090167
 40
2.7
 50
0.0
 51
90.0
  0
ARC
  8
SURFACE
 62
7
  6
CONTINUOUS
 10
142.2592431021
 20
161.2834090167
 40
2.7
 50
90.0
 51
180.0
  0
ARC
  8
SURFACE
 62
7
  6
CONTINUOUS
 10
132.3592431021
 20
161.2834090167
 40
2.7
 50
0.0
 51
90.0
  0
ARC
  8
SURFACE
 62
7
  6
CONTINUOUS
 10
127.7592431021
 20
161.2834090167
 40
2.7
 50
90.0
 51
180.0
  0
ARC
  8
SURFACE
 62
7
  6
CONTINUOUS
 10
155.8092431021
 20
161.2494195053
 40
2.5
 50
90.0
 51
180.0
  0
ARC
  8
SURFACE
 62
7
  6
CONTINUOUS
 10
159.9092431021
 20
161.7494195053
 40
2.0
 50
0.0
 51
90.0
  0
ARC
  8
SURFACE
 62
7
  6
CONTINUOUS
 10
168.4092431021
 20
161.7494195053
 40
2.0
 50
90.0
 51
180.0
  0
ARC
  8
SURFACE
 62
7
  6
CONTINUOUS
 10
117.5192431021
 20
163.1334090167
 40
1.0
 50
0.0
 51
87.7093899574
  0
ARC
  8
SURFACE
 62
7
  6
CONTINUOUS
 10
130.1692431021
 20
156.0226812548
 40
0.8
 50
287.2499994331
 51
360.0
  0
ARC
  8
SURFACE
 62
7
  6
CONTINUOUS
 10
130.1692431021
 20
161.2441367787
 40
0.8
 50
0.0
 51
72.75
  0
ARC
  8
SURFACE
 62
7
  6
CONTINUOUS
 10
187.0592431021
 20
148.948677085
 40
0.5
 50
180.0
 51
223.0008752289
  0
ARC
  8
SURFACE
 62
7
  6
CONTINUOUS
 10
179.3592431021
 20
148.948677085
 40
0.5
 50
317.022635328
 51
360.0
  0
ARC
  8
SURFACE
 62
7
  6
CONTINUOUS
 10
174.3592431021
 20
148.948677085
 40
0.5
 50
180.0
 51
223.0008752289
  0
ARC
  8
SURFACE
 62
7
  6
CONTINUOUS
 10
189.5092431021
 20
151.2334090167
 40
3.85
 50
223.0008752289
 51
270.0
  0
ARC
  8
SURFACE
 62
7
  6
CONTINUOUS
 10
176.8092431021
 20
151.2334090167
 40
3.85
 50
223.0008752289
 51
270.0
  0
ARC
  8
SURFACE
 62
7
  6
CONTINUOUS
 10
176.9092431021
 20
151.2334090167
 40
3.85
 50
270.0
 51
316.9991247711
  0
ARC
  8
SURFACE
 62
7
  6
CONTINUOUS
 10
192.0592431021
 20
148.948677085
 40
0.5
 50
317.0226346655
 51
360.0
  0
ARC
  8
SURFACE
 62
7
  6
CONTINUOUS
 10
204.7592431021
 20
148.948677085
 40
0.5
 50
317.0226357068
 51
360.0
  0
ARC
  8
SURFACE
 62
7
  6
CONTINUOUS
 10
199.7592431021
 20
148.948677085
 40
0.5
 50
180.0
 51
223.0008752289
  0
ARC
  8
SURFACE
 62
7
  6
CONTINUOUS
 10
189.6092431021
 20
151.2334090167
 40
3.85
 50
270.0
 51
316.9991247711
  0
ARC
  8
SURFACE
 62
7
  6
CONTINUOUS
 10
202.2092431021
 20
151.2334090167
 40
3.85
 50
223.0008752289
 51
270.0
  0
ARC
  8
SURFACE
 62
7
  6
CONTINUOUS
 10
202.3092431021
 20
151.2334090167
 40
3.85
 50
270.0
 51
316.9991247711
  0
ARC
  8
SURFACE
 62
7
  6
CONTINUOUS
 10
192.3092431021
 20
155.4449618296
 40
0.5
 50
180.0
 51
194.0362434679
  0
ARC
  8
SURFACE
 62
7
  6
CONTINUOUS
 10
186.8092431021
 20
155.4449618296
 40
0.5
 50
345.9637565321
 51
360.0
  0
ARC
  8
SURFACE
 62
7
  6
CONTINUOUS
 10
174.1092431021
 20
155.4449618296
 40
0.5
 50
345.9637565321
 51
360.0
  0
ARC
  8
SURFACE
 62
7
  6
CONTINUOUS
 10
179.6092431021
 20
155.4449618296
 40
0.5
 50
180.0
 51
194.0362434679
  0
ARC
  8
SURFACE
 62
7
  6
CONTINUOUS
 10
199.5092431021
 20
155.4449618296
 40
0.5
 50
345.9637565321
 51
360.0
  0
ARC
  8
SURFACE
 62
7
  6
CONTINUOUS
 10
205.0092431021
 20
155.4449618296
 40
0.5
 50
180.0
 51
194.0362434679
  0
ARC
  8
SURFACE
 62
7
  6
CONTINUOUS
 10
186.7092431021
 20
152.3649431729
 40
0.15
 50
165.9637565321
 51
180.0
  0
ARC
  8
SURFACE
 62
7
  6
CONTINUOUS
 10
192.4092431021
 20
152.3649431729
 40
0.15
 50
0.0
 51
14.0362434679
  0
ARC
  8
SURFACE
 62
7
  6
CONTINUOUS
 10
174.0092431021
 20
152.3649431729
 40
0.15
 50
165.9637565321
 51
180.0
  0
ARC
  8
SURFACE
 62
7
  6
CONTINUOUS
 10
179.7092431021
 20
152.3649431729
 40
0.15
 50
0.0
 51
14.0362434679
  0
ARC
  8
SURFACE
 62
7
  6
CONTINUOUS
 10
199.4092431021
 20
152.3649431729
 40
0.15
 50
165.9637565321
 51
180.0
  0
ARC
  8
SURFACE
 62
7
  6
CONTINUOUS
 10
205.1092431021
 20
152.3649431729
 40
0.15
 50
0.0
 51
14.0362434679
  0
ARC
  8
SURFACE
 62
7
  6
CONTINUOUS
 10
225.1592431021
 20
148.948677085
 40
0.5
 50
180.0
 51
223.0008752289
  0
ARC
  8
SURFACE
 62
7
  6
CONTINUOUS
 10
212.4592431021
 20
148.948677085
 40
0.5
 50
180.0
 51
223.0008752289
  0
ARC
  8
SURFACE
 62
7
  6
CONTINUOUS
 10
217.4592431021
 20
148.948677085
 40
0.5
 50
317.0226346336
 51
360.0
  0
ARC
  8
SURFACE
 62
7
  6
CONTINUOUS
 10
227.6092431021
 20
151.2334090167
 40
3.85
 50
223.0008752289
 51
270.0
  0
ARC
  8
SURFACE
 62
7
  6
CONTINUOUS
 10
214.9092431021
 20
151.2334090167
 40
3.85
 50
223.0008752289
 51
270.0
  0
ARC
  8
SURFACE
 62
7
  6
CONTINUOUS
 10
215.0092431021
 20
151.2334090167
 40
3.85
 50
270.0
 51
316.9991247711
  0
ARC
  8
SURFACE
 62
7
  6
CONTINUOUS
 10
237.8592431021
 20
148.948677085
 40
0.5
 50
180.0
 51
223.0008752289
  0
ARC
  8
SURFACE
 62
7
  6
CONTINUOUS
 10
242.8592431021
 20
148.948677085
 40
0.5
 50
317.0226341829
 51
360.0
  0
ARC
  8
SURFACE
 62
7
  6
CONTINUOUS
 10
230.1592431021
 20
148.948677085
 40
0.5
 50
317.0226349279
 51
360.0
  0
ARC
  8
SURFACE
 62
7
  6
CONTINUOUS
 10
240.3092431021
 20
151.2334090167
 40
3.85
 50
223.0008752289
 51
270.0
  0
ARC
  8
SURFACE
 62
7
  6
CONTINUOUS
 10
240.4092431021
 20
151.2334090167
 40
3.85
 50
270.0
 51
316.9991247711
  0
ARC
  8
SURFACE
 62
7
  6
CONTINUOUS
 10
227.7092431021
 20
151.2334090167
 40
3.85
 50
270.0
 51
316.9991247711
  0
ARC
  8
SURFACE
 62
7
  6
CONTINUOUS
 10
243.1092431021
 20
155.4449618296
 40
0.5
 50
180.0
 51
194.0362434679
  0
ARC
  8
SURFACE
 62
7
  6
CONTINUOUS
 10
237.6092431021
 20
155.4449618296
 40
0.5
 50
345.9637565321
 51
360.0
  0
ARC
  8
SURFACE
 62
7
  6
CONTINUOUS
 10
230.4092431021
 20
155.4449618296
 40
0.5
 50
180.0
 51
194.0362434679
  0
ARC
  8
SURFACE
 62
7
  6
CONTINUOUS
 10
224.9092431021
 20
155.4449618296
 40
0.5
 50
345.9637565321
 51
360.0
  0
ARC
  8
SURFACE
 62
7
  6
CONTINUOUS
 10
212.2092431021
 20
155.4449618296
 40
0.5
 50
345.9637565321
 51
360.0
  0
ARC
  8
SURFACE
 62
7
  6
CONTINUOUS
 10
217.7092431021
 20
155.4449618296
 40
0.5
 50
180.0
 51
194.0362434679
  0
ARC
  8
SURFACE
 62
7
  6
CONTINUOUS
 10
237.5092431021
 20
152.3649431729
 40
0.15
 50
165.9637565321
 51
180.0
  0
ARC
  8
SURFACE
 62
7
  6
CONTINUOUS
 10
243.2092431021
 20
152.3649431729
 40
0.15
 50
0.0
 51
14.0362434679
  0
ARC
  8
SURFACE
 62
7
  6
CONTINUOUS
 10
224.8092431021
 20
152.3649431729
 40
0.15
 50
165.9637565321
 51
180.0
  0
ARC
  8
SURFACE
 62
7
  6
CONTINUOUS
 10
230.5092431021
 20
152.3649431729
 40
0.15
 50
0.0
 51
14.0362434679
  0
ARC
  8
SURFACE
 62
7
  6
CONTINUOUS
 10
212.1092431021
 20
152.3649431729
 40
0.15
 50
165.9637565321
 51
180.0
  0
ARC
  8
SURFACE
 62
7
  6
CONTINUOUS
 10
217.8092431021
 20
152.3649431729
 40
0.15
 50
0.0
 51
14.0362434679
  0
ARC
  8
SURFACE
 62
7
  6
CONTINUOUS
 10
185.3092431021
 20
161.7494195053
 40
2.0
 50
0.0
 51
90.0
  0
ARC
  8
SURFACE
 62
7
  6
CONTINUOUS
 10
193.8092431021
 20
161.7494195053
 40
2.0
 50
90.0
 51
180.0
  0
ARC
  8
SURFACE
 62
7
  6
CONTINUOUS
 10
172.6092431021
 20
161.7494195053
 40
2.0
 50
0.0
 51
90.0
  0
ARC
  8
SURFACE
 62
7
  6
CONTINUOUS
 10
181.1092431021
 20
161.7494195053
 40
2.0
 50
90.0
 51
180.0
  0
ARC
  8
SURFACE
 62
7
  6
CONTINUOUS
 10
236.1092431021
 20
161.7494195053
 40
2.0
 50
0.0
 51
90.0
  0
ARC
  8
SURFACE
 62
7
  6
CONTINUOUS
 10
244.6092431021
 20
161.7494195053
 40
2.0
 50
90.0
 51
180.0
  0
ARC
  8
SURFACE
 62
7
  6
CONTINUOUS
 10
223.4092431021
 20
161.7494195053
 40
2.0
 50
0.0
 51
90.0
  0
ARC
  8
SURFACE
 62
7
  6
CONTINUOUS
 10
231.9092431021
 20
161.7494195053
 40
2.0
 50
90.0
 51
180.0
  0
ARC
  8
SURFACE
 62
7
  6
CONTINUOUS
 10
198.0092431021
 20
161.7494195053
 40
2.0
 50
0.0
 51
90.0
  0
ARC
  8
SURFACE
 62
7
  6
CONTINUOUS
 10
206.5092431021
 20
161.7494195053
 40
2.0
 50
90.0
 51
180.0
  0
ARC
  8
SURFACE
 62
7
  6
CONTINUOUS
 10
210.7092431021
 20
161.7494195053
 40
2.0
 50
0.0
 51
90.0
  0
ARC
  8
SURFACE
 62
7
  6
CONTINUOUS
 10
219.2092431021
 20
161.7494195053
 40
2.0
 50
90.0
 51
180.0
  0
ARC
  8
SURFACE
 62
7
  6
CONTINUOUS
 10
106.7592431021
 20
170.2119416254
 40
5.5285326087
 50
213.3598173717
 51
270.0
  0
ARC
  8
SURFACE
 62
7
  6
CONTINUOUS
 10
108.5592431021
 20
169.1834090167
 40
4.5
 50
270.0
 51
360.0
  0
ARC
  8
SURFACE
 62
7
  6
CONTINUOUS
 10
122.0592431021
 20
169.2834090167
 40
4.5
 50
180.0
 51
270.0
  0
ARC
  8
SURFACE
 62
7
  6
CONTINUOUS
 10
123.5592431021
 20
169.2834090167
 40
4.5
 50
270.0
 51
360.0
  0
ARC
  8
SURFACE
 62
7
  6
CONTINUOUS
 10
164.1592431021
 20
169.2334090167
 40
4.1
 50
180.0
 51
360.0
  0
ARC
  8
SURFACE
 62
7
  6
CONTINUOUS
 10
136.4092431021
 20
168.7834090167
 40
3.85
 50
180.0
 51
270.0
  0
ARC
  8
SURFACE
 62
7
  6
CONTINUOUS
 10
138.2092431021
 20
168.7834090167
 40
3.85
 50
270.0
 51
360.0
  0
ARC
  8
SURFACE
 62
7
  6
CONTINUOUS
 10
151.7092431021
 20
168.7834090167
 40
3.85
 50
270.0
 51
360.0
  0
ARC
  8
SURFACE
 62
7
  6
CONTINUOUS
 10
150.4092431021
 20
168.7834090167
 40
3.85
 50
180.0
 51
270.0
  0
ARC
  8
SURFACE
 62
7
  6
CONTINUOUS
 10
99.8092431021
 20
167.9840316314
 40
3.0
 50
180.0
 51
250.0
  0
ARC
  8
SURFACE
 62
7
  6
CONTINUOUS
 10
102.5592431021
 20
167.4467761337
 40
0.5
 50
183.0376217797
 51
213.3598173717
  0
ARC
  8
SURFACE
 62
7
  6
CONTINUOUS
 10
112.5592431021
 20
173.4218562039
 40
0.5
 50
0.0
 51
14.0362434679
  0
ARC
  8
SURFACE
 62
7
  6
CONTINUOUS
 10
127.5592431021
 20
173.4218562039
 40
0.5
 50
0.0
 51
14.0362434679
  0
ARC
  8
SURFACE
 62
7
  6
CONTINUOUS
 10
118.0592431021
 20
173.4218562039
 40
0.5
 50
165.9637565321
 51
180.0
  0
ARC
  8
SURFACE
 62
7
  6
CONTINUOUS
 10
141.5592431021
 20
173.4218562039
 40
0.5
 50
0.0
 51
14.0362434679
  0
ARC
  8
SURFACE
 62
7
  6
CONTINUOUS
 10
133.0592431021
 20
173.4218562039
 40
0.5
 50
165.9637565321
 51
180.0
  0
ARC
  8
SURFACE
 62
7
  6
CONTINUOUS
 10
155.0592431021
 20
173.4218562039
 40
0.5
 50
0.0
 51
14.0362434679
  0
ARC
  8
SURFACE
 62
7
  6
CONTINUOUS
 10
147.0592431021
 20
173.4218562039
 40
0.5
 50
165.9637565321
 51
180.0
  0
ARC
  8
SURFACE
 62
7
  6
CONTINUOUS
 10
160.5592431021
 20
173.4218562039
 40
0.5
 50
165.9637565321
 51
180.0
  0
ARC
  8
SURFACE
 62
7
  6
CONTINUOUS
 10
167.7592431021
 20
173.4218562039
 40
0.5
 50
0.0
 51
14.0362434679
  0
ARC
  8
SURFACE
 62
7
  6
CONTINUOUS
 10
98.3092431021
 20
180.8520307365
 40
1.5
 50
70.0
 51
180.0
  0
ARC
  8
SURFACE
 62
7
  6
CONTINUOUS
 10
142.0592431021
 20
180.7334090167
 40
0.75
 50
90.0
 51
180.0
  0
ARC
  8
SURFACE
 62
7
  6
CONTINUOUS
 10
146.5592431021
 20
180.7334090167
 40
0.75
 50
0.0
 51
90.0
  0
ARC
  8
SURFACE
 62
7
  6
CONTINUOUS
 10
155.5592431021
 20
180.7334090167
 40
0.75
 50
90.0
 51
180.0
  0
ARC
  8
SURFACE
 62
7
  6
CONTINUOUS
 10
132.5592431021
 20
180.7334090167
 40
0.75
 50
0.0
 51
90.0
  0
ARC
  8
SURFACE
 62
7
  6
CONTINUOUS
 10
128.0592431021
 20
180.7334090167
 40
0.75
 50
90.0
 51
180.0
  0
ARC
  8
SURFACE
 62
7
  6
CONTINUOUS
 10
117.5592431021
 20
180.7334090167
 40
0.75
 50
0.0
 51
90.0
  0
ARC
  8
SURFACE
 62
7
  6
CONTINUOUS
 10
113.0592431021
 20
180.7334090167
 40
0.75
 50
90.0
 51
180.0
  0
ARC
  8
SURFACE
 62
7
  6
CONTINUOUS
 10
168.2592431021
 20
180.7334090167
 40
0.75
 50
90.0
 51
180.0
  0
ARC
  8
SURFACE
 62
7
  6
CONTINUOUS
 10
160.0592431021
 20
180.7334090167
 40
0.75
 50
0.0
 51
90.0
  0
ARC
  8
SURFACE
 62
7
  6
CONTINUOUS
 10
112.4592431021
 20
176.5018748606
 40
0.15
 50
180.0
 51
194.0362434679
  0
ARC
  8
SURFACE
 62
7
  6
CONTINUOUS
 10
127.4592431021
 20
176.5018748606
 40
0.15
 50
180.0
 51
194.0362434679
  0
ARC
  8
SURFACE
 62
7
  6
CONTINUOUS
 10
118.1592431021
 20
176.5018748606
 40
0.15
 50
345.9637565321
 51
360.0
  0
ARC
  8
SURFACE
 62
7
  6
CONTINUOUS
 10
141.4592431021
 20
176.5018748606
 40
0.15
 50
180.0
 51
194.0362434679
  0
ARC
  8
SURFACE
 62
7
  6
CONTINUOUS
 10
154.9592431021
 20
176.5018748606
 40
0.15
 50
180.0
 51
194.0362434679
  0
ARC
  8
SURFACE
 62
7
  6
CONTINUOUS
 10
133.1592431021
 20
176.5018748606
 40
0.15
 50
345.9637565321
 51
360.0
  0
ARC
  8
SURFACE
 62
7
  6
CONTINUOUS
 10
147.1592431021
 20
176.5018748606
 40
0.15
 50
345.9637565321
 51
360.0
  0
ARC
  8
SURFACE
 62
7
  6
CONTINUOUS
 10
160.6592431021
 20
176.5018748606
 40
0.15
 50
345.9637565321
 51
360.0
  0
ARC
  8
SURFACE
 62
7
  6
CONTINUOUS
 10
167.6592431021
 20
176.5018748606
 40
0.15
 50
180.0
 51
194.0362434679
  0
ARC
  8
SURFACE
 62
7
  6
CONTINUOUS
 10
189.5592431021
 20
169.2334090167
 40
4.1
 50
180.0
 51
360.0
  0
ARC
  8
SURFACE
 62
7
  6
CONTINUOUS
 10
176.8592431021
 20
169.2334090167
 40
4.1
 50
180.0
 51
360.0
  0
ARC
  8
SURFACE
 62
7
  6
CONTINUOUS
 10
240.3592431021
 20
169.2334090167
 40
4.1
 50
180.0
 51
360.0
  0
ARC
  8
SURFACE
 62
7
  6
CONTINUOUS
 10
227.6592431021
 20
169.2334090167
 40
4.1
 50
180.0
 51
360.0
  0
ARC
  8
SURFACE
 62
7
  6
CONTINUOUS
 10
202.2592431021
 20
169.2334090167
 40
4.1
 50
180.0
 51
360.0
  0
ARC
  8
SURFACE
 62
7
  6
CONTINUOUS
 10
214.9592431021
 20
169.2334090167
 40
4.1
 50
180.0
 51
360.0
  0
ARC
  8
SURFACE
 62
7
  6
CONTINUOUS
 10
185.9592431021
 20
173.4218562039
 40
0.5
 50
165.9637565321
 51
180.0
  0
ARC
  8
SURFACE
 62
7
  6
CONTINUOUS
 10
193.1592431021
 20
173.4218562039
 40
0.5
 50
0.0
 51
14.0362434679
  0
ARC
  8
SURFACE
 62
7
  6
CONTINUOUS
 10
173.2592431021
 20
173.4218562039
 40
0.5
 50
165.9637565321
 51
180.0
  0
ARC
  8
SURFACE
 62
7
  6
CONTINUOUS
 10
180.4592431021
 20
173.4218562039
 40
0.5
 50
0.0
 51
14.0362434679
  0
ARC
  8
SURFACE
 62
7
  6
CONTINUOUS
 10
236.7592431021
 20
173.4218562039
 40
0.5
 50
165.9637565321
 51
180.0
  0
ARC
  8
SURFACE
 62
7
  6
CONTINUOUS
 10
243.9592431021
 20
173.4218562039
 40
0.5
 50
0.0
 51
14.0362434679
  0
ARC
  8
SURFACE
 62
7
  6
CONTINUOUS
 10
224.0592431021
 20
173.4218562039
 40
0.5
 50
165.9637565321
 51
180.0
  0
ARC
  8
SURFACE
 62
7
  6
CONTINUOUS
 10
231.2592431021
 20
173.4218562039
 40
0.5
 50
0.0
 51
14.0362434679
  0
ARC
  8
SURFACE
 62
7
  6
CONTINUOUS
 10
205.8592431021
 20
173.4218562039
 40
0.5
 50
0.0
 51
14.0362434679
  0
ARC
  8
SURFACE
 62
7
  6
CONTINUOUS
 10
198.6592431021
 20
173.4218562039
 40
0.5
 50
165.9637565321
 51
180.0
  0
ARC
  8
SURFACE
 62
7
  6
CONTINUOUS
 10
211.3592431021
 20
173.4218562039
 40
0.5
 50
165.9637565321
 51
180.0
  0
ARC
  8
SURFACE
 62
7
  6
CONTINUOUS
 10
218.5592431021
 20
173.4218562039
 40
0.5
 50
0.0
 51
14.0362434679
  0
ARC
  8
SURFACE
 62
7
  6
CONTINUOUS
 10
193.6592431021
 20
180.7334090167
 40
0.75
 50
90.0
 51
180.0
  0
ARC
  8
SURFACE
 62
7
  6
CONTINUOUS
 10
185.4592431021
 20
180.7334090167
 40
0.75
 50
0.0
 51
90.0
  0
ARC
  8
SURFACE
 62
7
  6
CONTINUOUS
 10
180.9592431021
 20
180.7334090167
 40
0.75
 50
90.0
 51
180.0
  0
ARC
  8
SURFACE
 62
7
  6
CONTINUOUS
 10
172.7592431021
 20
180.7334090167
 40
0.75
 50
0.0
 51
90.0
  0
ARC
  8
SURFACE
 62
7
  6
CONTINUOUS
 10
244.4592431021
 20
180.7334090167
 40
0.75
 50
90.0
 51
180.0
  0
ARC
  8
SURFACE
 62
7
  6
CONTINUOUS
 10
236.2592431021
 20
180.7334090167
 40
0.75
 50
0.0
 51
90.0
  0
ARC
  8
SURFACE
 62
7
  6
CONTINUOUS
 10
231.7592431021
 20
180.7334090167
 40
0.75
 50
90.0
 51
180.0
  0
ARC
  8
SURFACE
 62
7
  6
CONTINUOUS
 10
223.5592431021
 20
180.7334090167
 40
0.75
 50
0.0
 51
90.0
  0
ARC
  8
SURFACE
 62
7
  6
CONTINUOUS
 10
198.1592431021
 20
180.7334090167
 40
0.75
 50
0.0
 51
90.0
  0
ARC
  8
SURFACE
 62
7
  6
CONTINUOUS
 10
206.3592431021
 20
180.7334090167
 40
0.75
 50
90.0
 51
180.0
  0
ARC
  8
SURFACE
 62
7
  6
CONTINUOUS
 10
219.0592431021
 20
180.7334090167
 40
0.75
 50
90.0
 51
180.0
  0
ARC
  8
SURFACE
 62
7
  6
CONTINUOUS
 10
210.8592431021
 20
180.7334090167
 40
0.75
 50
0.0
 51
90.0
  0
ARC
  8
SURFACE
 62
7
  6
CONTINUOUS
 10
186.0592431021
 20
176.5018748606
 40
0.15
 50
345.9637565321
 51
360.0
  0
ARC
  8
SURFACE
 62
7
  6
CONTINUOUS
 10
193.0592431021
 20
176.5018748606
 40
0.15
 50
180.0
 51
194.0362434679
  0
ARC
  8
SURFACE
 62
7
  6
CONTINUOUS
 10
173.3592431021
 20
176.5018748606
 40
0.15
 50
345.9637565321
 51
360.0
  0
ARC
  8
SURFACE
 62
7
  6
CONTINUOUS
 10
180.3592431021
 20
176.5018748606
 40
0.15
 50
180.0
 51
194.0362434679
  0
ARC
  8
SURFACE
 62
7
  6
CONTINUOUS
 10
236.8592431021
 20
176.5018748606
 40
0.15
 50
345.9637565321
 51
360.0
  0
ARC
  8
SURFACE
 62
7
  6
CONTINUOUS
 10
243.8592431021
 20
176.5018748606
 40
0.15
 50
180.0
 51
194.0362434679
  0
ARC
  8
SURFACE
 62
7
  6
CONTINUOUS
 10
224.1592431021
 20
176.5018748606
 40
0.15
 50
345.9637565321
 51
360.0
  0
ARC
  8
SURFACE
 62
7
  6
CONTINUOUS
 10
231.1592431021
 20
176.5018748606
 40
0.15
 50
180.0
 51
194.0362434679
  0
ARC
  8
SURFACE
 62
7
  6
CONTINUOUS
 10
205.7592431021
 20
176.5018748606
 40
0.15
 50
180.0
 51
194.0362434679
  0
ARC
  8
SURFACE
 62
7
  6
CONTINUOUS
 10
198.7592431021
 20
176.5018748606
 40
0.15
 50
345.9637565321
 51
360.0
  0
ARC
  8
SURFACE
 62
7
  6
CONTINUOUS
 10
211.4592431021
 20
176.5018748606
 40
0.15
 50
345.9637565321
 51
360.0
  0
ARC
  8
SURFACE
 62
7
  6
CONTINUOUS
 10
218.4592431021
 20
176.5018748606
 40
0.15
 50
180.0
 51
194.0362434679
  0
ARC
  8
0
 62
7
  6
CONTINUOUS
 10
263.2592431021
 20
148.948677085
 40
0.5
 50
180.0
 51
223.0008752289
  0
ARC
  8
0
 62
7
  6
CONTINUOUS
 10
250.5592431021
 20
148.948677085
 40
0.5
 50
180.0
 51
223.0008752289
  0
ARC
  8
0
 62
7
  6
CONTINUOUS
 10
255.5592431021
 20
148.948677085
 40
0.5
 50
317.0231273506
 51
360.0
  0
ARC
  8
0
 62
7
  6
CONTINUOUS
 10
265.7092431021
 20
151.2334090167
 40
3.85
 50
223.0008752289
 51
270.0
  0
ARC
  8
0
 62
7
  6
CONTINUOUS
 10
253.0092431021
 20
151.2334090167
 40
3.85
 50
223.0008752289
 51
270.0
  0
ARC
  8
0
 62
7
  6
CONTINUOUS
 10
253.1092431021
 20
151.2334090167
 40
3.85
 50
270.0
 51
316.9991247711
  0
ARC
  8
0
 62
7
  6
CONTINUOUS
 10
275.9592431021
 20
148.948677085
 40
0.5
 50
180.0
 51
223.0008752289
  0
ARC
  8
0
 62
7
  6
CONTINUOUS
 10
280.9592431021
 20
148.948677085
 40
0.5
 50
317.0231271497
 51
360.0
  0
ARC
  8
0
 62
7
  6
CONTINUOUS
 10
268.2592431021
 20
148.948677085
 40
0.5
 50
317.0231268636
 51
360.0
  0
ARC
  8
0
 62
7
  6
CONTINUOUS
 10
278.4092431021
 20
151.2334090167
 40
3.85
 50
223.0008752289
 51
270.0
  0
ARC
  8
0
 62
7
  6
CONTINUOUS
 10
278.5092431021
 20
151.2334090167
 40
3.85
 50
270.0
 51
316.9991247711
  0
ARC
  8
0
 62
7
  6
CONTINUOUS
 10
265.8092431021
 20
151.2334090167
 40
3.85
 50
270.0
 51
316.9991247711
  0
ARC
  8
0
 62
7
  6
CONTINUOUS
 10
281.2092431021
 20
155.4449618296
 40
0.5
 50
180.0
 51
194.0362434679
  0
ARC
  8
0
 62
7
  6
CONTINUOUS
 10
275.7092431021
 20
155.4449618296
 40
0.5
 50
345.9637565321
 51
360.0
  0
ARC
  8
0
 62
7
  6
CONTINUOUS
 10
268.5092431021
 20
155.4449618296
 40
0.5
 50
180.0
 51
194.0362434679
  0
ARC
  8
0
 62
7
  6
CONTINUOUS
 10
263.0092431021
 20
155.4449618296
 40
0.5
 50
345.9637565321
 51
360.0
  0
ARC
  8
0
 62
7
  6
CONTINUOUS
 10
255.8092431021
 20
155.4449618296
 40
0.5
 50
180.0
 51
194.0362434679
  0
ARC
  8
0
 62
7
  6
CONTINUOUS
 10
250.3092431021
 20
155.4449618296
 40
0.5
 50
345.9637565321
 51
360.0
  0
ARC
  8
0
 62
7
  6
CONTINUOUS
 10
281.3092431021
 20
152.3649431729
 40
0.15
 50
0.0
 51
14.0362434679
  0
ARC
  8
0
 62
7
  6
CONTINUOUS
 10
275.6092431021
 20
152.3649431729
 40
0.15
 50
165.9637565321
 51
180.0
  0
ARC
  8
0
 62
7
  6
CONTINUOUS
 10
268.6092431021
 20
152.3649431729
 40
0.15
 50
0.0
 51
14.0362434679
  0
ARC
  8
0
 62
7
  6
CONTINUOUS
 10
262.9092431021
 20
152.3649431729
 40
0.15
 50
165.9637565321
 51
180.0
  0
ARC
  8
0
 62
7
  6
CONTINUOUS
 10
255.9092431021
 20
152.3649431729
 40
0.15
 50
0.0
 51
14.0362434679
  0
ARC
  8
0
 62
7
  6
CONTINUOUS
 10
250.2092431021
 20
152.3649431729
 40
0.15
 50
165.9637565321
 51
180.0
  0
ARC
  8
0
 62
7
  6
CONTINUOUS
 10
288.6592431021
 20
148.948677085
 40
0.5
 50
180.0
 51
223.0008752289
  0
ARC
  8
0
 62
7
  6
CONTINUOUS
 10
293.6592431021
 20
148.948677085
 40
0.5
 50
317.0231275472
 51
360.0
  0
ARC
  8
0
 62
7
  6
CONTINUOUS
 10
301.3592431021
 20
148.948677085
 40
0.5
 50
180.0
 51
223.0008752289
  0
ARC
  8
0
 62
7
  6
CONTINUOUS
 10
291.1092431021
 20
151.2334090167
 40
3.85
 50
223.0008752289
 51
270.0
  0
ARC
  8
0
 62
7
  6
CONTINUOUS
 10
291.2092431021
 20
151.2334090167
 40
3.85
 50
270.0
 51
316.9991247711
  0
ARC
  8
0
 62
7
  6
CONTINUOUS
 10
303.8092431021
 20
151.2334090167
 40
3.85
 50
223.0008752289
 51
270.0
  0
ARC
  8
0
 62
7
  6
CONTINUOUS
 10
314.0592431021
 20
148.948677085
 40
0.5
 50
180.0
 51
223.0008752289
  0
ARC
  8
0
 62
7
  6
CONTINUOUS
 10
319.0592431021
 20
148.948677085
 40
0.5
 50
317.0231272051
 51
360.0
  0
ARC
  8
0
 62
7
  6
CONTINUOUS
 10
306.3592431021
 20
148.948677085
 40
0.5
 50
317.0231271655
 51
360.0
  0
ARC
  8
0
 62
7
  6
CONTINUOUS
 10
316.5092431021
 20
151.2334090167
 40
3.85
 50
223.0008752289
 51
270.0
  0
ARC
  8
0
 62
7
  6
CONTINUOUS
 10
316.6092431021
 20
151.2334090167
 40
3.85
 50
270.0
 51
316.9991247711
  0
ARC
  8
0
 62
7
  6
CONTINUOUS
 10
303.9092431021
 20
151.2334090167
 40
3.85
 50
270.0
 51
316.9991247711
  0
ARC
  8
0
 62
7
  6
CONTINUOUS
 10
319.3092431021
 20
155.4449618296
 40
0.5
 50
180.0
 51
194.0362434679
  0
ARC
  8
0
 62
7
  6
CONTINUOUS
 10
313.8092431021
 20
155.4449618296
 40
0.5
 50
345.9637565321
 51
360.0
  0
ARC
  8
0
 62
7
  6
CONTINUOUS
 10
293.9092431021
 20
155.4449618296
 40
0.5
 50
180.0
 51
194.0362434679
  0
ARC
  8
0
 62
7
  6
CONTINUOUS
 10
288.4092431021
 20
155.4449618296
 40
0.5
 50
345.9637565321
 51
360.0
  0
ARC
  8
0
 62
7
  6
CONTINUOUS
 10
306.6092431021
 20
155.4449618296
 40
0.5
 50
180.0
 51
194.0362434679
  0
ARC
  8
0
 62
7
  6
CONTINUOUS
 10
301.1092431021
 20
155.4449618296
 40
0.5
 50
345.9637565321
 51
360.0
  0
ARC
  8
0
 62
7
  6
CONTINUOUS
 10
319.4092431021
 20
152.3649431729
 40
0.15
 50
0.0
 51
14.0362434679
  0
ARC
  8
0
 62
7
  6
CONTINUOUS
 10
313.7092431021
 20
152.3649431729
 40
0.15
 50
165.9637565321
 51
180.0
  0
ARC
  8
0
 62
7
  6
CONTINUOUS
 10
294.0092431021
 20
152.3649431729
 40
0.15
 50
0.0
 51
14.0362434679
  0
ARC
  8
0
 62
7
  6
CONTINUOUS
 10
288.3092431021
 20
152.3649431729
 40
0.15
 50
165.9637565321
 51
180.0
  0
ARC
  8
0
 62
7
  6
CONTINUOUS
 10
306.7092431021
 20
152.3649431729
 40
0.15
 50
0.0
 51
14.0362434679
  0
ARC
  8
0
 62
7
  6
CONTINUOUS
 10
301.0092431021
 20
152.3649431729
 40
0.15
 50
165.9637565321
 51
180.0
  0
ARC
  8
0
 62
7
  6
CONTINUOUS
 10
320.8092431021
 20
161.7494195053
 40
2.0
 50
90.0
 51
180.0
  0
ARC
  8
0
 62
7
  6
CONTINUOUS
 10
312.3092431021
 20
161.7494195053
 40
2.0
 50
0.0
 51
90.0
  0
ARC
  8
0
 62
7
  6
CONTINUOUS
 10
295.4092431021
 20
161.7494195053
 40
2.0
 50
90.0
 51
180.0
  0
ARC
  8
0
 62
7
  6
CONTINUOUS
 10
286.9092431021
 20
161.7494195053
 40
2.0
 50
0.0
 51
90.0
  0
ARC
  8
0
 62
7
  6
CONTINUOUS
 10
282.7092431021
 20
161.7494195053
 40
2.0
 50
90.0
 51
180.0
  0
ARC
  8
0
 62
7
  6
CONTINUOUS
 10
274.2092431021
 20
161.7494195053
 40
2.0
 50
0.0
 51
90.0
  0
ARC
  8
0
 62
7
  6
CONTINUOUS
 10
270.0092431021
 20
161.7494195053
 40
2.0
 50
90.0
 51
180.0
  0
ARC
  8
0
 62
7
  6
CONTINUOUS
 10
261.5092431021
 20
161.7494195053
 40
2.0
 50
0.0
 51
90.0
  0
ARC
  8
0
 62
7
  6
CONTINUOUS
 10
257.3092431021
 20
161.7494195053
 40
2.0
 50
90.0
 51
180.0
  0
ARC
  8
0
 62
7
  6
CONTINUOUS
 10
248.8092431021
 20
161.7494195053
 40
2.0
 50
0.0
 51
90.0
  0
ARC
  8
0
 62
7
  6
CONTINUOUS
 10
308.1092431021
 20
161.7494195053
 40
2.0
 50
90.0
 51
180.0
  0
ARC
  8
0
 62
7
  6
CONTINUOUS
 10
299.6092431021
 20
161.7494195053
 40
2.0
 50
0.0
 51
90.0
  0
ARC
  8
0
 62
7
  6
CONTINUOUS
 10
339.8592431021
 20
148.4129439313
 40
0.5
 50
180.0
 51
239.9451466012
  0
ARC
  8
0
 62
7
  6
CONTINUOUS
 10
331.7592431021
 20
148.948677085
 40
0.5
 50
317.0231271456
 51
360.0
  0
ARC
  8
0
 62
7
  6
CONTINUOUS
 10
326.7592431021
 20
148.948677085
 40
0.5
 50
180.0
 51
223.0008752289
  0
ARC
  8
0
 62
7
  6
CONTINUOUS
 10
329.3092431021
 20
151.2334090167
 40
3.85
 50
270.0
 51
316.9991247711
  0
ARC
  8
0
 62
7
  6
CONTINUOUS
 10
329.2092431021
 20
151.2334090167
 40
3.85
 50
223.0008752289
 51
270.0
  0
ARC
  8
0
 62
7
  6
CONTINUOUS
 10
353.6092431021
 20
148.4129439313
 40
0.5
 50
180.0
 51
239.9427043693
  0
ARC
  8
0
 62
7
  6
CONTINUOUS
 10
344.8592431021
 20
148.4129439313
 40
0.5
 50
300.0548535107
 51
360.0
  0
ARC
  8
0
 62
7
  6
CONTINUOUS
 10
339.5092431021
 20
152.3649431729
 40
0.15
 50
165.9637565321
 51
180.0
  0
ARC
  8
0
 62
7
  6
CONTINUOUS
 10
332.1092431021
 20
152.3649431729
 40
0.15
 50
0.0
 51
14.0362434679
  0
ARC
  8
0
 62
7
  6
CONTINUOUS
 10
326.4092431021
 20
152.3649431729
 40
0.15
 50
165.9637565321
 51
180.0
  0
ARC
  8
0
 62
7
  6
CONTINUOUS
 10
339.6092431021
 20
155.4449618296
 40
0.5
 50
345.9637565321
 51
360.0
  0
ARC
  8
0
 62
7
  6
CONTINUOUS
 10
332.0092431021
 20
155.4449618296
 40
0.5
 50
180.0
 51
194.0362434679
  0
ARC
  8
0
 62
7
  6
CONTINUOUS
 10
326.5092431021
 20
155.4449618296
 40
0.5
 50
345.9637565321
 51
360.0
  0
ARC
  8
0
 62
7
  6
CONTINUOUS
 10
356.6092431021
 20
151.9250756834
 40
4.5416666667
 50
270.0
 51
299.6595537732
  0
ARC
  8
0
 62
7
  6
CONTINUOUS
 10
341.8592431021
 20
151.9250756834
 40
4.5416666667
 50
240.3404462268
 51
270.0
  0
ARC
  8
0
 62
7
  6
CONTINUOUS
 10
342.8592431021
 20
151.9250756834
 40
4.5416666667
 50
270.0
 51
299.6595537732
  0
ARC
  8
0
 62
7
  6
CONTINUOUS
 10
355.6092431021
 20
151.9250756834
 40
4.5416666667
 50
240.3404462268
 51
270.0
  0
ARC
  8
0
 62
7
  6
CONTINUOUS
 10
345.2092431021
 20
152.3649431729
 40
0.15
 50
0.0
 51
14.0362434679
  0
ARC
  8
0
 62
7
  6
CONTINUOUS
 10
353.2592431021
 20
152.3649431729
 40
0.15
 50
165.9637565321
 51
180.0
  0
ARC
  8
0
 62
7
  6
CONTINUOUS
 10
345.1092431021
 20
155.4449618296
 40
0.5
 50
180.0
 51
194.0362434679
  0
ARC
  8
0
 62
7
  6
CONTINUOUS
 10
353.3592431021
 20
155.4449618296
 40
0.5
 50
345.9637565321
 51
360.0
  0
ARC
  8
0
 62
7
  6
CONTINUOUS
 10
385.3608601339
 20
150.7734090167
 40
3.39
 50
235.8168896647
 51
270.0
  0
ARC
  8
0
 62
7
  6
CONTINUOUS
 10
387.1076260703
 20
150.7734090167
 40
3.39
 50
270.0
 51
304.1835088075
  0
ARC
  8
0
 62
7
  6
CONTINUOUS
 10
373.3992431021
 20
151.7134090167
 40
1.5
 50
282.6022648415
 51
360.0
  0
ARC
  8
0
 62
7
  6
CONTINUOUS
 10
367.8192431021
 20
151.7134090167
 40
1.5
 50
94.1957867777
 51
257.3977351585
  0
ARC
  8
0
 62
7
  6
CONTINUOUS
 10
368.1092431021
 20
148.4129439313
 40
0.5
 50
180.0
 51
239.9427043665
  0
ARC
  8
0
 62
7
  6
CONTINUOUS
 10
383.7342431021
 20
148.3846400803
 40
0.5
 50
180.0
 51
235.1786995907
  0
ARC
  8
0
 62
7
  6
CONTINUOUS
 10
388.7342431021
 20
148.3846400803
 40
0.5
 50
304.8339279469
 51
360.0
  0
ARC
  8
0
 62
7
  6
CONTINUOUS
 10
358.6092431021
 20
148.4129439313
 40
0.5
 50
300.0548533651
 51
360.0
  0
ARC
  8
0
 62
7
  6
CONTINUOUS
 10
373.1092431021
 20
148.4129439313
 40
0.5
 50
300.0548534822
 51
360.0
  0
ARC
  8
0
 62
7
  6
CONTINUOUS
 10
373.7592431021
 20
150.1031605887
 40
0.15
 50
102.6022648414
 51
180.0
  0
ARC
  8
0
 62
7
  6
CONTINUOUS
 10
367.4592431021
 20
150.1031605887
 40
0.15
 50
0.0
 51
77.3977351585
  0
ARC
  8
0
 62
7
  6
CONTINUOUS
 10
370.1092431021
 20
151.9250756834
 40
4.5416666667
 50
240.3404462268
 51
270.0
  0
ARC
  8
0
 62
7
  6
CONTINUOUS
 10
371.1092431021
 20
151.9250756834
 40
4.5416666667
 50
270.0
 51
299.6595537732
  0
ARC
  8
0
 62
7
  6
CONTINUOUS
 10
358.8592431021
 20
155.4449618296
 40
0.5
 50
180.0
 51
194.0362434679
  0
ARC
  8
0
 62
7
  6
CONTINUOUS
 10
367.8592431021
 20
155.4449618296
 40
0.5
 50
345.9637565321
 51
360.0
  0
ARC
  8
0
 62
7
  6
CONTINUOUS
 10
373.3592431021
 20
155.4449618296
 40
0.5
 50
180.0
 51
194.0362434679
  0
ARC
  8
0
 62
7
  6
CONTINUOUS
 10
383.4842431021
 20
155.4449618296
 40
0.5
 50
345.9637565321
 51
360.0
  0
ARC
  8
0
 62
7
  6
CONTINUOUS
 10
388.9842431021
 20
155.4449618296
 40
0.5
 50
180.0
 51
194.0362434679
  0
ARC
  8
0
 62
7
  6
CONTINUOUS
 10
373.4592431021
 20
152.3649431729
 40
0.15
 50
0.0
 51
14.0362434679
  0
ARC
  8
0
 62
7
  6
CONTINUOUS
 10
358.9592431021
 20
152.3649431729
 40
0.15
 50
0.0
 51
14.0362434679
  0
ARC
  8
0
 62
7
  6
CONTINUOUS
 10
367.7592431021
 20
152.3649431729
 40
0.15
 50
165.9637565321
 51
180.0
  0
ARC
  8
0
 62
7
  6
CONTINUOUS
 10
367.6985210834
 20
153.3589867859
 40
0.15
 50
274.1957867777
 51
345.9637565321
  0
ARC
  8
0
 62
7
  6
CONTINUOUS
 10
383.3842431021
 20
152.3649431729
 40
0.15
 50
165.9637565321
 51
180.0
  0
ARC
  8
0
 62
7
  6
CONTINUOUS
 10
389.0842431021
 20
152.3649431729
 40
0.15
 50
0.0
 51
14.0362869855
  0
ARC
  8
0
 62
7
  6
CONTINUOUS
 10
394.4842431021
 20
158.7249056341
 40
6.0
 50
110.8827821952
 51
180.0
  0
ARC
  8
0
 62
7
  6
CONTINUOUS
 10
379.9842431021
 20
160.1334090167
 40
4.0
 50
0.0
 51
90.0
  0
ARC
  8
0
 62
7
  6
CONTINUOUS
 10
375.8592431021
 20
161.1334090167
 40
3.0
 50
90.0
 51
180.0
  0
ARC
  8
0
 62
7
  6
CONTINUOUS
 10
347.3092431021
 20
161.2834090167
 40
2.7
 50
90.0
 51
180.0
  0
ARC
  8
0
 62
7
  6
CONTINUOUS
 10
351.1592431021
 20
161.2834090167
 40
2.7
 50
0.0
 51
90.0
  0
ARC
  8
0
 62
7
  6
CONTINUOUS
 10
361.0592431021
 20
161.2834090167
 40
2.7
 50
90.0
 51
180.0
  0
ARC
  8
0
 62
7
  6
CONTINUOUS
 10
365.6592431021
 20
161.2834090167
 40
2.7
 50
0.0
 51
90.0
  0
ARC
  8
0
 62
7
  6
CONTINUOUS
 10
337.6092431021
 20
161.2494195053
 40
2.5
 50
0.0
 51
90.0
  0
ARC
  8
0
 62
7
  6
CONTINUOUS
 10
333.5092431021
 20
161.7494195053
 40
2.0
 50
90.0
 51
180.0
  0
ARC
  8
0
 62
7
  6
CONTINUOUS
 10
325.0092431021
 20
161.7494195053
 40
2.0
 50
0.0
 51
90.0
  0
ARC
  8
0
 62
7
  6
CONTINUOUS
 10
375.8992431021
 20
163.1334090167
 40
1.0
 50
92.2906100426
 51
180.0
  0
ARC
  8
0
 62
7
  6
CONTINUOUS
 10
363.2492431021
 20
161.2441367787
 40
0.8
 50
107.25
 51
180.0
  0
ARC
  8
0
 62
7
  6
CONTINUOUS
 10
363.2492431021
 20
156.0226812548
 40
0.8
 50
180.0
 51
252.750000567
  0
ARC
  8
0
 62
7
  6
CONTINUOUS
 10
316.5592431021
 20
169.2334090167
 40
4.1
 50
180.0
 51
360.0
  0
ARC
  8
0
 62
7
  6
CONTINUOUS
 10
291.1592431021
 20
169.2334090167
 40
4.1
 50
180.0
 51
360.0
  0
ARC
  8
0
 62
7
  6
CONTINUOUS
 10
278.4592431021
 20
169.2334090167
 40
4.1
 50
180.0
 51
360.0
  0
ARC
  8
0
 62
7
  6
CONTINUOUS
 10
265.7592431021
 20
169.2334090167
 40
4.1
 50
180.0
 51
360.0
  0
ARC
  8
0
 62
7
  6
CONTINUOUS
 10
253.0592431021
 20
169.2334090167
 40
4.1
 50
180.0
 51
360.0
  0
ARC
  8
0
 62
7
  6
CONTINUOUS
 10
303.8592431021
 20
169.2334090167
 40
4.1
 50
180.0
 51
360.0
  0
ARC
  8
0
 62
7
  6
CONTINUOUS
 10
320.1592431021
 20
173.4218562039
 40
0.5
 50
0.0
 51
14.0362434679
  0
ARC
  8
0
 62
7
  6
CONTINUOUS
 10
312.9592431021
 20
173.4218562039
 40
0.5
 50
165.9637565321
 51
180.0
  0
ARC
  8
0
 62
7
  6
CONTINUOUS
 10
294.7592431021
 20
173.4218562039
 40
0.5
 50
0.0
 51
14.0362434679
  0
ARC
  8
0
 62
7
  6
CONTINUOUS
 10
287.5592431021
 20
173.4218562039
 40
0.5
 50
165.9637565321
 51
180.0
  0
ARC
  8
0
 62
7
  6
CONTINUOUS
 10
274.8592431021
 20
173.4218562039
 40
0.5
 50
165.9637565321
 51
180.0
  0
ARC
  8
0
 62
7
  6
CONTINUOUS
 10
282.0592431021
 20
173.4218562039
 40
0.5
 50
0.0
 51
14.0362434679
  0
ARC
  8
0
 62
7
  6
CONTINUOUS
 10
262.1592431021
 20
173.4218562039
 40
0.5
 50
165.9637565321
 51
180.0
  0
ARC
  8
0
 62
7
  6
CONTINUOUS
 10
269.3592431021
 20
173.4218562039
 40
0.5
 50
0.0
 51
14.0362434679
  0
ARC
  8
0
 62
7
  6
CONTINUOUS
 10
249.4592431021
 20
173.4218562039
 40
0.5
 50
165.9637565321
 51
180.0
  0
ARC
  8
0
 62
7
  6
CONTINUOUS
 10
256.6592431021
 20
173.4218562039
 40
0.5
 50
0.0
 51
14.0362434679
  0
ARC
  8
0
 62
7
  6
CONTINUOUS
 10
307.4592431021
 20
173.4218562039
 40
0.5
 50
0.0
 51
14.0362434679
  0
ARC
  8
0
 62
7
  6
CONTINUOUS
 10
300.2592431021
 20
173.4218562039
 40
0.5
 50
165.9637565321
 51
180.0
  0
ARC
  8
0
 62
7
  6
CONTINUOUS
 10
320.6592431021
 20
180.7334090167
 40
0.75
 50
90.0
 51
180.0
  0
ARC
  8
0
 62
7
  6
CONTINUOUS
 10
312.4592431021
 20
180.7334090167
 40
0.75
 50
0.0
 51
90.0
  0
ARC
  8
0
 62
7
  6
CONTINUOUS
 10
295.2592431021
 20
180.7334090167
 40
0.75
 50
90.0
 51
180.0
  0
ARC
  8
0
 62
7
  6
CONTINUOUS
 10
287.0592431021
 20
180.7334090167
 40
0.75
 50
0.0
 51
90.0
  0
ARC
  8
0
 62
7
  6
CONTINUOUS
 10
274.3592431021
 20
180.7334090167
 40
0.75
 50
0.0
 51
90.0
  0
ARC
  8
0
 62
7
  6
CONTINUOUS
 10
282.5592431021
 20
180.7334090167
 40
0.75
 50
90.0
 51
180.0
  0
ARC
  8
0
 62
7
  6
CONTINUOUS
 10
261.6592431021
 20
180.7334090167
 40
0.75
 50
0.0
 51
90.0
  0
ARC
  8
0
 62
7
  6
CONTINUOUS
 10
269.8592431021
 20
180.7334090167
 40
0.75
 50
90.0
 51
180.0
  0
ARC
  8
0
 62
7
  6
CONTINUOUS
 10
248.9592431021
 20
180.7334090167
 40
0.75
 50
0.0
 51
90.0
  0
ARC
  8
0
 62
7
  6
CONTINUOUS
 10
257.1592431021
 20
180.7334090167
 40
0.75
 50
90.0
 51
180.0
  0
ARC
  8
0
 62
7
  6
CONTINUOUS
 10
307.9592431021
 20
180.7334090167
 40
0.75
 50
90.0
 51
180.0
  0
ARC
  8
0
 62
7
  6
CONTINUOUS
 10
299.7592431021
 20
180.7334090167
 40
0.75
 50
0.0
 51
90.0
  0
ARC
  8
0
 62
7
  6
CONTINUOUS
 10
320.0592431021
 20
176.5018748606
 40
0.15
 50
180.0
 51
194.0362434679
  0
ARC
  8
0
 62
7
  6
CONTINUOUS
 10
313.0592431021
 20
176.5018748606
 40
0.15
 50
345.9637565321
 51
360.0
  0
ARC
  8
0
 62
7
  6
CONTINUOUS
 10
294.6592431021
 20
176.5018748606
 40
0.15
 50
180.0
 51
194.0362434679
  0
ARC
  8
0
 62
7
  6
CONTINUOUS
 10
287.6592431021
 20
176.5018748606
 40
0.15
 50
345.9637565321
 51
360.0
  0
ARC
  8
0
 62
7
  6
CONTINUOUS
 10
274.9592431021
 20
176.5018748606
 40
0.15
 50
345.9637565321
 51
360.0
  0
ARC
  8
0
 62
7
  6
CONTINUOUS
 10
281.9592431021
 20
176.5018748606
 40
0.15
 50
180.0
 51
194.0362434679
  0
ARC
  8
0
 62
7
  6
CONTINUOUS
 10
262.2592431021
 20
176.5018748606
 40
0.15
 50
345.9637565321
 51
360.0
  0
ARC
  8
0
 62
7
  6
CONTINUOUS
 10
269.2592431021
 20
176.5018748606
 40
0.15
 50
180.0
 51
194.0362434679
  0
ARC
  8
0
 62
7
  6
CONTINUOUS
 10
249.5592431021
 20
176.5018748606
 40
0.15
 50
345.9637565321
 51
360.0
  0
ARC
  8
0
 62
7
  6
CONTINUOUS
 10
256.5592431021
 20
176.5018748606
 40
0.15
 50
180.0
 51
194.0362434679
  0
ARC
  8
0
 62
7
  6
CONTINUOUS
 10
307.3592431021
 20
176.5018748606
 40
0.15
 50
180.0
 51
194.0362434679
  0
ARC
  8
0
 62
7
  6
CONTINUOUS
 10
300.3592431021
 20
176.5018748606
 40
0.15
 50
345.9637565321
 51
360.0
  0
ARC
  8
0
 62
7
  6
CONTINUOUS
 10
386.6592431021
 20
170.2119416254
 40
5.5285326087
 50
270.0
 51
326.6401826283
  0
ARC
  8
0
 62
7
  6
CONTINUOUS
 10
369.8592431021
 20
169.2834090167
 40
4.5
 50
180.0
 51
270.0
  0
ARC
  8
0
 62
7
  6
CONTINUOUS
 10
371.3592431021
 20
169.2834090167
 40
4.5
 50
270.0
 51
360.0
  0
ARC
  8
0
 62
7
  6
CONTINUOUS
 10
384.8592431021
 20
169.1834090167
 40
4.5
 50
180.0
 51
270.0
  0
ARC
  8
0
 62
7
  6
CONTINUOUS
 10
329.2592431021
 20
169.2334090167
 40
4.1
 50
180.0
 51
360.0
  0
ARC
  8
0
 62
7
  6
CONTINUOUS
 10
355.2092431021
 20
168.7834090167
 40
3.85
 50
180.0
 51
270.0
  0
ARC
  8
0
 62
7
  6
CONTINUOUS
 10
357.0092431021
 20
168.7834090167
 40
3.85
 50
270.0
 51
360.0
  0
ARC
  8
0
 62
7
  6
CONTINUOUS
 10
341.7092431021
 20
168.7834090167
 40
3.85
 50
180.0
 51
270.0
  0
ARC
  8
0
 62
7
  6
CONTINUOUS
 10
343.0092431021
 20
168.7834090167
 40
3.85
 50
270.0
 51
360.0
  0
ARC
  8
0
 62
7
  6
CONTINUOUS
 10
393.6092431021
 20
167.9840316314
 40
3.0
 50
290.0
 51
360.0
  0
ARC
  8
0
 62
7
  6
CONTINUOUS
 10
380.8592431021
 20
173.4218562039
 40
0.5
 50
165.9637565321
 51
180.0
  0
ARC
  8
0
 62
7
  6
CONTINUOUS
 10
365.8592431021
 20
173.4218562039
 40
0.5
 50
165.9637565321
 51
180.0
  0
ARC
  8
0
 62
7
  6
CONTINUOUS
 10
375.3592431021
 20
173.4218562039
 40
0.5
 50
0.0
 51
14.0362434679
  0
ARC
  8
0
 62
7
  6
CONTINUOUS
 10
351.8592431021
 20
173.4218562039
 40
0.5
 50
165.9637565321
 51
180.0
  0
ARC
  8
0
 62
7
  6
CONTINUOUS
 10
360.3592431021
 20
173.4218562039
 40
0.5
 50
0.0
 51
14.0362434679
  0
ARC
  8
0
 62
7
  6
CONTINUOUS
 10
332.8592431021
 20
173.4218562039
 40
0.5
 50
0.0
 51
14.0362434679
  0
ARC
  8
0
 62
7
  6
CONTINUOUS
 10
325.6592431021
 20
173.4218562039
 40
0.5
 50
165.9637565321
 51
180.0
  0
ARC
  8
0
 62
7
  6
CONTINUOUS
 10
338.3592431021
 20
173.4218562039
 40
0.5
 50
165.9637565321
 51
180.0
  0
ARC
  8
0
 62
7
  6
CONTINUOUS
 10
346.3592431021
 20
173.4218562039
 40
0.5
 50
0.0
 51
14.0362434679
  0
ARC
  8
0
 62
7
  6
CONTINUOUS
 10
390.8592431021
 20
167.4467761337
 40
0.5
 50
326.6401826283
 51
356.9628175725
  0
ARC
  8
0
 62
7
  6
CONTINUOUS
 10
395.1092431021
 20
180.8520307365
 40
1.5
 50
0.0
 51
110.0
  0
ARC
  8
0
 62
7
  6
CONTINUOUS
 10
365.3592431021
 20
180.7334090167
 40
0.75
 50
0.0
 51
90.0
  0
ARC
  8
0
 62
7
  6
CONTINUOUS
 10
360.8592431021
 20
180.7334090167
 40
0.75
 50
90.0
 51
180.0
  0
ARC
  8
0
 62
7
  6
CONTINUOUS
 10
351.3592431021
 20
180.7334090167
 40
0.75
 50
0.0
 51
90.0
  0
ARC
  8
0
 62
7
  6
CONTINUOUS
 10
346.8592431021
 20
180.7334090167
 40
0.75
 50
90.0
 51
180.0
  0
ARC
  8
0
 62
7
  6
CONTINUOUS
 10
337.8592431021
 20
180.7334090167
 40
0.75
 50
0.0
 51
90.0
  0
ARC
  8
0
 62
7
  6
CONTINUOUS
 10
333.3592431021
 20
180.7334090167
 40
0.75
 50
90.0
 51
180.0
  0
ARC
  8
0
 62
7
  6
CONTINUOUS
 10
325.1592431021
 20
180.7334090167
 40
0.75
 50
0.0
 51
90.0
  0
ARC
  8
0
 62
7
  6
CONTINUOUS
 10
380.3592431021
 20
180.7334090167
 40
0.75
 50
0.0
 51
90.0
  0
ARC
  8
0
 62
7
  6
CONTINUOUS
 10
375.8592431021
 20
180.7334090167
 40
0.75
 50
90.0
 51
180.0
  0
ARC
  8
0
 62
7
  6
CONTINUOUS
 10
380.9592431021
 20
176.5018748606
 40
0.15
 50
345.9637565321
 51
360.0
  0
ARC
  8
0
 62
7
  6
CONTINUOUS
 10
375.2592431021
 20
176.5018748606
 40
0.15
 50
180.0
 51
194.0362434679
  0
ARC
  8
0
 62
7
  6
CONTINUOUS
 10
360.2592431021
 20
176.5018748606
 40
0.15
 50
180.0
 51
194.0362434679
  0
ARC
  8
0
 62
7
  6
CONTINUOUS
 10
365.9592431021
 20
176.5018748606
 40
0.15
 50
345.9637565321
 51
360.0
  0
ARC
  8
0
 62
7
  6
CONTINUOUS
 10
346.2592431021
 20
176.5018748606
 40
0.15
 50
180.0
 51
194.0362434679
  0
ARC
  8
0
 62
7
  6
CONTINUOUS
 10
351.9592431021
 20
176.5018748606
 40
0.15
 50
345.9637565321
 51
360.0
  0
ARC
  8
0
 62
7
  6
CONTINUOUS
 10
332.7592431021
 20
176.5018748606
 40
0.15
 50
180.0
 51
194.0362434679
  0
ARC
  8
0
 62
7
  6
CONTINUOUS
 10
325.7592431021
 20
176.5018748606
 40
0.15
 50
345.9637565321
 51
360.0
  0
ARC
  8
0
 62
7
  6
CONTINUOUS
 10
338.4592431021
 20
176.5018748606
 40
0.15
 50
345.9637565321
 51
360.0
  0
ARC
  8
DEFAULT_2
 62
8
  6
HIDDEN
 10
429.5440274488
 20
322.3657557818
 40
22.0
 50
344.4704960349
 51
360.0
  0
ARC
  8
SURFACE
 62
8
  6
HIDDEN
 10
429.5440274488
 20
322.3657557818
 40
22.0
 50
344.4704960349
 51
360.0
  0
ARC
  8
DEFAULT_2
 62
8
  6
HIDDEN
 10
437.8100379373
 20
320.3657557818
 40
4.0
 50
180.0
 51
270.0
  0
ARC
  8
SURFACE
 62
8
  6
HIDDEN
 10
437.8100379373
 20
320.3657557818
 40
4.0
 50
180.0
 51
255.5658219453
  0
ARC
  8
SURFACE
 62
7
  6
CONTINUOUS
 10
437.8100379373
 20
320.3657557818
 40
4.0
 50
255.5658219453
 51
270.0
  0
ARC
  8
DEFAULT_2
 62
8
  6
HIDDEN
 10
437.8100379373
 20
324.3657557818
 40
4.0
 50
90.0
 51
180.0
  0
ARC
  8
SURFACE
 62
8
  6
HIDDEN
 10
437.8100379373
 20
324.3657557818
 40
4.0
 50
126.2574112487
 51
180.0
  0
ARC
  8
SURFACE
 62
7
  6
CONTINUOUS
 10
437.8100379373
 20
324.3657557818
 40
4.0
 50
90.0
 51
126.2574112487
  0
CIRCLE
  8
DEFAULT_2
 62
8
  6
HIDDEN
 10
438.1600379373
 20
322.3657557818
 40
2.75
  0
CIRCLE
  8
SURFACE
 62
7
  6
CONTINUOUS
 10
438.1600379373
 20
322.3657557818
 40
2.75
  0
CIRCLE
  8
DEFAULT_2
 62
8
  6
HIDDEN
 10
438.1600379373
 20
322.3657557818
 40
2.1
  0
CIRCLE
  8
SURFACE
 62
7
  6
CONTINUOUS
 10
438.1600379373
 20
322.3657557818
 40
2.1
  0
ARC
  8
SURFACE
 62
8
  6
HIDDEN
 10
456.6600379373
 20
297.3657557818
 40
10.0
 50
62.0024933084
 51
116.7491396165
  0
ARC
  8
DEFAULT_2
 62
8
  6
HIDDEN
 10
456.6600379373
 20
297.3657557818
 40
10.0
 50
62.0024933084
 51
116.7491396165
  0
ARC
  8
SURFACE
 62
8
  6
HIDDEN
 10
452.6092726534
 20
305.4026271018
 40
1.0
 50
116.7491396165
 51
185.7
  0
ARC
  8
DEFAULT_2
 62
8
  6
HIDDEN
 10
452.6092726534
 20
305.4026271018
 40
1.0
 50
116.7491396164
 51
185.7
  0
ARC
  8
DEFAULT_2
 62
8
  6
HIDDEN
 10
452.7526914777
 20
303.9657557818
 40
1.0
 50
185.7
 51
270.0
  0
ARC
  8
SURFACE
 62
7
  6
CONTINUOUS
 10
452.7526914777
 20
303.9657557818
 40
1.0
 50
185.7
 51
270.0
  0
ARC
  8
SURFACE
 62
7
  6
CONTINUOUS
 10
460.640197109
 20
303.9657557818
 40
1.0
 50
270.0
 51
349.7
  0
ARC
  8
0
 62
7
  6
CONTINUOUS
 10
460.640197109
 20
303.9657557818
 40
1.0
 50
270.0
 51
349.7
  0
ARC
  8
SURFACE
 62
8
  6
HIDDEN
 10
460.8849362135
 20
305.3124679994
 40
0.9999999717
 50
349.6999985873
 51
62.0024937192
  0
ARC
  8
DEFAULT_2
 62
8
  6
HIDDEN
 10
460.8849362135
 20
305.3124679994
 40
0.9999999717
 50
349.6999985655
 51
62.0024937192
  0
ARC
  8
DEFAULT_2
 62
8
  6
HIDDEN
 10
450.0574600726
 20
315.8657557818
 40
0.5
 50
25.1557443162
 51
90.0
  0
ARC
  8
DEFAULT_2
 62
8
  6
HIDDEN
 10
450.0574600726
 20
315.8657557818
 40
0.5
 50
5.7
 51
19.7559529814
  0
ARC
  8
SURFACE
 62
7
  6
CONTINUOUS
 10
450.0574600726
 20
315.8657557818
 40
0.5
 50
5.7
 51
90.0
  0
ARC
  8
0
 62
7
  6
CONTINUOUS
 10
450.0574600726
 20
315.8657557818
 40
0.5
 50
19.7559529814
 51
25.1557443162
  0
ARC
  8
SURFACE
 62
8
  6
HIDDEN
 10
450.3100379373
 20
316.5157557818
 40
0.15
 50
180.0
 51
270.0
  0
ARC
  8
DEFAULT_2
 62
8
  6
HIDDEN
 10
450.3100379373
 20
316.5157557818
 40
0.15
 50
180.0
 51
270.0
  0
ARC
  8
DEFAULT_2
 62
8
  6
HIDDEN
 10
450.5963432359
 20
316.5157557818
 40
0.15
 50
270.0
 51
344.4704960349
  0
ARC
  8
SURFACE
 62
8
  6
HIDDEN
 10
450.5963432359
 20
316.5157557818
 40
0.15
 50
270.0
 51
344.4704960349
  0
ARC
  8
SURFACE
 62
8
  6
HIDDEN
 10
450.3100379373
 20
328.2157557818
 40
0.15
 50
90.0
 51
180.0
  0
ARC
  8
DEFAULT_2
 62
8
  6
HIDDEN
 10
450.3100379373
 20
328.2157557818
 40
0.15
 50
90.0
 51
180.0
  0
ARC
  8
DEFAULT_2
 62
8
  6
HIDDEN
 10
450.6600379373
 20
328.2157557818
 40
0.15
 50
90.0
 51
180.0
  0
ARC
  8
DEFAULT_2
 62
8
  6
HIDDEN
 10
451.1600379373
 20
328.2157557818
 40
0.15
 50
0.0
 51
90.0
  0
ARC
  8
DEFAULT_2
 62
8
  6
HIDDEN
 10
451.0100379373
 20
328.2157557818
 40
0.15
 50
0.0
 51
90.0
  0
ARC
  8
DEFAULT_2
 62
8
  6
HIDDEN
 10
450.7600379373
 20
328.2157557818
 40
0.15
 50
90.0
 51
180.0
  0
ARC
  8
SURFACE
 62
8
  6
HIDDEN
 10
450.7600379373
 20
328.2157557818
 40
0.15
 50
90.0
 51
180.0
  0
ARC
  8
DEFAULT_2
 62
8
  6
HIDDEN
 10
450.5100379373
 20
328.2157557818
 40
0.15
 50
90.0
 51
180.0
  0
ARC
  8
SURFACE
 62
8
  6
HIDDEN
 10
450.6600379373
 20
328.2157557818
 40
0.15
 50
90.0
 51
180.0
  0
ARC
  8
SURFACE
 62
8
  6
HIDDEN
 10
450.5100379373
 20
328.2157557818
 40
0.15
 50
90.0
 51
180.0
  0
ARC
  8
SURFACE
 62
8
  6
HIDDEN
 10
451.1600379373
 20
328.2157557818
 40
0.15
 50
0.0
 51
90.0
  0
ARC
  8
SURFACE
 62
8
  6
HIDDEN
 10
451.0100379373
 20
328.2157557818
 40
0.15
 50
0.0
 51
90.0
  0
ARC
  8
DEFAULT_2
 62
8
  6
HIDDEN
 10
451.3940274488
 20
328.2157557818
 40
0.15
 50
0.0
 51
90.0
  0
ARC
  8
SURFACE
 62
8
  6
HIDDEN
 10
451.3940274488
 20
328.2157557818
 40
0.15
 50
0.0
 51
90.0
  0
ARC
  8
SURFACE
 62
8
  6
HIDDEN
 10
455.5100379373
 20
322.3657557818
 40
2.1
 50
90.0
 51
270.0
  0
ARC
  8
0
 62
7
  6
CONTINUOUS
 10
455.5100379373
 20
322.3657557818
 40
2.1
 50
90.0
 51
270.0
  0
ARC
  8
DEFAULT_2
 62
8
  6
HIDDEN
 10
463.9100379373
 20
320.3657557818
 40
4.0
 50
270.0
 51
360.0
  0
ARC
  8
SURFACE
 62
7
  6
CONTINUOUS
 10
463.9100379373
 20
320.3657557818
 40
4.0
 50
270.0
 51
360.0
  0
ARC
  8
DEFAULT_2
 62
8
  6
HIDDEN
 10
464.330947213
 20
315.885483984
 40
0.5
 50
107.7558598549
 51
120.1446898684
  0
ARC
  8
SURFACE
 62
7
  6
CONTINUOUS
 10
464.330947213
 20
315.885483984
 40
0.5
 50
95.367028739
 51
169.7
  0
ARC
  8
0
 62
7
  6
CONTINUOUS
 10
464.330947213
 20
315.885483984
 40
0.5
 50
120.1446898684
 51
169.7
  0
ARC
  8
0
 62
7
  6
CONTINUOUS
 10
464.330947213
 20
315.885483984
 40
0.5
 50
95.367028739
 51
107.7558598549
  0
ARC
  8
DEFAULT_2
 62
8
  6
HIDDEN
 10
463.5600379373
 20
322.3657557818
 40
2.1
 50
270.0
 51
90.0
  0
ARC
  8
SURFACE
 62
7
  6
CONTINUOUS
 10
463.5600379373
 20
322.3657557818
 40
2.1
 50
270.0
 51
90.0
  0
ARC
  8
DEFAULT_2
 62
8
  6
HIDDEN
 10
463.9100379373
 20
324.3657557818
 40
4.0
 50
0.0
 51
21.3960261991
  0
ARC
  8
DEFAULT_2
 62
8
  6
HIDDEN
 10
463.9100379373
 20
324.3657557818
 40
4.0
 50
28.4199349428
 51
84.8682574573
  0
ARC
  8
0
 62
7
  6
CONTINUOUS
 10
463.9100379373
 20
324.3657557818
 40
4.0
 50
21.3960261991
 51
28.4199349428
  0
ARC
  8
0
 62
7
  6
CONTINUOUS
 10
463.9100379373
 20
324.3657557818
 40
4.0
 50
84.8682574573
 51
90.0
  0
ARC
  8
SURFACE
 62
7
  6
CONTINUOUS
 10
463.9100379373
 20
324.3657557818
 40
4.0
 50
0.0
 51
90.0
  0
ENDSEC
  0
EOF
