  0
SECTION
  2
HEADER
  9
$EXTMAX
 10
420.0
 20
297.0
 30
0.0
  9
$EXTMIN
 10
0.0
 20
0.0
 30
0.0
  9
$LIMMIN
 10
0.0
 20
0.0
  9
$LIMMAX
 10
420.0
 20
297.0
  9
$VIEWCTR
 10
210.0
 20
148.5
  9
$VIEWSIZE
 40
297.0
  9
$CLAYER
  8
0
  9
$LTSCALE
 40
23.1
  9
$CELTYPE
  6
BYLAYER
  9
$DIMSCALE
 40
1.0
  9
$DIMASZ
 40
3.5
  9
$DIMEXO
 40
2.625
  9
$DIMDLI
 40
15.96
  9
$DIMEXE
 40
7.56
  9
$DIMCEN
 40
3.78
  9
$DIMLFAC
 40
1.0
  9
$DIMBLK
  1
_FILLED
  9
$DIMTXT
 40
3.5
  9
$PDMODE
 70
3
  9
$PDSIZE
 40
0.3125
  9
$TILEMODE
 70
1
  0
ENDSEC
  0
SECTION
  2
TABLES
  0
TABLE
  2
LTYPE
 70
6
  0
LTYPE
  2
BYBLOCK
 70
0
  3

 72
65
 73
0
 40
0.0
  0
LTYPE
  2
BYLAYER
 70
0
  3

 72
65
 73
0
 40
0.0
  0
LTYPE
  2
CONTINUOUS
 70
64
  3
Solid line
 72
65
 73
0
 40
0.0
  0
LTYPE
  2
CENTER
 70
64
  3
____ _ ____ _ ____ _ ____ _ ____ _ ____ _ ____
 72
65
 73
4
 40
0.6
 49
0.375
 49
-0.075
 49
0.075
 49
-0.075
  0
LTYPE
  2
HIDDEN
 70
64
  3
- - - - - - - - - - - - - - - - - - - -
 72
65
 73
2
 40
0.2
 49
0.1
 49
-0.1
  0
LTYPE
  2
PHANTOM
 70
64
  3
_____ _ _ _____ _ _ _____ _ _ _____
 72
65
 73
6
 40
0.8
 49
0.45
 49
-0.05
 49
0.1
 49
-0.05
 49
0.1
 49
-0.05
  0
LTYPE
  2
DOT
 70
64
  3
. . . . . . . . . . . . . . . . . . . .
 72
65
 73
2
 40
0.2
 49
0.1
 49
-0.1
  0
LTYPE
  2
DASHED
 70
64
  3
- - - - - - - - - - - - - - - - - - - -
 72
65
 73
2
 40
0.2
 49
0.1
 49
-0.1
  0
ENDTAB
  0
TABLE
  2
LAYER
 70
36
  0
LAYER
  2
0
 70
0
 62
7
  6
CONTINUOUS
  0
LAYER
  2
DEFAULT_1
 70
0
 62
7
  6
CENTER
  0
LAYER
  2
DEFAULT_2
 70
0
 62
8
  6
HIDDEN
  0
LAYER
  2
DEFAULT_3
 70
0
 62
7
  6
PHANTOM
  0
LAYER
  2
CURVE
 70
0
 62
7
  6
CONTINUOUS
  0
LAYER
  2
PLAN
 70
0
 62
7
  6
CONTINUOUS
  0
LAYER
  2
SURFACE
 70
0
 62
7
  6
CONTINUOUS
  0
ENDTAB
  0
TABLE
  2
STYLE
 70
1
  0
STYLE
  2
STANDARD
 70
0
 40
0.0
 41
0.8
 50
0.0
 71
0
 42
0.2
  3
txt
  4

  0
STYLE
  2
TEXTSTYLE_1
 70
0
 40
0.0
 41
0.8
 50
0.0
 71
0
 42
0.2
  3
gdt
  4

  0
STYLE
  2
TEXTSTYLE_2
 70
0
 40
0.0
 41
0.6
 50
0.0
 71
0
 42
0.2
  3
txt
  4

  0
STYLE
  2
TEXTSTYLE_3
 70
0
 40
0.0
 41
1.0
 50
0.0
 71
0
 42
0.2
  3
ftb_____.ttf
  4

  0
STYLE
  2
TEXTSTYLE_4
 70
0
 40
0.0
 41
1.0
 50
0.0
 71
0
 42
0.2
  3
fti_____.ttf
  4

  0
STYLE
  2
TEXTSTYLE_5
 70
0
 40
0.0
 41
1.0
 50
0.0
 71
0
 42
0.2
  3
frutiger light.ttf
  4

  0
STYLE
  2
TEXTSTYLE_6
 70
0
 40
0.0
 41
0.7
 50
0.0
 71
0
 42
0.2
  3
txt
  4

  0
STYLE
  2
TEXTSTYLE_7
 70
0
 40
0.0
 41
0.45
 50
0.0
 71
0
 42
0.2
  3
txt
  4

  0
ENDTAB
  0
ENDSEC
  0
SECTION
  2
BLOCKS
  0
BLOCK
  8
0
 62
2
  6
CONTINUOUS
  2
SYMBOL_5_BL1
 70
64
 10
382.7840918555
 20
35.5067593403
  0
TEXT
  8
0
 62
7
  6
CONTINUOUS
 10
373.842376864
 20
30.5995157174
  7
TEXTSTYLE_4
 40
1.0655737705
  1
The brand for plastic modular belts and chains
 41
1.0
 72
0
  0
LINE
  8
0
 62
7
  6
CONTINUOUS
 10
358.7621602445
 20
36.0805298321
 11
358.7621602445
 21
33.9493822911
  0
LINE
  8
0
 62
7
  6
CONTINUOUS
 10
359.0512227376
 20
30.9584509954
 11
359.0512227376
 21
31.0552420547
  0
LINE
  8
0
 62
7
  6
CONTINUOUS
 10
358.7621602445
 20
31.0229783683
 11
358.8199727462
 21
30.8293962497
  0
LINE
  8
0
 62
7
  6
CONTINUOUS
 10
360.1556028675
 20
33.867415078
 11
360.1556028675
 21
36.0805298321
  0
LINE
  8
0
 62
7
  6
CONTINUOUS
 10
361.0746601894
 20
32.0231527829
 11
361.0746601894
 21
30.5067593403
  0
LINE
  8
0
 62
7
  6
CONTINUOUS
 10
361.3637227445
 20
30.5067593403
 11
361.3637227445
 21
31.2488242184
  0
LINE
  8
0
 62
7
  6
CONTINUOUS
 10
361.3637227445
 20
31.3778789641
 11
361.3637227445
 21
32.0231527829
  0
LINE
  8
0
 62
7
  6
CONTINUOUS
 10
358.8199727462
 20
31.216560532
 11
358.7621602445
 21
31.0229783683
  0
LINE
  8
0
 62
7
  6
CONTINUOUS
 10
359.1668477307
 20
30.7971325633
 11
359.0512227376
 21
30.9584509954
  0
LINE
  8
0
 62
7
  6
CONTINUOUS
 10
360.2652852997
 20
31.3133515913
 11
360.3230977445
 21
31.216560532
  0
LINE
  8
0
 62
7
  6
CONTINUOUS
 10
360.6121602997
 20
31.216560532
 11
360.5543476894
 21
31.3456152777
  0
LINE
  8
0
 62
7
  6
CONTINUOUS
 10
362.0408487691
 20
36.0805298321
 11
362.0408487691
 21
34.2772511436
  0
LINE
  8
0
 62
7
  6
CONTINUOUS
 10
362.0408487691
 20
32.9657757338
 11
362.0408487691
 21
32.3100380288
  0
LINE
  8
0
 62
7
  6
CONTINUOUS
 10
362.4043477445
 20
31.1520331591
 11
362.4043477445
 21
30.5067593403
  0
LINE
  8
0
 62
7
  6
CONTINUOUS
 10
362.6934101343
 20
30.5067593403
 11
362.6934101343
 21
31.1520331591
  0
LINE
  8
0
 62
7
  6
CONTINUOUS
 10
359.0512227376
 20
31.0552420547
 11
359.1090352445
 21
31.1842968456
  0
LINE
  8
0
 62
7
  6
CONTINUOUS
 10
358.8199727462
 20
30.8293962497
 11
358.9355977445
 21
30.7003414814
  0
LINE
  8
0
 62
7
  6
CONTINUOUS
 10
362.3465351343
 20
31.2810879048
 11
362.4043477445
 21
31.1520331591
  0
LINE
  8
0
 62
7
  6
CONTINUOUS
 10
363.1559103548
 20
30.7971325633
 11
363.2137226343
 21
30.668077795
  0
LINE
  8
0
 62
7
  6
CONTINUOUS
 10
362.6934101343
 20
31.1520331591
 11
362.6355978548
 21
31.3133515913
  0
LINE
  8
0
 62
7
  6
CONTINUOUS
 10
363.1559103548
 20
31.3456152777
 11
363.1559103548
 21
31.2810879048
  0
LINE
  8
0
 62
7
  6
CONTINUOUS
 10
363.1559103548
 20
30.8939236226
 11
363.1559103548
 21
30.7971325633
  0
LINE
  8
0
 62
7
  6
CONTINUOUS
 10
363.4342913921
 20
32.3100380288
 11
363.4342913921
 21
36.0805298321
  0
LINE
  8
0
 62
7
  6
CONTINUOUS
 10
363.4449727445
 20
30.7648688543
 11
363.4449727445
 21
30.8293962497
  0
LINE
  8
0
 62
7
  6
CONTINUOUS
 10
363.7621602445
 20
36.0805298321
 11
363.7621602445
 21
32.3100380288
  0
LINE
  8
0
 62
7
  6
CONTINUOUS
 10
360.5543476894
 20
30.7003414814
 11
360.6121602997
 21
30.8293962497
  0
LINE
  8
0
 62
7
  6
CONTINUOUS
 10
364.9480979651
 20
30.6035504109
 11
364.890285024
 21
30.7648688543
  0
LINE
  8
0
 62
7
  6
CONTINUOUS
 10
364.6012229651
 20
31.2810879048
 11
364.6012229651
 21
31.1842968456
  0
LINE
  8
0
 62
7
  6
CONTINUOUS
 10
364.6012229651
 20
31.0552420547
 11
364.6012229651
 21
30.8616599362
  0
LINE
  8
0
 62
7
  6
CONTINUOUS
 10
364.890285024
 20
30.7648688543
 11
364.890285024
 21
31.2810879048
  0
LINE
  8
0
 62
7
  6
CONTINUOUS
 10
365.1556028675
 20
32.3100380288
 11
365.1556028675
 21
34.1133167174
  0
LINE
  8
0
 62
7
  6
CONTINUOUS
 10
365.1556028675
 20
35.4247921272
 11
365.1556028675
 21
36.0805298321
  0
LINE
  8
0
 62
7
  6
CONTINUOUS
 10
365.4684104651
 20
32.0231527829
 11
365.4684104651
 21
31.8618343508
  0
LINE
  8
0
 62
7
  6
CONTINUOUS
 10
365.4684104651
 20
31.5391973962
 11
365.4684104651
 21
30.5067593403
  0
LINE
  8
0
 62
7
  6
CONTINUOUS
 10
365.757472524
 20
30.5067593403
 11
365.757472524
 21
31.5391973962
  0
LINE
  8
0
 62
7
  6
CONTINUOUS
 10
365.757472524
 20
31.8618343508
 11
365.757472524
 21
32.0231527829
  0
LINE
  8
0
 62
7
  6
CONTINUOUS
 10
360.3230977445
 20
30.8293962497
 11
360.2652852997
 21
30.7326051679
  0
LINE
  8
0
 62
7
  6
CONTINUOUS
 10
362.6355978548
 20
31.3133515913
 11
362.5777852445
 21
31.3778789641
  0
LINE
  8
0
 62
7
  6
CONTINUOUS
 10
363.5027853548
 20
30.7003414814
 11
363.4449727445
 21
30.7648688543
  0
LINE
  8
0
 62
7
  6
CONTINUOUS
 10
364.6590352445
 20
30.5712867188
 11
364.716847524
 21
30.5067593403
  0
LINE
  8
0
 62
7
  6
CONTINUOUS
 10
364.6012229651
 20
30.668077795
 11
364.6590352445
 21
30.5712867188
  0
LINE
  8
0
 62
7
  6
CONTINUOUS
 10
365.0059102445
 20
30.5067593403
 11
364.9480979651
 21
30.6035504109
  0
LINE
  8
0
 62
7
  6
CONTINUOUS
 10
364.890285024
 20
31.2810879048
 11
364.8324727445
 21
31.3778789641
  0
LINE
  8
0
 62
7
  6
CONTINUOUS
 10
366.2199727445
 20
31.5391973962
 11
366.2199727445
 21
30.5067593403
  0
LINE
  8
0
 62
7
  6
CONTINUOUS
 10
366.5090354651
 20
30.5067593403
 11
366.5090354651
 21
31.2488242184
  0
LINE
  8
0
 62
7
  6
CONTINUOUS
 10
366.5090354651
 20
31.3778789641
 11
366.5090354651
 21
31.5391973962
  0
LINE
  8
0
 62
7
  6
CONTINUOUS
 10
367.0408487691
 20
34.5231527829
 11
367.0408487691
 21
32.3100380288
  0
LINE
  8
0
 62
7
  6
CONTINUOUS
 10
358.9355977445
 20
31.3456152777
 11
358.8199727462
 21
31.216560532
  0
LINE
  8
0
 62
7
  6
CONTINUOUS
 10
359.1090352445
 20
31.1842968456
 11
359.1668477307
 21
31.2488242184
  0
LINE
  8
0
 62
7
  6
CONTINUOUS
 10
358.9355977445
 20
30.7003414814
 11
359.0512227376
 21
30.6358140973
  0
LINE
  8
0
 62
7
  6
CONTINUOUS
 10
359.3402852307
 20
30.7003414814
 11
359.1668477307
 21
30.7971325633
  0
LINE
  8
0
 62
7
  6
CONTINUOUS
 10
364.543410024
 20
31.3456152777
 11
364.6012229651
 21
31.2810879048
  0
LINE
  8
0
 62
7
  6
CONTINUOUS
 10
367.491847524
 20
31.2810879048
 11
367.5496604651
 21
31.1197694727
  0
LINE
  8
0
 62
7
  6
CONTINUOUS
 10
367.838722524
 20
31.1197694727
 11
367.7809102445
 21
31.2810879048
  0
LINE
  8
0
 62
7
  6
CONTINUOUS
 10
367.5496604651
 20
31.1197694727
 11
367.5496604651
 21
30.5067593403
  0
LINE
  8
0
 62
7
  6
CONTINUOUS
 10
367.838722524
 20
30.5067593403
 11
367.838722524
 21
31.1197694727
  0
LINE
  8
0
 62
7
  6
CONTINUOUS
 10
368.3012227445
 20
31.3456152777
 11
368.3012227445
 21
31.2810879048
  0
LINE
  8
0
 62
7
  6
CONTINUOUS
 10
368.4342913921
 20
32.3100380288
 11
368.4342913921
 21
34.4411855698
  0
LINE
  8
0
 62
7
  6
CONTINUOUS
 10
368.7621602445
 20
36.0805298321
 11
368.7621602445
 21
32.3100380288
  0
LINE
  8
0
 62
7
  6
CONTINUOUS
 10
363.4449727445
 20
30.8293962497
 11
363.5027853548
 21
30.926187309
  0
LINE
  8
0
 62
7
  6
CONTINUOUS
 10
359.0512227376
 20
30.6358140973
 11
359.2246602583
 21
30.5712867188
  0
LINE
  8
0
 62
7
  6
CONTINUOUS
 10
360.5543476894
 20
31.3456152777
 11
360.3809101894
 21
31.4424063369
  0
LINE
  8
0
 62
7
  6
CONTINUOUS
 10
363.2137226343
 20
30.668077795
 11
363.3871601343
 21
30.5712867188
  0
LINE
  8
0
 62
7
  6
CONTINUOUS
 10
362.2309102445
 20
31.3456152777
 11
362.3465351343
 21
31.2810879048
  0
LINE
  8
0
 62
7
  6
CONTINUOUS
 10
362.5777852445
 20
31.3778789641
 11
362.4621603548
 21
31.4424063369
  0
LINE
  8
0
 62
7
  6
CONTINUOUS
 10
368.3012227445
 20
30.7648688543
 11
368.4168479651
 21
30.6358140973
  0
LINE
  8
0
 62
7
  6
CONTINUOUS
 10
368.6480977445
 20
30.7003414814
 11
368.5902854651
 21
30.7648688543
  0
LINE
  8
0
 62
7
  6
CONTINUOUS
 10
368.3012227445
 20
31.2810879048
 11
368.4168479651
 21
31.1520331591
  0
LINE
  8
0
 62
7
  6
CONTINUOUS
 10
367.7809102445
 20
31.2810879048
 11
367.7230979651
 21
31.3778789641
  0
LINE
  8
0
 62
7
  6
CONTINUOUS
 10
370.1512223035
 20
30.7003414814
 11
370.1512223035
 21
30.7648688543
  0
LINE
  8
0
 62
7
  6
CONTINUOUS
 10
370.1556028675
 20
32.3100380288
 11
370.1556028675
 21
36.0805298321
  0
LINE
  8
0
 62
7
  6
CONTINUOUS
 10
363.2137226343
 20
31.4101426505
 11
363.1559103548
 21
31.3456152777
  0
LINE
  8
0
 62
7
  6
CONTINUOUS
 10
360.091847717
 20
31.3778789641
 11
360.2652852997
 21
31.3133515913
  0
LINE
  8
0
 62
7
  6
CONTINUOUS
 10
364.8324727445
 20
31.3778789641
 11
364.716847524
 21
31.4424063369
  0
LINE
  8
0
 62
7
  6
CONTINUOUS
 10
368.6480977445
 20
31.216560532
 11
368.5902854651
 21
31.2810879048
  0
LINE
  8
0
 62
7
  6
CONTINUOUS
 10
369.8043479651
 20
30.8293962497
 11
369.8621602445
 21
30.7648688543
  0
LINE
  8
0
 62
7
  6
CONTINUOUS
 10
370.1512223035
 20
30.7648688543
 11
370.0355977445
 21
30.8939236226
  0
LINE
  8
0
 62
7
  6
CONTINUOUS
 10
369.8043479651
 20
31.3456152777
 11
369.8621602445
 21
31.2810879048
  0
LINE
  8
0
 62
7
  6
CONTINUOUS
 10
370.1512223035
 20
31.2810879048
 11
370.0355977445
 21
31.4101426505
  0
LINE
  8
0
 62
7
  6
CONTINUOUS
 10
363.4449727445
 20
31.2810879048
 11
363.5027853548
 21
31.3456152777
  0
LINE
  8
0
 62
7
  6
CONTINUOUS
 10
363.2715352445
 20
31.0229783683
 11
363.1559103548
 21
30.8939236226
  0
LINE
  8
0
 62
7
  6
CONTINUOUS
 10
364.6012229651
 20
30.8616599362
 11
364.543410024
 21
30.7971325633
  0
LINE
  8
0
 62
7
  6
CONTINUOUS
 10
364.543410024
 20
30.6035504109
 11
364.6012229651
 21
30.668077795
  0
LINE
  8
0
 62
7
  6
CONTINUOUS
 10
363.3871601343
 20
30.5712867188
 11
363.5027853548
 21
30.5390230296
  0
LINE
  8
0
 62
7
  6
CONTINUOUS
 10
360.3809101894
 20
31.4424063369
 11
360.1496602445
 21
31.5069337098
  0
LINE
  8
0
 62
7
  6
CONTINUOUS
 10
363.7340351343
 20
30.6358140973
 11
363.5027853548
 21
30.7003414814
  0
LINE
  8
0
 62
7
  6
CONTINUOUS
 10
362.4621603548
 20
31.4424063369
 11
362.2887228548
 21
31.5069337098
  0
LINE
  8
0
 62
7
  6
CONTINUOUS
 10
364.716847524
 20
31.4424063369
 11
364.543410024
 21
31.5069337098
  0
LINE
  8
0
 62
7
  6
CONTINUOUS
 10
367.3762229651
 20
31.3456152777
 11
367.491847524
 21
31.2810879048
  0
LINE
  8
0
 62
7
  6
CONTINUOUS
 10
367.7230979651
 20
31.3778789641
 11
367.6074727445
 21
31.4424063369
  0
LINE
  8
0
 62
7
  6
CONTINUOUS
 10
359.2246602583
 20
30.5712867188
 11
359.3980977583
 21
30.5390230296
  0
LINE
  8
0
 62
7
  6
CONTINUOUS
 10
359.6871602721
 20
30.6358140973
 11
359.3402852307
 21
30.7003414814
  0
LINE
  8
0
 62
7
  6
CONTINUOUS
 10
362.1152853548
 20
31.3778789641
 11
362.2309102445
 21
31.3456152777
  0
LINE
  8
0
 62
7
  6
CONTINUOUS
 10
364.4277854651
 20
31.3778789641
 11
364.543410024
 21
31.3456152777
  0
LINE
  8
0
 62
7
  6
CONTINUOUS
 10
368.7637229651
 20
30.668077795
 11
368.6480977445
 21
30.7003414814
  0
LINE
  8
0
 62
7
  6
CONTINUOUS
 10
367.2605977445
 20
31.3778789641
 11
367.3762229651
 21
31.3456152777
  0
LINE
  8
0
 62
7
  6
CONTINUOUS
 10
368.4168479651
 20
30.6358140973
 11
368.5902854651
 21
30.5712867188
  0
LINE
  8
0
 62
7
  6
CONTINUOUS
 10
367.6074727445
 20
31.4424063369
 11
367.4340352445
 21
31.5069337098
  0
LINE
  8
0
 62
7
  6
CONTINUOUS
 10
368.8215352445
 20
31.1520331591
 11
368.6480977445
 21
31.216560532
  0
LINE
  8
0
 62
7
  6
CONTINUOUS
 10
369.6309104651
 20
30.8939236226
 11
369.8043479651
 21
30.8293962497
  0
LINE
  8
0
 62
7
  6
CONTINUOUS
 10
370.0355977445
 20
31.4101426505
 11
369.8621602445
 21
31.4746700234
  0
LINE
  8
0
 62
7
  6
CONTINUOUS
 10
368.4168479651
 20
31.1520331591
 11
368.6480977445
 21
31.0552420547
  0
LINE
  8
0
 62
7
  6
CONTINUOUS
 10
370.0355977445
 20
30.8939236226
 11
369.8043479651
 21
30.9907146818
  0
LINE
  8
0
 62
7
  6
CONTINUOUS
 10
368.5902854651
 20
31.2810879048
 11
368.6480977445
 21
31.3456152777
  0
LINE
  8
0
 62
7
  6
CONTINUOUS
 10
359.0512227376
 20
31.4101426505
 11
358.9355977445
 21
31.3456152777
  0
LINE
  8
0
 62
7
  6
CONTINUOUS
 10
359.1668477307
 20
31.2488242184
 11
359.3402852307
 21
31.3456152777
  0
LINE
  8
0
 62
7
  6
CONTINUOUS
 10
361.4793477997
 20
31.4424063369
 11
361.3637227445
 21
31.3778789641
  0
LINE
  8
0
 62
7
  6
CONTINUOUS
 10
361.3637227445
 20
31.2488242184
 11
361.4793477997
 21
31.3133515913
  0
LINE
  8
0
 62
7
  6
CONTINUOUS
 10
360.3809101894
 20
30.6035504109
 11
360.5543476894
 21
30.7003414814
  0
LINE
  8
0
 62
7
  6
CONTINUOUS
 10
359.3980977583
 20
30.5390230296
 11
359.744972717
 21
30.5067593403
  0
LINE
  8
0
 62
7
  6
CONTINUOUS
 10
363.5027853548
 20
30.5390230296
 11
363.7340351343
 21
30.5067593403
  0
LINE
  8
0
 62
7
  6
CONTINUOUS
 10
361.8840352445
 20
31.4101426505
 11
362.1152853548
 21
31.3778789641
  0
LINE
  8
0
 62
7
  6
CONTINUOUS
 10
364.1965353548
 20
31.4101426505
 11
364.4277854651
 21
31.3778789641
  0
LINE
  8
0
 62
7
  6
CONTINUOUS
 10
368.6480977445
 20
31.0552420547
 11
369.6309104651
 21
30.8939236226
  0
LINE
  8
0
 62
7
  6
CONTINUOUS
 10
369.8043479651
 20
30.9907146818
 11
368.8215352445
 21
31.1520331591
  0
LINE
  8
0
 62
7
  6
CONTINUOUS
 10
362.2887228548
 20
31.5069337098
 11
362.1152853548
 21
31.5391973962
  0
LINE
  8
0
 62
7
  6
CONTINUOUS
 10
368.5902854651
 20
30.5712867188
 11
368.7637229651
 21
30.5390230296
  0
LINE
  8
0
 62
7
  6
CONTINUOUS
 10
367.4340352445
 20
31.5069337098
 11
367.2605977445
 21
31.5391973962
  0
LINE
  8
0
 62
7
  6
CONTINUOUS
 10
369.6887227445
 20
31.3778789641
 11
369.8043479651
 21
31.3456152777
  0
LINE
  8
0
 62
7
  6
CONTINUOUS
 10
369.8621602445
 20
30.7648688543
 11
369.8043479651
 21
30.7003414814
  0
LINE
  8
0
 62
7
  6
CONTINUOUS
 10
368.4168479651
 20
31.4424063369
 11
368.3012227445
 21
31.3456152777
  0
LINE
  8
0
 62
7
  6
CONTINUOUS
 10
363.3293478548
 20
31.4746700234
 11
363.2137226343
 21
31.4101426505
  0
LINE
  8
0
 62
7
  6
CONTINUOUS
 10
363.3871601343
 20
31.0875057863
 11
363.2715352445
 21
31.0229783683
  0
LINE
  8
0
 62
7
  6
CONTINUOUS
 10
363.5027853548
 20
30.926187309
 11
363.6184102445
 21
30.9907146818
  0
LINE
  8
0
 62
7
  6
CONTINUOUS
 10
361.0746601894
 20
30.5067593403
 11
361.3637227445
 21
30.5067593403
  0
LINE
  8
0
 62
7
  6
CONTINUOUS
 10
362.4043477445
 20
30.5067593403
 11
362.6934101343
 21
30.5067593403
  0
LINE
  8
0
 62
7
  6
CONTINUOUS
 10
363.7340351343
 20
30.5067593403
 11
364.0809101343
 21
30.5067593403
  0
LINE
  8
0
 62
7
  6
CONTINUOUS
 10
364.716847524
 20
30.5067593403
 11
365.0059102445
 21
30.5067593403
  0
LINE
  8
0
 62
7
  6
CONTINUOUS
 10
365.4684104651
 20
30.5067593403
 11
365.757472524
 21
30.5067593403
  0
LINE
  8
0
 62
7
  6
CONTINUOUS
 10
366.2199727445
 20
30.5067593403
 11
366.5090354651
 21
30.5067593403
  0
LINE
  8
0
 62
7
  6
CONTINUOUS
 10
367.5496604651
 20
30.5067593403
 11
367.838722524
 21
30.5067593403
  0
LINE
  8
0
 62
7
  6
CONTINUOUS
 10
369.1105979651
 20
30.5067593403
 11
369.4574729651
 21
30.5067593403
  0
LINE
  8
0
 62
7
  6
CONTINUOUS
 10
369.4574729651
 20
30.6358140973
 11
369.1105979651
 21
30.6358140973
  0
LINE
  8
0
 62
7
  6
CONTINUOUS
 10
364.0809101343
 20
30.6358140973
 11
363.7340351343
 21
30.6358140973
  0
LINE
  8
0
 62
7
  6
CONTINUOUS
 10
368.5902854651
 20
30.7648688543
 11
368.3012227445
 21
30.7648688543
  0
LINE
  8
0
 62
7
  6
CONTINUOUS
 10
360.6121602997
 20
30.8293962497
 11
360.3230977445
 21
30.8293962497
  0
LINE
  8
0
 62
7
  6
CONTINUOUS
 10
359.6871602721
 20
31.4101426505
 11
360.091847717
 21
31.3778789641
  0
LINE
  8
0
 62
7
  6
CONTINUOUS
 10
360.1496602445
 20
31.5069337098
 11
359.744972717
 21
31.5391973962
  0
LINE
  8
0
 62
7
  6
CONTINUOUS
 10
368.7637229651
 20
30.5390230296
 11
369.1105979651
 21
30.5067593403
  0
LINE
  8
0
 62
7
  6
CONTINUOUS
 10
369.1105979651
 20
30.6358140973
 11
368.7637229651
 21
30.668077795
  0
LINE
  8
0
 62
7
  6
CONTINUOUS
 10
364.543410024
 20
31.5069337098
 11
364.1965353548
 21
31.5391973962
  0
LINE
  8
0
 62
7
  6
CONTINUOUS
 10
369.3418477445
 20
31.4101426505
 11
369.6887227445
 21
31.3778789641
  0
LINE
  8
0
 62
7
  6
CONTINUOUS
 10
369.6887227445
 20
31.5069337098
 11
369.3418477445
 21
31.5391973962
  0
LINE
  8
0
 62
7
  6
CONTINUOUS
 10
367.0293479651
 20
31.4101426505
 11
367.2605977445
 21
31.3778789641
  0
LINE
  8
0
 62
7
  6
CONTINUOUS
 10
369.8621602445
 20
31.4746700234
 11
369.6887227445
 21
31.5069337098
  0
LINE
  8
0
 62
7
  6
CONTINUOUS
 10
370.0355977445
 20
30.6035504109
 11
370.1512223035
 21
30.7003414814
  0
LINE
  8
0
 62
7
  6
CONTINUOUS
 10
364.543410024
 20
30.7971325633
 11
364.369972524
 21
30.7003414814
  0
LINE
  8
0
 62
7
  6
CONTINUOUS
 10
366.624660024
 20
31.4424063369
 11
366.5090354651
 21
31.3778789641
  0
LINE
  8
0
 62
7
  6
CONTINUOUS
 10
366.5090354651
 20
31.2488242184
 11
366.624660024
 21
31.3133515913
  0
LINE
  8
0
 62
7
  6
CONTINUOUS
 10
359.2246602583
 20
31.4746700234
 11
359.0512227376
 21
31.4101426505
  0
LINE
  8
0
 62
7
  6
CONTINUOUS
 10
361.6527851343
 20
31.5069337098
 11
361.4793477997
 21
31.4424063369
  0
LINE
  8
0
 62
7
  6
CONTINUOUS
 10
361.4793477997
 20
31.3133515913
 11
361.6527851343
 21
31.3778789641
  0
LINE
  8
0
 62
7
  6
CONTINUOUS
 10
360.2652852997
 20
30.7326051679
 11
360.091847717
 21
30.668077795
  0
LINE
  8
0
 62
7
  6
CONTINUOUS
 10
369.6887227445
 20
30.668077795
 11
369.4574729651
 21
30.6358140973
  0
LINE
  8
0
 62
7
  6
CONTINUOUS
 10
364.0809101343
 20
30.5067593403
 11
364.369972524
 21
30.5390230296
  0
LINE
  8
0
 62
7
  6
CONTINUOUS
 10
369.4574729651
 20
30.5067593403
 11
369.8043479651
 21
30.5390230296
  0
LINE
  8
0
 62
7
  6
CONTINUOUS
 10
359.744972717
 20
30.5067593403
 11
360.1496602445
 21
30.5390230296
  0
LINE
  8
0
 62
7
  6
CONTINUOUS
 10
360.091847717
 20
30.668077795
 11
359.6871602721
 21
30.6358140973
  0
LINE
  8
0
 62
7
  6
CONTINUOUS
 10
363.9652852445
 20
31.0552420547
 11
364.6012229651
 21
31.0552420547
  0
LINE
  8
0
 62
7
  6
CONTINUOUS
 10
364.6012229651
 20
31.1842968456
 11
363.9652852445
 21
31.1842968456
  0
LINE
  8
0
 62
7
  6
CONTINUOUS
 10
360.3230977445
 20
31.216560532
 11
360.6121602997
 21
31.216560532
  0
LINE
  8
0
 62
7
  6
CONTINUOUS
 10
363.1559103548
 20
31.2810879048
 11
363.4449727445
 21
31.2810879048
  0
LINE
  8
0
 62
7
  6
CONTINUOUS
 10
369.8621602445
 20
31.2810879048
 11
370.1512223035
 21
31.2810879048
  0
LINE
  8
0
 62
7
  6
CONTINUOUS
 10
363.8496603548
 20
31.4101426505
 11
364.1965353548
 21
31.4101426505
  0
LINE
  8
0
 62
7
  6
CONTINUOUS
 10
368.9949727445
 20
31.4101426505
 11
369.3418477445
 21
31.4101426505
  0
LINE
  8
0
 62
7
  6
CONTINUOUS
 10
369.3418477445
 20
31.5391973962
 11
368.9949727445
 21
31.5391973962
  0
LINE
  8
0
 62
7
  6
CONTINUOUS
 10
367.2605977445
 20
31.5391973962
 11
367.0293479651
 21
31.5391973962
  0
LINE
  8
0
 62
7
  6
CONTINUOUS
 10
366.5090354651
 20
31.5391973962
 11
366.2199727445
 21
31.5391973962
  0
LINE
  8
0
 62
7
  6
CONTINUOUS
 10
365.757472524
 20
31.5391973962
 11
365.4684104651
 21
31.5391973962
  0
LINE
  8
0
 62
7
  6
CONTINUOUS
 10
364.1965353548
 20
31.5391973962
 11
363.8496603548
 21
31.5391973962
  0
LINE
  8
0
 62
7
  6
CONTINUOUS
 10
362.1152853548
 20
31.5391973962
 11
361.8840352445
 21
31.5391973962
  0
LINE
  8
0
 62
7
  6
CONTINUOUS
 10
365.4684104651
 20
31.8618343508
 11
365.757472524
 21
31.8618343508
  0
LINE
  8
0
 62
7
  6
CONTINUOUS
 10
365.757472524
 20
32.0231527829
 11
365.4684104651
 21
32.0231527829
  0
LINE
  8
0
 62
7
  6
CONTINUOUS
 10
361.3637227445
 20
32.0231527829
 11
361.0746601894
 21
32.0231527829
  0
LINE
  8
0
 62
7
  6
CONTINUOUS
 10
360.4015045068
 20
32.3100380288
 11
360.8140758554
 21
32.3100380288
  0
LINE
  8
0
 62
7
  6
CONTINUOUS
 10
362.0408487691
 20
32.3100380288
 11
363.4342913921
 21
32.3100380288
  0
LINE
  8
0
 62
7
  6
CONTINUOUS
 10
363.7621602445
 20
32.3100380288
 11
365.1556028675
 21
32.3100380288
  0
LINE
  8
0
 62
7
  6
CONTINUOUS
 10
367.0408487691
 20
32.3100380288
 11
368.4342913921
 21
32.3100380288
  0
LINE
  8
0
 62
7
  6
CONTINUOUS
 10
368.7621602445
 20
32.3100380288
 11
370.1556028675
 21
32.3100380288
  0
LINE
  8
0
 62
7
  6
CONTINUOUS
 10
366.798097524
 20
31.5069337098
 11
366.624660024
 21
31.4424063369
  0
LINE
  8
0
 62
7
  6
CONTINUOUS
 10
364.369972524
 20
30.5390230296
 11
364.543410024
 21
30.6035504109
  0
LINE
  8
0
 62
7
  6
CONTINUOUS
 10
369.8043479651
 20
30.5390230296
 11
370.0355977445
 21
30.6035504109
  0
LINE
  8
0
 62
7
  6
CONTINUOUS
 10
369.8043479651
 20
30.7003414814
 11
369.6887227445
 21
30.668077795
  0
LINE
  8
0
 62
7
  6
CONTINUOUS
 10
368.7637229651
 20
31.3778789641
 11
368.9949727445
 21
31.4101426505
  0
LINE
  8
0
 62
7
  6
CONTINUOUS
 10
366.798097524
 20
31.3778789641
 11
367.0293479651
 21
31.4101426505
  0
LINE
  8
0
 62
7
  6
CONTINUOUS
 10
363.7340351343
 20
31.0229783683
 11
363.9652852445
 21
31.0552420547
  0
LINE
  8
0
 62
7
  6
CONTINUOUS
 10
367.0293479651
 20
31.5391973962
 11
366.798097524
 21
31.5069337098
  0
LINE
  8
0
 62
7
  6
CONTINUOUS
 10
363.6184102445
 20
31.3778789641
 11
363.8496603548
 21
31.4101426505
  0
LINE
  8
0
 62
7
  6
CONTINUOUS
 10
368.9949727445
 20
31.5391973962
 11
368.6480977445
 21
31.5069337098
  0
LINE
  8
0
 62
7
  6
CONTINUOUS
 10
363.9652852445
 20
31.1842968456
 11
363.6184102445
 21
31.1520331591
  0
LINE
  8
0
 62
7
  6
CONTINUOUS
 10
359.744972717
 20
31.5391973962
 11
359.3980977583
 21
31.5069337098
  0
LINE
  8
0
 62
7
  6
CONTINUOUS
 10
363.8496603548
 20
31.5391973962
 11
363.4449727445
 21
31.5069337098
  0
LINE
  8
0
 62
7
  6
CONTINUOUS
 10
361.221176638
 20
33.4575790124
 11
360.565438933
 21
33.4575790124
  0
LINE
  8
0
 62
7
  6
CONTINUOUS
 10
366.624660024
 20
31.3133515913
 11
366.798097524
 21
31.3778789641
  0
LINE
  8
0
 62
7
  6
CONTINUOUS
 10
368.6480977445
 20
31.3456152777
 11
368.7637229651
 21
31.3778789641
  0
LINE
  8
0
 62
7
  6
CONTINUOUS
 10
368.6480977445
 20
31.5069337098
 11
368.4168479651
 21
31.4424063369
  0
LINE
  8
0
 62
7
  6
CONTINUOUS
 10
364.369972524
 20
30.7003414814
 11
364.0809101343
 21
30.6358140973
  0
LINE
  8
0
 62
7
  6
CONTINUOUS
 10
361.6527851343
 20
31.3778789641
 11
361.8840352445
 21
31.4101426505
  0
LINE
  8
0
 62
7
  6
CONTINUOUS
 10
361.8840352445
 20
31.5391973962
 11
361.6527851343
 21
31.5069337098
  0
LINE
  8
0
 62
7
  6
CONTINUOUS
 10
359.4559102445
 20
31.3778789641
 11
359.6871602721
 21
31.4101426505
  0
LINE
  8
0
 62
7
  6
CONTINUOUS
 10
365.9752749986
 20
34.9329888485
 11
366.6310127035
 21
34.9329888485
  0
LINE
  8
0
 62
7
  6
CONTINUOUS
 10
363.6184102445
 20
30.9907146818
 11
363.7340351343
 21
31.0229783683
  0
LINE
  8
0
 62
7
  6
CONTINUOUS
 10
363.6184102445
 20
31.1520331591
 11
363.3871601343
 21
31.0875057863
  0
LINE
  8
0
 62
7
  6
CONTINUOUS
 10
363.5027853548
 20
31.3456152777
 11
363.6184102445
 21
31.3778789641
  0
LINE
  8
0
 62
7
  6
CONTINUOUS
 10
360.1496602445
 20
30.5390230296
 11
360.3809101894
 21
30.6035504109
  0
LINE
  8
0
 62
7
  6
CONTINUOUS
 10
363.4449727445
 20
31.5069337098
 11
363.3293478548
 21
31.4746700234
  0
LINE
  8
0
 62
7
  6
CONTINUOUS
 10
359.3980977583
 20
31.5069337098
 11
359.2246602583
 21
31.4746700234
  0
LINE
  8
0
 62
7
  6
CONTINUOUS
 10
370.1556028675
 20
36.0805298321
 11
368.7621602445
 21
36.0805298321
  0
LINE
  8
0
 62
7
  6
CONTINUOUS
 10
366.7949471298
 20
36.0805298321
 11
366.3823757812
 21
36.0805298321
  0
LINE
  8
0
 62
7
  6
CONTINUOUS
 10
365.1556028675
 20
36.0805298321
 11
363.7621602445
 21
36.0805298321
  0
LINE
  8
0
 62
7
  6
CONTINUOUS
 10
363.4342913921
 20
36.0805298321
 11
362.0408487691
 21
36.0805298321
  0
LINE
  8
0
 62
7
  6
CONTINUOUS
 10
360.1556028675
 20
36.0805298321
 11
358.7621602445
 21
36.0805298321
  0
LINE
  8
0
 62
7
  6
CONTINUOUS
 10
359.3402852307
 20
31.3456152777
 11
359.4559102445
 21
31.3778789641
  0
CIRCLE
  8
0
 62
7
  6
CONTINUOUS
 10
369.458881556
 20
38.4165954059
 40
2.0901639344
  0
ARC
  8
0
 62
7
  6
CONTINUOUS
 10
360.4015045068
 20
33.9493822911
 40
1.6393442623
 50
180.0
 51
270.0
  0
ARC
  8
0
 62
7
  6
CONTINUOUS
 10
366.7949471298
 20
34.4411855698
 40
1.6393442623
 50
0.0
 51
90.0
  0
ARC
  8
0
 62
7
  6
CONTINUOUS
 10
360.8140758554
 20
33.7854478649
 40
1.4754098361
 50
270.0
 51
326.2510114041
  0
ARC
  8
0
 62
7
  6
CONTINUOUS
 10
366.3823757812
 20
34.6051199961
 40
1.4754098361
 50
90.0
 51
146.2510114041
  0
ARC
  8
0
 62
7
  6
CONTINUOUS
 10
361.221176638
 20
34.2772511436
 40
0.8196721311
 50
270.0
 51
360.0
  0
ARC
  8
0
 62
7
  6
CONTINUOUS
 10
365.9752749986
 20
34.1133167174
 40
0.8196721311
 50
90.0
 51
180.0
  0
ARC
  8
0
 62
7
  6
CONTINUOUS
 10
360.565438933
 20
33.867415078
 40
0.4098360656
 50
180.0
 51
270.0
  0
ARC
  8
0
 62
7
  6
CONTINUOUS
 10
366.6310127035
 20
34.5231527829
 40
0.4098360656
 50
0.0
 51
90.0
  0
SOLID
  8
0
 62
7
  6
CONTINUOUS
 10
365.4684104651
 20
31.8618347111
 11
365.4684104651
 21
32.0231531947
 12
365.757472524
 22
31.8618347111
 13
365.757472524
 23
32.0231531947
  0
SOLID
  8
0
 62
7
  6
CONTINUOUS
 10
359.744972717
 20
31.5391977439
 11
360.1496602445
 21
31.5069333244
 12
359.3980977583
 22
31.5069333244
 13
359.3980977583
 23
31.5069333244
  0
SOLID
  8
0
 62
7
  6
CONTINUOUS
 10
359.2246602583
 20
31.4746706537
 11
359.3980977583
 21
31.5069333244
 12
360.1496602445
 22
31.5069333244
 13
360.1496602445
 23
31.5069333244
  0
SOLID
  8
0
 62
7
  6
CONTINUOUS
 10
360.1496602445
 20
31.5069333244
 11
360.3809101894
 21
31.4424063504
 12
359.2246602583
 22
31.4746706537
 13
359.2246602583
 23
31.4746706537
  0
SOLID
  8
0
 62
7
  6
CONTINUOUS
 10
359.0512227376
 20
31.4101419116
 11
359.2246602583
 21
31.4746706537
 12
360.3809101894
 22
31.4424063504
 13
360.3809101894
 23
31.4424063504
  0
SOLID
  8
0
 62
7
  6
CONTINUOUS
 10
359.0512227376
 20
31.4101419116
 11
360.3809101894
 21
31.4424063504
 12
359.6871602721
 22
31.4101419116
 13
359.6871602721
 23
31.4101419116
  0
SOLID
  8
0
 62
7
  6
CONTINUOUS
 10
359.6871602721
 20
31.4101419116
 11
360.3809101894
 21
31.4424063504
 12
360.091847717
 22
31.3778792603
 13
360.091847717
 23
31.3778792603
  0
SOLID
  8
0
 62
7
  6
CONTINUOUS
 10
360.3809101894
 20
31.4424063504
 11
360.5543476894
 21
31.345614957
 12
360.091847717
 22
31.3778792603
 13
360.091847717
 23
31.3778792603
  0
SOLID
  8
0
 62
7
  6
CONTINUOUS
 10
360.2652852997
 20
31.3133521701
 11
360.091847717
 21
31.3778792603
 12
360.5543476894
 22
31.345614957
 13
360.5543476894
 23
31.345614957
  0
SOLID
  8
0
 62
7
  6
CONTINUOUS
 10
360.2652852997
 20
31.3133521701
 11
360.5543476894
 21
31.345614957
 12
360.3230977445
 22
31.2165606992
 13
360.3230977445
 23
31.2165606992
  0
SOLID
  8
0
 62
7
  6
CONTINUOUS
 10
360.5543476894
 20
31.345614957
 11
360.6121602997
 21
31.2165606992
 12
360.3230977445
 22
31.2165606992
 13
360.3230977445
 23
31.2165606992
  0
SOLID
  8
0
 62
7
  6
CONTINUOUS
 10
361.6527851343
 20
31.5069329918
 11
361.8840352445
 21
31.5391972951
 12
362.1152853548
 22
31.5391972951
 13
362.1152853548
 23
31.5391972951
  0
SOLID
  8
0
 62
7
  6
CONTINUOUS
 10
362.1152853548
 20
31.5391972951
 11
362.2887228548
 21
31.5069329918
 12
361.6527851343
 22
31.5069329918
 13
361.6527851343
 23
31.5069329918
  0
SOLID
  8
0
 62
7
  6
CONTINUOUS
 10
361.4793477997
 20
31.4424059016
 11
361.6527851343
 21
31.5069329918
 12
362.2887228548
 22
31.5069329918
 13
362.2887228548
 23
31.5069329918
  0
SOLID
  8
0
 62
7
  6
CONTINUOUS
 10
362.2887228548
 20
31.5069329918
 11
362.4621603548
 21
31.4424059016
 12
361.4793477997
 22
31.4424059016
 13
361.4793477997
 23
31.4424059016
  0
SOLID
  8
0
 62
7
  6
CONTINUOUS
 10
362.4621603548
 20
31.4424059016
 11
361.8840352445
 21
31.4101420472
 12
361.4793477997
 22
31.4424059016
 13
361.4793477997
 23
31.4424059016
  0
SOLID
  8
0
 62
7
  6
CONTINUOUS
 10
361.3637227445
 20
31.3778788115
 11
361.4793477997
 21
31.4424059016
 12
361.8840352445
 22
31.4101420472
 13
361.8840352445
 23
31.4101420472
  0
SOLID
  8
0
 62
7
  6
CONTINUOUS
 10
361.8840352445
 20
31.4101420472
 11
361.6527851343
 21
31.3778788115
 12
361.3637227445
 22
31.3778788115
 13
361.3637227445
 23
31.3778788115
  0
SOLID
  8
0
 62
7
  6
CONTINUOUS
 10
361.8840352445
 20
31.4101420472
 11
362.4621603548
 21
31.4424059016
 12
362.1152853548
 22
31.3778788115
 13
362.1152853548
 23
31.3778788115
  0
SOLID
  8
0
 62
7
  6
CONTINUOUS
 10
362.4621603548
 20
31.4424059016
 11
362.5777852445
 21
31.3778788115
 12
362.1152853548
 22
31.3778788115
 13
362.1152853548
 23
31.3778788115
  0
SOLID
  8
0
 62
7
  6
CONTINUOUS
 10
362.2309102445
 20
31.345614957
 11
362.1152853548
 21
31.3778788115
 12
362.5777852445
 22
31.3778788115
 13
362.5777852445
 23
31.3778788115
  0
SOLID
  8
0
 62
7
  6
CONTINUOUS
 10
362.5777852445
 20
31.3778788115
 11
362.6355978548
 21
31.3133517213
 12
362.2309102445
 22
31.345614957
 13
362.2309102445
 23
31.345614957
  0
SOLID
  8
0
 62
7
  6
CONTINUOUS
 10
362.3465351343
 20
31.2810878668
 11
362.2309102445
 21
31.345614957
 12
362.6355978548
 22
31.3133517213
 13
362.6355978548
 23
31.3133517213
  0
SOLID
  8
0
 62
7
  6
CONTINUOUS
 10
362.3465351343
 20
31.2810878668
 11
362.6355978548
 21
31.3133517213
 12
362.4043477445
 22
31.1520332377
 13
362.4043477445
 23
31.1520332377
  0
SOLID
  8
0
 62
7
  6
CONTINUOUS
 10
362.6355978548
 20
31.3133517213
 11
362.6934101343
 21
31.1520332377
 12
362.4043477445
 22
31.1520332377
 13
362.4043477445
 23
31.1520332377
  0
SOLID
  8
0
 62
7
  6
CONTINUOUS
 10
361.6527851343
 20
31.3778788115
 11
361.4793477997
 21
31.3133517213
 12
361.3637227445
 22
31.3778788115
 13
361.3637227445
 23
31.3778788115
  0
SOLID
  8
0
 62
7
  6
CONTINUOUS
 10
361.4793477997
 20
31.3133517213
 11
361.3637227445
 21
31.2488235635
 12
361.3637227445
 22
31.3778788115
 13
361.3637227445
 23
31.3778788115
  0
SOLID
  8
0
 62
7
  6
CONTINUOUS
 10
361.3637227445
 20
31.2488235635
 11
361.0746601894
 21
30.5067593033
 12
361.3637227445
 22
31.3778788115
 13
361.3637227445
 23
31.3778788115
  0
SOLID
  8
0
 62
7
  6
CONTINUOUS
 10
361.3637227445
 20
31.3778788115
 11
361.0746601894
 21
30.5067593033
 12
361.3637227445
 22
32.0231527459
 13
361.3637227445
 23
32.0231527459
  0
SOLID
  8
0
 62
7
  6
CONTINUOUS
 10
361.0746601894
 20
30.5067593033
 11
361.0746601894
 21
32.0231527459
 12
361.3637227445
 22
32.0231527459
 13
361.3637227445
 23
32.0231527459
  0
SOLID
  8
0
 62
7
  6
CONTINUOUS
 10
361.3637227445
 20
31.2488235635
 11
361.3637227445
 21
30.5067593033
 12
361.0746601894
 22
30.5067593033
 13
361.0746601894
 23
30.5067593033
  0
SOLID
  8
0
 62
7
  6
CONTINUOUS
 10
362.4043477445
 20
30.5067593033
 11
362.4043477445
 21
31.1520332377
 12
362.6934101343
 22
31.1520332377
 13
362.6934101343
 23
31.1520332377
  0
SOLID
  8
0
 62
7
  6
CONTINUOUS
 10
362.6934101343
 20
31.1520332377
 11
362.6934101343
 21
30.5067593033
 12
362.4043477445
 22
30.5067593033
 13
362.4043477445
 23
30.5067593033
  0
SOLID
  8
0
 62
7
  6
CONTINUOUS
 10
363.4449727445
 20
31.506933758
 11
363.8496603548
 21
31.5391977507
 12
364.1965353548
 22
31.5391977507
 13
364.1965353548
 23
31.5391977507
  0
SOLID
  8
0
 62
7
  6
CONTINUOUS
 10
364.1965353548
 20
31.5391977507
 11
364.543410024
 21
31.506933758
 12
363.4449727445
 22
31.506933758
 13
363.4449727445
 23
31.506933758
  0
SOLID
  8
0
 62
7
  6
CONTINUOUS
 10
363.3293478548
 20
31.4746706537
 11
363.4449727445
 21
31.506933758
 12
364.543410024
 22
31.506933758
 13
364.543410024
 23
31.506933758
  0
SOLID
  8
0
 62
7
  6
CONTINUOUS
 10
364.543410024
 20
31.506933758
 11
364.716847524
 21
31.4424063504
 12
363.3293478548
 22
31.4746706537
 13
363.3293478548
 23
31.4746706537
  0
SOLID
  8
0
 62
7
  6
CONTINUOUS
 10
363.2137226343
 20
31.4101417797
 11
363.3293478548
 21
31.4746706537
 12
364.716847524
 22
31.4424063504
 13
364.716847524
 23
31.4424063504
  0
SOLID
  8
0
 62
7
  6
CONTINUOUS
 10
363.2137226343
 20
31.4101417797
 11
364.716847524
 21
31.4424063504
 12
363.8496603548
 22
31.4101417797
 13
363.8496603548
 23
31.4101417797
  0
SOLID
  8
0
 62
7
  6
CONTINUOUS
 10
363.8496603548
 20
31.4101417797
 11
364.716847524
 21
31.4424063504
 12
364.1965353548
 22
31.4101417797
 13
364.1965353548
 23
31.4101417797
  0
SOLID
  8
0
 62
7
  6
CONTINUOUS
 10
364.1965353548
 20
31.4101417797
 11
364.716847524
 21
31.4424063504
 12
364.4277854651
 22
31.3778793357
 13
364.4277854651
 23
31.3778793357
  0
SOLID
  8
0
 62
7
  6
CONTINUOUS
 10
364.716847524
 20
31.4424063504
 11
364.8324727445
 21
31.3778793357
 12
364.4277854651
 22
31.3778793357
 13
364.4277854651
 23
31.3778793357
  0
SOLID
  8
0
 62
7
  6
CONTINUOUS
 10
363.1559103548
 20
31.3456153429
 11
363.2137226343
 21
31.4101417797
 12
363.8496603548
 22
31.4101417797
 13
363.8496603548
 23
31.4101417797
  0
SOLID
  8
0
 62
7
  6
CONTINUOUS
 10
364.543410024
 20
31.3456153429
 11
364.4277854651
 21
31.3778793357
 12
364.8324727445
 22
31.3778793357
 13
364.8324727445
 23
31.3778793357
  0
SOLID
  8
0
 62
7
  6
CONTINUOUS
 10
364.543410024
 20
31.3456153429
 11
364.8324727445
 21
31.3778793357
 12
364.6012229651
 22
31.2810881318
 13
364.6012229651
 23
31.2810881318
  0
SOLID
  8
0
 62
7
  6
CONTINUOUS
 10
364.8324727445
 20
31.3778793357
 11
364.890285024
 21
31.2810881318
 12
364.6012229651
 22
31.2810881318
 13
364.6012229651
 23
31.2810881318
  0
SOLID
  8
0
 62
7
  6
CONTINUOUS
 10
364.6012229651
 20
31.1842964734
 11
364.6012229651
 21
31.2810881318
 12
364.890285024
 22
31.2810881318
 13
364.890285024
 23
31.2810881318
  0
SOLID
  8
0
 62
7
  6
CONTINUOUS
 10
364.6012229651
 20
31.1842964734
 11
364.890285024
 21
31.2810881318
 12
364.6012229651
 22
31.0552422931
 13
364.6012229651
 23
31.0552422931
  0
SOLID
  8
0
 62
7
  6
CONTINUOUS
 10
364.6012229651
 20
31.0552422931
 11
364.890285024
 21
31.2810881318
 12
364.6012229651
 22
30.8616599362
 13
364.6012229651
 23
30.8616599362
  0
SOLID
  8
0
 62
7
  6
CONTINUOUS
 10
364.890285024
 20
31.2810881318
 11
364.890285024
 21
30.7648681127
 12
364.6012229651
 22
30.8616599362
 13
364.6012229651
 23
30.8616599362
  0
SOLID
  8
0
 62
7
  6
CONTINUOUS
 10
366.798097524
 20
31.5069339419
 11
367.0293479651
 21
31.5391976292
 12
367.2605977445
 22
31.5391976292
 13
367.2605977445
 23
31.5391976292
  0
SOLID
  8
0
 62
7
  6
CONTINUOUS
 10
367.2605977445
 20
31.5391976292
 11
367.4340352445
 21
31.5069339419
 12
366.798097524
 22
31.5069339419
 13
366.798097524
 23
31.5069339419
  0
SOLID
  8
0
 62
7
  6
CONTINUOUS
 10
366.624660024
 20
31.4424065674
 11
366.798097524
 21
31.5069339419
 12
367.4340352445
 22
31.5069339419
 13
367.4340352445
 23
31.5069339419
  0
SOLID
  8
0
 62
7
  6
CONTINUOUS
 10
367.4340352445
 20
31.5069339419
 11
367.6074727445
 21
31.4424065674
 12
366.624660024
 22
31.4424065674
 13
366.624660024
 23
31.4424065674
  0
SOLID
  8
0
 62
7
  6
CONTINUOUS
 10
367.6074727445
 20
31.4424065674
 11
367.0293479651
 21
31.4101420472
 12
366.624660024
 22
31.4424065674
 13
366.624660024
 23
31.4424065674
  0
SOLID
  8
0
 62
7
  6
CONTINUOUS
 10
366.5090354651
 20
31.377879193
 11
366.624660024
 21
31.4424065674
 12
367.0293479651
 22
31.4101420472
 13
367.0293479651
 23
31.4101420472
  0
SOLID
  8
0
 62
7
  6
CONTINUOUS
 10
367.0293479651
 20
31.4101420472
 11
366.798097524
 21
31.377879193
 12
366.5090354651
 22
31.377879193
 13
366.5090354651
 23
31.377879193
  0
SOLID
  8
0
 62
7
  6
CONTINUOUS
 10
367.0293479651
 20
31.4101420472
 11
367.6074727445
 21
31.4424065674
 12
367.2605977445
 22
31.377879193
 13
367.2605977445
 23
31.377879193
  0
SOLID
  8
0
 62
7
  6
CONTINUOUS
 10
367.6074727445
 20
31.4424065674
 11
367.7230979651
 21
31.377879193
 12
367.2605977445
 22
31.377879193
 13
367.2605977445
 23
31.377879193
  0
SOLID
  8
0
 62
7
  6
CONTINUOUS
 10
367.3762229651
 20
31.345614957
 11
367.2605977445
 21
31.377879193
 12
367.7230979651
 22
31.377879193
 13
367.7230979651
 23
31.377879193
  0
SOLID
  8
0
 62
7
  6
CONTINUOUS
 10
367.3762229651
 20
31.345614957
 11
367.7230979651
 21
31.377879193
 12
367.491847524
 22
31.2810881312
 13
367.491847524
 23
31.2810881312
  0
SOLID
  8
0
 62
7
  6
CONTINUOUS
 10
367.7230979651
 20
31.377879193
 11
367.7809102445
 21
31.2810881312
 12
367.491847524
 22
31.2810881312
 13
367.491847524
 23
31.2810881312
  0
SOLID
  8
0
 62
7
  6
CONTINUOUS
 10
367.5496604651
 20
31.119769695
 11
367.491847524
 21
31.2810881312
 12
367.7809102445
 22
31.2810881312
 13
367.7809102445
 23
31.2810881312
  0
SOLID
  8
0
 62
7
  6
CONTINUOUS
 10
367.7809102445
 20
31.2810881312
 11
367.838722524
 21
31.119769695
 12
367.5496604651
 22
31.119769695
 13
367.5496604651
 23
31.119769695
  0
SOLID
  8
0
 62
7
  6
CONTINUOUS
 10
366.798097524
 20
31.377879193
 11
366.624660024
 21
31.3133521701
 12
366.5090354651
 22
31.377879193
 13
366.5090354651
 23
31.377879193
  0
SOLID
  8
0
 62
7
  6
CONTINUOUS
 10
366.624660024
 20
31.3133521701
 11
366.5090354651
 21
31.2488235635
 12
366.5090354651
 22
31.377879193
 13
366.5090354651
 23
31.377879193
  0
SOLID
  8
0
 62
7
  6
CONTINUOUS
 10
366.5090354651
 20
31.2488235635
 11
366.2199727445
 21
30.5067596374
 12
366.5090354651
 22
31.377879193
 13
366.5090354651
 23
31.377879193
  0
SOLID
  8
0
 62
7
  6
CONTINUOUS
 10
366.5090354651
 20
31.377879193
 11
366.2199727445
 21
30.5067596374
 12
366.5090354651
 22
31.5391976292
 13
366.5090354651
 23
31.5391976292
  0
SOLID
  8
0
 62
7
  6
CONTINUOUS
 10
366.2199727445
 20
30.5067596374
 11
366.2199727445
 21
31.5391976292
 12
366.5090354651
 22
31.5391976292
 13
366.5090354651
 23
31.5391976292
  0
SOLID
  8
0
 62
7
  6
CONTINUOUS
 10
366.5090354651
 20
31.2488235635
 11
366.5090354651
 21
30.5067596374
 12
366.2199727445
 22
30.5067596374
 13
366.2199727445
 23
30.5067596374
  0
SOLID
  8
0
 62
7
  6
CONTINUOUS
 10
367.5496604651
 20
30.5067596374
 11
367.5496604651
 21
31.119769695
 12
367.838722524
 22
31.119769695
 13
367.838722524
 23
31.119769695
  0
SOLID
  8
0
 62
7
  6
CONTINUOUS
 10
367.838722524
 20
31.119769695
 11
367.838722524
 21
30.5067596374
 12
367.5496604651
 22
30.5067596374
 13
367.5496604651
 23
30.5067596374
  0
SOLID
  8
0
 62
7
  6
CONTINUOUS
 10
368.6480977445
 20
31.5069334157
 11
368.9949727445
 21
31.539197762
 12
369.3418477445
 22
31.539197762
 13
369.3418477445
 23
31.539197762
  0
SOLID
  8
0
 62
7
  6
CONTINUOUS
 10
369.3418477445
 20
31.539197762
 11
369.6887227445
 21
31.5069334157
 12
368.6480977445
 22
31.5069334157
 13
368.6480977445
 23
31.5069334157
  0
SOLID
  8
0
 62
7
  6
CONTINUOUS
 10
368.4168479651
 20
31.4424063504
 11
368.6480977445
 21
31.5069334157
 12
369.6887227445
 22
31.5069334157
 13
369.6887227445
 23
31.5069334157
  0
SOLID
  8
0
 62
7
  6
CONTINUOUS
 10
368.4168479651
 20
31.4424063504
 11
369.6887227445
 21
31.5069334406
 12
369.8621602445
 22
31.4746706537
 13
369.8621602445
 23
31.4746706537
  0
SOLID
  8
0
 62
7
  6
CONTINUOUS
 10
368.4168479651
 20
31.4424063504
 11
369.8621602445
 21
31.4746706537
 12
368.9949727445
 22
31.4101421267
 13
368.9949727445
 23
31.4101421267
  0
SOLID
  8
0
 62
7
  6
CONTINUOUS
 10
368.9949727445
 20
31.4101421267
 11
369.8621602445
 21
31.4746706537
 12
369.3418477445
 22
31.4101421267
 13
369.3418477445
 23
31.4101421267
  0
SOLID
  8
0
 62
7
  6
CONTINUOUS
 10
369.8621602445
 20
31.4746706537
 11
370.0355977445
 21
31.4101421267
 12
369.3418477445
 22
31.4101421267
 13
369.3418477445
 23
31.4101421267
  0
SOLID
  8
0
 62
7
  6
CONTINUOUS
 10
369.6887227445
 20
31.3778792603
 11
369.3418477445
 21
31.4101421267
 12
370.0355977445
 22
31.4101421267
 13
370.0355977445
 23
31.4101421267
  0
SOLID
  8
0
 62
7
  6
CONTINUOUS
 10
368.3012227445
 20
31.3456148845
 11
368.4168479651
 21
31.4424063504
 12
368.9949727445
 22
31.4101421267
 13
368.9949727445
 23
31.4101421267
  0
SOLID
  8
0
 62
7
  6
CONTINUOUS
 10
369.6887227445
 20
31.3778792603
 11
370.0355977445
 21
31.4101421267
 12
369.8043479651
 22
31.3456148845
 13
369.8043479651
 23
31.3456148845
  0
SOLID
  8
0
 62
7
  6
CONTINUOUS
 10
369.8043479651
 20
31.3456148845
 11
370.0355977445
 21
31.4101421267
 12
369.8621602445
 22
31.281087868
 13
369.8621602445
 23
31.281087868
  0
SOLID
  8
0
 62
7
  6
CONTINUOUS
 10
370.0355977445
 20
31.4101421267
 11
370.1512223035
 21
31.281087868
 12
369.8621602445
 22
31.281087868
 13
369.8621602445
 23
31.281087868
  0
SOLID
  8
0
 62
7
  6
CONTINUOUS
 10
359.4559102445
 20
31.3778792603
 11
358.9355977445
 21
31.3456148963
 12
359.6871602721
 22
31.4101421155
 13
359.6871602721
 23
31.4101421155
  0
SOLID
  8
0
 62
7
  6
CONTINUOUS
 10
358.9355977445
 20
31.3456148963
 11
359.0512227376
 21
31.4101421155
 12
359.6871602721
 22
31.4101421155
 13
359.6871602721
 23
31.4101421155
  0
SOLID
  8
0
 62
7
  6
CONTINUOUS
 10
359.4559102445
 20
31.3778792603
 11
359.3402852307
 21
31.3456148963
 12
358.9355977445
 22
31.3456148963
 13
358.9355977445
 23
31.3456148963
  0
SOLID
  8
0
 62
7
  6
CONTINUOUS
 10
358.8199727462
 20
31.2165607767
 11
358.9355977445
 21
31.3456148963
 12
359.3402852307
 22
31.3456148963
 13
359.3402852307
 23
31.3456148963
  0
SOLID
  8
0
 62
7
  6
CONTINUOUS
 10
363.1559103548
 20
31.3456149608
 11
363.8496603548
 21
31.4101420472
 12
363.6184102445
 22
31.3778792603
 13
363.6184102445
 23
31.3778792603
  0
SOLID
  8
0
 62
7
  6
CONTINUOUS
 10
363.6184102445
 20
31.3778792603
 11
363.5027853548
 21
31.3456149608
 12
363.1559103548
 22
31.3456149608
 13
363.1559103548
 23
31.3456149608
  0
SOLID
  8
0
 62
7
  6
CONTINUOUS
 10
363.1559103548
 20
31.2810878707
 11
363.1559103548
 21
31.3456149608
 12
363.5027853548
 22
31.3456149608
 13
363.5027853548
 23
31.3456149608
  0
SOLID
  8
0
 62
7
  6
CONTINUOUS
 10
363.5027853548
 20
31.3456149608
 11
363.4449727445
 21
31.2810878707
 12
363.1559103548
 22
31.2810878707
 13
363.1559103548
 23
31.2810878707
  0
SOLID
  8
0
 62
7
  6
CONTINUOUS
 10
368.3012227445
 20
31.3456149608
 11
368.9949727445
 21
31.4101420472
 12
368.7637229651
 22
31.3778792603
 13
368.7637229651
 23
31.3778792603
  0
SOLID
  8
0
 62
7
  6
CONTINUOUS
 10
368.7637229651
 20
31.3778792603
 11
368.6480977445
 21
31.3456149608
 12
368.3012227445
 22
31.3456149608
 13
368.3012227445
 23
31.3456149608
  0
SOLID
  8
0
 62
7
  6
CONTINUOUS
 10
368.3012227445
 20
31.2810878707
 11
368.3012227445
 21
31.3456149608
 12
368.6480977445
 22
31.3456149608
 13
368.6480977445
 23
31.3456149608
  0
SOLID
  8
0
 62
7
  6
CONTINUOUS
 10
368.6480977445
 20
31.3456149608
 11
368.5902854651
 21
31.2810878707
 12
368.3012227445
 22
31.2810878707
 13
368.3012227445
 23
31.2810878707
  0
SOLID
  8
0
 62
7
  6
CONTINUOUS
 10
368.4168479651
 20
31.1520336865
 11
368.3012227445
 21
31.2810878707
 12
368.5902854651
 22
31.2810878707
 13
368.5902854651
 23
31.2810878707
  0
SOLID
  8
0
 62
7
  6
CONTINUOUS
 10
358.8199727462
 20
31.2165607767
 11
359.3402852307
 21
31.345614957
 12
359.1668477307
 22
31.2488235635
 13
359.1668477307
 23
31.2488235635
  0
SOLID
  8
0
 62
7
  6
CONTINUOUS
 10
359.1668477307
 20
31.2488235635
 11
359.1090352445
 21
31.1842964734
 12
358.8199727462
 22
31.2165607767
 13
358.8199727462
 23
31.2165607767
  0
SOLID
  8
0
 62
7
  6
CONTINUOUS
 10
358.7621602445
 20
31.0229779898
 11
358.8199727462
 21
31.2165607767
 12
359.1090352445
 22
31.1842964734
 13
359.1090352445
 23
31.1842964734
  0
SOLID
  8
0
 62
7
  6
CONTINUOUS
 10
363.6184102445
 20
31.1520336865
 11
363.9652852445
 21
31.1842964611
 12
364.6012229651
 22
31.1842964611
 13
364.6012229651
 23
31.1842964611
  0
SOLID
  8
0
 62
7
  6
CONTINUOUS
 10
363.6184102445
 20
31.1520336865
 11
364.6012229651
 21
31.1842964611
 12
363.3871601343
 22
31.0875057863
 13
363.3871601343
 23
31.0875057863
  0
SOLID
  8
0
 62
7
  6
CONTINUOUS
 10
363.3871601343
 20
31.0875057863
 11
364.6012229651
 21
31.1842964611
 12
363.9652852445
 22
31.0552422808
 13
363.9652852445
 23
31.0552422808
  0
SOLID
  8
0
 62
7
  6
CONTINUOUS
 10
364.6012229651
 20
31.1842964611
 11
364.6012229651
 21
31.0552422808
 12
363.9652852445
 22
31.0552422808
 13
363.9652852445
 23
31.0552422808
  0
SOLID
  8
0
 62
7
  6
CONTINUOUS
 10
368.4168479651
 20
31.1520338754
 11
368.5902854651
 21
31.2810878668
 12
368.6480977445
 22
31.2165607767
 13
368.6480977445
 23
31.2165607767
  0
SOLID
  8
0
 62
7
  6
CONTINUOUS
 10
368.6480977445
 20
31.2165607767
 11
368.8215352445
 21
31.1520338754
 12
368.4168479651
 22
31.1520338754
 13
368.4168479651
 23
31.1520338754
  0
SOLID
  8
0
 62
7
  6
CONTINUOUS
 10
368.6480977445
 20
31.0552422931
 11
368.4168479651
 21
31.1520338754
 12
368.8215352445
 22
31.1520338754
 13
368.8215352445
 23
31.1520338754
  0
SOLID
  8
0
 62
7
  6
CONTINUOUS
 10
368.8215352445
 20
31.1520338754
 11
369.8043479651
 21
30.9907152029
 12
368.6480977445
 22
31.0552422931
 13
368.6480977445
 23
31.0552422931
  0
SOLID
  8
0
 62
7
  6
CONTINUOUS
 10
369.6309104651
 20
30.8939239876
 11
368.6480977445
 21
31.0552422931
 12
369.8043479651
 22
30.9907152029
 13
369.8043479651
 23
30.9907152029
  0
SOLID
  8
0
 62
7
  6
CONTINUOUS
 10
369.8043479651
 20
30.9907152029
 11
370.0355977445
 21
30.8939239876
 12
369.6309104651
 22
30.8939239876
 13
369.6309104651
 23
30.8939239876
  0
SOLID
  8
0
 62
7
  6
CONTINUOUS
 10
369.8043479651
 20
30.8293967193
 11
369.6309104651
 21
30.8939239876
 12
370.0355977445
 22
30.8939239876
 13
370.0355977445
 23
30.8939239876
  0
SOLID
  8
0
 62
7
  6
CONTINUOUS
 10
369.8043479651
 20
30.8293967193
 11
370.0355977445
 21
30.8939239876
 12
369.8621602445
 22
30.7648682694
 13
369.8621602445
 23
30.7648682694
  0
SOLID
  8
0
 62
7
  6
CONTINUOUS
 10
370.0355977445
 20
30.8939239876
 11
370.1512223035
 21
30.7648682694
 12
369.8621602445
 22
30.7648682694
 13
369.8621602445
 23
30.7648682694
  0
SOLID
  8
0
 62
7
  6
CONTINUOUS
 10
369.8043479651
 20
30.7003411846
 11
369.8621602445
 21
30.7648682694
 12
370.1512223035
 22
30.7648682694
 13
370.1512223035
 23
30.7648682694
  0
SOLID
  8
0
 62
7
  6
CONTINUOUS
 10
370.1512223035
 20
30.7648682694
 11
370.1512223035
 21
30.7003411846
 12
369.8043479651
 22
30.7003411846
 13
369.8043479651
 23
30.7003411846
  0
SOLID
  8
0
 62
7
  6
CONTINUOUS
 10
369.6887227445
 20
30.6680782357
 11
369.8043479651
 21
30.7003411846
 12
370.1512223035
 22
30.7003411846
 13
370.1512223035
 23
30.7003411846
  0
SOLID
  8
0
 62
7
  6
CONTINUOUS
 10
369.6887227445
 20
30.6680782357
 11
370.1512223035
 21
30.7003411846
 12
369.4574729651
 22
30.6358140998
 13
369.4574729651
 23
30.6358140998
  0
SOLID
  8
0
 62
7
  6
CONTINUOUS
 10
370.1512223035
 20
30.7003411846
 11
370.0355977445
 21
30.6035511455
 12
369.4574729651
 22
30.6358140998
 13
369.4574729651
 23
30.6358140998
  0
SOLID
  8
0
 62
7
  6
CONTINUOUS
 10
370.0355977445
 20
30.6035511455
 11
368.5902854651
 21
30.5712868422
 12
369.4574729651
 22
30.6358140998
 13
369.4574729651
 23
30.6358140998
  0
SOLID
  8
0
 62
7
  6
CONTINUOUS
 10
369.4574729651
 20
30.6358140998
 11
368.5902854651
 21
30.5712868422
 12
369.1105979651
 22
30.6358140998
 13
369.1105979651
 23
30.6358140998
  0
SOLID
  8
0
 62
7
  6
CONTINUOUS
 10
368.5902854651
 20
30.5712868422
 11
368.4168479651
 21
30.6358140998
 12
369.1105979651
 22
30.6358140998
 13
369.1105979651
 23
30.6358140998
  0
SOLID
  8
0
 62
7
  6
CONTINUOUS
 10
368.5902854651
 20
30.5712868422
 11
370.0355977445
 21
30.6035511455
 12
368.7637229651
 22
30.5390223111
 13
368.7637229651
 23
30.5390223111
  0
SOLID
  8
0
 62
7
  6
CONTINUOUS
 10
370.0355977445
 20
30.6035511455
 11
369.8043479651
 21
30.5390223111
 12
368.7637229651
 22
30.5390223111
 13
368.7637229651
 23
30.5390223111
  0
SOLID
  8
0
 62
7
  6
CONTINUOUS
 10
369.1105979651
 20
30.5067599302
 11
368.7637229651
 21
30.5390223111
 12
369.8043479651
 22
30.5390223111
 13
369.8043479651
 23
30.5390223111
  0
SOLID
  8
0
 62
7
  6
CONTINUOUS
 10
369.8043479651
 20
30.5390223111
 11
369.4574729651
 21
30.5067599302
 12
369.1105979651
 22
30.5067599302
 13
369.1105979651
 23
30.5067599302
  0
SOLID
  8
0
 62
7
  6
CONTINUOUS
 10
358.7621602445
 20
31.0229779898
 11
359.1090352445
 21
31.1842964734
 12
359.0512227376
 22
31.0552422931
 13
359.0512227376
 23
31.0552422931
  0
SOLID
  8
0
 62
7
  6
CONTINUOUS
 10
359.0512227376
 20
31.0552422931
 11
359.0512227376
 21
30.9584509954
 12
358.7621602445
 22
31.0229779898
 13
358.7621602445
 23
31.0229779898
  0
SOLID
  8
0
 62
7
  6
CONTINUOUS
 10
358.8199727462
 20
30.8293967193
 11
358.7621602445
 21
31.0229779898
 12
359.0512227376
 22
30.9584509954
 13
359.0512227376
 23
30.9584509954
  0
SOLID
  8
0
 62
7
  6
CONTINUOUS
 10
359.0512227376
 20
30.9584509954
 11
359.1668477307
 21
30.797132416
 12
358.8199727462
 22
30.8293967193
 13
358.8199727462
 23
30.8293967193
  0
SOLID
  8
0
 62
7
  6
CONTINUOUS
 10
358.9355977445
 20
30.7003413087
 11
358.8199727462
 21
30.8293967193
 12
359.1668477307
 22
30.797132416
 13
359.1668477307
 23
30.797132416
  0
SOLID
  8
0
 62
7
  6
CONTINUOUS
 10
359.1668477307
 20
30.797132416
 11
359.3402852307
 21
30.7003413087
 12
358.9355977445
 22
30.7003413087
 13
358.9355977445
 23
30.7003413087
  0
SOLID
  8
0
 62
7
  6
CONTINUOUS
 10
359.0512227376
 20
30.6358140759
 11
358.9355977445
 21
30.7003413087
 12
359.3402852307
 22
30.7003413087
 13
359.3402852307
 23
30.7003413087
  0
SOLID
  8
0
 62
7
  6
CONTINUOUS
 10
359.3402852307
 20
30.7003413087
 11
359.6871602721
 21
30.6358140759
 12
359.0512227376
 22
30.6358140759
 13
359.0512227376
 23
30.6358140759
  0
SOLID
  8
0
 62
7
  6
CONTINUOUS
 10
359.2246602583
 20
30.5712868422
 11
359.0512227376
 21
30.6358140759
 12
359.6871602721
 22
30.6358140759
 13
359.6871602721
 23
30.6358140759
  0
SOLID
  8
0
 62
7
  6
CONTINUOUS
 10
363.2715352445
 20
31.0229779808
 11
363.3871601343
 21
31.0875057863
 12
363.9652852445
 22
31.0552422931
 13
363.9652852445
 23
31.0552422931
  0
SOLID
  8
0
 62
7
  6
CONTINUOUS
 10
363.9652852445
 20
31.0552422931
 11
363.7340351343
 21
31.0229779808
 12
363.2715352445
 22
31.0229779808
 13
363.2715352445
 23
31.0229779808
  0
SOLID
  8
0
 62
7
  6
CONTINUOUS
 10
363.1559103548
 20
30.8939238094
 11
363.2715352445
 21
31.0229779808
 12
363.7340351343
 22
31.0229779808
 13
363.7340351343
 23
31.0229779808
  0
SOLID
  8
0
 62
7
  6
CONTINUOUS
 10
363.5027853548
 20
30.926187309
 11
363.1559103548
 21
30.8939238094
 12
363.6184102445
 22
30.9907152029
 13
363.6184102445
 23
30.9907152029
  0
SOLID
  8
0
 62
7
  6
CONTINUOUS
 10
363.1559103548
 20
30.8939238094
 11
363.7340351343
 21
31.0229779898
 12
363.6184102445
 22
30.9907152029
 13
363.6184102445
 23
30.9907152029
  0
SOLID
  8
0
 62
7
  6
CONTINUOUS
 10
363.5027853548
 20
30.926187309
 11
363.4449727445
 21
30.8293967193
 12
363.1559103548
 22
30.8939238094
 13
363.1559103548
 23
30.8939238094
  0
SOLID
  8
0
 62
7
  6
CONTINUOUS
 10
363.1559103548
 20
30.797132416
 11
363.1559103548
 21
30.8939238094
 12
363.4449727445
 22
30.8293967193
 13
363.4449727445
 23
30.8293967193
  0
SOLID
  8
0
 62
7
  6
CONTINUOUS
 10
363.4449727445
 20
30.8293967193
 11
363.4449727445
 21
30.7648681127
 12
363.1559103548
 22
30.797132416
 13
363.1559103548
 23
30.797132416
  0
SOLID
  8
0
 62
7
  6
CONTINUOUS
 10
363.2137226343
 20
30.6680782357
 11
363.1559103548
 21
30.797132416
 12
363.4449727445
 22
30.7648681127
 13
363.4449727445
 23
30.7648681127
  0
SOLID
  8
0
 62
7
  6
CONTINUOUS
 10
364.6012229651
 20
30.8616599362
 11
364.890285024
 21
30.7648681127
 12
364.543410024
 22
30.797132416
 13
364.543410024
 23
30.797132416
  0
SOLID
  8
0
 62
7
  6
CONTINUOUS
 10
364.369972524
 20
30.7003410226
 11
364.543410024
 21
30.797132416
 12
364.890285024
 22
30.7648681127
 13
364.890285024
 23
30.7648681127
  0
SOLID
  8
0
 62
7
  6
CONTINUOUS
 10
364.369972524
 20
30.7003410226
 11
364.890285024
 21
30.7648681127
 12
364.6012229651
 22
30.6680782357
 13
364.6012229651
 23
30.6680782357
  0
SOLID
  8
0
 62
7
  6
CONTINUOUS
 10
364.890285024
 20
30.7648681127
 11
364.9480979651
 21
30.6035511455
 12
364.6012229651
 22
30.6680782357
 13
364.6012229651
 23
30.6680782357
  0
SOLID
  8
0
 62
7
  6
CONTINUOUS
 10
364.6590352445
 20
30.5712868422
 11
364.6012229651
 21
30.6680782357
 12
364.9480979651
 22
30.6035511455
 13
364.9480979651
 23
30.6035511455
  0
SOLID
  8
0
 62
7
  6
CONTINUOUS
 10
364.6590352445
 20
30.5712868422
 11
364.9480979651
 21
30.6035511455
 12
364.716847524
 22
30.5067598731
 13
364.716847524
 23
30.5067598731
  0
SOLID
  8
0
 62
7
  6
CONTINUOUS
 10
364.9480979651
 20
30.6035511455
 11
365.0059102445
 21
30.5067598731
 12
364.716847524
 22
30.5067598731
 13
364.716847524
 23
30.5067598731
  0
SOLID
  8
0
 62
7
  6
CONTINUOUS
 10
360.2652852997
 20
30.7326051679
 11
360.3230977445
 21
30.8293966612
 12
360.6121602997
 22
30.8293966612
 13
360.6121602997
 23
30.8293966612
  0
SOLID
  8
0
 62
7
  6
CONTINUOUS
 10
360.6121602997
 20
30.8293966612
 11
360.5543476894
 21
30.7003410226
 12
360.2652852997
 22
30.7326051679
 13
360.2652852997
 23
30.7326051679
  0
SOLID
  8
0
 62
7
  6
CONTINUOUS
 10
360.091847717
 20
30.6680782357
 11
360.2652852997
 21
30.7326051679
 12
360.5543476894
 22
30.7003410226
 13
360.5543476894
 23
30.7003410226
  0
SOLID
  8
0
 62
7
  6
CONTINUOUS
 10
360.091847717
 20
30.6680782357
 11
360.5543476894
 21
30.7003410226
 12
359.6871602721
 22
30.6358139324
 13
359.6871602721
 23
30.6358139324
  0
SOLID
  8
0
 62
7
  6
CONTINUOUS
 10
360.5543476894
 20
30.7003410226
 11
360.3809101894
 21
30.6035511455
 12
359.6871602721
 22
30.6358139324
 13
359.6871602721
 23
30.6358139324
  0
SOLID
  8
0
 62
7
  6
CONTINUOUS
 10
359.2246602583
 20
30.5712868422
 11
359.6871602721
 21
30.6358139324
 12
360.3809101894
 22
30.6035511455
 13
360.3809101894
 23
30.6035511455
  0
SOLID
  8
0
 62
7
  6
CONTINUOUS
 10
359.2246602583
 20
30.5712868422
 11
360.3809101894
 21
30.6035511455
 12
359.3980977583
 22
30.5390224228
 13
359.3980977583
 23
30.5390224228
  0
SOLID
  8
0
 62
7
  6
CONTINUOUS
 10
360.3809101894
 20
30.6035511455
 11
360.1496602445
 21
30.5390224228
 12
359.3980977583
 22
30.5390224228
 13
359.3980977583
 23
30.5390224228
  0
SOLID
  8
0
 62
7
  6
CONTINUOUS
 10
359.744972717
 20
30.5067597521
 11
359.3980977583
 21
30.5390224228
 12
360.1496602445
 22
30.5390224228
 13
360.1496602445
 23
30.5390224228
  0
SOLID
  8
0
 62
7
  6
CONTINUOUS
 10
363.2137226343
 20
30.6680782357
 11
363.4449727445
 21
30.7648681127
 12
363.5027853548
 22
30.7003410226
 13
363.5027853548
 23
30.7003410226
  0
SOLID
  8
0
 62
7
  6
CONTINUOUS
 10
363.5027853548
 20
30.7003410226
 11
363.7340351343
 21
30.6358139324
 12
363.2137226343
 22
30.6680782357
 13
363.2137226343
 23
30.6680782357
  0
SOLID
  8
0
 62
7
  6
CONTINUOUS
 10
363.3871601343
 20
30.5712868422
 11
363.2137226343
 21
30.6680782357
 12
363.7340351343
 22
30.6358139324
 13
363.7340351343
 23
30.6358139324
  0
SOLID
  8
0
 62
7
  6
CONTINUOUS
 10
364.0809101343
 20
30.6358139363
 11
364.369972524
 21
30.7003410226
 12
364.6012229651
 22
30.6680782357
 13
364.6012229651
 23
30.6680782357
  0
SOLID
  8
0
 62
7
  6
CONTINUOUS
 10
364.6012229651
 20
30.6680782357
 11
364.543410024
 21
30.6035511455
 12
364.0809101343
 22
30.6358139363
 13
364.0809101343
 23
30.6358139363
  0
SOLID
  8
0
 62
7
  6
CONTINUOUS
 10
364.543410024
 20
30.6035511455
 11
363.3871601343
 21
30.5712868422
 12
364.0809101343
 22
30.6358139363
 13
364.0809101343
 23
30.6358139363
  0
SOLID
  8
0
 62
7
  6
CONTINUOUS
 10
363.3871601343
 20
30.5712868422
 11
363.7340351343
 21
30.6358139363
 12
364.0809101343
 22
30.6358139363
 13
364.0809101343
 23
30.6358139363
  0
SOLID
  8
0
 62
7
  6
CONTINUOUS
 10
363.3871601343
 20
30.5712868422
 11
364.543410024
 21
30.6035511455
 12
363.5027853548
 22
30.5390225267
 13
363.5027853548
 23
30.5390225267
  0
SOLID
  8
0
 62
7
  6
CONTINUOUS
 10
364.543410024
 20
30.6035511455
 11
364.369972524
 21
30.5390225267
 12
363.5027853548
 22
30.5390225267
 13
363.5027853548
 23
30.5390225267
  0
SOLID
  8
0
 62
7
  6
CONTINUOUS
 10
363.7340351343
 20
30.5067596914
 11
363.5027853548
 21
30.5390225267
 12
364.369972524
 22
30.5390225267
 13
364.369972524
 23
30.5390225267
  0
SOLID
  8
0
 62
7
  6
CONTINUOUS
 10
364.369972524
 20
30.5390225267
 11
364.0809101343
 21
30.5067596914
 12
363.7340351343
 22
30.5067596914
 13
363.7340351343
 23
30.5067596914
  0
SOLID
  8
0
 62
7
  6
CONTINUOUS
 10
368.7637229651
 20
30.6680782357
 11
368.4168479651
 21
30.6358138717
 12
368.6480977445
 22
30.7003410226
 13
368.6480977445
 23
30.7003410226
  0
SOLID
  8
0
 62
7
  6
CONTINUOUS
 10
368.6480977445
 20
30.7003410226
 11
368.4168479651
 21
30.6358138717
 12
368.5902854651
 22
30.7648680521
 13
368.5902854651
 23
30.7648680521
  0
SOLID
  8
0
 62
7
  6
CONTINUOUS
 10
368.4168479651
 20
30.6358138717
 11
368.3012227445
 21
30.7648680521
 12
368.5902854651
 22
30.7648680521
 13
368.5902854651
 23
30.7648680521
  0
SOLID
  8
0
 62
7
  6
CONTINUOUS
 10
368.7637229651
 20
30.6680782357
 11
369.1105979651
 21
30.6358138717
 12
368.4168479651
 22
30.6358138717
 13
368.4168479651
 23
30.6358138717
  0
SOLID
  8
0
 62
7
  6
CONTINUOUS
 10
365.4684104651
 20
30.5067597521
 11
365.4684104651
 21
31.5391977439
 12
365.757472524
 22
30.5067597521
 13
365.757472524
 23
31.5391977439
  0
ENDBLK
  8
0
  6
BYBLOCK
 62
0
  0
BLOCK
  8
0
 62
2
  6
CONTINUOUS
  2
SYMBOL_0_BL0
 70
64
 10
240.8592468615
 20
19.762288695
  0
TEXT
  8
0
 62
7
  6
CONTINUOUS
 10
227.1239507038
 20
19.1357028027
  7
TEXTSTYLE_3
 40
2.7338706658
  1
Ammeraal Beltech
 41
1.0
 51
15.0
 72
0
  0
TEXT
  8
0
 62
7
  6
CONTINUOUS
 10
237.9247515296
 20
16.8621661299
  7
TEXTSTYLE_4
 40
1.0935482663
  1
Innovation & Service in Belting
 41
1.0
 72
0
  0
LINE
  8
0
 62
7
  6
CONTINUOUS
 10
221.0994100525
 20
19.9022961113
 11
221.8775620458
 21
23.5632134089
  0
LINE
  8
0
 62
7
  6
CONTINUOUS
 10
231.9727303357
 20
27.2266073205
 11
222.3653797889
 21
24.1049898993
  0
LINE
  8
0
 62
7
  6
CONTINUOUS
 10
221.3246933848
 20
19.2089453082
 11
228.8317686459
 21
12.4495443822
  0
LINE
  8
0
 62
7
  6
CONTINUOUS
 10
221.5872277955
 20
20.4440726016
 11
232.3954971607
 21
23.9558922005
  0
LINE
  8
0
 62
7
  6
CONTINUOUS
 10
232.3912920235
 20
13.6061036368
 11
223.9458323548
 21
21.2104296785
  0
LINE
  8
0
 62
7
  6
CONTINUOUS
 10
232.9111147433
 20
26.3816822048
 11
231.9345552061
 21
21.7873308023
  0
LINE
  8
0
 62
7
  6
CONTINUOUS
 10
231.2347532584
 20
18.4950214885
 11
230.5483050469
 21
15.2655365641
  0
LINE
  8
0
 62
7
  6
CONTINUOUS
 10
233.5922108419
 20
13.9963058145
 11
234.5484423775
 21
18.4950214885
  0
LINE
  8
0
 62
7
  6
CONTINUOUS
 10
235.2482443252
 20
21.7873308023
 11
235.6924861276
 21
23.8773241617
  0
LINE
  8
0
 62
7
  6
CONTINUOUS
 10
229.5448697213
 20
12.2979700695
 11
233.1043930989
 21
13.4545293241
  0
LINE
  8
0
 62
7
  6
CONTINUOUS
 10
232.685831411
 20
27.0750330078
 11
235.4672027953
 21
24.5706749648
  0
ARC
  8
0
 62
7
  6
CONTINUOUS
 10
222.5906631212
 20
23.4116390962
 40
0.7290321776
 50
108.0
 51
168.0
  0
ARC
  8
0
 62
7
  6
CONTINUOUS
 10
232.198013668
 20
26.5332565175
 40
0.7290321776
 50
348.0
 51
108.0
  0
ARC
  8
0
 62
7
  6
CONTINUOUS
 10
234.9793850522
 20
24.0288984744
 40
0.7290321776
 50
348.0
 51
48.0
  0
ARC
  8
0
 62
7
  6
CONTINUOUS
 10
229.319586389
 20
12.9913208726
 40
0.7290321776
 50
228.0
 51
288.0
  0
ARC
  8
0
 62
7
  6
CONTINUOUS
 10
221.8125111278
 20
19.7507217986
 40
0.7290321776
 50
108.0
 51
228.0
  0
ARC
  8
0
 62
7
  6
CONTINUOUS
 10
232.8791097665
 20
14.1478801272
 40
0.7290321776
 50
228.0
 51
348.0
  0
ENDBLK
  8
0
  6
BYBLOCK
 62
0
  0
ENDSEC
  0
SECTION
  2
ENTITIES
  0
TEXT
  8
0
 62
5
  6
CONTINUOUS
 10
304.937007874
 20
25.636
  7
TEXTSTYLE_2
 40
2.8
  1
Scale :
 41
0.6
 51
0.000019
 72
0
  0
TEXT
  8
0
 62
5
  6
CONTINUOUS
 10
324.937007874
 20
25.636
  7
TEXTSTYLE_2
 40
2.8
  1
Belt type:
 41
0.6
 51
0.000019
 72
0
  0
INSERT
  8
0
 62
2
  6
CONTINUOUS
  2
SYMBOL_0_BL0
 10
240.8592468615
 20
19.762288695
  0
INSERT
  8
0
 62
2
  6
CONTINUOUS
  2
SYMBOL_5_BL1
 10
382.7840918555
 20
35.5067593403
  0
LINE
  8
0
 62
2
  6
CONTINUOUS
 10
218.937007874
 20
30.0
 11
408.937007874
 21
30.0
  0
LINE
  8
0
 62
2
  6
CONTINUOUS
 10
218.937007874
 20
30.0
 11
218.937007874
 21
10.0
  0
LINE
  8
0
 62
2
  6
CONTINUOUS
 10
218.937007874
 20
10.0
 11
408.937007874
 21
10.0
  0
LINE
  8
0
 62
2
  6
CONTINUOUS
 10
303.937007874
 20
30.0
 11
303.937007874
 21
10.0
  0
LINE
  8
0
 62
2
  6
CONTINUOUS
 10
323.937007874
 20
30.0
 11
323.937007874
 21
10.0
  0
LINE
  8
0
 62
2
  6
CONTINUOUS
 10
408.937007874
 20
30.0
 11
408.937007874
 21
10.0
  0
TEXT
  8
0
 62
5
  6
CONTINUOUS
 10
221.937007874
 20
23.303
  7
TEXTSTYLE_5
 40
1.52
  1
                                                                     Ammeraal Beltech Modular A/S
 41
1.0
 72
0
  0
TEXT
  8
0
 62
5
  6
CONTINUOUS
 10
221.937007874
 20
20.595
  7
TEXTSTYLE_5
 40
1.5
  1
                                                                      Hjulmagervej 21, 7100 Vejle,  DK
 41
1.0
 72
0
  0
TEXT
  8
0
 62
5
  6
CONTINUOUS
 10
221.937007874
 20
17.881
  7
TEXTSTYLE_5
 40
1.495
  1
                                                                      tel: 
 41
1.0
 72
0
  0
TEXT
  8
0
 62
5
  6
CONTINUOUS
 10
266.9239544389
 20
17.881
  7
TEXTSTYLE_5
 40
1.51
  1
+45 75723100     fax: +45 75723348
 41
1.0
 72
0
  0
TEXT
  8
0
 62
5
  6
CONTINUOUS
 10
221.937007874
 20
15.177
  7
TEXTSTYLE_5
 40
1.5
  1
                                                                      admin@unichains.dk  www.unichains.com
 41
1.0
 72
0
  0
TEXT
  8
0
 62
5
  6
CONTINUOUS
 10
308.687007874
 20
13.75
  7
TEXTSTYLE_6
 40
5.0
  1
1:1
 41
0.7
 72
1
 11
313.937007874
 21
13.75
  0
TEXT
  8
0
 62
5
  6
CONTINUOUS
 10
326.937007874
 20
13.75
  7
TEXTSTYLE_7
 40
7.5
  1
uni Flex ASB-43-Tab K1200 Both
 41
0.364375
 72
0
  0
LINE
  8
0
 62
7
  6
CONTINUOUS
 10
0.0
 20
0.0
 11
0.0
 21
297.0
  0
LINE
  8
0
 62
7
  6
CONTINUOUS
 10
8.937007874
 20
10.0
 11
8.937007874
 21
287.0
  0
LINE
  8
0
 62
7
  6
CONTINUOUS
 10
0.0
 20
0.0
 11
420.0
 21
0.0
  0
LINE
  8
0
 62
7
  6
CONTINUOUS
 10
408.937007874
 20
10.0
 11
8.937007874
 21
10.0
  0
LINE
  8
0
 62
7
  6
CONTINUOUS
 10
218.937007874
 20
30.0
 11
408.937007874
 21
30.0
  0
LINE
  8
0
 62
7
  6
CONTINUOUS
 10
210.0
 20
297.0
 11
210.0
 21
292.0
  0
LINE
  8
0
 62
7
  6
CONTINUOUS
 10
210.0
 20
0.0
 11
210.0
 21
5.0
  0
LINE
  8
0
 62
7
  6
CONTINUOUS
 10
8.937007874
 20
287.0
 11
408.937007874
 21
287.0
  0
LINE
  8
0
 62
7
  6
CONTINUOUS
 10
0.0
 20
297.0
 11
420.0
 21
297.0
  0
LINE
  8
0
 62
7
  6
CONTINUOUS
 10
408.937007874
 20
287.0
 11
408.937007874
 21
10.0
  0
LINE
  8
0
 62
7
  6
CONTINUOUS
 10
420.0
 20
0.0
 11
420.0
 21
297.0
  0
LINE
  8
0
 62
7
  6
CONTINUOUS
 10
31.6803300351
 20
183.012202973
 11
32.4102635079
 21
171.077896186
  0
LINE
  8
SURFACE
 62
7
  6
CONTINUOUS
 10
32.4102635079
 20
171.077896186
 11
31.6803300351
 21
183.012202973
  0
LINE
  8
0
 62
7
  6
CONTINUOUS
 10
31.2688442888
 20
194.0808741484
 11
31.2688442888
 21
183.3499932651
  0
POLYLINE
  8
0
 62
7
  6
CONTINUOUS
 66
1
 70
0
  0
VERTEX
  8
0
 62
7
  6
CONTINUOUS
 10
36.5121778968
 20
183.1339458762
  0
VERTEX
  8
0
 62
7
  6
CONTINUOUS
 10
36.5158049345
 20
182.971910749
  0
VERTEX
  8
0
 62
7
  6
CONTINUOUS
 10
36.5180615643
 20
182.8034646652
  0
SEQEND
  0
POLYLINE
  8
SURFACE
 62
7
  6
CONTINUOUS
 66
1
 70
0
  0
VERTEX
  8
SURFACE
 62
7
  6
CONTINUOUS
 10
36.5189612831
 20
182.6285658072
  0
VERTEX
  8
SURFACE
 62
7
  6
CONTINUOUS
 10
36.5590299517
 20
178.2952825526
  0
VERTEX
  8
SURFACE
 62
7
  6
CONTINUOUS
 10
36.5958104825
 20
173.9564834682
  0
SEQEND
  0
LINE
  8
0
 62
7
  6
CONTINUOUS
 10
36.5180615643
 20
182.8034646652
 11
36.5189612831
 21
182.6285658072
  0
LINE
  8
SURFACE
 62
7
  6
CONTINUOUS
 10
36.5188442888
 20
182.6565932651
 11
36.5188442888
 21
182.6285646937
  0
LINE
  8
0
 62
7
  6
CONTINUOUS
 10
36.5188442888
 20
182.6285646937
 11
36.5188442888
 21
183.1999932651
  0
LINE
  8
SURFACE
 62
7
  6
CONTINUOUS
 10
36.7895442888
 20
182.3858932651
 11
36.7895442888
 21
174.3999932531
  0
LINE
  8
0
 62
7
  6
CONTINUOUS
 10
38.6438442888
 20
183.9499932651
 11
38.6438442888
 21
194.4499932651
  0
POLYLINE
  8
0
 62
7
  6
CONTINUOUS
 66
1
 70
0
  0
VERTEX
  8
0
 62
7
  6
CONTINUOUS
 10
36.5079468635
 20
183.1999932651
  0
VERTEX
  8
0
 62
7
  6
CONTINUOUS
 10
36.5086827704
 20
183.1936612653
  0
VERTEX
  8
0
 62
7
  6
CONTINUOUS
 10
36.5108181054
 20
183.1658658136
  0
VERTEX
  8
0
 62
7
  6
CONTINUOUS
 10
36.5121778787
 20
183.1339457093
  0
SEQEND
  0
LINE
  8
SURFACE
 62
7
  6
CONTINUOUS
 10
44.4188442888
 20
174.1999928145
 11
44.4188442888
 21
170.1999932651
  0
LINE
  8
0
 62
7
  6
CONTINUOUS
 10
44.6438442888
 20
183.9499932651
 11
44.6438442888
 21
194.4499932651
  0
POLYLINE
  8
0
 62
7
  6
CONTINUOUS
 66
1
 70
0
  0
VERTEX
  8
0
 62
7
  6
CONTINUOUS
 10
38.6438442888
 20
188.2007965007
  0
VERTEX
  8
0
 62
7
  6
CONTINUOUS
 10
38.6191724376
 20
188.2854209056
  0
VERTEX
  8
0
 62
7
  6
CONTINUOUS
 10
38.5885124665
 20
188.405885193
  0
VERTEX
  8
0
 62
7
  6
CONTINUOUS
 10
38.5620367031
 20
188.527504935
  0
VERTEX
  8
0
 62
7
  6
CONTINUOUS
 10
38.5398805785
 20
188.6499038222
  0
VERTEX
  8
0
 62
7
  6
CONTINUOUS
 10
38.5221667158
 20
188.7725044923
  0
VERTEX
  8
0
 62
7
  6
CONTINUOUS
 10
38.5089099919
 20
188.8951272359
  0
VERTEX
  8
0
 62
7
  6
CONTINUOUS
 10
38.5000970462
 20
189.0177940834
  0
VERTEX
  8
0
 62
7
  6
CONTINUOUS
 10
38.4957252939
 20
189.14044669
  0
VERTEX
  8
0
 62
7
  6
CONTINUOUS
 10
38.4957895881
 20
189.2630957134
  0
VERTEX
  8
0
 62
7
  6
CONTINUOUS
 10
38.5002901514
 20
189.3857513289
  0
VERTEX
  8
0
 62
7
  6
CONTINUOUS
 10
38.5092318158
 20
189.5084157073
  0
VERTEX
  8
0
 62
7
  6
CONTINUOUS
 10
38.5226193272
 20
189.6310514409
  0
VERTEX
  8
0
 62
7
  6
CONTINUOUS
 10
38.5404488813
 20
189.7535639965
  0
VERTEX
  8
0
 62
7
  6
CONTINUOUS
 10
38.562685407
 20
189.8757276878
  0
VERTEX
  8
0
 62
7
  6
CONTINUOUS
 10
38.5892757008
 20
189.9973272503
  0
VERTEX
  8
0
 62
7
  6
CONTINUOUS
 10
38.6199264008
 20
190.1173227699
  0
VERTEX
  8
0
 62
7
  6
CONTINUOUS
 10
38.6438442888
 20
190.1991861301
  0
SEQEND
  0
POLYLINE
  8
0
 62
7
  6
CONTINUOUS
 66
1
 70
0
  0
VERTEX
  8
0
 62
7
  6
CONTINUOUS
 10
60.2688442888
 20
187.8762523301
  0
VERTEX
  8
0
 62
7
  6
CONTINUOUS
 10
60.2705004251
 20
187.8491059084
  0
VERTEX
  8
0
 62
7
  6
CONTINUOUS
 10
60.275108385
 20
187.8248018567
  0
VERTEX
  8
0
 62
7
  6
CONTINUOUS
 10
60.2821887916
 20
187.8032792651
  0
VERTEX
  8
0
 62
7
  6
CONTINUOUS
 10
60.291412911
 20
187.7843048963
  0
VERTEX
  8
0
 62
7
  6
CONTINUOUS
 10
60.3024242421
 20
187.7676764627
  0
VERTEX
  8
0
 62
7
  6
CONTINUOUS
 10
60.314799009
 20
187.7533836856
  0
VERTEX
  8
0
 62
7
  6
CONTINUOUS
 10
60.3281204333
 20
187.7414391142
  0
VERTEX
  8
0
 62
7
  6
CONTINUOUS
 10
60.3420978122
 20
187.7317034222
  0
VERTEX
  8
0
 62
7
  6
CONTINUOUS
 10
60.3565217956
 20
187.7239952742
  0
VERTEX
  8
0
 62
7
  6
CONTINUOUS
 10
60.3712245776
 20
187.7181511611
  0
VERTEX
  8
0
 62
7
  6
CONTINUOUS
 10
60.3861170161
 20
187.7140077504
  0
SEQEND
  0
LINE
  8
0
 62
7
  6
CONTINUOUS
 10
52.9788442888
 20
187.1000908469
 11
52.9788442888
 21
183.3499932651
  0
LINE
  8
0
 62
7
  6
CONTINUOUS
 10
54.2688442888
 20
184.2127765065
 11
54.2688442888
 21
194.4499932651
  0
LINE
  8
0
 62
7
  6
CONTINUOUS
 10
60.2688442888
 20
184.2127765065
 11
60.2688442888
 21
194.4499932651
  0
LINE
  8
0
 62
7
  6
CONTINUOUS
 10
61.5588442888
 20
187.1004370216
 11
61.5588442888
 21
183.3499932651
  0
LINE
  8
0
 62
7
  6
CONTINUOUS
 10
68.7688442888
 20
183.9499932651
 11
68.7688442888
 21
194.4499932651
  0
LINE
  8
0
 62
7
  6
CONTINUOUS
 10
74.7688442888
 20
183.9499932651
 11
74.7688442888
 21
194.4499932651
  0
LINE
  8
SURFACE
 62
7
  6
CONTINUOUS
 10
36.7895442888
 20
182.3858932651
 11
36.5188442888
 21
182.6565932651
  0
LINE
  8
0
 62
7
  6
CONTINUOUS
 10
82.5188442888
 20
194.4499932651
 11
82.5188442888
 21
183.9499932651
  0
LINE
  8
0
 62
7
  6
CONTINUOUS
 10
88.5188442888
 20
183.9499932651
 11
88.5188442888
 21
194.4499932651
  0
POLYLINE
  8
0
 62
7
  6
CONTINUOUS
 66
1
 70
0
  0
VERTEX
  8
0
 62
7
  6
CONTINUOUS
 10
52.9788471174
 20
187.1000885056
  0
VERTEX
  8
0
 62
7
  6
CONTINUOUS
 10
52.9817889153
 20
187.1030403035
  0
VERTEX
  8
0
 62
7
  6
CONTINUOUS
 10
52.9904975039
 20
187.1101438656
  0
VERTEX
  8
0
 62
7
  6
CONTINUOUS
 10
53.0049778196
 20
187.121374861
  0
VERTEX
  8
0
 62
7
  6
CONTINUOUS
 10
53.0253827498
 20
187.136708593
  0
VERTEX
  8
0
 62
7
  6
CONTINUOUS
 10
53.0519795942
 20
187.1562315344
  0
VERTEX
  8
0
 62
7
  6
CONTINUOUS
 10
53.0852089227
 20
187.1801675459
  0
VERTEX
  8
0
 62
7
  6
CONTINUOUS
 10
53.1253429034
 20
187.208569664
  0
VERTEX
  8
0
 62
7
  6
CONTINUOUS
 10
53.1723718624
 20
187.2411691748
  0
VERTEX
  8
0
 62
7
  6
CONTINUOUS
 10
53.2266678982
 20
187.2778930734
  0
VERTEX
  8
0
 62
7
  6
CONTINUOUS
 10
53.2885050152
 20
187.3185070486
  0
VERTEX
  8
0
 62
7
  6
CONTINUOUS
 10
53.3578590803
 20
187.3625152791
  0
VERTEX
  8
0
 62
7
  6
CONTINUOUS
 10
53.4341463184
 20
187.4089464036
  0
VERTEX
  8
0
 62
7
  6
CONTINUOUS
 10
53.5162066398
 20
187.4564024088
  0
VERTEX
  8
0
 62
7
  6
CONTINUOUS
 10
53.6027566248
 20
187.5034261707
  0
VERTEX
  8
0
 62
7
  6
CONTINUOUS
 10
53.6927495408
 20
187.5487983312
  0
VERTEX
  8
0
 62
7
  6
CONTINUOUS
 10
53.7851176521
 20
187.5913936272
  0
VERTEX
  8
0
 62
7
  6
CONTINUOUS
 10
53.8785573751
 20
187.6300079927
  0
VERTEX
  8
0
 62
7
  6
CONTINUOUS
 10
53.971792051
 20
187.6637117897
  0
VERTEX
  8
0
 62
7
  6
CONTINUOUS
 10
54.0633364057
 20
187.6918253038
  0
VERTEX
  8
0
 62
7
  6
CONTINUOUS
 10
54.1515715615
 20
187.7140077504
  0
SEQEND
  0
LINE
  8
0
 62
7
  6
CONTINUOUS
 10
95.6188442888
 20
194.4499932651
 11
95.6188442888
 21
183.9499932651
  0
LINE
  8
0
 62
7
  6
CONTINUOUS
 10
101.6188442888
 20
183.9499932651
 11
101.6188442888
 21
194.4499932651
  0
LINE
  8
0
 62
7
  6
CONTINUOUS
 10
108.3188442888
 20
194.4499932651
 11
108.3188442888
 21
183.9499932651
  0
LINE
  8
0
 62
7
  6
CONTINUOUS
 10
114.3188442888
 20
183.9499932651
 11
114.3188442888
 21
194.4499932651
  0
LINE
  8
0
 62
7
  6
CONTINUOUS
 10
121.0188442888
 20
194.4499932651
 11
121.0188442888
 21
183.9499932651
  0
LINE
  8
0
 62
7
  6
CONTINUOUS
 10
127.0188442888
 20
183.9499932651
 11
127.0188442888
 21
194.4499932651
  0
LINE
  8
0
 62
7
  6
CONTINUOUS
 10
133.7188442888
 20
194.4499932651
 11
133.7188442888
 21
183.9499932651
  0
LINE
  8
0
 62
7
  6
CONTINUOUS
 10
139.7188442888
 20
183.9499932651
 11
139.7188442888
 21
194.4499932651
  0
LINE
  8
0
 62
7
  6
CONTINUOUS
 10
146.4188442888
 20
194.4499932651
 11
146.4188442888
 21
183.9499932651
  0
LINE
  8
0
 62
7
  6
CONTINUOUS
 10
152.4188442888
 20
183.9499932651
 11
152.4188442888
 21
194.4499932651
  0
LINE
  8
0
 62
7
  6
CONTINUOUS
 10
159.1188442888
 20
194.4499932651
 11
159.1188442888
 21
183.9499932651
  0
POLYLINE
  8
0
 62
7
  6
CONTINUOUS
 66
1
 70
0
  0
VERTEX
  8
0
 62
7
  6
CONTINUOUS
 10
301.9515715615
 20
187.7140077504
  0
VERTEX
  8
0
 62
7
  6
CONTINUOUS
 10
301.8640286078
 20
187.6919841839
  0
VERTEX
  8
0
 62
7
  6
CONTINUOUS
 10
301.7724383996
 20
187.6638740229
  0
VERTEX
  8
0
 62
7
  6
CONTINUOUS
 10
301.6791596366
 20
187.6302220282
  0
VERTEX
  8
0
 62
7
  6
CONTINUOUS
 10
301.5860036323
 20
187.5917900446
  0
VERTEX
  8
0
 62
7
  6
CONTINUOUS
 10
301.4937710915
 20
187.5492930147
  0
VERTEX
  8
0
 62
7
  6
CONTINUOUS
 10
301.4035757879
 20
187.5038644291
  0
VERTEX
  8
0
 62
7
  6
CONTINUOUS
 10
301.3166128203
 20
187.4566665394
  0
VERTEX
  8
0
 62
7
  6
CONTINUOUS
 10
301.2344534831
 20
187.4091717011
  0
VERTEX
  8
0
 62
7
  6
CONTINUOUS
 10
301.1582252862
 20
187.3627557301
  0
VERTEX
  8
0
 62
7
  6
CONTINUOUS
 10
301.0889137992
 20
187.3187744688
  0
VERTEX
  8
0
 62
7
  6
CONTINUOUS
 10
301.0270684468
 20
187.2781951946
  0
VERTEX
  8
0
 62
7
  6
CONTINUOUS
 10
300.9727193617
 20
187.2414715616
  0
VERTEX
  8
0
 62
7
  6
CONTINUOUS
 10
300.9257149227
 20
187.2088848074
  0
VERTEX
  8
0
 62
7
  6
CONTINUOUS
 10
300.8857192662
 20
187.1805508808
  0
VERTEX
  8
0
 62
7
  6
CONTINUOUS
 10
300.8524596261
 20
187.1565778058
  0
VERTEX
  8
0
 62
7
  6
CONTINUOUS
 10
300.8256398808
 20
187.1368909999
  0
VERTEX
  8
0
 62
7
  6
CONTINUOUS
 10
300.8049764168
 20
187.1213620904
  0
VERTEX
  8
0
 62
7
  6
CONTINUOUS
 10
300.7904311378
 20
187.1101059315
  0
VERTEX
  8
0
 62
7
  6
CONTINUOUS
 10
300.7817526081
 20
187.1030378549
  0
VERTEX
  8
0
 62
7
  6
CONTINUOUS
 10
300.7788442888
 20
187.1000885053
  0
SEQEND
  0
POLYLINE
  8
0
 62
7
  6
CONTINUOUS
 66
1
 70
0
  0
VERTEX
  8
0
 62
7
  6
CONTINUOUS
 10
60.3861170161
 20
187.7140077504
  0
VERTEX
  8
0
 62
7
  6
CONTINUOUS
 10
60.4745897659
 20
187.6917509311
  0
VERTEX
  8
0
 62
7
  6
CONTINUOUS
 10
60.5655074498
 20
187.6638181595
  0
VERTEX
  8
0
 62
7
  6
CONTINUOUS
 10
60.6586326975
 20
187.6301679456
  0
VERTEX
  8
0
 62
7
  6
CONTINUOUS
 10
60.7531795109
 20
187.5911065501
  0
VERTEX
  8
0
 62
7
  6
CONTINUOUS
 10
60.847751761
 20
187.5474365681
  0
VERTEX
  8
0
 62
7
  6
CONTINUOUS
 10
60.9404835822
 20
187.5004798927
  0
VERTEX
  8
0
 62
7
  6
CONTINUOUS
 10
61.02938422
 20
187.4519086809
  0
VERTEX
  8
0
 62
7
  6
CONTINUOUS
 10
61.1127266851
 20
187.4034487182
  0
VERTEX
  8
0
 62
7
  6
CONTINUOUS
 10
61.1892880345
 20
187.3566091294
  0
VERTEX
  8
0
 62
7
  6
CONTINUOUS
 10
61.2583836481
 20
187.3125425716
  0
VERTEX
  8
0
 62
7
  6
CONTINUOUS
 10
61.3197638458
 20
187.272035807
  0
VERTEX
  8
0
 62
7
  6
CONTINUOUS
 10
61.3734726804
 20
187.2355709984
  0
VERTEX
  8
0
 62
7
  6
CONTINUOUS
 10
61.4197248454
 20
187.2034059611
  0
VERTEX
  8
0
 62
7
  6
CONTINUOUS
 10
61.4588164235
 20
187.1756468468
  0
VERTEX
  8
0
 62
7
  6
CONTINUOUS
 10
61.4910657672
 20
187.1523052557
  0
VERTEX
  8
0
 62
7
  6
CONTINUOUS
 10
61.5167760734
 20
187.1333401845
  0
VERTEX
  8
0
 62
7
  6
CONTINUOUS
 10
61.5362126645
 20
187.1186874135
  0
VERTEX
  8
0
 62
7
  6
CONTINUOUS
 10
61.549588705
 20
187.1082801249
  0
VERTEX
  8
0
 62
7
  6
CONTINUOUS
 10
61.5570586163
 20
187.1020610982
  0
VERTEX
  8
0
 62
7
  6
CONTINUOUS
 10
61.5588442885
 20
187.1000871866
  0
SEQEND
  0
LINE
  8
0
 62
7
  6
CONTINUOUS
 10
165.1188442888
 20
183.9499932651
 11
165.1188442888
 21
194.4499932651
  0
LINE
  8
0
 62
7
  6
CONTINUOUS
 10
171.8188442888
 20
194.4499932651
 11
171.8188442888
 21
183.9499932651
  0
POLYLINE
  8
0
 62
7
  6
CONTINUOUS
 66
1
 70
0
  0
VERTEX
  8
0
 62
7
  6
CONTINUOUS
 10
325.5432929373
 20
173.7595948715
  0
VERTEX
  8
0
 62
7
  6
CONTINUOUS
 10
325.5654574546
 20
173.7608227774
  0
VERTEX
  8
0
 62
7
  6
CONTINUOUS
 10
325.5873767872
 20
173.7645035883
  0
VERTEX
  8
0
 62
7
  6
CONTINUOUS
 10
325.608643304
 20
173.7705632869
  0
VERTEX
  8
0
 62
7
  6
CONTINUOUS
 10
325.6290688376
 20
173.7789299279
  0
VERTEX
  8
0
 62
7
  6
CONTINUOUS
 10
325.6485104836
 20
173.7895603665
  0
VERTEX
  8
0
 62
7
  6
CONTINUOUS
 10
325.6666523898
 20
173.8023067561
  0
VERTEX
  8
0
 62
7
  6
CONTINUOUS
 10
325.6831714207
 20
173.8169258999
  0
VERTEX
  8
0
 62
7
  6
CONTINUOUS
 10
325.6979355176
 20
173.8332699734
  0
VERTEX
  8
0
 62
7
  6
CONTINUOUS
 10
325.7108696774
 20
173.8512843938
  0
VERTEX
  8
0
 62
7
  6
CONTINUOUS
 10
325.7217242246
 20
173.8706728706
  0
VERTEX
  8
0
 62
7
  6
CONTINUOUS
 10
325.7303163909
 20
173.8910912807
  0
VERTEX
  8
0
 62
7
  6
CONTINUOUS
 10
325.7365772
 20
173.9123235784
  0
VERTEX
  8
0
 62
7
  6
CONTINUOUS
 10
325.7404597532
 20
173.9342550478
  0
VERTEX
  8
0
 62
7
  6
CONTINUOUS
 10
325.7418780951
 20
173.9564834682
  0
SEQEND
  0
LINE
  8
SURFACE
 62
7
  6
CONTINUOUS
 10
43.4188442888
 20
169.1999932651
 11
34.4065540181
 21
169.1999932651
  0
LINE
  8
0
 62
7
  6
CONTINUOUS
 10
318.9188442888
 20
169.1999932651
 11
327.9311345616
 21
169.1999932651
  0
POLYLINE
  8
SURFACE
 62
7
  6
CONTINUOUS
 66
1
 70
0
  0
VERTEX
  8
SURFACE
 62
7
  6
CONTINUOUS
 10
36.7943956403
 20
173.7595948715
  0
VERTEX
  8
SURFACE
 62
7
  6
CONTINUOUS
 10
36.772231123
 20
173.7608227774
  0
VERTEX
  8
SURFACE
 62
7
  6
CONTINUOUS
 10
36.7503117903
 20
173.7645035883
  0
VERTEX
  8
SURFACE
 62
7
  6
CONTINUOUS
 10
36.7290452736
 20
173.7705632869
  0
VERTEX
  8
SURFACE
 62
7
  6
CONTINUOUS
 10
36.70861974
 20
173.7789299279
  0
VERTEX
  8
SURFACE
 62
7
  6
CONTINUOUS
 10
36.689178094
 20
173.7895603665
  0
VERTEX
  8
SURFACE
 62
7
  6
CONTINUOUS
 10
36.6710361878
 20
173.8023067561
  0
VERTEX
  8
SURFACE
 62
7
  6
CONTINUOUS
 10
36.6545171569
 20
173.8169258999
  0
VERTEX
  8
SURFACE
 62
7
  6
CONTINUOUS
 10
36.63975306
 20
173.8332699734
  0
VERTEX
  8
SURFACE
 62
7
  6
CONTINUOUS
 10
36.6268189002
 20
173.8512843938
  0
VERTEX
  8
SURFACE
 62
7
  6
CONTINUOUS
 10
36.615964353
 20
173.8706728706
  0
VERTEX
  8
SURFACE
 62
7
  6
CONTINUOUS
 10
36.6073721866
 20
173.8910912807
  0
VERTEX
  8
SURFACE
 62
7
  6
CONTINUOUS
 10
36.6011113776
 20
173.9123235784
  0
VERTEX
  8
SURFACE
 62
7
  6
CONTINUOUS
 10
36.5972288244
 20
173.9342550478
  0
VERTEX
  8
SURFACE
 62
7
  6
CONTINUOUS
 10
36.5958104825
 20
173.9564834682
  0
SEQEND
  0
LINE
  8
0
 62
7
  6
CONTINUOUS
 10
177.8188442888
 20
183.9499932651
 11
177.8188442888
 21
194.4499932651
  0
LINE
  8
DEFAULT_1
 62
2
  6
CENTER
 10
181.1688442888
 20
179.8769778607
 11
181.1688442888
 21
179.5179789548
  0
LINE
  8
DEFAULT_1
 62
2
  6
CENTER
 10
181.1688442888
 20
180.7146419745
 11
181.1688442888
 21
197.2119936845
  0
POLYLINE
  8
SURFACE
 62
7
  6
CONTINUOUS
 66
1
 70
0
  0
VERTEX
  8
SURFACE
 62
7
  6
CONTINUOUS
 10
42.4188442888
 20
173.7595948716
  0
VERTEX
  8
SURFACE
 62
7
  6
CONTINUOUS
 10
42.5490078251
 20
173.7604860541
  0
VERTEX
  8
SURFACE
 62
7
  6
CONTINUOUS
 10
42.67894795
 20
173.7631593585
  0
VERTEX
  8
SURFACE
 62
7
  6
CONTINUOUS
 10
42.8078264728
 20
173.7675888456
  0
VERTEX
  8
SURFACE
 62
7
  6
CONTINUOUS
 10
42.9348521098
 20
173.7737170519
  0
VERTEX
  8
SURFACE
 62
7
  6
CONTINUOUS
 10
43.0597708054
 20
173.7814921792
  0
VERTEX
  8
SURFACE
 62
7
  6
CONTINUOUS
 10
43.1823035653
 20
173.790859251
  0
VERTEX
  8
SURFACE
 62
7
  6
CONTINUOUS
 10
43.3016353054
 20
173.8017090387
  0
VERTEX
  8
SURFACE
 62
7
  6
CONTINUOUS
 10
43.4170174676
 20
173.8139074077
  0
VERTEX
  8
SURFACE
 62
7
  6
CONTINUOUS
 10
43.5282072719
 20
173.8273562168
  0
VERTEX
  8
SURFACE
 62
7
  6
CONTINUOUS
 10
43.6349443055
 20
173.8419570159
  0
VERTEX
  8
SURFACE
 62
7
  6
CONTINUOUS
 10
43.7364931706
 20
173.857537312
  0
VERTEX
  8
SURFACE
 62
7
  6
CONTINUOUS
 10
43.8321939889
 20
173.8739090027
  0
VERTEX
  8
SURFACE
 62
7
  6
CONTINUOUS
 10
43.9218373594
 20
173.8909472273
  0
VERTEX
  8
SURFACE
 62
7
  6
CONTINUOUS
 10
44.0052063518
 20
173.9085326573
  0
VERTEX
  8
SURFACE
 62
7
  6
CONTINUOUS
 10
44.0817287268
 20
173.9264676717
  0
VERTEX
  8
SURFACE
 62
7
  6
CONTINUOUS
 10
44.1509176812
 20
173.944551103
  0
VERTEX
  8
SURFACE
 62
7
  6
CONTINUOUS
 10
44.2126435869
 20
173.962664799
  0
VERTEX
  8
SURFACE
 62
7
  6
CONTINUOUS
 10
44.2667652952
 20
173.9807018047
  0
VERTEX
  8
SURFACE
 62
7
  6
CONTINUOUS
 10
44.3129229358
 20
173.9984844967
  0
VERTEX
  8
SURFACE
 62
7
  6
CONTINUOUS
 10
44.3508472692
 20
174.0158417979
  0
VERTEX
  8
SURFACE
 62
7
  6
CONTINUOUS
 10
44.3804918513
 20
174.0326896951
  0
VERTEX
  8
SURFACE
 62
7
  6
CONTINUOUS
 10
44.4017870148
 20
174.0489574098
  0
VERTEX
  8
SURFACE
 62
7
  6
CONTINUOUS
 10
44.4145863702
 20
174.0645171621
  0
VERTEX
  8
SURFACE
 62
7
  6
CONTINUOUS
 10
44.4188442888
 20
174.0792556928
  0
SEQEND
  0
LINE
  8
0
 62
7
  6
CONTINUOUS
 10
325.5432929373
 20
173.7595948715
 11
319.9188442888
 21
173.7595948716
  0
LINE
  8
SURFACE
 62
7
  6
CONTINUOUS
 10
36.7943956403
 20
173.7595948715
 11
42.4188442888
 21
173.7595948716
  0
LINE
  8
SURFACE
 62
7
  6
CONTINUOUS
 10
325.3481443055
 20
174.1999932651
 11
317.9188442888
 21
174.1999932651
  0
LINE
  8
SURFACE
 62
7
  6
CONTINUOUS
 10
44.4188442888
 20
174.1999932651
 11
36.9895442721
 21
174.1999932651
  0
LINE
  8
0
 62
7
  6
CONTINUOUS
 10
31.4188442888
 20
183.1999932651
 11
330.9188442888
 21
183.1999932651
  0
POLYLINE
  8
0
 62
7
  6
CONTINUOUS
 66
1
 70
0
  0
VERTEX
  8
0
 62
7
  6
CONTINUOUS
 10
319.9188442888
 20
173.7595948716
  0
VERTEX
  8
0
 62
7
  6
CONTINUOUS
 10
319.7886807525
 20
173.7604860541
  0
VERTEX
  8
0
 62
7
  6
CONTINUOUS
 10
319.6587406276
 20
173.7631593585
  0
VERTEX
  8
0
 62
7
  6
CONTINUOUS
 10
319.5298621048
 20
173.7675888456
  0
VERTEX
  8
0
 62
7
  6
CONTINUOUS
 10
319.4028364677
 20
173.7737170519
  0
VERTEX
  8
0
 62
7
  6
CONTINUOUS
 10
319.2779177722
 20
173.7814921792
  0
VERTEX
  8
0
 62
7
  6
CONTINUOUS
 10
319.1553850123
 20
173.790859251
  0
VERTEX
  8
0
 62
7
  6
CONTINUOUS
 10
319.0360532722
 20
173.8017090387
  0
VERTEX
  8
0
 62
7
  6
CONTINUOUS
 10
318.9206711099
 20
173.8139074077
  0
VERTEX
  8
0
 62
7
  6
CONTINUOUS
 10
318.8094813057
 20
173.8273562168
  0
VERTEX
  8
0
 62
7
  6
CONTINUOUS
 10
318.7027442721
 20
173.8419570159
  0
VERTEX
  8
0
 62
7
  6
CONTINUOUS
 10
318.6011954069
 20
173.857537312
  0
VERTEX
  8
0
 62
7
  6
CONTINUOUS
 10
318.5054945887
 20
173.8739090027
  0
VERTEX
  8
0
 62
7
  6
CONTINUOUS
 10
318.4158512182
 20
173.8909472273
  0
VERTEX
  8
0
 62
7
  6
CONTINUOUS
 10
318.3324822258
 20
173.9085326573
  0
VERTEX
  8
0
 62
7
  6
CONTINUOUS
 10
318.2559598508
 20
173.9264676717
  0
VERTEX
  8
0
 62
7
  6
CONTINUOUS
 10
318.1867708963
 20
173.944551103
  0
VERTEX
  8
0
 62
7
  6
CONTINUOUS
 10
318.1250449906
 20
173.962664799
  0
VERTEX
  8
0
 62
7
  6
CONTINUOUS
 10
318.0709232824
 20
173.9807018047
  0
VERTEX
  8
0
 62
7
  6
CONTINUOUS
 10
318.0247656417
 20
173.9984844967
  0
VERTEX
  8
0
 62
7
  6
CONTINUOUS
 10
317.9868413084
 20
174.0158417979
  0
VERTEX
  8
0
 62
7
  6
CONTINUOUS
 10
317.9571967263
 20
174.0326896951
  0
VERTEX
  8
0
 62
7
  6
CONTINUOUS
 10
317.9359015627
 20
174.0489574098
  0
VERTEX
  8
0
 62
7
  6
CONTINUOUS
 10
317.9231022074
 20
174.0645171621
  0
VERTEX
  8
0
 62
7
  6
CONTINUOUS
 10
317.9188442888
 20
174.0792556928
  0
SEQEND
  0
LINE
  8
0
 62
7
  6
CONTINUOUS
 10
184.5188442888
 20
183.9499932651
 11
184.5188442888
 21
194.4499932651
  0
LINE
  8
0
 62
7
  6
CONTINUOUS
 10
190.5188442888
 20
183.9499932651
 11
190.5188442888
 21
194.4499932651
  0
LINE
  8
DEFAULT_1
 62
2
  6
CENTER
 10
28.5686514711
 20
189.1999932651
 11
333.7690372228
 21
189.1999932651
  0
LINE
  8
0
 62
7
  6
CONTINUOUS
 10
197.2188442888
 20
183.9499932651
 11
197.2188442888
 21
194.4499932651
  0
LINE
  8
0
 62
7
  6
CONTINUOUS
 10
35.5860564904
 20
195.1999932651
 11
326.7516320872
 21
195.1999932651
  0
LINE
  8
0
 62
7
  6
CONTINUOUS
 10
203.2188442888
 20
183.9499932651
 11
203.2188442888
 21
194.4499932651
  0
LINE
  8
0
 62
7
  6
CONTINUOUS
 10
209.9188442888
 20
183.9499932651
 11
209.9188442888
 21
194.4499932651
  0
LINE
  8
0
 62
7
  6
CONTINUOUS
 10
215.9188442888
 20
183.9499932651
 11
215.9188442888
 21
194.4499932651
  0
LINE
  8
0
 62
7
  6
CONTINUOUS
 10
222.6188442888
 20
183.9499932651
 11
222.6188442888
 21
194.4499932651
  0
POLYLINE
  8
0
 62
7
  6
CONTINUOUS
 66
1
 70
0
  0
VERTEX
  8
0
 62
7
  6
CONTINUOUS
 10
54.1515715615
 20
187.7140077504
  0
VERTEX
  8
0
 62
7
  6
CONTINUOUS
 10
54.1663159164
 20
187.7181015937
  0
VERTEX
  8
0
 62
7
  6
CONTINUOUS
 10
54.1809522999
 20
187.7239055722
  0
VERTEX
  8
0
 62
7
  6
CONTINUOUS
 10
54.1953376678
 20
187.7315869575
  0
VERTEX
  8
0
 62
7
  6
CONTINUOUS
 10
54.2092824591
 20
187.7412954089
  0
VERTEX
  8
0
 62
7
  6
CONTINUOUS
 10
54.222602947
 20
187.7532047939
  0
VERTEX
  8
0
 62
7
  6
CONTINUOUS
 10
54.2349855933
 20
187.7673956504
  0
VERTEX
  8
0
 62
7
  6
CONTINUOUS
 10
54.2460665245
 20
187.7838953018
  0
VERTEX
  8
0
 62
7
  6
CONTINUOUS
 10
54.2554045577
 20
187.8027311618
  0
VERTEX
  8
0
 62
7
  6
CONTINUOUS
 10
54.2626107962
 20
187.8242449283
  0
VERTEX
  8
0
 62
7
  6
CONTINUOUS
 10
54.2672291443
 20
187.8486903461
  0
VERTEX
  8
0
 62
7
  6
CONTINUOUS
 10
54.2688442888
 20
187.8762523301
  0
SEQEND
  0
POLYLINE
  8
0
 62
7
  6
CONTINUOUS
 66
1
 70
0
  0
VERTEX
  8
0
 62
7
  6
CONTINUOUS
 10
308.1861170161
 20
187.7140077504
  0
VERTEX
  8
0
 62
7
  6
CONTINUOUS
 10
308.1714549926
 20
187.7180786329
  0
VERTEX
  8
0
 62
7
  6
CONTINUOUS
 10
308.1569954147
 20
187.7238013292
  0
VERTEX
  8
0
 62
7
  6
CONTINUOUS
 10
308.142767141
 20
187.731353474
  0
VERTEX
  8
0
 62
7
  6
CONTINUOUS
 10
308.1288854873
 20
187.7409198398
  0
VERTEX
  8
0
 62
7
  6
CONTINUOUS
 10
308.11550125
 20
187.7527416385
  0
VERTEX
  8
0
 62
7
  6
CONTINUOUS
 10
308.1029818988
 20
187.7669625139
  0
VERTEX
  8
0
 62
7
  6
CONTINUOUS
 10
308.0918308765
 20
187.7835934748
  0
VERTEX
  8
0
 62
7
  6
CONTINUOUS
 10
308.082513456
 20
187.8026150348
  0
VERTEX
  8
0
 62
7
  6
CONTINUOUS
 10
308.0752967851
 20
187.8242967681
  0
VERTEX
  8
0
 62
7
  6
CONTINUOUS
 10
308.0705648526
 20
187.8488094218
  0
VERTEX
  8
0
 62
7
  6
CONTINUOUS
 10
308.0688442888
 20
187.8762523301
  0
SEQEND
  0
LINE
  8
0
 62
7
  6
CONTINUOUS
 10
228.6188442888
 20
183.9499932651
 11
228.6188442888
 21
194.4499932651
  0
LINE
  8
0
 62
7
  6
CONTINUOUS
 10
31.3848672646
 20
194.2269753525
 11
35.5520794662
 21
195.1960944691
  0
LINE
  8
0
 62
7
  6
CONTINUOUS
 10
326.7856091114
 20
195.1960944691
 11
330.952821313
 21
194.2269753525
  0
LINE
  8
0
 62
7
  6
CONTINUOUS
 10
235.3188442888
 20
183.9499932651
 11
235.3188442888
 21
194.4499932651
  0
LINE
  8
0
 62
7
  6
CONTINUOUS
 10
241.3188442888
 20
183.9499932651
 11
241.3188442888
 21
194.4499932651
  0
LINE
  8
0
 62
7
  6
CONTINUOUS
 10
248.0188442888
 20
183.9499932651
 11
248.0188442888
 21
194.4499932651
  0
LINE
  8
0
 62
7
  6
CONTINUOUS
 10
254.0188442888
 20
183.9499932651
 11
254.0188442888
 21
194.4499932651
  0
LINE
  8
0
 62
7
  6
CONTINUOUS
 10
260.7188442888
 20
183.9499932651
 11
260.7188442888
 21
194.4499932651
  0
LINE
  8
0
 62
7
  6
CONTINUOUS
 10
266.7188442888
 20
183.9499932651
 11
266.7188442888
 21
194.4499932651
  0
LINE
  8
0
 62
7
  6
CONTINUOUS
 10
273.8188442888
 20
194.4499932651
 11
273.8188442888
 21
183.9499932651
  0
LINE
  8
0
 62
7
  6
CONTINUOUS
 10
279.8188442888
 20
183.9499932651
 11
279.8188442888
 21
194.4499932651
  0
POLYLINE
  8
0
 62
7
  6
CONTINUOUS
 66
1
 70
0
  0
VERTEX
  8
0
 62
7
  6
CONTINUOUS
 10
309.3588442888
 20
187.1000908469
  0
VERTEX
  8
0
 62
7
  6
CONTINUOUS
 10
309.3559251642
 20
187.1031066942
  0
VERTEX
  8
0
 62
7
  6
CONTINUOUS
 10
309.3471370804
 20
187.1102599698
  0
VERTEX
  8
0
 62
7
  6
CONTINUOUS
 10
309.3324819574
 20
187.1215137701
  0
VERTEX
  8
0
 62
7
  6
CONTINUOUS
 10
309.3119278786
 20
187.1369120749
  0
VERTEX
  8
0
 62
7
  6
CONTINUOUS
 10
309.28524142
 20
187.1565399022
  0
VERTEX
  8
0
 62
7
  6
CONTINUOUS
 10
309.2519444296
 20
187.1805819576
  0
VERTEX
  8
0
 62
7
  6
CONTINUOUS
 10
309.2117269209
 20
187.2090341954
  0
VERTEX
  8
0
 62
7
  6
CONTINUOUS
 10
309.1646220085
 20
187.2416447084
  0
VERTEX
  8
0
 62
7
  6
CONTINUOUS
 10
309.1102556289
 20
187.2783912994
  0
VERTEX
  8
0
 62
7
  6
CONTINUOUS
 10
309.0483686642
 20
187.3190271026
  0
VERTEX
  8
0
 62
7
  6
CONTINUOUS
 10
308.9789588219
 20
187.3630805775
  0
VERTEX
  8
0
 62
7
  6
CONTINUOUS
 10
308.9025884345
 20
187.4095630894
  0
VERTEX
  8
0
 62
7
  6
CONTINUOUS
 10
308.820408466
 20
187.4570398805
  0
VERTEX
  8
0
 62
7
  6
CONTINUOUS
 10
308.7337196888
 20
187.5040690937
  0
VERTEX
  8
0
 62
7
  6
CONTINUOUS
 10
308.6435957855
 20
187.5494483692
  0
VERTEX
  8
0
 62
7
  6
CONTINUOUS
 10
308.5511309104
 20
187.5920416515
  0
VERTEX
  8
0
 62
7
  6
CONTINUOUS
 10
308.4577101727
 20
187.6305851332
  0
VERTEX
  8
0
 62
7
  6
CONTINUOUS
 10
308.3646760752
 20
187.664139347
  0
VERTEX
  8
0
 62
7
  6
CONTINUOUS
 10
308.2735815256
 20
187.6920462513
  0
VERTEX
  8
0
 62
7
  6
CONTINUOUS
 10
308.1861170161
 20
187.7140077504
  0
SEQEND
  0
LINE
  8
0
 62
7
  6
CONTINUOUS
 10
287.5688442888
 20
183.9499932651
 11
287.5688442888
 21
194.4499932651
  0
LINE
  8
0
 62
7
  6
CONTINUOUS
 10
325.5481442888
 20
182.3858932651
 11
325.8188442888
 21
182.6565932651
  0
LINE
  8
0
 62
7
  6
CONTINUOUS
 10
293.5688442888
 20
183.9499932651
 11
293.5688442888
 21
194.4499932651
  0
LINE
  8
0
 62
7
  6
CONTINUOUS
 10
300.7788442888
 20
187.1000885053
 11
300.7788442888
 21
183.3499932651
  0
LINE
  8
0
 62
7
  6
CONTINUOUS
 10
302.0688442888
 20
184.2127765065
 11
302.0688442888
 21
194.4499932651
  0
POLYLINE
  8
0
 62
7
  6
CONTINUOUS
 66
1
 70
0
  0
VERTEX
  8
0
 62
7
  6
CONTINUOUS
 10
302.0688442888
 20
187.8762523301
  0
VERTEX
  8
0
 62
7
  6
CONTINUOUS
 10
302.0671166999
 20
187.8487884553
  0
VERTEX
  8
0
 62
7
  6
CONTINUOUS
 10
302.06235689
 20
187.8242500426
  0
VERTEX
  8
0
 62
7
  6
CONTINUOUS
 10
302.0551255053
 20
187.8025682273
  0
VERTEX
  8
0
 62
7
  6
CONTINUOUS
 10
302.0458065355
 20
187.7835202006
  0
VERTEX
  8
0
 62
7
  6
CONTINUOUS
 10
302.0347014042
 20
187.7669120693
  0
VERTEX
  8
0
 62
7
  6
CONTINUOUS
 10
302.0222397772
 20
187.7527224539
  0
VERTEX
  8
0
 62
7
  6
CONTINUOUS
 10
302.0089026341
 20
187.7409337868
  0
VERTEX
  8
0
 62
7
  6
CONTINUOUS
 10
301.9950034038
 20
187.7313673474
  0
VERTEX
  8
0
 62
7
  6
CONTINUOUS
 10
301.9807394932
 20
187.7238110857
  0
VERTEX
  8
0
 62
7
  6
CONTINUOUS
 10
301.9662484116
 20
187.7180825635
  0
VERTEX
  8
0
 62
7
  6
CONTINUOUS
 10
301.9515715615
 20
187.7140077504
  0
SEQEND
  0
LINE
  8
0
 62
7
  6
CONTINUOUS
 10
308.0688442888
 20
184.2127765065
 11
308.0688442888
 21
194.4499932651
  0
LINE
  8
0
 62
7
  6
CONTINUOUS
 10
309.3588442888
 20
187.1000908469
 11
309.3588442888
 21
183.3499932651
  0
POLYLINE
  8
0
 62
7
  6
CONTINUOUS
 66
1
 70
0
  0
VERTEX
  8
0
 62
7
  6
CONTINUOUS
 10
323.8424860009
 20
189.1999932651
  0
VERTEX
  8
0
 62
7
  6
CONTINUOUS
 10
323.8403266879
 20
189.3209438424
  0
VERTEX
  8
0
 62
7
  6
CONTINUOUS
 10
323.8339008482
 20
189.4413346342
  0
VERTEX
  8
0
 62
7
  6
CONTINUOUS
 10
323.8232215327
 20
189.5614657157
  0
VERTEX
  8
0
 62
7
  6
CONTINUOUS
 10
323.8081841264
 20
189.6819694362
  0
VERTEX
  8
0
 62
7
  6
CONTINUOUS
 10
323.7888712018
 20
189.8022433137
  0
VERTEX
  8
0
 62
7
  6
CONTINUOUS
 10
323.7653555412
 20
189.9220778606
  0
VERTEX
  8
0
 62
7
  6
CONTINUOUS
 10
323.7377123617
 20
190.0412585369
  0
VERTEX
  8
0
 62
7
  6
CONTINUOUS
 10
323.706231297
 20
190.1586411662
  0
VERTEX
  8
0
 62
7
  6
CONTINUOUS
 10
323.6938442888
 20
190.1992768505
  0
SEQEND
  0
LINE
  8
0
 62
7
  6
CONTINUOUS
 10
317.6938442888
 20
183.9499932651
 11
317.6938442888
 21
194.4499932651
  0
LINE
  8
0
 62
7
  6
CONTINUOUS
 10
317.9188442888
 20
170.1999932651
 11
317.9188442888
 21
174.1999928145
  0
LINE
  8
0
 62
7
  6
CONTINUOUS
 10
323.6938442888
 20
183.9499932651
 11
323.6938442888
 21
194.4499932651
  0
LINE
  8
SURFACE
 62
7
  6
CONTINUOUS
 10
325.5481442888
 20
174.3999932531
 11
325.5481442888
 21
182.3858932651
  0
LINE
  8
0
 62
7
  6
CONTINUOUS
 10
325.8188442888
 20
182.6285646937
 11
325.8188442888
 21
183.1999932651
  0
LINE
  8
0
 62
7
  6
CONTINUOUS
 10
331.0688442888
 20
194.0808741484
 11
331.0688442888
 21
183.3499932651
  0
LINE
  8
0
 62
7
  6
CONTINUOUS
 10
325.8196270108
 20
182.8034643878
 11
325.8187272945
 21
182.6285658072
  0
POLYLINE
  8
0
 62
7
  6
CONTINUOUS
 66
1
 70
0
  0
VERTEX
  8
0
 62
7
  6
CONTINUOUS
 10
325.8187272945
 20
182.6285658072
  0
VERTEX
  8
0
 62
7
  6
CONTINUOUS
 10
325.7786586259
 20
178.2952825526
  0
VERTEX
  8
0
 62
7
  6
CONTINUOUS
 10
325.7418780951
 20
173.9564834682
  0
SEQEND
  0
POLYLINE
  8
0
 62
7
  6
CONTINUOUS
 66
1
 70
0
  0
VERTEX
  8
0
 62
7
  6
CONTINUOUS
 10
325.825510682
 20
183.1339458751
  0
VERTEX
  8
0
 62
7
  6
CONTINUOUS
 10
325.8218836336
 20
182.971910215
  0
VERTEX
  8
0
 62
7
  6
CONTINUOUS
 10
325.8196270108
 20
182.8034643878
  0
SEQEND
  0
POLYLINE
  8
0
 62
7
  6
CONTINUOUS
 66
1
 70
0
  0
VERTEX
  8
0
 62
7
  6
CONTINUOUS
 10
325.8255106981
 20
183.1339456718
  0
VERTEX
  8
0
 62
7
  6
CONTINUOUS
 10
325.8264004323
 20
183.1572562201
  0
VERTEX
  8
0
 62
7
  6
CONTINUOUS
 10
325.8276587934
 20
183.1777304952
  0
VERTEX
  8
0
 62
7
  6
CONTINUOUS
 10
325.8292378311
 20
183.1960334611
  0
VERTEX
  8
0
 62
7
  6
CONTINUOUS
 10
325.829686727
 20
183.1999932651
  0
SEQEND
  0
LINE
  8
0
 62
7
  6
CONTINUOUS
 10
330.6573585425
 20
183.012202973
 11
329.9274250697
 21
171.077896186
  0
POLYLINE
  8
0
 62
7
  6
CONTINUOUS
 66
1
 70
0
  0
VERTEX
  8
0
 62
7
  6
CONTINUOUS
 10
323.6938442888
 20
188.2008956704
  0
VERTEX
  8
0
 62
7
  6
CONTINUOUS
 10
323.7060709436
 20
188.2409745324
  0
VERTEX
  8
0
 62
7
  6
CONTINUOUS
 10
323.7375239859
 20
188.3579971304
  0
VERTEX
  8
0
 62
7
  6
CONTINUOUS
 10
323.7651050063
 20
188.476754772
  0
VERTEX
  8
0
 62
7
  6
CONTINUOUS
 10
323.7886526641
 20
188.5966640214
  0
VERTEX
  8
0
 62
7
  6
CONTINUOUS
 10
323.8080679729
 20
188.7173005711
  0
VERTEX
  8
0
 62
7
  6
CONTINUOUS
 10
323.8232008256
 20
188.8381980004
  0
VERTEX
  8
0
 62
7
  6
CONTINUOUS
 10
323.833943083
 20
188.9587829171
  0
VERTEX
  8
0
 62
7
  6
CONTINUOUS
 10
323.8403553772
 20
189.0792857642
  0
VERTEX
  8
0
 62
7
  6
CONTINUOUS
 10
323.8424860009
 20
189.1999932651
  0
SEQEND
  0
LINE
  8
0
 62
7
  6
CONTINUOUS
 10
31.2688442888
 20
133.503765803
 11
31.2688442888
 21
122.0639147046
  0
LINE
  8
SURFACE
 62
7
  6
CONTINUOUS
 10
36.5188442888
 20
124.41329209
 11
36.5188442888
 21
124.41113209
  0
LINE
  8
0
 62
7
  6
CONTINUOUS
 10
36.5188442888
 20
124.41329209
 11
36.5188442888
 21
135.0582609592
  0
LINE
  8
0
 62
7
  6
CONTINUOUS
 10
38.6438442888
 20
102.4645231535
 11
38.6438442888
 21
106.4448262461
  0
LINE
  8
0
 62
7
  6
CONTINUOUS
 10
39.3938442888
 20
112.8047887073
 11
39.3938442888
 21
109.5248449028
  0
POLYLINE
  8
SURFACE
 62
7
  6
CONTINUOUS
 66
1
 70
0
  0
VERTEX
  8
SURFACE
 62
7
  6
CONTINUOUS
 10
44.4188442888
 20
131.5575859011
  0
VERTEX
  8
SURFACE
 62
7
  6
CONTINUOUS
 10
44.4145863702
 20
131.6872306319
  0
VERTEX
  8
SURFACE
 62
7
  6
CONTINUOUS
 10
44.4017870148
 20
131.8165801656
  0
VERTEX
  8
SURFACE
 62
7
  6
CONTINUOUS
 10
44.3804918513
 20
131.9447940394
  0
VERTEX
  8
SURFACE
 62
7
  6
CONTINUOUS
 10
44.3508472692
 20
132.0710858274
  0
VERTEX
  8
SURFACE
 62
7
  6
CONTINUOUS
 10
44.3129229358
 20
132.195207511
  0
VERTEX
  8
SURFACE
 62
7
  6
CONTINUOUS
 10
44.2667652952
 20
132.3168610615
  0
VERTEX
  8
SURFACE
 62
7
  6
CONTINUOUS
 10
44.2126435869
 20
132.4352318427
  0
VERTEX
  8
SURFACE
 62
7
  6
CONTINUOUS
 10
44.1509176812
 20
132.5495808065
  0
VERTEX
  8
SURFACE
 62
7
  6
CONTINUOUS
 10
44.0817287268
 20
132.6596851921
  0
VERTEX
  8
SURFACE
 62
7
  6
CONTINUOUS
 10
44.0052063518
 20
132.7652731344
  0
VERTEX
  8
SURFACE
 62
7
  6
CONTINUOUS
 10
43.9218373594
 20
132.8656244639
  0
VERTEX
  8
SURFACE
 62
7
  6
CONTINUOUS
 10
43.8321939889
 20
132.9601017251
  0
VERTEX
  8
SURFACE
 62
7
  6
CONTINUOUS
 10
43.7364931706
 20
133.0485277735
  0
VERTEX
  8
SURFACE
 62
7
  6
CONTINUOUS
 10
43.6349443055
 20
133.1306864164
  0
VERTEX
  8
SURFACE
 62
7
  6
CONTINUOUS
 10
43.5282072719
 20
133.2060285581
  0
VERTEX
  8
SURFACE
 62
7
  6
CONTINUOUS
 10
43.4170174676
 20
133.2740940548
  0
VERTEX
  8
SURFACE
 62
7
  6
CONTINUOUS
 10
43.3016353054
 20
133.3347828342
  0
VERTEX
  8
SURFACE
 62
7
  6
CONTINUOUS
 10
43.1823035653
 20
133.3879622531
  0
VERTEX
  8
SURFACE
 62
7
  6
CONTINUOUS
 10
43.0597708054
 20
133.4332921238
  0
VERTEX
  8
SURFACE
 62
7
  6
CONTINUOUS
 10
42.9348521098
 20
133.4705219494
  0
VERTEX
  8
SURFACE
 62
7
  6
CONTINUOUS
 10
42.8078264728
 20
133.4996193492
  0
VERTEX
  8
SURFACE
 62
7
  6
CONTINUOUS
 10
42.67894795
 20
133.5205186178
  0
VERTEX
  8
SURFACE
 62
7
  6
CONTINUOUS
 10
42.5490078251
 20
133.533078877
  0
VERTEX
  8
SURFACE
 62
7
  6
CONTINUOUS
 10
42.4188442888
 20
133.5372572305
  0
SEQEND
  0
LINE
  8
0
 62
7
  6
CONTINUOUS
 10
43.8938442888
 20
109.5248449028
 11
43.8938442888
 21
114.21329209
  0
LINE
  8
SURFACE
 62
7
  6
CONTINUOUS
 10
44.4188442888
 20
131.5575859011
 11
44.4188442888
 21
127.1689982788
  0
LINE
  8
0
 62
7
  6
CONTINUOUS
 10
44.6438442888
 20
102.4645231535
 11
44.6438442888
 21
106.4448262461
  0
LINE
  8
0
 62
7
  6
CONTINUOUS
 10
46.7688442888
 20
134.81329209
 11
46.7688442888
 21
130.5817579338
  0
LINE
  8
0
 62
7
  6
CONTINUOUS
 10
47.5188442888
 20
127.5017392772
 11
47.5188442888
 21
123.26329209
  0
LINE
  8
0
 62
7
  6
CONTINUOUS
 10
39.3789155389
 20
109.4035770903
 11
38.6483229138
 21
106.4812065899
  0
LINE
  8
0
 62
7
  6
CONTINUOUS
 10
44.6393656638
 20
106.4812065899
 11
43.9087730387
 21
109.4035770903
  0
LINE
  8
0
 62
7
  6
CONTINUOUS
 10
52.0188442888
 20
123.36329209
 11
52.0188442888
 21
127.5017392772
  0
LINE
  8
0
 62
7
  6
CONTINUOUS
 10
52.7688442888
 20
130.5817579338
 11
52.7688442888
 21
134.81329209
  0
LINE
  8
0
 62
7
  6
CONTINUOUS
 10
54.2688442888
 20
102.4928270045
 11
54.2688442888
 21
106.4448262461
  0
LINE
  8
0
 62
7
  6
CONTINUOUS
 10
55.0188442888
 20
115.21329209
 11
55.0188442888
 21
109.5248449028
  0
LINE
  8
0
 62
7
  6
CONTINUOUS
 10
59.5188442888
 20
109.5248449028
 11
59.5188442888
 21
115.36329209
  0
LINE
  8
0
 62
7
  6
CONTINUOUS
 10
60.2688442888
 20
102.4928270045
 11
60.2688442888
 21
106.4448262461
  0
LINE
  8
0
 62
7
  6
CONTINUOUS
 10
61.7688442888
 20
134.81329209
 11
61.7688442888
 21
130.5817579338
  0
LINE
  8
0
 62
7
  6
CONTINUOUS
 10
52.0337730387
 20
127.6230070897
 11
52.7643656638
 21
130.5453775901
  0
LINE
  8
0
 62
7
  6
CONTINUOUS
 10
54.2733229138
 20
106.4812065899
 11
55.0039155389
 21
109.4035770903
  0
LINE
  8
0
 62
7
  6
CONTINUOUS
 10
47.5039155389
 20
127.6230070897
 11
46.7733229138
 21
130.5453775901
  0
LINE
  8
0
 62
7
  6
CONTINUOUS
 10
60.2643656638
 20
106.4812065899
 11
59.5337730387
 21
109.4035770903
  0
LINE
  8
0
 62
7
  6
CONTINUOUS
 10
62.5188442888
 20
127.5017392772
 11
62.5188442888
 21
123.36329209
  0
LINE
  8
0
 62
7
  6
CONTINUOUS
 10
67.0188442888
 20
122.86329209
 11
67.0188442888
 21
127.5017392772
  0
LINE
  8
0
 62
7
  6
CONTINUOUS
 10
67.7688442888
 20
130.5817579338
 11
67.7688442888
 21
134.81329209
  0
LINE
  8
0
 62
7
  6
CONTINUOUS
 10
68.7688442888
 20
102.4928270045
 11
68.7688442888
 21
106.4448262461
  0
LINE
  8
0
 62
7
  6
CONTINUOUS
 10
69.5188442888
 20
115.36329209
 11
69.5188442888
 21
109.5248449028
  0
LINE
  8
0
 62
7
  6
CONTINUOUS
 10
67.0337730387
 20
127.6230070897
 11
67.7643656638
 21
130.5453775901
  0
LINE
  8
0
 62
7
  6
CONTINUOUS
 10
35.901509486
 20
123.5401790196
 11
36.4888442888
 21
124.32329209
  0
LINE
  8
0
 62
7
  6
CONTINUOUS
 10
62.5039155389
 20
127.6230070897
 11
61.7733229138
 21
130.5453775901
  0
LINE
  8
0
 62
7
  6
CONTINUOUS
 10
74.0188442888
 20
109.5248449028
 11
74.0188442888
 21
115.36329209
  0
LINE
  8
0
 62
7
  6
CONTINUOUS
 10
74.7688442888
 20
102.4928270045
 11
74.7688442888
 21
106.4448262461
  0
LINE
  8
0
 62
7
  6
CONTINUOUS
 10
75.7688442888
 20
134.81329209
 11
75.7688442888
 21
130.5817579338
  0
LINE
  8
0
 62
7
  6
CONTINUOUS
 10
76.5188442888
 20
127.5017392772
 11
76.5188442888
 21
122.86329209
  0
LINE
  8
0
 62
7
  6
CONTINUOUS
 10
81.0188442888
 20
122.86329209
 11
81.0188442888
 21
127.5017392772
  0
LINE
  8
0
 62
7
  6
CONTINUOUS
 10
81.7688442888
 20
130.5817579338
 11
81.7688442888
 21
134.81329209
  0
LINE
  8
0
 62
7
  6
CONTINUOUS
 10
69.5039155389
 20
109.4035770903
 11
68.7733229138
 21
106.4812065899
  0
LINE
  8
0
 62
7
  6
CONTINUOUS
 10
81.0337730387
 20
127.6230070897
 11
81.7643656638
 21
130.5453775901
  0
POLYLINE
  8
SURFACE
 62
7
  6
CONTINUOUS
 66
1
 70
0
  0
VERTEX
  8
SURFACE
 62
7
  6
CONTINUOUS
 10
36.5958104824
 20
133.5544849828
  0
VERTEX
  8
SURFACE
 62
7
  6
CONTINUOUS
 10
36.5972288219
 20
133.5525399959
  0
VERTEX
  8
SURFACE
 62
7
  6
CONTINUOUS
 10
36.6011113749
 20
133.5506209923
  0
VERTEX
  8
SURFACE
 62
7
  6
CONTINUOUS
 10
36.6073721839
 20
133.5487631663
  0
VERTEX
  8
SURFACE
 62
7
  6
CONTINUOUS
 10
36.6159643502
 20
133.5469765553
  0
VERTEX
  8
SURFACE
 62
7
  6
CONTINUOUS
 10
36.6268188974
 20
133.5452800636
  0
VERTEX
  8
SURFACE
 62
7
  6
CONTINUOUS
 10
36.6397530573
 20
133.5437038018
  0
VERTEX
  8
SURFACE
 62
7
  6
CONTINUOUS
 10
36.6545171544
 20
133.5422736953
  0
VERTEX
  8
SURFACE
 62
7
  6
CONTINUOUS
 10
36.6710361855
 20
133.5409945202
  0
VERTEX
  8
SURFACE
 62
7
  6
CONTINUOUS
 10
36.689178092
 20
133.5398792111
  0
VERTEX
  8
SURFACE
 62
7
  6
CONTINUOUS
 10
36.7086197383
 20
133.5389490477
  0
VERTEX
  8
SURFACE
 62
7
  6
CONTINUOUS
 10
36.7290452723
 20
133.5382169666
  0
VERTEX
  8
SURFACE
 62
7
  6
CONTINUOUS
 10
36.7503117894
 20
133.537686743
  0
VERTEX
  8
SURFACE
 62
7
  6
CONTINUOUS
 10
36.7722311225
 20
133.537364672
  0
VERTEX
  8
SURFACE
 62
7
  6
CONTINUOUS
 10
36.7943956408
 20
133.5372572305
  0
SEQEND
  0
LINE
  8
0
 62
7
  6
CONTINUOUS
 10
74.7643656638
 20
106.4812065899
 11
74.0337730387
 21
109.4035770903
  0
LINE
  8
0
 62
7
  6
CONTINUOUS
 10
76.5039155389
 20
127.6230070897
 11
75.7733229138
 21
130.5453775901
  0
LINE
  8
0
 62
7
  6
CONTINUOUS
 10
82.5188442888
 20
106.4448262461
 11
82.5188442888
 21
102.4928270045
  0
LINE
  8
0
 62
7
  6
CONTINUOUS
 10
83.2688442888
 20
115.36329209
 11
83.2688442888
 21
109.5248449028
  0
LINE
  8
0
 62
7
  6
CONTINUOUS
 10
87.7688442888
 20
109.5248449028
 11
87.7688442888
 21
115.3293025785
  0
LINE
  8
0
 62
7
  6
CONTINUOUS
 10
88.5188442888
 20
102.4928270045
 11
88.5188442888
 21
106.4448262461
  0
LINE
  8
0
 62
7
  6
CONTINUOUS
 10
89.2688442888
 20
130.5817579338
 11
89.2688442888
 21
134.81329209
  0
LINE
  8
0
 62
7
  6
CONTINUOUS
 10
90.0188442888
 20
127.5017392772
 11
90.0188442888
 21
122.86329209
  0
LINE
  8
0
 62
7
  6
CONTINUOUS
 10
83.2539155389
 20
109.4035770903
 11
82.5233229138
 21
106.4812065899
  0
LINE
  8
0
 62
7
  6
CONTINUOUS
 10
38.8605895544
 20
102.0524952864
 11
38.8657859536
 21
102.0489459121
  0
LINE
  8
0
 62
7
  6
CONTINUOUS
 10
38.8581943356
 20
102.0541528606
 11
38.865764789
 21
102.048960452
  0
LINE
  8
0
 62
7
  6
CONTINUOUS
 10
88.5143656638
 20
106.4812065899
 11
87.7837730387
 21
109.4035770903
  0
LINE
  8
0
 62
7
  6
CONTINUOUS
 10
94.5188442888
 20
123.31329209
 11
94.5188442888
 21
127.5017392772
  0
LINE
  8
0
 62
7
  6
CONTINUOUS
 10
95.2688442888
 20
130.5817579338
 11
95.2688442888
 21
134.81329209
  0
LINE
  8
0
 62
7
  6
CONTINUOUS
 10
95.6188442888
 20
106.4448262461
 11
95.6188442888
 21
103.0285601582
  0
LINE
  8
0
 62
7
  6
CONTINUOUS
 10
96.3688442888
 20
115.8293025785
 11
96.3688442888
 21
109.5248449028
  0
LINE
  8
0
 62
7
  6
CONTINUOUS
 10
100.8688442888
 20
109.5248449028
 11
100.8688442888
 21
115.8293025785
  0
LINE
  8
0
 62
7
  6
CONTINUOUS
 10
101.6188442888
 20
103.0285601582
 11
101.6188442888
 21
106.4448262461
  0
LINE
  8
0
 62
7
  6
CONTINUOUS
 10
101.9688442888
 20
130.5817579338
 11
101.9688442888
 21
134.81329209
  0
POLYLINE
  8
0
 62
7
  6
CONTINUOUS
 66
1
 70
0
  0
VERTEX
  8
0
 62
7
  6
CONTINUOUS
 10
100.8688442888
 20
115.8293018986
  0
VERTEX
  8
0
 62
7
  6
CONTINUOUS
 10
100.872256772
 20
115.9460645163
  0
VERTEX
  8
0
 62
7
  6
CONTINUOUS
 10
100.8842335014
 20
116.0768913841
  0
VERTEX
  8
0
 62
7
  6
CONTINUOUS
 10
100.9047825914
 20
116.2066893242
  0
VERTEX
  8
0
 62
7
  6
CONTINUOUS
 10
100.9338217552
 20
116.33489417
  0
VERTEX
  8
0
 62
7
  6
CONTINUOUS
 10
100.9712325491
 20
116.4609515854
  0
VERTEX
  8
0
 62
7
  6
CONTINUOUS
 10
101.016854458
 20
116.5843006715
  0
VERTEX
  8
0
 62
7
  6
CONTINUOUS
 10
101.0704898632
 20
116.7043974883
  0
VERTEX
  8
0
 62
7
  6
CONTINUOUS
 10
101.1319080961
 20
116.8207199826
  0
VERTEX
  8
0
 62
7
  6
CONTINUOUS
 10
101.2008452744
 20
116.9327637818
  0
VERTEX
  8
0
 62
7
  6
CONTINUOUS
 10
101.2770003603
 20
117.0400368611
  0
VERTEX
  8
0
 62
7
  6
CONTINUOUS
 10
101.3600418683
 20
117.1420716732
  0
VERTEX
  8
0
 62
7
  6
CONTINUOUS
 10
101.4496089269
 20
117.2384251369
  0
VERTEX
  8
0
 62
7
  6
CONTINUOUS
 10
101.5453105346
 20
117.3286778185
  0
VERTEX
  8
0
 62
7
  6
CONTINUOUS
 10
101.6467306067
 20
117.4124391946
  0
VERTEX
  8
0
 62
7
  6
CONTINUOUS
 10
101.7534302569
 20
117.4893486228
  0
VERTEX
  8
0
 62
7
  6
CONTINUOUS
 10
101.8649430716
 20
117.559072114
  0
VERTEX
  8
0
 62
7
  6
CONTINUOUS
 10
101.9807749952
 20
117.6213048143
  0
VERTEX
  8
0
 62
7
  6
CONTINUOUS
 10
102.1004229185
 20
117.6757816976
  0
VERTEX
  8
0
 62
7
  6
CONTINUOUS
 10
102.2233665442
 20
117.7222711895
  0
VERTEX
  8
0
 62
7
  6
CONTINUOUS
 10
102.3490576107
 20
117.7605730333
  0
VERTEX
  8
0
 62
7
  6
CONTINUOUS
 10
102.4769252671
 20
117.7905246056
  0
VERTEX
  8
0
 62
7
  6
CONTINUOUS
 10
102.6064164865
 20
117.8120101037
  0
VERTEX
  8
0
 62
7
  6
CONTINUOUS
 10
102.7369687279
 20
117.8249499635
  0
VERTEX
  8
0
 62
7
  6
CONTINUOUS
 10
102.8104637464
 20
117.8273913974
  0
SEQEND
  0
LINE
  8
0
 62
7
  6
CONTINUOUS
 10
94.5337730387
 20
127.6230070897
 11
95.2643656638
 21
130.5453775901
  0
LINE
  8
0
 62
7
  6
CONTINUOUS
 10
96.3539155389
 20
109.4035770903
 11
95.6233229138
 21
106.4812065899
  0
LINE
  8
0
 62
7
  6
CONTINUOUS
 10
90.0039155389
 20
127.6230070897
 11
89.2733229138
 21
130.5453775901
  0
LINE
  8
0
 62
7
  6
CONTINUOUS
 10
101.6143656638
 20
106.4812065899
 11
100.8837730387
 21
109.4035770903
  0
LINE
  8
0
 62
7
  6
CONTINUOUS
 10
102.7188442888
 20
127.5017392772
 11
102.7188442888
 21
123.31329209
  0
LINE
  8
0
 62
7
  6
CONTINUOUS
 10
107.2188442888
 20
123.31329209
 11
107.2188442888
 21
127.5017392772
  0
LINE
  8
0
 62
7
  6
CONTINUOUS
 10
107.9688442888
 20
130.5817579338
 11
107.9688442888
 21
134.81329209
  0
LINE
  8
0
 62
7
  6
CONTINUOUS
 10
108.3188442888
 20
106.4448262461
 11
108.3188442888
 21
103.0285601582
  0
LINE
  8
0
 62
7
  6
CONTINUOUS
 10
109.0688442888
 20
115.8293025785
 11
109.0688442888
 21
109.5248449028
  0
LINE
  8
0
 62
7
  6
CONTINUOUS
 10
107.2337730387
 20
127.6230070897
 11
107.9643656638
 21
130.5453775901
  0
LINE
  8
0
 62
7
  6
CONTINUOUS
 10
54.5183904699
 20
102.0600768331
 11
54.525052698
 21
102.0562652219
  0
LINE
  8
0
 62
7
  6
CONTINUOUS
 10
69.0183904748
 20
102.0600768303
 11
69.025052698
 21
102.0562652219
  0
LINE
  8
0
 62
7
  6
CONTINUOUS
 10
95.7592381295
 20
102.680990045
 11
95.7657506493
 21
102.6740580981
  0
LINE
  8
0
 62
7
  6
CONTINUOUS
 10
95.7498239662
 20
102.6911746831
 11
95.7621039906
 21
102.677930763
  0
LINE
  8
0
 62
7
  6
CONTINUOUS
 10
95.7498718761
 20
102.6911226468
 11
95.7523209447
 21
102.688446156
  0
LINE
  8
0
 62
7
  6
CONTINUOUS
 10
95.7460253798
 20
102.6953844607
 11
95.7498239662
 21
102.6911746831
  0
LINE
  8
0
 62
7
  6
CONTINUOUS
 10
102.7039155389
 20
127.6230070897
 11
101.9733229138
 21
130.5453775901
  0
LINE
  8
0
 62
7
  6
CONTINUOUS
 10
113.5688442888
 20
109.5248449028
 11
113.5688442888
 21
115.8293025785
  0
LINE
  8
0
 62
7
  6
CONTINUOUS
 10
114.3188442888
 20
103.0285601582
 11
114.3188442888
 21
106.4448262461
  0
LINE
  8
0
 62
7
  6
CONTINUOUS
 10
114.6688442888
 20
130.5817579338
 11
114.6688442888
 21
134.81329209
  0
LINE
  8
0
 62
7
  6
CONTINUOUS
 10
115.4188442888
 20
127.5017392772
 11
115.4188442888
 21
123.31329209
  0
LINE
  8
0
 62
7
  6
CONTINUOUS
 10
119.9188442888
 20
123.31329209
 11
119.9188442888
 21
127.5017392772
  0
LINE
  8
0
 62
7
  6
CONTINUOUS
 10
120.6688442888
 20
130.5817579338
 11
120.6688442888
 21
134.81329209
  0
LINE
  8
0
 62
7
  6
CONTINUOUS
 10
121.0188442888
 20
106.4448262461
 11
121.0188442888
 21
103.0285601582
  0
LINE
  8
0
 62
7
  6
CONTINUOUS
 10
121.7688442888
 20
115.8293025785
 11
121.7688442888
 21
109.5248449028
  0
POLYLINE
  8
0
 62
7
  6
CONTINUOUS
 66
1
 70
0
  0
VERTEX
  8
0
 62
7
  6
CONTINUOUS
 10
113.5688442888
 20
115.8293018986
  0
VERTEX
  8
0
 62
7
  6
CONTINUOUS
 10
113.572256772
 20
115.946064517
  0
VERTEX
  8
0
 62
7
  6
CONTINUOUS
 10
113.5842335016
 20
116.0768913855
  0
VERTEX
  8
0
 62
7
  6
CONTINUOUS
 10
113.6047825918
 20
116.2066893263
  0
VERTEX
  8
0
 62
7
  6
CONTINUOUS
 10
113.6338217559
 20
116.3348941727
  0
VERTEX
  8
0
 62
7
  6
CONTINUOUS
 10
113.6712325502
 20
116.4609515887
  0
VERTEX
  8
0
 62
7
  6
CONTINUOUS
 10
113.7168544596
 20
116.5843006754
  0
VERTEX
  8
0
 62
7
  6
CONTINUOUS
 10
113.7704898653
 20
116.7043974927
  0
VERTEX
  8
0
 62
7
  6
CONTINUOUS
 10
113.8319080989
 20
116.8207199875
  0
VERTEX
  8
0
 62
7
  6
CONTINUOUS
 10
113.9008452779
 20
116.9327637871
  0
VERTEX
  8
0
 62
7
  6
CONTINUOUS
 10
113.9770003646
 20
117.0400368668
  0
VERTEX
  8
0
 62
7
  6
CONTINUOUS
 10
114.0600418735
 20
117.1420716791
  0
VERTEX
  8
0
 62
7
  6
CONTINUOUS
 10
114.1496089329
 20
117.2384251429
  0
VERTEX
  8
0
 62
7
  6
CONTINUOUS
 10
114.2453105414
 20
117.3286778245
  0
VERTEX
  8
0
 62
7
  6
CONTINUOUS
 10
114.3467306144
 20
117.4124392005
  0
VERTEX
  8
0
 62
7
  6
CONTINUOUS
 10
114.4534302655
 20
117.4893486285
  0
VERTEX
  8
0
 62
7
  6
CONTINUOUS
 10
114.5649430814
 20
117.5590721197
  0
VERTEX
  8
0
 62
7
  6
CONTINUOUS
 10
114.6807750063
 20
117.6213048198
  0
VERTEX
  8
0
 62
7
  6
CONTINUOUS
 10
114.8004229309
 20
117.6757817028
  0
VERTEX
  8
0
 62
7
  6
CONTINUOUS
 10
114.9233665576
 20
117.7222711941
  0
VERTEX
  8
0
 62
7
  6
CONTINUOUS
 10
115.0490576244
 20
117.760573037
  0
VERTEX
  8
0
 62
7
  6
CONTINUOUS
 10
115.1769252799
 20
117.7905246081
  0
VERTEX
  8
0
 62
7
  6
CONTINUOUS
 10
115.3064164971
 20
117.8120101051
  0
VERTEX
  8
0
 62
7
  6
CONTINUOUS
 10
115.4369687343
 20
117.824949964
  0
VERTEX
  8
0
 62
7
  6
CONTINUOUS
 10
115.5104635558
 20
117.8273913912
  0
SEQEND
  0
LINE
  8
0
 62
7
  6
CONTINUOUS
 10
109.0539155389
 20
109.4035770903
 11
108.3233229138
 21
106.4812065899
  0
LINE
  8
0
 62
7
  6
CONTINUOUS
 10
119.9337730387
 20
127.6230070897
 11
120.6643656638
 21
130.5453775901
  0
LINE
  8
0
 62
7
  6
CONTINUOUS
 10
44.421902624
 20
102.0489459121
 11
44.4294308068
 21
102.0541087085
  0
LINE
  8
0
 62
7
  6
CONTINUOUS
 10
82.7683904687
 20
102.0600768339
 11
82.7750526981
 21
102.0562652219
  0
LINE
  8
0
 62
7
  6
CONTINUOUS
 10
108.4593986462
 20
102.6808170885
 11
108.4657506494
 21
102.674058098
  0
LINE
  8
0
 62
7
  6
CONTINUOUS
 10
108.4552301619
 20
102.6852946732
 11
108.4593986462
 21
102.6808170885
  0
LINE
  8
0
 62
7
  6
CONTINUOUS
 10
108.4523379944
 20
102.688426664
 11
108.4557221237
 21
102.6847629936
  0
LINE
  8
0
 62
7
  6
CONTINUOUS
 10
108.4498718761
 20
102.6911226468
 11
108.4523209447
 21
102.6884461559
  0
LINE
  8
0
 62
7
  6
CONTINUOUS
 10
108.4478036484
 20
102.693404125
 11
108.4498718761
 21
102.6911226468
  0
LINE
  8
0
 62
7
  6
CONTINUOUS
 10
108.4462957144
 20
102.6950821953
 11
108.4479315893
 21
102.6932620837
  0
LINE
  8
0
 62
7
  6
CONTINUOUS
 10
108.4460315495
 20
102.6953775564
 11
108.4461107748
 21
102.6952889182
  0
LINE
  8
0
 62
7
  6
CONTINUOUS
 10
114.3143656638
 20
106.4812065899
 11
113.5837730387
 21
109.4035770903
  0
LINE
  8
0
 62
7
  6
CONTINUOUS
 10
115.4039155389
 20
127.6230070897
 11
114.6733229138
 21
130.5453775901
  0
LINE
  8
0
 62
7
  6
CONTINUOUS
 10
126.2688442888
 20
109.5248449028
 11
126.2688442888
 21
115.8293025785
  0
LINE
  8
0
 62
7
  6
CONTINUOUS
 10
127.0188442888
 20
103.0285601582
 11
127.0188442888
 21
106.4448262461
  0
LINE
  8
0
 62
7
  6
CONTINUOUS
 10
127.3688442888
 20
130.5817579338
 11
127.3688442888
 21
134.81329209
  0
LINE
  8
0
 62
7
  6
CONTINUOUS
 10
128.1188442888
 20
127.5017392772
 11
128.1188442888
 21
123.31329209
  0
POLYLINE
  8
0
 62
7
  6
CONTINUOUS
 66
1
 70
0
  0
VERTEX
  8
0
 62
7
  6
CONTINUOUS
 10
126.2688442888
 20
115.8293018986
  0
VERTEX
  8
0
 62
7
  6
CONTINUOUS
 10
126.272256772
 20
115.9460645168
  0
VERTEX
  8
0
 62
7
  6
CONTINUOUS
 10
126.2842335015
 20
116.0768913849
  0
VERTEX
  8
0
 62
7
  6
CONTINUOUS
 10
126.3047825916
 20
116.2066893254
  0
VERTEX
  8
0
 62
7
  6
CONTINUOUS
 10
126.3338217556
 20
116.3348941716
  0
VERTEX
  8
0
 62
7
  6
CONTINUOUS
 10
126.3712325498
 20
116.4609515874
  0
VERTEX
  8
0
 62
7
  6
CONTINUOUS
 10
126.416854459
 20
116.5843006739
  0
VERTEX
  8
0
 62
7
  6
CONTINUOUS
 10
126.4704898645
 20
116.704397491
  0
VERTEX
  8
0
 62
7
  6
CONTINUOUS
 10
126.5319080978
 20
116.8207199855
  0
VERTEX
  8
0
 62
7
  6
CONTINUOUS
 10
126.6008452764
 20
116.932763785
  0
VERTEX
  8
0
 62
7
  6
CONTINUOUS
 10
126.6770003629
 20
117.0400368645
  0
VERTEX
  8
0
 62
7
  6
CONTINUOUS
 10
126.7600418714
 20
117.1420716767
  0
VERTEX
  8
0
 62
7
  6
CONTINUOUS
 10
126.8496089304
 20
117.2384251405
  0
VERTEX
  8
0
 62
7
  6
CONTINUOUS
 10
126.9453105387
 20
117.3286778221
  0
VERTEX
  8
0
 62
7
  6
CONTINUOUS
 10
127.0467306113
 20
117.4124391981
  0
VERTEX
  8
0
 62
7
  6
CONTINUOUS
 10
127.153430262
 20
117.4893486262
  0
VERTEX
  8
0
 62
7
  6
CONTINUOUS
 10
127.2649430774
 20
117.5590721174
  0
VERTEX
  8
0
 62
7
  6
CONTINUOUS
 10
127.3807750018
 20
117.6213048176
  0
VERTEX
  8
0
 62
7
  6
CONTINUOUS
 10
127.5004229258
 20
117.6757817006
  0
VERTEX
  8
0
 62
7
  6
CONTINUOUS
 10
127.6233665522
 20
117.7222711922
  0
VERTEX
  8
0
 62
7
  6
CONTINUOUS
 10
127.7490576188
 20
117.7605730355
  0
VERTEX
  8
0
 62
7
  6
CONTINUOUS
 10
127.8769252747
 20
117.7905246071
  0
VERTEX
  8
0
 62
7
  6
CONTINUOUS
 10
128.0064164928
 20
117.8120101045
  0
VERTEX
  8
0
 62
7
  6
CONTINUOUS
 10
128.1369687317
 20
117.8249499638
  0
VERTEX
  8
0
 62
7
  6
CONTINUOUS
 10
128.2104636333
 20
117.8273913937
  0
SEQEND
  0
LINE
  8
0
 62
7
  6
CONTINUOUS
 10
121.7539155389
 20
109.4035770903
 11
121.0233229138
 21
106.4812065899
  0
LINE
  8
0
 62
7
  6
CONTINUOUS
 10
132.6337730387
 20
127.6230070897
 11
133.3643656638
 21
130.5453775901
  0
LINE
  8
0
 62
7
  6
CONTINUOUS
 10
35.4459651487
 20
118.442944432
 11
33.2427838588
 21
119.2448368422
  0
LINE
  8
0
 62
7
  6
CONTINUOUS
 10
121.1593986462
 20
102.6808170886
 11
121.1657506494
 21
102.674058098
  0
LINE
  8
0
 62
7
  6
CONTINUOUS
 10
121.1552301619
 20
102.6852946732
 11
121.1593986462
 21
102.6808170886
  0
LINE
  8
0
 62
7
  6
CONTINUOUS
 10
121.1523379943
 20
102.688426664
 11
121.1557221237
 21
102.6847629937
  0
LINE
  8
0
 62
7
  6
CONTINUOUS
 10
121.1498718761
 20
102.6911226468
 11
121.1523209447
 21
102.6884461559
  0
LINE
  8
0
 62
7
  6
CONTINUOUS
 10
121.1478036484
 20
102.693404125
 11
121.1498718761
 21
102.6911226468
  0
LINE
  8
0
 62
7
  6
CONTINUOUS
 10
121.1462957144
 20
102.6950821953
 11
121.1479315892
 21
102.6932620837
  0
LINE
  8
0
 62
7
  6
CONTINUOUS
 10
121.1460315494
 20
102.6953775565
 11
121.1461107747
 21
102.6952889183
  0
LINE
  8
0
 62
7
  6
CONTINUOUS
 10
127.0143656638
 20
106.4812065899
 11
126.2837730387
 21
109.4035770903
  0
LINE
  8
0
 62
7
  6
CONTINUOUS
 10
128.1039155389
 20
127.6230070897
 11
127.3733229138
 21
130.5453775901
  0
LINE
  8
0
 62
7
  6
CONTINUOUS
 10
132.6188442888
 20
123.31329209
 11
132.6188442888
 21
127.5017392772
  0
LINE
  8
0
 62
7
  6
CONTINUOUS
 10
133.3688442888
 20
130.5817579338
 11
133.3688442888
 21
134.81329209
  0
LINE
  8
0
 62
7
  6
CONTINUOUS
 10
133.7188442888
 20
106.4448262461
 11
133.7188442888
 21
103.0285601582
  0
LINE
  8
0
 62
7
  6
CONTINUOUS
 10
134.4688442888
 20
115.8293025785
 11
134.4688442888
 21
109.5248449028
  0
LINE
  8
0
 62
7
  6
CONTINUOUS
 10
138.9688442888
 20
109.5248449028
 11
138.9688442888
 21
115.8293025785
  0
LINE
  8
0
 62
7
  6
CONTINUOUS
 10
139.7188442888
 20
103.0285601582
 11
139.7188442888
 21
106.4448262461
  0
LINE
  8
0
 62
7
  6
CONTINUOUS
 10
140.0688442888
 20
130.5817579338
 11
140.0688442888
 21
134.81329209
  0
LINE
  8
0
 62
7
  6
CONTINUOUS
 10
140.8188442888
 20
127.5017392772
 11
140.8188442888
 21
123.31329209
  0
POLYLINE
  8
0
 62
7
  6
CONTINUOUS
 66
1
 70
0
  0
VERTEX
  8
0
 62
7
  6
CONTINUOUS
 10
138.9688442888
 20
115.8293018986
  0
VERTEX
  8
0
 62
7
  6
CONTINUOUS
 10
138.972256772
 20
115.9460645167
  0
VERTEX
  8
0
 62
7
  6
CONTINUOUS
 10
138.9842335015
 20
116.0768913848
  0
VERTEX
  8
0
 62
7
  6
CONTINUOUS
 10
139.0047825916
 20
116.2066893253
  0
VERTEX
  8
0
 62
7
  6
CONTINUOUS
 10
139.0338217556
 20
116.3348941714
  0
VERTEX
  8
0
 62
7
  6
CONTINUOUS
 10
139.0712325497
 20
116.4609515871
  0
VERTEX
  8
0
 62
7
  6
CONTINUOUS
 10
139.1168544589
 20
116.5843006736
  0
VERTEX
  8
0
 62
7
  6
CONTINUOUS
 10
139.1704898643
 20
116.7043974906
  0
VERTEX
  8
0
 62
7
  6
CONTINUOUS
 10
139.2319080976
 20
116.8207199851
  0
VERTEX
  8
0
 62
7
  6
CONTINUOUS
 10
139.3008452762
 20
116.9327637846
  0
VERTEX
  8
0
 62
7
  6
CONTINUOUS
 10
139.3770003626
 20
117.0400368641
  0
VERTEX
  8
0
 62
7
  6
CONTINUOUS
 10
139.460041871
 20
117.1420716763
  0
VERTEX
  8
0
 62
7
  6
CONTINUOUS
 10
139.54960893
 20
117.23842514
  0
VERTEX
  8
0
 62
7
  6
CONTINUOUS
 10
139.6453105382
 20
117.3286778217
  0
VERTEX
  8
0
 62
7
  6
CONTINUOUS
 10
139.7467306107
 20
117.4124391977
  0
VERTEX
  8
0
 62
7
  6
CONTINUOUS
 10
139.8534302614
 20
117.4893486258
  0
VERTEX
  8
0
 62
7
  6
CONTINUOUS
 10
139.9649430767
 20
117.559072117
  0
VERTEX
  8
0
 62
7
  6
CONTINUOUS
 10
140.080775001
 20
117.6213048172
  0
VERTEX
  8
0
 62
7
  6
CONTINUOUS
 10
140.2004229249
 20
117.6757817003
  0
VERTEX
  8
0
 62
7
  6
CONTINUOUS
 10
140.3233665512
 20
117.7222711919
  0
VERTEX
  8
0
 62
7
  6
CONTINUOUS
 10
140.4490576178
 20
117.7605730352
  0
VERTEX
  8
0
 62
7
  6
CONTINUOUS
 10
140.5769252737
 20
117.7905246069
  0
VERTEX
  8
0
 62
7
  6
CONTINUOUS
 10
140.706416492
 20
117.8120101044
  0
VERTEX
  8
0
 62
7
  6
CONTINUOUS
 10
140.8369687312
 20
117.8249499638
  0
VERTEX
  8
0
 62
7
  6
CONTINUOUS
 10
140.910463647
 20
117.8273913942
  0
SEQEND
  0
LINE
  8
0
 62
7
  6
CONTINUOUS
 10
134.4539155389
 20
109.4035770903
 11
133.7233229138
 21
106.4812065899
  0
LINE
  8
0
 62
7
  6
CONTINUOUS
 10
101.4897569883
 20
102.6932620837
 11
101.4915778028
 21
102.6952889182
  0
LINE
  8
0
 62
7
  6
CONTINUOUS
 10
114.1897569884
 20
102.6932620837
 11
114.1915778029
 21
102.6952889183
  0
LINE
  8
0
 62
7
  6
CONTINUOUS
 10
101.487571693
 20
102.6908531272
 11
101.4897569883
 21
102.6932620837
  0
LINE
  8
0
 62
7
  6
CONTINUOUS
 10
101.4850067665
 20
102.68805276
 11
101.487571693
 21
102.6908531272
  0
LINE
  8
0
 62
7
  6
CONTINUOUS
 10
101.481545372
 20
102.684309451
 11
101.4850067665
 21
102.68805276
  0
LINE
  8
0
 62
7
  6
CONTINUOUS
 10
101.4767088014
 20
102.6791286461
 11
101.481545372
 21
102.684309451
  0
LINE
  8
0
 62
7
  6
CONTINUOUS
 10
101.4719379282
 20
102.674058098
 11
101.4767088014
 21
102.6791286461
  0
LINE
  8
0
 62
7
  6
CONTINUOUS
 10
60.0125997704
 20
102.0562446487
 11
60.0192730305
 21
102.0600623175
  0
LINE
  8
0
 62
7
  6
CONTINUOUS
 10
133.8592381295
 20
102.680990045
 11
133.8657506494
 21
102.674058098
  0
LINE
  8
0
 62
7
  6
CONTINUOUS
 10
133.8498239662
 20
102.6911746831
 11
133.8621039906
 21
102.677930763
  0
LINE
  8
0
 62
7
  6
CONTINUOUS
 10
133.8498718761
 20
102.6911226468
 11
133.8523209447
 21
102.688446156
  0
LINE
  8
0
 62
7
  6
CONTINUOUS
 10
133.8460253798
 20
102.6953844607
 11
133.8498239662
 21
102.6911746831
  0
LINE
  8
0
 62
7
  6
CONTINUOUS
 10
139.7143656638
 20
106.4812065899
 11
138.9837730387
 21
109.4035770903
  0
LINE
  8
0
 62
7
  6
CONTINUOUS
 10
145.3188442888
 20
123.31329209
 11
145.3188442888
 21
127.5017392772
  0
LINE
  8
0
 62
7
  6
CONTINUOUS
 10
146.0688442888
 20
130.5817579338
 11
146.0688442888
 21
134.81329209
  0
LINE
  8
0
 62
7
  6
CONTINUOUS
 10
146.4188442888
 20
106.4448262461
 11
146.4188442888
 21
103.0285601582
  0
LINE
  8
0
 62
7
  6
CONTINUOUS
 10
147.1688442888
 20
115.8293025785
 11
147.1688442888
 21
109.5248449028
  0
LINE
  8
0
 62
7
  6
CONTINUOUS
 10
151.6688442888
 20
109.5248449028
 11
151.6688442888
 21
115.8293025785
  0
POLYLINE
  8
0
 62
7
  6
CONTINUOUS
 66
1
 70
0
  0
VERTEX
  8
0
 62
7
  6
CONTINUOUS
 10
151.6688442888
 20
115.8293018986
  0
VERTEX
  8
0
 62
7
  6
CONTINUOUS
 10
151.672256772
 20
115.9460645165
  0
VERTEX
  8
0
 62
7
  6
CONTINUOUS
 10
151.6842335015
 20
116.0768913845
  0
VERTEX
  8
0
 62
7
  6
CONTINUOUS
 10
151.7047825915
 20
116.2066893248
  0
VERTEX
  8
0
 62
7
  6
CONTINUOUS
 10
151.7338217554
 20
116.3348941708
  0
VERTEX
  8
0
 62
7
  6
CONTINUOUS
 10
151.7712325494
 20
116.4609515863
  0
VERTEX
  8
0
 62
7
  6
CONTINUOUS
 10
151.8168544585
 20
116.5843006726
  0
VERTEX
  8
0
 62
7
  6
CONTINUOUS
 10
151.8704898638
 20
116.7043974896
  0
VERTEX
  8
0
 62
7
  6
CONTINUOUS
 10
151.9319080969
 20
116.820719984
  0
VERTEX
  8
0
 62
7
  6
CONTINUOUS
 10
152.0008452753
 20
116.9327637833
  0
VERTEX
  8
0
 62
7
  6
CONTINUOUS
 10
152.0770003615
 20
117.0400368627
  0
VERTEX
  8
0
 62
7
  6
CONTINUOUS
 10
152.1600418698
 20
117.1420716749
  0
VERTEX
  8
0
 62
7
  6
CONTINUOUS
 10
152.2496089286
 20
117.2384251386
  0
VERTEX
  8
0
 62
7
  6
CONTINUOUS
 10
152.3453105365
 20
117.3286778202
  0
VERTEX
  8
0
 62
7
  6
CONTINUOUS
 10
152.4467306089
 20
117.4124391963
  0
VERTEX
  8
0
 62
7
  6
CONTINUOUS
 10
152.5534302593
 20
117.4893486244
  0
VERTEX
  8
0
 62
7
  6
CONTINUOUS
 10
152.6649430744
 20
117.5590721156
  0
VERTEX
  8
0
 62
7
  6
CONTINUOUS
 10
152.7807749983
 20
117.6213048159
  0
VERTEX
  8
0
 62
7
  6
CONTINUOUS
 10
152.900422922
 20
117.675781699
  0
VERTEX
  8
0
 62
7
  6
CONTINUOUS
 10
153.023366548
 20
117.7222711908
  0
VERTEX
  8
0
 62
7
  6
CONTINUOUS
 10
153.1490576146
 20
117.7605730344
  0
VERTEX
  8
0
 62
7
  6
CONTINUOUS
 10
153.2769252707
 20
117.7905246063
  0
VERTEX
  8
0
 62
7
  6
CONTINUOUS
 10
153.4064164895
 20
117.8120101041
  0
VERTEX
  8
0
 62
7
  6
CONTINUOUS
 10
153.5369687297
 20
117.8249499637
  0
VERTEX
  8
0
 62
7
  6
CONTINUOUS
 10
153.6104636926
 20
117.8273913957
  0
SEQEND
  0
LINE
  8
0
 62
7
  6
CONTINUOUS
 10
145.3337730387
 20
127.6230070897
 11
146.0643656638
 21
130.5453775901
  0
LINE
  8
0
 62
7
  6
CONTINUOUS
 10
147.1539155389
 20
109.4035770903
 11
146.4233229138
 21
106.4812065899
  0
LINE
  8
0
 62
7
  6
CONTINUOUS
 10
126.8897569883
 20
102.6932620837
 11
126.8915778028
 21
102.6952889182
  0
LINE
  8
0
 62
7
  6
CONTINUOUS
 10
114.187571693
 20
102.6908531272
 11
114.1897569884
 21
102.6932620837
  0
LINE
  8
0
 62
7
  6
CONTINUOUS
 10
126.887571693
 20
102.6908531272
 11
126.8897569883
 21
102.6932620837
  0
LINE
  8
0
 62
7
  6
CONTINUOUS
 10
114.1850067666
 20
102.68805276
 11
114.187571693
 21
102.6908531272
  0
LINE
  8
0
 62
7
  6
CONTINUOUS
 10
126.8850067665
 20
102.6880527599
 11
126.887571693
 21
102.6908531272
  0
LINE
  8
0
 62
7
  6
CONTINUOUS
 10
126.882779248
 20
102.6856397839
 11
126.8850067665
 21
102.6880527599
  0
LINE
  8
0
 62
7
  6
CONTINUOUS
 10
114.1815453721
 20
102.684309451
 11
114.1850067666
 21
102.68805276
  0
LINE
  8
0
 62
7
  6
CONTINUOUS
 10
114.1767088015
 20
102.6791286461
 11
114.1815453721
 21
102.684309451
  0
LINE
  8
0
 62
7
  6
CONTINUOUS
 10
114.1719379282
 20
102.674058098
 11
114.1767088015
 21
102.6791286461
  0
LINE
  8
0
 62
7
  6
CONTINUOUS
 10
74.5125997704
 20
102.0562446487
 11
74.5192730303
 21
102.0600623174
  0
LINE
  8
0
 62
7
  6
CONTINUOUS
 10
88.2625997704
 20
102.0562446487
 11
88.2692730305
 21
102.0600623175
  0
LINE
  8
0
 62
7
  6
CONTINUOUS
 10
36.4201473103
 20
135.1992148524
 11
34.6238946471
 21
135.852997355
  0
LINE
  8
0
 62
7
  6
CONTINUOUS
 10
146.5593986462
 20
102.6808170885
 11
146.5657506494
 21
102.674058098
  0
LINE
  8
0
 62
7
  6
CONTINUOUS
 10
146.5552301619
 20
102.6852946732
 11
146.5593986462
 21
102.6808170885
  0
LINE
  8
0
 62
7
  6
CONTINUOUS
 10
146.5519920749
 20
102.6888041854
 11
146.5552301619
 21
102.6852946732
  0
LINE
  8
0
 62
7
  6
CONTINUOUS
 10
146.5495931368
 20
102.6914288965
 11
146.5519920749
 21
102.6888041854
  0
LINE
  8
0
 62
7
  6
CONTINUOUS
 10
146.5475736333
 20
102.6936592416
 11
146.5495931368
 21
102.6914288965
  0
LINE
  8
0
 62
7
  6
CONTINUOUS
 10
146.5460315495
 20
102.6953775564
 11
146.5476852468
 21
102.693535184
  0
LINE
  8
0
 62
7
  6
CONTINUOUS
 10
140.8039155389
 20
127.6230070897
 11
140.0733229138
 21
130.5453775901
  0
LINE
  8
0
 62
7
  6
CONTINUOUS
 10
152.4143656638
 20
106.4812065899
 11
151.6837730387
 21
109.4035770903
  0
LINE
  8
0
 62
7
  6
CONTINUOUS
 10
152.4188442888
 20
103.0285601582
 11
152.4188442888
 21
106.4448262461
  0
LINE
  8
0
 62
7
  6
CONTINUOUS
 10
152.7688442888
 20
130.5817579338
 11
152.7688442888
 21
134.81329209
  0
LINE
  8
0
 62
7
  6
CONTINUOUS
 10
153.5188442888
 20
127.5017392772
 11
153.5188442888
 21
123.31329209
  0
LINE
  8
0
 62
7
  6
CONTINUOUS
 10
158.0188442888
 20
123.31329209
 11
158.0188442888
 21
127.5017392772
  0
LINE
  8
0
 62
7
  6
CONTINUOUS
 10
158.7688442888
 20
130.5817579338
 11
158.7688442888
 21
134.81329209
  0
LINE
  8
0
 62
7
  6
CONTINUOUS
 10
159.1188442888
 20
106.4448262461
 11
159.1188442888
 21
103.0285601582
  0
LINE
  8
0
 62
7
  6
CONTINUOUS
 10
159.8688442888
 20
115.8293025785
 11
159.8688442888
 21
109.5248449028
  0
LINE
  8
0
 62
7
  6
CONTINUOUS
 10
158.0337730387
 20
127.6230070897
 11
158.7643656638
 21
130.5453775901
  0
LINE
  8
0
 62
7
  6
CONTINUOUS
 10
139.5897569883
 20
102.6932620837
 11
139.5915778028
 21
102.6952889182
  0
LINE
  8
0
 62
7
  6
CONTINUOUS
 10
139.587571693
 20
102.6908531272
 11
139.5897569883
 21
102.6932620837
  0
LINE
  8
0
 62
7
  6
CONTINUOUS
 10
139.5850067665
 20
102.68805276
 11
139.587571693
 21
102.6908531272
  0
LINE
  8
0
 62
7
  6
CONTINUOUS
 10
139.581545372
 20
102.684309451
 11
139.5850067665
 21
102.68805276
  0
LINE
  8
0
 62
7
  6
CONTINUOUS
 10
126.878790611
 20
102.6813527286
 11
126.882779248
 21
102.6856397839
  0
LINE
  8
0
 62
7
  6
CONTINUOUS
 10
139.5767088014
 20
102.6791286461
 11
139.581545372
 21
102.684309451
  0
POLYLINE
  8
0
 62
7
  6
CONTINUOUS
 66
1
 70
0
  0
VERTEX
  8
0
 62
7
  6
CONTINUOUS
 10
126.8719379282
 20
102.674058098
  0
VERTEX
  8
0
 62
7
  6
CONTINUOUS
 10
126.8725024714
 20
102.6746564529
  0
VERTEX
  8
0
 62
7
  6
CONTINUOUS
 10
126.878790611
 20
102.6813527286
  0
SEQEND
  0
LINE
  8
0
 62
7
  6
CONTINUOUS
 10
139.5719379282
 20
102.674058098
 11
139.5767088014
 21
102.6791286461
  0
LINE
  8
0
 62
7
  6
CONTINUOUS
 10
159.2592381295
 20
102.680990045
 11
159.2657506494
 21
102.674058098
  0
LINE
  8
0
 62
7
  6
CONTINUOUS
 10
159.2498239662
 20
102.6911746831
 11
159.2621039906
 21
102.677930763
  0
LINE
  8
0
 62
7
  6
CONTINUOUS
 10
159.2498718761
 20
102.6911226468
 11
159.2523209447
 21
102.6884461559
  0
LINE
  8
0
 62
7
  6
CONTINUOUS
 10
159.2460253798
 20
102.6953844607
 11
159.2498239662
 21
102.6911746831
  0
LINE
  8
0
 62
7
  6
CONTINUOUS
 10
153.5039155389
 20
127.6230070897
 11
152.7733229138
 21
130.5453775901
  0
LINE
  8
0
 62
7
  6
CONTINUOUS
 10
164.3688442888
 20
109.5248449028
 11
164.3688442888
 21
115.8293025785
  0
LINE
  8
0
 62
7
  6
CONTINUOUS
 10
165.1188442888
 20
103.0285601582
 11
165.1188442888
 21
106.4448262461
  0
LINE
  8
0
 62
7
  6
CONTINUOUS
 10
165.4688442888
 20
130.5817579338
 11
165.4688442888
 21
134.81329209
  0
LINE
  8
0
 62
7
  6
CONTINUOUS
 10
166.2188442888
 20
127.5017392772
 11
166.2188442888
 21
123.31329209
  0
LINE
  8
0
 62
7
  6
CONTINUOUS
 10
170.7188442888
 20
123.31329209
 11
170.7188442888
 21
127.5017392772
  0
LINE
  8
0
 62
7
  6
CONTINUOUS
 10
171.4688442888
 20
130.5817579338
 11
171.4688442888
 21
134.81329209
  0
LINE
  8
0
 62
7
  6
CONTINUOUS
 10
171.8188442888
 20
106.4448262461
 11
171.8188442888
 21
103.0285601582
  0
POLYLINE
  8
0
 62
7
  6
CONTINUOUS
 66
1
 70
0
  0
VERTEX
  8
0
 62
7
  6
CONTINUOUS
 10
164.3688442888
 20
115.8293018986
  0
VERTEX
  8
0
 62
7
  6
CONTINUOUS
 10
164.372256772
 20
115.9460645169
  0
VERTEX
  8
0
 62
7
  6
CONTINUOUS
 10
164.3842335015
 20
116.0768913852
  0
VERTEX
  8
0
 62
7
  6
CONTINUOUS
 10
164.4047825917
 20
116.2066893258
  0
VERTEX
  8
0
 62
7
  6
CONTINUOUS
 10
164.4338217558
 20
116.3348941721
  0
VERTEX
  8
0
 62
7
  6
CONTINUOUS
 10
164.47123255
 20
116.460951588
  0
VERTEX
  8
0
 62
7
  6
CONTINUOUS
 10
164.5168544593
 20
116.5843006746
  0
VERTEX
  8
0
 62
7
  6
CONTINUOUS
 10
164.5704898648
 20
116.7043974918
  0
VERTEX
  8
0
 62
7
  6
CONTINUOUS
 10
164.6319080983
 20
116.8207199864
  0
VERTEX
  8
0
 62
7
  6
CONTINUOUS
 10
164.7008452771
 20
116.9327637859
  0
VERTEX
  8
0
 62
7
  6
CONTINUOUS
 10
164.7770003637
 20
117.0400368655
  0
VERTEX
  8
0
 62
7
  6
CONTINUOUS
 10
164.8600418723
 20
117.1420716778
  0
VERTEX
  8
0
 62
7
  6
CONTINUOUS
 10
164.9496089315
 20
117.2384251416
  0
VERTEX
  8
0
 62
7
  6
CONTINUOUS
 10
165.0453105399
 20
117.3286778232
  0
VERTEX
  8
0
 62
7
  6
CONTINUOUS
 10
165.1467306126
 20
117.4124391992
  0
VERTEX
  8
0
 62
7
  6
CONTINUOUS
 10
165.2534302635
 20
117.4893486272
  0
VERTEX
  8
0
 62
7
  6
CONTINUOUS
 10
165.3649430792
 20
117.5590721184
  0
VERTEX
  8
0
 62
7
  6
CONTINUOUS
 10
165.4807750038
 20
117.6213048186
  0
VERTEX
  8
0
 62
7
  6
CONTINUOUS
 10
165.6004229281
 20
117.6757817016
  0
VERTEX
  8
0
 62
7
  6
CONTINUOUS
 10
165.7233665546
 20
117.7222711931
  0
VERTEX
  8
0
 62
7
  6
CONTINUOUS
 10
165.8490576213
 20
117.7605730362
  0
VERTEX
  8
0
 62
7
  6
CONTINUOUS
 10
165.976925277
 20
117.7905246075
  0
VERTEX
  8
0
 62
7
  6
CONTINUOUS
 10
166.1064164947
 20
117.8120101048
  0
VERTEX
  8
0
 62
7
  6
CONTINUOUS
 10
166.2369687328
 20
117.8249499639
  0
VERTEX
  8
0
 62
7
  6
CONTINUOUS
 10
166.3104635987
 20
117.8273913926
  0
SEQEND
  0
LINE
  8
0
 62
7
  6
CONTINUOUS
 10
159.8539155389
 20
109.4035770903
 11
159.1233229138
 21
106.4812065899
  0
LINE
  8
0
 62
7
  6
CONTINUOUS
 10
170.7337730387
 20
127.6230070897
 11
171.4643656638
 21
130.5453775901
  0
LINE
  8
0
 62
7
  6
CONTINUOUS
 10
152.2897569883
 20
102.6932620837
 11
152.2915778028
 21
102.6952889182
  0
LINE
  8
0
 62
7
  6
CONTINUOUS
 10
152.287571693
 20
102.6908531272
 11
152.2897569883
 21
102.6932620837
  0
LINE
  8
0
 62
7
  6
CONTINUOUS
 10
152.2850067665
 20
102.68805276
 11
152.287571693
 21
102.6908531272
  0
LINE
  8
0
 62
7
  6
CONTINUOUS
 10
152.281545372
 20
102.684309451
 11
152.2850067665
 21
102.68805276
  0
LINE
  8
0
 62
7
  6
CONTINUOUS
 10
152.2767088014
 20
102.6791286461
 11
152.281545372
 21
102.684309451
  0
LINE
  8
0
 62
7
  6
CONTINUOUS
 10
152.2719379282
 20
102.674058098
 11
152.2767088014
 21
102.6791286461
  0
LINE
  8
0
 62
7
  6
CONTINUOUS
 10
321.567227257
 20
101.46329209
 11
319.8204613206
 21
101.46329209
  0
LINE
  8
0
 62
7
  6
CONTINUOUS
 10
305.5688442888
 20
101.46329209
 11
304.5688442888
 21
101.46329209
  0
LINE
  8
0
 62
7
  6
CONTINUOUS
 10
291.0688442888
 20
101.46329209
 11
290.0688442888
 21
101.46329209
  0
LINE
  8
0
 62
7
  6
CONTINUOUS
 10
277.3188442888
 20
101.46329209
 11
276.3188442888
 21
101.46329209
  0
LINE
  8
0
 62
7
  6
CONTINUOUS
 10
263.7688442888
 20
101.46329209
 11
263.6688442888
 21
101.46329209
  0
LINE
  8
0
 62
7
  6
CONTINUOUS
 10
251.0688442888
 20
101.46329209
 11
250.9688442888
 21
101.46329209
  0
LINE
  8
0
 62
7
  6
CONTINUOUS
 10
238.3688442888
 20
101.46329209
 11
238.2688442888
 21
101.46329209
  0
LINE
  8
0
 62
7
  6
CONTINUOUS
 10
225.6688442888
 20
101.46329209
 11
225.5688442888
 21
101.46329209
  0
LINE
  8
0
 62
7
  6
CONTINUOUS
 10
212.9688442888
 20
101.46329209
 11
212.8688442888
 21
101.46329209
  0
LINE
  8
0
 62
7
  6
CONTINUOUS
 10
200.2688442888
 20
101.46329209
 11
200.1688442888
 21
101.46329209
  0
LINE
  8
0
 62
7
  6
CONTINUOUS
 10
187.5688442888
 20
101.46329209
 11
187.4688442888
 21
101.46329209
  0
LINE
  8
0
 62
7
  6
CONTINUOUS
 10
40.7704613206
 20
101.46329209
 11
42.517227257
 21
101.46329209
  0
LINE
  8
0
 62
7
  6
CONTINUOUS
 10
56.7688442888
 20
101.46329209
 11
57.7688442888
 21
101.46329209
  0
LINE
  8
0
 62
7
  6
CONTINUOUS
 10
71.2688442888
 20
101.46329209
 11
72.2688442888
 21
101.46329209
  0
LINE
  8
0
 62
7
  6
CONTINUOUS
 10
85.0188442888
 20
101.46329209
 11
86.0188442888
 21
101.46329209
  0
LINE
  8
0
 62
7
  6
CONTINUOUS
 10
98.5688442888
 20
101.46329209
 11
98.6688442888
 21
101.46329209
  0
LINE
  8
0
 62
7
  6
CONTINUOUS
 10
111.2688442888
 20
101.46329209
 11
111.3688442888
 21
101.46329209
  0
LINE
  8
0
 62
7
  6
CONTINUOUS
 10
123.9688442888
 20
101.46329209
 11
124.0688442888
 21
101.46329209
  0
LINE
  8
0
 62
7
  6
CONTINUOUS
 10
136.6688442888
 20
101.46329209
 11
136.7688442888
 21
101.46329209
  0
LINE
  8
0
 62
7
  6
CONTINUOUS
 10
149.3688442888
 20
101.46329209
 11
149.4688442888
 21
101.46329209
  0
LINE
  8
0
 62
7
  6
CONTINUOUS
 10
162.0688442888
 20
101.46329209
 11
162.1688442888
 21
101.46329209
  0
LINE
  8
0
 62
7
  6
CONTINUOUS
 10
174.7688442888
 20
101.46329209
 11
174.8688442888
 21
101.46329209
  0
LINE
  8
DEFAULT_1
 62
2
  6
CENTER
 10
28.5686514711
 20
105.81329209
 11
333.7690372228
 21
105.81329209
  0
LINE
  8
0
 62
7
  6
CONTINUOUS
 10
171.9582682782
 20
102.6820283912
 11
171.9655364644
 21
102.6742861148
  0
LINE
  8
0
 62
7
  6
CONTINUOUS
 10
171.9498239662
 20
102.6911746831
 11
171.9621039906
 21
102.677930763
  0
LINE
  8
0
 62
7
  6
CONTINUOUS
 10
171.9498718761
 20
102.6911226468
 11
171.9523209447
 21
102.6884461559
  0
LINE
  8
0
 62
7
  6
CONTINUOUS
 10
171.9460253798
 20
102.6953844607
 11
171.9498239662
 21
102.6911746831
  0
LINE
  8
0
 62
7
  6
CONTINUOUS
 10
165.1143656638
 20
106.4812065899
 11
164.3837730387
 21
109.4035770903
  0
LINE
  8
0
 62
7
  6
CONTINUOUS
 10
166.2039155389
 20
127.6230070897
 11
165.4733229138
 21
130.5453775901
  0
LINE
  8
0
 62
7
  6
CONTINUOUS
 10
172.5688442888
 20
115.8293025785
 11
172.5688442888
 21
109.5248449028
  0
LINE
  8
0
 62
7
  6
CONTINUOUS
 10
177.0688442888
 20
109.5248449028
 11
177.0688442888
 21
115.8293025785
  0
LINE
  8
0
 62
7
  6
CONTINUOUS
 10
177.8188442888
 20
103.0285601582
 11
177.8188442888
 21
106.4448262461
  0
LINE
  8
0
 62
7
  6
CONTINUOUS
 10
178.1688442888
 20
130.5817579338
 11
178.1688442888
 21
134.81329209
  0
LINE
  8
0
 62
7
  6
CONTINUOUS
 10
178.9188442888
 20
127.5017392772
 11
178.9188442888
 21
123.31329209
  0
LINE
  8
DEFAULT_1
 62
2
  6
CENTER
 10
181.1688442888
 20
99.45129161
 11
181.1688442888
 21
138.6567652783
  0
POLYLINE
  8
0
 62
7
  6
CONTINUOUS
 66
1
 70
0
  0
VERTEX
  8
0
 62
7
  6
CONTINUOUS
 10
177.0688442888
 20
115.8293018986
  0
VERTEX
  8
0
 62
7
  6
CONTINUOUS
 10
177.072256772
 20
115.9460645163
  0
VERTEX
  8
0
 62
7
  6
CONTINUOUS
 10
177.0842335014
 20
116.0768913841
  0
VERTEX
  8
0
 62
7
  6
CONTINUOUS
 10
177.1047825914
 20
116.2066893242
  0
VERTEX
  8
0
 62
7
  6
CONTINUOUS
 10
177.1338217552
 20
116.33489417
  0
VERTEX
  8
0
 62
7
  6
CONTINUOUS
 10
177.1712325491
 20
116.4609515854
  0
VERTEX
  8
0
 62
7
  6
CONTINUOUS
 10
177.216854458
 20
116.5843006715
  0
VERTEX
  8
0
 62
7
  6
CONTINUOUS
 10
177.2704898632
 20
116.7043974883
  0
VERTEX
  8
0
 62
7
  6
CONTINUOUS
 10
177.3319080961
 20
116.8207199826
  0
VERTEX
  8
0
 62
7
  6
CONTINUOUS
 10
177.4008452743
 20
116.9327637818
  0
VERTEX
  8
0
 62
7
  6
CONTINUOUS
 10
177.4770003603
 20
117.0400368611
  0
VERTEX
  8
0
 62
7
  6
CONTINUOUS
 10
177.5600418683
 20
117.1420716732
  0
VERTEX
  8
0
 62
7
  6
CONTINUOUS
 10
177.6496089269
 20
117.2384251369
  0
VERTEX
  8
0
 62
7
  6
CONTINUOUS
 10
177.7453105346
 20
117.3286778186
  0
VERTEX
  8
0
 62
7
  6
CONTINUOUS
 10
177.8467306067
 20
117.4124391946
  0
VERTEX
  8
0
 62
7
  6
CONTINUOUS
 10
177.9534302569
 20
117.4893486228
  0
VERTEX
  8
0
 62
7
  6
CONTINUOUS
 10
178.0649430716
 20
117.559072114
  0
VERTEX
  8
0
 62
7
  6
CONTINUOUS
 10
178.1807749952
 20
117.6213048143
  0
VERTEX
  8
0
 62
7
  6
CONTINUOUS
 10
178.3004229185
 20
117.6757816976
  0
VERTEX
  8
0
 62
7
  6
CONTINUOUS
 10
178.4233665442
 20
117.7222711895
  0
VERTEX
  8
0
 62
7
  6
CONTINUOUS
 10
178.5490576107
 20
117.7605730333
  0
VERTEX
  8
0
 62
7
  6
CONTINUOUS
 10
178.6769252671
 20
117.7905246056
  0
VERTEX
  8
0
 62
7
  6
CONTINUOUS
 10
178.8064164865
 20
117.8120101037
  0
VERTEX
  8
0
 62
7
  6
CONTINUOUS
 10
178.9369687279
 20
117.8249499635
  0
VERTEX
  8
0
 62
7
  6
CONTINUOUS
 10
179.0104637465
 20
117.8273913974
  0
SEQEND
  0
LINE
  8
0
 62
7
  6
CONTINUOUS
 10
172.5539155389
 20
109.4035770903
 11
171.8233229138
 21
106.4812065899
  0
LINE
  8
0
 62
7
  6
CONTINUOUS
 10
184.1643656638
 20
130.5453775901
 11
183.4337730387
 21
127.6230070897
  0
LINE
  8
0
 62
7
  6
CONTINUOUS
 10
164.9889800088
 20
102.6924028425
 11
164.9915778028
 21
102.6952889182
  0
LINE
  8
0
 62
7
  6
CONTINUOUS
 10
164.9869683368
 20
102.6901919843
 11
164.9891536096
 21
102.6925949113
  0
LINE
  8
0
 62
7
  6
CONTINUOUS
 10
164.9843375208
 20
102.6873271783
 11
164.9869683368
 21
102.6901919843
  0
LINE
  8
0
 62
7
  6
CONTINUOUS
 10
164.9807866275
 20
102.6834946093
 11
164.9843375208
 21
102.6873271783
  0
LINE
  8
0
 62
7
  6
CONTINUOUS
 10
164.9763555523
 20
102.6787532656
 11
164.981114031
 21
102.683845325
  0
LINE
  8
0
 62
7
  6
CONTINUOUS
 10
164.9721521131
 20
102.6742861148
 11
164.9763555523
 21
102.6787532656
  0
LINE
  8
0
 62
7
  6
CONTINUOUS
 10
246.7688442888
 20
117.8293025785
 11
242.5688442888
 21
117.8293025785
  0
LINE
  8
0
 62
7
  6
CONTINUOUS
 10
234.0688442888
 20
117.8293025785
 11
229.8688442888
 21
117.8293025785
  0
LINE
  8
0
 62
7
  6
CONTINUOUS
 10
208.6688442888
 20
117.8293025785
 11
204.4688442888
 21
117.8293025785
  0
LINE
  8
0
 62
7
  6
CONTINUOUS
 10
195.9688442888
 20
117.8293025785
 11
191.7688442888
 21
117.8293025785
  0
LINE
  8
0
 62
7
  6
CONTINUOUS
 10
183.2688442888
 20
117.8293025785
 11
179.0688442888
 21
117.8293025785
  0
LINE
  8
0
 62
7
  6
CONTINUOUS
 10
170.5688442888
 20
117.8293025785
 11
166.3688442888
 21
117.8293025785
  0
LINE
  8
0
 62
7
  6
CONTINUOUS
 10
157.8688442888
 20
117.8293025785
 11
153.6688442888
 21
117.8293025785
  0
LINE
  8
0
 62
7
  6
CONTINUOUS
 10
145.1688442888
 20
117.8293025785
 11
140.9688442888
 21
117.8293025785
  0
LINE
  8
0
 62
7
  6
CONTINUOUS
 10
132.4688442888
 20
117.8293025785
 11
128.2688442888
 21
117.8293025785
  0
LINE
  8
0
 62
7
  6
CONTINUOUS
 10
119.7688442888
 20
117.8293025785
 11
115.5688442888
 21
117.8293025785
  0
LINE
  8
0
 62
7
  6
CONTINUOUS
 10
107.0688442888
 20
117.8293025785
 11
102.8688442888
 21
117.8293025785
  0
LINE
  8
0
 62
7
  6
CONTINUOUS
 10
94.3688442888
 20
117.8293025785
 11
90.2688442888
 21
117.8293025785
  0
LINE
  8
0
 62
7
  6
CONTINUOUS
 10
217.1688442888
 20
117.8293025785
 11
221.3688442888
 21
117.8293025785
  0
LINE
  8
0
 62
7
  6
CONTINUOUS
 10
255.2688442888
 20
117.8293025785
 11
259.4688442888
 21
117.8293025785
  0
LINE
  8
0
 62
7
  6
CONTINUOUS
 10
267.9688442888
 20
117.8293025785
 11
272.0688442888
 21
117.8293025785
  0
LINE
  8
0
 62
7
  6
CONTINUOUS
 10
300.1188442888
 20
118.06329209
 11
295.5188442888
 21
118.06329209
  0
LINE
  8
0
 62
7
  6
CONTINUOUS
 10
285.6188442888
 20
118.06329209
 11
281.7688442888
 21
118.06329209
  0
LINE
  8
0
 62
7
  6
CONTINUOUS
 10
62.2188442888
 20
118.06329209
 11
66.8188442888
 21
118.06329209
  0
LINE
  8
0
 62
7
  6
CONTINUOUS
 10
76.7188442888
 20
118.06329209
 11
80.5688442888
 21
118.06329209
  0
LINE
  8
0
 62
7
  6
CONTINUOUS
 10
314.4438442888
 20
118.21329209
 11
310.3188442888
 21
118.21329209
  0
LINE
  8
0
 62
7
  6
CONTINUOUS
 10
47.8938442888
 20
118.21329209
 11
52.0188442888
 21
118.21329209
  0
LINE
  8
0
 62
7
  6
CONTINUOUS
 10
321.1188442888
 20
118.76329209
 11
319.3188442888
 21
118.76329209
  0
LINE
  8
0
 62
7
  6
CONTINUOUS
 10
43.0188442888
 20
118.76329209
 11
41.2188442888
 21
118.76329209
  0
LINE
  8
0
 62
7
  6
CONTINUOUS
 10
305.8188442888
 20
118.86329209
 11
304.3188442888
 21
118.86329209
  0
LINE
  8
0
 62
7
  6
CONTINUOUS
 10
58.0188442888
 20
118.86329209
 11
56.5188442888
 21
118.86329209
  0
LINE
  8
0
 62
7
  6
CONTINUOUS
 10
291.4688442888
 20
119.01329209
 11
289.6688442888
 21
119.01329209
  0
LINE
  8
0
 62
7
  6
CONTINUOUS
 10
277.4688442888
 20
119.01329209
 11
276.1688442888
 21
119.01329209
  0
LINE
  8
0
 62
7
  6
CONTINUOUS
 10
86.1688442888
 20
119.01329209
 11
84.8688442888
 21
119.01329209
  0
LINE
  8
0
 62
7
  6
CONTINUOUS
 10
72.6688442888
 20
119.01329209
 11
70.8688442888
 21
119.01329209
  0
POLYLINE
  8
0
 62
7
  6
CONTINUOUS
 66
1
 70
0
  0
VERTEX
  8
0
 62
7
  6
CONTINUOUS
 10
94.430128508
 20
117.8272963409
  0
VERTEX
  8
0
 62
7
  6
CONTINUOUS
 10
94.500865552
 20
117.8249403297
  0
VERTEX
  8
0
 62
7
  6
CONTINUOUS
 10
94.6313592597
 20
117.8119985637
  0
VERTEX
  8
0
 62
7
  6
CONTINUOUS
 10
94.7607924177
 20
117.7905187883
  0
VERTEX
  8
0
 62
7
  6
CONTINUOUS
 10
94.8886032773
 20
117.7605804861
  0
VERTEX
  8
0
 62
7
  6
CONTINUOUS
 10
95.0142394976
 20
117.7222993335
  0
VERTEX
  8
0
 62
7
  6
CONTINUOUS
 10
95.1371310063
 20
117.6758377332
  0
VERTEX
  8
0
 62
7
  6
CONTINUOUS
 10
95.2567303242
 20
117.6213956285
  0
VERTEX
  8
0
 62
7
  6
CONTINUOUS
 10
95.3725178813
 20
117.5592042109
  0
VERTEX
  8
0
 62
7
  6
CONTINUOUS
 10
95.4839911573
 20
117.4895281171
  0
VERTEX
  8
0
 62
7
  6
CONTINUOUS
 10
95.5906567177
 20
117.412671719
  0
VERTEX
  8
0
 62
7
  6
CONTINUOUS
 10
95.6920487302
 20
117.3289684621
  0
VERTEX
  8
0
 62
7
  6
CONTINUOUS
 10
95.7877288321
 20
117.2387783991
  0
VERTEX
  8
0
 62
7
  6
CONTINUOUS
 10
95.877281364
 20
117.1424914657
  0
VERTEX
  8
0
 62
7
  6
CONTINUOUS
 10
95.9603157462
 20
117.040526421
  0
VERTEX
  8
0
 62
7
  6
CONTINUOUS
 10
96.0364714538
 20
116.9333256531
  0
VERTEX
  8
0
 62
7
  6
CONTINUOUS
 10
96.1054172917
 20
116.8213559789
  0
VERTEX
  8
0
 62
7
  6
CONTINUOUS
 10
96.1668524566
 20
116.7051086477
  0
VERTEX
  8
0
 62
7
  6
CONTINUOUS
 10
96.2205132332
 20
116.5850872304
  0
VERTEX
  8
0
 62
7
  6
CONTINUOUS
 10
96.2661690306
 20
116.461813008
  0
VERTEX
  8
0
 62
7
  6
CONTINUOUS
 10
96.3036222473
 20
116.3358291165
  0
VERTEX
  8
0
 62
7
  6
CONTINUOUS
 10
96.3327123204
 20
116.2076956036
  0
VERTEX
  8
0
 62
7
  6
CONTINUOUS
 10
96.3533206827
 20
116.0779659716
  0
VERTEX
  8
0
 62
7
  6
CONTINUOUS
 10
96.3653648422
 20
115.9472035977
  0
VERTEX
  8
0
 62
7
  6
CONTINUOUS
 10
96.3688442888
 20
115.8293019465
  0
SEQEND
  0
POLYLINE
  8
0
 62
7
  6
CONTINUOUS
 66
1
 70
0
  0
VERTEX
  8
0
 62
7
  6
CONTINUOUS
 10
107.130128421
 20
117.8272963437
  0
VERTEX
  8
0
 62
7
  6
CONTINUOUS
 10
107.2008655553
 20
117.8249403295
  0
VERTEX
  8
0
 62
7
  6
CONTINUOUS
 10
107.3313592651
 20
117.8119985629
  0
VERTEX
  8
0
 62
7
  6
CONTINUOUS
 10
107.4607924243
 20
117.790518787
  0
VERTEX
  8
0
 62
7
  6
CONTINUOUS
 10
107.5886032843
 20
117.7605804842
  0
VERTEX
  8
0
 62
7
  6
CONTINUOUS
 10
107.7142395045
 20
117.7222993312
  0
VERTEX
  8
0
 62
7
  6
CONTINUOUS
 10
107.8371310127
 20
117.6758377305
  0
VERTEX
  8
0
 62
7
  6
CONTINUOUS
 10
107.9567303299
 20
117.6213956257
  0
VERTEX
  8
0
 62
7
  6
CONTINUOUS
 10
108.0725178863
 20
117.559204208
  0
VERTEX
  8
0
 62
7
  6
CONTINUOUS
 10
108.1839911617
 20
117.4895281141
  0
VERTEX
  8
0
 62
7
  6
CONTINUOUS
 10
108.2906567216
 20
117.412671716
  0
VERTEX
  8
0
 62
7
  6
CONTINUOUS
 10
108.3920487337
 20
117.3289684591
  0
VERTEX
  8
0
 62
7
  6
CONTINUOUS
 10
108.4877288351
 20
117.238778396
  0
VERTEX
  8
0
 62
7
  6
CONTINUOUS
 10
108.5772813666
 20
117.1424914627
  0
VERTEX
  8
0
 62
7
  6
CONTINUOUS
 10
108.6603157484
 20
117.0405264181
  0
VERTEX
  8
0
 62
7
  6
CONTINUOUS
 10
108.7364714556
 20
116.9333256504
  0
VERTEX
  8
0
 62
7
  6
CONTINUOUS
 10
108.8054172932
 20
116.8213559764
  0
VERTEX
  8
0
 62
7
  6
CONTINUOUS
 10
108.8668524577
 20
116.7051086454
  0
VERTEX
  8
0
 62
7
  6
CONTINUOUS
 10
108.920513234
 20
116.5850872284
  0
VERTEX
  8
0
 62
7
  6
CONTINUOUS
 10
108.9661690312
 20
116.4618130063
  0
VERTEX
  8
0
 62
7
  6
CONTINUOUS
 10
109.0036222476
 20
116.3358291151
  0
VERTEX
  8
0
 62
7
  6
CONTINUOUS
 10
109.0327123207
 20
116.2076956025
  0
VERTEX
  8
0
 62
7
  6
CONTINUOUS
 10
109.0533206827
 20
116.0779659708
  0
VERTEX
  8
0
 62
7
  6
CONTINUOUS
 10
109.0653648422
 20
115.9472035973
  0
VERTEX
  8
0
 62
7
  6
CONTINUOUS
 10
109.0688442888
 20
115.8293019465
  0
SEQEND
  0
POLYLINE
  8
0
 62
7
  6
CONTINUOUS
 66
1
 70
0
  0
VERTEX
  8
0
 62
7
  6
CONTINUOUS
 10
119.8301286194
 20
117.8272963372
  0
VERTEX
  8
0
 62
7
  6
CONTINUOUS
 10
119.9008655478
 20
117.82494033
  0
VERTEX
  8
0
 62
7
  6
CONTINUOUS
 10
120.0313592527
 20
117.8119985646
  0
VERTEX
  8
0
 62
7
  6
CONTINUOUS
 10
120.1607924093
 20
117.79051879
  0
VERTEX
  8
0
 62
7
  6
CONTINUOUS
 10
120.2886032683
 20
117.7605804886
  0
VERTEX
  8
0
 62
7
  6
CONTINUOUS
 10
120.4142394888
 20
117.7222993366
  0
VERTEX
  8
0
 62
7
  6
CONTINUOUS
 10
120.5371309981
 20
117.6758377366
  0
VERTEX
  8
0
 62
7
  6
CONTINUOUS
 10
120.6567303169
 20
117.6213956322
  0
VERTEX
  8
0
 62
7
  6
CONTINUOUS
 10
120.7725178749
 20
117.5592042146
  0
VERTEX
  8
0
 62
7
  6
CONTINUOUS
 10
120.8839911516
 20
117.4895281209
  0
VERTEX
  8
0
 62
7
  6
CONTINUOUS
 10
120.9906567126
 20
117.4126717229
  0
VERTEX
  8
0
 62
7
  6
CONTINUOUS
 10
121.0920487257
 20
117.3289684661
  0
VERTEX
  8
0
 62
7
  6
CONTINUOUS
 10
121.1877288281
 20
117.2387784031
  0
VERTEX
  8
0
 62
7
  6
CONTINUOUS
 10
121.2772813606
 20
117.1424914696
  0
VERTEX
  8
0
 62
7
  6
CONTINUOUS
 10
121.3603157433
 20
117.0405264247
  0
VERTEX
  8
0
 62
7
  6
CONTINUOUS
 10
121.4364714515
 20
116.9333256566
  0
VERTEX
  8
0
 62
7
  6
CONTINUOUS
 10
121.5054172899
 20
116.8213559821
  0
VERTEX
  8
0
 62
7
  6
CONTINUOUS
 10
121.5668524552
 20
116.7051086506
  0
VERTEX
  8
0
 62
7
  6
CONTINUOUS
 10
121.6205132322
 20
116.585087233
  0
VERTEX
  8
0
 62
7
  6
CONTINUOUS
 10
121.6661690299
 20
116.4618130102
  0
VERTEX
  8
0
 62
7
  6
CONTINUOUS
 10
121.7036222468
 20
116.3358291183
  0
VERTEX
  8
0
 62
7
  6
CONTINUOUS
 10
121.7327123202
 20
116.2076956049
  0
VERTEX
  8
0
 62
7
  6
CONTINUOUS
 10
121.7533206825
 20
116.0779659725
  0
VERTEX
  8
0
 62
7
  6
CONTINUOUS
 10
121.7653648422
 20
115.9472035981
  0
VERTEX
  8
0
 62
7
  6
CONTINUOUS
 10
121.7688442888
 20
115.8293019465
  0
SEQEND
  0
POLYLINE
  8
0
 62
7
  6
CONTINUOUS
 66
1
 70
0
  0
VERTEX
  8
0
 62
7
  6
CONTINUOUS
 10
132.5301285148
 20
117.8272963407
  0
VERTEX
  8
0
 62
7
  6
CONTINUOUS
 10
132.6008655517
 20
117.8249403297
  0
VERTEX
  8
0
 62
7
  6
CONTINUOUS
 10
132.7313592593
 20
117.8119985637
  0
VERTEX
  8
0
 62
7
  6
CONTINUOUS
 10
132.8607924172
 20
117.7905187884
  0
VERTEX
  8
0
 62
7
  6
CONTINUOUS
 10
132.9886032767
 20
117.7605804863
  0
VERTEX
  8
0
 62
7
  6
CONTINUOUS
 10
133.1142394971
 20
117.7222993337
  0
VERTEX
  8
0
 62
7
  6
CONTINUOUS
 10
133.2371310058
 20
117.6758377334
  0
VERTEX
  8
0
 62
7
  6
CONTINUOUS
 10
133.3567303238
 20
117.6213956288
  0
VERTEX
  8
0
 62
7
  6
CONTINUOUS
 10
133.4725178809
 20
117.5592042111
  0
VERTEX
  8
0
 62
7
  6
CONTINUOUS
 10
133.5839911569
 20
117.4895281173
  0
VERTEX
  8
0
 62
7
  6
CONTINUOUS
 10
133.6906567174
 20
117.4126717192
  0
VERTEX
  8
0
 62
7
  6
CONTINUOUS
 10
133.7920487299
 20
117.3289684624
  0
VERTEX
  8
0
 62
7
  6
CONTINUOUS
 10
133.8877288318
 20
117.2387783993
  0
VERTEX
  8
0
 62
7
  6
CONTINUOUS
 10
133.9772813638
 20
117.142491466
  0
VERTEX
  8
0
 62
7
  6
CONTINUOUS
 10
134.060315746
 20
117.0405264212
  0
VERTEX
  8
0
 62
7
  6
CONTINUOUS
 10
134.1364714536
 20
116.9333256534
  0
VERTEX
  8
0
 62
7
  6
CONTINUOUS
 10
134.2054172916
 20
116.8213559791
  0
VERTEX
  8
0
 62
7
  6
CONTINUOUS
 10
134.2668524565
 20
116.7051086479
  0
VERTEX
  8
0
 62
7
  6
CONTINUOUS
 10
134.3205132332
 20
116.5850872305
  0
VERTEX
  8
0
 62
7
  6
CONTINUOUS
 10
134.3661690306
 20
116.4618130082
  0
VERTEX
  8
0
 62
7
  6
CONTINUOUS
 10
134.4036222473
 20
116.3358291166
  0
VERTEX
  8
0
 62
7
  6
CONTINUOUS
 10
134.4327123204
 20
116.2076956036
  0
VERTEX
  8
0
 62
7
  6
CONTINUOUS
 10
134.4533206826
 20
116.0779659716
  0
VERTEX
  8
0
 62
7
  6
CONTINUOUS
 10
134.4653648422
 20
115.9472035977
  0
VERTEX
  8
0
 62
7
  6
CONTINUOUS
 10
134.4688442888
 20
115.8293019465
  0
SEQEND
  0
POLYLINE
  8
0
 62
7
  6
CONTINUOUS
 66
1
 70
0
  0
VERTEX
  8
0
 62
7
  6
CONTINUOUS
 10
145.2301286027
 20
117.8272963378
  0
VERTEX
  8
0
 62
7
  6
CONTINUOUS
 10
145.3008655484
 20
117.8249403299
  0
VERTEX
  8
0
 62
7
  6
CONTINUOUS
 10
145.4313592538
 20
117.8119985644
  0
VERTEX
  8
0
 62
7
  6
CONTINUOUS
 10
145.5607924105
 20
117.7905187898
  0
VERTEX
  8
0
 62
7
  6
CONTINUOUS
 10
145.6886032696
 20
117.7605804882
  0
VERTEX
  8
0
 62
7
  6
CONTINUOUS
 10
145.8142394901
 20
117.7222993361
  0
VERTEX
  8
0
 62
7
  6
CONTINUOUS
 10
145.9371309993
 20
117.6758377361
  0
VERTEX
  8
0
 62
7
  6
CONTINUOUS
 10
146.056730318
 20
117.6213956316
  0
VERTEX
  8
0
 62
7
  6
CONTINUOUS
 10
146.1725178758
 20
117.5592042141
  0
VERTEX
  8
0
 62
7
  6
CONTINUOUS
 10
146.2839911524
 20
117.4895281203
  0
VERTEX
  8
0
 62
7
  6
CONTINUOUS
 10
146.3906567134
 20
117.4126717223
  0
VERTEX
  8
0
 62
7
  6
CONTINUOUS
 10
146.4920487264
 20
117.3289684655
  0
VERTEX
  8
0
 62
7
  6
CONTINUOUS
 10
146.5877288287
 20
117.2387784025
  0
VERTEX
  8
0
 62
7
  6
CONTINUOUS
 10
146.6772813611
 20
117.142491469
  0
VERTEX
  8
0
 62
7
  6
CONTINUOUS
 10
146.7603157438
 20
117.0405264241
  0
VERTEX
  8
0
 62
7
  6
CONTINUOUS
 10
146.8364714518
 20
116.9333256561
  0
VERTEX
  8
0
 62
7
  6
CONTINUOUS
 10
146.9054172902
 20
116.8213559816
  0
VERTEX
  8
0
 62
7
  6
CONTINUOUS
 10
146.9668524554
 20
116.7051086502
  0
VERTEX
  8
0
 62
7
  6
CONTINUOUS
 10
147.0205132323
 20
116.5850872326
  0
VERTEX
  8
0
 62
7
  6
CONTINUOUS
 10
147.06616903
 20
116.4618130099
  0
VERTEX
  8
0
 62
7
  6
CONTINUOUS
 10
147.1036222469
 20
116.335829118
  0
VERTEX
  8
0
 62
7
  6
CONTINUOUS
 10
147.1327123202
 20
116.2076956047
  0
VERTEX
  8
0
 62
7
  6
CONTINUOUS
 10
147.1533206826
 20
116.0779659724
  0
VERTEX
  8
0
 62
7
  6
CONTINUOUS
 10
147.1653648422
 20
115.9472035981
  0
VERTEX
  8
0
 62
7
  6
CONTINUOUS
 10
147.1688442888
 20
115.8293019465
  0
SEQEND
  0
POLYLINE
  8
0
 62
7
  6
CONTINUOUS
 66
1
 70
0
  0
VERTEX
  8
0
 62
7
  6
CONTINUOUS
 10
157.9301284988
 20
117.8272963412
  0
VERTEX
  8
0
 62
7
  6
CONTINUOUS
 10
158.0008655523
 20
117.8249403297
  0
VERTEX
  8
0
 62
7
  6
CONTINUOUS
 10
158.1313592603
 20
117.8119985636
  0
VERTEX
  8
0
 62
7
  6
CONTINUOUS
 10
158.2607924184
 20
117.7905187882
  0
VERTEX
  8
0
 62
7
  6
CONTINUOUS
 10
158.388603278
 20
117.7605804859
  0
VERTEX
  8
0
 62
7
  6
CONTINUOUS
 10
158.5142394984
 20
117.7222993333
  0
VERTEX
  8
0
 62
7
  6
CONTINUOUS
 10
158.637131007
 20
117.6758377329
  0
VERTEX
  8
0
 62
7
  6
CONTINUOUS
 10
158.7567303248
 20
117.6213956282
  0
VERTEX
  8
0
 62
7
  6
CONTINUOUS
 10
158.8725178818
 20
117.5592042106
  0
VERTEX
  8
0
 62
7
  6
CONTINUOUS
 10
158.9839911577
 20
117.4895281168
  0
VERTEX
  8
0
 62
7
  6
CONTINUOUS
 10
159.0906567181
 20
117.4126717187
  0
VERTEX
  8
0
 62
7
  6
CONTINUOUS
 10
159.1920487306
 20
117.3289684618
  0
VERTEX
  8
0
 62
7
  6
CONTINUOUS
 10
159.2877288324
 20
117.2387783988
  0
VERTEX
  8
0
 62
7
  6
CONTINUOUS
 10
159.3772813643
 20
117.1424914654
  0
VERTEX
  8
0
 62
7
  6
CONTINUOUS
 10
159.4603157464
 20
117.0405264207
  0
VERTEX
  8
0
 62
7
  6
CONTINUOUS
 10
159.536471454
 20
116.9333256528
  0
VERTEX
  8
0
 62
7
  6
CONTINUOUS
 10
159.6054172919
 20
116.8213559786
  0
VERTEX
  8
0
 62
7
  6
CONTINUOUS
 10
159.6668524567
 20
116.7051086475
  0
VERTEX
  8
0
 62
7
  6
CONTINUOUS
 10
159.7205132333
 20
116.5850872302
  0
VERTEX
  8
0
 62
7
  6
CONTINUOUS
 10
159.7661690307
 20
116.4618130078
  0
VERTEX
  8
0
 62
7
  6
CONTINUOUS
 10
159.8036222473
 20
116.3358291163
  0
VERTEX
  8
0
 62
7
  6
CONTINUOUS
 10
159.8327123205
 20
116.2076956034
  0
VERTEX
  8
0
 62
7
  6
CONTINUOUS
 10
159.8533206827
 20
116.0779659715
  0
VERTEX
  8
0
 62
7
  6
CONTINUOUS
 10
159.8653648422
 20
115.9472035976
  0
VERTEX
  8
0
 62
7
  6
CONTINUOUS
 10
159.8688442888
 20
115.8293019465
  0
SEQEND
  0
POLYLINE
  8
0
 62
7
  6
CONTINUOUS
 66
1
 70
0
  0
VERTEX
  8
0
 62
7
  6
CONTINUOUS
 10
170.6301285006
 20
117.8272963411
  0
VERTEX
  8
0
 62
7
  6
CONTINUOUS
 10
170.7008655523
 20
117.8249403297
  0
VERTEX
  8
0
 62
7
  6
CONTINUOUS
 10
170.8313592602
 20
117.8119985636
  0
VERTEX
  8
0
 62
7
  6
CONTINUOUS
 10
170.9607924183
 20
117.7905187882
  0
VERTEX
  8
0
 62
7
  6
CONTINUOUS
 10
171.0886032779
 20
117.760580486
  0
VERTEX
  8
0
 62
7
  6
CONTINUOUS
 10
171.2142394982
 20
117.7222993333
  0
VERTEX
  8
0
 62
7
  6
CONTINUOUS
 10
171.3371310068
 20
117.675837733
  0
VERTEX
  8
0
 62
7
  6
CONTINUOUS
 10
171.4567303247
 20
117.6213956283
  0
VERTEX
  8
0
 62
7
  6
CONTINUOUS
 10
171.5725178817
 20
117.5592042107
  0
VERTEX
  8
0
 62
7
  6
CONTINUOUS
 10
171.6839911576
 20
117.4895281169
  0
VERTEX
  8
0
 62
7
  6
CONTINUOUS
 10
171.790656718
 20
117.4126717188
  0
VERTEX
  8
0
 62
7
  6
CONTINUOUS
 10
171.8920487305
 20
117.3289684619
  0
VERTEX
  8
0
 62
7
  6
CONTINUOUS
 10
171.9877288323
 20
117.2387783988
  0
VERTEX
  8
0
 62
7
  6
CONTINUOUS
 10
172.0772813642
 20
117.1424914655
  0
VERTEX
  8
0
 62
7
  6
CONTINUOUS
 10
172.1603157464
 20
117.0405264207
  0
VERTEX
  8
0
 62
7
  6
CONTINUOUS
 10
172.2364714539
 20
116.9333256529
  0
VERTEX
  8
0
 62
7
  6
CONTINUOUS
 10
172.3054172919
 20
116.8213559787
  0
VERTEX
  8
0
 62
7
  6
CONTINUOUS
 10
172.3668524567
 20
116.7051086475
  0
VERTEX
  8
0
 62
7
  6
CONTINUOUS
 10
172.4205132333
 20
116.5850872302
  0
VERTEX
  8
0
 62
7
  6
CONTINUOUS
 10
172.4661690307
 20
116.4618130079
  0
VERTEX
  8
0
 62
7
  6
CONTINUOUS
 10
172.5036222473
 20
116.3358291163
  0
VERTEX
  8
0
 62
7
  6
CONTINUOUS
 10
172.5327123205
 20
116.2076956034
  0
VERTEX
  8
0
 62
7
  6
CONTINUOUS
 10
172.5533206827
 20
116.0779659715
  0
VERTEX
  8
0
 62
7
  6
CONTINUOUS
 10
172.5653648422
 20
115.9472035976
  0
VERTEX
  8
0
 62
7
  6
CONTINUOUS
 10
172.5688442888
 20
115.8293019465
  0
SEQEND
  0
POLYLINE
  8
0
 62
7
  6
CONTINUOUS
 66
1
 70
0
  0
VERTEX
  8
0
 62
7
  6
CONTINUOUS
 10
183.3301284846
 20
117.8272963416
  0
VERTEX
  8
0
 62
7
  6
CONTINUOUS
 10
183.4008655529
 20
117.8249403296
  0
VERTEX
  8
0
 62
7
  6
CONTINUOUS
 10
183.5313592612
 20
117.8119985635
  0
VERTEX
  8
0
 62
7
  6
CONTINUOUS
 10
183.6607924195
 20
117.790518788
  0
VERTEX
  8
0
 62
7
  6
CONTINUOUS
 10
183.7886032792
 20
117.7605804856
  0
VERTEX
  8
0
 62
7
  6
CONTINUOUS
 10
183.9142394995
 20
117.7222993329
  0
VERTEX
  8
0
 62
7
  6
CONTINUOUS
 10
184.037131008
 20
117.6758377325
  0
VERTEX
  8
0
 62
7
  6
CONTINUOUS
 10
184.1567303258
 20
117.6213956278
  0
VERTEX
  8
0
 62
7
  6
CONTINUOUS
 10
184.2725178826
 20
117.5592042101
  0
VERTEX
  8
0
 62
7
  6
CONTINUOUS
 10
184.3839911585
 20
117.4895281163
  0
VERTEX
  8
0
 62
7
  6
CONTINUOUS
 10
184.4906567187
 20
117.4126717182
  0
VERTEX
  8
0
 62
7
  6
CONTINUOUS
 10
184.5920487311
 20
117.3289684613
  0
VERTEX
  8
0
 62
7
  6
CONTINUOUS
 10
184.6877288329
 20
117.2387783983
  0
VERTEX
  8
0
 62
7
  6
CONTINUOUS
 10
184.7772813647
 20
117.1424914649
  0
VERTEX
  8
0
 62
7
  6
CONTINUOUS
 10
184.8603157468
 20
117.0405264202
  0
VERTEX
  8
0
 62
7
  6
CONTINUOUS
 10
184.9364714543
 20
116.9333256524
  0
VERTEX
  8
0
 62
7
  6
CONTINUOUS
 10
185.0054172921
 20
116.8213559782
  0
VERTEX
  8
0
 62
7
  6
CONTINUOUS
 10
185.0668524569
 20
116.7051086471
  0
VERTEX
  8
0
 62
7
  6
CONTINUOUS
 10
185.1205132335
 20
116.5850872298
  0
VERTEX
  8
0
 62
7
  6
CONTINUOUS
 10
185.1661690308
 20
116.4618130076
  0
VERTEX
  8
0
 62
7
  6
CONTINUOUS
 10
185.2036222474
 20
116.3358291161
  0
VERTEX
  8
0
 62
7
  6
CONTINUOUS
 10
185.2327123205
 20
116.2076956033
  0
VERTEX
  8
0
 62
7
  6
CONTINUOUS
 10
185.2533206827
 20
116.0779659714
  0
VERTEX
  8
0
 62
7
  6
CONTINUOUS
 10
185.2653648422
 20
115.9472035976
  0
VERTEX
  8
0
 62
7
  6
CONTINUOUS
 10
185.2688442888
 20
115.8293019465
  0
SEQEND
  0
POLYLINE
  8
0
 62
7
  6
CONTINUOUS
 66
1
 70
0
  0
VERTEX
  8
0
 62
7
  6
CONTINUOUS
 10
196.0301285053
 20
117.827296341
  0
VERTEX
  8
0
 62
7
  6
CONTINUOUS
 10
196.1008655521
 20
117.8249403297
  0
VERTEX
  8
0
 62
7
  6
CONTINUOUS
 10
196.2313592599
 20
117.8119985636
  0
VERTEX
  8
0
 62
7
  6
CONTINUOUS
 10
196.3607924179
 20
117.7905187883
  0
VERTEX
  8
0
 62
7
  6
CONTINUOUS
 10
196.4886032775
 20
117.7605804861
  0
VERTEX
  8
0
 62
7
  6
CONTINUOUS
 10
196.6142394978
 20
117.7222993335
  0
VERTEX
  8
0
 62
7
  6
CONTINUOUS
 10
196.7371310065
 20
117.6758377331
  0
VERTEX
  8
0
 62
7
  6
CONTINUOUS
 10
196.8567303244
 20
117.6213956285
  0
VERTEX
  8
0
 62
7
  6
CONTINUOUS
 10
196.9725178814
 20
117.5592042108
  0
VERTEX
  8
0
 62
7
  6
CONTINUOUS
 10
197.0839911574
 20
117.489528117
  0
VERTEX
  8
0
 62
7
  6
CONTINUOUS
 10
197.1906567178
 20
117.4126717189
  0
VERTEX
  8
0
 62
7
  6
CONTINUOUS
 10
197.2920487303
 20
117.328968462
  0
VERTEX
  8
0
 62
7
  6
CONTINUOUS
 10
197.3877288322
 20
117.238778399
  0
VERTEX
  8
0
 62
7
  6
CONTINUOUS
 10
197.4772813641
 20
117.1424914656
  0
VERTEX
  8
0
 62
7
  6
CONTINUOUS
 10
197.5603157462
 20
117.0405264209
  0
VERTEX
  8
0
 62
7
  6
CONTINUOUS
 10
197.6364714538
 20
116.933325653
  0
VERTEX
  8
0
 62
7
  6
CONTINUOUS
 10
197.7054172918
 20
116.8213559788
  0
VERTEX
  8
0
 62
7
  6
CONTINUOUS
 10
197.7668524566
 20
116.7051086476
  0
VERTEX
  8
0
 62
7
  6
CONTINUOUS
 10
197.8205132333
 20
116.5850872303
  0
VERTEX
  8
0
 62
7
  6
CONTINUOUS
 10
197.8661690306
 20
116.461813008
  0
VERTEX
  8
0
 62
7
  6
CONTINUOUS
 10
197.9036222473
 20
116.3358291164
  0
VERTEX
  8
0
 62
7
  6
CONTINUOUS
 10
197.9327123205
 20
116.2076956035
  0
VERTEX
  8
0
 62
7
  6
CONTINUOUS
 10
197.9533206827
 20
116.0779659715
  0
VERTEX
  8
0
 62
7
  6
CONTINUOUS
 10
197.9653648422
 20
115.9472035976
  0
VERTEX
  8
0
 62
7
  6
CONTINUOUS
 10
197.9688442888
 20
115.8293019465
  0
SEQEND
  0
POLYLINE
  8
0
 62
7
  6
CONTINUOUS
 66
1
 70
0
  0
VERTEX
  8
0
 62
7
  6
CONTINUOUS
 10
208.7301285001
 20
117.8272963411
  0
VERTEX
  8
0
 62
7
  6
CONTINUOUS
 10
208.8008655523
 20
117.8249403297
  0
VERTEX
  8
0
 62
7
  6
CONTINUOUS
 10
208.9313592602
 20
117.8119985636
  0
VERTEX
  8
0
 62
7
  6
CONTINUOUS
 10
209.0607924183
 20
117.7905187882
  0
VERTEX
  8
0
 62
7
  6
CONTINUOUS
 10
209.1886032779
 20
117.760580486
  0
VERTEX
  8
0
 62
7
  6
CONTINUOUS
 10
209.3142394982
 20
117.7222993333
  0
VERTEX
  8
0
 62
7
  6
CONTINUOUS
 10
209.4371310069
 20
117.675837733
  0
VERTEX
  8
0
 62
7
  6
CONTINUOUS
 10
209.5567303248
 20
117.6213956283
  0
VERTEX
  8
0
 62
7
  6
CONTINUOUS
 10
209.6725178817
 20
117.5592042106
  0
VERTEX
  8
0
 62
7
  6
CONTINUOUS
 10
209.7839911577
 20
117.4895281168
  0
VERTEX
  8
0
 62
7
  6
CONTINUOUS
 10
209.890656718
 20
117.4126717187
  0
VERTEX
  8
0
 62
7
  6
CONTINUOUS
 10
209.9920487305
 20
117.3289684619
  0
VERTEX
  8
0
 62
7
  6
CONTINUOUS
 10
210.0877288323
 20
117.2387783988
  0
VERTEX
  8
0
 62
7
  6
CONTINUOUS
 10
210.1772813642
 20
117.1424914654
  0
VERTEX
  8
0
 62
7
  6
CONTINUOUS
 10
210.2603157464
 20
117.0405264207
  0
VERTEX
  8
0
 62
7
  6
CONTINUOUS
 10
210.3364714539
 20
116.9333256529
  0
VERTEX
  8
0
 62
7
  6
CONTINUOUS
 10
210.4054172919
 20
116.8213559787
  0
VERTEX
  8
0
 62
7
  6
CONTINUOUS
 10
210.4668524567
 20
116.7051086475
  0
VERTEX
  8
0
 62
7
  6
CONTINUOUS
 10
210.5205132333
 20
116.5850872302
  0
VERTEX
  8
0
 62
7
  6
CONTINUOUS
 10
210.5661690307
 20
116.4618130079
  0
VERTEX
  8
0
 62
7
  6
CONTINUOUS
 10
210.6036222473
 20
116.3358291163
  0
VERTEX
  8
0
 62
7
  6
CONTINUOUS
 10
210.6327123205
 20
116.2076956034
  0
VERTEX
  8
0
 62
7
  6
CONTINUOUS
 10
210.6533206827
 20
116.0779659715
  0
VERTEX
  8
0
 62
7
  6
CONTINUOUS
 10
210.6653648422
 20
115.9472035976
  0
VERTEX
  8
0
 62
7
  6
CONTINUOUS
 10
210.6688442888
 20
115.8293019465
  0
SEQEND
  0
POLYLINE
  8
0
 62
7
  6
CONTINUOUS
 66
1
 70
0
  0
VERTEX
  8
0
 62
7
  6
CONTINUOUS
 10
221.430128559
 20
117.8272963392
  0
VERTEX
  8
0
 62
7
  6
CONTINUOUS
 10
221.5008655501
 20
117.8249403298
  0
VERTEX
  8
0
 62
7
  6
CONTINUOUS
 10
221.6313592565
 20
117.8119985641
  0
VERTEX
  8
0
 62
7
  6
CONTINUOUS
 10
221.7607924139
 20
117.7905187891
  0
VERTEX
  8
0
 62
7
  6
CONTINUOUS
 10
221.8886032731
 20
117.7605804872
  0
VERTEX
  8
0
 62
7
  6
CONTINUOUS
 10
222.0142394936
 20
117.7222993349
  0
VERTEX
  8
0
 62
7
  6
CONTINUOUS
 10
222.1371310026
 20
117.6758377348
  0
VERTEX
  8
0
 62
7
  6
CONTINUOUS
 10
222.2567303209
 20
117.6213956302
  0
VERTEX
  8
0
 62
7
  6
CONTINUOUS
 10
222.3725178783
 20
117.5592042126
  0
VERTEX
  8
0
 62
7
  6
CONTINUOUS
 10
222.4839911547
 20
117.4895281188
  0
VERTEX
  8
0
 62
7
  6
CONTINUOUS
 10
222.5906567154
 20
117.4126717208
  0
VERTEX
  8
0
 62
7
  6
CONTINUOUS
 10
222.6920487281
 20
117.3289684639
  0
VERTEX
  8
0
 62
7
  6
CONTINUOUS
 10
222.7877288303
 20
117.2387784009
  0
VERTEX
  8
0
 62
7
  6
CONTINUOUS
 10
222.8772813624
 20
117.1424914675
  0
VERTEX
  8
0
 62
7
  6
CONTINUOUS
 10
222.9603157449
 20
117.0405264227
  0
VERTEX
  8
0
 62
7
  6
CONTINUOUS
 10
223.0364714527
 20
116.9333256547
  0
VERTEX
  8
0
 62
7
  6
CONTINUOUS
 10
223.1054172909
 20
116.8213559804
  0
VERTEX
  8
0
 62
7
  6
CONTINUOUS
 10
223.166852456
 20
116.705108649
  0
VERTEX
  8
0
 62
7
  6
CONTINUOUS
 10
223.2205132327
 20
116.5850872316
  0
VERTEX
  8
0
 62
7
  6
CONTINUOUS
 10
223.2661690303
 20
116.461813009
  0
VERTEX
  8
0
 62
7
  6
CONTINUOUS
 10
223.3036222471
 20
116.3358291173
  0
VERTEX
  8
0
 62
7
  6
CONTINUOUS
 10
223.3327123203
 20
116.2076956042
  0
VERTEX
  8
0
 62
7
  6
CONTINUOUS
 10
223.3533206826
 20
116.077965972
  0
VERTEX
  8
0
 62
7
  6
CONTINUOUS
 10
223.3653648422
 20
115.9472035979
  0
VERTEX
  8
0
 62
7
  6
CONTINUOUS
 10
223.3688442888
 20
115.8293019465
  0
SEQEND
  0
POLYLINE
  8
0
 62
7
  6
CONTINUOUS
 66
1
 70
0
  0
VERTEX
  8
0
 62
7
  6
CONTINUOUS
 10
234.1301285402
 20
117.8272963398
  0
VERTEX
  8
0
 62
7
  6
CONTINUOUS
 10
234.2008655508
 20
117.8249403298
  0
VERTEX
  8
0
 62
7
  6
CONTINUOUS
 10
234.3313592577
 20
117.8119985639
  0
VERTEX
  8
0
 62
7
  6
CONTINUOUS
 10
234.4607924153
 20
117.7905187888
  0
VERTEX
  8
0
 62
7
  6
CONTINUOUS
 10
234.5886032747
 20
117.7605804868
  0
VERTEX
  8
0
 62
7
  6
CONTINUOUS
 10
234.7142394951
 20
117.7222993344
  0
VERTEX
  8
0
 62
7
  6
CONTINUOUS
 10
234.8371310039
 20
117.6758377342
  0
VERTEX
  8
0
 62
7
  6
CONTINUOUS
 10
234.9567303221
 20
117.6213956296
  0
VERTEX
  8
0
 62
7
  6
CONTINUOUS
 10
235.0725178794
 20
117.559204212
  0
VERTEX
  8
0
 62
7
  6
CONTINUOUS
 10
235.1839911556
 20
117.4895281182
  0
VERTEX
  8
0
 62
7
  6
CONTINUOUS
 10
235.2906567162
 20
117.4126717201
  0
VERTEX
  8
0
 62
7
  6
CONTINUOUS
 10
235.3920487289
 20
117.3289684633
  0
VERTEX
  8
0
 62
7
  6
CONTINUOUS
 10
235.4877288309
 20
117.2387784002
  0
VERTEX
  8
0
 62
7
  6
CONTINUOUS
 10
235.577281363
 20
117.1424914668
  0
VERTEX
  8
0
 62
7
  6
CONTINUOUS
 10
235.6603157454
 20
117.040526422
  0
VERTEX
  8
0
 62
7
  6
CONTINUOUS
 10
235.7364714531
 20
116.9333256541
  0
VERTEX
  8
0
 62
7
  6
CONTINUOUS
 10
235.8054172912
 20
116.8213559798
  0
VERTEX
  8
0
 62
7
  6
CONTINUOUS
 10
235.8668524562
 20
116.7051086485
  0
VERTEX
  8
0
 62
7
  6
CONTINUOUS
 10
235.9205132329
 20
116.5850872311
  0
VERTEX
  8
0
 62
7
  6
CONTINUOUS
 10
235.9661690304
 20
116.4618130087
  0
VERTEX
  8
0
 62
7
  6
CONTINUOUS
 10
236.0036222471
 20
116.335829117
  0
VERTEX
  8
0
 62
7
  6
CONTINUOUS
 10
236.0327123204
 20
116.2076956039
  0
VERTEX
  8
0
 62
7
  6
CONTINUOUS
 10
236.0533206826
 20
116.0779659718
  0
VERTEX
  8
0
 62
7
  6
CONTINUOUS
 10
236.0653648422
 20
115.9472035978
  0
VERTEX
  8
0
 62
7
  6
CONTINUOUS
 10
236.0688442888
 20
115.8293019465
  0
SEQEND
  0
POLYLINE
  8
0
 62
7
  6
CONTINUOUS
 66
1
 70
0
  0
VERTEX
  8
0
 62
7
  6
CONTINUOUS
 10
246.8301285465
 20
117.8272963396
  0
VERTEX
  8
0
 62
7
  6
CONTINUOUS
 10
246.9008655505
 20
117.8249403298
  0
VERTEX
  8
0
 62
7
  6
CONTINUOUS
 10
247.0313592573
 20
117.811998564
  0
VERTEX
  8
0
 62
7
  6
CONTINUOUS
 10
247.1607924148
 20
117.7905187889
  0
VERTEX
  8
0
 62
7
  6
CONTINUOUS
 10
247.2886032742
 20
117.760580487
  0
VERTEX
  8
0
 62
7
  6
CONTINUOUS
 10
247.4142394946
 20
117.7222993346
  0
VERTEX
  8
0
 62
7
  6
CONTINUOUS
 10
247.5371310035
 20
117.6758377344
  0
VERTEX
  8
0
 62
7
  6
CONTINUOUS
 10
247.6567303217
 20
117.6213956298
  0
VERTEX
  8
0
 62
7
  6
CONTINUOUS
 10
247.7725178791
 20
117.5592042122
  0
VERTEX
  8
0
 62
7
  6
CONTINUOUS
 10
247.8839911553
 20
117.4895281184
  0
VERTEX
  8
0
 62
7
  6
CONTINUOUS
 10
247.9906567159
 20
117.4126717204
  0
VERTEX
  8
0
 62
7
  6
CONTINUOUS
 10
248.0920487286
 20
117.3289684635
  0
VERTEX
  8
0
 62
7
  6
CONTINUOUS
 10
248.1877288307
 20
117.2387784005
  0
VERTEX
  8
0
 62
7
  6
CONTINUOUS
 10
248.2772813628
 20
117.1424914671
  0
VERTEX
  8
0
 62
7
  6
CONTINUOUS
 10
248.3603157452
 20
117.0405264223
  0
VERTEX
  8
0
 62
7
  6
CONTINUOUS
 10
248.436471453
 20
116.9333256543
  0
VERTEX
  8
0
 62
7
  6
CONTINUOUS
 10
248.5054172911
 20
116.82135598
  0
VERTEX
  8
0
 62
7
  6
CONTINUOUS
 10
248.5668524561
 20
116.7051086487
  0
VERTEX
  8
0
 62
7
  6
CONTINUOUS
 10
248.6205132329
 20
116.5850872313
  0
VERTEX
  8
0
 62
7
  6
CONTINUOUS
 10
248.6661690304
 20
116.4618130088
  0
VERTEX
  8
0
 62
7
  6
CONTINUOUS
 10
248.7036222471
 20
116.3358291171
  0
VERTEX
  8
0
 62
7
  6
CONTINUOUS
 10
248.7327123204
 20
116.207695604
  0
VERTEX
  8
0
 62
7
  6
CONTINUOUS
 10
248.7533206826
 20
116.0779659719
  0
VERTEX
  8
0
 62
7
  6
CONTINUOUS
 10
248.7653648422
 20
115.9472035978
  0
VERTEX
  8
0
 62
7
  6
CONTINUOUS
 10
248.7688442888
 20
115.8293019465
  0
SEQEND
  0
LINE
  8
0
 62
7
  6
CONTINUOUS
 10
184.6583970394
 20
102.6818891377
 11
184.6657471666
 21
102.6740617882
  0
LINE
  8
0
 62
7
  6
CONTINUOUS
 10
197.3583970394
 20
102.6818891377
 11
197.3657471666
 21
102.6740617882
  0
LINE
  8
0
 62
7
  6
CONTINUOUS
 10
184.6545045606
 20
102.6860771141
 11
184.6583970394
 21
102.6818891377
  0
LINE
  8
0
 62
7
  6
CONTINUOUS
 10
197.3545045606
 20
102.6860771141
 11
197.3583970394
 21
102.6818891377
  0
LINE
  8
0
 62
7
  6
CONTINUOUS
 10
184.65165669
 20
102.6891697229
 11
184.6545045606
 21
102.6860771141
  0
LINE
  8
0
 62
7
  6
CONTINUOUS
 10
197.35165669
 20
102.6891697229
 11
197.354822759
 21
102.6857344528
  0
LINE
  8
0
 62
7
  6
CONTINUOUS
 10
197.3495802618
 20
102.691443051
 11
197.3519891967
 21
102.6888064228
  0
LINE
  8
0
 62
7
  6
CONTINUOUS
 10
184.6493073114
 20
102.6917433111
 11
184.65165669
 21
102.6891697229
  0
LINE
  8
0
 62
7
  6
CONTINUOUS
 10
184.6475618578
 20
102.6936723102
 11
184.6493073114
 21
102.6917433111
  0
LINE
  8
0
 62
7
  6
CONTINUOUS
 10
197.3475618578
 20
102.6936723102
 11
197.3495802618
 21
102.691443051
  0
LINE
  8
0
 62
7
  6
CONTINUOUS
 10
184.6462333896
 20
102.6951518107
 11
184.6474353868
 21
102.6938125285
  0
LINE
  8
0
 62
7
  6
CONTINUOUS
 10
197.3462333896
 20
102.6951518107
 11
197.3476742917
 21
102.6935473368
  0
LINE
  8
0
 62
7
  6
CONTINUOUS
 10
177.8143656638
 20
106.4812065899
 11
177.0837730387
 21
109.4035770903
  0
LINE
  8
0
 62
7
  6
CONTINUOUS
 10
178.9039155389
 20
127.6230070897
 11
178.1733229138
 21
130.5453775901
  0
LINE
  8
0
 62
7
  6
CONTINUOUS
 10
183.4188442888
 20
127.5017392772
 11
183.4188442888
 21
123.31329209
  0
LINE
  8
0
 62
7
  6
CONTINUOUS
 10
184.1688442888
 20
134.81329209
 11
184.1688442888
 21
130.5817579338
  0
LINE
  8
0
 62
7
  6
CONTINUOUS
 10
184.5188442888
 20
103.0285601582
 11
184.5188442888
 21
106.4448262461
  0
LINE
  8
0
 62
7
  6
CONTINUOUS
 10
185.2688442888
 20
115.8293025785
 11
185.2688442888
 21
109.5248449028
  0
LINE
  8
0
 62
7
  6
CONTINUOUS
 10
189.7688442888
 20
115.8293025785
 11
189.7688442888
 21
109.5248449028
  0
LINE
  8
0
 62
7
  6
CONTINUOUS
 10
190.5188442888
 20
106.4448262461
 11
190.5188442888
 21
103.0285601582
  0
LINE
  8
0
 62
7
  6
CONTINUOUS
 10
190.8688442888
 20
130.5817579338
 11
190.8688442888
 21
134.81329209
  0
LINE
  8
0
 62
7
  6
CONTINUOUS
 10
191.6188442888
 20
127.5017392772
 11
191.6188442888
 21
123.31329209
  0
POLYLINE
  8
0
 62
7
  6
CONTINUOUS
 66
1
 70
0
  0
VERTEX
  8
0
 62
7
  6
CONTINUOUS
 10
189.7688442888
 20
115.8293018986
  0
VERTEX
  8
0
 62
7
  6
CONTINUOUS
 10
189.772256772
 20
115.9460645168
  0
VERTEX
  8
0
 62
7
  6
CONTINUOUS
 10
189.7842335015
 20
116.076891385
  0
VERTEX
  8
0
 62
7
  6
CONTINUOUS
 10
189.8047825917
 20
116.2066893256
  0
VERTEX
  8
0
 62
7
  6
CONTINUOUS
 10
189.8338217557
 20
116.3348941718
  0
VERTEX
  8
0
 62
7
  6
CONTINUOUS
 10
189.8712325499
 20
116.4609515876
  0
VERTEX
  8
0
 62
7
  6
CONTINUOUS
 10
189.9168544591
 20
116.5843006742
  0
VERTEX
  8
0
 62
7
  6
CONTINUOUS
 10
189.9704898646
 20
116.7043974913
  0
VERTEX
  8
0
 62
7
  6
CONTINUOUS
 10
190.031908098
 20
116.8207199859
  0
VERTEX
  8
0
 62
7
  6
CONTINUOUS
 10
190.1008452767
 20
116.9327637854
  0
VERTEX
  8
0
 62
7
  6
CONTINUOUS
 10
190.1770003632
 20
117.0400368649
  0
VERTEX
  8
0
 62
7
  6
CONTINUOUS
 10
190.2600418718
 20
117.1420716772
  0
VERTEX
  8
0
 62
7
  6
CONTINUOUS
 10
190.3496089309
 20
117.238425141
  0
VERTEX
  8
0
 62
7
  6
CONTINUOUS
 10
190.4453105392
 20
117.3286778226
  0
VERTEX
  8
0
 62
7
  6
CONTINUOUS
 10
190.5467306119
 20
117.4124391986
  0
VERTEX
  8
0
 62
7
  6
CONTINUOUS
 10
190.6534302627
 20
117.4893486267
  0
VERTEX
  8
0
 62
7
  6
CONTINUOUS
 10
190.7649430782
 20
117.5590721178
  0
VERTEX
  8
0
 62
7
  6
CONTINUOUS
 10
190.8807750027
 20
117.621304818
  0
VERTEX
  8
0
 62
7
  6
CONTINUOUS
 10
191.0004229268
 20
117.6757817011
  0
VERTEX
  8
0
 62
7
  6
CONTINUOUS
 10
191.1233665533
 20
117.7222711926
  0
VERTEX
  8
0
 62
7
  6
CONTINUOUS
 10
191.2490576199
 20
117.7605730358
  0
VERTEX
  8
0
 62
7
  6
CONTINUOUS
 10
191.3769252757
 20
117.7905246073
  0
VERTEX
  8
0
 62
7
  6
CONTINUOUS
 10
191.5064164936
 20
117.8120101046
  0
VERTEX
  8
0
 62
7
  6
CONTINUOUS
 10
191.6369687322
 20
117.8249499638
  0
VERTEX
  8
0
 62
7
  6
CONTINUOUS
 10
191.7104636178
 20
117.8273913932
  0
SEQEND
  0
LINE
  8
0
 62
7
  6
CONTINUOUS
 10
185.2539155389
 20
109.4035770903
 11
184.5233229138
 21
106.4812065899
  0
LINE
  8
0
 62
7
  6
CONTINUOUS
 10
177.6897569883
 20
102.6932620837
 11
177.6915778028
 21
102.6952889182
  0
LINE
  8
0
 62
7
  6
CONTINUOUS
 10
177.687571693
 20
102.6908531272
 11
177.6897569883
 21
102.6932620837
  0
LINE
  8
0
 62
7
  6
CONTINUOUS
 10
177.6850067665
 20
102.68805276
 11
177.687571693
 21
102.6908531272
  0
LINE
  8
0
 62
7
  6
CONTINUOUS
 10
177.681545372
 20
102.684309451
 11
177.6850067665
 21
102.68805276
  0
LINE
  8
0
 62
7
  6
CONTINUOUS
 10
177.6767088014
 20
102.6791286461
 11
177.681545372
 21
102.684309451
  0
LINE
  8
0
 62
7
  6
CONTINUOUS
 10
177.6719379282
 20
102.674058098
 11
177.6767088014
 21
102.6791286461
  0
LINE
  8
0
 62
7
  6
CONTINUOUS
 10
328.4729010772
 20
136.0019736924
 11
328.3000169559
 21
135.9887175546
  0
POLYLINE
  8
SURFACE
 62
7
  6
CONTINUOUS
 66
1
 70
0
  0
VERTEX
  8
SURFACE
 62
7
  6
CONTINUOUS
 10
42.4188442888
 20
125.1893269494
  0
VERTEX
  8
SURFACE
 62
7
  6
CONTINUOUS
 10
42.5490078251
 20
125.193505303
  0
VERTEX
  8
SURFACE
 62
7
  6
CONTINUOUS
 10
42.67894795
 20
125.2060655622
  0
VERTEX
  8
SURFACE
 62
7
  6
CONTINUOUS
 10
42.8078264728
 20
125.2269648307
  0
VERTEX
  8
SURFACE
 62
7
  6
CONTINUOUS
 10
42.9348521098
 20
125.2560622306
  0
VERTEX
  8
SURFACE
 62
7
  6
CONTINUOUS
 10
43.0597708054
 20
125.2932920562
  0
VERTEX
  8
SURFACE
 62
7
  6
CONTINUOUS
 10
43.1823035653
 20
125.3386219269
  0
VERTEX
  8
SURFACE
 62
7
  6
CONTINUOUS
 10
43.3016353054
 20
125.3918013457
  0
VERTEX
  8
SURFACE
 62
7
  6
CONTINUOUS
 10
43.4170174676
 20
125.4524901251
  0
VERTEX
  8
SURFACE
 62
7
  6
CONTINUOUS
 10
43.5282072719
 20
125.5205556219
  0
VERTEX
  8
SURFACE
 62
7
  6
CONTINUOUS
 10
43.6349443055
 20
125.5958977636
  0
VERTEX
  8
SURFACE
 62
7
  6
CONTINUOUS
 10
43.7364931706
 20
125.6780564065
  0
VERTEX
  8
SURFACE
 62
7
  6
CONTINUOUS
 10
43.8321939889
 20
125.7664824549
  0
VERTEX
  8
SURFACE
 62
7
  6
CONTINUOUS
 10
43.9218373594
 20
125.860959716
  0
VERTEX
  8
SURFACE
 62
7
  6
CONTINUOUS
 10
44.0052063518
 20
125.9613110456
  0
VERTEX
  8
SURFACE
 62
7
  6
CONTINUOUS
 10
44.0817287268
 20
126.0668989878
  0
VERTEX
  8
SURFACE
 62
7
  6
CONTINUOUS
 10
44.1509176812
 20
126.1770033734
  0
VERTEX
  8
SURFACE
 62
7
  6
CONTINUOUS
 10
44.2126435869
 20
126.2913523372
  0
VERTEX
  8
SURFACE
 62
7
  6
CONTINUOUS
 10
44.2667652952
 20
126.4097231184
  0
VERTEX
  8
SURFACE
 62
7
  6
CONTINUOUS
 10
44.3129229358
 20
126.5313766689
  0
VERTEX
  8
SURFACE
 62
7
  6
CONTINUOUS
 10
44.3508472692
 20
126.6554983525
  0
VERTEX
  8
SURFACE
 62
7
  6
CONTINUOUS
 10
44.3804918513
 20
126.7817901406
  0
VERTEX
  8
SURFACE
 62
7
  6
CONTINUOUS
 10
44.4017870148
 20
126.9100040144
  0
VERTEX
  8
SURFACE
 62
7
  6
CONTINUOUS
 10
44.4145863702
 20
127.039353548
  0
VERTEX
  8
SURFACE
 62
7
  6
CONTINUOUS
 10
44.4188442888
 20
127.1689982788
  0
SEQEND
  0
POLYLINE
  8
SURFACE
 62
7
  6
CONTINUOUS
 66
1
 70
0
  0
VERTEX
  8
SURFACE
 62
7
  6
CONTINUOUS
 10
36.7943956403
 20
125.1893269494
  0
VERTEX
  8
SURFACE
 62
7
  6
CONTINUOUS
 10
36.772231123
 20
125.1892195076
  0
VERTEX
  8
SURFACE
 62
7
  6
CONTINUOUS
 10
36.7503117903
 20
125.1888974367
  0
VERTEX
  8
SURFACE
 62
7
  6
CONTINUOUS
 10
36.7290452736
 20
125.1883672131
  0
VERTEX
  8
SURFACE
 62
7
  6
CONTINUOUS
 10
36.70861974
 20
125.187635132
  0
VERTEX
  8
SURFACE
 62
7
  6
CONTINUOUS
 10
36.689178094
 20
125.1867049686
  0
VERTEX
  8
SURFACE
 62
7
  6
CONTINUOUS
 10
36.6710361878
 20
125.1855896595
  0
VERTEX
  8
SURFACE
 62
7
  6
CONTINUOUS
 10
36.6545171569
 20
125.1843104844
  0
VERTEX
  8
SURFACE
 62
7
  6
CONTINUOUS
 10
36.63975306
 20
125.182880378
  0
VERTEX
  8
SURFACE
 62
7
  6
CONTINUOUS
 10
36.6268189002
 20
125.1813041162
  0
VERTEX
  8
SURFACE
 62
7
  6
CONTINUOUS
 10
36.615964353
 20
125.1796076245
  0
VERTEX
  8
SURFACE
 62
7
  6
CONTINUOUS
 10
36.6073721866
 20
125.1778210136
  0
VERTEX
  8
SURFACE
 62
7
  6
CONTINUOUS
 10
36.6011113776
 20
125.1759631876
  0
VERTEX
  8
SURFACE
 62
7
  6
CONTINUOUS
 10
36.5972288244
 20
125.174044184
  0
VERTEX
  8
SURFACE
 62
7
  6
CONTINUOUS
 10
36.5958104825
 20
125.1720991972
  0
SEQEND
  0
LINE
  8
0
 62
7
  6
CONTINUOUS
 10
325.5432929373
 20
125.1893269494
 11
319.9188442888
 21
125.1893269494
  0
LINE
  8
SURFACE
 62
7
  6
CONTINUOUS
 10
36.7943956403
 20
125.1893269494
 11
42.4188442888
 21
125.1893269494
  0
POLYLINE
  8
0
 62
7
  6
CONTINUOUS
 66
1
 70
0
  0
VERTEX
  8
0
 62
7
  6
CONTINUOUS
 10
325.5432929373
 20
125.1893269494
  0
VERTEX
  8
0
 62
7
  6
CONTINUOUS
 10
325.5654574546
 20
125.1892195076
  0
VERTEX
  8
0
 62
7
  6
CONTINUOUS
 10
325.5873767872
 20
125.1888974367
  0
VERTEX
  8
0
 62
7
  6
CONTINUOUS
 10
325.608643304
 20
125.1883672131
  0
VERTEX
  8
0
 62
7
  6
CONTINUOUS
 10
325.6290688376
 20
125.187635132
  0
VERTEX
  8
0
 62
7
  6
CONTINUOUS
 10
325.6485104836
 20
125.1867049686
  0
VERTEX
  8
0
 62
7
  6
CONTINUOUS
 10
325.6666523898
 20
125.1855896595
  0
VERTEX
  8
0
 62
7
  6
CONTINUOUS
 10
325.6831714207
 20
125.1843104844
  0
VERTEX
  8
0
 62
7
  6
CONTINUOUS
 10
325.6979355176
 20
125.182880378
  0
VERTEX
  8
0
 62
7
  6
CONTINUOUS
 10
325.7108696774
 20
125.1813041162
  0
VERTEX
  8
0
 62
7
  6
CONTINUOUS
 10
325.7217242246
 20
125.1796076245
  0
VERTEX
  8
0
 62
7
  6
CONTINUOUS
 10
325.7303163909
 20
125.1778210136
  0
VERTEX
  8
0
 62
7
  6
CONTINUOUS
 10
325.7365772
 20
125.1759631876
  0
VERTEX
  8
0
 62
7
  6
CONTINUOUS
 10
325.7404597532
 20
125.174044184
  0
VERTEX
  8
0
 62
7
  6
CONTINUOUS
 10
325.7418780951
 20
125.1720991972
  0
SEQEND
  0
POLYLINE
  8
0
 62
7
  6
CONTINUOUS
 66
1
 70
0
  0
VERTEX
  8
0
 62
7
  6
CONTINUOUS
 10
319.9188442888
 20
125.1893269494
  0
VERTEX
  8
0
 62
7
  6
CONTINUOUS
 10
319.7886807525
 20
125.193505303
  0
VERTEX
  8
0
 62
7
  6
CONTINUOUS
 10
319.6587406276
 20
125.2060655622
  0
VERTEX
  8
0
 62
7
  6
CONTINUOUS
 10
319.5298621048
 20
125.2269648307
  0
VERTEX
  8
0
 62
7
  6
CONTINUOUS
 10
319.4028364677
 20
125.2560622306
  0
VERTEX
  8
0
 62
7
  6
CONTINUOUS
 10
319.2779177722
 20
125.2932920562
  0
VERTEX
  8
0
 62
7
  6
CONTINUOUS
 10
319.1553850123
 20
125.3386219269
  0
VERTEX
  8
0
 62
7
  6
CONTINUOUS
 10
319.0360532722
 20
125.3918013457
  0
VERTEX
  8
0
 62
7
  6
CONTINUOUS
 10
318.9206711099
 20
125.4524901251
  0
VERTEX
  8
0
 62
7
  6
CONTINUOUS
 10
318.8094813057
 20
125.5205556219
  0
VERTEX
  8
0
 62
7
  6
CONTINUOUS
 10
318.7027442721
 20
125.5958977636
  0
VERTEX
  8
0
 62
7
  6
CONTINUOUS
 10
318.6011954069
 20
125.6780564065
  0
VERTEX
  8
0
 62
7
  6
CONTINUOUS
 10
318.5054945887
 20
125.7664824549
  0
VERTEX
  8
0
 62
7
  6
CONTINUOUS
 10
318.4158512182
 20
125.860959716
  0
VERTEX
  8
0
 62
7
  6
CONTINUOUS
 10
318.3324822258
 20
125.9613110456
  0
VERTEX
  8
0
 62
7
  6
CONTINUOUS
 10
318.2559598508
 20
126.0668989878
  0
VERTEX
  8
0
 62
7
  6
CONTINUOUS
 10
318.1867708963
 20
126.1770033734
  0
VERTEX
  8
0
 62
7
  6
CONTINUOUS
 10
318.1250449906
 20
126.2913523372
  0
VERTEX
  8
0
 62
7
  6
CONTINUOUS
 10
318.0709232824
 20
126.4097231184
  0
VERTEX
  8
0
 62
7
  6
CONTINUOUS
 10
318.0247656417
 20
126.5313766689
  0
VERTEX
  8
0
 62
7
  6
CONTINUOUS
 10
317.9868413084
 20
126.6554983525
  0
VERTEX
  8
0
 62
7
  6
CONTINUOUS
 10
317.9571967263
 20
126.7817901406
  0
VERTEX
  8
0
 62
7
  6
CONTINUOUS
 10
317.9359015627
 20
126.9100040144
  0
VERTEX
  8
0
 62
7
  6
CONTINUOUS
 10
317.9231022074
 20
127.039353548
  0
VERTEX
  8
0
 62
7
  6
CONTINUOUS
 10
317.9188442888
 20
127.1689982788
  0
SEQEND
  0
POLYLINE
  8
0
 62
7
  6
CONTINUOUS
 66
1
 70
0
  0
VERTEX
  8
0
 62
7
  6
CONTINUOUS
 10
259.5301284869
 20
117.8272963416
  0
VERTEX
  8
0
 62
7
  6
CONTINUOUS
 10
259.6008655528
 20
117.8249403296
  0
VERTEX
  8
0
 62
7
  6
CONTINUOUS
 10
259.731359261
 20
117.8119985635
  0
VERTEX
  8
0
 62
7
  6
CONTINUOUS
 10
259.8607924193
 20
117.790518788
  0
VERTEX
  8
0
 62
7
  6
CONTINUOUS
 10
259.988603279
 20
117.7605804857
  0
VERTEX
  8
0
 62
7
  6
CONTINUOUS
 10
260.1142394993
 20
117.722299333
  0
VERTEX
  8
0
 62
7
  6
CONTINUOUS
 10
260.2371310079
 20
117.6758377325
  0
VERTEX
  8
0
 62
7
  6
CONTINUOUS
 10
260.3567303256
 20
117.6213956279
  0
VERTEX
  8
0
 62
7
  6
CONTINUOUS
 10
260.4725178825
 20
117.5592042102
  0
VERTEX
  8
0
 62
7
  6
CONTINUOUS
 10
260.5839911583
 20
117.4895281164
  0
VERTEX
  8
0
 62
7
  6
CONTINUOUS
 10
260.6906567186
 20
117.4126717183
  0
VERTEX
  8
0
 62
7
  6
CONTINUOUS
 10
260.792048731
 20
117.3289684614
  0
VERTEX
  8
0
 62
7
  6
CONTINUOUS
 10
260.8877288328
 20
117.2387783984
  0
VERTEX
  8
0
 62
7
  6
CONTINUOUS
 10
260.9772813646
 20
117.142491465
  0
VERTEX
  8
0
 62
7
  6
CONTINUOUS
 10
261.0603157467
 20
117.0405264203
  0
VERTEX
  8
0
 62
7
  6
CONTINUOUS
 10
261.1364714542
 20
116.9333256525
  0
VERTEX
  8
0
 62
7
  6
CONTINUOUS
 10
261.2054172921
 20
116.8213559783
  0
VERTEX
  8
0
 62
7
  6
CONTINUOUS
 10
261.2668524569
 20
116.7051086471
  0
VERTEX
  8
0
 62
7
  6
CONTINUOUS
 10
261.3205132334
 20
116.5850872299
  0
VERTEX
  8
0
 62
7
  6
CONTINUOUS
 10
261.3661690307
 20
116.4618130076
  0
VERTEX
  8
0
 62
7
  6
CONTINUOUS
 10
261.4036222474
 20
116.3358291161
  0
VERTEX
  8
0
 62
7
  6
CONTINUOUS
 10
261.4327123205
 20
116.2076956033
  0
VERTEX
  8
0
 62
7
  6
CONTINUOUS
 10
261.4533206827
 20
116.0779659714
  0
VERTEX
  8
0
 62
7
  6
CONTINUOUS
 10
261.4653648422
 20
115.9472035976
  0
VERTEX
  8
0
 62
7
  6
CONTINUOUS
 10
261.4688442888
 20
115.8293019465
  0
SEQEND
  0
LINE
  8
0
 62
7
  6
CONTINUOUS
 10
34.03765353
 20
135.9887194733
 11
33.8647881459
 21
136.0019736678
  0
LINE
  8
0
 62
7
  6
CONTINUOUS
 10
210.0583970394
 20
102.6818891377
 11
210.0657471666
 21
102.6740617882
  0
LINE
  8
0
 62
7
  6
CONTINUOUS
 10
210.0545045606
 20
102.6860771141
 11
210.0583970394
 21
102.6818891377
  0
LINE
  8
0
 62
7
  6
CONTINUOUS
 10
210.05165669
 20
102.6891697229
 11
210.054822759
 21
102.6857344528
  0
LINE
  8
0
 62
7
  6
CONTINUOUS
 10
210.0495802618
 20
102.691443051
 11
210.0519891967
 21
102.6888064228
  0
LINE
  8
0
 62
7
  6
CONTINUOUS
 10
210.0475618578
 20
102.6936723102
 11
210.0495802618
 21
102.691443051
  0
LINE
  8
0
 62
7
  6
CONTINUOUS
 10
210.0462333895
 20
102.6951518107
 11
210.0476742917
 21
102.6935473368
  0
LINE
  8
0
 62
7
  6
CONTINUOUS
 10
190.5143656638
 20
106.4812065899
 11
189.7837730387
 21
109.4035770903
  0
LINE
  8
0
 62
7
  6
CONTINUOUS
 10
196.1188442888
 20
127.5017392772
 11
196.1188442888
 21
123.31329209
  0
LINE
  8
0
 62
7
  6
CONTINUOUS
 10
196.8688442888
 20
134.81329209
 11
196.8688442888
 21
130.5817579338
  0
LINE
  8
0
 62
7
  6
CONTINUOUS
 10
197.2188442888
 20
103.0285601582
 11
197.2188442888
 21
106.4448262461
  0
LINE
  8
0
 62
7
  6
CONTINUOUS
 10
197.9688442888
 20
115.8293025785
 11
197.9688442888
 21
109.5248449028
  0
LINE
  8
0
 62
7
  6
CONTINUOUS
 10
202.4688442888
 20
115.8293025785
 11
202.4688442888
 21
109.5248449028
  0
POLYLINE
  8
0
 62
7
  6
CONTINUOUS
 66
1
 70
0
  0
VERTEX
  8
0
 62
7
  6
CONTINUOUS
 10
202.4688442888
 20
115.8293018986
  0
VERTEX
  8
0
 62
7
  6
CONTINUOUS
 10
202.472256772
 20
115.9460645168
  0
VERTEX
  8
0
 62
7
  6
CONTINUOUS
 10
202.4842335015
 20
116.076891385
  0
VERTEX
  8
0
 62
7
  6
CONTINUOUS
 10
202.5047825916
 20
116.2066893255
  0
VERTEX
  8
0
 62
7
  6
CONTINUOUS
 10
202.5338217557
 20
116.3348941717
  0
VERTEX
  8
0
 62
7
  6
CONTINUOUS
 10
202.5712325498
 20
116.4609515875
  0
VERTEX
  8
0
 62
7
  6
CONTINUOUS
 10
202.616854459
 20
116.584300674
  0
VERTEX
  8
0
 62
7
  6
CONTINUOUS
 10
202.6704898645
 20
116.7043974911
  0
VERTEX
  8
0
 62
7
  6
CONTINUOUS
 10
202.7319080979
 20
116.8207199857
  0
VERTEX
  8
0
 62
7
  6
CONTINUOUS
 10
202.8008452766
 20
116.9327637852
  0
VERTEX
  8
0
 62
7
  6
CONTINUOUS
 10
202.8770003631
 20
117.0400368647
  0
VERTEX
  8
0
 62
7
  6
CONTINUOUS
 10
202.9600418716
 20
117.1420716769
  0
VERTEX
  8
0
 62
7
  6
CONTINUOUS
 10
203.0496089307
 20
117.2384251407
  0
VERTEX
  8
0
 62
7
  6
CONTINUOUS
 10
203.1453105389
 20
117.3286778223
  0
VERTEX
  8
0
 62
7
  6
CONTINUOUS
 10
203.2467306116
 20
117.4124391984
  0
VERTEX
  8
0
 62
7
  6
CONTINUOUS
 10
203.3534302623
 20
117.4893486264
  0
VERTEX
  8
0
 62
7
  6
CONTINUOUS
 10
203.4649430778
 20
117.5590721176
  0
VERTEX
  8
0
 62
7
  6
CONTINUOUS
 10
203.5807750022
 20
117.6213048178
  0
VERTEX
  8
0
 62
7
  6
CONTINUOUS
 10
203.7004229263
 20
117.6757817009
  0
VERTEX
  8
0
 62
7
  6
CONTINUOUS
 10
203.8233665527
 20
117.7222711924
  0
VERTEX
  8
0
 62
7
  6
CONTINUOUS
 10
203.9490576193
 20
117.7605730356
  0
VERTEX
  8
0
 62
7
  6
CONTINUOUS
 10
204.0769252752
 20
117.7905246072
  0
VERTEX
  8
0
 62
7
  6
CONTINUOUS
 10
204.2064164932
 20
117.8120101046
  0
VERTEX
  8
0
 62
7
  6
CONTINUOUS
 10
204.3369687319
 20
117.8249499638
  0
VERTEX
  8
0
 62
7
  6
CONTINUOUS
 10
204.4104636258
 20
117.8273913935
  0
SEQEND
  0
LINE
  8
0
 62
7
  6
CONTINUOUS
 10
196.8643656638
 20
130.5453775901
 11
196.1337730387
 21
127.6230070897
  0
LINE
  8
0
 62
7
  6
CONTINUOUS
 10
197.9539155389
 20
109.4035770903
 11
197.2233229138
 21
106.4812065899
  0
LINE
  8
0
 62
7
  6
CONTINUOUS
 10
190.3878763018
 20
102.6911875245
 11
190.3916053602
 21
102.6953197455
  0
LINE
  8
0
 62
7
  6
CONTINUOUS
 10
190.3853626603
 20
102.6884398056
 11
190.3878763018
 21
102.6911875245
  0
LINE
  8
0
 62
7
  6
CONTINUOUS
 10
190.382069564
 20
102.684875343
 11
190.3853626603
 21
102.6884398056
  0
LINE
  8
0
 62
7
  6
CONTINUOUS
 10
190.3845159306
 20
102.6875553923
 11
190.3846575125
 21
102.6877072789
  0
LINE
  8
0
 62
7
  6
CONTINUOUS
 10
190.3774444274
 20
102.6799149055
 11
190.382069564
 21
102.684875343
  0
LINE
  8
0
 62
7
  6
CONTINUOUS
 10
190.3721366956
 20
102.6742697745
 11
190.3777891725
 21
102.680281848
  0
LINE
  8
0
 62
7
  6
CONTINUOUS
 10
328.6610738316
 20
136.0020643578
 11
328.4729010772
 21
136.0019736924
  0
LINE
  8
DEFAULT_1
 62
2
  6
CENTER
 10
28.5686514711
 20
131.21329209
 11
333.7690372228
 21
131.21329209
  0
LINE
  8
SURFACE
 62
7
  6
CONTINUOUS
 10
42.4188442888
 20
133.5372572305
 11
36.7943956408
 21
133.5372572305
  0
LINE
  8
0
 62
7
  6
CONTINUOUS
 10
319.9188442888
 20
133.5372572305
 11
325.5432929368
 21
133.5372572305
  0
LINE
  8
0
 62
7
  6
CONTINUOUS
 10
314.8188442888
 20
135.56329209
 11
310.3188442888
 21
135.56329209
  0
LINE
  8
0
 62
7
  6
CONTINUOUS
 10
299.8188442888
 20
135.56329209
 11
295.3188442888
 21
135.56329209
  0
LINE
  8
0
 62
7
  6
CONTINUOUS
 10
285.8188442888
 20
135.56329209
 11
281.3188442888
 21
135.56329209
  0
LINE
  8
0
 62
7
  6
CONTINUOUS
 10
272.3188442888
 20
135.56329209
 11
267.8188442888
 21
135.56329209
  0
LINE
  8
0
 62
7
  6
CONTINUOUS
 10
81.0188442888
 20
135.56329209
 11
76.5188442888
 21
135.56329209
  0
LINE
  8
0
 62
7
  6
CONTINUOUS
 10
67.0188442888
 20
135.56329209
 11
62.5188442888
 21
135.56329209
  0
LINE
  8
0
 62
7
  6
CONTINUOUS
 10
52.0188442888
 20
135.56329209
 11
47.5188442888
 21
135.56329209
  0
LINE
  8
0
 62
7
  6
CONTINUOUS
 10
90.0188442888
 20
135.56329209
 11
94.5188442888
 21
135.56329209
  0
LINE
  8
0
 62
7
  6
CONTINUOUS
 10
102.7188442888
 20
135.56329209
 11
107.2188442888
 21
135.56329209
  0
LINE
  8
0
 62
7
  6
CONTINUOUS
 10
115.4188442888
 20
135.56329209
 11
119.9188442888
 21
135.56329209
  0
LINE
  8
0
 62
7
  6
CONTINUOUS
 10
128.1188442888
 20
135.56329209
 11
132.6188442888
 21
135.56329209
  0
LINE
  8
0
 62
7
  6
CONTINUOUS
 10
140.8188442888
 20
135.56329209
 11
145.3188442888
 21
135.56329209
  0
LINE
  8
0
 62
7
  6
CONTINUOUS
 10
153.5188442888
 20
135.56329209
 11
158.0188442888
 21
135.56329209
  0
LINE
  8
0
 62
7
  6
CONTINUOUS
 10
166.2188442888
 20
135.56329209
 11
170.7188442888
 21
135.56329209
  0
LINE
  8
0
 62
7
  6
CONTINUOUS
 10
178.9188442888
 20
135.56329209
 11
183.4188442888
 21
135.56329209
  0
LINE
  8
0
 62
7
  6
CONTINUOUS
 10
191.6188442888
 20
135.56329209
 11
196.1188442888
 21
135.56329209
  0
LINE
  8
0
 62
7
  6
CONTINUOUS
 10
204.3188442888
 20
135.56329209
 11
208.8188442888
 21
135.56329209
  0
LINE
  8
0
 62
7
  6
CONTINUOUS
 10
217.0188442888
 20
135.56329209
 11
221.5188442888
 21
135.56329209
  0
LINE
  8
0
 62
7
  6
CONTINUOUS
 10
229.7188442888
 20
135.56329209
 11
234.2188442888
 21
135.56329209
  0
LINE
  8
0
 62
7
  6
CONTINUOUS
 10
242.4188442888
 20
135.56329209
 11
246.9188442888
 21
135.56329209
  0
LINE
  8
0
 62
7
  6
CONTINUOUS
 10
255.1188442888
 20
135.56329209
 11
259.6188442888
 21
135.56329209
  0
LINE
  8
0
 62
7
  6
CONTINUOUS
 10
33.8647881459
 20
136.0019736678
 11
33.6766043222
 21
136.0020639716
  0
LINE
  8
0
 62
7
  6
CONTINUOUS
 10
222.7583970394
 20
102.6818891377
 11
222.7657471666
 21
102.6740617882
  0
LINE
  8
0
 62
7
  6
CONTINUOUS
 10
222.7545045606
 20
102.6860771141
 11
222.7583970394
 21
102.6818891377
  0
LINE
  8
0
 62
7
  6
CONTINUOUS
 10
222.7516592787
 20
102.6891660457
 11
222.7545045606
 21
102.6860771141
  0
LINE
  8
0
 62
7
  6
CONTINUOUS
 10
222.7492435486
 20
102.6918130247
 11
222.7516592787
 21
102.6891660457
  0
LINE
  8
0
 62
7
  6
CONTINUOUS
 10
222.7462155872
 20
102.6951717423
 11
222.7498589235
 21
102.6911368698
  0
LINE
  8
0
 62
7
  6
CONTINUOUS
 10
222.7462333895
 20
102.6951518107
 11
222.746393102
 21
102.6949733588
  0
LINE
  8
0
 62
7
  6
CONTINUOUS
 10
190.8733229138
 20
130.5453775901
 11
191.6039155389
 21
127.6230070897
  0
LINE
  8
0
 62
7
  6
CONTINUOUS
 10
203.2143656638
 20
106.4812065899
 11
202.4837730387
 21
109.4035770903
  0
LINE
  8
0
 62
7
  6
CONTINUOUS
 10
203.2188442888
 20
106.4448262461
 11
203.2188442888
 21
103.0285601582
  0
LINE
  8
0
 62
7
  6
CONTINUOUS
 10
203.5688442888
 20
130.5817579338
 11
203.5688442888
 21
134.81329209
  0
LINE
  8
0
 62
7
  6
CONTINUOUS
 10
204.3188442888
 20
127.5017392772
 11
204.3188442888
 21
123.31329209
  0
LINE
  8
0
 62
7
  6
CONTINUOUS
 10
208.8188442888
 20
127.5017392772
 11
208.8188442888
 21
123.31329209
  0
LINE
  8
0
 62
7
  6
CONTINUOUS
 10
209.5688442888
 20
134.81329209
 11
209.5688442888
 21
130.5817579338
  0
LINE
  8
0
 62
7
  6
CONTINUOUS
 10
209.9188442888
 20
103.0285601582
 11
209.9188442888
 21
106.4448262461
  0
LINE
  8
0
 62
7
  6
CONTINUOUS
 10
210.6688442888
 20
115.8293025785
 11
210.6688442888
 21
109.5248449028
  0
LINE
  8
0
 62
7
  6
CONTINUOUS
 10
209.5643656638
 20
130.5453775901
 11
208.8337730387
 21
127.6230070897
  0
LINE
  8
0
 62
7
  6
CONTINUOUS
 10
210.6539155389
 20
109.4035770903
 11
209.9233229138
 21
106.4812065899
  0
LINE
  8
0
 62
7
  6
CONTINUOUS
 10
203.0878763018
 20
102.6911875245
 11
203.0916053602
 21
102.6953197455
  0
LINE
  8
0
 62
7
  6
CONTINUOUS
 10
203.0853811226
 20
102.688460834
 11
203.0878763018
 21
102.6911875245
  0
LINE
  8
0
 62
7
  6
CONTINUOUS
 10
203.082069564
 20
102.684875343
 11
203.0853811226
 21
102.688460834
  0
LINE
  8
0
 62
7
  6
CONTINUOUS
 10
203.0845159306
 20
102.6875553923
 11
203.0846575126
 21
102.687707279
  0
LINE
  8
0
 62
7
  6
CONTINUOUS
 10
203.0774444274
 20
102.6799149055
 11
203.082069564
 21
102.684875343
  0
LINE
  8
0
 62
7
  6
CONTINUOUS
 10
203.0721366956
 20
102.6742697745
 11
203.0777891725
 21
102.680281848
  0
LINE
  8
0
 62
7
  6
CONTINUOUS
 10
235.4583970394
 20
102.6818891377
 11
235.4657471666
 21
102.6740617882
  0
LINE
  8
0
 62
7
  6
CONTINUOUS
 10
235.4545045606
 20
102.6860771141
 11
235.4583970394
 21
102.6818891377
  0
LINE
  8
0
 62
7
  6
CONTINUOUS
 10
235.45165669
 20
102.6891697229
 11
235.454822759
 21
102.6857344528
  0
LINE
  8
0
 62
7
  6
CONTINUOUS
 10
235.4495802617
 20
102.691443051
 11
235.4519891967
 21
102.6888064228
  0
LINE
  8
0
 62
7
  6
CONTINUOUS
 10
235.4475618578
 20
102.6936723102
 11
235.4495802617
 21
102.691443051
  0
LINE
  8
0
 62
7
  6
CONTINUOUS
 10
235.4462333895
 20
102.6951518107
 11
235.4476742917
 21
102.6935473368
  0
LINE
  8
0
 62
7
  6
CONTINUOUS
 10
203.5733229138
 20
130.5453775901
 11
204.3039155389
 21
127.6230070897
  0
LINE
  8
0
 62
7
  6
CONTINUOUS
 10
215.9143656638
 20
106.4812065899
 11
215.1837730387
 21
109.4035770903
  0
LINE
  8
0
 62
7
  6
CONTINUOUS
 10
215.1688442888
 20
115.8293025785
 11
215.1688442888
 21
109.5248449028
  0
LINE
  8
0
 62
7
  6
CONTINUOUS
 10
215.9188442888
 20
106.4448262461
 11
215.9188442888
 21
103.0285601582
  0
LINE
  8
0
 62
7
  6
CONTINUOUS
 10
216.2688442888
 20
130.5817579338
 11
216.2688442888
 21
134.81329209
  0
LINE
  8
0
 62
7
  6
CONTINUOUS
 10
217.0188442888
 20
127.5017392772
 11
217.0188442888
 21
123.31329209
  0
LINE
  8
0
 62
7
  6
CONTINUOUS
 10
221.5188442888
 20
127.5017392772
 11
221.5188442888
 21
123.31329209
  0
LINE
  8
0
 62
7
  6
CONTINUOUS
 10
222.2688442888
 20
134.81329209
 11
222.2688442888
 21
130.5817579338
  0
LINE
  8
0
 62
7
  6
CONTINUOUS
 10
222.6188442888
 20
103.0285601582
 11
222.6188442888
 21
106.4448262461
  0
POLYLINE
  8
0
 62
7
  6
CONTINUOUS
 66
1
 70
0
  0
VERTEX
  8
0
 62
7
  6
CONTINUOUS
 10
215.1688442888
 20
115.8293018986
  0
VERTEX
  8
0
 62
7
  6
CONTINUOUS
 10
215.172256772
 20
115.9460645165
  0
VERTEX
  8
0
 62
7
  6
CONTINUOUS
 10
215.1842335014
 20
116.0768913843
  0
VERTEX
  8
0
 62
7
  6
CONTINUOUS
 10
215.2047825915
 20
116.2066893246
  0
VERTEX
  8
0
 62
7
  6
CONTINUOUS
 10
215.2338217553
 20
116.3348941705
  0
VERTEX
  8
0
 62
7
  6
CONTINUOUS
 10
215.2712325493
 20
116.460951586
  0
VERTEX
  8
0
 62
7
  6
CONTINUOUS
 10
215.3168544583
 20
116.5843006723
  0
VERTEX
  8
0
 62
7
  6
CONTINUOUS
 10
215.3704898636
 20
116.7043974892
  0
VERTEX
  8
0
 62
7
  6
CONTINUOUS
 10
215.4319080966
 20
116.8207199835
  0
VERTEX
  8
0
 62
7
  6
CONTINUOUS
 10
215.500845275
 20
116.9327637828
  0
VERTEX
  8
0
 62
7
  6
CONTINUOUS
 10
215.5770003612
 20
117.0400368622
  0
VERTEX
  8
0
 62
7
  6
CONTINUOUS
 10
215.6600418693
 20
117.1420716743
  0
VERTEX
  8
0
 62
7
  6
CONTINUOUS
 10
215.749608928
 20
117.2384251381
  0
VERTEX
  8
0
 62
7
  6
CONTINUOUS
 10
215.8453105359
 20
117.3286778197
  0
VERTEX
  8
0
 62
7
  6
CONTINUOUS
 10
215.9467306082
 20
117.4124391958
  0
VERTEX
  8
0
 62
7
  6
CONTINUOUS
 10
216.0534302585
 20
117.4893486239
  0
VERTEX
  8
0
 62
7
  6
CONTINUOUS
 10
216.1649430735
 20
117.5590721151
  0
VERTEX
  8
0
 62
7
  6
CONTINUOUS
 10
216.2807749973
 20
117.6213048154
  0
VERTEX
  8
0
 62
7
  6
CONTINUOUS
 10
216.4004229208
 20
117.6757816986
  0
VERTEX
  8
0
 62
7
  6
CONTINUOUS
 10
216.5233665468
 20
117.7222711904
  0
VERTEX
  8
0
 62
7
  6
CONTINUOUS
 10
216.6490576133
 20
117.760573034
  0
VERTEX
  8
0
 62
7
  6
CONTINUOUS
 10
216.7769252695
 20
117.790524606
  0
VERTEX
  8
0
 62
7
  6
CONTINUOUS
 10
216.9064164885
 20
117.812010104
  0
VERTEX
  8
0
 62
7
  6
CONTINUOUS
 10
217.0369687291
 20
117.8249499636
  0
VERTEX
  8
0
 62
7
  6
CONTINUOUS
 10
217.1104637101
 20
117.8273913962
  0
SEQEND
  0
LINE
  8
0
 62
7
  6
CONTINUOUS
 10
222.2643656638
 20
130.5453775901
 11
221.5337730387
 21
127.6230070897
  0
LINE
  8
0
 62
7
  6
CONTINUOUS
 10
215.789768105
 20
102.6932744007
 11
215.791583199
 21
102.6952949544
  0
LINE
  8
0
 62
7
  6
CONTINUOUS
 10
215.7878763018
 20
102.6911875245
 11
215.789896943
 21
102.6934174426
  0
LINE
  8
0
 62
7
  6
CONTINUOUS
 10
215.7853811226
 20
102.688460834
 11
215.7878763018
 21
102.6911875245
  0
LINE
  8
0
 62
7
  6
CONTINUOUS
 10
215.782069564
 20
102.684875343
 11
215.7853811226
 21
102.688460834
  0
LINE
  8
0
 62
7
  6
CONTINUOUS
 10
215.7845159306
 20
102.6875553923
 11
215.7846575173
 21
102.687707284
  0
LINE
  8
0
 62
7
  6
CONTINUOUS
 10
215.7774444274
 20
102.6799149055
 11
215.782069564
 21
102.684875343
  0
LINE
  8
0
 62
7
  6
CONTINUOUS
 10
215.7721366956
 20
102.6742697745
 11
215.7777891725
 21
102.680281848
  0
LINE
  8
0
 62
7
  6
CONTINUOUS
 10
327.7137939305
 20
135.852997355
 11
325.9175412673
 21
135.1992148524
  0
LINE
  8
0
 62
7
  6
CONTINUOUS
 10
274.0684161728
 20
102.0600619553
 11
274.0750888057
 21
102.0562446496
  0
LINE
  8
0
 62
7
  6
CONTINUOUS
 10
287.8184161728
 20
102.0600619553
 11
287.8250888057
 21
102.0562446496
  0
LINE
  8
0
 62
7
  6
CONTINUOUS
 10
248.1583970394
 20
102.6818891377
 11
248.1657471666
 21
102.6740617882
  0
LINE
  8
0
 62
7
  6
CONTINUOUS
 10
248.1545045606
 20
102.6860771141
 11
248.1583970394
 21
102.6818891377
  0
LINE
  8
0
 62
7
  6
CONTINUOUS
 10
248.1516592787
 20
102.6891660457
 11
248.1545045606
 21
102.6860771141
  0
LINE
  8
0
 62
7
  6
CONTINUOUS
 10
248.1492435486
 20
102.6918130247
 11
248.1516592787
 21
102.6891660457
  0
LINE
  8
0
 62
7
  6
CONTINUOUS
 10
248.1462155872
 20
102.6951717423
 11
248.1498589235
 21
102.6911368697
  0
LINE
  8
0
 62
7
  6
CONTINUOUS
 10
248.1462333895
 20
102.6951518107
 11
248.146393102
 21
102.6949733588
  0
LINE
  8
0
 62
7
  6
CONTINUOUS
 10
216.2733229138
 20
130.5453775901
 11
217.0039155389
 21
127.6230070897
  0
LINE
  8
0
 62
7
  6
CONTINUOUS
 10
223.3688442888
 20
115.8293025785
 11
223.3688442888
 21
109.5248449028
  0
LINE
  8
0
 62
7
  6
CONTINUOUS
 10
227.8688442888
 20
115.8293025785
 11
227.8688442888
 21
109.5248449028
  0
LINE
  8
0
 62
7
  6
CONTINUOUS
 10
228.6188442888
 20
106.4448262461
 11
228.6188442888
 21
103.0285601582
  0
LINE
  8
0
 62
7
  6
CONTINUOUS
 10
228.9688442888
 20
130.5817579338
 11
228.9688442888
 21
134.81329209
  0
LINE
  8
0
 62
7
  6
CONTINUOUS
 10
229.7188442888
 20
127.5017392772
 11
229.7188442888
 21
123.31329209
  0
POLYLINE
  8
0
 62
7
  6
CONTINUOUS
 66
1
 70
0
  0
VERTEX
  8
0
 62
7
  6
CONTINUOUS
 10
227.8688442888
 20
115.8293018986
  0
VERTEX
  8
0
 62
7
  6
CONTINUOUS
 10
227.872256772
 20
115.9460645165
  0
VERTEX
  8
0
 62
7
  6
CONTINUOUS
 10
227.8842335015
 20
116.0768913845
  0
VERTEX
  8
0
 62
7
  6
CONTINUOUS
 10
227.9047825915
 20
116.2066893248
  0
VERTEX
  8
0
 62
7
  6
CONTINUOUS
 10
227.9338217554
 20
116.3348941708
  0
VERTEX
  8
0
 62
7
  6
CONTINUOUS
 10
227.9712325495
 20
116.4609515864
  0
VERTEX
  8
0
 62
7
  6
CONTINUOUS
 10
228.0168544585
 20
116.5843006727
  0
VERTEX
  8
0
 62
7
  6
CONTINUOUS
 10
228.0704898638
 20
116.7043974896
  0
VERTEX
  8
0
 62
7
  6
CONTINUOUS
 10
228.1319080969
 20
116.820719984
  0
VERTEX
  8
0
 62
7
  6
CONTINUOUS
 10
228.2008452754
 20
116.9327637834
  0
VERTEX
  8
0
 62
7
  6
CONTINUOUS
 10
228.2770003616
 20
117.0400368628
  0
VERTEX
  8
0
 62
7
  6
CONTINUOUS
 10
228.3600418698
 20
117.1420716749
  0
VERTEX
  8
0
 62
7
  6
CONTINUOUS
 10
228.4496089287
 20
117.2384251387
  0
VERTEX
  8
0
 62
7
  6
CONTINUOUS
 10
228.5453105366
 20
117.3286778203
  0
VERTEX
  8
0
 62
7
  6
CONTINUOUS
 10
228.646730609
 20
117.4124391964
  0
VERTEX
  8
0
 62
7
  6
CONTINUOUS
 10
228.7534302594
 20
117.4893486245
  0
VERTEX
  8
0
 62
7
  6
CONTINUOUS
 10
228.8649430745
 20
117.5590721157
  0
VERTEX
  8
0
 62
7
  6
CONTINUOUS
 10
228.9807749985
 20
117.621304816
  0
VERTEX
  8
0
 62
7
  6
CONTINUOUS
 10
229.1004229221
 20
117.6757816991
  0
VERTEX
  8
0
 62
7
  6
CONTINUOUS
 10
229.2233665482
 20
117.7222711909
  0
VERTEX
  8
0
 62
7
  6
CONTINUOUS
 10
229.3490576147
 20
117.7605730344
  0
VERTEX
  8
0
 62
7
  6
CONTINUOUS
 10
229.4769252708
 20
117.7905246063
  0
VERTEX
  8
0
 62
7
  6
CONTINUOUS
 10
229.6064164896
 20
117.8120101041
  0
VERTEX
  8
0
 62
7
  6
CONTINUOUS
 10
229.7369687298
 20
117.8249499637
  0
VERTEX
  8
0
 62
7
  6
CONTINUOUS
 10
229.8104636903
 20
117.8273913956
  0
SEQEND
  0
LINE
  8
0
 62
7
  6
CONTINUOUS
 10
223.3539155389
 20
109.4035770903
 11
222.6233229138
 21
106.4812065899
  0
LINE
  8
0
 62
7
  6
CONTINUOUS
 10
234.9643656638
 20
130.5453775901
 11
234.2337730387
 21
127.6230070897
  0
LINE
  8
0
 62
7
  6
CONTINUOUS
 10
228.489659883
 20
102.6931548025
 11
228.4913986459
 21
102.6950886565
  0
LINE
  8
0
 62
7
  6
CONTINUOUS
 10
228.4878763018
 20
102.6911875245
 11
228.4916053602
 21
102.6953197455
  0
LINE
  8
0
 62
7
  6
CONTINUOUS
 10
228.4853811226
 20
102.688460834
 11
228.4878763018
 21
102.6911875245
  0
LINE
  8
0
 62
7
  6
CONTINUOUS
 10
228.482069564
 20
102.684875343
 11
228.4853811226
 21
102.688460834
  0
LINE
  8
0
 62
7
  6
CONTINUOUS
 10
228.4845159306
 20
102.6875553923
 11
228.4846575154
 21
102.6877072819
  0
LINE
  8
0
 62
7
  6
CONTINUOUS
 10
228.4774444274
 20
102.6799149055
 11
228.482069564
 21
102.684875343
  0
LINE
  8
0
 62
7
  6
CONTINUOUS
 10
228.4721366956
 20
102.6742697745
 11
228.4777891725
 21
102.680281848
  0
LINE
  8
0
 62
7
  6
CONTINUOUS
 10
329.0949047188
 20
119.2448368422
 11
326.8917234288
 21
118.442944432
  0
LINE
  8
0
 62
7
  6
CONTINUOUS
 10
302.3184161727
 20
102.0600619554
 11
302.3250888057
 21
102.0562446496
  0
LINE
  8
0
 62
7
  6
CONTINUOUS
 10
260.8583970394
 20
102.6818891377
 11
260.8657471666
 21
102.6740617882
  0
LINE
  8
0
 62
7
  6
CONTINUOUS
 10
260.8545045606
 20
102.6860771141
 11
260.8583970394
 21
102.6818891377
  0
LINE
  8
0
 62
7
  6
CONTINUOUS
 10
260.8516592787
 20
102.6891660457
 11
260.8545045606
 21
102.6860771141
  0
LINE
  8
0
 62
7
  6
CONTINUOUS
 10
260.8492435486
 20
102.6918130247
 11
260.8516592787
 21
102.6891660457
  0
LINE
  8
0
 62
7
  6
CONTINUOUS
 10
260.8462155872
 20
102.6951717423
 11
260.8498589235
 21
102.6911368697
  0
LINE
  8
0
 62
7
  6
CONTINUOUS
 10
260.8462333895
 20
102.6951518107
 11
260.846393102
 21
102.6949733588
  0
LINE
  8
0
 62
7
  6
CONTINUOUS
 10
228.6143656638
 20
106.4812065899
 11
227.8837730387
 21
109.4035770903
  0
LINE
  8
0
 62
7
  6
CONTINUOUS
 10
228.9733229138
 20
130.5453775901
 11
229.7039155389
 21
127.6230070897
  0
LINE
  8
0
 62
7
  6
CONTINUOUS
 10
234.2188442888
 20
127.5017392772
 11
234.2188442888
 21
123.31329209
  0
LINE
  8
0
 62
7
  6
CONTINUOUS
 10
234.9688442888
 20
134.81329209
 11
234.9688442888
 21
130.5817579338
  0
LINE
  8
0
 62
7
  6
CONTINUOUS
 10
235.3188442888
 20
103.0285601582
 11
235.3188442888
 21
106.4448262461
  0
LINE
  8
0
 62
7
  6
CONTINUOUS
 10
236.0688442888
 20
115.8293025785
 11
236.0688442888
 21
109.5248449028
  0
LINE
  8
0
 62
7
  6
CONTINUOUS
 10
240.5688442888
 20
115.8293025785
 11
240.5688442888
 21
109.5248449028
  0
LINE
  8
0
 62
7
  6
CONTINUOUS
 10
241.3188442888
 20
106.4448262461
 11
241.3188442888
 21
103.0285601582
  0
LINE
  8
0
 62
7
  6
CONTINUOUS
 10
241.6688442888
 20
130.5817579338
 11
241.6688442888
 21
134.81329209
  0
LINE
  8
0
 62
7
  6
CONTINUOUS
 10
242.4188442888
 20
127.5017392772
 11
242.4188442888
 21
123.31329209
  0
POLYLINE
  8
0
 62
7
  6
CONTINUOUS
 66
1
 70
0
  0
VERTEX
  8
0
 62
7
  6
CONTINUOUS
 10
240.5688442888
 20
115.8293018986
  0
VERTEX
  8
0
 62
7
  6
CONTINUOUS
 10
240.572256772
 20
115.9460645164
  0
VERTEX
  8
0
 62
7
  6
CONTINUOUS
 10
240.5842335014
 20
116.0768913841
  0
VERTEX
  8
0
 62
7
  6
CONTINUOUS
 10
240.6047825914
 20
116.2066893243
  0
VERTEX
  8
0
 62
7
  6
CONTINUOUS
 10
240.6338217552
 20
116.3348941702
  0
VERTEX
  8
0
 62
7
  6
CONTINUOUS
 10
240.6712325492
 20
116.4609515856
  0
VERTEX
  8
0
 62
7
  6
CONTINUOUS
 10
240.7168544581
 20
116.5843006718
  0
VERTEX
  8
0
 62
7
  6
CONTINUOUS
 10
240.7704898633
 20
116.7043974886
  0
VERTEX
  8
0
 62
7
  6
CONTINUOUS
 10
240.8319080963
 20
116.8207199829
  0
VERTEX
  8
0
 62
7
  6
CONTINUOUS
 10
240.9008452746
 20
116.9327637821
  0
VERTEX
  8
0
 62
7
  6
CONTINUOUS
 10
240.9770003606
 20
117.0400368615
  0
VERTEX
  8
0
 62
7
  6
CONTINUOUS
 10
241.0600418686
 20
117.1420716735
  0
VERTEX
  8
0
 62
7
  6
CONTINUOUS
 10
241.1496089273
 20
117.2384251373
  0
VERTEX
  8
0
 62
7
  6
CONTINUOUS
 10
241.245310535
 20
117.3286778189
  0
VERTEX
  8
0
 62
7
  6
CONTINUOUS
 10
241.3467306072
 20
117.412439195
  0
VERTEX
  8
0
 62
7
  6
CONTINUOUS
 10
241.4534302574
 20
117.4893486231
  0
VERTEX
  8
0
 62
7
  6
CONTINUOUS
 10
241.5649430722
 20
117.5590721144
  0
VERTEX
  8
0
 62
7
  6
CONTINUOUS
 10
241.6807749959
 20
117.6213048147
  0
VERTEX
  8
0
 62
7
  6
CONTINUOUS
 10
241.8004229192
 20
117.6757816979
  0
VERTEX
  8
0
 62
7
  6
CONTINUOUS
 10
241.923366545
 20
117.7222711898
  0
VERTEX
  8
0
 62
7
  6
CONTINUOUS
 10
242.0490576115
 20
117.7605730335
  0
VERTEX
  8
0
 62
7
  6
CONTINUOUS
 10
242.1769252678
 20
117.7905246057
  0
VERTEX
  8
0
 62
7
  6
CONTINUOUS
 10
242.3064164871
 20
117.8120101038
  0
VERTEX
  8
0
 62
7
  6
CONTINUOUS
 10
242.4369687283
 20
117.8249499636
  0
VERTEX
  8
0
 62
7
  6
CONTINUOUS
 10
242.5104637352
 20
117.827391397
  0
SEQEND
  0
LINE
  8
0
 62
7
  6
CONTINUOUS
 10
236.0539155389
 20
109.4035770903
 11
235.3233229138
 21
106.4812065899
  0
LINE
  8
0
 62
7
  6
CONTINUOUS
 10
247.6643656638
 20
130.5453775901
 11
246.9337730387
 21
127.6230070897
  0
LINE
  8
0
 62
7
  6
CONTINUOUS
 10
241.189659883
 20
102.6931548025
 11
241.1913986459
 21
102.6950886565
  0
LINE
  8
0
 62
7
  6
CONTINUOUS
 10
241.1878763018
 20
102.6911875245
 11
241.1916053602
 21
102.6953197455
  0
LINE
  8
0
 62
7
  6
CONTINUOUS
 10
241.1853811226
 20
102.688460834
 11
241.1878763018
 21
102.6911875245
  0
LINE
  8
0
 62
7
  6
CONTINUOUS
 10
241.182069564
 20
102.684875343
 11
241.1853811226
 21
102.688460834
  0
LINE
  8
0
 62
7
  6
CONTINUOUS
 10
241.1845159306
 20
102.6875553923
 11
241.1846575156
 21
102.6877072822
  0
LINE
  8
0
 62
7
  6
CONTINUOUS
 10
241.1774444274
 20
102.6799149055
 11
241.182069564
 21
102.684875343
  0
LINE
  8
0
 62
7
  6
CONTINUOUS
 10
241.1721366956
 20
102.6742697745
 11
241.1777891725
 21
102.680281848
  0
LINE
  8
0
 62
7
  6
CONTINUOUS
 10
241.3143656638
 20
106.4812065899
 11
240.5837730387
 21
109.4035770903
  0
LINE
  8
0
 62
7
  6
CONTINUOUS
 10
241.6733229138
 20
130.5453775901
 11
242.4039155389
 21
127.6230070897
  0
LINE
  8
0
 62
7
  6
CONTINUOUS
 10
246.9188442888
 20
127.5017392772
 11
246.9188442888
 21
123.31329209
  0
LINE
  8
0
 62
7
  6
CONTINUOUS
 10
247.6688442888
 20
134.81329209
 11
247.6688442888
 21
130.5817579338
  0
LINE
  8
0
 62
7
  6
CONTINUOUS
 10
248.0188442888
 20
103.0285601582
 11
248.0188442888
 21
106.4448262461
  0
LINE
  8
0
 62
7
  6
CONTINUOUS
 10
248.7688442888
 20
115.8293025785
 11
248.7688442888
 21
109.5248449028
  0
LINE
  8
0
 62
7
  6
CONTINUOUS
 10
248.7539155389
 20
109.4035770903
 11
248.0233229138
 21
106.4812065899
  0
LINE
  8
0
 62
7
  6
CONTINUOUS
 10
253.889659883
 20
102.6931548025
 11
253.8913986459
 21
102.6950886565
  0
LINE
  8
0
 62
7
  6
CONTINUOUS
 10
253.8878763018
 20
102.6911875245
 11
253.8916053602
 21
102.6953197455
  0
LINE
  8
0
 62
7
  6
CONTINUOUS
 10
253.8853811226
 20
102.688460834
 11
253.8878763018
 21
102.6911875245
  0
LINE
  8
0
 62
7
  6
CONTINUOUS
 10
253.8824724216
 20
102.6853097846
 11
253.8856993809
 21
102.6888064228
  0
LINE
  8
0
 62
7
  6
CONTINUOUS
 10
253.8845159306
 20
102.6875553923
 11
253.8846575157
 21
102.6877072823
  0
LINE
  8
0
 62
7
  6
CONTINUOUS
 10
253.8779612044
 20
102.6804669515
 11
253.8824724216
 21
102.6853097846
  0
LINE
  8
0
 62
7
  6
CONTINUOUS
 10
253.8721366956
 20
102.6742697745
 11
253.8783027454
 21
102.6808307913
  0
LINE
  8
0
 62
7
  6
CONTINUOUS
 10
279.5626365823
 20
102.0562656214
 11
279.5692537627
 21
102.0600511661
  0
LINE
  8
0
 62
7
  6
CONTINUOUS
 10
293.3126365823
 20
102.0562656214
 11
293.3192537631
 21
102.0600511663
  0
LINE
  8
0
 62
7
  6
CONTINUOUS
 10
317.9083370012
 20
102.0540535737
 11
317.9157859531
 21
102.0489459124
  0
LINE
  8
0
 62
7
  6
CONTINUOUS
 10
254.0143656638
 20
106.4812065899
 11
253.2837730387
 21
109.4035770903
  0
LINE
  8
0
 62
7
  6
CONTINUOUS
 10
253.2688442888
 20
115.8293025785
 11
253.2688442888
 21
109.5248449028
  0
LINE
  8
0
 62
7
  6
CONTINUOUS
 10
254.0188442888
 20
106.4448262461
 11
254.0188442888
 21
103.0285601582
  0
LINE
  8
0
 62
7
  6
CONTINUOUS
 10
254.3688442888
 20
130.5817579338
 11
254.3688442888
 21
134.81329209
  0
LINE
  8
0
 62
7
  6
CONTINUOUS
 10
255.1188442888
 20
127.5017392772
 11
255.1188442888
 21
123.31329209
  0
LINE
  8
0
 62
7
  6
CONTINUOUS
 10
259.6188442888
 20
127.5017392772
 11
259.6188442888
 21
123.31329209
  0
LINE
  8
0
 62
7
  6
CONTINUOUS
 10
260.3688442888
 20
134.81329209
 11
260.3688442888
 21
130.5817579338
  0
LINE
  8
0
 62
7
  6
CONTINUOUS
 10
260.7188442888
 20
103.0285601582
 11
260.7188442888
 21
106.4448262461
  0
LINE
  8
0
 62
7
  6
CONTINUOUS
 10
261.4688442888
 20
115.8293025785
 11
261.4688442888
 21
109.5248449028
  0
POLYLINE
  8
0
 62
7
  6
CONTINUOUS
 66
1
 70
0
  0
VERTEX
  8
0
 62
7
  6
CONTINUOUS
 10
253.2688442888
 20
115.8293018986
  0
VERTEX
  8
0
 62
7
  6
CONTINUOUS
 10
253.272256772
 20
115.9460645166
  0
VERTEX
  8
0
 62
7
  6
CONTINUOUS
 10
253.2842335015
 20
116.0768913847
  0
VERTEX
  8
0
 62
7
  6
CONTINUOUS
 10
253.3047825916
 20
116.2066893251
  0
VERTEX
  8
0
 62
7
  6
CONTINUOUS
 10
253.3338217555
 20
116.3348941712
  0
VERTEX
  8
0
 62
7
  6
CONTINUOUS
 10
253.3712325496
 20
116.4609515868
  0
VERTEX
  8
0
 62
7
  6
CONTINUOUS
 10
253.4168544587
 20
116.5843006732
  0
VERTEX
  8
0
 62
7
  6
CONTINUOUS
 10
253.4704898641
 20
116.7043974902
  0
VERTEX
  8
0
 62
7
  6
CONTINUOUS
 10
253.5319080973
 20
116.8207199847
  0
VERTEX
  8
0
 62
7
  6
CONTINUOUS
 10
253.6008452759
 20
116.9327637841
  0
VERTEX
  8
0
 62
7
  6
CONTINUOUS
 10
253.6770003622
 20
117.0400368636
  0
VERTEX
  8
0
 62
7
  6
CONTINUOUS
 10
253.7600418706
 20
117.1420716757
  0
VERTEX
  8
0
 62
7
  6
CONTINUOUS
 10
253.8496089295
 20
117.2384251395
  0
VERTEX
  8
0
 62
7
  6
CONTINUOUS
 10
253.9453105376
 20
117.3286778211
  0
VERTEX
  8
0
 62
7
  6
CONTINUOUS
 10
254.04673061
 20
117.4124391972
  0
VERTEX
  8
0
 62
7
  6
CONTINUOUS
 10
254.1534302606
 20
117.4893486253
  0
VERTEX
  8
0
 62
7
  6
CONTINUOUS
 10
254.2649430758
 20
117.5590721165
  0
VERTEX
  8
0
 62
7
  6
CONTINUOUS
 10
254.380775
 20
117.6213048167
  0
VERTEX
  8
0
 62
7
  6
CONTINUOUS
 10
254.5004229239
 20
117.6757816998
  0
VERTEX
  8
0
 62
7
  6
CONTINUOUS
 10
254.62336655
 20
117.7222711915
  0
VERTEX
  8
0
 62
7
  6
CONTINUOUS
 10
254.7490576166
 20
117.7605730349
  0
VERTEX
  8
0
 62
7
  6
CONTINUOUS
 10
254.8769252726
 20
117.7905246067
  0
VERTEX
  8
0
 62
7
  6
CONTINUOUS
 10
255.0064164911
 20
117.8120101043
  0
VERTEX
  8
0
 62
7
  6
CONTINUOUS
 10
255.1369687307
 20
117.8249499637
  0
VERTEX
  8
0
 62
7
  6
CONTINUOUS
 10
255.2104636638
 20
117.8273913947
  0
SEQEND
  0
LINE
  8
0
 62
7
  6
CONTINUOUS
 10
260.3643656638
 20
130.5453775901
 11
259.6337730387
 21
127.6230070897
  0
LINE
  8
0
 62
7
  6
CONTINUOUS
 10
261.4539155389
 20
109.4035770903
 11
260.7233229138
 21
106.4812065899
  0
LINE
  8
0
 62
7
  6
CONTINUOUS
 10
266.589659883
 20
102.6931548025
 11
266.5913986459
 21
102.6950886565
  0
LINE
  8
0
 62
7
  6
CONTINUOUS
 10
266.5878763018
 20
102.6911875245
 11
266.5916053602
 21
102.6953197455
  0
LINE
  8
0
 62
7
  6
CONTINUOUS
 10
266.5853811226
 20
102.688460834
 11
266.5878763018
 21
102.6911875245
  0
LINE
  8
0
 62
7
  6
CONTINUOUS
 10
266.5824724216
 20
102.6853097846
 11
266.5856993809
 21
102.6888064228
  0
LINE
  8
0
 62
7
  6
CONTINUOUS
 10
266.5845159306
 20
102.6875553923
 11
266.5846575162
 21
102.6877072828
  0
LINE
  8
0
 62
7
  6
CONTINUOUS
 10
266.5779612044
 20
102.6804669515
 11
266.5824724216
 21
102.6853097846
  0
LINE
  8
0
 62
7
  6
CONTINUOUS
 10
266.5721366956
 20
102.6742697745
 11
266.5783027454
 21
102.6808307913
  0
LINE
  8
0
 62
7
  6
CONTINUOUS
 10
307.8126365823
 20
102.0562656214
 11
307.8192537624
 21
102.060051166
  0
LINE
  8
0
 62
7
  6
CONTINUOUS
 10
254.3733229138
 20
130.5453775901
 11
255.1039155389
 21
127.6230070897
  0
LINE
  8
0
 62
7
  6
CONTINUOUS
 10
266.7143656638
 20
106.4812065899
 11
265.9837730387
 21
109.4035770903
  0
LINE
  8
0
 62
7
  6
CONTINUOUS
 10
265.9688442888
 20
115.8293025785
 11
265.9688442888
 21
109.5248449028
  0
LINE
  8
0
 62
7
  6
CONTINUOUS
 10
266.7188442888
 20
106.4448262461
 11
266.7188442888
 21
103.0285601582
  0
LINE
  8
0
 62
7
  6
CONTINUOUS
 10
267.0688442888
 20
130.5817579338
 11
267.0688442888
 21
134.81329209
  0
LINE
  8
0
 62
7
  6
CONTINUOUS
 10
267.8188442888
 20
127.5017392772
 11
267.8188442888
 21
123.31329209
  0
LINE
  8
0
 62
7
  6
CONTINUOUS
 10
272.3188442888
 20
127.5017392772
 11
272.3188442888
 21
122.86329209
  0
POLYLINE
  8
0
 62
7
  6
CONTINUOUS
 66
1
 70
0
  0
VERTEX
  8
0
 62
7
  6
CONTINUOUS
 10
265.9688442888
 20
115.8293018986
  0
VERTEX
  8
0
 62
7
  6
CONTINUOUS
 10
265.972256772
 20
115.9460645165
  0
VERTEX
  8
0
 62
7
  6
CONTINUOUS
 10
265.9842335014
 20
116.0768913844
  0
VERTEX
  8
0
 62
7
  6
CONTINUOUS
 10
266.0047825915
 20
116.2066893246
  0
VERTEX
  8
0
 62
7
  6
CONTINUOUS
 10
266.0338217553
 20
116.3348941706
  0
VERTEX
  8
0
 62
7
  6
CONTINUOUS
 10
266.0712325494
 20
116.4609515861
  0
VERTEX
  8
0
 62
7
  6
CONTINUOUS
 10
266.1168544584
 20
116.5843006723
  0
VERTEX
  8
0
 62
7
  6
CONTINUOUS
 10
266.1704898636
 20
116.7043974892
  0
VERTEX
  8
0
 62
7
  6
CONTINUOUS
 10
266.2319080967
 20
116.8207199836
  0
VERTEX
  8
0
 62
7
  6
CONTINUOUS
 10
266.3008452751
 20
116.9327637829
  0
VERTEX
  8
0
 62
7
  6
CONTINUOUS
 10
266.3770003612
 20
117.0400368623
  0
VERTEX
  8
0
 62
7
  6
CONTINUOUS
 10
266.4600418694
 20
117.1420716744
  0
VERTEX
  8
0
 62
7
  6
CONTINUOUS
 10
266.5496089281
 20
117.2384251382
  0
VERTEX
  8
0
 62
7
  6
CONTINUOUS
 10
266.645310536
 20
117.3286778198
  0
VERTEX
  8
0
 62
7
  6
CONTINUOUS
 10
266.7467306083
 20
117.4124391959
  0
VERTEX
  8
0
 62
7
  6
CONTINUOUS
 10
266.8534302587
 20
117.489348624
  0
VERTEX
  8
0
 62
7
  6
CONTINUOUS
 10
266.9649430736
 20
117.5590721152
  0
VERTEX
  8
0
 62
7
  6
CONTINUOUS
 10
267.0807749975
 20
117.6213048155
  0
VERTEX
  8
0
 62
7
  6
CONTINUOUS
 10
267.200422921
 20
117.6757816987
  0
VERTEX
  8
0
 62
7
  6
CONTINUOUS
 10
267.323366547
 20
117.7222711905
  0
VERTEX
  8
0
 62
7
  6
CONTINUOUS
 10
267.4490576135
 20
117.7605730341
  0
VERTEX
  8
0
 62
7
  6
CONTINUOUS
 10
267.5769252697
 20
117.7905246061
  0
VERTEX
  8
0
 62
7
  6
CONTINUOUS
 10
267.7064164887
 20
117.812010104
  0
VERTEX
  8
0
 62
7
  6
CONTINUOUS
 10
267.8369687292
 20
117.8249499636
  0
VERTEX
  8
0
 62
7
  6
CONTINUOUS
 10
267.9104637069
 20
117.8273913961
  0
SEQEND
  0
LINE
  8
0
 62
7
  6
CONTINUOUS
 10
273.0643656638
 20
130.5453775901
 11
272.3337730387
 21
127.6230070897
  0
LINE
  8
0
 62
7
  6
CONTINUOUS
 10
267.0733229138
 20
130.5453775901
 11
267.8039155389
 21
127.6230070897
  0
LINE
  8
0
 62
7
  6
CONTINUOUS
 10
273.0688442888
 20
134.81329209
 11
273.0688442888
 21
130.5817579338
  0
LINE
  8
0
 62
7
  6
CONTINUOUS
 10
273.8188442888
 20
106.4448262461
 11
273.8188442888
 21
102.4928270045
  0
LINE
  8
0
 62
7
  6
CONTINUOUS
 10
274.5688442888
 20
115.3293025785
 11
274.5688442888
 21
109.5248449028
  0
LINE
  8
0
 62
7
  6
CONTINUOUS
 10
279.0688442888
 20
115.36329209
 11
279.0688442888
 21
109.5248449028
  0
LINE
  8
0
 62
7
  6
CONTINUOUS
 10
279.8188442888
 20
106.4448262461
 11
279.8188442888
 21
102.4928270045
  0
LINE
  8
0
 62
7
  6
CONTINUOUS
 10
280.5688442888
 20
134.81329209
 11
280.5688442888
 21
130.5817579338
  0
LINE
  8
0
 62
7
  6
CONTINUOUS
 10
281.3188442888
 20
127.5017392772
 11
281.3188442888
 21
122.86329209
  0
LINE
  8
0
 62
7
  6
CONTINUOUS
 10
274.5539155389
 20
109.4035770903
 11
273.8233229138
 21
106.4812065899
  0
LINE
  8
0
 62
7
  6
CONTINUOUS
 10
286.5643656638
 20
130.5453775901
 11
285.8337730387
 21
127.6230070897
  0
LINE
  8
0
 62
7
  6
CONTINUOUS
 10
323.4719329828
 20
102.0489666989
 11
323.4794415603
 21
102.0541161858
  0
LINE
  8
0
 62
7
  6
CONTINUOUS
 10
279.8143656638
 20
106.4812065899
 11
279.0837730387
 21
109.4035770903
  0
LINE
  8
0
 62
7
  6
CONTINUOUS
 10
280.5733229138
 20
130.5453775901
 11
281.3039155389
 21
127.6230070897
  0
LINE
  8
0
 62
7
  6
CONTINUOUS
 10
285.8188442888
 20
127.5017392772
 11
285.8188442888
 21
122.86329209
  0
LINE
  8
0
 62
7
  6
CONTINUOUS
 10
286.5688442888
 20
134.81329209
 11
286.5688442888
 21
130.5817579338
  0
LINE
  8
0
 62
7
  6
CONTINUOUS
 10
287.5688442888
 20
102.4928270045
 11
287.5688442888
 21
106.4448262461
  0
LINE
  8
0
 62
7
  6
CONTINUOUS
 10
288.3188442888
 20
115.36329209
 11
288.3188442888
 21
109.5248449028
  0
LINE
  8
0
 62
7
  6
CONTINUOUS
 10
292.8188442888
 20
115.36329209
 11
292.8188442888
 21
109.5248449028
  0
LINE
  8
0
 62
7
  6
CONTINUOUS
 10
288.3039155389
 20
109.4035770903
 11
287.5733229138
 21
106.4812065899
  0
POLYLINE
  8
0
 62
7
  6
CONTINUOUS
 66
1
 70
0
  0
VERTEX
  8
0
 62
7
  6
CONTINUOUS
 10
325.7418780951
 20
133.5544849828
  0
VERTEX
  8
0
 62
7
  6
CONTINUOUS
 10
325.7404597557
 20
133.5525399959
  0
VERTEX
  8
0
 62
7
  6
CONTINUOUS
 10
325.7365772027
 20
133.5506209923
  0
VERTEX
  8
0
 62
7
  6
CONTINUOUS
 10
325.7303163937
 20
133.5487631663
  0
VERTEX
  8
0
 62
7
  6
CONTINUOUS
 10
325.7217242274
 20
133.5469765553
  0
VERTEX
  8
0
 62
7
  6
CONTINUOUS
 10
325.7108696801
 20
133.5452800636
  0
VERTEX
  8
0
 62
7
  6
CONTINUOUS
 10
325.6979355203
 20
133.5437038018
  0
VERTEX
  8
0
 62
7
  6
CONTINUOUS
 10
325.6831714232
 20
133.5422736953
  0
VERTEX
  8
0
 62
7
  6
CONTINUOUS
 10
325.6666523921
 20
133.5409945202
  0
VERTEX
  8
0
 62
7
  6
CONTINUOUS
 10
325.6485104856
 20
133.5398792111
  0
VERTEX
  8
0
 62
7
  6
CONTINUOUS
 10
325.6290688392
 20
133.5389490477
  0
VERTEX
  8
0
 62
7
  6
CONTINUOUS
 10
325.6086433053
 20
133.5382169666
  0
VERTEX
  8
0
 62
7
  6
CONTINUOUS
 10
325.5873767882
 20
133.537686743
  0
VERTEX
  8
0
 62
7
  6
CONTINUOUS
 10
325.565457455
 20
133.537364672
  0
VERTEX
  8
0
 62
7
  6
CONTINUOUS
 10
325.5432929368
 20
133.5372572305
  0
SEQEND
  0
LINE
  8
0
 62
7
  6
CONTINUOUS
 10
293.5643656638
 20
106.4812065899
 11
292.8337730387
 21
109.4035770903
  0
LINE
  8
0
 62
7
  6
CONTINUOUS
 10
293.5688442888
 20
106.4448262461
 11
293.5688442888
 21
102.4928270045
  0
LINE
  8
0
 62
7
  6
CONTINUOUS
 10
294.5688442888
 20
134.81329209
 11
294.5688442888
 21
130.5817579338
  0
LINE
  8
0
 62
7
  6
CONTINUOUS
 10
295.3188442888
 20
127.5017392772
 11
295.3188442888
 21
122.86329209
  0
LINE
  8
0
 62
7
  6
CONTINUOUS
 10
299.8188442888
 20
127.5017392772
 11
299.8188442888
 21
123.36329209
  0
LINE
  8
0
 62
7
  6
CONTINUOUS
 10
300.5688442888
 20
134.81329209
 11
300.5688442888
 21
130.5817579338
  0
LINE
  8
0
 62
7
  6
CONTINUOUS
 10
302.0688442888
 20
102.4928270045
 11
302.0688442888
 21
106.4448262461
  0
LINE
  8
0
 62
7
  6
CONTINUOUS
 10
302.8188442888
 20
115.36329209
 11
302.8188442888
 21
109.5248449028
  0
LINE
  8
0
 62
7
  6
CONTINUOUS
 10
300.5643656638
 20
130.5453775901
 11
299.8337730387
 21
127.6230070897
  0
LINE
  8
0
 62
7
  6
CONTINUOUS
 10
302.0733229138
 20
106.4812065899
 11
302.8039155389
 21
109.4035770903
  0
LINE
  8
0
 62
7
  6
CONTINUOUS
 10
326.4361790916
 20
123.5401790196
 11
325.8488442888
 21
124.32329209
  0
LINE
  8
0
 62
7
  6
CONTINUOUS
 10
294.5733229138
 20
130.5453775901
 11
295.3039155389
 21
127.6230070897
  0
LINE
  8
0
 62
7
  6
CONTINUOUS
 10
308.0643656638
 20
106.4812065899
 11
307.3337730387
 21
109.4035770903
  0
LINE
  8
0
 62
7
  6
CONTINUOUS
 10
307.3188442888
 20
115.21329209
 11
307.3188442888
 21
109.5248449028
  0
LINE
  8
0
 62
7
  6
CONTINUOUS
 10
308.0688442888
 20
106.4448262461
 11
308.0688442888
 21
102.4928270045
  0
LINE
  8
0
 62
7
  6
CONTINUOUS
 10
309.5688442888
 20
134.81329209
 11
309.5688442888
 21
130.5817579338
  0
LINE
  8
0
 62
7
  6
CONTINUOUS
 10
310.3188442888
 20
127.5017392772
 11
310.3188442888
 21
123.36329209
  0
LINE
  8
0
 62
7
  6
CONTINUOUS
 10
315.5643656638
 20
130.5453775901
 11
314.8337730387
 21
127.6230070897
  0
LINE
  8
0
 62
7
  6
CONTINUOUS
 10
309.5733229138
 20
130.5453775901
 11
310.3039155389
 21
127.6230070897
  0
LINE
  8
0
 62
7
  6
CONTINUOUS
 10
314.8188442888
 20
127.5017392772
 11
314.8188442888
 21
123.26329209
  0
LINE
  8
0
 62
7
  6
CONTINUOUS
 10
315.5688442888
 20
134.81329209
 11
315.5688442888
 21
130.5817579338
  0
LINE
  8
0
 62
7
  6
CONTINUOUS
 10
317.6938442888
 20
102.4645231535
 11
317.6938442888
 21
106.4448262461
  0
LINE
  8
0
 62
7
  6
CONTINUOUS
 10
317.9188442888
 20
131.5575859011
 11
317.9188442888
 21
127.1689982788
  0
LINE
  8
0
 62
7
  6
CONTINUOUS
 10
318.4438442888
 20
114.21329209
 11
318.4438442888
 21
109.5248449028
  0
LINE
  8
0
 62
7
  6
CONTINUOUS
 10
322.9438442888
 20
112.8047887073
 11
322.9438442888
 21
109.5248449028
  0
LINE
  8
0
 62
7
  6
CONTINUOUS
 10
323.6938442888
 20
106.4448262461
 11
323.6938442888
 21
102.4645231535
  0
LINE
  8
0
 62
7
  6
CONTINUOUS
 10
325.8188442888
 20
135.0582609592
 11
325.8188442888
 21
124.41113209
  0
LINE
  8
0
 62
7
  6
CONTINUOUS
 10
331.0688442888
 20
133.503765803
 11
331.0688442888
 21
122.0639147046
  0
POLYLINE
  8
0
 62
7
  6
CONTINUOUS
 66
1
 70
0
  0
VERTEX
  8
0
 62
7
  6
CONTINUOUS
 10
317.9188442888
 20
131.5575859011
  0
VERTEX
  8
0
 62
7
  6
CONTINUOUS
 10
317.9231022074
 20
131.6872306319
  0
VERTEX
  8
0
 62
7
  6
CONTINUOUS
 10
317.9359015627
 20
131.8165801656
  0
VERTEX
  8
0
 62
7
  6
CONTINUOUS
 10
317.9571967263
 20
131.9447940394
  0
VERTEX
  8
0
 62
7
  6
CONTINUOUS
 10
317.9868413084
 20
132.0710858274
  0
VERTEX
  8
0
 62
7
  6
CONTINUOUS
 10
318.0247656417
 20
132.195207511
  0
VERTEX
  8
0
 62
7
  6
CONTINUOUS
 10
318.0709232824
 20
132.3168610615
  0
VERTEX
  8
0
 62
7
  6
CONTINUOUS
 10
318.1250449906
 20
132.4352318427
  0
VERTEX
  8
0
 62
7
  6
CONTINUOUS
 10
318.1867708963
 20
132.5495808065
  0
VERTEX
  8
0
 62
7
  6
CONTINUOUS
 10
318.2559598508
 20
132.6596851921
  0
VERTEX
  8
0
 62
7
  6
CONTINUOUS
 10
318.3324822258
 20
132.7652731344
  0
VERTEX
  8
0
 62
7
  6
CONTINUOUS
 10
318.4158512182
 20
132.8656244639
  0
VERTEX
  8
0
 62
7
  6
CONTINUOUS
 10
318.5054945887
 20
132.9601017251
  0
VERTEX
  8
0
 62
7
  6
CONTINUOUS
 10
318.6011954069
 20
133.0485277735
  0
VERTEX
  8
0
 62
7
  6
CONTINUOUS
 10
318.7027442721
 20
133.1306864164
  0
VERTEX
  8
0
 62
7
  6
CONTINUOUS
 10
318.8094813057
 20
133.2060285581
  0
VERTEX
  8
0
 62
7
  6
CONTINUOUS
 10
318.9206711099
 20
133.2740940548
  0
VERTEX
  8
0
 62
7
  6
CONTINUOUS
 10
319.0360532722
 20
133.3347828342
  0
VERTEX
  8
0
 62
7
  6
CONTINUOUS
 10
319.1553850123
 20
133.3879622531
  0
VERTEX
  8
0
 62
7
  6
CONTINUOUS
 10
319.2779177722
 20
133.4332921238
  0
VERTEX
  8
0
 62
7
  6
CONTINUOUS
 10
319.4028364677
 20
133.4705219494
  0
VERTEX
  8
0
 62
7
  6
CONTINUOUS
 10
319.5298621048
 20
133.4996193492
  0
VERTEX
  8
0
 62
7
  6
CONTINUOUS
 10
319.6587406276
 20
133.5205186178
  0
VERTEX
  8
0
 62
7
  6
CONTINUOUS
 10
319.7886807525
 20
133.533078877
  0
VERTEX
  8
0
 62
7
  6
CONTINUOUS
 10
319.9188442888
 20
133.5372572305
  0
SEQEND
  0
LINE
  8
0
 62
7
  6
CONTINUOUS
 10
318.4289155389
 20
109.4035770903
 11
317.6983229138
 21
106.4812065899
  0
LINE
  8
0
 62
7
  6
CONTINUOUS
 10
323.6893656638
 20
106.4812065899
 11
322.9587730387
 21
109.4035770903
  0
LINE
  8
0
 62
7
  6
CONTINUOUS
 10
375.8380190311
 20
101.46329209
 11
379.8380190311
 21
101.46329209
  0
LINE
  8
0
 62
7
  6
CONTINUOUS
 10
374.6275783646
 20
135.7880278061
 11
374.4039042997
 21
135.7064733424
  0
LINE
  8
0
 62
7
  6
CONTINUOUS
 10
374.8561614146
 20
135.8563439297
 11
374.6215148103
 21
135.7860127667
  0
LINE
  8
SURFACE
 62
7
  6
CONTINUOUS
 10
357.8380190311
 20
132.2204118302
 11
357.8380190311
 21
126.5046129156
  0
LINE
  8
0
 62
7
  6
CONTINUOUS
 10
357.8380190311
 20
126.5061724447
 11
357.8380190311
 21
126.5046129156
  0
LINE
  8
0
 62
7
  6
CONTINUOUS
 10
374.0117901644
 20
135.524248761
 11
373.8242375505
 21
135.4164386214
  0
LINE
  8
0
 62
7
  6
CONTINUOUS
 10
374.2051607018
 20
135.6208446671
 11
374.0056700763
 21
135.5209594026
  0
LINE
  8
0
 62
7
  6
CONTINUOUS
 10
374.410222486
 20
135.7089853171
 11
374.1987711694
 21
135.6178705065
  0
LINE
  8
PLAN
 62
2
  6
CENTER
 10
383.0880190311
 20
105.81329209
 11
379.8381190311
 21
105.81329209
  0
LINE
  8
PLAN
 62
2
  6
CONTINUOUS
 10
378.8880190311
 20
105.81329209
 11
376.7880190311
 21
105.81329209
  0
LINE
  8
PLAN
 62
2
  6
CENTER
 10
372.5880190311
 20
105.81329209
 11
375.8379190311
 21
105.81329209
  0
LINE
  8
0
 62
7
  6
CONTINUOUS
 10
373.6587986665
 20
135.3085831856
 11
373.4937920562
 21
135.1875579579
  0
LINE
  8
0
 62
7
  6
CONTINUOUS
 10
373.8298343187
 20
135.4198710745
 11
373.6538378417
 21
135.3051491686
  0
LINE
  8
0
 62
7
  6
CONTINUOUS
 10
373.347560764
 20
135.0675909658
 11
373.2040069415
 21
134.9365991456
  0
LINE
  8
0
 62
7
  6
CONTINUOUS
 10
373.4981029288
 20
135.1909056181
 11
373.3438632979
 21
135.06438903
  0
LINE
  8
0
 62
7
  6
CONTINUOUS
 10
373.0767758057
 20
134.8079524085
 11
372.9540852677
 21
134.6710711812
  0
LINE
  8
0
 62
7
  6
CONTINUOUS
 10
373.2071317202
 20
134.9396033045
 11
373.0741749048
 21
134.8051877304
  0
POLYLINE
  8
0
 62
7
  6
CONTINUOUS
 66
1
 70
0
  0
VERTEX
  8
0
 62
7
  6
CONTINUOUS
 10
372.845057362
 20
134.5371684775
  0
VERTEX
  8
0
 62
7
  6
CONTINUOUS
 10
372.7426062983
 20
134.3989542712
  0
VERTEX
  8
0
 62
7
  6
CONTINUOUS
 10
372.6481936959
 20
134.2592101921
  0
VERTEX
  8
0
 62
7
  6
CONTINUOUS
 10
372.5611034331
 20
134.1179089154
  0
VERTEX
  8
0
 62
7
  6
CONTINUOUS
 10
372.4809466741
 20
133.9753516176
  0
VERTEX
  8
0
 62
7
  6
CONTINUOUS
 10
372.4075092719
 20
133.8320734913
  0
VERTEX
  8
0
 62
7
  6
CONTINUOUS
 10
372.3405305521
 20
133.6885954264
  0
VERTEX
  8
0
 62
7
  6
CONTINUOUS
 10
372.2858650986
 20
133.5605753999
  0
SEQEND
  0
LINE
  8
0
 62
7
  6
CONTINUOUS
 10
372.9562195728
 20
134.6735708719
 11
372.8433354295
 21
134.534950182
  0
POLYLINE
  8
0
 62
7
  6
CONTINUOUS
 66
1
 70
0
  0
VERTEX
  8
0
 62
7
  6
CONTINUOUS
 10
372.2858562559
 20
133.5605790187
  0
VERTEX
  8
0
 62
7
  6
CONTINUOUS
 10
372.1861600967
 20
133.2994413462
  0
VERTEX
  8
0
 62
7
  6
CONTINUOUS
 10
372.0943482574
 20
133.0189507934
  0
VERTEX
  8
0
 62
7
  6
CONTINUOUS
 10
372.0162400947
 20
132.7335370348
  0
VERTEX
  8
0
 62
7
  6
CONTINUOUS
 10
371.9520203582
 20
132.4438895119
  0
VERTEX
  8
0
 62
7
  6
CONTINUOUS
 10
371.901880947
 20
132.1506878027
  0
VERTEX
  8
0
 62
7
  6
CONTINUOUS
 10
371.8660260506
 20
131.8546219394
  0
VERTEX
  8
0
 62
7
  6
CONTINUOUS
 10
371.8446708352
 20
131.5563918441
  0
VERTEX
  8
0
 62
7
  6
CONTINUOUS
 10
371.8380190311
 20
131.2729803134
  0
SEQEND
  0
POLYLINE
  8
0
 62
7
  6
CONTINUOUS
 66
1
 70
0
  0
VERTEX
  8
0
 62
7
  6
CONTINUOUS
 10
371.977190212
 20
104.4172051952
  0
VERTEX
  8
0
 62
7
  6
CONTINUOUS
 10
371.9781360502
 20
104.413743183
  0
VERTEX
  8
0
 62
7
  6
CONTINUOUS
 10
371.9807838023
 20
104.4041684131
  0
SEQEND
  0
LINE
  8
0
 62
7
  6
CONTINUOUS
 10
371.973398209
 20
104.4312802644
 11
371.977190212
 21
104.4172051952
  0
LINE
  8
0
 62
7
  6
CONTINUOUS
 10
371.9680240262
 20
104.451685988
 11
371.973398209
 21
104.4312802644
  0
LINE
  8
0
 62
7
  6
CONTINUOUS
 10
371.9634682071
 20
104.4693466254
 11
371.9680240262
 21
104.451685988
  0
LINE
  8
0
 62
7
  6
CONTINUOUS
 10
371.9580724779
 20
104.4906597311
 11
371.9634682071
 21
104.4693466254
  0
LINE
  8
0
 62
7
  6
CONTINUOUS
 10
371.9517679588
 20
104.5161286569
 11
371.9580724779
 21
104.4906597311
  0
POLYLINE
  8
0
 62
7
  6
CONTINUOUS
 66
1
 70
0
  0
VERTEX
  8
0
 62
7
  6
CONTINUOUS
 10
371.8914745829
 20
104.8114718308
  0
VERTEX
  8
0
 62
7
  6
CONTINUOUS
 10
371.8969294943
 20
104.7792867727
  0
VERTEX
  8
0
 62
7
  6
CONTINUOUS
 10
371.9023398551
 20
104.7488390667
  0
VERTEX
  8
0
 62
7
  6
CONTINUOUS
 10
371.9076630548
 20
104.7201235289
  0
VERTEX
  8
0
 62
7
  6
CONTINUOUS
 10
371.912865255
 20
104.6931085999
  0
VERTEX
  8
0
 62
7
  6
CONTINUOUS
 10
371.9179329683
 20
104.6676879009
  0
VERTEX
  8
0
 62
7
  6
CONTINUOUS
 10
371.922843318
 20
104.6438293536
  0
VERTEX
  8
0
 62
7
  6
CONTINUOUS
 10
371.9275765102
 20
104.6214998965
  0
VERTEX
  8
0
 62
7
  6
CONTINUOUS
 10
371.9321224803
 20
104.6006315022
  0
VERTEX
  8
0
 62
7
  6
CONTINUOUS
 10
371.9364749851
 20
104.5811485637
  0
VERTEX
  8
0
 62
7
  6
CONTINUOUS
 10
371.9406229894
 20
104.5630061788
  0
VERTEX
  8
0
 62
7
  6
CONTINUOUS
 10
371.9445563056
 20
104.5461641482
  0
VERTEX
  8
0
 62
7
  6
CONTINUOUS
 10
371.9517679588
 20
104.5161286569
  0
SEQEND
  0
LINE
  8
DEFAULT_1
 62
2
  6
CENTER
 10
369.4851793523
 20
118.51329209
 11
385.8500194505
 21
118.51329209
  0
LINE
  8
0
 62
7
  6
CONTINUOUS
 10
371.886012309
 20
104.8454400364
 11
371.8922437751
 21
104.8068147228
  0
LINE
  8
0
 62
7
  6
CONTINUOUS
 10
371.8805786336
 20
104.8812602595
 11
371.8870891113
 21
104.8385661579
  0
LINE
  8
0
 62
7
  6
CONTINUOUS
 10
371.875213884
 20
104.9190009481
 11
371.8819564843
 21
104.8719335218
  0
LINE
  8
0
 62
7
  6
CONTINUOUS
 10
371.8699671138
 20
104.9586980757
 11
371.8768761547
 21
104.9069917994
  0
LINE
  8
0
 62
7
  6
CONTINUOUS
 10
371.8639477024
 20
105.0089777115
 11
371.8670232076
 21
104.9824257028
  0
POLYLINE
  8
0
 62
7
  6
CONTINUOUS
 66
1
 70
0
  0
VERTEX
  8
0
 62
7
  6
CONTINUOUS
 10
371.8635888296
 20
105.0121330132
  0
VERTEX
  8
0
 62
7
  6
CONTINUOUS
 10
371.8648902358
 20
105.000393052
  0
VERTEX
  8
0
 62
7
  6
CONTINUOUS
 10
371.8718836961
 20
104.9438132758
  0
SEQEND
  0
POLYLINE
  8
0
 62
7
  6
CONTINUOUS
 66
1
 70
0
  0
VERTEX
  8
0
 62
7
  6
CONTINUOUS
 10
371.8434581792
 20
105.2545652371
  0
VERTEX
  8
0
 62
7
  6
CONTINUOUS
 10
371.8464156736
 20
105.2040923367
  0
VERTEX
  8
0
 62
7
  6
CONTINUOUS
 10
371.8498515298
 20
105.155760692
  0
VERTEX
  8
0
 62
7
  6
CONTINUOUS
 10
371.8536930689
 20
105.1095081894
  0
VERTEX
  8
0
 62
7
  6
CONTINUOUS
 10
371.8578749571
 20
105.0652321929
  0
VERTEX
  8
0
 62
7
  6
CONTINUOUS
 10
371.8623368629
 20
105.0228847029
  0
VERTEX
  8
0
 62
7
  6
CONTINUOUS
 10
371.8636072644
 20
105.0119168423
  0
SEQEND
  0
POLYLINE
  8
0
 62
7
  6
CONTINUOUS
 66
1
 70
0
  0
VERTEX
  8
0
 62
7
  6
CONTINUOUS
 10
371.8380190422
 20
105.4632942509
  0
VERTEX
  8
0
 62
7
  6
CONTINUOUS
 10
371.8382615158
 20
105.4191410212
  0
VERTEX
  8
0
 62
7
  6
CONTINUOUS
 10
371.8392951497
 20
105.362071788
  0
VERTEX
  8
0
 62
7
  6
CONTINUOUS
 10
371.8410568427
 20
105.3072153209
  0
VERTEX
  8
0
 62
7
  6
CONTINUOUS
 10
371.8434581792
 20
105.2545652371
  0
SEQEND
  0
LINE
  8
0
 62
7
  6
CONTINUOUS
 10
371.8380190311
 20
105.46329209
 11
371.8380190311
 21
131.2729803134
  0
LINE
  8
0
 62
7
  6
CONTINUOUS
 10
375.7380190311
 20
105.81329209
 11
375.7380190311
 21
113.86329209
  0
LINE
  8
0
 62
7
  6
CONTINUOUS
 10
371.6554524212
 20
124.3792666683
 11
358.7508520809
 21
125.5084191981
  0
LINE
  8
SURFACE
 62
7
  6
CONTINUOUS
 10
358.7508520809
 20
125.5084191981
 11
371.6554524212
 21
124.3792666683
  0
LINE
  8
PLAN
 62
2
  6
CENTER
 10
377.8380190311
 20
136.46329209
 11
377.8380190311
 21
133.21339209
  0
LINE
  8
PLAN
 62
2
  6
CONTINUOUS
 10
377.8380190311
 20
132.26329209
 11
377.8380190311
 21
130.16329209
  0
LINE
  8
PLAN
 62
2
  6
CENTER
 10
377.8380190311
 20
111.06329209
 11
377.8380190311
 21
107.81339209
  0
LINE
  8
PLAN
 62
2
  6
CONTINUOUS
 10
377.8380190311
 20
106.86329209
 11
377.8380190311
 21
104.76329209
  0
LINE
  8
PLAN
 62
2
  6
CENTER
 10
377.8380190311
 20
100.56329209
 11
377.8380190311
 21
103.81319209
  0
LINE
  8
PLAN
 62
2
  6
CENTER
 10
377.8380190311
 20
125.96329209
 11
377.8380190311
 21
129.21319209
  0
LINE
  8
0
 62
7
  6
CONTINUOUS
 10
379.9380190311
 20
105.81329209
 11
379.9380190311
 21
113.86329209
  0
POLYLINE
  8
0
 62
7
  6
CONTINUOUS
 66
1
 70
0
  0
VERTEX
  8
0
 62
7
  6
CONTINUOUS
 10
383.8380190301
 20
129.7562391121
  0
VERTEX
  8
0
 62
7
  6
CONTINUOUS
 10
383.8371631692
 20
129.8593077612
  0
VERTEX
  8
0
 62
7
  6
CONTINUOUS
 10
383.8343300975
 20
129.9732377929
  0
VERTEX
  8
0
 62
7
  6
CONTINUOUS
 10
383.8295326631
 20
130.0898913429
  0
VERTEX
  8
0
 62
7
  6
CONTINUOUS
 10
383.822792571
 20
130.2091463186
  0
VERTEX
  8
0
 62
7
  6
CONTINUOUS
 10
383.8141305976
 20
130.3309327936
  0
VERTEX
  8
0
 62
7
  6
CONTINUOUS
 10
383.8035476871
 20
130.4553916091
  0
VERTEX
  8
0
 62
7
  6
CONTINUOUS
 10
383.7910370682
 20
130.5826315686
  0
VERTEX
  8
0
 62
7
  6
CONTINUOUS
 10
383.7765846089
 20
130.7127557633
  0
VERTEX
  8
0
 62
7
  6
CONTINUOUS
 10
383.7601844023
 20
130.8457492111
  0
VERTEX
  8
0
 62
7
  6
CONTINUOUS
 10
383.7418498288
 20
130.9814502249
  0
VERTEX
  8
0
 62
7
  6
CONTINUOUS
 10
383.7215906738
 20
131.119757316
  0
VERTEX
  8
0
 62
7
  6
CONTINUOUS
 10
383.699423497
 20
131.2605418319
  0
VERTEX
  8
0
 62
7
  6
CONTINUOUS
 10
383.6753873079
 20
131.4035661824
  0
VERTEX
  8
0
 62
7
  6
CONTINUOUS
 10
383.6495160858
 20
131.5486621594
  0
VERTEX
  8
0
 62
7
  6
CONTINUOUS
 10
383.6218227544
 20
131.6957870061
  0
VERTEX
  8
0
 62
7
  6
CONTINUOUS
 10
383.5922438944
 20
131.8452835019
  0
VERTEX
  8
0
 62
7
  6
CONTINUOUS
 10
383.5606481512
 20
131.9978113549
  0
VERTEX
  8
0
 62
7
  6
CONTINUOUS
 10
383.5268542322
 20
132.1541442121
  0
VERTEX
  8
0
 62
7
  6
CONTINUOUS
 10
383.4906959205
 20
132.3148218239
  0
VERTEX
  8
0
 62
7
  6
CONTINUOUS
 10
383.4522616026
 20
132.479240428
  0
VERTEX
  8
0
 62
7
  6
CONTINUOUS
 10
383.4116851935
 20
132.6466970029
  0
VERTEX
  8
0
 62
7
  6
CONTINUOUS
 10
383.3690658497
 20
132.8167144465
  0
VERTEX
  8
0
 62
7
  6
CONTINUOUS
 10
383.3244438546
 20
132.9890957744
  0
VERTEX
  8
0
 62
7
  6
CONTINUOUS
 10
383.277847718
 20
133.1637062887
  0
VERTEX
  8
0
 62
7
  6
CONTINUOUS
 10
383.2292922287
 20
133.340469459
  0
VERTEX
  8
0
 62
7
  6
CONTINUOUS
 10
383.178773721
 20
133.5193756642
  0
VERTEX
  8
0
 62
7
  6
CONTINUOUS
 10
383.1262747913
 20
133.7004593662
  0
VERTEX
  8
0
 62
7
  6
CONTINUOUS
 10
383.0718161533
 20
133.8836211638
  0
VERTEX
  8
0
 62
7
  6
CONTINUOUS
 10
383.0154211299
 20
134.0687560501
  0
SEQEND
  0
LINE
  8
0
 62
7
  6
CONTINUOUS
 10
383.8380190311
 20
105.46329209
 11
383.8380190311
 21
131.56329209
  0
LINE
  8
PLAN
 62
2
  6
CENTER
 10
383.0880190311
 20
131.21329209
 11
379.8381190311
 21
131.21329209
  0
LINE
  8
PLAN
 62
2
  6
CONTINUOUS
 10
378.8880190311
 20
131.21329209
 11
376.7880190311
 21
131.21329209
  0
LINE
  8
PLAN
 62
2
  6
CENTER
 10
372.5880190311
 20
131.21329209
 11
375.8379190311
 21
131.21329209
  0
LINE
  8
0
 62
7
  6
CONTINUOUS
 10
375.097557505
 20
135.9130611895
 11
374.8502501479
 21
135.8547606913
  0
LINE
  8
0
 62
7
  6
CONTINUOUS
 10
375.3514468244
 20
135.95687134
 11
375.091319057
 21
135.9117856
  0
LINE
  8
SURFACE
 62
7
  6
CONTINUOUS
 10
372.7770784399
 20
134.4454597882
 11
358.7508520809
 21
133.2181649818
  0
LINE
  8
0
 62
7
  6
CONTINUOUS
 10
358.7508520809
 20
133.2181649818
 11
372.7770784399
 21
134.4454597882
  0
LINE
  8
0
 62
7
  6
CONTINUOUS
 10
375.6163739377
 20
135.9866907561
 11
375.3442303351
 21
135.9558384497
  0
LINE
  8
0
 62
7
  6
CONTINUOUS
 10
375.8913722392
 20
136.0019399162
 11
375.607964821
 21
135.985979054
  0
LINE
  8
0
 62
7
  6
CONTINUOUS
 10
376.0269229299
 20
136.0036273335
 11
375.8819297217
 21
136.0016709972
  0
LINE
  8
0
 62
7
  6
CONTINUOUS
 10
376.0269207416
 20
136.003765803
 11
379.6491773514
 21
136.003765803
  0
LINE
  8
0
 62
7
  6
CONTINUOUS
 10
379.6541952347
 20
136.0037635137
 11
379.6498401427
 21
136.0037657973
  0
LINE
  8
0
 62
7
  6
CONTINUOUS
 10
379.8087556499
 20
136.0012045248
 11
379.6541652532
 21
136.0037612705
  0
POLYLINE
  8
0
 62
7
  6
CONTINUOUS
 66
1
 70
0
  0
VERTEX
  8
0
 62
7
  6
CONTINUOUS
 10
382.9015047366
 20
134.4303060142
  0
VERTEX
  8
0
 62
7
  6
CONTINUOUS
 10
382.8981323413
 20
134.4396997489
  0
VERTEX
  8
0
 62
7
  6
CONTINUOUS
 10
382.8935078961
 20
134.450164705
  0
VERTEX
  8
0
 62
7
  6
CONTINUOUS
 10
382.8872567511
 20
134.461665012
  0
VERTEX
  8
0
 62
7
  6
CONTINUOUS
 10
382.8790766538
 20
134.4738683738
  0
SEQEND
  0
POLYLINE
  8
0
 62
7
  6
CONTINUOUS
 66
1
 70
0
  0
VERTEX
  8
0
 62
7
  6
CONTINUOUS
 10
383.0154211286
 20
134.0687560562
  0
VERTEX
  8
0
 62
7
  6
CONTINUOUS
 10
382.957100395
 20
134.2558041028
  0
VERTEX
  8
0
 62
7
  6
CONTINUOUS
 10
382.9015278908
 20
134.4302299603
  0
SEQEND
  0
LINE
  8
0
 62
7
  6
CONTINUOUS
 10
380.0899607765
 20
135.9839739723
 11
379.8025838345
 21
136.0013065995
  0
LINE
  8
0
 62
7
  6
CONTINUOUS
 10
380.360220104
 20
135.9512255052
 11
380.0816285508
 21
135.9847261066
  0
LINE
  8
0
 62
7
  6
CONTINUOUS
 10
380.6188346317
 20
135.9040536363
 11
380.3525087254
 21
135.9523885282
  0
LINE
  8
0
 62
7
  6
CONTINUOUS
 10
380.8652972747
 20
135.8434689602
 11
380.6114610784
 21
135.9056253581
  0
LINE
  8
0
 62
7
  6
CONTINUOUS
 10
381.0992792754
 20
135.7707362421
 11
380.8580891534
 21
135.8454667198
  0
LINE
  8
0
 62
7
  6
CONTINUOUS
 10
381.3213233535
 20
135.6866036884
 11
381.0922608755
 21
135.7731480756
  0
LINE
  8
0
 62
7
  6
CONTINUOUS
 10
381.5312429891
 20
135.592208218
 11
381.3146382271
 21
135.6893652748
  0
LINE
  8
0
 62
7
  6
CONTINUOUS
 10
381.7287075334
 20
135.4888646757
 11
381.5251301289
 21
135.5951740895
  0
LINE
  8
0
 62
7
  6
CONTINUOUS
 10
381.9137116141
 20
135.3775318994
 11
381.7234260297
 21
135.4918274365
  0
LINE
  8
0
 62
7
  6
CONTINUOUS
 10
382.0864274798
 20
135.2592636417
 11
381.9094270167
 21
135.3802834907
  0
LINE
  8
0
 62
7
  6
CONTINUOUS
 10
382.2472653732
 20
135.1352640222
 11
382.0830822454
 21
135.2616950782
  0
LINE
  8
0
 62
7
  6
CONTINUOUS
 10
382.3965936699
 20
135.0065779453
 11
382.2447069083
 21
135.1373500631
  0
LINE
  8
0
 62
7
  6
CONTINUOUS
 10
382.5349650999
 20
134.8740254326
 11
382.3946860545
 21
135.0083116934
  0
LINE
  8
0
 62
7
  6
CONTINUOUS
 10
382.6628169226
 20
134.7384207942
 11
382.5336084768
 21
134.875393244
  0
LINE
  8
0
 62
7
  6
CONTINUOUS
 10
382.7805026527
 20
134.6005856911
 11
382.6619447368
 21
134.7393931633
  0
LINE
  8
0
 62
7
  6
CONTINUOUS
 10
382.8790368963
 20
134.4739102635
 11
382.7800751539
 21
134.6011115706
  0
ARC
  8
SURFACE
 62
7
  6
CONTINUOUS
 10
34.4065331047
 20
171.1999932651
 40
2.0
 50
183.5
 51
270.0005990629
  0
ARC
  8
SURFACE
 62
7
  6
CONTINUOUS
 10
43.4188442609
 20
170.1999932651
 40
1.0
 50
270.0000015965
 51
360.0
  0
ARC
  8
SURFACE
 62
7
  6
CONTINUOUS
 10
36.9895442887
 20
174.399993265
 40
0.2
 50
180.0
 51
270.0
  0
ARC
  8
0
 62
7
  6
CONTINUOUS
 10
83.2688442888
 20
183.9499932651
 40
0.75
 50
180.0
 51
270.0
  0
ARC
  8
0
 62
7
  6
CONTINUOUS
 10
69.5188442888
 20
183.9499932651
 40
0.75
 50
180.0
 51
270.0
  0
ARC
  8
0
 62
7
  6
CONTINUOUS
 10
96.3688442888
 20
183.9499932651
 40
0.75
 50
180.0
 51
270.0
  0
ARC
  8
0
 62
7
  6
CONTINUOUS
 10
100.8688442888
 20
183.9499932651
 40
0.75
 50
270.0
 51
360.0
  0
ARC
  8
0
 62
7
  6
CONTINUOUS
 10
39.3938442888
 20
183.9499932651
 40
0.75
 50
180.0
 51
270.0
  0
ARC
  8
0
 62
7
  6
CONTINUOUS
 10
43.8938442888
 20
183.9499932651
 40
0.75
 50
270.0
 51
360.0
  0
ARC
  8
0
 62
7
  6
CONTINUOUS
 10
87.7688442888
 20
183.9499932651
 40
0.75
 50
270.0
 51
360.0
  0
ARC
  8
0
 62
7
  6
CONTINUOUS
 10
74.0188442888
 20
183.9499932651
 40
0.75
 50
270.0
 51
360.0
  0
ARC
  8
0
 62
7
  6
CONTINUOUS
 10
31.4807030754
 20
182.9999932651
 40
0.2
 50
3.5
 51
90.0
  0
ARC
  8
0
 62
7
  6
CONTINUOUS
 10
61.4088442888
 20
183.3499932651
 40
0.15
 50
270.0
 51
360.0
  0
ARC
  8
0
 62
7
  6
CONTINUOUS
 10
53.1288442888
 20
183.3499932651
 40
0.15
 50
180.0
 51
270.0
  0
ARC
  8
0
 62
7
  6
CONTINUOUS
 10
31.4188442888
 20
183.3499932651
 40
0.15
 50
180.0
 51
270.0
  0
ARC
  8
0
 62
7
  6
CONTINUOUS
 10
87.7688442888
 20
194.4499932651
 40
0.75
 50
0.0
 51
90.0
  0
ARC
  8
0
 62
7
  6
CONTINUOUS
 10
59.5188442888
 20
194.4499932651
 40
0.75
 50
0.0
 51
90.0
  0
ARC
  8
0
 62
7
  6
CONTINUOUS
 10
100.8688442888
 20
194.4499932651
 40
0.75
 50
0.0
 51
90.0
  0
ARC
  8
0
 62
7
  6
CONTINUOUS
 10
96.3688442888
 20
194.4499932651
 40
0.75
 50
90.0
 51
180.0
  0
ARC
  8
0
 62
7
  6
CONTINUOUS
 10
39.3938442888
 20
194.4499932651
 40
0.75
 50
90.0
 51
180.0
  0
ARC
  8
0
 62
7
  6
CONTINUOUS
 10
43.8938442888
 20
194.4499932651
 40
0.75
 50
0.0
 51
90.0
  0
ARC
  8
0
 62
7
  6
CONTINUOUS
 10
55.0188442888
 20
194.4499932651
 40
0.75
 50
90.0
 51
180.0
  0
ARC
  8
0
 62
7
  6
CONTINUOUS
 10
69.5188442888
 20
194.4499932651
 40
0.75
 50
90.0
 51
180.0
  0
ARC
  8
0
 62
7
  6
CONTINUOUS
 10
74.0188442888
 20
194.4499932651
 40
0.75
 50
0.0
 51
90.0
  0
ARC
  8
0
 62
7
  6
CONTINUOUS
 10
83.2688442888
 20
194.4499932651
 40
0.75
 50
90.0
 51
180.0
  0
ARC
  8
0
 62
7
  6
CONTINUOUS
 10
31.4188442888
 20
194.0808741484
 40
0.15
 50
103.0918930643
 51
180.0
  0
ARC
  8
0
 62
7
  6
CONTINUOUS
 10
35.5860564904
 20
195.0499932651
 40
0.15
 50
90.0
 51
103.0918930643
  0
ARC
  8
0
 62
7
  6
CONTINUOUS
 10
109.0688442888
 20
183.9499932651
 40
0.75
 50
180.0
 51
270.0
  0
ARC
  8
0
 62
7
  6
CONTINUOUS
 10
121.7688442888
 20
183.9499932651
 40
0.75
 50
180.0
 51
270.0
  0
ARC
  8
0
 62
7
  6
CONTINUOUS
 10
134.4688442888
 20
183.9499932651
 40
0.75
 50
180.0
 51
270.0
  0
ARC
  8
0
 62
7
  6
CONTINUOUS
 10
138.9688442888
 20
183.9499932651
 40
0.75
 50
270.0
 51
360.0
  0
ARC
  8
0
 62
7
  6
CONTINUOUS
 10
147.1688442888
 20
183.9499932651
 40
0.75
 50
180.0
 51
270.0
  0
ARC
  8
0
 62
7
  6
CONTINUOUS
 10
151.6688442888
 20
183.9499932651
 40
0.75
 50
270.0
 51
360.0
  0
ARC
  8
0
 62
7
  6
CONTINUOUS
 10
126.2688442888
 20
183.9499932651
 40
0.75
 50
270.0
 51
360.0
  0
ARC
  8
0
 62
7
  6
CONTINUOUS
 10
159.8688442888
 20
183.9499932651
 40
0.75
 50
180.0
 51
270.0
  0
ARC
  8
0
 62
7
  6
CONTINUOUS
 10
164.3688442888
 20
183.9499932651
 40
0.75
 50
270.0
 51
360.0
  0
ARC
  8
0
 62
7
  6
CONTINUOUS
 10
177.0688442888
 20
183.9499932651
 40
0.75
 50
270.0
 51
360.0
  0
ARC
  8
0
 62
7
  6
CONTINUOUS
 10
172.5688442888
 20
183.9499932651
 40
0.75
 50
180.0
 51
270.0
  0
ARC
  8
0
 62
7
  6
CONTINUOUS
 10
113.5688442888
 20
183.9499932651
 40
0.75
 50
270.0
 51
360.0
  0
ARC
  8
0
 62
7
  6
CONTINUOUS
 10
172.5688442888
 20
194.4499932651
 40
0.75
 50
90.0
 51
180.0
  0
ARC
  8
0
 62
7
  6
CONTINUOUS
 10
159.8688442888
 20
194.4499932651
 40
0.75
 50
90.0
 51
180.0
  0
ARC
  8
0
 62
7
  6
CONTINUOUS
 10
147.1688442888
 20
194.4499932651
 40
0.75
 50
90.0
 51
180.0
  0
ARC
  8
0
 62
7
  6
CONTINUOUS
 10
113.5688442888
 20
194.4499932651
 40
0.75
 50
0.0
 51
90.0
  0
ARC
  8
0
 62
7
  6
CONTINUOUS
 10
134.4688442888
 20
194.4499932651
 40
0.75
 50
90.0
 51
180.0
  0
ARC
  8
0
 62
7
  6
CONTINUOUS
 10
126.2688442888
 20
194.4499932651
 40
0.75
 50
0.0
 51
90.0
  0
ARC
  8
0
 62
7
  6
CONTINUOUS
 10
138.9688442888
 20
194.4499932651
 40
0.75
 50
0.0
 51
90.0
  0
ARC
  8
0
 62
7
  6
CONTINUOUS
 10
151.6688442888
 20
194.4499932651
 40
0.75
 50
0.0
 51
90.0
  0
ARC
  8
0
 62
7
  6
CONTINUOUS
 10
121.7688442888
 20
194.4499932651
 40
0.75
 50
90.0
 51
180.0
  0
ARC
  8
0
 62
7
  6
CONTINUOUS
 10
164.3688442888
 20
194.4499932651
 40
0.75
 50
0.0
 51
90.0
  0
ARC
  8
0
 62
7
  6
CONTINUOUS
 10
177.0688442888
 20
194.4499932651
 40
0.75
 50
0.0
 51
90.0
  0
ARC
  8
0
 62
7
  6
CONTINUOUS
 10
109.0688442888
 20
194.4499932651
 40
0.75
 50
90.0
 51
180.0
  0
ARC
  8
0
 62
7
  6
CONTINUOUS
 10
327.9311554729
 20
171.1999932651
 40
2.0
 50
269.9994008742
 51
356.5
  0
ARC
  8
0
 62
7
  6
CONTINUOUS
 10
318.9188443167
 20
170.1999932651
 40
1.0
 50
180.0
 51
269.9999984035
  0
ARC
  8
0
 62
7
  6
CONTINUOUS
 10
325.3481442888
 20
174.399993265
 40
0.2
 50
270.0
 51
360.0
  0
ARC
  8
0
 62
7
  6
CONTINUOUS
 10
227.8688442888
 20
183.9499932651
 40
0.75
 50
270.0
 51
360.0
  0
ARC
  8
0
 62
7
  6
CONTINUOUS
 10
236.0688442888
 20
183.9499932651
 40
0.75
 50
180.0
 51
270.0
  0
ARC
  8
0
 62
7
  6
CONTINUOUS
 10
248.7688442888
 20
183.9499932651
 40
0.75
 50
180.0
 51
270.0
  0
ARC
  8
0
 62
7
  6
CONTINUOUS
 10
215.1688442888
 20
183.9499932651
 40
0.75
 50
270.0
 51
360.0
  0
ARC
  8
0
 62
7
  6
CONTINUOUS
 10
185.2688442888
 20
183.9499932651
 40
0.75
 50
180.0
 51
270.0
  0
ARC
  8
0
 62
7
  6
CONTINUOUS
 10
197.9688442888
 20
183.9499932651
 40
0.75
 50
180.0
 51
270.0
  0
ARC
  8
0
 62
7
  6
CONTINUOUS
 10
210.6688442888
 20
183.9499932651
 40
0.75
 50
180.0
 51
270.0
  0
ARC
  8
0
 62
7
  6
CONTINUOUS
 10
223.3688442888
 20
183.9499932651
 40
0.75
 50
180.0
 51
270.0
  0
ARC
  8
0
 62
7
  6
CONTINUOUS
 10
202.4688442888
 20
183.9499932651
 40
0.75
 50
270.0
 51
360.0
  0
ARC
  8
0
 62
7
  6
CONTINUOUS
 10
240.5688442888
 20
183.9499932651
 40
0.75
 50
270.0
 51
360.0
  0
ARC
  8
0
 62
7
  6
CONTINUOUS
 10
189.7688442888
 20
183.9499932651
 40
0.75
 50
270.0
 51
360.0
  0
ARC
  8
0
 62
7
  6
CONTINUOUS
 10
253.2688442888
 20
183.9499932651
 40
0.75
 50
270.0
 51
360.0
  0
ARC
  8
0
 62
7
  6
CONTINUOUS
 10
240.5688442888
 20
194.4499932651
 40
0.75
 50
0.0
 51
90.0
  0
ARC
  8
0
 62
7
  6
CONTINUOUS
 10
253.2688442888
 20
194.4499932651
 40
0.75
 50
0.0
 51
90.0
  0
ARC
  8
0
 62
7
  6
CONTINUOUS
 10
189.7688442888
 20
194.4499932651
 40
0.75
 50
0.0
 51
90.0
  0
ARC
  8
0
 62
7
  6
CONTINUOUS
 10
202.4688442888
 20
194.4499932651
 40
0.75
 50
0.0
 51
90.0
  0
ARC
  8
0
 62
7
  6
CONTINUOUS
 10
210.6688442888
 20
194.4499932651
 40
0.75
 50
90.0
 51
180.0
  0
ARC
  8
0
 62
7
  6
CONTINUOUS
 10
215.1688442888
 20
194.4499932651
 40
0.75
 50
0.0
 51
90.0
  0
ARC
  8
0
 62
7
  6
CONTINUOUS
 10
223.3688442888
 20
194.4499932651
 40
0.75
 50
90.0
 51
180.0
  0
ARC
  8
0
 62
7
  6
CONTINUOUS
 10
227.8688442888
 20
194.4499932651
 40
0.75
 50
0.0
 51
90.0
  0
ARC
  8
0
 62
7
  6
CONTINUOUS
 10
197.9688442888
 20
194.4499932651
 40
0.75
 50
90.0
 51
180.0
  0
ARC
  8
0
 62
7
  6
CONTINUOUS
 10
236.0688442888
 20
194.4499932651
 40
0.75
 50
90.0
 51
180.0
  0
ARC
  8
0
 62
7
  6
CONTINUOUS
 10
185.2688442888
 20
194.4499932651
 40
0.75
 50
90.0
 51
180.0
  0
ARC
  8
0
 62
7
  6
CONTINUOUS
 10
248.7688442888
 20
194.4499932651
 40
0.75
 50
90.0
 51
180.0
  0
ARC
  8
0
 62
7
  6
CONTINUOUS
 10
274.5688442888
 20
183.9499932651
 40
0.75
 50
180.0
 51
270.0
  0
ARC
  8
0
 62
7
  6
CONTINUOUS
 10
261.4688442888
 20
183.9499932651
 40
0.75
 50
180.0
 51
270.0
  0
ARC
  8
0
 62
7
  6
CONTINUOUS
 10
279.0688442888
 20
183.9499932651
 40
0.75
 50
270.0
 51
360.0
  0
ARC
  8
0
 62
7
  6
CONTINUOUS
 10
292.8188442888
 20
183.9499932651
 40
0.75
 50
270.0
 51
360.0
  0
ARC
  8
0
 62
7
  6
CONTINUOUS
 10
288.3188442888
 20
183.9499932651
 40
0.75
 50
180.0
 51
270.0
  0
ARC
  8
0
 62
7
  6
CONTINUOUS
 10
322.9438442888
 20
183.9499932651
 40
0.75
 50
270.0
 51
360.0
  0
ARC
  8
0
 62
7
  6
CONTINUOUS
 10
318.4438442888
 20
183.9499932651
 40
0.75
 50
180.0
 51
270.0
  0
ARC
  8
0
 62
7
  6
CONTINUOUS
 10
265.9688442888
 20
183.9499932651
 40
0.75
 50
270.0
 51
360.0
  0
ARC
  8
0
 62
7
  6
CONTINUOUS
 10
330.8569854509
 20
182.9999932651
 40
0.1999999953
 50
89.9999853068
 51
176.499999103
  0
ARC
  8
0
 62
7
  6
CONTINUOUS
 10
300.9288442888
 20
183.3499932651
 40
0.15
 50
180.0
 51
270.0
  0
ARC
  8
0
 62
7
  6
CONTINUOUS
 10
309.2088442888
 20
183.3499932651
 40
0.15
 50
270.0
 51
360.0
  0
ARC
  8
0
 62
7
  6
CONTINUOUS
 10
330.9188442888
 20
183.3499932651
 40
0.15
 50
270.0
 51
360.0
  0
ARC
  8
0
 62
7
  6
CONTINUOUS
 10
279.0688442888
 20
194.4499932651
 40
0.75
 50
0.0
 51
90.0
  0
ARC
  8
0
 62
7
  6
CONTINUOUS
 10
292.8188442888
 20
194.4499932651
 40
0.75
 50
0.0
 51
90.0
  0
ARC
  8
0
 62
7
  6
CONTINUOUS
 10
265.9688442888
 20
194.4499932651
 40
0.75
 50
0.0
 51
90.0
  0
ARC
  8
0
 62
7
  6
CONTINUOUS
 10
274.5688442888
 20
194.4499932651
 40
0.75
 50
90.0
 51
180.0
  0
ARC
  8
0
 62
7
  6
CONTINUOUS
 10
288.3188442888
 20
194.4499932651
 40
0.75
 50
90.0
 51
180.0
  0
ARC
  8
0
 62
7
  6
CONTINUOUS
 10
307.3188442888
 20
194.4499932651
 40
0.75
 50
0.0
 51
90.0
  0
ARC
  8
0
 62
7
  6
CONTINUOUS
 10
302.8188442888
 20
194.4499932651
 40
0.75
 50
90.0
 51
180.0
  0
ARC
  8
0
 62
7
  6
CONTINUOUS
 10
318.4438442888
 20
194.4499932651
 40
0.75
 50
90.0
 51
180.0
  0
ARC
  8
0
 62
7
  6
CONTINUOUS
 10
322.9438442888
 20
194.4499932651
 40
0.75
 50
0.0
 51
90.0
  0
ARC
  8
0
 62
7
  6
CONTINUOUS
 10
261.4688442888
 20
194.4499932651
 40
0.75
 50
90.0
 51
180.0
  0
ARC
  8
0
 62
7
  6
CONTINUOUS
 10
326.7516320872
 20
195.0499932651
 40
0.15
 50
76.9081069356
 51
90.0
  0
ARC
  8
0
 62
7
  6
CONTINUOUS
 10
330.9188442888
 20
194.0808741484
 40
0.15
 50
0.0
 51
76.9081069357
  0
ARC
  8
0
 62
7
  6
CONTINUOUS
 10
40.7704613206
 20
104.85329209
 40
3.39
 50
235.7473426716
 51
270.0
  0
ARC
  8
0
 62
7
  6
CONTINUOUS
 10
42.517227257
 20
104.85329209
 40
3.39
 50
270.0
 51
304.2526573284
  0
ARC
  8
0
 62
7
  6
CONTINUOUS
 10
39.1438442888
 20
102.4645231535
 40
0.5
 50
180.0
 51
235.1584628881
  0
ARC
  8
0
 62
7
  6
CONTINUOUS
 10
44.1438442888
 20
102.4645231535
 40
0.5
 50
304.8415374385
 51
360.0
  0
ARC
  8
0
 62
7
  6
CONTINUOUS
 10
54.7688442888
 20
102.4928270045
 40
0.5
 50
180.0
 51
239.9394147354
  0
ARC
  8
0
 62
7
  6
CONTINUOUS
 10
59.7688442888
 20
102.4928270045
 40
0.5
 50
300.0605832408
 51
360.0
  0
ARC
  8
0
 62
7
  6
CONTINUOUS
 10
69.2688442888
 20
102.4928270045
 40
0.5
 50
180.0
 51
239.9394153889
  0
ARC
  8
0
 62
7
  6
CONTINUOUS
 10
54.1188442888
 20
104.1830436619
 40
0.15
 50
0.0
 51
77.3977351585
  0
ARC
  8
0
 62
7
  6
CONTINUOUS
 10
60.4188442888
 20
104.1830436619
 40
0.15
 50
102.6022648415
 51
180.0
  0
ARC
  8
0
 62
7
  6
CONTINUOUS
 10
57.7688442888
 20
106.0049587566
 40
4.5416666667
 50
270.0
 51
299.6595537732
  0
ARC
  8
0
 62
7
  6
CONTINUOUS
 10
56.7688442888
 20
106.0049587566
 40
4.5416666667
 50
240.3404462268
 51
270.0
  0
ARC
  8
0
 62
7
  6
CONTINUOUS
 10
60.0588442888
 20
105.79329209
 40
1.5
 50
282.6022648415
 51
85.8042132223
  0
ARC
  8
0
 62
7
  6
CONTINUOUS
 10
54.4788442888
 20
105.79329209
 40
1.5
 50
94.1957867777
 51
257.3977351585
  0
ARC
  8
0
 62
7
  6
CONTINUOUS
 10
60.1795663075
 20
107.4388698591
 40
0.15
 50
194.0362434679
 51
265.8042132221
  0
ARC
  8
0
 62
7
  6
CONTINUOUS
 10
54.3581222701
 20
107.4388698591
 40
0.15
 50
274.1957867779
 51
345.9637565321
  0
ARC
  8
0
 62
7
  6
CONTINUOUS
 10
54.4188442888
 20
106.4448262461
 40
0.15
 50
165.9637565321
 51
180.0
  0
ARC
  8
0
 62
7
  6
CONTINUOUS
 10
44.4938442888
 20
106.4448262461
 40
0.15
 50
0.0
 51
14.0362434679
  0
ARC
  8
0
 62
7
  6
CONTINUOUS
 10
68.9188442888
 20
106.4448262461
 40
0.15
 50
165.9637565321
 51
180.0
  0
ARC
  8
0
 62
7
  6
CONTINUOUS
 10
60.1188442888
 20
106.4448262461
 40
0.15
 50
0.0
 51
14.0362434679
  0
ARC
  8
0
 62
7
  6
CONTINUOUS
 10
38.7938442888
 20
106.4448262461
 40
0.15
 50
165.9637565321
 51
180.0
  0
ARC
  8
0
 62
7
  6
CONTINUOUS
 10
101.1188442888
 20
103.0285601582
 40
0.5
 50
317.0179814024
 51
360.0
  0
ARC
  8
0
 62
7
  6
CONTINUOUS
 10
96.1188442888
 20
103.0285601582
 40
0.5
 50
180.0
 51
223.0008752289
  0
ARC
  8
0
 62
7
  6
CONTINUOUS
 10
88.0188442888
 20
102.4928270045
 40
0.5
 50
300.0605836294
 51
360.0
  0
ARC
  8
0
 62
7
  6
CONTINUOUS
 10
83.0188442888
 20
102.4928270045
 40
0.5
 50
180.0
 51
239.9394145705
  0
ARC
  8
0
 62
7
  6
CONTINUOUS
 10
74.2688442888
 20
102.4928270045
 40
0.5
 50
300.060584327
 51
360.0
  0
ARC
  8
0
 62
7
  6
CONTINUOUS
 10
85.0188442888
 20
106.0049587566
 40
4.5416666667
 50
240.3404462268
 51
270.0
  0
ARC
  8
0
 62
7
  6
CONTINUOUS
 10
86.0188442888
 20
106.0049587566
 40
4.5416666667
 50
270.0
 51
299.6595537732
  0
ARC
  8
0
 62
7
  6
CONTINUOUS
 10
72.2688442888
 20
106.0049587566
 40
4.5416666667
 50
270.0
 51
299.6595537732
  0
ARC
  8
0
 62
7
  6
CONTINUOUS
 10
71.2688442888
 20
106.0049587566
 40
4.5416666667
 50
240.3404462268
 51
270.0
  0
ARC
  8
0
 62
7
  6
CONTINUOUS
 10
98.6688442888
 20
105.31329209
 40
3.85
 50
270.0
 51
316.9991247711
  0
ARC
  8
0
 62
7
  6
CONTINUOUS
 10
98.5688442888
 20
105.31329209
 40
3.85
 50
223.0008752289
 51
270.0
  0
ARC
  8
0
 62
7
  6
CONTINUOUS
 10
101.4688442888
 20
106.4448262461
 40
0.15
 50
0.0
 51
14.0362434679
  0
ARC
  8
0
 62
7
  6
CONTINUOUS
 10
95.7688442888
 20
106.4448262461
 40
0.15
 50
165.9637565321
 51
180.0
  0
ARC
  8
0
 62
7
  6
CONTINUOUS
 10
82.6688442888
 20
106.4448262461
 40
0.15
 50
165.9637565321
 51
180.0
  0
ARC
  8
0
 62
7
  6
CONTINUOUS
 10
74.6188442888
 20
106.4448262461
 40
0.15
 50
0.0
 51
14.0362434679
  0
ARC
  8
0
 62
7
  6
CONTINUOUS
 10
88.3688442888
 20
106.4448262461
 40
0.15
 50
0.0
 51
14.0362434679
  0
ARC
  8
0
 62
7
  6
CONTINUOUS
 10
54.5188442888
 20
109.5248449028
 40
0.5
 50
345.9637565321
 51
360.0
  0
ARC
  8
0
 62
7
  6
CONTINUOUS
 10
44.3938442888
 20
109.5248449028
 40
0.5
 50
180.0
 51
194.0362434679
  0
ARC
  8
0
 62
7
  6
CONTINUOUS
 10
60.0188442888
 20
109.5248449028
 40
0.5
 50
180.0
 51
194.0362434679
  0
ARC
  8
0
 62
7
  6
CONTINUOUS
 10
38.8938442888
 20
109.5248449028
 40
0.5
 50
345.9637565321
 51
360.0
  0
ARC
  8
0
 62
7
  6
CONTINUOUS
 10
33.3938442888
 20
112.8047887073
 40
6.0
 50
0.0
 51
70.0
  0
ARC
  8
0
 62
7
  6
CONTINUOUS
 10
47.8938442888
 20
114.21329209
 40
4.0
 50
90.0
 51
180.0
  0
ARC
  8
0
 62
7
  6
CONTINUOUS
 10
52.0188442888
 20
115.21329209
 40
3.0
 50
0.0
 51
90.0
  0
ARC
  8
0
 62
7
  6
CONTINUOUS
 10
66.8188442888
 20
115.36329209
 40
2.7
 50
0.0
 51
90.0
  0
ARC
  8
0
 62
7
  6
CONTINUOUS
 10
62.2188442888
 20
115.36329209
 40
2.7
 50
90.0
 51
180.0
  0
ARC
  8
0
 62
7
  6
CONTINUOUS
 10
101.3688442888
 20
109.5248449028
 40
0.5
 50
180.0
 51
194.0362434679
  0
ARC
  8
0
 62
7
  6
CONTINUOUS
 10
95.8688442888
 20
109.5248449028
 40
0.5
 50
345.9637565321
 51
360.0
  0
ARC
  8
0
 62
7
  6
CONTINUOUS
 10
69.0188442888
 20
109.5248449028
 40
0.5
 50
345.9637565321
 51
360.0
  0
ARC
  8
0
 62
7
  6
CONTINUOUS
 10
82.7688442888
 20
109.5248449028
 40
0.5
 50
345.9637565321
 51
360.0
  0
ARC
  8
0
 62
7
  6
CONTINUOUS
 10
74.5188442888
 20
109.5248449028
 40
0.5
 50
180.0
 51
194.0362434679
  0
ARC
  8
0
 62
7
  6
CONTINUOUS
 10
88.2688442888
 20
109.5248449028
 40
0.5
 50
180.0
 51
194.0362434679
  0
ARC
  8
0
 62
7
  6
CONTINUOUS
 10
80.5688442888
 20
115.36329209
 40
2.7
 50
0.0
 51
90.0
  0
ARC
  8
0
 62
7
  6
CONTINUOUS
 10
76.7188442888
 20
115.36329209
 40
2.7
 50
90.0
 51
180.0
  0
ARC
  8
0
 62
7
  6
CONTINUOUS
 10
90.2688442888
 20
115.3293025785
 40
2.5
 50
90.0
 51
180.0
  0
ARC
  8
0
 62
7
  6
CONTINUOUS
 10
102.8688442888
 20
115.8293025785
 40
2.0
 50
90.0
 51
180.0
  0
ARC
  8
0
 62
7
  6
CONTINUOUS
 10
94.3688442888
 20
115.8293025785
 40
2.0
 50
0.0
 51
90.0
  0
ARC
  8
0
 62
7
  6
CONTINUOUS
 10
139.2188442888
 20
103.0285601582
 40
0.5
 50
317.0179822902
 51
360.0
  0
ARC
  8
0
 62
7
  6
CONTINUOUS
 10
134.2188442888
 20
103.0285601582
 40
0.5
 50
180.0
 51
223.0008752289
  0
ARC
  8
0
 62
7
  6
CONTINUOUS
 10
126.5188442888
 20
103.0285601582
 40
0.5
 50
317.0179828355
 51
360.0
  0
ARC
  8
0
 62
7
  6
CONTINUOUS
 10
121.5188442888
 20
103.0285601582
 40
0.5
 50
180.0
 51
223.0008752289
  0
ARC
  8
0
 62
7
  6
CONTINUOUS
 10
108.8188442888
 20
103.0285601582
 40
0.5
 50
180.0
 51
223.0008752289
  0
ARC
  8
0
 62
7
  6
CONTINUOUS
 10
113.8188442888
 20
103.0285601582
 40
0.5
 50
317.0179863256
 51
360.0
  0
ARC
  8
0
 62
7
  6
CONTINUOUS
 10
136.7688442888
 20
105.31329209
 40
3.85
 50
270.0
 51
316.9991247711
  0
ARC
  8
0
 62
7
  6
CONTINUOUS
 10
136.6688442888
 20
105.31329209
 40
3.85
 50
223.0008752289
 51
270.0
  0
ARC
  8
0
 62
7
  6
CONTINUOUS
 10
124.0688442888
 20
105.31329209
 40
3.85
 50
270.0
 51
316.9991247711
  0
ARC
  8
0
 62
7
  6
CONTINUOUS
 10
123.9688442888
 20
105.31329209
 40
3.85
 50
223.0008752289
 51
270.0
  0
ARC
  8
0
 62
7
  6
CONTINUOUS
 10
111.2688442888
 20
105.31329209
 40
3.85
 50
223.0008752289
 51
270.0
  0
ARC
  8
0
 62
7
  6
CONTINUOUS
 10
111.3688442888
 20
105.31329209
 40
3.85
 50
270.0
 51
316.9991247711
  0
ARC
  8
0
 62
7
  6
CONTINUOUS
 10
139.5688442888
 20
106.4448262461
 40
0.15
 50
0.0
 51
14.0362434679
  0
ARC
  8
0
 62
7
  6
CONTINUOUS
 10
133.8688442888
 20
106.4448262461
 40
0.15
 50
165.9637565321
 51
180.0
  0
ARC
  8
0
 62
7
  6
CONTINUOUS
 10
126.8688442888
 20
106.4448262461
 40
0.15
 50
0.0
 51
14.0362434679
  0
ARC
  8
0
 62
7
  6
CONTINUOUS
 10
121.1688442888
 20
106.4448262461
 40
0.15
 50
165.9637565321
 51
180.0
  0
ARC
  8
0
 62
7
  6
CONTINUOUS
 10
114.1688442888
 20
106.4448262461
 40
0.15
 50
0.0
 51
14.0362434679
  0
ARC
  8
0
 62
7
  6
CONTINUOUS
 10
108.4688442888
 20
106.4448262461
 40
0.15
 50
165.9637565321
 51
180.0
  0
ARC
  8
0
 62
7
  6
CONTINUOUS
 10
172.3188442888
 20
103.0285601582
 40
0.5
 50
180.0
 51
223.0008752289
  0
ARC
  8
0
 62
7
  6
CONTINUOUS
 10
159.6188442888
 20
103.0285601582
 40
0.5
 50
180.0
 51
223.0008752289
  0
ARC
  8
0
 62
7
  6
CONTINUOUS
 10
146.9188442888
 20
103.0285601582
 40
0.5
 50
180.0
 51
223.0008752289
  0
ARC
  8
0
 62
7
  6
CONTINUOUS
 10
151.9188442888
 20
103.0285601582
 40
0.5
 50
317.0179823714
 51
360.0
  0
ARC
  8
0
 62
7
  6
CONTINUOUS
 10
164.6188442888
 20
103.0285601582
 40
0.5
 50
317.0179830211
 51
360.0
  0
ARC
  8
0
 62
7
  6
CONTINUOUS
 10
177.3188442888
 20
103.0285601582
 40
0.5
 50
317.0179833095
 51
360.0
  0
ARC
  8
0
 62
7
  6
CONTINUOUS
 10
149.3688442888
 20
105.31329209
 40
3.85
 50
223.0008752289
 51
270.0
  0
ARC
  8
0
 62
7
  6
CONTINUOUS
 10
149.4688442888
 20
105.31329209
 40
3.85
 50
270.0
 51
316.9991247711
  0
ARC
  8
0
 62
7
  6
CONTINUOUS
 10
162.0688442888
 20
105.31329209
 40
3.85
 50
223.0008752289
 51
270.0
  0
ARC
  8
0
 62
7
  6
CONTINUOUS
 10
162.1688442888
 20
105.31329209
 40
3.85
 50
270.0
 51
316.9991247711
  0
ARC
  8
0
 62
7
  6
CONTINUOUS
 10
174.8688442888
 20
105.31329209
 40
3.85
 50
270.0
 51
316.9991247711
  0
ARC
  8
0
 62
7
  6
CONTINUOUS
 10
174.7688442888
 20
105.31329209
 40
3.85
 50
223.0008752289
 51
270.0
  0
ARC
  8
0
 62
7
  6
CONTINUOUS
 10
177.6688442888
 20
106.4448262461
 40
0.15
 50
0.0
 51
14.0362434679
  0
ARC
  8
0
 62
7
  6
CONTINUOUS
 10
171.9688442888
 20
106.4448262461
 40
0.15
 50
165.9637565321
 51
180.0
  0
ARC
  8
0
 62
7
  6
CONTINUOUS
 10
164.9688442888
 20
106.4448262461
 40
0.15
 50
0.0
 51
14.0362434679
  0
ARC
  8
0
 62
7
  6
CONTINUOUS
 10
159.2688442888
 20
106.4448262461
 40
0.15
 50
165.9637565321
 51
180.0
  0
ARC
  8
0
 62
7
  6
CONTINUOUS
 10
152.2688442888
 20
106.4448262461
 40
0.15
 50
0.0
 51
14.0362434679
  0
ARC
  8
0
 62
7
  6
CONTINUOUS
 10
146.5688442888
 20
106.4448262461
 40
0.15
 50
165.9637565321
 51
180.0
  0
ARC
  8
0
 62
7
  6
CONTINUOUS
 10
139.4688442888
 20
109.5248449028
 40
0.5
 50
180.0
 51
194.0362434679
  0
ARC
  8
0
 62
7
  6
CONTINUOUS
 10
133.9688442888
 20
109.5248449028
 40
0.5
 50
345.9637565321
 51
360.0
  0
ARC
  8
0
 62
7
  6
CONTINUOUS
 10
126.7688442888
 20
109.5248449028
 40
0.5
 50
180.0
 51
194.0362434679
  0
ARC
  8
0
 62
7
  6
CONTINUOUS
 10
121.2688442888
 20
109.5248449028
 40
0.5
 50
345.9637565321
 51
360.0
  0
ARC
  8
0
 62
7
  6
CONTINUOUS
 10
114.0688442888
 20
109.5248449028
 40
0.5
 50
180.0
 51
194.0362434679
  0
ARC
  8
0
 62
7
  6
CONTINUOUS
 10
108.5688442888
 20
109.5248449028
 40
0.5
 50
345.9637565321
 51
360.0
  0
ARC
  8
0
 62
7
  6
CONTINUOUS
 10
140.9688442888
 20
115.8293025785
 40
2.0
 50
90.0
 51
180.0
  0
ARC
  8
0
 62
7
  6
CONTINUOUS
 10
132.4688442888
 20
115.8293025785
 40
2.0
 50
0.0
 51
90.0
  0
ARC
  8
0
 62
7
  6
CONTINUOUS
 10
128.2688442888
 20
115.8293025785
 40
2.0
 50
90.0
 51
180.0
  0
ARC
  8
0
 62
7
  6
CONTINUOUS
 10
119.7688442888
 20
115.8293025785
 40
2.0
 50
0.0
 51
90.0
  0
ARC
  8
0
 62
7
  6
CONTINUOUS
 10
115.5688442888
 20
115.8293025785
 40
2.0
 50
90.0
 51
180.0
  0
ARC
  8
0
 62
7
  6
CONTINUOUS
 10
107.0688442888
 20
115.8293025785
 40
2.0
 50
0.0
 51
90.0
  0
ARC
  8
0
 62
7
  6
CONTINUOUS
 10
146.6688442888
 20
109.5248449028
 40
0.5
 50
345.9637565321
 51
360.0
  0
ARC
  8
0
 62
7
  6
CONTINUOUS
 10
152.1688442888
 20
109.5248449028
 40
0.5
 50
180.0
 51
194.0362434679
  0
ARC
  8
0
 62
7
  6
CONTINUOUS
 10
164.8688442888
 20
109.5248449028
 40
0.5
 50
180.0
 51
194.0362434679
  0
ARC
  8
0
 62
7
  6
CONTINUOUS
 10
159.3688442888
 20
109.5248449028
 40
0.5
 50
345.9637565321
 51
360.0
  0
ARC
  8
0
 62
7
  6
CONTINUOUS
 10
172.0688442888
 20
109.5248449028
 40
0.5
 50
345.9637565321
 51
360.0
  0
ARC
  8
0
 62
7
  6
CONTINUOUS
 10
177.5688442888
 20
109.5248449028
 40
0.5
 50
180.0
 51
194.0362434679
  0
ARC
  8
0
 62
7
  6
CONTINUOUS
 10
145.1688442888
 20
115.8293025785
 40
2.0
 50
0.0
 51
90.0
  0
ARC
  8
0
 62
7
  6
CONTINUOUS
 10
153.6688442888
 20
115.8293025785
 40
2.0
 50
90.0
 51
180.0
  0
ARC
  8
0
 62
7
  6
CONTINUOUS
 10
157.8688442888
 20
115.8293025785
 40
2.0
 50
0.0
 51
90.0
  0
ARC
  8
0
 62
7
  6
CONTINUOUS
 10
166.3688442888
 20
115.8293025785
 40
2.0
 50
90.0
 51
180.0
  0
ARC
  8
0
 62
7
  6
CONTINUOUS
 10
170.5688442888
 20
115.8293025785
 40
2.0
 50
0.0
 51
90.0
  0
ARC
  8
0
 62
7
  6
CONTINUOUS
 10
179.0688442888
 20
115.8293025785
 40
2.0
 50
90.0
 51
180.0
  0
ARC
  8
0
 62
7
  6
CONTINUOUS
 10
41.2188442888
 20
124.2918246987
 40
5.5285326087
 50
192.0717067813
 51
270.0
  0
ARC
  8
0
 62
7
  6
CONTINUOUS
 10
58.0188442888
 20
123.36329209
 40
4.5
 50
270.0
 51
360.0
  0
ARC
  8
0
 62
7
  6
CONTINUOUS
 10
56.5188442888
 20
123.36329209
 40
4.5
 50
180.0
 51
270.0
  0
ARC
  8
0
 62
7
  6
CONTINUOUS
 10
43.0188442888
 20
123.26329209
 40
4.5
 50
270.0
 51
360.0
  0
ARC
  8
0
 62
7
  6
CONTINUOUS
 10
34.2688442888
 20
122.0639147046
 40
3.0
 50
180.0
 51
250.0
  0
ARC
  8
0
 62
7
  6
CONTINUOUS
 10
36.301509486
 20
123.2401790196
 40
0.5
 50
143.1301023542
 51
192.0717067813
  0
ARC
  8
0
 62
7
  6
CONTINUOUS
 10
36.3688442888
 20
124.41329209
 40
0.15
 50
323.1301023541
 51
360.0
  0
ARC
  8
0
 62
7
  6
CONTINUOUS
 10
52.5188442888
 20
127.5017392772
 40
0.5
 50
165.9637565321
 51
180.0
  0
ARC
  8
0
 62
7
  6
CONTINUOUS
 10
47.0188442888
 20
127.5017392772
 40
0.5
 50
0.0
 51
14.0362434679
  0
ARC
  8
0
 62
7
  6
CONTINUOUS
 10
84.8688442888
 20
122.86329209
 40
3.85
 50
180.0
 51
270.0
  0
ARC
  8
0
 62
7
  6
CONTINUOUS
 10
70.8688442888
 20
122.86329209
 40
3.85
 50
180.0
 51
270.0
  0
ARC
  8
0
 62
7
  6
CONTINUOUS
 10
72.6688442888
 20
122.86329209
 40
3.85
 50
270.0
 51
360.0
  0
ARC
  8
0
 62
7
  6
CONTINUOUS
 10
81.5188442888
 20
127.5017392772
 40
0.5
 50
165.9637565321
 51
180.0
  0
ARC
  8
0
 62
7
  6
CONTINUOUS
 10
67.5188442888
 20
127.5017392772
 40
0.5
 50
165.9637565321
 51
180.0
  0
ARC
  8
0
 62
7
  6
CONTINUOUS
 10
76.0188442888
 20
127.5017392772
 40
0.5
 50
0.0
 51
14.0362434679
  0
ARC
  8
0
 62
7
  6
CONTINUOUS
 10
62.0188442888
 20
127.5017392772
 40
0.5
 50
0.0
 51
14.0362434679
  0
ARC
  8
SURFACE
 62
7
  6
CONTINUOUS
 10
-8.6429772398
 20
129.36329209
 40
45.4325215286
 50
353.7423076034
 51
6.2576923966
  0
ARC
  8
0
 62
7
  6
CONTINUOUS
 10
33.7688442888
 20
133.503765803
 40
2.5
 50
70.0
 51
180.0
  0
ARC
  8
0
 62
7
  6
CONTINUOUS
 10
81.0188442888
 20
134.81329209
 40
0.75
 50
0.0
 51
90.0
  0
ARC
  8
0
 62
7
  6
CONTINUOUS
 10
67.0188442888
 20
134.81329209
 40
0.75
 50
0.0
 51
90.0
  0
ARC
  8
0
 62
7
  6
CONTINUOUS
 10
52.0188442888
 20
134.81329209
 40
0.75
 50
0.0
 51
90.0
  0
ARC
  8
0
 62
7
  6
CONTINUOUS
 10
47.5188442888
 20
134.81329209
 40
0.75
 50
90.0
 51
180.0
  0
ARC
  8
0
 62
7
  6
CONTINUOUS
 10
62.5188442888
 20
134.81329209
 40
0.75
 50
90.0
 51
180.0
  0
ARC
  8
0
 62
7
  6
CONTINUOUS
 10
76.5188442888
 20
134.81329209
 40
0.75
 50
90.0
 51
180.0
  0
ARC
  8
0
 62
7
  6
CONTINUOUS
 10
81.6188442888
 20
130.5817579338
 40
0.15
 50
345.9637565321
 51
360.0
  0
ARC
  8
0
 62
7
  6
CONTINUOUS
 10
67.6188442888
 20
130.5817579338
 40
0.15
 50
345.9637565321
 51
360.0
  0
ARC
  8
0
 62
7
  6
CONTINUOUS
 10
52.6188442888
 20
130.5817579338
 40
0.15
 50
345.9637565321
 51
360.0
  0
ARC
  8
0
 62
7
  6
CONTINUOUS
 10
75.9188442888
 20
130.5817579338
 40
0.15
 50
180.0
 51
194.0362434679
  0
ARC
  8
0
 62
7
  6
CONTINUOUS
 10
61.9188442888
 20
130.5817579338
 40
0.15
 50
180.0
 51
194.0362434679
  0
ARC
  8
0
 62
7
  6
CONTINUOUS
 10
36.3688442888
 20
135.0582609592
 40
0.15
 50
0.0
 51
70.0
  0
ARC
  8
0
 62
7
  6
CONTINUOUS
 10
46.9188442888
 20
130.5817579338
 40
0.15
 50
180.0
 51
194.0362434679
  0
ARC
  8
0
 62
7
  6
CONTINUOUS
 10
124.0188442888
 20
123.31329209
 40
4.1
 50
180.0
 51
360.0
  0
ARC
  8
0
 62
7
  6
CONTINUOUS
 10
111.3188442888
 20
123.31329209
 40
4.1
 50
180.0
 51
360.0
  0
ARC
  8
0
 62
7
  6
CONTINUOUS
 10
98.6188442888
 20
123.31329209
 40
4.1
 50
180.0
 51
360.0
  0
ARC
  8
0
 62
7
  6
CONTINUOUS
 10
86.1688442888
 20
122.86329209
 40
3.85
 50
270.0
 51
360.0
  0
ARC
  8
0
 62
7
  6
CONTINUOUS
 10
127.6188442888
 20
127.5017392772
 40
0.5
 50
0.0
 51
14.0362434679
  0
ARC
  8
0
 62
7
  6
CONTINUOUS
 10
120.4188442888
 20
127.5017392772
 40
0.5
 50
165.9637565321
 51
180.0
  0
ARC
  8
0
 62
7
  6
CONTINUOUS
 10
107.7188442888
 20
127.5017392772
 40
0.5
 50
165.9637565321
 51
180.0
  0
ARC
  8
0
 62
7
  6
CONTINUOUS
 10
114.9188442888
 20
127.5017392772
 40
0.5
 50
0.0
 51
14.0362434679
  0
ARC
  8
0
 62
7
  6
CONTINUOUS
 10
102.2188442888
 20
127.5017392772
 40
0.5
 50
0.0
 51
14.0362434679
  0
ARC
  8
0
 62
7
  6
CONTINUOUS
 10
95.0188442888
 20
127.5017392772
 40
0.5
 50
165.9637565321
 51
180.0
  0
ARC
  8
0
 62
7
  6
CONTINUOUS
 10
89.5188442888
 20
127.5017392772
 40
0.5
 50
0.0
 51
14.0362434679
  0
ARC
  8
0
 62
7
  6
CONTINUOUS
 10
136.7188442888
 20
123.31329209
 40
4.1
 50
180.0
 51
360.0
  0
ARC
  8
0
 62
7
  6
CONTINUOUS
 10
149.4188442888
 20
123.31329209
 40
4.1
 50
180.0
 51
360.0
  0
ARC
  8
0
 62
7
  6
CONTINUOUS
 10
162.1188442888
 20
123.31329209
 40
4.1
 50
180.0
 51
360.0
  0
ARC
  8
0
 62
7
  6
CONTINUOUS
 10
174.8188442888
 20
123.31329209
 40
4.1
 50
180.0
 51
360.0
  0
ARC
  8
0
 62
7
  6
CONTINUOUS
 10
140.3188442888
 20
127.5017392772
 40
0.5
 50
0.0
 51
14.0362434679
  0
ARC
  8
0
 62
7
  6
CONTINUOUS
 10
133.1188442888
 20
127.5017392772
 40
0.5
 50
165.9637565321
 51
180.0
  0
ARC
  8
0
 62
7
  6
CONTINUOUS
 10
145.8188442888
 20
127.5017392772
 40
0.5
 50
165.9637565321
 51
180.0
  0
ARC
  8
0
 62
7
  6
CONTINUOUS
 10
153.0188442888
 20
127.5017392772
 40
0.5
 50
0.0
 51
14.0362434679
  0
ARC
  8
0
 62
7
  6
CONTINUOUS
 10
158.5188442888
 20
127.5017392772
 40
0.5
 50
165.9637565321
 51
180.0
  0
ARC
  8
0
 62
7
  6
CONTINUOUS
 10
165.7188442888
 20
127.5017392772
 40
0.5
 50
0.0
 51
14.0362434679
  0
ARC
  8
0
 62
7
  6
CONTINUOUS
 10
178.4188442888
 20
127.5017392772
 40
0.5
 50
0.0
 51
14.0362434679
  0
ARC
  8
0
 62
7
  6
CONTINUOUS
 10
171.2188442888
 20
127.5017392772
 40
0.5
 50
165.9637565321
 51
180.0
  0
ARC
  8
0
 62
7
  6
CONTINUOUS
 10
170.7188442888
 20
134.81329209
 40
0.75
 50
0.0
 51
90.0
  0
ARC
  8
0
 62
7
  6
CONTINUOUS
 10
178.9188442888
 20
134.81329209
 40
0.75
 50
90.0
 51
180.0
  0
ARC
  8
0
 62
7
  6
CONTINUOUS
 10
94.5188442888
 20
134.81329209
 40
0.75
 50
0.0
 51
90.0
  0
ARC
  8
0
 62
7
  6
CONTINUOUS
 10
166.2188442888
 20
134.81329209
 40
0.75
 50
90.0
 51
180.0
  0
ARC
  8
0
 62
7
  6
CONTINUOUS
 10
153.5188442888
 20
134.81329209
 40
0.75
 50
90.0
 51
180.0
  0
ARC
  8
0
 62
7
  6
CONTINUOUS
 10
107.2188442888
 20
134.81329209
 40
0.75
 50
0.0
 51
90.0
  0
ARC
  8
0
 62
7
  6
CONTINUOUS
 10
140.8188442888
 20
134.81329209
 40
0.75
 50
90.0
 51
180.0
  0
ARC
  8
0
 62
7
  6
CONTINUOUS
 10
132.6188442888
 20
134.81329209
 40
0.75
 50
0.0
 51
90.0
  0
ARC
  8
0
 62
7
  6
CONTINUOUS
 10
145.3188442888
 20
134.81329209
 40
0.75
 50
0.0
 51
90.0
  0
ARC
  8
0
 62
7
  6
CONTINUOUS
 10
119.9188442888
 20
134.81329209
 40
0.75
 50
0.0
 51
90.0
  0
ARC
  8
0
 62
7
  6
CONTINUOUS
 10
128.1188442888
 20
134.81329209
 40
0.75
 50
90.0
 51
180.0
  0
ARC
  8
0
 62
7
  6
CONTINUOUS
 10
158.0188442888
 20
134.81329209
 40
0.75
 50
0.0
 51
90.0
  0
ARC
  8
0
 62
7
  6
CONTINUOUS
 10
115.4188442888
 20
134.81329209
 40
0.75
 50
90.0
 51
180.0
  0
ARC
  8
0
 62
7
  6
CONTINUOUS
 10
102.7188442888
 20
134.81329209
 40
0.75
 50
90.0
 51
180.0
  0
ARC
  8
0
 62
7
  6
CONTINUOUS
 10
90.0188442888
 20
134.81329209
 40
0.75
 50
90.0
 51
180.0
  0
ARC
  8
0
 62
7
  6
CONTINUOUS
 10
178.3188442888
 20
130.5817579338
 40
0.15
 50
180.0
 51
194.0362434679
  0
ARC
  8
0
 62
7
  6
CONTINUOUS
 10
171.3188442888
 20
130.5817579338
 40
0.15
 50
345.9637565321
 51
360.0
  0
ARC
  8
0
 62
7
  6
CONTINUOUS
 10
165.6188442888
 20
130.5817579338
 40
0.15
 50
180.0
 51
194.0362434679
  0
ARC
  8
0
 62
7
  6
CONTINUOUS
 10
158.6188442888
 20
130.5817579338
 40
0.15
 50
345.9637565321
 51
360.0
  0
ARC
  8
0
 62
7
  6
CONTINUOUS
 10
152.9188442888
 20
130.5817579338
 40
0.15
 50
180.0
 51
194.0362434679
  0
ARC
  8
0
 62
7
  6
CONTINUOUS
 10
145.9188442888
 20
130.5817579338
 40
0.15
 50
345.9637565321
 51
360.0
  0
ARC
  8
0
 62
7
  6
CONTINUOUS
 10
140.2188442888
 20
130.5817579338
 40
0.15
 50
180.0
 51
194.0362434679
  0
ARC
  8
0
 62
7
  6
CONTINUOUS
 10
133.2188442888
 20
130.5817579338
 40
0.15
 50
345.9637565321
 51
360.0
  0
ARC
  8
0
 62
7
  6
CONTINUOUS
 10
127.5188442888
 20
130.5817579338
 40
0.15
 50
180.0
 51
194.0362434679
  0
ARC
  8
0
 62
7
  6
CONTINUOUS
 10
120.5188442888
 20
130.5817579338
 40
0.15
 50
345.9637565321
 51
360.0
  0
ARC
  8
0
 62
7
  6
CONTINUOUS
 10
114.8188442888
 20
130.5817579338
 40
0.15
 50
180.0
 51
194.0362434679
  0
ARC
  8
0
 62
7
  6
CONTINUOUS
 10
107.8188442888
 20
130.5817579338
 40
0.15
 50
345.9637565321
 51
360.0
  0
ARC
  8
0
 62
7
  6
CONTINUOUS
 10
102.1188442888
 20
130.5817579338
 40
0.15
 50
180.0
 51
194.0362434679
  0
ARC
  8
0
 62
7
  6
CONTINUOUS
 10
95.1188442888
 20
130.5817579338
 40
0.15
 50
345.9637565321
 51
360.0
  0
ARC
  8
0
 62
7
  6
CONTINUOUS
 10
89.4188442888
 20
130.5817579338
 40
0.15
 50
180.0
 51
194.0362434679
  0
ARC
  8
0
 62
7
  6
CONTINUOUS
 10
210.4188442888
 20
103.0285601582
 40
0.5
 50
180.0
 51
223.0008752289
  0
ARC
  8
0
 62
7
  6
CONTINUOUS
 10
215.4188442888
 20
103.0285601582
 40
0.5
 50
317.0229195355
 51
360.0
  0
ARC
  8
0
 62
7
  6
CONTINUOUS
 10
197.7188442888
 20
103.0285601582
 40
0.5
 50
180.0
 51
223.0008752289
  0
ARC
  8
0
 62
7
  6
CONTINUOUS
 10
202.7188442888
 20
103.0285601582
 40
0.5
 50
317.0190873643
 51
360.0
  0
ARC
  8
0
 62
7
  6
CONTINUOUS
 10
185.0188442888
 20
103.0285601582
 40
0.5
 50
180.0
 51
223.0008752289
  0
ARC
  8
0
 62
7
  6
CONTINUOUS
 10
190.0188442888
 20
103.0285601582
 40
0.5
 50
317.0190871469
 51
360.0
  0
ARC
  8
0
 62
7
  6
CONTINUOUS
 10
212.9688442888
 20
105.31329209
 40
3.85
 50
270.0
 51
316.9991247711
  0
ARC
  8
0
 62
7
  6
CONTINUOUS
 10
212.8688442888
 20
105.31329209
 40
3.85
 50
223.0008752289
 51
270.0
  0
ARC
  8
0
 62
7
  6
CONTINUOUS
 10
200.1688442888
 20
105.31329209
 40
3.85
 50
223.0008752289
 51
270.0
  0
ARC
  8
0
 62
7
  6
CONTINUOUS
 10
200.2688442888
 20
105.31329209
 40
3.85
 50
270.0
 51
316.9991247711
  0
ARC
  8
0
 62
7
  6
CONTINUOUS
 10
187.4688442888
 20
105.31329209
 40
3.85
 50
223.0008752289
 51
270.0
  0
ARC
  8
0
 62
7
  6
CONTINUOUS
 10
187.5688442888
 20
105.31329209
 40
3.85
 50
270.0
 51
316.9991247711
  0
ARC
  8
0
 62
7
  6
CONTINUOUS
 10
210.0688442888
 20
106.4448262461
 40
0.15
 50
165.9637565321
 51
180.0
  0
ARC
  8
0
 62
7
  6
CONTINUOUS
 10
215.7688442888
 20
106.4448262461
 40
0.15
 50
0.0
 51
14.0362434679
  0
ARC
  8
0
 62
7
  6
CONTINUOUS
 10
197.3688442888
 20
106.4448262461
 40
0.15
 50
165.9637565321
 51
180.0
  0
ARC
  8
0
 62
7
  6
CONTINUOUS
 10
203.0688442888
 20
106.4448262461
 40
0.15
 50
0.0
 51
14.0362434679
  0
ARC
  8
0
 62
7
  6
CONTINUOUS
 10
184.6688442888
 20
106.4448262461
 40
0.15
 50
165.9637565321
 51
180.0
  0
ARC
  8
0
 62
7
  6
CONTINUOUS
 10
190.3688442888
 20
106.4448262461
 40
0.15
 50
0.0
 51
14.0362434679
  0
ARC
  8
0
 62
7
  6
CONTINUOUS
 10
223.1188442888
 20
103.0285601582
 40
0.5
 50
180.0
 51
223.0008752289
  0
ARC
  8
0
 62
7
  6
CONTINUOUS
 10
228.1188442888
 20
103.0285601582
 40
0.5
 50
317.0229192103
 51
360.0
  0
ARC
  8
0
 62
7
  6
CONTINUOUS
 10
240.8188442888
 20
103.0285601582
 40
0.5
 50
317.0190880742
 51
360.0
  0
ARC
  8
0
 62
7
  6
CONTINUOUS
 10
235.8188442888
 20
103.0285601582
 40
0.5
 50
180.0
 51
223.0008752289
  0
ARC
  8
0
 62
7
  6
CONTINUOUS
 10
253.5188442888
 20
103.0285601582
 40
0.5
 50
317.0190879417
 51
360.0
  0
ARC
  8
0
 62
7
  6
CONTINUOUS
 10
248.5188442888
 20
103.0285601582
 40
0.5
 50
180.0
 51
223.0008752289
  0
ARC
  8
0
 62
7
  6
CONTINUOUS
 10
225.5688442888
 20
105.31329209
 40
3.85
 50
223.0008752289
 51
270.0
  0
ARC
  8
0
 62
7
  6
CONTINUOUS
 10
225.6688442888
 20
105.31329209
 40
3.85
 50
270.0
 51
316.9991247711
  0
ARC
  8
0
 62
7
  6
CONTINUOUS
 10
238.3688442888
 20
105.31329209
 40
3.85
 50
270.0
 51
316.9991247711
  0
ARC
  8
0
 62
7
  6
CONTINUOUS
 10
238.2688442888
 20
105.31329209
 40
3.85
 50
223.0008752289
 51
270.0
  0
ARC
  8
0
 62
7
  6
CONTINUOUS
 10
251.0688442888
 20
105.31329209
 40
3.85
 50
270.0
 51
316.9991247711
  0
ARC
  8
0
 62
7
  6
CONTINUOUS
 10
250.9688442888
 20
105.31329209
 40
3.85
 50
223.0008752289
 51
270.0
  0
ARC
  8
0
 62
7
  6
CONTINUOUS
 10
228.4688442888
 20
106.4448262461
 40
0.15
 50
0.0
 51
14.0362434679
  0
ARC
  8
0
 62
7
  6
CONTINUOUS
 10
222.7688442888
 20
106.4448262461
 40
0.15
 50
165.9637565321
 51
180.0
  0
ARC
  8
0
 62
7
  6
CONTINUOUS
 10
241.1688442888
 20
106.4448262461
 40
0.15
 50
0.0
 51
14.0362434679
  0
ARC
  8
0
 62
7
  6
CONTINUOUS
 10
235.4688442888
 20
106.4448262461
 40
0.15
 50
165.9637565321
 51
180.0
  0
ARC
  8
0
 62
7
  6
CONTINUOUS
 10
253.8688442888
 20
106.4448262461
 40
0.15
 50
0.0
 51
14.0362434679
  0
ARC
  8
0
 62
7
  6
CONTINUOUS
 10
248.1688442888
 20
106.4448262461
 40
0.15
 50
165.9637565321
 51
180.0
  0
ARC
  8
0
 62
7
  6
CONTINUOUS
 10
215.6688442888
 20
109.5248449028
 40
0.5
 50
180.0
 51
194.0362434679
  0
ARC
  8
0
 62
7
  6
CONTINUOUS
 10
210.1688442888
 20
109.5248449028
 40
0.5
 50
345.9637565321
 51
360.0
  0
ARC
  8
0
 62
7
  6
CONTINUOUS
 10
197.4688442888
 20
109.5248449028
 40
0.5
 50
345.9637565321
 51
360.0
  0
ARC
  8
0
 62
7
  6
CONTINUOUS
 10
202.9688442888
 20
109.5248449028
 40
0.5
 50
180.0
 51
194.0362434679
  0
ARC
  8
0
 62
7
  6
CONTINUOUS
 10
184.7688442888
 20
109.5248449028
 40
0.5
 50
345.9637565321
 51
360.0
  0
ARC
  8
0
 62
7
  6
CONTINUOUS
 10
190.2688442888
 20
109.5248449028
 40
0.5
 50
180.0
 51
194.0362434679
  0
ARC
  8
0
 62
7
  6
CONTINUOUS
 10
217.1688442888
 20
115.8293025785
 40
2.0
 50
90.0
 51
180.0
  0
ARC
  8
0
 62
7
  6
CONTINUOUS
 10
208.6688442888
 20
115.8293025785
 40
2.0
 50
0.0
 51
90.0
  0
ARC
  8
0
 62
7
  6
CONTINUOUS
 10
195.9688442888
 20
115.8293025785
 40
2.0
 50
0.0
 51
90.0
  0
ARC
  8
0
 62
7
  6
CONTINUOUS
 10
204.4688442888
 20
115.8293025785
 40
2.0
 50
90.0
 51
180.0
  0
ARC
  8
0
 62
7
  6
CONTINUOUS
 10
183.2688442888
 20
115.8293025785
 40
2.0
 50
0.0
 51
90.0
  0
ARC
  8
0
 62
7
  6
CONTINUOUS
 10
191.7688442888
 20
115.8293025785
 40
2.0
 50
90.0
 51
180.0
  0
ARC
  8
0
 62
7
  6
CONTINUOUS
 10
228.3688442888
 20
109.5248449028
 40
0.5
 50
180.0
 51
194.0362434679
  0
ARC
  8
0
 62
7
  6
CONTINUOUS
 10
222.8688442888
 20
109.5248449028
 40
0.5
 50
345.9637565321
 51
360.0
  0
ARC
  8
0
 62
7
  6
CONTINUOUS
 10
241.0688442888
 20
109.5248449028
 40
0.5
 50
180.0
 51
194.0362434679
  0
ARC
  8
0
 62
7
  6
CONTINUOUS
 10
235.5688442888
 20
109.5248449028
 40
0.5
 50
345.9637565321
 51
360.0
  0
ARC
  8
0
 62
7
  6
CONTINUOUS
 10
253.7688442888
 20
109.5248449028
 40
0.5
 50
180.0
 51
194.0362434679
  0
ARC
  8
0
 62
7
  6
CONTINUOUS
 10
248.2688442888
 20
109.5248449028
 40
0.5
 50
345.9637565321
 51
360.0
  0
ARC
  8
0
 62
7
  6
CONTINUOUS
 10
221.3688442888
 20
115.8293025785
 40
2.0
 50
0.0
 51
90.0
  0
ARC
  8
0
 62
7
  6
CONTINUOUS
 10
229.8688442888
 20
115.8293025785
 40
2.0
 50
90.0
 51
180.0
  0
ARC
  8
0
 62
7
  6
CONTINUOUS
 10
242.5688442888
 20
115.8293025785
 40
2.0
 50
90.0
 51
180.0
  0
ARC
  8
0
 62
7
  6
CONTINUOUS
 10
234.0688442888
 20
115.8293025785
 40
2.0
 50
0.0
 51
90.0
  0
ARC
  8
0
 62
7
  6
CONTINUOUS
 10
255.2688442888
 20
115.8293025785
 40
2.0
 50
90.0
 51
180.0
  0
ARC
  8
0
 62
7
  6
CONTINUOUS
 10
246.7688442888
 20
115.8293025785
 40
2.0
 50
0.0
 51
90.0
  0
ARC
  8
0
 62
7
  6
CONTINUOUS
 10
279.3188442888
 20
102.4928270045
 40
0.5
 50
300.0571784295
 51
360.0
  0
ARC
  8
0
 62
7
  6
CONTINUOUS
 10
288.0688442888
 20
102.4928270045
 40
0.5
 50
180.0
 51
239.9428215771
  0
ARC
  8
0
 62
7
  6
CONTINUOUS
 10
274.3188442888
 20
102.4928270045
 40
0.5
 50
180.0
 51
239.9428215864
  0
ARC
  8
0
 62
7
  6
CONTINUOUS
 10
266.2188442888
 20
103.0285601582
 40
0.5
 50
317.0190880207
 51
360.0
  0
ARC
  8
0
 62
7
  6
CONTINUOUS
 10
261.2188442888
 20
103.0285601582
 40
0.5
 50
180.0
 51
223.0008752289
  0
ARC
  8
0
 62
7
  6
CONTINUOUS
 10
277.3188442888
 20
106.0049587566
 40
4.5416666667
 50
270.0
 51
299.6595537732
  0
ARC
  8
0
 62
7
  6
CONTINUOUS
 10
290.0688442888
 20
106.0049587566
 40
4.5416666667
 50
240.3404462268
 51
270.0
  0
ARC
  8
0
 62
7
  6
CONTINUOUS
 10
291.0688442888
 20
106.0049587566
 40
4.5416666667
 50
270.0
 51
299.6595537732
  0
ARC
  8
0
 62
7
  6
CONTINUOUS
 10
276.3188442888
 20
106.0049587566
 40
4.5416666667
 50
240.3404462268
 51
270.0
  0
ARC
  8
0
 62
7
  6
CONTINUOUS
 10
263.7688442888
 20
105.31329209
 40
3.85
 50
270.0
 51
316.9991247711
  0
ARC
  8
0
 62
7
  6
CONTINUOUS
 10
263.6688442888
 20
105.31329209
 40
3.85
 50
223.0008752289
 51
270.0
  0
ARC
  8
0
 62
7
  6
CONTINUOUS
 10
287.7188442888
 20
106.4448262461
 40
0.15
 50
165.9637565321
 51
180.0
  0
ARC
  8
0
 62
7
  6
CONTINUOUS
 10
273.9688442888
 20
106.4448262461
 40
0.15
 50
165.9637565321
 51
180.0
  0
ARC
  8
0
 62
7
  6
CONTINUOUS
 10
279.6688442888
 20
106.4448262461
 40
0.15
 50
0.0
 51
14.0362434679
  0
ARC
  8
0
 62
7
  6
CONTINUOUS
 10
266.5688442888
 20
106.4448262461
 40
0.15
 50
0.0
 51
14.0362434679
  0
ARC
  8
0
 62
7
  6
CONTINUOUS
 10
260.8688442888
 20
106.4448262461
 40
0.15
 50
165.9637565321
 51
180.0
  0
ARC
  8
0
 62
7
  6
CONTINUOUS
 10
319.8204613206
 20
104.85329209
 40
3.39
 50
235.7473426716
 51
270.0
  0
ARC
  8
0
 62
7
  6
CONTINUOUS
 10
321.567227257
 20
104.85329209
 40
3.39
 50
270.0
 51
304.2526573284
  0
ARC
  8
0
 62
7
  6
CONTINUOUS
 10
293.0688442888
 20
102.4928270045
 40
0.5
 50
300.0571784181
 51
360.0
  0
ARC
  8
0
 62
7
  6
CONTINUOUS
 10
307.5688442888
 20
102.4928270045
 40
0.5
 50
300.0571784434
 51
360.0
  0
ARC
  8
0
 62
7
  6
CONTINUOUS
 10
302.5688442888
 20
102.4928270045
 40
0.5
 50
180.0
 51
239.9428215657
  0
ARC
  8
0
 62
7
  6
CONTINUOUS
 10
323.1938442888
 20
102.4645231535
 40
0.5
 50
304.8216037183
 51
360.0
  0
ARC
  8
0
 62
7
  6
CONTINUOUS
 10
318.1938442888
 20
102.4645231535
 40
0.5
 50
180.0
 51
235.178396375
  0
ARC
  8
0
 62
7
  6
CONTINUOUS
 10
301.9188442888
 20
104.1830436619
 40
0.15
 50
0.0
 51
77.3977351585
  0
ARC
  8
0
 62
7
  6
CONTINUOUS
 10
308.2188442888
 20
104.1830436619
 40
0.15
 50
102.6022648415
 51
180.0
  0
ARC
  8
0
 62
7
  6
CONTINUOUS
 10
304.5688442888
 20
106.0049587566
 40
4.5416666667
 50
240.3404462268
 51
270.0
  0
ARC
  8
0
 62
7
  6
CONTINUOUS
 10
305.5688442888
 20
106.0049587566
 40
4.5416666667
 50
270.0
 51
299.6595537732
  0
ARC
  8
0
 62
7
  6
CONTINUOUS
 10
307.8588442888
 20
105.79329209
 40
1.5
 50
282.6022648415
 51
85.8042132223
  0
ARC
  8
0
 62
7
  6
CONTINUOUS
 10
302.2788442888
 20
105.79329209
 40
1.5
 50
94.1957867777
 51
257.3977351585
  0
ARC
  8
0
 62
7
  6
CONTINUOUS
 10
323.5438442888
 20
106.4448262461
 40
0.15
 50
0.0
 51
14.0362434679
  0
ARC
  8
0
 62
7
  6
CONTINUOUS
 10
302.2188442888
 20
106.4448262461
 40
0.15
 50
165.9637565321
 51
180.0
  0
ARC
  8
0
 62
7
  6
CONTINUOUS
 10
317.8438442888
 20
106.4448262461
 40
0.15
 50
165.9637565321
 51
180.0
  0
ARC
  8
0
 62
7
  6
CONTINUOUS
 10
293.4188442888
 20
106.4448262461
 40
0.15
 50
0.0
 51
14.0362434679
  0
ARC
  8
0
 62
7
  6
CONTINUOUS
 10
307.9188442888
 20
106.4448262461
 40
0.15
 50
0.0
 51
14.0362434679
  0
ARC
  8
0
 62
7
  6
CONTINUOUS
 10
302.1581222701
 20
107.4388698591
 40
0.15
 50
274.1957867777
 51
345.9637565321
  0
ARC
  8
0
 62
7
  6
CONTINUOUS
 10
307.9795663075
 20
107.4388698591
 40
0.15
 50
194.0362434679
 51
265.8042132223
  0
ARC
  8
0
 62
7
  6
CONTINUOUS
 10
274.0688442888
 20
109.5248449028
 40
0.5
 50
345.9637565321
 51
360.0
  0
ARC
  8
0
 62
7
  6
CONTINUOUS
 10
287.8188442888
 20
109.5248449028
 40
0.5
 50
345.9637565321
 51
360.0
  0
ARC
  8
0
 62
7
  6
CONTINUOUS
 10
279.5688442888
 20
109.5248449028
 40
0.5
 50
180.0
 51
194.0362434679
  0
ARC
  8
0
 62
7
  6
CONTINUOUS
 10
293.3188442888
 20
109.5248449028
 40
0.5
 50
180.0
 51
194.0362434679
  0
ARC
  8
0
 62
7
  6
CONTINUOUS
 10
266.4688442888
 20
109.5248449028
 40
0.5
 50
180.0
 51
194.0362434679
  0
ARC
  8
0
 62
7
  6
CONTINUOUS
 10
260.9688442888
 20
109.5248449028
 40
0.5
 50
345.9637565321
 51
360.0
  0
ARC
  8
0
 62
7
  6
CONTINUOUS
 10
281.7688442888
 20
115.36329209
 40
2.7
 50
90.0
 51
180.0
  0
ARC
  8
0
 62
7
  6
CONTINUOUS
 10
285.6188442888
 20
115.36329209
 40
2.7
 50
0.0
 51
90.0
  0
ARC
  8
0
 62
7
  6
CONTINUOUS
 10
272.0688442888
 20
115.3293025785
 40
2.5
 50
0.0
 51
90.0
  0
ARC
  8
0
 62
7
  6
CONTINUOUS
 10
267.9688442888
 20
115.8293025785
 40
2.0
 50
90.0
 51
180.0
  0
ARC
  8
0
 62
7
  6
CONTINUOUS
 10
259.4688442888
 20
115.8293025785
 40
2.0
 50
0.0
 51
90.0
  0
ARC
  8
0
 62
7
  6
CONTINUOUS
 10
323.4438442888
 20
109.5248449028
 40
0.5
 50
180.0
 51
194.0362434679
  0
ARC
  8
0
 62
7
  6
CONTINUOUS
 10
302.3188442888
 20
109.5248449028
 40
0.5
 50
345.9637565321
 51
360.0
  0
ARC
  8
0
 62
7
  6
CONTINUOUS
 10
317.9438442888
 20
109.5248449028
 40
0.5
 50
345.9637565321
 51
360.0
  0
ARC
  8
0
 62
7
  6
CONTINUOUS
 10
307.8188442888
 20
109.5248449028
 40
0.5
 50
180.0
 51
194.0362434679
  0
ARC
  8
0
 62
7
  6
CONTINUOUS
 10
328.9438442888
 20
112.8047887073
 40
6.0
 50
110.0
 51
180.0
  0
ARC
  8
0
 62
7
  6
CONTINUOUS
 10
314.4438442888
 20
114.21329209
 40
4.0
 50
0.0
 51
90.0
  0
ARC
  8
0
 62
7
  6
CONTINUOUS
 10
310.3188442888
 20
115.21329209
 40
3.0
 50
90.0
 51
180.0
  0
ARC
  8
0
 62
7
  6
CONTINUOUS
 10
295.5188442888
 20
115.36329209
 40
2.7
 50
90.0
 51
180.0
  0
ARC
  8
0
 62
7
  6
CONTINUOUS
 10
300.1188442888
 20
115.36329209
 40
2.7
 50
0.0
 51
90.0
  0
ARC
  8
0
 62
7
  6
CONTINUOUS
 10
212.9188442888
 20
123.31329209
 40
4.1
 50
180.0
 51
360.0
  0
ARC
  8
0
 62
7
  6
CONTINUOUS
 10
225.6188442888
 20
123.31329209
 40
4.1
 50
180.0
 51
360.0
  0
ARC
  8
0
 62
7
  6
CONTINUOUS
 10
200.2188442888
 20
123.31329209
 40
4.1
 50
180.0
 51
360.0
  0
ARC
  8
0
 62
7
  6
CONTINUOUS
 10
187.5188442888
 20
123.31329209
 40
4.1
 50
180.0
 51
360.0
  0
ARC
  8
0
 62
7
  6
CONTINUOUS
 10
216.5188442888
 20
127.5017392772
 40
0.5
 50
0.0
 51
14.0362434679
  0
ARC
  8
0
 62
7
  6
CONTINUOUS
 10
209.3188442888
 20
127.5017392772
 40
0.5
 50
165.9637565321
 51
180.0
  0
ARC
  8
0
 62
7
  6
CONTINUOUS
 10
229.2188442888
 20
127.5017392772
 40
0.5
 50
0.0
 51
14.0362434679
  0
ARC
  8
0
 62
7
  6
CONTINUOUS
 10
222.0188442888
 20
127.5017392772
 40
0.5
 50
165.9637565321
 51
180.0
  0
ARC
  8
0
 62
7
  6
CONTINUOUS
 10
196.6188442888
 20
127.5017392772
 40
0.5
 50
165.9637565321
 51
180.0
  0
ARC
  8
0
 62
7
  6
CONTINUOUS
 10
203.8188442888
 20
127.5017392772
 40
0.5
 50
0.0
 51
14.0362434679
  0
ARC
  8
0
 62
7
  6
CONTINUOUS
 10
183.9188442888
 20
127.5017392772
 40
0.5
 50
165.9637565321
 51
180.0
  0
ARC
  8
0
 62
7
  6
CONTINUOUS
 10
191.1188442888
 20
127.5017392772
 40
0.5
 50
0.0
 51
14.0362434679
  0
ARC
  8
0
 62
7
  6
CONTINUOUS
 10
238.3188442888
 20
123.31329209
 40
4.1
 50
180.0
 51
360.0
  0
ARC
  8
0
 62
7
  6
CONTINUOUS
 10
251.0188442888
 20
123.31329209
 40
4.1
 50
180.0
 51
360.0
  0
ARC
  8
0
 62
7
  6
CONTINUOUS
 10
263.7188442888
 20
123.31329209
 40
4.1
 50
180.0
 51
360.0
  0
ARC
  8
0
 62
7
  6
CONTINUOUS
 10
276.1688442888
 20
122.86329209
 40
3.85
 50
180.0
 51
270.0
  0
ARC
  8
0
 62
7
  6
CONTINUOUS
 10
241.9188442888
 20
127.5017392772
 40
0.5
 50
0.0
 51
14.0362434679
  0
ARC
  8
0
 62
7
  6
CONTINUOUS
 10
234.7188442888
 20
127.5017392772
 40
0.5
 50
165.9637565321
 51
180.0
  0
ARC
  8
0
 62
7
  6
CONTINUOUS
 10
254.6188442888
 20
127.5017392772
 40
0.5
 50
0.0
 51
14.0362434679
  0
ARC
  8
0
 62
7
  6
CONTINUOUS
 10
247.4188442888
 20
127.5017392772
 40
0.5
 50
165.9637565321
 51
180.0
  0
ARC
  8
0
 62
7
  6
CONTINUOUS
 10
272.8188442888
 20
127.5017392772
 40
0.5
 50
165.9637565321
 51
180.0
  0
ARC
  8
0
 62
7
  6
CONTINUOUS
 10
267.3188442888
 20
127.5017392772
 40
0.5
 50
0.0
 51
14.0362434679
  0
ARC
  8
0
 62
7
  6
CONTINUOUS
 10
260.1188442888
 20
127.5017392772
 40
0.5
 50
165.9637565321
 51
180.0
  0
ARC
  8
0
 62
7
  6
CONTINUOUS
 10
222.1188442888
 20
130.5817579338
 40
0.15
 50
345.9637565321
 51
360.0
  0
ARC
  8
0
 62
7
  6
CONTINUOUS
 10
209.4188442888
 20
130.5817579338
 40
0.15
 50
345.9637565321
 51
360.0
  0
ARC
  8
0
 62
7
  6
CONTINUOUS
 10
216.4188442888
 20
130.5817579338
 40
0.15
 50
180.0
 51
194.0362434679
  0
ARC
  8
0
 62
7
  6
CONTINUOUS
 10
196.7188442888
 20
130.5817579338
 40
0.15
 50
345.9637565321
 51
360.0
  0
ARC
  8
0
 62
7
  6
CONTINUOUS
 10
203.7188442888
 20
130.5817579338
 40
0.15
 50
180.0
 51
194.0362434679
  0
ARC
  8
0
 62
7
  6
CONTINUOUS
 10
184.0188442888
 20
130.5817579338
 40
0.15
 50
345.9637565321
 51
360.0
  0
ARC
  8
0
 62
7
  6
CONTINUOUS
 10
191.0188442888
 20
130.5817579338
 40
0.15
 50
180.0
 51
194.0362434679
  0
ARC
  8
0
 62
7
  6
CONTINUOUS
 10
183.4188442888
 20
134.81329209
 40
0.75
 50
0.0
 51
90.0
  0
ARC
  8
0
 62
7
  6
CONTINUOUS
 10
196.1188442888
 20
134.81329209
 40
0.75
 50
0.0
 51
90.0
  0
ARC
  8
0
 62
7
  6
CONTINUOUS
 10
208.8188442888
 20
134.81329209
 40
0.75
 50
0.0
 51
90.0
  0
ARC
  8
0
 62
7
  6
CONTINUOUS
 10
217.0188442888
 20
134.81329209
 40
0.75
 50
90.0
 51
180.0
  0
ARC
  8
0
 62
7
  6
CONTINUOUS
 10
221.5188442888
 20
134.81329209
 40
0.75
 50
0.0
 51
90.0
  0
ARC
  8
0
 62
7
  6
CONTINUOUS
 10
204.3188442888
 20
134.81329209
 40
0.75
 50
90.0
 51
180.0
  0
ARC
  8
0
 62
7
  6
CONTINUOUS
 10
191.6188442888
 20
134.81329209
 40
0.75
 50
90.0
 51
180.0
  0
ARC
  8
0
 62
7
  6
CONTINUOUS
 10
229.1188442888
 20
130.5817579338
 40
0.15
 50
180.0
 51
194.0362434679
  0
ARC
  8
0
 62
7
  6
CONTINUOUS
 10
241.8188442888
 20
130.5817579338
 40
0.15
 50
180.0
 51
194.0362434679
  0
ARC
  8
0
 62
7
  6
CONTINUOUS
 10
234.8188442888
 20
130.5817579338
 40
0.15
 50
345.9637565321
 51
360.0
  0
ARC
  8
0
 62
7
  6
CONTINUOUS
 10
254.5188442888
 20
130.5817579338
 40
0.15
 50
180.0
 51
194.0362434679
  0
ARC
  8
0
 62
7
  6
CONTINUOUS
 10
247.5188442888
 20
130.5817579338
 40
0.15
 50
345.9637565321
 51
360.0
  0
ARC
  8
0
 62
7
  6
CONTINUOUS
 10
272.9188442888
 20
130.5817579338
 40
0.15
 50
345.9637565321
 51
360.0
  0
ARC
  8
0
 62
7
  6
CONTINUOUS
 10
267.2188442888
 20
130.5817579338
 40
0.15
 50
180.0
 51
194.0362434679
  0
ARC
  8
0
 62
7
  6
CONTINUOUS
 10
260.2188442888
 20
130.5817579338
 40
0.15
 50
345.9637565321
 51
360.0
  0
ARC
  8
0
 62
7
  6
CONTINUOUS
 10
234.2188442888
 20
134.81329209
 40
0.75
 50
0.0
 51
90.0
  0
ARC
  8
0
 62
7
  6
CONTINUOUS
 10
246.9188442888
 20
134.81329209
 40
0.75
 50
0.0
 51
90.0
  0
ARC
  8
0
 62
7
  6
CONTINUOUS
 10
259.6188442888
 20
134.81329209
 40
0.75
 50
0.0
 51
90.0
  0
ARC
  8
0
 62
7
  6
CONTINUOUS
 10
229.7188442888
 20
134.81329209
 40
0.75
 50
90.0
 51
180.0
  0
ARC
  8
0
 62
7
  6
CONTINUOUS
 10
242.4188442888
 20
134.81329209
 40
0.75
 50
90.0
 51
180.0
  0
ARC
  8
0
 62
7
  6
CONTINUOUS
 10
255.1188442888
 20
134.81329209
 40
0.75
 50
90.0
 51
180.0
  0
ARC
  8
0
 62
7
  6
CONTINUOUS
 10
272.3188442888
 20
134.81329209
 40
0.75
 50
0.0
 51
90.0
  0
ARC
  8
0
 62
7
  6
CONTINUOUS
 10
267.8188442888
 20
134.81329209
 40
0.75
 50
90.0
 51
180.0
  0
ARC
  8
0
 62
7
  6
CONTINUOUS
 10
291.4688442888
 20
122.86329209
 40
3.85
 50
270.0
 51
360.0
  0
ARC
  8
0
 62
7
  6
CONTINUOUS
 10
289.6688442888
 20
122.86329209
 40
3.85
 50
180.0
 51
270.0
  0
ARC
  8
0
 62
7
  6
CONTINUOUS
 10
277.4688442888
 20
122.86329209
 40
3.85
 50
270.0
 51
360.0
  0
ARC
  8
0
 62
7
  6
CONTINUOUS
 10
300.3188442888
 20
127.5017392772
 40
0.5
 50
165.9637565321
 51
180.0
  0
ARC
  8
0
 62
7
  6
CONTINUOUS
 10
286.3188442888
 20
127.5017392772
 40
0.5
 50
165.9637565321
 51
180.0
  0
ARC
  8
0
 62
7
  6
CONTINUOUS
 10
294.8188442888
 20
127.5017392772
 40
0.5
 50
0.0
 51
14.0362434679
  0
ARC
  8
0
 62
7
  6
CONTINUOUS
 10
280.8188442888
 20
127.5017392772
 40
0.5
 50
0.0
 51
14.0362434679
  0
ARC
  8
0
 62
7
  6
CONTINUOUS
 10
321.1188442888
 20
124.2918246987
 40
5.5285326087
 50
270.0
 51
347.9282932187
  0
ARC
  8
0
 62
7
  6
CONTINUOUS
 10
319.3188442888
 20
123.26329209
 40
4.5
 50
180.0
 51
270.0
  0
ARC
  8
0
 62
7
  6
CONTINUOUS
 10
305.8188442888
 20
123.36329209
 40
4.5
 50
270.0
 51
360.0
  0
ARC
  8
0
 62
7
  6
CONTINUOUS
 10
304.3188442888
 20
123.36329209
 40
4.5
 50
180.0
 51
270.0
  0
ARC
  8
0
 62
7
  6
CONTINUOUS
 10
328.0688442888
 20
122.0639147046
 40
3.0
 50
290.0
 51
360.0
  0
ARC
  8
0
 62
7
  6
CONTINUOUS
 10
326.0361790916
 20
123.2401790196
 40
0.5
 50
347.9282932187
 51
36.8698976458
  0
ARC
  8
0
 62
7
  6
CONTINUOUS
 10
325.9688442888
 20
124.41329209
 40
0.15
 50
180.0
 51
216.8698976458
  0
ARC
  8
0
 62
7
  6
CONTINUOUS
 10
315.3188442888
 20
127.5017392772
 40
0.5
 50
165.9637565321
 51
180.0
  0
ARC
  8
0
 62
7
  6
CONTINUOUS
 10
309.8188442888
 20
127.5017392772
 40
0.5
 50
0.0
 51
14.0362434679
  0
ARC
  8
0
 62
7
  6
CONTINUOUS
 10
370.9806658174
 20
129.36329209
 40
45.4325215286
 50
173.7423076034
 51
186.2576923966
  0
ARC
  8
0
 62
7
  6
CONTINUOUS
 10
328.5688442888
 20
133.503765803
 40
2.5
 50
0.0
 51
110.0
  0
ARC
  8
0
 62
7
  6
CONTINUOUS
 10
285.8188442888
 20
134.81329209
 40
0.75
 50
0.0
 51
90.0
  0
ARC
  8
0
 62
7
  6
CONTINUOUS
 10
299.8188442888
 20
134.81329209
 40
0.75
 50
0.0
 51
90.0
  0
ARC
  8
0
 62
7
  6
CONTINUOUS
 10
314.8188442888
 20
134.81329209
 40
0.75
 50
0.0
 51
90.0
  0
ARC
  8
0
 62
7
  6
CONTINUOUS
 10
281.3188442888
 20
134.81329209
 40
0.75
 50
90.0
 51
180.0
  0
ARC
  8
0
 62
7
  6
CONTINUOUS
 10
295.3188442888
 20
134.81329209
 40
0.75
 50
90.0
 51
180.0
  0
ARC
  8
0
 62
7
  6
CONTINUOUS
 10
310.3188442888
 20
134.81329209
 40
0.75
 50
90.0
 51
180.0
  0
ARC
  8
0
 62
7
  6
CONTINUOUS
 10
325.9688442888
 20
135.0582609592
 40
0.15
 50
110.0
 51
180.0
  0
ARC
  8
0
 62
7
  6
CONTINUOUS
 10
315.4188442888
 20
130.5817579338
 40
0.15
 50
345.9637565321
 51
360.0
  0
ARC
  8
0
 62
7
  6
CONTINUOUS
 10
300.4188442888
 20
130.5817579338
 40
0.15
 50
345.9637565321
 51
360.0
  0
ARC
  8
0
 62
7
  6
CONTINUOUS
 10
309.7188442888
 20
130.5817579338
 40
0.15
 50
180.0
 51
194.0362434679
  0
ARC
  8
0
 62
7
  6
CONTINUOUS
 10
286.4188442888
 20
130.5817579338
 40
0.15
 50
345.9637565321
 51
360.0
  0
ARC
  8
0
 62
7
  6
CONTINUOUS
 10
294.7188442888
 20
130.5817579338
 40
0.15
 50
180.0
 51
194.0362434679
  0
ARC
  8
0
 62
7
  6
CONTINUOUS
 10
280.7188442888
 20
130.5817579338
 40
0.15
 50
180.0
 51
194.0362434679
  0
ARC
  8
SURFACE
 62
7
  6
CONTINUOUS
 10
358.8380190311
 20
132.2219712391
 40
1.0
 50
95.0006444715
 51
179.9999985536
  0
ARC
  8
SURFACE
 62
7
  6
CONTINUOUS
 10
358.8380190311
 20
126.5046129174
 40
1.0
 50
180.0000001036
 51
264.9993554115
  0
ARC
  8
0
 62
7
  6
CONTINUOUS
 10
358.8380190311
 20
132.2219712391
 40
1.0
 50
95.0006444715
 51
179.9999985536
  0
ARC
  8
0
 62
7
  6
CONTINUOUS
 10
358.8380190311
 20
126.5046129174
 40
1.0
 50
180.0000001036
 51
264.9993554115
  0
ARC
  8
0
 62
7
  6
CONTINUOUS
 10
375.8380190311
 20
105.46329209
 40
4.0
 50
180.0
 51
270.0
  0
ARC
  8
0
 62
7
  6
CONTINUOUS
 10
377.8380190311
 20
105.81329209
 40
2.1
 50
180.0
 51
360.0
  0
ARC
  8
0
 62
7
  6
CONTINUOUS
 10
379.8380190311
 20
105.46329209
 40
4.0
 50
270.0
 51
360.0
  0
ARC
  8
0
 62
7
  6
CONTINUOUS
 10
377.8380190311
 20
113.86329209
 40
2.1
 50
0.0
 51
180.0
  0
ARC
  8
0
 62
7
  6
CONTINUOUS
 10
379.8380190311
 20
131.56329209
 40
4.0
 50
0.0
 51
36.4268846864
  0
CIRCLE
  8
0
 62
7
  6
CONTINUOUS
 10
377.8380190311
 20
131.21329209
 40
2.75
  0
CIRCLE
  8
0
 62
7
  6
CONTINUOUS
 10
377.8380190311
 20
131.21329209
 40
2.1
  0
ARC
  8
0
 62
7
  6
CONTINUOUS
 10
371.6380190311
 20
124.1800280068
 40
0.1999999926
 50
359.9999765216
 51
84.9993533559
  0
ENDSEC
  0
EOF
