  0
SECTION
  2
HEADER
  9
$EXTMAX
 10
420.0
 20
297.0
 30
0.0
  9
$EXTMIN
 10
0.0
 20
0.0
 30
0.0
  9
$LIMMIN
 10
0.0
 20
0.0
  9
$LIMMAX
 10
420.0
 20
297.0
  9
$VIEWCTR
 10
210.0
 20
148.5
  9
$VIEWSIZE
 40
297.0
  9
$CLAYER
  8
0
  9
$LTSCALE
 40
23.1
  9
$CELTYPE
  6
BYLAYER
  9
$DIMSCALE
 40
1.0
  9
$DIMASZ
 40
3.5
  9
$DIMEXO
 40
2.625
  9
$DIMDLI
 40
15.96
  9
$DIMEXE
 40
7.56
  9
$DIMCEN
 40
3.78
  9
$DIMLFAC
 40
1.0
  9
$DIMBLK
  1
_FILLED
  9
$DIMTXT
 40
3.5
  9
$PDMODE
 70
3
  9
$PDSIZE
 40
0.3125
  9
$TILEMODE
 70
1
  0
ENDSEC
  0
SECTION
  2
TABLES
  0
TABLE
  2
LTYPE
 70
6
  0
LTYPE
  2
BYBLOCK
 70
0
  3

 72
65
 73
0
 40
0.0
  0
LTYPE
  2
BYLAYER
 70
0
  3

 72
65
 73
0
 40
0.0
  0
LTYPE
  2
CONTINUOUS
 70
64
  3
Solid line
 72
65
 73
0
 40
0.0
  0
LTYPE
  2
CENTER
 70
64
  3
____ _ ____ _ ____ _ ____ _ ____ _ ____ _ ____
 72
65
 73
4
 40
0.6
 49
0.375
 49
-0.075
 49
0.075
 49
-0.075
  0
LTYPE
  2
HIDDEN
 70
64
  3
- - - - - - - - - - - - - - - - - - - -
 72
65
 73
2
 40
0.2
 49
0.1
 49
-0.1
  0
LTYPE
  2
PHANTOM
 70
64
  3
_____ _ _ _____ _ _ _____ _ _ _____
 72
65
 73
6
 40
0.8
 49
0.45
 49
-0.05
 49
0.1
 49
-0.05
 49
0.1
 49
-0.05
  0
LTYPE
  2
DOT
 70
64
  3
. . . . . . . . . . . . . . . . . . . .
 72
65
 73
2
 40
0.2
 49
0.1
 49
-0.1
  0
LTYPE
  2
DASHED
 70
64
  3
- - - - - - - - - - - - - - - - - - - -
 72
65
 73
2
 40
0.2
 49
0.1
 49
-0.1
  0
ENDTAB
  0
TABLE
  2
LAYER
 70
36
  0
LAYER
  2
0
 70
0
 62
7
  6
CONTINUOUS
  0
LAYER
  2
DEFAULT_1
 70
0
 62
7
  6
CENTER
  0
LAYER
  2
DEFAULT_2
 70
0
 62
8
  6
HIDDEN
  0
LAYER
  2
DEFAULT_3
 70
0
 62
7
  6
PHANTOM
  0
LAYER
  2
CSYS
 70
0
 62
7
  6
CONTINUOUS
  0
LAYER
  2
CURVE
 70
0
 62
7
  6
CONTINUOUS
  0
LAYER
  2
SURFACE
 70
0
 62
7
  6
CONTINUOUS
  0
ENDTAB
  0
TABLE
  2
STYLE
 70
1
  0
STYLE
  2
STANDARD
 70
0
 40
0.0
 41
0.8
 50
0.0
 71
0
 42
0.2
  3
txt
  4

  0
STYLE
  2
TEXTSTYLE_1
 70
0
 40
0.0
 41
0.8
 50
0.0
 71
0
 42
0.2
  3
gdt
  4

  0
STYLE
  2
TEXTSTYLE_2
 70
0
 40
0.0
 41
0.6
 50
0.0
 71
0
 42
0.2
  3
txt
  4

  0
STYLE
  2
TEXTSTYLE_3
 70
0
 40
0.0
 41
1.0
 50
0.0
 71
0
 42
0.2
  3
ftb_____.ttf
  4

  0
STYLE
  2
TEXTSTYLE_4
 70
0
 40
0.0
 41
1.0
 50
0.0
 71
0
 42
0.2
  3
fti_____.ttf
  4

  0
STYLE
  2
TEXTSTYLE_5
 70
0
 40
0.0
 41
1.0
 50
0.0
 71
0
 42
0.2
  3
frutiger light.ttf
  4

  0
STYLE
  2
TEXTSTYLE_6
 70
0
 40
0.0
 41
0.7
 50
0.0
 71
0
 42
0.2
  3
txt
  4

  0
STYLE
  2
TEXTSTYLE_7
 70
0
 40
0.0
 41
0.3
 50
0.0
 71
0
 42
0.2
  3
txt
  4

  0
ENDTAB
  0
ENDSEC
  0
SECTION
  2
BLOCKS
  0
BLOCK
  8
0
 62
2
  6
CONTINUOUS
  2
SYMBOL_5_BL1
 70
64
 10
382.7840918555
 20
35.5067593403
  0
TEXT
  8
0
 62
7
  6
CONTINUOUS
 10
373.842376864
 20
30.5995157174
  7
TEXTSTYLE_4
 40
1.0655737705
  1
The brand for plastic modular belts and chains
 41
1.0
 72
0
  0
LINE
  8
0
 62
7
  6
CONTINUOUS
 10
358.7621602445
 20
36.0805298321
 11
358.7621602445
 21
33.9493822911
  0
LINE
  8
0
 62
7
  6
CONTINUOUS
 10
359.0512227376
 20
30.9584509954
 11
359.0512227376
 21
31.0552420547
  0
LINE
  8
0
 62
7
  6
CONTINUOUS
 10
358.7621602445
 20
31.0229783683
 11
358.8199727462
 21
30.8293962497
  0
LINE
  8
0
 62
7
  6
CONTINUOUS
 10
360.1556028675
 20
33.867415078
 11
360.1556028675
 21
36.0805298321
  0
LINE
  8
0
 62
7
  6
CONTINUOUS
 10
361.0746601894
 20
32.0231527829
 11
361.0746601894
 21
30.5067593403
  0
LINE
  8
0
 62
7
  6
CONTINUOUS
 10
361.3637227445
 20
30.5067593403
 11
361.3637227445
 21
31.2488242184
  0
LINE
  8
0
 62
7
  6
CONTINUOUS
 10
361.3637227445
 20
31.3778789641
 11
361.3637227445
 21
32.0231527829
  0
LINE
  8
0
 62
7
  6
CONTINUOUS
 10
358.8199727462
 20
31.216560532
 11
358.7621602445
 21
31.0229783683
  0
LINE
  8
0
 62
7
  6
CONTINUOUS
 10
359.1668477307
 20
30.7971325633
 11
359.0512227376
 21
30.9584509954
  0
LINE
  8
0
 62
7
  6
CONTINUOUS
 10
360.2652852997
 20
31.3133515913
 11
360.3230977445
 21
31.216560532
  0
LINE
  8
0
 62
7
  6
CONTINUOUS
 10
360.6121602997
 20
31.216560532
 11
360.5543476894
 21
31.3456152777
  0
LINE
  8
0
 62
7
  6
CONTINUOUS
 10
362.0408487691
 20
36.0805298321
 11
362.0408487691
 21
34.2772511436
  0
LINE
  8
0
 62
7
  6
CONTINUOUS
 10
362.0408487691
 20
32.9657757338
 11
362.0408487691
 21
32.3100380288
  0
LINE
  8
0
 62
7
  6
CONTINUOUS
 10
362.4043477445
 20
31.1520331591
 11
362.4043477445
 21
30.5067593403
  0
LINE
  8
0
 62
7
  6
CONTINUOUS
 10
362.6934101343
 20
30.5067593403
 11
362.6934101343
 21
31.1520331591
  0
LINE
  8
0
 62
7
  6
CONTINUOUS
 10
359.0512227376
 20
31.0552420547
 11
359.1090352445
 21
31.1842968456
  0
LINE
  8
0
 62
7
  6
CONTINUOUS
 10
358.8199727462
 20
30.8293962497
 11
358.9355977445
 21
30.7003414814
  0
LINE
  8
0
 62
7
  6
CONTINUOUS
 10
362.3465351343
 20
31.2810879048
 11
362.4043477445
 21
31.1520331591
  0
LINE
  8
0
 62
7
  6
CONTINUOUS
 10
363.1559103548
 20
30.7971325633
 11
363.2137226343
 21
30.668077795
  0
LINE
  8
0
 62
7
  6
CONTINUOUS
 10
362.6934101343
 20
31.1520331591
 11
362.6355978548
 21
31.3133515913
  0
LINE
  8
0
 62
7
  6
CONTINUOUS
 10
363.1559103548
 20
31.3456152777
 11
363.1559103548
 21
31.2810879048
  0
LINE
  8
0
 62
7
  6
CONTINUOUS
 10
363.1559103548
 20
30.8939236226
 11
363.1559103548
 21
30.7971325633
  0
LINE
  8
0
 62
7
  6
CONTINUOUS
 10
363.4342913921
 20
32.3100380288
 11
363.4342913921
 21
36.0805298321
  0
LINE
  8
0
 62
7
  6
CONTINUOUS
 10
363.4449727445
 20
30.7648688543
 11
363.4449727445
 21
30.8293962497
  0
LINE
  8
0
 62
7
  6
CONTINUOUS
 10
363.7621602445
 20
36.0805298321
 11
363.7621602445
 21
32.3100380288
  0
LINE
  8
0
 62
7
  6
CONTINUOUS
 10
360.5543476894
 20
30.7003414814
 11
360.6121602997
 21
30.8293962497
  0
LINE
  8
0
 62
7
  6
CONTINUOUS
 10
364.9480979651
 20
30.6035504109
 11
364.890285024
 21
30.7648688543
  0
LINE
  8
0
 62
7
  6
CONTINUOUS
 10
364.6012229651
 20
31.2810879048
 11
364.6012229651
 21
31.1842968456
  0
LINE
  8
0
 62
7
  6
CONTINUOUS
 10
364.6012229651
 20
31.0552420547
 11
364.6012229651
 21
30.8616599362
  0
LINE
  8
0
 62
7
  6
CONTINUOUS
 10
364.890285024
 20
30.7648688543
 11
364.890285024
 21
31.2810879048
  0
LINE
  8
0
 62
7
  6
CONTINUOUS
 10
365.1556028675
 20
32.3100380288
 11
365.1556028675
 21
34.1133167174
  0
LINE
  8
0
 62
7
  6
CONTINUOUS
 10
365.1556028675
 20
35.4247921272
 11
365.1556028675
 21
36.0805298321
  0
LINE
  8
0
 62
7
  6
CONTINUOUS
 10
365.4684104651
 20
32.0231527829
 11
365.4684104651
 21
31.8618343508
  0
LINE
  8
0
 62
7
  6
CONTINUOUS
 10
365.4684104651
 20
31.5391973962
 11
365.4684104651
 21
30.5067593403
  0
LINE
  8
0
 62
7
  6
CONTINUOUS
 10
365.757472524
 20
30.5067593403
 11
365.757472524
 21
31.5391973962
  0
LINE
  8
0
 62
7
  6
CONTINUOUS
 10
365.757472524
 20
31.8618343508
 11
365.757472524
 21
32.0231527829
  0
LINE
  8
0
 62
7
  6
CONTINUOUS
 10
360.3230977445
 20
30.8293962497
 11
360.2652852997
 21
30.7326051679
  0
LINE
  8
0
 62
7
  6
CONTINUOUS
 10
362.6355978548
 20
31.3133515913
 11
362.5777852445
 21
31.3778789641
  0
LINE
  8
0
 62
7
  6
CONTINUOUS
 10
363.5027853548
 20
30.7003414814
 11
363.4449727445
 21
30.7648688543
  0
LINE
  8
0
 62
7
  6
CONTINUOUS
 10
364.6590352445
 20
30.5712867188
 11
364.716847524
 21
30.5067593403
  0
LINE
  8
0
 62
7
  6
CONTINUOUS
 10
364.6012229651
 20
30.668077795
 11
364.6590352445
 21
30.5712867188
  0
LINE
  8
0
 62
7
  6
CONTINUOUS
 10
365.0059102445
 20
30.5067593403
 11
364.9480979651
 21
30.6035504109
  0
LINE
  8
0
 62
7
  6
CONTINUOUS
 10
364.890285024
 20
31.2810879048
 11
364.8324727445
 21
31.3778789641
  0
LINE
  8
0
 62
7
  6
CONTINUOUS
 10
366.2199727445
 20
31.5391973962
 11
366.2199727445
 21
30.5067593403
  0
LINE
  8
0
 62
7
  6
CONTINUOUS
 10
366.5090354651
 20
30.5067593403
 11
366.5090354651
 21
31.2488242184
  0
LINE
  8
0
 62
7
  6
CONTINUOUS
 10
366.5090354651
 20
31.3778789641
 11
366.5090354651
 21
31.5391973962
  0
LINE
  8
0
 62
7
  6
CONTINUOUS
 10
367.0408487691
 20
34.5231527829
 11
367.0408487691
 21
32.3100380288
  0
LINE
  8
0
 62
7
  6
CONTINUOUS
 10
358.9355977445
 20
31.3456152777
 11
358.8199727462
 21
31.216560532
  0
LINE
  8
0
 62
7
  6
CONTINUOUS
 10
359.1090352445
 20
31.1842968456
 11
359.1668477307
 21
31.2488242184
  0
LINE
  8
0
 62
7
  6
CONTINUOUS
 10
358.9355977445
 20
30.7003414814
 11
359.0512227376
 21
30.6358140973
  0
LINE
  8
0
 62
7
  6
CONTINUOUS
 10
359.3402852307
 20
30.7003414814
 11
359.1668477307
 21
30.7971325633
  0
LINE
  8
0
 62
7
  6
CONTINUOUS
 10
364.543410024
 20
31.3456152777
 11
364.6012229651
 21
31.2810879048
  0
LINE
  8
0
 62
7
  6
CONTINUOUS
 10
367.491847524
 20
31.2810879048
 11
367.5496604651
 21
31.1197694727
  0
LINE
  8
0
 62
7
  6
CONTINUOUS
 10
367.838722524
 20
31.1197694727
 11
367.7809102445
 21
31.2810879048
  0
LINE
  8
0
 62
7
  6
CONTINUOUS
 10
367.5496604651
 20
31.1197694727
 11
367.5496604651
 21
30.5067593403
  0
LINE
  8
0
 62
7
  6
CONTINUOUS
 10
367.838722524
 20
30.5067593403
 11
367.838722524
 21
31.1197694727
  0
LINE
  8
0
 62
7
  6
CONTINUOUS
 10
368.3012227445
 20
31.3456152777
 11
368.3012227445
 21
31.2810879048
  0
LINE
  8
0
 62
7
  6
CONTINUOUS
 10
368.4342913921
 20
32.3100380288
 11
368.4342913921
 21
34.4411855698
  0
LINE
  8
0
 62
7
  6
CONTINUOUS
 10
368.7621602445
 20
36.0805298321
 11
368.7621602445
 21
32.3100380288
  0
LINE
  8
0
 62
7
  6
CONTINUOUS
 10
363.4449727445
 20
30.8293962497
 11
363.5027853548
 21
30.926187309
  0
LINE
  8
0
 62
7
  6
CONTINUOUS
 10
359.0512227376
 20
30.6358140973
 11
359.2246602583
 21
30.5712867188
  0
LINE
  8
0
 62
7
  6
CONTINUOUS
 10
360.5543476894
 20
31.3456152777
 11
360.3809101894
 21
31.4424063369
  0
LINE
  8
0
 62
7
  6
CONTINUOUS
 10
363.2137226343
 20
30.668077795
 11
363.3871601343
 21
30.5712867188
  0
LINE
  8
0
 62
7
  6
CONTINUOUS
 10
362.2309102445
 20
31.3456152777
 11
362.3465351343
 21
31.2810879048
  0
LINE
  8
0
 62
7
  6
CONTINUOUS
 10
362.5777852445
 20
31.3778789641
 11
362.4621603548
 21
31.4424063369
  0
LINE
  8
0
 62
7
  6
CONTINUOUS
 10
368.3012227445
 20
30.7648688543
 11
368.4168479651
 21
30.6358140973
  0
LINE
  8
0
 62
7
  6
CONTINUOUS
 10
368.6480977445
 20
30.7003414814
 11
368.5902854651
 21
30.7648688543
  0
LINE
  8
0
 62
7
  6
CONTINUOUS
 10
368.3012227445
 20
31.2810879048
 11
368.4168479651
 21
31.1520331591
  0
LINE
  8
0
 62
7
  6
CONTINUOUS
 10
367.7809102445
 20
31.2810879048
 11
367.7230979651
 21
31.3778789641
  0
LINE
  8
0
 62
7
  6
CONTINUOUS
 10
370.1512223035
 20
30.7003414814
 11
370.1512223035
 21
30.7648688543
  0
LINE
  8
0
 62
7
  6
CONTINUOUS
 10
370.1556028675
 20
32.3100380288
 11
370.1556028675
 21
36.0805298321
  0
LINE
  8
0
 62
7
  6
CONTINUOUS
 10
363.2137226343
 20
31.4101426505
 11
363.1559103548
 21
31.3456152777
  0
LINE
  8
0
 62
7
  6
CONTINUOUS
 10
360.091847717
 20
31.3778789641
 11
360.2652852997
 21
31.3133515913
  0
LINE
  8
0
 62
7
  6
CONTINUOUS
 10
364.8324727445
 20
31.3778789641
 11
364.716847524
 21
31.4424063369
  0
LINE
  8
0
 62
7
  6
CONTINUOUS
 10
368.6480977445
 20
31.216560532
 11
368.5902854651
 21
31.2810879048
  0
LINE
  8
0
 62
7
  6
CONTINUOUS
 10
369.8043479651
 20
30.8293962497
 11
369.8621602445
 21
30.7648688543
  0
LINE
  8
0
 62
7
  6
CONTINUOUS
 10
370.1512223035
 20
30.7648688543
 11
370.0355977445
 21
30.8939236226
  0
LINE
  8
0
 62
7
  6
CONTINUOUS
 10
369.8043479651
 20
31.3456152777
 11
369.8621602445
 21
31.2810879048
  0
LINE
  8
0
 62
7
  6
CONTINUOUS
 10
370.1512223035
 20
31.2810879048
 11
370.0355977445
 21
31.4101426505
  0
LINE
  8
0
 62
7
  6
CONTINUOUS
 10
363.4449727445
 20
31.2810879048
 11
363.5027853548
 21
31.3456152777
  0
LINE
  8
0
 62
7
  6
CONTINUOUS
 10
363.2715352445
 20
31.0229783683
 11
363.1559103548
 21
30.8939236226
  0
LINE
  8
0
 62
7
  6
CONTINUOUS
 10
364.6012229651
 20
30.8616599362
 11
364.543410024
 21
30.7971325633
  0
LINE
  8
0
 62
7
  6
CONTINUOUS
 10
364.543410024
 20
30.6035504109
 11
364.6012229651
 21
30.668077795
  0
LINE
  8
0
 62
7
  6
CONTINUOUS
 10
363.3871601343
 20
30.5712867188
 11
363.5027853548
 21
30.5390230296
  0
LINE
  8
0
 62
7
  6
CONTINUOUS
 10
360.3809101894
 20
31.4424063369
 11
360.1496602445
 21
31.5069337098
  0
LINE
  8
0
 62
7
  6
CONTINUOUS
 10
363.7340351343
 20
30.6358140973
 11
363.5027853548
 21
30.7003414814
  0
LINE
  8
0
 62
7
  6
CONTINUOUS
 10
362.4621603548
 20
31.4424063369
 11
362.2887228548
 21
31.5069337098
  0
LINE
  8
0
 62
7
  6
CONTINUOUS
 10
364.716847524
 20
31.4424063369
 11
364.543410024
 21
31.5069337098
  0
LINE
  8
0
 62
7
  6
CONTINUOUS
 10
367.3762229651
 20
31.3456152777
 11
367.491847524
 21
31.2810879048
  0
LINE
  8
0
 62
7
  6
CONTINUOUS
 10
367.7230979651
 20
31.3778789641
 11
367.6074727445
 21
31.4424063369
  0
LINE
  8
0
 62
7
  6
CONTINUOUS
 10
359.2246602583
 20
30.5712867188
 11
359.3980977583
 21
30.5390230296
  0
LINE
  8
0
 62
7
  6
CONTINUOUS
 10
359.6871602721
 20
30.6358140973
 11
359.3402852307
 21
30.7003414814
  0
LINE
  8
0
 62
7
  6
CONTINUOUS
 10
362.1152853548
 20
31.3778789641
 11
362.2309102445
 21
31.3456152777
  0
LINE
  8
0
 62
7
  6
CONTINUOUS
 10
364.4277854651
 20
31.3778789641
 11
364.543410024
 21
31.3456152777
  0
LINE
  8
0
 62
7
  6
CONTINUOUS
 10
368.7637229651
 20
30.668077795
 11
368.6480977445
 21
30.7003414814
  0
LINE
  8
0
 62
7
  6
CONTINUOUS
 10
367.2605977445
 20
31.3778789641
 11
367.3762229651
 21
31.3456152777
  0
LINE
  8
0
 62
7
  6
CONTINUOUS
 10
368.4168479651
 20
30.6358140973
 11
368.5902854651
 21
30.5712867188
  0
LINE
  8
0
 62
7
  6
CONTINUOUS
 10
367.6074727445
 20
31.4424063369
 11
367.4340352445
 21
31.5069337098
  0
LINE
  8
0
 62
7
  6
CONTINUOUS
 10
368.8215352445
 20
31.1520331591
 11
368.6480977445
 21
31.216560532
  0
LINE
  8
0
 62
7
  6
CONTINUOUS
 10
369.6309104651
 20
30.8939236226
 11
369.8043479651
 21
30.8293962497
  0
LINE
  8
0
 62
7
  6
CONTINUOUS
 10
370.0355977445
 20
31.4101426505
 11
369.8621602445
 21
31.4746700234
  0
LINE
  8
0
 62
7
  6
CONTINUOUS
 10
368.4168479651
 20
31.1520331591
 11
368.6480977445
 21
31.0552420547
  0
LINE
  8
0
 62
7
  6
CONTINUOUS
 10
370.0355977445
 20
30.8939236226
 11
369.8043479651
 21
30.9907146818
  0
LINE
  8
0
 62
7
  6
CONTINUOUS
 10
368.5902854651
 20
31.2810879048
 11
368.6480977445
 21
31.3456152777
  0
LINE
  8
0
 62
7
  6
CONTINUOUS
 10
359.0512227376
 20
31.4101426505
 11
358.9355977445
 21
31.3456152777
  0
LINE
  8
0
 62
7
  6
CONTINUOUS
 10
359.1668477307
 20
31.2488242184
 11
359.3402852307
 21
31.3456152777
  0
LINE
  8
0
 62
7
  6
CONTINUOUS
 10
361.4793477997
 20
31.4424063369
 11
361.3637227445
 21
31.3778789641
  0
LINE
  8
0
 62
7
  6
CONTINUOUS
 10
361.3637227445
 20
31.2488242184
 11
361.4793477997
 21
31.3133515913
  0
LINE
  8
0
 62
7
  6
CONTINUOUS
 10
360.3809101894
 20
30.6035504109
 11
360.5543476894
 21
30.7003414814
  0
LINE
  8
0
 62
7
  6
CONTINUOUS
 10
359.3980977583
 20
30.5390230296
 11
359.744972717
 21
30.5067593403
  0
LINE
  8
0
 62
7
  6
CONTINUOUS
 10
363.5027853548
 20
30.5390230296
 11
363.7340351343
 21
30.5067593403
  0
LINE
  8
0
 62
7
  6
CONTINUOUS
 10
361.8840352445
 20
31.4101426505
 11
362.1152853548
 21
31.3778789641
  0
LINE
  8
0
 62
7
  6
CONTINUOUS
 10
364.1965353548
 20
31.4101426505
 11
364.4277854651
 21
31.3778789641
  0
LINE
  8
0
 62
7
  6
CONTINUOUS
 10
368.6480977445
 20
31.0552420547
 11
369.6309104651
 21
30.8939236226
  0
LINE
  8
0
 62
7
  6
CONTINUOUS
 10
369.8043479651
 20
30.9907146818
 11
368.8215352445
 21
31.1520331591
  0
LINE
  8
0
 62
7
  6
CONTINUOUS
 10
362.2887228548
 20
31.5069337098
 11
362.1152853548
 21
31.5391973962
  0
LINE
  8
0
 62
7
  6
CONTINUOUS
 10
368.5902854651
 20
30.5712867188
 11
368.7637229651
 21
30.5390230296
  0
LINE
  8
0
 62
7
  6
CONTINUOUS
 10
367.4340352445
 20
31.5069337098
 11
367.2605977445
 21
31.5391973962
  0
LINE
  8
0
 62
7
  6
CONTINUOUS
 10
369.6887227445
 20
31.3778789641
 11
369.8043479651
 21
31.3456152777
  0
LINE
  8
0
 62
7
  6
CONTINUOUS
 10
369.8621602445
 20
30.7648688543
 11
369.8043479651
 21
30.7003414814
  0
LINE
  8
0
 62
7
  6
CONTINUOUS
 10
368.4168479651
 20
31.4424063369
 11
368.3012227445
 21
31.3456152777
  0
LINE
  8
0
 62
7
  6
CONTINUOUS
 10
363.3293478548
 20
31.4746700234
 11
363.2137226343
 21
31.4101426505
  0
LINE
  8
0
 62
7
  6
CONTINUOUS
 10
363.3871601343
 20
31.0875057863
 11
363.2715352445
 21
31.0229783683
  0
LINE
  8
0
 62
7
  6
CONTINUOUS
 10
363.5027853548
 20
30.926187309
 11
363.6184102445
 21
30.9907146818
  0
LINE
  8
0
 62
7
  6
CONTINUOUS
 10
361.0746601894
 20
30.5067593403
 11
361.3637227445
 21
30.5067593403
  0
LINE
  8
0
 62
7
  6
CONTINUOUS
 10
362.4043477445
 20
30.5067593403
 11
362.6934101343
 21
30.5067593403
  0
LINE
  8
0
 62
7
  6
CONTINUOUS
 10
363.7340351343
 20
30.5067593403
 11
364.0809101343
 21
30.5067593403
  0
LINE
  8
0
 62
7
  6
CONTINUOUS
 10
364.716847524
 20
30.5067593403
 11
365.0059102445
 21
30.5067593403
  0
LINE
  8
0
 62
7
  6
CONTINUOUS
 10
365.4684104651
 20
30.5067593403
 11
365.757472524
 21
30.5067593403
  0
LINE
  8
0
 62
7
  6
CONTINUOUS
 10
366.2199727445
 20
30.5067593403
 11
366.5090354651
 21
30.5067593403
  0
LINE
  8
0
 62
7
  6
CONTINUOUS
 10
367.5496604651
 20
30.5067593403
 11
367.838722524
 21
30.5067593403
  0
LINE
  8
0
 62
7
  6
CONTINUOUS
 10
369.1105979651
 20
30.5067593403
 11
369.4574729651
 21
30.5067593403
  0
LINE
  8
0
 62
7
  6
CONTINUOUS
 10
369.4574729651
 20
30.6358140973
 11
369.1105979651
 21
30.6358140973
  0
LINE
  8
0
 62
7
  6
CONTINUOUS
 10
364.0809101343
 20
30.6358140973
 11
363.7340351343
 21
30.6358140973
  0
LINE
  8
0
 62
7
  6
CONTINUOUS
 10
368.5902854651
 20
30.7648688543
 11
368.3012227445
 21
30.7648688543
  0
LINE
  8
0
 62
7
  6
CONTINUOUS
 10
360.6121602997
 20
30.8293962497
 11
360.3230977445
 21
30.8293962497
  0
LINE
  8
0
 62
7
  6
CONTINUOUS
 10
359.6871602721
 20
31.4101426505
 11
360.091847717
 21
31.3778789641
  0
LINE
  8
0
 62
7
  6
CONTINUOUS
 10
360.1496602445
 20
31.5069337098
 11
359.744972717
 21
31.5391973962
  0
LINE
  8
0
 62
7
  6
CONTINUOUS
 10
368.7637229651
 20
30.5390230296
 11
369.1105979651
 21
30.5067593403
  0
LINE
  8
0
 62
7
  6
CONTINUOUS
 10
369.1105979651
 20
30.6358140973
 11
368.7637229651
 21
30.668077795
  0
LINE
  8
0
 62
7
  6
CONTINUOUS
 10
364.543410024
 20
31.5069337098
 11
364.1965353548
 21
31.5391973962
  0
LINE
  8
0
 62
7
  6
CONTINUOUS
 10
369.3418477445
 20
31.4101426505
 11
369.6887227445
 21
31.3778789641
  0
LINE
  8
0
 62
7
  6
CONTINUOUS
 10
369.6887227445
 20
31.5069337098
 11
369.3418477445
 21
31.5391973962
  0
LINE
  8
0
 62
7
  6
CONTINUOUS
 10
367.0293479651
 20
31.4101426505
 11
367.2605977445
 21
31.3778789641
  0
LINE
  8
0
 62
7
  6
CONTINUOUS
 10
369.8621602445
 20
31.4746700234
 11
369.6887227445
 21
31.5069337098
  0
LINE
  8
0
 62
7
  6
CONTINUOUS
 10
370.0355977445
 20
30.6035504109
 11
370.1512223035
 21
30.7003414814
  0
LINE
  8
0
 62
7
  6
CONTINUOUS
 10
364.543410024
 20
30.7971325633
 11
364.369972524
 21
30.7003414814
  0
LINE
  8
0
 62
7
  6
CONTINUOUS
 10
366.624660024
 20
31.4424063369
 11
366.5090354651
 21
31.3778789641
  0
LINE
  8
0
 62
7
  6
CONTINUOUS
 10
366.5090354651
 20
31.2488242184
 11
366.624660024
 21
31.3133515913
  0
LINE
  8
0
 62
7
  6
CONTINUOUS
 10
359.2246602583
 20
31.4746700234
 11
359.0512227376
 21
31.4101426505
  0
LINE
  8
0
 62
7
  6
CONTINUOUS
 10
361.6527851343
 20
31.5069337098
 11
361.4793477997
 21
31.4424063369
  0
LINE
  8
0
 62
7
  6
CONTINUOUS
 10
361.4793477997
 20
31.3133515913
 11
361.6527851343
 21
31.3778789641
  0
LINE
  8
0
 62
7
  6
CONTINUOUS
 10
360.2652852997
 20
30.7326051679
 11
360.091847717
 21
30.668077795
  0
LINE
  8
0
 62
7
  6
CONTINUOUS
 10
369.6887227445
 20
30.668077795
 11
369.4574729651
 21
30.6358140973
  0
LINE
  8
0
 62
7
  6
CONTINUOUS
 10
364.0809101343
 20
30.5067593403
 11
364.369972524
 21
30.5390230296
  0
LINE
  8
0
 62
7
  6
CONTINUOUS
 10
369.4574729651
 20
30.5067593403
 11
369.8043479651
 21
30.5390230296
  0
LINE
  8
0
 62
7
  6
CONTINUOUS
 10
359.744972717
 20
30.5067593403
 11
360.1496602445
 21
30.5390230296
  0
LINE
  8
0
 62
7
  6
CONTINUOUS
 10
360.091847717
 20
30.668077795
 11
359.6871602721
 21
30.6358140973
  0
LINE
  8
0
 62
7
  6
CONTINUOUS
 10
363.9652852445
 20
31.0552420547
 11
364.6012229651
 21
31.0552420547
  0
LINE
  8
0
 62
7
  6
CONTINUOUS
 10
364.6012229651
 20
31.1842968456
 11
363.9652852445
 21
31.1842968456
  0
LINE
  8
0
 62
7
  6
CONTINUOUS
 10
360.3230977445
 20
31.216560532
 11
360.6121602997
 21
31.216560532
  0
LINE
  8
0
 62
7
  6
CONTINUOUS
 10
363.1559103548
 20
31.2810879048
 11
363.4449727445
 21
31.2810879048
  0
LINE
  8
0
 62
7
  6
CONTINUOUS
 10
369.8621602445
 20
31.2810879048
 11
370.1512223035
 21
31.2810879048
  0
LINE
  8
0
 62
7
  6
CONTINUOUS
 10
363.8496603548
 20
31.4101426505
 11
364.1965353548
 21
31.4101426505
  0
LINE
  8
0
 62
7
  6
CONTINUOUS
 10
368.9949727445
 20
31.4101426505
 11
369.3418477445
 21
31.4101426505
  0
LINE
  8
0
 62
7
  6
CONTINUOUS
 10
369.3418477445
 20
31.5391973962
 11
368.9949727445
 21
31.5391973962
  0
LINE
  8
0
 62
7
  6
CONTINUOUS
 10
367.2605977445
 20
31.5391973962
 11
367.0293479651
 21
31.5391973962
  0
LINE
  8
0
 62
7
  6
CONTINUOUS
 10
366.5090354651
 20
31.5391973962
 11
366.2199727445
 21
31.5391973962
  0
LINE
  8
0
 62
7
  6
CONTINUOUS
 10
365.757472524
 20
31.5391973962
 11
365.4684104651
 21
31.5391973962
  0
LINE
  8
0
 62
7
  6
CONTINUOUS
 10
364.1965353548
 20
31.5391973962
 11
363.8496603548
 21
31.5391973962
  0
LINE
  8
0
 62
7
  6
CONTINUOUS
 10
362.1152853548
 20
31.5391973962
 11
361.8840352445
 21
31.5391973962
  0
LINE
  8
0
 62
7
  6
CONTINUOUS
 10
365.4684104651
 20
31.8618343508
 11
365.757472524
 21
31.8618343508
  0
LINE
  8
0
 62
7
  6
CONTINUOUS
 10
365.757472524
 20
32.0231527829
 11
365.4684104651
 21
32.0231527829
  0
LINE
  8
0
 62
7
  6
CONTINUOUS
 10
361.3637227445
 20
32.0231527829
 11
361.0746601894
 21
32.0231527829
  0
LINE
  8
0
 62
7
  6
CONTINUOUS
 10
360.4015045068
 20
32.3100380288
 11
360.8140758554
 21
32.3100380288
  0
LINE
  8
0
 62
7
  6
CONTINUOUS
 10
362.0408487691
 20
32.3100380288
 11
363.4342913921
 21
32.3100380288
  0
LINE
  8
0
 62
7
  6
CONTINUOUS
 10
363.7621602445
 20
32.3100380288
 11
365.1556028675
 21
32.3100380288
  0
LINE
  8
0
 62
7
  6
CONTINUOUS
 10
367.0408487691
 20
32.3100380288
 11
368.4342913921
 21
32.3100380288
  0
LINE
  8
0
 62
7
  6
CONTINUOUS
 10
368.7621602445
 20
32.3100380288
 11
370.1556028675
 21
32.3100380288
  0
LINE
  8
0
 62
7
  6
CONTINUOUS
 10
366.798097524
 20
31.5069337098
 11
366.624660024
 21
31.4424063369
  0
LINE
  8
0
 62
7
  6
CONTINUOUS
 10
364.369972524
 20
30.5390230296
 11
364.543410024
 21
30.6035504109
  0
LINE
  8
0
 62
7
  6
CONTINUOUS
 10
369.8043479651
 20
30.5390230296
 11
370.0355977445
 21
30.6035504109
  0
LINE
  8
0
 62
7
  6
CONTINUOUS
 10
369.8043479651
 20
30.7003414814
 11
369.6887227445
 21
30.668077795
  0
LINE
  8
0
 62
7
  6
CONTINUOUS
 10
368.7637229651
 20
31.3778789641
 11
368.9949727445
 21
31.4101426505
  0
LINE
  8
0
 62
7
  6
CONTINUOUS
 10
366.798097524
 20
31.3778789641
 11
367.0293479651
 21
31.4101426505
  0
LINE
  8
0
 62
7
  6
CONTINUOUS
 10
363.7340351343
 20
31.0229783683
 11
363.9652852445
 21
31.0552420547
  0
LINE
  8
0
 62
7
  6
CONTINUOUS
 10
367.0293479651
 20
31.5391973962
 11
366.798097524
 21
31.5069337098
  0
LINE
  8
0
 62
7
  6
CONTINUOUS
 10
363.6184102445
 20
31.3778789641
 11
363.8496603548
 21
31.4101426505
  0
LINE
  8
0
 62
7
  6
CONTINUOUS
 10
368.9949727445
 20
31.5391973962
 11
368.6480977445
 21
31.5069337098
  0
LINE
  8
0
 62
7
  6
CONTINUOUS
 10
363.9652852445
 20
31.1842968456
 11
363.6184102445
 21
31.1520331591
  0
LINE
  8
0
 62
7
  6
CONTINUOUS
 10
359.744972717
 20
31.5391973962
 11
359.3980977583
 21
31.5069337098
  0
LINE
  8
0
 62
7
  6
CONTINUOUS
 10
363.8496603548
 20
31.5391973962
 11
363.4449727445
 21
31.5069337098
  0
LINE
  8
0
 62
7
  6
CONTINUOUS
 10
361.221176638
 20
33.4575790124
 11
360.565438933
 21
33.4575790124
  0
LINE
  8
0
 62
7
  6
CONTINUOUS
 10
366.624660024
 20
31.3133515913
 11
366.798097524
 21
31.3778789641
  0
LINE
  8
0
 62
7
  6
CONTINUOUS
 10
368.6480977445
 20
31.3456152777
 11
368.7637229651
 21
31.3778789641
  0
LINE
  8
0
 62
7
  6
CONTINUOUS
 10
368.6480977445
 20
31.5069337098
 11
368.4168479651
 21
31.4424063369
  0
LINE
  8
0
 62
7
  6
CONTINUOUS
 10
364.369972524
 20
30.7003414814
 11
364.0809101343
 21
30.6358140973
  0
LINE
  8
0
 62
7
  6
CONTINUOUS
 10
361.6527851343
 20
31.3778789641
 11
361.8840352445
 21
31.4101426505
  0
LINE
  8
0
 62
7
  6
CONTINUOUS
 10
361.8840352445
 20
31.5391973962
 11
361.6527851343
 21
31.5069337098
  0
LINE
  8
0
 62
7
  6
CONTINUOUS
 10
359.4559102445
 20
31.3778789641
 11
359.6871602721
 21
31.4101426505
  0
LINE
  8
0
 62
7
  6
CONTINUOUS
 10
365.9752749986
 20
34.9329888485
 11
366.6310127035
 21
34.9329888485
  0
LINE
  8
0
 62
7
  6
CONTINUOUS
 10
363.6184102445
 20
30.9907146818
 11
363.7340351343
 21
31.0229783683
  0
LINE
  8
0
 62
7
  6
CONTINUOUS
 10
363.6184102445
 20
31.1520331591
 11
363.3871601343
 21
31.0875057863
  0
LINE
  8
0
 62
7
  6
CONTINUOUS
 10
363.5027853548
 20
31.3456152777
 11
363.6184102445
 21
31.3778789641
  0
LINE
  8
0
 62
7
  6
CONTINUOUS
 10
360.1496602445
 20
30.5390230296
 11
360.3809101894
 21
30.6035504109
  0
LINE
  8
0
 62
7
  6
CONTINUOUS
 10
363.4449727445
 20
31.5069337098
 11
363.3293478548
 21
31.4746700234
  0
LINE
  8
0
 62
7
  6
CONTINUOUS
 10
359.3980977583
 20
31.5069337098
 11
359.2246602583
 21
31.4746700234
  0
LINE
  8
0
 62
7
  6
CONTINUOUS
 10
370.1556028675
 20
36.0805298321
 11
368.7621602445
 21
36.0805298321
  0
LINE
  8
0
 62
7
  6
CONTINUOUS
 10
366.7949471298
 20
36.0805298321
 11
366.3823757812
 21
36.0805298321
  0
LINE
  8
0
 62
7
  6
CONTINUOUS
 10
365.1556028675
 20
36.0805298321
 11
363.7621602445
 21
36.0805298321
  0
LINE
  8
0
 62
7
  6
CONTINUOUS
 10
363.4342913921
 20
36.0805298321
 11
362.0408487691
 21
36.0805298321
  0
LINE
  8
0
 62
7
  6
CONTINUOUS
 10
360.1556028675
 20
36.0805298321
 11
358.7621602445
 21
36.0805298321
  0
LINE
  8
0
 62
7
  6
CONTINUOUS
 10
359.3402852307
 20
31.3456152777
 11
359.4559102445
 21
31.3778789641
  0
CIRCLE
  8
0
 62
7
  6
CONTINUOUS
 10
369.458881556
 20
38.4165954059
 40
2.0901639344
  0
ARC
  8
0
 62
7
  6
CONTINUOUS
 10
360.4015045068
 20
33.9493822911
 40
1.6393442623
 50
180.0
 51
270.0
  0
ARC
  8
0
 62
7
  6
CONTINUOUS
 10
366.7949471298
 20
34.4411855698
 40
1.6393442623
 50
0.0
 51
90.0
  0
ARC
  8
0
 62
7
  6
CONTINUOUS
 10
360.8140758554
 20
33.7854478649
 40
1.4754098361
 50
270.0
 51
326.2510114041
  0
ARC
  8
0
 62
7
  6
CONTINUOUS
 10
366.3823757812
 20
34.6051199961
 40
1.4754098361
 50
90.0
 51
146.2510114041
  0
ARC
  8
0
 62
7
  6
CONTINUOUS
 10
361.221176638
 20
34.2772511436
 40
0.8196721311
 50
270.0
 51
360.0
  0
ARC
  8
0
 62
7
  6
CONTINUOUS
 10
365.9752749986
 20
34.1133167174
 40
0.8196721311
 50
90.0
 51
180.0
  0
ARC
  8
0
 62
7
  6
CONTINUOUS
 10
360.565438933
 20
33.867415078
 40
0.4098360656
 50
180.0
 51
270.0
  0
ARC
  8
0
 62
7
  6
CONTINUOUS
 10
366.6310127035
 20
34.5231527829
 40
0.4098360656
 50
0.0
 51
90.0
  0
SOLID
  8
0
 62
7
  6
CONTINUOUS
 10
365.4684104651
 20
31.8618347111
 11
365.4684104651
 21
32.0231531947
 12
365.757472524
 22
31.8618347111
 13
365.757472524
 23
32.0231531947
  0
SOLID
  8
0
 62
7
  6
CONTINUOUS
 10
359.744972717
 20
31.5391977439
 11
360.1496602445
 21
31.5069333244
 12
359.3980977583
 22
31.5069333244
 13
359.3980977583
 23
31.5069333244
  0
SOLID
  8
0
 62
7
  6
CONTINUOUS
 10
359.2246602583
 20
31.4746706537
 11
359.3980977583
 21
31.5069333244
 12
360.1496602445
 22
31.5069333244
 13
360.1496602445
 23
31.5069333244
  0
SOLID
  8
0
 62
7
  6
CONTINUOUS
 10
360.1496602445
 20
31.5069333244
 11
360.3809101894
 21
31.4424063504
 12
359.2246602583
 22
31.4746706537
 13
359.2246602583
 23
31.4746706537
  0
SOLID
  8
0
 62
7
  6
CONTINUOUS
 10
359.0512227376
 20
31.4101419116
 11
359.2246602583
 21
31.4746706537
 12
360.3809101894
 22
31.4424063504
 13
360.3809101894
 23
31.4424063504
  0
SOLID
  8
0
 62
7
  6
CONTINUOUS
 10
359.0512227376
 20
31.4101419116
 11
360.3809101894
 21
31.4424063504
 12
359.6871602721
 22
31.4101419116
 13
359.6871602721
 23
31.4101419116
  0
SOLID
  8
0
 62
7
  6
CONTINUOUS
 10
359.6871602721
 20
31.4101419116
 11
360.3809101894
 21
31.4424063504
 12
360.091847717
 22
31.3778792603
 13
360.091847717
 23
31.3778792603
  0
SOLID
  8
0
 62
7
  6
CONTINUOUS
 10
360.3809101894
 20
31.4424063504
 11
360.5543476894
 21
31.345614957
 12
360.091847717
 22
31.3778792603
 13
360.091847717
 23
31.3778792603
  0
SOLID
  8
0
 62
7
  6
CONTINUOUS
 10
360.2652852997
 20
31.3133521701
 11
360.091847717
 21
31.3778792603
 12
360.5543476894
 22
31.345614957
 13
360.5543476894
 23
31.345614957
  0
SOLID
  8
0
 62
7
  6
CONTINUOUS
 10
360.2652852997
 20
31.3133521701
 11
360.5543476894
 21
31.345614957
 12
360.3230977445
 22
31.2165606992
 13
360.3230977445
 23
31.2165606992
  0
SOLID
  8
0
 62
7
  6
CONTINUOUS
 10
360.5543476894
 20
31.345614957
 11
360.6121602997
 21
31.2165606992
 12
360.3230977445
 22
31.2165606992
 13
360.3230977445
 23
31.2165606992
  0
SOLID
  8
0
 62
7
  6
CONTINUOUS
 10
361.6527851343
 20
31.5069329918
 11
361.8840352445
 21
31.5391972951
 12
362.1152853548
 22
31.5391972951
 13
362.1152853548
 23
31.5391972951
  0
SOLID
  8
0
 62
7
  6
CONTINUOUS
 10
362.1152853548
 20
31.5391972951
 11
362.2887228548
 21
31.5069329918
 12
361.6527851343
 22
31.5069329918
 13
361.6527851343
 23
31.5069329918
  0
SOLID
  8
0
 62
7
  6
CONTINUOUS
 10
361.4793477997
 20
31.4424059016
 11
361.6527851343
 21
31.5069329918
 12
362.2887228548
 22
31.5069329918
 13
362.2887228548
 23
31.5069329918
  0
SOLID
  8
0
 62
7
  6
CONTINUOUS
 10
362.2887228548
 20
31.5069329918
 11
362.4621603548
 21
31.4424059016
 12
361.4793477997
 22
31.4424059016
 13
361.4793477997
 23
31.4424059016
  0
SOLID
  8
0
 62
7
  6
CONTINUOUS
 10
362.4621603548
 20
31.4424059016
 11
361.8840352445
 21
31.4101420472
 12
361.4793477997
 22
31.4424059016
 13
361.4793477997
 23
31.4424059016
  0
SOLID
  8
0
 62
7
  6
CONTINUOUS
 10
361.3637227445
 20
31.3778788115
 11
361.4793477997
 21
31.4424059016
 12
361.8840352445
 22
31.4101420472
 13
361.8840352445
 23
31.4101420472
  0
SOLID
  8
0
 62
7
  6
CONTINUOUS
 10
361.8840352445
 20
31.4101420472
 11
361.6527851343
 21
31.3778788115
 12
361.3637227445
 22
31.3778788115
 13
361.3637227445
 23
31.3778788115
  0
SOLID
  8
0
 62
7
  6
CONTINUOUS
 10
361.8840352445
 20
31.4101420472
 11
362.4621603548
 21
31.4424059016
 12
362.1152853548
 22
31.3778788115
 13
362.1152853548
 23
31.3778788115
  0
SOLID
  8
0
 62
7
  6
CONTINUOUS
 10
362.4621603548
 20
31.4424059016
 11
362.5777852445
 21
31.3778788115
 12
362.1152853548
 22
31.3778788115
 13
362.1152853548
 23
31.3778788115
  0
SOLID
  8
0
 62
7
  6
CONTINUOUS
 10
362.2309102445
 20
31.345614957
 11
362.1152853548
 21
31.3778788115
 12
362.5777852445
 22
31.3778788115
 13
362.5777852445
 23
31.3778788115
  0
SOLID
  8
0
 62
7
  6
CONTINUOUS
 10
362.5777852445
 20
31.3778788115
 11
362.6355978548
 21
31.3133517213
 12
362.2309102445
 22
31.345614957
 13
362.2309102445
 23
31.345614957
  0
SOLID
  8
0
 62
7
  6
CONTINUOUS
 10
362.3465351343
 20
31.2810878668
 11
362.2309102445
 21
31.345614957
 12
362.6355978548
 22
31.3133517213
 13
362.6355978548
 23
31.3133517213
  0
SOLID
  8
0
 62
7
  6
CONTINUOUS
 10
362.3465351343
 20
31.2810878668
 11
362.6355978548
 21
31.3133517213
 12
362.4043477445
 22
31.1520332377
 13
362.4043477445
 23
31.1520332377
  0
SOLID
  8
0
 62
7
  6
CONTINUOUS
 10
362.6355978548
 20
31.3133517213
 11
362.6934101343
 21
31.1520332377
 12
362.4043477445
 22
31.1520332377
 13
362.4043477445
 23
31.1520332377
  0
SOLID
  8
0
 62
7
  6
CONTINUOUS
 10
361.6527851343
 20
31.3778788115
 11
361.4793477997
 21
31.3133517213
 12
361.3637227445
 22
31.3778788115
 13
361.3637227445
 23
31.3778788115
  0
SOLID
  8
0
 62
7
  6
CONTINUOUS
 10
361.4793477997
 20
31.3133517213
 11
361.3637227445
 21
31.2488235635
 12
361.3637227445
 22
31.3778788115
 13
361.3637227445
 23
31.3778788115
  0
SOLID
  8
0
 62
7
  6
CONTINUOUS
 10
361.3637227445
 20
31.2488235635
 11
361.0746601894
 21
30.5067593033
 12
361.3637227445
 22
31.3778788115
 13
361.3637227445
 23
31.3778788115
  0
SOLID
  8
0
 62
7
  6
CONTINUOUS
 10
361.3637227445
 20
31.3778788115
 11
361.0746601894
 21
30.5067593033
 12
361.3637227445
 22
32.0231527459
 13
361.3637227445
 23
32.0231527459
  0
SOLID
  8
0
 62
7
  6
CONTINUOUS
 10
361.0746601894
 20
30.5067593033
 11
361.0746601894
 21
32.0231527459
 12
361.3637227445
 22
32.0231527459
 13
361.3637227445
 23
32.0231527459
  0
SOLID
  8
0
 62
7
  6
CONTINUOUS
 10
361.3637227445
 20
31.2488235635
 11
361.3637227445
 21
30.5067593033
 12
361.0746601894
 22
30.5067593033
 13
361.0746601894
 23
30.5067593033
  0
SOLID
  8
0
 62
7
  6
CONTINUOUS
 10
362.4043477445
 20
30.5067593033
 11
362.4043477445
 21
31.1520332377
 12
362.6934101343
 22
31.1520332377
 13
362.6934101343
 23
31.1520332377
  0
SOLID
  8
0
 62
7
  6
CONTINUOUS
 10
362.6934101343
 20
31.1520332377
 11
362.6934101343
 21
30.5067593033
 12
362.4043477445
 22
30.5067593033
 13
362.4043477445
 23
30.5067593033
  0
SOLID
  8
0
 62
7
  6
CONTINUOUS
 10
363.4449727445
 20
31.506933758
 11
363.8496603548
 21
31.5391977507
 12
364.1965353548
 22
31.5391977507
 13
364.1965353548
 23
31.5391977507
  0
SOLID
  8
0
 62
7
  6
CONTINUOUS
 10
364.1965353548
 20
31.5391977507
 11
364.543410024
 21
31.506933758
 12
363.4449727445
 22
31.506933758
 13
363.4449727445
 23
31.506933758
  0
SOLID
  8
0
 62
7
  6
CONTINUOUS
 10
363.3293478548
 20
31.4746706537
 11
363.4449727445
 21
31.506933758
 12
364.543410024
 22
31.506933758
 13
364.543410024
 23
31.506933758
  0
SOLID
  8
0
 62
7
  6
CONTINUOUS
 10
364.543410024
 20
31.506933758
 11
364.716847524
 21
31.4424063504
 12
363.3293478548
 22
31.4746706537
 13
363.3293478548
 23
31.4746706537
  0
SOLID
  8
0
 62
7
  6
CONTINUOUS
 10
363.2137226343
 20
31.4101417797
 11
363.3293478548
 21
31.4746706537
 12
364.716847524
 22
31.4424063504
 13
364.716847524
 23
31.4424063504
  0
SOLID
  8
0
 62
7
  6
CONTINUOUS
 10
363.2137226343
 20
31.4101417797
 11
364.716847524
 21
31.4424063504
 12
363.8496603548
 22
31.4101417797
 13
363.8496603548
 23
31.4101417797
  0
SOLID
  8
0
 62
7
  6
CONTINUOUS
 10
363.8496603548
 20
31.4101417797
 11
364.716847524
 21
31.4424063504
 12
364.1965353548
 22
31.4101417797
 13
364.1965353548
 23
31.4101417797
  0
SOLID
  8
0
 62
7
  6
CONTINUOUS
 10
364.1965353548
 20
31.4101417797
 11
364.716847524
 21
31.4424063504
 12
364.4277854651
 22
31.3778793357
 13
364.4277854651
 23
31.3778793357
  0
SOLID
  8
0
 62
7
  6
CONTINUOUS
 10
364.716847524
 20
31.4424063504
 11
364.8324727445
 21
31.3778793357
 12
364.4277854651
 22
31.3778793357
 13
364.4277854651
 23
31.3778793357
  0
SOLID
  8
0
 62
7
  6
CONTINUOUS
 10
363.1559103548
 20
31.3456153429
 11
363.2137226343
 21
31.4101417797
 12
363.8496603548
 22
31.4101417797
 13
363.8496603548
 23
31.4101417797
  0
SOLID
  8
0
 62
7
  6
CONTINUOUS
 10
364.543410024
 20
31.3456153429
 11
364.4277854651
 21
31.3778793357
 12
364.8324727445
 22
31.3778793357
 13
364.8324727445
 23
31.3778793357
  0
SOLID
  8
0
 62
7
  6
CONTINUOUS
 10
364.543410024
 20
31.3456153429
 11
364.8324727445
 21
31.3778793357
 12
364.6012229651
 22
31.2810881318
 13
364.6012229651
 23
31.2810881318
  0
SOLID
  8
0
 62
7
  6
CONTINUOUS
 10
364.8324727445
 20
31.3778793357
 11
364.890285024
 21
31.2810881318
 12
364.6012229651
 22
31.2810881318
 13
364.6012229651
 23
31.2810881318
  0
SOLID
  8
0
 62
7
  6
CONTINUOUS
 10
364.6012229651
 20
31.1842964734
 11
364.6012229651
 21
31.2810881318
 12
364.890285024
 22
31.2810881318
 13
364.890285024
 23
31.2810881318
  0
SOLID
  8
0
 62
7
  6
CONTINUOUS
 10
364.6012229651
 20
31.1842964734
 11
364.890285024
 21
31.2810881318
 12
364.6012229651
 22
31.0552422931
 13
364.6012229651
 23
31.0552422931
  0
SOLID
  8
0
 62
7
  6
CONTINUOUS
 10
364.6012229651
 20
31.0552422931
 11
364.890285024
 21
31.2810881318
 12
364.6012229651
 22
30.8616599362
 13
364.6012229651
 23
30.8616599362
  0
SOLID
  8
0
 62
7
  6
CONTINUOUS
 10
364.890285024
 20
31.2810881318
 11
364.890285024
 21
30.7648681127
 12
364.6012229651
 22
30.8616599362
 13
364.6012229651
 23
30.8616599362
  0
SOLID
  8
0
 62
7
  6
CONTINUOUS
 10
366.798097524
 20
31.5069339419
 11
367.0293479651
 21
31.5391976292
 12
367.2605977445
 22
31.5391976292
 13
367.2605977445
 23
31.5391976292
  0
SOLID
  8
0
 62
7
  6
CONTINUOUS
 10
367.2605977445
 20
31.5391976292
 11
367.4340352445
 21
31.5069339419
 12
366.798097524
 22
31.5069339419
 13
366.798097524
 23
31.5069339419
  0
SOLID
  8
0
 62
7
  6
CONTINUOUS
 10
366.624660024
 20
31.4424065674
 11
366.798097524
 21
31.5069339419
 12
367.4340352445
 22
31.5069339419
 13
367.4340352445
 23
31.5069339419
  0
SOLID
  8
0
 62
7
  6
CONTINUOUS
 10
367.4340352445
 20
31.5069339419
 11
367.6074727445
 21
31.4424065674
 12
366.624660024
 22
31.4424065674
 13
366.624660024
 23
31.4424065674
  0
SOLID
  8
0
 62
7
  6
CONTINUOUS
 10
367.6074727445
 20
31.4424065674
 11
367.0293479651
 21
31.4101420472
 12
366.624660024
 22
31.4424065674
 13
366.624660024
 23
31.4424065674
  0
SOLID
  8
0
 62
7
  6
CONTINUOUS
 10
366.5090354651
 20
31.377879193
 11
366.624660024
 21
31.4424065674
 12
367.0293479651
 22
31.4101420472
 13
367.0293479651
 23
31.4101420472
  0
SOLID
  8
0
 62
7
  6
CONTINUOUS
 10
367.0293479651
 20
31.4101420472
 11
366.798097524
 21
31.377879193
 12
366.5090354651
 22
31.377879193
 13
366.5090354651
 23
31.377879193
  0
SOLID
  8
0
 62
7
  6
CONTINUOUS
 10
367.0293479651
 20
31.4101420472
 11
367.6074727445
 21
31.4424065674
 12
367.2605977445
 22
31.377879193
 13
367.2605977445
 23
31.377879193
  0
SOLID
  8
0
 62
7
  6
CONTINUOUS
 10
367.6074727445
 20
31.4424065674
 11
367.7230979651
 21
31.377879193
 12
367.2605977445
 22
31.377879193
 13
367.2605977445
 23
31.377879193
  0
SOLID
  8
0
 62
7
  6
CONTINUOUS
 10
367.3762229651
 20
31.345614957
 11
367.2605977445
 21
31.377879193
 12
367.7230979651
 22
31.377879193
 13
367.7230979651
 23
31.377879193
  0
SOLID
  8
0
 62
7
  6
CONTINUOUS
 10
367.3762229651
 20
31.345614957
 11
367.7230979651
 21
31.377879193
 12
367.491847524
 22
31.2810881312
 13
367.491847524
 23
31.2810881312
  0
SOLID
  8
0
 62
7
  6
CONTINUOUS
 10
367.7230979651
 20
31.377879193
 11
367.7809102445
 21
31.2810881312
 12
367.491847524
 22
31.2810881312
 13
367.491847524
 23
31.2810881312
  0
SOLID
  8
0
 62
7
  6
CONTINUOUS
 10
367.5496604651
 20
31.119769695
 11
367.491847524
 21
31.2810881312
 12
367.7809102445
 22
31.2810881312
 13
367.7809102445
 23
31.2810881312
  0
SOLID
  8
0
 62
7
  6
CONTINUOUS
 10
367.7809102445
 20
31.2810881312
 11
367.838722524
 21
31.119769695
 12
367.5496604651
 22
31.119769695
 13
367.5496604651
 23
31.119769695
  0
SOLID
  8
0
 62
7
  6
CONTINUOUS
 10
366.798097524
 20
31.377879193
 11
366.624660024
 21
31.3133521701
 12
366.5090354651
 22
31.377879193
 13
366.5090354651
 23
31.377879193
  0
SOLID
  8
0
 62
7
  6
CONTINUOUS
 10
366.624660024
 20
31.3133521701
 11
366.5090354651
 21
31.2488235635
 12
366.5090354651
 22
31.377879193
 13
366.5090354651
 23
31.377879193
  0
SOLID
  8
0
 62
7
  6
CONTINUOUS
 10
366.5090354651
 20
31.2488235635
 11
366.2199727445
 21
30.5067596374
 12
366.5090354651
 22
31.377879193
 13
366.5090354651
 23
31.377879193
  0
SOLID
  8
0
 62
7
  6
CONTINUOUS
 10
366.5090354651
 20
31.377879193
 11
366.2199727445
 21
30.5067596374
 12
366.5090354651
 22
31.5391976292
 13
366.5090354651
 23
31.5391976292
  0
SOLID
  8
0
 62
7
  6
CONTINUOUS
 10
366.2199727445
 20
30.5067596374
 11
366.2199727445
 21
31.5391976292
 12
366.5090354651
 22
31.5391976292
 13
366.5090354651
 23
31.5391976292
  0
SOLID
  8
0
 62
7
  6
CONTINUOUS
 10
366.5090354651
 20
31.2488235635
 11
366.5090354651
 21
30.5067596374
 12
366.2199727445
 22
30.5067596374
 13
366.2199727445
 23
30.5067596374
  0
SOLID
  8
0
 62
7
  6
CONTINUOUS
 10
367.5496604651
 20
30.5067596374
 11
367.5496604651
 21
31.119769695
 12
367.838722524
 22
31.119769695
 13
367.838722524
 23
31.119769695
  0
SOLID
  8
0
 62
7
  6
CONTINUOUS
 10
367.838722524
 20
31.119769695
 11
367.838722524
 21
30.5067596374
 12
367.5496604651
 22
30.5067596374
 13
367.5496604651
 23
30.5067596374
  0
SOLID
  8
0
 62
7
  6
CONTINUOUS
 10
368.6480977445
 20
31.5069334157
 11
368.9949727445
 21
31.539197762
 12
369.3418477445
 22
31.539197762
 13
369.3418477445
 23
31.539197762
  0
SOLID
  8
0
 62
7
  6
CONTINUOUS
 10
369.3418477445
 20
31.539197762
 11
369.6887227445
 21
31.5069334157
 12
368.6480977445
 22
31.5069334157
 13
368.6480977445
 23
31.5069334157
  0
SOLID
  8
0
 62
7
  6
CONTINUOUS
 10
368.4168479651
 20
31.4424063504
 11
368.6480977445
 21
31.5069334157
 12
369.6887227445
 22
31.5069334157
 13
369.6887227445
 23
31.5069334157
  0
SOLID
  8
0
 62
7
  6
CONTINUOUS
 10
368.4168479651
 20
31.4424063504
 11
369.6887227445
 21
31.5069334406
 12
369.8621602445
 22
31.4746706537
 13
369.8621602445
 23
31.4746706537
  0
SOLID
  8
0
 62
7
  6
CONTINUOUS
 10
368.4168479651
 20
31.4424063504
 11
369.8621602445
 21
31.4746706537
 12
368.9949727445
 22
31.4101421267
 13
368.9949727445
 23
31.4101421267
  0
SOLID
  8
0
 62
7
  6
CONTINUOUS
 10
368.9949727445
 20
31.4101421267
 11
369.8621602445
 21
31.4746706537
 12
369.3418477445
 22
31.4101421267
 13
369.3418477445
 23
31.4101421267
  0
SOLID
  8
0
 62
7
  6
CONTINUOUS
 10
369.8621602445
 20
31.4746706537
 11
370.0355977445
 21
31.4101421267
 12
369.3418477445
 22
31.4101421267
 13
369.3418477445
 23
31.4101421267
  0
SOLID
  8
0
 62
7
  6
CONTINUOUS
 10
369.6887227445
 20
31.3778792603
 11
369.3418477445
 21
31.4101421267
 12
370.0355977445
 22
31.4101421267
 13
370.0355977445
 23
31.4101421267
  0
SOLID
  8
0
 62
7
  6
CONTINUOUS
 10
368.3012227445
 20
31.3456148845
 11
368.4168479651
 21
31.4424063504
 12
368.9949727445
 22
31.4101421267
 13
368.9949727445
 23
31.4101421267
  0
SOLID
  8
0
 62
7
  6
CONTINUOUS
 10
369.6887227445
 20
31.3778792603
 11
370.0355977445
 21
31.4101421267
 12
369.8043479651
 22
31.3456148845
 13
369.8043479651
 23
31.3456148845
  0
SOLID
  8
0
 62
7
  6
CONTINUOUS
 10
369.8043479651
 20
31.3456148845
 11
370.0355977445
 21
31.4101421267
 12
369.8621602445
 22
31.281087868
 13
369.8621602445
 23
31.281087868
  0
SOLID
  8
0
 62
7
  6
CONTINUOUS
 10
370.0355977445
 20
31.4101421267
 11
370.1512223035
 21
31.281087868
 12
369.8621602445
 22
31.281087868
 13
369.8621602445
 23
31.281087868
  0
SOLID
  8
0
 62
7
  6
CONTINUOUS
 10
359.4559102445
 20
31.3778792603
 11
358.9355977445
 21
31.3456148963
 12
359.6871602721
 22
31.4101421155
 13
359.6871602721
 23
31.4101421155
  0
SOLID
  8
0
 62
7
  6
CONTINUOUS
 10
358.9355977445
 20
31.3456148963
 11
359.0512227376
 21
31.4101421155
 12
359.6871602721
 22
31.4101421155
 13
359.6871602721
 23
31.4101421155
  0
SOLID
  8
0
 62
7
  6
CONTINUOUS
 10
359.4559102445
 20
31.3778792603
 11
359.3402852307
 21
31.3456148963
 12
358.9355977445
 22
31.3456148963
 13
358.9355977445
 23
31.3456148963
  0
SOLID
  8
0
 62
7
  6
CONTINUOUS
 10
358.8199727462
 20
31.2165607767
 11
358.9355977445
 21
31.3456148963
 12
359.3402852307
 22
31.3456148963
 13
359.3402852307
 23
31.3456148963
  0
SOLID
  8
0
 62
7
  6
CONTINUOUS
 10
363.1559103548
 20
31.3456149608
 11
363.8496603548
 21
31.4101420472
 12
363.6184102445
 22
31.3778792603
 13
363.6184102445
 23
31.3778792603
  0
SOLID
  8
0
 62
7
  6
CONTINUOUS
 10
363.6184102445
 20
31.3778792603
 11
363.5027853548
 21
31.3456149608
 12
363.1559103548
 22
31.3456149608
 13
363.1559103548
 23
31.3456149608
  0
SOLID
  8
0
 62
7
  6
CONTINUOUS
 10
363.1559103548
 20
31.2810878707
 11
363.1559103548
 21
31.3456149608
 12
363.5027853548
 22
31.3456149608
 13
363.5027853548
 23
31.3456149608
  0
SOLID
  8
0
 62
7
  6
CONTINUOUS
 10
363.5027853548
 20
31.3456149608
 11
363.4449727445
 21
31.2810878707
 12
363.1559103548
 22
31.2810878707
 13
363.1559103548
 23
31.2810878707
  0
SOLID
  8
0
 62
7
  6
CONTINUOUS
 10
368.3012227445
 20
31.3456149608
 11
368.9949727445
 21
31.4101420472
 12
368.7637229651
 22
31.3778792603
 13
368.7637229651
 23
31.3778792603
  0
SOLID
  8
0
 62
7
  6
CONTINUOUS
 10
368.7637229651
 20
31.3778792603
 11
368.6480977445
 21
31.3456149608
 12
368.3012227445
 22
31.3456149608
 13
368.3012227445
 23
31.3456149608
  0
SOLID
  8
0
 62
7
  6
CONTINUOUS
 10
368.3012227445
 20
31.2810878707
 11
368.3012227445
 21
31.3456149608
 12
368.6480977445
 22
31.3456149608
 13
368.6480977445
 23
31.3456149608
  0
SOLID
  8
0
 62
7
  6
CONTINUOUS
 10
368.6480977445
 20
31.3456149608
 11
368.5902854651
 21
31.2810878707
 12
368.3012227445
 22
31.2810878707
 13
368.3012227445
 23
31.2810878707
  0
SOLID
  8
0
 62
7
  6
CONTINUOUS
 10
368.4168479651
 20
31.1520336865
 11
368.3012227445
 21
31.2810878707
 12
368.5902854651
 22
31.2810878707
 13
368.5902854651
 23
31.2810878707
  0
SOLID
  8
0
 62
7
  6
CONTINUOUS
 10
358.8199727462
 20
31.2165607767
 11
359.3402852307
 21
31.345614957
 12
359.1668477307
 22
31.2488235635
 13
359.1668477307
 23
31.2488235635
  0
SOLID
  8
0
 62
7
  6
CONTINUOUS
 10
359.1668477307
 20
31.2488235635
 11
359.1090352445
 21
31.1842964734
 12
358.8199727462
 22
31.2165607767
 13
358.8199727462
 23
31.2165607767
  0
SOLID
  8
0
 62
7
  6
CONTINUOUS
 10
358.7621602445
 20
31.0229779898
 11
358.8199727462
 21
31.2165607767
 12
359.1090352445
 22
31.1842964734
 13
359.1090352445
 23
31.1842964734
  0
SOLID
  8
0
 62
7
  6
CONTINUOUS
 10
363.6184102445
 20
31.1520336865
 11
363.9652852445
 21
31.1842964611
 12
364.6012229651
 22
31.1842964611
 13
364.6012229651
 23
31.1842964611
  0
SOLID
  8
0
 62
7
  6
CONTINUOUS
 10
363.6184102445
 20
31.1520336865
 11
364.6012229651
 21
31.1842964611
 12
363.3871601343
 22
31.0875057863
 13
363.3871601343
 23
31.0875057863
  0
SOLID
  8
0
 62
7
  6
CONTINUOUS
 10
363.3871601343
 20
31.0875057863
 11
364.6012229651
 21
31.1842964611
 12
363.9652852445
 22
31.0552422808
 13
363.9652852445
 23
31.0552422808
  0
SOLID
  8
0
 62
7
  6
CONTINUOUS
 10
364.6012229651
 20
31.1842964611
 11
364.6012229651
 21
31.0552422808
 12
363.9652852445
 22
31.0552422808
 13
363.9652852445
 23
31.0552422808
  0
SOLID
  8
0
 62
7
  6
CONTINUOUS
 10
368.4168479651
 20
31.1520338754
 11
368.5902854651
 21
31.2810878668
 12
368.6480977445
 22
31.2165607767
 13
368.6480977445
 23
31.2165607767
  0
SOLID
  8
0
 62
7
  6
CONTINUOUS
 10
368.6480977445
 20
31.2165607767
 11
368.8215352445
 21
31.1520338754
 12
368.4168479651
 22
31.1520338754
 13
368.4168479651
 23
31.1520338754
  0
SOLID
  8
0
 62
7
  6
CONTINUOUS
 10
368.6480977445
 20
31.0552422931
 11
368.4168479651
 21
31.1520338754
 12
368.8215352445
 22
31.1520338754
 13
368.8215352445
 23
31.1520338754
  0
SOLID
  8
0
 62
7
  6
CONTINUOUS
 10
368.8215352445
 20
31.1520338754
 11
369.8043479651
 21
30.9907152029
 12
368.6480977445
 22
31.0552422931
 13
368.6480977445
 23
31.0552422931
  0
SOLID
  8
0
 62
7
  6
CONTINUOUS
 10
369.6309104651
 20
30.8939239876
 11
368.6480977445
 21
31.0552422931
 12
369.8043479651
 22
30.9907152029
 13
369.8043479651
 23
30.9907152029
  0
SOLID
  8
0
 62
7
  6
CONTINUOUS
 10
369.8043479651
 20
30.9907152029
 11
370.0355977445
 21
30.8939239876
 12
369.6309104651
 22
30.8939239876
 13
369.6309104651
 23
30.8939239876
  0
SOLID
  8
0
 62
7
  6
CONTINUOUS
 10
369.8043479651
 20
30.8293967193
 11
369.6309104651
 21
30.8939239876
 12
370.0355977445
 22
30.8939239876
 13
370.0355977445
 23
30.8939239876
  0
SOLID
  8
0
 62
7
  6
CONTINUOUS
 10
369.8043479651
 20
30.8293967193
 11
370.0355977445
 21
30.8939239876
 12
369.8621602445
 22
30.7648682694
 13
369.8621602445
 23
30.7648682694
  0
SOLID
  8
0
 62
7
  6
CONTINUOUS
 10
370.0355977445
 20
30.8939239876
 11
370.1512223035
 21
30.7648682694
 12
369.8621602445
 22
30.7648682694
 13
369.8621602445
 23
30.7648682694
  0
SOLID
  8
0
 62
7
  6
CONTINUOUS
 10
369.8043479651
 20
30.7003411846
 11
369.8621602445
 21
30.7648682694
 12
370.1512223035
 22
30.7648682694
 13
370.1512223035
 23
30.7648682694
  0
SOLID
  8
0
 62
7
  6
CONTINUOUS
 10
370.1512223035
 20
30.7648682694
 11
370.1512223035
 21
30.7003411846
 12
369.8043479651
 22
30.7003411846
 13
369.8043479651
 23
30.7003411846
  0
SOLID
  8
0
 62
7
  6
CONTINUOUS
 10
369.6887227445
 20
30.6680782357
 11
369.8043479651
 21
30.7003411846
 12
370.1512223035
 22
30.7003411846
 13
370.1512223035
 23
30.7003411846
  0
SOLID
  8
0
 62
7
  6
CONTINUOUS
 10
369.6887227445
 20
30.6680782357
 11
370.1512223035
 21
30.7003411846
 12
369.4574729651
 22
30.6358140998
 13
369.4574729651
 23
30.6358140998
  0
SOLID
  8
0
 62
7
  6
CONTINUOUS
 10
370.1512223035
 20
30.7003411846
 11
370.0355977445
 21
30.6035511455
 12
369.4574729651
 22
30.6358140998
 13
369.4574729651
 23
30.6358140998
  0
SOLID
  8
0
 62
7
  6
CONTINUOUS
 10
370.0355977445
 20
30.6035511455
 11
368.5902854651
 21
30.5712868422
 12
369.4574729651
 22
30.6358140998
 13
369.4574729651
 23
30.6358140998
  0
SOLID
  8
0
 62
7
  6
CONTINUOUS
 10
369.4574729651
 20
30.6358140998
 11
368.5902854651
 21
30.5712868422
 12
369.1105979651
 22
30.6358140998
 13
369.1105979651
 23
30.6358140998
  0
SOLID
  8
0
 62
7
  6
CONTINUOUS
 10
368.5902854651
 20
30.5712868422
 11
368.4168479651
 21
30.6358140998
 12
369.1105979651
 22
30.6358140998
 13
369.1105979651
 23
30.6358140998
  0
SOLID
  8
0
 62
7
  6
CONTINUOUS
 10
368.5902854651
 20
30.5712868422
 11
370.0355977445
 21
30.6035511455
 12
368.7637229651
 22
30.5390223111
 13
368.7637229651
 23
30.5390223111
  0
SOLID
  8
0
 62
7
  6
CONTINUOUS
 10
370.0355977445
 20
30.6035511455
 11
369.8043479651
 21
30.5390223111
 12
368.7637229651
 22
30.5390223111
 13
368.7637229651
 23
30.5390223111
  0
SOLID
  8
0
 62
7
  6
CONTINUOUS
 10
369.1105979651
 20
30.5067599302
 11
368.7637229651
 21
30.5390223111
 12
369.8043479651
 22
30.5390223111
 13
369.8043479651
 23
30.5390223111
  0
SOLID
  8
0
 62
7
  6
CONTINUOUS
 10
369.8043479651
 20
30.5390223111
 11
369.4574729651
 21
30.5067599302
 12
369.1105979651
 22
30.5067599302
 13
369.1105979651
 23
30.5067599302
  0
SOLID
  8
0
 62
7
  6
CONTINUOUS
 10
358.7621602445
 20
31.0229779898
 11
359.1090352445
 21
31.1842964734
 12
359.0512227376
 22
31.0552422931
 13
359.0512227376
 23
31.0552422931
  0
SOLID
  8
0
 62
7
  6
CONTINUOUS
 10
359.0512227376
 20
31.0552422931
 11
359.0512227376
 21
30.9584509954
 12
358.7621602445
 22
31.0229779898
 13
358.7621602445
 23
31.0229779898
  0
SOLID
  8
0
 62
7
  6
CONTINUOUS
 10
358.8199727462
 20
30.8293967193
 11
358.7621602445
 21
31.0229779898
 12
359.0512227376
 22
30.9584509954
 13
359.0512227376
 23
30.9584509954
  0
SOLID
  8
0
 62
7
  6
CONTINUOUS
 10
359.0512227376
 20
30.9584509954
 11
359.1668477307
 21
30.797132416
 12
358.8199727462
 22
30.8293967193
 13
358.8199727462
 23
30.8293967193
  0
SOLID
  8
0
 62
7
  6
CONTINUOUS
 10
358.9355977445
 20
30.7003413087
 11
358.8199727462
 21
30.8293967193
 12
359.1668477307
 22
30.797132416
 13
359.1668477307
 23
30.797132416
  0
SOLID
  8
0
 62
7
  6
CONTINUOUS
 10
359.1668477307
 20
30.797132416
 11
359.3402852307
 21
30.7003413087
 12
358.9355977445
 22
30.7003413087
 13
358.9355977445
 23
30.7003413087
  0
SOLID
  8
0
 62
7
  6
CONTINUOUS
 10
359.0512227376
 20
30.6358140759
 11
358.9355977445
 21
30.7003413087
 12
359.3402852307
 22
30.7003413087
 13
359.3402852307
 23
30.7003413087
  0
SOLID
  8
0
 62
7
  6
CONTINUOUS
 10
359.3402852307
 20
30.7003413087
 11
359.6871602721
 21
30.6358140759
 12
359.0512227376
 22
30.6358140759
 13
359.0512227376
 23
30.6358140759
  0
SOLID
  8
0
 62
7
  6
CONTINUOUS
 10
359.2246602583
 20
30.5712868422
 11
359.0512227376
 21
30.6358140759
 12
359.6871602721
 22
30.6358140759
 13
359.6871602721
 23
30.6358140759
  0
SOLID
  8
0
 62
7
  6
CONTINUOUS
 10
363.2715352445
 20
31.0229779808
 11
363.3871601343
 21
31.0875057863
 12
363.9652852445
 22
31.0552422931
 13
363.9652852445
 23
31.0552422931
  0
SOLID
  8
0
 62
7
  6
CONTINUOUS
 10
363.9652852445
 20
31.0552422931
 11
363.7340351343
 21
31.0229779808
 12
363.2715352445
 22
31.0229779808
 13
363.2715352445
 23
31.0229779808
  0
SOLID
  8
0
 62
7
  6
CONTINUOUS
 10
363.1559103548
 20
30.8939238094
 11
363.2715352445
 21
31.0229779808
 12
363.7340351343
 22
31.0229779808
 13
363.7340351343
 23
31.0229779808
  0
SOLID
  8
0
 62
7
  6
CONTINUOUS
 10
363.5027853548
 20
30.926187309
 11
363.1559103548
 21
30.8939238094
 12
363.6184102445
 22
30.9907152029
 13
363.6184102445
 23
30.9907152029
  0
SOLID
  8
0
 62
7
  6
CONTINUOUS
 10
363.1559103548
 20
30.8939238094
 11
363.7340351343
 21
31.0229779898
 12
363.6184102445
 22
30.9907152029
 13
363.6184102445
 23
30.9907152029
  0
SOLID
  8
0
 62
7
  6
CONTINUOUS
 10
363.5027853548
 20
30.926187309
 11
363.4449727445
 21
30.8293967193
 12
363.1559103548
 22
30.8939238094
 13
363.1559103548
 23
30.8939238094
  0
SOLID
  8
0
 62
7
  6
CONTINUOUS
 10
363.1559103548
 20
30.797132416
 11
363.1559103548
 21
30.8939238094
 12
363.4449727445
 22
30.8293967193
 13
363.4449727445
 23
30.8293967193
  0
SOLID
  8
0
 62
7
  6
CONTINUOUS
 10
363.4449727445
 20
30.8293967193
 11
363.4449727445
 21
30.7648681127
 12
363.1559103548
 22
30.797132416
 13
363.1559103548
 23
30.797132416
  0
SOLID
  8
0
 62
7
  6
CONTINUOUS
 10
363.2137226343
 20
30.6680782357
 11
363.1559103548
 21
30.797132416
 12
363.4449727445
 22
30.7648681127
 13
363.4449727445
 23
30.7648681127
  0
SOLID
  8
0
 62
7
  6
CONTINUOUS
 10
364.6012229651
 20
30.8616599362
 11
364.890285024
 21
30.7648681127
 12
364.543410024
 22
30.797132416
 13
364.543410024
 23
30.797132416
  0
SOLID
  8
0
 62
7
  6
CONTINUOUS
 10
364.369972524
 20
30.7003410226
 11
364.543410024
 21
30.797132416
 12
364.890285024
 22
30.7648681127
 13
364.890285024
 23
30.7648681127
  0
SOLID
  8
0
 62
7
  6
CONTINUOUS
 10
364.369972524
 20
30.7003410226
 11
364.890285024
 21
30.7648681127
 12
364.6012229651
 22
30.6680782357
 13
364.6012229651
 23
30.6680782357
  0
SOLID
  8
0
 62
7
  6
CONTINUOUS
 10
364.890285024
 20
30.7648681127
 11
364.9480979651
 21
30.6035511455
 12
364.6012229651
 22
30.6680782357
 13
364.6012229651
 23
30.6680782357
  0
SOLID
  8
0
 62
7
  6
CONTINUOUS
 10
364.6590352445
 20
30.5712868422
 11
364.6012229651
 21
30.6680782357
 12
364.9480979651
 22
30.6035511455
 13
364.9480979651
 23
30.6035511455
  0
SOLID
  8
0
 62
7
  6
CONTINUOUS
 10
364.6590352445
 20
30.5712868422
 11
364.9480979651
 21
30.6035511455
 12
364.716847524
 22
30.5067598731
 13
364.716847524
 23
30.5067598731
  0
SOLID
  8
0
 62
7
  6
CONTINUOUS
 10
364.9480979651
 20
30.6035511455
 11
365.0059102445
 21
30.5067598731
 12
364.716847524
 22
30.5067598731
 13
364.716847524
 23
30.5067598731
  0
SOLID
  8
0
 62
7
  6
CONTINUOUS
 10
360.2652852997
 20
30.7326051679
 11
360.3230977445
 21
30.8293966612
 12
360.6121602997
 22
30.8293966612
 13
360.6121602997
 23
30.8293966612
  0
SOLID
  8
0
 62
7
  6
CONTINUOUS
 10
360.6121602997
 20
30.8293966612
 11
360.5543476894
 21
30.7003410226
 12
360.2652852997
 22
30.7326051679
 13
360.2652852997
 23
30.7326051679
  0
SOLID
  8
0
 62
7
  6
CONTINUOUS
 10
360.091847717
 20
30.6680782357
 11
360.2652852997
 21
30.7326051679
 12
360.5543476894
 22
30.7003410226
 13
360.5543476894
 23
30.7003410226
  0
SOLID
  8
0
 62
7
  6
CONTINUOUS
 10
360.091847717
 20
30.6680782357
 11
360.5543476894
 21
30.7003410226
 12
359.6871602721
 22
30.6358139324
 13
359.6871602721
 23
30.6358139324
  0
SOLID
  8
0
 62
7
  6
CONTINUOUS
 10
360.5543476894
 20
30.7003410226
 11
360.3809101894
 21
30.6035511455
 12
359.6871602721
 22
30.6358139324
 13
359.6871602721
 23
30.6358139324
  0
SOLID
  8
0
 62
7
  6
CONTINUOUS
 10
359.2246602583
 20
30.5712868422
 11
359.6871602721
 21
30.6358139324
 12
360.3809101894
 22
30.6035511455
 13
360.3809101894
 23
30.6035511455
  0
SOLID
  8
0
 62
7
  6
CONTINUOUS
 10
359.2246602583
 20
30.5712868422
 11
360.3809101894
 21
30.6035511455
 12
359.3980977583
 22
30.5390224228
 13
359.3980977583
 23
30.5390224228
  0
SOLID
  8
0
 62
7
  6
CONTINUOUS
 10
360.3809101894
 20
30.6035511455
 11
360.1496602445
 21
30.5390224228
 12
359.3980977583
 22
30.5390224228
 13
359.3980977583
 23
30.5390224228
  0
SOLID
  8
0
 62
7
  6
CONTINUOUS
 10
359.744972717
 20
30.5067597521
 11
359.3980977583
 21
30.5390224228
 12
360.1496602445
 22
30.5390224228
 13
360.1496602445
 23
30.5390224228
  0
SOLID
  8
0
 62
7
  6
CONTINUOUS
 10
363.2137226343
 20
30.6680782357
 11
363.4449727445
 21
30.7648681127
 12
363.5027853548
 22
30.7003410226
 13
363.5027853548
 23
30.7003410226
  0
SOLID
  8
0
 62
7
  6
CONTINUOUS
 10
363.5027853548
 20
30.7003410226
 11
363.7340351343
 21
30.6358139324
 12
363.2137226343
 22
30.6680782357
 13
363.2137226343
 23
30.6680782357
  0
SOLID
  8
0
 62
7
  6
CONTINUOUS
 10
363.3871601343
 20
30.5712868422
 11
363.2137226343
 21
30.6680782357
 12
363.7340351343
 22
30.6358139324
 13
363.7340351343
 23
30.6358139324
  0
SOLID
  8
0
 62
7
  6
CONTINUOUS
 10
364.0809101343
 20
30.6358139363
 11
364.369972524
 21
30.7003410226
 12
364.6012229651
 22
30.6680782357
 13
364.6012229651
 23
30.6680782357
  0
SOLID
  8
0
 62
7
  6
CONTINUOUS
 10
364.6012229651
 20
30.6680782357
 11
364.543410024
 21
30.6035511455
 12
364.0809101343
 22
30.6358139363
 13
364.0809101343
 23
30.6358139363
  0
SOLID
  8
0
 62
7
  6
CONTINUOUS
 10
364.543410024
 20
30.6035511455
 11
363.3871601343
 21
30.5712868422
 12
364.0809101343
 22
30.6358139363
 13
364.0809101343
 23
30.6358139363
  0
SOLID
  8
0
 62
7
  6
CONTINUOUS
 10
363.3871601343
 20
30.5712868422
 11
363.7340351343
 21
30.6358139363
 12
364.0809101343
 22
30.6358139363
 13
364.0809101343
 23
30.6358139363
  0
SOLID
  8
0
 62
7
  6
CONTINUOUS
 10
363.3871601343
 20
30.5712868422
 11
364.543410024
 21
30.6035511455
 12
363.5027853548
 22
30.5390225267
 13
363.5027853548
 23
30.5390225267
  0
SOLID
  8
0
 62
7
  6
CONTINUOUS
 10
364.543410024
 20
30.6035511455
 11
364.369972524
 21
30.5390225267
 12
363.5027853548
 22
30.5390225267
 13
363.5027853548
 23
30.5390225267
  0
SOLID
  8
0
 62
7
  6
CONTINUOUS
 10
363.7340351343
 20
30.5067596914
 11
363.5027853548
 21
30.5390225267
 12
364.369972524
 22
30.5390225267
 13
364.369972524
 23
30.5390225267
  0
SOLID
  8
0
 62
7
  6
CONTINUOUS
 10
364.369972524
 20
30.5390225267
 11
364.0809101343
 21
30.5067596914
 12
363.7340351343
 22
30.5067596914
 13
363.7340351343
 23
30.5067596914
  0
SOLID
  8
0
 62
7
  6
CONTINUOUS
 10
368.7637229651
 20
30.6680782357
 11
368.4168479651
 21
30.6358138717
 12
368.6480977445
 22
30.7003410226
 13
368.6480977445
 23
30.7003410226
  0
SOLID
  8
0
 62
7
  6
CONTINUOUS
 10
368.6480977445
 20
30.7003410226
 11
368.4168479651
 21
30.6358138717
 12
368.5902854651
 22
30.7648680521
 13
368.5902854651
 23
30.7648680521
  0
SOLID
  8
0
 62
7
  6
CONTINUOUS
 10
368.4168479651
 20
30.6358138717
 11
368.3012227445
 21
30.7648680521
 12
368.5902854651
 22
30.7648680521
 13
368.5902854651
 23
30.7648680521
  0
SOLID
  8
0
 62
7
  6
CONTINUOUS
 10
368.7637229651
 20
30.6680782357
 11
369.1105979651
 21
30.6358138717
 12
368.4168479651
 22
30.6358138717
 13
368.4168479651
 23
30.6358138717
  0
SOLID
  8
0
 62
7
  6
CONTINUOUS
 10
365.4684104651
 20
30.5067597521
 11
365.4684104651
 21
31.5391977439
 12
365.757472524
 22
30.5067597521
 13
365.757472524
 23
31.5391977439
  0
ENDBLK
  8
0
  6
BYBLOCK
 62
0
  0
BLOCK
  8
0
 62
2
  6
CONTINUOUS
  2
SYMBOL_0_BL0
 70
64
 10
240.8592468615
 20
19.762288695
  0
TEXT
  8
0
 62
7
  6
CONTINUOUS
 10
227.1239507038
 20
19.1357028027
  7
TEXTSTYLE_3
 40
2.7338706658
  1
Ammeraal Beltech
 41
1.0
 51
15.0
 72
0
  0
TEXT
  8
0
 62
7
  6
CONTINUOUS
 10
237.9247515296
 20
16.8621661299
  7
TEXTSTYLE_4
 40
1.0935482663
  1
Innovation & Service in Belting
 41
1.0
 72
0
  0
LINE
  8
0
 62
7
  6
CONTINUOUS
 10
221.0994100525
 20
19.9022961113
 11
221.8775620458
 21
23.5632134089
  0
LINE
  8
0
 62
7
  6
CONTINUOUS
 10
231.9727303357
 20
27.2266073205
 11
222.3653797889
 21
24.1049898993
  0
LINE
  8
0
 62
7
  6
CONTINUOUS
 10
221.3246933848
 20
19.2089453082
 11
228.8317686459
 21
12.4495443822
  0
LINE
  8
0
 62
7
  6
CONTINUOUS
 10
221.5872277955
 20
20.4440726016
 11
232.3954971607
 21
23.9558922005
  0
LINE
  8
0
 62
7
  6
CONTINUOUS
 10
232.3912920235
 20
13.6061036368
 11
223.9458323548
 21
21.2104296785
  0
LINE
  8
0
 62
7
  6
CONTINUOUS
 10
232.9111147433
 20
26.3816822048
 11
231.9345552061
 21
21.7873308023
  0
LINE
  8
0
 62
7
  6
CONTINUOUS
 10
231.2347532584
 20
18.4950214885
 11
230.5483050469
 21
15.2655365641
  0
LINE
  8
0
 62
7
  6
CONTINUOUS
 10
233.5922108419
 20
13.9963058145
 11
234.5484423775
 21
18.4950214885
  0
LINE
  8
0
 62
7
  6
CONTINUOUS
 10
235.2482443252
 20
21.7873308023
 11
235.6924861276
 21
23.8773241617
  0
LINE
  8
0
 62
7
  6
CONTINUOUS
 10
229.5448697213
 20
12.2979700695
 11
233.1043930989
 21
13.4545293241
  0
LINE
  8
0
 62
7
  6
CONTINUOUS
 10
232.685831411
 20
27.0750330078
 11
235.4672027953
 21
24.5706749648
  0
ARC
  8
0
 62
7
  6
CONTINUOUS
 10
222.5906631212
 20
23.4116390962
 40
0.7290321776
 50
108.0
 51
168.0
  0
ARC
  8
0
 62
7
  6
CONTINUOUS
 10
232.198013668
 20
26.5332565175
 40
0.7290321776
 50
348.0
 51
108.0
  0
ARC
  8
0
 62
7
  6
CONTINUOUS
 10
234.9793850522
 20
24.0288984744
 40
0.7290321776
 50
348.0
 51
48.0
  0
ARC
  8
0
 62
7
  6
CONTINUOUS
 10
229.319586389
 20
12.9913208726
 40
0.7290321776
 50
228.0
 51
288.0
  0
ARC
  8
0
 62
7
  6
CONTINUOUS
 10
221.8125111278
 20
19.7507217986
 40
0.7290321776
 50
108.0
 51
228.0
  0
ARC
  8
0
 62
7
  6
CONTINUOUS
 10
232.8791097665
 20
14.1478801272
 40
0.7290321776
 50
228.0
 51
348.0
  0
ENDBLK
  8
0
  6
BYBLOCK
 62
0
  0
ENDSEC
  0
SECTION
  2
ENTITIES
  0
TEXT
  8
0
 62
5
  6
CONTINUOUS
 10
304.937007874
 20
25.636
  7
TEXTSTYLE_2
 40
2.8
  1
Scale :
 41
0.6
 51
0.000019
 72
0
  0
TEXT
  8
0
 62
5
  6
CONTINUOUS
 10
324.937007874
 20
25.636
  7
TEXTSTYLE_2
 40
2.8
  1
Belt type:
 41
0.6
 51
0.000019
 72
0
  0
INSERT
  8
0
 62
2
  6
CONTINUOUS
  2
SYMBOL_0_BL0
 10
240.8592468615
 20
19.762288695
  0
INSERT
  8
0
 62
2
  6
CONTINUOUS
  2
SYMBOL_5_BL1
 10
382.7840918555
 20
35.5067593403
  0
LINE
  8
0
 62
2
  6
CONTINUOUS
 10
218.937007874
 20
30.0
 11
408.937007874
 21
30.0
  0
LINE
  8
0
 62
2
  6
CONTINUOUS
 10
218.937007874
 20
30.0
 11
218.937007874
 21
10.0
  0
LINE
  8
0
 62
2
  6
CONTINUOUS
 10
218.937007874
 20
10.0
 11
408.937007874
 21
10.0
  0
LINE
  8
0
 62
2
  6
CONTINUOUS
 10
303.937007874
 20
30.0
 11
303.937007874
 21
10.0
  0
LINE
  8
0
 62
2
  6
CONTINUOUS
 10
323.937007874
 20
30.0
 11
323.937007874
 21
10.0
  0
LINE
  8
0
 62
2
  6
CONTINUOUS
 10
408.937007874
 20
30.0
 11
408.937007874
 21
10.0
  0
TEXT
  8
0
 62
5
  6
CONTINUOUS
 10
221.937007874
 20
23.303
  7
TEXTSTYLE_5
 40
1.52
  1
                                                                     Ammeraal Beltech Modular A/S
 41
1.0
 72
0
  0
TEXT
  8
0
 62
5
  6
CONTINUOUS
 10
221.937007874
 20
20.595
  7
TEXTSTYLE_5
 40
1.5
  1
                                                                      Hjulmagervej 21, 7100 Vejle,  DK
 41
1.0
 72
0
  0
TEXT
  8
0
 62
5
  6
CONTINUOUS
 10
221.937007874
 20
17.881
  7
TEXTSTYLE_5
 40
1.495
  1
                                                                      tel: 
 41
1.0
 72
0
  0
TEXT
  8
0
 62
5
  6
CONTINUOUS
 10
266.9239544389
 20
17.881
  7
TEXTSTYLE_5
 40
1.51
  1
+45 75723100     fax: +45 75723348
 41
1.0
 72
0
  0
TEXT
  8
0
 62
5
  6
CONTINUOUS
 10
221.937007874
 20
15.177
  7
TEXTSTYLE_5
 40
1.5
  1
                                                                      admin@unichains.dk  www.unichains.com
 41
1.0
 72
0
  0
TEXT
  8
0
 62
5
  6
CONTINUOUS
 10
308.687007874
 20
13.75
  7
TEXTSTYLE_6
 40
5.0
  1
1:1
 41
0.7
 72
1
 11
313.937007874
 21
13.75
  0
TEXT
  8
0
 62
5
  6
CONTINUOUS
 10
326.937007874
 20
13.75
  7
TEXTSTYLE_7
 40
7.5
  1
uni Flex ASB-43-RR K1200 (RR= Curve Right)
 41
0.2364583333
 72
0
  0
LINE
  8
0
 62
7
  6
CONTINUOUS
 10
0.0
 20
0.0
 11
0.0
 21
297.0
  0
LINE
  8
0
 62
7
  6
CONTINUOUS
 10
8.937007874
 20
10.0
 11
8.937007874
 21
287.0
  0
LINE
  8
0
 62
7
  6
CONTINUOUS
 10
0.0
 20
0.0
 11
420.0
 21
0.0
  0
LINE
  8
0
 62
7
  6
CONTINUOUS
 10
408.937007874
 20
10.0
 11
8.937007874
 21
10.0
  0
LINE
  8
0
 62
7
  6
CONTINUOUS
 10
218.937007874
 20
30.0
 11
408.937007874
 21
30.0
  0
LINE
  8
0
 62
7
  6
CONTINUOUS
 10
210.0
 20
297.0
 11
210.0
 21
292.0
  0
LINE
  8
0
 62
7
  6
CONTINUOUS
 10
210.0
 20
0.0
 11
210.0
 21
5.0
  0
LINE
  8
0
 62
7
  6
CONTINUOUS
 10
8.937007874
 20
287.0
 11
408.937007874
 21
287.0
  0
LINE
  8
0
 62
7
  6
CONTINUOUS
 10
0.0
 20
297.0
 11
420.0
 21
297.0
  0
LINE
  8
0
 62
7
  6
CONTINUOUS
 10
408.937007874
 20
287.0
 11
408.937007874
 21
10.0
  0
LINE
  8
0
 62
7
  6
CONTINUOUS
 10
420.0
 20
0.0
 11
420.0
 21
297.0
  0
LINE
  8
0
 62
7
  6
CONTINUOUS
 10
21.8350124845
 20
141.8898375309
 11
21.8350124845
 21
138.6129904005
  0
LINE
  8
0
 62
7
  6
CONTINUOUS
 10
21.8350124845
 20
127.1009202959
 11
21.8350124845
 21
124.7460050728
  0
LINE
  8
0
 62
7
  6
CONTINUOUS
 10
22.5850124845
 20
128.7326371831
 11
22.5850124845
 21
135.4575632272
  0
LINE
  8
0
 62
7
  6
CONTINUOUS
 10
27.0850124845
 20
129.161906072
 11
27.0850124845
 21
135.4575632272
  0
LINE
  8
0
 62
7
  6
CONTINUOUS
 10
27.8350124845
 20
138.6129904005
 11
27.8350124845
 21
141.8898375309
  0
LINE
  8
0
 62
7
  6
CONTINUOUS
 10
28.1850124845
 20
114.1477051758
 11
28.1850124845
 21
110.0803477881
  0
LINE
  8
0
 62
7
  6
CONTINUOUS
 10
28.9350124845
 20
121.5932285187
 11
28.9350124845
 21
117.303132349
  0
LINE
  8
0
 62
7
  6
CONTINUOUS
 10
27.1147167583
 20
135.6994851228
 11
27.8290716298
 21
138.5646060213
  0
LINE
  8
0
 62
7
  6
CONTINUOUS
 10
22.5553082108
 20
135.6994851228
 11
21.8409533393
 21
138.5646060213
  0
LINE
  8
0
 62
7
  6
CONTINUOUS
 10
33.4350124845
 20
117.303132349
 11
33.4350124845
 21
121.6098406835
  0
LINE
  8
0
 62
7
  6
CONTINUOUS
 10
34.1850124845
 20
110.0803477881
 11
34.1850124845
 21
114.1477051758
  0
LINE
  8
0
 62
7
  6
CONTINUOUS
 10
34.5350124845
 20
141.8898375309
 11
34.5350124845
 21
138.6129904005
  0
LINE
  8
0
 62
7
  6
CONTINUOUS
 10
35.2850124845
 20
135.4575632272
 11
35.2850124845
 21
129.1564122852
  0
LINE
  8
0
 62
7
  6
CONTINUOUS
 10
39.7850124845
 20
129.1452939072
 11
39.7850124845
 21
135.4575632272
  0
LINE
  8
0
 62
7
  6
CONTINUOUS
 10
40.5350124845
 20
138.6129904005
 11
40.5350124845
 21
141.8898375309
  0
LINE
  8
0
 62
7
  6
CONTINUOUS
 10
40.8850124845
 20
114.1477051758
 11
40.8850124845
 21
110.0803477881
  0
LINE
  8
0
 62
7
  6
CONTINUOUS
 10
41.6350124845
 20
121.6098406835
 11
41.6350124845
 21
117.303132349
  0
LINE
  8
0
 62
7
  6
CONTINUOUS
 10
28.9053082108
 20
117.0612104534
 11
28.1909533393
 21
114.1960895549
  0
LINE
  8
0
 62
7
  6
CONTINUOUS
 10
39.8147167583
 20
135.6994851228
 11
40.5290716298
 21
138.5646060213
  0
LINE
  8
0
 62
7
  6
CONTINUOUS
 10
34.1790716298
 20
114.1960895549
 11
33.4647167583
 21
117.0612104534
  0
LINE
  8
0
 62
7
  6
CONTINUOUS
 10
34.5409533393
 20
138.5646060213
 11
35.2553082108
 21
135.6994851228
  0
LINE
  8
0
 62
7
  6
CONTINUOUS
 10
46.1350124845
 20
117.303132349
 11
46.1350124845
 21
121.6264528483
  0
LINE
  8
0
 62
7
  6
CONTINUOUS
 10
46.8850124845
 20
110.0803477881
 11
46.8850124845
 21
114.1477051758
  0
LINE
  8
0
 62
7
  6
CONTINUOUS
 10
47.2350124845
 20
141.8898375309
 11
47.2350124845
 21
138.6129904005
  0
LINE
  8
0
 62
7
  6
CONTINUOUS
 10
47.9850124845
 20
135.4575632272
 11
47.9850124845
 21
129.1398001204
  0
LINE
  8
0
 62
7
  6
CONTINUOUS
 10
52.4850124845
 20
129.1286817424
 11
52.4850124845
 21
135.4575632272
  0
LINE
  8
0
 62
7
  6
CONTINUOUS
 10
53.2350124845
 20
138.6129904005
 11
53.2350124845
 21
141.8898375309
  0
LINE
  8
0
 62
7
  6
CONTINUOUS
 10
53.5850124845
 20
114.1477051758
 11
53.5850124845
 21
110.0803477881
  0
LINE
  8
0
 62
7
  6
CONTINUOUS
 10
54.3350124845
 20
121.6264528483
 11
54.3350124845
 21
117.303132349
  0
LINE
  8
0
 62
7
  6
CONTINUOUS
 10
41.6053082108
 20
117.0612104534
 11
40.8909533393
 21
114.1960895549
  0
LINE
  8
0
 62
7
  6
CONTINUOUS
 10
52.5147167583
 20
135.6994851228
 11
53.2290716298
 21
138.5646060213
  0
LINE
  8
0
 62
7
  6
CONTINUOUS
 10
46.8790716298
 20
114.1960895549
 11
46.1647167583
 21
117.0612104534
  0
LINE
  8
0
 62
7
  6
CONTINUOUS
 10
47.2409533393
 20
138.5646060213
 11
47.9553082108
 21
135.6994851228
  0
LINE
  8
0
 62
7
  6
CONTINUOUS
 10
58.8350124845
 20
117.303132349
 11
58.8350124845
 21
121.6430650131
  0
LINE
  8
0
 62
7
  6
CONTINUOUS
 10
59.5850124845
 20
110.0803477881
 11
59.5850124845
 21
114.1477051758
  0
LINE
  8
0
 62
7
  6
CONTINUOUS
 10
59.9350124845
 20
141.8898375309
 11
59.9350124845
 21
138.6129904005
  0
LINE
  8
0
 62
7
  6
CONTINUOUS
 10
60.6850124845
 20
135.4575632272
 11
60.6850124845
 21
129.1231879556
  0
LINE
  8
0
 62
7
  6
CONTINUOUS
 10
65.1850124845
 20
129.1120695776
 11
65.1850124845
 21
135.4575632272
  0
LINE
  8
0
 62
7
  6
CONTINUOUS
 10
65.9350124845
 20
138.6129904005
 11
65.9350124845
 21
141.8898375309
  0
LINE
  8
0
 62
7
  6
CONTINUOUS
 10
66.2850124845
 20
114.1477051758
 11
66.2850124845
 21
110.0803477881
  0
LINE
  8
0
 62
7
  6
CONTINUOUS
 10
67.0350124845
 20
121.6430650131
 11
67.0350124845
 21
117.303132349
  0
LINE
  8
0
 62
7
  6
CONTINUOUS
 10
54.3053082108
 20
117.0612104534
 11
53.5909533393
 21
114.1960895549
  0
LINE
  8
0
 62
7
  6
CONTINUOUS
 10
65.2147167583
 20
135.6994851228
 11
65.9290716298
 21
138.5646060213
  0
LINE
  8
0
 62
7
  6
CONTINUOUS
 10
59.5790716298
 20
114.1960895549
 11
58.8647167583
 21
117.0612104534
  0
LINE
  8
0
 62
7
  6
CONTINUOUS
 10
59.9409533393
 20
138.5646060213
 11
60.6553082108
 21
135.6994851228
  0
LINE
  8
0
 62
7
  6
CONTINUOUS
 10
71.5350124845
 20
117.303132349
 11
71.5350124845
 21
121.6596771779
  0
LINE
  8
0
 62
7
  6
CONTINUOUS
 10
72.2850124845
 20
110.0803477881
 11
72.2850124845
 21
114.1477051758
  0
LINE
  8
0
 62
7
  6
CONTINUOUS
 10
72.6350124845
 20
141.8898375309
 11
72.6350124845
 21
138.6129904005
  0
LINE
  8
0
 62
7
  6
CONTINUOUS
 10
73.3850124845
 20
135.4575632272
 11
73.3850124845
 21
129.1065757908
  0
LINE
  8
0
 62
7
  6
CONTINUOUS
 10
77.8850124845
 20
129.0954574128
 11
77.8850124845
 21
135.4575632272
  0
LINE
  8
0
 62
7
  6
CONTINUOUS
 10
78.6350124845
 20
138.6129904005
 11
78.6350124845
 21
141.8898375309
  0
LINE
  8
0
 62
7
  6
CONTINUOUS
 10
78.9850124845
 20
114.1477051758
 11
78.9850124845
 21
110.0803477881
  0
LINE
  8
0
 62
7
  6
CONTINUOUS
 10
79.7350124845
 20
121.6596771779
 11
79.7350124845
 21
117.303132349
  0
LINE
  8
0
 62
7
  6
CONTINUOUS
 10
67.0053082108
 20
117.0612104534
 11
66.2909533393
 21
114.1960895549
  0
LINE
  8
0
 62
7
  6
CONTINUOUS
 10
77.9147167583
 20
135.6994851228
 11
78.6290716298
 21
138.5646060213
  0
LINE
  8
0
 62
7
  6
CONTINUOUS
 10
72.2790716298
 20
114.1960895549
 11
71.5647167583
 21
117.0612104534
  0
LINE
  8
0
 62
7
  6
CONTINUOUS
 10
72.6409533393
 20
138.5646060213
 11
73.3553082108
 21
135.6994851228
  0
LINE
  8
0
 62
7
  6
CONTINUOUS
 10
84.2350124845
 20
117.303132349
 11
84.2350124845
 21
121.6762893427
  0
LINE
  8
0
 62
7
  6
CONTINUOUS
 10
84.9850124845
 20
110.0803477881
 11
84.9850124845
 21
114.1477051758
  0
LINE
  8
0
 62
7
  6
CONTINUOUS
 10
85.3350124845
 20
141.8898375309
 11
85.3350124845
 21
138.6129904005
  0
LINE
  8
0
 62
7
  6
CONTINUOUS
 10
86.0850124845
 20
135.4575632272
 11
86.0850124845
 21
129.089963626
  0
LINE
  8
0
 62
7
  6
CONTINUOUS
 10
90.5850124845
 20
129.078845248
 11
90.5850124845
 21
135.4575632272
  0
LINE
  8
0
 62
7
  6
CONTINUOUS
 10
91.3350124845
 20
138.6129904005
 11
91.3350124845
 21
141.8898375309
  0
LINE
  8
0
 62
7
  6
CONTINUOUS
 10
91.6850124845
 20
114.1477051758
 11
91.6850124845
 21
110.108340763
  0
LINE
  8
0
 62
7
  6
CONTINUOUS
 10
79.7053082108
 20
117.0612104534
 11
78.9909533393
 21
114.1960895549
  0
LINE
  8
0
 62
7
  6
CONTINUOUS
 10
90.6147167583
 20
135.6994851228
 11
91.3290716298
 21
138.5646060213
  0
LINE
  8
0
 62
7
  6
CONTINUOUS
 10
84.9790716298
 20
114.1960895549
 11
84.2647167583
 21
117.0612104534
  0
LINE
  8
0
 62
7
  6
CONTINUOUS
 10
85.3409533393
 20
138.5646060213
 11
86.0553082108
 21
135.6994851228
  0
LINE
  8
0
 62
7
  6
CONTINUOUS
 10
92.4350124845
 20
121.6762893427
 11
92.4350124845
 21
117.303132349
  0
LINE
  8
0
 62
7
  6
CONTINUOUS
 10
96.9350124845
 20
117.303132349
 11
96.9350124845
 21
121.6929015076
  0
LINE
  8
0
 62
7
  6
CONTINUOUS
 10
97.6850124845
 20
110.1437953084
 11
97.6850124845
 21
114.1477051758
  0
LINE
  8
0
 62
7
  6
CONTINUOUS
 10
98.0350124845
 20
141.8412591472
 11
98.0350124845
 21
138.6129904005
  0
LINE
  8
0
 62
7
  6
CONTINUOUS
 10
98.7850124845
 20
135.4575632272
 11
98.7850124845
 21
129.0733514612
  0
LINE
  8
0
 62
7
  6
CONTINUOUS
 10
103.2850124845
 20
129.0622330831
 11
103.2850124845
 21
135.4575632272
  0
LINE
  8
0
 62
7
  6
CONTINUOUS
 10
104.0350124845
 20
138.6129904005
 11
104.0350124845
 21
141.8412591472
  0
LINE
  8
0
 62
7
  6
CONTINUOUS
 10
104.3850124845
 20
114.1477051758
 11
104.3850124845
 21
110.208401369
  0
LINE
  8
0
 62
7
  6
CONTINUOUS
 10
92.4053082108
 20
117.0612104534
 11
91.6909533393
 21
114.1960895549
  0
LINE
  8
0
 62
7
  6
CONTINUOUS
 10
103.3147167583
 20
135.6994851228
 11
104.0290716298
 21
138.5646060213
  0
LINE
  8
0
 62
7
  6
CONTINUOUS
 10
97.6790716298
 20
114.1960895549
 11
96.9647167583
 21
117.0612104534
  0
LINE
  8
0
 62
7
  6
CONTINUOUS
 10
98.0409533393
 20
138.5646060213
 11
98.7553082108
 21
135.6994851228
  0
LINE
  8
0
 62
7
  6
CONTINUOUS
 10
105.1350124845
 20
121.6929015076
 11
105.1350124845
 21
117.303132349
  0
LINE
  8
0
 62
7
  6
CONTINUOUS
 10
109.6350124845
 20
117.303132349
 11
109.6350124845
 21
121.7095136724
  0
LINE
  8
0
 62
7
  6
CONTINUOUS
 10
110.3850124845
 20
110.2438559145
 11
110.3850124845
 21
114.1477051758
  0
LINE
  8
0
 62
7
  6
CONTINUOUS
 10
110.7350124845
 20
141.7411985411
 11
110.7350124845
 21
138.6129904005
  0
LINE
  8
0
 62
7
  6
CONTINUOUS
 10
111.4850124845
 20
135.4575632272
 11
111.4850124845
 21
129.0567392964
  0
LINE
  8
0
 62
7
  6
CONTINUOUS
 10
115.9850124845
 20
129.0456209183
 11
115.9850124845
 21
135.4575632272
  0
LINE
  8
0
 62
7
  6
CONTINUOUS
 10
116.7350124845
 20
138.6129904005
 11
116.7350124845
 21
141.7411985411
  0
LINE
  8
0
 62
7
  6
CONTINUOUS
 10
105.1053082108
 20
117.0612104534
 11
104.3909533393
 21
114.1960895549
  0
LINE
  8
0
 62
7
  6
CONTINUOUS
 10
116.0147167583
 20
135.6994851228
 11
116.7290716298
 21
138.5646060213
  0
LINE
  8
0
 62
7
  6
CONTINUOUS
 10
110.3790716298
 20
114.1960895549
 11
109.6647167583
 21
117.0612104534
  0
LINE
  8
0
 62
7
  6
CONTINUOUS
 10
110.7409533393
 20
138.5646060213
 11
111.4553082108
 21
135.6994851228
  0
LINE
  8
0
 62
7
  6
CONTINUOUS
 10
117.0850124845
 20
114.1477051758
 11
117.0850124845
 21
110.3084619751
  0
LINE
  8
0
 62
7
  6
CONTINUOUS
 10
117.8350124845
 20
121.7095136724
 11
117.8350124845
 21
117.303132349
  0
LINE
  8
0
 62
7
  6
CONTINUOUS
 10
122.3350124845
 20
117.303132349
 11
122.3350124845
 21
121.7261258372
  0
LINE
  8
0
 62
7
  6
CONTINUOUS
 10
123.0850124845
 20
110.3439165205
 11
123.0850124845
 21
114.1477051758
  0
LINE
  8
0
 62
7
  6
CONTINUOUS
 10
123.4350124845
 20
141.641137935
 11
123.4350124845
 21
138.6129904005
  0
LINE
  8
0
 62
7
  6
CONTINUOUS
 10
124.1850124845
 20
135.4575632272
 11
124.1850124845
 21
129.0401271315
  0
LINE
  8
0
 62
7
  6
CONTINUOUS
 10
128.6850124845
 20
129.0290087535
 11
128.6850124845
 21
135.4575632272
  0
LINE
  8
0
 62
7
  6
CONTINUOUS
 10
117.8053082108
 20
117.0612104534
 11
117.0909533393
 21
114.1960895549
  0
LINE
  8
0
 62
7
  6
CONTINUOUS
 10
128.7147167583
 20
135.6994851228
 11
129.4290716298
 21
138.5646060213
  0
LINE
  8
0
 62
7
  6
CONTINUOUS
 10
123.0790716298
 20
114.1960895549
 11
122.3647167583
 21
117.0612104534
  0
LINE
  8
0
 62
7
  6
CONTINUOUS
 10
123.4409533393
 20
138.5646060213
 11
124.1553082108
 21
135.6994851228
  0
LINE
  8
0
 62
7
  6
CONTINUOUS
 10
129.4350124845
 20
138.6129904005
 11
129.4350124845
 21
141.641137935
  0
LINE
  8
0
 62
7
  6
CONTINUOUS
 10
129.7850124845
 20
114.1477051758
 11
129.7850124845
 21
110.4085225812
  0
LINE
  8
0
 62
7
  6
CONTINUOUS
 10
130.5350124845
 20
121.7261258372
 11
130.5350124845
 21
117.303132349
  0
LINE
  8
0
 62
7
  6
CONTINUOUS
 10
135.0350124845
 20
117.303132349
 11
135.0350124845
 21
121.742738002
  0
LINE
  8
0
 62
7
  6
CONTINUOUS
 10
135.7850124845
 20
110.4439771266
 11
135.7850124845
 21
114.1477051758
  0
LINE
  8
0
 62
7
  6
CONTINUOUS
 10
136.1350124845
 20
141.541077329
 11
136.1350124845
 21
138.6129904005
  0
LINE
  8
0
 62
7
  6
CONTINUOUS
 10
136.8850124845
 20
135.4575632272
 11
136.8850124845
 21
129.0235149667
  0
LINE
  8
0
 62
7
  6
CONTINUOUS
 10
141.3850124845
 20
129.0123965887
 11
141.3850124845
 21
135.4575632272
  0
LINE
  8
0
 62
7
  6
CONTINUOUS
 10
130.5053082108
 20
117.0612104534
 11
129.7909533393
 21
114.1960895549
  0
LINE
  8
0
 62
7
  6
CONTINUOUS
 10
141.4147167583
 20
135.6994851228
 11
142.1290716298
 21
138.5646060213
  0
LINE
  8
0
 62
7
  6
CONTINUOUS
 10
135.7790716298
 20
114.1960895549
 11
135.0647167583
 21
117.0612104534
  0
LINE
  8
0
 62
7
  6
CONTINUOUS
 10
136.1409533393
 20
138.5646060213
 11
136.8553082108
 21
135.6994851228
  0
LINE
  8
0
 62
7
  6
CONTINUOUS
 10
142.1350124845
 20
138.6129904005
 11
142.1350124845
 21
141.541077329
  0
LINE
  8
0
 62
7
  6
CONTINUOUS
 10
142.4850124845
 20
114.1477051758
 11
142.4850124845
 21
110.5085831872
  0
LINE
  8
0
 62
7
  6
CONTINUOUS
 10
143.2350124845
 20
121.742738002
 11
143.2350124845
 21
117.303132349
  0
LINE
  8
0
 62
7
  6
CONTINUOUS
 10
147.7350124845
 20
117.303132349
 11
147.7350124845
 21
121.7593501668
  0
LINE
  8
0
 62
7
  6
CONTINUOUS
 10
148.4850124845
 20
110.5440377327
 11
148.4850124845
 21
114.1477051758
  0
LINE
  8
0
 62
7
  6
CONTINUOUS
 10
148.8350124845
 20
141.4410167229
 11
148.8350124845
 21
138.6129904005
  0
LINE
  8
0
 62
7
  6
CONTINUOUS
 10
149.5850124845
 20
135.4575632272
 11
149.5850124845
 21
129.0069028019
  0
LINE
  8
0
 62
7
  6
CONTINUOUS
 10
143.2053082108
 20
117.0612104534
 11
142.4909533393
 21
114.1960895549
  0
LINE
  8
0
 62
7
  6
CONTINUOUS
 10
154.1147167583
 20
135.6994851228
 11
154.8290716298
 21
138.5646060213
  0
LINE
  8
0
 62
7
  6
CONTINUOUS
 10
92.4409213921
 20
109.3583640401
 11
96.9409213921
 21
109.3938185856
  0
LINE
  8
0
 62
7
  6
CONTINUOUS
 10
105.1409213921
 20
109.4584246462
 11
109.6409213921
 21
109.4938791916
  0
LINE
  8
0
 62
7
  6
CONTINUOUS
 10
117.8409213921
 20
109.5584852522
 11
122.3409213921
 21
109.5939397977
  0
LINE
  8
0
 62
7
  6
CONTINUOUS
 10
130.5409213921
 20
109.6585458583
 11
135.0409213921
 21
109.6940004038
  0
LINE
  8
0
 62
7
  6
CONTINUOUS
 10
143.2409213921
 20
109.7586064644
 11
147.7409213921
 21
109.7940610098
  0
LINE
  8
0
 62
7
  6
CONTINUOUS
 10
155.9409213921
 20
109.8586670704
 11
160.4409213921
 21
109.8941216159
  0
LINE
  8
0
 62
7
  6
CONTINUOUS
 10
168.6409213921
 20
109.9587276765
 11
173.1409213921
 21
109.9941822219
  0
LINE
  8
0
 62
7
  6
CONTINUOUS
 10
181.3409213921
 20
110.0587882825
 11
185.8409213921
 21
110.094242828
  0
LINE
  8
0
 62
7
  6
CONTINUOUS
 10
194.0409213921
 20
110.1588488886
 11
198.5409213921
 21
110.1943034341
  0
LINE
  8
0
 62
7
  6
CONTINUOUS
 10
206.7409213921
 20
110.2589094947
 11
211.2409213921
 21
110.2943640401
  0
LINE
  8
0
 62
7
  6
CONTINUOUS
 10
219.4409213921
 20
110.3589701007
 11
223.9409213921
 21
110.3944246462
  0
LINE
  8
0
 62
7
  6
CONTINUOUS
 10
232.1409213921
 20
110.4590307068
 11
236.6409213921
 21
110.4944852522
  0
LINE
  8
0
 62
7
  6
CONTINUOUS
 10
244.8409213921
 20
110.5590913129
 11
249.3409213921
 21
110.5945458583
  0
LINE
  8
0
 62
7
  6
CONTINUOUS
 10
28.9350124845
 20
109.3303477881
 11
33.4350124845
 21
109.3303477881
  0
LINE
  8
0
 62
7
  6
CONTINUOUS
 10
41.6350124845
 20
109.3303477881
 11
46.1350124845
 21
109.3303477881
  0
LINE
  8
0
 62
7
  6
CONTINUOUS
 10
54.3350124845
 20
109.3303477881
 11
58.8350124845
 21
109.3303477881
  0
LINE
  8
0
 62
7
  6
CONTINUOUS
 10
67.0350124845
 20
109.3303477881
 11
71.5350124845
 21
109.3303477881
  0
LINE
  8
0
 62
7
  6
CONTINUOUS
 10
79.7350124845
 20
109.3303477881
 11
84.2350124845
 21
109.3303477881
  0
LINE
  8
0
 62
7
  6
CONTINUOUS
 10
258.9850124845
 20
109.8303477881
 11
260.5850124845
 21
109.8303477881
  0
LINE
  8
0
 62
7
  6
CONTINUOUS
 10
272.9850124845
 20
109.8303477881
 11
274.5850124845
 21
109.8303477881
  0
LINE
  8
0
 62
7
  6
CONTINUOUS
 10
286.9850124845
 20
109.8303477881
 11
288.5850124845
 21
109.8303477881
  0
LINE
  8
0
 62
7
  6
CONTINUOUS
 10
301.1850124845
 20
109.8303477881
 11
302.7850124845
 21
109.8303477881
  0
LINE
  8
DEFAULT_1
 62
2
  6
CENTER
 10
26.1850124845
 20
113.6803477881
 11
320.2850124845
 21
113.6803477881
  0
LINE
  8
0
 62
7
  6
CONTINUOUS
 10
148.4790716298
 20
114.1960895549
 11
147.7647167583
 21
117.0612104534
  0
LINE
  8
0
 62
7
  6
CONTINUOUS
 10
148.8409533393
 20
138.5646060213
 11
149.5553082108
 21
135.6994851228
  0
LINE
  8
0
 62
7
  6
CONTINUOUS
 10
154.0850124845
 20
128.9957844239
 11
154.0850124845
 21
135.4575632272
  0
LINE
  8
0
 62
7
  6
CONTINUOUS
 10
154.8350124845
 20
138.6129904005
 11
154.8350124845
 21
141.4410167229
  0
LINE
  8
0
 62
7
  6
CONTINUOUS
 10
155.1850124845
 20
114.1477051758
 11
155.1850124845
 21
110.6086437933
  0
LINE
  8
0
 62
7
  6
CONTINUOUS
 10
155.9350124845
 20
121.7593501668
 11
155.9350124845
 21
117.303132349
  0
LINE
  8
0
 62
7
  6
CONTINUOUS
 10
160.4350124845
 20
117.303132349
 11
160.4350124845
 21
121.7759623316
  0
LINE
  8
0
 62
7
  6
CONTINUOUS
 10
161.1850124845
 20
110.6440983387
 11
161.1850124845
 21
114.1477051758
  0
LINE
  8
0
 62
7
  6
CONTINUOUS
 10
161.5350124845
 20
141.3409561169
 11
161.5350124845
 21
138.6129904005
  0
LINE
  8
0
 62
7
  6
CONTINUOUS
 10
162.2850124845
 20
135.4575632272
 11
162.2850124845
 21
128.9902906371
  0
LINE
  8
0
 62
7
  6
CONTINUOUS
 10
155.9053082108
 20
117.0612104534
 11
155.1909533393
 21
114.1960895549
  0
LINE
  8
0
 62
7
  6
CONTINUOUS
 10
166.8147167583
 20
135.6994851228
 11
167.5290716298
 21
138.5646060213
  0
POLYLINE
  8
0
 62
7
  6
CONTINUOUS
 66
1
 70
0
  0
VERTEX
  8
0
 62
7
  6
CONTINUOUS
 10
315.2640526783
 20
118.8567098196
  0
VERTEX
  8
0
 62
7
  6
CONTINUOUS
 10
315.2871089534
 20
118.8568182328
  0
VERTEX
  8
0
 62
7
  6
CONTINUOUS
 10
315.3349738786
 20
118.8570442241
  0
SEQEND
  0
LINE
  8
0
 62
7
  6
CONTINUOUS
 10
315.2213678729
 20
118.8565116529
 11
315.2640526783
 21
118.8567098196
  0
LINE
  8
0
 62
7
  6
CONTINUOUS
 10
303.1535489074
 20
125.4687652693
 11
300.8164760617
 21
125.4687652693
  0
LINE
  8
0
 62
7
  6
CONTINUOUS
 10
249.1823963978
 20
126.8740071944
 11
244.9823963978
 21
126.8795009812
  0
LINE
  8
0
 62
7
  6
CONTINUOUS
 10
236.4823963978
 20
126.8906193592
 11
232.2823963978
 21
126.896113146
  0
LINE
  8
0
 62
7
  6
CONTINUOUS
 10
223.7823963978
 20
126.907231524
 11
219.5823963978
 21
126.9127253108
  0
LINE
  8
0
 62
7
  6
CONTINUOUS
 10
211.0823963978
 20
126.9238436888
 11
206.8823963978
 21
126.9293374756
  0
LINE
  8
0
 62
7
  6
CONTINUOUS
 10
198.3823963978
 20
126.9404558536
 11
194.1823963978
 21
126.9459496404
  0
LINE
  8
0
 62
7
  6
CONTINUOUS
 10
185.6823963978
 20
126.9570680185
 11
181.4823963978
 21
126.9625618052
  0
LINE
  8
0
 62
7
  6
CONTINUOUS
 10
172.9823963978
 20
126.9736801833
 11
168.7823963978
 21
126.9791739701
  0
LINE
  8
0
 62
7
  6
CONTINUOUS
 10
160.2823963978
 20
126.9902923481
 11
156.0823963978
 21
126.9957861349
  0
LINE
  8
0
 62
7
  6
CONTINUOUS
 10
147.5823963978
 20
127.0069045129
 11
143.3823963978
 21
127.0123982997
  0
LINE
  8
0
 62
7
  6
CONTINUOUS
 10
134.8823963978
 20
127.0235166777
 11
130.6823963978
 21
127.0290104645
  0
LINE
  8
0
 62
7
  6
CONTINUOUS
 10
122.1823963978
 20
127.0401288425
 11
117.9823963978
 21
127.0456226293
  0
LINE
  8
0
 62
7
  6
CONTINUOUS
 10
109.4823963978
 20
127.0567410073
 11
105.2823963978
 21
127.0622347941
  0
LINE
  8
0
 62
7
  6
CONTINUOUS
 10
96.7823963978
 20
127.0733531722
 11
92.5823963978
 21
127.0788469589
  0
LINE
  8
0
 62
7
  6
CONTINUOUS
 10
84.0823963978
 20
127.089965337
 11
79.8823963978
 21
127.0954591238
  0
LINE
  8
0
 62
7
  6
CONTINUOUS
 10
71.3823963978
 20
127.1065775018
 11
67.1823963978
 21
127.1120712886
  0
LINE
  8
0
 62
7
  6
CONTINUOUS
 10
58.6823963978
 20
127.1231896666
 11
54.4823963978
 21
127.1286834534
  0
LINE
  8
0
 62
7
  6
CONTINUOUS
 10
45.9823963978
 20
127.1398018314
 11
41.7823963978
 21
127.1452956182
  0
LINE
  8
0
 62
7
  6
CONTINUOUS
 10
33.2823963978
 20
127.1564139962
 11
29.0823963978
 21
127.161907783
  0
LINE
  8
0
 62
7
  6
CONTINUOUS
 10
286.7880698403
 20
125.6248682835
 11
288.9493835517
 21
125.6156802266
  0
LINE
  8
0
 62
7
  6
CONTINUOUS
 10
274.7208405741
 20
125.7761687229
 11
272.7380698403
 21
125.7845977679
  0
LINE
  8
0
 62
7
  6
CONTINUOUS
 10
260.8708405741
 20
125.9350479784
 11
258.5703728511
 21
125.9448275992
  0
LINE
  8
0
 62
7
  6
CONTINUOUS
 10
310.5573640185
 20
123.4300448166
 11
307.7520190865
 21
123.4436762303
  0
LINE
  8
0
 62
7
  6
CONTINUOUS
 10
214.7520190865
 20
123.895571274
 11
215.9520190865
 21
123.8897403702
  0
LINE
  8
0
 62
7
  6
CONTINUOUS
 10
227.4520190865
 20
123.8338608756
 11
228.6520190865
 21
123.8280299718
  0
LINE
  8
0
 62
7
  6
CONTINUOUS
 10
240.1520190865
 20
123.7721504771
 11
241.3520190865
 21
123.7663195733
  0
LINE
  8
0
 62
7
  6
CONTINUOUS
 10
252.8520190865
 20
123.7104400787
 11
254.0520190865
 21
123.7046091749
  0
LINE
  8
0
 62
7
  6
CONTINUOUS
 10
265.5520190865
 20
123.6487296802
 11
268.0520190865
 21
123.636581964
  0
LINE
  8
0
 62
7
  6
CONTINUOUS
 10
279.5520190865
 20
123.5807024694
 11
282.0520190865
 21
123.5685547531
  0
LINE
  8
0
 62
7
  6
CONTINUOUS
 10
293.5520190865
 20
123.5126752585
 11
296.2520190865
 21
123.4995557249
  0
LINE
  8
0
 62
7
  6
CONTINUOUS
 10
176.1171894005
 20
124.7157042498
 11
178.5168027785
 21
124.6677119822
  0
LINE
  8
0
 62
7
  6
CONTINUOUS
 10
188.8950004881
 20
124.4601480281
 11
191.0950004881
 21
124.4161480281
  0
LINE
  8
0
 62
7
  6
CONTINUOUS
 10
202.1049984887
 20
124.195948068
 11
203.3049984887
 21
124.171948068
  0
LINE
  8
0
 62
7
  6
CONTINUOUS
 10
161.1790716298
 20
114.1960895549
 11
160.4647167583
 21
117.0612104534
  0
LINE
  8
0
 62
7
  6
CONTINUOUS
 10
161.5409533393
 20
138.5646060213
 11
162.2553082108
 21
135.6994851228
  0
LINE
  8
0
 62
7
  6
CONTINUOUS
 10
166.7850124845
 20
128.9791722591
 11
166.7850124845
 21
135.4575632272
  0
LINE
  8
0
 62
7
  6
CONTINUOUS
 10
167.5350124845
 20
138.6129904005
 11
167.5350124845
 21
141.3409561169
  0
LINE
  8
0
 62
7
  6
CONTINUOUS
 10
167.8850124845
 20
114.1477051758
 11
167.8850124845
 21
110.7087043993
  0
LINE
  8
0
 62
7
  6
CONTINUOUS
 10
168.6350124845
 20
121.7759623316
 11
168.6350124845
 21
117.303132349
  0
LINE
  8
0
 62
7
  6
CONTINUOUS
 10
173.1350124845
 20
117.303132349
 11
173.1350124845
 21
121.7925744964
  0
LINE
  8
0
 62
7
  6
CONTINUOUS
 10
173.8850124845
 20
110.7441589448
 11
173.8850124845
 21
114.1477051758
  0
LINE
  8
0
 62
7
  6
CONTINUOUS
 10
174.2350124845
 20
138.6129904005
 11
174.2350124845
 21
141.2408955108
  0
LINE
  8
0
 62
7
  6
CONTINUOUS
 10
174.9850124845
 20
135.4575632272
 11
174.9850124845
 21
128.9736784723
  0
LINE
  8
0
 62
7
  6
CONTINUOUS
 10
168.6053082108
 20
117.0612104534
 11
167.8909533393
 21
114.1960895549
  0
LINE
  8
0
 62
7
  6
CONTINUOUS
 10
179.5147167583
 20
135.6994851228
 11
180.2290716298
 21
138.5646060213
  0
LINE
  8
DEFAULT_1
 62
2
  6
CENTER
 10
19.8350124845
 20
139.0803477881
 11
314.1850124845
 21
139.0803477881
  0
LINE
  8
0
 62
7
  6
CONTINUOUS
 10
173.8790716298
 20
114.1960895549
 11
173.1647167583
 21
117.0612104534
  0
LINE
  8
0
 62
7
  6
CONTINUOUS
 10
174.2409533393
 20
138.5646060213
 11
174.9553082108
 21
135.6994851228
  0
LINE
  8
0
 62
7
  6
CONTINUOUS
 10
179.4850124845
 20
128.9625600943
 11
179.4850124845
 21
135.4575632272
  0
LINE
  8
0
 62
7
  6
CONTINUOUS
 10
180.2350124845
 20
138.6129904005
 11
180.2350124845
 21
141.2408955108
  0
LINE
  8
0
 62
7
  6
CONTINUOUS
 10
180.5850124845
 20
114.1477051758
 11
180.5850124845
 21
110.8087650054
  0
LINE
  8
0
 62
7
  6
CONTINUOUS
 10
181.3350124845
 20
121.7925744965
 11
181.3350124845
 21
117.303132349
  0
LINE
  8
0
 62
7
  6
CONTINUOUS
 10
185.8350124845
 20
117.303132349
 11
185.8350124845
 21
121.4607478481
  0
LINE
  8
0
 62
7
  6
CONTINUOUS
 10
186.5850124845
 20
110.8442195508
 11
186.5850124845
 21
114.1477051758
  0
LINE
  8
0
 62
7
  6
CONTINUOUS
 10
186.9350124845
 20
138.6129904005
 11
186.9350124845
 21
141.1408349047
  0
LINE
  8
0
 62
7
  6
CONTINUOUS
 10
187.6850124845
 20
135.4575632272
 11
187.6850124845
 21
128.9570663075
  0
LINE
  8
0
 62
7
  6
CONTINUOUS
 10
181.3053082108
 20
117.0612104534
 11
180.5909533393
 21
114.1960895549
  0
LINE
  8
0
 62
7
  6
CONTINUOUS
 10
192.2147167583
 20
135.6994851228
 11
192.9290716298
 21
138.5646060213
  0
LINE
  8
0
 62
7
  6
CONTINUOUS
 10
265.9850124845
 20
142.9303477881
 11
267.5850124845
 21
142.9303477881
  0
LINE
  8
0
 62
7
  6
CONTINUOUS
 10
279.9850124845
 20
142.9303477881
 11
281.5850124845
 21
142.9303477881
  0
LINE
  8
0
 62
7
  6
CONTINUOUS
 10
294.0850124845
 20
142.9303477881
 11
295.6850124845
 21
142.9303477881
  0
LINE
  8
0
 62
7
  6
CONTINUOUS
 10
308.3850124845
 20
142.9303477881
 11
309.9850124845
 21
142.9303477881
  0
LINE
  8
0
 62
7
  6
CONTINUOUS
 10
88.5993985659
 20
143.4303477881
 11
88.0706264032
 21
143.4303477881
  0
LINE
  8
0
 62
7
  6
CONTINUOUS
 10
75.8993985659
 20
143.4303477881
 11
75.3706264032
 21
143.4303477881
  0
LINE
  8
0
 62
7
  6
CONTINUOUS
 10
63.1993985659
 20
143.4303477881
 11
62.6706264032
 21
143.4303477881
  0
LINE
  8
0
 62
7
  6
CONTINUOUS
 10
50.4993985659
 20
143.4303477881
 11
49.9706264032
 21
143.4303477881
  0
LINE
  8
0
 62
7
  6
CONTINUOUS
 10
37.7993985659
 20
143.4303477881
 11
37.2706264032
 21
143.4303477881
  0
LINE
  8
0
 62
7
  6
CONTINUOUS
 10
25.0993985659
 20
143.4303477881
 11
24.5706264032
 21
143.4303477881
  0
LINE
  8
0
 62
7
  6
CONTINUOUS
 10
253.7308257483
 20
142.17883532
 11
253.2020699967
 21
142.1830012744
  0
LINE
  8
0
 62
7
  6
CONTINUOUS
 10
241.0308257483
 20
142.278895926
 11
240.5020699967
 21
142.2830618805
  0
LINE
  8
0
 62
7
  6
CONTINUOUS
 10
228.3308257483
 20
142.3789565321
 11
227.8020699967
 21
142.3831224865
  0
LINE
  8
0
 62
7
  6
CONTINUOUS
 10
164.8308257483
 20
142.8792595624
 11
164.3020699967
 21
142.8834255168
  0
LINE
  8
0
 62
7
  6
CONTINUOUS
 10
152.1308257483
 20
142.9793201685
 11
151.6020699967
 21
142.9834861229
  0
LINE
  8
0
 62
7
  6
CONTINUOUS
 10
139.4308257483
 20
143.0793807745
 11
138.9020699967
 21
143.0835467289
  0
LINE
  8
0
 62
7
  6
CONTINUOUS
 10
126.7308257483
 20
143.1794413806
 11
126.2020699967
 21
143.183607335
  0
LINE
  8
0
 62
7
  6
CONTINUOUS
 10
114.0308257483
 20
143.2795019867
 11
113.5020699967
 21
143.2836679411
  0
LINE
  8
0
 62
7
  6
CONTINUOUS
 10
101.3308257483
 20
143.3795625927
 11
100.8020699967
 21
143.3837285471
  0
LINE
  8
0
 62
7
  6
CONTINUOUS
 10
177.0020699967
 20
142.7833649108
 11
177.5308257483
 21
142.7791989564
  0
LINE
  8
0
 62
7
  6
CONTINUOUS
 10
189.7020699967
 20
142.6833043047
 11
190.2308257483
 21
142.6791383503
  0
LINE
  8
0
 62
7
  6
CONTINUOUS
 10
202.4020699967
 20
142.5832436986
 11
202.9308257483
 21
142.5790777442
  0
LINE
  8
0
 62
7
  6
CONTINUOUS
 10
215.1020699967
 20
142.4831830926
 11
215.6308257483
 21
142.4790171382
  0
LINE
  8
0
 62
7
  6
CONTINUOUS
 10
186.5790716298
 20
114.1960895549
 11
185.8647167583
 21
117.0612104534
  0
LINE
  8
0
 62
7
  6
CONTINUOUS
 10
186.9409533393
 20
138.5646060213
 11
187.6553082108
 21
135.6994851228
  0
LINE
  8
0
 62
7
  6
CONTINUOUS
 10
192.1850124845
 20
128.9459479295
 11
192.1850124845
 21
135.4575632272
  0
LINE
  8
0
 62
7
  6
CONTINUOUS
 10
192.9350124845
 20
138.6129904005
 11
192.9350124845
 21
141.1408349047
  0
LINE
  8
0
 62
7
  6
CONTINUOUS
 10
193.2850124845
 20
114.1477051758
 11
193.2850124845
 21
110.9088256115
  0
LINE
  8
0
 62
7
  6
CONTINUOUS
 10
194.0350124845
 20
121.4167478481
 11
194.0350124845
 21
117.303132349
  0
LINE
  8
0
 62
7
  6
CONTINUOUS
 10
198.5350124845
 20
117.303132349
 11
198.5350124845
 21
120.6966478581
  0
LINE
  8
0
 62
7
  6
CONTINUOUS
 10
199.2850124845
 20
114.1477051758
 11
199.2850124845
 21
110.9442801569
  0
LINE
  8
0
 62
7
  6
CONTINUOUS
 10
199.6350124845
 20
138.6129904005
 11
199.6350124845
 21
141.0407742987
  0
LINE
  8
0
 62
7
  6
CONTINUOUS
 10
200.3850124845
 20
135.4575632272
 11
200.3850124845
 21
128.9404541427
  0
LINE
  8
0
 62
7
  6
CONTINUOUS
 10
194.0053082108
 20
117.0612104534
 11
193.2909533393
 21
114.1960895549
  0
LINE
  8
0
 62
7
  6
CONTINUOUS
 10
204.9147167583
 20
135.6994851228
 11
205.6290716298
 21
138.5646060213
  0
LINE
  8
0
 62
7
  6
CONTINUOUS
 10
199.2790716298
 20
114.1960895549
 11
198.5647167583
 21
117.0612104534
  0
LINE
  8
0
 62
7
  6
CONTINUOUS
 10
199.6409533393
 20
138.5646060213
 11
200.3553082108
 21
135.6994851228
  0
LINE
  8
0
 62
7
  6
CONTINUOUS
 10
204.8850124845
 20
128.9293357646
 11
204.8850124845
 21
135.4575632272
  0
LINE
  8
0
 62
7
  6
CONTINUOUS
 10
205.6350124845
 20
141.0407742987
 11
205.6350124845
 21
138.6129904005
  0
LINE
  8
0
 62
7
  6
CONTINUOUS
 10
205.9850124845
 20
111.0088862175
 11
205.9850124845
 21
114.1477051758
  0
LINE
  8
0
 62
7
  6
CONTINUOUS
 10
206.7350124845
 20
120.6726478581
 11
206.7350124845
 21
117.303132349
  0
LINE
  8
0
 62
7
  6
CONTINUOUS
 10
211.2350124845
 20
117.303132349
 11
211.2350124845
 21
120.3956125921
  0
LINE
  8
0
 62
7
  6
CONTINUOUS
 10
211.9850124845
 20
114.1477051758
 11
211.9850124845
 21
111.044340763
  0
LINE
  8
0
 62
7
  6
CONTINUOUS
 10
212.3350124845
 20
138.6129904005
 11
212.3350124845
 21
140.9407136926
  0
LINE
  8
0
 62
7
  6
CONTINUOUS
 10
213.0850124845
 20
135.4575632272
 11
213.0850124845
 21
128.9238419778
  0
LINE
  8
0
 62
7
  6
CONTINUOUS
 10
206.7053082108
 20
117.0612104534
 11
205.9909533393
 21
114.1960895549
  0
LINE
  8
0
 62
7
  6
CONTINUOUS
 10
217.6147167583
 20
135.6994851228
 11
218.3290716298
 21
138.5646060213
  0
POLYLINE
  8
0
 62
7
  6
CONTINUOUS
 66
1
 70
0
  0
VERTEX
  8
0
 62
7
  6
CONTINUOUS
 10
315.1350124845
 20
118.856763835
  0
VERTEX
  8
0
 62
7
  6
CONTINUOUS
 10
315.1364699794
 20
118.8561775922
  0
VERTEX
  8
0
 62
7
  6
CONTINUOUS
 10
315.2213678729
 20
118.8565116529
  0
SEQEND
  0
LINE
  8
0
 62
7
  6
CONTINUOUS
 10
211.9790716298
 20
114.1960895549
 11
211.2647167583
 21
117.0612104534
  0
LINE
  8
0
 62
7
  6
CONTINUOUS
 10
212.3409533393
 20
138.5646060213
 11
213.0553082108
 21
135.6994851228
  0
LINE
  8
0
 62
7
  6
CONTINUOUS
 10
217.5850124845
 20
128.9127235998
 11
217.5850124845
 21
135.4575632272
  0
LINE
  8
0
 62
7
  6
CONTINUOUS
 10
218.3350124845
 20
140.9407136926
 11
218.3350124845
 21
138.6129904005
  0
LINE
  8
0
 62
7
  6
CONTINUOUS
 10
218.6850124845
 20
111.1089468236
 11
218.6850124845
 21
114.1477051758
  0
LINE
  8
0
 62
7
  6
CONTINUOUS
 10
219.4350124845
 20
120.3897816883
 11
219.4350124845
 21
117.303132349
  0
LINE
  8
0
 62
7
  6
CONTINUOUS
 10
223.9350124845
 20
117.303132349
 11
223.9350124845
 21
120.3339021936
  0
LINE
  8
0
 62
7
  6
CONTINUOUS
 10
224.6850124845
 20
114.1477051758
 11
224.6850124845
 21
111.144401369
  0
LINE
  8
0
 62
7
  6
CONTINUOUS
 10
225.0350124845
 20
138.6129904005
 11
225.0350124845
 21
140.8406530865
  0
LINE
  8
0
 62
7
  6
CONTINUOUS
 10
225.7850124845
 20
135.4575632272
 11
225.7850124845
 21
128.907229813
  0
LINE
  8
0
 62
7
  6
CONTINUOUS
 10
219.4053082108
 20
117.0612104534
 11
218.6909533393
 21
114.1960895549
  0
LINE
  8
0
 62
7
  6
CONTINUOUS
 10
230.3147167583
 20
135.6994851228
 11
231.0290716298
 21
138.5646060213
  0
LINE
  8
0
 62
7
  6
CONTINUOUS
 10
224.6790716298
 20
114.1960895549
 11
223.9647167583
 21
117.0612104534
  0
LINE
  8
0
 62
7
  6
CONTINUOUS
 10
225.0409533393
 20
138.5646060213
 11
225.7553082108
 21
135.6994851228
  0
LINE
  8
0
 62
7
  6
CONTINUOUS
 10
230.2850124845
 20
128.896111435
 11
230.2850124845
 21
135.4575632272
  0
LINE
  8
0
 62
7
  6
CONTINUOUS
 10
231.0350124845
 20
140.8406530865
 11
231.0350124845
 21
138.6129904005
  0
LINE
  8
0
 62
7
  6
CONTINUOUS
 10
231.3850124845
 20
111.2090074296
 11
231.3850124845
 21
114.1477051758
  0
LINE
  8
0
 62
7
  6
CONTINUOUS
 10
232.1350124845
 20
120.3280712898
 11
232.1350124845
 21
117.303132349
  0
LINE
  8
0
 62
7
  6
CONTINUOUS
 10
236.6350124845
 20
117.303132349
 11
236.6350124845
 21
120.2721917952
  0
LINE
  8
0
 62
7
  6
CONTINUOUS
 10
237.3850124845
 20
114.1477051758
 11
237.3850124845
 21
111.2444619751
  0
LINE
  8
0
 62
7
  6
CONTINUOUS
 10
237.7350124845
 20
138.6129904005
 11
237.7350124845
 21
140.7405924805
  0
LINE
  8
0
 62
7
  6
CONTINUOUS
 10
238.4850124845
 20
135.4575632272
 11
238.4850124845
 21
128.8906176482
  0
LINE
  8
0
 62
7
  6
CONTINUOUS
 10
232.1053082108
 20
117.0612104534
 11
231.3909533393
 21
114.1960895549
  0
LINE
  8
0
 62
7
  6
CONTINUOUS
 10
243.0147167583
 20
135.6994851228
 11
243.7290716298
 21
138.5646060213
  0
LINE
  8
0
 62
7
  6
CONTINUOUS
 10
257.0925854124
 20
126.6065483145
 11
255.9418676591
 21
127.8845498524
  0
LINE
  8
0
 62
7
  6
CONTINUOUS
 10
237.3790716298
 20
114.1960895549
 11
236.6647167583
 21
117.0612104534
  0
LINE
  8
0
 62
7
  6
CONTINUOUS
 10
237.7409533393
 20
138.5646060213
 11
238.4553082108
 21
135.6994851228
  0
LINE
  8
0
 62
7
  6
CONTINUOUS
 10
242.9850124845
 20
128.8794992702
 11
242.9850124845
 21
135.4575632272
  0
LINE
  8
0
 62
7
  6
CONTINUOUS
 10
243.7350124845
 20
140.7405924805
 11
243.7350124845
 21
138.6129904005
  0
LINE
  8
0
 62
7
  6
CONTINUOUS
 10
244.0850124845
 20
111.3090680357
 11
244.0850124845
 21
114.1477051758
  0
LINE
  8
0
 62
7
  6
CONTINUOUS
 10
244.8350124845
 20
120.2663608914
 11
244.8350124845
 21
117.303132349
  0
LINE
  8
0
 62
7
  6
CONTINUOUS
 10
249.3350124845
 20
117.303132349
 11
249.3350124845
 21
120.2104813967
  0
LINE
  8
0
 62
7
  6
CONTINUOUS
 10
250.0850124845
 20
114.1477051758
 11
250.0850124845
 21
111.3445225812
  0
LINE
  8
0
 62
7
  6
CONTINUOUS
 10
250.4350124845
 20
138.6129904005
 11
250.4350124845
 21
140.6405318744
  0
LINE
  8
0
 62
7
  6
CONTINUOUS
 10
251.1850124845
 20
135.4575632272
 11
251.1850124845
 21
128.8740054834
  0
LINE
  8
0
 62
7
  6
CONTINUOUS
 10
244.8053082108
 20
117.0612104534
 11
244.0909533393
 21
114.1960895549
  0
LINE
  8
0
 62
7
  6
CONTINUOUS
 10
255.7147167583
 20
135.5994851228
 11
256.4290716298
 21
138.4646060213
  0
LINE
  8
0
 62
7
  6
CONTINUOUS
 10
264.3830605807
 20
129.7679906432
 11
262.5754389787
 21
126.875191378
  0
LINE
  8
0
 62
7
  6
CONTINUOUS
 10
316.7458587962
 20
109.1218167183
 11
315.2118801895
 21
110.3202921551
  0
LINE
  8
0
 62
7
  6
CONTINUOUS
 10
250.0790716298
 20
114.1960895549
 11
249.3647167583
 21
117.0612104534
  0
LINE
  8
0
 62
7
  6
CONTINUOUS
 10
250.4409533393
 20
138.5646060213
 11
251.1553082108
 21
135.6994851228
  0
LINE
  8
0
 62
7
  6
CONTINUOUS
 10
255.6850124845
 20
128.5536804588
 11
255.6850124845
 21
135.3575632272
  0
LINE
  8
0
 62
7
  6
CONTINUOUS
 10
256.4350124845
 20
140.6405318744
 11
256.4350124845
 21
138.5129904005
  0
LINE
  8
0
 62
7
  6
CONTINUOUS
 10
256.7850124845
 20
112.0303477881
 11
256.7850124845
 21
114.1477051758
  0
LINE
  8
0
 62
7
  6
CONTINUOUS
 10
257.5350124845
 20
120.2046504929
 11
257.5350124845
 21
117.303132349
  0
LINE
  8
0
 62
7
  6
CONTINUOUS
 10
262.0350124845
 20
117.503132349
 11
262.0350124845
 21
120.1487709983
  0
LINE
  8
0
 62
7
  6
CONTINUOUS
 10
262.7850124845
 20
112.0303477881
 11
262.7850124845
 21
114.3477051758
  0
LINE
  8
0
 62
7
  6
CONTINUOUS
 10
263.7850124845
 20
138.5129904005
 11
263.7850124845
 21
140.7303477881
  0
LINE
  8
0
 62
7
  6
CONTINUOUS
 10
257.5053082108
 20
117.0612104534
 11
256.7909533393
 21
114.1960895549
  0
LINE
  8
0
 62
7
  6
CONTINUOUS
 10
269.0647167583
 20
135.5994851228
 11
269.7790716298
 21
138.4646060213
  0
LINE
  8
0
 62
7
  6
CONTINUOUS
 10
277.7752529653
 20
128.8764660532
 11
276.4254389787
 21
126.7163121225
  0
LINE
  8
0
 62
7
  6
CONTINUOUS
 10
271.0504758603
 20
126.7247411675
 11
269.7947720038
 21
128.7342874073
  0
LINE
  8
0
 62
7
  6
CONTINUOUS
 10
262.7790716298
 20
114.3960895549
 11
262.0647167583
 21
117.2612104534
  0
LINE
  8
0
 62
7
  6
CONTINUOUS
 10
263.7909533393
 20
138.4646060213
 11
264.5053082108
 21
135.5994851228
  0
LINE
  8
0
 62
7
  6
CONTINUOUS
 10
264.5350124845
 20
135.3575632272
 11
264.5350124845
 21
130.2979099074
  0
LINE
  8
0
 62
7
  6
CONTINUOUS
 10
269.0350124845
 20
131.3838837285
 11
269.0350124845
 21
135.3575632272
  0
LINE
  8
0
 62
7
  6
CONTINUOUS
 10
269.7850124845
 20
140.7303477881
 11
269.7850124845
 21
138.5129904005
  0
LINE
  8
0
 62
7
  6
CONTINUOUS
 10
270.7850124845
 20
112.0303477881
 11
270.7850124845
 21
113.9832762861
  0
LINE
  8
0
 62
7
  6
CONTINUOUS
 10
271.5350124845
 20
120.136623282
 11
271.5350124845
 21
117.1387034593
  0
LINE
  8
0
 62
7
  6
CONTINUOUS
 10
276.0350124845
 20
117.503132349
 11
276.0350124845
 21
120.0807437874
  0
LINE
  8
0
 62
7
  6
CONTINUOUS
 10
271.5053082108
 20
116.8967815637
 11
270.7909533393
 21
114.0316606652
  0
LINE
  8
0
 62
7
  6
CONTINUOUS
 10
290.2278323551
 20
126.3207877762
 11
291.8752529653
 21
128.9572118626
  0
LINE
  8
0
 62
7
  6
CONTINUOUS
 10
283.7947720038
 20
128.6545746494
 11
285.1004758603
 21
126.5650116831
  0
LINE
  8
0
 62
7
  6
CONTINUOUS
 10
276.7790716298
 20
114.3960895549
 11
276.0647167583
 21
117.2612104534
  0
LINE
  8
0
 62
7
  6
CONTINUOUS
 10
276.7850124845
 20
112.0303477881
 11
276.7850124845
 21
114.3477051758
  0
LINE
  8
0
 62
7
  6
CONTINUOUS
 10
277.7850124845
 20
138.5129904005
 11
277.7850124845
 21
140.7303477881
  0
LINE
  8
0
 62
7
  6
CONTINUOUS
 10
278.5350124845
 20
135.3575632272
 11
278.5350124845
 21
131.5260623743
  0
LINE
  8
0
 62
7
  6
CONTINUOUS
 10
283.0350124845
 20
135.3575632272
 11
283.0350124845
 21
131.3041709705
  0
LINE
  8
0
 62
7
  6
CONTINUOUS
 10
283.7850124845
 20
140.7303477881
 11
283.7850124845
 21
138.5129904005
  0
LINE
  8
0
 62
7
  6
CONTINUOUS
 10
284.7850124845
 20
112.0303477881
 11
284.7850124845
 21
114.3477051758
  0
LINE
  8
0
 62
7
  6
CONTINUOUS
 10
285.5350124845
 20
120.0685960712
 11
285.5350124845
 21
117.503132349
  0
LINE
  8
0
 62
7
  6
CONTINUOUS
 10
283.7790716298
 20
138.4646060213
 11
283.0647167583
 21
135.5994851228
  0
LINE
  8
0
 62
7
  6
CONTINUOUS
 10
285.5053082108
 20
117.2612104534
 11
284.7909533393
 21
114.3960895549
  0
LINE
  8
0
 62
7
  6
CONTINUOUS
 10
306.1752529653
 20
128.9738827376
 11
304.4256210516
 21
126.1738863729
  0
LINE
  8
0
 62
7
  6
CONTINUOUS
 10
299.5444039175
 20
126.1738863729
 11
297.8947720038
 21
128.8138492847
  0
LINE
  8
0
 62
7
  6
CONTINUOUS
 10
277.7909533393
 20
138.4646060213
 11
278.5053082108
 21
135.5994851228
  0
LINE
  8
0
 62
7
  6
CONTINUOUS
 10
290.7790716298
 20
114.3960895549
 11
290.0647167583
 21
117.2612104534
  0
LINE
  8
0
 62
7
  6
CONTINUOUS
 10
290.0350124845
 20
117.503132349
 11
290.0350124845
 21
120.0127165765
  0
LINE
  8
0
 62
7
  6
CONTINUOUS
 10
290.7850124845
 20
112.0303477881
 11
290.7850124845
 21
114.3477051758
  0
LINE
  8
0
 62
7
  6
CONTINUOUS
 10
291.8850124845
 20
138.5629904005
 11
291.8850124845
 21
140.7303477881
  0
LINE
  8
0
 62
7
  6
CONTINUOUS
 10
292.6350124845
 20
131.6068081837
 11
292.6350124845
 21
135.4075632272
  0
LINE
  8
0
 62
7
  6
CONTINUOUS
 10
297.1350124845
 20
131.4634456058
 11
297.1350124845
 21
135.3575632272
  0
LINE
  8
0
 62
7
  6
CONTINUOUS
 10
297.8850124845
 20
140.7303477881
 11
297.8850124845
 21
138.5129904005
  0
LINE
  8
0
 62
7
  6
CONTINUOUS
 10
298.9850124845
 20
112.0303477881
 11
298.9850124845
 21
114.3477051758
  0
LINE
  8
0
 62
7
  6
CONTINUOUS
 10
299.7350124845
 20
119.999597043
 11
299.7350124845
 21
117.503132349
  0
LINE
  8
0
 62
7
  6
CONTINUOUS
 10
297.1647167583
 20
135.5994851228
 11
297.8790716298
 21
138.4646060213
  0
LINE
  8
0
 62
7
  6
CONTINUOUS
 10
299.7053082108
 20
117.2612104534
 11
298.9909533393
 21
114.3960895549
  0
LINE
  8
0
 62
7
  6
CONTINUOUS
 10
313.8568092543
 20
127.1856727374
 11
312.1048854656
 21
130.2200937503
  0
LINE
  8
0
 62
7
  6
CONTINUOUS
 10
292.6053082108
 20
135.6494851228
 11
291.8909533393
 21
138.5146060213
  0
LINE
  8
0
 62
7
  6
CONTINUOUS
 10
304.2647167583
 20
117.2612104534
 11
304.9790716298
 21
114.3960895549
  0
LINE
  8
0
 62
7
  6
CONTINUOUS
 10
304.2350124845
 20
119.9437175483
 11
304.2350124845
 21
117.503132349
  0
LINE
  8
0
 62
7
  6
CONTINUOUS
 10
304.9850124845
 20
112.0303477881
 11
304.9850124845
 21
114.3477051758
  0
LINE
  8
0
 62
7
  6
CONTINUOUS
 10
306.1850124845
 20
138.5129904005
 11
306.1850124845
 21
140.7303477881
  0
LINE
  8
0
 62
7
  6
CONTINUOUS
 10
306.9350124845
 20
135.3575632272
 11
306.9350124845
 21
131.6234790587
  0
LINE
  8
0
 62
7
  6
CONTINUOUS
 10
311.4350124845
 20
132.7200937503
 11
311.4350124845
 21
135.3575632272
  0
LINE
  8
0
 62
7
  6
CONTINUOUS
 10
312.1850124845
 20
140.7303477881
 11
312.1850124845
 21
138.5129904005
  0
LINE
  8
0
 62
7
  6
CONTINUOUS
 10
311.4647167583
 20
135.5994851228
 11
312.1790716298
 21
138.4646060213
  0
LINE
  8
0
 62
7
  6
CONTINUOUS
 10
306.1909533393
 20
138.4646060213
 11
306.9053082108
 21
135.5994851228
  0
LINE
  8
0
 62
7
  6
CONTINUOUS
 10
315.1350124845
 20
110.4778943058
 11
315.1350124845
 21
118.8564832288
  0
LINE
  8
0
 62
7
  6
CONTINUOUS
 10
320.7850124845
 20
111.0918436023
 11
320.7850124845
 21
120.6026674931
  0
LINE
  8
0
 62
7
  6
CONTINUOUS
 10
21.8350124845
 20
201.5362486573
 11
21.8350124845
 21
189.9362486482
  0
LINE
  8
0
 62
7
  6
CONTINUOUS
 10
28.1850124845
 20
200.9862486526
 11
28.1850124845
 21
190.4862486526
  0
LINE
  8
0
 62
7
  6
CONTINUOUS
 10
34.1850124845
 20
190.4862486526
 11
34.1850124845
 21
200.9862486526
  0
LINE
  8
0
 62
7
  6
CONTINUOUS
 10
40.8850124845
 20
200.9862486526
 11
40.8850124845
 21
190.4862486526
  0
LINE
  8
0
 62
7
  6
CONTINUOUS
 10
46.8850124845
 20
190.4862486526
 11
46.8850124845
 21
200.9862486526
  0
LINE
  8
0
 62
7
  6
CONTINUOUS
 10
53.5850124845
 20
200.9862486526
 11
53.5850124845
 21
190.4862486526
  0
LINE
  8
0
 62
7
  6
CONTINUOUS
 10
59.5850124845
 20
190.4862486526
 11
59.5850124845
 21
200.9862486526
  0
LINE
  8
0
 62
7
  6
CONTINUOUS
 10
66.2850124845
 20
200.9862486526
 11
66.2850124845
 21
190.4862486526
  0
LINE
  8
0
 62
7
  6
CONTINUOUS
 10
72.2850124845
 20
190.4862486526
 11
72.2850124845
 21
200.9862486526
  0
LINE
  8
0
 62
7
  6
CONTINUOUS
 10
78.9850124845
 20
200.9862486526
 11
78.9850124845
 21
190.4862486526
  0
LINE
  8
0
 62
7
  6
CONTINUOUS
 10
84.9850124845
 20
190.4862486526
 11
84.9850124845
 21
200.9862486526
  0
LINE
  8
0
 62
7
  6
CONTINUOUS
 10
91.6850124845
 20
200.9862486526
 11
91.6850124845
 21
190.4862486526
  0
LINE
  8
0
 62
7
  6
CONTINUOUS
 10
97.6850124845
 20
190.4862486526
 11
97.6850124845
 21
200.9862486526
  0
LINE
  8
0
 62
7
  6
CONTINUOUS
 10
104.3850124845
 20
200.9862486526
 11
104.3850124845
 21
190.4862486526
  0
LINE
  8
0
 62
7
  6
CONTINUOUS
 10
110.3850124845
 20
190.4862486526
 11
110.3850124845
 21
200.9862486526
  0
LINE
  8
0
 62
7
  6
CONTINUOUS
 10
117.0850124845
 20
200.9862486526
 11
117.0850124845
 21
190.4862486526
  0
LINE
  8
0
 62
7
  6
CONTINUOUS
 10
123.0850124845
 20
190.4862486526
 11
123.0850124845
 21
200.9862486526
  0
LINE
  8
0
 62
7
  6
CONTINUOUS
 10
129.7850124845
 20
200.9862486526
 11
129.7850124845
 21
190.4862486526
  0
LINE
  8
0
 62
7
  6
CONTINUOUS
 10
135.7850124845
 20
190.4862486526
 11
135.7850124845
 21
200.9862486526
  0
LINE
  8
0
 62
7
  6
CONTINUOUS
 10
142.4850124845
 20
200.9862486526
 11
142.4850124845
 21
190.4862486526
  0
LINE
  8
0
 62
7
  6
CONTINUOUS
 10
148.4850124845
 20
190.4862486526
 11
148.4850124845
 21
200.9862486526
  0
LINE
  8
0
 62
7
  6
CONTINUOUS
 10
155.1850124845
 20
200.9862486526
 11
155.1850124845
 21
190.4862486526
  0
LINE
  8
0
 62
7
  6
CONTINUOUS
 10
161.1850124845
 20
190.4862486526
 11
161.1850124845
 21
200.9862486526
  0
LINE
  8
0
 62
7
  6
CONTINUOUS
 10
22.0350124845
 20
189.7362486526
 11
320.5850124845
 21
189.7362486526
  0
LINE
  8
0
 62
7
  6
CONTINUOUS
 10
310.3207243103
 20
194.869283589
 11
307.9164760617
 21
194.869283589
  0
LINE
  8
0
 62
7
  6
CONTINUOUS
 10
296.0535489074
 20
194.9114880589
 11
293.6164760617
 21
194.9114880589
  0
LINE
  8
0
 62
7
  6
CONTINUOUS
 10
281.8535489074
 20
194.9564142803
 11
279.6164760617
 21
194.9564142803
  0
LINE
  8
0
 62
7
  6
CONTINUOUS
 10
267.8535489074
 20
195.0038600304
 11
265.6164760617
 21
195.0038600304
  0
LINE
  8
DEFAULT_1
 62
2
  6
CENTER
 10
26.1850124845
 20
195.7362486526
 11
320.2850124845
 21
195.7362486526
  0
LINE
  8
0
 62
7
  6
CONTINUOUS
 10
265.3934406399
 20
196.1786255013
 11
268.0765843665
 21
196.1786255013
  0
LINE
  8
0
 62
7
  6
CONTINUOUS
 10
279.3449782731
 20
196.1786255013
 11
282.1250466855
 21
196.1786255013
  0
LINE
  8
0
 62
7
  6
CONTINUOUS
 10
293.3044913512
 20
196.1786255013
 11
296.3655335665
 21
196.1786255013
  0
LINE
  8
0
 62
7
  6
CONTINUOUS
 10
307.5696798071
 20
196.1786255013
 11
310.6675205653
 21
196.1786255013
  0
LINE
  8
0
 62
7
  6
CONTINUOUS
 10
167.8850124845
 20
200.9862486526
 11
167.8850124845
 21
190.4862486526
  0
LINE
  8
0
 62
7
  6
CONTINUOUS
 10
173.8850124845
 20
190.4862486526
 11
173.8850124845
 21
200.9862486526
  0
LINE
  8
0
 62
7
  6
CONTINUOUS
 10
22.0350124845
 20
201.7362486526
 11
316.4622253629
 21
201.7362486526
  0
POLYLINE
  8
0
 62
7
  6
CONTINUOUS
 66
1
 70
0
  0
VERTEX
  8
0
 62
7
  6
CONTINUOUS
 10
268.0765843665
 20
196.1786255013
  0
VERTEX
  8
0
 62
7
  6
CONTINUOUS
 10
268.1109998654
 20
196.1779049034
  0
VERTEX
  8
0
 62
7
  6
CONTINUOUS
 10
268.144175126
 20
196.1756464822
  0
VERTEX
  8
0
 62
7
  6
CONTINUOUS
 10
268.1759465684
 20
196.1717578714
  0
VERTEX
  8
0
 62
7
  6
CONTINUOUS
 10
268.2060972371
 20
196.1662224397
  0
VERTEX
  8
0
 62
7
  6
CONTINUOUS
 10
268.2345718289
 20
196.1590534905
  0
VERTEX
  8
0
 62
7
  6
CONTINUOUS
 10
268.2613947428
 20
196.1502658884
  0
VERTEX
  8
0
 62
7
  6
CONTINUOUS
 10
268.2865568795
 20
196.1398894489
  0
VERTEX
  8
0
 62
7
  6
CONTINUOUS
 10
268.3100950786
 20
196.1279324419
  0
VERTEX
  8
0
 62
7
  6
CONTINUOUS
 10
268.3321770872
 20
196.1142919109
  0
VERTEX
  8
0
 62
7
  6
CONTINUOUS
 10
268.352927101
 20
196.0987901176
  0
VERTEX
  8
0
 62
7
  6
CONTINUOUS
 10
268.3723836695
 20
196.0811881174
  0
VERTEX
  8
0
 62
7
  6
CONTINUOUS
 10
268.3904443839
 20
196.0612400723
  0
VERTEX
  8
0
 62
7
  6
CONTINUOUS
 10
268.4067434813
 20
196.0389262267
  0
VERTEX
  8
0
 62
7
  6
CONTINUOUS
 10
268.4209132244
 20
196.014299753
  0
VERTEX
  8
0
 62
7
  6
CONTINUOUS
 10
268.4326269084
 20
195.9874342078
  0
VERTEX
  8
0
 62
7
  6
CONTINUOUS
 10
268.4415197803
 20
195.9586747442
  0
SEQEND
  0
POLYLINE
  8
0
 62
7
  6
CONTINUOUS
 66
1
 70
0
  0
VERTEX
  8
0
 62
7
  6
CONTINUOUS
 10
282.1250466855
 20
196.1786255013
  0
VERTEX
  8
0
 62
7
  6
CONTINUOUS
 10
282.1591615171
 20
196.1777748294
  0
VERTEX
  8
0
 62
7
  6
CONTINUOUS
 10
282.1920191283
 20
196.1751675979
  0
VERTEX
  8
0
 62
7
  6
CONTINUOUS
 10
282.2234975348
 20
196.1707574665
  0
VERTEX
  8
0
 62
7
  6
CONTINUOUS
 10
282.2534858825
 20
196.1645393364
  0
VERTEX
  8
0
 62
7
  6
CONTINUOUS
 10
282.2819939025
 20
196.1565071944
  0
VERTEX
  8
0
 62
7
  6
CONTINUOUS
 10
282.3090300927
 20
196.1466511794
  0
VERTEX
  8
0
 62
7
  6
CONTINUOUS
 10
282.3345515952
 20
196.1349738863
  0
VERTEX
  8
0
 62
7
  6
CONTINUOUS
 10
282.3586185935
 20
196.1214117517
  0
VERTEX
  8
0
 62
7
  6
CONTINUOUS
 10
282.3813215056
 20
196.1058146416
  0
VERTEX
  8
0
 62
7
  6
CONTINUOUS
 10
282.4025994882
 20
196.0880502167
  0
VERTEX
  8
0
 62
7
  6
CONTINUOUS
 10
282.4223465904
 20
196.0679560366
  0
VERTEX
  8
0
 62
7
  6
CONTINUOUS
 10
282.4403030256
 20
196.0454774347
  0
VERTEX
  8
0
 62
7
  6
CONTINUOUS
 10
282.4560772979
 20
196.0207931381
  0
VERTEX
  8
0
 62
7
  6
CONTINUOUS
 10
282.4694158007
 20
195.9940223077
  0
VERTEX
  8
0
 62
7
  6
CONTINUOUS
 10
282.4800605151
 20
195.9654354796
  0
VERTEX
  8
0
 62
7
  6
CONTINUOUS
 10
282.4879173841
 20
195.9349393575
  0
SEQEND
  0
POLYLINE
  8
0
 62
7
  6
CONTINUOUS
 66
1
 70
0
  0
VERTEX
  8
0
 62
7
  6
CONTINUOUS
 10
296.3655335665
 20
196.1786255013
  0
VERTEX
  8
0
 62
7
  6
CONTINUOUS
 10
296.4006200899
 20
196.1776191778
  0
VERTEX
  8
0
 62
7
  6
CONTINUOUS
 10
296.4339801852
 20
196.1746170216
  0
VERTEX
  8
0
 62
7
  6
CONTINUOUS
 10
296.4656390832
 20
196.1696577217
  0
VERTEX
  8
0
 62
7
  6
CONTINUOUS
 10
296.4957490772
 20
196.1627547325
  0
VERTEX
  8
0
 62
7
  6
CONTINUOUS
 10
296.52439872
 20
196.1539015699
  0
VERTEX
  8
0
 62
7
  6
CONTINUOUS
 10
296.551513224
 20
196.1431266664
  0
VERTEX
  8
0
 62
7
  6
CONTINUOUS
 10
296.5770662518
 20
196.130445008
  0
VERTEX
  8
0
 62
7
  6
CONTINUOUS
 10
296.601169879
 20
196.1157682782
  0
VERTEX
  8
0
 62
7
  6
CONTINUOUS
 10
296.6239616107
 20
196.0988900006
  0
VERTEX
  8
0
 62
7
  6
CONTINUOUS
 10
296.6454384619
 20
196.0795721809
  0
VERTEX
  8
0
 62
7
  6
CONTINUOUS
 10
296.6654622388
 20
196.0575757775
  0
VERTEX
  8
0
 62
7
  6
CONTINUOUS
 10
296.6836167026
 20
196.032928959
  0
VERTEX
  8
0
 62
7
  6
CONTINUOUS
 10
296.6995144076
 20
196.0057351674
  0
VERTEX
  8
0
 62
7
  6
CONTINUOUS
 10
296.7128401792
 20
195.9760993329
  0
VERTEX
  8
0
 62
7
  6
CONTINUOUS
 10
296.7232651196
 20
195.9443327891
  0
VERTEX
  8
0
 62
7
  6
CONTINUOUS
 10
296.7306137412
 20
195.9104701622
  0
SEQEND
  0
POLYLINE
  8
0
 62
7
  6
CONTINUOUS
 66
1
 70
0
  0
VERTEX
  8
0
 62
7
  6
CONTINUOUS
 10
310.6675205653
 20
196.1786255013
  0
VERTEX
  8
0
 62
7
  6
CONTINUOUS
 10
310.7031401578
 20
196.1775092009
  0
VERTEX
  8
0
 62
7
  6
CONTINUOUS
 10
310.7369943139
 20
196.174201797
  0
VERTEX
  8
0
 62
7
  6
CONTINUOUS
 10
310.7691835247
 20
196.1687566313
  0
VERTEX
  8
0
 62
7
  6
CONTINUOUS
 10
310.7998733246
 20
196.1611856804
  0
VERTEX
  8
0
 62
7
  6
CONTINUOUS
 10
310.8291150666
 20
196.1514850312
  0
VERTEX
  8
0
 62
7
  6
CONTINUOUS
 10
310.8569380663
 20
196.1396256934
  0
VERTEX
  8
0
 62
7
  6
CONTINUOUS
 10
310.8834540169
 20
196.125487757
  0
VERTEX
  8
0
 62
7
  6
CONTINUOUS
 10
310.9085973344
 20
196.1089725205
  0
VERTEX
  8
0
 62
7
  6
CONTINUOUS
 10
310.9322531945
 20
196.0899734362
  0
VERTEX
  8
0
 62
7
  6
CONTINUOUS
 10
310.9543306323
 20
196.06830688
  0
VERTEX
  8
0
 62
7
  6
CONTINUOUS
 10
310.9744752984
 20
196.0440186938
  0
VERTEX
  8
0
 62
7
  6
CONTINUOUS
 10
310.9923445528
 20
196.0172481081
  0
VERTEX
  8
0
 62
7
  6
CONTINUOUS
 10
311.0077863147
 20
195.9879041015
  0
VERTEX
  8
0
 62
7
  6
CONTINUOUS
 10
311.0205372733
 20
195.9560471682
  0
VERTEX
  8
0
 62
7
  6
CONTINUOUS
 10
311.0302939377
 20
195.9219489146
  0
VERTEX
  8
0
 62
7
  6
CONTINUOUS
 10
311.0368523078
 20
195.8857300309
  0
SEQEND
  0
POLYLINE
  8
0
 62
7
  6
CONTINUOUS
 66
1
 70
0
  0
VERTEX
  8
0
 62
7
  6
CONTINUOUS
 10
307.9164760617
 20
194.869283589
  0
VERTEX
  8
0
 62
7
  6
CONTINUOUS
 10
307.8628309955
 20
194.871403706
  0
VERTEX
  8
0
 62
7
  6
CONTINUOUS
 10
307.8093050242
 20
194.8777910962
  0
VERTEX
  8
0
 62
7
  6
CONTINUOUS
 10
307.7563544406
 20
194.8884465191
  0
VERTEX
  8
0
 62
7
  6
CONTINUOUS
 10
307.7043037479
 20
194.9033569809
  0
VERTEX
  8
0
 62
7
  6
CONTINUOUS
 10
307.6530696911
 20
194.9226636941
  0
VERTEX
  8
0
 62
7
  6
CONTINUOUS
 10
307.6029745998
 20
194.9464332083
  0
VERTEX
  8
0
 62
7
  6
CONTINUOUS
 10
307.5544732503
 20
194.9746346019
  0
VERTEX
  8
0
 62
7
  6
CONTINUOUS
 10
307.5077826107
 20
195.007333941
  0
VERTEX
  8
0
 62
7
  6
CONTINUOUS
 10
307.4629841707
 20
195.0447410301
  0
VERTEX
  8
0
 62
7
  6
CONTINUOUS
 10
307.4205135114
 20
195.0868016188
  0
VERTEX
  8
0
 62
7
  6
CONTINUOUS
 10
307.3806762898
 20
195.1335179849
  0
VERTEX
  8
0
 62
7
  6
CONTINUOUS
 10
307.3436624722
 20
195.1850328326
  0
VERTEX
  8
0
 62
7
  6
CONTINUOUS
 10
307.3099010223
 20
195.2411480557
  0
VERTEX
  8
0
 62
7
  6
CONTINUOUS
 10
307.2797106916
 20
195.3017203717
  0
VERTEX
  8
0
 62
7
  6
CONTINUOUS
 10
307.2534136695
 20
195.3665134658
  0
VERTEX
  8
0
 62
7
  6
CONTINUOUS
 10
307.2313968215
 20
195.4349345102
  0
VERTEX
  8
0
 62
7
  6
CONTINUOUS
 10
307.2138983902
 20
195.5065540332
  0
VERTEX
  8
0
 62
7
  6
CONTINUOUS
 10
307.2011511041
 20
195.5807782246
  0
VERTEX
  8
0
 62
7
  6
CONTINUOUS
 10
307.1933652282
 20
195.6566568333
  0
VERTEX
  8
0
 62
7
  6
CONTINUOUS
 10
307.1906338072
 20
195.7331897479
  0
VERTEX
  8
0
 62
7
  6
CONTINUOUS
 10
307.1929608433
 20
195.8097375537
  0
VERTEX
  8
0
 62
7
  6
CONTINUOUS
 10
307.2003480426
 20
195.8857298508
  0
SEQEND
  0
POLYLINE
  8
0
 62
7
  6
CONTINUOUS
 66
1
 70
0
  0
VERTEX
  8
0
 62
7
  6
CONTINUOUS
 10
293.6164760617
 20
194.9114880589
  0
VERTEX
  8
0
 62
7
  6
CONTINUOUS
 10
293.5645642522
 20
194.9135952817
  0
VERTEX
  8
0
 62
7
  6
CONTINUOUS
 10
293.5127245628
 20
194.9199513391
  0
VERTEX
  8
0
 62
7
  6
CONTINUOUS
 10
293.4614298307
 20
194.9305616513
  0
VERTEX
  8
0
 62
7
  6
CONTINUOUS
 10
293.4110195083
 20
194.9454110806
  0
VERTEX
  8
0
 62
7
  6
CONTINUOUS
 10
293.3614675889
 20
194.9646181365
  0
VERTEX
  8
0
 62
7
  6
CONTINUOUS
 10
293.3130022267
 20
194.988281937
  0
VERTEX
  8
0
 62
7
  6
CONTINUOUS
 10
293.2660867917
 20
195.0163736528
  0
VERTEX
  8
0
 62
7
  6
CONTINUOUS
 10
293.2210736754
 20
195.0488631434
  0
VERTEX
  8
0
 62
7
  6
CONTINUOUS
 10
293.1780098603
 20
195.0859526388
  0
VERTEX
  8
0
 62
7
  6
CONTINUOUS
 10
293.1372297726
 20
195.1276600491
  0
VERTEX
  8
0
 62
7
  6
CONTINUOUS
 10
293.0989808874
 20
195.1740807218
  0
VERTEX
  8
0
 62
7
  6
CONTINUOUS
 10
293.063685922
 20
195.2250725189
  0
VERTEX
  8
0
 62
7
  6
CONTINUOUS
 10
293.031604299
 20
195.2806578775
  0
VERTEX
  8
0
 62
7
  6
CONTINUOUS
 10
293.003124248
 20
195.3406047911
  0
VERTEX
  8
0
 62
7
  6
CONTINUOUS
 10
292.978657219
 20
195.4044412984
  0
VERTEX
  8
0
 62
7
  6
CONTINUOUS
 10
292.9585141558
 20
195.4716829622
  0
VERTEX
  8
0
 62
7
  6
CONTINUOUS
 10
292.9428983358
 20
195.5420635111
  0
VERTEX
  8
0
 62
7
  6
CONTINUOUS
 10
292.9321149931
 20
195.6146521384
  0
VERTEX
  8
0
 62
7
  6
CONTINUOUS
 10
292.9263282964
 20
195.6886028899
  0
VERTEX
  8
0
 62
7
  6
CONTINUOUS
 10
292.9256196071
 20
195.7632104432
  0
VERTEX
  8
0
 62
7
  6
CONTINUOUS
 10
292.9300015801
 20
195.8374034488
  0
VERTEX
  8
0
 62
7
  6
CONTINUOUS
 10
292.9394114463
 20
195.9104720277
  0
SEQEND
  0
POLYLINE
  8
0
 62
7
  6
CONTINUOUS
 66
1
 70
0
  0
VERTEX
  8
0
 62
7
  6
CONTINUOUS
 10
279.6164760617
 20
194.9564142803
  0
VERTEX
  8
0
 62
7
  6
CONTINUOUS
 10
279.5663833425
 20
194.9585094618
  0
VERTEX
  8
0
 62
7
  6
CONTINUOUS
 10
279.5163624062
 20
194.9648295367
  0
VERTEX
  8
0
 62
7
  6
CONTINUOUS
 10
279.4668741024
 20
194.9753804042
  0
VERTEX
  8
0
 62
7
  6
CONTINUOUS
 10
279.4182769196
 20
194.9901384959
  0
VERTEX
  8
0
 62
7
  6
CONTINUOUS
 10
279.3705861566
 20
195.0091991759
  0
VERTEX
  8
0
 62
7
  6
CONTINUOUS
 10
279.3239024123
 20
195.0327125995
  0
VERTEX
  8
0
 62
7
  6
CONTINUOUS
 10
279.2786905174
 20
195.0606663659
  0
VERTEX
  8
0
 62
7
  6
CONTINUOUS
 10
279.2353596527
 20
195.0930066665
  0
VERTEX
  8
0
 62
7
  6
CONTINUOUS
 10
279.1939607303
 20
195.1299465175
  0
VERTEX
  8
0
 62
7
  6
CONTINUOUS
 10
279.1547782367
 20
195.1715770321
  0
VERTEX
  8
0
 62
7
  6
CONTINUOUS
 10
279.1182859984
 20
195.2177479541
  0
VERTEX
  8
0
 62
7
  6
CONTINUOUS
 10
279.0848741296
 20
195.2682835644
  0
VERTEX
  8
0
 62
7
  6
CONTINUOUS
 10
279.0547062333
 20
195.3233246752
  0
VERTEX
  8
0
 62
7
  6
CONTINUOUS
 10
279.0282275247
 20
195.3825162486
  0
VERTEX
  8
0
 62
7
  6
CONTINUOUS
 10
279.0058538677
 20
195.4453026577
  0
VERTEX
  8
0
 62
7
  6
CONTINUOUS
 10
278.9878124662
 20
195.5114341974
  0
VERTEX
  8
0
 62
7
  6
CONTINUOUS
 10
278.9744139005
 20
195.5802366749
  0
VERTEX
  8
0
 62
7
  6
CONTINUOUS
 10
278.9659050185
 20
195.6507697826
  0
VERTEX
  8
0
 62
7
  6
CONTINUOUS
 10
278.962395227
 20
195.7224454288
  0
VERTEX
  8
0
 62
7
  6
CONTINUOUS
 10
278.9639604487
 20
195.7943051984
  0
VERTEX
  8
0
 62
7
  6
CONTINUOUS
 10
278.9705613953
 20
195.865345433
  0
VERTEX
  8
0
 62
7
  6
CONTINUOUS
 10
278.9821068705
 20
195.9349344116
  0
SEQEND
  0
POLYLINE
  8
0
 62
7
  6
CONTINUOUS
 66
1
 70
0
  0
VERTEX
  8
0
 62
7
  6
CONTINUOUS
 10
265.6164760617
 20
195.0038600304
  0
VERTEX
  8
0
 62
7
  6
CONTINUOUS
 10
265.5686356628
 20
195.0059139744
  0
VERTEX
  8
0
 62
7
  6
CONTINUOUS
 10
265.5210361546
 20
195.0120800794
  0
VERTEX
  8
0
 62
7
  6
CONTINUOUS
 10
265.4738771485
 20
195.0223820127
  0
VERTEX
  8
0
 62
7
  6
CONTINUOUS
 10
265.427296038
 20
195.0368899534
  0
VERTEX
  8
0
 62
7
  6
CONTINUOUS
 10
265.3814979627
 20
195.0556952117
  0
VERTEX
  8
0
 62
7
  6
CONTINUOUS
 10
265.3365948236
 20
195.078975975
  0
VERTEX
  8
0
 62
7
  6
CONTINUOUS
 10
265.2930732596
 20
195.1067377127
  0
VERTEX
  8
0
 62
7
  6
CONTINUOUS
 10
265.2514164897
 20
195.1388972777
  0
VERTEX
  8
0
 62
7
  6
CONTINUOUS
 10
265.2118864064
 20
195.1754760831
  0
VERTEX
  8
0
 62
7
  6
CONTINUOUS
 10
265.1745898061
 20
195.2166877372
  0
VERTEX
  8
0
 62
7
  6
CONTINUOUS
 10
265.1399977068
 20
195.2623812592
  0
VERTEX
  8
0
 62
7
  6
CONTINUOUS
 10
265.1084737513
 20
195.3124352498
  0
VERTEX
  8
0
 62
7
  6
CONTINUOUS
 10
265.0802848227
 20
195.3668530894
  0
VERTEX
  8
0
 62
7
  6
CONTINUOUS
 10
265.05591775
 20
195.4251383579
  0
VERTEX
  8
0
 62
7
  6
CONTINUOUS
 10
265.035699672
 20
195.486905127
  0
VERTEX
  8
0
 62
7
  6
CONTINUOUS
 10
265.0199207819
 20
195.5517218633
  0
VERTEX
  8
0
 62
7
  6
CONTINUOUS
 10
265.0088992521
 20
195.6186927822
  0
VERTEX
  8
0
 62
7
  6
CONTINUOUS
 10
265.0027996142
 20
195.687135604
  0
VERTEX
  8
0
 62
7
  6
CONTINUOUS
 10
265.0017336796
 20
195.7563249166
  0
VERTEX
  8
0
 62
7
  6
CONTINUOUS
 10
265.0057257331
 20
195.8251490964
  0
VERTEX
  8
0
 62
7
  6
CONTINUOUS
 10
265.0146954027
 20
195.892835522
  0
VERTEX
  8
0
 62
7
  6
CONTINUOUS
 10
265.0285062179
 20
195.9586785411
  0
SEQEND
  0
LINE
  8
0
 62
7
  6
CONTINUOUS
 10
180.5850124845
 20
200.9862486526
 11
180.5850124845
 21
190.4862486526
  0
LINE
  8
0
 62
7
  6
CONTINUOUS
 10
186.5850124845
 20
190.4862486526
 11
186.5850124845
 21
200.9862486526
  0
POLYLINE
  8
0
 62
7
  6
CONTINUOUS
 66
1
 70
0
  0
VERTEX
  8
0
 62
7
  6
CONTINUOUS
 10
199.2850124845
 20
200.9859134398
  0
VERTEX
  8
0
 62
7
  6
CONTINUOUS
 10
199.2846656225
 20
201.008736288
  0
VERTEX
  8
0
 62
7
  6
CONTINUOUS
 10
199.283569293
 20
201.032478378
  0
VERTEX
  8
0
 62
7
  6
CONTINUOUS
 10
199.2816376103
 20
201.0571128027
  0
VERTEX
  8
0
 62
7
  6
CONTINUOUS
 10
199.278752447
 20
201.0828273204
  0
VERTEX
  8
0
 62
7
  6
CONTINUOUS
 10
199.2746718762
 20
201.1103214658
  0
VERTEX
  8
0
 62
7
  6
CONTINUOUS
 10
199.2691430382
 20
201.1397163361
  0
SEQEND
  0
POLYLINE
  8
0
 62
7
  6
CONTINUOUS
 66
1
 70
0
  0
VERTEX
  8
0
 62
7
  6
CONTINUOUS
 10
193.2850124845
 20
190.4862680774
  0
VERTEX
  8
0
 62
7
  6
CONTINUOUS
 10
193.2852611756
 20
190.4669530272
  0
VERTEX
  8
0
 62
7
  6
CONTINUOUS
 10
193.2859917709
 20
190.447945238
  0
VERTEX
  8
0
 62
7
  6
CONTINUOUS
 10
193.2871870317
 20
190.4291813033
  0
VERTEX
  8
0
 62
7
  6
CONTINUOUS
 10
193.2888276611
 20
190.4106959846
  0
SEQEND
  0
LINE
  8
0
 62
7
  6
CONTINUOUS
 10
193.2850124845
 20
200.9862292145
 11
193.2850124845
 21
190.4862680913
  0
LINE
  8
0
 62
7
  6
CONTINUOUS
 10
199.2850124845
 20
200.9859134299
 11
199.2850124845
 21
190.4865838732
  0
POLYLINE
  8
0
 62
7
  6
CONTINUOUS
 66
1
 70
0
  0
VERTEX
  8
0
 62
7
  6
CONTINUOUS
 10
193.2888276611
 20
201.0618013207
  0
VERTEX
  8
0
 62
7
  6
CONTINUOUS
 10
193.2871866945
 20
201.0433115824
  0
VERTEX
  8
0
 62
7
  6
CONTINUOUS
 10
193.2859915164
 20
201.0245470888
  0
VERTEX
  8
0
 62
7
  6
CONTINUOUS
 10
193.285261049
 20
201.0055393584
  0
VERTEX
  8
0
 62
7
  6
CONTINUOUS
 10
193.2850124845
 20
200.9862292279
  0
SEQEND
  0
POLYLINE
  8
0
 62
7
  6
CONTINUOUS
 66
1
 70
0
  0
VERTEX
  8
0
 62
7
  6
CONTINUOUS
 10
205.9850124845
 20
190.4881543135
  0
VERTEX
  8
0
 62
7
  6
CONTINUOUS
 10
205.9852647609
 20
190.4686724625
  0
VERTEX
  8
0
 62
7
  6
CONTINUOUS
 10
205.9860584719
 20
190.4484435841
  0
VERTEX
  8
0
 62
7
  6
CONTINUOUS
 10
205.9874559037
 20
190.4274106663
  0
VERTEX
  8
0
 62
7
  6
CONTINUOUS
 10
205.989522435
 20
190.4055842485
  0
VERTEX
  8
0
 62
7
  6
CONTINUOUS
 10
205.9923525718
 20
190.3827959471
  0
VERTEX
  8
0
 62
7
  6
CONTINUOUS
 10
205.9960955798
 20
190.3587244988
  0
VERTEX
  8
0
 62
7
  6
CONTINUOUS
 10
206.0008945779
 20
190.3333479739
  0
VERTEX
  8
0
 62
7
  6
CONTINUOUS
 10
206.0068562279
 20
190.3068904664
  0
VERTEX
  8
0
 62
7
  6
CONTINUOUS
 10
206.0141070669
 20
190.2794769828
  0
VERTEX
  8
0
 62
7
  6
CONTINUOUS
 10
206.0228475257
 20
190.2510444131
  0
SEQEND
  0
LINE
  8
0
 62
7
  6
CONTINUOUS
 10
205.9850124845
 20
190.4881543199
 11
205.9850124845
 21
200.9843429862
  0
POLYLINE
  8
0
 62
7
  6
CONTINUOUS
 66
1
 70
0
  0
VERTEX
  8
0
 62
7
  6
CONTINUOUS
 10
199.2691430391
 20
190.3327809744
  0
VERTEX
  8
0
 62
7
  6
CONTINUOUS
 10
199.2746719292
 20
190.3621761554
  0
VERTEX
  8
0
 62
7
  6
CONTINUOUS
 10
199.2787523279
 20
190.3896690646
  0
VERTEX
  8
0
 62
7
  6
CONTINUOUS
 10
199.2816376772
 20
190.4153852051
  0
VERTEX
  8
0
 62
7
  6
CONTINUOUS
 10
199.283569301
 20
190.4400190539
  0
VERTEX
  8
0
 62
7
  6
CONTINUOUS
 10
199.2846656148
 20
190.4637607602
  0
VERTEX
  8
0
 62
7
  6
CONTINUOUS
 10
199.2850124845
 20
190.4865838632
  0
SEQEND
  0
POLYLINE
  8
0
 62
7
  6
CONTINUOUS
 66
1
 70
0
  0
VERTEX
  8
0
 62
7
  6
CONTINUOUS
 10
206.0228475265
 20
201.2214528888
  0
VERTEX
  8
0
 62
7
  6
CONTINUOUS
 10
206.01410706
 20
201.1930202929
  0
VERTEX
  8
0
 62
7
  6
CONTINUOUS
 10
206.0068560489
 20
201.1656061018
  0
VERTEX
  8
0
 62
7
  6
CONTINUOUS
 10
206.0008944814
 20
201.1391488632
  0
VERTEX
  8
0
 62
7
  6
CONTINUOUS
 10
205.9960954899
 20
201.1137722844
  0
VERTEX
  8
0
 62
7
  6
CONTINUOUS
 10
205.9923525166
 20
201.0897009637
  0
VERTEX
  8
0
 62
7
  6
CONTINUOUS
 10
205.9895224378
 20
201.066913084
  0
VERTEX
  8
0
 62
7
  6
CONTINUOUS
 10
205.9874558787
 20
201.0450863288
  0
VERTEX
  8
0
 62
7
  6
CONTINUOUS
 10
205.9860584634
 20
201.0240535612
  0
VERTEX
  8
0
 62
7
  6
CONTINUOUS
 10
205.9852647605
 20
201.0038248259
  0
VERTEX
  8
0
 62
7
  6
CONTINUOUS
 10
205.9850124845
 20
200.9843429926
  0
SEQEND
  0
LINE
  8
0
 62
7
  6
CONTINUOUS
 10
320.6300026954
 20
200.7793022604
 11
316.5072155738
 21
201.7311226656
  0
POLYLINE
  8
0
 62
7
  6
CONTINUOUS
 66
1
 70
0
  0
VERTEX
  8
0
 62
7
  6
CONTINUOUS
 10
211.9849928858
 20
200.9883604601
  0
VERTEX
  8
0
 62
7
  6
CONTINUOUS
 10
211.9844079456
 20
201.0131434383
  0
VERTEX
  8
0
 62
7
  6
CONTINUOUS
 10
211.9829582017
 20
201.0387131178
  0
VERTEX
  8
0
 62
7
  6
CONTINUOUS
 10
211.9806007808
 20
201.0647758257
  0
VERTEX
  8
0
 62
7
  6
CONTINUOUS
 10
211.9773267044
 20
201.0910345856
  0
VERTEX
  8
0
 62
7
  6
CONTINUOUS
 10
211.9731561692
 20
201.1172175208
  0
VERTEX
  8
0
 62
7
  6
CONTINUOUS
 10
211.9681234868
 20
201.1431263213
  0
VERTEX
  8
0
 62
7
  6
CONTINUOUS
 10
211.9622714135
 20
201.1686055682
  0
VERTEX
  8
0
 62
7
  6
CONTINUOUS
 10
211.955635793
 20
201.1935727761
  0
SEQEND
  0
POLYLINE
  8
0
 62
7
  6
CONTINUOUS
 66
1
 70
0
  0
VERTEX
  8
0
 62
7
  6
CONTINUOUS
 10
218.68502989
 20
190.4880070202
  0
VERTEX
  8
0
 62
7
  6
CONTINUOUS
 10
218.6855744021
 20
190.4639484174
  0
VERTEX
  8
0
 62
7
  6
CONTINUOUS
 10
218.6869103178
 20
190.4393672655
  0
VERTEX
  8
0
 62
7
  6
CONTINUOUS
 10
218.6890740906
 20
190.4143110779
  0
VERTEX
  8
0
 62
7
  6
CONTINUOUS
 10
218.6920960886
 20
190.3888629243
  0
VERTEX
  8
0
 62
7
  6
CONTINUOUS
 10
218.696005599
 20
190.363084898
  0
VERTEX
  8
0
 62
7
  6
CONTINUOUS
 10
218.7008266176
 20
190.3370627339
  0
VERTEX
  8
0
 62
7
  6
CONTINUOUS
 10
218.7065621168
 20
190.3109617613
  0
VERTEX
  8
0
 62
7
  6
CONTINUOUS
 10
218.7132094807
 20
190.2849230646
  0
VERTEX
  8
0
 62
7
  6
CONTINUOUS
 10
218.7207794823
 20
190.2590170534
  0
SEQEND
  0
POLYLINE
  8
0
 62
7
  6
CONTINUOUS
 66
1
 70
0
  0
VERTEX
  8
0
 62
7
  6
CONTINUOUS
 10
211.9850124845
 20
200.9829345734
  0
VERTEX
  8
0
 62
7
  6
CONTINUOUS
 10
211.9846973765
 20
201.0047250915
  0
VERTEX
  8
0
 62
7
  6
CONTINUOUS
 10
211.9837000247
 20
201.0274772234
  0
VERTEX
  8
0
 62
7
  6
CONTINUOUS
 10
211.9819316028
 20
201.051270189
  0
VERTEX
  8
0
 62
7
  6
CONTINUOUS
 10
211.9792873139
 20
201.0761791806
  0
VERTEX
  8
0
 62
7
  6
CONTINUOUS
 10
211.9756094816
 20
201.1024927497
  0
VERTEX
  8
0
 62
7
  6
CONTINUOUS
 10
211.9706877441
 20
201.1304829518
  0
VERTEX
  8
0
 62
7
  6
CONTINUOUS
 10
211.9643447626
 20
201.1599955757
  0
VERTEX
  8
0
 62
7
  6
CONTINUOUS
 10
211.9564258638
 20
201.1907540709
  0
VERTEX
  8
0
 62
7
  6
CONTINUOUS
 10
211.9467420207
 20
201.2225934964
  0
VERTEX
  8
0
 62
7
  6
CONTINUOUS
 10
211.9371054384
 20
201.2499962541
  0
SEQEND
  0
POLYLINE
  8
0
 62
7
  6
CONTINUOUS
 66
1
 70
0
  0
VERTEX
  8
0
 62
7
  6
CONTINUOUS
 10
218.6850124845
 20
190.4931271848
  0
VERTEX
  8
0
 62
7
  6
CONTINUOUS
 10
218.6853007546
 20
190.472259247
  0
VERTEX
  8
0
 62
7
  6
CONTINUOUS
 10
218.6862128297
 20
190.4504430213
  0
VERTEX
  8
0
 62
7
  6
CONTINUOUS
 10
218.6878310262
 20
190.42757808
  0
VERTEX
  8
0
 62
7
  6
CONTINUOUS
 10
218.6902481038
 20
190.403621016
  0
VERTEX
  8
0
 62
7
  6
CONTINUOUS
 10
218.6935980124
 20
190.3783371713
  0
VERTEX
  8
0
 62
7
  6
CONTINUOUS
 10
218.6980580036
 20
190.3514865688
  0
VERTEX
  8
0
 62
7
  6
CONTINUOUS
 10
218.7037873655
 20
190.3231491084
  0
VERTEX
  8
0
 62
7
  6
CONTINUOUS
 10
218.7109221571
 20
190.2935509569
  0
VERTEX
  8
0
 62
7
  6
CONTINUOUS
 10
218.7196131099
 20
190.2628629028
  0
VERTEX
  8
0
 62
7
  6
CONTINUOUS
 10
218.7300286054
 20
190.2312479025
  0
VERTEX
  8
0
 62
7
  6
CONTINUOUS
 10
218.7423774745
 20
190.1988422234
  0
VERTEX
  8
0
 62
7
  6
CONTINUOUS
 10
218.75589104
 20
190.1679825824
  0
SEQEND
  0
LINE
  8
0
 62
7
  6
CONTINUOUS
 10
211.9849928858
 20
200.9883604601
 11
211.9850124845
 21
190.48956274
  0
LINE
  8
0
 62
7
  6
CONTINUOUS
 10
218.6850315884
 20
200.9847315205
 11
218.68502989
 21
190.4880070202
  0
POLYLINE
  8
0
 62
7
  6
CONTINUOUS
 66
1
 70
0
  0
VERTEX
  8
0
 62
7
  6
CONTINUOUS
 10
211.9553343059
 20
190.2778663933
  0
VERTEX
  8
0
 62
7
  6
CONTINUOUS
 10
211.9619914811
 20
190.3027649681
  0
VERTEX
  8
0
 62
7
  6
CONTINUOUS
 10
211.9678689044
 20
190.3281744653
  0
VERTEX
  8
0
 62
7
  6
CONTINUOUS
 10
211.9729313399
 20
190.3540138917
  0
VERTEX
  8
0
 62
7
  6
CONTINUOUS
 10
211.9771363924
 20
190.3801301784
  0
VERTEX
  8
0
 62
7
  6
CONTINUOUS
 10
211.9804497518
 20
190.4063279844
  0
VERTEX
  8
0
 62
7
  6
CONTINUOUS
 10
211.9828508073
 20
190.4323399413
  0
VERTEX
  8
0
 62
7
  6
CONTINUOUS
 10
211.9843473841
 20
190.4578731955
  0
VERTEX
  8
0
 62
7
  6
CONTINUOUS
 10
211.9849805717
 20
190.4826347454
  0
VERTEX
  8
0
 62
7
  6
CONTINUOUS
 10
211.9850123394
 20
190.4895627253
  0
SEQEND
  0
POLYLINE
  8
0
 62
7
  6
CONTINUOUS
 66
1
 70
0
  0
VERTEX
  8
0
 62
7
  6
CONTINUOUS
 10
218.7211197674
 20
201.2145708037
  0
VERTEX
  8
0
 62
7
  6
CONTINUOUS
 10
218.713531967
 20
201.188749773
  0
VERTEX
  8
0
 62
7
  6
CONTINUOUS
 10
218.7068617722
 20
201.1627934916
  0
VERTEX
  8
0
 62
7
  6
CONTINUOUS
 10
218.7010975597
 20
201.1367676487
  0
VERTEX
  8
0
 62
7
  6
CONTINUOUS
 10
218.6962413609
 20
201.1108057212
  0
VERTEX
  8
0
 62
7
  6
CONTINUOUS
 10
218.6922908388
 20
201.0850665942
  0
VERTEX
  8
0
 62
7
  6
CONTINUOUS
 10
218.6892243596
 20
201.0596400128
  0
VERTEX
  8
0
 62
7
  6
CONTINUOUS
 10
218.6870145217
 20
201.0345938871
  0
VERTEX
  8
0
 62
7
  6
CONTINUOUS
 10
218.685632272
 20
201.0100194351
  0
VERTEX
  8
0
 62
7
  6
CONTINUOUS
 10
218.685031563
 20
200.9847312318
  0
SEQEND
  0
POLYLINE
  8
0
 62
7
  6
CONTINUOUS
 66
1
 70
0
  0
VERTEX
  8
0
 62
7
  6
CONTINUOUS
 10
211.9370785189
 20
190.2224292694
  0
VERTEX
  8
0
 62
7
  6
CONTINUOUS
 10
211.9467412198
 20
190.2499013803
  0
VERTEX
  8
0
 62
7
  6
CONTINUOUS
 10
211.9564251172
 20
190.2817405747
  0
VERTEX
  8
0
 62
7
  6
CONTINUOUS
 10
211.9643442144
 20
190.3124994065
  0
VERTEX
  8
0
 62
7
  6
CONTINUOUS
 10
211.9706873702
 20
190.3420124333
  0
VERTEX
  8
0
 62
7
  6
CONTINUOUS
 10
211.975609199
 20
190.3700027534
  0
VERTEX
  8
0
 62
7
  6
CONTINUOUS
 10
211.979287097
 20
190.3963163489
  0
VERTEX
  8
0
 62
7
  6
CONTINUOUS
 10
211.9819314935
 20
190.4212258948
  0
VERTEX
  8
0
 62
7
  6
CONTINUOUS
 10
211.9836999787
 20
190.4450192941
  0
VERTEX
  8
0
 62
7
  6
CONTINUOUS
 10
211.9846973635
 20
190.4677717601
  0
VERTEX
  8
0
 62
7
  6
CONTINUOUS
 10
211.9850124845
 20
190.4895627271
  0
SEQEND
  0
POLYLINE
  8
0
 62
7
  6
CONTINUOUS
 66
1
 70
0
  0
VERTEX
  8
0
 62
7
  6
CONTINUOUS
 10
211.9371277003
 20
190.2225591452
  0
VERTEX
  8
0
 62
7
  6
CONTINUOUS
 10
211.9397772034
 20
190.229745774
  0
VERTEX
  8
0
 62
7
  6
CONTINUOUS
 10
211.9479209224
 20
190.253509843
  0
SEQEND
  0
LINE
  8
0
 62
7
  6
CONTINUOUS
 10
211.9351231279
 20
190.2172783143
 11
211.9370785189
 21
190.2224292694
  0
POLYLINE
  8
0
 62
7
  6
CONTINUOUS
 66
1
 70
0
  0
VERTEX
  8
0
 62
7
  6
CONTINUOUS
 10
218.7558906701
 20
201.3045139349
  0
VERTEX
  8
0
 62
7
  6
CONTINUOUS
 10
218.7423778568
 20
201.2736560201
  0
VERTEX
  8
0
 62
7
  6
CONTINUOUS
 10
218.7300293295
 20
201.2412514487
  0
VERTEX
  8
0
 62
7
  6
CONTINUOUS
 10
218.7196140367
 20
201.2096374364
  0
VERTEX
  8
0
 62
7
  6
CONTINUOUS
 10
218.7109229217
 20
201.1789492723
  0
VERTEX
  8
0
 62
7
  6
CONTINUOUS
 10
218.7037878978
 20
201.1493506053
  0
VERTEX
  8
0
 62
7
  6
CONTINUOUS
 10
218.6980583337
 20
201.1210125352
  0
VERTEX
  8
0
 62
7
  6
CONTINUOUS
 10
218.6935982269
 20
201.0941615771
  0
VERTEX
  8
0
 62
7
  6
CONTINUOUS
 10
218.6902482442
 20
201.0688774993
  0
VERTEX
  8
0
 62
7
  6
CONTINUOUS
 10
218.6878310862
 20
201.044919929
  0
VERTEX
  8
0
 62
7
  6
CONTINUOUS
 10
218.6862128568
 20
201.0220547695
  0
VERTEX
  8
0
 62
7
  6
CONTINUOUS
 10
218.6853007621
 20
201.000238335
  0
VERTEX
  8
0
 62
7
  6
CONTINUOUS
 10
218.6850315884
 20
200.9847315205
  0
SEQEND
  0
POLYLINE
  8
0
 62
7
  6
CONTINUOUS
 66
1
 70
0
  0
VERTEX
  8
0
 62
7
  6
CONTINUOUS
 10
218.7558458268
 20
201.3044186416
  0
VERTEX
  8
0
 62
7
  6
CONTINUOUS
 10
218.7497469114
 20
201.2910023595
  0
VERTEX
  8
0
 62
7
  6
CONTINUOUS
 10
218.7391803467
 20
201.2657240684
  0
VERTEX
  8
0
 62
7
  6
CONTINUOUS
 10
218.7296560529
 20
201.2402377713
  0
SEQEND
  0
LINE
  8
0
 62
7
  6
CONTINUOUS
 10
218.756867418
 20
201.306591074
 11
218.7558906701
 21
201.3045139349
  0
POLYLINE
  8
0
 62
7
  6
CONTINUOUS
 66
1
 70
0
  0
VERTEX
  8
0
 62
7
  6
CONTINUOUS
 10
224.6018580009
 20
190.1430044916
  0
VERTEX
  8
0
 62
7
  6
CONTINUOUS
 10
224.6178913499
 20
190.1764843024
  0
VERTEX
  8
0
 62
7
  6
CONTINUOUS
 10
224.6320978761
 20
190.2107616211
  0
VERTEX
  8
0
 62
7
  6
CONTINUOUS
 10
224.6441012628
 20
190.2443040245
  0
VERTEX
  8
0
 62
7
  6
CONTINUOUS
 10
224.6542813881
 20
190.2774110552
  0
VERTEX
  8
0
 62
7
  6
CONTINUOUS
 10
224.662806117
 20
190.3100364827
  0
VERTEX
  8
0
 62
7
  6
CONTINUOUS
 10
224.6696610769
 20
190.341407356
  0
VERTEX
  8
0
 62
7
  6
CONTINUOUS
 10
224.6749589349
 20
190.3709996735
  0
VERTEX
  8
0
 62
7
  6
CONTINUOUS
 10
224.6789117976
 20
190.3987395139
  0
VERTEX
  8
0
 62
7
  6
CONTINUOUS
 10
224.6817439818
 20
190.424884363
  0
VERTEX
  8
0
 62
7
  6
CONTINUOUS
 10
224.6836262697
 20
190.4496863791
  0
VERTEX
  8
0
 62
7
  6
CONTINUOUS
 10
224.6846808297
 20
190.4732263047
  0
VERTEX
  8
0
 62
7
  6
CONTINUOUS
 10
224.6850124797
 20
190.4955467693
  0
SEQEND
  0
POLYLINE
  8
0
 62
7
  6
CONTINUOUS
 66
1
 70
0
  0
VERTEX
  8
0
 62
7
  6
CONTINUOUS
 10
224.6019012323
 20
190.1430881703
  0
VERTEX
  8
0
 62
7
  6
CONTINUOUS
 10
224.6099803495
 20
190.1593564385
  0
VERTEX
  8
0
 62
7
  6
CONTINUOUS
 10
224.6222759794
 20
190.186501874
  0
VERTEX
  8
0
 62
7
  6
CONTINUOUS
 10
224.6333543423
 20
190.2139808946
  0
SEQEND
  0
LINE
  8
0
 62
7
  6
CONTINUOUS
 10
224.6011033013
 20
190.1415415146
 11
224.6018580009
 21
190.1430044916
  0
POLYLINE
  8
0
 62
7
  6
CONTINUOUS
 66
1
 70
0
  0
VERTEX
  8
0
 62
7
  6
CONTINUOUS
 10
231.4904769438
 20
201.3697505517
  0
VERTEX
  8
0
 62
7
  6
CONTINUOUS
 10
231.4709054842
 20
201.3342567133
  0
VERTEX
  8
0
 62
7
  6
CONTINUOUS
 10
231.4537742763
 20
201.2982060539
  0
VERTEX
  8
0
 62
7
  6
CONTINUOUS
 10
231.4392172738
 20
201.2627775137
  0
VERTEX
  8
0
 62
7
  6
CONTINUOUS
 10
231.4268943271
 20
201.2281042429
  0
VERTEX
  8
0
 62
7
  6
CONTINUOUS
 10
231.41646064
 20
201.1939949172
  0
VERTEX
  8
0
 62
7
  6
CONTINUOUS
 10
231.4077475632
 20
201.1605397757
  0
VERTEX
  8
0
 62
7
  6
CONTINUOUS
 10
231.4007349835
 20
201.1284126483
  0
VERTEX
  8
0
 62
7
  6
CONTINUOUS
 10
231.3953053596
 20
201.098110596
  0
VERTEX
  8
0
 62
7
  6
CONTINUOUS
 10
231.3912494964
 20
201.0697150954
  0
VERTEX
  8
0
 62
7
  6
CONTINUOUS
 10
231.3883465984
 20
201.0430077884
  0
VERTEX
  8
0
 62
7
  6
CONTINUOUS
 10
231.3864231347
 20
201.01776755
  0
VERTEX
  8
0
 62
7
  6
CONTINUOUS
 10
231.3853493147
 20
200.9939150076
  0
VERTEX
  8
0
 62
7
  6
CONTINUOUS
 10
231.3850124845
 20
200.9712963923
  0
SEQEND
  0
POLYLINE
  8
0
 62
7
  6
CONTINUOUS
 66
1
 70
0
  0
VERTEX
  8
0
 62
7
  6
CONTINUOUS
 10
231.4904443807
 20
201.3696960077
  0
VERTEX
  8
0
 62
7
  6
CONTINUOUS
 10
231.4822976094
 20
201.3555749335
  0
VERTEX
  8
0
 62
7
  6
CONTINUOUS
 10
231.4698631763
 20
201.3322572715
  0
VERTEX
  8
0
 62
7
  6
CONTINUOUS
 10
231.4584568657
 20
201.3086977276
  0
VERTEX
  8
0
 62
7
  6
CONTINUOUS
 10
231.4479898161
 20
201.2848832036
  0
VERTEX
  8
0
 62
7
  6
CONTINUOUS
 10
231.438371602
 20
201.2607427356
  0
SEQEND
  0
LINE
  8
0
 62
7
  6
CONTINUOUS
 10
231.4908873095
 20
201.3704396086
 11
231.4904769438
 21
201.3697505517
  0
LINE
  8
0
 62
7
  6
CONTINUOUS
 10
231.4904841857
 20
190.1027345757
 11
231.4908873058
 21
190.1020577035
  0
LINE
  8
0
 62
7
  6
CONTINUOUS
 10
224.601853318
 20
201.3295019214
 11
224.6011033011
 21
201.3309557924
  0
LINE
  8
0
 62
7
  6
CONTINUOUS
 10
218.75589104
 20
190.1679825824
 11
218.7568674215
 21
190.1659062255
  0
LINE
  8
0
 62
7
  6
CONTINUOUS
 10
211.9371054384
 20
201.2499962541
 11
211.9351231304
 21
201.255218984
  0
POLYLINE
  8
0
 62
7
  6
CONTINUOUS
 66
1
 70
0
  0
VERTEX
  8
0
 62
7
  6
CONTINUOUS
 10
218.7293022073
 20
190.2332650708
  0
VERTEX
  8
0
 62
7
  6
CONTINUOUS
 10
218.7388151365
 20
190.2076989384
  0
VERTEX
  8
0
 62
7
  6
CONTINUOUS
 10
218.7493727905
 20
190.1823440022
  0
VERTEX
  8
0
 62
7
  6
CONTINUOUS
 10
218.7558463367
 20
190.1680775938
  0
SEQEND
  0
POLYLINE
  8
0
 62
7
  6
CONTINUOUS
 66
1
 70
0
  0
VERTEX
  8
0
 62
7
  6
CONTINUOUS
 10
211.9482414669
 20
201.2179938888
  0
VERTEX
  8
0
 62
7
  6
CONTINUOUS
 10
211.9401145569
 20
201.241818788
  0
VERTEX
  8
0
 62
7
  6
CONTINUOUS
 10
211.9371553337
 20
201.249864417
  0
SEQEND
  0
POLYLINE
  8
0
 62
7
  6
CONTINUOUS
 66
1
 70
0
  0
VERTEX
  8
0
 62
7
  6
CONTINUOUS
 10
224.6849848536
 20
200.9833218736
  0
VERTEX
  8
0
 62
7
  6
CONTINUOUS
 10
224.6843590762
 20
201.0083764511
  0
VERTEX
  8
0
 62
7
  6
CONTINUOUS
 10
224.6828867038
 20
201.033879121
  0
VERTEX
  8
0
 62
7
  6
CONTINUOUS
 10
224.6805104451
 20
201.0600617499
  0
VERTEX
  8
0
 62
7
  6
CONTINUOUS
 10
224.6771444279
 20
201.0870983426
  0
VERTEX
  8
0
 62
7
  6
CONTINUOUS
 10
224.6727240471
 20
201.1148567598
  0
VERTEX
  8
0
 62
7
  6
CONTINUOUS
 10
224.6672130916
 20
201.1431019436
  0
VERTEX
  8
0
 62
7
  6
CONTINUOUS
 10
224.6605966079
 20
201.1715917049
  0
VERTEX
  8
0
 62
7
  6
CONTINUOUS
 10
224.6528749197
 20
201.200099404
  0
SEQEND
  0
POLYLINE
  8
0
 62
7
  6
CONTINUOUS
 66
1
 70
0
  0
VERTEX
  8
0
 62
7
  6
CONTINUOUS
 10
231.3850296513
 20
190.4961091976
  0
VERTEX
  8
0
 62
7
  6
CONTINUOUS
 10
231.3855946814
 20
190.4713917549
  0
VERTEX
  8
0
 62
7
  6
CONTINUOUS
 10
231.3870057113
 20
190.445817939
  0
VERTEX
  8
0
 62
7
  6
CONTINUOUS
 10
231.3893036455
 20
190.4196371071
  0
VERTEX
  8
0
 62
7
  6
CONTINUOUS
 10
231.3924979955
 20
190.3931281078
  0
VERTEX
  8
0
 62
7
  6
CONTINUOUS
 10
231.3965765196
 20
190.3665211438
  0
VERTEX
  8
0
 62
7
  6
CONTINUOUS
 10
231.401513471
 20
190.3400029704
  0
SEQEND
  0
POLYLINE
  8
0
 62
7
  6
CONTINUOUS
 66
1
 70
0
  0
VERTEX
  8
0
 62
7
  6
CONTINUOUS
 10
224.6850124845
 20
200.9768650623
  0
VERTEX
  8
0
 62
7
  6
CONTINUOUS
 10
224.6846808303
 20
200.9992709783
  0
VERTEX
  8
0
 62
7
  6
CONTINUOUS
 10
224.6836262674
 20
201.0228109626
  0
VERTEX
  8
0
 62
7
  6
CONTINUOUS
 10
224.6817439725
 20
201.0476130418
  0
VERTEX
  8
0
 62
7
  6
CONTINUOUS
 10
224.6789117882
 20
201.0737578651
  0
VERTEX
  8
0
 62
7
  6
CONTINUOUS
 10
224.6749589042
 20
201.1014978219
  0
VERTEX
  8
0
 62
7
  6
CONTINUOUS
 10
224.6696609918
 20
201.131090379
  0
VERTEX
  8
0
 62
7
  6
CONTINUOUS
 10
224.6628059557
 20
201.1624614981
  0
VERTEX
  8
0
 62
7
  6
CONTINUOUS
 10
224.654281272
 20
201.1950866616
  0
VERTEX
  8
0
 62
7
  6
CONTINUOUS
 10
224.6441009521
 20
201.2281942195
  0
VERTEX
  8
0
 62
7
  6
CONTINUOUS
 10
224.6320974869
 20
201.2617366968
  0
VERTEX
  8
0
 62
7
  6
CONTINUOUS
 10
224.6178910233
 20
201.2960137354
  0
VERTEX
  8
0
 62
7
  6
CONTINUOUS
 10
224.601853318
 20
201.3295019214
  0
SEQEND
  0
POLYLINE
  8
0
 62
7
  6
CONTINUOUS
 66
1
 70
0
  0
VERTEX
  8
0
 62
7
  6
CONTINUOUS
 10
231.3850124845
 20
190.5012009183
  0
VERTEX
  8
0
 62
7
  6
CONTINUOUS
 10
231.3853493112
 20
190.4785824244
  0
VERTEX
  8
0
 62
7
  6
CONTINUOUS
 10
231.3864231228
 20
190.4547299585
  0
VERTEX
  8
0
 62
7
  6
CONTINUOUS
 10
231.3883465736
 20
190.4294897913
  0
VERTEX
  8
0
 62
7
  6
CONTINUOUS
 10
231.3912494421
 20
190.4027826482
  0
VERTEX
  8
0
 62
7
  6
CONTINUOUS
 10
231.3953052722
 20
190.3743872565
  0
VERTEX
  8
0
 62
7
  6
CONTINUOUS
 10
231.4007348717
 20
190.3440852197
  0
VERTEX
  8
0
 62
7
  6
CONTINUOUS
 10
231.4077474503
 20
190.3119579984
  0
VERTEX
  8
0
 62
7
  6
CONTINUOUS
 10
231.4164604038
 20
190.2785032201
  0
VERTEX
  8
0
 62
7
  6
CONTINUOUS
 10
231.4268939787
 20
190.244394118
  0
VERTEX
  8
0
 62
7
  6
CONTINUOUS
 10
231.4392167009
 20
190.2097212956
  0
VERTEX
  8
0
 62
7
  6
CONTINUOUS
 10
231.4537736067
 20
190.1742927712
  0
VERTEX
  8
0
 62
7
  6
CONTINUOUS
 10
231.4709049397
 20
190.138241651
  0
VERTEX
  8
0
 62
7
  6
CONTINUOUS
 10
231.4904841857
 20
190.1027345757
  0
SEQEND
  0
LINE
  8
0
 62
7
  6
CONTINUOUS
 10
224.6849848536
 20
200.9833218736
 11
224.6850124845
 21
190.4956322553
  0
LINE
  8
0
 62
7
  6
CONTINUOUS
 10
224.6850124797
 20
190.4955467693
 11
224.6850124845
 21
190.4956322411
  0
POLYLINE
  8
0
 62
7
  6
CONTINUOUS
 66
1
 70
0
  0
VERTEX
  8
0
 62
7
  6
CONTINUOUS
 10
231.4017905187
 20
201.1338553338
  0
VERTEX
  8
0
 62
7
  6
CONTINUOUS
 10
231.3968175583
 20
201.1073889028
  0
VERTEX
  8
0
 62
7
  6
CONTINUOUS
 10
231.3926983608
 20
201.0808233767
  0
VERTEX
  8
0
 62
7
  6
CONTINUOUS
 10
231.3894597381
 20
201.0543466504
  0
VERTEX
  8
0
 62
7
  6
CONTINUOUS
 10
231.3871147706
 20
201.0281875435
  0
VERTEX
  8
0
 62
7
  6
CONTINUOUS
 10
231.3856552341
 20
201.0026258873
  0
VERTEX
  8
0
 62
7
  6
CONTINUOUS
 10
231.3850414287
 20
200.9779152663
  0
VERTEX
  8
0
 62
7
  6
CONTINUOUS
 10
231.3850296513
 20
190.4961091976
  0
SEQEND
  0
POLYLINE
  8
0
 62
7
  6
CONTINUOUS
 66
1
 70
0
  0
VERTEX
  8
0
 62
7
  6
CONTINUOUS
 10
224.6432790203
 20
190.2417423516
  0
VERTEX
  8
0
 62
7
  6
CONTINUOUS
 10
224.6520913212
 20
190.2697202467
  0
VERTEX
  8
0
 62
7
  6
CONTINUOUS
 10
224.6598233051
 20
190.2978534357
  0
VERTEX
  8
0
 62
7
  6
CONTINUOUS
 10
224.6664774856
 20
190.3259849479
  0
VERTEX
  8
0
 62
7
  6
CONTINUOUS
 10
224.6720427001
 20
190.3538422755
  0
VERTEX
  8
0
 62
7
  6
CONTINUOUS
 10
224.6765463734
 20
190.3812527103
  0
VERTEX
  8
0
 62
7
  6
CONTINUOUS
 10
224.6800481581
 20
190.4082341412
  0
VERTEX
  8
0
 62
7
  6
CONTINUOUS
 10
224.6825943181
 20
190.4347971963
  0
VERTEX
  8
0
 62
7
  6
CONTINUOUS
 10
224.6842239334
 20
190.4610013624
  0
VERTEX
  8
0
 62
7
  6
CONTINUOUS
 10
224.6849620725
 20
190.4869067627
  0
VERTEX
  8
0
 62
7
  6
CONTINUOUS
 10
224.6850123296
 20
190.4955471145
  0
SEQEND
  0
POLYLINE
  8
0
 62
7
  6
CONTINUOUS
 66
1
 70
0
  0
VERTEX
  8
0
 62
7
  6
CONTINUOUS
 10
231.4295547063
 20
201.2362529633
  0
VERTEX
  8
0
 62
7
  6
CONTINUOUS
 10
231.4214916284
 20
201.2113330597
  0
VERTEX
  8
0
 62
7
  6
CONTINUOUS
 10
231.4141590014
 20
201.1859169702
  0
VERTEX
  8
0
 62
7
  6
CONTINUOUS
 10
231.4075818884
 20
201.1600655527
  0
SEQEND
  0
LINE
  8
0
 62
7
  6
CONTINUOUS
 10
244.181205913
 20
201.3513091732
 11
244.1663805583
 21
201.3220109889
  0
POLYLINE
  8
0
 62
7
  6
CONTINUOUS
 66
1
 70
0
  0
VERTEX
  8
0
 62
7
  6
CONTINUOUS
 10
237.2673519569
 20
190.0829538906
  0
VERTEX
  8
0
 62
7
  6
CONTINUOUS
 10
237.2878741579
 20
190.1176447776
  0
VERTEX
  8
0
 62
7
  6
CONTINUOUS
 10
237.3059913027
 20
190.1530769145
  0
VERTEX
  8
0
 62
7
  6
CONTINUOUS
 10
237.3215939453
 20
190.1882012585
  0
VERTEX
  8
0
 62
7
  6
CONTINUOUS
 10
237.3349359206
 20
190.2226927238
  0
VERTEX
  8
0
 62
7
  6
CONTINUOUS
 10
237.3462988518
 20
190.2564824913
  0
VERTEX
  8
0
 62
7
  6
CONTINUOUS
 10
237.3559472441
 20
190.2896991862
  0
VERTEX
  8
0
 62
7
  6
CONTINUOUS
 10
237.3639789223
 20
190.3220798439
  0
VERTEX
  8
0
 62
7
  6
CONTINUOUS
 10
237.3704361715
 20
190.3530507532
  0
VERTEX
  8
0
 62
7
  6
CONTINUOUS
 10
237.3754484362
 20
190.3822543677
  0
VERTEX
  8
0
 62
7
  6
CONTINUOUS
 10
237.379207343
 20
190.4096644531
  0
VERTEX
  8
0
 62
7
  6
CONTINUOUS
 10
237.3819059811
 20
190.43547798
  0
VERTEX
  8
0
 62
7
  6
CONTINUOUS
 10
237.3836971482
 20
190.4598816283
  0
VERTEX
  8
0
 62
7
  6
CONTINUOUS
 10
237.3846981545
 20
190.4829410275
  0
VERTEX
  8
0
 62
7
  6
CONTINUOUS
 10
237.3849989847
 20
190.5002946527
  0
SEQEND
  0
POLYLINE
  8
0
 62
7
  6
CONTINUOUS
 66
1
 70
0
  0
VERTEX
  8
0
 62
7
  6
CONTINUOUS
 10
237.2673767139
 20
190.0829925791
  0
VERTEX
  8
0
 62
7
  6
CONTINUOUS
 10
237.2762085489
 20
190.0972813383
  0
VERTEX
  8
0
 62
7
  6
CONTINUOUS
 10
237.2893018779
 20
190.1201982928
  0
VERTEX
  8
0
 62
7
  6
CONTINUOUS
 10
237.3013597669
 20
190.1433998446
  0
VERTEX
  8
0
 62
7
  6
CONTINUOUS
 10
237.3124703199
 20
190.1668828657
  0
VERTEX
  8
0
 62
7
  6
CONTINUOUS
 10
237.3227245908
 20
190.1906985624
  0
SEQEND
  0
LINE
  8
0
 62
7
  6
CONTINUOUS
 10
237.2670833481
 20
190.0825329478
 11
237.2673519569
 21
190.0829538906
  0
POLYLINE
  8
0
 62
7
  6
CONTINUOUS
 66
1
 70
0
  0
VERTEX
  8
0
 62
7
  6
CONTINUOUS
 10
244.2248270593
 20
201.4223377917
  0
VERTEX
  8
0
 62
7
  6
CONTINUOUS
 10
244.2090531772
 20
201.3990613754
  0
VERTEX
  8
0
 62
7
  6
CONTINUOUS
 10
244.1945829235
 20
201.3754109046
  0
SEQEND
  0
POLYLINE
  8
0
 62
7
  6
CONTINUOUS
 66
1
 70
0
  0
VERTEX
  8
0
 62
7
  6
CONTINUOUS
 10
244.2248208536
 20
201.4223291394
  0
VERTEX
  8
0
 62
7
  6
CONTINUOUS
 10
244.212048747
 20
201.4036997849
  0
VERTEX
  8
0
 62
7
  6
CONTINUOUS
 10
244.1954408397
 20
201.3770026719
  0
VERTEX
  8
0
 62
7
  6
CONTINUOUS
 10
244.1802629314
 20
201.3497633869
  0
SEQEND
  0
LINE
  8
0
 62
7
  6
CONTINUOUS
 10
244.224907145
 20
201.4224498354
 11
244.2248270593
 21
201.4223377917
  0
LINE
  8
0
 62
7
  6
CONTINUOUS
 10
244.2248275705
 20
190.0501587973
 11
244.2249071475
 21
190.0500474653
  0
LINE
  8
0
 62
7
  6
CONTINUOUS
 10
237.2673468033
 20
201.3895514928
 11
237.267083348
 21
201.3899643521
  0
POLYLINE
  8
0
 62
7
  6
CONTINUOUS
 66
1
 70
0
  0
VERTEX
  8
0
 62
7
  6
CONTINUOUS
 10
244.1945845636
 20
190.0970835845
  0
VERTEX
  8
0
 62
7
  6
CONTINUOUS
 10
244.2090542819
 20
190.0734342143
  0
VERTEX
  8
0
 62
7
  6
CONTINUOUS
 10
244.2248275705
 20
190.0501587973
  0
SEQEND
  0
POLYLINE
  8
0
 62
7
  6
CONTINUOUS
 66
1
 70
0
  0
VERTEX
  8
0
 62
7
  6
CONTINUOUS
 10
224.6340625164
 20
201.2566441574
  0
VERTEX
  8
0
 62
7
  6
CONTINUOUS
 10
224.6229049745
 20
201.2845190155
  0
VERTEX
  8
0
 62
7
  6
CONTINUOUS
 10
224.6105040796
 20
201.3120461963
  0
VERTEX
  8
0
 62
7
  6
CONTINUOUS
 10
224.6018960747
 20
201.3294191518
  0
SEQEND
  0
POLYLINE
  8
0
 62
7
  6
CONTINUOUS
 66
1
 70
0
  0
VERTEX
  8
0
 62
7
  6
CONTINUOUS
 10
231.4379889189
 20
190.2127668082
  0
VERTEX
  8
0
 62
7
  6
CONTINUOUS
 10
231.4475978152
 20
190.1885524578
  0
VERTEX
  8
0
 62
7
  6
CONTINUOUS
 10
231.4580579107
 20
190.1646661873
  0
VERTEX
  8
0
 62
7
  6
CONTINUOUS
 10
231.4694589107
 20
190.1410372686
  0
VERTEX
  8
0
 62
7
  6
CONTINUOUS
 10
231.4818872481
 20
190.1176566501
  0
VERTEX
  8
0
 62
7
  6
CONTINUOUS
 10
231.4904522358
 20
190.102788098
  0
SEQEND
  0
POLYLINE
  8
0
 62
7
  6
CONTINUOUS
 66
1
 70
0
  0
VERTEX
  8
0
 62
7
  6
CONTINUOUS
 10
231.4072739035
 20
190.3137325224
  0
VERTEX
  8
0
 62
7
  6
CONTINUOUS
 10
231.4138253392
 20
190.2878136328
  0
VERTEX
  8
0
 62
7
  6
CONTINUOUS
 10
231.4211368144
 20
190.2623270443
  0
VERTEX
  8
0
 62
7
  6
CONTINUOUS
 10
231.4291837582
 20
190.2373329638
  0
SEQEND
  0
POLYLINE
  8
0
 62
7
  6
CONTINUOUS
 66
1
 70
0
  0
VERTEX
  8
0
 62
7
  6
CONTINUOUS
 10
237.3849990031
 20
200.972203549
  0
VERTEX
  8
0
 62
7
  6
CONTINUOUS
 10
237.3844050257
 20
200.9981850496
  0
VERTEX
  8
0
 62
7
  6
CONTINUOUS
 10
237.3829689444
 20
201.0238837943
  0
VERTEX
  8
0
 62
7
  6
CONTINUOUS
 10
237.3806582668
 20
201.0500635836
  0
VERTEX
  8
0
 62
7
  6
CONTINUOUS
 10
237.3774710871
 20
201.0765004663
  0
VERTEX
  8
0
 62
7
  6
CONTINUOUS
 10
237.3734245011
 20
201.1029917308
  0
VERTEX
  8
0
 62
7
  6
CONTINUOUS
 10
237.3685428163
 20
201.1293914783
  0
VERTEX
  8
0
 62
7
  6
CONTINUOUS
 10
237.3628552676
 20
201.1555767384
  0
SEQEND
  0
POLYLINE
  8
0
 62
7
  6
CONTINUOUS
 66
1
 70
0
  0
VERTEX
  8
0
 62
7
  6
CONTINUOUS
 10
244.0850204298
 20
190.5089310396
  0
VERTEX
  8
0
 62
7
  6
CONTINUOUS
 10
244.0856076158
 20
190.4821264671
  0
VERTEX
  8
0
 62
7
  6
CONTINUOUS
 10
244.0870120628
 20
190.4566010632
  0
VERTEX
  8
0
 62
7
  6
CONTINUOUS
 10
244.0892569383
 20
190.4306877257
  0
VERTEX
  8
0
 62
7
  6
CONTINUOUS
 10
244.092331578
 20
190.4046044304
  0
VERTEX
  8
0
 62
7
  6
CONTINUOUS
 10
244.0962419394
 20
190.3783385249
  0
VERTEX
  8
0
 62
7
  6
CONTINUOUS
 10
244.1010386923
 20
190.3516925223
  0
VERTEX
  8
0
 62
7
  6
CONTINUOUS
 10
244.106801427
 20
190.3244888829
  0
SEQEND
  0
POLYLINE
  8
0
 62
7
  6
CONTINUOUS
 66
1
 70
0
  0
VERTEX
  8
0
 62
7
  6
CONTINUOUS
 10
237.3849989894
 20
200.9722018614
  0
VERTEX
  8
0
 62
7
  6
CONTINUOUS
 10
237.3846981591
 20
200.9895561105
  0
VERTEX
  8
0
 62
7
  6
CONTINUOUS
 10
237.3836971658
 20
201.01261537
  0
VERTEX
  8
0
 62
7
  6
CONTINUOUS
 10
237.3819060194
 20
201.037018889
  0
VERTEX
  8
0
 62
7
  6
CONTINUOUS
 10
237.3792074231
 20
201.0628321818
  0
VERTEX
  8
0
 62
7
  6
CONTINUOUS
 10
237.3754485702
 20
201.0902420634
  0
VERTEX
  8
0
 62
7
  6
CONTINUOUS
 10
237.3704363708
 20
201.1194455014
  0
VERTEX
  8
0
 62
7
  6
CONTINUOUS
 10
237.3639791643
 20
201.1504164028
  0
VERTEX
  8
0
 62
7
  6
CONTINUOUS
 10
237.3559476001
 20
201.1827968005
  0
VERTEX
  8
0
 62
7
  6
CONTINUOUS
 10
237.3462994127
 20
201.2160130248
  0
VERTEX
  8
0
 62
7
  6
CONTINUOUS
 10
237.3349367665
 20
201.2498022358
  0
VERTEX
  8
0
 62
7
  6
CONTINUOUS
 10
237.3215950374
 20
201.2842934072
  0
VERTEX
  8
0
 62
7
  6
CONTINUOUS
 10
237.3059924171
 20
201.3194180522
  0
VERTEX
  8
0
 62
7
  6
CONTINUOUS
 10
237.2878749982
 20
201.3548509987
  0
VERTEX
  8
0
 62
7
  6
CONTINUOUS
 10
237.2673468033
 20
201.3895514928
  0
SEQEND
  0
POLYLINE
  8
0
 62
7
  6
CONTINUOUS
 66
1
 70
0
  0
VERTEX
  8
0
 62
7
  6
CONTINUOUS
 10
244.0850204201
 20
190.5089338175
  0
VERTEX
  8
0
 62
7
  6
CONTINUOUS
 10
244.0853249209
 20
190.4905536383
  0
VERTEX
  8
0
 62
7
  6
CONTINUOUS
 10
244.0863232607
 20
190.4674223887
  0
VERTEX
  8
0
 62
7
  6
CONTINUOUS
 10
244.0881071103
 20
190.4429432004
  0
VERTEX
  8
0
 62
7
  6
CONTINUOUS
 10
244.0907971415
 20
190.4169811548
  0
VERTEX
  8
0
 62
7
  6
CONTINUOUS
 10
244.0945971189
 20
190.3890173428
  0
VERTEX
  8
0
 62
7
  6
CONTINUOUS
 10
244.0996176445
 20
190.3594755646
  0
VERTEX
  8
0
 62
7
  6
CONTINUOUS
 10
244.1058395647
 20
190.3291795237
  0
VERTEX
  8
0
 62
7
  6
CONTINUOUS
 10
244.113673395
 20
190.2964383399
  0
SEQEND
  0
LINE
  8
0
 62
7
  6
CONTINUOUS
 10
237.3849989894
 20
200.9722018614
 11
237.3850124845
 21
190.5048098257
  0
LINE
  8
0
 62
7
  6
CONTINUOUS
 10
244.0850204304
 20
200.9635657373
 11
244.0850204201
 21
190.5089338175
  0
LINE
  8
0
 62
7
  6
CONTINUOUS
 10
237.3849989847
 20
190.5002946527
 11
237.3850124845
 21
190.504809814
  0
LINE
  8
0
 62
7
  6
CONTINUOUS
 10
244.0850438621
 20
200.9670118866
 11
244.0850204399
 21
200.9635685106
  0
LINE
  8
0
 62
7
  6
CONTINUOUS
 10
237.3849801063
 20
190.497800985
 11
237.3849989984
 21
190.5002929655
  0
POLYLINE
  8
0
 62
7
  6
CONTINUOUS
 66
1
 70
0
  0
VERTEX
  8
0
 62
7
  6
CONTINUOUS
 10
244.1058358109
 20
201.1433009783
  0
VERTEX
  8
0
 62
7
  6
CONTINUOUS
 10
244.0996137251
 20
201.1130008251
  0
VERTEX
  8
0
 62
7
  6
CONTINUOUS
 10
244.0945939239
 20
201.0834590087
  0
VERTEX
  8
0
 62
7
  6
CONTINUOUS
 10
244.09079543
 20
201.0555017971
  0
VERTEX
  8
0
 62
7
  6
CONTINUOUS
 10
244.0881061997
 20
201.0295437467
  0
VERTEX
  8
0
 62
7
  6
CONTINUOUS
 10
244.0863228703
 20
201.0050681548
  0
VERTEX
  8
0
 62
7
  6
CONTINUOUS
 10
244.0853248321
 20
200.9819405497
  0
VERTEX
  8
0
 62
7
  6
CONTINUOUS
 10
244.0850204304
 20
200.9635657373
  0
SEQEND
  0
POLYLINE
  8
0
 62
7
  6
CONTINUOUS
 66
1
 70
0
  0
VERTEX
  8
0
 62
7
  6
CONTINUOUS
 10
244.1071026949
 20
201.1493248679
  0
VERTEX
  8
0
 62
7
  6
CONTINUOUS
 10
244.1013018914
 20
201.1221439979
  0
VERTEX
  8
0
 62
7
  6
CONTINUOUS
 10
244.0964656736
 20
201.0955134849
  0
VERTEX
  8
0
 62
7
  6
CONTINUOUS
 10
244.092515932
 20
201.0692668156
  0
VERTEX
  8
0
 62
7
  6
CONTINUOUS
 10
244.0894020205
 20
201.0432163114
  0
VERTEX
  8
0
 62
7
  6
CONTINUOUS
 10
244.0871159208
 20
201.0173442299
  0
VERTEX
  8
0
 62
7
  6
CONTINUOUS
 10
244.0856671755
 20
200.991860161
  0
VERTEX
  8
0
 62
7
  6
CONTINUOUS
 10
244.0850438621
 20
200.9670118866
  0
SEQEND
  0
POLYLINE
  8
0
 62
7
  6
CONTINUOUS
 66
1
 70
0
  0
VERTEX
  8
0
 62
7
  6
CONTINUOUS
 10
237.362556941
 20
190.3156472346
  0
VERTEX
  8
0
 62
7
  6
CONTINUOUS
 10
237.3682755253
 20
190.3417818902
  0
VERTEX
  8
0
 62
7
  6
CONTINUOUS
 10
237.3731925124
 20
190.3681383532
  0
VERTEX
  8
0
 62
7
  6
CONTINUOUS
 10
237.3772778987
 20
190.3945919067
  0
VERTEX
  8
0
 62
7
  6
CONTINUOUS
 10
237.3805069616
 20
190.4209964465
  0
VERTEX
  8
0
 62
7
  6
CONTINUOUS
 10
237.382862173
 20
190.4471496453
  0
VERTEX
  8
0
 62
7
  6
CONTINUOUS
 10
237.3843447142
 20
190.4728251712
  0
VERTEX
  8
0
 62
7
  6
CONTINUOUS
 10
237.3849801063
 20
190.497800985
  0
SEQEND
  0
POLYLINE
  8
0
 62
7
  6
CONTINUOUS
 66
1
 70
0
  0
VERTEX
  8
0
 62
7
  6
CONTINUOUS
 10
244.1222033103
 20
201.20640889
  0
VERTEX
  8
0
 62
7
  6
CONTINUOUS
 10
244.1140108129
 20
201.1773424896
  0
VERTEX
  8
0
 62
7
  6
CONTINUOUS
 10
244.1058358109
 20
201.1433009783
  0
SEQEND
  0
LINE
  8
0
 62
7
  6
CONTINUOUS
 10
244.122658943
 20
201.2073996204
 11
244.1134273609
 21
201.1746347103
  0
POLYLINE
  8
0
 62
7
  6
CONTINUOUS
 66
1
 70
0
  0
VERTEX
  8
0
 62
7
  6
CONTINUOUS
 10
237.3321713118
 20
190.2148514726
  0
VERTEX
  8
0
 62
7
  6
CONTINUOUS
 10
237.3408608398
 20
190.2393973536
  0
VERTEX
  8
0
 62
7
  6
CONTINUOUS
 10
237.3488282182
 20
190.2643990621
  0
VERTEX
  8
0
 62
7
  6
CONTINUOUS
 10
237.356066639
 20
190.2898320809
  0
SEQEND
  0
POLYLINE
  8
0
 62
7
  6
CONTINUOUS
 66
1
 70
0
  0
VERTEX
  8
0
 62
7
  6
CONTINUOUS
 10
244.1663805583
 20
201.3220109889
  0
VERTEX
  8
0
 62
7
  6
CONTINUOUS
 10
244.153689897
 20
201.2937617232
  0
VERTEX
  8
0
 62
7
  6
CONTINUOUS
 10
244.1421173032
 20
201.2650333795
  0
VERTEX
  8
0
 62
7
  6
CONTINUOUS
 10
244.1316112934
 20
201.2358407945
  0
SEQEND
  0
POLYLINE
  8
0
 62
7
  6
CONTINUOUS
 66
1
 70
0
  0
VERTEX
  8
0
 62
7
  6
CONTINUOUS
 10
244.168645218
 20
201.3264073484
  0
VERTEX
  8
0
 62
7
  6
CONTINUOUS
 10
244.1566386778
 20
201.3001749629
  0
VERTEX
  8
0
 62
7
  6
CONTINUOUS
 10
244.1449451554
 20
201.2718592829
  0
VERTEX
  8
0
 62
7
  6
CONTINUOUS
 10
244.1334234522
 20
201.2405973076
  0
VERTEX
  8
0
 62
7
  6
CONTINUOUS
 10
244.1222033103
 20
201.20640889
  0
SEQEND
  0
POLYLINE
  8
0
 62
7
  6
CONTINUOUS
 66
1
 70
0
  0
VERTEX
  8
0
 62
7
  6
CONTINUOUS
 10
249.9332185504
 20
190.0338666956
  0
VERTEX
  8
0
 62
7
  6
CONTINUOUS
 10
249.9590503879
 20
190.0710711666
  0
VERTEX
  8
0
 62
7
  6
CONTINUOUS
 10
249.9813601641
 20
190.1087508446
  0
VERTEX
  8
0
 62
7
  6
CONTINUOUS
 10
250.0005638996
 20
190.1462786886
  0
VERTEX
  8
0
 62
7
  6
CONTINUOUS
 10
250.0171820354
 20
190.1835878862
  0
VERTEX
  8
0
 62
7
  6
CONTINUOUS
 10
250.0315084801
 20
190.220470415
  0
VERTEX
  8
0
 62
7
  6
CONTINUOUS
 10
250.0437635567
 20
190.256732702
  0
VERTEX
  8
0
 62
7
  6
CONTINUOUS
 10
250.0541777028
 20
190.2923968251
  0
VERTEX
  8
0
 62
7
  6
CONTINUOUS
 10
250.0627799746
 20
190.3268810225
  0
VERTEX
  8
0
 62
7
  6
CONTINUOUS
 10
250.0696440005
 20
190.3595797861
  0
VERTEX
  8
0
 62
7
  6
CONTINUOUS
 10
250.0749691269
 20
190.3903583284
  0
VERTEX
  8
0
 62
7
  6
CONTINUOUS
 10
250.0789473181
 20
190.4191165563
  0
VERTEX
  8
0
 62
7
  6
CONTINUOUS
 10
250.0817780915
 20
190.4459400356
  0
VERTEX
  8
0
 62
7
  6
CONTINUOUS
 10
250.0836469336
 20
190.4711302064
  0
VERTEX
  8
0
 62
7
  6
CONTINUOUS
 10
250.0846873203
 20
190.4948080172
  0
VERTEX
  8
0
 62
7
  6
CONTINUOUS
 10
250.0850050874
 20
190.5137743717
  0
SEQEND
  0
POLYLINE
  8
0
 62
7
  6
CONTINUOUS
 66
1
 70
0
  0
VERTEX
  8
0
 62
7
  6
CONTINUOUS
 10
249.93323635
 20
190.0338901519
  0
VERTEX
  8
0
 62
7
  6
CONTINUOUS
 10
249.9454906789
 20
190.0507345132
  0
VERTEX
  8
0
 62
7
  6
CONTINUOUS
 10
249.9617287289
 20
190.075171941
  0
VERTEX
  8
0
 62
7
  6
CONTINUOUS
 10
249.9765049643
 20
190.0997930819
  0
VERTEX
  8
0
 62
7
  6
CONTINUOUS
 10
249.9899595279
 20
190.1245107115
  0
VERTEX
  8
0
 62
7
  6
CONTINUOUS
 10
250.0022313249
 20
190.1492931646
  0
VERTEX
  8
0
 62
7
  6
CONTINUOUS
 10
250.0134073814
 20
190.1740609322
  0
VERTEX
  8
0
 62
7
  6
CONTINUOUS
 10
250.0236032051
 20
190.1988491593
  0
VERTEX
  8
0
 62
7
  6
CONTINUOUS
 10
250.0329264639
 20
190.223741648
  0
VERTEX
  8
0
 62
7
  6
CONTINUOUS
 10
250.0414594627
 20
190.248837353
  0
VERTEX
  8
0
 62
7
  6
CONTINUOUS
 10
250.0492787136
 20
190.2743026991
  0
VERTEX
  8
0
 62
7
  6
CONTINUOUS
 10
250.0564353002
 20
190.3003220592
  0
VERTEX
  8
0
 62
7
  6
CONTINUOUS
 10
250.0629303469
 20
190.3270063507
  0
SEQEND
  0
LINE
  8
0
 62
7
  6
CONTINUOUS
 10
249.9330635506
 20
190.0336617759
 11
249.9332185504
 21
190.0338666956
  0
LINE
  8
0
 62
7
  6
CONTINUOUS
 10
249.9332103073
 20
201.4386415148
 11
249.933063551
 21
201.4388355309
  0
POLYLINE
  8
0
 62
7
  6
CONTINUOUS
 66
1
 70
0
  0
VERTEX
  8
0
 62
7
  6
CONTINUOUS
 10
237.3231142538
 20
201.2808474836
  0
VERTEX
  8
0
 62
7
  6
CONTINUOUS
 10
237.3128687168
 20
201.3047302164
  0
VERTEX
  8
0
 62
7
  6
CONTINUOUS
 10
237.3017652549
 20
201.3282780753
  0
VERTEX
  8
0
 62
7
  6
CONTINUOUS
 10
237.2897135197
 20
201.3515420258
  0
VERTEX
  8
0
 62
7
  6
CONTINUOUS
 10
237.276627618
 20
201.3745156484
  0
VERTEX
  8
0
 62
7
  6
CONTINUOUS
 10
237.26737105
 20
201.3895135977
  0
SEQEND
  0
POLYLINE
  8
0
 62
7
  6
CONTINUOUS
 66
1
 70
0
  0
VERTEX
  8
0
 62
7
  6
CONTINUOUS
 10
244.1218416204
 20
190.2672960317
  0
VERTEX
  8
0
 62
7
  6
CONTINUOUS
 10
244.1312353955
 20
190.2377666513
  0
VERTEX
  8
0
 62
7
  6
CONTINUOUS
 10
244.1417301704
 20
190.2084822936
  0
VERTEX
  8
0
 62
7
  6
CONTINUOUS
 10
244.1532905561
 20
190.1796759474
  0
VERTEX
  8
0
 62
7
  6
CONTINUOUS
 10
244.1659684351
 20
190.1513573512
  0
VERTEX
  8
0
 62
7
  6
CONTINUOUS
 10
244.1798383177
 20
190.1235399044
  0
VERTEX
  8
0
 62
7
  6
CONTINUOUS
 10
244.1950052886
 20
190.0962361815
  0
VERTEX
  8
0
 62
7
  6
CONTINUOUS
 10
244.2116054802
 20
190.0694722743
  0
VERTEX
  8
0
 62
7
  6
CONTINUOUS
 10
244.2248214446
 20
190.0501673396
  0
SEQEND
  0
POLYLINE
  8
0
 62
7
  6
CONTINUOUS
 66
1
 70
0
  0
VERTEX
  8
0
 62
7
  6
CONTINUOUS
 10
237.3563915508
 20
201.1814488428
  0
VERTEX
  8
0
 62
7
  6
CONTINUOUS
 10
237.3491751577
 20
201.2069445335
  0
VERTEX
  8
0
 62
7
  6
CONTINUOUS
 10
237.3412259197
 20
201.2320115151
  0
VERTEX
  8
0
 62
7
  6
CONTINUOUS
 10
237.3325504876
 20
201.256625139
  0
SEQEND
  0
POLYLINE
  8
0
 62
7
  6
CONTINUOUS
 66
1
 70
0
  0
VERTEX
  8
0
 62
7
  6
CONTINUOUS
 10
244.1134319782
 20
190.297844928
  0
VERTEX
  8
0
 62
7
  6
CONTINUOUS
 10
244.1226645869
 20
190.2650790279
  0
VERTEX
  8
0
 62
7
  6
CONTINUOUS
 10
244.1334285307
 20
190.2318853451
  0
VERTEX
  8
0
 62
7
  6
CONTINUOUS
 10
244.1449491138
 20
190.2006279068
  0
VERTEX
  8
0
 62
7
  6
CONTINUOUS
 10
244.1566419094
 20
190.172314921
  0
VERTEX
  8
0
 62
7
  6
CONTINUOUS
 10
244.1686477973
 20
190.1460845889
  0
VERTEX
  8
0
 62
7
  6
CONTINUOUS
 10
244.1812080251
 20
190.1211841374
  0
SEQEND
  0
POLYLINE
  8
0
 62
7
  6
CONTINUOUS
 66
1
 70
0
  0
VERTEX
  8
0
 62
7
  6
CONTINUOUS
 10
250.0849898704
 20
200.9612487057
  0
VERTEX
  8
0
 62
7
  6
CONTINUOUS
 10
250.0843694083
 20
200.9869070368
  0
VERTEX
  8
0
 62
7
  6
CONTINUOUS
 10
250.0828646328
 20
201.0133623882
  0
VERTEX
  8
0
 62
7
  6
CONTINUOUS
 10
250.080458558
 20
201.0403006396
  0
VERTEX
  8
0
 62
7
  6
CONTINUOUS
 10
250.0771682166
 20
201.0674187114
  0
VERTEX
  8
0
 62
7
  6
CONTINUOUS
 10
250.0730361425
 20
201.0944505568
  0
VERTEX
  8
0
 62
7
  6
CONTINUOUS
 10
250.068115565
 20
201.1212030054
  0
VERTEX
  8
0
 62
7
  6
CONTINUOUS
 10
250.0624617088
 20
201.147538736
  0
SEQEND
  0
POLYLINE
  8
0
 62
7
  6
CONTINUOUS
 66
1
 70
0
  0
VERTEX
  8
0
 62
7
  6
CONTINUOUS
 10
250.085005097
 20
200.9587207617
  0
VERTEX
  8
0
 62
7
  6
CONTINUOUS
 10
250.0846873428
 20
200.9776885096
  0
VERTEX
  8
0
 62
7
  6
CONTINUOUS
 10
250.0836470257
 20
201.0013655283
  0
VERTEX
  8
0
 62
7
  6
CONTINUOUS
 10
250.0817783316
 20
201.0265545854
  0
VERTEX
  8
0
 62
7
  6
CONTINUOUS
 10
250.078947811
 20
201.0533766892
  0
VERTEX
  8
0
 62
7
  6
CONTINUOUS
 10
250.0749698003
 20
201.0821346345
  0
VERTEX
  8
0
 62
7
  6
CONTINUOUS
 10
250.0696445968
 20
201.1129143953
  0
VERTEX
  8
0
 62
7
  6
CONTINUOUS
 10
250.0627799881
 20
201.1456162253
  0
VERTEX
  8
0
 62
7
  6
CONTINUOUS
 10
250.0541772667
 20
201.1801020969
  0
VERTEX
  8
0
 62
7
  6
CONTINUOUS
 10
250.0437636346
 20
201.2157643573
  0
VERTEX
  8
0
 62
7
  6
CONTINUOUS
 10
250.0315084641
 20
201.2520269348
  0
VERTEX
  8
0
 62
7
  6
CONTINUOUS
 10
250.0171817013
 20
201.2889102228
  0
VERTEX
  8
0
 62
7
  6
CONTINUOUS
 10
250.0005632518
 20
201.3262199765
  0
VERTEX
  8
0
 62
7
  6
CONTINUOUS
 10
249.9813594419
 20
201.3637477755
  0
VERTEX
  8
0
 62
7
  6
CONTINUOUS
 10
249.9590497816
 20
201.4014270863
  0
VERTEX
  8
0
 62
7
  6
CONTINUOUS
 10
249.9332103073
 20
201.4386415148
  0
SEQEND
  0
LINE
  8
0
 62
7
  6
CONTINUOUS
 10
250.0850124845
 20
200.9553752689
 11
250.0849898704
 21
200.9612487057
  0
LINE
  8
0
 62
7
  6
CONTINUOUS
 10
250.0850050874
 20
190.5137743717
 11
250.0850124845
 21
200.955375256
  0
LINE
  8
0
 62
7
  6
CONTINUOUS
 10
250.0849799653
 20
190.5100751591
 11
250.085005062
 21
190.5137710266
  0
POLYLINE
  8
0
 62
7
  6
CONTINUOUS
 66
1
 70
0
  0
VERTEX
  8
0
 62
7
  6
CONTINUOUS
 10
250.0686688725
 20
190.3540916083
  0
VERTEX
  8
0
 62
7
  6
CONTINUOUS
 10
250.0735518203
 20
190.3811397258
  0
VERTEX
  8
0
 62
7
  6
CONTINUOUS
 10
250.0775428992
 20
190.4078422492
  0
VERTEX
  8
0
 62
7
  6
CONTINUOUS
 10
250.0806615451
 20
190.4341442748
  0
VERTEX
  8
0
 62
7
  6
CONTINUOUS
 10
250.0829267575
 20
190.4599908315
  0
VERTEX
  8
0
 62
7
  6
CONTINUOUS
 10
250.084358157
 20
190.4853134495
  0
VERTEX
  8
0
 62
7
  6
CONTINUOUS
 10
250.0849799653
 20
190.5100751591
  0
SEQEND
  0
POLYLINE
  8
0
 62
7
  6
CONTINUOUS
 66
1
 70
0
  0
VERTEX
  8
0
 62
7
  6
CONTINUOUS
 10
250.056111099
 20
201.1734222903
  0
VERTEX
  8
0
 62
7
  6
CONTINUOUS
 10
250.0490823909
 20
201.1988682137
  0
VERTEX
  8
0
 62
7
  6
CONTINUOUS
 10
250.0413904264
 20
201.2238733333
  0
VERTEX
  8
0
 62
7
  6
CONTINUOUS
 10
250.0330393882
 20
201.248439108
  0
VERTEX
  8
0
 62
7
  6
CONTINUOUS
 10
250.0240065823
 20
201.272618501
  0
VERTEX
  8
0
 62
7
  6
CONTINUOUS
 10
250.0141376907
 20
201.2967353213
  0
VERTEX
  8
0
 62
7
  6
CONTINUOUS
 10
250.0031594654
 20
201.3212321555
  0
VERTEX
  8
0
 62
7
  6
CONTINUOUS
 10
249.9908794363
 20
201.3462075431
  0
VERTEX
  8
0
 62
7
  6
CONTINUOUS
 10
249.9772744419
 20
201.3713529721
  0
VERTEX
  8
0
 62
7
  6
CONTINUOUS
 10
249.9622966103
 20
201.3964233496
  0
VERTEX
  8
0
 62
7
  6
CONTINUOUS
 10
249.9459125413
 20
201.4211595167
  0
VERTEX
  8
0
 62
7
  6
CONTINUOUS
 10
249.9332276384
 20
201.4386186734
  0
SEQEND
  0
POLYLINE
  8
0
 62
7
  6
CONTINUOUS
 66
1
 70
0
  0
VERTEX
  8
0
 62
7
  6
CONTINUOUS
 10
256.8136500045
 20
196.3645207792
  0
VERTEX
  8
0
 62
7
  6
CONTINUOUS
 10
256.8195780839
 20
196.2409458049
  0
VERTEX
  8
0
 62
7
  6
CONTINUOUS
 10
256.8245880818
 20
196.115823282
  0
VERTEX
  8
0
 62
7
  6
CONTINUOUS
 10
256.8283745709
 20
195.9897666414
  0
VERTEX
  8
0
 62
7
  6
CONTINUOUS
 10
256.8307297482
 20
195.8630543303
  0
VERTEX
  8
0
 62
7
  6
CONTINUOUS
 10
256.8315269378
 20
195.7362486526
  0
SEQEND
  0
POLYLINE
  8
0
 62
7
  6
CONTINUOUS
 66
1
 70
0
  0
VERTEX
  8
0
 62
7
  6
CONTINUOUS
 10
262.7563749275
 20
195.1079772528
  0
VERTEX
  8
0
 62
7
  6
CONTINUOUS
 10
262.7504468785
 20
195.2315516524
  0
VERTEX
  8
0
 62
7
  6
CONTINUOUS
 10
262.7454367585
 20
195.35667767
  0
VERTEX
  8
0
 62
7
  6
CONTINUOUS
 10
262.741650261
 20
195.4827362592
  0
VERTEX
  8
0
 62
7
  6
CONTINUOUS
 10
262.7392951195
 20
195.6094510675
  0
VERTEX
  8
0
 62
7
  6
CONTINUOUS
 10
262.7384980313
 20
195.7362486526
  0
SEQEND
  0
POLYLINE
  8
0
 62
7
  6
CONTINUOUS
 66
1
 70
0
  0
VERTEX
  8
0
 62
7
  6
CONTINUOUS
 10
256.7850124845
 20
197.0352867583
  0
VERTEX
  8
0
 62
7
  6
CONTINUOUS
 10
256.7862470581
 20
196.935783485
  0
VERTEX
  8
0
 62
7
  6
CONTINUOUS
 10
256.7896278644
 20
196.8304122055
  0
VERTEX
  8
0
 62
7
  6
CONTINUOUS
 10
256.7946240254
 20
196.7198173566
  0
VERTEX
  8
0
 62
7
  6
CONTINUOUS
 10
256.8136500045
 20
196.3645207792
  0
SEQEND
  0
POLYLINE
  8
0
 62
7
  6
CONTINUOUS
 66
1
 70
0
  0
VERTEX
  8
0
 62
7
  6
CONTINUOUS
 10
262.7850124845
 20
194.437210547
  0
VERTEX
  8
0
 62
7
  6
CONTINUOUS
 10
262.7837777809
 20
194.5367193969
  0
VERTEX
  8
0
 62
7
  6
CONTINUOUS
 10
262.7803969614
 20
194.6420887188
  0
VERTEX
  8
0
 62
7
  6
CONTINUOUS
 10
262.7754006358
 20
194.7526861424
  0
VERTEX
  8
0
 62
7
  6
CONTINUOUS
 10
262.7563749275
 20
195.1079772528
  0
SEQEND
  0
LINE
  8
0
 62
7
  6
CONTINUOUS
 10
256.7850124845
 20
201.2362486526
 11
256.7850124845
 21
197.0352867583
  0
LINE
  8
0
 62
7
  6
CONTINUOUS
 10
256.7850124845
 20
194.437210547
 11
256.7850124845
 21
190.2362486526
  0
LINE
  8
0
 62
7
  6
CONTINUOUS
 10
262.7850124845
 20
190.2362486526
 11
262.7850124845
 21
194.437210547
  0
LINE
  8
0
 62
7
  6
CONTINUOUS
 10
262.7850124845
 20
197.0352867583
 11
262.7850124845
 21
201.2362486526
  0
POLYLINE
  8
0
 62
7
  6
CONTINUOUS
 66
1
 70
0
  0
VERTEX
  8
0
 62
7
  6
CONTINUOUS
 10
256.8315269378
 20
195.7362486526
  0
VERTEX
  8
0
 62
7
  6
CONTINUOUS
 10
256.8307298496
 20
195.6094510675
  0
VERTEX
  8
0
 62
7
  6
CONTINUOUS
 10
256.828374708
 20
195.4827362592
  0
VERTEX
  8
0
 62
7
  6
CONTINUOUS
 10
256.8245882106
 20
195.35667767
  0
VERTEX
  8
0
 62
7
  6
CONTINUOUS
 10
256.8195780906
 20
195.2315516524
  0
VERTEX
  8
0
 62
7
  6
CONTINUOUS
 10
256.8136500416
 20
195.1079772528
  0
SEQEND
  0
POLYLINE
  8
0
 62
7
  6
CONTINUOUS
 66
1
 70
0
  0
VERTEX
  8
0
 62
7
  6
CONTINUOUS
 10
262.7384980313
 20
195.7362486526
  0
VERTEX
  8
0
 62
7
  6
CONTINUOUS
 10
262.7392952209
 20
195.8630543303
  0
VERTEX
  8
0
 62
7
  6
CONTINUOUS
 10
262.7416503982
 20
195.9897666414
  0
VERTEX
  8
0
 62
7
  6
CONTINUOUS
 10
262.7454368873
 20
196.115823282
  0
VERTEX
  8
0
 62
7
  6
CONTINUOUS
 10
262.7504468852
 20
196.2409458049
  0
VERTEX
  8
0
 62
7
  6
CONTINUOUS
 10
262.7563749646
 20
196.3645207792
  0
SEQEND
  0
POLYLINE
  8
0
 62
7
  6
CONTINUOUS
 66
1
 70
0
  0
VERTEX
  8
0
 62
7
  6
CONTINUOUS
 10
256.7946243333
 20
194.7526861424
  0
VERTEX
  8
0
 62
7
  6
CONTINUOUS
 10
256.7896280077
 20
194.6420887188
  0
VERTEX
  8
0
 62
7
  6
CONTINUOUS
 10
256.7862471882
 20
194.5367193969
  0
VERTEX
  8
0
 62
7
  6
CONTINUOUS
 10
256.7850124845
 20
194.437210547
  0
SEQEND
  0
POLYLINE
  8
0
 62
7
  6
CONTINUOUS
 66
1
 70
0
  0
VERTEX
  8
0
 62
7
  6
CONTINUOUS
 10
262.7754009437
 20
196.7198173566
  0
VERTEX
  8
0
 62
7
  6
CONTINUOUS
 10
262.7803971047
 20
196.8304122055
  0
VERTEX
  8
0
 62
7
  6
CONTINUOUS
 10
262.783777911
 20
196.935783485
  0
VERTEX
  8
0
 62
7
  6
CONTINUOUS
 10
262.7850124845
 20
197.0352867583
  0
SEQEND
  0
LINE
  8
0
 62
7
  6
CONTINUOUS
 10
256.8136500416
 20
195.1079772528
 11
256.7946243333
 21
194.7526861424
  0
LINE
  8
0
 62
7
  6
CONTINUOUS
 10
262.7563749646
 20
196.3645207792
 11
262.7754009437
 21
196.7198173566
  0
POLYLINE
  8
0
 62
7
  6
CONTINUOUS
 66
1
 70
0
  0
VERTEX
  8
0
 62
7
  6
CONTINUOUS
 10
265.0285070297
 20
195.9586823618
  0
VERTEX
  8
0
 62
7
  6
CONTINUOUS
 10
265.0373959734
 20
195.9874299987
  0
VERTEX
  8
0
 62
7
  6
CONTINUOUS
 10
265.0491049485
 20
196.0142872071
  0
VERTEX
  8
0
 62
7
  6
CONTINUOUS
 10
265.0632708249
 20
196.0389100144
  0
VERTEX
  8
0
 62
7
  6
CONTINUOUS
 10
265.0795682895
 20
196.0612247684
  0
VERTEX
  8
0
 62
7
  6
CONTINUOUS
 10
265.0976308467
 20
196.0811774088
  0
VERTEX
  8
0
 62
7
  6
CONTINUOUS
 10
265.117092966
 20
196.0987858573
  0
VERTEX
  8
0
 62
7
  6
CONTINUOUS
 10
265.13785127
 20
196.1142940534
  0
VERTEX
  8
0
 62
7
  6
CONTINUOUS
 10
265.1599424797
 20
196.1279394363
  0
VERTEX
  8
0
 62
7
  6
CONTINUOUS
 10
265.1834885872
 20
196.139898896
  0
VERTEX
  8
0
 62
7
  6
CONTINUOUS
 10
265.2086564542
 20
196.1502756529
  0
VERTEX
  8
0
 62
7
  6
CONTINUOUS
 10
265.2354826683
 20
196.1590620716
  0
VERTEX
  8
0
 62
7
  6
CONTINUOUS
 10
265.2639590735
 20
196.1662292322
  0
VERTEX
  8
0
 62
7
  6
CONTINUOUS
 10
265.2941098794
 20
196.1717626336
  0
VERTEX
  8
0
 62
7
  6
CONTINUOUS
 10
265.3258765424
 20
196.1756490024
  0
VERTEX
  8
0
 62
7
  6
CONTINUOUS
 10
265.3590410214
 20
196.177905596
  0
VERTEX
  8
0
 62
7
  6
CONTINUOUS
 10
265.3934406399
 20
196.1786255013
  0
SEQEND
  0
POLYLINE
  8
0
 62
7
  6
CONTINUOUS
 66
1
 70
0
  0
VERTEX
  8
0
 62
7
  6
CONTINUOUS
 10
270.811333791
 20
190.0763099879
  0
VERTEX
  8
0
 62
7
  6
CONTINUOUS
 10
270.8162117913
 20
190.0624565267
  0
VERTEX
  8
0
 62
7
  6
CONTINUOUS
 10
270.8253502241
 20
190.0394985412
  0
SEQEND
  0
LINE
  8
0
 62
7
  6
CONTINUOUS
 10
270.8020279932
 20
190.1073367948
 11
270.8084509701
 21
190.085175862
  0
POLYLINE
  8
0
 62
7
  6
CONTINUOUS
 66
1
 70
0
  0
VERTEX
  8
0
 62
7
  6
CONTINUOUS
 10
270.8015511311
 20
190.1091374766
  0
VERTEX
  8
0
 62
7
  6
CONTINUOUS
 10
270.8073908777
 20
190.0885768469
  0
VERTEX
  8
0
 62
7
  6
CONTINUOUS
 10
270.811333791
 20
190.0763099879
  0
SEQEND
  0
LINE
  8
0
 62
7
  6
CONTINUOUS
 10
270.79655288
 20
190.130069234
 11
270.8020279932
 21
190.1073367948
  0
POLYLINE
  8
0
 62
7
  6
CONTINUOUS
 66
1
 70
0
  0
VERTEX
  8
0
 62
7
  6
CONTINUOUS
 10
268.4415205461
 20
195.9586711403
  0
VERTEX
  8
0
 62
7
  6
CONTINUOUS
 10
268.4553308931
 20
195.8928277504
  0
VERTEX
  8
0
 62
7
  6
CONTINUOUS
 10
268.4642999462
 20
195.825141624
  0
VERTEX
  8
0
 62
7
  6
CONTINUOUS
 10
268.4682914572
 20
195.7563170375
  0
VERTEX
  8
0
 62
7
  6
CONTINUOUS
 10
268.4672249334
 20
195.6871275271
  0
VERTEX
  8
0
 62
7
  6
CONTINUOUS
 10
268.4611246911
 20
195.6186846758
  0
VERTEX
  8
0
 62
7
  6
CONTINUOUS
 10
268.4501027068
 20
195.551714589
  0
VERTEX
  8
0
 62
7
  6
CONTINUOUS
 10
268.4343234165
 20
195.4868985228
  0
VERTEX
  8
0
 62
7
  6
CONTINUOUS
 10
268.4141043248
 20
195.4251305735
  0
VERTEX
  8
0
 62
7
  6
CONTINUOUS
 10
268.389736812
 20
195.3668459473
  0
VERTEX
  8
0
 62
7
  6
CONTINUOUS
 10
268.3615477824
 20
195.312429249
  0
VERTEX
  8
0
 62
7
  6
CONTINUOUS
 10
268.3300232073
 20
195.2623753945
  0
VERTEX
  8
0
 62
7
  6
CONTINUOUS
 10
268.2954301577
 20
195.2166816946
  0
VERTEX
  8
0
 62
7
  6
CONTINUOUS
 10
268.258135034
 20
195.1754725161
  0
VERTEX
  8
0
 62
7
  6
CONTINUOUS
 10
268.2186064854
 20
195.1388955914
  0
VERTEX
  8
0
 62
7
  6
CONTINUOUS
 10
268.1769431958
 20
195.1067317305
  0
VERTEX
  8
0
 62
7
  6
CONTINUOUS
 10
268.1334189037
 20
195.0789694963
  0
VERTEX
  8
0
 62
7
  6
CONTINUOUS
 10
268.0885202354
 20
195.0556920766
  0
VERTEX
  8
0
 62
7
  6
CONTINUOUS
 10
268.0427299855
 20
195.036890333
  0
VERTEX
  8
0
 62
7
  6
CONTINUOUS
 10
267.9961499043
 20
195.0223825632
  0
VERTEX
  8
0
 62
7
  6
CONTINUOUS
 10
267.9489925207
 20
195.0120807226
  0
VERTEX
  8
0
 62
7
  6
CONTINUOUS
 10
267.9013910716
 20
195.0059141262
  0
VERTEX
  8
0
 62
7
  6
CONTINUOUS
 10
267.8535489074
 20
195.0038600304
  0
SEQEND
  0
POLYLINE
  8
0
 62
7
  6
CONTINUOUS
 66
1
 70
0
  0
VERTEX
  8
0
 62
7
  6
CONTINUOUS
 10
270.7858889245
 20
190.2078560054
  0
VERTEX
  8
0
 62
7
  6
CONTINUOUS
 10
270.7868786597
 20
190.1942248144
  0
VERTEX
  8
0
 62
7
  6
CONTINUOUS
 10
270.7891902203
 20
190.1727462321
  0
VERTEX
  8
0
 62
7
  6
CONTINUOUS
 10
270.7924227684
 20
190.1513079354
  0
VERTEX
  8
0
 62
7
  6
CONTINUOUS
 10
270.7968451489
 20
190.1287399151
  0
SEQEND
  0
POLYLINE
  8
0
 62
7
  6
CONTINUOUS
 66
1
 70
0
  0
VERTEX
  8
0
 62
7
  6
CONTINUOUS
 10
270.785891398
 20
190.2078157586
  0
VERTEX
  8
0
 62
7
  6
CONTINUOUS
 10
270.7860945015
 20
190.2045603747
  0
VERTEX
  8
0
 62
7
  6
CONTINUOUS
 10
270.7875516482
 20
190.187022904
  0
VERTEX
  8
0
 62
7
  6
CONTINUOUS
 10
270.7897298999
 20
190.1687036321
  0
VERTEX
  8
0
 62
7
  6
CONTINUOUS
 10
270.7927822244
 20
190.1492608723
  0
SEQEND
  0
POLYLINE
  8
0
 62
7
  6
CONTINUOUS
 66
1
 70
0
  0
VERTEX
  8
0
 62
7
  6
CONTINUOUS
 10
270.8136500045
 20
196.3645207792
  0
VERTEX
  8
0
 62
7
  6
CONTINUOUS
 10
270.8195780839
 20
196.2409458049
  0
VERTEX
  8
0
 62
7
  6
CONTINUOUS
 10
270.8245880818
 20
196.115823282
  0
VERTEX
  8
0
 62
7
  6
CONTINUOUS
 10
270.8283745709
 20
195.9897666414
  0
VERTEX
  8
0
 62
7
  6
CONTINUOUS
 10
270.8307297482
 20
195.8630543303
  0
VERTEX
  8
0
 62
7
  6
CONTINUOUS
 10
270.8315269378
 20
195.7362486526
  0
SEQEND
  0
POLYLINE
  8
0
 62
7
  6
CONTINUOUS
 66
1
 70
0
  0
VERTEX
  8
0
 62
7
  6
CONTINUOUS
 10
276.7563749275
 20
195.1079772528
  0
VERTEX
  8
0
 62
7
  6
CONTINUOUS
 10
276.7504468785
 20
195.2315516524
  0
VERTEX
  8
0
 62
7
  6
CONTINUOUS
 10
276.7454367585
 20
195.35667767
  0
VERTEX
  8
0
 62
7
  6
CONTINUOUS
 10
276.741650261
 20
195.4827362592
  0
VERTEX
  8
0
 62
7
  6
CONTINUOUS
 10
276.7392951195
 20
195.6094510675
  0
VERTEX
  8
0
 62
7
  6
CONTINUOUS
 10
276.7384980313
 20
195.7362486526
  0
SEQEND
  0
POLYLINE
  8
0
 62
7
  6
CONTINUOUS
 66
1
 70
0
  0
VERTEX
  8
0
 62
7
  6
CONTINUOUS
 10
270.7850124845
 20
190.2375052467
  0
VERTEX
  8
0
 62
7
  6
CONTINUOUS
 10
270.7852716109
 20
190.2213927512
  0
VERTEX
  8
0
 62
7
  6
CONTINUOUS
 10
270.785891398
 20
190.2078157586
  0
SEQEND
  0
POLYLINE
  8
0
 62
7
  6
CONTINUOUS
 66
1
 70
0
  0
VERTEX
  8
0
 62
7
  6
CONTINUOUS
 10
270.7850124845
 20
197.0352867583
  0
VERTEX
  8
0
 62
7
  6
CONTINUOUS
 10
270.7862470581
 20
196.935783485
  0
VERTEX
  8
0
 62
7
  6
CONTINUOUS
 10
270.7896278644
 20
196.8304122055
  0
VERTEX
  8
0
 62
7
  6
CONTINUOUS
 10
270.7946240254
 20
196.7198173566
  0
VERTEX
  8
0
 62
7
  6
CONTINUOUS
 10
270.8136500045
 20
196.3645207792
  0
SEQEND
  0
POLYLINE
  8
0
 62
7
  6
CONTINUOUS
 66
1
 70
0
  0
VERTEX
  8
0
 62
7
  6
CONTINUOUS
 10
276.7850124845
 20
194.437210547
  0
VERTEX
  8
0
 62
7
  6
CONTINUOUS
 10
276.7837777809
 20
194.5367193969
  0
VERTEX
  8
0
 62
7
  6
CONTINUOUS
 10
276.7803969614
 20
194.6420887188
  0
VERTEX
  8
0
 62
7
  6
CONTINUOUS
 10
276.7754006358
 20
194.7526861424
  0
VERTEX
  8
0
 62
7
  6
CONTINUOUS
 10
276.7563749275
 20
195.1079772528
  0
SEQEND
  0
LINE
  8
0
 62
7
  6
CONTINUOUS
 10
270.7850124845
 20
201.2362486526
 11
270.7850124845
 21
197.0352867583
  0
LINE
  8
0
 62
7
  6
CONTINUOUS
 10
270.7850124845
 20
194.437210547
 11
270.7850124845
 21
190.2375052476
  0
LINE
  8
0
 62
7
  6
CONTINUOUS
 10
276.7850124845
 20
190.2362486526
 11
276.7850124845
 21
194.437210547
  0
LINE
  8
0
 62
7
  6
CONTINUOUS
 10
276.7850124845
 20
197.0352867583
 11
276.7850124845
 21
201.2362486526
  0
POLYLINE
  8
0
 62
7
  6
CONTINUOUS
 66
1
 70
0
  0
VERTEX
  8
0
 62
7
  6
CONTINUOUS
 10
270.8315269378
 20
195.7362486526
  0
VERTEX
  8
0
 62
7
  6
CONTINUOUS
 10
270.8307298496
 20
195.6094510675
  0
VERTEX
  8
0
 62
7
  6
CONTINUOUS
 10
270.828374708
 20
195.4827362592
  0
VERTEX
  8
0
 62
7
  6
CONTINUOUS
 10
270.8245882106
 20
195.35667767
  0
VERTEX
  8
0
 62
7
  6
CONTINUOUS
 10
270.8195780906
 20
195.2315516524
  0
VERTEX
  8
0
 62
7
  6
CONTINUOUS
 10
270.8136500416
 20
195.1079772528
  0
SEQEND
  0
POLYLINE
  8
0
 62
7
  6
CONTINUOUS
 66
1
 70
0
  0
VERTEX
  8
0
 62
7
  6
CONTINUOUS
 10
276.7384980313
 20
195.7362486526
  0
VERTEX
  8
0
 62
7
  6
CONTINUOUS
 10
276.7392952209
 20
195.8630543303
  0
VERTEX
  8
0
 62
7
  6
CONTINUOUS
 10
276.7416503982
 20
195.9897666414
  0
VERTEX
  8
0
 62
7
  6
CONTINUOUS
 10
276.7454368873
 20
196.115823282
  0
VERTEX
  8
0
 62
7
  6
CONTINUOUS
 10
276.7504468852
 20
196.2409458049
  0
VERTEX
  8
0
 62
7
  6
CONTINUOUS
 10
276.7563749646
 20
196.3645207792
  0
SEQEND
  0
POLYLINE
  8
0
 62
7
  6
CONTINUOUS
 66
1
 70
0
  0
VERTEX
  8
0
 62
7
  6
CONTINUOUS
 10
270.7946243333
 20
194.7526861424
  0
VERTEX
  8
0
 62
7
  6
CONTINUOUS
 10
270.7896280077
 20
194.6420887188
  0
VERTEX
  8
0
 62
7
  6
CONTINUOUS
 10
270.7862471882
 20
194.5367193969
  0
VERTEX
  8
0
 62
7
  6
CONTINUOUS
 10
270.7850124845
 20
194.437210547
  0
SEQEND
  0
POLYLINE
  8
0
 62
7
  6
CONTINUOUS
 66
1
 70
0
  0
VERTEX
  8
0
 62
7
  6
CONTINUOUS
 10
276.7754009437
 20
196.7198173566
  0
VERTEX
  8
0
 62
7
  6
CONTINUOUS
 10
276.7803971047
 20
196.8304122055
  0
VERTEX
  8
0
 62
7
  6
CONTINUOUS
 10
276.783777911
 20
196.935783485
  0
VERTEX
  8
0
 62
7
  6
CONTINUOUS
 10
276.7850124845
 20
197.0352867583
  0
SEQEND
  0
LINE
  8
0
 62
7
  6
CONTINUOUS
 10
270.8136500416
 20
195.1079772528
 11
270.7946243333
 21
194.7526861424
  0
LINE
  8
0
 62
7
  6
CONTINUOUS
 10
276.7563749646
 20
196.3645207792
 11
276.7754009437
 21
196.7198173566
  0
POLYLINE
  8
0
 62
7
  6
CONTINUOUS
 66
1
 70
0
  0
VERTEX
  8
0
 62
7
  6
CONTINUOUS
 10
278.9821070021
 20
195.9349351968
  0
VERTEX
  8
0
 62
7
  6
CONTINUOUS
 10
278.9896750757
 20
195.9645075437
  0
VERTEX
  8
0
 62
7
  6
CONTINUOUS
 10
278.9998222146
 20
195.992190625
  0
VERTEX
  8
0
 62
7
  6
CONTINUOUS
 10
279.0124890176
 20
196.0181877956
  0
VERTEX
  8
0
 62
7
  6
CONTINUOUS
 10
279.0276271345
 20
196.0425136332
  0
VERTEX
  8
0
 62
7
  6
CONTINUOUS
 10
279.0452409961
 20
196.0651745069
  0
VERTEX
  8
0
 62
7
  6
CONTINUOUS
 10
279.0650572929
 20
196.0858457065
  0
VERTEX
  8
0
 62
7
  6
CONTINUOUS
 10
279.0867983919
 20
196.1043605062
  0
VERTEX
  8
0
 62
7
  6
CONTINUOUS
 10
279.1102735542
 20
196.1207033828
  0
VERTEX
  8
0
 62
7
  6
CONTINUOUS
 10
279.1351868518
 20
196.1348281175
  0
VERTEX
  8
0
 62
7
  6
CONTINUOUS
 10
279.1614777021
 20
196.1468486411
  0
VERTEX
  8
0
 62
7
  6
CONTINUOUS
 10
279.1891154436
 20
196.1568546511
  0
VERTEX
  8
0
 62
7
  6
CONTINUOUS
 10
279.2180130438
 20
196.1648956243
  0
VERTEX
  8
0
 62
7
  6
CONTINUOUS
 10
279.2481530945
 20
196.171035612
  0
VERTEX
  8
0
 62
7
  6
CONTINUOUS
 10
279.2794799736
 20
196.1753260461
  0
VERTEX
  8
0
 62
7
  6
CONTINUOUS
 10
279.3118139669
 20
196.1778228174
  0
VERTEX
  8
0
 62
7
  6
CONTINUOUS
 10
279.3449782731
 20
196.1786255013
  0
SEQEND
  0
POLYLINE
  8
0
 62
7
  6
CONTINUOUS
 66
1
 70
0
  0
VERTEX
  8
0
 62
7
  6
CONTINUOUS
 10
284.8136500045
 20
196.3645207792
  0
VERTEX
  8
0
 62
7
  6
CONTINUOUS
 10
284.8195780839
 20
196.2409458049
  0
VERTEX
  8
0
 62
7
  6
CONTINUOUS
 10
284.8245880818
 20
196.115823282
  0
VERTEX
  8
0
 62
7
  6
CONTINUOUS
 10
284.8283745709
 20
195.9897666414
  0
VERTEX
  8
0
 62
7
  6
CONTINUOUS
 10
284.8307297482
 20
195.8630543303
  0
VERTEX
  8
0
 62
7
  6
CONTINUOUS
 10
284.8315269378
 20
195.7362486526
  0
SEQEND
  0
POLYLINE
  8
0
 62
7
  6
CONTINUOUS
 66
1
 70
0
  0
VERTEX
  8
0
 62
7
  6
CONTINUOUS
 10
284.7850124845
 20
197.0352867583
  0
VERTEX
  8
0
 62
7
  6
CONTINUOUS
 10
284.7862470581
 20
196.935783485
  0
VERTEX
  8
0
 62
7
  6
CONTINUOUS
 10
284.7896278644
 20
196.8304122055
  0
VERTEX
  8
0
 62
7
  6
CONTINUOUS
 10
284.7946240254
 20
196.7198173566
  0
VERTEX
  8
0
 62
7
  6
CONTINUOUS
 10
284.8136500045
 20
196.3645207792
  0
SEQEND
  0
LINE
  8
0
 62
7
  6
CONTINUOUS
 10
284.7850124845
 20
201.2362486526
 11
284.7850124845
 21
197.0352867583
  0
LINE
  8
0
 62
7
  6
CONTINUOUS
 10
284.7850124845
 20
194.437210547
 11
284.7850124845
 21
190.2362486526
  0
POLYLINE
  8
0
 62
7
  6
CONTINUOUS
 66
1
 70
0
  0
VERTEX
  8
0
 62
7
  6
CONTINUOUS
 10
284.8315269378
 20
195.7362486526
  0
VERTEX
  8
0
 62
7
  6
CONTINUOUS
 10
284.8307298496
 20
195.6094510675
  0
VERTEX
  8
0
 62
7
  6
CONTINUOUS
 10
284.828374708
 20
195.4827362592
  0
VERTEX
  8
0
 62
7
  6
CONTINUOUS
 10
284.8245882106
 20
195.35667767
  0
VERTEX
  8
0
 62
7
  6
CONTINUOUS
 10
284.8195780906
 20
195.2315516524
  0
VERTEX
  8
0
 62
7
  6
CONTINUOUS
 10
284.8136500416
 20
195.1079772528
  0
SEQEND
  0
POLYLINE
  8
0
 62
7
  6
CONTINUOUS
 66
1
 70
0
  0
VERTEX
  8
0
 62
7
  6
CONTINUOUS
 10
284.7946243333
 20
194.7526861424
  0
VERTEX
  8
0
 62
7
  6
CONTINUOUS
 10
284.7896280077
 20
194.6420887188
  0
VERTEX
  8
0
 62
7
  6
CONTINUOUS
 10
284.7862471882
 20
194.5367193969
  0
VERTEX
  8
0
 62
7
  6
CONTINUOUS
 10
284.7850124845
 20
194.437210547
  0
SEQEND
  0
LINE
  8
0
 62
7
  6
CONTINUOUS
 10
284.8136500416
 20
195.1079772528
 11
284.7946243333
 21
194.7526861424
  0
POLYLINE
  8
0
 62
7
  6
CONTINUOUS
 66
1
 70
0
  0
VERTEX
  8
0
 62
7
  6
CONTINUOUS
 10
282.4879177005
 20
195.9349374695
  0
VERTEX
  8
0
 62
7
  6
CONTINUOUS
 10
282.4994631951
 20
195.865348366
  0
VERTEX
  8
0
 62
7
  6
CONTINUOUS
 10
282.5060643392
 20
195.7943083625
  0
VERTEX
  8
0
 62
7
  6
CONTINUOUS
 10
282.5076297782
 20
195.7224480931
  0
VERTEX
  8
0
 62
7
  6
CONTINUOUS
 10
282.5041201569
 20
195.65077222
  0
VERTEX
  8
0
 62
7
  6
CONTINUOUS
 10
282.4956114397
 20
195.5802390346
  0
VERTEX
  8
0
 62
7
  6
CONTINUOUS
 10
282.4822131143
 20
195.5114368186
  0
VERTEX
  8
0
 62
7
  6
CONTINUOUS
 10
282.4641716734
 20
195.4453044801
  0
VERTEX
  8
0
 62
7
  6
CONTINUOUS
 10
282.4417977451
 20
195.3825169989
  0
VERTEX
  8
0
 62
7
  6
CONTINUOUS
 10
282.4153190168
 20
195.3233252412
  0
VERTEX
  8
0
 62
7
  6
CONTINUOUS
 10
282.3851515767
 20
195.2682847868
  0
VERTEX
  8
0
 62
7
  6
CONTINUOUS
 10
282.3517390906
 20
195.2177481199
  0
VERTEX
  8
0
 62
7
  6
CONTINUOUS
 10
282.3152462594
 20
195.1715764839
  0
VERTEX
  8
0
 62
7
  6
CONTINUOUS
 10
282.2760660489
 20
195.1299482796
  0
VERTEX
  8
0
 62
7
  6
CONTINUOUS
 10
282.2346719686
 20
195.0930120975
  0
VERTEX
  8
0
 62
7
  6
CONTINUOUS
 10
282.1913389812
 20
195.0606694471
  0
VERTEX
  8
0
 62
7
  6
CONTINUOUS
 10
282.1461227106
 20
195.0327126855
  0
VERTEX
  8
0
 62
7
  6
CONTINUOUS
 10
282.0994403852
 20
195.0091998841
  0
VERTEX
  8
0
 62
7
  6
CONTINUOUS
 10
282.0517548196
 20
194.9901408703
  0
VERTEX
  8
0
 62
7
  6
CONTINUOUS
 10
282.0031532967
 20
194.9753810308
  0
VERTEX
  8
0
 62
7
  6
CONTINUOUS
 10
281.9536575846
 20
194.9648286936
  0
VERTEX
  8
0
 62
7
  6
CONTINUOUS
 10
281.9036365444
 20
194.9585090359
  0
VERTEX
  8
0
 62
7
  6
CONTINUOUS
 10
281.8535489074
 20
194.9564142803
  0
SEQEND
  0
POLYLINE
  8
0
 62
7
  6
CONTINUOUS
 66
1
 70
0
  0
VERTEX
  8
0
 62
7
  6
CONTINUOUS
 10
290.7563749275
 20
195.1079772528
  0
VERTEX
  8
0
 62
7
  6
CONTINUOUS
 10
290.7504468785
 20
195.2315516524
  0
VERTEX
  8
0
 62
7
  6
CONTINUOUS
 10
290.7454367585
 20
195.35667767
  0
VERTEX
  8
0
 62
7
  6
CONTINUOUS
 10
290.741650261
 20
195.4827362592
  0
VERTEX
  8
0
 62
7
  6
CONTINUOUS
 10
290.7392951195
 20
195.6094510675
  0
VERTEX
  8
0
 62
7
  6
CONTINUOUS
 10
290.7384980313
 20
195.7362486526
  0
SEQEND
  0
POLYLINE
  8
0
 62
7
  6
CONTINUOUS
 66
1
 70
0
  0
VERTEX
  8
0
 62
7
  6
CONTINUOUS
 10
299.0136500045
 20
196.3645207792
  0
VERTEX
  8
0
 62
7
  6
CONTINUOUS
 10
299.0195780839
 20
196.2409458049
  0
VERTEX
  8
0
 62
7
  6
CONTINUOUS
 10
299.0245880818
 20
196.115823282
  0
VERTEX
  8
0
 62
7
  6
CONTINUOUS
 10
299.0283745709
 20
195.9897666414
  0
VERTEX
  8
0
 62
7
  6
CONTINUOUS
 10
299.0307297482
 20
195.8630543303
  0
VERTEX
  8
0
 62
7
  6
CONTINUOUS
 10
299.0315269378
 20
195.7362486526
  0
SEQEND
  0
POLYLINE
  8
0
 62
7
  6
CONTINUOUS
 66
1
 70
0
  0
VERTEX
  8
0
 62
7
  6
CONTINUOUS
 10
290.7850124845
 20
194.437210547
  0
VERTEX
  8
0
 62
7
  6
CONTINUOUS
 10
290.7837777809
 20
194.5367193969
  0
VERTEX
  8
0
 62
7
  6
CONTINUOUS
 10
290.7803969614
 20
194.6420887188
  0
VERTEX
  8
0
 62
7
  6
CONTINUOUS
 10
290.7754006358
 20
194.7526861424
  0
VERTEX
  8
0
 62
7
  6
CONTINUOUS
 10
290.7563749275
 20
195.1079772528
  0
SEQEND
  0
POLYLINE
  8
0
 62
7
  6
CONTINUOUS
 66
1
 70
0
  0
VERTEX
  8
0
 62
7
  6
CONTINUOUS
 10
298.9850124845
 20
197.0352867583
  0
VERTEX
  8
0
 62
7
  6
CONTINUOUS
 10
298.9862470581
 20
196.935783485
  0
VERTEX
  8
0
 62
7
  6
CONTINUOUS
 10
298.9896278644
 20
196.8304122055
  0
VERTEX
  8
0
 62
7
  6
CONTINUOUS
 10
298.9946240254
 20
196.7198173566
  0
VERTEX
  8
0
 62
7
  6
CONTINUOUS
 10
299.0136500045
 20
196.3645207792
  0
SEQEND
  0
LINE
  8
0
 62
7
  6
CONTINUOUS
 10
290.7850124845
 20
190.2362486526
 11
290.7850124845
 21
194.437210547
  0
LINE
  8
0
 62
7
  6
CONTINUOUS
 10
290.7850124845
 20
197.0352867583
 11
290.7850124845
 21
201.2362486526
  0
LINE
  8
0
 62
7
  6
CONTINUOUS
 10
298.9850124845
 20
201.2362486526
 11
298.9850124845
 21
197.0352867583
  0
LINE
  8
0
 62
7
  6
CONTINUOUS
 10
298.9850124845
 20
194.437210547
 11
298.9850124845
 21
190.2362486526
  0
POLYLINE
  8
0
 62
7
  6
CONTINUOUS
 66
1
 70
0
  0
VERTEX
  8
0
 62
7
  6
CONTINUOUS
 10
290.7384980313
 20
195.7362486526
  0
VERTEX
  8
0
 62
7
  6
CONTINUOUS
 10
290.7392952209
 20
195.8630543303
  0
VERTEX
  8
0
 62
7
  6
CONTINUOUS
 10
290.7416503982
 20
195.9897666414
  0
VERTEX
  8
0
 62
7
  6
CONTINUOUS
 10
290.7454368873
 20
196.115823282
  0
VERTEX
  8
0
 62
7
  6
CONTINUOUS
 10
290.7504468852
 20
196.2409458049
  0
VERTEX
  8
0
 62
7
  6
CONTINUOUS
 10
290.7563749646
 20
196.3645207792
  0
SEQEND
  0
POLYLINE
  8
0
 62
7
  6
CONTINUOUS
 66
1
 70
0
  0
VERTEX
  8
0
 62
7
  6
CONTINUOUS
 10
299.0315269378
 20
195.7362486526
  0
VERTEX
  8
0
 62
7
  6
CONTINUOUS
 10
299.0307298496
 20
195.6094510675
  0
VERTEX
  8
0
 62
7
  6
CONTINUOUS
 10
299.028374708
 20
195.4827362592
  0
VERTEX
  8
0
 62
7
  6
CONTINUOUS
 10
299.0245882106
 20
195.35667767
  0
VERTEX
  8
0
 62
7
  6
CONTINUOUS
 10
299.0195780906
 20
195.2315516524
  0
VERTEX
  8
0
 62
7
  6
CONTINUOUS
 10
299.0136500416
 20
195.1079772528
  0
SEQEND
  0
POLYLINE
  8
0
 62
7
  6
CONTINUOUS
 66
1
 70
0
  0
VERTEX
  8
0
 62
7
  6
CONTINUOUS
 10
290.7754009437
 20
196.7198173566
  0
VERTEX
  8
0
 62
7
  6
CONTINUOUS
 10
290.7803971047
 20
196.8304122055
  0
VERTEX
  8
0
 62
7
  6
CONTINUOUS
 10
290.783777911
 20
196.935783485
  0
VERTEX
  8
0
 62
7
  6
CONTINUOUS
 10
290.7850124845
 20
197.0352867583
  0
SEQEND
  0
POLYLINE
  8
0
 62
7
  6
CONTINUOUS
 66
1
 70
0
  0
VERTEX
  8
0
 62
7
  6
CONTINUOUS
 10
298.9946243333
 20
194.7526861424
  0
VERTEX
  8
0
 62
7
  6
CONTINUOUS
 10
298.9896280077
 20
194.6420887188
  0
VERTEX
  8
0
 62
7
  6
CONTINUOUS
 10
298.9862471882
 20
194.5367193969
  0
VERTEX
  8
0
 62
7
  6
CONTINUOUS
 10
298.9850124845
 20
194.437210547
  0
SEQEND
  0
LINE
  8
0
 62
7
  6
CONTINUOUS
 10
290.7563749646
 20
196.3645207792
 11
290.7754009437
 21
196.7198173566
  0
LINE
  8
0
 62
7
  6
CONTINUOUS
 10
299.0136500416
 20
195.1079772528
 11
298.9946243333
 21
194.7526861424
  0
POLYLINE
  8
0
 62
7
  6
CONTINUOUS
 66
1
 70
0
  0
VERTEX
  8
0
 62
7
  6
CONTINUOUS
 10
292.9394119744
 20
195.9104760949
  0
VERTEX
  8
0
 62
7
  6
CONTINUOUS
 10
292.9464821624
 20
195.9433053417
  0
VERTEX
  8
0
 62
7
  6
CONTINUOUS
 10
292.9563998772
 20
195.974052017
  0
VERTEX
  8
0
 62
7
  6
CONTINUOUS
 10
292.9690372717
 20
196.002838725
  0
VERTEX
  8
0
 62
7
  6
CONTINUOUS
 10
292.9842158115
 20
196.0295496396
  0
VERTEX
  8
0
 62
7
  6
CONTINUOUS
 10
293.001820507
 20
196.0541843232
  0
VERTEX
  8
0
 62
7
  6
CONTINUOUS
 10
293.0216558705
 20
196.0766235316
  0
VERTEX
  8
0
 62
7
  6
CONTINUOUS
 10
293.0433458769
 20
196.0966477968
  0
VERTEX
  8
0
 62
7
  6
CONTINUOUS
 10
293.0667191037
 20
196.1143210936
  0
VERTEX
  8
0
 62
7
  6
CONTINUOUS
 10
293.0915779712
 20
196.1296806837
  0
VERTEX
  8
0
 62
7
  6
CONTINUOUS
 10
293.1178739436
 20
196.142841906
  0
VERTEX
  8
0
 62
7
  6
CONTINUOUS
 10
293.1456212935
 20
196.1538998424
  0
VERTEX
  8
0
 62
7
  6
CONTINUOUS
 10
293.1747545109
 20
196.1628827508
  0
VERTEX
  8
0
 62
7
  6
CONTINUOUS
 10
293.2051639486
 20
196.1698065113
  0
VERTEX
  8
0
 62
7
  6
CONTINUOUS
 10
293.2369066327
 20
196.1747219912
  0
VERTEX
  8
0
 62
7
  6
CONTINUOUS
 10
293.2700413835
 20
196.1776561963
  0
VERTEX
  8
0
 62
7
  6
CONTINUOUS
 10
293.3044913512
 20
196.1786255013
  0
SEQEND
  0
POLYLINE
  8
0
 62
7
  6
CONTINUOUS
 66
1
 70
0
  0
VERTEX
  8
0
 62
7
  6
CONTINUOUS
 10
296.7306141133
 20
195.9104672963
  0
VERTEX
  8
0
 62
7
  6
CONTINUOUS
 10
296.7400237402
 20
195.8373996999
  0
VERTEX
  8
0
 62
7
  6
CONTINUOUS
 10
296.7444054421
 20
195.7632072078
  0
VERTEX
  8
0
 62
7
  6
CONTINUOUS
 10
296.7436965539
 20
195.6886001782
  0
VERTEX
  8
0
 62
7
  6
CONTINUOUS
 10
296.7379097337
 20
195.6146499963
  0
VERTEX
  8
0
 62
7
  6
CONTINUOUS
 10
296.7271264781
 20
195.5420626711
  0
VERTEX
  8
0
 62
7
  6
CONTINUOUS
 10
296.7115108055
 20
195.4716829322
  0
VERTEX
  8
0
 62
7
  6
CONTINUOUS
 10
296.6913675046
 20
195.4044405778
  0
VERTEX
  8
0
 62
7
  6
CONTINUOUS
 10
296.666900619
 20
195.3406045526
  0
VERTEX
  8
0
 62
7
  6
CONTINUOUS
 10
296.6384209076
 20
195.2806583299
  0
VERTEX
  8
0
 62
7
  6
CONTINUOUS
 10
296.6063398643
 20
195.2250738097
  0
VERTEX
  8
0
 62
7
  6
CONTINUOUS
 10
296.5710448946
 20
195.1740817973
  0
VERTEX
  8
0
 62
7
  6
CONTINUOUS
 10
296.5327964736
 20
195.1276614712
  0
VERTEX
  8
0
 62
7
  6
CONTINUOUS
 10
296.4920170947
 20
195.0859545027
  0
VERTEX
  8
0
 62
7
  6
CONTINUOUS
 10
296.4489540816
 20
195.0488653427
  0
VERTEX
  8
0
 62
7
  6
CONTINUOUS
 10
296.4039394258
 20
195.0163744746
  0
VERTEX
  8
0
 62
7
  6
CONTINUOUS
 10
296.3570186303
 20
194.9882797083
  0
VERTEX
  8
0
 62
7
  6
CONTINUOUS
 10
296.3085532204
 20
194.9646163201
  0
VERTEX
  8
0
 62
7
  6
CONTINUOUS
 10
296.2590061984
 20
194.9454113315
  0
VERTEX
  8
0
 62
7
  6
CONTINUOUS
 10
296.2085953101
 20
194.9305616943
  0
VERTEX
  8
0
 62
7
  6
CONTINUOUS
 10
296.1572944627
 20
194.9199503624
  0
VERTEX
  8
0
 62
7
  6
CONTINUOUS
 10
296.1054554196
 20
194.9135948509
  0
VERTEX
  8
0
 62
7
  6
CONTINUOUS
 10
296.0535489074
 20
194.9114880589
  0
SEQEND
  0
POLYLINE
  8
0
 62
7
  6
CONTINUOUS
 66
1
 70
0
  0
VERTEX
  8
0
 62
7
  6
CONTINUOUS
 10
311.0368523123
 20
195.885729985
  0
VERTEX
  8
0
 62
7
  6
CONTINUOUS
 10
311.0442356455
 20
195.8097985913
  0
VERTEX
  8
0
 62
7
  6
CONTINUOUS
 10
311.0465669868
 20
195.7333543371
  0
VERTEX
  8
0
 62
7
  6
CONTINUOUS
 10
311.0438553393
 20
195.6569503608
  0
VERTEX
  8
0
 62
7
  6
CONTINUOUS
 10
311.0360964764
 20
195.5811236398
  0
VERTEX
  8
0
 62
7
  6
CONTINUOUS
 10
311.0233588519
 20
195.5068281955
  0
VERTEX
  8
0
 62
7
  6
CONTINUOUS
 10
311.0058191713
 20
195.4349898302
  0
VERTEX
  8
0
 62
7
  6
CONTINUOUS
 10
310.9837383876
 20
195.366380376
  0
VERTEX
  8
0
 62
7
  6
CONTINUOUS
 10
310.9574330167
 20
195.3015947826
  0
VERTEX
  8
0
 62
7
  6
CONTINUOUS
 10
310.9272645902
 20
195.2410847119
  0
VERTEX
  8
0
 62
7
  6
CONTINUOUS
 10
310.8935275424
 20
195.1850171005
  0
VERTEX
  8
0
 62
7
  6
CONTINUOUS
 10
310.8564711866
 20
195.133450478
  0
VERTEX
  8
0
 62
7
  6
CONTINUOUS
 10
310.8165548362
 20
195.0866594251
  0
VERTEX
  8
0
 62
7
  6
CONTINUOUS
 10
310.7740876753
 20
195.0446241678
  0
VERTEX
  8
0
 62
7
  6
CONTINUOUS
 10
310.7292371328
 20
195.007195789
  0
VERTEX
  8
0
 62
7
  6
CONTINUOUS
 10
310.6824477332
 20
194.9744561651
  0
VERTEX
  8
0
 62
7
  6
CONTINUOUS
 10
310.6340289793
 20
194.946329633
  0
VERTEX
  8
0
 62
7
  6
CONTINUOUS
 10
310.5839904842
 20
194.922604205
  0
VERTEX
  8
0
 62
7
  6
CONTINUOUS
 10
310.5327407275
 20
194.9033054449
  0
VERTEX
  8
0
 62
7
  6
CONTINUOUS
 10
310.4806930987
 20
194.8884093542
  0
VERTEX
  8
0
 62
7
  6
CONTINUOUS
 10
310.4278073758
 20
194.877777034
  0
VERTEX
  8
0
 62
7
  6
CONTINUOUS
 10
310.3743369142
 20
194.8714011363
  0
VERTEX
  8
0
 62
7
  6
CONTINUOUS
 10
310.3207243103
 20
194.869283589
  0
SEQEND
  0
POLYLINE
  8
0
 62
7
  6
CONTINUOUS
 66
1
 70
0
  0
VERTEX
  8
0
 62
7
  6
CONTINUOUS
 10
304.9563749275
 20
195.1079772528
  0
VERTEX
  8
0
 62
7
  6
CONTINUOUS
 10
304.9504468785
 20
195.2315516524
  0
VERTEX
  8
0
 62
7
  6
CONTINUOUS
 10
304.9454367585
 20
195.35667767
  0
VERTEX
  8
0
 62
7
  6
CONTINUOUS
 10
304.941650261
 20
195.4827362592
  0
VERTEX
  8
0
 62
7
  6
CONTINUOUS
 10
304.9392951195
 20
195.6094510675
  0
VERTEX
  8
0
 62
7
  6
CONTINUOUS
 10
304.9384980313
 20
195.7362486526
  0
SEQEND
  0
POLYLINE
  8
0
 62
7
  6
CONTINUOUS
 66
1
 70
0
  0
VERTEX
  8
0
 62
7
  6
CONTINUOUS
 10
304.9850124845
 20
194.437210547
  0
VERTEX
  8
0
 62
7
  6
CONTINUOUS
 10
304.9837777809
 20
194.5367193969
  0
VERTEX
  8
0
 62
7
  6
CONTINUOUS
 10
304.9803969614
 20
194.6420887188
  0
VERTEX
  8
0
 62
7
  6
CONTINUOUS
 10
304.9754006358
 20
194.7526861424
  0
VERTEX
  8
0
 62
7
  6
CONTINUOUS
 10
304.9563749275
 20
195.1079772528
  0
SEQEND
  0
LINE
  8
0
 62
7
  6
CONTINUOUS
 10
304.9850124845
 20
190.2362486526
 11
304.9850124845
 21
194.437210547
  0
LINE
  8
0
 62
7
  6
CONTINUOUS
 10
304.9850124845
 20
197.0352867583
 11
304.9850124845
 21
201.2362486526
  0
POLYLINE
  8
0
 62
7
  6
CONTINUOUS
 66
1
 70
0
  0
VERTEX
  8
0
 62
7
  6
CONTINUOUS
 10
304.9384980313
 20
195.7362486526
  0
VERTEX
  8
0
 62
7
  6
CONTINUOUS
 10
304.9392952209
 20
195.8630543303
  0
VERTEX
  8
0
 62
7
  6
CONTINUOUS
 10
304.9416503982
 20
195.9897666414
  0
VERTEX
  8
0
 62
7
  6
CONTINUOUS
 10
304.9454368873
 20
196.115823282
  0
VERTEX
  8
0
 62
7
  6
CONTINUOUS
 10
304.9504468852
 20
196.2409458049
  0
VERTEX
  8
0
 62
7
  6
CONTINUOUS
 10
304.9563749646
 20
196.3645207792
  0
SEQEND
  0
POLYLINE
  8
0
 62
7
  6
CONTINUOUS
 66
1
 70
0
  0
VERTEX
  8
0
 62
7
  6
CONTINUOUS
 10
304.9754009437
 20
196.7198173566
  0
VERTEX
  8
0
 62
7
  6
CONTINUOUS
 10
304.9803971047
 20
196.8304122055
  0
VERTEX
  8
0
 62
7
  6
CONTINUOUS
 10
304.983777911
 20
196.935783485
  0
VERTEX
  8
0
 62
7
  6
CONTINUOUS
 10
304.9850124845
 20
197.0352867583
  0
SEQEND
  0
LINE
  8
0
 62
7
  6
CONTINUOUS
 10
304.9563749646
 20
196.3645207792
 11
304.9754009437
 21
196.7198173566
  0
POLYLINE
  8
0
 62
7
  6
CONTINUOUS
 66
1
 70
0
  0
VERTEX
  8
0
 62
7
  6
CONTINUOUS
 10
307.2003480467
 20
195.8857298927
  0
VERTEX
  8
0
 62
7
  6
CONTINUOUS
 10
307.2069096361
 20
195.9219626659
  0
VERTEX
  8
0
 62
7
  6
CONTINUOUS
 10
307.2165993266
 20
195.9558605772
  0
VERTEX
  8
0
 62
7
  6
CONTINUOUS
 10
307.2291990635
 20
195.9874376743
  0
VERTEX
  8
0
 62
7
  6
CONTINUOUS
 10
307.2445044357
 20
196.0166561028
  0
VERTEX
  8
0
 62
7
  6
CONTINUOUS
 10
307.2623099123
 20
196.043460664
  0
VERTEX
  8
0
 62
7
  6
CONTINUOUS
 10
307.2824374475
 20
196.0678363852
  0
VERTEX
  8
0
 62
7
  6
CONTINUOUS
 10
307.3044480202
 20
196.0895297525
  0
VERTEX
  8
0
 62
7
  6
CONTINUOUS
 10
307.3280434041
 20
196.1085651016
  0
VERTEX
  8
0
 62
7
  6
CONTINUOUS
 10
307.3530835908
 20
196.1250941162
  0
VERTEX
  8
0
 62
7
  6
CONTINUOUS
 10
307.3795545043
 20
196.1392865621
  0
VERTEX
  8
0
 62
7
  6
CONTINUOUS
 10
307.4075500385
 20
196.1512824363
  0
VERTEX
  8
0
 62
7
  6
CONTINUOUS
 10
307.437057455
 20
196.1611078901
  0
VERTEX
  8
0
 62
7
  6
CONTINUOUS
 10
307.4679691095
 20
196.1687467414
  0
VERTEX
  8
0
 62
7
  6
CONTINUOUS
 10
307.5002810543
 20
196.174211752
  0
VERTEX
  8
0
 62
7
  6
CONTINUOUS
 10
307.5341563446
 20
196.1775153441
  0
VERTEX
  8
0
 62
7
  6
CONTINUOUS
 10
307.5696798071
 20
196.1786255013
  0
SEQEND
  0
POLYLINE
  8
0
 62
7
  6
CONTINUOUS
 66
1
 70
0
  0
VERTEX
  8
0
 62
7
  6
CONTINUOUS
 10
315.1200929616
 20
200.8412058616
  0
VERTEX
  8
0
 62
7
  6
CONTINUOUS
 10
315.1198388151
 20
200.841990646
  0
VERTEX
  8
0
 62
7
  6
CONTINUOUS
 10
315.1200391222
 20
200.8412377787
  0
VERTEX
  8
0
 62
7
  6
CONTINUOUS
 10
315.1209752976
 20
200.8372438435
  0
VERTEX
  8
0
 62
7
  6
CONTINUOUS
 10
315.1224028679
 20
200.8299589466
  0
VERTEX
  8
0
 62
7
  6
CONTINUOUS
 10
315.1241185433
 20
200.8193572253
  0
VERTEX
  8
0
 62
7
  6
CONTINUOUS
 10
315.1259646486
 20
200.8053638531
  0
VERTEX
  8
0
 62
7
  6
CONTINUOUS
 10
315.1278159518
 20
200.7878652821
  0
VERTEX
  8
0
 62
7
  6
CONTINUOUS
 10
315.1295718891
 20
200.7667195571
  0
VERTEX
  8
0
 62
7
  6
CONTINUOUS
 10
315.1311485537
 20
200.7418392082
  0
VERTEX
  8
0
 62
7
  6
CONTINUOUS
 10
315.1324798839
 20
200.7132766984
  0
VERTEX
  8
0
 62
7
  6
CONTINUOUS
 10
315.1335274647
 20
200.6811574113
  0
SEQEND
  0
POLYLINE
  8
0
 62
7
  6
CONTINUOUS
 66
1
 70
0
  0
VERTEX
  8
0
 62
7
  6
CONTINUOUS
 10
315.1333649472
 20
200.6950899869
  0
VERTEX
  8
0
 62
7
  6
CONTINUOUS
 10
315.1329208386
 20
200.7103452292
  0
VERTEX
  8
0
 62
7
  6
CONTINUOUS
 10
315.1324035232
 20
200.7254411699
  0
VERTEX
  8
0
 62
7
  6
CONTINUOUS
 10
315.1318068159
 20
200.7403559235
  0
VERTEX
  8
0
 62
7
  6
CONTINUOUS
 10
315.1311244654
 20
200.7550666769
  0
VERTEX
  8
0
 62
7
  6
CONTINUOUS
 10
315.1303502088
 20
200.7695498522
  0
VERTEX
  8
0
 62
7
  6
CONTINUOUS
 10
315.129477831
 20
200.78378129
  0
VERTEX
  8
0
 62
7
  6
CONTINUOUS
 10
315.1285012269
 20
200.79773645
  0
VERTEX
  8
0
 62
7
  6
CONTINUOUS
 10
315.1274144659
 20
200.8113906249
  0
VERTEX
  8
0
 62
7
  6
CONTINUOUS
 10
315.126211856
 20
200.8247191618
  0
VERTEX
  8
0
 62
7
  6
CONTINUOUS
 10
315.1248880073
 20
200.8376976876
  0
VERTEX
  8
0
 62
7
  6
CONTINUOUS
 10
315.1234378926
 20
200.8503023306
  0
VERTEX
  8
0
 62
7
  6
CONTINUOUS
 10
315.1218569029
 20
200.8625099336
  0
VERTEX
  8
0
 62
7
  6
CONTINUOUS
 10
315.1201408979
 20
200.8742982539
  0
VERTEX
  8
0
 62
7
  6
CONTINUOUS
 10
315.1182862493
 20
200.8856461446
  0
VERTEX
  8
0
 62
7
  6
CONTINUOUS
 10
315.1162898756
 20
200.8965337152
  0
VERTEX
  8
0
 62
7
  6
CONTINUOUS
 10
315.1141492708
 20
200.9069424607
  0
VERTEX
  8
0
 62
7
  6
CONTINUOUS
 10
315.1118625184
 20
200.9168553856
  0
VERTEX
  8
0
 62
7
  6
CONTINUOUS
 10
315.1094283143
 20
200.9262570296
  0
VERTEX
  8
0
 62
7
  6
CONTINUOUS
 10
315.1068459205
 20
200.9351336953
  0
VERTEX
  8
0
 62
7
  6
CONTINUOUS
 10
315.1041153335
 20
200.9434728998
  0
VERTEX
  8
0
 62
7
  6
CONTINUOUS
 10
315.1012366428
 20
200.9512652096
  0
VERTEX
  8
0
 62
7
  6
CONTINUOUS
 10
315.0982121807
 20
200.9584985794
  0
VERTEX
  8
0
 62
7
  6
CONTINUOUS
 10
315.0950248946
 20
200.9652044723
  0
VERTEX
  8
0
 62
7
  6
CONTINUOUS
 10
315.0916477654
 20
200.97142225
  0
VERTEX
  8
0
 62
7
  6
CONTINUOUS
 10
315.0880706288
 20
200.9771470345
  0
VERTEX
  8
0
 62
7
  6
CONTINUOUS
 10
315.08428448
 20
200.9823696171
  0
VERTEX
  8
0
 62
7
  6
CONTINUOUS
 10
315.0802787296
 20
200.9870813382
  0
VERTEX
  8
0
 62
7
  6
CONTINUOUS
 10
315.076041663
 20
200.9912727219
  0
VERTEX
  8
0
 62
7
  6
CONTINUOUS
 10
315.0715599493
 20
200.9949335506
  0
VERTEX
  8
0
 62
7
  6
CONTINUOUS
 10
315.0668183638
 20
200.9980525053
  0
VERTEX
  8
0
 62
7
  6
CONTINUOUS
 10
315.061799362
 20
201.0006168416
  0
VERTEX
  8
0
 62
7
  6
CONTINUOUS
 10
315.0564826079
 20
201.0026119682
  0
VERTEX
  8
0
 62
7
  6
CONTINUOUS
 10
315.0508443291
 20
201.0040209713
  0
VERTEX
  8
0
 62
7
  6
CONTINUOUS
 10
315.0448567384
 20
201.0048239906
  0
VERTEX
  8
0
 62
7
  6
CONTINUOUS
 10
315.0384875108
 20
201.004997553
  0
SEQEND
  0
LINE
  8
0
 62
7
  6
CONTINUOUS
 10
315.1333649472
 20
200.6950899869
 11
315.1342801755
 21
200.6456769956
  0
LINE
  8
0
 62
7
  6
CONTINUOUS
 10
315.1345280943
 20
200.6328741051
 11
315.134057662
 21
200.6641836881
  0
LINE
  8
0
 62
7
  6
CONTINUOUS
 10
315.1348190879
 20
200.6012918226
 11
315.1342801755
 21
200.6456769956
  0
POLYLINE
  8
0
 62
7
  6
CONTINUOUS
 66
1
 70
0
  0
VERTEX
  8
0
 62
7
  6
CONTINUOUS
 10
320.7808992598
 20
195.4208551838
  0
VERTEX
  8
0
 62
7
  6
CONTINUOUS
 10
320.7800806161
 20
195.5782888849
  0
VERTEX
  8
0
 62
7
  6
CONTINUOUS
 10
320.7797908519
 20
195.7362506664
  0
VERTEX
  8
0
 62
7
  6
CONTINUOUS
 10
320.7800806088
 20
195.8942064029
  0
VERTEX
  8
0
 62
7
  6
CONTINUOUS
 10
320.7808993139
 20
196.0516502819
  0
SEQEND
  0
POLYLINE
  8
0
 62
7
  6
CONTINUOUS
 66
1
 70
0
  0
VERTEX
  8
0
 62
7
  6
CONTINUOUS
 10
320.7850124845
 20
194.8077304352
  0
VERTEX
  8
0
 62
7
  6
CONTINUOUS
 10
320.784534827
 20
194.9572947785
  0
VERTEX
  8
0
 62
7
  6
CONTINUOUS
 10
320.7808992598
 20
195.4208551838
  0
SEQEND
  0
LINE
  8
0
 62
7
  6
CONTINUOUS
 10
315.1347516699
 20
200.6070974686
 11
315.1350124114
 21
200.5390465971
  0
LINE
  8
0
 62
7
  6
CONTINUOUS
 10
315.1350124845
 20
189.9362486526
 11
315.1350124845
 21
201.536248653
  0
LINE
  8
0
 62
7
  6
CONTINUOUS
 10
320.7850124845
 20
196.6502243512
 11
320.7850124845
 21
194.8222729541
  0
LINE
  8
0
 62
7
  6
CONTINUOUS
 10
320.7850124845
 20
189.9362486526
 11
320.7850124845
 21
194.8077304352
  0
LINE
  8
0
 62
7
  6
CONTINUOUS
 10
320.7850124845
 20
196.66476687
 11
320.7850124845
 21
200.5844282475
  0
LINE
  8
0
 62
7
  6
CONTINUOUS
 10
320.7845348299
 20
196.515203025
 11
320.7850124845
 21
196.66476687
  0
LINE
  8
0
 62
7
  6
CONTINUOUS
 10
320.7808993139
 20
196.0516502819
 11
320.7845348299
 21
196.515203025
  0
POLYLINE
  8
0
 62
7
  6
CONTINUOUS
 66
1
 70
0
  0
VERTEX
  8
0
 62
7
  6
CONTINUOUS
 10
370.5305641616
 20
108.5918435199
  0
VERTEX
  8
0
 62
7
  6
CONTINUOUS
 10
370.712065475
 20
108.5967671139
  0
VERTEX
  8
0
 62
7
  6
CONTINUOUS
 10
370.9011435599
 20
108.612874611
  0
VERTEX
  8
0
 62
7
  6
CONTINUOUS
 10
371.0822517337
 20
108.6396197954
  0
VERTEX
  8
0
 62
7
  6
CONTINUOUS
 10
371.2553213924
 20
108.6763901964
  0
VERTEX
  8
0
 62
7
  6
CONTINUOUS
 10
371.420516287
 20
108.7226071497
  0
VERTEX
  8
0
 62
7
  6
CONTINUOUS
 10
371.5780402621
 20
108.7777256181
  0
VERTEX
  8
0
 62
7
  6
CONTINUOUS
 10
371.7280938394
 20
108.8412261466
  0
VERTEX
  8
0
 62
7
  6
CONTINUOUS
 10
371.8708805146
 20
108.9126150559
  0
VERTEX
  8
0
 62
7
  6
CONTINUOUS
 10
372.0066050284
 20
108.9914223506
  0
VERTEX
  8
0
 62
7
  6
CONTINUOUS
 10
372.1354759415
 20
109.0772016159
  0
VERTEX
  8
0
 62
7
  6
CONTINUOUS
 10
372.2577088182
 20
109.1695315275
  0
VERTEX
  8
0
 62
7
  6
CONTINUOUS
 10
372.3735070821
 20
109.2679989748
  0
VERTEX
  8
0
 62
7
  6
CONTINUOUS
 10
372.4830296538
 20
109.372157139
  0
VERTEX
  8
0
 62
7
  6
CONTINUOUS
 10
372.5864467669
 20
109.4815587694
  0
VERTEX
  8
0
 62
7
  6
CONTINUOUS
 10
372.6839486565
 20
109.5957654178
  0
VERTEX
  8
0
 62
7
  6
CONTINUOUS
 10
372.7757350813
 20
109.7143373268
  0
VERTEX
  8
0
 62
7
  6
CONTINUOUS
 10
372.8620091493
 20
109.8368228088
  0
VERTEX
  8
0
 62
7
  6
CONTINUOUS
 10
372.9137319681
 20
109.917268097
  0
SEQEND
  0
LINE
  8
0
 62
7
  6
CONTINUOUS
 10
370.5305666047
 20
108.5918436024
 11
370.5308563345
 21
108.5918436145
  0
LINE
  8
0
 62
7
  6
CONTINUOUS
 10
370.5300198276
 20
108.5918436023
 11
365.9539338071
 21
108.5918436023
  0
LINE
  8
0
 62
7
  6
CONTINUOUS
 10
370.8293074419
 20
109.3303477881
 11
366.8293074419
 21
109.3303477881
  0
LINE
  8
DEFAULT_1
 62
2
  6
CENTER
 10
374.0793074419
 20
113.6803477881
 11
372.9293074419
 21
113.6803477881
  0
LINE
  8
0
 62
2
  6
CONTINUOUS
 10
369.8793074419
 20
113.6803477881
 11
367.7793074419
 21
113.6803477881
  0
LINE
  8
DEFAULT_1
 62
2
  6
CENTER
 10
363.5793074419
 20
113.6803477881
 11
364.7293074419
 21
113.6803477881
  0
POLYLINE
  8
0
 62
7
  6
CONTINUOUS
 66
1
 70
0
  0
VERTEX
  8
0
 62
7
  6
CONTINUOUS
 10
362.8293074845
 20
124.8565242169
  0
VERTEX
  8
0
 62
7
  6
CONTINUOUS
 10
362.829862287
 20
124.8359477524
  0
VERTEX
  8
0
 62
7
  6
CONTINUOUS
 10
362.8326787563
 20
124.8058193513
  0
VERTEX
  8
0
 62
7
  6
CONTINUOUS
 10
362.8376534625
 20
124.7773866665
  0
VERTEX
  8
0
 62
7
  6
CONTINUOUS
 10
362.8446050187
 20
124.750761284
  0
VERTEX
  8
0
 62
7
  6
CONTINUOUS
 10
362.853351298
 20
124.7261651164
  0
VERTEX
  8
0
 62
7
  6
CONTINUOUS
 10
362.8636837802
 20
124.7037963341
  0
VERTEX
  8
0
 62
7
  6
CONTINUOUS
 10
362.8754163085
 20
124.6836968057
  0
VERTEX
  8
0
 62
7
  6
CONTINUOUS
 10
362.888349461
 20
124.6658720918
  0
VERTEX
  8
0
 62
7
  6
CONTINUOUS
 10
362.9023032465
 20
124.6502622226
  0
VERTEX
  8
0
 62
7
  6
CONTINUOUS
 10
362.9172664175
 20
124.636656789
  0
VERTEX
  8
0
 62
7
  6
CONTINUOUS
 10
362.9332095276
 20
124.6249654396
  0
VERTEX
  8
0
 62
7
  6
CONTINUOUS
 10
362.9500448392
 20
124.6151955051
  0
VERTEX
  8
0
 62
7
  6
CONTINUOUS
 10
362.9676483634
 20
124.6073781258
  0
VERTEX
  8
0
 62
7
  6
CONTINUOUS
 10
362.9858116754
 20
124.6015808163
  0
VERTEX
  8
0
 62
7
  6
CONTINUOUS
 10
363.0043433515
 20
124.5978282997
  0
VERTEX
  8
0
 62
7
  6
CONTINUOUS
 10
363.0230107527
 20
124.5961210196
  0
VERTEX
  8
0
 62
7
  6
CONTINUOUS
 10
363.0292296874
 20
124.5960086282
  0
SEQEND
  0
POLYLINE
  8
0
 62
7
  6
CONTINUOUS
 66
1
 70
0
  0
VERTEX
  8
0
 62
7
  6
CONTINUOUS
 10
362.8293074501
 20
112.8481376635
  0
VERTEX
  8
0
 62
7
  6
CONTINUOUS
 10
362.8344927565
 20
112.5528320013
  0
VERTEX
  8
0
 62
7
  6
CONTINUOUS
 10
362.8510898961
 20
112.2433567581
  0
VERTEX
  8
0
 62
7
  6
CONTINUOUS
 10
362.8789523843
 20
111.9363259702
  0
VERTEX
  8
0
 62
7
  6
CONTINUOUS
 10
362.9179294032
 20
111.6321460137
  0
VERTEX
  8
0
 62
7
  6
CONTINUOUS
 10
362.9678824477
 20
111.3312195758
  0
VERTEX
  8
0
 62
7
  6
CONTINUOUS
 10
363.0254428335
 20
111.0484656852
  0
SEQEND
  0
LINE
  8
0
 62
7
  6
CONTINUOUS
 10
362.8293074419
 20
112.8481376635
 11
362.8293074419
 21
139.4303477881
  0
POLYLINE
  8
0
 62
7
  6
CONTINUOUS
 66
1
 70
0
  0
VERTEX
  8
0
 62
7
  6
CONTINUOUS
 10
363.0254428524
 20
111.0484656895
  0
VERTEX
  8
0
 62
7
  6
CONTINUOUS
 10
363.0526139653
 20
110.9325129642
  0
VERTEX
  8
0
 62
7
  6
CONTINUOUS
 10
363.0869169065
 20
110.8014691625
  0
VERTEX
  8
0
 62
7
  6
CONTINUOUS
 10
363.1251775169
 20
110.671127832
  0
VERTEX
  8
0
 62
7
  6
CONTINUOUS
 10
363.1676435481
 20
110.5417740221
  0
VERTEX
  8
0
 62
7
  6
CONTINUOUS
 10
363.2145609918
 20
110.413700053
  0
VERTEX
  8
0
 62
7
  6
CONTINUOUS
 10
363.2661744044
 20
110.2872014431
  0
VERTEX
  8
0
 62
7
  6
CONTINUOUS
 10
363.322729067
 20
110.1625722745
  0
VERTEX
  8
0
 62
7
  6
CONTINUOUS
 10
363.3844653298
 20
110.0401182176
  0
VERTEX
  8
0
 62
7
  6
CONTINUOUS
 10
363.4516304884
 20
109.9201335624
  0
VERTEX
  8
0
 62
7
  6
CONTINUOUS
 10
363.5244885397
 20
109.8028948312
  0
VERTEX
  8
0
 62
7
  6
CONTINUOUS
 10
363.603302736
 20
109.6886988205
  0
VERTEX
  8
0
 62
7
  6
CONTINUOUS
 10
363.6883336143
 20
109.5778636354
  0
VERTEX
  8
0
 62
7
  6
CONTINUOUS
 10
363.7798353605
 20
109.4707308812
  0
VERTEX
  8
0
 62
7
  6
CONTINUOUS
 10
363.8780656616
 20
109.3676527247
  0
VERTEX
  8
0
 62
7
  6
CONTINUOUS
 10
363.9833359469
 20
109.2689507099
  0
VERTEX
  8
0
 62
7
  6
CONTINUOUS
 10
364.095976336
 20
109.1749711548
  0
VERTEX
  8
0
 62
7
  6
CONTINUOUS
 10
364.2163172106
 20
109.0861039159
  0
VERTEX
  8
0
 62
7
  6
CONTINUOUS
 10
364.3447139441
 20
109.0027645609
  0
VERTEX
  8
0
 62
7
  6
CONTINUOUS
 10
364.4815960091
 20
108.9253766387
  0
VERTEX
  8
0
 62
7
  6
CONTINUOUS
 10
364.6273861033
 20
108.8544337897
  0
VERTEX
  8
0
 62
7
  6
CONTINUOUS
 10
364.7823841611
 20
108.790536225
  0
VERTEX
  8
0
 62
7
  6
CONTINUOUS
 10
364.9468592153
 20
108.7343171551
  0
VERTEX
  8
0
 62
7
  6
CONTINUOUS
 10
365.121120634
 20
108.6864174788
  0
VERTEX
  8
0
 62
7
  6
CONTINUOUS
 10
365.3054957678
 20
108.6475056259
  0
VERTEX
  8
0
 62
7
  6
CONTINUOUS
 10
365.5003182961
 20
108.6182866348
  0
VERTEX
  8
0
 62
7
  6
CONTINUOUS
 10
365.7057416031
 20
108.5995181979
  0
VERTEX
  8
0
 62
7
  6
CONTINUOUS
 10
365.9215409493
 20
108.5919654404
  0
VERTEX
  8
0
 62
7
  6
CONTINUOUS
 10
365.9530925877
 20
108.5918434568
  0
SEQEND
  0
LINE
  8
0
 62
7
  6
CONTINUOUS
 10
366.7293074419
 20
130.5803477881
 11
366.7293074419
 21
139.0803477881
  0
LINE
  8
DEFAULT_1
 62
2
  6
CENTER
 10
368.8293074419
 20
144.3303477881
 11
368.8293074419
 21
141.0804477881
  0
LINE
  8
0
 62
2
  6
CONTINUOUS
 10
368.8293074419
 20
140.1303477881
 11
368.8293074419
 21
138.0303477881
  0
LINE
  8
DEFAULT_1
 62
2
  6
CENTER
 10
368.8293074419
 20
118.9303477881
 11
368.8293074419
 21
117.7803477881
  0
LINE
  8
0
 62
2
  6
CONTINUOUS
 10
368.8293074419
 20
114.7303477881
 11
368.8293074419
 21
112.6303477881
  0
LINE
  8
DEFAULT_1
 62
2
  6
CENTER
 10
368.8293074419
 20
108.4303477881
 11
368.8293074419
 21
109.5803477881
  0
LINE
  8
DEFAULT_1
 62
2
  6
CENTER
 10
368.8293074419
 20
133.8303477881
 11
368.8293074419
 21
137.0802477881
  0
POLYLINE
  8
0
 62
7
  6
CONTINUOUS
 66
1
 70
0
  0
VERTEX
  8
0
 62
7
  6
CONTINUOUS
 10
374.6293832607
 20
124.5960089015
  0
VERTEX
  8
0
 62
7
  6
CONTINUOUS
 10
374.6355659175
 20
124.5961198604
  0
VERTEX
  8
0
 62
7
  6
CONTINUOUS
 10
374.6542265734
 20
124.5978214405
  0
VERTEX
  8
0
 62
7
  6
CONTINUOUS
 10
374.6727584442
 20
124.6015694252
  0
VERTEX
  8
0
 62
7
  6
CONTINUOUS
 10
374.6909277289
 20
124.6073632639
  0
VERTEX
  8
0
 62
7
  6
CONTINUOUS
 10
374.7085391372
 20
124.6151797908
  0
VERTEX
  8
0
 62
7
  6
CONTINUOUS
 10
374.7253843053
 20
124.6249516426
  0
VERTEX
  8
0
 62
7
  6
CONTINUOUS
 10
374.7413365181
 20
124.6366470839
  0
VERTEX
  8
0
 62
7
  6
CONTINUOUS
 10
374.7563062274
 20
124.6502567184
  0
VERTEX
  8
0
 62
7
  6
CONTINUOUS
 10
374.7702631542
 20
124.6658692657
  0
VERTEX
  8
0
 62
7
  6
CONTINUOUS
 10
374.7831972159
 20
124.6836947258
  0
VERTEX
  8
0
 62
7
  6
CONTINUOUS
 10
374.7949301052
 20
124.7037944196
  0
VERTEX
  8
0
 62
7
  6
CONTINUOUS
 10
374.8052627618
 20
124.7261630906
  0
VERTEX
  8
0
 62
7
  6
CONTINUOUS
 10
374.8140092927
 20
124.7507594192
  0
VERTEX
  8
0
 62
7
  6
CONTINUOUS
 10
374.8209611344
 20
124.7773853481
  0
VERTEX
  8
0
 62
7
  6
CONTINUOUS
 10
374.8259360414
 20
124.8058187066
  0
VERTEX
  8
0
 62
7
  6
CONTINUOUS
 10
374.8287525906
 20
124.8359476442
  0
VERTEX
  8
0
 62
7
  6
CONTINUOUS
 10
374.8293074
 20
124.8565254047
  0
SEQEND
  0
LINE
  8
0
 62
7
  6
CONTINUOUS
 10
374.629308679
 20
124.5960050728
 11
363.0293062079
 21
124.5960050728
  0
LINE
  8
0
 62
7
  6
CONTINUOUS
 10
370.9293074419
 20
130.5803477881
 11
370.9293074419
 21
139.0803477881
  0
LINE
  8
0
 62
7
  6
CONTINUOUS
 10
374.8293074419
 20
113.3303477881
 11
374.8293074419
 21
139.4303477881
  0
LINE
  8
DEFAULT_1
 62
2
  6
CENTER
 10
374.0793074419
 20
139.0803477881
 11
370.8294074419
 21
139.0803477881
  0
LINE
  8
0
 62
2
  6
CONTINUOUS
 10
369.8793074419
 20
139.0803477881
 11
367.7793074419
 21
139.0803477881
  0
LINE
  8
DEFAULT_1
 62
2
  6
CENTER
 10
363.5793074419
 20
139.0803477881
 11
366.8292074419
 21
139.0803477881
  0
LINE
  8
0
 62
7
  6
CONTINUOUS
 10
366.8293074419
 20
143.4303477881
 11
370.8293074419
 21
143.4303477881
  0
ARC
  8
0
 62
7
  6
CONTINUOUS
 10
46.1350124845
 20
110.0803477881
 40
0.75
 50
270.0
 51
360.0
  0
ARC
  8
0
 62
7
  6
CONTINUOUS
 10
33.4350124845
 20
110.0803477881
 40
0.75
 50
270.0
 51
360.0
  0
ARC
  8
0
 62
7
  6
CONTINUOUS
 10
58.8350124845
 20
110.0803477881
 40
0.75
 50
270.0
 51
360.0
  0
ARC
  8
0
 62
7
  6
CONTINUOUS
 10
28.9350124845
 20
110.0803477881
 40
0.75
 50
180.0
 51
270.0
  0
ARC
  8
0
 62
7
  6
CONTINUOUS
 10
41.6350124845
 20
110.0803477881
 40
0.75
 50
180.0
 51
270.0
  0
ARC
  8
0
 62
7
  6
CONTINUOUS
 10
54.3350124845
 20
110.0803477881
 40
0.75
 50
180.0
 51
270.0
  0
ARC
  8
0
 62
7
  6
CONTINUOUS
 10
59.8350124845
 20
117.303132349
 40
1.0
 50
180.0
 51
194.0
  0
ARC
  8
0
 62
7
  6
CONTINUOUS
 10
47.1350124845
 20
117.303132349
 40
1.0
 50
180.0
 51
194.0
  0
ARC
  8
0
 62
7
  6
CONTINUOUS
 10
34.4350124845
 20
117.303132349
 40
1.0
 50
180.0
 51
194.0
  0
ARC
  8
0
 62
7
  6
CONTINUOUS
 10
40.6350124845
 20
117.303132349
 40
1.0
 50
346.0
 51
360.0
  0
ARC
  8
0
 62
7
  6
CONTINUOUS
 10
53.3350124845
 20
117.303132349
 40
1.0
 50
346.0
 51
360.0
  0
ARC
  8
0
 62
7
  6
CONTINUOUS
 10
27.9350124845
 20
117.303132349
 40
1.0
 50
346.0
 51
360.0
  0
ARC
  8
0
 62
7
  6
CONTINUOUS
 10
59.3850124208
 20
114.1477054315
 40
0.2
 50
359.9999267414
 51
13.9999244986
  0
ARC
  8
0
 62
7
  6
CONTINUOUS
 10
46.6850124208
 20
114.1477054315
 40
0.2
 50
359.9999267414
 51
13.9999244986
  0
ARC
  8
0
 62
7
  6
CONTINUOUS
 10
53.7850124845
 20
114.1477051758
 40
0.2
 50
166.0
 51
180.0
  0
ARC
  8
0
 62
7
  6
CONTINUOUS
 10
33.9850124208
 20
114.1477054315
 40
0.2
 50
359.9999267413
 51
13.9999244986
  0
ARC
  8
0
 62
7
  6
CONTINUOUS
 10
41.0850124845
 20
114.1477051758
 40
0.2
 50
166.0
 51
180.0
  0
ARC
  8
0
 62
7
  6
CONTINUOUS
 10
28.3850124845
 20
114.1477051758
 40
0.2
 50
166.0
 51
180.0
  0
ARC
  8
0
 62
7
  6
CONTINUOUS
 10
79.7350124845
 20
110.0803477881
 40
0.75
 50
180.0
 51
270.0
  0
ARC
  8
0
 62
7
  6
CONTINUOUS
 10
84.2350124845
 20
110.0803477881
 40
0.75
 50
270.0
 51
360.0
  0
ARC
  8
0
 62
7
  6
CONTINUOUS
 10
92.4350124845
 20
110.1083407843
 40
0.75
 50
180.0000016277
 51
270.45141194
  0
ARC
  8
0
 62
7
  6
CONTINUOUS
 10
71.5350124845
 20
110.0803477881
 40
0.75
 50
270.0
 51
360.0
  0
ARC
  8
0
 62
7
  6
CONTINUOUS
 10
67.0350124845
 20
110.0803477881
 40
0.75
 50
180.0
 51
270.0
  0
ARC
  8
0
 62
7
  6
CONTINUOUS
 10
72.5350124845
 20
117.303132349
 40
1.0
 50
180.0
 51
194.0
  0
ARC
  8
0
 62
7
  6
CONTINUOUS
 10
85.2350124845
 20
117.303132349
 40
1.0
 50
180.0
 51
194.0
  0
ARC
  8
0
 62
7
  6
CONTINUOUS
 10
66.0350124845
 20
117.303132349
 40
1.0
 50
346.0
 51
360.0
  0
ARC
  8
0
 62
7
  6
CONTINUOUS
 10
78.7350124845
 20
117.303132349
 40
1.0
 50
346.0
 51
360.0
  0
ARC
  8
0
 62
7
  6
CONTINUOUS
 10
91.4350124845
 20
117.303132349
 40
1.0
 50
346.0
 51
360.0
  0
ARC
  8
0
 62
7
  6
CONTINUOUS
 10
66.4850124845
 20
114.1477051758
 40
0.2
 50
166.0
 51
180.0
  0
ARC
  8
0
 62
7
  6
CONTINUOUS
 10
72.0850124208
 20
114.1477054315
 40
0.2
 50
359.9999267414
 51
13.9999244986
  0
ARC
  8
0
 62
7
  6
CONTINUOUS
 10
79.1850124845
 20
114.1477051758
 40
0.2
 50
166.0
 51
180.0
  0
ARC
  8
0
 62
7
  6
CONTINUOUS
 10
84.7850124208
 20
114.1477054315
 40
0.2
 50
359.9999267414
 51
13.9999244986
  0
ARC
  8
0
 62
7
  6
CONTINUOUS
 10
91.8850124845
 20
114.1477051758
 40
0.2
 50
166.0
 51
180.0
  0
ARC
  8
0
 62
7
  6
CONTINUOUS
 10
62.9350124845
 20
121.6430650131
 40
4.1
 50
0.0
 51
180.0
  0
ARC
  8
0
 62
7
  6
CONTINUOUS
 10
75.6350124845
 20
121.6596771779
 40
4.1
 50
0.0
 51
180.0
  0
ARC
  8
0
 62
7
  6
CONTINUOUS
 10
88.3350124845
 20
121.6762893427
 40
4.1
 50
0.0
 51
180.0
  0
ARC
  8
0
 62
7
  6
CONTINUOUS
 10
50.2350124845
 20
121.6264528483
 40
4.1
 50
0.0
 51
180.0
  0
ARC
  8
0
 62
7
  6
CONTINUOUS
 10
37.5350124845
 20
121.6098406835
 40
4.1
 50
0.0
 51
180.0
  0
ARC
  8
0
 62
7
  6
CONTINUOUS
 10
24.8350124845
 20
121.5932285187
 40
4.1
 50
0.0
 51
132.1124813301
  0
ARC
  8
0
 62
7
  6
CONTINUOUS
 10
21.9850124845
 20
124.7460050728
 40
0.15
 50
180.0
 51
312.1124813301
  0
ARC
  8
0
 62
7
  6
CONTINUOUS
 10
96.9350124845
 20
110.1437953297
 40
0.75
 50
270.45141194
 51
359.9999983723
  0
ARC
  8
0
 62
7
  6
CONTINUOUS
 10
105.1350124845
 20
110.2084013903
 40
0.75
 50
180.0000016277
 51
270.45141194
  0
ARC
  8
0
 62
7
  6
CONTINUOUS
 10
109.6350124845
 20
110.2438559358
 40
0.75
 50
270.45141194
 51
359.9999983723
  0
ARC
  8
0
 62
7
  6
CONTINUOUS
 10
122.3350124845
 20
110.3439165419
 40
0.75
 50
270.45141194
 51
359.9999983723
  0
ARC
  8
0
 62
7
  6
CONTINUOUS
 10
130.5350124845
 20
110.4085226025
 40
0.75
 50
180.0000016277
 51
270.45141194
  0
ARC
  8
0
 62
7
  6
CONTINUOUS
 10
117.8350124845
 20
110.3084619964
 40
0.75
 50
180.0000016277
 51
270.45141194
  0
ARC
  8
0
 62
7
  6
CONTINUOUS
 10
97.9350124845
 20
117.303132349
 40
1.0
 50
180.0
 51
194.0
  0
ARC
  8
0
 62
7
  6
CONTINUOUS
 10
110.6350124845
 20
117.303132349
 40
1.0
 50
180.0
 51
194.0
  0
ARC
  8
0
 62
7
  6
CONTINUOUS
 10
123.3350124845
 20
117.303132349
 40
1.0
 50
180.0
 51
194.0
  0
ARC
  8
0
 62
7
  6
CONTINUOUS
 10
104.1350124845
 20
117.303132349
 40
1.0
 50
346.0
 51
360.0
  0
ARC
  8
0
 62
7
  6
CONTINUOUS
 10
116.8350124845
 20
117.303132349
 40
1.0
 50
346.0
 51
360.0
  0
ARC
  8
0
 62
7
  6
CONTINUOUS
 10
129.5350124845
 20
117.303132349
 40
1.0
 50
346.0
 51
360.0
  0
ARC
  8
0
 62
7
  6
CONTINUOUS
 10
97.4850124208
 20
114.1477054315
 40
0.2
 50
359.9999267414
 51
13.9999244986
  0
ARC
  8
0
 62
7
  6
CONTINUOUS
 10
104.5850124845
 20
114.1477051758
 40
0.2
 50
166.0
 51
180.0
  0
ARC
  8
0
 62
7
  6
CONTINUOUS
 10
110.1850124208
 20
114.1477054315
 40
0.2
 50
359.9999267414
 51
13.9999244986
  0
ARC
  8
0
 62
7
  6
CONTINUOUS
 10
117.2850124845
 20
114.1477051758
 40
0.2
 50
166.0
 51
180.0
  0
ARC
  8
0
 62
7
  6
CONTINUOUS
 10
122.8850124208
 20
114.1477054315
 40
0.2
 50
359.9999267414
 51
13.9999244986
  0
ARC
  8
0
 62
7
  6
CONTINUOUS
 10
129.9850124845
 20
114.1477051758
 40
0.2
 50
166.0
 51
180.0
  0
ARC
  8
0
 62
7
  6
CONTINUOUS
 10
143.2350124845
 20
110.5085832085
 40
0.75
 50
180.0000016277
 51
270.45141194
  0
ARC
  8
0
 62
7
  6
CONTINUOUS
 10
147.7350124845
 20
110.544037754
 40
0.75
 50
270.45141194
 51
359.9999983723
  0
ARC
  8
0
 62
7
  6
CONTINUOUS
 10
155.9350124845
 20
110.6086438146
 40
0.75
 50
180.0000016277
 51
270.45141194
  0
ARC
  8
0
 62
7
  6
CONTINUOUS
 10
160.4350124845
 20
110.64409836
 40
0.75
 50
270.45141194
 51
359.9999983723
  0
ARC
  8
0
 62
7
  6
CONTINUOUS
 10
168.6350124845
 20
110.7087044206
 40
0.75
 50
180.0000016277
 51
270.45141194
  0
ARC
  8
0
 62
7
  6
CONTINUOUS
 10
135.0350124845
 20
110.4439771479
 40
0.75
 50
270.45141194
 51
359.9999983723
  0
ARC
  8
0
 62
7
  6
CONTINUOUS
 10
167.6350124845
 20
117.303132349
 40
1.0
 50
346.0
 51
360.0
  0
ARC
  8
0
 62
7
  6
CONTINUOUS
 10
136.0350124845
 20
117.303132349
 40
1.0
 50
180.0
 51
194.0
  0
ARC
  8
0
 62
7
  6
CONTINUOUS
 10
142.2350124845
 20
117.303132349
 40
1.0
 50
346.0
 51
360.0
  0
ARC
  8
0
 62
7
  6
CONTINUOUS
 10
154.9350124845
 20
117.303132349
 40
1.0
 50
346.0
 51
360.0
  0
ARC
  8
0
 62
7
  6
CONTINUOUS
 10
148.7350124845
 20
117.303132349
 40
1.0
 50
180.0
 51
194.0
  0
ARC
  8
0
 62
7
  6
CONTINUOUS
 10
161.4350124845
 20
117.303132349
 40
1.0
 50
180.0
 51
194.0
  0
ARC
  8
0
 62
7
  6
CONTINUOUS
 10
160.9850124208
 20
114.1477054315
 40
0.2
 50
359.9999267413
 51
13.9999244986
  0
ARC
  8
0
 62
7
  6
CONTINUOUS
 10
168.0850124845
 20
114.1477051758
 40
0.2
 50
166.0
 51
180.0
  0
ARC
  8
0
 62
7
  6
CONTINUOUS
 10
135.5850124208
 20
114.1477054315
 40
0.2
 50
359.9999267413
 51
13.9999244986
  0
ARC
  8
0
 62
7
  6
CONTINUOUS
 10
142.6850124845
 20
114.1477051758
 40
0.2
 50
166.0
 51
180.0
  0
ARC
  8
0
 62
7
  6
CONTINUOUS
 10
148.2850124208
 20
114.1477054315
 40
0.2
 50
359.9999267414
 51
13.9999244986
  0
ARC
  8
0
 62
7
  6
CONTINUOUS
 10
155.3850124845
 20
114.1477051758
 40
0.2
 50
166.0
 51
180.0
  0
ARC
  8
0
 62
7
  6
CONTINUOUS
 10
101.0350124845
 20
121.6929015076
 40
4.1
 50
0.0
 51
180.0
  0
ARC
  8
0
 62
7
  6
CONTINUOUS
 10
113.7350124845
 20
121.7095136724
 40
4.1
 50
0.0
 51
180.0
  0
ARC
  8
0
 62
7
  6
CONTINUOUS
 10
126.4350124845
 20
121.7261258372
 40
4.1
 50
0.0
 51
180.0
  0
ARC
  8
0
 62
7
  6
CONTINUOUS
 10
139.1350124845
 20
121.742738002
 40
4.1
 50
0.0
 51
180.0
  0
ARC
  8
0
 62
7
  6
CONTINUOUS
 10
151.8350124845
 20
121.7593501668
 40
4.1
 50
0.0
 51
180.0
  0
ARC
  8
0
 62
7
  6
CONTINUOUS
 10
164.5350124845
 20
121.7759623316
 40
4.1
 50
0.0
 51
180.0
  0
ARC
  8
0
 62
7
  6
CONTINUOUS
 10
20.5850124845
 20
128.7326371831
 40
2.0
 50
310.6293287833
 51
360.0
  0
ARC
  8
0
 62
7
  6
CONTINUOUS
 10
54.4850124845
 20
129.1286817424
 40
2.0
 50
180.0
 51
269.925054615
  0
ARC
  8
0
 62
7
  6
CONTINUOUS
 10
41.7850124845
 20
129.1452939072
 40
2.0
 50
180.0
 51
269.925054615
  0
ARC
  8
0
 62
7
  6
CONTINUOUS
 10
29.0850124845
 20
129.161906072
 40
2.0
 50
180.0
 51
269.925054615
  0
ARC
  8
0
 62
7
  6
CONTINUOUS
 10
33.2850124845
 20
129.1564122852
 40
2.0
 50
269.925054615
 51
360.0
  0
ARC
  8
0
 62
7
  6
CONTINUOUS
 10
45.9850124845
 20
129.1398001204
 40
2.0
 50
269.925054615
 51
360.0
  0
ARC
  8
0
 62
7
  6
CONTINUOUS
 10
84.0850124845
 20
129.089963626
 40
2.0
 50
269.925054615
 51
360.0
  0
ARC
  8
0
 62
7
  6
CONTINUOUS
 10
71.3850124845
 20
129.1065757908
 40
2.0
 50
269.925054615
 51
360.0
  0
ARC
  8
0
 62
7
  6
CONTINUOUS
 10
58.6850124845
 20
129.1231879556
 40
2.0
 50
269.925054615
 51
360.0
  0
ARC
  8
0
 62
7
  6
CONTINUOUS
 10
67.1850124845
 20
129.1120695776
 40
2.0
 50
180.0
 51
269.925054615
  0
ARC
  8
0
 62
7
  6
CONTINUOUS
 10
79.8850124845
 20
129.0954574128
 40
2.0
 50
180.0
 51
269.925054615
  0
ARC
  8
0
 62
7
  6
CONTINUOUS
 10
92.5850124845
 20
129.078845248
 40
2.0
 50
180.0
 51
269.925054615
  0
ARC
  8
0
 62
7
  6
CONTINUOUS
 10
21.9850124845
 20
127.1009202959
 40
0.15
 50
130.6293287833
 51
180.0
  0
ARC
  8
0
 62
7
  6
CONTINUOUS
 10
53.4850124845
 20
135.4575632272
 40
1.0
 50
166.0
 51
180.0
  0
ARC
  8
0
 62
7
  6
CONTINUOUS
 10
46.9850124845
 20
135.4575632272
 40
1.0
 50
0.0
 51
14.0
  0
ARC
  8
0
 62
7
  6
CONTINUOUS
 10
40.7850124845
 20
135.4575632272
 40
1.0
 50
166.0
 51
180.0
  0
ARC
  8
0
 62
7
  6
CONTINUOUS
 10
34.2850124845
 20
135.4575632272
 40
1.0
 50
0.0
 51
14.0
  0
ARC
  8
0
 62
7
  6
CONTINUOUS
 10
28.0850124845
 20
135.4575632272
 40
1.0
 50
166.0
 51
180.0
  0
ARC
  8
0
 62
7
  6
CONTINUOUS
 10
21.5850124845
 20
135.4575632272
 40
1.0
 50
0.0
 51
14.0
  0
ARC
  8
0
 62
7
  6
CONTINUOUS
 10
22.0350124845
 20
138.6129904005
 40
0.2
 50
180.0
 51
194.0
  0
ARC
  8
0
 62
7
  6
CONTINUOUS
 10
53.0350124845
 20
138.6129904005
 40
0.2
 50
346.0
 51
360.0
  0
ARC
  8
0
 62
7
  6
CONTINUOUS
 10
40.3350124845
 20
138.6129904005
 40
0.2
 50
346.0
 51
360.0
  0
ARC
  8
0
 62
7
  6
CONTINUOUS
 10
47.4350125073
 20
138.6129903093
 40
0.2
 50
179.9999738949
 51
193.9999730956
  0
ARC
  8
0
 62
7
  6
CONTINUOUS
 10
27.6350124845
 20
138.6129904005
 40
0.2
 50
346.0
 51
360.0
  0
ARC
  8
0
 62
7
  6
CONTINUOUS
 10
34.7350125073
 20
138.6129903093
 40
0.2
 50
179.9999738948
 51
193.9999730956
  0
ARC
  8
0
 62
7
  6
CONTINUOUS
 10
50.2350124845
 20
139.4403477881
 40
4.0
 50
94.3321857125
 51
135.5846914028
  0
ARC
  8
0
 62
7
  6
CONTINUOUS
 10
50.2350124845
 20
139.4403477881
 40
4.0
 50
44.4153085972
 51
85.6678142875
  0
ARC
  8
0
 62
7
  6
CONTINUOUS
 10
37.5350124845
 20
139.4403477881
 40
4.0
 50
94.3321857125
 51
135.5846914028
  0
ARC
  8
0
 62
7
  6
CONTINUOUS
 10
37.5350124845
 20
139.4403477881
 40
4.0
 50
44.4153085972
 51
85.6678142875
  0
ARC
  8
0
 62
7
  6
CONTINUOUS
 10
24.8350124845
 20
139.4403477881
 40
4.0
 50
94.3321857125
 51
135.5846914028
  0
ARC
  8
0
 62
7
  6
CONTINUOUS
 10
24.8350124845
 20
139.4403477881
 40
4.0
 50
44.4153085972
 51
85.6678142875
  0
ARC
  8
0
 62
7
  6
CONTINUOUS
 10
49.9706264032
 20
142.9303477881
 40
0.5
 50
90.0
 51
94.3321857125
  0
ARC
  8
0
 62
7
  6
CONTINUOUS
 10
50.4993985659
 20
142.9303477881
 40
0.5
 50
85.6678142875
 51
90.0
  0
ARC
  8
0
 62
7
  6
CONTINUOUS
 10
24.5706264032
 20
142.9303477881
 40
0.5
 50
90.0
 51
94.3321857125
  0
ARC
  8
0
 62
7
  6
CONTINUOUS
 10
37.2706264032
 20
142.9303477881
 40
0.5
 50
90.0
 51
94.3321857125
  0
ARC
  8
0
 62
7
  6
CONTINUOUS
 10
37.7993985659
 20
142.9303477881
 40
0.5
 50
85.6678142875
 51
90.0
  0
ARC
  8
0
 62
7
  6
CONTINUOUS
 10
25.0993985659
 20
142.9303477881
 40
0.5
 50
85.6678142875
 51
90.0
  0
ARC
  8
0
 62
7
  6
CONTINUOUS
 10
52.7350124845
 20
141.8898375309
 40
0.5
 50
0.0
 51
44.4153085972
  0
ARC
  8
0
 62
7
  6
CONTINUOUS
 10
47.7350124845
 20
141.8898375309
 40
0.5
 50
135.5846914028
 51
180.0
  0
ARC
  8
0
 62
7
  6
CONTINUOUS
 10
40.0350124845
 20
141.8898375309
 40
0.5
 50
0.0
 51
44.4153085972
  0
ARC
  8
0
 62
7
  6
CONTINUOUS
 10
35.0350124845
 20
141.8898375309
 40
0.5
 50
135.5846914028
 51
180.0
  0
ARC
  8
0
 62
7
  6
CONTINUOUS
 10
27.3350124845
 20
141.8898375309
 40
0.5
 50
0.0
 51
44.4153085972
  0
ARC
  8
0
 62
7
  6
CONTINUOUS
 10
22.3350124845
 20
141.8898375309
 40
0.5
 50
135.5846914028
 51
180.0
  0
ARC
  8
0
 62
7
  6
CONTINUOUS
 10
85.0850124845
 20
135.4575632272
 40
1.0
 50
0.0
 51
14.0
  0
ARC
  8
0
 62
7
  6
CONTINUOUS
 10
72.3850124845
 20
135.4575632272
 40
1.0
 50
0.0
 51
14.0
  0
ARC
  8
0
 62
7
  6
CONTINUOUS
 10
59.6850124845
 20
135.4575632272
 40
1.0
 50
0.0
 51
14.0
  0
ARC
  8
0
 62
7
  6
CONTINUOUS
 10
66.1850124845
 20
135.4575632272
 40
1.0
 50
166.0
 51
180.0
  0
ARC
  8
0
 62
7
  6
CONTINUOUS
 10
78.8850124845
 20
135.4575632272
 40
1.0
 50
166.0
 51
180.0
  0
ARC
  8
0
 62
7
  6
CONTINUOUS
 10
91.5850124845
 20
135.4575632272
 40
1.0
 50
166.0
 51
180.0
  0
ARC
  8
0
 62
7
  6
CONTINUOUS
 10
91.1350124845
 20
138.6129904005
 40
0.2
 50
346.0
 51
360.0
  0
ARC
  8
0
 62
7
  6
CONTINUOUS
 10
85.5350124845
 20
138.6129904005
 40
0.2
 50
180.0
 51
194.0000000001
  0
ARC
  8
0
 62
7
  6
CONTINUOUS
 10
78.4350124845
 20
138.6129904005
 40
0.2
 50
346.0
 51
360.0
  0
ARC
  8
0
 62
7
  6
CONTINUOUS
 10
72.8350124845
 20
138.6129904005
 40
0.2
 50
180.0
 51
194.0000000001
  0
ARC
  8
0
 62
7
  6
CONTINUOUS
 10
65.7350124845
 20
138.6129904005
 40
0.2
 50
346.0
 51
360.0
  0
ARC
  8
0
 62
7
  6
CONTINUOUS
 10
60.1350124845
 20
138.6129904005
 40
0.2
 50
180.0
 51
194.0
  0
ARC
  8
0
 62
7
  6
CONTINUOUS
 10
62.9350124845
 20
139.4403477881
 40
4.0
 50
44.4153085972
 51
85.6678142875
  0
ARC
  8
0
 62
7
  6
CONTINUOUS
 10
62.9350124845
 20
139.4403477881
 40
4.0
 50
94.3321857125
 51
135.5846914028
  0
ARC
  8
0
 62
7
  6
CONTINUOUS
 10
62.6706264032
 20
142.9303477881
 40
0.5
 50
90.0
 51
94.3321857125
  0
ARC
  8
0
 62
7
  6
CONTINUOUS
 10
63.1993985659
 20
142.9303477881
 40
0.5
 50
85.6678142875
 51
90.0
  0
ARC
  8
0
 62
7
  6
CONTINUOUS
 10
75.3706264032
 20
142.9303477881
 40
0.5
 50
90.0
 51
94.3321857125
  0
ARC
  8
0
 62
7
  6
CONTINUOUS
 10
65.4350124845
 20
141.8898375309
 40
0.5
 50
0.0
 51
44.4153085972
  0
ARC
  8
0
 62
7
  6
CONTINUOUS
 10
60.4350124845
 20
141.8898375309
 40
0.5
 50
135.5846914028
 51
180.0
  0
ARC
  8
0
 62
7
  6
CONTINUOUS
 10
73.1350124845
 20
141.8898375309
 40
0.5
 50
135.5846914028
 51
180.0
  0
ARC
  8
0
 62
7
  6
CONTINUOUS
 10
75.6350124845
 20
139.4403477881
 40
4.0
 50
44.4153085972
 51
85.6678142875
  0
ARC
  8
0
 62
7
  6
CONTINUOUS
 10
75.6350124845
 20
139.4403477881
 40
4.0
 50
94.3321857125
 51
135.5846914028
  0
ARC
  8
0
 62
7
  6
CONTINUOUS
 10
88.3350124845
 20
139.4403477881
 40
4.0
 50
44.4153085972
 51
85.6678142875
  0
ARC
  8
0
 62
7
  6
CONTINUOUS
 10
88.3350124845
 20
139.4403477881
 40
4.0
 50
94.3321857125
 51
135.5846914028
  0
ARC
  8
0
 62
7
  6
CONTINUOUS
 10
75.8993985659
 20
142.9303477881
 40
0.5
 50
85.6678142875
 51
90.0
  0
ARC
  8
0
 62
7
  6
CONTINUOUS
 10
88.0706264032
 20
142.9303477881
 40
0.5
 50
90.0
 51
94.3321857125
  0
ARC
  8
0
 62
7
  6
CONTINUOUS
 10
88.5993985659
 20
142.9303477881
 40
0.5
 50
85.6678142875
 51
90.0
  0
ARC
  8
0
 62
7
  6
CONTINUOUS
 10
90.8350124845
 20
141.8898375309
 40
0.5
 50
0.0
 51
44.4153085972
  0
ARC
  8
0
 62
7
  6
CONTINUOUS
 10
85.8350124845
 20
141.8898375309
 40
0.5
 50
135.5846914028
 51
180.0
  0
ARC
  8
0
 62
7
  6
CONTINUOUS
 10
78.1350124845
 20
141.8898375309
 40
0.5
 50
0.0
 51
44.4153085972
  0
ARC
  8
0
 62
7
  6
CONTINUOUS
 10
122.1850124845
 20
129.0401271315
 40
2.0
 50
269.925054615
 51
360.0
  0
ARC
  8
0
 62
7
  6
CONTINUOUS
 10
109.4850124845
 20
129.0567392964
 40
2.0
 50
269.925054615
 51
360.0
  0
ARC
  8
0
 62
7
  6
CONTINUOUS
 10
96.7850124845
 20
129.0733514612
 40
2.0
 50
269.925054615
 51
360.0
  0
ARC
  8
0
 62
7
  6
CONTINUOUS
 10
105.2850124845
 20
129.0622330831
 40
2.0
 50
180.0
 51
269.925054615
  0
ARC
  8
0
 62
7
  6
CONTINUOUS
 10
117.9850124845
 20
129.0456209183
 40
2.0
 50
180.0
 51
269.925054615
  0
ARC
  8
0
 62
7
  6
CONTINUOUS
 10
130.6850124845
 20
129.0290087535
 40
2.0
 50
180.0
 51
269.925054615
  0
ARC
  8
0
 62
7
  6
CONTINUOUS
 10
160.2850124845
 20
128.9902906371
 40
2.0
 50
269.925054615
 51
360.0
  0
ARC
  8
0
 62
7
  6
CONTINUOUS
 10
147.5850124845
 20
129.0069028019
 40
2.0
 50
269.925054615
 51
360.0
  0
ARC
  8
0
 62
7
  6
CONTINUOUS
 10
134.8850124845
 20
129.0235149667
 40
2.0
 50
269.925054615
 51
360.0
  0
ARC
  8
0
 62
7
  6
CONTINUOUS
 10
143.3850124845
 20
129.0123965887
 40
2.0
 50
180.0
 51
269.925054615
  0
ARC
  8
0
 62
7
  6
CONTINUOUS
 10
156.0850124845
 20
128.9957844239
 40
2.0
 50
180.0
 51
269.925054615
  0
ARC
  8
0
 62
7
  6
CONTINUOUS
 10
168.7850124845
 20
128.9791722591
 40
2.0
 50
180.0
 51
269.925054615
  0
ARC
  8
0
 62
7
  6
CONTINUOUS
 10
116.9850124845
 20
135.4575632272
 40
1.0
 50
166.0
 51
180.0
  0
ARC
  8
0
 62
7
  6
CONTINUOUS
 10
129.6850124845
 20
135.4575632272
 40
1.0
 50
166.0
 51
180.0
  0
ARC
  8
0
 62
7
  6
CONTINUOUS
 10
123.1850124845
 20
135.4575632272
 40
1.0
 50
0.0
 51
14.0
  0
ARC
  8
0
 62
7
  6
CONTINUOUS
 10
104.2850124845
 20
135.4575632272
 40
1.0
 50
166.0
 51
180.0
  0
ARC
  8
0
 62
7
  6
CONTINUOUS
 10
110.4850124845
 20
135.4575632272
 40
1.0
 50
0.0
 51
14.0
  0
ARC
  8
0
 62
7
  6
CONTINUOUS
 10
97.7850124845
 20
135.4575632272
 40
1.0
 50
0.0
 51
14.0
  0
ARC
  8
0
 62
7
  6
CONTINUOUS
 10
129.2350124845
 20
138.6129904005
 40
0.2
 50
346.0
 51
360.0
  0
ARC
  8
0
 62
7
  6
CONTINUOUS
 10
123.6350124845
 20
138.6129904005
 40
0.2
 50
180.0
 51
194.0
  0
ARC
  8
0
 62
7
  6
CONTINUOUS
 10
116.5350124845
 20
138.6129904005
 40
0.2
 50
346.0
 51
360.0
  0
ARC
  8
0
 62
7
  6
CONTINUOUS
 10
110.9350124845
 20
138.6129904005
 40
0.2
 50
180.0
 51
194.0
  0
ARC
  8
0
 62
7
  6
CONTINUOUS
 10
103.8350124845
 20
138.6129904005
 40
0.2
 50
346.0
 51
360.0
  0
ARC
  8
0
 62
7
  6
CONTINUOUS
 10
98.2350124845
 20
138.6129904005
 40
0.2
 50
180.0
 51
194.0000000001
  0
ARC
  8
0
 62
7
  6
CONTINUOUS
 10
101.0350124845
 20
139.3917694044
 40
4.0
 50
44.4153085972
 51
85.2164023348
  0
ARC
  8
0
 62
7
  6
CONTINUOUS
 10
101.0350124845
 20
139.3917694044
 40
4.0
 50
93.8807737597
 51
135.5846914028
  0
ARC
  8
0
 62
7
  6
CONTINUOUS
 10
113.7350124845
 20
139.2917087983
 40
4.0
 50
44.4153085972
 51
85.2164023348
  0
ARC
  8
0
 62
7
  6
CONTINUOUS
 10
113.7350124845
 20
139.2917087983
 40
4.0
 50
93.8807737597
 51
135.5846914028
  0
ARC
  8
0
 62
7
  6
CONTINUOUS
 10
126.4350124845
 20
139.1916481923
 40
4.0
 50
44.4153085972
 51
85.2164023348
  0
ARC
  8
0
 62
7
  6
CONTINUOUS
 10
126.4350124845
 20
139.1916481923
 40
4.0
 50
93.8807737597
 51
135.5846914028
  0
ARC
  8
0
 62
7
  6
CONTINUOUS
 10
126.1981302054
 20
142.6836228321
 40
0.500000002
 50
89.5485285187
 51
93.880714184
  0
ARC
  8
0
 62
7
  6
CONTINUOUS
 10
100.7981302054
 20
142.8837440442
 40
0.500000002
 50
89.5485285187
 51
93.880714184
  0
ARC
  8
0
 62
7
  6
CONTINUOUS
 10
113.4981302054
 20
142.7836834382
 40
0.500000002
 50
89.5485285187
 51
93.880714184
  0
ARC
  8
0
 62
7
  6
CONTINUOUS
 10
126.7268864766
 20
142.6794568987
 40
0.5
 50
85.2164023348
 51
89.5485880472
  0
ARC
  8
0
 62
7
  6
CONTINUOUS
 10
101.3268864766
 20
142.8795781108
 40
0.5
 50
85.2164023348
 51
89.5485880472
  0
ARC
  8
0
 62
7
  6
CONTINUOUS
 10
114.0268864766
 20
142.7795175048
 40
0.5
 50
85.2164023348
 51
89.5485880472
  0
ARC
  8
0
 62
7
  6
CONTINUOUS
 10
103.5350124845
 20
141.8412591472
 40
0.5
 50
0.0
 51
44.4153085972
  0
ARC
  8
0
 62
7
  6
CONTINUOUS
 10
98.5350124845
 20
141.8412591472
 40
0.5
 50
135.5846914028
 51
180.0
  0
ARC
  8
0
 62
7
  6
CONTINUOUS
 10
116.2350124845
 20
141.7411985411
 40
0.5
 50
0.0
 51
44.4153085972
  0
ARC
  8
0
 62
7
  6
CONTINUOUS
 10
111.2350124845
 20
141.7411985411
 40
0.5
 50
135.5846914028
 51
180.0
  0
ARC
  8
0
 62
7
  6
CONTINUOUS
 10
128.9350124845
 20
141.641137935
 40
0.5
 50
0.0
 51
44.4153085972
  0
ARC
  8
0
 62
7
  6
CONTINUOUS
 10
123.9350124845
 20
141.641137935
 40
0.5
 50
135.5846914028
 51
180.0
  0
ARC
  8
0
 62
7
  6
CONTINUOUS
 10
139.1350124845
 20
139.0915875862
 40
4.0
 50
44.4153085972
 51
85.2164023348
  0
ARC
  8
0
 62
7
  6
CONTINUOUS
 10
139.1350124845
 20
139.0915875862
 40
4.0
 50
93.8807737597
 51
135.5846914028
  0
ARC
  8
0
 62
7
  6
CONTINUOUS
 10
151.8350124845
 20
138.9915269801
 40
4.0
 50
44.4153085972
 51
85.2164023348
  0
ARC
  8
0
 62
7
  6
CONTINUOUS
 10
151.8350124845
 20
138.9915269801
 40
4.0
 50
93.8807737597
 51
135.5846914028
  0
ARC
  8
0
 62
7
  6
CONTINUOUS
 10
164.5350124845
 20
138.8914663741
 40
4.0
 50
44.4153085972
 51
85.2164023348
  0
ARC
  8
0
 62
7
  6
CONTINUOUS
 10
164.5350124845
 20
138.8914663741
 40
4.0
 50
93.8807737597
 51
135.5846914028
  0
ARC
  8
0
 62
7
  6
CONTINUOUS
 10
135.8850124845
 20
135.4575632272
 40
1.0
 50
0.0
 51
14.0
  0
ARC
  8
0
 62
7
  6
CONTINUOUS
 10
148.5850124845
 20
135.4575632272
 40
1.0
 50
0.0
 51
14.0
  0
ARC
  8
0
 62
7
  6
CONTINUOUS
 10
161.2850124845
 20
135.4575632272
 40
1.0
 50
0.0
 51
14.0
  0
ARC
  8
0
 62
7
  6
CONTINUOUS
 10
167.7850124845
 20
135.4575632272
 40
1.0
 50
166.0
 51
180.0
  0
ARC
  8
0
 62
7
  6
CONTINUOUS
 10
142.3850124845
 20
135.4575632272
 40
1.0
 50
166.0
 51
180.0
  0
ARC
  8
0
 62
7
  6
CONTINUOUS
 10
155.0850124845
 20
135.4575632272
 40
1.0
 50
166.0
 51
180.0
  0
ARC
  8
0
 62
7
  6
CONTINUOUS
 10
167.3350124845
 20
138.6129904005
 40
0.2
 50
346.0
 51
360.0
  0
ARC
  8
0
 62
7
  6
CONTINUOUS
 10
161.7350124845
 20
138.6129904005
 40
0.2
 50
180.0
 51
194.0
  0
ARC
  8
0
 62
7
  6
CONTINUOUS
 10
154.6350124845
 20
138.6129904005
 40
0.2
 50
346.0
 51
360.0
  0
ARC
  8
0
 62
7
  6
CONTINUOUS
 10
149.0350124845
 20
138.6129904005
 40
0.2
 50
180.0
 51
194.0
  0
ARC
  8
0
 62
7
  6
CONTINUOUS
 10
141.9350124845
 20
138.6129904005
 40
0.2
 50
346.0
 51
360.0
  0
ARC
  8
0
 62
7
  6
CONTINUOUS
 10
136.3350124845
 20
138.6129904005
 40
0.2
 50
180.0
 51
194.0
  0
ARC
  8
0
 62
7
  6
CONTINUOUS
 10
138.8981302054
 20
142.583562226
 40
0.500000002
 50
89.5485285187
 51
93.880714184
  0
ARC
  8
0
 62
7
  6
CONTINUOUS
 10
151.5981302054
 20
142.48350162
 40
0.500000002
 50
89.5485285187
 51
93.880714184
  0
ARC
  8
0
 62
7
  6
CONTINUOUS
 10
164.2981302054
 20
142.3834410139
 40
0.500000002
 50
89.5485285187
 51
93.880714184
  0
ARC
  8
0
 62
7
  6
CONTINUOUS
 10
139.4268864766
 20
142.5793962926
 40
0.5
 50
85.2164023348
 51
89.5485880472
  0
ARC
  8
0
 62
7
  6
CONTINUOUS
 10
152.1268864766
 20
142.4793356866
 40
0.5
 50
85.2164023348
 51
89.5485880472
  0
ARC
  8
0
 62
7
  6
CONTINUOUS
 10
164.8268864766
 20
142.3792750805
 40
0.5
 50
85.2164023348
 51
89.5485880472
  0
ARC
  8
0
 62
7
  6
CONTINUOUS
 10
141.6350124845
 20
141.541077329
 40
0.5
 50
0.0
 51
44.4153085972
  0
ARC
  8
0
 62
7
  6
CONTINUOUS
 10
136.6350124845
 20
141.541077329
 40
0.5
 50
135.5846914028
 51
180.0
  0
ARC
  8
0
 62
7
  6
CONTINUOUS
 10
149.3350124845
 20
141.4410167229
 40
0.5
 50
135.5846914028
 51
180.0
  0
ARC
  8
0
 62
7
  6
CONTINUOUS
 10
154.3350124845
 20
141.4410167229
 40
0.5
 50
0.0
 51
44.4153085972
  0
ARC
  8
0
 62
7
  6
CONTINUOUS
 10
167.0350124845
 20
141.3409561169
 40
0.5
 50
0.0
 51
44.4153085972
  0
ARC
  8
0
 62
7
  6
CONTINUOUS
 10
162.0350124845
 20
141.3409561169
 40
0.5
 50
135.5846914028
 51
180.0
  0
ARC
  8
0
 62
7
  6
CONTINUOUS
 10
173.1350124845
 20
110.7441589661
 40
0.75
 50
270.45141194
 51
359.9999983723
  0
ARC
  8
0
 62
7
  6
CONTINUOUS
 10
236.6350124845
 20
111.2444620095
 40
0.75
 50
270.4514119321
 51
359.9999973732
  0
ARC
  8
0
 62
7
  6
CONTINUOUS
 10
181.3350124845
 20
110.8087650267
 40
0.75
 50
180.0000016277
 51
270.45141194
  0
ARC
  8
0
 62
7
  6
CONTINUOUS
 10
185.8350124845
 20
110.8442195722
 40
0.75
 50
270.45141194
 51
359.9999983723
  0
ARC
  8
0
 62
7
  6
CONTINUOUS
 10
194.0350124845
 20
110.9088256328
 40
0.75
 50
180.0000016277
 51
270.45141194
  0
ARC
  8
0
 62
7
  6
CONTINUOUS
 10
198.5350124845
 20
110.9442801925
 40
0.75
 50
270.4514119313
 51
359.9999972793
  0
ARC
  8
0
 62
7
  6
CONTINUOUS
 10
206.7350124845
 20
111.0088862525
 40
0.75
 50
180.0000026715
 51
270.4514119317
  0
ARC
  8
0
 62
7
  6
CONTINUOUS
 10
211.2350124845
 20
111.0443407976
 40
0.75
 50
270.4514119319
 51
359.9999973564
  0
ARC
  8
0
 62
7
  6
CONTINUOUS
 10
219.4350124845
 20
111.1089468594
 40
0.75
 50
180.0000027335
 51
270.4514119312
  0
ARC
  8
0
 62
7
  6
CONTINUOUS
 10
223.9350124845
 20
111.1444014045
 40
0.75
 50
270.4514119314
 51
359.9999972929
  0
ARC
  8
0
 62
7
  6
CONTINUOUS
 10
232.1350124845
 20
111.2090074644
 40
0.75
 50
180.0000026536
 51
270.4514119319
  0
ARC
  8
0
 62
7
  6
CONTINUOUS
 10
244.8350124845
 20
111.3090680713
 40
0.75
 50
180.0000027195
 51
270.4514119313
  0
ARC
  8
0
 62
7
  6
CONTINUOUS
 10
173.6850124208
 20
114.1477054315
 40
0.2
 50
359.9999267414
 51
13.9999244986
  0
ARC
  8
0
 62
7
  6
CONTINUOUS
 10
180.7850124845
 20
114.1477051758
 40
0.2
 50
166.0
 51
180.0
  0
ARC
  8
0
 62
7
  6
CONTINUOUS
 10
199.0850124301
 20
114.1477053941
 40
0.2
 50
359.999937457
 51
13.9999355423
  0
ARC
  8
0
 62
7
  6
CONTINUOUS
 10
206.1850124845
 20
114.1477051758
 40
0.2
 50
166.0
 51
180.0
  0
ARC
  8
0
 62
7
  6
CONTINUOUS
 10
224.4850124139
 20
114.1477054593
 40
0.2
 50
359.9999187789
 51
13.9999162924
  0
ARC
  8
0
 62
7
  6
CONTINUOUS
 10
231.5850124845
 20
114.1477051758
 40
0.2
 50
166.0
 51
180.0
  0
ARC
  8
0
 62
7
  6
CONTINUOUS
 10
186.3850124208
 20
114.1477054315
 40
0.2
 50
359.9999267414
 51
13.9999244986
  0
ARC
  8
0
 62
7
  6
CONTINUOUS
 10
193.4850124845
 20
114.1477051758
 40
0.2
 50
166.0
 51
180.0
  0
ARC
  8
0
 62
7
  6
CONTINUOUS
 10
211.7850124167
 20
114.147705448
 40
0.2
 50
359.9999220205
 51
13.9999196333
  0
ARC
  8
0
 62
7
  6
CONTINUOUS
 10
218.8850124845
 20
114.1477051758
 40
0.2
 50
166.0
 51
180.0
  0
ARC
  8
0
 62
7
  6
CONTINUOUS
 10
237.1850124286
 20
114.1477054003
 40
0.2
 50
359.999935688
 51
13.9999337191
  0
ARC
  8
0
 62
7
  6
CONTINUOUS
 10
244.2850124845
 20
114.1477051758
 40
0.2
 50
166.0
 51
180.0
  0
ARC
  8
0
 62
7
  6
CONTINUOUS
 10
180.3350124845
 20
117.303132349
 40
1.0
 50
346.0
 51
360.0
  0
ARC
  8
0
 62
7
  6
CONTINUOUS
 10
174.1350124845
 20
117.303132349
 40
1.0
 50
180.0
 51
194.0
  0
ARC
  8
0
 62
7
  6
CONTINUOUS
 10
186.8350124845
 20
117.303132349
 40
1.0
 50
180.0
 51
194.0
  0
ARC
  8
0
 62
7
  6
CONTINUOUS
 10
199.5350124845
 20
117.303132349
 40
1.0
 50
180.0
 51
194.0
  0
ARC
  8
0
 62
7
  6
CONTINUOUS
 10
205.7350124845
 20
117.303132349
 40
1.0
 50
346.0
 51
360.0
  0
ARC
  8
0
 62
7
  6
CONTINUOUS
 10
193.0350124845
 20
117.303132349
 40
1.0
 50
346.0
 51
360.0
  0
ARC
  8
0
 62
7
  6
CONTINUOUS
 10
203.2350124845
 20
120.6726478581
 40
3.5
 50
0.0
 51
88.8542371618
  0
ARC
  8
0
 62
7
  6
CONTINUOUS
 10
202.0350124845
 20
120.6966478581
 40
3.5
 50
88.8542371618
 51
180.0
  0
ARC
  8
0
 62
7
  6
CONTINUOUS
 10
191.0350124845
 20
121.4167478481
 40
3.0
 50
0.0
 51
88.8542371618
  0
ARC
  8
0
 62
7
  6
CONTINUOUS
 10
188.8350124845
 20
121.4607478481
 40
3.0
 50
88.8542371618
 51
180.0
  0
ARC
  8
0
 62
7
  6
CONTINUOUS
 10
176.0587268054
 20
121.7925744964
 40
2.9237143209
 50
88.8542371618
 51
180.0
  0
ARC
  8
0
 62
7
  6
CONTINUOUS
 10
178.4593000287
 20
121.7925744965
 40
2.8757124558
 50
0.0
 51
88.8542371618
  0
ARC
  8
0
 62
7
  6
CONTINUOUS
 10
212.2350124845
 20
117.303132349
 40
1.0
 50
180.0
 51
194.0
  0
ARC
  8
0
 62
7
  6
CONTINUOUS
 10
224.9350124845
 20
117.303132349
 40
1.0
 50
180.0
 51
194.0
  0
ARC
  8
0
 62
7
  6
CONTINUOUS
 10
237.6350124845
 20
117.303132349
 40
1.0
 50
180.0
 51
194.0
  0
ARC
  8
0
 62
7
  6
CONTINUOUS
 10
243.8350124845
 20
117.303132349
 40
1.0
 50
346.0
 51
360.0
  0
ARC
  8
0
 62
7
  6
CONTINUOUS
 10
231.1350124845
 20
117.303132349
 40
1.0
 50
346.0
 51
360.0
  0
ARC
  8
0
 62
7
  6
CONTINUOUS
 10
218.4350124845
 20
117.303132349
 40
1.0
 50
346.0
 51
360.0
  0
ARC
  8
0
 62
7
  6
CONTINUOUS
 10
241.3350124845
 20
120.2663608914
 40
3.5
 50
0.0
 51
89.7215970428
  0
ARC
  8
0
 62
7
  6
CONTINUOUS
 10
240.1350124845
 20
120.2721917952
 40
3.5
 50
89.7215970428
 51
180.0
  0
ARC
  8
0
 62
7
  6
CONTINUOUS
 10
228.6350124845
 20
120.3280712898
 40
3.5
 50
0.0
 51
89.7215970428
  0
ARC
  8
0
 62
7
  6
CONTINUOUS
 10
227.4350124845
 20
120.3339021936
 40
3.5
 50
89.7215970428
 51
180.0
  0
ARC
  8
0
 62
7
  6
CONTINUOUS
 10
215.9350124845
 20
120.3897816883
 40
3.5
 50
0.0
 51
89.7215970428
  0
ARC
  8
0
 62
7
  6
CONTINUOUS
 10
214.7350124845
 20
120.3956125921
 40
3.5
 50
89.7215970428
 51
180.0
  0
ARC
  8
0
 62
7
  6
CONTINUOUS
 10
318.2850124845
 20
111.0918436023
 40
2.5
 50
232.0
 51
360.0
  0
ARC
  8
0
 62
7
  6
CONTINUOUS
 10
301.1850124845
 20
112.0303477881
 40
2.2
 50
180.0
 51
270.0
  0
ARC
  8
0
 62
7
  6
CONTINUOUS
 10
302.7850124845
 20
112.0303477881
 40
2.2
 50
270.0
 51
360.0
  0
ARC
  8
0
 62
7
  6
CONTINUOUS
 10
286.9850124845
 20
112.0303477881
 40
2.2
 50
180.0
 51
270.0
  0
ARC
  8
0
 62
7
  6
CONTINUOUS
 10
288.5850124845
 20
112.0303477881
 40
2.2
 50
270.0
 51
360.0
  0
ARC
  8
0
 62
7
  6
CONTINUOUS
 10
272.9850124845
 20
112.0303477881
 40
2.2
 50
180.0
 51
270.0
  0
ARC
  8
0
 62
7
  6
CONTINUOUS
 10
274.5850124845
 20
112.0303477881
 40
2.2
 50
270.0
 51
360.0
  0
ARC
  8
0
 62
7
  6
CONTINUOUS
 10
258.9850124845
 20
112.0303477881
 40
2.2
 50
180.0
 51
270.0
  0
ARC
  8
0
 62
7
  6
CONTINUOUS
 10
260.5850124845
 20
112.0303477881
 40
2.2
 50
270.0
 51
360.0
  0
ARC
  8
0
 62
7
  6
CONTINUOUS
 10
249.3350124845
 20
111.3445226164
 40
0.75
 50
270.4514119316
 51
359.9999973081
  0
ARC
  8
0
 62
7
  6
CONTINUOUS
 10
315.3350124845
 20
110.4778943058
 40
0.2
 50
180.0
 51
232.0
  0
ARC
  8
0
 62
7
  6
CONTINUOUS
 10
304.7850124845
 20
114.3477051758
 40
0.2
 50
0.0
 51
14.0
  0
ARC
  8
0
 62
7
  6
CONTINUOUS
 10
249.8850124254
 20
114.147705413
 40
0.2
 50
359.99993204
 51
13.9999299595
  0
ARC
  8
0
 62
7
  6
CONTINUOUS
 10
256.9850124845
 20
114.1477051758
 40
0.2
 50
166.0
 51
180.0
  0
ARC
  8
0
 62
7
  6
CONTINUOUS
 10
262.5850124618
 20
114.3477052669
 40
0.2
 50
359.9999738949
 51
13.9999730956
  0
ARC
  8
0
 62
7
  6
CONTINUOUS
 10
270.9850124845
 20
113.9832762861
 40
0.2
 50
166.0
 51
180.0
  0
ARC
  8
0
 62
7
  6
CONTINUOUS
 10
276.5850124618
 20
114.3477052669
 40
0.2
 50
359.9999738949
 51
13.9999730956
  0
ARC
  8
0
 62
7
  6
CONTINUOUS
 10
284.9850124845
 20
114.3477051758
 40
0.2
 50
166.0
 51
180.0
  0
ARC
  8
0
 62
7
  6
CONTINUOUS
 10
290.5850124618
 20
114.3477052669
 40
0.2
 50
359.9999738949
 51
13.9999730956
  0
ARC
  8
0
 62
7
  6
CONTINUOUS
 10
299.1850124845
 20
114.3477051758
 40
0.2
 50
166.0
 51
180.0
  0
ARC
  8
0
 62
7
  6
CONTINUOUS
 10
256.5350124845
 20
117.303132349
 40
1.0
 50
346.0
 51
360.0
  0
ARC
  8
0
 62
7
  6
CONTINUOUS
 10
250.3350124845
 20
117.303132349
 40
1.0
 50
180.0
 51
194.0
  0
ARC
  8
0
 62
7
  6
CONTINUOUS
 10
277.0350124845
 20
117.503132349
 40
1.0
 50
180.0
 51
194.0
  0
ARC
  8
0
 62
7
  6
CONTINUOUS
 10
270.5350124845
 20
117.1387034593
 40
1.0
 50
346.0
 51
360.0
  0
ARC
  8
0
 62
7
  6
CONTINUOUS
 10
263.0350124845
 20
117.503132349
 40
1.0
 50
180.0
 51
194.0
  0
ARC
  8
0
 62
7
  6
CONTINUOUS
 10
282.0350124845
 20
120.0685960712
 40
3.5
 50
0.0
 51
89.7215970428
  0
ARC
  8
0
 62
7
  6
CONTINUOUS
 10
279.5350124845
 20
120.0807437874
 40
3.5
 50
89.7215970428
 51
180.0
  0
ARC
  8
0
 62
7
  6
CONTINUOUS
 10
268.0350124845
 20
120.136623282
 40
3.5
 50
0.0
 51
89.7215970428
  0
ARC
  8
0
 62
7
  6
CONTINUOUS
 10
265.5350124845
 20
120.1487709983
 40
3.5
 50
89.7215970428
 51
180.0
  0
ARC
  8
0
 62
7
  6
CONTINUOUS
 10
254.0350124845
 20
120.2046504929
 40
3.5
 50
0.0
 51
89.7215970428
  0
ARC
  8
0
 62
7
  6
CONTINUOUS
 10
252.8350124845
 20
120.2104813967
 40
3.5
 50
89.7215970428
 51
180.0
  0
ARC
  8
0
 62
7
  6
CONTINUOUS
 10
310.5350124845
 20
118.8300991203
 40
4.6
 50
0.3286291128
 51
89.7215970428
  0
ARC
  8
0
 62
7
  6
CONTINUOUS
 10
291.0350124845
 20
117.503132349
 40
1.0
 50
180.0
 51
194.0
  0
ARC
  8
0
 62
7
  6
CONTINUOUS
 10
305.2350124845
 20
117.503132349
 40
1.0
 50
180.0
 51
194.0
  0
ARC
  8
0
 62
7
  6
CONTINUOUS
 10
298.7350124845
 20
117.503132349
 40
1.0
 50
346.0
 51
360.0
  0
ARC
  8
0
 62
7
  6
CONTINUOUS
 10
284.5350124845
 20
117.503132349
 40
1.0
 50
346.0
 51
360.0
  0
ARC
  8
0
 62
7
  6
CONTINUOUS
 10
307.7350124845
 20
119.9437175483
 40
3.5
 50
89.7215970428
 51
180.0
  0
ARC
  8
0
 62
7
  6
CONTINUOUS
 10
296.2350124845
 20
119.999597043
 40
3.5
 50
0.0
 51
89.7215970428
  0
ARC
  8
0
 62
7
  6
CONTINUOUS
 10
293.5350124845
 20
120.0127165765
 40
3.5
 50
89.7215970428
 51
180.0
  0
ARC
  8
0
 62
7
  6
CONTINUOUS
 10
317.7850124845
 20
120.6026674931
 40
3.0
 50
0.0
 51
74.1733798681
  0
ARC
  8
0
 62
7
  6
CONTINUOUS
 10
198.3850124845
 20
128.9404541427
 40
2.0
 50
269.925054615
 51
360.0
  0
ARC
  8
0
 62
7
  6
CONTINUOUS
 10
185.6850124845
 20
128.9570663075
 40
2.0
 50
269.925054615
 51
360.0
  0
ARC
  8
0
 62
7
  6
CONTINUOUS
 10
172.9850124845
 20
128.9736784723
 40
2.0
 50
269.925054615
 51
360.0
  0
ARC
  8
0
 62
7
  6
CONTINUOUS
 10
206.8850124845
 20
128.9293357646
 40
2.0
 50
180.0
 51
269.925054615
  0
ARC
  8
0
 62
7
  6
CONTINUOUS
 10
194.1850124845
 20
128.9459479295
 40
2.0
 50
180.0
 51
269.925054615
  0
ARC
  8
0
 62
7
  6
CONTINUOUS
 10
181.4850124845
 20
128.9625600943
 40
2.0
 50
180.0
 51
269.925054615
  0
ARC
  8
0
 62
7
  6
CONTINUOUS
 10
244.9850124845
 20
128.8794992702
 40
2.0
 50
180.0
 51
269.925054615
  0
ARC
  8
0
 62
7
  6
CONTINUOUS
 10
232.2850124845
 20
128.896111435
 40
2.0
 50
180.0
 51
269.925054615
  0
ARC
  8
0
 62
7
  6
CONTINUOUS
 10
236.4850124845
 20
128.8906176482
 40
2.0
 50
269.925054615
 51
360.0
  0
ARC
  8
0
 62
7
  6
CONTINUOUS
 10
223.7850124845
 20
128.907229813
 40
2.0
 50
269.925054615
 51
360.0
  0
ARC
  8
0
 62
7
  6
CONTINUOUS
 10
211.0850124845
 20
128.9238419778
 40
2.0
 50
269.925054615
 51
360.0
  0
ARC
  8
0
 62
7
  6
CONTINUOUS
 10
219.5850124845
 20
128.9127235998
 40
2.0
 50
180.0
 51
269.925054615
  0
ARC
  8
0
 62
7
  6
CONTINUOUS
 10
177.2350124845
 20
138.791405768
 40
4.0
 50
93.8807737597
 51
135.5846914028
  0
ARC
  8
0
 62
7
  6
CONTINUOUS
 10
177.2350124845
 20
138.791405768
 40
4.0
 50
44.4153085972
 51
85.2164023348
  0
ARC
  8
0
 62
7
  6
CONTINUOUS
 10
189.9350124845
 20
138.6913451619
 40
4.0
 50
44.4153085972
 51
85.2164023348
  0
ARC
  8
0
 62
7
  6
CONTINUOUS
 10
189.9350124845
 20
138.6913451619
 40
4.0
 50
93.8807737597
 51
135.5846914028
  0
ARC
  8
0
 62
7
  6
CONTINUOUS
 10
202.6350124845
 20
138.5912845559
 40
4.0
 50
44.4153085972
 51
85.2164023348
  0
ARC
  8
0
 62
7
  6
CONTINUOUS
 10
202.6350124845
 20
138.5912845559
 40
4.0
 50
93.8807737597
 51
135.5846914028
  0
ARC
  8
0
 62
7
  6
CONTINUOUS
 10
173.9850124845
 20
135.4575632272
 40
1.0
 50
0.0
 51
14.0
  0
ARC
  8
0
 62
7
  6
CONTINUOUS
 10
186.6850124845
 20
135.4575632272
 40
1.0
 50
0.0
 51
14.0
  0
ARC
  8
0
 62
7
  6
CONTINUOUS
 10
199.3850124845
 20
135.4575632272
 40
1.0
 50
0.0
 51
14.0
  0
ARC
  8
0
 62
7
  6
CONTINUOUS
 10
193.1850124845
 20
135.4575632272
 40
1.0
 50
166.0
 51
180.0
  0
ARC
  8
0
 62
7
  6
CONTINUOUS
 10
180.4850124845
 20
135.4575632272
 40
1.0
 50
166.0
 51
180.0
  0
ARC
  8
0
 62
7
  6
CONTINUOUS
 10
205.8850124845
 20
135.4575632272
 40
1.0
 50
166.0
 51
180.0
  0
ARC
  8
0
 62
7
  6
CONTINUOUS
 10
174.4350124845
 20
138.6129904005
 40
0.2
 50
180.0
 51
194.0
  0
ARC
  8
0
 62
7
  6
CONTINUOUS
 10
205.4350124845
 20
138.6129904005
 40
0.2
 50
346.0
 51
360.0
  0
ARC
  8
0
 62
7
  6
CONTINUOUS
 10
199.8350124845
 20
138.6129904005
 40
0.2
 50
180.0
 51
194.0
  0
ARC
  8
0
 62
7
  6
CONTINUOUS
 10
192.7350124845
 20
138.6129904005
 40
0.2
 50
346.0
 51
360.0
  0
ARC
  8
0
 62
7
  6
CONTINUOUS
 10
187.1350124845
 20
138.6129904005
 40
0.2
 50
180.0
 51
194.0
  0
ARC
  8
0
 62
7
  6
CONTINUOUS
 10
180.0350124845
 20
138.6129904005
 40
0.2
 50
346.0
 51
360.0
  0
ARC
  8
0
 62
7
  6
CONTINUOUS
 10
179.7350124845
 20
141.2408955108
 40
0.5
 50
0.0
 51
44.4153085972
  0
ARC
  8
0
 62
7
  6
CONTINUOUS
 10
174.7350124845
 20
141.2408955108
 40
0.5
 50
135.5846914028
 51
180.0
  0
ARC
  8
0
 62
7
  6
CONTINUOUS
 10
187.4350124845
 20
141.1408349047
 40
0.5
 50
135.5846914028
 51
180.0
  0
ARC
  8
0
 62
7
  6
CONTINUOUS
 10
176.9981307251
 20
142.2833804289
 40
0.5
 50
89.5485880472
 51
93.8807737597
  0
ARC
  8
0
 62
7
  6
CONTINUOUS
 10
177.5268864766
 20
142.2792144745
 40
0.5
 50
85.2164023348
 51
89.5485880472
  0
ARC
  8
0
 62
7
  6
CONTINUOUS
 10
189.6981307251
 20
142.1833198228
 40
0.5
 50
89.5485880472
 51
93.8807737597
  0
ARC
  8
0
 62
7
  6
CONTINUOUS
 10
192.4350124845
 20
141.1408349047
 40
0.5
 50
0.0
 51
44.4153085972
  0
ARC
  8
0
 62
7
  6
CONTINUOUS
 10
205.1350124845
 20
141.0407742987
 40
0.5
 50
0.0
 51
44.4153085972
  0
ARC
  8
0
 62
7
  6
CONTINUOUS
 10
200.1350124845
 20
141.0407742987
 40
0.5
 50
135.5846914028
 51
180.0
  0
ARC
  8
0
 62
7
  6
CONTINUOUS
 10
190.2268864766
 20
142.1791538684
 40
0.5
 50
85.2164023348
 51
89.5485880472
  0
ARC
  8
0
 62
7
  6
CONTINUOUS
 10
202.3981307251
 20
142.0832592167
 40
0.5
 50
89.5485880472
 51
93.8807737597
  0
ARC
  8
0
 62
7
  6
CONTINUOUS
 10
202.9268864766
 20
142.0790932623
 40
0.5
 50
85.2164023348
 51
89.5485880472
  0
ARC
  8
0
 62
7
  6
CONTINUOUS
 10
215.3350124845
 20
138.4912239498
 40
4.0
 50
44.4153085972
 51
85.2164023348
  0
ARC
  8
0
 62
7
  6
CONTINUOUS
 10
215.3350124845
 20
138.4912239498
 40
4.0
 50
93.8807737597
 51
135.5846914028
  0
ARC
  8
0
 62
7
  6
CONTINUOUS
 10
228.0350124845
 20
138.3911633438
 40
4.0
 50
93.8807737597
 51
135.5846914028
  0
ARC
  8
0
 62
7
  6
CONTINUOUS
 10
228.0350124845
 20
138.3911633438
 40
4.0
 50
44.4153085972
 51
85.2164023348
  0
ARC
  8
0
 62
7
  6
CONTINUOUS
 10
240.7350124845
 20
138.2911027377
 40
4.0
 50
44.4153085972
 51
85.2164023348
  0
ARC
  8
0
 62
7
  6
CONTINUOUS
 10
240.7350124845
 20
138.2911027377
 40
4.0
 50
93.8807737597
 51
135.5846914028
  0
ARC
  8
0
 62
7
  6
CONTINUOUS
 10
231.2850124845
 20
135.4575632272
 40
1.0
 50
166.0
 51
180.0
  0
ARC
  8
0
 62
7
  6
CONTINUOUS
 10
237.4850124845
 20
135.4575632272
 40
1.0
 50
0.0
 51
14.0
  0
ARC
  8
0
 62
7
  6
CONTINUOUS
 10
218.5850124845
 20
135.4575632272
 40
1.0
 50
166.0
 51
180.0
  0
ARC
  8
0
 62
7
  6
CONTINUOUS
 10
224.7850124845
 20
135.4575632272
 40
1.0
 50
0.0
 51
14.0
  0
ARC
  8
0
 62
7
  6
CONTINUOUS
 10
243.9850124845
 20
135.4575632272
 40
1.0
 50
166.0
 51
180.0
  0
ARC
  8
0
 62
7
  6
CONTINUOUS
 10
212.0850124845
 20
135.4575632272
 40
1.0
 50
0.0
 51
14.0
  0
ARC
  8
0
 62
7
  6
CONTINUOUS
 10
243.5350124845
 20
138.6129904005
 40
0.2
 50
346.0
 51
360.0
  0
ARC
  8
0
 62
7
  6
CONTINUOUS
 10
237.9350124845
 20
138.6129904005
 40
0.2
 50
180.0
 51
194.0000000002
  0
ARC
  8
0
 62
7
  6
CONTINUOUS
 10
230.8350124845
 20
138.6129904005
 40
0.2
 50
346.0
 51
360.0
  0
ARC
  8
0
 62
7
  6
CONTINUOUS
 10
225.2350124845
 20
138.6129904005
 40
0.2
 50
180.0
 51
194.0
  0
ARC
  8
0
 62
7
  6
CONTINUOUS
 10
218.1350124845
 20
138.6129904005
 40
0.2
 50
346.0
 51
360.0
  0
ARC
  8
0
 62
7
  6
CONTINUOUS
 10
212.5350124845
 20
138.6129904005
 40
0.2
 50
180.0
 51
194.0
  0
ARC
  8
0
 62
7
  6
CONTINUOUS
 10
217.8350124845
 20
140.9407136926
 40
0.5
 50
0.0
 51
44.4153085972
  0
ARC
  8
0
 62
7
  6
CONTINUOUS
 10
212.8350124845
 20
140.9407136926
 40
0.5
 50
135.5846914028
 51
180.0
  0
ARC
  8
0
 62
7
  6
CONTINUOUS
 10
225.5350124845
 20
140.8406530865
 40
0.5
 50
135.5846914028
 51
180.0
  0
ARC
  8
0
 62
7
  6
CONTINUOUS
 10
215.0981307251
 20
141.9831986107
 40
0.5
 50
89.5485880472
 51
93.8807737597
  0
ARC
  8
0
 62
7
  6
CONTINUOUS
 10
215.6268864766
 20
141.9790326563
 40
0.5
 50
85.2164023348
 51
89.5485880472
  0
ARC
  8
0
 62
7
  6
CONTINUOUS
 10
227.7981307251
 20
141.8831380046
 40
0.5
 50
89.5485880472
 51
93.8807737597
  0
ARC
  8
0
 62
7
  6
CONTINUOUS
 10
230.5350124845
 20
140.8406530865
 40
0.5
 50
0.0
 51
44.4153085972
  0
ARC
  8
0
 62
7
  6
CONTINUOUS
 10
243.2350124845
 20
140.7405924805
 40
0.5
 50
0.0
 51
44.4153085972
  0
ARC
  8
0
 62
7
  6
CONTINUOUS
 10
238.2350124845
 20
140.7405924805
 40
0.5
 50
135.5846914028
 51
180.0
  0
ARC
  8
0
 62
7
  6
CONTINUOUS
 10
228.3268864766
 20
141.8789720502
 40
0.5
 50
85.2164023348
 51
89.5485880472
  0
ARC
  8
0
 62
7
  6
CONTINUOUS
 10
240.4981307251
 20
141.7830773986
 40
0.5
 50
89.5485880472
 51
93.8807737597
  0
ARC
  8
0
 62
7
  6
CONTINUOUS
 10
241.0268864766
 20
141.7789114441
 40
0.5
 50
85.2164023348
 51
89.5485880472
  0
ARC
  8
0
 62
7
  6
CONTINUOUS
 10
274.7293427863
 20
127.776150651
 40
2.0
 50
269.7564288271
 51
328.0
  0
ARC
  8
0
 62
7
  6
CONTINUOUS
 10
272.7465720526
 20
127.7845796959
 40
2.0
 50
212.0
 51
269.7564288271
  0
ARC
  8
0
 62
7
  6
CONTINUOUS
 10
260.8793427863
 20
127.9350299064
 40
2.0
 50
269.7564288271
 51
328.0
  0
ARC
  8
0
 62
7
  6
CONTINUOUS
 10
258.5788750634
 20
127.9448095272
 40
2.0
 50
222.0
 51
269.7564288271
  0
ARC
  8
0
 62
7
  6
CONTINUOUS
 10
249.1850124845
 20
128.8740054834
 40
2.0
 50
269.925054615
 51
360.0
  0
ARC
  8
0
 62
7
  6
CONTINUOUS
 10
256.6850124845
 20
128.5536804588
 40
1.0
 50
180.0
 51
222.0
  0
ARC
  8
0
 62
7
  6
CONTINUOUS
 10
273.5350124845
 20
131.5260623743
 40
5.0
 50
328.0
 51
360.0
  0
ARC
  8
0
 62
7
  6
CONTINUOUS
 10
274.0350124845
 20
131.3838837285
 40
5.0
 50
180.0
 51
212.0
  0
ARC
  8
0
 62
7
  6
CONTINUOUS
 10
263.5350124845
 20
130.2979099074
 40
1.0
 50
328.0
 51
360.0
  0
ARC
  8
0
 62
7
  6
CONTINUOUS
 10
286.7965720526
 20
127.6248502116
 40
2.0
 50
212.0
 51
269.7564288271
  0
ARC
  8
0
 62
7
  6
CONTINUOUS
 10
303.1535489074
 20
126.9687652693
 40
1.5
 50
270.0
 51
328.0
  0
ARC
  8
0
 62
7
  6
CONTINUOUS
 10
300.8164760617
 20
126.9687652693
 40
1.5
 50
212.0
 51
270.0
  0
ARC
  8
0
 62
7
  6
CONTINUOUS
 10
288.9557602109
 20
127.1156666726
 40
1.5
 50
269.7564288271
 51
328.0
  0
ARC
  8
0
 62
7
  6
CONTINUOUS
 10
320.7850124845
 20
131.1856727374
 40
8.0
 50
210.0
 51
254.1733798681
  0
ARC
  8
0
 62
7
  6
CONTINUOUS
 10
316.4350124845
 20
132.7200937503
 40
5.0
 50
180.0
 51
210.0
  0
ARC
  8
0
 62
7
  6
CONTINUOUS
 10
301.9350124845
 20
131.6234790587
 40
5.0
 50
328.0
 51
360.0
  0
ARC
  8
0
 62
7
  6
CONTINUOUS
 10
302.1350124845
 20
131.4634456058
 40
5.0
 50
180.0
 51
212.0
  0
ARC
  8
0
 62
7
  6
CONTINUOUS
 10
287.6350124845
 20
131.6068081837
 40
5.0
 50
328.0
 51
360.0
  0
ARC
  8
0
 62
7
  6
CONTINUOUS
 10
288.0350124845
 20
131.3041709705
 40
5.0
 50
180.0
 51
212.0
  0
ARC
  8
0
 62
7
  6
CONTINUOUS
 10
253.4350124845
 20
138.1910421316
 40
4.0
 50
44.4153085972
 51
85.2164023348
  0
ARC
  8
0
 62
7
  6
CONTINUOUS
 10
253.4350124845
 20
138.1910421316
 40
4.0
 50
93.8807737597
 51
135.5846914028
  0
ARC
  8
0
 62
7
  6
CONTINUOUS
 10
256.6850124845
 20
135.3575632272
 40
1.0
 50
166.0
 51
180.0
  0
ARC
  8
0
 62
7
  6
CONTINUOUS
 10
270.0350124845
 20
135.3575632272
 40
1.0
 50
166.0
 51
180.0
  0
ARC
  8
0
 62
7
  6
CONTINUOUS
 10
277.5350124845
 20
135.3575632272
 40
1.0
 50
0.0
 51
14.0
  0
ARC
  8
0
 62
7
  6
CONTINUOUS
 10
263.5350124845
 20
135.3575632272
 40
1.0
 50
0.0
 51
14.0
  0
ARC
  8
0
 62
7
  6
CONTINUOUS
 10
250.1850124845
 20
135.4575632272
 40
1.0
 50
0.0
 51
14.0
  0
ARC
  8
0
 62
7
  6
CONTINUOUS
 10
277.9850124845
 20
138.5129904005
 40
0.2
 50
180.0
 51
194.0
  0
ARC
  8
0
 62
7
  6
CONTINUOUS
 10
269.5850124845
 20
138.5129904005
 40
0.2
 50
346.0
 51
360.0
  0
ARC
  8
0
 62
7
  6
CONTINUOUS
 10
263.9850124845
 20
138.5129904005
 40
0.2
 50
180.0
 51
194.0
  0
ARC
  8
0
 62
7
  6
CONTINUOUS
 10
256.2350124845
 20
138.5129904005
 40
0.2
 50
346.0
 51
360.0
  0
ARC
  8
0
 62
7
  6
CONTINUOUS
 10
267.5850124845
 20
140.7303477881
 40
2.2
 50
0.0
 51
90.0
  0
ARC
  8
0
 62
7
  6
CONTINUOUS
 10
265.9850124845
 20
140.7303477881
 40
2.2
 50
90.0
 51
180.0
  0
ARC
  8
0
 62
7
  6
CONTINUOUS
 10
279.9850124845
 20
140.7303477881
 40
2.2
 50
90.0
 51
180.0
  0
ARC
  8
0
 62
7
  6
CONTINUOUS
 10
253.1981307251
 20
141.6830167925
 40
0.5
 50
89.5485880472
 51
93.8807737597
  0
ARC
  8
0
 62
7
  6
CONTINUOUS
 10
253.7268864766
 20
141.6788508381
 40
0.5
 50
85.2164023348
 51
89.5485880472
  0
ARC
  8
0
 62
7
  6
CONTINUOUS
 10
255.9350124845
 20
140.6405318744
 40
0.5
 50
0.0
 51
44.4153085972
  0
ARC
  8
0
 62
7
  6
CONTINUOUS
 10
250.9350124845
 20
140.6405318744
 40
0.5
 50
135.5846914028
 51
180.0
  0
ARC
  8
0
 62
7
  6
CONTINUOUS
 10
250.6350124845
 20
138.6129904005
 40
0.2
 50
180.0
 51
194.0
  0
ARC
  8
0
 62
7
  6
CONTINUOUS
 10
284.0350124845
 20
135.3575632272
 40
1.0
 50
166.0
 51
180.0
  0
ARC
  8
0
 62
7
  6
CONTINUOUS
 10
298.1350124845
 20
135.3575632272
 40
1.0
 50
166.0
 51
180.0
  0
ARC
  8
0
 62
7
  6
CONTINUOUS
 10
312.4350124845
 20
135.3575632272
 40
1.0
 50
166.0
 51
180.0
  0
ARC
  8
0
 62
7
  6
CONTINUOUS
 10
305.9350124845
 20
135.3575632272
 40
1.0
 50
0.0
 51
14.0
  0
ARC
  8
0
 62
7
  6
CONTINUOUS
 10
291.6350124845
 20
135.4075632272
 40
1.0
 50
0.0
 51
14.0
  0
ARC
  8
0
 62
7
  6
CONTINUOUS
 10
311.9850124845
 20
138.5129904005
 40
0.2
 50
346.0
 51
360.0
  0
ARC
  8
0
 62
7
  6
CONTINUOUS
 10
283.5850124208
 20
138.5129901447
 40
0.2
 50
346.0000755189
 51
0.0000732745
  0
ARC
  8
0
 62
7
  6
CONTINUOUS
 10
291.9998726603
 20
137.2510413863
 40
0.2
 50
14.0
 51
73.4186528307
  0
ARC
  8
0
 62
7
  6
CONTINUOUS
 10
297.6850124845
 20
138.5129904005
 40
0.2
 50
346.0
 51
360.0
  0
ARC
  8
0
 62
7
  6
CONTINUOUS
 10
306.3850124845
 20
138.5129904005
 40
0.2
 50
180.0
 51
193.9999999996
  0
ARC
  8
0
 62
7
  6
CONTINUOUS
 10
297.7836348238
 20
137.2551168006
 40
0.2
 50
107.0560608984
 51
166.0
  0
ARC
  8
0
 62
7
  6
CONTINUOUS
 10
281.5850124845
 20
140.7303477881
 40
2.2
 50
0.0
 51
90.0
  0
ARC
  8
0
 62
7
  6
CONTINUOUS
 10
295.6850124845
 20
140.7303477881
 40
2.2
 50
0.0
 51
90.0
  0
ARC
  8
0
 62
7
  6
CONTINUOUS
 10
294.0850124845
 20
140.7303477881
 40
2.2
 50
90.0
 51
180.0
  0
ARC
  8
0
 62
7
  6
CONTINUOUS
 10
309.9850124845
 20
140.7303477881
 40
2.2
 50
0.0
 51
90.0
  0
ARC
  8
0
 62
7
  6
CONTINUOUS
 10
308.3850124845
 20
140.7303477881
 40
2.2
 50
90.0
 51
180.0
  0
ARC
  8
0
 62
7
  6
CONTINUOUS
 10
297.2850124845
 20
138.8803477881
 40
1.5
 50
287.0560608984
 51
61.9275130641
  0
ARC
  8
0
 62
7
  6
CONTINUOUS
 10
292.4850124845
 20
138.8803477881
 40
1.5
 50
118.0724869358
 51
253.4186528307
  0
ARC
  8
0
 62
7
  6
CONTINUOUS
 10
292.0850124845
 20
138.5629904005
 40
0.2
 50
180.0
 51
194.0
  0
ARC
  8
0
 62
7
  6
CONTINUOUS
 10
291.6850124845
 20
140.3803477881
 40
0.2
 50
298.0724869359
 51
360.0
  0
ARC
  8
0
 62
7
  6
CONTINUOUS
 10
298.0850124845
 20
140.3803477881
 40
0.2
 50
180.0
 51
241.9275130642
  0
ARC
  8
0
 62
7
  6
CONTINUOUS
 10
22.0350124845
 20
189.9362486526
 40
0.2
 50
180.0
 51
270.0
  0
ARC
  8
0
 62
7
  6
CONTINUOUS
 10
46.1350124845
 20
190.4862486526
 40
0.75
 50
270.0
 51
360.0
  0
ARC
  8
0
 62
7
  6
CONTINUOUS
 10
33.4350124845
 20
190.4862486526
 40
0.75
 50
270.0
 51
360.0
  0
ARC
  8
0
 62
7
  6
CONTINUOUS
 10
58.8350124845
 20
190.4862486526
 40
0.75
 50
270.0
 51
360.0
  0
ARC
  8
0
 62
7
  6
CONTINUOUS
 10
28.9350124845
 20
190.4862486526
 40
0.75
 50
180.0
 51
270.0
  0
ARC
  8
0
 62
7
  6
CONTINUOUS
 10
41.6350124845
 20
190.4862486526
 40
0.75
 50
180.0
 51
270.0
  0
ARC
  8
0
 62
7
  6
CONTINUOUS
 10
54.3350124845
 20
190.4862486526
 40
0.75
 50
180.0
 51
270.0
  0
ARC
  8
0
 62
7
  6
CONTINUOUS
 10
79.7350124845
 20
190.4862486526
 40
0.75
 50
180.0
 51
270.0
  0
ARC
  8
0
 62
7
  6
CONTINUOUS
 10
84.2350124845
 20
190.4862486526
 40
0.75
 50
270.0
 51
360.0
  0
ARC
  8
0
 62
7
  6
CONTINUOUS
 10
92.4350124845
 20
190.4862486526
 40
0.75
 50
180.0
 51
270.0
  0
ARC
  8
0
 62
7
  6
CONTINUOUS
 10
71.5350124845
 20
190.4862486526
 40
0.75
 50
270.0
 51
360.0
  0
ARC
  8
0
 62
7
  6
CONTINUOUS
 10
67.0350124845
 20
190.4862486526
 40
0.75
 50
180.0
 51
270.0
  0
ARC
  8
0
 62
7
  6
CONTINUOUS
 10
96.9350124845
 20
190.4862486765
 40
0.75
 50
270.0
 51
359.9999981793
  0
ARC
  8
0
 62
7
  6
CONTINUOUS
 10
105.1350124845
 20
190.4862486526
 40
0.75
 50
180.0
 51
270.0
  0
ARC
  8
0
 62
7
  6
CONTINUOUS
 10
109.6350124845
 20
190.4862486765
 40
0.75
 50
270.0
 51
359.9999981793
  0
ARC
  8
0
 62
7
  6
CONTINUOUS
 10
122.3350124845
 20
190.4862486765
 40
0.75
 50
270.0
 51
359.9999981793
  0
ARC
  8
0
 62
7
  6
CONTINUOUS
 10
143.2350124845
 20
190.4862486526
 40
0.75
 50
180.0
 51
270.0
  0
ARC
  8
0
 62
7
  6
CONTINUOUS
 10
147.7350124845
 20
190.4862486765
 40
0.75
 50
270.0
 51
359.9999981793
  0
ARC
  8
0
 62
7
  6
CONTINUOUS
 10
155.9350124845
 20
190.4862486526
 40
0.75
 50
180.0
 51
270.0
  0
ARC
  8
0
 62
7
  6
CONTINUOUS
 10
160.4350124845
 20
190.4862486765
 40
0.75
 50
270.0
 51
359.9999981793
  0
ARC
  8
0
 62
7
  6
CONTINUOUS
 10
168.6350124845
 20
190.4862486526
 40
0.75
 50
180.0
 51
270.0
  0
ARC
  8
0
 62
7
  6
CONTINUOUS
 10
130.5350124845
 20
190.4862486526
 40
0.75
 50
180.0
 51
270.0
  0
ARC
  8
0
 62
7
  6
CONTINUOUS
 10
117.8350124845
 20
190.4862486526
 40
0.75
 50
180.0
 51
270.0
  0
ARC
  8
0
 62
7
  6
CONTINUOUS
 10
135.0350124845
 20
190.4862486765
 40
0.75
 50
270.0
 51
359.9999981793
  0
ARC
  8
0
 62
7
  6
CONTINUOUS
 10
28.9350124845
 20
200.9862486526
 40
0.75
 50
90.0
 51
180.0
  0
ARC
  8
0
 62
7
  6
CONTINUOUS
 10
41.6350124845
 20
200.9862486526
 40
0.75
 50
90.0
 51
180.0
  0
ARC
  8
0
 62
7
  6
CONTINUOUS
 10
54.3350124845
 20
200.9862486526
 40
0.75
 50
90.0
 51
180.0
  0
ARC
  8
0
 62
7
  6
CONTINUOUS
 10
46.1350124845
 20
200.9862486526
 40
0.75
 50
0.0
 51
90.0
  0
ARC
  8
0
 62
7
  6
CONTINUOUS
 10
33.4350124845
 20
200.9862486526
 40
0.75
 50
0.0
 51
90.0
  0
ARC
  8
0
 62
7
  6
CONTINUOUS
 10
58.8350124845
 20
200.9862486526
 40
0.75
 50
0.0
 51
90.0
  0
ARC
  8
0
 62
7
  6
CONTINUOUS
 10
79.7350124845
 20
200.9862486526
 40
0.75
 50
90.0
 51
180.0
  0
ARC
  8
0
 62
7
  6
CONTINUOUS
 10
84.2350124845
 20
200.9862486526
 40
0.75
 50
0.0
 51
90.0
  0
ARC
  8
0
 62
7
  6
CONTINUOUS
 10
92.4350124845
 20
200.9862486288
 40
0.75
 50
90.0
 51
179.9999981793
  0
ARC
  8
0
 62
7
  6
CONTINUOUS
 10
71.5350124845
 20
200.9862486526
 40
0.75
 50
0.0
 51
90.0
  0
ARC
  8
0
 62
7
  6
CONTINUOUS
 10
67.0350124845
 20
200.9862486526
 40
0.75
 50
90.0
 51
180.0
  0
ARC
  8
0
 62
7
  6
CONTINUOUS
 10
22.0350124845
 20
201.5362486526
 40
0.2
 50
90.0005946555
 51
180.0
  0
ARC
  8
0
 62
7
  6
CONTINUOUS
 10
96.9350124845
 20
200.9862486526
 40
0.75
 50
0.0
 51
90.0
  0
ARC
  8
0
 62
7
  6
CONTINUOUS
 10
105.1350124845
 20
200.9862486288
 40
0.75
 50
90.0
 51
179.9999981793
  0
ARC
  8
0
 62
7
  6
CONTINUOUS
 10
109.6350124845
 20
200.9862486526
 40
0.75
 50
0.0
 51
90.0
  0
ARC
  8
0
 62
7
  6
CONTINUOUS
 10
122.3350124845
 20
200.9862486526
 40
0.75
 50
0.0
 51
90.0
  0
ARC
  8
0
 62
7
  6
CONTINUOUS
 10
143.2350124845
 20
200.9862486288
 40
0.75
 50
90.0
 51
179.9999981793
  0
ARC
  8
0
 62
7
  6
CONTINUOUS
 10
147.7350124845
 20
200.9862486526
 40
0.75
 50
0.0
 51
90.0
  0
ARC
  8
0
 62
7
  6
CONTINUOUS
 10
155.9350124845
 20
200.9862486288
 40
0.75
 50
90.0
 51
179.9999981793
  0
ARC
  8
0
 62
7
  6
CONTINUOUS
 10
160.4350124845
 20
200.9862486526
 40
0.75
 50
0.0
 51
90.0
  0
ARC
  8
0
 62
7
  6
CONTINUOUS
 10
168.6350124845
 20
200.9862486288
 40
0.75
 50
90.0
 51
179.9999981793
  0
ARC
  8
0
 62
7
  6
CONTINUOUS
 10
130.5350124845
 20
200.9862486288
 40
0.75
 50
90.0
 51
179.9999981793
  0
ARC
  8
0
 62
7
  6
CONTINUOUS
 10
117.8350124845
 20
200.9862486288
 40
0.75
 50
90.0
 51
179.9999981793
  0
ARC
  8
0
 62
7
  6
CONTINUOUS
 10
135.0350124845
 20
200.9862486526
 40
0.75
 50
0.0
 51
90.0
  0
ARC
  8
0
 62
7
  6
CONTINUOUS
 10
173.1350124845
 20
190.4862486765
 40
0.75
 50
270.0
 51
359.9999981793
  0
ARC
  8
0
 62
7
  6
CONTINUOUS
 10
236.6350124845
 20
190.4862487112
 40
0.75
 50
270.0
 51
327.4328533437
  0
ARC
  8
0
 62
7
  6
CONTINUOUS
 10
181.3350124845
 20
190.4862486526
 40
0.75
 50
180.0
 51
270.0
  0
ARC
  8
0
 62
7
  6
CONTINUOUS
 10
185.8350124845
 20
190.4862486765
 40
0.75
 50
270.0
 51
359.9999981793
  0
ARC
  8
0
 62
7
  6
CONTINUOUS
 10
194.0350124845
 20
190.4862486526
 40
0.75
 50
185.781599228
 51
270.0
  0
ARC
  8
0
 62
7
  6
CONTINUOUS
 10
198.5350124845
 20
190.4862486543
 40
0.75
 50
270.0
 51
348.1925345012
  0
ARC
  8
0
 62
7
  6
CONTINUOUS
 10
206.7350124845
 20
190.4862487262
 40
0.75
 50
198.2766661878
 51
270.0
  0
ARC
  8
0
 62
7
  6
CONTINUOUS
 10
211.2350124845
 20
190.4862487285
 40
0.75
 50
270.0
 51
338.9840895713
  0
ARC
  8
0
 62
7
  6
CONTINUOUS
 10
219.4350124845
 20
190.4862486568
 40
0.75
 50
205.2851300102
 51
270.0
  0
ARC
  8
0
 62
7
  6
CONTINUOUS
 10
223.9350124845
 20
190.4862486694
 40
0.75
 50
270.0
 51
332.6380823409
  0
ARC
  8
0
 62
7
  6
CONTINUOUS
 10
232.1350124845
 20
190.4862487326
 40
0.75
 50
210.8141310544
 51
270.0
  0
ARC
  8
0
 62
7
  6
CONTINUOUS
 10
244.8350124845
 20
190.4862486546
 40
0.75
 50
215.5632699359
 51
270.0
  0
ARC
  8
0
 62
7
  6
CONTINUOUS
 10
315.3350124845
 20
189.9362486526
 40
0.2
 50
180.0
 51
270.0
  0
ARC
  8
0
 62
7
  6
CONTINUOUS
 10
320.5850124845
 20
189.9362486614
 40
0.2
 50
270.0
 51
359.9999974837
  0
ARC
  8
0
 62
7
  6
CONTINUOUS
 10
276.2850124845
 20
190.2362486526
 40
0.5
 50
270.0
 51
360.0
  0
ARC
  8
0
 62
7
  6
CONTINUOUS
 10
257.2850124845
 20
190.2362486526
 40
0.5
 50
180.0
 51
270.0
  0
ARC
  8
0
 62
7
  6
CONTINUOUS
 10
262.2850124845
 20
190.2362486526
 40
0.5
 50
270.0
 51
360.0
  0
ARC
  8
0
 62
7
  6
CONTINUOUS
 10
271.2850124845
 20
190.2362486526
 40
0.5
 50
203.1724695774
 51
270.0
  0
ARC
  8
0
 62
7
  6
CONTINUOUS
 10
249.3350124845
 20
190.4862486927
 40
0.75
 50
270.0
 51
322.8826650849
  0
ARC
  8
0
 62
7
  6
CONTINUOUS
 10
304.4850124845
 20
190.2362486526
 40
0.5
 50
270.0
 51
360.0
  0
ARC
  8
0
 62
7
  6
CONTINUOUS
 10
285.2850124845
 20
190.2362486526
 40
0.5
 50
180.0
 51
270.0
  0
ARC
  8
0
 62
7
  6
CONTINUOUS
 10
290.2850124845
 20
190.2362486526
 40
0.5
 50
270.0
 51
360.0
  0
ARC
  8
0
 62
7
  6
CONTINUOUS
 10
299.4850124845
 20
190.2362486526
 40
0.5
 50
180.0
 51
270.0
  0
ARC
  8
0
 62
7
  6
CONTINUOUS
 10
173.1350124845
 20
200.9862486526
 40
0.75
 50
0.0
 51
90.0
  0
ARC
  8
0
 62
7
  6
CONTINUOUS
 10
236.6350124845
 20
200.9862485891
 40
0.75
 50
32.5671467088
 51
90.0
  0
ARC
  8
0
 62
7
  6
CONTINUOUS
 10
181.3350124845
 20
200.9862486288
 40
0.75
 50
90.0
 51
179.9999981793
  0
ARC
  8
0
 62
7
  6
CONTINUOUS
 10
185.8350124845
 20
200.9862486526
 40
0.75
 50
0.0
 51
90.0
  0
ARC
  8
0
 62
7
  6
CONTINUOUS
 10
194.0350124845
 20
200.9862486288
 40
0.75
 50
90.0
 51
174.2183989613
  0
ARC
  8
0
 62
7
  6
CONTINUOUS
 10
198.5350124845
 20
200.9862486516
 40
0.75
 50
11.8074656161
 51
90.0
  0
ARC
  8
0
 62
7
  6
CONTINUOUS
 10
206.7350124845
 20
200.9862485736
 40
0.75
 50
90.0
 51
161.7233336676
  0
ARC
  8
0
 62
7
  6
CONTINUOUS
 10
211.2350124845
 20
200.9862485764
 40
0.75
 50
21.0159102435
 51
90.0
  0
ARC
  8
0
 62
7
  6
CONTINUOUS
 10
219.4350124845
 20
200.9862486501
 40
0.75
 50
90.0
 51
154.7148702323
  0
ARC
  8
0
 62
7
  6
CONTINUOUS
 10
223.9350124845
 20
200.9862486371
 40
0.75
 50
27.3619176603
 51
90.0
  0
ARC
  8
0
 62
7
  6
CONTINUOUS
 10
232.1350124845
 20
200.9862485732
 40
0.75
 50
90.0
 51
149.1858687519
  0
ARC
  8
0
 62
7
  6
CONTINUOUS
 10
244.8350124845
 20
200.9862486498
 40
0.75
 50
90.0
 51
144.4367301749
  0
ARC
  8
0
 62
7
  6
CONTINUOUS
 10
249.3350124845
 20
200.9862486143
 40
0.75
 50
37.117334886
 51
90.0
  0
ARC
  8
0
 62
7
  6
CONTINUOUS
 10
320.5850124845
 20
200.5844282475
 40
0.2
 50
0.0
 51
77.0
  0
ARC
  8
0
 62
7
  6
CONTINUOUS
 10
257.2850124845
 20
201.2362486526
 40
0.5
 50
90.0
 51
180.0
  0
ARC
  8
0
 62
7
  6
CONTINUOUS
 10
271.2850124845
 20
201.2362486526
 40
0.5
 50
90.0
 51
180.0
  0
ARC
  8
0
 62
7
  6
CONTINUOUS
 10
285.2850124845
 20
201.2362486526
 40
0.5
 50
90.0
 51
180.0
  0
ARC
  8
0
 62
7
  6
CONTINUOUS
 10
299.4850124845
 20
201.2362486526
 40
0.5
 50
90.0
 51
180.0
  0
ARC
  8
0
 62
7
  6
CONTINUOUS
 10
262.2850124845
 20
201.2362486526
 40
0.5
 50
0.0
 51
90.0
  0
ARC
  8
0
 62
7
  6
CONTINUOUS
 10
276.2850124845
 20
201.2362486526
 40
0.5
 50
0.0
 51
90.0
  0
ARC
  8
0
 62
7
  6
CONTINUOUS
 10
290.2850124845
 20
201.2362486526
 40
0.5
 50
0.0
 51
90.0
  0
ARC
  8
0
 62
7
  6
CONTINUOUS
 10
304.4850124845
 20
201.2362486526
 40
0.5
 50
0.0
 51
90.0
  0
ARC
  8
0
 62
7
  6
CONTINUOUS
 10
315.3350124845
 20
201.5362486526
 40
0.2
 50
90.0
 51
180.0
  0
ARC
  8
0
 62
7
  6
CONTINUOUS
 10
316.4622253629
 20
201.5362486526
 40
0.2
 50
77.0
 51
90.0
  0
ARC
  8
0
 62
7
  6
CONTINUOUS
 10
366.8293074419
 20
113.3303477881
 40
4.0
 50
180.0
 51
270.0
  0
ARC
  8
0
 62
7
  6
CONTINUOUS
 10
366.8293074419
 20
139.4303477881
 40
4.0
 50
90.0
 51
180.0
  0
ARC
  8
0
 62
7
  6
CONTINUOUS
 10
370.8293074419
 20
113.3303477881
 40
4.0
 50
270.0
 51
360.0
  0
CIRCLE
  8
0
 62
7
  6
CONTINUOUS
 10
368.8293074419
 20
113.6803477881
 40
2.1
  0
ARC
  8
0
 62
7
  6
CONTINUOUS
 10
370.8293074419
 20
139.4303477881
 40
4.0
 50
0.0
 51
90.0
  0
ARC
  8
0
 62
7
  6
CONTINUOUS
 10
368.8293074419
 20
139.0803477881
 40
2.1
 50
0.0
 51
180.0
  0
ARC
  8
0
 62
7
  6
CONTINUOUS
 10
368.8293074419
 20
130.5803477881
 40
2.1
 50
180.0
 51
360.0
  0
ENDSEC
  0
EOF
