  0
SECTION
  2
HEADER
  9
$EXTMAX
 10
420.0
 20
297.0
 30
0.0
  9
$EXTMIN
 10
0.0
 20
0.0
 30
0.0
  9
$LIMMIN
 10
0.0
 20
0.0
  9
$LIMMAX
 10
420.0
 20
297.0
  9
$VIEWCTR
 10
210.0
 20
148.5
  9
$VIEWSIZE
 40
297.0
  9
$CLAYER
  8
0
  9
$LTSCALE
 40
23.1
  9
$CELTYPE
  6
BYLAYER
  9
$DIMSCALE
 40
1.0
  9
$DIMASZ
 40
3.5
  9
$DIMEXO
 40
2.625
  9
$DIMDLI
 40
15.96
  9
$DIMEXE
 40
7.56
  9
$DIMCEN
 40
3.78
  9
$DIMLFAC
 40
1.0
  9
$DIMBLK
  1
_FILLED
  9
$DIMTXT
 40
3.5
  9
$PDMODE
 70
3
  9
$PDSIZE
 40
0.3125
  9
$TILEMODE
 70
1
  0
ENDSEC
  0
SECTION
  2
TABLES
  0
TABLE
  2
LTYPE
 70
6
  0
LTYPE
  2
BYBLOCK
 70
0
  3

 72
65
 73
0
 40
0.0
  0
LTYPE
  2
BYLAYER
 70
0
  3

 72
65
 73
0
 40
0.0
  0
LTYPE
  2
CONTINUOUS
 70
64
  3
Solid line
 72
65
 73
0
 40
0.0
  0
LTYPE
  2
CENTER
 70
64
  3
____ _ ____ _ ____ _ ____ _ ____ _ ____ _ ____
 72
65
 73
4
 40
0.6
 49
0.375
 49
-0.075
 49
0.075
 49
-0.075
  0
LTYPE
  2
HIDDEN
 70
64
  3
- - - - - - - - - - - - - - - - - - - -
 72
65
 73
2
 40
0.2
 49
0.1
 49
-0.1
  0
LTYPE
  2
PHANTOM
 70
64
  3
_____ _ _ _____ _ _ _____ _ _ _____
 72
65
 73
6
 40
0.8
 49
0.45
 49
-0.05
 49
0.1
 49
-0.05
 49
0.1
 49
-0.05
  0
LTYPE
  2
DOT
 70
64
  3
. . . . . . . . . . . . . . . . . . . .
 72
65
 73
2
 40
0.2
 49
0.1
 49
-0.1
  0
LTYPE
  2
DASHED
 70
64
  3
- - - - - - - - - - - - - - - - - - - -
 72
65
 73
2
 40
0.2
 49
0.1
 49
-0.1
  0
ENDTAB
  0
TABLE
  2
LAYER
 70
36
  0
LAYER
  2
0
 70
0
 62
7
  6
CONTINUOUS
  0
LAYER
  2
DEFAULT_1
 70
0
 62
7
  6
CENTER
  0
LAYER
  2
DEFAULT_2
 70
0
 62
8
  6
HIDDEN
  0
LAYER
  2
DEFAULT_3
 70
0
 62
7
  6
PHANTOM
  0
LAYER
  2
CSYS
 70
0
 62
7
  6
CONTINUOUS
  0
LAYER
  2
CURVE
 70
0
 62
7
  6
CONTINUOUS
  0
LAYER
  2
SURFACE
 70
0
 62
7
  6
CONTINUOUS
  0
ENDTAB
  0
TABLE
  2
STYLE
 70
1
  0
STYLE
  2
STANDARD
 70
0
 40
0.0
 41
0.8
 50
0.0
 71
0
 42
0.2
  3
txt
  4

  0
STYLE
  2
TEXTSTYLE_1
 70
0
 40
0.0
 41
0.8
 50
0.0
 71
0
 42
0.2
  3
gdt
  4

  0
STYLE
  2
TEXTSTYLE_2
 70
0
 40
0.0
 41
0.6
 50
0.0
 71
0
 42
0.2
  3
txt
  4

  0
STYLE
  2
TEXTSTYLE_3
 70
0
 40
0.0
 41
1.0
 50
0.0
 71
0
 42
0.2
  3
ftb_____.ttf
  4

  0
STYLE
  2
TEXTSTYLE_4
 70
0
 40
0.0
 41
1.0
 50
0.0
 71
0
 42
0.2
  3
fti_____.ttf
  4

  0
STYLE
  2
TEXTSTYLE_5
 70
0
 40
0.0
 41
1.0
 50
0.0
 71
0
 42
0.2
  3
frutiger light.ttf
  4

  0
STYLE
  2
TEXTSTYLE_6
 70
0
 40
0.0
 41
0.7
 50
0.0
 71
0
 42
0.2
  3
txt
  4

  0
STYLE
  2
TEXTSTYLE_7
 70
0
 40
0.0
 41
0.3
 50
0.0
 71
0
 42
0.2
  3
txt
  4

  0
ENDTAB
  0
ENDSEC
  0
SECTION
  2
BLOCKS
  0
BLOCK
  8
0
 62
2
  6
CONTINUOUS
  2
SYMBOL_5_BL1
 70
64
 10
382.7840918555
 20
35.5067593403
  0
TEXT
  8
0
 62
7
  6
CONTINUOUS
 10
373.842376864
 20
30.5995157174
  7
TEXTSTYLE_4
 40
1.0655737705
  1
The brand for plastic modular belts and chains
 41
1.0
 72
0
  0
LINE
  8
0
 62
7
  6
CONTINUOUS
 10
358.7621602445
 20
36.0805298321
 11
358.7621602445
 21
33.9493822911
  0
LINE
  8
0
 62
7
  6
CONTINUOUS
 10
359.0512227376
 20
30.9584509954
 11
359.0512227376
 21
31.0552420547
  0
LINE
  8
0
 62
7
  6
CONTINUOUS
 10
358.7621602445
 20
31.0229783683
 11
358.8199727462
 21
30.8293962497
  0
LINE
  8
0
 62
7
  6
CONTINUOUS
 10
360.1556028675
 20
33.867415078
 11
360.1556028675
 21
36.0805298321
  0
LINE
  8
0
 62
7
  6
CONTINUOUS
 10
361.0746601894
 20
32.0231527829
 11
361.0746601894
 21
30.5067593403
  0
LINE
  8
0
 62
7
  6
CONTINUOUS
 10
361.3637227445
 20
30.5067593403
 11
361.3637227445
 21
31.2488242184
  0
LINE
  8
0
 62
7
  6
CONTINUOUS
 10
361.3637227445
 20
31.3778789641
 11
361.3637227445
 21
32.0231527829
  0
LINE
  8
0
 62
7
  6
CONTINUOUS
 10
358.8199727462
 20
31.216560532
 11
358.7621602445
 21
31.0229783683
  0
LINE
  8
0
 62
7
  6
CONTINUOUS
 10
359.1668477307
 20
30.7971325633
 11
359.0512227376
 21
30.9584509954
  0
LINE
  8
0
 62
7
  6
CONTINUOUS
 10
360.2652852997
 20
31.3133515913
 11
360.3230977445
 21
31.216560532
  0
LINE
  8
0
 62
7
  6
CONTINUOUS
 10
360.6121602997
 20
31.216560532
 11
360.5543476894
 21
31.3456152777
  0
LINE
  8
0
 62
7
  6
CONTINUOUS
 10
362.0408487691
 20
36.0805298321
 11
362.0408487691
 21
34.2772511436
  0
LINE
  8
0
 62
7
  6
CONTINUOUS
 10
362.0408487691
 20
32.9657757338
 11
362.0408487691
 21
32.3100380288
  0
LINE
  8
0
 62
7
  6
CONTINUOUS
 10
362.4043477445
 20
31.1520331591
 11
362.4043477445
 21
30.5067593403
  0
LINE
  8
0
 62
7
  6
CONTINUOUS
 10
362.6934101343
 20
30.5067593403
 11
362.6934101343
 21
31.1520331591
  0
LINE
  8
0
 62
7
  6
CONTINUOUS
 10
359.0512227376
 20
31.0552420547
 11
359.1090352445
 21
31.1842968456
  0
LINE
  8
0
 62
7
  6
CONTINUOUS
 10
358.8199727462
 20
30.8293962497
 11
358.9355977445
 21
30.7003414814
  0
LINE
  8
0
 62
7
  6
CONTINUOUS
 10
362.3465351343
 20
31.2810879048
 11
362.4043477445
 21
31.1520331591
  0
LINE
  8
0
 62
7
  6
CONTINUOUS
 10
363.1559103548
 20
30.7971325633
 11
363.2137226343
 21
30.668077795
  0
LINE
  8
0
 62
7
  6
CONTINUOUS
 10
362.6934101343
 20
31.1520331591
 11
362.6355978548
 21
31.3133515913
  0
LINE
  8
0
 62
7
  6
CONTINUOUS
 10
363.1559103548
 20
31.3456152777
 11
363.1559103548
 21
31.2810879048
  0
LINE
  8
0
 62
7
  6
CONTINUOUS
 10
363.1559103548
 20
30.8939236226
 11
363.1559103548
 21
30.7971325633
  0
LINE
  8
0
 62
7
  6
CONTINUOUS
 10
363.4342913921
 20
32.3100380288
 11
363.4342913921
 21
36.0805298321
  0
LINE
  8
0
 62
7
  6
CONTINUOUS
 10
363.4449727445
 20
30.7648688543
 11
363.4449727445
 21
30.8293962497
  0
LINE
  8
0
 62
7
  6
CONTINUOUS
 10
363.7621602445
 20
36.0805298321
 11
363.7621602445
 21
32.3100380288
  0
LINE
  8
0
 62
7
  6
CONTINUOUS
 10
360.5543476894
 20
30.7003414814
 11
360.6121602997
 21
30.8293962497
  0
LINE
  8
0
 62
7
  6
CONTINUOUS
 10
364.9480979651
 20
30.6035504109
 11
364.890285024
 21
30.7648688543
  0
LINE
  8
0
 62
7
  6
CONTINUOUS
 10
364.6012229651
 20
31.2810879048
 11
364.6012229651
 21
31.1842968456
  0
LINE
  8
0
 62
7
  6
CONTINUOUS
 10
364.6012229651
 20
31.0552420547
 11
364.6012229651
 21
30.8616599362
  0
LINE
  8
0
 62
7
  6
CONTINUOUS
 10
364.890285024
 20
30.7648688543
 11
364.890285024
 21
31.2810879048
  0
LINE
  8
0
 62
7
  6
CONTINUOUS
 10
365.1556028675
 20
32.3100380288
 11
365.1556028675
 21
34.1133167174
  0
LINE
  8
0
 62
7
  6
CONTINUOUS
 10
365.1556028675
 20
35.4247921272
 11
365.1556028675
 21
36.0805298321
  0
LINE
  8
0
 62
7
  6
CONTINUOUS
 10
365.4684104651
 20
32.0231527829
 11
365.4684104651
 21
31.8618343508
  0
LINE
  8
0
 62
7
  6
CONTINUOUS
 10
365.4684104651
 20
31.5391973962
 11
365.4684104651
 21
30.5067593403
  0
LINE
  8
0
 62
7
  6
CONTINUOUS
 10
365.757472524
 20
30.5067593403
 11
365.757472524
 21
31.5391973962
  0
LINE
  8
0
 62
7
  6
CONTINUOUS
 10
365.757472524
 20
31.8618343508
 11
365.757472524
 21
32.0231527829
  0
LINE
  8
0
 62
7
  6
CONTINUOUS
 10
360.3230977445
 20
30.8293962497
 11
360.2652852997
 21
30.7326051679
  0
LINE
  8
0
 62
7
  6
CONTINUOUS
 10
362.6355978548
 20
31.3133515913
 11
362.5777852445
 21
31.3778789641
  0
LINE
  8
0
 62
7
  6
CONTINUOUS
 10
363.5027853548
 20
30.7003414814
 11
363.4449727445
 21
30.7648688543
  0
LINE
  8
0
 62
7
  6
CONTINUOUS
 10
364.6590352445
 20
30.5712867188
 11
364.716847524
 21
30.5067593403
  0
LINE
  8
0
 62
7
  6
CONTINUOUS
 10
364.6012229651
 20
30.668077795
 11
364.6590352445
 21
30.5712867188
  0
LINE
  8
0
 62
7
  6
CONTINUOUS
 10
365.0059102445
 20
30.5067593403
 11
364.9480979651
 21
30.6035504109
  0
LINE
  8
0
 62
7
  6
CONTINUOUS
 10
364.890285024
 20
31.2810879048
 11
364.8324727445
 21
31.3778789641
  0
LINE
  8
0
 62
7
  6
CONTINUOUS
 10
366.2199727445
 20
31.5391973962
 11
366.2199727445
 21
30.5067593403
  0
LINE
  8
0
 62
7
  6
CONTINUOUS
 10
366.5090354651
 20
30.5067593403
 11
366.5090354651
 21
31.2488242184
  0
LINE
  8
0
 62
7
  6
CONTINUOUS
 10
366.5090354651
 20
31.3778789641
 11
366.5090354651
 21
31.5391973962
  0
LINE
  8
0
 62
7
  6
CONTINUOUS
 10
367.0408487691
 20
34.5231527829
 11
367.0408487691
 21
32.3100380288
  0
LINE
  8
0
 62
7
  6
CONTINUOUS
 10
358.9355977445
 20
31.3456152777
 11
358.8199727462
 21
31.216560532
  0
LINE
  8
0
 62
7
  6
CONTINUOUS
 10
359.1090352445
 20
31.1842968456
 11
359.1668477307
 21
31.2488242184
  0
LINE
  8
0
 62
7
  6
CONTINUOUS
 10
358.9355977445
 20
30.7003414814
 11
359.0512227376
 21
30.6358140973
  0
LINE
  8
0
 62
7
  6
CONTINUOUS
 10
359.3402852307
 20
30.7003414814
 11
359.1668477307
 21
30.7971325633
  0
LINE
  8
0
 62
7
  6
CONTINUOUS
 10
364.543410024
 20
31.3456152777
 11
364.6012229651
 21
31.2810879048
  0
LINE
  8
0
 62
7
  6
CONTINUOUS
 10
367.491847524
 20
31.2810879048
 11
367.5496604651
 21
31.1197694727
  0
LINE
  8
0
 62
7
  6
CONTINUOUS
 10
367.838722524
 20
31.1197694727
 11
367.7809102445
 21
31.2810879048
  0
LINE
  8
0
 62
7
  6
CONTINUOUS
 10
367.5496604651
 20
31.1197694727
 11
367.5496604651
 21
30.5067593403
  0
LINE
  8
0
 62
7
  6
CONTINUOUS
 10
367.838722524
 20
30.5067593403
 11
367.838722524
 21
31.1197694727
  0
LINE
  8
0
 62
7
  6
CONTINUOUS
 10
368.3012227445
 20
31.3456152777
 11
368.3012227445
 21
31.2810879048
  0
LINE
  8
0
 62
7
  6
CONTINUOUS
 10
368.4342913921
 20
32.3100380288
 11
368.4342913921
 21
34.4411855698
  0
LINE
  8
0
 62
7
  6
CONTINUOUS
 10
368.7621602445
 20
36.0805298321
 11
368.7621602445
 21
32.3100380288
  0
LINE
  8
0
 62
7
  6
CONTINUOUS
 10
363.4449727445
 20
30.8293962497
 11
363.5027853548
 21
30.926187309
  0
LINE
  8
0
 62
7
  6
CONTINUOUS
 10
359.0512227376
 20
30.6358140973
 11
359.2246602583
 21
30.5712867188
  0
LINE
  8
0
 62
7
  6
CONTINUOUS
 10
360.5543476894
 20
31.3456152777
 11
360.3809101894
 21
31.4424063369
  0
LINE
  8
0
 62
7
  6
CONTINUOUS
 10
363.2137226343
 20
30.668077795
 11
363.3871601343
 21
30.5712867188
  0
LINE
  8
0
 62
7
  6
CONTINUOUS
 10
362.2309102445
 20
31.3456152777
 11
362.3465351343
 21
31.2810879048
  0
LINE
  8
0
 62
7
  6
CONTINUOUS
 10
362.5777852445
 20
31.3778789641
 11
362.4621603548
 21
31.4424063369
  0
LINE
  8
0
 62
7
  6
CONTINUOUS
 10
368.3012227445
 20
30.7648688543
 11
368.4168479651
 21
30.6358140973
  0
LINE
  8
0
 62
7
  6
CONTINUOUS
 10
368.6480977445
 20
30.7003414814
 11
368.5902854651
 21
30.7648688543
  0
LINE
  8
0
 62
7
  6
CONTINUOUS
 10
368.3012227445
 20
31.2810879048
 11
368.4168479651
 21
31.1520331591
  0
LINE
  8
0
 62
7
  6
CONTINUOUS
 10
367.7809102445
 20
31.2810879048
 11
367.7230979651
 21
31.3778789641
  0
LINE
  8
0
 62
7
  6
CONTINUOUS
 10
370.1512223035
 20
30.7003414814
 11
370.1512223035
 21
30.7648688543
  0
LINE
  8
0
 62
7
  6
CONTINUOUS
 10
370.1556028675
 20
32.3100380288
 11
370.1556028675
 21
36.0805298321
  0
LINE
  8
0
 62
7
  6
CONTINUOUS
 10
363.2137226343
 20
31.4101426505
 11
363.1559103548
 21
31.3456152777
  0
LINE
  8
0
 62
7
  6
CONTINUOUS
 10
360.091847717
 20
31.3778789641
 11
360.2652852997
 21
31.3133515913
  0
LINE
  8
0
 62
7
  6
CONTINUOUS
 10
364.8324727445
 20
31.3778789641
 11
364.716847524
 21
31.4424063369
  0
LINE
  8
0
 62
7
  6
CONTINUOUS
 10
368.6480977445
 20
31.216560532
 11
368.5902854651
 21
31.2810879048
  0
LINE
  8
0
 62
7
  6
CONTINUOUS
 10
369.8043479651
 20
30.8293962497
 11
369.8621602445
 21
30.7648688543
  0
LINE
  8
0
 62
7
  6
CONTINUOUS
 10
370.1512223035
 20
30.7648688543
 11
370.0355977445
 21
30.8939236226
  0
LINE
  8
0
 62
7
  6
CONTINUOUS
 10
369.8043479651
 20
31.3456152777
 11
369.8621602445
 21
31.2810879048
  0
LINE
  8
0
 62
7
  6
CONTINUOUS
 10
370.1512223035
 20
31.2810879048
 11
370.0355977445
 21
31.4101426505
  0
LINE
  8
0
 62
7
  6
CONTINUOUS
 10
363.4449727445
 20
31.2810879048
 11
363.5027853548
 21
31.3456152777
  0
LINE
  8
0
 62
7
  6
CONTINUOUS
 10
363.2715352445
 20
31.0229783683
 11
363.1559103548
 21
30.8939236226
  0
LINE
  8
0
 62
7
  6
CONTINUOUS
 10
364.6012229651
 20
30.8616599362
 11
364.543410024
 21
30.7971325633
  0
LINE
  8
0
 62
7
  6
CONTINUOUS
 10
364.543410024
 20
30.6035504109
 11
364.6012229651
 21
30.668077795
  0
LINE
  8
0
 62
7
  6
CONTINUOUS
 10
363.3871601343
 20
30.5712867188
 11
363.5027853548
 21
30.5390230296
  0
LINE
  8
0
 62
7
  6
CONTINUOUS
 10
360.3809101894
 20
31.4424063369
 11
360.1496602445
 21
31.5069337098
  0
LINE
  8
0
 62
7
  6
CONTINUOUS
 10
363.7340351343
 20
30.6358140973
 11
363.5027853548
 21
30.7003414814
  0
LINE
  8
0
 62
7
  6
CONTINUOUS
 10
362.4621603548
 20
31.4424063369
 11
362.2887228548
 21
31.5069337098
  0
LINE
  8
0
 62
7
  6
CONTINUOUS
 10
364.716847524
 20
31.4424063369
 11
364.543410024
 21
31.5069337098
  0
LINE
  8
0
 62
7
  6
CONTINUOUS
 10
367.3762229651
 20
31.3456152777
 11
367.491847524
 21
31.2810879048
  0
LINE
  8
0
 62
7
  6
CONTINUOUS
 10
367.7230979651
 20
31.3778789641
 11
367.6074727445
 21
31.4424063369
  0
LINE
  8
0
 62
7
  6
CONTINUOUS
 10
359.2246602583
 20
30.5712867188
 11
359.3980977583
 21
30.5390230296
  0
LINE
  8
0
 62
7
  6
CONTINUOUS
 10
359.6871602721
 20
30.6358140973
 11
359.3402852307
 21
30.7003414814
  0
LINE
  8
0
 62
7
  6
CONTINUOUS
 10
362.1152853548
 20
31.3778789641
 11
362.2309102445
 21
31.3456152777
  0
LINE
  8
0
 62
7
  6
CONTINUOUS
 10
364.4277854651
 20
31.3778789641
 11
364.543410024
 21
31.3456152777
  0
LINE
  8
0
 62
7
  6
CONTINUOUS
 10
368.7637229651
 20
30.668077795
 11
368.6480977445
 21
30.7003414814
  0
LINE
  8
0
 62
7
  6
CONTINUOUS
 10
367.2605977445
 20
31.3778789641
 11
367.3762229651
 21
31.3456152777
  0
LINE
  8
0
 62
7
  6
CONTINUOUS
 10
368.4168479651
 20
30.6358140973
 11
368.5902854651
 21
30.5712867188
  0
LINE
  8
0
 62
7
  6
CONTINUOUS
 10
367.6074727445
 20
31.4424063369
 11
367.4340352445
 21
31.5069337098
  0
LINE
  8
0
 62
7
  6
CONTINUOUS
 10
368.8215352445
 20
31.1520331591
 11
368.6480977445
 21
31.216560532
  0
LINE
  8
0
 62
7
  6
CONTINUOUS
 10
369.6309104651
 20
30.8939236226
 11
369.8043479651
 21
30.8293962497
  0
LINE
  8
0
 62
7
  6
CONTINUOUS
 10
370.0355977445
 20
31.4101426505
 11
369.8621602445
 21
31.4746700234
  0
LINE
  8
0
 62
7
  6
CONTINUOUS
 10
368.4168479651
 20
31.1520331591
 11
368.6480977445
 21
31.0552420547
  0
LINE
  8
0
 62
7
  6
CONTINUOUS
 10
370.0355977445
 20
30.8939236226
 11
369.8043479651
 21
30.9907146818
  0
LINE
  8
0
 62
7
  6
CONTINUOUS
 10
368.5902854651
 20
31.2810879048
 11
368.6480977445
 21
31.3456152777
  0
LINE
  8
0
 62
7
  6
CONTINUOUS
 10
359.0512227376
 20
31.4101426505
 11
358.9355977445
 21
31.3456152777
  0
LINE
  8
0
 62
7
  6
CONTINUOUS
 10
359.1668477307
 20
31.2488242184
 11
359.3402852307
 21
31.3456152777
  0
LINE
  8
0
 62
7
  6
CONTINUOUS
 10
361.4793477997
 20
31.4424063369
 11
361.3637227445
 21
31.3778789641
  0
LINE
  8
0
 62
7
  6
CONTINUOUS
 10
361.3637227445
 20
31.2488242184
 11
361.4793477997
 21
31.3133515913
  0
LINE
  8
0
 62
7
  6
CONTINUOUS
 10
360.3809101894
 20
30.6035504109
 11
360.5543476894
 21
30.7003414814
  0
LINE
  8
0
 62
7
  6
CONTINUOUS
 10
359.3980977583
 20
30.5390230296
 11
359.744972717
 21
30.5067593403
  0
LINE
  8
0
 62
7
  6
CONTINUOUS
 10
363.5027853548
 20
30.5390230296
 11
363.7340351343
 21
30.5067593403
  0
LINE
  8
0
 62
7
  6
CONTINUOUS
 10
361.8840352445
 20
31.4101426505
 11
362.1152853548
 21
31.3778789641
  0
LINE
  8
0
 62
7
  6
CONTINUOUS
 10
364.1965353548
 20
31.4101426505
 11
364.4277854651
 21
31.3778789641
  0
LINE
  8
0
 62
7
  6
CONTINUOUS
 10
368.6480977445
 20
31.0552420547
 11
369.6309104651
 21
30.8939236226
  0
LINE
  8
0
 62
7
  6
CONTINUOUS
 10
369.8043479651
 20
30.9907146818
 11
368.8215352445
 21
31.1520331591
  0
LINE
  8
0
 62
7
  6
CONTINUOUS
 10
362.2887228548
 20
31.5069337098
 11
362.1152853548
 21
31.5391973962
  0
LINE
  8
0
 62
7
  6
CONTINUOUS
 10
368.5902854651
 20
30.5712867188
 11
368.7637229651
 21
30.5390230296
  0
LINE
  8
0
 62
7
  6
CONTINUOUS
 10
367.4340352445
 20
31.5069337098
 11
367.2605977445
 21
31.5391973962
  0
LINE
  8
0
 62
7
  6
CONTINUOUS
 10
369.6887227445
 20
31.3778789641
 11
369.8043479651
 21
31.3456152777
  0
LINE
  8
0
 62
7
  6
CONTINUOUS
 10
369.8621602445
 20
30.7648688543
 11
369.8043479651
 21
30.7003414814
  0
LINE
  8
0
 62
7
  6
CONTINUOUS
 10
368.4168479651
 20
31.4424063369
 11
368.3012227445
 21
31.3456152777
  0
LINE
  8
0
 62
7
  6
CONTINUOUS
 10
363.3293478548
 20
31.4746700234
 11
363.2137226343
 21
31.4101426505
  0
LINE
  8
0
 62
7
  6
CONTINUOUS
 10
363.3871601343
 20
31.0875057863
 11
363.2715352445
 21
31.0229783683
  0
LINE
  8
0
 62
7
  6
CONTINUOUS
 10
363.5027853548
 20
30.926187309
 11
363.6184102445
 21
30.9907146818
  0
LINE
  8
0
 62
7
  6
CONTINUOUS
 10
361.0746601894
 20
30.5067593403
 11
361.3637227445
 21
30.5067593403
  0
LINE
  8
0
 62
7
  6
CONTINUOUS
 10
362.4043477445
 20
30.5067593403
 11
362.6934101343
 21
30.5067593403
  0
LINE
  8
0
 62
7
  6
CONTINUOUS
 10
363.7340351343
 20
30.5067593403
 11
364.0809101343
 21
30.5067593403
  0
LINE
  8
0
 62
7
  6
CONTINUOUS
 10
364.716847524
 20
30.5067593403
 11
365.0059102445
 21
30.5067593403
  0
LINE
  8
0
 62
7
  6
CONTINUOUS
 10
365.4684104651
 20
30.5067593403
 11
365.757472524
 21
30.5067593403
  0
LINE
  8
0
 62
7
  6
CONTINUOUS
 10
366.2199727445
 20
30.5067593403
 11
366.5090354651
 21
30.5067593403
  0
LINE
  8
0
 62
7
  6
CONTINUOUS
 10
367.5496604651
 20
30.5067593403
 11
367.838722524
 21
30.5067593403
  0
LINE
  8
0
 62
7
  6
CONTINUOUS
 10
369.1105979651
 20
30.5067593403
 11
369.4574729651
 21
30.5067593403
  0
LINE
  8
0
 62
7
  6
CONTINUOUS
 10
369.4574729651
 20
30.6358140973
 11
369.1105979651
 21
30.6358140973
  0
LINE
  8
0
 62
7
  6
CONTINUOUS
 10
364.0809101343
 20
30.6358140973
 11
363.7340351343
 21
30.6358140973
  0
LINE
  8
0
 62
7
  6
CONTINUOUS
 10
368.5902854651
 20
30.7648688543
 11
368.3012227445
 21
30.7648688543
  0
LINE
  8
0
 62
7
  6
CONTINUOUS
 10
360.6121602997
 20
30.8293962497
 11
360.3230977445
 21
30.8293962497
  0
LINE
  8
0
 62
7
  6
CONTINUOUS
 10
359.6871602721
 20
31.4101426505
 11
360.091847717
 21
31.3778789641
  0
LINE
  8
0
 62
7
  6
CONTINUOUS
 10
360.1496602445
 20
31.5069337098
 11
359.744972717
 21
31.5391973962
  0
LINE
  8
0
 62
7
  6
CONTINUOUS
 10
368.7637229651
 20
30.5390230296
 11
369.1105979651
 21
30.5067593403
  0
LINE
  8
0
 62
7
  6
CONTINUOUS
 10
369.1105979651
 20
30.6358140973
 11
368.7637229651
 21
30.668077795
  0
LINE
  8
0
 62
7
  6
CONTINUOUS
 10
364.543410024
 20
31.5069337098
 11
364.1965353548
 21
31.5391973962
  0
LINE
  8
0
 62
7
  6
CONTINUOUS
 10
369.3418477445
 20
31.4101426505
 11
369.6887227445
 21
31.3778789641
  0
LINE
  8
0
 62
7
  6
CONTINUOUS
 10
369.6887227445
 20
31.5069337098
 11
369.3418477445
 21
31.5391973962
  0
LINE
  8
0
 62
7
  6
CONTINUOUS
 10
367.0293479651
 20
31.4101426505
 11
367.2605977445
 21
31.3778789641
  0
LINE
  8
0
 62
7
  6
CONTINUOUS
 10
369.8621602445
 20
31.4746700234
 11
369.6887227445
 21
31.5069337098
  0
LINE
  8
0
 62
7
  6
CONTINUOUS
 10
370.0355977445
 20
30.6035504109
 11
370.1512223035
 21
30.7003414814
  0
LINE
  8
0
 62
7
  6
CONTINUOUS
 10
364.543410024
 20
30.7971325633
 11
364.369972524
 21
30.7003414814
  0
LINE
  8
0
 62
7
  6
CONTINUOUS
 10
366.624660024
 20
31.4424063369
 11
366.5090354651
 21
31.3778789641
  0
LINE
  8
0
 62
7
  6
CONTINUOUS
 10
366.5090354651
 20
31.2488242184
 11
366.624660024
 21
31.3133515913
  0
LINE
  8
0
 62
7
  6
CONTINUOUS
 10
359.2246602583
 20
31.4746700234
 11
359.0512227376
 21
31.4101426505
  0
LINE
  8
0
 62
7
  6
CONTINUOUS
 10
361.6527851343
 20
31.5069337098
 11
361.4793477997
 21
31.4424063369
  0
LINE
  8
0
 62
7
  6
CONTINUOUS
 10
361.4793477997
 20
31.3133515913
 11
361.6527851343
 21
31.3778789641
  0
LINE
  8
0
 62
7
  6
CONTINUOUS
 10
360.2652852997
 20
30.7326051679
 11
360.091847717
 21
30.668077795
  0
LINE
  8
0
 62
7
  6
CONTINUOUS
 10
369.6887227445
 20
30.668077795
 11
369.4574729651
 21
30.6358140973
  0
LINE
  8
0
 62
7
  6
CONTINUOUS
 10
364.0809101343
 20
30.5067593403
 11
364.369972524
 21
30.5390230296
  0
LINE
  8
0
 62
7
  6
CONTINUOUS
 10
369.4574729651
 20
30.5067593403
 11
369.8043479651
 21
30.5390230296
  0
LINE
  8
0
 62
7
  6
CONTINUOUS
 10
359.744972717
 20
30.5067593403
 11
360.1496602445
 21
30.5390230296
  0
LINE
  8
0
 62
7
  6
CONTINUOUS
 10
360.091847717
 20
30.668077795
 11
359.6871602721
 21
30.6358140973
  0
LINE
  8
0
 62
7
  6
CONTINUOUS
 10
363.9652852445
 20
31.0552420547
 11
364.6012229651
 21
31.0552420547
  0
LINE
  8
0
 62
7
  6
CONTINUOUS
 10
364.6012229651
 20
31.1842968456
 11
363.9652852445
 21
31.1842968456
  0
LINE
  8
0
 62
7
  6
CONTINUOUS
 10
360.3230977445
 20
31.216560532
 11
360.6121602997
 21
31.216560532
  0
LINE
  8
0
 62
7
  6
CONTINUOUS
 10
363.1559103548
 20
31.2810879048
 11
363.4449727445
 21
31.2810879048
  0
LINE
  8
0
 62
7
  6
CONTINUOUS
 10
369.8621602445
 20
31.2810879048
 11
370.1512223035
 21
31.2810879048
  0
LINE
  8
0
 62
7
  6
CONTINUOUS
 10
363.8496603548
 20
31.4101426505
 11
364.1965353548
 21
31.4101426505
  0
LINE
  8
0
 62
7
  6
CONTINUOUS
 10
368.9949727445
 20
31.4101426505
 11
369.3418477445
 21
31.4101426505
  0
LINE
  8
0
 62
7
  6
CONTINUOUS
 10
369.3418477445
 20
31.5391973962
 11
368.9949727445
 21
31.5391973962
  0
LINE
  8
0
 62
7
  6
CONTINUOUS
 10
367.2605977445
 20
31.5391973962
 11
367.0293479651
 21
31.5391973962
  0
LINE
  8
0
 62
7
  6
CONTINUOUS
 10
366.5090354651
 20
31.5391973962
 11
366.2199727445
 21
31.5391973962
  0
LINE
  8
0
 62
7
  6
CONTINUOUS
 10
365.757472524
 20
31.5391973962
 11
365.4684104651
 21
31.5391973962
  0
LINE
  8
0
 62
7
  6
CONTINUOUS
 10
364.1965353548
 20
31.5391973962
 11
363.8496603548
 21
31.5391973962
  0
LINE
  8
0
 62
7
  6
CONTINUOUS
 10
362.1152853548
 20
31.5391973962
 11
361.8840352445
 21
31.5391973962
  0
LINE
  8
0
 62
7
  6
CONTINUOUS
 10
365.4684104651
 20
31.8618343508
 11
365.757472524
 21
31.8618343508
  0
LINE
  8
0
 62
7
  6
CONTINUOUS
 10
365.757472524
 20
32.0231527829
 11
365.4684104651
 21
32.0231527829
  0
LINE
  8
0
 62
7
  6
CONTINUOUS
 10
361.3637227445
 20
32.0231527829
 11
361.0746601894
 21
32.0231527829
  0
LINE
  8
0
 62
7
  6
CONTINUOUS
 10
360.4015045068
 20
32.3100380288
 11
360.8140758554
 21
32.3100380288
  0
LINE
  8
0
 62
7
  6
CONTINUOUS
 10
362.0408487691
 20
32.3100380288
 11
363.4342913921
 21
32.3100380288
  0
LINE
  8
0
 62
7
  6
CONTINUOUS
 10
363.7621602445
 20
32.3100380288
 11
365.1556028675
 21
32.3100380288
  0
LINE
  8
0
 62
7
  6
CONTINUOUS
 10
367.0408487691
 20
32.3100380288
 11
368.4342913921
 21
32.3100380288
  0
LINE
  8
0
 62
7
  6
CONTINUOUS
 10
368.7621602445
 20
32.3100380288
 11
370.1556028675
 21
32.3100380288
  0
LINE
  8
0
 62
7
  6
CONTINUOUS
 10
366.798097524
 20
31.5069337098
 11
366.624660024
 21
31.4424063369
  0
LINE
  8
0
 62
7
  6
CONTINUOUS
 10
364.369972524
 20
30.5390230296
 11
364.543410024
 21
30.6035504109
  0
LINE
  8
0
 62
7
  6
CONTINUOUS
 10
369.8043479651
 20
30.5390230296
 11
370.0355977445
 21
30.6035504109
  0
LINE
  8
0
 62
7
  6
CONTINUOUS
 10
369.8043479651
 20
30.7003414814
 11
369.6887227445
 21
30.668077795
  0
LINE
  8
0
 62
7
  6
CONTINUOUS
 10
368.7637229651
 20
31.3778789641
 11
368.9949727445
 21
31.4101426505
  0
LINE
  8
0
 62
7
  6
CONTINUOUS
 10
366.798097524
 20
31.3778789641
 11
367.0293479651
 21
31.4101426505
  0
LINE
  8
0
 62
7
  6
CONTINUOUS
 10
363.7340351343
 20
31.0229783683
 11
363.9652852445
 21
31.0552420547
  0
LINE
  8
0
 62
7
  6
CONTINUOUS
 10
367.0293479651
 20
31.5391973962
 11
366.798097524
 21
31.5069337098
  0
LINE
  8
0
 62
7
  6
CONTINUOUS
 10
363.6184102445
 20
31.3778789641
 11
363.8496603548
 21
31.4101426505
  0
LINE
  8
0
 62
7
  6
CONTINUOUS
 10
368.9949727445
 20
31.5391973962
 11
368.6480977445
 21
31.5069337098
  0
LINE
  8
0
 62
7
  6
CONTINUOUS
 10
363.9652852445
 20
31.1842968456
 11
363.6184102445
 21
31.1520331591
  0
LINE
  8
0
 62
7
  6
CONTINUOUS
 10
359.744972717
 20
31.5391973962
 11
359.3980977583
 21
31.5069337098
  0
LINE
  8
0
 62
7
  6
CONTINUOUS
 10
363.8496603548
 20
31.5391973962
 11
363.4449727445
 21
31.5069337098
  0
LINE
  8
0
 62
7
  6
CONTINUOUS
 10
361.221176638
 20
33.4575790124
 11
360.565438933
 21
33.4575790124
  0
LINE
  8
0
 62
7
  6
CONTINUOUS
 10
366.624660024
 20
31.3133515913
 11
366.798097524
 21
31.3778789641
  0
LINE
  8
0
 62
7
  6
CONTINUOUS
 10
368.6480977445
 20
31.3456152777
 11
368.7637229651
 21
31.3778789641
  0
LINE
  8
0
 62
7
  6
CONTINUOUS
 10
368.6480977445
 20
31.5069337098
 11
368.4168479651
 21
31.4424063369
  0
LINE
  8
0
 62
7
  6
CONTINUOUS
 10
364.369972524
 20
30.7003414814
 11
364.0809101343
 21
30.6358140973
  0
LINE
  8
0
 62
7
  6
CONTINUOUS
 10
361.6527851343
 20
31.3778789641
 11
361.8840352445
 21
31.4101426505
  0
LINE
  8
0
 62
7
  6
CONTINUOUS
 10
361.8840352445
 20
31.5391973962
 11
361.6527851343
 21
31.5069337098
  0
LINE
  8
0
 62
7
  6
CONTINUOUS
 10
359.4559102445
 20
31.3778789641
 11
359.6871602721
 21
31.4101426505
  0
LINE
  8
0
 62
7
  6
CONTINUOUS
 10
365.9752749986
 20
34.9329888485
 11
366.6310127035
 21
34.9329888485
  0
LINE
  8
0
 62
7
  6
CONTINUOUS
 10
363.6184102445
 20
30.9907146818
 11
363.7340351343
 21
31.0229783683
  0
LINE
  8
0
 62
7
  6
CONTINUOUS
 10
363.6184102445
 20
31.1520331591
 11
363.3871601343
 21
31.0875057863
  0
LINE
  8
0
 62
7
  6
CONTINUOUS
 10
363.5027853548
 20
31.3456152777
 11
363.6184102445
 21
31.3778789641
  0
LINE
  8
0
 62
7
  6
CONTINUOUS
 10
360.1496602445
 20
30.5390230296
 11
360.3809101894
 21
30.6035504109
  0
LINE
  8
0
 62
7
  6
CONTINUOUS
 10
363.4449727445
 20
31.5069337098
 11
363.3293478548
 21
31.4746700234
  0
LINE
  8
0
 62
7
  6
CONTINUOUS
 10
359.3980977583
 20
31.5069337098
 11
359.2246602583
 21
31.4746700234
  0
LINE
  8
0
 62
7
  6
CONTINUOUS
 10
370.1556028675
 20
36.0805298321
 11
368.7621602445
 21
36.0805298321
  0
LINE
  8
0
 62
7
  6
CONTINUOUS
 10
366.7949471298
 20
36.0805298321
 11
366.3823757812
 21
36.0805298321
  0
LINE
  8
0
 62
7
  6
CONTINUOUS
 10
365.1556028675
 20
36.0805298321
 11
363.7621602445
 21
36.0805298321
  0
LINE
  8
0
 62
7
  6
CONTINUOUS
 10
363.4342913921
 20
36.0805298321
 11
362.0408487691
 21
36.0805298321
  0
LINE
  8
0
 62
7
  6
CONTINUOUS
 10
360.1556028675
 20
36.0805298321
 11
358.7621602445
 21
36.0805298321
  0
LINE
  8
0
 62
7
  6
CONTINUOUS
 10
359.3402852307
 20
31.3456152777
 11
359.4559102445
 21
31.3778789641
  0
CIRCLE
  8
0
 62
7
  6
CONTINUOUS
 10
369.458881556
 20
38.4165954059
 40
2.0901639344
  0
ARC
  8
0
 62
7
  6
CONTINUOUS
 10
360.4015045068
 20
33.9493822911
 40
1.6393442623
 50
180.0
 51
270.0
  0
ARC
  8
0
 62
7
  6
CONTINUOUS
 10
366.7949471298
 20
34.4411855698
 40
1.6393442623
 50
0.0
 51
90.0
  0
ARC
  8
0
 62
7
  6
CONTINUOUS
 10
360.8140758554
 20
33.7854478649
 40
1.4754098361
 50
270.0
 51
326.2510114041
  0
ARC
  8
0
 62
7
  6
CONTINUOUS
 10
366.3823757812
 20
34.6051199961
 40
1.4754098361
 50
90.0
 51
146.2510114041
  0
ARC
  8
0
 62
7
  6
CONTINUOUS
 10
361.221176638
 20
34.2772511436
 40
0.8196721311
 50
270.0
 51
360.0
  0
ARC
  8
0
 62
7
  6
CONTINUOUS
 10
365.9752749986
 20
34.1133167174
 40
0.8196721311
 50
90.0
 51
180.0
  0
ARC
  8
0
 62
7
  6
CONTINUOUS
 10
360.565438933
 20
33.867415078
 40
0.4098360656
 50
180.0
 51
270.0
  0
ARC
  8
0
 62
7
  6
CONTINUOUS
 10
366.6310127035
 20
34.5231527829
 40
0.4098360656
 50
0.0
 51
90.0
  0
SOLID
  8
0
 62
7
  6
CONTINUOUS
 10
365.4684104651
 20
31.8618347111
 11
365.4684104651
 21
32.0231531947
 12
365.757472524
 22
31.8618347111
 13
365.757472524
 23
32.0231531947
  0
SOLID
  8
0
 62
7
  6
CONTINUOUS
 10
359.744972717
 20
31.5391977439
 11
360.1496602445
 21
31.5069333244
 12
359.3980977583
 22
31.5069333244
 13
359.3980977583
 23
31.5069333244
  0
SOLID
  8
0
 62
7
  6
CONTINUOUS
 10
359.2246602583
 20
31.4746706537
 11
359.3980977583
 21
31.5069333244
 12
360.1496602445
 22
31.5069333244
 13
360.1496602445
 23
31.5069333244
  0
SOLID
  8
0
 62
7
  6
CONTINUOUS
 10
360.1496602445
 20
31.5069333244
 11
360.3809101894
 21
31.4424063504
 12
359.2246602583
 22
31.4746706537
 13
359.2246602583
 23
31.4746706537
  0
SOLID
  8
0
 62
7
  6
CONTINUOUS
 10
359.0512227376
 20
31.4101419116
 11
359.2246602583
 21
31.4746706537
 12
360.3809101894
 22
31.4424063504
 13
360.3809101894
 23
31.4424063504
  0
SOLID
  8
0
 62
7
  6
CONTINUOUS
 10
359.0512227376
 20
31.4101419116
 11
360.3809101894
 21
31.4424063504
 12
359.6871602721
 22
31.4101419116
 13
359.6871602721
 23
31.4101419116
  0
SOLID
  8
0
 62
7
  6
CONTINUOUS
 10
359.6871602721
 20
31.4101419116
 11
360.3809101894
 21
31.4424063504
 12
360.091847717
 22
31.3778792603
 13
360.091847717
 23
31.3778792603
  0
SOLID
  8
0
 62
7
  6
CONTINUOUS
 10
360.3809101894
 20
31.4424063504
 11
360.5543476894
 21
31.345614957
 12
360.091847717
 22
31.3778792603
 13
360.091847717
 23
31.3778792603
  0
SOLID
  8
0
 62
7
  6
CONTINUOUS
 10
360.2652852997
 20
31.3133521701
 11
360.091847717
 21
31.3778792603
 12
360.5543476894
 22
31.345614957
 13
360.5543476894
 23
31.345614957
  0
SOLID
  8
0
 62
7
  6
CONTINUOUS
 10
360.2652852997
 20
31.3133521701
 11
360.5543476894
 21
31.345614957
 12
360.3230977445
 22
31.2165606992
 13
360.3230977445
 23
31.2165606992
  0
SOLID
  8
0
 62
7
  6
CONTINUOUS
 10
360.5543476894
 20
31.345614957
 11
360.6121602997
 21
31.2165606992
 12
360.3230977445
 22
31.2165606992
 13
360.3230977445
 23
31.2165606992
  0
SOLID
  8
0
 62
7
  6
CONTINUOUS
 10
361.6527851343
 20
31.5069329918
 11
361.8840352445
 21
31.5391972951
 12
362.1152853548
 22
31.5391972951
 13
362.1152853548
 23
31.5391972951
  0
SOLID
  8
0
 62
7
  6
CONTINUOUS
 10
362.1152853548
 20
31.5391972951
 11
362.2887228548
 21
31.5069329918
 12
361.6527851343
 22
31.5069329918
 13
361.6527851343
 23
31.5069329918
  0
SOLID
  8
0
 62
7
  6
CONTINUOUS
 10
361.4793477997
 20
31.4424059016
 11
361.6527851343
 21
31.5069329918
 12
362.2887228548
 22
31.5069329918
 13
362.2887228548
 23
31.5069329918
  0
SOLID
  8
0
 62
7
  6
CONTINUOUS
 10
362.2887228548
 20
31.5069329918
 11
362.4621603548
 21
31.4424059016
 12
361.4793477997
 22
31.4424059016
 13
361.4793477997
 23
31.4424059016
  0
SOLID
  8
0
 62
7
  6
CONTINUOUS
 10
362.4621603548
 20
31.4424059016
 11
361.8840352445
 21
31.4101420472
 12
361.4793477997
 22
31.4424059016
 13
361.4793477997
 23
31.4424059016
  0
SOLID
  8
0
 62
7
  6
CONTINUOUS
 10
361.3637227445
 20
31.3778788115
 11
361.4793477997
 21
31.4424059016
 12
361.8840352445
 22
31.4101420472
 13
361.8840352445
 23
31.4101420472
  0
SOLID
  8
0
 62
7
  6
CONTINUOUS
 10
361.8840352445
 20
31.4101420472
 11
361.6527851343
 21
31.3778788115
 12
361.3637227445
 22
31.3778788115
 13
361.3637227445
 23
31.3778788115
  0
SOLID
  8
0
 62
7
  6
CONTINUOUS
 10
361.8840352445
 20
31.4101420472
 11
362.4621603548
 21
31.4424059016
 12
362.1152853548
 22
31.3778788115
 13
362.1152853548
 23
31.3778788115
  0
SOLID
  8
0
 62
7
  6
CONTINUOUS
 10
362.4621603548
 20
31.4424059016
 11
362.5777852445
 21
31.3778788115
 12
362.1152853548
 22
31.3778788115
 13
362.1152853548
 23
31.3778788115
  0
SOLID
  8
0
 62
7
  6
CONTINUOUS
 10
362.2309102445
 20
31.345614957
 11
362.1152853548
 21
31.3778788115
 12
362.5777852445
 22
31.3778788115
 13
362.5777852445
 23
31.3778788115
  0
SOLID
  8
0
 62
7
  6
CONTINUOUS
 10
362.5777852445
 20
31.3778788115
 11
362.6355978548
 21
31.3133517213
 12
362.2309102445
 22
31.345614957
 13
362.2309102445
 23
31.345614957
  0
SOLID
  8
0
 62
7
  6
CONTINUOUS
 10
362.3465351343
 20
31.2810878668
 11
362.2309102445
 21
31.345614957
 12
362.6355978548
 22
31.3133517213
 13
362.6355978548
 23
31.3133517213
  0
SOLID
  8
0
 62
7
  6
CONTINUOUS
 10
362.3465351343
 20
31.2810878668
 11
362.6355978548
 21
31.3133517213
 12
362.4043477445
 22
31.1520332377
 13
362.4043477445
 23
31.1520332377
  0
SOLID
  8
0
 62
7
  6
CONTINUOUS
 10
362.6355978548
 20
31.3133517213
 11
362.6934101343
 21
31.1520332377
 12
362.4043477445
 22
31.1520332377
 13
362.4043477445
 23
31.1520332377
  0
SOLID
  8
0
 62
7
  6
CONTINUOUS
 10
361.6527851343
 20
31.3778788115
 11
361.4793477997
 21
31.3133517213
 12
361.3637227445
 22
31.3778788115
 13
361.3637227445
 23
31.3778788115
  0
SOLID
  8
0
 62
7
  6
CONTINUOUS
 10
361.4793477997
 20
31.3133517213
 11
361.3637227445
 21
31.2488235635
 12
361.3637227445
 22
31.3778788115
 13
361.3637227445
 23
31.3778788115
  0
SOLID
  8
0
 62
7
  6
CONTINUOUS
 10
361.3637227445
 20
31.2488235635
 11
361.0746601894
 21
30.5067593033
 12
361.3637227445
 22
31.3778788115
 13
361.3637227445
 23
31.3778788115
  0
SOLID
  8
0
 62
7
  6
CONTINUOUS
 10
361.3637227445
 20
31.3778788115
 11
361.0746601894
 21
30.5067593033
 12
361.3637227445
 22
32.0231527459
 13
361.3637227445
 23
32.0231527459
  0
SOLID
  8
0
 62
7
  6
CONTINUOUS
 10
361.0746601894
 20
30.5067593033
 11
361.0746601894
 21
32.0231527459
 12
361.3637227445
 22
32.0231527459
 13
361.3637227445
 23
32.0231527459
  0
SOLID
  8
0
 62
7
  6
CONTINUOUS
 10
361.3637227445
 20
31.2488235635
 11
361.3637227445
 21
30.5067593033
 12
361.0746601894
 22
30.5067593033
 13
361.0746601894
 23
30.5067593033
  0
SOLID
  8
0
 62
7
  6
CONTINUOUS
 10
362.4043477445
 20
30.5067593033
 11
362.4043477445
 21
31.1520332377
 12
362.6934101343
 22
31.1520332377
 13
362.6934101343
 23
31.1520332377
  0
SOLID
  8
0
 62
7
  6
CONTINUOUS
 10
362.6934101343
 20
31.1520332377
 11
362.6934101343
 21
30.5067593033
 12
362.4043477445
 22
30.5067593033
 13
362.4043477445
 23
30.5067593033
  0
SOLID
  8
0
 62
7
  6
CONTINUOUS
 10
363.4449727445
 20
31.506933758
 11
363.8496603548
 21
31.5391977507
 12
364.1965353548
 22
31.5391977507
 13
364.1965353548
 23
31.5391977507
  0
SOLID
  8
0
 62
7
  6
CONTINUOUS
 10
364.1965353548
 20
31.5391977507
 11
364.543410024
 21
31.506933758
 12
363.4449727445
 22
31.506933758
 13
363.4449727445
 23
31.506933758
  0
SOLID
  8
0
 62
7
  6
CONTINUOUS
 10
363.3293478548
 20
31.4746706537
 11
363.4449727445
 21
31.506933758
 12
364.543410024
 22
31.506933758
 13
364.543410024
 23
31.506933758
  0
SOLID
  8
0
 62
7
  6
CONTINUOUS
 10
364.543410024
 20
31.506933758
 11
364.716847524
 21
31.4424063504
 12
363.3293478548
 22
31.4746706537
 13
363.3293478548
 23
31.4746706537
  0
SOLID
  8
0
 62
7
  6
CONTINUOUS
 10
363.2137226343
 20
31.4101417797
 11
363.3293478548
 21
31.4746706537
 12
364.716847524
 22
31.4424063504
 13
364.716847524
 23
31.4424063504
  0
SOLID
  8
0
 62
7
  6
CONTINUOUS
 10
363.2137226343
 20
31.4101417797
 11
364.716847524
 21
31.4424063504
 12
363.8496603548
 22
31.4101417797
 13
363.8496603548
 23
31.4101417797
  0
SOLID
  8
0
 62
7
  6
CONTINUOUS
 10
363.8496603548
 20
31.4101417797
 11
364.716847524
 21
31.4424063504
 12
364.1965353548
 22
31.4101417797
 13
364.1965353548
 23
31.4101417797
  0
SOLID
  8
0
 62
7
  6
CONTINUOUS
 10
364.1965353548
 20
31.4101417797
 11
364.716847524
 21
31.4424063504
 12
364.4277854651
 22
31.3778793357
 13
364.4277854651
 23
31.3778793357
  0
SOLID
  8
0
 62
7
  6
CONTINUOUS
 10
364.716847524
 20
31.4424063504
 11
364.8324727445
 21
31.3778793357
 12
364.4277854651
 22
31.3778793357
 13
364.4277854651
 23
31.3778793357
  0
SOLID
  8
0
 62
7
  6
CONTINUOUS
 10
363.1559103548
 20
31.3456153429
 11
363.2137226343
 21
31.4101417797
 12
363.8496603548
 22
31.4101417797
 13
363.8496603548
 23
31.4101417797
  0
SOLID
  8
0
 62
7
  6
CONTINUOUS
 10
364.543410024
 20
31.3456153429
 11
364.4277854651
 21
31.3778793357
 12
364.8324727445
 22
31.3778793357
 13
364.8324727445
 23
31.3778793357
  0
SOLID
  8
0
 62
7
  6
CONTINUOUS
 10
364.543410024
 20
31.3456153429
 11
364.8324727445
 21
31.3778793357
 12
364.6012229651
 22
31.2810881318
 13
364.6012229651
 23
31.2810881318
  0
SOLID
  8
0
 62
7
  6
CONTINUOUS
 10
364.8324727445
 20
31.3778793357
 11
364.890285024
 21
31.2810881318
 12
364.6012229651
 22
31.2810881318
 13
364.6012229651
 23
31.2810881318
  0
SOLID
  8
0
 62
7
  6
CONTINUOUS
 10
364.6012229651
 20
31.1842964734
 11
364.6012229651
 21
31.2810881318
 12
364.890285024
 22
31.2810881318
 13
364.890285024
 23
31.2810881318
  0
SOLID
  8
0
 62
7
  6
CONTINUOUS
 10
364.6012229651
 20
31.1842964734
 11
364.890285024
 21
31.2810881318
 12
364.6012229651
 22
31.0552422931
 13
364.6012229651
 23
31.0552422931
  0
SOLID
  8
0
 62
7
  6
CONTINUOUS
 10
364.6012229651
 20
31.0552422931
 11
364.890285024
 21
31.2810881318
 12
364.6012229651
 22
30.8616599362
 13
364.6012229651
 23
30.8616599362
  0
SOLID
  8
0
 62
7
  6
CONTINUOUS
 10
364.890285024
 20
31.2810881318
 11
364.890285024
 21
30.7648681127
 12
364.6012229651
 22
30.8616599362
 13
364.6012229651
 23
30.8616599362
  0
SOLID
  8
0
 62
7
  6
CONTINUOUS
 10
366.798097524
 20
31.5069339419
 11
367.0293479651
 21
31.5391976292
 12
367.2605977445
 22
31.5391976292
 13
367.2605977445
 23
31.5391976292
  0
SOLID
  8
0
 62
7
  6
CONTINUOUS
 10
367.2605977445
 20
31.5391976292
 11
367.4340352445
 21
31.5069339419
 12
366.798097524
 22
31.5069339419
 13
366.798097524
 23
31.5069339419
  0
SOLID
  8
0
 62
7
  6
CONTINUOUS
 10
366.624660024
 20
31.4424065674
 11
366.798097524
 21
31.5069339419
 12
367.4340352445
 22
31.5069339419
 13
367.4340352445
 23
31.5069339419
  0
SOLID
  8
0
 62
7
  6
CONTINUOUS
 10
367.4340352445
 20
31.5069339419
 11
367.6074727445
 21
31.4424065674
 12
366.624660024
 22
31.4424065674
 13
366.624660024
 23
31.4424065674
  0
SOLID
  8
0
 62
7
  6
CONTINUOUS
 10
367.6074727445
 20
31.4424065674
 11
367.0293479651
 21
31.4101420472
 12
366.624660024
 22
31.4424065674
 13
366.624660024
 23
31.4424065674
  0
SOLID
  8
0
 62
7
  6
CONTINUOUS
 10
366.5090354651
 20
31.377879193
 11
366.624660024
 21
31.4424065674
 12
367.0293479651
 22
31.4101420472
 13
367.0293479651
 23
31.4101420472
  0
SOLID
  8
0
 62
7
  6
CONTINUOUS
 10
367.0293479651
 20
31.4101420472
 11
366.798097524
 21
31.377879193
 12
366.5090354651
 22
31.377879193
 13
366.5090354651
 23
31.377879193
  0
SOLID
  8
0
 62
7
  6
CONTINUOUS
 10
367.0293479651
 20
31.4101420472
 11
367.6074727445
 21
31.4424065674
 12
367.2605977445
 22
31.377879193
 13
367.2605977445
 23
31.377879193
  0
SOLID
  8
0
 62
7
  6
CONTINUOUS
 10
367.6074727445
 20
31.4424065674
 11
367.7230979651
 21
31.377879193
 12
367.2605977445
 22
31.377879193
 13
367.2605977445
 23
31.377879193
  0
SOLID
  8
0
 62
7
  6
CONTINUOUS
 10
367.3762229651
 20
31.345614957
 11
367.2605977445
 21
31.377879193
 12
367.7230979651
 22
31.377879193
 13
367.7230979651
 23
31.377879193
  0
SOLID
  8
0
 62
7
  6
CONTINUOUS
 10
367.3762229651
 20
31.345614957
 11
367.7230979651
 21
31.377879193
 12
367.491847524
 22
31.2810881312
 13
367.491847524
 23
31.2810881312
  0
SOLID
  8
0
 62
7
  6
CONTINUOUS
 10
367.7230979651
 20
31.377879193
 11
367.7809102445
 21
31.2810881312
 12
367.491847524
 22
31.2810881312
 13
367.491847524
 23
31.2810881312
  0
SOLID
  8
0
 62
7
  6
CONTINUOUS
 10
367.5496604651
 20
31.119769695
 11
367.491847524
 21
31.2810881312
 12
367.7809102445
 22
31.2810881312
 13
367.7809102445
 23
31.2810881312
  0
SOLID
  8
0
 62
7
  6
CONTINUOUS
 10
367.7809102445
 20
31.2810881312
 11
367.838722524
 21
31.119769695
 12
367.5496604651
 22
31.119769695
 13
367.5496604651
 23
31.119769695
  0
SOLID
  8
0
 62
7
  6
CONTINUOUS
 10
366.798097524
 20
31.377879193
 11
366.624660024
 21
31.3133521701
 12
366.5090354651
 22
31.377879193
 13
366.5090354651
 23
31.377879193
  0
SOLID
  8
0
 62
7
  6
CONTINUOUS
 10
366.624660024
 20
31.3133521701
 11
366.5090354651
 21
31.2488235635
 12
366.5090354651
 22
31.377879193
 13
366.5090354651
 23
31.377879193
  0
SOLID
  8
0
 62
7
  6
CONTINUOUS
 10
366.5090354651
 20
31.2488235635
 11
366.2199727445
 21
30.5067596374
 12
366.5090354651
 22
31.377879193
 13
366.5090354651
 23
31.377879193
  0
SOLID
  8
0
 62
7
  6
CONTINUOUS
 10
366.5090354651
 20
31.377879193
 11
366.2199727445
 21
30.5067596374
 12
366.5090354651
 22
31.5391976292
 13
366.5090354651
 23
31.5391976292
  0
SOLID
  8
0
 62
7
  6
CONTINUOUS
 10
366.2199727445
 20
30.5067596374
 11
366.2199727445
 21
31.5391976292
 12
366.5090354651
 22
31.5391976292
 13
366.5090354651
 23
31.5391976292
  0
SOLID
  8
0
 62
7
  6
CONTINUOUS
 10
366.5090354651
 20
31.2488235635
 11
366.5090354651
 21
30.5067596374
 12
366.2199727445
 22
30.5067596374
 13
366.2199727445
 23
30.5067596374
  0
SOLID
  8
0
 62
7
  6
CONTINUOUS
 10
367.5496604651
 20
30.5067596374
 11
367.5496604651
 21
31.119769695
 12
367.838722524
 22
31.119769695
 13
367.838722524
 23
31.119769695
  0
SOLID
  8
0
 62
7
  6
CONTINUOUS
 10
367.838722524
 20
31.119769695
 11
367.838722524
 21
30.5067596374
 12
367.5496604651
 22
30.5067596374
 13
367.5496604651
 23
30.5067596374
  0
SOLID
  8
0
 62
7
  6
CONTINUOUS
 10
368.6480977445
 20
31.5069334157
 11
368.9949727445
 21
31.539197762
 12
369.3418477445
 22
31.539197762
 13
369.3418477445
 23
31.539197762
  0
SOLID
  8
0
 62
7
  6
CONTINUOUS
 10
369.3418477445
 20
31.539197762
 11
369.6887227445
 21
31.5069334157
 12
368.6480977445
 22
31.5069334157
 13
368.6480977445
 23
31.5069334157
  0
SOLID
  8
0
 62
7
  6
CONTINUOUS
 10
368.4168479651
 20
31.4424063504
 11
368.6480977445
 21
31.5069334157
 12
369.6887227445
 22
31.5069334157
 13
369.6887227445
 23
31.5069334157
  0
SOLID
  8
0
 62
7
  6
CONTINUOUS
 10
368.4168479651
 20
31.4424063504
 11
369.6887227445
 21
31.5069334406
 12
369.8621602445
 22
31.4746706537
 13
369.8621602445
 23
31.4746706537
  0
SOLID
  8
0
 62
7
  6
CONTINUOUS
 10
368.4168479651
 20
31.4424063504
 11
369.8621602445
 21
31.4746706537
 12
368.9949727445
 22
31.4101421267
 13
368.9949727445
 23
31.4101421267
  0
SOLID
  8
0
 62
7
  6
CONTINUOUS
 10
368.9949727445
 20
31.4101421267
 11
369.8621602445
 21
31.4746706537
 12
369.3418477445
 22
31.4101421267
 13
369.3418477445
 23
31.4101421267
  0
SOLID
  8
0
 62
7
  6
CONTINUOUS
 10
369.8621602445
 20
31.4746706537
 11
370.0355977445
 21
31.4101421267
 12
369.3418477445
 22
31.4101421267
 13
369.3418477445
 23
31.4101421267
  0
SOLID
  8
0
 62
7
  6
CONTINUOUS
 10
369.6887227445
 20
31.3778792603
 11
369.3418477445
 21
31.4101421267
 12
370.0355977445
 22
31.4101421267
 13
370.0355977445
 23
31.4101421267
  0
SOLID
  8
0
 62
7
  6
CONTINUOUS
 10
368.3012227445
 20
31.3456148845
 11
368.4168479651
 21
31.4424063504
 12
368.9949727445
 22
31.4101421267
 13
368.9949727445
 23
31.4101421267
  0
SOLID
  8
0
 62
7
  6
CONTINUOUS
 10
369.6887227445
 20
31.3778792603
 11
370.0355977445
 21
31.4101421267
 12
369.8043479651
 22
31.3456148845
 13
369.8043479651
 23
31.3456148845
  0
SOLID
  8
0
 62
7
  6
CONTINUOUS
 10
369.8043479651
 20
31.3456148845
 11
370.0355977445
 21
31.4101421267
 12
369.8621602445
 22
31.281087868
 13
369.8621602445
 23
31.281087868
  0
SOLID
  8
0
 62
7
  6
CONTINUOUS
 10
370.0355977445
 20
31.4101421267
 11
370.1512223035
 21
31.281087868
 12
369.8621602445
 22
31.281087868
 13
369.8621602445
 23
31.281087868
  0
SOLID
  8
0
 62
7
  6
CONTINUOUS
 10
359.4559102445
 20
31.3778792603
 11
358.9355977445
 21
31.3456148963
 12
359.6871602721
 22
31.4101421155
 13
359.6871602721
 23
31.4101421155
  0
SOLID
  8
0
 62
7
  6
CONTINUOUS
 10
358.9355977445
 20
31.3456148963
 11
359.0512227376
 21
31.4101421155
 12
359.6871602721
 22
31.4101421155
 13
359.6871602721
 23
31.4101421155
  0
SOLID
  8
0
 62
7
  6
CONTINUOUS
 10
359.4559102445
 20
31.3778792603
 11
359.3402852307
 21
31.3456148963
 12
358.9355977445
 22
31.3456148963
 13
358.9355977445
 23
31.3456148963
  0
SOLID
  8
0
 62
7
  6
CONTINUOUS
 10
358.8199727462
 20
31.2165607767
 11
358.9355977445
 21
31.3456148963
 12
359.3402852307
 22
31.3456148963
 13
359.3402852307
 23
31.3456148963
  0
SOLID
  8
0
 62
7
  6
CONTINUOUS
 10
363.1559103548
 20
31.3456149608
 11
363.8496603548
 21
31.4101420472
 12
363.6184102445
 22
31.3778792603
 13
363.6184102445
 23
31.3778792603
  0
SOLID
  8
0
 62
7
  6
CONTINUOUS
 10
363.6184102445
 20
31.3778792603
 11
363.5027853548
 21
31.3456149608
 12
363.1559103548
 22
31.3456149608
 13
363.1559103548
 23
31.3456149608
  0
SOLID
  8
0
 62
7
  6
CONTINUOUS
 10
363.1559103548
 20
31.2810878707
 11
363.1559103548
 21
31.3456149608
 12
363.5027853548
 22
31.3456149608
 13
363.5027853548
 23
31.3456149608
  0
SOLID
  8
0
 62
7
  6
CONTINUOUS
 10
363.5027853548
 20
31.3456149608
 11
363.4449727445
 21
31.2810878707
 12
363.1559103548
 22
31.2810878707
 13
363.1559103548
 23
31.2810878707
  0
SOLID
  8
0
 62
7
  6
CONTINUOUS
 10
368.3012227445
 20
31.3456149608
 11
368.9949727445
 21
31.4101420472
 12
368.7637229651
 22
31.3778792603
 13
368.7637229651
 23
31.3778792603
  0
SOLID
  8
0
 62
7
  6
CONTINUOUS
 10
368.7637229651
 20
31.3778792603
 11
368.6480977445
 21
31.3456149608
 12
368.3012227445
 22
31.3456149608
 13
368.3012227445
 23
31.3456149608
  0
SOLID
  8
0
 62
7
  6
CONTINUOUS
 10
368.3012227445
 20
31.2810878707
 11
368.3012227445
 21
31.3456149608
 12
368.6480977445
 22
31.3456149608
 13
368.6480977445
 23
31.3456149608
  0
SOLID
  8
0
 62
7
  6
CONTINUOUS
 10
368.6480977445
 20
31.3456149608
 11
368.5902854651
 21
31.2810878707
 12
368.3012227445
 22
31.2810878707
 13
368.3012227445
 23
31.2810878707
  0
SOLID
  8
0
 62
7
  6
CONTINUOUS
 10
368.4168479651
 20
31.1520336865
 11
368.3012227445
 21
31.2810878707
 12
368.5902854651
 22
31.2810878707
 13
368.5902854651
 23
31.2810878707
  0
SOLID
  8
0
 62
7
  6
CONTINUOUS
 10
358.8199727462
 20
31.2165607767
 11
359.3402852307
 21
31.345614957
 12
359.1668477307
 22
31.2488235635
 13
359.1668477307
 23
31.2488235635
  0
SOLID
  8
0
 62
7
  6
CONTINUOUS
 10
359.1668477307
 20
31.2488235635
 11
359.1090352445
 21
31.1842964734
 12
358.8199727462
 22
31.2165607767
 13
358.8199727462
 23
31.2165607767
  0
SOLID
  8
0
 62
7
  6
CONTINUOUS
 10
358.7621602445
 20
31.0229779898
 11
358.8199727462
 21
31.2165607767
 12
359.1090352445
 22
31.1842964734
 13
359.1090352445
 23
31.1842964734
  0
SOLID
  8
0
 62
7
  6
CONTINUOUS
 10
363.6184102445
 20
31.1520336865
 11
363.9652852445
 21
31.1842964611
 12
364.6012229651
 22
31.1842964611
 13
364.6012229651
 23
31.1842964611
  0
SOLID
  8
0
 62
7
  6
CONTINUOUS
 10
363.6184102445
 20
31.1520336865
 11
364.6012229651
 21
31.1842964611
 12
363.3871601343
 22
31.0875057863
 13
363.3871601343
 23
31.0875057863
  0
SOLID
  8
0
 62
7
  6
CONTINUOUS
 10
363.3871601343
 20
31.0875057863
 11
364.6012229651
 21
31.1842964611
 12
363.9652852445
 22
31.0552422808
 13
363.9652852445
 23
31.0552422808
  0
SOLID
  8
0
 62
7
  6
CONTINUOUS
 10
364.6012229651
 20
31.1842964611
 11
364.6012229651
 21
31.0552422808
 12
363.9652852445
 22
31.0552422808
 13
363.9652852445
 23
31.0552422808
  0
SOLID
  8
0
 62
7
  6
CONTINUOUS
 10
368.4168479651
 20
31.1520338754
 11
368.5902854651
 21
31.2810878668
 12
368.6480977445
 22
31.2165607767
 13
368.6480977445
 23
31.2165607767
  0
SOLID
  8
0
 62
7
  6
CONTINUOUS
 10
368.6480977445
 20
31.2165607767
 11
368.8215352445
 21
31.1520338754
 12
368.4168479651
 22
31.1520338754
 13
368.4168479651
 23
31.1520338754
  0
SOLID
  8
0
 62
7
  6
CONTINUOUS
 10
368.6480977445
 20
31.0552422931
 11
368.4168479651
 21
31.1520338754
 12
368.8215352445
 22
31.1520338754
 13
368.8215352445
 23
31.1520338754
  0
SOLID
  8
0
 62
7
  6
CONTINUOUS
 10
368.8215352445
 20
31.1520338754
 11
369.8043479651
 21
30.9907152029
 12
368.6480977445
 22
31.0552422931
 13
368.6480977445
 23
31.0552422931
  0
SOLID
  8
0
 62
7
  6
CONTINUOUS
 10
369.6309104651
 20
30.8939239876
 11
368.6480977445
 21
31.0552422931
 12
369.8043479651
 22
30.9907152029
 13
369.8043479651
 23
30.9907152029
  0
SOLID
  8
0
 62
7
  6
CONTINUOUS
 10
369.8043479651
 20
30.9907152029
 11
370.0355977445
 21
30.8939239876
 12
369.6309104651
 22
30.8939239876
 13
369.6309104651
 23
30.8939239876
  0
SOLID
  8
0
 62
7
  6
CONTINUOUS
 10
369.8043479651
 20
30.8293967193
 11
369.6309104651
 21
30.8939239876
 12
370.0355977445
 22
30.8939239876
 13
370.0355977445
 23
30.8939239876
  0
SOLID
  8
0
 62
7
  6
CONTINUOUS
 10
369.8043479651
 20
30.8293967193
 11
370.0355977445
 21
30.8939239876
 12
369.8621602445
 22
30.7648682694
 13
369.8621602445
 23
30.7648682694
  0
SOLID
  8
0
 62
7
  6
CONTINUOUS
 10
370.0355977445
 20
30.8939239876
 11
370.1512223035
 21
30.7648682694
 12
369.8621602445
 22
30.7648682694
 13
369.8621602445
 23
30.7648682694
  0
SOLID
  8
0
 62
7
  6
CONTINUOUS
 10
369.8043479651
 20
30.7003411846
 11
369.8621602445
 21
30.7648682694
 12
370.1512223035
 22
30.7648682694
 13
370.1512223035
 23
30.7648682694
  0
SOLID
  8
0
 62
7
  6
CONTINUOUS
 10
370.1512223035
 20
30.7648682694
 11
370.1512223035
 21
30.7003411846
 12
369.8043479651
 22
30.7003411846
 13
369.8043479651
 23
30.7003411846
  0
SOLID
  8
0
 62
7
  6
CONTINUOUS
 10
369.6887227445
 20
30.6680782357
 11
369.8043479651
 21
30.7003411846
 12
370.1512223035
 22
30.7003411846
 13
370.1512223035
 23
30.7003411846
  0
SOLID
  8
0
 62
7
  6
CONTINUOUS
 10
369.6887227445
 20
30.6680782357
 11
370.1512223035
 21
30.7003411846
 12
369.4574729651
 22
30.6358140998
 13
369.4574729651
 23
30.6358140998
  0
SOLID
  8
0
 62
7
  6
CONTINUOUS
 10
370.1512223035
 20
30.7003411846
 11
370.0355977445
 21
30.6035511455
 12
369.4574729651
 22
30.6358140998
 13
369.4574729651
 23
30.6358140998
  0
SOLID
  8
0
 62
7
  6
CONTINUOUS
 10
370.0355977445
 20
30.6035511455
 11
368.5902854651
 21
30.5712868422
 12
369.4574729651
 22
30.6358140998
 13
369.4574729651
 23
30.6358140998
  0
SOLID
  8
0
 62
7
  6
CONTINUOUS
 10
369.4574729651
 20
30.6358140998
 11
368.5902854651
 21
30.5712868422
 12
369.1105979651
 22
30.6358140998
 13
369.1105979651
 23
30.6358140998
  0
SOLID
  8
0
 62
7
  6
CONTINUOUS
 10
368.5902854651
 20
30.5712868422
 11
368.4168479651
 21
30.6358140998
 12
369.1105979651
 22
30.6358140998
 13
369.1105979651
 23
30.6358140998
  0
SOLID
  8
0
 62
7
  6
CONTINUOUS
 10
368.5902854651
 20
30.5712868422
 11
370.0355977445
 21
30.6035511455
 12
368.7637229651
 22
30.5390223111
 13
368.7637229651
 23
30.5390223111
  0
SOLID
  8
0
 62
7
  6
CONTINUOUS
 10
370.0355977445
 20
30.6035511455
 11
369.8043479651
 21
30.5390223111
 12
368.7637229651
 22
30.5390223111
 13
368.7637229651
 23
30.5390223111
  0
SOLID
  8
0
 62
7
  6
CONTINUOUS
 10
369.1105979651
 20
30.5067599302
 11
368.7637229651
 21
30.5390223111
 12
369.8043479651
 22
30.5390223111
 13
369.8043479651
 23
30.5390223111
  0
SOLID
  8
0
 62
7
  6
CONTINUOUS
 10
369.8043479651
 20
30.5390223111
 11
369.4574729651
 21
30.5067599302
 12
369.1105979651
 22
30.5067599302
 13
369.1105979651
 23
30.5067599302
  0
SOLID
  8
0
 62
7
  6
CONTINUOUS
 10
358.7621602445
 20
31.0229779898
 11
359.1090352445
 21
31.1842964734
 12
359.0512227376
 22
31.0552422931
 13
359.0512227376
 23
31.0552422931
  0
SOLID
  8
0
 62
7
  6
CONTINUOUS
 10
359.0512227376
 20
31.0552422931
 11
359.0512227376
 21
30.9584509954
 12
358.7621602445
 22
31.0229779898
 13
358.7621602445
 23
31.0229779898
  0
SOLID
  8
0
 62
7
  6
CONTINUOUS
 10
358.8199727462
 20
30.8293967193
 11
358.7621602445
 21
31.0229779898
 12
359.0512227376
 22
30.9584509954
 13
359.0512227376
 23
30.9584509954
  0
SOLID
  8
0
 62
7
  6
CONTINUOUS
 10
359.0512227376
 20
30.9584509954
 11
359.1668477307
 21
30.797132416
 12
358.8199727462
 22
30.8293967193
 13
358.8199727462
 23
30.8293967193
  0
SOLID
  8
0
 62
7
  6
CONTINUOUS
 10
358.9355977445
 20
30.7003413087
 11
358.8199727462
 21
30.8293967193
 12
359.1668477307
 22
30.797132416
 13
359.1668477307
 23
30.797132416
  0
SOLID
  8
0
 62
7
  6
CONTINUOUS
 10
359.1668477307
 20
30.797132416
 11
359.3402852307
 21
30.7003413087
 12
358.9355977445
 22
30.7003413087
 13
358.9355977445
 23
30.7003413087
  0
SOLID
  8
0
 62
7
  6
CONTINUOUS
 10
359.0512227376
 20
30.6358140759
 11
358.9355977445
 21
30.7003413087
 12
359.3402852307
 22
30.7003413087
 13
359.3402852307
 23
30.7003413087
  0
SOLID
  8
0
 62
7
  6
CONTINUOUS
 10
359.3402852307
 20
30.7003413087
 11
359.6871602721
 21
30.6358140759
 12
359.0512227376
 22
30.6358140759
 13
359.0512227376
 23
30.6358140759
  0
SOLID
  8
0
 62
7
  6
CONTINUOUS
 10
359.2246602583
 20
30.5712868422
 11
359.0512227376
 21
30.6358140759
 12
359.6871602721
 22
30.6358140759
 13
359.6871602721
 23
30.6358140759
  0
SOLID
  8
0
 62
7
  6
CONTINUOUS
 10
363.2715352445
 20
31.0229779808
 11
363.3871601343
 21
31.0875057863
 12
363.9652852445
 22
31.0552422931
 13
363.9652852445
 23
31.0552422931
  0
SOLID
  8
0
 62
7
  6
CONTINUOUS
 10
363.9652852445
 20
31.0552422931
 11
363.7340351343
 21
31.0229779808
 12
363.2715352445
 22
31.0229779808
 13
363.2715352445
 23
31.0229779808
  0
SOLID
  8
0
 62
7
  6
CONTINUOUS
 10
363.1559103548
 20
30.8939238094
 11
363.2715352445
 21
31.0229779808
 12
363.7340351343
 22
31.0229779808
 13
363.7340351343
 23
31.0229779808
  0
SOLID
  8
0
 62
7
  6
CONTINUOUS
 10
363.5027853548
 20
30.926187309
 11
363.1559103548
 21
30.8939238094
 12
363.6184102445
 22
30.9907152029
 13
363.6184102445
 23
30.9907152029
  0
SOLID
  8
0
 62
7
  6
CONTINUOUS
 10
363.1559103548
 20
30.8939238094
 11
363.7340351343
 21
31.0229779898
 12
363.6184102445
 22
30.9907152029
 13
363.6184102445
 23
30.9907152029
  0
SOLID
  8
0
 62
7
  6
CONTINUOUS
 10
363.5027853548
 20
30.926187309
 11
363.4449727445
 21
30.8293967193
 12
363.1559103548
 22
30.8939238094
 13
363.1559103548
 23
30.8939238094
  0
SOLID
  8
0
 62
7
  6
CONTINUOUS
 10
363.1559103548
 20
30.797132416
 11
363.1559103548
 21
30.8939238094
 12
363.4449727445
 22
30.8293967193
 13
363.4449727445
 23
30.8293967193
  0
SOLID
  8
0
 62
7
  6
CONTINUOUS
 10
363.4449727445
 20
30.8293967193
 11
363.4449727445
 21
30.7648681127
 12
363.1559103548
 22
30.797132416
 13
363.1559103548
 23
30.797132416
  0
SOLID
  8
0
 62
7
  6
CONTINUOUS
 10
363.2137226343
 20
30.6680782357
 11
363.1559103548
 21
30.797132416
 12
363.4449727445
 22
30.7648681127
 13
363.4449727445
 23
30.7648681127
  0
SOLID
  8
0
 62
7
  6
CONTINUOUS
 10
364.6012229651
 20
30.8616599362
 11
364.890285024
 21
30.7648681127
 12
364.543410024
 22
30.797132416
 13
364.543410024
 23
30.797132416
  0
SOLID
  8
0
 62
7
  6
CONTINUOUS
 10
364.369972524
 20
30.7003410226
 11
364.543410024
 21
30.797132416
 12
364.890285024
 22
30.7648681127
 13
364.890285024
 23
30.7648681127
  0
SOLID
  8
0
 62
7
  6
CONTINUOUS
 10
364.369972524
 20
30.7003410226
 11
364.890285024
 21
30.7648681127
 12
364.6012229651
 22
30.6680782357
 13
364.6012229651
 23
30.6680782357
  0
SOLID
  8
0
 62
7
  6
CONTINUOUS
 10
364.890285024
 20
30.7648681127
 11
364.9480979651
 21
30.6035511455
 12
364.6012229651
 22
30.6680782357
 13
364.6012229651
 23
30.6680782357
  0
SOLID
  8
0
 62
7
  6
CONTINUOUS
 10
364.6590352445
 20
30.5712868422
 11
364.6012229651
 21
30.6680782357
 12
364.9480979651
 22
30.6035511455
 13
364.9480979651
 23
30.6035511455
  0
SOLID
  8
0
 62
7
  6
CONTINUOUS
 10
364.6590352445
 20
30.5712868422
 11
364.9480979651
 21
30.6035511455
 12
364.716847524
 22
30.5067598731
 13
364.716847524
 23
30.5067598731
  0
SOLID
  8
0
 62
7
  6
CONTINUOUS
 10
364.9480979651
 20
30.6035511455
 11
365.0059102445
 21
30.5067598731
 12
364.716847524
 22
30.5067598731
 13
364.716847524
 23
30.5067598731
  0
SOLID
  8
0
 62
7
  6
CONTINUOUS
 10
360.2652852997
 20
30.7326051679
 11
360.3230977445
 21
30.8293966612
 12
360.6121602997
 22
30.8293966612
 13
360.6121602997
 23
30.8293966612
  0
SOLID
  8
0
 62
7
  6
CONTINUOUS
 10
360.6121602997
 20
30.8293966612
 11
360.5543476894
 21
30.7003410226
 12
360.2652852997
 22
30.7326051679
 13
360.2652852997
 23
30.7326051679
  0
SOLID
  8
0
 62
7
  6
CONTINUOUS
 10
360.091847717
 20
30.6680782357
 11
360.2652852997
 21
30.7326051679
 12
360.5543476894
 22
30.7003410226
 13
360.5543476894
 23
30.7003410226
  0
SOLID
  8
0
 62
7
  6
CONTINUOUS
 10
360.091847717
 20
30.6680782357
 11
360.5543476894
 21
30.7003410226
 12
359.6871602721
 22
30.6358139324
 13
359.6871602721
 23
30.6358139324
  0
SOLID
  8
0
 62
7
  6
CONTINUOUS
 10
360.5543476894
 20
30.7003410226
 11
360.3809101894
 21
30.6035511455
 12
359.6871602721
 22
30.6358139324
 13
359.6871602721
 23
30.6358139324
  0
SOLID
  8
0
 62
7
  6
CONTINUOUS
 10
359.2246602583
 20
30.5712868422
 11
359.6871602721
 21
30.6358139324
 12
360.3809101894
 22
30.6035511455
 13
360.3809101894
 23
30.6035511455
  0
SOLID
  8
0
 62
7
  6
CONTINUOUS
 10
359.2246602583
 20
30.5712868422
 11
360.3809101894
 21
30.6035511455
 12
359.3980977583
 22
30.5390224228
 13
359.3980977583
 23
30.5390224228
  0
SOLID
  8
0
 62
7
  6
CONTINUOUS
 10
360.3809101894
 20
30.6035511455
 11
360.1496602445
 21
30.5390224228
 12
359.3980977583
 22
30.5390224228
 13
359.3980977583
 23
30.5390224228
  0
SOLID
  8
0
 62
7
  6
CONTINUOUS
 10
359.744972717
 20
30.5067597521
 11
359.3980977583
 21
30.5390224228
 12
360.1496602445
 22
30.5390224228
 13
360.1496602445
 23
30.5390224228
  0
SOLID
  8
0
 62
7
  6
CONTINUOUS
 10
363.2137226343
 20
30.6680782357
 11
363.4449727445
 21
30.7648681127
 12
363.5027853548
 22
30.7003410226
 13
363.5027853548
 23
30.7003410226
  0
SOLID
  8
0
 62
7
  6
CONTINUOUS
 10
363.5027853548
 20
30.7003410226
 11
363.7340351343
 21
30.6358139324
 12
363.2137226343
 22
30.6680782357
 13
363.2137226343
 23
30.6680782357
  0
SOLID
  8
0
 62
7
  6
CONTINUOUS
 10
363.3871601343
 20
30.5712868422
 11
363.2137226343
 21
30.6680782357
 12
363.7340351343
 22
30.6358139324
 13
363.7340351343
 23
30.6358139324
  0
SOLID
  8
0
 62
7
  6
CONTINUOUS
 10
364.0809101343
 20
30.6358139363
 11
364.369972524
 21
30.7003410226
 12
364.6012229651
 22
30.6680782357
 13
364.6012229651
 23
30.6680782357
  0
SOLID
  8
0
 62
7
  6
CONTINUOUS
 10
364.6012229651
 20
30.6680782357
 11
364.543410024
 21
30.6035511455
 12
364.0809101343
 22
30.6358139363
 13
364.0809101343
 23
30.6358139363
  0
SOLID
  8
0
 62
7
  6
CONTINUOUS
 10
364.543410024
 20
30.6035511455
 11
363.3871601343
 21
30.5712868422
 12
364.0809101343
 22
30.6358139363
 13
364.0809101343
 23
30.6358139363
  0
SOLID
  8
0
 62
7
  6
CONTINUOUS
 10
363.3871601343
 20
30.5712868422
 11
363.7340351343
 21
30.6358139363
 12
364.0809101343
 22
30.6358139363
 13
364.0809101343
 23
30.6358139363
  0
SOLID
  8
0
 62
7
  6
CONTINUOUS
 10
363.3871601343
 20
30.5712868422
 11
364.543410024
 21
30.6035511455
 12
363.5027853548
 22
30.5390225267
 13
363.5027853548
 23
30.5390225267
  0
SOLID
  8
0
 62
7
  6
CONTINUOUS
 10
364.543410024
 20
30.6035511455
 11
364.369972524
 21
30.5390225267
 12
363.5027853548
 22
30.5390225267
 13
363.5027853548
 23
30.5390225267
  0
SOLID
  8
0
 62
7
  6
CONTINUOUS
 10
363.7340351343
 20
30.5067596914
 11
363.5027853548
 21
30.5390225267
 12
364.369972524
 22
30.5390225267
 13
364.369972524
 23
30.5390225267
  0
SOLID
  8
0
 62
7
  6
CONTINUOUS
 10
364.369972524
 20
30.5390225267
 11
364.0809101343
 21
30.5067596914
 12
363.7340351343
 22
30.5067596914
 13
363.7340351343
 23
30.5067596914
  0
SOLID
  8
0
 62
7
  6
CONTINUOUS
 10
368.7637229651
 20
30.6680782357
 11
368.4168479651
 21
30.6358138717
 12
368.6480977445
 22
30.7003410226
 13
368.6480977445
 23
30.7003410226
  0
SOLID
  8
0
 62
7
  6
CONTINUOUS
 10
368.6480977445
 20
30.7003410226
 11
368.4168479651
 21
30.6358138717
 12
368.5902854651
 22
30.7648680521
 13
368.5902854651
 23
30.7648680521
  0
SOLID
  8
0
 62
7
  6
CONTINUOUS
 10
368.4168479651
 20
30.6358138717
 11
368.3012227445
 21
30.7648680521
 12
368.5902854651
 22
30.7648680521
 13
368.5902854651
 23
30.7648680521
  0
SOLID
  8
0
 62
7
  6
CONTINUOUS
 10
368.7637229651
 20
30.6680782357
 11
369.1105979651
 21
30.6358138717
 12
368.4168479651
 22
30.6358138717
 13
368.4168479651
 23
30.6358138717
  0
SOLID
  8
0
 62
7
  6
CONTINUOUS
 10
365.4684104651
 20
30.5067597521
 11
365.4684104651
 21
31.5391977439
 12
365.757472524
 22
30.5067597521
 13
365.757472524
 23
31.5391977439
  0
ENDBLK
  8
0
  6
BYBLOCK
 62
0
  0
BLOCK
  8
0
 62
2
  6
CONTINUOUS
  2
SYMBOL_0_BL0
 70
64
 10
240.8592468615
 20
19.762288695
  0
TEXT
  8
0
 62
7
  6
CONTINUOUS
 10
227.1239507038
 20
19.1357028027
  7
TEXTSTYLE_3
 40
2.7338706658
  1
Ammeraal Beltech
 41
1.0
 51
15.0
 72
0
  0
TEXT
  8
0
 62
7
  6
CONTINUOUS
 10
237.9247515296
 20
16.8621661299
  7
TEXTSTYLE_4
 40
1.0935482663
  1
Innovation & Service in Belting
 41
1.0
 72
0
  0
LINE
  8
0
 62
7
  6
CONTINUOUS
 10
221.0994100525
 20
19.9022961113
 11
221.8775620458
 21
23.5632134089
  0
LINE
  8
0
 62
7
  6
CONTINUOUS
 10
231.9727303357
 20
27.2266073205
 11
222.3653797889
 21
24.1049898993
  0
LINE
  8
0
 62
7
  6
CONTINUOUS
 10
221.3246933848
 20
19.2089453082
 11
228.8317686459
 21
12.4495443822
  0
LINE
  8
0
 62
7
  6
CONTINUOUS
 10
221.5872277955
 20
20.4440726016
 11
232.3954971607
 21
23.9558922005
  0
LINE
  8
0
 62
7
  6
CONTINUOUS
 10
232.3912920235
 20
13.6061036368
 11
223.9458323548
 21
21.2104296785
  0
LINE
  8
0
 62
7
  6
CONTINUOUS
 10
232.9111147433
 20
26.3816822048
 11
231.9345552061
 21
21.7873308023
  0
LINE
  8
0
 62
7
  6
CONTINUOUS
 10
231.2347532584
 20
18.4950214885
 11
230.5483050469
 21
15.2655365641
  0
LINE
  8
0
 62
7
  6
CONTINUOUS
 10
233.5922108419
 20
13.9963058145
 11
234.5484423775
 21
18.4950214885
  0
LINE
  8
0
 62
7
  6
CONTINUOUS
 10
235.2482443252
 20
21.7873308023
 11
235.6924861276
 21
23.8773241617
  0
LINE
  8
0
 62
7
  6
CONTINUOUS
 10
229.5448697213
 20
12.2979700695
 11
233.1043930989
 21
13.4545293241
  0
LINE
  8
0
 62
7
  6
CONTINUOUS
 10
232.685831411
 20
27.0750330078
 11
235.4672027953
 21
24.5706749648
  0
ARC
  8
0
 62
7
  6
CONTINUOUS
 10
222.5906631212
 20
23.4116390962
 40
0.7290321776
 50
108.0
 51
168.0
  0
ARC
  8
0
 62
7
  6
CONTINUOUS
 10
232.198013668
 20
26.5332565175
 40
0.7290321776
 50
348.0
 51
108.0
  0
ARC
  8
0
 62
7
  6
CONTINUOUS
 10
234.9793850522
 20
24.0288984744
 40
0.7290321776
 50
348.0
 51
48.0
  0
ARC
  8
0
 62
7
  6
CONTINUOUS
 10
229.319586389
 20
12.9913208726
 40
0.7290321776
 50
228.0
 51
288.0
  0
ARC
  8
0
 62
7
  6
CONTINUOUS
 10
221.8125111278
 20
19.7507217986
 40
0.7290321776
 50
108.0
 51
228.0
  0
ARC
  8
0
 62
7
  6
CONTINUOUS
 10
232.8791097665
 20
14.1478801272
 40
0.7290321776
 50
228.0
 51
348.0
  0
ENDBLK
  8
0
  6
BYBLOCK
 62
0
  0
ENDSEC
  0
SECTION
  2
ENTITIES
  0
TEXT
  8
0
 62
5
  6
CONTINUOUS
 10
304.937007874
 20
25.636
  7
TEXTSTYLE_2
 40
2.8
  1
Scale :
 41
0.6
 51
0.000019
 72
0
  0
TEXT
  8
0
 62
5
  6
CONTINUOUS
 10
324.937007874
 20
25.636
  7
TEXTSTYLE_2
 40
2.8
  1
Belt type:
 41
0.6
 51
0.000019
 72
0
  0
INSERT
  8
0
 62
2
  6
CONTINUOUS
  2
SYMBOL_0_BL0
 10
240.8592468615
 20
19.762288695
  0
INSERT
  8
0
 62
2
  6
CONTINUOUS
  2
SYMBOL_5_BL1
 10
382.7840918555
 20
35.5067593403
  0
LINE
  8
0
 62
2
  6
CONTINUOUS
 10
218.937007874
 20
30.0
 11
408.937007874
 21
30.0
  0
LINE
  8
0
 62
2
  6
CONTINUOUS
 10
218.937007874
 20
30.0
 11
218.937007874
 21
10.0
  0
LINE
  8
0
 62
2
  6
CONTINUOUS
 10
218.937007874
 20
10.0
 11
408.937007874
 21
10.0
  0
LINE
  8
0
 62
2
  6
CONTINUOUS
 10
303.937007874
 20
30.0
 11
303.937007874
 21
10.0
  0
LINE
  8
0
 62
2
  6
CONTINUOUS
 10
323.937007874
 20
30.0
 11
323.937007874
 21
10.0
  0
LINE
  8
0
 62
2
  6
CONTINUOUS
 10
408.937007874
 20
30.0
 11
408.937007874
 21
10.0
  0
TEXT
  8
0
 62
5
  6
CONTINUOUS
 10
221.937007874
 20
23.303
  7
TEXTSTYLE_5
 40
1.52
  1
                                                                     Ammeraal Beltech Modular A/S
 41
1.0
 72
0
  0
TEXT
  8
0
 62
5
  6
CONTINUOUS
 10
221.937007874
 20
20.595
  7
TEXTSTYLE_5
 40
1.5
  1
                                                                      Hjulmagervej 21, 7100 Vejle,  DK
 41
1.0
 72
0
  0
TEXT
  8
0
 62
5
  6
CONTINUOUS
 10
221.937007874
 20
17.881
  7
TEXTSTYLE_5
 40
1.495
  1
                                                                      tel: 
 41
1.0
 72
0
  0
TEXT
  8
0
 62
5
  6
CONTINUOUS
 10
266.9239544389
 20
17.881
  7
TEXTSTYLE_5
 40
1.51
  1
+45 75723100     fax: +45 75723348
 41
1.0
 72
0
  0
TEXT
  8
0
 62
5
  6
CONTINUOUS
 10
221.937007874
 20
15.177
  7
TEXTSTYLE_5
 40
1.5
  1
                                                                      admin@unichains.dk  www.unichains.com
 41
1.0
 72
0
  0
TEXT
  8
0
 62
5
  6
CONTINUOUS
 10
308.687007874
 20
13.75
  7
TEXTSTYLE_6
 40
5.0
  1
1:1
 41
0.7
 72
1
 11
313.937007874
 21
13.75
  0
TEXT
  8
0
 62
5
  6
CONTINUOUS
 10
326.937007874
 20
13.75
  7
TEXTSTYLE_7
 40
7.5
  1
uni Flex ASB-43-RL  K1200  (RL= Curve Left)
 41
0.2418604651
 72
0
  0
LINE
  8
0
 62
7
  6
CONTINUOUS
 10
0.0
 20
0.0
 11
0.0
 21
297.0
  0
LINE
  8
0
 62
7
  6
CONTINUOUS
 10
8.937007874
 20
10.0
 11
8.937007874
 21
287.0
  0
LINE
  8
0
 62
7
  6
CONTINUOUS
 10
0.0
 20
0.0
 11
420.0
 21
0.0
  0
LINE
  8
0
 62
7
  6
CONTINUOUS
 10
408.937007874
 20
10.0
 11
8.937007874
 21
10.0
  0
LINE
  8
0
 62
7
  6
CONTINUOUS
 10
218.937007874
 20
30.0
 11
408.937007874
 21
30.0
  0
LINE
  8
0
 62
7
  6
CONTINUOUS
 10
210.0
 20
297.0
 11
210.0
 21
292.0
  0
LINE
  8
0
 62
7
  6
CONTINUOUS
 10
210.0
 20
0.0
 11
210.0
 21
5.0
  0
LINE
  8
0
 62
7
  6
CONTINUOUS
 10
8.937007874
 20
287.0
 11
408.937007874
 21
287.0
  0
LINE
  8
0
 62
7
  6
CONTINUOUS
 10
0.0
 20
297.0
 11
420.0
 21
297.0
  0
LINE
  8
0
 62
7
  6
CONTINUOUS
 10
408.937007874
 20
287.0
 11
408.937007874
 21
10.0
  0
LINE
  8
0
 62
7
  6
CONTINUOUS
 10
420.0
 20
0.0
 11
420.0
 21
297.0
  0
LINE
  8
0
 62
7
  6
CONTINUOUS
 10
26.7627793673
 20
99.1841385477
 11
26.7627793673
 21
108.6949624385
  0
LINE
  8
0
 62
7
  6
CONTINUOUS
 10
32.4127793673
 20
98.5701892513
 11
32.4127793673
 21
106.9487820769
  0
LINE
  8
0
 62
7
  6
CONTINUOUS
 10
35.3627793673
 20
126.6052853459
 11
35.3627793673
 21
128.8226427336
  0
LINE
  8
0
 62
7
  6
CONTINUOUS
 10
36.1127793673
 20
123.4498581727
 11
36.1127793673
 21
120.8123886957
  0
LINE
  8
0
 62
7
  6
CONTINUOUS
 10
40.6127793673
 20
119.7157740042
 11
40.6127793673
 21
123.4498581727
  0
LINE
  8
0
 62
7
  6
CONTINUOUS
 10
41.3627793673
 20
128.8226427336
 11
41.3627793673
 21
126.6052853459
  0
LINE
  8
0
 62
7
  6
CONTINUOUS
 10
42.5627793673
 20
100.1226427336
 11
42.5627793673
 21
102.4400001212
  0
LINE
  8
0
 62
7
  6
CONTINUOUS
 10
43.3127793673
 20
108.0360124938
 11
43.3127793673
 21
105.5954272945
  0
LINE
  8
0
 62
7
  6
CONTINUOUS
 10
47.8127793673
 20
105.5954272945
 11
47.8127793673
 21
108.0918919884
  0
LINE
  8
0
 62
7
  6
CONTINUOUS
 10
48.5627793673
 20
100.1226427336
 11
48.5627793673
 21
102.4400001212
  0
LINE
  8
0
 62
7
  6
CONTINUOUS
 10
49.6627793673
 20
128.8226427336
 11
49.6627793673
 21
126.6052853459
  0
LINE
  8
0
 62
7
  6
CONTINUOUS
 10
40.642483641
 20
123.6917800683
 11
41.3568385125
 21
126.5569009668
  0
LINE
  8
0
 62
7
  6
CONTINUOUS
 10
43.2830750935
 20
105.3535053989
 11
42.568720222
 21
102.4883845004
  0
LINE
  8
0
 62
7
  6
CONTINUOUS
 10
35.368720222
 20
126.5569009668
 11
36.0830750935
 21
123.6917800683
  0
LINE
  8
0
 62
7
  6
CONTINUOUS
 10
48.5568385125
 20
102.4883845004
 11
47.842483641
 21
105.3535053989
  0
LINE
  8
0
 62
7
  6
CONTINUOUS
 10
50.4127793673
 20
123.4498581727
 11
50.4127793673
 21
119.5557405513
  0
LINE
  8
0
 62
7
  6
CONTINUOUS
 10
54.9127793673
 20
119.6991031292
 11
54.9127793673
 21
123.4998581727
  0
LINE
  8
0
 62
7
  6
CONTINUOUS
 10
55.6627793673
 20
128.8226427336
 11
55.6627793673
 21
126.6552853459
  0
LINE
  8
0
 62
7
  6
CONTINUOUS
 10
56.7627793673
 20
100.1226427336
 11
56.7627793673
 21
102.4400001212
  0
LINE
  8
0
 62
7
  6
CONTINUOUS
 10
57.5127793673
 20
108.1050115219
 11
57.5127793673
 21
105.5954272945
  0
LINE
  8
0
 62
7
  6
CONTINUOUS
 10
54.942483641
 20
123.7417800683
 11
55.6568385125
 21
126.6069009668
  0
LINE
  8
0
 62
7
  6
CONTINUOUS
 10
35.4429063862
 20
118.3123886957
 11
33.6909825975
 21
115.2779676828
  0
LINE
  8
0
 62
7
  6
CONTINUOUS
 10
49.668720222
 20
126.5569009668
 11
50.3830750935
 21
123.6917800683
  0
LINE
  8
0
 62
7
  6
CONTINUOUS
 10
62.0127793673
 20
105.5954272945
 11
62.0127793673
 21
108.1608910166
  0
LINE
  8
0
 62
7
  6
CONTINUOUS
 10
62.7627793673
 20
100.1226427336
 11
62.7627793673
 21
102.4400001212
  0
LINE
  8
0
 62
7
  6
CONTINUOUS
 10
63.7627793673
 20
126.6052853459
 11
63.7627793673
 21
128.8226427336
  0
LINE
  8
0
 62
7
  6
CONTINUOUS
 10
64.5127793673
 20
123.4498581727
 11
64.5127793673
 21
119.396465916
  0
LINE
  8
0
 62
7
  6
CONTINUOUS
 10
69.0127793673
 20
119.6183573198
 11
69.0127793673
 21
123.4498581727
  0
LINE
  8
0
 62
7
  6
CONTINUOUS
 10
69.7627793673
 20
128.8226427336
 11
69.7627793673
 21
126.6052853459
  0
LINE
  8
0
 62
7
  6
CONTINUOUS
 10
70.7627793673
 20
100.1226427336
 11
70.7627793673
 21
102.4400001212
  0
LINE
  8
0
 62
7
  6
CONTINUOUS
 10
71.5127793673
 20
108.1730387328
 11
71.5127793673
 21
105.5954272945
  0
LINE
  8
0
 62
7
  6
CONTINUOUS
 10
57.4830750935
 20
105.3535053989
 11
56.768720222
 21
102.4883845004
  0
LINE
  8
0
 62
7
  6
CONTINUOUS
 10
69.042483641
 20
123.6917800683
 11
69.7568385125
 21
126.5569009668
  0
LINE
  8
0
 62
7
  6
CONTINUOUS
 10
49.653019848
 20
116.9061442301
 11
48.0033879343
 21
114.2661813184
  0
LINE
  8
0
 62
7
  6
CONTINUOUS
 10
43.1221708002
 20
114.2661813184
 11
41.3725388865
 21
117.066177683
  0
LINE
  8
0
 62
7
  6
CONTINUOUS
 10
62.7568385125
 20
102.4883845004
 11
62.042483641
 21
105.3535053989
  0
LINE
  8
0
 62
7
  6
CONTINUOUS
 10
63.768720222
 20
126.5569009668
 11
64.4830750935
 21
123.6917800683
  0
LINE
  8
0
 62
7
  6
CONTINUOUS
 10
76.0127793673
 20
105.2309984047
 11
76.0127793673
 21
108.2289182275
  0
LINE
  8
0
 62
7
  6
CONTINUOUS
 10
76.7627793673
 20
100.1226427336
 11
76.7627793673
 21
102.0755712315
  0
LINE
  8
0
 62
7
  6
CONTINUOUS
 10
77.7627793673
 20
126.6052853459
 11
77.7627793673
 21
128.8226427336
  0
LINE
  8
0
 62
7
  6
CONTINUOUS
 10
78.5127793673
 20
123.4498581727
 11
78.5127793673
 21
119.4761786739
  0
LINE
  8
0
 62
7
  6
CONTINUOUS
 10
83.0127793673
 20
118.3902048528
 11
83.0127793673
 21
123.4498581727
  0
LINE
  8
0
 62
7
  6
CONTINUOUS
 10
83.7627793673
 20
128.8226427336
 11
83.7627793673
 21
126.6052853459
  0
LINE
  8
0
 62
7
  6
CONTINUOUS
 10
84.7627793673
 20
100.1226427336
 11
84.7627793673
 21
102.4400001212
  0
LINE
  8
0
 62
7
  6
CONTINUOUS
 10
85.5127793673
 20
108.2410659437
 11
85.5127793673
 21
105.5954272945
  0
LINE
  8
0
 62
7
  6
CONTINUOUS
 10
71.4830750935
 20
105.3535053989
 11
70.768720222
 21
102.4883845004
  0
LINE
  8
0
 62
7
  6
CONTINUOUS
 10
83.042483641
 20
123.6917800683
 11
83.7568385125
 21
126.5569009668
  0
LINE
  8
0
 62
7
  6
CONTINUOUS
 10
63.753019848
 20
116.7468695948
 11
62.4473159915
 21
114.6573066285
  0
LINE
  8
0
 62
7
  6
CONTINUOUS
 10
57.3199594967
 20
114.4130827217
 11
55.6725388865
 21
117.049506808
  0
LINE
  8
0
 62
7
  6
CONTINUOUS
 10
76.7568385125
 20
102.1239556106
 11
76.042483641
 21
104.9890765091
  0
LINE
  8
0
 62
7
  6
CONTINUOUS
 10
77.768720222
 20
126.5569009668
 11
78.4830750935
 21
123.6917800683
  0
LINE
  8
0
 62
7
  6
CONTINUOUS
 10
90.0127793673
 20
105.3954272945
 11
90.0127793673
 21
108.2969454384
  0
LINE
  8
0
 62
7
  6
CONTINUOUS
 10
90.7627793673
 20
100.1226427336
 11
90.7627793673
 21
102.2400001212
  0
LINE
  8
0
 62
7
  6
CONTINUOUS
 10
91.1127793673
 20
126.6052853459
 11
91.1127793673
 21
128.7328268199
  0
LINE
  8
0
 62
7
  6
CONTINUOUS
 10
91.8627793673
 20
123.4498581727
 11
91.8627793673
 21
116.6459754042
  0
LINE
  8
0
 62
7
  6
CONTINUOUS
 10
96.3627793673
 20
116.9663004288
 11
96.3627793673
 21
123.5498581727
  0
LINE
  8
0
 62
7
  6
CONTINUOUS
 10
97.1127793673
 20
128.7328268199
 11
97.1127793673
 21
126.7052853459
  0
LINE
  8
0
 62
7
  6
CONTINUOUS
 10
97.4627793673
 20
99.4368175266
 11
97.4627793673
 21
102.2400001212
  0
LINE
  8
0
 62
7
  6
CONTINUOUS
 10
98.2127793673
 20
108.3027763422
 11
98.2127793673
 21
105.3954272945
  0
LINE
  8
0
 62
7
  6
CONTINUOUS
 10
85.4830750935
 20
105.3535053989
 11
84.768720222
 21
102.4883845004
  0
LINE
  8
0
 62
7
  6
CONTINUOUS
 10
96.392483641
 20
123.7917800683
 11
97.1068385125
 21
126.6569009668
  0
LINE
  8
0
 62
7
  6
CONTINUOUS
 10
77.753019848
 20
116.8265823527
 11
76.4973159915
 21
114.8170361129
  0
LINE
  8
0
 62
7
  6
CONTINUOUS
 10
71.1223528731
 20
114.8086070679
 11
69.7725388865
 21
116.9687609986
  0
LINE
  8
0
 62
7
  6
CONTINUOUS
 10
90.7568385125
 20
102.2883845004
 11
90.042483641
 21
105.1535053989
  0
LINE
  8
0
 62
7
  6
CONTINUOUS
 10
91.118720222
 20
126.5569009668
 11
91.8330750935
 21
123.6917800683
  0
LINE
  8
0
 62
7
  6
CONTINUOUS
 10
102.7127793673
 20
105.3954272945
 11
102.7127793673
 21
108.3586558368
  0
LINE
  8
0
 62
7
  6
CONTINUOUS
 10
103.4627793673
 20
102.2400001212
 11
103.4627793673
 21
99.4013629811
  0
LINE
  8
0
 62
7
  6
CONTINUOUS
 10
103.8127793673
 20
126.7052853459
 11
103.8127793673
 21
128.8328874259
  0
LINE
  8
0
 62
7
  6
CONTINUOUS
 10
104.5627793673
 20
123.5498581727
 11
104.5627793673
 21
116.9717942156
  0
LINE
  8
0
 62
7
  6
CONTINUOUS
 10
109.0627793673
 20
116.9829125937
 11
109.0627793673
 21
123.5498581727
  0
LINE
  8
0
 62
7
  6
CONTINUOUS
 10
109.8127793673
 20
128.8328874259
 11
109.8127793673
 21
126.7052853459
  0
LINE
  8
0
 62
7
  6
CONTINUOUS
 10
110.1627793673
 20
99.3367569205
 11
110.1627793673
 21
102.2400001212
  0
LINE
  8
0
 62
7
  6
CONTINUOUS
 10
110.9127793673
 20
108.3644867406
 11
110.9127793673
 21
105.3954272945
  0
LINE
  8
0
 62
7
  6
CONTINUOUS
 10
98.1830750935
 20
105.1535053989
 11
97.468720222
 21
102.2883845004
  0
LINE
  8
0
 62
7
  6
CONTINUOUS
 10
109.092483641
 20
123.7917800683
 11
109.8068385125
 21
126.6569009668
  0
LINE
  8
0
 62
7
  6
CONTINUOUS
 10
32.3359116623
 20
98.4125871006
 11
30.8019330556
 21
97.2141116637
  0
LINE
  8
0
 62
7
  6
CONTINUOUS
 10
84.9723528731
 20
114.9674863234
 11
83.1647312711
 21
117.8602855886
  0
LINE
  8
0
 62
7
  6
CONTINUOUS
 10
103.4568385125
 20
102.2883845003
 11
102.742483641
 21
105.1535053989
  0
LINE
  8
0
 62
7
  6
CONTINUOUS
 10
103.818720222
 20
126.6569009668
 11
104.5330750935
 21
123.7917800683
  0
LINE
  8
0
 62
7
  6
CONTINUOUS
 10
115.4127793673
 20
105.3954272945
 11
115.4127793673
 21
108.4203662353
  0
LINE
  8
0
 62
7
  6
CONTINUOUS
 10
116.1627793673
 20
102.2400001212
 11
116.1627793673
 21
99.3013023751
  0
LINE
  8
0
 62
7
  6
CONTINUOUS
 10
116.5127793673
 20
126.7052853459
 11
116.5127793673
 21
128.932948032
  0
LINE
  8
0
 62
7
  6
CONTINUOUS
 10
117.2627793673
 20
123.5498581727
 11
117.2627793673
 21
116.9884063804
  0
LINE
  8
0
 62
7
  6
CONTINUOUS
 10
121.7627793673
 20
116.9995247585
 11
121.7627793673
 21
123.5498581727
  0
LINE
  8
0
 62
7
  6
CONTINUOUS
 10
122.5127793673
 20
128.932948032
 11
122.5127793673
 21
126.7052853459
  0
LINE
  8
0
 62
7
  6
CONTINUOUS
 10
122.8627793673
 20
99.2366963145
 11
122.8627793673
 21
102.2400001212
  0
LINE
  8
0
 62
7
  6
CONTINUOUS
 10
110.8830750935
 20
105.1535053989
 11
110.168720222
 21
102.2883845003
  0
LINE
  8
0
 62
7
  6
CONTINUOUS
 10
121.792483641
 20
123.7917800683
 11
122.5068385125
 21
126.6569009668
  0
LINE
  8
0
 62
7
  6
CONTINUOUS
 10
91.6059241927
 20
115.9768447979
 11
90.4552064394
 21
114.6988432599
  0
LINE
  8
0
 62
7
  6
CONTINUOUS
 10
116.1568385125
 20
102.2883845004
 11
115.442483641
 21
105.1535053989
  0
LINE
  8
0
 62
7
  6
CONTINUOUS
 10
116.518720222
 20
126.6569009668
 11
117.2330750935
 21
123.7917800683
  0
LINE
  8
0
 62
7
  6
CONTINUOUS
 10
123.6127793673
 20
108.426197139
 11
123.6127793673
 21
105.3954272945
  0
LINE
  8
0
 62
7
  6
CONTINUOUS
 10
128.1127793673
 20
105.3954272945
 11
128.1127793673
 21
108.4820766337
  0
LINE
  8
0
 62
7
  6
CONTINUOUS
 10
128.8627793673
 20
102.2400001212
 11
128.8627793673
 21
99.201241769
  0
LINE
  8
0
 62
7
  6
CONTINUOUS
 10
129.2127793673
 20
126.7052853459
 11
129.2127793673
 21
129.033008638
  0
LINE
  8
0
 62
7
  6
CONTINUOUS
 10
129.9627793673
 20
123.5498581727
 11
129.9627793673
 21
117.0050185453
  0
LINE
  8
0
 62
7
  6
CONTINUOUS
 10
134.4627793673
 20
117.0161369233
 11
134.4627793673
 21
123.5498581727
  0
LINE
  8
0
 62
7
  6
CONTINUOUS
 10
135.2127793673
 20
129.033008638
 11
135.2127793673
 21
126.7052853459
  0
LINE
  8
0
 62
7
  6
CONTINUOUS
 10
135.5627793673
 20
99.1366357084
 11
135.5627793673
 21
102.2400001212
  0
LINE
  8
0
 62
7
  6
CONTINUOUS
 10
123.5830750935
 20
105.1535053989
 11
122.868720222
 21
102.2883845004
  0
LINE
  8
0
 62
7
  6
CONTINUOUS
 10
134.492483641
 20
123.7917800683
 11
135.2068385125
 21
126.6569009668
  0
LINE
  8
0
 62
7
  6
CONTINUOUS
 10
128.8568385125
 20
102.2883845004
 11
128.142483641
 21
105.1535053989
  0
LINE
  8
0
 62
7
  6
CONTINUOUS
 10
129.218720222
 20
126.6569009668
 11
129.9330750935
 21
123.7917800683
  0
LINE
  8
0
 62
7
  6
CONTINUOUS
 10
136.3127793673
 20
108.4879075375
 11
136.3127793673
 21
105.3954272945
  0
LINE
  8
0
 62
7
  6
CONTINUOUS
 10
140.8127793673
 20
105.3954272945
 11
140.8127793673
 21
108.7649428035
  0
LINE
  8
0
 62
7
  6
CONTINUOUS
 10
141.5627793673
 20
102.2400001212
 11
141.5627793673
 21
99.101181163
  0
LINE
  8
0
 62
7
  6
CONTINUOUS
 10
141.9127793673
 20
126.7052853459
 11
141.9127793673
 21
129.1330692441
  0
LINE
  8
0
 62
7
  6
CONTINUOUS
 10
142.6627793673
 20
123.5498581727
 11
142.6627793673
 21
117.0216307101
  0
LINE
  8
0
 62
7
  6
CONTINUOUS
 10
147.1627793673
 20
117.0327490881
 11
147.1627793673
 21
123.5498581727
  0
LINE
  8
0
 62
7
  6
CONTINUOUS
 10
147.9127793673
 20
126.7052853459
 11
147.9127793673
 21
129.1330692441
  0
LINE
  8
0
 62
7
  6
CONTINUOUS
 10
136.2830750935
 20
105.1535053989
 11
135.568720222
 21
102.2883845004
  0
LINE
  8
0
 62
7
  6
CONTINUOUS
 10
147.192483641
 20
123.7917800683
 11
147.9068385125
 21
126.6569009668
  0
LINE
  8
0
 62
7
  6
CONTINUOUS
 10
141.5568385125
 20
102.2883845004
 11
140.842483641
 21
105.1535053989
  0
LINE
  8
0
 62
7
  6
CONTINUOUS
 10
141.918720222
 20
126.6569009668
 11
142.6330750935
 21
123.7917800683
  0
LINE
  8
0
 62
7
  6
CONTINUOUS
 10
148.2627793673
 20
99.0365751023
 11
148.2627793673
 21
102.2400001212
  0
LINE
  8
0
 62
7
  6
CONTINUOUS
 10
149.0127793673
 20
108.7889428035
 11
149.0127793673
 21
105.3954272945
  0
LINE
  8
0
 62
7
  6
CONTINUOUS
 10
153.5127793673
 20
105.3954272945
 11
153.5127793673
 21
109.5090427936
  0
LINE
  8
0
 62
7
  6
CONTINUOUS
 10
154.2627793673
 20
99.0011205569
 11
154.2627793673
 21
102.2400001212
  0
LINE
  8
0
 62
7
  6
CONTINUOUS
 10
154.6127793673
 20
126.7052853459
 11
154.6127793673
 21
129.2331298502
  0
LINE
  8
0
 62
7
  6
CONTINUOUS
 10
155.3627793673
 20
123.5498581727
 11
155.3627793673
 21
117.0382428749
  0
LINE
  8
0
 62
7
  6
CONTINUOUS
 10
159.8627793673
 20
117.0493612529
 11
159.8627793673
 21
123.5498581727
  0
LINE
  8
0
 62
7
  6
CONTINUOUS
 10
148.9830750935
 20
105.1535053989
 11
148.268720222
 21
102.2883845004
  0
LINE
  8
0
 62
7
  6
CONTINUOUS
 10
159.892483641
 20
123.7917800683
 11
160.6068385125
 21
126.6569009668
  0
LINE
  8
0
 62
7
  6
CONTINUOUS
 10
154.2568385125
 20
102.2883845004
 11
153.542483641
 21
105.1535053989
  0
LINE
  8
0
 62
7
  6
CONTINUOUS
 10
154.618720222
 20
126.6569009668
 11
155.3330750935
 21
123.7917800683
  0
LINE
  8
0
 62
7
  6
CONTINUOUS
 10
160.6127793673
 20
126.7052853459
 11
160.6127793673
 21
129.2331298502
  0
LINE
  8
0
 62
7
  6
CONTINUOUS
 10
160.9627793673
 20
102.2400001212
 11
160.9627793673
 21
98.9365144963
  0
LINE
  8
0
 62
7
  6
CONTINUOUS
 10
161.7127793673
 20
109.5530427936
 11
161.7127793673
 21
105.3954272945
  0
LINE
  8
0
 62
7
  6
CONTINUOUS
 10
166.2127793673
 20
105.3954272945
 11
166.2127793673
 21
109.8848694419
  0
LINE
  8
0
 62
7
  6
CONTINUOUS
 10
166.9627793673
 20
98.9010599508
 11
166.9627793673
 21
102.2400001212
  0
LINE
  8
0
 62
7
  6
CONTINUOUS
 10
167.3127793673
 20
126.7052853459
 11
167.3127793673
 21
129.3331904562
  0
LINE
  8
0
 62
7
  6
CONTINUOUS
 10
168.0627793673
 20
123.5498581727
 11
168.0627793673
 21
117.0548550397
  0
LINE
  8
0
 62
7
  6
CONTINUOUS
 10
172.5627793673
 20
117.0659734177
 11
172.5627793673
 21
123.5498581727
  0
LINE
  8
0
 62
7
  6
CONTINUOUS
 10
161.6830750935
 20
105.1535053989
 11
160.968720222
 21
102.2883845004
  0
LINE
  8
0
 62
7
  6
CONTINUOUS
 10
172.592483641
 20
123.7917800683
 11
173.3068385125
 21
126.6569009668
  0
LINE
  8
0
 62
7
  6
CONTINUOUS
 10
263.3127793673
 20
97.4226427336
 11
267.8127793673
 21
97.4226427336
  0
LINE
  8
0
 62
7
  6
CONTINUOUS
 10
276.0127793673
 20
97.4226427336
 11
280.5127793673
 21
97.4226427336
  0
LINE
  8
0
 62
7
  6
CONTINUOUS
 10
288.7127793673
 20
97.4226427336
 11
293.2127793673
 21
97.4226427336
  0
LINE
  8
0
 62
7
  6
CONTINUOUS
 10
301.4127793673
 20
97.4226427336
 11
305.9127793673
 21
97.4226427336
  0
LINE
  8
0
 62
7
  6
CONTINUOUS
 10
314.1127793673
 20
97.4226427336
 11
318.6127793673
 21
97.4226427336
  0
LINE
  8
0
 62
7
  6
CONTINUOUS
 10
326.8127793673
 20
97.4226427336
 11
331.3127793673
 21
97.4226427336
  0
LINE
  8
0
 62
7
  6
CONTINUOUS
 10
44.7627793673
 20
97.9226427336
 11
46.3627793673
 21
97.9226427336
  0
LINE
  8
0
 62
7
  6
CONTINUOUS
 10
58.9627793673
 20
97.9226427336
 11
60.5627793673
 21
97.9226427336
  0
LINE
  8
0
 62
7
  6
CONTINUOUS
 10
72.9627793673
 20
97.9226427336
 11
74.5627793673
 21
97.9226427336
  0
LINE
  8
0
 62
7
  6
CONTINUOUS
 10
86.9627793673
 20
97.9226427336
 11
88.5627793673
 21
97.9226427336
  0
LINE
  8
DEFAULT_1
 62
2
  6
CENTER
 10
27.2627793673
 20
101.7726427336
 11
334.0627793673
 21
101.7726427336
  0
LINE
  8
0
 62
7
  6
CONTINUOUS
 10
98.2068704597
 20
98.6868408037
 11
102.7068704597
 21
98.6513862583
  0
LINE
  8
0
 62
7
  6
CONTINUOUS
 10
110.9068704597
 20
98.5867801977
 11
115.4068704597
 21
98.5513256522
  0
LINE
  8
0
 62
7
  6
CONTINUOUS
 10
123.6068704597
 20
98.4867195916
 11
128.1068704597
 21
98.4512650462
  0
LINE
  8
0
 62
7
  6
CONTINUOUS
 10
136.3068704597
 20
98.3866589856
 11
140.8068704597
 21
98.3512044401
  0
LINE
  8
0
 62
7
  6
CONTINUOUS
 10
149.0068704597
 20
98.2865983795
 11
153.5068704597
 21
98.251143834
  0
LINE
  8
0
 62
7
  6
CONTINUOUS
 10
161.7068704597
 20
98.1865377734
 11
166.2068704597
 21
98.151083228
  0
LINE
  8
0
 62
7
  6
CONTINUOUS
 10
174.4068704597
 20
98.0864771674
 11
178.9068704597
 21
98.0510226219
  0
LINE
  8
0
 62
7
  6
CONTINUOUS
 10
187.1068704597
 20
97.9864165613
 11
191.6068704597
 21
97.9509620159
  0
LINE
  8
0
 62
7
  6
CONTINUOUS
 10
199.8068704597
 20
97.8863559553
 11
204.3068704597
 21
97.8509014098
  0
LINE
  8
0
 62
7
  6
CONTINUOUS
 10
212.5068704597
 20
97.7862953492
 11
217.0068704597
 21
97.7508408037
  0
LINE
  8
0
 62
7
  6
CONTINUOUS
 10
225.2068704597
 20
97.6862347431
 11
229.7068704597
 21
97.6507801977
  0
LINE
  8
0
 62
7
  6
CONTINUOUS
 10
237.9068704597
 20
97.5861741371
 11
242.4068704597
 21
97.5507195916
  0
LINE
  8
0
 62
7
  6
CONTINUOUS
 10
250.6068704597
 20
97.486113531
 11
255.1068704597
 21
97.4506589856
  0
LINE
  8
0
 62
7
  6
CONTINUOUS
 10
166.9568385125
 20
102.2883845004
 11
166.242483641
 21
105.1535053989
  0
LINE
  8
0
 62
7
  6
CONTINUOUS
 10
167.318720222
 20
126.6569009668
 11
168.0330750935
 21
123.7917800683
  0
LINE
  8
0
 62
7
  6
CONTINUOUS
 10
173.3127793673
 20
126.7052853459
 11
173.3127793673
 21
129.3331904562
  0
LINE
  8
0
 62
7
  6
CONTINUOUS
 10
173.6627793673
 20
102.2400001212
 11
173.6627793673
 21
98.8364538902
  0
LINE
  8
0
 62
7
  6
CONTINUOUS
 10
174.4127793673
 20
109.8848694419
 11
174.4127793673
 21
105.3954272945
  0
LINE
  8
0
 62
7
  6
CONTINUOUS
 10
178.9127793673
 20
105.3954272945
 11
178.9127793673
 21
109.8682572771
  0
LINE
  8
0
 62
7
  6
CONTINUOUS
 10
179.6627793673
 20
98.8009993448
 11
179.6627793673
 21
102.2400001212
  0
LINE
  8
0
 62
7
  6
CONTINUOUS
 10
180.0127793673
 20
129.4332510623
 11
180.0127793673
 21
126.7052853459
  0
LINE
  8
0
 62
7
  6
CONTINUOUS
 10
180.7627793673
 20
123.5498581727
 11
180.7627793673
 21
117.0714672045
  0
LINE
  8
0
 62
7
  6
CONTINUOUS
 10
174.3830750935
 20
105.1535053989
 11
173.668720222
 21
102.2883845004
  0
LINE
  8
0
 62
7
  6
CONTINUOUS
 10
185.292483641
 20
123.7917800683
 11
186.0068385125
 21
126.6569009668
  0
LINE
  8
0
 62
7
  6
CONTINUOUS
 10
144.2427933631
 20
112.2642430135
 11
145.4427933631
 21
112.2882430135
  0
LINE
  8
0
 62
7
  6
CONTINUOUS
 10
156.4527913637
 20
112.5084429735
 11
158.6527913637
 21
112.5524429735
  0
LINE
  8
0
 62
7
  6
CONTINUOUS
 10
169.0309890733
 20
112.7600069277
 11
171.4306024513
 21
112.8079991952
  0
LINE
  8
0
 62
7
  6
CONTINUOUS
 10
32.4113218726
 20
106.9484763948
 11
32.4127793673
 21
106.9484890217
  0
LINE
  8
0
 62
7
  6
CONTINUOUS
 10
36.9904278333
 20
111.5223397621
 11
39.7957727653
 21
111.5359711757
  0
LINE
  8
0
 62
7
  6
CONTINUOUS
 10
51.2957727653
 20
111.5918506704
 11
53.9957727653
 21
111.6049702039
  0
LINE
  8
0
 62
7
  6
CONTINUOUS
 10
65.4957727653
 20
111.6608496986
 11
67.9957727653
 21
111.6729974148
  0
LINE
  8
0
 62
7
  6
CONTINUOUS
 10
79.4957727653
 20
111.7288769095
 11
81.9957727653
 21
111.7410246257
  0
LINE
  8
0
 62
7
  6
CONTINUOUS
 10
93.4957727653
 20
111.7969041203
 11
94.6957727653
 21
111.8027350241
  0
LINE
  8
0
 62
7
  6
CONTINUOUS
 10
106.1957727653
 20
111.8586145188
 11
107.3957727653
 21
111.8644454226
  0
LINE
  8
0
 62
7
  6
CONTINUOUS
 10
118.8957727653
 20
111.9203249172
 11
120.0957727653
 21
111.926155821
  0
LINE
  8
0
 62
7
  6
CONTINUOUS
 10
131.5957727653
 20
111.9820353157
 11
132.7957727653
 21
111.9878662195
  0
LINE
  8
0
 62
7
  6
CONTINUOUS
 10
60.7597220115
 20
113.717163229
 11
58.5984083001
 21
113.707975172
  0
LINE
  8
0
 62
7
  6
CONTINUOUS
 10
74.8097220115
 20
113.8768927134
 11
72.8269512777
 21
113.8684636684
  0
LINE
  8
0
 62
7
  6
CONTINUOUS
 10
88.9774190007
 20
114.0371225447
 11
86.6769512777
 21
114.0273429239
  0
LINE
  8
0
 62
7
  6
CONTINUOUS
 10
331.9125831607
 20
115.271792248
 11
326.965395454
 21
115.2653211065
  0
LINE
  8
0
 62
7
  6
CONTINUOUS
 10
318.465395454
 20
115.2542027284
 11
314.265395454
 21
115.2487089417
  0
LINE
  8
0
 62
7
  6
CONTINUOUS
 10
305.765395454
 20
115.2375905636
 11
301.565395454
 21
115.2320967768
  0
LINE
  8
0
 62
7
  6
CONTINUOUS
 10
293.065395454
 20
115.2209783988
 11
288.865395454
 21
115.215484612
  0
LINE
  8
0
 62
7
  6
CONTINUOUS
 10
280.365395454
 20
115.204366234
 11
276.165395454
 21
115.1988724472
  0
LINE
  8
0
 62
7
  6
CONTINUOUS
 10
267.665395454
 20
115.1877540692
 11
263.465395454
 21
115.1822602824
  0
LINE
  8
0
 62
7
  6
CONTINUOUS
 10
254.965395454
 20
115.1711419044
 11
250.765395454
 21
115.1656481176
  0
LINE
  8
0
 62
7
  6
CONTINUOUS
 10
242.265395454
 20
115.1545297396
 11
238.065395454
 21
115.1490359528
  0
LINE
  8
0
 62
7
  6
CONTINUOUS
 10
229.565395454
 20
115.1379175747
 11
225.365395454
 21
115.132423788
  0
LINE
  8
0
 62
7
  6
CONTINUOUS
 10
216.865395454
 20
115.1213054099
 11
212.665395454
 21
115.1158116231
  0
LINE
  8
0
 62
7
  6
CONTINUOUS
 10
204.165395454
 20
115.1046932451
 11
199.965395454
 21
115.0991994583
  0
LINE
  8
0
 62
7
  6
CONTINUOUS
 10
191.465395454
 20
115.0880810803
 11
187.265395454
 21
115.0825872935
  0
LINE
  8
0
 62
7
  6
CONTINUOUS
 10
178.765395454
 20
115.0714689155
 11
174.565395454
 21
115.0659751287
  0
LINE
  8
0
 62
7
  6
CONTINUOUS
 10
166.065395454
 20
115.0548567507
 11
161.865395454
 21
115.0493629639
  0
LINE
  8
0
 62
7
  6
CONTINUOUS
 10
153.365395454
 20
115.0382445859
 11
149.165395454
 21
115.0327507991
  0
LINE
  8
0
 62
7
  6
CONTINUOUS
 10
140.665395454
 20
115.0216324211
 11
136.465395454
 21
115.0161386343
  0
LINE
  8
0
 62
7
  6
CONTINUOUS
 10
127.965395454
 20
115.0050202562
 11
123.765395454
 21
114.9995264695
  0
LINE
  8
0
 62
7
  6
CONTINUOUS
 10
115.265395454
 20
114.9884080914
 11
111.065395454
 21
114.9829143046
  0
LINE
  8
0
 62
7
  6
CONTINUOUS
 10
102.565395454
 20
114.9717959266
 11
98.365395454
 21
114.9663021398
  0
LINE
  8
0
 62
7
  6
CONTINUOUS
 10
46.7313157901
 20
113.5610602147
 11
44.3942429444
 21
113.5610602147
  0
POLYLINE
  8
0
 62
7
  6
CONTINUOUS
 66
1
 70
0
  0
VERTEX
  8
0
 62
7
  6
CONTINUOUS
 10
32.2128179846
 20
106.9493431551
  0
VERTEX
  8
0
 62
7
  6
CONTINUOUS
 10
32.2606829126
 20
106.9491171303
  0
VERTEX
  8
0
 62
7
  6
CONTINUOUS
 10
32.2837391879
 20
106.949008701
  0
VERTEX
  8
0
 62
7
  6
CONTINUOUS
 10
32.3057598417
 20
106.9489058839
  0
VERTEX
  8
0
 62
7
  6
CONTINUOUS
 10
32.4113218726
 20
106.9484763948
  0
SEQEND
  0
LINE
  8
0
 62
7
  6
CONTINUOUS
 10
179.6568385125
 20
102.2883845004
 11
178.942483641
 21
105.1535053989
  0
LINE
  8
0
 62
7
  6
CONTINUOUS
 10
180.018720222
 20
126.6569009668
 11
180.7330750935
 21
123.7917800683
  0
LINE
  8
0
 62
7
  6
CONTINUOUS
 10
185.2627793673
 20
117.0825855825
 11
185.2627793673
 21
123.5498581727
  0
LINE
  8
0
 62
7
  6
CONTINUOUS
 10
186.0127793673
 20
126.7052853459
 11
186.0127793673
 21
129.4332510623
  0
LINE
  8
0
 62
7
  6
CONTINUOUS
 10
186.3627793673
 20
102.2400001212
 11
186.3627793673
 21
98.7363932842
  0
LINE
  8
0
 62
7
  6
CONTINUOUS
 10
187.1127793673
 20
109.8682572771
 11
187.1127793673
 21
105.3954272945
  0
LINE
  8
0
 62
7
  6
CONTINUOUS
 10
191.6127793673
 20
105.3954272945
 11
191.6127793673
 21
109.8516451123
  0
LINE
  8
0
 62
7
  6
CONTINUOUS
 10
192.3627793673
 20
98.7009387387
 11
192.3627793673
 21
102.2400001212
  0
LINE
  8
0
 62
7
  6
CONTINUOUS
 10
192.7127793673
 20
129.5333116684
 11
192.7127793673
 21
126.7052853459
  0
LINE
  8
0
 62
7
  6
CONTINUOUS
 10
193.4627793673
 20
123.5498581727
 11
193.4627793673
 21
117.0880793693
  0
LINE
  8
0
 62
7
  6
CONTINUOUS
 10
187.0830750935
 20
105.1535053989
 11
186.368720222
 21
102.2883845004
  0
LINE
  8
0
 62
7
  6
CONTINUOUS
 10
197.992483641
 20
123.7917800683
 11
198.7068385125
 21
126.6569009668
  0
LINE
  8
DEFAULT_1
 62
2
  6
CENTER
 10
33.3627793673
 20
127.1726427336
 11
327.7127793673
 21
127.1726427336
  0
LINE
  8
0
 62
7
  6
CONTINUOUS
 10
192.3568385125
 20
102.2883845004
 11
191.642483641
 21
105.1535053989
  0
LINE
  8
0
 62
7
  6
CONTINUOUS
 10
192.718720222
 20
126.6569009668
 11
193.4330750935
 21
123.7917800683
  0
LINE
  8
0
 62
7
  6
CONTINUOUS
 10
197.9627793673
 20
117.0991977474
 11
197.9627793673
 21
123.5498581727
  0
LINE
  8
0
 62
7
  6
CONTINUOUS
 10
198.7127793673
 20
126.7052853459
 11
198.7127793673
 21
129.5333116684
  0
LINE
  8
0
 62
7
  6
CONTINUOUS
 10
199.0627793673
 20
102.2400001212
 11
199.0627793673
 21
98.6363326781
  0
LINE
  8
0
 62
7
  6
CONTINUOUS
 10
199.8127793673
 20
109.8516451123
 11
199.8127793673
 21
105.3954272945
  0
LINE
  8
0
 62
7
  6
CONTINUOUS
 10
204.3127793673
 20
105.3954272945
 11
204.3127793673
 21
109.8350329474
  0
LINE
  8
0
 62
7
  6
CONTINUOUS
 10
205.0627793673
 20
98.6008781327
 11
205.0627793673
 21
102.2400001212
  0
LINE
  8
0
 62
7
  6
CONTINUOUS
 10
205.4127793673
 20
129.6333722744
 11
205.4127793673
 21
126.7052853459
  0
LINE
  8
0
 62
7
  6
CONTINUOUS
 10
206.1627793673
 20
123.5498581727
 11
206.1627793673
 21
117.1046915341
  0
LINE
  8
0
 62
7
  6
CONTINUOUS
 10
199.7830750935
 20
105.1535053989
 11
199.068720222
 21
102.2883845004
  0
LINE
  8
0
 62
7
  6
CONTINUOUS
 10
210.692483641
 20
123.7917800683
 11
211.4068385125
 21
126.6569009668
  0
LINE
  8
0
 62
7
  6
CONTINUOUS
 10
170.5457218551
 20
130.8756598562
 11
170.0169661035
 21
130.8714939018
  0
LINE
  8
0
 62
7
  6
CONTINUOUS
 10
157.8457218551
 20
130.7755992501
 11
157.3169661035
 21
130.7714332957
  0
LINE
  8
0
 62
7
  6
CONTINUOUS
 10
145.1457218551
 20
130.6755386441
 11
144.6169661035
 21
130.6713726897
  0
LINE
  8
0
 62
7
  6
CONTINUOUS
 10
132.4457218551
 20
130.575478038
 11
131.9169661035
 21
130.5713120836
  0
LINE
  8
0
 62
7
  6
CONTINUOUS
 10
119.7457218551
 20
130.475417432
 11
119.2169661035
 21
130.4712514775
  0
LINE
  8
0
 62
7
  6
CONTINUOUS
 10
107.0457218551
 20
130.3753568259
 11
106.5169661035
 21
130.3711908715
  0
LINE
  8
0
 62
7
  6
CONTINUOUS
 10
94.3457218551
 20
130.2752962198
 11
93.8169661035
 21
130.2711302654
  0
LINE
  8
0
 62
7
  6
CONTINUOUS
 10
182.7169661035
 20
130.9715545078
 11
183.2457218551
 21
130.9757204623
  0
LINE
  8
0
 62
7
  6
CONTINUOUS
 10
195.4169661035
 20
131.0716151139
 11
195.9457218551
 21
131.0757810683
  0
LINE
  8
0
 62
7
  6
CONTINUOUS
 10
208.1169661035
 20
131.17167572
 11
208.6457218551
 21
131.1758416744
  0
LINE
  8
0
 62
7
  6
CONTINUOUS
 10
220.8169661035
 20
131.271736326
 11
221.3457218551
 21
131.2759022804
  0
LINE
  8
0
 62
7
  6
CONTINUOUS
 10
233.5169661035
 20
131.3717969321
 11
234.0457218551
 21
131.3759628865
  0
LINE
  8
0
 62
7
  6
CONTINUOUS
 10
246.2169661035
 20
131.4718575382
 11
246.7457218551
 21
131.4760234926
  0
LINE
  8
0
 62
7
  6
CONTINUOUS
 10
37.5627793673
 20
131.0226427336
 11
39.1627793673
 21
131.0226427336
  0
LINE
  8
0
 62
7
  6
CONTINUOUS
 10
51.8627793673
 20
131.0226427336
 11
53.4627793673
 21
131.0226427336
  0
LINE
  8
0
 62
7
  6
CONTINUOUS
 10
65.9627793673
 20
131.0226427336
 11
67.5627793673
 21
131.0226427336
  0
LINE
  8
0
 62
7
  6
CONTINUOUS
 10
79.9627793673
 20
131.0226427336
 11
81.5627793673
 21
131.0226427336
  0
LINE
  8
0
 62
7
  6
CONTINUOUS
 10
322.9771654486
 20
131.5226427336
 11
322.4483932859
 21
131.5226427336
  0
LINE
  8
0
 62
7
  6
CONTINUOUS
 10
310.2771654486
 20
131.5226427336
 11
309.7483932859
 21
131.5226427336
  0
LINE
  8
0
 62
7
  6
CONTINUOUS
 10
297.5771654486
 20
131.5226427336
 11
297.0483932859
 21
131.5226427336
  0
LINE
  8
0
 62
7
  6
CONTINUOUS
 10
284.8771654486
 20
131.5226427336
 11
284.3483932859
 21
131.5226427336
  0
LINE
  8
0
 62
7
  6
CONTINUOUS
 10
272.1771654486
 20
131.5226427336
 11
271.6483932859
 21
131.5226427336
  0
LINE
  8
0
 62
7
  6
CONTINUOUS
 10
259.4771654486
 20
131.5226427336
 11
258.9483932859
 21
131.5226427336
  0
LINE
  8
0
 62
7
  6
CONTINUOUS
 10
205.0568385125
 20
102.2883845004
 11
204.342483641
 21
105.1535053989
  0
LINE
  8
0
 62
7
  6
CONTINUOUS
 10
205.418720222
 20
126.6569009668
 11
206.1330750935
 21
123.7917800683
  0
LINE
  8
0
 62
7
  6
CONTINUOUS
 10
210.6627793673
 20
117.1158099122
 11
210.6627793673
 21
123.5498581727
  0
LINE
  8
0
 62
7
  6
CONTINUOUS
 10
211.4127793673
 20
126.7052853459
 11
211.4127793673
 21
129.6333722744
  0
LINE
  8
0
 62
7
  6
CONTINUOUS
 10
211.7627793673
 20
102.2400001212
 11
211.7627793673
 21
98.536272072
  0
LINE
  8
0
 62
7
  6
CONTINUOUS
 10
212.5127793673
 20
109.8350329474
 11
212.5127793673
 21
105.3954272945
  0
LINE
  8
0
 62
7
  6
CONTINUOUS
 10
217.0127793673
 20
105.3954272945
 11
217.0127793673
 21
109.8184207826
  0
LINE
  8
0
 62
7
  6
CONTINUOUS
 10
217.7627793673
 20
98.5008175266
 11
217.7627793673
 21
102.2400001212
  0
LINE
  8
0
 62
7
  6
CONTINUOUS
 10
218.1127793673
 20
129.7334328805
 11
218.1127793673
 21
126.7052853459
  0
LINE
  8
0
 62
7
  6
CONTINUOUS
 10
218.8627793673
 20
123.5498581727
 11
218.8627793673
 21
117.121303699
  0
LINE
  8
0
 62
7
  6
CONTINUOUS
 10
212.4830750935
 20
105.1535053989
 11
211.768720222
 21
102.2883845004
  0
LINE
  8
0
 62
7
  6
CONTINUOUS
 10
223.392483641
 20
123.7917800683
 11
224.1068385125
 21
126.6569009668
  0
LINE
  8
0
 62
7
  6
CONTINUOUS
 10
217.7568385125
 20
102.2883845004
 11
217.042483641
 21
105.1535053989
  0
LINE
  8
0
 62
7
  6
CONTINUOUS
 10
218.118720222
 20
126.6569009668
 11
218.8330750935
 21
123.7917800683
  0
LINE
  8
0
 62
7
  6
CONTINUOUS
 10
223.3627793673
 20
117.132422077
 11
223.3627793673
 21
123.5498581727
  0
LINE
  8
0
 62
7
  6
CONTINUOUS
 10
224.1127793673
 20
126.7052853459
 11
224.1127793673
 21
129.7334328805
  0
LINE
  8
0
 62
7
  6
CONTINUOUS
 10
224.4627793673
 20
102.2400001212
 11
224.4627793673
 21
98.436211466
  0
LINE
  8
0
 62
7
  6
CONTINUOUS
 10
225.2127793673
 20
109.8184207826
 11
225.2127793673
 21
105.3954272945
  0
LINE
  8
0
 62
7
  6
CONTINUOUS
 10
229.7127793673
 20
105.3954272945
 11
229.7127793673
 21
109.8018086178
  0
LINE
  8
0
 62
7
  6
CONTINUOUS
 10
230.4627793673
 20
98.4007569205
 11
230.4627793673
 21
102.2400001212
  0
LINE
  8
0
 62
7
  6
CONTINUOUS
 10
230.8127793673
 20
129.8334934865
 11
230.8127793673
 21
126.7052853459
  0
LINE
  8
0
 62
7
  6
CONTINUOUS
 10
231.5627793673
 20
123.5498581727
 11
231.5627793673
 21
117.1379158638
  0
LINE
  8
0
 62
7
  6
CONTINUOUS
 10
225.1830750935
 20
105.1535053989
 11
224.468720222
 21
102.2883845004
  0
LINE
  8
0
 62
7
  6
CONTINUOUS
 10
236.092483641
 20
123.7917800683
 11
236.8068385125
 21
126.6569009668
  0
LINE
  8
0
 62
7
  6
CONTINUOUS
 10
230.4568385125
 20
102.2883845004
 11
229.742483641
 21
105.1535053989
  0
LINE
  8
0
 62
7
  6
CONTINUOUS
 10
230.818720222
 20
126.6569009668
 11
231.5330750935
 21
123.7917800683
  0
LINE
  8
0
 62
7
  6
CONTINUOUS
 10
236.0627793673
 20
117.1490342418
 11
236.0627793673
 21
123.5498581727
  0
LINE
  8
0
 62
7
  6
CONTINUOUS
 10
236.8127793673
 20
126.7052853459
 11
236.8127793673
 21
129.8334934865
  0
LINE
  8
0
 62
7
  6
CONTINUOUS
 10
237.1627793673
 20
102.2400001212
 11
237.1627793673
 21
98.3361508599
  0
LINE
  8
0
 62
7
  6
CONTINUOUS
 10
237.9127793673
 20
109.8018086178
 11
237.9127793673
 21
105.3954272945
  0
LINE
  8
0
 62
7
  6
CONTINUOUS
 10
242.4127793673
 20
105.3954272945
 11
242.4127793673
 21
109.785196453
  0
LINE
  8
0
 62
7
  6
CONTINUOUS
 10
243.1627793673
 20
98.3006963145
 11
243.1627793673
 21
102.2400001212
  0
LINE
  8
0
 62
7
  6
CONTINUOUS
 10
243.5127793673
 20
129.9335540926
 11
243.5127793673
 21
126.7052853459
  0
LINE
  8
0
 62
7
  6
CONTINUOUS
 10
244.2627793673
 20
123.5498581727
 11
244.2627793673
 21
117.1545280286
  0
LINE
  8
0
 62
7
  6
CONTINUOUS
 10
237.8830750935
 20
105.1535053989
 11
237.168720222
 21
102.2883845004
  0
LINE
  8
0
 62
7
  6
CONTINUOUS
 10
248.792483641
 20
123.7917800683
 11
249.5068385125
 21
126.6569009668
  0
LINE
  8
0
 62
7
  6
CONTINUOUS
 10
243.1568385125
 20
102.2883845004
 11
242.442483641
 21
105.1535053989
  0
LINE
  8
0
 62
7
  6
CONTINUOUS
 10
243.518720222
 20
126.6569009668
 11
244.2330750935
 21
123.7917800683
  0
LINE
  8
0
 62
7
  6
CONTINUOUS
 10
248.7627793673
 20
117.1656464066
 11
248.7627793673
 21
123.5498581727
  0
LINE
  8
0
 62
7
  6
CONTINUOUS
 10
249.5127793673
 20
126.7052853459
 11
249.5127793673
 21
129.9335540926
  0
LINE
  8
0
 62
7
  6
CONTINUOUS
 10
249.8627793673
 20
102.2400001212
 11
249.8627793673
 21
98.2360902539
  0
LINE
  8
0
 62
7
  6
CONTINUOUS
 10
250.6127793673
 20
109.785196453
 11
250.6127793673
 21
105.3954272945
  0
LINE
  8
0
 62
7
  6
CONTINUOUS
 10
255.1127793673
 20
105.3954272945
 11
255.1127793673
 21
109.7685842882
  0
LINE
  8
0
 62
7
  6
CONTINUOUS
 10
255.8627793673
 20
98.2006357084
 11
255.8627793673
 21
102.2400001212
  0
LINE
  8
0
 62
7
  6
CONTINUOUS
 10
256.2127793673
 20
129.9821324763
 11
256.2127793673
 21
126.7052853459
  0
LINE
  8
0
 62
7
  6
CONTINUOUS
 10
256.9627793673
 20
123.5498581727
 11
256.9627793673
 21
117.1711401934
  0
LINE
  8
0
 62
7
  6
CONTINUOUS
 10
250.5830750935
 20
105.1535053989
 11
249.868720222
 21
102.2883845004
  0
LINE
  8
0
 62
7
  6
CONTINUOUS
 10
261.492483641
 20
123.7917800683
 11
262.2068385125
 21
126.6569009668
  0
LINE
  8
0
 62
7
  6
CONTINUOUS
 10
255.8568385125
 20
102.2883845004
 11
255.142483641
 21
105.1535053989
  0
LINE
  8
0
 62
7
  6
CONTINUOUS
 10
256.218720222
 20
126.6569009668
 11
256.9330750935
 21
123.7917800683
  0
LINE
  8
0
 62
7
  6
CONTINUOUS
 10
261.4627793673
 20
117.1822585714
 11
261.4627793673
 21
123.5498581727
  0
LINE
  8
0
 62
7
  6
CONTINUOUS
 10
262.2127793673
 20
126.7052853459
 11
262.2127793673
 21
129.9821324763
  0
LINE
  8
0
 62
7
  6
CONTINUOUS
 10
262.5627793673
 20
102.2400001212
 11
262.5627793673
 21
98.1726427336
  0
LINE
  8
0
 62
7
  6
CONTINUOUS
 10
263.3127793673
 20
109.7685842882
 11
263.3127793673
 21
105.3954272945
  0
LINE
  8
0
 62
7
  6
CONTINUOUS
 10
267.8127793673
 20
105.3954272945
 11
267.8127793673
 21
109.7519721234
  0
LINE
  8
0
 62
7
  6
CONTINUOUS
 10
268.5627793673
 20
98.1726427336
 11
268.5627793673
 21
102.2400001212
  0
LINE
  8
0
 62
7
  6
CONTINUOUS
 10
268.9127793673
 20
129.9821324763
 11
268.9127793673
 21
126.7052853459
  0
LINE
  8
0
 62
7
  6
CONTINUOUS
 10
269.6627793673
 20
123.5498581727
 11
269.6627793673
 21
117.1877523582
  0
LINE
  8
0
 62
7
  6
CONTINUOUS
 10
263.2830750935
 20
105.1535053989
 11
262.568720222
 21
102.2883845004
  0
LINE
  8
0
 62
7
  6
CONTINUOUS
 10
274.192483641
 20
123.7917800683
 11
274.9068385125
 21
126.6569009668
  0
LINE
  8
0
 62
7
  6
CONTINUOUS
 10
268.5568385125
 20
102.2883845004
 11
267.842483641
 21
105.1535053989
  0
LINE
  8
0
 62
7
  6
CONTINUOUS
 10
268.918720222
 20
126.6569009668
 11
269.6330750935
 21
123.7917800683
  0
LINE
  8
0
 62
7
  6
CONTINUOUS
 10
274.1627793673
 20
117.1988707362
 11
274.1627793673
 21
123.5498581727
  0
LINE
  8
0
 62
7
  6
CONTINUOUS
 10
274.9127793673
 20
126.7052853459
 11
274.9127793673
 21
129.9821324763
  0
LINE
  8
0
 62
7
  6
CONTINUOUS
 10
275.2627793673
 20
102.2400001212
 11
275.2627793673
 21
98.1726427336
  0
LINE
  8
0
 62
7
  6
CONTINUOUS
 10
276.0127793673
 20
109.7519721234
 11
276.0127793673
 21
105.3954272945
  0
LINE
  8
0
 62
7
  6
CONTINUOUS
 10
280.5127793673
 20
105.3954272945
 11
280.5127793673
 21
109.7353599586
  0
LINE
  8
0
 62
7
  6
CONTINUOUS
 10
281.2627793673
 20
98.1726427336
 11
281.2627793673
 21
102.2400001212
  0
LINE
  8
0
 62
7
  6
CONTINUOUS
 10
281.6127793673
 20
129.9821324763
 11
281.6127793673
 21
126.7052853459
  0
LINE
  8
0
 62
7
  6
CONTINUOUS
 10
282.3627793673
 20
123.5498581727
 11
282.3627793673
 21
117.204364523
  0
LINE
  8
0
 62
7
  6
CONTINUOUS
 10
275.9830750935
 20
105.1535053989
 11
275.268720222
 21
102.2883845004
  0
LINE
  8
0
 62
7
  6
CONTINUOUS
 10
286.892483641
 20
123.7917800683
 11
287.6068385125
 21
126.6569009668
  0
LINE
  8
0
 62
7
  6
CONTINUOUS
 10
281.2568385125
 20
102.2883845004
 11
280.542483641
 21
105.1535053989
  0
LINE
  8
0
 62
7
  6
CONTINUOUS
 10
281.618720222
 20
126.6569009668
 11
282.3330750935
 21
123.7917800683
  0
LINE
  8
0
 62
7
  6
CONTINUOUS
 10
286.8627793673
 20
117.2154829011
 11
286.8627793673
 21
123.5498581727
  0
LINE
  8
0
 62
7
  6
CONTINUOUS
 10
287.6127793673
 20
126.7052853459
 11
287.6127793673
 21
129.9821324763
  0
LINE
  8
0
 62
7
  6
CONTINUOUS
 10
287.9627793673
 20
102.2400001212
 11
287.9627793673
 21
98.1726427336
  0
LINE
  8
0
 62
7
  6
CONTINUOUS
 10
288.7127793673
 20
109.7353599586
 11
288.7127793673
 21
105.3954272945
  0
LINE
  8
0
 62
7
  6
CONTINUOUS
 10
293.2127793673
 20
105.3954272945
 11
293.2127793673
 21
109.7187477937
  0
LINE
  8
0
 62
7
  6
CONTINUOUS
 10
293.9627793673
 20
98.1726427336
 11
293.9627793673
 21
102.2400001212
  0
LINE
  8
0
 62
7
  6
CONTINUOUS
 10
294.3127793673
 20
129.9821324763
 11
294.3127793673
 21
126.7052853459
  0
LINE
  8
0
 62
7
  6
CONTINUOUS
 10
295.0627793673
 20
123.5498581727
 11
295.0627793673
 21
117.2209766878
  0
LINE
  8
0
 62
7
  6
CONTINUOUS
 10
288.6830750935
 20
105.1535053989
 11
287.968720222
 21
102.2883845004
  0
LINE
  8
0
 62
7
  6
CONTINUOUS
 10
299.592483641
 20
123.7917800683
 11
300.3068385125
 21
126.6569009668
  0
LINE
  8
0
 62
7
  6
CONTINUOUS
 10
293.9568385125
 20
102.2883845004
 11
293.242483641
 21
105.1535053989
  0
LINE
  8
0
 62
7
  6
CONTINUOUS
 10
294.318720222
 20
126.6569009668
 11
295.0330750935
 21
123.7917800683
  0
LINE
  8
0
 62
7
  6
CONTINUOUS
 10
299.5627793673
 20
117.2320950659
 11
299.5627793673
 21
123.5498581727
  0
LINE
  8
0
 62
7
  6
CONTINUOUS
 10
300.3127793673
 20
126.7052853459
 11
300.3127793673
 21
129.9821324763
  0
LINE
  8
0
 62
7
  6
CONTINUOUS
 10
300.6627793673
 20
102.2400001212
 11
300.6627793673
 21
98.1726427336
  0
LINE
  8
0
 62
7
  6
CONTINUOUS
 10
301.4127793673
 20
109.7187477937
 11
301.4127793673
 21
105.3954272945
  0
LINE
  8
0
 62
7
  6
CONTINUOUS
 10
305.9127793673
 20
105.3954272945
 11
305.9127793673
 21
109.7021356289
  0
LINE
  8
0
 62
7
  6
CONTINUOUS
 10
306.6627793673
 20
98.1726427336
 11
306.6627793673
 21
102.2400001212
  0
LINE
  8
0
 62
7
  6
CONTINUOUS
 10
307.0127793673
 20
129.9821324763
 11
307.0127793673
 21
126.7052853459
  0
LINE
  8
0
 62
7
  6
CONTINUOUS
 10
307.7627793673
 20
123.5498581727
 11
307.7627793673
 21
117.2375888527
  0
LINE
  8
0
 62
7
  6
CONTINUOUS
 10
301.3830750935
 20
105.1535053989
 11
300.668720222
 21
102.2883845004
  0
LINE
  8
0
 62
7
  6
CONTINUOUS
 10
312.292483641
 20
123.7917800683
 11
313.0068385125
 21
126.6569009668
  0
LINE
  8
0
 62
7
  6
CONTINUOUS
 10
306.6568385125
 20
102.2883845004
 11
305.942483641
 21
105.1535053989
  0
LINE
  8
0
 62
7
  6
CONTINUOUS
 10
307.018720222
 20
126.6569009668
 11
307.7330750935
 21
123.7917800683
  0
LINE
  8
0
 62
7
  6
CONTINUOUS
 10
312.2627793673
 20
117.2487072307
 11
312.2627793673
 21
123.5498581727
  0
LINE
  8
0
 62
7
  6
CONTINUOUS
 10
313.0127793673
 20
126.7052853459
 11
313.0127793673
 21
129.9821324763
  0
LINE
  8
0
 62
7
  6
CONTINUOUS
 10
313.3627793673
 20
102.2400001212
 11
313.3627793673
 21
98.1726427336
  0
LINE
  8
0
 62
7
  6
CONTINUOUS
 10
314.1127793673
 20
109.7021356289
 11
314.1127793673
 21
105.3954272945
  0
LINE
  8
0
 62
7
  6
CONTINUOUS
 10
318.6127793673
 20
105.3954272945
 11
318.6127793673
 21
109.6855234641
  0
LINE
  8
0
 62
7
  6
CONTINUOUS
 10
319.3627793673
 20
98.1726427336
 11
319.3627793673
 21
102.2400001212
  0
LINE
  8
0
 62
7
  6
CONTINUOUS
 10
319.7127793673
 20
129.9821324763
 11
319.7127793673
 21
126.7052853459
  0
LINE
  8
0
 62
7
  6
CONTINUOUS
 10
314.0830750935
 20
105.1535053989
 11
313.368720222
 21
102.2883845004
  0
LINE
  8
0
 62
7
  6
CONTINUOUS
 10
324.992483641
 20
123.7917800683
 11
325.7068385125
 21
126.6569009668
  0
LINE
  8
0
 62
7
  6
CONTINUOUS
 10
319.3568385125
 20
102.2883845004
 11
318.642483641
 21
105.1535053989
  0
LINE
  8
0
 62
7
  6
CONTINUOUS
 10
319.718720222
 20
126.6569009668
 11
320.4330750935
 21
123.7917800683
  0
LINE
  8
0
 62
7
  6
CONTINUOUS
 10
320.4627793673
 20
123.5498581727
 11
320.4627793673
 21
117.2542010175
  0
LINE
  8
0
 62
7
  6
CONTINUOUS
 10
324.9627793673
 20
117.2653193955
 11
324.9627793673
 21
123.5498581727
  0
LINE
  8
0
 62
7
  6
CONTINUOUS
 10
325.7127793673
 20
126.7052853459
 11
325.7127793673
 21
129.9821324763
  0
LINE
  8
0
 62
7
  6
CONTINUOUS
 10
326.0627793673
 20
102.2400001212
 11
326.0627793673
 21
98.1726427336
  0
LINE
  8
0
 62
7
  6
CONTINUOUS
 10
326.8127793673
 20
109.6855234641
 11
326.8127793673
 21
105.3954272945
  0
LINE
  8
0
 62
7
  6
CONTINUOUS
 10
331.3127793673
 20
105.3954272945
 11
331.3127793673
 21
109.6855234641
  0
LINE
  8
0
 62
7
  6
CONTINUOUS
 10
332.0627793673
 20
98.1726427336
 11
332.0627793673
 21
102.2400001212
  0
LINE
  8
0
 62
7
  6
CONTINUOUS
 10
332.0627793673
 20
112.0964361544
 11
332.0627793673
 21
115.1217923763
  0
LINE
  8
0
 62
7
  6
CONTINUOUS
 10
326.7830750935
 20
105.1535053989
 11
326.068720222
 21
102.2883845004
  0
LINE
  8
0
 62
7
  6
CONTINUOUS
 10
332.0568385125
 20
102.2883845004
 11
331.342483641
 21
105.1535053989
  0
LINE
  8
0
 62
7
  6
CONTINUOUS
 10
358.7162305502
 20
130.2834548472
 11
358.7148821917
 21
130.2820731554
  0
LINE
  8
0
 62
7
  6
CONTINUOUS
 10
358.7162305502
 20
130.1833942411
 11
358.7148821917
 21
130.1820125494
  0
LINE
  8
0
 62
7
  6
CONTINUOUS
 10
358.7162305502
 20
130.0833336351
 11
358.7148821917
 21
130.0819519433
  0
LINE
  8
0
 62
7
  6
CONTINUOUS
 10
358.7967914568
 20
130.3633654624
 11
358.7162312179
 21
130.283455518
  0
LINE
  8
0
 62
7
  6
CONTINUOUS
 10
358.7967914568
 20
130.2633048563
 11
358.7162312179
 21
130.183394912
  0
LINE
  8
0
 62
7
  6
CONTINUOUS
 10
358.7967914568
 20
130.1632442502
 11
358.7162312179
 21
130.0833343059
  0
LINE
  8
0
 62
7
  6
CONTINUOUS
 10
358.7967914568
 20
130.0631836442
 11
358.7162312179
 21
129.9832736998
  0
POLYLINE
  8
0
 62
7
  6
CONTINUOUS
 66
1
 70
0
  0
VERTEX
  8
0
 62
7
  6
CONTINUOUS
 10
365.2841842303
 20
96.6841384651
  0
VERTEX
  8
0
 62
7
  6
CONTINUOUS
 10
365.3770928831
 20
96.6854141813
  0
VERTEX
  8
0
 62
7
  6
CONTINUOUS
 10
365.5811664482
 20
96.6975151951
  0
VERTEX
  8
0
 62
7
  6
CONTINUOUS
 10
365.7763379891
 20
96.7218447752
  0
VERTEX
  8
0
 62
7
  6
CONTINUOUS
 10
365.9624687599
 20
96.7576803023
  0
VERTEX
  8
0
 62
7
  6
CONTINUOUS
 10
366.1396787175
 20
96.8043146339
  0
VERTEX
  8
0
 62
7
  6
CONTINUOUS
 10
366.3082124294
 20
96.8610897557
  0
VERTEX
  8
0
 62
7
  6
CONTINUOUS
 10
366.4683096125
 20
96.9273806744
  0
VERTEX
  8
0
 62
7
  6
CONTINUOUS
 10
366.6202094513
 20
97.0025932415
  0
VERTEX
  8
0
 62
7
  6
CONTINUOUS
 10
366.7641558859
 20
97.086164283
  0
VERTEX
  8
0
 62
7
  6
CONTINUOUS
 10
366.9004023833
 20
97.1775637885
  0
VERTEX
  8
0
 62
7
  6
CONTINUOUS
 10
367.0292147226
 20
97.2762980787
  0
VERTEX
  8
0
 62
7
  6
CONTINUOUS
 10
367.1508319234
 20
97.3818763666
  0
VERTEX
  8
0
 62
7
  6
CONTINUOUS
 10
367.2654340418
 20
97.4937588572
  0
VERTEX
  8
0
 62
7
  6
CONTINUOUS
 10
367.3732195844
 20
97.6114046102
  0
VERTEX
  8
0
 62
7
  6
CONTINUOUS
 10
367.4744132812
 20
97.7342813205
  0
VERTEX
  8
0
 62
7
  6
CONTINUOUS
 10
367.5692560966
 20
97.8618569849
  0
VERTEX
  8
0
 62
7
  6
CONTINUOUS
 10
367.6580011516
 20
97.9935942806
  0
VERTEX
  8
0
 62
7
  6
CONTINUOUS
 10
367.7409211665
 20
98.1289621999
  0
VERTEX
  8
0
 62
7
  6
CONTINUOUS
 10
367.8183010278
 20
98.267428197
  0
VERTEX
  8
0
 62
7
  6
CONTINUOUS
 10
367.8904361881
 20
98.4084572938
  0
VERTEX
  8
0
 62
7
  6
CONTINUOUS
 10
367.9576360381
 20
98.5515226557
  0
VERTEX
  8
0
 62
7
  6
CONTINUOUS
 10
368.0202182455
 20
98.6961006686
  0
VERTEX
  8
0
 62
7
  6
CONTINUOUS
 10
368.0785069003
 20
98.8416727731
  0
VERTEX
  8
0
 62
7
  6
CONTINUOUS
 10
368.1328304222
 20
98.9877275663
  0
VERTEX
  8
0
 62
7
  6
CONTINUOUS
 10
368.178926158
 20
99.120126639
  0
SEQEND
  0
LINE
  8
0
 62
7
  6
CONTINUOUS
 10
365.2841866637
 20
96.6841385479
 11
365.2844858897
 21
96.6841385599
  0
LINE
  8
0
 62
7
  6
CONTINUOUS
 10
360.7075632355
 20
96.6841385477
 11
365.2836493167
 21
96.6841385477
  0
LINE
  8
0
 62
7
  6
CONTINUOUS
 10
360.7067301603
 20
96.6841385487
 11
360.7064076972
 21
96.6841385706
  0
POLYLINE
  8
0
 62
7
  6
CONTINUOUS
 66
1
 70
0
  0
VERTEX
  8
0
 62
7
  6
CONTINUOUS
 10
357.7710241594
 20
128.3057068998
  0
VERTEX
  8
0
 62
7
  6
CONTINUOUS
 10
357.7132184197
 20
128.1061063951
  0
VERTEX
  8
0
 62
7
  6
CONTINUOUS
 10
357.6658564561
 20
127.9037754576
  0
VERTEX
  8
0
 62
7
  6
CONTINUOUS
 10
357.6341274994
 20
127.7314265302
  0
SEQEND
  0
POLYLINE
  8
0
 62
7
  6
CONTINUOUS
 66
1
 70
0
  0
VERTEX
  8
0
 62
7
  6
CONTINUOUS
 10
357.7198216354
 20
128.091617196
  0
VERTEX
  8
0
 62
7
  6
CONTINUOUS
 10
357.7795533326
 20
128.2928114885
  0
VERTEX
  8
0
 62
7
  6
CONTINUOUS
 10
357.8497542015
 20
128.4905936577
  0
VERTEX
  8
0
 62
7
  6
CONTINUOUS
 10
357.9302317341
 20
128.6844218339
  0
SEQEND
  0
LINE
  8
0
 62
7
  6
CONTINUOUS
 10
357.7994869123
 20
128.3918193537
 11
357.7337385285
 21
128.1815108791
  0
POLYLINE
  8
0
 62
7
  6
CONTINUOUS
 66
1
 70
0
  0
VERTEX
  8
0
 62
7
  6
CONTINUOUS
 10
357.9302317341
 20
128.6844218339
  0
VERTEX
  8
0
 62
7
  6
CONTINUOUS
 10
358.020766808
 20
128.873767081
  0
VERTEX
  8
0
 62
7
  6
CONTINUOUS
 10
358.1211087586
 20
129.0581039577
  0
SEQEND
  0
POLYLINE
  8
0
 62
7
  6
CONTINUOUS
 66
1
 70
0
  0
VERTEX
  8
0
 62
7
  6
CONTINUOUS
 10
358.1211087586
 20
129.0581039577
  0
VERTEX
  8
0
 62
7
  6
CONTINUOUS
 10
358.2309729686
 20
129.2369118116
  0
VERTEX
  8
0
 62
7
  6
CONTINUOUS
 10
358.3500579461
 20
129.4097035934
  0
VERTEX
  8
0
 62
7
  6
CONTINUOUS
 10
358.4780567165
 20
129.5760317247
  0
VERTEX
  8
0
 62
7
  6
CONTINUOUS
 10
358.614626822
 20
129.7354433803
  0
VERTEX
  8
0
 62
7
  6
CONTINUOUS
 10
358.7593595835
 20
129.8874592592
  0
SEQEND
  0
POLYLINE
  8
0
 62
7
  6
CONTINUOUS
 66
1
 70
0
  0
VERTEX
  8
0
 62
7
  6
CONTINUOUS
 10
358.7148938466
 20
130.2820743272
  0
VERTEX
  8
0
 62
7
  6
CONTINUOUS
 10
358.5657125682
 20
130.119913819
  0
VERTEX
  8
0
 62
7
  6
CONTINUOUS
 10
358.4256865238
 20
129.9497844348
  0
VERTEX
  8
0
 62
7
  6
CONTINUOUS
 10
358.295240204
 20
129.7722017714
  0
VERTEX
  8
0
 62
7
  6
CONTINUOUS
 10
358.1747704828
 20
129.5877060889
  0
VERTEX
  8
0
 62
7
  6
CONTINUOUS
 10
358.0646426905
 20
129.3968570848
  0
VERTEX
  8
0
 62
7
  6
CONTINUOUS
 10
357.9651905585
 20
129.2002331571
  0
VERTEX
  8
0
 62
7
  6
CONTINUOUS
 10
357.8767157493
 20
128.9984305418
  0
VERTEX
  8
0
 62
7
  6
CONTINUOUS
 10
357.7994869123
 20
128.7920617779
  0
VERTEX
  8
0
 62
7
  6
CONTINUOUS
 10
357.7337385285
 20
128.5817533033
  0
VERTEX
  8
0
 62
7
  6
CONTINUOUS
 10
357.6796701945
 20
128.3681435628
  0
VERTEX
  8
0
 62
7
  6
CONTINUOUS
 10
357.6341277782
 20
128.1316682894
  0
SEQEND
  0
POLYLINE
  8
0
 62
7
  6
CONTINUOUS
 66
1
 70
0
  0
VERTEX
  8
0
 62
7
  6
CONTINUOUS
 10
358.7148938466
 20
130.1820137211
  0
VERTEX
  8
0
 62
7
  6
CONTINUOUS
 10
358.5657125682
 20
130.019853213
  0
VERTEX
  8
0
 62
7
  6
CONTINUOUS
 10
358.4256865238
 20
129.8497238288
  0
VERTEX
  8
0
 62
7
  6
CONTINUOUS
 10
358.295240204
 20
129.6721411653
  0
VERTEX
  8
0
 62
7
  6
CONTINUOUS
 10
358.1747704828
 20
129.4876454829
  0
VERTEX
  8
0
 62
7
  6
CONTINUOUS
 10
358.0646426905
 20
129.2967964787
  0
VERTEX
  8
0
 62
7
  6
CONTINUOUS
 10
357.9651905585
 20
129.100172551
  0
VERTEX
  8
0
 62
7
  6
CONTINUOUS
 10
357.8767157493
 20
128.8983699357
  0
VERTEX
  8
0
 62
7
  6
CONTINUOUS
 10
357.7994869123
 20
128.6920011719
  0
VERTEX
  8
0
 62
7
  6
CONTINUOUS
 10
357.7337385285
 20
128.4816926973
  0
VERTEX
  8
0
 62
7
  6
CONTINUOUS
 10
357.6796701945
 20
128.2680829567
  0
VERTEX
  8
0
 62
7
  6
CONTINUOUS
 10
357.6341277783
 20
128.0316076837
  0
SEQEND
  0
POLYLINE
  8
0
 62
7
  6
CONTINUOUS
 66
1
 70
0
  0
VERTEX
  8
0
 62
7
  6
CONTINUOUS
 10
358.7148938466
 20
130.081953115
  0
VERTEX
  8
0
 62
7
  6
CONTINUOUS
 10
358.5657125682
 20
129.9197926069
  0
VERTEX
  8
0
 62
7
  6
CONTINUOUS
 10
358.4256865238
 20
129.7496632227
  0
VERTEX
  8
0
 62
7
  6
CONTINUOUS
 10
358.295240204
 20
129.5720805592
  0
VERTEX
  8
0
 62
7
  6
CONTINUOUS
 10
358.1747704828
 20
129.3875848768
  0
VERTEX
  8
0
 62
7
  6
CONTINUOUS
 10
358.0646426905
 20
129.1967358727
  0
VERTEX
  8
0
 62
7
  6
CONTINUOUS
 10
357.9651905585
 20
129.000111945
  0
VERTEX
  8
0
 62
7
  6
CONTINUOUS
 10
357.8767157493
 20
128.7983093297
  0
VERTEX
  8
0
 62
7
  6
CONTINUOUS
 10
357.7994869123
 20
128.5919405658
  0
VERTEX
  8
0
 62
7
  6
CONTINUOUS
 10
357.7337385285
 20
128.3816320912
  0
VERTEX
  8
0
 62
7
  6
CONTINUOUS
 10
357.6796701945
 20
128.1680223507
  0
VERTEX
  8
0
 62
7
  6
CONTINUOUS
 10
357.6341277784
 20
127.9315470784
  0
SEQEND
  0
POLYLINE
  8
0
 62
7
  6
CONTINUOUS
 66
1
 70
0
  0
VERTEX
  8
0
 62
7
  6
CONTINUOUS
 10
358.7148938466
 20
129.981892509
  0
VERTEX
  8
0
 62
7
  6
CONTINUOUS
 10
358.5657125682
 20
129.8197320009
  0
VERTEX
  8
0
 62
7
  6
CONTINUOUS
 10
358.4256865238
 20
129.6496026167
  0
VERTEX
  8
0
 62
7
  6
CONTINUOUS
 10
358.295240204
 20
129.4720199532
  0
VERTEX
  8
0
 62
7
  6
CONTINUOUS
 10
358.1747704828
 20
129.2875242708
  0
VERTEX
  8
0
 62
7
  6
CONTINUOUS
 10
358.0646426905
 20
129.0966752666
  0
VERTEX
  8
0
 62
7
  6
CONTINUOUS
 10
357.9651905585
 20
128.9000513389
  0
VERTEX
  8
0
 62
7
  6
CONTINUOUS
 10
357.8767157493
 20
128.6982487236
  0
VERTEX
  8
0
 62
7
  6
CONTINUOUS
 10
357.7994869123
 20
128.4918799598
  0
VERTEX
  8
0
 62
7
  6
CONTINUOUS
 10
357.7337385285
 20
128.2815714852
  0
VERTEX
  8
0
 62
7
  6
CONTINUOUS
 10
357.6796701945
 20
128.0679617446
  0
VERTEX
  8
0
 62
7
  6
CONTINUOUS
 10
357.6341277783
 20
127.8314864716
  0
SEQEND
  0
POLYLINE
  8
0
 62
7
  6
CONTINUOUS
 66
1
 70
0
  0
VERTEX
  8
0
 62
7
  6
CONTINUOUS
 10
358.7148938466
 20
129.8818319029
  0
VERTEX
  8
0
 62
7
  6
CONTINUOUS
 10
358.5657125682
 20
129.7196713948
  0
VERTEX
  8
0
 62
7
  6
CONTINUOUS
 10
358.4256865238
 20
129.5495420106
  0
VERTEX
  8
0
 62
7
  6
CONTINUOUS
 10
358.295240204
 20
129.3719593471
  0
VERTEX
  8
0
 62
7
  6
CONTINUOUS
 10
358.1747704828
 20
129.1874636647
  0
VERTEX
  8
0
 62
7
  6
CONTINUOUS
 10
358.0646426905
 20
128.9966146606
  0
VERTEX
  8
0
 62
7
  6
CONTINUOUS
 10
357.9651905585
 20
128.7999907328
  0
VERTEX
  8
0
 62
7
  6
CONTINUOUS
 10
357.8767157493
 20
128.5981881176
  0
VERTEX
  8
0
 62
7
  6
CONTINUOUS
 10
357.7994869123
 20
128.3918193537
  0
SEQEND
  0
POLYLINE
  8
0
 62
7
  6
CONTINUOUS
 66
1
 70
0
  0
VERTEX
  8
0
 62
7
  6
CONTINUOUS
 10
358.7148884938
 20
130.2820795309
  0
VERTEX
  8
0
 62
7
  6
CONTINUOUS
 10
358.5850030151
 20
130.1419251866
  0
VERTEX
  8
0
 62
7
  6
CONTINUOUS
 10
358.4515318463
 20
129.9826641969
  0
VERTEX
  8
0
 62
7
  6
CONTINUOUS
 10
358.3265128644
 20
129.8166892257
  0
VERTEX
  8
0
 62
7
  6
CONTINUOUS
 10
358.2102792141
 20
129.6444425879
  0
VERTEX
  8
0
 62
7
  6
CONTINUOUS
 10
358.1031458861
 20
129.4663900926
  0
VERTEX
  8
0
 62
7
  6
CONTINUOUS
 10
358.0054029499
 20
129.2830134387
  0
VERTEX
  8
0
 62
7
  6
CONTINUOUS
 10
357.9173142311
 20
129.0948072633
  0
VERTEX
  8
0
 62
7
  6
CONTINUOUS
 10
357.8391175007
 20
128.9022791876
  0
VERTEX
  8
0
 62
7
  6
CONTINUOUS
 10
357.7710241594
 20
128.705949324
  0
VERTEX
  8
0
 62
7
  6
CONTINUOUS
 10
357.7132184197
 20
128.5063488194
  0
VERTEX
  8
0
 62
7
  6
CONTINUOUS
 10
357.6658564561
 20
128.3040178819
  0
VERTEX
  8
0
 62
7
  6
CONTINUOUS
 10
357.6341274993
 20
128.1316689541
  0
SEQEND
  0
POLYLINE
  8
0
 62
7
  6
CONTINUOUS
 66
1
 70
0
  0
VERTEX
  8
0
 62
7
  6
CONTINUOUS
 10
358.7148884938
 20
130.1820189248
  0
VERTEX
  8
0
 62
7
  6
CONTINUOUS
 10
358.5850030151
 20
130.0418645806
  0
VERTEX
  8
0
 62
7
  6
CONTINUOUS
 10
358.4515318463
 20
129.8826035909
  0
VERTEX
  8
0
 62
7
  6
CONTINUOUS
 10
358.3265128644
 20
129.7166286197
  0
VERTEX
  8
0
 62
7
  6
CONTINUOUS
 10
358.2102792141
 20
129.5443819818
  0
VERTEX
  8
0
 62
7
  6
CONTINUOUS
 10
358.1031458861
 20
129.3663294865
  0
VERTEX
  8
0
 62
7
  6
CONTINUOUS
 10
358.0054029499
 20
129.1829528327
  0
VERTEX
  8
0
 62
7
  6
CONTINUOUS
 10
357.9173142311
 20
128.9947466572
  0
VERTEX
  8
0
 62
7
  6
CONTINUOUS
 10
357.8391175007
 20
128.8022185815
  0
VERTEX
  8
0
 62
7
  6
CONTINUOUS
 10
357.7710241594
 20
128.605888718
  0
VERTEX
  8
0
 62
7
  6
CONTINUOUS
 10
357.7132184197
 20
128.4062882133
  0
VERTEX
  8
0
 62
7
  6
CONTINUOUS
 10
357.6658564561
 20
128.2039572758
  0
VERTEX
  8
0
 62
7
  6
CONTINUOUS
 10
357.6341274994
 20
128.0316083485
  0
SEQEND
  0
POLYLINE
  8
0
 62
7
  6
CONTINUOUS
 66
1
 70
0
  0
VERTEX
  8
0
 62
7
  6
CONTINUOUS
 10
358.7148884938
 20
130.0819583188
  0
VERTEX
  8
0
 62
7
  6
CONTINUOUS
 10
358.5850030151
 20
129.9418039745
  0
VERTEX
  8
0
 62
7
  6
CONTINUOUS
 10
358.4515318463
 20
129.7825429848
  0
VERTEX
  8
0
 62
7
  6
CONTINUOUS
 10
358.3265128644
 20
129.6165680136
  0
VERTEX
  8
0
 62
7
  6
CONTINUOUS
 10
358.2102792141
 20
129.4443213757
  0
VERTEX
  8
0
 62
7
  6
CONTINUOUS
 10
358.1031458861
 20
129.2662688805
  0
VERTEX
  8
0
 62
7
  6
CONTINUOUS
 10
358.0054029499
 20
129.0828922266
  0
VERTEX
  8
0
 62
7
  6
CONTINUOUS
 10
357.9173142311
 20
128.8946860512
  0
VERTEX
  8
0
 62
7
  6
CONTINUOUS
 10
357.8391175007
 20
128.7021579755
  0
VERTEX
  8
0
 62
7
  6
CONTINUOUS
 10
357.7710241594
 20
128.5058281119
  0
VERTEX
  8
0
 62
7
  6
CONTINUOUS
 10
357.7132184197
 20
128.3062276072
  0
VERTEX
  8
0
 62
7
  6
CONTINUOUS
 10
357.6658564561
 20
128.1038966698
  0
VERTEX
  8
0
 62
7
  6
CONTINUOUS
 10
357.6341274995
 20
127.9315477431
  0
SEQEND
  0
POLYLINE
  8
0
 62
7
  6
CONTINUOUS
 66
1
 70
0
  0
VERTEX
  8
0
 62
7
  6
CONTINUOUS
 10
358.7148884938
 20
129.9818977127
  0
VERTEX
  8
0
 62
7
  6
CONTINUOUS
 10
358.5850030151
 20
129.8417433684
  0
VERTEX
  8
0
 62
7
  6
CONTINUOUS
 10
358.4515318463
 20
129.6824823788
  0
VERTEX
  8
0
 62
7
  6
CONTINUOUS
 10
358.3265128644
 20
129.5165074075
  0
VERTEX
  8
0
 62
7
  6
CONTINUOUS
 10
358.2102792141
 20
129.3442607697
  0
VERTEX
  8
0
 62
7
  6
CONTINUOUS
 10
358.1031458861
 20
129.1662082744
  0
VERTEX
  8
0
 62
7
  6
CONTINUOUS
 10
358.0054029499
 20
128.9828316205
  0
VERTEX
  8
0
 62
7
  6
CONTINUOUS
 10
357.9173142311
 20
128.7946254451
  0
VERTEX
  8
0
 62
7
  6
CONTINUOUS
 10
357.8391175007
 20
128.6020973694
  0
VERTEX
  8
0
 62
7
  6
CONTINUOUS
 10
357.7710241594
 20
128.4057675058
  0
VERTEX
  8
0
 62
7
  6
CONTINUOUS
 10
357.7132184197
 20
128.2061670012
  0
VERTEX
  8
0
 62
7
  6
CONTINUOUS
 10
357.6658564561
 20
128.0038360637
  0
VERTEX
  8
0
 62
7
  6
CONTINUOUS
 10
357.6341274994
 20
127.8314871363
  0
SEQEND
  0
POLYLINE
  8
0
 62
7
  6
CONTINUOUS
 66
1
 70
0
  0
VERTEX
  8
0
 62
7
  6
CONTINUOUS
 10
358.7148884938
 20
129.8818371066
  0
VERTEX
  8
0
 62
7
  6
CONTINUOUS
 10
358.5850030151
 20
129.7416827624
  0
VERTEX
  8
0
 62
7
  6
CONTINUOUS
 10
358.4515318463
 20
129.5824217727
  0
VERTEX
  8
0
 62
7
  6
CONTINUOUS
 10
358.3265128644
 20
129.4164468015
  0
VERTEX
  8
0
 62
7
  6
CONTINUOUS
 10
358.2102792141
 20
129.2442001636
  0
VERTEX
  8
0
 62
7
  6
CONTINUOUS
 10
358.1031458861
 20
129.0661476684
  0
VERTEX
  8
0
 62
7
  6
CONTINUOUS
 10
358.0054029499
 20
128.8827710145
  0
VERTEX
  8
0
 62
7
  6
CONTINUOUS
 10
357.9173142311
 20
128.6945648391
  0
VERTEX
  8
0
 62
7
  6
CONTINUOUS
 10
357.8391175007
 20
128.5020367634
  0
VERTEX
  8
0
 62
7
  6
CONTINUOUS
 10
357.7710241594
 20
128.3057068998
  0
SEQEND
  0
LINE
  8
0
 62
7
  6
CONTINUOUS
 10
358.7162305502
 20
129.983273029
 11
358.7148821917
 21
129.9818913373
  0
LINE
  8
0
 62
7
  6
CONTINUOUS
 10
358.7162305502
 20
129.8832124229
 11
358.7148821917
 21
129.8818307312
  0
LINE
  8
0
 62
7
  6
CONTINUOUS
 10
358.7967914568
 20
129.9631230381
 11
358.7162312179
 21
129.8832130938
  0
LINE
  8
DEFAULT_1
 62
2
  6
CENTER
 10
368.8329368704
 20
101.7726427336
 11
367.6829368704
 21
101.7726427336
  0
LINE
  8
0
 62
2
  6
CONTINUOUS
 10
364.6329368704
 20
101.7726427336
 11
362.5329368704
 21
101.7726427336
  0
LINE
  8
DEFAULT_1
 62
2
  6
CENTER
 10
358.3329368704
 20
101.7726427336
 11
359.4829368704
 21
101.7726427336
  0
POLYLINE
  8
0
 62
7
  6
CONTINUOUS
 66
1
 70
0
  0
VERTEX
  8
0
 62
7
  6
CONTINUOUS
 10
357.5829368786
 20
100.940432609
  0
VERTEX
  8
0
 62
7
  6
CONTINUOUS
 10
357.5905902082
 20
100.5817087254
  0
VERTEX
  8
0
 62
7
  6
CONTINUOUS
 10
357.6146384283
 20
100.2111785722
  0
VERTEX
  8
0
 62
7
  6
CONTINUOUS
 10
357.6548204319
 20
99.8444044012
  0
VERTEX
  8
0
 62
7
  6
CONTINUOUS
 10
357.7108850034
 20
99.4820940934
  0
VERTEX
  8
0
 62
7
  6
CONTINUOUS
 10
357.7790722618
 20
99.1407606308
  0
SEQEND
  0
LINE
  8
0
 62
7
  6
CONTINUOUS
 10
357.5829368704
 20
100.940432609
 11
357.5829368704
 21
127.5226427336
  0
POLYLINE
  8
0
 62
7
  6
CONTINUOUS
 66
1
 70
0
  0
VERTEX
  8
0
 62
7
  6
CONTINUOUS
 10
357.5829368704
 20
127.4543670697
  0
VERTEX
  8
0
 62
7
  6
CONTINUOUS
 10
357.5884425606
 20
127.6641699742
  0
VERTEX
  8
0
 62
7
  6
CONTINUOUS
 10
357.6049442922
 20
127.8733935873
  0
SEQEND
  0
POLYLINE
  8
0
 62
7
  6
CONTINUOUS
 66
1
 70
0
  0
VERTEX
  8
0
 62
7
  6
CONTINUOUS
 10
357.5829368704
 20
127.3543064637
  0
VERTEX
  8
0
 62
7
  6
CONTINUOUS
 10
357.5884425606
 20
127.5641093681
  0
VERTEX
  8
0
 62
7
  6
CONTINUOUS
 10
357.6049442922
 20
127.7733329813
  0
SEQEND
  0
POLYLINE
  8
0
 62
7
  6
CONTINUOUS
 66
1
 70
0
  0
VERTEX
  8
0
 62
7
  6
CONTINUOUS
 10
357.5829368704
 20
127.2542458576
  0
VERTEX
  8
0
 62
7
  6
CONTINUOUS
 10
357.5884425606
 20
127.464048762
  0
VERTEX
  8
0
 62
7
  6
CONTINUOUS
 10
357.6049442922
 20
127.6732723752
  0
SEQEND
  0
POLYLINE
  8
0
 62
7
  6
CONTINUOUS
 66
1
 70
0
  0
VERTEX
  8
0
 62
7
  6
CONTINUOUS
 10
357.5829368704
 20
127.1541852516
  0
VERTEX
  8
0
 62
7
  6
CONTINUOUS
 10
357.5884425606
 20
127.363988156
  0
VERTEX
  8
0
 62
7
  6
CONTINUOUS
 10
357.6049442922
 20
127.5732117692
  0
SEQEND
  0
POLYLINE
  8
0
 62
7
  6
CONTINUOUS
 66
1
 70
0
  0
VERTEX
  8
0
 62
7
  6
CONTINUOUS
 10
357.5829368704
 20
127.0541246455
  0
VERTEX
  8
0
 62
7
  6
CONTINUOUS
 10
357.5884425606
 20
127.2639275499
  0
VERTEX
  8
0
 62
7
  6
CONTINUOUS
 10
357.6049442922
 20
127.4731511631
  0
SEQEND
  0
POLYLINE
  8
0
 62
7
  6
CONTINUOUS
 66
1
 70
0
  0
VERTEX
  8
0
 62
7
  6
CONTINUOUS
 10
357.6049442922
 20
127.8733935873
  0
VERTEX
  8
0
 62
7
  6
CONTINUOUS
 10
357.6323967456
 20
128.0814643746
  0
VERTEX
  8
0
 62
7
  6
CONTINUOUS
 10
357.6707243401
 20
128.287809003
  0
VERTEX
  8
0
 62
7
  6
CONTINUOUS
 10
357.7198216354
 20
128.4918596202
  0
VERTEX
  8
0
 62
7
  6
CONTINUOUS
 10
357.7795533326
 20
128.6930539127
  0
VERTEX
  8
0
 62
7
  6
CONTINUOUS
 10
357.8497542015
 20
128.8908360819
  0
VERTEX
  8
0
 62
7
  6
CONTINUOUS
 10
357.9302317341
 20
129.0846642582
  0
VERTEX
  8
0
 62
7
  6
CONTINUOUS
 10
358.020766808
 20
129.2740095052
  0
VERTEX
  8
0
 62
7
  6
CONTINUOUS
 10
358.1211087586
 20
129.4583463819
  0
VERTEX
  8
0
 62
7
  6
CONTINUOUS
 10
358.2309729686
 20
129.6371542358
  0
VERTEX
  8
0
 62
7
  6
CONTINUOUS
 10
358.3500579461
 20
129.8099460176
  0
VERTEX
  8
0
 62
7
  6
CONTINUOUS
 10
358.4780567165
 20
129.976274149
  0
VERTEX
  8
0
 62
7
  6
CONTINUOUS
 10
358.614626822
 20
130.1356858046
  0
VERTEX
  8
0
 62
7
  6
CONTINUOUS
 10
358.7593595835
 20
130.2877016835
  0
SEQEND
  0
POLYLINE
  8
0
 62
7
  6
CONTINUOUS
 66
1
 70
0
  0
VERTEX
  8
0
 62
7
  6
CONTINUOUS
 10
357.6049442922
 20
127.7733329813
  0
VERTEX
  8
0
 62
7
  6
CONTINUOUS
 10
357.6323967456
 20
127.9814037685
  0
VERTEX
  8
0
 62
7
  6
CONTINUOUS
 10
357.6707243401
 20
128.1877483969
  0
VERTEX
  8
0
 62
7
  6
CONTINUOUS
 10
357.7198216354
 20
128.3917990141
  0
VERTEX
  8
0
 62
7
  6
CONTINUOUS
 10
357.7795533326
 20
128.5929933067
  0
VERTEX
  8
0
 62
7
  6
CONTINUOUS
 10
357.8497542015
 20
128.7907754758
  0
VERTEX
  8
0
 62
7
  6
CONTINUOUS
 10
357.9302317341
 20
128.9846036521
  0
VERTEX
  8
0
 62
7
  6
CONTINUOUS
 10
358.020766808
 20
129.1739488992
  0
VERTEX
  8
0
 62
7
  6
CONTINUOUS
 10
358.1211087586
 20
129.3582857759
  0
VERTEX
  8
0
 62
7
  6
CONTINUOUS
 10
358.2309729686
 20
129.5370936298
  0
VERTEX
  8
0
 62
7
  6
CONTINUOUS
 10
358.3500579461
 20
129.7098854116
  0
VERTEX
  8
0
 62
7
  6
CONTINUOUS
 10
358.4780567165
 20
129.8762135429
  0
VERTEX
  8
0
 62
7
  6
CONTINUOUS
 10
358.614626822
 20
130.0356251985
  0
VERTEX
  8
0
 62
7
  6
CONTINUOUS
 10
358.7593595835
 20
130.1876410774
  0
SEQEND
  0
POLYLINE
  8
0
 62
7
  6
CONTINUOUS
 66
1
 70
0
  0
VERTEX
  8
0
 62
7
  6
CONTINUOUS
 10
357.6049442922
 20
127.6732723752
  0
VERTEX
  8
0
 62
7
  6
CONTINUOUS
 10
357.6323967456
 20
127.8813431624
  0
VERTEX
  8
0
 62
7
  6
CONTINUOUS
 10
357.6707243401
 20
128.0876877908
  0
VERTEX
  8
0
 62
7
  6
CONTINUOUS
 10
357.7198216354
 20
128.2917384081
  0
VERTEX
  8
0
 62
7
  6
CONTINUOUS
 10
357.7795533326
 20
128.4929327006
  0
VERTEX
  8
0
 62
7
  6
CONTINUOUS
 10
357.8497542015
 20
128.6907148698
  0
VERTEX
  8
0
 62
7
  6
CONTINUOUS
 10
357.9302317341
 20
128.884543046
  0
VERTEX
  8
0
 62
7
  6
CONTINUOUS
 10
358.020766808
 20
129.0738882931
  0
VERTEX
  8
0
 62
7
  6
CONTINUOUS
 10
358.1211087586
 20
129.2582251698
  0
VERTEX
  8
0
 62
7
  6
CONTINUOUS
 10
358.2309729686
 20
129.4370330237
  0
VERTEX
  8
0
 62
7
  6
CONTINUOUS
 10
358.3500579461
 20
129.6098248055
  0
VERTEX
  8
0
 62
7
  6
CONTINUOUS
 10
358.4780567165
 20
129.7761529369
  0
VERTEX
  8
0
 62
7
  6
CONTINUOUS
 10
358.614626822
 20
129.9355645924
  0
VERTEX
  8
0
 62
7
  6
CONTINUOUS
 10
358.7593595835
 20
130.0875804713
  0
SEQEND
  0
POLYLINE
  8
0
 62
7
  6
CONTINUOUS
 66
1
 70
0
  0
VERTEX
  8
0
 62
7
  6
CONTINUOUS
 10
357.6049442922
 20
127.5732117692
  0
VERTEX
  8
0
 62
7
  6
CONTINUOUS
 10
357.6323967456
 20
127.7812825564
  0
VERTEX
  8
0
 62
7
  6
CONTINUOUS
 10
357.6707243401
 20
127.9876271848
  0
VERTEX
  8
0
 62
7
  6
CONTINUOUS
 10
357.7198216354
 20
128.191677802
  0
VERTEX
  8
0
 62
7
  6
CONTINUOUS
 10
357.7795533326
 20
128.3928720945
  0
VERTEX
  8
0
 62
7
  6
CONTINUOUS
 10
357.8497542015
 20
128.5906542637
  0
VERTEX
  8
0
 62
7
  6
CONTINUOUS
 10
357.9302317341
 20
128.78448244
  0
VERTEX
  8
0
 62
7
  6
CONTINUOUS
 10
358.020766808
 20
128.9738276871
  0
VERTEX
  8
0
 62
7
  6
CONTINUOUS
 10
358.1211087586
 20
129.1581645637
  0
VERTEX
  8
0
 62
7
  6
CONTINUOUS
 10
358.2309729686
 20
129.3369724176
  0
VERTEX
  8
0
 62
7
  6
CONTINUOUS
 10
358.3500579461
 20
129.5097641995
  0
VERTEX
  8
0
 62
7
  6
CONTINUOUS
 10
358.4780567165
 20
129.6760923308
  0
VERTEX
  8
0
 62
7
  6
CONTINUOUS
 10
358.614626822
 20
129.8355039864
  0
VERTEX
  8
0
 62
7
  6
CONTINUOUS
 10
358.7593595835
 20
129.9875198653
  0
SEQEND
  0
POLYLINE
  8
0
 62
7
  6
CONTINUOUS
 66
1
 70
0
  0
VERTEX
  8
0
 62
7
  6
CONTINUOUS
 10
357.6049442922
 20
127.4731511631
  0
VERTEX
  8
0
 62
7
  6
CONTINUOUS
 10
357.6323967456
 20
127.6812219503
  0
VERTEX
  8
0
 62
7
  6
CONTINUOUS
 10
357.6707243401
 20
127.8875665787
  0
VERTEX
  8
0
 62
7
  6
CONTINUOUS
 10
357.7198216354
 20
128.091617196
  0
SEQEND
  0
POLYLINE
  8
0
 62
7
  6
CONTINUOUS
 66
1
 70
0
  0
VERTEX
  8
0
 62
7
  6
CONTINUOUS
 10
357.6341277782
 20
128.1316682894
  0
VERTEX
  8
0
 62
7
  6
CONTINUOUS
 10
357.6071937625
 20
127.9336197902
  0
VERTEX
  8
0
 62
7
  6
CONTINUOUS
 10
357.5890057302
 20
127.714025183
  0
VERTEX
  8
0
 62
7
  6
CONTINUOUS
 10
357.5829368704
 20
127.4937610091
  0
SEQEND
  0
POLYLINE
  8
0
 62
7
  6
CONTINUOUS
 66
1
 70
0
  0
VERTEX
  8
0
 62
7
  6
CONTINUOUS
 10
357.6341277783
 20
128.0316076837
  0
VERTEX
  8
0
 62
7
  6
CONTINUOUS
 10
357.6071937625
 20
127.8335591841
  0
VERTEX
  8
0
 62
7
  6
CONTINUOUS
 10
357.5890057302
 20
127.6139645769
  0
VERTEX
  8
0
 62
7
  6
CONTINUOUS
 10
357.5829368704
 20
127.3937004031
  0
SEQEND
  0
POLYLINE
  8
0
 62
7
  6
CONTINUOUS
 66
1
 70
0
  0
VERTEX
  8
0
 62
7
  6
CONTINUOUS
 10
357.6341277784
 20
127.9315470784
  0
VERTEX
  8
0
 62
7
  6
CONTINUOUS
 10
357.6071937625
 20
127.733498578
  0
VERTEX
  8
0
 62
7
  6
CONTINUOUS
 10
357.5890057302
 20
127.5139039708
  0
VERTEX
  8
0
 62
7
  6
CONTINUOUS
 10
357.5829368704
 20
127.293639797
  0
SEQEND
  0
POLYLINE
  8
0
 62
7
  6
CONTINUOUS
 66
1
 70
0
  0
VERTEX
  8
0
 62
7
  6
CONTINUOUS
 10
357.6341277783
 20
127.8314864716
  0
VERTEX
  8
0
 62
7
  6
CONTINUOUS
 10
357.6071937625
 20
127.633437972
  0
VERTEX
  8
0
 62
7
  6
CONTINUOUS
 10
357.5890057302
 20
127.4138433648
  0
VERTEX
  8
0
 62
7
  6
CONTINUOUS
 10
357.5829368704
 20
127.193579191
  0
SEQEND
  0
POLYLINE
  8
0
 62
7
  6
CONTINUOUS
 66
1
 70
0
  0
VERTEX
  8
0
 62
7
  6
CONTINUOUS
 10
357.6341277783
 20
127.7314258655
  0
VERTEX
  8
0
 62
7
  6
CONTINUOUS
 10
357.6071937625
 20
127.5333773659
  0
VERTEX
  8
0
 62
7
  6
CONTINUOUS
 10
357.5890057302
 20
127.3137827587
  0
VERTEX
  8
0
 62
7
  6
CONTINUOUS
 10
357.5829368704
 20
127.0935185849
  0
SEQEND
  0
POLYLINE
  8
0
 62
7
  6
CONTINUOUS
 66
1
 70
0
  0
VERTEX
  8
0
 62
7
  6
CONTINUOUS
 10
357.7337385285
 20
128.1815108791
  0
VERTEX
  8
0
 62
7
  6
CONTINUOUS
 10
357.6796701945
 20
127.9679011386
  0
VERTEX
  8
0
 62
7
  6
CONTINUOUS
 10
357.6341277783
 20
127.7314258655
  0
SEQEND
  0
POLYLINE
  8
0
 62
7
  6
CONTINUOUS
 66
1
 70
0
  0
VERTEX
  8
0
 62
7
  6
CONTINUOUS
 10
357.7790722809
 20
99.140760635
  0
VERTEX
  8
0
 62
7
  6
CONTINUOUS
 10
357.8086319624
 20
99.0151718876
  0
VERTEX
  8
0
 62
7
  6
CONTINUOUS
 10
357.8455360035
 20
98.8759038364
  0
VERTEX
  8
0
 62
7
  6
CONTINUOUS
 10
357.886948426
 20
98.7374867414
  0
VERTEX
  8
0
 62
7
  6
CONTINUOUS
 10
357.9331764626
 20
98.6002333807
  0
VERTEX
  8
0
 62
7
  6
CONTINUOUS
 10
357.9845286316
 20
98.4644686489
  0
VERTEX
  8
0
 62
7
  6
CONTINUOUS
 10
358.041310911
 20
98.3305359107
  0
VERTEX
  8
0
 62
7
  6
CONTINUOUS
 10
358.103824335
 20
98.1987969418
  0
VERTEX
  8
0
 62
7
  6
CONTINUOUS
 10
358.1723618529
 20
98.0696325267
  0
VERTEX
  8
0
 62
7
  6
CONTINUOUS
 10
358.2472060818
 20
97.943440551
  0
VERTEX
  8
0
 62
7
  6
CONTINUOUS
 10
358.3286442402
 20
97.8206097853
  0
VERTEX
  8
0
 62
7
  6
CONTINUOUS
 10
358.4169688294
 20
97.7015276574
  0
VERTEX
  8
0
 62
7
  6
CONTINUOUS
 10
358.5124619159
 20
97.5866054522
  0
VERTEX
  8
0
 62
7
  6
CONTINUOUS
 10
358.615423934
 20
97.4762453061
  0
VERTEX
  8
0
 62
7
  6
CONTINUOUS
 10
358.7262952635
 20
97.3707454647
  0
VERTEX
  8
0
 62
7
  6
CONTINUOUS
 10
358.8455717561
 20
97.2704426264
  0
VERTEX
  8
0
 62
7
  6
CONTINUOUS
 10
358.9737627496
 20
97.1757586033
  0
VERTEX
  8
0
 62
7
  6
CONTINUOUS
 10
359.111266298
 20
97.087270593
  0
VERTEX
  8
0
 62
7
  6
CONTINUOUS
 10
359.258172374
 20
97.0057558744
  0
VERTEX
  8
0
 62
7
  6
CONTINUOUS
 10
359.4144896351
 20
96.9319696161
  0
VERTEX
  8
0
 62
7
  6
CONTINUOUS
 10
359.5801994992
 20
96.8666098523
  0
VERTEX
  8
0
 62
7
  6
CONTINUOUS
 10
359.7554313134
 20
96.8102732605
  0
VERTEX
  8
0
 62
7
  6
CONTINUOUS
 10
359.9407476297
 20
96.7634557185
  0
VERTEX
  8
0
 62
7
  6
CONTINUOUS
 10
360.1368137278
 20
96.7267480213
  0
VERTEX
  8
0
 62
7
  6
CONTINUOUS
 10
360.3443036312
 20
96.700869363
  0
VERTEX
  8
0
 62
7
  6
CONTINUOUS
 10
360.5636238052
 20
96.6866737632
  0
VERTEX
  8
0
 62
7
  6
CONTINUOUS
 10
360.7067231929
 20
96.6841384023
  0
SEQEND
  0
LINE
  8
0
 62
7
  6
CONTINUOUS
 10
361.4829368704
 20
117.2726427336
 11
361.4829368704
 21
127.1726427336
  0
LINE
  8
DEFAULT_1
 62
2
  6
CENTER
 10
363.5829368704
 20
132.4226427336
 11
363.5829368704
 21
129.1727427336
  0
LINE
  8
0
 62
2
  6
CONTINUOUS
 10
363.5829368704
 20
128.2226427336
 11
363.5829368704
 21
126.1226427336
  0
LINE
  8
DEFAULT_1
 62
2
  6
CENTER
 10
363.5829368704
 20
107.0226427336
 11
363.5829368704
 21
105.8726427336
  0
LINE
  8
0
 62
2
  6
CONTINUOUS
 10
363.5829368704
 20
102.8226427336
 11
363.5829368704
 21
100.7226427336
  0
LINE
  8
DEFAULT_1
 62
2
  6
CENTER
 10
363.5829368704
 20
96.5226427336
 11
363.5829368704
 21
97.6726427336
  0
LINE
  8
DEFAULT_1
 62
2
  6
CENTER
 10
363.5829368704
 20
121.9226427336
 11
363.5829368704
 21
125.1725427336
  0
LINE
  8
0
 62
7
  6
CONTINUOUS
 10
365.6829368704
 20
117.2726427336
 11
365.6829368704
 21
127.1726427336
  0
POLYLINE
  8
0
 62
7
  6
CONTINUOUS
 66
1
 70
0
  0
VERTEX
  8
0
 62
7
  6
CONTINUOUS
 10
369.5647550522
 20
121.4249231267
  0
VERTEX
  8
0
 62
7
  6
CONTINUOUS
 10
369.4930759718
 20
122.0852212276
  0
VERTEX
  8
0
 62
7
  6
CONTINUOUS
 10
369.3953014822
 20
122.8057282389
  0
VERTEX
  8
0
 62
7
  6
CONTINUOUS
 10
369.2662161483
 20
123.5855154659
  0
SEQEND
  0
POLYLINE
  8
0
 62
7
  6
CONTINUOUS
 66
1
 70
0
  0
VERTEX
  8
0
 62
7
  6
CONTINUOUS
 10
369.5647550522
 20
121.6766552696
  0
VERTEX
  8
0
 62
7
  6
CONTINUOUS
 10
369.4990015197
 20
122.2877897148
  0
VERTEX
  8
0
 62
7
  6
CONTINUOUS
 10
369.4150260743
 20
122.9235586821
  0
VERTEX
  8
0
 62
7
  6
CONTINUOUS
 10
369.3108849438
 20
123.5835648203
  0
SEQEND
  0
POLYLINE
  8
0
 62
7
  6
CONTINUOUS
 66
1
 70
0
  0
VERTEX
  8
0
 62
7
  6
CONTINUOUS
 10
369.5647550522
 20
121.9283874125
  0
VERTEX
  8
0
 62
7
  6
CONTINUOUS
 10
369.5059291571
 20
122.481017731
  0
VERTEX
  8
0
 62
7
  6
CONTINUOUS
 10
369.4353295293
 20
123.0321195842
  0
VERTEX
  8
0
 62
7
  6
CONTINUOUS
 10
369.3529701027
 20
123.5816141747
  0
SEQEND
  0
POLYLINE
  8
0
 62
7
  6
CONTINUOUS
 66
1
 70
0
  0
VERTEX
  8
0
 62
7
  6
CONTINUOUS
 10
369.5647550522
 20
121.1731909839
  0
VERTEX
  8
0
 62
7
  6
CONTINUOUS
 10
369.5083729744
 20
121.7049079232
  0
VERTEX
  8
0
 62
7
  6
CONTINUOUS
 10
369.4342165044
 20
122.2849226991
  0
VERTEX
  8
0
 62
7
  6
CONTINUOUS
 10
369.3389512373
 20
122.9126637445
  0
VERTEX
  8
0
 62
7
  6
CONTINUOUS
 10
369.218950158
 20
123.5874661114
  0
SEQEND
  0
LINE
  8
0
 62
7
  6
CONTINUOUS
 10
369.5647550522
 20
121.0919231267
 11
369.5747860795
 21
120.9659639201
  0
LINE
  8
0
 62
7
  6
CONTINUOUS
 10
369.5748536539
 20
121.0463832481
 11
369.5647550522
 21
121.1731909839
  0
LINE
  8
0
 62
7
  6
CONTINUOUS
 10
369.5647550522
 20
121.3436552696
 11
369.5748536539
 21
121.2168475338
  0
LINE
  8
0
 62
7
  6
CONTINUOUS
 10
369.5748536539
 20
121.2981153909
 11
369.5647550522
 21
121.4249231267
  0
LINE
  8
0
 62
7
  6
CONTINUOUS
 10
369.5647550522
 20
121.5953874125
 11
369.5748536539
 21
121.4685796766
  0
LINE
  8
0
 62
7
  6
CONTINUOUS
 10
369.5748536539
 20
121.5498475338
 11
369.5647550522
 21
121.6766552696
  0
LINE
  8
0
 62
7
  6
CONTINUOUS
 10
369.5647550522
 20
121.8471195553
 11
369.5748536539
 21
121.7203118195
  0
LINE
  8
0
 62
7
  6
CONTINUOUS
 10
369.5748536539
 20
121.8015796766
 11
369.5647550522
 21
121.9283874125
  0
LINE
  8
0
 62
7
  6
CONTINUOUS
 10
369.5757193009
 20
120.824397907
 11
369.5647550522
 21
120.9651650781
  0
LINE
  8
0
 62
7
  6
CONTINUOUS
 10
369.5747860795
 20
120.9659639201
 11
369.5809148218
 21
120.838097223
  0
LINE
  8
0
 62
7
  6
CONTINUOUS
 10
369.5809148218
 20
120.9193650801
 11
369.5748536539
 21
121.0463832481
  0
LINE
  8
0
 62
7
  6
CONTINUOUS
 10
369.5748536539
 20
121.2168475338
 11
369.5809148218
 21
121.0898293658
  0
LINE
  8
0
 62
7
  6
CONTINUOUS
 10
369.5809148218
 20
121.171097223
 11
369.5748536539
 21
121.2981153909
  0
LINE
  8
0
 62
7
  6
CONTINUOUS
 10
369.5748536539
 20
121.4685796766
 11
369.5809148218
 21
121.3415615087
  0
LINE
  8
0
 62
7
  6
CONTINUOUS
 10
369.5809148218
 20
121.4228293658
 11
369.5748536539
 21
121.5498475338
  0
LINE
  8
0
 62
7
  6
CONTINUOUS
 10
369.5748536539
 20
121.7203118195
 11
369.5809148218
 21
121.5932936515
  0
LINE
  8
0
 62
7
  6
CONTINUOUS
 10
369.5809148218
 20
121.6745615087
 11
369.5748536539
 21
121.8015796766
  0
POLYLINE
  8
0
 62
7
  6
CONTINUOUS
 66
1
 70
0
  0
VERTEX
  8
0
 62
7
  6
CONTINUOUS
 10
369.5829368704
 20
126.9934579788
  0
VERTEX
  8
0
 62
7
  6
CONTINUOUS
 10
369.5768680105
 20
127.2137221527
  0
VERTEX
  8
0
 62
7
  6
CONTINUOUS
 10
369.5586799783
 20
127.4333167599
  0
VERTEX
  8
0
 62
7
  6
CONTINUOUS
 10
369.5317459649
 20
127.6313652447
  0
SEQEND
  0
POLYLINE
  8
0
 62
7
  6
CONTINUOUS
 66
1
 70
0
  0
VERTEX
  8
0
 62
7
  6
CONTINUOUS
 10
369.5829368704
 20
127.0935185849
  0
VERTEX
  8
0
 62
7
  6
CONTINUOUS
 10
369.5768680105
 20
127.3137827587
  0
VERTEX
  8
0
 62
7
  6
CONTINUOUS
 10
369.5586799783
 20
127.5333773659
  0
SEQEND
  0
POLYLINE
  8
0
 62
7
  6
CONTINUOUS
 66
1
 70
0
  0
VERTEX
  8
0
 62
7
  6
CONTINUOUS
 10
369.5829368704
 20
127.193579191
  0
VERTEX
  8
0
 62
7
  6
CONTINUOUS
 10
369.5768680105
 20
127.4138433648
  0
VERTEX
  8
0
 62
7
  6
CONTINUOUS
 10
369.5586799783
 20
127.633437972
  0
SEQEND
  0
POLYLINE
  8
0
 62
7
  6
CONTINUOUS
 66
1
 70
0
  0
VERTEX
  8
0
 62
7
  6
CONTINUOUS
 10
369.5829368704
 20
127.293639797
  0
VERTEX
  8
0
 62
7
  6
CONTINUOUS
 10
369.5768680105
 20
127.5139039708
  0
VERTEX
  8
0
 62
7
  6
CONTINUOUS
 10
369.5586799783
 20
127.733498578
  0
SEQEND
  0
POLYLINE
  8
0
 62
7
  6
CONTINUOUS
 66
1
 70
0
  0
VERTEX
  8
0
 62
7
  6
CONTINUOUS
 10
369.5829368704
 20
127.3937004031
  0
VERTEX
  8
0
 62
7
  6
CONTINUOUS
 10
369.5768680105
 20
127.6139645769
  0
VERTEX
  8
0
 62
7
  6
CONTINUOUS
 10
369.5586799783
 20
127.8335591841
  0
SEQEND
  0
POLYLINE
  8
0
 62
7
  6
CONTINUOUS
 66
1
 70
0
  0
VERTEX
  8
0
 62
7
  6
CONTINUOUS
 10
369.5829368704
 20
127.4937610091
  0
VERTEX
  8
0
 62
7
  6
CONTINUOUS
 10
369.5768680105
 20
127.714025183
  0
VERTEX
  8
0
 62
7
  6
CONTINUOUS
 10
369.5586799783
 20
127.9336197902
  0
SEQEND
  0
LINE
  8
0
 62
7
  6
CONTINUOUS
 10
369.5809148218
 20
120.838097223
 11
369.5829368704
 21
120.7109043833
  0
LINE
  8
0
 62
7
  6
CONTINUOUS
 10
369.5829368704
 20
120.7921722404
 11
369.5809148218
 21
120.9193650801
  0
LINE
  8
0
 62
7
  6
CONTINUOUS
 10
369.5809148218
 20
121.0898293658
 11
369.5829368704
 21
120.9626365262
  0
LINE
  8
0
 62
7
  6
CONTINUOUS
 10
369.5829368704
 20
121.0439043833
 11
369.5809148218
 21
121.171097223
  0
LINE
  8
0
 62
7
  6
CONTINUOUS
 10
369.5809148218
 20
121.3415615087
 11
369.5829368704
 21
121.214368669
  0
LINE
  8
0
 62
7
  6
CONTINUOUS
 10
369.5829368704
 20
121.2956365262
 11
369.5809148218
 21
121.4228293658
  0
LINE
  8
0
 62
7
  6
CONTINUOUS
 10
369.5809148218
 20
121.5932936515
 11
369.5829368704
 21
121.4661008119
  0
LINE
  8
0
 62
7
  6
CONTINUOUS
 10
369.5829368704
 20
121.547368669
 11
369.5809148218
 21
121.6745615087
  0
LINE
  8
0
 62
7
  6
CONTINUOUS
 10
369.5829368704
 20
101.4226427336
 11
369.5829368704
 21
127.5226427336
  0
POLYLINE
  8
0
 62
7
  6
CONTINUOUS
 66
1
 70
0
  0
VERTEX
  8
0
 62
7
  6
CONTINUOUS
 10
369.5829368704
 20
101.8864335489
  0
VERTEX
  8
0
 62
7
  6
CONTINUOUS
 10
369.5766439424
 20
101.6621440608
  0
VERTEX
  8
0
 62
7
  6
CONTINUOUS
 10
369.5577850854
 20
101.438561414
  0
SEQEND
  0
POLYLINE
  8
0
 62
7
  6
CONTINUOUS
 66
1
 70
0
  0
VERTEX
  8
0
 62
7
  6
CONTINUOUS
 10
369.5829368704
 20
101.7863729428
  0
VERTEX
  8
0
 62
7
  6
CONTINUOUS
 10
369.5766439424
 20
101.5620834547
  0
VERTEX
  8
0
 62
7
  6
CONTINUOUS
 10
369.5577850854
 20
101.3385008079
  0
SEQEND
  0
POLYLINE
  8
0
 62
7
  6
CONTINUOUS
 66
1
 70
0
  0
VERTEX
  8
0
 62
7
  6
CONTINUOUS
 10
369.5829368704
 20
101.6863123368
  0
VERTEX
  8
0
 62
7
  6
CONTINUOUS
 10
369.5766439424
 20
101.4620228487
  0
VERTEX
  8
0
 62
7
  6
CONTINUOUS
 10
369.5577850854
 20
101.2384402019
  0
SEQEND
  0
POLYLINE
  8
0
 62
7
  6
CONTINUOUS
 66
1
 70
0
  0
VERTEX
  8
0
 62
7
  6
CONTINUOUS
 10
369.5829368704
 20
101.5862517307
  0
VERTEX
  8
0
 62
7
  6
CONTINUOUS
 10
369.5766439424
 20
101.3619622426
  0
VERTEX
  8
0
 62
7
  6
CONTINUOUS
 10
369.5577850854
 20
101.1383795958
  0
SEQEND
  0
POLYLINE
  8
0
 62
7
  6
CONTINUOUS
 66
1
 70
0
  0
VERTEX
  8
0
 62
7
  6
CONTINUOUS
 10
369.5829368704
 20
101.4861911247
  0
VERTEX
  8
0
 62
7
  6
CONTINUOUS
 10
369.5766439424
 20
101.2619016365
  0
VERTEX
  8
0
 62
7
  6
CONTINUOUS
 10
369.5577850854
 20
101.0383189897
  0
SEQEND
  0
POLYLINE
  8
0
 62
7
  6
CONTINUOUS
 66
1
 70
0
  0
VERTEX
  8
0
 62
7
  6
CONTINUOUS
 10
369.5345304091
 20
101.2305570192
  0
VERTEX
  8
0
 62
7
  6
CONTINUOUS
 10
369.5577850854
 20
101.4031068685
  0
VERTEX
  8
0
 62
7
  6
CONTINUOUS
 10
369.5766439424
 20
101.6266895153
  0
VERTEX
  8
0
 62
7
  6
CONTINUOUS
 10
369.5829368704
 20
101.8509790034
  0
SEQEND
  0
POLYLINE
  8
0
 62
7
  6
CONTINUOUS
 66
1
 70
0
  0
VERTEX
  8
0
 62
7
  6
CONTINUOUS
 10
369.5345304091
 20
101.1304964127
  0
VERTEX
  8
0
 62
7
  6
CONTINUOUS
 10
369.5577850854
 20
101.3030462625
  0
VERTEX
  8
0
 62
7
  6
CONTINUOUS
 10
369.5766439424
 20
101.5266289093
  0
VERTEX
  8
0
 62
7
  6
CONTINUOUS
 10
369.5829368704
 20
101.7509183974
  0
SEQEND
  0
POLYLINE
  8
0
 62
7
  6
CONTINUOUS
 66
1
 70
0
  0
VERTEX
  8
0
 62
7
  6
CONTINUOUS
 10
369.534530409
 20
101.0304358064
  0
VERTEX
  8
0
 62
7
  6
CONTINUOUS
 10
369.5577850854
 20
101.2029856564
  0
VERTEX
  8
0
 62
7
  6
CONTINUOUS
 10
369.5766439424
 20
101.4265683032
  0
VERTEX
  8
0
 62
7
  6
CONTINUOUS
 10
369.5829368704
 20
101.6508577913
  0
SEQEND
  0
POLYLINE
  8
0
 62
7
  6
CONTINUOUS
 66
1
 70
0
  0
VERTEX
  8
0
 62
7
  6
CONTINUOUS
 10
369.5345304093
 20
100.9303752023
  0
VERTEX
  8
0
 62
7
  6
CONTINUOUS
 10
369.5577850854
 20
101.1029250504
  0
VERTEX
  8
0
 62
7
  6
CONTINUOUS
 10
369.5766439424
 20
101.3265076972
  0
VERTEX
  8
0
 62
7
  6
CONTINUOUS
 10
369.5829368704
 20
101.5507971853
  0
SEQEND
  0
POLYLINE
  8
0
 62
7
  6
CONTINUOUS
 66
1
 70
0
  0
VERTEX
  8
0
 62
7
  6
CONTINUOUS
 10
369.5345304092
 20
100.8303145953
  0
VERTEX
  8
0
 62
7
  6
CONTINUOUS
 10
369.5577850854
 20
101.0028644443
  0
VERTEX
  8
0
 62
7
  6
CONTINUOUS
 10
369.5766439424
 20
101.2264470911
  0
VERTEX
  8
0
 62
7
  6
CONTINUOUS
 10
369.5829368704
 20
101.4507365792
  0
SEQEND
  0
POLYLINE
  8
0
 62
7
  6
CONTINUOUS
 66
1
 70
0
  0
VERTEX
  8
0
 62
7
  6
CONTINUOUS
 10
369.5577850854
 20
101.438561414
  0
VERTEX
  8
0
 62
7
  6
CONTINUOUS
 10
369.5264195222
 20
101.2163872876
  0
VERTEX
  8
0
 62
7
  6
CONTINUOUS
 10
369.4826460789
 20
100.9963218555
  0
VERTEX
  8
0
 62
7
  6
CONTINUOUS
 10
369.4266024625
 20
100.7790571945
  0
VERTEX
  8
0
 62
7
  6
CONTINUOUS
 10
369.3584649696
 20
100.5652767497
  0
VERTEX
  8
0
 62
7
  6
CONTINUOUS
 10
369.278448114
 20
100.3556535001
  0
VERTEX
  8
0
 62
7
  6
CONTINUOUS
 10
369.1868037319
 20
100.1508470465
  0
VERTEX
  8
0
 62
7
  6
CONTINUOUS
 10
369.0838201673
 20
99.9515016661
  0
SEQEND
  0
POLYLINE
  8
0
 62
7
  6
CONTINUOUS
 66
1
 70
0
  0
VERTEX
  8
0
 62
7
  6
CONTINUOUS
 10
369.5577850854
 20
101.3385008079
  0
VERTEX
  8
0
 62
7
  6
CONTINUOUS
 10
369.5264195222
 20
101.1163266815
  0
VERTEX
  8
0
 62
7
  6
CONTINUOUS
 10
369.4826460789
 20
100.8962612494
  0
VERTEX
  8
0
 62
7
  6
CONTINUOUS
 10
369.4266024625
 20
100.6789965885
  0
VERTEX
  8
0
 62
7
  6
CONTINUOUS
 10
369.3584649696
 20
100.4652161436
  0
VERTEX
  8
0
 62
7
  6
CONTINUOUS
 10
369.278448114
 20
100.255592894
  0
VERTEX
  8
0
 62
7
  6
CONTINUOUS
 10
369.1868037319
 20
100.0507864404
  0
VERTEX
  8
0
 62
7
  6
CONTINUOUS
 10
369.0838201673
 20
99.85144106
  0
VERTEX
  8
0
 62
7
  6
CONTINUOUS
 10
368.9698214903
 20
99.6581839747
  0
VERTEX
  8
0
 62
7
  6
CONTINUOUS
 10
368.8451664627
 20
99.4716232897
  0
VERTEX
  8
0
 62
7
  6
CONTINUOUS
 10
368.7102473498
 20
99.292345982
  0
VERTEX
  8
0
 62
7
  6
CONTINUOUS
 10
368.5654886968
 20
99.1209160902
  0
VERTEX
  8
0
 62
7
  6
CONTINUOUS
 10
368.4113460125
 20
98.9578729682
  0
VERTEX
  8
0
 62
7
  6
CONTINUOUS
 10
368.2483043317
 20
98.8037295801
  0
VERTEX
  8
0
 62
7
  6
CONTINUOUS
 10
368.0768766828
 20
98.6589708806
  0
VERTEX
  8
0
 62
7
  6
CONTINUOUS
 10
367.9690057869
 20
98.5777891579
  0
SEQEND
  0
POLYLINE
  8
0
 62
7
  6
CONTINUOUS
 66
1
 70
0
  0
VERTEX
  8
0
 62
7
  6
CONTINUOUS
 10
369.5577850854
 20
101.2384402019
  0
VERTEX
  8
0
 62
7
  6
CONTINUOUS
 10
369.5264195222
 20
101.0162660754
  0
VERTEX
  8
0
 62
7
  6
CONTINUOUS
 10
369.4826460789
 20
100.7962006434
  0
VERTEX
  8
0
 62
7
  6
CONTINUOUS
 10
369.4266024625
 20
100.5789359824
  0
VERTEX
  8
0
 62
7
  6
CONTINUOUS
 10
369.3584649696
 20
100.3651555376
  0
VERTEX
  8
0
 62
7
  6
CONTINUOUS
 10
369.278448114
 20
100.155532288
  0
VERTEX
  8
0
 62
7
  6
CONTINUOUS
 10
369.1868037319
 20
99.9507258344
  0
VERTEX
  8
0
 62
7
  6
CONTINUOUS
 10
369.0838201673
 20
99.751380454
  0
VERTEX
  8
0
 62
7
  6
CONTINUOUS
 10
368.9698214903
 20
99.5581233686
  0
VERTEX
  8
0
 62
7
  6
CONTINUOUS
 10
368.8451664627
 20
99.3715626836
  0
VERTEX
  8
0
 62
7
  6
CONTINUOUS
 10
368.7102473498
 20
99.192285376
  0
VERTEX
  8
0
 62
7
  6
CONTINUOUS
 10
368.5654886968
 20
99.0208554842
  0
VERTEX
  8
0
 62
7
  6
CONTINUOUS
 10
368.4113460125
 20
98.8578123622
  0
VERTEX
  8
0
 62
7
  6
CONTINUOUS
 10
368.2483043317
 20
98.7036689741
  0
VERTEX
  8
0
 62
7
  6
CONTINUOUS
 10
368.0768766828
 20
98.5589102745
  0
VERTEX
  8
0
 62
7
  6
CONTINUOUS
 10
367.8978042374
 20
98.4241435287
  0
SEQEND
  0
POLYLINE
  8
0
 62
7
  6
CONTINUOUS
 66
1
 70
0
  0
VERTEX
  8
0
 62
7
  6
CONTINUOUS
 10
369.5577850854
 20
101.1383795958
  0
VERTEX
  8
0
 62
7
  6
CONTINUOUS
 10
369.5264195222
 20
100.9162054694
  0
VERTEX
  8
0
 62
7
  6
CONTINUOUS
 10
369.4826460789
 20
100.6961400373
  0
VERTEX
  8
0
 62
7
  6
CONTINUOUS
 10
369.4266024625
 20
100.4788753763
  0
VERTEX
  8
0
 62
7
  6
CONTINUOUS
 10
369.3584649696
 20
100.2650949315
  0
VERTEX
  8
0
 62
7
  6
CONTINUOUS
 10
369.278448114
 20
100.0554716819
  0
VERTEX
  8
0
 62
7
  6
CONTINUOUS
 10
369.1868037319
 20
99.8506652283
  0
VERTEX
  8
0
 62
7
  6
CONTINUOUS
 10
369.0838201673
 20
99.6513198479
  0
VERTEX
  8
0
 62
7
  6
CONTINUOUS
 10
368.9698214903
 20
99.4580627626
  0
VERTEX
  8
0
 62
7
  6
CONTINUOUS
 10
368.8451664627
 20
99.2715020775
  0
VERTEX
  8
0
 62
7
  6
CONTINUOUS
 10
368.7102473498
 20
99.0922247699
  0
VERTEX
  8
0
 62
7
  6
CONTINUOUS
 10
368.5654886968
 20
98.9207948781
  0
VERTEX
  8
0
 62
7
  6
CONTINUOUS
 10
368.4113460125
 20
98.7577517561
  0
VERTEX
  8
0
 62
7
  6
CONTINUOUS
 10
368.2483043317
 20
98.603608368
  0
VERTEX
  8
0
 62
7
  6
CONTINUOUS
 10
368.0768766828
 20
98.4588496685
  0
VERTEX
  8
0
 62
7
  6
CONTINUOUS
 10
367.8976024674
 20
98.3239310742
  0
VERTEX
  8
0
 62
7
  6
CONTINUOUS
 10
367.8210324271
 20
98.2727682665
  0
SEQEND
  0
POLYLINE
  8
0
 62
7
  6
CONTINUOUS
 66
1
 70
0
  0
VERTEX
  8
0
 62
7
  6
CONTINUOUS
 10
369.5577850854
 20
101.0383189897
  0
VERTEX
  8
0
 62
7
  6
CONTINUOUS
 10
369.5264195222
 20
100.8161448633
  0
VERTEX
  8
0
 62
7
  6
CONTINUOUS
 10
369.4826460789
 20
100.5960794312
  0
VERTEX
  8
0
 62
7
  6
CONTINUOUS
 10
369.4266024625
 20
100.3788147703
  0
VERTEX
  8
0
 62
7
  6
CONTINUOUS
 10
369.3584649696
 20
100.1650343255
  0
VERTEX
  8
0
 62
7
  6
CONTINUOUS
 10
369.278448114
 20
99.9554110758
  0
VERTEX
  8
0
 62
7
  6
CONTINUOUS
 10
369.1868037319
 20
99.7506046223
  0
VERTEX
  8
0
 62
7
  6
CONTINUOUS
 10
369.0838201673
 20
99.5512592418
  0
VERTEX
  8
0
 62
7
  6
CONTINUOUS
 10
368.9698214903
 20
99.3580021565
  0
VERTEX
  8
0
 62
7
  6
CONTINUOUS
 10
368.8451664627
 20
99.1714414715
  0
VERTEX
  8
0
 62
7
  6
CONTINUOUS
 10
368.7102473498
 20
98.9921641639
  0
VERTEX
  8
0
 62
7
  6
CONTINUOUS
 10
368.5654886968
 20
98.820734272
  0
VERTEX
  8
0
 62
7
  6
CONTINUOUS
 10
368.4113460125
 20
98.6576911501
  0
VERTEX
  8
0
 62
7
  6
CONTINUOUS
 10
368.2483043317
 20
98.503547762
  0
VERTEX
  8
0
 62
7
  6
CONTINUOUS
 10
368.0768766828
 20
98.3587890624
  0
VERTEX
  8
0
 62
7
  6
CONTINUOUS
 10
367.8976024674
 20
98.2238704681
  0
VERTEX
  8
0
 62
7
  6
CONTINUOUS
 10
367.7307757372
 20
98.1123996648
  0
SEQEND
  0
POLYLINE
  8
0
 62
7
  6
CONTINUOUS
 66
1
 70
0
  0
VERTEX
  8
0
 62
7
  6
CONTINUOUS
 10
369.5766949301
 20
103.8484515954
  0
VERTEX
  8
0
 62
7
  6
CONTINUOUS
 10
369.5801604934
 20
103.8648188709
  0
VERTEX
  8
0
 62
7
  6
CONTINUOUS
 10
369.5822426664
 20
103.8813786286
  0
VERTEX
  8
0
 62
7
  6
CONTINUOUS
 10
369.5829368704
 20
103.8980279435
  0
SEQEND
  0
LINE
  8
0
 62
7
  6
CONTINUOUS
 10
369.4918831454
 20
103.5406700396
 11
369.5766949336
 21
103.8484515905
  0
LINE
  8
0
 62
7
  6
CONTINUOUS
 10
369.4918829831
 20
103.5406696655
 11
368.2797003578
 21
99.4384983486
  0
LINE
  8
0
 62
7
  6
CONTINUOUS
 10
368.1789261731
 20
99.1201266339
 11
368.279798028
 21
99.4388289159
  0
POLYLINE
  8
0
 62
7
  6
CONTINUOUS
 66
1
 70
0
  0
VERTEX
  8
0
 62
7
  6
CONTINUOUS
 10
367.9552107164
 20
128.0269383694
  0
VERTEX
  8
0
 62
7
  6
CONTINUOUS
 10
367.8825128286
 20
128.2035833423
  0
VERTEX
  8
0
 62
7
  6
CONTINUOUS
 10
367.7946047925
 20
128.3902644082
  0
VERTEX
  8
0
 62
7
  6
CONTINUOUS
 10
367.6971889449
 20
128.5721599929
  0
VERTEX
  8
0
 62
7
  6
CONTINUOUS
 10
367.5905220411
 20
128.7487910431
  0
VERTEX
  8
0
 62
7
  6
CONTINUOUS
 10
367.5036516811
 20
128.8771771316
  0
SEQEND
  0
POLYLINE
  8
0
 62
7
  6
CONTINUOUS
 66
1
 70
0
  0
VERTEX
  8
0
 62
7
  6
CONTINUOUS
 10
368.0232624758
 20
128.0994301826
  0
VERTEX
  8
0
 62
7
  6
CONTINUOUS
 10
367.9509616155
 20
128.2787093006
  0
VERTEX
  8
0
 62
7
  6
CONTINUOUS
 10
367.8626942073
 20
128.4692788287
  0
VERTEX
  8
0
 62
7
  6
CONTINUOUS
 10
367.7645468382
 20
128.6549514671
  0
VERTEX
  8
0
 62
7
  6
CONTINUOUS
 10
367.6567864305
 20
128.8352215011
  0
VERTEX
  8
0
 62
7
  6
CONTINUOUS
 10
367.5397102321
 20
129.0095900891
  0
VERTEX
  8
0
 62
7
  6
CONTINUOUS
 10
367.4136420798
 20
129.1775740637
  0
VERTEX
  8
0
 62
7
  6
CONTINUOUS
 10
367.2789264816
 20
129.3387134722
  0
VERTEX
  8
0
 62
7
  6
CONTINUOUS
 10
367.1466424403
 20
129.4815899791
  0
SEQEND
  0
POLYLINE
  8
0
 62
7
  6
CONTINUOUS
 66
1
 70
0
  0
VERTEX
  8
0
 62
7
  6
CONTINUOUS
 10
368.0898087158
 20
128.1719220008
  0
VERTEX
  8
0
 62
7
  6
CONTINUOUS
 10
368.0173941277
 20
128.3551128516
  0
VERTEX
  8
0
 62
7
  6
CONTINUOUS
 10
367.9287422223
 20
128.5495494589
  0
VERTEX
  8
0
 62
7
  6
CONTINUOUS
 10
367.829833881
 20
128.7389727452
  0
VERTEX
  8
0
 62
7
  6
CONTINUOUS
 10
367.7209475914
 20
128.9228485672
  0
VERTEX
  8
0
 62
7
  6
CONTINUOUS
 10
367.6023943031
 20
129.1006501395
  0
VERTEX
  8
0
 62
7
  6
CONTINUOUS
 10
367.4745135092
 20
129.2718674003
  0
VERTEX
  8
0
 62
7
  6
CONTINUOUS
 10
367.3376669774
 20
129.4360150274
  0
VERTEX
  8
0
 62
7
  6
CONTINUOUS
 10
367.2029525801
 20
129.5816506487
  0
SEQEND
  0
POLYLINE
  8
0
 62
7
  6
CONTINUOUS
 66
1
 70
0
  0
VERTEX
  8
0
 62
7
  6
CONTINUOUS
 10
368.1548617332
 20
128.2444138284
  0
VERTEX
  8
0
 62
7
  6
CONTINUOUS
 10
368.0916039635
 20
128.4091896732
  0
VERTEX
  8
0
 62
7
  6
CONTINUOUS
 10
368.0140966669
 20
128.5861759618
  0
VERTEX
  8
0
 62
7
  6
CONTINUOUS
 10
367.9281352145
 20
128.7592089534
  0
VERTEX
  8
0
 62
7
  6
CONTINUOUS
 10
367.8339168294
 20
128.9278923389
  0
VERTEX
  8
0
 62
7
  6
CONTINUOUS
 10
367.7316594765
 20
129.0918340997
  0
VERTEX
  8
0
 62
7
  6
CONTINUOUS
 10
367.6216041529
 20
129.2506469175
  0
VERTEX
  8
0
 62
7
  6
CONTINUOUS
 10
367.5040068399
 20
129.4039611889
  0
VERTEX
  8
0
 62
7
  6
CONTINUOUS
 10
367.3791379551
 20
129.5514229234
  0
VERTEX
  8
0
 62
7
  6
CONTINUOUS
 10
367.257999153
 20
129.6817113196
  0
SEQEND
  0
POLYLINE
  8
0
 62
7
  6
CONTINUOUS
 66
1
 70
0
  0
VERTEX
  8
0
 62
7
  6
CONTINUOUS
 10
368.7649069304
 20
125.5547430192
  0
VERTEX
  8
0
 62
7
  6
CONTINUOUS
 10
368.5251720467
 20
126.3791712047
  0
VERTEX
  8
0
 62
7
  6
CONTINUOUS
 10
368.2513510974
 20
127.215495688
  0
VERTEX
  8
0
 62
7
  6
CONTINUOUS
 10
367.9552107402
 20
128.0269383785
  0
SEQEND
  0
POLYLINE
  8
0
 62
7
  6
CONTINUOUS
 66
1
 70
0
  0
VERTEX
  8
0
 62
7
  6
CONTINUOUS
 10
368.8327801025
 20
125.5527951281
  0
VERTEX
  8
0
 62
7
  6
CONTINUOUS
 10
368.6586811514
 20
126.1843726515
  0
VERTEX
  8
0
 62
7
  6
CONTINUOUS
 10
368.4619143697
 20
126.8328489731
  0
VERTEX
  8
0
 62
7
  6
CONTINUOUS
 10
368.2483171991
 20
127.475985014
  0
VERTEX
  8
0
 62
7
  6
CONTINUOUS
 10
368.0232624396
 20
128.099430169
  0
SEQEND
  0
LINE
  8
0
 62
7
  6
CONTINUOUS
 10
368.7667010514
 20
125.5481523164
 11
368.7648691177
 21
125.5548832095
  0
POLYLINE
  8
0
 62
7
  6
CONTINUOUS
 66
1
 70
0
  0
VERTEX
  8
0
 62
7
  6
CONTINUOUS
 10
368.8979201297
 20
125.5508445356
  0
VERTEX
  8
0
 62
7
  6
CONTINUOUS
 10
368.7253883273
 20
126.2013691474
  0
VERTEX
  8
0
 62
7
  6
CONTINUOUS
 10
368.5295317745
 20
126.8685019343
  0
VERTEX
  8
0
 62
7
  6
CONTINUOUS
 10
368.3159120882
 20
127.5301620687
  0
VERTEX
  8
0
 62
7
  6
CONTINUOUS
 10
368.0898086404
 20
128.1719219731
  0
SEQEND
  0
LINE
  8
0
 62
7
  6
CONTINUOUS
 10
368.8344407265
 20
125.546443534
 11
368.8327402864
 21
125.5529491142
  0
POLYLINE
  8
0
 62
7
  6
CONTINUOUS
 66
1
 70
0
  0
VERTEX
  8
0
 62
7
  6
CONTINUOUS
 10
368.960347483
 20
125.5488938304
  0
VERTEX
  8
0
 62
7
  6
CONTINUOUS
 10
368.7897282236
 20
126.2183519603
  0
VERTEX
  8
0
 62
7
  6
CONTINUOUS
 10
368.5950975472
 20
126.9041371425
  0
VERTEX
  8
0
 62
7
  6
CONTINUOUS
 10
368.3817468076
 20
127.5843260323
  0
VERTEX
  8
0
 62
7
  6
CONTINUOUS
 10
368.1548616363
 20
128.2444137936
  0
SEQEND
  0
LINE
  8
0
 62
7
  6
CONTINUOUS
 10
368.8994521319
 20
125.5447348844
 11
368.8978819661
 21
125.5509985068
  0
POLYLINE
  8
0
 62
7
  6
CONTINUOUS
 66
1
 70
0
  0
VERTEX
  8
0
 62
7
  6
CONTINUOUS
 10
368.871076577
 20
125.5575421927
  0
VERTEX
  8
0
 62
7
  6
CONTINUOUS
 10
369.0077886575
 20
125.0002319344
  0
VERTEX
  8
0
 62
7
  6
CONTINUOUS
 10
369.1320900752
 20
124.4398751636
  0
VERTEX
  8
0
 62
7
  6
CONTINUOUS
 10
369.2439065291
 20
123.8767558583
  0
SEQEND
  0
LINE
  8
0
 62
7
  6
CONTINUOUS
 10
368.961756468
 20
125.5430263083
 11
368.9603109826
 21
125.5490476887
  0
POLYLINE
  8
0
 62
7
  6
CONTINUOUS
 66
1
 70
0
  0
VERTEX
  8
0
 62
7
  6
CONTINUOUS
 10
368.9346908981
 20
125.5553569049
  0
VERTEX
  8
0
 62
7
  6
CONTINUOUS
 10
369.0654753563
 20
124.9979809895
  0
VERTEX
  8
0
 62
7
  6
CONTINUOUS
 10
369.1838743283
 20
124.4377027864
  0
VERTEX
  8
0
 62
7
  6
CONTINUOUS
 10
369.2898173132
 20
123.8748052127
  0
SEQEND
  0
POLYLINE
  8
0
 62
7
  6
CONTINUOUS
 66
1
 70
0
  0
VERTEX
  8
0
 62
7
  6
CONTINUOUS
 10
369.1613825005
 20
123.8798275895
  0
VERTEX
  8
0
 62
7
  6
CONTINUOUS
 10
369.0431275383
 20
124.433494357
  0
VERTEX
  8
0
 62
7
  6
CONTINUOUS
 10
368.9092461546
 20
124.999452046
  0
VERTEX
  8
0
 62
7
  6
CONTINUOUS
 10
368.7667005699
 20
125.5481527495
  0
SEQEND
  0
POLYLINE
  8
0
 62
7
  6
CONTINUOUS
 66
1
 70
0
  0
VERTEX
  8
0
 62
7
  6
CONTINUOUS
 10
369.2116505668
 20
123.8778854555
  0
VERTEX
  8
0
 62
7
  6
CONTINUOUS
 10
369.0991436486
 20
124.4314743012
  0
VERTEX
  8
0
 62
7
  6
CONTINUOUS
 10
368.9711850351
 20
124.9975307004
  0
VERTEX
  8
0
 62
7
  6
CONTINUOUS
 10
368.8344401444
 20
125.5464439553
  0
SEQEND
  0
LINE
  8
0
 62
7
  6
CONTINUOUS
 10
369.14425807
 20
123.8806571494
 11
369.1739609114
 21
123.7354180925
  0
LINE
  8
0
 62
7
  6
CONTINUOUS
 10
369.1903302364
 20
123.7348298229
 11
369.1613426016
 21
123.8800164637
  0
LINE
  8
0
 62
7
  6
CONTINUOUS
 10
369.1739609114
 20
123.7354180925
 11
369.2031341202
 21
123.5880958474
  0
POLYLINE
  8
0
 62
7
  6
CONTINUOUS
 66
1
 70
0
  0
VERTEX
  8
0
 62
7
  6
CONTINUOUS
 10
369.2592723179
 20
123.8761151725
  0
VERTEX
  8
0
 62
7
  6
CONTINUOUS
 10
369.1513357068
 20
124.4351942043
  0
VERTEX
  8
0
 62
7
  6
CONTINUOUS
 10
369.0313513296
 20
124.9915670216
  0
VERTEX
  8
0
 62
7
  6
CONTINUOUS
 10
368.8993925769
 20
125.5449613259
  0
SEQEND
  0
LINE
  8
0
 62
7
  6
CONTINUOUS
 10
369.218950158
 20
123.5874661114
 11
369.1903302364
 21
123.7348298229
  0
LINE
  8
0
 62
7
  6
CONTINUOUS
 10
369.1953917431
 20
123.8787065038
 11
369.223587703
 21
123.7334683516
  0
POLYLINE
  8
0
 62
7
  6
CONTINUOUS
 66
1
 70
0
  0
VERTEX
  8
0
 62
7
  6
CONTINUOUS
 10
369.5317459649
 20
127.6313652447
  0
VERTEX
  8
0
 62
7
  6
CONTINUOUS
 10
369.4862035462
 20
127.8678405325
  0
VERTEX
  8
0
 62
7
  6
CONTINUOUS
 10
369.4321352123
 20
128.081450273
  0
VERTEX
  8
0
 62
7
  6
CONTINUOUS
 10
369.3663868284
 20
128.2917587476
  0
VERTEX
  8
0
 62
7
  6
CONTINUOUS
 10
369.2891579914
 20
128.4981275115
  0
VERTEX
  8
0
 62
7
  6
CONTINUOUS
 10
369.2006831822
 20
128.6999301268
  0
VERTEX
  8
0
 62
7
  6
CONTINUOUS
 10
369.1012310503
 20
128.8965540545
  0
VERTEX
  8
0
 62
7
  6
CONTINUOUS
 10
368.9911032579
 20
129.0874030586
  0
VERTEX
  8
0
 62
7
  6
CONTINUOUS
 10
368.8706335368
 20
129.2718987411
  0
VERTEX
  8
0
 62
7
  6
CONTINUOUS
 10
368.7401872169
 20
129.4494814045
  0
VERTEX
  8
0
 62
7
  6
CONTINUOUS
 10
368.6001611725
 20
129.6196107887
  0
VERTEX
  8
0
 62
7
  6
CONTINUOUS
 10
368.4509798942
 20
129.7817712969
  0
SEQEND
  0
POLYLINE
  8
0
 62
7
  6
CONTINUOUS
 66
1
 70
0
  0
VERTEX
  8
0
 62
7
  6
CONTINUOUS
 10
369.5317459648
 20
127.731425851
  0
VERTEX
  8
0
 62
7
  6
CONTINUOUS
 10
369.4862035462
 20
127.9679011386
  0
VERTEX
  8
0
 62
7
  6
CONTINUOUS
 10
369.4321352123
 20
128.1815108791
  0
VERTEX
  8
0
 62
7
  6
CONTINUOUS
 10
369.3663868284
 20
128.3918193537
  0
VERTEX
  8
0
 62
7
  6
CONTINUOUS
 10
369.2891579914
 20
128.5981881176
  0
VERTEX
  8
0
 62
7
  6
CONTINUOUS
 10
369.2006831822
 20
128.7999907328
  0
VERTEX
  8
0
 62
7
  6
CONTINUOUS
 10
369.1012310503
 20
128.9966146606
  0
VERTEX
  8
0
 62
7
  6
CONTINUOUS
 10
368.9911032579
 20
129.1874636647
  0
VERTEX
  8
0
 62
7
  6
CONTINUOUS
 10
368.8706335368
 20
129.3719593471
  0
VERTEX
  8
0
 62
7
  6
CONTINUOUS
 10
368.7401872169
 20
129.5495420106
  0
VERTEX
  8
0
 62
7
  6
CONTINUOUS
 10
368.6001611725
 20
129.7196713948
  0
VERTEX
  8
0
 62
7
  6
CONTINUOUS
 10
368.4509798942
 20
129.8818319029
  0
SEQEND
  0
POLYLINE
  8
0
 62
7
  6
CONTINUOUS
 66
1
 70
0
  0
VERTEX
  8
0
 62
7
  6
CONTINUOUS
 10
369.5317459649
 20
127.8314864567
  0
VERTEX
  8
0
 62
7
  6
CONTINUOUS
 10
369.4862035462
 20
128.0679617446
  0
VERTEX
  8
0
 62
7
  6
CONTINUOUS
 10
369.4321352123
 20
128.2815714852
  0
VERTEX
  8
0
 62
7
  6
CONTINUOUS
 10
369.3663868284
 20
128.4918799598
  0
VERTEX
  8
0
 62
7
  6
CONTINUOUS
 10
369.2891579914
 20
128.6982487236
  0
VERTEX
  8
0
 62
7
  6
CONTINUOUS
 10
369.2006831822
 20
128.9000513389
  0
VERTEX
  8
0
 62
7
  6
CONTINUOUS
 10
369.1012310503
 20
129.0966752666
  0
VERTEX
  8
0
 62
7
  6
CONTINUOUS
 10
368.9911032579
 20
129.2875242708
  0
VERTEX
  8
0
 62
7
  6
CONTINUOUS
 10
368.8706335368
 20
129.4720199532
  0
VERTEX
  8
0
 62
7
  6
CONTINUOUS
 10
368.7401872169
 20
129.6496026167
  0
VERTEX
  8
0
 62
7
  6
CONTINUOUS
 10
368.6001611725
 20
129.8197320009
  0
VERTEX
  8
0
 62
7
  6
CONTINUOUS
 10
368.4509798942
 20
129.981892509
  0
SEQEND
  0
POLYLINE
  8
0
 62
7
  6
CONTINUOUS
 66
1
 70
0
  0
VERTEX
  8
0
 62
7
  6
CONTINUOUS
 10
369.5317459649
 20
127.9315470628
  0
VERTEX
  8
0
 62
7
  6
CONTINUOUS
 10
369.4862035462
 20
128.1680223507
  0
VERTEX
  8
0
 62
7
  6
CONTINUOUS
 10
369.4321352123
 20
128.3816320912
  0
VERTEX
  8
0
 62
7
  6
CONTINUOUS
 10
369.3663868284
 20
128.5919405658
  0
VERTEX
  8
0
 62
7
  6
CONTINUOUS
 10
369.2891579914
 20
128.7983093297
  0
VERTEX
  8
0
 62
7
  6
CONTINUOUS
 10
369.2006831822
 20
129.000111945
  0
VERTEX
  8
0
 62
7
  6
CONTINUOUS
 10
369.1012310503
 20
129.1967358727
  0
VERTEX
  8
0
 62
7
  6
CONTINUOUS
 10
368.9911032579
 20
129.3875848768
  0
VERTEX
  8
0
 62
7
  6
CONTINUOUS
 10
368.8706335368
 20
129.5720805592
  0
VERTEX
  8
0
 62
7
  6
CONTINUOUS
 10
368.7401872169
 20
129.7496632227
  0
VERTEX
  8
0
 62
7
  6
CONTINUOUS
 10
368.6001611725
 20
129.9197926069
  0
VERTEX
  8
0
 62
7
  6
CONTINUOUS
 10
368.4509798942
 20
130.081953115
  0
SEQEND
  0
POLYLINE
  8
0
 62
7
  6
CONTINUOUS
 66
1
 70
0
  0
VERTEX
  8
0
 62
7
  6
CONTINUOUS
 10
369.531745965
 20
128.0316076682
  0
VERTEX
  8
0
 62
7
  6
CONTINUOUS
 10
369.4862035462
 20
128.2680829567
  0
VERTEX
  8
0
 62
7
  6
CONTINUOUS
 10
369.4321352123
 20
128.4816926973
  0
VERTEX
  8
0
 62
7
  6
CONTINUOUS
 10
369.3663868284
 20
128.6920011719
  0
VERTEX
  8
0
 62
7
  6
CONTINUOUS
 10
369.2891579914
 20
128.8983699357
  0
VERTEX
  8
0
 62
7
  6
CONTINUOUS
 10
369.2006831822
 20
129.100172551
  0
VERTEX
  8
0
 62
7
  6
CONTINUOUS
 10
369.1012310503
 20
129.2967964787
  0
VERTEX
  8
0
 62
7
  6
CONTINUOUS
 10
368.9911032579
 20
129.4876454829
  0
VERTEX
  8
0
 62
7
  6
CONTINUOUS
 10
368.8706335368
 20
129.6721411653
  0
VERTEX
  8
0
 62
7
  6
CONTINUOUS
 10
368.7401872169
 20
129.8497238288
  0
VERTEX
  8
0
 62
7
  6
CONTINUOUS
 10
368.6001611725
 20
130.019853213
  0
VERTEX
  8
0
 62
7
  6
CONTINUOUS
 10
368.4509798942
 20
130.1820137211
  0
SEQEND
  0
POLYLINE
  8
0
 62
7
  6
CONTINUOUS
 66
1
 70
0
  0
VERTEX
  8
0
 62
7
  6
CONTINUOUS
 10
369.531745965
 20
128.1316682741
  0
VERTEX
  8
0
 62
7
  6
CONTINUOUS
 10
369.4862035462
 20
128.3681435628
  0
VERTEX
  8
0
 62
7
  6
CONTINUOUS
 10
369.4321352123
 20
128.5817533033
  0
VERTEX
  8
0
 62
7
  6
CONTINUOUS
 10
369.3663868284
 20
128.7920617779
  0
VERTEX
  8
0
 62
7
  6
CONTINUOUS
 10
369.2891579914
 20
128.9984305418
  0
VERTEX
  8
0
 62
7
  6
CONTINUOUS
 10
369.2006831822
 20
129.2002331571
  0
VERTEX
  8
0
 62
7
  6
CONTINUOUS
 10
369.1012310503
 20
129.3968570848
  0
VERTEX
  8
0
 62
7
  6
CONTINUOUS
 10
368.9911032579
 20
129.5877060889
  0
VERTEX
  8
0
 62
7
  6
CONTINUOUS
 10
368.8706335368
 20
129.7722017714
  0
VERTEX
  8
0
 62
7
  6
CONTINUOUS
 10
368.7401872169
 20
129.9497844348
  0
VERTEX
  8
0
 62
7
  6
CONTINUOUS
 10
368.6001611725
 20
130.119913819
  0
VERTEX
  8
0
 62
7
  6
CONTINUOUS
 10
368.4509798942
 20
130.2820743272
  0
SEQEND
  0
LINE
  8
0
 62
7
  6
CONTINUOUS
 10
369.2391096898
 20
123.7328791349
 11
369.2116144083
 21
123.8780658181
  0
LINE
  8
0
 62
7
  6
CONTINUOUS
 10
369.223587703
 20
123.7334683516
 11
369.2512416168
 21
123.5861452018
  0
POLYLINE
  8
0
 62
7
  6
CONTINUOUS
 66
1
 70
0
  0
VERTEX
  8
0
 62
7
  6
CONTINUOUS
 10
369.5317462438
 20
127.6313659094
  0
VERTEX
  8
0
 62
7
  6
CONTINUOUS
 10
369.5002983885
 20
127.8023546195
  0
VERTEX
  8
0
 62
7
  6
CONTINUOUS
 10
369.4530066322
 20
128.0047021834
  0
VERTEX
  8
0
 62
7
  6
CONTINUOUS
 10
369.3952700462
 20
128.2043232087
  0
VERTEX
  8
0
 62
7
  6
CONTINUOUS
 10
369.3272446389
 20
128.4006772468
  0
VERTEX
  8
0
 62
7
  6
CONTINUOUS
 10
369.2491144947
 20
128.5932329172
  0
VERTEX
  8
0
 62
7
  6
CONTINUOUS
 10
369.1610908704
 20
128.7814699842
  0
VERTEX
  8
0
 62
7
  6
CONTINUOUS
 10
369.0634113495
 20
128.964880803
  0
VERTEX
  8
0
 62
7
  6
CONTINUOUS
 10
368.956339559
 20
129.1429707052
  0
VERTEX
  8
0
 62
7
  6
CONTINUOUS
 10
368.8401653483
 20
129.3152579664
  0
VERTEX
  8
0
 62
7
  6
CONTINUOUS
 10
368.7152034691
 20
129.4812767348
  0
VERTEX
  8
0
 62
7
  6
CONTINUOUS
 10
368.5817869943
 20
129.6405844517
  0
VERTEX
  8
0
 62
7
  6
CONTINUOUS
 10
368.450985247
 20
129.7817765006
  0
SEQEND
  0
POLYLINE
  8
0
 62
7
  6
CONTINUOUS
 66
1
 70
0
  0
VERTEX
  8
0
 62
7
  6
CONTINUOUS
 10
369.5317462437
 20
127.7314265157
  0
VERTEX
  8
0
 62
7
  6
CONTINUOUS
 10
369.5002983885
 20
127.9024152256
  0
VERTEX
  8
0
 62
7
  6
CONTINUOUS
 10
369.4530066322
 20
128.1047627894
  0
VERTEX
  8
0
 62
7
  6
CONTINUOUS
 10
369.3952700462
 20
128.3043838148
  0
VERTEX
  8
0
 62
7
  6
CONTINUOUS
 10
369.3272446389
 20
128.5007378529
  0
VERTEX
  8
0
 62
7
  6
CONTINUOUS
 10
369.2491144947
 20
128.6932935233
  0
VERTEX
  8
0
 62
7
  6
CONTINUOUS
 10
369.1610908704
 20
128.8815305903
  0
VERTEX
  8
0
 62
7
  6
CONTINUOUS
 10
369.0634113495
 20
129.0649414091
  0
VERTEX
  8
0
 62
7
  6
CONTINUOUS
 10
368.956339559
 20
129.2430313113
  0
VERTEX
  8
0
 62
7
  6
CONTINUOUS
 10
368.8401653483
 20
129.4153185725
  0
VERTEX
  8
0
 62
7
  6
CONTINUOUS
 10
368.7152034691
 20
129.5813373408
  0
VERTEX
  8
0
 62
7
  6
CONTINUOUS
 10
368.5817869943
 20
129.7406450578
  0
VERTEX
  8
0
 62
7
  6
CONTINUOUS
 10
368.450985247
 20
129.8818371066
  0
SEQEND
  0
POLYLINE
  8
0
 62
7
  6
CONTINUOUS
 66
1
 70
0
  0
VERTEX
  8
0
 62
7
  6
CONTINUOUS
 10
369.5317462438
 20
127.8314871215
  0
VERTEX
  8
0
 62
7
  6
CONTINUOUS
 10
369.5002983885
 20
128.0024758316
  0
VERTEX
  8
0
 62
7
  6
CONTINUOUS
 10
369.4530066322
 20
128.2048233955
  0
VERTEX
  8
0
 62
7
  6
CONTINUOUS
 10
369.3952700462
 20
128.4044444208
  0
VERTEX
  8
0
 62
7
  6
CONTINUOUS
 10
369.3272446389
 20
128.6007984589
  0
VERTEX
  8
0
 62
7
  6
CONTINUOUS
 10
369.2491144947
 20
128.7933541293
  0
VERTEX
  8
0
 62
7
  6
CONTINUOUS
 10
369.1610908704
 20
128.9815911963
  0
VERTEX
  8
0
 62
7
  6
CONTINUOUS
 10
369.0634113495
 20
129.1650020151
  0
VERTEX
  8
0
 62
7
  6
CONTINUOUS
 10
368.956339559
 20
129.3430919174
  0
VERTEX
  8
0
 62
7
  6
CONTINUOUS
 10
368.8401653483
 20
129.5153791786
  0
VERTEX
  8
0
 62
7
  6
CONTINUOUS
 10
368.7152034691
 20
129.6813979469
  0
VERTEX
  8
0
 62
7
  6
CONTINUOUS
 10
368.5817869943
 20
129.8407056638
  0
VERTEX
  8
0
 62
7
  6
CONTINUOUS
 10
368.450985247
 20
129.9818977127
  0
SEQEND
  0
POLYLINE
  8
0
 62
7
  6
CONTINUOUS
 66
1
 70
0
  0
VERTEX
  8
0
 62
7
  6
CONTINUOUS
 10
369.5317462438
 20
127.9315477275
  0
VERTEX
  8
0
 62
7
  6
CONTINUOUS
 10
369.5002983885
 20
128.1025364377
  0
VERTEX
  8
0
 62
7
  6
CONTINUOUS
 10
369.4530066322
 20
128.3048840016
  0
VERTEX
  8
0
 62
7
  6
CONTINUOUS
 10
369.3952700462
 20
128.5045050269
  0
VERTEX
  8
0
 62
7
  6
CONTINUOUS
 10
369.3272446389
 20
128.700859065
  0
VERTEX
  8
0
 62
7
  6
CONTINUOUS
 10
369.2491144947
 20
128.8934147354
  0
VERTEX
  8
0
 62
7
  6
CONTINUOUS
 10
369.1610908704
 20
129.0816518024
  0
VERTEX
  8
0
 62
7
  6
CONTINUOUS
 10
369.0634113495
 20
129.2650626212
  0
VERTEX
  8
0
 62
7
  6
CONTINUOUS
 10
368.956339559
 20
129.4431525234
  0
VERTEX
  8
0
 62
7
  6
CONTINUOUS
 10
368.8401653483
 20
129.6154397846
  0
VERTEX
  8
0
 62
7
  6
CONTINUOUS
 10
368.7152034691
 20
129.7814585529
  0
VERTEX
  8
0
 62
7
  6
CONTINUOUS
 10
368.5817869943
 20
129.9407662699
  0
VERTEX
  8
0
 62
7
  6
CONTINUOUS
 10
368.450985247
 20
130.0819583188
  0
SEQEND
  0
POLYLINE
  8
0
 62
7
  6
CONTINUOUS
 66
1
 70
0
  0
VERTEX
  8
0
 62
7
  6
CONTINUOUS
 10
369.5317462439
 20
128.0316083329
  0
VERTEX
  8
0
 62
7
  6
CONTINUOUS
 10
369.5002983885
 20
128.2025970437
  0
VERTEX
  8
0
 62
7
  6
CONTINUOUS
 10
369.4530066322
 20
128.4049446076
  0
VERTEX
  8
0
 62
7
  6
CONTINUOUS
 10
369.3952700462
 20
128.604565633
  0
VERTEX
  8
0
 62
7
  6
CONTINUOUS
 10
369.3272446389
 20
128.800919671
  0
VERTEX
  8
0
 62
7
  6
CONTINUOUS
 10
369.2491144947
 20
128.9934753414
  0
VERTEX
  8
0
 62
7
  6
CONTINUOUS
 10
369.1610908704
 20
129.1817124084
  0
VERTEX
  8
0
 62
7
  6
CONTINUOUS
 10
369.0634113495
 20
129.3651232273
  0
VERTEX
  8
0
 62
7
  6
CONTINUOUS
 10
368.956339559
 20
129.5432131295
  0
VERTEX
  8
0
 62
7
  6
CONTINUOUS
 10
368.8401653483
 20
129.7155003907
  0
VERTEX
  8
0
 62
7
  6
CONTINUOUS
 10
368.7152034691
 20
129.881519159
  0
VERTEX
  8
0
 62
7
  6
CONTINUOUS
 10
368.5817869943
 20
130.0408268759
  0
VERTEX
  8
0
 62
7
  6
CONTINUOUS
 10
368.450985247
 20
130.1820189248
  0
SEQEND
  0
POLYLINE
  8
0
 62
7
  6
CONTINUOUS
 66
1
 70
0
  0
VERTEX
  8
0
 62
7
  6
CONTINUOUS
 10
369.5317462439
 20
128.1316689388
  0
VERTEX
  8
0
 62
7
  6
CONTINUOUS
 10
369.5002983885
 20
128.3026576498
  0
VERTEX
  8
0
 62
7
  6
CONTINUOUS
 10
369.4530066322
 20
128.5050052137
  0
VERTEX
  8
0
 62
7
  6
CONTINUOUS
 10
369.3952700462
 20
128.704626239
  0
VERTEX
  8
0
 62
7
  6
CONTINUOUS
 10
369.3272446389
 20
128.9009802771
  0
VERTEX
  8
0
 62
7
  6
CONTINUOUS
 10
369.2491144947
 20
129.0935359475
  0
VERTEX
  8
0
 62
7
  6
CONTINUOUS
 10
369.1610908704
 20
129.2817730145
  0
VERTEX
  8
0
 62
7
  6
CONTINUOUS
 10
369.0634113495
 20
129.4651838333
  0
VERTEX
  8
0
 62
7
  6
CONTINUOUS
 10
368.956339559
 20
129.6432737355
  0
VERTEX
  8
0
 62
7
  6
CONTINUOUS
 10
368.8401653483
 20
129.8155609967
  0
VERTEX
  8
0
 62
7
  6
CONTINUOUS
 10
368.7152034691
 20
129.9815797651
  0
VERTEX
  8
0
 62
7
  6
CONTINUOUS
 10
368.5817869943
 20
130.140887482
  0
VERTEX
  8
0
 62
7
  6
CONTINUOUS
 10
368.450985247
 20
130.2820795309
  0
SEQEND
  0
POLYLINE
  8
0
 62
7
  6
CONTINUOUS
 66
1
 70
0
  0
VERTEX
  8
0
 62
7
  6
CONTINUOUS
 10
369.3043309166
 20
123.874164527
  0
VERTEX
  8
0
 62
7
  6
CONTINUOUS
 10
369.2021398863
 20
124.4331094481
  0
VERTEX
  8
0
 62
7
  6
CONTINUOUS
 10
369.0879232903
 20
124.9894916246
  0
VERTEX
  8
0
 62
7
  6
CONTINUOUS
 10
368.961701466
 20
125.5432448542
  0
SEQEND
  0
LINE
  8
0
 62
7
  6
CONTINUOUS
 10
369.2662161483
 20
123.5855154659
 11
369.2391096898
 21
123.7328791349
  0
LINE
  8
0
 62
7
  6
CONTINUOUS
 10
369.2439065291
 20
123.8767558583
 11
369.2706042618
 21
123.7315187718
  0
LINE
  8
0
 62
7
  6
CONTINUOUS
 10
369.2852836365
 20
123.7309286575
 11
369.2592723179
 21
123.8761151725
  0
LINE
  8
0
 62
7
  6
CONTINUOUS
 10
369.2706042618
 20
123.7315187718
 11
369.2967473522
 21
123.5841945563
  0
LINE
  8
0
 62
7
  6
CONTINUOUS
 10
369.3108849438
 20
123.5835648203
 11
369.2852836365
 21
123.7309286575
  0
LINE
  8
0
 62
7
  6
CONTINUOUS
 10
369.2898173132
 20
123.8748052127
 11
369.3150249558
 21
123.7295693567
  0
LINE
  8
0
 62
7
  6
CONTINUOUS
 10
369.3288661554
 20
123.7289783941
 11
369.3043309166
 21
123.874164527
  0
LINE
  8
0
 62
7
  6
CONTINUOUS
 10
369.3150249558
 20
123.7295693567
 11
369.3396651702
 21
123.5822439107
  0
LINE
  8
0
 62
7
  6
CONTINUOUS
 10
369.3529701027
 20
123.5816141747
 11
369.3288661554
 21
123.7289783941
  0
LINE
  8
0
 62
7
  6
CONTINUOUS
 10
369.5586799783
 20
127.5333773659
 11
369.5317459648
 21
127.731425851
  0
LINE
  8
0
 62
7
  6
CONTINUOUS
 10
369.5586799783
 20
127.633437972
 11
369.5317459649
 21
127.8314864567
  0
LINE
  8
0
 62
7
  6
CONTINUOUS
 10
369.5586799783
 20
127.733498578
 11
369.5317459649
 21
127.9315470628
  0
LINE
  8
0
 62
7
  6
CONTINUOUS
 10
369.5586799783
 20
127.8335591841
 11
369.531745965
 21
128.0316076682
  0
LINE
  8
0
 62
7
  6
CONTINUOUS
 10
369.5586799783
 20
127.9336197902
 11
369.531745965
 21
128.1316682741
  0
POLYLINE
  8
0
 62
7
  6
CONTINUOUS
 66
1
 70
0
  0
VERTEX
  8
0
 62
7
  6
CONTINUOUS
 10
369.5334769952
 20
127.6812219503
  0
VERTEX
  8
0
 62
7
  6
CONTINUOUS
 10
369.5609294485
 20
127.4731511631
  0
VERTEX
  8
0
 62
7
  6
CONTINUOUS
 10
369.5774311801
 20
127.2639275499
  0
VERTEX
  8
0
 62
7
  6
CONTINUOUS
 10
369.5829368704
 20
127.0541246455
  0
SEQEND
  0
POLYLINE
  8
0
 62
7
  6
CONTINUOUS
 66
1
 70
0
  0
VERTEX
  8
0
 62
7
  6
CONTINUOUS
 10
369.5334769952
 20
127.7812825564
  0
VERTEX
  8
0
 62
7
  6
CONTINUOUS
 10
369.5609294485
 20
127.5732117692
  0
VERTEX
  8
0
 62
7
  6
CONTINUOUS
 10
369.5774311801
 20
127.363988156
  0
VERTEX
  8
0
 62
7
  6
CONTINUOUS
 10
369.5829368704
 20
127.1541852516
  0
SEQEND
  0
POLYLINE
  8
0
 62
7
  6
CONTINUOUS
 66
1
 70
0
  0
VERTEX
  8
0
 62
7
  6
CONTINUOUS
 10
369.5334769952
 20
127.8813431624
  0
VERTEX
  8
0
 62
7
  6
CONTINUOUS
 10
369.5609294485
 20
127.6732723752
  0
VERTEX
  8
0
 62
7
  6
CONTINUOUS
 10
369.5774311801
 20
127.464048762
  0
VERTEX
  8
0
 62
7
  6
CONTINUOUS
 10
369.5829368704
 20
127.2542458576
  0
SEQEND
  0
POLYLINE
  8
0
 62
7
  6
CONTINUOUS
 66
1
 70
0
  0
VERTEX
  8
0
 62
7
  6
CONTINUOUS
 10
369.5334769952
 20
127.9814037685
  0
VERTEX
  8
0
 62
7
  6
CONTINUOUS
 10
369.5609294485
 20
127.7733329813
  0
VERTEX
  8
0
 62
7
  6
CONTINUOUS
 10
369.5774311801
 20
127.5641093681
  0
VERTEX
  8
0
 62
7
  6
CONTINUOUS
 10
369.5829368704
 20
127.3543064637
  0
SEQEND
  0
POLYLINE
  8
0
 62
7
  6
CONTINUOUS
 66
1
 70
0
  0
VERTEX
  8
0
 62
7
  6
CONTINUOUS
 10
369.5334769952
 20
128.0814643746
  0
VERTEX
  8
0
 62
7
  6
CONTINUOUS
 10
369.5609294485
 20
127.8733935873
  0
VERTEX
  8
0
 62
7
  6
CONTINUOUS
 10
369.5774311801
 20
127.6641699742
  0
VERTEX
  8
0
 62
7
  6
CONTINUOUS
 10
369.5829368704
 20
127.4543670697
  0
SEQEND
  0
POLYLINE
  8
0
 62
7
  6
CONTINUOUS
 66
1
 70
0
  0
VERTEX
  8
0
 62
7
  6
CONTINUOUS
 10
369.0838201673
 20
99.9515016661
  0
VERTEX
  8
0
 62
7
  6
CONTINUOUS
 10
368.9698214903
 20
99.7582445808
  0
VERTEX
  8
0
 62
7
  6
CONTINUOUS
 10
368.8451664627
 20
99.5716838957
  0
VERTEX
  8
0
 62
7
  6
CONTINUOUS
 10
368.7102473498
 20
99.3924065881
  0
VERTEX
  8
0
 62
7
  6
CONTINUOUS
 10
368.5654886968
 20
99.2209766963
  0
VERTEX
  8
0
 62
7
  6
CONTINUOUS
 10
368.4113460125
 20
99.0579335743
  0
VERTEX
  8
0
 62
7
  6
CONTINUOUS
 10
368.2483043317
 20
98.9037901862
  0
VERTEX
  8
0
 62
7
  6
CONTINUOUS
 10
368.0768766828
 20
98.7590314867
  0
VERTEX
  8
0
 62
7
  6
CONTINUOUS
 10
368.0318471281
 20
98.7251430426
  0
SEQEND
  0
POLYLINE
  8
0
 62
7
  6
CONTINUOUS
 66
1
 70
0
  0
VERTEX
  8
0
 62
7
  6
CONTINUOUS
 10
368.0104015201
 20
98.6734219758
  0
VERTEX
  8
0
 62
7
  6
CONTINUOUS
 10
368.0979059405
 20
98.740445548
  0
VERTEX
  8
0
 62
7
  6
CONTINUOUS
 10
368.2580748593
 20
98.8770787469
  0
VERTEX
  8
0
 62
7
  6
CONTINUOUS
 10
368.4108340842
 20
99.0219507272
  0
VERTEX
  8
0
 62
7
  6
CONTINUOUS
 10
368.5557599299
 20
99.1746598455
  0
VERTEX
  8
0
 62
7
  6
CONTINUOUS
 10
368.6924505041
 20
99.3347826526
  0
VERTEX
  8
0
 62
7
  6
CONTINUOUS
 10
368.8205268659
 20
99.5018751382
  0
VERTEX
  8
0
 62
7
  6
CONTINUOUS
 10
368.939634056
 20
99.6754739654
  0
VERTEX
  8
0
 62
7
  6
CONTINUOUS
 10
369.0494420519
 20
99.8550977303
  0
VERTEX
  8
0
 62
7
  6
CONTINUOUS
 10
369.149646674
 20
100.0402482798
  0
VERTEX
  8
0
 62
7
  6
CONTINUOUS
 10
369.2399703814
 20
100.2304119685
  0
VERTEX
  8
0
 62
7
  6
CONTINUOUS
 10
369.3201631281
 20
100.4250611917
  0
VERTEX
  8
0
 62
7
  6
CONTINUOUS
 10
369.3900030846
 20
100.6236558804
  0
VERTEX
  8
0
 62
7
  6
CONTINUOUS
 10
369.4492971305
 20
100.8256445831
  0
VERTEX
  8
0
 62
7
  6
CONTINUOUS
 10
369.4978815295
 20
101.0304658551
  0
VERTEX
  8
0
 62
7
  6
CONTINUOUS
 10
369.5345307089
 20
101.2305556186
  0
SEQEND
  0
POLYLINE
  8
0
 62
7
  6
CONTINUOUS
 66
1
 70
0
  0
VERTEX
  8
0
 62
7
  6
CONTINUOUS
 10
367.9440068194
 20
98.5225066816
  0
VERTEX
  8
0
 62
7
  6
CONTINUOUS
 10
368.0979059405
 20
98.6403849419
  0
VERTEX
  8
0
 62
7
  6
CONTINUOUS
 10
368.2580748593
 20
98.7770181409
  0
VERTEX
  8
0
 62
7
  6
CONTINUOUS
 10
368.4108340842
 20
98.9218901212
  0
VERTEX
  8
0
 62
7
  6
CONTINUOUS
 10
368.5557599299
 20
99.0745992394
  0
VERTEX
  8
0
 62
7
  6
CONTINUOUS
 10
368.6924505041
 20
99.2347220465
  0
VERTEX
  8
0
 62
7
  6
CONTINUOUS
 10
368.8205268659
 20
99.4018145321
  0
VERTEX
  8
0
 62
7
  6
CONTINUOUS
 10
368.939634056
 20
99.5754133594
  0
VERTEX
  8
0
 62
7
  6
CONTINUOUS
 10
369.0494420519
 20
99.7550371242
  0
VERTEX
  8
0
 62
7
  6
CONTINUOUS
 10
369.149646674
 20
99.9401876737
  0
VERTEX
  8
0
 62
7
  6
CONTINUOUS
 10
369.2399703814
 20
100.1303513625
  0
VERTEX
  8
0
 62
7
  6
CONTINUOUS
 10
369.3201631281
 20
100.3250005857
  0
VERTEX
  8
0
 62
7
  6
CONTINUOUS
 10
369.3900030846
 20
100.5235952744
  0
VERTEX
  8
0
 62
7
  6
CONTINUOUS
 10
369.4492971305
 20
100.725583977
  0
VERTEX
  8
0
 62
7
  6
CONTINUOUS
 10
369.4978815295
 20
100.9304052491
  0
VERTEX
  8
0
 62
7
  6
CONTINUOUS
 10
369.5345307088
 20
101.1304950121
  0
SEQEND
  0
POLYLINE
  8
0
 62
7
  6
CONTINUOUS
 66
1
 70
0
  0
VERTEX
  8
0
 62
7
  6
CONTINUOUS
 10
368.010483014
 20
98.6736102438
  0
VERTEX
  8
0
 62
7
  6
CONTINUOUS
 10
368.0768766828
 20
98.7235769412
  0
VERTEX
  8
0
 62
7
  6
CONTINUOUS
 10
368.2483043317
 20
98.8683356407
  0
VERTEX
  8
0
 62
7
  6
CONTINUOUS
 10
368.4113460125
 20
99.0224790288
  0
VERTEX
  8
0
 62
7
  6
CONTINUOUS
 10
368.5654886968
 20
99.1855221508
  0
VERTEX
  8
0
 62
7
  6
CONTINUOUS
 10
368.7102473498
 20
99.3569520426
  0
VERTEX
  8
0
 62
7
  6
CONTINUOUS
 10
368.8451664627
 20
99.5362293503
  0
VERTEX
  8
0
 62
7
  6
CONTINUOUS
 10
368.9698214903
 20
99.7227900353
  0
VERTEX
  8
0
 62
7
  6
CONTINUOUS
 10
369.0838201673
 20
99.9160471206
  0
VERTEX
  8
0
 62
7
  6
CONTINUOUS
 10
369.1868037319
 20
100.1153925011
  0
VERTEX
  8
0
 62
7
  6
CONTINUOUS
 10
369.278448114
 20
100.3201989546
  0
VERTEX
  8
0
 62
7
  6
CONTINUOUS
 10
369.3584649696
 20
100.5298222042
  0
VERTEX
  8
0
 62
7
  6
CONTINUOUS
 10
369.4266024625
 20
100.7436026491
  0
VERTEX
  8
0
 62
7
  6
CONTINUOUS
 10
369.4826460789
 20
100.96086731
  0
VERTEX
  8
0
 62
7
  6
CONTINUOUS
 10
369.5264195222
 20
101.1809327421
  0
VERTEX
  8
0
 62
7
  6
CONTINUOUS
 10
369.5345304091
 20
101.2305570192
  0
SEQEND
  0
POLYLINE
  8
0
 62
7
  6
CONTINUOUS
 66
1
 70
0
  0
VERTEX
  8
0
 62
7
  6
CONTINUOUS
 10
367.9447436491
 20
98.5240753579
  0
VERTEX
  8
0
 62
7
  6
CONTINUOUS
 10
368.0768766828
 20
98.6235163351
  0
VERTEX
  8
0
 62
7
  6
CONTINUOUS
 10
368.2483043317
 20
98.7682750347
  0
VERTEX
  8
0
 62
7
  6
CONTINUOUS
 10
368.4113460125
 20
98.9224184228
  0
VERTEX
  8
0
 62
7
  6
CONTINUOUS
 10
368.5654886968
 20
99.0854615448
  0
VERTEX
  8
0
 62
7
  6
CONTINUOUS
 10
368.7102473498
 20
99.2568914366
  0
VERTEX
  8
0
 62
7
  6
CONTINUOUS
 10
368.8451664627
 20
99.4361687442
  0
VERTEX
  8
0
 62
7
  6
CONTINUOUS
 10
368.9698214903
 20
99.6227294292
  0
VERTEX
  8
0
 62
7
  6
CONTINUOUS
 10
369.0838201673
 20
99.8159865146
  0
VERTEX
  8
0
 62
7
  6
CONTINUOUS
 10
369.1868037319
 20
100.015331895
  0
VERTEX
  8
0
 62
7
  6
CONTINUOUS
 10
369.278448114
 20
100.2201383486
  0
VERTEX
  8
0
 62
7
  6
CONTINUOUS
 10
369.3584649696
 20
100.4297615982
  0
VERTEX
  8
0
 62
7
  6
CONTINUOUS
 10
369.4266024625
 20
100.643542043
  0
VERTEX
  8
0
 62
7
  6
CONTINUOUS
 10
369.4826460789
 20
100.860806704
  0
VERTEX
  8
0
 62
7
  6
CONTINUOUS
 10
369.5264195222
 20
101.080872136
  0
VERTEX
  8
0
 62
7
  6
CONTINUOUS
 10
369.5345304091
 20
101.1304964127
  0
SEQEND
  0
POLYLINE
  8
0
 62
7
  6
CONTINUOUS
 66
1
 70
0
  0
VERTEX
  8
0
 62
7
  6
CONTINUOUS
 10
367.8716864826
 20
98.3718003568
  0
VERTEX
  8
0
 62
7
  6
CONTINUOUS
 10
367.930771545
 20
98.4123085835
  0
VERTEX
  8
0
 62
7
  6
CONTINUOUS
 10
368.0979059405
 20
98.5403243358
  0
VERTEX
  8
0
 62
7
  6
CONTINUOUS
 10
368.2580748593
 20
98.6769575348
  0
VERTEX
  8
0
 62
7
  6
CONTINUOUS
 10
368.4108340842
 20
98.8218295151
  0
VERTEX
  8
0
 62
7
  6
CONTINUOUS
 10
368.5557599299
 20
98.9745386333
  0
VERTEX
  8
0
 62
7
  6
CONTINUOUS
 10
368.6924505041
 20
99.1346614404
  0
VERTEX
  8
0
 62
7
  6
CONTINUOUS
 10
368.8205268659
 20
99.301753926
  0
VERTEX
  8
0
 62
7
  6
CONTINUOUS
 10
368.939634056
 20
99.4753527533
  0
VERTEX
  8
0
 62
7
  6
CONTINUOUS
 10
369.0494420519
 20
99.6549765182
  0
VERTEX
  8
0
 62
7
  6
CONTINUOUS
 10
369.149646674
 20
99.8401270677
  0
VERTEX
  8
0
 62
7
  6
CONTINUOUS
 10
369.2399703814
 20
100.0302907564
  0
VERTEX
  8
0
 62
7
  6
CONTINUOUS
 10
369.3201631281
 20
100.2249399796
  0
VERTEX
  8
0
 62
7
  6
CONTINUOUS
 10
369.3900030846
 20
100.4235346683
  0
VERTEX
  8
0
 62
7
  6
CONTINUOUS
 10
369.4492971305
 20
100.625523371
  0
VERTEX
  8
0
 62
7
  6
CONTINUOUS
 10
369.4978815295
 20
100.830344643
  0
VERTEX
  8
0
 62
7
  6
CONTINUOUS
 10
369.5345307087
 20
101.0304344058
  0
SEQEND
  0
LINE
  8
DEFAULT_1
 62
2
  6
CENTER
 10
368.8329368704
 20
127.1726427336
 11
365.5830368704
 21
127.1726427336
  0
LINE
  8
0
 62
2
  6
CONTINUOUS
 10
364.6329368704
 20
127.1726427336
 11
362.5329368704
 21
127.1726427336
  0
LINE
  8
DEFAULT_1
 62
2
  6
CENTER
 10
358.3329368704
 20
127.1726427336
 11
361.5828368704
 21
127.1726427336
  0
POLYLINE
  8
0
 62
7
  6
CONTINUOUS
 66
1
 70
0
  0
VERTEX
  8
0
 62
7
  6
CONTINUOUS
 10
367.144516101
 20
129.4837641104
  0
VERTEX
  8
0
 62
7
  6
CONTINUOUS
 10
367.0644506849
 20
129.5628537133
  0
VERTEX
  8
0
 62
7
  6
CONTINUOUS
 10
366.9948773779
 20
129.6275906384
  0
SEQEND
  0
POLYLINE
  8
0
 62
7
  6
CONTINUOUS
 66
1
 70
0
  0
VERTEX
  8
0
 62
7
  6
CONTINUOUS
 10
367.2008436908
 20
129.5838070508
  0
VERTEX
  8
0
 62
7
  6
CONTINUOUS
 10
367.1207854142
 20
129.6628974259
  0
VERTEX
  8
0
 62
7
  6
CONTINUOUS
 10
367.0296904108
 20
129.7476683888
  0
VERTEX
  8
0
 62
7
  6
CONTINUOUS
 10
366.9375623391
 20
129.828204645
  0
VERTEX
  8
0
 62
7
  6
CONTINUOUS
 10
366.8447204619
 20
129.9044915967
  0
VERTEX
  8
0
 62
7
  6
CONTINUOUS
 10
366.7514781153
 20
129.9765401546
  0
VERTEX
  8
0
 62
7
  6
CONTINUOUS
 10
366.6581511572
 20
130.0443775051
  0
VERTEX
  8
0
 62
7
  6
CONTINUOUS
 10
366.5650461411
 20
130.1080535516
  0
VERTEX
  8
0
 62
7
  6
CONTINUOUS
 10
366.472470871
 20
130.1676324788
  0
VERTEX
  8
0
 62
7
  6
CONTINUOUS
 10
366.3807221864
 20
130.2231979369
  0
VERTEX
  8
0
 62
7
  6
CONTINUOUS
 10
366.2900967476
 20
130.2748451029
  0
VERTEX
  8
0
 62
7
  6
CONTINUOUS
 10
366.283471476
 20
130.2783977541
  0
SEQEND
  0
POLYLINE
  8
0
 62
7
  6
CONTINUOUS
 66
1
 70
0
  0
VERTEX
  8
0
 62
7
  6
CONTINUOUS
 10
367.2559075658
 20
129.6838501396
  0
VERTEX
  8
0
 62
7
  6
CONTINUOUS
 10
367.175856296
 20
129.7629413572
  0
VERTEX
  8
0
 62
7
  6
CONTINUOUS
 10
367.0847697041
 20
129.847712807
  0
VERTEX
  8
0
 62
7
  6
CONTINUOUS
 10
366.99265069
 20
129.9282490692
  0
VERTEX
  8
0
 62
7
  6
CONTINUOUS
 10
366.899818378
 20
130.0045357179
  0
VERTEX
  8
0
 62
7
  6
CONTINUOUS
 10
366.8065859507
 20
130.0765838202
  0
VERTEX
  8
0
 62
7
  6
CONTINUOUS
 10
366.7132690998
 20
130.1444206919
  0
VERTEX
  8
0
 62
7
  6
CONTINUOUS
 10
366.6201742138
 20
130.2080963444
  0
VERTEX
  8
0
 62
7
  6
CONTINUOUS
 10
366.5276089259
 20
130.2676750415
  0
VERTEX
  8
0
 62
7
  6
CONTINUOUS
 10
366.4358699038
 20
130.3232405048
  0
VERTEX
  8
0
 62
7
  6
CONTINUOUS
 10
366.3452536031
 20
130.3748879716
  0
VERTEX
  8
0
 62
7
  6
CONTINUOUS
 10
366.2560451198
 20
130.4227291441
  0
VERTEX
  8
0
 62
7
  6
CONTINUOUS
 10
366.1685278295
 20
130.4668844871
  0
VERTEX
  8
0
 62
7
  6
CONTINUOUS
 10
366.0829759464
 20
130.507487099
  0
VERTEX
  8
0
 62
7
  6
CONTINUOUS
 10
365.9996588769
 20
130.5446771775
  0
VERTEX
  8
0
 62
7
  6
CONTINUOUS
 10
365.9188503805
 20
130.5785990556
  0
VERTEX
  8
0
 62
7
  6
CONTINUOUS
 10
365.8416137191
 20
130.6090986436
  0
VERTEX
  8
0
 62
7
  6
CONTINUOUS
 10
365.7684960065
 20
130.6362832978
  0
VERTEX
  8
0
 62
7
  6
CONTINUOUS
 10
365.6987100356
 20
130.6607313783
  0
VERTEX
  8
0
 62
7
  6
CONTINUOUS
 10
365.6314220483
 20
130.6829467698
  0
VERTEX
  8
0
 62
7
  6
CONTINUOUS
 10
365.5657713837
 20
130.7033600407
  0
VERTEX
  8
0
 62
7
  6
CONTINUOUS
 10
365.5009792561
 20
130.7223050102
  0
VERTEX
  8
0
 62
7
  6
CONTINUOUS
 10
365.4387225879
 20
130.739385991
  0
SEQEND
  0
POLYLINE
  8
0
 62
7
  6
CONTINUOUS
 66
1
 70
0
  0
VERTEX
  8
0
 62
7
  6
CONTINUOUS
 10
368.4496424888
 20
129.7831525232
  0
VERTEX
  8
0
 62
7
  6
CONTINUOUS
 10
368.3698949691
 20
129.8622788661
  0
VERTEX
  8
0
 62
7
  6
CONTINUOUS
 10
368.2791723711
 20
129.94707056
  0
VERTEX
  8
0
 62
7
  6
CONTINUOUS
 10
368.187444656
 20
130.0276067978
  0
VERTEX
  8
0
 62
7
  6
CONTINUOUS
 10
368.0950250331
 20
130.1038805552
  0
VERTEX
  8
0
 62
7
  6
CONTINUOUS
 10
368.0022202859
 20
130.1759093072
  0
VERTEX
  8
0
 62
7
  6
CONTINUOUS
 10
367.9093392202
 20
130.2437258505
  0
VERTEX
  8
0
 62
7
  6
CONTINUOUS
 10
367.8166810507
 20
130.3073847722
  0
VERTEX
  8
0
 62
7
  6
CONTINUOUS
 10
367.7245459015
 20
130.3669540694
  0
VERTEX
  8
0
 62
7
  6
CONTINUOUS
 10
367.6332227814
 20
130.4225204153
  0
VERTEX
  8
0
 62
7
  6
CONTINUOUS
 10
367.5430002336
 20
130.4741812895
  0
VERTEX
  8
0
 62
7
  6
CONTINUOUS
 10
367.4541553921
 20
130.5220499682
  0
VERTEX
  8
0
 62
7
  6
CONTINUOUS
 10
367.3669634987
 20
130.5662479245
  0
VERTEX
  8
0
 62
7
  6
CONTINUOUS
 10
367.2816906249
 20
130.6069087253
  0
VERTEX
  8
0
 62
7
  6
CONTINUOUS
 10
367.1985979245
 20
130.6441726181
  0
VERTEX
  8
0
 62
7
  6
CONTINUOUS
 10
367.1179492272
 20
130.6781842635
  0
VERTEX
  8
0
 62
7
  6
CONTINUOUS
 10
367.040740476
 20
130.7088101589
  0
VERTEX
  8
0
 62
7
  6
CONTINUOUS
 10
366.9676262464
 20
130.7361107872
  0
VERTEX
  8
0
 62
7
  6
CONTINUOUS
 10
366.8978561798
 20
130.760653898
  0
VERTEX
  8
0
 62
7
  6
CONTINUOUS
 10
366.830614753
 20
130.7829411784
  0
VERTEX
  8
0
 62
7
  6
CONTINUOUS
 10
366.7650595633
 20
130.8034016816
  0
VERTEX
  8
0
 62
7
  6
CONTINUOUS
 10
366.700414375
 20
130.8223727858
  0
VERTEX
  8
0
 62
7
  6
CONTINUOUS
 10
366.6365582858
 20
130.8399550845
  0
VERTEX
  8
0
 62
7
  6
CONTINUOUS
 10
366.5737003472
 20
130.856155328
  0
VERTEX
  8
0
 62
7
  6
CONTINUOUS
 10
366.5120467783
 20
130.8709919233
  0
VERTEX
  8
0
 62
7
  6
CONTINUOUS
 10
366.4518055438
 20
130.8844935302
  0
VERTEX
  8
0
 62
7
  6
CONTINUOUS
 10
366.3931805653
 20
130.8966989039
  0
VERTEX
  8
0
 62
7
  6
CONTINUOUS
 10
366.3363025328
 20
130.9076691978
  0
VERTEX
  8
0
 62
7
  6
CONTINUOUS
 10
366.2811517917
 20
130.9174945459
  0
VERTEX
  8
0
 62
7
  6
CONTINUOUS
 10
366.2276790726
 20
130.9262643707
  0
VERTEX
  8
0
 62
7
  6
CONTINUOUS
 10
366.1758293749
 20
130.9340626046
  0
VERTEX
  8
0
 62
7
  6
CONTINUOUS
 10
366.1255347692
 20
130.9409683954
  0
VERTEX
  8
0
 62
7
  6
CONTINUOUS
 10
366.076713705
 20
130.9470560989
  0
VERTEX
  8
0
 62
7
  6
CONTINUOUS
 10
366.0292728426
 20
130.952394868
  0
VERTEX
  8
0
 62
7
  6
CONTINUOUS
 10
365.9831112131
 20
130.9570479371
  0
VERTEX
  8
0
 62
7
  6
CONTINUOUS
 10
365.9381483731
 20
130.9610703115
  0
VERTEX
  8
0
 62
7
  6
CONTINUOUS
 10
365.8943037955
 20
130.9645120383
  0
VERTEX
  8
0
 62
7
  6
CONTINUOUS
 10
365.8514756393
 20
130.9674198848
  0
VERTEX
  8
0
 62
7
  6
CONTINUOUS
 10
365.8094950739
 20
130.9698389657
  0
VERTEX
  8
0
 62
7
  6
CONTINUOUS
 10
365.7681502411
 20
130.9718087384
  0
VERTEX
  8
0
 62
7
  6
CONTINUOUS
 10
365.7272410121
 20
130.9733595164
  0
VERTEX
  8
0
 62
7
  6
CONTINUOUS
 10
365.6866573331
 20
130.9745114562
  0
VERTEX
  8
0
 62
7
  6
CONTINUOUS
 10
365.6463645823
 20
130.9752789025
  0
VERTEX
  8
0
 62
7
  6
CONTINUOUS
 10
365.6065133029
 20
130.9756728766
  0
VERTEX
  8
0
 62
7
  6
CONTINUOUS
 10
364.5636691964
 20
130.9757359804
  0
SEQEND
  0
POLYLINE
  8
0
 62
7
  6
CONTINUOUS
 66
1
 70
0
  0
VERTEX
  8
0
 62
7
  6
CONTINUOUS
 10
368.4496424888
 20
129.8832131293
  0
VERTEX
  8
0
 62
7
  6
CONTINUOUS
 10
368.3698949691
 20
129.9623394722
  0
VERTEX
  8
0
 62
7
  6
CONTINUOUS
 10
368.2791723711
 20
130.047131166
  0
VERTEX
  8
0
 62
7
  6
CONTINUOUS
 10
368.187444656
 20
130.1276674039
  0
VERTEX
  8
0
 62
7
  6
CONTINUOUS
 10
368.0950250331
 20
130.2039411613
  0
VERTEX
  8
0
 62
7
  6
CONTINUOUS
 10
368.0022202859
 20
130.2759699133
  0
VERTEX
  8
0
 62
7
  6
CONTINUOUS
 10
367.9093392202
 20
130.3437864566
  0
VERTEX
  8
0
 62
7
  6
CONTINUOUS
 10
367.8166810507
 20
130.4074453783
  0
VERTEX
  8
0
 62
7
  6
CONTINUOUS
 10
367.7245459015
 20
130.4670146754
  0
VERTEX
  8
0
 62
7
  6
CONTINUOUS
 10
367.6332227814
 20
130.5225810213
  0
VERTEX
  8
0
 62
7
  6
CONTINUOUS
 10
367.5430002336
 20
130.5742418955
  0
VERTEX
  8
0
 62
7
  6
CONTINUOUS
 10
367.4541553921
 20
130.6221105743
  0
VERTEX
  8
0
 62
7
  6
CONTINUOUS
 10
367.3669634987
 20
130.6663085306
  0
VERTEX
  8
0
 62
7
  6
CONTINUOUS
 10
367.2816906249
 20
130.7069693313
  0
VERTEX
  8
0
 62
7
  6
CONTINUOUS
 10
367.1985979245
 20
130.7442332242
  0
VERTEX
  8
0
 62
7
  6
CONTINUOUS
 10
367.1179492272
 20
130.7782448696
  0
VERTEX
  8
0
 62
7
  6
CONTINUOUS
 10
367.040740476
 20
130.808870765
  0
VERTEX
  8
0
 62
7
  6
CONTINUOUS
 10
366.9676262464
 20
130.8361713932
  0
VERTEX
  8
0
 62
7
  6
CONTINUOUS
 10
366.8978561798
 20
130.8607145041
  0
VERTEX
  8
0
 62
7
  6
CONTINUOUS
 10
366.830614753
 20
130.8830017845
  0
VERTEX
  8
0
 62
7
  6
CONTINUOUS
 10
366.7650595633
 20
130.9034622877
  0
VERTEX
  8
0
 62
7
  6
CONTINUOUS
 10
366.700414375
 20
130.9224333919
  0
VERTEX
  8
0
 62
7
  6
CONTINUOUS
 10
366.6365582858
 20
130.9400156906
  0
VERTEX
  8
0
 62
7
  6
CONTINUOUS
 10
366.5737003472
 20
130.9562159341
  0
VERTEX
  8
0
 62
7
  6
CONTINUOUS
 10
366.5120467783
 20
130.9710525294
  0
VERTEX
  8
0
 62
7
  6
CONTINUOUS
 10
366.4518055438
 20
130.9845541363
  0
VERTEX
  8
0
 62
7
  6
CONTINUOUS
 10
366.3931805653
 20
130.99675951
  0
VERTEX
  8
0
 62
7
  6
CONTINUOUS
 10
366.3363025328
 20
131.0077298039
  0
VERTEX
  8
0
 62
7
  6
CONTINUOUS
 10
366.2811517917
 20
131.017555152
  0
VERTEX
  8
0
 62
7
  6
CONTINUOUS
 10
366.2276790726
 20
131.0263249768
  0
VERTEX
  8
0
 62
7
  6
CONTINUOUS
 10
366.1758293749
 20
131.0341232106
  0
VERTEX
  8
0
 62
7
  6
CONTINUOUS
 10
366.1255347692
 20
131.0410290015
  0
VERTEX
  8
0
 62
7
  6
CONTINUOUS
 10
366.076713705
 20
131.047116705
  0
VERTEX
  8
0
 62
7
  6
CONTINUOUS
 10
366.0292728426
 20
131.0524554741
  0
VERTEX
  8
0
 62
7
  6
CONTINUOUS
 10
365.9831112131
 20
131.0571085431
  0
VERTEX
  8
0
 62
7
  6
CONTINUOUS
 10
365.9381483731
 20
131.0611309175
  0
VERTEX
  8
0
 62
7
  6
CONTINUOUS
 10
365.8943037955
 20
131.0645726444
  0
VERTEX
  8
0
 62
7
  6
CONTINUOUS
 10
365.8514756393
 20
131.0674804908
  0
VERTEX
  8
0
 62
7
  6
CONTINUOUS
 10
365.8094950739
 20
131.0698995718
  0
VERTEX
  8
0
 62
7
  6
CONTINUOUS
 10
365.7681502411
 20
131.0718693445
  0
VERTEX
  8
0
 62
7
  6
CONTINUOUS
 10
365.7272410121
 20
131.0734201225
  0
VERTEX
  8
0
 62
7
  6
CONTINUOUS
 10
365.6866573331
 20
131.0745720622
  0
VERTEX
  8
0
 62
7
  6
CONTINUOUS
 10
365.6463645823
 20
131.0753395085
  0
VERTEX
  8
0
 62
7
  6
CONTINUOUS
 10
365.6065133029
 20
131.0757334827
  0
VERTEX
  8
0
 62
7
  6
CONTINUOUS
 10
365.5829368704
 20
131.0757965545
  0
SEQEND
  0
POLYLINE
  8
0
 62
7
  6
CONTINUOUS
 66
1
 70
0
  0
VERTEX
  8
0
 62
7
  6
CONTINUOUS
 10
368.4496424888
 20
129.9832737353
  0
VERTEX
  8
0
 62
7
  6
CONTINUOUS
 10
368.3698949691
 20
130.0624000782
  0
VERTEX
  8
0
 62
7
  6
CONTINUOUS
 10
368.2791723711
 20
130.1471917721
  0
VERTEX
  8
0
 62
7
  6
CONTINUOUS
 10
368.187444656
 20
130.2277280099
  0
VERTEX
  8
0
 62
7
  6
CONTINUOUS
 10
368.0950250331
 20
130.3040017673
  0
VERTEX
  8
0
 62
7
  6
CONTINUOUS
 10
368.0022202859
 20
130.3760305193
  0
VERTEX
  8
0
 62
7
  6
CONTINUOUS
 10
367.9093392202
 20
130.4438470626
  0
VERTEX
  8
0
 62
7
  6
CONTINUOUS
 10
367.8166810507
 20
130.5075059844
  0
VERTEX
  8
0
 62
7
  6
CONTINUOUS
 10
367.7245459015
 20
130.5670752815
  0
VERTEX
  8
0
 62
7
  6
CONTINUOUS
 10
367.6332227814
 20
130.6226416274
  0
VERTEX
  8
0
 62
7
  6
CONTINUOUS
 10
367.5430002336
 20
130.6743025016
  0
VERTEX
  8
0
 62
7
  6
CONTINUOUS
 10
367.4541553921
 20
130.7221711804
  0
VERTEX
  8
0
 62
7
  6
CONTINUOUS
 10
367.3669634987
 20
130.7663691367
  0
VERTEX
  8
0
 62
7
  6
CONTINUOUS
 10
367.2816906249
 20
130.8070299374
  0
VERTEX
  8
0
 62
7
  6
CONTINUOUS
 10
367.1985979245
 20
130.8442938303
  0
VERTEX
  8
0
 62
7
  6
CONTINUOUS
 10
367.1179492272
 20
130.8783054756
  0
VERTEX
  8
0
 62
7
  6
CONTINUOUS
 10
367.040740476
 20
130.908931371
  0
VERTEX
  8
0
 62
7
  6
CONTINUOUS
 10
366.9676262464
 20
130.9362319993
  0
VERTEX
  8
0
 62
7
  6
CONTINUOUS
 10
366.8978561798
 20
130.9607751102
  0
VERTEX
  8
0
 62
7
  6
CONTINUOUS
 10
366.830614753
 20
130.9830623905
  0
VERTEX
  8
0
 62
7
  6
CONTINUOUS
 10
366.7650595633
 20
131.0035228938
  0
VERTEX
  8
0
 62
7
  6
CONTINUOUS
 10
366.700414375
 20
131.0224939979
  0
VERTEX
  8
0
 62
7
  6
CONTINUOUS
 10
366.6365582858
 20
131.0400762966
  0
VERTEX
  8
0
 62
7
  6
CONTINUOUS
 10
366.5737003472
 20
131.0562765401
  0
VERTEX
  8
0
 62
7
  6
CONTINUOUS
 10
366.5120467783
 20
131.0711131354
  0
VERTEX
  8
0
 62
7
  6
CONTINUOUS
 10
366.4518055438
 20
131.0846147424
  0
VERTEX
  8
0
 62
7
  6
CONTINUOUS
 10
366.3931805653
 20
131.096820116
  0
VERTEX
  8
0
 62
7
  6
CONTINUOUS
 10
366.3363025328
 20
131.1077904099
  0
VERTEX
  8
0
 62
7
  6
CONTINUOUS
 10
366.2811517917
 20
131.117615758
  0
VERTEX
  8
0
 62
7
  6
CONTINUOUS
 10
366.2276790726
 20
131.1263855828
  0
VERTEX
  8
0
 62
7
  6
CONTINUOUS
 10
366.1758293749
 20
131.1341838167
  0
VERTEX
  8
0
 62
7
  6
CONTINUOUS
 10
366.1255347692
 20
131.1410896075
  0
VERTEX
  8
0
 62
7
  6
CONTINUOUS
 10
366.076713705
 20
131.147177311
  0
VERTEX
  8
0
 62
7
  6
CONTINUOUS
 10
366.0292728426
 20
131.1525160801
  0
VERTEX
  8
0
 62
7
  6
CONTINUOUS
 10
365.9831112131
 20
131.1571691492
  0
VERTEX
  8
0
 62
7
  6
CONTINUOUS
 10
365.9381483731
 20
131.1611915236
  0
VERTEX
  8
0
 62
7
  6
CONTINUOUS
 10
365.8943037955
 20
131.1646332505
  0
VERTEX
  8
0
 62
7
  6
CONTINUOUS
 10
365.8514756393
 20
131.1675410969
  0
VERTEX
  8
0
 62
7
  6
CONTINUOUS
 10
365.8094950739
 20
131.1699601778
  0
VERTEX
  8
0
 62
7
  6
CONTINUOUS
 10
365.7681502411
 20
131.1719299506
  0
VERTEX
  8
0
 62
7
  6
CONTINUOUS
 10
365.7272410121
 20
131.1734807286
  0
VERTEX
  8
0
 62
7
  6
CONTINUOUS
 10
365.6866573331
 20
131.1746326683
  0
VERTEX
  8
0
 62
7
  6
CONTINUOUS
 10
365.6463645823
 20
131.1754001146
  0
VERTEX
  8
0
 62
7
  6
CONTINUOUS
 10
365.6065133029
 20
131.1757940888
  0
VERTEX
  8
0
 62
7
  6
CONTINUOUS
 10
365.5829368704
 20
131.1758571606
  0
SEQEND
  0
POLYLINE
  8
0
 62
7
  6
CONTINUOUS
 66
1
 70
0
  0
VERTEX
  8
0
 62
7
  6
CONTINUOUS
 10
368.4496424888
 20
130.0833343414
  0
VERTEX
  8
0
 62
7
  6
CONTINUOUS
 10
368.3698949691
 20
130.1624606843
  0
VERTEX
  8
0
 62
7
  6
CONTINUOUS
 10
368.2791723711
 20
130.2472523782
  0
VERTEX
  8
0
 62
7
  6
CONTINUOUS
 10
368.187444656
 20
130.327788616
  0
VERTEX
  8
0
 62
7
  6
CONTINUOUS
 10
368.0950250331
 20
130.4040623734
  0
VERTEX
  8
0
 62
7
  6
CONTINUOUS
 10
368.0022202859
 20
130.4760911254
  0
VERTEX
  8
0
 62
7
  6
CONTINUOUS
 10
367.9093392202
 20
130.5439076687
  0
VERTEX
  8
0
 62
7
  6
CONTINUOUS
 10
367.8166810507
 20
130.6075665904
  0
VERTEX
  8
0
 62
7
  6
CONTINUOUS
 10
367.7245459015
 20
130.6671358876
  0
VERTEX
  8
0
 62
7
  6
CONTINUOUS
 10
367.6332227814
 20
130.7227022334
  0
VERTEX
  8
0
 62
7
  6
CONTINUOUS
 10
367.5430002336
 20
130.7743631077
  0
VERTEX
  8
0
 62
7
  6
CONTINUOUS
 10
367.4541553921
 20
130.8222317864
  0
VERTEX
  8
0
 62
7
  6
CONTINUOUS
 10
367.3669634987
 20
130.8664297427
  0
VERTEX
  8
0
 62
7
  6
CONTINUOUS
 10
367.2816906249
 20
130.9070905434
  0
VERTEX
  8
0
 62
7
  6
CONTINUOUS
 10
367.1985979245
 20
130.9443544363
  0
VERTEX
  8
0
 62
7
  6
CONTINUOUS
 10
367.1179492272
 20
130.9783660817
  0
VERTEX
  8
0
 62
7
  6
CONTINUOUS
 10
367.040740476
 20
131.0089919771
  0
VERTEX
  8
0
 62
7
  6
CONTINUOUS
 10
366.9676262464
 20
131.0362926053
  0
VERTEX
  8
0
 62
7
  6
CONTINUOUS
 10
366.8978561798
 20
131.0608357162
  0
VERTEX
  8
0
 62
7
  6
CONTINUOUS
 10
366.830614753
 20
131.0831229966
  0
VERTEX
  8
0
 62
7
  6
CONTINUOUS
 10
366.7650595633
 20
131.1035834998
  0
VERTEX
  8
0
 62
7
  6
CONTINUOUS
 10
366.700414375
 20
131.122554604
  0
VERTEX
  8
0
 62
7
  6
CONTINUOUS
 10
366.6365582858
 20
131.1401369027
  0
VERTEX
  8
0
 62
7
  6
CONTINUOUS
 10
366.5737003472
 20
131.1563371462
  0
VERTEX
  8
0
 62
7
  6
CONTINUOUS
 10
366.5120467783
 20
131.1711737415
  0
VERTEX
  8
0
 62
7
  6
CONTINUOUS
 10
366.4518055438
 20
131.1846753484
  0
VERTEX
  8
0
 62
7
  6
CONTINUOUS
 10
366.3931805653
 20
131.1968807221
  0
VERTEX
  8
0
 62
7
  6
CONTINUOUS
 10
366.3363025328
 20
131.207851016
  0
VERTEX
  8
0
 62
7
  6
CONTINUOUS
 10
366.2811517917
 20
131.2176763641
  0
VERTEX
  8
0
 62
7
  6
CONTINUOUS
 10
366.2276790726
 20
131.2264461889
  0
VERTEX
  8
0
 62
7
  6
CONTINUOUS
 10
366.1758293749
 20
131.2342444228
  0
VERTEX
  8
0
 62
7
  6
CONTINUOUS
 10
366.1255347692
 20
131.2411502136
  0
VERTEX
  8
0
 62
7
  6
CONTINUOUS
 10
366.076713705
 20
131.2472379171
  0
VERTEX
  8
0
 62
7
  6
CONTINUOUS
 10
366.0292728426
 20
131.2525766862
  0
VERTEX
  8
0
 62
7
  6
CONTINUOUS
 10
365.9831112131
 20
131.2572297552
  0
VERTEX
  8
0
 62
7
  6
CONTINUOUS
 10
365.9381483731
 20
131.2612521297
  0
VERTEX
  8
0
 62
7
  6
CONTINUOUS
 10
365.8943037955
 20
131.2646938565
  0
VERTEX
  8
0
 62
7
  6
CONTINUOUS
 10
365.8514756393
 20
131.267601703
  0
VERTEX
  8
0
 62
7
  6
CONTINUOUS
 10
365.8094950739
 20
131.2700207839
  0
VERTEX
  8
0
 62
7
  6
CONTINUOUS
 10
365.7681502411
 20
131.2719905566
  0
VERTEX
  8
0
 62
7
  6
CONTINUOUS
 10
365.7272410121
 20
131.2735413346
  0
VERTEX
  8
0
 62
7
  6
CONTINUOUS
 10
365.6866573331
 20
131.2746932744
  0
VERTEX
  8
0
 62
7
  6
CONTINUOUS
 10
365.6463645823
 20
131.2754607206
  0
VERTEX
  8
0
 62
7
  6
CONTINUOUS
 10
365.6065133029
 20
131.2758546948
  0
VERTEX
  8
0
 62
7
  6
CONTINUOUS
 10
365.5829368704
 20
131.2759177666
  0
SEQEND
  0
POLYLINE
  8
0
 62
7
  6
CONTINUOUS
 66
1
 70
0
  0
VERTEX
  8
0
 62
7
  6
CONTINUOUS
 10
368.4496424888
 20
130.1833949474
  0
VERTEX
  8
0
 62
7
  6
CONTINUOUS
 10
368.3698949691
 20
130.2625212904
  0
VERTEX
  8
0
 62
7
  6
CONTINUOUS
 10
368.2791723711
 20
130.3473129842
  0
VERTEX
  8
0
 62
7
  6
CONTINUOUS
 10
368.187444656
 20
130.427849222
  0
VERTEX
  8
0
 62
7
  6
CONTINUOUS
 10
368.0950250331
 20
130.5041229795
  0
VERTEX
  8
0
 62
7
  6
CONTINUOUS
 10
368.0022202859
 20
130.5761517315
  0
VERTEX
  8
0
 62
7
  6
CONTINUOUS
 10
367.9093392202
 20
130.6439682747
  0
VERTEX
  8
0
 62
7
  6
CONTINUOUS
 10
367.8166810507
 20
130.7076271965
  0
VERTEX
  8
0
 62
7
  6
CONTINUOUS
 10
367.7245459015
 20
130.7671964936
  0
VERTEX
  8
0
 62
7
  6
CONTINUOUS
 10
367.6332227814
 20
130.8227628395
  0
VERTEX
  8
0
 62
7
  6
CONTINUOUS
 10
367.5430002336
 20
130.8744237137
  0
VERTEX
  8
0
 62
7
  6
CONTINUOUS
 10
367.4541553921
 20
130.9222923925
  0
VERTEX
  8
0
 62
7
  6
CONTINUOUS
 10
367.3669634987
 20
130.9664903488
  0
VERTEX
  8
0
 62
7
  6
CONTINUOUS
 10
367.2816906249
 20
131.0071511495
  0
VERTEX
  8
0
 62
7
  6
CONTINUOUS
 10
367.1985979245
 20
131.0444150424
  0
VERTEX
  8
0
 62
7
  6
CONTINUOUS
 10
367.1179492272
 20
131.0784266878
  0
VERTEX
  8
0
 62
7
  6
CONTINUOUS
 10
367.040740476
 20
131.1090525832
  0
VERTEX
  8
0
 62
7
  6
CONTINUOUS
 10
366.9676262464
 20
131.1363532114
  0
VERTEX
  8
0
 62
7
  6
CONTINUOUS
 10
366.8978561798
 20
131.1608963223
  0
VERTEX
  8
0
 62
7
  6
CONTINUOUS
 10
366.830614753
 20
131.1831836026
  0
VERTEX
  8
0
 62
7
  6
CONTINUOUS
 10
366.7650595633
 20
131.2036441059
  0
VERTEX
  8
0
 62
7
  6
CONTINUOUS
 10
366.700414375
 20
131.2226152101
  0
VERTEX
  8
0
 62
7
  6
CONTINUOUS
 10
366.6365582858
 20
131.2401975088
  0
VERTEX
  8
0
 62
7
  6
CONTINUOUS
 10
366.5737003472
 20
131.2563977523
  0
VERTEX
  8
0
 62
7
  6
CONTINUOUS
 10
366.5120467783
 20
131.2712343475
  0
VERTEX
  8
0
 62
7
  6
CONTINUOUS
 10
366.4518055438
 20
131.2847359545
  0
VERTEX
  8
0
 62
7
  6
CONTINUOUS
 10
366.3931805653
 20
131.2969413282
  0
VERTEX
  8
0
 62
7
  6
CONTINUOUS
 10
366.3363025328
 20
131.3079116221
  0
VERTEX
  8
0
 62
7
  6
CONTINUOUS
 10
366.2811517917
 20
131.3177369701
  0
VERTEX
  8
0
 62
7
  6
CONTINUOUS
 10
366.2276790726
 20
131.326506795
  0
VERTEX
  8
0
 62
7
  6
CONTINUOUS
 10
366.1758293749
 20
131.3343050288
  0
VERTEX
  8
0
 62
7
  6
CONTINUOUS
 10
366.1255347692
 20
131.3412108197
  0
VERTEX
  8
0
 62
7
  6
CONTINUOUS
 10
366.076713705
 20
131.3472985232
  0
VERTEX
  8
0
 62
7
  6
CONTINUOUS
 10
366.0292728426
 20
131.3526372923
  0
VERTEX
  8
0
 62
7
  6
CONTINUOUS
 10
365.9831112131
 20
131.3572903613
  0
VERTEX
  8
0
 62
7
  6
CONTINUOUS
 10
365.9381483731
 20
131.3613127357
  0
VERTEX
  8
0
 62
7
  6
CONTINUOUS
 10
365.8943037955
 20
131.3647544626
  0
VERTEX
  8
0
 62
7
  6
CONTINUOUS
 10
365.8514756393
 20
131.367662309
  0
VERTEX
  8
0
 62
7
  6
CONTINUOUS
 10
365.8094950739
 20
131.37008139
  0
VERTEX
  8
0
 62
7
  6
CONTINUOUS
 10
365.7681502411
 20
131.3720511627
  0
VERTEX
  8
0
 62
7
  6
CONTINUOUS
 10
365.7272410121
 20
131.3736019407
  0
VERTEX
  8
0
 62
7
  6
CONTINUOUS
 10
365.6866573331
 20
131.3747538804
  0
VERTEX
  8
0
 62
7
  6
CONTINUOUS
 10
365.6463645823
 20
131.3755213267
  0
VERTEX
  8
0
 62
7
  6
CONTINUOUS
 10
365.6065133029
 20
131.3759153009
  0
VERTEX
  8
0
 62
7
  6
CONTINUOUS
 10
365.5829368704
 20
131.3759783727
  0
SEQEND
  0
POLYLINE
  8
0
 62
7
  6
CONTINUOUS
 66
1
 70
0
  0
VERTEX
  8
0
 62
7
  6
CONTINUOUS
 10
368.4496424888
 20
130.2834555535
  0
VERTEX
  8
0
 62
7
  6
CONTINUOUS
 10
368.3698949691
 20
130.3625818964
  0
VERTEX
  8
0
 62
7
  6
CONTINUOUS
 10
368.2791723711
 20
130.4473735903
  0
VERTEX
  8
0
 62
7
  6
CONTINUOUS
 10
368.187444656
 20
130.5279098281
  0
VERTEX
  8
0
 62
7
  6
CONTINUOUS
 10
368.0950250331
 20
130.6041835855
  0
VERTEX
  8
0
 62
7
  6
CONTINUOUS
 10
368.0022202859
 20
130.6762123375
  0
VERTEX
  8
0
 62
7
  6
CONTINUOUS
 10
367.9093392202
 20
130.7440288808
  0
VERTEX
  8
0
 62
7
  6
CONTINUOUS
 10
367.8166810507
 20
130.8076878026
  0
VERTEX
  8
0
 62
7
  6
CONTINUOUS
 10
367.7245459015
 20
130.8672570997
  0
VERTEX
  8
0
 62
7
  6
CONTINUOUS
 10
367.6332227814
 20
130.9228234456
  0
VERTEX
  8
0
 62
7
  6
CONTINUOUS
 10
367.5430002336
 20
130.9744843198
  0
VERTEX
  8
0
 62
7
  6
CONTINUOUS
 10
367.4541553921
 20
131.0223529985
  0
VERTEX
  8
0
 62
7
  6
CONTINUOUS
 10
367.3669634987
 20
131.0665509548
  0
VERTEX
  8
0
 62
7
  6
CONTINUOUS
 10
367.2816906249
 20
131.1072117556
  0
VERTEX
  8
0
 62
7
  6
CONTINUOUS
 10
367.1985979245
 20
131.1444756484
  0
VERTEX
  8
0
 62
7
  6
CONTINUOUS
 10
367.1179492272
 20
131.1784872938
  0
VERTEX
  8
0
 62
7
  6
CONTINUOUS
 10
367.040740476
 20
131.2091131892
  0
VERTEX
  8
0
 62
7
  6
CONTINUOUS
 10
366.9676262464
 20
131.2364138175
  0
VERTEX
  8
0
 62
7
  6
CONTINUOUS
 10
366.8978561798
 20
131.2609569284
  0
VERTEX
  8
0
 62
7
  6
CONTINUOUS
 10
366.830614753
 20
131.2832442087
  0
VERTEX
  8
0
 62
7
  6
CONTINUOUS
 10
366.7650595633
 20
131.3037047119
  0
VERTEX
  8
0
 62
7
  6
CONTINUOUS
 10
366.700414375
 20
131.3226758161
  0
VERTEX
  8
0
 62
7
  6
CONTINUOUS
 10
366.6365582858
 20
131.3402581148
  0
VERTEX
  8
0
 62
7
  6
CONTINUOUS
 10
366.5737003472
 20
131.3564583583
  0
VERTEX
  8
0
 62
7
  6
CONTINUOUS
 10
366.5120467783
 20
131.3712949536
  0
VERTEX
  8
0
 62
7
  6
CONTINUOUS
 10
366.4518055438
 20
131.3847965605
  0
VERTEX
  8
0
 62
7
  6
CONTINUOUS
 10
366.3931805653
 20
131.3970019342
  0
VERTEX
  8
0
 62
7
  6
CONTINUOUS
 10
366.3363025328
 20
131.4079722281
  0
VERTEX
  8
0
 62
7
  6
CONTINUOUS
 10
366.2811517917
 20
131.4177975762
  0
VERTEX
  8
0
 62
7
  6
CONTINUOUS
 10
366.2276790726
 20
131.426567401
  0
VERTEX
  8
0
 62
7
  6
CONTINUOUS
 10
366.1758293749
 20
131.4343656349
  0
VERTEX
  8
0
 62
7
  6
CONTINUOUS
 10
366.1255347692
 20
131.4412714257
  0
VERTEX
  8
0
 62
7
  6
CONTINUOUS
 10
366.076713705
 20
131.4473591292
  0
VERTEX
  8
0
 62
7
  6
CONTINUOUS
 10
366.0292728426
 20
131.4526978983
  0
VERTEX
  8
0
 62
7
  6
CONTINUOUS
 10
365.9831112131
 20
131.4573509674
  0
VERTEX
  8
0
 62
7
  6
CONTINUOUS
 10
365.9381483731
 20
131.4613733418
  0
VERTEX
  8
0
 62
7
  6
CONTINUOUS
 10
365.8943037955
 20
131.4648150687
  0
VERTEX
  8
0
 62
7
  6
CONTINUOUS
 10
365.8514756393
 20
131.4677229151
  0
VERTEX
  8
0
 62
7
  6
CONTINUOUS
 10
365.8094950739
 20
131.470141996
  0
VERTEX
  8
0
 62
7
  6
CONTINUOUS
 10
365.7681502411
 20
131.4721117687
  0
VERTEX
  8
0
 62
7
  6
CONTINUOUS
 10
365.7272410121
 20
131.4736625467
  0
VERTEX
  8
0
 62
7
  6
CONTINUOUS
 10
365.6866573331
 20
131.4748144865
  0
VERTEX
  8
0
 62
7
  6
CONTINUOUS
 10
365.6463645823
 20
131.4755819328
  0
VERTEX
  8
0
 62
7
  6
CONTINUOUS
 10
365.6065133029
 20
131.4759759069
  0
VERTEX
  8
0
 62
7
  6
CONTINUOUS
 10
365.5829368704
 20
131.4760389788
  0
SEQEND
  0
LINE
  8
0
 62
7
  6
CONTINUOUS
 10
367.1445108692
 20
129.4837694377
 11
367.1466519378
 21
129.4815803016
  0
LINE
  8
0
 62
7
  6
CONTINUOUS
 10
367.2008384452
 20
129.5838123913
 11
367.2029620132
 21
129.5816410418
  0
LINE
  8
0
 62
7
  6
CONTINUOUS
 10
367.2559023147
 20
129.6838554863
 11
367.2580085223
 21
129.6817017829
  0
LINE
  8
0
 62
7
  6
CONTINUOUS
 10
368.4496369766
 20
129.7831581595
 11
368.4509915897
 21
129.7817700827
  0
LINE
  8
0
 62
7
  6
CONTINUOUS
 10
368.4496369766
 20
129.8832187656
 11
368.4509915897
 21
129.8818306888
  0
LINE
  8
0
 62
7
  6
CONTINUOUS
 10
368.4496369766
 20
129.9832793716
 11
368.4509915897
 21
129.9818912948
  0
LINE
  8
0
 62
7
  6
CONTINUOUS
 10
368.4496369766
 20
130.0833399777
 11
368.4509915897
 21
130.0819519009
  0
LINE
  8
0
 62
7
  6
CONTINUOUS
 10
368.4496369766
 20
130.1834005838
 11
368.4509915897
 21
130.182012507
  0
LINE
  8
0
 62
7
  6
CONTINUOUS
 10
368.4496369766
 20
130.2834611898
 11
368.4509915897
 21
130.282073113
  0
POLYLINE
  8
0
 62
7
  6
CONTINUOUS
 66
1
 70
0
  0
VERTEX
  8
0
 62
7
  6
CONTINUOUS
 10
368.4065141573
 20
129.7873986532
  0
VERTEX
  8
0
 62
7
  6
CONTINUOUS
 10
368.5512469188
 20
129.6353827743
  0
VERTEX
  8
0
 62
7
  6
CONTINUOUS
 10
368.6878170243
 20
129.4759711187
  0
VERTEX
  8
0
 62
7
  6
CONTINUOUS
 10
368.8158157946
 20
129.3096429873
  0
VERTEX
  8
0
 62
7
  6
CONTINUOUS
 10
368.9349007721
 20
129.1368512055
  0
VERTEX
  8
0
 62
7
  6
CONTINUOUS
 10
369.0447649822
 20
128.9580433516
  0
VERTEX
  8
0
 62
7
  6
CONTINUOUS
 10
369.1451069327
 20
128.7737064749
  0
VERTEX
  8
0
 62
7
  6
CONTINUOUS
 10
369.2356420067
 20
128.5843612279
  0
VERTEX
  8
0
 62
7
  6
CONTINUOUS
 10
369.3161195393
 20
128.3905330516
  0
VERTEX
  8
0
 62
7
  6
CONTINUOUS
 10
369.3863204082
 20
128.1927508824
  0
VERTEX
  8
0
 62
7
  6
CONTINUOUS
 10
369.4460521053
 20
127.9915565899
  0
VERTEX
  8
0
 62
7
  6
CONTINUOUS
 10
369.4951494006
 20
127.7875059727
  0
VERTEX
  8
0
 62
7
  6
CONTINUOUS
 10
369.5334769952
 20
127.5811613443
  0
VERTEX
  8
0
 62
7
  6
CONTINUOUS
 10
369.5609294485
 20
127.373090557
  0
VERTEX
  8
0
 62
7
  6
CONTINUOUS
 10
369.5774311801
 20
127.1638669439
  0
VERTEX
  8
0
 62
7
  6
CONTINUOUS
 10
369.5829368704
 20
126.9540640394
  0
SEQEND
  0
POLYLINE
  8
0
 62
7
  6
CONTINUOUS
 66
1
 70
0
  0
VERTEX
  8
0
 62
7
  6
CONTINUOUS
 10
368.4065141573
 20
129.8874592592
  0
VERTEX
  8
0
 62
7
  6
CONTINUOUS
 10
368.5512469188
 20
129.7354433803
  0
VERTEX
  8
0
 62
7
  6
CONTINUOUS
 10
368.6878170243
 20
129.5760317247
  0
VERTEX
  8
0
 62
7
  6
CONTINUOUS
 10
368.8158157946
 20
129.4097035934
  0
VERTEX
  8
0
 62
7
  6
CONTINUOUS
 10
368.9349007721
 20
129.2369118116
  0
VERTEX
  8
0
 62
7
  6
CONTINUOUS
 10
369.0447649822
 20
129.0581039577
  0
VERTEX
  8
0
 62
7
  6
CONTINUOUS
 10
369.1451069327
 20
128.873767081
  0
VERTEX
  8
0
 62
7
  6
CONTINUOUS
 10
369.2356420067
 20
128.6844218339
  0
VERTEX
  8
0
 62
7
  6
CONTINUOUS
 10
369.3161195393
 20
128.4905936577
  0
VERTEX
  8
0
 62
7
  6
CONTINUOUS
 10
369.3863204082
 20
128.2928114885
  0
VERTEX
  8
0
 62
7
  6
CONTINUOUS
 10
369.4460521053
 20
128.091617196
  0
VERTEX
  8
0
 62
7
  6
CONTINUOUS
 10
369.4951494006
 20
127.8875665787
  0
VERTEX
  8
0
 62
7
  6
CONTINUOUS
 10
369.5334769952
 20
127.6812219503
  0
SEQEND
  0
POLYLINE
  8
0
 62
7
  6
CONTINUOUS
 66
1
 70
0
  0
VERTEX
  8
0
 62
7
  6
CONTINUOUS
 10
368.4065141573
 20
129.9875198653
  0
VERTEX
  8
0
 62
7
  6
CONTINUOUS
 10
368.5512469188
 20
129.8355039864
  0
VERTEX
  8
0
 62
7
  6
CONTINUOUS
 10
368.6878170243
 20
129.6760923308
  0
VERTEX
  8
0
 62
7
  6
CONTINUOUS
 10
368.8158157946
 20
129.5097641995
  0
VERTEX
  8
0
 62
7
  6
CONTINUOUS
 10
368.9349007721
 20
129.3369724176
  0
VERTEX
  8
0
 62
7
  6
CONTINUOUS
 10
369.0447649822
 20
129.1581645638
  0
VERTEX
  8
0
 62
7
  6
CONTINUOUS
 10
369.1451069327
 20
128.9738276871
  0
VERTEX
  8
0
 62
7
  6
CONTINUOUS
 10
369.2356420067
 20
128.78448244
  0
VERTEX
  8
0
 62
7
  6
CONTINUOUS
 10
369.3161195393
 20
128.5906542637
  0
VERTEX
  8
0
 62
7
  6
CONTINUOUS
 10
369.3863204082
 20
128.3928720945
  0
VERTEX
  8
0
 62
7
  6
CONTINUOUS
 10
369.4460521053
 20
128.191677802
  0
VERTEX
  8
0
 62
7
  6
CONTINUOUS
 10
369.4951494006
 20
127.9876271848
  0
VERTEX
  8
0
 62
7
  6
CONTINUOUS
 10
369.5334769952
 20
127.7812825564
  0
SEQEND
  0
POLYLINE
  8
0
 62
7
  6
CONTINUOUS
 66
1
 70
0
  0
VERTEX
  8
0
 62
7
  6
CONTINUOUS
 10
368.4065141573
 20
130.0875804713
  0
VERTEX
  8
0
 62
7
  6
CONTINUOUS
 10
368.5512469188
 20
129.9355645924
  0
VERTEX
  8
0
 62
7
  6
CONTINUOUS
 10
368.6878170243
 20
129.7761529369
  0
VERTEX
  8
0
 62
7
  6
CONTINUOUS
 10
368.8158157946
 20
129.6098248055
  0
VERTEX
  8
0
 62
7
  6
CONTINUOUS
 10
368.9349007721
 20
129.4370330237
  0
VERTEX
  8
0
 62
7
  6
CONTINUOUS
 10
369.0447649822
 20
129.2582251698
  0
VERTEX
  8
0
 62
7
  6
CONTINUOUS
 10
369.1451069327
 20
129.0738882931
  0
VERTEX
  8
0
 62
7
  6
CONTINUOUS
 10
369.2356420067
 20
128.884543046
  0
VERTEX
  8
0
 62
7
  6
CONTINUOUS
 10
369.3161195393
 20
128.6907148698
  0
VERTEX
  8
0
 62
7
  6
CONTINUOUS
 10
369.3863204082
 20
128.4929327006
  0
VERTEX
  8
0
 62
7
  6
CONTINUOUS
 10
369.4460521053
 20
128.2917384081
  0
VERTEX
  8
0
 62
7
  6
CONTINUOUS
 10
369.4951494006
 20
128.0876877908
  0
VERTEX
  8
0
 62
7
  6
CONTINUOUS
 10
369.5334769952
 20
127.8813431624
  0
SEQEND
  0
POLYLINE
  8
0
 62
7
  6
CONTINUOUS
 66
1
 70
0
  0
VERTEX
  8
0
 62
7
  6
CONTINUOUS
 10
368.4065141573
 20
130.1876410774
  0
VERTEX
  8
0
 62
7
  6
CONTINUOUS
 10
368.5512469188
 20
130.0356251985
  0
VERTEX
  8
0
 62
7
  6
CONTINUOUS
 10
368.6878170243
 20
129.8762135429
  0
VERTEX
  8
0
 62
7
  6
CONTINUOUS
 10
368.8158157946
 20
129.7098854116
  0
VERTEX
  8
0
 62
7
  6
CONTINUOUS
 10
368.9349007721
 20
129.5370936298
  0
VERTEX
  8
0
 62
7
  6
CONTINUOUS
 10
369.0447649822
 20
129.3582857759
  0
VERTEX
  8
0
 62
7
  6
CONTINUOUS
 10
369.1451069327
 20
129.1739488992
  0
VERTEX
  8
0
 62
7
  6
CONTINUOUS
 10
369.2356420067
 20
128.9846036521
  0
VERTEX
  8
0
 62
7
  6
CONTINUOUS
 10
369.3161195393
 20
128.7907754758
  0
VERTEX
  8
0
 62
7
  6
CONTINUOUS
 10
369.3863204082
 20
128.5929933067
  0
VERTEX
  8
0
 62
7
  6
CONTINUOUS
 10
369.4460521053
 20
128.3917990141
  0
VERTEX
  8
0
 62
7
  6
CONTINUOUS
 10
369.4951494006
 20
128.1877483969
  0
VERTEX
  8
0
 62
7
  6
CONTINUOUS
 10
369.5334769952
 20
127.9814037685
  0
SEQEND
  0
POLYLINE
  8
0
 62
7
  6
CONTINUOUS
 66
1
 70
0
  0
VERTEX
  8
0
 62
7
  6
CONTINUOUS
 10
368.4065141573
 20
130.2877016835
  0
VERTEX
  8
0
 62
7
  6
CONTINUOUS
 10
368.5512469188
 20
130.1356858046
  0
VERTEX
  8
0
 62
7
  6
CONTINUOUS
 10
368.6878170243
 20
129.976274149
  0
VERTEX
  8
0
 62
7
  6
CONTINUOUS
 10
368.8158157946
 20
129.8099460176
  0
VERTEX
  8
0
 62
7
  6
CONTINUOUS
 10
368.9349007721
 20
129.6371542358
  0
VERTEX
  8
0
 62
7
  6
CONTINUOUS
 10
369.0447649822
 20
129.4583463819
  0
VERTEX
  8
0
 62
7
  6
CONTINUOUS
 10
369.1451069327
 20
129.2740095052
  0
VERTEX
  8
0
 62
7
  6
CONTINUOUS
 10
369.2356420067
 20
129.0846642582
  0
VERTEX
  8
0
 62
7
  6
CONTINUOUS
 10
369.3161195393
 20
128.8908360819
  0
VERTEX
  8
0
 62
7
  6
CONTINUOUS
 10
369.3863204082
 20
128.6930539127
  0
VERTEX
  8
0
 62
7
  6
CONTINUOUS
 10
369.4460521053
 20
128.4918596202
  0
VERTEX
  8
0
 62
7
  6
CONTINUOUS
 10
369.4951494006
 20
128.287809003
  0
VERTEX
  8
0
 62
7
  6
CONTINUOUS
 10
369.5334769952
 20
128.0814643746
  0
SEQEND
  0
POLYLINE
  8
0
 62
7
  6
CONTINUOUS
 66
1
 70
0
  0
VERTEX
  8
0
 62
7
  6
CONTINUOUS
 10
367.7890494506
 20
98.2150844898
  0
VERTEX
  8
0
 62
7
  6
CONTINUOUS
 10
367.930771545
 20
98.3122479774
  0
VERTEX
  8
0
 62
7
  6
CONTINUOUS
 10
368.0979059405
 20
98.4402637298
  0
VERTEX
  8
0
 62
7
  6
CONTINUOUS
 10
368.2580748593
 20
98.5768969287
  0
VERTEX
  8
0
 62
7
  6
CONTINUOUS
 10
368.4108340842
 20
98.721768909
  0
VERTEX
  8
0
 62
7
  6
CONTINUOUS
 10
368.5557599299
 20
98.8744780273
  0
VERTEX
  8
0
 62
7
  6
CONTINUOUS
 10
368.6924505041
 20
99.0346008344
  0
VERTEX
  8
0
 62
7
  6
CONTINUOUS
 10
368.8205268659
 20
99.20169332
  0
VERTEX
  8
0
 62
7
  6
CONTINUOUS
 10
368.939634056
 20
99.3752921473
  0
VERTEX
  8
0
 62
7
  6
CONTINUOUS
 10
369.0494420519
 20
99.5549159121
  0
VERTEX
  8
0
 62
7
  6
CONTINUOUS
 10
369.149646674
 20
99.7400664616
  0
VERTEX
  8
0
 62
7
  6
CONTINUOUS
 10
369.2399703814
 20
99.9302301503
  0
VERTEX
  8
0
 62
7
  6
CONTINUOUS
 10
369.3201631281
 20
100.1248793735
  0
VERTEX
  8
0
 62
7
  6
CONTINUOUS
 10
369.3900030846
 20
100.3234740622
  0
VERTEX
  8
0
 62
7
  6
CONTINUOUS
 10
369.4492971305
 20
100.5254627649
  0
VERTEX
  8
0
 62
7
  6
CONTINUOUS
 10
369.4978815295
 20
100.730284037
  0
VERTEX
  8
0
 62
7
  6
CONTINUOUS
 10
369.5345307091
 20
100.9303738017
  0
SEQEND
  0
POLYLINE
  8
0
 62
7
  6
CONTINUOUS
 66
1
 70
0
  0
VERTEX
  8
0
 62
7
  6
CONTINUOUS
 10
367.8712359019
 20
98.370919441
  0
VERTEX
  8
0
 62
7
  6
CONTINUOUS
 10
367.8976024674
 20
98.3885371348
  0
VERTEX
  8
0
 62
7
  6
CONTINUOUS
 10
368.0768766828
 20
98.5234557291
  0
VERTEX
  8
0
 62
7
  6
CONTINUOUS
 10
368.2483043317
 20
98.6682144286
  0
VERTEX
  8
0
 62
7
  6
CONTINUOUS
 10
368.4113460125
 20
98.8223578167
  0
VERTEX
  8
0
 62
7
  6
CONTINUOUS
 10
368.5654886968
 20
98.9854009387
  0
VERTEX
  8
0
 62
7
  6
CONTINUOUS
 10
368.7102473498
 20
99.1568308305
  0
VERTEX
  8
0
 62
7
  6
CONTINUOUS
 10
368.8451664627
 20
99.3361081381
  0
VERTEX
  8
0
 62
7
  6
CONTINUOUS
 10
368.9698214903
 20
99.5226688232
  0
VERTEX
  8
0
 62
7
  6
CONTINUOUS
 10
369.0838201673
 20
99.7159259085
  0
VERTEX
  8
0
 62
7
  6
CONTINUOUS
 10
369.1868037319
 20
99.9152712889
  0
VERTEX
  8
0
 62
7
  6
CONTINUOUS
 10
369.278448114
 20
100.1200777425
  0
VERTEX
  8
0
 62
7
  6
CONTINUOUS
 10
369.3584649696
 20
100.3297009921
  0
VERTEX
  8
0
 62
7
  6
CONTINUOUS
 10
369.4266024625
 20
100.5434814369
  0
VERTEX
  8
0
 62
7
  6
CONTINUOUS
 10
369.4826460789
 20
100.7607460979
  0
VERTEX
  8
0
 62
7
  6
CONTINUOUS
 10
369.5264195222
 20
100.98081153
  0
VERTEX
  8
0
 62
7
  6
CONTINUOUS
 10
369.534530409
 20
101.0304358064
  0
SEQEND
  0
POLYLINE
  8
0
 62
7
  6
CONTINUOUS
 66
1
 70
0
  0
VERTEX
  8
0
 62
7
  6
CONTINUOUS
 10
367.7898153347
 20
98.2164549872
  0
VERTEX
  8
0
 62
7
  6
CONTINUOUS
 10
367.8976024674
 20
98.2884765287
  0
VERTEX
  8
0
 62
7
  6
CONTINUOUS
 10
368.0768766828
 20
98.423395123
  0
VERTEX
  8
0
 62
7
  6
CONTINUOUS
 10
368.2483043317
 20
98.5681538226
  0
VERTEX
  8
0
 62
7
  6
CONTINUOUS
 10
368.4113460125
 20
98.7222972107
  0
VERTEX
  8
0
 62
7
  6
CONTINUOUS
 10
368.5654886968
 20
98.8853403327
  0
VERTEX
  8
0
 62
7
  6
CONTINUOUS
 10
368.7102473498
 20
99.0567702245
  0
VERTEX
  8
0
 62
7
  6
CONTINUOUS
 10
368.8451664627
 20
99.2360475321
  0
VERTEX
  8
0
 62
7
  6
CONTINUOUS
 10
368.9698214903
 20
99.4226082171
  0
VERTEX
  8
0
 62
7
  6
CONTINUOUS
 10
369.0838201673
 20
99.6158653024
  0
VERTEX
  8
0
 62
7
  6
CONTINUOUS
 10
369.1868037319
 20
99.8152106829
  0
VERTEX
  8
0
 62
7
  6
CONTINUOUS
 10
369.278448114
 20
100.0200171364
  0
VERTEX
  8
0
 62
7
  6
CONTINUOUS
 10
369.3584649696
 20
100.2296403861
  0
VERTEX
  8
0
 62
7
  6
CONTINUOUS
 10
369.4266024625
 20
100.4434208309
  0
VERTEX
  8
0
 62
7
  6
CONTINUOUS
 10
369.4826460789
 20
100.6606854918
  0
VERTEX
  8
0
 62
7
  6
CONTINUOUS
 10
369.5264195222
 20
100.8807509239
  0
VERTEX
  8
0
 62
7
  6
CONTINUOUS
 10
369.5345304093
 20
100.9303752023
  0
SEQEND
  0
POLYLINE
  8
0
 62
7
  6
CONTINUOUS
 66
1
 70
0
  0
VERTEX
  8
0
 62
7
  6
CONTINUOUS
 10
367.696168314
 20
98.0559026312
  0
VERTEX
  8
0
 62
7
  6
CONTINUOUS
 10
367.7571351714
 20
98.0931437197
  0
VERTEX
  8
0
 62
7
  6
CONTINUOUS
 10
367.930771545
 20
98.2121873714
  0
VERTEX
  8
0
 62
7
  6
CONTINUOUS
 10
368.0979059405
 20
98.3402031237
  0
VERTEX
  8
0
 62
7
  6
CONTINUOUS
 10
368.2580748593
 20
98.4768363227
  0
VERTEX
  8
0
 62
7
  6
CONTINUOUS
 10
368.4108340842
 20
98.621708303
  0
VERTEX
  8
0
 62
7
  6
CONTINUOUS
 10
368.5557599299
 20
98.7744174212
  0
VERTEX
  8
0
 62
7
  6
CONTINUOUS
 10
368.6924505041
 20
98.9345402283
  0
VERTEX
  8
0
 62
7
  6
CONTINUOUS
 10
368.8205268659
 20
99.1016327139
  0
VERTEX
  8
0
 62
7
  6
CONTINUOUS
 10
368.939634056
 20
99.2752315412
  0
VERTEX
  8
0
 62
7
  6
CONTINUOUS
 10
369.0494420519
 20
99.454855306
  0
VERTEX
  8
0
 62
7
  6
CONTINUOUS
 10
369.149646674
 20
99.6400058555
  0
VERTEX
  8
0
 62
7
  6
CONTINUOUS
 10
369.2399703814
 20
99.8301695443
  0
VERTEX
  8
0
 62
7
  6
CONTINUOUS
 10
369.3201631281
 20
100.0248187675
  0
VERTEX
  8
0
 62
7
  6
CONTINUOUS
 10
369.3900030846
 20
100.2234134562
  0
VERTEX
  8
0
 62
7
  6
CONTINUOUS
 10
369.4492971305
 20
100.4254021589
  0
VERTEX
  8
0
 62
7
  6
CONTINUOUS
 10
369.4978815295
 20
100.6302234309
  0
VERTEX
  8
0
 62
7
  6
CONTINUOUS
 10
369.5345307089
 20
100.8303131947
  0
SEQEND
  0
POLYLINE
  8
0
 62
7
  6
CONTINUOUS
 66
1
 70
0
  0
VERTEX
  8
0
 62
7
  6
CONTINUOUS
 10
367.6952890031
 20
98.0544671457
  0
VERTEX
  8
0
 62
7
  6
CONTINUOUS
 10
367.7110457525
 20
98.0637618769
  0
VERTEX
  8
0
 62
7
  6
CONTINUOUS
 10
367.8976024674
 20
98.1884159227
  0
VERTEX
  8
0
 62
7
  6
CONTINUOUS
 10
368.0768766828
 20
98.323334517
  0
VERTEX
  8
0
 62
7
  6
CONTINUOUS
 10
368.2483043317
 20
98.4680932165
  0
VERTEX
  8
0
 62
7
  6
CONTINUOUS
 10
368.4113460125
 20
98.6222366046
  0
VERTEX
  8
0
 62
7
  6
CONTINUOUS
 10
368.5654886968
 20
98.7852797266
  0
VERTEX
  8
0
 62
7
  6
CONTINUOUS
 10
368.7102473498
 20
98.9567096184
  0
VERTEX
  8
0
 62
7
  6
CONTINUOUS
 10
368.8451664627
 20
99.135986926
  0
VERTEX
  8
0
 62
7
  6
CONTINUOUS
 10
368.9698214903
 20
99.3225476111
  0
VERTEX
  8
0
 62
7
  6
CONTINUOUS
 10
369.0838201673
 20
99.5158046964
  0
VERTEX
  8
0
 62
7
  6
CONTINUOUS
 10
369.1868037319
 20
99.7151500768
  0
VERTEX
  8
0
 62
7
  6
CONTINUOUS
 10
369.278448114
 20
99.9199565304
  0
VERTEX
  8
0
 62
7
  6
CONTINUOUS
 10
369.3584649696
 20
100.12957978
  0
VERTEX
  8
0
 62
7
  6
CONTINUOUS
 10
369.4266024625
 20
100.3433602248
  0
VERTEX
  8
0
 62
7
  6
CONTINUOUS
 10
369.4826460789
 20
100.5606248858
  0
VERTEX
  8
0
 62
7
  6
CONTINUOUS
 10
369.5264195222
 20
100.7806903179
  0
VERTEX
  8
0
 62
7
  6
CONTINUOUS
 10
369.5345304092
 20
100.8303145953
  0
SEQEND
  0
POLYLINE
  8
0
 62
7
  6
CONTINUOUS
 66
1
 70
0
  0
VERTEX
  8
0
 62
7
  6
CONTINUOUS
 10
361.5607493991
 20
131.0757407011
  0
VERTEX
  8
0
 62
7
  6
CONTINUOUS
 10
361.520876418
 20
131.0753590213
  0
VERTEX
  8
0
 62
7
  6
CONTINUOUS
 10
361.4805502619
 20
131.0746034434
  0
VERTEX
  8
0
 62
7
  6
CONTINUOUS
 10
361.4399285945
 20
131.0734628291
  0
VERTEX
  8
0
 62
7
  6
CONTINUOUS
 10
361.3989809047
 20
131.0719228875
  0
VERTEX
  8
0
 62
7
  6
CONTINUOUS
 10
361.3575997826
 20
131.0699636017
  0
VERTEX
  8
0
 62
7
  6
CONTINUOUS
 10
361.3155864511
 20
131.06755483
  0
VERTEX
  8
0
 62
7
  6
CONTINUOUS
 10
361.2727292316
 20
131.0646572547
  0
VERTEX
  8
0
 62
7
  6
CONTINUOUS
 10
361.2288587938
 20
131.0612258479
  0
VERTEX
  8
0
 62
7
  6
CONTINUOUS
 10
361.1838729692
 20
131.0572139169
  0
VERTEX
  8
0
 62
7
  6
CONTINUOUS
 10
361.1376909934
 20
131.0525714942
  0
VERTEX
  8
0
 62
7
  6
CONTINUOUS
 10
361.0902332506
 20
131.0472437583
  0
VERTEX
  8
0
 62
7
  6
CONTINUOUS
 10
361.0413979816
 20
131.0411674729
  0
VERTEX
  8
0
 62
7
  6
CONTINUOUS
 10
360.9910903791
 20
131.0342734145
  0
VERTEX
  8
0
 62
7
  6
CONTINUOUS
 10
360.9392282604
 20
131.0264871975
  0
VERTEX
  8
0
 62
7
  6
CONTINUOUS
 10
360.8857435723
 20
131.0177296592
  0
VERTEX
  8
0
 62
7
  6
CONTINUOUS
 10
360.8305809084
 20
131.0079168466
  0
VERTEX
  8
0
 62
7
  6
CONTINUOUS
 10
360.7736914792
 20
130.9969594266
  0
VERTEX
  8
0
 62
7
  6
CONTINUOUS
 10
360.7150553841
 20
130.984767263
  0
VERTEX
  8
0
 62
7
  6
CONTINUOUS
 10
360.6548043341
 20
130.9712794018
  0
VERTEX
  8
0
 62
7
  6
CONTINUOUS
 10
360.5931424871
 20
130.9564571741
  0
VERTEX
  8
0
 62
7
  6
CONTINUOUS
 10
360.5302788738
 20
130.9402722441
  0
VERTEX
  8
0
 62
7
  6
CONTINUOUS
 10
360.466420256
 20
130.9227064434
  0
VERTEX
  8
0
 62
7
  6
CONTINUOUS
 10
360.4017766668
 20
130.9037534789
  0
VERTEX
  8
0
 62
7
  6
CONTINUOUS
 10
360.3362321295
 20
130.8833146084
  0
VERTEX
  8
0
 62
7
  6
CONTINUOUS
 10
360.2690104277
 20
130.8610532867
  0
VERTEX
  8
0
 62
7
  6
CONTINUOUS
 10
360.1992665482
 20
130.8365403913
  0
VERTEX
  8
0
 62
7
  6
CONTINUOUS
 10
360.1261825613
 20
130.8092741797
  0
VERTEX
  8
0
 62
7
  6
CONTINUOUS
 10
360.049001889
 20
130.7786851261
  0
VERTEX
  8
0
 62
7
  6
CONTINUOUS
 10
359.9683616458
 20
130.7447051114
  0
VERTEX
  8
0
 62
7
  6
CONTINUOUS
 10
359.8852683432
 20
130.7074708439
  0
VERTEX
  8
0
 62
7
  6
CONTINUOUS
 10
359.7999876217
 20
130.6668378765
  0
VERTEX
  8
0
 62
7
  6
CONTINUOUS
 10
359.7127814247
 20
130.6226658214
  0
VERTEX
  8
0
 62
7
  6
CONTINUOUS
 10
359.623917279
 20
130.5748213061
  0
VERTEX
  8
0
 62
7
  6
CONTINUOUS
 10
359.5336713274
 20
130.5231829803
  0
VERTEX
  8
0
 62
7
  6
CONTINUOUS
 10
359.4423219512
 20
130.4676378609
  0
VERTEX
  8
0
 62
7
  6
CONTINUOUS
 10
359.3501586896
 20
130.4080888756
  0
VERTEX
  8
0
 62
7
  6
CONTINUOUS
 10
359.2574715875
 20
130.3444498075
  0
VERTEX
  8
0
 62
7
  6
CONTINUOUS
 10
359.1645617685
 20
130.2766533444
  0
VERTEX
  8
0
 62
7
  6
CONTINUOUS
 10
359.0717293755
 20
130.2046456449
  0
VERTEX
  8
0
 62
7
  6
CONTINUOUS
 10
358.9792840918
 20
130.1283948601
  0
VERTEX
  8
0
 62
7
  6
CONTINUOUS
 10
358.8875334749
 20
130.047884563
  0
VERTEX
  8
0
 62
7
  6
CONTINUOUS
 10
358.7967914568
 20
129.9631230381
  0
SEQEND
  0
POLYLINE
  8
0
 62
7
  6
CONTINUOUS
 66
1
 70
0
  0
VERTEX
  8
0
 62
7
  6
CONTINUOUS
 10
361.5607493991
 20
131.1758013071
  0
VERTEX
  8
0
 62
7
  6
CONTINUOUS
 10
361.520876418
 20
131.1754196273
  0
VERTEX
  8
0
 62
7
  6
CONTINUOUS
 10
361.4805502619
 20
131.1746640495
  0
VERTEX
  8
0
 62
7
  6
CONTINUOUS
 10
361.4399285945
 20
131.1735234351
  0
VERTEX
  8
0
 62
7
  6
CONTINUOUS
 10
361.3989809047
 20
131.1719834936
  0
VERTEX
  8
0
 62
7
  6
CONTINUOUS
 10
361.3575997826
 20
131.1700242078
  0
VERTEX
  8
0
 62
7
  6
CONTINUOUS
 10
361.3155864511
 20
131.1676154361
  0
VERTEX
  8
0
 62
7
  6
CONTINUOUS
 10
361.2727292316
 20
131.1647178608
  0
VERTEX
  8
0
 62
7
  6
CONTINUOUS
 10
361.2288587938
 20
131.1612864539
  0
VERTEX
  8
0
 62
7
  6
CONTINUOUS
 10
361.1838729692
 20
131.157274523
  0
VERTEX
  8
0
 62
7
  6
CONTINUOUS
 10
361.1376909934
 20
131.1526321003
  0
VERTEX
  8
0
 62
7
  6
CONTINUOUS
 10
361.0902332506
 20
131.1473043644
  0
VERTEX
  8
0
 62
7
  6
CONTINUOUS
 10
361.0413979816
 20
131.141228079
  0
VERTEX
  8
0
 62
7
  6
CONTINUOUS
 10
360.9910903791
 20
131.1343340206
  0
VERTEX
  8
0
 62
7
  6
CONTINUOUS
 10
360.9392282604
 20
131.1265478036
  0
VERTEX
  8
0
 62
7
  6
CONTINUOUS
 10
360.8857435723
 20
131.1177902653
  0
VERTEX
  8
0
 62
7
  6
CONTINUOUS
 10
360.8305809084
 20
131.1079774526
  0
VERTEX
  8
0
 62
7
  6
CONTINUOUS
 10
360.7736914792
 20
131.0970200327
  0
VERTEX
  8
0
 62
7
  6
CONTINUOUS
 10
360.7150553841
 20
131.084827869
  0
VERTEX
  8
0
 62
7
  6
CONTINUOUS
 10
360.6548043341
 20
131.0713400079
  0
VERTEX
  8
0
 62
7
  6
CONTINUOUS
 10
360.5931424871
 20
131.0565177802
  0
VERTEX
  8
0
 62
7
  6
CONTINUOUS
 10
360.5302788738
 20
131.0403328502
  0
VERTEX
  8
0
 62
7
  6
CONTINUOUS
 10
360.466420256
 20
131.0227670495
  0
VERTEX
  8
0
 62
7
  6
CONTINUOUS
 10
360.4017766668
 20
131.003814085
  0
VERTEX
  8
0
 62
7
  6
CONTINUOUS
 10
360.3362321295
 20
130.9833752145
  0
VERTEX
  8
0
 62
7
  6
CONTINUOUS
 10
360.2690104277
 20
130.9611138928
  0
VERTEX
  8
0
 62
7
  6
CONTINUOUS
 10
360.1992665482
 20
130.9366009973
  0
VERTEX
  8
0
 62
7
  6
CONTINUOUS
 10
360.1261825613
 20
130.9093347857
  0
VERTEX
  8
0
 62
7
  6
CONTINUOUS
 10
360.049001889
 20
130.8787457321
  0
VERTEX
  8
0
 62
7
  6
CONTINUOUS
 10
359.9683616458
 20
130.8447657174
  0
VERTEX
  8
0
 62
7
  6
CONTINUOUS
 10
359.8852683432
 20
130.80753145
  0
VERTEX
  8
0
 62
7
  6
CONTINUOUS
 10
359.7999876217
 20
130.7668984826
  0
VERTEX
  8
0
 62
7
  6
CONTINUOUS
 10
359.7127814247
 20
130.7227264275
  0
VERTEX
  8
0
 62
7
  6
CONTINUOUS
 10
359.623917279
 20
130.6748819121
  0
VERTEX
  8
0
 62
7
  6
CONTINUOUS
 10
359.5336713274
 20
130.6232435864
  0
VERTEX
  8
0
 62
7
  6
CONTINUOUS
 10
359.4423219512
 20
130.5676984669
  0
VERTEX
  8
0
 62
7
  6
CONTINUOUS
 10
359.3501586896
 20
130.5081494817
  0
VERTEX
  8
0
 62
7
  6
CONTINUOUS
 10
359.2574715875
 20
130.4445104136
  0
VERTEX
  8
0
 62
7
  6
CONTINUOUS
 10
359.1645617685
 20
130.3767139505
  0
VERTEX
  8
0
 62
7
  6
CONTINUOUS
 10
359.0717293755
 20
130.304706251
  0
VERTEX
  8
0
 62
7
  6
CONTINUOUS
 10
358.9792840918
 20
130.2284554662
  0
VERTEX
  8
0
 62
7
  6
CONTINUOUS
 10
358.8875334749
 20
130.147945169
  0
VERTEX
  8
0
 62
7
  6
CONTINUOUS
 10
358.7967914568
 20
130.0631836442
  0
SEQEND
  0
POLYLINE
  8
0
 62
7
  6
CONTINUOUS
 66
1
 70
0
  0
VERTEX
  8
0
 62
7
  6
CONTINUOUS
 10
361.5607493991
 20
131.2758619132
  0
VERTEX
  8
0
 62
7
  6
CONTINUOUS
 10
361.520876418
 20
131.2754802334
  0
VERTEX
  8
0
 62
7
  6
CONTINUOUS
 10
361.4805502619
 20
131.2747246555
  0
VERTEX
  8
0
 62
7
  6
CONTINUOUS
 10
361.4399285945
 20
131.2735840412
  0
VERTEX
  8
0
 62
7
  6
CONTINUOUS
 10
361.3989809047
 20
131.2720440996
  0
VERTEX
  8
0
 62
7
  6
CONTINUOUS
 10
361.3575997826
 20
131.2700848138
  0
VERTEX
  8
0
 62
7
  6
CONTINUOUS
 10
361.3155864511
 20
131.2676760422
  0
VERTEX
  8
0
 62
7
  6
CONTINUOUS
 10
361.2727292316
 20
131.2647784668
  0
VERTEX
  8
0
 62
7
  6
CONTINUOUS
 10
361.2288587938
 20
131.26134706
  0
VERTEX
  8
0
 62
7
  6
CONTINUOUS
 10
361.1838729692
 20
131.257335129
  0
VERTEX
  8
0
 62
7
  6
CONTINUOUS
 10
361.1376909934
 20
131.2526927064
  0
VERTEX
  8
0
 62
7
  6
CONTINUOUS
 10
361.0902332506
 20
131.2473649704
  0
VERTEX
  8
0
 62
7
  6
CONTINUOUS
 10
361.0413979816
 20
131.241288685
  0
VERTEX
  8
0
 62
7
  6
CONTINUOUS
 10
360.9910903791
 20
131.2343946267
  0
VERTEX
  8
0
 62
7
  6
CONTINUOUS
 10
360.9392282604
 20
131.2266084096
  0
VERTEX
  8
0
 62
7
  6
CONTINUOUS
 10
360.8857435723
 20
131.2178508713
  0
VERTEX
  8
0
 62
7
  6
CONTINUOUS
 10
360.8305809084
 20
131.2080380587
  0
VERTEX
  8
0
 62
7
  6
CONTINUOUS
 10
360.7736914792
 20
131.1970806387
  0
VERTEX
  8
0
 62
7
  6
CONTINUOUS
 10
360.7150553841
 20
131.1848884751
  0
VERTEX
  8
0
 62
7
  6
CONTINUOUS
 10
360.6548043341
 20
131.171400614
  0
VERTEX
  8
0
 62
7
  6
CONTINUOUS
 10
360.5931424871
 20
131.1565783862
  0
VERTEX
  8
0
 62
7
  6
CONTINUOUS
 10
360.5302788738
 20
131.1403934562
  0
VERTEX
  8
0
 62
7
  6
CONTINUOUS
 10
360.466420256
 20
131.1228276555
  0
VERTEX
  8
0
 62
7
  6
CONTINUOUS
 10
360.4017766668
 20
131.103874691
  0
VERTEX
  8
0
 62
7
  6
CONTINUOUS
 10
360.3362321295
 20
131.0834358206
  0
VERTEX
  8
0
 62
7
  6
CONTINUOUS
 10
360.2690104277
 20
131.0611744988
  0
VERTEX
  8
0
 62
7
  6
CONTINUOUS
 10
360.1992665482
 20
131.0366616034
  0
VERTEX
  8
0
 62
7
  6
CONTINUOUS
 10
360.1261825613
 20
131.0093953918
  0
VERTEX
  8
0
 62
7
  6
CONTINUOUS
 10
360.049001889
 20
130.9788063382
  0
VERTEX
  8
0
 62
7
  6
CONTINUOUS
 10
359.9683616458
 20
130.9448263235
  0
VERTEX
  8
0
 62
7
  6
CONTINUOUS
 10
359.8852683432
 20
130.9075920561
  0
VERTEX
  8
0
 62
7
  6
CONTINUOUS
 10
359.7999876217
 20
130.8669590886
  0
VERTEX
  8
0
 62
7
  6
CONTINUOUS
 10
359.7127814247
 20
130.8227870335
  0
VERTEX
  8
0
 62
7
  6
CONTINUOUS
 10
359.623917279
 20
130.7749425182
  0
VERTEX
  8
0
 62
7
  6
CONTINUOUS
 10
359.5336713274
 20
130.7233041925
  0
VERTEX
  8
0
 62
7
  6
CONTINUOUS
 10
359.4423219512
 20
130.667759073
  0
VERTEX
  8
0
 62
7
  6
CONTINUOUS
 10
359.3501586896
 20
130.6082100878
  0
VERTEX
  8
0
 62
7
  6
CONTINUOUS
 10
359.2574715875
 20
130.5445710197
  0
VERTEX
  8
0
 62
7
  6
CONTINUOUS
 10
359.1645617685
 20
130.4767745565
  0
VERTEX
  8
0
 62
7
  6
CONTINUOUS
 10
359.0717293755
 20
130.4047668571
  0
VERTEX
  8
0
 62
7
  6
CONTINUOUS
 10
358.9792840918
 20
130.3285160723
  0
VERTEX
  8
0
 62
7
  6
CONTINUOUS
 10
358.8875334749
 20
130.2480057751
  0
VERTEX
  8
0
 62
7
  6
CONTINUOUS
 10
358.7967914568
 20
130.1632442502
  0
SEQEND
  0
POLYLINE
  8
0
 62
7
  6
CONTINUOUS
 66
1
 70
0
  0
VERTEX
  8
0
 62
7
  6
CONTINUOUS
 10
361.5607493991
 20
131.3759225193
  0
VERTEX
  8
0
 62
7
  6
CONTINUOUS
 10
361.520876418
 20
131.3755408395
  0
VERTEX
  8
0
 62
7
  6
CONTINUOUS
 10
361.4805502619
 20
131.3747852616
  0
VERTEX
  8
0
 62
7
  6
CONTINUOUS
 10
361.4399285945
 20
131.3736446473
  0
VERTEX
  8
0
 62
7
  6
CONTINUOUS
 10
361.3989809047
 20
131.3721047057
  0
VERTEX
  8
0
 62
7
  6
CONTINUOUS
 10
361.3575997826
 20
131.3701454199
  0
VERTEX
  8
0
 62
7
  6
CONTINUOUS
 10
361.3155864511
 20
131.3677366482
  0
VERTEX
  8
0
 62
7
  6
CONTINUOUS
 10
361.2727292316
 20
131.3648390729
  0
VERTEX
  8
0
 62
7
  6
CONTINUOUS
 10
361.2288587938
 20
131.3614076661
  0
VERTEX
  8
0
 62
7
  6
CONTINUOUS
 10
361.1838729692
 20
131.3573957351
  0
VERTEX
  8
0
 62
7
  6
CONTINUOUS
 10
361.1376909934
 20
131.3527533124
  0
VERTEX
  8
0
 62
7
  6
CONTINUOUS
 10
361.0902332506
 20
131.3474255765
  0
VERTEX
  8
0
 62
7
  6
CONTINUOUS
 10
361.0413979816
 20
131.3413492911
  0
VERTEX
  8
0
 62
7
  6
CONTINUOUS
 10
360.9910903791
 20
131.3344552327
  0
VERTEX
  8
0
 62
7
  6
CONTINUOUS
 10
360.9392282604
 20
131.3266690157
  0
VERTEX
  8
0
 62
7
  6
CONTINUOUS
 10
360.8857435723
 20
131.3179114774
  0
VERTEX
  8
0
 62
7
  6
CONTINUOUS
 10
360.8305809084
 20
131.3080986647
  0
VERTEX
  8
0
 62
7
  6
CONTINUOUS
 10
360.7736914792
 20
131.2971412448
  0
VERTEX
  8
0
 62
7
  6
CONTINUOUS
 10
360.7150553841
 20
131.2849490812
  0
VERTEX
  8
0
 62
7
  6
CONTINUOUS
 10
360.6548043341
 20
131.27146122
  0
VERTEX
  8
0
 62
7
  6
CONTINUOUS
 10
360.5931424871
 20
131.2566389923
  0
VERTEX
  8
0
 62
7
  6
CONTINUOUS
 10
360.5302788738
 20
131.2404540623
  0
VERTEX
  8
0
 62
7
  6
CONTINUOUS
 10
360.466420256
 20
131.2228882616
  0
VERTEX
  8
0
 62
7
  6
CONTINUOUS
 10
360.4017766668
 20
131.2039352971
  0
VERTEX
  8
0
 62
7
  6
CONTINUOUS
 10
360.3362321295
 20
131.1834964266
  0
VERTEX
  8
0
 62
7
  6
CONTINUOUS
 10
360.2690104277
 20
131.1612351049
  0
VERTEX
  8
0
 62
7
  6
CONTINUOUS
 10
360.1992665482
 20
131.1367222095
  0
VERTEX
  8
0
 62
7
  6
CONTINUOUS
 10
360.1261825613
 20
131.1094559979
  0
VERTEX
  8
0
 62
7
  6
CONTINUOUS
 10
360.049001889
 20
131.0788669442
  0
VERTEX
  8
0
 62
7
  6
CONTINUOUS
 10
359.9683616458
 20
131.0448869296
  0
VERTEX
  8
0
 62
7
  6
CONTINUOUS
 10
359.8852683432
 20
131.0076526621
  0
VERTEX
  8
0
 62
7
  6
CONTINUOUS
 10
359.7999876217
 20
130.9670196947
  0
VERTEX
  8
0
 62
7
  6
CONTINUOUS
 10
359.7127814247
 20
130.9228476396
  0
VERTEX
  8
0
 62
7
  6
CONTINUOUS
 10
359.623917279
 20
130.8750031243
  0
VERTEX
  8
0
 62
7
  6
CONTINUOUS
 10
359.5336713274
 20
130.8233647985
  0
VERTEX
  8
0
 62
7
  6
CONTINUOUS
 10
359.4423219512
 20
130.7678196791
  0
VERTEX
  8
0
 62
7
  6
CONTINUOUS
 10
359.3501586896
 20
130.7082706938
  0
VERTEX
  8
0
 62
7
  6
CONTINUOUS
 10
359.2574715875
 20
130.6446316257
  0
VERTEX
  8
0
 62
7
  6
CONTINUOUS
 10
359.1645617685
 20
130.5768351626
  0
VERTEX
  8
0
 62
7
  6
CONTINUOUS
 10
359.0717293755
 20
130.5048274631
  0
VERTEX
  8
0
 62
7
  6
CONTINUOUS
 10
358.9792840918
 20
130.4285766783
  0
VERTEX
  8
0
 62
7
  6
CONTINUOUS
 10
358.8875334749
 20
130.3480663812
  0
VERTEX
  8
0
 62
7
  6
CONTINUOUS
 10
358.7967914568
 20
130.2633048563
  0
SEQEND
  0
POLYLINE
  8
0
 62
7
  6
CONTINUOUS
 66
1
 70
0
  0
VERTEX
  8
0
 62
7
  6
CONTINUOUS
 10
361.5607493991
 20
131.4759831253
  0
VERTEX
  8
0
 62
7
  6
CONTINUOUS
 10
361.520876418
 20
131.4756014455
  0
VERTEX
  8
0
 62
7
  6
CONTINUOUS
 10
361.4805502619
 20
131.4748458677
  0
VERTEX
  8
0
 62
7
  6
CONTINUOUS
 10
361.4399285945
 20
131.4737052533
  0
VERTEX
  8
0
 62
7
  6
CONTINUOUS
 10
361.3989809047
 20
131.4721653118
  0
VERTEX
  8
0
 62
7
  6
CONTINUOUS
 10
361.3575997826
 20
131.4702060259
  0
VERTEX
  8
0
 62
7
  6
CONTINUOUS
 10
361.3155864511
 20
131.4677972543
  0
VERTEX
  8
0
 62
7
  6
CONTINUOUS
 10
361.2727292316
 20
131.464899679
  0
VERTEX
  8
0
 62
7
  6
CONTINUOUS
 10
361.2288587938
 20
131.4614682721
  0
VERTEX
  8
0
 62
7
  6
CONTINUOUS
 10
361.1838729692
 20
131.4574563411
  0
VERTEX
  8
0
 62
7
  6
CONTINUOUS
 10
361.1376909934
 20
131.4528139185
  0
VERTEX
  8
0
 62
7
  6
CONTINUOUS
 10
361.0902332506
 20
131.4474861826
  0
VERTEX
  8
0
 62
7
  6
CONTINUOUS
 10
361.0413979816
 20
131.4414098971
  0
VERTEX
  8
0
 62
7
  6
CONTINUOUS
 10
360.9910903791
 20
131.4345158388
  0
VERTEX
  8
0
 62
7
  6
CONTINUOUS
 10
360.9392282604
 20
131.4267296218
  0
VERTEX
  8
0
 62
7
  6
CONTINUOUS
 10
360.8857435723
 20
131.4179720834
  0
VERTEX
  8
0
 62
7
  6
CONTINUOUS
 10
360.8305809084
 20
131.4081592708
  0
VERTEX
  8
0
 62
7
  6
CONTINUOUS
 10
360.7736914792
 20
131.3972018509
  0
VERTEX
  8
0
 62
7
  6
CONTINUOUS
 10
360.7150553841
 20
131.3850096872
  0
VERTEX
  8
0
 62
7
  6
CONTINUOUS
 10
360.6548043341
 20
131.3715218261
  0
VERTEX
  8
0
 62
7
  6
CONTINUOUS
 10
360.5931424871
 20
131.3566995983
  0
VERTEX
  8
0
 62
7
  6
CONTINUOUS
 10
360.5302788738
 20
131.3405146683
  0
VERTEX
  8
0
 62
7
  6
CONTINUOUS
 10
360.466420256
 20
131.3229488676
  0
VERTEX
  8
0
 62
7
  6
CONTINUOUS
 10
360.4017766668
 20
131.3039959031
  0
VERTEX
  8
0
 62
7
  6
CONTINUOUS
 10
360.3362321295
 20
131.2835570327
  0
VERTEX
  8
0
 62
7
  6
CONTINUOUS
 10
360.2690104277
 20
131.261295711
  0
VERTEX
  8
0
 62
7
  6
CONTINUOUS
 10
360.1992665482
 20
131.2367828155
  0
VERTEX
  8
0
 62
7
  6
CONTINUOUS
 10
360.1261825613
 20
131.2095166039
  0
VERTEX
  8
0
 62
7
  6
CONTINUOUS
 10
360.049001889
 20
131.1789275503
  0
VERTEX
  8
0
 62
7
  6
CONTINUOUS
 10
359.9683616458
 20
131.1449475356
  0
VERTEX
  8
0
 62
7
  6
CONTINUOUS
 10
359.8852683432
 20
131.1077132682
  0
VERTEX
  8
0
 62
7
  6
CONTINUOUS
 10
359.7999876217
 20
131.0670803007
  0
VERTEX
  8
0
 62
7
  6
CONTINUOUS
 10
359.7127814247
 20
131.0229082456
  0
VERTEX
  8
0
 62
7
  6
CONTINUOUS
 10
359.623917279
 20
130.9750637303
  0
VERTEX
  8
0
 62
7
  6
CONTINUOUS
 10
359.5336713274
 20
130.9234254046
  0
VERTEX
  8
0
 62
7
  6
CONTINUOUS
 10
359.4423219512
 20
130.8678802851
  0
VERTEX
  8
0
 62
7
  6
CONTINUOUS
 10
359.3501586896
 20
130.8083312999
  0
VERTEX
  8
0
 62
7
  6
CONTINUOUS
 10
359.2574715875
 20
130.7446922318
  0
VERTEX
  8
0
 62
7
  6
CONTINUOUS
 10
359.1645617685
 20
130.6768957687
  0
VERTEX
  8
0
 62
7
  6
CONTINUOUS
 10
359.0717293755
 20
130.6048880692
  0
VERTEX
  8
0
 62
7
  6
CONTINUOUS
 10
358.9792840918
 20
130.5286372844
  0
VERTEX
  8
0
 62
7
  6
CONTINUOUS
 10
358.8875334749
 20
130.4481269872
  0
VERTEX
  8
0
 62
7
  6
CONTINUOUS
 10
358.7967914568
 20
130.3633654624
  0
SEQEND
  0
LINE
  8
0
 62
7
  6
CONTINUOUS
 10
361.5829368704
 20
131.0226427336
 11
363.9604272813
 21
131.0226427336
  0
LINE
  8
0
 62
7
  6
CONTINUOUS
 10
365.5829368704
 20
131.0757965864
 11
361.5607493991
 21
131.0757407011
  0
LINE
  8
0
 62
7
  6
CONTINUOUS
 10
365.5829368704
 20
131.1758571925
 11
361.5607493991
 21
131.1758013071
  0
LINE
  8
0
 62
7
  6
CONTINUOUS
 10
365.5829368704
 20
131.2759177985
 11
361.5607493991
 21
131.2758619132
  0
LINE
  8
0
 62
7
  6
CONTINUOUS
 10
365.5829368704
 20
131.3759784046
 11
361.5607493991
 21
131.3759225193
  0
LINE
  8
0
 62
7
  6
CONTINUOUS
 10
365.5829368704
 20
131.4760390107
 11
361.5607493991
 21
131.4759831253
  0
LINE
  8
0
 62
7
  6
CONTINUOUS
 10
361.5829368704
 20
131.5226427336
 11
365.5829368704
 21
131.5226427336
  0
POLYLINE
  8
0
 62
7
  6
CONTINUOUS
 66
1
 70
0
  0
VERTEX
  8
0
 62
7
  6
CONTINUOUS
 10
26.766892592
 20
191.4262282631
  0
VERTEX
  8
0
 62
7
  6
CONTINUOUS
 10
26.7677112357
 20
191.268794562
  0
VERTEX
  8
0
 62
7
  6
CONTINUOUS
 10
26.7680009999
 20
191.1108327805
  0
VERTEX
  8
0
 62
7
  6
CONTINUOUS
 10
26.767711243
 20
190.952877044
  0
VERTEX
  8
0
 62
7
  6
CONTINUOUS
 10
26.7668925379
 20
190.795433165
  0
SEQEND
  0
POLYLINE
  8
0
 62
7
  6
CONTINUOUS
 66
1
 70
0
  0
VERTEX
  8
0
 62
7
  6
CONTINUOUS
 10
26.7627793673
 20
192.0393530116
  0
VERTEX
  8
0
 62
7
  6
CONTINUOUS
 10
26.7632570248
 20
191.8897886684
  0
VERTEX
  8
0
 62
7
  6
CONTINUOUS
 10
26.766892592
 20
191.4262282631
  0
SEQEND
  0
LINE
  8
0
 62
7
  6
CONTINUOUS
 10
26.7627793673
 20
185.3108347943
 11
26.7627793673
 21
190.1823165769
  0
LINE
  8
0
 62
7
  6
CONTINUOUS
 10
26.7627793673
 20
190.1968590957
 11
26.7627793673
 21
192.0248104928
  0
LINE
  8
0
 62
7
  6
CONTINUOUS
 10
26.7627793673
 20
192.0393530116
 11
26.7627793673
 21
195.9590143891
  0
LINE
  8
0
 62
7
  6
CONTINUOUS
 10
26.7632570219
 20
190.3318804219
 11
26.7627793673
 21
190.1823165769
  0
LINE
  8
0
 62
7
  6
CONTINUOUS
 10
26.7668925379
 20
190.795433165
 11
26.7632570219
 21
190.3318804219
  0
LINE
  8
0
 62
7
  6
CONTINUOUS
 10
32.4127793673
 20
185.3108347943
 11
32.4127793673
 21
196.910834795
  0
LINE
  8
0
 62
7
  6
CONTINUOUS
 10
32.4132637313
 20
196.0074580499
 11
32.4128287259
 21
195.9446984315
  0
LINE
  8
0
 62
7
  6
CONTINUOUS
 10
32.4137341545
 20
196.038767913
 11
32.4131039552
 21
195.9886749692
  0
POLYLINE
  8
0
 62
7
  6
CONTINUOUS
 66
1
 70
0
  0
VERTEX
  8
0
 62
7
  6
CONTINUOUS
 10
32.4145691992
 20
196.0664529404
  0
VERTEX
  8
0
 62
7
  6
CONTINUOUS
 10
32.4158050415
 20
196.0995695048
  0
VERTEX
  8
0
 62
7
  6
CONTINUOUS
 10
32.4173538197
 20
196.1285293835
  0
VERTEX
  8
0
 62
7
  6
CONTINUOUS
 10
32.4191533467
 20
196.1532141673
  0
VERTEX
  8
0
 62
7
  6
CONTINUOUS
 10
32.4211090307
 20
196.1736347701
  0
VERTEX
  8
0
 62
7
  6
CONTINUOUS
 10
32.4231060872
 20
196.1899547789
  0
VERTEX
  8
0
 62
7
  6
CONTINUOUS
 10
32.4250006699
 20
196.2023271844
  0
VERTEX
  8
0
 62
7
  6
CONTINUOUS
 10
32.4266096821
 20
196.2108592215
  0
VERTEX
  8
0
 62
7
  6
CONTINUOUS
 10
32.4276943882
 20
196.2155970454
  0
VERTEX
  8
0
 62
7
  6
CONTINUOUS
 10
32.4279563852
 20
196.2165819276
  0
SEQEND
  0
POLYLINE
  8
0
 62
7
  6
CONTINUOUS
 66
1
 70
0
  0
VERTEX
  8
0
 62
7
  6
CONTINUOUS
 10
40.3474438329
 20
191.2603157928
  0
VERTEX
  8
0
 62
7
  6
CONTINUOUS
 10
40.3548293441
 20
191.1843498627
  0
VERTEX
  8
0
 62
7
  6
CONTINUOUS
 10
40.3571581484
 20
191.1078155232
  0
VERTEX
  8
0
 62
7
  6
CONTINUOUS
 10
40.354428392
 20
191.0312686331
  0
VERTEX
  8
0
 62
7
  6
CONTINUOUS
 10
40.3466412535
 20
190.9553680627
  0
VERTEX
  8
0
 62
7
  6
CONTINUOUS
 10
40.3338950029
 20
190.8811476002
  0
VERTEX
  8
0
 62
7
  6
CONTINUOUS
 10
40.3163989456
 20
190.8095345165
  0
VERTEX
  8
0
 62
7
  6
CONTINUOUS
 10
40.2943806642
 20
190.7411064458
  0
VERTEX
  8
0
 62
7
  6
CONTINUOUS
 10
40.2680835685
 20
190.6763118521
  0
VERTEX
  8
0
 62
7
  6
CONTINUOUS
 10
40.237899559
 20
190.6157501074
  0
VERTEX
  8
0
 62
7
  6
CONTINUOUS
 10
40.2041333073
 20
190.5596249404
  0
VERTEX
  8
0
 62
7
  6
CONTINUOUS
 10
40.1671203814
 20
190.5081102779
  0
VERTEX
  8
0
 62
7
  6
CONTINUOUS
 10
40.1272865422
 20
190.4613965966
  0
VERTEX
  8
0
 62
7
  6
CONTINUOUS
 10
40.0848079837
 20
190.419327447
  0
VERTEX
  8
0
 62
7
  6
CONTINUOUS
 10
40.0400050292
 20
190.3819168601
  0
VERTEX
  8
0
 62
7
  6
CONTINUOUS
 10
39.9933134574
 20
190.3492174563
  0
VERTEX
  8
0
 62
7
  6
CONTINUOUS
 10
39.9448112158
 20
190.3210161718
  0
VERTEX
  8
0
 62
7
  6
CONTINUOUS
 10
39.8947169641
 20
190.29724763
  0
VERTEX
  8
0
 62
7
  6
CONTINUOUS
 10
39.843484407
 20
190.2779418999
  0
VERTEX
  8
0
 62
7
  6
CONTINUOUS
 10
39.7914348008
 20
190.2630320256
  0
VERTEX
  8
0
 62
7
  6
CONTINUOUS
 10
39.7384858004
 20
190.2523770735
  0
VERTEX
  8
0
 62
7
  6
CONTINUOUS
 10
39.6849607882
 20
190.2459898422
  0
VERTEX
  8
0
 62
7
  6
CONTINUOUS
 10
39.6313157901
 20
190.2438697306
  0
SEQEND
  0
POLYLINE
  8
0
 62
7
  6
CONTINUOUS
 66
1
 70
0
  0
VERTEX
  8
0
 62
7
  6
CONTINUOUS
 10
42.5914169243
 20
191.7391061941
  0
VERTEX
  8
0
 62
7
  6
CONTINUOUS
 10
42.5973449733
 20
191.6155317945
  0
VERTEX
  8
0
 62
7
  6
CONTINUOUS
 10
42.6023550933
 20
191.4904057769
  0
VERTEX
  8
0
 62
7
  6
CONTINUOUS
 10
42.6061415908
 20
191.3643471877
  0
VERTEX
  8
0
 62
7
  6
CONTINUOUS
 10
42.6084967323
 20
191.2376323794
  0
VERTEX
  8
0
 62
7
  6
CONTINUOUS
 10
42.6092938205
 20
191.1108347943
  0
SEQEND
  0
POLYLINE
  8
0
 62
7
  6
CONTINUOUS
 66
1
 70
0
  0
VERTEX
  8
0
 62
7
  6
CONTINUOUS
 10
48.5341418473
 20
190.4825626677
  0
VERTEX
  8
0
 62
7
  6
CONTINUOUS
 10
48.5282137679
 20
190.606137642
  0
VERTEX
  8
0
 62
7
  6
CONTINUOUS
 10
48.52320377
 20
190.7312601649
  0
VERTEX
  8
0
 62
7
  6
CONTINUOUS
 10
48.5194172809
 20
190.8573168055
  0
VERTEX
  8
0
 62
7
  6
CONTINUOUS
 10
48.5170621036
 20
190.9840291166
  0
VERTEX
  8
0
 62
7
  6
CONTINUOUS
 10
48.516264914
 20
191.1108347943
  0
SEQEND
  0
POLYLINE
  8
0
 62
7
  6
CONTINUOUS
 66
1
 70
0
  0
VERTEX
  8
0
 62
7
  6
CONTINUOUS
 10
42.5627793673
 20
192.4098728999
  0
VERTEX
  8
0
 62
7
  6
CONTINUOUS
 10
42.5640140709
 20
192.31036405
  0
VERTEX
  8
0
 62
7
  6
CONTINUOUS
 10
42.5673948904
 20
192.2049947281
  0
VERTEX
  8
0
 62
7
  6
CONTINUOUS
 10
42.572391216
 20
192.0943973045
  0
VERTEX
  8
0
 62
7
  6
CONTINUOUS
 10
42.5914169243
 20
191.7391061941
  0
SEQEND
  0
POLYLINE
  8
0
 62
7
  6
CONTINUOUS
 66
1
 70
0
  0
VERTEX
  8
0
 62
7
  6
CONTINUOUS
 10
48.5627793673
 20
189.8117966886
  0
VERTEX
  8
0
 62
7
  6
CONTINUOUS
 10
48.5615447937
 20
189.9112999618
  0
VERTEX
  8
0
 62
7
  6
CONTINUOUS
 10
48.5581639874
 20
190.0166712414
  0
VERTEX
  8
0
 62
7
  6
CONTINUOUS
 10
48.5531678264
 20
190.1272660903
  0
VERTEX
  8
0
 62
7
  6
CONTINUOUS
 10
48.5341418473
 20
190.4825626677
  0
SEQEND
  0
LINE
  8
0
 62
7
  6
CONTINUOUS
 10
42.5627793673
 20
196.6108347943
 11
42.5627793673
 21
192.4098728999
  0
LINE
  8
0
 62
7
  6
CONTINUOUS
 10
42.5627793673
 20
189.8117966886
 11
42.5627793673
 21
185.6108347943
  0
LINE
  8
0
 62
7
  6
CONTINUOUS
 10
48.5627793673
 20
185.6108347943
 11
48.5627793673
 21
189.8117966886
  0
LINE
  8
0
 62
7
  6
CONTINUOUS
 10
48.5627793673
 20
192.4098728999
 11
48.5627793673
 21
196.6108347943
  0
POLYLINE
  8
0
 62
7
  6
CONTINUOUS
 66
1
 70
0
  0
VERTEX
  8
0
 62
7
  6
CONTINUOUS
 10
42.6092938205
 20
191.1108347943
  0
VERTEX
  8
0
 62
7
  6
CONTINUOUS
 10
42.6084966309
 20
190.9840291166
  0
VERTEX
  8
0
 62
7
  6
CONTINUOUS
 10
42.6061414536
 20
190.8573168055
  0
VERTEX
  8
0
 62
7
  6
CONTINUOUS
 10
42.6023549645
 20
190.7312601649
  0
VERTEX
  8
0
 62
7
  6
CONTINUOUS
 10
42.5973449666
 20
190.606137642
  0
VERTEX
  8
0
 62
7
  6
CONTINUOUS
 10
42.5914168872
 20
190.4825626677
  0
SEQEND
  0
POLYLINE
  8
0
 62
7
  6
CONTINUOUS
 66
1
 70
0
  0
VERTEX
  8
0
 62
7
  6
CONTINUOUS
 10
48.516264914
 20
191.1108347943
  0
VERTEX
  8
0
 62
7
  6
CONTINUOUS
 10
48.5170620022
 20
191.2376323794
  0
VERTEX
  8
0
 62
7
  6
CONTINUOUS
 10
48.5194171437
 20
191.3643471877
  0
VERTEX
  8
0
 62
7
  6
CONTINUOUS
 10
48.5232036412
 20
191.4904057769
  0
VERTEX
  8
0
 62
7
  6
CONTINUOUS
 10
48.5282137612
 20
191.6155317945
  0
VERTEX
  8
0
 62
7
  6
CONTINUOUS
 10
48.5341418102
 20
191.7391061941
  0
SEQEND
  0
POLYLINE
  8
0
 62
7
  6
CONTINUOUS
 66
1
 70
0
  0
VERTEX
  8
0
 62
7
  6
CONTINUOUS
 10
42.5723909081
 20
190.1272660903
  0
VERTEX
  8
0
 62
7
  6
CONTINUOUS
 10
42.5673947471
 20
190.0166712414
  0
VERTEX
  8
0
 62
7
  6
CONTINUOUS
 10
42.5640139408
 20
189.9112999618
  0
VERTEX
  8
0
 62
7
  6
CONTINUOUS
 10
42.5627793673
 20
189.8117966886
  0
SEQEND
  0
POLYLINE
  8
0
 62
7
  6
CONTINUOUS
 66
1
 70
0
  0
VERTEX
  8
0
 62
7
  6
CONTINUOUS
 10
48.5531675185
 20
192.0943973045
  0
VERTEX
  8
0
 62
7
  6
CONTINUOUS
 10
48.5581638441
 20
192.2049947281
  0
VERTEX
  8
0
 62
7
  6
CONTINUOUS
 10
48.5615446636
 20
192.31036405
  0
VERTEX
  8
0
 62
7
  6
CONTINUOUS
 10
48.5627793673
 20
192.4098728999
  0
SEQEND
  0
LINE
  8
0
 62
7
  6
CONTINUOUS
 10
42.5914168872
 20
190.4825626677
 11
42.5723909081
 21
190.1272660903
  0
LINE
  8
0
 62
7
  6
CONTINUOUS
 10
48.5341418102
 20
191.7391061941
 11
48.5531675185
 21
192.0943973045
  0
POLYLINE
  8
0
 62
7
  6
CONTINUOUS
 66
1
 70
0
  0
VERTEX
  8
0
 62
7
  6
CONTINUOUS
 10
36.5109396682
 20
191.2603171117
  0
VERTEX
  8
0
 62
7
  6
CONTINUOUS
 10
36.5174978959
 20
191.2965349351
  0
VERTEX
  8
0
 62
7
  6
CONTINUOUS
 10
36.5272479457
 20
191.3306139072
  0
VERTEX
  8
0
 62
7
  6
CONTINUOUS
 10
36.5399904097
 20
191.3624575038
  0
VERTEX
  8
0
 62
7
  6
CONTINUOUS
 10
36.5554353729
 20
191.3918141908
  0
VERTEX
  8
0
 62
7
  6
CONTINUOUS
 10
36.5733173627
 20
191.4186059263
  0
VERTEX
  8
0
 62
7
  6
CONTINUOUS
 10
36.5934650846
 20
191.4428972224
  0
VERTEX
  8
0
 62
7
  6
CONTINUOUS
 10
36.6155532253
 20
191.4645724923
  0
VERTEX
  8
0
 62
7
  6
CONTINUOUS
 10
36.6392205153
 20
191.4835775393
  0
VERTEX
  8
0
 62
7
  6
CONTINUOUS
 10
36.6643581492
 20
191.5000859282
  0
VERTEX
  8
0
 62
7
  6
CONTINUOUS
 10
36.6908636927
 20
191.5142165655
  0
VERTEX
  8
0
 62
7
  6
CONTINUOUS
 10
36.7186809472
 20
191.5260727431
  0
VERTEX
  8
0
 62
7
  6
CONTINUOUS
 10
36.7479187081
 20
191.5357718752
  0
VERTEX
  8
0
 62
7
  6
CONTINUOUS
 10
36.7786101632
 20
191.5433431531
  0
VERTEX
  8
0
 62
7
  6
CONTINUOUS
 10
36.8108032361
 20
191.5487886953
  0
VERTEX
  8
0
 62
7
  6
CONTINUOUS
 10
36.8446573616
 20
191.5520957051
  0
VERTEX
  8
0
 62
7
  6
CONTINUOUS
 10
36.8802712852
 20
191.5532116429
  0
SEQEND
  0
POLYLINE
  8
0
 62
7
  6
CONTINUOUS
 66
1
 70
0
  0
VERTEX
  8
0
 62
7
  6
CONTINUOUS
 10
56.7914169243
 20
191.7391061941
  0
VERTEX
  8
0
 62
7
  6
CONTINUOUS
 10
56.7973449733
 20
191.6155317945
  0
VERTEX
  8
0
 62
7
  6
CONTINUOUS
 10
56.8023550933
 20
191.4904057769
  0
VERTEX
  8
0
 62
7
  6
CONTINUOUS
 10
56.8061415908
 20
191.3643471877
  0
VERTEX
  8
0
 62
7
  6
CONTINUOUS
 10
56.8084967323
 20
191.2376323794
  0
VERTEX
  8
0
 62
7
  6
CONTINUOUS
 10
56.8092938205
 20
191.1108347943
  0
SEQEND
  0
POLYLINE
  8
0
 62
7
  6
CONTINUOUS
 66
1
 70
0
  0
VERTEX
  8
0
 62
7
  6
CONTINUOUS
 10
56.7627793673
 20
192.4098728999
  0
VERTEX
  8
0
 62
7
  6
CONTINUOUS
 10
56.7640140709
 20
192.31036405
  0
VERTEX
  8
0
 62
7
  6
CONTINUOUS
 10
56.7673948904
 20
192.2049947281
  0
VERTEX
  8
0
 62
7
  6
CONTINUOUS
 10
56.772391216
 20
192.0943973045
  0
VERTEX
  8
0
 62
7
  6
CONTINUOUS
 10
56.7914169243
 20
191.7391061941
  0
SEQEND
  0
LINE
  8
0
 62
7
  6
CONTINUOUS
 10
56.7627793673
 20
189.8117966886
 11
56.7627793673
 21
185.6108347943
  0
LINE
  8
0
 62
7
  6
CONTINUOUS
 10
56.7627793673
 20
192.4098728999
 11
56.7627793673
 21
196.6108347943
  0
POLYLINE
  8
0
 62
7
  6
CONTINUOUS
 66
1
 70
0
  0
VERTEX
  8
0
 62
7
  6
CONTINUOUS
 10
56.8092938205
 20
191.1108347943
  0
VERTEX
  8
0
 62
7
  6
CONTINUOUS
 10
56.8084966309
 20
190.9840291166
  0
VERTEX
  8
0
 62
7
  6
CONTINUOUS
 10
56.8061414536
 20
190.8573168055
  0
VERTEX
  8
0
 62
7
  6
CONTINUOUS
 10
56.8023549645
 20
190.7312601649
  0
VERTEX
  8
0
 62
7
  6
CONTINUOUS
 10
56.7973449666
 20
190.606137642
  0
VERTEX
  8
0
 62
7
  6
CONTINUOUS
 10
56.7914168872
 20
190.4825626677
  0
SEQEND
  0
POLYLINE
  8
0
 62
7
  6
CONTINUOUS
 66
1
 70
0
  0
VERTEX
  8
0
 62
7
  6
CONTINUOUS
 10
56.7723909081
 20
190.1272660903
  0
VERTEX
  8
0
 62
7
  6
CONTINUOUS
 10
56.7673947471
 20
190.0166712414
  0
VERTEX
  8
0
 62
7
  6
CONTINUOUS
 10
56.7640139408
 20
189.9112999618
  0
VERTEX
  8
0
 62
7
  6
CONTINUOUS
 10
56.7627793673
 20
189.8117966886
  0
SEQEND
  0
LINE
  8
0
 62
7
  6
CONTINUOUS
 10
56.7914168872
 20
190.4825626677
 11
56.7723909081
 21
190.1272660903
  0
POLYLINE
  8
0
 62
7
  6
CONTINUOUS
 66
1
 70
0
  0
VERTEX
  8
0
 62
7
  6
CONTINUOUS
 10
50.8171781177
 20
191.2850563591
  0
VERTEX
  8
0
 62
7
  6
CONTINUOUS
 10
50.8242468334
 20
191.3178822849
  0
VERTEX
  8
0
 62
7
  6
CONTINUOUS
 10
50.8341733322
 20
191.3486564623
  0
VERTEX
  8
0
 62
7
  6
CONTINUOUS
 10
50.8468462212
 20
191.3775093725
  0
VERTEX
  8
0
 62
7
  6
CONTINUOUS
 10
50.8620748323
 20
191.4042800966
  0
VERTEX
  8
0
 62
7
  6
CONTINUOUS
 10
50.8796772892
 20
191.4288832564
  0
VERTEX
  8
0
 62
7
  6
CONTINUOUS
 10
50.8995058334
 20
191.4512942593
  0
VERTEX
  8
0
 62
7
  6
CONTINUOUS
 10
50.9211855683
 20
191.4712945427
  0
VERTEX
  8
0
 62
7
  6
CONTINUOUS
 10
50.9445202606
 20
191.4889305176
  0
VERTEX
  8
0
 62
7
  6
CONTINUOUS
 10
50.9693393737
 20
191.5042636705
  0
VERTEX
  8
0
 62
7
  6
CONTINUOUS
 10
50.9956158221
 20
191.5174167913
  0
VERTEX
  8
0
 62
7
  6
CONTINUOUS
 10
51.023362505
 20
191.5284769283
  0
VERTEX
  8
0
 62
7
  6
CONTINUOUS
 10
51.052505691
 20
191.5374647165
  0
VERTEX
  8
0
 62
7
  6
CONTINUOUS
 10
51.0829260434
 20
191.5443917681
  0
VERTEX
  8
0
 62
7
  6
CONTINUOUS
 10
51.1146739804
 20
191.5493082035
  0
VERTEX
  8
0
 62
7
  6
CONTINUOUS
 10
51.1478089967
 20
191.5522423757
  0
VERTEX
  8
0
 62
7
  6
CONTINUOUS
 10
51.1822582853
 20
191.5532116429
  0
SEQEND
  0
POLYLINE
  8
0
 62
7
  6
CONTINUOUS
 66
1
 70
0
  0
VERTEX
  8
0
 62
7
  6
CONTINUOUS
 10
54.6083804054
 20
191.2850581693
  0
VERTEX
  8
0
 62
7
  6
CONTINUOUS
 10
54.6177886339
 20
191.2120070689
  0
VERTEX
  8
0
 62
7
  6
CONTINUOUS
 10
54.6221720696
 20
191.137803662
  0
VERTEX
  8
0
 62
7
  6
CONTINUOUS
 10
54.6214638911
 20
191.0631966985
  0
VERTEX
  8
0
 62
7
  6
CONTINUOUS
 10
54.6156784232
 20
190.9892521107
  0
VERTEX
  8
0
 62
7
  6
CONTINUOUS
 10
54.6048923458
 20
190.9166433198
  0
VERTEX
  8
0
 62
7
  6
CONTINUOUS
 10
54.5892795269
 20
190.8462761409
  0
VERTEX
  8
0
 62
7
  6
CONTINUOUS
 10
54.5691415566
 20
190.7790477692
  0
VERTEX
  8
0
 62
7
  6
CONTINUOUS
 10
54.5446712687
 20
190.7151994929
  0
VERTEX
  8
0
 62
7
  6
CONTINUOUS
 10
54.5161922356
 20
190.6552529412
  0
VERTEX
  8
0
 62
7
  6
CONTINUOUS
 10
54.4841168976
 20
190.599675986
  0
VERTEX
  8
0
 62
7
  6
CONTINUOUS
 10
54.4488214134
 20
190.5486806872
  0
VERTEX
  8
0
 62
7
  6
CONTINUOUS
 10
54.4105714494
 20
190.5022566248
  0
VERTEX
  8
0
 62
7
  6
CONTINUOUS
 10
54.3697895634
 20
190.4605458872
  0
VERTEX
  8
0
 62
7
  6
CONTINUOUS
 10
54.326722798
 20
190.4234529309
  0
VERTEX
  8
0
 62
7
  6
CONTINUOUS
 10
54.2817083498
 20
190.3909619602
  0
VERTEX
  8
0
 62
7
  6
CONTINUOUS
 10
54.2347922566
 20
190.3628695048
  0
VERTEX
  8
0
 62
7
  6
CONTINUOUS
 10
54.1863264794
 20
190.339205246
  0
VERTEX
  8
0
 62
7
  6
CONTINUOUS
 10
54.1367742958
 20
190.3199978863
  0
VERTEX
  8
0
 62
7
  6
CONTINUOUS
 10
54.0863637629
 20
190.3051482286
  0
VERTEX
  8
0
 62
7
  6
CONTINUOUS
 10
54.0350687391
 20
190.2945377191
  0
VERTEX
  8
0
 62
7
  6
CONTINUOUS
 10
53.9832285171
 20
190.288181498
  0
VERTEX
  8
0
 62
7
  6
CONTINUOUS
 10
53.9313157901
 20
190.2860742005
  0
SEQEND
  0
POLYLINE
  8
0
 62
7
  6
CONTINUOUS
 66
1
 70
0
  0
VERTEX
  8
0
 62
7
  6
CONTINUOUS
 10
62.7341418473
 20
190.4825626677
  0
VERTEX
  8
0
 62
7
  6
CONTINUOUS
 10
62.7282137679
 20
190.606137642
  0
VERTEX
  8
0
 62
7
  6
CONTINUOUS
 10
62.72320377
 20
190.7312601649
  0
VERTEX
  8
0
 62
7
  6
CONTINUOUS
 10
62.7194172809
 20
190.8573168055
  0
VERTEX
  8
0
 62
7
  6
CONTINUOUS
 10
62.7170621036
 20
190.9840291166
  0
VERTEX
  8
0
 62
7
  6
CONTINUOUS
 10
62.716264914
 20
191.1108347943
  0
SEQEND
  0
POLYLINE
  8
0
 62
7
  6
CONTINUOUS
 66
1
 70
0
  0
VERTEX
  8
0
 62
7
  6
CONTINUOUS
 10
70.7914169243
 20
191.7391061941
  0
VERTEX
  8
0
 62
7
  6
CONTINUOUS
 10
70.7973449733
 20
191.6155317945
  0
VERTEX
  8
0
 62
7
  6
CONTINUOUS
 10
70.8023550933
 20
191.4904057769
  0
VERTEX
  8
0
 62
7
  6
CONTINUOUS
 10
70.8061415908
 20
191.3643471877
  0
VERTEX
  8
0
 62
7
  6
CONTINUOUS
 10
70.8084967323
 20
191.2376323794
  0
VERTEX
  8
0
 62
7
  6
CONTINUOUS
 10
70.8092938205
 20
191.1108347943
  0
SEQEND
  0
POLYLINE
  8
0
 62
7
  6
CONTINUOUS
 66
1
 70
0
  0
VERTEX
  8
0
 62
7
  6
CONTINUOUS
 10
62.7627793673
 20
189.8117966886
  0
VERTEX
  8
0
 62
7
  6
CONTINUOUS
 10
62.7615447937
 20
189.9112999618
  0
VERTEX
  8
0
 62
7
  6
CONTINUOUS
 10
62.7581639874
 20
190.0166712414
  0
VERTEX
  8
0
 62
7
  6
CONTINUOUS
 10
62.7531678264
 20
190.1272660903
  0
VERTEX
  8
0
 62
7
  6
CONTINUOUS
 10
62.7341418473
 20
190.4825626677
  0
SEQEND
  0
POLYLINE
  8
0
 62
7
  6
CONTINUOUS
 66
1
 70
0
  0
VERTEX
  8
0
 62
7
  6
CONTINUOUS
 10
70.7627793673
 20
192.4098728999
  0
VERTEX
  8
0
 62
7
  6
CONTINUOUS
 10
70.7640140709
 20
192.31036405
  0
VERTEX
  8
0
 62
7
  6
CONTINUOUS
 10
70.7673948904
 20
192.2049947281
  0
VERTEX
  8
0
 62
7
  6
CONTINUOUS
 10
70.772391216
 20
192.0943973045
  0
VERTEX
  8
0
 62
7
  6
CONTINUOUS
 10
70.7914169243
 20
191.7391061941
  0
SEQEND
  0
LINE
  8
0
 62
7
  6
CONTINUOUS
 10
62.7627793673
 20
185.6108347943
 11
62.7627793673
 21
189.8117966886
  0
LINE
  8
0
 62
7
  6
CONTINUOUS
 10
62.7627793673
 20
192.4098728999
 11
62.7627793673
 21
196.6108347943
  0
LINE
  8
0
 62
7
  6
CONTINUOUS
 10
70.7627793673
 20
189.8117966886
 11
70.7627793673
 21
185.6108347943
  0
LINE
  8
0
 62
7
  6
CONTINUOUS
 10
70.7627793673
 20
192.4098728999
 11
70.7627793673
 21
196.6108347943
  0
POLYLINE
  8
0
 62
7
  6
CONTINUOUS
 66
1
 70
0
  0
VERTEX
  8
0
 62
7
  6
CONTINUOUS
 10
62.716264914
 20
191.1108347943
  0
VERTEX
  8
0
 62
7
  6
CONTINUOUS
 10
62.7170620022
 20
191.2376323794
  0
VERTEX
  8
0
 62
7
  6
CONTINUOUS
 10
62.7194171437
 20
191.3643471877
  0
VERTEX
  8
0
 62
7
  6
CONTINUOUS
 10
62.7232036412
 20
191.4904057769
  0
VERTEX
  8
0
 62
7
  6
CONTINUOUS
 10
62.7282137612
 20
191.6155317945
  0
VERTEX
  8
0
 62
7
  6
CONTINUOUS
 10
62.7341418102
 20
191.7391061941
  0
SEQEND
  0
POLYLINE
  8
0
 62
7
  6
CONTINUOUS
 66
1
 70
0
  0
VERTEX
  8
0
 62
7
  6
CONTINUOUS
 10
70.8092938205
 20
191.1108347943
  0
VERTEX
  8
0
 62
7
  6
CONTINUOUS
 10
70.8084966309
 20
190.9840291166
  0
VERTEX
  8
0
 62
7
  6
CONTINUOUS
 10
70.8061414536
 20
190.8573168055
  0
VERTEX
  8
0
 62
7
  6
CONTINUOUS
 10
70.8023549645
 20
190.7312601649
  0
VERTEX
  8
0
 62
7
  6
CONTINUOUS
 10
70.7973449666
 20
190.606137642
  0
VERTEX
  8
0
 62
7
  6
CONTINUOUS
 10
70.7914168872
 20
190.4825626677
  0
SEQEND
  0
POLYLINE
  8
0
 62
7
  6
CONTINUOUS
 66
1
 70
0
  0
VERTEX
  8
0
 62
7
  6
CONTINUOUS
 10
62.7531675185
 20
192.0943973045
  0
VERTEX
  8
0
 62
7
  6
CONTINUOUS
 10
62.7581638441
 20
192.2049947281
  0
VERTEX
  8
0
 62
7
  6
CONTINUOUS
 10
62.7615446636
 20
192.31036405
  0
VERTEX
  8
0
 62
7
  6
CONTINUOUS
 10
62.7627793673
 20
192.4098728999
  0
SEQEND
  0
POLYLINE
  8
0
 62
7
  6
CONTINUOUS
 66
1
 70
0
  0
VERTEX
  8
0
 62
7
  6
CONTINUOUS
 10
70.7723909081
 20
190.1272660903
  0
VERTEX
  8
0
 62
7
  6
CONTINUOUS
 10
70.7673947471
 20
190.0166712414
  0
VERTEX
  8
0
 62
7
  6
CONTINUOUS
 10
70.7640139408
 20
189.9112999618
  0
VERTEX
  8
0
 62
7
  6
CONTINUOUS
 10
70.7627793673
 20
189.8117966886
  0
SEQEND
  0
LINE
  8
0
 62
7
  6
CONTINUOUS
 10
62.7341418102
 20
191.7391061941
 11
62.7531675185
 21
192.0943973045
  0
LINE
  8
0
 62
7
  6
CONTINUOUS
 10
70.7914168872
 20
190.4825626677
 11
70.7723909081
 21
190.1272660903
  0
POLYLINE
  8
0
 62
7
  6
CONTINUOUS
 66
1
 70
0
  0
VERTEX
  8
0
 62
7
  6
CONTINUOUS
 10
65.0598744736
 20
191.3095255344
  0
VERTEX
  8
0
 62
7
  6
CONTINUOUS
 10
65.0674461977
 20
191.339108665
  0
VERTEX
  8
0
 62
7
  6
CONTINUOUS
 10
65.0776043318
 20
191.3668125787
  0
VERTEX
  8
0
 62
7
  6
CONTINUOUS
 10
65.0903060897
 20
191.3928641564
  0
VERTEX
  8
0
 62
7
  6
CONTINUOUS
 10
65.1054569894
 20
191.4171895181
  0
VERTEX
  8
0
 62
7
  6
CONTINUOUS
 10
65.1230324277
 20
191.4397886171
  0
VERTEX
  8
0
 62
7
  6
CONTINUOUS
 10
65.1428227234
 20
191.4604302193
  0
VERTEX
  8
0
 62
7
  6
CONTINUOUS
 10
65.1645235416
 20
191.4789143457
  0
VERTEX
  8
0
 62
7
  6
CONTINUOUS
 10
65.1879578973
 20
191.4952374987
  0
VERTEX
  8
0
 62
7
  6
CONTINUOUS
 10
65.212850205
 20
191.509361331
  0
VERTEX
  8
0
 62
7
  6
CONTINUOUS
 10
65.2391405219
 20
191.5213922144
  0
VERTEX
  8
0
 62
7
  6
CONTINUOUS
 10
65.2667923255
 20
191.531412037
  0
VERTEX
  8
0
 62
7
  6
CONTINUOUS
 10
65.2957107195
 20
191.5394651551
  0
VERTEX
  8
0
 62
7
  6
CONTINUOUS
 10
65.3258703754
 20
191.5456133731
  0
VERTEX
  8
0
 62
7
  6
CONTINUOUS
 10
65.3572138501
 20
191.5499086969
  0
VERTEX
  8
0
 62
7
  6
CONTINUOUS
 10
65.3895635374
 20
191.5524080937
  0
VERTEX
  8
0
 62
7
  6
CONTINUOUS
 10
65.4227451663
 20
191.5532116429
  0
SEQEND
  0
POLYLINE
  8
0
 62
7
  6
CONTINUOUS
 66
1
 70
0
  0
VERTEX
  8
0
 62
7
  6
CONTINUOUS
 10
68.5656849813
 20
191.3095205532
  0
VERTEX
  8
0
 62
7
  6
CONTINUOUS
 10
68.5772288735
 20
191.2399438363
  0
VERTEX
  8
0
 62
7
  6
CONTINUOUS
 10
68.5838304291
 20
191.1689083506
  0
VERTEX
  8
0
 62
7
  6
CONTINUOUS
 10
68.5853967434
 20
191.0970403178
  0
VERTEX
  8
0
 62
7
  6
CONTINUOUS
 10
68.5818884903
 20
191.0253755043
  0
VERTEX
  8
0
 62
7
  6
CONTINUOUS
 10
68.5733796343
 20
190.9548335171
  0
VERTEX
  8
0
 62
7
  6
CONTINUOUS
 10
68.5599804023
 20
190.886024698
  0
VERTEX
  8
0
 62
7
  6
CONTINUOUS
 10
68.5419459246
 20
190.8199140977
  0
VERTEX
  8
0
 62
7
  6
CONTINUOUS
 10
68.5195709648
 20
190.7571189502
  0
VERTEX
  8
0
 62
7
  6
CONTINUOUS
 10
68.4930910552
 20
190.6979217668
  0
VERTEX
  8
0
 62
7
  6
CONTINUOUS
 10
68.4629295644
 20
190.6428893412
  0
VERTEX
  8
0
 62
7
  6
CONTINUOUS
 10
68.4295211328
 20
190.5923552121
  0
VERTEX
  8
0
 62
7
  6
CONTINUOUS
 10
68.3930210316
 20
190.5461717681
  0
VERTEX
  8
0
 62
7
  6
CONTINUOUS
 10
68.3538321672
 20
190.5045336771
  0
VERTEX
  8
0
 62
7
  6
CONTINUOUS
 10
68.3124295281
 20
190.4675906275
  0
VERTEX
  8
0
 62
7
  6
CONTINUOUS
 10
68.26909746
 20
190.435249872
  0
VERTEX
  8
0
 62
7
  6
CONTINUOUS
 10
68.2238854096
 20
190.4072964872
  0
VERTEX
  8
0
 62
7
  6
CONTINUOUS
 10
68.1772022635
 20
190.3837837723
  0
VERTEX
  8
0
 62
7
  6
CONTINUOUS
 10
68.1295125975
 20
190.3647238187
  0
VERTEX
  8
0
 62
7
  6
CONTINUOUS
 10
68.0809166774
 20
190.3499662695
  0
VERTEX
  8
0
 62
7
  6
CONTINUOUS
 10
68.0314294463
 20
190.3394156785
  0
VERTEX
  8
0
 62
7
  6
CONTINUOUS
 10
67.9814090051
 20
190.333095645
  0
VERTEX
  8
0
 62
7
  6
CONTINUOUS
 10
67.9313157901
 20
190.3310004219
  0
SEQEND
  0
POLYLINE
  8
0
 62
7
  6
CONTINUOUS
 66
1
 70
0
  0
VERTEX
  8
0
 62
7
  6
CONTINUOUS
 10
76.7341418473
 20
190.4825626677
  0
VERTEX
  8
0
 62
7
  6
CONTINUOUS
 10
76.7282137679
 20
190.606137642
  0
VERTEX
  8
0
 62
7
  6
CONTINUOUS
 10
76.72320377
 20
190.7312601649
  0
VERTEX
  8
0
 62
7
  6
CONTINUOUS
 10
76.7194172809
 20
190.8573168055
  0
VERTEX
  8
0
 62
7
  6
CONTINUOUS
 10
76.7170621036
 20
190.9840291166
  0
VERTEX
  8
0
 62
7
  6
CONTINUOUS
 10
76.716264914
 20
191.1108347943
  0
SEQEND
  0
POLYLINE
  8
0
 62
7
  6
CONTINUOUS
 66
1
 70
0
  0
VERTEX
  8
0
 62
7
  6
CONTINUOUS
 10
76.7627793673
 20
189.8117966886
  0
VERTEX
  8
0
 62
7
  6
CONTINUOUS
 10
76.7615447937
 20
189.9112999618
  0
VERTEX
  8
0
 62
7
  6
CONTINUOUS
 10
76.7581639874
 20
190.0166712414
  0
VERTEX
  8
0
 62
7
  6
CONTINUOUS
 10
76.7531678264
 20
190.1272660903
  0
VERTEX
  8
0
 62
7
  6
CONTINUOUS
 10
76.7341418473
 20
190.4825626677
  0
SEQEND
  0
LINE
  8
0
 62
7
  6
CONTINUOUS
 10
76.7627793673
 20
185.6120913883
 11
76.7627793673
 21
189.8117966886
  0
LINE
  8
0
 62
7
  6
CONTINUOUS
 10
76.7627793673
 20
192.4098728999
 11
76.7627793673
 21
196.6108347943
  0
POLYLINE
  8
0
 62
7
  6
CONTINUOUS
 66
1
 70
0
  0
VERTEX
  8
0
 62
7
  6
CONTINUOUS
 10
76.716264914
 20
191.1108347943
  0
VERTEX
  8
0
 62
7
  6
CONTINUOUS
 10
76.7170620022
 20
191.2376323794
  0
VERTEX
  8
0
 62
7
  6
CONTINUOUS
 10
76.7194171437
 20
191.3643471877
  0
VERTEX
  8
0
 62
7
  6
CONTINUOUS
 10
76.7232036412
 20
191.4904057769
  0
VERTEX
  8
0
 62
7
  6
CONTINUOUS
 10
76.7282137612
 20
191.6155317945
  0
VERTEX
  8
0
 62
7
  6
CONTINUOUS
 10
76.7341418102
 20
191.7391061941
  0
SEQEND
  0
POLYLINE
  8
0
 62
7
  6
CONTINUOUS
 66
1
 70
0
  0
VERTEX
  8
0
 62
7
  6
CONTINUOUS
 10
76.7531675185
 20
192.0943973045
  0
VERTEX
  8
0
 62
7
  6
CONTINUOUS
 10
76.7581638441
 20
192.2049947281
  0
VERTEX
  8
0
 62
7
  6
CONTINUOUS
 10
76.7615446636
 20
192.31036405
  0
VERTEX
  8
0
 62
7
  6
CONTINUOUS
 10
76.7627793673
 20
192.4098728999
  0
SEQEND
  0
POLYLINE
  8
0
 62
7
  6
CONTINUOUS
 66
1
 70
0
  0
VERTEX
  8
0
 62
7
  6
CONTINUOUS
 10
76.7618964762
 20
185.5823347373
  0
VERTEX
  8
0
 62
7
  6
CONTINUOUS
 10
76.7625214244
 20
185.59601576
  0
VERTEX
  8
0
 62
7
  6
CONTINUOUS
 10
76.7627793673
 20
185.6120913883
  0
SEQEND
  0
LINE
  8
0
 62
7
  6
CONTINUOUS
 10
76.7341418102
 20
191.7391061941
 11
76.7531675185
 21
192.0943973045
  0
LINE
  8
0
 62
7
  6
CONTINUOUS
 10
76.761703951
 20
185.5792472472
 11
76.7618964762
 21
185.5823347373
  0
POLYLINE
  8
0
 62
7
  6
CONTINUOUS
 66
1
 70
0
  0
VERTEX
  8
0
 62
7
  6
CONTINUOUS
 10
76.736979639
 20
185.4524538211
  0
VERTEX
  8
0
 62
7
  6
CONTINUOUS
 10
76.7418980987
 20
185.4681297673
  0
VERTEX
  8
0
 62
7
  6
CONTINUOUS
 10
76.7480352923
 20
185.4908000461
  0
VERTEX
  8
0
 62
7
  6
CONTINUOUS
 10
76.753150533
 20
185.5138953666
  0
VERTEX
  8
0
 62
7
  6
CONTINUOUS
 10
76.7572055674
 20
185.5373057414
  0
VERTEX
  8
0
 62
7
  6
CONTINUOUS
 10
76.7601654489
 20
185.5608649612
  0
VERTEX
  8
0
 62
7
  6
CONTINUOUS
 10
76.7618990073
 20
185.5823756863
  0
SEQEND
  0
POLYLINE
  8
0
 62
7
  6
CONTINUOUS
 66
1
 70
0
  0
VERTEX
  8
0
 62
7
  6
CONTINUOUS
 10
84.7914169243
 20
191.7391061941
  0
VERTEX
  8
0
 62
7
  6
CONTINUOUS
 10
84.7973449733
 20
191.6155317945
  0
VERTEX
  8
0
 62
7
  6
CONTINUOUS
 10
84.8023550933
 20
191.4904057769
  0
VERTEX
  8
0
 62
7
  6
CONTINUOUS
 10
84.8061415908
 20
191.3643471877
  0
VERTEX
  8
0
 62
7
  6
CONTINUOUS
 10
84.8084967323
 20
191.2376323794
  0
VERTEX
  8
0
 62
7
  6
CONTINUOUS
 10
84.8092938205
 20
191.1108347943
  0
SEQEND
  0
POLYLINE
  8
0
 62
7
  6
CONTINUOUS
 66
1
 70
0
  0
VERTEX
  8
0
 62
7
  6
CONTINUOUS
 10
90.7341418473
 20
190.4825626677
  0
VERTEX
  8
0
 62
7
  6
CONTINUOUS
 10
90.7282137679
 20
190.606137642
  0
VERTEX
  8
0
 62
7
  6
CONTINUOUS
 10
90.72320377
 20
190.7312601649
  0
VERTEX
  8
0
 62
7
  6
CONTINUOUS
 10
90.7194172809
 20
190.8573168055
  0
VERTEX
  8
0
 62
7
  6
CONTINUOUS
 10
90.7170621036
 20
190.9840291166
  0
VERTEX
  8
0
 62
7
  6
CONTINUOUS
 10
90.716264914
 20
191.1108347943
  0
SEQEND
  0
POLYLINE
  8
0
 62
7
  6
CONTINUOUS
 66
1
 70
0
  0
VERTEX
  8
0
 62
7
  6
CONTINUOUS
 10
84.7627793673
 20
192.4098728999
  0
VERTEX
  8
0
 62
7
  6
CONTINUOUS
 10
84.7640140709
 20
192.31036405
  0
VERTEX
  8
0
 62
7
  6
CONTINUOUS
 10
84.7673948904
 20
192.2049947281
  0
VERTEX
  8
0
 62
7
  6
CONTINUOUS
 10
84.772391216
 20
192.0943973045
  0
VERTEX
  8
0
 62
7
  6
CONTINUOUS
 10
84.7914169243
 20
191.7391061941
  0
SEQEND
  0
POLYLINE
  8
0
 62
7
  6
CONTINUOUS
 66
1
 70
0
  0
VERTEX
  8
0
 62
7
  6
CONTINUOUS
 10
90.7627793673
 20
189.8117966886
  0
VERTEX
  8
0
 62
7
  6
CONTINUOUS
 10
90.7615447937
 20
189.9112999618
  0
VERTEX
  8
0
 62
7
  6
CONTINUOUS
 10
90.7581639874
 20
190.0166712414
  0
VERTEX
  8
0
 62
7
  6
CONTINUOUS
 10
90.7531678264
 20
190.1272660903
  0
VERTEX
  8
0
 62
7
  6
CONTINUOUS
 10
90.7341418473
 20
190.4825626677
  0
SEQEND
  0
LINE
  8
0
 62
7
  6
CONTINUOUS
 10
84.7627793673
 20
189.8117966886
 11
84.7627793673
 21
185.6108347943
  0
LINE
  8
0
 62
7
  6
CONTINUOUS
 10
84.7627793673
 20
192.4098728999
 11
84.7627793673
 21
196.6108347943
  0
LINE
  8
0
 62
7
  6
CONTINUOUS
 10
90.7627793673
 20
185.6108347943
 11
90.7627793673
 21
189.8117966886
  0
LINE
  8
0
 62
7
  6
CONTINUOUS
 10
90.7627793673
 20
192.4098728999
 11
90.7627793673
 21
196.6108347943
  0
POLYLINE
  8
0
 62
7
  6
CONTINUOUS
 66
1
 70
0
  0
VERTEX
  8
0
 62
7
  6
CONTINUOUS
 10
84.8092938205
 20
191.1108347943
  0
VERTEX
  8
0
 62
7
  6
CONTINUOUS
 10
84.8084966309
 20
190.9840291166
  0
VERTEX
  8
0
 62
7
  6
CONTINUOUS
 10
84.8061414536
 20
190.8573168055
  0
VERTEX
  8
0
 62
7
  6
CONTINUOUS
 10
84.8023549645
 20
190.7312601649
  0
VERTEX
  8
0
 62
7
  6
CONTINUOUS
 10
84.7973449666
 20
190.606137642
  0
VERTEX
  8
0
 62
7
  6
CONTINUOUS
 10
84.7914168872
 20
190.4825626677
  0
SEQEND
  0
POLYLINE
  8
0
 62
7
  6
CONTINUOUS
 66
1
 70
0
  0
VERTEX
  8
0
 62
7
  6
CONTINUOUS
 10
90.716264914
 20
191.1108347943
  0
VERTEX
  8
0
 62
7
  6
CONTINUOUS
 10
90.7170620022
 20
191.2376323794
  0
VERTEX
  8
0
 62
7
  6
CONTINUOUS
 10
90.7194171437
 20
191.3643471877
  0
VERTEX
  8
0
 62
7
  6
CONTINUOUS
 10
90.7232036412
 20
191.4904057769
  0
VERTEX
  8
0
 62
7
  6
CONTINUOUS
 10
90.7282137612
 20
191.6155317945
  0
VERTEX
  8
0
 62
7
  6
CONTINUOUS
 10
90.7341418102
 20
191.7391061941
  0
SEQEND
  0
POLYLINE
  8
0
 62
7
  6
CONTINUOUS
 66
1
 70
0
  0
VERTEX
  8
0
 62
7
  6
CONTINUOUS
 10
84.7723909081
 20
190.1272660903
  0
VERTEX
  8
0
 62
7
  6
CONTINUOUS
 10
84.7673947471
 20
190.0166712414
  0
VERTEX
  8
0
 62
7
  6
CONTINUOUS
 10
84.7640139408
 20
189.9112999618
  0
VERTEX
  8
0
 62
7
  6
CONTINUOUS
 10
84.7627793673
 20
189.8117966886
  0
SEQEND
  0
POLYLINE
  8
0
 62
7
  6
CONTINUOUS
 66
1
 70
0
  0
VERTEX
  8
0
 62
7
  6
CONTINUOUS
 10
90.7531675185
 20
192.0943973045
  0
VERTEX
  8
0
 62
7
  6
CONTINUOUS
 10
90.7581638441
 20
192.2049947281
  0
VERTEX
  8
0
 62
7
  6
CONTINUOUS
 10
90.7615446636
 20
192.31036405
  0
VERTEX
  8
0
 62
7
  6
CONTINUOUS
 10
90.7627793673
 20
192.4098728999
  0
SEQEND
  0
LINE
  8
0
 62
7
  6
CONTINUOUS
 10
84.7914168872
 20
190.4825626677
 11
84.7723909081
 21
190.1272660903
  0
LINE
  8
0
 62
7
  6
CONTINUOUS
 10
90.7341418102
 20
191.7391061941
 11
90.7531675185
 21
192.0943973045
  0
POLYLINE
  8
0
 62
7
  6
CONTINUOUS
 66
1
 70
0
  0
VERTEX
  8
0
 62
7
  6
CONTINUOUS
 10
79.1062720712
 20
191.3332608841
  0
VERTEX
  8
0
 62
7
  6
CONTINUOUS
 10
79.1151739205
 20
191.3620445141
  0
VERTEX
  8
0
 62
7
  6
CONTINUOUS
 10
79.1269284206
 20
191.388984558
  0
VERTEX
  8
0
 62
7
  6
CONTINUOUS
 10
79.141157687
 20
191.4136800836
  0
VERTEX
  8
0
 62
7
  6
CONTINUOUS
 10
79.1575079893
 20
191.436022771
  0
VERTEX
  8
0
 62
7
  6
CONTINUOUS
 10
79.1756253035
 20
191.4559905287
  0
VERTEX
  8
0
 62
7
  6
CONTINUOUS
 10
79.1951167022
 20
191.4735828793
  0
VERTEX
  8
0
 62
7
  6
CONTINUOUS
 10
79.2158462304
 20
191.4890351039
  0
VERTEX
  8
0
 62
7
  6
CONTINUOUS
 10
79.2378858494
 20
191.5026245129
  0
VERTEX
  8
0
 62
7
  6
CONTINUOUS
 10
79.2613943236
 20
191.5145486354
  0
VERTEX
  8
0
 62
7
  6
CONTINUOUS
 10
79.2865457806
 20
191.5249068293
  0
VERTEX
  8
0
 62
7
  6
CONTINUOUS
 10
79.3133648773
 20
191.5336814228
  0
VERTEX
  8
0
 62
7
  6
CONTINUOUS
 10
79.3418323318
 20
191.5408384171
  0
VERTEX
  8
0
 62
7
  6
CONTINUOUS
 10
79.3719649775
 20
191.5463622076
  0
VERTEX
  8
0
 62
7
  6
CONTINUOUS
 10
79.403704951
 20
191.5502409338
  0
VERTEX
  8
0
 62
7
  6
CONTINUOUS
 10
79.4368385504
 20
191.5524930651
  0
VERTEX
  8
0
 62
7
  6
CONTINUOUS
 10
79.4712074853
 20
191.5532116429
  0
SEQEND
  0
POLYLINE
  8
0
 62
7
  6
CONTINUOUS
 66
1
 70
0
  0
VERTEX
  8
0
 62
7
  6
CONTINUOUS
 10
76.7368050454
 20
185.4519340436
  0
VERTEX
  8
0
 62
7
  6
CONTINUOUS
 10
76.7393564121
 20
185.4598113409
  0
VERTEX
  8
0
 62
7
  6
CONTINUOUS
 10
76.7457835374
 20
185.4819971611
  0
VERTEX
  8
0
 62
7
  6
CONTINUOUS
 10
76.750968715
 20
185.503426448
  0
VERTEX
  8
0
 62
7
  6
CONTINUOUS
 10
76.7550329211
 20
185.5239788712
  0
VERTEX
  8
0
 62
7
  6
CONTINUOUS
 10
76.7580839628
 20
185.5434502737
  0
VERTEX
  8
0
 62
7
  6
CONTINUOUS
 10
76.7602561593
 20
185.5617679519
  0
SEQEND
  0
POLYLINE
  8
0
 62
7
  6
CONTINUOUS
 66
1
 70
0
  0
VERTEX
  8
0
 62
7
  6
CONTINUOUS
 10
76.7224416277
 20
185.4140846829
  0
VERTEX
  8
0
 62
7
  6
CONTINUOUS
 10
76.7315895659
 20
185.4370684386
  0
VERTEX
  8
0
 62
7
  6
CONTINUOUS
 10
76.7368050454
 20
185.4519340436
  0
SEQEND
  0
POLYLINE
  8
0
 62
7
  6
CONTINUOUS
 66
1
 70
0
  0
VERTEX
  8
0
 62
7
  6
CONTINUOUS
 10
82.5192856339
 20
191.3332646827
  0
VERTEX
  8
0
 62
7
  6
CONTINUOUS
 10
82.5330946667
 20
191.2674321036
  0
VERTEX
  8
0
 62
7
  6
CONTINUOUS
 10
82.5420634233
 20
191.1997635915
  0
VERTEX
  8
0
 62
7
  6
CONTINUOUS
 10
82.5460580388
 20
191.130917327
  0
VERTEX
  8
0
 62
7
  6
CONTINUOUS
 10
82.5449928814
 20
191.0617340874
  0
VERTEX
  8
0
 62
7
  6
CONTINUOUS
 10
82.5388964342
 20
190.9933092268
  0
VERTEX
  8
0
 62
7
  6
CONTINUOUS
 10
82.5278718319
 20
190.9263117491
  0
VERTEX
  8
0
 62
7
  6
CONTINUOUS
 10
82.5120939196
 20
190.8614973785
  0
VERTEX
  8
0
 62
7
  6
CONTINUOUS
 10
82.4918835922
 20
190.7997500255
  0
VERTEX
  8
0
 62
7
  6
CONTINUOUS
 10
82.4675101683
 20
190.7414459554
  0
VERTEX
  8
0
 62
7
  6
CONTINUOUS
 10
82.439323326
 20
190.6870305196
  0
VERTEX
  8
0
 62
7
  6
CONTINUOUS
 10
82.4078058841
 20
190.6369843798
  0
VERTEX
  8
0
 62
7
  6
CONTINUOUS
 10
82.3732074599
 20
190.5912804152
  0
VERTEX
  8
0
 62
7
  6
CONTINUOUS
 10
82.3359059542
 20
190.550062739
  0
VERTEX
  8
0
 62
7
  6
CONTINUOUS
 10
82.2963736366
 20
190.5134819601
  0
VERTEX
  8
0
 62
7
  6
CONTINUOUS
 10
82.2547163414
 20
190.4813222728
  0
VERTEX
  8
0
 62
7
  6
CONTINUOUS
 10
82.2111949399
 20
190.4535609131
  0
VERTEX
  8
0
 62
7
  6
CONTINUOUS
 10
82.166292348
 20
190.4302806397
  0
VERTEX
  8
0
 62
7
  6
CONTINUOUS
 10
82.1204948633
 20
190.4114757529
  0
VERTEX
  8
0
 62
7
  6
CONTINUOUS
 10
82.0739141042
 20
190.396967996
  0
VERTEX
  8
0
 62
7
  6
CONTINUOUS
 10
82.0267552602
 20
190.3866661451
  0
VERTEX
  8
0
 62
7
  6
CONTINUOUS
 10
81.9791558865
 20
190.38050009
  0
VERTEX
  8
0
 62
7
  6
CONTINUOUS
 10
81.9313157901
 20
190.3784461721
  0
SEQEND
  0
POLYLINE
  8
0
 62
7
  6
CONTINUOUS
 66
1
 70
0
  0
VERTEX
  8
0
 62
7
  6
CONTINUOUS
 10
103.4627201543
 20
196.3441862481
  0
VERTEX
  8
0
 62
7
  6
CONTINUOUS
 10
103.4618897582
 20
196.3717518173
  0
VERTEX
  8
0
 62
7
  6
CONTINUOUS
 10
103.4601371253
 20
196.3989363836
  0
VERTEX
  8
0
 62
7
  6
CONTINUOUS
 10
103.4574972359
 20
196.4259996719
  0
VERTEX
  8
0
 62
7
  6
CONTINUOUS
 10
103.4539608098
 20
196.4532121958
  0
VERTEX
  8
0
 62
7
  6
CONTINUOUS
 10
103.4494860232
 20
196.4807853106
  0
VERTEX
  8
0
 62
7
  6
CONTINUOUS
 10
103.4439951225
 20
196.5089289543
  0
VERTEX
  8
0
 62
7
  6
CONTINUOUS
 10
103.4373847961
 20
196.5377953471
  0
VERTEX
  8
0
 62
7
  6
CONTINUOUS
 10
103.4296793007
 20
196.5669518327
  0
VERTEX
  8
0
 62
7
  6
CONTINUOUS
 10
103.4209575591
 20
196.5959318717
  0
VERTEX
  8
0
 62
7
  6
CONTINUOUS
 10
103.4112562974
 20
196.624530298
  0
VERTEX
  8
0
 62
7
  6
CONTINUOUS
 10
103.4006085386
 20
196.652588233
  0
VERTEX
  8
0
 62
7
  6
CONTINUOUS
 10
103.389045297
 20
196.6799719745
  0
VERTEX
  8
0
 62
7
  6
CONTINUOUS
 10
103.3765935564
 20
196.7065692401
  0
VERTEX
  8
0
 62
7
  6
CONTINUOUS
 10
103.3632634615
 20
196.7323075733
  0
VERTEX
  8
0
 62
7
  6
CONTINUOUS
 10
103.349056126
 20
196.7571268452
  0
VERTEX
  8
0
 62
7
  6
CONTINUOUS
 10
103.3339660858
 20
196.7809713393
  0
VERTEX
  8
0
 62
7
  6
CONTINUOUS
 10
103.322950492
 20
196.7969439755
  0
SEQEND
  0
POLYLINE
  8
0
 62
7
  6
CONTINUOUS
 66
1
 70
0
  0
VERTEX
  8
0
 62
7
  6
CONTINUOUS
 10
97.4628132979
 20
185.8845096533
  0
VERTEX
  8
0
 62
7
  6
CONTINUOUS
 10
97.4635386156
 20
185.8574235264
  0
VERTEX
  8
0
 62
7
  6
CONTINUOUS
 10
97.4652471795
 20
185.8294926492
  0
VERTEX
  8
0
 62
7
  6
CONTINUOUS
 10
97.467953621
 20
185.8010784483
  0
VERTEX
  8
0
 62
7
  6
CONTINUOUS
 10
97.4716312627
 20
185.772534203
  0
VERTEX
  8
0
 62
7
  6
CONTINUOUS
 10
97.4762265541
 20
185.7441494034
  0
VERTEX
  8
0
 62
7
  6
CONTINUOUS
 10
97.4816761364
 20
185.7161280411
  0
VERTEX
  8
0
 62
7
  6
CONTINUOUS
 10
97.4879215931
 20
185.6885883058
  0
VERTEX
  8
0
 62
7
  6
CONTINUOUS
 10
97.4949271984
 20
185.6615501661
  0
SEQEND
  0
POLYLINE
  8
0
 62
7
  6
CONTINUOUS
 66
1
 70
0
  0
VERTEX
  8
0
 62
7
  6
CONTINUOUS
 10
97.462786766
 20
185.8883601545
  0
VERTEX
  8
0
 62
7
  6
CONTINUOUS
 10
97.463104509
 20
185.8693949373
  0
VERTEX
  8
0
 62
7
  6
CONTINUOUS
 10
97.4641448261
 20
185.8457179185
  0
VERTEX
  8
0
 62
7
  6
CONTINUOUS
 10
97.4660135202
 20
185.8205288615
  0
VERTEX
  8
0
 62
7
  6
CONTINUOUS
 10
97.4688440408
 20
185.7937067577
  0
VERTEX
  8
0
 62
7
  6
CONTINUOUS
 10
97.4728220515
 20
185.7649488124
  0
VERTEX
  8
0
 62
7
  6
CONTINUOUS
 10
97.478147255
 20
185.7341690516
  0
VERTEX
  8
0
 62
7
  6
CONTINUOUS
 10
97.4850118637
 20
185.7014672216
  0
VERTEX
  8
0
 62
7
  6
CONTINUOUS
 10
97.4936145851
 20
185.66698135
  0
VERTEX
  8
0
 62
7
  6
CONTINUOUS
 10
97.5040282172
 20
185.6313190896
  0
VERTEX
  8
0
 62
7
  6
CONTINUOUS
 10
97.5162833877
 20
185.5950565121
  0
VERTEX
  8
0
 62
7
  6
CONTINUOUS
 10
97.5306101505
 20
185.5581732241
  0
VERTEX
  8
0
 62
7
  6
CONTINUOUS
 10
97.5472286
 20
185.5208634704
  0
VERTEX
  8
0
 62
7
  6
CONTINUOUS
 10
97.5664324099
 20
185.4833356714
  0
VERTEX
  8
0
 62
7
  6
CONTINUOUS
 10
97.5887420702
 20
185.4456563605
  0
VERTEX
  8
0
 62
7
  6
CONTINUOUS
 10
97.6145800147
 20
185.4084439556
  0
SEQEND
  0
POLYLINE
  8
0
 62
7
  6
CONTINUOUS
 66
1
 70
0
  0
VERTEX
  8
0
 62
7
  6
CONTINUOUS
 10
103.4627710642
 20
196.3382290216
  0
VERTEX
  8
0
 62
7
  6
CONTINUOUS
 10
103.4624669309
 20
196.3565298086
  0
VERTEX
  8
0
 62
7
  6
CONTINUOUS
 10
103.4614685911
 20
196.3796610581
  0
VERTEX
  8
0
 62
7
  6
CONTINUOUS
 10
103.4596847415
 20
196.4041402465
  0
VERTEX
  8
0
 62
7
  6
CONTINUOUS
 10
103.4569947103
 20
196.4301022921
  0
VERTEX
  8
0
 62
7
  6
CONTINUOUS
 10
103.4531947329
 20
196.4580661041
  0
VERTEX
  8
0
 62
7
  6
CONTINUOUS
 10
103.4481742073
 20
196.4876078823
  0
VERTEX
  8
0
 62
7
  6
CONTINUOUS
 10
103.4419522871
 20
196.5179039232
  0
VERTEX
  8
0
 62
7
  6
CONTINUOUS
 10
103.4343598736
 20
196.5492385189
  0
VERTEX
  8
0
 62
7
  6
CONTINUOUS
 10
103.4251272649
 20
196.582004419
  0
VERTEX
  8
0
 62
7
  6
CONTINUOUS
 10
103.4143633211
 20
196.6151981018
  0
VERTEX
  8
0
 62
7
  6
CONTINUOUS
 10
103.402842738
 20
196.6464555401
  0
VERTEX
  8
0
 62
7
  6
CONTINUOUS
 10
103.3911499424
 20
196.6747685259
  0
VERTEX
  8
0
 62
7
  6
CONTINUOUS
 10
103.3791440545
 20
196.700998858
  0
VERTEX
  8
0
 62
7
  6
CONTINUOUS
 10
103.3665838267
 20
196.7258993095
  0
VERTEX
  8
0
 62
7
  6
CONTINUOUS
 10
103.3532072882
 20
196.7499998624
  0
VERTEX
  8
0
 62
7
  6
CONTINUOUS
 10
103.3387375699
 20
196.7736492326
  0
VERTEX
  8
0
 62
7
  6
CONTINUOUS
 10
103.3229443886
 20
196.796952486
  0
SEQEND
  0
LINE
  8
0
 62
7
  6
CONTINUOUS
 10
103.4627710581
 20
196.3382316629
 11
103.4627201543
 21
196.3441862481
  0
LINE
  8
0
 62
7
  6
CONTINUOUS
 10
97.4627867914
 20
185.8883567824
 11
97.4628132979
 21
185.8845096533
  0
LINE
  8
0
 62
7
  6
CONTINUOUS
 10
103.4627710642
 20
196.3382290216
 11
103.4627793673
 21
185.8869849548
  0
LINE
  8
0
 62
7
  6
CONTINUOUS
 10
97.4627868266
 20
196.333323129
 11
97.462786766
 21
185.8883601545
  0
LINE
  8
0
 62
7
  6
CONTINUOUS
 10
103.4627709054
 20
185.883406796
 11
103.4627793673
 21
185.8869849437
  0
LINE
  8
0
 62
7
  6
CONTINUOUS
 10
97.4628318618
 20
196.3389188579
 11
97.4627868513
 21
196.3333264705
  0
POLYLINE
  8
0
 62
7
  6
CONTINUOUS
 66
1
 70
0
  0
VERTEX
  8
0
 62
7
  6
CONTINUOUS
 10
103.4600219558
 20
185.8213294214
  0
VERTEX
  8
0
 62
7
  6
CONTINUOUS
 10
103.461820101
 20
185.8484818815
  0
VERTEX
  8
0
 62
7
  6
CONTINUOUS
 10
103.4627002933
 20
185.8760019439
  0
VERTEX
  8
0
 62
7
  6
CONTINUOUS
 10
103.4627709007
 20
185.8834041774
  0
SEQEND
  0
POLYLINE
  8
0
 62
7
  6
CONTINUOUS
 66
1
 70
0
  0
VERTEX
  8
0
 62
7
  6
CONTINUOUS
 10
103.4596856521
 20
185.8175397002
  0
VERTEX
  8
0
 62
7
  6
CONTINUOUS
 10
103.4614689815
 20
185.8420152921
  0
VERTEX
  8
0
 62
7
  6
CONTINUOUS
 10
103.4624670197
 20
185.8651428972
  0
VERTEX
  8
0
 62
7
  6
CONTINUOUS
 10
103.4627709054
 20
185.883406796
  0
SEQEND
  0
LINE
  8
0
 62
7
  6
CONTINUOUS
 10
103.4569964218
 20
185.7915816497
 11
103.4600219558
 21
185.8213294214
  0
POLYLINE
  8
0
 62
7
  6
CONTINUOUS
 66
1
 70
0
  0
VERTEX
  8
0
 62
7
  6
CONTINUOUS
 10
97.5026739484
 20
185.635005026
  0
VERTEX
  8
0
 62
7
  6
CONTINUOUS
 10
97.5111560499
 20
185.608934954
  0
VERTEX
  8
0
 62
7
  6
CONTINUOUS
 10
97.5203734708
 20
185.5833376296
  0
VERTEX
  8
0
 62
7
  6
CONTINUOUS
 10
97.5304296122
 20
185.5579910449
  0
VERTEX
  8
0
 62
7
  6
CONTINUOUS
 10
97.5416221092
 20
185.5323489165
  0
VERTEX
  8
0
 62
7
  6
CONTINUOUS
 10
97.5542171211
 20
185.5061589661
  0
VERTEX
  8
0
 62
7
  6
CONTINUOUS
 10
97.5682783713
 20
185.479703786
  0
SEQEND
  0
POLYLINE
  8
0
 62
7
  6
CONTINUOUS
 66
1
 70
0
  0
VERTEX
  8
0
 62
7
  6
CONTINUOUS
 10
116.162750528
 20
196.3524893703
  0
VERTEX
  8
0
 62
7
  6
CONTINUOUS
 10
116.162068192
 20
196.378846649
  0
VERTEX
  8
0
 62
7
  6
CONTINUOUS
 10
116.1604235947
 20
196.406136541
  0
VERTEX
  8
0
 62
7
  6
CONTINUOUS
 10
116.1577735161
 20
196.4340527984
  0
VERTEX
  8
0
 62
7
  6
CONTINUOUS
 10
116.1541135066
 20
196.4622674528
  0
VERTEX
  8
0
 62
7
  6
CONTINUOUS
 10
116.1494627365
 20
196.4905254223
  0
VERTEX
  8
0
 62
7
  6
CONTINUOUS
 10
116.1438566785
 20
196.5186139332
  0
VERTEX
  8
0
 62
7
  6
CONTINUOUS
 10
116.1373380071
 20
196.5463650446
  0
VERTEX
  8
0
 62
7
  6
CONTINUOUS
 10
116.1299464065
 20
196.5736617543
  0
SEQEND
  0
POLYLINE
  8
0
 62
7
  6
CONTINUOUS
 66
1
 70
0
  0
VERTEX
  8
0
 62
7
  6
CONTINUOUS
 10
110.162792852
 20
185.8748793472
  0
VERTEX
  8
0
 62
7
  6
CONTINUOUS
 10
110.163511025
 20
185.8459069984
  0
VERTEX
  8
0
 62
7
  6
CONTINUOUS
 10
110.1651666786
 20
185.8186091787
  0
VERTEX
  8
0
 62
7
  6
CONTINUOUS
 10
110.1678050158
 20
185.7908140719
  0
VERTEX
  8
0
 62
7
  6
CONTINUOUS
 10
110.1714225377
 20
185.7627901064
  0
VERTEX
  8
0
 62
7
  6
CONTINUOUS
 10
110.1759957805
 20
185.7347598005
  0
VERTEX
  8
0
 62
7
  6
CONTINUOUS
 10
110.1814946296
 20
185.7068807841
  0
VERTEX
  8
0
 62
7
  6
CONTINUOUS
 10
110.1878840281
 20
185.6792862056
  0
VERTEX
  8
0
 62
7
  6
CONTINUOUS
 10
110.1951298217
 20
185.652080754
  0
VERTEX
  8
0
 62
7
  6
CONTINUOUS
 10
110.2032043818
 20
185.6253397208
  0
SEQEND
  0
POLYLINE
  8
0
 62
7
  6
CONTINUOUS
 66
1
 70
0
  0
VERTEX
  8
0
 62
7
  6
CONTINUOUS
 10
110.1627928657
 20
185.8748810341
  0
VERTEX
  8
0
 62
7
  6
CONTINUOUS
 10
110.1630936927
 20
185.8575273364
  0
VERTEX
  8
0
 62
7
  6
CONTINUOUS
 10
110.164094686
 20
185.8344680769
  0
VERTEX
  8
0
 62
7
  6
CONTINUOUS
 10
110.1658858324
 20
185.8100645579
  0
VERTEX
  8
0
 62
7
  6
CONTINUOUS
 10
110.1685844286
 20
185.7842512651
  0
VERTEX
  8
0
 62
7
  6
CONTINUOUS
 10
110.1723432816
 20
185.7568413835
  0
VERTEX
  8
0
 62
7
  6
CONTINUOUS
 10
110.177355481
 20
185.7276379455
  0
VERTEX
  8
0
 62
7
  6
CONTINUOUS
 10
110.1838126875
 20
185.6966670441
  0
VERTEX
  8
0
 62
7
  6
CONTINUOUS
 10
110.1918442517
 20
185.6642866464
  0
VERTEX
  8
0
 62
7
  6
CONTINUOUS
 10
110.201492439
 20
185.6310704221
  0
VERTEX
  8
0
 62
7
  6
CONTINUOUS
 10
110.2128550853
 20
185.5972812111
  0
VERTEX
  8
0
 62
7
  6
CONTINUOUS
 10
110.2261968144
 20
185.5627900397
  0
VERTEX
  8
0
 62
7
  6
CONTINUOUS
 10
110.2417994347
 20
185.5276653947
  0
VERTEX
  8
0
 62
7
  6
CONTINUOUS
 10
110.2599168535
 20
185.4922324481
  0
VERTEX
  8
0
 62
7
  6
CONTINUOUS
 10
110.2804449751
 20
185.4575320691
  0
SEQEND
  0
POLYLINE
  8
0
 62
7
  6
CONTINUOUS
 66
1
 70
0
  0
VERTEX
  8
0
 62
7
  6
CONTINUOUS
 10
116.1627793673
 20
196.3458825286
  0
VERTEX
  8
0
 62
7
  6
CONTINUOUS
 10
116.1624425406
 20
196.3685010225
  0
VERTEX
  8
0
 62
7
  6
CONTINUOUS
 10
116.161368729
 20
196.3923534884
  0
VERTEX
  8
0
 62
7
  6
CONTINUOUS
 10
116.1594452782
 20
196.4175936556
  0
VERTEX
  8
0
 62
7
  6
CONTINUOUS
 10
116.1565424097
 20
196.4443007987
  0
VERTEX
  8
0
 62
7
  6
CONTINUOUS
 10
116.1524865796
 20
196.4726961904
  0
VERTEX
  8
0
 62
7
  6
CONTINUOUS
 10
116.1470569801
 20
196.5029982271
  0
VERTEX
  8
0
 62
7
  6
CONTINUOUS
 10
116.1400444015
 20
196.5351254485
  0
VERTEX
  8
0
 62
7
  6
CONTINUOUS
 10
116.131331448
 20
196.5685802268
  0
VERTEX
  8
0
 62
7
  6
CONTINUOUS
 10
116.1208978731
 20
196.6026893289
  0
VERTEX
  8
0
 62
7
  6
CONTINUOUS
 10
116.1085751509
 20
196.6373621512
  0
VERTEX
  8
0
 62
7
  6
CONTINUOUS
 10
116.0940182451
 20
196.6727906757
  0
VERTEX
  8
0
 62
7
  6
CONTINUOUS
 10
116.0768869121
 20
196.7088417959
  0
VERTEX
  8
0
 62
7
  6
CONTINUOUS
 10
116.0573063806
 20
196.7443510329
  0
SEQEND
  0
LINE
  8
0
 62
7
  6
CONTINUOUS
 10
116.162750528
 20
196.3524893703
 11
116.1627793673
 21
185.875787069
  0
LINE
  8
0
 62
7
  6
CONTINUOUS
 10
110.1627928707
 20
196.3467893974
 11
110.1627928657
 21
185.8748810341
  0
LINE
  8
0
 62
7
  6
CONTINUOUS
 10
116.1627578901
 20
185.8700941249
 11
116.1627793673
 21
185.8757870546
  0
LINE
  8
0
 62
7
  6
CONTINUOUS
 10
110.1628264552
 20
196.3507279355
 11
110.162792857
 21
196.3467910839
  0
LINE
  8
0
 62
7
  6
CONTINUOUS
 10
116.1627270263
 20
185.866881609
 11
116.1627579266
 21
185.8700934376
  0
POLYLINE
  8
0
 62
7
  6
CONTINUOUS
 66
1
 70
0
  0
VERTEX
  8
0
 62
7
  6
CONTINUOUS
 10
110.2035627405
 20
196.5974463859
  0
VERTEX
  8
0
 62
7
  6
CONTINUOUS
 10
110.1954670977
 20
196.5707728893
  0
VERTEX
  8
0
 62
7
  6
CONTINUOUS
 10
110.1881951637
 20
196.5436294711
  0
VERTEX
  8
0
 62
7
  6
CONTINUOUS
 10
110.1817750589
 20
196.5160922417
  0
VERTEX
  8
0
 62
7
  6
CONTINUOUS
 10
110.176240663
 20
196.4882627967
  0
VERTEX
  8
0
 62
7
  6
CONTINUOUS
 10
110.1716275085
 20
196.4602741944
  0
VERTEX
  8
0
 62
7
  6
CONTINUOUS
 10
110.1679664451
 20
196.4322857266
  0
VERTEX
  8
0
 62
7
  6
CONTINUOUS
 10
110.1652814733
 20
196.4045198685
  0
VERTEX
  8
0
 62
7
  6
CONTINUOUS
 10
110.1635768934
 20
196.3772469619
  0
VERTEX
  8
0
 62
7
  6
CONTINUOUS
 10
110.1628264552
 20
196.3507279355
  0
SEQEND
  0
POLYLINE
  8
0
 62
7
  6
CONTINUOUS
 66
1
 70
0
  0
VERTEX
  8
0
 62
7
  6
CONTINUOUS
 10
110.2444044177
 20
196.6995589182
  0
VERTEX
  8
0
 62
7
  6
CONTINUOUS
 10
110.2328333369
 20
196.6746264347
  0
VERTEX
  8
0
 62
7
  6
CONTINUOUS
 10
110.222209712
 20
196.6493234641
  0
VERTEX
  8
0
 62
7
  6
CONTINUOUS
 10
110.2124676894
 20
196.6236116628
  0
SEQEND
  0
POLYLINE
  8
0
 62
7
  6
CONTINUOUS
 66
1
 70
0
  0
VERTEX
  8
0
 62
7
  6
CONTINUOUS
 10
97.6145734286
 20
196.8132169196
  0
VERTEX
  8
0
 62
7
  6
CONTINUOUS
 10
97.5887414639
 20
196.7760122803
  0
VERTEX
  8
0
 62
7
  6
CONTINUOUS
 10
97.5664316877
 20
196.7383326022
  0
VERTEX
  8
0
 62
7
  6
CONTINUOUS
 10
97.5472279522
 20
196.7008047583
  0
VERTEX
  8
0
 62
7
  6
CONTINUOUS
 10
97.5306098164
 20
196.6634955607
  0
VERTEX
  8
0
 62
7
  6
CONTINUOUS
 10
97.5162833717
 20
196.6266130319
  0
VERTEX
  8
0
 62
7
  6
CONTINUOUS
 10
97.5040282951
 20
196.5903507449
  0
VERTEX
  8
0
 62
7
  6
CONTINUOUS
 10
97.493614149
 20
196.5546866218
  0
VERTEX
  8
0
 62
7
  6
CONTINUOUS
 10
97.4850118772
 20
196.5202024244
  0
VERTEX
  8
0
 62
7
  6
CONTINUOUS
 10
97.4781478513
 20
196.4875036608
  0
VERTEX
  8
0
 62
7
  6
CONTINUOUS
 10
97.4728227249
 20
196.4567251185
  0
VERTEX
  8
0
 62
7
  6
CONTINUOUS
 10
97.4688445336
 20
196.4279668906
  0
VERTEX
  8
0
 62
7
  6
CONTINUOUS
 10
97.4660137603
 20
196.4011434112
  0
VERTEX
  8
0
 62
7
  6
CONTINUOUS
 10
97.4641449182
 20
196.3759532405
  0
VERTEX
  8
0
 62
7
  6
CONTINUOUS
 10
97.4631045315
 20
196.3522754297
  0
VERTEX
  8
0
 62
7
  6
CONTINUOUS
 10
97.4627868266
 20
196.333323129
  0
SEQEND
  0
POLYLINE
  8
0
 62
7
  6
CONTINUOUS
 66
1
 70
0
  0
VERTEX
  8
0
 62
7
  6
CONTINUOUS
 10
97.6145556289
 20
196.8131934632
  0
VERTEX
  8
0
 62
7
  6
CONTINUOUS
 10
97.6018002402
 20
196.795632408
  0
VERTEX
  8
0
 62
7
  6
CONTINUOUS
 10
97.5851202663
 20
196.7704120507
  0
VERTEX
  8
0
 62
7
  6
CONTINUOUS
 10
97.5699634578
 20
196.7449618527
  0
VERTEX
  8
0
 62
7
  6
CONTINUOUS
 10
97.5561985678
 20
196.7194047911
  0
VERTEX
  8
0
 62
7
  6
CONTINUOUS
 10
97.5436921504
 20
196.6938056683
  0
VERTEX
  8
0
 62
7
  6
CONTINUOUS
 10
97.5323558314
 20
196.6682703703
  0
VERTEX
  8
0
 62
7
  6
CONTINUOUS
 10
97.5220578685
 20
196.6427496377
  0
VERTEX
  8
0
 62
7
  6
CONTINUOUS
 10
97.5126610051
 20
196.617091024
  0
VERTEX
  8
0
 62
7
  6
CONTINUOUS
 10
97.5040644691
 20
196.5911314186
  0
VERTEX
  8
0
 62
7
  6
CONTINUOUS
 10
97.4961820932
 20
196.564630181
  0
VERTEX
  8
0
 62
7
  6
CONTINUOUS
 10
97.4889560119
 20
196.5372950162
  0
VERTEX
  8
0
 62
7
  6
CONTINUOUS
 10
97.4824183161
 20
196.5090307076
  0
VERTEX
  8
0
 62
7
  6
CONTINUOUS
 10
97.4766932743
 20
196.4801165927
  0
VERTEX
  8
0
 62
7
  6
CONTINUOUS
 10
97.4718956771
 20
196.450940272
  0
VERTEX
  8
0
 62
7
  6
CONTINUOUS
 10
97.4681116255
 20
196.4219901557
  0
VERTEX
  8
0
 62
7
  6
CONTINUOUS
 10
97.4653585509
 20
196.3935852244
  0
VERTEX
  8
0
 62
7
  6
CONTINUOUS
 10
97.463610897
 20
196.3658547615
  0
VERTEX
  8
0
 62
7
  6
CONTINUOUS
 10
97.4628318618
 20
196.3389188579
  0
SEQEND
  0
LINE
  8
0
 62
7
  6
CONTINUOUS
 10
97.6147283012
 20
196.813421671
 11
97.6145734286
 21
196.8132169196
  0
LINE
  8
0
 62
7
  6
CONTINUOUS
 10
97.6145800147
 20
185.4084439556
 11
97.6147283008
 21
185.408247916
  0
POLYLINE
  8
0
 62
7
  6
CONTINUOUS
 66
1
 70
0
  0
VERTEX
  8
0
 62
7
  6
CONTINUOUS
 10
97.5838542826
 20
185.4532855695
  0
VERTEX
  8
0
 62
7
  6
CONTINUOUS
 10
97.6009803833
 20
185.4272148084
  0
VERTEX
  8
0
 62
7
  6
CONTINUOUS
 10
97.6145626762
 20
185.4084668067
  0
SEQEND
  0
POLYLINE
  8
0
 62
7
  6
CONTINUOUS
 66
1
 70
0
  0
VERTEX
  8
0
 62
7
  6
CONTINUOUS
 10
110.25660974
 20
185.4982613164
  0
VERTEX
  8
0
 62
7
  6
CONTINUOUS
 10
110.2703631457
 20
185.4739123449
  0
VERTEX
  8
0
 62
7
  6
CONTINUOUS
 10
110.2804207298
 20
185.4575699621
  0
SEQEND
  0
POLYLINE
  8
0
 62
7
  6
CONTINUOUS
 66
1
 70
0
  0
VERTEX
  8
0
 62
7
  6
CONTINUOUS
 10
110.212093226
 20
185.5991024118
  0
VERTEX
  8
0
 62
7
  6
CONTINUOUS
 10
110.221823023
 20
185.5733171988
  0
VERTEX
  8
0
 62
7
  6
CONTINUOUS
 10
110.232436668
 20
185.5479433607
  0
VERTEX
  8
0
 62
7
  6
CONTINUOUS
 10
110.244000219
 20
185.5229411004
  0
SEQEND
  0
POLYLINE
  8
0
 62
7
  6
CONTINUOUS
 66
1
 70
0
  0
VERTEX
  8
0
 62
7
  6
CONTINUOUS
 10
122.8627793673
 20
185.8702183846
  0
VERTEX
  8
0
 62
7
  6
CONTINUOUS
 10
122.8631110215
 20
185.8478124686
  0
VERTEX
  8
0
 62
7
  6
CONTINUOUS
 10
122.8641655844
 20
185.8242724843
  0
VERTEX
  8
0
 62
7
  6
CONTINUOUS
 10
122.8660478793
 20
185.7994704051
  0
VERTEX
  8
0
 62
7
  6
CONTINUOUS
 10
122.8688800636
 20
185.7733255818
  0
VERTEX
  8
0
 62
7
  6
CONTINUOUS
 10
122.8728329476
 20
185.745585625
  0
VERTEX
  8
0
 62
7
  6
CONTINUOUS
 10
122.87813086
 20
185.7159930679
  0
VERTEX
  8
0
 62
7
  6
CONTINUOUS
 10
122.8849858961
 20
185.6846219488
  0
VERTEX
  8
0
 62
7
  6
CONTINUOUS
 10
122.8935105798
 20
185.6519967853
  0
VERTEX
  8
0
 62
7
  6
CONTINUOUS
 10
122.9036908997
 20
185.6188892274
  0
VERTEX
  8
0
 62
7
  6
CONTINUOUS
 10
122.9156943649
 20
185.5853467501
  0
VERTEX
  8
0
 62
7
  6
CONTINUOUS
 10
122.9299008285
 20
185.5510697115
  0
VERTEX
  8
0
 62
7
  6
CONTINUOUS
 10
122.9459323929
 20
185.5175934673
  0
SEQEND
  0
POLYLINE
  8
0
 62
7
  6
CONTINUOUS
 66
1
 70
0
  0
VERTEX
  8
0
 62
7
  6
CONTINUOUS
 10
122.862779519
 20
185.8702183846
  0
VERTEX
  8
0
 62
7
  6
CONTINUOUS
 10
122.8628181651
 20
185.8625647315
  0
VERTEX
  8
0
 62
7
  6
CONTINUOUS
 10
122.8635704199
 20
185.835532391
  0
VERTEX
  8
0
 62
7
  6
CONTINUOUS
 10
122.8653125964
 20
185.807942933
  0
VERTEX
  8
0
 62
7
  6
CONTINUOUS
 10
122.8680507691
 20
185.7801358345
  0
VERTEX
  8
0
 62
7
  6
CONTINUOUS
 10
122.8717562075
 20
185.7524117616
  0
VERTEX
  8
0
 62
7
  6
CONTINUOUS
 10
122.8763724145
 20
185.7250405558
  0
VERTEX
  8
0
 62
7
  6
CONTINUOUS
 10
122.8818380666
 20
185.6981851709
  0
VERTEX
  8
0
 62
7
  6
CONTINUOUS
 10
122.8880927442
 20
185.6719540103
  0
VERTEX
  8
0
 62
7
  6
CONTINUOUS
 10
122.895082331
 20
185.6464159283
  0
SEQEND
  0
LINE
  8
0
 62
7
  6
CONTINUOUS
 10
122.8627793673
 20
185.8702183988
 11
122.8627793673
 21
196.3514511916
  0
POLYLINE
  8
0
 62
7
  6
CONTINUOUS
 66
1
 70
0
  0
VERTEX
  8
0
 62
7
  6
CONTINUOUS
 10
122.8954137154
 20
196.5763871681
  0
VERTEX
  8
0
 62
7
  6
CONTINUOUS
 10
122.8884011657
 20
196.5509160251
  0
VERTEX
  8
0
 62
7
  6
CONTINUOUS
 10
122.8821189926
 20
196.5247504869
  0
VERTEX
  8
0
 62
7
  6
CONTINUOUS
 10
122.8766212694
 20
196.4979599125
  0
VERTEX
  8
0
 62
7
  6
CONTINUOUS
 10
122.8719679375
 20
196.470650027
  0
VERTEX
  8
0
 62
7
  6
CONTINUOUS
 10
122.8682199661
 20
196.4429797924
  0
VERTEX
  8
0
 62
7
  6
CONTINUOUS
 10
122.8654340979
 20
196.4152129255
  0
VERTEX
  8
0
 62
7
  6
CONTINUOUS
 10
122.8636406734
 20
196.387651355
  0
VERTEX
  8
0
 62
7
  6
CONTINUOUS
 10
122.8628351727
 20
196.3606319238
  0
VERTEX
  8
0
 62
7
  6
CONTINUOUS
 10
122.8627795191
 20
196.3514512058
  0
SEQEND
  0
POLYLINE
  8
0
 62
7
  6
CONTINUOUS
 66
1
 70
0
  0
VERTEX
  8
0
 62
7
  6
CONTINUOUS
 10
116.1189248879
 20
185.6128528907
  0
VERTEX
  8
0
 62
7
  6
CONTINUOUS
 10
116.1275570445
 20
185.6398973864
  0
VERTEX
  8
0
 62
7
  6
CONTINUOUS
 10
116.1353736665
 20
185.667684727
  0
VERTEX
  8
0
 62
7
  6
CONTINUOUS
 10
116.1423120232
 20
185.6960862953
  0
VERTEX
  8
0
 62
7
  6
CONTINUOUS
 10
116.1483065944
 20
185.7249252847
  0
VERTEX
  8
0
 62
7
  6
CONTINUOUS
 10
116.1532969205
 20
185.7539747758
  0
VERTEX
  8
0
 62
7
  6
CONTINUOUS
 10
116.15723912
 20
185.782975705
  0
VERTEX
  8
0
 62
7
  6
CONTINUOUS
 10
116.1601153237
 20
185.8116755685
  0
VERTEX
  8
0
 62
7
  6
CONTINUOUS
 10
116.161930211
 20
185.8397488162
  0
VERTEX
  8
0
 62
7
  6
CONTINUOUS
 10
116.1627270263
 20
185.866881609
  0
SEQEND
  0
POLYLINE
  8
0
 62
7
  6
CONTINUOUS
 66
1
 70
0
  0
VERTEX
  8
0
 62
7
  6
CONTINUOUS
 10
122.9459220324
 20
196.7040559711
  0
VERTEX
  8
0
 62
7
  6
CONTINUOUS
 10
122.9299005019
 20
196.6705991445
  0
VERTEX
  8
0
 62
7
  6
CONTINUOUS
 10
122.9156939757
 20
196.6363218258
  0
VERTEX
  8
0
 62
7
  6
CONTINUOUS
 10
122.903690589
 20
196.6027794224
  0
VERTEX
  8
0
 62
7
  6
CONTINUOUS
 10
122.8935104637
 20
196.5696723917
  0
VERTEX
  8
0
 62
7
  6
CONTINUOUS
 10
122.8849857348
 20
196.5370469642
  0
VERTEX
  8
0
 62
7
  6
CONTINUOUS
 10
122.8781307749
 20
196.5056760908
  0
VERTEX
  8
0
 62
7
  6
CONTINUOUS
 10
122.8728329169
 20
196.4760837734
  0
VERTEX
  8
0
 62
7
  6
CONTINUOUS
 10
122.8688800542
 20
196.448343933
  0
VERTEX
  8
0
 62
7
  6
CONTINUOUS
 10
122.86604787
 20
196.4221990839
  0
VERTEX
  8
0
 62
7
  6
CONTINUOUS
 10
122.8641655821
 20
196.3973970678
  0
VERTEX
  8
0
 62
7
  6
CONTINUOUS
 10
122.8631110221
 20
196.3738571422
  0
VERTEX
  8
0
 62
7
  6
CONTINUOUS
 10
122.8627793673
 20
196.3514512058
  0
SEQEND
  0
POLYLINE
  8
0
 62
7
  6
CONTINUOUS
 66
1
 70
0
  0
VERTEX
  8
0
 62
7
  6
CONTINUOUS
 10
122.9458786651
 20
196.7039720235
  0
VERTEX
  8
0
 62
7
  6
CONTINUOUS
 10
122.9404633589
 20
196.6931926349
  0
VERTEX
  8
0
 62
7
  6
CONTINUOUS
 10
122.9301551204
 20
196.6711937515
  0
VERTEX
  8
0
 62
7
  6
CONTINUOUS
 10
122.9204938664
 20
196.6485252126
  0
VERTEX
  8
0
 62
7
  6
CONTINUOUS
 10
122.9114824276
 20
196.6251870047
  0
VERTEX
  8
0
 62
7
  6
CONTINUOUS
 10
122.9031151108
 20
196.6011383745
  0
SEQEND
  0
LINE
  8
0
 62
7
  6
CONTINUOUS
 10
122.9466885505
 20
196.7055419323
 11
122.9459220324
 21
196.7040559711
  0
POLYLINE
  8
0
 62
7
  6
CONTINUOUS
 66
1
 70
0
  0
VERTEX
  8
0
 62
7
  6
CONTINUOUS
 10
116.0573081641
 20
185.4773215544
  0
VERTEX
  8
0
 62
7
  6
CONTINUOUS
 10
116.0768863676
 20
185.5128267336
  0
VERTEX
  8
0
 62
7
  6
CONTINUOUS
 10
116.0940175755
 20
185.548877393
  0
VERTEX
  8
0
 62
7
  6
CONTINUOUS
 10
116.108574578
 20
185.5843059332
  0
VERTEX
  8
0
 62
7
  6
CONTINUOUS
 10
116.1208975247
 20
185.618979204
  0
VERTEX
  8
0
 62
7
  6
CONTINUOUS
 10
116.1313312118
 20
185.6530885297
  0
VERTEX
  8
0
 62
7
  6
CONTINUOUS
 10
116.1400442886
 20
185.6865436711
  0
VERTEX
  8
0
 62
7
  6
CONTINUOUS
 10
116.1470568683
 20
185.7186707986
  0
VERTEX
  8
0
 62
7
  6
CONTINUOUS
 10
116.1524864922
 20
185.7489728509
  0
VERTEX
  8
0
 62
7
  6
CONTINUOUS
 10
116.1565423554
 20
185.7773683515
  0
VERTEX
  8
0
 62
7
  6
CONTINUOUS
 10
116.1594452534
 20
185.8040756585
  0
VERTEX
  8
0
 62
7
  6
CONTINUOUS
 10
116.1613687171
 20
185.8293158969
  0
VERTEX
  8
0
 62
7
  6
CONTINUOUS
 10
116.162442537
 20
185.8531684393
  0
VERTEX
  8
0
 62
7
  6
CONTINUOUS
 10
116.1627578901
 20
185.8700941249
  0
SEQEND
  0
POLYLINE
  8
0
 62
7
  6
CONTINUOUS
 66
1
 70
0
  0
VERTEX
  8
0
 62
7
  6
CONTINUOUS
 10
116.0573407119
 20
185.4773760714
  0
VERTEX
  8
0
 62
7
  6
CONTINUOUS
 10
116.0647909105
 20
185.4902552964
  0
VERTEX
  8
0
 62
7
  6
CONTINUOUS
 10
116.0770071612
 20
185.5130185959
  0
VERTEX
  8
0
 62
7
  6
CONTINUOUS
 10
116.0885451317
 20
185.5366789734
  0
VERTEX
  8
0
 62
7
  6
CONTINUOUS
 10
116.0993862775
 20
185.5612089582
  0
VERTEX
  8
0
 62
7
  6
CONTINUOUS
 10
116.109524587
 20
185.5866162734
  0
SEQEND
  0
POLYLINE
  8
0
 62
7
  6
CONTINUOUS
 66
1
 70
0
  0
VERTEX
  8
0
 62
7
  6
CONTINUOUS
 10
110.2804403672
 20
196.7641302971
  0
VERTEX
  8
0
 62
7
  6
CONTINUOUS
 10
110.2599176939
 20
196.7294386693
  0
VERTEX
  8
0
 62
7
  6
CONTINUOUS
 10
110.2418005491
 20
196.6940065324
  0
VERTEX
  8
0
 62
7
  6
CONTINUOUS
 10
110.2261979065
 20
196.6588821884
  0
VERTEX
  8
0
 62
7
  6
CONTINUOUS
 10
110.2128559312
 20
196.6243907231
  0
VERTEX
  8
0
 62
7
  6
CONTINUOUS
 10
110.2014929999
 20
196.5906009556
  0
VERTEX
  8
0
 62
7
  6
CONTINUOUS
 10
110.1918446077
 20
196.5573842607
  0
VERTEX
  8
0
 62
7
  6
CONTINUOUS
 10
110.1838129295
 20
196.525003603
  0
VERTEX
  8
0
 62
7
  6
CONTINUOUS
 10
110.1773556803
 20
196.4940326937
  0
VERTEX
  8
0
 62
7
  6
CONTINUOUS
 10
110.1723434156
 20
196.4648290792
  0
VERTEX
  8
0
 62
7
  6
CONTINUOUS
 10
110.1685845088
 20
196.4374189938
  0
VERTEX
  8
0
 62
7
  6
CONTINUOUS
 10
110.1658858707
 20
196.4116054669
  0
VERTEX
  8
0
 62
7
  6
CONTINUOUS
 10
110.1640947036
 20
196.3872018186
  0
VERTEX
  8
0
 62
7
  6
CONTINUOUS
 10
110.1630936973
 20
196.3641424194
  0
VERTEX
  8
0
 62
7
  6
CONTINUOUS
 10
110.1627928707
 20
196.3467893974
  0
SEQEND
  0
LINE
  8
0
 62
7
  6
CONTINUOUS
 10
116.0569045423
 20
185.4766438383
 11
116.0573081641
 21
185.4773215544
  0
POLYLINE
  8
0
 62
7
  6
CONTINUOUS
 66
1
 70
0
  0
VERTEX
  8
0
 62
7
  6
CONTINUOUS
 10
110.2804156152
 20
196.7640916166
  0
VERTEX
  8
0
 62
7
  6
CONTINUOUS
 10
110.2707817677
 20
196.7484608221
  0
VERTEX
  8
0
 62
7
  6
CONTINUOUS
 10
110.257020764
 20
196.7241725658
  0
SEQEND
  0
LINE
  8
0
 62
7
  6
CONTINUOUS
 10
110.2807085037
 20
196.7645504991
 11
110.2804403672
 21
196.7641302971
  0
POLYLINE
  8
0
 62
7
  6
CONTINUOUS
 66
1
 70
0
  0
VERTEX
  8
0
 62
7
  6
CONTINUOUS
 10
103.3229446297
 20
185.4247174408
  0
VERTEX
  8
0
 62
7
  6
CONTINUOUS
 10
103.3387386746
 20
185.4480220715
  0
VERTEX
  8
0
 62
7
  6
CONTINUOUS
 10
103.3532089283
 20
185.4716725423
  0
VERTEX
  8
0
 62
7
  6
CONTINUOUS
 10
103.3665859388
 20
185.4957742737
  0
VERTEX
  8
0
 62
7
  6
CONTINUOUS
 10
103.3791466338
 20
185.5206760985
  0
VERTEX
  8
0
 62
7
  6
CONTINUOUS
 10
103.391153174
 20
185.546908484
  0
VERTEX
  8
0
 62
7
  6
CONTINUOUS
 10
103.4028466964
 20
185.575224164
  0
VERTEX
  8
0
 62
7
  6
CONTINUOUS
 10
103.4143683996
 20
185.6064861393
  0
VERTEX
  8
0
 62
7
  6
CONTINUOUS
 10
103.4251329088
 20
185.6396838265
  0
VERTEX
  8
0
 62
7
  6
CONTINUOUS
 10
103.4343644909
 20
185.6724487365
  0
VERTEX
  8
0
 62
7
  6
CONTINUOUS
 10
103.4419560409
 20
185.7037824686
  0
VERTEX
  8
0
 62
7
  6
CONTINUOUS
 10
103.4481781267
 20
185.7340826217
  0
VERTEX
  8
0
 62
7
  6
CONTINUOUS
 10
103.4531979279
 20
185.7636244382
  0
VERTEX
  8
0
 62
7
  6
CONTINUOUS
 10
103.4573388444
 20
185.7942880546
  0
SEQEND
  0
POLYLINE
  8
0
 62
7
  6
CONTINUOUS
 66
1
 70
0
  0
VERTEX
  8
0
 62
7
  6
CONTINUOUS
 10
103.322950817
 20
185.4247260671
  0
VERTEX
  8
0
 62
7
  6
CONTINUOUS
 10
103.3335363758
 20
185.4400535534
  0
VERTEX
  8
0
 62
7
  6
CONTINUOUS
 10
103.3486360672
 20
185.4638456807
  0
VERTEX
  8
0
 62
7
  6
CONTINUOUS
 10
103.3628492426
 20
185.4886023578
  0
VERTEX
  8
0
 62
7
  6
CONTINUOUS
 10
103.3761834826
 20
185.5142689728
  0
VERTEX
  8
0
 62
7
  6
CONTINUOUS
 10
103.3886395933
 20
185.5407869943
  0
VERTEX
  8
0
 62
7
  6
CONTINUOUS
 10
103.4002092183
 20
185.5680862185
  0
VERTEX
  8
0
 62
7
  6
CONTINUOUS
 10
103.4108671629
 20
185.5960578623
  0
VERTEX
  8
0
 62
7
  6
CONTINUOUS
 10
103.4205840684
 20
185.6245728933
  0
VERTEX
  8
0
 62
7
  6
CONTINUOUS
 10
103.4293281403
 20
185.6534777144
  0
VERTEX
  8
0
 62
7
  6
CONTINUOUS
 10
103.4370631246
 20
185.6825726858
  0
VERTEX
  8
0
 62
7
  6
CONTINUOUS
 10
103.443712378
 20
185.7114101441
  0
VERTEX
  8
0
 62
7
  6
CONTINUOUS
 10
103.4492442726
 20
185.7395358343
  0
VERTEX
  8
0
 62
7
  6
CONTINUOUS
 10
103.4537604618
 20
185.7670930983
  0
SEQEND
  0
LINE
  8
0
 62
7
  6
CONTINUOUS
 10
103.3228847068
 20
185.4246336115
 11
103.3229446297
 21
185.4247174408
  0
LINE
  8
0
 62
7
  6
CONTINUOUS
 10
103.3229443886
 20
196.796952486
 11
103.3228847043
 21
196.7970359816
  0
LINE
  8
0
 62
7
  6
CONTINUOUS
 10
110.2804449751
 20
185.4575320691
 11
110.2807085038
 21
185.4571190948
  0
LINE
  8
0
 62
7
  6
CONTINUOUS
 10
116.0573063806
 20
196.7443510329
 11
116.056904546
 21
196.7450257434
  0
POLYLINE
  8
0
 62
7
  6
CONTINUOUS
 66
1
 70
0
  0
VERTEX
  8
0
 62
7
  6
CONTINUOUS
 10
116.0798110209
 20
196.7031089163
  0
VERTEX
  8
0
 62
7
  6
CONTINUOUS
 10
116.066714409
 20
196.7279710518
  0
VERTEX
  8
0
 62
7
  6
CONTINUOUS
 10
116.0573383162
 20
196.7442975348
  0
SEQEND
  0
LINE
  8
0
 62
7
  6
CONTINUOUS
 10
122.9459323929
 20
185.5175934673
 11
122.9466885507
 21
185.5161276545
  0
POLYLINE
  8
0
 62
7
  6
CONTINUOUS
 66
1
 70
0
  0
VERTEX
  8
0
 62
7
  6
CONTINUOUS
 10
122.9027649263
 20
185.6215968748
  0
VERTEX
  8
0
 62
7
  6
CONTINUOUS
 10
122.9111163358
 20
185.5974825733
  0
VERTEX
  8
0
 62
7
  6
CONTINUOUS
 10
122.9201154181
 20
185.5740786738
  0
VERTEX
  8
0
 62
7
  6
CONTINUOUS
 10
122.9297682424
 20
185.5513428064
  0
VERTEX
  8
0
 62
7
  6
CONTINUOUS
 10
122.9400701814
 20
185.5292793084
  0
VERTEX
  8
0
 62
7
  6
CONTINUOUS
 10
122.9458895272
 20
185.5176764512
  0
SEQEND
  0
POLYLINE
  8
0
 62
7
  6
CONTINUOUS
 66
1
 70
0
  0
VERTEX
  8
0
 62
7
  6
CONTINUOUS
 10
116.1217138578
 20
196.6004276393
  0
VERTEX
  8
0
 62
7
  6
CONTINUOUS
 10
116.1126359159
 20
196.6266873861
  0
VERTEX
  8
0
 62
7
  6
CONTINUOUS
 10
116.1026746716
 20
196.6525077942
  0
VERTEX
  8
0
 62
7
  6
CONTINUOUS
 10
116.0917648374
 20
196.6779575618
  0
SEQEND
  0
POLYLINE
  8
0
 62
7
  6
CONTINUOUS
 66
1
 70
0
  0
VERTEX
  8
0
 62
7
  6
CONTINUOUS
 10
128.8627603451
 20
196.3593094534
  0
VERTEX
  8
0
 62
7
  6
CONTINUOUS
 10
128.8619977217
 20
196.3883889952
  0
VERTEX
  8
0
 62
7
  6
CONTINUOUS
 10
128.8602789939
 20
196.4157081121
  0
VERTEX
  8
0
 62
7
  6
CONTINUOUS
 10
128.8575342434
 20
196.4435934626
  0
VERTEX
  8
0
 62
7
  6
CONTINUOUS
 10
128.8537166139
 20
196.471974201
  0
VERTEX
  8
0
 62
7
  6
CONTINUOUS
 10
128.84877922
 20
196.5007783219
  0
VERTEX
  8
0
 62
7
  6
CONTINUOUS
 10
128.8427290718
 20
196.5296858897
  0
VERTEX
  8
0
 62
7
  6
CONTINUOUS
 10
128.8356246839
 20
196.5583107878
  0
VERTEX
  8
0
 62
7
  6
CONTINUOUS
 10
128.8275412599
 20
196.5863599214
  0
SEQEND
  0
POLYLINE
  8
0
 62
7
  6
CONTINUOUS
 66
1
 70
0
  0
VERTEX
  8
0
 62
7
  6
CONTINUOUS
 10
128.8627603198
 20
196.3593097377
  0
VERTEX
  8
0
 62
7
  6
CONTINUOUS
 10
128.8624910972
 20
196.3748241999
  0
VERTEX
  8
0
 62
7
  6
CONTINUOUS
 10
128.8615790221
 20
196.3966404256
  0
VERTEX
  8
0
 62
7
  6
CONTINUOUS
 10
128.8599608256
 20
196.4195053669
  0
SEQEND
  0
POLYLINE
  8
0
 62
7
  6
CONTINUOUS
 66
1
 70
0
  0
VERTEX
  8
0
 62
7
  6
CONTINUOUS
 10
135.5627793673
 20
185.8641488735
  0
VERTEX
  8
0
 62
7
  6
CONTINUOUS
 10
135.5630944753
 20
185.8423583554
  0
VERTEX
  8
0
 62
7
  6
CONTINUOUS
 10
135.5640918271
 20
185.8196062235
  0
VERTEX
  8
0
 62
7
  6
CONTINUOUS
 10
135.565860249
 20
185.7958132579
  0
VERTEX
  8
0
 62
7
  6
CONTINUOUS
 10
135.5685045379
 20
185.7709042663
  0
SEQEND
  0
POLYLINE
  8
0
 62
7
  6
CONTINUOUS
 66
1
 70
0
  0
VERTEX
  8
0
 62
7
  6
CONTINUOUS
 10
135.562779512
 20
185.8641488711
  0
VERTEX
  8
0
 62
7
  6
CONTINUOUS
 10
135.562818153
 20
185.8565105015
  0
VERTEX
  8
0
 62
7
  6
CONTINUOUS
 10
135.5635814844
 20
185.8293406992
  0
VERTEX
  8
0
 62
7
  6
CONTINUOUS
 10
135.5653854583
 20
185.8012998039
  0
VERTEX
  8
0
 62
7
  6
CONTINUOUS
 10
135.5682760941
 20
185.7727658558
  0
VERTEX
  8
0
 62
7
  6
CONTINUOUS
 10
135.5722512641
 20
185.7441257323
  0
SEQEND
  0
LINE
  8
0
 62
7
  6
CONTINUOUS
 10
128.8627603198
 20
196.3593097377
 11
128.8627793673
 21
185.8677133332
  0
LINE
  8
0
 62
7
  6
CONTINUOUS
 10
135.5627793673
 20
185.8641488863
 11
135.5627793673
 21
196.3575207069
  0
LINE
  8
0
 62
7
  6
CONTINUOUS
 10
128.8627602637
 20
185.8623519701
 11
128.8627793673
 21
185.8677133238
  0
LINE
  8
0
 62
7
  6
CONTINUOUS
 10
128.8627231927
 20
185.858510777
 11
128.8627602891
 21
185.862352258
  0
POLYLINE
  8
0
 62
7
  6
CONTINUOUS
 66
1
 70
0
  0
VERTEX
  8
0
 62
7
  6
CONTINUOUS
 10
135.5655051406
 20
196.4218013188
  0
VERTEX
  8
0
 62
7
  6
CONTINUOUS
 10
135.5636507468
 20
196.3938039193
  0
VERTEX
  8
0
 62
7
  6
CONTINUOUS
 10
135.5628348852
 20
196.3666597863
  0
VERTEX
  8
0
 62
7
  6
CONTINUOUS
 10
135.5627795124
 20
196.3575207222
  0
SEQEND
  0
POLYLINE
  8
0
 62
7
  6
CONTINUOUS
 66
1
 70
0
  0
VERTEX
  8
0
 62
7
  6
CONTINUOUS
 10
128.8599607656
 20
185.8021635179
  0
VERTEX
  8
0
 62
7
  6
CONTINUOUS
 10
128.861578995
 20
185.8250286774
  0
VERTEX
  8
0
 62
7
  6
CONTINUOUS
 10
128.8624910897
 20
185.8468451119
  0
VERTEX
  8
0
 62
7
  6
CONTINUOUS
 10
128.8627602637
 20
185.8623519701
  0
SEQEND
  0
POLYLINE
  8
0
 62
7
  6
CONTINUOUS
 66
1
 70
0
  0
VERTEX
  8
0
 62
7
  6
CONTINUOUS
 10
135.5658603583
 20
196.4258575521
  0
VERTEX
  8
0
 62
7
  6
CONTINUOUS
 10
135.5640918731
 20
196.4020641527
  0
VERTEX
  8
0
 62
7
  6
CONTINUOUS
 10
135.5630944882
 20
196.3793116868
  0
VERTEX
  8
0
 62
7
  6
CONTINUOUS
 10
135.5627793673
 20
196.3575207198
  0
SEQEND
  0
POLYLINE
  8
0
 62
7
  6
CONTINUOUS
 66
1
 70
0
  0
VERTEX
  8
0
 62
7
  6
CONTINUOUS
 10
128.8573644986
 20
185.7766282922
  0
VERTEX
  8
0
 62
7
  6
CONTINUOUS
 10
128.8601599495
 20
185.8045004222
  0
VERTEX
  8
0
 62
7
  6
CONTINUOUS
 10
128.8619299167
 20
185.8318128618
  0
VERTEX
  8
0
 62
7
  6
CONTINUOUS
 10
128.8627231927
 20
185.858510777
  0
SEQEND
  0
LINE
  8
0
 62
7
  6
CONTINUOUS
 10
135.5685047548
 20
196.450767098
 11
135.5655051406
 21
196.4218013188
  0
LINE
  8
0
 62
7
  6
CONTINUOUS
 10
135.5724578559
 20
196.4788467682
 11
135.5684419459
 21
196.450275952
  0
LINE
  8
0
 62
7
  6
CONTINUOUS
 10
135.5775173857
 20
196.5072050657
 11
135.5721826528
 21
196.4770806935
  0
LINE
  8
0
 62
7
  6
CONTINUOUS
 10
135.583570983
 20
196.5351322052
 11
135.5771044815
 21
196.5050710136
  0
POLYLINE
  8
0
 62
7
  6
CONTINUOUS
 66
1
 70
0
  0
VERTEX
  8
0
 62
7
  6
CONTINUOUS
 10
128.8272039955
 20
185.6342198717
  0
VERTEX
  8
0
 62
7
  6
CONTINUOUS
 10
128.8353049595
 20
185.6621696776
  0
VERTEX
  8
0
 62
7
  6
CONTINUOUS
 10
128.842434379
 20
185.6906994416
  0
VERTEX
  8
0
 62
7
  6
CONTINUOUS
 10
128.8485184111
 20
185.7195263101
  0
VERTEX
  8
0
 62
7
  6
CONTINUOUS
 10
128.8534985479
 20
185.7482764348
  0
VERTEX
  8
0
 62
7
  6
CONTINUOUS
 10
128.8575436075
 20
185.7782059476
  0
SEQEND
  0
POLYLINE
  8
0
 62
7
  6
CONTINUOUS
 66
1
 70
0
  0
VERTEX
  8
0
 62
7
  6
CONTINUOUS
 10
135.6107290045
 20
196.6246959555
  0
VERTEX
  8
0
 62
7
  6
CONTINUOUS
 10
135.601050632
 20
196.5971820666
  0
VERTEX
  8
0
 62
7
  6
CONTINUOUS
 10
135.5913667346
 20
196.5653428722
  0
VERTEX
  8
0
 62
7
  6
CONTINUOUS
 10
135.5834476374
 20
196.5345840404
  0
SEQEND
  0
POLYLINE
  8
0
 62
7
  6
CONTINUOUS
 66
1
 70
0
  0
VERTEX
  8
0
 62
7
  6
CONTINUOUS
 10
135.61067967
 20
196.6245656894
  0
VERTEX
  8
0
 62
7
  6
CONTINUOUS
 10
135.6072436351
 20
196.6151998294
  0
VERTEX
  8
0
 62
7
  6
CONTINUOUS
 10
135.5984680329
 20
196.5891886847
  0
VERTEX
  8
0
 62
7
  6
CONTINUOUS
 10
135.5905677657
 20
196.5624847223
  0
SEQEND
  0
LINE
  8
0
 62
7
  6
CONTINUOUS
 10
135.6126687239
 20
196.6298051326
 11
135.6107290045
 21
196.6246959555
  0
POLYLINE
  8
0
 62
7
  6
CONTINUOUS
 66
1
 70
0
  0
VERTEX
  8
0
 62
7
  6
CONTINUOUS
 10
128.7918940302
 20
185.542554235
  0
VERTEX
  8
0
 62
7
  6
CONTINUOUS
 10
128.805413995
 20
185.5734274268
  0
VERTEX
  8
0
 62
7
  6
CONTINUOUS
 10
128.8177625223
 20
185.6058319982
  0
VERTEX
  8
0
 62
7
  6
CONTINUOUS
 10
128.8281778151
 20
185.6374460105
  0
VERTEX
  8
0
 62
7
  6
CONTINUOUS
 10
128.8368689301
 20
185.6681341746
  0
VERTEX
  8
0
 62
7
  6
CONTINUOUS
 10
128.844003954
 20
185.6977328416
  0
VERTEX
  8
0
 62
7
  6
CONTINUOUS
 10
128.8497335181
 20
185.7260709117
  0
VERTEX
  8
0
 62
7
  6
CONTINUOUS
 10
128.8541936249
 20
185.7529218697
  0
SEQEND
  0
POLYLINE
  8
0
 62
7
  6
CONTINUOUS
 66
1
 70
0
  0
VERTEX
  8
0
 62
7
  6
CONTINUOUS
 10
128.7919389233
 20
185.5426496307
  0
VERTEX
  8
0
 62
7
  6
CONTINUOUS
 10
128.7977116979
 20
185.5553274374
  0
VERTEX
  8
0
 62
7
  6
CONTINUOUS
 10
128.8083443968
 20
185.5806847384
  0
VERTEX
  8
0
 62
7
  6
CONTINUOUS
 10
128.8181963304
 20
185.6070173652
  0
SEQEND
  0
LINE
  8
0
 62
7
  6
CONTINUOUS
 10
128.7909244338
 20
185.5404923729
 11
128.7918940302
 21
185.542554235
  0
LINE
  8
0
 62
7
  6
CONTINUOUS
 10
128.7918923636
 20
196.6791189116
 11
128.7909244302
 21
196.6811772214
  0
LINE
  8
0
 62
7
  6
CONTINUOUS
 10
135.6106999381
 20
185.5970511254
 11
135.6126687214
 21
185.5918644629
  0
POLYLINE
  8
0
 62
7
  6
CONTINUOUS
 66
1
 70
0
  0
VERTEX
  8
0
 62
7
  6
CONTINUOUS
 10
128.8185456973
 20
196.6136586675
  0
VERTEX
  8
0
 62
7
  6
CONTINUOUS
 10
128.8087038859
 20
196.6400763935
  0
VERTEX
  8
0
 62
7
  6
CONTINUOUS
 10
128.7980809422
 20
196.6655069316
  0
VERTEX
  8
0
 62
7
  6
CONTINUOUS
 10
128.7919370995
 20
196.679023835
  0
SEQEND
  0
POLYLINE
  8
0
 62
7
  6
CONTINUOUS
 66
1
 70
0
  0
VERTEX
  8
0
 62
7
  6
CONTINUOUS
 10
135.591365988
 20
185.656329376
  0
VERTEX
  8
0
 62
7
  6
CONTINUOUS
 10
135.6010498311
 20
185.6244899505
  0
VERTEX
  8
0
 62
7
  6
CONTINUOUS
 10
135.6106999381
 20
185.5970511254
  0
SEQEND
  0
POLYLINE
  8
0
 62
7
  6
CONTINUOUS
 66
1
 70
0
  0
VERTEX
  8
0
 62
7
  6
CONTINUOUS
 10
135.5902719193
 20
185.660260934
  0
VERTEX
  8
0
 62
7
  6
CONTINUOUS
 10
135.5981506187
 20
185.6334864352
  0
VERTEX
  8
0
 62
7
  6
CONTINUOUS
 10
135.6069077464
 20
185.6074078967
  0
VERTEX
  8
0
 62
7
  6
CONTINUOUS
 10
135.6106499427
 20
185.5971832138
  0
SEQEND
  0
LINE
  8
0
 62
7
  6
CONTINUOUS
 10
135.5833000014
 20
185.6876886778
 11
135.591365988
 21
185.656329376
  0
LINE
  8
0
 62
7
  6
CONTINUOUS
 10
135.5771041077
 20
185.7166004951
 11
135.5834470892
 21
185.6870878712
  0
LINE
  8
0
 62
7
  6
CONTINUOUS
 10
135.5721823702
 20
185.7445906972
 11
135.5772758191
 21
185.7156927534
  0
POLYLINE
  8
0
 62
7
  6
CONTINUOUS
 66
1
 70
0
  0
VERTEX
  8
0
 62
7
  6
CONTINUOUS
 10
128.8541938394
 20
196.4687462756
  0
VERTEX
  8
0
 62
7
  6
CONTINUOUS
 10
128.8497338482
 20
196.4955968781
  0
VERTEX
  8
0
 62
7
  6
CONTINUOUS
 10
128.8440044863
 20
196.5239343385
  0
VERTEX
  8
0
 62
7
  6
CONTINUOUS
 10
128.8368696947
 20
196.55353249
  0
VERTEX
  8
0
 62
7
  6
CONTINUOUS
 10
128.8281787419
 20
196.5842205441
  0
VERTEX
  8
0
 62
7
  6
CONTINUOUS
 10
128.8177632464
 20
196.6158355444
  0
VERTEX
  8
0
 62
7
  6
CONTINUOUS
 10
128.8054143773
 20
196.6482412235
  0
VERTEX
  8
0
 62
7
  6
CONTINUOUS
 10
128.7918923636
 20
196.6791189116
  0
SEQEND
  0
POLYLINE
  8
0
 62
7
  6
CONTINUOUS
 66
1
 70
0
  0
VERTEX
  8
0
 62
7
  6
CONTINUOUS
 10
148.2627793673
 20
185.8611700071
  0
VERTEX
  8
0
 62
7
  6
CONTINUOUS
 10
148.2631262293
 20
185.8383471589
  0
VERTEX
  8
0
 62
7
  6
CONTINUOUS
 10
148.2642225588
 20
185.8146050689
  0
VERTEX
  8
0
 62
7
  6
CONTINUOUS
 10
148.2661542415
 20
185.7899706442
  0
VERTEX
  8
0
 62
7
  6
CONTINUOUS
 10
148.2690394048
 20
185.7642561265
  0
VERTEX
  8
0
 62
7
  6
CONTINUOUS
 10
148.2731199756
 20
185.7367619811
  0
VERTEX
  8
0
 62
7
  6
CONTINUOUS
 10
148.2786488136
 20
185.7073671108
  0
SEQEND
  0
POLYLINE
  8
0
 62
7
  6
CONTINUOUS
 66
1
 70
0
  0
VERTEX
  8
0
 62
7
  6
CONTINUOUS
 10
141.5627793673
 20
196.3589291334
  0
VERTEX
  8
0
 62
7
  6
CONTINUOUS
 10
141.5625270909
 20
196.3784109844
  0
VERTEX
  8
0
 62
7
  6
CONTINUOUS
 10
141.5617333799
 20
196.3986398628
  0
VERTEX
  8
0
 62
7
  6
CONTINUOUS
 10
141.5603359481
 20
196.4196727806
  0
VERTEX
  8
0
 62
7
  6
CONTINUOUS
 10
141.5582694168
 20
196.4414991984
  0
VERTEX
  8
0
 62
7
  6
CONTINUOUS
 10
141.55543928
 20
196.4642874998
  0
VERTEX
  8
0
 62
7
  6
CONTINUOUS
 10
141.551696272
 20
196.4883589481
  0
VERTEX
  8
0
 62
7
  6
CONTINUOUS
 10
141.5468972739
 20
196.513735473
  0
VERTEX
  8
0
 62
7
  6
CONTINUOUS
 10
141.5409356239
 20
196.5401929804
  0
VERTEX
  8
0
 62
7
  6
CONTINUOUS
 10
141.5336847849
 20
196.5676064641
  0
VERTEX
  8
0
 62
7
  6
CONTINUOUS
 10
141.5249443261
 20
196.5960390338
  0
SEQEND
  0
LINE
  8
0
 62
7
  6
CONTINUOUS
 10
141.5627793673
 20
196.358929127
 11
141.5627793673
 21
185.8627404607
  0
LINE
  8
0
 62
7
  6
CONTINUOUS
 10
148.2627793673
 20
185.861170017
 11
148.2627793673
 21
196.3604995737
  0
POLYLINE
  8
0
 62
7
  6
CONTINUOUS
 66
1
 70
0
  0
VERTEX
  8
0
 62
7
  6
CONTINUOUS
 10
148.2786488127
 20
196.5143024725
  0
VERTEX
  8
0
 62
7
  6
CONTINUOUS
 10
148.2731199226
 20
196.4849072915
  0
VERTEX
  8
0
 62
7
  6
CONTINUOUS
 10
148.2690395239
 20
196.4574143823
  0
VERTEX
  8
0
 62
7
  6
CONTINUOUS
 10
148.2661541746
 20
196.4316982418
  0
VERTEX
  8
0
 62
7
  6
CONTINUOUS
 10
148.2642225508
 20
196.407064393
  0
VERTEX
  8
0
 62
7
  6
CONTINUOUS
 10
148.263126237
 20
196.3833226867
  0
VERTEX
  8
0
 62
7
  6
CONTINUOUS
 10
148.2627793673
 20
196.3604995837
  0
SEQEND
  0
POLYLINE
  8
0
 62
7
  6
CONTINUOUS
 66
1
 70
0
  0
VERTEX
  8
0
 62
7
  6
CONTINUOUS
 10
141.5249443253
 20
185.6256305581
  0
VERTEX
  8
0
 62
7
  6
CONTINUOUS
 10
141.5336847918
 20
185.654063154
  0
VERTEX
  8
0
 62
7
  6
CONTINUOUS
 10
141.5409358029
 20
185.6814773451
  0
VERTEX
  8
0
 62
7
  6
CONTINUOUS
 10
141.5468973704
 20
185.7079345837
  0
VERTEX
  8
0
 62
7
  6
CONTINUOUS
 10
141.5516963619
 20
185.7333111625
  0
VERTEX
  8
0
 62
7
  6
CONTINUOUS
 10
141.5554393352
 20
185.7573824832
  0
VERTEX
  8
0
 62
7
  6
CONTINUOUS
 10
141.558269414
 20
185.7801703629
  0
VERTEX
  8
0
 62
7
  6
CONTINUOUS
 10
141.5603359731
 20
185.8019971181
  0
VERTEX
  8
0
 62
7
  6
CONTINUOUS
 10
141.5617333883
 20
185.8230298857
  0
VERTEX
  8
0
 62
7
  6
CONTINUOUS
 10
141.5625270913
 20
185.843258621
  0
VERTEX
  8
0
 62
7
  6
CONTINUOUS
 10
141.5627793673
 20
185.8627404543
  0
SEQEND
  0
POLYLINE
  8
0
 62
7
  6
CONTINUOUS
 66
1
 70
0
  0
VERTEX
  8
0
 62
7
  6
CONTINUOUS
 10
154.2627793673
 20
196.3608153695
  0
VERTEX
  8
0
 62
7
  6
CONTINUOUS
 10
154.2625306761
 20
196.3801304197
  0
VERTEX
  8
0
 62
7
  6
CONTINUOUS
 10
154.2618000809
 20
196.3991382089
  0
VERTEX
  8
0
 62
7
  6
CONTINUOUS
 10
154.2606048201
 20
196.4179021436
  0
VERTEX
  8
0
 62
7
  6
CONTINUOUS
 10
154.2589641907
 20
196.4363874623
  0
SEQEND
  0
LINE
  8
0
 62
7
  6
CONTINUOUS
 10
154.2627793673
 20
185.8608542324
 11
154.2627793673
 21
196.3608153556
  0
LINE
  8
0
 62
7
  6
CONTINUOUS
 10
160.9627793673
 20
196.3608347943
 11
160.9627793673
 21
185.8608347943
  0
POLYLINE
  8
0
 62
7
  6
CONTINUOUS
 66
1
 70
0
  0
VERTEX
  8
0
 62
7
  6
CONTINUOUS
 10
154.2589641907
 20
185.7852821262
  0
VERTEX
  8
0
 62
7
  6
CONTINUOUS
 10
154.2606051573
 20
185.8037718645
  0
VERTEX
  8
0
 62
7
  6
CONTINUOUS
 10
154.2618003354
 20
185.822536358
  0
VERTEX
  8
0
 62
7
  6
CONTINUOUS
 10
154.2625308028
 20
185.8415440885
  0
VERTEX
  8
0
 62
7
  6
CONTINUOUS
 10
154.2627793673
 20
185.860854219
  0
SEQEND
  0
LINE
  8
0
 62
7
  6
CONTINUOUS
 10
166.9627793673
 20
185.8608347943
 11
166.9627793673
 21
196.3608347943
  0
LINE
  8
0
 62
7
  6
CONTINUOUS
 10
173.6627793673
 20
196.3608347943
 11
173.6627793673
 21
185.8608347943
  0
LINE
  8
0
 62
7
  6
CONTINUOUS
 10
179.6627793673
 20
185.8608347943
 11
179.6627793673
 21
196.3608347943
  0
LINE
  8
0
 62
7
  6
CONTINUOUS
 10
26.9627793673
 20
185.1108347943
 11
331.8627793673
 21
185.1108347943
  0
LINE
  8
0
 62
7
  6
CONTINUOUS
 10
39.6313157901
 20
190.2438697306
 11
37.2270675415
 21
190.2438697306
  0
LINE
  8
0
 62
7
  6
CONTINUOUS
 10
53.9313157901
 20
190.2860742005
 11
51.4942429444
 21
190.2860742005
  0
LINE
  8
0
 62
7
  6
CONTINUOUS
 10
67.9313157901
 20
190.3310004219
 11
65.6942429444
 21
190.3310004219
  0
LINE
  8
0
 62
7
  6
CONTINUOUS
 10
81.9313157901
 20
190.3784461721
 11
79.6942429444
 21
190.3784461721
  0
LINE
  8
DEFAULT_1
 62
2
  6
CENTER
 10
27.2627793673
 20
191.1108347943
 11
334.0627793673
 21
191.1108347943
  0
LINE
  8
0
 62
7
  6
CONTINUOUS
 10
82.1543512119
 20
191.5532116429
 11
79.4712074853
 21
191.5532116429
  0
LINE
  8
0
 62
7
  6
CONTINUOUS
 10
68.2028135787
 20
191.5532116429
 11
65.4227451663
 21
191.5532116429
  0
LINE
  8
0
 62
7
  6
CONTINUOUS
 10
54.2433005006
 20
191.5532116429
 11
51.1822582853
 21
191.5532116429
  0
LINE
  8
0
 62
7
  6
CONTINUOUS
 10
39.9781120436
 20
191.5532116429
 11
36.8802712852
 21
191.5532116429
  0
POLYLINE
  8
0
 62
7
  6
CONTINUOUS
 66
1
 70
0
  0
VERTEX
  8
0
 62
7
  6
CONTINUOUS
 10
82.1543512119
 20
191.5532116429
  0
VERTEX
  8
0
 62
7
  6
CONTINUOUS
 10
82.1890090621
 20
191.5524804856
  0
VERTEX
  8
0
 62
7
  6
CONTINUOUS
 10
82.2219619438
 20
191.5502307482
  0
VERTEX
  8
0
 62
7
  6
CONTINUOUS
 10
82.2531122391
 20
191.5464350912
  0
VERTEX
  8
0
 62
7
  6
CONTINUOUS
 10
82.2823149037
 20
191.5411416729
  0
VERTEX
  8
0
 62
7
  6
CONTINUOUS
 10
82.3095742154
 20
191.5344273741
  0
VERTEX
  8
0
 62
7
  6
CONTINUOUS
 10
82.3349910431
 20
191.5263623057
  0
VERTEX
  8
0
 62
7
  6
CONTINUOUS
 10
82.3586485314
 20
191.5170166752
  0
VERTEX
  8
0
 62
7
  6
CONTINUOUS
 10
82.3806475567
 20
191.5064414964
  0
VERTEX
  8
0
 62
7
  6
CONTINUOUS
 10
82.4011914342
 20
191.4945994608
  0
VERTEX
  8
0
 62
7
  6
CONTINUOUS
 10
82.4204988537
 20
191.481359749
  0
VERTEX
  8
0
 62
7
  6
CONTINUOUS
 10
82.4386878698
 20
191.4665537918
  0
VERTEX
  8
0
 62
7
  6
CONTINUOUS
 10
82.4558410942
 20
191.4499221716
  0
VERTEX
  8
0
 62
7
  6
CONTINUOUS
 10
82.4718937085
 20
191.4312059784
  0
VERTEX
  8
0
 62
7
  6
CONTINUOUS
 10
82.4865983512
 20
191.4102531457
  0
VERTEX
  8
0
 62
7
  6
CONTINUOUS
 10
82.4996787006
 20
191.3868857954
  0
VERTEX
  8
0
 62
7
  6
CONTINUOUS
 10
82.5107265281
 20
191.3611209973
  0
VERTEX
  8
0
 62
7
  6
CONTINUOUS
 10
82.5192848063
 20
191.3332685786
  0
SEQEND
  0
POLYLINE
  8
0
 62
7
  6
CONTINUOUS
 66
1
 70
0
  0
VERTEX
  8
0
 62
7
  6
CONTINUOUS
 10
68.2028135787
 20
191.5532116429
  0
VERTEX
  8
0
 62
7
  6
CONTINUOUS
 10
68.2369168288
 20
191.5523615686
  0
VERTEX
  8
0
 62
7
  6
CONTINUOUS
 10
68.2697598748
 20
191.5497565711
  0
VERTEX
  8
0
 62
7
  6
CONTINUOUS
 10
68.3012275065
 20
191.5453499667
  0
VERTEX
  8
0
 62
7
  6
CONTINUOUS
 10
68.3312141183
 20
191.5391348972
  0
VERTEX
  8
0
 62
7
  6
CONTINUOUS
 10
68.3597265505
 20
191.5311044141
  0
VERTEX
  8
0
 62
7
  6
CONTINUOUS
 10
68.3867625267
 20
191.5212515311
  0
VERTEX
  8
0
 62
7
  6
CONTINUOUS
 10
68.4122676145
 20
191.5095860159
  0
VERTEX
  8
0
 62
7
  6
CONTINUOUS
 10
68.4362960358
 20
191.4960536797
  0
VERTEX
  8
0
 62
7
  6
CONTINUOUS
 10
68.4589545645
 20
191.4805021857
  0
VERTEX
  8
0
 62
7
  6
CONTINUOUS
 10
68.4802227624
 20
191.4627686888
  0
VERTEX
  8
0
 62
7
  6
CONTINUOUS
 10
68.5000030717
 20
191.4426668297
  0
VERTEX
  8
0
 62
7
  6
CONTINUOUS
 10
68.5179915694
 20
191.4201734161
  0
VERTEX
  8
0
 62
7
  6
CONTINUOUS
 10
68.5338096203
 20
191.3954408007
  0
VERTEX
  8
0
 62
7
  6
CONTINUOUS
 10
68.5471856371
 20
191.3686016846
  0
VERTEX
  8
0
 62
7
  6
CONTINUOUS
 10
68.5578321453
 20
191.3400052288
  0
VERTEX
  8
0
 62
7
  6
CONTINUOUS
 10
68.5656848521
 20
191.3095213242
  0
SEQEND
  0
POLYLINE
  8
0
 62
7
  6
CONTINUOUS
 66
1
 70
0
  0
VERTEX
  8
0
 62
7
  6
CONTINUOUS
 10
54.2433005006
 20
191.5532116429
  0
VERTEX
  8
0
 62
7
  6
CONTINUOUS
 10
54.2783584408
 20
191.5522069984
  0
VERTEX
  8
0
 62
7
  6
CONTINUOUS
 10
54.3116937847
 20
191.5492096829
  0
VERTEX
  8
0
 62
7
  6
CONTINUOUS
 10
54.3433368907
 20
191.5442571059
  0
VERTEX
  8
0
 62
7
  6
CONTINUOUS
 10
54.3734400631
 20
191.5373612038
  0
VERTEX
  8
0
 62
7
  6
CONTINUOUS
 10
54.4020841423
 20
191.5285163951
  0
VERTEX
  8
0
 62
7
  6
CONTINUOUS
 10
54.4291825495
 20
191.5177562968
  0
VERTEX
  8
0
 62
7
  6
CONTINUOUS
 10
54.4546980623
 20
191.5051055662
  0
VERTEX
  8
0
 62
7
  6
CONTINUOUS
 10
54.478745507
 20
191.4904829023
  0
VERTEX
  8
0
 62
7
  6
CONTINUOUS
 10
54.5015016027
 20
191.4736611312
  0
VERTEX
  8
0
 62
7
  6
CONTINUOUS
 10
54.5229987667
 20
191.4543632294
  0
VERTEX
  8
0
 62
7
  6
CONTINUOUS
 10
54.5430710906
 20
191.4323543156
  0
VERTEX
  8
0
 62
7
  6
CONTINUOUS
 10
54.561274948
 20
191.4076797334
  0
VERTEX
  8
0
 62
7
  6
CONTINUOUS
 10
54.577241343
 20
191.3803980728
  0
VERTEX
  8
0
 62
7
  6
CONTINUOUS
 10
54.5906055048
 20
191.3506884846
  0
VERTEX
  8
0
 62
7
  6
CONTINUOUS
 10
54.6010367926
 20
191.3189021481
  0
VERTEX
  8
0
 62
7
  6
CONTINUOUS
 10
54.608379887
 20
191.2850621622
  0
SEQEND
  0
POLYLINE
  8
0
 62
7
  6
CONTINUOUS
 66
1
 70
0
  0
VERTEX
  8
0
 62
7
  6
CONTINUOUS
 10
39.9781120436
 20
191.5532116429
  0
VERTEX
  8
0
 62
7
  6
CONTINUOUS
 10
40.0136356938
 20
191.5521014738
  0
VERTEX
  8
0
 62
7
  6
CONTINUOUS
 10
40.0474891108
 20
191.5488007703
  0
VERTEX
  8
0
 62
7
  6
CONTINUOUS
 10
40.0798278565
 20
191.5433318226
  0
VERTEX
  8
0
 62
7
  6
CONTINUOUS
 10
40.1107538479
 20
191.5356884116
  0
VERTEX
  8
0
 62
7
  6
CONTINUOUS
 10
40.1402639368
 20
191.5258601848
  0
VERTEX
  8
0
 62
7
  6
CONTINUOUS
 10
40.168244655
 20
191.5138691922
  0
VERTEX
  8
0
 62
7
  6
CONTINUOUS
 10
40.1946884327
 20
191.4996920645
  0
VERTEX
  8
0
 62
7
  6
CONTINUOUS
 10
40.2196958287
 20
191.4831896301
  0
VERTEX
  8
0
 62
7
  6
CONTINUOUS
 10
40.2432794346
 20
191.4641732455
  0
VERTEX
  8
0
 62
7
  6
CONTINUOUS
 10
40.2653088997
 20
191.4424721508
  0
VERTEX
  8
0
 62
7
  6
CONTINUOUS
 10
40.2854431941
 20
191.4180989896
  0
VERTEX
  8
0
 62
7
  6
CONTINUOUS
 10
40.3032649574
 20
191.391280175
  0
VERTEX
  8
0
 62
7
  6
CONTINUOUS
 10
40.3185790334
 20
191.3620537052
  0
VERTEX
  8
0
 62
7
  6
CONTINUOUS
 10
40.3311809023
 20
191.3304807694
  0
VERTEX
  8
0
 62
7
  6
CONTINUOUS
 10
40.3408774003
 20
191.2965694735
  0
VERTEX
  8
0
 62
7
  6
CONTINUOUS
 10
40.3474438305
 20
191.2603158169
  0
SEQEND
  0
POLYLINE
  8
0
 62
7
  6
CONTINUOUS
 66
1
 70
0
  0
VERTEX
  8
0
 62
7
  6
CONTINUOUS
 10
37.2270675415
 20
190.2438697306
  0
VERTEX
  8
0
 62
7
  6
CONTINUOUS
 10
37.1734553429
 20
190.2459872458
  0
VERTEX
  8
0
 62
7
  6
CONTINUOUS
 10
37.1199854078
 20
190.2523630267
  0
VERTEX
  8
0
 62
7
  6
CONTINUOUS
 10
37.0671002563
 20
190.2629951304
  0
VERTEX
  8
0
 62
7
  6
CONTINUOUS
 10
37.0150530908
 20
190.2778909367
  0
VERTEX
  8
0
 62
7
  6
CONTINUOUS
 10
36.9638038979
 20
190.2971892732
  0
VERTEX
  8
0
 62
7
  6
CONTINUOUS
 10
36.9137658376
 20
190.3209142146
  0
VERTEX
  8
0
 62
7
  6
CONTINUOUS
 10
36.8653471536
 20
190.3490403694
  0
VERTEX
  8
0
 62
7
  6
CONTINUOUS
 10
36.8185581799
 20
190.3817792844
  0
VERTEX
  8
0
 62
7
  6
CONTINUOUS
 10
36.7737078344
 20
190.4192069844
  0
VERTEX
  8
0
 62
7
  6
CONTINUOUS
 10
36.7312407968
 20
190.4612414955
  0
VERTEX
  8
0
 62
7
  6
CONTINUOUS
 10
36.6913251645
 20
190.5080308782
  0
VERTEX
  8
0
 62
7
  6
CONTINUOUS
 10
36.6542687632
 20
190.5595964775
  0
VERTEX
  8
0
 62
7
  6
CONTINUOUS
 10
36.6205310838
 20
190.6156638888
  0
VERTEX
  8
0
 62
7
  6
CONTINUOUS
 10
36.5903617988
 20
190.676174357
  0
VERTEX
  8
0
 62
7
  6
CONTINUOUS
 10
36.5640559787
 20
190.7409595928
  0
VERTEX
  8
0
 62
7
  6
CONTINUOUS
 10
36.5419758645
 20
190.8095646951
  0
VERTEX
  8
0
 62
7
  6
CONTINUOUS
 10
36.5244355474
 20
190.8814020484
  0
VERTEX
  8
0
 62
7
  6
CONTINUOUS
 10
36.5116953362
 20
190.9557100685
  0
VERTEX
  8
0
 62
7
  6
CONTINUOUS
 10
36.5039343569
 20
191.0315678964
  0
VERTEX
  8
0
 62
7
  6
CONTINUOUS
 10
36.5012247394
 20
191.1079913037
  0
VERTEX
  8
0
 62
7
  6
CONTINUOUS
 10
36.5035583839
 20
191.1844189388
  0
VERTEX
  8
0
 62
7
  6
CONTINUOUS
 10
36.5109396642
 20
191.2603170708
  0
SEQEND
  0
POLYLINE
  8
0
 62
7
  6
CONTINUOUS
 66
1
 70
0
  0
VERTEX
  8
0
 62
7
  6
CONTINUOUS
 10
51.4942429444
 20
190.2860742005
  0
VERTEX
  8
0
 62
7
  6
CONTINUOUS
 10
51.4423355104
 20
190.2881810675
  0
VERTEX
  8
0
 62
7
  6
CONTINUOUS
 10
51.3904959294
 20
190.2945367439
  0
VERTEX
  8
0
 62
7
  6
CONTINUOUS
 10
51.3391947862
 20
190.305148275
  0
VERTEX
  8
0
 62
7
  6
CONTINUOUS
 10
51.2887836869
 20
190.319998142
  0
VERTEX
  8
0
 62
7
  6
CONTINUOUS
 10
51.2392364044
 20
190.3392034341
  0
VERTEX
  8
0
 62
7
  6
CONTINUOUS
 10
51.1907705875
 20
190.3628672775
  0
VERTEX
  8
0
 62
7
  6
CONTINUOUS
 10
51.1438491496
 20
190.3909627733
  0
VERTEX
  8
0
 62
7
  6
CONTINUOUS
 10
51.0988332197
 20
190.423455074
  0
VERTEX
  8
0
 62
7
  6
CONTINUOUS
 10
51.0557672959
 20
190.4605476472
  0
VERTEX
  8
0
 62
7
  6
CONTINUOUS
 10
51.0149860921
 20
190.5022579532
  0
VERTEX
  8
0
 62
7
  6
CONTINUOUS
 10
50.9767366311
 20
190.5486816001
  0
VERTEX
  8
0
 62
7
  6
CONTINUOUS
 10
50.941441069
 20
190.5996771989
  0
VERTEX
  8
0
 62
7
  6
CONTINUOUS
 10
50.9093662789
 20
190.6552533605
  0
VERTEX
  8
0
 62
7
  6
CONTINUOUS
 10
50.8808875948
 20
190.7151991916
  0
VERTEX
  8
0
 62
7
  6
CONTINUOUS
 10
50.8564174203
 20
190.7790470574
  0
VERTEX
  8
0
 62
7
  6
CONTINUOUS
 10
50.8362792414
 20
190.8462760112
  0
VERTEX
  8
0
 62
7
  6
CONTINUOUS
 10
50.8206665358
 20
190.9166425239
  0
VERTEX
  8
0
 62
7
  6
CONTINUOUS
 10
50.8098805462
 20
190.9892500338
  0
VERTEX
  8
0
 62
7
  6
CONTINUOUS
 10
50.8040949626
 20
191.0631939764
  0
VERTEX
  8
0
 62
7
  6
CONTINUOUS
 10
50.8033865839
 20
191.1378003876
  0
VERTEX
  8
0
 62
7
  6
CONTINUOUS
 10
50.8077697563
 20
191.2120033947
  0
VERTEX
  8
0
 62
7
  6
CONTINUOUS
 10
50.8171777385
 20
191.2850534379
  0
SEQEND
  0
POLYLINE
  8
0
 62
7
  6
CONTINUOUS
 66
1
 70
0
  0
VERTEX
  8
0
 62
7
  6
CONTINUOUS
 10
65.6942429444
 20
190.3310004219
  0
VERTEX
  8
0
 62
7
  6
CONTINUOUS
 10
65.6441547834
 20
190.3330952214
  0
VERTEX
  8
0
 62
7
  6
CONTINUOUS
 10
65.594134205
 20
190.3394148457
  0
VERTEX
  8
0
 62
7
  6
CONTINUOUS
 10
65.5446395351
 20
190.3499669198
  0
VERTEX
  8
0
 62
7
  6
CONTINUOUS
 10
65.4960392511
 20
190.3647262337
  0
VERTEX
  8
0
 62
7
  6
CONTINUOUS
 10
65.4483547705
 20
190.383784538
  0
VERTEX
  8
0
 62
7
  6
CONTINUOUS
 10
65.4016730481
 20
190.407296642
  0
VERTEX
  8
0
 62
7
  6
CONTINUOUS
 10
65.3564566447
 20
190.4352530214
  0
VERTEX
  8
0
 62
7
  6
CONTINUOUS
 10
65.3131225209
 20
190.4675960857
  0
VERTEX
  8
0
 62
7
  6
CONTINUOUS
 10
65.2717248395
 20
190.5045353591
  0
VERTEX
  8
0
 62
7
  6
CONTINUOUS
 10
65.232538383
 20
190.5461709799
  0
VERTEX
  8
0
 62
7
  6
CONTINUOUS
 10
65.1960377075
 20
190.5923550658
  0
VERTEX
  8
0
 62
7
  6
CONTINUOUS
 10
65.1626285384
 20
190.6428903886
  0
VERTEX
  8
0
 62
7
  6
CONTINUOUS
 10
65.1324674836
 20
190.697922161
  0
VERTEX
  8
0
 62
7
  6
CONTINUOUS
 10
65.1059875435
 20
190.7571195145
  0
VERTEX
  8
0
 62
7
  6
CONTINUOUS
 10
65.0836123673
 20
190.819915508
  0
VERTEX
  8
0
 62
7
  6
CONTINUOUS
 10
65.0655777393
 20
190.8860272395
  0
VERTEX
  8
0
 62
7
  6
CONTINUOUS
 10
65.0521787333
 20
190.9548358496
  0
VERTEX
  8
0
 62
7
  6
CONTINUOUS
 10
65.0436700472
 20
191.0253778328
  0
VERTEX
  8
0
 62
7
  6
CONTINUOUS
 10
65.0401619563
 20
191.0970428828
  0
VERTEX
  8
0
 62
7
  6
CONTINUOUS
 10
65.0417284818
 20
191.1689114312
  0
VERTEX
  8
0
 62
7
  6
CONTINUOUS
 10
65.048330243
 20
191.2399467949
  0
VERTEX
  8
0
 62
7
  6
CONTINUOUS
 10
65.0598741513
 20
191.3095236111
  0
SEQEND
  0
POLYLINE
  8
0
 62
7
  6
CONTINUOUS
 66
1
 70
0
  0
VERTEX
  8
0
 62
7
  6
CONTINUOUS
 10
79.6942429444
 20
190.3784461721
  0
VERTEX
  8
0
 62
7
  6
CONTINUOUS
 10
79.6464010764
 20
190.3805002424
  0
VERTEX
  8
0
 62
7
  6
CONTINUOUS
 10
79.5987997546
 20
190.3866667907
  0
VERTEX
  8
0
 62
7
  6
CONTINUOUS
 10
79.5516425199
 20
190.3969685536
  0
VERTEX
  8
0
 62
7
  6
CONTINUOUS
 10
79.5050627681
 20
190.41147615
  0
VERTEX
  8
0
 62
7
  6
CONTINUOUS
 10
79.4592730852
 20
190.4302775382
  0
VERTEX
  8
0
 62
7
  6
CONTINUOUS
 10
79.4143749525
 20
190.4535544828
  0
VERTEX
  8
0
 62
7
  6
CONTINUOUS
 10
79.3708508285
 20
190.4813163455
  0
VERTEX
  8
0
 62
7
  6
CONTINUOUS
 10
79.3291870539
 20
190.513480306
  0
VERTEX
  8
0
 62
7
  6
CONTINUOUS
 10
79.2896563799
 20
190.5500591003
  0
VERTEX
  8
0
 62
7
  6
CONTINUOUS
 10
79.2523564727
 20
190.5912741397
  0
VERTEX
  8
0
 62
7
  6
CONTINUOUS
 10
79.217757103
 20
190.6369782288
  0
VERTEX
  8
0
 62
7
  6
CONTINUOUS
 10
79.1862389123
 20
190.6870243989
  0
VERTEX
  8
0
 62
7
  6
CONTINUOUS
 10
79.1580519823
 20
190.7414386379
  0
VERTEX
  8
0
 62
7
  6
CONTINUOUS
 10
79.1336780689
 20
190.7997421536
  0
VERTEX
  8
0
 62
7
  6
CONTINUOUS
 10
79.1134667143
 20
190.8614907083
  0
VERTEX
  8
0
 62
7
  6
CONTINUOUS
 10
79.0976883888
 20
190.9263044462
  0
VERTEX
  8
0
 62
7
  6
CONTINUOUS
 10
79.0866633269
 20
190.9933011125
  0
VERTEX
  8
0
 62
7
  6
CONTINUOUS
 10
79.0805662761
 20
191.0617259789
  0
VERTEX
  8
0
 62
7
  6
CONTINUOUS
 10
79.0795005265
 20
191.1309093781
  0
VERTEX
  8
0
 62
7
  6
CONTINUOUS
 10
79.0834946096
 20
191.1997562125
  0
VERTEX
  8
0
 62
7
  6
CONTINUOUS
 10
79.0924627446
 20
191.2674243528
  0
VERTEX
  8
0
 62
7
  6
CONTINUOUS
 10
79.1062713057
 20
191.3332572819
  0
SEQEND
  0
LINE
  8
0
 62
7
  6
CONTINUOUS
 10
186.3627793673
 20
196.3608347943
 11
186.3627793673
 21
185.8608347943
  0
LINE
  8
0
 62
7
  6
CONTINUOUS
 10
192.3627793673
 20
185.8608347943
 11
192.3627793673
 21
196.3608347943
  0
POLYLINE
  8
0
 62
7
  6
CONTINUOUS
 66
1
 70
0
  0
VERTEX
  8
0
 62
7
  6
CONTINUOUS
 10
32.5093042859
 20
196.3795833286
  0
VERTEX
  8
0
 62
7
  6
CONTINUOUS
 10
32.502935155
 20
196.3794099486
  0
VERTEX
  8
0
 62
7
  6
CONTINUOUS
 10
32.496947799
 20
196.3786071156
  0
VERTEX
  8
0
 62
7
  6
CONTINUOUS
 10
32.4913097072
 20
196.3771982928
  0
VERTEX
  8
0
 62
7
  6
CONTINUOUS
 10
32.4859930592
 20
196.3752033248
  0
VERTEX
  8
0
 62
7
  6
CONTINUOUS
 10
32.4809741144
 20
196.3726391252
  0
VERTEX
  8
0
 62
7
  6
CONTINUOUS
 10
32.4762325462
 20
196.3695202816
  0
VERTEX
  8
0
 62
7
  6
CONTINUOUS
 10
32.4717508114
 20
196.3658595293
  0
VERTEX
  8
0
 62
7
  6
CONTINUOUS
 10
32.4675137215
 20
196.361668212
  0
VERTEX
  8
0
 62
7
  6
CONTINUOUS
 10
32.4635078783
 20
196.3569564662
  0
VERTEX
  8
0
 62
7
  6
CONTINUOUS
 10
32.4597217458
 20
196.351733991
  0
VERTEX
  8
0
 62
7
  6
CONTINUOUS
 10
32.4561443506
 20
196.346008863
  0
VERTEX
  8
0
 62
7
  6
CONTINUOUS
 10
32.4527674541
 20
196.3397915969
  0
VERTEX
  8
0
 62
7
  6
CONTINUOUS
 10
32.4495799326
 20
196.3330853081
  0
VERTEX
  8
0
 62
7
  6
CONTINUOUS
 10
32.4465551899
 20
196.3258513027
  0
VERTEX
  8
0
 62
7
  6
CONTINUOUS
 10
32.4436767971
 20
196.3180598435
  0
VERTEX
  8
0
 62
7
  6
CONTINUOUS
 10
32.4409460217
 20
196.3097201301
  0
VERTEX
  8
0
 62
7
  6
CONTINUOUS
 10
32.4383636578
 20
196.3008436096
  0
VERTEX
  8
0
 62
7
  6
CONTINUOUS
 10
32.4359294083
 20
196.2914418339
  0
VERTEX
  8
0
 62
7
  6
CONTINUOUS
 10
32.4336426386
 20
196.2815288669
  0
VERTEX
  8
0
 62
7
  6
CONTINUOUS
 10
32.431502011
 20
196.2711200365
  0
VERTEX
  8
0
 62
7
  6
CONTINUOUS
 10
32.4295056195
 20
196.2602323842
  0
VERTEX
  8
0
 62
7
  6
CONTINUOUS
 10
32.4276509546
 20
196.2488844004
  0
VERTEX
  8
0
 62
7
  6
CONTINUOUS
 10
32.4259349359
 20
196.2370959809
  0
VERTEX
  8
0
 62
7
  6
CONTINUOUS
 10
32.4243539347
 20
196.2248882718
  0
VERTEX
  8
0
 62
7
  6
CONTINUOUS
 10
32.4229038106
 20
196.2122835166
  0
VERTEX
  8
0
 62
7
  6
CONTINUOUS
 10
32.4215799545
 20
196.1993048732
  0
VERTEX
  8
0
 62
7
  6
CONTINUOUS
 10
32.420377339
 20
196.1859762138
  0
VERTEX
  8
0
 62
7
  6
CONTINUOUS
 10
32.4192905741
 20
196.1723219122
  0
VERTEX
  8
0
 62
7
  6
CONTINUOUS
 10
32.4183139678
 20
196.1583666219
  0
VERTEX
  8
0
 62
7
  6
CONTINUOUS
 10
32.417441589
 20
196.1441350508
  0
VERTEX
  8
0
 62
7
  6
CONTINUOUS
 10
32.4166673327
 20
196.1296517398
  0
VERTEX
  8
0
 62
7
  6
CONTINUOUS
 10
32.4159849834
 20
196.1149408488
  0
VERTEX
  8
0
 62
7
  6
CONTINUOUS
 10
32.4153882784
 20
196.1000259562
  0
VERTEX
  8
0
 62
7
  6
CONTINUOUS
 10
32.4148709659
 20
196.0849298758
  0
VERTEX
  8
0
 62
7
  6
CONTINUOUS
 10
32.4144268609
 20
196.0696744928
  0
VERTEX
  8
0
 62
7
  6
CONTINUOUS
 10
32.4136717072
 20
196.029389114
  0
SEQEND
  0
LINE
  8
0
 62
7
  6
CONTINUOUS
 10
31.0855664889
 20
197.1108347943
 11
331.8627793673
 21
197.1108347943
  0
LINE
  8
0
 62
7
  6
CONTINUOUS
 10
199.0627793673
 20
196.3608347943
 11
199.0627793673
 21
185.8608347943
  0
LINE
  8
0
 62
7
  6
CONTINUOUS
 10
205.0627793673
 20
185.8608347943
 11
205.0627793673
 21
196.3608347943
  0
LINE
  8
0
 62
7
  6
CONTINUOUS
 10
211.7627793673
 20
196.3608347943
 11
211.7627793673
 21
185.8608347943
  0
LINE
  8
0
 62
7
  6
CONTINUOUS
 10
217.7627793673
 20
185.8608347943
 11
217.7627793673
 21
196.3608347943
  0
LINE
  8
0
 62
7
  6
CONTINUOUS
 10
224.4627793673
 20
196.3608347943
 11
224.4627793673
 21
185.8608347943
  0
LINE
  8
0
 62
7
  6
CONTINUOUS
 10
31.040576278
 20
197.1057088072
 11
26.9177891564
 21
196.153888402
  0
LINE
  8
0
 62
7
  6
CONTINUOUS
 10
230.4627793673
 20
185.8608347943
 11
230.4627793673
 21
196.3608347943
  0
LINE
  8
0
 62
7
  6
CONTINUOUS
 10
237.1627793673
 20
196.3608347943
 11
237.1627793673
 21
185.8608347943
  0
LINE
  8
0
 62
7
  6
CONTINUOUS
 10
243.1627793673
 20
185.8608347943
 11
243.1627793673
 21
196.3608347943
  0
LINE
  8
0
 62
7
  6
CONTINUOUS
 10
249.8627793673
 20
196.3608347943
 11
249.8627793673
 21
185.8608347943
  0
LINE
  8
0
 62
7
  6
CONTINUOUS
 10
255.8627793673
 20
185.8608347943
 11
255.8627793673
 21
196.3608347943
  0
LINE
  8
0
 62
7
  6
CONTINUOUS
 10
262.5627793673
 20
196.3608347943
 11
262.5627793673
 21
185.8608347943
  0
LINE
  8
0
 62
7
  6
CONTINUOUS
 10
268.5627793673
 20
185.8608347943
 11
268.5627793673
 21
196.3608347943
  0
LINE
  8
0
 62
7
  6
CONTINUOUS
 10
275.2627793673
 20
196.3608347943
 11
275.2627793673
 21
185.8608347943
  0
LINE
  8
0
 62
7
  6
CONTINUOUS
 10
281.2627793673
 20
185.8608347943
 11
281.2627793673
 21
196.3608347943
  0
LINE
  8
0
 62
7
  6
CONTINUOUS
 10
287.9627793673
 20
196.3608347943
 11
287.9627793673
 21
185.8608347943
  0
LINE
  8
0
 62
7
  6
CONTINUOUS
 10
293.9627793673
 20
185.8608347943
 11
293.9627793673
 21
196.3608347943
  0
LINE
  8
0
 62
7
  6
CONTINUOUS
 10
300.6627793673
 20
196.3608347943
 11
300.6627793673
 21
185.8608347943
  0
LINE
  8
0
 62
7
  6
CONTINUOUS
 10
306.6627793673
 20
185.8608347943
 11
306.6627793673
 21
196.3608347943
  0
LINE
  8
0
 62
7
  6
CONTINUOUS
 10
313.3627793673
 20
196.3608347943
 11
313.3627793673
 21
185.8608347943
  0
LINE
  8
0
 62
7
  6
CONTINUOUS
 10
319.3627793673
 20
185.8608347943
 11
319.3627793673
 21
196.3608347943
  0
LINE
  8
0
 62
7
  6
CONTINUOUS
 10
326.0627793673
 20
196.3608347943
 11
326.0627793673
 21
185.8608347943
  0
LINE
  8
0
 62
7
  6
CONTINUOUS
 10
332.0627793673
 20
185.3108347943
 11
332.0627793673
 21
196.9108347943
  0
ARC
  8
0
 62
7
  6
CONTINUOUS
 10
29.2627793673
 20
99.1841385477
 40
2.5
 50
180.0
 51
308.0
  0
ARC
  8
0
 62
7
  6
CONTINUOUS
 10
88.5627793673
 20
100.1226427336
 40
2.2
 50
270.0
 51
360.0
  0
ARC
  8
0
 62
7
  6
CONTINUOUS
 10
86.9627793673
 20
100.1226427336
 40
2.2
 50
180.0
 51
270.0
  0
ARC
  8
0
 62
7
  6
CONTINUOUS
 10
46.3627793673
 20
100.1226427336
 40
2.2
 50
270.0
 51
360.0
  0
ARC
  8
0
 62
7
  6
CONTINUOUS
 10
44.7627793673
 20
100.1226427336
 40
2.2
 50
180.0
 51
270.0
  0
ARC
  8
0
 62
7
  6
CONTINUOUS
 10
60.5627793673
 20
100.1226427336
 40
2.2
 50
270.0
 51
360.0
  0
ARC
  8
0
 62
7
  6
CONTINUOUS
 10
58.9627793673
 20
100.1226427336
 40
2.2
 50
180.0
 51
270.0
  0
ARC
  8
0
 62
7
  6
CONTINUOUS
 10
74.5627793673
 20
100.1226427336
 40
2.2
 50
270.0
 51
360.0
  0
ARC
  8
0
 62
7
  6
CONTINUOUS
 10
72.9627793673
 20
100.1226427336
 40
2.2
 50
180.0
 51
270.0
  0
ARC
  8
0
 62
7
  6
CONTINUOUS
 10
102.7127793673
 20
99.4013630167
 40
0.75
 50
269.5485880686
 51
359.9999972805
  0
ARC
  8
0
 62
7
  6
CONTINUOUS
 10
98.2127793673
 20
99.4368175618
 40
0.75
 50
180.0000026919
 51
269.5485880684
  0
ARC
  8
0
 62
7
  6
CONTINUOUS
 10
103.262779317
 20
102.2400003226
 40
0.2
 50
359.9999423162
 51
13.9999405503
  0
ARC
  8
0
 62
7
  6
CONTINUOUS
 10
90.5627793445
 20
102.2400002124
 40
0.2
 50
359.9999738949
 51
13.9999730956
  0
ARC
  8
0
 62
7
  6
CONTINUOUS
 10
97.6627793673
 20
102.2400001212
 40
0.2
 50
166.0
 51
180.0
  0
ARC
  8
0
 62
7
  6
CONTINUOUS
 10
76.5627793445
 20
102.0755713226
 40
0.2
 50
359.9999738949
 51
13.9999730956
  0
ARC
  8
0
 62
7
  6
CONTINUOUS
 10
84.9627793673
 20
102.4400001212
 40
0.2
 50
166.0
 51
180.0
  0
ARC
  8
0
 62
7
  6
CONTINUOUS
 10
62.5627793445
 20
102.4400002124
 40
0.2
 50
359.9999738949
 51
13.9999730956
  0
ARC
  8
0
 62
7
  6
CONTINUOUS
 10
70.9627793673
 20
102.4400001212
 40
0.2
 50
166.0
 51
180.0
  0
ARC
  8
0
 62
7
  6
CONTINUOUS
 10
48.3627793445
 20
102.4400002124
 40
0.2
 50
359.9999738948
 51
13.9999730956
  0
ARC
  8
0
 62
7
  6
CONTINUOUS
 10
56.9627793673
 20
102.4400001212
 40
0.2
 50
166.0
 51
180.0
  0
ARC
  8
0
 62
7
  6
CONTINUOUS
 10
32.2127793673
 20
98.5701892513
 40
0.2
 50
308.0
 51
360.0
  0
ARC
  8
0
 62
7
  6
CONTINUOUS
 10
42.7627793673
 20
102.4400001212
 40
0.2
 50
166.0
 51
180.0
  0
ARC
  8
0
 62
7
  6
CONTINUOUS
 10
37.0127793673
 20
106.9223940658
 40
4.6
 50
90.2784029572
 51
179.6713222784
  0
ARC
  8
0
 62
7
  6
CONTINUOUS
 10
39.8127793673
 20
108.0360124938
 40
3.5
 50
0.0
 51
90.2784029572
  0
ARC
  8
0
 62
7
  6
CONTINUOUS
 10
51.3127793673
 20
108.0918919884
 40
3.5
 50
90.2784029572
 51
180.0
  0
ARC
  8
0
 62
7
  6
CONTINUOUS
 10
54.0127793673
 20
108.1050115219
 40
3.5
 50
0.0
 51
90.2784029572
  0
ARC
  8
0
 62
7
  6
CONTINUOUS
 10
65.5127793673
 20
108.1608910166
 40
3.5
 50
90.2784029572
 51
180.0
  0
ARC
  8
0
 62
7
  6
CONTINUOUS
 10
68.0127793673
 20
108.1730387328
 40
3.5
 50
0.0
 51
90.2784029572
  0
ARC
  8
0
 62
7
  6
CONTINUOUS
 10
79.5127793673
 20
108.2289182275
 40
3.5
 50
90.2784029572
 51
180.0
  0
ARC
  8
0
 62
7
  6
CONTINUOUS
 10
82.0127793673
 20
108.2410659437
 40
3.5
 50
0.0
 51
90.2784029572
  0
ARC
  8
0
 62
7
  6
CONTINUOUS
 10
93.5127793673
 20
108.2969454384
 40
3.5
 50
90.2784029572
 51
180.0
  0
ARC
  8
0
 62
7
  6
CONTINUOUS
 10
94.7127793673
 20
108.3027763422
 40
3.5
 50
0.0
 51
90.2784029572
  0
ARC
  8
0
 62
7
  6
CONTINUOUS
 10
29.7627793673
 20
108.6949624385
 40
3.0
 50
105.8266201319
 51
180.0
  0
ARC
  8
0
 62
7
  6
CONTINUOUS
 10
91.0127793673
 20
105.3954272945
 40
1.0
 50
180.0
 51
194.0
  0
ARC
  8
0
 62
7
  6
CONTINUOUS
 10
97.2127793673
 20
105.3954272945
 40
1.0
 50
346.0
 51
360.0
  0
ARC
  8
0
 62
7
  6
CONTINUOUS
 10
70.5127793673
 20
105.5954272945
 40
1.0
 50
346.0
 51
360.0
  0
ARC
  8
0
 62
7
  6
CONTINUOUS
 10
56.5127793673
 20
105.5954272945
 40
1.0
 50
346.0
 51
360.0
  0
ARC
  8
0
 62
7
  6
CONTINUOUS
 10
42.3127793673
 20
105.5954272945
 40
1.0
 50
346.0
 51
360.0
  0
ARC
  8
0
 62
7
  6
CONTINUOUS
 10
48.8127793673
 20
105.5954272945
 40
1.0
 50
180.0
 51
194.0
  0
ARC
  8
0
 62
7
  6
CONTINUOUS
 10
63.0127793673
 20
105.5954272945
 40
1.0
 50
180.0
 51
194.0
  0
ARC
  8
0
 62
7
  6
CONTINUOUS
 10
103.7127793673
 20
105.3954272945
 40
1.0
 50
180.0
 51
194.0
  0
ARC
  8
0
 62
7
  6
CONTINUOUS
 10
77.0127793673
 20
105.2309984047
 40
1.0
 50
180.0
 51
194.0
  0
ARC
  8
0
 62
7
  6
CONTINUOUS
 10
84.5127793673
 20
105.5954272945
 40
1.0
 50
346.0
 51
360.0
  0
ARC
  8
0
 62
7
  6
CONTINUOUS
 10
178.9127793673
 20
98.8009993661
 40
0.75
 50
269.54858806
 51
359.9999983723
  0
ARC
  8
0
 62
7
  6
CONTINUOUS
 10
174.4127793673
 20
98.8364539115
 40
0.75
 50
180.0000016277
 51
269.54858806
  0
ARC
  8
0
 62
7
  6
CONTINUOUS
 10
110.9127793673
 20
99.3367569549
 40
0.75
 50
180.0000026268
 51
269.5485880679
  0
ARC
  8
0
 62
7
  6
CONTINUOUS
 10
166.2127793673
 20
98.9010599721
 40
0.75
 50
269.54858806
 51
359.9999983723
  0
ARC
  8
0
 62
7
  6
CONTINUOUS
 10
161.7127793673
 20
98.9365145176
 40
0.75
 50
180.0000016277
 51
269.54858806
  0
ARC
  8
0
 62
7
  6
CONTINUOUS
 10
153.5127793673
 20
99.0011205782
 40
0.75
 50
269.54858806
 51
359.9999983723
  0
ARC
  8
0
 62
7
  6
CONTINUOUS
 10
149.0127793673
 20
99.036575138
 40
0.75
 50
180.0000027207
 51
269.5485880687
  0
ARC
  8
0
 62
7
  6
CONTINUOUS
 10
140.8127793673
 20
99.1011811979
 40
0.75
 50
269.5485880683
 51
359.9999973285
  0
ARC
  8
0
 62
7
  6
CONTINUOUS
 10
136.3127793673
 20
99.136635743
 40
0.75
 50
180.0000026436
 51
269.548588068
  0
ARC
  8
0
 62
7
  6
CONTINUOUS
 10
128.1127793673
 20
99.2012418048
 40
0.75
 50
269.5485880688
 51
359.9999972665
  0
ARC
  8
0
 62
7
  6
CONTINUOUS
 10
123.6127793673
 20
99.2366963499
 40
0.75
 50
180.0000027071
 51
269.5485880686
  0
ARC
  8
0
 62
7
  6
CONTINUOUS
 10
115.4127793673
 20
99.3013024098
 40
0.75
 50
269.5485880681
 51
359.9999973464
  0
ARC
  8
0
 62
7
  6
CONTINUOUS
 10
179.4627793035
 20
102.240000377
 40
0.2
 50
359.9999267414
 51
13.9999244986
  0
ARC
  8
0
 62
7
  6
CONTINUOUS
 10
166.7627793035
 20
102.240000377
 40
0.2
 50
359.9999267414
 51
13.9999244986
  0
ARC
  8
0
 62
7
  6
CONTINUOUS
 10
173.8627793673
 20
102.2400001212
 40
0.2
 50
166.0
 51
180.0
  0
ARC
  8
0
 62
7
  6
CONTINUOUS
 10
154.0627792903
 20
102.2400004297
 40
0.2
 50
359.9999116269
 51
13.9999089215
  0
ARC
  8
0
 62
7
  6
CONTINUOUS
 10
161.1627793673
 20
102.2400001212
 40
0.2
 50
166.0
 51
180.0
  0
ARC
  8
0
 62
7
  6
CONTINUOUS
 10
141.3627793334
 20
102.2400002568
 40
0.2
 50
359.9999611532
 51
13.9999599639
  0
ARC
  8
0
 62
7
  6
CONTINUOUS
 10
148.4627793673
 20
102.2400001212
 40
0.2
 50
166.0
 51
180.0
  0
ARC
  8
0
 62
7
  6
CONTINUOUS
 10
128.6627793211
 20
102.2400003064
 40
0.2
 50
359.9999469533
 51
13.9999453293
  0
ARC
  8
0
 62
7
  6
CONTINUOUS
 10
135.7627793673
 20
102.2400001212
 40
0.2
 50
166.0
 51
180.0
  0
ARC
  8
0
 62
7
  6
CONTINUOUS
 10
115.9627792962
 20
102.2400004061
 40
0.2
 50
359.9999184045
 51
13.9999159066
  0
ARC
  8
0
 62
7
  6
CONTINUOUS
 10
123.0627793673
 20
102.2400001212
 40
0.2
 50
166.0
 51
180.0
  0
ARC
  8
0
 62
7
  6
CONTINUOUS
 10
110.3627793673
 20
102.2400001212
 40
0.2
 50
166.0
 51
180.0
  0
ARC
  8
0
 62
7
  6
CONTINUOUS
 10
106.2127793673
 20
108.3586558368
 40
3.5
 50
90.2784029572
 51
180.0
  0
ARC
  8
0
 62
7
  6
CONTINUOUS
 10
107.4127793673
 20
108.3644867406
 40
3.5
 50
0.0
 51
90.2784029572
  0
ARC
  8
0
 62
7
  6
CONTINUOUS
 10
118.9127793673
 20
108.4203662353
 40
3.5
 50
90.2784029572
 51
180.0
  0
ARC
  8
0
 62
7
  6
CONTINUOUS
 10
120.1127793673
 20
108.426197139
 40
3.5
 50
0.0
 51
90.2784029572
  0
ARC
  8
0
 62
7
  6
CONTINUOUS
 10
131.6127793673
 20
108.4820766337
 40
3.5
 50
90.2784029572
 51
180.0
  0
ARC
  8
0
 62
7
  6
CONTINUOUS
 10
132.8127793673
 20
108.4879075375
 40
3.5
 50
0.0
 51
90.2784029572
  0
ARC
  8
0
 62
7
  6
CONTINUOUS
 10
144.3127793673
 20
108.7649428035
 40
3.5
 50
91.1457628382
 51
180.0
  0
ARC
  8
0
 62
7
  6
CONTINUOUS
 10
145.5127793673
 20
108.7889428035
 40
3.5
 50
0.0
 51
91.1457628382
  0
ARC
  8
0
 62
7
  6
CONTINUOUS
 10
156.5127793673
 20
109.5090427936
 40
3.0
 50
91.1457628382
 51
180.0
  0
ARC
  8
0
 62
7
  6
CONTINUOUS
 10
158.7127793673
 20
109.5530427936
 40
3.0
 50
0.0
 51
91.1457628382
  0
ARC
  8
0
 62
7
  6
CONTINUOUS
 10
171.4890650464
 20
109.8848694419
 40
2.9237143209
 50
0.0
 51
91.1457628382
  0
ARC
  8
0
 62
7
  6
CONTINUOUS
 10
169.0884918231
 20
109.8848694419
 40
2.8757124558
 50
91.1457628382
 51
180.0
  0
ARC
  8
0
 62
7
  6
CONTINUOUS
 10
173.4127793673
 20
105.3954272945
 40
1.0
 50
346.0
 51
360.0
  0
ARC
  8
0
 62
7
  6
CONTINUOUS
 10
160.7127793673
 20
105.3954272945
 40
1.0
 50
346.0
 51
360.0
  0
ARC
  8
0
 62
7
  6
CONTINUOUS
 10
148.0127793673
 20
105.3954272945
 40
1.0
 50
346.0
 51
360.0
  0
ARC
  8
0
 62
7
  6
CONTINUOUS
 10
135.3127793673
 20
105.3954272945
 40
1.0
 50
346.0
 51
360.0
  0
ARC
  8
0
 62
7
  6
CONTINUOUS
 10
122.6127793673
 20
105.3954272945
 40
1.0
 50
346.0
 51
360.0
  0
ARC
  8
0
 62
7
  6
CONTINUOUS
 10
109.9127793673
 20
105.3954272945
 40
1.0
 50
346.0
 51
360.0
  0
ARC
  8
0
 62
7
  6
CONTINUOUS
 10
167.2127793673
 20
105.3954272945
 40
1.0
 50
180.0
 51
194.0
  0
ARC
  8
0
 62
7
  6
CONTINUOUS
 10
116.4127793673
 20
105.3954272945
 40
1.0
 50
180.0
 51
194.0
  0
ARC
  8
0
 62
7
  6
CONTINUOUS
 10
129.1127793673
 20
105.3954272945
 40
1.0
 50
180.0
 51
194.0
  0
ARC
  8
0
 62
7
  6
CONTINUOUS
 10
141.8127793673
 20
105.3954272945
 40
1.0
 50
180.0
 51
194.0
  0
ARC
  8
0
 62
7
  6
CONTINUOUS
 10
154.5127793673
 20
105.3954272945
 40
1.0
 50
180.0
 51
194.0
  0
ARC
  8
0
 62
7
  6
CONTINUOUS
 10
179.9127793673
 20
105.3954272945
 40
1.0
 50
180.0
 51
194.0
  0
ARC
  8
0
 62
7
  6
CONTINUOUS
 10
60.7512197992
 20
115.717145157
 40
2.0
 50
270.2435711729
 51
328.0
  0
ARC
  8
0
 62
7
  6
CONTINUOUS
 10
44.3942429444
 20
115.0610602147
 40
1.5
 50
212.0
 51
270.0
  0
ARC
  8
0
 62
7
  6
CONTINUOUS
 10
46.7313157901
 20
115.0610602147
 40
1.5
 50
270.0
 51
328.0
  0
ARC
  8
0
 62
7
  6
CONTINUOUS
 10
58.5920316409
 20
115.207961618
 40
1.5
 50
212.0
 51
270.2435711729
  0
ARC
  8
0
 62
7
  6
CONTINUOUS
 10
26.7627793673
 20
119.2779676828
 40
8.0
 50
285.8266201319
 51
330.0
  0
ARC
  8
0
 62
7
  6
CONTINUOUS
 10
45.4127793673
 20
119.5557405513
 40
5.0
 50
328.0
 51
360.0
  0
ARC
  8
0
 62
7
  6
CONTINUOUS
 10
59.9127793673
 20
119.6991031292
 40
5.0
 50
180.0
 51
212.0
  0
ARC
  8
0
 62
7
  6
CONTINUOUS
 10
59.5127793673
 20
119.396465916
 40
5.0
 50
328.0
 51
360.0
  0
ARC
  8
0
 62
7
  6
CONTINUOUS
 10
45.6127793673
 20
119.7157740042
 40
5.0
 50
180.0
 51
212.0
  0
ARC
  8
0
 62
7
  6
CONTINUOUS
 10
31.1127793673
 20
120.8123886957
 40
5.0
 50
330.0
 51
360.0
  0
ARC
  8
0
 62
7
  6
CONTINUOUS
 10
98.3627793673
 20
116.9663004288
 40
2.0
 50
180.0
 51
270.074945385
  0
ARC
  8
0
 62
7
  6
CONTINUOUS
 10
102.5627793673
 20
116.9717942156
 40
2.0
 50
270.074945385
 51
360.0
  0
ARC
  8
0
 62
7
  6
CONTINUOUS
 10
88.9689167884
 20
116.0371044727
 40
2.0
 50
270.2435711729
 51
318.0
  0
ARC
  8
0
 62
7
  6
CONTINUOUS
 10
86.6684490655
 20
116.0273248519
 40
2.0
 50
212.0
 51
270.2435711729
  0
ARC
  8
0
 62
7
  6
CONTINUOUS
 10
74.8012197992
 20
115.8768746414
 40
2.0
 50
270.2435711729
 51
328.0
  0
ARC
  8
0
 62
7
  6
CONTINUOUS
 10
72.8184490655
 20
115.8684455964
 40
2.0
 50
212.0
 51
270.2435711729
  0
ARC
  8
0
 62
7
  6
CONTINUOUS
 10
90.8627793673
 20
116.6459754042
 40
1.0
 50
318.0
 51
360.0
  0
ARC
  8
0
 62
7
  6
CONTINUOUS
 10
74.0127793673
 20
119.6183573198
 40
5.0
 50
180.0
 51
212.0
  0
ARC
  8
0
 62
7
  6
CONTINUOUS
 10
73.5127793673
 20
119.4761786739
 40
5.0
 50
328.0
 51
360.0
  0
ARC
  8
0
 62
7
  6
CONTINUOUS
 10
84.0127793673
 20
118.3902048528
 40
1.0
 50
180.0
 51
212.0
  0
ARC
  8
0
 62
7
  6
CONTINUOUS
 10
63.5127793673
 20
123.4498581727
 40
1.0
 50
0.0
 51
14.0
  0
ARC
  8
0
 62
7
  6
CONTINUOUS
 10
49.4127793673
 20
123.4498581727
 40
1.0
 50
0.0
 51
14.0
  0
ARC
  8
0
 62
7
  6
CONTINUOUS
 10
35.1127793673
 20
123.4498581727
 40
1.0
 50
0.0
 51
14.0
  0
ARC
  8
0
 62
7
  6
CONTINUOUS
 10
41.6127793673
 20
123.4498581727
 40
1.0
 50
166.0
 51
180.0
  0
ARC
  8
0
 62
7
  6
CONTINUOUS
 10
55.9127793673
 20
123.4998581727
 40
1.0
 50
166.0
 51
180.0
  0
ARC
  8
0
 62
7
  6
CONTINUOUS
 10
35.5627793673
 20
126.6052853459
 40
0.2
 50
180.0
 51
194.0
  0
ARC
  8
0
 62
7
  6
CONTINUOUS
 10
41.1627793673
 20
126.6052853459
 40
0.2
 50
346.0000000004
 51
360.0
  0
ARC
  8
0
 62
7
  6
CONTINUOUS
 10
49.8627794091
 20
126.6052851782
 40
0.2
 50
179.9999519452
 51
193.9999504738
  0
ARC
  8
0
 62
7
  6
CONTINUOUS
 10
49.764157028
 20
125.347411746
 40
0.2
 50
14.0
 51
72.9439391016
  0
ARC
  8
0
 62
7
  6
CONTINUOUS
 10
63.9627794091
 20
126.6052851782
 40
0.2
 50
179.9999519452
 51
193.9999504738
  0
ARC
  8
0
 62
7
  6
CONTINUOUS
 10
55.5479191915
 20
125.3433363318
 40
0.2
 50
106.5813471693
 51
166.0
  0
ARC
  8
0
 62
7
  6
CONTINUOUS
 10
65.9627793673
 20
128.8226427336
 40
2.2
 50
90.0
 51
180.0
  0
ARC
  8
0
 62
7
  6
CONTINUOUS
 10
67.5627793673
 20
128.8226427336
 40
2.2
 50
0.0
 51
90.0
  0
ARC
  8
0
 62
7
  6
CONTINUOUS
 10
51.8627793673
 20
128.8226427336
 40
2.2
 50
90.0
 51
180.0
  0
ARC
  8
0
 62
7
  6
CONTINUOUS
 10
53.4627793673
 20
128.8226427336
 40
2.2
 50
0.0
 51
90.0
  0
ARC
  8
0
 62
7
  6
CONTINUOUS
 10
37.5627793673
 20
128.8226427336
 40
2.2
 50
90.0
 51
180.0
  0
ARC
  8
0
 62
7
  6
CONTINUOUS
 10
39.1627793673
 20
128.8226427336
 40
2.2
 50
0.0
 51
90.0
  0
ARC
  8
0
 62
7
  6
CONTINUOUS
 10
50.2627793673
 20
126.9726427336
 40
1.5
 50
118.0724869359
 51
252.9439391016
  0
ARC
  8
0
 62
7
  6
CONTINUOUS
 10
55.0627793673
 20
126.9726427336
 40
1.5
 50
286.5813471693
 51
61.9275130641
  0
ARC
  8
0
 62
7
  6
CONTINUOUS
 10
49.4627793673
 20
128.4726427336
 40
0.2
 50
298.0724869359
 51
360.0
  0
ARC
  8
0
 62
7
  6
CONTINUOUS
 10
55.4627793673
 20
126.6552853459
 40
0.2
 50
346.0
 51
360.0
  0
ARC
  8
0
 62
7
  6
CONTINUOUS
 10
55.8627793673
 20
128.4726427336
 40
0.2
 50
180.0
 51
241.9275130641
  0
ARC
  8
0
 62
7
  6
CONTINUOUS
 10
94.1127793673
 20
126.2833370771
 40
4.0
 50
94.7835976652
 51
135.5846914028
  0
ARC
  8
0
 62
7
  6
CONTINUOUS
 10
94.1127793673
 20
126.2833370771
 40
4.0
 50
44.4153085972
 51
86.1192262403
  0
ARC
  8
0
 62
7
  6
CONTINUOUS
 10
90.8627793673
 20
123.4498581727
 40
1.0
 50
0.0
 51
14.0
  0
ARC
  8
0
 62
7
  6
CONTINUOUS
 10
77.5127793673
 20
123.4498581727
 40
1.0
 50
0.0
 51
14.0
  0
ARC
  8
0
 62
7
  6
CONTINUOUS
 10
70.0127793673
 20
123.4498581727
 40
1.0
 50
166.0
 51
180.0
  0
ARC
  8
0
 62
7
  6
CONTINUOUS
 10
84.0127793673
 20
123.4498581727
 40
1.0
 50
166.0
 51
180.0
  0
ARC
  8
0
 62
7
  6
CONTINUOUS
 10
97.3627793673
 20
123.5498581727
 40
1.0
 50
166.0
 51
180.0
  0
ARC
  8
0
 62
7
  6
CONTINUOUS
 10
103.5627793673
 20
123.5498581727
 40
1.0
 50
0.0
 51
14.0
  0
ARC
  8
0
 62
7
  6
CONTINUOUS
 10
83.5627793673
 20
126.6052853459
 40
0.2
 50
346.0
 51
360.0
  0
ARC
  8
0
 62
7
  6
CONTINUOUS
 10
91.3127793673
 20
126.6052853459
 40
0.2
 50
180.0
 51
194.0
  0
ARC
  8
0
 62
7
  6
CONTINUOUS
 10
69.5627793673
 20
126.6052853459
 40
0.2
 50
346.0
 51
360.0
  0
ARC
  8
0
 62
7
  6
CONTINUOUS
 10
77.9627793673
 20
126.6052853459
 40
0.2
 50
180.0
 51
194.0000000002
  0
ARC
  8
0
 62
7
  6
CONTINUOUS
 10
79.9627793673
 20
128.8226427336
 40
2.2
 50
90.0
 51
180.0
  0
ARC
  8
0
 62
7
  6
CONTINUOUS
 10
81.5627793673
 20
128.8226427336
 40
2.2
 50
0.0
 51
90.0
  0
ARC
  8
0
 62
7
  6
CONTINUOUS
 10
93.8209053752
 20
129.7711457835
 40
0.5
 50
90.4514119528
 51
94.7835976652
  0
ARC
  8
0
 62
7
  6
CONTINUOUS
 10
94.3496611267
 20
129.7753117379
 40
0.5
 50
86.1192262403
 51
90.4514119528
  0
ARC
  8
0
 62
7
  6
CONTINUOUS
 10
91.6127793673
 20
128.7328268199
 40
0.5
 50
135.5846914028
 51
180.0
  0
ARC
  8
0
 62
7
  6
CONTINUOUS
 10
96.6127793673
 20
128.7328268199
 40
0.5
 50
0.0
 51
44.4153085972
  0
ARC
  8
0
 62
7
  6
CONTINUOUS
 10
96.9127793673
 20
126.7052853459
 40
0.2
 50
345.9999999998
 51
360.0
  0
ARC
  8
0
 62
7
  6
CONTINUOUS
 10
111.0627793673
 20
116.9829125937
 40
2.0
 50
180.0
 51
270.074945385
  0
ARC
  8
0
 62
7
  6
CONTINUOUS
 10
123.7627793673
 20
116.9995247585
 40
2.0
 50
180.0
 51
270.074945385
  0
ARC
  8
0
 62
7
  6
CONTINUOUS
 10
136.4627793673
 20
117.0161369233
 40
2.0
 50
180.0
 51
270.074945385
  0
ARC
  8
0
 62
7
  6
CONTINUOUS
 10
115.2627793673
 20
116.9884063804
 40
2.0
 50
270.074945385
 51
360.0
  0
ARC
  8
0
 62
7
  6
CONTINUOUS
 10
127.9627793673
 20
117.0050185453
 40
2.0
 50
270.074945385
 51
360.0
  0
ARC
  8
0
 62
7
  6
CONTINUOUS
 10
140.6627793673
 20
117.0216307101
 40
2.0
 50
270.074945385
 51
360.0
  0
ARC
  8
0
 62
7
  6
CONTINUOUS
 10
174.5627793673
 20
117.0659734177
 40
2.0
 50
180.0
 51
270.074945385
  0
ARC
  8
0
 62
7
  6
CONTINUOUS
 10
161.8627793673
 20
117.0493612529
 40
2.0
 50
180.0
 51
270.074945385
  0
ARC
  8
0
 62
7
  6
CONTINUOUS
 10
149.1627793673
 20
117.0327490881
 40
2.0
 50
180.0
 51
270.074945385
  0
ARC
  8
0
 62
7
  6
CONTINUOUS
 10
153.3627793673
 20
117.0382428749
 40
2.0
 50
270.074945385
 51
360.0
  0
ARC
  8
0
 62
7
  6
CONTINUOUS
 10
166.0627793673
 20
117.0548550397
 40
2.0
 50
270.074945385
 51
360.0
  0
ARC
  8
0
 62
7
  6
CONTINUOUS
 10
178.7627793673
 20
117.0714672045
 40
2.0
 50
270.074945385
 51
360.0
  0
ARC
  8
0
 62
7
  6
CONTINUOUS
 10
132.2127793673
 20
126.5835188953
 40
4.0
 50
44.4153085972
 51
86.1192262403
  0
ARC
  8
0
 62
7
  6
CONTINUOUS
 10
132.2127793673
 20
126.5835188953
 40
4.0
 50
94.7835976652
 51
135.5846914028
  0
ARC
  8
0
 62
7
  6
CONTINUOUS
 10
119.5127793673
 20
126.4834582892
 40
4.0
 50
44.4153085972
 51
86.1192262403
  0
ARC
  8
0
 62
7
  6
CONTINUOUS
 10
119.5127793673
 20
126.4834582892
 40
4.0
 50
94.7835976652
 51
135.5846914028
  0
ARC
  8
0
 62
7
  6
CONTINUOUS
 10
106.8127793673
 20
126.3833976831
 40
4.0
 50
94.7835976652
 51
135.5846914028
  0
ARC
  8
0
 62
7
  6
CONTINUOUS
 10
106.8127793673
 20
126.3833976831
 40
4.0
 50
44.4153085972
 51
86.1192262403
  0
ARC
  8
0
 62
7
  6
CONTINUOUS
 10
110.0627793673
 20
123.5498581727
 40
1.0
 50
166.0
 51
180.0
  0
ARC
  8
0
 62
7
  6
CONTINUOUS
 10
122.7627793673
 20
123.5498581727
 40
1.0
 50
166.0
 51
180.0
  0
ARC
  8
0
 62
7
  6
CONTINUOUS
 10
116.2627793673
 20
123.5498581727
 40
1.0
 50
0.0
 51
14.0
  0
ARC
  8
0
 62
7
  6
CONTINUOUS
 10
141.6627793673
 20
123.5498581727
 40
1.0
 50
0.0
 51
14.0
  0
ARC
  8
0
 62
7
  6
CONTINUOUS
 10
128.9627793673
 20
123.5498581727
 40
1.0
 50
0.0
 51
14.0
  0
ARC
  8
0
 62
7
  6
CONTINUOUS
 10
135.4627793673
 20
123.5498581727
 40
1.0
 50
166.0
 51
180.0
  0
ARC
  8
0
 62
7
  6
CONTINUOUS
 10
135.0127793673
 20
126.7052853459
 40
0.2
 50
346.0
 51
360.0
  0
ARC
  8
0
 62
7
  6
CONTINUOUS
 10
142.1127793673
 20
126.7052853459
 40
0.2
 50
180.0
 51
194.0
  0
ARC
  8
0
 62
7
  6
CONTINUOUS
 10
122.3127793673
 20
126.7052853459
 40
0.2
 50
346.0
 51
360.0
  0
ARC
  8
0
 62
7
  6
CONTINUOUS
 10
129.4127793673
 20
126.7052853459
 40
0.2
 50
180.0
 51
194.0
  0
ARC
  8
0
 62
7
  6
CONTINUOUS
 10
109.6127793673
 20
126.7052853459
 40
0.2
 50
346.0
 51
360.0
  0
ARC
  8
0
 62
7
  6
CONTINUOUS
 10
116.7127793673
 20
126.7052853459
 40
0.2
 50
180.0
 51
194.0
  0
ARC
  8
0
 62
7
  6
CONTINUOUS
 10
104.0127793673
 20
126.7052853459
 40
0.2
 50
180.0
 51
194.0
  0
ARC
  8
0
 62
7
  6
CONTINUOUS
 10
117.0127793673
 20
128.932948032
 40
0.5
 50
135.5846914028
 51
180.0
  0
ARC
  8
0
 62
7
  6
CONTINUOUS
 10
104.3127793673
 20
128.8328874259
 40
0.5
 50
135.5846914028
 51
180.0
  0
ARC
  8
0
 62
7
  6
CONTINUOUS
 10
109.3127793673
 20
128.8328874259
 40
0.5
 50
0.0
 51
44.4153085972
  0
ARC
  8
0
 62
7
  6
CONTINUOUS
 10
106.5209053752
 20
129.8712063896
 40
0.5
 50
90.4514119528
 51
94.7835976652
  0
ARC
  8
0
 62
7
  6
CONTINUOUS
 10
107.0496611267
 20
129.875372344
 40
0.5
 50
86.1192262403
 51
90.4514119528
  0
ARC
  8
0
 62
7
  6
CONTINUOUS
 10
119.2209053752
 20
129.9712669956
 40
0.5
 50
90.4514119528
 51
94.7835976652
  0
ARC
  8
0
 62
7
  6
CONTINUOUS
 10
129.7127793673
 20
129.033008638
 40
0.5
 50
135.5846914028
 51
180.0
  0
ARC
  8
0
 62
7
  6
CONTINUOUS
 10
134.7127793673
 20
129.033008638
 40
0.5
 50
0.0
 51
44.4153085972
  0
ARC
  8
0
 62
7
  6
CONTINUOUS
 10
122.0127793673
 20
128.932948032
 40
0.5
 50
0.0
 51
44.4153085972
  0
ARC
  8
0
 62
7
  6
CONTINUOUS
 10
119.7496611267
 20
129.9754329501
 40
0.5
 50
86.1192262403
 51
90.4514119528
  0
ARC
  8
0
 62
7
  6
CONTINUOUS
 10
131.9209053752
 20
130.0713276017
 40
0.5
 50
90.4514119528
 51
94.7835976652
  0
ARC
  8
0
 62
7
  6
CONTINUOUS
 10
132.4496611267
 20
130.0754935561
 40
0.5
 50
86.1192262403
 51
90.4514119528
  0
ARC
  8
0
 62
7
  6
CONTINUOUS
 10
170.3127793673
 20
126.8837007134
 40
4.0
 50
94.7835976652
 51
135.5846914028
  0
ARC
  8
0
 62
7
  6
CONTINUOUS
 10
170.3127793673
 20
126.8837007134
 40
4.0
 50
44.4153085972
 51
86.1192262403
  0
ARC
  8
0
 62
7
  6
CONTINUOUS
 10
157.6127793673
 20
126.7836401074
 40
4.0
 50
44.4153085972
 51
86.1192262403
  0
ARC
  8
0
 62
7
  6
CONTINUOUS
 10
157.6127793673
 20
126.7836401074
 40
4.0
 50
94.7835976652
 51
135.5846914028
  0
ARC
  8
0
 62
7
  6
CONTINUOUS
 10
144.9127793673
 20
126.6835795013
 40
4.0
 50
44.4153085972
 51
86.1192262403
  0
ARC
  8
0
 62
7
  6
CONTINUOUS
 10
144.9127793673
 20
126.6835795013
 40
4.0
 50
94.7835976652
 51
135.5846914028
  0
ARC
  8
0
 62
7
  6
CONTINUOUS
 10
173.5627793673
 20
123.5498581727
 40
1.0
 50
166.0
 51
180.0
  0
ARC
  8
0
 62
7
  6
CONTINUOUS
 10
160.8627793673
 20
123.5498581727
 40
1.0
 50
166.0
 51
180.0
  0
ARC
  8
0
 62
7
  6
CONTINUOUS
 10
148.1627793673
 20
123.5498581727
 40
1.0
 50
166.0
 51
180.0
  0
ARC
  8
0
 62
7
  6
CONTINUOUS
 10
154.3627793673
 20
123.5498581727
 40
1.0
 50
0.0
 51
14.0
  0
ARC
  8
0
 62
7
  6
CONTINUOUS
 10
167.0627793673
 20
123.5498581727
 40
1.0
 50
0.0
 51
14.0
  0
ARC
  8
0
 62
7
  6
CONTINUOUS
 10
179.7627793673
 20
123.5498581727
 40
1.0
 50
0.0
 51
14.0
  0
ARC
  8
0
 62
7
  6
CONTINUOUS
 10
173.1127793673
 20
126.7052853459
 40
0.2
 50
346.0
 51
360.0
  0
ARC
  8
0
 62
7
  6
CONTINUOUS
 10
180.2127793673
 20
126.7052853459
 40
0.2
 50
180.0
 51
194.0
  0
ARC
  8
0
 62
7
  6
CONTINUOUS
 10
160.4127793673
 20
126.7052853459
 40
0.2
 50
346.0
 51
360.0
  0
ARC
  8
0
 62
7
  6
CONTINUOUS
 10
167.5127793673
 20
126.7052853459
 40
0.2
 50
180.0
 51
194.0
  0
ARC
  8
0
 62
7
  6
CONTINUOUS
 10
147.7127793673
 20
126.7052853459
 40
0.2
 50
346.0
 51
360.0
  0
ARC
  8
0
 62
7
  6
CONTINUOUS
 10
154.8127793673
 20
126.7052853459
 40
0.2
 50
180.0
 51
194.0
  0
ARC
  8
0
 62
7
  6
CONTINUOUS
 10
155.1127793673
 20
129.2331298502
 40
0.5
 50
135.5846914028
 51
180.0
  0
ARC
  8
0
 62
7
  6
CONTINUOUS
 10
160.1127793673
 20
129.2331298502
 40
0.5
 50
0.0
 51
44.4153085972
  0
ARC
  8
0
 62
7
  6
CONTINUOUS
 10
142.4127793673
 20
129.1330692441
 40
0.5
 50
135.5846914028
 51
180.0
  0
ARC
  8
0
 62
7
  6
CONTINUOUS
 10
147.4127793673
 20
129.1330692441
 40
0.5
 50
0.0
 51
44.4153085972
  0
ARC
  8
0
 62
7
  6
CONTINUOUS
 10
144.6209053752
 20
130.1713882078
 40
0.5
 50
90.4514119528
 51
94.7835976652
  0
ARC
  8
0
 62
7
  6
CONTINUOUS
 10
145.1496611267
 20
130.1755541622
 40
0.5
 50
86.1192262403
 51
90.4514119528
  0
ARC
  8
0
 62
7
  6
CONTINUOUS
 10
157.3209053752
 20
130.2714488138
 40
0.5
 50
90.4514119528
 51
94.7835976652
  0
ARC
  8
0
 62
7
  6
CONTINUOUS
 10
157.8496611267
 20
130.2756147682
 40
0.5
 50
86.1192262403
 51
90.4514119528
  0
ARC
  8
0
 62
7
  6
CONTINUOUS
 10
180.5127793673
 20
129.4332510623
 40
0.5
 50
135.5846914028
 51
180.0
  0
ARC
  8
0
 62
7
  6
CONTINUOUS
 10
167.8127793673
 20
129.3331904562
 40
0.5
 50
135.5846914028
 51
180.0
  0
ARC
  8
0
 62
7
  6
CONTINUOUS
 10
172.8127793673
 20
129.3331904562
 40
0.5
 50
0.0
 51
44.4153085972
  0
ARC
  8
0
 62
7
  6
CONTINUOUS
 10
170.5496611267
 20
130.3756753743
 40
0.5
 50
86.1192262403
 51
90.4514119528
  0
ARC
  8
0
 62
7
  6
CONTINUOUS
 10
170.0209053752
 20
130.3715094199
 40
0.5
 50
90.4514119528
 51
94.7835976652
  0
ARC
  8
0
 62
7
  6
CONTINUOUS
 10
255.1127793673
 20
98.2006357297
 40
0.75
 50
269.54858806
 51
359.9999983723
  0
ARC
  8
0
 62
7
  6
CONTINUOUS
 10
250.6127793673
 20
98.2360902752
 40
0.75
 50
180.0000016277
 51
269.54858806
  0
ARC
  8
0
 62
7
  6
CONTINUOUS
 10
242.4127793673
 20
98.3006963358
 40
0.75
 50
269.54858806
 51
359.9999983723
  0
ARC
  8
0
 62
7
  6
CONTINUOUS
 10
237.9127793673
 20
98.3361508812
 40
0.75
 50
180.0000016277
 51
269.54858806
  0
ARC
  8
0
 62
7
  6
CONTINUOUS
 10
225.2127793673
 20
98.4362114873
 40
0.75
 50
180.0000016277
 51
269.54858806
  0
ARC
  8
0
 62
7
  6
CONTINUOUS
 10
204.3127793673
 20
98.600878154
 40
0.75
 50
269.54858806
 51
359.9999983723
  0
ARC
  8
0
 62
7
  6
CONTINUOUS
 10
199.8127793673
 20
98.6363326994
 40
0.75
 50
180.0000016277
 51
269.54858806
  0
ARC
  8
0
 62
7
  6
CONTINUOUS
 10
191.6127793673
 20
98.70093876
 40
0.75
 50
269.54858806
 51
359.9999983723
  0
ARC
  8
0
 62
7
  6
CONTINUOUS
 10
187.1127793673
 20
98.7363933055
 40
0.75
 50
180.0000016277
 51
269.54858806
  0
ARC
  8
0
 62
7
  6
CONTINUOUS
 10
217.0127793673
 20
98.5008175479
 40
0.75
 50
269.54858806
 51
359.9999983723
  0
ARC
  8
0
 62
7
  6
CONTINUOUS
 10
229.7127793673
 20
98.4007569418
 40
0.75
 50
269.54858806
 51
359.9999983723
  0
ARC
  8
0
 62
7
  6
CONTINUOUS
 10
212.5127793673
 20
98.5362720934
 40
0.75
 50
180.0000016277
 51
269.54858806
  0
ARC
  8
0
 62
7
  6
CONTINUOUS
 10
186.5627793673
 20
102.2400001212
 40
0.2
 50
166.0
 51
180.0
  0
ARC
  8
0
 62
7
  6
CONTINUOUS
 10
192.1627793035
 20
102.240000377
 40
0.2
 50
359.9999267413
 51
13.9999244986
  0
ARC
  8
0
 62
7
  6
CONTINUOUS
 10
199.2627793673
 20
102.2400001212
 40
0.2
 50
166.0
 51
180.0
  0
ARC
  8
0
 62
7
  6
CONTINUOUS
 10
255.6627793035
 20
102.240000377
 40
0.2
 50
359.9999267414
 51
13.9999244986
  0
ARC
  8
0
 62
7
  6
CONTINUOUS
 10
242.9627793035
 20
102.240000377
 40
0.2
 50
359.9999267414
 51
13.9999244986
  0
ARC
  8
0
 62
7
  6
CONTINUOUS
 10
250.0627793673
 20
102.2400001212
 40
0.2
 50
166.0
 51
180.0
  0
ARC
  8
0
 62
7
  6
CONTINUOUS
 10
230.2627793035
 20
102.240000377
 40
0.2
 50
359.9999267414
 51
13.9999244986
  0
ARC
  8
0
 62
7
  6
CONTINUOUS
 10
237.3627793673
 20
102.2400001212
 40
0.2
 50
166.0
 51
180.0
  0
ARC
  8
0
 62
7
  6
CONTINUOUS
 10
217.5627793035
 20
102.240000377
 40
0.2
 50
359.9999267414
 51
13.9999244986
  0
ARC
  8
0
 62
7
  6
CONTINUOUS
 10
224.6627793673
 20
102.2400001212
 40
0.2
 50
166.0
 51
180.0
  0
ARC
  8
0
 62
7
  6
CONTINUOUS
 10
204.8627793035
 20
102.240000377
 40
0.2
 50
359.9999267414
 51
13.9999244986
  0
ARC
  8
0
 62
7
  6
CONTINUOUS
 10
211.9627793673
 20
102.2400001212
 40
0.2
 50
166.0
 51
180.0
  0
ARC
  8
0
 62
7
  6
CONTINUOUS
 10
211.5127793673
 20
105.3954272945
 40
1.0
 50
346.0
 51
360.0
  0
ARC
  8
0
 62
7
  6
CONTINUOUS
 10
218.0127793673
 20
105.3954272945
 40
1.0
 50
180.0
 51
194.0
  0
ARC
  8
0
 62
7
  6
CONTINUOUS
 10
205.3127793673
 20
105.3954272945
 40
1.0
 50
180.0
 51
194.0
  0
ARC
  8
0
 62
7
  6
CONTINUOUS
 10
192.6127793673
 20
105.3954272945
 40
1.0
 50
180.0
 51
194.0
  0
ARC
  8
0
 62
7
  6
CONTINUOUS
 10
198.8127793673
 20
105.3954272945
 40
1.0
 50
346.0
 51
360.0
  0
ARC
  8
0
 62
7
  6
CONTINUOUS
 10
186.1127793673
 20
105.3954272945
 40
1.0
 50
346.0
 51
360.0
  0
ARC
  8
0
 62
7
  6
CONTINUOUS
 10
208.4127793673
 20
109.8350329474
 40
4.1
 50
0.0
 51
180.0
  0
ARC
  8
0
 62
7
  6
CONTINUOUS
 10
195.7127793673
 20
109.8516451123
 40
4.1
 50
0.0
 51
180.0
  0
ARC
  8
0
 62
7
  6
CONTINUOUS
 10
183.0127793673
 20
109.8682572771
 40
4.1
 50
0.0
 51
180.0
  0
ARC
  8
0
 62
7
  6
CONTINUOUS
 10
249.6127793673
 20
105.3954272945
 40
1.0
 50
346.0
 51
360.0
  0
ARC
  8
0
 62
7
  6
CONTINUOUS
 10
236.9127793673
 20
105.3954272945
 40
1.0
 50
346.0
 51
360.0
  0
ARC
  8
0
 62
7
  6
CONTINUOUS
 10
224.2127793673
 20
105.3954272945
 40
1.0
 50
346.0
 51
360.0
  0
ARC
  8
0
 62
7
  6
CONTINUOUS
 10
256.1127793673
 20
105.3954272945
 40
1.0
 50
180.0
 51
194.0
  0
ARC
  8
0
 62
7
  6
CONTINUOUS
 10
243.4127793673
 20
105.3954272945
 40
1.0
 50
180.0
 51
194.0
  0
ARC
  8
0
 62
7
  6
CONTINUOUS
 10
230.7127793673
 20
105.3954272945
 40
1.0
 50
180.0
 51
194.0
  0
ARC
  8
0
 62
7
  6
CONTINUOUS
 10
246.5127793673
 20
109.785196453
 40
4.1
 50
0.0
 51
180.0
  0
ARC
  8
0
 62
7
  6
CONTINUOUS
 10
233.8127793673
 20
109.8018086178
 40
4.1
 50
0.0
 51
180.0
  0
ARC
  8
0
 62
7
  6
CONTINUOUS
 10
221.1127793673
 20
109.8184207826
 40
4.1
 50
0.0
 51
180.0
  0
ARC
  8
0
 62
7
  6
CONTINUOUS
 10
301.4127793673
 20
98.1726427336
 40
0.75
 50
180.0
 51
270.0
  0
ARC
  8
0
 62
7
  6
CONTINUOUS
 10
314.1127793673
 20
98.1726427336
 40
0.75
 50
180.0
 51
270.0
  0
ARC
  8
0
 62
7
  6
CONTINUOUS
 10
318.6127793673
 20
98.1726427336
 40
0.75
 50
270.0
 51
360.0
  0
ARC
  8
0
 62
7
  6
CONTINUOUS
 10
331.3127793673
 20
98.1726427336
 40
0.75
 50
270.0
 51
360.0
  0
ARC
  8
0
 62
7
  6
CONTINUOUS
 10
326.8127793673
 20
98.1726427336
 40
0.75
 50
180.0
 51
270.0
  0
ARC
  8
0
 62
7
  6
CONTINUOUS
 10
305.9127793673
 20
98.1726427336
 40
0.75
 50
270.0
 51
360.0
  0
ARC
  8
0
 62
7
  6
CONTINUOUS
 10
293.2127793673
 20
98.1726427336
 40
0.75
 50
270.0
 51
360.0
  0
ARC
  8
0
 62
7
  6
CONTINUOUS
 10
288.7127793673
 20
98.1726427336
 40
0.75
 50
180.0
 51
270.0
  0
ARC
  8
0
 62
7
  6
CONTINUOUS
 10
267.8127793673
 20
98.1726427336
 40
0.75
 50
270.0
 51
360.0
  0
ARC
  8
0
 62
7
  6
CONTINUOUS
 10
263.3127793673
 20
98.1726427336
 40
0.75
 50
180.0
 51
270.0
  0
ARC
  8
0
 62
7
  6
CONTINUOUS
 10
280.5127793673
 20
98.1726427336
 40
0.75
 50
270.0
 51
360.0
  0
ARC
  8
0
 62
7
  6
CONTINUOUS
 10
276.0127793673
 20
98.1726427336
 40
0.75
 50
180.0
 51
270.0
  0
ARC
  8
0
 62
7
  6
CONTINUOUS
 10
288.1627793673
 20
102.2400001212
 40
0.2
 50
166.0
 51
180.0
  0
ARC
  8
0
 62
7
  6
CONTINUOUS
 10
300.8627793673
 20
102.2400001212
 40
0.2
 50
166.0
 51
180.0
  0
ARC
  8
0
 62
7
  6
CONTINUOUS
 10
293.7627793035
 20
102.240000377
 40
0.2
 50
359.9999267414
 51
13.9999244986
  0
ARC
  8
0
 62
7
  6
CONTINUOUS
 10
313.5627793673
 20
102.2400001212
 40
0.2
 50
166.0
 51
180.0
  0
ARC
  8
0
 62
7
  6
CONTINUOUS
 10
306.4627793035
 20
102.240000377
 40
0.2
 50
359.9999267414
 51
13.9999244986
  0
ARC
  8
0
 62
7
  6
CONTINUOUS
 10
326.2627793673
 20
102.2400001212
 40
0.2
 50
166.0
 51
180.0
  0
ARC
  8
0
 62
7
  6
CONTINUOUS
 10
319.1627793035
 20
102.240000377
 40
0.2
 50
359.9999267414
 51
13.9999244986
  0
ARC
  8
0
 62
7
  6
CONTINUOUS
 10
331.8627793035
 20
102.240000377
 40
0.2
 50
359.9999267413
 51
13.9999244986
  0
ARC
  8
0
 62
7
  6
CONTINUOUS
 10
281.0627793035
 20
102.240000377
 40
0.2
 50
359.9999267414
 51
13.9999244986
  0
ARC
  8
0
 62
7
  6
CONTINUOUS
 10
268.3627793035
 20
102.240000377
 40
0.2
 50
359.9999267413
 51
13.9999244986
  0
ARC
  8
0
 62
7
  6
CONTINUOUS
 10
275.4627793673
 20
102.2400001212
 40
0.2
 50
166.0
 51
180.0
  0
ARC
  8
0
 62
7
  6
CONTINUOUS
 10
262.7627793673
 20
102.2400001212
 40
0.2
 50
166.0
 51
180.0
  0
ARC
  8
0
 62
7
  6
CONTINUOUS
 10
287.7127793673
 20
105.3954272945
 40
1.0
 50
346.0
 51
360.0
  0
ARC
  8
0
 62
7
  6
CONTINUOUS
 10
294.2127793673
 20
105.3954272945
 40
1.0
 50
180.0
 51
194.0
  0
ARC
  8
0
 62
7
  6
CONTINUOUS
 10
275.0127793673
 20
105.3954272945
 40
1.0
 50
346.0
 51
360.0
  0
ARC
  8
0
 62
7
  6
CONTINUOUS
 10
262.3127793673
 20
105.3954272945
 40
1.0
 50
346.0
 51
360.0
  0
ARC
  8
0
 62
7
  6
CONTINUOUS
 10
281.5127793673
 20
105.3954272945
 40
1.0
 50
180.0
 51
194.0
  0
ARC
  8
0
 62
7
  6
CONTINUOUS
 10
268.8127793673
 20
105.3954272945
 40
1.0
 50
180.0
 51
194.0
  0
ARC
  8
0
 62
7
  6
CONTINUOUS
 10
284.6127793673
 20
109.7353599586
 40
4.1
 50
0.0
 51
180.0
  0
ARC
  8
0
 62
7
  6
CONTINUOUS
 10
271.9127793673
 20
109.7519721234
 40
4.1
 50
0.0
 51
180.0
  0
ARC
  8
0
 62
7
  6
CONTINUOUS
 10
259.2127793673
 20
109.7685842882
 40
4.1
 50
0.0
 51
180.0
  0
ARC
  8
0
 62
7
  6
CONTINUOUS
 10
332.3127793673
 20
105.3954272945
 40
1.0
 50
180.0
 51
194.0
  0
ARC
  8
0
 62
7
  6
CONTINUOUS
 10
300.4127793673
 20
105.3954272945
 40
1.0
 50
346.0
 51
360.0
  0
ARC
  8
0
 62
7
  6
CONTINUOUS
 10
313.1127793673
 20
105.3954272945
 40
1.0
 50
346.0
 51
360.0
  0
ARC
  8
0
 62
7
  6
CONTINUOUS
 10
306.9127793673
 20
105.3954272945
 40
1.0
 50
180.0
 51
194.0
  0
ARC
  8
0
 62
7
  6
CONTINUOUS
 10
325.8127793673
 20
105.3954272945
 40
1.0
 50
346.0
 51
360.0
  0
ARC
  8
0
 62
7
  6
CONTINUOUS
 10
319.6127793673
 20
105.3954272945
 40
1.0
 50
180.0
 51
194.0
  0
ARC
  8
0
 62
7
  6
CONTINUOUS
 10
335.4127793673
 20
109.6855234641
 40
4.1
 50
145.43967822
 51
180.0
  0
ARC
  8
0
 62
7
  6
CONTINUOUS
 10
297.3127793673
 20
109.7187477937
 40
4.1
 50
0.0
 51
180.0
  0
ARC
  8
0
 62
7
  6
CONTINUOUS
 10
310.0127793673
 20
109.7021356289
 40
4.1
 50
0.0
 51
180.0
  0
ARC
  8
0
 62
7
  6
CONTINUOUS
 10
322.7127793673
 20
109.6855234641
 40
4.1
 50
0.0
 51
180.0
  0
ARC
  8
0
 62
7
  6
CONTINUOUS
 10
331.9127793673
 20
112.0964361544
 40
0.15
 50
325.43967822
 51
360.0
  0
ARC
  8
0
 62
7
  6
CONTINUOUS
 10
212.6627793673
 20
117.1158099122
 40
2.0
 50
180.0
 51
270.074945385
  0
ARC
  8
0
 62
7
  6
CONTINUOUS
 10
199.9627793673
 20
117.0991977474
 40
2.0
 50
180.0
 51
270.074945385
  0
ARC
  8
0
 62
7
  6
CONTINUOUS
 10
187.2627793673
 20
117.0825855825
 40
2.0
 50
180.0
 51
270.074945385
  0
ARC
  8
0
 62
7
  6
CONTINUOUS
 10
191.4627793673
 20
117.0880793693
 40
2.0
 50
270.074945385
 51
360.0
  0
ARC
  8
0
 62
7
  6
CONTINUOUS
 10
204.1627793673
 20
117.1046915341
 40
2.0
 50
270.074945385
 51
360.0
  0
ARC
  8
0
 62
7
  6
CONTINUOUS
 10
216.8627793673
 20
117.121303699
 40
2.0
 50
270.074945385
 51
360.0
  0
ARC
  8
0
 62
7
  6
CONTINUOUS
 10
250.7627793673
 20
117.1656464066
 40
2.0
 50
180.0
 51
270.074945385
  0
ARC
  8
0
 62
7
  6
CONTINUOUS
 10
238.0627793673
 20
117.1490342418
 40
2.0
 50
180.0
 51
270.074945385
  0
ARC
  8
0
 62
7
  6
CONTINUOUS
 10
225.3627793673
 20
117.132422077
 40
2.0
 50
180.0
 51
270.074945385
  0
ARC
  8
0
 62
7
  6
CONTINUOUS
 10
229.5627793673
 20
117.1379158638
 40
2.0
 50
270.074945385
 51
360.0
  0
ARC
  8
0
 62
7
  6
CONTINUOUS
 10
242.2627793673
 20
117.1545280286
 40
2.0
 50
270.074945385
 51
360.0
  0
ARC
  8
0
 62
7
  6
CONTINUOUS
 10
254.9627793673
 20
117.1711401934
 40
2.0
 50
270.074945385
 51
360.0
  0
ARC
  8
0
 62
7
  6
CONTINUOUS
 10
198.9627793673
 20
123.5498581727
 40
1.0
 50
166.0
 51
180.0
  0
ARC
  8
0
 62
7
  6
CONTINUOUS
 10
186.2627793673
 20
123.5498581727
 40
1.0
 50
166.0
 51
180.0
  0
ARC
  8
0
 62
7
  6
CONTINUOUS
 10
192.4627793673
 20
123.5498581727
 40
1.0
 50
0.0
 51
14.0
  0
ARC
  8
0
 62
7
  6
CONTINUOUS
 10
195.7127793673
 20
127.0838219256
 40
4.0
 50
44.4153085972
 51
86.1192262403
  0
ARC
  8
0
 62
7
  6
CONTINUOUS
 10
195.7127793673
 20
127.0838219256
 40
4.0
 50
94.7835976652
 51
135.5846914028
  0
ARC
  8
0
 62
7
  6
CONTINUOUS
 10
183.0127793673
 20
126.9837613195
 40
4.0
 50
44.4153085972
 51
86.1192262403
  0
ARC
  8
0
 62
7
  6
CONTINUOUS
 10
183.0127793673
 20
126.9837613195
 40
4.0
 50
94.7835976652
 51
135.5846914028
  0
ARC
  8
0
 62
7
  6
CONTINUOUS
 10
185.8127793673
 20
126.7052853459
 40
0.2
 50
346.0
 51
360.0
  0
ARC
  8
0
 62
7
  6
CONTINUOUS
 10
192.9127793673
 20
126.7052853459
 40
0.2
 50
180.0
 51
194.0
  0
ARC
  8
0
 62
7
  6
CONTINUOUS
 10
198.5127793673
 20
126.7052853459
 40
0.2
 50
346.0
 51
360.0
  0
ARC
  8
0
 62
7
  6
CONTINUOUS
 10
211.6627793673
 20
123.5498581727
 40
1.0
 50
166.0
 51
180.0
  0
ARC
  8
0
 62
7
  6
CONTINUOUS
 10
217.8627793673
 20
123.5498581727
 40
1.0
 50
0.0
 51
14.0
  0
ARC
  8
0
 62
7
  6
CONTINUOUS
 10
205.1627793673
 20
123.5498581727
 40
1.0
 50
0.0
 51
14.0
  0
ARC
  8
0
 62
7
  6
CONTINUOUS
 10
208.4127793673
 20
127.1838825316
 40
4.0
 50
44.4153085972
 51
86.1192262403
  0
ARC
  8
0
 62
7
  6
CONTINUOUS
 10
208.4127793673
 20
127.1838825316
 40
4.0
 50
94.7835976652
 51
135.5846914028
  0
ARC
  8
0
 62
7
  6
CONTINUOUS
 10
211.2127793673
 20
126.7052853459
 40
0.2
 50
346.0
 51
360.0
  0
ARC
  8
0
 62
7
  6
CONTINUOUS
 10
218.3127793673
 20
126.7052853459
 40
0.2
 50
180.0
 51
194.0
  0
ARC
  8
0
 62
7
  6
CONTINUOUS
 10
205.6127793673
 20
126.7052853459
 40
0.2
 50
180.0
 51
194.0
  0
ARC
  8
0
 62
7
  6
CONTINUOUS
 10
182.7209053752
 20
130.471570026
 40
0.5
 50
90.4514119528
 51
94.7835976652
  0
ARC
  8
0
 62
7
  6
CONTINUOUS
 10
183.2496611267
 20
130.4757359804
 40
0.5
 50
86.1192262403
 51
90.4514119528
  0
ARC
  8
0
 62
7
  6
CONTINUOUS
 10
195.4209053752
 20
130.571630632
 40
0.5
 50
90.4514119528
 51
94.7835976652
  0
ARC
  8
0
 62
7
  6
CONTINUOUS
 10
195.9496611267
 20
130.5757965864
 40
0.5
 50
86.1192262403
 51
90.4514119528
  0
ARC
  8
0
 62
7
  6
CONTINUOUS
 10
208.1209053752
 20
130.6716912381
 40
0.5
 50
90.4514119528
 51
94.7835976652
  0
ARC
  8
0
 62
7
  6
CONTINUOUS
 10
208.6496611267
 20
130.6758571925
 40
0.5
 50
86.1192262403
 51
90.4514119528
  0
ARC
  8
0
 62
7
  6
CONTINUOUS
 10
218.6127793673
 20
129.7334328805
 40
0.5
 50
135.5846914028
 51
180.0
  0
ARC
  8
0
 62
7
  6
CONTINUOUS
 10
205.9127793673
 20
129.6333722744
 40
0.5
 50
135.5846914028
 51
180.0
  0
ARC
  8
0
 62
7
  6
CONTINUOUS
 10
210.9127793673
 20
129.6333722744
 40
0.5
 50
0.0
 51
44.4153085972
  0
ARC
  8
0
 62
7
  6
CONTINUOUS
 10
198.2127793673
 20
129.5333116684
 40
0.5
 50
0.0
 51
44.4153085972
  0
ARC
  8
0
 62
7
  6
CONTINUOUS
 10
193.2127793673
 20
129.5333116684
 40
0.5
 50
135.5846914028
 51
180.0
  0
ARC
  8
0
 62
7
  6
CONTINUOUS
 10
185.5127793673
 20
129.4332510623
 40
0.5
 50
0.0
 51
44.4153085972
  0
ARC
  8
0
 62
7
  6
CONTINUOUS
 10
230.5627793673
 20
123.5498581727
 40
1.0
 50
0.0
 51
14.0
  0
ARC
  8
0
 62
7
  6
CONTINUOUS
 10
224.3627793673
 20
123.5498581727
 40
1.0
 50
166.0
 51
180.0
  0
ARC
  8
0
 62
7
  6
CONTINUOUS
 10
237.0627793673
 20
123.5498581727
 40
1.0
 50
166.0
 51
180.0
  0
ARC
  8
0
 62
7
  6
CONTINUOUS
 10
236.6127793673
 20
126.7052853459
 40
0.2
 50
346.0
 51
360.0
  0
ARC
  8
0
 62
7
  6
CONTINUOUS
 10
223.9127793673
 20
126.7052853459
 40
0.2
 50
346.0
 51
360.0
  0
ARC
  8
0
 62
7
  6
CONTINUOUS
 10
231.0127793673
 20
126.7052853459
 40
0.2
 50
180.0
 51
194.0
  0
ARC
  8
0
 62
7
  6
CONTINUOUS
 10
249.7627793673
 20
123.5498581727
 40
1.0
 50
166.0
 51
180.0
  0
ARC
  8
0
 62
7
  6
CONTINUOUS
 10
255.9627793673
 20
123.5498581727
 40
1.0
 50
0.0
 51
14.0
  0
ARC
  8
0
 62
7
  6
CONTINUOUS
 10
243.2627793673
 20
123.5498581727
 40
1.0
 50
0.0
 51
14.0
  0
ARC
  8
0
 62
7
  6
CONTINUOUS
 10
249.3127793673
 20
126.7052853459
 40
0.2
 50
345.9999999999
 51
360.0
  0
ARC
  8
0
 62
7
  6
CONTINUOUS
 10
256.4127793673
 20
126.7052853459
 40
0.2
 50
180.0
 51
194.0
  0
ARC
  8
0
 62
7
  6
CONTINUOUS
 10
243.7127793673
 20
126.7052853459
 40
0.2
 50
180.0000000001
 51
193.9999999999
  0
ARC
  8
0
 62
7
  6
CONTINUOUS
 10
246.5127793673
 20
127.4840643498
 40
4.0
 50
44.4153085972
 51
86.1192262403
  0
ARC
  8
0
 62
7
  6
CONTINUOUS
 10
246.5127793673
 20
127.4840643498
 40
4.0
 50
94.7835976652
 51
135.5846914028
  0
ARC
  8
0
 62
7
  6
CONTINUOUS
 10
233.8127793673
 20
127.3840037438
 40
4.0
 50
44.4153085972
 51
86.1192262403
  0
ARC
  8
0
 62
7
  6
CONTINUOUS
 10
233.8127793673
 20
127.3840037438
 40
4.0
 50
94.7835976652
 51
135.5846914028
  0
ARC
  8
0
 62
7
  6
CONTINUOUS
 10
221.1127793673
 20
127.2839431377
 40
4.0
 50
44.4153085972
 51
86.1192262403
  0
ARC
  8
0
 62
7
  6
CONTINUOUS
 10
221.1127793673
 20
127.2839431377
 40
4.0
 50
94.7835976652
 51
135.5846914028
  0
ARC
  8
0
 62
7
  6
CONTINUOUS
 10
220.8209053752
 20
130.7717518441
 40
0.5
 50
90.4514119528
 51
94.7835976652
  0
ARC
  8
0
 62
7
  6
CONTINUOUS
 10
221.3496611267
 20
130.7759177985
 40
0.5
 50
86.1192262403
 51
90.4514119528
  0
ARC
  8
0
 62
7
  6
CONTINUOUS
 10
233.5209053752
 20
130.8718124502
 40
0.5
 50
90.4514119528
 51
94.7835976652
  0
ARC
  8
0
 62
7
  6
CONTINUOUS
 10
234.0496611267
 20
130.8759784046
 40
0.5
 50
86.1192262403
 51
90.4514119528
  0
ARC
  8
0
 62
7
  6
CONTINUOUS
 10
246.2209053752
 20
130.9718730563
 40
0.5
 50
90.4514119528
 51
94.7835976652
  0
ARC
  8
0
 62
7
  6
CONTINUOUS
 10
246.7496611267
 20
130.9760390107
 40
0.5
 50
86.1192262403
 51
90.4514119528
  0
ARC
  8
0
 62
7
  6
CONTINUOUS
 10
244.0127793673
 20
129.9335540926
 40
0.5
 50
135.5846914028
 51
180.0
  0
ARC
  8
0
 62
7
  6
CONTINUOUS
 10
249.0127793673
 20
129.9335540926
 40
0.5
 50
0.0
 51
44.4153085972
  0
ARC
  8
0
 62
7
  6
CONTINUOUS
 10
231.3127793673
 20
129.8334934865
 40
0.5
 50
135.5846914028
 51
180.0
  0
ARC
  8
0
 62
7
  6
CONTINUOUS
 10
236.3127793673
 20
129.8334934865
 40
0.5
 50
0.0
 51
44.4153085972
  0
ARC
  8
0
 62
7
  6
CONTINUOUS
 10
223.6127793673
 20
129.7334328805
 40
0.5
 50
0.0
 51
44.4153085972
  0
ARC
  8
0
 62
7
  6
CONTINUOUS
 10
256.7127793673
 20
129.9821324763
 40
0.5
 50
135.5846914028
 51
180.0
  0
ARC
  8
0
 62
7
  6
CONTINUOUS
 10
293.0627793673
 20
117.2209766878
 40
2.0
 50
270.074945385
 51
360.0
  0
ARC
  8
0
 62
7
  6
CONTINUOUS
 10
288.8627793673
 20
117.2154829011
 40
2.0
 50
180.0
 51
270.074945385
  0
ARC
  8
0
 62
7
  6
CONTINUOUS
 10
276.1627793673
 20
117.1988707362
 40
2.0
 50
180.0
 51
270.074945385
  0
ARC
  8
0
 62
7
  6
CONTINUOUS
 10
263.4627793673
 20
117.1822585714
 40
2.0
 50
180.0
 51
270.074945385
  0
ARC
  8
0
 62
7
  6
CONTINUOUS
 10
267.6627793673
 20
117.1877523582
 40
2.0
 50
270.074945385
 51
360.0
  0
ARC
  8
0
 62
7
  6
CONTINUOUS
 10
280.3627793673
 20
117.204364523
 40
2.0
 50
270.074945385
 51
360.0
  0
ARC
  8
0
 62
7
  6
CONTINUOUS
 10
331.9127793673
 20
115.1217923763
 40
0.15
 50
0.0
 51
90.074945385
  0
ARC
  8
0
 62
7
  6
CONTINUOUS
 10
305.7627793673
 20
117.2375888527
 40
2.0
 50
270.074945385
 51
360.0
  0
ARC
  8
0
 62
7
  6
CONTINUOUS
 10
318.4627793673
 20
117.2542010175
 40
2.0
 50
270.074945385
 51
360.0
  0
ARC
  8
0
 62
7
  6
CONTINUOUS
 10
326.9627793673
 20
117.2653193955
 40
2.0
 50
180.0
 51
270.074945385
  0
ARC
  8
0
 62
7
  6
CONTINUOUS
 10
314.2627793673
 20
117.2487072307
 40
2.0
 50
180.0
 51
270.074945385
  0
ARC
  8
0
 62
7
  6
CONTINUOUS
 10
301.5627793673
 20
117.2320950659
 40
2.0
 50
180.0
 51
270.074945385
  0
ARC
  8
0
 62
7
  6
CONTINUOUS
 10
262.4627793673
 20
123.5498581727
 40
1.0
 50
166.0
 51
180.0
  0
ARC
  8
0
 62
7
  6
CONTINUOUS
 10
275.1627793673
 20
123.5498581727
 40
1.0
 50
166.0
 51
180.0
  0
ARC
  8
0
 62
7
  6
CONTINUOUS
 10
287.8627793673
 20
123.5498581727
 40
1.0
 50
166.0
 51
180.0
  0
ARC
  8
0
 62
7
  6
CONTINUOUS
 10
281.3627793673
 20
123.5498581727
 40
1.0
 50
0.0
 51
14.0
  0
ARC
  8
0
 62
7
  6
CONTINUOUS
 10
268.6627793673
 20
123.5498581727
 40
1.0
 50
0.0
 51
14.0
  0
ARC
  8
0
 62
7
  6
CONTINUOUS
 10
287.4127793673
 20
126.7052853459
 40
0.2
 50
345.9999999999
 51
360.0
  0
ARC
  8
0
 62
7
  6
CONTINUOUS
 10
274.7127793673
 20
126.7052853459
 40
0.2
 50
345.9999999998
 51
360.0
  0
ARC
  8
0
 62
7
  6
CONTINUOUS
 10
281.8127793673
 20
126.7052853459
 40
0.2
 50
180.0
 51
194.0
  0
ARC
  8
0
 62
7
  6
CONTINUOUS
 10
262.0127793673
 20
126.7052853459
 40
0.2
 50
345.9999999999
 51
360.0
  0
ARC
  8
0
 62
7
  6
CONTINUOUS
 10
269.1127793673
 20
126.7052853459
 40
0.2
 50
180.0
 51
194.0
  0
ARC
  8
0
 62
7
  6
CONTINUOUS
 10
284.6127793673
 20
127.5326427336
 40
4.0
 50
44.4153085972
 51
85.6678142875
  0
ARC
  8
0
 62
7
  6
CONTINUOUS
 10
284.6127793673
 20
127.5326427336
 40
4.0
 50
94.3321857125
 51
135.5846914028
  0
ARC
  8
0
 62
7
  6
CONTINUOUS
 10
271.9127793673
 20
127.5326427336
 40
4.0
 50
44.4153085972
 51
85.6678142875
  0
ARC
  8
0
 62
7
  6
CONTINUOUS
 10
271.9127793673
 20
127.5326427336
 40
4.0
 50
94.3321857125
 51
135.5846914028
  0
ARC
  8
0
 62
7
  6
CONTINUOUS
 10
259.2127793673
 20
127.5326427336
 40
4.0
 50
44.4153085972
 51
85.6678142875
  0
ARC
  8
0
 62
7
  6
CONTINUOUS
 10
259.2127793673
 20
127.5326427336
 40
4.0
 50
94.3321857125
 51
135.5846914028
  0
ARC
  8
0
 62
7
  6
CONTINUOUS
 10
258.9483932859
 20
131.0226427336
 40
0.5
 50
90.0
 51
94.3321857125
  0
ARC
  8
0
 62
7
  6
CONTINUOUS
 10
259.4771654486
 20
131.0226427336
 40
0.5
 50
85.6678142875
 51
90.0
  0
ARC
  8
0
 62
7
  6
CONTINUOUS
 10
271.6483932859
 20
131.0226427336
 40
0.5
 50
90.0
 51
94.3321857125
  0
ARC
  8
0
 62
7
  6
CONTINUOUS
 10
272.1771654486
 20
131.0226427336
 40
0.5
 50
85.6678142875
 51
90.0
  0
ARC
  8
0
 62
7
  6
CONTINUOUS
 10
284.3483932859
 20
131.0226427336
 40
0.5
 50
90.0
 51
94.3321857125
  0
ARC
  8
0
 62
7
  6
CONTINUOUS
 10
284.8771654486
 20
131.0226427336
 40
0.5
 50
85.6678142875
 51
90.0
  0
ARC
  8
0
 62
7
  6
CONTINUOUS
 10
261.7127793673
 20
129.9821324763
 40
0.5
 50
0.0
 51
44.4153085972
  0
ARC
  8
0
 62
7
  6
CONTINUOUS
 10
282.1127793673
 20
129.9821324763
 40
0.5
 50
135.5846914028
 51
180.0
  0
ARC
  8
0
 62
7
  6
CONTINUOUS
 10
287.1127793673
 20
129.9821324763
 40
0.5
 50
0.0
 51
44.4153085972
  0
ARC
  8
0
 62
7
  6
CONTINUOUS
 10
269.4127793673
 20
129.9821324763
 40
0.5
 50
135.5846914028
 51
180.0
  0
ARC
  8
0
 62
7
  6
CONTINUOUS
 10
274.4127793673
 20
129.9821324763
 40
0.5
 50
0.0
 51
44.4153085972
  0
ARC
  8
0
 62
7
  6
CONTINUOUS
 10
294.0627793673
 20
123.5498581727
 40
1.0
 50
0.0
 51
14.0
  0
ARC
  8
0
 62
7
  6
CONTINUOUS
 10
300.5627793673
 20
123.5498581727
 40
1.0
 50
166.0
 51
180.0
  0
ARC
  8
0
 62
7
  6
CONTINUOUS
 10
306.7627793673
 20
123.5498581727
 40
1.0
 50
0.0
 51
14.0
  0
ARC
  8
0
 62
7
  6
CONTINUOUS
 10
313.2627793673
 20
123.5498581727
 40
1.0
 50
166.0
 51
180.0
  0
ARC
  8
0
 62
7
  6
CONTINUOUS
 10
319.4627793673
 20
123.5498581727
 40
1.0
 50
0.0
 51
14.0
  0
ARC
  8
0
 62
7
  6
CONTINUOUS
 10
325.9627793673
 20
123.5498581727
 40
1.0
 50
166.0
 51
180.0
  0
ARC
  8
0
 62
7
  6
CONTINUOUS
 10
294.51277939
 20
126.7052852548
 40
0.2
 50
179.9999738948
 51
193.9999730956
  0
ARC
  8
0
 62
7
  6
CONTINUOUS
 10
307.21277939
 20
126.7052852548
 40
0.2
 50
179.9999738948
 51
193.9999730956
  0
ARC
  8
0
 62
7
  6
CONTINUOUS
 10
300.1127793673
 20
126.7052853459
 40
0.2
 50
345.9999999999
 51
360.0
  0
ARC
  8
0
 62
7
  6
CONTINUOUS
 10
319.91277939
 20
126.7052852548
 40
0.2
 50
179.9999738949
 51
193.9999730956
  0
ARC
  8
0
 62
7
  6
CONTINUOUS
 10
312.8127793673
 20
126.7052853459
 40
0.2
 50
346.0000000002
 51
360.0
  0
ARC
  8
0
 62
7
  6
CONTINUOUS
 10
325.5127793673
 20
126.7052853459
 40
0.2
 50
346.0000000002
 51
360.0
  0
ARC
  8
0
 62
7
  6
CONTINUOUS
 10
297.3127793673
 20
127.5326427336
 40
4.0
 50
94.3321857125
 51
135.5846914028
  0
ARC
  8
0
 62
7
  6
CONTINUOUS
 10
297.3127793673
 20
127.5326427336
 40
4.0
 50
44.4153085972
 51
85.6678142875
  0
ARC
  8
0
 62
7
  6
CONTINUOUS
 10
310.0127793673
 20
127.5326427336
 40
4.0
 50
94.3321857125
 51
135.5846914028
  0
ARC
  8
0
 62
7
  6
CONTINUOUS
 10
310.0127793673
 20
127.5326427336
 40
4.0
 50
44.4153085972
 51
85.6678142875
  0
ARC
  8
0
 62
7
  6
CONTINUOUS
 10
322.7127793673
 20
127.5326427336
 40
4.0
 50
94.3321857125
 51
135.5846914028
  0
ARC
  8
0
 62
7
  6
CONTINUOUS
 10
322.7127793673
 20
127.5326427336
 40
4.0
 50
44.4153085972
 51
85.6678142875
  0
ARC
  8
0
 62
7
  6
CONTINUOUS
 10
297.0483932859
 20
131.0226427336
 40
0.5
 50
90.0
 51
94.3321857125
  0
ARC
  8
0
 62
7
  6
CONTINUOUS
 10
297.5771654486
 20
131.0226427336
 40
0.5
 50
85.6678142875
 51
90.0
  0
ARC
  8
0
 62
7
  6
CONTINUOUS
 10
322.4483932859
 20
131.0226427336
 40
0.5
 50
90.0
 51
94.3321857125
  0
ARC
  8
0
 62
7
  6
CONTINUOUS
 10
309.7483932859
 20
131.0226427336
 40
0.5
 50
90.0
 51
94.3321857125
  0
ARC
  8
0
 62
7
  6
CONTINUOUS
 10
310.2771654486
 20
131.0226427336
 40
0.5
 50
85.6678142875
 51
90.0
  0
ARC
  8
0
 62
7
  6
CONTINUOUS
 10
322.9771654486
 20
131.0226427336
 40
0.5
 50
85.6678142875
 51
90.0
  0
ARC
  8
0
 62
7
  6
CONTINUOUS
 10
294.8127793673
 20
129.9821324763
 40
0.5
 50
135.5846914028
 51
180.0
  0
ARC
  8
0
 62
7
  6
CONTINUOUS
 10
299.8127793673
 20
129.9821324763
 40
0.5
 50
0.0
 51
44.4153085972
  0
ARC
  8
0
 62
7
  6
CONTINUOUS
 10
307.5127793673
 20
129.9821324763
 40
0.5
 50
135.5846914028
 51
180.0
  0
ARC
  8
0
 62
7
  6
CONTINUOUS
 10
312.5127793673
 20
129.9821324763
 40
0.5
 50
0.0
 51
44.4153085972
  0
ARC
  8
0
 62
7
  6
CONTINUOUS
 10
320.2127793673
 20
129.9821324763
 40
0.5
 50
135.5846914028
 51
180.0
  0
ARC
  8
0
 62
7
  6
CONTINUOUS
 10
325.2127793673
 20
129.9821324763
 40
0.5
 50
0.0
 51
44.4153085972
  0
ARC
  8
0
 62
7
  6
CONTINUOUS
 10
343.6829368704
 20
118.488980997
 40
26.0
 50
5.4650096427
 51
22.823503549
  0
ARC
  8
0
 62
7
  6
CONTINUOUS
 10
365.5829368704
 20
101.4226427336
 40
4.0
 50
301.4333520474
 51
360.0
  0
ARC
  8
0
 62
7
  6
CONTINUOUS
 10
365.5829368704
 20
101.9226427336
 40
4.0
 50
308.1324371836
 51
360.0
  0
CIRCLE
  8
0
 62
7
  6
CONTINUOUS
 10
363.5829368704
 20
101.7726427336
 40
2.75
  0
CIRCLE
  8
0
 62
7
  6
CONTINUOUS
 10
363.5829368704
 20
101.7726427336
 40
2.1
  0
ARC
  8
0
 62
7
  6
CONTINUOUS
 10
361.5829368704
 20
127.5226427336
 40
4.0
 50
90.0
 51
180.0
  0
ARC
  8
0
 62
7
  6
CONTINUOUS
 10
361.5829368704
 20
127.0226427336
 40
4.0
 50
90.0
 51
180.0
  0
ARC
  8
0
 62
7
  6
CONTINUOUS
 10
365.5829368704
 20
120.584213681
 40
4.0
 50
0.0
 51
5.4650096427
  0
ARC
  8
0
 62
7
  6
CONTINUOUS
 10
363.5829368704
 20
117.2726427336
 40
2.1
 50
180.0
 51
360.0
  0
ARC
  8
0
 62
7
  6
CONTINUOUS
 10
363.5829368704
 20
118.6726427336
 40
2.1
 50
180.0
 51
360.0
  0
ARC
  8
0
 62
7
  6
CONTINUOUS
 10
363.5829368704
 20
117.8726427336
 40
2.1
 50
180.0
 51
360.0
  0
ARC
  8
0
 62
7
  6
CONTINUOUS
 10
363.9604272813
 20
127.0226427336
 40
4.0
 50
22.823503549
 51
90.0
  0
ARC
  8
0
 62
7
  6
CONTINUOUS
 10
363.5829368704
 20
127.1726427336
 40
2.1
 50
0.0
 51
180.0
  0
ARC
  8
0
 62
7
  6
CONTINUOUS
 10
365.5829368704
 20
127.5226427336
 40
4.0
 50
0.0
 51
90.0
  0
ARC
  8
0
 62
7
  6
CONTINUOUS
 10
32.2127793673
 20
185.3108347943
 40
0.2
 50
270.0
 51
360.0
  0
ARC
  8
0
 62
7
  6
CONTINUOUS
 10
26.9627793673
 20
185.3108347943
 40
0.2
 50
180.0
 51
270.0
  0
ARC
  8
0
 62
7
  6
CONTINUOUS
 10
62.2627793673
 20
185.6108347943
 40
0.5
 50
270.0
 51
360.0
  0
ARC
  8
0
 62
7
  6
CONTINUOUS
 10
71.2627793673
 20
185.6108347943
 40
0.5
 50
180.0
 51
270.0
  0
ARC
  8
0
 62
7
  6
CONTINUOUS
 10
57.2627793673
 20
185.6108347943
 40
0.5
 50
180.0
 51
270.0
  0
ARC
  8
0
 62
7
  6
CONTINUOUS
 10
48.0627793673
 20
185.6108347943
 40
0.5
 50
270.0
 51
360.0
  0
ARC
  8
0
 62
7
  6
CONTINUOUS
 10
43.0627793673
 20
185.6108347943
 40
0.5
 50
180.0
 51
270.0
  0
ARC
  8
0
 62
7
  6
CONTINUOUS
 10
90.2627793673
 20
185.6108347943
 40
0.5
 50
270.0
 51
360.0
  0
ARC
  8
0
 62
7
  6
CONTINUOUS
 10
85.2627793673
 20
185.6108347943
 40
0.5
 50
180.0
 51
270.0
  0
ARC
  8
0
 62
7
  6
CONTINUOUS
 10
76.2627793673
 20
185.6108347943
 40
0.5
 50
270.0
 51
336.8275304226
  0
ARC
  8
0
 62
7
  6
CONTINUOUS
 10
102.7127793673
 20
185.860834797
 40
0.75
 50
270.0
 51
324.4367301748
  0
ARC
  8
0
 62
7
  6
CONTINUOUS
 10
98.2127793673
 20
185.8608348326
 40
0.75
 50
217.117334886
 51
270.0
  0
ARC
  8
0
 62
7
  6
CONTINUOUS
 10
178.9127793673
 20
185.8608348181
 40
0.75
 50
270.0
 51
359.9999981793
  0
ARC
  8
0
 62
7
  6
CONTINUOUS
 10
174.4127793673
 20
185.8608347943
 40
0.75
 50
180.0
 51
270.0
  0
ARC
  8
0
 62
7
  6
CONTINUOUS
 10
110.9127793673
 20
185.8608348578
 40
0.75
 50
212.5671467089
 51
270.0
  0
ARC
  8
0
 62
7
  6
CONTINUOUS
 10
166.2127793673
 20
185.8608348181
 40
0.75
 50
270.0
 51
359.9999981793
  0
ARC
  8
0
 62
7
  6
CONTINUOUS
 10
161.7127793673
 20
185.8608347943
 40
0.75
 50
180.0
 51
270.0
  0
ARC
  8
0
 62
7
  6
CONTINUOUS
 10
153.5127793673
 20
185.8608348181
 40
0.75
 50
270.0
 51
354.2183989613
  0
ARC
  8
0
 62
7
  6
CONTINUOUS
 10
149.0127793673
 20
185.8608347953
 40
0.75
 50
191.8074656161
 51
270.0
  0
ARC
  8
0
 62
7
  6
CONTINUOUS
 10
140.8127793673
 20
185.8608348733
 40
0.75
 50
270.0
 51
341.7233336676
  0
ARC
  8
0
 62
7
  6
CONTINUOUS
 10
136.3127793673
 20
185.8608348705
 40
0.75
 50
201.0159102435
 51
270.0
  0
ARC
  8
0
 62
7
  6
CONTINUOUS
 10
128.1127793673
 20
185.8608347968
 40
0.75
 50
270.0
 51
334.7148702323
  0
ARC
  8
0
 62
7
  6
CONTINUOUS
 10
123.6127793673
 20
185.8608348098
 40
0.75
 50
207.3619176603
 51
270.0
  0
ARC
  8
0
 62
7
  6
CONTINUOUS
 10
115.4127793673
 20
185.8608348737
 40
0.75
 50
270.0
 51
329.1858687519
  0
ARC
  8
0
 62
7
  6
CONTINUOUS
 10
102.7127793673
 20
196.3608347923
 40
0.75
 50
35.5632699359
 51
90.0
  0
ARC
  8
0
 62
7
  6
CONTINUOUS
 10
98.2127793673
 20
196.3608347542
 40
0.75
 50
90.0
 51
142.8826650849
  0
ARC
  8
0
 62
7
  6
CONTINUOUS
 10
26.9627793673
 20
195.9590143891
 40
0.2
 50
103.0
 51
180.0
  0
ARC
  8
0
 62
7
  6
CONTINUOUS
 10
43.0627793673
 20
196.6108347943
 40
0.5
 50
90.0
 51
180.0
  0
ARC
  8
0
 62
7
  6
CONTINUOUS
 10
76.2627793673
 20
196.6108347943
 40
0.5
 50
0.0
 51
90.0
  0
ARC
  8
0
 62
7
  6
CONTINUOUS
 10
71.2627793673
 20
196.6108347943
 40
0.5
 50
90.0
 51
180.0
  0
ARC
  8
0
 62
7
  6
CONTINUOUS
 10
62.2627793673
 20
196.6108347943
 40
0.5
 50
0.0
 51
90.0
  0
ARC
  8
0
 62
7
  6
CONTINUOUS
 10
57.2627793673
 20
196.6108347943
 40
0.5
 50
90.0
 51
180.0
  0
ARC
  8
0
 62
7
  6
CONTINUOUS
 10
48.0627793673
 20
196.6108347943
 40
0.5
 50
0.0
 51
90.0
  0
ARC
  8
0
 62
7
  6
CONTINUOUS
 10
85.2627793673
 20
196.6108347943
 40
0.5
 50
90.0
 51
180.0
  0
ARC
  8
0
 62
7
  6
CONTINUOUS
 10
90.2627793673
 20
196.6108347943
 40
0.5
 50
0.0
 51
90.0
  0
ARC
  8
0
 62
7
  6
CONTINUOUS
 10
32.2127793673
 20
196.9108347943
 40
0.2
 50
0.0
 51
90.0
  0
ARC
  8
0
 62
7
  6
CONTINUOUS
 10
31.085566391
 20
196.9108347943
 40
0.2
 50
89.9999719429
 51
102.999972662
  0
ARC
  8
0
 62
7
  6
CONTINUOUS
 10
178.9127793673
 20
196.3608347943
 40
0.75
 50
0.0
 51
90.0
  0
ARC
  8
0
 62
7
  6
CONTINUOUS
 10
174.4127793673
 20
196.3608347704
 40
0.75
 50
90.0
 51
179.9999981793
  0
ARC
  8
0
 62
7
  6
CONTINUOUS
 10
110.9127793673
 20
196.3608347357
 40
0.75
 50
90.0
 51
147.4328533437
  0
ARC
  8
0
 62
7
  6
CONTINUOUS
 10
166.2127793673
 20
196.3608347943
 40
0.75
 50
0.0
 51
90.0
  0
ARC
  8
0
 62
7
  6
CONTINUOUS
 10
161.7127793673
 20
196.3608347704
 40
0.75
 50
90.0
 51
179.9999981793
  0
ARC
  8
0
 62
7
  6
CONTINUOUS
 10
153.5127793673
 20
196.3608347943
 40
0.75
 50
5.781599228
 51
90.0
  0
ARC
  8
0
 62
7
  6
CONTINUOUS
 10
149.0127793673
 20
196.3608347926
 40
0.75
 50
90.0
 51
168.1925345011
  0
ARC
  8
0
 62
7
  6
CONTINUOUS
 10
140.8127793673
 20
196.3608347207
 40
0.75
 50
18.2766661878
 51
90.0
  0
ARC
  8
0
 62
7
  6
CONTINUOUS
 10
136.3127793673
 20
196.3608347184
 40
0.75
 50
90.0
 51
158.9840895713
  0
ARC
  8
0
 62
7
  6
CONTINUOUS
 10
128.1127793673
 20
196.3608347901
 40
0.75
 50
25.2851300102
 51
90.0
  0
ARC
  8
0
 62
7
  6
CONTINUOUS
 10
123.6127793673
 20
196.3608347775
 40
0.75
 50
90.0
 51
152.6380823409
  0
ARC
  8
0
 62
7
  6
CONTINUOUS
 10
115.4127793673
 20
196.3608347143
 40
0.75
 50
30.8141310544
 51
90.0
  0
ARC
  8
0
 62
7
  6
CONTINUOUS
 10
255.1127793673
 20
185.8608348181
 40
0.75
 50
270.0
 51
359.9999981793
  0
ARC
  8
0
 62
7
  6
CONTINUOUS
 10
250.6127793673
 20
185.8608347943
 40
0.75
 50
180.0
 51
270.0
  0
ARC
  8
0
 62
7
  6
CONTINUOUS
 10
242.4127793673
 20
185.8608348181
 40
0.75
 50
270.0
 51
359.9999981793
  0
ARC
  8
0
 62
7
  6
CONTINUOUS
 10
237.9127793673
 20
185.8608347943
 40
0.75
 50
180.0
 51
270.0
  0
ARC
  8
0
 62
7
  6
CONTINUOUS
 10
225.2127793673
 20
185.8608347943
 40
0.75
 50
180.0
 51
270.0
  0
ARC
  8
0
 62
7
  6
CONTINUOUS
 10
204.3127793673
 20
185.8608348181
 40
0.75
 50
270.0
 51
359.9999981793
  0
ARC
  8
0
 62
7
  6
CONTINUOUS
 10
199.8127793673
 20
185.8608347943
 40
0.75
 50
180.0
 51
270.0
  0
ARC
  8
0
 62
7
  6
CONTINUOUS
 10
191.6127793673
 20
185.8608348181
 40
0.75
 50
270.0
 51
359.9999981793
  0
ARC
  8
0
 62
7
  6
CONTINUOUS
 10
187.1127793673
 20
185.8608347943
 40
0.75
 50
180.0
 51
270.0
  0
ARC
  8
0
 62
7
  6
CONTINUOUS
 10
217.0127793673
 20
185.8608348181
 40
0.75
 50
270.0
 51
359.9999981793
  0
ARC
  8
0
 62
7
  6
CONTINUOUS
 10
229.7127793673
 20
185.8608348181
 40
0.75
 50
270.0
 51
359.9999981793
  0
ARC
  8
0
 62
7
  6
CONTINUOUS
 10
212.5127793673
 20
185.8608347943
 40
0.75
 50
180.0
 51
270.0
  0
ARC
  8
0
 62
7
  6
CONTINUOUS
 10
331.8627793673
 20
185.3108347943
 40
0.2
 50
270.0019891639
 51
360.0
  0
ARC
  8
0
 62
7
  6
CONTINUOUS
 10
301.4127793673
 20
185.8608347943
 40
0.75
 50
180.0
 51
270.0
  0
ARC
  8
0
 62
7
  6
CONTINUOUS
 10
314.1127793673
 20
185.8608347943
 40
0.75
 50
180.0
 51
270.0
  0
ARC
  8
0
 62
7
  6
CONTINUOUS
 10
318.6127793673
 20
185.8608347943
 40
0.75
 50
270.0
 51
360.0
  0
ARC
  8
0
 62
7
  6
CONTINUOUS
 10
331.3127793673
 20
185.8608347943
 40
0.75
 50
270.0
 51
360.0
  0
ARC
  8
0
 62
7
  6
CONTINUOUS
 10
326.8127793673
 20
185.8608347943
 40
0.75
 50
180.0
 51
270.0
  0
ARC
  8
0
 62
7
  6
CONTINUOUS
 10
305.9127793673
 20
185.8608347943
 40
0.75
 50
270.0
 51
360.0
  0
ARC
  8
0
 62
7
  6
CONTINUOUS
 10
293.2127793673
 20
185.8608347943
 40
0.75
 50
270.0
 51
360.0
  0
ARC
  8
0
 62
7
  6
CONTINUOUS
 10
288.7127793673
 20
185.8608347943
 40
0.75
 50
180.0
 51
270.0
  0
ARC
  8
0
 62
7
  6
CONTINUOUS
 10
267.8127793673
 20
185.8608347943
 40
0.75
 50
270.0
 51
360.0
  0
ARC
  8
0
 62
7
  6
CONTINUOUS
 10
263.3127793673
 20
185.8608347943
 40
0.75
 50
180.0
 51
270.0
  0
ARC
  8
0
 62
7
  6
CONTINUOUS
 10
280.5127793673
 20
185.8608347943
 40
0.75
 50
270.0
 51
360.0
  0
ARC
  8
0
 62
7
  6
CONTINUOUS
 10
276.0127793673
 20
185.8608347943
 40
0.75
 50
180.0
 51
270.0
  0
ARC
  8
0
 62
7
  6
CONTINUOUS
 10
255.1127793673
 20
196.3608347943
 40
0.75
 50
0.0
 51
90.0
  0
ARC
  8
0
 62
7
  6
CONTINUOUS
 10
250.6127793673
 20
196.3608347704
 40
0.75
 50
90.0
 51
179.9999981793
  0
ARC
  8
0
 62
7
  6
CONTINUOUS
 10
242.4127793673
 20
196.3608347943
 40
0.75
 50
0.0
 51
90.0
  0
ARC
  8
0
 62
7
  6
CONTINUOUS
 10
237.9127793673
 20
196.3608347704
 40
0.75
 50
90.0
 51
179.9999981793
  0
ARC
  8
0
 62
7
  6
CONTINUOUS
 10
225.2127793673
 20
196.3608347704
 40
0.75
 50
90.0
 51
179.9999981793
  0
ARC
  8
0
 62
7
  6
CONTINUOUS
 10
204.3127793673
 20
196.3608347943
 40
0.75
 50
0.0
 51
90.0
  0
ARC
  8
0
 62
7
  6
CONTINUOUS
 10
199.8127793673
 20
196.3608347704
 40
0.75
 50
90.0
 51
179.9999981793
  0
ARC
  8
0
 62
7
  6
CONTINUOUS
 10
191.6127793673
 20
196.3608347943
 40
0.75
 50
0.0
 51
90.0
  0
ARC
  8
0
 62
7
  6
CONTINUOUS
 10
187.1127793673
 20
196.3608347704
 40
0.75
 50
90.0
 51
179.9999981793
  0
ARC
  8
0
 62
7
  6
CONTINUOUS
 10
217.0127793673
 20
196.3608347943
 40
0.75
 50
0.0
 51
90.0
  0
ARC
  8
0
 62
7
  6
CONTINUOUS
 10
229.7127793673
 20
196.3608347943
 40
0.75
 50
0.0
 51
90.0
  0
ARC
  8
0
 62
7
  6
CONTINUOUS
 10
212.5127793673
 20
196.3608347704
 40
0.75
 50
90.0
 51
179.9999981793
  0
ARC
  8
0
 62
7
  6
CONTINUOUS
 10
301.4127793673
 20
196.3608347943
 40
0.75
 50
90.0
 51
180.0
  0
ARC
  8
0
 62
7
  6
CONTINUOUS
 10
314.1127793673
 20
196.3608347943
 40
0.75
 50
90.0
 51
180.0
  0
ARC
  8
0
 62
7
  6
CONTINUOUS
 10
318.6127793673
 20
196.3608347943
 40
0.75
 50
0.0
 51
90.0
  0
ARC
  8
0
 62
7
  6
CONTINUOUS
 10
331.3127793673
 20
196.3608347943
 40
0.75
 50
0.0
 51
90.0
  0
ARC
  8
0
 62
7
  6
CONTINUOUS
 10
326.8127793673
 20
196.3608347943
 40
0.75
 50
90.0
 51
180.0
  0
ARC
  8
0
 62
7
  6
CONTINUOUS
 10
305.9127793673
 20
196.3608347943
 40
0.75
 50
0.0
 51
90.0
  0
ARC
  8
0
 62
7
  6
CONTINUOUS
 10
293.2127793673
 20
196.3608347943
 40
0.75
 50
0.0
 51
90.0
  0
ARC
  8
0
 62
7
  6
CONTINUOUS
 10
288.7127793673
 20
196.3608347943
 40
0.75
 50
90.0
 51
180.0
  0
ARC
  8
0
 62
7
  6
CONTINUOUS
 10
267.8127793673
 20
196.3608347943
 40
0.75
 50
0.0
 51
90.0
  0
ARC
  8
0
 62
7
  6
CONTINUOUS
 10
263.3127793673
 20
196.3608347943
 40
0.75
 50
90.0
 51
180.0
  0
ARC
  8
0
 62
7
  6
CONTINUOUS
 10
280.5127793673
 20
196.3608347943
 40
0.75
 50
0.0
 51
90.0
  0
ARC
  8
0
 62
7
  6
CONTINUOUS
 10
276.0127793673
 20
196.3608347943
 40
0.75
 50
90.0
 51
180.0
  0
ARC
  8
0
 62
7
  6
CONTINUOUS
 10
331.8627793673
 20
196.9108347943
 40
0.2
 50
0.0
 51
90.0
  0
ENDSEC
  0
EOF
