  0
SECTION
  2
HEADER
  9
$EXTMAX
 10
420.0
 20
297.0
 30
0.0
  9
$EXTMIN
 10
0.0
 20
0.0
 30
0.0
  9
$LIMMIN
 10
0.0
 20
0.0
  9
$LIMMAX
 10
420.0
 20
297.0
  9
$VIEWCTR
 10
210.0
 20
148.5
  9
$VIEWSIZE
 40
297.0
  9
$CLAYER
  8
0
  9
$LTSCALE
 40
23.1
  9
$CELTYPE
  6
BYLAYER
  9
$DIMSCALE
 40
1.0
  9
$DIMASZ
 40
3.5
  9
$DIMEXO
 40
2.625
  9
$DIMDLI
 40
15.96
  9
$DIMEXE
 40
7.56
  9
$DIMCEN
 40
3.78
  9
$DIMLFAC
 40
1.0
  9
$DIMBLK
  1
_FILLED
  9
$DIMTXT
 40
3.5
  9
$PDMODE
 70
3
  9
$PDSIZE
 40
0.3125
  9
$TILEMODE
 70
1
  0
ENDSEC
  0
SECTION
  2
TABLES
  0
TABLE
  2
LTYPE
 70
6
  0
LTYPE
  2
BYBLOCK
 70
0
  3

 72
65
 73
0
 40
0.0
  0
LTYPE
  2
BYLAYER
 70
0
  3

 72
65
 73
0
 40
0.0
  0
LTYPE
  2
CONTINUOUS
 70
64
  3
Solid line
 72
65
 73
0
 40
0.0
  0
LTYPE
  2
CENTER
 70
64
  3
____ _ ____ _ ____ _ ____ _ ____ _ ____ _ ____
 72
65
 73
4
 40
0.6
 49
0.375
 49
-0.075
 49
0.075
 49
-0.075
  0
LTYPE
  2
HIDDEN
 70
64
  3
- - - - - - - - - - - - - - - - - - - -
 72
65
 73
2
 40
0.2
 49
0.1
 49
-0.1
  0
LTYPE
  2
PHANTOM
 70
64
  3
_____ _ _ _____ _ _ _____ _ _ _____
 72
65
 73
6
 40
0.8
 49
0.45
 49
-0.05
 49
0.1
 49
-0.05
 49
0.1
 49
-0.05
  0
LTYPE
  2
DOT
 70
64
  3
. . . . . . . . . . . . . . . . . . . .
 72
65
 73
2
 40
0.2
 49
0.1
 49
-0.1
  0
LTYPE
  2
DASHED
 70
64
  3
- - - - - - - - - - - - - - - - - - - -
 72
65
 73
2
 40
0.2
 49
0.1
 49
-0.1
  0
ENDTAB
  0
TABLE
  2
LAYER
 70
36
  0
LAYER
  2
0
 70
0
 62
7
  6
CONTINUOUS
  0
LAYER
  2
DEFAULT_1
 70
0
 62
7
  6
CENTER
  0
LAYER
  2
DEFAULT_2
 70
0
 62
8
  6
HIDDEN
  0
LAYER
  2
DEFAULT_3
 70
0
 62
7
  6
PHANTOM
  0
LAYER
  2
AXES
 70
0
 62
7
  6
CONTINUOUS
  0
LAYER
  2
CSYS
 70
0
 62
7
  6
CONTINUOUS
  0
LAYER
  2
CURVE
 70
0
 62
7
  6
CONTINUOUS
  0
LAYER
  2
CURVES
 70
0
 62
7
  6
CONTINUOUS
  0
LAYER
  2
PLANES
 70
0
 62
7
  6
CONTINUOUS
  0
LAYER
  2
QUILT
 70
0
 62
7
  6
CONTINUOUS
  0
LAYER
  2
SURF-A
 70
0
 62
7
  6
CONTINUOUS
  0
LAYER
  2
SURFACE
 70
0
 62
7
  6
CONTINUOUS
  0
ENDTAB
  0
TABLE
  2
STYLE
 70
1
  0
STYLE
  2
STANDARD
 70
0
 40
0.0
 41
0.8
 50
0.0
 71
0
 42
0.2
  3
txt
  4

  0
STYLE
  2
TEXTSTYLE_1
 70
0
 40
0.0
 41
0.8
 50
0.0
 71
0
 42
0.2
  3
gdt
  4

  0
STYLE
  2
TEXTSTYLE_2
 70
0
 40
0.0
 41
0.6
 50
0.0
 71
0
 42
0.2
  3
txt
  4

  0
STYLE
  2
TEXTSTYLE_3
 70
0
 40
0.0
 41
1.0
 50
0.0
 71
0
 42
0.2
  3
ftb_____.ttf
  4

  0
STYLE
  2
TEXTSTYLE_4
 70
0
 40
0.0
 41
1.0
 50
0.0
 71
0
 42
0.2
  3
fti_____.ttf
  4

  0
STYLE
  2
TEXTSTYLE_5
 70
0
 40
0.0
 41
1.0
 50
0.0
 71
0
 42
0.2
  3
frutiger light.ttf
  4

  0
STYLE
  2
TEXTSTYLE_6
 70
0
 40
0.0
 41
0.7
 50
0.0
 71
0
 42
0.2
  3
txt
  4

  0
STYLE
  2
TEXTSTYLE_7
 70
0
 40
0.0
 41
0.45
 50
0.0
 71
0
 42
0.2
  3
txt
  4

  0
ENDTAB
  0
ENDSEC
  0
SECTION
  2
BLOCKS
  0
BLOCK
  8
0
 62
2
  6
CONTINUOUS
  2
SYMBOL_5_BL1
 70
64
 10
382.7840918555
 20
35.5067593403
  0
TEXT
  8
0
 62
7
  6
CONTINUOUS
 10
373.842376864
 20
30.5995157174
  7
TEXTSTYLE_4
 40
1.0655737705
  1
The brand for plastic modular belts and chains
 41
1.0
 72
0
  0
LINE
  8
0
 62
7
  6
CONTINUOUS
 10
358.7621602445
 20
36.0805298321
 11
358.7621602445
 21
33.9493822911
  0
LINE
  8
0
 62
7
  6
CONTINUOUS
 10
359.0512227376
 20
30.9584509954
 11
359.0512227376
 21
31.0552420547
  0
LINE
  8
0
 62
7
  6
CONTINUOUS
 10
358.7621602445
 20
31.0229783683
 11
358.8199727462
 21
30.8293962497
  0
LINE
  8
0
 62
7
  6
CONTINUOUS
 10
360.1556028675
 20
33.867415078
 11
360.1556028675
 21
36.0805298321
  0
LINE
  8
0
 62
7
  6
CONTINUOUS
 10
361.0746601894
 20
32.0231527829
 11
361.0746601894
 21
30.5067593403
  0
LINE
  8
0
 62
7
  6
CONTINUOUS
 10
361.3637227445
 20
30.5067593403
 11
361.3637227445
 21
31.2488242184
  0
LINE
  8
0
 62
7
  6
CONTINUOUS
 10
361.3637227445
 20
31.3778789641
 11
361.3637227445
 21
32.0231527829
  0
LINE
  8
0
 62
7
  6
CONTINUOUS
 10
358.8199727462
 20
31.216560532
 11
358.7621602445
 21
31.0229783683
  0
LINE
  8
0
 62
7
  6
CONTINUOUS
 10
359.1668477307
 20
30.7971325633
 11
359.0512227376
 21
30.9584509954
  0
LINE
  8
0
 62
7
  6
CONTINUOUS
 10
360.2652852997
 20
31.3133515913
 11
360.3230977445
 21
31.216560532
  0
LINE
  8
0
 62
7
  6
CONTINUOUS
 10
360.6121602997
 20
31.216560532
 11
360.5543476894
 21
31.3456152777
  0
LINE
  8
0
 62
7
  6
CONTINUOUS
 10
362.0408487691
 20
36.0805298321
 11
362.0408487691
 21
34.2772511436
  0
LINE
  8
0
 62
7
  6
CONTINUOUS
 10
362.0408487691
 20
32.9657757338
 11
362.0408487691
 21
32.3100380288
  0
LINE
  8
0
 62
7
  6
CONTINUOUS
 10
362.4043477445
 20
31.1520331591
 11
362.4043477445
 21
30.5067593403
  0
LINE
  8
0
 62
7
  6
CONTINUOUS
 10
362.6934101343
 20
30.5067593403
 11
362.6934101343
 21
31.1520331591
  0
LINE
  8
0
 62
7
  6
CONTINUOUS
 10
359.0512227376
 20
31.0552420547
 11
359.1090352445
 21
31.1842968456
  0
LINE
  8
0
 62
7
  6
CONTINUOUS
 10
358.8199727462
 20
30.8293962497
 11
358.9355977445
 21
30.7003414814
  0
LINE
  8
0
 62
7
  6
CONTINUOUS
 10
362.3465351343
 20
31.2810879048
 11
362.4043477445
 21
31.1520331591
  0
LINE
  8
0
 62
7
  6
CONTINUOUS
 10
363.1559103548
 20
30.7971325633
 11
363.2137226343
 21
30.668077795
  0
LINE
  8
0
 62
7
  6
CONTINUOUS
 10
362.6934101343
 20
31.1520331591
 11
362.6355978548
 21
31.3133515913
  0
LINE
  8
0
 62
7
  6
CONTINUOUS
 10
363.1559103548
 20
31.3456152777
 11
363.1559103548
 21
31.2810879048
  0
LINE
  8
0
 62
7
  6
CONTINUOUS
 10
363.1559103548
 20
30.8939236226
 11
363.1559103548
 21
30.7971325633
  0
LINE
  8
0
 62
7
  6
CONTINUOUS
 10
363.4342913921
 20
32.3100380288
 11
363.4342913921
 21
36.0805298321
  0
LINE
  8
0
 62
7
  6
CONTINUOUS
 10
363.4449727445
 20
30.7648688543
 11
363.4449727445
 21
30.8293962497
  0
LINE
  8
0
 62
7
  6
CONTINUOUS
 10
363.7621602445
 20
36.0805298321
 11
363.7621602445
 21
32.3100380288
  0
LINE
  8
0
 62
7
  6
CONTINUOUS
 10
360.5543476894
 20
30.7003414814
 11
360.6121602997
 21
30.8293962497
  0
LINE
  8
0
 62
7
  6
CONTINUOUS
 10
364.9480979651
 20
30.6035504109
 11
364.890285024
 21
30.7648688543
  0
LINE
  8
0
 62
7
  6
CONTINUOUS
 10
364.6012229651
 20
31.2810879048
 11
364.6012229651
 21
31.1842968456
  0
LINE
  8
0
 62
7
  6
CONTINUOUS
 10
364.6012229651
 20
31.0552420547
 11
364.6012229651
 21
30.8616599362
  0
LINE
  8
0
 62
7
  6
CONTINUOUS
 10
364.890285024
 20
30.7648688543
 11
364.890285024
 21
31.2810879048
  0
LINE
  8
0
 62
7
  6
CONTINUOUS
 10
365.1556028675
 20
32.3100380288
 11
365.1556028675
 21
34.1133167174
  0
LINE
  8
0
 62
7
  6
CONTINUOUS
 10
365.1556028675
 20
35.4247921272
 11
365.1556028675
 21
36.0805298321
  0
LINE
  8
0
 62
7
  6
CONTINUOUS
 10
365.4684104651
 20
32.0231527829
 11
365.4684104651
 21
31.8618343508
  0
LINE
  8
0
 62
7
  6
CONTINUOUS
 10
365.4684104651
 20
31.5391973962
 11
365.4684104651
 21
30.5067593403
  0
LINE
  8
0
 62
7
  6
CONTINUOUS
 10
365.757472524
 20
30.5067593403
 11
365.757472524
 21
31.5391973962
  0
LINE
  8
0
 62
7
  6
CONTINUOUS
 10
365.757472524
 20
31.8618343508
 11
365.757472524
 21
32.0231527829
  0
LINE
  8
0
 62
7
  6
CONTINUOUS
 10
360.3230977445
 20
30.8293962497
 11
360.2652852997
 21
30.7326051679
  0
LINE
  8
0
 62
7
  6
CONTINUOUS
 10
362.6355978548
 20
31.3133515913
 11
362.5777852445
 21
31.3778789641
  0
LINE
  8
0
 62
7
  6
CONTINUOUS
 10
363.5027853548
 20
30.7003414814
 11
363.4449727445
 21
30.7648688543
  0
LINE
  8
0
 62
7
  6
CONTINUOUS
 10
364.6590352445
 20
30.5712867188
 11
364.716847524
 21
30.5067593403
  0
LINE
  8
0
 62
7
  6
CONTINUOUS
 10
364.6012229651
 20
30.668077795
 11
364.6590352445
 21
30.5712867188
  0
LINE
  8
0
 62
7
  6
CONTINUOUS
 10
365.0059102445
 20
30.5067593403
 11
364.9480979651
 21
30.6035504109
  0
LINE
  8
0
 62
7
  6
CONTINUOUS
 10
364.890285024
 20
31.2810879048
 11
364.8324727445
 21
31.3778789641
  0
LINE
  8
0
 62
7
  6
CONTINUOUS
 10
366.2199727445
 20
31.5391973962
 11
366.2199727445
 21
30.5067593403
  0
LINE
  8
0
 62
7
  6
CONTINUOUS
 10
366.5090354651
 20
30.5067593403
 11
366.5090354651
 21
31.2488242184
  0
LINE
  8
0
 62
7
  6
CONTINUOUS
 10
366.5090354651
 20
31.3778789641
 11
366.5090354651
 21
31.5391973962
  0
LINE
  8
0
 62
7
  6
CONTINUOUS
 10
367.0408487691
 20
34.5231527829
 11
367.0408487691
 21
32.3100380288
  0
LINE
  8
0
 62
7
  6
CONTINUOUS
 10
358.9355977445
 20
31.3456152777
 11
358.8199727462
 21
31.216560532
  0
LINE
  8
0
 62
7
  6
CONTINUOUS
 10
359.1090352445
 20
31.1842968456
 11
359.1668477307
 21
31.2488242184
  0
LINE
  8
0
 62
7
  6
CONTINUOUS
 10
358.9355977445
 20
30.7003414814
 11
359.0512227376
 21
30.6358140973
  0
LINE
  8
0
 62
7
  6
CONTINUOUS
 10
359.3402852307
 20
30.7003414814
 11
359.1668477307
 21
30.7971325633
  0
LINE
  8
0
 62
7
  6
CONTINUOUS
 10
364.543410024
 20
31.3456152777
 11
364.6012229651
 21
31.2810879048
  0
LINE
  8
0
 62
7
  6
CONTINUOUS
 10
367.491847524
 20
31.2810879048
 11
367.5496604651
 21
31.1197694727
  0
LINE
  8
0
 62
7
  6
CONTINUOUS
 10
367.838722524
 20
31.1197694727
 11
367.7809102445
 21
31.2810879048
  0
LINE
  8
0
 62
7
  6
CONTINUOUS
 10
367.5496604651
 20
31.1197694727
 11
367.5496604651
 21
30.5067593403
  0
LINE
  8
0
 62
7
  6
CONTINUOUS
 10
367.838722524
 20
30.5067593403
 11
367.838722524
 21
31.1197694727
  0
LINE
  8
0
 62
7
  6
CONTINUOUS
 10
368.3012227445
 20
31.3456152777
 11
368.3012227445
 21
31.2810879048
  0
LINE
  8
0
 62
7
  6
CONTINUOUS
 10
368.4342913921
 20
32.3100380288
 11
368.4342913921
 21
34.4411855698
  0
LINE
  8
0
 62
7
  6
CONTINUOUS
 10
368.7621602445
 20
36.0805298321
 11
368.7621602445
 21
32.3100380288
  0
LINE
  8
0
 62
7
  6
CONTINUOUS
 10
363.4449727445
 20
30.8293962497
 11
363.5027853548
 21
30.926187309
  0
LINE
  8
0
 62
7
  6
CONTINUOUS
 10
359.0512227376
 20
30.6358140973
 11
359.2246602583
 21
30.5712867188
  0
LINE
  8
0
 62
7
  6
CONTINUOUS
 10
360.5543476894
 20
31.3456152777
 11
360.3809101894
 21
31.4424063369
  0
LINE
  8
0
 62
7
  6
CONTINUOUS
 10
363.2137226343
 20
30.668077795
 11
363.3871601343
 21
30.5712867188
  0
LINE
  8
0
 62
7
  6
CONTINUOUS
 10
362.2309102445
 20
31.3456152777
 11
362.3465351343
 21
31.2810879048
  0
LINE
  8
0
 62
7
  6
CONTINUOUS
 10
362.5777852445
 20
31.3778789641
 11
362.4621603548
 21
31.4424063369
  0
LINE
  8
0
 62
7
  6
CONTINUOUS
 10
368.3012227445
 20
30.7648688543
 11
368.4168479651
 21
30.6358140973
  0
LINE
  8
0
 62
7
  6
CONTINUOUS
 10
368.6480977445
 20
30.7003414814
 11
368.5902854651
 21
30.7648688543
  0
LINE
  8
0
 62
7
  6
CONTINUOUS
 10
368.3012227445
 20
31.2810879048
 11
368.4168479651
 21
31.1520331591
  0
LINE
  8
0
 62
7
  6
CONTINUOUS
 10
367.7809102445
 20
31.2810879048
 11
367.7230979651
 21
31.3778789641
  0
LINE
  8
0
 62
7
  6
CONTINUOUS
 10
370.1512223035
 20
30.7003414814
 11
370.1512223035
 21
30.7648688543
  0
LINE
  8
0
 62
7
  6
CONTINUOUS
 10
370.1556028675
 20
32.3100380288
 11
370.1556028675
 21
36.0805298321
  0
LINE
  8
0
 62
7
  6
CONTINUOUS
 10
363.2137226343
 20
31.4101426505
 11
363.1559103548
 21
31.3456152777
  0
LINE
  8
0
 62
7
  6
CONTINUOUS
 10
360.091847717
 20
31.3778789641
 11
360.2652852997
 21
31.3133515913
  0
LINE
  8
0
 62
7
  6
CONTINUOUS
 10
364.8324727445
 20
31.3778789641
 11
364.716847524
 21
31.4424063369
  0
LINE
  8
0
 62
7
  6
CONTINUOUS
 10
368.6480977445
 20
31.216560532
 11
368.5902854651
 21
31.2810879048
  0
LINE
  8
0
 62
7
  6
CONTINUOUS
 10
369.8043479651
 20
30.8293962497
 11
369.8621602445
 21
30.7648688543
  0
LINE
  8
0
 62
7
  6
CONTINUOUS
 10
370.1512223035
 20
30.7648688543
 11
370.0355977445
 21
30.8939236226
  0
LINE
  8
0
 62
7
  6
CONTINUOUS
 10
369.8043479651
 20
31.3456152777
 11
369.8621602445
 21
31.2810879048
  0
LINE
  8
0
 62
7
  6
CONTINUOUS
 10
370.1512223035
 20
31.2810879048
 11
370.0355977445
 21
31.4101426505
  0
LINE
  8
0
 62
7
  6
CONTINUOUS
 10
363.4449727445
 20
31.2810879048
 11
363.5027853548
 21
31.3456152777
  0
LINE
  8
0
 62
7
  6
CONTINUOUS
 10
363.2715352445
 20
31.0229783683
 11
363.1559103548
 21
30.8939236226
  0
LINE
  8
0
 62
7
  6
CONTINUOUS
 10
364.6012229651
 20
30.8616599362
 11
364.543410024
 21
30.7971325633
  0
LINE
  8
0
 62
7
  6
CONTINUOUS
 10
364.543410024
 20
30.6035504109
 11
364.6012229651
 21
30.668077795
  0
LINE
  8
0
 62
7
  6
CONTINUOUS
 10
363.3871601343
 20
30.5712867188
 11
363.5027853548
 21
30.5390230296
  0
LINE
  8
0
 62
7
  6
CONTINUOUS
 10
360.3809101894
 20
31.4424063369
 11
360.1496602445
 21
31.5069337098
  0
LINE
  8
0
 62
7
  6
CONTINUOUS
 10
363.7340351343
 20
30.6358140973
 11
363.5027853548
 21
30.7003414814
  0
LINE
  8
0
 62
7
  6
CONTINUOUS
 10
362.4621603548
 20
31.4424063369
 11
362.2887228548
 21
31.5069337098
  0
LINE
  8
0
 62
7
  6
CONTINUOUS
 10
364.716847524
 20
31.4424063369
 11
364.543410024
 21
31.5069337098
  0
LINE
  8
0
 62
7
  6
CONTINUOUS
 10
367.3762229651
 20
31.3456152777
 11
367.491847524
 21
31.2810879048
  0
LINE
  8
0
 62
7
  6
CONTINUOUS
 10
367.7230979651
 20
31.3778789641
 11
367.6074727445
 21
31.4424063369
  0
LINE
  8
0
 62
7
  6
CONTINUOUS
 10
359.2246602583
 20
30.5712867188
 11
359.3980977583
 21
30.5390230296
  0
LINE
  8
0
 62
7
  6
CONTINUOUS
 10
359.6871602721
 20
30.6358140973
 11
359.3402852307
 21
30.7003414814
  0
LINE
  8
0
 62
7
  6
CONTINUOUS
 10
362.1152853548
 20
31.3778789641
 11
362.2309102445
 21
31.3456152777
  0
LINE
  8
0
 62
7
  6
CONTINUOUS
 10
364.4277854651
 20
31.3778789641
 11
364.543410024
 21
31.3456152777
  0
LINE
  8
0
 62
7
  6
CONTINUOUS
 10
368.7637229651
 20
30.668077795
 11
368.6480977445
 21
30.7003414814
  0
LINE
  8
0
 62
7
  6
CONTINUOUS
 10
367.2605977445
 20
31.3778789641
 11
367.3762229651
 21
31.3456152777
  0
LINE
  8
0
 62
7
  6
CONTINUOUS
 10
368.4168479651
 20
30.6358140973
 11
368.5902854651
 21
30.5712867188
  0
LINE
  8
0
 62
7
  6
CONTINUOUS
 10
367.6074727445
 20
31.4424063369
 11
367.4340352445
 21
31.5069337098
  0
LINE
  8
0
 62
7
  6
CONTINUOUS
 10
368.8215352445
 20
31.1520331591
 11
368.6480977445
 21
31.216560532
  0
LINE
  8
0
 62
7
  6
CONTINUOUS
 10
369.6309104651
 20
30.8939236226
 11
369.8043479651
 21
30.8293962497
  0
LINE
  8
0
 62
7
  6
CONTINUOUS
 10
370.0355977445
 20
31.4101426505
 11
369.8621602445
 21
31.4746700234
  0
LINE
  8
0
 62
7
  6
CONTINUOUS
 10
368.4168479651
 20
31.1520331591
 11
368.6480977445
 21
31.0552420547
  0
LINE
  8
0
 62
7
  6
CONTINUOUS
 10
370.0355977445
 20
30.8939236226
 11
369.8043479651
 21
30.9907146818
  0
LINE
  8
0
 62
7
  6
CONTINUOUS
 10
368.5902854651
 20
31.2810879048
 11
368.6480977445
 21
31.3456152777
  0
LINE
  8
0
 62
7
  6
CONTINUOUS
 10
359.0512227376
 20
31.4101426505
 11
358.9355977445
 21
31.3456152777
  0
LINE
  8
0
 62
7
  6
CONTINUOUS
 10
359.1668477307
 20
31.2488242184
 11
359.3402852307
 21
31.3456152777
  0
LINE
  8
0
 62
7
  6
CONTINUOUS
 10
361.4793477997
 20
31.4424063369
 11
361.3637227445
 21
31.3778789641
  0
LINE
  8
0
 62
7
  6
CONTINUOUS
 10
361.3637227445
 20
31.2488242184
 11
361.4793477997
 21
31.3133515913
  0
LINE
  8
0
 62
7
  6
CONTINUOUS
 10
360.3809101894
 20
30.6035504109
 11
360.5543476894
 21
30.7003414814
  0
LINE
  8
0
 62
7
  6
CONTINUOUS
 10
359.3980977583
 20
30.5390230296
 11
359.744972717
 21
30.5067593403
  0
LINE
  8
0
 62
7
  6
CONTINUOUS
 10
363.5027853548
 20
30.5390230296
 11
363.7340351343
 21
30.5067593403
  0
LINE
  8
0
 62
7
  6
CONTINUOUS
 10
361.8840352445
 20
31.4101426505
 11
362.1152853548
 21
31.3778789641
  0
LINE
  8
0
 62
7
  6
CONTINUOUS
 10
364.1965353548
 20
31.4101426505
 11
364.4277854651
 21
31.3778789641
  0
LINE
  8
0
 62
7
  6
CONTINUOUS
 10
368.6480977445
 20
31.0552420547
 11
369.6309104651
 21
30.8939236226
  0
LINE
  8
0
 62
7
  6
CONTINUOUS
 10
369.8043479651
 20
30.9907146818
 11
368.8215352445
 21
31.1520331591
  0
LINE
  8
0
 62
7
  6
CONTINUOUS
 10
362.2887228548
 20
31.5069337098
 11
362.1152853548
 21
31.5391973962
  0
LINE
  8
0
 62
7
  6
CONTINUOUS
 10
368.5902854651
 20
30.5712867188
 11
368.7637229651
 21
30.5390230296
  0
LINE
  8
0
 62
7
  6
CONTINUOUS
 10
367.4340352445
 20
31.5069337098
 11
367.2605977445
 21
31.5391973962
  0
LINE
  8
0
 62
7
  6
CONTINUOUS
 10
369.6887227445
 20
31.3778789641
 11
369.8043479651
 21
31.3456152777
  0
LINE
  8
0
 62
7
  6
CONTINUOUS
 10
369.8621602445
 20
30.7648688543
 11
369.8043479651
 21
30.7003414814
  0
LINE
  8
0
 62
7
  6
CONTINUOUS
 10
368.4168479651
 20
31.4424063369
 11
368.3012227445
 21
31.3456152777
  0
LINE
  8
0
 62
7
  6
CONTINUOUS
 10
363.3293478548
 20
31.4746700234
 11
363.2137226343
 21
31.4101426505
  0
LINE
  8
0
 62
7
  6
CONTINUOUS
 10
363.3871601343
 20
31.0875057863
 11
363.2715352445
 21
31.0229783683
  0
LINE
  8
0
 62
7
  6
CONTINUOUS
 10
363.5027853548
 20
30.926187309
 11
363.6184102445
 21
30.9907146818
  0
LINE
  8
0
 62
7
  6
CONTINUOUS
 10
361.0746601894
 20
30.5067593403
 11
361.3637227445
 21
30.5067593403
  0
LINE
  8
0
 62
7
  6
CONTINUOUS
 10
362.4043477445
 20
30.5067593403
 11
362.6934101343
 21
30.5067593403
  0
LINE
  8
0
 62
7
  6
CONTINUOUS
 10
363.7340351343
 20
30.5067593403
 11
364.0809101343
 21
30.5067593403
  0
LINE
  8
0
 62
7
  6
CONTINUOUS
 10
364.716847524
 20
30.5067593403
 11
365.0059102445
 21
30.5067593403
  0
LINE
  8
0
 62
7
  6
CONTINUOUS
 10
365.4684104651
 20
30.5067593403
 11
365.757472524
 21
30.5067593403
  0
LINE
  8
0
 62
7
  6
CONTINUOUS
 10
366.2199727445
 20
30.5067593403
 11
366.5090354651
 21
30.5067593403
  0
LINE
  8
0
 62
7
  6
CONTINUOUS
 10
367.5496604651
 20
30.5067593403
 11
367.838722524
 21
30.5067593403
  0
LINE
  8
0
 62
7
  6
CONTINUOUS
 10
369.1105979651
 20
30.5067593403
 11
369.4574729651
 21
30.5067593403
  0
LINE
  8
0
 62
7
  6
CONTINUOUS
 10
369.4574729651
 20
30.6358140973
 11
369.1105979651
 21
30.6358140973
  0
LINE
  8
0
 62
7
  6
CONTINUOUS
 10
364.0809101343
 20
30.6358140973
 11
363.7340351343
 21
30.6358140973
  0
LINE
  8
0
 62
7
  6
CONTINUOUS
 10
368.5902854651
 20
30.7648688543
 11
368.3012227445
 21
30.7648688543
  0
LINE
  8
0
 62
7
  6
CONTINUOUS
 10
360.6121602997
 20
30.8293962497
 11
360.3230977445
 21
30.8293962497
  0
LINE
  8
0
 62
7
  6
CONTINUOUS
 10
359.6871602721
 20
31.4101426505
 11
360.091847717
 21
31.3778789641
  0
LINE
  8
0
 62
7
  6
CONTINUOUS
 10
360.1496602445
 20
31.5069337098
 11
359.744972717
 21
31.5391973962
  0
LINE
  8
0
 62
7
  6
CONTINUOUS
 10
368.7637229651
 20
30.5390230296
 11
369.1105979651
 21
30.5067593403
  0
LINE
  8
0
 62
7
  6
CONTINUOUS
 10
369.1105979651
 20
30.6358140973
 11
368.7637229651
 21
30.668077795
  0
LINE
  8
0
 62
7
  6
CONTINUOUS
 10
364.543410024
 20
31.5069337098
 11
364.1965353548
 21
31.5391973962
  0
LINE
  8
0
 62
7
  6
CONTINUOUS
 10
369.3418477445
 20
31.4101426505
 11
369.6887227445
 21
31.3778789641
  0
LINE
  8
0
 62
7
  6
CONTINUOUS
 10
369.6887227445
 20
31.5069337098
 11
369.3418477445
 21
31.5391973962
  0
LINE
  8
0
 62
7
  6
CONTINUOUS
 10
367.0293479651
 20
31.4101426505
 11
367.2605977445
 21
31.3778789641
  0
LINE
  8
0
 62
7
  6
CONTINUOUS
 10
369.8621602445
 20
31.4746700234
 11
369.6887227445
 21
31.5069337098
  0
LINE
  8
0
 62
7
  6
CONTINUOUS
 10
370.0355977445
 20
30.6035504109
 11
370.1512223035
 21
30.7003414814
  0
LINE
  8
0
 62
7
  6
CONTINUOUS
 10
364.543410024
 20
30.7971325633
 11
364.369972524
 21
30.7003414814
  0
LINE
  8
0
 62
7
  6
CONTINUOUS
 10
366.624660024
 20
31.4424063369
 11
366.5090354651
 21
31.3778789641
  0
LINE
  8
0
 62
7
  6
CONTINUOUS
 10
366.5090354651
 20
31.2488242184
 11
366.624660024
 21
31.3133515913
  0
LINE
  8
0
 62
7
  6
CONTINUOUS
 10
359.2246602583
 20
31.4746700234
 11
359.0512227376
 21
31.4101426505
  0
LINE
  8
0
 62
7
  6
CONTINUOUS
 10
361.6527851343
 20
31.5069337098
 11
361.4793477997
 21
31.4424063369
  0
LINE
  8
0
 62
7
  6
CONTINUOUS
 10
361.4793477997
 20
31.3133515913
 11
361.6527851343
 21
31.3778789641
  0
LINE
  8
0
 62
7
  6
CONTINUOUS
 10
360.2652852997
 20
30.7326051679
 11
360.091847717
 21
30.668077795
  0
LINE
  8
0
 62
7
  6
CONTINUOUS
 10
369.6887227445
 20
30.668077795
 11
369.4574729651
 21
30.6358140973
  0
LINE
  8
0
 62
7
  6
CONTINUOUS
 10
364.0809101343
 20
30.5067593403
 11
364.369972524
 21
30.5390230296
  0
LINE
  8
0
 62
7
  6
CONTINUOUS
 10
369.4574729651
 20
30.5067593403
 11
369.8043479651
 21
30.5390230296
  0
LINE
  8
0
 62
7
  6
CONTINUOUS
 10
359.744972717
 20
30.5067593403
 11
360.1496602445
 21
30.5390230296
  0
LINE
  8
0
 62
7
  6
CONTINUOUS
 10
360.091847717
 20
30.668077795
 11
359.6871602721
 21
30.6358140973
  0
LINE
  8
0
 62
7
  6
CONTINUOUS
 10
363.9652852445
 20
31.0552420547
 11
364.6012229651
 21
31.0552420547
  0
LINE
  8
0
 62
7
  6
CONTINUOUS
 10
364.6012229651
 20
31.1842968456
 11
363.9652852445
 21
31.1842968456
  0
LINE
  8
0
 62
7
  6
CONTINUOUS
 10
360.3230977445
 20
31.216560532
 11
360.6121602997
 21
31.216560532
  0
LINE
  8
0
 62
7
  6
CONTINUOUS
 10
363.1559103548
 20
31.2810879048
 11
363.4449727445
 21
31.2810879048
  0
LINE
  8
0
 62
7
  6
CONTINUOUS
 10
369.8621602445
 20
31.2810879048
 11
370.1512223035
 21
31.2810879048
  0
LINE
  8
0
 62
7
  6
CONTINUOUS
 10
363.8496603548
 20
31.4101426505
 11
364.1965353548
 21
31.4101426505
  0
LINE
  8
0
 62
7
  6
CONTINUOUS
 10
368.9949727445
 20
31.4101426505
 11
369.3418477445
 21
31.4101426505
  0
LINE
  8
0
 62
7
  6
CONTINUOUS
 10
369.3418477445
 20
31.5391973962
 11
368.9949727445
 21
31.5391973962
  0
LINE
  8
0
 62
7
  6
CONTINUOUS
 10
367.2605977445
 20
31.5391973962
 11
367.0293479651
 21
31.5391973962
  0
LINE
  8
0
 62
7
  6
CONTINUOUS
 10
366.5090354651
 20
31.5391973962
 11
366.2199727445
 21
31.5391973962
  0
LINE
  8
0
 62
7
  6
CONTINUOUS
 10
365.757472524
 20
31.5391973962
 11
365.4684104651
 21
31.5391973962
  0
LINE
  8
0
 62
7
  6
CONTINUOUS
 10
364.1965353548
 20
31.5391973962
 11
363.8496603548
 21
31.5391973962
  0
LINE
  8
0
 62
7
  6
CONTINUOUS
 10
362.1152853548
 20
31.5391973962
 11
361.8840352445
 21
31.5391973962
  0
LINE
  8
0
 62
7
  6
CONTINUOUS
 10
365.4684104651
 20
31.8618343508
 11
365.757472524
 21
31.8618343508
  0
LINE
  8
0
 62
7
  6
CONTINUOUS
 10
365.757472524
 20
32.0231527829
 11
365.4684104651
 21
32.0231527829
  0
LINE
  8
0
 62
7
  6
CONTINUOUS
 10
361.3637227445
 20
32.0231527829
 11
361.0746601894
 21
32.0231527829
  0
LINE
  8
0
 62
7
  6
CONTINUOUS
 10
360.4015045068
 20
32.3100380288
 11
360.8140758554
 21
32.3100380288
  0
LINE
  8
0
 62
7
  6
CONTINUOUS
 10
362.0408487691
 20
32.3100380288
 11
363.4342913921
 21
32.3100380288
  0
LINE
  8
0
 62
7
  6
CONTINUOUS
 10
363.7621602445
 20
32.3100380288
 11
365.1556028675
 21
32.3100380288
  0
LINE
  8
0
 62
7
  6
CONTINUOUS
 10
367.0408487691
 20
32.3100380288
 11
368.4342913921
 21
32.3100380288
  0
LINE
  8
0
 62
7
  6
CONTINUOUS
 10
368.7621602445
 20
32.3100380288
 11
370.1556028675
 21
32.3100380288
  0
LINE
  8
0
 62
7
  6
CONTINUOUS
 10
366.798097524
 20
31.5069337098
 11
366.624660024
 21
31.4424063369
  0
LINE
  8
0
 62
7
  6
CONTINUOUS
 10
364.369972524
 20
30.5390230296
 11
364.543410024
 21
30.6035504109
  0
LINE
  8
0
 62
7
  6
CONTINUOUS
 10
369.8043479651
 20
30.5390230296
 11
370.0355977445
 21
30.6035504109
  0
LINE
  8
0
 62
7
  6
CONTINUOUS
 10
369.8043479651
 20
30.7003414814
 11
369.6887227445
 21
30.668077795
  0
LINE
  8
0
 62
7
  6
CONTINUOUS
 10
368.7637229651
 20
31.3778789641
 11
368.9949727445
 21
31.4101426505
  0
LINE
  8
0
 62
7
  6
CONTINUOUS
 10
366.798097524
 20
31.3778789641
 11
367.0293479651
 21
31.4101426505
  0
LINE
  8
0
 62
7
  6
CONTINUOUS
 10
363.7340351343
 20
31.0229783683
 11
363.9652852445
 21
31.0552420547
  0
LINE
  8
0
 62
7
  6
CONTINUOUS
 10
367.0293479651
 20
31.5391973962
 11
366.798097524
 21
31.5069337098
  0
LINE
  8
0
 62
7
  6
CONTINUOUS
 10
363.6184102445
 20
31.3778789641
 11
363.8496603548
 21
31.4101426505
  0
LINE
  8
0
 62
7
  6
CONTINUOUS
 10
368.9949727445
 20
31.5391973962
 11
368.6480977445
 21
31.5069337098
  0
LINE
  8
0
 62
7
  6
CONTINUOUS
 10
363.9652852445
 20
31.1842968456
 11
363.6184102445
 21
31.1520331591
  0
LINE
  8
0
 62
7
  6
CONTINUOUS
 10
359.744972717
 20
31.5391973962
 11
359.3980977583
 21
31.5069337098
  0
LINE
  8
0
 62
7
  6
CONTINUOUS
 10
363.8496603548
 20
31.5391973962
 11
363.4449727445
 21
31.5069337098
  0
LINE
  8
0
 62
7
  6
CONTINUOUS
 10
361.221176638
 20
33.4575790124
 11
360.565438933
 21
33.4575790124
  0
LINE
  8
0
 62
7
  6
CONTINUOUS
 10
366.624660024
 20
31.3133515913
 11
366.798097524
 21
31.3778789641
  0
LINE
  8
0
 62
7
  6
CONTINUOUS
 10
368.6480977445
 20
31.3456152777
 11
368.7637229651
 21
31.3778789641
  0
LINE
  8
0
 62
7
  6
CONTINUOUS
 10
368.6480977445
 20
31.5069337098
 11
368.4168479651
 21
31.4424063369
  0
LINE
  8
0
 62
7
  6
CONTINUOUS
 10
364.369972524
 20
30.7003414814
 11
364.0809101343
 21
30.6358140973
  0
LINE
  8
0
 62
7
  6
CONTINUOUS
 10
361.6527851343
 20
31.3778789641
 11
361.8840352445
 21
31.4101426505
  0
LINE
  8
0
 62
7
  6
CONTINUOUS
 10
361.8840352445
 20
31.5391973962
 11
361.6527851343
 21
31.5069337098
  0
LINE
  8
0
 62
7
  6
CONTINUOUS
 10
359.4559102445
 20
31.3778789641
 11
359.6871602721
 21
31.4101426505
  0
LINE
  8
0
 62
7
  6
CONTINUOUS
 10
365.9752749986
 20
34.9329888485
 11
366.6310127035
 21
34.9329888485
  0
LINE
  8
0
 62
7
  6
CONTINUOUS
 10
363.6184102445
 20
30.9907146818
 11
363.7340351343
 21
31.0229783683
  0
LINE
  8
0
 62
7
  6
CONTINUOUS
 10
363.6184102445
 20
31.1520331591
 11
363.3871601343
 21
31.0875057863
  0
LINE
  8
0
 62
7
  6
CONTINUOUS
 10
363.5027853548
 20
31.3456152777
 11
363.6184102445
 21
31.3778789641
  0
LINE
  8
0
 62
7
  6
CONTINUOUS
 10
360.1496602445
 20
30.5390230296
 11
360.3809101894
 21
30.6035504109
  0
LINE
  8
0
 62
7
  6
CONTINUOUS
 10
363.4449727445
 20
31.5069337098
 11
363.3293478548
 21
31.4746700234
  0
LINE
  8
0
 62
7
  6
CONTINUOUS
 10
359.3980977583
 20
31.5069337098
 11
359.2246602583
 21
31.4746700234
  0
LINE
  8
0
 62
7
  6
CONTINUOUS
 10
370.1556028675
 20
36.0805298321
 11
368.7621602445
 21
36.0805298321
  0
LINE
  8
0
 62
7
  6
CONTINUOUS
 10
366.7949471298
 20
36.0805298321
 11
366.3823757812
 21
36.0805298321
  0
LINE
  8
0
 62
7
  6
CONTINUOUS
 10
365.1556028675
 20
36.0805298321
 11
363.7621602445
 21
36.0805298321
  0
LINE
  8
0
 62
7
  6
CONTINUOUS
 10
363.4342913921
 20
36.0805298321
 11
362.0408487691
 21
36.0805298321
  0
LINE
  8
0
 62
7
  6
CONTINUOUS
 10
360.1556028675
 20
36.0805298321
 11
358.7621602445
 21
36.0805298321
  0
LINE
  8
0
 62
7
  6
CONTINUOUS
 10
359.3402852307
 20
31.3456152777
 11
359.4559102445
 21
31.3778789641
  0
CIRCLE
  8
0
 62
7
  6
CONTINUOUS
 10
369.458881556
 20
38.4165954059
 40
2.0901639344
  0
ARC
  8
0
 62
7
  6
CONTINUOUS
 10
360.4015045068
 20
33.9493822911
 40
1.6393442623
 50
180.0
 51
270.0
  0
ARC
  8
0
 62
7
  6
CONTINUOUS
 10
366.7949471298
 20
34.4411855698
 40
1.6393442623
 50
0.0
 51
90.0
  0
ARC
  8
0
 62
7
  6
CONTINUOUS
 10
360.8140758554
 20
33.7854478649
 40
1.4754098361
 50
270.0
 51
326.2510114041
  0
ARC
  8
0
 62
7
  6
CONTINUOUS
 10
366.3823757812
 20
34.6051199961
 40
1.4754098361
 50
90.0
 51
146.2510114041
  0
ARC
  8
0
 62
7
  6
CONTINUOUS
 10
361.221176638
 20
34.2772511436
 40
0.8196721311
 50
270.0
 51
360.0
  0
ARC
  8
0
 62
7
  6
CONTINUOUS
 10
365.9752749986
 20
34.1133167174
 40
0.8196721311
 50
90.0
 51
180.0
  0
ARC
  8
0
 62
7
  6
CONTINUOUS
 10
360.565438933
 20
33.867415078
 40
0.4098360656
 50
180.0
 51
270.0
  0
ARC
  8
0
 62
7
  6
CONTINUOUS
 10
366.6310127035
 20
34.5231527829
 40
0.4098360656
 50
0.0
 51
90.0
  0
SOLID
  8
0
 62
7
  6
CONTINUOUS
 10
365.4684104651
 20
31.8618347111
 11
365.4684104651
 21
32.0231531947
 12
365.757472524
 22
31.8618347111
 13
365.757472524
 23
32.0231531947
  0
SOLID
  8
0
 62
7
  6
CONTINUOUS
 10
359.744972717
 20
31.5391977439
 11
360.1496602445
 21
31.5069333244
 12
359.3980977583
 22
31.5069333244
 13
359.3980977583
 23
31.5069333244
  0
SOLID
  8
0
 62
7
  6
CONTINUOUS
 10
359.2246602583
 20
31.4746706537
 11
359.3980977583
 21
31.5069333244
 12
360.1496602445
 22
31.5069333244
 13
360.1496602445
 23
31.5069333244
  0
SOLID
  8
0
 62
7
  6
CONTINUOUS
 10
360.1496602445
 20
31.5069333244
 11
360.3809101894
 21
31.4424063504
 12
359.2246602583
 22
31.4746706537
 13
359.2246602583
 23
31.4746706537
  0
SOLID
  8
0
 62
7
  6
CONTINUOUS
 10
359.0512227376
 20
31.4101419116
 11
359.2246602583
 21
31.4746706537
 12
360.3809101894
 22
31.4424063504
 13
360.3809101894
 23
31.4424063504
  0
SOLID
  8
0
 62
7
  6
CONTINUOUS
 10
359.0512227376
 20
31.4101419116
 11
360.3809101894
 21
31.4424063504
 12
359.6871602721
 22
31.4101419116
 13
359.6871602721
 23
31.4101419116
  0
SOLID
  8
0
 62
7
  6
CONTINUOUS
 10
359.6871602721
 20
31.4101419116
 11
360.3809101894
 21
31.4424063504
 12
360.091847717
 22
31.3778792603
 13
360.091847717
 23
31.3778792603
  0
SOLID
  8
0
 62
7
  6
CONTINUOUS
 10
360.3809101894
 20
31.4424063504
 11
360.5543476894
 21
31.345614957
 12
360.091847717
 22
31.3778792603
 13
360.091847717
 23
31.3778792603
  0
SOLID
  8
0
 62
7
  6
CONTINUOUS
 10
360.2652852997
 20
31.3133521701
 11
360.091847717
 21
31.3778792603
 12
360.5543476894
 22
31.345614957
 13
360.5543476894
 23
31.345614957
  0
SOLID
  8
0
 62
7
  6
CONTINUOUS
 10
360.2652852997
 20
31.3133521701
 11
360.5543476894
 21
31.345614957
 12
360.3230977445
 22
31.2165606992
 13
360.3230977445
 23
31.2165606992
  0
SOLID
  8
0
 62
7
  6
CONTINUOUS
 10
360.5543476894
 20
31.345614957
 11
360.6121602997
 21
31.2165606992
 12
360.3230977445
 22
31.2165606992
 13
360.3230977445
 23
31.2165606992
  0
SOLID
  8
0
 62
7
  6
CONTINUOUS
 10
361.6527851343
 20
31.5069329918
 11
361.8840352445
 21
31.5391972951
 12
362.1152853548
 22
31.5391972951
 13
362.1152853548
 23
31.5391972951
  0
SOLID
  8
0
 62
7
  6
CONTINUOUS
 10
362.1152853548
 20
31.5391972951
 11
362.2887228548
 21
31.5069329918
 12
361.6527851343
 22
31.5069329918
 13
361.6527851343
 23
31.5069329918
  0
SOLID
  8
0
 62
7
  6
CONTINUOUS
 10
361.4793477997
 20
31.4424059016
 11
361.6527851343
 21
31.5069329918
 12
362.2887228548
 22
31.5069329918
 13
362.2887228548
 23
31.5069329918
  0
SOLID
  8
0
 62
7
  6
CONTINUOUS
 10
362.2887228548
 20
31.5069329918
 11
362.4621603548
 21
31.4424059016
 12
361.4793477997
 22
31.4424059016
 13
361.4793477997
 23
31.4424059016
  0
SOLID
  8
0
 62
7
  6
CONTINUOUS
 10
362.4621603548
 20
31.4424059016
 11
361.8840352445
 21
31.4101420472
 12
361.4793477997
 22
31.4424059016
 13
361.4793477997
 23
31.4424059016
  0
SOLID
  8
0
 62
7
  6
CONTINUOUS
 10
361.3637227445
 20
31.3778788115
 11
361.4793477997
 21
31.4424059016
 12
361.8840352445
 22
31.4101420472
 13
361.8840352445
 23
31.4101420472
  0
SOLID
  8
0
 62
7
  6
CONTINUOUS
 10
361.8840352445
 20
31.4101420472
 11
361.6527851343
 21
31.3778788115
 12
361.3637227445
 22
31.3778788115
 13
361.3637227445
 23
31.3778788115
  0
SOLID
  8
0
 62
7
  6
CONTINUOUS
 10
361.8840352445
 20
31.4101420472
 11
362.4621603548
 21
31.4424059016
 12
362.1152853548
 22
31.3778788115
 13
362.1152853548
 23
31.3778788115
  0
SOLID
  8
0
 62
7
  6
CONTINUOUS
 10
362.4621603548
 20
31.4424059016
 11
362.5777852445
 21
31.3778788115
 12
362.1152853548
 22
31.3778788115
 13
362.1152853548
 23
31.3778788115
  0
SOLID
  8
0
 62
7
  6
CONTINUOUS
 10
362.2309102445
 20
31.345614957
 11
362.1152853548
 21
31.3778788115
 12
362.5777852445
 22
31.3778788115
 13
362.5777852445
 23
31.3778788115
  0
SOLID
  8
0
 62
7
  6
CONTINUOUS
 10
362.5777852445
 20
31.3778788115
 11
362.6355978548
 21
31.3133517213
 12
362.2309102445
 22
31.345614957
 13
362.2309102445
 23
31.345614957
  0
SOLID
  8
0
 62
7
  6
CONTINUOUS
 10
362.3465351343
 20
31.2810878668
 11
362.2309102445
 21
31.345614957
 12
362.6355978548
 22
31.3133517213
 13
362.6355978548
 23
31.3133517213
  0
SOLID
  8
0
 62
7
  6
CONTINUOUS
 10
362.3465351343
 20
31.2810878668
 11
362.6355978548
 21
31.3133517213
 12
362.4043477445
 22
31.1520332377
 13
362.4043477445
 23
31.1520332377
  0
SOLID
  8
0
 62
7
  6
CONTINUOUS
 10
362.6355978548
 20
31.3133517213
 11
362.6934101343
 21
31.1520332377
 12
362.4043477445
 22
31.1520332377
 13
362.4043477445
 23
31.1520332377
  0
SOLID
  8
0
 62
7
  6
CONTINUOUS
 10
361.6527851343
 20
31.3778788115
 11
361.4793477997
 21
31.3133517213
 12
361.3637227445
 22
31.3778788115
 13
361.3637227445
 23
31.3778788115
  0
SOLID
  8
0
 62
7
  6
CONTINUOUS
 10
361.4793477997
 20
31.3133517213
 11
361.3637227445
 21
31.2488235635
 12
361.3637227445
 22
31.3778788115
 13
361.3637227445
 23
31.3778788115
  0
SOLID
  8
0
 62
7
  6
CONTINUOUS
 10
361.3637227445
 20
31.2488235635
 11
361.0746601894
 21
30.5067593033
 12
361.3637227445
 22
31.3778788115
 13
361.3637227445
 23
31.3778788115
  0
SOLID
  8
0
 62
7
  6
CONTINUOUS
 10
361.3637227445
 20
31.3778788115
 11
361.0746601894
 21
30.5067593033
 12
361.3637227445
 22
32.0231527459
 13
361.3637227445
 23
32.0231527459
  0
SOLID
  8
0
 62
7
  6
CONTINUOUS
 10
361.0746601894
 20
30.5067593033
 11
361.0746601894
 21
32.0231527459
 12
361.3637227445
 22
32.0231527459
 13
361.3637227445
 23
32.0231527459
  0
SOLID
  8
0
 62
7
  6
CONTINUOUS
 10
361.3637227445
 20
31.2488235635
 11
361.3637227445
 21
30.5067593033
 12
361.0746601894
 22
30.5067593033
 13
361.0746601894
 23
30.5067593033
  0
SOLID
  8
0
 62
7
  6
CONTINUOUS
 10
362.4043477445
 20
30.5067593033
 11
362.4043477445
 21
31.1520332377
 12
362.6934101343
 22
31.1520332377
 13
362.6934101343
 23
31.1520332377
  0
SOLID
  8
0
 62
7
  6
CONTINUOUS
 10
362.6934101343
 20
31.1520332377
 11
362.6934101343
 21
30.5067593033
 12
362.4043477445
 22
30.5067593033
 13
362.4043477445
 23
30.5067593033
  0
SOLID
  8
0
 62
7
  6
CONTINUOUS
 10
363.4449727445
 20
31.506933758
 11
363.8496603548
 21
31.5391977507
 12
364.1965353548
 22
31.5391977507
 13
364.1965353548
 23
31.5391977507
  0
SOLID
  8
0
 62
7
  6
CONTINUOUS
 10
364.1965353548
 20
31.5391977507
 11
364.543410024
 21
31.506933758
 12
363.4449727445
 22
31.506933758
 13
363.4449727445
 23
31.506933758
  0
SOLID
  8
0
 62
7
  6
CONTINUOUS
 10
363.3293478548
 20
31.4746706537
 11
363.4449727445
 21
31.506933758
 12
364.543410024
 22
31.506933758
 13
364.543410024
 23
31.506933758
  0
SOLID
  8
0
 62
7
  6
CONTINUOUS
 10
364.543410024
 20
31.506933758
 11
364.716847524
 21
31.4424063504
 12
363.3293478548
 22
31.4746706537
 13
363.3293478548
 23
31.4746706537
  0
SOLID
  8
0
 62
7
  6
CONTINUOUS
 10
363.2137226343
 20
31.4101417797
 11
363.3293478548
 21
31.4746706537
 12
364.716847524
 22
31.4424063504
 13
364.716847524
 23
31.4424063504
  0
SOLID
  8
0
 62
7
  6
CONTINUOUS
 10
363.2137226343
 20
31.4101417797
 11
364.716847524
 21
31.4424063504
 12
363.8496603548
 22
31.4101417797
 13
363.8496603548
 23
31.4101417797
  0
SOLID
  8
0
 62
7
  6
CONTINUOUS
 10
363.8496603548
 20
31.4101417797
 11
364.716847524
 21
31.4424063504
 12
364.1965353548
 22
31.4101417797
 13
364.1965353548
 23
31.4101417797
  0
SOLID
  8
0
 62
7
  6
CONTINUOUS
 10
364.1965353548
 20
31.4101417797
 11
364.716847524
 21
31.4424063504
 12
364.4277854651
 22
31.3778793357
 13
364.4277854651
 23
31.3778793357
  0
SOLID
  8
0
 62
7
  6
CONTINUOUS
 10
364.716847524
 20
31.4424063504
 11
364.8324727445
 21
31.3778793357
 12
364.4277854651
 22
31.3778793357
 13
364.4277854651
 23
31.3778793357
  0
SOLID
  8
0
 62
7
  6
CONTINUOUS
 10
363.1559103548
 20
31.3456153429
 11
363.2137226343
 21
31.4101417797
 12
363.8496603548
 22
31.4101417797
 13
363.8496603548
 23
31.4101417797
  0
SOLID
  8
0
 62
7
  6
CONTINUOUS
 10
364.543410024
 20
31.3456153429
 11
364.4277854651
 21
31.3778793357
 12
364.8324727445
 22
31.3778793357
 13
364.8324727445
 23
31.3778793357
  0
SOLID
  8
0
 62
7
  6
CONTINUOUS
 10
364.543410024
 20
31.3456153429
 11
364.8324727445
 21
31.3778793357
 12
364.6012229651
 22
31.2810881318
 13
364.6012229651
 23
31.2810881318
  0
SOLID
  8
0
 62
7
  6
CONTINUOUS
 10
364.8324727445
 20
31.3778793357
 11
364.890285024
 21
31.2810881318
 12
364.6012229651
 22
31.2810881318
 13
364.6012229651
 23
31.2810881318
  0
SOLID
  8
0
 62
7
  6
CONTINUOUS
 10
364.6012229651
 20
31.1842964734
 11
364.6012229651
 21
31.2810881318
 12
364.890285024
 22
31.2810881318
 13
364.890285024
 23
31.2810881318
  0
SOLID
  8
0
 62
7
  6
CONTINUOUS
 10
364.6012229651
 20
31.1842964734
 11
364.890285024
 21
31.2810881318
 12
364.6012229651
 22
31.0552422931
 13
364.6012229651
 23
31.0552422931
  0
SOLID
  8
0
 62
7
  6
CONTINUOUS
 10
364.6012229651
 20
31.0552422931
 11
364.890285024
 21
31.2810881318
 12
364.6012229651
 22
30.8616599362
 13
364.6012229651
 23
30.8616599362
  0
SOLID
  8
0
 62
7
  6
CONTINUOUS
 10
364.890285024
 20
31.2810881318
 11
364.890285024
 21
30.7648681127
 12
364.6012229651
 22
30.8616599362
 13
364.6012229651
 23
30.8616599362
  0
SOLID
  8
0
 62
7
  6
CONTINUOUS
 10
366.798097524
 20
31.5069339419
 11
367.0293479651
 21
31.5391976292
 12
367.2605977445
 22
31.5391976292
 13
367.2605977445
 23
31.5391976292
  0
SOLID
  8
0
 62
7
  6
CONTINUOUS
 10
367.2605977445
 20
31.5391976292
 11
367.4340352445
 21
31.5069339419
 12
366.798097524
 22
31.5069339419
 13
366.798097524
 23
31.5069339419
  0
SOLID
  8
0
 62
7
  6
CONTINUOUS
 10
366.624660024
 20
31.4424065674
 11
366.798097524
 21
31.5069339419
 12
367.4340352445
 22
31.5069339419
 13
367.4340352445
 23
31.5069339419
  0
SOLID
  8
0
 62
7
  6
CONTINUOUS
 10
367.4340352445
 20
31.5069339419
 11
367.6074727445
 21
31.4424065674
 12
366.624660024
 22
31.4424065674
 13
366.624660024
 23
31.4424065674
  0
SOLID
  8
0
 62
7
  6
CONTINUOUS
 10
367.6074727445
 20
31.4424065674
 11
367.0293479651
 21
31.4101420472
 12
366.624660024
 22
31.4424065674
 13
366.624660024
 23
31.4424065674
  0
SOLID
  8
0
 62
7
  6
CONTINUOUS
 10
366.5090354651
 20
31.377879193
 11
366.624660024
 21
31.4424065674
 12
367.0293479651
 22
31.4101420472
 13
367.0293479651
 23
31.4101420472
  0
SOLID
  8
0
 62
7
  6
CONTINUOUS
 10
367.0293479651
 20
31.4101420472
 11
366.798097524
 21
31.377879193
 12
366.5090354651
 22
31.377879193
 13
366.5090354651
 23
31.377879193
  0
SOLID
  8
0
 62
7
  6
CONTINUOUS
 10
367.0293479651
 20
31.4101420472
 11
367.6074727445
 21
31.4424065674
 12
367.2605977445
 22
31.377879193
 13
367.2605977445
 23
31.377879193
  0
SOLID
  8
0
 62
7
  6
CONTINUOUS
 10
367.6074727445
 20
31.4424065674
 11
367.7230979651
 21
31.377879193
 12
367.2605977445
 22
31.377879193
 13
367.2605977445
 23
31.377879193
  0
SOLID
  8
0
 62
7
  6
CONTINUOUS
 10
367.3762229651
 20
31.345614957
 11
367.2605977445
 21
31.377879193
 12
367.7230979651
 22
31.377879193
 13
367.7230979651
 23
31.377879193
  0
SOLID
  8
0
 62
7
  6
CONTINUOUS
 10
367.3762229651
 20
31.345614957
 11
367.7230979651
 21
31.377879193
 12
367.491847524
 22
31.2810881312
 13
367.491847524
 23
31.2810881312
  0
SOLID
  8
0
 62
7
  6
CONTINUOUS
 10
367.7230979651
 20
31.377879193
 11
367.7809102445
 21
31.2810881312
 12
367.491847524
 22
31.2810881312
 13
367.491847524
 23
31.2810881312
  0
SOLID
  8
0
 62
7
  6
CONTINUOUS
 10
367.5496604651
 20
31.119769695
 11
367.491847524
 21
31.2810881312
 12
367.7809102445
 22
31.2810881312
 13
367.7809102445
 23
31.2810881312
  0
SOLID
  8
0
 62
7
  6
CONTINUOUS
 10
367.7809102445
 20
31.2810881312
 11
367.838722524
 21
31.119769695
 12
367.5496604651
 22
31.119769695
 13
367.5496604651
 23
31.119769695
  0
SOLID
  8
0
 62
7
  6
CONTINUOUS
 10
366.798097524
 20
31.377879193
 11
366.624660024
 21
31.3133521701
 12
366.5090354651
 22
31.377879193
 13
366.5090354651
 23
31.377879193
  0
SOLID
  8
0
 62
7
  6
CONTINUOUS
 10
366.624660024
 20
31.3133521701
 11
366.5090354651
 21
31.2488235635
 12
366.5090354651
 22
31.377879193
 13
366.5090354651
 23
31.377879193
  0
SOLID
  8
0
 62
7
  6
CONTINUOUS
 10
366.5090354651
 20
31.2488235635
 11
366.2199727445
 21
30.5067596374
 12
366.5090354651
 22
31.377879193
 13
366.5090354651
 23
31.377879193
  0
SOLID
  8
0
 62
7
  6
CONTINUOUS
 10
366.5090354651
 20
31.377879193
 11
366.2199727445
 21
30.5067596374
 12
366.5090354651
 22
31.5391976292
 13
366.5090354651
 23
31.5391976292
  0
SOLID
  8
0
 62
7
  6
CONTINUOUS
 10
366.2199727445
 20
30.5067596374
 11
366.2199727445
 21
31.5391976292
 12
366.5090354651
 22
31.5391976292
 13
366.5090354651
 23
31.5391976292
  0
SOLID
  8
0
 62
7
  6
CONTINUOUS
 10
366.5090354651
 20
31.2488235635
 11
366.5090354651
 21
30.5067596374
 12
366.2199727445
 22
30.5067596374
 13
366.2199727445
 23
30.5067596374
  0
SOLID
  8
0
 62
7
  6
CONTINUOUS
 10
367.5496604651
 20
30.5067596374
 11
367.5496604651
 21
31.119769695
 12
367.838722524
 22
31.119769695
 13
367.838722524
 23
31.119769695
  0
SOLID
  8
0
 62
7
  6
CONTINUOUS
 10
367.838722524
 20
31.119769695
 11
367.838722524
 21
30.5067596374
 12
367.5496604651
 22
30.5067596374
 13
367.5496604651
 23
30.5067596374
  0
SOLID
  8
0
 62
7
  6
CONTINUOUS
 10
368.6480977445
 20
31.5069334157
 11
368.9949727445
 21
31.539197762
 12
369.3418477445
 22
31.539197762
 13
369.3418477445
 23
31.539197762
  0
SOLID
  8
0
 62
7
  6
CONTINUOUS
 10
369.3418477445
 20
31.539197762
 11
369.6887227445
 21
31.5069334157
 12
368.6480977445
 22
31.5069334157
 13
368.6480977445
 23
31.5069334157
  0
SOLID
  8
0
 62
7
  6
CONTINUOUS
 10
368.4168479651
 20
31.4424063504
 11
368.6480977445
 21
31.5069334157
 12
369.6887227445
 22
31.5069334157
 13
369.6887227445
 23
31.5069334157
  0
SOLID
  8
0
 62
7
  6
CONTINUOUS
 10
368.4168479651
 20
31.4424063504
 11
369.6887227445
 21
31.5069334406
 12
369.8621602445
 22
31.4746706537
 13
369.8621602445
 23
31.4746706537
  0
SOLID
  8
0
 62
7
  6
CONTINUOUS
 10
368.4168479651
 20
31.4424063504
 11
369.8621602445
 21
31.4746706537
 12
368.9949727445
 22
31.4101421267
 13
368.9949727445
 23
31.4101421267
  0
SOLID
  8
0
 62
7
  6
CONTINUOUS
 10
368.9949727445
 20
31.4101421267
 11
369.8621602445
 21
31.4746706537
 12
369.3418477445
 22
31.4101421267
 13
369.3418477445
 23
31.4101421267
  0
SOLID
  8
0
 62
7
  6
CONTINUOUS
 10
369.8621602445
 20
31.4746706537
 11
370.0355977445
 21
31.4101421267
 12
369.3418477445
 22
31.4101421267
 13
369.3418477445
 23
31.4101421267
  0
SOLID
  8
0
 62
7
  6
CONTINUOUS
 10
369.6887227445
 20
31.3778792603
 11
369.3418477445
 21
31.4101421267
 12
370.0355977445
 22
31.4101421267
 13
370.0355977445
 23
31.4101421267
  0
SOLID
  8
0
 62
7
  6
CONTINUOUS
 10
368.3012227445
 20
31.3456148845
 11
368.4168479651
 21
31.4424063504
 12
368.9949727445
 22
31.4101421267
 13
368.9949727445
 23
31.4101421267
  0
SOLID
  8
0
 62
7
  6
CONTINUOUS
 10
369.6887227445
 20
31.3778792603
 11
370.0355977445
 21
31.4101421267
 12
369.8043479651
 22
31.3456148845
 13
369.8043479651
 23
31.3456148845
  0
SOLID
  8
0
 62
7
  6
CONTINUOUS
 10
369.8043479651
 20
31.3456148845
 11
370.0355977445
 21
31.4101421267
 12
369.8621602445
 22
31.281087868
 13
369.8621602445
 23
31.281087868
  0
SOLID
  8
0
 62
7
  6
CONTINUOUS
 10
370.0355977445
 20
31.4101421267
 11
370.1512223035
 21
31.281087868
 12
369.8621602445
 22
31.281087868
 13
369.8621602445
 23
31.281087868
  0
SOLID
  8
0
 62
7
  6
CONTINUOUS
 10
359.4559102445
 20
31.3778792603
 11
358.9355977445
 21
31.3456148963
 12
359.6871602721
 22
31.4101421155
 13
359.6871602721
 23
31.4101421155
  0
SOLID
  8
0
 62
7
  6
CONTINUOUS
 10
358.9355977445
 20
31.3456148963
 11
359.0512227376
 21
31.4101421155
 12
359.6871602721
 22
31.4101421155
 13
359.6871602721
 23
31.4101421155
  0
SOLID
  8
0
 62
7
  6
CONTINUOUS
 10
359.4559102445
 20
31.3778792603
 11
359.3402852307
 21
31.3456148963
 12
358.9355977445
 22
31.3456148963
 13
358.9355977445
 23
31.3456148963
  0
SOLID
  8
0
 62
7
  6
CONTINUOUS
 10
358.8199727462
 20
31.2165607767
 11
358.9355977445
 21
31.3456148963
 12
359.3402852307
 22
31.3456148963
 13
359.3402852307
 23
31.3456148963
  0
SOLID
  8
0
 62
7
  6
CONTINUOUS
 10
363.1559103548
 20
31.3456149608
 11
363.8496603548
 21
31.4101420472
 12
363.6184102445
 22
31.3778792603
 13
363.6184102445
 23
31.3778792603
  0
SOLID
  8
0
 62
7
  6
CONTINUOUS
 10
363.6184102445
 20
31.3778792603
 11
363.5027853548
 21
31.3456149608
 12
363.1559103548
 22
31.3456149608
 13
363.1559103548
 23
31.3456149608
  0
SOLID
  8
0
 62
7
  6
CONTINUOUS
 10
363.1559103548
 20
31.2810878707
 11
363.1559103548
 21
31.3456149608
 12
363.5027853548
 22
31.3456149608
 13
363.5027853548
 23
31.3456149608
  0
SOLID
  8
0
 62
7
  6
CONTINUOUS
 10
363.5027853548
 20
31.3456149608
 11
363.4449727445
 21
31.2810878707
 12
363.1559103548
 22
31.2810878707
 13
363.1559103548
 23
31.2810878707
  0
SOLID
  8
0
 62
7
  6
CONTINUOUS
 10
368.3012227445
 20
31.3456149608
 11
368.9949727445
 21
31.4101420472
 12
368.7637229651
 22
31.3778792603
 13
368.7637229651
 23
31.3778792603
  0
SOLID
  8
0
 62
7
  6
CONTINUOUS
 10
368.7637229651
 20
31.3778792603
 11
368.6480977445
 21
31.3456149608
 12
368.3012227445
 22
31.3456149608
 13
368.3012227445
 23
31.3456149608
  0
SOLID
  8
0
 62
7
  6
CONTINUOUS
 10
368.3012227445
 20
31.2810878707
 11
368.3012227445
 21
31.3456149608
 12
368.6480977445
 22
31.3456149608
 13
368.6480977445
 23
31.3456149608
  0
SOLID
  8
0
 62
7
  6
CONTINUOUS
 10
368.6480977445
 20
31.3456149608
 11
368.5902854651
 21
31.2810878707
 12
368.3012227445
 22
31.2810878707
 13
368.3012227445
 23
31.2810878707
  0
SOLID
  8
0
 62
7
  6
CONTINUOUS
 10
368.4168479651
 20
31.1520336865
 11
368.3012227445
 21
31.2810878707
 12
368.5902854651
 22
31.2810878707
 13
368.5902854651
 23
31.2810878707
  0
SOLID
  8
0
 62
7
  6
CONTINUOUS
 10
358.8199727462
 20
31.2165607767
 11
359.3402852307
 21
31.345614957
 12
359.1668477307
 22
31.2488235635
 13
359.1668477307
 23
31.2488235635
  0
SOLID
  8
0
 62
7
  6
CONTINUOUS
 10
359.1668477307
 20
31.2488235635
 11
359.1090352445
 21
31.1842964734
 12
358.8199727462
 22
31.2165607767
 13
358.8199727462
 23
31.2165607767
  0
SOLID
  8
0
 62
7
  6
CONTINUOUS
 10
358.7621602445
 20
31.0229779898
 11
358.8199727462
 21
31.2165607767
 12
359.1090352445
 22
31.1842964734
 13
359.1090352445
 23
31.1842964734
  0
SOLID
  8
0
 62
7
  6
CONTINUOUS
 10
363.6184102445
 20
31.1520336865
 11
363.9652852445
 21
31.1842964611
 12
364.6012229651
 22
31.1842964611
 13
364.6012229651
 23
31.1842964611
  0
SOLID
  8
0
 62
7
  6
CONTINUOUS
 10
363.6184102445
 20
31.1520336865
 11
364.6012229651
 21
31.1842964611
 12
363.3871601343
 22
31.0875057863
 13
363.3871601343
 23
31.0875057863
  0
SOLID
  8
0
 62
7
  6
CONTINUOUS
 10
363.3871601343
 20
31.0875057863
 11
364.6012229651
 21
31.1842964611
 12
363.9652852445
 22
31.0552422808
 13
363.9652852445
 23
31.0552422808
  0
SOLID
  8
0
 62
7
  6
CONTINUOUS
 10
364.6012229651
 20
31.1842964611
 11
364.6012229651
 21
31.0552422808
 12
363.9652852445
 22
31.0552422808
 13
363.9652852445
 23
31.0552422808
  0
SOLID
  8
0
 62
7
  6
CONTINUOUS
 10
368.4168479651
 20
31.1520338754
 11
368.5902854651
 21
31.2810878668
 12
368.6480977445
 22
31.2165607767
 13
368.6480977445
 23
31.2165607767
  0
SOLID
  8
0
 62
7
  6
CONTINUOUS
 10
368.6480977445
 20
31.2165607767
 11
368.8215352445
 21
31.1520338754
 12
368.4168479651
 22
31.1520338754
 13
368.4168479651
 23
31.1520338754
  0
SOLID
  8
0
 62
7
  6
CONTINUOUS
 10
368.6480977445
 20
31.0552422931
 11
368.4168479651
 21
31.1520338754
 12
368.8215352445
 22
31.1520338754
 13
368.8215352445
 23
31.1520338754
  0
SOLID
  8
0
 62
7
  6
CONTINUOUS
 10
368.8215352445
 20
31.1520338754
 11
369.8043479651
 21
30.9907152029
 12
368.6480977445
 22
31.0552422931
 13
368.6480977445
 23
31.0552422931
  0
SOLID
  8
0
 62
7
  6
CONTINUOUS
 10
369.6309104651
 20
30.8939239876
 11
368.6480977445
 21
31.0552422931
 12
369.8043479651
 22
30.9907152029
 13
369.8043479651
 23
30.9907152029
  0
SOLID
  8
0
 62
7
  6
CONTINUOUS
 10
369.8043479651
 20
30.9907152029
 11
370.0355977445
 21
30.8939239876
 12
369.6309104651
 22
30.8939239876
 13
369.6309104651
 23
30.8939239876
  0
SOLID
  8
0
 62
7
  6
CONTINUOUS
 10
369.8043479651
 20
30.8293967193
 11
369.6309104651
 21
30.8939239876
 12
370.0355977445
 22
30.8939239876
 13
370.0355977445
 23
30.8939239876
  0
SOLID
  8
0
 62
7
  6
CONTINUOUS
 10
369.8043479651
 20
30.8293967193
 11
370.0355977445
 21
30.8939239876
 12
369.8621602445
 22
30.7648682694
 13
369.8621602445
 23
30.7648682694
  0
SOLID
  8
0
 62
7
  6
CONTINUOUS
 10
370.0355977445
 20
30.8939239876
 11
370.1512223035
 21
30.7648682694
 12
369.8621602445
 22
30.7648682694
 13
369.8621602445
 23
30.7648682694
  0
SOLID
  8
0
 62
7
  6
CONTINUOUS
 10
369.8043479651
 20
30.7003411846
 11
369.8621602445
 21
30.7648682694
 12
370.1512223035
 22
30.7648682694
 13
370.1512223035
 23
30.7648682694
  0
SOLID
  8
0
 62
7
  6
CONTINUOUS
 10
370.1512223035
 20
30.7648682694
 11
370.1512223035
 21
30.7003411846
 12
369.8043479651
 22
30.7003411846
 13
369.8043479651
 23
30.7003411846
  0
SOLID
  8
0
 62
7
  6
CONTINUOUS
 10
369.6887227445
 20
30.6680782357
 11
369.8043479651
 21
30.7003411846
 12
370.1512223035
 22
30.7003411846
 13
370.1512223035
 23
30.7003411846
  0
SOLID
  8
0
 62
7
  6
CONTINUOUS
 10
369.6887227445
 20
30.6680782357
 11
370.1512223035
 21
30.7003411846
 12
369.4574729651
 22
30.6358140998
 13
369.4574729651
 23
30.6358140998
  0
SOLID
  8
0
 62
7
  6
CONTINUOUS
 10
370.1512223035
 20
30.7003411846
 11
370.0355977445
 21
30.6035511455
 12
369.4574729651
 22
30.6358140998
 13
369.4574729651
 23
30.6358140998
  0
SOLID
  8
0
 62
7
  6
CONTINUOUS
 10
370.0355977445
 20
30.6035511455
 11
368.5902854651
 21
30.5712868422
 12
369.4574729651
 22
30.6358140998
 13
369.4574729651
 23
30.6358140998
  0
SOLID
  8
0
 62
7
  6
CONTINUOUS
 10
369.4574729651
 20
30.6358140998
 11
368.5902854651
 21
30.5712868422
 12
369.1105979651
 22
30.6358140998
 13
369.1105979651
 23
30.6358140998
  0
SOLID
  8
0
 62
7
  6
CONTINUOUS
 10
368.5902854651
 20
30.5712868422
 11
368.4168479651
 21
30.6358140998
 12
369.1105979651
 22
30.6358140998
 13
369.1105979651
 23
30.6358140998
  0
SOLID
  8
0
 62
7
  6
CONTINUOUS
 10
368.5902854651
 20
30.5712868422
 11
370.0355977445
 21
30.6035511455
 12
368.7637229651
 22
30.5390223111
 13
368.7637229651
 23
30.5390223111
  0
SOLID
  8
0
 62
7
  6
CONTINUOUS
 10
370.0355977445
 20
30.6035511455
 11
369.8043479651
 21
30.5390223111
 12
368.7637229651
 22
30.5390223111
 13
368.7637229651
 23
30.5390223111
  0
SOLID
  8
0
 62
7
  6
CONTINUOUS
 10
369.1105979651
 20
30.5067599302
 11
368.7637229651
 21
30.5390223111
 12
369.8043479651
 22
30.5390223111
 13
369.8043479651
 23
30.5390223111
  0
SOLID
  8
0
 62
7
  6
CONTINUOUS
 10
369.8043479651
 20
30.5390223111
 11
369.4574729651
 21
30.5067599302
 12
369.1105979651
 22
30.5067599302
 13
369.1105979651
 23
30.5067599302
  0
SOLID
  8
0
 62
7
  6
CONTINUOUS
 10
358.7621602445
 20
31.0229779898
 11
359.1090352445
 21
31.1842964734
 12
359.0512227376
 22
31.0552422931
 13
359.0512227376
 23
31.0552422931
  0
SOLID
  8
0
 62
7
  6
CONTINUOUS
 10
359.0512227376
 20
31.0552422931
 11
359.0512227376
 21
30.9584509954
 12
358.7621602445
 22
31.0229779898
 13
358.7621602445
 23
31.0229779898
  0
SOLID
  8
0
 62
7
  6
CONTINUOUS
 10
358.8199727462
 20
30.8293967193
 11
358.7621602445
 21
31.0229779898
 12
359.0512227376
 22
30.9584509954
 13
359.0512227376
 23
30.9584509954
  0
SOLID
  8
0
 62
7
  6
CONTINUOUS
 10
359.0512227376
 20
30.9584509954
 11
359.1668477307
 21
30.797132416
 12
358.8199727462
 22
30.8293967193
 13
358.8199727462
 23
30.8293967193
  0
SOLID
  8
0
 62
7
  6
CONTINUOUS
 10
358.9355977445
 20
30.7003413087
 11
358.8199727462
 21
30.8293967193
 12
359.1668477307
 22
30.797132416
 13
359.1668477307
 23
30.797132416
  0
SOLID
  8
0
 62
7
  6
CONTINUOUS
 10
359.1668477307
 20
30.797132416
 11
359.3402852307
 21
30.7003413087
 12
358.9355977445
 22
30.7003413087
 13
358.9355977445
 23
30.7003413087
  0
SOLID
  8
0
 62
7
  6
CONTINUOUS
 10
359.0512227376
 20
30.6358140759
 11
358.9355977445
 21
30.7003413087
 12
359.3402852307
 22
30.7003413087
 13
359.3402852307
 23
30.7003413087
  0
SOLID
  8
0
 62
7
  6
CONTINUOUS
 10
359.3402852307
 20
30.7003413087
 11
359.6871602721
 21
30.6358140759
 12
359.0512227376
 22
30.6358140759
 13
359.0512227376
 23
30.6358140759
  0
SOLID
  8
0
 62
7
  6
CONTINUOUS
 10
359.2246602583
 20
30.5712868422
 11
359.0512227376
 21
30.6358140759
 12
359.6871602721
 22
30.6358140759
 13
359.6871602721
 23
30.6358140759
  0
SOLID
  8
0
 62
7
  6
CONTINUOUS
 10
363.2715352445
 20
31.0229779808
 11
363.3871601343
 21
31.0875057863
 12
363.9652852445
 22
31.0552422931
 13
363.9652852445
 23
31.0552422931
  0
SOLID
  8
0
 62
7
  6
CONTINUOUS
 10
363.9652852445
 20
31.0552422931
 11
363.7340351343
 21
31.0229779808
 12
363.2715352445
 22
31.0229779808
 13
363.2715352445
 23
31.0229779808
  0
SOLID
  8
0
 62
7
  6
CONTINUOUS
 10
363.1559103548
 20
30.8939238094
 11
363.2715352445
 21
31.0229779808
 12
363.7340351343
 22
31.0229779808
 13
363.7340351343
 23
31.0229779808
  0
SOLID
  8
0
 62
7
  6
CONTINUOUS
 10
363.5027853548
 20
30.926187309
 11
363.1559103548
 21
30.8939238094
 12
363.6184102445
 22
30.9907152029
 13
363.6184102445
 23
30.9907152029
  0
SOLID
  8
0
 62
7
  6
CONTINUOUS
 10
363.1559103548
 20
30.8939238094
 11
363.7340351343
 21
31.0229779898
 12
363.6184102445
 22
30.9907152029
 13
363.6184102445
 23
30.9907152029
  0
SOLID
  8
0
 62
7
  6
CONTINUOUS
 10
363.5027853548
 20
30.926187309
 11
363.4449727445
 21
30.8293967193
 12
363.1559103548
 22
30.8939238094
 13
363.1559103548
 23
30.8939238094
  0
SOLID
  8
0
 62
7
  6
CONTINUOUS
 10
363.1559103548
 20
30.797132416
 11
363.1559103548
 21
30.8939238094
 12
363.4449727445
 22
30.8293967193
 13
363.4449727445
 23
30.8293967193
  0
SOLID
  8
0
 62
7
  6
CONTINUOUS
 10
363.4449727445
 20
30.8293967193
 11
363.4449727445
 21
30.7648681127
 12
363.1559103548
 22
30.797132416
 13
363.1559103548
 23
30.797132416
  0
SOLID
  8
0
 62
7
  6
CONTINUOUS
 10
363.2137226343
 20
30.6680782357
 11
363.1559103548
 21
30.797132416
 12
363.4449727445
 22
30.7648681127
 13
363.4449727445
 23
30.7648681127
  0
SOLID
  8
0
 62
7
  6
CONTINUOUS
 10
364.6012229651
 20
30.8616599362
 11
364.890285024
 21
30.7648681127
 12
364.543410024
 22
30.797132416
 13
364.543410024
 23
30.797132416
  0
SOLID
  8
0
 62
7
  6
CONTINUOUS
 10
364.369972524
 20
30.7003410226
 11
364.543410024
 21
30.797132416
 12
364.890285024
 22
30.7648681127
 13
364.890285024
 23
30.7648681127
  0
SOLID
  8
0
 62
7
  6
CONTINUOUS
 10
364.369972524
 20
30.7003410226
 11
364.890285024
 21
30.7648681127
 12
364.6012229651
 22
30.6680782357
 13
364.6012229651
 23
30.6680782357
  0
SOLID
  8
0
 62
7
  6
CONTINUOUS
 10
364.890285024
 20
30.7648681127
 11
364.9480979651
 21
30.6035511455
 12
364.6012229651
 22
30.6680782357
 13
364.6012229651
 23
30.6680782357
  0
SOLID
  8
0
 62
7
  6
CONTINUOUS
 10
364.6590352445
 20
30.5712868422
 11
364.6012229651
 21
30.6680782357
 12
364.9480979651
 22
30.6035511455
 13
364.9480979651
 23
30.6035511455
  0
SOLID
  8
0
 62
7
  6
CONTINUOUS
 10
364.6590352445
 20
30.5712868422
 11
364.9480979651
 21
30.6035511455
 12
364.716847524
 22
30.5067598731
 13
364.716847524
 23
30.5067598731
  0
SOLID
  8
0
 62
7
  6
CONTINUOUS
 10
364.9480979651
 20
30.6035511455
 11
365.0059102445
 21
30.5067598731
 12
364.716847524
 22
30.5067598731
 13
364.716847524
 23
30.5067598731
  0
SOLID
  8
0
 62
7
  6
CONTINUOUS
 10
360.2652852997
 20
30.7326051679
 11
360.3230977445
 21
30.8293966612
 12
360.6121602997
 22
30.8293966612
 13
360.6121602997
 23
30.8293966612
  0
SOLID
  8
0
 62
7
  6
CONTINUOUS
 10
360.6121602997
 20
30.8293966612
 11
360.5543476894
 21
30.7003410226
 12
360.2652852997
 22
30.7326051679
 13
360.2652852997
 23
30.7326051679
  0
SOLID
  8
0
 62
7
  6
CONTINUOUS
 10
360.091847717
 20
30.6680782357
 11
360.2652852997
 21
30.7326051679
 12
360.5543476894
 22
30.7003410226
 13
360.5543476894
 23
30.7003410226
  0
SOLID
  8
0
 62
7
  6
CONTINUOUS
 10
360.091847717
 20
30.6680782357
 11
360.5543476894
 21
30.7003410226
 12
359.6871602721
 22
30.6358139324
 13
359.6871602721
 23
30.6358139324
  0
SOLID
  8
0
 62
7
  6
CONTINUOUS
 10
360.5543476894
 20
30.7003410226
 11
360.3809101894
 21
30.6035511455
 12
359.6871602721
 22
30.6358139324
 13
359.6871602721
 23
30.6358139324
  0
SOLID
  8
0
 62
7
  6
CONTINUOUS
 10
359.2246602583
 20
30.5712868422
 11
359.6871602721
 21
30.6358139324
 12
360.3809101894
 22
30.6035511455
 13
360.3809101894
 23
30.6035511455
  0
SOLID
  8
0
 62
7
  6
CONTINUOUS
 10
359.2246602583
 20
30.5712868422
 11
360.3809101894
 21
30.6035511455
 12
359.3980977583
 22
30.5390224228
 13
359.3980977583
 23
30.5390224228
  0
SOLID
  8
0
 62
7
  6
CONTINUOUS
 10
360.3809101894
 20
30.6035511455
 11
360.1496602445
 21
30.5390224228
 12
359.3980977583
 22
30.5390224228
 13
359.3980977583
 23
30.5390224228
  0
SOLID
  8
0
 62
7
  6
CONTINUOUS
 10
359.744972717
 20
30.5067597521
 11
359.3980977583
 21
30.5390224228
 12
360.1496602445
 22
30.5390224228
 13
360.1496602445
 23
30.5390224228
  0
SOLID
  8
0
 62
7
  6
CONTINUOUS
 10
363.2137226343
 20
30.6680782357
 11
363.4449727445
 21
30.7648681127
 12
363.5027853548
 22
30.7003410226
 13
363.5027853548
 23
30.7003410226
  0
SOLID
  8
0
 62
7
  6
CONTINUOUS
 10
363.5027853548
 20
30.7003410226
 11
363.7340351343
 21
30.6358139324
 12
363.2137226343
 22
30.6680782357
 13
363.2137226343
 23
30.6680782357
  0
SOLID
  8
0
 62
7
  6
CONTINUOUS
 10
363.3871601343
 20
30.5712868422
 11
363.2137226343
 21
30.6680782357
 12
363.7340351343
 22
30.6358139324
 13
363.7340351343
 23
30.6358139324
  0
SOLID
  8
0
 62
7
  6
CONTINUOUS
 10
364.0809101343
 20
30.6358139363
 11
364.369972524
 21
30.7003410226
 12
364.6012229651
 22
30.6680782357
 13
364.6012229651
 23
30.6680782357
  0
SOLID
  8
0
 62
7
  6
CONTINUOUS
 10
364.6012229651
 20
30.6680782357
 11
364.543410024
 21
30.6035511455
 12
364.0809101343
 22
30.6358139363
 13
364.0809101343
 23
30.6358139363
  0
SOLID
  8
0
 62
7
  6
CONTINUOUS
 10
364.543410024
 20
30.6035511455
 11
363.3871601343
 21
30.5712868422
 12
364.0809101343
 22
30.6358139363
 13
364.0809101343
 23
30.6358139363
  0
SOLID
  8
0
 62
7
  6
CONTINUOUS
 10
363.3871601343
 20
30.5712868422
 11
363.7340351343
 21
30.6358139363
 12
364.0809101343
 22
30.6358139363
 13
364.0809101343
 23
30.6358139363
  0
SOLID
  8
0
 62
7
  6
CONTINUOUS
 10
363.3871601343
 20
30.5712868422
 11
364.543410024
 21
30.6035511455
 12
363.5027853548
 22
30.5390225267
 13
363.5027853548
 23
30.5390225267
  0
SOLID
  8
0
 62
7
  6
CONTINUOUS
 10
364.543410024
 20
30.6035511455
 11
364.369972524
 21
30.5390225267
 12
363.5027853548
 22
30.5390225267
 13
363.5027853548
 23
30.5390225267
  0
SOLID
  8
0
 62
7
  6
CONTINUOUS
 10
363.7340351343
 20
30.5067596914
 11
363.5027853548
 21
30.5390225267
 12
364.369972524
 22
30.5390225267
 13
364.369972524
 23
30.5390225267
  0
SOLID
  8
0
 62
7
  6
CONTINUOUS
 10
364.369972524
 20
30.5390225267
 11
364.0809101343
 21
30.5067596914
 12
363.7340351343
 22
30.5067596914
 13
363.7340351343
 23
30.5067596914
  0
SOLID
  8
0
 62
7
  6
CONTINUOUS
 10
368.7637229651
 20
30.6680782357
 11
368.4168479651
 21
30.6358138717
 12
368.6480977445
 22
30.7003410226
 13
368.6480977445
 23
30.7003410226
  0
SOLID
  8
0
 62
7
  6
CONTINUOUS
 10
368.6480977445
 20
30.7003410226
 11
368.4168479651
 21
30.6358138717
 12
368.5902854651
 22
30.7648680521
 13
368.5902854651
 23
30.7648680521
  0
SOLID
  8
0
 62
7
  6
CONTINUOUS
 10
368.4168479651
 20
30.6358138717
 11
368.3012227445
 21
30.7648680521
 12
368.5902854651
 22
30.7648680521
 13
368.5902854651
 23
30.7648680521
  0
SOLID
  8
0
 62
7
  6
CONTINUOUS
 10
368.7637229651
 20
30.6680782357
 11
369.1105979651
 21
30.6358138717
 12
368.4168479651
 22
30.6358138717
 13
368.4168479651
 23
30.6358138717
  0
SOLID
  8
0
 62
7
  6
CONTINUOUS
 10
365.4684104651
 20
30.5067597521
 11
365.4684104651
 21
31.5391977439
 12
365.757472524
 22
30.5067597521
 13
365.757472524
 23
31.5391977439
  0
ENDBLK
  8
0
  6
BYBLOCK
 62
0
  0
BLOCK
  8
0
 62
2
  6
CONTINUOUS
  2
SYMBOL_0_BL0
 70
64
 10
240.8592468615
 20
19.762288695
  0
TEXT
  8
0
 62
7
  6
CONTINUOUS
 10
227.1239507038
 20
19.1357028027
  7
TEXTSTYLE_3
 40
2.7338706658
  1
Ammeraal Beltech
 41
1.0
 51
15.0
 72
0
  0
TEXT
  8
0
 62
7
  6
CONTINUOUS
 10
237.9247515296
 20
16.8621661299
  7
TEXTSTYLE_4
 40
1.0935482663
  1
Innovation & Service in Belting
 41
1.0
 72
0
  0
LINE
  8
0
 62
7
  6
CONTINUOUS
 10
221.0994100525
 20
19.9022961113
 11
221.8775620458
 21
23.5632134089
  0
LINE
  8
0
 62
7
  6
CONTINUOUS
 10
231.9727303357
 20
27.2266073205
 11
222.3653797889
 21
24.1049898993
  0
LINE
  8
0
 62
7
  6
CONTINUOUS
 10
221.3246933848
 20
19.2089453082
 11
228.8317686459
 21
12.4495443822
  0
LINE
  8
0
 62
7
  6
CONTINUOUS
 10
221.5872277955
 20
20.4440726016
 11
232.3954971607
 21
23.9558922005
  0
LINE
  8
0
 62
7
  6
CONTINUOUS
 10
232.3912920235
 20
13.6061036368
 11
223.9458323548
 21
21.2104296785
  0
LINE
  8
0
 62
7
  6
CONTINUOUS
 10
232.9111147433
 20
26.3816822048
 11
231.9345552061
 21
21.7873308023
  0
LINE
  8
0
 62
7
  6
CONTINUOUS
 10
231.2347532584
 20
18.4950214885
 11
230.5483050469
 21
15.2655365641
  0
LINE
  8
0
 62
7
  6
CONTINUOUS
 10
233.5922108419
 20
13.9963058145
 11
234.5484423775
 21
18.4950214885
  0
LINE
  8
0
 62
7
  6
CONTINUOUS
 10
235.2482443252
 20
21.7873308023
 11
235.6924861276
 21
23.8773241617
  0
LINE
  8
0
 62
7
  6
CONTINUOUS
 10
229.5448697213
 20
12.2979700695
 11
233.1043930989
 21
13.4545293241
  0
LINE
  8
0
 62
7
  6
CONTINUOUS
 10
232.685831411
 20
27.0750330078
 11
235.4672027953
 21
24.5706749648
  0
ARC
  8
0
 62
7
  6
CONTINUOUS
 10
222.5906631212
 20
23.4116390962
 40
0.7290321776
 50
108.0
 51
168.0
  0
ARC
  8
0
 62
7
  6
CONTINUOUS
 10
232.198013668
 20
26.5332565175
 40
0.7290321776
 50
348.0
 51
108.0
  0
ARC
  8
0
 62
7
  6
CONTINUOUS
 10
234.9793850522
 20
24.0288984744
 40
0.7290321776
 50
348.0
 51
48.0
  0
ARC
  8
0
 62
7
  6
CONTINUOUS
 10
229.319586389
 20
12.9913208726
 40
0.7290321776
 50
228.0
 51
288.0
  0
ARC
  8
0
 62
7
  6
CONTINUOUS
 10
221.8125111278
 20
19.7507217986
 40
0.7290321776
 50
108.0
 51
228.0
  0
ARC
  8
0
 62
7
  6
CONTINUOUS
 10
232.8791097665
 20
14.1478801272
 40
0.7290321776
 50
228.0
 51
348.0
  0
ENDBLK
  8
0
  6
BYBLOCK
 62
0
  0
ENDSEC
  0
SECTION
  2
ENTITIES
  0
TEXT
  8
0
 62
5
  6
CONTINUOUS
 10
304.937007874
 20
25.636
  7
TEXTSTYLE_2
 40
2.8
  1
Scale :
 41
0.6
 51
0.000019
 72
0
  0
TEXT
  8
0
 62
5
  6
CONTINUOUS
 10
324.937007874
 20
25.636
  7
TEXTSTYLE_2
 40
2.8
  1
Belt type:
 41
0.6
 51
0.000019
 72
0
  0
INSERT
  8
0
 62
2
  6
CONTINUOUS
  2
SYMBOL_0_BL0
 10
240.8592468615
 20
19.762288695
  0
INSERT
  8
0
 62
2
  6
CONTINUOUS
  2
SYMBOL_5_BL1
 10
382.7840918555
 20
35.5067593403
  0
LINE
  8
0
 62
2
  6
CONTINUOUS
 10
218.937007874
 20
30.0
 11
408.937007874
 21
30.0
  0
LINE
  8
0
 62
2
  6
CONTINUOUS
 10
218.937007874
 20
30.0
 11
218.937007874
 21
10.0
  0
LINE
  8
0
 62
2
  6
CONTINUOUS
 10
218.937007874
 20
10.0
 11
408.937007874
 21
10.0
  0
LINE
  8
0
 62
2
  6
CONTINUOUS
 10
303.937007874
 20
30.0
 11
303.937007874
 21
10.0
  0
LINE
  8
0
 62
2
  6
CONTINUOUS
 10
323.937007874
 20
30.0
 11
323.937007874
 21
10.0
  0
LINE
  8
0
 62
2
  6
CONTINUOUS
 10
408.937007874
 20
30.0
 11
408.937007874
 21
10.0
  0
TEXT
  8
0
 62
5
  6
CONTINUOUS
 10
221.937007874
 20
23.303
  7
TEXTSTYLE_5
 40
1.52
  1
                                                                     Ammeraal Beltech Modular A/S
 41
1.0
 72
0
  0
TEXT
  8
0
 62
5
  6
CONTINUOUS
 10
221.937007874
 20
20.595
  7
TEXTSTYLE_5
 40
1.5
  1
                                                                      Hjulmagervej 21, 7100 Vejle,  DK
 41
1.0
 72
0
  0
TEXT
  8
0
 62
5
  6
CONTINUOUS
 10
221.937007874
 20
17.881
  7
TEXTSTYLE_5
 40
1.495
  1
                                                                      tel: 
 41
1.0
 72
0
  0
TEXT
  8
0
 62
5
  6
CONTINUOUS
 10
266.9239544389
 20
17.881
  7
TEXTSTYLE_5
 40
1.51
  1
+45 75723100     fax: +45 75723348
 41
1.0
 72
0
  0
TEXT
  8
0
 62
5
  6
CONTINUOUS
 10
221.937007874
 20
15.177
  7
TEXTSTYLE_5
 40
1.5
  1
                                                                      admin@unichains.dk  www.unichains.com
 41
1.0
 72
0
  0
TEXT
  8
0
 62
5
  6
CONTINUOUS
 10
308.687007874
 20
13.75
  7
TEXTSTYLE_6
 40
5.0
  1
1:1
 41
0.7
 72
1
 11
313.937007874
 21
13.75
  0
TEXT
  8
0
 62
5
  6
CONTINUOUS
 10
326.937007874
 20
13.75
  7
TEXTSTYLE_7
 40
7.5
  1
uni Flex ASB-43 CS K600
 41
0.3823369565
 72
0
  0
LINE
  8
0
 62
7
  6
CONTINUOUS
 10
0.0
 20
0.0
 11
0.0
 21
297.0
  0
LINE
  8
0
 62
7
  6
CONTINUOUS
 10
8.937007874
 20
10.0
 11
8.937007874
 21
287.0
  0
LINE
  8
0
 62
7
  6
CONTINUOUS
 10
0.0
 20
0.0
 11
420.0
 21
0.0
  0
LINE
  8
0
 62
7
  6
CONTINUOUS
 10
408.937007874
 20
10.0
 11
8.937007874
 21
10.0
  0
LINE
  8
0
 62
7
  6
CONTINUOUS
 10
218.937007874
 20
30.0
 11
408.937007874
 21
30.0
  0
LINE
  8
0
 62
7
  6
CONTINUOUS
 10
210.0
 20
297.0
 11
210.0
 21
292.0
  0
LINE
  8
0
 62
7
  6
CONTINUOUS
 10
210.0
 20
0.0
 11
210.0
 21
5.0
  0
LINE
  8
0
 62
7
  6
CONTINUOUS
 10
8.937007874
 20
287.0
 11
408.937007874
 21
287.0
  0
LINE
  8
0
 62
7
  6
CONTINUOUS
 10
0.0
 20
297.0
 11
420.0
 21
297.0
  0
LINE
  8
0
 62
7
  6
CONTINUOUS
 10
408.937007874
 20
287.0
 11
408.937007874
 21
10.0
  0
LINE
  8
0
 62
7
  6
CONTINUOUS
 10
420.0
 20
0.0
 11
420.0
 21
297.0
  0
LINE
  8
0
 62
7
  6
CONTINUOUS
 10
156.6249658818
 20
114.2757571858
 11
157.6249658818
 21
114.2757571858
  0
LINE
  8
0
 62
7
  6
CONTINUOUS
 10
170.3789658818
 20
114.2757571858
 11
171.3789658818
 21
114.2757571858
  0
LINE
  8
0
 62
7
  6
CONTINUOUS
 10
184.8789658818
 20
114.2757571858
 11
185.8789658818
 21
114.2757571858
  0
LINE
  8
0
 62
7
  6
CONTINUOUS
 10
200.5039658818
 20
114.2757571858
 11
201.5039658818
 21
114.2757571858
  0
LINE
  8
DEFAULT_1
 62
2
  6
CENTER
 10
62.8289658818
 20
118.6257571858
 11
206.0039515187
 21
118.6257571858
  0
LINE
  8
0
 62
7
  6
CONTINUOUS
 10
58.4789658818
 20
143.3742196606
 11
58.4789658818
 21
147.6257571858
  0
LINE
  8
0
 62
7
  6
CONTINUOUS
 10
59.2329658818
 20
140.313478861
 11
59.2329658818
 21
131.5417571858
  0
LINE
  8
0
 62
7
  6
CONTINUOUS
 10
63.7402432069
 20
140.4361325866
 11
64.4743826843
 21
143.3374235527
  0
LINE
  8
0
 62
7
  6
CONTINUOUS
 10
152.8749658818
 20
130.5417571858
 11
148.2789658818
 21
130.5417571858
  0
LINE
  8
0
 62
7
  6
CONTINUOUS
 10
139.7789658818
 20
130.5417571858
 11
135.5789658818
 21
130.5417571858
  0
LINE
  8
0
 62
7
  6
CONTINUOUS
 10
127.0789658818
 20
130.5417571858
 11
122.8789658818
 21
130.5417571858
  0
LINE
  8
0
 62
7
  6
CONTINUOUS
 10
114.3789658818
 20
130.5417571858
 11
110.1789658818
 21
130.5417571858
  0
LINE
  8
0
 62
7
  6
CONTINUOUS
 10
101.6789658818
 20
130.5417571858
 11
97.4789658818
 21
130.5417571858
  0
LINE
  8
0
 62
7
  6
CONTINUOUS
 10
88.9789658818
 20
130.5417571858
 11
84.7789658818
 21
130.5417571858
  0
LINE
  8
0
 62
7
  6
CONTINUOUS
 10
76.2789658818
 20
130.5417571858
 11
72.0789658818
 21
130.5417571858
  0
LINE
  8
0
 62
7
  6
CONTINUOUS
 10
60.2329658818
 20
130.5417571858
 11
63.5789658818
 21
130.5417571858
  0
LINE
  8
0
 62
7
  6
CONTINUOUS
 10
165.9289658818
 20
130.8757571858
 11
162.0749658818
 21
130.8757571858
  0
LINE
  8
0
 62
7
  6
CONTINUOUS
 10
175.8289844608
 20
130.8757571858
 11
180.4289485432
 21
130.8757571858
  0
LINE
  8
0
 62
7
  6
CONTINUOUS
 10
194.7539463835
 20
131.0257571858
 11
190.628984111
 21
131.0257571858
  0
LINE
  8
0
 62
7
  6
CONTINUOUS
 10
201.3789424762
 20
131.5757571858
 11
199.6289838157
 21
131.5757571858
  0
LINE
  8
0
 62
7
  6
CONTINUOUS
 10
186.1289456589
 20
131.6757571858
 11
184.6289838188
 21
131.6757571858
  0
LINE
  8
0
 62
7
  6
CONTINUOUS
 10
171.7789658818
 20
131.8257571858
 11
169.9789658818
 21
131.8257571858
  0
LINE
  8
0
 62
7
  6
CONTINUOUS
 10
157.7749658818
 20
131.8257571858
 11
156.4749658818
 21
131.8257571858
  0
LINE
  8
0
 62
7
  6
CONTINUOUS
 10
58.4835490794
 20
143.3374235527
 11
59.2176886065
 21
140.4361323901
  0
LINE
  8
0
 62
7
  6
CONTINUOUS
 10
63.7249658818
 20
136.1297571858
 11
63.7249658818
 21
140.3134788936
  0
LINE
  8
0
 62
7
  6
CONTINUOUS
 10
64.4789658818
 20
147.6257571858
 11
64.4789658818
 21
143.3742196606
  0
LINE
  8
0
 62
7
  6
CONTINUOUS
 10
64.8289658818
 20
115.826267443
 11
64.8289658818
 21
119.3001593198
  0
LINE
  8
0
 62
7
  6
CONTINUOUS
 10
65.5789658818
 20
128.5417409844
 11
65.5789658818
 21
122.3450922733
  0
LINE
  8
0
 62
7
  6
CONTINUOUS
 10
70.0789658818
 20
128.5417410486
 11
70.0789658818
 21
122.3450914733
  0
LINE
  8
0
 62
7
  6
CONTINUOUS
 10
70.8289658818
 20
119.3001593198
 11
70.8289658818
 21
115.826267443
  0
LINE
  8
0
 62
7
  6
CONTINUOUS
 10
71.1789658818
 20
143.3742196606
 11
71.1789658818
 21
147.6257571858
  0
LINE
  8
0
 62
7
  6
CONTINUOUS
 10
71.9329658818
 20
140.313478861
 11
71.9329658818
 21
136.1297787083
  0
LINE
  8
0
 62
7
  6
CONTINUOUS
 10
76.4249658818
 20
140.3134796612
 11
76.4249658818
 21
136.1297766732
  0
LINE
  8
0
 62
7
  6
CONTINUOUS
 10
77.1789658818
 20
143.3742196606
 11
77.1789658818
 21
147.6257571858
  0
LINE
  8
AXES
 62
7
  6
CONTINUOUS
 10
65.5636885568
 20
122.2224385477
 11
65.4335490794
 21
121.7081323405
  0
LINE
  8
0
 62
7
  6
CONTINUOUS
 10
65.5636886065
 20
122.2224387444
 11
64.8335490794
 21
119.3369554277
  0
LINE
  8
0
 62
7
  6
CONTINUOUS
 10
77.1743826843
 20
143.3374235527
 11
76.4402431049
 21
140.4361321836
  0
LINE
  8
AXES
 62
2
  6
CENTER
 10
56.4789658818
 20
144.0257571858
 11
211.3789658818
 21
144.0257571858
  0
LINE
  8
AXES
 62
7
  6
CONTINUOUS
 10
70.0942432069
 20
122.2224385477
 11
70.2243826843
 21
121.7081323405
  0
LINE
  8
0
 62
7
  6
CONTINUOUS
 10
70.0942431048
 20
122.2224389511
 11
70.8243826843
 21
119.3369554277
  0
LINE
  8
0
 62
7
  6
CONTINUOUS
 10
71.1835490794
 20
143.3374235527
 11
71.9176886065
 21
140.4361323901
  0
LINE
  8
0
 62
7
  6
CONTINUOUS
 10
77.5289658818
 20
115.826267443
 11
77.5289658818
 21
119.3001593198
  0
LINE
  8
0
 62
7
  6
CONTINUOUS
 10
78.2789658818
 20
122.3450922407
 11
78.2789658818
 21
128.5417571858
  0
LINE
  8
0
 62
7
  6
CONTINUOUS
 10
82.7789658818
 20
128.5417410486
 11
82.7789658818
 21
122.3450914733
  0
LINE
  8
0
 62
7
  6
CONTINUOUS
 10
83.5289658818
 20
119.3001593198
 11
83.5289658818
 21
115.826267443
  0
LINE
  8
0
 62
7
  6
CONTINUOUS
 10
83.8789658818
 20
143.3742196606
 11
83.8789658818
 21
147.6257571858
  0
LINE
  8
0
 62
7
  6
CONTINUOUS
 10
84.6329658818
 20
136.1297571858
 11
84.6329658818
 21
140.3134788936
  0
LINE
  8
0
 62
7
  6
CONTINUOUS
 10
89.1249658818
 20
140.3134796612
 11
89.1249658818
 21
136.1297766732
  0
LINE
  8
0
 62
7
  6
CONTINUOUS
 10
89.8789658818
 20
143.3742196606
 11
89.8789658818
 21
147.6257571858
  0
LINE
  8
0
 62
7
  6
CONTINUOUS
 10
90.2289658818
 20
115.826267443
 11
90.2289658818
 21
119.3001593198
  0
LINE
  8
0
 62
7
  6
CONTINUOUS
 10
90.9789658818
 20
122.3450922407
 11
90.9789658818
 21
128.5417571858
  0
LINE
  8
AXES
 62
7
  6
CONTINUOUS
 10
78.2636885568
 20
122.2224385477
 11
78.1335490794
 21
121.7081323405
  0
LINE
  8
0
 62
7
  6
CONTINUOUS
 10
77.5335490794
 20
119.3369554277
 11
78.2636886587
 21
122.2224389507
  0
LINE
  8
0
 62
7
  6
CONTINUOUS
 10
89.8743826843
 20
143.3374235527
 11
89.1402431049
 21
140.4361321836
  0
LINE
  8
0
 62
7
  6
CONTINUOUS
 10
59.2289658818
 20
148.3757571858
 11
63.7289658818
 21
148.3757571858
  0
LINE
  8
0
 62
7
  6
CONTINUOUS
 10
71.9289658818
 20
148.3757571858
 11
76.4289658818
 21
148.3757571858
  0
LINE
  8
0
 62
7
  6
CONTINUOUS
 10
84.6289658818
 20
148.3757571858
 11
89.1289658818
 21
148.3757571858
  0
LINE
  8
0
 62
7
  6
CONTINUOUS
 10
97.3289658818
 20
148.3757571858
 11
101.8289658818
 21
148.3757571858
  0
LINE
  8
0
 62
7
  6
CONTINUOUS
 10
110.0289658818
 20
148.3757571858
 11
114.5289658818
 21
148.3757571858
  0
LINE
  8
0
 62
7
  6
CONTINUOUS
 10
122.7289658818
 20
148.3757571858
 11
127.2289658818
 21
148.3757571858
  0
LINE
  8
0
 62
7
  6
CONTINUOUS
 10
135.4289658818
 20
148.3757571858
 11
139.9289658818
 21
148.3757571858
  0
LINE
  8
0
 62
7
  6
CONTINUOUS
 10
148.1289658818
 20
148.3757571858
 11
152.6289658818
 21
148.3757571858
  0
LINE
  8
0
 62
7
  6
CONTINUOUS
 10
161.6209658818
 20
148.3757571858
 11
166.1329658818
 21
148.3757571858
  0
LINE
  8
0
 62
7
  6
CONTINUOUS
 10
175.6249658818
 20
148.3757571858
 11
180.1329658818
 21
148.3757571858
  0
LINE
  8
0
 62
7
  6
CONTINUOUS
 10
190.6249658818
 20
148.3757571858
 11
195.1329658818
 21
148.3757571858
  0
LINE
  8
AXES
 62
7
  6
CONTINUOUS
 10
82.7942432069
 20
122.2224385477
 11
82.9243826843
 21
121.7081323405
  0
LINE
  8
0
 62
7
  6
CONTINUOUS
 10
82.7942431048
 20
122.2224389511
 11
83.5243826843
 21
119.3369554277
  0
LINE
  8
0
 62
7
  6
CONTINUOUS
 10
84.6176885568
 20
140.4361325866
 11
83.8835490794
 21
143.3374235527
  0
LINE
  8
0
 62
7
  6
CONTINUOUS
 10
95.4789658818
 20
128.5417410486
 11
95.4789658818
 21
122.3450914733
  0
LINE
  8
0
 62
7
  6
CONTINUOUS
 10
96.2289658818
 20
119.3001593198
 11
96.2289658818
 21
115.826267443
  0
LINE
  8
0
 62
7
  6
CONTINUOUS
 10
96.5789658818
 20
143.3742196606
 11
96.5789658818
 21
147.6257571858
  0
LINE
  8
0
 62
7
  6
CONTINUOUS
 10
97.3329658818
 20
136.1297571858
 11
97.3329658818
 21
140.3134788936
  0
LINE
  8
0
 62
7
  6
CONTINUOUS
 10
101.8249658818
 20
140.3134796612
 11
101.8249658818
 21
136.1297766732
  0
LINE
  8
0
 62
7
  6
CONTINUOUS
 10
102.5789658818
 20
143.3742196606
 11
102.5789658818
 21
147.6257571858
  0
LINE
  8
0
 62
7
  6
CONTINUOUS
 10
102.9289658818
 20
115.826267443
 11
102.9289658818
 21
119.3001593198
  0
LINE
  8
0
 62
7
  6
CONTINUOUS
 10
103.6789658818
 20
122.3450922407
 11
103.6789658818
 21
128.5417571858
  0
LINE
  8
AXES
 62
7
  6
CONTINUOUS
 10
90.9636885568
 20
122.2224385477
 11
90.8335490794
 21
121.7081323405
  0
LINE
  8
0
 62
7
  6
CONTINUOUS
 10
90.2335490794
 20
119.3369554277
 11
90.9636886587
 21
122.2224389507
  0
LINE
  8
0
 62
7
  6
CONTINUOUS
 10
102.5743826843
 20
143.3374235527
 11
101.8402431049
 21
140.4361321836
  0
LINE
  8
AXES
 62
7
  6
CONTINUOUS
 10
103.6636885568
 20
122.2224385477
 11
103.5335490794
 21
121.7081323405
  0
LINE
  8
0
 62
7
  6
CONTINUOUS
 10
102.9335490794
 20
119.3369554277
 11
103.6636886587
 21
122.2224389507
  0
LINE
  8
0
 62
7
  6
CONTINUOUS
 10
208.0374895948
 20
148.6743833504
 11
206.2244773046
 21
148.026327261
  0
LINE
  8
AXES
 62
7
  6
CONTINUOUS
 10
95.4942432069
 20
122.2224385477
 11
95.6243826843
 21
121.7081323405
  0
LINE
  8
0
 62
7
  6
CONTINUOUS
 10
95.4942431048
 20
122.2224389511
 11
96.2243826843
 21
119.3369554277
  0
LINE
  8
0
 62
7
  6
CONTINUOUS
 10
97.3176885568
 20
140.4361325866
 11
96.5835490794
 21
143.3374235527
  0
LINE
  8
AXES
 62
7
  6
CONTINUOUS
 10
108.1942432069
 20
122.2224385477
 11
108.3243826843
 21
121.7081323405
  0
LINE
  8
0
 62
7
  6
CONTINUOUS
 10
108.1942431048
 20
122.2224389511
 11
108.9243826843
 21
119.3369554277
  0
LINE
  8
0
 62
7
  6
CONTINUOUS
 10
108.1789658818
 20
128.5417410486
 11
108.1789658818
 21
122.3450914733
  0
LINE
  8
0
 62
7
  6
CONTINUOUS
 10
108.9289658818
 20
119.3001593198
 11
108.9289658818
 21
115.826267443
  0
LINE
  8
0
 62
7
  6
CONTINUOUS
 10
109.2789658818
 20
143.3742196606
 11
109.2789658818
 21
147.6257571858
  0
LINE
  8
0
 62
7
  6
CONTINUOUS
 10
110.0329658818
 20
136.1297571858
 11
110.0329658818
 21
140.3134788936
  0
LINE
  8
0
 62
7
  6
CONTINUOUS
 10
114.5249658818
 20
140.3134796612
 11
114.5249658818
 21
136.1297766732
  0
LINE
  8
0
 62
7
  6
CONTINUOUS
 10
115.2789658818
 20
143.3742196606
 11
115.2789658818
 21
147.6257571858
  0
LINE
  8
0
 62
7
  6
CONTINUOUS
 10
115.6289658818
 20
115.826267443
 11
115.6289658818
 21
119.3001593198
  0
LINE
  8
0
 62
7
  6
CONTINUOUS
 10
116.3789658818
 20
122.3450922407
 11
116.3789658818
 21
128.5417571858
  0
LINE
  8
0
 62
7
  6
CONTINUOUS
 10
115.2743826843
 20
143.3374235527
 11
114.5402431049
 21
140.4361321836
  0
LINE
  8
AXES
 62
7
  6
CONTINUOUS
 10
116.3636885568
 20
122.2224385477
 11
116.2335490794
 21
121.7081323405
  0
LINE
  8
0
 62
7
  6
CONTINUOUS
 10
115.6335490794
 20
119.3369554277
 11
116.3636886587
 21
122.2224389507
  0
LINE
  8
0
 62
7
  6
CONTINUOUS
 10
209.3887374263
 20
132.0443556819
 11
207.2344227929
 21
131.2743020402
  0
LINE
  8
0
 62
7
  6
CONTINUOUS
 10
110.0176885568
 20
140.4361325866
 11
109.2835490794
 21
143.3374235527
  0
LINE
  8
AXES
 62
7
  6
CONTINUOUS
 10
120.8942432069
 20
122.2224385477
 11
121.0243826843
 21
121.7081323405
  0
LINE
  8
0
 62
7
  6
CONTINUOUS
 10
120.8942431048
 20
122.2224389511
 11
121.6243826843
 21
119.3369554277
  0
LINE
  8
0
 62
7
  6
CONTINUOUS
 10
120.8789658818
 20
128.5417410486
 11
120.8789658818
 21
122.3450914733
  0
LINE
  8
0
 62
7
  6
CONTINUOUS
 10
121.6289658818
 20
119.3001593198
 11
121.6289658818
 21
115.826267443
  0
LINE
  8
0
 62
7
  6
CONTINUOUS
 10
121.9789658818
 20
143.3742196606
 11
121.9789658818
 21
147.6257571858
  0
LINE
  8
0
 62
7
  6
CONTINUOUS
 10
122.7329658818
 20
136.1297571858
 11
122.7329658818
 21
140.3134788936
  0
LINE
  8
0
 62
7
  6
CONTINUOUS
 10
127.2249658818
 20
140.3134796612
 11
127.2249658818
 21
136.1297766732
  0
LINE
  8
0
 62
7
  6
CONTINUOUS
 10
127.9789658818
 20
143.3742196606
 11
127.9789658818
 21
147.6257571858
  0
LINE
  8
0
 62
7
  6
CONTINUOUS
 10
128.3289658818
 20
115.826267443
 11
128.3289658818
 21
119.3001593198
  0
LINE
  8
0
 62
7
  6
CONTINUOUS
 10
129.0789658818
 20
122.3450922407
 11
129.0789658818
 21
128.5417571858
  0
LINE
  8
0
 62
7
  6
CONTINUOUS
 10
133.5789658818
 20
128.5417410486
 11
133.5789658818
 21
122.3450914733
  0
LINE
  8
0
 62
7
  6
CONTINUOUS
 10
127.9743826843
 20
143.3374235527
 11
127.2402431049
 21
140.4361321836
  0
LINE
  8
AXES
 62
7
  6
CONTINUOUS
 10
129.0636885568
 20
122.2224385477
 11
128.9335490794
 21
121.7081323405
  0
LINE
  8
0
 62
7
  6
CONTINUOUS
 10
128.3335490794
 20
119.3369554277
 11
129.0636886587
 21
122.2224389507
  0
LINE
  8
0
 62
7
  6
CONTINUOUS
 10
122.7176885568
 20
140.4361325866
 11
121.9835490794
 21
143.3374235527
  0
LINE
  8
AXES
 62
7
  6
CONTINUOUS
 10
133.5942432069
 20
122.2224385477
 11
133.7243826843
 21
121.7081323405
  0
LINE
  8
0
 62
7
  6
CONTINUOUS
 10
133.5942431048
 20
122.2224389511
 11
134.3243826843
 21
119.3369554277
  0
LINE
  8
0
 62
7
  6
CONTINUOUS
 10
134.3289658818
 20
119.3001593198
 11
134.3289658818
 21
115.826267443
  0
LINE
  8
0
 62
7
  6
CONTINUOUS
 10
134.6789658818
 20
143.3742196606
 11
134.6789658818
 21
147.6257571858
  0
LINE
  8
0
 62
7
  6
CONTINUOUS
 10
135.4329658818
 20
136.1297571858
 11
135.4329658818
 21
140.3134788936
  0
LINE
  8
0
 62
7
  6
CONTINUOUS
 10
139.9249658818
 20
140.3134796612
 11
139.9249658818
 21
136.1297766732
  0
LINE
  8
0
 62
7
  6
CONTINUOUS
 10
140.6789658818
 20
143.3742196606
 11
140.6789658818
 21
147.6257571858
  0
LINE
  8
0
 62
7
  6
CONTINUOUS
 10
141.0289658818
 20
115.826267443
 11
141.0289658818
 21
119.3001593198
  0
LINE
  8
0
 62
7
  6
CONTINUOUS
 10
141.7789658818
 20
122.3450922407
 11
141.7789658818
 21
128.5417571858
  0
LINE
  8
0
 62
7
  6
CONTINUOUS
 10
146.2789658818
 20
128.5417410486
 11
146.2789658818
 21
122.3450914733
  0
LINE
  8
0
 62
7
  6
CONTINUOUS
 10
147.0289658818
 20
119.3001593198
 11
147.0289658818
 21
115.826267443
  0
LINE
  8
0
 62
7
  6
CONTINUOUS
 10
147.3789658818
 20
143.3742196606
 11
147.3789658818
 21
147.6257571858
  0
LINE
  8
0
 62
7
  6
CONTINUOUS
 10
140.6743826843
 20
143.3374235527
 11
139.9402431049
 21
140.4361321836
  0
LINE
  8
AXES
 62
7
  6
CONTINUOUS
 10
141.7636885568
 20
122.2224385477
 11
141.6335490794
 21
121.7081323405
  0
LINE
  8
0
 62
7
  6
CONTINUOUS
 10
141.0335490794
 20
119.3369554277
 11
141.7636886587
 21
122.2224389507
  0
LINE
  8
0
 62
7
  6
CONTINUOUS
 10
152.6402432069
 20
140.4361325866
 11
153.3743826843
 21
143.3374235527
  0
LINE
  8
0
 62
7
  6
CONTINUOUS
 10
135.4176885568
 20
140.4361325866
 11
134.6835490794
 21
143.3374235527
  0
LINE
  8
AXES
 62
7
  6
CONTINUOUS
 10
146.2942432069
 20
122.2224385477
 11
146.4243826843
 21
121.7081323405
  0
LINE
  8
0
 62
7
  6
CONTINUOUS
 10
146.2942431048
 20
122.2224389511
 11
147.0243826843
 21
119.3369554277
  0
LINE
  8
0
 62
7
  6
CONTINUOUS
 10
148.1329658818
 20
136.1297571858
 11
148.1329658818
 21
140.3134788936
  0
LINE
  8
0
 62
7
  6
CONTINUOUS
 10
152.6249658818
 20
135.6757782684
 11
152.6249658818
 21
140.3134790653
  0
LINE
  8
0
 62
7
  6
CONTINUOUS
 10
153.3789658818
 20
143.3742196606
 11
153.3789658818
 21
147.6257571858
  0
LINE
  8
0
 62
7
  6
CONTINUOUS
 10
154.124980245
 20
115.3055353335
 11
154.124980245
 21
119.3001593198
  0
LINE
  8
0
 62
7
  6
CONTINUOUS
 10
154.8749658818
 20
122.345035478
 11
154.8749658818
 21
128.5417571858
  0
LINE
  8
0
 62
7
  6
CONTINUOUS
 10
159.3749658818
 20
128.1757400276
 11
159.3749658818
 21
122.3450347106
  0
LINE
  8
0
 62
7
  6
CONTINUOUS
 10
160.1249515187
 20
119.3001593198
 11
160.1249515187
 21
115.3055353335
  0
LINE
  8
0
 62
7
  6
CONTINUOUS
 10
160.8709658818
 20
143.3742196606
 11
160.8709658818
 21
147.6257571858
  0
LINE
  8
0
 62
7
  6
CONTINUOUS
 10
161.6249658818
 20
140.313478861
 11
161.6249658818
 21
135.6757760759
  0
LINE
  8
AXES
 62
7
  6
CONTINUOUS
 10
154.7295634425
 20
121.7081323405
 11
154.8596885568
 21
122.2223817851
  0
LINE
  8
0
 62
7
  6
CONTINUOUS
 10
154.1295634425
 20
119.3369554277
 11
154.8596887504
 21
122.2223825502
  0
LINE
  8
0
 62
7
  6
CONTINUOUS
 10
166.1442432069
 20
140.4361325866
 11
166.8783826843
 21
143.3374235527
  0
LINE
  8
0
 62
7
  6
CONTINUOUS
 10
148.1176885568
 20
140.4361325866
 11
147.3835490794
 21
143.3374235527
  0
LINE
  8
AXES
 62
7
  6
CONTINUOUS
 10
159.3902432069
 20
122.2223817851
 11
159.5203683212
 21
121.7081323405
  0
LINE
  8
0
 62
7
  6
CONTINUOUS
 10
159.3902431048
 20
122.2223821884
 11
160.1203683212
 21
119.3369554277
  0
LINE
  8
0
 62
7
  6
CONTINUOUS
 10
160.8755490794
 20
143.3374235527
 11
161.6096886065
 21
140.4361323901
  0
LINE
  8
0
 62
7
  6
CONTINUOUS
 10
166.1289658818
 20
135.6757782684
 11
166.1289658818
 21
140.3134790653
  0
LINE
  8
0
 62
7
  6
CONTINUOUS
 10
166.8829658818
 20
143.3742196606
 11
166.8829658818
 21
147.6257571858
  0
LINE
  8
0
 62
7
  6
CONTINUOUS
 10
167.878980245
 20
115.3116472782
 11
167.878980245
 21
119.3001593198
  0
LINE
  8
0
 62
7
  6
CONTINUOUS
 10
168.6289658818
 20
122.3450350985
 11
168.6289658818
 21
128.1757404542
  0
LINE
  8
0
 62
7
  6
CONTINUOUS
 10
173.1289658818
 20
122.3450355107
 11
173.1289658818
 21
128.1757401427
  0
LINE
  8
0
 62
7
  6
CONTINUOUS
 10
173.8789515187
 20
119.3001593198
 11
173.8789515187
 21
115.3116472782
  0
LINE
  8
0
 62
7
  6
CONTINUOUS
 10
174.8749658818
 20
143.3742196606
 11
174.8749658818
 21
147.6257571858
  0
LINE
  8
0
 62
7
  6
CONTINUOUS
 10
175.6289658818
 20
140.313478861
 11
175.6289658818
 21
135.6757760759
  0
LINE
  8
AXES
 62
7
  6
CONTINUOUS
 10
168.4835634425
 20
121.7081323405
 11
168.6136885568
 21
122.2223817851
  0
LINE
  8
0
 62
7
  6
CONTINUOUS
 10
167.8835634425
 20
119.3369554277
 11
168.6136887504
 21
122.2223825502
  0
LINE
  8
0
 62
7
  6
CONTINUOUS
 10
180.1442432069
 20
140.4361325866
 11
180.8783826843
 21
143.3374235527
  0
LINE
  8
AXES
 62
7
  6
CONTINUOUS
 10
173.1442432069
 20
122.2223817851
 11
173.2743683212
 21
121.7081323405
  0
LINE
  8
0
 62
7
  6
CONTINUOUS
 10
173.8743683212
 20
119.3369554277
 11
173.1442431572
 21
122.2223819815
  0
LINE
  8
0
 62
7
  6
CONTINUOUS
 10
174.8795490794
 20
143.3374235527
 11
175.6136886065
 21
140.4361323901
  0
LINE
  8
0
 62
7
  6
CONTINUOUS
 10
180.1289658818
 20
136.1757774513
 11
180.1289658818
 21
140.3134790653
  0
LINE
  8
0
 62
7
  6
CONTINUOUS
 10
180.8829658818
 20
143.3742196606
 11
180.8829658818
 21
147.6257571858
  0
LINE
  8
0
 62
7
  6
CONTINUOUS
 10
182.378980245
 20
115.3116472782
 11
182.378980245
 21
119.3001593198
  0
LINE
  8
0
 62
7
  6
CONTINUOUS
 10
183.1289658818
 20
128.1757389554
 11
183.1289658818
 21
122.3450353064
  0
LINE
  8
0
 62
7
  6
CONTINUOUS
 10
187.6289658818
 20
128.0257387034
 11
187.6289658818
 21
122.3450347106
  0
LINE
  8
0
 62
7
  6
CONTINUOUS
 10
188.3789515187
 20
119.3001593198
 11
188.3789515187
 21
115.3116472782
  0
LINE
  8
0
 62
7
  6
CONTINUOUS
 10
189.8749658818
 20
143.3742196606
 11
189.8749658818
 21
147.6257571858
  0
LINE
  8
0
 62
7
  6
CONTINUOUS
 10
183.1136885469
 20
122.222381746
 11
182.3835634425
 21
119.3369554277
  0
LINE
  8
AXES
 62
7
  6
CONTINUOUS
 10
182.9835634425
 20
121.7081323405
 11
183.1136885568
 21
122.2223817851
  0
LINE
  8
0
 62
7
  6
CONTINUOUS
 10
195.1442410437
 20
140.436128515
 11
195.8783833333
 21
143.3376457871
  0
LINE
  8
AXES
 62
7
  6
CONTINUOUS
 10
187.6442432069
 20
122.2223817851
 11
187.7743683212
 21
121.7081323405
  0
LINE
  8
0
 62
7
  6
CONTINUOUS
 10
187.6442431048
 20
122.2223821884
 11
188.3743683212
 21
119.3369554277
  0
LINE
  8
0
 62
7
  6
CONTINUOUS
 10
189.8795490794
 20
143.3374235527
 11
190.6136886065
 21
140.4361323901
  0
LINE
  8
0
 62
7
  6
CONTINUOUS
 10
190.6289658818
 20
140.313478861
 11
190.6289658818
 21
136.1757752032
  0
LINE
  8
0
 62
7
  6
CONTINUOUS
 10
195.1289658818
 20
136.0757571858
 11
195.1289658818
 21
140.3134833714
  0
LINE
  8
0
 62
7
  6
CONTINUOUS
 10
195.8829658818
 20
143.3744393301
 11
195.8829658818
 21
147.6257571858
  0
LINE
  8
0
 62
7
  6
CONTINUOUS
 10
198.003980245
 20
115.3116472782
 11
198.003980245
 21
119.3001593198
  0
LINE
  8
0
 62
7
  6
CONTINUOUS
 10
198.7539658818
 20
122.345035478
 11
198.7539658818
 21
127.0257571858
  0
LINE
  8
0
 62
7
  6
CONTINUOUS
 10
203.2539658818
 20
122.3450355107
 11
203.2539658818
 21
125.6243774424
  0
LINE
  8
0
 62
7
  6
CONTINUOUS
 10
204.0039515187
 20
119.3001593198
 11
204.0039515187
 21
115.3116472782
  0
LINE
  8
AXES
 62
7
  6
CONTINUOUS
 10
198.6085634425
 20
121.7081323405
 11
198.7386885568
 21
122.2223817851
  0
LINE
  8
0
 62
7
  6
CONTINUOUS
 10
198.0085634425
 20
119.3369554277
 11
198.7386887504
 21
122.2223825502
  0
LINE
  8
AXES
 62
7
  6
CONTINUOUS
 10
203.2692432069
 20
122.2223817851
 11
203.3993683212
 21
121.7081323405
  0
LINE
  8
0
 62
7
  6
CONTINUOUS
 10
203.9993683212
 20
119.3369554277
 11
203.2692431572
 21
122.2223819815
  0
LINE
  8
0
 62
7
  6
CONTINUOUS
 10
206.1249658818
 20
134.3372751245
 11
206.1249658818
 21
147.8850795935
  0
LINE
  8
0
 62
7
  6
CONTINUOUS
 10
211.3789658818
 20
134.8693309
 11
211.3789658818
 21
146.3202288952
  0
LINE
  8
SURFACE
 62
7
  6
CONTINUOUS
 10
286.6061399948
 20
114.2757571858
 11
282.6061399948
 21
114.2757571858
  0
POLYLINE
  8
0
 62
7
  6
CONTINUOUS
 66
1
 70
0
  0
VERTEX
  8
0
 62
7
  6
CONTINUOUS
 10
279.024838486
 20
146.3758373659
  0
VERTEX
  8
0
 62
7
  6
CONTINUOUS
 10
278.9054679315
 20
146.0484850481
  0
VERTEX
  8
0
 62
7
  6
CONTINUOUS
 10
278.797222628
 20
145.6820437899
  0
VERTEX
  8
0
 62
7
  6
CONTINUOUS
 10
278.7127405934
 20
145.3081239797
  0
VERTEX
  8
0
 62
7
  6
CONTINUOUS
 10
278.7032696144
 20
145.2484176562
  0
SEQEND
  0
LINE
  8
DEFAULT_1
 62
2
  6
CENTER
 10
289.8561399948
 20
118.6257571858
 11
286.6062399948
 21
118.6257571858
  0
LINE
  8
0
 62
2
  6
CONTINUOUS
 10
285.6561399948
 20
118.6257571858
 11
283.5561399948
 21
118.6257571858
  0
LINE
  8
DEFAULT_1
 62
2
  6
CENTER
 10
279.3561399948
 20
118.6257571858
 11
282.6060399948
 21
118.6257571858
  0
LINE
  8
0
 62
7
  6
CONTINUOUS
 10
278.6061399948
 20
118.2757571858
 11
278.6061399948
 21
144.3757571858
  0
LINE
  8
AXES
 62
7
  6
CONTINUOUS
 10
282.5061399948
 20
118.6257571858
 11
282.5061399948
 21
126.6757571858
  0
LINE
  8
AXES
 62
2
  6
CENTER
 10
284.6061399948
 20
149.2757571858
 11
284.6061399948
 21
148.1257571858
  0
LINE
  8
AXES
 62
2
  6
CONTINUOUS
 10
284.6061399948
 20
145.0757571858
 11
284.6061399948
 21
142.9757571858
  0
LINE
  8
DEFAULT_1
 62
2
  6
CENTER
 10
284.6061399948
 20
123.8757571858
 11
284.6061399948
 21
120.6258571858
  0
LINE
  8
0
 62
2
  6
CONTINUOUS
 10
284.6061399948
 20
119.6757571858
 11
284.6061399948
 21
117.5757571858
  0
LINE
  8
DEFAULT_1
 62
2
  6
CENTER
 10
284.6061399948
 20
113.3757571858
 11
284.6061399948
 21
116.6256571858
  0
LINE
  8
AXES
 62
2
  6
CENTER
 10
284.6061399948
 20
138.7757571858
 11
284.6061399948
 21
139.9257571858
  0
LINE
  8
0
 62
7
  6
CONTINUOUS
 10
284.6061399948
 20
130.5417571858
 11
292.6904918558
 21
130.5417571858
  0
LINE
  8
AXES
 62
7
  6
CONTINUOUS
 10
286.7061399948
 20
118.6257571858
 11
286.7061399948
 21
126.6757571858
  0
LINE
  8
0
 62
7
  6
CONTINUOUS
 10
291.2619608441
 20
119.7445626107
 11
291.2625685245
 21
119.7467438961
  0
LINE
  8
0
 62
7
  6
CONTINUOUS
 10
290.8935344909
 20
118.4954440534
 11
290.8922893427
 21
118.4914465431
  0
POLYLINE
  8
0
 62
7
  6
CONTINUOUS
 66
1
 70
0
  0
VERTEX
  8
0
 62
7
  6
CONTINUOUS
 10
290.1198531359
 20
146.3810122688
  0
VERTEX
  8
0
 62
7
  6
CONTINUOUS
 10
290.0434195692
 20
146.5462389922
  0
VERTEX
  8
0
 62
7
  6
CONTINUOUS
 10
289.9445106663
 20
146.7406637297
  0
VERTEX
  8
0
 62
7
  6
CONTINUOUS
 10
289.8351071793
 20
146.9342560492
  0
VERTEX
  8
0
 62
7
  6
CONTINUOUS
 10
289.714327198
 20
147.1261093834
  0
VERTEX
  8
0
 62
7
  6
CONTINUOUS
 10
289.5813114684
 20
147.3151573929
  0
VERTEX
  8
0
 62
7
  6
CONTINUOUS
 10
289.4352001281
 20
147.5002330221
  0
VERTEX
  8
0
 62
7
  6
CONTINUOUS
 10
289.2751434341
 20
147.6800555313
  0
VERTEX
  8
0
 62
7
  6
CONTINUOUS
 10
289.1003126861
 20
147.8532224853
  0
VERTEX
  8
0
 62
7
  6
CONTINUOUS
 10
288.909899844
 20
148.0182122111
  0
VERTEX
  8
0
 62
7
  6
CONTINUOUS
 10
288.7032078457
 20
148.1733206171
  0
VERTEX
  8
0
 62
7
  6
CONTINUOUS
 10
288.4800411211
 20
148.3164738667
  0
VERTEX
  8
0
 62
7
  6
CONTINUOUS
 10
288.2404510045
 20
148.4455786965
  0
VERTEX
  8
0
 62
7
  6
CONTINUOUS
 10
287.9845789711
 20
148.5586477097
  0
VERTEX
  8
0
 62
7
  6
CONTINUOUS
 10
287.7124529362
 20
148.653843364
  0
VERTEX
  8
0
 62
7
  6
CONTINUOUS
 10
287.4238587397
 20
148.7294040603
  0
VERTEX
  8
0
 62
7
  6
CONTINUOUS
 10
287.1185979327
 20
148.7834629074
  0
VERTEX
  8
0
 62
7
  6
CONTINUOUS
 10
286.7975308397
 20
148.8139571975
  0
VERTEX
  8
0
 62
7
  6
CONTINUOUS
 10
286.5663327807
 20
148.8202567287
  0
SEQEND
  0
POLYLINE
  8
0
 62
7
  6
CONTINUOUS
 66
1
 70
0
  0
VERTEX
  8
0
 62
7
  6
CONTINUOUS
 10
290.2775476216
 20
145.9883900637
  0
VERTEX
  8
0
 62
7
  6
CONTINUOUS
 10
290.2324566404
 20
146.1090951846
  0
VERTEX
  8
0
 62
7
  6
CONTINUOUS
 10
290.1720929317
 20
146.259510317
  0
VERTEX
  8
0
 62
7
  6
CONTINUOUS
 10
290.1198534269
 20
146.3810123977
  0
SEQEND
  0
LINE
  8
0
 62
7
  6
CONTINUOUS
 10
290.2778196853
 20
145.9876370707
 11
290.2775476109
 21
145.9883899887
  0
LINE
  8
0
 62
7
  6
CONTINUOUS
 10
291.48173605
 20
142.0870333586
 11
291.480660707
 21
142.0912081051
  0
LINE
  8
0
 62
7
  6
CONTINUOUS
 10
291.9173506375
 20
140.2257361666
 11
291.9165967386
 21
140.2293119705
  0
LINE
  8
0
 62
7
  6
CONTINUOUS
 10
292.2481627146
 20
138.478726642
 11
292.2477370754
 21
138.4812583076
  0
LINE
  8
AXES
 62
2
  6
CENTER
 10
289.8561399948
 20
144.0257571858
 11
288.7061399948
 21
144.0257571858
  0
LINE
  8
AXES
 62
2
  6
CONTINUOUS
 10
285.6561399948
 20
144.0257571858
 11
283.5561399948
 21
144.0257571858
  0
LINE
  8
AXES
 62
2
  6
CENTER
 10
279.3561399948
 20
144.0257571858
 11
280.5061399948
 21
144.0257571858
  0
POLYLINE
  8
0
 62
7
  6
CONTINUOUS
 66
1
 70
0
  0
VERTEX
  8
0
 62
7
  6
CONTINUOUS
 10
282.7261906662
 20
148.8202565269
  0
VERTEX
  8
0
 62
7
  6
CONTINUOUS
 10
282.4896431774
 20
148.8145499759
  0
VERTEX
  8
0
 62
7
  6
CONTINUOUS
 10
282.1621011602
 20
148.7869976452
  0
VERTEX
  8
0
 62
7
  6
CONTINUOUS
 10
281.8531359134
 20
148.7386435142
  0
VERTEX
  8
0
 62
7
  6
CONTINUOUS
 10
281.5621274291
 20
148.6714832853
  0
VERTEX
  8
0
 62
7
  6
CONTINUOUS
 10
281.2876779078
 20
148.5870037484
  0
VERTEX
  8
0
 62
7
  6
CONTINUOUS
 10
281.0284694982
 20
148.4862607096
  0
VERTEX
  8
0
 62
7
  6
CONTINUOUS
 10
280.7840627797
 20
148.3703072883
  0
VERTEX
  8
0
 62
7
  6
CONTINUOUS
 10
280.554812566
 20
148.2405149148
  0
VERTEX
  8
0
 62
7
  6
CONTINUOUS
 10
280.3410620123
 20
148.0984015329
  0
VERTEX
  8
0
 62
7
  6
CONTINUOUS
 10
280.1430770309
 20
147.9456359365
  0
VERTEX
  8
0
 62
7
  6
CONTINUOUS
 10
279.9609646116
 20
147.7839932134
  0
VERTEX
  8
0
 62
7
  6
CONTINUOUS
 10
279.794686561
 20
147.6153580823
  0
VERTEX
  8
0
 62
7
  6
CONTINUOUS
 10
279.6439604073
 20
147.4415979894
  0
VERTEX
  8
0
 62
7
  6
CONTINUOUS
 10
279.5079221243
 20
147.2640069647
  0
VERTEX
  8
0
 62
7
  6
CONTINUOUS
 10
279.3855751815
 20
147.0835884446
  0
VERTEX
  8
0
 62
7
  6
CONTINUOUS
 10
279.275944266
 20
146.9011964694
  0
VERTEX
  8
0
 62
7
  6
CONTINUOUS
 10
279.1780806412
 20
146.717538027
  0
VERTEX
  8
0
 62
7
  6
CONTINUOUS
 10
279.091057729
 20
146.533142735
  0
VERTEX
  8
0
 62
7
  6
CONTINUOUS
 10
279.0248386835
 20
146.3758372872
  0
SEQEND
  0
LINE
  8
0
 62
7
  6
CONTINUOUS
 10
286.6061399948
 20
148.3757571858
 11
282.6061399948
 21
148.3757571858
  0
LINE
  8
0
 62
7
  6
CONTINUOUS
 10
286.5655852667
 20
148.820255559
 11
282.7250407605
 21
148.8202555218
  0
LINE
  8
0
 62
7
  6
CONTINUOUS
 10
286.5672577382
 20
148.8202555141
 11
286.5663545777
 21
148.8202555465
  0
POLYLINE
  8
AXES
 62
7
  6
CONTINUOUS
 66
1
 70
0
  0
VERTEX
  8
AXES
 62
7
  6
CONTINUOUS
 10
182.2607971211
 20
205.9216103193
  0
VERTEX
  8
AXES
 62
7
  6
CONTINUOUS
 10
182.1282581016
 20
205.887199705
  0
VERTEX
  8
AXES
 62
7
  6
CONTINUOUS
 10
181.994639986
 20
205.8416924826
  0
VERTEX
  8
AXES
 62
7
  6
CONTINUOUS
 10
181.8619974746
 20
205.786658136
  0
VERTEX
  8
AXES
 62
7
  6
CONTINUOUS
 10
181.7326172341
 20
205.7244094638
  0
VERTEX
  8
AXES
 62
7
  6
CONTINUOUS
 10
181.608653775
 20
205.6576344266
  0
VERTEX
  8
AXES
 62
7
  6
CONTINUOUS
 10
181.493756526
 20
205.590140465
  0
VERTEX
  8
AXES
 62
7
  6
CONTINUOUS
 10
181.3911076308
 20
205.5257050571
  0
VERTEX
  8
AXES
 62
7
  6
CONTINUOUS
 10
181.3030338439
 20
205.4675356674
  0
VERTEX
  8
AXES
 62
7
  6
CONTINUOUS
 10
181.230549423
 20
205.4177414407
  0
VERTEX
  8
AXES
 62
7
  6
CONTINUOUS
 10
181.1731703375
 20
205.3770605361
  0
VERTEX
  8
AXES
 62
7
  6
CONTINUOUS
 10
181.1300693897
 20
205.3456454043
  0
VERTEX
  8
AXES
 62
7
  6
CONTINUOUS
 10
181.1002649481
 20
205.3232643977
  0
VERTEX
  8
AXES
 62
7
  6
CONTINUOUS
 10
181.0834143399
 20
205.3099622636
  0
VERTEX
  8
AXES
 62
7
  6
CONTINUOUS
 10
181.078965887
 20
205.3056737857
  0
SEQEND
  0
POLYLINE
  8
0
 62
7
  6
CONTINUOUS
 66
1
 70
0
  0
VERTEX
  8
0
 62
7
  6
CONTINUOUS
 10
181.592349461
 20
201.4530739523
  0
VERTEX
  8
0
 62
7
  6
CONTINUOUS
 10
181.6911766198
 20
201.4697920345
  0
VERTEX
  8
0
 62
7
  6
CONTINUOUS
 10
181.7990879299
 20
201.4868204156
  0
VERTEX
  8
0
 62
7
  6
CONTINUOUS
 10
181.914618588
 20
201.5031741658
  0
VERTEX
  8
0
 62
7
  6
CONTINUOUS
 10
182.0361673535
 20
201.5179405905
  0
VERTEX
  8
0
 62
7
  6
CONTINUOUS
 10
182.1621423608
 20
201.530347913
  0
VERTEX
  8
0
 62
7
  6
CONTINUOUS
 10
182.2913288647
 20
201.5398206583
  0
VERTEX
  8
0
 62
7
  6
CONTINUOUS
 10
182.4229715287
 20
201.5459560864
  0
VERTEX
  8
0
 62
7
  6
CONTINUOUS
 10
182.5562697449
 20
201.548470416
  0
SEQEND
  0
POLYLINE
  8
0
 62
7
  6
CONTINUOUS
 66
1
 70
0
  0
VERTEX
  8
0
 62
7
  6
CONTINUOUS
 10
181.2699204281
 20
201.4055903209
  0
VERTEX
  8
0
 62
7
  6
CONTINUOUS
 10
181.3098169652
 20
201.4078774515
  0
VERTEX
  8
0
 62
7
  6
CONTINUOUS
 10
181.362040539
 20
201.4143365336
  0
VERTEX
  8
0
 62
7
  6
CONTINUOUS
 10
181.4268960693
 20
201.4244810932
  0
VERTEX
  8
0
 62
7
  6
CONTINUOUS
 10
181.592349461
 20
201.4530739523
  0
SEQEND
  0
LINE
  8
AXES
 62
7
  6
CONTINUOUS
 10
58.4789658818
 20
202.1555612643
 11
58.4789658818
 21
205.4092188992
  0
LINE
  8
AXES
 62
7
  6
CONTINUOUS
 10
58.4789658818
 20
205.4216052379
 11
58.4789658818
 21
209.3895754039
  0
LINE
  8
AXES
 62
7
  6
CONTINUOUS
 10
58.4789658818
 20
209.4019617425
 11
58.4789658818
 21
213.1467325355
  0
LINE
  8
0
 62
7
  6
CONTINUOUS
 10
59.2329658818
 20
201.5555903209
 11
59.2329658818
 21
215.4940738279
  0
POLYLINE
  8
AXES
 62
7
  6
CONTINUOUS
 66
1
 70
0
  0
VERTEX
  8
AXES
 62
7
  6
CONTINUOUS
 10
58.8407555853
 20
207.4055903209
  0
VERTEX
  8
AXES
 62
7
  6
CONTINUOUS
 10
58.8380155395
 20
207.1926051642
  0
VERTEX
  8
AXES
 62
7
  6
CONTINUOUS
 10
58.8298148394
 20
206.9816473583
  0
VERTEX
  8
AXES
 62
7
  6
CONTINUOUS
 10
58.816212406
 20
206.7747450438
  0
VERTEX
  8
AXES
 62
7
  6
CONTINUOUS
 10
58.7973086271
 20
206.5739282275
  0
VERTEX
  8
AXES
 62
7
  6
CONTINUOUS
 10
58.7732482512
 20
206.3812232726
  0
VERTEX
  8
AXES
 62
7
  6
CONTINUOUS
 10
58.7442240963
 20
206.1986441681
  0
VERTEX
  8
AXES
 62
7
  6
CONTINUOUS
 10
58.710481067
 20
206.0281770185
  0
VERTEX
  8
AXES
 62
7
  6
CONTINUOUS
 10
58.6723196132
 20
205.8717561726
  0
VERTEX
  8
AXES
 62
7
  6
CONTINUOUS
 10
58.6300984679
 20
205.7312348884
  0
VERTEX
  8
AXES
 62
7
  6
CONTINUOUS
 10
58.5842359199
 20
205.6083497581
  0
VERTEX
  8
AXES
 62
7
  6
CONTINUOUS
 10
58.535208809
 20
205.5046800129
  0
VERTEX
  8
AXES
 62
7
  6
CONTINUOUS
 10
58.4835490794
 20
205.4216052379
  0
SEQEND
  0
LINE
  8
0
 62
7
  6
CONTINUOUS
 10
58.4797352641
 20
213.1826036724
 11
58.4789663901
 21
213.1467325486
  0
POLYLINE
  8
AXES
 62
7
  6
CONTINUOUS
 66
1
 70
0
  0
VERTEX
  8
AXES
 62
7
  6
CONTINUOUS
 10
58.4835490794
 20
205.4216052379
  0
VERTEX
  8
AXES
 62
7
  6
CONTINUOUS
 10
58.4801145955
 20
205.4153612107
  0
VERTEX
  8
AXES
 62
7
  6
CONTINUOUS
 10
58.4789658818
 20
205.4092188992
  0
SEQEND
  0
POLYLINE
  8
0
 62
7
  6
CONTINUOUS
 66
1
 70
0
  0
VERTEX
  8
0
 62
7
  6
CONTINUOUS
 10
59.0595999462
 20
214.4356223889
  0
VERTEX
  8
0
 62
7
  6
CONTINUOUS
 10
59.0364949827
 20
214.4110239729
  0
VERTEX
  8
0
 62
7
  6
CONTINUOUS
 10
59.0142888933
 20
214.3863925376
  0
VERTEX
  8
0
 62
7
  6
CONTINUOUS
 10
58.9928547706
 20
214.3616805186
  0
VERTEX
  8
0
 62
7
  6
CONTINUOUS
 10
58.9720633944
 20
214.3368116393
  0
VERTEX
  8
0
 62
7
  6
CONTINUOUS
 10
58.9517985117
 20
214.3117006466
  0
VERTEX
  8
0
 62
7
  6
CONTINUOUS
 10
58.9319534793
 20
214.2862553292
  0
VERTEX
  8
0
 62
7
  6
CONTINUOUS
 10
58.9124769733
 20
214.2604378524
  0
VERTEX
  8
0
 62
7
  6
CONTINUOUS
 10
58.8933608086
 20
214.2342584893
  0
VERTEX
  8
0
 62
7
  6
CONTINUOUS
 10
58.8745992325
 20
214.207730206
  0
VERTEX
  8
0
 62
7
  6
CONTINUOUS
 10
58.8561805466
 20
214.1808544562
  0
VERTEX
  8
0
 62
7
  6
CONTINUOUS
 10
58.8380993902
 20
214.153637048
  0
VERTEX
  8
0
 62
7
  6
CONTINUOUS
 10
58.8203516073
 20
214.1260855064
  0
VERTEX
  8
0
 62
7
  6
CONTINUOUS
 10
58.8029274167
 20
214.0981947641
  0
VERTEX
  8
0
 62
7
  6
CONTINUOUS
 10
58.7858243804
 20
214.0699672492
  0
VERTEX
  8
0
 62
7
  6
CONTINUOUS
 10
58.7690381484
 20
214.0414022535
  0
VERTEX
  8
0
 62
7
  6
CONTINUOUS
 10
58.7525618906
 20
214.0124887431
  0
VERTEX
  8
0
 62
7
  6
CONTINUOUS
 10
58.7363975928
 20
213.9832292059
  0
VERTEX
  8
0
 62
7
  6
CONTINUOUS
 10
58.720541717
 20
213.9536137767
  0
VERTEX
  8
0
 62
7
  6
CONTINUOUS
 10
58.7049973004
 20
213.9236387123
  0
VERTEX
  8
0
 62
7
  6
CONTINUOUS
 10
58.6897650101
 20
213.8932957985
  0
VERTEX
  8
0
 62
7
  6
CONTINUOUS
 10
58.6748455831
 20
213.8625682628
  0
VERTEX
  8
0
 62
7
  6
CONTINUOUS
 10
58.6602438072
 20
213.8314465302
  0
VERTEX
  8
0
 62
7
  6
CONTINUOUS
 10
58.6459600724
 20
213.799902017
  0
VERTEX
  8
0
 62
7
  6
CONTINUOUS
 10
58.6320023453
 20
213.767918535
  0
VERTEX
  8
0
 62
7
  6
CONTINUOUS
 10
58.6183727526
 20
213.7354548109
  0
VERTEX
  8
0
 62
7
  6
CONTINUOUS
 10
58.6050824494
 20
213.7024827928
  0
VERTEX
  8
0
 62
7
  6
CONTINUOUS
 10
58.5921379704
 20
213.6689456258
  0
VERTEX
  8
0
 62
7
  6
CONTINUOUS
 10
58.5795650685
 20
213.6348250866
  0
VERTEX
  8
0
 62
7
  6
CONTINUOUS
 10
58.5674011499
 20
213.6001142142
  0
VERTEX
  8
0
 62
7
  6
CONTINUOUS
 10
58.5556866039
 20
213.5648072002
  0
VERTEX
  8
0
 62
7
  6
CONTINUOUS
 10
58.544469901
 20
213.528896443
  0
VERTEX
  8
0
 62
7
  6
CONTINUOUS
 10
58.5337982462
 20
213.4923451509
  0
VERTEX
  8
0
 62
7
  6
CONTINUOUS
 10
58.5237311022
 20
213.4551228882
  0
VERTEX
  8
0
 62
7
  6
CONTINUOUS
 10
58.5143441798
 20
213.4171996842
  0
VERTEX
  8
0
 62
7
  6
CONTINUOUS
 10
58.5057500915
 20
213.3786421555
  0
VERTEX
  8
0
 62
7
  6
CONTINUOUS
 10
58.4980808665
 20
213.3395699573
  0
VERTEX
  8
0
 62
7
  6
CONTINUOUS
 10
58.4914834088
 20
213.3001469411
  0
VERTEX
  8
0
 62
7
  6
CONTINUOUS
 10
58.486119902
 20
213.260614183
  0
VERTEX
  8
0
 62
7
  6
CONTINUOUS
 10
58.4821526152
 20
213.221271025
  0
VERTEX
  8
0
 62
7
  6
CONTINUOUS
 10
58.4797352641
 20
213.1826036724
  0
SEQEND
  0
POLYLINE
  8
0
 62
7
  6
CONTINUOUS
 66
1
 70
0
  0
VERTEX
  8
0
 62
7
  6
CONTINUOUS
 10
59.1278419538
 20
214.5023038645
  0
VERTEX
  8
0
 62
7
  6
CONTINUOUS
 10
59.1090525375
 20
214.4848226104
  0
VERTEX
  8
0
 62
7
  6
CONTINUOUS
 10
59.0837351629
 20
214.4602159116
  0
VERTEX
  8
0
 62
7
  6
CONTINUOUS
 10
59.0595999462
 20
214.4356223889
  0
SEQEND
  0
POLYLINE
  8
0
 62
7
  6
CONTINUOUS
 66
1
 70
0
  0
VERTEX
  8
0
 62
7
  6
CONTINUOUS
 10
65.4779796204
 20
214.507704061
  0
VERTEX
  8
0
 62
7
  6
CONTINUOUS
 10
65.4598605147
 20
214.4908992053
  0
VERTEX
  8
0
 62
7
  6
CONTINUOUS
 10
65.4345028012
 20
214.4663428615
  0
VERTEX
  8
0
 62
7
  6
CONTINUOUS
 10
65.4103319137
 20
214.4417974921
  0
VERTEX
  8
0
 62
7
  6
CONTINUOUS
 10
65.3871953061
 20
214.4172459234
  0
VERTEX
  8
0
 62
7
  6
CONTINUOUS
 10
65.3649611989
 20
214.3926604202
  0
VERTEX
  8
0
 62
7
  6
CONTINUOUS
 10
65.3435035673
 20
214.3679952555
  0
VERTEX
  8
0
 62
7
  6
CONTINUOUS
 10
65.3226932934
 20
214.3431757323
  0
VERTEX
  8
0
 62
7
  6
CONTINUOUS
 10
65.3024133737
 20
214.3181164907
  0
VERTEX
  8
0
 62
7
  6
CONTINUOUS
 10
65.2825580095
 20
214.2927270324
  0
VERTEX
  8
0
 62
7
  6
CONTINUOUS
 10
65.2630766088
 20
214.2669717459
  0
VERTEX
  8
0
 62
7
  6
CONTINUOUS
 10
65.2439589474
 20
214.240858747
  0
VERTEX
  8
0
 62
7
  6
CONTINUOUS
 10
65.2251990883
 20
214.2144008766
  0
VERTEX
  8
0
 62
7
  6
CONTINUOUS
 10
65.2067854133
 20
214.1876007374
  0
VERTEX
  8
0
 62
7
  6
CONTINUOUS
 10
65.1887103743
 20
214.1604612342
  0
VERTEX
  8
0
 62
7
  6
CONTINUOUS
 10
65.1709699889
 20
214.1329899954
  0
VERTEX
  8
0
 62
7
  6
CONTINUOUS
 10
65.1535540612
 20
214.1051822809
  0
VERTEX
  8
0
 62
7
  6
CONTINUOUS
 10
65.1364582892
 20
214.0770373228
  0
VERTEX
  8
0
 62
7
  6
CONTINUOUS
 10
65.1196791335
 20
214.0485555997
  0
VERTEX
  8
0
 62
7
  6
CONTINUOUS
 10
65.1032081868
 20
214.0197241316
  0
VERTEX
  8
0
 62
7
  6
CONTINUOUS
 10
65.0870473127
 20
213.9905443305
  0
VERTEX
  8
0
 62
7
  6
CONTINUOUS
 10
65.0711942493
 20
213.9610093045
  0
VERTEX
  8
0
 62
7
  6
CONTINUOUS
 10
65.0556504826
 20
213.9311121563
  0
VERTEX
  8
0
 62
7
  6
CONTINUOUS
 10
65.0404185716
 20
213.9008482314
  0
VERTEX
  8
0
 62
7
  6
CONTINUOUS
 10
65.0254977918
 20
213.8701985281
  0
VERTEX
  8
0
 62
7
  6
CONTINUOUS
 10
65.0108941994
 20
213.8391555327
  0
VERTEX
  8
0
 62
7
  6
CONTINUOUS
 10
64.9966074177
 20
213.8076902487
  0
VERTEX
  8
0
 62
7
  6
CONTINUOUS
 10
64.9826461602
 20
213.7757875212
  0
VERTEX
  8
0
 62
7
  6
CONTINUOUS
 10
64.9690120028
 20
213.7434065014
  0
VERTEX
  8
0
 62
7
  6
CONTINUOUS
 10
64.9557167756
 20
213.7105202906
  0
VERTEX
  8
0
 62
7
  6
CONTINUOUS
 10
64.942766134
 20
213.6770720763
  0
VERTEX
  8
0
 62
7
  6
CONTINUOUS
 10
64.9301867891
 20
213.6430461713
  0
VERTEX
  8
0
 62
7
  6
CONTINUOUS
 10
64.9180141225
 20
213.608432292
  0
VERTEX
  8
0
 62
7
  6
CONTINUOUS
 10
64.9062900146
 20
213.5732306968
  0
VERTEX
  8
0
 62
7
  6
CONTINUOUS
 10
64.8950608258
 20
213.5374289264
  0
VERTEX
  8
0
 62
7
  6
CONTINUOUS
 10
64.8843731035
 20
213.5009926079
  0
VERTEX
  8
0
 62
7
  6
CONTINUOUS
 10
64.8742866021
 20
213.4638954843
  0
VERTEX
  8
0
 62
7
  6
CONTINUOUS
 10
64.8648746332
 20
213.4261042289
  0
VERTEX
  8
0
 62
7
  6
CONTINUOUS
 10
64.8562478706
 20
213.3876857693
  0
VERTEX
  8
0
 62
7
  6
CONTINUOUS
 10
64.8485365934
 20
213.3487624564
  0
VERTEX
  8
0
 62
7
  6
CONTINUOUS
 10
64.8418850339
 20
213.3094950518
  0
VERTEX
  8
0
 62
7
  6
CONTINUOUS
 10
64.8364514332
 20
213.2701156558
  0
VERTEX
  8
0
 62
7
  6
CONTINUOUS
 10
64.832394618
 20
213.2309145617
  0
VERTEX
  8
0
 62
7
  6
CONTINUOUS
 10
64.8298660081
 20
213.1923585349
  0
VERTEX
  8
0
 62
7
  6
CONTINUOUS
 10
64.8289663651
 20
213.153502161
  0
SEQEND
  0
POLYLINE
  8
0
 62
7
  6
CONTINUOUS
 66
1
 70
0
  0
VERTEX
  8
0
 62
7
  6
CONTINUOUS
 10
59.2216107112
 20
214.5862146485
  0
VERTEX
  8
0
 62
7
  6
CONTINUOUS
 10
59.1707513909
 20
214.5411189378
  0
VERTEX
  8
0
 62
7
  6
CONTINUOUS
 10
59.1278390663
 20
214.5023005528
  0
SEQEND
  0
POLYLINE
  8
0
 62
7
  6
CONTINUOUS
 66
1
 70
0
  0
VERTEX
  8
0
 62
7
  6
CONTINUOUS
 10
65.5696772236
 20
214.5895900466
  0
VERTEX
  8
0
 62
7
  6
CONTINUOUS
 10
65.5201803069
 20
214.5457879459
  0
VERTEX
  8
0
 62
7
  6
CONTINUOUS
 10
65.4779765774
 20
214.507700542
  0
SEQEND
  0
LINE
  8
0
 62
7
  6
CONTINUOUS
 10
59.2329658818
 20
214.596078553
 11
59.2216107112
 21
214.5862146485
  0
LINE
  8
0
 62
7
  6
CONTINUOUS
 10
65.6113205401
 20
214.6257193946
 11
65.5696772236
 21
214.5895900466
  0
LINE
  8
SURFACE
 62
7
  6
CONTINUOUS
 10
146.2789658818
 20
201.4055903209
 11
141.7789658818
 21
201.4055903209
  0
LINE
  8
SURFACE
 62
7
  6
CONTINUOUS
 10
133.5789658818
 20
201.4055903209
 11
129.0789658818
 21
201.4055903209
  0
LINE
  8
SURFACE
 62
7
  6
CONTINUOUS
 10
108.1789658818
 20
201.4055903209
 11
103.6789658818
 21
201.4055903209
  0
LINE
  8
SURFACE
 62
7
  6
CONTINUOUS
 10
95.4789658818
 20
201.4055903209
 11
90.9789658818
 21
201.4055903209
  0
LINE
  8
SURFACE
 62
7
  6
CONTINUOUS
 10
82.7789658818
 20
201.4055903209
 11
78.2789658818
 21
201.4055903209
  0
LINE
  8
0
 62
7
  6
CONTINUOUS
 10
59.2289665479
 20
201.4055903209
 11
211.2289658818
 21
201.4055903209
  0
LINE
  8
AXES
 62
2
  6
CENTER
 10
56.4789658818
 20
207.4055903209
 11
211.3789658818
 21
207.4055903209
  0
POLYLINE
  8
0
 62
7
  6
CONTINUOUS
 66
1
 70
0
  0
VERTEX
  8
0
 62
7
  6
CONTINUOUS
 10
189.4880113356
 20
201.4055903209
  0
VERTEX
  8
0
 62
7
  6
CONTINUOUS
 10
189.4443217824
 20
201.4082549457
  0
VERTEX
  8
0
 62
7
  6
CONTINUOUS
 10
189.3860737486
 20
201.4157684094
  0
VERTEX
  8
0
 62
7
  6
CONTINUOUS
 10
189.3130158188
 20
201.4275005128
  0
SEQEND
  0
POLYLINE
  8
AXES
 62
7
  6
CONTINUOUS
 66
1
 70
0
  0
VERTEX
  8
AXES
 62
7
  6
CONTINUOUS
 10
58.4835490794
 20
209.3895754039
  0
VERTEX
  8
AXES
 62
7
  6
CONTINUOUS
 10
58.5352087929
 20
209.3065006587
  0
VERTEX
  8
AXES
 62
7
  6
CONTINUOUS
 10
58.5842359382
 20
209.20283084
  0
VERTEX
  8
AXES
 62
7
  6
CONTINUOUS
 10
58.6300985385
 20
209.0799455422
  0
VERTEX
  8
AXES
 62
7
  6
CONTINUOUS
 10
58.6723197432
 20
208.9394239886
  0
VERTEX
  8
AXES
 62
7
  6
CONTINUOUS
 10
58.7104812502
 20
208.7830027899
  0
VERTEX
  8
AXES
 62
7
  6
CONTINUOUS
 10
58.744224312
 20
208.61253526
  0
VERTEX
  8
AXES
 62
7
  6
CONTINUOUS
 10
58.7732484719
 20
208.4299558078
  0
VERTEX
  8
AXES
 62
7
  6
CONTINUOUS
 10
58.7973088223
 20
208.2372506252
  0
VERTEX
  8
AXES
 62
7
  6
CONTINUOUS
 10
58.8162125499
 20
208.0364337923
  0
VERTEX
  8
AXES
 62
7
  6
CONTINUOUS
 10
58.8298149201
 20
207.829531736
  0
VERTEX
  8
AXES
 62
7
  6
CONTINUOUS
 10
58.838015564
 20
207.6185745258
  0
VERTEX
  8
AXES
 62
7
  6
CONTINUOUS
 10
58.8407555853
 20
207.4055903209
  0
SEQEND
  0
POLYLINE
  8
AXES
 62
7
  6
CONTINUOUS
 66
1
 70
0
  0
VERTEX
  8
AXES
 62
7
  6
CONTINUOUS
 10
58.4789658818
 20
209.4019617425
  0
VERTEX
  8
AXES
 62
7
  6
CONTINUOUS
 10
58.4801145955
 20
209.395819431
  0
VERTEX
  8
AXES
 62
7
  6
CONTINUOUS
 10
58.4835490794
 20
209.3895754039
  0
SEQEND
  0
POLYLINE
  8
0
 62
7
  6
CONTINUOUS
 66
1
 70
0
  0
VERTEX
  8
0
 62
7
  6
CONTINUOUS
 10
70.828964898
 20
213.153502158
  0
VERTEX
  8
0
 62
7
  6
CONTINUOUS
 10
70.8280714427
 20
213.1922384027
  0
VERTEX
  8
0
 62
7
  6
CONTINUOUS
 10
70.8255234933
 20
213.2310778241
  0
VERTEX
  8
0
 62
7
  6
CONTINUOUS
 10
70.8214402345
 20
213.2704453715
  0
VERTEX
  8
0
 62
7
  6
CONTINUOUS
 10
70.8160196951
 20
213.3096676005
  0
VERTEX
  8
0
 62
7
  6
CONTINUOUS
 10
70.8094741497
 20
213.3483325218
  0
VERTEX
  8
0
 62
7
  6
CONTINUOUS
 10
70.8019733769
 20
213.3863173945
  0
VERTEX
  8
0
 62
7
  6
CONTINUOUS
 10
70.7936397799
 20
213.4236394851
  0
VERTEX
  8
0
 62
7
  6
CONTINUOUS
 10
70.7845700461
 20
213.4603323225
  0
VERTEX
  8
0
 62
7
  6
CONTINUOUS
 10
70.7748455277
 20
213.4964219221
  0
VERTEX
  8
0
 62
7
  6
CONTINUOUS
 10
70.7645406368
 20
213.5319032179
  0
VERTEX
  8
0
 62
7
  6
CONTINUOUS
 10
70.7536984319
 20
213.566837826
  0
VERTEX
  8
0
 62
7
  6
CONTINUOUS
 10
70.7423351188
 20
213.6013355568
  0
VERTEX
  8
0
 62
7
  6
CONTINUOUS
 10
70.7304629339
 20
213.6354710995
  0
VERTEX
  8
0
 62
7
  6
CONTINUOUS
 10
70.7180824477
 20
213.6693254775
  0
VERTEX
  8
0
 62
7
  6
CONTINUOUS
 10
70.7051987509
 20
213.7029449449
  0
VERTEX
  8
0
 62
7
  6
CONTINUOUS
 10
70.6918049325
 20
213.7363849769
  0
VERTEX
  8
0
 62
7
  6
CONTINUOUS
 10
70.6778944585
 20
213.7696897247
  0
VERTEX
  8
0
 62
7
  6
CONTINUOUS
 10
70.663455493
 20
213.8028967799
  0
VERTEX
  8
0
 62
7
  6
CONTINUOUS
 10
70.6484761707
 20
213.8360381149
  0
VERTEX
  8
0
 62
7
  6
CONTINUOUS
 10
70.6329432219
 20
213.8691337255
  0
VERTEX
  8
0
 62
7
  6
CONTINUOUS
 10
70.6168426792
 20
213.9022017346
  0
VERTEX
  8
0
 62
7
  6
CONTINUOUS
 10
70.6001754956
 20
213.9352191138
  0
VERTEX
  8
0
 62
7
  6
CONTINUOUS
 10
70.58295358
 20
213.9681443321
  0
VERTEX
  8
0
 62
7
  6
CONTINUOUS
 10
70.5651885961
 20
214.000932582
  0
VERTEX
  8
0
 62
7
  6
CONTINUOUS
 10
70.5468939384
 20
214.0335405418
  0
VERTEX
  8
0
 62
7
  6
CONTINUOUS
 10
70.5280784185
 20
214.0659297233
  0
VERTEX
  8
0
 62
7
  6
CONTINUOUS
 10
70.5087500961
 20
214.0980654365
  0
VERTEX
  8
0
 62
7
  6
CONTINUOUS
 10
70.4889048082
 20
214.1299297145
  0
VERTEX
  8
0
 62
7
  6
CONTINUOUS
 10
70.4685461812
 20
214.1614900604
  0
VERTEX
  8
0
 62
7
  6
CONTINUOUS
 10
70.447668861
 20
214.192726625
  0
VERTEX
  8
0
 62
7
  6
CONTINUOUS
 10
70.4262725864
 20
214.2236066777
  0
VERTEX
  8
0
 62
7
  6
CONTINUOUS
 10
70.4043549686
 20
214.2541012378
  0
VERTEX
  8
0
 62
7
  6
CONTINUOUS
 10
70.3819081634
 20
214.2841828708
  0
VERTEX
  8
0
 62
7
  6
CONTINUOUS
 10
70.3589314132
 20
214.3138127972
  0
VERTEX
  8
0
 62
7
  6
CONTINUOUS
 10
70.3353738285
 20
214.3430113729
  0
VERTEX
  8
0
 62
7
  6
CONTINUOUS
 10
70.3110728232
 20
214.371913835
  0
VERTEX
  8
0
 62
7
  6
CONTINUOUS
 10
70.285841561
 20
214.400650096
  0
VERTEX
  8
0
 62
7
  6
CONTINUOUS
 10
70.2594725743
 20
214.4293291417
  0
VERTEX
  8
0
 62
7
  6
CONTINUOUS
 10
70.2317589742
 20
214.4580099773
  0
VERTEX
  8
0
 62
7
  6
CONTINUOUS
 10
70.2024780413
 20
214.4867187398
  0
VERTEX
  8
0
 62
7
  6
CONTINUOUS
 10
70.1799526108
 20
214.507704078
  0
SEQEND
  0
LINE
  8
0
 62
7
  6
CONTINUOUS
 10
64.8289658818
 20
202.1555903209
 11
64.8289658818
 21
213.1535021475
  0
LINE
  8
0
 62
7
  6
CONTINUOUS
 10
65.5789658818
 20
215.4043963453
 11
65.5789658818
 21
214.5976487987
  0
LINE
  8
0
 62
7
  6
CONTINUOUS
 10
70.0789658818
 20
215.404396351
 11
70.0789658818
 21
214.5976487987
  0
LINE
  8
0
 62
7
  6
CONTINUOUS
 10
70.8289658818
 20
213.1535021365
 11
70.8289658818
 21
202.1555903209
  0
POLYLINE
  8
0
 62
7
  6
CONTINUOUS
 66
1
 70
0
  0
VERTEX
  8
0
 62
7
  6
CONTINUOUS
 10
78.1779802858
 20
214.507704669
  0
VERTEX
  8
0
 62
7
  6
CONTINUOUS
 10
78.158212511
 20
214.4893404176
  0
VERTEX
  8
0
 62
7
  6
CONTINUOUS
 10
78.1320048172
 20
214.4638581759
  0
VERTEX
  8
0
 62
7
  6
CONTINUOUS
 10
78.1070648907
 20
214.4383935772
  0
VERTEX
  8
0
 62
7
  6
CONTINUOUS
 10
78.0832315394
 20
214.4129347157
  0
VERTEX
  8
0
 62
7
  6
CONTINUOUS
 10
78.0603648452
 20
214.3874553999
  0
VERTEX
  8
0
 62
7
  6
CONTINUOUS
 10
78.0383336354
 20
214.3619125488
  0
VERTEX
  8
0
 62
7
  6
CONTINUOUS
 10
78.0170035521
 20
214.3362328791
  0
VERTEX
  8
0
 62
7
  6
CONTINUOUS
 10
77.9962507119
 20
214.3103279066
  0
VERTEX
  8
0
 62
7
  6
CONTINUOUS
 10
77.9759740031
 20
214.2841173238
  0
VERTEX
  8
0
 62
7
  6
CONTINUOUS
 10
77.956133202
 20
214.2575850728
  0
VERTEX
  8
0
 62
7
  6
CONTINUOUS
 10
77.9367092226
 20
214.2307336972
  0
VERTEX
  8
0
 62
7
  6
CONTINUOUS
 10
77.9176884081
 20
214.2035704505
  0
VERTEX
  8
0
 62
7
  6
CONTINUOUS
 10
77.8990514648
 20
214.1760911115
  0
VERTEX
  8
0
 62
7
  6
CONTINUOUS
 10
77.8807830602
 20
214.1482899863
  0
VERTEX
  8
0
 62
7
  6
CONTINUOUS
 10
77.8628718424
 20
214.1201654349
  0
VERTEX
  8
0
 62
7
  6
CONTINUOUS
 10
77.8453001312
 20
214.0917013456
  0
VERTEX
  8
0
 62
7
  6
CONTINUOUS
 10
77.8280570881
 20
214.0628857412
  0
VERTEX
  8
0
 62
7
  6
CONTINUOUS
 10
77.8111317381
 20
214.0337049331
  0
VERTEX
  8
0
 62
7
  6
CONTINUOUS
 10
77.7945131693
 20
214.0041377992
  0
VERTEX
  8
0
 62
7
  6
CONTINUOUS
 10
77.7782063978
 20
213.9741882656
  0
VERTEX
  8
0
 62
7
  6
CONTINUOUS
 10
77.7622101369
 20
213.9438468385
  0
VERTEX
  8
0
 62
7
  6
CONTINUOUS
 10
77.7465296433
 20
213.9131096001
  0
VERTEX
  8
0
 62
7
  6
CONTINUOUS
 10
77.7311678083
 20
213.8819681494
  0
VERTEX
  8
0
 62
7
  6
CONTINUOUS
 10
77.7161280487
 20
213.8504056191
  0
VERTEX
  8
0
 62
7
  6
CONTINUOUS
 10
77.7014171633
 20
213.8184110269
  0
VERTEX
  8
0
 62
7
  6
CONTINUOUS
 10
77.6870389303
 20
213.7859554606
  0
VERTEX
  8
0
 62
7
  6
CONTINUOUS
 10
77.6730031465
 20
213.7530194563
  0
VERTEX
  8
0
 62
7
  6
CONTINUOUS
 10
77.6593164523
 20
213.7195608254
  0
VERTEX
  8
0
 62
7
  6
CONTINUOUS
 10
77.6459916261
 20
213.685544549
  0
VERTEX
  8
0
 62
7
  6
CONTINUOUS
 10
77.6330470453
 20
213.6509274975
  0
VERTEX
  8
0
 62
7
  6
CONTINUOUS
 10
77.6205187346
 20
213.615704776
  0
VERTEX
  8
0
 62
7
  6
CONTINUOUS
 10
77.6084520167
 20
213.5798760276
  0
VERTEX
  8
0
 62
7
  6
CONTINUOUS
 10
77.5968892063
 20
213.5434155206
  0
VERTEX
  8
0
 62
7
  6
CONTINUOUS
 10
77.5858841518
 20
213.5063073845
  0
VERTEX
  8
0
 62
7
  6
CONTINUOUS
 10
77.5754959148
 20
213.4685081847
  0
VERTEX
  8
0
 62
7
  6
CONTINUOUS
 10
77.5657953074
 20
213.4299642705
  0
VERTEX
  8
0
 62
7
  6
CONTINUOUS
 10
77.5568976079
 20
213.3907412579
  0
VERTEX
  8
0
 62
7
  6
CONTINUOUS
 10
77.5489441175
 20
213.3509694027
  0
VERTEX
  8
0
 62
7
  6
CONTINUOUS
 10
77.5420874455
 20
213.3108039868
  0
VERTEX
  8
0
 62
7
  6
CONTINUOUS
 10
77.5364969351
 20
213.2704842216
  0
VERTEX
  8
0
 62
7
  6
CONTINUOUS
 10
77.532346379
 20
213.2303403288
  0
VERTEX
  8
0
 62
7
  6
CONTINUOUS
 10
77.5297993652
 20
213.1908719677
  0
VERTEX
  8
0
 62
7
  6
CONTINUOUS
 10
77.5289658286
 20
213.153502161
  0
SEQEND
  0
POLYLINE
  8
0
 62
7
  6
CONTINUOUS
 66
1
 70
0
  0
VERTEX
  8
0
 62
7
  6
CONTINUOUS
 10
78.2690232749
 20
214.589017427
  0
VERTEX
  8
0
 62
7
  6
CONTINUOUS
 10
78.2195273765
 20
214.545203891
  0
VERTEX
  8
0
 62
7
  6
CONTINUOUS
 10
78.177976579
 20
214.5077005469
  0
SEQEND
  0
POLYLINE
  8
0
 62
7
  6
CONTINUOUS
 66
1
 70
0
  0
VERTEX
  8
0
 62
7
  6
CONTINUOUS
 10
90.9690232749
 20
214.589017427
  0
VERTEX
  8
0
 62
7
  6
CONTINUOUS
 10
90.9195273765
 20
214.545203891
  0
VERTEX
  8
0
 62
7
  6
CONTINUOUS
 10
90.877976579
 20
214.5077005469
  0
SEQEND
  0
LINE
  8
0
 62
7
  6
CONTINUOUS
 10
78.3113205406
 20
214.6257193951
 11
78.2690232749
 21
214.589017427
  0
LINE
  8
0
 62
7
  6
CONTINUOUS
 10
91.0113205406
 20
214.6257193951
 11
90.9690232749
 21
214.589017427
  0
POLYLINE
  8
0
 62
7
  6
CONTINUOUS
 66
1
 70
0
  0
VERTEX
  8
0
 62
7
  6
CONTINUOUS
 10
59.3829658818
 20
215.6440719354
  0
VERTEX
  8
0
 62
7
  6
CONTINUOUS
 10
59.3891499626
 20
215.6444656207
  0
VERTEX
  8
0
 62
7
  6
CONTINUOUS
 10
59.4076408411
 20
215.6446144662
  0
SEQEND
  0
POLYLINE
  8
0
 62
7
  6
CONTINUOUS
 66
1
 70
0
  0
VERTEX
  8
0
 62
7
  6
CONTINUOUS
 10
59.3861115134
 20
215.6444354731
  0
VERTEX
  8
0
 62
7
  6
CONTINUOUS
 10
59.3838080757
 20
215.6443801621
  0
VERTEX
  8
0
 62
7
  6
CONTINUOUS
 10
59.3814798341
 20
215.6443091416
  0
VERTEX
  8
0
 62
7
  6
CONTINUOUS
 10
59.3790039526
 20
215.644212595
  0
VERTEX
  8
0
 62
7
  6
CONTINUOUS
 10
59.3761831897
 20
215.6440701857
  0
VERTEX
  8
0
 62
7
  6
CONTINUOUS
 10
59.372779668
 20
215.6438440356
  0
VERTEX
  8
0
 62
7
  6
CONTINUOUS
 10
59.3685488221
 20
215.643469398
  0
VERTEX
  8
0
 62
7
  6
CONTINUOUS
 10
59.3630882595
 20
215.6428198685
  0
VERTEX
  8
0
 62
7
  6
CONTINUOUS
 10
59.3557795334
 20
215.6416416175
  0
VERTEX
  8
0
 62
7
  6
CONTINUOUS
 10
59.3465877174
 20
215.6396350599
  0
VERTEX
  8
0
 62
7
  6
CONTINUOUS
 10
59.3361235151
 20
215.6366025328
  0
VERTEX
  8
0
 62
7
  6
CONTINUOUS
 10
59.3251295136
 20
215.6324992333
  0
VERTEX
  8
0
 62
7
  6
CONTINUOUS
 10
59.3141753215
 20
215.6273893727
  0
VERTEX
  8
0
 62
7
  6
CONTINUOUS
 10
59.3033773526
 20
215.6212340158
  0
VERTEX
  8
0
 62
7
  6
CONTINUOUS
 10
59.2928490097
 20
215.6139991905
  0
VERTEX
  8
0
 62
7
  6
CONTINUOUS
 10
59.2827095314
 20
215.6056581636
  0
VERTEX
  8
0
 62
7
  6
CONTINUOUS
 10
59.2730914168
 20
215.5961981688
  0
VERTEX
  8
0
 62
7
  6
CONTINUOUS
 10
59.264138551
 20
215.5856233961
  0
VERTEX
  8
0
 62
7
  6
CONTINUOUS
 10
59.2559896518
 20
215.5739353247
  0
VERTEX
  8
0
 62
7
  6
CONTINUOUS
 10
59.2487930562
 20
215.5611418101
  0
VERTEX
  8
0
 62
7
  6
CONTINUOUS
 10
59.2427150312
 20
215.547270369
  0
VERTEX
  8
0
 62
7
  6
CONTINUOUS
 10
59.2379374903
 20
215.5323716342
  0
VERTEX
  8
0
 62
7
  6
CONTINUOUS
 10
59.2346561825
 20
215.5165248059
  0
VERTEX
  8
0
 62
7
  6
CONTINUOUS
 10
59.2330777199
 20
215.4998433992
  0
VERTEX
  8
0
 62
7
  6
CONTINUOUS
 10
59.2329667273
 20
215.4940734917
  0
SEQEND
  0
LINE
  8
0
 62
7
  6
CONTINUOUS
 10
59.3909457652
 20
215.6445167232
 11
59.3861115134
 21
215.6444354731
  0
LINE
  8
0
 62
7
  6
CONTINUOUS
 10
59.4026239267
 20
215.6446036153
 11
59.4106101057
 21
215.6446163315
  0
LINE
  8
0
 62
7
  6
CONTINUOUS
 10
206.3238917512
 20
215.6436062334
 11
206.9585306098
 21
215.6446161339
  0
LINE
  8
0
 62
7
  6
CONTINUOUS
 10
165.9289658818
 20
215.6435661679
 11
162.0749658818
 21
215.6435661679
  0
LINE
  8
0
 62
7
  6
CONTINUOUS
 10
175.8289658818
 20
215.6435661679
 11
180.4289658818
 21
215.6435661679
  0
LINE
  8
0
 62
7
  6
CONTINUOUS
 10
175.8289658818
 20
215.6446163429
 11
165.9289658818
 21
215.6446163429
  0
LINE
  8
0
 62
7
  6
CONTINUOUS
 10
180.4289658818
 20
215.6446163429
 11
207.1839342157
 21
215.6445222635
  0
LINE
  8
0
 62
7
  6
CONTINUOUS
 10
59.4109163204
 20
215.6446163426
 11
162.0749658818
 21
215.6446163429
  0
POLYLINE
  8
0
 62
7
  6
CONTINUOUS
 66
1
 70
0
  0
VERTEX
  8
0
 62
7
  6
CONTINUOUS
 10
208.6294143274
 20
215.6403411492
  0
VERTEX
  8
0
 62
7
  6
CONTINUOUS
 10
207.8915850662
 20
215.6432509889
  0
VERTEX
  8
0
 62
7
  6
CONTINUOUS
 10
207.1840461789
 20
215.6445225488
  0
SEQEND
  0
LINE
  8
0
 62
7
  6
CONTINUOUS
 10
59.9316335869
 20
215.6407071908
 11
60.2329658818
 21
215.6399258767
  0
LINE
  8
0
 62
7
  6
CONTINUOUS
 10
59.4381713614
 20
215.6445313763
 11
59.9316335869
 21
215.6407071908
  0
LINE
  8
0
 62
7
  6
CONTINUOUS
 10
209.6011782423
 20
215.633707049
 11
208.6294143274
 21
215.6403411492
  0
LINE
  8
0
 62
7
  6
CONTINUOUS
 10
209.8667352188
 20
215.6302361708
 11
209.6011782423
 21
215.633707049
  0
LINE
  8
0
 62
7
  6
CONTINUOUS
 10
210.1058135373
 20
215.6257095736
 11
209.8667352188
 21
215.6302361708
  0
POLYLINE
  8
0
 62
7
  6
CONTINUOUS
 66
1
 70
0
  0
VERTEX
  8
0
 62
7
  6
CONTINUOUS
 10
189.3130158188
 20
201.4275005128
  0
VERTEX
  8
0
 62
7
  6
CONTINUOUS
 10
189.1257037509
 20
201.45991944
  0
VERTEX
  8
0
 62
7
  6
CONTINUOUS
 10
189.0139294167
 20
201.4783169672
  0
VERTEX
  8
0
 62
7
  6
CONTINUOUS
 10
188.8923392523
 20
201.4964943125
  0
VERTEX
  8
0
 62
7
  6
CONTINUOUS
 10
188.7628729499
 20
201.5132432509
  0
VERTEX
  8
0
 62
7
  6
CONTINUOUS
 10
188.6276256761
 20
201.5275019588
  0
VERTEX
  8
0
 62
7
  6
CONTINUOUS
 10
188.4883259154
 20
201.5384642399
  0
VERTEX
  8
0
 62
7
  6
CONTINUOUS
 10
188.3460109028
 20
201.5455799017
  0
VERTEX
  8
0
 62
7
  6
CONTINUOUS
 10
188.2014586475
 20
201.5484744887
  0
SEQEND
  0
POLYLINE
  8
0
 62
7
  6
CONTINUOUS
 66
1
 70
0
  0
VERTEX
  8
0
 62
7
  6
CONTINUOUS
 10
70.1377514788
 20
214.545787927
  0
VERTEX
  8
0
 62
7
  6
CONTINUOUS
 10
70.0882545614
 20
214.5895900281
  0
VERTEX
  8
0
 62
7
  6
CONTINUOUS
 10
70.0466112236
 20
214.6257193945
  0
SEQEND
  0
LINE
  8
0
 62
7
  6
CONTINUOUS
 10
70.1799551884
 20
214.5077005413
 11
70.1377514788
 21
214.545787927
  0
POLYLINE
  8
0
 62
7
  6
CONTINUOUS
 66
1
 70
0
  0
VERTEX
  8
0
 62
7
  6
CONTINUOUS
 10
83.528964898
 20
213.153502158
  0
VERTEX
  8
0
 62
7
  6
CONTINUOUS
 10
83.5280714427
 20
213.1922384027
  0
VERTEX
  8
0
 62
7
  6
CONTINUOUS
 10
83.5255234933
 20
213.2310778241
  0
VERTEX
  8
0
 62
7
  6
CONTINUOUS
 10
83.5214402345
 20
213.2704453715
  0
VERTEX
  8
0
 62
7
  6
CONTINUOUS
 10
83.5160196951
 20
213.3096676005
  0
VERTEX
  8
0
 62
7
  6
CONTINUOUS
 10
83.5094741497
 20
213.3483325218
  0
VERTEX
  8
0
 62
7
  6
CONTINUOUS
 10
83.5019733769
 20
213.3863173945
  0
VERTEX
  8
0
 62
7
  6
CONTINUOUS
 10
83.4936397799
 20
213.4236394851
  0
VERTEX
  8
0
 62
7
  6
CONTINUOUS
 10
83.4845700461
 20
213.4603323225
  0
VERTEX
  8
0
 62
7
  6
CONTINUOUS
 10
83.4748455277
 20
213.4964219221
  0
VERTEX
  8
0
 62
7
  6
CONTINUOUS
 10
83.4645406368
 20
213.5319032179
  0
VERTEX
  8
0
 62
7
  6
CONTINUOUS
 10
83.4536984319
 20
213.566837826
  0
VERTEX
  8
0
 62
7
  6
CONTINUOUS
 10
83.4423351188
 20
213.6013355568
  0
VERTEX
  8
0
 62
7
  6
CONTINUOUS
 10
83.4304629339
 20
213.6354710995
  0
VERTEX
  8
0
 62
7
  6
CONTINUOUS
 10
83.4180824477
 20
213.6693254775
  0
VERTEX
  8
0
 62
7
  6
CONTINUOUS
 10
83.4051987509
 20
213.7029449449
  0
VERTEX
  8
0
 62
7
  6
CONTINUOUS
 10
83.3918049325
 20
213.7363849769
  0
VERTEX
  8
0
 62
7
  6
CONTINUOUS
 10
83.3778944585
 20
213.7696897247
  0
VERTEX
  8
0
 62
7
  6
CONTINUOUS
 10
83.363455493
 20
213.8028967799
  0
VERTEX
  8
0
 62
7
  6
CONTINUOUS
 10
83.3484761707
 20
213.8360381149
  0
VERTEX
  8
0
 62
7
  6
CONTINUOUS
 10
83.3329432219
 20
213.8691337255
  0
VERTEX
  8
0
 62
7
  6
CONTINUOUS
 10
83.3168426792
 20
213.9022017346
  0
VERTEX
  8
0
 62
7
  6
CONTINUOUS
 10
83.3001754956
 20
213.9352191138
  0
VERTEX
  8
0
 62
7
  6
CONTINUOUS
 10
83.28295358
 20
213.9681443321
  0
VERTEX
  8
0
 62
7
  6
CONTINUOUS
 10
83.2651885961
 20
214.000932582
  0
VERTEX
  8
0
 62
7
  6
CONTINUOUS
 10
83.2468939384
 20
214.0335405418
  0
VERTEX
  8
0
 62
7
  6
CONTINUOUS
 10
83.2280784185
 20
214.0659297233
  0
VERTEX
  8
0
 62
7
  6
CONTINUOUS
 10
83.2087500961
 20
214.0980654365
  0
VERTEX
  8
0
 62
7
  6
CONTINUOUS
 10
83.1889048082
 20
214.1299297145
  0
VERTEX
  8
0
 62
7
  6
CONTINUOUS
 10
83.1685461812
 20
214.1614900604
  0
VERTEX
  8
0
 62
7
  6
CONTINUOUS
 10
83.147668861
 20
214.192726625
  0
VERTEX
  8
0
 62
7
  6
CONTINUOUS
 10
83.1262725864
 20
214.2236066777
  0
VERTEX
  8
0
 62
7
  6
CONTINUOUS
 10
83.1043549686
 20
214.2541012378
  0
VERTEX
  8
0
 62
7
  6
CONTINUOUS
 10
83.0819081634
 20
214.2841828708
  0
VERTEX
  8
0
 62
7
  6
CONTINUOUS
 10
83.0589314132
 20
214.3138127972
  0
VERTEX
  8
0
 62
7
  6
CONTINUOUS
 10
83.0353738285
 20
214.3430113729
  0
VERTEX
  8
0
 62
7
  6
CONTINUOUS
 10
83.0110728232
 20
214.371913835
  0
VERTEX
  8
0
 62
7
  6
CONTINUOUS
 10
82.985841561
 20
214.400650096
  0
VERTEX
  8
0
 62
7
  6
CONTINUOUS
 10
82.9594725743
 20
214.4293291417
  0
VERTEX
  8
0
 62
7
  6
CONTINUOUS
 10
82.9317589742
 20
214.4580099773
  0
VERTEX
  8
0
 62
7
  6
CONTINUOUS
 10
82.9024780413
 20
214.4867187398
  0
VERTEX
  8
0
 62
7
  6
CONTINUOUS
 10
82.8799526108
 20
214.507704078
  0
SEQEND
  0
LINE
  8
0
 62
7
  6
CONTINUOUS
 10
77.5289658818
 20
202.1555903209
 11
77.5289658818
 21
213.1534892479
  0
LINE
  8
0
 62
7
  6
CONTINUOUS
 10
78.2789658818
 20
214.5976447753
 11
78.2789658818
 21
215.4043963524
  0
LINE
  8
0
 62
7
  6
CONTINUOUS
 10
82.7789658818
 20
215.404396351
 11
82.7789658818
 21
214.5976487987
  0
LINE
  8
0
 62
7
  6
CONTINUOUS
 10
83.5289658818
 20
213.1535021365
 11
83.5289658818
 21
202.1555903209
  0
LINE
  8
0
 62
7
  6
CONTINUOUS
 10
90.2289658818
 20
202.1555903209
 11
90.2289658818
 21
213.1534892479
  0
POLYLINE
  8
0
 62
7
  6
CONTINUOUS
 66
1
 70
0
  0
VERTEX
  8
0
 62
7
  6
CONTINUOUS
 10
90.8779802858
 20
214.507704669
  0
VERTEX
  8
0
 62
7
  6
CONTINUOUS
 10
90.858212511
 20
214.4893404176
  0
VERTEX
  8
0
 62
7
  6
CONTINUOUS
 10
90.8320048172
 20
214.4638581759
  0
VERTEX
  8
0
 62
7
  6
CONTINUOUS
 10
90.8070648907
 20
214.4383935772
  0
VERTEX
  8
0
 62
7
  6
CONTINUOUS
 10
90.7832315394
 20
214.4129347157
  0
VERTEX
  8
0
 62
7
  6
CONTINUOUS
 10
90.7603648452
 20
214.3874553999
  0
VERTEX
  8
0
 62
7
  6
CONTINUOUS
 10
90.7383336354
 20
214.3619125488
  0
VERTEX
  8
0
 62
7
  6
CONTINUOUS
 10
90.7170035521
 20
214.3362328791
  0
VERTEX
  8
0
 62
7
  6
CONTINUOUS
 10
90.6962507119
 20
214.3103279066
  0
VERTEX
  8
0
 62
7
  6
CONTINUOUS
 10
90.6759740031
 20
214.2841173238
  0
VERTEX
  8
0
 62
7
  6
CONTINUOUS
 10
90.656133202
 20
214.2575850728
  0
VERTEX
  8
0
 62
7
  6
CONTINUOUS
 10
90.6367092226
 20
214.2307336972
  0
VERTEX
  8
0
 62
7
  6
CONTINUOUS
 10
90.6176884081
 20
214.2035704505
  0
VERTEX
  8
0
 62
7
  6
CONTINUOUS
 10
90.5990514648
 20
214.1760911115
  0
VERTEX
  8
0
 62
7
  6
CONTINUOUS
 10
90.5807830602
 20
214.1482899863
  0
VERTEX
  8
0
 62
7
  6
CONTINUOUS
 10
90.5628718424
 20
214.1201654349
  0
VERTEX
  8
0
 62
7
  6
CONTINUOUS
 10
90.5453001312
 20
214.0917013456
  0
VERTEX
  8
0
 62
7
  6
CONTINUOUS
 10
90.5280570881
 20
214.0628857412
  0
VERTEX
  8
0
 62
7
  6
CONTINUOUS
 10
90.5111317381
 20
214.0337049331
  0
VERTEX
  8
0
 62
7
  6
CONTINUOUS
 10
90.4945131693
 20
214.0041377992
  0
VERTEX
  8
0
 62
7
  6
CONTINUOUS
 10
90.4782063978
 20
213.9741882656
  0
VERTEX
  8
0
 62
7
  6
CONTINUOUS
 10
90.4622101369
 20
213.9438468385
  0
VERTEX
  8
0
 62
7
  6
CONTINUOUS
 10
90.4465296433
 20
213.9131096001
  0
VERTEX
  8
0
 62
7
  6
CONTINUOUS
 10
90.4311678083
 20
213.8819681494
  0
VERTEX
  8
0
 62
7
  6
CONTINUOUS
 10
90.4161280487
 20
213.8504056191
  0
VERTEX
  8
0
 62
7
  6
CONTINUOUS
 10
90.4014171633
 20
213.8184110269
  0
VERTEX
  8
0
 62
7
  6
CONTINUOUS
 10
90.3870389303
 20
213.7859554606
  0
VERTEX
  8
0
 62
7
  6
CONTINUOUS
 10
90.3730031465
 20
213.7530194563
  0
VERTEX
  8
0
 62
7
  6
CONTINUOUS
 10
90.3593164523
 20
213.7195608254
  0
VERTEX
  8
0
 62
7
  6
CONTINUOUS
 10
90.3459916261
 20
213.685544549
  0
VERTEX
  8
0
 62
7
  6
CONTINUOUS
 10
90.3330470453
 20
213.6509274975
  0
VERTEX
  8
0
 62
7
  6
CONTINUOUS
 10
90.3205187346
 20
213.615704776
  0
VERTEX
  8
0
 62
7
  6
CONTINUOUS
 10
90.3084520167
 20
213.5798760276
  0
VERTEX
  8
0
 62
7
  6
CONTINUOUS
 10
90.2968892063
 20
213.5434155206
  0
VERTEX
  8
0
 62
7
  6
CONTINUOUS
 10
90.2858841518
 20
213.5063073845
  0
VERTEX
  8
0
 62
7
  6
CONTINUOUS
 10
90.2754959148
 20
213.4685081847
  0
VERTEX
  8
0
 62
7
  6
CONTINUOUS
 10
90.2657953074
 20
213.4299642705
  0
VERTEX
  8
0
 62
7
  6
CONTINUOUS
 10
90.2568976079
 20
213.3907412579
  0
VERTEX
  8
0
 62
7
  6
CONTINUOUS
 10
90.2489441175
 20
213.3509694027
  0
VERTEX
  8
0
 62
7
  6
CONTINUOUS
 10
90.2420874455
 20
213.3108039868
  0
VERTEX
  8
0
 62
7
  6
CONTINUOUS
 10
90.2364969351
 20
213.2704842216
  0
VERTEX
  8
0
 62
7
  6
CONTINUOUS
 10
90.232346379
 20
213.2303403288
  0
VERTEX
  8
0
 62
7
  6
CONTINUOUS
 10
90.2297993652
 20
213.1908719677
  0
VERTEX
  8
0
 62
7
  6
CONTINUOUS
 10
90.2289658286
 20
213.153502161
  0
SEQEND
  0
POLYLINE
  8
0
 62
7
  6
CONTINUOUS
 66
1
 70
0
  0
VERTEX
  8
0
 62
7
  6
CONTINUOUS
 10
103.5779802858
 20
214.507704669
  0
VERTEX
  8
0
 62
7
  6
CONTINUOUS
 10
103.558212511
 20
214.4893404176
  0
VERTEX
  8
0
 62
7
  6
CONTINUOUS
 10
103.5320048172
 20
214.4638581759
  0
VERTEX
  8
0
 62
7
  6
CONTINUOUS
 10
103.5070648907
 20
214.4383935772
  0
VERTEX
  8
0
 62
7
  6
CONTINUOUS
 10
103.4832315394
 20
214.4129347157
  0
VERTEX
  8
0
 62
7
  6
CONTINUOUS
 10
103.4603648452
 20
214.3874553999
  0
VERTEX
  8
0
 62
7
  6
CONTINUOUS
 10
103.4383336354
 20
214.3619125488
  0
VERTEX
  8
0
 62
7
  6
CONTINUOUS
 10
103.4170035521
 20
214.3362328791
  0
VERTEX
  8
0
 62
7
  6
CONTINUOUS
 10
103.3962507119
 20
214.3103279066
  0
VERTEX
  8
0
 62
7
  6
CONTINUOUS
 10
103.3759740031
 20
214.2841173238
  0
VERTEX
  8
0
 62
7
  6
CONTINUOUS
 10
103.356133202
 20
214.2575850728
  0
VERTEX
  8
0
 62
7
  6
CONTINUOUS
 10
103.3367092226
 20
214.2307336972
  0
VERTEX
  8
0
 62
7
  6
CONTINUOUS
 10
103.3176884081
 20
214.2035704505
  0
VERTEX
  8
0
 62
7
  6
CONTINUOUS
 10
103.2990514648
 20
214.1760911115
  0
VERTEX
  8
0
 62
7
  6
CONTINUOUS
 10
103.2807830602
 20
214.1482899863
  0
VERTEX
  8
0
 62
7
  6
CONTINUOUS
 10
103.2628718424
 20
214.1201654349
  0
VERTEX
  8
0
 62
7
  6
CONTINUOUS
 10
103.2453001312
 20
214.0917013456
  0
VERTEX
  8
0
 62
7
  6
CONTINUOUS
 10
103.2280570881
 20
214.0628857412
  0
VERTEX
  8
0
 62
7
  6
CONTINUOUS
 10
103.2111317381
 20
214.0337049331
  0
VERTEX
  8
0
 62
7
  6
CONTINUOUS
 10
103.1945131693
 20
214.0041377992
  0
VERTEX
  8
0
 62
7
  6
CONTINUOUS
 10
103.1782063978
 20
213.9741882656
  0
VERTEX
  8
0
 62
7
  6
CONTINUOUS
 10
103.1622101369
 20
213.9438468385
  0
VERTEX
  8
0
 62
7
  6
CONTINUOUS
 10
103.1465296433
 20
213.9131096001
  0
VERTEX
  8
0
 62
7
  6
CONTINUOUS
 10
103.1311678083
 20
213.8819681494
  0
VERTEX
  8
0
 62
7
  6
CONTINUOUS
 10
103.1161280487
 20
213.8504056191
  0
VERTEX
  8
0
 62
7
  6
CONTINUOUS
 10
103.1014171633
 20
213.8184110269
  0
VERTEX
  8
0
 62
7
  6
CONTINUOUS
 10
103.0870389303
 20
213.7859554606
  0
VERTEX
  8
0
 62
7
  6
CONTINUOUS
 10
103.0730031465
 20
213.7530194563
  0
VERTEX
  8
0
 62
7
  6
CONTINUOUS
 10
103.0593164523
 20
213.7195608254
  0
VERTEX
  8
0
 62
7
  6
CONTINUOUS
 10
103.0459916261
 20
213.685544549
  0
VERTEX
  8
0
 62
7
  6
CONTINUOUS
 10
103.0330470453
 20
213.6509274975
  0
VERTEX
  8
0
 62
7
  6
CONTINUOUS
 10
103.0205187346
 20
213.615704776
  0
VERTEX
  8
0
 62
7
  6
CONTINUOUS
 10
103.0084520167
 20
213.5798760276
  0
VERTEX
  8
0
 62
7
  6
CONTINUOUS
 10
102.9968892063
 20
213.5434155206
  0
VERTEX
  8
0
 62
7
  6
CONTINUOUS
 10
102.9858841518
 20
213.5063073845
  0
VERTEX
  8
0
 62
7
  6
CONTINUOUS
 10
102.9754959148
 20
213.4685081847
  0
VERTEX
  8
0
 62
7
  6
CONTINUOUS
 10
102.9657953074
 20
213.4299642705
  0
VERTEX
  8
0
 62
7
  6
CONTINUOUS
 10
102.9568976079
 20
213.3907412579
  0
VERTEX
  8
0
 62
7
  6
CONTINUOUS
 10
102.9489441175
 20
213.3509694027
  0
VERTEX
  8
0
 62
7
  6
CONTINUOUS
 10
102.9420874455
 20
213.3108039868
  0
VERTEX
  8
0
 62
7
  6
CONTINUOUS
 10
102.9364969351
 20
213.2704842216
  0
VERTEX
  8
0
 62
7
  6
CONTINUOUS
 10
102.932346379
 20
213.2303403288
  0
VERTEX
  8
0
 62
7
  6
CONTINUOUS
 10
102.9297993652
 20
213.1908719677
  0
VERTEX
  8
0
 62
7
  6
CONTINUOUS
 10
102.9289658286
 20
213.153502161
  0
SEQEND
  0
POLYLINE
  8
0
 62
7
  6
CONTINUOUS
 66
1
 70
0
  0
VERTEX
  8
0
 62
7
  6
CONTINUOUS
 10
103.6690232749
 20
214.589017427
  0
VERTEX
  8
0
 62
7
  6
CONTINUOUS
 10
103.6195273765
 20
214.545203891
  0
VERTEX
  8
0
 62
7
  6
CONTINUOUS
 10
103.577976579
 20
214.5077005469
  0
SEQEND
  0
LINE
  8
0
 62
7
  6
CONTINUOUS
 10
103.7113205406
 20
214.6257193951
 11
103.6690232749
 21
214.589017427
  0
POLYLINE
  8
0
 62
7
  6
CONTINUOUS
 66
1
 70
0
  0
VERTEX
  8
0
 62
7
  6
CONTINUOUS
 10
82.8377514788
 20
214.545787927
  0
VERTEX
  8
0
 62
7
  6
CONTINUOUS
 10
82.7882545614
 20
214.5895900281
  0
VERTEX
  8
0
 62
7
  6
CONTINUOUS
 10
82.7466112236
 20
214.6257193945
  0
SEQEND
  0
POLYLINE
  8
0
 62
7
  6
CONTINUOUS
 66
1
 70
0
  0
VERTEX
  8
0
 62
7
  6
CONTINUOUS
 10
95.5377514788
 20
214.545787927
  0
VERTEX
  8
0
 62
7
  6
CONTINUOUS
 10
95.4882545614
 20
214.5895900281
  0
VERTEX
  8
0
 62
7
  6
CONTINUOUS
 10
95.4466112236
 20
214.6257193945
  0
SEQEND
  0
LINE
  8
0
 62
7
  6
CONTINUOUS
 10
82.8799551884
 20
214.5077005413
 11
82.8377514788
 21
214.545787927
  0
LINE
  8
0
 62
7
  6
CONTINUOUS
 10
95.5799551884
 20
214.5077005413
 11
95.5377514788
 21
214.545787927
  0
POLYLINE
  8
0
 62
7
  6
CONTINUOUS
 66
1
 70
0
  0
VERTEX
  8
0
 62
7
  6
CONTINUOUS
 10
96.228964898
 20
213.153502158
  0
VERTEX
  8
0
 62
7
  6
CONTINUOUS
 10
96.2280714427
 20
213.1922384027
  0
VERTEX
  8
0
 62
7
  6
CONTINUOUS
 10
96.2255234933
 20
213.2310778241
  0
VERTEX
  8
0
 62
7
  6
CONTINUOUS
 10
96.2214402345
 20
213.2704453715
  0
VERTEX
  8
0
 62
7
  6
CONTINUOUS
 10
96.2160196951
 20
213.3096676005
  0
VERTEX
  8
0
 62
7
  6
CONTINUOUS
 10
96.2094741497
 20
213.3483325218
  0
VERTEX
  8
0
 62
7
  6
CONTINUOUS
 10
96.2019733769
 20
213.3863173945
  0
VERTEX
  8
0
 62
7
  6
CONTINUOUS
 10
96.1936397799
 20
213.4236394851
  0
VERTEX
  8
0
 62
7
  6
CONTINUOUS
 10
96.1845700461
 20
213.4603323225
  0
VERTEX
  8
0
 62
7
  6
CONTINUOUS
 10
96.1748455277
 20
213.4964219221
  0
VERTEX
  8
0
 62
7
  6
CONTINUOUS
 10
96.1645406368
 20
213.5319032179
  0
VERTEX
  8
0
 62
7
  6
CONTINUOUS
 10
96.1536984319
 20
213.566837826
  0
VERTEX
  8
0
 62
7
  6
CONTINUOUS
 10
96.1423351188
 20
213.6013355568
  0
VERTEX
  8
0
 62
7
  6
CONTINUOUS
 10
96.1304629339
 20
213.6354710995
  0
VERTEX
  8
0
 62
7
  6
CONTINUOUS
 10
96.1180824477
 20
213.6693254775
  0
VERTEX
  8
0
 62
7
  6
CONTINUOUS
 10
96.1051987509
 20
213.7029449449
  0
VERTEX
  8
0
 62
7
  6
CONTINUOUS
 10
96.0918049325
 20
213.7363849769
  0
VERTEX
  8
0
 62
7
  6
CONTINUOUS
 10
96.0778944585
 20
213.7696897247
  0
VERTEX
  8
0
 62
7
  6
CONTINUOUS
 10
96.063455493
 20
213.8028967799
  0
VERTEX
  8
0
 62
7
  6
CONTINUOUS
 10
96.0484761707
 20
213.8360381149
  0
VERTEX
  8
0
 62
7
  6
CONTINUOUS
 10
96.0329432219
 20
213.8691337255
  0
VERTEX
  8
0
 62
7
  6
CONTINUOUS
 10
96.0168426792
 20
213.9022017346
  0
VERTEX
  8
0
 62
7
  6
CONTINUOUS
 10
96.0001754956
 20
213.9352191138
  0
VERTEX
  8
0
 62
7
  6
CONTINUOUS
 10
95.98295358
 20
213.9681443321
  0
VERTEX
  8
0
 62
7
  6
CONTINUOUS
 10
95.9651885961
 20
214.000932582
  0
VERTEX
  8
0
 62
7
  6
CONTINUOUS
 10
95.9468939384
 20
214.0335405418
  0
VERTEX
  8
0
 62
7
  6
CONTINUOUS
 10
95.9280784185
 20
214.0659297233
  0
VERTEX
  8
0
 62
7
  6
CONTINUOUS
 10
95.9087500961
 20
214.0980654365
  0
VERTEX
  8
0
 62
7
  6
CONTINUOUS
 10
95.8889048082
 20
214.1299297145
  0
VERTEX
  8
0
 62
7
  6
CONTINUOUS
 10
95.8685461812
 20
214.1614900604
  0
VERTEX
  8
0
 62
7
  6
CONTINUOUS
 10
95.847668861
 20
214.192726625
  0
VERTEX
  8
0
 62
7
  6
CONTINUOUS
 10
95.8262725864
 20
214.2236066777
  0
VERTEX
  8
0
 62
7
  6
CONTINUOUS
 10
95.8043549686
 20
214.2541012378
  0
VERTEX
  8
0
 62
7
  6
CONTINUOUS
 10
95.7819081634
 20
214.2841828708
  0
VERTEX
  8
0
 62
7
  6
CONTINUOUS
 10
95.7589314132
 20
214.3138127972
  0
VERTEX
  8
0
 62
7
  6
CONTINUOUS
 10
95.7353738285
 20
214.3430113729
  0
VERTEX
  8
0
 62
7
  6
CONTINUOUS
 10
95.7110728232
 20
214.371913835
  0
VERTEX
  8
0
 62
7
  6
CONTINUOUS
 10
95.685841561
 20
214.400650096
  0
VERTEX
  8
0
 62
7
  6
CONTINUOUS
 10
95.6594725743
 20
214.4293291417
  0
VERTEX
  8
0
 62
7
  6
CONTINUOUS
 10
95.6317589742
 20
214.4580099773
  0
VERTEX
  8
0
 62
7
  6
CONTINUOUS
 10
95.6024780413
 20
214.4867187398
  0
VERTEX
  8
0
 62
7
  6
CONTINUOUS
 10
95.5799526108
 20
214.507704078
  0
SEQEND
  0
LINE
  8
0
 62
7
  6
CONTINUOUS
 10
90.9789658818
 20
214.5976447753
 11
90.9789658818
 21
215.4043963524
  0
LINE
  8
0
 62
7
  6
CONTINUOUS
 10
95.4789658818
 20
215.404396351
 11
95.4789658818
 21
214.5976487987
  0
LINE
  8
0
 62
7
  6
CONTINUOUS
 10
96.2289658818
 20
213.1535021365
 11
96.2289658818
 21
202.1555903209
  0
LINE
  8
0
 62
7
  6
CONTINUOUS
 10
102.9289658818
 20
202.1555903209
 11
102.9289658818
 21
213.1534892479
  0
LINE
  8
0
 62
7
  6
CONTINUOUS
 10
103.6789658818
 20
214.5976447753
 11
103.6789658818
 21
215.4043963524
  0
POLYLINE
  8
0
 62
7
  6
CONTINUOUS
 66
1
 70
0
  0
VERTEX
  8
0
 62
7
  6
CONTINUOUS
 10
116.2779802858
 20
214.507704669
  0
VERTEX
  8
0
 62
7
  6
CONTINUOUS
 10
116.258212511
 20
214.4893404176
  0
VERTEX
  8
0
 62
7
  6
CONTINUOUS
 10
116.2320048172
 20
214.4638581759
  0
VERTEX
  8
0
 62
7
  6
CONTINUOUS
 10
116.2070648907
 20
214.4383935772
  0
VERTEX
  8
0
 62
7
  6
CONTINUOUS
 10
116.1832315394
 20
214.4129347157
  0
VERTEX
  8
0
 62
7
  6
CONTINUOUS
 10
116.1603648452
 20
214.3874553999
  0
VERTEX
  8
0
 62
7
  6
CONTINUOUS
 10
116.1383336354
 20
214.3619125488
  0
VERTEX
  8
0
 62
7
  6
CONTINUOUS
 10
116.1170035521
 20
214.3362328791
  0
VERTEX
  8
0
 62
7
  6
CONTINUOUS
 10
116.0962507119
 20
214.3103279066
  0
VERTEX
  8
0
 62
7
  6
CONTINUOUS
 10
116.0759740031
 20
214.2841173238
  0
VERTEX
  8
0
 62
7
  6
CONTINUOUS
 10
116.056133202
 20
214.2575850728
  0
VERTEX
  8
0
 62
7
  6
CONTINUOUS
 10
116.0367092226
 20
214.2307336972
  0
VERTEX
  8
0
 62
7
  6
CONTINUOUS
 10
116.0176884081
 20
214.2035704505
  0
VERTEX
  8
0
 62
7
  6
CONTINUOUS
 10
115.9990514648
 20
214.1760911115
  0
VERTEX
  8
0
 62
7
  6
CONTINUOUS
 10
115.9807830602
 20
214.1482899863
  0
VERTEX
  8
0
 62
7
  6
CONTINUOUS
 10
115.9628718424
 20
214.1201654349
  0
VERTEX
  8
0
 62
7
  6
CONTINUOUS
 10
115.9453001312
 20
214.0917013456
  0
VERTEX
  8
0
 62
7
  6
CONTINUOUS
 10
115.9280570881
 20
214.0628857412
  0
VERTEX
  8
0
 62
7
  6
CONTINUOUS
 10
115.9111317381
 20
214.0337049331
  0
VERTEX
  8
0
 62
7
  6
CONTINUOUS
 10
115.8945131693
 20
214.0041377992
  0
VERTEX
  8
0
 62
7
  6
CONTINUOUS
 10
115.8782063978
 20
213.9741882656
  0
VERTEX
  8
0
 62
7
  6
CONTINUOUS
 10
115.8622101369
 20
213.9438468385
  0
VERTEX
  8
0
 62
7
  6
CONTINUOUS
 10
115.8465296433
 20
213.9131096001
  0
VERTEX
  8
0
 62
7
  6
CONTINUOUS
 10
115.8311678083
 20
213.8819681494
  0
VERTEX
  8
0
 62
7
  6
CONTINUOUS
 10
115.8161280487
 20
213.8504056191
  0
VERTEX
  8
0
 62
7
  6
CONTINUOUS
 10
115.8014171633
 20
213.8184110269
  0
VERTEX
  8
0
 62
7
  6
CONTINUOUS
 10
115.7870389303
 20
213.7859554606
  0
VERTEX
  8
0
 62
7
  6
CONTINUOUS
 10
115.7730031465
 20
213.7530194563
  0
VERTEX
  8
0
 62
7
  6
CONTINUOUS
 10
115.7593164523
 20
213.7195608254
  0
VERTEX
  8
0
 62
7
  6
CONTINUOUS
 10
115.7459916261
 20
213.685544549
  0
VERTEX
  8
0
 62
7
  6
CONTINUOUS
 10
115.7330470453
 20
213.6509274975
  0
VERTEX
  8
0
 62
7
  6
CONTINUOUS
 10
115.7205187346
 20
213.615704776
  0
VERTEX
  8
0
 62
7
  6
CONTINUOUS
 10
115.7084520167
 20
213.5798760276
  0
VERTEX
  8
0
 62
7
  6
CONTINUOUS
 10
115.6968892063
 20
213.5434155206
  0
VERTEX
  8
0
 62
7
  6
CONTINUOUS
 10
115.6858841518
 20
213.5063073845
  0
VERTEX
  8
0
 62
7
  6
CONTINUOUS
 10
115.6754959148
 20
213.4685081847
  0
VERTEX
  8
0
 62
7
  6
CONTINUOUS
 10
115.6657953074
 20
213.4299642705
  0
VERTEX
  8
0
 62
7
  6
CONTINUOUS
 10
115.6568976079
 20
213.3907412579
  0
VERTEX
  8
0
 62
7
  6
CONTINUOUS
 10
115.6489441175
 20
213.3509694027
  0
VERTEX
  8
0
 62
7
  6
CONTINUOUS
 10
115.6420874455
 20
213.3108039868
  0
VERTEX
  8
0
 62
7
  6
CONTINUOUS
 10
115.6364969351
 20
213.2704842216
  0
VERTEX
  8
0
 62
7
  6
CONTINUOUS
 10
115.632346379
 20
213.2303403288
  0
VERTEX
  8
0
 62
7
  6
CONTINUOUS
 10
115.6297993652
 20
213.1908719677
  0
VERTEX
  8
0
 62
7
  6
CONTINUOUS
 10
115.6289658286
 20
213.153502161
  0
SEQEND
  0
POLYLINE
  8
0
 62
7
  6
CONTINUOUS
 66
1
 70
0
  0
VERTEX
  8
0
 62
7
  6
CONTINUOUS
 10
128.9779802858
 20
214.507704669
  0
VERTEX
  8
0
 62
7
  6
CONTINUOUS
 10
128.958212511
 20
214.4893404176
  0
VERTEX
  8
0
 62
7
  6
CONTINUOUS
 10
128.9320048172
 20
214.4638581759
  0
VERTEX
  8
0
 62
7
  6
CONTINUOUS
 10
128.9070648907
 20
214.4383935772
  0
VERTEX
  8
0
 62
7
  6
CONTINUOUS
 10
128.8832315394
 20
214.4129347157
  0
VERTEX
  8
0
 62
7
  6
CONTINUOUS
 10
128.8603648452
 20
214.3874553999
  0
VERTEX
  8
0
 62
7
  6
CONTINUOUS
 10
128.8383336354
 20
214.3619125488
  0
VERTEX
  8
0
 62
7
  6
CONTINUOUS
 10
128.8170035521
 20
214.3362328791
  0
VERTEX
  8
0
 62
7
  6
CONTINUOUS
 10
128.7962507119
 20
214.3103279066
  0
VERTEX
  8
0
 62
7
  6
CONTINUOUS
 10
128.7759740031
 20
214.2841173238
  0
VERTEX
  8
0
 62
7
  6
CONTINUOUS
 10
128.756133202
 20
214.2575850728
  0
VERTEX
  8
0
 62
7
  6
CONTINUOUS
 10
128.7367092226
 20
214.2307336972
  0
VERTEX
  8
0
 62
7
  6
CONTINUOUS
 10
128.7176884081
 20
214.2035704505
  0
VERTEX
  8
0
 62
7
  6
CONTINUOUS
 10
128.6990514648
 20
214.1760911115
  0
VERTEX
  8
0
 62
7
  6
CONTINUOUS
 10
128.6807830602
 20
214.1482899863
  0
VERTEX
  8
0
 62
7
  6
CONTINUOUS
 10
128.6628718424
 20
214.1201654349
  0
VERTEX
  8
0
 62
7
  6
CONTINUOUS
 10
128.6453001312
 20
214.0917013456
  0
VERTEX
  8
0
 62
7
  6
CONTINUOUS
 10
128.6280570881
 20
214.0628857412
  0
VERTEX
  8
0
 62
7
  6
CONTINUOUS
 10
128.6111317381
 20
214.0337049331
  0
VERTEX
  8
0
 62
7
  6
CONTINUOUS
 10
128.5945131693
 20
214.0041377992
  0
VERTEX
  8
0
 62
7
  6
CONTINUOUS
 10
128.5782063978
 20
213.9741882656
  0
VERTEX
  8
0
 62
7
  6
CONTINUOUS
 10
128.5622101369
 20
213.9438468385
  0
VERTEX
  8
0
 62
7
  6
CONTINUOUS
 10
128.5465296433
 20
213.9131096001
  0
VERTEX
  8
0
 62
7
  6
CONTINUOUS
 10
128.5311678083
 20
213.8819681494
  0
VERTEX
  8
0
 62
7
  6
CONTINUOUS
 10
128.5161280487
 20
213.8504056191
  0
VERTEX
  8
0
 62
7
  6
CONTINUOUS
 10
128.5014171633
 20
213.8184110269
  0
VERTEX
  8
0
 62
7
  6
CONTINUOUS
 10
128.4870389303
 20
213.7859554606
  0
VERTEX
  8
0
 62
7
  6
CONTINUOUS
 10
128.4730031465
 20
213.7530194563
  0
VERTEX
  8
0
 62
7
  6
CONTINUOUS
 10
128.4593164523
 20
213.7195608254
  0
VERTEX
  8
0
 62
7
  6
CONTINUOUS
 10
128.4459916261
 20
213.685544549
  0
VERTEX
  8
0
 62
7
  6
CONTINUOUS
 10
128.4330470453
 20
213.6509274975
  0
VERTEX
  8
0
 62
7
  6
CONTINUOUS
 10
128.4205187346
 20
213.615704776
  0
VERTEX
  8
0
 62
7
  6
CONTINUOUS
 10
128.4084520167
 20
213.5798760276
  0
VERTEX
  8
0
 62
7
  6
CONTINUOUS
 10
128.3968892063
 20
213.5434155206
  0
VERTEX
  8
0
 62
7
  6
CONTINUOUS
 10
128.3858841518
 20
213.5063073845
  0
VERTEX
  8
0
 62
7
  6
CONTINUOUS
 10
128.3754959148
 20
213.4685081847
  0
VERTEX
  8
0
 62
7
  6
CONTINUOUS
 10
128.3657953074
 20
213.4299642705
  0
VERTEX
  8
0
 62
7
  6
CONTINUOUS
 10
128.3568976079
 20
213.3907412579
  0
VERTEX
  8
0
 62
7
  6
CONTINUOUS
 10
128.3489441175
 20
213.3509694027
  0
VERTEX
  8
0
 62
7
  6
CONTINUOUS
 10
128.3420874455
 20
213.3108039868
  0
VERTEX
  8
0
 62
7
  6
CONTINUOUS
 10
128.3364969351
 20
213.2704842216
  0
VERTEX
  8
0
 62
7
  6
CONTINUOUS
 10
128.332346379
 20
213.2303403288
  0
VERTEX
  8
0
 62
7
  6
CONTINUOUS
 10
128.3297993652
 20
213.1908719677
  0
VERTEX
  8
0
 62
7
  6
CONTINUOUS
 10
128.3289658286
 20
213.153502161
  0
SEQEND
  0
POLYLINE
  8
0
 62
7
  6
CONTINUOUS
 66
1
 70
0
  0
VERTEX
  8
0
 62
7
  6
CONTINUOUS
 10
116.3690232749
 20
214.589017427
  0
VERTEX
  8
0
 62
7
  6
CONTINUOUS
 10
116.3195273765
 20
214.545203891
  0
VERTEX
  8
0
 62
7
  6
CONTINUOUS
 10
116.277976579
 20
214.5077005469
  0
SEQEND
  0
POLYLINE
  8
0
 62
7
  6
CONTINUOUS
 66
1
 70
0
  0
VERTEX
  8
0
 62
7
  6
CONTINUOUS
 10
129.0690232749
 20
214.589017427
  0
VERTEX
  8
0
 62
7
  6
CONTINUOUS
 10
129.0195273765
 20
214.545203891
  0
VERTEX
  8
0
 62
7
  6
CONTINUOUS
 10
128.977976579
 20
214.5077005469
  0
SEQEND
  0
LINE
  8
0
 62
7
  6
CONTINUOUS
 10
116.4113205406
 20
214.6257193951
 11
116.3690232749
 21
214.589017427
  0
LINE
  8
0
 62
7
  6
CONTINUOUS
 10
129.1113205406
 20
214.6257193951
 11
129.0690232749
 21
214.589017427
  0
POLYLINE
  8
AXES
 62
7
  6
CONTINUOUS
 66
1
 70
0
  0
VERTEX
  8
AXES
 62
7
  6
CONTINUOUS
 10
188.4971346426
 20
205.9216103193
  0
VERTEX
  8
AXES
 62
7
  6
CONTINUOUS
 10
188.4720832907
 20
205.929446083
  0
VERTEX
  8
AXES
 62
7
  6
CONTINUOUS
 10
188.4483602152
 20
205.9419873097
  0
VERTEX
  8
AXES
 62
7
  6
CONTINUOUS
 10
188.4270121053
 20
205.9591300152
  0
VERTEX
  8
AXES
 62
7
  6
CONTINUOUS
 10
188.4081346769
 20
205.981708166
  0
VERTEX
  8
AXES
 62
7
  6
CONTINUOUS
 10
188.3929205366
 20
206.010071472
  0
VERTEX
  8
AXES
 62
7
  6
CONTINUOUS
 10
188.3827522251
 20
206.0441529614
  0
VERTEX
  8
AXES
 62
7
  6
CONTINUOUS
 10
188.3789515187
 20
206.0845711086
  0
SEQEND
  0
POLYLINE
  8
0
 62
7
  6
CONTINUOUS
 66
1
 70
0
  0
VERTEX
  8
0
 62
7
  6
CONTINUOUS
 10
108.2377514788
 20
214.545787927
  0
VERTEX
  8
0
 62
7
  6
CONTINUOUS
 10
108.1882545614
 20
214.5895900281
  0
VERTEX
  8
0
 62
7
  6
CONTINUOUS
 10
108.1466112236
 20
214.6257193945
  0
SEQEND
  0
LINE
  8
0
 62
7
  6
CONTINUOUS
 10
108.2799551884
 20
214.5077005413
 11
108.2377514788
 21
214.545787927
  0
POLYLINE
  8
0
 62
7
  6
CONTINUOUS
 66
1
 70
0
  0
VERTEX
  8
0
 62
7
  6
CONTINUOUS
 10
108.928964898
 20
213.153502158
  0
VERTEX
  8
0
 62
7
  6
CONTINUOUS
 10
108.9280714427
 20
213.1922384027
  0
VERTEX
  8
0
 62
7
  6
CONTINUOUS
 10
108.9255234933
 20
213.2310778241
  0
VERTEX
  8
0
 62
7
  6
CONTINUOUS
 10
108.9214402345
 20
213.2704453715
  0
VERTEX
  8
0
 62
7
  6
CONTINUOUS
 10
108.9160196951
 20
213.3096676005
  0
VERTEX
  8
0
 62
7
  6
CONTINUOUS
 10
108.9094741497
 20
213.3483325218
  0
VERTEX
  8
0
 62
7
  6
CONTINUOUS
 10
108.9019733769
 20
213.3863173945
  0
VERTEX
  8
0
 62
7
  6
CONTINUOUS
 10
108.8936397799
 20
213.4236394851
  0
VERTEX
  8
0
 62
7
  6
CONTINUOUS
 10
108.8845700461
 20
213.4603323225
  0
VERTEX
  8
0
 62
7
  6
CONTINUOUS
 10
108.8748455277
 20
213.4964219221
  0
VERTEX
  8
0
 62
7
  6
CONTINUOUS
 10
108.8645406368
 20
213.5319032179
  0
VERTEX
  8
0
 62
7
  6
CONTINUOUS
 10
108.8536984319
 20
213.566837826
  0
VERTEX
  8
0
 62
7
  6
CONTINUOUS
 10
108.8423351188
 20
213.6013355568
  0
VERTEX
  8
0
 62
7
  6
CONTINUOUS
 10
108.8304629339
 20
213.6354710995
  0
VERTEX
  8
0
 62
7
  6
CONTINUOUS
 10
108.8180824477
 20
213.6693254775
  0
VERTEX
  8
0
 62
7
  6
CONTINUOUS
 10
108.8051987509
 20
213.7029449449
  0
VERTEX
  8
0
 62
7
  6
CONTINUOUS
 10
108.7918049325
 20
213.7363849769
  0
VERTEX
  8
0
 62
7
  6
CONTINUOUS
 10
108.7778944585
 20
213.7696897247
  0
VERTEX
  8
0
 62
7
  6
CONTINUOUS
 10
108.763455493
 20
213.8028967799
  0
VERTEX
  8
0
 62
7
  6
CONTINUOUS
 10
108.7484761707
 20
213.8360381149
  0
VERTEX
  8
0
 62
7
  6
CONTINUOUS
 10
108.7329432219
 20
213.8691337255
  0
VERTEX
  8
0
 62
7
  6
CONTINUOUS
 10
108.7168426792
 20
213.9022017346
  0
VERTEX
  8
0
 62
7
  6
CONTINUOUS
 10
108.7001754956
 20
213.9352191138
  0
VERTEX
  8
0
 62
7
  6
CONTINUOUS
 10
108.68295358
 20
213.9681443321
  0
VERTEX
  8
0
 62
7
  6
CONTINUOUS
 10
108.6651885961
 20
214.000932582
  0
VERTEX
  8
0
 62
7
  6
CONTINUOUS
 10
108.6468939384
 20
214.0335405418
  0
VERTEX
  8
0
 62
7
  6
CONTINUOUS
 10
108.6280784185
 20
214.0659297233
  0
VERTEX
  8
0
 62
7
  6
CONTINUOUS
 10
108.6087500961
 20
214.0980654365
  0
VERTEX
  8
0
 62
7
  6
CONTINUOUS
 10
108.5889048082
 20
214.1299297145
  0
VERTEX
  8
0
 62
7
  6
CONTINUOUS
 10
108.5685461812
 20
214.1614900604
  0
VERTEX
  8
0
 62
7
  6
CONTINUOUS
 10
108.547668861
 20
214.192726625
  0
VERTEX
  8
0
 62
7
  6
CONTINUOUS
 10
108.5262725864
 20
214.2236066777
  0
VERTEX
  8
0
 62
7
  6
CONTINUOUS
 10
108.5043549686
 20
214.2541012378
  0
VERTEX
  8
0
 62
7
  6
CONTINUOUS
 10
108.4819081634
 20
214.2841828708
  0
VERTEX
  8
0
 62
7
  6
CONTINUOUS
 10
108.4589314132
 20
214.3138127972
  0
VERTEX
  8
0
 62
7
  6
CONTINUOUS
 10
108.4353738285
 20
214.3430113729
  0
VERTEX
  8
0
 62
7
  6
CONTINUOUS
 10
108.4110728232
 20
214.371913835
  0
VERTEX
  8
0
 62
7
  6
CONTINUOUS
 10
108.385841561
 20
214.400650096
  0
VERTEX
  8
0
 62
7
  6
CONTINUOUS
 10
108.3594725743
 20
214.4293291417
  0
VERTEX
  8
0
 62
7
  6
CONTINUOUS
 10
108.3317589742
 20
214.4580099773
  0
VERTEX
  8
0
 62
7
  6
CONTINUOUS
 10
108.3024780413
 20
214.4867187398
  0
VERTEX
  8
0
 62
7
  6
CONTINUOUS
 10
108.2799526108
 20
214.507704078
  0
SEQEND
  0
LINE
  8
0
 62
7
  6
CONTINUOUS
 10
108.1789658818
 20
215.404396351
 11
108.1789658818
 21
214.5976487987
  0
LINE
  8
0
 62
7
  6
CONTINUOUS
 10
108.9289658818
 20
213.1535021365
 11
108.9289658818
 21
202.1555903209
  0
LINE
  8
0
 62
7
  6
CONTINUOUS
 10
115.6289658818
 20
202.1555903209
 11
115.6289658818
 21
213.1534892479
  0
LINE
  8
0
 62
7
  6
CONTINUOUS
 10
116.3789658818
 20
214.5976447753
 11
116.3789658818
 21
215.4043977919
  0
POLYLINE
  8
0
 62
7
  6
CONTINUOUS
 66
1
 70
0
  0
VERTEX
  8
0
 62
7
  6
CONTINUOUS
 10
141.6779802858
 20
214.507704669
  0
VERTEX
  8
0
 62
7
  6
CONTINUOUS
 10
141.658212511
 20
214.4893404176
  0
VERTEX
  8
0
 62
7
  6
CONTINUOUS
 10
141.6320048172
 20
214.4638581759
  0
VERTEX
  8
0
 62
7
  6
CONTINUOUS
 10
141.6070648907
 20
214.4383935772
  0
VERTEX
  8
0
 62
7
  6
CONTINUOUS
 10
141.5832315394
 20
214.4129347157
  0
VERTEX
  8
0
 62
7
  6
CONTINUOUS
 10
141.5603648452
 20
214.3874553999
  0
VERTEX
  8
0
 62
7
  6
CONTINUOUS
 10
141.5383336354
 20
214.3619125488
  0
VERTEX
  8
0
 62
7
  6
CONTINUOUS
 10
141.5170035521
 20
214.3362328791
  0
VERTEX
  8
0
 62
7
  6
CONTINUOUS
 10
141.4962507119
 20
214.3103279066
  0
VERTEX
  8
0
 62
7
  6
CONTINUOUS
 10
141.4759740031
 20
214.2841173238
  0
VERTEX
  8
0
 62
7
  6
CONTINUOUS
 10
141.456133202
 20
214.2575850728
  0
VERTEX
  8
0
 62
7
  6
CONTINUOUS
 10
141.4367092226
 20
214.2307336972
  0
VERTEX
  8
0
 62
7
  6
CONTINUOUS
 10
141.4176884081
 20
214.2035704505
  0
VERTEX
  8
0
 62
7
  6
CONTINUOUS
 10
141.3990514648
 20
214.1760911115
  0
VERTEX
  8
0
 62
7
  6
CONTINUOUS
 10
141.3807830602
 20
214.1482899863
  0
VERTEX
  8
0
 62
7
  6
CONTINUOUS
 10
141.3628718424
 20
214.1201654349
  0
VERTEX
  8
0
 62
7
  6
CONTINUOUS
 10
141.3453001312
 20
214.0917013456
  0
VERTEX
  8
0
 62
7
  6
CONTINUOUS
 10
141.3280570881
 20
214.0628857412
  0
VERTEX
  8
0
 62
7
  6
CONTINUOUS
 10
141.3111317381
 20
214.0337049331
  0
VERTEX
  8
0
 62
7
  6
CONTINUOUS
 10
141.2945131693
 20
214.0041377992
  0
VERTEX
  8
0
 62
7
  6
CONTINUOUS
 10
141.2782063978
 20
213.9741882656
  0
VERTEX
  8
0
 62
7
  6
CONTINUOUS
 10
141.2622101369
 20
213.9438468385
  0
VERTEX
  8
0
 62
7
  6
CONTINUOUS
 10
141.2465296433
 20
213.9131096001
  0
VERTEX
  8
0
 62
7
  6
CONTINUOUS
 10
141.2311678083
 20
213.8819681494
  0
VERTEX
  8
0
 62
7
  6
CONTINUOUS
 10
141.2161280487
 20
213.8504056191
  0
VERTEX
  8
0
 62
7
  6
CONTINUOUS
 10
141.2014171633
 20
213.8184110269
  0
VERTEX
  8
0
 62
7
  6
CONTINUOUS
 10
141.1870389303
 20
213.7859554606
  0
VERTEX
  8
0
 62
7
  6
CONTINUOUS
 10
141.1730031465
 20
213.7530194563
  0
VERTEX
  8
0
 62
7
  6
CONTINUOUS
 10
141.1593164523
 20
213.7195608254
  0
VERTEX
  8
0
 62
7
  6
CONTINUOUS
 10
141.1459916261
 20
213.685544549
  0
VERTEX
  8
0
 62
7
  6
CONTINUOUS
 10
141.1330470453
 20
213.6509274975
  0
VERTEX
  8
0
 62
7
  6
CONTINUOUS
 10
141.1205187346
 20
213.615704776
  0
VERTEX
  8
0
 62
7
  6
CONTINUOUS
 10
141.1084520167
 20
213.5798760276
  0
VERTEX
  8
0
 62
7
  6
CONTINUOUS
 10
141.0968892063
 20
213.5434155206
  0
VERTEX
  8
0
 62
7
  6
CONTINUOUS
 10
141.0858841518
 20
213.5063073845
  0
VERTEX
  8
0
 62
7
  6
CONTINUOUS
 10
141.0754959148
 20
213.4685081847
  0
VERTEX
  8
0
 62
7
  6
CONTINUOUS
 10
141.0657953074
 20
213.4299642705
  0
VERTEX
  8
0
 62
7
  6
CONTINUOUS
 10
141.0568976079
 20
213.3907412579
  0
VERTEX
  8
0
 62
7
  6
CONTINUOUS
 10
141.0489441175
 20
213.3509694027
  0
VERTEX
  8
0
 62
7
  6
CONTINUOUS
 10
141.0420874455
 20
213.3108039868
  0
VERTEX
  8
0
 62
7
  6
CONTINUOUS
 10
141.0364969351
 20
213.2704842216
  0
VERTEX
  8
0
 62
7
  6
CONTINUOUS
 10
141.032346379
 20
213.2303403288
  0
VERTEX
  8
0
 62
7
  6
CONTINUOUS
 10
141.0297993652
 20
213.1908719677
  0
VERTEX
  8
0
 62
7
  6
CONTINUOUS
 10
141.0289658286
 20
213.153502161
  0
SEQEND
  0
POLYLINE
  8
0
 62
7
  6
CONTINUOUS
 66
1
 70
0
  0
VERTEX
  8
0
 62
7
  6
CONTINUOUS
 10
141.7690232749
 20
214.589017427
  0
VERTEX
  8
0
 62
7
  6
CONTINUOUS
 10
141.7195273765
 20
214.545203891
  0
VERTEX
  8
0
 62
7
  6
CONTINUOUS
 10
141.677976579
 20
214.5077005469
  0
SEQEND
  0
LINE
  8
0
 62
7
  6
CONTINUOUS
 10
141.8113205406
 20
214.6257193951
 11
141.7690232749
 21
214.589017427
  0
POLYLINE
  8
0
 62
7
  6
CONTINUOUS
 66
1
 70
0
  0
VERTEX
  8
0
 62
7
  6
CONTINUOUS
 10
120.9377514788
 20
214.545787927
  0
VERTEX
  8
0
 62
7
  6
CONTINUOUS
 10
120.8882545614
 20
214.5895900281
  0
VERTEX
  8
0
 62
7
  6
CONTINUOUS
 10
120.8466112236
 20
214.6257193945
  0
SEQEND
  0
POLYLINE
  8
0
 62
7
  6
CONTINUOUS
 66
1
 70
0
  0
VERTEX
  8
0
 62
7
  6
CONTINUOUS
 10
133.6377514788
 20
214.545787927
  0
VERTEX
  8
0
 62
7
  6
CONTINUOUS
 10
133.5882545614
 20
214.5895900281
  0
VERTEX
  8
0
 62
7
  6
CONTINUOUS
 10
133.5466112236
 20
214.6257193945
  0
SEQEND
  0
LINE
  8
0
 62
7
  6
CONTINUOUS
 10
120.9799551884
 20
214.5077005413
 11
120.9377514788
 21
214.545787927
  0
LINE
  8
0
 62
7
  6
CONTINUOUS
 10
133.6799551884
 20
214.5077005413
 11
133.6377514788
 21
214.545787927
  0
POLYLINE
  8
0
 62
7
  6
CONTINUOUS
 66
1
 70
0
  0
VERTEX
  8
0
 62
7
  6
CONTINUOUS
 10
121.628964898
 20
213.153502158
  0
VERTEX
  8
0
 62
7
  6
CONTINUOUS
 10
121.6280714427
 20
213.1922384027
  0
VERTEX
  8
0
 62
7
  6
CONTINUOUS
 10
121.6255234933
 20
213.2310778241
  0
VERTEX
  8
0
 62
7
  6
CONTINUOUS
 10
121.6214402345
 20
213.2704453715
  0
VERTEX
  8
0
 62
7
  6
CONTINUOUS
 10
121.6160196951
 20
213.3096676005
  0
VERTEX
  8
0
 62
7
  6
CONTINUOUS
 10
121.6094741497
 20
213.3483325218
  0
VERTEX
  8
0
 62
7
  6
CONTINUOUS
 10
121.6019733769
 20
213.3863173945
  0
VERTEX
  8
0
 62
7
  6
CONTINUOUS
 10
121.5936397799
 20
213.4236394851
  0
VERTEX
  8
0
 62
7
  6
CONTINUOUS
 10
121.5845700461
 20
213.4603323225
  0
VERTEX
  8
0
 62
7
  6
CONTINUOUS
 10
121.5748455277
 20
213.4964219221
  0
VERTEX
  8
0
 62
7
  6
CONTINUOUS
 10
121.5645406368
 20
213.5319032179
  0
VERTEX
  8
0
 62
7
  6
CONTINUOUS
 10
121.5536984319
 20
213.566837826
  0
VERTEX
  8
0
 62
7
  6
CONTINUOUS
 10
121.5423351188
 20
213.6013355568
  0
VERTEX
  8
0
 62
7
  6
CONTINUOUS
 10
121.5304629339
 20
213.6354710995
  0
VERTEX
  8
0
 62
7
  6
CONTINUOUS
 10
121.5180824477
 20
213.6693254775
  0
VERTEX
  8
0
 62
7
  6
CONTINUOUS
 10
121.5051987509
 20
213.7029449449
  0
VERTEX
  8
0
 62
7
  6
CONTINUOUS
 10
121.4918049325
 20
213.7363849769
  0
VERTEX
  8
0
 62
7
  6
CONTINUOUS
 10
121.4778944585
 20
213.7696897247
  0
VERTEX
  8
0
 62
7
  6
CONTINUOUS
 10
121.463455493
 20
213.8028967799
  0
VERTEX
  8
0
 62
7
  6
CONTINUOUS
 10
121.4484761707
 20
213.8360381149
  0
VERTEX
  8
0
 62
7
  6
CONTINUOUS
 10
121.4329432219
 20
213.8691337255
  0
VERTEX
  8
0
 62
7
  6
CONTINUOUS
 10
121.4168426792
 20
213.9022017346
  0
VERTEX
  8
0
 62
7
  6
CONTINUOUS
 10
121.4001754956
 20
213.9352191138
  0
VERTEX
  8
0
 62
7
  6
CONTINUOUS
 10
121.38295358
 20
213.9681443321
  0
VERTEX
  8
0
 62
7
  6
CONTINUOUS
 10
121.3651885961
 20
214.000932582
  0
VERTEX
  8
0
 62
7
  6
CONTINUOUS
 10
121.3468939384
 20
214.0335405418
  0
VERTEX
  8
0
 62
7
  6
CONTINUOUS
 10
121.3280784185
 20
214.0659297233
  0
VERTEX
  8
0
 62
7
  6
CONTINUOUS
 10
121.3087500961
 20
214.0980654365
  0
VERTEX
  8
0
 62
7
  6
CONTINUOUS
 10
121.2889048082
 20
214.1299297145
  0
VERTEX
  8
0
 62
7
  6
CONTINUOUS
 10
121.2685461812
 20
214.1614900604
  0
VERTEX
  8
0
 62
7
  6
CONTINUOUS
 10
121.247668861
 20
214.192726625
  0
VERTEX
  8
0
 62
7
  6
CONTINUOUS
 10
121.2262725864
 20
214.2236066777
  0
VERTEX
  8
0
 62
7
  6
CONTINUOUS
 10
121.2043549686
 20
214.2541012378
  0
VERTEX
  8
0
 62
7
  6
CONTINUOUS
 10
121.1819081634
 20
214.2841828708
  0
VERTEX
  8
0
 62
7
  6
CONTINUOUS
 10
121.1589314132
 20
214.3138127972
  0
VERTEX
  8
0
 62
7
  6
CONTINUOUS
 10
121.1353738285
 20
214.3430113729
  0
VERTEX
  8
0
 62
7
  6
CONTINUOUS
 10
121.1110728232
 20
214.371913835
  0
VERTEX
  8
0
 62
7
  6
CONTINUOUS
 10
121.085841561
 20
214.400650096
  0
VERTEX
  8
0
 62
7
  6
CONTINUOUS
 10
121.0594725743
 20
214.4293291417
  0
VERTEX
  8
0
 62
7
  6
CONTINUOUS
 10
121.0317589742
 20
214.4580099773
  0
VERTEX
  8
0
 62
7
  6
CONTINUOUS
 10
121.0024780413
 20
214.4867187398
  0
VERTEX
  8
0
 62
7
  6
CONTINUOUS
 10
120.9799526108
 20
214.507704078
  0
SEQEND
  0
LINE
  8
0
 62
7
  6
CONTINUOUS
 10
120.8789658818
 20
215.404396351
 11
120.8789658818
 21
214.5976487987
  0
LINE
  8
0
 62
7
  6
CONTINUOUS
 10
121.6289658818
 20
213.1535021365
 11
121.6289658818
 21
202.1555903209
  0
LINE
  8
0
 62
7
  6
CONTINUOUS
 10
128.3289658818
 20
202.1555903209
 11
128.3289658818
 21
213.1534892479
  0
LINE
  8
0
 62
7
  6
CONTINUOUS
 10
129.0789658818
 20
214.5976447753
 11
129.0789658818
 21
215.4043977919
  0
POLYLINE
  8
0
 62
7
  6
CONTINUOUS
 66
1
 70
0
  0
VERTEX
  8
0
 62
7
  6
CONTINUOUS
 10
154.773994649
 20
214.507704669
  0
VERTEX
  8
0
 62
7
  6
CONTINUOUS
 10
154.7542268742
 20
214.4893404176
  0
VERTEX
  8
0
 62
7
  6
CONTINUOUS
 10
154.7280191804
 20
214.4638581759
  0
VERTEX
  8
0
 62
7
  6
CONTINUOUS
 10
154.7030792539
 20
214.4383935772
  0
VERTEX
  8
0
 62
7
  6
CONTINUOUS
 10
154.6792459026
 20
214.4129347158
  0
VERTEX
  8
0
 62
7
  6
CONTINUOUS
 10
154.6563792084
 20
214.3874553999
  0
VERTEX
  8
0
 62
7
  6
CONTINUOUS
 10
154.6343479986
 20
214.3619125489
  0
VERTEX
  8
0
 62
7
  6
CONTINUOUS
 10
154.6130179153
 20
214.3362328791
  0
VERTEX
  8
0
 62
7
  6
CONTINUOUS
 10
154.5922650751
 20
214.3103279066
  0
VERTEX
  8
0
 62
7
  6
CONTINUOUS
 10
154.5719883663
 20
214.2841173238
  0
VERTEX
  8
0
 62
7
  6
CONTINUOUS
 10
154.5521475652
 20
214.2575850729
  0
VERTEX
  8
0
 62
7
  6
CONTINUOUS
 10
154.5327235857
 20
214.2307336972
  0
VERTEX
  8
0
 62
7
  6
CONTINUOUS
 10
154.5137027712
 20
214.2035704505
  0
VERTEX
  8
0
 62
7
  6
CONTINUOUS
 10
154.495065828
 20
214.1760911116
  0
VERTEX
  8
0
 62
7
  6
CONTINUOUS
 10
154.4767974234
 20
214.1482899864
  0
VERTEX
  8
0
 62
7
  6
CONTINUOUS
 10
154.4588862056
 20
214.120165435
  0
VERTEX
  8
0
 62
7
  6
CONTINUOUS
 10
154.4413144943
 20
214.0917013456
  0
VERTEX
  8
0
 62
7
  6
CONTINUOUS
 10
154.4240714513
 20
214.0628857412
  0
VERTEX
  8
0
 62
7
  6
CONTINUOUS
 10
154.4071461013
 20
214.0337049332
  0
VERTEX
  8
0
 62
7
  6
CONTINUOUS
 10
154.3905275324
 20
214.0041377992
  0
VERTEX
  8
0
 62
7
  6
CONTINUOUS
 10
154.374220761
 20
213.9741882657
  0
VERTEX
  8
0
 62
7
  6
CONTINUOUS
 10
154.3582245001
 20
213.9438468386
  0
VERTEX
  8
0
 62
7
  6
CONTINUOUS
 10
154.3425440065
 20
213.9131096002
  0
VERTEX
  8
0
 62
7
  6
CONTINUOUS
 10
154.3271821715
 20
213.8819681495
  0
VERTEX
  8
0
 62
7
  6
CONTINUOUS
 10
154.3121424119
 20
213.8504056192
  0
VERTEX
  8
0
 62
7
  6
CONTINUOUS
 10
154.2974315265
 20
213.8184110269
  0
VERTEX
  8
0
 62
7
  6
CONTINUOUS
 10
154.2830532934
 20
213.7859554606
  0
VERTEX
  8
0
 62
7
  6
CONTINUOUS
 10
154.2690175097
 20
213.7530194564
  0
VERTEX
  8
0
 62
7
  6
CONTINUOUS
 10
154.2553308155
 20
213.7195608255
  0
VERTEX
  8
0
 62
7
  6
CONTINUOUS
 10
154.2420059893
 20
213.685544549
  0
VERTEX
  8
0
 62
7
  6
CONTINUOUS
 10
154.2290614085
 20
213.6509274976
  0
VERTEX
  8
0
 62
7
  6
CONTINUOUS
 10
154.2165330978
 20
213.6157047761
  0
VERTEX
  8
0
 62
7
  6
CONTINUOUS
 10
154.2044663798
 20
213.5798760277
  0
VERTEX
  8
0
 62
7
  6
CONTINUOUS
 10
154.1929035695
 20
213.5434155206
  0
VERTEX
  8
0
 62
7
  6
CONTINUOUS
 10
154.181898515
 20
213.5063073846
  0
VERTEX
  8
0
 62
7
  6
CONTINUOUS
 10
154.171510278
 20
213.4685081848
  0
VERTEX
  8
0
 62
7
  6
CONTINUOUS
 10
154.1618096706
 20
213.4299642705
  0
VERTEX
  8
0
 62
7
  6
CONTINUOUS
 10
154.152911971
 20
213.390741258
  0
VERTEX
  8
0
 62
7
  6
CONTINUOUS
 10
154.1449584807
 20
213.3509694028
  0
VERTEX
  8
0
 62
7
  6
CONTINUOUS
 10
154.1381018087
 20
213.3108039869
  0
VERTEX
  8
0
 62
7
  6
CONTINUOUS
 10
154.1325112983
 20
213.2704842217
  0
VERTEX
  8
0
 62
7
  6
CONTINUOUS
 10
154.1283607422
 20
213.2303403288
  0
VERTEX
  8
0
 62
7
  6
CONTINUOUS
 10
154.1258137284
 20
213.1908719678
  0
VERTEX
  8
0
 62
7
  6
CONTINUOUS
 10
154.1249801917
 20
213.153502161
  0
SEQEND
  0
POLYLINE
  8
0
 62
7
  6
CONTINUOUS
 66
1
 70
0
  0
VERTEX
  8
0
 62
7
  6
CONTINUOUS
 10
168.527994649
 20
214.507704669
  0
VERTEX
  8
0
 62
7
  6
CONTINUOUS
 10
168.5082268742
 20
214.4893404176
  0
VERTEX
  8
0
 62
7
  6
CONTINUOUS
 10
168.4820191804
 20
214.4638581759
  0
VERTEX
  8
0
 62
7
  6
CONTINUOUS
 10
168.4570792539
 20
214.4383935772
  0
VERTEX
  8
0
 62
7
  6
CONTINUOUS
 10
168.4332459026
 20
214.4129347158
  0
VERTEX
  8
0
 62
7
  6
CONTINUOUS
 10
168.4103792084
 20
214.3874553999
  0
VERTEX
  8
0
 62
7
  6
CONTINUOUS
 10
168.3883479986
 20
214.3619125489
  0
VERTEX
  8
0
 62
7
  6
CONTINUOUS
 10
168.3670179153
 20
214.3362328791
  0
VERTEX
  8
0
 62
7
  6
CONTINUOUS
 10
168.3462650751
 20
214.3103279066
  0
VERTEX
  8
0
 62
7
  6
CONTINUOUS
 10
168.3259883663
 20
214.2841173238
  0
VERTEX
  8
0
 62
7
  6
CONTINUOUS
 10
168.3061475652
 20
214.2575850729
  0
VERTEX
  8
0
 62
7
  6
CONTINUOUS
 10
168.2867235857
 20
214.2307336972
  0
VERTEX
  8
0
 62
7
  6
CONTINUOUS
 10
168.2677027712
 20
214.2035704505
  0
VERTEX
  8
0
 62
7
  6
CONTINUOUS
 10
168.249065828
 20
214.1760911116
  0
VERTEX
  8
0
 62
7
  6
CONTINUOUS
 10
168.2307974234
 20
214.1482899864
  0
VERTEX
  8
0
 62
7
  6
CONTINUOUS
 10
168.2128862056
 20
214.120165435
  0
VERTEX
  8
0
 62
7
  6
CONTINUOUS
 10
168.1953144943
 20
214.0917013456
  0
VERTEX
  8
0
 62
7
  6
CONTINUOUS
 10
168.1780714513
 20
214.0628857412
  0
VERTEX
  8
0
 62
7
  6
CONTINUOUS
 10
168.1611461013
 20
214.0337049332
  0
VERTEX
  8
0
 62
7
  6
CONTINUOUS
 10
168.1445275324
 20
214.0041377992
  0
VERTEX
  8
0
 62
7
  6
CONTINUOUS
 10
168.128220761
 20
213.9741882657
  0
VERTEX
  8
0
 62
7
  6
CONTINUOUS
 10
168.1122245001
 20
213.9438468386
  0
VERTEX
  8
0
 62
7
  6
CONTINUOUS
 10
168.0965440065
 20
213.9131096002
  0
VERTEX
  8
0
 62
7
  6
CONTINUOUS
 10
168.0811821715
 20
213.8819681495
  0
VERTEX
  8
0
 62
7
  6
CONTINUOUS
 10
168.0661424119
 20
213.8504056192
  0
VERTEX
  8
0
 62
7
  6
CONTINUOUS
 10
168.0514315265
 20
213.8184110269
  0
VERTEX
  8
0
 62
7
  6
CONTINUOUS
 10
168.0370532934
 20
213.7859554606
  0
VERTEX
  8
0
 62
7
  6
CONTINUOUS
 10
168.0230175097
 20
213.7530194564
  0
VERTEX
  8
0
 62
7
  6
CONTINUOUS
 10
168.0093308155
 20
213.7195608255
  0
VERTEX
  8
0
 62
7
  6
CONTINUOUS
 10
167.9960059893
 20
213.685544549
  0
VERTEX
  8
0
 62
7
  6
CONTINUOUS
 10
167.9830614085
 20
213.6509274976
  0
VERTEX
  8
0
 62
7
  6
CONTINUOUS
 10
167.9705330978
 20
213.6157047761
  0
VERTEX
  8
0
 62
7
  6
CONTINUOUS
 10
167.9584663798
 20
213.5798760277
  0
VERTEX
  8
0
 62
7
  6
CONTINUOUS
 10
167.9469035695
 20
213.5434155206
  0
VERTEX
  8
0
 62
7
  6
CONTINUOUS
 10
167.935898515
 20
213.5063073846
  0
VERTEX
  8
0
 62
7
  6
CONTINUOUS
 10
167.925510278
 20
213.4685081848
  0
VERTEX
  8
0
 62
7
  6
CONTINUOUS
 10
167.9158096706
 20
213.4299642705
  0
VERTEX
  8
0
 62
7
  6
CONTINUOUS
 10
167.906911971
 20
213.390741258
  0
VERTEX
  8
0
 62
7
  6
CONTINUOUS
 10
167.8989584807
 20
213.3509694028
  0
VERTEX
  8
0
 62
7
  6
CONTINUOUS
 10
167.8921018087
 20
213.3108039869
  0
VERTEX
  8
0
 62
7
  6
CONTINUOUS
 10
167.8865112983
 20
213.2704842217
  0
VERTEX
  8
0
 62
7
  6
CONTINUOUS
 10
167.8823607422
 20
213.2303403288
  0
VERTEX
  8
0
 62
7
  6
CONTINUOUS
 10
167.8798137284
 20
213.1908719678
  0
VERTEX
  8
0
 62
7
  6
CONTINUOUS
 10
167.8789801917
 20
213.153502161
  0
SEQEND
  0
POLYLINE
  8
0
 62
7
  6
CONTINUOUS
 66
1
 70
0
  0
VERTEX
  8
0
 62
7
  6
CONTINUOUS
 10
154.8650278426
 20
214.5890088489
  0
VERTEX
  8
0
 62
7
  6
CONTINUOUS
 10
154.8155368546
 20
214.5451995207
  0
VERTEX
  8
0
 62
7
  6
CONTINUOUS
 10
154.7739909418
 20
214.5077005463
  0
SEQEND
  0
POLYLINE
  8
0
 62
7
  6
CONTINUOUS
 66
1
 70
0
  0
VERTEX
  8
0
 62
7
  6
CONTINUOUS
 10
168.6190278426
 20
214.5890088489
  0
VERTEX
  8
0
 62
7
  6
CONTINUOUS
 10
168.5695368546
 20
214.5451995207
  0
VERTEX
  8
0
 62
7
  6
CONTINUOUS
 10
168.5279909418
 20
214.5077005463
  0
SEQEND
  0
LINE
  8
0
 62
7
  6
CONTINUOUS
 10
154.9073201754
 20
214.6257067336
 11
154.8650278426
 21
214.5890088489
  0
LINE
  8
0
 62
7
  6
CONTINUOUS
 10
168.6613201754
 20
214.6257067336
 11
168.6190278426
 21
214.5890088489
  0
POLYLINE
  8
0
 62
7
  6
CONTINUOUS
 66
1
 70
0
  0
VERTEX
  8
0
 62
7
  6
CONTINUOUS
 10
146.3377514788
 20
214.545787927
  0
VERTEX
  8
0
 62
7
  6
CONTINUOUS
 10
146.2882545614
 20
214.5895900281
  0
VERTEX
  8
0
 62
7
  6
CONTINUOUS
 10
146.2466112236
 20
214.6257193945
  0
SEQEND
  0
POLYLINE
  8
0
 62
7
  6
CONTINUOUS
 66
1
 70
0
  0
VERTEX
  8
0
 62
7
  6
CONTINUOUS
 10
159.4337420141
 20
214.5457835459
  0
VERTEX
  8
0
 62
7
  6
CONTINUOUS
 10
159.3842500076
 20
214.5895814399
  0
VERTEX
  8
0
 62
7
  6
CONTINUOUS
 10
159.3426115893
 20
214.6257067324
  0
SEQEND
  0
LINE
  8
0
 62
7
  6
CONTINUOUS
 10
146.3799551884
 20
214.5077005413
 11
146.3377514788
 21
214.545787927
  0
LINE
  8
0
 62
7
  6
CONTINUOUS
 10
159.4759408253
 20
214.5077005413
 11
159.4337420141
 21
214.5457835459
  0
POLYLINE
  8
0
 62
7
  6
CONTINUOUS
 66
1
 70
0
  0
VERTEX
  8
0
 62
7
  6
CONTINUOUS
 10
134.328964898
 20
213.153502158
  0
VERTEX
  8
0
 62
7
  6
CONTINUOUS
 10
134.3280714427
 20
213.1922384027
  0
VERTEX
  8
0
 62
7
  6
CONTINUOUS
 10
134.3255234933
 20
213.2310778241
  0
VERTEX
  8
0
 62
7
  6
CONTINUOUS
 10
134.3214402345
 20
213.2704453715
  0
VERTEX
  8
0
 62
7
  6
CONTINUOUS
 10
134.3160196951
 20
213.3096676005
  0
VERTEX
  8
0
 62
7
  6
CONTINUOUS
 10
134.3094741497
 20
213.3483325218
  0
VERTEX
  8
0
 62
7
  6
CONTINUOUS
 10
134.3019733769
 20
213.3863173945
  0
VERTEX
  8
0
 62
7
  6
CONTINUOUS
 10
134.2936397799
 20
213.4236394851
  0
VERTEX
  8
0
 62
7
  6
CONTINUOUS
 10
134.2845700461
 20
213.4603323225
  0
VERTEX
  8
0
 62
7
  6
CONTINUOUS
 10
134.2748455277
 20
213.4964219221
  0
VERTEX
  8
0
 62
7
  6
CONTINUOUS
 10
134.2645406368
 20
213.5319032179
  0
VERTEX
  8
0
 62
7
  6
CONTINUOUS
 10
134.2536984319
 20
213.566837826
  0
VERTEX
  8
0
 62
7
  6
CONTINUOUS
 10
134.2423351188
 20
213.6013355568
  0
VERTEX
  8
0
 62
7
  6
CONTINUOUS
 10
134.2304629339
 20
213.6354710995
  0
VERTEX
  8
0
 62
7
  6
CONTINUOUS
 10
134.2180824477
 20
213.6693254775
  0
VERTEX
  8
0
 62
7
  6
CONTINUOUS
 10
134.2051987509
 20
213.7029449449
  0
VERTEX
  8
0
 62
7
  6
CONTINUOUS
 10
134.1918049325
 20
213.7363849769
  0
VERTEX
  8
0
 62
7
  6
CONTINUOUS
 10
134.1778944585
 20
213.7696897247
  0
VERTEX
  8
0
 62
7
  6
CONTINUOUS
 10
134.163455493
 20
213.8028967799
  0
VERTEX
  8
0
 62
7
  6
CONTINUOUS
 10
134.1484761707
 20
213.8360381149
  0
VERTEX
  8
0
 62
7
  6
CONTINUOUS
 10
134.1329432219
 20
213.8691337255
  0
VERTEX
  8
0
 62
7
  6
CONTINUOUS
 10
134.1168426792
 20
213.9022017346
  0
VERTEX
  8
0
 62
7
  6
CONTINUOUS
 10
134.1001754956
 20
213.9352191138
  0
VERTEX
  8
0
 62
7
  6
CONTINUOUS
 10
134.08295358
 20
213.9681443321
  0
VERTEX
  8
0
 62
7
  6
CONTINUOUS
 10
134.0651885961
 20
214.000932582
  0
VERTEX
  8
0
 62
7
  6
CONTINUOUS
 10
134.0468939384
 20
214.0335405418
  0
VERTEX
  8
0
 62
7
  6
CONTINUOUS
 10
134.0280784185
 20
214.0659297233
  0
VERTEX
  8
0
 62
7
  6
CONTINUOUS
 10
134.0087500961
 20
214.0980654365
  0
VERTEX
  8
0
 62
7
  6
CONTINUOUS
 10
133.9889048082
 20
214.1299297145
  0
VERTEX
  8
0
 62
7
  6
CONTINUOUS
 10
133.9685461812
 20
214.1614900604
  0
VERTEX
  8
0
 62
7
  6
CONTINUOUS
 10
133.947668861
 20
214.192726625
  0
VERTEX
  8
0
 62
7
  6
CONTINUOUS
 10
133.9262725864
 20
214.2236066777
  0
VERTEX
  8
0
 62
7
  6
CONTINUOUS
 10
133.9043549686
 20
214.2541012378
  0
VERTEX
  8
0
 62
7
  6
CONTINUOUS
 10
133.8819081634
 20
214.2841828708
  0
VERTEX
  8
0
 62
7
  6
CONTINUOUS
 10
133.8589314132
 20
214.3138127972
  0
VERTEX
  8
0
 62
7
  6
CONTINUOUS
 10
133.8353738285
 20
214.3430113729
  0
VERTEX
  8
0
 62
7
  6
CONTINUOUS
 10
133.8110728232
 20
214.371913835
  0
VERTEX
  8
0
 62
7
  6
CONTINUOUS
 10
133.785841561
 20
214.400650096
  0
VERTEX
  8
0
 62
7
  6
CONTINUOUS
 10
133.7594725743
 20
214.4293291417
  0
VERTEX
  8
0
 62
7
  6
CONTINUOUS
 10
133.7317589742
 20
214.4580099773
  0
VERTEX
  8
0
 62
7
  6
CONTINUOUS
 10
133.7024780413
 20
214.4867187398
  0
VERTEX
  8
0
 62
7
  6
CONTINUOUS
 10
133.6799526108
 20
214.507704078
  0
SEQEND
  0
LINE
  8
0
 62
7
  6
CONTINUOUS
 10
133.5789658818
 20
215.404396351
 11
133.5789658818
 21
214.5976487987
  0
LINE
  8
0
 62
7
  6
CONTINUOUS
 10
134.3289658818
 20
213.1535021365
 11
134.3289658818
 21
202.1555903209
  0
LINE
  8
0
 62
7
  6
CONTINUOUS
 10
141.0289658818
 20
202.1555903209
 11
141.0289658818
 21
213.1534892479
  0
LINE
  8
0
 62
7
  6
CONTINUOUS
 10
141.7789658818
 20
214.5976447753
 11
141.7789658818
 21
215.4043977919
  0
POLYLINE
  8
0
 62
7
  6
CONTINUOUS
 66
1
 70
0
  0
VERTEX
  8
0
 62
7
  6
CONTINUOUS
 10
183.0279939835
 20
214.507704061
  0
VERTEX
  8
0
 62
7
  6
CONTINUOUS
 10
183.0098748778
 20
214.4908992053
  0
VERTEX
  8
0
 62
7
  6
CONTINUOUS
 10
182.9845171644
 20
214.4663428615
  0
VERTEX
  8
0
 62
7
  6
CONTINUOUS
 10
182.9603462769
 20
214.4417974921
  0
VERTEX
  8
0
 62
7
  6
CONTINUOUS
 10
182.9372096692
 20
214.4172459234
  0
VERTEX
  8
0
 62
7
  6
CONTINUOUS
 10
182.9149755621
 20
214.3926604202
  0
VERTEX
  8
0
 62
7
  6
CONTINUOUS
 10
182.8935179304
 20
214.3679952555
  0
VERTEX
  8
0
 62
7
  6
CONTINUOUS
 10
182.8727076565
 20
214.3431757323
  0
VERTEX
  8
0
 62
7
  6
CONTINUOUS
 10
182.8524277368
 20
214.3181164907
  0
VERTEX
  8
0
 62
7
  6
CONTINUOUS
 10
182.8325723727
 20
214.2927270324
  0
VERTEX
  8
0
 62
7
  6
CONTINUOUS
 10
182.8130909719
 20
214.2669717459
  0
VERTEX
  8
0
 62
7
  6
CONTINUOUS
 10
182.7939733105
 20
214.2408587469
  0
VERTEX
  8
0
 62
7
  6
CONTINUOUS
 10
182.7752134514
 20
214.2144008766
  0
VERTEX
  8
0
 62
7
  6
CONTINUOUS
 10
182.7567997764
 20
214.1876007373
  0
VERTEX
  8
0
 62
7
  6
CONTINUOUS
 10
182.7387247375
 20
214.1604612342
  0
VERTEX
  8
0
 62
7
  6
CONTINUOUS
 10
182.720984352
 20
214.1329899954
  0
VERTEX
  8
0
 62
7
  6
CONTINUOUS
 10
182.7035684243
 20
214.1051822808
  0
VERTEX
  8
0
 62
7
  6
CONTINUOUS
 10
182.6864726524
 20
214.0770373227
  0
VERTEX
  8
0
 62
7
  6
CONTINUOUS
 10
182.6696934966
 20
214.0485555996
  0
VERTEX
  8
0
 62
7
  6
CONTINUOUS
 10
182.6532225499
 20
214.0197241315
  0
VERTEX
  8
0
 62
7
  6
CONTINUOUS
 10
182.6370616758
 20
213.9905443305
  0
VERTEX
  8
0
 62
7
  6
CONTINUOUS
 10
182.6212086125
 20
213.9610093045
  0
VERTEX
  8
0
 62
7
  6
CONTINUOUS
 10
182.6056648458
 20
213.9311121563
  0
VERTEX
  8
0
 62
7
  6
CONTINUOUS
 10
182.5904329347
 20
213.9008482314
  0
VERTEX
  8
0
 62
7
  6
CONTINUOUS
 10
182.5755121549
 20
213.8701985281
  0
VERTEX
  8
0
 62
7
  6
CONTINUOUS
 10
182.5609085626
 20
213.8391555326
  0
VERTEX
  8
0
 62
7
  6
CONTINUOUS
 10
182.5466217809
 20
213.8076902486
  0
VERTEX
  8
0
 62
7
  6
CONTINUOUS
 10
182.5326605233
 20
213.7757875212
  0
VERTEX
  8
0
 62
7
  6
CONTINUOUS
 10
182.5190263659
 20
213.7434065013
  0
VERTEX
  8
0
 62
7
  6
CONTINUOUS
 10
182.5057311387
 20
213.7105202905
  0
VERTEX
  8
0
 62
7
  6
CONTINUOUS
 10
182.4927804971
 20
213.6770720763
  0
VERTEX
  8
0
 62
7
  6
CONTINUOUS
 10
182.4802011522
 20
213.6430461712
  0
VERTEX
  8
0
 62
7
  6
CONTINUOUS
 10
182.4680284857
 20
213.608432292
  0
VERTEX
  8
0
 62
7
  6
CONTINUOUS
 10
182.4563043778
 20
213.5732306967
  0
VERTEX
  8
0
 62
7
  6
CONTINUOUS
 10
182.4450751889
 20
213.5374289264
  0
VERTEX
  8
0
 62
7
  6
CONTINUOUS
 10
182.4343874666
 20
213.5009926079
  0
VERTEX
  8
0
 62
7
  6
CONTINUOUS
 10
182.4243009653
 20
213.4638954842
  0
VERTEX
  8
0
 62
7
  6
CONTINUOUS
 10
182.4148889963
 20
213.4261042288
  0
VERTEX
  8
0
 62
7
  6
CONTINUOUS
 10
182.4062622338
 20
213.3876857693
  0
VERTEX
  8
0
 62
7
  6
CONTINUOUS
 10
182.3985509565
 20
213.3487624564
  0
VERTEX
  8
0
 62
7
  6
CONTINUOUS
 10
182.3918993971
 20
213.3094950517
  0
VERTEX
  8
0
 62
7
  6
CONTINUOUS
 10
182.3864657964
 20
213.2701156557
  0
VERTEX
  8
0
 62
7
  6
CONTINUOUS
 10
182.3824089811
 20
213.2309145617
  0
VERTEX
  8
0
 62
7
  6
CONTINUOUS
 10
182.3798803713
 20
213.1923585348
  0
VERTEX
  8
0
 62
7
  6
CONTINUOUS
 10
182.3789807282
 20
213.153502161
  0
SEQEND
  0
POLYLINE
  8
0
 62
7
  6
CONTINUOUS
 66
1
 70
0
  0
VERTEX
  8
0
 62
7
  6
CONTINUOUS
 10
183.1196817082
 20
214.5895813961
  0
VERTEX
  8
0
 62
7
  6
CONTINUOUS
 10
183.0701897039
 20
214.5457835039
  0
VERTEX
  8
0
 62
7
  6
CONTINUOUS
 10
183.0279909424
 20
214.507700545
  0
SEQEND
  0
LINE
  8
0
 62
7
  6
CONTINUOUS
 10
183.1613201721
 20
214.6257067293
 11
183.1196817082
 21
214.5895813961
  0
POLYLINE
  8
0
 62
7
  6
CONTINUOUS
 66
1
 70
0
  0
VERTEX
  8
0
 62
7
  6
CONTINUOUS
 10
173.1883949021
 20
214.545199526
  0
VERTEX
  8
0
 62
7
  6
CONTINUOUS
 10
173.1389039144
 20
214.5890088543
  0
VERTEX
  8
0
 62
7
  6
CONTINUOUS
 10
173.0966115888
 20
214.6257067331
  0
SEQEND
  0
LINE
  8
0
 62
7
  6
CONTINUOUS
 10
173.2299408218
 20
214.5077005454
 11
173.1883949021
 21
214.545199526
  0
POLYLINE
  8
0
 62
7
  6
CONTINUOUS
 66
1
 70
0
  0
VERTEX
  8
0
 62
7
  6
CONTINUOUS
 10
147.028964898
 20
213.153502158
  0
VERTEX
  8
0
 62
7
  6
CONTINUOUS
 10
147.0280714427
 20
213.1922384027
  0
VERTEX
  8
0
 62
7
  6
CONTINUOUS
 10
147.0255234933
 20
213.2310778241
  0
VERTEX
  8
0
 62
7
  6
CONTINUOUS
 10
147.0214402345
 20
213.2704453715
  0
VERTEX
  8
0
 62
7
  6
CONTINUOUS
 10
147.0160196951
 20
213.3096676005
  0
VERTEX
  8
0
 62
7
  6
CONTINUOUS
 10
147.0094741497
 20
213.3483325218
  0
VERTEX
  8
0
 62
7
  6
CONTINUOUS
 10
147.0019733769
 20
213.3863173945
  0
VERTEX
  8
0
 62
7
  6
CONTINUOUS
 10
146.9936397799
 20
213.4236394851
  0
VERTEX
  8
0
 62
7
  6
CONTINUOUS
 10
146.9845700461
 20
213.4603323225
  0
VERTEX
  8
0
 62
7
  6
CONTINUOUS
 10
146.9748455277
 20
213.4964219221
  0
VERTEX
  8
0
 62
7
  6
CONTINUOUS
 10
146.9645406368
 20
213.5319032179
  0
VERTEX
  8
0
 62
7
  6
CONTINUOUS
 10
146.9536984319
 20
213.566837826
  0
VERTEX
  8
0
 62
7
  6
CONTINUOUS
 10
146.9423351188
 20
213.6013355568
  0
VERTEX
  8
0
 62
7
  6
CONTINUOUS
 10
146.9304629339
 20
213.6354710995
  0
VERTEX
  8
0
 62
7
  6
CONTINUOUS
 10
146.9180824477
 20
213.6693254775
  0
VERTEX
  8
0
 62
7
  6
CONTINUOUS
 10
146.9051987509
 20
213.7029449449
  0
VERTEX
  8
0
 62
7
  6
CONTINUOUS
 10
146.8918049325
 20
213.7363849769
  0
VERTEX
  8
0
 62
7
  6
CONTINUOUS
 10
146.8778944585
 20
213.7696897247
  0
VERTEX
  8
0
 62
7
  6
CONTINUOUS
 10
146.863455493
 20
213.8028967799
  0
VERTEX
  8
0
 62
7
  6
CONTINUOUS
 10
146.8484761707
 20
213.8360381149
  0
VERTEX
  8
0
 62
7
  6
CONTINUOUS
 10
146.8329432219
 20
213.8691337255
  0
VERTEX
  8
0
 62
7
  6
CONTINUOUS
 10
146.8168426792
 20
213.9022017346
  0
VERTEX
  8
0
 62
7
  6
CONTINUOUS
 10
146.8001754956
 20
213.9352191138
  0
VERTEX
  8
0
 62
7
  6
CONTINUOUS
 10
146.78295358
 20
213.9681443321
  0
VERTEX
  8
0
 62
7
  6
CONTINUOUS
 10
146.7651885961
 20
214.000932582
  0
VERTEX
  8
0
 62
7
  6
CONTINUOUS
 10
146.7468939384
 20
214.0335405418
  0
VERTEX
  8
0
 62
7
  6
CONTINUOUS
 10
146.7280784185
 20
214.0659297233
  0
VERTEX
  8
0
 62
7
  6
CONTINUOUS
 10
146.7087500961
 20
214.0980654365
  0
VERTEX
  8
0
 62
7
  6
CONTINUOUS
 10
146.6889048082
 20
214.1299297145
  0
VERTEX
  8
0
 62
7
  6
CONTINUOUS
 10
146.6685461812
 20
214.1614900604
  0
VERTEX
  8
0
 62
7
  6
CONTINUOUS
 10
146.647668861
 20
214.192726625
  0
VERTEX
  8
0
 62
7
  6
CONTINUOUS
 10
146.6262725864
 20
214.2236066777
  0
VERTEX
  8
0
 62
7
  6
CONTINUOUS
 10
146.6043549686
 20
214.2541012378
  0
VERTEX
  8
0
 62
7
  6
CONTINUOUS
 10
146.5819081634
 20
214.2841828708
  0
VERTEX
  8
0
 62
7
  6
CONTINUOUS
 10
146.5589314132
 20
214.3138127972
  0
VERTEX
  8
0
 62
7
  6
CONTINUOUS
 10
146.5353738285
 20
214.3430113729
  0
VERTEX
  8
0
 62
7
  6
CONTINUOUS
 10
146.5110728232
 20
214.371913835
  0
VERTEX
  8
0
 62
7
  6
CONTINUOUS
 10
146.485841561
 20
214.400650096
  0
VERTEX
  8
0
 62
7
  6
CONTINUOUS
 10
146.4594725743
 20
214.4293291417
  0
VERTEX
  8
0
 62
7
  6
CONTINUOUS
 10
146.4317589742
 20
214.4580099773
  0
VERTEX
  8
0
 62
7
  6
CONTINUOUS
 10
146.4024780413
 20
214.4867187398
  0
VERTEX
  8
0
 62
7
  6
CONTINUOUS
 10
146.3799526108
 20
214.507704078
  0
SEQEND
  0
LINE
  8
0
 62
7
  6
CONTINUOUS
 10
146.2789658818
 20
215.404396351
 11
146.2789658818
 21
214.5976487987
  0
LINE
  8
0
 62
7
  6
CONTINUOUS
 10
147.0289658818
 20
213.1535021365
 11
147.0289658818
 21
202.1555903209
  0
LINE
  8
0
 62
7
  6
CONTINUOUS
 10
154.124980245
 20
202.1555903209
 11
154.124980245
 21
213.1534892478
  0
LINE
  8
0
 62
7
  6
CONTINUOUS
 10
154.8749658818
 20
214.59763228
 11
154.8749658818
 21
215.4043977919
  0
POLYLINE
  8
0
 62
7
  6
CONTINUOUS
 66
1
 70
0
  0
VERTEX
  8
0
 62
7
  6
CONTINUOUS
 10
198.652994649
 20
214.507704669
  0
VERTEX
  8
0
 62
7
  6
CONTINUOUS
 10
198.6332268742
 20
214.4893404176
  0
VERTEX
  8
0
 62
7
  6
CONTINUOUS
 10
198.6070191804
 20
214.4638581759
  0
VERTEX
  8
0
 62
7
  6
CONTINUOUS
 10
198.5820792539
 20
214.4383935772
  0
VERTEX
  8
0
 62
7
  6
CONTINUOUS
 10
198.5582459026
 20
214.4129347158
  0
VERTEX
  8
0
 62
7
  6
CONTINUOUS
 10
198.5353792084
 20
214.3874553999
  0
VERTEX
  8
0
 62
7
  6
CONTINUOUS
 10
198.5133479986
 20
214.3619125489
  0
VERTEX
  8
0
 62
7
  6
CONTINUOUS
 10
198.4920179153
 20
214.3362328791
  0
VERTEX
  8
0
 62
7
  6
CONTINUOUS
 10
198.4712650751
 20
214.3103279066
  0
VERTEX
  8
0
 62
7
  6
CONTINUOUS
 10
198.4509883663
 20
214.2841173238
  0
VERTEX
  8
0
 62
7
  6
CONTINUOUS
 10
198.4311475652
 20
214.2575850729
  0
VERTEX
  8
0
 62
7
  6
CONTINUOUS
 10
198.4117235857
 20
214.2307336972
  0
VERTEX
  8
0
 62
7
  6
CONTINUOUS
 10
198.3927027712
 20
214.2035704505
  0
VERTEX
  8
0
 62
7
  6
CONTINUOUS
 10
198.374065828
 20
214.1760911116
  0
VERTEX
  8
0
 62
7
  6
CONTINUOUS
 10
198.3557974234
 20
214.1482899864
  0
VERTEX
  8
0
 62
7
  6
CONTINUOUS
 10
198.3378862056
 20
214.120165435
  0
VERTEX
  8
0
 62
7
  6
CONTINUOUS
 10
198.3203144943
 20
214.0917013456
  0
VERTEX
  8
0
 62
7
  6
CONTINUOUS
 10
198.3030714513
 20
214.0628857412
  0
VERTEX
  8
0
 62
7
  6
CONTINUOUS
 10
198.2861461013
 20
214.0337049332
  0
VERTEX
  8
0
 62
7
  6
CONTINUOUS
 10
198.2695275324
 20
214.0041377992
  0
VERTEX
  8
0
 62
7
  6
CONTINUOUS
 10
198.253220761
 20
213.9741882657
  0
VERTEX
  8
0
 62
7
  6
CONTINUOUS
 10
198.2372245001
 20
213.9438468386
  0
VERTEX
  8
0
 62
7
  6
CONTINUOUS
 10
198.2215440065
 20
213.9131096002
  0
VERTEX
  8
0
 62
7
  6
CONTINUOUS
 10
198.2061821715
 20
213.8819681495
  0
VERTEX
  8
0
 62
7
  6
CONTINUOUS
 10
198.1911424119
 20
213.8504056192
  0
VERTEX
  8
0
 62
7
  6
CONTINUOUS
 10
198.1764315265
 20
213.8184110269
  0
VERTEX
  8
0
 62
7
  6
CONTINUOUS
 10
198.1620532934
 20
213.7859554606
  0
VERTEX
  8
0
 62
7
  6
CONTINUOUS
 10
198.1480175097
 20
213.7530194564
  0
VERTEX
  8
0
 62
7
  6
CONTINUOUS
 10
198.1343308155
 20
213.7195608255
  0
VERTEX
  8
0
 62
7
  6
CONTINUOUS
 10
198.1210059893
 20
213.685544549
  0
VERTEX
  8
0
 62
7
  6
CONTINUOUS
 10
198.1080614085
 20
213.6509274976
  0
VERTEX
  8
0
 62
7
  6
CONTINUOUS
 10
198.0955330978
 20
213.6157047761
  0
VERTEX
  8
0
 62
7
  6
CONTINUOUS
 10
198.0834663798
 20
213.5798760277
  0
VERTEX
  8
0
 62
7
  6
CONTINUOUS
 10
198.0719035695
 20
213.5434155206
  0
VERTEX
  8
0
 62
7
  6
CONTINUOUS
 10
198.060898515
 20
213.5063073846
  0
VERTEX
  8
0
 62
7
  6
CONTINUOUS
 10
198.050510278
 20
213.4685081848
  0
VERTEX
  8
0
 62
7
  6
CONTINUOUS
 10
198.0408096706
 20
213.4299642705
  0
VERTEX
  8
0
 62
7
  6
CONTINUOUS
 10
198.031911971
 20
213.390741258
  0
VERTEX
  8
0
 62
7
  6
CONTINUOUS
 10
198.0239584807
 20
213.3509694028
  0
VERTEX
  8
0
 62
7
  6
CONTINUOUS
 10
198.0171018087
 20
213.3108039869
  0
VERTEX
  8
0
 62
7
  6
CONTINUOUS
 10
198.0115112983
 20
213.2704842217
  0
VERTEX
  8
0
 62
7
  6
CONTINUOUS
 10
198.0073607422
 20
213.2303403288
  0
VERTEX
  8
0
 62
7
  6
CONTINUOUS
 10
198.0048137284
 20
213.1908719678
  0
VERTEX
  8
0
 62
7
  6
CONTINUOUS
 10
198.0039801917
 20
213.153502161
  0
SEQEND
  0
POLYLINE
  8
0
 62
7
  6
CONTINUOUS
 66
1
 70
0
  0
VERTEX
  8
0
 62
7
  6
CONTINUOUS
 10
198.7440278426
 20
214.5890088489
  0
VERTEX
  8
0
 62
7
  6
CONTINUOUS
 10
198.6945368546
 20
214.5451995207
  0
VERTEX
  8
0
 62
7
  6
CONTINUOUS
 10
198.6529909418
 20
214.5077005463
  0
SEQEND
  0
LINE
  8
0
 62
7
  6
CONTINUOUS
 10
198.7863201754
 20
214.6257067336
 11
198.7440278426
 21
214.5890088489
  0
POLYLINE
  8
0
 62
7
  6
CONTINUOUS
 66
1
 70
0
  0
VERTEX
  8
0
 62
7
  6
CONTINUOUS
 10
187.6877420141
 20
214.5457835459
  0
VERTEX
  8
0
 62
7
  6
CONTINUOUS
 10
187.6382500076
 20
214.5895814399
  0
VERTEX
  8
0
 62
7
  6
CONTINUOUS
 10
187.5966115893
 20
214.6257067324
  0
SEQEND
  0
LINE
  8
0
 62
7
  6
CONTINUOUS
 10
187.7299408253
 20
214.5077005413
 11
187.6877420141
 21
214.5457835459
  0
POLYLINE
  8
AXES
 62
7
  6
CONTINUOUS
 66
1
 70
0
  0
VERTEX
  8
AXES
 62
7
  6
CONTINUOUS
 10
189.6789658767
 20
205.305673765
  0
VERTEX
  8
AXES
 62
7
  6
CONTINUOUS
 10
189.6745183406
 20
205.3099614959
  0
VERTEX
  8
AXES
 62
7
  6
CONTINUOUS
 10
189.6576704105
 20
205.3232616422
  0
VERTEX
  8
AXES
 62
7
  6
CONTINUOUS
 10
189.6278757064
 20
205.3456355435
  0
VERTEX
  8
AXES
 62
7
  6
CONTINUOUS
 10
189.584788744
 20
205.3770408807
  0
VERTEX
  8
AXES
 62
7
  6
CONTINUOUS
 10
189.5274269078
 20
205.417710289
  0
VERTEX
  8
AXES
 62
7
  6
CONTINUOUS
 10
189.4549706801
 20
205.4674865495
  0
VERTEX
  8
AXES
 62
7
  6
CONTINUOUS
 10
189.3669297163
 20
205.5256368826
  0
VERTEX
  8
AXES
 62
7
  6
CONTINUOUS
 10
189.2642946299
 20
205.5900677156
  0
VERTEX
  8
AXES
 62
7
  6
CONTINUOUS
 10
189.149391462
 20
205.6575703322
  0
VERTEX
  8
AXES
 62
7
  6
CONTINUOUS
 10
189.0254113502
 20
205.7243599326
  0
VERTEX
  8
AXES
 62
7
  6
CONTINUOUS
 10
188.8960103726
 20
205.7866239283
  0
VERTEX
  8
AXES
 62
7
  6
CONTINUOUS
 10
188.7633269504
 20
205.8416791503
  0
VERTEX
  8
AXES
 62
7
  6
CONTINUOUS
 10
188.6296831776
 20
205.887196841
  0
VERTEX
  8
AXES
 62
7
  6
CONTINUOUS
 10
188.4971346426
 20
205.9216103193
  0
SEQEND
  0
POLYLINE
  8
0
 62
7
  6
CONTINUOUS
 66
1
 70
0
  0
VERTEX
  8
0
 62
7
  6
CONTINUOUS
 10
160.1249505445
 20
213.153502158
  0
VERTEX
  8
0
 62
7
  6
CONTINUOUS
 10
160.124057065
 20
213.1922385837
  0
VERTEX
  8
0
 62
7
  6
CONTINUOUS
 10
160.1215091082
 20
213.2310779579
  0
VERTEX
  8
0
 62
7
  6
CONTINUOUS
 10
160.1174258562
 20
213.2704455248
  0
VERTEX
  8
0
 62
7
  6
CONTINUOUS
 10
160.1120053218
 20
213.3096677793
  0
VERTEX
  8
0
 62
7
  6
CONTINUOUS
 10
160.1054597849
 20
213.3483325036
  0
VERTEX
  8
0
 62
7
  6
CONTINUOUS
 10
160.0979589551
 20
213.386317565
  0
VERTEX
  8
0
 62
7
  6
CONTINUOUS
 10
160.0896253505
 20
213.4236397665
  0
VERTEX
  8
0
 62
7
  6
CONTINUOUS
 10
160.0805556757
 20
213.4603324222
  0
VERTEX
  8
0
 62
7
  6
CONTINUOUS
 10
160.0708311477
 20
213.4964218928
  0
VERTEX
  8
0
 62
7
  6
CONTINUOUS
 10
160.060526212
 20
213.5319034474
  0
VERTEX
  8
0
 62
7
  6
CONTINUOUS
 10
160.0496840845
 20
213.5668378166
  0
VERTEX
  8
0
 62
7
  6
CONTINUOUS
 10
160.038320708
 20
213.6013356776
  0
VERTEX
  8
0
 62
7
  6
CONTINUOUS
 10
160.0264485471
 20
213.6354712003
  0
VERTEX
  8
0
 62
7
  6
CONTINUOUS
 10
160.0140680636
 20
213.6693255243
  0
VERTEX
  8
0
 62
7
  6
CONTINUOUS
 10
160.0011843542
 20
213.7029450352
  0
VERTEX
  8
0
 62
7
  6
CONTINUOUS
 10
159.9877905648
 20
213.7363849846
  0
VERTEX
  8
0
 62
7
  6
CONTINUOUS
 10
159.9738800592
 20
213.7696898086
  0
VERTEX
  8
0
 62
7
  6
CONTINUOUS
 10
159.9594411249
 20
213.8028967922
  0
VERTEX
  8
0
 62
7
  6
CONTINUOUS
 10
159.9444617692
 20
213.8360382013
  0
VERTEX
  8
0
 62
7
  6
CONTINUOUS
 10
159.9289288413
 20
213.8691337634
  0
VERTEX
  8
0
 62
7
  6
CONTINUOUS
 10
159.9128282778
 20
213.9022018146
  0
VERTEX
  8
0
 62
7
  6
CONTINUOUS
 10
159.8961611076
 20
213.9352191623
  0
VERTEX
  8
0
 62
7
  6
CONTINUOUS
 10
159.8789391809
 20
213.9681444021
  0
VERTEX
  8
0
 62
7
  6
CONTINUOUS
 10
159.8611742012
 20
214.0009326392
  0
VERTEX
  8
0
 62
7
  6
CONTINUOUS
 10
159.8428795417
 20
214.0335406017
  0
VERTEX
  8
0
 62
7
  6
CONTINUOUS
 10
159.8240640219
 20
214.0659297799
  0
VERTEX
  8
0
 62
7
  6
CONTINUOUS
 10
159.8047357012
 20
214.0980654886
  0
VERTEX
  8
0
 62
7
  6
CONTINUOUS
 10
159.7848904137
 20
214.1299297645
  0
VERTEX
  8
0
 62
7
  6
CONTINUOUS
 10
159.7645317877
 20
214.1614901064
  0
VERTEX
  8
0
 62
7
  6
CONTINUOUS
 10
159.74365447
 20
214.1927266663
  0
VERTEX
  8
0
 62
7
  6
CONTINUOUS
 10
159.7222581941
 20
214.2236067192
  0
VERTEX
  8
0
 62
7
  6
CONTINUOUS
 10
159.7003405811
 20
214.2541012708
  0
VERTEX
  8
0
 62
7
  6
CONTINUOUS
 10
159.6778937773
 20
214.2841829017
  0
VERTEX
  8
0
 62
7
  6
CONTINUOUS
 10
159.6549170269
 20
214.313812826
  0
VERTEX
  8
0
 62
7
  6
CONTINUOUS
 10
159.6313594488
 20
214.3430113928
  0
VERTEX
  8
0
 62
7
  6
CONTINUOUS
 10
159.6070584431
 20
214.3719138555
  0
VERTEX
  8
0
 62
7
  6
CONTINUOUS
 10
159.5818271832
 20
214.4006501112
  0
VERTEX
  8
0
 62
7
  6
CONTINUOUS
 10
159.555458203
 20
214.4293291504
  0
VERTEX
  8
0
 62
7
  6
CONTINUOUS
 10
159.5277446006
 20
214.4580099883
  0
VERTEX
  8
0
 62
7
  6
CONTINUOUS
 10
159.4984636733
 20
214.4867187428
  0
VERTEX
  8
0
 62
7
  6
CONTINUOUS
 10
159.4759382491
 20
214.5077040754
  0
SEQEND
  0
LINE
  8
0
 62
7
  6
CONTINUOUS
 10
159.3749658818
 20
215.3790815727
 11
159.3749658818
 21
214.597636303
  0
LINE
  8
0
 62
7
  6
CONTINUOUS
 10
160.1249515187
 20
213.1535021367
 11
160.1249515187
 21
202.1555903209
  0
LINE
  8
0
 62
7
  6
CONTINUOUS
 10
167.878980245
 20
202.1555903209
 11
167.878980245
 21
213.153502161
  0
LINE
  8
0
 62
7
  6
CONTINUOUS
 10
168.6289658818
 20
214.59763228
 11
168.6289658818
 21
215.3790816139
  0
POLYLINE
  8
0
 62
7
  6
CONTINUOUS
 66
1
 70
0
  0
VERTEX
  8
0
 62
7
  6
CONTINUOUS
 10
203.3133949021
 20
214.545199526
  0
VERTEX
  8
0
 62
7
  6
CONTINUOUS
 10
203.2639039144
 20
214.5890088543
  0
VERTEX
  8
0
 62
7
  6
CONTINUOUS
 10
203.2216115888
 20
214.6257067331
  0
SEQEND
  0
LINE
  8
0
 62
7
  6
CONTINUOUS
 10
203.3549408218
 20
214.5077005454
 11
203.3133949021
 21
214.545199526
  0
POLYLINE
  8
0
 62
7
  6
CONTINUOUS
 66
1
 70
0
  0
VERTEX
  8
0
 62
7
  6
CONTINUOUS
 10
173.8789508907
 20
213.1535021596
  0
VERTEX
  8
0
 62
7
  6
CONTINUOUS
 10
173.8781803902
 20
213.1894095815
  0
VERTEX
  8
0
 62
7
  6
CONTINUOUS
 10
173.8757302674
 20
213.2284435269
  0
VERTEX
  8
0
 62
7
  6
CONTINUOUS
 10
173.8717163566
 20
213.2680352034
  0
VERTEX
  8
0
 62
7
  6
CONTINUOUS
 10
173.8663399847
 20
213.3074876428
  0
VERTEX
  8
0
 62
7
  6
CONTINUOUS
 10
173.859818646
 20
213.346373031
  0
VERTEX
  8
0
 62
7
  6
CONTINUOUS
 10
173.8523266147
 20
213.3845677804
  0
VERTEX
  8
0
 62
7
  6
CONTINUOUS
 10
173.8439905508
 20
213.4220861115
  0
VERTEX
  8
0
 62
7
  6
CONTINUOUS
 10
173.8349099731
 20
213.4589604379
  0
VERTEX
  8
0
 62
7
  6
CONTINUOUS
 10
173.8251677376
 20
213.4952186466
  0
VERTEX
  8
0
 62
7
  6
CONTINUOUS
 10
173.8148398128
 20
213.5308591274
  0
VERTEX
  8
0
 62
7
  6
CONTINUOUS
 10
173.8039708685
 20
213.5659412501
  0
VERTEX
  8
0
 62
7
  6
CONTINUOUS
 10
173.7925755618
 20
213.6005826088
  0
VERTEX
  8
0
 62
7
  6
CONTINUOUS
 10
173.7806672417
 20
213.6348582276
  0
VERTEX
  8
0
 62
7
  6
CONTINUOUS
 10
173.7682461163
 20
213.6688498332
  0
VERTEX
  8
0
 62
7
  6
CONTINUOUS
 10
173.7553162839
 20
213.7026083648
  0
VERTEX
  8
0
 62
7
  6
CONTINUOUS
 10
173.741872327
 20
213.7361851079
  0
VERTEX
  8
0
 62
7
  6
CONTINUOUS
 10
173.7279069742
 20
213.7696266668
  0
VERTEX
  8
0
 62
7
  6
CONTINUOUS
 10
173.7134116509
 20
213.8029633121
  0
VERTEX
  8
0
 62
7
  6
CONTINUOUS
 10
173.6983739318
 20
213.8362288587
  0
VERTEX
  8
0
 62
7
  6
CONTINUOUS
 10
173.6827835682
 20
213.8694376365
  0
VERTEX
  8
0
 62
7
  6
CONTINUOUS
 10
173.6666262428
 20
213.9026092043
  0
VERTEX
  8
0
 62
7
  6
CONTINUOUS
 10
173.6499024406
 20
213.9357224331
  0
VERTEX
  8
0
 62
7
  6
CONTINUOUS
 10
173.6326166558
 20
213.9687500458
  0
VERTEX
  8
0
 62
7
  6
CONTINUOUS
 10
173.6147762306
 20
214.001654161
  0
VERTEX
  8
0
 62
7
  6
CONTINUOUS
 10
173.5963864487
 20
214.034403975
  0
VERTEX
  8
0
 62
7
  6
CONTINUOUS
 10
173.5774524224
 20
214.0669638439
  0
VERTEX
  8
0
 62
7
  6
CONTINUOUS
 10
173.5579858218
 20
214.0992900384
  0
VERTEX
  8
0
 62
7
  6
CONTINUOUS
 10
173.5379943049
 20
214.131342474
  0
VERTEX
  8
0
 62
7
  6
CONTINUOUS
 10
173.5174930432
 20
214.163070899
  0
VERTEX
  8
0
 62
7
  6
CONTINUOUS
 10
173.4964877986
 20
214.1944395674
  0
VERTEX
  8
0
 62
7
  6
CONTINUOUS
 10
173.4749916044
 20
214.2253998448
  0
VERTEX
  8
0
 62
7
  6
CONTINUOUS
 10
173.4530128573
 20
214.2559125748
  0
VERTEX
  8
0
 62
7
  6
CONTINUOUS
 10
173.4305576965
 20
214.2859376129
  0
VERTEX
  8
0
 62
7
  6
CONTINUOUS
 10
173.4076379295
 20
214.3154286079
  0
VERTEX
  8
0
 62
7
  6
CONTINUOUS
 10
173.3842016733
 20
214.3444161439
  0
VERTEX
  8
0
 62
7
  6
CONTINUOUS
 10
173.3600810442
 20
214.3730508803
  0
VERTEX
  8
0
 62
7
  6
CONTINUOUS
 10
173.3350850938
 20
214.4014760361
  0
VERTEX
  8
0
 62
7
  6
CONTINUOUS
 10
173.3090046557
 20
214.4298103445
  0
VERTEX
  8
0
 62
7
  6
CONTINUOUS
 10
173.2816319296
 20
214.4581235196
  0
VERTEX
  8
0
 62
7
  6
CONTINUOUS
 10
173.25273752
 20
214.48645775
  0
VERTEX
  8
0
 62
7
  6
CONTINUOUS
 10
173.229937566
 20
214.5077042159
  0
SEQEND
  0
LINE
  8
0
 62
7
  6
CONTINUOUS
 10
173.1289658818
 20
214.5976322796
 11
173.1289658818
 21
215.3790815838
  0
LINE
  8
0
 62
7
  6
CONTINUOUS
 10
173.8789515187
 20
213.1535021449
 11
173.8789515187
 21
202.1555903209
  0
LINE
  8
0
 62
7
  6
CONTINUOUS
 10
181.0789658818
 20
205.3062354008
 11
181.0789658818
 21
201.5555903209
  0
LINE
  8
0
 62
7
  6
CONTINUOUS
 10
182.378980245
 20
202.4193297972
 11
182.378980245
 21
213.153502161
  0
LINE
  8
0
 62
7
  6
CONTINUOUS
 10
183.1289658818
 20
215.3790814693
 11
183.1289658818
 21
214.597636301
  0
POLYLINE
  8
AXES
 62
7
  6
CONTINUOUS
 66
1
 70
0
  0
VERTEX
  8
AXES
 62
7
  6
CONTINUOUS
 10
182.378980245
 20
206.0845711086
  0
VERTEX
  8
AXES
 62
7
  6
CONTINUOUS
 10
182.3751795385
 20
206.0441529614
  0
VERTEX
  8
AXES
 62
7
  6
CONTINUOUS
 10
182.3650112271
 20
206.010071472
  0
VERTEX
  8
AXES
 62
7
  6
CONTINUOUS
 10
182.3497970868
 20
205.981708166
  0
VERTEX
  8
AXES
 62
7
  6
CONTINUOUS
 10
182.3309196583
 20
205.9591300152
  0
VERTEX
  8
AXES
 62
7
  6
CONTINUOUS
 10
182.3095715485
 20
205.9419873097
  0
VERTEX
  8
AXES
 62
7
  6
CONTINUOUS
 10
182.285848473
 20
205.929446083
  0
VERTEX
  8
AXES
 62
7
  6
CONTINUOUS
 10
182.2607971211
 20
205.9216103193
  0
SEQEND
  0
POLYLINE
  8
0
 62
7
  6
CONTINUOUS
 66
1
 70
0
  0
VERTEX
  8
0
 62
7
  6
CONTINUOUS
 10
188.3789505445
 20
213.153502158
  0
VERTEX
  8
0
 62
7
  6
CONTINUOUS
 10
188.378057065
 20
213.1922385837
  0
VERTEX
  8
0
 62
7
  6
CONTINUOUS
 10
188.3755091082
 20
213.2310779579
  0
VERTEX
  8
0
 62
7
  6
CONTINUOUS
 10
188.3714258562
 20
213.2704455248
  0
VERTEX
  8
0
 62
7
  6
CONTINUOUS
 10
188.3660053218
 20
213.3096677793
  0
VERTEX
  8
0
 62
7
  6
CONTINUOUS
 10
188.3594597849
 20
213.3483325036
  0
VERTEX
  8
0
 62
7
  6
CONTINUOUS
 10
188.3519589551
 20
213.386317565
  0
VERTEX
  8
0
 62
7
  6
CONTINUOUS
 10
188.3436253505
 20
213.4236397665
  0
VERTEX
  8
0
 62
7
  6
CONTINUOUS
 10
188.3345556757
 20
213.4603324222
  0
VERTEX
  8
0
 62
7
  6
CONTINUOUS
 10
188.3248311477
 20
213.4964218928
  0
VERTEX
  8
0
 62
7
  6
CONTINUOUS
 10
188.314526212
 20
213.5319034474
  0
VERTEX
  8
0
 62
7
  6
CONTINUOUS
 10
188.3036840845
 20
213.5668378166
  0
VERTEX
  8
0
 62
7
  6
CONTINUOUS
 10
188.292320708
 20
213.6013356776
  0
VERTEX
  8
0
 62
7
  6
CONTINUOUS
 10
188.2804485471
 20
213.6354712003
  0
VERTEX
  8
0
 62
7
  6
CONTINUOUS
 10
188.2680680636
 20
213.6693255243
  0
VERTEX
  8
0
 62
7
  6
CONTINUOUS
 10
188.2551843542
 20
213.7029450352
  0
VERTEX
  8
0
 62
7
  6
CONTINUOUS
 10
188.2417905648
 20
213.7363849846
  0
VERTEX
  8
0
 62
7
  6
CONTINUOUS
 10
188.2278800592
 20
213.7696898086
  0
VERTEX
  8
0
 62
7
  6
CONTINUOUS
 10
188.2134411249
 20
213.8028967922
  0
VERTEX
  8
0
 62
7
  6
CONTINUOUS
 10
188.1984617692
 20
213.8360382013
  0
VERTEX
  8
0
 62
7
  6
CONTINUOUS
 10
188.1829288413
 20
213.8691337634
  0
VERTEX
  8
0
 62
7
  6
CONTINUOUS
 10
188.1668282778
 20
213.9022018146
  0
VERTEX
  8
0
 62
7
  6
CONTINUOUS
 10
188.1501611076
 20
213.9352191623
  0
VERTEX
  8
0
 62
7
  6
CONTINUOUS
 10
188.1329391809
 20
213.9681444021
  0
VERTEX
  8
0
 62
7
  6
CONTINUOUS
 10
188.1151742012
 20
214.0009326392
  0
VERTEX
  8
0
 62
7
  6
CONTINUOUS
 10
188.0968795417
 20
214.0335406017
  0
VERTEX
  8
0
 62
7
  6
CONTINUOUS
 10
188.0780640219
 20
214.0659297799
  0
VERTEX
  8
0
 62
7
  6
CONTINUOUS
 10
188.0587357012
 20
214.0980654886
  0
VERTEX
  8
0
 62
7
  6
CONTINUOUS
 10
188.0388904137
 20
214.1299297645
  0
VERTEX
  8
0
 62
7
  6
CONTINUOUS
 10
188.0185317877
 20
214.1614901064
  0
VERTEX
  8
0
 62
7
  6
CONTINUOUS
 10
187.99765447
 20
214.1927266663
  0
VERTEX
  8
0
 62
7
  6
CONTINUOUS
 10
187.9762581941
 20
214.2236067192
  0
VERTEX
  8
0
 62
7
  6
CONTINUOUS
 10
187.9543405811
 20
214.2541012708
  0
VERTEX
  8
0
 62
7
  6
CONTINUOUS
 10
187.9318937773
 20
214.2841829017
  0
VERTEX
  8
0
 62
7
  6
CONTINUOUS
 10
187.9089170269
 20
214.313812826
  0
VERTEX
  8
0
 62
7
  6
CONTINUOUS
 10
187.8853594488
 20
214.3430113928
  0
VERTEX
  8
0
 62
7
  6
CONTINUOUS
 10
187.8610584431
 20
214.3719138555
  0
VERTEX
  8
0
 62
7
  6
CONTINUOUS
 10
187.8358271832
 20
214.4006501112
  0
VERTEX
  8
0
 62
7
  6
CONTINUOUS
 10
187.809458203
 20
214.4293291504
  0
VERTEX
  8
0
 62
7
  6
CONTINUOUS
 10
187.7817446006
 20
214.4580099883
  0
VERTEX
  8
0
 62
7
  6
CONTINUOUS
 10
187.7524636733
 20
214.4867187428
  0
VERTEX
  8
0
 62
7
  6
CONTINUOUS
 10
187.7299382491
 20
214.5077040754
  0
SEQEND
  0
LINE
  8
0
 62
7
  6
CONTINUOUS
 10
187.6289658818
 20
215.3677995985
 11
187.6289658818
 21
214.597636303
  0
LINE
  8
0
 62
7
  6
CONTINUOUS
 10
188.3789515187
 20
213.1535021367
 11
188.3789515187
 21
202.4193299926
  0
LINE
  8
0
 62
7
  6
CONTINUOUS
 10
189.6789658818
 20
205.3062353442
 11
189.6789658818
 21
201.5555903209
  0
LINE
  8
0
 62
7
  6
CONTINUOUS
 10
198.003980245
 20
202.1555903209
 11
198.003980245
 21
213.1534892478
  0
LINE
  8
0
 62
7
  6
CONTINUOUS
 10
198.7539658818
 20
214.59763228
 11
198.7539658818
 21
215.2790761385
  0
POLYLINE
  8
0
 62
7
  6
CONTINUOUS
 66
1
 70
0
  0
VERTEX
  8
0
 62
7
  6
CONTINUOUS
 10
203.1039658818
 20
215.263644796
  0
VERTEX
  8
0
 62
7
  6
CONTINUOUS
 10
203.121879444
 20
215.3239775104
  0
VERTEX
  8
0
 62
7
  6
CONTINUOUS
 10
203.1758103533
 20
215.3789673094
  0
VERTEX
  8
0
 62
7
  6
CONTINUOUS
 10
203.2656266449
 20
215.4282694776
  0
VERTEX
  8
0
 62
7
  6
CONTINUOUS
 10
203.3906686232
 20
215.4717186695
  0
VERTEX
  8
0
 62
7
  6
CONTINUOUS
 10
203.5498895781
 20
215.5093398978
  0
VERTEX
  8
0
 62
7
  6
CONTINUOUS
 10
203.7424207353
 20
215.5413763467
  0
VERTEX
  8
0
 62
7
  6
CONTINUOUS
 10
203.9674407685
 20
215.5681446165
  0
VERTEX
  8
0
 62
7
  6
CONTINUOUS
 10
204.2237209528
 20
215.5899838221
  0
VERTEX
  8
0
 62
7
  6
CONTINUOUS
 10
204.5098654328
 20
215.6073053508
  0
VERTEX
  8
0
 62
7
  6
CONTINUOUS
 10
204.8242743392
 20
215.6205757124
  0
VERTEX
  8
0
 62
7
  6
CONTINUOUS
 10
205.1646428435
 20
215.6302917181
  0
VERTEX
  8
0
 62
7
  6
CONTINUOUS
 10
205.5293225572
 20
215.6370064956
  0
VERTEX
  8
0
 62
7
  6
CONTINUOUS
 10
205.9166773818
 20
215.641268801
  0
VERTEX
  8
0
 62
7
  6
CONTINUOUS
 10
206.3238917512
 20
215.6436062334
  0
SEQEND
  0
POLYLINE
  8
AXES
 62
7
  6
CONTINUOUS
 66
1
 70
0
  0
VERTEX
  8
AXES
 62
7
  6
CONTINUOUS
 10
204.0039515187
 20
208.3885796293
  0
VERTEX
  8
AXES
 62
7
  6
CONTINUOUS
 10
204.0359983412
 20
208.2772942488
  0
VERTEX
  8
AXES
 62
7
  6
CONTINUOUS
 10
204.0800221137
 20
208.0858147121
  0
VERTEX
  8
AXES
 62
7
  6
CONTINUOUS
 10
204.113347931
 20
207.8922419477
  0
VERTEX
  8
AXES
 62
7
  6
CONTINUOUS
 10
204.1356374735
 20
207.6978262557
  0
VERTEX
  8
AXES
 62
7
  6
CONTINUOUS
 10
204.1468051806
 20
207.502761134
  0
VERTEX
  8
AXES
 62
7
  6
CONTINUOUS
 10
204.1467952061
 20
207.3080709112
  0
VERTEX
  8
AXES
 62
7
  6
CONTINUOUS
 10
204.1356067396
 20
207.1129970748
  0
VERTEX
  8
AXES
 62
7
  6
CONTINUOUS
 10
204.1132987538
 20
206.9185958537
  0
VERTEX
  8
AXES
 62
7
  6
CONTINUOUS
 10
204.079952728
 20
206.7250208894
  0
VERTEX
  8
AXES
 62
7
  6
CONTINUOUS
 10
204.0359125495
 20
206.533555203
  0
VERTEX
  8
AXES
 62
7
  6
CONTINUOUS
 10
204.0039515187
 20
206.4226065602
  0
SEQEND
  0
POLYLINE
  8
0
 62
7
  6
CONTINUOUS
 66
1
 70
0
  0
VERTEX
  8
0
 62
7
  6
CONTINUOUS
 10
211.3789653962
 20
215.3483471784
  0
VERTEX
  8
0
 62
7
  6
CONTINUOUS
 10
211.3753005322
 20
215.3834039432
  0
VERTEX
  8
0
 62
7
  6
CONTINUOUS
 10
211.3640931072
 20
215.4178543583
  0
VERTEX
  8
0
 62
7
  6
CONTINUOUS
 10
211.3470869038
 20
215.4476897431
  0
VERTEX
  8
0
 62
7
  6
CONTINUOUS
 10
211.3268070847
 20
215.4717682375
  0
VERTEX
  8
0
 62
7
  6
CONTINUOUS
 10
211.3052711384
 20
215.4905260989
  0
VERTEX
  8
0
 62
7
  6
CONTINUOUS
 10
211.2834577635
 20
215.5051485281
  0
VERTEX
  8
0
 62
7
  6
CONTINUOUS
 10
211.2613647635
 20
215.5169190077
  0
VERTEX
  8
0
 62
7
  6
CONTINUOUS
 10
211.2385387089
 20
215.5268061611
  0
VERTEX
  8
0
 62
7
  6
CONTINUOUS
 10
211.2144180254
 20
215.5354453444
  0
VERTEX
  8
0
 62
7
  6
CONTINUOUS
 10
211.1884868754
 20
215.5432290301
  0
VERTEX
  8
0
 62
7
  6
CONTINUOUS
 10
211.1602799427
 20
215.5504019049
  0
VERTEX
  8
0
 62
7
  6
CONTINUOUS
 10
211.1293344038
 20
215.5571252664
  0
VERTEX
  8
0
 62
7
  6
CONTINUOUS
 10
211.0952103793
 20
215.5635019882
  0
VERTEX
  8
0
 62
7
  6
CONTINUOUS
 10
211.0575018362
 20
215.5695926399
  0
VERTEX
  8
0
 62
7
  6
CONTINUOUS
 10
211.015849199
 20
215.5754276348
  0
VERTEX
  8
0
 62
7
  6
CONTINUOUS
 10
210.9699288907
 20
215.5810211176
  0
VERTEX
  8
0
 62
7
  6
CONTINUOUS
 10
210.9194258577
 20
215.5863777896
  0
VERTEX
  8
0
 62
7
  6
CONTINUOUS
 10
210.864040037
 20
215.5914960643
  0
VERTEX
  8
0
 62
7
  6
CONTINUOUS
 10
210.8034875477
 20
215.5963709996
  0
VERTEX
  8
0
 62
7
  6
CONTINUOUS
 10
210.737501341
 20
215.6009944177
  0
VERTEX
  8
0
 62
7
  6
CONTINUOUS
 10
210.6658379432
 20
215.6053579786
  0
VERTEX
  8
0
 62
7
  6
CONTINUOUS
 10
210.588269855
 20
215.6094531426
  0
VERTEX
  8
0
 62
7
  6
CONTINUOUS
 10
210.5045987225
 20
215.6132724355
  0
VERTEX
  8
0
 62
7
  6
CONTINUOUS
 10
210.4146482988
 20
215.6168101496
  0
VERTEX
  8
0
 62
7
  6
CONTINUOUS
 10
210.318272109
 20
215.6200625472
  0
VERTEX
  8
0
 62
7
  6
CONTINUOUS
 10
210.1058135373
 20
215.6257095736
  0
SEQEND
  0
POLYLINE
  8
0
 62
7
  6
CONTINUOUS
 66
1
 70
0
  0
VERTEX
  8
0
 62
7
  6
CONTINUOUS
 10
204.0039508907
 20
213.1535021596
  0
VERTEX
  8
0
 62
7
  6
CONTINUOUS
 10
204.0031803902
 20
213.1894095815
  0
VERTEX
  8
0
 62
7
  6
CONTINUOUS
 10
204.0007302674
 20
213.2284435269
  0
VERTEX
  8
0
 62
7
  6
CONTINUOUS
 10
203.9967163566
 20
213.2680352034
  0
VERTEX
  8
0
 62
7
  6
CONTINUOUS
 10
203.9913399847
 20
213.3074876428
  0
VERTEX
  8
0
 62
7
  6
CONTINUOUS
 10
203.984818646
 20
213.346373031
  0
VERTEX
  8
0
 62
7
  6
CONTINUOUS
 10
203.9773266147
 20
213.3845677804
  0
VERTEX
  8
0
 62
7
  6
CONTINUOUS
 10
203.9689905508
 20
213.4220861115
  0
VERTEX
  8
0
 62
7
  6
CONTINUOUS
 10
203.9599099731
 20
213.4589604379
  0
VERTEX
  8
0
 62
7
  6
CONTINUOUS
 10
203.9501677376
 20
213.4952186466
  0
VERTEX
  8
0
 62
7
  6
CONTINUOUS
 10
203.9398398128
 20
213.5308591274
  0
VERTEX
  8
0
 62
7
  6
CONTINUOUS
 10
203.9289708685
 20
213.5659412501
  0
VERTEX
  8
0
 62
7
  6
CONTINUOUS
 10
203.9175755618
 20
213.6005826088
  0
VERTEX
  8
0
 62
7
  6
CONTINUOUS
 10
203.9056672417
 20
213.6348582276
  0
VERTEX
  8
0
 62
7
  6
CONTINUOUS
 10
203.8932461163
 20
213.6688498332
  0
VERTEX
  8
0
 62
7
  6
CONTINUOUS
 10
203.8803162839
 20
213.7026083648
  0
VERTEX
  8
0
 62
7
  6
CONTINUOUS
 10
203.866872327
 20
213.7361851079
  0
VERTEX
  8
0
 62
7
  6
CONTINUOUS
 10
203.8529069742
 20
213.7696266668
  0
VERTEX
  8
0
 62
7
  6
CONTINUOUS
 10
203.8384116509
 20
213.8029633121
  0
VERTEX
  8
0
 62
7
  6
CONTINUOUS
 10
203.8233739318
 20
213.8362288587
  0
VERTEX
  8
0
 62
7
  6
CONTINUOUS
 10
203.8077835682
 20
213.8694376365
  0
VERTEX
  8
0
 62
7
  6
CONTINUOUS
 10
203.7916262428
 20
213.9026092043
  0
VERTEX
  8
0
 62
7
  6
CONTINUOUS
 10
203.7749024406
 20
213.9357224331
  0
VERTEX
  8
0
 62
7
  6
CONTINUOUS
 10
203.7576166558
 20
213.9687500458
  0
VERTEX
  8
0
 62
7
  6
CONTINUOUS
 10
203.7397762306
 20
214.001654161
  0
VERTEX
  8
0
 62
7
  6
CONTINUOUS
 10
203.7213864487
 20
214.034403975
  0
VERTEX
  8
0
 62
7
  6
CONTINUOUS
 10
203.7024524224
 20
214.0669638439
  0
VERTEX
  8
0
 62
7
  6
CONTINUOUS
 10
203.6829858218
 20
214.0992900384
  0
VERTEX
  8
0
 62
7
  6
CONTINUOUS
 10
203.6629943049
 20
214.131342474
  0
VERTEX
  8
0
 62
7
  6
CONTINUOUS
 10
203.6424930432
 20
214.163070899
  0
VERTEX
  8
0
 62
7
  6
CONTINUOUS
 10
203.6214877986
 20
214.1944395674
  0
VERTEX
  8
0
 62
7
  6
CONTINUOUS
 10
203.5999916044
 20
214.2253998448
  0
VERTEX
  8
0
 62
7
  6
CONTINUOUS
 10
203.5780128573
 20
214.2559125748
  0
VERTEX
  8
0
 62
7
  6
CONTINUOUS
 10
203.5555576965
 20
214.2859376129
  0
VERTEX
  8
0
 62
7
  6
CONTINUOUS
 10
203.5326379295
 20
214.3154286079
  0
VERTEX
  8
0
 62
7
  6
CONTINUOUS
 10
203.5092016733
 20
214.3444161439
  0
VERTEX
  8
0
 62
7
  6
CONTINUOUS
 10
203.4850810442
 20
214.3730508803
  0
VERTEX
  8
0
 62
7
  6
CONTINUOUS
 10
203.4600850938
 20
214.4014760361
  0
VERTEX
  8
0
 62
7
  6
CONTINUOUS
 10
203.4340046557
 20
214.4298103445
  0
VERTEX
  8
0
 62
7
  6
CONTINUOUS
 10
203.4066319296
 20
214.4581235196
  0
VERTEX
  8
0
 62
7
  6
CONTINUOUS
 10
203.37773752
 20
214.48645775
  0
VERTEX
  8
0
 62
7
  6
CONTINUOUS
 10
203.354937566
 20
214.5077042159
  0
SEQEND
  0
LINE
  8
0
 62
7
  6
CONTINUOUS
 10
203.2539658818
 20
214.5976322796
 11
203.2539658818
 21
215.1149665169
  0
LINE
  8
0
 62
7
  6
CONTINUOUS
 10
204.0039515187
 20
213.1535021449
 11
204.0039515187
 21
202.1555903209
  0
LINE
  8
0
 62
7
  6
CONTINUOUS
 10
211.3789658818
 20
201.5555903209
 11
211.3789658818
 21
215.3483564798
  0
ARC
  8
0
 62
7
  6
CONTINUOUS
 10
67.8289658818
 20
118.2757571858
 40
4.0
 50
224.4153085972
 51
315.5846914028
  0
ARC
  8
0
 62
7
  6
CONTINUOUS
 10
78.0289660889
 20
115.8262671453
 40
0.5000000086
 50
179.9999658822
 51
224.4152676244
  0
ARC
  8
0
 62
7
  6
CONTINUOUS
 10
65.3289660889
 20
115.8262671453
 40
0.5000000086
 50
179.9999658822
 51
224.4152676244
  0
ARC
  8
0
 62
7
  6
CONTINUOUS
 10
70.3289658818
 20
115.826267443
 40
0.5
 50
315.5846914028
 51
360.0
  0
ARC
  8
AXES
 62
7
  6
CONTINUOUS
 10
70.5789658818
 20
122.3450922407
 40
0.5
 50
189.9390834346
 51
194.2
  0
ARC
  8
AXES
 62
7
  6
CONTINUOUS
 10
70.5789658818
 20
122.3450922407
 40
0.5
 50
185.048130284
 51
189.1496625574
  0
ARC
  8
AXES
 62
7
  6
CONTINUOUS
 10
70.5789658818
 20
122.3450922407
 40
0.5
 50
180.0
 51
184.2617680015
  0
ARC
  8
0
 62
7
  6
CONTINUOUS
 10
70.5789658818
 20
122.3450922407
 40
0.5
 50
180.0000879381
 51
194.1999523252
  0
ARC
  8
AXES
 62
7
  6
CONTINUOUS
 10
65.0789658818
 20
122.3450922407
 40
0.5
 50
345.8
 51
350.0603159784
  0
ARC
  8
AXES
 62
7
  6
CONTINUOUS
 10
65.0789658818
 20
122.3450922407
 40
0.5
 50
350.8517291977
 51
354.9513625882
  0
ARC
  8
AXES
 62
7
  6
CONTINUOUS
 10
65.0789658818
 20
122.3450922407
 40
0.5
 50
355.7373127473
 51
360.0
  0
ARC
  8
0
 62
7
  6
CONTINUOUS
 10
65.0789658818
 20
122.3450922407
 40
0.5
 50
345.8000232446
 51
0.0000037398
  0
ARC
  8
AXES
 62
7
  6
CONTINUOUS
 10
77.7789658818
 20
122.3450922407
 40
0.5
 50
345.8
 51
350.0609163038
  0
ARC
  8
AXES
 62
7
  6
CONTINUOUS
 10
77.7789658818
 20
122.3450922407
 40
0.5
 50
350.8503381195
 51
354.9518703932
  0
ARC
  8
AXES
 62
7
  6
CONTINUOUS
 10
77.7789658818
 20
122.3450922407
 40
0.5
 50
355.7382317298
 51
360.0
  0
ARC
  8
0
 62
7
  6
CONTINUOUS
 10
77.7789658818
 20
122.3450922407
 40
0.5
 50
345.8000476299
 51
359.9999120325
  0
ARC
  8
0
 62
7
  6
CONTINUOUS
 10
70.6789658818
 20
119.3001593198
 40
0.15
 50
0.0
 51
14.2
  0
ARC
  8
AXES
 62
7
  6
CONTINUOUS
 10
70.6789658818
 20
119.3001593198
 40
0.15
 50
0.0
 51
14.2
  0
ARC
  8
0
 62
7
  6
CONTINUOUS
 10
77.678965926
 20
119.3001594944
 40
0.15
 50
165.8000688098
 51
180.0000666902
  0
ARC
  8
0
 62
7
  6
CONTINUOUS
 10
64.9789658818
 20
119.3001593198
 40
0.15
 50
165.8
 51
180.0
  0
ARC
  8
AXES
 62
7
  6
CONTINUOUS
 10
64.9789658818
 20
119.3001593198
 40
0.15
 50
165.8
 51
180.0
  0
ARC
  8
0
 62
7
  6
CONTINUOUS
 10
80.5289658818
 20
118.2757571858
 40
4.0
 50
224.4153085972
 51
315.5846914028
  0
ARC
  8
0
 62
7
  6
CONTINUOUS
 10
93.2289658818
 20
118.2757571858
 40
4.0
 50
224.4153085972
 51
315.5846914028
  0
ARC
  8
0
 62
7
  6
CONTINUOUS
 10
90.7289660889
 20
115.8262671453
 40
0.5000000086
 50
179.9999658822
 51
224.4152676244
  0
ARC
  8
0
 62
7
  6
CONTINUOUS
 10
95.7289658818
 20
115.826267443
 40
0.5
 50
315.5846914028
 51
360.0
  0
ARC
  8
0
 62
7
  6
CONTINUOUS
 10
83.0289658818
 20
115.826267443
 40
0.5
 50
315.5846914028
 51
360.0
  0
ARC
  8
AXES
 62
7
  6
CONTINUOUS
 10
83.2789658818
 20
122.3450922407
 40
0.5
 50
189.9390834345
 51
194.2
  0
ARC
  8
AXES
 62
7
  6
CONTINUOUS
 10
83.2789658818
 20
122.3450922407
 40
0.5
 50
185.048130284
 51
189.1496625574
  0
ARC
  8
AXES
 62
7
  6
CONTINUOUS
 10
83.2789658818
 20
122.3450922407
 40
0.5
 50
180.0
 51
184.2617680015
  0
ARC
  8
0
 62
7
  6
CONTINUOUS
 10
83.2789658818
 20
122.3450922407
 40
0.5
 50
180.0000879381
 51
194.1999523252
  0
ARC
  8
AXES
 62
7
  6
CONTINUOUS
 10
95.9789658818
 20
122.3450922407
 40
0.5
 50
189.9390834345
 51
194.2
  0
ARC
  8
AXES
 62
7
  6
CONTINUOUS
 10
95.9789658818
 20
122.3450922407
 40
0.5
 50
185.0481302839
 51
189.1496625575
  0
ARC
  8
AXES
 62
7
  6
CONTINUOUS
 10
95.9789658818
 20
122.3450922407
 40
0.5
 50
180.0
 51
184.2617680016
  0
ARC
  8
0
 62
7
  6
CONTINUOUS
 10
95.9789658818
 20
122.3450922407
 40
0.5
 50
180.0000879381
 51
194.1999523252
  0
ARC
  8
AXES
 62
7
  6
CONTINUOUS
 10
90.4789658818
 20
122.3450922407
 40
0.5
 50
345.8
 51
350.0609163037
  0
ARC
  8
AXES
 62
7
  6
CONTINUOUS
 10
90.4789658818
 20
122.3450922407
 40
0.5
 50
350.8503381195
 51
354.9518703932
  0
ARC
  8
AXES
 62
7
  6
CONTINUOUS
 10
90.4789658818
 20
122.3450922407
 40
0.5
 50
355.7382317298
 51
360.0
  0
ARC
  8
0
 62
7
  6
CONTINUOUS
 10
90.4789658818
 20
122.3450922407
 40
0.5
 50
345.8000476299
 51
359.9999120325
  0
ARC
  8
0
 62
7
  6
CONTINUOUS
 10
96.0789658818
 20
119.3001593198
 40
0.15
 50
0.0
 51
14.2
  0
ARC
  8
AXES
 62
7
  6
CONTINUOUS
 10
96.0789658818
 20
119.3001593198
 40
0.15
 50
0.0
 51
14.2
  0
ARC
  8
0
 62
7
  6
CONTINUOUS
 10
83.3789658818
 20
119.3001593198
 40
0.15
 50
0.0
 51
14.2
  0
ARC
  8
AXES
 62
7
  6
CONTINUOUS
 10
83.3789658818
 20
119.3001593198
 40
0.15
 50
0.0
 51
14.2
  0
ARC
  8
0
 62
7
  6
CONTINUOUS
 10
90.378965926
 20
119.3001594944
 40
0.15
 50
165.8000688098
 51
180.0000666902
  0
ARC
  8
0
 62
7
  6
CONTINUOUS
 10
72.0789658818
 20
128.5417571858
 40
2.0
 50
89.9995342879
 51
180.0004622983
  0
ARC
  8
0
 62
7
  6
CONTINUOUS
 10
84.7789658818
 20
128.5417571858
 40
2.0
 50
89.9995342879
 51
180.0004622983
  0
ARC
  8
0
 62
7
  6
CONTINUOUS
 10
76.2789658818
 20
128.5417571858
 40
2.0
 50
359.9995381676
 51
90.0004661002
  0
ARC
  8
0
 62
7
  6
CONTINUOUS
 10
88.9789658818
 20
128.5417571858
 40
2.0
 50
359.9995381676
 51
90.0004661002
  0
ARC
  8
0
 62
7
  6
CONTINUOUS
 10
63.5789658818
 20
128.5417571858
 40
2.0
 50
359.9995358628
 51
90.000476611
  0
ARC
  8
0
 62
7
  6
CONTINUOUS
 10
60.2329658818
 20
131.5417571858
 40
1.0
 50
180.0
 51
270.0
  0
ARC
  8
0
 62
7
  6
CONTINUOUS
 10
105.9289658818
 20
118.2757571858
 40
4.0
 50
224.4153085972
 51
315.5846914028
  0
ARC
  8
0
 62
7
  6
CONTINUOUS
 10
116.1289660889
 20
115.8262671453
 40
0.5000000086
 50
179.9999658822
 51
224.4152676244
  0
ARC
  8
0
 62
7
  6
CONTINUOUS
 10
103.4289660889
 20
115.8262671453
 40
0.5000000086
 50
179.9999658822
 51
224.4152676244
  0
ARC
  8
0
 62
7
  6
CONTINUOUS
 10
108.4289658818
 20
115.826267443
 40
0.5
 50
315.5846914028
 51
360.0
  0
ARC
  8
AXES
 62
7
  6
CONTINUOUS
 10
108.6789658818
 20
122.3450922407
 40
0.5
 50
189.9390834345
 51
194.2
  0
ARC
  8
AXES
 62
7
  6
CONTINUOUS
 10
108.6789658818
 20
122.3450922407
 40
0.5
 50
185.0481302839
 51
189.1496625574
  0
ARC
  8
AXES
 62
7
  6
CONTINUOUS
 10
108.6789658818
 20
122.3450922407
 40
0.5
 50
180.0
 51
184.2617680016
  0
ARC
  8
0
 62
7
  6
CONTINUOUS
 10
108.6789658818
 20
122.3450922407
 40
0.5
 50
180.0000879381
 51
194.1999523252
  0
ARC
  8
AXES
 62
7
  6
CONTINUOUS
 10
103.1789658818
 20
122.3450922407
 40
0.5
 50
345.8
 51
350.0609163037
  0
ARC
  8
AXES
 62
7
  6
CONTINUOUS
 10
103.1789658818
 20
122.3450922407
 40
0.5
 50
350.8503381195
 51
354.9518703932
  0
ARC
  8
AXES
 62
7
  6
CONTINUOUS
 10
103.1789658818
 20
122.3450922407
 40
0.5
 50
355.7382317297
 51
360.0
  0
ARC
  8
0
 62
7
  6
CONTINUOUS
 10
103.1789658818
 20
122.3450922407
 40
0.5
 50
345.8000476299
 51
359.9999120325
  0
ARC
  8
AXES
 62
7
  6
CONTINUOUS
 10
115.8789658818
 20
122.3450922407
 40
0.5
 50
345.8
 51
350.0609163038
  0
ARC
  8
AXES
 62
7
  6
CONTINUOUS
 10
115.8789658818
 20
122.3450922407
 40
0.5
 50
350.8503381195
 51
354.9518703932
  0
ARC
  8
AXES
 62
7
  6
CONTINUOUS
 10
115.8789658818
 20
122.3450922407
 40
0.5
 50
355.7382317297
 51
360.0
  0
ARC
  8
0
 62
7
  6
CONTINUOUS
 10
115.8789658818
 20
122.3450922407
 40
0.5
 50
345.8000476299
 51
359.9999120326
  0
ARC
  8
0
 62
7
  6
CONTINUOUS
 10
108.7789658818
 20
119.3001593198
 40
0.15
 50
0.0
 51
14.2
  0
ARC
  8
AXES
 62
7
  6
CONTINUOUS
 10
108.7789658818
 20
119.3001593198
 40
0.15
 50
0.0
 51
14.2
  0
ARC
  8
0
 62
7
  6
CONTINUOUS
 10
115.778965926
 20
119.3001594944
 40
0.15
 50
165.8000688098
 51
180.0000666902
  0
ARC
  8
0
 62
7
  6
CONTINUOUS
 10
103.078965926
 20
119.3001594944
 40
0.15
 50
165.8000688098
 51
180.0000666902
  0
ARC
  8
0
 62
7
  6
CONTINUOUS
 10
118.6289658818
 20
118.2757571858
 40
4.0
 50
224.4153085972
 51
315.5846914028
  0
ARC
  8
0
 62
7
  6
CONTINUOUS
 10
131.3289658818
 20
118.2757571858
 40
4.0
 50
224.4153085972
 51
315.5846914028
  0
ARC
  8
0
 62
7
  6
CONTINUOUS
 10
128.8289660889
 20
115.8262671453
 40
0.5000000086
 50
179.9999658822
 51
224.4152676244
  0
ARC
  8
0
 62
7
  6
CONTINUOUS
 10
133.8289658818
 20
115.826267443
 40
0.5
 50
315.5846914028
 51
360.0
  0
ARC
  8
0
 62
7
  6
CONTINUOUS
 10
121.1289658818
 20
115.826267443
 40
0.5
 50
315.5846914028
 51
360.0
  0
ARC
  8
AXES
 62
7
  6
CONTINUOUS
 10
121.3789658818
 20
122.3450922407
 40
0.5
 50
189.9390834346
 51
194.2
  0
ARC
  8
AXES
 62
7
  6
CONTINUOUS
 10
121.3789658818
 20
122.3450922407
 40
0.5
 50
185.048130284
 51
189.1496625574
  0
ARC
  8
AXES
 62
7
  6
CONTINUOUS
 10
121.3789658818
 20
122.3450922407
 40
0.5
 50
180.0
 51
184.2617680015
  0
ARC
  8
0
 62
7
  6
CONTINUOUS
 10
121.3789658818
 20
122.3450922407
 40
0.5
 50
180.0000879381
 51
194.1999523252
  0
ARC
  8
AXES
 62
7
  6
CONTINUOUS
 10
128.5789658818
 20
122.3450922407
 40
0.5
 50
345.8
 51
350.0609163037
  0
ARC
  8
AXES
 62
7
  6
CONTINUOUS
 10
128.5789658818
 20
122.3450922407
 40
0.5
 50
350.8503381195
 51
354.9518703932
  0
ARC
  8
AXES
 62
7
  6
CONTINUOUS
 10
128.5789658818
 20
122.3450922407
 40
0.5
 50
355.7382317297
 51
360.0
  0
ARC
  8
0
 62
7
  6
CONTINUOUS
 10
128.5789658818
 20
122.3450922407
 40
0.5
 50
345.8000476299
 51
359.9999120325
  0
ARC
  8
0
 62
7
  6
CONTINUOUS
 10
121.4789658818
 20
119.3001593198
 40
0.15
 50
0.0
 51
14.2
  0
ARC
  8
AXES
 62
7
  6
CONTINUOUS
 10
121.4789658818
 20
119.3001593198
 40
0.15
 50
0.0
 51
14.2
  0
ARC
  8
0
 62
7
  6
CONTINUOUS
 10
128.478965926
 20
119.3001594944
 40
0.15
 50
165.8000688098
 51
180.0000666902
  0
ARC
  8
0
 62
7
  6
CONTINUOUS
 10
97.4789658818
 20
128.5417571858
 40
2.0
 50
89.9995342879
 51
180.0004622983
  0
ARC
  8
0
 62
7
  6
CONTINUOUS
 10
110.1789658818
 20
128.5417571858
 40
2.0
 50
89.9995342879
 51
180.0004622983
  0
ARC
  8
0
 62
7
  6
CONTINUOUS
 10
101.6789658818
 20
128.5417571858
 40
2.0
 50
359.9995381676
 51
90.0004661002
  0
ARC
  8
0
 62
7
  6
CONTINUOUS
 10
122.8789658818
 20
128.5417571858
 40
2.0
 50
89.9995342879
 51
180.0004622983
  0
ARC
  8
0
 62
7
  6
CONTINUOUS
 10
114.3789658818
 20
128.5417571858
 40
2.0
 50
359.9995381676
 51
90.0004661002
  0
ARC
  8
0
 62
7
  6
CONTINUOUS
 10
127.0789658818
 20
128.5417571858
 40
2.0
 50
359.9995381676
 51
90.0004661002
  0
ARC
  8
0
 62
7
  6
CONTINUOUS
 10
67.8289658818
 20
136.1297571858
 40
4.104
 50
179.9997314726
 51
0.0003004745
  0
ARC
  8
0
 62
7
  6
CONTINUOUS
 10
80.5289658818
 20
136.1297571858
 40
4.104
 50
179.9997279377
 51
0.0002641553
  0
ARC
  8
0
 62
7
  6
CONTINUOUS
 10
93.2289658818
 20
136.1297571858
 40
4.104
 50
179.9997279377
 51
0.0002641553
  0
ARC
  8
0
 62
7
  6
CONTINUOUS
 10
71.4329658818
 20
140.3134788936
 40
0.5
 50
359.9999962556
 51
14.1999767791
  0
ARC
  8
0
 62
7
  6
CONTINUOUS
 10
84.1329658818
 20
140.3134788936
 40
0.5
 50
0.0000879231
 51
14.1999523206
  0
ARC
  8
0
 62
7
  6
CONTINUOUS
 10
76.9249658818
 20
140.3134788936
 40
0.5
 50
165.8000476345
 51
179.9999120476
  0
ARC
  8
0
 62
7
  6
CONTINUOUS
 10
89.6249658818
 20
140.3134788936
 40
0.5
 50
165.8000476345
 51
179.9999120476
  0
ARC
  8
0
 62
7
  6
CONTINUOUS
 10
64.2249658818
 20
140.3134788936
 40
0.5
 50
165.8000232516
 51
180.0000037413
  0
ARC
  8
0
 62
7
  6
CONTINUOUS
 10
58.7329658818
 20
140.3134788936
 40
0.5
 50
359.9999962556
 51
14.1999767791
  0
ARC
  8
0
 62
7
  6
CONTINUOUS
 10
71.9289658818
 20
147.6257571858
 40
0.75
 50
90.0
 51
180.0
  0
ARC
  8
0
 62
7
  6
CONTINUOUS
 10
63.7289658818
 20
147.6257571858
 40
0.75
 50
0.0
 51
90.0
  0
ARC
  8
0
 62
7
  6
CONTINUOUS
 10
84.6289658818
 20
147.6257571858
 40
0.75
 50
90.0
 51
180.0
  0
ARC
  8
0
 62
7
  6
CONTINUOUS
 10
59.2289658818
 20
147.6257571858
 40
0.75
 50
90.0
 51
180.0
  0
ARC
  8
0
 62
7
  6
CONTINUOUS
 10
89.1289658818
 20
147.6257571858
 40
0.75
 50
0.0
 51
90.0
  0
ARC
  8
0
 62
7
  6
CONTINUOUS
 10
76.4289658818
 20
147.6257571858
 40
0.75
 50
0.0
 51
90.0
  0
ARC
  8
0
 62
7
  6
CONTINUOUS
 10
89.7289652995
 20
143.3742173593
 40
0.15
 50
345.8009067324
 51
0.0008790001
  0
ARC
  8
0
 62
7
  6
CONTINUOUS
 10
84.0289658818
 20
143.3742196606
 40
0.15
 50
180.0
 51
194.2
  0
ARC
  8
0
 62
7
  6
CONTINUOUS
 10
77.0289652995
 20
143.3742173593
 40
0.15
 50
345.8009067324
 51
0.0008790001
  0
ARC
  8
0
 62
7
  6
CONTINUOUS
 10
64.3289658818
 20
143.3742196606
 40
0.15
 50
345.8
 51
360.0
  0
ARC
  8
0
 62
7
  6
CONTINUOUS
 10
71.3289661558
 20
143.3742185779
 40
0.15
 50
179.9995864477
 51
194.1995734119
  0
ARC
  8
0
 62
7
  6
CONTINUOUS
 10
58.6289661558
 20
143.3742185779
 40
0.15
 50
179.9995864477
 51
194.199573412
  0
ARC
  8
0
 62
7
  6
CONTINUOUS
 10
105.9289658818
 20
136.1297571858
 40
4.104
 50
179.9997279377
 51
0.0002641553
  0
ARC
  8
0
 62
7
  6
CONTINUOUS
 10
118.6289658818
 20
136.1297571858
 40
4.104
 50
179.9997279377
 51
0.0002641553
  0
ARC
  8
0
 62
7
  6
CONTINUOUS
 10
131.3289658818
 20
136.1297571858
 40
4.104
 50
179.9997279377
 51
0.0002641553
  0
ARC
  8
0
 62
7
  6
CONTINUOUS
 10
96.8329658818
 20
140.3134788936
 40
0.5
 50
0.0000879231
 51
14.1999523206
  0
ARC
  8
0
 62
7
  6
CONTINUOUS
 10
109.5329658818
 20
140.3134788936
 40
0.5
 50
0.0000879231
 51
14.1999523206
  0
ARC
  8
0
 62
7
  6
CONTINUOUS
 10
102.3249658818
 20
140.3134788936
 40
0.5
 50
165.8000476345
 51
179.9999120476
  0
ARC
  8
0
 62
7
  6
CONTINUOUS
 10
122.2329658818
 20
140.3134788936
 40
0.5
 50
0.0000879231
 51
14.1999523206
  0
ARC
  8
0
 62
7
  6
CONTINUOUS
 10
115.0249658818
 20
140.3134788936
 40
0.5
 50
165.8000476345
 51
179.9999120476
  0
ARC
  8
0
 62
7
  6
CONTINUOUS
 10
127.7249658818
 20
140.3134788936
 40
0.5
 50
165.8000476345
 51
179.9999120476
  0
ARC
  8
0
 62
7
  6
CONTINUOUS
 10
122.7289658818
 20
147.6257571858
 40
0.75
 50
90.0
 51
180.0
  0
ARC
  8
0
 62
7
  6
CONTINUOUS
 10
127.2289658818
 20
147.6257571858
 40
0.75
 50
0.0
 51
90.0
  0
ARC
  8
0
 62
7
  6
CONTINUOUS
 10
114.5289658818
 20
147.6257571858
 40
0.75
 50
0.0
 51
90.0
  0
ARC
  8
0
 62
7
  6
CONTINUOUS
 10
110.0289658818
 20
147.6257571858
 40
0.75
 50
90.0
 51
180.0
  0
ARC
  8
0
 62
7
  6
CONTINUOUS
 10
101.8289658818
 20
147.6257571858
 40
0.75
 50
0.0
 51
90.0
  0
ARC
  8
0
 62
7
  6
CONTINUOUS
 10
97.3289658818
 20
147.6257571858
 40
0.75
 50
90.0
 51
180.0
  0
ARC
  8
0
 62
7
  6
CONTINUOUS
 10
127.8289652995
 20
143.3742173593
 40
0.15
 50
345.8009067324
 51
0.0008790001
  0
ARC
  8
0
 62
7
  6
CONTINUOUS
 10
122.1289658818
 20
143.3742196606
 40
0.15
 50
180.0
 51
194.2
  0
ARC
  8
0
 62
7
  6
CONTINUOUS
 10
115.1289652995
 20
143.3742173593
 40
0.15
 50
345.8009067324
 51
0.0008790001
  0
ARC
  8
0
 62
7
  6
CONTINUOUS
 10
109.4289658818
 20
143.3742196606
 40
0.15
 50
180.0
 51
194.2
  0
ARC
  8
0
 62
7
  6
CONTINUOUS
 10
102.4289652995
 20
143.3742173593
 40
0.15
 50
345.8009067324
 51
0.0008790001
  0
ARC
  8
0
 62
7
  6
CONTINUOUS
 10
96.7289658818
 20
143.3742196606
 40
0.15
 50
180.0
 51
194.2
  0
ARC
  8
0
 62
7
  6
CONTINUOUS
 10
156.6249658818
 20
118.8157571858
 40
4.54
 50
240.3272196412
 51
270.0
  0
ARC
  8
0
 62
7
  6
CONTINUOUS
 10
157.6249658818
 20
118.8157571858
 40
4.54
 50
270.0
 51
299.6727803588
  0
ARC
  8
0
 62
7
  6
CONTINUOUS
 10
170.3789658818
 20
118.7757571858
 40
4.5
 50
240.0002375645
 51
270.0
  0
ARC
  8
0
 62
7
  6
CONTINUOUS
 10
171.3789658818
 20
118.7757571858
 40
4.5
 50
270.0
 51
299.9997624355
  0
ARC
  8
0
 62
7
  6
CONTINUOUS
 10
144.0289658818
 20
118.2757571858
 40
4.0
 50
224.4153085972
 51
315.5846914028
  0
ARC
  8
0
 62
7
  6
CONTINUOUS
 10
141.5289660889
 20
115.8262671453
 40
0.5000000086
 50
179.9999658822
 51
224.4152676244
  0
ARC
  8
0
 62
7
  6
CONTINUOUS
 10
168.3789799331
 20
115.3116474089
 40
0.5000000053
 50
180.0000149795
 51
240.0002760067
  0
ARC
  8
0
 62
7
  6
CONTINUOUS
 10
154.6249799239
 20
115.305535468
 40
0.5000000052
 50
180.0000154065
 51
240.3272592341
  0
ARC
  8
0
 62
7
  6
CONTINUOUS
 10
159.6249515187
 20
115.3055353335
 40
0.5
 50
299.6727803588
 51
360.0
  0
ARC
  8
0
 62
7
  6
CONTINUOUS
 10
146.5289658818
 20
115.826267443
 40
0.5
 50
315.5846914028
 51
360.0
  0
ARC
  8
0
 62
7
  6
CONTINUOUS
 10
159.9749515187
 20
119.3001593198
 40
0.15
 50
0.0
 51
14.2
  0
ARC
  8
AXES
 62
7
  6
CONTINUOUS
 10
159.9749515187
 20
119.3001593198
 40
0.15
 50
0.0
 51
14.2
  0
ARC
  8
0
 62
7
  6
CONTINUOUS
 10
168.0289802892
 20
119.3001594944
 40
0.15
 50
165.8000688109
 51
180.0000666912
  0
ARC
  8
0
 62
7
  6
CONTINUOUS
 10
146.8789658818
 20
119.3001593198
 40
0.15
 50
0.0
 51
14.2
  0
ARC
  8
AXES
 62
7
  6
CONTINUOUS
 10
146.8789658818
 20
119.3001593198
 40
0.15
 50
0.0
 51
14.2
  0
ARC
  8
0
 62
7
  6
CONTINUOUS
 10
154.2749802892
 20
119.3001594944
 40
0.15
 50
165.8000688109
 51
180.0000666912
  0
ARC
  8
0
 62
7
  6
CONTINUOUS
 10
134.1789658818
 20
119.3001593198
 40
0.15
 50
0.0
 51
14.2
  0
ARC
  8
AXES
 62
7
  6
CONTINUOUS
 10
134.1789658818
 20
119.3001593198
 40
0.15
 50
0.0
 51
14.2
  0
ARC
  8
0
 62
7
  6
CONTINUOUS
 10
141.178965926
 20
119.3001594944
 40
0.15
 50
165.8000688098
 51
180.0000666902
  0
ARC
  8
0
 62
7
  6
CONTINUOUS
 10
162.0749658818
 20
128.1757571858
 40
2.7
 50
89.9996390188
 51
180.0003641097
  0
ARC
  8
0
 62
7
  6
CONTINUOUS
 10
165.9289658818
 20
128.1757571858
 40
2.7
 50
359.9996449448
 51
90.0003701983
  0
ARC
  8
0
 62
7
  6
CONTINUOUS
 10
135.5789658818
 20
128.5417571858
 40
2.0
 50
89.9995342879
 51
180.0004622983
  0
ARC
  8
0
 62
7
  6
CONTINUOUS
 10
148.2789658818
 20
128.5417571858
 40
2.0
 50
89.9995342879
 51
180.0004622983
  0
ARC
  8
0
 62
7
  6
CONTINUOUS
 10
139.7789658818
 20
128.5417571858
 40
2.0
 50
359.9995381676
 51
90.0004661002
  0
ARC
  8
0
 62
7
  6
CONTINUOUS
 10
152.8749658818
 20
128.5417571858
 40
2.0
 50
359.9995443416
 51
90.0004725774
  0
ARC
  8
AXES
 62
7
  6
CONTINUOUS
 10
134.0789658818
 20
122.3450922407
 40
0.5
 50
189.9390834346
 51
194.2
  0
ARC
  8
AXES
 62
7
  6
CONTINUOUS
 10
134.0789658818
 20
122.3450922407
 40
0.5
 50
185.048130284
 51
189.1496625574
  0
ARC
  8
AXES
 62
7
  6
CONTINUOUS
 10
134.0789658818
 20
122.3450922407
 40
0.5
 50
180.0
 51
184.2617680015
  0
ARC
  8
0
 62
7
  6
CONTINUOUS
 10
134.0789658818
 20
122.3450922407
 40
0.5
 50
180.0000879381
 51
194.1999523252
  0
ARC
  8
AXES
 62
7
  6
CONTINUOUS
 10
146.7789658818
 20
122.3450922407
 40
0.5
 50
189.9390834346
 51
194.2
  0
ARC
  8
AXES
 62
7
  6
CONTINUOUS
 10
146.7789658818
 20
122.3450922407
 40
0.5
 50
185.048130284
 51
189.1496625574
  0
ARC
  8
AXES
 62
7
  6
CONTINUOUS
 10
146.7789658818
 20
122.3450922407
 40
0.5
 50
180.0
 51
184.2617680015
  0
ARC
  8
0
 62
7
  6
CONTINUOUS
 10
146.7789658818
 20
122.3450922407
 40
0.5
 50
180.0000879381
 51
194.1999523252
  0
ARC
  8
AXES
 62
7
  6
CONTINUOUS
 10
141.2789658818
 20
122.3450922407
 40
0.5
 50
345.8
 51
350.0609163038
  0
ARC
  8
AXES
 62
7
  6
CONTINUOUS
 10
141.2789658818
 20
122.3450922407
 40
0.5
 50
350.8503381195
 51
354.9518703933
  0
ARC
  8
AXES
 62
7
  6
CONTINUOUS
 10
141.2789658818
 20
122.3450922407
 40
0.5
 50
355.7382317296
 51
360.0
  0
ARC
  8
0
 62
7
  6
CONTINUOUS
 10
141.2789658818
 20
122.3450922407
 40
0.5
 50
345.8000476299
 51
359.9999120325
  0
ARC
  8
AXES
 62
7
  6
CONTINUOUS
 10
154.3749658818
 20
122.345035478
 40
0.5
 50
355.7360267072
 51
360.0
  0
ARC
  8
AXES
 62
7
  6
CONTINUOUS
 10
154.3749658818
 20
122.345035478
 40
0.5
 50
350.8509908989
 51
354.9518891788
  0
ARC
  8
AXES
 62
7
  6
CONTINUOUS
 10
154.3749658818
 20
122.345035478
 40
0.5
 50
345.8
 51
350.0605334323
  0
ARC
  8
0
 62
7
  6
CONTINUOUS
 10
154.3749658818
 20
122.345035478
 40
0.5
 50
345.8000904452
 51
359.9999565165
  0
ARC
  8
AXES
 62
7
  6
CONTINUOUS
 10
159.8749658818
 20
122.345035478
 40
0.5
 50
189.9390834437
 51
194.2000000002
  0
ARC
  8
AXES
 62
7
  6
CONTINUOUS
 10
159.8749658818
 20
122.345035478
 40
0.5
 50
185.0481302598
 51
189.1496625329
  0
ARC
  8
AXES
 62
7
  6
CONTINUOUS
 10
159.8749658818
 20
122.345035478
 40
0.5
 50
180.0
 51
184.2617680114
  0
ARC
  8
0
 62
7
  6
CONTINUOUS
 10
159.8749658818
 20
122.345035478
 40
0.5
 50
180.000087938
 51
194.1999523252
  0
ARC
  8
AXES
 62
7
  6
CONTINUOUS
 10
168.1289658818
 20
122.345035478
 40
0.5
 50
355.7360267073
 51
360.0
  0
ARC
  8
AXES
 62
7
  6
CONTINUOUS
 10
168.1289658818
 20
122.345035478
 40
0.5
 50
350.850990899
 51
354.9518891788
  0
ARC
  8
AXES
 62
7
  6
CONTINUOUS
 10
168.1289658818
 20
122.345035478
 40
0.5
 50
345.8
 51
350.0605334323
  0
ARC
  8
0
 62
7
  6
CONTINUOUS
 10
168.1289658818
 20
122.345035478
 40
0.5
 50
345.8000904452
 51
359.9999565166
  0
ARC
  8
0
 62
7
  6
CONTINUOUS
 10
184.8789658818
 20
118.7757571858
 40
4.5
 50
240.0002375645
 51
270.0
  0
ARC
  8
0
 62
7
  6
CONTINUOUS
 10
185.8789658818
 20
118.7757571858
 40
4.5
 50
270.0
 51
299.9997624355
  0
ARC
  8
0
 62
7
  6
CONTINUOUS
 10
200.5039658818
 20
118.7757571858
 40
4.5
 50
240.0002375645
 51
270.0
  0
ARC
  8
0
 62
7
  6
CONTINUOUS
 10
201.5039658818
 20
118.7757571858
 40
4.5
 50
270.0
 51
299.9997624355
  0
ARC
  8
AXES
 62
7
  6
CONTINUOUS
 10
182.5789658818
 20
118.6057571858
 40
1.5
 50
94.1260708806
 51
257.7538206432
  0
ARC
  8
AXES
 62
7
  6
CONTINUOUS
 10
188.1789658818
 20
118.6057571858
 40
1.5
 50
282.2461793568
 51
85.8739291194
  0
ARC
  8
0
 62
7
  6
CONTINUOUS
 10
198.5039799331
 20
115.3116474089
 40
0.5000000053
 50
180.0000149795
 51
240.0002760067
  0
ARC
  8
0
 62
7
  6
CONTINUOUS
 10
182.8789799331
 20
115.3116474089
 40
0.5000000053
 50
180.0000149795
 51
240.0002760067
  0
ARC
  8
0
 62
7
  6
CONTINUOUS
 10
203.5039515187
 20
115.3116472782
 40
0.5
 50
299.9997624355
 51
360.0
  0
ARC
  8
0
 62
7
  6
CONTINUOUS
 10
187.8789515187
 20
115.3116472782
 40
0.5
 50
299.9997624355
 51
360.0
  0
ARC
  8
0
 62
7
  6
CONTINUOUS
 10
173.3789515187
 20
115.3116472782
 40
0.5
 50
299.9997624355
 51
360.0
  0
ARC
  8
AXES
 62
7
  6
CONTINUOUS
 10
182.4602462449
 20
120.2514806279
 40
0.15
 50
274.1260708806
 51
345.8
  0
ARC
  8
AXES
 62
7
  6
CONTINUOUS
 10
182.228980245
 20
116.9933025186
 40
0.15
 50
0.0
 51
77.7538206432
  0
ARC
  8
AXES
 62
7
  6
CONTINUOUS
 10
173.7289515187
 20
119.3001593198
 40
0.15
 50
0.0
 51
14.2
  0
ARC
  8
0
 62
7
  6
CONTINUOUS
 10
173.7289511731
 20
119.3001606854
 40
0.15
 50
359.9994783736
 51
14.1994619301
  0
ARC
  8
0
 62
7
  6
CONTINUOUS
 10
182.528980245
 20
119.3001593198
 40
0.15
 50
165.8
 51
180.0
  0
ARC
  8
0
 62
7
  6
CONTINUOUS
 10
198.1539802892
 20
119.3001594944
 40
0.15
 50
165.8000688108
 51
180.0000666911
  0
ARC
  8
0
 62
7
  6
CONTINUOUS
 10
188.2289515187
 20
119.3001593198
 40
0.15
 50
0.0
 51
14.2
  0
ARC
  8
AXES
 62
7
  6
CONTINUOUS
 10
188.2976855188
 20
120.2514806279
 40
0.15
 50
194.2
 51
265.8739291194
  0
ARC
  8
AXES
 62
7
  6
CONTINUOUS
 10
188.5289515187
 20
116.9933025186
 40
0.15
 50
102.2461793568
 51
180.0
  0
ARC
  8
AXES
 62
7
  6
CONTINUOUS
 10
203.8539515187
 20
119.3001593198
 40
0.15
 50
0.0
 51
14.2
  0
ARC
  8
0
 62
7
  6
CONTINUOUS
 10
203.8539511731
 20
119.3001606854
 40
0.15
 50
359.9994783736
 51
14.1994619301
  0
ARC
  8
AXES
 62
7
  6
CONTINUOUS
 10
209.2539658818
 20
125.6243953408
 40
6.0
 50
174.8452426403
 51
176.0406804051
  0
ARC
  8
AXES
 62
7
  6
CONTINUOUS
 10
209.2539658818
 20
125.6243953408
 40
6.0
 50
169.9081331317
 51
171.9672755462
  0
ARC
  8
0
 62
7
  6
CONTINUOUS
 10
209.2539658818
 20
125.6243953408
 40
6.0
 50
109.6690910198
 51
180.0001709168
  0
ARC
  8
0
 62
7
  6
CONTINUOUS
 10
194.7539658818
 20
127.0257571858
 40
4.0
 50
359.9997286522
 51
90.0002792926
  0
ARC
  8
0
 62
7
  6
CONTINUOUS
 10
190.6289658818
 20
128.0257571858
 40
3.0
 50
89.9996518478
 51
180.0003529885
  0
ARC
  8
0
 62
7
  6
CONTINUOUS
 10
175.8289658818
 20
128.1757571858
 40
2.7
 50
89.9996057411
 51
180.0003616674
  0
ARC
  8
0
 62
7
  6
CONTINUOUS
 10
180.4289658818
 20
128.1757571858
 40
2.7
 50
359.9996131393
 51
90.000367938
  0
ARC
  8
AXES
 62
7
  6
CONTINUOUS
 10
173.6289658818
 20
122.345035478
 40
0.5
 50
189.9396841642
 51
194.2
  0
ARC
  8
AXES
 62
7
  6
CONTINUOUS
 10
173.6289658818
 20
122.345035478
 40
0.5
 50
185.0486370375
 51
189.1482704277
  0
ARC
  8
AXES
 62
7
  6
CONTINUOUS
 10
173.6289658818
 20
122.345035478
 40
0.5
 50
180.0
 51
184.2626873985
  0
ARC
  8
0
 62
7
  6
CONTINUOUS
 10
173.6289658818
 20
122.345035478
 40
0.5
 50
179.999996257
 51
194.199976786
  0
ARC
  8
AXES
 62
7
  6
CONTINUOUS
 10
182.6289658818
 20
122.345035478
 40
0.5
 50
355.7351544562
 51
360.0
  0
ARC
  8
AXES
 62
7
  6
CONTINUOUS
 10
182.6289658818
 20
122.345035478
 40
0.5
 50
350.8496588582
 51
354.9516469416
  0
ARC
  8
AXES
 62
7
  6
CONTINUOUS
 10
182.6289658818
 20
122.345035478
 40
0.5
 50
345.8
 51
350.0611589844
  0
ARC
  8
0
 62
7
  6
CONTINUOUS
 10
182.6289658818
 20
122.345035478
 40
0.5
 50
345.7999953773
 51
359.9999803365
  0
ARC
  8
AXES
 62
7
  6
CONTINUOUS
 10
188.1289658818
 20
122.345035478
 40
0.5
 50
189.9390834437
 51
194.2
  0
ARC
  8
AXES
 62
7
  6
CONTINUOUS
 10
188.1289658818
 20
122.345035478
 40
0.5
 50
185.0481302596
 51
189.1496625329
  0
ARC
  8
AXES
 62
7
  6
CONTINUOUS
 10
188.1289658818
 20
122.345035478
 40
0.5
 50
180.0
 51
184.2617680115
  0
ARC
  8
0
 62
7
  6
CONTINUOUS
 10
188.1289658818
 20
122.345035478
 40
0.5
 50
180.000087938
 51
194.1999523251
  0
ARC
  8
AXES
 62
7
  6
CONTINUOUS
 10
198.2539658818
 20
122.345035478
 40
0.5
 50
355.7360267073
 51
360.0
  0
ARC
  8
AXES
 62
7
  6
CONTINUOUS
 10
198.2539658818
 20
122.345035478
 40
0.5
 50
350.8509908991
 51
354.9518891788
  0
ARC
  8
AXES
 62
7
  6
CONTINUOUS
 10
198.2539658818
 20
122.345035478
 40
0.5
 50
345.8
 51
350.0605334321
  0
ARC
  8
0
 62
7
  6
CONTINUOUS
 10
198.2539658818
 20
122.345035478
 40
0.5
 50
345.8000904452
 51
359.9999565165
  0
ARC
  8
AXES
 62
7
  6
CONTINUOUS
 10
203.7539658818
 20
122.345035478
 40
0.5
 50
189.9396841641
 51
194.2
  0
ARC
  8
AXES
 62
7
  6
CONTINUOUS
 10
203.7539658818
 20
122.345035478
 40
0.5
 50
185.0486370376
 51
189.1482704278
  0
ARC
  8
AXES
 62
7
  6
CONTINUOUS
 10
203.7539658818
 20
122.345035478
 40
0.5
 50
180.0
 51
184.2626873985
  0
ARC
  8
0
 62
7
  6
CONTINUOUS
 10
203.7539658818
 20
122.345035478
 40
0.5
 50
179.999996257
 51
194.199976786
  0
ARC
  8
0
 62
7
  6
CONTINUOUS
 10
144.0289658818
 20
136.1297571858
 40
4.104
 50
179.9997279377
 51
0.0002641553
  0
ARC
  8
0
 62
7
  6
CONTINUOUS
 10
157.7749658818
 20
135.6757571858
 40
3.85
 50
269.9996872643
 51
0.0002811218
  0
ARC
  8
0
 62
7
  6
CONTINUOUS
 10
156.4749658818
 20
135.6757571858
 40
3.85
 50
179.9996862492
 51
270.0002796715
  0
ARC
  8
0
 62
7
  6
CONTINUOUS
 10
171.7789658818
 20
135.6757571858
 40
3.85
 50
269.9996872643
 51
0.0002811218
  0
ARC
  8
0
 62
7
  6
CONTINUOUS
 10
169.9789658818
 20
135.6757571858
 40
3.85
 50
179.9996862492
 51
270.0002796715
  0
ARC
  8
0
 62
7
  6
CONTINUOUS
 10
134.9329658818
 20
140.3134788936
 40
0.5
 50
0.0000879231
 51
14.1999523206
  0
ARC
  8
0
 62
7
  6
CONTINUOUS
 10
147.6329658818
 20
140.3134788936
 40
0.5
 50
0.0000879231
 51
14.1999523206
  0
ARC
  8
0
 62
7
  6
CONTINUOUS
 10
140.4249658818
 20
140.3134788936
 40
0.5
 50
165.8000476345
 51
179.9999120476
  0
ARC
  8
0
 62
7
  6
CONTINUOUS
 10
161.1249658818
 20
140.3134788936
 40
0.5
 50
359.9999962556
 51
14.1999767791
  0
ARC
  8
0
 62
7
  6
CONTINUOUS
 10
153.1249658818
 20
140.3134788936
 40
0.5
 50
165.799995375
 51
179.9999803326
  0
ARC
  8
0
 62
7
  6
CONTINUOUS
 10
166.6289658818
 20
140.3134788936
 40
0.5
 50
165.799995375
 51
179.9999803327
  0
ARC
  8
0
 62
7
  6
CONTINUOUS
 10
161.6209658818
 20
147.6257571858
 40
0.75
 50
90.0
 51
180.0
  0
ARC
  8
0
 62
7
  6
CONTINUOUS
 10
166.1329658818
 20
147.6257571858
 40
0.75
 50
0.0
 51
90.0
  0
ARC
  8
0
 62
7
  6
CONTINUOUS
 10
152.6289658818
 20
147.6257571858
 40
0.75
 50
0.0
 51
90.0
  0
ARC
  8
0
 62
7
  6
CONTINUOUS
 10
148.1289658818
 20
147.6257571858
 40
0.75
 50
90.0
 51
180.0
  0
ARC
  8
0
 62
7
  6
CONTINUOUS
 10
139.9289658818
 20
147.6257571858
 40
0.75
 50
0.0
 51
90.0
  0
ARC
  8
0
 62
7
  6
CONTINUOUS
 10
135.4289658818
 20
147.6257571858
 40
0.75
 50
90.0
 51
180.0
  0
ARC
  8
0
 62
7
  6
CONTINUOUS
 10
166.7329658818
 20
143.3742196606
 40
0.15
 50
345.8
 51
360.0
  0
ARC
  8
0
 62
7
  6
CONTINUOUS
 10
153.2289658818
 20
143.3742196606
 40
0.15
 50
345.8
 51
360.0
  0
ARC
  8
0
 62
7
  6
CONTINUOUS
 10
161.0209661558
 20
143.3742185779
 40
0.15
 50
179.9995864477
 51
194.199573412
  0
ARC
  8
0
 62
7
  6
CONTINUOUS
 10
147.5289658818
 20
143.3742196606
 40
0.15
 50
180.0
 51
194.2
  0
ARC
  8
0
 62
7
  6
CONTINUOUS
 10
140.5289652995
 20
143.3742173593
 40
0.15
 50
345.8009067324
 51
0.0008790001
  0
ARC
  8
0
 62
7
  6
CONTINUOUS
 10
134.8289658818
 20
143.3742196606
 40
0.15
 50
180.0
 51
194.2
  0
ARC
  8
0
 62
7
  6
CONTINUOUS
 10
201.3789658818
 20
137.0757571858
 40
5.5
 50
269.9997561736
 51
329.2118097615
  0
ARC
  8
0
 62
7
  6
CONTINUOUS
 10
186.1289658818
 20
136.1757571858
 40
4.5
 50
269.9997425141
 51
0.0002294049
  0
ARC
  8
0
 62
7
  6
CONTINUOUS
 10
184.6289658818
 20
136.1757571858
 40
4.5
 50
179.9997419725
 51
270.0002283809
  0
ARC
  8
0
 62
7
  6
CONTINUOUS
 10
199.6289658818
 20
136.0757571858
 40
4.5
 50
179.9997414976
 51
270.0002283413
  0
ARC
  8
0
 62
7
  6
CONTINUOUS
 10
208.3789658818
 20
134.8693090316
 40
3.0
 50
289.6689023276
 51
360.0
  0
ARC
  8
0
 62
7
  6
CONTINUOUS
 10
175.1289658818
 20
140.3134788936
 40
0.5
 50
359.9999962556
 51
14.1999767791
  0
ARC
  8
0
 62
7
  6
CONTINUOUS
 10
190.1289658818
 20
140.3134788936
 40
0.5
 50
359.9999962555
 51
14.1999767791
  0
ARC
  8
0
 62
7
  6
CONTINUOUS
 10
180.6289658818
 20
140.3134788936
 40
0.5
 50
165.7999953749
 51
179.9999803327
  0
ARC
  8
0
 62
7
  6
CONTINUOUS
 10
195.6289658818
 20
140.3134833714
 40
0.5
 50
165.8010059352
 51
179.9999803496
  0
ARC
  8
0
 62
7
  6
CONTINUOUS
 10
205.9749658818
 20
134.3372751245
 40
0.15
 50
329.2109930998
 51
0.0009496843
  0
ARC
  8
0
 62
7
  6
CONTINUOUS
 10
208.8789658818
 20
146.320255559
 40
2.5
 50
359.9993889107
 51
109.6692853863
  0
ARC
  8
0
 62
7
  6
CONTINUOUS
 10
195.1329658818
 20
147.6257571858
 40
0.75
 50
0.0
 51
90.0
  0
ARC
  8
0
 62
7
  6
CONTINUOUS
 10
180.1329658818
 20
147.6257571858
 40
0.75
 50
0.0
 51
90.0
  0
ARC
  8
0
 62
7
  6
CONTINUOUS
 10
175.6249658818
 20
147.6257571858
 40
0.75
 50
90.0
 51
180.0
  0
ARC
  8
0
 62
7
  6
CONTINUOUS
 10
190.6249658818
 20
147.6257571858
 40
0.75
 50
90.0
 51
180.0
  0
ARC
  8
0
 62
7
  6
CONTINUOUS
 10
195.7329658818
 20
143.3744393301
 40
0.15
 50
345.8010105548
 51
360.0
  0
ARC
  8
0
 62
7
  6
CONTINUOUS
 10
206.2749658818
 20
147.8850795935
 40
0.15
 50
109.6692853863
 51
180.0
  0
ARC
  8
0
 62
7
  6
CONTINUOUS
 10
180.7329658818
 20
143.3742196606
 40
0.15
 50
345.8
 51
360.0
  0
ARC
  8
0
 62
7
  6
CONTINUOUS
 10
190.0249661558
 20
143.3742185779
 40
0.15
 50
179.9995864477
 51
194.199573412
  0
ARC
  8
0
 62
7
  6
CONTINUOUS
 10
175.0249661558
 20
143.3742185779
 40
0.15
 50
179.9995864477
 51
194.199573412
  0
ARC
  8
0
 62
7
  6
CONTINUOUS
 10
249.6951660168
 20
131.3257571858
 40
43.15
 50
19.4758531743
 51
19.8639975066
  0
ARC
  8
0
 62
7
  6
CONTINUOUS
 10
249.6951660168
 20
131.3257571858
 40
43.15
 50
340.5287793655
 51
19.4712206345
  0
ARC
  8
0
 62
7
  6
CONTINUOUS
 10
282.6061399948
 20
118.2757571858
 40
4.0
 50
180.0
 51
270.0
  0
ARC
  8
AXES
 62
7
  6
CONTINUOUS
 10
284.6061399948
 20
118.6257571858
 40
2.1
 50
180.0
 51
360.0
  0
ARC
  8
0
 62
7
  6
CONTINUOUS
 10
278.7561399948
 20
131.4257571858
 40
0.15
 50
146.25
 51
180.0
  0
ARC
  8
0
 62
7
  6
CONTINUOUS
 10
278.7561399948
 20
131.5851402093
 40
0.1499999671
 50
179.9998090059
 51
252.634248814
  0
ARC
  8
AXES
 62
7
  6
CONTINUOUS
 10
284.6061399948
 20
126.6757571858
 40
2.1
 50
0.0
 51
180.0
  0
ARC
  8
0
 62
7
  6
CONTINUOUS
 10
286.6061399948
 20
118.2757571858
 40
4.0
 50
270.0
 51
340.5287793655
  0
ARC
  8
0
 62
7
  6
CONTINUOUS
 10
292.6904918848
 20
130.6917565302
 40
0.1499999543
 50
269.9999889304
 51
359.1554400036
  0
ARC
  8
0
 62
7
  6
CONTINUOUS
 10
282.6061399948
 20
144.3757571858
 40
4.0
 50
90.0
 51
180.0
  0
CIRCLE
  8
AXES
 62
7
  6
CONTINUOUS
 10
284.6061399948
 20
144.0257571858
 40
2.1
  0
ARC
  8
0
 62
7
  6
CONTINUOUS
 10
286.6061399948
 20
144.3757571858
 40
4.0
 50
19.4712206345
 51
90.0
  0
ARC
  8
0
 62
7
  6
CONTINUOUS
 10
284.6061399948
 20
150.2917571858
 40
19.75
 50
252.6343058201
 51
270.0
  0
ARC
  8
0
 62
7
  6
CONTINUOUS
 10
127.0749658818
 20
201.5555903209
 40
0.15
 50
271.5229755581
 51
281.25
  0
ARC
  8
0
 62
7
  6
CONTINUOUS
 10
122.8829658818
 20
201.5555903209
 40
0.15
 50
258.7500000115
 51
268.477024442
  0
ARC
  8
0
 62
7
  6
CONTINUOUS
 10
114.3749658818
 20
201.5555903209
 40
0.15
 50
271.5229755581
 51
281.25
  0
ARC
  8
0
 62
7
  6
CONTINUOUS
 10
110.1829658818
 20
201.5555903209
 40
0.15
 50
258.7500000115
 51
268.477024442
  0
ARC
  8
0
 62
7
  6
CONTINUOUS
 10
101.6749658818
 20
201.5555903209
 40
0.15
 50
271.5229755581
 51
281.25
  0
ARC
  8
0
 62
7
  6
CONTINUOUS
 10
97.4829658818
 20
201.5555903209
 40
0.15
 50
258.7500000115
 51
268.477024442
  0
ARC
  8
0
 62
7
  6
CONTINUOUS
 10
88.9749658818
 20
201.5555903209
 40
0.15
 50
271.5229755581
 51
281.25
  0
ARC
  8
0
 62
7
  6
CONTINUOUS
 10
84.7829658818
 20
201.5555903209
 40
0.15
 50
258.7500000115
 51
268.477024442
  0
ARC
  8
0
 62
7
  6
CONTINUOUS
 10
76.2749658818
 20
201.5555903209
 40
0.15
 50
271.5229755581
 51
281.25
  0
ARC
  8
0
 62
7
  6
CONTINUOUS
 10
72.0829658818
 20
201.5555903209
 40
0.15
 50
258.75
 51
268.4770244418
  0
ARC
  8
0
 62
7
  6
CONTINUOUS
 10
63.5749658818
 20
201.5555903209
 40
0.15
 50
271.522975558
 51
281.2499999874
  0
ARC
  8
0
 62
7
  6
CONTINUOUS
 10
59.3829658818
 20
201.5555903209
 40
0.15
 50
180.0
 51
270.0
  0
ARC
  8
0
 62
7
  6
CONTINUOUS
 10
108.1789658818
 20
202.1555903209
 40
0.75
 50
270.0
 51
360.0
  0
ARC
  8
0
 62
7
  6
CONTINUOUS
 10
103.6789658818
 20
202.1555903209
 40
0.75
 50
180.0
 51
270.0
  0
ARC
  8
0
 62
7
  6
CONTINUOUS
 10
95.4789658818
 20
202.1555903209
 40
0.75
 50
270.0
 51
360.0
  0
ARC
  8
0
 62
7
  6
CONTINUOUS
 10
90.9789658818
 20
202.1555903209
 40
0.75
 50
180.0
 51
270.0
  0
ARC
  8
0
 62
7
  6
CONTINUOUS
 10
82.7789658818
 20
202.1555903209
 40
0.75
 50
270.0
 51
360.0
  0
ARC
  8
0
 62
7
  6
CONTINUOUS
 10
78.2789658818
 20
202.1555903209
 40
0.75
 50
180.0
 51
270.0
  0
ARC
  8
0
 62
7
  6
CONTINUOUS
 10
70.0789658818
 20
202.1555903209
 40
0.75
 50
270.0
 51
360.0
  0
ARC
  8
0
 62
7
  6
CONTINUOUS
 10
65.5789658818
 20
202.1555903209
 40
0.75
 50
180.0
 51
270.0
  0
ARC
  8
0
 62
7
  6
CONTINUOUS
 10
116.3789658818
 20
202.1555903209
 40
0.75
 50
180.0
 51
270.0
  0
ARC
  8
0
 62
7
  6
CONTINUOUS
 10
59.2289658818
 20
202.1555903209
 40
0.75
 50
180.0022197664
 51
270.0000508801
  0
ARC
  8
0
 62
7
  6
CONTINUOUS
 10
133.5789658818
 20
202.1555903209
 40
0.75
 50
270.0
 51
360.0
  0
ARC
  8
0
 62
7
  6
CONTINUOUS
 10
129.0789658818
 20
202.1555903209
 40
0.75
 50
180.0
 51
270.0
  0
ARC
  8
0
 62
7
  6
CONTINUOUS
 10
120.8789658818
 20
202.1555903209
 40
0.75
 50
270.0
 51
360.0
  0
ARC
  8
0
 62
7
  6
CONTINUOUS
 10
181.2289658818
 20
201.5555903209
 40
0.15
 50
180.0
 51
270.0
  0
ARC
  8
0
 62
7
  6
CONTINUOUS
 10
189.5289658818
 20
201.5555903209
 40
0.15
 50
270.0
 51
360.0
  0
ARC
  8
0
 62
7
  6
CONTINUOUS
 10
148.2829658818
 20
201.5555903209
 40
0.15
 50
258.7500000115
 51
268.477024442
  0
ARC
  8
0
 62
7
  6
CONTINUOUS
 10
139.7749658818
 20
201.5555903209
 40
0.15
 50
271.5229755581
 51
281.25
  0
ARC
  8
0
 62
7
  6
CONTINUOUS
 10
135.5829658818
 20
201.5555903209
 40
0.15
 50
258.7500000114
 51
268.477024442
  0
ARC
  8
0
 62
7
  6
CONTINUOUS
 10
211.2289658818
 20
201.5555903209
 40
0.15
 50
270.0
 51
360.0
  0
ARC
  8
0
 62
7
  6
CONTINUOUS
 10
203.2539515187
 20
202.1555903209
 40
0.75
 50
270.0
 51
360.0
  0
ARC
  8
0
 62
7
  6
CONTINUOUS
 10
198.753980245
 20
202.1555903209
 40
0.75
 50
180.0
 51
270.0
  0
ARC
  8
0
 62
7
  6
CONTINUOUS
 10
173.1289515187
 20
202.1555903209
 40
0.75
 50
270.0
 51
360.0
  0
ARC
  8
0
 62
7
  6
CONTINUOUS
 10
168.628980245
 20
202.1555903209
 40
0.75
 50
180.0
 51
270.0
  0
ARC
  8
0
 62
7
  6
CONTINUOUS
 10
159.3749515187
 20
202.1555903209
 40
0.75
 50
270.0
 51
360.0
  0
ARC
  8
0
 62
7
  6
CONTINUOUS
 10
154.874980245
 20
202.1555903209
 40
0.75
 50
180.0
 51
270.0
  0
ARC
  8
0
 62
7
  6
CONTINUOUS
 10
146.2789658818
 20
202.1555903209
 40
0.75
 50
270.0
 51
360.0
  0
ARC
  8
0
 62
7
  6
CONTINUOUS
 10
141.7789658818
 20
202.1555903209
 40
0.75
 50
180.0
 51
270.0
  0
ENDSEC
  0
EOF
