  0
SECTION
  2
HEADER
  9
$EXTMAX
 10
420.0
 20
297.0
 30
0.0
  9
$EXTMIN
 10
0.0
 20
0.0
 30
0.0
  9
$LIMMIN
 10
0.0
 20
0.0
  9
$LIMMAX
 10
420.0
 20
297.0
  9
$VIEWCTR
 10
210.0
 20
148.5
  9
$VIEWSIZE
 40
297.0
  9
$CLAYER
  8
0
  9
$LTSCALE
 40
23.1
  9
$CELTYPE
  6
BYLAYER
  9
$DIMSCALE
 40
1.0
  9
$DIMASZ
 40
3.5
  9
$DIMEXO
 40
2.625
  9
$DIMDLI
 40
15.96
  9
$DIMEXE
 40
7.56
  9
$DIMCEN
 40
3.78
  9
$DIMLFAC
 40
1.0
  9
$DIMBLK
  1
_FILLED
  9
$DIMTXT
 40
3.5
  9
$PDMODE
 70
3
  9
$PDSIZE
 40
0.3125
  9
$TILEMODE
 70
1
  0
ENDSEC
  0
SECTION
  2
TABLES
  0
TABLE
  2
LTYPE
 70
6
  0
LTYPE
  2
BYBLOCK
 70
0
  3

 72
65
 73
0
 40
0.0
  0
LTYPE
  2
BYLAYER
 70
0
  3

 72
65
 73
0
 40
0.0
  0
LTYPE
  2
CONTINUOUS
 70
64
  3
Solid line
 72
65
 73
0
 40
0.0
  0
LTYPE
  2
CENTER
 70
64
  3
____ _ ____ _ ____ _ ____ _ ____ _ ____ _ ____
 72
65
 73
4
 40
0.6
 49
0.375
 49
-0.075
 49
0.075
 49
-0.075
  0
LTYPE
  2
HIDDEN
 70
64
  3
- - - - - - - - - - - - - - - - - - - -
 72
65
 73
2
 40
0.2
 49
0.1
 49
-0.1
  0
LTYPE
  2
PHANTOM
 70
64
  3
_____ _ _ _____ _ _ _____ _ _ _____
 72
65
 73
6
 40
0.8
 49
0.45
 49
-0.05
 49
0.1
 49
-0.05
 49
0.1
 49
-0.05
  0
LTYPE
  2
DOT
 70
64
  3
. . . . . . . . . . . . . . . . . . . .
 72
65
 73
2
 40
0.2
 49
0.1
 49
-0.1
  0
LTYPE
  2
DASHED
 70
64
  3
- - - - - - - - - - - - - - - - - - - -
 72
65
 73
2
 40
0.2
 49
0.1
 49
-0.1
  0
ENDTAB
  0
TABLE
  2
LAYER
 70
36
  0
LAYER
  2
0
 70
0
 62
7
  6
CONTINUOUS
  0
LAYER
  2
DEFAULT_1
 70
0
 62
7
  6
CENTER
  0
LAYER
  2
DEFAULT_2
 70
0
 62
8
  6
HIDDEN
  0
LAYER
  2
DEFAULT_3
 70
0
 62
7
  6
PHANTOM
  0
LAYER
  2
AXES
 70
0
 62
7
  6
CONTINUOUS
  0
LAYER
  2
CSYS
 70
0
 62
7
  6
CONTINUOUS
  0
LAYER
  2
CURVE
 70
0
 62
7
  6
CONTINUOUS
  0
LAYER
  2
CURVES
 70
0
 62
7
  6
CONTINUOUS
  0
LAYER
  2
PLANES
 70
0
 62
7
  6
CONTINUOUS
  0
LAYER
  2
QUILT
 70
0
 62
7
  6
CONTINUOUS
  0
LAYER
  2
SURF-A
 70
0
 62
7
  6
CONTINUOUS
  0
LAYER
  2
SURFACE
 70
0
 62
7
  6
CONTINUOUS
  0
ENDTAB
  0
TABLE
  2
STYLE
 70
1
  0
STYLE
  2
STANDARD
 70
0
 40
0.0
 41
0.8
 50
0.0
 71
0
 42
0.2
  3
txt
  4

  0
STYLE
  2
TEXTSTYLE_1
 70
0
 40
0.0
 41
0.8
 50
0.0
 71
0
 42
0.2
  3
gdt
  4

  0
STYLE
  2
TEXTSTYLE_2
 70
0
 40
0.0
 41
0.6
 50
0.0
 71
0
 42
0.2
  3
txt
  4

  0
STYLE
  2
TEXTSTYLE_3
 70
0
 40
0.0
 41
1.0
 50
0.0
 71
0
 42
0.2
  3
ftb_____.ttf
  4

  0
STYLE
  2
TEXTSTYLE_4
 70
0
 40
0.0
 41
1.0
 50
0.0
 71
0
 42
0.2
  3
fti_____.ttf
  4

  0
STYLE
  2
TEXTSTYLE_5
 70
0
 40
0.0
 41
1.0
 50
0.0
 71
0
 42
0.2
  3
frutiger light.ttf
  4

  0
STYLE
  2
TEXTSTYLE_6
 70
0
 40
0.0
 41
0.7
 50
0.0
 71
0
 42
0.2
  3
txt
  4

  0
STYLE
  2
TEXTSTYLE_7
 70
0
 40
0.0
 41
0.55
 50
0.0
 71
0
 42
0.2
  3
txt
  4

  0
ENDTAB
  0
ENDSEC
  0
SECTION
  2
BLOCKS
  0
BLOCK
  8
0
 62
2
  6
CONTINUOUS
  2
SYMBOL_5_BL1
 70
64
 10
382.7840918555
 20
35.5067593403
  0
TEXT
  8
0
 62
7
  6
CONTINUOUS
 10
373.842376864
 20
30.5995157174
  7
TEXTSTYLE_4
 40
1.0655737705
  1
The brand for plastic modular belts and chains
 41
1.0
 72
0
  0
LINE
  8
0
 62
7
  6
CONTINUOUS
 10
358.7621602445
 20
36.0805298321
 11
358.7621602445
 21
33.9493822911
  0
LINE
  8
0
 62
7
  6
CONTINUOUS
 10
359.0512227376
 20
30.9584509954
 11
359.0512227376
 21
31.0552420547
  0
LINE
  8
0
 62
7
  6
CONTINUOUS
 10
358.7621602445
 20
31.0229783683
 11
358.8199727462
 21
30.8293962497
  0
LINE
  8
0
 62
7
  6
CONTINUOUS
 10
360.1556028675
 20
33.867415078
 11
360.1556028675
 21
36.0805298321
  0
LINE
  8
0
 62
7
  6
CONTINUOUS
 10
361.0746601894
 20
32.0231527829
 11
361.0746601894
 21
30.5067593403
  0
LINE
  8
0
 62
7
  6
CONTINUOUS
 10
361.3637227445
 20
30.5067593403
 11
361.3637227445
 21
31.2488242184
  0
LINE
  8
0
 62
7
  6
CONTINUOUS
 10
361.3637227445
 20
31.3778789641
 11
361.3637227445
 21
32.0231527829
  0
LINE
  8
0
 62
7
  6
CONTINUOUS
 10
358.8199727462
 20
31.216560532
 11
358.7621602445
 21
31.0229783683
  0
LINE
  8
0
 62
7
  6
CONTINUOUS
 10
359.1668477307
 20
30.7971325633
 11
359.0512227376
 21
30.9584509954
  0
LINE
  8
0
 62
7
  6
CONTINUOUS
 10
360.2652852997
 20
31.3133515913
 11
360.3230977445
 21
31.216560532
  0
LINE
  8
0
 62
7
  6
CONTINUOUS
 10
360.6121602997
 20
31.216560532
 11
360.5543476894
 21
31.3456152777
  0
LINE
  8
0
 62
7
  6
CONTINUOUS
 10
362.0408487691
 20
36.0805298321
 11
362.0408487691
 21
34.2772511436
  0
LINE
  8
0
 62
7
  6
CONTINUOUS
 10
362.0408487691
 20
32.9657757338
 11
362.0408487691
 21
32.3100380288
  0
LINE
  8
0
 62
7
  6
CONTINUOUS
 10
362.4043477445
 20
31.1520331591
 11
362.4043477445
 21
30.5067593403
  0
LINE
  8
0
 62
7
  6
CONTINUOUS
 10
362.6934101343
 20
30.5067593403
 11
362.6934101343
 21
31.1520331591
  0
LINE
  8
0
 62
7
  6
CONTINUOUS
 10
359.0512227376
 20
31.0552420547
 11
359.1090352445
 21
31.1842968456
  0
LINE
  8
0
 62
7
  6
CONTINUOUS
 10
358.8199727462
 20
30.8293962497
 11
358.9355977445
 21
30.7003414814
  0
LINE
  8
0
 62
7
  6
CONTINUOUS
 10
362.3465351343
 20
31.2810879048
 11
362.4043477445
 21
31.1520331591
  0
LINE
  8
0
 62
7
  6
CONTINUOUS
 10
363.1559103548
 20
30.7971325633
 11
363.2137226343
 21
30.668077795
  0
LINE
  8
0
 62
7
  6
CONTINUOUS
 10
362.6934101343
 20
31.1520331591
 11
362.6355978548
 21
31.3133515913
  0
LINE
  8
0
 62
7
  6
CONTINUOUS
 10
363.1559103548
 20
31.3456152777
 11
363.1559103548
 21
31.2810879048
  0
LINE
  8
0
 62
7
  6
CONTINUOUS
 10
363.1559103548
 20
30.8939236226
 11
363.1559103548
 21
30.7971325633
  0
LINE
  8
0
 62
7
  6
CONTINUOUS
 10
363.4342913921
 20
32.3100380288
 11
363.4342913921
 21
36.0805298321
  0
LINE
  8
0
 62
7
  6
CONTINUOUS
 10
363.4449727445
 20
30.7648688543
 11
363.4449727445
 21
30.8293962497
  0
LINE
  8
0
 62
7
  6
CONTINUOUS
 10
363.7621602445
 20
36.0805298321
 11
363.7621602445
 21
32.3100380288
  0
LINE
  8
0
 62
7
  6
CONTINUOUS
 10
360.5543476894
 20
30.7003414814
 11
360.6121602997
 21
30.8293962497
  0
LINE
  8
0
 62
7
  6
CONTINUOUS
 10
364.9480979651
 20
30.6035504109
 11
364.890285024
 21
30.7648688543
  0
LINE
  8
0
 62
7
  6
CONTINUOUS
 10
364.6012229651
 20
31.2810879048
 11
364.6012229651
 21
31.1842968456
  0
LINE
  8
0
 62
7
  6
CONTINUOUS
 10
364.6012229651
 20
31.0552420547
 11
364.6012229651
 21
30.8616599362
  0
LINE
  8
0
 62
7
  6
CONTINUOUS
 10
364.890285024
 20
30.7648688543
 11
364.890285024
 21
31.2810879048
  0
LINE
  8
0
 62
7
  6
CONTINUOUS
 10
365.1556028675
 20
32.3100380288
 11
365.1556028675
 21
34.1133167174
  0
LINE
  8
0
 62
7
  6
CONTINUOUS
 10
365.1556028675
 20
35.4247921272
 11
365.1556028675
 21
36.0805298321
  0
LINE
  8
0
 62
7
  6
CONTINUOUS
 10
365.4684104651
 20
32.0231527829
 11
365.4684104651
 21
31.8618343508
  0
LINE
  8
0
 62
7
  6
CONTINUOUS
 10
365.4684104651
 20
31.5391973962
 11
365.4684104651
 21
30.5067593403
  0
LINE
  8
0
 62
7
  6
CONTINUOUS
 10
365.757472524
 20
30.5067593403
 11
365.757472524
 21
31.5391973962
  0
LINE
  8
0
 62
7
  6
CONTINUOUS
 10
365.757472524
 20
31.8618343508
 11
365.757472524
 21
32.0231527829
  0
LINE
  8
0
 62
7
  6
CONTINUOUS
 10
360.3230977445
 20
30.8293962497
 11
360.2652852997
 21
30.7326051679
  0
LINE
  8
0
 62
7
  6
CONTINUOUS
 10
362.6355978548
 20
31.3133515913
 11
362.5777852445
 21
31.3778789641
  0
LINE
  8
0
 62
7
  6
CONTINUOUS
 10
363.5027853548
 20
30.7003414814
 11
363.4449727445
 21
30.7648688543
  0
LINE
  8
0
 62
7
  6
CONTINUOUS
 10
364.6590352445
 20
30.5712867188
 11
364.716847524
 21
30.5067593403
  0
LINE
  8
0
 62
7
  6
CONTINUOUS
 10
364.6012229651
 20
30.668077795
 11
364.6590352445
 21
30.5712867188
  0
LINE
  8
0
 62
7
  6
CONTINUOUS
 10
365.0059102445
 20
30.5067593403
 11
364.9480979651
 21
30.6035504109
  0
LINE
  8
0
 62
7
  6
CONTINUOUS
 10
364.890285024
 20
31.2810879048
 11
364.8324727445
 21
31.3778789641
  0
LINE
  8
0
 62
7
  6
CONTINUOUS
 10
366.2199727445
 20
31.5391973962
 11
366.2199727445
 21
30.5067593403
  0
LINE
  8
0
 62
7
  6
CONTINUOUS
 10
366.5090354651
 20
30.5067593403
 11
366.5090354651
 21
31.2488242184
  0
LINE
  8
0
 62
7
  6
CONTINUOUS
 10
366.5090354651
 20
31.3778789641
 11
366.5090354651
 21
31.5391973962
  0
LINE
  8
0
 62
7
  6
CONTINUOUS
 10
367.0408487691
 20
34.5231527829
 11
367.0408487691
 21
32.3100380288
  0
LINE
  8
0
 62
7
  6
CONTINUOUS
 10
358.9355977445
 20
31.3456152777
 11
358.8199727462
 21
31.216560532
  0
LINE
  8
0
 62
7
  6
CONTINUOUS
 10
359.1090352445
 20
31.1842968456
 11
359.1668477307
 21
31.2488242184
  0
LINE
  8
0
 62
7
  6
CONTINUOUS
 10
358.9355977445
 20
30.7003414814
 11
359.0512227376
 21
30.6358140973
  0
LINE
  8
0
 62
7
  6
CONTINUOUS
 10
359.3402852307
 20
30.7003414814
 11
359.1668477307
 21
30.7971325633
  0
LINE
  8
0
 62
7
  6
CONTINUOUS
 10
364.543410024
 20
31.3456152777
 11
364.6012229651
 21
31.2810879048
  0
LINE
  8
0
 62
7
  6
CONTINUOUS
 10
367.491847524
 20
31.2810879048
 11
367.5496604651
 21
31.1197694727
  0
LINE
  8
0
 62
7
  6
CONTINUOUS
 10
367.838722524
 20
31.1197694727
 11
367.7809102445
 21
31.2810879048
  0
LINE
  8
0
 62
7
  6
CONTINUOUS
 10
367.5496604651
 20
31.1197694727
 11
367.5496604651
 21
30.5067593403
  0
LINE
  8
0
 62
7
  6
CONTINUOUS
 10
367.838722524
 20
30.5067593403
 11
367.838722524
 21
31.1197694727
  0
LINE
  8
0
 62
7
  6
CONTINUOUS
 10
368.3012227445
 20
31.3456152777
 11
368.3012227445
 21
31.2810879048
  0
LINE
  8
0
 62
7
  6
CONTINUOUS
 10
368.4342913921
 20
32.3100380288
 11
368.4342913921
 21
34.4411855698
  0
LINE
  8
0
 62
7
  6
CONTINUOUS
 10
368.7621602445
 20
36.0805298321
 11
368.7621602445
 21
32.3100380288
  0
LINE
  8
0
 62
7
  6
CONTINUOUS
 10
363.4449727445
 20
30.8293962497
 11
363.5027853548
 21
30.926187309
  0
LINE
  8
0
 62
7
  6
CONTINUOUS
 10
359.0512227376
 20
30.6358140973
 11
359.2246602583
 21
30.5712867188
  0
LINE
  8
0
 62
7
  6
CONTINUOUS
 10
360.5543476894
 20
31.3456152777
 11
360.3809101894
 21
31.4424063369
  0
LINE
  8
0
 62
7
  6
CONTINUOUS
 10
363.2137226343
 20
30.668077795
 11
363.3871601343
 21
30.5712867188
  0
LINE
  8
0
 62
7
  6
CONTINUOUS
 10
362.2309102445
 20
31.3456152777
 11
362.3465351343
 21
31.2810879048
  0
LINE
  8
0
 62
7
  6
CONTINUOUS
 10
362.5777852445
 20
31.3778789641
 11
362.4621603548
 21
31.4424063369
  0
LINE
  8
0
 62
7
  6
CONTINUOUS
 10
368.3012227445
 20
30.7648688543
 11
368.4168479651
 21
30.6358140973
  0
LINE
  8
0
 62
7
  6
CONTINUOUS
 10
368.6480977445
 20
30.7003414814
 11
368.5902854651
 21
30.7648688543
  0
LINE
  8
0
 62
7
  6
CONTINUOUS
 10
368.3012227445
 20
31.2810879048
 11
368.4168479651
 21
31.1520331591
  0
LINE
  8
0
 62
7
  6
CONTINUOUS
 10
367.7809102445
 20
31.2810879048
 11
367.7230979651
 21
31.3778789641
  0
LINE
  8
0
 62
7
  6
CONTINUOUS
 10
370.1512223035
 20
30.7003414814
 11
370.1512223035
 21
30.7648688543
  0
LINE
  8
0
 62
7
  6
CONTINUOUS
 10
370.1556028675
 20
32.3100380288
 11
370.1556028675
 21
36.0805298321
  0
LINE
  8
0
 62
7
  6
CONTINUOUS
 10
363.2137226343
 20
31.4101426505
 11
363.1559103548
 21
31.3456152777
  0
LINE
  8
0
 62
7
  6
CONTINUOUS
 10
360.091847717
 20
31.3778789641
 11
360.2652852997
 21
31.3133515913
  0
LINE
  8
0
 62
7
  6
CONTINUOUS
 10
364.8324727445
 20
31.3778789641
 11
364.716847524
 21
31.4424063369
  0
LINE
  8
0
 62
7
  6
CONTINUOUS
 10
368.6480977445
 20
31.216560532
 11
368.5902854651
 21
31.2810879048
  0
LINE
  8
0
 62
7
  6
CONTINUOUS
 10
369.8043479651
 20
30.8293962497
 11
369.8621602445
 21
30.7648688543
  0
LINE
  8
0
 62
7
  6
CONTINUOUS
 10
370.1512223035
 20
30.7648688543
 11
370.0355977445
 21
30.8939236226
  0
LINE
  8
0
 62
7
  6
CONTINUOUS
 10
369.8043479651
 20
31.3456152777
 11
369.8621602445
 21
31.2810879048
  0
LINE
  8
0
 62
7
  6
CONTINUOUS
 10
370.1512223035
 20
31.2810879048
 11
370.0355977445
 21
31.4101426505
  0
LINE
  8
0
 62
7
  6
CONTINUOUS
 10
363.4449727445
 20
31.2810879048
 11
363.5027853548
 21
31.3456152777
  0
LINE
  8
0
 62
7
  6
CONTINUOUS
 10
363.2715352445
 20
31.0229783683
 11
363.1559103548
 21
30.8939236226
  0
LINE
  8
0
 62
7
  6
CONTINUOUS
 10
364.6012229651
 20
30.8616599362
 11
364.543410024
 21
30.7971325633
  0
LINE
  8
0
 62
7
  6
CONTINUOUS
 10
364.543410024
 20
30.6035504109
 11
364.6012229651
 21
30.668077795
  0
LINE
  8
0
 62
7
  6
CONTINUOUS
 10
363.3871601343
 20
30.5712867188
 11
363.5027853548
 21
30.5390230296
  0
LINE
  8
0
 62
7
  6
CONTINUOUS
 10
360.3809101894
 20
31.4424063369
 11
360.1496602445
 21
31.5069337098
  0
LINE
  8
0
 62
7
  6
CONTINUOUS
 10
363.7340351343
 20
30.6358140973
 11
363.5027853548
 21
30.7003414814
  0
LINE
  8
0
 62
7
  6
CONTINUOUS
 10
362.4621603548
 20
31.4424063369
 11
362.2887228548
 21
31.5069337098
  0
LINE
  8
0
 62
7
  6
CONTINUOUS
 10
364.716847524
 20
31.4424063369
 11
364.543410024
 21
31.5069337098
  0
LINE
  8
0
 62
7
  6
CONTINUOUS
 10
367.3762229651
 20
31.3456152777
 11
367.491847524
 21
31.2810879048
  0
LINE
  8
0
 62
7
  6
CONTINUOUS
 10
367.7230979651
 20
31.3778789641
 11
367.6074727445
 21
31.4424063369
  0
LINE
  8
0
 62
7
  6
CONTINUOUS
 10
359.2246602583
 20
30.5712867188
 11
359.3980977583
 21
30.5390230296
  0
LINE
  8
0
 62
7
  6
CONTINUOUS
 10
359.6871602721
 20
30.6358140973
 11
359.3402852307
 21
30.7003414814
  0
LINE
  8
0
 62
7
  6
CONTINUOUS
 10
362.1152853548
 20
31.3778789641
 11
362.2309102445
 21
31.3456152777
  0
LINE
  8
0
 62
7
  6
CONTINUOUS
 10
364.4277854651
 20
31.3778789641
 11
364.543410024
 21
31.3456152777
  0
LINE
  8
0
 62
7
  6
CONTINUOUS
 10
368.7637229651
 20
30.668077795
 11
368.6480977445
 21
30.7003414814
  0
LINE
  8
0
 62
7
  6
CONTINUOUS
 10
367.2605977445
 20
31.3778789641
 11
367.3762229651
 21
31.3456152777
  0
LINE
  8
0
 62
7
  6
CONTINUOUS
 10
368.4168479651
 20
30.6358140973
 11
368.5902854651
 21
30.5712867188
  0
LINE
  8
0
 62
7
  6
CONTINUOUS
 10
367.6074727445
 20
31.4424063369
 11
367.4340352445
 21
31.5069337098
  0
LINE
  8
0
 62
7
  6
CONTINUOUS
 10
368.8215352445
 20
31.1520331591
 11
368.6480977445
 21
31.216560532
  0
LINE
  8
0
 62
7
  6
CONTINUOUS
 10
369.6309104651
 20
30.8939236226
 11
369.8043479651
 21
30.8293962497
  0
LINE
  8
0
 62
7
  6
CONTINUOUS
 10
370.0355977445
 20
31.4101426505
 11
369.8621602445
 21
31.4746700234
  0
LINE
  8
0
 62
7
  6
CONTINUOUS
 10
368.4168479651
 20
31.1520331591
 11
368.6480977445
 21
31.0552420547
  0
LINE
  8
0
 62
7
  6
CONTINUOUS
 10
370.0355977445
 20
30.8939236226
 11
369.8043479651
 21
30.9907146818
  0
LINE
  8
0
 62
7
  6
CONTINUOUS
 10
368.5902854651
 20
31.2810879048
 11
368.6480977445
 21
31.3456152777
  0
LINE
  8
0
 62
7
  6
CONTINUOUS
 10
359.0512227376
 20
31.4101426505
 11
358.9355977445
 21
31.3456152777
  0
LINE
  8
0
 62
7
  6
CONTINUOUS
 10
359.1668477307
 20
31.2488242184
 11
359.3402852307
 21
31.3456152777
  0
LINE
  8
0
 62
7
  6
CONTINUOUS
 10
361.4793477997
 20
31.4424063369
 11
361.3637227445
 21
31.3778789641
  0
LINE
  8
0
 62
7
  6
CONTINUOUS
 10
361.3637227445
 20
31.2488242184
 11
361.4793477997
 21
31.3133515913
  0
LINE
  8
0
 62
7
  6
CONTINUOUS
 10
360.3809101894
 20
30.6035504109
 11
360.5543476894
 21
30.7003414814
  0
LINE
  8
0
 62
7
  6
CONTINUOUS
 10
359.3980977583
 20
30.5390230296
 11
359.744972717
 21
30.5067593403
  0
LINE
  8
0
 62
7
  6
CONTINUOUS
 10
363.5027853548
 20
30.5390230296
 11
363.7340351343
 21
30.5067593403
  0
LINE
  8
0
 62
7
  6
CONTINUOUS
 10
361.8840352445
 20
31.4101426505
 11
362.1152853548
 21
31.3778789641
  0
LINE
  8
0
 62
7
  6
CONTINUOUS
 10
364.1965353548
 20
31.4101426505
 11
364.4277854651
 21
31.3778789641
  0
LINE
  8
0
 62
7
  6
CONTINUOUS
 10
368.6480977445
 20
31.0552420547
 11
369.6309104651
 21
30.8939236226
  0
LINE
  8
0
 62
7
  6
CONTINUOUS
 10
369.8043479651
 20
30.9907146818
 11
368.8215352445
 21
31.1520331591
  0
LINE
  8
0
 62
7
  6
CONTINUOUS
 10
362.2887228548
 20
31.5069337098
 11
362.1152853548
 21
31.5391973962
  0
LINE
  8
0
 62
7
  6
CONTINUOUS
 10
368.5902854651
 20
30.5712867188
 11
368.7637229651
 21
30.5390230296
  0
LINE
  8
0
 62
7
  6
CONTINUOUS
 10
367.4340352445
 20
31.5069337098
 11
367.2605977445
 21
31.5391973962
  0
LINE
  8
0
 62
7
  6
CONTINUOUS
 10
369.6887227445
 20
31.3778789641
 11
369.8043479651
 21
31.3456152777
  0
LINE
  8
0
 62
7
  6
CONTINUOUS
 10
369.8621602445
 20
30.7648688543
 11
369.8043479651
 21
30.7003414814
  0
LINE
  8
0
 62
7
  6
CONTINUOUS
 10
368.4168479651
 20
31.4424063369
 11
368.3012227445
 21
31.3456152777
  0
LINE
  8
0
 62
7
  6
CONTINUOUS
 10
363.3293478548
 20
31.4746700234
 11
363.2137226343
 21
31.4101426505
  0
LINE
  8
0
 62
7
  6
CONTINUOUS
 10
363.3871601343
 20
31.0875057863
 11
363.2715352445
 21
31.0229783683
  0
LINE
  8
0
 62
7
  6
CONTINUOUS
 10
363.5027853548
 20
30.926187309
 11
363.6184102445
 21
30.9907146818
  0
LINE
  8
0
 62
7
  6
CONTINUOUS
 10
361.0746601894
 20
30.5067593403
 11
361.3637227445
 21
30.5067593403
  0
LINE
  8
0
 62
7
  6
CONTINUOUS
 10
362.4043477445
 20
30.5067593403
 11
362.6934101343
 21
30.5067593403
  0
LINE
  8
0
 62
7
  6
CONTINUOUS
 10
363.7340351343
 20
30.5067593403
 11
364.0809101343
 21
30.5067593403
  0
LINE
  8
0
 62
7
  6
CONTINUOUS
 10
364.716847524
 20
30.5067593403
 11
365.0059102445
 21
30.5067593403
  0
LINE
  8
0
 62
7
  6
CONTINUOUS
 10
365.4684104651
 20
30.5067593403
 11
365.757472524
 21
30.5067593403
  0
LINE
  8
0
 62
7
  6
CONTINUOUS
 10
366.2199727445
 20
30.5067593403
 11
366.5090354651
 21
30.5067593403
  0
LINE
  8
0
 62
7
  6
CONTINUOUS
 10
367.5496604651
 20
30.5067593403
 11
367.838722524
 21
30.5067593403
  0
LINE
  8
0
 62
7
  6
CONTINUOUS
 10
369.1105979651
 20
30.5067593403
 11
369.4574729651
 21
30.5067593403
  0
LINE
  8
0
 62
7
  6
CONTINUOUS
 10
369.4574729651
 20
30.6358140973
 11
369.1105979651
 21
30.6358140973
  0
LINE
  8
0
 62
7
  6
CONTINUOUS
 10
364.0809101343
 20
30.6358140973
 11
363.7340351343
 21
30.6358140973
  0
LINE
  8
0
 62
7
  6
CONTINUOUS
 10
368.5902854651
 20
30.7648688543
 11
368.3012227445
 21
30.7648688543
  0
LINE
  8
0
 62
7
  6
CONTINUOUS
 10
360.6121602997
 20
30.8293962497
 11
360.3230977445
 21
30.8293962497
  0
LINE
  8
0
 62
7
  6
CONTINUOUS
 10
359.6871602721
 20
31.4101426505
 11
360.091847717
 21
31.3778789641
  0
LINE
  8
0
 62
7
  6
CONTINUOUS
 10
360.1496602445
 20
31.5069337098
 11
359.744972717
 21
31.5391973962
  0
LINE
  8
0
 62
7
  6
CONTINUOUS
 10
368.7637229651
 20
30.5390230296
 11
369.1105979651
 21
30.5067593403
  0
LINE
  8
0
 62
7
  6
CONTINUOUS
 10
369.1105979651
 20
30.6358140973
 11
368.7637229651
 21
30.668077795
  0
LINE
  8
0
 62
7
  6
CONTINUOUS
 10
364.543410024
 20
31.5069337098
 11
364.1965353548
 21
31.5391973962
  0
LINE
  8
0
 62
7
  6
CONTINUOUS
 10
369.3418477445
 20
31.4101426505
 11
369.6887227445
 21
31.3778789641
  0
LINE
  8
0
 62
7
  6
CONTINUOUS
 10
369.6887227445
 20
31.5069337098
 11
369.3418477445
 21
31.5391973962
  0
LINE
  8
0
 62
7
  6
CONTINUOUS
 10
367.0293479651
 20
31.4101426505
 11
367.2605977445
 21
31.3778789641
  0
LINE
  8
0
 62
7
  6
CONTINUOUS
 10
369.8621602445
 20
31.4746700234
 11
369.6887227445
 21
31.5069337098
  0
LINE
  8
0
 62
7
  6
CONTINUOUS
 10
370.0355977445
 20
30.6035504109
 11
370.1512223035
 21
30.7003414814
  0
LINE
  8
0
 62
7
  6
CONTINUOUS
 10
364.543410024
 20
30.7971325633
 11
364.369972524
 21
30.7003414814
  0
LINE
  8
0
 62
7
  6
CONTINUOUS
 10
366.624660024
 20
31.4424063369
 11
366.5090354651
 21
31.3778789641
  0
LINE
  8
0
 62
7
  6
CONTINUOUS
 10
366.5090354651
 20
31.2488242184
 11
366.624660024
 21
31.3133515913
  0
LINE
  8
0
 62
7
  6
CONTINUOUS
 10
359.2246602583
 20
31.4746700234
 11
359.0512227376
 21
31.4101426505
  0
LINE
  8
0
 62
7
  6
CONTINUOUS
 10
361.6527851343
 20
31.5069337098
 11
361.4793477997
 21
31.4424063369
  0
LINE
  8
0
 62
7
  6
CONTINUOUS
 10
361.4793477997
 20
31.3133515913
 11
361.6527851343
 21
31.3778789641
  0
LINE
  8
0
 62
7
  6
CONTINUOUS
 10
360.2652852997
 20
30.7326051679
 11
360.091847717
 21
30.668077795
  0
LINE
  8
0
 62
7
  6
CONTINUOUS
 10
369.6887227445
 20
30.668077795
 11
369.4574729651
 21
30.6358140973
  0
LINE
  8
0
 62
7
  6
CONTINUOUS
 10
364.0809101343
 20
30.5067593403
 11
364.369972524
 21
30.5390230296
  0
LINE
  8
0
 62
7
  6
CONTINUOUS
 10
369.4574729651
 20
30.5067593403
 11
369.8043479651
 21
30.5390230296
  0
LINE
  8
0
 62
7
  6
CONTINUOUS
 10
359.744972717
 20
30.5067593403
 11
360.1496602445
 21
30.5390230296
  0
LINE
  8
0
 62
7
  6
CONTINUOUS
 10
360.091847717
 20
30.668077795
 11
359.6871602721
 21
30.6358140973
  0
LINE
  8
0
 62
7
  6
CONTINUOUS
 10
363.9652852445
 20
31.0552420547
 11
364.6012229651
 21
31.0552420547
  0
LINE
  8
0
 62
7
  6
CONTINUOUS
 10
364.6012229651
 20
31.1842968456
 11
363.9652852445
 21
31.1842968456
  0
LINE
  8
0
 62
7
  6
CONTINUOUS
 10
360.3230977445
 20
31.216560532
 11
360.6121602997
 21
31.216560532
  0
LINE
  8
0
 62
7
  6
CONTINUOUS
 10
363.1559103548
 20
31.2810879048
 11
363.4449727445
 21
31.2810879048
  0
LINE
  8
0
 62
7
  6
CONTINUOUS
 10
369.8621602445
 20
31.2810879048
 11
370.1512223035
 21
31.2810879048
  0
LINE
  8
0
 62
7
  6
CONTINUOUS
 10
363.8496603548
 20
31.4101426505
 11
364.1965353548
 21
31.4101426505
  0
LINE
  8
0
 62
7
  6
CONTINUOUS
 10
368.9949727445
 20
31.4101426505
 11
369.3418477445
 21
31.4101426505
  0
LINE
  8
0
 62
7
  6
CONTINUOUS
 10
369.3418477445
 20
31.5391973962
 11
368.9949727445
 21
31.5391973962
  0
LINE
  8
0
 62
7
  6
CONTINUOUS
 10
367.2605977445
 20
31.5391973962
 11
367.0293479651
 21
31.5391973962
  0
LINE
  8
0
 62
7
  6
CONTINUOUS
 10
366.5090354651
 20
31.5391973962
 11
366.2199727445
 21
31.5391973962
  0
LINE
  8
0
 62
7
  6
CONTINUOUS
 10
365.757472524
 20
31.5391973962
 11
365.4684104651
 21
31.5391973962
  0
LINE
  8
0
 62
7
  6
CONTINUOUS
 10
364.1965353548
 20
31.5391973962
 11
363.8496603548
 21
31.5391973962
  0
LINE
  8
0
 62
7
  6
CONTINUOUS
 10
362.1152853548
 20
31.5391973962
 11
361.8840352445
 21
31.5391973962
  0
LINE
  8
0
 62
7
  6
CONTINUOUS
 10
365.4684104651
 20
31.8618343508
 11
365.757472524
 21
31.8618343508
  0
LINE
  8
0
 62
7
  6
CONTINUOUS
 10
365.757472524
 20
32.0231527829
 11
365.4684104651
 21
32.0231527829
  0
LINE
  8
0
 62
7
  6
CONTINUOUS
 10
361.3637227445
 20
32.0231527829
 11
361.0746601894
 21
32.0231527829
  0
LINE
  8
0
 62
7
  6
CONTINUOUS
 10
360.4015045068
 20
32.3100380288
 11
360.8140758554
 21
32.3100380288
  0
LINE
  8
0
 62
7
  6
CONTINUOUS
 10
362.0408487691
 20
32.3100380288
 11
363.4342913921
 21
32.3100380288
  0
LINE
  8
0
 62
7
  6
CONTINUOUS
 10
363.7621602445
 20
32.3100380288
 11
365.1556028675
 21
32.3100380288
  0
LINE
  8
0
 62
7
  6
CONTINUOUS
 10
367.0408487691
 20
32.3100380288
 11
368.4342913921
 21
32.3100380288
  0
LINE
  8
0
 62
7
  6
CONTINUOUS
 10
368.7621602445
 20
32.3100380288
 11
370.1556028675
 21
32.3100380288
  0
LINE
  8
0
 62
7
  6
CONTINUOUS
 10
366.798097524
 20
31.5069337098
 11
366.624660024
 21
31.4424063369
  0
LINE
  8
0
 62
7
  6
CONTINUOUS
 10
364.369972524
 20
30.5390230296
 11
364.543410024
 21
30.6035504109
  0
LINE
  8
0
 62
7
  6
CONTINUOUS
 10
369.8043479651
 20
30.5390230296
 11
370.0355977445
 21
30.6035504109
  0
LINE
  8
0
 62
7
  6
CONTINUOUS
 10
369.8043479651
 20
30.7003414814
 11
369.6887227445
 21
30.668077795
  0
LINE
  8
0
 62
7
  6
CONTINUOUS
 10
368.7637229651
 20
31.3778789641
 11
368.9949727445
 21
31.4101426505
  0
LINE
  8
0
 62
7
  6
CONTINUOUS
 10
366.798097524
 20
31.3778789641
 11
367.0293479651
 21
31.4101426505
  0
LINE
  8
0
 62
7
  6
CONTINUOUS
 10
363.7340351343
 20
31.0229783683
 11
363.9652852445
 21
31.0552420547
  0
LINE
  8
0
 62
7
  6
CONTINUOUS
 10
367.0293479651
 20
31.5391973962
 11
366.798097524
 21
31.5069337098
  0
LINE
  8
0
 62
7
  6
CONTINUOUS
 10
363.6184102445
 20
31.3778789641
 11
363.8496603548
 21
31.4101426505
  0
LINE
  8
0
 62
7
  6
CONTINUOUS
 10
368.9949727445
 20
31.5391973962
 11
368.6480977445
 21
31.5069337098
  0
LINE
  8
0
 62
7
  6
CONTINUOUS
 10
363.9652852445
 20
31.1842968456
 11
363.6184102445
 21
31.1520331591
  0
LINE
  8
0
 62
7
  6
CONTINUOUS
 10
359.744972717
 20
31.5391973962
 11
359.3980977583
 21
31.5069337098
  0
LINE
  8
0
 62
7
  6
CONTINUOUS
 10
363.8496603548
 20
31.5391973962
 11
363.4449727445
 21
31.5069337098
  0
LINE
  8
0
 62
7
  6
CONTINUOUS
 10
361.221176638
 20
33.4575790124
 11
360.565438933
 21
33.4575790124
  0
LINE
  8
0
 62
7
  6
CONTINUOUS
 10
366.624660024
 20
31.3133515913
 11
366.798097524
 21
31.3778789641
  0
LINE
  8
0
 62
7
  6
CONTINUOUS
 10
368.6480977445
 20
31.3456152777
 11
368.7637229651
 21
31.3778789641
  0
LINE
  8
0
 62
7
  6
CONTINUOUS
 10
368.6480977445
 20
31.5069337098
 11
368.4168479651
 21
31.4424063369
  0
LINE
  8
0
 62
7
  6
CONTINUOUS
 10
364.369972524
 20
30.7003414814
 11
364.0809101343
 21
30.6358140973
  0
LINE
  8
0
 62
7
  6
CONTINUOUS
 10
361.6527851343
 20
31.3778789641
 11
361.8840352445
 21
31.4101426505
  0
LINE
  8
0
 62
7
  6
CONTINUOUS
 10
361.8840352445
 20
31.5391973962
 11
361.6527851343
 21
31.5069337098
  0
LINE
  8
0
 62
7
  6
CONTINUOUS
 10
359.4559102445
 20
31.3778789641
 11
359.6871602721
 21
31.4101426505
  0
LINE
  8
0
 62
7
  6
CONTINUOUS
 10
365.9752749986
 20
34.9329888485
 11
366.6310127035
 21
34.9329888485
  0
LINE
  8
0
 62
7
  6
CONTINUOUS
 10
363.6184102445
 20
30.9907146818
 11
363.7340351343
 21
31.0229783683
  0
LINE
  8
0
 62
7
  6
CONTINUOUS
 10
363.6184102445
 20
31.1520331591
 11
363.3871601343
 21
31.0875057863
  0
LINE
  8
0
 62
7
  6
CONTINUOUS
 10
363.5027853548
 20
31.3456152777
 11
363.6184102445
 21
31.3778789641
  0
LINE
  8
0
 62
7
  6
CONTINUOUS
 10
360.1496602445
 20
30.5390230296
 11
360.3809101894
 21
30.6035504109
  0
LINE
  8
0
 62
7
  6
CONTINUOUS
 10
363.4449727445
 20
31.5069337098
 11
363.3293478548
 21
31.4746700234
  0
LINE
  8
0
 62
7
  6
CONTINUOUS
 10
359.3980977583
 20
31.5069337098
 11
359.2246602583
 21
31.4746700234
  0
LINE
  8
0
 62
7
  6
CONTINUOUS
 10
370.1556028675
 20
36.0805298321
 11
368.7621602445
 21
36.0805298321
  0
LINE
  8
0
 62
7
  6
CONTINUOUS
 10
366.7949471298
 20
36.0805298321
 11
366.3823757812
 21
36.0805298321
  0
LINE
  8
0
 62
7
  6
CONTINUOUS
 10
365.1556028675
 20
36.0805298321
 11
363.7621602445
 21
36.0805298321
  0
LINE
  8
0
 62
7
  6
CONTINUOUS
 10
363.4342913921
 20
36.0805298321
 11
362.0408487691
 21
36.0805298321
  0
LINE
  8
0
 62
7
  6
CONTINUOUS
 10
360.1556028675
 20
36.0805298321
 11
358.7621602445
 21
36.0805298321
  0
LINE
  8
0
 62
7
  6
CONTINUOUS
 10
359.3402852307
 20
31.3456152777
 11
359.4559102445
 21
31.3778789641
  0
CIRCLE
  8
0
 62
7
  6
CONTINUOUS
 10
369.458881556
 20
38.4165954059
 40
2.0901639344
  0
ARC
  8
0
 62
7
  6
CONTINUOUS
 10
360.4015045068
 20
33.9493822911
 40
1.6393442623
 50
180.0
 51
270.0
  0
ARC
  8
0
 62
7
  6
CONTINUOUS
 10
366.7949471298
 20
34.4411855698
 40
1.6393442623
 50
0.0
 51
90.0
  0
ARC
  8
0
 62
7
  6
CONTINUOUS
 10
360.8140758554
 20
33.7854478649
 40
1.4754098361
 50
270.0
 51
326.2510114041
  0
ARC
  8
0
 62
7
  6
CONTINUOUS
 10
366.3823757812
 20
34.6051199961
 40
1.4754098361
 50
90.0
 51
146.2510114041
  0
ARC
  8
0
 62
7
  6
CONTINUOUS
 10
361.221176638
 20
34.2772511436
 40
0.8196721311
 50
270.0
 51
360.0
  0
ARC
  8
0
 62
7
  6
CONTINUOUS
 10
365.9752749986
 20
34.1133167174
 40
0.8196721311
 50
90.0
 51
180.0
  0
ARC
  8
0
 62
7
  6
CONTINUOUS
 10
360.565438933
 20
33.867415078
 40
0.4098360656
 50
180.0
 51
270.0
  0
ARC
  8
0
 62
7
  6
CONTINUOUS
 10
366.6310127035
 20
34.5231527829
 40
0.4098360656
 50
0.0
 51
90.0
  0
SOLID
  8
0
 62
7
  6
CONTINUOUS
 10
365.4684104651
 20
31.8618347111
 11
365.4684104651
 21
32.0231531947
 12
365.757472524
 22
31.8618347111
 13
365.757472524
 23
32.0231531947
  0
SOLID
  8
0
 62
7
  6
CONTINUOUS
 10
359.744972717
 20
31.5391977439
 11
360.1496602445
 21
31.5069333244
 12
359.3980977583
 22
31.5069333244
 13
359.3980977583
 23
31.5069333244
  0
SOLID
  8
0
 62
7
  6
CONTINUOUS
 10
359.2246602583
 20
31.4746706537
 11
359.3980977583
 21
31.5069333244
 12
360.1496602445
 22
31.5069333244
 13
360.1496602445
 23
31.5069333244
  0
SOLID
  8
0
 62
7
  6
CONTINUOUS
 10
360.1496602445
 20
31.5069333244
 11
360.3809101894
 21
31.4424063504
 12
359.2246602583
 22
31.4746706537
 13
359.2246602583
 23
31.4746706537
  0
SOLID
  8
0
 62
7
  6
CONTINUOUS
 10
359.0512227376
 20
31.4101419116
 11
359.2246602583
 21
31.4746706537
 12
360.3809101894
 22
31.4424063504
 13
360.3809101894
 23
31.4424063504
  0
SOLID
  8
0
 62
7
  6
CONTINUOUS
 10
359.0512227376
 20
31.4101419116
 11
360.3809101894
 21
31.4424063504
 12
359.6871602721
 22
31.4101419116
 13
359.6871602721
 23
31.4101419116
  0
SOLID
  8
0
 62
7
  6
CONTINUOUS
 10
359.6871602721
 20
31.4101419116
 11
360.3809101894
 21
31.4424063504
 12
360.091847717
 22
31.3778792603
 13
360.091847717
 23
31.3778792603
  0
SOLID
  8
0
 62
7
  6
CONTINUOUS
 10
360.3809101894
 20
31.4424063504
 11
360.5543476894
 21
31.345614957
 12
360.091847717
 22
31.3778792603
 13
360.091847717
 23
31.3778792603
  0
SOLID
  8
0
 62
7
  6
CONTINUOUS
 10
360.2652852997
 20
31.3133521701
 11
360.091847717
 21
31.3778792603
 12
360.5543476894
 22
31.345614957
 13
360.5543476894
 23
31.345614957
  0
SOLID
  8
0
 62
7
  6
CONTINUOUS
 10
360.2652852997
 20
31.3133521701
 11
360.5543476894
 21
31.345614957
 12
360.3230977445
 22
31.2165606992
 13
360.3230977445
 23
31.2165606992
  0
SOLID
  8
0
 62
7
  6
CONTINUOUS
 10
360.5543476894
 20
31.345614957
 11
360.6121602997
 21
31.2165606992
 12
360.3230977445
 22
31.2165606992
 13
360.3230977445
 23
31.2165606992
  0
SOLID
  8
0
 62
7
  6
CONTINUOUS
 10
361.6527851343
 20
31.5069329918
 11
361.8840352445
 21
31.5391972951
 12
362.1152853548
 22
31.5391972951
 13
362.1152853548
 23
31.5391972951
  0
SOLID
  8
0
 62
7
  6
CONTINUOUS
 10
362.1152853548
 20
31.5391972951
 11
362.2887228548
 21
31.5069329918
 12
361.6527851343
 22
31.5069329918
 13
361.6527851343
 23
31.5069329918
  0
SOLID
  8
0
 62
7
  6
CONTINUOUS
 10
361.4793477997
 20
31.4424059016
 11
361.6527851343
 21
31.5069329918
 12
362.2887228548
 22
31.5069329918
 13
362.2887228548
 23
31.5069329918
  0
SOLID
  8
0
 62
7
  6
CONTINUOUS
 10
362.2887228548
 20
31.5069329918
 11
362.4621603548
 21
31.4424059016
 12
361.4793477997
 22
31.4424059016
 13
361.4793477997
 23
31.4424059016
  0
SOLID
  8
0
 62
7
  6
CONTINUOUS
 10
362.4621603548
 20
31.4424059016
 11
361.8840352445
 21
31.4101420472
 12
361.4793477997
 22
31.4424059016
 13
361.4793477997
 23
31.4424059016
  0
SOLID
  8
0
 62
7
  6
CONTINUOUS
 10
361.3637227445
 20
31.3778788115
 11
361.4793477997
 21
31.4424059016
 12
361.8840352445
 22
31.4101420472
 13
361.8840352445
 23
31.4101420472
  0
SOLID
  8
0
 62
7
  6
CONTINUOUS
 10
361.8840352445
 20
31.4101420472
 11
361.6527851343
 21
31.3778788115
 12
361.3637227445
 22
31.3778788115
 13
361.3637227445
 23
31.3778788115
  0
SOLID
  8
0
 62
7
  6
CONTINUOUS
 10
361.8840352445
 20
31.4101420472
 11
362.4621603548
 21
31.4424059016
 12
362.1152853548
 22
31.3778788115
 13
362.1152853548
 23
31.3778788115
  0
SOLID
  8
0
 62
7
  6
CONTINUOUS
 10
362.4621603548
 20
31.4424059016
 11
362.5777852445
 21
31.3778788115
 12
362.1152853548
 22
31.3778788115
 13
362.1152853548
 23
31.3778788115
  0
SOLID
  8
0
 62
7
  6
CONTINUOUS
 10
362.2309102445
 20
31.345614957
 11
362.1152853548
 21
31.3778788115
 12
362.5777852445
 22
31.3778788115
 13
362.5777852445
 23
31.3778788115
  0
SOLID
  8
0
 62
7
  6
CONTINUOUS
 10
362.5777852445
 20
31.3778788115
 11
362.6355978548
 21
31.3133517213
 12
362.2309102445
 22
31.345614957
 13
362.2309102445
 23
31.345614957
  0
SOLID
  8
0
 62
7
  6
CONTINUOUS
 10
362.3465351343
 20
31.2810878668
 11
362.2309102445
 21
31.345614957
 12
362.6355978548
 22
31.3133517213
 13
362.6355978548
 23
31.3133517213
  0
SOLID
  8
0
 62
7
  6
CONTINUOUS
 10
362.3465351343
 20
31.2810878668
 11
362.6355978548
 21
31.3133517213
 12
362.4043477445
 22
31.1520332377
 13
362.4043477445
 23
31.1520332377
  0
SOLID
  8
0
 62
7
  6
CONTINUOUS
 10
362.6355978548
 20
31.3133517213
 11
362.6934101343
 21
31.1520332377
 12
362.4043477445
 22
31.1520332377
 13
362.4043477445
 23
31.1520332377
  0
SOLID
  8
0
 62
7
  6
CONTINUOUS
 10
361.6527851343
 20
31.3778788115
 11
361.4793477997
 21
31.3133517213
 12
361.3637227445
 22
31.3778788115
 13
361.3637227445
 23
31.3778788115
  0
SOLID
  8
0
 62
7
  6
CONTINUOUS
 10
361.4793477997
 20
31.3133517213
 11
361.3637227445
 21
31.2488235635
 12
361.3637227445
 22
31.3778788115
 13
361.3637227445
 23
31.3778788115
  0
SOLID
  8
0
 62
7
  6
CONTINUOUS
 10
361.3637227445
 20
31.2488235635
 11
361.0746601894
 21
30.5067593033
 12
361.3637227445
 22
31.3778788115
 13
361.3637227445
 23
31.3778788115
  0
SOLID
  8
0
 62
7
  6
CONTINUOUS
 10
361.3637227445
 20
31.3778788115
 11
361.0746601894
 21
30.5067593033
 12
361.3637227445
 22
32.0231527459
 13
361.3637227445
 23
32.0231527459
  0
SOLID
  8
0
 62
7
  6
CONTINUOUS
 10
361.0746601894
 20
30.5067593033
 11
361.0746601894
 21
32.0231527459
 12
361.3637227445
 22
32.0231527459
 13
361.3637227445
 23
32.0231527459
  0
SOLID
  8
0
 62
7
  6
CONTINUOUS
 10
361.3637227445
 20
31.2488235635
 11
361.3637227445
 21
30.5067593033
 12
361.0746601894
 22
30.5067593033
 13
361.0746601894
 23
30.5067593033
  0
SOLID
  8
0
 62
7
  6
CONTINUOUS
 10
362.4043477445
 20
30.5067593033
 11
362.4043477445
 21
31.1520332377
 12
362.6934101343
 22
31.1520332377
 13
362.6934101343
 23
31.1520332377
  0
SOLID
  8
0
 62
7
  6
CONTINUOUS
 10
362.6934101343
 20
31.1520332377
 11
362.6934101343
 21
30.5067593033
 12
362.4043477445
 22
30.5067593033
 13
362.4043477445
 23
30.5067593033
  0
SOLID
  8
0
 62
7
  6
CONTINUOUS
 10
363.4449727445
 20
31.506933758
 11
363.8496603548
 21
31.5391977507
 12
364.1965353548
 22
31.5391977507
 13
364.1965353548
 23
31.5391977507
  0
SOLID
  8
0
 62
7
  6
CONTINUOUS
 10
364.1965353548
 20
31.5391977507
 11
364.543410024
 21
31.506933758
 12
363.4449727445
 22
31.506933758
 13
363.4449727445
 23
31.506933758
  0
SOLID
  8
0
 62
7
  6
CONTINUOUS
 10
363.3293478548
 20
31.4746706537
 11
363.4449727445
 21
31.506933758
 12
364.543410024
 22
31.506933758
 13
364.543410024
 23
31.506933758
  0
SOLID
  8
0
 62
7
  6
CONTINUOUS
 10
364.543410024
 20
31.506933758
 11
364.716847524
 21
31.4424063504
 12
363.3293478548
 22
31.4746706537
 13
363.3293478548
 23
31.4746706537
  0
SOLID
  8
0
 62
7
  6
CONTINUOUS
 10
363.2137226343
 20
31.4101417797
 11
363.3293478548
 21
31.4746706537
 12
364.716847524
 22
31.4424063504
 13
364.716847524
 23
31.4424063504
  0
SOLID
  8
0
 62
7
  6
CONTINUOUS
 10
363.2137226343
 20
31.4101417797
 11
364.716847524
 21
31.4424063504
 12
363.8496603548
 22
31.4101417797
 13
363.8496603548
 23
31.4101417797
  0
SOLID
  8
0
 62
7
  6
CONTINUOUS
 10
363.8496603548
 20
31.4101417797
 11
364.716847524
 21
31.4424063504
 12
364.1965353548
 22
31.4101417797
 13
364.1965353548
 23
31.4101417797
  0
SOLID
  8
0
 62
7
  6
CONTINUOUS
 10
364.1965353548
 20
31.4101417797
 11
364.716847524
 21
31.4424063504
 12
364.4277854651
 22
31.3778793357
 13
364.4277854651
 23
31.3778793357
  0
SOLID
  8
0
 62
7
  6
CONTINUOUS
 10
364.716847524
 20
31.4424063504
 11
364.8324727445
 21
31.3778793357
 12
364.4277854651
 22
31.3778793357
 13
364.4277854651
 23
31.3778793357
  0
SOLID
  8
0
 62
7
  6
CONTINUOUS
 10
363.1559103548
 20
31.3456153429
 11
363.2137226343
 21
31.4101417797
 12
363.8496603548
 22
31.4101417797
 13
363.8496603548
 23
31.4101417797
  0
SOLID
  8
0
 62
7
  6
CONTINUOUS
 10
364.543410024
 20
31.3456153429
 11
364.4277854651
 21
31.3778793357
 12
364.8324727445
 22
31.3778793357
 13
364.8324727445
 23
31.3778793357
  0
SOLID
  8
0
 62
7
  6
CONTINUOUS
 10
364.543410024
 20
31.3456153429
 11
364.8324727445
 21
31.3778793357
 12
364.6012229651
 22
31.2810881318
 13
364.6012229651
 23
31.2810881318
  0
SOLID
  8
0
 62
7
  6
CONTINUOUS
 10
364.8324727445
 20
31.3778793357
 11
364.890285024
 21
31.2810881318
 12
364.6012229651
 22
31.2810881318
 13
364.6012229651
 23
31.2810881318
  0
SOLID
  8
0
 62
7
  6
CONTINUOUS
 10
364.6012229651
 20
31.1842964734
 11
364.6012229651
 21
31.2810881318
 12
364.890285024
 22
31.2810881318
 13
364.890285024
 23
31.2810881318
  0
SOLID
  8
0
 62
7
  6
CONTINUOUS
 10
364.6012229651
 20
31.1842964734
 11
364.890285024
 21
31.2810881318
 12
364.6012229651
 22
31.0552422931
 13
364.6012229651
 23
31.0552422931
  0
SOLID
  8
0
 62
7
  6
CONTINUOUS
 10
364.6012229651
 20
31.0552422931
 11
364.890285024
 21
31.2810881318
 12
364.6012229651
 22
30.8616599362
 13
364.6012229651
 23
30.8616599362
  0
SOLID
  8
0
 62
7
  6
CONTINUOUS
 10
364.890285024
 20
31.2810881318
 11
364.890285024
 21
30.7648681127
 12
364.6012229651
 22
30.8616599362
 13
364.6012229651
 23
30.8616599362
  0
SOLID
  8
0
 62
7
  6
CONTINUOUS
 10
366.798097524
 20
31.5069339419
 11
367.0293479651
 21
31.5391976292
 12
367.2605977445
 22
31.5391976292
 13
367.2605977445
 23
31.5391976292
  0
SOLID
  8
0
 62
7
  6
CONTINUOUS
 10
367.2605977445
 20
31.5391976292
 11
367.4340352445
 21
31.5069339419
 12
366.798097524
 22
31.5069339419
 13
366.798097524
 23
31.5069339419
  0
SOLID
  8
0
 62
7
  6
CONTINUOUS
 10
366.624660024
 20
31.4424065674
 11
366.798097524
 21
31.5069339419
 12
367.4340352445
 22
31.5069339419
 13
367.4340352445
 23
31.5069339419
  0
SOLID
  8
0
 62
7
  6
CONTINUOUS
 10
367.4340352445
 20
31.5069339419
 11
367.6074727445
 21
31.4424065674
 12
366.624660024
 22
31.4424065674
 13
366.624660024
 23
31.4424065674
  0
SOLID
  8
0
 62
7
  6
CONTINUOUS
 10
367.6074727445
 20
31.4424065674
 11
367.0293479651
 21
31.4101420472
 12
366.624660024
 22
31.4424065674
 13
366.624660024
 23
31.4424065674
  0
SOLID
  8
0
 62
7
  6
CONTINUOUS
 10
366.5090354651
 20
31.377879193
 11
366.624660024
 21
31.4424065674
 12
367.0293479651
 22
31.4101420472
 13
367.0293479651
 23
31.4101420472
  0
SOLID
  8
0
 62
7
  6
CONTINUOUS
 10
367.0293479651
 20
31.4101420472
 11
366.798097524
 21
31.377879193
 12
366.5090354651
 22
31.377879193
 13
366.5090354651
 23
31.377879193
  0
SOLID
  8
0
 62
7
  6
CONTINUOUS
 10
367.0293479651
 20
31.4101420472
 11
367.6074727445
 21
31.4424065674
 12
367.2605977445
 22
31.377879193
 13
367.2605977445
 23
31.377879193
  0
SOLID
  8
0
 62
7
  6
CONTINUOUS
 10
367.6074727445
 20
31.4424065674
 11
367.7230979651
 21
31.377879193
 12
367.2605977445
 22
31.377879193
 13
367.2605977445
 23
31.377879193
  0
SOLID
  8
0
 62
7
  6
CONTINUOUS
 10
367.3762229651
 20
31.345614957
 11
367.2605977445
 21
31.377879193
 12
367.7230979651
 22
31.377879193
 13
367.7230979651
 23
31.377879193
  0
SOLID
  8
0
 62
7
  6
CONTINUOUS
 10
367.3762229651
 20
31.345614957
 11
367.7230979651
 21
31.377879193
 12
367.491847524
 22
31.2810881312
 13
367.491847524
 23
31.2810881312
  0
SOLID
  8
0
 62
7
  6
CONTINUOUS
 10
367.7230979651
 20
31.377879193
 11
367.7809102445
 21
31.2810881312
 12
367.491847524
 22
31.2810881312
 13
367.491847524
 23
31.2810881312
  0
SOLID
  8
0
 62
7
  6
CONTINUOUS
 10
367.5496604651
 20
31.119769695
 11
367.491847524
 21
31.2810881312
 12
367.7809102445
 22
31.2810881312
 13
367.7809102445
 23
31.2810881312
  0
SOLID
  8
0
 62
7
  6
CONTINUOUS
 10
367.7809102445
 20
31.2810881312
 11
367.838722524
 21
31.119769695
 12
367.5496604651
 22
31.119769695
 13
367.5496604651
 23
31.119769695
  0
SOLID
  8
0
 62
7
  6
CONTINUOUS
 10
366.798097524
 20
31.377879193
 11
366.624660024
 21
31.3133521701
 12
366.5090354651
 22
31.377879193
 13
366.5090354651
 23
31.377879193
  0
SOLID
  8
0
 62
7
  6
CONTINUOUS
 10
366.624660024
 20
31.3133521701
 11
366.5090354651
 21
31.2488235635
 12
366.5090354651
 22
31.377879193
 13
366.5090354651
 23
31.377879193
  0
SOLID
  8
0
 62
7
  6
CONTINUOUS
 10
366.5090354651
 20
31.2488235635
 11
366.2199727445
 21
30.5067596374
 12
366.5090354651
 22
31.377879193
 13
366.5090354651
 23
31.377879193
  0
SOLID
  8
0
 62
7
  6
CONTINUOUS
 10
366.5090354651
 20
31.377879193
 11
366.2199727445
 21
30.5067596374
 12
366.5090354651
 22
31.5391976292
 13
366.5090354651
 23
31.5391976292
  0
SOLID
  8
0
 62
7
  6
CONTINUOUS
 10
366.2199727445
 20
30.5067596374
 11
366.2199727445
 21
31.5391976292
 12
366.5090354651
 22
31.5391976292
 13
366.5090354651
 23
31.5391976292
  0
SOLID
  8
0
 62
7
  6
CONTINUOUS
 10
366.5090354651
 20
31.2488235635
 11
366.5090354651
 21
30.5067596374
 12
366.2199727445
 22
30.5067596374
 13
366.2199727445
 23
30.5067596374
  0
SOLID
  8
0
 62
7
  6
CONTINUOUS
 10
367.5496604651
 20
30.5067596374
 11
367.5496604651
 21
31.119769695
 12
367.838722524
 22
31.119769695
 13
367.838722524
 23
31.119769695
  0
SOLID
  8
0
 62
7
  6
CONTINUOUS
 10
367.838722524
 20
31.119769695
 11
367.838722524
 21
30.5067596374
 12
367.5496604651
 22
30.5067596374
 13
367.5496604651
 23
30.5067596374
  0
SOLID
  8
0
 62
7
  6
CONTINUOUS
 10
368.6480977445
 20
31.5069334157
 11
368.9949727445
 21
31.539197762
 12
369.3418477445
 22
31.539197762
 13
369.3418477445
 23
31.539197762
  0
SOLID
  8
0
 62
7
  6
CONTINUOUS
 10
369.3418477445
 20
31.539197762
 11
369.6887227445
 21
31.5069334157
 12
368.6480977445
 22
31.5069334157
 13
368.6480977445
 23
31.5069334157
  0
SOLID
  8
0
 62
7
  6
CONTINUOUS
 10
368.4168479651
 20
31.4424063504
 11
368.6480977445
 21
31.5069334157
 12
369.6887227445
 22
31.5069334157
 13
369.6887227445
 23
31.5069334157
  0
SOLID
  8
0
 62
7
  6
CONTINUOUS
 10
368.4168479651
 20
31.4424063504
 11
369.6887227445
 21
31.5069334406
 12
369.8621602445
 22
31.4746706537
 13
369.8621602445
 23
31.4746706537
  0
SOLID
  8
0
 62
7
  6
CONTINUOUS
 10
368.4168479651
 20
31.4424063504
 11
369.8621602445
 21
31.4746706537
 12
368.9949727445
 22
31.4101421267
 13
368.9949727445
 23
31.4101421267
  0
SOLID
  8
0
 62
7
  6
CONTINUOUS
 10
368.9949727445
 20
31.4101421267
 11
369.8621602445
 21
31.4746706537
 12
369.3418477445
 22
31.4101421267
 13
369.3418477445
 23
31.4101421267
  0
SOLID
  8
0
 62
7
  6
CONTINUOUS
 10
369.8621602445
 20
31.4746706537
 11
370.0355977445
 21
31.4101421267
 12
369.3418477445
 22
31.4101421267
 13
369.3418477445
 23
31.4101421267
  0
SOLID
  8
0
 62
7
  6
CONTINUOUS
 10
369.6887227445
 20
31.3778792603
 11
369.3418477445
 21
31.4101421267
 12
370.0355977445
 22
31.4101421267
 13
370.0355977445
 23
31.4101421267
  0
SOLID
  8
0
 62
7
  6
CONTINUOUS
 10
368.3012227445
 20
31.3456148845
 11
368.4168479651
 21
31.4424063504
 12
368.9949727445
 22
31.4101421267
 13
368.9949727445
 23
31.4101421267
  0
SOLID
  8
0
 62
7
  6
CONTINUOUS
 10
369.6887227445
 20
31.3778792603
 11
370.0355977445
 21
31.4101421267
 12
369.8043479651
 22
31.3456148845
 13
369.8043479651
 23
31.3456148845
  0
SOLID
  8
0
 62
7
  6
CONTINUOUS
 10
369.8043479651
 20
31.3456148845
 11
370.0355977445
 21
31.4101421267
 12
369.8621602445
 22
31.281087868
 13
369.8621602445
 23
31.281087868
  0
SOLID
  8
0
 62
7
  6
CONTINUOUS
 10
370.0355977445
 20
31.4101421267
 11
370.1512223035
 21
31.281087868
 12
369.8621602445
 22
31.281087868
 13
369.8621602445
 23
31.281087868
  0
SOLID
  8
0
 62
7
  6
CONTINUOUS
 10
359.4559102445
 20
31.3778792603
 11
358.9355977445
 21
31.3456148963
 12
359.6871602721
 22
31.4101421155
 13
359.6871602721
 23
31.4101421155
  0
SOLID
  8
0
 62
7
  6
CONTINUOUS
 10
358.9355977445
 20
31.3456148963
 11
359.0512227376
 21
31.4101421155
 12
359.6871602721
 22
31.4101421155
 13
359.6871602721
 23
31.4101421155
  0
SOLID
  8
0
 62
7
  6
CONTINUOUS
 10
359.4559102445
 20
31.3778792603
 11
359.3402852307
 21
31.3456148963
 12
358.9355977445
 22
31.3456148963
 13
358.9355977445
 23
31.3456148963
  0
SOLID
  8
0
 62
7
  6
CONTINUOUS
 10
358.8199727462
 20
31.2165607767
 11
358.9355977445
 21
31.3456148963
 12
359.3402852307
 22
31.3456148963
 13
359.3402852307
 23
31.3456148963
  0
SOLID
  8
0
 62
7
  6
CONTINUOUS
 10
363.1559103548
 20
31.3456149608
 11
363.8496603548
 21
31.4101420472
 12
363.6184102445
 22
31.3778792603
 13
363.6184102445
 23
31.3778792603
  0
SOLID
  8
0
 62
7
  6
CONTINUOUS
 10
363.6184102445
 20
31.3778792603
 11
363.5027853548
 21
31.3456149608
 12
363.1559103548
 22
31.3456149608
 13
363.1559103548
 23
31.3456149608
  0
SOLID
  8
0
 62
7
  6
CONTINUOUS
 10
363.1559103548
 20
31.2810878707
 11
363.1559103548
 21
31.3456149608
 12
363.5027853548
 22
31.3456149608
 13
363.5027853548
 23
31.3456149608
  0
SOLID
  8
0
 62
7
  6
CONTINUOUS
 10
363.5027853548
 20
31.3456149608
 11
363.4449727445
 21
31.2810878707
 12
363.1559103548
 22
31.2810878707
 13
363.1559103548
 23
31.2810878707
  0
SOLID
  8
0
 62
7
  6
CONTINUOUS
 10
368.3012227445
 20
31.3456149608
 11
368.9949727445
 21
31.4101420472
 12
368.7637229651
 22
31.3778792603
 13
368.7637229651
 23
31.3778792603
  0
SOLID
  8
0
 62
7
  6
CONTINUOUS
 10
368.7637229651
 20
31.3778792603
 11
368.6480977445
 21
31.3456149608
 12
368.3012227445
 22
31.3456149608
 13
368.3012227445
 23
31.3456149608
  0
SOLID
  8
0
 62
7
  6
CONTINUOUS
 10
368.3012227445
 20
31.2810878707
 11
368.3012227445
 21
31.3456149608
 12
368.6480977445
 22
31.3456149608
 13
368.6480977445
 23
31.3456149608
  0
SOLID
  8
0
 62
7
  6
CONTINUOUS
 10
368.6480977445
 20
31.3456149608
 11
368.5902854651
 21
31.2810878707
 12
368.3012227445
 22
31.2810878707
 13
368.3012227445
 23
31.2810878707
  0
SOLID
  8
0
 62
7
  6
CONTINUOUS
 10
368.4168479651
 20
31.1520336865
 11
368.3012227445
 21
31.2810878707
 12
368.5902854651
 22
31.2810878707
 13
368.5902854651
 23
31.2810878707
  0
SOLID
  8
0
 62
7
  6
CONTINUOUS
 10
358.8199727462
 20
31.2165607767
 11
359.3402852307
 21
31.345614957
 12
359.1668477307
 22
31.2488235635
 13
359.1668477307
 23
31.2488235635
  0
SOLID
  8
0
 62
7
  6
CONTINUOUS
 10
359.1668477307
 20
31.2488235635
 11
359.1090352445
 21
31.1842964734
 12
358.8199727462
 22
31.2165607767
 13
358.8199727462
 23
31.2165607767
  0
SOLID
  8
0
 62
7
  6
CONTINUOUS
 10
358.7621602445
 20
31.0229779898
 11
358.8199727462
 21
31.2165607767
 12
359.1090352445
 22
31.1842964734
 13
359.1090352445
 23
31.1842964734
  0
SOLID
  8
0
 62
7
  6
CONTINUOUS
 10
363.6184102445
 20
31.1520336865
 11
363.9652852445
 21
31.1842964611
 12
364.6012229651
 22
31.1842964611
 13
364.6012229651
 23
31.1842964611
  0
SOLID
  8
0
 62
7
  6
CONTINUOUS
 10
363.6184102445
 20
31.1520336865
 11
364.6012229651
 21
31.1842964611
 12
363.3871601343
 22
31.0875057863
 13
363.3871601343
 23
31.0875057863
  0
SOLID
  8
0
 62
7
  6
CONTINUOUS
 10
363.3871601343
 20
31.0875057863
 11
364.6012229651
 21
31.1842964611
 12
363.9652852445
 22
31.0552422808
 13
363.9652852445
 23
31.0552422808
  0
SOLID
  8
0
 62
7
  6
CONTINUOUS
 10
364.6012229651
 20
31.1842964611
 11
364.6012229651
 21
31.0552422808
 12
363.9652852445
 22
31.0552422808
 13
363.9652852445
 23
31.0552422808
  0
SOLID
  8
0
 62
7
  6
CONTINUOUS
 10
368.4168479651
 20
31.1520338754
 11
368.5902854651
 21
31.2810878668
 12
368.6480977445
 22
31.2165607767
 13
368.6480977445
 23
31.2165607767
  0
SOLID
  8
0
 62
7
  6
CONTINUOUS
 10
368.6480977445
 20
31.2165607767
 11
368.8215352445
 21
31.1520338754
 12
368.4168479651
 22
31.1520338754
 13
368.4168479651
 23
31.1520338754
  0
SOLID
  8
0
 62
7
  6
CONTINUOUS
 10
368.6480977445
 20
31.0552422931
 11
368.4168479651
 21
31.1520338754
 12
368.8215352445
 22
31.1520338754
 13
368.8215352445
 23
31.1520338754
  0
SOLID
  8
0
 62
7
  6
CONTINUOUS
 10
368.8215352445
 20
31.1520338754
 11
369.8043479651
 21
30.9907152029
 12
368.6480977445
 22
31.0552422931
 13
368.6480977445
 23
31.0552422931
  0
SOLID
  8
0
 62
7
  6
CONTINUOUS
 10
369.6309104651
 20
30.8939239876
 11
368.6480977445
 21
31.0552422931
 12
369.8043479651
 22
30.9907152029
 13
369.8043479651
 23
30.9907152029
  0
SOLID
  8
0
 62
7
  6
CONTINUOUS
 10
369.8043479651
 20
30.9907152029
 11
370.0355977445
 21
30.8939239876
 12
369.6309104651
 22
30.8939239876
 13
369.6309104651
 23
30.8939239876
  0
SOLID
  8
0
 62
7
  6
CONTINUOUS
 10
369.8043479651
 20
30.8293967193
 11
369.6309104651
 21
30.8939239876
 12
370.0355977445
 22
30.8939239876
 13
370.0355977445
 23
30.8939239876
  0
SOLID
  8
0
 62
7
  6
CONTINUOUS
 10
369.8043479651
 20
30.8293967193
 11
370.0355977445
 21
30.8939239876
 12
369.8621602445
 22
30.7648682694
 13
369.8621602445
 23
30.7648682694
  0
SOLID
  8
0
 62
7
  6
CONTINUOUS
 10
370.0355977445
 20
30.8939239876
 11
370.1512223035
 21
30.7648682694
 12
369.8621602445
 22
30.7648682694
 13
369.8621602445
 23
30.7648682694
  0
SOLID
  8
0
 62
7
  6
CONTINUOUS
 10
369.8043479651
 20
30.7003411846
 11
369.8621602445
 21
30.7648682694
 12
370.1512223035
 22
30.7648682694
 13
370.1512223035
 23
30.7648682694
  0
SOLID
  8
0
 62
7
  6
CONTINUOUS
 10
370.1512223035
 20
30.7648682694
 11
370.1512223035
 21
30.7003411846
 12
369.8043479651
 22
30.7003411846
 13
369.8043479651
 23
30.7003411846
  0
SOLID
  8
0
 62
7
  6
CONTINUOUS
 10
369.6887227445
 20
30.6680782357
 11
369.8043479651
 21
30.7003411846
 12
370.1512223035
 22
30.7003411846
 13
370.1512223035
 23
30.7003411846
  0
SOLID
  8
0
 62
7
  6
CONTINUOUS
 10
369.6887227445
 20
30.6680782357
 11
370.1512223035
 21
30.7003411846
 12
369.4574729651
 22
30.6358140998
 13
369.4574729651
 23
30.6358140998
  0
SOLID
  8
0
 62
7
  6
CONTINUOUS
 10
370.1512223035
 20
30.7003411846
 11
370.0355977445
 21
30.6035511455
 12
369.4574729651
 22
30.6358140998
 13
369.4574729651
 23
30.6358140998
  0
SOLID
  8
0
 62
7
  6
CONTINUOUS
 10
370.0355977445
 20
30.6035511455
 11
368.5902854651
 21
30.5712868422
 12
369.4574729651
 22
30.6358140998
 13
369.4574729651
 23
30.6358140998
  0
SOLID
  8
0
 62
7
  6
CONTINUOUS
 10
369.4574729651
 20
30.6358140998
 11
368.5902854651
 21
30.5712868422
 12
369.1105979651
 22
30.6358140998
 13
369.1105979651
 23
30.6358140998
  0
SOLID
  8
0
 62
7
  6
CONTINUOUS
 10
368.5902854651
 20
30.5712868422
 11
368.4168479651
 21
30.6358140998
 12
369.1105979651
 22
30.6358140998
 13
369.1105979651
 23
30.6358140998
  0
SOLID
  8
0
 62
7
  6
CONTINUOUS
 10
368.5902854651
 20
30.5712868422
 11
370.0355977445
 21
30.6035511455
 12
368.7637229651
 22
30.5390223111
 13
368.7637229651
 23
30.5390223111
  0
SOLID
  8
0
 62
7
  6
CONTINUOUS
 10
370.0355977445
 20
30.6035511455
 11
369.8043479651
 21
30.5390223111
 12
368.7637229651
 22
30.5390223111
 13
368.7637229651
 23
30.5390223111
  0
SOLID
  8
0
 62
7
  6
CONTINUOUS
 10
369.1105979651
 20
30.5067599302
 11
368.7637229651
 21
30.5390223111
 12
369.8043479651
 22
30.5390223111
 13
369.8043479651
 23
30.5390223111
  0
SOLID
  8
0
 62
7
  6
CONTINUOUS
 10
369.8043479651
 20
30.5390223111
 11
369.4574729651
 21
30.5067599302
 12
369.1105979651
 22
30.5067599302
 13
369.1105979651
 23
30.5067599302
  0
SOLID
  8
0
 62
7
  6
CONTINUOUS
 10
358.7621602445
 20
31.0229779898
 11
359.1090352445
 21
31.1842964734
 12
359.0512227376
 22
31.0552422931
 13
359.0512227376
 23
31.0552422931
  0
SOLID
  8
0
 62
7
  6
CONTINUOUS
 10
359.0512227376
 20
31.0552422931
 11
359.0512227376
 21
30.9584509954
 12
358.7621602445
 22
31.0229779898
 13
358.7621602445
 23
31.0229779898
  0
SOLID
  8
0
 62
7
  6
CONTINUOUS
 10
358.8199727462
 20
30.8293967193
 11
358.7621602445
 21
31.0229779898
 12
359.0512227376
 22
30.9584509954
 13
359.0512227376
 23
30.9584509954
  0
SOLID
  8
0
 62
7
  6
CONTINUOUS
 10
359.0512227376
 20
30.9584509954
 11
359.1668477307
 21
30.797132416
 12
358.8199727462
 22
30.8293967193
 13
358.8199727462
 23
30.8293967193
  0
SOLID
  8
0
 62
7
  6
CONTINUOUS
 10
358.9355977445
 20
30.7003413087
 11
358.8199727462
 21
30.8293967193
 12
359.1668477307
 22
30.797132416
 13
359.1668477307
 23
30.797132416
  0
SOLID
  8
0
 62
7
  6
CONTINUOUS
 10
359.1668477307
 20
30.797132416
 11
359.3402852307
 21
30.7003413087
 12
358.9355977445
 22
30.7003413087
 13
358.9355977445
 23
30.7003413087
  0
SOLID
  8
0
 62
7
  6
CONTINUOUS
 10
359.0512227376
 20
30.6358140759
 11
358.9355977445
 21
30.7003413087
 12
359.3402852307
 22
30.7003413087
 13
359.3402852307
 23
30.7003413087
  0
SOLID
  8
0
 62
7
  6
CONTINUOUS
 10
359.3402852307
 20
30.7003413087
 11
359.6871602721
 21
30.6358140759
 12
359.0512227376
 22
30.6358140759
 13
359.0512227376
 23
30.6358140759
  0
SOLID
  8
0
 62
7
  6
CONTINUOUS
 10
359.2246602583
 20
30.5712868422
 11
359.0512227376
 21
30.6358140759
 12
359.6871602721
 22
30.6358140759
 13
359.6871602721
 23
30.6358140759
  0
SOLID
  8
0
 62
7
  6
CONTINUOUS
 10
363.2715352445
 20
31.0229779808
 11
363.3871601343
 21
31.0875057863
 12
363.9652852445
 22
31.0552422931
 13
363.9652852445
 23
31.0552422931
  0
SOLID
  8
0
 62
7
  6
CONTINUOUS
 10
363.9652852445
 20
31.0552422931
 11
363.7340351343
 21
31.0229779808
 12
363.2715352445
 22
31.0229779808
 13
363.2715352445
 23
31.0229779808
  0
SOLID
  8
0
 62
7
  6
CONTINUOUS
 10
363.1559103548
 20
30.8939238094
 11
363.2715352445
 21
31.0229779808
 12
363.7340351343
 22
31.0229779808
 13
363.7340351343
 23
31.0229779808
  0
SOLID
  8
0
 62
7
  6
CONTINUOUS
 10
363.5027853548
 20
30.926187309
 11
363.1559103548
 21
30.8939238094
 12
363.6184102445
 22
30.9907152029
 13
363.6184102445
 23
30.9907152029
  0
SOLID
  8
0
 62
7
  6
CONTINUOUS
 10
363.1559103548
 20
30.8939238094
 11
363.7340351343
 21
31.0229779898
 12
363.6184102445
 22
30.9907152029
 13
363.6184102445
 23
30.9907152029
  0
SOLID
  8
0
 62
7
  6
CONTINUOUS
 10
363.5027853548
 20
30.926187309
 11
363.4449727445
 21
30.8293967193
 12
363.1559103548
 22
30.8939238094
 13
363.1559103548
 23
30.8939238094
  0
SOLID
  8
0
 62
7
  6
CONTINUOUS
 10
363.1559103548
 20
30.797132416
 11
363.1559103548
 21
30.8939238094
 12
363.4449727445
 22
30.8293967193
 13
363.4449727445
 23
30.8293967193
  0
SOLID
  8
0
 62
7
  6
CONTINUOUS
 10
363.4449727445
 20
30.8293967193
 11
363.4449727445
 21
30.7648681127
 12
363.1559103548
 22
30.797132416
 13
363.1559103548
 23
30.797132416
  0
SOLID
  8
0
 62
7
  6
CONTINUOUS
 10
363.2137226343
 20
30.6680782357
 11
363.1559103548
 21
30.797132416
 12
363.4449727445
 22
30.7648681127
 13
363.4449727445
 23
30.7648681127
  0
SOLID
  8
0
 62
7
  6
CONTINUOUS
 10
364.6012229651
 20
30.8616599362
 11
364.890285024
 21
30.7648681127
 12
364.543410024
 22
30.797132416
 13
364.543410024
 23
30.797132416
  0
SOLID
  8
0
 62
7
  6
CONTINUOUS
 10
364.369972524
 20
30.7003410226
 11
364.543410024
 21
30.797132416
 12
364.890285024
 22
30.7648681127
 13
364.890285024
 23
30.7648681127
  0
SOLID
  8
0
 62
7
  6
CONTINUOUS
 10
364.369972524
 20
30.7003410226
 11
364.890285024
 21
30.7648681127
 12
364.6012229651
 22
30.6680782357
 13
364.6012229651
 23
30.6680782357
  0
SOLID
  8
0
 62
7
  6
CONTINUOUS
 10
364.890285024
 20
30.7648681127
 11
364.9480979651
 21
30.6035511455
 12
364.6012229651
 22
30.6680782357
 13
364.6012229651
 23
30.6680782357
  0
SOLID
  8
0
 62
7
  6
CONTINUOUS
 10
364.6590352445
 20
30.5712868422
 11
364.6012229651
 21
30.6680782357
 12
364.9480979651
 22
30.6035511455
 13
364.9480979651
 23
30.6035511455
  0
SOLID
  8
0
 62
7
  6
CONTINUOUS
 10
364.6590352445
 20
30.5712868422
 11
364.9480979651
 21
30.6035511455
 12
364.716847524
 22
30.5067598731
 13
364.716847524
 23
30.5067598731
  0
SOLID
  8
0
 62
7
  6
CONTINUOUS
 10
364.9480979651
 20
30.6035511455
 11
365.0059102445
 21
30.5067598731
 12
364.716847524
 22
30.5067598731
 13
364.716847524
 23
30.5067598731
  0
SOLID
  8
0
 62
7
  6
CONTINUOUS
 10
360.2652852997
 20
30.7326051679
 11
360.3230977445
 21
30.8293966612
 12
360.6121602997
 22
30.8293966612
 13
360.6121602997
 23
30.8293966612
  0
SOLID
  8
0
 62
7
  6
CONTINUOUS
 10
360.6121602997
 20
30.8293966612
 11
360.5543476894
 21
30.7003410226
 12
360.2652852997
 22
30.7326051679
 13
360.2652852997
 23
30.7326051679
  0
SOLID
  8
0
 62
7
  6
CONTINUOUS
 10
360.091847717
 20
30.6680782357
 11
360.2652852997
 21
30.7326051679
 12
360.5543476894
 22
30.7003410226
 13
360.5543476894
 23
30.7003410226
  0
SOLID
  8
0
 62
7
  6
CONTINUOUS
 10
360.091847717
 20
30.6680782357
 11
360.5543476894
 21
30.7003410226
 12
359.6871602721
 22
30.6358139324
 13
359.6871602721
 23
30.6358139324
  0
SOLID
  8
0
 62
7
  6
CONTINUOUS
 10
360.5543476894
 20
30.7003410226
 11
360.3809101894
 21
30.6035511455
 12
359.6871602721
 22
30.6358139324
 13
359.6871602721
 23
30.6358139324
  0
SOLID
  8
0
 62
7
  6
CONTINUOUS
 10
359.2246602583
 20
30.5712868422
 11
359.6871602721
 21
30.6358139324
 12
360.3809101894
 22
30.6035511455
 13
360.3809101894
 23
30.6035511455
  0
SOLID
  8
0
 62
7
  6
CONTINUOUS
 10
359.2246602583
 20
30.5712868422
 11
360.3809101894
 21
30.6035511455
 12
359.3980977583
 22
30.5390224228
 13
359.3980977583
 23
30.5390224228
  0
SOLID
  8
0
 62
7
  6
CONTINUOUS
 10
360.3809101894
 20
30.6035511455
 11
360.1496602445
 21
30.5390224228
 12
359.3980977583
 22
30.5390224228
 13
359.3980977583
 23
30.5390224228
  0
SOLID
  8
0
 62
7
  6
CONTINUOUS
 10
359.744972717
 20
30.5067597521
 11
359.3980977583
 21
30.5390224228
 12
360.1496602445
 22
30.5390224228
 13
360.1496602445
 23
30.5390224228
  0
SOLID
  8
0
 62
7
  6
CONTINUOUS
 10
363.2137226343
 20
30.6680782357
 11
363.4449727445
 21
30.7648681127
 12
363.5027853548
 22
30.7003410226
 13
363.5027853548
 23
30.7003410226
  0
SOLID
  8
0
 62
7
  6
CONTINUOUS
 10
363.5027853548
 20
30.7003410226
 11
363.7340351343
 21
30.6358139324
 12
363.2137226343
 22
30.6680782357
 13
363.2137226343
 23
30.6680782357
  0
SOLID
  8
0
 62
7
  6
CONTINUOUS
 10
363.3871601343
 20
30.5712868422
 11
363.2137226343
 21
30.6680782357
 12
363.7340351343
 22
30.6358139324
 13
363.7340351343
 23
30.6358139324
  0
SOLID
  8
0
 62
7
  6
CONTINUOUS
 10
364.0809101343
 20
30.6358139363
 11
364.369972524
 21
30.7003410226
 12
364.6012229651
 22
30.6680782357
 13
364.6012229651
 23
30.6680782357
  0
SOLID
  8
0
 62
7
  6
CONTINUOUS
 10
364.6012229651
 20
30.6680782357
 11
364.543410024
 21
30.6035511455
 12
364.0809101343
 22
30.6358139363
 13
364.0809101343
 23
30.6358139363
  0
SOLID
  8
0
 62
7
  6
CONTINUOUS
 10
364.543410024
 20
30.6035511455
 11
363.3871601343
 21
30.5712868422
 12
364.0809101343
 22
30.6358139363
 13
364.0809101343
 23
30.6358139363
  0
SOLID
  8
0
 62
7
  6
CONTINUOUS
 10
363.3871601343
 20
30.5712868422
 11
363.7340351343
 21
30.6358139363
 12
364.0809101343
 22
30.6358139363
 13
364.0809101343
 23
30.6358139363
  0
SOLID
  8
0
 62
7
  6
CONTINUOUS
 10
363.3871601343
 20
30.5712868422
 11
364.543410024
 21
30.6035511455
 12
363.5027853548
 22
30.5390225267
 13
363.5027853548
 23
30.5390225267
  0
SOLID
  8
0
 62
7
  6
CONTINUOUS
 10
364.543410024
 20
30.6035511455
 11
364.369972524
 21
30.5390225267
 12
363.5027853548
 22
30.5390225267
 13
363.5027853548
 23
30.5390225267
  0
SOLID
  8
0
 62
7
  6
CONTINUOUS
 10
363.7340351343
 20
30.5067596914
 11
363.5027853548
 21
30.5390225267
 12
364.369972524
 22
30.5390225267
 13
364.369972524
 23
30.5390225267
  0
SOLID
  8
0
 62
7
  6
CONTINUOUS
 10
364.369972524
 20
30.5390225267
 11
364.0809101343
 21
30.5067596914
 12
363.7340351343
 22
30.5067596914
 13
363.7340351343
 23
30.5067596914
  0
SOLID
  8
0
 62
7
  6
CONTINUOUS
 10
368.7637229651
 20
30.6680782357
 11
368.4168479651
 21
30.6358138717
 12
368.6480977445
 22
30.7003410226
 13
368.6480977445
 23
30.7003410226
  0
SOLID
  8
0
 62
7
  6
CONTINUOUS
 10
368.6480977445
 20
30.7003410226
 11
368.4168479651
 21
30.6358138717
 12
368.5902854651
 22
30.7648680521
 13
368.5902854651
 23
30.7648680521
  0
SOLID
  8
0
 62
7
  6
CONTINUOUS
 10
368.4168479651
 20
30.6358138717
 11
368.3012227445
 21
30.7648680521
 12
368.5902854651
 22
30.7648680521
 13
368.5902854651
 23
30.7648680521
  0
SOLID
  8
0
 62
7
  6
CONTINUOUS
 10
368.7637229651
 20
30.6680782357
 11
369.1105979651
 21
30.6358138717
 12
368.4168479651
 22
30.6358138717
 13
368.4168479651
 23
30.6358138717
  0
SOLID
  8
0
 62
7
  6
CONTINUOUS
 10
365.4684104651
 20
30.5067597521
 11
365.4684104651
 21
31.5391977439
 12
365.757472524
 22
30.5067597521
 13
365.757472524
 23
31.5391977439
  0
ENDBLK
  8
0
  6
BYBLOCK
 62
0
  0
BLOCK
  8
0
 62
2
  6
CONTINUOUS
  2
SYMBOL_0_BL0
 70
64
 10
240.8592468615
 20
19.762288695
  0
TEXT
  8
0
 62
7
  6
CONTINUOUS
 10
227.1239507038
 20
19.1357028027
  7
TEXTSTYLE_3
 40
2.7338706658
  1
Ammeraal Beltech
 41
1.0
 51
15.0
 72
0
  0
TEXT
  8
0
 62
7
  6
CONTINUOUS
 10
237.9247515296
 20
16.8621661299
  7
TEXTSTYLE_4
 40
1.0935482663
  1
Innovation & Service in Belting
 41
1.0
 72
0
  0
LINE
  8
0
 62
7
  6
CONTINUOUS
 10
221.0994100525
 20
19.9022961113
 11
221.8775620458
 21
23.5632134089
  0
LINE
  8
0
 62
7
  6
CONTINUOUS
 10
231.9727303357
 20
27.2266073205
 11
222.3653797889
 21
24.1049898993
  0
LINE
  8
0
 62
7
  6
CONTINUOUS
 10
221.3246933848
 20
19.2089453082
 11
228.8317686459
 21
12.4495443822
  0
LINE
  8
0
 62
7
  6
CONTINUOUS
 10
221.5872277955
 20
20.4440726016
 11
232.3954971607
 21
23.9558922005
  0
LINE
  8
0
 62
7
  6
CONTINUOUS
 10
232.3912920235
 20
13.6061036368
 11
223.9458323548
 21
21.2104296785
  0
LINE
  8
0
 62
7
  6
CONTINUOUS
 10
232.9111147433
 20
26.3816822048
 11
231.9345552061
 21
21.7873308023
  0
LINE
  8
0
 62
7
  6
CONTINUOUS
 10
231.2347532584
 20
18.4950214885
 11
230.5483050469
 21
15.2655365641
  0
LINE
  8
0
 62
7
  6
CONTINUOUS
 10
233.5922108419
 20
13.9963058145
 11
234.5484423775
 21
18.4950214885
  0
LINE
  8
0
 62
7
  6
CONTINUOUS
 10
235.2482443252
 20
21.7873308023
 11
235.6924861276
 21
23.8773241617
  0
LINE
  8
0
 62
7
  6
CONTINUOUS
 10
229.5448697213
 20
12.2979700695
 11
233.1043930989
 21
13.4545293241
  0
LINE
  8
0
 62
7
  6
CONTINUOUS
 10
232.685831411
 20
27.0750330078
 11
235.4672027953
 21
24.5706749648
  0
ARC
  8
0
 62
7
  6
CONTINUOUS
 10
222.5906631212
 20
23.4116390962
 40
0.7290321776
 50
108.0
 51
168.0
  0
ARC
  8
0
 62
7
  6
CONTINUOUS
 10
232.198013668
 20
26.5332565175
 40
0.7290321776
 50
348.0
 51
108.0
  0
ARC
  8
0
 62
7
  6
CONTINUOUS
 10
234.9793850522
 20
24.0288984744
 40
0.7290321776
 50
348.0
 51
48.0
  0
ARC
  8
0
 62
7
  6
CONTINUOUS
 10
229.319586389
 20
12.9913208726
 40
0.7290321776
 50
228.0
 51
288.0
  0
ARC
  8
0
 62
7
  6
CONTINUOUS
 10
221.8125111278
 20
19.7507217986
 40
0.7290321776
 50
108.0
 51
228.0
  0
ARC
  8
0
 62
7
  6
CONTINUOUS
 10
232.8791097665
 20
14.1478801272
 40
0.7290321776
 50
228.0
 51
348.0
  0
ENDBLK
  8
0
  6
BYBLOCK
 62
0
  0
ENDSEC
  0
SECTION
  2
ENTITIES
  0
TEXT
  8
0
 62
5
  6
CONTINUOUS
 10
304.937007874
 20
25.636
  7
TEXTSTYLE_2
 40
2.8
  1
Scale :
 41
0.6
 51
0.000019
 72
0
  0
TEXT
  8
0
 62
5
  6
CONTINUOUS
 10
324.937007874
 20
25.636
  7
TEXTSTYLE_2
 40
2.8
  1
Belt type:
 41
0.6
 51
0.000019
 72
0
  0
INSERT
  8
0
 62
2
  6
CONTINUOUS
  2
SYMBOL_0_BL0
 10
240.8592468615
 20
19.762288695
  0
INSERT
  8
0
 62
2
  6
CONTINUOUS
  2
SYMBOL_5_BL1
 10
382.7840918555
 20
35.5067593403
  0
LINE
  8
0
 62
2
  6
CONTINUOUS
 10
218.937007874
 20
30.0
 11
408.937007874
 21
30.0
  0
LINE
  8
0
 62
2
  6
CONTINUOUS
 10
218.937007874
 20
30.0
 11
218.937007874
 21
10.0
  0
LINE
  8
0
 62
2
  6
CONTINUOUS
 10
218.937007874
 20
10.0
 11
408.937007874
 21
10.0
  0
LINE
  8
0
 62
2
  6
CONTINUOUS
 10
303.937007874
 20
30.0
 11
303.937007874
 21
10.0
  0
LINE
  8
0
 62
2
  6
CONTINUOUS
 10
323.937007874
 20
30.0
 11
323.937007874
 21
10.0
  0
LINE
  8
0
 62
2
  6
CONTINUOUS
 10
408.937007874
 20
30.0
 11
408.937007874
 21
10.0
  0
TEXT
  8
0
 62
5
  6
CONTINUOUS
 10
221.937007874
 20
23.303
  7
TEXTSTYLE_5
 40
1.52
  1
                                                                     Ammeraal Beltech Modular A/S
 41
1.0
 72
0
  0
TEXT
  8
0
 62
5
  6
CONTINUOUS
 10
221.937007874
 20
20.595
  7
TEXTSTYLE_5
 40
1.5
  1
                                                                      Hjulmagervej 21, 7100 Vejle,  DK
 41
1.0
 72
0
  0
TEXT
  8
0
 62
5
  6
CONTINUOUS
 10
221.937007874
 20
17.881
  7
TEXTSTYLE_5
 40
1.495
  1
                                                                      tel: 
 41
1.0
 72
0
  0
TEXT
  8
0
 62
5
  6
CONTINUOUS
 10
266.9239544389
 20
17.881
  7
TEXTSTYLE_5
 40
1.51
  1
+45 75723100     fax: +45 75723348
 41
1.0
 72
0
  0
TEXT
  8
0
 62
5
  6
CONTINUOUS
 10
221.937007874
 20
15.177
  7
TEXTSTYLE_5
 40
1.5
  1
                                                                      admin@unichains.dk  www.unichains.com
 41
1.0
 72
0
  0
TEXT
  8
0
 62
5
  6
CONTINUOUS
 10
308.687007874
 20
13.75
  7
TEXTSTYLE_6
 40
5.0
  1
1:1
 41
0.7
 72
1
 11
313.937007874
 21
13.75
  0
TEXT
  8
0
 62
5
  6
CONTINUOUS
 10
326.937007874
 20
13.75
  7
TEXTSTYLE_7
 40
7.5
  1
uni Flex ASB-43 CS K580
 41
0.4673007246
 72
0
  0
LINE
  8
0
 62
7
  6
CONTINUOUS
 10
0.0
 20
0.0
 11
0.0
 21
297.0
  0
LINE
  8
0
 62
7
  6
CONTINUOUS
 10
8.937007874
 20
10.0
 11
8.937007874
 21
287.0
  0
LINE
  8
0
 62
7
  6
CONTINUOUS
 10
0.0
 20
0.0
 11
420.0
 21
0.0
  0
LINE
  8
0
 62
7
  6
CONTINUOUS
 10
408.937007874
 20
10.0
 11
8.937007874
 21
10.0
  0
LINE
  8
0
 62
7
  6
CONTINUOUS
 10
218.937007874
 20
30.0
 11
408.937007874
 21
30.0
  0
LINE
  8
0
 62
7
  6
CONTINUOUS
 10
210.0
 20
297.0
 11
210.0
 21
292.0
  0
LINE
  8
0
 62
7
  6
CONTINUOUS
 10
210.0
 20
0.0
 11
210.0
 21
5.0
  0
LINE
  8
0
 62
7
  6
CONTINUOUS
 10
8.937007874
 20
287.0
 11
408.937007874
 21
287.0
  0
LINE
  8
0
 62
7
  6
CONTINUOUS
 10
0.0
 20
297.0
 11
420.0
 21
297.0
  0
LINE
  8
0
 62
7
  6
CONTINUOUS
 10
408.937007874
 20
287.0
 11
408.937007874
 21
10.0
  0
LINE
  8
0
 62
7
  6
CONTINUOUS
 10
420.0
 20
0.0
 11
420.0
 21
297.0
  0
LINE
  8
0
 62
7
  6
CONTINUOUS
 10
83.4271719437
 20
240.6881211109
 11
83.4271719437
 21
226.8953526581
  0
POLYLINE
  8
0
 62
7
  6
CONTINUOUS
 66
1
 70
0
  0
VERTEX
  8
0
 62
7
  6
CONTINUOUS
 10
96.802157061
 20
238.4932644971
  0
VERTEX
  8
0
 62
7
  6
CONTINUOUS
 10
96.8013864222
 20
238.5291715216
  0
VERTEX
  8
0
 62
7
  6
CONTINUOUS
 10
96.7989363854
 20
238.5682045166
  0
VERTEX
  8
0
 62
7
  6
CONTINUOUS
 10
96.7949225994
 20
238.6077962229
  0
VERTEX
  8
0
 62
7
  6
CONTINUOUS
 10
96.7895463048
 20
238.6472488437
  0
VERTEX
  8
0
 62
7
  6
CONTINUOUS
 10
96.7830250567
 20
238.6861335985
  0
VERTEX
  8
0
 62
7
  6
CONTINUOUS
 10
96.7755329184
 20
238.7243285752
  0
VERTEX
  8
0
 62
7
  6
CONTINUOUS
 10
96.7671968302
 20
238.7618474763
  0
VERTEX
  8
0
 62
7
  6
CONTINUOUS
 10
96.7581164062
 20
238.7987215659
  0
VERTEX
  8
0
 62
7
  6
CONTINUOUS
 10
96.7483743141
 20
238.8349789985
  0
VERTEX
  8
0
 62
7
  6
CONTINUOUS
 10
96.7380461555
 20
238.870620466
  0
VERTEX
  8
0
 62
7
  6
CONTINUOUS
 10
96.7271773524
 20
238.9057024119
  0
VERTEX
  8
0
 62
7
  6
CONTINUOUS
 10
96.7157820302
 20
238.9403435731
  0
VERTEX
  8
0
 62
7
  6
CONTINUOUS
 10
96.7038735961
 20
238.9746198109
  0
VERTEX
  8
0
 62
7
  6
CONTINUOUS
 10
96.6914528218
 20
239.0086103929
  0
VERTEX
  8
0
 62
7
  6
CONTINUOUS
 10
96.6785225954
 20
239.0423700698
  0
VERTEX
  8
0
 62
7
  6
CONTINUOUS
 10
96.6650789622
 20
239.075946092
  0
VERTEX
  8
0
 62
7
  6
CONTINUOUS
 10
96.6511132797
 20
239.1093884029
  0
VERTEX
  8
0
 62
7
  6
CONTINUOUS
 10
96.6366182024
 20
239.1427246107
  0
VERTEX
  8
0
 62
7
  6
CONTINUOUS
 10
96.6215802312
 20
239.1759906449
  0
VERTEX
  8
0
 62
7
  6
CONTINUOUS
 10
96.6059900736
 20
239.2091991036
  0
VERTEX
  8
0
 62
7
  6
CONTINUOUS
 10
96.5898325225
 20
239.2423710706
  0
VERTEX
  8
0
 62
7
  6
CONTINUOUS
 10
96.5731089328
 20
239.2754839774
  0
VERTEX
  8
0
 62
7
  6
CONTINUOUS
 10
96.5558228976
 20
239.3085120242
  0
VERTEX
  8
0
 62
7
  6
CONTINUOUS
 10
96.5379827566
 20
239.3414156744
  0
VERTEX
  8
0
 62
7
  6
CONTINUOUS
 10
96.5195926385
 20
239.3741660897
  0
VERTEX
  8
0
 62
7
  6
CONTINUOUS
 10
96.5006588869
 20
239.4067254604
  0
VERTEX
  8
0
 62
7
  6
CONTINUOUS
 10
96.4811919633
 20
239.4390522829
  0
VERTEX
  8
0
 62
7
  6
CONTINUOUS
 10
96.4612005264
 20
239.4711044785
  0
VERTEX
  8
0
 62
7
  6
CONTINUOUS
 10
96.4406992211
 20
239.5028331319
  0
VERTEX
  8
0
 62
7
  6
CONTINUOUS
 10
96.4196937727
 20
239.5342019765
  0
VERTEX
  8
0
 62
7
  6
CONTINUOUS
 10
96.3981980606
 20
239.5651616387
  0
VERTEX
  8
0
 62
7
  6
CONTINUOUS
 10
96.3762187288
 20
239.5956752105
  0
VERTEX
  8
0
 62
7
  6
CONTINUOUS
 10
96.353763725
 20
239.6256999017
  0
VERTEX
  8
0
 62
7
  6
CONTINUOUS
 10
96.3308440433
 20
239.6551909693
  0
VERTEX
  8
0
 62
7
  6
CONTINUOUS
 10
96.3074074168
 20
239.6841788601
  0
VERTEX
  8
0
 62
7
  6
CONTINUOUS
 10
96.2832872993
 20
239.712812931
  0
VERTEX
  8
0
 62
7
  6
CONTINUOUS
 10
96.2582910554
 20
239.7412385884
  0
VERTEX
  8
0
 62
7
  6
CONTINUOUS
 10
96.2322104388
 20
239.7695729443
  0
VERTEX
  8
0
 62
7
  6
CONTINUOUS
 10
96.2048385311
 20
239.7978853258
  0
VERTEX
  8
0
 62
7
  6
CONTINUOUS
 10
96.1759434172
 20
239.8262203578
  0
VERTEX
  8
0
 62
7
  6
CONTINUOUS
 10
96.1531433925
 20
239.8474667892
  0
SEQEND
  0
LINE
  8
0
 62
7
  6
CONTINUOUS
 10
90.8021863068
 20
227.4953526581
 11
90.8021863068
 21
238.4932644982
  0
LINE
  8
0
 62
7
  6
CONTINUOUS
 10
91.5521719437
 20
240.4547314839
 11
91.5521719437
 21
239.9373986402
  0
LINE
  8
0
 62
7
  6
CONTINUOUS
 10
96.0521719437
 20
239.9373946149
 11
96.0521719437
 21
240.618835902
  0
LINE
  8
0
 62
7
  6
CONTINUOUS
 10
96.8021575805
 20
238.4932644848
 11
96.8021575805
 21
227.4953526581
  0
POLYLINE
  8
AXES
 62
7
  6
CONTINUOUS
 66
1
 70
0
  0
VERTEX
  8
AXES
 62
7
  6
CONTINUOUS
 10
90.8021863068
 20
231.7623633497
  0
VERTEX
  8
AXES
 62
7
  6
CONTINUOUS
 10
90.7701394844
 20
231.8736487301
  0
VERTEX
  8
AXES
 62
7
  6
CONTINUOUS
 10
90.7261157118
 20
232.0651282668
  0
VERTEX
  8
AXES
 62
7
  6
CONTINUOUS
 10
90.6927898946
 20
232.2587010312
  0
VERTEX
  8
AXES
 62
7
  6
CONTINUOUS
 10
90.670500352
 20
232.4531167233
  0
VERTEX
  8
AXES
 62
7
  6
CONTINUOUS
 10
90.6593326449
 20
232.648181845
  0
VERTEX
  8
AXES
 62
7
  6
CONTINUOUS
 10
90.6593426194
 20
232.8428720678
  0
VERTEX
  8
AXES
 62
7
  6
CONTINUOUS
 10
90.6705310859
 20
233.0379459042
  0
VERTEX
  8
AXES
 62
7
  6
CONTINUOUS
 10
90.6928390717
 20
233.2323471253
  0
VERTEX
  8
AXES
 62
7
  6
CONTINUOUS
 10
90.7261850975
 20
233.4259220897
  0
VERTEX
  8
AXES
 62
7
  6
CONTINUOUS
 10
90.770225276
 20
233.6173877761
  0
VERTEX
  8
AXES
 62
7
  6
CONTINUOUS
 10
90.8021863068
 20
233.7283364188
  0
SEQEND
  0
LINE
  8
0
 62
7
  6
CONTINUOUS
 10
105.1271719437
 20
230.6459969801
 11
105.1271719437
 21
226.8953526581
  0
LINE
  8
0
 62
7
  6
CONTINUOUS
 10
106.4271863068
 20
227.7590923703
 11
106.4271863068
 21
238.4932644982
  0
LINE
  8
0
 62
7
  6
CONTINUOUS
 10
107.1771719437
 20
240.707563773
 11
107.1771719437
 21
239.9373986402
  0
LINE
  8
0
 62
7
  6
CONTINUOUS
 10
111.6771719437
 20
240.718843949
 11
111.6771719437
 21
239.9373986407
  0
POLYLINE
  8
AXES
 62
7
  6
CONTINUOUS
 66
1
 70
0
  0
VERTEX
  8
AXES
 62
7
  6
CONTINUOUS
 10
106.4271863068
 20
231.4243334458
  0
VERTEX
  8
AXES
 62
7
  6
CONTINUOUS
 10
106.4234045164
 20
231.3840122303
  0
VERTEX
  8
AXES
 62
7
  6
CONTINUOUS
 10
106.4133054105
 20
231.3500474769
  0
VERTEX
  8
AXES
 62
7
  6
CONTINUOUS
 10
106.3981560693
 20
231.3216962309
  0
VERTEX
  8
AXES
 62
7
  6
CONTINUOUS
 10
106.3792889599
 20
231.299051773
  0
VERTEX
  8
AXES
 62
7
  6
CONTINUOUS
 10
106.357893886
 20
231.2818259421
  0
VERTEX
  8
AXES
 62
7
  6
CONTINUOUS
 10
106.3340955862
 20
231.2692254461
  0
VERTEX
  8
AXES
 62
7
  6
CONTINUOUS
 10
106.3090031829
 20
231.2613726565
  0
SEQEND
  0
POLYLINE
  8
0
 62
7
  6
CONTINUOUS
 66
1
 70
0
  0
VERTEX
  8
0
 62
7
  6
CONTINUOUS
 10
112.4271575889
 20
238.4932645009
  0
VERTEX
  8
0
 62
7
  6
CONTINUOUS
 10
112.4261775556
 20
238.5338604362
  0
VERTEX
  8
0
 62
7
  6
CONTINUOUS
 10
112.4234674626
 20
238.5736931453
  0
VERTEX
  8
0
 62
7
  6
CONTINUOUS
 10
112.4191600437
 20
238.6140299707
  0
VERTEX
  8
0
 62
7
  6
CONTINUOUS
 10
112.4134711712
 20
238.6541715146
  0
VERTEX
  8
0
 62
7
  6
CONTINUOUS
 10
112.4066282447
 20
238.6936808115
  0
VERTEX
  8
0
 62
7
  6
CONTINUOUS
 10
112.398802605
 20
238.7324773187
  0
VERTEX
  8
0
 62
7
  6
CONTINUOUS
 10
112.390120019
 20
238.7705942712
  0
VERTEX
  8
0
 62
7
  6
CONTINUOUS
 10
112.3806833074
 20
238.8080588127
  0
VERTEX
  8
0
 62
7
  6
CONTINUOUS
 10
112.3705794455
 20
238.8448787618
  0
VERTEX
  8
0
 62
7
  6
CONTINUOUS
 10
112.3598788383
 20
238.8810744706
  0
VERTEX
  8
0
 62
7
  6
CONTINUOUS
 10
112.3486207021
 20
238.9167298859
  0
VERTEX
  8
0
 62
7
  6
CONTINUOUS
 10
112.3368219069
 20
238.9519433475
  0
VERTEX
  8
0
 62
7
  6
CONTINUOUS
 10
112.3244868183
 20
238.9868144885
  0
VERTEX
  8
0
 62
7
  6
CONTINUOUS
 10
112.3116233901
 20
239.0214014195
  0
VERTEX
  8
0
 62
7
  6
CONTINUOUS
 10
112.2982279157
 20
239.0557669174
  0
VERTEX
  8
0
 62
7
  6
CONTINUOUS
 10
112.2842959803
 20
239.0899621703
  0
VERTEX
  8
0
 62
7
  6
CONTINUOUS
 10
112.2698164898
 20
239.1240319296
  0
VERTEX
  8
0
 62
7
  6
CONTINUOUS
 10
112.2547769262
 20
239.158016973
  0
VERTEX
  8
0
 62
7
  6
CONTINUOUS
 10
112.2391645561
 20
239.191940855
  0
VERTEX
  8
0
 62
7
  6
CONTINUOUS
 10
112.2229629823
 20
239.2258306055
  0
VERTEX
  8
0
 62
7
  6
CONTINUOUS
 10
112.2061643387
 20
239.2596822462
  0
VERTEX
  8
0
 62
7
  6
CONTINUOUS
 10
112.1887767634
 20
239.2934603096
  0
VERTEX
  8
0
 62
7
  6
CONTINUOUS
 10
112.1708147219
 20
239.3271127076
  0
VERTEX
  8
0
 62
7
  6
CONTINUOUS
 10
112.1522904223
 20
239.3605967388
  0
VERTEX
  8
0
 62
7
  6
CONTINUOUS
 10
112.1332163315
 20
239.3938652749
  0
VERTEX
  8
0
 62
7
  6
CONTINUOUS
 10
112.1136024691
 20
239.4268796809
  0
VERTEX
  8
0
 62
7
  6
CONTINUOUS
 10
112.0934466197
 20
239.4596168321
  0
VERTEX
  8
0
 62
7
  6
CONTINUOUS
 10
112.072752568
 20
239.4920438803
  0
VERTEX
  8
0
 62
7
  6
CONTINUOUS
 10
112.0515140584
 20
239.5241401196
  0
VERTEX
  8
0
 62
7
  6
CONTINUOUS
 10
112.0297330419
 20
239.5558684651
  0
VERTEX
  8
0
 62
7
  6
CONTINUOUS
 10
112.0074041725
 20
239.5872024903
  0
VERTEX
  8
0
 62
7
  6
CONTINUOUS
 10
111.9845220764
 20
239.6181086949
  0
VERTEX
  8
0
 62
7
  6
CONTINUOUS
 10
111.9610853668
 20
239.648547825
  0
VERTEX
  8
0
 62
7
  6
CONTINUOUS
 10
111.9370551459
 20
239.6785226249
  0
VERTEX
  8
0
 62
7
  6
CONTINUOUS
 10
111.9122750065
 20
239.7081613774
  0
VERTEX
  8
0
 62
7
  6
CONTINUOUS
 10
111.8865420744
 20
239.7376124883
  0
VERTEX
  8
0
 62
7
  6
CONTINUOUS
 10
111.8596364097
 20
239.7669936222
  0
VERTEX
  8
0
 62
7
  6
CONTINUOUS
 10
111.8313392124
 20
239.7963704128
  0
VERTEX
  8
0
 62
7
  6
CONTINUOUS
 10
111.801403417
 20
239.8257816967
  0
VERTEX
  8
0
 62
7
  6
CONTINUOUS
 10
111.7781429278
 20
239.8474671215
  0
SEQEND
  0
LINE
  8
0
 62
7
  6
CONTINUOUS
 10
112.4271575805
 20
238.4932644982
 11
112.4271575805
 21
227.7590924797
  0
LINE
  8
0
 62
7
  6
CONTINUOUS
 10
113.7271719437
 20
230.645996934
 11
113.7271719437
 21
226.8953526581
  0
LINE
  8
0
 62
7
  6
CONTINUOUS
 10
120.9271863068
 20
227.4953526581
 11
120.9271863068
 21
238.4932644982
  0
LINE
  8
0
 62
7
  6
CONTINUOUS
 10
121.6771719437
 20
239.9373946169
 11
121.6771719437
 21
240.7188439133
  0
POLYLINE
  8
0
 62
7
  6
CONTINUOUS
 66
1
 70
0
  0
VERTEX
  8
0
 62
7
  6
CONTINUOUS
 10
126.9271575889
 20
238.4932645009
  0
VERTEX
  8
0
 62
7
  6
CONTINUOUS
 10
126.9261775556
 20
238.5338604362
  0
VERTEX
  8
0
 62
7
  6
CONTINUOUS
 10
126.9234674626
 20
238.5736931453
  0
VERTEX
  8
0
 62
7
  6
CONTINUOUS
 10
126.9191600437
 20
238.6140299707
  0
VERTEX
  8
0
 62
7
  6
CONTINUOUS
 10
126.9134711712
 20
238.6541715146
  0
VERTEX
  8
0
 62
7
  6
CONTINUOUS
 10
126.9066282447
 20
238.6936808115
  0
VERTEX
  8
0
 62
7
  6
CONTINUOUS
 10
126.898802605
 20
238.7324773187
  0
VERTEX
  8
0
 62
7
  6
CONTINUOUS
 10
126.890120019
 20
238.7705942712
  0
VERTEX
  8
0
 62
7
  6
CONTINUOUS
 10
126.8806833074
 20
238.8080588127
  0
VERTEX
  8
0
 62
7
  6
CONTINUOUS
 10
126.8705794455
 20
238.8448787618
  0
VERTEX
  8
0
 62
7
  6
CONTINUOUS
 10
126.8598788383
 20
238.8810744706
  0
VERTEX
  8
0
 62
7
  6
CONTINUOUS
 10
126.8486207021
 20
238.9167298859
  0
VERTEX
  8
0
 62
7
  6
CONTINUOUS
 10
126.8368219069
 20
238.9519433475
  0
VERTEX
  8
0
 62
7
  6
CONTINUOUS
 10
126.8244868183
 20
238.9868144885
  0
VERTEX
  8
0
 62
7
  6
CONTINUOUS
 10
126.8116233901
 20
239.0214014195
  0
VERTEX
  8
0
 62
7
  6
CONTINUOUS
 10
126.7982279157
 20
239.0557669174
  0
VERTEX
  8
0
 62
7
  6
CONTINUOUS
 10
126.7842959803
 20
239.0899621703
  0
VERTEX
  8
0
 62
7
  6
CONTINUOUS
 10
126.7698164898
 20
239.1240319296
  0
VERTEX
  8
0
 62
7
  6
CONTINUOUS
 10
126.7547769262
 20
239.158016973
  0
VERTEX
  8
0
 62
7
  6
CONTINUOUS
 10
126.7391645561
 20
239.191940855
  0
VERTEX
  8
0
 62
7
  6
CONTINUOUS
 10
126.7229629823
 20
239.2258306055
  0
VERTEX
  8
0
 62
7
  6
CONTINUOUS
 10
126.7061643387
 20
239.2596822462
  0
VERTEX
  8
0
 62
7
  6
CONTINUOUS
 10
126.6887767634
 20
239.2934603096
  0
VERTEX
  8
0
 62
7
  6
CONTINUOUS
 10
126.6708147219
 20
239.3271127076
  0
VERTEX
  8
0
 62
7
  6
CONTINUOUS
 10
126.6522904223
 20
239.3605967388
  0
VERTEX
  8
0
 62
7
  6
CONTINUOUS
 10
126.6332163315
 20
239.3938652749
  0
VERTEX
  8
0
 62
7
  6
CONTINUOUS
 10
126.6136024691
 20
239.4268796809
  0
VERTEX
  8
0
 62
7
  6
CONTINUOUS
 10
126.5934466197
 20
239.4596168321
  0
VERTEX
  8
0
 62
7
  6
CONTINUOUS
 10
126.572752568
 20
239.4920438803
  0
VERTEX
  8
0
 62
7
  6
CONTINUOUS
 10
126.5515140584
 20
239.5241401196
  0
VERTEX
  8
0
 62
7
  6
CONTINUOUS
 10
126.5297330419
 20
239.5558684651
  0
VERTEX
  8
0
 62
7
  6
CONTINUOUS
 10
126.5074041725
 20
239.5872024903
  0
VERTEX
  8
0
 62
7
  6
CONTINUOUS
 10
126.4845220764
 20
239.6181086949
  0
VERTEX
  8
0
 62
7
  6
CONTINUOUS
 10
126.4610853668
 20
239.648547825
  0
VERTEX
  8
0
 62
7
  6
CONTINUOUS
 10
126.4370551459
 20
239.6785226249
  0
VERTEX
  8
0
 62
7
  6
CONTINUOUS
 10
126.4122750065
 20
239.7081613774
  0
VERTEX
  8
0
 62
7
  6
CONTINUOUS
 10
126.3865420744
 20
239.7376124883
  0
VERTEX
  8
0
 62
7
  6
CONTINUOUS
 10
126.3596364097
 20
239.7669936222
  0
VERTEX
  8
0
 62
7
  6
CONTINUOUS
 10
126.3313392124
 20
239.7963704128
  0
VERTEX
  8
0
 62
7
  6
CONTINUOUS
 10
126.301403417
 20
239.8257816967
  0
VERTEX
  8
0
 62
7
  6
CONTINUOUS
 10
126.2781429278
 20
239.8474671215
  0
SEQEND
  0
LINE
  8
0
 62
7
  6
CONTINUOUS
 10
126.1771719437
 20
240.718843949
 11
126.1771719437
 21
239.9373986407
  0
LINE
  8
0
 62
7
  6
CONTINUOUS
 10
126.9271575805
 20
238.4932644982
 11
126.9271575805
 21
227.4953526581
  0
LINE
  8
0
 62
7
  6
CONTINUOUS
 10
134.6811863068
 20
227.4953526581
 11
134.6811863068
 21
238.4932644982
  0
LINE
  8
0
 62
7
  6
CONTINUOUS
 10
135.4311719437
 20
240.7188455651
 11
135.4311719437
 21
239.9373946169
  0
POLYLINE
  8
0
 62
7
  6
CONTINUOUS
 66
1
 70
0
  0
VERTEX
  8
0
 62
7
  6
CONTINUOUS
 10
91.451199978
 20
239.8474663698
  0
VERTEX
  8
0
 62
7
  6
CONTINUOUS
 10
91.4330808585
 20
239.8306614662
  0
VERTEX
  8
0
 62
7
  6
CONTINUOUS
 10
91.4077233207
 20
239.8061052677
  0
VERTEX
  8
0
 62
7
  6
CONTINUOUS
 10
91.3835524282
 20
239.7815599442
  0
VERTEX
  8
0
 62
7
  6
CONTINUOUS
 10
91.3604157486
 20
239.75700828
  0
VERTEX
  8
0
 62
7
  6
CONTINUOUS
 10
91.3381817346
 20
239.7324228598
  0
VERTEX
  8
0
 62
7
  6
CONTINUOUS
 10
91.3167241441
 20
239.7077577865
  0
VERTEX
  8
0
 62
7
  6
CONTINUOUS
 10
91.2959137798
 20
239.6829381483
  0
VERTEX
  8
0
 62
7
  6
CONTINUOUS
 10
91.27563392
 20
239.6578789583
  0
VERTEX
  8
0
 62
7
  6
CONTINUOUS
 10
91.2557786482
 20
239.6324896594
  0
VERTEX
  8
0
 62
7
  6
CONTINUOUS
 10
91.2362971407
 20
239.6067342339
  0
VERTEX
  8
0
 62
7
  6
CONTINUOUS
 10
91.2171795349
 20
239.5806212844
  0
VERTEX
  8
0
 62
7
  6
CONTINUOUS
 10
91.1984197816
 20
239.5541636109
  0
VERTEX
  8
0
 62
7
  6
CONTINUOUS
 10
91.1800059876
 20
239.5273633015
  0
VERTEX
  8
0
 62
7
  6
CONTINUOUS
 10
91.1619310199
 20
239.5002238771
  0
VERTEX
  8
0
 62
7
  6
CONTINUOUS
 10
91.144190694
 20
239.472752797
  0
VERTEX
  8
0
 62
7
  6
CONTINUOUS
 10
91.1267746726
 20
239.444944916
  0
VERTEX
  8
0
 62
7
  6
CONTINUOUS
 10
91.1096790236
 20
239.4168001469
  0
VERTEX
  8
0
 62
7
  6
CONTINUOUS
 10
91.092899806
 20
239.3883183949
  0
VERTEX
  8
0
 62
7
  6
CONTINUOUS
 10
91.0764288557
 20
239.3594868717
  0
VERTEX
  8
0
 62
7
  6
CONTINUOUS
 10
91.060268126
 20
239.3303074007
  0
VERTEX
  8
0
 62
7
  6
CONTINUOUS
 10
91.0444149059
 20
239.3007720775
  0
VERTEX
  8
0
 62
7
  6
CONTINUOUS
 10
91.0288712995
 20
239.270875232
  0
VERTEX
  8
0
 62
7
  6
CONTINUOUS
 10
91.0136392478
 20
239.240611102
  0
VERTEX
  8
0
 62
7
  6
CONTINUOUS
 10
90.9987185695
 20
239.2099615532
  0
VERTEX
  8
0
 62
7
  6
CONTINUOUS
 10
90.9841149012
 20
239.1789185155
  0
VERTEX
  8
0
 62
7
  6
CONTINUOUS
 10
90.9698281815
 20
239.1474532833
  0
VERTEX
  8
0
 62
7
  6
CONTINUOUS
 10
90.9558668743
 20
239.115550594
  0
VERTEX
  8
0
 62
7
  6
CONTINUOUS
 10
90.9422327786
 20
239.0831696115
  0
VERTEX
  8
0
 62
7
  6
CONTINUOUS
 10
90.9289374726
 20
239.0502833829
  0
VERTEX
  8
0
 62
7
  6
CONTINUOUS
 10
90.9159869656
 20
239.0168354027
  0
VERTEX
  8
0
 62
7
  6
CONTINUOUS
 10
90.903407448
 20
238.9828091871
  0
VERTEX
  8
0
 62
7
  6
CONTINUOUS
 10
90.8912350745
 20
238.9481961845
  0
VERTEX
  8
0
 62
7
  6
CONTINUOUS
 10
90.8795106858
 20
238.9129936921
  0
VERTEX
  8
0
 62
7
  6
CONTINUOUS
 10
90.8682814849
 20
238.8771921923
  0
VERTEX
  8
0
 62
7
  6
CONTINUOUS
 10
90.8575939598
 20
238.8407563738
  0
VERTEX
  8
0
 62
7
  6
CONTINUOUS
 10
90.8475072436
 20
238.8036584749
  0
VERTEX
  8
0
 62
7
  6
CONTINUOUS
 10
90.8380952142
 20
238.765867416
  0
VERTEX
  8
0
 62
7
  6
CONTINUOUS
 10
90.8294685948
 20
238.7274498626
  0
VERTEX
  8
0
 62
7
  6
CONTINUOUS
 10
90.8217573407
 20
238.6885261705
  0
VERTEX
  8
0
 62
7
  6
CONTINUOUS
 10
90.8151056689
 20
238.6492581597
  0
VERTEX
  8
0
 62
7
  6
CONTINUOUS
 10
90.8096720011
 20
238.6098792212
  0
VERTEX
  8
0
 62
7
  6
CONTINUOUS
 10
90.8056150619
 20
238.5706781439
  0
VERTEX
  8
0
 62
7
  6
CONTINUOUS
 10
90.8030864064
 20
238.5321208672
  0
VERTEX
  8
0
 62
7
  6
CONTINUOUS
 10
90.8021869112
 20
238.4932644983
  0
SEQEND
  0
POLYLINE
  8
0
 62
7
  6
CONTINUOUS
 66
1
 70
0
  0
VERTEX
  8
0
 62
7
  6
CONTINUOUS
 10
91.5428878392
 20
239.9293437956
  0
VERTEX
  8
0
 62
7
  6
CONTINUOUS
 10
91.4933958334
 20
239.8855459019
  0
VERTEX
  8
0
 62
7
  6
CONTINUOUS
 10
91.4511970022
 20
239.8474628791
  0
SEQEND
  0
LINE
  8
0
 62
7
  6
CONTINUOUS
 10
91.5845262362
 20
239.9654690697
 11
91.5428878392
 21
239.9293437956
  0
POLYLINE
  8
0
 62
7
  6
CONTINUOUS
 66
1
 70
0
  0
VERTEX
  8
0
 62
7
  6
CONTINUOUS
 10
140.6811575889
 20
238.4932645009
  0
VERTEX
  8
0
 62
7
  6
CONTINUOUS
 10
140.6801775556
 20
238.5338604362
  0
VERTEX
  8
0
 62
7
  6
CONTINUOUS
 10
140.6774674626
 20
238.5736931453
  0
VERTEX
  8
0
 62
7
  6
CONTINUOUS
 10
140.6731600437
 20
238.6140299707
  0
VERTEX
  8
0
 62
7
  6
CONTINUOUS
 10
140.6674711712
 20
238.6541715146
  0
VERTEX
  8
0
 62
7
  6
CONTINUOUS
 10
140.6606282447
 20
238.6936808115
  0
VERTEX
  8
0
 62
7
  6
CONTINUOUS
 10
140.652802605
 20
238.7324773187
  0
VERTEX
  8
0
 62
7
  6
CONTINUOUS
 10
140.644120019
 20
238.7705942712
  0
VERTEX
  8
0
 62
7
  6
CONTINUOUS
 10
140.6346833074
 20
238.8080588127
  0
VERTEX
  8
0
 62
7
  6
CONTINUOUS
 10
140.6245794455
 20
238.8448787618
  0
VERTEX
  8
0
 62
7
  6
CONTINUOUS
 10
140.6138788383
 20
238.8810744706
  0
VERTEX
  8
0
 62
7
  6
CONTINUOUS
 10
140.6026207021
 20
238.9167298859
  0
VERTEX
  8
0
 62
7
  6
CONTINUOUS
 10
140.5908219069
 20
238.9519433475
  0
VERTEX
  8
0
 62
7
  6
CONTINUOUS
 10
140.5784868183
 20
238.9868144885
  0
VERTEX
  8
0
 62
7
  6
CONTINUOUS
 10
140.5656233901
 20
239.0214014195
  0
VERTEX
  8
0
 62
7
  6
CONTINUOUS
 10
140.5522279157
 20
239.0557669174
  0
VERTEX
  8
0
 62
7
  6
CONTINUOUS
 10
140.5382959803
 20
239.0899621703
  0
VERTEX
  8
0
 62
7
  6
CONTINUOUS
 10
140.5238164898
 20
239.1240319296
  0
VERTEX
  8
0
 62
7
  6
CONTINUOUS
 10
140.5087769262
 20
239.158016973
  0
VERTEX
  8
0
 62
7
  6
CONTINUOUS
 10
140.4931645561
 20
239.191940855
  0
VERTEX
  8
0
 62
7
  6
CONTINUOUS
 10
140.4769629823
 20
239.2258306055
  0
VERTEX
  8
0
 62
7
  6
CONTINUOUS
 10
140.4601643387
 20
239.2596822462
  0
VERTEX
  8
0
 62
7
  6
CONTINUOUS
 10
140.4427767634
 20
239.2934603096
  0
VERTEX
  8
0
 62
7
  6
CONTINUOUS
 10
140.4248147219
 20
239.3271127076
  0
VERTEX
  8
0
 62
7
  6
CONTINUOUS
 10
140.4062904223
 20
239.3605967388
  0
VERTEX
  8
0
 62
7
  6
CONTINUOUS
 10
140.3872163315
 20
239.3938652749
  0
VERTEX
  8
0
 62
7
  6
CONTINUOUS
 10
140.3676024691
 20
239.4268796809
  0
VERTEX
  8
0
 62
7
  6
CONTINUOUS
 10
140.3474466197
 20
239.4596168321
  0
VERTEX
  8
0
 62
7
  6
CONTINUOUS
 10
140.326752568
 20
239.4920438803
  0
VERTEX
  8
0
 62
7
  6
CONTINUOUS
 10
140.3055140584
 20
239.5241401196
  0
VERTEX
  8
0
 62
7
  6
CONTINUOUS
 10
140.2837330419
 20
239.5558684651
  0
VERTEX
  8
0
 62
7
  6
CONTINUOUS
 10
140.2614041725
 20
239.5872024903
  0
VERTEX
  8
0
 62
7
  6
CONTINUOUS
 10
140.2385220764
 20
239.6181086949
  0
VERTEX
  8
0
 62
7
  6
CONTINUOUS
 10
140.2150853668
 20
239.648547825
  0
VERTEX
  8
0
 62
7
  6
CONTINUOUS
 10
140.1910551459
 20
239.6785226249
  0
VERTEX
  8
0
 62
7
  6
CONTINUOUS
 10
140.1662750065
 20
239.7081613774
  0
VERTEX
  8
0
 62
7
  6
CONTINUOUS
 10
140.1405420744
 20
239.7376124883
  0
VERTEX
  8
0
 62
7
  6
CONTINUOUS
 10
140.1136364097
 20
239.7669936222
  0
VERTEX
  8
0
 62
7
  6
CONTINUOUS
 10
140.0853392124
 20
239.7963704128
  0
VERTEX
  8
0
 62
7
  6
CONTINUOUS
 10
140.055403417
 20
239.8257816967
  0
VERTEX
  8
0
 62
7
  6
CONTINUOUS
 10
140.0321429278
 20
239.8474671215
  0
SEQEND
  0
LINE
  8
0
 62
7
  6
CONTINUOUS
 10
139.9311719437
 20
240.7441586888
 11
139.9311719437
 21
239.9373986407
  0
LINE
  8
0
 62
7
  6
CONTINUOUS
 10
140.6811575805
 20
238.4932644982
 11
140.6811575805
 21
227.4953526581
  0
LINE
  8
0
 62
7
  6
CONTINUOUS
 10
147.7771719437
 20
227.4953526581
 11
147.7771719437
 21
238.4932644982
  0
LINE
  8
0
 62
7
  6
CONTINUOUS
 10
148.5271719437
 20
240.7441601292
 11
148.5271719437
 21
239.9374071126
  0
LINE
  8
0
 62
7
  6
CONTINUOUS
 10
153.0271719437
 20
240.7441601292
 11
153.0271719437
 21
239.937411136
  0
POLYLINE
  8
0
 62
7
  6
CONTINUOUS
 66
1
 70
0
  0
VERTEX
  8
0
 62
7
  6
CONTINUOUS
 10
121.5761985479
 20
239.8474653223
  0
VERTEX
  8
0
 62
7
  6
CONTINUOUS
 10
121.5570290212
 20
239.8296667483
  0
VERTEX
  8
0
 62
7
  6
CONTINUOUS
 10
121.5313645703
 20
239.804754916
  0
VERTEX
  8
0
 62
7
  6
CONTINUOUS
 10
121.5069117837
 20
239.7798535312
  0
VERTEX
  8
0
 62
7
  6
CONTINUOUS
 10
121.4835277498
 20
239.754958463
  0
VERTEX
  8
0
 62
7
  6
CONTINUOUS
 10
121.4610835456
 20
239.7300517586
  0
VERTEX
  8
0
 62
7
  6
CONTINUOUS
 10
121.4394487209
 20
239.7050877249
  0
VERTEX
  8
0
 62
7
  6
CONTINUOUS
 10
121.4184998334
 20
239.6800007862
  0
VERTEX
  8
0
 62
7
  6
CONTINUOUS
 10
121.3981241064
 20
239.6547165175
  0
VERTEX
  8
0
 62
7
  6
CONTINUOUS
 10
121.3782154
 20
239.6291495035
  0
VERTEX
  8
0
 62
7
  6
CONTINUOUS
 10
121.358725722
 20
239.6032707927
  0
VERTEX
  8
0
 62
7
  6
CONTINUOUS
 10
121.3396410849
 20
239.5770898562
  0
VERTEX
  8
0
 62
7
  6
CONTINUOUS
 10
121.3209446207
 20
239.550609963
  0
VERTEX
  8
0
 62
7
  6
CONTINUOUS
 10
121.3026181212
 20
239.523825846
  0
VERTEX
  8
0
 62
7
  6
CONTINUOUS
 10
121.2846505094
 20
239.4967392742
  0
VERTEX
  8
0
 62
7
  6
CONTINUOUS
 10
121.267026624
 20
239.4693437567
  0
VERTEX
  8
0
 62
7
  6
CONTINUOUS
 10
121.2497318861
 20
239.4416267037
  0
VERTEX
  8
0
 62
7
  6
CONTINUOUS
 10
121.2327574331
 20
239.4135822646
  0
VERTEX
  8
0
 62
7
  6
CONTINUOUS
 10
121.2160881676
 20
239.3851906196
  0
VERTEX
  8
0
 62
7
  6
CONTINUOUS
 10
121.1997157608
 20
239.3564361989
  0
VERTEX
  8
0
 62
7
  6
CONTINUOUS
 10
121.1836400287
 20
239.3273170624
  0
VERTEX
  8
0
 62
7
  6
CONTINUOUS
 10
121.1678597209
 20
239.297823545
  0
VERTEX
  8
0
 62
7
  6
CONTINUOUS
 10
121.152381234
 20
239.267958151
  0
VERTEX
  8
0
 62
7
  6
CONTINUOUS
 10
121.1372037194
 20
239.2377068061
  0
VERTEX
  8
0
 62
7
  6
CONTINUOUS
 10
121.1223339275
 20
239.207063843
  0
VERTEX
  8
0
 62
7
  6
CONTINUOUS
 10
121.1077739609
 20
239.176013078
  0
VERTEX
  8
0
 62
7
  6
CONTINUOUS
 10
121.0935302245
 20
239.1445369807
  0
VERTEX
  8
0
 62
7
  6
CONTINUOUS
 10
121.0796083871
 20
239.112614764
  0
VERTEX
  8
0
 62
7
  6
CONTINUOUS
 10
121.0660160399
 20
239.0802158435
  0
VERTEX
  8
0
 62
7
  6
CONTINUOUS
 10
121.0527619363
 20
239.0473079129
  0
VERTEX
  8
0
 62
7
  6
CONTINUOUS
 10
121.0398584657
 20
239.0138480181
  0
VERTEX
  8
0
 62
7
  6
CONTINUOUS
 10
121.0273274016
 20
238.9798090825
  0
VERTEX
  8
0
 62
7
  6
CONTINUOUS
 10
121.0152095642
 20
238.9451956295
  0
VERTEX
  8
0
 62
7
  6
CONTINUOUS
 10
121.0035413267
 20
238.9099890304
  0
VERTEX
  8
0
 62
7
  6
CONTINUOUS
 10
120.9923706949
 20
238.8741852556
  0
VERTEX
  8
0
 62
7
  6
CONTINUOUS
 10
120.9817456706
 20
238.8377483829
  0
VERTEX
  8
0
 62
7
  6
CONTINUOUS
 10
120.9717214203
 20
238.8006330065
  0
VERTEX
  8
0
 62
7
  6
CONTINUOUS
 10
120.9623749861
 20
238.7628178355
  0
VERTEX
  8
0
 62
7
  6
CONTINUOUS
 10
120.9538198117
 20
238.7243721924
  0
VERTEX
  8
0
 62
7
  6
CONTINUOUS
 10
120.9461876271
 20
238.6854136645
  0
VERTEX
  8
0
 62
7
  6
CONTINUOUS
 10
120.9396235094
 20
238.6461015935
  0
VERTEX
  8
0
 62
7
  6
CONTINUOUS
 10
120.9342895367
 20
238.6066864915
  0
VERTEX
  8
0
 62
7
  6
CONTINUOUS
 10
120.9303463593
 20
238.5674637614
  0
VERTEX
  8
0
 62
7
  6
CONTINUOUS
 10
120.9279464002
 20
238.5289140339
  0
VERTEX
  8
0
 62
7
  6
CONTINUOUS
 10
120.9271872269
 20
238.4932644982
  0
SEQEND
  0
POLYLINE
  8
0
 62
7
  6
CONTINUOUS
 66
1
 70
0
  0
VERTEX
  8
0
 62
7
  6
CONTINUOUS
 10
107.076199978
 20
239.8474663698
  0
VERTEX
  8
0
 62
7
  6
CONTINUOUS
 10
107.0580808585
 20
239.8306614662
  0
VERTEX
  8
0
 62
7
  6
CONTINUOUS
 10
107.0327233207
 20
239.8061052677
  0
VERTEX
  8
0
 62
7
  6
CONTINUOUS
 10
107.0085524282
 20
239.7815599442
  0
VERTEX
  8
0
 62
7
  6
CONTINUOUS
 10
106.9854157486
 20
239.75700828
  0
VERTEX
  8
0
 62
7
  6
CONTINUOUS
 10
106.9631817346
 20
239.7324228598
  0
VERTEX
  8
0
 62
7
  6
CONTINUOUS
 10
106.9417241441
 20
239.7077577865
  0
VERTEX
  8
0
 62
7
  6
CONTINUOUS
 10
106.9209137798
 20
239.6829381483
  0
VERTEX
  8
0
 62
7
  6
CONTINUOUS
 10
106.90063392
 20
239.6578789583
  0
VERTEX
  8
0
 62
7
  6
CONTINUOUS
 10
106.8807786482
 20
239.6324896594
  0
VERTEX
  8
0
 62
7
  6
CONTINUOUS
 10
106.8612971407
 20
239.6067342339
  0
VERTEX
  8
0
 62
7
  6
CONTINUOUS
 10
106.8421795349
 20
239.5806212844
  0
VERTEX
  8
0
 62
7
  6
CONTINUOUS
 10
106.8234197816
 20
239.5541636109
  0
VERTEX
  8
0
 62
7
  6
CONTINUOUS
 10
106.8050059876
 20
239.5273633015
  0
VERTEX
  8
0
 62
7
  6
CONTINUOUS
 10
106.7869310199
 20
239.5002238771
  0
VERTEX
  8
0
 62
7
  6
CONTINUOUS
 10
106.769190694
 20
239.472752797
  0
VERTEX
  8
0
 62
7
  6
CONTINUOUS
 10
106.7517746726
 20
239.444944916
  0
VERTEX
  8
0
 62
7
  6
CONTINUOUS
 10
106.7346790236
 20
239.4168001469
  0
VERTEX
  8
0
 62
7
  6
CONTINUOUS
 10
106.717899806
 20
239.3883183949
  0
VERTEX
  8
0
 62
7
  6
CONTINUOUS
 10
106.7014288557
 20
239.3594868717
  0
VERTEX
  8
0
 62
7
  6
CONTINUOUS
 10
106.685268126
 20
239.3303074007
  0
VERTEX
  8
0
 62
7
  6
CONTINUOUS
 10
106.6694149059
 20
239.3007720775
  0
VERTEX
  8
0
 62
7
  6
CONTINUOUS
 10
106.6538712995
 20
239.270875232
  0
VERTEX
  8
0
 62
7
  6
CONTINUOUS
 10
106.6386392478
 20
239.240611102
  0
VERTEX
  8
0
 62
7
  6
CONTINUOUS
 10
106.6237185695
 20
239.2099615532
  0
VERTEX
  8
0
 62
7
  6
CONTINUOUS
 10
106.6091149012
 20
239.1789185155
  0
VERTEX
  8
0
 62
7
  6
CONTINUOUS
 10
106.5948281815
 20
239.1474532833
  0
VERTEX
  8
0
 62
7
  6
CONTINUOUS
 10
106.5808668743
 20
239.115550594
  0
VERTEX
  8
0
 62
7
  6
CONTINUOUS
 10
106.5672327786
 20
239.0831696115
  0
VERTEX
  8
0
 62
7
  6
CONTINUOUS
 10
106.5539374726
 20
239.0502833829
  0
VERTEX
  8
0
 62
7
  6
CONTINUOUS
 10
106.5409869656
 20
239.0168354027
  0
VERTEX
  8
0
 62
7
  6
CONTINUOUS
 10
106.528407448
 20
238.9828091871
  0
VERTEX
  8
0
 62
7
  6
CONTINUOUS
 10
106.5162350745
 20
238.9481961845
  0
VERTEX
  8
0
 62
7
  6
CONTINUOUS
 10
106.5045106858
 20
238.9129936921
  0
VERTEX
  8
0
 62
7
  6
CONTINUOUS
 10
106.4932814849
 20
238.8771921923
  0
VERTEX
  8
0
 62
7
  6
CONTINUOUS
 10
106.4825939598
 20
238.8407563738
  0
VERTEX
  8
0
 62
7
  6
CONTINUOUS
 10
106.4725072436
 20
238.8036584749
  0
VERTEX
  8
0
 62
7
  6
CONTINUOUS
 10
106.4630952142
 20
238.765867416
  0
VERTEX
  8
0
 62
7
  6
CONTINUOUS
 10
106.4544685948
 20
238.7274498626
  0
VERTEX
  8
0
 62
7
  6
CONTINUOUS
 10
106.4467573407
 20
238.6885261705
  0
VERTEX
  8
0
 62
7
  6
CONTINUOUS
 10
106.4401056689
 20
238.6492581597
  0
VERTEX
  8
0
 62
7
  6
CONTINUOUS
 10
106.4346720011
 20
238.6098792212
  0
VERTEX
  8
0
 62
7
  6
CONTINUOUS
 10
106.4306150619
 20
238.5706781439
  0
VERTEX
  8
0
 62
7
  6
CONTINUOUS
 10
106.4280864064
 20
238.5321208672
  0
VERTEX
  8
0
 62
7
  6
CONTINUOUS
 10
106.4271869112
 20
238.4932644983
  0
SEQEND
  0
POLYLINE
  8
0
 62
7
  6
CONTINUOUS
 66
1
 70
0
  0
VERTEX
  8
0
 62
7
  6
CONTINUOUS
 10
107.1678878392
 20
239.9293437956
  0
VERTEX
  8
0
 62
7
  6
CONTINUOUS
 10
107.1183958334
 20
239.8855459019
  0
VERTEX
  8
0
 62
7
  6
CONTINUOUS
 10
107.0761970022
 20
239.8474628791
  0
SEQEND
  0
LINE
  8
0
 62
7
  6
CONTINUOUS
 10
107.2095262362
 20
239.9654690697
 11
107.1678878392
 21
239.9293437956
  0
POLYLINE
  8
0
 62
7
  6
CONTINUOUS
 66
1
 70
0
  0
VERTEX
  8
0
 62
7
  6
CONTINUOUS
 10
96.1116010287
 20
239.8849618049
  0
VERTEX
  8
0
 62
7
  6
CONTINUOUS
 10
96.0621100426
 20
239.9287711317
  0
VERTEX
  8
0
 62
7
  6
CONTINUOUS
 10
96.019817653
 20
239.9654690671
  0
SEQEND
  0
LINE
  8
0
 62
7
  6
CONTINUOUS
 10
96.1531468819
 20
239.8474628853
 11
96.1116010287
 21
239.8849618049
  0
POLYLINE
  8
AXES
 62
7
  6
CONTINUOUS
 66
1
 70
0
  0
VERTEX
  8
AXES
 62
7
  6
CONTINUOUS
 10
113.7271719379
 20
230.6454351825
  0
VERTEX
  8
AXES
 62
7
  6
CONTINUOUS
 10
113.7227365055
 20
230.6497136981
  0
VERTEX
  8
AXES
 62
7
  6
CONTINUOUS
 10
113.7059105296
 20
230.6629978732
  0
VERTEX
  8
AXES
 62
7
  6
CONTINUOUS
 10
113.6761459984
 20
230.6853503741
  0
VERTEX
  8
AXES
 62
7
  6
CONTINUOUS
 10
113.6331068201
 20
230.7167226196
  0
VERTEX
  8
AXES
 62
7
  6
CONTINUOUS
 10
113.5758028431
 20
230.7573538814
  0
VERTEX
  8
AXES
 62
7
  6
CONTINUOUS
 10
113.5034102858
 20
230.8070912178
  0
VERTEX
  8
AXES
 62
7
  6
CONTINUOUS
 10
113.4154144484
 20
230.8652192661
  0
VERTEX
  8
AXES
 62
7
  6
CONTINUOUS
 10
113.312740321
 20
230.9296840236
  0
VERTEX
  8
AXES
 62
7
  6
CONTINUOUS
 10
113.1976930829
 20
230.9972786897
  0
VERTEX
  8
AXES
 62
7
  6
CONTINUOUS
 10
113.0735240684
 20
231.0641700224
  0
VERTEX
  8
AXES
 62
7
  6
CONTINUOUS
 10
112.9439636993
 20
231.1264998857
  0
VERTEX
  8
AXES
 62
7
  6
CONTINUOUS
 10
112.8112708666
 20
231.1815408381
  0
VERTEX
  8
AXES
 62
7
  6
CONTINUOUS
 10
112.6777276256
 20
231.2270078141
  0
VERTEX
  8
AXES
 62
7
  6
CONTINUOUS
 10
112.5453407044
 20
231.2613726565
  0
SEQEND
  0
POLYLINE
  8
0
 62
7
  6
CONTINUOUS
 66
1
 70
0
  0
VERTEX
  8
0
 62
7
  6
CONTINUOUS
 10
153.7771719521
 20
238.4932645009
  0
VERTEX
  8
0
 62
7
  6
CONTINUOUS
 10
153.7761919188
 20
238.5338604361
  0
VERTEX
  8
0
 62
7
  6
CONTINUOUS
 10
153.7734818258
 20
238.5736931452
  0
VERTEX
  8
0
 62
7
  6
CONTINUOUS
 10
153.7691744069
 20
238.6140299707
  0
VERTEX
  8
0
 62
7
  6
CONTINUOUS
 10
153.7634855343
 20
238.6541715145
  0
VERTEX
  8
0
 62
7
  6
CONTINUOUS
 10
153.7566426079
 20
238.6936808114
  0
VERTEX
  8
0
 62
7
  6
CONTINUOUS
 10
153.7488169682
 20
238.7324773186
  0
VERTEX
  8
0
 62
7
  6
CONTINUOUS
 10
153.7401343821
 20
238.7705942712
  0
VERTEX
  8
0
 62
7
  6
CONTINUOUS
 10
153.7306976706
 20
238.8080588126
  0
VERTEX
  8
0
 62
7
  6
CONTINUOUS
 10
153.7205938087
 20
238.8448787616
  0
VERTEX
  8
0
 62
7
  6
CONTINUOUS
 10
153.7098932015
 20
238.8810744705
  0
VERTEX
  8
0
 62
7
  6
CONTINUOUS
 10
153.6986350653
 20
238.9167298858
  0
VERTEX
  8
0
 62
7
  6
CONTINUOUS
 10
153.6868362701
 20
238.9519433473
  0
VERTEX
  8
0
 62
7
  6
CONTINUOUS
 10
153.6745011815
 20
238.9868144884
  0
VERTEX
  8
0
 62
7
  6
CONTINUOUS
 10
153.6616377533
 20
239.0214014193
  0
VERTEX
  8
0
 62
7
  6
CONTINUOUS
 10
153.6482422789
 20
239.0557669174
  0
VERTEX
  8
0
 62
7
  6
CONTINUOUS
 10
153.6343103435
 20
239.0899621701
  0
VERTEX
  8
0
 62
7
  6
CONTINUOUS
 10
153.619830853
 20
239.1240319295
  0
VERTEX
  8
0
 62
7
  6
CONTINUOUS
 10
153.6047912895
 20
239.1580169728
  0
VERTEX
  8
0
 62
7
  6
CONTINUOUS
 10
153.5891789193
 20
239.1919408549
  0
VERTEX
  8
0
 62
7
  6
CONTINUOUS
 10
153.5729773456
 20
239.2258306053
  0
VERTEX
  8
0
 62
7
  6
CONTINUOUS
 10
153.5561787019
 20
239.2596822461
  0
VERTEX
  8
0
 62
7
  6
CONTINUOUS
 10
153.5387911267
 20
239.2934603094
  0
VERTEX
  8
0
 62
7
  6
CONTINUOUS
 10
153.5208290851
 20
239.3271127075
  0
VERTEX
  8
0
 62
7
  6
CONTINUOUS
 10
153.5023047855
 20
239.3605967387
  0
VERTEX
  8
0
 62
7
  6
CONTINUOUS
 10
153.4832306947
 20
239.3938652748
  0
VERTEX
  8
0
 62
7
  6
CONTINUOUS
 10
153.4636168323
 20
239.4268796807
  0
VERTEX
  8
0
 62
7
  6
CONTINUOUS
 10
153.4434609829
 20
239.4596168319
  0
VERTEX
  8
0
 62
7
  6
CONTINUOUS
 10
153.4227669312
 20
239.4920438801
  0
VERTEX
  8
0
 62
7
  6
CONTINUOUS
 10
153.4015284218
 20
239.5241401194
  0
VERTEX
  8
0
 62
7
  6
CONTINUOUS
 10
153.3797474051
 20
239.5558684651
  0
VERTEX
  8
0
 62
7
  6
CONTINUOUS
 10
153.3574185358
 20
239.5872024901
  0
VERTEX
  8
0
 62
7
  6
CONTINUOUS
 10
153.3345364396
 20
239.6181086948
  0
VERTEX
  8
0
 62
7
  6
CONTINUOUS
 10
153.3110997301
 20
239.6485478248
  0
VERTEX
  8
0
 62
7
  6
CONTINUOUS
 10
153.2870695093
 20
239.6785226246
  0
VERTEX
  8
0
 62
7
  6
CONTINUOUS
 10
153.2622893697
 20
239.7081613774
  0
VERTEX
  8
0
 62
7
  6
CONTINUOUS
 10
153.2365564377
 20
239.7376124882
  0
VERTEX
  8
0
 62
7
  6
CONTINUOUS
 10
153.209650773
 20
239.7669936221
  0
VERTEX
  8
0
 62
7
  6
CONTINUOUS
 10
153.1813535755
 20
239.7963704129
  0
VERTEX
  8
0
 62
7
  6
CONTINUOUS
 10
153.1514177803
 20
239.8257816966
  0
VERTEX
  8
0
 62
7
  6
CONTINUOUS
 10
153.1281572911
 20
239.8474671214
  0
SEQEND
  0
POLYLINE
  8
0
 62
7
  6
CONTINUOUS
 66
1
 70
0
  0
VERTEX
  8
0
 62
7
  6
CONTINUOUS
 10
166.4771719521
 20
238.4932645009
  0
VERTEX
  8
0
 62
7
  6
CONTINUOUS
 10
166.4761919188
 20
238.5338604361
  0
VERTEX
  8
0
 62
7
  6
CONTINUOUS
 10
166.4734818258
 20
238.5736931452
  0
VERTEX
  8
0
 62
7
  6
CONTINUOUS
 10
166.4691744069
 20
238.6140299707
  0
VERTEX
  8
0
 62
7
  6
CONTINUOUS
 10
166.4634855343
 20
238.6541715145
  0
VERTEX
  8
0
 62
7
  6
CONTINUOUS
 10
166.4566426079
 20
238.6936808114
  0
VERTEX
  8
0
 62
7
  6
CONTINUOUS
 10
166.4488169682
 20
238.7324773186
  0
VERTEX
  8
0
 62
7
  6
CONTINUOUS
 10
166.4401343821
 20
238.7705942712
  0
VERTEX
  8
0
 62
7
  6
CONTINUOUS
 10
166.4306976706
 20
238.8080588126
  0
VERTEX
  8
0
 62
7
  6
CONTINUOUS
 10
166.4205938087
 20
238.8448787616
  0
VERTEX
  8
0
 62
7
  6
CONTINUOUS
 10
166.4098932015
 20
238.8810744705
  0
VERTEX
  8
0
 62
7
  6
CONTINUOUS
 10
166.3986350653
 20
238.9167298858
  0
VERTEX
  8
0
 62
7
  6
CONTINUOUS
 10
166.3868362701
 20
238.9519433473
  0
VERTEX
  8
0
 62
7
  6
CONTINUOUS
 10
166.3745011815
 20
238.9868144884
  0
VERTEX
  8
0
 62
7
  6
CONTINUOUS
 10
166.3616377533
 20
239.0214014193
  0
VERTEX
  8
0
 62
7
  6
CONTINUOUS
 10
166.3482422789
 20
239.0557669174
  0
VERTEX
  8
0
 62
7
  6
CONTINUOUS
 10
166.3343103435
 20
239.0899621701
  0
VERTEX
  8
0
 62
7
  6
CONTINUOUS
 10
166.319830853
 20
239.1240319295
  0
VERTEX
  8
0
 62
7
  6
CONTINUOUS
 10
166.3047912895
 20
239.1580169728
  0
VERTEX
  8
0
 62
7
  6
CONTINUOUS
 10
166.2891789193
 20
239.1919408549
  0
VERTEX
  8
0
 62
7
  6
CONTINUOUS
 10
166.2729773456
 20
239.2258306053
  0
VERTEX
  8
0
 62
7
  6
CONTINUOUS
 10
166.2561787019
 20
239.2596822461
  0
VERTEX
  8
0
 62
7
  6
CONTINUOUS
 10
166.2387911267
 20
239.2934603094
  0
VERTEX
  8
0
 62
7
  6
CONTINUOUS
 10
166.2208290851
 20
239.3271127075
  0
VERTEX
  8
0
 62
7
  6
CONTINUOUS
 10
166.2023047855
 20
239.3605967387
  0
VERTEX
  8
0
 62
7
  6
CONTINUOUS
 10
166.1832306947
 20
239.3938652748
  0
VERTEX
  8
0
 62
7
  6
CONTINUOUS
 10
166.1636168323
 20
239.4268796807
  0
VERTEX
  8
0
 62
7
  6
CONTINUOUS
 10
166.1434609829
 20
239.4596168319
  0
VERTEX
  8
0
 62
7
  6
CONTINUOUS
 10
166.1227669312
 20
239.4920438801
  0
VERTEX
  8
0
 62
7
  6
CONTINUOUS
 10
166.1015284218
 20
239.5241401194
  0
VERTEX
  8
0
 62
7
  6
CONTINUOUS
 10
166.0797474051
 20
239.5558684651
  0
VERTEX
  8
0
 62
7
  6
CONTINUOUS
 10
166.0574185358
 20
239.5872024901
  0
VERTEX
  8
0
 62
7
  6
CONTINUOUS
 10
166.0345364396
 20
239.6181086948
  0
VERTEX
  8
0
 62
7
  6
CONTINUOUS
 10
166.0110997301
 20
239.6485478248
  0
VERTEX
  8
0
 62
7
  6
CONTINUOUS
 10
165.9870695093
 20
239.6785226246
  0
VERTEX
  8
0
 62
7
  6
CONTINUOUS
 10
165.9622893697
 20
239.7081613774
  0
VERTEX
  8
0
 62
7
  6
CONTINUOUS
 10
165.9365564377
 20
239.7376124882
  0
VERTEX
  8
0
 62
7
  6
CONTINUOUS
 10
165.909650773
 20
239.7669936221
  0
VERTEX
  8
0
 62
7
  6
CONTINUOUS
 10
165.8813535755
 20
239.7963704129
  0
VERTEX
  8
0
 62
7
  6
CONTINUOUS
 10
165.8514177803
 20
239.8257816966
  0
VERTEX
  8
0
 62
7
  6
CONTINUOUS
 10
165.8281572911
 20
239.8474671214
  0
SEQEND
  0
LINE
  8
0
 62
7
  6
CONTINUOUS
 10
153.7771719437
 20
238.4932644982
 11
153.7771719437
 21
227.4953526581
  0
LINE
  8
0
 62
7
  6
CONTINUOUS
 10
160.4771719437
 20
227.4953526581
 11
160.4771719437
 21
238.4932644982
  0
LINE
  8
0
 62
7
  6
CONTINUOUS
 10
161.2271719437
 20
240.7441601292
 11
161.2271719437
 21
239.9374071126
  0
LINE
  8
0
 62
7
  6
CONTINUOUS
 10
165.7271719437
 20
240.7441601292
 11
165.7271719437
 21
239.937411136
  0
LINE
  8
0
 62
7
  6
CONTINUOUS
 10
166.4771719437
 20
238.4932498802
 11
166.4771719437
 21
227.4953526581
  0
POLYLINE
  8
0
 62
7
  6
CONTINUOUS
 66
1
 70
0
  0
VERTEX
  8
0
 62
7
  6
CONTINUOUS
 10
135.3301985479
 20
239.8474653223
  0
VERTEX
  8
0
 62
7
  6
CONTINUOUS
 10
135.3110290212
 20
239.8296667483
  0
VERTEX
  8
0
 62
7
  6
CONTINUOUS
 10
135.2853645703
 20
239.804754916
  0
VERTEX
  8
0
 62
7
  6
CONTINUOUS
 10
135.2609117837
 20
239.7798535312
  0
VERTEX
  8
0
 62
7
  6
CONTINUOUS
 10
135.2375277498
 20
239.754958463
  0
VERTEX
  8
0
 62
7
  6
CONTINUOUS
 10
135.2150835456
 20
239.7300517586
  0
VERTEX
  8
0
 62
7
  6
CONTINUOUS
 10
135.1934487209
 20
239.7050877249
  0
VERTEX
  8
0
 62
7
  6
CONTINUOUS
 10
135.1724998334
 20
239.6800007862
  0
VERTEX
  8
0
 62
7
  6
CONTINUOUS
 10
135.1521241064
 20
239.6547165175
  0
VERTEX
  8
0
 62
7
  6
CONTINUOUS
 10
135.1322154
 20
239.6291495035
  0
VERTEX
  8
0
 62
7
  6
CONTINUOUS
 10
135.112725722
 20
239.6032707927
  0
VERTEX
  8
0
 62
7
  6
CONTINUOUS
 10
135.0936410849
 20
239.5770898562
  0
VERTEX
  8
0
 62
7
  6
CONTINUOUS
 10
135.0749446207
 20
239.550609963
  0
VERTEX
  8
0
 62
7
  6
CONTINUOUS
 10
135.0566181212
 20
239.523825846
  0
VERTEX
  8
0
 62
7
  6
CONTINUOUS
 10
135.0386505094
 20
239.4967392742
  0
VERTEX
  8
0
 62
7
  6
CONTINUOUS
 10
135.021026624
 20
239.4693437567
  0
VERTEX
  8
0
 62
7
  6
CONTINUOUS
 10
135.0037318861
 20
239.4416267037
  0
VERTEX
  8
0
 62
7
  6
CONTINUOUS
 10
134.9867574331
 20
239.4135822646
  0
VERTEX
  8
0
 62
7
  6
CONTINUOUS
 10
134.9700881676
 20
239.3851906196
  0
VERTEX
  8
0
 62
7
  6
CONTINUOUS
 10
134.9537157608
 20
239.3564361989
  0
VERTEX
  8
0
 62
7
  6
CONTINUOUS
 10
134.9376400287
 20
239.3273170624
  0
VERTEX
  8
0
 62
7
  6
CONTINUOUS
 10
134.9218597209
 20
239.297823545
  0
VERTEX
  8
0
 62
7
  6
CONTINUOUS
 10
134.906381234
 20
239.267958151
  0
VERTEX
  8
0
 62
7
  6
CONTINUOUS
 10
134.8912037194
 20
239.2377068061
  0
VERTEX
  8
0
 62
7
  6
CONTINUOUS
 10
134.8763339275
 20
239.207063843
  0
VERTEX
  8
0
 62
7
  6
CONTINUOUS
 10
134.8617739609
 20
239.176013078
  0
VERTEX
  8
0
 62
7
  6
CONTINUOUS
 10
134.8475302245
 20
239.1445369807
  0
VERTEX
  8
0
 62
7
  6
CONTINUOUS
 10
134.8336083871
 20
239.112614764
  0
VERTEX
  8
0
 62
7
  6
CONTINUOUS
 10
134.8200160399
 20
239.0802158435
  0
VERTEX
  8
0
 62
7
  6
CONTINUOUS
 10
134.8067619363
 20
239.0473079129
  0
VERTEX
  8
0
 62
7
  6
CONTINUOUS
 10
134.7938584657
 20
239.0138480181
  0
VERTEX
  8
0
 62
7
  6
CONTINUOUS
 10
134.7813274016
 20
238.9798090825
  0
VERTEX
  8
0
 62
7
  6
CONTINUOUS
 10
134.7692095642
 20
238.9451956295
  0
VERTEX
  8
0
 62
7
  6
CONTINUOUS
 10
134.7575413267
 20
238.9099890304
  0
VERTEX
  8
0
 62
7
  6
CONTINUOUS
 10
134.7463706949
 20
238.8741852556
  0
VERTEX
  8
0
 62
7
  6
CONTINUOUS
 10
134.7357456706
 20
238.8377483829
  0
VERTEX
  8
0
 62
7
  6
CONTINUOUS
 10
134.7257214203
 20
238.8006330065
  0
VERTEX
  8
0
 62
7
  6
CONTINUOUS
 10
134.7163749861
 20
238.7628178355
  0
VERTEX
  8
0
 62
7
  6
CONTINUOUS
 10
134.7078198117
 20
238.7243721924
  0
VERTEX
  8
0
 62
7
  6
CONTINUOUS
 10
134.7001876271
 20
238.6854136645
  0
VERTEX
  8
0
 62
7
  6
CONTINUOUS
 10
134.6936235094
 20
238.6461015935
  0
VERTEX
  8
0
 62
7
  6
CONTINUOUS
 10
134.6882895367
 20
238.6066864915
  0
VERTEX
  8
0
 62
7
  6
CONTINUOUS
 10
134.6843463593
 20
238.5674637614
  0
VERTEX
  8
0
 62
7
  6
CONTINUOUS
 10
134.6819464002
 20
238.5289140339
  0
VERTEX
  8
0
 62
7
  6
CONTINUOUS
 10
134.6811872269
 20
238.4932644982
  0
SEQEND
  0
POLYLINE
  8
0
 62
7
  6
CONTINUOUS
 66
1
 70
0
  0
VERTEX
  8
0
 62
7
  6
CONTINUOUS
 10
121.6672338899
 20
239.9287711731
  0
VERTEX
  8
0
 62
7
  6
CONTINUOUS
 10
121.6177429023
 20
239.8849618452
  0
VERTEX
  8
0
 62
7
  6
CONTINUOUS
 10
121.576197004
 20
239.8474628842
  0
SEQEND
  0
POLYLINE
  8
0
 62
7
  6
CONTINUOUS
 66
1
 70
0
  0
VERTEX
  8
0
 62
7
  6
CONTINUOUS
 10
135.4212338899
 20
239.9287711731
  0
VERTEX
  8
0
 62
7
  6
CONTINUOUS
 10
135.3717429023
 20
239.8849618452
  0
VERTEX
  8
0
 62
7
  6
CONTINUOUS
 10
135.330197004
 20
239.8474628842
  0
SEQEND
  0
LINE
  8
0
 62
7
  6
CONTINUOUS
 10
121.7095262367
 20
239.9654690702
 11
121.6672338899
 21
239.9287711731
  0
LINE
  8
0
 62
7
  6
CONTINUOUS
 10
135.4635262367
 20
239.9654690702
 11
135.4212338899
 21
239.9287711731
  0
POLYLINE
  8
0
 62
7
  6
CONTINUOUS
 66
1
 70
0
  0
VERTEX
  8
0
 62
7
  6
CONTINUOUS
 10
111.7359480621
 20
239.8855458957
  0
VERTEX
  8
0
 62
7
  6
CONTINUOUS
 10
111.6864560562
 20
239.9293437891
  0
VERTEX
  8
0
 62
7
  6
CONTINUOUS
 10
111.6448176506
 20
239.9654690703
  0
SEQEND
  0
LINE
  8
0
 62
7
  6
CONTINUOUS
 10
111.7781468845
 20
239.8474628808
 11
111.7359480621
 21
239.8855458957
  0
LINE
  8
0
 62
7
  6
CONTINUOUS
 10
126.2781468845
 20
239.8474628808
 11
126.2359480621
 21
239.8855458957
  0
POLYLINE
  8
0
 62
7
  6
CONTINUOUS
 66
1
 70
0
  0
VERTEX
  8
0
 62
7
  6
CONTINUOUS
 10
179.1771719521
 20
238.4932645009
  0
VERTEX
  8
0
 62
7
  6
CONTINUOUS
 10
179.1761919188
 20
238.5338604361
  0
VERTEX
  8
0
 62
7
  6
CONTINUOUS
 10
179.1734818258
 20
238.5736931452
  0
VERTEX
  8
0
 62
7
  6
CONTINUOUS
 10
179.1691744069
 20
238.6140299707
  0
VERTEX
  8
0
 62
7
  6
CONTINUOUS
 10
179.1634855343
 20
238.6541715145
  0
VERTEX
  8
0
 62
7
  6
CONTINUOUS
 10
179.1566426079
 20
238.6936808114
  0
VERTEX
  8
0
 62
7
  6
CONTINUOUS
 10
179.1488169682
 20
238.7324773186
  0
VERTEX
  8
0
 62
7
  6
CONTINUOUS
 10
179.1401343821
 20
238.7705942712
  0
VERTEX
  8
0
 62
7
  6
CONTINUOUS
 10
179.1306976706
 20
238.8080588126
  0
VERTEX
  8
0
 62
7
  6
CONTINUOUS
 10
179.1205938087
 20
238.8448787616
  0
VERTEX
  8
0
 62
7
  6
CONTINUOUS
 10
179.1098932015
 20
238.8810744705
  0
VERTEX
  8
0
 62
7
  6
CONTINUOUS
 10
179.0986350653
 20
238.9167298858
  0
VERTEX
  8
0
 62
7
  6
CONTINUOUS
 10
179.0868362701
 20
238.9519433473
  0
VERTEX
  8
0
 62
7
  6
CONTINUOUS
 10
179.0745011815
 20
238.9868144884
  0
VERTEX
  8
0
 62
7
  6
CONTINUOUS
 10
179.0616377533
 20
239.0214014193
  0
VERTEX
  8
0
 62
7
  6
CONTINUOUS
 10
179.0482422789
 20
239.0557669174
  0
VERTEX
  8
0
 62
7
  6
CONTINUOUS
 10
179.0343103435
 20
239.0899621701
  0
VERTEX
  8
0
 62
7
  6
CONTINUOUS
 10
179.019830853
 20
239.1240319295
  0
VERTEX
  8
0
 62
7
  6
CONTINUOUS
 10
179.0047912895
 20
239.1580169728
  0
VERTEX
  8
0
 62
7
  6
CONTINUOUS
 10
178.9891789193
 20
239.1919408549
  0
VERTEX
  8
0
 62
7
  6
CONTINUOUS
 10
178.9729773456
 20
239.2258306053
  0
VERTEX
  8
0
 62
7
  6
CONTINUOUS
 10
178.9561787019
 20
239.2596822461
  0
VERTEX
  8
0
 62
7
  6
CONTINUOUS
 10
178.9387911267
 20
239.2934603094
  0
VERTEX
  8
0
 62
7
  6
CONTINUOUS
 10
178.9208290851
 20
239.3271127075
  0
VERTEX
  8
0
 62
7
  6
CONTINUOUS
 10
178.9023047855
 20
239.3605967387
  0
VERTEX
  8
0
 62
7
  6
CONTINUOUS
 10
178.8832306947
 20
239.3938652748
  0
VERTEX
  8
0
 62
7
  6
CONTINUOUS
 10
178.8636168323
 20
239.4268796807
  0
VERTEX
  8
0
 62
7
  6
CONTINUOUS
 10
178.8434609829
 20
239.4596168319
  0
VERTEX
  8
0
 62
7
  6
CONTINUOUS
 10
178.8227669312
 20
239.4920438801
  0
VERTEX
  8
0
 62
7
  6
CONTINUOUS
 10
178.8015284218
 20
239.5241401194
  0
VERTEX
  8
0
 62
7
  6
CONTINUOUS
 10
178.7797474051
 20
239.5558684651
  0
VERTEX
  8
0
 62
7
  6
CONTINUOUS
 10
178.7574185358
 20
239.5872024901
  0
VERTEX
  8
0
 62
7
  6
CONTINUOUS
 10
178.7345364396
 20
239.6181086948
  0
VERTEX
  8
0
 62
7
  6
CONTINUOUS
 10
178.7110997301
 20
239.6485478248
  0
VERTEX
  8
0
 62
7
  6
CONTINUOUS
 10
178.6870695093
 20
239.6785226246
  0
VERTEX
  8
0
 62
7
  6
CONTINUOUS
 10
178.6622893697
 20
239.7081613774
  0
VERTEX
  8
0
 62
7
  6
CONTINUOUS
 10
178.6365564377
 20
239.7376124882
  0
VERTEX
  8
0
 62
7
  6
CONTINUOUS
 10
178.609650773
 20
239.7669936221
  0
VERTEX
  8
0
 62
7
  6
CONTINUOUS
 10
178.5813535755
 20
239.7963704129
  0
VERTEX
  8
0
 62
7
  6
CONTINUOUS
 10
178.5514177803
 20
239.8257816966
  0
VERTEX
  8
0
 62
7
  6
CONTINUOUS
 10
178.5281572911
 20
239.8474671214
  0
SEQEND
  0
LINE
  8
0
 62
7
  6
CONTINUOUS
 10
173.1771719437
 20
227.4953526581
 11
173.1771719437
 21
238.4932644982
  0
LINE
  8
0
 62
7
  6
CONTINUOUS
 10
173.9271719437
 20
240.7441601292
 11
173.9271719437
 21
239.9374071126
  0
LINE
  8
0
 62
7
  6
CONTINUOUS
 10
178.4271719437
 20
240.7441601292
 11
178.4271719437
 21
239.937411136
  0
LINE
  8
0
 62
7
  6
CONTINUOUS
 10
179.1771719437
 20
238.4932498802
 11
179.1771719437
 21
227.4953526581
  0
POLYLINE
  8
0
 62
7
  6
CONTINUOUS
 66
1
 70
0
  0
VERTEX
  8
0
 62
7
  6
CONTINUOUS
 10
148.4261841851
 20
239.847465323
  0
VERTEX
  8
0
 62
7
  6
CONTINUOUS
 10
148.4070146579
 20
239.8296667485
  0
VERTEX
  8
0
 62
7
  6
CONTINUOUS
 10
148.381350206
 20
239.8047549148
  0
VERTEX
  8
0
 62
7
  6
CONTINUOUS
 10
148.3568974212
 20
239.7798535317
  0
VERTEX
  8
0
 62
7
  6
CONTINUOUS
 10
148.3335133869
 20
239.7549584635
  0
VERTEX
  8
0
 62
7
  6
CONTINUOUS
 10
148.3110691807
 20
239.7300517567
  0
VERTEX
  8
0
 62
7
  6
CONTINUOUS
 10
148.2894343581
 20
239.7050877251
  0
VERTEX
  8
0
 62
7
  6
CONTINUOUS
 10
148.2684854705
 20
239.6800007867
  0
VERTEX
  8
0
 62
7
  6
CONTINUOUS
 10
148.2481097418
 20
239.6547165159
  0
VERTEX
  8
0
 62
7
  6
CONTINUOUS
 10
148.2282010368
 20
239.6291495032
  0
VERTEX
  8
0
 62
7
  6
CONTINUOUS
 10
148.208711359
 20
239.6032707931
  0
VERTEX
  8
0
 62
7
  6
CONTINUOUS
 10
148.1896267206
 20
239.5770898547
  0
VERTEX
  8
0
 62
7
  6
CONTINUOUS
 10
148.1709302574
 20
239.5506099626
  0
VERTEX
  8
0
 62
7
  6
CONTINUOUS
 10
148.1526037582
 20
239.5238258462
  0
VERTEX
  8
0
 62
7
  6
CONTINUOUS
 10
148.1346361452
 20
239.4967392727
  0
VERTEX
  8
0
 62
7
  6
CONTINUOUS
 10
148.1170122609
 20
239.4693437567
  0
VERTEX
  8
0
 62
7
  6
CONTINUOUS
 10
148.0997175229
 20
239.4416267038
  0
VERTEX
  8
0
 62
7
  6
CONTINUOUS
 10
148.0827430695
 20
239.4135822636
  0
VERTEX
  8
0
 62
7
  6
CONTINUOUS
 10
148.0660738047
 20
239.38519062
  0
VERTEX
  8
0
 62
7
  6
CONTINUOUS
 10
148.0497013973
 20
239.3564361985
  0
VERTEX
  8
0
 62
7
  6
CONTINUOUS
 10
148.0336256656
 20
239.3273170625
  0
VERTEX
  8
0
 62
7
  6
CONTINUOUS
 10
148.0178453579
 20
239.2978235454
  0
VERTEX
  8
0
 62
7
  6
CONTINUOUS
 10
148.0023668707
 20
239.2679581506
  0
VERTEX
  8
0
 62
7
  6
CONTINUOUS
 10
147.9871893566
 20
239.2377068069
  0
VERTEX
  8
0
 62
7
  6
CONTINUOUS
 10
147.972319564
 20
239.2070638421
  0
VERTEX
  8
0
 62
7
  6
CONTINUOUS
 10
147.9577595982
 20
239.1760130791
  0
VERTEX
  8
0
 62
7
  6
CONTINUOUS
 10
147.9435158609
 20
239.1445369798
  0
VERTEX
  8
0
 62
7
  6
CONTINUOUS
 10
147.9295940245
 20
239.1126147653
  0
VERTEX
  8
0
 62
7
  6
CONTINUOUS
 10
147.9160016762
 20
239.0802158424
  0
VERTEX
  8
0
 62
7
  6
CONTINUOUS
 10
147.9027475737
 20
239.0473079144
  0
VERTEX
  8
0
 62
7
  6
CONTINUOUS
 10
147.8898441023
 20
239.0138480171
  0
VERTEX
  8
0
 62
7
  6
CONTINUOUS
 10
147.8773130389
 20
238.9798090841
  0
VERTEX
  8
0
 62
7
  6
CONTINUOUS
 10
147.8651952014
 20
238.94519563
  0
VERTEX
  8
0
 62
7
  6
CONTINUOUS
 10
147.8535269637
 20
238.9099890313
  0
VERTEX
  8
0
 62
7
  6
CONTINUOUS
 10
147.8423563323
 20
238.8741852575
  0
VERTEX
  8
0
 62
7
  6
CONTINUOUS
 10
147.8317313077
 20
238.8377483832
  0
VERTEX
  8
0
 62
7
  6
CONTINUOUS
 10
147.8217070573
 20
238.8006330075
  0
VERTEX
  8
0
 62
7
  6
CONTINUOUS
 10
147.8123606234
 20
238.7628178375
  0
VERTEX
  8
0
 62
7
  6
CONTINUOUS
 10
147.803805449
 20
238.7243721937
  0
VERTEX
  8
0
 62
7
  6
CONTINUOUS
 10
147.7961732641
 20
238.6854136647
  0
VERTEX
  8
0
 62
7
  6
CONTINUOUS
 10
147.7896091463
 20
238.6461015944
  0
VERTEX
  8
0
 62
7
  6
CONTINUOUS
 10
147.7842751736
 20
238.6066864925
  0
VERTEX
  8
0
 62
7
  6
CONTINUOUS
 10
147.7803319962
 20
238.5674637623
  0
VERTEX
  8
0
 62
7
  6
CONTINUOUS
 10
147.7779320372
 20
238.5289140349
  0
VERTEX
  8
0
 62
7
  6
CONTINUOUS
 10
147.7771728637
 20
238.4932644982
  0
SEQEND
  0
POLYLINE
  8
0
 62
7
  6
CONTINUOUS
 66
1
 70
0
  0
VERTEX
  8
0
 62
7
  6
CONTINUOUS
 10
161.1261841851
 20
239.847465323
  0
VERTEX
  8
0
 62
7
  6
CONTINUOUS
 10
161.1070146579
 20
239.8296667485
  0
VERTEX
  8
0
 62
7
  6
CONTINUOUS
 10
161.081350206
 20
239.8047549148
  0
VERTEX
  8
0
 62
7
  6
CONTINUOUS
 10
161.0568974212
 20
239.7798535317
  0
VERTEX
  8
0
 62
7
  6
CONTINUOUS
 10
161.0335133869
 20
239.7549584635
  0
VERTEX
  8
0
 62
7
  6
CONTINUOUS
 10
161.0110691807
 20
239.7300517567
  0
VERTEX
  8
0
 62
7
  6
CONTINUOUS
 10
160.9894343581
 20
239.7050877251
  0
VERTEX
  8
0
 62
7
  6
CONTINUOUS
 10
160.9684854705
 20
239.6800007867
  0
VERTEX
  8
0
 62
7
  6
CONTINUOUS
 10
160.9481097418
 20
239.6547165159
  0
VERTEX
  8
0
 62
7
  6
CONTINUOUS
 10
160.9282010368
 20
239.6291495032
  0
VERTEX
  8
0
 62
7
  6
CONTINUOUS
 10
160.908711359
 20
239.6032707931
  0
VERTEX
  8
0
 62
7
  6
CONTINUOUS
 10
160.8896267206
 20
239.5770898547
  0
VERTEX
  8
0
 62
7
  6
CONTINUOUS
 10
160.8709302574
 20
239.5506099626
  0
VERTEX
  8
0
 62
7
  6
CONTINUOUS
 10
160.8526037582
 20
239.5238258462
  0
VERTEX
  8
0
 62
7
  6
CONTINUOUS
 10
160.8346361452
 20
239.4967392727
  0
VERTEX
  8
0
 62
7
  6
CONTINUOUS
 10
160.8170122609
 20
239.4693437567
  0
VERTEX
  8
0
 62
7
  6
CONTINUOUS
 10
160.7997175229
 20
239.4416267038
  0
VERTEX
  8
0
 62
7
  6
CONTINUOUS
 10
160.7827430695
 20
239.4135822636
  0
VERTEX
  8
0
 62
7
  6
CONTINUOUS
 10
160.7660738047
 20
239.38519062
  0
VERTEX
  8
0
 62
7
  6
CONTINUOUS
 10
160.7497013973
 20
239.3564361985
  0
VERTEX
  8
0
 62
7
  6
CONTINUOUS
 10
160.7336256656
 20
239.3273170625
  0
VERTEX
  8
0
 62
7
  6
CONTINUOUS
 10
160.7178453579
 20
239.2978235454
  0
VERTEX
  8
0
 62
7
  6
CONTINUOUS
 10
160.7023668707
 20
239.2679581506
  0
VERTEX
  8
0
 62
7
  6
CONTINUOUS
 10
160.6871893566
 20
239.2377068069
  0
VERTEX
  8
0
 62
7
  6
CONTINUOUS
 10
160.672319564
 20
239.2070638421
  0
VERTEX
  8
0
 62
7
  6
CONTINUOUS
 10
160.6577595982
 20
239.1760130791
  0
VERTEX
  8
0
 62
7
  6
CONTINUOUS
 10
160.6435158609
 20
239.1445369798
  0
VERTEX
  8
0
 62
7
  6
CONTINUOUS
 10
160.6295940245
 20
239.1126147653
  0
VERTEX
  8
0
 62
7
  6
CONTINUOUS
 10
160.6160016762
 20
239.0802158424
  0
VERTEX
  8
0
 62
7
  6
CONTINUOUS
 10
160.6027475737
 20
239.0473079144
  0
VERTEX
  8
0
 62
7
  6
CONTINUOUS
 10
160.5898441023
 20
239.0138480171
  0
VERTEX
  8
0
 62
7
  6
CONTINUOUS
 10
160.5773130389
 20
238.9798090841
  0
VERTEX
  8
0
 62
7
  6
CONTINUOUS
 10
160.5651952014
 20
238.94519563
  0
VERTEX
  8
0
 62
7
  6
CONTINUOUS
 10
160.5535269637
 20
238.9099890313
  0
VERTEX
  8
0
 62
7
  6
CONTINUOUS
 10
160.5423563323
 20
238.8741852575
  0
VERTEX
  8
0
 62
7
  6
CONTINUOUS
 10
160.5317313077
 20
238.8377483832
  0
VERTEX
  8
0
 62
7
  6
CONTINUOUS
 10
160.5217070573
 20
238.8006330075
  0
VERTEX
  8
0
 62
7
  6
CONTINUOUS
 10
160.5123606234
 20
238.7628178375
  0
VERTEX
  8
0
 62
7
  6
CONTINUOUS
 10
160.503805449
 20
238.7243721937
  0
VERTEX
  8
0
 62
7
  6
CONTINUOUS
 10
160.4961732641
 20
238.6854136647
  0
VERTEX
  8
0
 62
7
  6
CONTINUOUS
 10
160.4896091463
 20
238.6461015944
  0
VERTEX
  8
0
 62
7
  6
CONTINUOUS
 10
160.4842751736
 20
238.6066864925
  0
VERTEX
  8
0
 62
7
  6
CONTINUOUS
 10
160.4803319962
 20
238.5674637623
  0
VERTEX
  8
0
 62
7
  6
CONTINUOUS
 10
160.4779320372
 20
238.5289140349
  0
VERTEX
  8
0
 62
7
  6
CONTINUOUS
 10
160.4771728637
 20
238.4932644982
  0
SEQEND
  0
POLYLINE
  8
0
 62
7
  6
CONTINUOUS
 66
1
 70
0
  0
VERTEX
  8
0
 62
7
  6
CONTINUOUS
 10
148.5172293359
 20
239.9287797636
  0
VERTEX
  8
0
 62
7
  6
CONTINUOUS
 10
148.4677334375
 20
239.8849662275
  0
VERTEX
  8
0
 62
7
  6
CONTINUOUS
 10
148.4261826409
 20
239.8474628842
  0
SEQEND
  0
LINE
  8
0
 62
7
  6
CONTINUOUS
 10
148.5595266025
 20
239.9654817324
 11
148.5172293359
 21
239.9287797636
  0
POLYLINE
  8
0
 62
7
  6
CONTINUOUS
 66
1
 70
0
  0
VERTEX
  8
0
 62
7
  6
CONTINUOUS
 10
126.2359480621
 20
239.8855458957
  0
VERTEX
  8
0
 62
7
  6
CONTINUOUS
 10
126.1864560562
 20
239.9293437891
  0
VERTEX
  8
0
 62
7
  6
CONTINUOUS
 10
126.1448176506
 20
239.9654690703
  0
SEQEND
  0
POLYLINE
  8
0
 62
7
  6
CONTINUOUS
 66
1
 70
0
  0
VERTEX
  8
0
 62
7
  6
CONTINUOUS
 10
139.9899480621
 20
239.8855458957
  0
VERTEX
  8
0
 62
7
  6
CONTINUOUS
 10
139.9404560562
 20
239.9293437891
  0
VERTEX
  8
0
 62
7
  6
CONTINUOUS
 10
139.8988176506
 20
239.9654690703
  0
SEQEND
  0
LINE
  8
0
 62
7
  6
CONTINUOUS
 10
140.0321468845
 20
239.8474628808
 11
139.9899480621
 21
239.8855458957
  0
POLYLINE
  8
0
 62
7
  6
CONTINUOUS
 66
1
 70
0
  0
VERTEX
  8
0
 62
7
  6
CONTINUOUS
 10
191.8771719521
 20
238.4932645009
  0
VERTEX
  8
0
 62
7
  6
CONTINUOUS
 10
191.8761919188
 20
238.5338604361
  0
VERTEX
  8
0
 62
7
  6
CONTINUOUS
 10
191.8734818258
 20
238.5736931452
  0
VERTEX
  8
0
 62
7
  6
CONTINUOUS
 10
191.8691744069
 20
238.6140299707
  0
VERTEX
  8
0
 62
7
  6
CONTINUOUS
 10
191.8634855343
 20
238.6541715145
  0
VERTEX
  8
0
 62
7
  6
CONTINUOUS
 10
191.8566426079
 20
238.6936808114
  0
VERTEX
  8
0
 62
7
  6
CONTINUOUS
 10
191.8488169682
 20
238.7324773186
  0
VERTEX
  8
0
 62
7
  6
CONTINUOUS
 10
191.8401343821
 20
238.7705942712
  0
VERTEX
  8
0
 62
7
  6
CONTINUOUS
 10
191.8306976706
 20
238.8080588126
  0
VERTEX
  8
0
 62
7
  6
CONTINUOUS
 10
191.8205938087
 20
238.8448787616
  0
VERTEX
  8
0
 62
7
  6
CONTINUOUS
 10
191.8098932015
 20
238.8810744705
  0
VERTEX
  8
0
 62
7
  6
CONTINUOUS
 10
191.7986350653
 20
238.9167298858
  0
VERTEX
  8
0
 62
7
  6
CONTINUOUS
 10
191.7868362701
 20
238.9519433473
  0
VERTEX
  8
0
 62
7
  6
CONTINUOUS
 10
191.7745011815
 20
238.9868144884
  0
VERTEX
  8
0
 62
7
  6
CONTINUOUS
 10
191.7616377533
 20
239.0214014193
  0
VERTEX
  8
0
 62
7
  6
CONTINUOUS
 10
191.7482422789
 20
239.0557669174
  0
VERTEX
  8
0
 62
7
  6
CONTINUOUS
 10
191.7343103435
 20
239.0899621701
  0
VERTEX
  8
0
 62
7
  6
CONTINUOUS
 10
191.719830853
 20
239.1240319295
  0
VERTEX
  8
0
 62
7
  6
CONTINUOUS
 10
191.7047912895
 20
239.1580169728
  0
VERTEX
  8
0
 62
7
  6
CONTINUOUS
 10
191.6891789193
 20
239.1919408549
  0
VERTEX
  8
0
 62
7
  6
CONTINUOUS
 10
191.6729773456
 20
239.2258306053
  0
VERTEX
  8
0
 62
7
  6
CONTINUOUS
 10
191.6561787019
 20
239.2596822461
  0
VERTEX
  8
0
 62
7
  6
CONTINUOUS
 10
191.6387911267
 20
239.2934603094
  0
VERTEX
  8
0
 62
7
  6
CONTINUOUS
 10
191.6208290851
 20
239.3271127075
  0
VERTEX
  8
0
 62
7
  6
CONTINUOUS
 10
191.6023047855
 20
239.3605967387
  0
VERTEX
  8
0
 62
7
  6
CONTINUOUS
 10
191.5832306947
 20
239.3938652748
  0
VERTEX
  8
0
 62
7
  6
CONTINUOUS
 10
191.5636168323
 20
239.4268796807
  0
VERTEX
  8
0
 62
7
  6
CONTINUOUS
 10
191.5434609829
 20
239.4596168319
  0
VERTEX
  8
0
 62
7
  6
CONTINUOUS
 10
191.5227669312
 20
239.4920438801
  0
VERTEX
  8
0
 62
7
  6
CONTINUOUS
 10
191.5015284218
 20
239.5241401194
  0
VERTEX
  8
0
 62
7
  6
CONTINUOUS
 10
191.4797474051
 20
239.5558684651
  0
VERTEX
  8
0
 62
7
  6
CONTINUOUS
 10
191.4574185358
 20
239.5872024901
  0
VERTEX
  8
0
 62
7
  6
CONTINUOUS
 10
191.4345364396
 20
239.6181086948
  0
VERTEX
  8
0
 62
7
  6
CONTINUOUS
 10
191.4110997301
 20
239.6485478248
  0
VERTEX
  8
0
 62
7
  6
CONTINUOUS
 10
191.3870695093
 20
239.6785226246
  0
VERTEX
  8
0
 62
7
  6
CONTINUOUS
 10
191.3622893697
 20
239.7081613774
  0
VERTEX
  8
0
 62
7
  6
CONTINUOUS
 10
191.3365564377
 20
239.7376124882
  0
VERTEX
  8
0
 62
7
  6
CONTINUOUS
 10
191.309650773
 20
239.7669936221
  0
VERTEX
  8
0
 62
7
  6
CONTINUOUS
 10
191.2813535755
 20
239.7963704129
  0
VERTEX
  8
0
 62
7
  6
CONTINUOUS
 10
191.2514177803
 20
239.8257816966
  0
VERTEX
  8
0
 62
7
  6
CONTINUOUS
 10
191.2281572911
 20
239.8474671214
  0
SEQEND
  0
LINE
  8
0
 62
7
  6
CONTINUOUS
 10
185.8771719437
 20
227.4953526581
 11
185.8771719437
 21
238.4932644982
  0
LINE
  8
0
 62
7
  6
CONTINUOUS
 10
186.6271719437
 20
240.7441601292
 11
186.6271719437
 21
239.9374071126
  0
LINE
  8
0
 62
7
  6
CONTINUOUS
 10
191.1271719437
 20
240.7441586888
 11
191.1271719437
 21
239.937411136
  0
LINE
  8
0
 62
7
  6
CONTINUOUS
 10
191.8771719437
 20
238.4932498802
 11
191.8771719437
 21
227.4953526581
  0
POLYLINE
  8
0
 62
7
  6
CONTINUOUS
 66
1
 70
0
  0
VERTEX
  8
0
 62
7
  6
CONTINUOUS
 10
173.8261841851
 20
239.847465323
  0
VERTEX
  8
0
 62
7
  6
CONTINUOUS
 10
173.8070146579
 20
239.8296667485
  0
VERTEX
  8
0
 62
7
  6
CONTINUOUS
 10
173.781350206
 20
239.8047549148
  0
VERTEX
  8
0
 62
7
  6
CONTINUOUS
 10
173.7568974212
 20
239.7798535317
  0
VERTEX
  8
0
 62
7
  6
CONTINUOUS
 10
173.7335133869
 20
239.7549584635
  0
VERTEX
  8
0
 62
7
  6
CONTINUOUS
 10
173.7110691807
 20
239.7300517567
  0
VERTEX
  8
0
 62
7
  6
CONTINUOUS
 10
173.6894343581
 20
239.7050877251
  0
VERTEX
  8
0
 62
7
  6
CONTINUOUS
 10
173.6684854705
 20
239.6800007867
  0
VERTEX
  8
0
 62
7
  6
CONTINUOUS
 10
173.6481097418
 20
239.6547165159
  0
VERTEX
  8
0
 62
7
  6
CONTINUOUS
 10
173.6282010368
 20
239.6291495032
  0
VERTEX
  8
0
 62
7
  6
CONTINUOUS
 10
173.608711359
 20
239.6032707931
  0
VERTEX
  8
0
 62
7
  6
CONTINUOUS
 10
173.5896267206
 20
239.5770898547
  0
VERTEX
  8
0
 62
7
  6
CONTINUOUS
 10
173.5709302574
 20
239.5506099626
  0
VERTEX
  8
0
 62
7
  6
CONTINUOUS
 10
173.5526037582
 20
239.5238258462
  0
VERTEX
  8
0
 62
7
  6
CONTINUOUS
 10
173.5346361452
 20
239.4967392727
  0
VERTEX
  8
0
 62
7
  6
CONTINUOUS
 10
173.5170122609
 20
239.4693437567
  0
VERTEX
  8
0
 62
7
  6
CONTINUOUS
 10
173.4997175229
 20
239.4416267038
  0
VERTEX
  8
0
 62
7
  6
CONTINUOUS
 10
173.4827430695
 20
239.4135822636
  0
VERTEX
  8
0
 62
7
  6
CONTINUOUS
 10
173.4660738047
 20
239.38519062
  0
VERTEX
  8
0
 62
7
  6
CONTINUOUS
 10
173.4497013973
 20
239.3564361985
  0
VERTEX
  8
0
 62
7
  6
CONTINUOUS
 10
173.4336256656
 20
239.3273170625
  0
VERTEX
  8
0
 62
7
  6
CONTINUOUS
 10
173.4178453579
 20
239.2978235454
  0
VERTEX
  8
0
 62
7
  6
CONTINUOUS
 10
173.4023668707
 20
239.2679581506
  0
VERTEX
  8
0
 62
7
  6
CONTINUOUS
 10
173.3871893566
 20
239.2377068069
  0
VERTEX
  8
0
 62
7
  6
CONTINUOUS
 10
173.372319564
 20
239.2070638421
  0
VERTEX
  8
0
 62
7
  6
CONTINUOUS
 10
173.3577595982
 20
239.1760130791
  0
VERTEX
  8
0
 62
7
  6
CONTINUOUS
 10
173.3435158609
 20
239.1445369798
  0
VERTEX
  8
0
 62
7
  6
CONTINUOUS
 10
173.3295940245
 20
239.1126147653
  0
VERTEX
  8
0
 62
7
  6
CONTINUOUS
 10
173.3160016762
 20
239.0802158424
  0
VERTEX
  8
0
 62
7
  6
CONTINUOUS
 10
173.3027475737
 20
239.0473079144
  0
VERTEX
  8
0
 62
7
  6
CONTINUOUS
 10
173.2898441023
 20
239.0138480171
  0
VERTEX
  8
0
 62
7
  6
CONTINUOUS
 10
173.2773130389
 20
238.9798090841
  0
VERTEX
  8
0
 62
7
  6
CONTINUOUS
 10
173.2651952014
 20
238.94519563
  0
VERTEX
  8
0
 62
7
  6
CONTINUOUS
 10
173.2535269637
 20
238.9099890313
  0
VERTEX
  8
0
 62
7
  6
CONTINUOUS
 10
173.2423563323
 20
238.8741852575
  0
VERTEX
  8
0
 62
7
  6
CONTINUOUS
 10
173.2317313077
 20
238.8377483832
  0
VERTEX
  8
0
 62
7
  6
CONTINUOUS
 10
173.2217070573
 20
238.8006330075
  0
VERTEX
  8
0
 62
7
  6
CONTINUOUS
 10
173.2123606234
 20
238.7628178375
  0
VERTEX
  8
0
 62
7
  6
CONTINUOUS
 10
173.203805449
 20
238.7243721937
  0
VERTEX
  8
0
 62
7
  6
CONTINUOUS
 10
173.1961732641
 20
238.6854136647
  0
VERTEX
  8
0
 62
7
  6
CONTINUOUS
 10
173.1896091463
 20
238.6461015944
  0
VERTEX
  8
0
 62
7
  6
CONTINUOUS
 10
173.1842751736
 20
238.6066864925
  0
VERTEX
  8
0
 62
7
  6
CONTINUOUS
 10
173.1803319962
 20
238.5674637623
  0
VERTEX
  8
0
 62
7
  6
CONTINUOUS
 10
173.1779320372
 20
238.5289140349
  0
VERTEX
  8
0
 62
7
  6
CONTINUOUS
 10
173.1771728637
 20
238.4932644982
  0
SEQEND
  0
POLYLINE
  8
0
 62
7
  6
CONTINUOUS
 66
1
 70
0
  0
VERTEX
  8
0
 62
7
  6
CONTINUOUS
 10
161.2172293359
 20
239.9287797636
  0
VERTEX
  8
0
 62
7
  6
CONTINUOUS
 10
161.1677334375
 20
239.8849662275
  0
VERTEX
  8
0
 62
7
  6
CONTINUOUS
 10
161.1261826409
 20
239.8474628842
  0
SEQEND
  0
POLYLINE
  8
0
 62
7
  6
CONTINUOUS
 66
1
 70
0
  0
VERTEX
  8
0
 62
7
  6
CONTINUOUS
 10
173.9172293359
 20
239.9287797636
  0
VERTEX
  8
0
 62
7
  6
CONTINUOUS
 10
173.8677334375
 20
239.8849662275
  0
VERTEX
  8
0
 62
7
  6
CONTINUOUS
 10
173.8261826409
 20
239.8474628842
  0
SEQEND
  0
LINE
  8
0
 62
7
  6
CONTINUOUS
 10
161.2595266025
 20
239.9654817324
 11
161.2172293359
 21
239.9287797636
  0
LINE
  8
0
 62
7
  6
CONTINUOUS
 10
173.9595266025
 20
239.9654817324
 11
173.9172293359
 21
239.9287797636
  0
POLYLINE
  8
0
 62
7
  6
CONTINUOUS
 66
1
 70
0
  0
VERTEX
  8
0
 62
7
  6
CONTINUOUS
 10
153.0859575429
 20
239.8855502625
  0
VERTEX
  8
0
 62
7
  6
CONTINUOUS
 10
153.0364606264
 20
239.9293523627
  0
VERTEX
  8
0
 62
7
  6
CONTINUOUS
 10
152.9948172853
 20
239.9654817318
  0
SEQEND
  0
POLYLINE
  8
0
 62
7
  6
CONTINUOUS
 66
1
 70
0
  0
VERTEX
  8
0
 62
7
  6
CONTINUOUS
 10
165.7859575429
 20
239.8855502625
  0
VERTEX
  8
0
 62
7
  6
CONTINUOUS
 10
165.7364606264
 20
239.9293523627
  0
VERTEX
  8
0
 62
7
  6
CONTINUOUS
 10
165.6948172853
 20
239.9654817318
  0
SEQEND
  0
LINE
  8
0
 62
7
  6
CONTINUOUS
 10
153.1281612473
 20
239.8474628817
 11
153.0859575429
 21
239.8855502625
  0
LINE
  8
0
 62
7
  6
CONTINUOUS
 10
165.8281612473
 20
239.8474628817
 11
165.7859575429
 21
239.8855502625
  0
POLYLINE
  8
0
 62
7
  6
CONTINUOUS
 66
1
 70
0
  0
VERTEX
  8
0
 62
7
  6
CONTINUOUS
 10
204.5771719521
 20
238.4932645009
  0
VERTEX
  8
0
 62
7
  6
CONTINUOUS
 10
204.5761919188
 20
238.5338604361
  0
VERTEX
  8
0
 62
7
  6
CONTINUOUS
 10
204.5734818258
 20
238.5736931452
  0
VERTEX
  8
0
 62
7
  6
CONTINUOUS
 10
204.5691744069
 20
238.6140299707
  0
VERTEX
  8
0
 62
7
  6
CONTINUOUS
 10
204.5634855343
 20
238.6541715145
  0
VERTEX
  8
0
 62
7
  6
CONTINUOUS
 10
204.5566426079
 20
238.6936808114
  0
VERTEX
  8
0
 62
7
  6
CONTINUOUS
 10
204.5488169682
 20
238.7324773186
  0
VERTEX
  8
0
 62
7
  6
CONTINUOUS
 10
204.5401343821
 20
238.7705942712
  0
VERTEX
  8
0
 62
7
  6
CONTINUOUS
 10
204.5306976706
 20
238.8080588126
  0
VERTEX
  8
0
 62
7
  6
CONTINUOUS
 10
204.5205938087
 20
238.8448787616
  0
VERTEX
  8
0
 62
7
  6
CONTINUOUS
 10
204.5098932015
 20
238.8810744705
  0
VERTEX
  8
0
 62
7
  6
CONTINUOUS
 10
204.4986350653
 20
238.9167298858
  0
VERTEX
  8
0
 62
7
  6
CONTINUOUS
 10
204.4868362701
 20
238.9519433473
  0
VERTEX
  8
0
 62
7
  6
CONTINUOUS
 10
204.4745011815
 20
238.9868144884
  0
VERTEX
  8
0
 62
7
  6
CONTINUOUS
 10
204.4616377533
 20
239.0214014193
  0
VERTEX
  8
0
 62
7
  6
CONTINUOUS
 10
204.4482422789
 20
239.0557669174
  0
VERTEX
  8
0
 62
7
  6
CONTINUOUS
 10
204.4343103435
 20
239.0899621701
  0
VERTEX
  8
0
 62
7
  6
CONTINUOUS
 10
204.419830853
 20
239.1240319295
  0
VERTEX
  8
0
 62
7
  6
CONTINUOUS
 10
204.4047912895
 20
239.1580169728
  0
VERTEX
  8
0
 62
7
  6
CONTINUOUS
 10
204.3891789193
 20
239.1919408549
  0
VERTEX
  8
0
 62
7
  6
CONTINUOUS
 10
204.3729773456
 20
239.2258306053
  0
VERTEX
  8
0
 62
7
  6
CONTINUOUS
 10
204.3561787019
 20
239.2596822461
  0
VERTEX
  8
0
 62
7
  6
CONTINUOUS
 10
204.3387911267
 20
239.2934603094
  0
VERTEX
  8
0
 62
7
  6
CONTINUOUS
 10
204.3208290851
 20
239.3271127075
  0
VERTEX
  8
0
 62
7
  6
CONTINUOUS
 10
204.3023047855
 20
239.3605967387
  0
VERTEX
  8
0
 62
7
  6
CONTINUOUS
 10
204.2832306947
 20
239.3938652748
  0
VERTEX
  8
0
 62
7
  6
CONTINUOUS
 10
204.2636168323
 20
239.4268796807
  0
VERTEX
  8
0
 62
7
  6
CONTINUOUS
 10
204.2434609829
 20
239.4596168319
  0
VERTEX
  8
0
 62
7
  6
CONTINUOUS
 10
204.2227669312
 20
239.4920438801
  0
VERTEX
  8
0
 62
7
  6
CONTINUOUS
 10
204.2015284218
 20
239.5241401194
  0
VERTEX
  8
0
 62
7
  6
CONTINUOUS
 10
204.1797474051
 20
239.5558684651
  0
VERTEX
  8
0
 62
7
  6
CONTINUOUS
 10
204.1574185358
 20
239.5872024901
  0
VERTEX
  8
0
 62
7
  6
CONTINUOUS
 10
204.1345364396
 20
239.6181086948
  0
VERTEX
  8
0
 62
7
  6
CONTINUOUS
 10
204.1110997301
 20
239.6485478248
  0
VERTEX
  8
0
 62
7
  6
CONTINUOUS
 10
204.0870695093
 20
239.6785226246
  0
VERTEX
  8
0
 62
7
  6
CONTINUOUS
 10
204.0622893697
 20
239.7081613774
  0
VERTEX
  8
0
 62
7
  6
CONTINUOUS
 10
204.0365564377
 20
239.7376124882
  0
VERTEX
  8
0
 62
7
  6
CONTINUOUS
 10
204.009650773
 20
239.7669936221
  0
VERTEX
  8
0
 62
7
  6
CONTINUOUS
 10
203.9813535755
 20
239.7963704129
  0
VERTEX
  8
0
 62
7
  6
CONTINUOUS
 10
203.9514177803
 20
239.8257816966
  0
VERTEX
  8
0
 62
7
  6
CONTINUOUS
 10
203.9281572911
 20
239.8474671214
  0
SEQEND
  0
LINE
  8
0
 62
7
  6
CONTINUOUS
 10
198.5771719437
 20
227.4953526581
 11
198.5771719437
 21
238.4932644982
  0
LINE
  8
0
 62
7
  6
CONTINUOUS
 10
199.3271719437
 20
240.7441601292
 11
199.3271719437
 21
239.9374071126
  0
LINE
  8
0
 62
7
  6
CONTINUOUS
 10
203.8271719437
 20
240.7441586888
 11
203.8271719437
 21
239.937411136
  0
LINE
  8
0
 62
7
  6
CONTINUOUS
 10
204.5771719437
 20
238.4932498802
 11
204.5771719437
 21
227.4953526581
  0
POLYLINE
  8
0
 62
7
  6
CONTINUOUS
 66
1
 70
0
  0
VERTEX
  8
0
 62
7
  6
CONTINUOUS
 10
186.5261841851
 20
239.847465323
  0
VERTEX
  8
0
 62
7
  6
CONTINUOUS
 10
186.5070146579
 20
239.8296667485
  0
VERTEX
  8
0
 62
7
  6
CONTINUOUS
 10
186.481350206
 20
239.8047549148
  0
VERTEX
  8
0
 62
7
  6
CONTINUOUS
 10
186.4568974212
 20
239.7798535317
  0
VERTEX
  8
0
 62
7
  6
CONTINUOUS
 10
186.4335133869
 20
239.7549584635
  0
VERTEX
  8
0
 62
7
  6
CONTINUOUS
 10
186.4110691807
 20
239.7300517567
  0
VERTEX
  8
0
 62
7
  6
CONTINUOUS
 10
186.3894343581
 20
239.7050877251
  0
VERTEX
  8
0
 62
7
  6
CONTINUOUS
 10
186.3684854705
 20
239.6800007867
  0
VERTEX
  8
0
 62
7
  6
CONTINUOUS
 10
186.3481097418
 20
239.6547165159
  0
VERTEX
  8
0
 62
7
  6
CONTINUOUS
 10
186.3282010368
 20
239.6291495032
  0
VERTEX
  8
0
 62
7
  6
CONTINUOUS
 10
186.308711359
 20
239.6032707931
  0
VERTEX
  8
0
 62
7
  6
CONTINUOUS
 10
186.2896267206
 20
239.5770898547
  0
VERTEX
  8
0
 62
7
  6
CONTINUOUS
 10
186.2709302574
 20
239.5506099626
  0
VERTEX
  8
0
 62
7
  6
CONTINUOUS
 10
186.2526037582
 20
239.5238258462
  0
VERTEX
  8
0
 62
7
  6
CONTINUOUS
 10
186.2346361452
 20
239.4967392727
  0
VERTEX
  8
0
 62
7
  6
CONTINUOUS
 10
186.2170122609
 20
239.4693437567
  0
VERTEX
  8
0
 62
7
  6
CONTINUOUS
 10
186.1997175229
 20
239.4416267038
  0
VERTEX
  8
0
 62
7
  6
CONTINUOUS
 10
186.1827430695
 20
239.4135822636
  0
VERTEX
  8
0
 62
7
  6
CONTINUOUS
 10
186.1660738047
 20
239.38519062
  0
VERTEX
  8
0
 62
7
  6
CONTINUOUS
 10
186.1497013973
 20
239.3564361985
  0
VERTEX
  8
0
 62
7
  6
CONTINUOUS
 10
186.1336256656
 20
239.3273170625
  0
VERTEX
  8
0
 62
7
  6
CONTINUOUS
 10
186.1178453579
 20
239.2978235454
  0
VERTEX
  8
0
 62
7
  6
CONTINUOUS
 10
186.1023668707
 20
239.2679581506
  0
VERTEX
  8
0
 62
7
  6
CONTINUOUS
 10
186.0871893566
 20
239.2377068069
  0
VERTEX
  8
0
 62
7
  6
CONTINUOUS
 10
186.072319564
 20
239.2070638421
  0
VERTEX
  8
0
 62
7
  6
CONTINUOUS
 10
186.0577595982
 20
239.1760130791
  0
VERTEX
  8
0
 62
7
  6
CONTINUOUS
 10
186.0435158609
 20
239.1445369798
  0
VERTEX
  8
0
 62
7
  6
CONTINUOUS
 10
186.0295940245
 20
239.1126147653
  0
VERTEX
  8
0
 62
7
  6
CONTINUOUS
 10
186.0160016762
 20
239.0802158424
  0
VERTEX
  8
0
 62
7
  6
CONTINUOUS
 10
186.0027475737
 20
239.0473079144
  0
VERTEX
  8
0
 62
7
  6
CONTINUOUS
 10
185.9898441023
 20
239.0138480171
  0
VERTEX
  8
0
 62
7
  6
CONTINUOUS
 10
185.9773130389
 20
238.9798090841
  0
VERTEX
  8
0
 62
7
  6
CONTINUOUS
 10
185.9651952014
 20
238.94519563
  0
VERTEX
  8
0
 62
7
  6
CONTINUOUS
 10
185.9535269637
 20
238.9099890313
  0
VERTEX
  8
0
 62
7
  6
CONTINUOUS
 10
185.9423563323
 20
238.8741852575
  0
VERTEX
  8
0
 62
7
  6
CONTINUOUS
 10
185.9317313077
 20
238.8377483832
  0
VERTEX
  8
0
 62
7
  6
CONTINUOUS
 10
185.9217070573
 20
238.8006330075
  0
VERTEX
  8
0
 62
7
  6
CONTINUOUS
 10
185.9123606234
 20
238.7628178375
  0
VERTEX
  8
0
 62
7
  6
CONTINUOUS
 10
185.903805449
 20
238.7243721937
  0
VERTEX
  8
0
 62
7
  6
CONTINUOUS
 10
185.8961732641
 20
238.6854136647
  0
VERTEX
  8
0
 62
7
  6
CONTINUOUS
 10
185.8896091463
 20
238.6461015944
  0
VERTEX
  8
0
 62
7
  6
CONTINUOUS
 10
185.8842751736
 20
238.6066864925
  0
VERTEX
  8
0
 62
7
  6
CONTINUOUS
 10
185.8803319962
 20
238.5674637623
  0
VERTEX
  8
0
 62
7
  6
CONTINUOUS
 10
185.8779320372
 20
238.5289140349
  0
VERTEX
  8
0
 62
7
  6
CONTINUOUS
 10
185.8771728637
 20
238.4932644982
  0
SEQEND
  0
POLYLINE
  8
0
 62
7
  6
CONTINUOUS
 66
1
 70
0
  0
VERTEX
  8
0
 62
7
  6
CONTINUOUS
 10
199.2261841851
 20
239.847465323
  0
VERTEX
  8
0
 62
7
  6
CONTINUOUS
 10
199.2070146579
 20
239.8296667485
  0
VERTEX
  8
0
 62
7
  6
CONTINUOUS
 10
199.181350206
 20
239.8047549148
  0
VERTEX
  8
0
 62
7
  6
CONTINUOUS
 10
199.1568974212
 20
239.7798535317
  0
VERTEX
  8
0
 62
7
  6
CONTINUOUS
 10
199.1335133869
 20
239.7549584635
  0
VERTEX
  8
0
 62
7
  6
CONTINUOUS
 10
199.1110691807
 20
239.7300517567
  0
VERTEX
  8
0
 62
7
  6
CONTINUOUS
 10
199.0894343581
 20
239.7050877251
  0
VERTEX
  8
0
 62
7
  6
CONTINUOUS
 10
199.0684854705
 20
239.6800007867
  0
VERTEX
  8
0
 62
7
  6
CONTINUOUS
 10
199.0481097418
 20
239.6547165159
  0
VERTEX
  8
0
 62
7
  6
CONTINUOUS
 10
199.0282010368
 20
239.6291495032
  0
VERTEX
  8
0
 62
7
  6
CONTINUOUS
 10
199.008711359
 20
239.6032707931
  0
VERTEX
  8
0
 62
7
  6
CONTINUOUS
 10
198.9896267206
 20
239.5770898547
  0
VERTEX
  8
0
 62
7
  6
CONTINUOUS
 10
198.9709302574
 20
239.5506099626
  0
VERTEX
  8
0
 62
7
  6
CONTINUOUS
 10
198.9526037582
 20
239.5238258462
  0
VERTEX
  8
0
 62
7
  6
CONTINUOUS
 10
198.9346361452
 20
239.4967392727
  0
VERTEX
  8
0
 62
7
  6
CONTINUOUS
 10
198.9170122609
 20
239.4693437567
  0
VERTEX
  8
0
 62
7
  6
CONTINUOUS
 10
198.8997175229
 20
239.4416267038
  0
VERTEX
  8
0
 62
7
  6
CONTINUOUS
 10
198.8827430695
 20
239.4135822636
  0
VERTEX
  8
0
 62
7
  6
CONTINUOUS
 10
198.8660738047
 20
239.38519062
  0
VERTEX
  8
0
 62
7
  6
CONTINUOUS
 10
198.8497013973
 20
239.3564361985
  0
VERTEX
  8
0
 62
7
  6
CONTINUOUS
 10
198.8336256656
 20
239.3273170625
  0
VERTEX
  8
0
 62
7
  6
CONTINUOUS
 10
198.8178453579
 20
239.2978235454
  0
VERTEX
  8
0
 62
7
  6
CONTINUOUS
 10
198.8023668707
 20
239.2679581506
  0
VERTEX
  8
0
 62
7
  6
CONTINUOUS
 10
198.7871893566
 20
239.2377068069
  0
VERTEX
  8
0
 62
7
  6
CONTINUOUS
 10
198.772319564
 20
239.2070638421
  0
VERTEX
  8
0
 62
7
  6
CONTINUOUS
 10
198.7577595982
 20
239.1760130791
  0
VERTEX
  8
0
 62
7
  6
CONTINUOUS
 10
198.7435158609
 20
239.1445369798
  0
VERTEX
  8
0
 62
7
  6
CONTINUOUS
 10
198.7295940245
 20
239.1126147653
  0
VERTEX
  8
0
 62
7
  6
CONTINUOUS
 10
198.7160016762
 20
239.0802158424
  0
VERTEX
  8
0
 62
7
  6
CONTINUOUS
 10
198.7027475737
 20
239.0473079144
  0
VERTEX
  8
0
 62
7
  6
CONTINUOUS
 10
198.6898441023
 20
239.0138480171
  0
VERTEX
  8
0
 62
7
  6
CONTINUOUS
 10
198.6773130389
 20
238.9798090841
  0
VERTEX
  8
0
 62
7
  6
CONTINUOUS
 10
198.6651952014
 20
238.94519563
  0
VERTEX
  8
0
 62
7
  6
CONTINUOUS
 10
198.6535269637
 20
238.9099890313
  0
VERTEX
  8
0
 62
7
  6
CONTINUOUS
 10
198.6423563323
 20
238.8741852575
  0
VERTEX
  8
0
 62
7
  6
CONTINUOUS
 10
198.6317313077
 20
238.8377483832
  0
VERTEX
  8
0
 62
7
  6
CONTINUOUS
 10
198.6217070573
 20
238.8006330075
  0
VERTEX
  8
0
 62
7
  6
CONTINUOUS
 10
198.6123606234
 20
238.7628178375
  0
VERTEX
  8
0
 62
7
  6
CONTINUOUS
 10
198.603805449
 20
238.7243721937
  0
VERTEX
  8
0
 62
7
  6
CONTINUOUS
 10
198.5961732641
 20
238.6854136647
  0
VERTEX
  8
0
 62
7
  6
CONTINUOUS
 10
198.5896091463
 20
238.6461015944
  0
VERTEX
  8
0
 62
7
  6
CONTINUOUS
 10
198.5842751736
 20
238.6066864925
  0
VERTEX
  8
0
 62
7
  6
CONTINUOUS
 10
198.5803319962
 20
238.5674637623
  0
VERTEX
  8
0
 62
7
  6
CONTINUOUS
 10
198.5779320372
 20
238.5289140349
  0
VERTEX
  8
0
 62
7
  6
CONTINUOUS
 10
198.5771728637
 20
238.4932644982
  0
SEQEND
  0
POLYLINE
  8
0
 62
7
  6
CONTINUOUS
 66
1
 70
0
  0
VERTEX
  8
0
 62
7
  6
CONTINUOUS
 10
186.6172293359
 20
239.9287797636
  0
VERTEX
  8
0
 62
7
  6
CONTINUOUS
 10
186.5677334375
 20
239.8849662275
  0
VERTEX
  8
0
 62
7
  6
CONTINUOUS
 10
186.5261826409
 20
239.8474628842
  0
SEQEND
  0
POLYLINE
  8
0
 62
7
  6
CONTINUOUS
 66
1
 70
0
  0
VERTEX
  8
0
 62
7
  6
CONTINUOUS
 10
199.3172293359
 20
239.9287797636
  0
VERTEX
  8
0
 62
7
  6
CONTINUOUS
 10
199.2677334375
 20
239.8849662275
  0
VERTEX
  8
0
 62
7
  6
CONTINUOUS
 10
199.2261826409
 20
239.8474628842
  0
SEQEND
  0
LINE
  8
0
 62
7
  6
CONTINUOUS
 10
186.6595266025
 20
239.9654817324
 11
186.6172293359
 21
239.9287797636
  0
LINE
  8
0
 62
7
  6
CONTINUOUS
 10
199.3595266025
 20
239.9654817324
 11
199.3172293359
 21
239.9287797636
  0
POLYLINE
  8
0
 62
7
  6
CONTINUOUS
 66
1
 70
0
  0
VERTEX
  8
0
 62
7
  6
CONTINUOUS
 10
113.3611264822
 20
226.7672789801
  0
VERTEX
  8
0
 62
7
  6
CONTINUOUS
 10
113.1738118317
 20
226.7996984523
  0
VERTEX
  8
0
 62
7
  6
CONTINUOUS
 10
113.0620430893
 20
226.8180939106
  0
VERTEX
  8
0
 62
7
  6
CONTINUOUS
 10
112.9404625837
 20
226.8362682531
  0
VERTEX
  8
0
 62
7
  6
CONTINUOUS
 10
112.8110092626
 20
226.8530138191
  0
VERTEX
  8
0
 62
7
  6
CONTINUOUS
 10
112.6757773196
 20
226.8672693289
  0
VERTEX
  8
0
 62
7
  6
CONTINUOUS
 10
112.5364946092
 20
226.8782289917
  0
VERTEX
  8
0
 62
7
  6
CONTINUOUS
 10
112.394198136
 20
226.8853428997
  0
VERTEX
  8
0
 62
7
  6
CONTINUOUS
 10
112.2496495663
 20
226.888237113
  0
SEQEND
  0
POLYLINE
  8
AXES
 62
7
  6
CONTINUOUS
 66
1
 70
0
  0
VERTEX
  8
AXES
 62
7
  6
CONTINUOUS
 10
112.5453407044
 20
231.2613726565
  0
VERTEX
  8
AXES
 62
7
  6
CONTINUOUS
 10
112.5202483011
 20
231.2692254461
  0
VERTEX
  8
AXES
 62
7
  6
CONTINUOUS
 10
112.4964500013
 20
231.2818259421
  0
VERTEX
  8
AXES
 62
7
  6
CONTINUOUS
 10
112.4750549275
 20
231.299051773
  0
VERTEX
  8
AXES
 62
7
  6
CONTINUOUS
 10
112.4561878181
 20
231.3216962309
  0
VERTEX
  8
AXES
 62
7
  6
CONTINUOUS
 10
112.4410384768
 20
231.3500474769
  0
VERTEX
  8
AXES
 62
7
  6
CONTINUOUS
 10
112.4309393709
 20
231.3840122303
  0
VERTEX
  8
AXES
 62
7
  6
CONTINUOUS
 10
112.4271575805
 20
231.4243334458
  0
SEQEND
  0
POLYLINE
  8
0
 62
7
  6
CONTINUOUS
 66
1
 70
0
  0
VERTEX
  8
0
 62
7
  6
CONTINUOUS
 10
178.4859575429
 20
239.8855502625
  0
VERTEX
  8
0
 62
7
  6
CONTINUOUS
 10
178.4364606264
 20
239.9293523627
  0
VERTEX
  8
0
 62
7
  6
CONTINUOUS
 10
178.3948172853
 20
239.9654817318
  0
SEQEND
  0
LINE
  8
0
 62
7
  6
CONTINUOUS
 10
178.5281612473
 20
239.8474628817
 11
178.4859575429
 21
239.8855502625
  0
POLYLINE
  8
0
 62
7
  6
CONTINUOUS
 66
1
 70
0
  0
VERTEX
  8
0
 62
7
  6
CONTINUOUS
 10
217.2771719521
 20
238.4932645009
  0
VERTEX
  8
0
 62
7
  6
CONTINUOUS
 10
217.2761919188
 20
238.5338604361
  0
VERTEX
  8
0
 62
7
  6
CONTINUOUS
 10
217.2734818258
 20
238.5736931452
  0
VERTEX
  8
0
 62
7
  6
CONTINUOUS
 10
217.2691744069
 20
238.6140299707
  0
VERTEX
  8
0
 62
7
  6
CONTINUOUS
 10
217.2634855343
 20
238.6541715145
  0
VERTEX
  8
0
 62
7
  6
CONTINUOUS
 10
217.2566426079
 20
238.6936808114
  0
VERTEX
  8
0
 62
7
  6
CONTINUOUS
 10
217.2488169682
 20
238.7324773186
  0
VERTEX
  8
0
 62
7
  6
CONTINUOUS
 10
217.2401343821
 20
238.7705942712
  0
VERTEX
  8
0
 62
7
  6
CONTINUOUS
 10
217.2306976706
 20
238.8080588126
  0
VERTEX
  8
0
 62
7
  6
CONTINUOUS
 10
217.2205938087
 20
238.8448787616
  0
VERTEX
  8
0
 62
7
  6
CONTINUOUS
 10
217.2098932015
 20
238.8810744705
  0
VERTEX
  8
0
 62
7
  6
CONTINUOUS
 10
217.1986350653
 20
238.9167298858
  0
VERTEX
  8
0
 62
7
  6
CONTINUOUS
 10
217.1868362701
 20
238.9519433473
  0
VERTEX
  8
0
 62
7
  6
CONTINUOUS
 10
217.1745011815
 20
238.9868144884
  0
VERTEX
  8
0
 62
7
  6
CONTINUOUS
 10
217.1616377533
 20
239.0214014193
  0
VERTEX
  8
0
 62
7
  6
CONTINUOUS
 10
217.1482422789
 20
239.0557669174
  0
VERTEX
  8
0
 62
7
  6
CONTINUOUS
 10
217.1343103435
 20
239.0899621701
  0
VERTEX
  8
0
 62
7
  6
CONTINUOUS
 10
217.119830853
 20
239.1240319295
  0
VERTEX
  8
0
 62
7
  6
CONTINUOUS
 10
217.1047912895
 20
239.1580169728
  0
VERTEX
  8
0
 62
7
  6
CONTINUOUS
 10
217.0891789193
 20
239.1919408549
  0
VERTEX
  8
0
 62
7
  6
CONTINUOUS
 10
217.0729773456
 20
239.2258306053
  0
VERTEX
  8
0
 62
7
  6
CONTINUOUS
 10
217.0561787019
 20
239.2596822461
  0
VERTEX
  8
0
 62
7
  6
CONTINUOUS
 10
217.0387911267
 20
239.2934603094
  0
VERTEX
  8
0
 62
7
  6
CONTINUOUS
 10
217.0208290851
 20
239.3271127075
  0
VERTEX
  8
0
 62
7
  6
CONTINUOUS
 10
217.0023047855
 20
239.3605967387
  0
VERTEX
  8
0
 62
7
  6
CONTINUOUS
 10
216.9832306947
 20
239.3938652748
  0
VERTEX
  8
0
 62
7
  6
CONTINUOUS
 10
216.9636168323
 20
239.4268796807
  0
VERTEX
  8
0
 62
7
  6
CONTINUOUS
 10
216.9434609829
 20
239.4596168319
  0
VERTEX
  8
0
 62
7
  6
CONTINUOUS
 10
216.9227669312
 20
239.4920438801
  0
VERTEX
  8
0
 62
7
  6
CONTINUOUS
 10
216.9015284218
 20
239.5241401194
  0
VERTEX
  8
0
 62
7
  6
CONTINUOUS
 10
216.8797474051
 20
239.5558684651
  0
VERTEX
  8
0
 62
7
  6
CONTINUOUS
 10
216.8574185358
 20
239.5872024901
  0
VERTEX
  8
0
 62
7
  6
CONTINUOUS
 10
216.8345364396
 20
239.6181086948
  0
VERTEX
  8
0
 62
7
  6
CONTINUOUS
 10
216.8110997301
 20
239.6485478248
  0
VERTEX
  8
0
 62
7
  6
CONTINUOUS
 10
216.7870695093
 20
239.6785226246
  0
VERTEX
  8
0
 62
7
  6
CONTINUOUS
 10
216.7622893697
 20
239.7081613774
  0
VERTEX
  8
0
 62
7
  6
CONTINUOUS
 10
216.7365564377
 20
239.7376124882
  0
VERTEX
  8
0
 62
7
  6
CONTINUOUS
 10
216.709650773
 20
239.7669936221
  0
VERTEX
  8
0
 62
7
  6
CONTINUOUS
 10
216.6813535755
 20
239.7963704129
  0
VERTEX
  8
0
 62
7
  6
CONTINUOUS
 10
216.6514177803
 20
239.8257816966
  0
VERTEX
  8
0
 62
7
  6
CONTINUOUS
 10
216.6281572911
 20
239.8474671214
  0
SEQEND
  0
LINE
  8
0
 62
7
  6
CONTINUOUS
 10
211.2771719437
 20
227.4953526581
 11
211.2771719437
 21
238.4932644982
  0
LINE
  8
0
 62
7
  6
CONTINUOUS
 10
212.0271719437
 20
240.7441601292
 11
212.0271719437
 21
239.9374071126
  0
LINE
  8
0
 62
7
  6
CONTINUOUS
 10
216.5271719437
 20
240.7441586888
 11
216.5271719437
 21
239.937411136
  0
LINE
  8
0
 62
7
  6
CONTINUOUS
 10
217.2771719437
 20
238.4932498802
 11
217.2771719437
 21
227.4953526581
  0
POLYLINE
  8
0
 62
7
  6
CONTINUOUS
 66
1
 70
0
  0
VERTEX
  8
0
 62
7
  6
CONTINUOUS
 10
211.9261841851
 20
239.847465323
  0
VERTEX
  8
0
 62
7
  6
CONTINUOUS
 10
211.9070146579
 20
239.8296667485
  0
VERTEX
  8
0
 62
7
  6
CONTINUOUS
 10
211.881350206
 20
239.8047549148
  0
VERTEX
  8
0
 62
7
  6
CONTINUOUS
 10
211.8568974212
 20
239.7798535317
  0
VERTEX
  8
0
 62
7
  6
CONTINUOUS
 10
211.8335133869
 20
239.7549584635
  0
VERTEX
  8
0
 62
7
  6
CONTINUOUS
 10
211.8110691807
 20
239.7300517567
  0
VERTEX
  8
0
 62
7
  6
CONTINUOUS
 10
211.7894343581
 20
239.7050877251
  0
VERTEX
  8
0
 62
7
  6
CONTINUOUS
 10
211.7684854705
 20
239.6800007867
  0
VERTEX
  8
0
 62
7
  6
CONTINUOUS
 10
211.7481097418
 20
239.6547165159
  0
VERTEX
  8
0
 62
7
  6
CONTINUOUS
 10
211.7282010368
 20
239.6291495032
  0
VERTEX
  8
0
 62
7
  6
CONTINUOUS
 10
211.708711359
 20
239.6032707931
  0
VERTEX
  8
0
 62
7
  6
CONTINUOUS
 10
211.6896267206
 20
239.5770898547
  0
VERTEX
  8
0
 62
7
  6
CONTINUOUS
 10
211.6709302574
 20
239.5506099626
  0
VERTEX
  8
0
 62
7
  6
CONTINUOUS
 10
211.6526037582
 20
239.5238258462
  0
VERTEX
  8
0
 62
7
  6
CONTINUOUS
 10
211.6346361452
 20
239.4967392727
  0
VERTEX
  8
0
 62
7
  6
CONTINUOUS
 10
211.6170122609
 20
239.4693437567
  0
VERTEX
  8
0
 62
7
  6
CONTINUOUS
 10
211.5997175229
 20
239.4416267038
  0
VERTEX
  8
0
 62
7
  6
CONTINUOUS
 10
211.5827430695
 20
239.4135822636
  0
VERTEX
  8
0
 62
7
  6
CONTINUOUS
 10
211.5660738047
 20
239.38519062
  0
VERTEX
  8
0
 62
7
  6
CONTINUOUS
 10
211.5497013973
 20
239.3564361985
  0
VERTEX
  8
0
 62
7
  6
CONTINUOUS
 10
211.5336256656
 20
239.3273170625
  0
VERTEX
  8
0
 62
7
  6
CONTINUOUS
 10
211.5178453579
 20
239.2978235454
  0
VERTEX
  8
0
 62
7
  6
CONTINUOUS
 10
211.5023668707
 20
239.2679581506
  0
VERTEX
  8
0
 62
7
  6
CONTINUOUS
 10
211.4871893566
 20
239.2377068069
  0
VERTEX
  8
0
 62
7
  6
CONTINUOUS
 10
211.472319564
 20
239.2070638421
  0
VERTEX
  8
0
 62
7
  6
CONTINUOUS
 10
211.4577595982
 20
239.1760130791
  0
VERTEX
  8
0
 62
7
  6
CONTINUOUS
 10
211.4435158609
 20
239.1445369798
  0
VERTEX
  8
0
 62
7
  6
CONTINUOUS
 10
211.4295940245
 20
239.1126147653
  0
VERTEX
  8
0
 62
7
  6
CONTINUOUS
 10
211.4160016762
 20
239.0802158424
  0
VERTEX
  8
0
 62
7
  6
CONTINUOUS
 10
211.4027475737
 20
239.0473079144
  0
VERTEX
  8
0
 62
7
  6
CONTINUOUS
 10
211.3898441023
 20
239.0138480171
  0
VERTEX
  8
0
 62
7
  6
CONTINUOUS
 10
211.3773130389
 20
238.9798090841
  0
VERTEX
  8
0
 62
7
  6
CONTINUOUS
 10
211.3651952014
 20
238.94519563
  0
VERTEX
  8
0
 62
7
  6
CONTINUOUS
 10
211.3535269637
 20
238.9099890313
  0
VERTEX
  8
0
 62
7
  6
CONTINUOUS
 10
211.3423563323
 20
238.8741852575
  0
VERTEX
  8
0
 62
7
  6
CONTINUOUS
 10
211.3317313077
 20
238.8377483832
  0
VERTEX
  8
0
 62
7
  6
CONTINUOUS
 10
211.3217070573
 20
238.8006330075
  0
VERTEX
  8
0
 62
7
  6
CONTINUOUS
 10
211.3123606234
 20
238.7628178375
  0
VERTEX
  8
0
 62
7
  6
CONTINUOUS
 10
211.303805449
 20
238.7243721937
  0
VERTEX
  8
0
 62
7
  6
CONTINUOUS
 10
211.2961732641
 20
238.6854136647
  0
VERTEX
  8
0
 62
7
  6
CONTINUOUS
 10
211.2896091463
 20
238.6461015944
  0
VERTEX
  8
0
 62
7
  6
CONTINUOUS
 10
211.2842751736
 20
238.6066864925
  0
VERTEX
  8
0
 62
7
  6
CONTINUOUS
 10
211.2803319962
 20
238.5674637623
  0
VERTEX
  8
0
 62
7
  6
CONTINUOUS
 10
211.2779320372
 20
238.5289140349
  0
VERTEX
  8
0
 62
7
  6
CONTINUOUS
 10
211.2771728637
 20
238.4932644982
  0
SEQEND
  0
POLYLINE
  8
0
 62
7
  6
CONTINUOUS
 66
1
 70
0
  0
VERTEX
  8
0
 62
7
  6
CONTINUOUS
 10
212.0172293359
 20
239.9287797636
  0
VERTEX
  8
0
 62
7
  6
CONTINUOUS
 10
211.9677334375
 20
239.8849662275
  0
VERTEX
  8
0
 62
7
  6
CONTINUOUS
 10
211.9261826409
 20
239.8474628842
  0
SEQEND
  0
LINE
  8
0
 62
7
  6
CONTINUOUS
 10
212.0595266024
 20
239.9654817324
 11
212.0172293359
 21
239.9287797636
  0
POLYLINE
  8
0
 62
7
  6
CONTINUOUS
 66
1
 70
0
  0
VERTEX
  8
0
 62
7
  6
CONTINUOUS
 10
113.5362173974
 20
226.7453526581
  0
VERTEX
  8
0
 62
7
  6
CONTINUOUS
 10
113.4924456909
 20
226.7480256707
  0
VERTEX
  8
0
 62
7
  6
CONTINUOUS
 10
113.4341934672
 20
226.755543552
  0
VERTEX
  8
0
 62
7
  6
CONTINUOUS
 10
113.3611264822
 20
226.7672789801
  0
SEQEND
  0
POLYLINE
  8
0
 62
7
  6
CONTINUOUS
 66
1
 70
0
  0
VERTEX
  8
0
 62
7
  6
CONTINUOUS
 10
191.1859575429
 20
239.8855502625
  0
VERTEX
  8
0
 62
7
  6
CONTINUOUS
 10
191.1364606264
 20
239.9293523627
  0
VERTEX
  8
0
 62
7
  6
CONTINUOUS
 10
191.0948172853
 20
239.9654817318
  0
SEQEND
  0
POLYLINE
  8
0
 62
7
  6
CONTINUOUS
 66
1
 70
0
  0
VERTEX
  8
0
 62
7
  6
CONTINUOUS
 10
203.8859575429
 20
239.8855502625
  0
VERTEX
  8
0
 62
7
  6
CONTINUOUS
 10
203.8364606264
 20
239.9293523627
  0
VERTEX
  8
0
 62
7
  6
CONTINUOUS
 10
203.7948172853
 20
239.9654817318
  0
SEQEND
  0
LINE
  8
0
 62
7
  6
CONTINUOUS
 10
191.2281612473
 20
239.8474628817
 11
191.1859575429
 21
239.8855502625
  0
LINE
  8
0
 62
7
  6
CONTINUOUS
 10
203.9281612473
 20
239.8474628817
 11
203.8859575429
 21
239.8855502625
  0
POLYLINE
  8
0
 62
7
  6
CONTINUOUS
 66
1
 70
0
  0
VERTEX
  8
0
 62
7
  6
CONTINUOUS
 10
229.9771719521
 20
238.4932645009
  0
VERTEX
  8
0
 62
7
  6
CONTINUOUS
 10
229.9761919188
 20
238.5338604361
  0
VERTEX
  8
0
 62
7
  6
CONTINUOUS
 10
229.9734818258
 20
238.5736931452
  0
VERTEX
  8
0
 62
7
  6
CONTINUOUS
 10
229.9691744069
 20
238.6140299707
  0
VERTEX
  8
0
 62
7
  6
CONTINUOUS
 10
229.9634855343
 20
238.6541715145
  0
VERTEX
  8
0
 62
7
  6
CONTINUOUS
 10
229.9566426079
 20
238.6936808114
  0
VERTEX
  8
0
 62
7
  6
CONTINUOUS
 10
229.9488169682
 20
238.7324773186
  0
VERTEX
  8
0
 62
7
  6
CONTINUOUS
 10
229.9401343821
 20
238.7705942712
  0
VERTEX
  8
0
 62
7
  6
CONTINUOUS
 10
229.9306976706
 20
238.8080588126
  0
VERTEX
  8
0
 62
7
  6
CONTINUOUS
 10
229.9205938087
 20
238.8448787616
  0
VERTEX
  8
0
 62
7
  6
CONTINUOUS
 10
229.9098932015
 20
238.8810744705
  0
VERTEX
  8
0
 62
7
  6
CONTINUOUS
 10
229.8986350653
 20
238.9167298858
  0
VERTEX
  8
0
 62
7
  6
CONTINUOUS
 10
229.8868362701
 20
238.9519433473
  0
VERTEX
  8
0
 62
7
  6
CONTINUOUS
 10
229.8745011815
 20
238.9868144884
  0
VERTEX
  8
0
 62
7
  6
CONTINUOUS
 10
229.8616377533
 20
239.0214014193
  0
VERTEX
  8
0
 62
7
  6
CONTINUOUS
 10
229.8482422789
 20
239.0557669174
  0
VERTEX
  8
0
 62
7
  6
CONTINUOUS
 10
229.8343103435
 20
239.0899621701
  0
VERTEX
  8
0
 62
7
  6
CONTINUOUS
 10
229.819830853
 20
239.1240319295
  0
VERTEX
  8
0
 62
7
  6
CONTINUOUS
 10
229.8047912895
 20
239.1580169728
  0
VERTEX
  8
0
 62
7
  6
CONTINUOUS
 10
229.7891789193
 20
239.1919408549
  0
VERTEX
  8
0
 62
7
  6
CONTINUOUS
 10
229.7729773456
 20
239.2258306053
  0
VERTEX
  8
0
 62
7
  6
CONTINUOUS
 10
229.7561787019
 20
239.2596822461
  0
VERTEX
  8
0
 62
7
  6
CONTINUOUS
 10
229.7387911267
 20
239.2934603094
  0
VERTEX
  8
0
 62
7
  6
CONTINUOUS
 10
229.7208290851
 20
239.3271127075
  0
VERTEX
  8
0
 62
7
  6
CONTINUOUS
 10
229.7023047855
 20
239.3605967387
  0
VERTEX
  8
0
 62
7
  6
CONTINUOUS
 10
229.6832306947
 20
239.3938652748
  0
VERTEX
  8
0
 62
7
  6
CONTINUOUS
 10
229.6636168323
 20
239.4268796807
  0
VERTEX
  8
0
 62
7
  6
CONTINUOUS
 10
229.6434609829
 20
239.4596168319
  0
VERTEX
  8
0
 62
7
  6
CONTINUOUS
 10
229.6227669312
 20
239.4920438801
  0
VERTEX
  8
0
 62
7
  6
CONTINUOUS
 10
229.6015284218
 20
239.5241401194
  0
VERTEX
  8
0
 62
7
  6
CONTINUOUS
 10
229.5797474051
 20
239.5558684651
  0
VERTEX
  8
0
 62
7
  6
CONTINUOUS
 10
229.5574185358
 20
239.5872024901
  0
VERTEX
  8
0
 62
7
  6
CONTINUOUS
 10
229.5345364396
 20
239.6181086948
  0
VERTEX
  8
0
 62
7
  6
CONTINUOUS
 10
229.5110997301
 20
239.6485478248
  0
VERTEX
  8
0
 62
7
  6
CONTINUOUS
 10
229.4870695093
 20
239.6785226246
  0
VERTEX
  8
0
 62
7
  6
CONTINUOUS
 10
229.4622893697
 20
239.7081613774
  0
VERTEX
  8
0
 62
7
  6
CONTINUOUS
 10
229.4365564377
 20
239.7376124882
  0
VERTEX
  8
0
 62
7
  6
CONTINUOUS
 10
229.409650773
 20
239.7669936221
  0
VERTEX
  8
0
 62
7
  6
CONTINUOUS
 10
229.3813535755
 20
239.7963704129
  0
VERTEX
  8
0
 62
7
  6
CONTINUOUS
 10
229.3514177803
 20
239.8257816966
  0
VERTEX
  8
0
 62
7
  6
CONTINUOUS
 10
229.3281572911
 20
239.8474671214
  0
SEQEND
  0
POLYLINE
  8
0
 62
7
  6
CONTINUOUS
 66
1
 70
0
  0
VERTEX
  8
0
 62
7
  6
CONTINUOUS
 10
229.2271710698
 20
240.8333317185
  0
VERTEX
  8
0
 62
7
  6
CONTINUOUS
 10
229.2270175719
 20
240.8401170732
  0
VERTEX
  8
0
 62
7
  6
CONTINUOUS
 10
229.2250542059
 20
240.8584467264
  0
VERTEX
  8
0
 62
7
  6
CONTINUOUS
 10
229.2210530707
 20
240.8757404541
  0
VERTEX
  8
0
 62
7
  6
CONTINUOUS
 10
229.2152883984
 20
240.8918521834
  0
VERTEX
  8
0
 62
7
  6
CONTINUOUS
 10
229.2080187524
 20
240.9066842738
  0
VERTEX
  8
0
 62
7
  6
CONTINUOUS
 10
229.1994824095
 20
240.9201792248
  0
VERTEX
  8
0
 62
7
  6
CONTINUOUS
 10
229.1898942276
 20
240.9323118539
  0
VERTEX
  8
0
 62
7
  6
CONTINUOUS
 10
229.1794530462
 20
240.9430733046
  0
VERTEX
  8
0
 62
7
  6
CONTINUOUS
 10
229.1683727932
 20
240.9524475124
  0
VERTEX
  8
0
 62
7
  6
CONTINUOUS
 10
229.1568560931
 20
240.9604477472
  0
VERTEX
  8
0
 62
7
  6
CONTINUOUS
 10
229.1450902992
 20
240.9671133543
  0
VERTEX
  8
0
 62
7
  6
CONTINUOUS
 10
229.1332584369
 20
240.9725002259
  0
VERTEX
  8
0
 62
7
  6
CONTINUOUS
 10
229.1218119969
 20
240.9765975545
  0
VERTEX
  8
0
 62
7
  6
CONTINUOUS
 10
229.1114711204
 20
240.979438564
  0
VERTEX
  8
0
 62
7
  6
CONTINUOUS
 10
229.1028972348
 20
240.9812151084
  0
VERTEX
  8
0
 62
7
  6
CONTINUOUS
 10
229.0963056199
 20
240.9822431918
  0
VERTEX
  8
0
 62
7
  6
CONTINUOUS
 10
229.091288233
 20
240.9828399659
  0
VERTEX
  8
0
 62
7
  6
CONTINUOUS
 10
229.0873288026
 20
240.9832057291
  0
VERTEX
  8
0
 62
7
  6
CONTINUOUS
 10
229.0840340117
 20
240.9834463717
  0
VERTEX
  8
0
 62
7
  6
CONTINUOUS
 10
229.0811150386
 20
240.9836175016
  0
VERTEX
  8
0
 62
7
  6
CONTINUOUS
 10
229.0783845367
 20
240.9837475195
  0
VERTEX
  8
0
 62
7
  6
CONTINUOUS
 10
229.0757201461
 20
240.983851526
  0
VERTEX
  8
0
 62
7
  6
CONTINUOUS
 10
229.0730441069
 20
240.9839377865
  0
VERTEX
  8
0
 62
7
  6
CONTINUOUS
 10
229.070309432
 20
240.9840109841
  0
SEQEND
  0
LINE
  8
0
 62
7
  6
CONTINUOUS
 10
223.9771719437
 20
227.4953526581
 11
223.9771719437
 21
238.4932644982
  0
LINE
  8
0
 62
7
  6
CONTINUOUS
 10
224.7271719437
 20
240.7441601292
 11
224.7271719437
 21
239.9374071126
  0
LINE
  8
0
 62
7
  6
CONTINUOUS
 10
229.2271719437
 20
240.8333321558
 11
229.2271719437
 21
239.9374111566
  0
LINE
  8
0
 62
7
  6
CONTINUOUS
 10
229.9771719437
 20
238.4932498802
 11
229.9771719437
 21
227.4953526581
  0
POLYLINE
  8
0
 62
7
  6
CONTINUOUS
 66
1
 70
0
  0
VERTEX
  8
0
 62
7
  6
CONTINUOUS
 10
224.6261841851
 20
239.847465323
  0
VERTEX
  8
0
 62
7
  6
CONTINUOUS
 10
224.6070146579
 20
239.8296667485
  0
VERTEX
  8
0
 62
7
  6
CONTINUOUS
 10
224.581350206
 20
239.8047549148
  0
VERTEX
  8
0
 62
7
  6
CONTINUOUS
 10
224.5568974212
 20
239.7798535317
  0
VERTEX
  8
0
 62
7
  6
CONTINUOUS
 10
224.5335133869
 20
239.7549584635
  0
VERTEX
  8
0
 62
7
  6
CONTINUOUS
 10
224.5110691807
 20
239.7300517567
  0
VERTEX
  8
0
 62
7
  6
CONTINUOUS
 10
224.4894343581
 20
239.7050877251
  0
VERTEX
  8
0
 62
7
  6
CONTINUOUS
 10
224.4684854705
 20
239.6800007867
  0
VERTEX
  8
0
 62
7
  6
CONTINUOUS
 10
224.4481097418
 20
239.6547165159
  0
VERTEX
  8
0
 62
7
  6
CONTINUOUS
 10
224.4282010368
 20
239.6291495032
  0
VERTEX
  8
0
 62
7
  6
CONTINUOUS
 10
224.408711359
 20
239.6032707931
  0
VERTEX
  8
0
 62
7
  6
CONTINUOUS
 10
224.3896267206
 20
239.5770898547
  0
VERTEX
  8
0
 62
7
  6
CONTINUOUS
 10
224.3709302574
 20
239.5506099626
  0
VERTEX
  8
0
 62
7
  6
CONTINUOUS
 10
224.3526037582
 20
239.5238258462
  0
VERTEX
  8
0
 62
7
  6
CONTINUOUS
 10
224.3346361452
 20
239.4967392727
  0
VERTEX
  8
0
 62
7
  6
CONTINUOUS
 10
224.3170122609
 20
239.4693437567
  0
VERTEX
  8
0
 62
7
  6
CONTINUOUS
 10
224.2997175229
 20
239.4416267038
  0
VERTEX
  8
0
 62
7
  6
CONTINUOUS
 10
224.2827430695
 20
239.4135822636
  0
VERTEX
  8
0
 62
7
  6
CONTINUOUS
 10
224.2660738047
 20
239.38519062
  0
VERTEX
  8
0
 62
7
  6
CONTINUOUS
 10
224.2497013973
 20
239.3564361985
  0
VERTEX
  8
0
 62
7
  6
CONTINUOUS
 10
224.2336256656
 20
239.3273170625
  0
VERTEX
  8
0
 62
7
  6
CONTINUOUS
 10
224.2178453579
 20
239.2978235454
  0
VERTEX
  8
0
 62
7
  6
CONTINUOUS
 10
224.2023668707
 20
239.2679581506
  0
VERTEX
  8
0
 62
7
  6
CONTINUOUS
 10
224.1871893566
 20
239.2377068069
  0
VERTEX
  8
0
 62
7
  6
CONTINUOUS
 10
224.172319564
 20
239.2070638421
  0
VERTEX
  8
0
 62
7
  6
CONTINUOUS
 10
224.1577595982
 20
239.1760130791
  0
VERTEX
  8
0
 62
7
  6
CONTINUOUS
 10
224.1435158609
 20
239.1445369798
  0
VERTEX
  8
0
 62
7
  6
CONTINUOUS
 10
224.1295940245
 20
239.1126147653
  0
VERTEX
  8
0
 62
7
  6
CONTINUOUS
 10
224.1160016762
 20
239.0802158424
  0
VERTEX
  8
0
 62
7
  6
CONTINUOUS
 10
224.1027475737
 20
239.0473079144
  0
VERTEX
  8
0
 62
7
  6
CONTINUOUS
 10
224.0898441023
 20
239.0138480171
  0
VERTEX
  8
0
 62
7
  6
CONTINUOUS
 10
224.0773130389
 20
238.9798090841
  0
VERTEX
  8
0
 62
7
  6
CONTINUOUS
 10
224.0651952014
 20
238.94519563
  0
VERTEX
  8
0
 62
7
  6
CONTINUOUS
 10
224.0535269637
 20
238.9099890313
  0
VERTEX
  8
0
 62
7
  6
CONTINUOUS
 10
224.0423563323
 20
238.8741852575
  0
VERTEX
  8
0
 62
7
  6
CONTINUOUS
 10
224.0317313077
 20
238.8377483832
  0
VERTEX
  8
0
 62
7
  6
CONTINUOUS
 10
224.0217070573
 20
238.8006330075
  0
VERTEX
  8
0
 62
7
  6
CONTINUOUS
 10
224.0123606234
 20
238.7628178375
  0
VERTEX
  8
0
 62
7
  6
CONTINUOUS
 10
224.003805449
 20
238.7243721937
  0
VERTEX
  8
0
 62
7
  6
CONTINUOUS
 10
223.9961732641
 20
238.6854136647
  0
VERTEX
  8
0
 62
7
  6
CONTINUOUS
 10
223.9896091463
 20
238.6461015944
  0
VERTEX
  8
0
 62
7
  6
CONTINUOUS
 10
223.9842751736
 20
238.6066864925
  0
VERTEX
  8
0
 62
7
  6
CONTINUOUS
 10
223.9803319962
 20
238.5674637623
  0
VERTEX
  8
0
 62
7
  6
CONTINUOUS
 10
223.9779320372
 20
238.5289140349
  0
VERTEX
  8
0
 62
7
  6
CONTINUOUS
 10
223.9771728637
 20
238.4932644982
  0
SEQEND
  0
POLYLINE
  8
0
 62
7
  6
CONTINUOUS
 66
1
 70
0
  0
VERTEX
  8
0
 62
7
  6
CONTINUOUS
 10
224.7172293359
 20
239.9287797636
  0
VERTEX
  8
0
 62
7
  6
CONTINUOUS
 10
224.6677334375
 20
239.8849662275
  0
VERTEX
  8
0
 62
7
  6
CONTINUOUS
 10
224.6261826409
 20
239.8474628842
  0
SEQEND
  0
LINE
  8
0
 62
7
  6
CONTINUOUS
 10
224.7595266024
 20
239.9654817324
 11
224.7172293359
 21
239.9287797636
  0
POLYLINE
  8
0
 62
7
  6
CONTINUOUS
 66
1
 70
0
  0
VERTEX
  8
0
 62
7
  6
CONTINUOUS
 10
105.3181155564
 20
226.7453526583
  0
VERTEX
  8
0
 62
7
  6
CONTINUOUS
 10
105.3581011984
 20
226.7476473713
  0
VERTEX
  8
0
 62
7
  6
CONTINUOUS
 10
105.4103338737
 20
226.7541113782
  0
VERTEX
  8
0
 62
7
  6
CONTINUOUS
 10
105.4751965397
 20
226.7642590931
  0
VERTEX
  8
0
 62
7
  6
CONTINUOUS
 10
105.6406557571
 20
226.7928536252
  0
SEQEND
  0
LINE
  8
0
 62
7
  6
CONTINUOUS
 10
83.5771719437
 20
226.7453526581
 11
229.2271719437
 21
226.7453526581
  0
LINE
  8
AXES
 62
2
  6
CENTER
 10
83.4271719437
 20
232.7453526581
 11
225.6271719437
 21
232.7453526581
  0
POLYLINE
  8
0
 62
7
  6
CONTINUOUS
 66
1
 70
0
  0
VERTEX
  8
0
 62
7
  6
CONTINUOUS
 10
216.5859575429
 20
239.8855502625
  0
VERTEX
  8
0
 62
7
  6
CONTINUOUS
 10
216.5364606264
 20
239.9293523627
  0
VERTEX
  8
0
 62
7
  6
CONTINUOUS
 10
216.4948172853
 20
239.9654817318
  0
SEQEND
  0
POLYLINE
  8
0
 62
7
  6
CONTINUOUS
 66
1
 70
0
  0
VERTEX
  8
0
 62
7
  6
CONTINUOUS
 10
229.2859571891
 20
239.8855506212
  0
VERTEX
  8
0
 62
7
  6
CONTINUOUS
 10
229.2364602352
 20
239.929352728
  0
VERTEX
  8
0
 62
7
  6
CONTINUOUS
 10
229.1948172659
 20
239.9654817508
  0
SEQEND
  0
LINE
  8
0
 62
7
  6
CONTINUOUS
 10
216.6281612473
 20
239.8474628817
 11
216.5859575429
 21
239.8855502625
  0
LINE
  8
0
 62
7
  6
CONTINUOUS
 10
229.3281612654
 20
239.8474629043
 11
229.2859571891
 21
239.8855506212
  0
POLYLINE
  8
0
 62
7
  6
CONTINUOUS
 66
1
 70
0
  0
VERTEX
  8
0
 62
7
  6
CONTINUOUS
 10
105.6406557571
 20
226.7928536252
  0
VERTEX
  8
0
 62
7
  6
CONTINUOUS
 10
105.7394797579
 20
226.8095703389
  0
VERTEX
  8
0
 62
7
  6
CONTINUOUS
 10
105.8473840984
 20
226.8265963129
  0
VERTEX
  8
0
 62
7
  6
CONTINUOUS
 10
105.9629045784
 20
226.8429470667
  0
VERTEX
  8
0
 62
7
  6
CONTINUOUS
 10
106.0844401616
 20
226.8577103016
  0
VERTEX
  8
0
 62
7
  6
CONTINUOUS
 10
106.2103999023
 20
226.8701146907
  0
VERTEX
  8
0
 62
7
  6
CONTINUOUS
 10
106.3395702354
 20
226.8795851206
  0
VERTEX
  8
0
 62
7
  6
CONTINUOUS
 10
106.4711956992
 20
226.885719017
  0
VERTEX
  8
0
 62
7
  6
CONTINUOUS
 10
106.6044757123
 20
226.8882327418
  0
SEQEND
  0
POLYLINE
  8
0
 62
7
  6
CONTINUOUS
 66
1
 70
0
  0
VERTEX
  8
0
 62
7
  6
CONTINUOUS
 10
84.4864927164
 20
240.9597819896
  0
VERTEX
  8
0
 62
7
  6
CONTINUOUS
 10
84.3902334115
 20
240.9565266489
  0
VERTEX
  8
0
 62
7
  6
CONTINUOUS
 10
84.3003941993
 20
240.9529861842
  0
VERTEX
  8
0
 62
7
  6
CONTINUOUS
 10
84.2168281415
 20
240.9491643588
  0
VERTEX
  8
0
 62
7
  6
CONTINUOUS
 10
84.1393587731
 20
240.9450668798
  0
VERTEX
  8
0
 62
7
  6
CONTINUOUS
 10
84.0677875034
 20
240.9407012292
  0
VERTEX
  8
0
 62
7
  6
CONTINUOUS
 10
84.0018869684
 20
240.9360759363
  0
VERTEX
  8
0
 62
7
  6
CONTINUOUS
 10
83.9414141784
 20
240.9311993696
  0
VERTEX
  8
0
 62
7
  6
CONTINUOUS
 10
83.8861023903
 20
240.9260797162
  0
VERTEX
  8
0
 62
7
  6
CONTINUOUS
 10
83.8356681324
 20
240.9207219268
  0
VERTEX
  8
0
 62
7
  6
CONTINUOUS
 10
83.7898114892
 20
240.9151275978
  0
VERTEX
  8
0
 62
7
  6
CONTINUOUS
 10
83.7482173568
 20
240.9092919679
  0
VERTEX
  8
0
 62
7
  6
CONTINUOUS
 10
83.7105621787
 20
240.9032008414
  0
VERTEX
  8
0
 62
7
  6
CONTINUOUS
 10
83.6764860924
 20
240.8968236602
  0
VERTEX
  8
0
 62
7
  6
CONTINUOUS
 10
83.6455829955
 20
240.89009965
  0
VERTEX
  8
0
 62
7
  6
CONTINUOUS
 10
83.6174130952
 20
240.8829257082
  0
VERTEX
  8
0
 62
7
  6
CONTINUOUS
 10
83.5915138773
 20
240.8751402636
  0
VERTEX
  8
0
 62
7
  6
CONTINUOUS
 10
83.567419682
 20
240.8664979897
  0
VERTEX
  8
0
 62
7
  6
CONTINUOUS
 10
83.5446147235
 20
240.856605561
  0
VERTEX
  8
0
 62
7
  6
CONTINUOUS
 10
83.5225378314
 20
240.8448263444
  0
VERTEX
  8
0
 62
7
  6
CONTINUOUS
 10
83.5007381307
 20
240.8301910129
  0
VERTEX
  8
0
 62
7
  6
CONTINUOUS
 10
83.4792175112
 20
240.8114167527
  0
VERTEX
  8
0
 62
7
  6
CONTINUOUS
 10
83.4589598586
 20
240.7873229651
  0
VERTEX
  8
0
 62
7
  6
CONTINUOUS
 10
83.441983357
 20
240.7574791532
  0
VERTEX
  8
0
 62
7
  6
CONTINUOUS
 10
83.4308092693
 20
240.7230334193
  0
VERTEX
  8
0
 62
7
  6
CONTINUOUS
 10
83.4271724291
 20
240.6881091566
  0
SEQEND
  0
LINE
  8
0
 62
7
  6
CONTINUOUS
 10
84.6987024307
 20
240.9654353724
 11
84.4864927164
 21
240.9597819896
  0
LINE
  8
0
 62
7
  6
CONTINUOUS
 10
84.9375168505
 20
240.9699686956
 11
84.6987024307
 21
240.9654353724
  0
LINE
  8
0
 62
7
  6
CONTINUOUS
 10
85.2028017467
 20
240.973446318
 11
84.9375168505
 21
240.9699686956
  0
LINE
  8
0
 62
7
  6
CONTINUOUS
 10
85.4668167641
 20
240.9757770689
 11
85.2028017467
 21
240.973446318
  0
POLYLINE
  8
0
 62
7
  6
CONTINUOUS
 66
1
 70
0
  0
VERTEX
  8
0
 62
7
  6
CONTINUOUS
 10
86.9120414523
 20
240.9830061648
  0
VERTEX
  8
0
 62
7
  6
CONTINUOUS
 10
86.1742122102
 20
240.9800908209
  0
VERTEX
  8
0
 62
7
  6
CONTINUOUS
 10
85.4668166397
 20
240.975777064
  0
SEQEND
  0
LINE
  8
0
 62
7
  6
CONTINUOUS
 10
86.9120414523
 20
240.9830061648
 11
87.8476074505
 21
240.9843784711
  0
LINE
  8
0
 62
7
  6
CONTINUOUS
 10
132.7311719437
 20
240.9833285052
 11
128.8771719437
 21
240.9833285052
  0
LINE
  8
0
 62
7
  6
CONTINUOUS
 10
118.9771719437
 20
240.9833285052
 11
114.3771719437
 21
240.9833285052
  0
LINE
  8
0
 62
7
  6
CONTINUOUS
 10
100.0521719437
 20
240.9841161388
 11
104.1771719437
 21
240.9841161388
  0
LINE
  8
SURFACE
 62
7
  6
CONTINUOUS
 10
87.8460209376
 20
240.9843786802
 11
100.0521719437
 21
240.9843786802
  0
LINE
  8
SURFACE
 62
7
  6
CONTINUOUS
 10
104.1771719437
 20
240.9843786802
 11
114.3771719437
 21
240.9843786802
  0
LINE
  8
SURFACE
 62
7
  6
CONTINUOUS
 10
118.9771719437
 20
240.9843786802
 11
128.8771719437
 21
240.9843786802
  0
LINE
  8
SURFACE
 62
7
  6
CONTINUOUS
 10
132.7311719437
 20
240.9843786802
 11
229.0223821707
 21
240.9843786802
  0
POLYLINE
  8
0
 62
7
  6
CONTINUOUS
 66
1
 70
0
  0
VERTEX
  8
0
 62
7
  6
CONTINUOUS
 10
87.8476074505
 20
240.9843784711
  0
VERTEX
  8
0
 62
7
  6
CONTINUOUS
 10
88.4822488993
 20
240.9833685601
  0
VERTEX
  8
0
 62
7
  6
CONTINUOUS
 10
88.8894614127
 20
240.9810311305
  0
VERTEX
  8
0
 62
7
  6
CONTINUOUS
 10
89.2768142356
 20
240.9767688477
  0
VERTEX
  8
0
 62
7
  6
CONTINUOUS
 10
89.6414929583
 20
240.970054102
  0
VERTEX
  8
0
 62
7
  6
CONTINUOUS
 10
89.9818620114
 20
240.9603381009
  0
VERTEX
  8
0
 62
7
  6
CONTINUOUS
 10
90.2962727259
 20
240.9470676711
  0
VERTEX
  8
0
 62
7
  6
CONTINUOUS
 10
90.5824192956
 20
240.9297459853
  0
VERTEX
  8
0
 62
7
  6
CONTINUOUS
 10
90.8387001342
 20
240.9079066441
  0
VERTEX
  8
0
 62
7
  6
CONTINUOUS
 10
91.0637192923
 20
240.8811383746
  0
VERTEX
  8
0
 62
7
  6
CONTINUOUS
 10
91.2562497669
 20
240.8491019348
  0
VERTEX
  8
0
 62
7
  6
CONTINUOUS
 10
91.4154701997
 20
240.8114807229
  0
VERTEX
  8
0
 62
7
  6
CONTINUOUS
 10
91.5405116662
 20
240.7680316054
  0
VERTEX
  8
0
 62
7
  6
CONTINUOUS
 10
91.630327601
 20
240.7187295532
  0
VERTEX
  8
0
 62
7
  6
CONTINUOUS
 10
91.6842583785
 20
240.6637398526
  0
VERTEX
  8
0
 62
7
  6
CONTINUOUS
 10
91.7021719437
 20
240.6034071332
  0
SEQEND
  0
POLYLINE
  8
0
 62
7
  6
CONTINUOUS
 66
1
 70
0
  0
VERTEX
  8
0
 62
7
  6
CONTINUOUS
 10
229.0228998819
 20
240.9843786617
  0
VERTEX
  8
0
 62
7
  6
CONTINUOUS
 10
229.0524979294
 20
240.9842696004
  0
VERTEX
  8
0
 62
7
  6
CONTINUOUS
 10
229.0709880227
 20
240.9839228219
  0
VERTEX
  8
0
 62
7
  6
CONTINUOUS
 10
229.0771719437
 20
240.9833285052
  0
SEQEND
  0
LINE
  8
0
 62
7
  6
CONTINUOUS
 10
229.0542483956
 20
240.9842601982
 11
229.0417346884
 21
240.9843421097
  0
LINE
  8
0
 62
7
  6
CONTINUOUS
 10
229.0612791288
 20
240.9841792703
 11
229.0542483956
 21
240.9842601982
  0
POLYLINE
  8
AXES
 62
7
  6
CONTINUOUS
 66
1
 70
0
  0
VERTEX
  8
AXES
 62
7
  6
CONTINUOUS
 10
106.3090031829
 20
231.2613726565
  0
VERTEX
  8
AXES
 62
7
  6
CONTINUOUS
 10
106.176626565
 20
231.2270109142
  0
VERTEX
  8
AXES
 62
7
  6
CONTINUOUS
 10
106.0431075158
 20
231.1815539084
  0
VERTEX
  8
AXES
 62
7
  6
CONTINUOUS
 10
105.910453999
 20
231.1265330623
  0
VERTEX
  8
AXES
 62
7
  6
CONTINUOUS
 10
105.7809125843
 20
231.0642174752
  0
VERTEX
  8
AXES
 62
7
  6
CONTINUOUS
 10
105.656759736
 20
230.9973402231
  0
VERTEX
  8
AXES
 62
7
  6
CONTINUOUS
 10
105.5417183205
 20
230.9297539571
  0
VERTEX
  8
AXES
 62
7
  6
CONTINUOUS
 10
105.4390301282
 20
230.8652842901
  0
VERTEX
  8
AXES
 62
7
  6
CONTINUOUS
 10
105.351002651
 20
230.807137836
  0
VERTEX
  8
AXES
 62
7
  6
CONTINUOUS
 10
105.27858302
 20
230.7573832242
  0
VERTEX
  8
AXES
 62
7
  6
CONTINUOUS
 10
105.2212624097
 20
230.7167408549
  0
VERTEX
  8
AXES
 62
7
  6
CONTINUOUS
 10
105.178210197
 20
230.6853594777
  0
VERTEX
  8
AXES
 62
7
  6
CONTINUOUS
 10
105.1484363882
 20
230.6630001963
  0
VERTEX
  8
AXES
 62
7
  6
CONTINUOUS
 10
105.1316081278
 20
230.6497143228
  0
VERTEX
  8
AXES
 62
7
  6
CONTINUOUS
 10
105.1271719494
 20
230.6454351943
  0
SEQEND
  0
LINE
  8
0
 62
7
  6
CONTINUOUS
 10
83.4271719437
 20
147.9474510709
 11
83.4271719437
 21
136.4965530935
  0
LINE
  8
0
 62
7
  6
CONTINUOUS
 10
88.6811719437
 20
135.9644973238
 11
88.6811719437
 21
149.5123017928
  0
LINE
  8
0
 62
7
  6
CONTINUOUS
 10
90.8021863068
 20
116.9388694774
 11
90.8021863068
 21
120.9273815191
  0
LINE
  8
0
 62
7
  6
CONTINUOUS
 10
91.5521719437
 20
127.25161754
 11
91.5521719437
 21
123.9722576773
  0
LINE
  8
0
 62
7
  6
CONTINUOUS
 10
96.0521719437
 20
123.9722575054
 11
96.0521719437
 21
128.6529577737
  0
LINE
  8
0
 62
7
  6
CONTINUOUS
 10
96.8021575805
 20
120.9273815191
 11
96.8021575805
 21
116.9388694774
  0
LINE
  8
0
 62
7
  6
CONTINUOUS
 10
98.9231719437
 20
145.0016615294
 11
98.9231719437
 21
149.2529793851
  0
LINE
  8
0
 62
7
  6
CONTINUOUS
 10
99.6771719437
 20
137.7029971111
 11
99.6771719437
 21
141.9407059494
  0
LINE
  8
0
 62
7
  6
CONTINUOUS
 10
104.1771719437
 20
137.8029974198
 11
104.1771719437
 21
141.9407010602
  0
LINE
  8
0
 62
7
  6
CONTINUOUS
 10
104.9311719437
 20
145.0014418598
 11
104.9311719437
 21
149.2529793851
  0
LINE
  8
0
 62
7
  6
CONTINUOUS
 10
106.4271863068
 20
116.9388694774
 11
106.4271863068
 21
120.9273815191
  0
LINE
  8
0
 62
7
  6
CONTINUOUS
 10
107.1771719437
 20
129.6529793851
 11
107.1771719437
 21
123.9722576773
  0
LINE
  8
AXES
 62
7
  6
CONTINUOUS
 10
91.5368946186
 20
123.8496039843
 11
91.4067695043
 21
123.3353545398
  0
LINE
  8
0
 62
7
  6
CONTINUOUS
 10
91.5368946684
 20
123.849604181
 11
90.8067695043
 21
120.9641776269
  0
LINE
  8
0
 62
7
  6
CONTINUOUS
 10
104.1924492687
 20
142.0633547858
 11
104.9265887462
 21
144.9646457519
  0
LINE
  8
0
 62
7
  6
CONTINUOUS
 10
96.797574383
 20
120.9641776269
 11
96.0674492786
 21
123.8496039453
  0
LINE
  8
AXES
 62
7
  6
CONTINUOUS
 10
96.197574383
 20
123.3353545398
 11
96.0674492687
 21
123.8496039843
  0
LINE
  8
0
 62
7
  6
CONTINUOUS
 10
99.6618967818
 20
142.0633507143
 11
98.9277544922
 21
144.9648679863
  0
LINE
  8
0
 62
7
  6
CONTINUOUS
 10
111.6771719437
 20
129.8029626318
 11
111.6771719437
 21
123.9722572982
  0
LINE
  8
0
 62
7
  6
CONTINUOUS
 10
112.4271575805
 20
120.9273815191
 11
112.4271575805
 21
116.9388694774
  0
LINE
  8
0
 62
7
  6
CONTINUOUS
 10
113.9231719437
 20
145.0014418598
 11
113.9231719437
 21
149.2529793851
  0
LINE
  8
0
 62
7
  6
CONTINUOUS
 10
114.6771719437
 20
141.9407012648
 11
114.6771719437
 21
137.8029996391
  0
LINE
  8
0
 62
7
  6
CONTINUOUS
 10
119.1771719437
 20
141.9407010929
 11
119.1771719437
 21
137.3029793851
  0
LINE
  8
0
 62
7
  6
CONTINUOUS
 10
119.9311719437
 20
145.0014418598
 11
119.9311719437
 21
149.2529793851
  0
LINE
  8
0
 62
7
  6
CONTINUOUS
 10
120.9271863068
 20
116.9388694774
 11
120.9271863068
 21
120.9273815191
  0
LINE
  8
0
 62
7
  6
CONTINUOUS
 10
121.6771719437
 20
123.9722569096
 11
121.6771719437
 21
129.8029622609
  0
LINE
  8
AXES
 62
7
  6
CONTINUOUS
 10
107.1618946186
 20
123.8496039843
 11
107.0317695043
 21
123.3353545398
  0
LINE
  8
0
 62
7
  6
CONTINUOUS
 10
107.1618946684
 20
123.849604181
 11
106.4317695043
 21
120.9641776269
  0
LINE
  8
0
 62
7
  6
CONTINUOUS
 10
119.1924492687
 20
142.0633547858
 11
119.9265887462
 21
144.9646457519
  0
LINE
  8
0
 62
7
  6
CONTINUOUS
 10
111.6924490751
 20
123.8496047496
 11
112.422574383
 21
120.9641776269
  0
LINE
  8
AXES
 62
7
  6
CONTINUOUS
 10
111.822574383
 20
123.3353545398
 11
111.6924492687
 21
123.8496039843
  0
LINE
  8
0
 62
7
  6
CONTINUOUS
 10
113.9277551412
 20
144.9646457519
 11
114.6618946087
 21
142.0633548249
  0
LINE
  8
0
 62
7
  6
CONTINUOUS
 10
126.1771719437
 20
129.8029626318
 11
126.1771719437
 21
123.9722572982
  0
LINE
  8
0
 62
7
  6
CONTINUOUS
 10
126.9271575805
 20
120.9273815191
 11
126.9271575805
 21
116.9388694774
  0
LINE
  8
0
 62
7
  6
CONTINUOUS
 10
127.9231719437
 20
145.0014418598
 11
127.9231719437
 21
149.2529793851
  0
LINE
  8
0
 62
7
  6
CONTINUOUS
 10
128.6771719437
 20
141.9407012648
 11
128.6771719437
 21
137.3030004571
  0
LINE
  8
0
 62
7
  6
CONTINUOUS
 10
133.1811719437
 20
141.9407010929
 11
133.1811719437
 21
137.3029793851
  0
LINE
  8
0
 62
7
  6
CONTINUOUS
 10
133.9351719437
 20
145.0014418598
 11
133.9351719437
 21
149.2529793851
  0
LINE
  8
0
 62
7
  6
CONTINUOUS
 10
134.6811863068
 20
116.9327575328
 11
134.6811863068
 21
120.9273815191
  0
LINE
  8
0
 62
7
  6
CONTINUOUS
 10
135.4311719437
 20
129.8029793851
 11
135.4311719437
 21
123.9722576773
  0
LINE
  8
AXES
 62
7
  6
CONTINUOUS
 10
121.6618946186
 20
123.8496039843
 11
121.5317695043
 21
123.3353545398
  0
LINE
  8
0
 62
7
  6
CONTINUOUS
 10
120.9317695043
 20
120.9641776269
 11
121.6618947206
 21
123.8496043873
  0
LINE
  8
0
 62
7
  6
CONTINUOUS
 10
133.1964492687
 20
142.0633547858
 11
133.9305887462
 21
144.9646457519
  0
LINE
  8
0
 62
7
  6
CONTINUOUS
 10
126.1924490751
 20
123.8496047496
 11
126.922574383
 21
120.9641776269
  0
LINE
  8
AXES
 62
7
  6
CONTINUOUS
 10
126.322574383
 20
123.3353545398
 11
126.1924492687
 21
123.8496039843
  0
LINE
  8
0
 62
7
  6
CONTINUOUS
 10
127.9277551412
 20
144.9646457519
 11
128.6618946087
 21
142.0633548249
  0
LINE
  8
0
 62
7
  6
CONTINUOUS
 10
139.9311719437
 20
130.1689632537
 11
139.9311719437
 21
123.9722572982
  0
LINE
  8
0
 62
7
  6
CONTINUOUS
 10
140.6811575805
 20
120.9273815191
 11
140.6811575805
 21
116.9327575328
  0
LINE
  8
0
 62
7
  6
CONTINUOUS
 10
141.4271719437
 20
145.0014418598
 11
141.4271719437
 21
149.2529793851
  0
LINE
  8
0
 62
7
  6
CONTINUOUS
 10
142.1811719437
 20
141.9407012648
 11
142.1811719437
 21
137.3030004571
  0
LINE
  8
0
 62
7
  6
CONTINUOUS
 10
146.6731719437
 20
141.9407018604
 11
146.6731719437
 21
137.756998281
  0
LINE
  8
0
 62
7
  6
CONTINUOUS
 10
147.4271719437
 20
145.0014418598
 11
147.4271719437
 21
149.2529793851
  0
LINE
  8
0
 62
7
  6
CONTINUOUS
 10
147.7771719437
 20
117.4534896423
 11
147.7771719437
 21
120.9273815191
  0
LINE
  8
0
 62
7
  6
CONTINUOUS
 10
148.5271719437
 20
130.1689793851
 11
148.5271719437
 21
123.9723144399
  0
LINE
  8
AXES
 62
7
  6
CONTINUOUS
 10
135.4158946186
 20
123.8496039843
 11
135.2857695043
 21
123.3353545398
  0
LINE
  8
0
 62
7
  6
CONTINUOUS
 10
134.6857695043
 20
120.9641776269
 11
135.4158947206
 21
123.8496043873
  0
LINE
  8
0
 62
7
  6
CONTINUOUS
 10
147.4225887462
 20
144.9646457519
 11
146.6884491668
 21
142.0633543828
  0
LINE
  8
0
 62
7
  6
CONTINUOUS
 10
139.9464490751
 20
123.8496047496
 11
140.676574383
 21
120.9641776269
  0
LINE
  8
AXES
 62
7
  6
CONTINUOUS
 10
140.076574383
 20
123.3353545398
 11
139.9464492687
 21
123.8496039843
  0
LINE
  8
0
 62
7
  6
CONTINUOUS
 10
141.4317551412
 20
144.9646457519
 11
142.1658946087
 21
142.0633548249
  0
LINE
  8
0
 62
7
  6
CONTINUOUS
 10
153.0271719437
 20
130.1689793851
 11
153.0271719437
 21
123.9723144399
  0
LINE
  8
0
 62
7
  6
CONTINUOUS
 10
153.7771719437
 20
120.9273815191
 11
153.7771719437
 21
117.4534896423
  0
LINE
  8
0
 62
7
  6
CONTINUOUS
 10
154.1271719437
 20
145.0014418598
 11
154.1271719437
 21
149.2529793851
  0
LINE
  8
0
 62
7
  6
CONTINUOUS
 10
154.8811719437
 20
141.9407010929
 11
154.8811719437
 21
137.7569793851
  0
LINE
  8
0
 62
7
  6
CONTINUOUS
 10
159.3731719437
 20
141.9407018604
 11
159.3731719437
 21
137.756998281
  0
LINE
  8
0
 62
7
  6
CONTINUOUS
 10
160.1271719437
 20
145.0014418598
 11
160.1271719437
 21
149.2529793851
  0
LINE
  8
0
 62
7
  6
CONTINUOUS
 10
160.4771719437
 20
117.4534896423
 11
160.4771719437
 21
120.9273815191
  0
LINE
  8
0
 62
7
  6
CONTINUOUS
 10
161.2271719437
 20
130.1689793851
 11
161.2271719437
 21
123.9723144399
  0
LINE
  8
AXES
 62
7
  6
CONTINUOUS
 10
148.5118946186
 20
123.849660747
 11
148.3817551412
 21
123.3353545398
  0
LINE
  8
0
 62
7
  6
CONTINUOUS
 10
147.7817551412
 20
120.9641776269
 11
148.5118947206
 21
123.8496611499
  0
LINE
  8
0
 62
7
  6
CONTINUOUS
 10
160.1225887462
 20
144.9646457519
 11
159.3884491668
 21
142.0633543828
  0
LINE
  8
AXES
 62
7
  6
CONTINUOUS
 10
153.0424492687
 20
123.849660747
 11
153.1725887462
 21
123.3353545398
  0
LINE
  8
0
 62
7
  6
CONTINUOUS
 10
153.0424491667
 20
123.8496611503
 11
153.7725887462
 21
120.9641776269
  0
LINE
  8
0
 62
7
  6
CONTINUOUS
 10
154.8658946186
 20
142.0633547858
 11
154.1317551412
 21
144.9646457519
  0
LINE
  8
0
 62
7
  6
CONTINUOUS
 10
165.7271719437
 20
130.1689793851
 11
165.7271719437
 21
123.9723144399
  0
LINE
  8
0
 62
7
  6
CONTINUOUS
 10
166.4771719437
 20
120.9273815191
 11
166.4771719437
 21
117.4534896423
  0
LINE
  8
0
 62
7
  6
CONTINUOUS
 10
166.8271719437
 20
145.0014418598
 11
166.8271719437
 21
149.2529793851
  0
LINE
  8
0
 62
7
  6
CONTINUOUS
 10
167.5811719437
 20
137.756998889
 11
167.5811719437
 21
141.9407018602
  0
LINE
  8
0
 62
7
  6
CONTINUOUS
 10
172.0731719437
 20
141.9407018604
 11
172.0731719437
 21
137.756998281
  0
LINE
  8
0
 62
7
  6
CONTINUOUS
 10
172.8271719437
 20
145.0014418598
 11
172.8271719437
 21
149.2529793851
  0
LINE
  8
0
 62
7
  6
CONTINUOUS
 10
173.1771719437
 20
117.4534896423
 11
173.1771719437
 21
120.9273815191
  0
LINE
  8
0
 62
7
  6
CONTINUOUS
 10
173.9271719437
 20
130.1689793851
 11
173.9271719437
 21
123.9723144399
  0
LINE
  8
0
 62
7
  6
CONTINUOUS
 10
178.4271719437
 20
130.1689793851
 11
178.4271719437
 21
123.9723144399
  0
LINE
  8
AXES
 62
7
  6
CONTINUOUS
 10
161.2118946186
 20
123.849660747
 11
161.0817551412
 21
123.3353545398
  0
LINE
  8
0
 62
7
  6
CONTINUOUS
 10
160.4817551412
 20
120.9641776269
 11
161.2118947206
 21
123.8496611499
  0
LINE
  8
0
 62
7
  6
CONTINUOUS
 10
172.8225887462
 20
144.9646457519
 11
172.0884491668
 21
142.0633543828
  0
LINE
  8
AXES
 62
7
  6
CONTINUOUS
 10
173.9118946186
 20
123.849660747
 11
173.7817551412
 21
123.3353545398
  0
LINE
  8
0
 62
7
  6
CONTINUOUS
 10
173.1817551412
 20
120.9641776269
 11
173.9118947206
 21
123.8496611499
  0
LINE
  8
AXES
 62
7
  6
CONTINUOUS
 10
165.7424492687
 20
123.849660747
 11
165.8725887462
 21
123.3353545398
  0
LINE
  8
0
 62
7
  6
CONTINUOUS
 10
165.7424491667
 20
123.8496611503
 11
166.4725887462
 21
120.9641776269
  0
LINE
  8
0
 62
7
  6
CONTINUOUS
 10
167.5658946186
 20
142.0633547858
 11
166.8317551412
 21
144.9646457519
  0
LINE
  8
AXES
 62
7
  6
CONTINUOUS
 10
178.4424492687
 20
123.849660747
 11
178.5725887462
 21
123.3353545398
  0
LINE
  8
0
 62
7
  6
CONTINUOUS
 10
178.4424491667
 20
123.8496611503
 11
179.1725887462
 21
120.9641776269
  0
LINE
  8
0
 62
7
  6
CONTINUOUS
 10
179.1771719437
 20
120.9273815191
 11
179.1771719437
 21
117.4534896423
  0
LINE
  8
0
 62
7
  6
CONTINUOUS
 10
179.5271719437
 20
145.0014418598
 11
179.5271719437
 21
149.2529793851
  0
LINE
  8
0
 62
7
  6
CONTINUOUS
 10
180.2811719437
 20
141.9407010929
 11
180.2811719437
 21
137.7569793851
  0
LINE
  8
0
 62
7
  6
CONTINUOUS
 10
184.7731719437
 20
141.9407018604
 11
184.7731719437
 21
137.756998281
  0
LINE
  8
0
 62
7
  6
CONTINUOUS
 10
185.5271719437
 20
145.0014418598
 11
185.5271719437
 21
149.2529793851
  0
LINE
  8
0
 62
7
  6
CONTINUOUS
 10
185.8771719437
 20
117.4534896423
 11
185.8771719437
 21
120.9273815191
  0
LINE
  8
0
 62
7
  6
CONTINUOUS
 10
186.6271719437
 20
130.1689793851
 11
186.6271719437
 21
123.9723144399
  0
LINE
  8
0
 62
7
  6
CONTINUOUS
 10
191.1271719437
 20
130.1689793851
 11
191.1271719437
 21
123.9723144399
  0
LINE
  8
0
 62
7
  6
CONTINUOUS
 10
191.8771719437
 20
120.9273815191
 11
191.8771719437
 21
117.4534896423
  0
LINE
  8
0
 62
7
  6
CONTINUOUS
 10
192.2271719437
 20
145.0014418598
 11
192.2271719437
 21
149.2529793851
  0
LINE
  8
0
 62
7
  6
CONTINUOUS
 10
192.9811719437
 20
137.756998889
 11
192.9811719437
 21
141.9407018602
  0
LINE
  8
0
 62
7
  6
CONTINUOUS
 10
185.5225887462
 20
144.9646457519
 11
184.7884491668
 21
142.0633543828
  0
LINE
  8
AXES
 62
7
  6
CONTINUOUS
 10
186.6118946186
 20
123.849660747
 11
186.4817551412
 21
123.3353545398
  0
LINE
  8
0
 62
7
  6
CONTINUOUS
 10
185.8817551412
 20
120.9641776269
 11
186.6118947206
 21
123.8496611499
  0
LINE
  8
0
 62
7
  6
CONTINUOUS
 10
87.5717150326
 20
132.9015242394
 11
85.4174003992
 21
133.6715778812
  0
LINE
  8
0
 62
7
  6
CONTINUOUS
 10
180.2658946186
 20
142.0633547858
 11
179.5317551412
 21
144.9646457519
  0
LINE
  8
AXES
 62
7
  6
CONTINUOUS
 10
191.1424492687
 20
123.849660747
 11
191.2725887462
 21
123.3353545398
  0
LINE
  8
0
 62
7
  6
CONTINUOUS
 10
191.1424491667
 20
123.8496611503
 11
191.8725887462
 21
120.9641776269
  0
LINE
  8
0
 62
7
  6
CONTINUOUS
 10
197.4731719437
 20
141.9407018604
 11
197.4731719437
 21
137.756998281
  0
LINE
  8
0
 62
7
  6
CONTINUOUS
 10
198.2271719437
 20
145.0014418598
 11
198.2271719437
 21
149.2529793851
  0
LINE
  8
0
 62
7
  6
CONTINUOUS
 10
198.5771719437
 20
117.4534896423
 11
198.5771719437
 21
120.9273815191
  0
LINE
  8
0
 62
7
  6
CONTINUOUS
 10
199.3271719437
 20
130.1689793851
 11
199.3271719437
 21
123.9723144399
  0
LINE
  8
0
 62
7
  6
CONTINUOUS
 10
203.8271719437
 20
130.1689793851
 11
203.8271719437
 21
123.9723144399
  0
LINE
  8
0
 62
7
  6
CONTINUOUS
 10
204.5771719437
 20
120.9273815191
 11
204.5771719437
 21
117.4534896423
  0
LINE
  8
0
 62
7
  6
CONTINUOUS
 10
204.9271719437
 20
145.0014418598
 11
204.9271719437
 21
149.2529793851
  0
LINE
  8
0
 62
7
  6
CONTINUOUS
 10
205.6811719437
 20
137.756998889
 11
205.6811719437
 21
141.9407018602
  0
LINE
  8
0
 62
7
  6
CONTINUOUS
 10
198.2225887462
 20
144.9646457519
 11
197.4884491668
 21
142.0633543828
  0
LINE
  8
AXES
 62
7
  6
CONTINUOUS
 10
199.3118946186
 20
123.849660747
 11
199.1817551412
 21
123.3353545398
  0
LINE
  8
0
 62
7
  6
CONTINUOUS
 10
198.5817551412
 20
120.9641776269
 11
199.3118947206
 21
123.8496611499
  0
LINE
  8
0
 62
7
  6
CONTINUOUS
 10
88.5816605209
 20
149.6535494603
 11
86.7686482307
 21
150.3016055496
  0
LINE
  8
0
 62
7
  6
CONTINUOUS
 10
192.9658946186
 20
142.0633547858
 11
192.2317551412
 21
144.9646457519
  0
LINE
  8
AXES
 62
7
  6
CONTINUOUS
 10
203.8424492687
 20
123.849660747
 11
203.9725887462
 21
123.3353545398
  0
LINE
  8
0
 62
7
  6
CONTINUOUS
 10
203.8424491667
 20
123.8496611503
 11
204.5725887462
 21
120.9641776269
  0
LINE
  8
0
 62
7
  6
CONTINUOUS
 10
210.1731719437
 20
141.9407018604
 11
210.1731719437
 21
137.756998281
  0
LINE
  8
0
 62
7
  6
CONTINUOUS
 10
210.9271719437
 20
145.0014418598
 11
210.9271719437
 21
149.2529793851
  0
LINE
  8
0
 62
7
  6
CONTINUOUS
 10
211.2771719437
 20
117.4534896423
 11
211.2771719437
 21
120.9273815191
  0
LINE
  8
0
 62
7
  6
CONTINUOUS
 10
212.0271719437
 20
130.1689793851
 11
212.0271719437
 21
123.9723144399
  0
LINE
  8
0
 62
7
  6
CONTINUOUS
 10
216.5271719437
 20
130.1689793851
 11
216.5271719437
 21
123.9723144399
  0
LINE
  8
0
 62
7
  6
CONTINUOUS
 10
217.2771719437
 20
120.9273815191
 11
217.2771719437
 21
117.4534896423
  0
LINE
  8
0
 62
7
  6
CONTINUOUS
 10
217.6271719437
 20
145.0014418598
 11
217.6271719437
 21
149.2529793851
  0
LINE
  8
0
 62
7
  6
CONTINUOUS
 10
218.3811719437
 20
141.9407010929
 11
218.3811719437
 21
137.7569793851
  0
LINE
  8
0
 62
7
  6
CONTINUOUS
 10
210.9225887462
 20
144.9646457519
 11
210.1884491668
 21
142.0633543828
  0
LINE
  8
AXES
 62
7
  6
CONTINUOUS
 10
212.0118946186
 20
123.849660747
 11
211.8817551412
 21
123.3353545398
  0
LINE
  8
0
 62
7
  6
CONTINUOUS
 10
211.2817551412
 20
120.9641776269
 11
212.0118947206
 21
123.8496611499
  0
LINE
  8
0
 62
7
  6
CONTINUOUS
 10
223.6225887462
 20
144.9646457519
 11
222.8884491668
 21
142.0633543828
  0
LINE
  8
0
 62
7
  6
CONTINUOUS
 10
93.3021719437
 20
115.9029793851
 11
94.3021719437
 21
115.9029793851
  0
LINE
  8
0
 62
7
  6
CONTINUOUS
 10
108.9271719437
 20
115.9029793851
 11
109.9271719437
 21
115.9029793851
  0
LINE
  8
0
 62
7
  6
CONTINUOUS
 10
123.4271719437
 20
115.9029793851
 11
124.4271719437
 21
115.9029793851
  0
LINE
  8
0
 62
7
  6
CONTINUOUS
 10
137.1811719437
 20
115.9029793851
 11
138.1811719437
 21
115.9029793851
  0
LINE
  8
DEFAULT_1
 62
2
  6
CENTER
 10
88.8021863068
 20
120.2529793851
 11
231.9771719437
 21
120.2529793851
  0
LINE
  8
0
 62
7
  6
CONTINUOUS
 10
205.6658946186
 20
142.0633547858
 11
204.9317551412
 21
144.9646457519
  0
LINE
  8
AXES
 62
7
  6
CONTINUOUS
 10
216.5424492687
 20
123.849660747
 11
216.6725887462
 21
123.3353545398
  0
LINE
  8
0
 62
7
  6
CONTINUOUS
 10
216.5424491667
 20
123.8496611503
 11
217.2725887462
 21
120.9641776269
  0
LINE
  8
0
 62
7
  6
CONTINUOUS
 10
218.3658946186
 20
142.0633547858
 11
217.6317551412
 21
144.9646457519
  0
LINE
  8
0
 62
7
  6
CONTINUOUS
 10
222.8731719437
 20
141.9407018604
 11
222.8731719437
 21
137.7569985644
  0
LINE
  8
0
 62
7
  6
CONTINUOUS
 10
223.6271719437
 20
145.0014418598
 11
223.6271719437
 21
149.2529793851
  0
LINE
  8
0
 62
7
  6
CONTINUOUS
 10
223.9771719437
 20
117.4534896423
 11
223.9771719437
 21
120.9273815191
  0
LINE
  8
0
 62
7
  6
CONTINUOUS
 10
224.7271719437
 20
130.1689793851
 11
224.7271719437
 21
123.9723144399
  0
LINE
  8
0
 62
7
  6
CONTINUOUS
 10
229.2271719437
 20
132.6529793851
 11
229.2271719437
 21
123.9723136725
  0
LINE
  8
0
 62
7
  6
CONTINUOUS
 10
229.9771719437
 20
120.9273815191
 11
229.9771719437
 21
117.4534896423
  0
LINE
  8
AXES
 62
7
  6
CONTINUOUS
 10
224.7118946186
 20
123.849660747
 11
224.5817551412
 21
123.3353545398
  0
LINE
  8
0
 62
7
  6
CONTINUOUS
 10
223.9817551412
 20
120.9641776269
 11
224.7118947206
 21
123.8496611499
  0
LINE
  8
0
 62
7
  6
CONTINUOUS
 10
222.7271719437
 20
132.1689793851
 11
218.5271719437
 21
132.1689793851
  0
LINE
  8
0
 62
7
  6
CONTINUOUS
 10
210.0271719437
 20
132.1689793851
 11
205.8271719437
 21
132.1689793851
  0
LINE
  8
0
 62
7
  6
CONTINUOUS
 10
197.3271719437
 20
132.1689793851
 11
193.1271719437
 21
132.1689793851
  0
LINE
  8
0
 62
7
  6
CONTINUOUS
 10
184.6271719437
 20
132.1689793851
 11
180.4271719437
 21
132.1689793851
  0
LINE
  8
0
 62
7
  6
CONTINUOUS
 10
171.9271719437
 20
132.1689793851
 11
167.7271719437
 21
132.1689793851
  0
LINE
  8
0
 62
7
  6
CONTINUOUS
 10
159.2271719437
 20
132.1689793851
 11
155.0271719437
 21
132.1689793851
  0
LINE
  8
0
 62
7
  6
CONTINUOUS
 10
146.5271719437
 20
132.1689793851
 11
141.9311719437
 21
132.1689793851
  0
LINE
  8
0
 62
7
  6
CONTINUOUS
 10
132.7311719437
 20
132.5029793851
 11
128.8771719437
 21
132.5029793851
  0
LINE
  8
0
 62
7
  6
CONTINUOUS
 10
118.9771719437
 20
132.5029793851
 11
114.3771719437
 21
132.5029793851
  0
LINE
  8
0
 62
7
  6
CONTINUOUS
 10
100.0521719437
 20
132.6529793851
 11
104.1771719437
 21
132.6529793851
  0
LINE
  8
0
 62
7
  6
CONTINUOUS
 10
93.4271924341
 20
133.2029793851
 11
95.177153783
 21
133.2029793851
  0
LINE
  8
0
 62
7
  6
CONTINUOUS
 10
110.1771539778
 20
133.3029793851
 11
108.6771921463
 21
133.3029793851
  0
LINE
  8
0
 62
7
  6
CONTINUOUS
 10
138.3311719437
 20
133.4529793851
 11
137.0311719437
 21
133.4529793851
  0
LINE
  8
0
 62
7
  6
CONTINUOUS
 10
124.8271719437
 20
133.4529793851
 11
123.0271719437
 21
133.4529793851
  0
LINE
  8
0
 62
7
  6
CONTINUOUS
 10
226.9771719437
 20
133.6529793851
 11
228.2271719437
 21
133.6529793851
  0
LINE
  8
AXES
 62
7
  6
CONTINUOUS
 10
229.2424492687
 20
123.849660747
 11
229.3725887462
 21
123.3353545398
  0
LINE
  8
0
 62
7
  6
CONTINUOUS
 10
229.2424491667
 20
123.8496611503
 11
229.9725887462
 21
120.9641776269
  0
LINE
  8
AXES
 62
2
  6
CENTER
 10
83.4271719437
 20
145.6529793851
 11
225.6271719437
 21
145.6529793851
  0
LINE
  8
0
 62
7
  6
CONTINUOUS
 10
99.6731719437
 20
150.0029793851
 11
104.1811719437
 21
150.0029793851
  0
LINE
  8
0
 62
7
  6
CONTINUOUS
 10
114.6731719437
 20
150.0029793851
 11
119.1811719437
 21
150.0029793851
  0
LINE
  8
0
 62
7
  6
CONTINUOUS
 10
128.6731719437
 20
150.0029793851
 11
133.1851719437
 21
150.0029793851
  0
LINE
  8
0
 62
7
  6
CONTINUOUS
 10
142.1771719437
 20
150.0029793851
 11
146.6771719437
 21
150.0029793851
  0
LINE
  8
0
 62
7
  6
CONTINUOUS
 10
154.8771719437
 20
150.0029793851
 11
159.3771719437
 21
150.0029793851
  0
LINE
  8
0
 62
7
  6
CONTINUOUS
 10
167.5771719437
 20
150.0029793851
 11
172.0771719437
 21
150.0029793851
  0
LINE
  8
0
 62
7
  6
CONTINUOUS
 10
180.2771719437
 20
150.0029793851
 11
184.7771719437
 21
150.0029793851
  0
LINE
  8
0
 62
7
  6
CONTINUOUS
 10
192.9771719437
 20
150.0029793851
 11
197.4771719437
 21
150.0029793851
  0
LINE
  8
0
 62
7
  6
CONTINUOUS
 10
205.6771719437
 20
150.0029793851
 11
210.1771719437
 21
150.0029793851
  0
LINE
  8
0
 62
7
  6
CONTINUOUS
 10
218.3771719437
 20
150.0029793851
 11
222.8771719437
 21
150.0029793851
  0
LINE
  8
0
 62
7
  6
CONTINUOUS
 10
282.8598278055
 20
115.9029793851
 11
286.8598278055
 21
115.9029793851
  0
POLYLINE
  8
0
 62
7
  6
CONTINUOUS
 66
1
 70
0
  0
VERTEX
  8
0
 62
7
  6
CONTINUOUS
 10
279.278526297
 20
148.0030595632
  0
VERTEX
  8
0
 62
7
  6
CONTINUOUS
 10
279.1583088285
 20
147.6731481035
  0
VERTEX
  8
0
 62
7
  6
CONTINUOUS
 10
279.0502300865
 20
147.3066504129
  0
VERTEX
  8
0
 62
7
  6
CONTINUOUS
 10
278.9659187609
 20
146.932689568
  0
VERTEX
  8
0
 62
7
  6
CONTINUOUS
 10
278.9058369913
 20
146.5528068393
  0
VERTEX
  8
0
 62
7
  6
CONTINUOUS
 10
278.8703904962
 20
146.1685682982
  0
VERTEX
  8
0
 62
7
  6
CONTINUOUS
 10
278.8598279385
 20
145.813978148
  0
SEQEND
  0
LINE
  8
DEFAULT_1
 62
2
  6
CENTER
 10
290.1098278055
 20
120.2529793851
 11
286.8599278055
 21
120.2529793851
  0
LINE
  8
0
 62
2
  6
CONTINUOUS
 10
285.9098278055
 20
120.2529793851
 11
283.8098278055
 21
120.2529793851
  0
LINE
  8
DEFAULT_1
 62
2
  6
CENTER
 10
279.6098278055
 20
120.2529793851
 11
282.8597278055
 21
120.2529793851
  0
LINE
  8
0
 62
7
  6
CONTINUOUS
 10
278.8598278055
 20
119.9029793851
 11
278.8598278055
 21
146.0029793851
  0
LINE
  8
AXES
 62
7
  6
CONTINUOUS
 10
282.7598278055
 20
120.2529793851
 11
282.7598278055
 21
128.3029793851
  0
LINE
  8
AXES
 62
2
  6
CENTER
 10
284.8598278055
 20
150.9029793851
 11
284.8598278055
 21
149.7529793851
  0
LINE
  8
AXES
 62
2
  6
CONTINUOUS
 10
284.8598278055
 20
146.7029793851
 11
284.8598278055
 21
144.6029793851
  0
LINE
  8
DEFAULT_1
 62
2
  6
CENTER
 10
284.8598278055
 20
125.5029793851
 11
284.8598278055
 21
122.2530793851
  0
LINE
  8
0
 62
2
  6
CONTINUOUS
 10
284.8598278055
 20
121.3029793851
 11
284.8598278055
 21
119.2029793851
  0
LINE
  8
DEFAULT_1
 62
2
  6
CENTER
 10
284.8598278055
 20
115.0029793851
 11
284.8598278055
 21
118.2528793851
  0
LINE
  8
AXES
 62
2
  6
CENTER
 10
284.8598278055
 20
140.4029793851
 11
284.8598278055
 21
141.5529793851
  0
LINE
  8
AXES
 62
7
  6
CONTINUOUS
 10
286.9598278055
 20
120.2529793851
 11
286.9598278055
 21
128.3029793851
  0
LINE
  8
0
 62
7
  6
CONTINUOUS
 10
292.5005592102
 20
125.7923321358
 11
292.5011608956
 21
125.7959085322
  0
POLYLINE
  8
0
 62
7
  6
CONTINUOUS
 66
1
 70
0
  0
VERTEX
  8
0
 62
7
  6
CONTINUOUS
 10
290.3735409515
 20
148.0082344652
  0
VERTEX
  8
0
 62
7
  6
CONTINUOUS
 10
290.2959614623
 20
148.1758328936
  0
VERTEX
  8
0
 62
7
  6
CONTINUOUS
 10
290.1969613011
 20
148.3701939388
  0
VERTEX
  8
0
 62
7
  6
CONTINUOUS
 10
290.0874660054
 20
148.5637069889
  0
VERTEX
  8
0
 62
7
  6
CONTINUOUS
 10
289.9665944967
 20
148.7554666238
  0
VERTEX
  8
0
 62
7
  6
CONTINUOUS
 10
289.8334870765
 20
148.9444094476
  0
VERTEX
  8
0
 62
7
  6
CONTINUOUS
 10
289.6872834041
 20
149.1293704999
  0
VERTEX
  8
0
 62
7
  6
CONTINUOUS
 10
289.5271331408
 20
149.3090704667
  0
VERTEX
  8
0
 62
7
  6
CONTINUOUS
 10
289.3522085901
 20
149.4821064167
  0
VERTEX
  8
0
 62
7
  6
CONTINUOUS
 10
289.1617045331
 20
149.6469549415
  0
VERTEX
  8
0
 62
7
  6
CONTINUOUS
 10
288.9549263336
 20
149.8019115446
  0
VERTEX
  8
0
 62
7
  6
CONTINUOUS
 10
288.7316767516
 20
149.9449054475
  0
VERTEX
  8
0
 62
7
  6
CONTINUOUS
 10
288.4920036961
 20
150.0738462673
  0
VERTEX
  8
0
 62
7
  6
CONTINUOUS
 10
288.2360448868
 20
150.1867479794
  0
VERTEX
  8
0
 62
7
  6
CONTINUOUS
 10
287.9638315244
 20
150.281770527
  0
VERTEX
  8
0
 62
7
  6
CONTINUOUS
 10
287.6751641579
 20
150.357148104
  0
VERTEX
  8
0
 62
7
  6
CONTINUOUS
 10
287.3698607455
 20
150.4110140998
  0
VERTEX
  8
0
 62
7
  6
CONTINUOUS
 10
287.048791865
 20
150.4413120516
  0
VERTEX
  8
0
 62
7
  6
CONTINUOUS
 10
286.820020745
 20
150.4474789268
  0
SEQEND
  0
POLYLINE
  8
0
 62
7
  6
CONTINUOUS
 66
1
 70
0
  0
VERTEX
  8
0
 62
7
  6
CONTINUOUS
 10
290.5312356582
 20
147.61561163
  0
VERTEX
  8
0
 62
7
  6
CONTINUOUS
 10
290.4851769555
 20
147.7388235537
  0
VERTEX
  8
0
 62
7
  6
CONTINUOUS
 10
290.4247462384
 20
147.8892117447
  0
VERTEX
  8
0
 62
7
  6
CONTINUOUS
 10
290.3735412436
 20
148.0082345946
  0
SEQEND
  0
LINE
  8
0
 62
7
  6
CONTINUOUS
 10
290.5312356475
 20
147.6156115551
 11
290.531507458
 21
147.6148593673
  0
LINE
  8
0
 62
7
  6
CONTINUOUS
 10
291.3429872682
 20
145.1369121122
 11
291.3423533318
 21
145.1390656639
  0
LINE
  8
0
 62
7
  6
CONTINUOUS
 10
291.7338825646
 20
143.7202387137
 11
291.7321306141
 21
143.7270353056
  0
LINE
  8
AXES
 62
2
  6
CENTER
 10
290.1098278055
 20
145.6529793851
 11
288.9598278055
 21
145.6529793851
  0
LINE
  8
AXES
 62
2
  6
CONTINUOUS
 10
285.9098278055
 20
145.6529793851
 11
283.8098278055
 21
145.6529793851
  0
LINE
  8
AXES
 62
2
  6
CENTER
 10
279.6098278055
 20
145.6529793851
 11
280.7598278055
 21
145.6529793851
  0
POLYLINE
  8
0
 62
7
  6
CONTINUOUS
 66
1
 70
0
  0
VERTEX
  8
0
 62
7
  6
CONTINUOUS
 10
282.9798780081
 20
150.4474787326
  0
VERTEX
  8
0
 62
7
  6
CONTINUOUS
 10
282.7408658349
 20
150.4416514598
  0
VERTEX
  8
0
 62
7
  6
CONTINUOUS
 10
282.4133922872
 20
150.4139306273
  0
VERTEX
  8
0
 62
7
  6
CONTINUOUS
 10
282.1044923383
 20
150.3654135749
  0
VERTEX
  8
0
 62
7
  6
CONTINUOUS
 10
281.8135402093
 20
150.2980924745
  0
VERTEX
  8
0
 62
7
  6
CONTINUOUS
 10
281.5391444423
 20
150.2134524601
  0
VERTEX
  8
0
 62
7
  6
CONTINUOUS
 10
281.2799942283
 20
150.1125497374
  0
VERTEX
  8
0
 62
7
  6
CONTINUOUS
 10
281.03565364
 20
149.9964388259
  0
VERTEX
  8
0
 62
7
  6
CONTINUOUS
 10
280.8064761248
 20
149.8664916139
  0
VERTEX
  8
0
 62
7
  6
CONTINUOUS
 10
280.5928038802
 20
149.7242265908
  0
VERTEX
  8
0
 62
7
  6
CONTINUOUS
 10
280.3949020249
 20
149.5713132594
  0
VERTEX
  8
0
 62
7
  6
CONTINUOUS
 10
280.2128775209
 20
149.4095281525
  0
VERTEX
  8
0
 62
7
  6
CONTINUOUS
 10
280.0466925513
 20
149.2407584688
  0
VERTEX
  8
0
 62
7
  6
CONTINUOUS
 10
279.8960644399
 20
149.0668741214
  0
VERTEX
  8
0
 62
7
  6
CONTINUOUS
 10
279.7601276793
 20
148.8891696024
  0
VERTEX
  8
0
 62
7
  6
CONTINUOUS
 10
279.6378844602
 20
148.7086486044
  0
VERTEX
  8
0
 62
7
  6
CONTINUOUS
 10
279.5283581265
 20
148.5261648847
  0
VERTEX
  8
0
 62
7
  6
CONTINUOUS
 10
279.4305986656
 20
148.3424248826
  0
VERTEX
  8
0
 62
7
  6
CONTINUOUS
 10
279.3436781183
 20
148.1579567173
  0
VERTEX
  8
0
 62
7
  6
CONTINUOUS
 10
279.2785264905
 20
148.003059486
  0
SEQEND
  0
LINE
  8
0
 62
7
  6
CONTINUOUS
 10
282.97869877
 20
150.4474777169
 11
286.8192730889
 21
150.4474777582
  0
LINE
  8
0
 62
7
  6
CONTINUOUS
 10
286.8200425332
 20
150.4474777457
 11
286.8209455618
 21
150.4474777133
  0
ARC
  8
0
 62
7
  6
CONTINUOUS
 10
105.2771719437
 20
226.8953526581
 40
0.15
 50
180.0
 51
270.0
  0
ARC
  8
0
 62
7
  6
CONTINUOUS
 10
113.5771719437
 20
226.8953526581
 40
0.15
 50
270.0
 51
360.0
  0
ARC
  8
0
 62
7
  6
CONTINUOUS
 10
155.0311719437
 20
226.8953526581
 40
0.15
 50
258.7500000141
 51
268.477024442
  0
ARC
  8
0
 62
7
  6
CONTINUOUS
 10
146.5231719437
 20
226.8953526581
 40
0.15
 50
271.5229755582
 51
281.25
  0
ARC
  8
0
 62
7
  6
CONTINUOUS
 10
83.5771719437
 20
226.8953526581
 40
0.15
 50
180.0
 51
270.0
  0
ARC
  8
0
 62
7
  6
CONTINUOUS
 10
135.4311863068
 20
227.4953526581
 40
0.75
 50
180.0
 51
270.0
  0
ARC
  8
0
 62
7
  6
CONTINUOUS
 10
96.0521575805
 20
227.4953526581
 40
0.75
 50
270.0
 51
360.0
  0
ARC
  8
0
 62
7
  6
CONTINUOUS
 10
91.5521863068
 20
227.4953526581
 40
0.75
 50
180.0
 51
270.0
  0
ARC
  8
0
 62
7
  6
CONTINUOUS
 10
121.6771863068
 20
227.4953526581
 40
0.75
 50
180.0
 51
270.0
  0
ARC
  8
0
 62
7
  6
CONTINUOUS
 10
126.1771575805
 20
227.4953526581
 40
0.75
 50
270.0
 51
360.0
  0
ARC
  8
0
 62
7
  6
CONTINUOUS
 10
139.9311575805
 20
227.4953526581
 40
0.75
 50
270.0
 51
360.0
  0
ARC
  8
0
 62
7
  6
CONTINUOUS
 10
148.5271719437
 20
227.4953526581
 40
0.75
 50
180.0
 51
270.0
  0
ARC
  8
0
 62
7
  6
CONTINUOUS
 10
153.0271719437
 20
227.4953526581
 40
0.75
 50
270.0
 51
360.0
  0
ARC
  8
0
 62
7
  6
CONTINUOUS
 10
167.7311719437
 20
226.8953526581
 40
0.15
 50
258.7500000141
 51
268.477024442
  0
ARC
  8
0
 62
7
  6
CONTINUOUS
 10
159.2231719437
 20
226.8953526581
 40
0.15
 50
271.5229755582
 51
281.25
  0
ARC
  8
0
 62
7
  6
CONTINUOUS
 10
180.4311719437
 20
226.8953526581
 40
0.15
 50
258.7500000141
 51
268.477024442
  0
ARC
  8
0
 62
7
  6
CONTINUOUS
 10
171.9231719437
 20
226.8953526581
 40
0.15
 50
271.5229755582
 51
281.25
  0
ARC
  8
0
 62
7
  6
CONTINUOUS
 10
193.1311719437
 20
226.8953526581
 40
0.15
 50
258.7500000141
 51
268.477024442
  0
ARC
  8
0
 62
7
  6
CONTINUOUS
 10
184.6231719437
 20
226.8953526581
 40
0.15
 50
271.5229755582
 51
281.25
  0
ARC
  8
0
 62
7
  6
CONTINUOUS
 10
205.8311719437
 20
226.8953526581
 40
0.15
 50
258.7500000141
 51
268.477024442
  0
ARC
  8
0
 62
7
  6
CONTINUOUS
 10
197.3231719437
 20
226.8953526581
 40
0.15
 50
271.5229755582
 51
281.25
  0
ARC
  8
0
 62
7
  6
CONTINUOUS
 10
218.5311719437
 20
226.8953526581
 40
0.15
 50
258.7500000141
 51
268.477024442
  0
ARC
  8
0
 62
7
  6
CONTINUOUS
 10
210.0231719437
 20
226.8953526581
 40
0.15
 50
271.5229755582
 51
281.25
  0
ARC
  8
0
 62
7
  6
CONTINUOUS
 10
222.7231719437
 20
226.8953526581
 40
0.15
 50
271.5229755581
 51
281.25
  0
ARC
  8
0
 62
7
  6
CONTINUOUS
 10
199.3271719437
 20
227.4953526581
 40
0.75
 50
180.0
 51
270.0
  0
ARC
  8
0
 62
7
  6
CONTINUOUS
 10
203.8271719437
 20
227.4953526581
 40
0.75
 50
270.0
 51
360.0
  0
ARC
  8
0
 62
7
  6
CONTINUOUS
 10
212.0271719437
 20
227.4953526581
 40
0.75
 50
180.0
 51
270.0
  0
ARC
  8
0
 62
7
  6
CONTINUOUS
 10
216.5271719437
 20
227.4953526581
 40
0.75
 50
270.0
 51
360.0
  0
ARC
  8
0
 62
7
  6
CONTINUOUS
 10
224.7271719437
 20
227.4953526581
 40
0.75
 50
180.0
 51
270.0
  0
ARC
  8
0
 62
7
  6
CONTINUOUS
 10
229.2271719437
 20
227.4953526581
 40
0.75
 50
270.0
 51
360.0
  0
ARC
  8
0
 62
7
  6
CONTINUOUS
 10
161.2271719437
 20
227.4953526581
 40
0.75
 50
180.0
 51
270.0
  0
ARC
  8
0
 62
7
  6
CONTINUOUS
 10
165.7271719437
 20
227.4953526581
 40
0.75
 50
270.0
 51
360.0
  0
ARC
  8
0
 62
7
  6
CONTINUOUS
 10
173.9271719437
 20
227.4953526581
 40
0.75
 50
180.0
 51
270.0
  0
ARC
  8
0
 62
7
  6
CONTINUOUS
 10
178.4271719437
 20
227.4953526581
 40
0.75
 50
270.0
 51
360.0
  0
ARC
  8
0
 62
7
  6
CONTINUOUS
 10
186.6271719437
 20
227.4953526581
 40
0.75
 50
180.0
 51
270.0
  0
ARC
  8
0
 62
7
  6
CONTINUOUS
 10
191.1271719437
 20
227.4953526581
 40
0.75
 50
270.0
 51
360.0
  0
ARC
  8
0
 62
7
  6
CONTINUOUS
 10
109.9271719437
 20
120.4029793851
 40
4.5
 50
270.0
 51
299.9997624355
  0
ARC
  8
0
 62
7
  6
CONTINUOUS
 10
108.9271719437
 20
120.4029793851
 40
4.5
 50
240.0002375645
 51
270.0
  0
ARC
  8
0
 62
7
  6
CONTINUOUS
 10
94.3021719437
 20
120.4029793851
 40
4.5
 50
270.0
 51
299.9997624355
  0
ARC
  8
0
 62
7
  6
CONTINUOUS
 10
93.3021719437
 20
120.4029793851
 40
4.5
 50
240.0002375645
 51
270.0
  0
ARC
  8
AXES
 62
7
  6
CONTINUOUS
 10
106.6271719437
 20
120.2329793851
 40
1.5
 50
94.1260708806
 51
257.7538206432
  0
ARC
  8
AXES
 62
7
  6
CONTINUOUS
 10
112.2271719437
 20
120.2329793851
 40
1.5
 50
282.2461793568
 51
85.8739291194
  0
ARC
  8
0
 62
7
  6
CONTINUOUS
 10
106.9271859954
 20
116.938869608
 40
0.5000000053
 50
180.0000149627
 51
240.0002759555
  0
ARC
  8
0
 62
7
  6
CONTINUOUS
 10
91.3021859954
 20
116.938869608
 40
0.5000000053
 50
180.0000149627
 51
240.0002759555
  0
ARC
  8
0
 62
7
  6
CONTINUOUS
 10
111.9271575805
 20
116.9388694774
 40
0.5
 50
299.9997624355
 51
360.0
  0
ARC
  8
0
 62
7
  6
CONTINUOUS
 10
96.3021575805
 20
116.9388694774
 40
0.5
 50
299.9997624355
 51
360.0
  0
ARC
  8
AXES
 62
7
  6
CONTINUOUS
 10
106.2771863068
 20
118.6205247178
 40
0.15
 50
0.0
 51
77.7538206431
  0
ARC
  8
AXES
 62
7
  6
CONTINUOUS
 10
106.5084523067
 20
121.8787028272
 40
0.15
 50
274.1260708806
 51
345.8
  0
ARC
  8
AXES
 62
7
  6
CONTINUOUS
 10
96.6521575805
 20
120.9273815191
 40
0.15
 50
0.0
 51
14.2
  0
ARC
  8
0
 62
7
  6
CONTINUOUS
 10
96.6521573003
 20
120.9273826263
 40
0.15
 50
359.999577065
 51
14.1995637334
  0
ARC
  8
0
 62
7
  6
CONTINUOUS
 10
106.5771863068
 20
120.9273815191
 40
0.15
 50
165.8
 51
180.0
  0
ARC
  8
0
 62
7
  6
CONTINUOUS
 10
112.2771575805
 20
120.9273815191
 40
0.15
 50
0.0
 51
14.2
  0
ARC
  8
AXES
 62
7
  6
CONTINUOUS
 10
112.3458915806
 20
121.8787028272
 40
0.15
 50
194.2
 51
265.8739291194
  0
ARC
  8
AXES
 62
7
  6
CONTINUOUS
 10
112.5771575805
 20
118.6205247178
 40
0.15
 50
102.2461793568
 51
180.0
  0
ARC
  8
AXES
 62
7
  6
CONTINUOUS
 10
90.9521863068
 20
120.9273815191
 40
0.15
 50
165.8
 51
180.0
  0
ARC
  8
0
 62
7
  6
CONTINUOUS
 10
90.9521863068
 20
120.9273815191
 40
0.15
 50
165.8
 51
180.0
  0
ARC
  8
AXES
 62
7
  6
CONTINUOUS
 10
85.5521719437
 20
127.25161754
 40
6.0
 50
3.9593198646
 51
5.1547598159
  0
ARC
  8
AXES
 62
7
  6
CONTINUOUS
 10
85.5521719437
 20
127.25161754
 40
6.0
 50
8.032716553
 51
10.0918668683
  0
ARC
  8
0
 62
7
  6
CONTINUOUS
 10
85.5521719437
 20
127.25161754
 40
6.0
 50
359.9998289054
 51
70.3309087661
  0
ARC
  8
0
 62
7
  6
CONTINUOUS
 10
100.0521719437
 20
128.6529793851
 40
4.0
 50
89.999723909
 51
180.00030956
  0
ARC
  8
0
 62
7
  6
CONTINUOUS
 10
104.1771719437
 20
129.6529793851
 40
3.0
 50
359.9996496356
 51
90.0003873252
  0
ARC
  8
0
 62
7
  6
CONTINUOUS
 10
118.9771719437
 20
129.8029793851
 40
2.7
 50
359.9996366147
 51
90.0003614392
  0
ARC
  8
0
 62
7
  6
CONTINUOUS
 10
114.3771719437
 20
129.8029793851
 40
2.7
 50
89.9996301902
 51
180.0003555156
  0
ARC
  8
0
 62
7
  6
CONTINUOUS
 10
112.1771719437
 20
123.9722576773
 40
0.5
 50
180.0000434331
 51
194.1999095363
  0
ARC
  8
AXES
 62
7
  6
CONTINUOUS
 10
112.1771719437
 20
123.9722576773
 40
0.5
 50
180.0
 51
184.2639730727
  0
ARC
  8
AXES
 62
7
  6
CONTINUOUS
 10
112.1771719437
 20
123.9722576773
 40
0.5
 50
185.0481113768
 51
189.1490096538
  0
ARC
  8
AXES
 62
7
  6
CONTINUOUS
 10
112.1771719437
 20
123.9722576773
 40
0.5
 50
189.9394663559
 51
194.2
  0
ARC
  8
0
 62
7
  6
CONTINUOUS
 10
106.6771719437
 20
123.9722576773
 40
0.5
 50
345.8000232447
 51
0.0000037398
  0
ARC
  8
AXES
 62
7
  6
CONTINUOUS
 10
106.6771719437
 20
123.9722576773
 40
0.5
 50
345.8
 51
350.0603159708
  0
ARC
  8
AXES
 62
7
  6
CONTINUOUS
 10
106.6771719437
 20
123.9722576773
 40
0.5
 50
350.8517292184
 51
354.95136261
  0
ARC
  8
AXES
 62
7
  6
CONTINUOUS
 10
106.6771719437
 20
123.9722576773
 40
0.5
 50
355.7373127391
 51
360.0
  0
ARC
  8
0
 62
7
  6
CONTINUOUS
 10
96.5521719437
 20
123.9722576773
 40
0.5
 50
180.000019695
 51
194.2000046172
  0
ARC
  8
AXES
 62
7
  6
CONTINUOUS
 10
96.5521719437
 20
123.9722576773
 40
0.5
 50
180.0
 51
184.2648459159
  0
ARC
  8
AXES
 62
7
  6
CONTINUOUS
 10
96.5521719437
 20
123.9722576773
 40
0.5
 50
185.0483520967
 51
189.150340182
  0
ARC
  8
AXES
 62
7
  6
CONTINUOUS
 10
96.5521719437
 20
123.9722576773
 40
0.5
 50
189.9388413887
 51
194.2
  0
ARC
  8
0
 62
7
  6
CONTINUOUS
 10
91.0521719437
 20
123.9722576773
 40
0.5
 50
345.8000232447
 51
0.0000037398
  0
ARC
  8
AXES
 62
7
  6
CONTINUOUS
 10
91.0521719437
 20
123.9722576773
 40
0.5
 50
345.8
 51
350.0603159709
  0
ARC
  8
AXES
 62
7
  6
CONTINUOUS
 10
91.0521719437
 20
123.9722576773
 40
0.5
 50
350.8517292183
 51
354.9513626099
  0
ARC
  8
AXES
 62
7
  6
CONTINUOUS
 10
91.0521719437
 20
123.9722576773
 40
0.5
 50
355.7373127392
 51
360.0
  0
ARC
  8
0
 62
7
  6
CONTINUOUS
 10
138.1811719437
 20
120.4429793851
 40
4.54
 50
270.0
 51
299.6727803588
  0
ARC
  8
0
 62
7
  6
CONTINUOUS
 10
137.1811719437
 20
120.4429793851
 40
4.54
 50
240.3272196412
 51
270.0
  0
ARC
  8
0
 62
7
  6
CONTINUOUS
 10
124.4271719437
 20
120.4029793851
 40
4.5
 50
270.0
 51
299.9997624355
  0
ARC
  8
0
 62
7
  6
CONTINUOUS
 10
123.4271719437
 20
120.4029793851
 40
4.5
 50
240.0002375645
 51
270.0
  0
ARC
  8
0
 62
7
  6
CONTINUOUS
 10
150.7771719437
 20
119.9029793851
 40
4.0
 50
224.4153085972
 51
315.5846914028
  0
ARC
  8
0
 62
7
  6
CONTINUOUS
 10
148.2771721507
 20
117.4534893446
 40
0.5000000086
 50
179.9999658822
 51
224.4152676244
  0
ARC
  8
0
 62
7
  6
CONTINUOUS
 10
135.1811859862
 20
116.9327576671
 40
0.5000000052
 50
180.0000153891
 51
240.3272591819
  0
ARC
  8
0
 62
7
  6
CONTINUOUS
 10
121.4271859954
 20
116.938869608
 40
0.5000000053
 50
180.0000149627
 51
240.0002759555
  0
ARC
  8
0
 62
7
  6
CONTINUOUS
 10
153.2771719437
 20
117.4534896423
 40
0.5
 50
315.5846914028
 51
360.0
  0
ARC
  8
0
 62
7
  6
CONTINUOUS
 10
140.1811575805
 20
116.9327575328
 40
0.5
 50
299.6727803588
 51
360.0
  0
ARC
  8
0
 62
7
  6
CONTINUOUS
 10
126.4271575805
 20
116.9388694774
 40
0.5
 50
299.9997624355
 51
360.0
  0
ARC
  8
AXES
 62
7
  6
CONTINUOUS
 10
121.0771863068
 20
120.9273815191
 40
0.15
 50
165.8
 51
180.0
  0
ARC
  8
0
 62
7
  6
CONTINUOUS
 10
121.0771868428
 20
120.9273836372
 40
0.15
 50
165.8008345876
 51
180.0008090641
  0
ARC
  8
0
 62
7
  6
CONTINUOUS
 10
153.6271719437
 20
120.9273815191
 40
0.15
 50
0.0
 51
14.2
  0
ARC
  8
0
 62
7
  6
CONTINUOUS
 10
140.5311575805
 20
120.9273815191
 40
0.15
 50
0.0
 51
14.2
  0
ARC
  8
0
 62
7
  6
CONTINUOUS
 10
147.9271724796
 20
120.9273836371
 40
0.15
 50
165.8008345302
 51
180.0008090084
  0
ARC
  8
AXES
 62
7
  6
CONTINUOUS
 10
147.9271719437
 20
120.9273815191
 40
0.15
 50
165.8
 51
180.0
  0
ARC
  8
0
 62
7
  6
CONTINUOUS
 10
126.7771575805
 20
120.9273815191
 40
0.15
 50
0.0
 51
14.2
  0
ARC
  8
0
 62
7
  6
CONTINUOUS
 10
134.8311868428
 20
120.9273836372
 40
0.15
 50
165.8008345876
 51
180.0008090641
  0
ARC
  8
AXES
 62
7
  6
CONTINUOUS
 10
134.8311863068
 20
120.9273815191
 40
0.15
 50
165.8
 51
180.0
  0
ARC
  8
0
 62
7
  6
CONTINUOUS
 10
132.7311719437
 20
129.8029793851
 40
2.7
 50
359.9996366147
 51
90.0003614392
  0
ARC
  8
0
 62
7
  6
CONTINUOUS
 10
128.8771719437
 20
129.8029793851
 40
2.7
 50
89.9996301902
 51
180.0003555156
  0
ARC
  8
0
 62
7
  6
CONTINUOUS
 10
146.5271719437
 20
130.1689793851
 40
2.0
 50
359.9995383467
 51
90.0004661199
  0
ARC
  8
0
 62
7
  6
CONTINUOUS
 10
155.0271719437
 20
130.1689793851
 40
2.0
 50
89.9995342696
 51
180.0004621291
  0
ARC
  8
0
 62
7
  6
CONTINUOUS
 10
141.9311719437
 20
130.1689793851
 40
2.0
 50
89.9995342696
 51
180.0004621291
  0
ARC
  8
0
 62
7
  6
CONTINUOUS
 10
148.0271719437
 20
123.9723144399
 40
0.5
 50
345.8000476299
 51
359.9999120325
  0
ARC
  8
AXES
 62
7
  6
CONTINUOUS
 10
148.0271719437
 20
123.9723144399
 40
0.5
 50
345.8
 51
350.0609163037
  0
ARC
  8
AXES
 62
7
  6
CONTINUOUS
 10
148.0271719437
 20
123.9723144399
 40
0.5
 50
350.8503381195
 51
354.9518703931
  0
ARC
  8
AXES
 62
7
  6
CONTINUOUS
 10
148.0271719437
 20
123.9723144399
 40
0.5
 50
355.7382317298
 51
360.0
  0
ARC
  8
0
 62
7
  6
CONTINUOUS
 10
153.5271719437
 20
123.9723144399
 40
0.5
 50
180.0000879381
 51
194.1999523252
  0
ARC
  8
AXES
 62
7
  6
CONTINUOUS
 10
153.5271719437
 20
123.9723144399
 40
0.5
 50
189.9390834344
 51
194.2
  0
ARC
  8
AXES
 62
7
  6
CONTINUOUS
 10
153.5271719437
 20
123.9723144399
 40
0.5
 50
185.0481302839
 51
189.1496625575
  0
ARC
  8
AXES
 62
7
  6
CONTINUOUS
 10
153.5271719437
 20
123.9723144399
 40
0.5
 50
180.0
 51
184.2617680017
  0
ARC
  8
0
 62
7
  6
CONTINUOUS
 10
134.9311719437
 20
123.9722576773
 40
0.5
 50
345.80004763
 51
359.9999120327
  0
ARC
  8
AXES
 62
7
  6
CONTINUOUS
 10
134.9311719437
 20
123.9722576773
 40
0.5
 50
345.7999999998
 51
350.0609162944
  0
ARC
  8
AXES
 62
7
  6
CONTINUOUS
 10
134.9311719437
 20
123.9722576773
 40
0.5
 50
350.8503381441
 51
354.9518704174
  0
ARC
  8
AXES
 62
7
  6
CONTINUOUS
 10
134.9311719437
 20
123.9722576773
 40
0.5
 50
355.7382317199
 51
360.0
  0
ARC
  8
0
 62
7
  6
CONTINUOUS
 10
140.4311719437
 20
123.9722576773
 40
0.5
 50
180.000043433
 51
194.1999095363
  0
ARC
  8
AXES
 62
7
  6
CONTINUOUS
 10
140.4311719437
 20
123.9722576773
 40
0.5
 50
180.0
 51
184.2639730728
  0
ARC
  8
AXES
 62
7
  6
CONTINUOUS
 10
140.4311719437
 20
123.9722576773
 40
0.5
 50
185.0481113767
 51
189.1490096539
  0
ARC
  8
AXES
 62
7
  6
CONTINUOUS
 10
140.4311719437
 20
123.9722576773
 40
0.5
 50
189.9394663558
 51
194.2
  0
ARC
  8
0
 62
7
  6
CONTINUOUS
 10
126.6771719437
 20
123.9722576773
 40
0.5
 50
180.000043433
 51
194.1999095363
  0
ARC
  8
AXES
 62
7
  6
CONTINUOUS
 10
126.6771719437
 20
123.9722576773
 40
0.5
 50
180.0
 51
184.2639730728
  0
ARC
  8
AXES
 62
7
  6
CONTINUOUS
 10
126.6771719437
 20
123.9722576773
 40
0.5
 50
185.0481113768
 51
189.1490096539
  0
ARC
  8
AXES
 62
7
  6
CONTINUOUS
 10
126.6771719437
 20
123.9722576773
 40
0.5
 50
189.9394663558
 51
194.2
  0
ARC
  8
0
 62
7
  6
CONTINUOUS
 10
121.1771719437
 20
123.9722576773
 40
0.5
 50
345.80004763
 51
359.9999120327
  0
ARC
  8
AXES
 62
7
  6
CONTINUOUS
 10
121.1771719437
 20
123.9722576773
 40
0.5
 50
345.8
 51
350.0609162946
  0
ARC
  8
AXES
 62
7
  6
CONTINUOUS
 10
121.1771719437
 20
123.9722576773
 40
0.5
 50
350.850338144
 51
354.9518704175
  0
ARC
  8
AXES
 62
7
  6
CONTINUOUS
 10
121.1771719437
 20
123.9722576773
 40
0.5
 50
355.7382317198
 51
360.0
  0
ARC
  8
0
 62
7
  6
CONTINUOUS
 10
93.4271719437
 20
138.7029793851
 40
5.5
 50
210.7881902385
 51
270.0002134576
  0
ARC
  8
0
 62
7
  6
CONTINUOUS
 10
108.6771719437
 20
137.8029793851
 40
4.5
 50
179.9997703741
 51
270.000257228
  0
ARC
  8
0
 62
7
  6
CONTINUOUS
 10
110.1771719437
 20
137.8029793851
 40
4.5
 50
269.9997712509
 51
0.0002578827
  0
ARC
  8
0
 62
7
  6
CONTINUOUS
 10
95.1771719437
 20
137.7029793851
 40
4.5
 50
269.9997687717
 51
0.0002256948
  0
ARC
  8
0
 62
7
  6
CONTINUOUS
 10
86.4271719437
 20
136.4965312309
 40
3.0
 50
179.9995824555
 51
250.3310978759
  0
ARC
  8
0
 62
7
  6
CONTINUOUS
 10
119.6771719437
 20
141.9407010929
 40
0.5
 50
165.8000232516
 51
180.0000037413
  0
ARC
  8
0
 62
7
  6
CONTINUOUS
 10
114.1771719437
 20
141.9407010929
 40
0.5
 50
0.0000196988
 51
14.2000046195
  0
ARC
  8
0
 62
7
  6
CONTINUOUS
 10
104.6771719437
 20
141.9407010929
 40
0.5
 50
165.8000232515
 51
180.0000037413
  0
ARC
  8
0
 62
7
  6
CONTINUOUS
 10
99.1771719437
 20
141.9407055707
 40
0.5
 50
0.0000434023
 51
14.198899021
  0
ARC
  8
0
 62
7
  6
CONTINUOUS
 10
88.8311719437
 20
135.9644973238
 40
0.15
 50
179.9992181607
 51
210.7892060644
  0
ARC
  8
0
 62
7
  6
CONTINUOUS
 10
85.9271719437
 20
147.9474777582
 40
2.5
 50
70.3307146137
 51
180.0006116278
  0
ARC
  8
0
 62
7
  6
CONTINUOUS
 10
119.1811719437
 20
149.2529793851
 40
0.75
 50
0.0
 51
90.0
  0
ARC
  8
0
 62
7
  6
CONTINUOUS
 10
114.6731719437
 20
149.2529793851
 40
0.75
 50
90.0
 51
180.0
  0
ARC
  8
0
 62
7
  6
CONTINUOUS
 10
104.1811719437
 20
149.2529793851
 40
0.75
 50
0.0
 51
90.0
  0
ARC
  8
0
 62
7
  6
CONTINUOUS
 10
99.6731719437
 20
149.2529793851
 40
0.75
 50
90.0
 51
180.0
  0
ARC
  8
0
 62
7
  6
CONTINUOUS
 10
99.0731719437
 20
145.0016615294
 40
0.15
 50
180.0000000001
 51
194.1989894452
  0
ARC
  8
0
 62
7
  6
CONTINUOUS
 10
88.5311719437
 20
149.5123017928
 40
0.15
 50
0.0
 51
70.3307146137
  0
ARC
  8
0
 62
7
  6
CONTINUOUS
 10
104.7811719437
 20
145.0014418598
 40
0.15
 50
345.8
 51
360.0
  0
ARC
  8
0
 62
7
  6
CONTINUOUS
 10
114.073172293
 20
145.0014404794
 40
0.15
 50
179.9994727223
 51
194.1994561007
  0
ARC
  8
0
 62
7
  6
CONTINUOUS
 10
119.7811719437
 20
145.0014418598
 40
0.15
 50
345.8
 51
360.0
  0
ARC
  8
0
 62
7
  6
CONTINUOUS
 10
150.7771719437
 20
137.7569793851
 40
4.104
 50
179.9997361945
 51
0.0002722935
  0
ARC
  8
0
 62
7
  6
CONTINUOUS
 10
137.0311719437
 20
137.3029793851
 40
3.85
 50
179.9997186273
 51
270.0003124557
  0
ARC
  8
0
 62
7
  6
CONTINUOUS
 10
138.3311719437
 20
137.3029793851
 40
3.85
 50
269.9997198972
 51
0.0003135951
  0
ARC
  8
0
 62
7
  6
CONTINUOUS
 10
123.0271719437
 20
137.3029793851
 40
3.85
 50
179.9997186273
 51
270.0003124557
  0
ARC
  8
0
 62
7
  6
CONTINUOUS
 10
124.8271719437
 20
137.3029793851
 40
3.85
 50
269.9997198972
 51
0.0003135951
  0
ARC
  8
0
 62
7
  6
CONTINUOUS
 10
147.1731719437
 20
141.9407010929
 40
0.5
 50
165.8000476345
 51
179.9999120476
  0
ARC
  8
0
 62
7
  6
CONTINUOUS
 10
154.3811719437
 20
141.9407010929
 40
0.5
 50
0.0000879231
 51
14.1999523206
  0
ARC
  8
0
 62
7
  6
CONTINUOUS
 10
133.6811719437
 20
141.9407010929
 40
0.5
 50
165.8000232516
 51
180.0000037413
  0
ARC
  8
0
 62
7
  6
CONTINUOUS
 10
141.6811719437
 20
141.9407010929
 40
0.5
 50
0.0000196988
 51
14.2000046195
  0
ARC
  8
0
 62
7
  6
CONTINUOUS
 10
128.1771719437
 20
141.9407010929
 40
0.5
 50
0.0000196988
 51
14.2000046196
  0
ARC
  8
0
 62
7
  6
CONTINUOUS
 10
154.8771719437
 20
149.2529793851
 40
0.75
 50
90.0
 51
180.0
  0
ARC
  8
0
 62
7
  6
CONTINUOUS
 10
146.6771719437
 20
149.2529793851
 40
0.75
 50
0.0
 51
90.0
  0
ARC
  8
0
 62
7
  6
CONTINUOUS
 10
142.1771719437
 20
149.2529793851
 40
0.75
 50
90.0
 51
180.0
  0
ARC
  8
0
 62
7
  6
CONTINUOUS
 10
133.1851719437
 20
149.2529793851
 40
0.75
 50
0.0
 51
90.0
  0
ARC
  8
0
 62
7
  6
CONTINUOUS
 10
128.6731719437
 20
149.2529793851
 40
0.75
 50
90.0
 51
180.0
  0
ARC
  8
0
 62
7
  6
CONTINUOUS
 10
128.073172293
 20
145.0014404794
 40
0.15
 50
179.9994727223
 51
194.1994561007
  0
ARC
  8
0
 62
7
  6
CONTINUOUS
 10
133.7851719437
 20
145.0014418598
 40
0.15
 50
345.8
 51
360.0
  0
ARC
  8
0
 62
7
  6
CONTINUOUS
 10
141.577172293
 20
145.0014404794
 40
0.15
 50
179.9994727223
 51
194.1994561007
  0
ARC
  8
0
 62
7
  6
CONTINUOUS
 10
154.2771719437
 20
145.0014418598
 40
0.15
 50
180.0
 51
194.2
  0
ARC
  8
0
 62
7
  6
CONTINUOUS
 10
147.2771718771
 20
145.0014415966
 40
0.15
 50
345.8001037234
 51
0.0001005347
  0
ARC
  8
0
 62
7
  6
CONTINUOUS
 10
163.4771719437
 20
119.9029793851
 40
4.0
 50
224.4153085972
 51
315.5846914028
  0
ARC
  8
0
 62
7
  6
CONTINUOUS
 10
173.6771721507
 20
117.4534893446
 40
0.5000000086
 50
179.9999658822
 51
224.4152676244
  0
ARC
  8
0
 62
7
  6
CONTINUOUS
 10
160.9771721507
 20
117.4534893446
 40
0.5000000086
 50
179.9999658822
 51
224.4152676244
  0
ARC
  8
0
 62
7
  6
CONTINUOUS
 10
165.9771719437
 20
117.4534896423
 40
0.5
 50
315.5846914028
 51
360.0
  0
ARC
  8
0
 62
7
  6
CONTINUOUS
 10
173.4271719437
 20
123.9723144399
 40
0.5
 50
345.8000476299
 51
359.9999120325
  0
ARC
  8
AXES
 62
7
  6
CONTINUOUS
 10
173.4271719437
 20
123.9723144399
 40
0.5
 50
345.8
 51
350.0609163037
  0
ARC
  8
AXES
 62
7
  6
CONTINUOUS
 10
173.4271719437
 20
123.9723144399
 40
0.5
 50
350.8503381195
 51
354.9518703932
  0
ARC
  8
AXES
 62
7
  6
CONTINUOUS
 10
173.4271719437
 20
123.9723144399
 40
0.5
 50
355.7382317297
 51
360.0
  0
ARC
  8
0
 62
7
  6
CONTINUOUS
 10
160.7271719437
 20
123.9723144399
 40
0.5
 50
345.8000476299
 51
359.9999120325
  0
ARC
  8
AXES
 62
7
  6
CONTINUOUS
 10
160.7271719437
 20
123.9723144399
 40
0.5
 50
345.8
 51
350.0609163037
  0
ARC
  8
AXES
 62
7
  6
CONTINUOUS
 10
160.7271719437
 20
123.9723144399
 40
0.5
 50
350.8503381195
 51
354.9518703932
  0
ARC
  8
AXES
 62
7
  6
CONTINUOUS
 10
160.7271719437
 20
123.9723144399
 40
0.5
 50
355.7382317297
 51
360.0
  0
ARC
  8
0
 62
7
  6
CONTINUOUS
 10
166.2271719437
 20
123.9723144399
 40
0.5
 50
180.0000879381
 51
194.1999523252
  0
ARC
  8
AXES
 62
7
  6
CONTINUOUS
 10
166.2271719437
 20
123.9723144399
 40
0.5
 50
189.9390834345
 51
194.2
  0
ARC
  8
AXES
 62
7
  6
CONTINUOUS
 10
166.2271719437
 20
123.9723144399
 40
0.5
 50
185.048130284
 51
189.1496625574
  0
ARC
  8
AXES
 62
7
  6
CONTINUOUS
 10
166.2271719437
 20
123.9723144399
 40
0.5
 50
180.0
 51
184.2617680015
  0
ARC
  8
0
 62
7
  6
CONTINUOUS
 10
166.3271719437
 20
120.9273815191
 40
0.15
 50
0.0
 51
14.2
  0
ARC
  8
0
 62
7
  6
CONTINUOUS
 10
173.3271724796
 20
120.9273836371
 40
0.15
 50
165.8008345302
 51
180.0008090085
  0
ARC
  8
AXES
 62
7
  6
CONTINUOUS
 10
173.3271719437
 20
120.9273815191
 40
0.15
 50
165.8
 51
180.0
  0
ARC
  8
0
 62
7
  6
CONTINUOUS
 10
160.6271724796
 20
120.9273836371
 40
0.15
 50
165.8008345302
 51
180.0008090084
  0
ARC
  8
AXES
 62
7
  6
CONTINUOUS
 10
160.6271719437
 20
120.9273815191
 40
0.15
 50
165.8
 51
180.0
  0
ARC
  8
0
 62
7
  6
CONTINUOUS
 10
188.8771719437
 20
119.9029793851
 40
4.0
 50
224.4153085972
 51
315.5846914028
  0
ARC
  8
0
 62
7
  6
CONTINUOUS
 10
176.1771719437
 20
119.9029793851
 40
4.0
 50
224.4153085972
 51
315.5846914028
  0
ARC
  8
0
 62
7
  6
CONTINUOUS
 10
186.3771721507
 20
117.4534893446
 40
0.5000000086
 50
179.9999658822
 51
224.4152676244
  0
ARC
  8
0
 62
7
  6
CONTINUOUS
 10
191.3771719437
 20
117.4534896423
 40
0.5
 50
315.5846914028
 51
360.0
  0
ARC
  8
0
 62
7
  6
CONTINUOUS
 10
178.6771719437
 20
117.4534896423
 40
0.5
 50
315.5846914028
 51
360.0
  0
ARC
  8
0
 62
7
  6
CONTINUOUS
 10
186.1271719437
 20
123.9723144399
 40
0.5
 50
345.8000476299
 51
359.9999120325
  0
ARC
  8
AXES
 62
7
  6
CONTINUOUS
 10
186.1271719437
 20
123.9723144399
 40
0.5
 50
345.8
 51
350.0609163037
  0
ARC
  8
AXES
 62
7
  6
CONTINUOUS
 10
186.1271719437
 20
123.9723144399
 40
0.5
 50
350.8503381195
 51
354.9518703932
  0
ARC
  8
AXES
 62
7
  6
CONTINUOUS
 10
186.1271719437
 20
123.9723144399
 40
0.5
 50
355.7382317297
 51
360.0
  0
ARC
  8
0
 62
7
  6
CONTINUOUS
 10
191.6271719437
 20
123.9723144399
 40
0.5
 50
180.0000879381
 51
194.1999523252
  0
ARC
  8
AXES
 62
7
  6
CONTINUOUS
 10
191.6271719437
 20
123.9723144399
 40
0.5
 50
189.9390834345
 51
194.2
  0
ARC
  8
AXES
 62
7
  6
CONTINUOUS
 10
191.6271719437
 20
123.9723144399
 40
0.5
 50
185.048130284
 51
189.1496625574
  0
ARC
  8
AXES
 62
7
  6
CONTINUOUS
 10
191.6271719437
 20
123.9723144399
 40
0.5
 50
180.0
 51
184.2617680015
  0
ARC
  8
0
 62
7
  6
CONTINUOUS
 10
178.9271719437
 20
123.9723144399
 40
0.5
 50
180.0000879381
 51
194.1999523252
  0
ARC
  8
AXES
 62
7
  6
CONTINUOUS
 10
178.9271719437
 20
123.9723144399
 40
0.5
 50
189.9390834345
 51
194.2
  0
ARC
  8
AXES
 62
7
  6
CONTINUOUS
 10
178.9271719437
 20
123.9723144399
 40
0.5
 50
185.048130284
 51
189.1496625575
  0
ARC
  8
AXES
 62
7
  6
CONTINUOUS
 10
178.9271719437
 20
123.9723144399
 40
0.5
 50
180.0
 51
184.2617680015
  0
ARC
  8
0
 62
7
  6
CONTINUOUS
 10
191.7271719437
 20
120.9273815191
 40
0.15
 50
0.0
 51
14.2
  0
ARC
  8
0
 62
7
  6
CONTINUOUS
 10
179.0271719437
 20
120.9273815191
 40
0.15
 50
0.0
 51
14.2
  0
ARC
  8
0
 62
7
  6
CONTINUOUS
 10
186.0271724796
 20
120.9273836371
 40
0.15
 50
165.8008345302
 51
180.0008090084
  0
ARC
  8
AXES
 62
7
  6
CONTINUOUS
 10
186.0271719437
 20
120.9273815191
 40
0.15
 50
165.8
 51
180.0
  0
ARC
  8
0
 62
7
  6
CONTINUOUS
 10
184.6271719437
 20
130.1689793851
 40
2.0
 50
359.9995383467
 51
90.0004661199
  0
ARC
  8
0
 62
7
  6
CONTINUOUS
 10
193.1271719437
 20
130.1689793851
 40
2.0
 50
89.9995342696
 51
180.0004621291
  0
ARC
  8
0
 62
7
  6
CONTINUOUS
 10
171.9271719437
 20
130.1689793851
 40
2.0
 50
359.9995383467
 51
90.0004661199
  0
ARC
  8
0
 62
7
  6
CONTINUOUS
 10
180.4271719437
 20
130.1689793851
 40
2.0
 50
89.9995342696
 51
180.0004621291
  0
ARC
  8
0
 62
7
  6
CONTINUOUS
 10
159.2271719437
 20
130.1689793851
 40
2.0
 50
359.9995383467
 51
90.0004661199
  0
ARC
  8
0
 62
7
  6
CONTINUOUS
 10
167.7271719437
 20
130.1689793851
 40
2.0
 50
89.9995342696
 51
180.0004621291
  0
ARC
  8
0
 62
7
  6
CONTINUOUS
 10
201.5771719437
 20
119.9029793851
 40
4.0
 50
224.4153085972
 51
315.5846914028
  0
ARC
  8
0
 62
7
  6
CONTINUOUS
 10
211.7771721507
 20
117.4534893446
 40
0.5000000086
 50
179.9999658822
 51
224.4152676244
  0
ARC
  8
0
 62
7
  6
CONTINUOUS
 10
199.0771721507
 20
117.4534893446
 40
0.5000000086
 50
179.9999658822
 51
224.4152676244
  0
ARC
  8
0
 62
7
  6
CONTINUOUS
 10
204.0771719437
 20
117.4534896423
 40
0.5
 50
315.5846914028
 51
360.0
  0
ARC
  8
0
 62
7
  6
CONTINUOUS
 10
211.5271719437
 20
123.9723144399
 40
0.5
 50
345.8000476299
 51
359.9999120325
  0
ARC
  8
AXES
 62
7
  6
CONTINUOUS
 10
211.5271719437
 20
123.9723144399
 40
0.5
 50
345.8
 51
350.0609163037
  0
ARC
  8
AXES
 62
7
  6
CONTINUOUS
 10
211.5271719437
 20
123.9723144399
 40
0.5
 50
350.8503381195
 51
354.9518703932
  0
ARC
  8
AXES
 62
7
  6
CONTINUOUS
 10
211.5271719437
 20
123.9723144399
 40
0.5
 50
355.7382317298
 51
360.0
  0
ARC
  8
0
 62
7
  6
CONTINUOUS
 10
198.8271719437
 20
123.9723144399
 40
0.5
 50
345.8000476299
 51
359.9999120325
  0
ARC
  8
AXES
 62
7
  6
CONTINUOUS
 10
198.8271719437
 20
123.9723144399
 40
0.5
 50
345.8
 51
350.0609163038
  0
ARC
  8
AXES
 62
7
  6
CONTINUOUS
 10
198.8271719437
 20
123.9723144399
 40
0.5
 50
350.8503381194
 51
354.9518703932
  0
ARC
  8
AXES
 62
7
  6
CONTINUOUS
 10
198.8271719437
 20
123.9723144399
 40
0.5
 50
355.7382317297
 51
360.0
  0
ARC
  8
0
 62
7
  6
CONTINUOUS
 10
204.3271719437
 20
123.9723144399
 40
0.5
 50
180.0000879381
 51
194.1999523252
  0
ARC
  8
AXES
 62
7
  6
CONTINUOUS
 10
204.3271719437
 20
123.9723144399
 40
0.5
 50
189.9390834345
 51
194.2
  0
ARC
  8
AXES
 62
7
  6
CONTINUOUS
 10
204.3271719437
 20
123.9723144399
 40
0.5
 50
185.048130284
 51
189.1496625575
  0
ARC
  8
AXES
 62
7
  6
CONTINUOUS
 10
204.3271719437
 20
123.9723144399
 40
0.5
 50
180.0
 51
184.2617680015
  0
ARC
  8
0
 62
7
  6
CONTINUOUS
 10
204.4271719437
 20
120.9273815191
 40
0.15
 50
0.0
 51
14.2
  0
ARC
  8
0
 62
7
  6
CONTINUOUS
 10
211.4271724796
 20
120.9273836371
 40
0.15
 50
165.8008345302
 51
180.0008090084
  0
ARC
  8
AXES
 62
7
  6
CONTINUOUS
 10
211.4271719437
 20
120.9273815191
 40
0.15
 50
165.8
 51
180.0
  0
ARC
  8
0
 62
7
  6
CONTINUOUS
 10
198.7271724796
 20
120.9273836371
 40
0.15
 50
165.8008345302
 51
180.0008090084
  0
ARC
  8
AXES
 62
7
  6
CONTINUOUS
 10
198.7271719437
 20
120.9273815191
 40
0.15
 50
165.8
 51
180.0
  0
ARC
  8
0
 62
7
  6
CONTINUOUS
 10
226.9771719437
 20
119.9029793851
 40
4.0
 50
224.4153085972
 51
315.5846914028
  0
ARC
  8
0
 62
7
  6
CONTINUOUS
 10
214.2771719437
 20
119.9029793851
 40
4.0
 50
224.4153085972
 51
315.5846914028
  0
ARC
  8
0
 62
7
  6
CONTINUOUS
 10
224.4771721507
 20
117.4534893446
 40
0.5000000086
 50
179.9999658822
 51
224.4152676244
  0
ARC
  8
0
 62
7
  6
CONTINUOUS
 10
229.4771719437
 20
117.4534896423
 40
0.5
 50
315.5846914028
 51
360.0
  0
ARC
  8
0
 62
7
  6
CONTINUOUS
 10
216.7771719437
 20
117.4534896423
 40
0.5
 50
315.5846914028
 51
360.0
  0
ARC
  8
0
 62
7
  6
CONTINUOUS
 10
224.2271719437
 20
123.9723144399
 40
0.5
 50
345.8000476299
 51
359.9999120325
  0
ARC
  8
AXES
 62
7
  6
CONTINUOUS
 10
224.2271719437
 20
123.9723144399
 40
0.5
 50
345.8
 51
350.0609163038
  0
ARC
  8
AXES
 62
7
  6
CONTINUOUS
 10
224.2271719437
 20
123.9723144399
 40
0.5
 50
350.8503381195
 51
354.9518703932
  0
ARC
  8
AXES
 62
7
  6
CONTINUOUS
 10
224.2271719437
 20
123.9723144399
 40
0.5
 50
355.7382317298
 51
360.0
  0
ARC
  8
0
 62
7
  6
CONTINUOUS
 10
229.7271719437
 20
123.9723144399
 40
0.5
 50
180.0000879381
 51
194.1999523252
  0
ARC
  8
AXES
 62
7
  6
CONTINUOUS
 10
229.7271719437
 20
123.9723144399
 40
0.5
 50
189.9390834345
 51
194.2
  0
ARC
  8
AXES
 62
7
  6
CONTINUOUS
 10
229.7271719437
 20
123.9723144399
 40
0.5
 50
185.0481302839
 51
189.1496625574
  0
ARC
  8
AXES
 62
7
  6
CONTINUOUS
 10
229.7271719437
 20
123.9723144399
 40
0.5
 50
180.0
 51
184.2617680016
  0
ARC
  8
0
 62
7
  6
CONTINUOUS
 10
217.0271719437
 20
123.9723144399
 40
0.5
 50
180.0000879381
 51
194.1999523252
  0
ARC
  8
AXES
 62
7
  6
CONTINUOUS
 10
217.0271719437
 20
123.9723144399
 40
0.5
 50
189.9390834345
 51
194.2
  0
ARC
  8
AXES
 62
7
  6
CONTINUOUS
 10
217.0271719437
 20
123.9723144399
 40
0.5
 50
185.0481302839
 51
189.1496625575
  0
ARC
  8
AXES
 62
7
  6
CONTINUOUS
 10
217.0271719437
 20
123.9723144399
 40
0.5
 50
180.0
 51
184.2617680016
  0
ARC
  8
0
 62
7
  6
CONTINUOUS
 10
229.8271719437
 20
120.9273815191
 40
0.15
 50
0.0
 51
14.2
  0
ARC
  8
0
 62
7
  6
CONTINUOUS
 10
217.1271719437
 20
120.9273815191
 40
0.15
 50
0.0
 51
14.2
  0
ARC
  8
0
 62
7
  6
CONTINUOUS
 10
224.1271724796
 20
120.9273836371
 40
0.15
 50
165.8008345302
 51
180.0008090084
  0
ARC
  8
AXES
 62
7
  6
CONTINUOUS
 10
224.1271719437
 20
120.9273815191
 40
0.15
 50
165.8
 51
180.0
  0
ARC
  8
0
 62
7
  6
CONTINUOUS
 10
222.7271719437
 20
130.1689793851
 40
2.0
 50
359.9995383467
 51
90.0004661199
  0
ARC
  8
0
 62
7
  6
CONTINUOUS
 10
210.0271719437
 20
130.1689793851
 40
2.0
 50
359.9995383467
 51
90.0004661199
  0
ARC
  8
0
 62
7
  6
CONTINUOUS
 10
218.5271719437
 20
130.1689793851
 40
2.0
 50
89.9995342697
 51
180.0004621291
  0
ARC
  8
0
 62
7
  6
CONTINUOUS
 10
197.3271719437
 20
130.1689793851
 40
2.0
 50
359.9995383467
 51
90.0004661199
  0
ARC
  8
0
 62
7
  6
CONTINUOUS
 10
205.8271719437
 20
130.1689793851
 40
2.0
 50
89.9995342696
 51
180.0004621291
  0
ARC
  8
0
 62
7
  6
CONTINUOUS
 10
228.2271719437
 20
132.6529793851
 40
1.0
 50
0.0
 51
90.0
  0
ARC
  8
0
 62
7
  6
CONTINUOUS
 10
226.9771719437
 20
137.7569793851
 40
4.104
 50
179.9997322379
 51
270.0002768412
  0
ARC
  8
0
 62
7
  6
CONTINUOUS
 10
214.2771719437
 20
137.7569793851
 40
4.104
 50
179.9997361945
 51
0.0002722935
  0
ARC
  8
0
 62
7
  6
CONTINUOUS
 10
201.5771719437
 20
137.7569793851
 40
4.104
 50
179.9997361945
 51
0.0002722935
  0
ARC
  8
0
 62
7
  6
CONTINUOUS
 10
188.8771719437
 20
137.7569793851
 40
4.104
 50
179.9997361945
 51
0.0002722935
  0
ARC
  8
0
 62
7
  6
CONTINUOUS
 10
176.1771719437
 20
137.7569793851
 40
4.104
 50
179.9997361945
 51
0.0002722935
  0
ARC
  8
0
 62
7
  6
CONTINUOUS
 10
163.4771719437
 20
137.7569793851
 40
4.104
 50
179.9997361945
 51
0.0002722935
  0
ARC
  8
0
 62
7
  6
CONTINUOUS
 10
222.8771719437
 20
149.2529793851
 40
0.75
 50
0.0
 51
90.0
  0
ARC
  8
0
 62
7
  6
CONTINUOUS
 10
218.3771719437
 20
149.2529793851
 40
0.75
 50
90.0
 51
180.0
  0
ARC
  8
0
 62
7
  6
CONTINUOUS
 10
210.1771719437
 20
149.2529793851
 40
0.75
 50
0.0
 51
90.0
  0
ARC
  8
0
 62
7
  6
CONTINUOUS
 10
205.6771719437
 20
149.2529793851
 40
0.75
 50
90.0
 51
180.0
  0
ARC
  8
0
 62
7
  6
CONTINUOUS
 10
197.4771719437
 20
149.2529793851
 40
0.75
 50
0.0
 51
90.0
  0
ARC
  8
0
 62
7
  6
CONTINUOUS
 10
192.9771719437
 20
149.2529793851
 40
0.75
 50
90.0
 51
180.0
  0
ARC
  8
0
 62
7
  6
CONTINUOUS
 10
184.7771719437
 20
149.2529793851
 40
0.75
 50
0.0
 51
90.0
  0
ARC
  8
0
 62
7
  6
CONTINUOUS
 10
180.2771719437
 20
149.2529793851
 40
0.75
 50
90.0
 51
180.0
  0
ARC
  8
0
 62
7
  6
CONTINUOUS
 10
172.0771719437
 20
149.2529793851
 40
0.75
 50
0.0
 51
90.0
  0
ARC
  8
0
 62
7
  6
CONTINUOUS
 10
167.5771719437
 20
149.2529793851
 40
0.75
 50
90.0
 51
180.0
  0
ARC
  8
0
 62
7
  6
CONTINUOUS
 10
159.3771719437
 20
149.2529793851
 40
0.75
 50
0.0
 51
90.0
  0
ARC
  8
0
 62
7
  6
CONTINUOUS
 10
223.3731719437
 20
141.9407010929
 40
0.5
 50
165.8000476345
 51
179.9999120476
  0
ARC
  8
0
 62
7
  6
CONTINUOUS
 10
210.6731719437
 20
141.9407010929
 40
0.5
 50
165.8000476345
 51
179.9999120476
  0
ARC
  8
0
 62
7
  6
CONTINUOUS
 10
217.8811719437
 20
141.9407010929
 40
0.5
 50
0.0000879231
 51
14.1999523206
  0
ARC
  8
0
 62
7
  6
CONTINUOUS
 10
197.9731719437
 20
141.9407010929
 40
0.5
 50
165.8000476345
 51
179.9999120476
  0
ARC
  8
0
 62
7
  6
CONTINUOUS
 10
205.1811719437
 20
141.9407010929
 40
0.5
 50
0.0000879231
 51
14.1999523206
  0
ARC
  8
0
 62
7
  6
CONTINUOUS
 10
185.2731719437
 20
141.9407010929
 40
0.5
 50
165.8000476345
 51
179.9999120476
  0
ARC
  8
0
 62
7
  6
CONTINUOUS
 10
192.4811719437
 20
141.9407010929
 40
0.5
 50
0.0000879231
 51
14.1999523206
  0
ARC
  8
0
 62
7
  6
CONTINUOUS
 10
172.5731719437
 20
141.9407010929
 40
0.5
 50
165.8000476345
 51
179.9999120476
  0
ARC
  8
0
 62
7
  6
CONTINUOUS
 10
179.7811719437
 20
141.9407010929
 40
0.5
 50
0.0000879231
 51
14.1999523206
  0
ARC
  8
0
 62
7
  6
CONTINUOUS
 10
159.8731719437
 20
141.9407010929
 40
0.5
 50
165.8000476345
 51
179.9999120476
  0
ARC
  8
0
 62
7
  6
CONTINUOUS
 10
167.0811719437
 20
141.9407010929
 40
0.5
 50
0.0000879231
 51
14.1999523206
  0
ARC
  8
0
 62
7
  6
CONTINUOUS
 10
166.9771719437
 20
145.0014418598
 40
0.15
 50
180.0
 51
194.2
  0
ARC
  8
0
 62
7
  6
CONTINUOUS
 10
159.9771718771
 20
145.0014415966
 40
0.15
 50
345.8001037234
 51
0.0001005346
  0
ARC
  8
0
 62
7
  6
CONTINUOUS
 10
179.6771719437
 20
145.0014418598
 40
0.15
 50
180.0
 51
194.2
  0
ARC
  8
0
 62
7
  6
CONTINUOUS
 10
172.6771718771
 20
145.0014415966
 40
0.15
 50
345.8001037234
 51
0.0001005346
  0
ARC
  8
0
 62
7
  6
CONTINUOUS
 10
192.3771719437
 20
145.0014418598
 40
0.15
 50
180.0
 51
194.2
  0
ARC
  8
0
 62
7
  6
CONTINUOUS
 10
185.3771718771
 20
145.0014415966
 40
0.15
 50
345.8001037234
 51
0.0001005346
  0
ARC
  8
0
 62
7
  6
CONTINUOUS
 10
205.0771719437
 20
145.0014418598
 40
0.15
 50
180.0
 51
194.2
  0
ARC
  8
0
 62
7
  6
CONTINUOUS
 10
198.0771718771
 20
145.0014415966
 40
0.15
 50
345.8001037234
 51
0.0001005347
  0
ARC
  8
0
 62
7
  6
CONTINUOUS
 10
217.7771719437
 20
145.0014418598
 40
0.15
 50
180.0
 51
194.2
  0
ARC
  8
0
 62
7
  6
CONTINUOUS
 10
210.7771718771
 20
145.0014415966
 40
0.15
 50
345.8001037234
 51
0.0001005347
  0
ARC
  8
0
 62
7
  6
CONTINUOUS
 10
223.4771718771
 20
145.0014415966
 40
0.15
 50
345.8001037234
 51
0.0001005346
  0
ARC
  8
0
 62
7
  6
CONTINUOUS
 10
249.9488538276
 20
132.9529793851
 40
43.15
 50
340.5287793655
 51
19.8639976472
  0
ARC
  8
0
 62
7
  6
CONTINUOUS
 10
282.8598278055
 20
119.9029793851
 40
4.0
 50
180.0
 51
270.0
  0
ARC
  8
AXES
 62
7
  6
CONTINUOUS
 10
284.8598278055
 20
120.2529793851
 40
2.1
 50
180.0
 51
360.0
  0
ARC
  8
0
 62
7
  6
CONTINUOUS
 10
286.8598278055
 20
119.9029793851
 40
4.0
 50
270.0
 51
340.5287793655
  0
ARC
  8
AXES
 62
7
  6
CONTINUOUS
 10
284.8598278055
 20
128.3029793851
 40
2.1
 50
0.0
 51
180.0
  0
ARC
  8
0
 62
7
  6
CONTINUOUS
 10
282.8598278055
 20
146.0029793851
 40
4.0
 50
167.4054487862
 51
180.0
  0
CIRCLE
  8
0
 62
7
  6
CONTINUOUS
 10
284.8598278055
 20
145.6529793851
 40
2.75
  0
CIRCLE
  8
0
 62
7
  6
CONTINUOUS
 10
284.8598278055
 20
145.6529793851
 40
2.1
  0
ARC
  8
0
 62
7
  6
CONTINUOUS
 10
292.9487375663
 20
133.0529795892
 40
0.1499999934
 50
0.1331681488
 51
11.3665230546
  0
ENDSEC
  0
EOF
