  0
SECTION
  2
HEADER
  9
$EXTMAX
 10
420.0
 20
297.0
 30
0.0
  9
$EXTMIN
 10
0.0
 20
0.0
 30
0.0
  9
$LIMMIN
 10
0.0
 20
0.0
  9
$LIMMAX
 10
420.0
 20
297.0
  9
$VIEWCTR
 10
210.0
 20
148.5
  9
$VIEWSIZE
 40
297.0
  9
$CLAYER
  8
0
  9
$LTSCALE
 40
23.1
  9
$CELTYPE
  6
BYLAYER
  9
$DIMSCALE
 40
1.0
  9
$DIMASZ
 40
3.5
  9
$DIMEXO
 40
2.625
  9
$DIMDLI
 40
15.96
  9
$DIMEXE
 40
7.56
  9
$DIMCEN
 40
3.78
  9
$DIMLFAC
 40
1.0
  9
$DIMBLK
  1
_FILLED
  9
$DIMTXT
 40
3.5
  9
$PDMODE
 70
3
  9
$PDSIZE
 40
0.3125
  9
$TILEMODE
 70
1
  0
ENDSEC
  0
SECTION
  2
TABLES
  0
TABLE
  2
LTYPE
 70
6
  0
LTYPE
  2
BYBLOCK
 70
0
  3

 72
65
 73
0
 40
0.0
  0
LTYPE
  2
BYLAYER
 70
0
  3

 72
65
 73
0
 40
0.0
  0
LTYPE
  2
CONTINUOUS
 70
64
  3
Solid line
 72
65
 73
0
 40
0.0
  0
LTYPE
  2
CENTER
 70
64
  3
____ _ ____ _ ____ _ ____ _ ____ _ ____ _ ____
 72
65
 73
4
 40
0.6
 49
0.375
 49
-0.075
 49
0.075
 49
-0.075
  0
LTYPE
  2
HIDDEN
 70
64
  3
- - - - - - - - - - - - - - - - - - - -
 72
65
 73
2
 40
0.2
 49
0.1
 49
-0.1
  0
LTYPE
  2
PHANTOM
 70
64
  3
_____ _ _ _____ _ _ _____ _ _ _____
 72
65
 73
6
 40
0.8
 49
0.45
 49
-0.05
 49
0.1
 49
-0.05
 49
0.1
 49
-0.05
  0
LTYPE
  2
DOT
 70
64
  3
. . . . . . . . . . . . . . . . . . . .
 72
65
 73
2
 40
0.2
 49
0.1
 49
-0.1
  0
LTYPE
  2
DASHED
 70
64
  3
- - - - - - - - - - - - - - - - - - - -
 72
65
 73
2
 40
0.2
 49
0.1
 49
-0.1
  0
ENDTAB
  0
TABLE
  2
LAYER
 70
36
  0
LAYER
  2
0
 70
0
 62
7
  6
CONTINUOUS
  0
LAYER
  2
DEFAULT_1
 70
0
 62
7
  6
CENTER
  0
LAYER
  2
DEFAULT_2
 70
0
 62
8
  6
HIDDEN
  0
LAYER
  2
DEFAULT_3
 70
0
 62
7
  6
PHANTOM
  0
LAYER
  2
AXES
 70
0
 62
7
  6
CONTINUOUS
  0
LAYER
  2
CSYS
 70
0
 62
7
  6
CONTINUOUS
  0
LAYER
  2
CURVE
 70
0
 62
7
  6
CONTINUOUS
  0
LAYER
  2
CURVES
 70
0
 62
7
  6
CONTINUOUS
  0
LAYER
  2
PLANES
 70
0
 62
7
  6
CONTINUOUS
  0
LAYER
  2
QUILT
 70
0
 62
7
  6
CONTINUOUS
  0
LAYER
  2
SURF-A
 70
0
 62
7
  6
CONTINUOUS
  0
LAYER
  2
SURFACE
 70
0
 62
7
  6
CONTINUOUS
  0
ENDTAB
  0
TABLE
  2
STYLE
 70
1
  0
STYLE
  2
STANDARD
 70
0
 40
0.0
 41
0.8
 50
0.0
 71
0
 42
0.2
  3
txt
  4

  0
STYLE
  2
TEXTSTYLE_1
 70
0
 40
0.0
 41
0.8
 50
0.0
 71
0
 42
0.2
  3
gdt
  4

  0
STYLE
  2
TEXTSTYLE_2
 70
0
 40
0.0
 41
0.6
 50
0.0
 71
0
 42
0.2
  3
txt
  4

  0
STYLE
  2
TEXTSTYLE_3
 70
0
 40
0.0
 41
1.0
 50
0.0
 71
0
 42
0.2
  3
ftb_____.ttf
  4

  0
STYLE
  2
TEXTSTYLE_4
 70
0
 40
0.0
 41
1.0
 50
0.0
 71
0
 42
0.2
  3
fti_____.ttf
  4

  0
STYLE
  2
TEXTSTYLE_5
 70
0
 40
0.0
 41
1.0
 50
0.0
 71
0
 42
0.2
  3
frutiger light.ttf
  4

  0
STYLE
  2
TEXTSTYLE_6
 70
0
 40
0.0
 41
0.7
 50
0.0
 71
0
 42
0.2
  3
txt
  4

  0
STYLE
  2
TEXTSTYLE_7
 70
0
 40
0.0
 41
0.5
 50
0.0
 71
0
 42
0.2
  3
txt
  4

  0
ENDTAB
  0
ENDSEC
  0
SECTION
  2
BLOCKS
  0
BLOCK
  8
0
 62
2
  6
CONTINUOUS
  2
SYMBOL_5_BL1
 70
64
 10
382.7840918555
 20
35.5067593403
  0
TEXT
  8
0
 62
7
  6
CONTINUOUS
 10
373.842376864
 20
30.5995157174
  7
TEXTSTYLE_4
 40
1.0655737705
  1
The brand for plastic modular belts and chains
 41
1.0
 72
0
  0
LINE
  8
0
 62
7
  6
CONTINUOUS
 10
358.7621602445
 20
36.0805298321
 11
358.7621602445
 21
33.9493822911
  0
LINE
  8
0
 62
7
  6
CONTINUOUS
 10
359.0512227376
 20
30.9584509954
 11
359.0512227376
 21
31.0552420547
  0
LINE
  8
0
 62
7
  6
CONTINUOUS
 10
358.7621602445
 20
31.0229783683
 11
358.8199727462
 21
30.8293962497
  0
LINE
  8
0
 62
7
  6
CONTINUOUS
 10
360.1556028675
 20
33.867415078
 11
360.1556028675
 21
36.0805298321
  0
LINE
  8
0
 62
7
  6
CONTINUOUS
 10
361.0746601894
 20
32.0231527829
 11
361.0746601894
 21
30.5067593403
  0
LINE
  8
0
 62
7
  6
CONTINUOUS
 10
361.3637227445
 20
30.5067593403
 11
361.3637227445
 21
31.2488242184
  0
LINE
  8
0
 62
7
  6
CONTINUOUS
 10
361.3637227445
 20
31.3778789641
 11
361.3637227445
 21
32.0231527829
  0
LINE
  8
0
 62
7
  6
CONTINUOUS
 10
358.8199727462
 20
31.216560532
 11
358.7621602445
 21
31.0229783683
  0
LINE
  8
0
 62
7
  6
CONTINUOUS
 10
359.1668477307
 20
30.7971325633
 11
359.0512227376
 21
30.9584509954
  0
LINE
  8
0
 62
7
  6
CONTINUOUS
 10
360.2652852997
 20
31.3133515913
 11
360.3230977445
 21
31.216560532
  0
LINE
  8
0
 62
7
  6
CONTINUOUS
 10
360.6121602997
 20
31.216560532
 11
360.5543476894
 21
31.3456152777
  0
LINE
  8
0
 62
7
  6
CONTINUOUS
 10
362.0408487691
 20
36.0805298321
 11
362.0408487691
 21
34.2772511436
  0
LINE
  8
0
 62
7
  6
CONTINUOUS
 10
362.0408487691
 20
32.9657757338
 11
362.0408487691
 21
32.3100380288
  0
LINE
  8
0
 62
7
  6
CONTINUOUS
 10
362.4043477445
 20
31.1520331591
 11
362.4043477445
 21
30.5067593403
  0
LINE
  8
0
 62
7
  6
CONTINUOUS
 10
362.6934101343
 20
30.5067593403
 11
362.6934101343
 21
31.1520331591
  0
LINE
  8
0
 62
7
  6
CONTINUOUS
 10
359.0512227376
 20
31.0552420547
 11
359.1090352445
 21
31.1842968456
  0
LINE
  8
0
 62
7
  6
CONTINUOUS
 10
358.8199727462
 20
30.8293962497
 11
358.9355977445
 21
30.7003414814
  0
LINE
  8
0
 62
7
  6
CONTINUOUS
 10
362.3465351343
 20
31.2810879048
 11
362.4043477445
 21
31.1520331591
  0
LINE
  8
0
 62
7
  6
CONTINUOUS
 10
363.1559103548
 20
30.7971325633
 11
363.2137226343
 21
30.668077795
  0
LINE
  8
0
 62
7
  6
CONTINUOUS
 10
362.6934101343
 20
31.1520331591
 11
362.6355978548
 21
31.3133515913
  0
LINE
  8
0
 62
7
  6
CONTINUOUS
 10
363.1559103548
 20
31.3456152777
 11
363.1559103548
 21
31.2810879048
  0
LINE
  8
0
 62
7
  6
CONTINUOUS
 10
363.1559103548
 20
30.8939236226
 11
363.1559103548
 21
30.7971325633
  0
LINE
  8
0
 62
7
  6
CONTINUOUS
 10
363.4342913921
 20
32.3100380288
 11
363.4342913921
 21
36.0805298321
  0
LINE
  8
0
 62
7
  6
CONTINUOUS
 10
363.4449727445
 20
30.7648688543
 11
363.4449727445
 21
30.8293962497
  0
LINE
  8
0
 62
7
  6
CONTINUOUS
 10
363.7621602445
 20
36.0805298321
 11
363.7621602445
 21
32.3100380288
  0
LINE
  8
0
 62
7
  6
CONTINUOUS
 10
360.5543476894
 20
30.7003414814
 11
360.6121602997
 21
30.8293962497
  0
LINE
  8
0
 62
7
  6
CONTINUOUS
 10
364.9480979651
 20
30.6035504109
 11
364.890285024
 21
30.7648688543
  0
LINE
  8
0
 62
7
  6
CONTINUOUS
 10
364.6012229651
 20
31.2810879048
 11
364.6012229651
 21
31.1842968456
  0
LINE
  8
0
 62
7
  6
CONTINUOUS
 10
364.6012229651
 20
31.0552420547
 11
364.6012229651
 21
30.8616599362
  0
LINE
  8
0
 62
7
  6
CONTINUOUS
 10
364.890285024
 20
30.7648688543
 11
364.890285024
 21
31.2810879048
  0
LINE
  8
0
 62
7
  6
CONTINUOUS
 10
365.1556028675
 20
32.3100380288
 11
365.1556028675
 21
34.1133167174
  0
LINE
  8
0
 62
7
  6
CONTINUOUS
 10
365.1556028675
 20
35.4247921272
 11
365.1556028675
 21
36.0805298321
  0
LINE
  8
0
 62
7
  6
CONTINUOUS
 10
365.4684104651
 20
32.0231527829
 11
365.4684104651
 21
31.8618343508
  0
LINE
  8
0
 62
7
  6
CONTINUOUS
 10
365.4684104651
 20
31.5391973962
 11
365.4684104651
 21
30.5067593403
  0
LINE
  8
0
 62
7
  6
CONTINUOUS
 10
365.757472524
 20
30.5067593403
 11
365.757472524
 21
31.5391973962
  0
LINE
  8
0
 62
7
  6
CONTINUOUS
 10
365.757472524
 20
31.8618343508
 11
365.757472524
 21
32.0231527829
  0
LINE
  8
0
 62
7
  6
CONTINUOUS
 10
360.3230977445
 20
30.8293962497
 11
360.2652852997
 21
30.7326051679
  0
LINE
  8
0
 62
7
  6
CONTINUOUS
 10
362.6355978548
 20
31.3133515913
 11
362.5777852445
 21
31.3778789641
  0
LINE
  8
0
 62
7
  6
CONTINUOUS
 10
363.5027853548
 20
30.7003414814
 11
363.4449727445
 21
30.7648688543
  0
LINE
  8
0
 62
7
  6
CONTINUOUS
 10
364.6590352445
 20
30.5712867188
 11
364.716847524
 21
30.5067593403
  0
LINE
  8
0
 62
7
  6
CONTINUOUS
 10
364.6012229651
 20
30.668077795
 11
364.6590352445
 21
30.5712867188
  0
LINE
  8
0
 62
7
  6
CONTINUOUS
 10
365.0059102445
 20
30.5067593403
 11
364.9480979651
 21
30.6035504109
  0
LINE
  8
0
 62
7
  6
CONTINUOUS
 10
364.890285024
 20
31.2810879048
 11
364.8324727445
 21
31.3778789641
  0
LINE
  8
0
 62
7
  6
CONTINUOUS
 10
366.2199727445
 20
31.5391973962
 11
366.2199727445
 21
30.5067593403
  0
LINE
  8
0
 62
7
  6
CONTINUOUS
 10
366.5090354651
 20
30.5067593403
 11
366.5090354651
 21
31.2488242184
  0
LINE
  8
0
 62
7
  6
CONTINUOUS
 10
366.5090354651
 20
31.3778789641
 11
366.5090354651
 21
31.5391973962
  0
LINE
  8
0
 62
7
  6
CONTINUOUS
 10
367.0408487691
 20
34.5231527829
 11
367.0408487691
 21
32.3100380288
  0
LINE
  8
0
 62
7
  6
CONTINUOUS
 10
358.9355977445
 20
31.3456152777
 11
358.8199727462
 21
31.216560532
  0
LINE
  8
0
 62
7
  6
CONTINUOUS
 10
359.1090352445
 20
31.1842968456
 11
359.1668477307
 21
31.2488242184
  0
LINE
  8
0
 62
7
  6
CONTINUOUS
 10
358.9355977445
 20
30.7003414814
 11
359.0512227376
 21
30.6358140973
  0
LINE
  8
0
 62
7
  6
CONTINUOUS
 10
359.3402852307
 20
30.7003414814
 11
359.1668477307
 21
30.7971325633
  0
LINE
  8
0
 62
7
  6
CONTINUOUS
 10
364.543410024
 20
31.3456152777
 11
364.6012229651
 21
31.2810879048
  0
LINE
  8
0
 62
7
  6
CONTINUOUS
 10
367.491847524
 20
31.2810879048
 11
367.5496604651
 21
31.1197694727
  0
LINE
  8
0
 62
7
  6
CONTINUOUS
 10
367.838722524
 20
31.1197694727
 11
367.7809102445
 21
31.2810879048
  0
LINE
  8
0
 62
7
  6
CONTINUOUS
 10
367.5496604651
 20
31.1197694727
 11
367.5496604651
 21
30.5067593403
  0
LINE
  8
0
 62
7
  6
CONTINUOUS
 10
367.838722524
 20
30.5067593403
 11
367.838722524
 21
31.1197694727
  0
LINE
  8
0
 62
7
  6
CONTINUOUS
 10
368.3012227445
 20
31.3456152777
 11
368.3012227445
 21
31.2810879048
  0
LINE
  8
0
 62
7
  6
CONTINUOUS
 10
368.4342913921
 20
32.3100380288
 11
368.4342913921
 21
34.4411855698
  0
LINE
  8
0
 62
7
  6
CONTINUOUS
 10
368.7621602445
 20
36.0805298321
 11
368.7621602445
 21
32.3100380288
  0
LINE
  8
0
 62
7
  6
CONTINUOUS
 10
363.4449727445
 20
30.8293962497
 11
363.5027853548
 21
30.926187309
  0
LINE
  8
0
 62
7
  6
CONTINUOUS
 10
359.0512227376
 20
30.6358140973
 11
359.2246602583
 21
30.5712867188
  0
LINE
  8
0
 62
7
  6
CONTINUOUS
 10
360.5543476894
 20
31.3456152777
 11
360.3809101894
 21
31.4424063369
  0
LINE
  8
0
 62
7
  6
CONTINUOUS
 10
363.2137226343
 20
30.668077795
 11
363.3871601343
 21
30.5712867188
  0
LINE
  8
0
 62
7
  6
CONTINUOUS
 10
362.2309102445
 20
31.3456152777
 11
362.3465351343
 21
31.2810879048
  0
LINE
  8
0
 62
7
  6
CONTINUOUS
 10
362.5777852445
 20
31.3778789641
 11
362.4621603548
 21
31.4424063369
  0
LINE
  8
0
 62
7
  6
CONTINUOUS
 10
368.3012227445
 20
30.7648688543
 11
368.4168479651
 21
30.6358140973
  0
LINE
  8
0
 62
7
  6
CONTINUOUS
 10
368.6480977445
 20
30.7003414814
 11
368.5902854651
 21
30.7648688543
  0
LINE
  8
0
 62
7
  6
CONTINUOUS
 10
368.3012227445
 20
31.2810879048
 11
368.4168479651
 21
31.1520331591
  0
LINE
  8
0
 62
7
  6
CONTINUOUS
 10
367.7809102445
 20
31.2810879048
 11
367.7230979651
 21
31.3778789641
  0
LINE
  8
0
 62
7
  6
CONTINUOUS
 10
370.1512223035
 20
30.7003414814
 11
370.1512223035
 21
30.7648688543
  0
LINE
  8
0
 62
7
  6
CONTINUOUS
 10
370.1556028675
 20
32.3100380288
 11
370.1556028675
 21
36.0805298321
  0
LINE
  8
0
 62
7
  6
CONTINUOUS
 10
363.2137226343
 20
31.4101426505
 11
363.1559103548
 21
31.3456152777
  0
LINE
  8
0
 62
7
  6
CONTINUOUS
 10
360.091847717
 20
31.3778789641
 11
360.2652852997
 21
31.3133515913
  0
LINE
  8
0
 62
7
  6
CONTINUOUS
 10
364.8324727445
 20
31.3778789641
 11
364.716847524
 21
31.4424063369
  0
LINE
  8
0
 62
7
  6
CONTINUOUS
 10
368.6480977445
 20
31.216560532
 11
368.5902854651
 21
31.2810879048
  0
LINE
  8
0
 62
7
  6
CONTINUOUS
 10
369.8043479651
 20
30.8293962497
 11
369.8621602445
 21
30.7648688543
  0
LINE
  8
0
 62
7
  6
CONTINUOUS
 10
370.1512223035
 20
30.7648688543
 11
370.0355977445
 21
30.8939236226
  0
LINE
  8
0
 62
7
  6
CONTINUOUS
 10
369.8043479651
 20
31.3456152777
 11
369.8621602445
 21
31.2810879048
  0
LINE
  8
0
 62
7
  6
CONTINUOUS
 10
370.1512223035
 20
31.2810879048
 11
370.0355977445
 21
31.4101426505
  0
LINE
  8
0
 62
7
  6
CONTINUOUS
 10
363.4449727445
 20
31.2810879048
 11
363.5027853548
 21
31.3456152777
  0
LINE
  8
0
 62
7
  6
CONTINUOUS
 10
363.2715352445
 20
31.0229783683
 11
363.1559103548
 21
30.8939236226
  0
LINE
  8
0
 62
7
  6
CONTINUOUS
 10
364.6012229651
 20
30.8616599362
 11
364.543410024
 21
30.7971325633
  0
LINE
  8
0
 62
7
  6
CONTINUOUS
 10
364.543410024
 20
30.6035504109
 11
364.6012229651
 21
30.668077795
  0
LINE
  8
0
 62
7
  6
CONTINUOUS
 10
363.3871601343
 20
30.5712867188
 11
363.5027853548
 21
30.5390230296
  0
LINE
  8
0
 62
7
  6
CONTINUOUS
 10
360.3809101894
 20
31.4424063369
 11
360.1496602445
 21
31.5069337098
  0
LINE
  8
0
 62
7
  6
CONTINUOUS
 10
363.7340351343
 20
30.6358140973
 11
363.5027853548
 21
30.7003414814
  0
LINE
  8
0
 62
7
  6
CONTINUOUS
 10
362.4621603548
 20
31.4424063369
 11
362.2887228548
 21
31.5069337098
  0
LINE
  8
0
 62
7
  6
CONTINUOUS
 10
364.716847524
 20
31.4424063369
 11
364.543410024
 21
31.5069337098
  0
LINE
  8
0
 62
7
  6
CONTINUOUS
 10
367.3762229651
 20
31.3456152777
 11
367.491847524
 21
31.2810879048
  0
LINE
  8
0
 62
7
  6
CONTINUOUS
 10
367.7230979651
 20
31.3778789641
 11
367.6074727445
 21
31.4424063369
  0
LINE
  8
0
 62
7
  6
CONTINUOUS
 10
359.2246602583
 20
30.5712867188
 11
359.3980977583
 21
30.5390230296
  0
LINE
  8
0
 62
7
  6
CONTINUOUS
 10
359.6871602721
 20
30.6358140973
 11
359.3402852307
 21
30.7003414814
  0
LINE
  8
0
 62
7
  6
CONTINUOUS
 10
362.1152853548
 20
31.3778789641
 11
362.2309102445
 21
31.3456152777
  0
LINE
  8
0
 62
7
  6
CONTINUOUS
 10
364.4277854651
 20
31.3778789641
 11
364.543410024
 21
31.3456152777
  0
LINE
  8
0
 62
7
  6
CONTINUOUS
 10
368.7637229651
 20
30.668077795
 11
368.6480977445
 21
30.7003414814
  0
LINE
  8
0
 62
7
  6
CONTINUOUS
 10
367.2605977445
 20
31.3778789641
 11
367.3762229651
 21
31.3456152777
  0
LINE
  8
0
 62
7
  6
CONTINUOUS
 10
368.4168479651
 20
30.6358140973
 11
368.5902854651
 21
30.5712867188
  0
LINE
  8
0
 62
7
  6
CONTINUOUS
 10
367.6074727445
 20
31.4424063369
 11
367.4340352445
 21
31.5069337098
  0
LINE
  8
0
 62
7
  6
CONTINUOUS
 10
368.8215352445
 20
31.1520331591
 11
368.6480977445
 21
31.216560532
  0
LINE
  8
0
 62
7
  6
CONTINUOUS
 10
369.6309104651
 20
30.8939236226
 11
369.8043479651
 21
30.8293962497
  0
LINE
  8
0
 62
7
  6
CONTINUOUS
 10
370.0355977445
 20
31.4101426505
 11
369.8621602445
 21
31.4746700234
  0
LINE
  8
0
 62
7
  6
CONTINUOUS
 10
368.4168479651
 20
31.1520331591
 11
368.6480977445
 21
31.0552420547
  0
LINE
  8
0
 62
7
  6
CONTINUOUS
 10
370.0355977445
 20
30.8939236226
 11
369.8043479651
 21
30.9907146818
  0
LINE
  8
0
 62
7
  6
CONTINUOUS
 10
368.5902854651
 20
31.2810879048
 11
368.6480977445
 21
31.3456152777
  0
LINE
  8
0
 62
7
  6
CONTINUOUS
 10
359.0512227376
 20
31.4101426505
 11
358.9355977445
 21
31.3456152777
  0
LINE
  8
0
 62
7
  6
CONTINUOUS
 10
359.1668477307
 20
31.2488242184
 11
359.3402852307
 21
31.3456152777
  0
LINE
  8
0
 62
7
  6
CONTINUOUS
 10
361.4793477997
 20
31.4424063369
 11
361.3637227445
 21
31.3778789641
  0
LINE
  8
0
 62
7
  6
CONTINUOUS
 10
361.3637227445
 20
31.2488242184
 11
361.4793477997
 21
31.3133515913
  0
LINE
  8
0
 62
7
  6
CONTINUOUS
 10
360.3809101894
 20
30.6035504109
 11
360.5543476894
 21
30.7003414814
  0
LINE
  8
0
 62
7
  6
CONTINUOUS
 10
359.3980977583
 20
30.5390230296
 11
359.744972717
 21
30.5067593403
  0
LINE
  8
0
 62
7
  6
CONTINUOUS
 10
363.5027853548
 20
30.5390230296
 11
363.7340351343
 21
30.5067593403
  0
LINE
  8
0
 62
7
  6
CONTINUOUS
 10
361.8840352445
 20
31.4101426505
 11
362.1152853548
 21
31.3778789641
  0
LINE
  8
0
 62
7
  6
CONTINUOUS
 10
364.1965353548
 20
31.4101426505
 11
364.4277854651
 21
31.3778789641
  0
LINE
  8
0
 62
7
  6
CONTINUOUS
 10
368.6480977445
 20
31.0552420547
 11
369.6309104651
 21
30.8939236226
  0
LINE
  8
0
 62
7
  6
CONTINUOUS
 10
369.8043479651
 20
30.9907146818
 11
368.8215352445
 21
31.1520331591
  0
LINE
  8
0
 62
7
  6
CONTINUOUS
 10
362.2887228548
 20
31.5069337098
 11
362.1152853548
 21
31.5391973962
  0
LINE
  8
0
 62
7
  6
CONTINUOUS
 10
368.5902854651
 20
30.5712867188
 11
368.7637229651
 21
30.5390230296
  0
LINE
  8
0
 62
7
  6
CONTINUOUS
 10
367.4340352445
 20
31.5069337098
 11
367.2605977445
 21
31.5391973962
  0
LINE
  8
0
 62
7
  6
CONTINUOUS
 10
369.6887227445
 20
31.3778789641
 11
369.8043479651
 21
31.3456152777
  0
LINE
  8
0
 62
7
  6
CONTINUOUS
 10
369.8621602445
 20
30.7648688543
 11
369.8043479651
 21
30.7003414814
  0
LINE
  8
0
 62
7
  6
CONTINUOUS
 10
368.4168479651
 20
31.4424063369
 11
368.3012227445
 21
31.3456152777
  0
LINE
  8
0
 62
7
  6
CONTINUOUS
 10
363.3293478548
 20
31.4746700234
 11
363.2137226343
 21
31.4101426505
  0
LINE
  8
0
 62
7
  6
CONTINUOUS
 10
363.3871601343
 20
31.0875057863
 11
363.2715352445
 21
31.0229783683
  0
LINE
  8
0
 62
7
  6
CONTINUOUS
 10
363.5027853548
 20
30.926187309
 11
363.6184102445
 21
30.9907146818
  0
LINE
  8
0
 62
7
  6
CONTINUOUS
 10
361.0746601894
 20
30.5067593403
 11
361.3637227445
 21
30.5067593403
  0
LINE
  8
0
 62
7
  6
CONTINUOUS
 10
362.4043477445
 20
30.5067593403
 11
362.6934101343
 21
30.5067593403
  0
LINE
  8
0
 62
7
  6
CONTINUOUS
 10
363.7340351343
 20
30.5067593403
 11
364.0809101343
 21
30.5067593403
  0
LINE
  8
0
 62
7
  6
CONTINUOUS
 10
364.716847524
 20
30.5067593403
 11
365.0059102445
 21
30.5067593403
  0
LINE
  8
0
 62
7
  6
CONTINUOUS
 10
365.4684104651
 20
30.5067593403
 11
365.757472524
 21
30.5067593403
  0
LINE
  8
0
 62
7
  6
CONTINUOUS
 10
366.2199727445
 20
30.5067593403
 11
366.5090354651
 21
30.5067593403
  0
LINE
  8
0
 62
7
  6
CONTINUOUS
 10
367.5496604651
 20
30.5067593403
 11
367.838722524
 21
30.5067593403
  0
LINE
  8
0
 62
7
  6
CONTINUOUS
 10
369.1105979651
 20
30.5067593403
 11
369.4574729651
 21
30.5067593403
  0
LINE
  8
0
 62
7
  6
CONTINUOUS
 10
369.4574729651
 20
30.6358140973
 11
369.1105979651
 21
30.6358140973
  0
LINE
  8
0
 62
7
  6
CONTINUOUS
 10
364.0809101343
 20
30.6358140973
 11
363.7340351343
 21
30.6358140973
  0
LINE
  8
0
 62
7
  6
CONTINUOUS
 10
368.5902854651
 20
30.7648688543
 11
368.3012227445
 21
30.7648688543
  0
LINE
  8
0
 62
7
  6
CONTINUOUS
 10
360.6121602997
 20
30.8293962497
 11
360.3230977445
 21
30.8293962497
  0
LINE
  8
0
 62
7
  6
CONTINUOUS
 10
359.6871602721
 20
31.4101426505
 11
360.091847717
 21
31.3778789641
  0
LINE
  8
0
 62
7
  6
CONTINUOUS
 10
360.1496602445
 20
31.5069337098
 11
359.744972717
 21
31.5391973962
  0
LINE
  8
0
 62
7
  6
CONTINUOUS
 10
368.7637229651
 20
30.5390230296
 11
369.1105979651
 21
30.5067593403
  0
LINE
  8
0
 62
7
  6
CONTINUOUS
 10
369.1105979651
 20
30.6358140973
 11
368.7637229651
 21
30.668077795
  0
LINE
  8
0
 62
7
  6
CONTINUOUS
 10
364.543410024
 20
31.5069337098
 11
364.1965353548
 21
31.5391973962
  0
LINE
  8
0
 62
7
  6
CONTINUOUS
 10
369.3418477445
 20
31.4101426505
 11
369.6887227445
 21
31.3778789641
  0
LINE
  8
0
 62
7
  6
CONTINUOUS
 10
369.6887227445
 20
31.5069337098
 11
369.3418477445
 21
31.5391973962
  0
LINE
  8
0
 62
7
  6
CONTINUOUS
 10
367.0293479651
 20
31.4101426505
 11
367.2605977445
 21
31.3778789641
  0
LINE
  8
0
 62
7
  6
CONTINUOUS
 10
369.8621602445
 20
31.4746700234
 11
369.6887227445
 21
31.5069337098
  0
LINE
  8
0
 62
7
  6
CONTINUOUS
 10
370.0355977445
 20
30.6035504109
 11
370.1512223035
 21
30.7003414814
  0
LINE
  8
0
 62
7
  6
CONTINUOUS
 10
364.543410024
 20
30.7971325633
 11
364.369972524
 21
30.7003414814
  0
LINE
  8
0
 62
7
  6
CONTINUOUS
 10
366.624660024
 20
31.4424063369
 11
366.5090354651
 21
31.3778789641
  0
LINE
  8
0
 62
7
  6
CONTINUOUS
 10
366.5090354651
 20
31.2488242184
 11
366.624660024
 21
31.3133515913
  0
LINE
  8
0
 62
7
  6
CONTINUOUS
 10
359.2246602583
 20
31.4746700234
 11
359.0512227376
 21
31.4101426505
  0
LINE
  8
0
 62
7
  6
CONTINUOUS
 10
361.6527851343
 20
31.5069337098
 11
361.4793477997
 21
31.4424063369
  0
LINE
  8
0
 62
7
  6
CONTINUOUS
 10
361.4793477997
 20
31.3133515913
 11
361.6527851343
 21
31.3778789641
  0
LINE
  8
0
 62
7
  6
CONTINUOUS
 10
360.2652852997
 20
30.7326051679
 11
360.091847717
 21
30.668077795
  0
LINE
  8
0
 62
7
  6
CONTINUOUS
 10
369.6887227445
 20
30.668077795
 11
369.4574729651
 21
30.6358140973
  0
LINE
  8
0
 62
7
  6
CONTINUOUS
 10
364.0809101343
 20
30.5067593403
 11
364.369972524
 21
30.5390230296
  0
LINE
  8
0
 62
7
  6
CONTINUOUS
 10
369.4574729651
 20
30.5067593403
 11
369.8043479651
 21
30.5390230296
  0
LINE
  8
0
 62
7
  6
CONTINUOUS
 10
359.744972717
 20
30.5067593403
 11
360.1496602445
 21
30.5390230296
  0
LINE
  8
0
 62
7
  6
CONTINUOUS
 10
360.091847717
 20
30.668077795
 11
359.6871602721
 21
30.6358140973
  0
LINE
  8
0
 62
7
  6
CONTINUOUS
 10
363.9652852445
 20
31.0552420547
 11
364.6012229651
 21
31.0552420547
  0
LINE
  8
0
 62
7
  6
CONTINUOUS
 10
364.6012229651
 20
31.1842968456
 11
363.9652852445
 21
31.1842968456
  0
LINE
  8
0
 62
7
  6
CONTINUOUS
 10
360.3230977445
 20
31.216560532
 11
360.6121602997
 21
31.216560532
  0
LINE
  8
0
 62
7
  6
CONTINUOUS
 10
363.1559103548
 20
31.2810879048
 11
363.4449727445
 21
31.2810879048
  0
LINE
  8
0
 62
7
  6
CONTINUOUS
 10
369.8621602445
 20
31.2810879048
 11
370.1512223035
 21
31.2810879048
  0
LINE
  8
0
 62
7
  6
CONTINUOUS
 10
363.8496603548
 20
31.4101426505
 11
364.1965353548
 21
31.4101426505
  0
LINE
  8
0
 62
7
  6
CONTINUOUS
 10
368.9949727445
 20
31.4101426505
 11
369.3418477445
 21
31.4101426505
  0
LINE
  8
0
 62
7
  6
CONTINUOUS
 10
369.3418477445
 20
31.5391973962
 11
368.9949727445
 21
31.5391973962
  0
LINE
  8
0
 62
7
  6
CONTINUOUS
 10
367.2605977445
 20
31.5391973962
 11
367.0293479651
 21
31.5391973962
  0
LINE
  8
0
 62
7
  6
CONTINUOUS
 10
366.5090354651
 20
31.5391973962
 11
366.2199727445
 21
31.5391973962
  0
LINE
  8
0
 62
7
  6
CONTINUOUS
 10
365.757472524
 20
31.5391973962
 11
365.4684104651
 21
31.5391973962
  0
LINE
  8
0
 62
7
  6
CONTINUOUS
 10
364.1965353548
 20
31.5391973962
 11
363.8496603548
 21
31.5391973962
  0
LINE
  8
0
 62
7
  6
CONTINUOUS
 10
362.1152853548
 20
31.5391973962
 11
361.8840352445
 21
31.5391973962
  0
LINE
  8
0
 62
7
  6
CONTINUOUS
 10
365.4684104651
 20
31.8618343508
 11
365.757472524
 21
31.8618343508
  0
LINE
  8
0
 62
7
  6
CONTINUOUS
 10
365.757472524
 20
32.0231527829
 11
365.4684104651
 21
32.0231527829
  0
LINE
  8
0
 62
7
  6
CONTINUOUS
 10
361.3637227445
 20
32.0231527829
 11
361.0746601894
 21
32.0231527829
  0
LINE
  8
0
 62
7
  6
CONTINUOUS
 10
360.4015045068
 20
32.3100380288
 11
360.8140758554
 21
32.3100380288
  0
LINE
  8
0
 62
7
  6
CONTINUOUS
 10
362.0408487691
 20
32.3100380288
 11
363.4342913921
 21
32.3100380288
  0
LINE
  8
0
 62
7
  6
CONTINUOUS
 10
363.7621602445
 20
32.3100380288
 11
365.1556028675
 21
32.3100380288
  0
LINE
  8
0
 62
7
  6
CONTINUOUS
 10
367.0408487691
 20
32.3100380288
 11
368.4342913921
 21
32.3100380288
  0
LINE
  8
0
 62
7
  6
CONTINUOUS
 10
368.7621602445
 20
32.3100380288
 11
370.1556028675
 21
32.3100380288
  0
LINE
  8
0
 62
7
  6
CONTINUOUS
 10
366.798097524
 20
31.5069337098
 11
366.624660024
 21
31.4424063369
  0
LINE
  8
0
 62
7
  6
CONTINUOUS
 10
364.369972524
 20
30.5390230296
 11
364.543410024
 21
30.6035504109
  0
LINE
  8
0
 62
7
  6
CONTINUOUS
 10
369.8043479651
 20
30.5390230296
 11
370.0355977445
 21
30.6035504109
  0
LINE
  8
0
 62
7
  6
CONTINUOUS
 10
369.8043479651
 20
30.7003414814
 11
369.6887227445
 21
30.668077795
  0
LINE
  8
0
 62
7
  6
CONTINUOUS
 10
368.7637229651
 20
31.3778789641
 11
368.9949727445
 21
31.4101426505
  0
LINE
  8
0
 62
7
  6
CONTINUOUS
 10
366.798097524
 20
31.3778789641
 11
367.0293479651
 21
31.4101426505
  0
LINE
  8
0
 62
7
  6
CONTINUOUS
 10
363.7340351343
 20
31.0229783683
 11
363.9652852445
 21
31.0552420547
  0
LINE
  8
0
 62
7
  6
CONTINUOUS
 10
367.0293479651
 20
31.5391973962
 11
366.798097524
 21
31.5069337098
  0
LINE
  8
0
 62
7
  6
CONTINUOUS
 10
363.6184102445
 20
31.3778789641
 11
363.8496603548
 21
31.4101426505
  0
LINE
  8
0
 62
7
  6
CONTINUOUS
 10
368.9949727445
 20
31.5391973962
 11
368.6480977445
 21
31.5069337098
  0
LINE
  8
0
 62
7
  6
CONTINUOUS
 10
363.9652852445
 20
31.1842968456
 11
363.6184102445
 21
31.1520331591
  0
LINE
  8
0
 62
7
  6
CONTINUOUS
 10
359.744972717
 20
31.5391973962
 11
359.3980977583
 21
31.5069337098
  0
LINE
  8
0
 62
7
  6
CONTINUOUS
 10
363.8496603548
 20
31.5391973962
 11
363.4449727445
 21
31.5069337098
  0
LINE
  8
0
 62
7
  6
CONTINUOUS
 10
361.221176638
 20
33.4575790124
 11
360.565438933
 21
33.4575790124
  0
LINE
  8
0
 62
7
  6
CONTINUOUS
 10
366.624660024
 20
31.3133515913
 11
366.798097524
 21
31.3778789641
  0
LINE
  8
0
 62
7
  6
CONTINUOUS
 10
368.6480977445
 20
31.3456152777
 11
368.7637229651
 21
31.3778789641
  0
LINE
  8
0
 62
7
  6
CONTINUOUS
 10
368.6480977445
 20
31.5069337098
 11
368.4168479651
 21
31.4424063369
  0
LINE
  8
0
 62
7
  6
CONTINUOUS
 10
364.369972524
 20
30.7003414814
 11
364.0809101343
 21
30.6358140973
  0
LINE
  8
0
 62
7
  6
CONTINUOUS
 10
361.6527851343
 20
31.3778789641
 11
361.8840352445
 21
31.4101426505
  0
LINE
  8
0
 62
7
  6
CONTINUOUS
 10
361.8840352445
 20
31.5391973962
 11
361.6527851343
 21
31.5069337098
  0
LINE
  8
0
 62
7
  6
CONTINUOUS
 10
359.4559102445
 20
31.3778789641
 11
359.6871602721
 21
31.4101426505
  0
LINE
  8
0
 62
7
  6
CONTINUOUS
 10
365.9752749986
 20
34.9329888485
 11
366.6310127035
 21
34.9329888485
  0
LINE
  8
0
 62
7
  6
CONTINUOUS
 10
363.6184102445
 20
30.9907146818
 11
363.7340351343
 21
31.0229783683
  0
LINE
  8
0
 62
7
  6
CONTINUOUS
 10
363.6184102445
 20
31.1520331591
 11
363.3871601343
 21
31.0875057863
  0
LINE
  8
0
 62
7
  6
CONTINUOUS
 10
363.5027853548
 20
31.3456152777
 11
363.6184102445
 21
31.3778789641
  0
LINE
  8
0
 62
7
  6
CONTINUOUS
 10
360.1496602445
 20
30.5390230296
 11
360.3809101894
 21
30.6035504109
  0
LINE
  8
0
 62
7
  6
CONTINUOUS
 10
363.4449727445
 20
31.5069337098
 11
363.3293478548
 21
31.4746700234
  0
LINE
  8
0
 62
7
  6
CONTINUOUS
 10
359.3980977583
 20
31.5069337098
 11
359.2246602583
 21
31.4746700234
  0
LINE
  8
0
 62
7
  6
CONTINUOUS
 10
370.1556028675
 20
36.0805298321
 11
368.7621602445
 21
36.0805298321
  0
LINE
  8
0
 62
7
  6
CONTINUOUS
 10
366.7949471298
 20
36.0805298321
 11
366.3823757812
 21
36.0805298321
  0
LINE
  8
0
 62
7
  6
CONTINUOUS
 10
365.1556028675
 20
36.0805298321
 11
363.7621602445
 21
36.0805298321
  0
LINE
  8
0
 62
7
  6
CONTINUOUS
 10
363.4342913921
 20
36.0805298321
 11
362.0408487691
 21
36.0805298321
  0
LINE
  8
0
 62
7
  6
CONTINUOUS
 10
360.1556028675
 20
36.0805298321
 11
358.7621602445
 21
36.0805298321
  0
LINE
  8
0
 62
7
  6
CONTINUOUS
 10
359.3402852307
 20
31.3456152777
 11
359.4559102445
 21
31.3778789641
  0
CIRCLE
  8
0
 62
7
  6
CONTINUOUS
 10
369.458881556
 20
38.4165954059
 40
2.0901639344
  0
ARC
  8
0
 62
7
  6
CONTINUOUS
 10
360.4015045068
 20
33.9493822911
 40
1.6393442623
 50
180.0
 51
270.0
  0
ARC
  8
0
 62
7
  6
CONTINUOUS
 10
366.7949471298
 20
34.4411855698
 40
1.6393442623
 50
0.0
 51
90.0
  0
ARC
  8
0
 62
7
  6
CONTINUOUS
 10
360.8140758554
 20
33.7854478649
 40
1.4754098361
 50
270.0
 51
326.2510114041
  0
ARC
  8
0
 62
7
  6
CONTINUOUS
 10
366.3823757812
 20
34.6051199961
 40
1.4754098361
 50
90.0
 51
146.2510114041
  0
ARC
  8
0
 62
7
  6
CONTINUOUS
 10
361.221176638
 20
34.2772511436
 40
0.8196721311
 50
270.0
 51
360.0
  0
ARC
  8
0
 62
7
  6
CONTINUOUS
 10
365.9752749986
 20
34.1133167174
 40
0.8196721311
 50
90.0
 51
180.0
  0
ARC
  8
0
 62
7
  6
CONTINUOUS
 10
360.565438933
 20
33.867415078
 40
0.4098360656
 50
180.0
 51
270.0
  0
ARC
  8
0
 62
7
  6
CONTINUOUS
 10
366.6310127035
 20
34.5231527829
 40
0.4098360656
 50
0.0
 51
90.0
  0
SOLID
  8
0
 62
7
  6
CONTINUOUS
 10
365.4684104651
 20
31.8618347111
 11
365.4684104651
 21
32.0231531947
 12
365.757472524
 22
31.8618347111
 13
365.757472524
 23
32.0231531947
  0
SOLID
  8
0
 62
7
  6
CONTINUOUS
 10
359.744972717
 20
31.5391977439
 11
360.1496602445
 21
31.5069333244
 12
359.3980977583
 22
31.5069333244
 13
359.3980977583
 23
31.5069333244
  0
SOLID
  8
0
 62
7
  6
CONTINUOUS
 10
359.2246602583
 20
31.4746706537
 11
359.3980977583
 21
31.5069333244
 12
360.1496602445
 22
31.5069333244
 13
360.1496602445
 23
31.5069333244
  0
SOLID
  8
0
 62
7
  6
CONTINUOUS
 10
360.1496602445
 20
31.5069333244
 11
360.3809101894
 21
31.4424063504
 12
359.2246602583
 22
31.4746706537
 13
359.2246602583
 23
31.4746706537
  0
SOLID
  8
0
 62
7
  6
CONTINUOUS
 10
359.0512227376
 20
31.4101419116
 11
359.2246602583
 21
31.4746706537
 12
360.3809101894
 22
31.4424063504
 13
360.3809101894
 23
31.4424063504
  0
SOLID
  8
0
 62
7
  6
CONTINUOUS
 10
359.0512227376
 20
31.4101419116
 11
360.3809101894
 21
31.4424063504
 12
359.6871602721
 22
31.4101419116
 13
359.6871602721
 23
31.4101419116
  0
SOLID
  8
0
 62
7
  6
CONTINUOUS
 10
359.6871602721
 20
31.4101419116
 11
360.3809101894
 21
31.4424063504
 12
360.091847717
 22
31.3778792603
 13
360.091847717
 23
31.3778792603
  0
SOLID
  8
0
 62
7
  6
CONTINUOUS
 10
360.3809101894
 20
31.4424063504
 11
360.5543476894
 21
31.345614957
 12
360.091847717
 22
31.3778792603
 13
360.091847717
 23
31.3778792603
  0
SOLID
  8
0
 62
7
  6
CONTINUOUS
 10
360.2652852997
 20
31.3133521701
 11
360.091847717
 21
31.3778792603
 12
360.5543476894
 22
31.345614957
 13
360.5543476894
 23
31.345614957
  0
SOLID
  8
0
 62
7
  6
CONTINUOUS
 10
360.2652852997
 20
31.3133521701
 11
360.5543476894
 21
31.345614957
 12
360.3230977445
 22
31.2165606992
 13
360.3230977445
 23
31.2165606992
  0
SOLID
  8
0
 62
7
  6
CONTINUOUS
 10
360.5543476894
 20
31.345614957
 11
360.6121602997
 21
31.2165606992
 12
360.3230977445
 22
31.2165606992
 13
360.3230977445
 23
31.2165606992
  0
SOLID
  8
0
 62
7
  6
CONTINUOUS
 10
361.6527851343
 20
31.5069329918
 11
361.8840352445
 21
31.5391972951
 12
362.1152853548
 22
31.5391972951
 13
362.1152853548
 23
31.5391972951
  0
SOLID
  8
0
 62
7
  6
CONTINUOUS
 10
362.1152853548
 20
31.5391972951
 11
362.2887228548
 21
31.5069329918
 12
361.6527851343
 22
31.5069329918
 13
361.6527851343
 23
31.5069329918
  0
SOLID
  8
0
 62
7
  6
CONTINUOUS
 10
361.4793477997
 20
31.4424059016
 11
361.6527851343
 21
31.5069329918
 12
362.2887228548
 22
31.5069329918
 13
362.2887228548
 23
31.5069329918
  0
SOLID
  8
0
 62
7
  6
CONTINUOUS
 10
362.2887228548
 20
31.5069329918
 11
362.4621603548
 21
31.4424059016
 12
361.4793477997
 22
31.4424059016
 13
361.4793477997
 23
31.4424059016
  0
SOLID
  8
0
 62
7
  6
CONTINUOUS
 10
362.4621603548
 20
31.4424059016
 11
361.8840352445
 21
31.4101420472
 12
361.4793477997
 22
31.4424059016
 13
361.4793477997
 23
31.4424059016
  0
SOLID
  8
0
 62
7
  6
CONTINUOUS
 10
361.3637227445
 20
31.3778788115
 11
361.4793477997
 21
31.4424059016
 12
361.8840352445
 22
31.4101420472
 13
361.8840352445
 23
31.4101420472
  0
SOLID
  8
0
 62
7
  6
CONTINUOUS
 10
361.8840352445
 20
31.4101420472
 11
361.6527851343
 21
31.3778788115
 12
361.3637227445
 22
31.3778788115
 13
361.3637227445
 23
31.3778788115
  0
SOLID
  8
0
 62
7
  6
CONTINUOUS
 10
361.8840352445
 20
31.4101420472
 11
362.4621603548
 21
31.4424059016
 12
362.1152853548
 22
31.3778788115
 13
362.1152853548
 23
31.3778788115
  0
SOLID
  8
0
 62
7
  6
CONTINUOUS
 10
362.4621603548
 20
31.4424059016
 11
362.5777852445
 21
31.3778788115
 12
362.1152853548
 22
31.3778788115
 13
362.1152853548
 23
31.3778788115
  0
SOLID
  8
0
 62
7
  6
CONTINUOUS
 10
362.2309102445
 20
31.345614957
 11
362.1152853548
 21
31.3778788115
 12
362.5777852445
 22
31.3778788115
 13
362.5777852445
 23
31.3778788115
  0
SOLID
  8
0
 62
7
  6
CONTINUOUS
 10
362.5777852445
 20
31.3778788115
 11
362.6355978548
 21
31.3133517213
 12
362.2309102445
 22
31.345614957
 13
362.2309102445
 23
31.345614957
  0
SOLID
  8
0
 62
7
  6
CONTINUOUS
 10
362.3465351343
 20
31.2810878668
 11
362.2309102445
 21
31.345614957
 12
362.6355978548
 22
31.3133517213
 13
362.6355978548
 23
31.3133517213
  0
SOLID
  8
0
 62
7
  6
CONTINUOUS
 10
362.3465351343
 20
31.2810878668
 11
362.6355978548
 21
31.3133517213
 12
362.4043477445
 22
31.1520332377
 13
362.4043477445
 23
31.1520332377
  0
SOLID
  8
0
 62
7
  6
CONTINUOUS
 10
362.6355978548
 20
31.3133517213
 11
362.6934101343
 21
31.1520332377
 12
362.4043477445
 22
31.1520332377
 13
362.4043477445
 23
31.1520332377
  0
SOLID
  8
0
 62
7
  6
CONTINUOUS
 10
361.6527851343
 20
31.3778788115
 11
361.4793477997
 21
31.3133517213
 12
361.3637227445
 22
31.3778788115
 13
361.3637227445
 23
31.3778788115
  0
SOLID
  8
0
 62
7
  6
CONTINUOUS
 10
361.4793477997
 20
31.3133517213
 11
361.3637227445
 21
31.2488235635
 12
361.3637227445
 22
31.3778788115
 13
361.3637227445
 23
31.3778788115
  0
SOLID
  8
0
 62
7
  6
CONTINUOUS
 10
361.3637227445
 20
31.2488235635
 11
361.0746601894
 21
30.5067593033
 12
361.3637227445
 22
31.3778788115
 13
361.3637227445
 23
31.3778788115
  0
SOLID
  8
0
 62
7
  6
CONTINUOUS
 10
361.3637227445
 20
31.3778788115
 11
361.0746601894
 21
30.5067593033
 12
361.3637227445
 22
32.0231527459
 13
361.3637227445
 23
32.0231527459
  0
SOLID
  8
0
 62
7
  6
CONTINUOUS
 10
361.0746601894
 20
30.5067593033
 11
361.0746601894
 21
32.0231527459
 12
361.3637227445
 22
32.0231527459
 13
361.3637227445
 23
32.0231527459
  0
SOLID
  8
0
 62
7
  6
CONTINUOUS
 10
361.3637227445
 20
31.2488235635
 11
361.3637227445
 21
30.5067593033
 12
361.0746601894
 22
30.5067593033
 13
361.0746601894
 23
30.5067593033
  0
SOLID
  8
0
 62
7
  6
CONTINUOUS
 10
362.4043477445
 20
30.5067593033
 11
362.4043477445
 21
31.1520332377
 12
362.6934101343
 22
31.1520332377
 13
362.6934101343
 23
31.1520332377
  0
SOLID
  8
0
 62
7
  6
CONTINUOUS
 10
362.6934101343
 20
31.1520332377
 11
362.6934101343
 21
30.5067593033
 12
362.4043477445
 22
30.5067593033
 13
362.4043477445
 23
30.5067593033
  0
SOLID
  8
0
 62
7
  6
CONTINUOUS
 10
363.4449727445
 20
31.506933758
 11
363.8496603548
 21
31.5391977507
 12
364.1965353548
 22
31.5391977507
 13
364.1965353548
 23
31.5391977507
  0
SOLID
  8
0
 62
7
  6
CONTINUOUS
 10
364.1965353548
 20
31.5391977507
 11
364.543410024
 21
31.506933758
 12
363.4449727445
 22
31.506933758
 13
363.4449727445
 23
31.506933758
  0
SOLID
  8
0
 62
7
  6
CONTINUOUS
 10
363.3293478548
 20
31.4746706537
 11
363.4449727445
 21
31.506933758
 12
364.543410024
 22
31.506933758
 13
364.543410024
 23
31.506933758
  0
SOLID
  8
0
 62
7
  6
CONTINUOUS
 10
364.543410024
 20
31.506933758
 11
364.716847524
 21
31.4424063504
 12
363.3293478548
 22
31.4746706537
 13
363.3293478548
 23
31.4746706537
  0
SOLID
  8
0
 62
7
  6
CONTINUOUS
 10
363.2137226343
 20
31.4101417797
 11
363.3293478548
 21
31.4746706537
 12
364.716847524
 22
31.4424063504
 13
364.716847524
 23
31.4424063504
  0
SOLID
  8
0
 62
7
  6
CONTINUOUS
 10
363.2137226343
 20
31.4101417797
 11
364.716847524
 21
31.4424063504
 12
363.8496603548
 22
31.4101417797
 13
363.8496603548
 23
31.4101417797
  0
SOLID
  8
0
 62
7
  6
CONTINUOUS
 10
363.8496603548
 20
31.4101417797
 11
364.716847524
 21
31.4424063504
 12
364.1965353548
 22
31.4101417797
 13
364.1965353548
 23
31.4101417797
  0
SOLID
  8
0
 62
7
  6
CONTINUOUS
 10
364.1965353548
 20
31.4101417797
 11
364.716847524
 21
31.4424063504
 12
364.4277854651
 22
31.3778793357
 13
364.4277854651
 23
31.3778793357
  0
SOLID
  8
0
 62
7
  6
CONTINUOUS
 10
364.716847524
 20
31.4424063504
 11
364.8324727445
 21
31.3778793357
 12
364.4277854651
 22
31.3778793357
 13
364.4277854651
 23
31.3778793357
  0
SOLID
  8
0
 62
7
  6
CONTINUOUS
 10
363.1559103548
 20
31.3456153429
 11
363.2137226343
 21
31.4101417797
 12
363.8496603548
 22
31.4101417797
 13
363.8496603548
 23
31.4101417797
  0
SOLID
  8
0
 62
7
  6
CONTINUOUS
 10
364.543410024
 20
31.3456153429
 11
364.4277854651
 21
31.3778793357
 12
364.8324727445
 22
31.3778793357
 13
364.8324727445
 23
31.3778793357
  0
SOLID
  8
0
 62
7
  6
CONTINUOUS
 10
364.543410024
 20
31.3456153429
 11
364.8324727445
 21
31.3778793357
 12
364.6012229651
 22
31.2810881318
 13
364.6012229651
 23
31.2810881318
  0
SOLID
  8
0
 62
7
  6
CONTINUOUS
 10
364.8324727445
 20
31.3778793357
 11
364.890285024
 21
31.2810881318
 12
364.6012229651
 22
31.2810881318
 13
364.6012229651
 23
31.2810881318
  0
SOLID
  8
0
 62
7
  6
CONTINUOUS
 10
364.6012229651
 20
31.1842964734
 11
364.6012229651
 21
31.2810881318
 12
364.890285024
 22
31.2810881318
 13
364.890285024
 23
31.2810881318
  0
SOLID
  8
0
 62
7
  6
CONTINUOUS
 10
364.6012229651
 20
31.1842964734
 11
364.890285024
 21
31.2810881318
 12
364.6012229651
 22
31.0552422931
 13
364.6012229651
 23
31.0552422931
  0
SOLID
  8
0
 62
7
  6
CONTINUOUS
 10
364.6012229651
 20
31.0552422931
 11
364.890285024
 21
31.2810881318
 12
364.6012229651
 22
30.8616599362
 13
364.6012229651
 23
30.8616599362
  0
SOLID
  8
0
 62
7
  6
CONTINUOUS
 10
364.890285024
 20
31.2810881318
 11
364.890285024
 21
30.7648681127
 12
364.6012229651
 22
30.8616599362
 13
364.6012229651
 23
30.8616599362
  0
SOLID
  8
0
 62
7
  6
CONTINUOUS
 10
366.798097524
 20
31.5069339419
 11
367.0293479651
 21
31.5391976292
 12
367.2605977445
 22
31.5391976292
 13
367.2605977445
 23
31.5391976292
  0
SOLID
  8
0
 62
7
  6
CONTINUOUS
 10
367.2605977445
 20
31.5391976292
 11
367.4340352445
 21
31.5069339419
 12
366.798097524
 22
31.5069339419
 13
366.798097524
 23
31.5069339419
  0
SOLID
  8
0
 62
7
  6
CONTINUOUS
 10
366.624660024
 20
31.4424065674
 11
366.798097524
 21
31.5069339419
 12
367.4340352445
 22
31.5069339419
 13
367.4340352445
 23
31.5069339419
  0
SOLID
  8
0
 62
7
  6
CONTINUOUS
 10
367.4340352445
 20
31.5069339419
 11
367.6074727445
 21
31.4424065674
 12
366.624660024
 22
31.4424065674
 13
366.624660024
 23
31.4424065674
  0
SOLID
  8
0
 62
7
  6
CONTINUOUS
 10
367.6074727445
 20
31.4424065674
 11
367.0293479651
 21
31.4101420472
 12
366.624660024
 22
31.4424065674
 13
366.624660024
 23
31.4424065674
  0
SOLID
  8
0
 62
7
  6
CONTINUOUS
 10
366.5090354651
 20
31.377879193
 11
366.624660024
 21
31.4424065674
 12
367.0293479651
 22
31.4101420472
 13
367.0293479651
 23
31.4101420472
  0
SOLID
  8
0
 62
7
  6
CONTINUOUS
 10
367.0293479651
 20
31.4101420472
 11
366.798097524
 21
31.377879193
 12
366.5090354651
 22
31.377879193
 13
366.5090354651
 23
31.377879193
  0
SOLID
  8
0
 62
7
  6
CONTINUOUS
 10
367.0293479651
 20
31.4101420472
 11
367.6074727445
 21
31.4424065674
 12
367.2605977445
 22
31.377879193
 13
367.2605977445
 23
31.377879193
  0
SOLID
  8
0
 62
7
  6
CONTINUOUS
 10
367.6074727445
 20
31.4424065674
 11
367.7230979651
 21
31.377879193
 12
367.2605977445
 22
31.377879193
 13
367.2605977445
 23
31.377879193
  0
SOLID
  8
0
 62
7
  6
CONTINUOUS
 10
367.3762229651
 20
31.345614957
 11
367.2605977445
 21
31.377879193
 12
367.7230979651
 22
31.377879193
 13
367.7230979651
 23
31.377879193
  0
SOLID
  8
0
 62
7
  6
CONTINUOUS
 10
367.3762229651
 20
31.345614957
 11
367.7230979651
 21
31.377879193
 12
367.491847524
 22
31.2810881312
 13
367.491847524
 23
31.2810881312
  0
SOLID
  8
0
 62
7
  6
CONTINUOUS
 10
367.7230979651
 20
31.377879193
 11
367.7809102445
 21
31.2810881312
 12
367.491847524
 22
31.2810881312
 13
367.491847524
 23
31.2810881312
  0
SOLID
  8
0
 62
7
  6
CONTINUOUS
 10
367.5496604651
 20
31.119769695
 11
367.491847524
 21
31.2810881312
 12
367.7809102445
 22
31.2810881312
 13
367.7809102445
 23
31.2810881312
  0
SOLID
  8
0
 62
7
  6
CONTINUOUS
 10
367.7809102445
 20
31.2810881312
 11
367.838722524
 21
31.119769695
 12
367.5496604651
 22
31.119769695
 13
367.5496604651
 23
31.119769695
  0
SOLID
  8
0
 62
7
  6
CONTINUOUS
 10
366.798097524
 20
31.377879193
 11
366.624660024
 21
31.3133521701
 12
366.5090354651
 22
31.377879193
 13
366.5090354651
 23
31.377879193
  0
SOLID
  8
0
 62
7
  6
CONTINUOUS
 10
366.624660024
 20
31.3133521701
 11
366.5090354651
 21
31.2488235635
 12
366.5090354651
 22
31.377879193
 13
366.5090354651
 23
31.377879193
  0
SOLID
  8
0
 62
7
  6
CONTINUOUS
 10
366.5090354651
 20
31.2488235635
 11
366.2199727445
 21
30.5067596374
 12
366.5090354651
 22
31.377879193
 13
366.5090354651
 23
31.377879193
  0
SOLID
  8
0
 62
7
  6
CONTINUOUS
 10
366.5090354651
 20
31.377879193
 11
366.2199727445
 21
30.5067596374
 12
366.5090354651
 22
31.5391976292
 13
366.5090354651
 23
31.5391976292
  0
SOLID
  8
0
 62
7
  6
CONTINUOUS
 10
366.2199727445
 20
30.5067596374
 11
366.2199727445
 21
31.5391976292
 12
366.5090354651
 22
31.5391976292
 13
366.5090354651
 23
31.5391976292
  0
SOLID
  8
0
 62
7
  6
CONTINUOUS
 10
366.5090354651
 20
31.2488235635
 11
366.5090354651
 21
30.5067596374
 12
366.2199727445
 22
30.5067596374
 13
366.2199727445
 23
30.5067596374
  0
SOLID
  8
0
 62
7
  6
CONTINUOUS
 10
367.5496604651
 20
30.5067596374
 11
367.5496604651
 21
31.119769695
 12
367.838722524
 22
31.119769695
 13
367.838722524
 23
31.119769695
  0
SOLID
  8
0
 62
7
  6
CONTINUOUS
 10
367.838722524
 20
31.119769695
 11
367.838722524
 21
30.5067596374
 12
367.5496604651
 22
30.5067596374
 13
367.5496604651
 23
30.5067596374
  0
SOLID
  8
0
 62
7
  6
CONTINUOUS
 10
368.6480977445
 20
31.5069334157
 11
368.9949727445
 21
31.539197762
 12
369.3418477445
 22
31.539197762
 13
369.3418477445
 23
31.539197762
  0
SOLID
  8
0
 62
7
  6
CONTINUOUS
 10
369.3418477445
 20
31.539197762
 11
369.6887227445
 21
31.5069334157
 12
368.6480977445
 22
31.5069334157
 13
368.6480977445
 23
31.5069334157
  0
SOLID
  8
0
 62
7
  6
CONTINUOUS
 10
368.4168479651
 20
31.4424063504
 11
368.6480977445
 21
31.5069334157
 12
369.6887227445
 22
31.5069334157
 13
369.6887227445
 23
31.5069334157
  0
SOLID
  8
0
 62
7
  6
CONTINUOUS
 10
368.4168479651
 20
31.4424063504
 11
369.6887227445
 21
31.5069334406
 12
369.8621602445
 22
31.4746706537
 13
369.8621602445
 23
31.4746706537
  0
SOLID
  8
0
 62
7
  6
CONTINUOUS
 10
368.4168479651
 20
31.4424063504
 11
369.8621602445
 21
31.4746706537
 12
368.9949727445
 22
31.4101421267
 13
368.9949727445
 23
31.4101421267
  0
SOLID
  8
0
 62
7
  6
CONTINUOUS
 10
368.9949727445
 20
31.4101421267
 11
369.8621602445
 21
31.4746706537
 12
369.3418477445
 22
31.4101421267
 13
369.3418477445
 23
31.4101421267
  0
SOLID
  8
0
 62
7
  6
CONTINUOUS
 10
369.8621602445
 20
31.4746706537
 11
370.0355977445
 21
31.4101421267
 12
369.3418477445
 22
31.4101421267
 13
369.3418477445
 23
31.4101421267
  0
SOLID
  8
0
 62
7
  6
CONTINUOUS
 10
369.6887227445
 20
31.3778792603
 11
369.3418477445
 21
31.4101421267
 12
370.0355977445
 22
31.4101421267
 13
370.0355977445
 23
31.4101421267
  0
SOLID
  8
0
 62
7
  6
CONTINUOUS
 10
368.3012227445
 20
31.3456148845
 11
368.4168479651
 21
31.4424063504
 12
368.9949727445
 22
31.4101421267
 13
368.9949727445
 23
31.4101421267
  0
SOLID
  8
0
 62
7
  6
CONTINUOUS
 10
369.6887227445
 20
31.3778792603
 11
370.0355977445
 21
31.4101421267
 12
369.8043479651
 22
31.3456148845
 13
369.8043479651
 23
31.3456148845
  0
SOLID
  8
0
 62
7
  6
CONTINUOUS
 10
369.8043479651
 20
31.3456148845
 11
370.0355977445
 21
31.4101421267
 12
369.8621602445
 22
31.281087868
 13
369.8621602445
 23
31.281087868
  0
SOLID
  8
0
 62
7
  6
CONTINUOUS
 10
370.0355977445
 20
31.4101421267
 11
370.1512223035
 21
31.281087868
 12
369.8621602445
 22
31.281087868
 13
369.8621602445
 23
31.281087868
  0
SOLID
  8
0
 62
7
  6
CONTINUOUS
 10
359.4559102445
 20
31.3778792603
 11
358.9355977445
 21
31.3456148963
 12
359.6871602721
 22
31.4101421155
 13
359.6871602721
 23
31.4101421155
  0
SOLID
  8
0
 62
7
  6
CONTINUOUS
 10
358.9355977445
 20
31.3456148963
 11
359.0512227376
 21
31.4101421155
 12
359.6871602721
 22
31.4101421155
 13
359.6871602721
 23
31.4101421155
  0
SOLID
  8
0
 62
7
  6
CONTINUOUS
 10
359.4559102445
 20
31.3778792603
 11
359.3402852307
 21
31.3456148963
 12
358.9355977445
 22
31.3456148963
 13
358.9355977445
 23
31.3456148963
  0
SOLID
  8
0
 62
7
  6
CONTINUOUS
 10
358.8199727462
 20
31.2165607767
 11
358.9355977445
 21
31.3456148963
 12
359.3402852307
 22
31.3456148963
 13
359.3402852307
 23
31.3456148963
  0
SOLID
  8
0
 62
7
  6
CONTINUOUS
 10
363.1559103548
 20
31.3456149608
 11
363.8496603548
 21
31.4101420472
 12
363.6184102445
 22
31.3778792603
 13
363.6184102445
 23
31.3778792603
  0
SOLID
  8
0
 62
7
  6
CONTINUOUS
 10
363.6184102445
 20
31.3778792603
 11
363.5027853548
 21
31.3456149608
 12
363.1559103548
 22
31.3456149608
 13
363.1559103548
 23
31.3456149608
  0
SOLID
  8
0
 62
7
  6
CONTINUOUS
 10
363.1559103548
 20
31.2810878707
 11
363.1559103548
 21
31.3456149608
 12
363.5027853548
 22
31.3456149608
 13
363.5027853548
 23
31.3456149608
  0
SOLID
  8
0
 62
7
  6
CONTINUOUS
 10
363.5027853548
 20
31.3456149608
 11
363.4449727445
 21
31.2810878707
 12
363.1559103548
 22
31.2810878707
 13
363.1559103548
 23
31.2810878707
  0
SOLID
  8
0
 62
7
  6
CONTINUOUS
 10
368.3012227445
 20
31.3456149608
 11
368.9949727445
 21
31.4101420472
 12
368.7637229651
 22
31.3778792603
 13
368.7637229651
 23
31.3778792603
  0
SOLID
  8
0
 62
7
  6
CONTINUOUS
 10
368.7637229651
 20
31.3778792603
 11
368.6480977445
 21
31.3456149608
 12
368.3012227445
 22
31.3456149608
 13
368.3012227445
 23
31.3456149608
  0
SOLID
  8
0
 62
7
  6
CONTINUOUS
 10
368.3012227445
 20
31.2810878707
 11
368.3012227445
 21
31.3456149608
 12
368.6480977445
 22
31.3456149608
 13
368.6480977445
 23
31.3456149608
  0
SOLID
  8
0
 62
7
  6
CONTINUOUS
 10
368.6480977445
 20
31.3456149608
 11
368.5902854651
 21
31.2810878707
 12
368.3012227445
 22
31.2810878707
 13
368.3012227445
 23
31.2810878707
  0
SOLID
  8
0
 62
7
  6
CONTINUOUS
 10
368.4168479651
 20
31.1520336865
 11
368.3012227445
 21
31.2810878707
 12
368.5902854651
 22
31.2810878707
 13
368.5902854651
 23
31.2810878707
  0
SOLID
  8
0
 62
7
  6
CONTINUOUS
 10
358.8199727462
 20
31.2165607767
 11
359.3402852307
 21
31.345614957
 12
359.1668477307
 22
31.2488235635
 13
359.1668477307
 23
31.2488235635
  0
SOLID
  8
0
 62
7
  6
CONTINUOUS
 10
359.1668477307
 20
31.2488235635
 11
359.1090352445
 21
31.1842964734
 12
358.8199727462
 22
31.2165607767
 13
358.8199727462
 23
31.2165607767
  0
SOLID
  8
0
 62
7
  6
CONTINUOUS
 10
358.7621602445
 20
31.0229779898
 11
358.8199727462
 21
31.2165607767
 12
359.1090352445
 22
31.1842964734
 13
359.1090352445
 23
31.1842964734
  0
SOLID
  8
0
 62
7
  6
CONTINUOUS
 10
363.6184102445
 20
31.1520336865
 11
363.9652852445
 21
31.1842964611
 12
364.6012229651
 22
31.1842964611
 13
364.6012229651
 23
31.1842964611
  0
SOLID
  8
0
 62
7
  6
CONTINUOUS
 10
363.6184102445
 20
31.1520336865
 11
364.6012229651
 21
31.1842964611
 12
363.3871601343
 22
31.0875057863
 13
363.3871601343
 23
31.0875057863
  0
SOLID
  8
0
 62
7
  6
CONTINUOUS
 10
363.3871601343
 20
31.0875057863
 11
364.6012229651
 21
31.1842964611
 12
363.9652852445
 22
31.0552422808
 13
363.9652852445
 23
31.0552422808
  0
SOLID
  8
0
 62
7
  6
CONTINUOUS
 10
364.6012229651
 20
31.1842964611
 11
364.6012229651
 21
31.0552422808
 12
363.9652852445
 22
31.0552422808
 13
363.9652852445
 23
31.0552422808
  0
SOLID
  8
0
 62
7
  6
CONTINUOUS
 10
368.4168479651
 20
31.1520338754
 11
368.5902854651
 21
31.2810878668
 12
368.6480977445
 22
31.2165607767
 13
368.6480977445
 23
31.2165607767
  0
SOLID
  8
0
 62
7
  6
CONTINUOUS
 10
368.6480977445
 20
31.2165607767
 11
368.8215352445
 21
31.1520338754
 12
368.4168479651
 22
31.1520338754
 13
368.4168479651
 23
31.1520338754
  0
SOLID
  8
0
 62
7
  6
CONTINUOUS
 10
368.6480977445
 20
31.0552422931
 11
368.4168479651
 21
31.1520338754
 12
368.8215352445
 22
31.1520338754
 13
368.8215352445
 23
31.1520338754
  0
SOLID
  8
0
 62
7
  6
CONTINUOUS
 10
368.8215352445
 20
31.1520338754
 11
369.8043479651
 21
30.9907152029
 12
368.6480977445
 22
31.0552422931
 13
368.6480977445
 23
31.0552422931
  0
SOLID
  8
0
 62
7
  6
CONTINUOUS
 10
369.6309104651
 20
30.8939239876
 11
368.6480977445
 21
31.0552422931
 12
369.8043479651
 22
30.9907152029
 13
369.8043479651
 23
30.9907152029
  0
SOLID
  8
0
 62
7
  6
CONTINUOUS
 10
369.8043479651
 20
30.9907152029
 11
370.0355977445
 21
30.8939239876
 12
369.6309104651
 22
30.8939239876
 13
369.6309104651
 23
30.8939239876
  0
SOLID
  8
0
 62
7
  6
CONTINUOUS
 10
369.8043479651
 20
30.8293967193
 11
369.6309104651
 21
30.8939239876
 12
370.0355977445
 22
30.8939239876
 13
370.0355977445
 23
30.8939239876
  0
SOLID
  8
0
 62
7
  6
CONTINUOUS
 10
369.8043479651
 20
30.8293967193
 11
370.0355977445
 21
30.8939239876
 12
369.8621602445
 22
30.7648682694
 13
369.8621602445
 23
30.7648682694
  0
SOLID
  8
0
 62
7
  6
CONTINUOUS
 10
370.0355977445
 20
30.8939239876
 11
370.1512223035
 21
30.7648682694
 12
369.8621602445
 22
30.7648682694
 13
369.8621602445
 23
30.7648682694
  0
SOLID
  8
0
 62
7
  6
CONTINUOUS
 10
369.8043479651
 20
30.7003411846
 11
369.8621602445
 21
30.7648682694
 12
370.1512223035
 22
30.7648682694
 13
370.1512223035
 23
30.7648682694
  0
SOLID
  8
0
 62
7
  6
CONTINUOUS
 10
370.1512223035
 20
30.7648682694
 11
370.1512223035
 21
30.7003411846
 12
369.8043479651
 22
30.7003411846
 13
369.8043479651
 23
30.7003411846
  0
SOLID
  8
0
 62
7
  6
CONTINUOUS
 10
369.6887227445
 20
30.6680782357
 11
369.8043479651
 21
30.7003411846
 12
370.1512223035
 22
30.7003411846
 13
370.1512223035
 23
30.7003411846
  0
SOLID
  8
0
 62
7
  6
CONTINUOUS
 10
369.6887227445
 20
30.6680782357
 11
370.1512223035
 21
30.7003411846
 12
369.4574729651
 22
30.6358140998
 13
369.4574729651
 23
30.6358140998
  0
SOLID
  8
0
 62
7
  6
CONTINUOUS
 10
370.1512223035
 20
30.7003411846
 11
370.0355977445
 21
30.6035511455
 12
369.4574729651
 22
30.6358140998
 13
369.4574729651
 23
30.6358140998
  0
SOLID
  8
0
 62
7
  6
CONTINUOUS
 10
370.0355977445
 20
30.6035511455
 11
368.5902854651
 21
30.5712868422
 12
369.4574729651
 22
30.6358140998
 13
369.4574729651
 23
30.6358140998
  0
SOLID
  8
0
 62
7
  6
CONTINUOUS
 10
369.4574729651
 20
30.6358140998
 11
368.5902854651
 21
30.5712868422
 12
369.1105979651
 22
30.6358140998
 13
369.1105979651
 23
30.6358140998
  0
SOLID
  8
0
 62
7
  6
CONTINUOUS
 10
368.5902854651
 20
30.5712868422
 11
368.4168479651
 21
30.6358140998
 12
369.1105979651
 22
30.6358140998
 13
369.1105979651
 23
30.6358140998
  0
SOLID
  8
0
 62
7
  6
CONTINUOUS
 10
368.5902854651
 20
30.5712868422
 11
370.0355977445
 21
30.6035511455
 12
368.7637229651
 22
30.5390223111
 13
368.7637229651
 23
30.5390223111
  0
SOLID
  8
0
 62
7
  6
CONTINUOUS
 10
370.0355977445
 20
30.6035511455
 11
369.8043479651
 21
30.5390223111
 12
368.7637229651
 22
30.5390223111
 13
368.7637229651
 23
30.5390223111
  0
SOLID
  8
0
 62
7
  6
CONTINUOUS
 10
369.1105979651
 20
30.5067599302
 11
368.7637229651
 21
30.5390223111
 12
369.8043479651
 22
30.5390223111
 13
369.8043479651
 23
30.5390223111
  0
SOLID
  8
0
 62
7
  6
CONTINUOUS
 10
369.8043479651
 20
30.5390223111
 11
369.4574729651
 21
30.5067599302
 12
369.1105979651
 22
30.5067599302
 13
369.1105979651
 23
30.5067599302
  0
SOLID
  8
0
 62
7
  6
CONTINUOUS
 10
358.7621602445
 20
31.0229779898
 11
359.1090352445
 21
31.1842964734
 12
359.0512227376
 22
31.0552422931
 13
359.0512227376
 23
31.0552422931
  0
SOLID
  8
0
 62
7
  6
CONTINUOUS
 10
359.0512227376
 20
31.0552422931
 11
359.0512227376
 21
30.9584509954
 12
358.7621602445
 22
31.0229779898
 13
358.7621602445
 23
31.0229779898
  0
SOLID
  8
0
 62
7
  6
CONTINUOUS
 10
358.8199727462
 20
30.8293967193
 11
358.7621602445
 21
31.0229779898
 12
359.0512227376
 22
30.9584509954
 13
359.0512227376
 23
30.9584509954
  0
SOLID
  8
0
 62
7
  6
CONTINUOUS
 10
359.0512227376
 20
30.9584509954
 11
359.1668477307
 21
30.797132416
 12
358.8199727462
 22
30.8293967193
 13
358.8199727462
 23
30.8293967193
  0
SOLID
  8
0
 62
7
  6
CONTINUOUS
 10
358.9355977445
 20
30.7003413087
 11
358.8199727462
 21
30.8293967193
 12
359.1668477307
 22
30.797132416
 13
359.1668477307
 23
30.797132416
  0
SOLID
  8
0
 62
7
  6
CONTINUOUS
 10
359.1668477307
 20
30.797132416
 11
359.3402852307
 21
30.7003413087
 12
358.9355977445
 22
30.7003413087
 13
358.9355977445
 23
30.7003413087
  0
SOLID
  8
0
 62
7
  6
CONTINUOUS
 10
359.0512227376
 20
30.6358140759
 11
358.9355977445
 21
30.7003413087
 12
359.3402852307
 22
30.7003413087
 13
359.3402852307
 23
30.7003413087
  0
SOLID
  8
0
 62
7
  6
CONTINUOUS
 10
359.3402852307
 20
30.7003413087
 11
359.6871602721
 21
30.6358140759
 12
359.0512227376
 22
30.6358140759
 13
359.0512227376
 23
30.6358140759
  0
SOLID
  8
0
 62
7
  6
CONTINUOUS
 10
359.2246602583
 20
30.5712868422
 11
359.0512227376
 21
30.6358140759
 12
359.6871602721
 22
30.6358140759
 13
359.6871602721
 23
30.6358140759
  0
SOLID
  8
0
 62
7
  6
CONTINUOUS
 10
363.2715352445
 20
31.0229779808
 11
363.3871601343
 21
31.0875057863
 12
363.9652852445
 22
31.0552422931
 13
363.9652852445
 23
31.0552422931
  0
SOLID
  8
0
 62
7
  6
CONTINUOUS
 10
363.9652852445
 20
31.0552422931
 11
363.7340351343
 21
31.0229779808
 12
363.2715352445
 22
31.0229779808
 13
363.2715352445
 23
31.0229779808
  0
SOLID
  8
0
 62
7
  6
CONTINUOUS
 10
363.1559103548
 20
30.8939238094
 11
363.2715352445
 21
31.0229779808
 12
363.7340351343
 22
31.0229779808
 13
363.7340351343
 23
31.0229779808
  0
SOLID
  8
0
 62
7
  6
CONTINUOUS
 10
363.5027853548
 20
30.926187309
 11
363.1559103548
 21
30.8939238094
 12
363.6184102445
 22
30.9907152029
 13
363.6184102445
 23
30.9907152029
  0
SOLID
  8
0
 62
7
  6
CONTINUOUS
 10
363.1559103548
 20
30.8939238094
 11
363.7340351343
 21
31.0229779898
 12
363.6184102445
 22
30.9907152029
 13
363.6184102445
 23
30.9907152029
  0
SOLID
  8
0
 62
7
  6
CONTINUOUS
 10
363.5027853548
 20
30.926187309
 11
363.4449727445
 21
30.8293967193
 12
363.1559103548
 22
30.8939238094
 13
363.1559103548
 23
30.8939238094
  0
SOLID
  8
0
 62
7
  6
CONTINUOUS
 10
363.1559103548
 20
30.797132416
 11
363.1559103548
 21
30.8939238094
 12
363.4449727445
 22
30.8293967193
 13
363.4449727445
 23
30.8293967193
  0
SOLID
  8
0
 62
7
  6
CONTINUOUS
 10
363.4449727445
 20
30.8293967193
 11
363.4449727445
 21
30.7648681127
 12
363.1559103548
 22
30.797132416
 13
363.1559103548
 23
30.797132416
  0
SOLID
  8
0
 62
7
  6
CONTINUOUS
 10
363.2137226343
 20
30.6680782357
 11
363.1559103548
 21
30.797132416
 12
363.4449727445
 22
30.7648681127
 13
363.4449727445
 23
30.7648681127
  0
SOLID
  8
0
 62
7
  6
CONTINUOUS
 10
364.6012229651
 20
30.8616599362
 11
364.890285024
 21
30.7648681127
 12
364.543410024
 22
30.797132416
 13
364.543410024
 23
30.797132416
  0
SOLID
  8
0
 62
7
  6
CONTINUOUS
 10
364.369972524
 20
30.7003410226
 11
364.543410024
 21
30.797132416
 12
364.890285024
 22
30.7648681127
 13
364.890285024
 23
30.7648681127
  0
SOLID
  8
0
 62
7
  6
CONTINUOUS
 10
364.369972524
 20
30.7003410226
 11
364.890285024
 21
30.7648681127
 12
364.6012229651
 22
30.6680782357
 13
364.6012229651
 23
30.6680782357
  0
SOLID
  8
0
 62
7
  6
CONTINUOUS
 10
364.890285024
 20
30.7648681127
 11
364.9480979651
 21
30.6035511455
 12
364.6012229651
 22
30.6680782357
 13
364.6012229651
 23
30.6680782357
  0
SOLID
  8
0
 62
7
  6
CONTINUOUS
 10
364.6590352445
 20
30.5712868422
 11
364.6012229651
 21
30.6680782357
 12
364.9480979651
 22
30.6035511455
 13
364.9480979651
 23
30.6035511455
  0
SOLID
  8
0
 62
7
  6
CONTINUOUS
 10
364.6590352445
 20
30.5712868422
 11
364.9480979651
 21
30.6035511455
 12
364.716847524
 22
30.5067598731
 13
364.716847524
 23
30.5067598731
  0
SOLID
  8
0
 62
7
  6
CONTINUOUS
 10
364.9480979651
 20
30.6035511455
 11
365.0059102445
 21
30.5067598731
 12
364.716847524
 22
30.5067598731
 13
364.716847524
 23
30.5067598731
  0
SOLID
  8
0
 62
7
  6
CONTINUOUS
 10
360.2652852997
 20
30.7326051679
 11
360.3230977445
 21
30.8293966612
 12
360.6121602997
 22
30.8293966612
 13
360.6121602997
 23
30.8293966612
  0
SOLID
  8
0
 62
7
  6
CONTINUOUS
 10
360.6121602997
 20
30.8293966612
 11
360.5543476894
 21
30.7003410226
 12
360.2652852997
 22
30.7326051679
 13
360.2652852997
 23
30.7326051679
  0
SOLID
  8
0
 62
7
  6
CONTINUOUS
 10
360.091847717
 20
30.6680782357
 11
360.2652852997
 21
30.7326051679
 12
360.5543476894
 22
30.7003410226
 13
360.5543476894
 23
30.7003410226
  0
SOLID
  8
0
 62
7
  6
CONTINUOUS
 10
360.091847717
 20
30.6680782357
 11
360.5543476894
 21
30.7003410226
 12
359.6871602721
 22
30.6358139324
 13
359.6871602721
 23
30.6358139324
  0
SOLID
  8
0
 62
7
  6
CONTINUOUS
 10
360.5543476894
 20
30.7003410226
 11
360.3809101894
 21
30.6035511455
 12
359.6871602721
 22
30.6358139324
 13
359.6871602721
 23
30.6358139324
  0
SOLID
  8
0
 62
7
  6
CONTINUOUS
 10
359.2246602583
 20
30.5712868422
 11
359.6871602721
 21
30.6358139324
 12
360.3809101894
 22
30.6035511455
 13
360.3809101894
 23
30.6035511455
  0
SOLID
  8
0
 62
7
  6
CONTINUOUS
 10
359.2246602583
 20
30.5712868422
 11
360.3809101894
 21
30.6035511455
 12
359.3980977583
 22
30.5390224228
 13
359.3980977583
 23
30.5390224228
  0
SOLID
  8
0
 62
7
  6
CONTINUOUS
 10
360.3809101894
 20
30.6035511455
 11
360.1496602445
 21
30.5390224228
 12
359.3980977583
 22
30.5390224228
 13
359.3980977583
 23
30.5390224228
  0
SOLID
  8
0
 62
7
  6
CONTINUOUS
 10
359.744972717
 20
30.5067597521
 11
359.3980977583
 21
30.5390224228
 12
360.1496602445
 22
30.5390224228
 13
360.1496602445
 23
30.5390224228
  0
SOLID
  8
0
 62
7
  6
CONTINUOUS
 10
363.2137226343
 20
30.6680782357
 11
363.4449727445
 21
30.7648681127
 12
363.5027853548
 22
30.7003410226
 13
363.5027853548
 23
30.7003410226
  0
SOLID
  8
0
 62
7
  6
CONTINUOUS
 10
363.5027853548
 20
30.7003410226
 11
363.7340351343
 21
30.6358139324
 12
363.2137226343
 22
30.6680782357
 13
363.2137226343
 23
30.6680782357
  0
SOLID
  8
0
 62
7
  6
CONTINUOUS
 10
363.3871601343
 20
30.5712868422
 11
363.2137226343
 21
30.6680782357
 12
363.7340351343
 22
30.6358139324
 13
363.7340351343
 23
30.6358139324
  0
SOLID
  8
0
 62
7
  6
CONTINUOUS
 10
364.0809101343
 20
30.6358139363
 11
364.369972524
 21
30.7003410226
 12
364.6012229651
 22
30.6680782357
 13
364.6012229651
 23
30.6680782357
  0
SOLID
  8
0
 62
7
  6
CONTINUOUS
 10
364.6012229651
 20
30.6680782357
 11
364.543410024
 21
30.6035511455
 12
364.0809101343
 22
30.6358139363
 13
364.0809101343
 23
30.6358139363
  0
SOLID
  8
0
 62
7
  6
CONTINUOUS
 10
364.543410024
 20
30.6035511455
 11
363.3871601343
 21
30.5712868422
 12
364.0809101343
 22
30.6358139363
 13
364.0809101343
 23
30.6358139363
  0
SOLID
  8
0
 62
7
  6
CONTINUOUS
 10
363.3871601343
 20
30.5712868422
 11
363.7340351343
 21
30.6358139363
 12
364.0809101343
 22
30.6358139363
 13
364.0809101343
 23
30.6358139363
  0
SOLID
  8
0
 62
7
  6
CONTINUOUS
 10
363.3871601343
 20
30.5712868422
 11
364.543410024
 21
30.6035511455
 12
363.5027853548
 22
30.5390225267
 13
363.5027853548
 23
30.5390225267
  0
SOLID
  8
0
 62
7
  6
CONTINUOUS
 10
364.543410024
 20
30.6035511455
 11
364.369972524
 21
30.5390225267
 12
363.5027853548
 22
30.5390225267
 13
363.5027853548
 23
30.5390225267
  0
SOLID
  8
0
 62
7
  6
CONTINUOUS
 10
363.7340351343
 20
30.5067596914
 11
363.5027853548
 21
30.5390225267
 12
364.369972524
 22
30.5390225267
 13
364.369972524
 23
30.5390225267
  0
SOLID
  8
0
 62
7
  6
CONTINUOUS
 10
364.369972524
 20
30.5390225267
 11
364.0809101343
 21
30.5067596914
 12
363.7340351343
 22
30.5067596914
 13
363.7340351343
 23
30.5067596914
  0
SOLID
  8
0
 62
7
  6
CONTINUOUS
 10
368.7637229651
 20
30.6680782357
 11
368.4168479651
 21
30.6358138717
 12
368.6480977445
 22
30.7003410226
 13
368.6480977445
 23
30.7003410226
  0
SOLID
  8
0
 62
7
  6
CONTINUOUS
 10
368.6480977445
 20
30.7003410226
 11
368.4168479651
 21
30.6358138717
 12
368.5902854651
 22
30.7648680521
 13
368.5902854651
 23
30.7648680521
  0
SOLID
  8
0
 62
7
  6
CONTINUOUS
 10
368.4168479651
 20
30.6358138717
 11
368.3012227445
 21
30.7648680521
 12
368.5902854651
 22
30.7648680521
 13
368.5902854651
 23
30.7648680521
  0
SOLID
  8
0
 62
7
  6
CONTINUOUS
 10
368.7637229651
 20
30.6680782357
 11
369.1105979651
 21
30.6358138717
 12
368.4168479651
 22
30.6358138717
 13
368.4168479651
 23
30.6358138717
  0
SOLID
  8
0
 62
7
  6
CONTINUOUS
 10
365.4684104651
 20
30.5067597521
 11
365.4684104651
 21
31.5391977439
 12
365.757472524
 22
30.5067597521
 13
365.757472524
 23
31.5391977439
  0
ENDBLK
  8
0
  6
BYBLOCK
 62
0
  0
BLOCK
  8
0
 62
2
  6
CONTINUOUS
  2
SYMBOL_0_BL0
 70
64
 10
240.8592468615
 20
19.762288695
  0
TEXT
  8
0
 62
7
  6
CONTINUOUS
 10
227.1239507038
 20
19.1357028027
  7
TEXTSTYLE_3
 40
2.7338706658
  1
Ammeraal Beltech
 41
1.0
 51
15.0
 72
0
  0
TEXT
  8
0
 62
7
  6
CONTINUOUS
 10
237.9247515296
 20
16.8621661299
  7
TEXTSTYLE_4
 40
1.0935482663
  1
Innovation & Service in Belting
 41
1.0
 72
0
  0
LINE
  8
0
 62
7
  6
CONTINUOUS
 10
221.0994100525
 20
19.9022961113
 11
221.8775620458
 21
23.5632134089
  0
LINE
  8
0
 62
7
  6
CONTINUOUS
 10
231.9727303357
 20
27.2266073205
 11
222.3653797889
 21
24.1049898993
  0
LINE
  8
0
 62
7
  6
CONTINUOUS
 10
221.3246933848
 20
19.2089453082
 11
228.8317686459
 21
12.4495443822
  0
LINE
  8
0
 62
7
  6
CONTINUOUS
 10
221.5872277955
 20
20.4440726016
 11
232.3954971607
 21
23.9558922005
  0
LINE
  8
0
 62
7
  6
CONTINUOUS
 10
232.3912920235
 20
13.6061036368
 11
223.9458323548
 21
21.2104296785
  0
LINE
  8
0
 62
7
  6
CONTINUOUS
 10
232.9111147433
 20
26.3816822048
 11
231.9345552061
 21
21.7873308023
  0
LINE
  8
0
 62
7
  6
CONTINUOUS
 10
231.2347532584
 20
18.4950214885
 11
230.5483050469
 21
15.2655365641
  0
LINE
  8
0
 62
7
  6
CONTINUOUS
 10
233.5922108419
 20
13.9963058145
 11
234.5484423775
 21
18.4950214885
  0
LINE
  8
0
 62
7
  6
CONTINUOUS
 10
235.2482443252
 20
21.7873308023
 11
235.6924861276
 21
23.8773241617
  0
LINE
  8
0
 62
7
  6
CONTINUOUS
 10
229.5448697213
 20
12.2979700695
 11
233.1043930989
 21
13.4545293241
  0
LINE
  8
0
 62
7
  6
CONTINUOUS
 10
232.685831411
 20
27.0750330078
 11
235.4672027953
 21
24.5706749648
  0
ARC
  8
0
 62
7
  6
CONTINUOUS
 10
222.5906631212
 20
23.4116390962
 40
0.7290321776
 50
108.0
 51
168.0
  0
ARC
  8
0
 62
7
  6
CONTINUOUS
 10
232.198013668
 20
26.5332565175
 40
0.7290321776
 50
348.0
 51
108.0
  0
ARC
  8
0
 62
7
  6
CONTINUOUS
 10
234.9793850522
 20
24.0288984744
 40
0.7290321776
 50
348.0
 51
48.0
  0
ARC
  8
0
 62
7
  6
CONTINUOUS
 10
229.319586389
 20
12.9913208726
 40
0.7290321776
 50
228.0
 51
288.0
  0
ARC
  8
0
 62
7
  6
CONTINUOUS
 10
221.8125111278
 20
19.7507217986
 40
0.7290321776
 50
108.0
 51
228.0
  0
ARC
  8
0
 62
7
  6
CONTINUOUS
 10
232.8791097665
 20
14.1478801272
 40
0.7290321776
 50
228.0
 51
348.0
  0
ENDBLK
  8
0
  6
BYBLOCK
 62
0
  0
ENDSEC
  0
SECTION
  2
ENTITIES
  0
TEXT
  8
0
 62
5
  6
CONTINUOUS
 10
304.937007874
 20
25.636
  7
TEXTSTYLE_2
 40
2.8
  1
Scale :
 41
0.6
 51
0.000019
 72
0
  0
TEXT
  8
0
 62
5
  6
CONTINUOUS
 10
324.937007874
 20
25.636
  7
TEXTSTYLE_2
 40
2.8
  1
Belt type:
 41
0.6
 51
0.000019
 72
0
  0
INSERT
  8
0
 62
2
  6
CONTINUOUS
  2
SYMBOL_0_BL0
 10
240.8592468615
 20
19.762288695
  0
INSERT
  8
0
 62
2
  6
CONTINUOUS
  2
SYMBOL_5_BL1
 10
382.7840918555
 20
35.5067593403
  0
LINE
  8
0
 62
2
  6
CONTINUOUS
 10
218.937007874
 20
30.0
 11
408.937007874
 21
30.0
  0
LINE
  8
0
 62
2
  6
CONTINUOUS
 10
218.937007874
 20
30.0
 11
218.937007874
 21
10.0
  0
LINE
  8
0
 62
2
  6
CONTINUOUS
 10
218.937007874
 20
10.0
 11
408.937007874
 21
10.0
  0
LINE
  8
0
 62
2
  6
CONTINUOUS
 10
303.937007874
 20
30.0
 11
303.937007874
 21
10.0
  0
LINE
  8
0
 62
2
  6
CONTINUOUS
 10
323.937007874
 20
30.0
 11
323.937007874
 21
10.0
  0
LINE
  8
0
 62
2
  6
CONTINUOUS
 10
408.937007874
 20
30.0
 11
408.937007874
 21
10.0
  0
TEXT
  8
0
 62
5
  6
CONTINUOUS
 10
221.937007874
 20
23.303
  7
TEXTSTYLE_5
 40
1.52
  1
                                                                     Ammeraal Beltech Modular A/S
 41
1.0
 72
0
  0
TEXT
  8
0
 62
5
  6
CONTINUOUS
 10
221.937007874
 20
20.595
  7
TEXTSTYLE_5
 40
1.5
  1
                                                                      Hjulmagervej 21, 7100 Vejle,  DK
 41
1.0
 72
0
  0
TEXT
  8
0
 62
5
  6
CONTINUOUS
 10
221.937007874
 20
17.881
  7
TEXTSTYLE_5
 40
1.495
  1
                                                                      tel: 
 41
1.0
 72
0
  0
TEXT
  8
0
 62
5
  6
CONTINUOUS
 10
266.9239544389
 20
17.881
  7
TEXTSTYLE_5
 40
1.51
  1
+45 75723100     fax: +45 75723348
 41
1.0
 72
0
  0
TEXT
  8
0
 62
5
  6
CONTINUOUS
 10
221.937007874
 20
15.177
  7
TEXTSTYLE_5
 40
1.5
  1
                                                                      admin@unichains.dk  www.unichains.com
 41
1.0
 72
0
  0
TEXT
  8
0
 62
5
  6
CONTINUOUS
 10
308.687007874
 20
13.75
  7
TEXTSTYLE_6
 40
5.0
  1
1:1
 41
0.7
 72
1
 11
313.937007874
 21
13.75
  0
TEXT
  8
0
 62
5
  6
CONTINUOUS
 10
326.937007874
 20
13.75
  7
TEXTSTYLE_7
 40
7.5
  1
uni Flex ASB-43 CS K300
 41
0.4248188406
 72
0
  0
LINE
  8
0
 62
7
  6
CONTINUOUS
 10
0.0
 20
0.0
 11
0.0
 21
297.0
  0
LINE
  8
0
 62
7
  6
CONTINUOUS
 10
8.937007874
 20
10.0
 11
8.937007874
 21
287.0
  0
LINE
  8
0
 62
7
  6
CONTINUOUS
 10
0.0
 20
0.0
 11
420.0
 21
0.0
  0
LINE
  8
0
 62
7
  6
CONTINUOUS
 10
408.937007874
 20
10.0
 11
8.937007874
 21
10.0
  0
LINE
  8
0
 62
7
  6
CONTINUOUS
 10
218.937007874
 20
30.0
 11
408.937007874
 21
30.0
  0
LINE
  8
0
 62
7
  6
CONTINUOUS
 10
210.0
 20
297.0
 11
210.0
 21
292.0
  0
LINE
  8
0
 62
7
  6
CONTINUOUS
 10
210.0
 20
0.0
 11
210.0
 21
5.0
  0
LINE
  8
0
 62
7
  6
CONTINUOUS
 10
8.937007874
 20
287.0
 11
408.937007874
 21
287.0
  0
LINE
  8
0
 62
7
  6
CONTINUOUS
 10
0.0
 20
297.0
 11
420.0
 21
297.0
  0
LINE
  8
0
 62
7
  6
CONTINUOUS
 10
408.937007874
 20
287.0
 11
408.937007874
 21
10.0
  0
LINE
  8
0
 62
7
  6
CONTINUOUS
 10
420.0
 20
0.0
 11
420.0
 21
297.0
  0
POLYLINE
  8
AXES
 62
7
  6
CONTINUOUS
 66
1
 70
0
  0
VERTEX
  8
AXES
 62
7
  6
CONTINUOUS
 10
167.0055026613
 20
228.7668853359
  0
VERTEX
  8
AXES
 62
7
  6
CONTINUOUS
 10
166.87480915
 20
228.733029149
  0
VERTEX
  8
AXES
 62
7
  6
CONTINUOUS
 10
166.7426750785
 20
228.688226446
  0
VERTEX
  8
AXES
 62
7
  6
CONTINUOUS
 10
166.6108837092
 20
228.6338083226
  0
VERTEX
  8
AXES
 62
7
  6
CONTINUOUS
 10
166.4813439046
 20
228.5717378418
  0
VERTEX
  8
AXES
 62
7
  6
CONTINUOUS
 10
166.3572480055
 20
228.5051027668
  0
VERTEX
  8
AXES
 62
7
  6
CONTINUOUS
 10
166.2419936596
 20
228.4375650099
  0
VERTEX
  8
AXES
 62
7
  6
CONTINUOUS
 10
166.1385793281
 20
228.3727648056
  0
VERTEX
  8
AXES
 62
7
  6
CONTINUOUS
 10
166.0496445227
 20
228.314096157
  0
VERTEX
  8
AXES
 62
7
  6
CONTINUOUS
 10
165.9765492092
 20
228.2639208218
  0
VERTEX
  8
AXES
 62
7
  6
CONTINUOUS
 10
165.9186694551
 20
228.2229064108
  0
VERTEX
  8
AXES
 62
7
  6
CONTINUOUS
 10
165.8752747521
 20
228.1912900175
  0
VERTEX
  8
AXES
 62
7
  6
CONTINUOUS
 10
165.8453212906
 20
228.1688082115
  0
VERTEX
  8
AXES
 62
7
  6
CONTINUOUS
 10
165.8282326094
 20
228.1553315796
  0
VERTEX
  8
AXES
 62
7
  6
CONTINUOUS
 10
165.8236714237
 20
228.1509556605
  0
SEQEND
  0
POLYLINE
  8
0
 62
7
  6
CONTINUOUS
 66
1
 70
0
  0
VERTEX
  8
0
 62
7
  6
CONTINUOUS
 10
166.3363694466
 20
224.2982303923
  0
VERTEX
  8
0
 62
7
  6
CONTINUOUS
 10
166.4352202706
 20
224.3149581618
  0
VERTEX
  8
0
 62
7
  6
CONTINUOUS
 10
166.5431809065
 20
224.3320032249
  0
VERTEX
  8
0
 62
7
  6
CONTINUOUS
 10
166.658783252
 20
224.3483776768
  0
VERTEX
  8
0
 62
7
  6
CONTINUOUS
 10
166.7804211149
 20
224.3631656786
  0
VERTEX
  8
0
 62
7
  6
CONTINUOUS
 10
166.9064987536
 20
224.3755927954
  0
VERTEX
  8
0
 62
7
  6
CONTINUOUS
 10
167.0357980342
 20
224.385081426
  0
VERTEX
  8
0
 62
7
  6
CONTINUOUS
 10
167.1675579501
 20
224.3912271705
  0
VERTEX
  8
0
 62
7
  6
CONTINUOUS
 10
167.3009748225
 20
224.3937453485
  0
SEQEND
  0
POLYLINE
  8
0
 62
7
  6
CONTINUOUS
 66
1
 70
0
  0
VERTEX
  8
0
 62
7
  6
CONTINUOUS
 10
166.0146259683
 20
224.2508653375
  0
VERTEX
  8
0
 62
7
  6
CONTINUOUS
 10
166.0539882994
 20
224.2531008798
  0
VERTEX
  8
0
 62
7
  6
CONTINUOUS
 10
166.1061449818
 20
224.2595255176
  0
VERTEX
  8
0
 62
7
  6
CONTINUOUS
 10
166.1709533593
 20
224.2696486159
  0
VERTEX
  8
0
 62
7
  6
CONTINUOUS
 10
166.3363694466
 20
224.2982303923
  0
SEQEND
  0
LINE
  8
0
 62
7
  6
CONTINUOUS
 10
120.1736597166
 20
224.2508653375
 11
195.973671422
 21
224.2508653375
  0
LINE
  8
AXES
 62
2
  6
CENTER
 10
117.423671422
 20
230.2508653375
 11
196.123671422
 21
230.2508653375
  0
POLYLINE
  8
0
 62
7
  6
CONTINUOUS
 66
1
 70
0
  0
VERTEX
  8
0
 62
7
  6
CONTINUOUS
 10
174.2327168758
 20
224.2508653375
  0
VERTEX
  8
0
 62
7
  6
CONTINUOUS
 10
174.1934393201
 20
224.2530927303
  0
VERTEX
  8
0
 62
7
  6
CONTINUOUS
 10
174.14129159
 20
224.2595121207
  0
VERTEX
  8
0
 62
7
  6
CONTINUOUS
 10
174.0764869376
 20
224.2696324623
  0
SEQEND
  0
POLYLINE
  8
0
 62
7
  6
CONTINUOUS
 66
1
 70
0
  0
VERTEX
  8
0
 62
7
  6
CONTINUOUS
 10
120.327671422
 20
238.489346952
  0
VERTEX
  8
0
 62
7
  6
CONTINUOUS
 10
120.3330056434
 20
238.4897207417
  0
VERTEX
  8
0
 62
7
  6
CONTINUOUS
 10
120.3489628041
 20
238.4898828876
  0
SEQEND
  0
POLYLINE
  8
0
 62
7
  6
CONTINUOUS
 66
1
 70
0
  0
VERTEX
  8
0
 62
7
  6
CONTINUOUS
 10
120.3317119512
 20
238.489728681
  0
VERTEX
  8
0
 62
7
  6
CONTINUOUS
 10
120.3294497408
 20
238.4896792449
  0
VERTEX
  8
0
 62
7
  6
CONTINUOUS
 10
120.3272003132
 20
238.4896172244
  0
VERTEX
  8
0
 62
7
  6
CONTINUOUS
 10
120.3248665126
 20
238.4895357421
  0
VERTEX
  8
0
 62
7
  6
CONTINUOUS
 10
120.3222988464
 20
238.4894211285
  0
VERTEX
  8
0
 62
7
  6
CONTINUOUS
 10
120.3192830716
 20
238.4892464453
  0
VERTEX
  8
0
 62
7
  6
CONTINUOUS
 10
120.3155988391
 20
238.4889654237
  0
VERTEX
  8
0
 62
7
  6
CONTINUOUS
 10
120.3109830547
 20
238.4884976332
  0
VERTEX
  8
0
 62
7
  6
CONTINUOUS
 10
120.3049337801
 20
238.4876767997
  0
VERTEX
  8
0
 62
7
  6
CONTINUOUS
 10
120.2969744848
 20
238.4862207068
  0
VERTEX
  8
0
 62
7
  6
CONTINUOUS
 10
120.2874349755
 20
238.4838871401
  0
VERTEX
  8
0
 62
7
  6
CONTINUOUS
 10
120.2769356927
 20
238.4805358209
  0
VERTEX
  8
0
 62
7
  6
CONTINUOUS
 10
120.2661878714
 20
238.4761914885
  0
VERTEX
  8
0
 62
7
  6
CONTINUOUS
 10
120.2555294048
 20
238.4708796817
  0
VERTEX
  8
0
 62
7
  6
CONTINUOUS
 10
120.2450538711
 20
238.4645612522
  0
VERTEX
  8
0
 62
7
  6
CONTINUOUS
 10
120.2348664779
 20
238.4572056085
  0
VERTEX
  8
0
 62
7
  6
CONTINUOUS
 10
120.2250813788
 20
238.4487909154
  0
VERTEX
  8
0
 62
7
  6
CONTINUOUS
 10
120.2158249226
 20
238.439309158
  0
VERTEX
  8
0
 62
7
  6
CONTINUOUS
 10
120.2072317524
 20
238.4287664079
  0
VERTEX
  8
0
 62
7
  6
CONTINUOUS
 10
120.1994300393
 20
238.4171624152
  0
VERTEX
  8
0
 62
7
  6
CONTINUOUS
 10
120.1925611713
 20
238.4045077633
  0
VERTEX
  8
0
 62
7
  6
CONTINUOUS
 10
120.1867821789
 20
238.3908310178
  0
VERTEX
  8
0
 62
7
  6
CONTINUOUS
 10
120.1822641503
 20
238.3761824505
  0
VERTEX
  8
0
 62
7
  6
CONTINUOUS
 10
120.1791904773
 20
238.3606388551
  0
VERTEX
  8
0
 62
7
  6
CONTINUOUS
 10
120.1777541256
 20
238.3443087672
  0
VERTEX
  8
0
 62
7
  6
CONTINUOUS
 10
120.1776721071
 20
238.3393485816
  0
SEQEND
  0
LINE
  8
0
 62
7
  6
CONTINUOUS
 10
120.3365147524
 20
238.4898025223
 11
120.3317119512
 21
238.489728681
  0
LINE
  8
0
 62
7
  6
CONTINUOUS
 10
120.3515921418
 20
238.4898886064
 11
120.3419304053
 21
238.4898519926
  0
LINE
  8
0
 62
7
  6
CONTINUOUS
 10
191.0685972914
 20
238.48888125
 11
191.70323615
 21
238.4898911505
  0
LINE
  8
0
 62
7
  6
CONTINUOUS
 10
150.673671422
 20
238.4888411845
 11
146.819671422
 21
238.4888411845
  0
LINE
  8
0
 62
7
  6
CONTINUOUS
 10
160.573671422
 20
238.4888411845
 11
165.173671422
 21
238.4888411845
  0
LINE
  8
0
 62
7
  6
CONTINUOUS
 10
160.573671422
 20
238.4898913595
 11
150.673671422
 21
238.4898913595
  0
LINE
  8
0
 62
7
  6
CONTINUOUS
 10
165.173671422
 20
238.4898913595
 11
191.9286397558
 21
238.4897972801
  0
LINE
  8
0
 62
7
  6
CONTINUOUS
 10
120.3489628041
 20
238.4898828876
 11
146.819671422
 21
238.4898913595
  0
LINE
  8
0
 62
7
  6
CONTINUOUS
 10
120.8970039407
 20
238.485879821
 11
121.177671422
 21
238.4852008933
  0
POLYLINE
  8
0
 62
7
  6
CONTINUOUS
 66
1
 70
0
  0
VERTEX
  8
0
 62
7
  6
CONTINUOUS
 10
193.3741198676
 20
238.4856161658
  0
VERTEX
  8
0
 62
7
  6
CONTINUOUS
 10
192.6362906064
 20
238.4885260055
  0
VERTEX
  8
0
 62
7
  6
CONTINUOUS
 10
191.9287517191
 20
238.4897975654
  0
SEQEND
  0
LINE
  8
0
 62
7
  6
CONTINUOUS
 10
120.3753445127
 20
238.4898425708
 11
120.8970039407
 21
238.485879821
  0
LINE
  8
0
 62
7
  6
CONTINUOUS
 10
194.3458054522
 20
238.4789829109
 11
193.3741198676
 21
238.4856161658
  0
LINE
  8
0
 62
7
  6
CONTINUOUS
 10
194.611343876
 20
238.4755127277
 11
194.3458054522
 21
238.4789829109
  0
LINE
  8
0
 62
7
  6
CONTINUOUS
 10
194.8504294573
 20
238.4709866159
 11
194.611343876
 21
238.4755127277
  0
POLYLINE
  8
0
 62
7
  6
CONTINUOUS
 66
1
 70
0
  0
VERTEX
  8
0
 62
7
  6
CONTINUOUS
 10
174.0764869376
 20
224.2696324623
  0
VERTEX
  8
0
 62
7
  6
CONTINUOUS
 10
173.9110672107
 20
224.2982141592
  0
VERTEX
  8
0
 62
7
  6
CONTINUOUS
 10
173.8122088175
 20
224.3149439643
  0
VERTEX
  8
0
 62
7
  6
CONTINUOUS
 10
173.7042396444
 20
224.331991517
  0
VERTEX
  8
0
 62
7
  6
CONTINUOUS
 10
173.5886292229
 20
224.3483684606
  0
VERTEX
  8
0
 62
7
  6
CONTINUOUS
 10
173.466973064
 20
224.3631599987
  0
VERTEX
  8
0
 62
7
  6
CONTINUOUS
 10
173.3408691429
 20
224.3755906357
  0
VERTEX
  8
0
 62
7
  6
CONTINUOUS
 10
173.2115581407
 20
224.3850806374
  0
VERTEX
  8
0
 62
7
  6
CONTINUOUS
 10
173.0798005352
 20
224.3912266825
  0
VERTEX
  8
0
 62
7
  6
CONTINUOUS
 10
172.9463664693
 20
224.3937454805
  0
SEQEND
  0
POLYLINE
  8
AXES
 62
7
  6
CONTINUOUS
 66
1
 70
0
  0
VERTEX
  8
AXES
 62
7
  6
CONTINUOUS
 10
173.2418401828
 20
228.7668853359
  0
VERTEX
  8
AXES
 62
7
  6
CONTINUOUS
 10
173.2199879325
 20
228.7734391235
  0
VERTEX
  8
AXES
 62
7
  6
CONTINUOUS
 10
173.1990587333
 20
228.7835428475
  0
VERTEX
  8
AXES
 62
7
  6
CONTINUOUS
 10
173.1798017814
 20
228.7971028135
  0
VERTEX
  8
AXES
 62
7
  6
CONTINUOUS
 10
173.1622640305
 20
228.8145565582
  0
VERTEX
  8
AXES
 62
7
  6
CONTINUOUS
 10
173.1469119123
 20
228.8364482656
  0
VERTEX
  8
AXES
 62
7
  6
CONTINUOUS
 10
173.134722197
 20
228.8628803841
  0
VERTEX
  8
AXES
 62
7
  6
CONTINUOUS
 10
173.126640348
 20
228.8938860039
  0
VERTEX
  8
AXES
 62
7
  6
CONTINUOUS
 10
173.1236570589
 20
228.9298461252
  0
SEQEND
  0
POLYLINE
  8
0
 62
7
  6
CONTINUOUS
 66
1
 70
0
  0
VERTEX
  8
0
 62
7
  6
CONTINUOUS
 10
120.0043056655
 20
237.280897462
  0
VERTEX
  8
0
 62
7
  6
CONTINUOUS
 10
119.9812014065
 20
237.2563000126
  0
VERTEX
  8
0
 62
7
  6
CONTINUOUS
 10
119.9589946869
 20
237.2316680774
  0
VERTEX
  8
0
 62
7
  6
CONTINUOUS
 10
119.9375602609
 20
237.2069553475
  0
VERTEX
  8
0
 62
7
  6
CONTINUOUS
 10
119.9167699784
 20
237.1820878771
  0
VERTEX
  8
0
 62
7
  6
CONTINUOUS
 10
119.8965047331
 20
237.1569767334
  0
VERTEX
  8
0
 62
7
  6
CONTINUOUS
 10
119.8766588126
 20
237.1315299947
  0
VERTEX
  8
0
 62
7
  6
CONTINUOUS
 10
119.8571835265
 20
237.1057141223
  0
VERTEX
  8
0
 62
7
  6
CONTINUOUS
 10
119.8380671081
 20
237.0795347474
  0
VERTEX
  8
0
 62
7
  6
CONTINUOUS
 10
119.8193046441
 20
237.0530049561
  0
VERTEX
  8
0
 62
7
  6
CONTINUOUS
 10
119.8008870422
 20
237.0261307876
  0
VERTEX
  8
0
 62
7
  6
CONTINUOUS
 10
119.7828055289
 20
236.998913166
  0
VERTEX
  8
0
 62
7
  6
CONTINUOUS
 10
119.7650573031
 20
236.9713606111
  0
VERTEX
  8
0
 62
7
  6
CONTINUOUS
 10
119.7476338383
 20
236.9434712002
  0
VERTEX
  8
0
 62
7
  6
CONTINUOUS
 10
119.7305301307
 20
236.9152427883
  0
VERTEX
  8
0
 62
7
  6
CONTINUOUS
 10
119.7137442549
 20
236.8866780541
  0
VERTEX
  8
0
 62
7
  6
CONTINUOUS
 10
119.6972681091
 20
236.8577651195
  0
VERTEX
  8
0
 62
7
  6
CONTINUOUS
 10
119.6811030192
 20
236.8285039145
  0
VERTEX
  8
0
 62
7
  6
CONTINUOUS
 10
119.6652480484
 20
236.7988902831
  0
VERTEX
  8
0
 62
7
  6
CONTINUOUS
 10
119.6497028599
 20
236.768913915
  0
VERTEX
  8
0
 62
7
  6
CONTINUOUS
 10
119.6344712617
 20
236.7385720977
  0
VERTEX
  8
0
 62
7
  6
CONTINUOUS
 10
119.6195514246
 20
236.7078441472
  0
VERTEX
  8
0
 62
7
  6
CONTINUOUS
 10
119.6049499371
 20
236.6767225744
  0
VERTEX
  8
0
 62
7
  6
CONTINUOUS
 10
119.5906660473
 20
236.6451782603
  0
VERTEX
  8
0
 62
7
  6
CONTINUOUS
 10
119.5767084525
 20
236.6131945912
  0
VERTEX
  8
0
 62
7
  6
CONTINUOUS
 10
119.5630787067
 20
236.5807311202
  0
VERTEX
  8
0
 62
7
  6
CONTINUOUS
 10
119.5497886506
 20
236.5477591991
  0
VERTEX
  8
0
 62
7
  6
CONTINUOUS
 10
119.5368437135
 20
236.5142215088
  0
VERTEX
  8
0
 62
7
  6
CONTINUOUS
 10
119.5242713689
 20
236.4801020198
  0
VERTEX
  8
0
 62
7
  6
CONTINUOUS
 10
119.5121065357
 20
236.4453887453
  0
VERTEX
  8
0
 62
7
  6
CONTINUOUS
 10
119.5003927894
 20
236.4100844095
  0
VERTEX
  8
0
 62
7
  6
CONTINUOUS
 10
119.4891760209
 20
236.3741729381
  0
VERTEX
  8
0
 62
7
  6
CONTINUOUS
 10
119.4785038605
 20
236.3376206334
  0
VERTEX
  8
0
 62
7
  6
CONTINUOUS
 10
119.4684371576
 20
236.3004003352
  0
VERTEX
  8
0
 62
7
  6
CONTINUOUS
 10
119.4590503156
 20
236.2624767872
  0
VERTEX
  8
0
 62
7
  6
CONTINUOUS
 10
119.450455782
 20
236.2239170413
  0
VERTEX
  8
0
 62
7
  6
CONTINUOUS
 10
119.4427863938
 20
236.1848456944
  0
VERTEX
  8
0
 62
7
  6
CONTINUOUS
 10
119.4361891202
 20
236.1454238838
  0
VERTEX
  8
0
 62
7
  6
CONTINUOUS
 10
119.4308256077
 20
236.1058904865
  0
VERTEX
  8
0
 62
7
  6
CONTINUOUS
 10
119.426858393
 20
236.0665469245
  0
VERTEX
  8
0
 62
7
  6
CONTINUOUS
 10
119.4244409095
 20
236.0278813259
  0
SEQEND
  0
POLYLINE
  8
0
 62
7
  6
CONTINUOUS
 66
1
 70
0
  0
VERTEX
  8
0
 62
7
  6
CONTINUOUS
 10
120.0725479621
 20
237.3475794429
  0
VERTEX
  8
0
 62
7
  6
CONTINUOUS
 10
120.0537584986
 20
237.3300982955
  0
VERTEX
  8
0
 62
7
  6
CONTINUOUS
 10
120.0284403396
 20
237.3054907843
  0
VERTEX
  8
0
 62
7
  6
CONTINUOUS
 10
120.0043056655
 20
237.280897462
  0
SEQEND
  0
POLYLINE
  8
0
 62
7
  6
CONTINUOUS
 66
1
 70
0
  0
VERTEX
  8
0
 62
7
  6
CONTINUOUS
 10
126.4226855141
 20
237.3529794985
  0
VERTEX
  8
0
 62
7
  6
CONTINUOUS
 10
126.4045663983
 20
237.3361747455
  0
VERTEX
  8
0
 62
7
  6
CONTINUOUS
 10
126.3792081218
 20
237.3116178358
  0
VERTEX
  8
0
 62
7
  6
CONTINUOUS
 10
126.3550375284
 20
237.2870724873
  0
VERTEX
  8
0
 62
7
  6
CONTINUOUS
 10
126.3319015238
 20
237.2625216951
  0
VERTEX
  8
0
 62
7
  6
CONTINUOUS
 10
126.3096670357
 20
237.2379359396
  0
VERTEX
  8
0
 62
7
  6
CONTINUOUS
 10
126.2882090031
 20
237.2132700737
  0
VERTEX
  8
0
 62
7
  6
CONTINUOUS
 10
126.2673995887
 20
237.1884516019
  0
VERTEX
  8
0
 62
7
  6
CONTINUOUS
 10
126.247119518
 20
237.1633923954
  0
VERTEX
  8
0
 62
7
  6
CONTINUOUS
 10
126.2272633916
 20
237.138001822
  0
VERTEX
  8
0
 62
7
  6
CONTINUOUS
 10
126.207782856
 20
237.1122476099
  0
VERTEX
  8
0
 62
7
  6
CONTINUOUS
 10
126.1886651393
 20
237.0861347611
  0
VERTEX
  8
0
 62
7
  6
CONTINUOUS
 10
126.1699045848
 20
237.0596758169
  0
VERTEX
  8
0
 62
7
  6
CONTINUOUS
 10
126.151491613
 20
237.0328766392
  0
VERTEX
  8
0
 62
7
  6
CONTINUOUS
 10
126.1334164621
 20
237.0057371762
  0
VERTEX
  8
0
 62
7
  6
CONTINUOUS
 10
126.1156756581
 20
236.9782651505
  0
VERTEX
  8
0
 62
7
  6
CONTINUOUS
 10
126.0982602196
 20
236.9504582663
  0
VERTEX
  8
0
 62
7
  6
CONTINUOUS
 10
126.0811641552
 20
236.9223129858
  0
VERTEX
  8
0
 62
7
  6
CONTINUOUS
 10
126.0643850573
 20
236.8938311706
  0
VERTEX
  8
0
 62
7
  6
CONTINUOUS
 10
126.0479142529
 20
236.8650001527
  0
VERTEX
  8
0
 62
7
  6
CONTINUOUS
 10
126.0317528236
 20
236.8358192808
  0
VERTEX
  8
0
 62
7
  6
CONTINUOUS
 10
126.0159003435
 20
236.8062853459
  0
VERTEX
  8
0
 62
7
  6
CONTINUOUS
 10
126.0003561923
 20
236.776387622
  0
VERTEX
  8
0
 62
7
  6
CONTINUOUS
 10
125.9851245883
 20
236.7461240986
  0
VERTEX
  8
0
 62
7
  6
CONTINUOUS
 10
125.9702036403
 20
236.7154743473
  0
VERTEX
  8
0
 62
7
  6
CONTINUOUS
 10
125.9556001087
 20
236.6844311739
  0
VERTEX
  8
0
 62
7
  6
CONTINUOUS
 10
125.941313348
 20
236.6529662889
  0
VERTEX
  8
0
 62
7
  6
CONTINUOUS
 10
125.9273520526
 20
236.621063167
  0
VERTEX
  8
0
 62
7
  6
CONTINUOUS
 10
125.9137179238
 20
236.5886826169
  0
VERTEX
  8
0
 62
7
  6
CONTINUOUS
 10
125.9004227435
 20
236.5557961835
  0
VERTEX
  8
0
 62
7
  6
CONTINUOUS
 10
125.8874719308
 20
236.5223480083
  0
VERTEX
  8
0
 62
7
  6
CONTINUOUS
 10
125.8748928443
 20
236.4883224292
  0
VERTEX
  8
0
 62
7
  6
CONTINUOUS
 10
125.8627196568
 20
236.4537073719
  0
VERTEX
  8
0
 62
7
  6
CONTINUOUS
 10
125.8509960316
 20
236.4185072351
  0
VERTEX
  8
0
 62
7
  6
CONTINUOUS
 10
125.8397667131
 20
236.382704802
  0
VERTEX
  8
0
 62
7
  6
CONTINUOUS
 10
125.8290787928
 20
236.3462683474
  0
VERTEX
  8
0
 62
7
  6
CONTINUOUS
 10
125.8189925306
 20
236.3091722358
  0
VERTEX
  8
0
 62
7
  6
CONTINUOUS
 10
125.8095805669
 20
236.271380536
  0
VERTEX
  8
0
 62
7
  6
CONTINUOUS
 10
125.8009533534
 20
236.2329601438
  0
VERTEX
  8
0
 62
7
  6
CONTINUOUS
 10
125.793242127
 20
236.1940381892
  0
VERTEX
  8
0
 62
7
  6
CONTINUOUS
 10
125.7865907316
 20
236.1547714349
  0
VERTEX
  8
0
 62
7
  6
CONTINUOUS
 10
125.7811571065
 20
236.1153914248
  0
VERTEX
  8
0
 62
7
  6
CONTINUOUS
 10
125.7771003294
 20
236.0761900052
  0
VERTEX
  8
0
 62
7
  6
CONTINUOUS
 10
125.7745716171
 20
236.0376355691
  0
VERTEX
  8
0
 62
7
  6
CONTINUOUS
 10
125.7736718756
 20
235.9987771776
  0
SEQEND
  0
POLYLINE
  8
0
 62
7
  6
CONTINUOUS
 66
1
 70
0
  0
VERTEX
  8
0
 62
7
  6
CONTINUOUS
 10
120.1663162514
 20
237.4314896651
  0
VERTEX
  8
0
 62
7
  6
CONTINUOUS
 10
120.115456931
 20
237.3863939544
  0
VERTEX
  8
0
 62
7
  6
CONTINUOUS
 10
120.0725446065
 20
237.3475755694
  0
SEQEND
  0
POLYLINE
  8
0
 62
7
  6
CONTINUOUS
 66
1
 70
0
  0
VERTEX
  8
0
 62
7
  6
CONTINUOUS
 10
126.5143827637
 20
237.4348650631
  0
VERTEX
  8
0
 62
7
  6
CONTINUOUS
 10
126.464885847
 20
237.3910629624
  0
VERTEX
  8
0
 62
7
  6
CONTINUOUS
 10
126.4226821174
 20
237.3529755585
  0
SEQEND
  0
LINE
  8
0
 62
7
  6
CONTINUOUS
 10
120.177671422
 20
237.4413535696
 11
120.1663162514
 21
237.4314896651
  0
LINE
  8
0
 62
7
  6
CONTINUOUS
 10
126.5560260803
 20
237.4709944112
 11
126.5143827637
 21
237.4348650631
  0
POLYLINE
  8
AXES
 62
7
  6
CONTINUOUS
 66
1
 70
0
  0
VERTEX
  8
AXES
 62
7
  6
CONTINUOUS
 10
119.4282546195
 20
228.2668802545
  0
VERTEX
  8
AXES
 62
7
  6
CONTINUOUS
 10
119.4248201357
 20
228.2606362273
  0
VERTEX
  8
AXES
 62
7
  6
CONTINUOUS
 10
119.423671422
 20
228.2544939158
  0
SEQEND
  0
POLYLINE
  8
0
 62
7
  6
CONTINUOUS
 66
1
 70
0
  0
VERTEX
  8
0
 62
7
  6
CONTINUOUS
 10
139.5187002853
 20
237.3529797962
  0
VERTEX
  8
0
 62
7
  6
CONTINUOUS
 10
139.4989326221
 20
237.3346156862
  0
VERTEX
  8
0
 62
7
  6
CONTINUOUS
 10
139.4727248842
 20
237.3091334131
  0
VERTEX
  8
0
 62
7
  6
CONTINUOUS
 10
139.4477850838
 20
237.2836688744
  0
VERTEX
  8
0
 62
7
  6
CONTINUOUS
 10
139.4239520182
 20
237.2582103742
  0
VERTEX
  8
0
 62
7
  6
CONTINUOUS
 10
139.4010852748
 20
237.2327310808
  0
VERTEX
  8
0
 62
7
  6
CONTINUOUS
 10
139.3790539311
 20
237.2071880119
  0
VERTEX
  8
0
 62
7
  6
CONTINUOUS
 10
139.3577242547
 20
237.1815088621
  0
VERTEX
  8
0
 62
7
  6
CONTINUOUS
 10
139.3369713965
 20
237.1556039837
  0
VERTEX
  8
0
 62
7
  6
CONTINUOUS
 10
139.3166943688
 20
237.1293929462
  0
VERTEX
  8
0
 62
7
  6
CONTINUOUS
 10
139.2968540492
 20
237.1028613409
  0
VERTEX
  8
0
 62
7
  6
CONTINUOUS
 10
139.2774300362
 20
237.0760100686
  0
VERTEX
  8
0
 62
7
  6
CONTINUOUS
 10
139.2584088466
 20
237.0488462304
  0
VERTEX
  8
0
 62
7
  6
CONTINUOUS
 10
139.239772409
 20
237.0213676559
  0
VERTEX
  8
0
 62
7
  6
CONTINUOUS
 10
139.2215038819
 20
236.9935665183
  0
VERTEX
  8
0
 62
7
  6
CONTINUOUS
 10
139.2035924647
 20
236.9654415293
  0
VERTEX
  8
0
 62
7
  6
CONTINUOUS
 10
139.1860211395
 20
236.936978188
  0
VERTEX
  8
0
 62
7
  6
CONTINUOUS
 10
139.1687777664
 20
236.908162173
  0
VERTEX
  8
0
 62
7
  6
CONTINUOUS
 10
139.1518526455
 20
236.8789816051
  0
VERTEX
  8
0
 62
7
  6
CONTINUOUS
 10
139.1352341232
 20
236.8494148203
  0
VERTEX
  8
0
 62
7
  6
CONTINUOUS
 10
139.1189269491
 20
236.8194644141
  0
VERTEX
  8
0
 62
7
  6
CONTINUOUS
 10
139.102931199
 20
236.7891241114
  0
VERTEX
  8
0
 62
7
  6
CONTINUOUS
 10
139.087250161
 20
236.7583859129
  0
VERTEX
  8
0
 62
7
  6
CONTINUOUS
 10
139.0718888741
 20
236.7272455003
  0
VERTEX
  8
0
 62
7
  6
CONTINUOUS
 10
139.056848701
 20
236.695682385
  0
VERTEX
  8
0
 62
7
  6
CONTINUOUS
 10
139.0421382123
 20
236.6636884628
  0
VERTEX
  8
0
 62
7
  6
CONTINUOUS
 10
139.0277596003
 20
236.6312324275
  0
VERTEX
  8
0
 62
7
  6
CONTINUOUS
 10
139.0137242297
 20
236.598297164
  0
VERTEX
  8
0
 62
7
  6
CONTINUOUS
 10
139.0000370073
 20
236.5648376734
  0
VERTEX
  8
0
 62
7
  6
CONTINUOUS
 10
138.9867127681
 20
236.5308227197
  0
VERTEX
  8
0
 62
7
  6
CONTINUOUS
 10
138.9737673256
 20
236.4962035491
  0
VERTEX
  8
0
 62
7
  6
CONTINUOUS
 10
138.9612397643
 20
236.4609832408
  0
VERTEX
  8
0
 62
7
  6
CONTINUOUS
 10
138.9491728306
 20
236.4251534081
  0
VERTEX
  8
0
 62
7
  6
CONTINUOUS
 10
138.9376096752
 20
236.3886927539
  0
VERTEX
  8
0
 62
7
  6
CONTINUOUS
 10
138.9266051025
 20
236.3515862274
  0
VERTEX
  8
0
 62
7
  6
CONTINUOUS
 10
138.9162166882
 20
236.3137857644
  0
VERTEX
  8
0
 62
7
  6
CONTINUOUS
 10
138.9065154335
 20
236.2752405325
  0
VERTEX
  8
0
 62
7
  6
CONTINUOUS
 10
138.897618018
 20
236.2360195213
  0
VERTEX
  8
0
 62
7
  6
CONTINUOUS
 10
138.8896645915
 20
236.1962472909
  0
VERTEX
  8
0
 62
7
  6
CONTINUOUS
 10
138.8828079264
 20
236.156081162
  0
VERTEX
  8
0
 62
7
  6
CONTINUOUS
 10
138.8772171933
 20
236.1157605869
  0
VERTEX
  8
0
 62
7
  6
CONTINUOUS
 10
138.8730662726
 20
236.0756166037
  0
VERTEX
  8
0
 62
7
  6
CONTINUOUS
 10
138.870519297
 20
236.0361483585
  0
VERTEX
  8
0
 62
7
  6
CONTINUOUS
 10
138.8696857881
 20
235.9987771776
  0
SEQEND
  0
POLYLINE
  8
0
 62
7
  6
CONTINUOUS
 66
1
 70
0
  0
VERTEX
  8
0
 62
7
  6
CONTINUOUS
 10
153.2727002853
 20
237.3529797962
  0
VERTEX
  8
0
 62
7
  6
CONTINUOUS
 10
153.2529326221
 20
237.3346156862
  0
VERTEX
  8
0
 62
7
  6
CONTINUOUS
 10
153.2267248842
 20
237.3091334131
  0
VERTEX
  8
0
 62
7
  6
CONTINUOUS
 10
153.2017850838
 20
237.2836688744
  0
VERTEX
  8
0
 62
7
  6
CONTINUOUS
 10
153.1779520182
 20
237.2582103742
  0
VERTEX
  8
0
 62
7
  6
CONTINUOUS
 10
153.1550852748
 20
237.2327310808
  0
VERTEX
  8
0
 62
7
  6
CONTINUOUS
 10
153.1330539311
 20
237.2071880119
  0
VERTEX
  8
0
 62
7
  6
CONTINUOUS
 10
153.1117242547
 20
237.1815088621
  0
VERTEX
  8
0
 62
7
  6
CONTINUOUS
 10
153.0909713965
 20
237.1556039837
  0
VERTEX
  8
0
 62
7
  6
CONTINUOUS
 10
153.0706943688
 20
237.1293929462
  0
VERTEX
  8
0
 62
7
  6
CONTINUOUS
 10
153.0508540492
 20
237.1028613409
  0
VERTEX
  8
0
 62
7
  6
CONTINUOUS
 10
153.0314300362
 20
237.0760100686
  0
VERTEX
  8
0
 62
7
  6
CONTINUOUS
 10
153.0124088466
 20
237.0488462304
  0
VERTEX
  8
0
 62
7
  6
CONTINUOUS
 10
152.993772409
 20
237.0213676559
  0
VERTEX
  8
0
 62
7
  6
CONTINUOUS
 10
152.9755038819
 20
236.9935665183
  0
VERTEX
  8
0
 62
7
  6
CONTINUOUS
 10
152.9575924647
 20
236.9654415293
  0
VERTEX
  8
0
 62
7
  6
CONTINUOUS
 10
152.9400211395
 20
236.936978188
  0
VERTEX
  8
0
 62
7
  6
CONTINUOUS
 10
152.9227777664
 20
236.908162173
  0
VERTEX
  8
0
 62
7
  6
CONTINUOUS
 10
152.9058526455
 20
236.8789816051
  0
VERTEX
  8
0
 62
7
  6
CONTINUOUS
 10
152.8892341232
 20
236.8494148203
  0
VERTEX
  8
0
 62
7
  6
CONTINUOUS
 10
152.8729269491
 20
236.8194644141
  0
VERTEX
  8
0
 62
7
  6
CONTINUOUS
 10
152.856931199
 20
236.7891241114
  0
VERTEX
  8
0
 62
7
  6
CONTINUOUS
 10
152.841250161
 20
236.7583859129
  0
VERTEX
  8
0
 62
7
  6
CONTINUOUS
 10
152.8258888741
 20
236.7272455003
  0
VERTEX
  8
0
 62
7
  6
CONTINUOUS
 10
152.810848701
 20
236.695682385
  0
VERTEX
  8
0
 62
7
  6
CONTINUOUS
 10
152.7961382123
 20
236.6636884628
  0
VERTEX
  8
0
 62
7
  6
CONTINUOUS
 10
152.7817596003
 20
236.6312324275
  0
VERTEX
  8
0
 62
7
  6
CONTINUOUS
 10
152.7677242297
 20
236.598297164
  0
VERTEX
  8
0
 62
7
  6
CONTINUOUS
 10
152.7540370073
 20
236.5648376734
  0
VERTEX
  8
0
 62
7
  6
CONTINUOUS
 10
152.7407127681
 20
236.5308227197
  0
VERTEX
  8
0
 62
7
  6
CONTINUOUS
 10
152.7277673256
 20
236.4962035491
  0
VERTEX
  8
0
 62
7
  6
CONTINUOUS
 10
152.7152397643
 20
236.4609832408
  0
VERTEX
  8
0
 62
7
  6
CONTINUOUS
 10
152.7031728306
 20
236.4251534081
  0
VERTEX
  8
0
 62
7
  6
CONTINUOUS
 10
152.6916096752
 20
236.3886927539
  0
VERTEX
  8
0
 62
7
  6
CONTINUOUS
 10
152.6806051025
 20
236.3515862274
  0
VERTEX
  8
0
 62
7
  6
CONTINUOUS
 10
152.6702166882
 20
236.3137857644
  0
VERTEX
  8
0
 62
7
  6
CONTINUOUS
 10
152.6605154335
 20
236.2752405325
  0
VERTEX
  8
0
 62
7
  6
CONTINUOUS
 10
152.651618018
 20
236.2360195213
  0
VERTEX
  8
0
 62
7
  6
CONTINUOUS
 10
152.6436645915
 20
236.1962472909
  0
VERTEX
  8
0
 62
7
  6
CONTINUOUS
 10
152.6368079264
 20
236.156081162
  0
VERTEX
  8
0
 62
7
  6
CONTINUOUS
 10
152.6312171933
 20
236.1157605869
  0
VERTEX
  8
0
 62
7
  6
CONTINUOUS
 10
152.6270662726
 20
236.0756166037
  0
VERTEX
  8
0
 62
7
  6
CONTINUOUS
 10
152.624519297
 20
236.0361483585
  0
VERTEX
  8
0
 62
7
  6
CONTINUOUS
 10
152.6236857881
 20
235.9987771776
  0
SEQEND
  0
POLYLINE
  8
0
 62
7
  6
CONTINUOUS
 66
1
 70
0
  0
VERTEX
  8
0
 62
7
  6
CONTINUOUS
 10
139.6097333828
 20
237.4342838655
  0
VERTEX
  8
0
 62
7
  6
CONTINUOUS
 10
139.5602423948
 20
237.3904745373
  0
VERTEX
  8
0
 62
7
  6
CONTINUOUS
 10
139.518696482
 20
237.3529755629
  0
SEQEND
  0
POLYLINE
  8
0
 62
7
  6
CONTINUOUS
 66
1
 70
0
  0
VERTEX
  8
0
 62
7
  6
CONTINUOUS
 10
153.3637333828
 20
237.4342838655
  0
VERTEX
  8
0
 62
7
  6
CONTINUOUS
 10
153.3142423948
 20
237.3904745373
  0
VERTEX
  8
0
 62
7
  6
CONTINUOUS
 10
153.272696482
 20
237.3529755629
  0
SEQEND
  0
LINE
  8
0
 62
7
  6
CONTINUOUS
 10
139.6520257156
 20
237.4709817502
 11
139.6097333828
 21
237.4342838655
  0
LINE
  8
0
 62
7
  6
CONTINUOUS
 10
153.4060257156
 20
237.4709817502
 11
153.3637333828
 21
237.4342838655
  0
POLYLINE
  8
0
 62
7
  6
CONTINUOUS
 66
1
 70
0
  0
VERTEX
  8
0
 62
7
  6
CONTINUOUS
 10
131.0824570191
 20
237.3910629436
  0
VERTEX
  8
0
 62
7
  6
CONTINUOUS
 10
131.0329601016
 20
237.4348650447
  0
VERTEX
  8
0
 62
7
  6
CONTINUOUS
 10
130.9913167637
 20
237.4709944111
  0
SEQEND
  0
POLYLINE
  8
0
 62
7
  6
CONTINUOUS
 66
1
 70
0
  0
VERTEX
  8
0
 62
7
  6
CONTINUOUS
 10
144.1784475544
 20
237.3910585624
  0
VERTEX
  8
0
 62
7
  6
CONTINUOUS
 10
144.1289555478
 20
237.4348564565
  0
VERTEX
  8
0
 62
7
  6
CONTINUOUS
 10
144.0873171295
 20
237.470981749
  0
SEQEND
  0
LINE
  8
0
 62
7
  6
CONTINUOUS
 10
131.1246607287
 20
237.3529755578
 11
131.0824570191
 21
237.3910629436
  0
LINE
  8
0
 62
7
  6
CONTINUOUS
 10
144.2206463656
 20
237.3529755578
 11
144.1784475544
 21
237.3910585624
  0
POLYLINE
  8
AXES
 62
7
  6
CONTINUOUS
 66
1
 70
0
  0
VERTEX
  8
AXES
 62
7
  6
CONTINUOUS
 10
119.4282546195
 20
232.2348504205
  0
VERTEX
  8
AXES
 62
7
  6
CONTINUOUS
 10
119.4760274629
 20
232.1589122019
  0
VERTEX
  8
AXES
 62
7
  6
CONTINUOUS
 10
119.5215932146
 20
232.0653402875
  0
VERTEX
  8
AXES
 62
7
  6
CONTINUOUS
 10
119.5645286244
 20
231.9552002443
  0
VERTEX
  8
AXES
 62
7
  6
CONTINUOUS
 10
119.6044498869
 20
231.8297075888
  0
VERTEX
  8
AXES
 62
7
  6
CONTINUOUS
 10
119.6410154992
 20
231.6901987154
  0
VERTEX
  8
AXES
 62
7
  6
CONTINUOUS
 10
119.6739271683
 20
231.5381034845
  0
VERTEX
  8
AXES
 62
7
  6
CONTINUOUS
 10
119.7029293504
 20
231.3749205706
  0
VERTEX
  8
AXES
 62
7
  6
CONTINUOUS
 10
119.7278080471
 20
231.2021945245
  0
VERTEX
  8
AXES
 62
7
  6
CONTINUOUS
 10
119.7483884443
 20
231.0214988926
  0
VERTEX
  8
AXES
 62
7
  6
CONTINUOUS
 10
119.7645323879
 20
230.8344227926
  0
VERTEX
  8
AXES
 62
7
  6
CONTINUOUS
 10
119.7761358147
 20
230.6425610983
  0
VERTEX
  8
AXES
 62
7
  6
CONTINUOUS
 10
119.7831262736
 20
230.447510416
  0
VERTEX
  8
AXES
 62
7
  6
CONTINUOUS
 10
119.7854611255
 20
230.2508653375
  0
SEQEND
  0
LINE
  8
AXES
 62
7
  6
CONTINUOUS
 10
119.423671422
 20
225.0008510705
 11
119.423671422
 21
228.2544939158
  0
LINE
  8
AXES
 62
7
  6
CONTINUOUS
 10
119.423671422
 20
228.2668802545
 11
119.423671422
 21
232.2348504205
  0
LINE
  8
AXES
 62
7
  6
CONTINUOUS
 10
119.423671422
 20
232.2472367591
 11
119.423671422
 21
235.9920075535
  0
LINE
  8
0
 62
7
  6
CONTINUOUS
 10
120.177671422
 20
224.4008653375
 11
120.177671422
 21
238.3393485208
  0
LINE
  8
0
 62
7
  6
CONTINUOUS
 10
125.773671422
 20
225.0008653375
 11
125.773671422
 21
235.998777165
  0
LINE
  8
0
 62
7
  6
CONTINUOUS
 10
126.523671422
 20
238.2496713619
 11
126.523671422
 21
237.4429238153
  0
POLYLINE
  8
AXES
 62
7
  6
CONTINUOUS
 66
1
 70
0
  0
VERTEX
  8
AXES
 62
7
  6
CONTINUOUS
 10
119.7854611255
 20
230.2508653375
  0
VERTEX
  8
AXES
 62
7
  6
CONTINUOUS
 10
119.7831262553
 20
230.0542194903
  0
VERTEX
  8
AXES
 62
7
  6
CONTINUOUS
 10
119.7761357535
 20
229.8591683023
  0
VERTEX
  8
AXES
 62
7
  6
CONTINUOUS
 10
119.7645322758
 20
229.6673063507
  0
VERTEX
  8
AXES
 62
7
  6
CONTINUOUS
 10
119.7483882877
 20
229.4802302133
  0
VERTEX
  8
AXES
 62
7
  6
CONTINUOUS
 10
119.7278078625
 20
229.2995347149
  0
VERTEX
  8
AXES
 62
7
  6
CONTINUOUS
 10
119.7029291589
 20
229.1268089098
  0
VERTEX
  8
AXES
 62
7
  6
CONTINUOUS
 10
119.6739269924
 20
228.9636262944
  0
VERTEX
  8
AXES
 62
7
  6
CONTINUOUS
 10
119.6410153577
 20
228.8115313654
  0
VERTEX
  8
AXES
 62
7
  6
CONTINUOUS
 10
119.6044497908
 20
228.672022753
  0
VERTEX
  8
AXES
 62
7
  6
CONTINUOUS
 10
119.5645285747
 20
228.5465302894
  0
VERTEX
  8
AXES
 62
7
  6
CONTINUOUS
 10
119.5215932047
 20
228.4363903646
  0
VERTEX
  8
AXES
 62
7
  6
CONTINUOUS
 10
119.4760274779
 20
228.3428185003
  0
VERTEX
  8
AXES
 62
7
  6
CONTINUOUS
 10
119.4282546195
 20
228.2668802545
  0
SEQEND
  0
LINE
  8
0
 62
7
  6
CONTINUOUS
 10
119.4244409095
 20
236.0278813259
 11
119.4236718771
 21
235.9920075652
  0
POLYLINE
  8
0
 62
7
  6
CONTINUOUS
 66
1
 70
0
  0
VERTEX
  8
0
 62
7
  6
CONTINUOUS
 10
167.7726998773
 20
237.3529794985
  0
VERTEX
  8
0
 62
7
  6
CONTINUOUS
 10
167.7545807614
 20
237.3361747455
  0
VERTEX
  8
0
 62
7
  6
CONTINUOUS
 10
167.7292224849
 20
237.3116178358
  0
VERTEX
  8
0
 62
7
  6
CONTINUOUS
 10
167.7050518916
 20
237.2870724873
  0
VERTEX
  8
0
 62
7
  6
CONTINUOUS
 10
167.6819158869
 20
237.2625216951
  0
VERTEX
  8
0
 62
7
  6
CONTINUOUS
 10
167.6596813988
 20
237.2379359396
  0
VERTEX
  8
0
 62
7
  6
CONTINUOUS
 10
167.6382233662
 20
237.2132700737
  0
VERTEX
  8
0
 62
7
  6
CONTINUOUS
 10
167.6174139519
 20
237.1884516019
  0
VERTEX
  8
0
 62
7
  6
CONTINUOUS
 10
167.5971338811
 20
237.1633923954
  0
VERTEX
  8
0
 62
7
  6
CONTINUOUS
 10
167.5772777547
 20
237.138001822
  0
VERTEX
  8
0
 62
7
  6
CONTINUOUS
 10
167.5577972191
 20
237.1122476099
  0
VERTEX
  8
0
 62
7
  6
CONTINUOUS
 10
167.5386795025
 20
237.0861347611
  0
VERTEX
  8
0
 62
7
  6
CONTINUOUS
 10
167.5199189479
 20
237.0596758169
  0
VERTEX
  8
0
 62
7
  6
CONTINUOUS
 10
167.5015059762
 20
237.0328766392
  0
VERTEX
  8
0
 62
7
  6
CONTINUOUS
 10
167.4834308253
 20
237.0057371762
  0
VERTEX
  8
0
 62
7
  6
CONTINUOUS
 10
167.4656900212
 20
236.9782651505
  0
VERTEX
  8
0
 62
7
  6
CONTINUOUS
 10
167.4482745828
 20
236.9504582663
  0
VERTEX
  8
0
 62
7
  6
CONTINUOUS
 10
167.4311785184
 20
236.9223129859
  0
VERTEX
  8
0
 62
7
  6
CONTINUOUS
 10
167.4143994204
 20
236.8938311706
  0
VERTEX
  8
0
 62
7
  6
CONTINUOUS
 10
167.3979286161
 20
236.8650001527
  0
VERTEX
  8
0
 62
7
  6
CONTINUOUS
 10
167.3817671867
 20
236.8358192808
  0
VERTEX
  8
0
 62
7
  6
CONTINUOUS
 10
167.3659147067
 20
236.8062853459
  0
VERTEX
  8
0
 62
7
  6
CONTINUOUS
 10
167.3503705555
 20
236.776387622
  0
VERTEX
  8
0
 62
7
  6
CONTINUOUS
 10
167.3351389514
 20
236.7461240986
  0
VERTEX
  8
0
 62
7
  6
CONTINUOUS
 10
167.3202180035
 20
236.7154743473
  0
VERTEX
  8
0
 62
7
  6
CONTINUOUS
 10
167.3056144719
 20
236.684431174
  0
VERTEX
  8
0
 62
7
  6
CONTINUOUS
 10
167.2913277111
 20
236.6529662889
  0
VERTEX
  8
0
 62
7
  6
CONTINUOUS
 10
167.2773664158
 20
236.621063167
  0
VERTEX
  8
0
 62
7
  6
CONTINUOUS
 10
167.263732287
 20
236.5886826169
  0
VERTEX
  8
0
 62
7
  6
CONTINUOUS
 10
167.2504371066
 20
236.5557961835
  0
VERTEX
  8
0
 62
7
  6
CONTINUOUS
 10
167.237486294
 20
236.5223480083
  0
VERTEX
  8
0
 62
7
  6
CONTINUOUS
 10
167.2249072075
 20
236.4883224293
  0
VERTEX
  8
0
 62
7
  6
CONTINUOUS
 10
167.21273402
 20
236.453707372
  0
VERTEX
  8
0
 62
7
  6
CONTINUOUS
 10
167.2010103947
 20
236.4185072352
  0
VERTEX
  8
0
 62
7
  6
CONTINUOUS
 10
167.1897810762
 20
236.382704802
  0
VERTEX
  8
0
 62
7
  6
CONTINUOUS
 10
167.179093156
 20
236.3462683474
  0
VERTEX
  8
0
 62
7
  6
CONTINUOUS
 10
167.1690068937
 20
236.3091722359
  0
VERTEX
  8
0
 62
7
  6
CONTINUOUS
 10
167.15959493
 20
236.271380536
  0
VERTEX
  8
0
 62
7
  6
CONTINUOUS
 10
167.1509677165
 20
236.2329601438
  0
VERTEX
  8
0
 62
7
  6
CONTINUOUS
 10
167.1432564901
 20
236.1940381893
  0
VERTEX
  8
0
 62
7
  6
CONTINUOUS
 10
167.1366050948
 20
236.1547714349
  0
VERTEX
  8
0
 62
7
  6
CONTINUOUS
 10
167.1311714696
 20
236.1153914249
  0
VERTEX
  8
0
 62
7
  6
CONTINUOUS
 10
167.1271146925
 20
236.0761900052
  0
VERTEX
  8
0
 62
7
  6
CONTINUOUS
 10
167.1245859803
 20
236.0376355691
  0
VERTEX
  8
0
 62
7
  6
CONTINUOUS
 10
167.1236862387
 20
235.9987771776
  0
SEQEND
  0
POLYLINE
  8
0
 62
7
  6
CONTINUOUS
 66
1
 70
0
  0
VERTEX
  8
0
 62
7
  6
CONTINUOUS
 10
167.8643872484
 20
237.4348564127
  0
VERTEX
  8
0
 62
7
  6
CONTINUOUS
 10
167.814895244
 20
237.3910585204
  0
VERTEX
  8
0
 62
7
  6
CONTINUOUS
 10
167.7726964824
 20
237.3529755615
  0
SEQEND
  0
LINE
  8
0
 62
7
  6
CONTINUOUS
 10
167.9060257122
 20
237.4709817459
 11
167.8643872484
 21
237.4348564127
  0
POLYLINE
  8
0
 62
7
  6
CONTINUOUS
 66
1
 70
0
  0
VERTEX
  8
0
 62
7
  6
CONTINUOUS
 10
157.9331004423
 20
237.3904745426
  0
VERTEX
  8
0
 62
7
  6
CONTINUOUS
 10
157.8836094545
 20
237.4342838709
  0
VERTEX
  8
0
 62
7
  6
CONTINUOUS
 10
157.841317129
 20
237.4709817497
  0
SEQEND
  0
LINE
  8
0
 62
7
  6
CONTINUOUS
 10
157.974646362
 20
237.352975562
 11
157.9331004423
 21
237.3904745426
  0
POLYLINE
  8
AXES
 62
7
  6
CONTINUOUS
 66
1
 70
0
  0
VERTEX
  8
AXES
 62
7
  6
CONTINUOUS
 10
119.423671422
 20
232.2472367591
  0
VERTEX
  8
AXES
 62
7
  6
CONTINUOUS
 10
119.4248201357
 20
232.2410944476
  0
VERTEX
  8
AXES
 62
7
  6
CONTINUOUS
 10
119.4282546195
 20
232.2348504205
  0
SEQEND
  0
POLYLINE
  8
0
 62
7
  6
CONTINUOUS
 66
1
 70
0
  0
VERTEX
  8
0
 62
7
  6
CONTINUOUS
 10
131.7736705608
 20
235.9987771751
  0
VERTEX
  8
0
 62
7
  6
CONTINUOUS
 10
131.772776804
 20
236.0375156894
  0
VERTEX
  8
0
 62
7
  6
CONTINUOUS
 10
131.7702287767
 20
236.076354472
  0
VERTEX
  8
0
 62
7
  6
CONTINUOUS
 10
131.766145597
 20
236.1157221763
  0
VERTEX
  8
0
 62
7
  6
CONTINUOUS
 10
131.7607250873
 20
236.1549447157
  0
VERTEX
  8
0
 62
7
  6
CONTINUOUS
 10
131.7541796358
 20
236.1936078925
  0
VERTEX
  8
0
 62
7
  6
CONTINUOUS
 10
131.746678426
 20
236.2315938057
  0
VERTEX
  8
0
 62
7
  6
CONTINUOUS
 10
131.7383447519
 20
236.2689169555
  0
VERTEX
  8
0
 62
7
  6
CONTINUOUS
 10
131.7292754183
 20
236.3056085574
  0
VERTEX
  8
0
 62
7
  6
CONTINUOUS
 10
131.7195509571
 20
236.3416968395
  0
VERTEX
  8
0
 62
7
  6
CONTINUOUS
 10
131.7092456652
 20
236.3771799372
  0
VERTEX
  8
0
 62
7
  6
CONTINUOUS
 10
131.6984039003
 20
236.4121133769
  0
VERTEX
  8
0
 62
7
  6
CONTINUOUS
 10
131.6870403095
 20
236.4466112825
  0
VERTEX
  8
0
 62
7
  6
CONTINUOUS
 10
131.675168064
 20
236.4807474848
  0
VERTEX
  8
0
 62
7
  6
CONTINUOUS
 10
131.6627880387
 20
236.5146001841
  0
VERTEX
  8
0
 62
7
  6
CONTINUOUS
 10
131.6499037641
 20
236.5482213662
  0
VERTEX
  8
0
 62
7
  6
CONTINUOUS
 10
131.6365106267
 20
236.5816596289
  0
VERTEX
  8
0
 62
7
  6
CONTINUOUS
 10
131.6225994583
 20
236.6149660011
  0
VERTEX
  8
0
 62
7
  6
CONTINUOUS
 10
131.6081610406
 20
236.6481718518
  0
VERTEX
  8
0
 62
7
  6
CONTINUOUS
 10
131.5931811721
 20
236.6813142692
  0
VERTEX
  8
0
 62
7
  6
CONTINUOUS
 10
131.5776487048
 20
236.7144089361
  0
VERTEX
  8
0
 62
7
  6
CONTINUOUS
 10
131.5615476737
 20
236.7474778304
  0
VERTEX
  8
0
 62
7
  6
CONTINUOUS
 10
131.5448809909
 20
236.780494262
  0
VERTEX
  8
0
 62
7
  6
CONTINUOUS
 10
131.5276585817
 20
236.8134203686
  0
VERTEX
  8
0
 62
7
  6
CONTINUOUS
 10
131.5098941395
 20
236.8462075744
  0
VERTEX
  8
0
 62
7
  6
CONTINUOUS
 10
131.4915989857
 20
236.8788164713
  0
VERTEX
  8
0
 62
7
  6
CONTINUOUS
 10
131.4727837585
 20
236.9112050022
  0
VERTEX
  8
0
 62
7
  6
CONTINUOUS
 10
131.4534552528
 20
236.9433411629
  0
VERTEX
  8
0
 62
7
  6
CONTINUOUS
 10
131.4336099707
 20
236.9752052591
  0
VERTEX
  8
0
 62
7
  6
CONTINUOUS
 10
131.4132515291
 20
237.0067654431
  0
VERTEX
  8
0
 62
7
  6
CONTINUOUS
 10
131.3923739663
 20
237.038002276
  0
VERTEX
  8
0
 62
7
  6
CONTINUOUS
 10
131.3709781161
 20
237.0688816879
  0
VERTEX
  8
0
 62
7
  6
CONTINUOUS
 10
131.3490601753
 20
237.099376768
  0
VERTEX
  8
0
 62
7
  6
CONTINUOUS
 10
131.3266134013
 20
237.1294582419
  0
VERTEX
  8
0
 62
7
  6
CONTINUOUS
 10
131.3036368868
 20
237.1590879446
  0
VERTEX
  8
0
 62
7
  6
CONTINUOUS
 10
131.28007905
 20
237.1882868038
  0
VERTEX
  8
0
 62
7
  6
CONTINUOUS
 10
131.2557782205
 20
237.217188982
  0
VERTEX
  8
0
 62
7
  6
CONTINUOUS
 10
131.2305470115
 20
237.2459252687
  0
VERTEX
  8
0
 62
7
  6
CONTINUOUS
 10
131.2041778736
 20
237.2746044292
  0
VERTEX
  8
0
 62
7
  6
CONTINUOUS
 10
131.1764645279
 20
237.3032849634
  0
VERTEX
  8
0
 62
7
  6
CONTINUOUS
 10
131.1471835651
 20
237.3319938328
  0
VERTEX
  8
0
 62
7
  6
CONTINUOUS
 10
131.1246580967
 20
237.3529791926
  0
SEQEND
  0
LINE
  8
0
 62
7
  6
CONTINUOUS
 10
131.023671422
 20
238.2496713676
 11
131.023671422
 21
237.4429238153
  0
LINE
  8
0
 62
7
  6
CONTINUOUS
 10
131.773671422
 20
235.9987771561
 11
131.773671422
 21
225.0008653375
  0
LINE
  8
0
 62
7
  6
CONTINUOUS
 10
138.8696857852
 20
225.0008653375
 11
138.8696857852
 21
235.9987628671
  0
LINE
  8
0
 62
7
  6
CONTINUOUS
 10
139.619671422
 20
237.4429072966
 11
139.619671422
 21
238.2496713883
  0
POLYLINE
  8
0
 62
7
  6
CONTINUOUS
 66
1
 70
0
  0
VERTEX
  8
0
 62
7
  6
CONTINUOUS
 10
183.3977002853
 20
237.3529797962
  0
VERTEX
  8
0
 62
7
  6
CONTINUOUS
 10
183.3779326221
 20
237.3346156862
  0
VERTEX
  8
0
 62
7
  6
CONTINUOUS
 10
183.3517248842
 20
237.3091334131
  0
VERTEX
  8
0
 62
7
  6
CONTINUOUS
 10
183.3267850838
 20
237.2836688744
  0
VERTEX
  8
0
 62
7
  6
CONTINUOUS
 10
183.3029520182
 20
237.2582103742
  0
VERTEX
  8
0
 62
7
  6
CONTINUOUS
 10
183.2800852748
 20
237.2327310808
  0
VERTEX
  8
0
 62
7
  6
CONTINUOUS
 10
183.2580539311
 20
237.2071880119
  0
VERTEX
  8
0
 62
7
  6
CONTINUOUS
 10
183.2367242547
 20
237.1815088621
  0
VERTEX
  8
0
 62
7
  6
CONTINUOUS
 10
183.2159713965
 20
237.1556039837
  0
VERTEX
  8
0
 62
7
  6
CONTINUOUS
 10
183.1956943688
 20
237.1293929462
  0
VERTEX
  8
0
 62
7
  6
CONTINUOUS
 10
183.1758540492
 20
237.1028613409
  0
VERTEX
  8
0
 62
7
  6
CONTINUOUS
 10
183.1564300362
 20
237.0760100686
  0
VERTEX
  8
0
 62
7
  6
CONTINUOUS
 10
183.1374088466
 20
237.0488462304
  0
VERTEX
  8
0
 62
7
  6
CONTINUOUS
 10
183.118772409
 20
237.0213676559
  0
VERTEX
  8
0
 62
7
  6
CONTINUOUS
 10
183.1005038819
 20
236.9935665183
  0
VERTEX
  8
0
 62
7
  6
CONTINUOUS
 10
183.0825924647
 20
236.9654415293
  0
VERTEX
  8
0
 62
7
  6
CONTINUOUS
 10
183.0650211395
 20
236.936978188
  0
VERTEX
  8
0
 62
7
  6
CONTINUOUS
 10
183.0477777664
 20
236.908162173
  0
VERTEX
  8
0
 62
7
  6
CONTINUOUS
 10
183.0308526455
 20
236.8789816051
  0
VERTEX
  8
0
 62
7
  6
CONTINUOUS
 10
183.0142341232
 20
236.8494148203
  0
VERTEX
  8
0
 62
7
  6
CONTINUOUS
 10
182.9979269491
 20
236.8194644141
  0
VERTEX
  8
0
 62
7
  6
CONTINUOUS
 10
182.981931199
 20
236.7891241114
  0
VERTEX
  8
0
 62
7
  6
CONTINUOUS
 10
182.966250161
 20
236.7583859129
  0
VERTEX
  8
0
 62
7
  6
CONTINUOUS
 10
182.9508888741
 20
236.7272455003
  0
VERTEX
  8
0
 62
7
  6
CONTINUOUS
 10
182.935848701
 20
236.695682385
  0
VERTEX
  8
0
 62
7
  6
CONTINUOUS
 10
182.9211382123
 20
236.6636884628
  0
VERTEX
  8
0
 62
7
  6
CONTINUOUS
 10
182.9067596003
 20
236.6312324275
  0
VERTEX
  8
0
 62
7
  6
CONTINUOUS
 10
182.8927242297
 20
236.598297164
  0
VERTEX
  8
0
 62
7
  6
CONTINUOUS
 10
182.8790370073
 20
236.5648376734
  0
VERTEX
  8
0
 62
7
  6
CONTINUOUS
 10
182.8657127681
 20
236.5308227197
  0
VERTEX
  8
0
 62
7
  6
CONTINUOUS
 10
182.8527673256
 20
236.4962035491
  0
VERTEX
  8
0
 62
7
  6
CONTINUOUS
 10
182.8402397643
 20
236.4609832408
  0
VERTEX
  8
0
 62
7
  6
CONTINUOUS
 10
182.8281728306
 20
236.4251534081
  0
VERTEX
  8
0
 62
7
  6
CONTINUOUS
 10
182.8166096752
 20
236.3886927539
  0
VERTEX
  8
0
 62
7
  6
CONTINUOUS
 10
182.8056051025
 20
236.3515862274
  0
VERTEX
  8
0
 62
7
  6
CONTINUOUS
 10
182.7952166882
 20
236.3137857644
  0
VERTEX
  8
0
 62
7
  6
CONTINUOUS
 10
182.7855154335
 20
236.2752405325
  0
VERTEX
  8
0
 62
7
  6
CONTINUOUS
 10
182.776618018
 20
236.2360195213
  0
VERTEX
  8
0
 62
7
  6
CONTINUOUS
 10
182.7686645915
 20
236.1962472909
  0
VERTEX
  8
0
 62
7
  6
CONTINUOUS
 10
182.7618079264
 20
236.156081162
  0
VERTEX
  8
0
 62
7
  6
CONTINUOUS
 10
182.7562171933
 20
236.1157605869
  0
VERTEX
  8
0
 62
7
  6
CONTINUOUS
 10
182.7520662726
 20
236.0756166037
  0
VERTEX
  8
0
 62
7
  6
CONTINUOUS
 10
182.749519297
 20
236.0361483585
  0
VERTEX
  8
0
 62
7
  6
CONTINUOUS
 10
182.7486857881
 20
235.9987771776
  0
SEQEND
  0
POLYLINE
  8
0
 62
7
  6
CONTINUOUS
 66
1
 70
0
  0
VERTEX
  8
0
 62
7
  6
CONTINUOUS
 10
183.4887333828
 20
237.4342838655
  0
VERTEX
  8
0
 62
7
  6
CONTINUOUS
 10
183.4392423948
 20
237.3904745373
  0
VERTEX
  8
0
 62
7
  6
CONTINUOUS
 10
183.397696482
 20
237.3529755629
  0
SEQEND
  0
LINE
  8
0
 62
7
  6
CONTINUOUS
 10
183.5310257156
 20
237.4709817502
 11
183.4887333828
 21
237.4342838655
  0
POLYLINE
  8
0
 62
7
  6
CONTINUOUS
 66
1
 70
0
  0
VERTEX
  8
0
 62
7
  6
CONTINUOUS
 10
172.4324475544
 20
237.3910585624
  0
VERTEX
  8
0
 62
7
  6
CONTINUOUS
 10
172.3829555478
 20
237.4348564565
  0
VERTEX
  8
0
 62
7
  6
CONTINUOUS
 10
172.3413171295
 20
237.470981749
  0
SEQEND
  0
LINE
  8
0
 62
7
  6
CONTINUOUS
 10
172.4746463656
 20
237.3529755578
 11
172.4324475544
 21
237.3910585624
  0
POLYLINE
  8
AXES
 62
7
  6
CONTINUOUS
 66
1
 70
0
  0
VERTEX
  8
AXES
 62
7
  6
CONTINUOUS
 10
174.4236714203
 20
228.1509556073
  0
VERTEX
  8
AXES
 62
7
  6
CONTINUOUS
 10
174.4191134763
 20
228.1553288704
  0
VERTEX
  8
AXES
 62
7
  6
CONTINUOUS
 10
174.4020346116
 20
228.1687982092
  0
VERTEX
  8
AXES
 62
7
  6
CONTINUOUS
 10
174.3720945506
 20
228.1912704561
  0
VERTEX
  8
AXES
 62
7
  6
CONTINUOUS
 10
174.3287028221
 20
228.2228852425
  0
VERTEX
  8
AXES
 62
7
  6
CONTINUOUS
 10
174.2708244673
 20
228.2638992839
  0
VERTEX
  8
AXES
 62
7
  6
CONTINUOUS
 10
174.1977337958
 20
228.3140722318
  0
VERTEX
  8
AXES
 62
7
  6
CONTINUOUS
 10
174.1088199946
 20
228.3727283916
  0
VERTEX
  8
AXES
 62
7
  6
CONTINUOUS
 10
174.0054270713
 20
228.4375176533
  0
VERTEX
  8
AXES
 62
7
  6
CONTINUOUS
 10
173.8901891118
 20
228.5050496671
  0
VERTEX
  8
AXES
 62
7
  6
CONTINUOUS
 10
173.7661013075
 20
228.5716856595
  0
VERTEX
  8
AXES
 62
7
  6
CONTINUOUS
 10
173.6365631147
 20
228.6337617917
  0
VERTEX
  8
AXES
 62
7
  6
CONTINUOUS
 10
173.5047552633
 20
228.6881934413
  0
VERTEX
  8
AXES
 62
7
  6
CONTINUOUS
 10
173.3725725073
 20
228.7330175101
  0
VERTEX
  8
AXES
 62
7
  6
CONTINUOUS
 10
173.2418401828
 20
228.7668853359
  0
SEQEND
  0
POLYLINE
  8
0
 62
7
  6
CONTINUOUS
 66
1
 70
0
  0
VERTEX
  8
0
 62
7
  6
CONTINUOUS
 10
144.8696562069
 20
235.9987771751
  0
VERTEX
  8
0
 62
7
  6
CONTINUOUS
 10
144.8687624272
 20
236.0375158825
  0
VERTEX
  8
0
 62
7
  6
CONTINUOUS
 10
144.8662143915
 20
236.0763545911
  0
VERTEX
  8
0
 62
7
  6
CONTINUOUS
 10
144.8621312155
 20
236.1157223092
  0
VERTEX
  8
0
 62
7
  6
CONTINUOUS
 10
144.8567107113
 20
236.1549449074
  0
VERTEX
  8
0
 62
7
  6
CONTINUOUS
 10
144.8501652736
 20
236.1936079307
  0
VERTEX
  8
0
 62
7
  6
CONTINUOUS
 10
144.8426640262
 20
236.231593867
  0
VERTEX
  8
0
 62
7
  6
CONTINUOUS
 10
144.8343303246
 20
236.2689171873
  0
VERTEX
  8
0
 62
7
  6
CONTINUOUS
 10
144.8252610304
 20
236.3056087283
  0
VERTEX
  8
0
 62
7
  6
CONTINUOUS
 10
144.8155366253
 20
236.3416966652
  0
VERTEX
  8
0
 62
7
  6
CONTINUOUS
 10
144.805231237
 20
236.3771801443
  0
VERTEX
  8
0
 62
7
  6
CONTINUOUS
 10
144.7943895342
 20
236.4121134445
  0
VERTEX
  8
0
 62
7
  6
CONTINUOUS
 10
144.7830259171
 20
236.4466113374
  0
VERTEX
  8
0
 62
7
  6
CONTINUOUS
 10
144.7711536667
 20
236.4807476127
  0
VERTEX
  8
0
 62
7
  6
CONTINUOUS
 10
144.7587736768
 20
236.5146001761
  0
VERTEX
  8
0
 62
7
  6
CONTINUOUS
 10
144.7458893644
 20
236.548221462
  0
VERTEX
  8
0
 62
7
  6
CONTINUOUS
 10
144.7324962532
 20
236.5816596578
  0
VERTEX
  8
0
 62
7
  6
CONTINUOUS
 10
144.7185850587
 20
236.6149660804
  0
VERTEX
  8
0
 62
7
  6
CONTINUOUS
 10
144.7041466661
 20
236.6481718847
  0
VERTEX
  8
0
 62
7
  6
CONTINUOUS
 10
144.6891667694
 20
236.681314355
  0
VERTEX
  8
0
 62
7
  6
CONTINUOUS
 10
144.6736343203
 20
236.7144089856
  0
VERTEX
  8
0
 62
7
  6
CONTINUOUS
 10
144.6575332711
 20
236.747477911
  0
VERTEX
  8
0
 62
7
  6
CONTINUOUS
 10
144.6408666017
 20
236.7804943148
  0
VERTEX
  8
0
 62
7
  6
CONTINUOUS
 10
144.6236441814
 20
236.8134204404
  0
VERTEX
  8
0
 62
7
  6
CONTINUOUS
 10
144.6058797466
 20
236.8462076284
  0
VERTEX
  8
0
 62
7
  6
CONTINUOUS
 10
144.5875845882
 20
236.8788165325
  0
VERTEX
  8
0
 62
7
  6
CONTINUOUS
 10
144.5687693627
 20
236.9112050572
  0
VERTEX
  8
0
 62
7
  6
CONTINUOUS
 10
144.5494408578
 20
236.9433412154
  0
VERTEX
  8
0
 62
7
  6
CONTINUOUS
 10
144.529595576
 20
236.9752053092
  0
VERTEX
  8
0
 62
7
  6
CONTINUOUS
 10
144.5092371362
 20
237.0067654884
  0
VERTEX
  8
0
 62
7
  6
CONTINUOUS
 10
144.488359575
 20
237.0380023178
  0
VERTEX
  8
0
 62
7
  6
CONTINUOUS
 10
144.4669637242
 20
237.0688817287
  0
VERTEX
  8
0
 62
7
  6
CONTINUOUS
 10
144.4450457879
 20
237.0993768011
  0
VERTEX
  8
0
 62
7
  6
CONTINUOUS
 10
144.422599015
 20
237.129458273
  0
VERTEX
  8
0
 62
7
  6
CONTINUOUS
 10
144.3996225017
 20
237.1590879719
  0
VERTEX
  8
0
 62
7
  6
CONTINUOUS
 10
144.3760646701
 20
237.1882868241
  0
VERTEX
  8
0
 62
7
  6
CONTINUOUS
 10
144.3517638403
 20
237.2171890025
  0
VERTEX
  8
0
 62
7
  6
CONTINUOUS
 10
144.3265326344
 20
237.2459252833
  0
VERTEX
  8
0
 62
7
  6
CONTINUOUS
 10
144.3001635019
 20
237.2746044383
  0
VERTEX
  8
0
 62
7
  6
CONTINUOUS
 10
144.2724501544
 20
237.3032849741
  0
VERTEX
  8
0
 62
7
  6
CONTINUOUS
 10
144.2431691973
 20
237.3319938358
  0
VERTEX
  8
0
 62
7
  6
CONTINUOUS
 10
144.2206437348
 20
237.3529791904
  0
SEQEND
  0
LINE
  8
0
 62
7
  6
CONTINUOUS
 10
144.119671422
 20
238.2243565893
 11
144.119671422
 21
237.4429113196
  0
LINE
  8
0
 62
7
  6
CONTINUOUS
 10
144.8696570589
 20
235.9987771563
 11
144.8696570589
 21
225.0008653375
  0
LINE
  8
0
 62
7
  6
CONTINUOUS
 10
152.6236857852
 20
225.0008653375
 11
152.6236857852
 21
235.9987628671
  0
LINE
  8
0
 62
7
  6
CONTINUOUS
 10
153.373671422
 20
237.4429072966
 11
153.373671422
 21
238.2243566305
  0
POLYLINE
  8
0
 62
7
  6
CONTINUOUS
 66
1
 70
0
  0
VERTEX
  8
0
 62
7
  6
CONTINUOUS
 10
188.0581004423
 20
237.3904745426
  0
VERTEX
  8
0
 62
7
  6
CONTINUOUS
 10
188.0086094545
 20
237.4342838709
  0
VERTEX
  8
0
 62
7
  6
CONTINUOUS
 10
187.966317129
 20
237.4709817497
  0
SEQEND
  0
LINE
  8
0
 62
7
  6
CONTINUOUS
 10
188.099646362
 20
237.352975562
 11
188.0581004423
 21
237.3904745426
  0
POLYLINE
  8
0
 62
7
  6
CONTINUOUS
 66
1
 70
0
  0
VERTEX
  8
0
 62
7
  6
CONTINUOUS
 10
158.623656504
 20
235.9987771762
  0
VERTEX
  8
0
 62
7
  6
CONTINUOUS
 10
158.622885791
 20
236.0346876378
  0
VERTEX
  8
0
 62
7
  6
CONTINUOUS
 10
158.6204355214
 20
236.0737197517
  0
VERTEX
  8
0
 62
7
  6
CONTINUOUS
 10
158.6164216944
 20
236.1133118728
  0
VERTEX
  8
0
 62
7
  6
CONTINUOUS
 10
158.6110453467
 20
236.152764883
  0
VERTEX
  8
0
 62
7
  6
CONTINUOUS
 10
158.6045242421
 20
236.1916484789
  0
VERTEX
  8
0
 62
7
  6
CONTINUOUS
 10
158.5970318788
 20
236.2298429047
  0
VERTEX
  8
0
 62
7
  6
CONTINUOUS
 10
158.5886954727
 20
236.2673634588
  0
VERTEX
  8
0
 62
7
  6
CONTINUOUS
 10
158.5796152144
 20
236.3042373268
  0
VERTEX
  8
0
 62
7
  6
CONTINUOUS
 10
158.5698735674
 20
236.340492383
  0
VERTEX
  8
0
 62
7
  6
CONTINUOUS
 10
158.5595447425
 20
236.3761358412
  0
VERTEX
  8
0
 62
7
  6
CONTINUOUS
 10
158.5486760951
 20
236.4112176967
  0
VERTEX
  8
0
 62
7
  6
CONTINUOUS
 10
158.5372810172
 20
236.4458573741
  0
VERTEX
  8
0
 62
7
  6
CONTINUOUS
 10
158.5253720494
 20
236.4801354181
  0
VERTEX
  8
0
 62
7
  6
CONTINUOUS
 10
158.5129520283
 20
236.5141238889
  0
VERTEX
  8
0
 62
7
  6
CONTINUOUS
 10
158.5000209765
 20
236.5478854473
  0
VERTEX
  8
0
 62
7
  6
CONTINUOUS
 10
158.486577852
 20
236.5814604137
  0
VERTEX
  8
0
 62
7
  6
CONTINUOUS
 10
158.4726116703
 20
236.6149034456
  0
VERTEX
  8
0
 62
7
  6
CONTINUOUS
 10
158.4581169236
 20
236.6482392085
  0
VERTEX
  8
0
 62
7
  6
CONTINUOUS
 10
158.443078602
 20
236.6815055295
  0
VERTEX
  8
0
 62
7
  6
CONTINUOUS
 10
158.4274887304
 20
236.7147137072
  0
VERTEX
  8
0
 62
7
  6
CONTINUOUS
 10
158.4113308395
 20
236.7478859295
  0
VERTEX
  8
0
 62
7
  6
CONTINUOUS
 10
158.394607612
 20
236.7809983924
  0
VERTEX
  8
0
 62
7
  6
CONTINUOUS
 10
158.3773211491
 20
236.8140268932
  0
VERTEX
  8
0
 62
7
  6
CONTINUOUS
 10
158.3594815695
 20
236.846929691
  0
VERTEX
  8
0
 62
7
  6
CONTINUOUS
 10
158.341090833
 20
236.8796809745
  0
VERTEX
  8
0
 62
7
  6
CONTINUOUS
 10
158.322157949
 20
236.9122388556
  0
VERTEX
  8
0
 62
7
  6
CONTINUOUS
 10
158.3026901544
 20
236.9445671176
  0
VERTEX
  8
0
 62
7
  6
CONTINUOUS
 10
158.2826992361
 20
236.9766182288
  0
VERTEX
  8
0
 62
7
  6
CONTINUOUS
 10
158.2621975684
 20
237.0083476749
  0
VERTEX
  8
0
 62
7
  6
CONTINUOUS
 10
158.2411920367
 20
237.0397163
  0
VERTEX
  8
0
 62
7
  6
CONTINUOUS
 10
158.2196969393
 20
237.070675282
  0
VERTEX
  8
0
 62
7
  6
CONTINUOUS
 10
158.1977168564
 20
237.1011897529
  0
VERTEX
  8
0
 62
7
  6
CONTINUOUS
 10
158.1752625416
 20
237.1312133125
  0
VERTEX
  8
0
 62
7
  6
CONTINUOUS
 10
158.1523426355
 20
237.1607049409
  0
VERTEX
  8
0
 62
7
  6
CONTINUOUS
 10
158.1289057076
 20
237.1896929297
  0
VERTEX
  8
0
 62
7
  6
CONTINUOUS
 10
158.104786827
 20
237.2183255228
  0
VERTEX
  8
0
 62
7
  6
CONTINUOUS
 10
158.0797897718
 20
237.2467522889
  0
VERTEX
  8
0
 62
7
  6
CONTINUOUS
 10
158.0537091259
 20
237.2750864129
  0
VERTEX
  8
0
 62
7
  6
CONTINUOUS
 10
158.026338369
 20
237.3033977119
  0
VERTEX
  8
0
 62
7
  6
CONTINUOUS
 10
157.9974426337
 20
237.3317335279
  0
VERTEX
  8
0
 62
7
  6
CONTINUOUS
 10
157.9746425343
 20
237.3529799296
  0
SEQEND
  0
LINE
  8
0
 62
7
  6
CONTINUOUS
 10
157.873671422
 20
237.4429072962
 11
157.873671422
 21
238.2243565743
  0
LINE
  8
0
 62
7
  6
CONTINUOUS
 10
158.6236570589
 20
235.9987771634
 11
158.6236570589
 21
225.0008653375
  0
LINE
  8
0
 62
7
  6
CONTINUOUS
 10
165.823671422
 20
228.1515173296
 11
165.823671422
 21
224.4008653375
  0
LINE
  8
0
 62
7
  6
CONTINUOUS
 10
167.1236857852
 20
225.2646039692
 11
167.1236857852
 21
235.998777165
  0
LINE
  8
0
 62
7
  6
CONTINUOUS
 10
167.873671422
 20
238.2243564552
 11
167.873671422
 21
237.4429113176
  0
POLYLINE
  8
AXES
 62
7
  6
CONTINUOUS
 66
1
 70
0
  0
VERTEX
  8
AXES
 62
7
  6
CONTINUOUS
 10
167.1236857852
 20
228.9298461252
  0
VERTEX
  8
AXES
 62
7
  6
CONTINUOUS
 10
167.120702496
 20
228.8938860039
  0
VERTEX
  8
AXES
 62
7
  6
CONTINUOUS
 10
167.112620647
 20
228.8628803841
  0
VERTEX
  8
AXES
 62
7
  6
CONTINUOUS
 10
167.1004309318
 20
228.8364482656
  0
VERTEX
  8
AXES
 62
7
  6
CONTINUOUS
 10
167.0850788135
 20
228.8145565582
  0
VERTEX
  8
AXES
 62
7
  6
CONTINUOUS
 10
167.0675410626
 20
228.7971028135
  0
VERTEX
  8
AXES
 62
7
  6
CONTINUOUS
 10
167.0482841107
 20
228.7835428475
  0
VERTEX
  8
AXES
 62
7
  6
CONTINUOUS
 10
167.0273549115
 20
228.7734391235
  0
VERTEX
  8
AXES
 62
7
  6
CONTINUOUS
 10
167.0055026613
 20
228.7668853359
  0
SEQEND
  0
POLYLINE
  8
0
 62
7
  6
CONTINUOUS
 66
1
 70
0
  0
VERTEX
  8
0
 62
7
  6
CONTINUOUS
 10
173.1236562069
 20
235.9987771751
  0
VERTEX
  8
0
 62
7
  6
CONTINUOUS
 10
173.1227624272
 20
236.0375158825
  0
VERTEX
  8
0
 62
7
  6
CONTINUOUS
 10
173.1202143915
 20
236.0763545911
  0
VERTEX
  8
0
 62
7
  6
CONTINUOUS
 10
173.1161312155
 20
236.1157223092
  0
VERTEX
  8
0
 62
7
  6
CONTINUOUS
 10
173.1107107113
 20
236.1549449074
  0
VERTEX
  8
0
 62
7
  6
CONTINUOUS
 10
173.1041652736
 20
236.1936079307
  0
VERTEX
  8
0
 62
7
  6
CONTINUOUS
 10
173.0966640262
 20
236.231593867
  0
VERTEX
  8
0
 62
7
  6
CONTINUOUS
 10
173.0883303246
 20
236.2689171873
  0
VERTEX
  8
0
 62
7
  6
CONTINUOUS
 10
173.0792610304
 20
236.3056087283
  0
VERTEX
  8
0
 62
7
  6
CONTINUOUS
 10
173.0695366253
 20
236.3416966652
  0
VERTEX
  8
0
 62
7
  6
CONTINUOUS
 10
173.059231237
 20
236.3771801443
  0
VERTEX
  8
0
 62
7
  6
CONTINUOUS
 10
173.0483895342
 20
236.4121134445
  0
VERTEX
  8
0
 62
7
  6
CONTINUOUS
 10
173.0370259171
 20
236.4466113374
  0
VERTEX
  8
0
 62
7
  6
CONTINUOUS
 10
173.0251536667
 20
236.4807476127
  0
VERTEX
  8
0
 62
7
  6
CONTINUOUS
 10
173.0127736768
 20
236.5146001761
  0
VERTEX
  8
0
 62
7
  6
CONTINUOUS
 10
172.9998893644
 20
236.548221462
  0
VERTEX
  8
0
 62
7
  6
CONTINUOUS
 10
172.9864962532
 20
236.5816596578
  0
VERTEX
  8
0
 62
7
  6
CONTINUOUS
 10
172.9725850587
 20
236.6149660804
  0
VERTEX
  8
0
 62
7
  6
CONTINUOUS
 10
172.9581466661
 20
236.6481718847
  0
VERTEX
  8
0
 62
7
  6
CONTINUOUS
 10
172.9431667694
 20
236.681314355
  0
VERTEX
  8
0
 62
7
  6
CONTINUOUS
 10
172.9276343203
 20
236.7144089856
  0
VERTEX
  8
0
 62
7
  6
CONTINUOUS
 10
172.9115332711
 20
236.747477911
  0
VERTEX
  8
0
 62
7
  6
CONTINUOUS
 10
172.8948666017
 20
236.7804943148
  0
VERTEX
  8
0
 62
7
  6
CONTINUOUS
 10
172.8776441814
 20
236.8134204404
  0
VERTEX
  8
0
 62
7
  6
CONTINUOUS
 10
172.8598797466
 20
236.8462076284
  0
VERTEX
  8
0
 62
7
  6
CONTINUOUS
 10
172.8415845882
 20
236.8788165325
  0
VERTEX
  8
0
 62
7
  6
CONTINUOUS
 10
172.8227693627
 20
236.9112050572
  0
VERTEX
  8
0
 62
7
  6
CONTINUOUS
 10
172.8034408578
 20
236.9433412154
  0
VERTEX
  8
0
 62
7
  6
CONTINUOUS
 10
172.783595576
 20
236.9752053092
  0
VERTEX
  8
0
 62
7
  6
CONTINUOUS
 10
172.7632371362
 20
237.0067654884
  0
VERTEX
  8
0
 62
7
  6
CONTINUOUS
 10
172.742359575
 20
237.0380023178
  0
VERTEX
  8
0
 62
7
  6
CONTINUOUS
 10
172.7209637242
 20
237.0688817287
  0
VERTEX
  8
0
 62
7
  6
CONTINUOUS
 10
172.6990457879
 20
237.0993768011
  0
VERTEX
  8
0
 62
7
  6
CONTINUOUS
 10
172.676599015
 20
237.129458273
  0
VERTEX
  8
0
 62
7
  6
CONTINUOUS
 10
172.6536225017
 20
237.1590879719
  0
VERTEX
  8
0
 62
7
  6
CONTINUOUS
 10
172.6300646701
 20
237.1882868241
  0
VERTEX
  8
0
 62
7
  6
CONTINUOUS
 10
172.6057638403
 20
237.2171890025
  0
VERTEX
  8
0
 62
7
  6
CONTINUOUS
 10
172.5805326344
 20
237.2459252833
  0
VERTEX
  8
0
 62
7
  6
CONTINUOUS
 10
172.5541635019
 20
237.2746044383
  0
VERTEX
  8
0
 62
7
  6
CONTINUOUS
 10
172.5264501544
 20
237.3032849741
  0
VERTEX
  8
0
 62
7
  6
CONTINUOUS
 10
172.4971691973
 20
237.3319938358
  0
VERTEX
  8
0
 62
7
  6
CONTINUOUS
 10
172.4746437348
 20
237.3529791904
  0
SEQEND
  0
LINE
  8
0
 62
7
  6
CONTINUOUS
 10
172.373671422
 20
238.2130748557
 11
172.373671422
 21
237.4429113196
  0
LINE
  8
0
 62
7
  6
CONTINUOUS
 10
173.1236570589
 20
235.9987771563
 11
173.1236570589
 21
225.264603352
  0
LINE
  8
0
 62
7
  6
CONTINUOUS
 10
174.423671422
 20
228.151517132
 11
174.423671422
 21
224.4008653375
  0
LINE
  8
0
 62
7
  6
CONTINUOUS
 10
182.7486857852
 20
225.0008653375
 11
182.7486857852
 21
235.9987771776
  0
LINE
  8
0
 62
7
  6
CONTINUOUS
 10
183.498671422
 20
237.4429072966
 11
183.498671422
 21
238.1243511551
  0
POLYLINE
  8
0
 62
7
  6
CONTINUOUS
 66
1
 70
0
  0
VERTEX
  8
0
 62
7
  6
CONTINUOUS
 10
187.848671422
 20
238.1089198126
  0
VERTEX
  8
0
 62
7
  6
CONTINUOUS
 10
187.8665849841
 20
238.169252527
  0
VERTEX
  8
0
 62
7
  6
CONTINUOUS
 10
187.9205158934
 20
238.224242326
  0
VERTEX
  8
0
 62
7
  6
CONTINUOUS
 10
188.0103321851
 20
238.2735444942
  0
VERTEX
  8
0
 62
7
  6
CONTINUOUS
 10
188.1353741633
 20
238.3169936861
  0
VERTEX
  8
0
 62
7
  6
CONTINUOUS
 10
188.2945951183
 20
238.3546149144
  0
VERTEX
  8
0
 62
7
  6
CONTINUOUS
 10
188.4871262754
 20
238.3866513633
  0
VERTEX
  8
0
 62
7
  6
CONTINUOUS
 10
188.7121463087
 20
238.4134196331
  0
VERTEX
  8
0
 62
7
  6
CONTINUOUS
 10
188.968426493
 20
238.4352588387
  0
VERTEX
  8
0
 62
7
  6
CONTINUOUS
 10
189.254570973
 20
238.4525803674
  0
VERTEX
  8
0
 62
7
  6
CONTINUOUS
 10
189.5689798794
 20
238.465850729
  0
VERTEX
  8
0
 62
7
  6
CONTINUOUS
 10
189.9093483837
 20
238.4755667347
  0
VERTEX
  8
0
 62
7
  6
CONTINUOUS
 10
190.2740280974
 20
238.4822815122
  0
VERTEX
  8
0
 62
7
  6
CONTINUOUS
 10
190.661382922
 20
238.4865438176
  0
VERTEX
  8
0
 62
7
  6
CONTINUOUS
 10
191.0685972914
 20
238.48888125
  0
SEQEND
  0
POLYLINE
  8
AXES
 62
7
  6
CONTINUOUS
 66
1
 70
0
  0
VERTEX
  8
AXES
 62
7
  6
CONTINUOUS
 10
188.7486570589
 20
231.2349751688
  0
VERTEX
  8
AXES
 62
7
  6
CONTINUOUS
 10
188.763259764
 20
231.1874284032
  0
VERTEX
  8
AXES
 62
7
  6
CONTINUOUS
 10
188.8094327362
 20
231.0032752897
  0
VERTEX
  8
AXES
 62
7
  6
CONTINUOUS
 10
188.8458450561
 20
230.8162463956
  0
VERTEX
  8
AXES
 62
7
  6
CONTINUOUS
 10
188.8719465665
 20
230.628322813
  0
VERTEX
  8
AXES
 62
7
  6
CONTINUOUS
 10
188.8876706656
 20
230.4394585435
  0
VERTEX
  8
AXES
 62
7
  6
CONTINUOUS
 10
188.8928983595
 20
230.2506927066
  0
VERTEX
  8
AXES
 62
7
  6
CONTINUOUS
 10
188.8876506644
 20
230.0619117565
  0
VERTEX
  8
AXES
 62
7
  6
CONTINUOUS
 10
188.8719071517
 20
229.8730532488
  0
VERTEX
  8
AXES
 62
7
  6
CONTINUOUS
 10
188.8457875253
 20
229.6851393963
  0
VERTEX
  8
AXES
 62
7
  6
CONTINUOUS
 10
188.8093555356
 20
229.4981088828
  0
VERTEX
  8
AXES
 62
7
  6
CONTINUOUS
 10
188.7631684695
 20
229.3139750563
  0
VERTEX
  8
AXES
 62
7
  6
CONTINUOUS
 10
188.7486570589
 20
229.2667412741
  0
SEQEND
  0
POLYLINE
  8
0
 62
7
  6
CONTINUOUS
 66
1
 70
0
  0
VERTEX
  8
0
 62
7
  6
CONTINUOUS
 10
196.1236710243
 20
238.1936235827
  0
VERTEX
  8
0
 62
7
  6
CONTINUOUS
 10
196.1200060493
 20
238.2286802939
  0
VERTEX
  8
0
 62
7
  6
CONTINUOUS
 10
196.1088002431
 20
238.2631267777
  0
VERTEX
  8
0
 62
7
  6
CONTINUOUS
 10
196.0917979981
 20
238.2929575793
  0
VERTEX
  8
0
 62
7
  6
CONTINUOUS
 10
196.0715197926
 20
238.3170362513
  0
VERTEX
  8
0
 62
7
  6
CONTINUOUS
 10
196.0499884154
 20
238.3357921437
  0
VERTEX
  8
0
 62
7
  6
CONTINUOUS
 10
196.0281680212
 20
238.3504207749
  0
VERTEX
  8
0
 62
7
  6
CONTINUOUS
 10
196.0060539157
 20
238.3622019636
  0
VERTEX
  8
0
 62
7
  6
CONTINUOUS
 10
195.9831948309
 20
238.3721004389
  0
VERTEX
  8
0
 62
7
  6
CONTINUOUS
 10
195.9590389355
 20
238.3807480529
  0
VERTEX
  8
0
 62
7
  6
CONTINUOUS
 10
195.9330674716
 20
238.3885387611
  0
VERTEX
  8
0
 62
7
  6
CONTINUOUS
 10
195.9048252306
 20
238.3957144873
  0
VERTEX
  8
0
 62
7
  6
CONTINUOUS
 10
195.873856638
 20
238.4024371524
  0
VERTEX
  8
0
 62
7
  6
CONTINUOUS
 10
195.8397110682
 20
238.4088127609
  0
VERTEX
  8
0
 62
7
  6
CONTINUOUS
 10
195.8019877778
 20
238.4149005387
  0
VERTEX
  8
0
 62
7
  6
CONTINUOUS
 10
195.7603321299
 20
238.420731798
  0
VERTEX
  8
0
 62
7
  6
CONTINUOUS
 10
195.7144138167
 20
238.4263212994
  0
VERTEX
  8
0
 62
7
  6
CONTINUOUS
 10
195.663925843
 20
238.4316730642
  0
VERTEX
  8
0
 62
7
  6
CONTINUOUS
 10
195.6085623001
 20
238.4367870512
  0
VERTEX
  8
0
 62
7
  6
CONTINUOUS
 10
195.5480353662
 20
238.4416577642
  0
VERTEX
  8
0
 62
7
  6
CONTINUOUS
 10
195.4820777448
 20
238.4462779694
  0
VERTEX
  8
0
 62
7
  6
CONTINUOUS
 10
195.4104357374
 20
238.4506390801
  0
VERTEX
  8
0
 62
7
  6
CONTINUOUS
 10
195.3328844236
 20
238.454732658
  0
VERTEX
  8
0
 62
7
  6
CONTINUOUS
 10
195.2492219585
 20
238.4585509513
  0
VERTEX
  8
0
 62
7
  6
CONTINUOUS
 10
195.1592755605
 20
238.4620880238
  0
VERTEX
  8
0
 62
7
  6
CONTINUOUS
 10
195.0628979617
 20
238.4653400653
  0
VERTEX
  8
0
 62
7
  6
CONTINUOUS
 10
194.8504294573
 20
238.4709866159
  0
SEQEND
  0
POLYLINE
  8
0
 62
7
  6
CONTINUOUS
 66
1
 70
0
  0
VERTEX
  8
0
 62
7
  6
CONTINUOUS
 10
188.748656504
 20
235.9987771762
  0
VERTEX
  8
0
 62
7
  6
CONTINUOUS
 10
188.747885791
 20
236.0346876378
  0
VERTEX
  8
0
 62
7
  6
CONTINUOUS
 10
188.7454355214
 20
236.0737197517
  0
VERTEX
  8
0
 62
7
  6
CONTINUOUS
 10
188.7414216944
 20
236.1133118728
  0
VERTEX
  8
0
 62
7
  6
CONTINUOUS
 10
188.7360453467
 20
236.152764883
  0
VERTEX
  8
0
 62
7
  6
CONTINUOUS
 10
188.7295242421
 20
236.1916484789
  0
VERTEX
  8
0
 62
7
  6
CONTINUOUS
 10
188.7220318788
 20
236.2298429047
  0
VERTEX
  8
0
 62
7
  6
CONTINUOUS
 10
188.7136954727
 20
236.2673634588
  0
VERTEX
  8
0
 62
7
  6
CONTINUOUS
 10
188.7046152144
 20
236.3042373268
  0
VERTEX
  8
0
 62
7
  6
CONTINUOUS
 10
188.6948735674
 20
236.340492383
  0
VERTEX
  8
0
 62
7
  6
CONTINUOUS
 10
188.6845447425
 20
236.3761358412
  0
VERTEX
  8
0
 62
7
  6
CONTINUOUS
 10
188.6736760951
 20
236.4112176967
  0
VERTEX
  8
0
 62
7
  6
CONTINUOUS
 10
188.6622810172
 20
236.4458573741
  0
VERTEX
  8
0
 62
7
  6
CONTINUOUS
 10
188.6503720494
 20
236.4801354181
  0
VERTEX
  8
0
 62
7
  6
CONTINUOUS
 10
188.6379520283
 20
236.5141238889
  0
VERTEX
  8
0
 62
7
  6
CONTINUOUS
 10
188.6250209765
 20
236.5478854473
  0
VERTEX
  8
0
 62
7
  6
CONTINUOUS
 10
188.611577852
 20
236.5814604137
  0
VERTEX
  8
0
 62
7
  6
CONTINUOUS
 10
188.5976116703
 20
236.6149034456
  0
VERTEX
  8
0
 62
7
  6
CONTINUOUS
 10
188.5831169236
 20
236.6482392085
  0
VERTEX
  8
0
 62
7
  6
CONTINUOUS
 10
188.568078602
 20
236.6815055295
  0
VERTEX
  8
0
 62
7
  6
CONTINUOUS
 10
188.5524887304
 20
236.7147137072
  0
VERTEX
  8
0
 62
7
  6
CONTINUOUS
 10
188.5363308395
 20
236.7478859295
  0
VERTEX
  8
0
 62
7
  6
CONTINUOUS
 10
188.519607612
 20
236.7809983924
  0
VERTEX
  8
0
 62
7
  6
CONTINUOUS
 10
188.5023211491
 20
236.8140268932
  0
VERTEX
  8
0
 62
7
  6
CONTINUOUS
 10
188.4844815695
 20
236.846929691
  0
VERTEX
  8
0
 62
7
  6
CONTINUOUS
 10
188.466090833
 20
236.8796809745
  0
VERTEX
  8
0
 62
7
  6
CONTINUOUS
 10
188.447157949
 20
236.9122388556
  0
VERTEX
  8
0
 62
7
  6
CONTINUOUS
 10
188.4276901544
 20
236.9445671176
  0
VERTEX
  8
0
 62
7
  6
CONTINUOUS
 10
188.4076992361
 20
236.9766182288
  0
VERTEX
  8
0
 62
7
  6
CONTINUOUS
 10
188.3871975684
 20
237.0083476749
  0
VERTEX
  8
0
 62
7
  6
CONTINUOUS
 10
188.3661920367
 20
237.0397163
  0
VERTEX
  8
0
 62
7
  6
CONTINUOUS
 10
188.3446969393
 20
237.070675282
  0
VERTEX
  8
0
 62
7
  6
CONTINUOUS
 10
188.3227168564
 20
237.1011897529
  0
VERTEX
  8
0
 62
7
  6
CONTINUOUS
 10
188.3002625416
 20
237.1312133125
  0
VERTEX
  8
0
 62
7
  6
CONTINUOUS
 10
188.2773426355
 20
237.1607049409
  0
VERTEX
  8
0
 62
7
  6
CONTINUOUS
 10
188.2539057076
 20
237.1896929297
  0
VERTEX
  8
0
 62
7
  6
CONTINUOUS
 10
188.229786827
 20
237.2183255228
  0
VERTEX
  8
0
 62
7
  6
CONTINUOUS
 10
188.2047897718
 20
237.2467522889
  0
VERTEX
  8
0
 62
7
  6
CONTINUOUS
 10
188.1787091259
 20
237.2750864129
  0
VERTEX
  8
0
 62
7
  6
CONTINUOUS
 10
188.151338369
 20
237.3033977119
  0
VERTEX
  8
0
 62
7
  6
CONTINUOUS
 10
188.1224426337
 20
237.3317335279
  0
VERTEX
  8
0
 62
7
  6
CONTINUOUS
 10
188.0996425343
 20
237.3529799296
  0
SEQEND
  0
LINE
  8
0
 62
7
  6
CONTINUOUS
 10
187.998671422
 20
237.4429072962
 11
187.998671422
 21
237.9602415335
  0
LINE
  8
0
 62
7
  6
CONTINUOUS
 10
188.7486570589
 20
235.9987771634
 11
188.7486570589
 21
225.0008653375
  0
LINE
  8
0
 62
7
  6
CONTINUOUS
 10
196.123671422
 20
224.4008653375
 11
196.123671422
 21
238.1936319313
  0
LINE
  8
0
 62
7
  6
CONTINUOUS
 10
141.369671422
 20
104.5995967464
 11
142.369671422
 21
104.5995967464
  0
LINE
  8
0
 62
7
  6
CONTINUOUS
 10
155.123671422
 20
104.5995967464
 11
156.123671422
 21
104.5995967464
  0
LINE
  8
0
 62
7
  6
CONTINUOUS
 10
169.623671422
 20
104.5995967464
 11
170.623671422
 21
104.5995967464
  0
LINE
  8
0
 62
7
  6
CONTINUOUS
 10
185.248671422
 20
104.5995967464
 11
186.248671422
 21
104.5995967464
  0
LINE
  8
DEFAULT_1
 62
2
  6
CENTER
 10
123.773671422
 20
108.9495967464
 11
190.7486570589
 21
108.9495967464
  0
LINE
  8
0
 62
7
  6
CONTINUOUS
 10
137.619671422
 20
120.8655967464
 11
133.023671422
 21
120.8655967464
  0
LINE
  8
0
 62
7
  6
CONTINUOUS
 10
121.177671422
 20
120.8655967464
 11
124.523671422
 21
120.8655967464
  0
LINE
  8
0
 62
7
  6
CONTINUOUS
 10
150.673671422
 20
121.1995967464
 11
146.819671422
 21
121.1995967464
  0
LINE
  8
0
 62
7
  6
CONTINUOUS
 10
160.5736901187
 20
121.1995967464
 11
165.1736539822
 21
121.1995967464
  0
LINE
  8
0
 62
7
  6
CONTINUOUS
 10
179.4986545366
 20
121.3495967464
 11
175.3736871419
 21
121.3495967464
  0
LINE
  8
0
 62
7
  6
CONTINUOUS
 10
186.123649753
 20
121.8995967464
 11
184.3736893559
 21
121.8995967464
  0
LINE
  8
0
 62
7
  6
CONTINUOUS
 10
170.8736511991
 20
121.9995967464
 11
169.373689359
 21
121.9995967464
  0
LINE
  8
0
 62
7
  6
CONTINUOUS
 10
156.523671422
 20
122.1495967464
 11
154.723671422
 21
122.1495967464
  0
LINE
  8
0
 62
7
  6
CONTINUOUS
 10
142.519671422
 20
122.1495967464
 11
141.219671422
 21
122.1495967464
  0
LINE
  8
AXES
 62
2
  6
CENTER
 10
117.423671422
 20
134.3495967464
 11
196.123671422
 21
134.3495967464
  0
LINE
  8
0
 62
7
  6
CONTINUOUS
 10
120.173671422
 20
138.6995967464
 11
124.673671422
 21
138.6995967464
  0
LINE
  8
0
 62
7
  6
CONTINUOUS
 10
132.873671422
 20
138.6995967464
 11
137.373671422
 21
138.6995967464
  0
LINE
  8
0
 62
7
  6
CONTINUOUS
 10
146.365671422
 20
138.6995967464
 11
150.877671422
 21
138.6995967464
  0
LINE
  8
0
 62
7
  6
CONTINUOUS
 10
160.369671422
 20
138.6995967464
 11
164.877671422
 21
138.6995967464
  0
LINE
  8
0
 62
7
  6
CONTINUOUS
 10
175.369671422
 20
138.6995967464
 11
179.877671422
 21
138.6995967464
  0
LINE
  8
0
 62
7
  6
CONTINUOUS
 10
192.782195135
 20
138.9982229109
 11
190.9691828448
 21
138.3501668216
  0
LINE
  8
0
 62
7
  6
CONTINUOUS
 10
194.1334429665
 20
122.3681952425
 11
191.9791283331
 21
121.5981416007
  0
LINE
  8
0
 62
7
  6
CONTINUOUS
 10
119.423671422
 20
133.6980592211
 11
119.423671422
 21
137.9495967464
  0
LINE
  8
0
 62
7
  6
CONTINUOUS
 10
120.177671422
 20
130.6373184215
 11
120.177671422
 21
121.8656094022
  0
LINE
  8
0
 62
7
  6
CONTINUOUS
 10
119.4282546195
 20
133.6612631132
 11
120.1623941467
 21
130.7599719507
  0
LINE
  8
0
 62
7
  6
CONTINUOUS
 10
124.669671422
 20
126.4535967464
 11
124.669671422
 21
130.6373184542
  0
LINE
  8
0
 62
7
  6
CONTINUOUS
 10
125.423671422
 20
133.6980592211
 11
125.423671422
 21
137.9495967464
  0
LINE
  8
0
 62
7
  6
CONTINUOUS
 10
125.773671422
 20
106.1501070036
 11
125.773671422
 21
109.6239988804
  0
LINE
  8
0
 62
7
  6
CONTINUOUS
 10
126.523671422
 20
118.8655805449
 11
126.523671422
 21
112.6689318339
  0
LINE
  8
0
 62
7
  6
CONTINUOUS
 10
131.023671422
 20
118.8655806091
 11
131.023671422
 21
112.6689310338
  0
LINE
  8
0
 62
7
  6
CONTINUOUS
 10
131.773671422
 20
109.6239988804
 11
131.773671422
 21
106.1501070036
  0
LINE
  8
0
 62
7
  6
CONTINUOUS
 10
132.123671422
 20
133.6980592211
 11
132.123671422
 21
137.9495967464
  0
LINE
  8
0
 62
7
  6
CONTINUOUS
 10
132.877671422
 20
130.6373184215
 11
132.877671422
 21
126.4536167133
  0
LINE
  8
0
 62
7
  6
CONTINUOUS
 10
124.6849487471
 20
130.7599721471
 11
125.4190882245
 21
133.6612631132
  0
LINE
  8
AXES
 62
7
  6
CONTINUOUS
 10
126.508394097
 20
112.5462781083
 11
126.3782546195
 21
112.0319719011
  0
LINE
  8
0
 62
7
  6
CONTINUOUS
 10
126.5083941467
 20
112.5462783049
 11
125.7782546195
 21
109.6607949883
  0
LINE
  8
0
 62
7
  6
CONTINUOUS
 10
137.3849487471
 20
130.7599721471
 11
138.1190882245
 21
133.6612631132
  0
LINE
  8
AXES
 62
7
  6
CONTINUOUS
 10
131.0389487471
 20
112.5462781083
 11
131.1690882245
 21
112.0319719011
  0
LINE
  8
0
 62
7
  6
CONTINUOUS
 10
131.038948645
 20
112.5462785116
 11
131.7690882245
 21
109.6607949883
  0
LINE
  8
0
 62
7
  6
CONTINUOUS
 10
132.1282546195
 20
133.6612631132
 11
132.8623941467
 21
130.7599719507
  0
LINE
  8
0
 62
7
  6
CONTINUOUS
 10
137.369671422
 20
125.9996149022
 11
137.369671422
 21
130.6373186258
  0
LINE
  8
0
 62
7
  6
CONTINUOUS
 10
138.123671422
 20
133.6980592211
 11
138.123671422
 21
137.9495967464
  0
LINE
  8
0
 62
7
  6
CONTINUOUS
 10
138.8696857852
 20
105.6293748941
 11
138.8696857852
 21
109.6239988804
  0
LINE
  8
0
 62
7
  6
CONTINUOUS
 10
139.619671422
 20
112.6688750386
 11
139.619671422
 21
118.8655967464
  0
LINE
  8
0
 62
7
  6
CONTINUOUS
 10
144.119671422
 20
118.4995795881
 11
144.119671422
 21
112.6688742712
  0
LINE
  8
0
 62
7
  6
CONTINUOUS
 10
144.8696570589
 20
109.6239988804
 11
144.8696570589
 21
105.6293748941
  0
LINE
  8
0
 62
7
  6
CONTINUOUS
 10
145.615671422
 20
133.6980592211
 11
145.615671422
 21
137.9495967464
  0
LINE
  8
0
 62
7
  6
CONTINUOUS
 10
146.369671422
 20
130.6373184215
 11
146.369671422
 21
125.9996131031
  0
LINE
  8
AXES
 62
7
  6
CONTINUOUS
 10
139.4742689827
 20
112.0319719011
 11
139.604394097
 21
112.5462213456
  0
LINE
  8
0
 62
7
  6
CONTINUOUS
 10
138.8742689827
 20
109.6607949883
 11
139.6043942906
 21
112.5462221108
  0
LINE
  8
0
 62
7
  6
CONTINUOUS
 10
150.8889487471
 20
130.7599721471
 11
151.6230882245
 21
133.6612631132
  0
LINE
  8
AXES
 62
7
  6
CONTINUOUS
 10
144.1349487471
 20
112.5462213456
 11
144.2650738613
 21
112.0319719011
  0
LINE
  8
0
 62
7
  6
CONTINUOUS
 10
144.134948645
 20
112.546221749
 11
144.8650738613
 21
109.6607949883
  0
LINE
  8
0
 62
7
  6
CONTINUOUS
 10
145.6202546195
 20
133.6612631132
 11
146.3543941467
 21
130.7599719507
  0
LINE
  8
0
 62
7
  6
CONTINUOUS
 10
150.873671422
 20
125.9996149022
 11
150.873671422
 21
130.6373186258
  0
LINE
  8
0
 62
7
  6
CONTINUOUS
 10
151.627671422
 20
133.6980592211
 11
151.627671422
 21
137.9495967464
  0
LINE
  8
0
 62
7
  6
CONTINUOUS
 10
152.6236857852
 20
105.6354868387
 11
152.6236857852
 21
109.6239988804
  0
LINE
  8
0
 62
7
  6
CONTINUOUS
 10
153.373671422
 20
112.6688746591
 11
153.373671422
 21
118.4995800148
  0
LINE
  8
0
 62
7
  6
CONTINUOUS
 10
157.873671422
 20
112.6688750712
 11
157.873671422
 21
118.4995794321
  0
LINE
  8
0
 62
7
  6
CONTINUOUS
 10
158.6236570589
 20
109.6239988804
 11
158.6236570589
 21
105.6354868387
  0
LINE
  8
0
 62
7
  6
CONTINUOUS
 10
159.619671422
 20
133.6980592211
 11
159.619671422
 21
137.9495967464
  0
LINE
  8
0
 62
7
  6
CONTINUOUS
 10
160.373671422
 20
130.6373184215
 11
160.373671422
 21
125.9996131031
  0
LINE
  8
AXES
 62
7
  6
CONTINUOUS
 10
153.2282689827
 20
112.0319719011
 11
153.358394097
 21
112.5462213456
  0
LINE
  8
0
 62
7
  6
CONTINUOUS
 10
152.6282689827
 20
109.6607949883
 11
153.3583942906
 21
112.5462221108
  0
LINE
  8
0
 62
7
  6
CONTINUOUS
 10
164.8889487471
 20
130.7599721471
 11
165.6230882245
 21
133.6612631132
  0
LINE
  8
AXES
 62
7
  6
CONTINUOUS
 10
157.8889487471
 20
112.5462213456
 11
158.0190738613
 21
112.0319719011
  0
LINE
  8
0
 62
7
  6
CONTINUOUS
 10
158.6190738613
 20
109.6607949883
 11
157.8889486974
 21
112.546221542
  0
LINE
  8
0
 62
7
  6
CONTINUOUS
 10
159.6242546195
 20
133.6612631132
 11
160.3583941467
 21
130.7599719507
  0
LINE
  8
AXES
 62
7
  6
CONTINUOUS
 10
172.3889487471
 20
112.5462213456
 11
172.5190738613
 21
112.0319719011
  0
LINE
  8
0
 62
7
  6
CONTINUOUS
 10
172.388948645
 20
112.546221749
 11
173.1190738613
 21
109.6607949883
  0
LINE
  8
0
 62
7
  6
CONTINUOUS
 10
164.873671422
 20
126.4996170118
 11
164.873671422
 21
130.6373186258
  0
LINE
  8
0
 62
7
  6
CONTINUOUS
 10
165.627671422
 20
133.6980592211
 11
165.627671422
 21
137.9495967464
  0
LINE
  8
0
 62
7
  6
CONTINUOUS
 10
167.1236857852
 20
105.6354868387
 11
167.1236857852
 21
109.6239988804
  0
LINE
  8
0
 62
7
  6
CONTINUOUS
 10
167.873671422
 20
118.4995781976
 11
167.873671422
 21
112.668874867
  0
LINE
  8
0
 62
7
  6
CONTINUOUS
 10
172.373671422
 20
118.349580684
 11
172.373671422
 21
112.6688742712
  0
LINE
  8
0
 62
7
  6
CONTINUOUS
 10
173.1236570589
 20
109.6239988804
 11
173.1236570589
 21
105.6354868387
  0
LINE
  8
0
 62
7
  6
CONTINUOUS
 10
174.619671422
 20
133.6980592211
 11
174.619671422
 21
137.9495967464
  0
LINE
  8
0
 62
7
  6
CONTINUOUS
 10
175.373671422
 20
130.6373184215
 11
175.373671422
 21
126.4996147638
  0
LINE
  8
0
 62
7
  6
CONTINUOUS
 10
167.8583940871
 20
112.5462213065
 11
167.1282689827
 21
109.6607949883
  0
LINE
  8
AXES
 62
7
  6
CONTINUOUS
 10
167.7282689827
 20
112.0319719011
 11
167.858394097
 21
112.5462213456
  0
LINE
  8
0
 62
7
  6
CONTINUOUS
 10
179.8889465838
 20
130.7599680756
 11
180.6230888735
 21
133.6614853476
  0
LINE
  8
0
 62
7
  6
CONTINUOUS
 10
174.6242546195
 20
133.6612631132
 11
175.3583941467
 21
130.7599719507
  0
LINE
  8
0
 62
7
  6
CONTINUOUS
 10
179.873671422
 20
126.3995967464
 11
179.873671422
 21
130.637322932
  0
LINE
  8
0
 62
7
  6
CONTINUOUS
 10
180.627671422
 20
133.6982788907
 11
180.627671422
 21
137.9495967464
  0
LINE
  8
0
 62
7
  6
CONTINUOUS
 10
182.7486857852
 20
105.6354868387
 11
182.7486857852
 21
109.6239988804
  0
LINE
  8
0
 62
7
  6
CONTINUOUS
 10
183.498671422
 20
112.6688750386
 11
183.498671422
 21
117.3495967464
  0
LINE
  8
0
 62
7
  6
CONTINUOUS
 10
187.998671422
 20
112.6688750712
 11
187.998671422
 21
115.948217003
  0
LINE
  8
0
 62
7
  6
CONTINUOUS
 10
188.7486570589
 20
109.6239988804
 11
188.7486570589
 21
105.6354868387
  0
LINE
  8
0
 62
7
  6
CONTINUOUS
 10
190.869671422
 20
124.6611146851
 11
190.869671422
 21
138.2089191541
  0
LINE
  8
AXES
 62
7
  6
CONTINUOUS
 10
183.3532689827
 20
112.0319719011
 11
183.483394097
 21
112.5462213456
  0
LINE
  8
0
 62
7
  6
CONTINUOUS
 10
182.7532689827
 20
109.6607949883
 11
183.4833942906
 21
112.5462221108
  0
LINE
  8
AXES
 62
7
  6
CONTINUOUS
 10
188.0139487471
 20
112.5462213456
 11
188.1440738613
 21
112.0319719011
  0
LINE
  8
0
 62
7
  6
CONTINUOUS
 10
188.7440738613
 20
109.6607949883
 11
188.0139486974
 21
112.546221542
  0
LINE
  8
0
 62
7
  6
CONTINUOUS
 10
196.123671422
 20
125.1931663142
 11
196.123671422
 21
136.6440721118
  0
LINE
  8
SURFACE
 62
7
  6
CONTINUOUS
 10
275.9820131521
 20
104.5995967464
 11
271.9820131521
 21
104.5995967464
  0
LINE
  8
DEFAULT_1
 62
2
  6
CENTER
 10
279.2320131521
 20
108.9495967464
 11
275.9821131521
 21
108.9495967464
  0
LINE
  8
0
 62
2
  6
CONTINUOUS
 10
275.0320131521
 20
108.9495967464
 11
272.9320131521
 21
108.9495967464
  0
LINE
  8
DEFAULT_1
 62
2
  6
CENTER
 10
268.7320131521
 20
108.9495967464
 11
271.9819131521
 21
108.9495967464
  0
LINE
  8
0
 62
7
  6
CONTINUOUS
 10
273.9820131521
 20
120.8655967464
 11
282.0663650131
 21
120.8655967464
  0
LINE
  8
0
 62
7
  6
CONTINUOUS
 10
267.9820131521
 20
108.5995967464
 11
267.9820131521
 21
134.6995967464
  0
POLYLINE
  8
0
 62
7
  6
CONTINUOUS
 66
1
 70
0
  0
VERTEX
  8
0
 62
7
  6
CONTINUOUS
 10
268.4007116433
 20
136.6996769265
  0
VERTEX
  8
0
 62
7
  6
CONTINUOUS
 10
268.2813410888
 20
136.3723246087
  0
VERTEX
  8
0
 62
7
  6
CONTINUOUS
 10
268.1730957853
 20
136.0058833504
  0
VERTEX
  8
0
 62
7
  6
CONTINUOUS
 10
268.0886137507
 20
135.6319635403
  0
VERTEX
  8
0
 62
7
  6
CONTINUOUS
 10
268.0791427717
 20
135.5722572167
  0
SEQEND
  0
LINE
  8
AXES
 62
7
  6
CONTINUOUS
 10
271.8820131521
 20
108.9495967464
 11
271.8820131521
 21
116.9995967464
  0
LINE
  8
AXES
 62
2
  6
CENTER
 10
273.9820131521
 20
139.5995967464
 11
273.9820131521
 21
138.4495967464
  0
LINE
  8
AXES
 62
2
  6
CONTINUOUS
 10
273.9820131521
 20
135.3995967464
 11
273.9820131521
 21
133.2995967464
  0
LINE
  8
DEFAULT_1
 62
2
  6
CENTER
 10
273.9820131521
 20
114.1995967464
 11
273.9820131521
 21
110.9496967464
  0
LINE
  8
0
 62
2
  6
CONTINUOUS
 10
273.9820131521
 20
109.9995967464
 11
273.9820131521
 21
107.8995967464
  0
LINE
  8
DEFAULT_1
 62
2
  6
CENTER
 10
273.9820131521
 20
103.6995967464
 11
273.9820131521
 21
106.9494967464
  0
LINE
  8
AXES
 62
2
  6
CENTER
 10
273.9820131521
 20
129.0995967464
 11
273.9820131521
 21
130.2495967464
  0
LINE
  8
AXES
 62
7
  6
CONTINUOUS
 10
276.0820131521
 20
108.9495967464
 11
276.0820131521
 21
116.9995967464
  0
LINE
  8
AXES
 62
2
  6
CENTER
 10
279.2320131521
 20
134.3495967464
 11
278.0820131521
 21
134.3495967464
  0
LINE
  8
AXES
 62
2
  6
CONTINUOUS
 10
275.0320131521
 20
134.3495967464
 11
272.9320131521
 21
134.3495967464
  0
LINE
  8
AXES
 62
2
  6
CENTER
 10
268.7320131521
 20
134.3495967464
 11
269.8820131521
 21
134.3495967464
  0
POLYLINE
  8
0
 62
7
  6
CONTINUOUS
 66
1
 70
0
  0
VERTEX
  8
0
 62
7
  6
CONTINUOUS
 10
272.1020638235
 20
139.1440960874
  0
VERTEX
  8
0
 62
7
  6
CONTINUOUS
 10
271.8655163347
 20
139.1383895364
  0
VERTEX
  8
0
 62
7
  6
CONTINUOUS
 10
271.5379743175
 20
139.1108372057
  0
VERTEX
  8
0
 62
7
  6
CONTINUOUS
 10
271.2290090707
 20
139.0624830747
  0
VERTEX
  8
0
 62
7
  6
CONTINUOUS
 10
270.9380005864
 20
138.9953228459
  0
VERTEX
  8
0
 62
7
  6
CONTINUOUS
 10
270.6635510651
 20
138.910843309
  0
VERTEX
  8
0
 62
7
  6
CONTINUOUS
 10
270.4043426555
 20
138.8101002702
  0
VERTEX
  8
0
 62
7
  6
CONTINUOUS
 10
270.159935937
 20
138.6941468489
  0
VERTEX
  8
0
 62
7
  6
CONTINUOUS
 10
269.9306857233
 20
138.5643544753
  0
VERTEX
  8
0
 62
7
  6
CONTINUOUS
 10
269.7169351696
 20
138.4222410934
  0
VERTEX
  8
0
 62
7
  6
CONTINUOUS
 10
269.5189501882
 20
138.269475497
  0
VERTEX
  8
0
 62
7
  6
CONTINUOUS
 10
269.3368377689
 20
138.107832774
  0
VERTEX
  8
0
 62
7
  6
CONTINUOUS
 10
269.1705597183
 20
137.9391976429
  0
VERTEX
  8
0
 62
7
  6
CONTINUOUS
 10
269.0198335646
 20
137.76543755
  0
VERTEX
  8
0
 62
7
  6
CONTINUOUS
 10
268.8837952816
 20
137.5878465253
  0
VERTEX
  8
0
 62
7
  6
CONTINUOUS
 10
268.7614483388
 20
137.4074280052
  0
VERTEX
  8
0
 62
7
  6
CONTINUOUS
 10
268.6518174233
 20
137.2250360299
  0
VERTEX
  8
0
 62
7
  6
CONTINUOUS
 10
268.5539537985
 20
137.0413775875
  0
VERTEX
  8
0
 62
7
  6
CONTINUOUS
 10
268.4669308863
 20
136.8569822955
  0
VERTEX
  8
0
 62
7
  6
CONTINUOUS
 10
268.4007118408
 20
136.6996768477
  0
SEQEND
  0
LINE
  8
0
 62
7
  6
CONTINUOUS
 10
275.9820131521
 20
138.6995967464
 11
271.9820131521
 21
138.6995967464
  0
LINE
  8
0
 62
7
  6
CONTINUOUS
 10
275.9428889983
 20
139.1440951046
 11
272.1009139178
 21
139.1440950823
  0
POLYLINE
  8
0
 62
7
  6
CONTINUOUS
 66
1
 70
0
  0
VERTEX
  8
0
 62
7
  6
CONTINUOUS
 10
279.4957263376
 20
136.7048518475
  0
VERTEX
  8
0
 62
7
  6
CONTINUOUS
 10
279.4192837487
 20
136.8700978654
  0
VERTEX
  8
0
 62
7
  6
CONTINUOUS
 10
279.3203939849
 20
137.0644851329
  0
VERTEX
  8
0
 62
7
  6
CONTINUOUS
 10
279.2110287866
 20
137.2580150023
  0
VERTEX
  8
0
 62
7
  6
CONTINUOUS
 10
279.0903003863
 20
137.4497980281
  0
VERTEX
  8
0
 62
7
  6
CONTINUOUS
 10
278.9573358813
 20
137.6387927283
  0
VERTEX
  8
0
 62
7
  6
CONTINUOUS
 10
278.8112604857
 20
137.8238488094
  0
VERTEX
  8
0
 62
7
  6
CONTINUOUS
 10
278.6512070384
 20
138.0036949575
  0
VERTEX
  8
0
 62
7
  6
CONTINUOUS
 10
278.4763426292
 20
138.1769175448
  0
VERTEX
  8
0
 62
7
  6
CONTINUOUS
 10
278.2858801613
 20
138.3419652828
  0
VERTEX
  8
0
 62
7
  6
CONTINUOUS
 10
278.0791401559
 20
138.497118642
  0
VERTEX
  8
0
 62
7
  6
CONTINUOUS
 10
277.8559196973
 20
138.6403101482
  0
VERTEX
  8
0
 62
7
  6
CONTINUOUS
 10
277.6162634434
 20
138.7694482407
  0
VERTEX
  8
0
 62
7
  6
CONTINUOUS
 10
277.3603064501
 20
138.8825447729
  0
VERTEX
  8
0
 62
7
  6
CONTINUOUS
 10
277.0880756671
 20
138.9777589551
  0
VERTEX
  8
0
 62
7
  6
CONTINUOUS
 10
276.7993868214
 20
139.0533190266
  0
VERTEX
  8
0
 62
7
  6
CONTINUOUS
 10
276.4940787958
 20
139.1073561891
  0
VERTEX
  8
0
 62
7
  6
CONTINUOUS
 10
276.1730335896
 20
139.137817356
  0
VERTEX
  8
0
 62
7
  6
CONTINUOUS
 10
275.9421323451
 20
139.1440955903
  0
SEQEND
  0
POLYLINE
  8
0
 62
7
  6
CONTINUOUS
 66
1
 70
0
  0
VERTEX
  8
0
 62
7
  6
CONTINUOUS
 10
279.6534208266
 20
136.312229497
  0
VERTEX
  8
0
 62
7
  6
CONTINUOUS
 10
279.6083298004
 20
136.4329347438
  0
VERTEX
  8
0
 62
7
  6
CONTINUOUS
 10
279.5479660917
 20
136.5833498771
  0
VERTEX
  8
0
 62
7
  6
CONTINUOUS
 10
279.495726587
 20
136.7048519581
  0
SEQEND
  0
LINE
  8
0
 62
7
  6
CONTINUOUS
 10
279.6536928369
 20
136.3114766519
 11
279.6534208159
 21
136.312229422
  0
ARC
  8
0
 62
7
  6
CONTINUOUS
 10
133.027671422
 20
224.4008653375
 40
0.15
 50
258.75
 51
268.4770244418
  0
ARC
  8
0
 62
7
  6
CONTINUOUS
 10
124.519671422
 20
224.4008653375
 40
0.15
 50
271.522975558
 51
281.2499999879
  0
ARC
  8
0
 62
7
  6
CONTINUOUS
 10
120.327671422
 20
224.4008653375
 40
0.15
 50
180.0
 51
270.0
  0
ARC
  8
0
 62
7
  6
CONTINUOUS
 10
126.523671422
 20
225.0008653375
 40
0.75
 50
180.0
 51
270.0
  0
ARC
  8
0
 62
7
  6
CONTINUOUS
 10
131.023671422
 20
225.0008653375
 40
0.75
 50
270.0
 51
360.0
  0
ARC
  8
0
 62
7
  6
CONTINUOUS
 10
139.6196857852
 20
225.0008653375
 40
0.75
 50
180.0
 51
270.0
  0
ARC
  8
0
 62
7
  6
CONTINUOUS
 10
144.1196570589
 20
225.0008653375
 40
0.75
 50
270.0
 51
360.0
  0
ARC
  8
0
 62
7
  6
CONTINUOUS
 10
153.3736857852
 20
225.0008653375
 40
0.75
 50
180.0
 51
270.0
  0
ARC
  8
0
 62
7
  6
CONTINUOUS
 10
157.8736570589
 20
225.0008653375
 40
0.75
 50
270.0
 51
360.0
  0
ARC
  8
0
 62
7
  6
CONTINUOUS
 10
120.173671422
 20
225.0008653375
 40
0.75
 50
180.0010899163
 51
269.9991057712
  0
ARC
  8
0
 62
7
  6
CONTINUOUS
 10
174.273671422
 20
224.4008653375
 40
0.15
 50
270.0
 51
360.0
  0
ARC
  8
0
 62
7
  6
CONTINUOUS
 10
165.973671422
 20
224.4008653375
 40
0.15
 50
180.0
 51
270.0
  0
ARC
  8
0
 62
7
  6
CONTINUOUS
 10
195.973671422
 20
224.4008653375
 40
0.15
 50
270.0
 51
360.0
  0
ARC
  8
0
 62
7
  6
CONTINUOUS
 10
183.4986857852
 20
225.0008653375
 40
0.75
 50
180.0
 51
270.0
  0
ARC
  8
0
 62
7
  6
CONTINUOUS
 10
187.9986570589
 20
225.0008653375
 40
0.75
 50
270.0
 51
360.0
  0
ARC
  8
0
 62
7
  6
CONTINUOUS
 10
128.773671422
 20
108.5995967464
 40
4.0
 50
224.4153085972
 51
315.5846914028
  0
ARC
  8
0
 62
7
  6
CONTINUOUS
 10
126.2736716243
 20
106.1501067121
 40
0.5000000085
 50
179.9999665939
 51
224.4152685099
  0
ARC
  8
AXES
 62
7
  6
CONTINUOUS
 10
131.523671422
 20
112.6689318012
 40
0.5
 50
189.9390834346
 51
194.2
  0
ARC
  8
AXES
 62
7
  6
CONTINUOUS
 10
131.523671422
 20
112.6689318012
 40
0.5
 50
185.048130284
 51
189.1496625574
  0
ARC
  8
AXES
 62
7
  6
CONTINUOUS
 10
131.523671422
 20
112.6689318012
 40
0.5
 50
180.0
 51
184.2617680015
  0
ARC
  8
0
 62
7
  6
CONTINUOUS
 10
131.523671422
 20
112.6689318012
 40
0.5
 50
180.0000879381
 51
194.1999523252
  0
ARC
  8
AXES
 62
7
  6
CONTINUOUS
 10
126.023671422
 20
112.6689318012
 40
0.5
 50
345.8
 51
350.0603159783
  0
ARC
  8
AXES
 62
7
  6
CONTINUOUS
 10
126.023671422
 20
112.6689318012
 40
0.5
 50
350.8517291977
 51
354.9513625882
  0
ARC
  8
AXES
 62
7
  6
CONTINUOUS
 10
126.023671422
 20
112.6689318012
 40
0.5
 50
355.7373127473
 51
360.0
  0
ARC
  8
0
 62
7
  6
CONTINUOUS
 10
126.023671422
 20
112.6689318012
 40
0.5
 50
345.8000232447
 51
0.0000037398
  0
ARC
  8
0
 62
7
  6
CONTINUOUS
 10
131.273671422
 20
106.1501070036
 40
0.5
 50
315.5846914028
 51
360.0
  0
ARC
  8
0
 62
7
  6
CONTINUOUS
 10
131.623671422
 20
109.6239988804
 40
0.15
 50
0.0
 51
14.2
  0
ARC
  8
AXES
 62
7
  6
CONTINUOUS
 10
131.623671422
 20
109.6239988804
 40
0.15
 50
0.0
 51
14.2
  0
ARC
  8
0
 62
7
  6
CONTINUOUS
 10
125.923671422
 20
109.6239988804
 40
0.15
 50
165.8
 51
180.0
  0
ARC
  8
AXES
 62
7
  6
CONTINUOUS
 10
125.923671422
 20
109.6239988804
 40
0.15
 50
165.8
 51
180.0
  0
ARC
  8
0
 62
7
  6
CONTINUOUS
 10
133.023671422
 20
118.8655967464
 40
2.0
 50
89.9995342879
 51
180.0004622983
  0
ARC
  8
0
 62
7
  6
CONTINUOUS
 10
137.619671422
 20
118.8655967464
 40
2.0
 50
359.9995443416
 51
90.0004725774
  0
ARC
  8
0
 62
7
  6
CONTINUOUS
 10
124.523671422
 20
118.8655967464
 40
2.0
 50
359.9995358628
 51
90.000476611
  0
ARC
  8
0
 62
7
  6
CONTINUOUS
 10
121.177671422
 20
121.8655967464
 40
1.0
 50
180.0
 51
270.0
  0
ARC
  8
0
 62
7
  6
CONTINUOUS
 10
141.369671422
 20
109.1395967464
 40
4.54
 50
240.3272196412
 51
270.0
  0
ARC
  8
0
 62
7
  6
CONTINUOUS
 10
142.369671422
 20
109.1395967464
 40
4.54
 50
270.0
 51
299.6727803588
  0
ARC
  8
0
 62
7
  6
CONTINUOUS
 10
155.123671422
 20
109.0995967464
 40
4.5
 50
240.0002375645
 51
270.0
  0
ARC
  8
0
 62
7
  6
CONTINUOUS
 10
156.123671422
 20
109.0995967464
 40
4.5
 50
270.0
 51
299.9997624355
  0
ARC
  8
0
 62
7
  6
CONTINUOUS
 10
139.3696855105
 20
105.62937501
 40
0.5000000044
 50
180.0000132834
 51
240.3272535677
  0
ARC
  8
0
 62
7
  6
CONTINUOUS
 10
153.1236855185
 20
105.6354869514
 40
0.5000000045
 50
180.0000129172
 51
240.0002704858
  0
ARC
  8
AXES
 62
7
  6
CONTINUOUS
 10
139.119671422
 20
112.6688750386
 40
0.5
 50
355.7360267072
 51
360.0
  0
ARC
  8
AXES
 62
7
  6
CONTINUOUS
 10
139.119671422
 20
112.6688750386
 40
0.5
 50
350.850990899
 51
354.9518891788
  0
ARC
  8
AXES
 62
7
  6
CONTINUOUS
 10
139.119671422
 20
112.6688750386
 40
0.5
 50
345.8
 51
350.0605334323
  0
ARC
  8
0
 62
7
  6
CONTINUOUS
 10
139.119671422
 20
112.6688750386
 40
0.5
 50
345.8000904452
 51
359.9999565166
  0
ARC
  8
AXES
 62
7
  6
CONTINUOUS
 10
144.619671422
 20
112.6688750386
 40
0.5
 50
189.9390834438
 51
194.2
  0
ARC
  8
AXES
 62
7
  6
CONTINUOUS
 10
144.619671422
 20
112.6688750386
 40
0.5
 50
185.0481302597
 51
189.1496625329
  0
ARC
  8
AXES
 62
7
  6
CONTINUOUS
 10
144.619671422
 20
112.6688750386
 40
0.5
 50
180.0
 51
184.2617680114
  0
ARC
  8
0
 62
7
  6
CONTINUOUS
 10
144.619671422
 20
112.6688750386
 40
0.5
 50
180.000087938
 51
194.1999523251
  0
ARC
  8
AXES
 62
7
  6
CONTINUOUS
 10
152.873671422
 20
112.6688750386
 40
0.5
 50
355.7360267073
 51
360.0
  0
ARC
  8
AXES
 62
7
  6
CONTINUOUS
 10
152.873671422
 20
112.6688750386
 40
0.5
 50
350.850990899
 51
354.9518891788
  0
ARC
  8
AXES
 62
7
  6
CONTINUOUS
 10
152.873671422
 20
112.6688750386
 40
0.5
 50
345.8
 51
350.0605334322
  0
ARC
  8
0
 62
7
  6
CONTINUOUS
 10
152.873671422
 20
112.6688750386
 40
0.5
 50
345.8000904452
 51
359.9999565165
  0
ARC
  8
0
 62
7
  6
CONTINUOUS
 10
144.3696570589
 20
105.6293748941
 40
0.5
 50
299.6727803588
 51
360.0
  0
ARC
  8
0
 62
7
  6
CONTINUOUS
 10
139.0196858555
 20
109.6239991583
 40
0.15
 50
165.8001095305
 51
180.0001061659
  0
ARC
  8
AXES
 62
7
  6
CONTINUOUS
 10
139.0196857852
 20
109.6239988804
 40
0.15
 50
165.8
 51
180.0
  0
ARC
  8
0
 62
7
  6
CONTINUOUS
 10
144.7196570589
 20
109.6239988804
 40
0.15
 50
0.0
 51
14.2
  0
ARC
  8
AXES
 62
7
  6
CONTINUOUS
 10
144.7196570589
 20
109.6239988804
 40
0.15
 50
0.0
 51
14.2
  0
ARC
  8
0
 62
7
  6
CONTINUOUS
 10
152.7736858555
 20
109.6239991583
 40
0.15
 50
165.8001095305
 51
180.0001061659
  0
ARC
  8
AXES
 62
7
  6
CONTINUOUS
 10
152.7736857852
 20
109.6239988804
 40
0.15
 50
165.8
 51
180.0
  0
ARC
  8
0
 62
7
  6
CONTINUOUS
 10
146.819671422
 20
118.4995967464
 40
2.7
 50
89.9996390188
 51
180.0003641097
  0
ARC
  8
0
 62
7
  6
CONTINUOUS
 10
150.673671422
 20
118.4995967464
 40
2.7
 50
359.9996449448
 51
90.0003701983
  0
ARC
  8
0
 62
7
  6
CONTINUOUS
 10
128.773671422
 20
126.4535967464
 40
4.104
 50
179.999750344
 51
0.0002787581
  0
ARC
  8
0
 62
7
  6
CONTINUOUS
 10
142.519671422
 20
125.9995967464
 40
3.85
 50
269.9997306261
 51
0.0002434208
  0
ARC
  8
0
 62
7
  6
CONTINUOUS
 10
141.219671422
 20
125.9995967464
 40
3.85
 50
179.9997298041
 51
270.000242252
  0
ARC
  8
0
 62
7
  6
CONTINUOUS
 10
156.523671422
 20
125.9995967464
 40
3.85
 50
269.9997306261
 51
0.0002434208
  0
ARC
  8
0
 62
7
  6
CONTINUOUS
 10
154.723671422
 20
125.9995967464
 40
3.85
 50
179.9997298041
 51
270.000242252
  0
ARC
  8
0
 62
7
  6
CONTINUOUS
 10
146.365671422
 20
137.9495967464
 40
0.75
 50
90.0
 51
180.0
  0
ARC
  8
0
 62
7
  6
CONTINUOUS
 10
150.877671422
 20
137.9495967464
 40
0.75
 50
0.0
 51
90.0
  0
ARC
  8
0
 62
7
  6
CONTINUOUS
 10
120.173671422
 20
137.9495967464
 40
0.75
 50
90.0
 51
180.0
  0
ARC
  8
0
 62
7
  6
CONTINUOUS
 10
124.673671422
 20
137.9495967464
 40
0.75
 50
0.0
 51
90.0
  0
ARC
  8
0
 62
7
  6
CONTINUOUS
 10
132.873671422
 20
137.9495967464
 40
0.75
 50
90.0
 51
180.0
  0
ARC
  8
0
 62
7
  6
CONTINUOUS
 10
137.373671422
 20
137.9495967464
 40
0.75
 50
0.0
 51
90.0
  0
ARC
  8
0
 62
7
  6
CONTINUOUS
 10
132.377671422
 20
130.6373184542
 40
0.5
 50
359.9999962555
 51
14.1999767791
  0
ARC
  8
0
 62
7
  6
CONTINUOUS
 10
145.869671422
 20
130.6373184542
 40
0.5
 50
359.9999962556
 51
14.1999767791
  0
ARC
  8
0
 62
7
  6
CONTINUOUS
 10
137.869671422
 20
130.6373184542
 40
0.5
 50
165.7999953749
 51
179.9999803326
  0
ARC
  8
0
 62
7
  6
CONTINUOUS
 10
151.373671422
 20
130.6373184542
 40
0.5
 50
165.7999953749
 51
179.9999803326
  0
ARC
  8
0
 62
7
  6
CONTINUOUS
 10
119.677671422
 20
130.6373184542
 40
0.5
 50
359.9999962556
 51
14.1999767792
  0
ARC
  8
0
 62
7
  6
CONTINUOUS
 10
125.169671422
 20
130.6373184542
 40
0.5
 50
165.8000232515
 51
180.0000037413
  0
ARC
  8
0
 62
7
  6
CONTINUOUS
 10
125.273671422
 20
133.6980592211
 40
0.15
 50
345.8
 51
360.0
  0
ARC
  8
0
 62
7
  6
CONTINUOUS
 10
132.2736716693
 20
133.6980582437
 40
0.15
 50
179.9996266605
 51
194.1996148925
  0
ARC
  8
0
 62
7
  6
CONTINUOUS
 10
137.973671422
 20
133.6980592211
 40
0.15
 50
345.8
 51
360.0
  0
ARC
  8
0
 62
7
  6
CONTINUOUS
 10
145.7656716693
 20
133.6980582437
 40
0.15
 50
179.9996266605
 51
194.1996148925
  0
ARC
  8
0
 62
7
  6
CONTINUOUS
 10
151.477671422
 20
133.6980592211
 40
0.15
 50
345.8
 51
360.0
  0
ARC
  8
0
 62
7
  6
CONTINUOUS
 10
119.5736716693
 20
133.6980582437
 40
0.15
 50
179.9996266605
 51
194.1996148925
  0
ARC
  8
0
 62
7
  6
CONTINUOUS
 10
169.623671422
 20
109.0995967464
 40
4.5
 50
240.0002375645
 51
270.0
  0
ARC
  8
0
 62
7
  6
CONTINUOUS
 10
170.623671422
 20
109.0995967464
 40
4.5
 50
270.0
 51
299.9997624355
  0
ARC
  8
AXES
 62
7
  6
CONTINUOUS
 10
167.323671422
 20
108.9295967464
 40
1.5
 50
94.1260708806
 51
257.7538206432
  0
ARC
  8
AXES
 62
7
  6
CONTINUOUS
 10
172.923671422
 20
108.9295967464
 40
1.5
 50
282.2461793568
 51
85.8739291194
  0
ARC
  8
0
 62
7
  6
CONTINUOUS
 10
167.6236855185
 20
105.6354869514
 40
0.5000000045
 50
180.0000129172
 51
240.0002704858
  0
ARC
  8
0
 62
7
  6
CONTINUOUS
 10
158.1236570589
 20
105.6354868387
 40
0.5
 50
299.9997624355
 51
360.0
  0
ARC
  8
0
 62
7
  6
CONTINUOUS
 10
172.6236570589
 20
105.6354868387
 40
0.5
 50
299.9997624355
 51
360.0
  0
ARC
  8
0
 62
7
  6
CONTINUOUS
 10
172.9736570589
 20
109.6239988804
 40
0.15
 50
0.0
 51
14.2
  0
ARC
  8
AXES
 62
7
  6
CONTINUOUS
 10
173.042391059
 20
110.5753201885
 40
0.15
 50
194.2
 51
265.8739291194
  0
ARC
  8
AXES
 62
7
  6
CONTINUOUS
 10
173.2736570589
 20
107.3171420791
 40
0.15
 50
102.2461793568
 51
180.0
  0
ARC
  8
AXES
 62
7
  6
CONTINUOUS
 10
167.2049517851
 20
110.5753201885
 40
0.15
 50
274.1260708806
 51
345.8
  0
ARC
  8
AXES
 62
7
  6
CONTINUOUS
 10
166.9736857852
 20
107.3171420791
 40
0.15
 50
0.0
 51
77.7538206432
  0
ARC
  8
AXES
 62
7
  6
CONTINUOUS
 10
158.4736570589
 20
109.6239988804
 40
0.15
 50
0.0
 51
14.2
  0
ARC
  8
0
 62
7
  6
CONTINUOUS
 10
158.4736567515
 20
109.624000095
 40
0.15
 50
359.9995360327
 51
14.1995214072
  0
ARC
  8
0
 62
7
  6
CONTINUOUS
 10
167.2736857852
 20
109.6239988804
 40
0.15
 50
165.8
 51
180.0
  0
ARC
  8
0
 62
7
  6
CONTINUOUS
 10
175.373671422
 20
118.3495967464
 40
3.0
 50
89.999699772
 51
180.0003067688
  0
ARC
  8
0
 62
7
  6
CONTINUOUS
 10
160.573671422
 20
118.4995967464
 40
2.7
 50
89.9996032443
 51
180.0003674198
  0
ARC
  8
0
 62
7
  6
CONTINUOUS
 10
165.173671422
 20
118.4995967464
 40
2.7
 50
359.9996063837
 51
90.0003700843
  0
ARC
  8
AXES
 62
7
  6
CONTINUOUS
 10
158.373671422
 20
112.6688750386
 40
0.5
 50
189.9396841642
 51
194.2
  0
ARC
  8
AXES
 62
7
  6
CONTINUOUS
 10
158.373671422
 20
112.6688750386
 40
0.5
 50
185.0486370375
 51
189.1482704277
  0
ARC
  8
AXES
 62
7
  6
CONTINUOUS
 10
158.373671422
 20
112.6688750386
 40
0.5
 50
180.0
 51
184.2626873985
  0
ARC
  8
0
 62
7
  6
CONTINUOUS
 10
158.373671422
 20
112.6688750386
 40
0.5
 50
179.999996257
 51
194.199976786
  0
ARC
  8
AXES
 62
7
  6
CONTINUOUS
 10
167.373671422
 20
112.6688750386
 40
0.5
 50
355.7351544564
 51
360.0
  0
ARC
  8
AXES
 62
7
  6
CONTINUOUS
 10
167.373671422
 20
112.6688750386
 40
0.5
 50
350.8496588582
 51
354.9516469415
  0
ARC
  8
AXES
 62
7
  6
CONTINUOUS
 10
167.373671422
 20
112.6688750386
 40
0.5
 50
345.8
 51
350.0611589844
  0
ARC
  8
0
 62
7
  6
CONTINUOUS
 10
167.373671422
 20
112.6688750386
 40
0.5
 50
345.7999953774
 51
359.9999803365
  0
ARC
  8
AXES
 62
7
  6
CONTINUOUS
 10
172.873671422
 20
112.6688750386
 40
0.5
 50
189.9390834437
 51
194.2
  0
ARC
  8
AXES
 62
7
  6
CONTINUOUS
 10
172.873671422
 20
112.6688750386
 40
0.5
 50
185.0481302597
 51
189.1496625329
  0
ARC
  8
AXES
 62
7
  6
CONTINUOUS
 10
172.873671422
 20
112.6688750386
 40
0.5
 50
180.0
 51
184.2617680115
  0
ARC
  8
0
 62
7
  6
CONTINUOUS
 10
172.873671422
 20
112.6688750386
 40
0.5
 50
180.000087938
 51
194.1999523251
  0
ARC
  8
0
 62
7
  6
CONTINUOUS
 10
185.248671422
 20
109.0995967464
 40
4.5
 50
240.0002375645
 51
270.0
  0
ARC
  8
0
 62
7
  6
CONTINUOUS
 10
186.248671422
 20
109.0995967464
 40
4.5
 50
270.0
 51
299.9997624355
  0
ARC
  8
0
 62
7
  6
CONTINUOUS
 10
183.2486855185
 20
105.6354869514
 40
0.5000000045
 50
180.0000129172
 51
240.0002704858
  0
ARC
  8
0
 62
7
  6
CONTINUOUS
 10
188.2486570589
 20
105.6354868387
 40
0.5
 50
299.9997624355
 51
360.0
  0
ARC
  8
AXES
 62
7
  6
CONTINUOUS
 10
182.8986857852
 20
109.6239988804
 40
0.15
 50
165.8
 51
180.0
  0
ARC
  8
0
 62
7
  6
CONTINUOUS
 10
182.8986858555
 20
109.6239991583
 40
0.15
 50
165.8001095305
 51
180.0001061659
  0
ARC
  8
AXES
 62
7
  6
CONTINUOUS
 10
188.5986570589
 20
109.6239988804
 40
0.15
 50
0.0
 51
14.2
  0
ARC
  8
0
 62
7
  6
CONTINUOUS
 10
188.5986567515
 20
109.624000095
 40
0.15
 50
359.9995360327
 51
14.1995214071
  0
ARC
  8
AXES
 62
7
  6
CONTINUOUS
 10
193.998671422
 20
115.9482349014
 40
6.0
 50
174.8452426403
 51
176.0406804051
  0
ARC
  8
AXES
 62
7
  6
CONTINUOUS
 10
193.998671422
 20
115.9482349014
 40
6.0
 50
169.9081331317
 51
171.9672755463
  0
ARC
  8
0
 62
7
  6
CONTINUOUS
 10
193.998671422
 20
115.9482349014
 40
6.0
 50
109.6690910198
 51
180.0001709168
  0
ARC
  8
0
 62
7
  6
CONTINUOUS
 10
179.498671422
 20
117.3495967464
 40
4.0
 50
359.9997649285
 51
90.0002418664
  0
ARC
  8
AXES
 62
7
  6
CONTINUOUS
 10
182.998671422
 20
112.6688750386
 40
0.5
 50
355.7360267073
 51
360.0
  0
ARC
  8
AXES
 62
7
  6
CONTINUOUS
 10
182.998671422
 20
112.6688750386
 40
0.5
 50
350.850990899
 51
354.9518891787
  0
ARC
  8
AXES
 62
7
  6
CONTINUOUS
 10
182.998671422
 20
112.6688750386
 40
0.5
 50
345.8
 51
350.0605334322
  0
ARC
  8
0
 62
7
  6
CONTINUOUS
 10
182.998671422
 20
112.6688750386
 40
0.5
 50
345.8000904452
 51
359.9999565165
  0
ARC
  8
AXES
 62
7
  6
CONTINUOUS
 10
188.498671422
 20
112.6688750386
 40
0.5
 50
189.9396841641
 51
194.2
  0
ARC
  8
AXES
 62
7
  6
CONTINUOUS
 10
188.498671422
 20
112.6688750386
 40
0.5
 50
185.0486370375
 51
189.1482704278
  0
ARC
  8
AXES
 62
7
  6
CONTINUOUS
 10
188.498671422
 20
112.6688750386
 40
0.5
 50
180.0
 51
184.2626873985
  0
ARC
  8
0
 62
7
  6
CONTINUOUS
 10
188.498671422
 20
112.6688750386
 40
0.5
 50
179.999996257
 51
194.199976786
  0
ARC
  8
0
 62
7
  6
CONTINUOUS
 10
186.123671422
 20
127.3995967464
 40
5.5
 50
269.9997742646
 51
329.2118097615
  0
ARC
  8
0
 62
7
  6
CONTINUOUS
 10
170.873671422
 20
126.4995967464
 40
4.5
 50
269.9997425141
 51
0.0002294049
  0
ARC
  8
0
 62
7
  6
CONTINUOUS
 10
169.373671422
 20
126.4995967464
 40
4.5
 50
179.9997419725
 51
270.0002283809
  0
ARC
  8
0
 62
7
  6
CONTINUOUS
 10
184.373671422
 20
126.3995967464
 40
4.5
 50
179.9997414976
 51
270.0002283413
  0
ARC
  8
0
 62
7
  6
CONTINUOUS
 10
193.123671422
 20
125.1931485922
 40
3.0
 50
289.6692853863
 51
360.0
  0
ARC
  8
0
 62
7
  6
CONTINUOUS
 10
193.623671422
 20
136.6440951195
 40
2.5
 50
359.9994727016
 51
109.6692853863
  0
ARC
  8
0
 62
7
  6
CONTINUOUS
 10
160.369671422
 20
137.9495967464
 40
0.75
 50
90.0
 51
180.0
  0
ARC
  8
0
 62
7
  6
CONTINUOUS
 10
164.877671422
 20
137.9495967464
 40
0.75
 50
0.0
 51
90.0
  0
ARC
  8
0
 62
7
  6
CONTINUOUS
 10
179.877671422
 20
137.9495967464
 40
0.75
 50
0.0
 51
90.0
  0
ARC
  8
0
 62
7
  6
CONTINUOUS
 10
175.369671422
 20
137.9495967464
 40
0.75
 50
90.0
 51
180.0
  0
ARC
  8
0
 62
7
  6
CONTINUOUS
 10
159.873671422
 20
130.6373184542
 40
0.5
 50
359.9999962556
 51
14.1999767791
  0
ARC
  8
0
 62
7
  6
CONTINUOUS
 10
174.873671422
 20
130.6373184542
 40
0.5
 50
359.9999962556
 51
14.1999767792
  0
ARC
  8
0
 62
7
  6
CONTINUOUS
 10
165.373671422
 20
130.6373184542
 40
0.5
 50
165.7999953749
 51
179.9999803326
  0
ARC
  8
0
 62
7
  6
CONTINUOUS
 10
180.373671422
 20
130.637322932
 40
0.5
 50
165.8010059352
 51
179.9999803496
  0
ARC
  8
0
 62
7
  6
CONTINUOUS
 10
190.719671422
 20
124.6611146851
 40
0.15
 50
329.2109930998
 51
0.0009496843
  0
ARC
  8
0
 62
7
  6
CONTINUOUS
 10
180.477671422
 20
133.6982788907
 40
0.15
 50
345.8010105549
 51
360.0
  0
ARC
  8
0
 62
7
  6
CONTINUOUS
 10
191.019671422
 20
138.2089191541
 40
0.15
 50
109.6692853863
 51
180.0
  0
ARC
  8
0
 62
7
  6
CONTINUOUS
 10
159.7696716693
 20
133.6980582437
 40
0.15
 50
179.9996266605
 51
194.1996148925
  0
ARC
  8
0
 62
7
  6
CONTINUOUS
 10
165.477671422
 20
133.6980592211
 40
0.15
 50
345.8
 51
360.0
  0
ARC
  8
0
 62
7
  6
CONTINUOUS
 10
174.7696716693
 20
133.6980582437
 40
0.15
 50
179.9996266605
 51
194.1996148925
  0
ARC
  8
0
 62
7
  6
CONTINUOUS
 10
239.0710391741
 20
121.6495967464
 40
43.15
 50
19.4758611162
 51
19.8639975354
  0
ARC
  8
0
 62
7
  6
CONTINUOUS
 10
239.0710391741
 20
121.6495967464
 40
43.15
 50
340.5287793655
 51
19.4712206345
  0
ARC
  8
0
 62
7
  6
CONTINUOUS
 10
271.9820131521
 20
108.5995967464
 40
4.0
 50
180.0
 51
270.0
  0
ARC
  8
AXES
 62
7
  6
CONTINUOUS
 10
273.9820131521
 20
108.9495967464
 40
2.1
 50
180.0
 51
360.0
  0
ARC
  8
AXES
 62
7
  6
CONTINUOUS
 10
273.9820131521
 20
116.9995967464
 40
2.1
 50
0.0
 51
180.0
  0
ARC
  8
0
 62
7
  6
CONTINUOUS
 10
268.1320131521
 20
121.7495967464
 40
0.15
 50
146.25
 51
180.0
  0
ARC
  8
0
 62
7
  6
CONTINUOUS
 10
268.1320131521
 20
121.9089797698
 40
0.1499999671
 50
179.9998090059
 51
252.634248814
  0
ARC
  8
0
 62
7
  6
CONTINUOUS
 10
275.9820131521
 20
108.5995967464
 40
4.0
 50
270.0
 51
340.5287793655
  0
ARC
  8
0
 62
7
  6
CONTINUOUS
 10
282.0663650421
 20
121.0155960907
 40
0.1499999543
 50
269.9999889304
 51
359.1554400036
  0
ARC
  8
0
 62
7
  6
CONTINUOUS
 10
273.9820131521
 20
140.6155967464
 40
19.75
 50
252.6343058201
 51
270.0
  0
ARC
  8
0
 62
7
  6
CONTINUOUS
 10
271.9820131521
 20
134.6995967464
 40
4.0
 50
90.0
 51
180.0
  0
ARC
  8
0
 62
7
  6
CONTINUOUS
 10
275.9820131521
 20
134.6995967464
 40
4.0
 50
19.4712206345
 51
90.0
  0
CIRCLE
  8
AXES
 62
7
  6
CONTINUOUS
 10
273.9820131521
 20
134.3495967464
 40
2.1
  0
ENDSEC
  0
EOF
