  0
SECTION
  2
HEADER
  9
$EXTMAX
 10
420.0
 20
297.0
 30
0.0
  9
$EXTMIN
 10
0.0
 20
0.0
 30
0.0
  9
$LIMMIN
 10
0.0
 20
0.0
  9
$LIMMAX
 10
420.0
 20
297.0
  9
$VIEWCTR
 10
210.0
 20
148.5
  9
$VIEWSIZE
 40
297.0
  9
$CLAYER
  8
0
  9
$LTSCALE
 40
23.1
  9
$CELTYPE
  6
BYLAYER
  9
$DIMSCALE
 40
1.0
  9
$DIMASZ
 40
3.5
  9
$DIMEXO
 40
2.625
  9
$DIMDLI
 40
15.96
  9
$DIMEXE
 40
7.56
  9
$DIMCEN
 40
3.78
  9
$DIMLFAC
 40
1.0
  9
$DIMBLK
  1
_FILLED
  9
$DIMTXT
 40
3.5
  9
$PDMODE
 70
3
  9
$PDSIZE
 40
0.3125
  9
$TILEMODE
 70
1
  0
ENDSEC
  0
SECTION
  2
TABLES
  0
TABLE
  2
LTYPE
 70
6
  0
LTYPE
  2
BYBLOCK
 70
0
  3

 72
65
 73
0
 40
0.0
  0
LTYPE
  2
BYLAYER
 70
0
  3

 72
65
 73
0
 40
0.0
  0
LTYPE
  2
CONTINUOUS
 70
64
  3
Solid line
 72
65
 73
0
 40
0.0
  0
LTYPE
  2
CENTER
 70
64
  3
____ _ ____ _ ____ _ ____ _ ____ _ ____ _ ____
 72
65
 73
4
 40
0.6
 49
0.375
 49
-0.075
 49
0.075
 49
-0.075
  0
LTYPE
  2
HIDDEN
 70
64
  3
- - - - - - - - - - - - - - - - - - - -
 72
65
 73
2
 40
0.2
 49
0.1
 49
-0.1
  0
LTYPE
  2
PHANTOM
 70
64
  3
_____ _ _ _____ _ _ _____ _ _ _____
 72
65
 73
6
 40
0.8
 49
0.45
 49
-0.05
 49
0.1
 49
-0.05
 49
0.1
 49
-0.05
  0
LTYPE
  2
DOT
 70
64
  3
. . . . . . . . . . . . . . . . . . . .
 72
65
 73
2
 40
0.2
 49
0.1
 49
-0.1
  0
LTYPE
  2
DASHED
 70
64
  3
- - - - - - - - - - - - - - - - - - - -
 72
65
 73
2
 40
0.2
 49
0.1
 49
-0.1
  0
ENDTAB
  0
TABLE
  2
LAYER
 70
36
  0
LAYER
  2
0
 70
0
 62
7
  6
CONTINUOUS
  0
LAYER
  2
DEFAULT_1
 70
0
 62
7
  6
CENTER
  0
LAYER
  2
DEFAULT_2
 70
0
 62
8
  6
HIDDEN
  0
LAYER
  2
DEFAULT_3
 70
0
 62
7
  6
PHANTOM
  0
LAYER
  2
AXES
 70
0
 62
7
  6
CONTINUOUS
  0
LAYER
  2
CSYS
 70
0
 62
7
  6
CONTINUOUS
  0
LAYER
  2
CURVE
 70
0
 62
7
  6
CONTINUOUS
  0
LAYER
  2
CURVES
 70
0
 62
7
  6
CONTINUOUS
  0
LAYER
  2
PLANES
 70
0
 62
7
  6
CONTINUOUS
  0
LAYER
  2
QUILT
 70
0
 62
7
  6
CONTINUOUS
  0
LAYER
  2
SURF-A
 70
0
 62
7
  6
CONTINUOUS
  0
LAYER
  2
SURFACE
 70
0
 62
7
  6
CONTINUOUS
  0
ENDTAB
  0
TABLE
  2
STYLE
 70
1
  0
STYLE
  2
STANDARD
 70
0
 40
0.0
 41
0.8
 50
0.0
 71
0
 42
0.2
  3
txt
  4

  0
STYLE
  2
TEXTSTYLE_1
 70
0
 40
0.0
 41
0.8
 50
0.0
 71
0
 42
0.2
  3
gdt
  4

  0
STYLE
  2
TEXTSTYLE_2
 70
0
 40
0.0
 41
0.6
 50
0.0
 71
0
 42
0.2
  3
txt
  4

  0
STYLE
  2
TEXTSTYLE_3
 70
0
 40
0.0
 41
1.0
 50
0.0
 71
0
 42
0.2
  3
ftb_____.ttf
  4

  0
STYLE
  2
TEXTSTYLE_4
 70
0
 40
0.0
 41
1.0
 50
0.0
 71
0
 42
0.2
  3
fti_____.ttf
  4

  0
STYLE
  2
TEXTSTYLE_5
 70
0
 40
0.0
 41
1.0
 50
0.0
 71
0
 42
0.2
  3
frutiger light.ttf
  4

  0
STYLE
  2
TEXTSTYLE_6
 70
0
 40
0.0
 41
0.7
 50
0.0
 71
0
 42
0.2
  3
txt
  4

  0
STYLE
  2
TEXTSTYLE_7
 70
0
 40
0.0
 41
0.5
 50
0.0
 71
0
 42
0.2
  3
txt
  4

  0
ENDTAB
  0
ENDSEC
  0
SECTION
  2
BLOCKS
  0
BLOCK
  8
0
 62
2
  6
CONTINUOUS
  2
SYMBOL_5_BL1
 70
64
 10
382.7840918555
 20
35.5067593403
  0
TEXT
  8
0
 62
7
  6
CONTINUOUS
 10
373.842376864
 20
30.5995157174
  7
TEXTSTYLE_4
 40
1.0655737705
  1
The brand for plastic modular belts and chains
 41
1.0
 72
0
  0
LINE
  8
0
 62
7
  6
CONTINUOUS
 10
358.7621602445
 20
36.0805298321
 11
358.7621602445
 21
33.9493822911
  0
LINE
  8
0
 62
7
  6
CONTINUOUS
 10
359.0512227376
 20
30.9584509954
 11
359.0512227376
 21
31.0552420547
  0
LINE
  8
0
 62
7
  6
CONTINUOUS
 10
358.7621602445
 20
31.0229783683
 11
358.8199727462
 21
30.8293962497
  0
LINE
  8
0
 62
7
  6
CONTINUOUS
 10
360.1556028675
 20
33.867415078
 11
360.1556028675
 21
36.0805298321
  0
LINE
  8
0
 62
7
  6
CONTINUOUS
 10
361.0746601894
 20
32.0231527829
 11
361.0746601894
 21
30.5067593403
  0
LINE
  8
0
 62
7
  6
CONTINUOUS
 10
361.3637227445
 20
30.5067593403
 11
361.3637227445
 21
31.2488242184
  0
LINE
  8
0
 62
7
  6
CONTINUOUS
 10
361.3637227445
 20
31.3778789641
 11
361.3637227445
 21
32.0231527829
  0
LINE
  8
0
 62
7
  6
CONTINUOUS
 10
358.8199727462
 20
31.216560532
 11
358.7621602445
 21
31.0229783683
  0
LINE
  8
0
 62
7
  6
CONTINUOUS
 10
359.1668477307
 20
30.7971325633
 11
359.0512227376
 21
30.9584509954
  0
LINE
  8
0
 62
7
  6
CONTINUOUS
 10
360.2652852997
 20
31.3133515913
 11
360.3230977445
 21
31.216560532
  0
LINE
  8
0
 62
7
  6
CONTINUOUS
 10
360.6121602997
 20
31.216560532
 11
360.5543476894
 21
31.3456152777
  0
LINE
  8
0
 62
7
  6
CONTINUOUS
 10
362.0408487691
 20
36.0805298321
 11
362.0408487691
 21
34.2772511436
  0
LINE
  8
0
 62
7
  6
CONTINUOUS
 10
362.0408487691
 20
32.9657757338
 11
362.0408487691
 21
32.3100380288
  0
LINE
  8
0
 62
7
  6
CONTINUOUS
 10
362.4043477445
 20
31.1520331591
 11
362.4043477445
 21
30.5067593403
  0
LINE
  8
0
 62
7
  6
CONTINUOUS
 10
362.6934101343
 20
30.5067593403
 11
362.6934101343
 21
31.1520331591
  0
LINE
  8
0
 62
7
  6
CONTINUOUS
 10
359.0512227376
 20
31.0552420547
 11
359.1090352445
 21
31.1842968456
  0
LINE
  8
0
 62
7
  6
CONTINUOUS
 10
358.8199727462
 20
30.8293962497
 11
358.9355977445
 21
30.7003414814
  0
LINE
  8
0
 62
7
  6
CONTINUOUS
 10
362.3465351343
 20
31.2810879048
 11
362.4043477445
 21
31.1520331591
  0
LINE
  8
0
 62
7
  6
CONTINUOUS
 10
363.1559103548
 20
30.7971325633
 11
363.2137226343
 21
30.668077795
  0
LINE
  8
0
 62
7
  6
CONTINUOUS
 10
362.6934101343
 20
31.1520331591
 11
362.6355978548
 21
31.3133515913
  0
LINE
  8
0
 62
7
  6
CONTINUOUS
 10
363.1559103548
 20
31.3456152777
 11
363.1559103548
 21
31.2810879048
  0
LINE
  8
0
 62
7
  6
CONTINUOUS
 10
363.1559103548
 20
30.8939236226
 11
363.1559103548
 21
30.7971325633
  0
LINE
  8
0
 62
7
  6
CONTINUOUS
 10
363.4342913921
 20
32.3100380288
 11
363.4342913921
 21
36.0805298321
  0
LINE
  8
0
 62
7
  6
CONTINUOUS
 10
363.4449727445
 20
30.7648688543
 11
363.4449727445
 21
30.8293962497
  0
LINE
  8
0
 62
7
  6
CONTINUOUS
 10
363.7621602445
 20
36.0805298321
 11
363.7621602445
 21
32.3100380288
  0
LINE
  8
0
 62
7
  6
CONTINUOUS
 10
360.5543476894
 20
30.7003414814
 11
360.6121602997
 21
30.8293962497
  0
LINE
  8
0
 62
7
  6
CONTINUOUS
 10
364.9480979651
 20
30.6035504109
 11
364.890285024
 21
30.7648688543
  0
LINE
  8
0
 62
7
  6
CONTINUOUS
 10
364.6012229651
 20
31.2810879048
 11
364.6012229651
 21
31.1842968456
  0
LINE
  8
0
 62
7
  6
CONTINUOUS
 10
364.6012229651
 20
31.0552420547
 11
364.6012229651
 21
30.8616599362
  0
LINE
  8
0
 62
7
  6
CONTINUOUS
 10
364.890285024
 20
30.7648688543
 11
364.890285024
 21
31.2810879048
  0
LINE
  8
0
 62
7
  6
CONTINUOUS
 10
365.1556028675
 20
32.3100380288
 11
365.1556028675
 21
34.1133167174
  0
LINE
  8
0
 62
7
  6
CONTINUOUS
 10
365.1556028675
 20
35.4247921272
 11
365.1556028675
 21
36.0805298321
  0
LINE
  8
0
 62
7
  6
CONTINUOUS
 10
365.4684104651
 20
32.0231527829
 11
365.4684104651
 21
31.8618343508
  0
LINE
  8
0
 62
7
  6
CONTINUOUS
 10
365.4684104651
 20
31.5391973962
 11
365.4684104651
 21
30.5067593403
  0
LINE
  8
0
 62
7
  6
CONTINUOUS
 10
365.757472524
 20
30.5067593403
 11
365.757472524
 21
31.5391973962
  0
LINE
  8
0
 62
7
  6
CONTINUOUS
 10
365.757472524
 20
31.8618343508
 11
365.757472524
 21
32.0231527829
  0
LINE
  8
0
 62
7
  6
CONTINUOUS
 10
360.3230977445
 20
30.8293962497
 11
360.2652852997
 21
30.7326051679
  0
LINE
  8
0
 62
7
  6
CONTINUOUS
 10
362.6355978548
 20
31.3133515913
 11
362.5777852445
 21
31.3778789641
  0
LINE
  8
0
 62
7
  6
CONTINUOUS
 10
363.5027853548
 20
30.7003414814
 11
363.4449727445
 21
30.7648688543
  0
LINE
  8
0
 62
7
  6
CONTINUOUS
 10
364.6590352445
 20
30.5712867188
 11
364.716847524
 21
30.5067593403
  0
LINE
  8
0
 62
7
  6
CONTINUOUS
 10
364.6012229651
 20
30.668077795
 11
364.6590352445
 21
30.5712867188
  0
LINE
  8
0
 62
7
  6
CONTINUOUS
 10
365.0059102445
 20
30.5067593403
 11
364.9480979651
 21
30.6035504109
  0
LINE
  8
0
 62
7
  6
CONTINUOUS
 10
364.890285024
 20
31.2810879048
 11
364.8324727445
 21
31.3778789641
  0
LINE
  8
0
 62
7
  6
CONTINUOUS
 10
366.2199727445
 20
31.5391973962
 11
366.2199727445
 21
30.5067593403
  0
LINE
  8
0
 62
7
  6
CONTINUOUS
 10
366.5090354651
 20
30.5067593403
 11
366.5090354651
 21
31.2488242184
  0
LINE
  8
0
 62
7
  6
CONTINUOUS
 10
366.5090354651
 20
31.3778789641
 11
366.5090354651
 21
31.5391973962
  0
LINE
  8
0
 62
7
  6
CONTINUOUS
 10
367.0408487691
 20
34.5231527829
 11
367.0408487691
 21
32.3100380288
  0
LINE
  8
0
 62
7
  6
CONTINUOUS
 10
358.9355977445
 20
31.3456152777
 11
358.8199727462
 21
31.216560532
  0
LINE
  8
0
 62
7
  6
CONTINUOUS
 10
359.1090352445
 20
31.1842968456
 11
359.1668477307
 21
31.2488242184
  0
LINE
  8
0
 62
7
  6
CONTINUOUS
 10
358.9355977445
 20
30.7003414814
 11
359.0512227376
 21
30.6358140973
  0
LINE
  8
0
 62
7
  6
CONTINUOUS
 10
359.3402852307
 20
30.7003414814
 11
359.1668477307
 21
30.7971325633
  0
LINE
  8
0
 62
7
  6
CONTINUOUS
 10
364.543410024
 20
31.3456152777
 11
364.6012229651
 21
31.2810879048
  0
LINE
  8
0
 62
7
  6
CONTINUOUS
 10
367.491847524
 20
31.2810879048
 11
367.5496604651
 21
31.1197694727
  0
LINE
  8
0
 62
7
  6
CONTINUOUS
 10
367.838722524
 20
31.1197694727
 11
367.7809102445
 21
31.2810879048
  0
LINE
  8
0
 62
7
  6
CONTINUOUS
 10
367.5496604651
 20
31.1197694727
 11
367.5496604651
 21
30.5067593403
  0
LINE
  8
0
 62
7
  6
CONTINUOUS
 10
367.838722524
 20
30.5067593403
 11
367.838722524
 21
31.1197694727
  0
LINE
  8
0
 62
7
  6
CONTINUOUS
 10
368.3012227445
 20
31.3456152777
 11
368.3012227445
 21
31.2810879048
  0
LINE
  8
0
 62
7
  6
CONTINUOUS
 10
368.4342913921
 20
32.3100380288
 11
368.4342913921
 21
34.4411855698
  0
LINE
  8
0
 62
7
  6
CONTINUOUS
 10
368.7621602445
 20
36.0805298321
 11
368.7621602445
 21
32.3100380288
  0
LINE
  8
0
 62
7
  6
CONTINUOUS
 10
363.4449727445
 20
30.8293962497
 11
363.5027853548
 21
30.926187309
  0
LINE
  8
0
 62
7
  6
CONTINUOUS
 10
359.0512227376
 20
30.6358140973
 11
359.2246602583
 21
30.5712867188
  0
LINE
  8
0
 62
7
  6
CONTINUOUS
 10
360.5543476894
 20
31.3456152777
 11
360.3809101894
 21
31.4424063369
  0
LINE
  8
0
 62
7
  6
CONTINUOUS
 10
363.2137226343
 20
30.668077795
 11
363.3871601343
 21
30.5712867188
  0
LINE
  8
0
 62
7
  6
CONTINUOUS
 10
362.2309102445
 20
31.3456152777
 11
362.3465351343
 21
31.2810879048
  0
LINE
  8
0
 62
7
  6
CONTINUOUS
 10
362.5777852445
 20
31.3778789641
 11
362.4621603548
 21
31.4424063369
  0
LINE
  8
0
 62
7
  6
CONTINUOUS
 10
368.3012227445
 20
30.7648688543
 11
368.4168479651
 21
30.6358140973
  0
LINE
  8
0
 62
7
  6
CONTINUOUS
 10
368.6480977445
 20
30.7003414814
 11
368.5902854651
 21
30.7648688543
  0
LINE
  8
0
 62
7
  6
CONTINUOUS
 10
368.3012227445
 20
31.2810879048
 11
368.4168479651
 21
31.1520331591
  0
LINE
  8
0
 62
7
  6
CONTINUOUS
 10
367.7809102445
 20
31.2810879048
 11
367.7230979651
 21
31.3778789641
  0
LINE
  8
0
 62
7
  6
CONTINUOUS
 10
370.1512223035
 20
30.7003414814
 11
370.1512223035
 21
30.7648688543
  0
LINE
  8
0
 62
7
  6
CONTINUOUS
 10
370.1556028675
 20
32.3100380288
 11
370.1556028675
 21
36.0805298321
  0
LINE
  8
0
 62
7
  6
CONTINUOUS
 10
363.2137226343
 20
31.4101426505
 11
363.1559103548
 21
31.3456152777
  0
LINE
  8
0
 62
7
  6
CONTINUOUS
 10
360.091847717
 20
31.3778789641
 11
360.2652852997
 21
31.3133515913
  0
LINE
  8
0
 62
7
  6
CONTINUOUS
 10
364.8324727445
 20
31.3778789641
 11
364.716847524
 21
31.4424063369
  0
LINE
  8
0
 62
7
  6
CONTINUOUS
 10
368.6480977445
 20
31.216560532
 11
368.5902854651
 21
31.2810879048
  0
LINE
  8
0
 62
7
  6
CONTINUOUS
 10
369.8043479651
 20
30.8293962497
 11
369.8621602445
 21
30.7648688543
  0
LINE
  8
0
 62
7
  6
CONTINUOUS
 10
370.1512223035
 20
30.7648688543
 11
370.0355977445
 21
30.8939236226
  0
LINE
  8
0
 62
7
  6
CONTINUOUS
 10
369.8043479651
 20
31.3456152777
 11
369.8621602445
 21
31.2810879048
  0
LINE
  8
0
 62
7
  6
CONTINUOUS
 10
370.1512223035
 20
31.2810879048
 11
370.0355977445
 21
31.4101426505
  0
LINE
  8
0
 62
7
  6
CONTINUOUS
 10
363.4449727445
 20
31.2810879048
 11
363.5027853548
 21
31.3456152777
  0
LINE
  8
0
 62
7
  6
CONTINUOUS
 10
363.2715352445
 20
31.0229783683
 11
363.1559103548
 21
30.8939236226
  0
LINE
  8
0
 62
7
  6
CONTINUOUS
 10
364.6012229651
 20
30.8616599362
 11
364.543410024
 21
30.7971325633
  0
LINE
  8
0
 62
7
  6
CONTINUOUS
 10
364.543410024
 20
30.6035504109
 11
364.6012229651
 21
30.668077795
  0
LINE
  8
0
 62
7
  6
CONTINUOUS
 10
363.3871601343
 20
30.5712867188
 11
363.5027853548
 21
30.5390230296
  0
LINE
  8
0
 62
7
  6
CONTINUOUS
 10
360.3809101894
 20
31.4424063369
 11
360.1496602445
 21
31.5069337098
  0
LINE
  8
0
 62
7
  6
CONTINUOUS
 10
363.7340351343
 20
30.6358140973
 11
363.5027853548
 21
30.7003414814
  0
LINE
  8
0
 62
7
  6
CONTINUOUS
 10
362.4621603548
 20
31.4424063369
 11
362.2887228548
 21
31.5069337098
  0
LINE
  8
0
 62
7
  6
CONTINUOUS
 10
364.716847524
 20
31.4424063369
 11
364.543410024
 21
31.5069337098
  0
LINE
  8
0
 62
7
  6
CONTINUOUS
 10
367.3762229651
 20
31.3456152777
 11
367.491847524
 21
31.2810879048
  0
LINE
  8
0
 62
7
  6
CONTINUOUS
 10
367.7230979651
 20
31.3778789641
 11
367.6074727445
 21
31.4424063369
  0
LINE
  8
0
 62
7
  6
CONTINUOUS
 10
359.2246602583
 20
30.5712867188
 11
359.3980977583
 21
30.5390230296
  0
LINE
  8
0
 62
7
  6
CONTINUOUS
 10
359.6871602721
 20
30.6358140973
 11
359.3402852307
 21
30.7003414814
  0
LINE
  8
0
 62
7
  6
CONTINUOUS
 10
362.1152853548
 20
31.3778789641
 11
362.2309102445
 21
31.3456152777
  0
LINE
  8
0
 62
7
  6
CONTINUOUS
 10
364.4277854651
 20
31.3778789641
 11
364.543410024
 21
31.3456152777
  0
LINE
  8
0
 62
7
  6
CONTINUOUS
 10
368.7637229651
 20
30.668077795
 11
368.6480977445
 21
30.7003414814
  0
LINE
  8
0
 62
7
  6
CONTINUOUS
 10
367.2605977445
 20
31.3778789641
 11
367.3762229651
 21
31.3456152777
  0
LINE
  8
0
 62
7
  6
CONTINUOUS
 10
368.4168479651
 20
30.6358140973
 11
368.5902854651
 21
30.5712867188
  0
LINE
  8
0
 62
7
  6
CONTINUOUS
 10
367.6074727445
 20
31.4424063369
 11
367.4340352445
 21
31.5069337098
  0
LINE
  8
0
 62
7
  6
CONTINUOUS
 10
368.8215352445
 20
31.1520331591
 11
368.6480977445
 21
31.216560532
  0
LINE
  8
0
 62
7
  6
CONTINUOUS
 10
369.6309104651
 20
30.8939236226
 11
369.8043479651
 21
30.8293962497
  0
LINE
  8
0
 62
7
  6
CONTINUOUS
 10
370.0355977445
 20
31.4101426505
 11
369.8621602445
 21
31.4746700234
  0
LINE
  8
0
 62
7
  6
CONTINUOUS
 10
368.4168479651
 20
31.1520331591
 11
368.6480977445
 21
31.0552420547
  0
LINE
  8
0
 62
7
  6
CONTINUOUS
 10
370.0355977445
 20
30.8939236226
 11
369.8043479651
 21
30.9907146818
  0
LINE
  8
0
 62
7
  6
CONTINUOUS
 10
368.5902854651
 20
31.2810879048
 11
368.6480977445
 21
31.3456152777
  0
LINE
  8
0
 62
7
  6
CONTINUOUS
 10
359.0512227376
 20
31.4101426505
 11
358.9355977445
 21
31.3456152777
  0
LINE
  8
0
 62
7
  6
CONTINUOUS
 10
359.1668477307
 20
31.2488242184
 11
359.3402852307
 21
31.3456152777
  0
LINE
  8
0
 62
7
  6
CONTINUOUS
 10
361.4793477997
 20
31.4424063369
 11
361.3637227445
 21
31.3778789641
  0
LINE
  8
0
 62
7
  6
CONTINUOUS
 10
361.3637227445
 20
31.2488242184
 11
361.4793477997
 21
31.3133515913
  0
LINE
  8
0
 62
7
  6
CONTINUOUS
 10
360.3809101894
 20
30.6035504109
 11
360.5543476894
 21
30.7003414814
  0
LINE
  8
0
 62
7
  6
CONTINUOUS
 10
359.3980977583
 20
30.5390230296
 11
359.744972717
 21
30.5067593403
  0
LINE
  8
0
 62
7
  6
CONTINUOUS
 10
363.5027853548
 20
30.5390230296
 11
363.7340351343
 21
30.5067593403
  0
LINE
  8
0
 62
7
  6
CONTINUOUS
 10
361.8840352445
 20
31.4101426505
 11
362.1152853548
 21
31.3778789641
  0
LINE
  8
0
 62
7
  6
CONTINUOUS
 10
364.1965353548
 20
31.4101426505
 11
364.4277854651
 21
31.3778789641
  0
LINE
  8
0
 62
7
  6
CONTINUOUS
 10
368.6480977445
 20
31.0552420547
 11
369.6309104651
 21
30.8939236226
  0
LINE
  8
0
 62
7
  6
CONTINUOUS
 10
369.8043479651
 20
30.9907146818
 11
368.8215352445
 21
31.1520331591
  0
LINE
  8
0
 62
7
  6
CONTINUOUS
 10
362.2887228548
 20
31.5069337098
 11
362.1152853548
 21
31.5391973962
  0
LINE
  8
0
 62
7
  6
CONTINUOUS
 10
368.5902854651
 20
30.5712867188
 11
368.7637229651
 21
30.5390230296
  0
LINE
  8
0
 62
7
  6
CONTINUOUS
 10
367.4340352445
 20
31.5069337098
 11
367.2605977445
 21
31.5391973962
  0
LINE
  8
0
 62
7
  6
CONTINUOUS
 10
369.6887227445
 20
31.3778789641
 11
369.8043479651
 21
31.3456152777
  0
LINE
  8
0
 62
7
  6
CONTINUOUS
 10
369.8621602445
 20
30.7648688543
 11
369.8043479651
 21
30.7003414814
  0
LINE
  8
0
 62
7
  6
CONTINUOUS
 10
368.4168479651
 20
31.4424063369
 11
368.3012227445
 21
31.3456152777
  0
LINE
  8
0
 62
7
  6
CONTINUOUS
 10
363.3293478548
 20
31.4746700234
 11
363.2137226343
 21
31.4101426505
  0
LINE
  8
0
 62
7
  6
CONTINUOUS
 10
363.3871601343
 20
31.0875057863
 11
363.2715352445
 21
31.0229783683
  0
LINE
  8
0
 62
7
  6
CONTINUOUS
 10
363.5027853548
 20
30.926187309
 11
363.6184102445
 21
30.9907146818
  0
LINE
  8
0
 62
7
  6
CONTINUOUS
 10
361.0746601894
 20
30.5067593403
 11
361.3637227445
 21
30.5067593403
  0
LINE
  8
0
 62
7
  6
CONTINUOUS
 10
362.4043477445
 20
30.5067593403
 11
362.6934101343
 21
30.5067593403
  0
LINE
  8
0
 62
7
  6
CONTINUOUS
 10
363.7340351343
 20
30.5067593403
 11
364.0809101343
 21
30.5067593403
  0
LINE
  8
0
 62
7
  6
CONTINUOUS
 10
364.716847524
 20
30.5067593403
 11
365.0059102445
 21
30.5067593403
  0
LINE
  8
0
 62
7
  6
CONTINUOUS
 10
365.4684104651
 20
30.5067593403
 11
365.757472524
 21
30.5067593403
  0
LINE
  8
0
 62
7
  6
CONTINUOUS
 10
366.2199727445
 20
30.5067593403
 11
366.5090354651
 21
30.5067593403
  0
LINE
  8
0
 62
7
  6
CONTINUOUS
 10
367.5496604651
 20
30.5067593403
 11
367.838722524
 21
30.5067593403
  0
LINE
  8
0
 62
7
  6
CONTINUOUS
 10
369.1105979651
 20
30.5067593403
 11
369.4574729651
 21
30.5067593403
  0
LINE
  8
0
 62
7
  6
CONTINUOUS
 10
369.4574729651
 20
30.6358140973
 11
369.1105979651
 21
30.6358140973
  0
LINE
  8
0
 62
7
  6
CONTINUOUS
 10
364.0809101343
 20
30.6358140973
 11
363.7340351343
 21
30.6358140973
  0
LINE
  8
0
 62
7
  6
CONTINUOUS
 10
368.5902854651
 20
30.7648688543
 11
368.3012227445
 21
30.7648688543
  0
LINE
  8
0
 62
7
  6
CONTINUOUS
 10
360.6121602997
 20
30.8293962497
 11
360.3230977445
 21
30.8293962497
  0
LINE
  8
0
 62
7
  6
CONTINUOUS
 10
359.6871602721
 20
31.4101426505
 11
360.091847717
 21
31.3778789641
  0
LINE
  8
0
 62
7
  6
CONTINUOUS
 10
360.1496602445
 20
31.5069337098
 11
359.744972717
 21
31.5391973962
  0
LINE
  8
0
 62
7
  6
CONTINUOUS
 10
368.7637229651
 20
30.5390230296
 11
369.1105979651
 21
30.5067593403
  0
LINE
  8
0
 62
7
  6
CONTINUOUS
 10
369.1105979651
 20
30.6358140973
 11
368.7637229651
 21
30.668077795
  0
LINE
  8
0
 62
7
  6
CONTINUOUS
 10
364.543410024
 20
31.5069337098
 11
364.1965353548
 21
31.5391973962
  0
LINE
  8
0
 62
7
  6
CONTINUOUS
 10
369.3418477445
 20
31.4101426505
 11
369.6887227445
 21
31.3778789641
  0
LINE
  8
0
 62
7
  6
CONTINUOUS
 10
369.6887227445
 20
31.5069337098
 11
369.3418477445
 21
31.5391973962
  0
LINE
  8
0
 62
7
  6
CONTINUOUS
 10
367.0293479651
 20
31.4101426505
 11
367.2605977445
 21
31.3778789641
  0
LINE
  8
0
 62
7
  6
CONTINUOUS
 10
369.8621602445
 20
31.4746700234
 11
369.6887227445
 21
31.5069337098
  0
LINE
  8
0
 62
7
  6
CONTINUOUS
 10
370.0355977445
 20
30.6035504109
 11
370.1512223035
 21
30.7003414814
  0
LINE
  8
0
 62
7
  6
CONTINUOUS
 10
364.543410024
 20
30.7971325633
 11
364.369972524
 21
30.7003414814
  0
LINE
  8
0
 62
7
  6
CONTINUOUS
 10
366.624660024
 20
31.4424063369
 11
366.5090354651
 21
31.3778789641
  0
LINE
  8
0
 62
7
  6
CONTINUOUS
 10
366.5090354651
 20
31.2488242184
 11
366.624660024
 21
31.3133515913
  0
LINE
  8
0
 62
7
  6
CONTINUOUS
 10
359.2246602583
 20
31.4746700234
 11
359.0512227376
 21
31.4101426505
  0
LINE
  8
0
 62
7
  6
CONTINUOUS
 10
361.6527851343
 20
31.5069337098
 11
361.4793477997
 21
31.4424063369
  0
LINE
  8
0
 62
7
  6
CONTINUOUS
 10
361.4793477997
 20
31.3133515913
 11
361.6527851343
 21
31.3778789641
  0
LINE
  8
0
 62
7
  6
CONTINUOUS
 10
360.2652852997
 20
30.7326051679
 11
360.091847717
 21
30.668077795
  0
LINE
  8
0
 62
7
  6
CONTINUOUS
 10
369.6887227445
 20
30.668077795
 11
369.4574729651
 21
30.6358140973
  0
LINE
  8
0
 62
7
  6
CONTINUOUS
 10
364.0809101343
 20
30.5067593403
 11
364.369972524
 21
30.5390230296
  0
LINE
  8
0
 62
7
  6
CONTINUOUS
 10
369.4574729651
 20
30.5067593403
 11
369.8043479651
 21
30.5390230296
  0
LINE
  8
0
 62
7
  6
CONTINUOUS
 10
359.744972717
 20
30.5067593403
 11
360.1496602445
 21
30.5390230296
  0
LINE
  8
0
 62
7
  6
CONTINUOUS
 10
360.091847717
 20
30.668077795
 11
359.6871602721
 21
30.6358140973
  0
LINE
  8
0
 62
7
  6
CONTINUOUS
 10
363.9652852445
 20
31.0552420547
 11
364.6012229651
 21
31.0552420547
  0
LINE
  8
0
 62
7
  6
CONTINUOUS
 10
364.6012229651
 20
31.1842968456
 11
363.9652852445
 21
31.1842968456
  0
LINE
  8
0
 62
7
  6
CONTINUOUS
 10
360.3230977445
 20
31.216560532
 11
360.6121602997
 21
31.216560532
  0
LINE
  8
0
 62
7
  6
CONTINUOUS
 10
363.1559103548
 20
31.2810879048
 11
363.4449727445
 21
31.2810879048
  0
LINE
  8
0
 62
7
  6
CONTINUOUS
 10
369.8621602445
 20
31.2810879048
 11
370.1512223035
 21
31.2810879048
  0
LINE
  8
0
 62
7
  6
CONTINUOUS
 10
363.8496603548
 20
31.4101426505
 11
364.1965353548
 21
31.4101426505
  0
LINE
  8
0
 62
7
  6
CONTINUOUS
 10
368.9949727445
 20
31.4101426505
 11
369.3418477445
 21
31.4101426505
  0
LINE
  8
0
 62
7
  6
CONTINUOUS
 10
369.3418477445
 20
31.5391973962
 11
368.9949727445
 21
31.5391973962
  0
LINE
  8
0
 62
7
  6
CONTINUOUS
 10
367.2605977445
 20
31.5391973962
 11
367.0293479651
 21
31.5391973962
  0
LINE
  8
0
 62
7
  6
CONTINUOUS
 10
366.5090354651
 20
31.5391973962
 11
366.2199727445
 21
31.5391973962
  0
LINE
  8
0
 62
7
  6
CONTINUOUS
 10
365.757472524
 20
31.5391973962
 11
365.4684104651
 21
31.5391973962
  0
LINE
  8
0
 62
7
  6
CONTINUOUS
 10
364.1965353548
 20
31.5391973962
 11
363.8496603548
 21
31.5391973962
  0
LINE
  8
0
 62
7
  6
CONTINUOUS
 10
362.1152853548
 20
31.5391973962
 11
361.8840352445
 21
31.5391973962
  0
LINE
  8
0
 62
7
  6
CONTINUOUS
 10
365.4684104651
 20
31.8618343508
 11
365.757472524
 21
31.8618343508
  0
LINE
  8
0
 62
7
  6
CONTINUOUS
 10
365.757472524
 20
32.0231527829
 11
365.4684104651
 21
32.0231527829
  0
LINE
  8
0
 62
7
  6
CONTINUOUS
 10
361.3637227445
 20
32.0231527829
 11
361.0746601894
 21
32.0231527829
  0
LINE
  8
0
 62
7
  6
CONTINUOUS
 10
360.4015045068
 20
32.3100380288
 11
360.8140758554
 21
32.3100380288
  0
LINE
  8
0
 62
7
  6
CONTINUOUS
 10
362.0408487691
 20
32.3100380288
 11
363.4342913921
 21
32.3100380288
  0
LINE
  8
0
 62
7
  6
CONTINUOUS
 10
363.7621602445
 20
32.3100380288
 11
365.1556028675
 21
32.3100380288
  0
LINE
  8
0
 62
7
  6
CONTINUOUS
 10
367.0408487691
 20
32.3100380288
 11
368.4342913921
 21
32.3100380288
  0
LINE
  8
0
 62
7
  6
CONTINUOUS
 10
368.7621602445
 20
32.3100380288
 11
370.1556028675
 21
32.3100380288
  0
LINE
  8
0
 62
7
  6
CONTINUOUS
 10
366.798097524
 20
31.5069337098
 11
366.624660024
 21
31.4424063369
  0
LINE
  8
0
 62
7
  6
CONTINUOUS
 10
364.369972524
 20
30.5390230296
 11
364.543410024
 21
30.6035504109
  0
LINE
  8
0
 62
7
  6
CONTINUOUS
 10
369.8043479651
 20
30.5390230296
 11
370.0355977445
 21
30.6035504109
  0
LINE
  8
0
 62
7
  6
CONTINUOUS
 10
369.8043479651
 20
30.7003414814
 11
369.6887227445
 21
30.668077795
  0
LINE
  8
0
 62
7
  6
CONTINUOUS
 10
368.7637229651
 20
31.3778789641
 11
368.9949727445
 21
31.4101426505
  0
LINE
  8
0
 62
7
  6
CONTINUOUS
 10
366.798097524
 20
31.3778789641
 11
367.0293479651
 21
31.4101426505
  0
LINE
  8
0
 62
7
  6
CONTINUOUS
 10
363.7340351343
 20
31.0229783683
 11
363.9652852445
 21
31.0552420547
  0
LINE
  8
0
 62
7
  6
CONTINUOUS
 10
367.0293479651
 20
31.5391973962
 11
366.798097524
 21
31.5069337098
  0
LINE
  8
0
 62
7
  6
CONTINUOUS
 10
363.6184102445
 20
31.3778789641
 11
363.8496603548
 21
31.4101426505
  0
LINE
  8
0
 62
7
  6
CONTINUOUS
 10
368.9949727445
 20
31.5391973962
 11
368.6480977445
 21
31.5069337098
  0
LINE
  8
0
 62
7
  6
CONTINUOUS
 10
363.9652852445
 20
31.1842968456
 11
363.6184102445
 21
31.1520331591
  0
LINE
  8
0
 62
7
  6
CONTINUOUS
 10
359.744972717
 20
31.5391973962
 11
359.3980977583
 21
31.5069337098
  0
LINE
  8
0
 62
7
  6
CONTINUOUS
 10
363.8496603548
 20
31.5391973962
 11
363.4449727445
 21
31.5069337098
  0
LINE
  8
0
 62
7
  6
CONTINUOUS
 10
361.221176638
 20
33.4575790124
 11
360.565438933
 21
33.4575790124
  0
LINE
  8
0
 62
7
  6
CONTINUOUS
 10
366.624660024
 20
31.3133515913
 11
366.798097524
 21
31.3778789641
  0
LINE
  8
0
 62
7
  6
CONTINUOUS
 10
368.6480977445
 20
31.3456152777
 11
368.7637229651
 21
31.3778789641
  0
LINE
  8
0
 62
7
  6
CONTINUOUS
 10
368.6480977445
 20
31.5069337098
 11
368.4168479651
 21
31.4424063369
  0
LINE
  8
0
 62
7
  6
CONTINUOUS
 10
364.369972524
 20
30.7003414814
 11
364.0809101343
 21
30.6358140973
  0
LINE
  8
0
 62
7
  6
CONTINUOUS
 10
361.6527851343
 20
31.3778789641
 11
361.8840352445
 21
31.4101426505
  0
LINE
  8
0
 62
7
  6
CONTINUOUS
 10
361.8840352445
 20
31.5391973962
 11
361.6527851343
 21
31.5069337098
  0
LINE
  8
0
 62
7
  6
CONTINUOUS
 10
359.4559102445
 20
31.3778789641
 11
359.6871602721
 21
31.4101426505
  0
LINE
  8
0
 62
7
  6
CONTINUOUS
 10
365.9752749986
 20
34.9329888485
 11
366.6310127035
 21
34.9329888485
  0
LINE
  8
0
 62
7
  6
CONTINUOUS
 10
363.6184102445
 20
30.9907146818
 11
363.7340351343
 21
31.0229783683
  0
LINE
  8
0
 62
7
  6
CONTINUOUS
 10
363.6184102445
 20
31.1520331591
 11
363.3871601343
 21
31.0875057863
  0
LINE
  8
0
 62
7
  6
CONTINUOUS
 10
363.5027853548
 20
31.3456152777
 11
363.6184102445
 21
31.3778789641
  0
LINE
  8
0
 62
7
  6
CONTINUOUS
 10
360.1496602445
 20
30.5390230296
 11
360.3809101894
 21
30.6035504109
  0
LINE
  8
0
 62
7
  6
CONTINUOUS
 10
363.4449727445
 20
31.5069337098
 11
363.3293478548
 21
31.4746700234
  0
LINE
  8
0
 62
7
  6
CONTINUOUS
 10
359.3980977583
 20
31.5069337098
 11
359.2246602583
 21
31.4746700234
  0
LINE
  8
0
 62
7
  6
CONTINUOUS
 10
370.1556028675
 20
36.0805298321
 11
368.7621602445
 21
36.0805298321
  0
LINE
  8
0
 62
7
  6
CONTINUOUS
 10
366.7949471298
 20
36.0805298321
 11
366.3823757812
 21
36.0805298321
  0
LINE
  8
0
 62
7
  6
CONTINUOUS
 10
365.1556028675
 20
36.0805298321
 11
363.7621602445
 21
36.0805298321
  0
LINE
  8
0
 62
7
  6
CONTINUOUS
 10
363.4342913921
 20
36.0805298321
 11
362.0408487691
 21
36.0805298321
  0
LINE
  8
0
 62
7
  6
CONTINUOUS
 10
360.1556028675
 20
36.0805298321
 11
358.7621602445
 21
36.0805298321
  0
LINE
  8
0
 62
7
  6
CONTINUOUS
 10
359.3402852307
 20
31.3456152777
 11
359.4559102445
 21
31.3778789641
  0
CIRCLE
  8
0
 62
7
  6
CONTINUOUS
 10
369.458881556
 20
38.4165954059
 40
2.0901639344
  0
ARC
  8
0
 62
7
  6
CONTINUOUS
 10
360.4015045068
 20
33.9493822911
 40
1.6393442623
 50
180.0
 51
270.0
  0
ARC
  8
0
 62
7
  6
CONTINUOUS
 10
366.7949471298
 20
34.4411855698
 40
1.6393442623
 50
0.0
 51
90.0
  0
ARC
  8
0
 62
7
  6
CONTINUOUS
 10
360.8140758554
 20
33.7854478649
 40
1.4754098361
 50
270.0
 51
326.2510114041
  0
ARC
  8
0
 62
7
  6
CONTINUOUS
 10
366.3823757812
 20
34.6051199961
 40
1.4754098361
 50
90.0
 51
146.2510114041
  0
ARC
  8
0
 62
7
  6
CONTINUOUS
 10
361.221176638
 20
34.2772511436
 40
0.8196721311
 50
270.0
 51
360.0
  0
ARC
  8
0
 62
7
  6
CONTINUOUS
 10
365.9752749986
 20
34.1133167174
 40
0.8196721311
 50
90.0
 51
180.0
  0
ARC
  8
0
 62
7
  6
CONTINUOUS
 10
360.565438933
 20
33.867415078
 40
0.4098360656
 50
180.0
 51
270.0
  0
ARC
  8
0
 62
7
  6
CONTINUOUS
 10
366.6310127035
 20
34.5231527829
 40
0.4098360656
 50
0.0
 51
90.0
  0
SOLID
  8
0
 62
7
  6
CONTINUOUS
 10
365.4684104651
 20
31.8618347111
 11
365.4684104651
 21
32.0231531947
 12
365.757472524
 22
31.8618347111
 13
365.757472524
 23
32.0231531947
  0
SOLID
  8
0
 62
7
  6
CONTINUOUS
 10
359.744972717
 20
31.5391977439
 11
360.1496602445
 21
31.5069333244
 12
359.3980977583
 22
31.5069333244
 13
359.3980977583
 23
31.5069333244
  0
SOLID
  8
0
 62
7
  6
CONTINUOUS
 10
359.2246602583
 20
31.4746706537
 11
359.3980977583
 21
31.5069333244
 12
360.1496602445
 22
31.5069333244
 13
360.1496602445
 23
31.5069333244
  0
SOLID
  8
0
 62
7
  6
CONTINUOUS
 10
360.1496602445
 20
31.5069333244
 11
360.3809101894
 21
31.4424063504
 12
359.2246602583
 22
31.4746706537
 13
359.2246602583
 23
31.4746706537
  0
SOLID
  8
0
 62
7
  6
CONTINUOUS
 10
359.0512227376
 20
31.4101419116
 11
359.2246602583
 21
31.4746706537
 12
360.3809101894
 22
31.4424063504
 13
360.3809101894
 23
31.4424063504
  0
SOLID
  8
0
 62
7
  6
CONTINUOUS
 10
359.0512227376
 20
31.4101419116
 11
360.3809101894
 21
31.4424063504
 12
359.6871602721
 22
31.4101419116
 13
359.6871602721
 23
31.4101419116
  0
SOLID
  8
0
 62
7
  6
CONTINUOUS
 10
359.6871602721
 20
31.4101419116
 11
360.3809101894
 21
31.4424063504
 12
360.091847717
 22
31.3778792603
 13
360.091847717
 23
31.3778792603
  0
SOLID
  8
0
 62
7
  6
CONTINUOUS
 10
360.3809101894
 20
31.4424063504
 11
360.5543476894
 21
31.345614957
 12
360.091847717
 22
31.3778792603
 13
360.091847717
 23
31.3778792603
  0
SOLID
  8
0
 62
7
  6
CONTINUOUS
 10
360.2652852997
 20
31.3133521701
 11
360.091847717
 21
31.3778792603
 12
360.5543476894
 22
31.345614957
 13
360.5543476894
 23
31.345614957
  0
SOLID
  8
0
 62
7
  6
CONTINUOUS
 10
360.2652852997
 20
31.3133521701
 11
360.5543476894
 21
31.345614957
 12
360.3230977445
 22
31.2165606992
 13
360.3230977445
 23
31.2165606992
  0
SOLID
  8
0
 62
7
  6
CONTINUOUS
 10
360.5543476894
 20
31.345614957
 11
360.6121602997
 21
31.2165606992
 12
360.3230977445
 22
31.2165606992
 13
360.3230977445
 23
31.2165606992
  0
SOLID
  8
0
 62
7
  6
CONTINUOUS
 10
361.6527851343
 20
31.5069329918
 11
361.8840352445
 21
31.5391972951
 12
362.1152853548
 22
31.5391972951
 13
362.1152853548
 23
31.5391972951
  0
SOLID
  8
0
 62
7
  6
CONTINUOUS
 10
362.1152853548
 20
31.5391972951
 11
362.2887228548
 21
31.5069329918
 12
361.6527851343
 22
31.5069329918
 13
361.6527851343
 23
31.5069329918
  0
SOLID
  8
0
 62
7
  6
CONTINUOUS
 10
361.4793477997
 20
31.4424059016
 11
361.6527851343
 21
31.5069329918
 12
362.2887228548
 22
31.5069329918
 13
362.2887228548
 23
31.5069329918
  0
SOLID
  8
0
 62
7
  6
CONTINUOUS
 10
362.2887228548
 20
31.5069329918
 11
362.4621603548
 21
31.4424059016
 12
361.4793477997
 22
31.4424059016
 13
361.4793477997
 23
31.4424059016
  0
SOLID
  8
0
 62
7
  6
CONTINUOUS
 10
362.4621603548
 20
31.4424059016
 11
361.8840352445
 21
31.4101420472
 12
361.4793477997
 22
31.4424059016
 13
361.4793477997
 23
31.4424059016
  0
SOLID
  8
0
 62
7
  6
CONTINUOUS
 10
361.3637227445
 20
31.3778788115
 11
361.4793477997
 21
31.4424059016
 12
361.8840352445
 22
31.4101420472
 13
361.8840352445
 23
31.4101420472
  0
SOLID
  8
0
 62
7
  6
CONTINUOUS
 10
361.8840352445
 20
31.4101420472
 11
361.6527851343
 21
31.3778788115
 12
361.3637227445
 22
31.3778788115
 13
361.3637227445
 23
31.3778788115
  0
SOLID
  8
0
 62
7
  6
CONTINUOUS
 10
361.8840352445
 20
31.4101420472
 11
362.4621603548
 21
31.4424059016
 12
362.1152853548
 22
31.3778788115
 13
362.1152853548
 23
31.3778788115
  0
SOLID
  8
0
 62
7
  6
CONTINUOUS
 10
362.4621603548
 20
31.4424059016
 11
362.5777852445
 21
31.3778788115
 12
362.1152853548
 22
31.3778788115
 13
362.1152853548
 23
31.3778788115
  0
SOLID
  8
0
 62
7
  6
CONTINUOUS
 10
362.2309102445
 20
31.345614957
 11
362.1152853548
 21
31.3778788115
 12
362.5777852445
 22
31.3778788115
 13
362.5777852445
 23
31.3778788115
  0
SOLID
  8
0
 62
7
  6
CONTINUOUS
 10
362.5777852445
 20
31.3778788115
 11
362.6355978548
 21
31.3133517213
 12
362.2309102445
 22
31.345614957
 13
362.2309102445
 23
31.345614957
  0
SOLID
  8
0
 62
7
  6
CONTINUOUS
 10
362.3465351343
 20
31.2810878668
 11
362.2309102445
 21
31.345614957
 12
362.6355978548
 22
31.3133517213
 13
362.6355978548
 23
31.3133517213
  0
SOLID
  8
0
 62
7
  6
CONTINUOUS
 10
362.3465351343
 20
31.2810878668
 11
362.6355978548
 21
31.3133517213
 12
362.4043477445
 22
31.1520332377
 13
362.4043477445
 23
31.1520332377
  0
SOLID
  8
0
 62
7
  6
CONTINUOUS
 10
362.6355978548
 20
31.3133517213
 11
362.6934101343
 21
31.1520332377
 12
362.4043477445
 22
31.1520332377
 13
362.4043477445
 23
31.1520332377
  0
SOLID
  8
0
 62
7
  6
CONTINUOUS
 10
361.6527851343
 20
31.3778788115
 11
361.4793477997
 21
31.3133517213
 12
361.3637227445
 22
31.3778788115
 13
361.3637227445
 23
31.3778788115
  0
SOLID
  8
0
 62
7
  6
CONTINUOUS
 10
361.4793477997
 20
31.3133517213
 11
361.3637227445
 21
31.2488235635
 12
361.3637227445
 22
31.3778788115
 13
361.3637227445
 23
31.3778788115
  0
SOLID
  8
0
 62
7
  6
CONTINUOUS
 10
361.3637227445
 20
31.2488235635
 11
361.0746601894
 21
30.5067593033
 12
361.3637227445
 22
31.3778788115
 13
361.3637227445
 23
31.3778788115
  0
SOLID
  8
0
 62
7
  6
CONTINUOUS
 10
361.3637227445
 20
31.3778788115
 11
361.0746601894
 21
30.5067593033
 12
361.3637227445
 22
32.0231527459
 13
361.3637227445
 23
32.0231527459
  0
SOLID
  8
0
 62
7
  6
CONTINUOUS
 10
361.0746601894
 20
30.5067593033
 11
361.0746601894
 21
32.0231527459
 12
361.3637227445
 22
32.0231527459
 13
361.3637227445
 23
32.0231527459
  0
SOLID
  8
0
 62
7
  6
CONTINUOUS
 10
361.3637227445
 20
31.2488235635
 11
361.3637227445
 21
30.5067593033
 12
361.0746601894
 22
30.5067593033
 13
361.0746601894
 23
30.5067593033
  0
SOLID
  8
0
 62
7
  6
CONTINUOUS
 10
362.4043477445
 20
30.5067593033
 11
362.4043477445
 21
31.1520332377
 12
362.6934101343
 22
31.1520332377
 13
362.6934101343
 23
31.1520332377
  0
SOLID
  8
0
 62
7
  6
CONTINUOUS
 10
362.6934101343
 20
31.1520332377
 11
362.6934101343
 21
30.5067593033
 12
362.4043477445
 22
30.5067593033
 13
362.4043477445
 23
30.5067593033
  0
SOLID
  8
0
 62
7
  6
CONTINUOUS
 10
363.4449727445
 20
31.506933758
 11
363.8496603548
 21
31.5391977507
 12
364.1965353548
 22
31.5391977507
 13
364.1965353548
 23
31.5391977507
  0
SOLID
  8
0
 62
7
  6
CONTINUOUS
 10
364.1965353548
 20
31.5391977507
 11
364.543410024
 21
31.506933758
 12
363.4449727445
 22
31.506933758
 13
363.4449727445
 23
31.506933758
  0
SOLID
  8
0
 62
7
  6
CONTINUOUS
 10
363.3293478548
 20
31.4746706537
 11
363.4449727445
 21
31.506933758
 12
364.543410024
 22
31.506933758
 13
364.543410024
 23
31.506933758
  0
SOLID
  8
0
 62
7
  6
CONTINUOUS
 10
364.543410024
 20
31.506933758
 11
364.716847524
 21
31.4424063504
 12
363.3293478548
 22
31.4746706537
 13
363.3293478548
 23
31.4746706537
  0
SOLID
  8
0
 62
7
  6
CONTINUOUS
 10
363.2137226343
 20
31.4101417797
 11
363.3293478548
 21
31.4746706537
 12
364.716847524
 22
31.4424063504
 13
364.716847524
 23
31.4424063504
  0
SOLID
  8
0
 62
7
  6
CONTINUOUS
 10
363.2137226343
 20
31.4101417797
 11
364.716847524
 21
31.4424063504
 12
363.8496603548
 22
31.4101417797
 13
363.8496603548
 23
31.4101417797
  0
SOLID
  8
0
 62
7
  6
CONTINUOUS
 10
363.8496603548
 20
31.4101417797
 11
364.716847524
 21
31.4424063504
 12
364.1965353548
 22
31.4101417797
 13
364.1965353548
 23
31.4101417797
  0
SOLID
  8
0
 62
7
  6
CONTINUOUS
 10
364.1965353548
 20
31.4101417797
 11
364.716847524
 21
31.4424063504
 12
364.4277854651
 22
31.3778793357
 13
364.4277854651
 23
31.3778793357
  0
SOLID
  8
0
 62
7
  6
CONTINUOUS
 10
364.716847524
 20
31.4424063504
 11
364.8324727445
 21
31.3778793357
 12
364.4277854651
 22
31.3778793357
 13
364.4277854651
 23
31.3778793357
  0
SOLID
  8
0
 62
7
  6
CONTINUOUS
 10
363.1559103548
 20
31.3456153429
 11
363.2137226343
 21
31.4101417797
 12
363.8496603548
 22
31.4101417797
 13
363.8496603548
 23
31.4101417797
  0
SOLID
  8
0
 62
7
  6
CONTINUOUS
 10
364.543410024
 20
31.3456153429
 11
364.4277854651
 21
31.3778793357
 12
364.8324727445
 22
31.3778793357
 13
364.8324727445
 23
31.3778793357
  0
SOLID
  8
0
 62
7
  6
CONTINUOUS
 10
364.543410024
 20
31.3456153429
 11
364.8324727445
 21
31.3778793357
 12
364.6012229651
 22
31.2810881318
 13
364.6012229651
 23
31.2810881318
  0
SOLID
  8
0
 62
7
  6
CONTINUOUS
 10
364.8324727445
 20
31.3778793357
 11
364.890285024
 21
31.2810881318
 12
364.6012229651
 22
31.2810881318
 13
364.6012229651
 23
31.2810881318
  0
SOLID
  8
0
 62
7
  6
CONTINUOUS
 10
364.6012229651
 20
31.1842964734
 11
364.6012229651
 21
31.2810881318
 12
364.890285024
 22
31.2810881318
 13
364.890285024
 23
31.2810881318
  0
SOLID
  8
0
 62
7
  6
CONTINUOUS
 10
364.6012229651
 20
31.1842964734
 11
364.890285024
 21
31.2810881318
 12
364.6012229651
 22
31.0552422931
 13
364.6012229651
 23
31.0552422931
  0
SOLID
  8
0
 62
7
  6
CONTINUOUS
 10
364.6012229651
 20
31.0552422931
 11
364.890285024
 21
31.2810881318
 12
364.6012229651
 22
30.8616599362
 13
364.6012229651
 23
30.8616599362
  0
SOLID
  8
0
 62
7
  6
CONTINUOUS
 10
364.890285024
 20
31.2810881318
 11
364.890285024
 21
30.7648681127
 12
364.6012229651
 22
30.8616599362
 13
364.6012229651
 23
30.8616599362
  0
SOLID
  8
0
 62
7
  6
CONTINUOUS
 10
366.798097524
 20
31.5069339419
 11
367.0293479651
 21
31.5391976292
 12
367.2605977445
 22
31.5391976292
 13
367.2605977445
 23
31.5391976292
  0
SOLID
  8
0
 62
7
  6
CONTINUOUS
 10
367.2605977445
 20
31.5391976292
 11
367.4340352445
 21
31.5069339419
 12
366.798097524
 22
31.5069339419
 13
366.798097524
 23
31.5069339419
  0
SOLID
  8
0
 62
7
  6
CONTINUOUS
 10
366.624660024
 20
31.4424065674
 11
366.798097524
 21
31.5069339419
 12
367.4340352445
 22
31.5069339419
 13
367.4340352445
 23
31.5069339419
  0
SOLID
  8
0
 62
7
  6
CONTINUOUS
 10
367.4340352445
 20
31.5069339419
 11
367.6074727445
 21
31.4424065674
 12
366.624660024
 22
31.4424065674
 13
366.624660024
 23
31.4424065674
  0
SOLID
  8
0
 62
7
  6
CONTINUOUS
 10
367.6074727445
 20
31.4424065674
 11
367.0293479651
 21
31.4101420472
 12
366.624660024
 22
31.4424065674
 13
366.624660024
 23
31.4424065674
  0
SOLID
  8
0
 62
7
  6
CONTINUOUS
 10
366.5090354651
 20
31.377879193
 11
366.624660024
 21
31.4424065674
 12
367.0293479651
 22
31.4101420472
 13
367.0293479651
 23
31.4101420472
  0
SOLID
  8
0
 62
7
  6
CONTINUOUS
 10
367.0293479651
 20
31.4101420472
 11
366.798097524
 21
31.377879193
 12
366.5090354651
 22
31.377879193
 13
366.5090354651
 23
31.377879193
  0
SOLID
  8
0
 62
7
  6
CONTINUOUS
 10
367.0293479651
 20
31.4101420472
 11
367.6074727445
 21
31.4424065674
 12
367.2605977445
 22
31.377879193
 13
367.2605977445
 23
31.377879193
  0
SOLID
  8
0
 62
7
  6
CONTINUOUS
 10
367.6074727445
 20
31.4424065674
 11
367.7230979651
 21
31.377879193
 12
367.2605977445
 22
31.377879193
 13
367.2605977445
 23
31.377879193
  0
SOLID
  8
0
 62
7
  6
CONTINUOUS
 10
367.3762229651
 20
31.345614957
 11
367.2605977445
 21
31.377879193
 12
367.7230979651
 22
31.377879193
 13
367.7230979651
 23
31.377879193
  0
SOLID
  8
0
 62
7
  6
CONTINUOUS
 10
367.3762229651
 20
31.345614957
 11
367.7230979651
 21
31.377879193
 12
367.491847524
 22
31.2810881312
 13
367.491847524
 23
31.2810881312
  0
SOLID
  8
0
 62
7
  6
CONTINUOUS
 10
367.7230979651
 20
31.377879193
 11
367.7809102445
 21
31.2810881312
 12
367.491847524
 22
31.2810881312
 13
367.491847524
 23
31.2810881312
  0
SOLID
  8
0
 62
7
  6
CONTINUOUS
 10
367.5496604651
 20
31.119769695
 11
367.491847524
 21
31.2810881312
 12
367.7809102445
 22
31.2810881312
 13
367.7809102445
 23
31.2810881312
  0
SOLID
  8
0
 62
7
  6
CONTINUOUS
 10
367.7809102445
 20
31.2810881312
 11
367.838722524
 21
31.119769695
 12
367.5496604651
 22
31.119769695
 13
367.5496604651
 23
31.119769695
  0
SOLID
  8
0
 62
7
  6
CONTINUOUS
 10
366.798097524
 20
31.377879193
 11
366.624660024
 21
31.3133521701
 12
366.5090354651
 22
31.377879193
 13
366.5090354651
 23
31.377879193
  0
SOLID
  8
0
 62
7
  6
CONTINUOUS
 10
366.624660024
 20
31.3133521701
 11
366.5090354651
 21
31.2488235635
 12
366.5090354651
 22
31.377879193
 13
366.5090354651
 23
31.377879193
  0
SOLID
  8
0
 62
7
  6
CONTINUOUS
 10
366.5090354651
 20
31.2488235635
 11
366.2199727445
 21
30.5067596374
 12
366.5090354651
 22
31.377879193
 13
366.5090354651
 23
31.377879193
  0
SOLID
  8
0
 62
7
  6
CONTINUOUS
 10
366.5090354651
 20
31.377879193
 11
366.2199727445
 21
30.5067596374
 12
366.5090354651
 22
31.5391976292
 13
366.5090354651
 23
31.5391976292
  0
SOLID
  8
0
 62
7
  6
CONTINUOUS
 10
366.2199727445
 20
30.5067596374
 11
366.2199727445
 21
31.5391976292
 12
366.5090354651
 22
31.5391976292
 13
366.5090354651
 23
31.5391976292
  0
SOLID
  8
0
 62
7
  6
CONTINUOUS
 10
366.5090354651
 20
31.2488235635
 11
366.5090354651
 21
30.5067596374
 12
366.2199727445
 22
30.5067596374
 13
366.2199727445
 23
30.5067596374
  0
SOLID
  8
0
 62
7
  6
CONTINUOUS
 10
367.5496604651
 20
30.5067596374
 11
367.5496604651
 21
31.119769695
 12
367.838722524
 22
31.119769695
 13
367.838722524
 23
31.119769695
  0
SOLID
  8
0
 62
7
  6
CONTINUOUS
 10
367.838722524
 20
31.119769695
 11
367.838722524
 21
30.5067596374
 12
367.5496604651
 22
30.5067596374
 13
367.5496604651
 23
30.5067596374
  0
SOLID
  8
0
 62
7
  6
CONTINUOUS
 10
368.6480977445
 20
31.5069334157
 11
368.9949727445
 21
31.539197762
 12
369.3418477445
 22
31.539197762
 13
369.3418477445
 23
31.539197762
  0
SOLID
  8
0
 62
7
  6
CONTINUOUS
 10
369.3418477445
 20
31.539197762
 11
369.6887227445
 21
31.5069334157
 12
368.6480977445
 22
31.5069334157
 13
368.6480977445
 23
31.5069334157
  0
SOLID
  8
0
 62
7
  6
CONTINUOUS
 10
368.4168479651
 20
31.4424063504
 11
368.6480977445
 21
31.5069334157
 12
369.6887227445
 22
31.5069334157
 13
369.6887227445
 23
31.5069334157
  0
SOLID
  8
0
 62
7
  6
CONTINUOUS
 10
368.4168479651
 20
31.4424063504
 11
369.6887227445
 21
31.5069334406
 12
369.8621602445
 22
31.4746706537
 13
369.8621602445
 23
31.4746706537
  0
SOLID
  8
0
 62
7
  6
CONTINUOUS
 10
368.4168479651
 20
31.4424063504
 11
369.8621602445
 21
31.4746706537
 12
368.9949727445
 22
31.4101421267
 13
368.9949727445
 23
31.4101421267
  0
SOLID
  8
0
 62
7
  6
CONTINUOUS
 10
368.9949727445
 20
31.4101421267
 11
369.8621602445
 21
31.4746706537
 12
369.3418477445
 22
31.4101421267
 13
369.3418477445
 23
31.4101421267
  0
SOLID
  8
0
 62
7
  6
CONTINUOUS
 10
369.8621602445
 20
31.4746706537
 11
370.0355977445
 21
31.4101421267
 12
369.3418477445
 22
31.4101421267
 13
369.3418477445
 23
31.4101421267
  0
SOLID
  8
0
 62
7
  6
CONTINUOUS
 10
369.6887227445
 20
31.3778792603
 11
369.3418477445
 21
31.4101421267
 12
370.0355977445
 22
31.4101421267
 13
370.0355977445
 23
31.4101421267
  0
SOLID
  8
0
 62
7
  6
CONTINUOUS
 10
368.3012227445
 20
31.3456148845
 11
368.4168479651
 21
31.4424063504
 12
368.9949727445
 22
31.4101421267
 13
368.9949727445
 23
31.4101421267
  0
SOLID
  8
0
 62
7
  6
CONTINUOUS
 10
369.6887227445
 20
31.3778792603
 11
370.0355977445
 21
31.4101421267
 12
369.8043479651
 22
31.3456148845
 13
369.8043479651
 23
31.3456148845
  0
SOLID
  8
0
 62
7
  6
CONTINUOUS
 10
369.8043479651
 20
31.3456148845
 11
370.0355977445
 21
31.4101421267
 12
369.8621602445
 22
31.281087868
 13
369.8621602445
 23
31.281087868
  0
SOLID
  8
0
 62
7
  6
CONTINUOUS
 10
370.0355977445
 20
31.4101421267
 11
370.1512223035
 21
31.281087868
 12
369.8621602445
 22
31.281087868
 13
369.8621602445
 23
31.281087868
  0
SOLID
  8
0
 62
7
  6
CONTINUOUS
 10
359.4559102445
 20
31.3778792603
 11
358.9355977445
 21
31.3456148963
 12
359.6871602721
 22
31.4101421155
 13
359.6871602721
 23
31.4101421155
  0
SOLID
  8
0
 62
7
  6
CONTINUOUS
 10
358.9355977445
 20
31.3456148963
 11
359.0512227376
 21
31.4101421155
 12
359.6871602721
 22
31.4101421155
 13
359.6871602721
 23
31.4101421155
  0
SOLID
  8
0
 62
7
  6
CONTINUOUS
 10
359.4559102445
 20
31.3778792603
 11
359.3402852307
 21
31.3456148963
 12
358.9355977445
 22
31.3456148963
 13
358.9355977445
 23
31.3456148963
  0
SOLID
  8
0
 62
7
  6
CONTINUOUS
 10
358.8199727462
 20
31.2165607767
 11
358.9355977445
 21
31.3456148963
 12
359.3402852307
 22
31.3456148963
 13
359.3402852307
 23
31.3456148963
  0
SOLID
  8
0
 62
7
  6
CONTINUOUS
 10
363.1559103548
 20
31.3456149608
 11
363.8496603548
 21
31.4101420472
 12
363.6184102445
 22
31.3778792603
 13
363.6184102445
 23
31.3778792603
  0
SOLID
  8
0
 62
7
  6
CONTINUOUS
 10
363.6184102445
 20
31.3778792603
 11
363.5027853548
 21
31.3456149608
 12
363.1559103548
 22
31.3456149608
 13
363.1559103548
 23
31.3456149608
  0
SOLID
  8
0
 62
7
  6
CONTINUOUS
 10
363.1559103548
 20
31.2810878707
 11
363.1559103548
 21
31.3456149608
 12
363.5027853548
 22
31.3456149608
 13
363.5027853548
 23
31.3456149608
  0
SOLID
  8
0
 62
7
  6
CONTINUOUS
 10
363.5027853548
 20
31.3456149608
 11
363.4449727445
 21
31.2810878707
 12
363.1559103548
 22
31.2810878707
 13
363.1559103548
 23
31.2810878707
  0
SOLID
  8
0
 62
7
  6
CONTINUOUS
 10
368.3012227445
 20
31.3456149608
 11
368.9949727445
 21
31.4101420472
 12
368.7637229651
 22
31.3778792603
 13
368.7637229651
 23
31.3778792603
  0
SOLID
  8
0
 62
7
  6
CONTINUOUS
 10
368.7637229651
 20
31.3778792603
 11
368.6480977445
 21
31.3456149608
 12
368.3012227445
 22
31.3456149608
 13
368.3012227445
 23
31.3456149608
  0
SOLID
  8
0
 62
7
  6
CONTINUOUS
 10
368.3012227445
 20
31.2810878707
 11
368.3012227445
 21
31.3456149608
 12
368.6480977445
 22
31.3456149608
 13
368.6480977445
 23
31.3456149608
  0
SOLID
  8
0
 62
7
  6
CONTINUOUS
 10
368.6480977445
 20
31.3456149608
 11
368.5902854651
 21
31.2810878707
 12
368.3012227445
 22
31.2810878707
 13
368.3012227445
 23
31.2810878707
  0
SOLID
  8
0
 62
7
  6
CONTINUOUS
 10
368.4168479651
 20
31.1520336865
 11
368.3012227445
 21
31.2810878707
 12
368.5902854651
 22
31.2810878707
 13
368.5902854651
 23
31.2810878707
  0
SOLID
  8
0
 62
7
  6
CONTINUOUS
 10
358.8199727462
 20
31.2165607767
 11
359.3402852307
 21
31.345614957
 12
359.1668477307
 22
31.2488235635
 13
359.1668477307
 23
31.2488235635
  0
SOLID
  8
0
 62
7
  6
CONTINUOUS
 10
359.1668477307
 20
31.2488235635
 11
359.1090352445
 21
31.1842964734
 12
358.8199727462
 22
31.2165607767
 13
358.8199727462
 23
31.2165607767
  0
SOLID
  8
0
 62
7
  6
CONTINUOUS
 10
358.7621602445
 20
31.0229779898
 11
358.8199727462
 21
31.2165607767
 12
359.1090352445
 22
31.1842964734
 13
359.1090352445
 23
31.1842964734
  0
SOLID
  8
0
 62
7
  6
CONTINUOUS
 10
363.6184102445
 20
31.1520336865
 11
363.9652852445
 21
31.1842964611
 12
364.6012229651
 22
31.1842964611
 13
364.6012229651
 23
31.1842964611
  0
SOLID
  8
0
 62
7
  6
CONTINUOUS
 10
363.6184102445
 20
31.1520336865
 11
364.6012229651
 21
31.1842964611
 12
363.3871601343
 22
31.0875057863
 13
363.3871601343
 23
31.0875057863
  0
SOLID
  8
0
 62
7
  6
CONTINUOUS
 10
363.3871601343
 20
31.0875057863
 11
364.6012229651
 21
31.1842964611
 12
363.9652852445
 22
31.0552422808
 13
363.9652852445
 23
31.0552422808
  0
SOLID
  8
0
 62
7
  6
CONTINUOUS
 10
364.6012229651
 20
31.1842964611
 11
364.6012229651
 21
31.0552422808
 12
363.9652852445
 22
31.0552422808
 13
363.9652852445
 23
31.0552422808
  0
SOLID
  8
0
 62
7
  6
CONTINUOUS
 10
368.4168479651
 20
31.1520338754
 11
368.5902854651
 21
31.2810878668
 12
368.6480977445
 22
31.2165607767
 13
368.6480977445
 23
31.2165607767
  0
SOLID
  8
0
 62
7
  6
CONTINUOUS
 10
368.6480977445
 20
31.2165607767
 11
368.8215352445
 21
31.1520338754
 12
368.4168479651
 22
31.1520338754
 13
368.4168479651
 23
31.1520338754
  0
SOLID
  8
0
 62
7
  6
CONTINUOUS
 10
368.6480977445
 20
31.0552422931
 11
368.4168479651
 21
31.1520338754
 12
368.8215352445
 22
31.1520338754
 13
368.8215352445
 23
31.1520338754
  0
SOLID
  8
0
 62
7
  6
CONTINUOUS
 10
368.8215352445
 20
31.1520338754
 11
369.8043479651
 21
30.9907152029
 12
368.6480977445
 22
31.0552422931
 13
368.6480977445
 23
31.0552422931
  0
SOLID
  8
0
 62
7
  6
CONTINUOUS
 10
369.6309104651
 20
30.8939239876
 11
368.6480977445
 21
31.0552422931
 12
369.8043479651
 22
30.9907152029
 13
369.8043479651
 23
30.9907152029
  0
SOLID
  8
0
 62
7
  6
CONTINUOUS
 10
369.8043479651
 20
30.9907152029
 11
370.0355977445
 21
30.8939239876
 12
369.6309104651
 22
30.8939239876
 13
369.6309104651
 23
30.8939239876
  0
SOLID
  8
0
 62
7
  6
CONTINUOUS
 10
369.8043479651
 20
30.8293967193
 11
369.6309104651
 21
30.8939239876
 12
370.0355977445
 22
30.8939239876
 13
370.0355977445
 23
30.8939239876
  0
SOLID
  8
0
 62
7
  6
CONTINUOUS
 10
369.8043479651
 20
30.8293967193
 11
370.0355977445
 21
30.8939239876
 12
369.8621602445
 22
30.7648682694
 13
369.8621602445
 23
30.7648682694
  0
SOLID
  8
0
 62
7
  6
CONTINUOUS
 10
370.0355977445
 20
30.8939239876
 11
370.1512223035
 21
30.7648682694
 12
369.8621602445
 22
30.7648682694
 13
369.8621602445
 23
30.7648682694
  0
SOLID
  8
0
 62
7
  6
CONTINUOUS
 10
369.8043479651
 20
30.7003411846
 11
369.8621602445
 21
30.7648682694
 12
370.1512223035
 22
30.7648682694
 13
370.1512223035
 23
30.7648682694
  0
SOLID
  8
0
 62
7
  6
CONTINUOUS
 10
370.1512223035
 20
30.7648682694
 11
370.1512223035
 21
30.7003411846
 12
369.8043479651
 22
30.7003411846
 13
369.8043479651
 23
30.7003411846
  0
SOLID
  8
0
 62
7
  6
CONTINUOUS
 10
369.6887227445
 20
30.6680782357
 11
369.8043479651
 21
30.7003411846
 12
370.1512223035
 22
30.7003411846
 13
370.1512223035
 23
30.7003411846
  0
SOLID
  8
0
 62
7
  6
CONTINUOUS
 10
369.6887227445
 20
30.6680782357
 11
370.1512223035
 21
30.7003411846
 12
369.4574729651
 22
30.6358140998
 13
369.4574729651
 23
30.6358140998
  0
SOLID
  8
0
 62
7
  6
CONTINUOUS
 10
370.1512223035
 20
30.7003411846
 11
370.0355977445
 21
30.6035511455
 12
369.4574729651
 22
30.6358140998
 13
369.4574729651
 23
30.6358140998
  0
SOLID
  8
0
 62
7
  6
CONTINUOUS
 10
370.0355977445
 20
30.6035511455
 11
368.5902854651
 21
30.5712868422
 12
369.4574729651
 22
30.6358140998
 13
369.4574729651
 23
30.6358140998
  0
SOLID
  8
0
 62
7
  6
CONTINUOUS
 10
369.4574729651
 20
30.6358140998
 11
368.5902854651
 21
30.5712868422
 12
369.1105979651
 22
30.6358140998
 13
369.1105979651
 23
30.6358140998
  0
SOLID
  8
0
 62
7
  6
CONTINUOUS
 10
368.5902854651
 20
30.5712868422
 11
368.4168479651
 21
30.6358140998
 12
369.1105979651
 22
30.6358140998
 13
369.1105979651
 23
30.6358140998
  0
SOLID
  8
0
 62
7
  6
CONTINUOUS
 10
368.5902854651
 20
30.5712868422
 11
370.0355977445
 21
30.6035511455
 12
368.7637229651
 22
30.5390223111
 13
368.7637229651
 23
30.5390223111
  0
SOLID
  8
0
 62
7
  6
CONTINUOUS
 10
370.0355977445
 20
30.6035511455
 11
369.8043479651
 21
30.5390223111
 12
368.7637229651
 22
30.5390223111
 13
368.7637229651
 23
30.5390223111
  0
SOLID
  8
0
 62
7
  6
CONTINUOUS
 10
369.1105979651
 20
30.5067599302
 11
368.7637229651
 21
30.5390223111
 12
369.8043479651
 22
30.5390223111
 13
369.8043479651
 23
30.5390223111
  0
SOLID
  8
0
 62
7
  6
CONTINUOUS
 10
369.8043479651
 20
30.5390223111
 11
369.4574729651
 21
30.5067599302
 12
369.1105979651
 22
30.5067599302
 13
369.1105979651
 23
30.5067599302
  0
SOLID
  8
0
 62
7
  6
CONTINUOUS
 10
358.7621602445
 20
31.0229779898
 11
359.1090352445
 21
31.1842964734
 12
359.0512227376
 22
31.0552422931
 13
359.0512227376
 23
31.0552422931
  0
SOLID
  8
0
 62
7
  6
CONTINUOUS
 10
359.0512227376
 20
31.0552422931
 11
359.0512227376
 21
30.9584509954
 12
358.7621602445
 22
31.0229779898
 13
358.7621602445
 23
31.0229779898
  0
SOLID
  8
0
 62
7
  6
CONTINUOUS
 10
358.8199727462
 20
30.8293967193
 11
358.7621602445
 21
31.0229779898
 12
359.0512227376
 22
30.9584509954
 13
359.0512227376
 23
30.9584509954
  0
SOLID
  8
0
 62
7
  6
CONTINUOUS
 10
359.0512227376
 20
30.9584509954
 11
359.1668477307
 21
30.797132416
 12
358.8199727462
 22
30.8293967193
 13
358.8199727462
 23
30.8293967193
  0
SOLID
  8
0
 62
7
  6
CONTINUOUS
 10
358.9355977445
 20
30.7003413087
 11
358.8199727462
 21
30.8293967193
 12
359.1668477307
 22
30.797132416
 13
359.1668477307
 23
30.797132416
  0
SOLID
  8
0
 62
7
  6
CONTINUOUS
 10
359.1668477307
 20
30.797132416
 11
359.3402852307
 21
30.7003413087
 12
358.9355977445
 22
30.7003413087
 13
358.9355977445
 23
30.7003413087
  0
SOLID
  8
0
 62
7
  6
CONTINUOUS
 10
359.0512227376
 20
30.6358140759
 11
358.9355977445
 21
30.7003413087
 12
359.3402852307
 22
30.7003413087
 13
359.3402852307
 23
30.7003413087
  0
SOLID
  8
0
 62
7
  6
CONTINUOUS
 10
359.3402852307
 20
30.7003413087
 11
359.6871602721
 21
30.6358140759
 12
359.0512227376
 22
30.6358140759
 13
359.0512227376
 23
30.6358140759
  0
SOLID
  8
0
 62
7
  6
CONTINUOUS
 10
359.2246602583
 20
30.5712868422
 11
359.0512227376
 21
30.6358140759
 12
359.6871602721
 22
30.6358140759
 13
359.6871602721
 23
30.6358140759
  0
SOLID
  8
0
 62
7
  6
CONTINUOUS
 10
363.2715352445
 20
31.0229779808
 11
363.3871601343
 21
31.0875057863
 12
363.9652852445
 22
31.0552422931
 13
363.9652852445
 23
31.0552422931
  0
SOLID
  8
0
 62
7
  6
CONTINUOUS
 10
363.9652852445
 20
31.0552422931
 11
363.7340351343
 21
31.0229779808
 12
363.2715352445
 22
31.0229779808
 13
363.2715352445
 23
31.0229779808
  0
SOLID
  8
0
 62
7
  6
CONTINUOUS
 10
363.1559103548
 20
30.8939238094
 11
363.2715352445
 21
31.0229779808
 12
363.7340351343
 22
31.0229779808
 13
363.7340351343
 23
31.0229779808
  0
SOLID
  8
0
 62
7
  6
CONTINUOUS
 10
363.5027853548
 20
30.926187309
 11
363.1559103548
 21
30.8939238094
 12
363.6184102445
 22
30.9907152029
 13
363.6184102445
 23
30.9907152029
  0
SOLID
  8
0
 62
7
  6
CONTINUOUS
 10
363.1559103548
 20
30.8939238094
 11
363.7340351343
 21
31.0229779898
 12
363.6184102445
 22
30.9907152029
 13
363.6184102445
 23
30.9907152029
  0
SOLID
  8
0
 62
7
  6
CONTINUOUS
 10
363.5027853548
 20
30.926187309
 11
363.4449727445
 21
30.8293967193
 12
363.1559103548
 22
30.8939238094
 13
363.1559103548
 23
30.8939238094
  0
SOLID
  8
0
 62
7
  6
CONTINUOUS
 10
363.1559103548
 20
30.797132416
 11
363.1559103548
 21
30.8939238094
 12
363.4449727445
 22
30.8293967193
 13
363.4449727445
 23
30.8293967193
  0
SOLID
  8
0
 62
7
  6
CONTINUOUS
 10
363.4449727445
 20
30.8293967193
 11
363.4449727445
 21
30.7648681127
 12
363.1559103548
 22
30.797132416
 13
363.1559103548
 23
30.797132416
  0
SOLID
  8
0
 62
7
  6
CONTINUOUS
 10
363.2137226343
 20
30.6680782357
 11
363.1559103548
 21
30.797132416
 12
363.4449727445
 22
30.7648681127
 13
363.4449727445
 23
30.7648681127
  0
SOLID
  8
0
 62
7
  6
CONTINUOUS
 10
364.6012229651
 20
30.8616599362
 11
364.890285024
 21
30.7648681127
 12
364.543410024
 22
30.797132416
 13
364.543410024
 23
30.797132416
  0
SOLID
  8
0
 62
7
  6
CONTINUOUS
 10
364.369972524
 20
30.7003410226
 11
364.543410024
 21
30.797132416
 12
364.890285024
 22
30.7648681127
 13
364.890285024
 23
30.7648681127
  0
SOLID
  8
0
 62
7
  6
CONTINUOUS
 10
364.369972524
 20
30.7003410226
 11
364.890285024
 21
30.7648681127
 12
364.6012229651
 22
30.6680782357
 13
364.6012229651
 23
30.6680782357
  0
SOLID
  8
0
 62
7
  6
CONTINUOUS
 10
364.890285024
 20
30.7648681127
 11
364.9480979651
 21
30.6035511455
 12
364.6012229651
 22
30.6680782357
 13
364.6012229651
 23
30.6680782357
  0
SOLID
  8
0
 62
7
  6
CONTINUOUS
 10
364.6590352445
 20
30.5712868422
 11
364.6012229651
 21
30.6680782357
 12
364.9480979651
 22
30.6035511455
 13
364.9480979651
 23
30.6035511455
  0
SOLID
  8
0
 62
7
  6
CONTINUOUS
 10
364.6590352445
 20
30.5712868422
 11
364.9480979651
 21
30.6035511455
 12
364.716847524
 22
30.5067598731
 13
364.716847524
 23
30.5067598731
  0
SOLID
  8
0
 62
7
  6
CONTINUOUS
 10
364.9480979651
 20
30.6035511455
 11
365.0059102445
 21
30.5067598731
 12
364.716847524
 22
30.5067598731
 13
364.716847524
 23
30.5067598731
  0
SOLID
  8
0
 62
7
  6
CONTINUOUS
 10
360.2652852997
 20
30.7326051679
 11
360.3230977445
 21
30.8293966612
 12
360.6121602997
 22
30.8293966612
 13
360.6121602997
 23
30.8293966612
  0
SOLID
  8
0
 62
7
  6
CONTINUOUS
 10
360.6121602997
 20
30.8293966612
 11
360.5543476894
 21
30.7003410226
 12
360.2652852997
 22
30.7326051679
 13
360.2652852997
 23
30.7326051679
  0
SOLID
  8
0
 62
7
  6
CONTINUOUS
 10
360.091847717
 20
30.6680782357
 11
360.2652852997
 21
30.7326051679
 12
360.5543476894
 22
30.7003410226
 13
360.5543476894
 23
30.7003410226
  0
SOLID
  8
0
 62
7
  6
CONTINUOUS
 10
360.091847717
 20
30.6680782357
 11
360.5543476894
 21
30.7003410226
 12
359.6871602721
 22
30.6358139324
 13
359.6871602721
 23
30.6358139324
  0
SOLID
  8
0
 62
7
  6
CONTINUOUS
 10
360.5543476894
 20
30.7003410226
 11
360.3809101894
 21
30.6035511455
 12
359.6871602721
 22
30.6358139324
 13
359.6871602721
 23
30.6358139324
  0
SOLID
  8
0
 62
7
  6
CONTINUOUS
 10
359.2246602583
 20
30.5712868422
 11
359.6871602721
 21
30.6358139324
 12
360.3809101894
 22
30.6035511455
 13
360.3809101894
 23
30.6035511455
  0
SOLID
  8
0
 62
7
  6
CONTINUOUS
 10
359.2246602583
 20
30.5712868422
 11
360.3809101894
 21
30.6035511455
 12
359.3980977583
 22
30.5390224228
 13
359.3980977583
 23
30.5390224228
  0
SOLID
  8
0
 62
7
  6
CONTINUOUS
 10
360.3809101894
 20
30.6035511455
 11
360.1496602445
 21
30.5390224228
 12
359.3980977583
 22
30.5390224228
 13
359.3980977583
 23
30.5390224228
  0
SOLID
  8
0
 62
7
  6
CONTINUOUS
 10
359.744972717
 20
30.5067597521
 11
359.3980977583
 21
30.5390224228
 12
360.1496602445
 22
30.5390224228
 13
360.1496602445
 23
30.5390224228
  0
SOLID
  8
0
 62
7
  6
CONTINUOUS
 10
363.2137226343
 20
30.6680782357
 11
363.4449727445
 21
30.7648681127
 12
363.5027853548
 22
30.7003410226
 13
363.5027853548
 23
30.7003410226
  0
SOLID
  8
0
 62
7
  6
CONTINUOUS
 10
363.5027853548
 20
30.7003410226
 11
363.7340351343
 21
30.6358139324
 12
363.2137226343
 22
30.6680782357
 13
363.2137226343
 23
30.6680782357
  0
SOLID
  8
0
 62
7
  6
CONTINUOUS
 10
363.3871601343
 20
30.5712868422
 11
363.2137226343
 21
30.6680782357
 12
363.7340351343
 22
30.6358139324
 13
363.7340351343
 23
30.6358139324
  0
SOLID
  8
0
 62
7
  6
CONTINUOUS
 10
364.0809101343
 20
30.6358139363
 11
364.369972524
 21
30.7003410226
 12
364.6012229651
 22
30.6680782357
 13
364.6012229651
 23
30.6680782357
  0
SOLID
  8
0
 62
7
  6
CONTINUOUS
 10
364.6012229651
 20
30.6680782357
 11
364.543410024
 21
30.6035511455
 12
364.0809101343
 22
30.6358139363
 13
364.0809101343
 23
30.6358139363
  0
SOLID
  8
0
 62
7
  6
CONTINUOUS
 10
364.543410024
 20
30.6035511455
 11
363.3871601343
 21
30.5712868422
 12
364.0809101343
 22
30.6358139363
 13
364.0809101343
 23
30.6358139363
  0
SOLID
  8
0
 62
7
  6
CONTINUOUS
 10
363.3871601343
 20
30.5712868422
 11
363.7340351343
 21
30.6358139363
 12
364.0809101343
 22
30.6358139363
 13
364.0809101343
 23
30.6358139363
  0
SOLID
  8
0
 62
7
  6
CONTINUOUS
 10
363.3871601343
 20
30.5712868422
 11
364.543410024
 21
30.6035511455
 12
363.5027853548
 22
30.5390225267
 13
363.5027853548
 23
30.5390225267
  0
SOLID
  8
0
 62
7
  6
CONTINUOUS
 10
364.543410024
 20
30.6035511455
 11
364.369972524
 21
30.5390225267
 12
363.5027853548
 22
30.5390225267
 13
363.5027853548
 23
30.5390225267
  0
SOLID
  8
0
 62
7
  6
CONTINUOUS
 10
363.7340351343
 20
30.5067596914
 11
363.5027853548
 21
30.5390225267
 12
364.369972524
 22
30.5390225267
 13
364.369972524
 23
30.5390225267
  0
SOLID
  8
0
 62
7
  6
CONTINUOUS
 10
364.369972524
 20
30.5390225267
 11
364.0809101343
 21
30.5067596914
 12
363.7340351343
 22
30.5067596914
 13
363.7340351343
 23
30.5067596914
  0
SOLID
  8
0
 62
7
  6
CONTINUOUS
 10
368.7637229651
 20
30.6680782357
 11
368.4168479651
 21
30.6358138717
 12
368.6480977445
 22
30.7003410226
 13
368.6480977445
 23
30.7003410226
  0
SOLID
  8
0
 62
7
  6
CONTINUOUS
 10
368.6480977445
 20
30.7003410226
 11
368.4168479651
 21
30.6358138717
 12
368.5902854651
 22
30.7648680521
 13
368.5902854651
 23
30.7648680521
  0
SOLID
  8
0
 62
7
  6
CONTINUOUS
 10
368.4168479651
 20
30.6358138717
 11
368.3012227445
 21
30.7648680521
 12
368.5902854651
 22
30.7648680521
 13
368.5902854651
 23
30.7648680521
  0
SOLID
  8
0
 62
7
  6
CONTINUOUS
 10
368.7637229651
 20
30.6680782357
 11
369.1105979651
 21
30.6358138717
 12
368.4168479651
 22
30.6358138717
 13
368.4168479651
 23
30.6358138717
  0
SOLID
  8
0
 62
7
  6
CONTINUOUS
 10
365.4684104651
 20
30.5067597521
 11
365.4684104651
 21
31.5391977439
 12
365.757472524
 22
30.5067597521
 13
365.757472524
 23
31.5391977439
  0
ENDBLK
  8
0
  6
BYBLOCK
 62
0
  0
BLOCK
  8
0
 62
2
  6
CONTINUOUS
  2
SYMBOL_0_BL0
 70
64
 10
240.8592468615
 20
19.762288695
  0
TEXT
  8
0
 62
7
  6
CONTINUOUS
 10
227.1239507038
 20
19.1357028027
  7
TEXTSTYLE_3
 40
2.7338706658
  1
Ammeraal Beltech
 41
1.0
 51
15.0
 72
0
  0
TEXT
  8
0
 62
7
  6
CONTINUOUS
 10
237.9247515296
 20
16.8621661299
  7
TEXTSTYLE_4
 40
1.0935482663
  1
Innovation & Service in Belting
 41
1.0
 72
0
  0
LINE
  8
0
 62
7
  6
CONTINUOUS
 10
221.0994100525
 20
19.9022961113
 11
221.8775620458
 21
23.5632134089
  0
LINE
  8
0
 62
7
  6
CONTINUOUS
 10
231.9727303357
 20
27.2266073205
 11
222.3653797889
 21
24.1049898993
  0
LINE
  8
0
 62
7
  6
CONTINUOUS
 10
221.3246933848
 20
19.2089453082
 11
228.8317686459
 21
12.4495443822
  0
LINE
  8
0
 62
7
  6
CONTINUOUS
 10
221.5872277955
 20
20.4440726016
 11
232.3954971607
 21
23.9558922005
  0
LINE
  8
0
 62
7
  6
CONTINUOUS
 10
232.3912920235
 20
13.6061036368
 11
223.9458323548
 21
21.2104296785
  0
LINE
  8
0
 62
7
  6
CONTINUOUS
 10
232.9111147433
 20
26.3816822048
 11
231.9345552061
 21
21.7873308023
  0
LINE
  8
0
 62
7
  6
CONTINUOUS
 10
231.2347532584
 20
18.4950214885
 11
230.5483050469
 21
15.2655365641
  0
LINE
  8
0
 62
7
  6
CONTINUOUS
 10
233.5922108419
 20
13.9963058145
 11
234.5484423775
 21
18.4950214885
  0
LINE
  8
0
 62
7
  6
CONTINUOUS
 10
235.2482443252
 20
21.7873308023
 11
235.6924861276
 21
23.8773241617
  0
LINE
  8
0
 62
7
  6
CONTINUOUS
 10
229.5448697213
 20
12.2979700695
 11
233.1043930989
 21
13.4545293241
  0
LINE
  8
0
 62
7
  6
CONTINUOUS
 10
232.685831411
 20
27.0750330078
 11
235.4672027953
 21
24.5706749648
  0
ARC
  8
0
 62
7
  6
CONTINUOUS
 10
222.5906631212
 20
23.4116390962
 40
0.7290321776
 50
108.0
 51
168.0
  0
ARC
  8
0
 62
7
  6
CONTINUOUS
 10
232.198013668
 20
26.5332565175
 40
0.7290321776
 50
348.0
 51
108.0
  0
ARC
  8
0
 62
7
  6
CONTINUOUS
 10
234.9793850522
 20
24.0288984744
 40
0.7290321776
 50
348.0
 51
48.0
  0
ARC
  8
0
 62
7
  6
CONTINUOUS
 10
229.319586389
 20
12.9913208726
 40
0.7290321776
 50
228.0
 51
288.0
  0
ARC
  8
0
 62
7
  6
CONTINUOUS
 10
221.8125111278
 20
19.7507217986
 40
0.7290321776
 50
108.0
 51
228.0
  0
ARC
  8
0
 62
7
  6
CONTINUOUS
 10
232.8791097665
 20
14.1478801272
 40
0.7290321776
 50
228.0
 51
348.0
  0
ENDBLK
  8
0
  6
BYBLOCK
 62
0
  0
ENDSEC
  0
SECTION
  2
ENTITIES
  0
TEXT
  8
0
 62
5
  6
CONTINUOUS
 10
304.937007874
 20
25.636
  7
TEXTSTYLE_2
 40
2.8
  1
Scale :
 41
0.6
 51
0.000019
 72
0
  0
TEXT
  8
0
 62
5
  6
CONTINUOUS
 10
324.937007874
 20
25.636
  7
TEXTSTYLE_2
 40
2.8
  1
Belt type:
 41
0.6
 51
0.000019
 72
0
  0
INSERT
  8
0
 62
2
  6
CONTINUOUS
  2
SYMBOL_0_BL0
 10
240.8592468615
 20
19.762288695
  0
INSERT
  8
0
 62
2
  6
CONTINUOUS
  2
SYMBOL_5_BL1
 10
382.7840918555
 20
35.5067593403
  0
LINE
  8
0
 62
2
  6
CONTINUOUS
 10
218.937007874
 20
30.0
 11
408.937007874
 21
30.0
  0
LINE
  8
0
 62
2
  6
CONTINUOUS
 10
218.937007874
 20
30.0
 11
218.937007874
 21
10.0
  0
LINE
  8
0
 62
2
  6
CONTINUOUS
 10
218.937007874
 20
10.0
 11
408.937007874
 21
10.0
  0
LINE
  8
0
 62
2
  6
CONTINUOUS
 10
303.937007874
 20
30.0
 11
303.937007874
 21
10.0
  0
LINE
  8
0
 62
2
  6
CONTINUOUS
 10
323.937007874
 20
30.0
 11
323.937007874
 21
10.0
  0
LINE
  8
0
 62
2
  6
CONTINUOUS
 10
408.937007874
 20
30.0
 11
408.937007874
 21
10.0
  0
TEXT
  8
0
 62
5
  6
CONTINUOUS
 10
221.937007874
 20
23.303
  7
TEXTSTYLE_5
 40
1.52
  1
                                                                     Ammeraal Beltech Modular A/S
 41
1.0
 72
0
  0
TEXT
  8
0
 62
5
  6
CONTINUOUS
 10
221.937007874
 20
20.595
  7
TEXTSTYLE_5
 40
1.5
  1
                                                                      Hjulmagervej 21, 7100 Vejle,  DK
 41
1.0
 72
0
  0
TEXT
  8
0
 62
5
  6
CONTINUOUS
 10
221.937007874
 20
17.881
  7
TEXTSTYLE_5
 40
1.495
  1
                                                                      tel: 
 41
1.0
 72
0
  0
TEXT
  8
0
 62
5
  6
CONTINUOUS
 10
266.9239544389
 20
17.881
  7
TEXTSTYLE_5
 40
1.51
  1
+45 75723100     fax: +45 75723348
 41
1.0
 72
0
  0
TEXT
  8
0
 62
5
  6
CONTINUOUS
 10
221.937007874
 20
15.177
  7
TEXTSTYLE_5
 40
1.5
  1
                                                                      admin@unichains.dk  www.unichains.com
 41
1.0
 72
0
  0
TEXT
  8
0
 62
5
  6
CONTINUOUS
 10
308.687007874
 20
13.75
  7
TEXTSTYLE_6
 40
5.0
  1
1:1
 41
0.7
 72
1
 11
313.937007874
 21
13.75
  0
TEXT
  8
0
 62
5
  6
CONTINUOUS
 10
326.937007874
 20
13.75
  7
TEXTSTYLE_7
 40
7.5
  1
uni Flex ASB-43 CS K279
 41
0.4248188406
 72
0
  0
LINE
  8
0
 62
7
  6
CONTINUOUS
 10
0.0
 20
0.0
 11
0.0
 21
297.0
  0
LINE
  8
0
 62
7
  6
CONTINUOUS
 10
8.937007874
 20
10.0
 11
8.937007874
 21
287.0
  0
LINE
  8
0
 62
7
  6
CONTINUOUS
 10
0.0
 20
0.0
 11
420.0
 21
0.0
  0
LINE
  8
0
 62
7
  6
CONTINUOUS
 10
408.937007874
 20
10.0
 11
8.937007874
 21
10.0
  0
LINE
  8
0
 62
7
  6
CONTINUOUS
 10
218.937007874
 20
30.0
 11
408.937007874
 21
30.0
  0
LINE
  8
0
 62
7
  6
CONTINUOUS
 10
210.0
 20
297.0
 11
210.0
 21
292.0
  0
LINE
  8
0
 62
7
  6
CONTINUOUS
 10
210.0
 20
0.0
 11
210.0
 21
5.0
  0
LINE
  8
0
 62
7
  6
CONTINUOUS
 10
8.937007874
 20
287.0
 11
408.937007874
 21
287.0
  0
LINE
  8
0
 62
7
  6
CONTINUOUS
 10
0.0
 20
297.0
 11
420.0
 21
297.0
  0
LINE
  8
0
 62
7
  6
CONTINUOUS
 10
408.937007874
 20
287.0
 11
408.937007874
 21
10.0
  0
LINE
  8
0
 62
7
  6
CONTINUOUS
 10
420.0
 20
0.0
 11
420.0
 21
297.0
  0
LINE
  8
0
 62
7
  6
CONTINUOUS
 10
117.1218608608
 20
236.1881118497
 11
117.1218608608
 21
222.3953433969
  0
POLYLINE
  8
0
 62
7
  6
CONTINUOUS
 66
1
 70
0
  0
VERTEX
  8
0
 62
7
  6
CONTINUOUS
 10
130.4968460575
 20
233.9932552359
  0
VERTEX
  8
0
 62
7
  6
CONTINUOUS
 10
130.4960751985
 20
234.0291656143
  0
VERTEX
  8
0
 62
7
  6
CONTINUOUS
 10
130.4936249945
 20
234.0681965152
  0
VERTEX
  8
0
 62
7
  6
CONTINUOUS
 10
130.4896112836
 20
234.1077885911
  0
VERTEX
  8
0
 62
7
  6
CONTINUOUS
 10
130.4842350028
 20
234.1472420028
  0
VERTEX
  8
0
 62
7
  6
CONTINUOUS
 10
130.4777140081
 20
234.1861251299
  0
VERTEX
  8
0
 62
7
  6
CONTINUOUS
 10
130.4702216714
 20
234.2243190145
  0
VERTEX
  8
0
 62
7
  6
CONTINUOUS
 10
130.4618851366
 20
234.2618404165
  0
VERTEX
  8
0
 62
7
  6
CONTINUOUS
 10
130.4528049574
 20
234.2987143787
  0
VERTEX
  8
0
 62
7
  6
CONTINUOUS
 10
130.4430634808
 20
234.3349687785
  0
VERTEX
  8
0
 62
7
  6
CONTINUOUS
 10
130.4327344791
 20
234.3706127971
  0
VERTEX
  8
0
 62
7
  6
CONTINUOUS
 10
130.421865858
 20
234.4056948222
  0
VERTEX
  8
0
 62
7
  6
CONTINUOUS
 10
130.4104709626
 20
234.4403338736
  0
VERTEX
  8
0
 62
7
  6
CONTINUOUS
 10
130.3985617577
 20
234.4746126914
  0
VERTEX
  8
0
 62
7
  6
CONTINUOUS
 10
130.3861419397
 20
234.5086007651
  0
VERTEX
  8
0
 62
7
  6
CONTINUOUS
 10
130.3732106985
 20
234.5423627108
  0
VERTEX
  8
0
 62
7
  6
CONTINUOUS
 10
130.3597676935
 20
234.5759375788
  0
VERTEX
  8
0
 62
7
  6
CONTINUOUS
 10
130.3458014216
 20
234.6093807027
  0
VERTEX
  8
0
 62
7
  6
CONTINUOUS
 10
130.3313067164
 20
234.6427165372
  0
VERTEX
  8
0
 62
7
  6
CONTINUOUS
 10
130.3162683726
 20
234.6759828014
  0
VERTEX
  8
0
 62
7
  6
CONTINUOUS
 10
130.3006785068
 20
234.709191121
  0
VERTEX
  8
0
 62
7
  6
CONTINUOUS
 10
130.2845206002
 20
234.7423632806
  0
VERTEX
  8
0
 62
7
  6
CONTINUOUS
 10
130.2677973911
 20
234.7754758465
  0
VERTEX
  8
0
 62
7
  6
CONTINUOUS
 10
130.2505108737
 20
234.8085043676
  0
VERTEX
  8
0
 62
7
  6
CONTINUOUS
 10
130.2326713713
 20
234.8414071439
  0
VERTEX
  8
0
 62
7
  6
CONTINUOUS
 10
130.2142805081
 20
234.8741585928
  0
VERTEX
  8
0
 62
7
  6
CONTINUOUS
 10
130.1953478027
 20
234.9067162435
  0
VERTEX
  8
0
 62
7
  6
CONTINUOUS
 10
130.1758797913
 20
234.9390448569
  0
VERTEX
  8
0
 62
7
  6
CONTINUOUS
 10
130.1558890744
 20
234.9710956359
  0
VERTEX
  8
0
 62
7
  6
CONTINUOUS
 10
130.1353872029
 20
235.0028254706
  0
VERTEX
  8
0
 62
7
  6
CONTINUOUS
 10
130.1143816844
 20
235.0341940157
  0
VERTEX
  8
0
 62
7
  6
CONTINUOUS
 10
130.0928866383
 20
235.0651530123
  0
VERTEX
  8
0
 62
7
  6
CONTINUOUS
 10
130.0709063946
 20
235.0956676731
  0
VERTEX
  8
0
 62
7
  6
CONTINUOUS
 10
130.0484522707
 20
235.1256909703
  0
VERTEX
  8
0
 62
7
  6
CONTINUOUS
 10
130.0255321845
 20
235.1551828985
  0
VERTEX
  8
0
 62
7
  6
CONTINUOUS
 10
130.0020952049
 20
235.1841708956
  0
VERTEX
  8
0
 62
7
  6
CONTINUOUS
 10
129.9779765893
 20
235.2128032166
  0
VERTEX
  8
0
 62
7
  6
CONTINUOUS
 10
129.9529792416
 20
235.2412303446
  0
VERTEX
  8
0
 62
7
  6
CONTINUOUS
 10
129.9268986024
 20
235.2695644018
  0
VERTEX
  8
0
 62
7
  6
CONTINUOUS
 10
129.8995280443
 20
235.2978755659
  0
VERTEX
  8
0
 62
7
  6
CONTINUOUS
 10
129.870631972
 20
235.3262117118
  0
VERTEX
  8
0
 62
7
  6
CONTINUOUS
 10
129.8478318728
 20
235.347458052
  0
SEQEND
  0
LINE
  8
0
 62
7
  6
CONTINUOUS
 10
124.496875224
 20
222.9953433969
 11
124.496875224
 21
233.993255237
  0
LINE
  8
0
 62
7
  6
CONTINUOUS
 10
125.2468608608
 20
235.954719604
 11
125.2468608608
 21
235.4373893854
  0
LINE
  8
0
 62
7
  6
CONTINUOUS
 10
129.7468608608
 20
235.4373853604
 11
129.7468608608
 21
236.1188268992
  0
LINE
  8
0
 62
7
  6
CONTINUOUS
 10
130.4968464977
 20
233.9932911523
 11
130.4968464977
 21
222.9953433969
  0
POLYLINE
  8
AXES
 62
7
  6
CONTINUOUS
 66
1
 70
0
  0
VERTEX
  8
AXES
 62
7
  6
CONTINUOUS
 10
124.496875224
 20
227.2612335656
  0
VERTEX
  8
AXES
 62
7
  6
CONTINUOUS
 10
124.4822725188
 20
227.3087803315
  0
VERTEX
  8
AXES
 62
7
  6
CONTINUOUS
 10
124.4360995466
 20
227.4929334449
  0
VERTEX
  8
AXES
 62
7
  6
CONTINUOUS
 10
124.3996872267
 20
227.679962339
  0
VERTEX
  8
AXES
 62
7
  6
CONTINUOUS
 10
124.3735857164
 20
227.8678859216
  0
VERTEX
  8
AXES
 62
7
  6
CONTINUOUS
 10
124.3578616173
 20
228.056750191
  0
VERTEX
  8
AXES
 62
7
  6
CONTINUOUS
 10
124.3526339234
 20
228.2455160278
  0
VERTEX
  8
AXES
 62
7
  6
CONTINUOUS
 10
124.3578816185
 20
228.4342969779
  0
VERTEX
  8
AXES
 62
7
  6
CONTINUOUS
 10
124.3736251311
 20
228.6231554855
  0
VERTEX
  8
AXES
 62
7
  6
CONTINUOUS
 10
124.3997447575
 20
228.8110693379
  0
VERTEX
  8
AXES
 62
7
  6
CONTINUOUS
 10
124.4361767472
 20
228.9980998514
  0
VERTEX
  8
AXES
 62
7
  6
CONTINUOUS
 10
124.4823638133
 20
229.1822336779
  0
VERTEX
  8
AXES
 62
7
  6
CONTINUOUS
 10
124.496875224
 20
229.2294674603
  0
SEQEND
  0
LINE
  8
0
 62
7
  6
CONTINUOUS
 10
138.8218608608
 20
226.1459878501
 11
138.8218608608
 21
222.3953433969
  0
LINE
  8
0
 62
7
  6
CONTINUOUS
 10
140.121875224
 20
223.259081293
 11
140.121875224
 21
233.993255237
  0
LINE
  8
0
 62
7
  6
CONTINUOUS
 10
140.8718608608
 20
236.2075545118
 11
140.8718608608
 21
235.4373893854
  0
LINE
  8
0
 62
7
  6
CONTINUOUS
 10
145.3718608608
 20
236.2188363039
 11
145.3718608608
 21
235.4373893857
  0
POLYLINE
  8
AXES
 62
7
  6
CONTINUOUS
 66
1
 70
0
  0
VERTEX
  8
AXES
 62
7
  6
CONTINUOUS
 10
140.121875224
 20
226.9243241846
  0
VERTEX
  8
AXES
 62
7
  6
CONTINUOUS
 10
140.1188862976
 20
226.8883311972
  0
VERTEX
  8
AXES
 62
7
  6
CONTINUOUS
 10
140.1108139713
 20
226.8573692846
  0
VERTEX
  8
AXES
 62
7
  6
CONTINUOUS
 10
140.0986409805
 20
226.8309620708
  0
VERTEX
  8
AXES
 62
7
  6
CONTINUOUS
 10
140.083295945
 20
226.8090673806
  0
VERTEX
  8
AXES
 62
7
  6
CONTINUOUS
 10
140.0657507009
 20
226.7915977659
  0
VERTEX
  8
AXES
 62
7
  6
CONTINUOUS
 10
140.0464758298
 20
226.7780222453
  0
VERTEX
  8
AXES
 62
7
  6
CONTINUOUS
 10
140.025533523
 20
226.7679129928
  0
VERTEX
  8
AXES
 62
7
  6
CONTINUOUS
 10
140.0036921001
 20
226.7613633953
  0
SEQEND
  0
POLYLINE
  8
0
 62
7
  6
CONTINUOUS
 66
1
 70
0
  0
VERTEX
  8
0
 62
7
  6
CONTINUOUS
 10
146.1218463695
 20
233.9932552387
  0
VERTEX
  8
0
 62
7
  6
CONTINUOUS
 10
146.1208663461
 20
234.0338510195
  0
VERTEX
  8
0
 62
7
  6
CONTINUOUS
 10
146.118156339
 20
234.0736894238
  0
VERTEX
  8
0
 62
7
  6
CONTINUOUS
 10
146.1138486171
 20
234.1140256913
  0
VERTEX
  8
0
 62
7
  6
CONTINUOUS
 10
146.1081592039
 20
234.1541641455
  0
VERTEX
  8
0
 62
7
  6
CONTINUOUS
 10
146.1013151059
 20
234.1936784089
  0
VERTEX
  8
0
 62
7
  6
CONTINUOUS
 10
146.0934887721
 20
234.2324809091
  0
VERTEX
  8
0
 62
7
  6
CONTINUOUS
 10
146.0848067833
 20
234.2705963248
  0
VERTEX
  8
0
 62
7
  6
CONTINUOUS
 10
146.0753702654
 20
234.3080560524
  0
VERTEX
  8
0
 62
7
  6
CONTINUOUS
 10
146.0652640955
 20
234.3448830282
  0
VERTEX
  8
0
 62
7
  6
CONTINUOUS
 10
146.0545639408
 20
234.3810788854
  0
VERTEX
  8
0
 62
7
  6
CONTINUOUS
 10
146.0433069447
 20
234.4167282597
  0
VERTEX
  8
0
 62
7
  6
CONTINUOUS
 10
146.0315059929
 20
234.4519475498
  0
VERTEX
  8
0
 62
7
  6
CONTINUOUS
 10
146.0191726064
 20
234.4868144987
  0
VERTEX
  8
0
 62
7
  6
CONTINUOUS
 10
146.0063083849
 20
234.5214015706
  0
VERTEX
  8
0
 62
7
  6
CONTINUOUS
 10
145.9929126074
 20
234.5557689259
  0
VERTEX
  8
0
 62
7
  6
CONTINUOUS
 10
145.9789812242
 20
234.5899611761
  0
VERTEX
  8
0
 62
7
  6
CONTINUOUS
 10
145.9645005225
 20
234.6240342553
  0
VERTEX
  8
0
 62
7
  6
CONTINUOUS
 10
145.9494621087
 20
234.6580157029
  0
VERTEX
  8
0
 62
7
  6
CONTINUOUS
 10
145.9338483836
 20
234.6919425738
  0
VERTEX
  8
0
 62
7
  6
CONTINUOUS
 10
145.9176480061
 20
234.7258291932
  0
VERTEX
  8
0
 62
7
  6
CONTINUOUS
 10
145.9008481177
 20
234.759683218
  0
VERTEX
  8
0
 62
7
  6
CONTINUOUS
 10
145.8834616767
 20
234.793458564
  0
VERTEX
  8
0
 62
7
  6
CONTINUOUS
 10
145.865498647
 20
234.8271127317
  0
VERTEX
  8
0
 62
7
  6
CONTINUOUS
 10
145.8469752845
 20
234.860594519
  0
VERTEX
  8
0
 62
7
  6
CONTINUOUS
 10
145.8279007385
 20
234.8938638834
  0
VERTEX
  8
0
 62
7
  6
CONTINUOUS
 10
145.8082872559
 20
234.9268770585
  0
VERTEX
  8
0
 62
7
  6
CONTINUOUS
 10
145.788131531
 20
234.9596140411
  0
VERTEX
  8
0
 62
7
  6
CONTINUOUS
 10
145.7674373068
 20
234.9920409189
  0
VERTEX
  8
0
 62
7
  6
CONTINUOUS
 10
145.7461992534
 20
235.0241363233
  0
VERTEX
  8
0
 62
7
  6
CONTINUOUS
 10
145.7244180804
 20
235.0558647442
  0
VERTEX
  8
0
 62
7
  6
CONTINUOUS
 10
145.7020895296
 20
235.0871980468
  0
VERTEX
  8
0
 62
7
  6
CONTINUOUS
 10
145.6792078096
 20
235.1181035981
  0
VERTEX
  8
0
 62
7
  6
CONTINUOUS
 10
145.6557712307
 20
235.1485424725
  0
VERTEX
  8
0
 62
7
  6
CONTINUOUS
 10
145.6317412162
 20
235.1785167725
  0
VERTEX
  8
0
 62
7
  6
CONTINUOUS
 10
145.6069618696
 20
235.2081544863
  0
VERTEX
  8
0
 62
7
  6
CONTINUOUS
 10
145.581228801
 20
235.2376057445
  0
VERTEX
  8
0
 62
7
  6
CONTINUOUS
 10
145.55432353
 20
235.2669861966
  0
VERTEX
  8
0
 62
7
  6
CONTINUOUS
 10
145.5260274767
 20
235.2963618788
  0
VERTEX
  8
0
 62
7
  6
CONTINUOUS
 10
145.4960915362
 20
235.325773352
  0
VERTEX
  8
0
 62
7
  6
CONTINUOUS
 10
145.4728315891
 20
235.3474581531
  0
SEQEND
  0
LINE
  8
0
 62
7
  6
CONTINUOUS
 10
146.1218464977
 20
233.9932552347
 11
146.1218464977
 21
223.2590815138
  0
LINE
  8
0
 62
7
  6
CONTINUOUS
 10
147.4218608608
 20
226.1459877302
 11
147.4218608608
 21
222.3953433969
  0
LINE
  8
0
 62
7
  6
CONTINUOUS
 10
154.621875224
 20
222.9953433969
 11
154.621875224
 21
233.993255237
  0
LINE
  8
0
 62
7
  6
CONTINUOUS
 10
155.3718608608
 20
235.4373853659
 11
155.3718608608
 21
236.2188346144
  0
POLYLINE
  8
0
 62
7
  6
CONTINUOUS
 66
1
 70
0
  0
VERTEX
  8
0
 62
7
  6
CONTINUOUS
 10
160.6218463695
 20
233.9932552387
  0
VERTEX
  8
0
 62
7
  6
CONTINUOUS
 10
160.6208663461
 20
234.0338510195
  0
VERTEX
  8
0
 62
7
  6
CONTINUOUS
 10
160.618156339
 20
234.0736894238
  0
VERTEX
  8
0
 62
7
  6
CONTINUOUS
 10
160.6138486171
 20
234.1140256913
  0
VERTEX
  8
0
 62
7
  6
CONTINUOUS
 10
160.6081592039
 20
234.1541641455
  0
VERTEX
  8
0
 62
7
  6
CONTINUOUS
 10
160.6013151059
 20
234.1936784089
  0
VERTEX
  8
0
 62
7
  6
CONTINUOUS
 10
160.5934887721
 20
234.2324809091
  0
VERTEX
  8
0
 62
7
  6
CONTINUOUS
 10
160.5848067833
 20
234.2705963248
  0
VERTEX
  8
0
 62
7
  6
CONTINUOUS
 10
160.5753702654
 20
234.3080560524
  0
VERTEX
  8
0
 62
7
  6
CONTINUOUS
 10
160.5652640955
 20
234.3448830282
  0
VERTEX
  8
0
 62
7
  6
CONTINUOUS
 10
160.5545639408
 20
234.3810788854
  0
VERTEX
  8
0
 62
7
  6
CONTINUOUS
 10
160.5433069447
 20
234.4167282597
  0
VERTEX
  8
0
 62
7
  6
CONTINUOUS
 10
160.5315059929
 20
234.4519475498
  0
VERTEX
  8
0
 62
7
  6
CONTINUOUS
 10
160.5191726064
 20
234.4868144987
  0
VERTEX
  8
0
 62
7
  6
CONTINUOUS
 10
160.5063083849
 20
234.5214015706
  0
VERTEX
  8
0
 62
7
  6
CONTINUOUS
 10
160.4929126074
 20
234.5557689259
  0
VERTEX
  8
0
 62
7
  6
CONTINUOUS
 10
160.4789812242
 20
234.5899611761
  0
VERTEX
  8
0
 62
7
  6
CONTINUOUS
 10
160.4645005225
 20
234.6240342553
  0
VERTEX
  8
0
 62
7
  6
CONTINUOUS
 10
160.4494621087
 20
234.6580157029
  0
VERTEX
  8
0
 62
7
  6
CONTINUOUS
 10
160.4338483836
 20
234.6919425738
  0
VERTEX
  8
0
 62
7
  6
CONTINUOUS
 10
160.4176480061
 20
234.7258291932
  0
VERTEX
  8
0
 62
7
  6
CONTINUOUS
 10
160.4008481177
 20
234.759683218
  0
VERTEX
  8
0
 62
7
  6
CONTINUOUS
 10
160.3834616767
 20
234.793458564
  0
VERTEX
  8
0
 62
7
  6
CONTINUOUS
 10
160.365498647
 20
234.8271127317
  0
VERTEX
  8
0
 62
7
  6
CONTINUOUS
 10
160.3469752845
 20
234.860594519
  0
VERTEX
  8
0
 62
7
  6
CONTINUOUS
 10
160.3279007385
 20
234.8938638834
  0
VERTEX
  8
0
 62
7
  6
CONTINUOUS
 10
160.3082872559
 20
234.9268770585
  0
VERTEX
  8
0
 62
7
  6
CONTINUOUS
 10
160.288131531
 20
234.9596140411
  0
VERTEX
  8
0
 62
7
  6
CONTINUOUS
 10
160.2674373068
 20
234.9920409189
  0
VERTEX
  8
0
 62
7
  6
CONTINUOUS
 10
160.2461992534
 20
235.0241363233
  0
VERTEX
  8
0
 62
7
  6
CONTINUOUS
 10
160.2244180804
 20
235.0558647442
  0
VERTEX
  8
0
 62
7
  6
CONTINUOUS
 10
160.2020895296
 20
235.0871980468
  0
VERTEX
  8
0
 62
7
  6
CONTINUOUS
 10
160.1792078096
 20
235.1181035981
  0
VERTEX
  8
0
 62
7
  6
CONTINUOUS
 10
160.1557712307
 20
235.1485424725
  0
VERTEX
  8
0
 62
7
  6
CONTINUOUS
 10
160.1317412162
 20
235.1785167725
  0
VERTEX
  8
0
 62
7
  6
CONTINUOUS
 10
160.1069618696
 20
235.2081544863
  0
VERTEX
  8
0
 62
7
  6
CONTINUOUS
 10
160.081228801
 20
235.2376057445
  0
VERTEX
  8
0
 62
7
  6
CONTINUOUS
 10
160.05432353
 20
235.2669861966
  0
VERTEX
  8
0
 62
7
  6
CONTINUOUS
 10
160.0260274767
 20
235.2963618788
  0
VERTEX
  8
0
 62
7
  6
CONTINUOUS
 10
159.9960915362
 20
235.325773352
  0
VERTEX
  8
0
 62
7
  6
CONTINUOUS
 10
159.9728315891
 20
235.3474581531
  0
SEQEND
  0
LINE
  8
0
 62
7
  6
CONTINUOUS
 10
159.8718608608
 20
236.2188363039
 11
159.8718608608
 21
235.4373893857
  0
LINE
  8
0
 62
7
  6
CONTINUOUS
 10
160.6218464977
 20
233.9932552347
 11
160.6218464977
 21
222.9953433969
  0
LINE
  8
0
 62
7
  6
CONTINUOUS
 10
168.375875224
 20
222.9953433969
 11
168.375875224
 21
233.993255237
  0
LINE
  8
0
 62
7
  6
CONTINUOUS
 10
169.1258608608
 20
236.2188363039
 11
169.1258608608
 21
235.4373853659
  0
POLYLINE
  8
0
 62
7
  6
CONTINUOUS
 66
1
 70
0
  0
VERTEX
  8
0
 62
7
  6
CONTINUOUS
 10
125.145889252
 20
235.3474575393
  0
VERTEX
  8
0
 62
7
  6
CONTINUOUS
 10
125.127770122
 20
235.3306527366
  0
VERTEX
  8
0
 62
7
  6
CONTINUOUS
 10
125.1024120161
 20
235.3060959564
  0
VERTEX
  8
0
 62
7
  6
CONTINUOUS
 10
125.0782415079
 20
235.2815507515
  0
VERTEX
  8
0
 62
7
  6
CONTINUOUS
 10
125.0551054062
 20
235.2569998536
  0
VERTEX
  8
0
 62
7
  6
CONTINUOUS
 10
125.0328709808
 20
235.2324141425
  0
VERTEX
  8
0
 62
7
  6
CONTINUOUS
 10
125.0114130728
 20
235.2077484527
  0
VERTEX
  8
0
 62
7
  6
CONTINUOUS
 10
124.9906035582
 20
235.1829298786
  0
VERTEX
  8
0
 62
7
  6
CONTINUOUS
 10
124.9703235101
 20
235.1578706839
  0
VERTEX
  8
0
 62
7
  6
CONTINUOUS
 10
124.9504674998
 20
235.1324802769
  0
VERTEX
  8
0
 62
7
  6
CONTINUOUS
 10
124.9309868994
 20
235.1067260069
  0
VERTEX
  8
0
 62
7
  6
CONTINUOUS
 10
124.9118691972
 20
235.0806131687
  0
VERTEX
  8
0
 62
7
  6
CONTINUOUS
 10
124.8931087328
 20
235.0541543695
  0
VERTEX
  8
0
 62
7
  6
CONTINUOUS
 10
124.8746957128
 20
235.0273551494
  0
VERTEX
  8
0
 62
7
  6
CONTINUOUS
 10
124.8566205804
 20
235.0002157101
  0
VERTEX
  8
0
 62
7
  6
CONTINUOUS
 10
124.8388798443
 20
234.9727438181
  0
VERTEX
  8
0
 62
7
  6
CONTINUOUS
 10
124.8214643624
 20
234.944936884
  0
VERTEX
  8
0
 62
7
  6
CONTINUOUS
 10
124.8043683318
 20
234.9167916619
  0
VERTEX
  8
0
 62
7
  6
CONTINUOUS
 10
124.7875892512
 20
234.8883099159
  0
VERTEX
  8
0
 62
7
  6
CONTINUOUS
 10
124.7711184369
 20
234.8594788881
  0
VERTEX
  8
0
 62
7
  6
CONTINUOUS
 10
124.7549570646
 20
234.8302981434
  0
VERTEX
  8
0
 62
7
  6
CONTINUOUS
 10
124.7391045503
 20
234.8007641769
  0
VERTEX
  8
0
 62
7
  6
CONTINUOUS
 10
124.7235604305
 20
234.7708665248
  0
VERTEX
  8
0
 62
7
  6
CONTINUOUS
 10
124.7083288219
 20
234.74060304
  0
VERTEX
  8
0
 62
7
  6
CONTINUOUS
 10
124.6934078848
 20
234.7099533217
  0
VERTEX
  8
0
 62
7
  6
CONTINUOUS
 10
124.6788043645
 20
234.6789102266
  0
VERTEX
  8
0
 62
7
  6
CONTINUOUS
 10
124.6645176016
 20
234.6474453514
  0
VERTEX
  8
0
 62
7
  6
CONTINUOUS
 10
124.6505563208
 20
234.6155423255
  0
VERTEX
  8
0
 62
7
  6
CONTINUOUS
 10
124.6369221851
 20
234.5831617781
  0
VERTEX
  8
0
 62
7
  6
CONTINUOUS
 10
124.6236270097
 20
234.5502754305
  0
VERTEX
  8
0
 62
7
  6
CONTINUOUS
 10
124.6106762026
 20
234.5168272909
  0
VERTEX
  8
0
 62
7
  6
CONTINUOUS
 10
124.5980970975
 20
234.4828017513
  0
VERTEX
  8
0
 62
7
  6
CONTINUOUS
 10
124.5859239456
 20
234.4481868398
  0
VERTEX
  8
0
 62
7
  6
CONTINUOUS
 10
124.5742002681
 20
234.4129866233
  0
VERTEX
  8
0
 62
7
  6
CONTINUOUS
 10
124.5629709511
 20
234.3771843334
  0
VERTEX
  8
0
 62
7
  6
CONTINUOUS
 10
124.5522830405
 20
234.340747945
  0
VERTEX
  8
0
 62
7
  6
CONTINUOUS
 10
124.5421967157
 20
234.3036517289
  0
VERTEX
  8
0
 62
7
  6
CONTINUOUS
 10
124.5327847253
 20
234.2658601647
  0
VERTEX
  8
0
 62
7
  6
CONTINUOUS
 10
124.5241575622
 20
234.2274401646
  0
VERTEX
  8
0
 62
7
  6
CONTINUOUS
 10
124.5164462699
 20
234.188517918
  0
VERTEX
  8
0
 62
7
  6
CONTINUOUS
 10
124.5097947974
 20
234.1492509813
  0
VERTEX
  8
0
 62
7
  6
CONTINUOUS
 10
124.5043611148
 20
234.1098712235
  0
VERTEX
  8
0
 62
7
  6
CONTINUOUS
 10
124.500304235
 20
234.0706697448
  0
VERTEX
  8
0
 62
7
  6
CONTINUOUS
 10
124.4977754434
 20
234.032114478
  0
VERTEX
  8
0
 62
7
  6
CONTINUOUS
 10
124.4968757659
 20
233.9932552371
  0
SEQEND
  0
POLYLINE
  8
0
 62
7
  6
CONTINUOUS
 66
1
 70
0
  0
VERTEX
  8
0
 62
7
  6
CONTINUOUS
 10
125.2375762089
 20
235.4293340674
  0
VERTEX
  8
0
 62
7
  6
CONTINUOUS
 10
125.1880841916
 20
235.3855361709
  0
VERTEX
  8
0
 62
7
  6
CONTINUOUS
 10
125.1458859138
 20
235.3474536482
  0
SEQEND
  0
LINE
  8
0
 62
7
  6
CONTINUOUS
 10
125.2792151613
 20
235.465459816
 11
125.2375762089
 21
235.4293340674
  0
POLYLINE
  8
0
 62
7
  6
CONTINUOUS
 66
1
 70
0
  0
VERTEX
  8
0
 62
7
  6
CONTINUOUS
 10
174.3758463695
 20
233.9932552387
  0
VERTEX
  8
0
 62
7
  6
CONTINUOUS
 10
174.3748663461
 20
234.0338510195
  0
VERTEX
  8
0
 62
7
  6
CONTINUOUS
 10
174.372156339
 20
234.0736894238
  0
VERTEX
  8
0
 62
7
  6
CONTINUOUS
 10
174.3678486171
 20
234.1140256913
  0
VERTEX
  8
0
 62
7
  6
CONTINUOUS
 10
174.3621592039
 20
234.1541641455
  0
VERTEX
  8
0
 62
7
  6
CONTINUOUS
 10
174.3553151059
 20
234.1936784089
  0
VERTEX
  8
0
 62
7
  6
CONTINUOUS
 10
174.3474887721
 20
234.2324809091
  0
VERTEX
  8
0
 62
7
  6
CONTINUOUS
 10
174.3388067833
 20
234.2705963248
  0
VERTEX
  8
0
 62
7
  6
CONTINUOUS
 10
174.3293702654
 20
234.3080560524
  0
VERTEX
  8
0
 62
7
  6
CONTINUOUS
 10
174.3192640955
 20
234.3448830282
  0
VERTEX
  8
0
 62
7
  6
CONTINUOUS
 10
174.3085639408
 20
234.3810788854
  0
VERTEX
  8
0
 62
7
  6
CONTINUOUS
 10
174.2973069447
 20
234.4167282597
  0
VERTEX
  8
0
 62
7
  6
CONTINUOUS
 10
174.2855059929
 20
234.4519475498
  0
VERTEX
  8
0
 62
7
  6
CONTINUOUS
 10
174.2731726064
 20
234.4868144987
  0
VERTEX
  8
0
 62
7
  6
CONTINUOUS
 10
174.2603083849
 20
234.5214015706
  0
VERTEX
  8
0
 62
7
  6
CONTINUOUS
 10
174.2469126074
 20
234.5557689259
  0
VERTEX
  8
0
 62
7
  6
CONTINUOUS
 10
174.2329812242
 20
234.5899611761
  0
VERTEX
  8
0
 62
7
  6
CONTINUOUS
 10
174.2185005225
 20
234.6240342553
  0
VERTEX
  8
0
 62
7
  6
CONTINUOUS
 10
174.2034621087
 20
234.6580157029
  0
VERTEX
  8
0
 62
7
  6
CONTINUOUS
 10
174.1878483836
 20
234.6919425738
  0
VERTEX
  8
0
 62
7
  6
CONTINUOUS
 10
174.1716480061
 20
234.7258291932
  0
VERTEX
  8
0
 62
7
  6
CONTINUOUS
 10
174.1548481177
 20
234.759683218
  0
VERTEX
  8
0
 62
7
  6
CONTINUOUS
 10
174.1374616767
 20
234.793458564
  0
VERTEX
  8
0
 62
7
  6
CONTINUOUS
 10
174.119498647
 20
234.8271127317
  0
VERTEX
  8
0
 62
7
  6
CONTINUOUS
 10
174.1009752845
 20
234.860594519
  0
VERTEX
  8
0
 62
7
  6
CONTINUOUS
 10
174.0819007385
 20
234.8938638834
  0
VERTEX
  8
0
 62
7
  6
CONTINUOUS
 10
174.0622872559
 20
234.9268770585
  0
VERTEX
  8
0
 62
7
  6
CONTINUOUS
 10
174.042131531
 20
234.9596140411
  0
VERTEX
  8
0
 62
7
  6
CONTINUOUS
 10
174.0214373068
 20
234.9920409189
  0
VERTEX
  8
0
 62
7
  6
CONTINUOUS
 10
174.0001992534
 20
235.0241363233
  0
VERTEX
  8
0
 62
7
  6
CONTINUOUS
 10
173.9784180804
 20
235.0558647442
  0
VERTEX
  8
0
 62
7
  6
CONTINUOUS
 10
173.9560895296
 20
235.0871980468
  0
VERTEX
  8
0
 62
7
  6
CONTINUOUS
 10
173.9332078096
 20
235.1181035981
  0
VERTEX
  8
0
 62
7
  6
CONTINUOUS
 10
173.9097712307
 20
235.1485424725
  0
VERTEX
  8
0
 62
7
  6
CONTINUOUS
 10
173.8857412162
 20
235.1785167725
  0
VERTEX
  8
0
 62
7
  6
CONTINUOUS
 10
173.8609618696
 20
235.2081544863
  0
VERTEX
  8
0
 62
7
  6
CONTINUOUS
 10
173.835228801
 20
235.2376057445
  0
VERTEX
  8
0
 62
7
  6
CONTINUOUS
 10
173.80832353
 20
235.2669861966
  0
VERTEX
  8
0
 62
7
  6
CONTINUOUS
 10
173.7800274767
 20
235.2963618788
  0
VERTEX
  8
0
 62
7
  6
CONTINUOUS
 10
173.7500915362
 20
235.325773352
  0
VERTEX
  8
0
 62
7
  6
CONTINUOUS
 10
173.7268315891
 20
235.3474581531
  0
SEQEND
  0
LINE
  8
0
 62
7
  6
CONTINUOUS
 10
173.6258608608
 20
236.2441495006
 11
173.6258608608
 21
235.4373893857
  0
LINE
  8
0
 62
7
  6
CONTINUOUS
 10
174.3758464977
 20
233.9932552347
 11
174.3758464977
 21
222.9953433969
  0
LINE
  8
0
 62
7
  6
CONTINUOUS
 10
181.4718608608
 20
222.9953433969
 11
181.4718608608
 21
233.993255237
  0
LINE
  8
0
 62
7
  6
CONTINUOUS
 10
182.2218608608
 20
235.4373978616
 11
182.2218608608
 21
236.2441495015
  0
LINE
  8
0
 62
7
  6
CONTINUOUS
 10
186.7218608608
 20
236.3333228946
 11
186.7218608608
 21
235.4374018954
  0
POLYLINE
  8
0
 62
7
  6
CONTINUOUS
 66
1
 70
0
  0
VERTEX
  8
0
 62
7
  6
CONTINUOUS
 10
155.2708877824
 20
235.3474565665
  0
VERTEX
  8
0
 62
7
  6
CONTINUOUS
 10
155.2517179194
 20
235.3296577395
  0
VERTEX
  8
0
 62
7
  6
CONTINUOUS
 10
155.2260526345
 20
235.3047448011
  0
VERTEX
  8
0
 62
7
  6
CONTINUOUS
 10
155.2016011848
 20
235.2798447126
  0
VERTEX
  8
0
 62
7
  6
CONTINUOUS
 10
155.1782170435
 20
235.2549497897
  0
VERTEX
  8
0
 62
7
  6
CONTINUOUS
 10
155.1557717032
 20
235.2300417146
  0
VERTEX
  8
0
 62
7
  6
CONTINUOUS
 10
155.1341379659
 20
235.205078715
  0
VERTEX
  8
0
 62
7
  6
CONTINUOUS
 10
155.1131892309
 20
235.1799922231
  0
VERTEX
  8
0
 62
7
  6
CONTINUOUS
 10
155.0928125762
 20
235.1547068231
  0
VERTEX
  8
0
 62
7
  6
CONTINUOUS
 10
155.0729044677
 20
235.1291402699
  0
VERTEX
  8
0
 62
7
  6
CONTINUOUS
 10
155.0534151185
 20
235.1032622453
  0
VERTEX
  8
0
 62
7
  6
CONTINUOUS
 10
155.0343296946
 20
235.0770803056
  0
VERTEX
  8
0
 62
7
  6
CONTINUOUS
 10
155.0156337037
 20
235.0506007671
  0
VERTEX
  8
0
 62
7
  6
CONTINUOUS
 10
154.9973074927
 20
235.023817337
  0
VERTEX
  8
0
 62
7
  6
CONTINUOUS
 10
154.9793390519
 20
234.9967295396
  0
VERTEX
  8
0
 62
7
  6
CONTINUOUS
 10
154.9617158728
 20
234.9693348613
  0
VERTEX
  8
0
 62
7
  6
CONTINUOUS
 10
154.9444211661
 20
234.9416181784
  0
VERTEX
  8
0
 62
7
  6
CONTINUOUS
 10
154.9274459051
 20
234.913572201
  0
VERTEX
  8
0
 62
7
  6
CONTINUOUS
 10
154.9107776192
 20
234.8851822212
  0
VERTEX
  8
0
 62
7
  6
CONTINUOUS
 10
154.8944047509
 20
234.8564272626
  0
VERTEX
  8
0
 62
7
  6
CONTINUOUS
 10
154.8783292416
 20
234.8273081407
  0
VERTEX
  8
0
 62
7
  6
CONTINUOUS
 10
154.862549124
 20
234.7978153709
  0
VERTEX
  8
0
 62
7
  6
CONTINUOUS
 10
154.8470699592
 20
234.7679483735
  0
VERTEX
  8
0
 62
7
  6
CONTINUOUS
 10
154.8318933019
 20
234.7376989363
  0
VERTEX
  8
0
 62
7
  6
CONTINUOUS
 10
154.8170225672
 20
234.7070540489
  0
VERTEX
  8
0
 62
7
  6
CONTINUOUS
 10
154.8024636051
 20
234.6760053228
  0
VERTEX
  8
0
 62
7
  6
CONTINUOUS
 10
154.788219069
 20
234.6445277054
  0
VERTEX
  8
0
 62
7
  6
CONTINUOUS
 10
154.7742980716
 20
234.6126071919
  0
VERTEX
  8
0
 62
7
  6
CONTINUOUS
 10
154.7607048704
 20
234.5802065333
  0
VERTEX
  8
0
 62
7
  6
CONTINUOUS
 10
154.7474516597
 20
234.5473006616
  0
VERTEX
  8
0
 62
7
  6
CONTINUOUS
 10
154.7345470928
 20
234.5138379646
  0
VERTEX
  8
0
 62
7
  6
CONTINUOUS
 10
154.7220170824
 20
234.4798020846
  0
VERTEX
  8
0
 62
7
  6
CONTINUOUS
 10
154.7098988106
 20
234.4451868655
  0
VERTEX
  8
0
 62
7
  6
CONTINUOUS
 10
154.6982307037
 20
234.4099816074
  0
VERTEX
  8
0
 62
7
  6
CONTINUOUS
 10
154.6870604595
 20
234.3741786045
  0
VERTEX
  8
0
 62
7
  6
CONTINUOUS
 10
154.676434768
 20
234.3377393141
  0
VERTEX
  8
0
 62
7
  6
CONTINUOUS
 10
154.6664106957
 20
234.3006258391
  0
VERTEX
  8
0
 62
7
  6
CONTINUOUS
 10
154.6570646102
 20
234.2628117122
  0
VERTEX
  8
0
 62
7
  6
CONTINUOUS
 10
154.6485093493
 20
234.2243647233
  0
VERTEX
  8
0
 62
7
  6
CONTINUOUS
 10
154.6408766044
 20
234.1854042165
  0
VERTEX
  8
0
 62
7
  6
CONTINUOUS
 10
154.6343125204
 20
234.1460941459
  0
VERTEX
  8
0
 62
7
  6
CONTINUOUS
 10
154.6289785775
 20
234.1066793464
  0
VERTEX
  8
0
 62
7
  6
CONTINUOUS
 10
154.6250355278
 20
234.0674559378
  0
VERTEX
  8
0
 62
7
  6
CONTINUOUS
 10
154.6226354804
 20
234.02890737
  0
VERTEX
  8
0
 62
7
  6
CONTINUOUS
 10
154.6218760669
 20
233.993255237
  0
SEQEND
  0
POLYLINE
  8
0
 62
7
  6
CONTINUOUS
 66
1
 70
0
  0
VERTEX
  8
0
 62
7
  6
CONTINUOUS
 10
140.770889252
 20
235.3474575393
  0
VERTEX
  8
0
 62
7
  6
CONTINUOUS
 10
140.752770122
 20
235.3306527366
  0
VERTEX
  8
0
 62
7
  6
CONTINUOUS
 10
140.7274120161
 20
235.3060959564
  0
VERTEX
  8
0
 62
7
  6
CONTINUOUS
 10
140.7032415079
 20
235.2815507515
  0
VERTEX
  8
0
 62
7
  6
CONTINUOUS
 10
140.6801054062
 20
235.2569998536
  0
VERTEX
  8
0
 62
7
  6
CONTINUOUS
 10
140.6578709808
 20
235.2324141425
  0
VERTEX
  8
0
 62
7
  6
CONTINUOUS
 10
140.6364130728
 20
235.2077484527
  0
VERTEX
  8
0
 62
7
  6
CONTINUOUS
 10
140.6156035582
 20
235.1829298786
  0
VERTEX
  8
0
 62
7
  6
CONTINUOUS
 10
140.5953235101
 20
235.1578706839
  0
VERTEX
  8
0
 62
7
  6
CONTINUOUS
 10
140.5754674998
 20
235.1324802769
  0
VERTEX
  8
0
 62
7
  6
CONTINUOUS
 10
140.5559868994
 20
235.1067260069
  0
VERTEX
  8
0
 62
7
  6
CONTINUOUS
 10
140.5368691972
 20
235.0806131687
  0
VERTEX
  8
0
 62
7
  6
CONTINUOUS
 10
140.5181087328
 20
235.0541543695
  0
VERTEX
  8
0
 62
7
  6
CONTINUOUS
 10
140.4996957128
 20
235.0273551494
  0
VERTEX
  8
0
 62
7
  6
CONTINUOUS
 10
140.4816205804
 20
235.0002157101
  0
VERTEX
  8
0
 62
7
  6
CONTINUOUS
 10
140.4638798443
 20
234.9727438181
  0
VERTEX
  8
0
 62
7
  6
CONTINUOUS
 10
140.4464643624
 20
234.944936884
  0
VERTEX
  8
0
 62
7
  6
CONTINUOUS
 10
140.4293683318
 20
234.9167916619
  0
VERTEX
  8
0
 62
7
  6
CONTINUOUS
 10
140.4125892512
 20
234.8883099159
  0
VERTEX
  8
0
 62
7
  6
CONTINUOUS
 10
140.3961184369
 20
234.8594788881
  0
VERTEX
  8
0
 62
7
  6
CONTINUOUS
 10
140.3799570646
 20
234.8302981434
  0
VERTEX
  8
0
 62
7
  6
CONTINUOUS
 10
140.3641045503
 20
234.8007641769
  0
VERTEX
  8
0
 62
7
  6
CONTINUOUS
 10
140.3485604305
 20
234.7708665248
  0
VERTEX
  8
0
 62
7
  6
CONTINUOUS
 10
140.3333288219
 20
234.74060304
  0
VERTEX
  8
0
 62
7
  6
CONTINUOUS
 10
140.3184078848
 20
234.7099533217
  0
VERTEX
  8
0
 62
7
  6
CONTINUOUS
 10
140.3038043645
 20
234.6789102266
  0
VERTEX
  8
0
 62
7
  6
CONTINUOUS
 10
140.2895176016
 20
234.6474453514
  0
VERTEX
  8
0
 62
7
  6
CONTINUOUS
 10
140.2755563208
 20
234.6155423255
  0
VERTEX
  8
0
 62
7
  6
CONTINUOUS
 10
140.2619221851
 20
234.5831617781
  0
VERTEX
  8
0
 62
7
  6
CONTINUOUS
 10
140.2486270097
 20
234.5502754305
  0
VERTEX
  8
0
 62
7
  6
CONTINUOUS
 10
140.2356762026
 20
234.5168272909
  0
VERTEX
  8
0
 62
7
  6
CONTINUOUS
 10
140.2230970975
 20
234.4828017513
  0
VERTEX
  8
0
 62
7
  6
CONTINUOUS
 10
140.2109239456
 20
234.4481868398
  0
VERTEX
  8
0
 62
7
  6
CONTINUOUS
 10
140.1992002681
 20
234.4129866233
  0
VERTEX
  8
0
 62
7
  6
CONTINUOUS
 10
140.1879709511
 20
234.3771843334
  0
VERTEX
  8
0
 62
7
  6
CONTINUOUS
 10
140.1772830405
 20
234.340747945
  0
VERTEX
  8
0
 62
7
  6
CONTINUOUS
 10
140.1671967157
 20
234.3036517289
  0
VERTEX
  8
0
 62
7
  6
CONTINUOUS
 10
140.1577847253
 20
234.2658601647
  0
VERTEX
  8
0
 62
7
  6
CONTINUOUS
 10
140.1491575622
 20
234.2274401646
  0
VERTEX
  8
0
 62
7
  6
CONTINUOUS
 10
140.1414462699
 20
234.188517918
  0
VERTEX
  8
0
 62
7
  6
CONTINUOUS
 10
140.1347947974
 20
234.1492509813
  0
VERTEX
  8
0
 62
7
  6
CONTINUOUS
 10
140.1293611148
 20
234.1098712235
  0
VERTEX
  8
0
 62
7
  6
CONTINUOUS
 10
140.125304235
 20
234.0706697448
  0
VERTEX
  8
0
 62
7
  6
CONTINUOUS
 10
140.1227754434
 20
234.032114478
  0
VERTEX
  8
0
 62
7
  6
CONTINUOUS
 10
140.1218757659
 20
233.9932552371
  0
SEQEND
  0
POLYLINE
  8
0
 62
7
  6
CONTINUOUS
 66
1
 70
0
  0
VERTEX
  8
0
 62
7
  6
CONTINUOUS
 10
140.8625762089
 20
235.4293340674
  0
VERTEX
  8
0
 62
7
  6
CONTINUOUS
 10
140.8130841916
 20
235.3855361709
  0
VERTEX
  8
0
 62
7
  6
CONTINUOUS
 10
140.7708859138
 20
235.3474536482
  0
SEQEND
  0
LINE
  8
0
 62
7
  6
CONTINUOUS
 10
140.9042151613
 20
235.465459816
 11
140.8625762089
 21
235.4293340674
  0
POLYLINE
  8
0
 62
7
  6
CONTINUOUS
 66
1
 70
0
  0
VERTEX
  8
0
 62
7
  6
CONTINUOUS
 10
129.8062904935
 20
235.3849520835
  0
VERTEX
  8
0
 62
7
  6
CONTINUOUS
 10
129.7567994952
 20
235.4287614143
  0
VERTEX
  8
0
 62
7
  6
CONTINUOUS
 10
129.714506562
 20
235.4654598138
  0
SEQEND
  0
LINE
  8
0
 62
7
  6
CONTINUOUS
 10
129.8478358068
 20
235.3474536504
 11
129.8062904935
 21
235.3849520835
  0
POLYLINE
  8
AXES
 62
7
  6
CONTINUOUS
 66
1
 70
0
  0
VERTEX
  8
AXES
 62
7
  6
CONTINUOUS
 10
147.4218608579
 20
226.1454307638
  0
VERTEX
  8
AXES
 62
7
  6
CONTINUOUS
 10
147.4174244945
 20
226.1497052142
  0
VERTEX
  8
AXES
 62
7
  6
CONTINUOUS
 10
147.4006957135
 20
226.1629148102
  0
VERTEX
  8
AXES
 62
7
  6
CONTINUOUS
 10
147.3713017794
 20
226.1849957321
  0
VERTEX
  8
AXES
 62
7
  6
CONTINUOUS
 10
147.3286454493
 20
226.2161017993
  0
VERTEX
  8
AXES
 62
7
  6
CONTINUOUS
 10
147.2717781358
 20
226.2564451028
  0
VERTEX
  8
AXES
 62
7
  6
CONTINUOUS
 10
147.2000555965
 20
226.3057604636
  0
VERTEX
  8
AXES
 62
7
  6
CONTINUOUS
 10
147.1129710343
 20
226.3633566444
  0
VERTEX
  8
AXES
 62
7
  6
CONTINUOUS
 10
147.0102505642
 20
226.4279538657
  0
VERTEX
  8
AXES
 62
7
  6
CONTINUOUS
 10
146.8937931858
 20
226.4964718404
  0
VERTEX
  8
AXES
 62
7
  6
CONTINUOUS
 10
146.766753821
 20
226.564906724
  0
VERTEX
  8
AXES
 62
7
  6
CONTINUOUS
 10
146.6334567342
 20
226.6288193377
  0
VERTEX
  8
AXES
 62
7
  6
CONTINUOUS
 10
146.499484052
 20
226.6839736097
  0
VERTEX
  8
AXES
 62
7
  6
CONTINUOUS
 10
146.3680541367
 20
226.7283053541
  0
VERTEX
  8
AXES
 62
7
  6
CONTINUOUS
 10
146.2400296216
 20
226.7613633953
  0
SEQEND
  0
POLYLINE
  8
0
 62
7
  6
CONTINUOUS
 66
1
 70
0
  0
VERTEX
  8
0
 62
7
  6
CONTINUOUS
 10
187.4718607327
 20
233.9932552387
  0
VERTEX
  8
0
 62
7
  6
CONTINUOUS
 10
187.4708807093
 20
234.0338510195
  0
VERTEX
  8
0
 62
7
  6
CONTINUOUS
 10
187.4681707022
 20
234.0736894239
  0
VERTEX
  8
0
 62
7
  6
CONTINUOUS
 10
187.4638629803
 20
234.1140256914
  0
VERTEX
  8
0
 62
7
  6
CONTINUOUS
 10
187.4581735671
 20
234.1541641457
  0
VERTEX
  8
0
 62
7
  6
CONTINUOUS
 10
187.451329469
 20
234.193678409
  0
VERTEX
  8
0
 62
7
  6
CONTINUOUS
 10
187.4435031352
 20
234.2324809092
  0
VERTEX
  8
0
 62
7
  6
CONTINUOUS
 10
187.4348211464
 20
234.270596325
  0
VERTEX
  8
0
 62
7
  6
CONTINUOUS
 10
187.4253846286
 20
234.3080560524
  0
VERTEX
  8
0
 62
7
  6
CONTINUOUS
 10
187.4152784586
 20
234.3448830282
  0
VERTEX
  8
0
 62
7
  6
CONTINUOUS
 10
187.404578304
 20
234.3810788855
  0
VERTEX
  8
0
 62
7
  6
CONTINUOUS
 10
187.3933213079
 20
234.4167282597
  0
VERTEX
  8
0
 62
7
  6
CONTINUOUS
 10
187.381520356
 20
234.4519475498
  0
VERTEX
  8
0
 62
7
  6
CONTINUOUS
 10
187.3691869695
 20
234.4868144987
  0
VERTEX
  8
0
 62
7
  6
CONTINUOUS
 10
187.356322748
 20
234.5214015706
  0
VERTEX
  8
0
 62
7
  6
CONTINUOUS
 10
187.3429269705
 20
234.5557689259
  0
VERTEX
  8
0
 62
7
  6
CONTINUOUS
 10
187.3289955874
 20
234.5899611762
  0
VERTEX
  8
0
 62
7
  6
CONTINUOUS
 10
187.3145148856
 20
234.6240342553
  0
VERTEX
  8
0
 62
7
  6
CONTINUOUS
 10
187.2994764719
 20
234.6580157029
  0
VERTEX
  8
0
 62
7
  6
CONTINUOUS
 10
187.2838627468
 20
234.6919425738
  0
VERTEX
  8
0
 62
7
  6
CONTINUOUS
 10
187.2676623692
 20
234.7258291932
  0
VERTEX
  8
0
 62
7
  6
CONTINUOUS
 10
187.2508624808
 20
234.7596832181
  0
VERTEX
  8
0
 62
7
  6
CONTINUOUS
 10
187.2334760399
 20
234.793458564
  0
VERTEX
  8
0
 62
7
  6
CONTINUOUS
 10
187.2155130102
 20
234.8271127317
  0
VERTEX
  8
0
 62
7
  6
CONTINUOUS
 10
187.1969896476
 20
234.860594519
  0
VERTEX
  8
0
 62
7
  6
CONTINUOUS
 10
187.1779151017
 20
234.8938638834
  0
VERTEX
  8
0
 62
7
  6
CONTINUOUS
 10
187.158301619
 20
234.9268770585
  0
VERTEX
  8
0
 62
7
  6
CONTINUOUS
 10
187.1381458941
 20
234.9596140412
  0
VERTEX
  8
0
 62
7
  6
CONTINUOUS
 10
187.11745167
 20
234.9920409189
  0
VERTEX
  8
0
 62
7
  6
CONTINUOUS
 10
187.0962136165
 20
235.0241363233
  0
VERTEX
  8
0
 62
7
  6
CONTINUOUS
 10
187.0744324435
 20
235.0558647442
  0
VERTEX
  8
0
 62
7
  6
CONTINUOUS
 10
187.0521038928
 20
235.0871980468
  0
VERTEX
  8
0
 62
7
  6
CONTINUOUS
 10
187.0292221727
 20
235.1181035981
  0
VERTEX
  8
0
 62
7
  6
CONTINUOUS
 10
187.0057855938
 20
235.1485424725
  0
VERTEX
  8
0
 62
7
  6
CONTINUOUS
 10
186.9817555794
 20
235.1785167725
  0
VERTEX
  8
0
 62
7
  6
CONTINUOUS
 10
186.9569762327
 20
235.2081544864
  0
VERTEX
  8
0
 62
7
  6
CONTINUOUS
 10
186.9312431641
 20
235.2376057445
  0
VERTEX
  8
0
 62
7
  6
CONTINUOUS
 10
186.9043378931
 20
235.2669861966
  0
VERTEX
  8
0
 62
7
  6
CONTINUOUS
 10
186.8760418399
 20
235.2963618788
  0
VERTEX
  8
0
 62
7
  6
CONTINUOUS
 10
186.8461058993
 20
235.325773352
  0
VERTEX
  8
0
 62
7
  6
CONTINUOUS
 10
186.8228459522
 20
235.3474581531
  0
SEQEND
  0
POLYLINE
  8
0
 62
7
  6
CONTINUOUS
 66
1
 70
0
  0
VERTEX
  8
0
 62
7
  6
CONTINUOUS
 10
186.7218601546
 20
236.3333225561
  0
VERTEX
  8
0
 62
7
  6
CONTINUOUS
 10
186.7217066422
 20
236.3401081904
  0
VERTEX
  8
0
 62
7
  6
CONTINUOUS
 10
186.7197432743
 20
236.3584376176
  0
VERTEX
  8
0
 62
7
  6
CONTINUOUS
 10
186.7157421833
 20
236.3757311535
  0
VERTEX
  8
0
 62
7
  6
CONTINUOUS
 10
186.709977594
 20
236.3918427147
  0
VERTEX
  8
0
 62
7
  6
CONTINUOUS
 10
186.7027080702
 20
236.4066746503
  0
VERTEX
  8
0
 62
7
  6
CONTINUOUS
 10
186.6941718952
 20
236.4201694517
  0
VERTEX
  8
0
 62
7
  6
CONTINUOUS
 10
186.6845839385
 20
236.4323019317
  0
VERTEX
  8
0
 62
7
  6
CONTINUOUS
 10
186.6741430295
 20
236.4430632574
  0
VERTEX
  8
0
 62
7
  6
CONTINUOUS
 10
186.6630630435
 20
236.4524374097
  0
VERTEX
  8
0
 62
7
  6
CONTINUOUS
 10
186.6515465385
 20
236.4604376836
  0
VERTEX
  8
0
 62
7
  6
CONTINUOUS
 10
186.6397807934
 20
236.467103428
  0
VERTEX
  8
0
 62
7
  6
CONTINUOUS
 10
186.6279487788
 20
236.4724905084
  0
VERTEX
  8
0
 62
7
  6
CONTINUOUS
 10
186.6165021066
 20
236.4765880243
  0
VERTEX
  8
0
 62
7
  6
CONTINUOUS
 10
186.6061611675
 20
236.4794291262
  0
VERTEX
  8
0
 62
7
  6
CONTINUOUS
 10
186.5975873103
 20
236.4812057212
  0
VERTEX
  8
0
 62
7
  6
CONTINUOUS
 10
186.5909948997
 20
236.4822339509
  0
VERTEX
  8
0
 62
7
  6
CONTINUOUS
 10
186.5859756071
 20
236.4828309217
  0
VERTEX
  8
0
 62
7
  6
CONTINUOUS
 10
186.5820135136
 20
236.4831968523
  0
VERTEX
  8
0
 62
7
  6
CONTINUOUS
 10
186.5787157752
 20
236.4834375977
  0
VERTEX
  8
0
 62
7
  6
CONTINUOUS
 10
186.5757955162
 20
236.4836086846
  0
VERTEX
  8
0
 62
7
  6
CONTINUOUS
 10
186.5730643958
 20
236.4837386394
  0
VERTEX
  8
0
 62
7
  6
CONTINUOUS
 10
186.5703987955
 20
236.4838426227
  0
VERTEX
  8
0
 62
7
  6
CONTINUOUS
 10
186.5677216096
 20
236.4839288627
  0
VERTEX
  8
0
 62
7
  6
CONTINUOUS
 10
186.5649857391
 20
236.4840020424
  0
SEQEND
  0
LINE
  8
0
 62
7
  6
CONTINUOUS
 10
187.4718608608
 20
233.9932552347
 11
187.4718608608
 21
222.9953433969
  0
POLYLINE
  8
0
 62
7
  6
CONTINUOUS
 66
1
 70
0
  0
VERTEX
  8
0
 62
7
  6
CONTINUOUS
 10
169.0248877824
 20
235.3474565665
  0
VERTEX
  8
0
 62
7
  6
CONTINUOUS
 10
169.0057179194
 20
235.3296577395
  0
VERTEX
  8
0
 62
7
  6
CONTINUOUS
 10
168.9800526345
 20
235.3047448011
  0
VERTEX
  8
0
 62
7
  6
CONTINUOUS
 10
168.9556011848
 20
235.2798447126
  0
VERTEX
  8
0
 62
7
  6
CONTINUOUS
 10
168.9322170435
 20
235.2549497897
  0
VERTEX
  8
0
 62
7
  6
CONTINUOUS
 10
168.9097717032
 20
235.2300417146
  0
VERTEX
  8
0
 62
7
  6
CONTINUOUS
 10
168.8881379659
 20
235.205078715
  0
VERTEX
  8
0
 62
7
  6
CONTINUOUS
 10
168.8671892309
 20
235.1799922231
  0
VERTEX
  8
0
 62
7
  6
CONTINUOUS
 10
168.8468125762
 20
235.1547068231
  0
VERTEX
  8
0
 62
7
  6
CONTINUOUS
 10
168.8269044677
 20
235.1291402699
  0
VERTEX
  8
0
 62
7
  6
CONTINUOUS
 10
168.8074151185
 20
235.1032622453
  0
VERTEX
  8
0
 62
7
  6
CONTINUOUS
 10
168.7883296946
 20
235.0770803056
  0
VERTEX
  8
0
 62
7
  6
CONTINUOUS
 10
168.7696337037
 20
235.0506007671
  0
VERTEX
  8
0
 62
7
  6
CONTINUOUS
 10
168.7513074927
 20
235.023817337
  0
VERTEX
  8
0
 62
7
  6
CONTINUOUS
 10
168.7333390519
 20
234.9967295396
  0
VERTEX
  8
0
 62
7
  6
CONTINUOUS
 10
168.7157158728
 20
234.9693348613
  0
VERTEX
  8
0
 62
7
  6
CONTINUOUS
 10
168.6984211661
 20
234.9416181784
  0
VERTEX
  8
0
 62
7
  6
CONTINUOUS
 10
168.6814459051
 20
234.913572201
  0
VERTEX
  8
0
 62
7
  6
CONTINUOUS
 10
168.6647776192
 20
234.8851822212
  0
VERTEX
  8
0
 62
7
  6
CONTINUOUS
 10
168.6484047509
 20
234.8564272626
  0
VERTEX
  8
0
 62
7
  6
CONTINUOUS
 10
168.6323292416
 20
234.8273081407
  0
VERTEX
  8
0
 62
7
  6
CONTINUOUS
 10
168.616549124
 20
234.7978153709
  0
VERTEX
  8
0
 62
7
  6
CONTINUOUS
 10
168.6010699592
 20
234.7679483735
  0
VERTEX
  8
0
 62
7
  6
CONTINUOUS
 10
168.5858933019
 20
234.7376989363
  0
VERTEX
  8
0
 62
7
  6
CONTINUOUS
 10
168.5710225672
 20
234.7070540489
  0
VERTEX
  8
0
 62
7
  6
CONTINUOUS
 10
168.5564636051
 20
234.6760053228
  0
VERTEX
  8
0
 62
7
  6
CONTINUOUS
 10
168.542219069
 20
234.6445277054
  0
VERTEX
  8
0
 62
7
  6
CONTINUOUS
 10
168.5282980716
 20
234.6126071919
  0
VERTEX
  8
0
 62
7
  6
CONTINUOUS
 10
168.5147048704
 20
234.5802065333
  0
VERTEX
  8
0
 62
7
  6
CONTINUOUS
 10
168.5014516597
 20
234.5473006616
  0
VERTEX
  8
0
 62
7
  6
CONTINUOUS
 10
168.4885470928
 20
234.5138379646
  0
VERTEX
  8
0
 62
7
  6
CONTINUOUS
 10
168.4760170824
 20
234.4798020846
  0
VERTEX
  8
0
 62
7
  6
CONTINUOUS
 10
168.4638988106
 20
234.4451868655
  0
VERTEX
  8
0
 62
7
  6
CONTINUOUS
 10
168.4522307037
 20
234.4099816074
  0
VERTEX
  8
0
 62
7
  6
CONTINUOUS
 10
168.4410604595
 20
234.3741786045
  0
VERTEX
  8
0
 62
7
  6
CONTINUOUS
 10
168.430434768
 20
234.3377393141
  0
VERTEX
  8
0
 62
7
  6
CONTINUOUS
 10
168.4204106957
 20
234.3006258391
  0
VERTEX
  8
0
 62
7
  6
CONTINUOUS
 10
168.4110646102
 20
234.2628117122
  0
VERTEX
  8
0
 62
7
  6
CONTINUOUS
 10
168.4025093493
 20
234.2243647233
  0
VERTEX
  8
0
 62
7
  6
CONTINUOUS
 10
168.3948766044
 20
234.1854042165
  0
VERTEX
  8
0
 62
7
  6
CONTINUOUS
 10
168.3883125204
 20
234.1460941459
  0
VERTEX
  8
0
 62
7
  6
CONTINUOUS
 10
168.3829785775
 20
234.1066793464
  0
VERTEX
  8
0
 62
7
  6
CONTINUOUS
 10
168.3790355278
 20
234.0674559378
  0
VERTEX
  8
0
 62
7
  6
CONTINUOUS
 10
168.3766354804
 20
234.02890737
  0
VERTEX
  8
0
 62
7
  6
CONTINUOUS
 10
168.3758760669
 20
233.993255237
  0
SEQEND
  0
POLYLINE
  8
0
 62
7
  6
CONTINUOUS
 66
1
 70
0
  0
VERTEX
  8
0
 62
7
  6
CONTINUOUS
 10
155.3619231745
 20
235.4287622433
  0
VERTEX
  8
0
 62
7
  6
CONTINUOUS
 10
155.3124321739
 20
235.3849529074
  0
VERTEX
  8
0
 62
7
  6
CONTINUOUS
 10
155.2708859118
 20
235.3474536137
  0
SEQEND
  0
POLYLINE
  8
0
 62
7
  6
CONTINUOUS
 66
1
 70
0
  0
VERTEX
  8
0
 62
7
  6
CONTINUOUS
 10
169.1159231745
 20
235.4287622433
  0
VERTEX
  8
0
 62
7
  6
CONTINUOUS
 10
169.0664321739
 20
235.3849529074
  0
VERTEX
  8
0
 62
7
  6
CONTINUOUS
 10
169.0248859118
 20
235.3474536137
  0
SEQEND
  0
LINE
  8
0
 62
7
  6
CONTINUOUS
 10
155.4042151721
 20
235.4654598274
 11
155.3619231745
 21
235.4287622433
  0
LINE
  8
0
 62
7
  6
CONTINUOUS
 10
169.1582151721
 20
235.4654598274
 11
169.1159231745
 21
235.4287622433
  0
POLYLINE
  8
0
 62
7
  6
CONTINUOUS
 66
1
 70
0
  0
VERTEX
  8
0
 62
7
  6
CONTINUOUS
 10
145.4306375488
 20
235.385536155
  0
VERTEX
  8
0
 62
7
  6
CONTINUOUS
 10
145.3811455311
 20
235.4293340519
  0
VERTEX
  8
0
 62
7
  6
CONTINUOUS
 10
145.33950656
 20
235.4654598165
  0
SEQEND
  0
LINE
  8
0
 62
7
  6
CONTINUOUS
 10
145.4728358078
 20
235.347453649
 11
145.4306375488
 21
235.385536155
  0
LINE
  8
0
 62
7
  6
CONTINUOUS
 10
159.9728358078
 20
235.347453649
 11
159.9306375488
 21
235.385536155
  0
POLYLINE
  8
0
 62
7
  6
CONTINUOUS
 66
1
 70
0
  0
VERTEX
  8
0
 62
7
  6
CONTINUOUS
 10
182.1208734192
 20
235.3474565665
  0
VERTEX
  8
0
 62
7
  6
CONTINUOUS
 10
182.1017035562
 20
235.3296577395
  0
VERTEX
  8
0
 62
7
  6
CONTINUOUS
 10
182.0760382713
 20
235.3047448011
  0
VERTEX
  8
0
 62
7
  6
CONTINUOUS
 10
182.0515868216
 20
235.2798447126
  0
VERTEX
  8
0
 62
7
  6
CONTINUOUS
 10
182.0282026803
 20
235.2549497897
  0
VERTEX
  8
0
 62
7
  6
CONTINUOUS
 10
182.00575734
 20
235.2300417145
  0
VERTEX
  8
0
 62
7
  6
CONTINUOUS
 10
181.9841236027
 20
235.2050787149
  0
VERTEX
  8
0
 62
7
  6
CONTINUOUS
 10
181.9631748677
 20
235.179992223
  0
VERTEX
  8
0
 62
7
  6
CONTINUOUS
 10
181.942798213
 20
235.154706823
  0
VERTEX
  8
0
 62
7
  6
CONTINUOUS
 10
181.9228901045
 20
235.1291402698
  0
VERTEX
  8
0
 62
7
  6
CONTINUOUS
 10
181.9034007553
 20
235.1032622452
  0
VERTEX
  8
0
 62
7
  6
CONTINUOUS
 10
181.8843153314
 20
235.0770803054
  0
VERTEX
  8
0
 62
7
  6
CONTINUOUS
 10
181.8656193405
 20
235.050600767
  0
VERTEX
  8
0
 62
7
  6
CONTINUOUS
 10
181.8472931294
 20
235.0238173369
  0
VERTEX
  8
0
 62
7
  6
CONTINUOUS
 10
181.8293246886
 20
234.9967295395
  0
VERTEX
  8
0
 62
7
  6
CONTINUOUS
 10
181.8117015096
 20
234.9693348611
  0
VERTEX
  8
0
 62
7
  6
CONTINUOUS
 10
181.7944068028
 20
234.9416181782
  0
VERTEX
  8
0
 62
7
  6
CONTINUOUS
 10
181.7774315419
 20
234.9135722008
  0
VERTEX
  8
0
 62
7
  6
CONTINUOUS
 10
181.760763256
 20
234.885182221
  0
VERTEX
  8
0
 62
7
  6
CONTINUOUS
 10
181.7443903877
 20
234.8564272624
  0
VERTEX
  8
0
 62
7
  6
CONTINUOUS
 10
181.7283148784
 20
234.8273081405
  0
VERTEX
  8
0
 62
7
  6
CONTINUOUS
 10
181.7125347607
 20
234.7978153707
  0
VERTEX
  8
0
 62
7
  6
CONTINUOUS
 10
181.697055596
 20
234.7679483734
  0
VERTEX
  8
0
 62
7
  6
CONTINUOUS
 10
181.6818789386
 20
234.737698936
  0
VERTEX
  8
0
 62
7
  6
CONTINUOUS
 10
181.667008204
 20
234.7070540487
  0
VERTEX
  8
0
 62
7
  6
CONTINUOUS
 10
181.6524492418
 20
234.6760053225
  0
VERTEX
  8
0
 62
7
  6
CONTINUOUS
 10
181.6382047058
 20
234.6445277052
  0
VERTEX
  8
0
 62
7
  6
CONTINUOUS
 10
181.6242837083
 20
234.6126071916
  0
VERTEX
  8
0
 62
7
  6
CONTINUOUS
 10
181.6106905072
 20
234.5802065331
  0
VERTEX
  8
0
 62
7
  6
CONTINUOUS
 10
181.5974372964
 20
234.5473006612
  0
VERTEX
  8
0
 62
7
  6
CONTINUOUS
 10
181.5845327296
 20
234.5138379644
  0
VERTEX
  8
0
 62
7
  6
CONTINUOUS
 10
181.572002719
 20
234.479802084
  0
VERTEX
  8
0
 62
7
  6
CONTINUOUS
 10
181.5598844474
 20
234.4451868654
  0
VERTEX
  8
0
 62
7
  6
CONTINUOUS
 10
181.5482163404
 20
234.4099816067
  0
VERTEX
  8
0
 62
7
  6
CONTINUOUS
 10
181.537046096
 20
234.3741786036
  0
VERTEX
  8
0
 62
7
  6
CONTINUOUS
 10
181.526420405
 20
234.3377393146
  0
VERTEX
  8
0
 62
7
  6
CONTINUOUS
 10
181.5163963323
 20
234.3006258382
  0
VERTEX
  8
0
 62
7
  6
CONTINUOUS
 10
181.5070502468
 20
234.2628117112
  0
VERTEX
  8
0
 62
7
  6
CONTINUOUS
 10
181.498494986
 20
234.2243647228
  0
VERTEX
  8
0
 62
7
  6
CONTINUOUS
 10
181.4908622412
 20
234.1854042164
  0
VERTEX
  8
0
 62
7
  6
CONTINUOUS
 10
181.4842981572
 20
234.1460941453
  0
VERTEX
  8
0
 62
7
  6
CONTINUOUS
 10
181.4789642143
 20
234.1066793459
  0
VERTEX
  8
0
 62
7
  6
CONTINUOUS
 10
181.4750211646
 20
234.0674559373
  0
VERTEX
  8
0
 62
7
  6
CONTINUOUS
 10
181.4726211172
 20
234.0289073693
  0
VERTEX
  8
0
 62
7
  6
CONTINUOUS
 10
181.4718617038
 20
233.993255237
  0
SEQEND
  0
POLYLINE
  8
0
 62
7
  6
CONTINUOUS
 66
1
 70
0
  0
VERTEX
  8
0
 62
7
  6
CONTINUOUS
 10
182.2119186205
 20
235.4287708338
  0
VERTEX
  8
0
 62
7
  6
CONTINUOUS
 10
182.1624227092
 20
235.3849572898
  0
VERTEX
  8
0
 62
7
  6
CONTINUOUS
 10
182.1208715486
 20
235.3474536137
  0
SEQEND
  0
LINE
  8
0
 62
7
  6
CONTINUOUS
 10
182.2542155378
 20
235.4654724895
 11
182.2119186205
 21
235.4287708338
  0
POLYLINE
  8
0
 62
7
  6
CONTINUOUS
 66
1
 70
0
  0
VERTEX
  8
0
 62
7
  6
CONTINUOUS
 10
159.9306375488
 20
235.385536155
  0
VERTEX
  8
0
 62
7
  6
CONTINUOUS
 10
159.8811455311
 20
235.4293340519
  0
VERTEX
  8
0
 62
7
  6
CONTINUOUS
 10
159.83950656
 20
235.4654598165
  0
SEQEND
  0
POLYLINE
  8
0
 62
7
  6
CONTINUOUS
 66
1
 70
0
  0
VERTEX
  8
0
 62
7
  6
CONTINUOUS
 10
173.6846375488
 20
235.385536155
  0
VERTEX
  8
0
 62
7
  6
CONTINUOUS
 10
173.6351455311
 20
235.4293340519
  0
VERTEX
  8
0
 62
7
  6
CONTINUOUS
 10
173.59350656
 20
235.4654598165
  0
SEQEND
  0
LINE
  8
0
 62
7
  6
CONTINUOUS
 10
173.7268358078
 20
235.347453649
 11
173.6846375488
 21
235.385536155
  0
POLYLINE
  8
0
 62
7
  6
CONTINUOUS
 66
1
 70
0
  0
VERTEX
  8
0
 62
7
  6
CONTINUOUS
 10
186.7806461064
 20
235.38554136
  0
VERTEX
  8
0
 62
7
  6
CONTINUOUS
 10
186.7311491524
 20
235.4293434668
  0
VERTEX
  8
0
 62
7
  6
CONTINUOUS
 10
186.689506183
 20
235.4654724896
  0
SEQEND
  0
LINE
  8
0
 62
7
  6
CONTINUOUS
 10
186.8228501826
 20
235.347453643
 11
186.7806461064
 21
235.38554136
  0
POLYLINE
  8
0
 62
7
  6
CONTINUOUS
 66
1
 70
0
  0
VERTEX
  8
0
 62
7
  6
CONTINUOUS
 10
147.0748341059
 20
222.2640843827
  0
VERTEX
  8
0
 62
7
  6
CONTINUOUS
 10
146.9094221823
 20
222.2926635824
  0
VERTEX
  8
0
 62
7
  6
CONTINUOUS
 10
146.81055861
 20
222.3093956344
  0
VERTEX
  8
0
 62
7
  6
CONTINUOUS
 10
146.7025712952
 20
222.3264481598
  0
VERTEX
  8
0
 62
7
  6
CONTINUOUS
 10
146.5869303585
 20
222.3428317458
  0
VERTEX
  8
0
 62
7
  6
CONTINUOUS
 10
146.4651958656
 20
222.3576343685
  0
VERTEX
  8
0
 62
7
  6
CONTINUOUS
 10
146.3389522355
 20
222.3700778744
  0
VERTEX
  8
0
 62
7
  6
CONTINUOUS
 10
146.2095641487
 20
222.3795697487
  0
VERTEX
  8
0
 62
7
  6
CONTINUOUS
 10
146.0778911877
 20
222.3857079915
  0
VERTEX
  8
0
 62
7
  6
CONTINUOUS
 10
145.9445561076
 20
222.3882234319
  0
SEQEND
  0
POLYLINE
  8
AXES
 62
7
  6
CONTINUOUS
 66
1
 70
0
  0
VERTEX
  8
AXES
 62
7
  6
CONTINUOUS
 10
146.2400296216
 20
226.7613633953
  0
VERTEX
  8
AXES
 62
7
  6
CONTINUOUS
 10
146.2181881987
 20
226.7679129928
  0
VERTEX
  8
AXES
 62
7
  6
CONTINUOUS
 10
146.1972458919
 20
226.7780222453
  0
VERTEX
  8
AXES
 62
7
  6
CONTINUOUS
 10
146.1779710208
 20
226.7915977659
  0
VERTEX
  8
AXES
 62
7
  6
CONTINUOUS
 10
146.1604257766
 20
226.8090673806
  0
VERTEX
  8
AXES
 62
7
  6
CONTINUOUS
 10
146.1450807411
 20
226.8309620708
  0
VERTEX
  8
AXES
 62
7
  6
CONTINUOUS
 10
146.1329077504
 20
226.8573692846
  0
VERTEX
  8
AXES
 62
7
  6
CONTINUOUS
 10
146.1248354241
 20
226.8883311972
  0
VERTEX
  8
AXES
 62
7
  6
CONTINUOUS
 10
146.1218464977
 20
226.9243241846
  0
SEQEND
  0
POLYLINE
  8
0
 62
7
  6
CONTINUOUS
 66
1
 70
0
  0
VERTEX
  8
0
 62
7
  6
CONTINUOUS
 10
147.2309063146
 20
222.2453433969
  0
VERTEX
  8
0
 62
7
  6
CONTINUOUS
 10
147.1917392722
 20
222.247560181
  0
VERTEX
  8
0
 62
7
  6
CONTINUOUS
 10
147.1396283627
 20
222.253969131
  0
VERTEX
  8
0
 62
7
  6
CONTINUOUS
 10
147.0748341059
 20
222.2640843827
  0
SEQEND
  0
POLYLINE
  8
0
 62
7
  6
CONTINUOUS
 66
1
 70
0
  0
VERTEX
  8
0
 62
7
  6
CONTINUOUS
 10
139.0128154071
 20
222.2453433969
  0
VERTEX
  8
0
 62
7
  6
CONTINUOUS
 10
139.052066531
 20
222.2475682506
  0
VERTEX
  8
0
 62
7
  6
CONTINUOUS
 10
139.1041874871
 20
222.2539825775
  0
VERTEX
  8
0
 62
7
  6
CONTINUOUS
 10
139.1689860136
 20
222.2641006897
  0
VERTEX
  8
0
 62
7
  6
CONTINUOUS
 10
139.3343951888
 20
222.292680134
  0
SEQEND
  0
LINE
  8
0
 62
7
  6
CONTINUOUS
 10
117.2718608608
 20
222.2453433969
 11
186.7218608608
 21
222.2453433969
  0
LINE
  8
AXES
 62
2
  6
CENTER
 10
117.1218608608
 20
228.2453433969
 11
183.1218608608
 21
228.2453433969
  0
POLYLINE
  8
0
 62
7
  6
CONTINUOUS
 66
1
 70
0
  0
VERTEX
  8
0
 62
7
  6
CONTINUOUS
 10
139.3343951888
 20
222.292680134
  0
VERTEX
  8
0
 62
7
  6
CONTINUOUS
 10
139.4332533995
 20
222.309410499
  0
VERTEX
  8
0
 62
7
  6
CONTINUOUS
 10
139.5412311162
 20
222.3264603186
  0
VERTEX
  8
0
 62
7
  6
CONTINUOUS
 10
139.6568602732
 20
222.3428408681
  0
VERTEX
  8
0
 62
7
  6
CONTINUOUS
 10
139.7785773535
 20
222.3576400669
  0
VERTEX
  8
0
 62
7
  6
CONTINUOUS
 10
139.9047950306
 20
222.3700800762
  0
VERTEX
  8
0
 62
7
  6
CONTINUOUS
 10
140.0341660719
 20
222.379570246
  0
VERTEX
  8
0
 62
7
  6
CONTINUOUS
 10
140.1658404062
 20
222.3857082898
  0
VERTEX
  8
0
 62
7
  6
CONTINUOUS
 10
140.2991643576
 20
222.3882232959
  0
SEQEND
  0
POLYLINE
  8
0
 62
7
  6
CONTINUOUS
 66
1
 70
0
  0
VERTEX
  8
0
 62
7
  6
CONTINUOUS
 10
118.1812612772
 20
236.4597752353
  0
VERTEX
  8
0
 62
7
  6
CONTINUOUS
 10
118.0850005957
 20
236.4565202488
  0
VERTEX
  8
0
 62
7
  6
CONTINUOUS
 10
117.9951653891
 20
236.4529804301
  0
VERTEX
  8
0
 62
7
  6
CONTINUOUS
 10
117.9116080458
 20
236.4491596025
  0
VERTEX
  8
0
 62
7
  6
CONTINUOUS
 10
117.8341554592
 20
236.4450637192
  0
VERTEX
  8
0
 62
7
  6
CONTINUOUS
 10
117.7626056195
 20
236.440700519
  0
VERTEX
  8
0
 62
7
  6
CONTINUOUS
 10
117.6967337156
 20
236.4360784532
  0
VERTEX
  8
0
 62
7
  6
CONTINUOUS
 10
117.6362864583
 20
236.431206112
  0
VERTEX
  8
0
 62
7
  6
CONTINUOUS
 10
117.5809970209
 20
236.4260907582
  0
VERTEX
  8
0
 62
7
  6
CONTINUOUS
 10
117.5305777734
 20
236.4207378872
  0
VERTEX
  8
0
 62
7
  6
CONTINUOUS
 10
117.4847231615
 20
236.4151475423
  0
VERTEX
  8
0
 62
7
  6
CONTINUOUS
 10
117.443126036
 20
236.4093156658
  0
VERTEX
  8
0
 62
7
  6
CONTINUOUS
 10
117.405455996
 20
236.4032273975
  0
VERTEX
  8
0
 62
7
  6
CONTINUOUS
 10
117.3713583801
 20
236.3968513331
  0
VERTEX
  8
0
 62
7
  6
CONTINUOUS
 10
117.3404321521
 20
236.3901280121
  0
VERTEX
  8
0
 62
7
  6
CONTINUOUS
 10
117.3122267899
 20
236.3829511633
  0
VERTEX
  8
0
 62
7
  6
CONTINUOUS
 10
117.2862872304
 20
236.3751586685
  0
VERTEX
  8
0
 62
7
  6
CONTINUOUS
 10
117.262157817
 20
236.366507943
  0
VERTEX
  8
0
 62
7
  6
CONTINUOUS
 10
117.2393198102
 20
236.3566041456
  0
VERTEX
  8
0
 62
7
  6
CONTINUOUS
 10
117.217221942
 20
236.3448142565
  0
VERTEX
  8
0
 62
7
  6
CONTINUOUS
 10
117.1954152727
 20
236.3301727407
  0
VERTEX
  8
0
 62
7
  6
CONTINUOUS
 10
117.1738991451
 20
236.3114003615
  0
VERTEX
  8
0
 62
7
  6
CONTINUOUS
 10
117.1536432152
 20
236.2873064858
  0
VERTEX
  8
0
 62
7
  6
CONTINUOUS
 10
117.1366707378
 20
236.2574673964
  0
VERTEX
  8
0
 62
7
  6
CONTINUOUS
 10
117.1254982532
 20
236.2230256703
  0
VERTEX
  8
0
 62
7
  6
CONTINUOUS
 10
117.1218612605
 20
236.1881012475
  0
SEQEND
  0
LINE
  8
0
 62
7
  6
CONTINUOUS
 10
118.3934809351
 20
236.4654281413
 11
118.1812612772
 21
236.4597752353
  0
LINE
  8
0
 62
7
  6
CONTINUOUS
 10
118.6323025759
 20
236.4699609777
 11
118.3934809351
 21
236.4654281413
  0
LINE
  8
0
 62
7
  6
CONTINUOUS
 10
118.8975689475
 20
236.4734379041
 11
118.6323025759
 21
236.4699609777
  0
LINE
  8
0
 62
7
  6
CONTINUOUS
 10
119.1615056637
 20
236.4757678074
 11
118.8975689475
 21
236.4734379041
  0
POLYLINE
  8
0
 62
7
  6
CONTINUOUS
 66
1
 70
0
  0
VERTEX
  8
0
 62
7
  6
CONTINUOUS
 10
120.6067303696
 20
236.4829969036
  0
VERTEX
  8
0
 62
7
  6
CONTINUOUS
 10
119.8689011274
 20
236.4800815597
  0
VERTEX
  8
0
 62
7
  6
CONTINUOUS
 10
119.1615055569
 20
236.4757678028
  0
SEQEND
  0
LINE
  8
0
 62
7
  6
CONTINUOUS
 10
120.6067303696
 20
236.4829969036
 11
121.5422950244
 21
236.4843692098
  0
LINE
  8
0
 62
7
  6
CONTINUOUS
 10
166.4258608608
 20
236.483319244
 11
162.5718608608
 21
236.483319244
  0
LINE
  8
0
 62
7
  6
CONTINUOUS
 10
152.6718608608
 20
236.483319244
 11
148.0718608608
 21
236.483319244
  0
LINE
  8
0
 62
7
  6
CONTINUOUS
 10
133.7468608608
 20
236.4841068776
 11
137.8718608608
 21
236.4841068776
  0
LINE
  8
SURFACE
 62
7
  6
CONTINUOUS
 10
121.5407111951
 20
236.484369419
 11
133.7468608608
 21
236.484369419
  0
LINE
  8
SURFACE
 62
7
  6
CONTINUOUS
 10
137.8718608608
 20
236.484369419
 11
148.0718608608
 21
236.484369419
  0
LINE
  8
SURFACE
 62
7
  6
CONTINUOUS
 10
152.6718608608
 20
236.484369419
 11
162.5718608608
 21
236.484369419
  0
LINE
  8
SURFACE
 62
7
  6
CONTINUOUS
 10
166.4258608608
 20
236.484369419
 11
186.5161798851
 21
236.484369419
  0
POLYLINE
  8
0
 62
7
  6
CONTINUOUS
 66
1
 70
0
  0
VERTEX
  8
0
 62
7
  6
CONTINUOUS
 10
121.5422950244
 20
236.4843692098
  0
VERTEX
  8
0
 62
7
  6
CONTINUOUS
 10
122.1769127703
 20
236.4833593921
  0
VERTEX
  8
0
 62
7
  6
CONTINUOUS
 10
122.5841686833
 20
236.481021721
  0
VERTEX
  8
0
 62
7
  6
CONTINUOUS
 10
122.9716243135
 20
236.4767578482
  0
VERTEX
  8
0
 62
7
  6
CONTINUOUS
 10
123.3364258686
 20
236.470039222
  0
VERTEX
  8
0
 62
7
  6
CONTINUOUS
 10
123.6767530895
 20
236.4603218046
  0
VERTEX
  8
0
 62
7
  6
CONTINUOUS
 10
123.9909200647
 20
236.4470605146
  0
VERTEX
  8
0
 62
7
  6
CONTINUOUS
 10
124.2769747875
 20
236.429746311
  0
VERTEX
  8
0
 62
7
  6
CONTINUOUS
 10
124.533197786
 20
236.4079166291
  0
VERTEX
  8
0
 62
7
  6
CONTINUOUS
 10
124.7583655551
 20
236.3811351047
  0
VERTEX
  8
0
 62
7
  6
CONTINUOUS
 10
124.9512566085
 20
236.3490298308
  0
VERTEX
  8
0
 62
7
  6
CONTINUOUS
 10
125.1104855245
 20
236.3113785035
  0
VERTEX
  8
0
 62
7
  6
CONTINUOUS
 10
125.2354596007
 20
236.2679105955
  0
VERTEX
  8
0
 62
7
  6
CONTINUOUS
 10
125.3251951297
 20
236.2185906228
  0
VERTEX
  8
0
 62
7
  6
CONTINUOUS
 10
125.3790153461
 20
236.1636210329
  0
VERTEX
  8
0
 62
7
  6
CONTINUOUS
 10
125.3968608608
 20
236.103397872
  0
SEQEND
  0
LINE
  8
0
 62
7
  6
CONTINUOUS
 10
186.5363903397
 20
236.4843330163
 11
186.5175141969
 21
236.4843693892
  0
POLYLINE
  8
0
 62
7
  6
CONTINUOUS
 66
1
 70
0
  0
VERTEX
  8
0
 62
7
  6
CONTINUOUS
 10
186.5241870638
 20
236.4843650566
  0
VERTEX
  8
0
 62
7
  6
CONTINUOUS
 10
186.5505688067
 20
236.4842257999
  0
VERTEX
  8
0
 62
7
  6
CONTINUOUS
 10
186.5665262118
 20
236.4838794401
  0
VERTEX
  8
0
 62
7
  6
CONTINUOUS
 10
186.5718608608
 20
236.483319244
  0
SEQEND
  0
LINE
  8
0
 62
7
  6
CONTINUOUS
 10
186.5559467128
 20
236.4841703095
 11
186.5489111983
 21
236.484251167
  0
LINE
  8
0
 62
7
  6
CONTINUOUS
 10
186.5621377049
 20
236.4840654955
 11
186.5559467128
 21
236.4841703095
  0
POLYLINE
  8
AXES
 62
7
  6
CONTINUOUS
 66
1
 70
0
  0
VERTEX
  8
AXES
 62
7
  6
CONTINUOUS
 10
140.0036921001
 20
226.7613633953
  0
VERTEX
  8
AXES
 62
7
  6
CONTINUOUS
 10
139.8756849175
 20
226.7283105231
  0
VERTEX
  8
AXES
 62
7
  6
CONTINUOUS
 10
139.7442570978
 20
226.6839809008
  0
VERTEX
  8
AXES
 62
7
  6
CONTINUOUS
 10
139.6102657563
 20
226.6288196813
  0
VERTEX
  8
AXES
 62
7
  6
CONTINUOUS
 10
139.4769799344
 20
226.5649128719
  0
VERTEX
  8
AXES
 62
7
  6
CONTINUOUS
 10
139.3499484767
 20
226.4964831164
  0
VERTEX
  8
AXES
 62
7
  6
CONTINUOUS
 10
139.233481842
 20
226.4279603884
  0
VERTEX
  8
AXES
 62
7
  6
CONTINUOUS
 10
139.1307590684
 20
226.3633620651
  0
VERTEX
  8
AXES
 62
7
  6
CONTINUOUS
 10
139.0436756937
 20
226.30576693
  0
VERTEX
  8
AXES
 62
7
  6
CONTINUOUS
 10
138.9719590478
 20
226.2564559181
  0
VERTEX
  8
AXES
 62
7
  6
CONTINUOUS
 10
138.9150955148
 20
226.2161156517
  0
VERTEX
  8
AXES
 62
7
  6
CONTINUOUS
 10
138.8724389989
 20
226.1850098326
  0
VERTEX
  8
AXES
 62
7
  6
CONTINUOUS
 10
138.8430347663
 20
226.1629215252
  0
VERTEX
  8
AXES
 62
7
  6
CONTINUOUS
 10
138.8262991689
 20
226.1497068403
  0
VERTEX
  8
AXES
 62
7
  6
CONTINUOUS
 10
138.8218608638
 20
226.1454307517
  0
SEQEND
  0
LINE
  8
0
 62
7
  6
CONTINUOUS
 10
117.1218608608
 20
142.5346741445
 11
117.1218608608
 21
131.0837684653
  0
LINE
  8
0
 62
7
  6
CONTINUOUS
 10
122.3758608608
 20
130.551716734
 11
122.3758608608
 21
144.099521203
  0
LINE
  8
0
 62
7
  6
CONTINUOUS
 10
124.496875224
 20
111.5260888876
 11
124.496875224
 21
115.5146009293
  0
LINE
  8
0
 62
7
  6
CONTINUOUS
 10
125.2468608608
 20
121.8388191273
 11
125.2468608608
 21
118.5594771201
  0
LINE
  8
0
 62
7
  6
CONTINUOUS
 10
129.7468608608
 20
118.5594769156
 11
129.7468608608
 21
123.2401793539
  0
LINE
  8
0
 62
7
  6
CONTINUOUS
 10
130.4968464977
 20
115.5146009293
 11
130.4968464977
 21
111.5260888876
  0
LINE
  8
0
 62
7
  6
CONTINUOUS
 10
132.6178608608
 20
139.5888809396
 11
132.6178608608
 21
143.8401987953
  0
LINE
  8
0
 62
7
  6
CONTINUOUS
 10
133.3718608608
 20
132.290216874
 11
133.3718608608
 21
136.5279253597
  0
LINE
  8
0
 62
7
  6
CONTINUOUS
 10
137.8718608608
 20
132.3902170926
 11
137.8718608608
 21
136.5279204705
  0
LINE
  8
AXES
 62
7
  6
CONTINUOUS
 10
125.2315835358
 20
118.4368233946
 11
125.1014584215
 21
117.92257395
  0
LINE
  8
0
 62
7
  6
CONTINUOUS
 10
125.2315835855
 20
118.4368235912
 11
124.5014584215
 21
115.5513970372
  0
LINE
  8
0
 62
7
  6
CONTINUOUS
 10
130.4922633002
 20
115.5513970372
 11
129.7621381958
 21
118.4368233555
  0
LINE
  8
AXES
 62
7
  6
CONTINUOUS
 10
129.8922633002
 20
117.92257395
 11
129.7621381859
 21
118.4368233946
  0
LINE
  8
0
 62
7
  6
CONTINUOUS
 10
133.356585699
 20
136.6505701245
 11
132.6224434094
 21
139.5520873966
  0
LINE
  8
0
 62
7
  6
CONTINUOUS
 10
138.6258608608
 20
139.5886612701
 11
138.6258608608
 21
143.8401987953
  0
LINE
  8
0
 62
7
  6
CONTINUOUS
 10
140.121875224
 20
111.5260888876
 11
140.121875224
 21
115.5146009293
  0
LINE
  8
0
 62
7
  6
CONTINUOUS
 10
140.8718608608
 20
124.2401987953
 11
140.8718608608
 21
118.5594770875
  0
LINE
  8
0
 62
7
  6
CONTINUOUS
 10
145.3718608608
 20
124.3901987953
 11
145.3718608608
 21
118.5594770875
  0
LINE
  8
0
 62
7
  6
CONTINUOUS
 10
146.1218464977
 20
115.5146009293
 11
146.1218464977
 21
111.5260888876
  0
LINE
  8
0
 62
7
  6
CONTINUOUS
 10
147.6178608608
 20
139.5886612701
 11
147.6178608608
 21
143.8401987953
  0
LINE
  8
0
 62
7
  6
CONTINUOUS
 10
148.3718608608
 20
136.527920675
 11
148.3718608608
 21
132.3902193423
  0
LINE
  8
0
 62
7
  6
CONTINUOUS
 10
137.8871381859
 20
136.6505741961
 11
138.6212776633
 21
139.5518651622
  0
LINE
  8
AXES
 62
7
  6
CONTINUOUS
 10
140.8565835358
 20
118.4368233946
 11
140.7264584215
 21
117.92257395
  0
LINE
  8
0
 62
7
  6
CONTINUOUS
 10
140.8565835855
 20
118.4368235912
 11
140.1264584215
 21
115.5513970372
  0
LINE
  8
0
 62
7
  6
CONTINUOUS
 10
145.3871379922
 20
118.4368241599
 11
146.1172633002
 21
115.5513970372
  0
LINE
  8
AXES
 62
7
  6
CONTINUOUS
 10
145.5172633002
 20
117.92257395
 11
145.3871381859
 21
118.4368233946
  0
LINE
  8
0
 62
7
  6
CONTINUOUS
 10
147.6224440584
 20
139.5518651622
 11
148.3565835259
 21
136.6505742352
  0
LINE
  8
0
 62
7
  6
CONTINUOUS
 10
152.8718608608
 20
136.5279205031
 11
152.8718608608
 21
131.8901987953
  0
LINE
  8
0
 62
7
  6
CONTINUOUS
 10
153.6258608608
 20
139.5886612701
 11
153.6258608608
 21
143.8401987953
  0
LINE
  8
0
 62
7
  6
CONTINUOUS
 10
154.621875224
 20
111.5260888876
 11
154.621875224
 21
115.5146009293
  0
LINE
  8
0
 62
7
  6
CONTINUOUS
 10
155.3718608608
 20
118.5594763198
 11
155.3718608608
 21
124.3901812809
  0
LINE
  8
0
 62
7
  6
CONTINUOUS
 10
159.8718608608
 20
124.3901987953
 11
159.8718608608
 21
118.5594770875
  0
LINE
  8
0
 62
7
  6
CONTINUOUS
 10
160.6218464977
 20
115.5146009293
 11
160.6218464977
 21
111.5260888876
  0
LINE
  8
0
 62
7
  6
CONTINUOUS
 10
161.6178608608
 20
139.5886612701
 11
161.6178608608
 21
143.8401987953
  0
LINE
  8
0
 62
7
  6
CONTINUOUS
 10
162.3718608608
 20
136.527920675
 11
162.3718608608
 21
131.8902175984
  0
LINE
  8
0
 62
7
  6
CONTINUOUS
 10
166.8758608608
 20
131.8902156559
 11
166.8758608608
 21
136.5279204705
  0
LINE
  8
0
 62
7
  6
CONTINUOUS
 10
152.8871381859
 20
136.6505741961
 11
153.6212776633
 21
139.5518651622
  0
LINE
  8
AXES
 62
7
  6
CONTINUOUS
 10
155.3565835358
 20
118.4368233946
 11
155.2264584215
 21
117.92257395
  0
LINE
  8
0
 62
7
  6
CONTINUOUS
 10
154.6264584215
 20
115.5513970372
 11
155.3565836377
 21
118.4368237975
  0
LINE
  8
0
 62
7
  6
CONTINUOUS
 10
159.8871379922
 20
118.4368241599
 11
160.6172633002
 21
115.5513970372
  0
LINE
  8
AXES
 62
7
  6
CONTINUOUS
 10
160.0172633002
 20
117.92257395
 11
159.8871381859
 21
118.4368233946
  0
LINE
  8
0
 62
7
  6
CONTINUOUS
 10
161.6224440584
 20
139.5518651622
 11
162.3565835259
 21
136.6505742352
  0
LINE
  8
0
 62
7
  6
CONTINUOUS
 10
167.6298608608
 20
139.5886612701
 11
167.6298608608
 21
143.8401987953
  0
LINE
  8
0
 62
7
  6
CONTINUOUS
 10
168.375875224
 20
111.519976943
 11
168.375875224
 21
115.5146009293
  0
LINE
  8
0
 62
7
  6
CONTINUOUS
 10
169.1258608608
 20
124.3901987953
 11
169.1258608608
 21
118.5594770875
  0
LINE
  8
0
 62
7
  6
CONTINUOUS
 10
173.6258608608
 20
124.7561823569
 11
173.6258608608
 21
118.5594767085
  0
LINE
  8
0
 62
7
  6
CONTINUOUS
 10
174.3758464977
 20
115.5146009293
 11
174.3758464977
 21
111.519976943
  0
LINE
  8
0
 62
7
  6
CONTINUOUS
 10
175.1218608608
 20
139.5886612701
 11
175.1218608608
 21
143.8401987953
  0
LINE
  8
0
 62
7
  6
CONTINUOUS
 10
175.8758608608
 20
136.527920675
 11
175.8758608608
 21
131.8902175984
  0
LINE
  8
0
 62
7
  6
CONTINUOUS
 10
180.3678608608
 20
136.5279212707
 11
180.3678608608
 21
132.3442157791
  0
LINE
  8
0
 62
7
  6
CONTINUOUS
 10
181.1218608608
 20
139.5886612701
 11
181.1218608608
 21
143.8401987953
  0
LINE
  8
0
 62
7
  6
CONTINUOUS
 10
181.4718608608
 20
112.0407090525
 11
181.4718608608
 21
115.5146009293
  0
LINE
  8
0
 62
7
  6
CONTINUOUS
 10
166.8911381859
 20
136.6505741961
 11
167.6252776633
 21
139.5518651622
  0
LINE
  8
AXES
 62
7
  6
CONTINUOUS
 10
169.1105835358
 20
118.4368233946
 11
168.9804584215
 21
117.92257395
  0
LINE
  8
0
 62
7
  6
CONTINUOUS
 10
168.3804584215
 20
115.5513970372
 11
169.1105836377
 21
118.4368237975
  0
LINE
  8
0
 62
7
  6
CONTINUOUS
 10
173.6411379922
 20
118.4368241599
 11
174.3712633002
 21
115.5513970372
  0
LINE
  8
AXES
 62
7
  6
CONTINUOUS
 10
173.7712633002
 20
117.92257395
 11
173.6411381859
 21
118.4368233946
  0
LINE
  8
0
 62
7
  6
CONTINUOUS
 10
175.1264440584
 20
139.5518651622
 11
175.8605835259
 21
136.6505742352
  0
LINE
  8
0
 62
7
  6
CONTINUOUS
 10
182.2218608608
 20
118.5595330825
 11
182.2218608608
 21
124.756182367
  0
LINE
  8
0
 62
7
  6
CONTINUOUS
 10
186.7218608608
 20
127.2401987953
 11
186.7218608608
 21
118.5595330828
  0
LINE
  8
0
 62
7
  6
CONTINUOUS
 10
187.4718608608
 20
115.5146009293
 11
187.4718608608
 21
112.0407090525
  0
LINE
  8
0
 62
7
  6
CONTINUOUS
 10
181.1172776633
 20
139.5518651622
 11
180.3831380839
 21
136.6505737931
  0
LINE
  8
AXES
 62
7
  6
CONTINUOUS
 10
182.2065835358
 20
118.4368801572
 11
182.0764440584
 21
117.92257395
  0
LINE
  8
0
 62
7
  6
CONTINUOUS
 10
181.4764440584
 20
115.5513970372
 11
182.2065836377
 21
118.4368805602
  0
LINE
  8
AXES
 62
7
  6
CONTINUOUS
 10
186.7371381859
 20
118.4368801572
 11
186.8672776633
 21
117.92257395
  0
LINE
  8
0
 62
7
  6
CONTINUOUS
 10
186.7371380838
 20
118.4368805605
 11
187.4672776633
 21
115.5513970372
  0
LINE
  8
0
 62
7
  6
CONTINUOUS
 10
121.2664039498
 20
127.4887436497
 11
119.1120893164
 21
128.2587972914
  0
LINE
  8
0
 62
7
  6
CONTINUOUS
 10
122.2763494381
 20
144.2407688705
 11
120.4633371479
 21
144.8888249599
  0
LINE
  8
0
 62
7
  6
CONTINUOUS
 10
126.9968608608
 20
110.4901987953
 11
127.9968608608
 21
110.4901987953
  0
LINE
  8
0
 62
7
  6
CONTINUOUS
 10
142.6218608608
 20
110.4901987953
 11
143.6218608608
 21
110.4901987953
  0
LINE
  8
0
 62
7
  6
CONTINUOUS
 10
157.1218608608
 20
110.4901987953
 11
158.1218608608
 21
110.4901987953
  0
LINE
  8
0
 62
7
  6
CONTINUOUS
 10
170.8758608608
 20
110.4901987953
 11
171.8758608608
 21
110.4901987953
  0
LINE
  8
DEFAULT_1
 62
2
  6
CENTER
 10
122.496875224
 20
114.8401987953
 11
189.4718608608
 21
114.8401987953
  0
LINE
  8
0
 62
7
  6
CONTINUOUS
 10
180.2218608608
 20
126.7561987953
 11
175.6258608608
 21
126.7561987953
  0
LINE
  8
0
 62
7
  6
CONTINUOUS
 10
166.4258608608
 20
127.0901987953
 11
162.5718608608
 21
127.0901987953
  0
LINE
  8
0
 62
7
  6
CONTINUOUS
 10
152.6718608608
 20
127.0901987953
 11
148.0718608608
 21
127.0901987953
  0
LINE
  8
0
 62
7
  6
CONTINUOUS
 10
133.7468608608
 20
127.2401987953
 11
137.8718608608
 21
127.2401987953
  0
LINE
  8
0
 62
7
  6
CONTINUOUS
 10
127.1218792814
 20
127.7901987953
 11
128.8718421102
 21
127.7901987953
  0
LINE
  8
0
 62
7
  6
CONTINUOUS
 10
143.8718428304
 20
127.8901987953
 11
142.3718811424
 21
127.8901987953
  0
LINE
  8
0
 62
7
  6
CONTINUOUS
 10
172.0258608608
 20
128.0401987953
 11
170.7258608608
 21
128.0401987953
  0
LINE
  8
0
 62
7
  6
CONTINUOUS
 10
158.5218608608
 20
128.0401987953
 11
156.7218608608
 21
128.0401987953
  0
LINE
  8
0
 62
7
  6
CONTINUOUS
 10
184.4718608608
 20
128.2401987953
 11
185.7218608608
 21
128.2401987953
  0
LINE
  8
AXES
 62
2
  6
CENTER
 10
117.1218608608
 20
140.2401987953
 11
183.1218608608
 21
140.2401987953
  0
LINE
  8
0
 62
7
  6
CONTINUOUS
 10
133.3678608608
 20
144.5901987953
 11
137.8758608608
 21
144.5901987953
  0
LINE
  8
0
 62
7
  6
CONTINUOUS
 10
148.3678608608
 20
144.5901987953
 11
152.8758608608
 21
144.5901987953
  0
LINE
  8
0
 62
7
  6
CONTINUOUS
 10
162.3678608608
 20
144.5901987953
 11
166.8798608608
 21
144.5901987953
  0
LINE
  8
0
 62
7
  6
CONTINUOUS
 10
175.8718608608
 20
144.5901987953
 11
180.3718608608
 21
144.5901987953
  0
LINE
  8
0
 62
7
  6
CONTINUOUS
 10
269.6804891322
 20
110.4901987953
 11
273.6804891322
 21
110.4901987953
  0
LINE
  8
DEFAULT_1
 62
2
  6
CENTER
 10
276.9304891322
 20
114.8401987953
 11
273.6805891322
 21
114.8401987953
  0
LINE
  8
0
 62
2
  6
CONTINUOUS
 10
272.7304891322
 20
114.8401987953
 11
270.6304891322
 21
114.8401987953
  0
LINE
  8
DEFAULT_1
 62
2
  6
CENTER
 10
266.4304891322
 20
114.8401987953
 11
269.6803891322
 21
114.8401987953
  0
LINE
  8
0
 62
7
  6
CONTINUOUS
 10
265.6804891322
 20
114.4901987953
 11
265.6804891322
 21
140.5901987953
  0
POLYLINE
  8
0
 62
7
  6
CONTINUOUS
 66
1
 70
0
  0
VERTEX
  8
0
 62
7
  6
CONTINUOUS
 10
266.0991876232
 20
142.5902789736
  0
VERTEX
  8
0
 62
7
  6
CONTINUOUS
 10
265.9789700215
 20
142.260367124
  0
VERTEX
  8
0
 62
7
  6
CONTINUOUS
 10
265.8708912531
 20
141.8938692073
  0
VERTEX
  8
0
 62
7
  6
CONTINUOUS
 10
265.786579942
 20
141.5199082189
  0
VERTEX
  8
0
 62
7
  6
CONTINUOUS
 10
265.7264982465
 20
141.1400256963
  0
VERTEX
  8
0
 62
7
  6
CONTINUOUS
 10
265.6910518123
 20
140.7557873829
  0
VERTEX
  8
0
 62
7
  6
CONTINUOUS
 10
265.6804892659
 20
140.4011975582
  0
SEQEND
  0
LINE
  8
AXES
 62
7
  6
CONTINUOUS
 10
269.5804891322
 20
114.8401987953
 11
269.5804891322
 21
122.8901987953
  0
LINE
  8
AXES
 62
2
  6
CENTER
 10
271.6804891322
 20
145.4901987953
 11
271.6804891322
 21
144.3401987953
  0
LINE
  8
AXES
 62
2
  6
CONTINUOUS
 10
271.6804891322
 20
141.2901987953
 11
271.6804891322
 21
139.1901987953
  0
LINE
  8
DEFAULT_1
 62
2
  6
CENTER
 10
271.6804891322
 20
120.0901987953
 11
271.6804891322
 21
116.8402987953
  0
LINE
  8
0
 62
2
  6
CONTINUOUS
 10
271.6804891322
 20
115.8901987953
 11
271.6804891322
 21
113.7901987953
  0
LINE
  8
DEFAULT_1
 62
2
  6
CENTER
 10
271.6804891322
 20
109.5901987953
 11
271.6804891322
 21
112.8400987953
  0
LINE
  8
AXES
 62
2
  6
CENTER
 10
271.6804891322
 20
134.9901987953
 11
271.6804891322
 21
136.1401987953
  0
LINE
  8
AXES
 62
7
  6
CONTINUOUS
 10
273.7804891322
 20
114.8401987953
 11
273.7804891322
 21
122.8901987953
  0
LINE
  8
AXES
 62
2
  6
CENTER
 10
276.9304891322
 20
140.2401987953
 11
275.7804891322
 21
140.2401987953
  0
LINE
  8
AXES
 62
2
  6
CONTINUOUS
 10
272.7304891322
 20
140.2401987953
 11
270.6304891322
 21
140.2401987953
  0
LINE
  8
AXES
 62
2
  6
CENTER
 10
266.4304891322
 20
140.2401987953
 11
267.5804891322
 21
140.2401987953
  0
POLYLINE
  8
0
 62
7
  6
CONTINUOUS
 66
1
 70
0
  0
VERTEX
  8
0
 62
7
  6
CONTINUOUS
 10
269.8005403087
 20
145.0346981372
  0
VERTEX
  8
0
 62
7
  6
CONTINUOUS
 10
269.5615229273
 20
145.0288706652
  0
VERTEX
  8
0
 62
7
  6
CONTINUOUS
 10
269.2340492648
 20
145.0011495133
  0
VERTEX
  8
0
 62
7
  6
CONTINUOUS
 10
268.9251493202
 20
144.9526321387
  0
VERTEX
  8
0
 62
7
  6
CONTINUOUS
 10
268.6341969449
 20
144.8853106496
  0
VERTEX
  8
0
 62
7
  6
CONTINUOUS
 10
268.3598011404
 20
144.8006702556
  0
VERTEX
  8
0
 62
7
  6
CONTINUOUS
 10
268.1006508614
 20
144.699767121
  0
VERTEX
  8
0
 62
7
  6
CONTINUOUS
 10
267.8563100872
 20
144.5836556961
  0
VERTEX
  8
0
 62
7
  6
CONTINUOUS
 10
267.627132685
 20
144.4537080863
  0
VERTEX
  8
0
 62
7
  6
CONTINUOUS
 10
267.4134606662
 20
144.3114427439
  0
VERTEX
  8
0
 62
7
  6
CONTINUOUS
 10
267.2155589349
 20
144.158529
  0
VERTEX
  8
0
 62
7
  6
CONTINUOUS
 10
267.0335345965
 20
143.996743519
  0
VERTEX
  8
0
 62
7
  6
CONTINUOUS
 10
266.867349848
 20
143.8279735027
  0
VERTEX
  8
0
 62
7
  6
CONTINUOUS
 10
266.7167218564
 20
143.654088724
  0
VERTEX
  8
0
 62
7
  6
CONTINUOUS
 10
266.5807853001
 20
143.476383878
  0
VERTEX
  8
0
 62
7
  6
CONTINUOUS
 10
266.458542363
 20
143.295862637
  0
VERTEX
  8
0
 62
7
  6
CONTINUOUS
 10
266.3490165551
 20
143.1133791609
  0
VERTEX
  8
0
 62
7
  6
CONTINUOUS
 10
266.251257962
 20
142.9296402526
  0
VERTEX
  8
0
 62
7
  6
CONTINUOUS
 10
266.1643384012
 20
142.7451737189
  0
VERTEX
  8
0
 62
7
  6
CONTINUOUS
 10
266.0991878194
 20
142.5902788953
  0
SEQEND
  0
LINE
  8
0
 62
7
  6
CONTINUOUS
 10
269.7993898979
 20
145.0346971313
 11
273.6413649764
 21
145.0346971536
  0
POLYLINE
  8
0
 62
7
  6
CONTINUOUS
 66
1
 70
0
  0
VERTEX
  8
0
 62
7
  6
CONTINUOUS
 10
277.1942023253
 20
142.5954538966
  0
VERTEX
  8
0
 62
7
  6
CONTINUOUS
 10
277.1166133651
 20
142.7630724906
  0
VERTEX
  8
0
 62
7
  6
CONTINUOUS
 10
277.0176324748
 20
142.9573958048
  0
VERTEX
  8
0
 62
7
  6
CONTINUOUS
 10
276.9081761322
 20
143.1508453456
  0
VERTEX
  8
0
 62
7
  6
CONTINUOUS
 10
276.7873571852
 20
143.3425333417
  0
VERTEX
  8
0
 62
7
  6
CONTINUOUS
 10
276.6543022286
 20
143.5314214251
  0
VERTEX
  8
0
 62
7
  6
CONTINUOUS
 10
276.5081357607
 20
143.7163617628
  0
VERTEX
  8
0
 62
7
  6
CONTINUOUS
 10
276.3479897007
 20
143.8960848961
  0
VERTEX
  8
0
 62
7
  6
CONTINUOUS
 10
276.1730320777
 20
144.0691765477
  0
VERTEX
  8
0
 62
7
  6
CONTINUOUS
 10
275.9824787508
 20
144.2340833864
  0
VERTEX
  8
0
 62
7
  6
CONTINUOUS
 10
275.7756529495
 20
144.3890852268
  0
VERTEX
  8
0
 62
7
  6
CONTINUOUS
 10
275.5523503272
 20
144.532117555
  0
VERTEX
  8
0
 62
7
  6
CONTINUOUS
 10
275.3126119976
 20
144.6610918544
  0
VERTEX
  8
0
 62
7
  6
CONTINUOUS
 10
275.056569119
 20
144.77402141
  0
VERTEX
  8
0
 62
7
  6
CONTINUOUS
 10
274.784251982
 20
144.869062879
  0
VERTEX
  8
0
 62
7
  6
CONTINUOUS
 10
274.4954907843
 20
144.9444403967
  0
VERTEX
  8
0
 62
7
  6
CONTINUOUS
 10
274.1901405086
 20
144.998285521
  0
VERTEX
  8
0
 62
7
  6
CONTINUOUS
 10
273.8690930145
 20
145.0285512909
  0
VERTEX
  8
0
 62
7
  6
CONTINUOUS
 10
273.6406086253
 20
145.0346976387
  0
SEQEND
  0
POLYLINE
  8
0
 62
7
  6
CONTINUOUS
 66
1
 70
0
  0
VERTEX
  8
0
 62
7
  6
CONTINUOUS
 10
277.3518968176
 20
142.2028315416
  0
VERTEX
  8
0
 62
7
  6
CONTINUOUS
 10
277.3058382926
 20
142.3260429681
  0
VERTEX
  8
0
 62
7
  6
CONTINUOUS
 10
277.2454075736
 20
142.4764311564
  0
VERTEX
  8
0
 62
7
  6
CONTINUOUS
 10
277.1942025756
 20
142.5954540075
  0
SEQEND
  0
LINE
  8
0
 62
7
  6
CONTINUOUS
 10
277.351896807
 20
142.2028314666
 11
277.3521688271
 21
142.2020786988
  0
ARC
  8
0
 62
7
  6
CONTINUOUS
 10
186.7218608608
 20
222.9953433969
 40
0.75
 50
270.0
 51
360.0
  0
ARC
  8
0
 62
7
  6
CONTINUOUS
 10
182.2218608608
 20
222.9953433969
 40
0.75
 50
180.0
 51
270.0
  0
ARC
  8
0
 62
7
  6
CONTINUOUS
 10
173.6258464977
 20
222.9953433969
 40
0.75
 50
270.0
 51
360.0
  0
ARC
  8
0
 62
7
  6
CONTINUOUS
 10
159.8718464977
 20
222.9953433969
 40
0.75
 50
270.0
 51
360.0
  0
ARC
  8
0
 62
7
  6
CONTINUOUS
 10
155.371875224
 20
222.9953433969
 40
0.75
 50
180.0
 51
270.0
  0
ARC
  8
0
 62
7
  6
CONTINUOUS
 10
125.246875224
 20
222.9953433969
 40
0.75
 50
180.0
 51
270.0
  0
ARC
  8
0
 62
7
  6
CONTINUOUS
 10
129.7468464977
 20
222.9953433969
 40
0.75
 50
270.0
 51
360.0
  0
ARC
  8
0
 62
7
  6
CONTINUOUS
 10
169.125875224
 20
222.9953433969
 40
0.75
 50
180.0
 51
270.0
  0
ARC
  8
0
 62
7
  6
CONTINUOUS
 10
147.2718608608
 20
222.3953433969
 40
0.15
 50
270.0
 51
360.0
  0
ARC
  8
0
 62
7
  6
CONTINUOUS
 10
138.9718608608
 20
222.3953433969
 40
0.15
 50
180.0
 51
270.0
  0
ARC
  8
0
 62
7
  6
CONTINUOUS
 10
180.2178608608
 20
222.3953433969
 40
0.15
 50
271.5229755582
 51
281.25
  0
ARC
  8
0
 62
7
  6
CONTINUOUS
 10
117.2718608608
 20
222.3953433969
 40
0.15
 50
180.0
 51
270.0
  0
ARC
  8
0
 62
7
  6
CONTINUOUS
 10
127.9968608608
 20
114.9901987953
 40
4.5
 50
270.0
 51
299.9997624355
  0
ARC
  8
0
 62
7
  6
CONTINUOUS
 10
126.9968608608
 20
114.9901987953
 40
4.5
 50
240.0002375645
 51
270.0
  0
ARC
  8
0
 62
7
  6
CONTINUOUS
 10
124.9968749569
 20
111.5260890005
 40
0.5000000045
 50
180.0000129345
 51
240.0002705354
  0
ARC
  8
0
 62
7
  6
CONTINUOUS
 10
129.9968464977
 20
111.5260888876
 40
0.5
 50
299.9997624355
 51
360.0
  0
ARC
  8
AXES
 62
7
  6
CONTINUOUS
 10
130.3468464977
 20
115.5146009293
 40
0.15
 50
0.0
 51
14.2
  0
ARC
  8
0
 62
7
  6
CONTINUOUS
 10
130.3468462588
 20
115.5146018733
 40
0.15
 50
359.9996394343
 51
14.199628069
  0
ARC
  8
AXES
 62
7
  6
CONTINUOUS
 10
124.646875224
 20
115.5146009293
 40
0.15
 50
165.8
 51
180.0
  0
ARC
  8
0
 62
7
  6
CONTINUOUS
 10
124.646875224
 20
115.5146009293
 40
0.15
 50
165.8
 51
180.0
  0
ARC
  8
AXES
 62
7
  6
CONTINUOUS
 10
119.2468608608
 20
121.8388369503
 40
6.0
 50
3.9535667926
 51
5.1476791904
  0
ARC
  8
AXES
 62
7
  6
CONTINUOUS
 10
119.2468608608
 20
121.8388369503
 40
6.0
 50
8.0235414364
 51
10.0918668683
  0
ARC
  8
0
 62
7
  6
CONTINUOUS
 10
119.2468608608
 20
121.8388369503
 40
6.0
 50
359.9998298028
 51
70.3309087368
  0
ARC
  8
0
 62
7
  6
CONTINUOUS
 10
133.7468608608
 20
123.2401987953
 40
4.0
 50
89.9997613781
 51
180.0002784771
  0
ARC
  8
0
 62
7
  6
CONTINUOUS
 10
124.7468608608
 20
118.5594770875
 40
0.5
 50
345.8000232447
 51
0.0000037398
  0
ARC
  8
AXES
 62
7
  6
CONTINUOUS
 10
124.7468608608
 20
118.5594770875
 40
0.5
 50
345.8
 51
350.0603159708
  0
ARC
  8
AXES
 62
7
  6
CONTINUOUS
 10
124.7468608608
 20
118.5594770875
 40
0.5
 50
350.8517292184
 51
354.9513626099
  0
ARC
  8
AXES
 62
7
  6
CONTINUOUS
 10
124.7468608608
 20
118.5594770875
 40
0.5
 50
355.7373127393
 51
360.0
  0
ARC
  8
0
 62
7
  6
CONTINUOUS
 10
130.2468608608
 20
118.5594770875
 40
0.5
 50
180.000019695
 51
194.2000046172
  0
ARC
  8
AXES
 62
7
  6
CONTINUOUS
 10
130.2468608608
 20
118.5594770875
 40
0.5
 50
180.0
 51
184.264845916
  0
ARC
  8
AXES
 62
7
  6
CONTINUOUS
 10
130.2468608608
 20
118.5594770875
 40
0.5
 50
185.0483520966
 51
189.150340182
  0
ARC
  8
AXES
 62
7
  6
CONTINUOUS
 10
130.2468608608
 20
118.5594770875
 40
0.5
 50
189.9388413887
 51
194.2
  0
ARC
  8
0
 62
7
  6
CONTINUOUS
 10
143.6218608608
 20
114.9901987953
 40
4.5
 50
270.0
 51
299.9997624355
  0
ARC
  8
0
 62
7
  6
CONTINUOUS
 10
142.6218608608
 20
114.9901987953
 40
4.5
 50
240.0002375645
 51
270.0
  0
ARC
  8
AXES
 62
7
  6
CONTINUOUS
 10
140.3218608608
 20
114.8201987953
 40
1.5
 50
94.1260708806
 51
257.7538206432
  0
ARC
  8
AXES
 62
7
  6
CONTINUOUS
 10
145.9218608608
 20
114.8201987953
 40
1.5
 50
282.2461793568
 51
85.8739291194
  0
ARC
  8
0
 62
7
  6
CONTINUOUS
 10
140.6218749569
 20
111.5260890005
 40
0.5000000045
 50
180.0000129345
 51
240.0002705354
  0
ARC
  8
0
 62
7
  6
CONTINUOUS
 10
145.6218464977
 20
111.5260888876
 40
0.5
 50
299.9997624355
 51
360.0
  0
ARC
  8
0
 62
7
  6
CONTINUOUS
 10
145.9718464977
 20
115.5146009293
 40
0.15
 50
0.0
 51
14.2
  0
ARC
  8
AXES
 62
7
  6
CONTINUOUS
 10
146.0405804978
 20
116.4659222374
 40
0.15
 50
194.2
 51
265.8739291194
  0
ARC
  8
AXES
 62
7
  6
CONTINUOUS
 10
146.2718464977
 20
113.207744128
 40
0.15
 50
102.2461793568
 51
180.0
  0
ARC
  8
AXES
 62
7
  6
CONTINUOUS
 10
139.971875224
 20
113.207744128
 40
0.15
 50
0.0
 51
77.7538206431
  0
ARC
  8
AXES
 62
7
  6
CONTINUOUS
 10
140.2031412239
 20
116.4659222374
 40
0.15
 50
274.1260708806
 51
345.8
  0
ARC
  8
0
 62
7
  6
CONTINUOUS
 10
140.271875224
 20
115.5146009293
 40
0.15
 50
165.8
 51
180.0
  0
ARC
  8
0
 62
7
  6
CONTINUOUS
 10
137.8718608608
 20
124.2401987953
 40
3.0
 50
359.9996937138
 51
90.0003308395
  0
ARC
  8
0
 62
7
  6
CONTINUOUS
 10
152.6718608608
 20
124.3901987953
 40
2.7
 50
359.9996283331
 51
90.0003635101
  0
ARC
  8
0
 62
7
  6
CONTINUOUS
 10
148.0718608608
 20
124.3901987953
 40
2.7
 50
89.9996279837
 51
180.0003632179
  0
ARC
  8
0
 62
7
  6
CONTINUOUS
 10
140.3718608608
 20
118.5594770875
 40
0.5
 50
345.8000232447
 51
0.0000037398
  0
ARC
  8
AXES
 62
7
  6
CONTINUOUS
 10
140.3718608608
 20
118.5594770875
 40
0.5
 50
345.8
 51
350.0603159708
  0
ARC
  8
AXES
 62
7
  6
CONTINUOUS
 10
140.3718608608
 20
118.5594770875
 40
0.5
 50
350.8517292184
 51
354.95136261
  0
ARC
  8
AXES
 62
7
  6
CONTINUOUS
 10
140.3718608608
 20
118.5594770875
 40
0.5
 50
355.7373127391
 51
360.0
  0
ARC
  8
0
 62
7
  6
CONTINUOUS
 10
145.8718608608
 20
118.5594770875
 40
0.5
 50
180.000043433
 51
194.1999095363
  0
ARC
  8
AXES
 62
7
  6
CONTINUOUS
 10
145.8718608608
 20
118.5594770875
 40
0.5
 50
180.0
 51
184.2639730727
  0
ARC
  8
AXES
 62
7
  6
CONTINUOUS
 10
145.8718608608
 20
118.5594770875
 40
0.5
 50
185.0481113768
 51
189.1490096538
  0
ARC
  8
AXES
 62
7
  6
CONTINUOUS
 10
145.8718608608
 20
118.5594770875
 40
0.5
 50
189.9394663559
 51
194.2
  0
ARC
  8
0
 62
7
  6
CONTINUOUS
 10
127.1218608608
 20
133.2901987953
 40
5.5
 50
210.7881902385
 51
270.0001918945
  0
ARC
  8
0
 62
7
  6
CONTINUOUS
 10
142.3718608608
 20
132.3901987953
 40
4.5
 50
179.9997670316
 51
270.0002582324
  0
ARC
  8
0
 62
7
  6
CONTINUOUS
 10
143.8718608608
 20
132.3901987953
 40
4.5
 50
269.9997704292
 51
0.0002616126
  0
ARC
  8
0
 62
7
  6
CONTINUOUS
 10
128.8718608608
 20
132.2901987953
 40
4.5
 50
269.9997612597
 51
0.0002301846
  0
ARC
  8
0
 62
7
  6
CONTINUOUS
 10
120.1218608608
 20
131.0837506411
 40
3.0
 50
179.9996595825
 51
250.3310293015
  0
ARC
  8
0
 62
7
  6
CONTINUOUS
 10
119.6218608608
 20
142.5346971684
 40
2.5
 50
70.3307146137
 51
180.0005276699
  0
ARC
  8
0
 62
7
  6
CONTINUOUS
 10
133.3678608608
 20
143.8401987953
 40
0.75
 50
90.0
 51
180.0
  0
ARC
  8
0
 62
7
  6
CONTINUOUS
 10
137.8758608608
 20
143.8401987953
 40
0.75
 50
0.0
 51
90.0
  0
ARC
  8
0
 62
7
  6
CONTINUOUS
 10
148.3678608608
 20
143.8401987953
 40
0.75
 50
90.0
 51
180.0
  0
ARC
  8
0
 62
7
  6
CONTINUOUS
 10
152.8758608608
 20
143.8401987953
 40
0.75
 50
0.0
 51
90.0
  0
ARC
  8
0
 62
7
  6
CONTINUOUS
 10
138.3718608608
 20
136.5279205031
 40
0.5
 50
165.8000232515
 51
180.0000037413
  0
ARC
  8
0
 62
7
  6
CONTINUOUS
 10
147.8718608608
 20
136.5279205031
 40
0.5
 50
0.0000196988
 51
14.2000046195
  0
ARC
  8
0
 62
7
  6
CONTINUOUS
 10
132.8718608608
 20
136.5279249809
 40
0.5
 50
0.0000434023
 51
14.198899021
  0
ARC
  8
0
 62
7
  6
CONTINUOUS
 10
122.5258608608
 20
130.551716734
 40
0.15
 50
179.9992181607
 51
210.7892060643
  0
ARC
  8
0
 62
7
  6
CONTINUOUS
 10
132.7678608608
 20
139.5888809396
 40
0.15
 50
180.0
 51
194.1989894452
  0
ARC
  8
0
 62
7
  6
CONTINUOUS
 10
122.2258608608
 20
144.099521203
 40
0.15
 50
0.0
 51
70.3307146137
  0
ARC
  8
0
 62
7
  6
CONTINUOUS
 10
138.4758608608
 20
139.5886612701
 40
0.15
 50
345.8
 51
360.0
  0
ARC
  8
0
 62
7
  6
CONTINUOUS
 10
147.7678611612
 20
139.5886600832
 40
0.15
 50
179.9995466552
 51
194.1995323646
  0
ARC
  8
0
 62
7
  6
CONTINUOUS
 10
170.8758608608
 20
115.0301987953
 40
4.54
 50
240.3272196412
 51
270.0
  0
ARC
  8
0
 62
7
  6
CONTINUOUS
 10
158.1218608608
 20
114.9901987953
 40
4.5
 50
270.0
 51
299.9997624355
  0
ARC
  8
0
 62
7
  6
CONTINUOUS
 10
157.1218608608
 20
114.9901987953
 40
4.5
 50
240.0002375645
 51
270.0
  0
ARC
  8
0
 62
7
  6
CONTINUOUS
 10
155.1218749569
 20
111.5260890005
 40
0.5000000045
 50
180.0000129345
 51
240.0002705354
  0
ARC
  8
0
 62
7
  6
CONTINUOUS
 10
168.8758749489
 20
111.5199770591
 40
0.5000000044
 50
180.0000133015
 51
240.3272536194
  0
ARC
  8
0
 62
7
  6
CONTINUOUS
 10
168.6258608608
 20
118.5594770875
 40
0.5
 50
345.80004763
 51
359.9999120327
  0
ARC
  8
AXES
 62
7
  6
CONTINUOUS
 10
168.6258608608
 20
118.5594770875
 40
0.5
 50
345.7999999998
 51
350.0609162944
  0
ARC
  8
AXES
 62
7
  6
CONTINUOUS
 10
168.6258608608
 20
118.5594770875
 40
0.5
 50
350.8503381441
 51
354.9518704175
  0
ARC
  8
AXES
 62
7
  6
CONTINUOUS
 10
168.6258608608
 20
118.5594770875
 40
0.5
 50
355.7382317198
 51
360.0
  0
ARC
  8
0
 62
7
  6
CONTINUOUS
 10
160.1218464977
 20
111.5260888876
 40
0.5
 50
299.9997624355
 51
360.0
  0
ARC
  8
0
 62
7
  6
CONTINUOUS
 10
154.8718608608
 20
118.5594770875
 40
0.5
 50
345.80004763
 51
359.9999120327
  0
ARC
  8
AXES
 62
7
  6
CONTINUOUS
 10
154.8718608608
 20
118.5594770875
 40
0.5
 50
345.8
 51
350.0609162946
  0
ARC
  8
AXES
 62
7
  6
CONTINUOUS
 10
154.8718608608
 20
118.5594770875
 40
0.5
 50
350.850338144
 51
354.9518704175
  0
ARC
  8
AXES
 62
7
  6
CONTINUOUS
 10
154.8718608608
 20
118.5594770875
 40
0.5
 50
355.7382317198
 51
360.0
  0
ARC
  8
0
 62
7
  6
CONTINUOUS
 10
160.3718608608
 20
118.5594770875
 40
0.5
 50
180.000043433
 51
194.1999095363
  0
ARC
  8
AXES
 62
7
  6
CONTINUOUS
 10
160.3718608608
 20
118.5594770875
 40
0.5
 50
180.0
 51
184.2639730728
  0
ARC
  8
AXES
 62
7
  6
CONTINUOUS
 10
160.3718608608
 20
118.5594770875
 40
0.5
 50
185.0481113768
 51
189.1490096538
  0
ARC
  8
AXES
 62
7
  6
CONTINUOUS
 10
160.3718608608
 20
118.5594770875
 40
0.5
 50
189.9394663559
 51
194.2
  0
ARC
  8
AXES
 62
7
  6
CONTINUOUS
 10
154.771875224
 20
115.5146009293
 40
0.15
 50
165.8
 51
180.0
  0
ARC
  8
0
 62
7
  6
CONTINUOUS
 10
154.7718757176
 20
115.5146028801
 40
0.15
 50
165.8007686563
 51
180.000745151
  0
ARC
  8
AXES
 62
7
  6
CONTINUOUS
 10
160.4718464977
 20
115.5146009293
 40
0.15
 50
0.0
 51
14.2
  0
ARC
  8
0
 62
7
  6
CONTINUOUS
 10
160.4718464977
 20
115.5146009293
 40
0.15
 50
0.0
 51
14.2
  0
ARC
  8
0
 62
7
  6
CONTINUOUS
 10
168.5258757176
 20
115.5146028801
 40
0.15
 50
165.8007686563
 51
180.000745151
  0
ARC
  8
AXES
 62
7
  6
CONTINUOUS
 10
168.525875224
 20
115.5146009293
 40
0.15
 50
165.8
 51
180.0
  0
ARC
  8
0
 62
7
  6
CONTINUOUS
 10
166.4258608608
 20
124.3901987953
 40
2.7
 50
359.9996283331
 51
90.0003635101
  0
ARC
  8
0
 62
7
  6
CONTINUOUS
 10
162.5718608608
 20
124.3901987953
 40
2.7
 50
89.9996279837
 51
180.0003632179
  0
ARC
  8
0
 62
7
  6
CONTINUOUS
 10
171.8758608608
 20
115.0301987953
 40
4.54
 50
270.0
 51
299.6727803588
  0
ARC
  8
0
 62
7
  6
CONTINUOUS
 10
184.4718608608
 20
114.4901987953
 40
4.0
 50
224.4153085972
 51
315.5846914028
  0
ARC
  8
0
 62
7
  6
CONTINUOUS
 10
181.9718610633
 20
112.0407087608
 40
0.5000000085
 50
179.9999665669
 51
224.4152684776
  0
ARC
  8
0
 62
7
  6
CONTINUOUS
 10
181.7218608608
 20
118.5595338502
 40
0.5
 50
345.8000476299
 51
359.9999120325
  0
ARC
  8
AXES
 62
7
  6
CONTINUOUS
 10
181.7218608608
 20
118.5595338502
 40
0.5
 50
345.8
 51
350.0609163036
  0
ARC
  8
AXES
 62
7
  6
CONTINUOUS
 10
181.7218608608
 20
118.5595338502
 40
0.5
 50
350.8503381196
 51
354.9518703931
  0
ARC
  8
AXES
 62
7
  6
CONTINUOUS
 10
181.7218608608
 20
118.5595338502
 40
0.5
 50
355.7382317298
 51
360.0
  0
ARC
  8
0
 62
7
  6
CONTINUOUS
 10
187.2218608608
 20
118.5595338502
 40
0.5
 50
180.0000879381
 51
194.1999523252
  0
ARC
  8
AXES
 62
7
  6
CONTINUOUS
 10
187.2218608608
 20
118.5595338502
 40
0.5
 50
189.9390834344
 51
194.2
  0
ARC
  8
AXES
 62
7
  6
CONTINUOUS
 10
187.2218608608
 20
118.5595338502
 40
0.5
 50
185.0481302839
 51
189.1496625575
  0
ARC
  8
AXES
 62
7
  6
CONTINUOUS
 10
187.2218608608
 20
118.5595338502
 40
0.5
 50
180.0
 51
184.2617680016
  0
ARC
  8
0
 62
7
  6
CONTINUOUS
 10
173.8758464977
 20
111.519976943
 40
0.5
 50
299.6727803588
 51
360.0
  0
ARC
  8
0
 62
7
  6
CONTINUOUS
 10
186.9718608608
 20
112.0407090525
 40
0.5
 50
315.5846914028
 51
360.0
  0
ARC
  8
0
 62
7
  6
CONTINUOUS
 10
174.1258608608
 20
118.5594770875
 40
0.5
 50
180.000043433
 51
194.1999095363
  0
ARC
  8
AXES
 62
7
  6
CONTINUOUS
 10
174.1258608608
 20
118.5594770875
 40
0.5
 50
180.0
 51
184.2639730728
  0
ARC
  8
AXES
 62
7
  6
CONTINUOUS
 10
174.1258608608
 20
118.5594770875
 40
0.5
 50
185.0481113767
 51
189.1490096539
  0
ARC
  8
AXES
 62
7
  6
CONTINUOUS
 10
174.1258608608
 20
118.5594770875
 40
0.5
 50
189.9394663558
 51
194.2
  0
ARC
  8
AXES
 62
7
  6
CONTINUOUS
 10
187.3218608608
 20
115.5146009293
 40
0.15
 50
0.0
 51
14.2
  0
ARC
  8
0
 62
7
  6
CONTINUOUS
 10
187.3218608608
 20
115.5146009293
 40
0.15
 50
0.0
 51
14.2
  0
ARC
  8
AXES
 62
7
  6
CONTINUOUS
 10
174.2258464977
 20
115.5146009293
 40
0.15
 50
0.0
 51
14.2
  0
ARC
  8
0
 62
7
  6
CONTINUOUS
 10
174.2258464977
 20
115.5146009293
 40
0.15
 50
0.0
 51
14.2
  0
ARC
  8
0
 62
7
  6
CONTINUOUS
 10
181.6218613545
 20
115.5146028802
 40
0.15
 50
165.8007686868
 51
180.0007451806
  0
ARC
  8
AXES
 62
7
  6
CONTINUOUS
 10
181.6218608608
 20
115.5146009293
 40
0.15
 50
165.8
 51
180.0
  0
ARC
  8
0
 62
7
  6
CONTINUOUS
 10
180.2218608608
 20
124.7561987953
 40
2.0
 50
359.9995293645
 51
90.0004656562
  0
ARC
  8
0
 62
7
  6
CONTINUOUS
 10
175.6258608608
 20
124.7561987953
 40
2.0
 50
89.9995347253
 51
180.0004709252
  0
ARC
  8
0
 62
7
  6
CONTINUOUS
 10
185.7218608608
 20
127.2401987953
 40
1.0
 50
0.0
 51
90.0
  0
ARC
  8
0
 62
7
  6
CONTINUOUS
 10
184.4718608608
 20
132.3441987953
 40
4.104
 50
179.9997628904
 51
270.0002393182
  0
ARC
  8
0
 62
7
  6
CONTINUOUS
 10
170.7258608608
 20
131.8901987953
 40
3.85
 50
179.9997490811
 51
270.0002687113
  0
ARC
  8
0
 62
7
  6
CONTINUOUS
 10
172.0258608608
 20
131.8901987953
 40
3.85
 50
269.9997578223
 51
0.0002798283
  0
ARC
  8
0
 62
7
  6
CONTINUOUS
 10
156.7218608608
 20
131.8901987953
 40
3.85
 50
179.9997490811
 51
270.0002687113
  0
ARC
  8
0
 62
7
  6
CONTINUOUS
 10
158.5218608608
 20
131.8901987953
 40
3.85
 50
269.9997578223
 51
0.0002798283
  0
ARC
  8
0
 62
7
  6
CONTINUOUS
 10
162.3678608608
 20
143.8401987953
 40
0.75
 50
90.0
 51
180.0
  0
ARC
  8
0
 62
7
  6
CONTINUOUS
 10
166.8798608608
 20
143.8401987953
 40
0.75
 50
0.0
 51
90.0
  0
ARC
  8
0
 62
7
  6
CONTINUOUS
 10
175.8718608608
 20
143.8401987953
 40
0.75
 50
90.0
 51
180.0
  0
ARC
  8
0
 62
7
  6
CONTINUOUS
 10
180.3718608608
 20
143.8401987953
 40
0.75
 50
0.0
 51
90.0
  0
ARC
  8
0
 62
7
  6
CONTINUOUS
 10
180.8678608608
 20
136.5279205031
 40
0.5
 50
165.8000476345
 51
179.9999120476
  0
ARC
  8
0
 62
7
  6
CONTINUOUS
 10
167.3758608608
 20
136.5279205031
 40
0.5
 50
165.8000232516
 51
180.0000037413
  0
ARC
  8
0
 62
7
  6
CONTINUOUS
 10
175.3758608608
 20
136.5279205031
 40
0.5
 50
0.0000196988
 51
14.2000046195
  0
ARC
  8
0
 62
7
  6
CONTINUOUS
 10
153.3718608608
 20
136.5279205031
 40
0.5
 50
165.8000232515
 51
180.0000037413
  0
ARC
  8
0
 62
7
  6
CONTINUOUS
 10
161.8718608608
 20
136.5279205031
 40
0.5
 50
0.0000196988
 51
14.2000046195
  0
ARC
  8
0
 62
7
  6
CONTINUOUS
 10
180.9718607381
 20
139.588660785
 40
0.15
 50
345.8001911561
 51
0.0001852972
  0
ARC
  8
0
 62
7
  6
CONTINUOUS
 10
167.4798608608
 20
139.5886612701
 40
0.15
 50
345.8
 51
360.0
  0
ARC
  8
0
 62
7
  6
CONTINUOUS
 10
175.2718611612
 20
139.5886600832
 40
0.15
 50
179.9995466552
 51
194.1995323646
  0
ARC
  8
0
 62
7
  6
CONTINUOUS
 10
153.4758608608
 20
139.5886612701
 40
0.15
 50
345.8
 51
360.0
  0
ARC
  8
0
 62
7
  6
CONTINUOUS
 10
161.7678611612
 20
139.5886600832
 40
0.15
 50
179.9995466552
 51
194.1995323646
  0
ARC
  8
0
 62
7
  6
CONTINUOUS
 10
236.7695151542
 20
127.5401987953
 40
43.15
 50
340.5287793655
 51
19.8639975283
  0
ARC
  8
0
 62
7
  6
CONTINUOUS
 10
269.6804891322
 20
114.4901987953
 40
4.0
 50
180.0
 51
270.0
  0
ARC
  8
0
 62
7
  6
CONTINUOUS
 10
273.6804891322
 20
114.4901987953
 40
4.0
 50
270.0
 51
340.5287793655
  0
ARC
  8
AXES
 62
7
  6
CONTINUOUS
 10
271.6804891322
 20
114.8401987953
 40
2.1
 50
180.0
 51
360.0
  0
ARC
  8
AXES
 62
7
  6
CONTINUOUS
 10
271.6804891322
 20
122.8901987953
 40
2.1
 50
0.0
 51
180.0
  0
ARC
  8
0
 62
7
  6
CONTINUOUS
 10
269.6804891322
 20
140.5901987953
 40
4.0
 50
167.4054517089
 51
180.0
  0
CIRCLE
  8
0
 62
7
  6
CONTINUOUS
 10
271.6804891322
 20
140.2401987953
 40
2.75
  0
CIRCLE
  8
0
 62
7
  6
CONTINUOUS
 10
271.6804891322
 20
140.2401987953
 40
2.1
  0
ARC
  8
0
 62
7
  6
CONTINUOUS
 10
279.7693988932
 20
127.6401990056
 40
0.1499999932
 50
0.1331658079
 51
11.366521021
  0
ENDSEC
  0
EOF
