  0
SECTION
  2
HEADER
  9
$EXTMAX
 10
420.0
 20
297.0
 30
0.0
  9
$EXTMIN
 10
0.0
 20
0.0
 30
0.0
  9
$LIMMIN
 10
0.0
 20
0.0
  9
$LIMMAX
 10
420.0
 20
297.0
  9
$VIEWCTR
 10
210.0
 20
148.5
  9
$VIEWSIZE
 40
297.0
  9
$CLAYER
  8
0
  9
$LTSCALE
 40
23.1
  9
$CELTYPE
  6
BYLAYER
  9
$DIMSCALE
 40
1.0
  9
$DIMASZ
 40
3.5
  9
$DIMEXO
 40
2.625
  9
$DIMDLI
 40
15.96
  9
$DIMEXE
 40
7.56
  9
$DIMCEN
 40
3.78
  9
$DIMLFAC
 40
1.0
  9
$DIMBLK
  1
_FILLED
  9
$DIMTXT
 40
3.5
  9
$PDMODE
 70
3
  9
$PDSIZE
 40
0.3125
  9
$TILEMODE
 70
1
  0
ENDSEC
  0
SECTION
  2
TABLES
  0
TABLE
  2
LTYPE
 70
6
  0
LTYPE
  2
BYBLOCK
 70
0
  3

 72
65
 73
0
 40
0.0
  0
LTYPE
  2
BYLAYER
 70
0
  3

 72
65
 73
0
 40
0.0
  0
LTYPE
  2
CONTINUOUS
 70
64
  3
Solid line
 72
65
 73
0
 40
0.0
  0
LTYPE
  2
CENTER
 70
64
  3
____ _ ____ _ ____ _ ____ _ ____ _ ____ _ ____
 72
65
 73
4
 40
0.6
 49
0.375
 49
-0.075
 49
0.075
 49
-0.075
  0
LTYPE
  2
HIDDEN
 70
64
  3
- - - - - - - - - - - - - - - - - - - -
 72
65
 73
2
 40
0.2
 49
0.1
 49
-0.1
  0
LTYPE
  2
PHANTOM
 70
64
  3
_____ _ _ _____ _ _ _____ _ _ _____
 72
65
 73
6
 40
0.8
 49
0.45
 49
-0.05
 49
0.1
 49
-0.05
 49
0.1
 49
-0.05
  0
LTYPE
  2
DOT
 70
64
  3
. . . . . . . . . . . . . . . . . . . .
 72
65
 73
2
 40
0.2
 49
0.1
 49
-0.1
  0
LTYPE
  2
DASHED
 70
64
  3
- - - - - - - - - - - - - - - - - - - -
 72
65
 73
2
 40
0.2
 49
0.1
 49
-0.1
  0
ENDTAB
  0
TABLE
  2
LAYER
 70
36
  0
LAYER
  2
0
 70
0
 62
7
  6
CONTINUOUS
  0
LAYER
  2
DEFAULT_1
 70
0
 62
7
  6
CENTER
  0
LAYER
  2
DEFAULT_2
 70
0
 62
8
  6
HIDDEN
  0
LAYER
  2
DEFAULT_3
 70
0
 62
7
  6
PHANTOM
  0
LAYER
  2
AXES
 70
0
 62
7
  6
CONTINUOUS
  0
LAYER
  2
CSYS
 70
0
 62
7
  6
CONTINUOUS
  0
LAYER
  2
CURVE
 70
0
 62
7
  6
CONTINUOUS
  0
LAYER
  2
CURVES
 70
0
 62
7
  6
CONTINUOUS
  0
LAYER
  2
PLANES
 70
0
 62
7
  6
CONTINUOUS
  0
LAYER
  2
QUILT
 70
0
 62
7
  6
CONTINUOUS
  0
LAYER
  2
SURF-A
 70
0
 62
7
  6
CONTINUOUS
  0
LAYER
  2
SURFACE
 70
0
 62
7
  6
CONTINUOUS
  0
ENDTAB
  0
TABLE
  2
STYLE
 70
1
  0
STYLE
  2
STANDARD
 70
0
 40
0.0
 41
0.8
 50
0.0
 71
0
 42
0.2
  3
txt
  4

  0
STYLE
  2
TEXTSTYLE_1
 70
0
 40
0.0
 41
0.8
 50
0.0
 71
0
 42
0.2
  3
gdt
  4

  0
STYLE
  2
TEXTSTYLE_2
 70
0
 40
0.0
 41
0.6
 50
0.0
 71
0
 42
0.2
  3
txt
  4

  0
STYLE
  2
TEXTSTYLE_3
 70
0
 40
0.0
 41
1.0
 50
0.0
 71
0
 42
0.2
  3
ftb_____.ttf
  4

  0
STYLE
  2
TEXTSTYLE_4
 70
0
 40
0.0
 41
1.0
 50
0.0
 71
0
 42
0.2
  3
fti_____.ttf
  4

  0
STYLE
  2
TEXTSTYLE_5
 70
0
 40
0.0
 41
1.0
 50
0.0
 71
0
 42
0.2
  3
frutiger light.ttf
  4

  0
STYLE
  2
TEXTSTYLE_6
 70
0
 40
0.0
 41
0.7
 50
0.0
 71
0
 42
0.2
  3
txt
  4

  0
STYLE
  2
TEXTSTYLE_7
 70
0
 40
0.0
 41
0.38
 50
0.0
 71
0
 42
0.2
  3
txt
  4

  0
ENDTAB
  0
ENDSEC
  0
SECTION
  2
BLOCKS
  0
BLOCK
  8
0
 62
2
  6
CONTINUOUS
  2
SYMBOL_5_BL1
 70
64
 10
382.7840918555
 20
35.5067593403
  0
TEXT
  8
0
 62
7
  6
CONTINUOUS
 10
373.842376864
 20
30.5995157174
  7
TEXTSTYLE_4
 40
1.0655737705
  1
The brand for plastic modular belts and chains
 41
1.0
 72
0
  0
LINE
  8
0
 62
7
  6
CONTINUOUS
 10
358.7621602445
 20
36.0805298321
 11
358.7621602445
 21
33.9493822911
  0
LINE
  8
0
 62
7
  6
CONTINUOUS
 10
359.0512227376
 20
30.9584509954
 11
359.0512227376
 21
31.0552420547
  0
LINE
  8
0
 62
7
  6
CONTINUOUS
 10
358.7621602445
 20
31.0229783683
 11
358.8199727462
 21
30.8293962497
  0
LINE
  8
0
 62
7
  6
CONTINUOUS
 10
360.1556028675
 20
33.867415078
 11
360.1556028675
 21
36.0805298321
  0
LINE
  8
0
 62
7
  6
CONTINUOUS
 10
361.0746601894
 20
32.0231527829
 11
361.0746601894
 21
30.5067593403
  0
LINE
  8
0
 62
7
  6
CONTINUOUS
 10
361.3637227445
 20
30.5067593403
 11
361.3637227445
 21
31.2488242184
  0
LINE
  8
0
 62
7
  6
CONTINUOUS
 10
361.3637227445
 20
31.3778789641
 11
361.3637227445
 21
32.0231527829
  0
LINE
  8
0
 62
7
  6
CONTINUOUS
 10
358.8199727462
 20
31.216560532
 11
358.7621602445
 21
31.0229783683
  0
LINE
  8
0
 62
7
  6
CONTINUOUS
 10
359.1668477307
 20
30.7971325633
 11
359.0512227376
 21
30.9584509954
  0
LINE
  8
0
 62
7
  6
CONTINUOUS
 10
360.2652852997
 20
31.3133515913
 11
360.3230977445
 21
31.216560532
  0
LINE
  8
0
 62
7
  6
CONTINUOUS
 10
360.6121602997
 20
31.216560532
 11
360.5543476894
 21
31.3456152777
  0
LINE
  8
0
 62
7
  6
CONTINUOUS
 10
362.0408487691
 20
36.0805298321
 11
362.0408487691
 21
34.2772511436
  0
LINE
  8
0
 62
7
  6
CONTINUOUS
 10
362.0408487691
 20
32.9657757338
 11
362.0408487691
 21
32.3100380288
  0
LINE
  8
0
 62
7
  6
CONTINUOUS
 10
362.4043477445
 20
31.1520331591
 11
362.4043477445
 21
30.5067593403
  0
LINE
  8
0
 62
7
  6
CONTINUOUS
 10
362.6934101343
 20
30.5067593403
 11
362.6934101343
 21
31.1520331591
  0
LINE
  8
0
 62
7
  6
CONTINUOUS
 10
359.0512227376
 20
31.0552420547
 11
359.1090352445
 21
31.1842968456
  0
LINE
  8
0
 62
7
  6
CONTINUOUS
 10
358.8199727462
 20
30.8293962497
 11
358.9355977445
 21
30.7003414814
  0
LINE
  8
0
 62
7
  6
CONTINUOUS
 10
362.3465351343
 20
31.2810879048
 11
362.4043477445
 21
31.1520331591
  0
LINE
  8
0
 62
7
  6
CONTINUOUS
 10
363.1559103548
 20
30.7971325633
 11
363.2137226343
 21
30.668077795
  0
LINE
  8
0
 62
7
  6
CONTINUOUS
 10
362.6934101343
 20
31.1520331591
 11
362.6355978548
 21
31.3133515913
  0
LINE
  8
0
 62
7
  6
CONTINUOUS
 10
363.1559103548
 20
31.3456152777
 11
363.1559103548
 21
31.2810879048
  0
LINE
  8
0
 62
7
  6
CONTINUOUS
 10
363.1559103548
 20
30.8939236226
 11
363.1559103548
 21
30.7971325633
  0
LINE
  8
0
 62
7
  6
CONTINUOUS
 10
363.4342913921
 20
32.3100380288
 11
363.4342913921
 21
36.0805298321
  0
LINE
  8
0
 62
7
  6
CONTINUOUS
 10
363.4449727445
 20
30.7648688543
 11
363.4449727445
 21
30.8293962497
  0
LINE
  8
0
 62
7
  6
CONTINUOUS
 10
363.7621602445
 20
36.0805298321
 11
363.7621602445
 21
32.3100380288
  0
LINE
  8
0
 62
7
  6
CONTINUOUS
 10
360.5543476894
 20
30.7003414814
 11
360.6121602997
 21
30.8293962497
  0
LINE
  8
0
 62
7
  6
CONTINUOUS
 10
364.9480979651
 20
30.6035504109
 11
364.890285024
 21
30.7648688543
  0
LINE
  8
0
 62
7
  6
CONTINUOUS
 10
364.6012229651
 20
31.2810879048
 11
364.6012229651
 21
31.1842968456
  0
LINE
  8
0
 62
7
  6
CONTINUOUS
 10
364.6012229651
 20
31.0552420547
 11
364.6012229651
 21
30.8616599362
  0
LINE
  8
0
 62
7
  6
CONTINUOUS
 10
364.890285024
 20
30.7648688543
 11
364.890285024
 21
31.2810879048
  0
LINE
  8
0
 62
7
  6
CONTINUOUS
 10
365.1556028675
 20
32.3100380288
 11
365.1556028675
 21
34.1133167174
  0
LINE
  8
0
 62
7
  6
CONTINUOUS
 10
365.1556028675
 20
35.4247921272
 11
365.1556028675
 21
36.0805298321
  0
LINE
  8
0
 62
7
  6
CONTINUOUS
 10
365.4684104651
 20
32.0231527829
 11
365.4684104651
 21
31.8618343508
  0
LINE
  8
0
 62
7
  6
CONTINUOUS
 10
365.4684104651
 20
31.5391973962
 11
365.4684104651
 21
30.5067593403
  0
LINE
  8
0
 62
7
  6
CONTINUOUS
 10
365.757472524
 20
30.5067593403
 11
365.757472524
 21
31.5391973962
  0
LINE
  8
0
 62
7
  6
CONTINUOUS
 10
365.757472524
 20
31.8618343508
 11
365.757472524
 21
32.0231527829
  0
LINE
  8
0
 62
7
  6
CONTINUOUS
 10
360.3230977445
 20
30.8293962497
 11
360.2652852997
 21
30.7326051679
  0
LINE
  8
0
 62
7
  6
CONTINUOUS
 10
362.6355978548
 20
31.3133515913
 11
362.5777852445
 21
31.3778789641
  0
LINE
  8
0
 62
7
  6
CONTINUOUS
 10
363.5027853548
 20
30.7003414814
 11
363.4449727445
 21
30.7648688543
  0
LINE
  8
0
 62
7
  6
CONTINUOUS
 10
364.6590352445
 20
30.5712867188
 11
364.716847524
 21
30.5067593403
  0
LINE
  8
0
 62
7
  6
CONTINUOUS
 10
364.6012229651
 20
30.668077795
 11
364.6590352445
 21
30.5712867188
  0
LINE
  8
0
 62
7
  6
CONTINUOUS
 10
365.0059102445
 20
30.5067593403
 11
364.9480979651
 21
30.6035504109
  0
LINE
  8
0
 62
7
  6
CONTINUOUS
 10
364.890285024
 20
31.2810879048
 11
364.8324727445
 21
31.3778789641
  0
LINE
  8
0
 62
7
  6
CONTINUOUS
 10
366.2199727445
 20
31.5391973962
 11
366.2199727445
 21
30.5067593403
  0
LINE
  8
0
 62
7
  6
CONTINUOUS
 10
366.5090354651
 20
30.5067593403
 11
366.5090354651
 21
31.2488242184
  0
LINE
  8
0
 62
7
  6
CONTINUOUS
 10
366.5090354651
 20
31.3778789641
 11
366.5090354651
 21
31.5391973962
  0
LINE
  8
0
 62
7
  6
CONTINUOUS
 10
367.0408487691
 20
34.5231527829
 11
367.0408487691
 21
32.3100380288
  0
LINE
  8
0
 62
7
  6
CONTINUOUS
 10
358.9355977445
 20
31.3456152777
 11
358.8199727462
 21
31.216560532
  0
LINE
  8
0
 62
7
  6
CONTINUOUS
 10
359.1090352445
 20
31.1842968456
 11
359.1668477307
 21
31.2488242184
  0
LINE
  8
0
 62
7
  6
CONTINUOUS
 10
358.9355977445
 20
30.7003414814
 11
359.0512227376
 21
30.6358140973
  0
LINE
  8
0
 62
7
  6
CONTINUOUS
 10
359.3402852307
 20
30.7003414814
 11
359.1668477307
 21
30.7971325633
  0
LINE
  8
0
 62
7
  6
CONTINUOUS
 10
364.543410024
 20
31.3456152777
 11
364.6012229651
 21
31.2810879048
  0
LINE
  8
0
 62
7
  6
CONTINUOUS
 10
367.491847524
 20
31.2810879048
 11
367.5496604651
 21
31.1197694727
  0
LINE
  8
0
 62
7
  6
CONTINUOUS
 10
367.838722524
 20
31.1197694727
 11
367.7809102445
 21
31.2810879048
  0
LINE
  8
0
 62
7
  6
CONTINUOUS
 10
367.5496604651
 20
31.1197694727
 11
367.5496604651
 21
30.5067593403
  0
LINE
  8
0
 62
7
  6
CONTINUOUS
 10
367.838722524
 20
30.5067593403
 11
367.838722524
 21
31.1197694727
  0
LINE
  8
0
 62
7
  6
CONTINUOUS
 10
368.3012227445
 20
31.3456152777
 11
368.3012227445
 21
31.2810879048
  0
LINE
  8
0
 62
7
  6
CONTINUOUS
 10
368.4342913921
 20
32.3100380288
 11
368.4342913921
 21
34.4411855698
  0
LINE
  8
0
 62
7
  6
CONTINUOUS
 10
368.7621602445
 20
36.0805298321
 11
368.7621602445
 21
32.3100380288
  0
LINE
  8
0
 62
7
  6
CONTINUOUS
 10
363.4449727445
 20
30.8293962497
 11
363.5027853548
 21
30.926187309
  0
LINE
  8
0
 62
7
  6
CONTINUOUS
 10
359.0512227376
 20
30.6358140973
 11
359.2246602583
 21
30.5712867188
  0
LINE
  8
0
 62
7
  6
CONTINUOUS
 10
360.5543476894
 20
31.3456152777
 11
360.3809101894
 21
31.4424063369
  0
LINE
  8
0
 62
7
  6
CONTINUOUS
 10
363.2137226343
 20
30.668077795
 11
363.3871601343
 21
30.5712867188
  0
LINE
  8
0
 62
7
  6
CONTINUOUS
 10
362.2309102445
 20
31.3456152777
 11
362.3465351343
 21
31.2810879048
  0
LINE
  8
0
 62
7
  6
CONTINUOUS
 10
362.5777852445
 20
31.3778789641
 11
362.4621603548
 21
31.4424063369
  0
LINE
  8
0
 62
7
  6
CONTINUOUS
 10
368.3012227445
 20
30.7648688543
 11
368.4168479651
 21
30.6358140973
  0
LINE
  8
0
 62
7
  6
CONTINUOUS
 10
368.6480977445
 20
30.7003414814
 11
368.5902854651
 21
30.7648688543
  0
LINE
  8
0
 62
7
  6
CONTINUOUS
 10
368.3012227445
 20
31.2810879048
 11
368.4168479651
 21
31.1520331591
  0
LINE
  8
0
 62
7
  6
CONTINUOUS
 10
367.7809102445
 20
31.2810879048
 11
367.7230979651
 21
31.3778789641
  0
LINE
  8
0
 62
7
  6
CONTINUOUS
 10
370.1512223035
 20
30.7003414814
 11
370.1512223035
 21
30.7648688543
  0
LINE
  8
0
 62
7
  6
CONTINUOUS
 10
370.1556028675
 20
32.3100380288
 11
370.1556028675
 21
36.0805298321
  0
LINE
  8
0
 62
7
  6
CONTINUOUS
 10
363.2137226343
 20
31.4101426505
 11
363.1559103548
 21
31.3456152777
  0
LINE
  8
0
 62
7
  6
CONTINUOUS
 10
360.091847717
 20
31.3778789641
 11
360.2652852997
 21
31.3133515913
  0
LINE
  8
0
 62
7
  6
CONTINUOUS
 10
364.8324727445
 20
31.3778789641
 11
364.716847524
 21
31.4424063369
  0
LINE
  8
0
 62
7
  6
CONTINUOUS
 10
368.6480977445
 20
31.216560532
 11
368.5902854651
 21
31.2810879048
  0
LINE
  8
0
 62
7
  6
CONTINUOUS
 10
369.8043479651
 20
30.8293962497
 11
369.8621602445
 21
30.7648688543
  0
LINE
  8
0
 62
7
  6
CONTINUOUS
 10
370.1512223035
 20
30.7648688543
 11
370.0355977445
 21
30.8939236226
  0
LINE
  8
0
 62
7
  6
CONTINUOUS
 10
369.8043479651
 20
31.3456152777
 11
369.8621602445
 21
31.2810879048
  0
LINE
  8
0
 62
7
  6
CONTINUOUS
 10
370.1512223035
 20
31.2810879048
 11
370.0355977445
 21
31.4101426505
  0
LINE
  8
0
 62
7
  6
CONTINUOUS
 10
363.4449727445
 20
31.2810879048
 11
363.5027853548
 21
31.3456152777
  0
LINE
  8
0
 62
7
  6
CONTINUOUS
 10
363.2715352445
 20
31.0229783683
 11
363.1559103548
 21
30.8939236226
  0
LINE
  8
0
 62
7
  6
CONTINUOUS
 10
364.6012229651
 20
30.8616599362
 11
364.543410024
 21
30.7971325633
  0
LINE
  8
0
 62
7
  6
CONTINUOUS
 10
364.543410024
 20
30.6035504109
 11
364.6012229651
 21
30.668077795
  0
LINE
  8
0
 62
7
  6
CONTINUOUS
 10
363.3871601343
 20
30.5712867188
 11
363.5027853548
 21
30.5390230296
  0
LINE
  8
0
 62
7
  6
CONTINUOUS
 10
360.3809101894
 20
31.4424063369
 11
360.1496602445
 21
31.5069337098
  0
LINE
  8
0
 62
7
  6
CONTINUOUS
 10
363.7340351343
 20
30.6358140973
 11
363.5027853548
 21
30.7003414814
  0
LINE
  8
0
 62
7
  6
CONTINUOUS
 10
362.4621603548
 20
31.4424063369
 11
362.2887228548
 21
31.5069337098
  0
LINE
  8
0
 62
7
  6
CONTINUOUS
 10
364.716847524
 20
31.4424063369
 11
364.543410024
 21
31.5069337098
  0
LINE
  8
0
 62
7
  6
CONTINUOUS
 10
367.3762229651
 20
31.3456152777
 11
367.491847524
 21
31.2810879048
  0
LINE
  8
0
 62
7
  6
CONTINUOUS
 10
367.7230979651
 20
31.3778789641
 11
367.6074727445
 21
31.4424063369
  0
LINE
  8
0
 62
7
  6
CONTINUOUS
 10
359.2246602583
 20
30.5712867188
 11
359.3980977583
 21
30.5390230296
  0
LINE
  8
0
 62
7
  6
CONTINUOUS
 10
359.6871602721
 20
30.6358140973
 11
359.3402852307
 21
30.7003414814
  0
LINE
  8
0
 62
7
  6
CONTINUOUS
 10
362.1152853548
 20
31.3778789641
 11
362.2309102445
 21
31.3456152777
  0
LINE
  8
0
 62
7
  6
CONTINUOUS
 10
364.4277854651
 20
31.3778789641
 11
364.543410024
 21
31.3456152777
  0
LINE
  8
0
 62
7
  6
CONTINUOUS
 10
368.7637229651
 20
30.668077795
 11
368.6480977445
 21
30.7003414814
  0
LINE
  8
0
 62
7
  6
CONTINUOUS
 10
367.2605977445
 20
31.3778789641
 11
367.3762229651
 21
31.3456152777
  0
LINE
  8
0
 62
7
  6
CONTINUOUS
 10
368.4168479651
 20
30.6358140973
 11
368.5902854651
 21
30.5712867188
  0
LINE
  8
0
 62
7
  6
CONTINUOUS
 10
367.6074727445
 20
31.4424063369
 11
367.4340352445
 21
31.5069337098
  0
LINE
  8
0
 62
7
  6
CONTINUOUS
 10
368.8215352445
 20
31.1520331591
 11
368.6480977445
 21
31.216560532
  0
LINE
  8
0
 62
7
  6
CONTINUOUS
 10
369.6309104651
 20
30.8939236226
 11
369.8043479651
 21
30.8293962497
  0
LINE
  8
0
 62
7
  6
CONTINUOUS
 10
370.0355977445
 20
31.4101426505
 11
369.8621602445
 21
31.4746700234
  0
LINE
  8
0
 62
7
  6
CONTINUOUS
 10
368.4168479651
 20
31.1520331591
 11
368.6480977445
 21
31.0552420547
  0
LINE
  8
0
 62
7
  6
CONTINUOUS
 10
370.0355977445
 20
30.8939236226
 11
369.8043479651
 21
30.9907146818
  0
LINE
  8
0
 62
7
  6
CONTINUOUS
 10
368.5902854651
 20
31.2810879048
 11
368.6480977445
 21
31.3456152777
  0
LINE
  8
0
 62
7
  6
CONTINUOUS
 10
359.0512227376
 20
31.4101426505
 11
358.9355977445
 21
31.3456152777
  0
LINE
  8
0
 62
7
  6
CONTINUOUS
 10
359.1668477307
 20
31.2488242184
 11
359.3402852307
 21
31.3456152777
  0
LINE
  8
0
 62
7
  6
CONTINUOUS
 10
361.4793477997
 20
31.4424063369
 11
361.3637227445
 21
31.3778789641
  0
LINE
  8
0
 62
7
  6
CONTINUOUS
 10
361.3637227445
 20
31.2488242184
 11
361.4793477997
 21
31.3133515913
  0
LINE
  8
0
 62
7
  6
CONTINUOUS
 10
360.3809101894
 20
30.6035504109
 11
360.5543476894
 21
30.7003414814
  0
LINE
  8
0
 62
7
  6
CONTINUOUS
 10
359.3980977583
 20
30.5390230296
 11
359.744972717
 21
30.5067593403
  0
LINE
  8
0
 62
7
  6
CONTINUOUS
 10
363.5027853548
 20
30.5390230296
 11
363.7340351343
 21
30.5067593403
  0
LINE
  8
0
 62
7
  6
CONTINUOUS
 10
361.8840352445
 20
31.4101426505
 11
362.1152853548
 21
31.3778789641
  0
LINE
  8
0
 62
7
  6
CONTINUOUS
 10
364.1965353548
 20
31.4101426505
 11
364.4277854651
 21
31.3778789641
  0
LINE
  8
0
 62
7
  6
CONTINUOUS
 10
368.6480977445
 20
31.0552420547
 11
369.6309104651
 21
30.8939236226
  0
LINE
  8
0
 62
7
  6
CONTINUOUS
 10
369.8043479651
 20
30.9907146818
 11
368.8215352445
 21
31.1520331591
  0
LINE
  8
0
 62
7
  6
CONTINUOUS
 10
362.2887228548
 20
31.5069337098
 11
362.1152853548
 21
31.5391973962
  0
LINE
  8
0
 62
7
  6
CONTINUOUS
 10
368.5902854651
 20
30.5712867188
 11
368.7637229651
 21
30.5390230296
  0
LINE
  8
0
 62
7
  6
CONTINUOUS
 10
367.4340352445
 20
31.5069337098
 11
367.2605977445
 21
31.5391973962
  0
LINE
  8
0
 62
7
  6
CONTINUOUS
 10
369.6887227445
 20
31.3778789641
 11
369.8043479651
 21
31.3456152777
  0
LINE
  8
0
 62
7
  6
CONTINUOUS
 10
369.8621602445
 20
30.7648688543
 11
369.8043479651
 21
30.7003414814
  0
LINE
  8
0
 62
7
  6
CONTINUOUS
 10
368.4168479651
 20
31.4424063369
 11
368.3012227445
 21
31.3456152777
  0
LINE
  8
0
 62
7
  6
CONTINUOUS
 10
363.3293478548
 20
31.4746700234
 11
363.2137226343
 21
31.4101426505
  0
LINE
  8
0
 62
7
  6
CONTINUOUS
 10
363.3871601343
 20
31.0875057863
 11
363.2715352445
 21
31.0229783683
  0
LINE
  8
0
 62
7
  6
CONTINUOUS
 10
363.5027853548
 20
30.926187309
 11
363.6184102445
 21
30.9907146818
  0
LINE
  8
0
 62
7
  6
CONTINUOUS
 10
361.0746601894
 20
30.5067593403
 11
361.3637227445
 21
30.5067593403
  0
LINE
  8
0
 62
7
  6
CONTINUOUS
 10
362.4043477445
 20
30.5067593403
 11
362.6934101343
 21
30.5067593403
  0
LINE
  8
0
 62
7
  6
CONTINUOUS
 10
363.7340351343
 20
30.5067593403
 11
364.0809101343
 21
30.5067593403
  0
LINE
  8
0
 62
7
  6
CONTINUOUS
 10
364.716847524
 20
30.5067593403
 11
365.0059102445
 21
30.5067593403
  0
LINE
  8
0
 62
7
  6
CONTINUOUS
 10
365.4684104651
 20
30.5067593403
 11
365.757472524
 21
30.5067593403
  0
LINE
  8
0
 62
7
  6
CONTINUOUS
 10
366.2199727445
 20
30.5067593403
 11
366.5090354651
 21
30.5067593403
  0
LINE
  8
0
 62
7
  6
CONTINUOUS
 10
367.5496604651
 20
30.5067593403
 11
367.838722524
 21
30.5067593403
  0
LINE
  8
0
 62
7
  6
CONTINUOUS
 10
369.1105979651
 20
30.5067593403
 11
369.4574729651
 21
30.5067593403
  0
LINE
  8
0
 62
7
  6
CONTINUOUS
 10
369.4574729651
 20
30.6358140973
 11
369.1105979651
 21
30.6358140973
  0
LINE
  8
0
 62
7
  6
CONTINUOUS
 10
364.0809101343
 20
30.6358140973
 11
363.7340351343
 21
30.6358140973
  0
LINE
  8
0
 62
7
  6
CONTINUOUS
 10
368.5902854651
 20
30.7648688543
 11
368.3012227445
 21
30.7648688543
  0
LINE
  8
0
 62
7
  6
CONTINUOUS
 10
360.6121602997
 20
30.8293962497
 11
360.3230977445
 21
30.8293962497
  0
LINE
  8
0
 62
7
  6
CONTINUOUS
 10
359.6871602721
 20
31.4101426505
 11
360.091847717
 21
31.3778789641
  0
LINE
  8
0
 62
7
  6
CONTINUOUS
 10
360.1496602445
 20
31.5069337098
 11
359.744972717
 21
31.5391973962
  0
LINE
  8
0
 62
7
  6
CONTINUOUS
 10
368.7637229651
 20
30.5390230296
 11
369.1105979651
 21
30.5067593403
  0
LINE
  8
0
 62
7
  6
CONTINUOUS
 10
369.1105979651
 20
30.6358140973
 11
368.7637229651
 21
30.668077795
  0
LINE
  8
0
 62
7
  6
CONTINUOUS
 10
364.543410024
 20
31.5069337098
 11
364.1965353548
 21
31.5391973962
  0
LINE
  8
0
 62
7
  6
CONTINUOUS
 10
369.3418477445
 20
31.4101426505
 11
369.6887227445
 21
31.3778789641
  0
LINE
  8
0
 62
7
  6
CONTINUOUS
 10
369.6887227445
 20
31.5069337098
 11
369.3418477445
 21
31.5391973962
  0
LINE
  8
0
 62
7
  6
CONTINUOUS
 10
367.0293479651
 20
31.4101426505
 11
367.2605977445
 21
31.3778789641
  0
LINE
  8
0
 62
7
  6
CONTINUOUS
 10
369.8621602445
 20
31.4746700234
 11
369.6887227445
 21
31.5069337098
  0
LINE
  8
0
 62
7
  6
CONTINUOUS
 10
370.0355977445
 20
30.6035504109
 11
370.1512223035
 21
30.7003414814
  0
LINE
  8
0
 62
7
  6
CONTINUOUS
 10
364.543410024
 20
30.7971325633
 11
364.369972524
 21
30.7003414814
  0
LINE
  8
0
 62
7
  6
CONTINUOUS
 10
366.624660024
 20
31.4424063369
 11
366.5090354651
 21
31.3778789641
  0
LINE
  8
0
 62
7
  6
CONTINUOUS
 10
366.5090354651
 20
31.2488242184
 11
366.624660024
 21
31.3133515913
  0
LINE
  8
0
 62
7
  6
CONTINUOUS
 10
359.2246602583
 20
31.4746700234
 11
359.0512227376
 21
31.4101426505
  0
LINE
  8
0
 62
7
  6
CONTINUOUS
 10
361.6527851343
 20
31.5069337098
 11
361.4793477997
 21
31.4424063369
  0
LINE
  8
0
 62
7
  6
CONTINUOUS
 10
361.4793477997
 20
31.3133515913
 11
361.6527851343
 21
31.3778789641
  0
LINE
  8
0
 62
7
  6
CONTINUOUS
 10
360.2652852997
 20
30.7326051679
 11
360.091847717
 21
30.668077795
  0
LINE
  8
0
 62
7
  6
CONTINUOUS
 10
369.6887227445
 20
30.668077795
 11
369.4574729651
 21
30.6358140973
  0
LINE
  8
0
 62
7
  6
CONTINUOUS
 10
364.0809101343
 20
30.5067593403
 11
364.369972524
 21
30.5390230296
  0
LINE
  8
0
 62
7
  6
CONTINUOUS
 10
369.4574729651
 20
30.5067593403
 11
369.8043479651
 21
30.5390230296
  0
LINE
  8
0
 62
7
  6
CONTINUOUS
 10
359.744972717
 20
30.5067593403
 11
360.1496602445
 21
30.5390230296
  0
LINE
  8
0
 62
7
  6
CONTINUOUS
 10
360.091847717
 20
30.668077795
 11
359.6871602721
 21
30.6358140973
  0
LINE
  8
0
 62
7
  6
CONTINUOUS
 10
363.9652852445
 20
31.0552420547
 11
364.6012229651
 21
31.0552420547
  0
LINE
  8
0
 62
7
  6
CONTINUOUS
 10
364.6012229651
 20
31.1842968456
 11
363.9652852445
 21
31.1842968456
  0
LINE
  8
0
 62
7
  6
CONTINUOUS
 10
360.3230977445
 20
31.216560532
 11
360.6121602997
 21
31.216560532
  0
LINE
  8
0
 62
7
  6
CONTINUOUS
 10
363.1559103548
 20
31.2810879048
 11
363.4449727445
 21
31.2810879048
  0
LINE
  8
0
 62
7
  6
CONTINUOUS
 10
369.8621602445
 20
31.2810879048
 11
370.1512223035
 21
31.2810879048
  0
LINE
  8
0
 62
7
  6
CONTINUOUS
 10
363.8496603548
 20
31.4101426505
 11
364.1965353548
 21
31.4101426505
  0
LINE
  8
0
 62
7
  6
CONTINUOUS
 10
368.9949727445
 20
31.4101426505
 11
369.3418477445
 21
31.4101426505
  0
LINE
  8
0
 62
7
  6
CONTINUOUS
 10
369.3418477445
 20
31.5391973962
 11
368.9949727445
 21
31.5391973962
  0
LINE
  8
0
 62
7
  6
CONTINUOUS
 10
367.2605977445
 20
31.5391973962
 11
367.0293479651
 21
31.5391973962
  0
LINE
  8
0
 62
7
  6
CONTINUOUS
 10
366.5090354651
 20
31.5391973962
 11
366.2199727445
 21
31.5391973962
  0
LINE
  8
0
 62
7
  6
CONTINUOUS
 10
365.757472524
 20
31.5391973962
 11
365.4684104651
 21
31.5391973962
  0
LINE
  8
0
 62
7
  6
CONTINUOUS
 10
364.1965353548
 20
31.5391973962
 11
363.8496603548
 21
31.5391973962
  0
LINE
  8
0
 62
7
  6
CONTINUOUS
 10
362.1152853548
 20
31.5391973962
 11
361.8840352445
 21
31.5391973962
  0
LINE
  8
0
 62
7
  6
CONTINUOUS
 10
365.4684104651
 20
31.8618343508
 11
365.757472524
 21
31.8618343508
  0
LINE
  8
0
 62
7
  6
CONTINUOUS
 10
365.757472524
 20
32.0231527829
 11
365.4684104651
 21
32.0231527829
  0
LINE
  8
0
 62
7
  6
CONTINUOUS
 10
361.3637227445
 20
32.0231527829
 11
361.0746601894
 21
32.0231527829
  0
LINE
  8
0
 62
7
  6
CONTINUOUS
 10
360.4015045068
 20
32.3100380288
 11
360.8140758554
 21
32.3100380288
  0
LINE
  8
0
 62
7
  6
CONTINUOUS
 10
362.0408487691
 20
32.3100380288
 11
363.4342913921
 21
32.3100380288
  0
LINE
  8
0
 62
7
  6
CONTINUOUS
 10
363.7621602445
 20
32.3100380288
 11
365.1556028675
 21
32.3100380288
  0
LINE
  8
0
 62
7
  6
CONTINUOUS
 10
367.0408487691
 20
32.3100380288
 11
368.4342913921
 21
32.3100380288
  0
LINE
  8
0
 62
7
  6
CONTINUOUS
 10
368.7621602445
 20
32.3100380288
 11
370.1556028675
 21
32.3100380288
  0
LINE
  8
0
 62
7
  6
CONTINUOUS
 10
366.798097524
 20
31.5069337098
 11
366.624660024
 21
31.4424063369
  0
LINE
  8
0
 62
7
  6
CONTINUOUS
 10
364.369972524
 20
30.5390230296
 11
364.543410024
 21
30.6035504109
  0
LINE
  8
0
 62
7
  6
CONTINUOUS
 10
369.8043479651
 20
30.5390230296
 11
370.0355977445
 21
30.6035504109
  0
LINE
  8
0
 62
7
  6
CONTINUOUS
 10
369.8043479651
 20
30.7003414814
 11
369.6887227445
 21
30.668077795
  0
LINE
  8
0
 62
7
  6
CONTINUOUS
 10
368.7637229651
 20
31.3778789641
 11
368.9949727445
 21
31.4101426505
  0
LINE
  8
0
 62
7
  6
CONTINUOUS
 10
366.798097524
 20
31.3778789641
 11
367.0293479651
 21
31.4101426505
  0
LINE
  8
0
 62
7
  6
CONTINUOUS
 10
363.7340351343
 20
31.0229783683
 11
363.9652852445
 21
31.0552420547
  0
LINE
  8
0
 62
7
  6
CONTINUOUS
 10
367.0293479651
 20
31.5391973962
 11
366.798097524
 21
31.5069337098
  0
LINE
  8
0
 62
7
  6
CONTINUOUS
 10
363.6184102445
 20
31.3778789641
 11
363.8496603548
 21
31.4101426505
  0
LINE
  8
0
 62
7
  6
CONTINUOUS
 10
368.9949727445
 20
31.5391973962
 11
368.6480977445
 21
31.5069337098
  0
LINE
  8
0
 62
7
  6
CONTINUOUS
 10
363.9652852445
 20
31.1842968456
 11
363.6184102445
 21
31.1520331591
  0
LINE
  8
0
 62
7
  6
CONTINUOUS
 10
359.744972717
 20
31.5391973962
 11
359.3980977583
 21
31.5069337098
  0
LINE
  8
0
 62
7
  6
CONTINUOUS
 10
363.8496603548
 20
31.5391973962
 11
363.4449727445
 21
31.5069337098
  0
LINE
  8
0
 62
7
  6
CONTINUOUS
 10
361.221176638
 20
33.4575790124
 11
360.565438933
 21
33.4575790124
  0
LINE
  8
0
 62
7
  6
CONTINUOUS
 10
366.624660024
 20
31.3133515913
 11
366.798097524
 21
31.3778789641
  0
LINE
  8
0
 62
7
  6
CONTINUOUS
 10
368.6480977445
 20
31.3456152777
 11
368.7637229651
 21
31.3778789641
  0
LINE
  8
0
 62
7
  6
CONTINUOUS
 10
368.6480977445
 20
31.5069337098
 11
368.4168479651
 21
31.4424063369
  0
LINE
  8
0
 62
7
  6
CONTINUOUS
 10
364.369972524
 20
30.7003414814
 11
364.0809101343
 21
30.6358140973
  0
LINE
  8
0
 62
7
  6
CONTINUOUS
 10
361.6527851343
 20
31.3778789641
 11
361.8840352445
 21
31.4101426505
  0
LINE
  8
0
 62
7
  6
CONTINUOUS
 10
361.8840352445
 20
31.5391973962
 11
361.6527851343
 21
31.5069337098
  0
LINE
  8
0
 62
7
  6
CONTINUOUS
 10
359.4559102445
 20
31.3778789641
 11
359.6871602721
 21
31.4101426505
  0
LINE
  8
0
 62
7
  6
CONTINUOUS
 10
365.9752749986
 20
34.9329888485
 11
366.6310127035
 21
34.9329888485
  0
LINE
  8
0
 62
7
  6
CONTINUOUS
 10
363.6184102445
 20
30.9907146818
 11
363.7340351343
 21
31.0229783683
  0
LINE
  8
0
 62
7
  6
CONTINUOUS
 10
363.6184102445
 20
31.1520331591
 11
363.3871601343
 21
31.0875057863
  0
LINE
  8
0
 62
7
  6
CONTINUOUS
 10
363.5027853548
 20
31.3456152777
 11
363.6184102445
 21
31.3778789641
  0
LINE
  8
0
 62
7
  6
CONTINUOUS
 10
360.1496602445
 20
30.5390230296
 11
360.3809101894
 21
30.6035504109
  0
LINE
  8
0
 62
7
  6
CONTINUOUS
 10
363.4449727445
 20
31.5069337098
 11
363.3293478548
 21
31.4746700234
  0
LINE
  8
0
 62
7
  6
CONTINUOUS
 10
359.3980977583
 20
31.5069337098
 11
359.2246602583
 21
31.4746700234
  0
LINE
  8
0
 62
7
  6
CONTINUOUS
 10
370.1556028675
 20
36.0805298321
 11
368.7621602445
 21
36.0805298321
  0
LINE
  8
0
 62
7
  6
CONTINUOUS
 10
366.7949471298
 20
36.0805298321
 11
366.3823757812
 21
36.0805298321
  0
LINE
  8
0
 62
7
  6
CONTINUOUS
 10
365.1556028675
 20
36.0805298321
 11
363.7621602445
 21
36.0805298321
  0
LINE
  8
0
 62
7
  6
CONTINUOUS
 10
363.4342913921
 20
36.0805298321
 11
362.0408487691
 21
36.0805298321
  0
LINE
  8
0
 62
7
  6
CONTINUOUS
 10
360.1556028675
 20
36.0805298321
 11
358.7621602445
 21
36.0805298321
  0
LINE
  8
0
 62
7
  6
CONTINUOUS
 10
359.3402852307
 20
31.3456152777
 11
359.4559102445
 21
31.3778789641
  0
CIRCLE
  8
0
 62
7
  6
CONTINUOUS
 10
369.458881556
 20
38.4165954059
 40
2.0901639344
  0
ARC
  8
0
 62
7
  6
CONTINUOUS
 10
360.4015045068
 20
33.9493822911
 40
1.6393442623
 50
180.0
 51
270.0
  0
ARC
  8
0
 62
7
  6
CONTINUOUS
 10
366.7949471298
 20
34.4411855698
 40
1.6393442623
 50
0.0
 51
90.0
  0
ARC
  8
0
 62
7
  6
CONTINUOUS
 10
360.8140758554
 20
33.7854478649
 40
1.4754098361
 50
270.0
 51
326.2510114041
  0
ARC
  8
0
 62
7
  6
CONTINUOUS
 10
366.3823757812
 20
34.6051199961
 40
1.4754098361
 50
90.0
 51
146.2510114041
  0
ARC
  8
0
 62
7
  6
CONTINUOUS
 10
361.221176638
 20
34.2772511436
 40
0.8196721311
 50
270.0
 51
360.0
  0
ARC
  8
0
 62
7
  6
CONTINUOUS
 10
365.9752749986
 20
34.1133167174
 40
0.8196721311
 50
90.0
 51
180.0
  0
ARC
  8
0
 62
7
  6
CONTINUOUS
 10
360.565438933
 20
33.867415078
 40
0.4098360656
 50
180.0
 51
270.0
  0
ARC
  8
0
 62
7
  6
CONTINUOUS
 10
366.6310127035
 20
34.5231527829
 40
0.4098360656
 50
0.0
 51
90.0
  0
SOLID
  8
0
 62
7
  6
CONTINUOUS
 10
365.4684104651
 20
31.8618347111
 11
365.4684104651
 21
32.0231531947
 12
365.757472524
 22
31.8618347111
 13
365.757472524
 23
32.0231531947
  0
SOLID
  8
0
 62
7
  6
CONTINUOUS
 10
359.744972717
 20
31.5391977439
 11
360.1496602445
 21
31.5069333244
 12
359.3980977583
 22
31.5069333244
 13
359.3980977583
 23
31.5069333244
  0
SOLID
  8
0
 62
7
  6
CONTINUOUS
 10
359.2246602583
 20
31.4746706537
 11
359.3980977583
 21
31.5069333244
 12
360.1496602445
 22
31.5069333244
 13
360.1496602445
 23
31.5069333244
  0
SOLID
  8
0
 62
7
  6
CONTINUOUS
 10
360.1496602445
 20
31.5069333244
 11
360.3809101894
 21
31.4424063504
 12
359.2246602583
 22
31.4746706537
 13
359.2246602583
 23
31.4746706537
  0
SOLID
  8
0
 62
7
  6
CONTINUOUS
 10
359.0512227376
 20
31.4101419116
 11
359.2246602583
 21
31.4746706537
 12
360.3809101894
 22
31.4424063504
 13
360.3809101894
 23
31.4424063504
  0
SOLID
  8
0
 62
7
  6
CONTINUOUS
 10
359.0512227376
 20
31.4101419116
 11
360.3809101894
 21
31.4424063504
 12
359.6871602721
 22
31.4101419116
 13
359.6871602721
 23
31.4101419116
  0
SOLID
  8
0
 62
7
  6
CONTINUOUS
 10
359.6871602721
 20
31.4101419116
 11
360.3809101894
 21
31.4424063504
 12
360.091847717
 22
31.3778792603
 13
360.091847717
 23
31.3778792603
  0
SOLID
  8
0
 62
7
  6
CONTINUOUS
 10
360.3809101894
 20
31.4424063504
 11
360.5543476894
 21
31.345614957
 12
360.091847717
 22
31.3778792603
 13
360.091847717
 23
31.3778792603
  0
SOLID
  8
0
 62
7
  6
CONTINUOUS
 10
360.2652852997
 20
31.3133521701
 11
360.091847717
 21
31.3778792603
 12
360.5543476894
 22
31.345614957
 13
360.5543476894
 23
31.345614957
  0
SOLID
  8
0
 62
7
  6
CONTINUOUS
 10
360.2652852997
 20
31.3133521701
 11
360.5543476894
 21
31.345614957
 12
360.3230977445
 22
31.2165606992
 13
360.3230977445
 23
31.2165606992
  0
SOLID
  8
0
 62
7
  6
CONTINUOUS
 10
360.5543476894
 20
31.345614957
 11
360.6121602997
 21
31.2165606992
 12
360.3230977445
 22
31.2165606992
 13
360.3230977445
 23
31.2165606992
  0
SOLID
  8
0
 62
7
  6
CONTINUOUS
 10
361.6527851343
 20
31.5069329918
 11
361.8840352445
 21
31.5391972951
 12
362.1152853548
 22
31.5391972951
 13
362.1152853548
 23
31.5391972951
  0
SOLID
  8
0
 62
7
  6
CONTINUOUS
 10
362.1152853548
 20
31.5391972951
 11
362.2887228548
 21
31.5069329918
 12
361.6527851343
 22
31.5069329918
 13
361.6527851343
 23
31.5069329918
  0
SOLID
  8
0
 62
7
  6
CONTINUOUS
 10
361.4793477997
 20
31.4424059016
 11
361.6527851343
 21
31.5069329918
 12
362.2887228548
 22
31.5069329918
 13
362.2887228548
 23
31.5069329918
  0
SOLID
  8
0
 62
7
  6
CONTINUOUS
 10
362.2887228548
 20
31.5069329918
 11
362.4621603548
 21
31.4424059016
 12
361.4793477997
 22
31.4424059016
 13
361.4793477997
 23
31.4424059016
  0
SOLID
  8
0
 62
7
  6
CONTINUOUS
 10
362.4621603548
 20
31.4424059016
 11
361.8840352445
 21
31.4101420472
 12
361.4793477997
 22
31.4424059016
 13
361.4793477997
 23
31.4424059016
  0
SOLID
  8
0
 62
7
  6
CONTINUOUS
 10
361.3637227445
 20
31.3778788115
 11
361.4793477997
 21
31.4424059016
 12
361.8840352445
 22
31.4101420472
 13
361.8840352445
 23
31.4101420472
  0
SOLID
  8
0
 62
7
  6
CONTINUOUS
 10
361.8840352445
 20
31.4101420472
 11
361.6527851343
 21
31.3778788115
 12
361.3637227445
 22
31.3778788115
 13
361.3637227445
 23
31.3778788115
  0
SOLID
  8
0
 62
7
  6
CONTINUOUS
 10
361.8840352445
 20
31.4101420472
 11
362.4621603548
 21
31.4424059016
 12
362.1152853548
 22
31.3778788115
 13
362.1152853548
 23
31.3778788115
  0
SOLID
  8
0
 62
7
  6
CONTINUOUS
 10
362.4621603548
 20
31.4424059016
 11
362.5777852445
 21
31.3778788115
 12
362.1152853548
 22
31.3778788115
 13
362.1152853548
 23
31.3778788115
  0
SOLID
  8
0
 62
7
  6
CONTINUOUS
 10
362.2309102445
 20
31.345614957
 11
362.1152853548
 21
31.3778788115
 12
362.5777852445
 22
31.3778788115
 13
362.5777852445
 23
31.3778788115
  0
SOLID
  8
0
 62
7
  6
CONTINUOUS
 10
362.5777852445
 20
31.3778788115
 11
362.6355978548
 21
31.3133517213
 12
362.2309102445
 22
31.345614957
 13
362.2309102445
 23
31.345614957
  0
SOLID
  8
0
 62
7
  6
CONTINUOUS
 10
362.3465351343
 20
31.2810878668
 11
362.2309102445
 21
31.345614957
 12
362.6355978548
 22
31.3133517213
 13
362.6355978548
 23
31.3133517213
  0
SOLID
  8
0
 62
7
  6
CONTINUOUS
 10
362.3465351343
 20
31.2810878668
 11
362.6355978548
 21
31.3133517213
 12
362.4043477445
 22
31.1520332377
 13
362.4043477445
 23
31.1520332377
  0
SOLID
  8
0
 62
7
  6
CONTINUOUS
 10
362.6355978548
 20
31.3133517213
 11
362.6934101343
 21
31.1520332377
 12
362.4043477445
 22
31.1520332377
 13
362.4043477445
 23
31.1520332377
  0
SOLID
  8
0
 62
7
  6
CONTINUOUS
 10
361.6527851343
 20
31.3778788115
 11
361.4793477997
 21
31.3133517213
 12
361.3637227445
 22
31.3778788115
 13
361.3637227445
 23
31.3778788115
  0
SOLID
  8
0
 62
7
  6
CONTINUOUS
 10
361.4793477997
 20
31.3133517213
 11
361.3637227445
 21
31.2488235635
 12
361.3637227445
 22
31.3778788115
 13
361.3637227445
 23
31.3778788115
  0
SOLID
  8
0
 62
7
  6
CONTINUOUS
 10
361.3637227445
 20
31.2488235635
 11
361.0746601894
 21
30.5067593033
 12
361.3637227445
 22
31.3778788115
 13
361.3637227445
 23
31.3778788115
  0
SOLID
  8
0
 62
7
  6
CONTINUOUS
 10
361.3637227445
 20
31.3778788115
 11
361.0746601894
 21
30.5067593033
 12
361.3637227445
 22
32.0231527459
 13
361.3637227445
 23
32.0231527459
  0
SOLID
  8
0
 62
7
  6
CONTINUOUS
 10
361.0746601894
 20
30.5067593033
 11
361.0746601894
 21
32.0231527459
 12
361.3637227445
 22
32.0231527459
 13
361.3637227445
 23
32.0231527459
  0
SOLID
  8
0
 62
7
  6
CONTINUOUS
 10
361.3637227445
 20
31.2488235635
 11
361.3637227445
 21
30.5067593033
 12
361.0746601894
 22
30.5067593033
 13
361.0746601894
 23
30.5067593033
  0
SOLID
  8
0
 62
7
  6
CONTINUOUS
 10
362.4043477445
 20
30.5067593033
 11
362.4043477445
 21
31.1520332377
 12
362.6934101343
 22
31.1520332377
 13
362.6934101343
 23
31.1520332377
  0
SOLID
  8
0
 62
7
  6
CONTINUOUS
 10
362.6934101343
 20
31.1520332377
 11
362.6934101343
 21
30.5067593033
 12
362.4043477445
 22
30.5067593033
 13
362.4043477445
 23
30.5067593033
  0
SOLID
  8
0
 62
7
  6
CONTINUOUS
 10
363.4449727445
 20
31.506933758
 11
363.8496603548
 21
31.5391977507
 12
364.1965353548
 22
31.5391977507
 13
364.1965353548
 23
31.5391977507
  0
SOLID
  8
0
 62
7
  6
CONTINUOUS
 10
364.1965353548
 20
31.5391977507
 11
364.543410024
 21
31.506933758
 12
363.4449727445
 22
31.506933758
 13
363.4449727445
 23
31.506933758
  0
SOLID
  8
0
 62
7
  6
CONTINUOUS
 10
363.3293478548
 20
31.4746706537
 11
363.4449727445
 21
31.506933758
 12
364.543410024
 22
31.506933758
 13
364.543410024
 23
31.506933758
  0
SOLID
  8
0
 62
7
  6
CONTINUOUS
 10
364.543410024
 20
31.506933758
 11
364.716847524
 21
31.4424063504
 12
363.3293478548
 22
31.4746706537
 13
363.3293478548
 23
31.4746706537
  0
SOLID
  8
0
 62
7
  6
CONTINUOUS
 10
363.2137226343
 20
31.4101417797
 11
363.3293478548
 21
31.4746706537
 12
364.716847524
 22
31.4424063504
 13
364.716847524
 23
31.4424063504
  0
SOLID
  8
0
 62
7
  6
CONTINUOUS
 10
363.2137226343
 20
31.4101417797
 11
364.716847524
 21
31.4424063504
 12
363.8496603548
 22
31.4101417797
 13
363.8496603548
 23
31.4101417797
  0
SOLID
  8
0
 62
7
  6
CONTINUOUS
 10
363.8496603548
 20
31.4101417797
 11
364.716847524
 21
31.4424063504
 12
364.1965353548
 22
31.4101417797
 13
364.1965353548
 23
31.4101417797
  0
SOLID
  8
0
 62
7
  6
CONTINUOUS
 10
364.1965353548
 20
31.4101417797
 11
364.716847524
 21
31.4424063504
 12
364.4277854651
 22
31.3778793357
 13
364.4277854651
 23
31.3778793357
  0
SOLID
  8
0
 62
7
  6
CONTINUOUS
 10
364.716847524
 20
31.4424063504
 11
364.8324727445
 21
31.3778793357
 12
364.4277854651
 22
31.3778793357
 13
364.4277854651
 23
31.3778793357
  0
SOLID
  8
0
 62
7
  6
CONTINUOUS
 10
363.1559103548
 20
31.3456153429
 11
363.2137226343
 21
31.4101417797
 12
363.8496603548
 22
31.4101417797
 13
363.8496603548
 23
31.4101417797
  0
SOLID
  8
0
 62
7
  6
CONTINUOUS
 10
364.543410024
 20
31.3456153429
 11
364.4277854651
 21
31.3778793357
 12
364.8324727445
 22
31.3778793357
 13
364.8324727445
 23
31.3778793357
  0
SOLID
  8
0
 62
7
  6
CONTINUOUS
 10
364.543410024
 20
31.3456153429
 11
364.8324727445
 21
31.3778793357
 12
364.6012229651
 22
31.2810881318
 13
364.6012229651
 23
31.2810881318
  0
SOLID
  8
0
 62
7
  6
CONTINUOUS
 10
364.8324727445
 20
31.3778793357
 11
364.890285024
 21
31.2810881318
 12
364.6012229651
 22
31.2810881318
 13
364.6012229651
 23
31.2810881318
  0
SOLID
  8
0
 62
7
  6
CONTINUOUS
 10
364.6012229651
 20
31.1842964734
 11
364.6012229651
 21
31.2810881318
 12
364.890285024
 22
31.2810881318
 13
364.890285024
 23
31.2810881318
  0
SOLID
  8
0
 62
7
  6
CONTINUOUS
 10
364.6012229651
 20
31.1842964734
 11
364.890285024
 21
31.2810881318
 12
364.6012229651
 22
31.0552422931
 13
364.6012229651
 23
31.0552422931
  0
SOLID
  8
0
 62
7
  6
CONTINUOUS
 10
364.6012229651
 20
31.0552422931
 11
364.890285024
 21
31.2810881318
 12
364.6012229651
 22
30.8616599362
 13
364.6012229651
 23
30.8616599362
  0
SOLID
  8
0
 62
7
  6
CONTINUOUS
 10
364.890285024
 20
31.2810881318
 11
364.890285024
 21
30.7648681127
 12
364.6012229651
 22
30.8616599362
 13
364.6012229651
 23
30.8616599362
  0
SOLID
  8
0
 62
7
  6
CONTINUOUS
 10
366.798097524
 20
31.5069339419
 11
367.0293479651
 21
31.5391976292
 12
367.2605977445
 22
31.5391976292
 13
367.2605977445
 23
31.5391976292
  0
SOLID
  8
0
 62
7
  6
CONTINUOUS
 10
367.2605977445
 20
31.5391976292
 11
367.4340352445
 21
31.5069339419
 12
366.798097524
 22
31.5069339419
 13
366.798097524
 23
31.5069339419
  0
SOLID
  8
0
 62
7
  6
CONTINUOUS
 10
366.624660024
 20
31.4424065674
 11
366.798097524
 21
31.5069339419
 12
367.4340352445
 22
31.5069339419
 13
367.4340352445
 23
31.5069339419
  0
SOLID
  8
0
 62
7
  6
CONTINUOUS
 10
367.4340352445
 20
31.5069339419
 11
367.6074727445
 21
31.4424065674
 12
366.624660024
 22
31.4424065674
 13
366.624660024
 23
31.4424065674
  0
SOLID
  8
0
 62
7
  6
CONTINUOUS
 10
367.6074727445
 20
31.4424065674
 11
367.0293479651
 21
31.4101420472
 12
366.624660024
 22
31.4424065674
 13
366.624660024
 23
31.4424065674
  0
SOLID
  8
0
 62
7
  6
CONTINUOUS
 10
366.5090354651
 20
31.377879193
 11
366.624660024
 21
31.4424065674
 12
367.0293479651
 22
31.4101420472
 13
367.0293479651
 23
31.4101420472
  0
SOLID
  8
0
 62
7
  6
CONTINUOUS
 10
367.0293479651
 20
31.4101420472
 11
366.798097524
 21
31.377879193
 12
366.5090354651
 22
31.377879193
 13
366.5090354651
 23
31.377879193
  0
SOLID
  8
0
 62
7
  6
CONTINUOUS
 10
367.0293479651
 20
31.4101420472
 11
367.6074727445
 21
31.4424065674
 12
367.2605977445
 22
31.377879193
 13
367.2605977445
 23
31.377879193
  0
SOLID
  8
0
 62
7
  6
CONTINUOUS
 10
367.6074727445
 20
31.4424065674
 11
367.7230979651
 21
31.377879193
 12
367.2605977445
 22
31.377879193
 13
367.2605977445
 23
31.377879193
  0
SOLID
  8
0
 62
7
  6
CONTINUOUS
 10
367.3762229651
 20
31.345614957
 11
367.2605977445
 21
31.377879193
 12
367.7230979651
 22
31.377879193
 13
367.7230979651
 23
31.377879193
  0
SOLID
  8
0
 62
7
  6
CONTINUOUS
 10
367.3762229651
 20
31.345614957
 11
367.7230979651
 21
31.377879193
 12
367.491847524
 22
31.2810881312
 13
367.491847524
 23
31.2810881312
  0
SOLID
  8
0
 62
7
  6
CONTINUOUS
 10
367.7230979651
 20
31.377879193
 11
367.7809102445
 21
31.2810881312
 12
367.491847524
 22
31.2810881312
 13
367.491847524
 23
31.2810881312
  0
SOLID
  8
0
 62
7
  6
CONTINUOUS
 10
367.5496604651
 20
31.119769695
 11
367.491847524
 21
31.2810881312
 12
367.7809102445
 22
31.2810881312
 13
367.7809102445
 23
31.2810881312
  0
SOLID
  8
0
 62
7
  6
CONTINUOUS
 10
367.7809102445
 20
31.2810881312
 11
367.838722524
 21
31.119769695
 12
367.5496604651
 22
31.119769695
 13
367.5496604651
 23
31.119769695
  0
SOLID
  8
0
 62
7
  6
CONTINUOUS
 10
366.798097524
 20
31.377879193
 11
366.624660024
 21
31.3133521701
 12
366.5090354651
 22
31.377879193
 13
366.5090354651
 23
31.377879193
  0
SOLID
  8
0
 62
7
  6
CONTINUOUS
 10
366.624660024
 20
31.3133521701
 11
366.5090354651
 21
31.2488235635
 12
366.5090354651
 22
31.377879193
 13
366.5090354651
 23
31.377879193
  0
SOLID
  8
0
 62
7
  6
CONTINUOUS
 10
366.5090354651
 20
31.2488235635
 11
366.2199727445
 21
30.5067596374
 12
366.5090354651
 22
31.377879193
 13
366.5090354651
 23
31.377879193
  0
SOLID
  8
0
 62
7
  6
CONTINUOUS
 10
366.5090354651
 20
31.377879193
 11
366.2199727445
 21
30.5067596374
 12
366.5090354651
 22
31.5391976292
 13
366.5090354651
 23
31.5391976292
  0
SOLID
  8
0
 62
7
  6
CONTINUOUS
 10
366.2199727445
 20
30.5067596374
 11
366.2199727445
 21
31.5391976292
 12
366.5090354651
 22
31.5391976292
 13
366.5090354651
 23
31.5391976292
  0
SOLID
  8
0
 62
7
  6
CONTINUOUS
 10
366.5090354651
 20
31.2488235635
 11
366.5090354651
 21
30.5067596374
 12
366.2199727445
 22
30.5067596374
 13
366.2199727445
 23
30.5067596374
  0
SOLID
  8
0
 62
7
  6
CONTINUOUS
 10
367.5496604651
 20
30.5067596374
 11
367.5496604651
 21
31.119769695
 12
367.838722524
 22
31.119769695
 13
367.838722524
 23
31.119769695
  0
SOLID
  8
0
 62
7
  6
CONTINUOUS
 10
367.838722524
 20
31.119769695
 11
367.838722524
 21
30.5067596374
 12
367.5496604651
 22
30.5067596374
 13
367.5496604651
 23
30.5067596374
  0
SOLID
  8
0
 62
7
  6
CONTINUOUS
 10
368.6480977445
 20
31.5069334157
 11
368.9949727445
 21
31.539197762
 12
369.3418477445
 22
31.539197762
 13
369.3418477445
 23
31.539197762
  0
SOLID
  8
0
 62
7
  6
CONTINUOUS
 10
369.3418477445
 20
31.539197762
 11
369.6887227445
 21
31.5069334157
 12
368.6480977445
 22
31.5069334157
 13
368.6480977445
 23
31.5069334157
  0
SOLID
  8
0
 62
7
  6
CONTINUOUS
 10
368.4168479651
 20
31.4424063504
 11
368.6480977445
 21
31.5069334157
 12
369.6887227445
 22
31.5069334157
 13
369.6887227445
 23
31.5069334157
  0
SOLID
  8
0
 62
7
  6
CONTINUOUS
 10
368.4168479651
 20
31.4424063504
 11
369.6887227445
 21
31.5069334406
 12
369.8621602445
 22
31.4746706537
 13
369.8621602445
 23
31.4746706537
  0
SOLID
  8
0
 62
7
  6
CONTINUOUS
 10
368.4168479651
 20
31.4424063504
 11
369.8621602445
 21
31.4746706537
 12
368.9949727445
 22
31.4101421267
 13
368.9949727445
 23
31.4101421267
  0
SOLID
  8
0
 62
7
  6
CONTINUOUS
 10
368.9949727445
 20
31.4101421267
 11
369.8621602445
 21
31.4746706537
 12
369.3418477445
 22
31.4101421267
 13
369.3418477445
 23
31.4101421267
  0
SOLID
  8
0
 62
7
  6
CONTINUOUS
 10
369.8621602445
 20
31.4746706537
 11
370.0355977445
 21
31.4101421267
 12
369.3418477445
 22
31.4101421267
 13
369.3418477445
 23
31.4101421267
  0
SOLID
  8
0
 62
7
  6
CONTINUOUS
 10
369.6887227445
 20
31.3778792603
 11
369.3418477445
 21
31.4101421267
 12
370.0355977445
 22
31.4101421267
 13
370.0355977445
 23
31.4101421267
  0
SOLID
  8
0
 62
7
  6
CONTINUOUS
 10
368.3012227445
 20
31.3456148845
 11
368.4168479651
 21
31.4424063504
 12
368.9949727445
 22
31.4101421267
 13
368.9949727445
 23
31.4101421267
  0
SOLID
  8
0
 62
7
  6
CONTINUOUS
 10
369.6887227445
 20
31.3778792603
 11
370.0355977445
 21
31.4101421267
 12
369.8043479651
 22
31.3456148845
 13
369.8043479651
 23
31.3456148845
  0
SOLID
  8
0
 62
7
  6
CONTINUOUS
 10
369.8043479651
 20
31.3456148845
 11
370.0355977445
 21
31.4101421267
 12
369.8621602445
 22
31.281087868
 13
369.8621602445
 23
31.281087868
  0
SOLID
  8
0
 62
7
  6
CONTINUOUS
 10
370.0355977445
 20
31.4101421267
 11
370.1512223035
 21
31.281087868
 12
369.8621602445
 22
31.281087868
 13
369.8621602445
 23
31.281087868
  0
SOLID
  8
0
 62
7
  6
CONTINUOUS
 10
359.4559102445
 20
31.3778792603
 11
358.9355977445
 21
31.3456148963
 12
359.6871602721
 22
31.4101421155
 13
359.6871602721
 23
31.4101421155
  0
SOLID
  8
0
 62
7
  6
CONTINUOUS
 10
358.9355977445
 20
31.3456148963
 11
359.0512227376
 21
31.4101421155
 12
359.6871602721
 22
31.4101421155
 13
359.6871602721
 23
31.4101421155
  0
SOLID
  8
0
 62
7
  6
CONTINUOUS
 10
359.4559102445
 20
31.3778792603
 11
359.3402852307
 21
31.3456148963
 12
358.9355977445
 22
31.3456148963
 13
358.9355977445
 23
31.3456148963
  0
SOLID
  8
0
 62
7
  6
CONTINUOUS
 10
358.8199727462
 20
31.2165607767
 11
358.9355977445
 21
31.3456148963
 12
359.3402852307
 22
31.3456148963
 13
359.3402852307
 23
31.3456148963
  0
SOLID
  8
0
 62
7
  6
CONTINUOUS
 10
363.1559103548
 20
31.3456149608
 11
363.8496603548
 21
31.4101420472
 12
363.6184102445
 22
31.3778792603
 13
363.6184102445
 23
31.3778792603
  0
SOLID
  8
0
 62
7
  6
CONTINUOUS
 10
363.6184102445
 20
31.3778792603
 11
363.5027853548
 21
31.3456149608
 12
363.1559103548
 22
31.3456149608
 13
363.1559103548
 23
31.3456149608
  0
SOLID
  8
0
 62
7
  6
CONTINUOUS
 10
363.1559103548
 20
31.2810878707
 11
363.1559103548
 21
31.3456149608
 12
363.5027853548
 22
31.3456149608
 13
363.5027853548
 23
31.3456149608
  0
SOLID
  8
0
 62
7
  6
CONTINUOUS
 10
363.5027853548
 20
31.3456149608
 11
363.4449727445
 21
31.2810878707
 12
363.1559103548
 22
31.2810878707
 13
363.1559103548
 23
31.2810878707
  0
SOLID
  8
0
 62
7
  6
CONTINUOUS
 10
368.3012227445
 20
31.3456149608
 11
368.9949727445
 21
31.4101420472
 12
368.7637229651
 22
31.3778792603
 13
368.7637229651
 23
31.3778792603
  0
SOLID
  8
0
 62
7
  6
CONTINUOUS
 10
368.7637229651
 20
31.3778792603
 11
368.6480977445
 21
31.3456149608
 12
368.3012227445
 22
31.3456149608
 13
368.3012227445
 23
31.3456149608
  0
SOLID
  8
0
 62
7
  6
CONTINUOUS
 10
368.3012227445
 20
31.2810878707
 11
368.3012227445
 21
31.3456149608
 12
368.6480977445
 22
31.3456149608
 13
368.6480977445
 23
31.3456149608
  0
SOLID
  8
0
 62
7
  6
CONTINUOUS
 10
368.6480977445
 20
31.3456149608
 11
368.5902854651
 21
31.2810878707
 12
368.3012227445
 22
31.2810878707
 13
368.3012227445
 23
31.2810878707
  0
SOLID
  8
0
 62
7
  6
CONTINUOUS
 10
368.4168479651
 20
31.1520336865
 11
368.3012227445
 21
31.2810878707
 12
368.5902854651
 22
31.2810878707
 13
368.5902854651
 23
31.2810878707
  0
SOLID
  8
0
 62
7
  6
CONTINUOUS
 10
358.8199727462
 20
31.2165607767
 11
359.3402852307
 21
31.345614957
 12
359.1668477307
 22
31.2488235635
 13
359.1668477307
 23
31.2488235635
  0
SOLID
  8
0
 62
7
  6
CONTINUOUS
 10
359.1668477307
 20
31.2488235635
 11
359.1090352445
 21
31.1842964734
 12
358.8199727462
 22
31.2165607767
 13
358.8199727462
 23
31.2165607767
  0
SOLID
  8
0
 62
7
  6
CONTINUOUS
 10
358.7621602445
 20
31.0229779898
 11
358.8199727462
 21
31.2165607767
 12
359.1090352445
 22
31.1842964734
 13
359.1090352445
 23
31.1842964734
  0
SOLID
  8
0
 62
7
  6
CONTINUOUS
 10
363.6184102445
 20
31.1520336865
 11
363.9652852445
 21
31.1842964611
 12
364.6012229651
 22
31.1842964611
 13
364.6012229651
 23
31.1842964611
  0
SOLID
  8
0
 62
7
  6
CONTINUOUS
 10
363.6184102445
 20
31.1520336865
 11
364.6012229651
 21
31.1842964611
 12
363.3871601343
 22
31.0875057863
 13
363.3871601343
 23
31.0875057863
  0
SOLID
  8
0
 62
7
  6
CONTINUOUS
 10
363.3871601343
 20
31.0875057863
 11
364.6012229651
 21
31.1842964611
 12
363.9652852445
 22
31.0552422808
 13
363.9652852445
 23
31.0552422808
  0
SOLID
  8
0
 62
7
  6
CONTINUOUS
 10
364.6012229651
 20
31.1842964611
 11
364.6012229651
 21
31.0552422808
 12
363.9652852445
 22
31.0552422808
 13
363.9652852445
 23
31.0552422808
  0
SOLID
  8
0
 62
7
  6
CONTINUOUS
 10
368.4168479651
 20
31.1520338754
 11
368.5902854651
 21
31.2810878668
 12
368.6480977445
 22
31.2165607767
 13
368.6480977445
 23
31.2165607767
  0
SOLID
  8
0
 62
7
  6
CONTINUOUS
 10
368.6480977445
 20
31.2165607767
 11
368.8215352445
 21
31.1520338754
 12
368.4168479651
 22
31.1520338754
 13
368.4168479651
 23
31.1520338754
  0
SOLID
  8
0
 62
7
  6
CONTINUOUS
 10
368.6480977445
 20
31.0552422931
 11
368.4168479651
 21
31.1520338754
 12
368.8215352445
 22
31.1520338754
 13
368.8215352445
 23
31.1520338754
  0
SOLID
  8
0
 62
7
  6
CONTINUOUS
 10
368.8215352445
 20
31.1520338754
 11
369.8043479651
 21
30.9907152029
 12
368.6480977445
 22
31.0552422931
 13
368.6480977445
 23
31.0552422931
  0
SOLID
  8
0
 62
7
  6
CONTINUOUS
 10
369.6309104651
 20
30.8939239876
 11
368.6480977445
 21
31.0552422931
 12
369.8043479651
 22
30.9907152029
 13
369.8043479651
 23
30.9907152029
  0
SOLID
  8
0
 62
7
  6
CONTINUOUS
 10
369.8043479651
 20
30.9907152029
 11
370.0355977445
 21
30.8939239876
 12
369.6309104651
 22
30.8939239876
 13
369.6309104651
 23
30.8939239876
  0
SOLID
  8
0
 62
7
  6
CONTINUOUS
 10
369.8043479651
 20
30.8293967193
 11
369.6309104651
 21
30.8939239876
 12
370.0355977445
 22
30.8939239876
 13
370.0355977445
 23
30.8939239876
  0
SOLID
  8
0
 62
7
  6
CONTINUOUS
 10
369.8043479651
 20
30.8293967193
 11
370.0355977445
 21
30.8939239876
 12
369.8621602445
 22
30.7648682694
 13
369.8621602445
 23
30.7648682694
  0
SOLID
  8
0
 62
7
  6
CONTINUOUS
 10
370.0355977445
 20
30.8939239876
 11
370.1512223035
 21
30.7648682694
 12
369.8621602445
 22
30.7648682694
 13
369.8621602445
 23
30.7648682694
  0
SOLID
  8
0
 62
7
  6
CONTINUOUS
 10
369.8043479651
 20
30.7003411846
 11
369.8621602445
 21
30.7648682694
 12
370.1512223035
 22
30.7648682694
 13
370.1512223035
 23
30.7648682694
  0
SOLID
  8
0
 62
7
  6
CONTINUOUS
 10
370.1512223035
 20
30.7648682694
 11
370.1512223035
 21
30.7003411846
 12
369.8043479651
 22
30.7003411846
 13
369.8043479651
 23
30.7003411846
  0
SOLID
  8
0
 62
7
  6
CONTINUOUS
 10
369.6887227445
 20
30.6680782357
 11
369.8043479651
 21
30.7003411846
 12
370.1512223035
 22
30.7003411846
 13
370.1512223035
 23
30.7003411846
  0
SOLID
  8
0
 62
7
  6
CONTINUOUS
 10
369.6887227445
 20
30.6680782357
 11
370.1512223035
 21
30.7003411846
 12
369.4574729651
 22
30.6358140998
 13
369.4574729651
 23
30.6358140998
  0
SOLID
  8
0
 62
7
  6
CONTINUOUS
 10
370.1512223035
 20
30.7003411846
 11
370.0355977445
 21
30.6035511455
 12
369.4574729651
 22
30.6358140998
 13
369.4574729651
 23
30.6358140998
  0
SOLID
  8
0
 62
7
  6
CONTINUOUS
 10
370.0355977445
 20
30.6035511455
 11
368.5902854651
 21
30.5712868422
 12
369.4574729651
 22
30.6358140998
 13
369.4574729651
 23
30.6358140998
  0
SOLID
  8
0
 62
7
  6
CONTINUOUS
 10
369.4574729651
 20
30.6358140998
 11
368.5902854651
 21
30.5712868422
 12
369.1105979651
 22
30.6358140998
 13
369.1105979651
 23
30.6358140998
  0
SOLID
  8
0
 62
7
  6
CONTINUOUS
 10
368.5902854651
 20
30.5712868422
 11
368.4168479651
 21
30.6358140998
 12
369.1105979651
 22
30.6358140998
 13
369.1105979651
 23
30.6358140998
  0
SOLID
  8
0
 62
7
  6
CONTINUOUS
 10
368.5902854651
 20
30.5712868422
 11
370.0355977445
 21
30.6035511455
 12
368.7637229651
 22
30.5390223111
 13
368.7637229651
 23
30.5390223111
  0
SOLID
  8
0
 62
7
  6
CONTINUOUS
 10
370.0355977445
 20
30.6035511455
 11
369.8043479651
 21
30.5390223111
 12
368.7637229651
 22
30.5390223111
 13
368.7637229651
 23
30.5390223111
  0
SOLID
  8
0
 62
7
  6
CONTINUOUS
 10
369.1105979651
 20
30.5067599302
 11
368.7637229651
 21
30.5390223111
 12
369.8043479651
 22
30.5390223111
 13
369.8043479651
 23
30.5390223111
  0
SOLID
  8
0
 62
7
  6
CONTINUOUS
 10
369.8043479651
 20
30.5390223111
 11
369.4574729651
 21
30.5067599302
 12
369.1105979651
 22
30.5067599302
 13
369.1105979651
 23
30.5067599302
  0
SOLID
  8
0
 62
7
  6
CONTINUOUS
 10
358.7621602445
 20
31.0229779898
 11
359.1090352445
 21
31.1842964734
 12
359.0512227376
 22
31.0552422931
 13
359.0512227376
 23
31.0552422931
  0
SOLID
  8
0
 62
7
  6
CONTINUOUS
 10
359.0512227376
 20
31.0552422931
 11
359.0512227376
 21
30.9584509954
 12
358.7621602445
 22
31.0229779898
 13
358.7621602445
 23
31.0229779898
  0
SOLID
  8
0
 62
7
  6
CONTINUOUS
 10
358.8199727462
 20
30.8293967193
 11
358.7621602445
 21
31.0229779898
 12
359.0512227376
 22
30.9584509954
 13
359.0512227376
 23
30.9584509954
  0
SOLID
  8
0
 62
7
  6
CONTINUOUS
 10
359.0512227376
 20
30.9584509954
 11
359.1668477307
 21
30.797132416
 12
358.8199727462
 22
30.8293967193
 13
358.8199727462
 23
30.8293967193
  0
SOLID
  8
0
 62
7
  6
CONTINUOUS
 10
358.9355977445
 20
30.7003413087
 11
358.8199727462
 21
30.8293967193
 12
359.1668477307
 22
30.797132416
 13
359.1668477307
 23
30.797132416
  0
SOLID
  8
0
 62
7
  6
CONTINUOUS
 10
359.1668477307
 20
30.797132416
 11
359.3402852307
 21
30.7003413087
 12
358.9355977445
 22
30.7003413087
 13
358.9355977445
 23
30.7003413087
  0
SOLID
  8
0
 62
7
  6
CONTINUOUS
 10
359.0512227376
 20
30.6358140759
 11
358.9355977445
 21
30.7003413087
 12
359.3402852307
 22
30.7003413087
 13
359.3402852307
 23
30.7003413087
  0
SOLID
  8
0
 62
7
  6
CONTINUOUS
 10
359.3402852307
 20
30.7003413087
 11
359.6871602721
 21
30.6358140759
 12
359.0512227376
 22
30.6358140759
 13
359.0512227376
 23
30.6358140759
  0
SOLID
  8
0
 62
7
  6
CONTINUOUS
 10
359.2246602583
 20
30.5712868422
 11
359.0512227376
 21
30.6358140759
 12
359.6871602721
 22
30.6358140759
 13
359.6871602721
 23
30.6358140759
  0
SOLID
  8
0
 62
7
  6
CONTINUOUS
 10
363.2715352445
 20
31.0229779808
 11
363.3871601343
 21
31.0875057863
 12
363.9652852445
 22
31.0552422931
 13
363.9652852445
 23
31.0552422931
  0
SOLID
  8
0
 62
7
  6
CONTINUOUS
 10
363.9652852445
 20
31.0552422931
 11
363.7340351343
 21
31.0229779808
 12
363.2715352445
 22
31.0229779808
 13
363.2715352445
 23
31.0229779808
  0
SOLID
  8
0
 62
7
  6
CONTINUOUS
 10
363.1559103548
 20
30.8939238094
 11
363.2715352445
 21
31.0229779808
 12
363.7340351343
 22
31.0229779808
 13
363.7340351343
 23
31.0229779808
  0
SOLID
  8
0
 62
7
  6
CONTINUOUS
 10
363.5027853548
 20
30.926187309
 11
363.1559103548
 21
30.8939238094
 12
363.6184102445
 22
30.9907152029
 13
363.6184102445
 23
30.9907152029
  0
SOLID
  8
0
 62
7
  6
CONTINUOUS
 10
363.1559103548
 20
30.8939238094
 11
363.7340351343
 21
31.0229779898
 12
363.6184102445
 22
30.9907152029
 13
363.6184102445
 23
30.9907152029
  0
SOLID
  8
0
 62
7
  6
CONTINUOUS
 10
363.5027853548
 20
30.926187309
 11
363.4449727445
 21
30.8293967193
 12
363.1559103548
 22
30.8939238094
 13
363.1559103548
 23
30.8939238094
  0
SOLID
  8
0
 62
7
  6
CONTINUOUS
 10
363.1559103548
 20
30.797132416
 11
363.1559103548
 21
30.8939238094
 12
363.4449727445
 22
30.8293967193
 13
363.4449727445
 23
30.8293967193
  0
SOLID
  8
0
 62
7
  6
CONTINUOUS
 10
363.4449727445
 20
30.8293967193
 11
363.4449727445
 21
30.7648681127
 12
363.1559103548
 22
30.797132416
 13
363.1559103548
 23
30.797132416
  0
SOLID
  8
0
 62
7
  6
CONTINUOUS
 10
363.2137226343
 20
30.6680782357
 11
363.1559103548
 21
30.797132416
 12
363.4449727445
 22
30.7648681127
 13
363.4449727445
 23
30.7648681127
  0
SOLID
  8
0
 62
7
  6
CONTINUOUS
 10
364.6012229651
 20
30.8616599362
 11
364.890285024
 21
30.7648681127
 12
364.543410024
 22
30.797132416
 13
364.543410024
 23
30.797132416
  0
SOLID
  8
0
 62
7
  6
CONTINUOUS
 10
364.369972524
 20
30.7003410226
 11
364.543410024
 21
30.797132416
 12
364.890285024
 22
30.7648681127
 13
364.890285024
 23
30.7648681127
  0
SOLID
  8
0
 62
7
  6
CONTINUOUS
 10
364.369972524
 20
30.7003410226
 11
364.890285024
 21
30.7648681127
 12
364.6012229651
 22
30.6680782357
 13
364.6012229651
 23
30.6680782357
  0
SOLID
  8
0
 62
7
  6
CONTINUOUS
 10
364.890285024
 20
30.7648681127
 11
364.9480979651
 21
30.6035511455
 12
364.6012229651
 22
30.6680782357
 13
364.6012229651
 23
30.6680782357
  0
SOLID
  8
0
 62
7
  6
CONTINUOUS
 10
364.6590352445
 20
30.5712868422
 11
364.6012229651
 21
30.6680782357
 12
364.9480979651
 22
30.6035511455
 13
364.9480979651
 23
30.6035511455
  0
SOLID
  8
0
 62
7
  6
CONTINUOUS
 10
364.6590352445
 20
30.5712868422
 11
364.9480979651
 21
30.6035511455
 12
364.716847524
 22
30.5067598731
 13
364.716847524
 23
30.5067598731
  0
SOLID
  8
0
 62
7
  6
CONTINUOUS
 10
364.9480979651
 20
30.6035511455
 11
365.0059102445
 21
30.5067598731
 12
364.716847524
 22
30.5067598731
 13
364.716847524
 23
30.5067598731
  0
SOLID
  8
0
 62
7
  6
CONTINUOUS
 10
360.2652852997
 20
30.7326051679
 11
360.3230977445
 21
30.8293966612
 12
360.6121602997
 22
30.8293966612
 13
360.6121602997
 23
30.8293966612
  0
SOLID
  8
0
 62
7
  6
CONTINUOUS
 10
360.6121602997
 20
30.8293966612
 11
360.5543476894
 21
30.7003410226
 12
360.2652852997
 22
30.7326051679
 13
360.2652852997
 23
30.7326051679
  0
SOLID
  8
0
 62
7
  6
CONTINUOUS
 10
360.091847717
 20
30.6680782357
 11
360.2652852997
 21
30.7326051679
 12
360.5543476894
 22
30.7003410226
 13
360.5543476894
 23
30.7003410226
  0
SOLID
  8
0
 62
7
  6
CONTINUOUS
 10
360.091847717
 20
30.6680782357
 11
360.5543476894
 21
30.7003410226
 12
359.6871602721
 22
30.6358139324
 13
359.6871602721
 23
30.6358139324
  0
SOLID
  8
0
 62
7
  6
CONTINUOUS
 10
360.5543476894
 20
30.7003410226
 11
360.3809101894
 21
30.6035511455
 12
359.6871602721
 22
30.6358139324
 13
359.6871602721
 23
30.6358139324
  0
SOLID
  8
0
 62
7
  6
CONTINUOUS
 10
359.2246602583
 20
30.5712868422
 11
359.6871602721
 21
30.6358139324
 12
360.3809101894
 22
30.6035511455
 13
360.3809101894
 23
30.6035511455
  0
SOLID
  8
0
 62
7
  6
CONTINUOUS
 10
359.2246602583
 20
30.5712868422
 11
360.3809101894
 21
30.6035511455
 12
359.3980977583
 22
30.5390224228
 13
359.3980977583
 23
30.5390224228
  0
SOLID
  8
0
 62
7
  6
CONTINUOUS
 10
360.3809101894
 20
30.6035511455
 11
360.1496602445
 21
30.5390224228
 12
359.3980977583
 22
30.5390224228
 13
359.3980977583
 23
30.5390224228
  0
SOLID
  8
0
 62
7
  6
CONTINUOUS
 10
359.744972717
 20
30.5067597521
 11
359.3980977583
 21
30.5390224228
 12
360.1496602445
 22
30.5390224228
 13
360.1496602445
 23
30.5390224228
  0
SOLID
  8
0
 62
7
  6
CONTINUOUS
 10
363.2137226343
 20
30.6680782357
 11
363.4449727445
 21
30.7648681127
 12
363.5027853548
 22
30.7003410226
 13
363.5027853548
 23
30.7003410226
  0
SOLID
  8
0
 62
7
  6
CONTINUOUS
 10
363.5027853548
 20
30.7003410226
 11
363.7340351343
 21
30.6358139324
 12
363.2137226343
 22
30.6680782357
 13
363.2137226343
 23
30.6680782357
  0
SOLID
  8
0
 62
7
  6
CONTINUOUS
 10
363.3871601343
 20
30.5712868422
 11
363.2137226343
 21
30.6680782357
 12
363.7340351343
 22
30.6358139324
 13
363.7340351343
 23
30.6358139324
  0
SOLID
  8
0
 62
7
  6
CONTINUOUS
 10
364.0809101343
 20
30.6358139363
 11
364.369972524
 21
30.7003410226
 12
364.6012229651
 22
30.6680782357
 13
364.6012229651
 23
30.6680782357
  0
SOLID
  8
0
 62
7
  6
CONTINUOUS
 10
364.6012229651
 20
30.6680782357
 11
364.543410024
 21
30.6035511455
 12
364.0809101343
 22
30.6358139363
 13
364.0809101343
 23
30.6358139363
  0
SOLID
  8
0
 62
7
  6
CONTINUOUS
 10
364.543410024
 20
30.6035511455
 11
363.3871601343
 21
30.5712868422
 12
364.0809101343
 22
30.6358139363
 13
364.0809101343
 23
30.6358139363
  0
SOLID
  8
0
 62
7
  6
CONTINUOUS
 10
363.3871601343
 20
30.5712868422
 11
363.7340351343
 21
30.6358139363
 12
364.0809101343
 22
30.6358139363
 13
364.0809101343
 23
30.6358139363
  0
SOLID
  8
0
 62
7
  6
CONTINUOUS
 10
363.3871601343
 20
30.5712868422
 11
364.543410024
 21
30.6035511455
 12
363.5027853548
 22
30.5390225267
 13
363.5027853548
 23
30.5390225267
  0
SOLID
  8
0
 62
7
  6
CONTINUOUS
 10
364.543410024
 20
30.6035511455
 11
364.369972524
 21
30.5390225267
 12
363.5027853548
 22
30.5390225267
 13
363.5027853548
 23
30.5390225267
  0
SOLID
  8
0
 62
7
  6
CONTINUOUS
 10
363.7340351343
 20
30.5067596914
 11
363.5027853548
 21
30.5390225267
 12
364.369972524
 22
30.5390225267
 13
364.369972524
 23
30.5390225267
  0
SOLID
  8
0
 62
7
  6
CONTINUOUS
 10
364.369972524
 20
30.5390225267
 11
364.0809101343
 21
30.5067596914
 12
363.7340351343
 22
30.5067596914
 13
363.7340351343
 23
30.5067596914
  0
SOLID
  8
0
 62
7
  6
CONTINUOUS
 10
368.7637229651
 20
30.6680782357
 11
368.4168479651
 21
30.6358138717
 12
368.6480977445
 22
30.7003410226
 13
368.6480977445
 23
30.7003410226
  0
SOLID
  8
0
 62
7
  6
CONTINUOUS
 10
368.6480977445
 20
30.7003410226
 11
368.4168479651
 21
30.6358138717
 12
368.5902854651
 22
30.7648680521
 13
368.5902854651
 23
30.7648680521
  0
SOLID
  8
0
 62
7
  6
CONTINUOUS
 10
368.4168479651
 20
30.6358138717
 11
368.3012227445
 21
30.7648680521
 12
368.5902854651
 22
30.7648680521
 13
368.5902854651
 23
30.7648680521
  0
SOLID
  8
0
 62
7
  6
CONTINUOUS
 10
368.7637229651
 20
30.6680782357
 11
369.1105979651
 21
30.6358138717
 12
368.4168479651
 22
30.6358138717
 13
368.4168479651
 23
30.6358138717
  0
SOLID
  8
0
 62
7
  6
CONTINUOUS
 10
365.4684104651
 20
30.5067597521
 11
365.4684104651
 21
31.5391977439
 12
365.757472524
 22
30.5067597521
 13
365.757472524
 23
31.5391977439
  0
ENDBLK
  8
0
  6
BYBLOCK
 62
0
  0
BLOCK
  8
0
 62
2
  6
CONTINUOUS
  2
SYMBOL_0_BL0
 70
64
 10
240.8592468615
 20
19.762288695
  0
TEXT
  8
0
 62
7
  6
CONTINUOUS
 10
227.1239507038
 20
19.1357028027
  7
TEXTSTYLE_3
 40
2.7338706658
  1
Ammeraal Beltech
 41
1.0
 51
15.0
 72
0
  0
TEXT
  8
0
 62
7
  6
CONTINUOUS
 10
237.9247515296
 20
16.8621661299
  7
TEXTSTYLE_4
 40
1.0935482663
  1
Innovation & Service in Belting
 41
1.0
 72
0
  0
LINE
  8
0
 62
7
  6
CONTINUOUS
 10
221.0994100525
 20
19.9022961113
 11
221.8775620458
 21
23.5632134089
  0
LINE
  8
0
 62
7
  6
CONTINUOUS
 10
231.9727303357
 20
27.2266073205
 11
222.3653797889
 21
24.1049898993
  0
LINE
  8
0
 62
7
  6
CONTINUOUS
 10
221.3246933848
 20
19.2089453082
 11
228.8317686459
 21
12.4495443822
  0
LINE
  8
0
 62
7
  6
CONTINUOUS
 10
221.5872277955
 20
20.4440726016
 11
232.3954971607
 21
23.9558922005
  0
LINE
  8
0
 62
7
  6
CONTINUOUS
 10
232.3912920235
 20
13.6061036368
 11
223.9458323548
 21
21.2104296785
  0
LINE
  8
0
 62
7
  6
CONTINUOUS
 10
232.9111147433
 20
26.3816822048
 11
231.9345552061
 21
21.7873308023
  0
LINE
  8
0
 62
7
  6
CONTINUOUS
 10
231.2347532584
 20
18.4950214885
 11
230.5483050469
 21
15.2655365641
  0
LINE
  8
0
 62
7
  6
CONTINUOUS
 10
233.5922108419
 20
13.9963058145
 11
234.5484423775
 21
18.4950214885
  0
LINE
  8
0
 62
7
  6
CONTINUOUS
 10
235.2482443252
 20
21.7873308023
 11
235.6924861276
 21
23.8773241617
  0
LINE
  8
0
 62
7
  6
CONTINUOUS
 10
229.5448697213
 20
12.2979700695
 11
233.1043930989
 21
13.4545293241
  0
LINE
  8
0
 62
7
  6
CONTINUOUS
 10
232.685831411
 20
27.0750330078
 11
235.4672027953
 21
24.5706749648
  0
ARC
  8
0
 62
7
  6
CONTINUOUS
 10
222.5906631212
 20
23.4116390962
 40
0.7290321776
 50
108.0
 51
168.0
  0
ARC
  8
0
 62
7
  6
CONTINUOUS
 10
232.198013668
 20
26.5332565175
 40
0.7290321776
 50
348.0
 51
108.0
  0
ARC
  8
0
 62
7
  6
CONTINUOUS
 10
234.9793850522
 20
24.0288984744
 40
0.7290321776
 50
348.0
 51
48.0
  0
ARC
  8
0
 62
7
  6
CONTINUOUS
 10
229.319586389
 20
12.9913208726
 40
0.7290321776
 50
228.0
 51
288.0
  0
ARC
  8
0
 62
7
  6
CONTINUOUS
 10
221.8125111278
 20
19.7507217986
 40
0.7290321776
 50
108.0
 51
228.0
  0
ARC
  8
0
 62
7
  6
CONTINUOUS
 10
232.8791097665
 20
14.1478801272
 40
0.7290321776
 50
228.0
 51
348.0
  0
ENDBLK
  8
0
  6
BYBLOCK
 62
0
  0
ENDSEC
  0
SECTION
  2
ENTITIES
  0
TEXT
  8
0
 62
5
  6
CONTINUOUS
 10
304.937007874
 20
25.636
  7
TEXTSTYLE_2
 40
2.8
  1
Scale :
 41
0.6
 51
0.000019
 72
0
  0
TEXT
  8
0
 62
5
  6
CONTINUOUS
 10
324.937007874
 20
25.636
  7
TEXTSTYLE_2
 40
2.8
  1
Belt type:
 41
0.6
 51
0.000019
 72
0
  0
INSERT
  8
0
 62
2
  6
CONTINUOUS
  2
SYMBOL_0_BL0
 10
240.8592468615
 20
19.762288695
  0
INSERT
  8
0
 62
2
  6
CONTINUOUS
  2
SYMBOL_5_BL1
 10
382.7840918555
 20
35.5067593403
  0
LINE
  8
0
 62
2
  6
CONTINUOUS
 10
218.937007874
 20
30.0
 11
408.937007874
 21
30.0
  0
LINE
  8
0
 62
2
  6
CONTINUOUS
 10
218.937007874
 20
30.0
 11
218.937007874
 21
10.0
  0
LINE
  8
0
 62
2
  6
CONTINUOUS
 10
218.937007874
 20
10.0
 11
408.937007874
 21
10.0
  0
LINE
  8
0
 62
2
  6
CONTINUOUS
 10
303.937007874
 20
30.0
 11
303.937007874
 21
10.0
  0
LINE
  8
0
 62
2
  6
CONTINUOUS
 10
323.937007874
 20
30.0
 11
323.937007874
 21
10.0
  0
LINE
  8
0
 62
2
  6
CONTINUOUS
 10
408.937007874
 20
30.0
 11
408.937007874
 21
10.0
  0
TEXT
  8
0
 62
5
  6
CONTINUOUS
 10
221.937007874
 20
23.303
  7
TEXTSTYLE_5
 40
1.52
  1
                                                                     Ammeraal Beltech Modular A/S
 41
1.0
 72
0
  0
TEXT
  8
0
 62
5
  6
CONTINUOUS
 10
221.937007874
 20
20.595
  7
TEXTSTYLE_5
 40
1.5
  1
                                                                      Hjulmagervej 21, 7100 Vejle,  DK
 41
1.0
 72
0
  0
TEXT
  8
0
 62
5
  6
CONTINUOUS
 10
221.937007874
 20
17.881
  7
TEXTSTYLE_5
 40
1.495
  1
                                                                      tel: 
 41
1.0
 72
0
  0
TEXT
  8
0
 62
5
  6
CONTINUOUS
 10
266.9239544389
 20
17.881
  7
TEXTSTYLE_5
 40
1.51
  1
+45 75723100     fax: +45 75723348
 41
1.0
 72
0
  0
TEXT
  8
0
 62
5
  6
CONTINUOUS
 10
221.937007874
 20
15.177
  7
TEXTSTYLE_5
 40
1.5
  1
                                                                      admin@unichains.dk  www.unichains.com
 41
1.0
 72
0
  0
TEXT
  8
0
 62
5
  6
CONTINUOUS
 10
308.687007874
 20
13.75
  7
TEXTSTYLE_6
 40
5.0
  1
1:1
 41
0.7
 72
1
 11
313.937007874
 21
13.75
  0
TEXT
  8
0
 62
5
  6
CONTINUOUS
 10
326.937007874
 20
13.75
  7
TEXTSTYLE_7
 40
7.5
  1
uni Flex ASB-43 CS Tab K600
 41
0.3260493827
 72
0
  0
LINE
  8
0
 62
7
  6
CONTINUOUS
 10
0.0
 20
0.0
 11
0.0
 21
297.0
  0
LINE
  8
0
 62
7
  6
CONTINUOUS
 10
8.937007874
 20
10.0
 11
8.937007874
 21
287.0
  0
LINE
  8
0
 62
7
  6
CONTINUOUS
 10
0.0
 20
0.0
 11
420.0
 21
0.0
  0
LINE
  8
0
 62
7
  6
CONTINUOUS
 10
408.937007874
 20
10.0
 11
8.937007874
 21
10.0
  0
LINE
  8
0
 62
7
  6
CONTINUOUS
 10
218.937007874
 20
30.0
 11
408.937007874
 21
30.0
  0
LINE
  8
0
 62
7
  6
CONTINUOUS
 10
210.0
 20
297.0
 11
210.0
 21
292.0
  0
LINE
  8
0
 62
7
  6
CONTINUOUS
 10
210.0
 20
0.0
 11
210.0
 21
5.0
  0
LINE
  8
0
 62
7
  6
CONTINUOUS
 10
8.937007874
 20
287.0
 11
408.937007874
 21
287.0
  0
LINE
  8
0
 62
7
  6
CONTINUOUS
 10
0.0
 20
297.0
 11
420.0
 21
297.0
  0
LINE
  8
0
 62
7
  6
CONTINUOUS
 10
408.937007874
 20
287.0
 11
408.937007874
 21
10.0
  0
LINE
  8
0
 62
7
  6
CONTINUOUS
 10
420.0
 20
0.0
 11
420.0
 21
297.0
  0
LINE
  8
0
 62
7
  6
CONTINUOUS
 10
142.1761997874
 20
112.754834439
 11
143.1761997874
 21
112.754834439
  0
LINE
  8
0
 62
7
  6
CONTINUOUS
 10
155.9301997874
 20
112.754834439
 11
156.9301997874
 21
112.754834439
  0
LINE
  8
0
 62
7
  6
CONTINUOUS
 10
170.4301997874
 20
112.754834439
 11
171.4301997874
 21
112.754834439
  0
LINE
  8
0
 62
7
  6
CONTINUOUS
 10
186.0551997874
 20
112.754834439
 11
187.0551997874
 21
112.754834439
  0
LINE
  8
DEFAULT_1
 62
2
  6
CENTER
 10
48.3801997874
 20
117.104834439
 11
191.5551854243
 21
117.104834439
  0
LINE
  8
0
 62
7
  6
CONTINUOUS
 10
44.0301997874
 20
141.8532969138
 11
44.0301997874
 21
146.104834439
  0
LINE
  8
0
 62
7
  6
CONTINUOUS
 10
44.7841997874
 20
138.7925561142
 11
44.7841997874
 21
130.020834439
  0
LINE
  8
0
 62
7
  6
CONTINUOUS
 10
49.2914771125
 20
138.9152098398
 11
50.0256165899
 21
141.8165008059
  0
LINE
  8
0
 62
7
  6
CONTINUOUS
 10
138.4261997874
 20
129.020834439
 11
133.8301997874
 21
129.020834439
  0
LINE
  8
0
 62
7
  6
CONTINUOUS
 10
125.3301997874
 20
129.020834439
 11
121.1301997874
 21
129.020834439
  0
LINE
  8
0
 62
7
  6
CONTINUOUS
 10
112.6301997874
 20
129.020834439
 11
108.4301997874
 21
129.020834439
  0
LINE
  8
0
 62
7
  6
CONTINUOUS
 10
99.9301997874
 20
129.020834439
 11
95.7301997874
 21
129.020834439
  0
LINE
  8
0
 62
7
  6
CONTINUOUS
 10
87.2301997874
 20
129.020834439
 11
83.0301997874
 21
129.020834439
  0
LINE
  8
0
 62
7
  6
CONTINUOUS
 10
74.5301997874
 20
129.020834439
 11
70.3301997874
 21
129.020834439
  0
LINE
  8
0
 62
7
  6
CONTINUOUS
 10
61.8301997874
 20
129.020834439
 11
57.6301997874
 21
129.020834439
  0
LINE
  8
0
 62
7
  6
CONTINUOUS
 10
45.7841997874
 20
129.020834439
 11
49.1301997874
 21
129.020834439
  0
LINE
  8
0
 62
7
  6
CONTINUOUS
 10
151.4801997874
 20
129.354834439
 11
147.6261997874
 21
129.354834439
  0
LINE
  8
0
 62
7
  6
CONTINUOUS
 10
161.3802183664
 20
129.354834439
 11
165.9801824487
 21
129.354834439
  0
LINE
  8
0
 62
7
  6
CONTINUOUS
 10
180.3051802891
 20
129.504834439
 11
176.1802180166
 21
129.504834439
  0
LINE
  8
0
 62
7
  6
CONTINUOUS
 10
186.9301763818
 20
130.054834439
 11
185.1802177213
 21
130.054834439
  0
LINE
  8
0
 62
7
  6
CONTINUOUS
 10
171.6801795645
 20
130.154834439
 11
170.1802177244
 21
130.154834439
  0
LINE
  8
0
 62
7
  6
CONTINUOUS
 10
157.3301997874
 20
130.304834439
 11
155.5301997874
 21
130.304834439
  0
LINE
  8
0
 62
7
  6
CONTINUOUS
 10
143.3261997874
 20
130.304834439
 11
142.0261997874
 21
130.304834439
  0
LINE
  8
0
 62
7
  6
CONTINUOUS
 10
44.0347829849
 20
141.8165008059
 11
44.7689225121
 21
138.9152096434
  0
LINE
  8
0
 62
7
  6
CONTINUOUS
 10
49.2761997874
 20
134.608834439
 11
49.2761997874
 21
138.7925561469
  0
LINE
  8
0
 62
7
  6
CONTINUOUS
 10
50.0301997874
 20
146.104834439
 11
50.0301997874
 21
141.8532969138
  0
LINE
  8
0
 62
7
  6
CONTINUOUS
 10
50.3801997874
 20
114.3053446963
 11
50.3801997874
 21
117.779236573
  0
LINE
  8
0
 62
7
  6
CONTINUOUS
 10
51.1301997874
 20
127.0208182376
 11
51.1301997874
 21
120.8241695265
  0
LINE
  8
0
 62
7
  6
CONTINUOUS
 10
55.6301997874
 20
127.0208183018
 11
55.6301997874
 21
120.8241687265
  0
LINE
  8
0
 62
7
  6
CONTINUOUS
 10
56.3801997874
 20
117.779236573
 11
56.3801997874
 21
114.3053446963
  0
LINE
  8
0
 62
7
  6
CONTINUOUS
 10
56.7301997874
 20
141.8532969138
 11
56.7301997874
 21
146.104834439
  0
LINE
  8
0
 62
7
  6
CONTINUOUS
 10
57.4841997874
 20
138.7925561142
 11
57.4841997874
 21
134.6088559615
  0
LINE
  8
0
 62
7
  6
CONTINUOUS
 10
61.9761997874
 20
138.7925569144
 11
61.9761997874
 21
134.6088539264
  0
LINE
  8
0
 62
7
  6
CONTINUOUS
 10
62.7301997874
 20
141.8532969138
 11
62.7301997874
 21
146.104834439
  0
LINE
  8
AXES
 62
7
  6
CONTINUOUS
 10
51.1149224624
 20
120.7015158009
 11
50.9847829849
 21
120.1872095937
  0
LINE
  8
0
 62
7
  6
CONTINUOUS
 10
51.1149225121
 20
120.7015159976
 11
50.3847829849
 21
117.8160326809
  0
LINE
  8
0
 62
7
  6
CONTINUOUS
 10
62.7256165899
 20
141.8165008059
 11
61.9914770105
 21
138.9152094368
  0
POLYLINE
  8
0
 62
7
  6
CONTINUOUS
 66
1
 70
0
  0
VERTEX
  8
0
 62
7
  6
CONTINUOUS
 10
185.7761997874
 20
139.7936647516
  0
VERTEX
  8
0
 62
7
  6
CONTINUOUS
 10
185.5673828558
 20
139.7828922794
  0
VERTEX
  8
0
 62
7
  6
CONTINUOUS
 10
185.3598470334
 20
139.7504771763
  0
VERTEX
  8
0
 62
7
  6
CONTINUOUS
 10
185.157091941
 20
139.6968196175
  0
VERTEX
  8
0
 62
7
  6
CONTINUOUS
 10
184.9621632983
 20
139.6229060569
  0
VERTEX
  8
0
 62
7
  6
CONTINUOUS
 10
184.775473307
 20
139.5289174039
  0
VERTEX
  8
0
 62
7
  6
CONTINUOUS
 10
184.599230285
 20
139.415677649
  0
VERTEX
  8
0
 62
7
  6
CONTINUOUS
 10
184.436414291
 20
139.2850336945
  0
VERTEX
  8
0
 62
7
  6
CONTINUOUS
 10
184.2891203881
 20
139.1389670586
  0
VERTEX
  8
0
 62
7
  6
CONTINUOUS
 10
184.157405092
 20
138.9775260107
  0
VERTEX
  8
0
 62
7
  6
CONTINUOUS
 10
184.0432463201
 20
138.8027392821
  0
VERTEX
  8
0
 62
7
  6
CONTINUOUS
 10
183.9484874387
 20
138.6174924815
  0
VERTEX
  8
0
 62
7
  6
CONTINUOUS
 10
183.8739452628
 20
138.4238843252
  0
VERTEX
  8
0
 62
7
  6
CONTINUOUS
 10
183.8198101739
 20
138.2222535901
  0
VERTEX
  8
0
 62
7
  6
CONTINUOUS
 10
183.7870841301
 20
138.0155154331
  0
VERTEX
  8
0
 62
7
  6
CONTINUOUS
 10
183.7761997874
 20
137.8070721349
  0
SEQEND
  0
POLYLINE
  8
0
 62
7
  6
CONTINUOUS
 66
1
 70
0
  0
VERTEX
  8
0
 62
7
  6
CONTINUOUS
 10
191.3761997874
 20
139.7936647516
  0
VERTEX
  8
0
 62
7
  6
CONTINUOUS
 10
191.4229273256
 20
139.7942382448
  0
VERTEX
  8
0
 62
7
  6
CONTINUOUS
 10
191.4688203796
 20
139.7959602604
  0
VERTEX
  8
0
 62
7
  6
CONTINUOUS
 10
191.5121720411
 20
139.7987683204
  0
VERTEX
  8
0
 62
7
  6
CONTINUOUS
 10
191.5522412585
 20
139.8026054319
  0
VERTEX
  8
0
 62
7
  6
CONTINUOUS
 10
191.5883269643
 20
139.8074267572
  0
VERTEX
  8
0
 62
7
  6
CONTINUOUS
 10
191.6191160344
 20
139.8130798942
  0
VERTEX
  8
0
 62
7
  6
CONTINUOUS
 10
191.6436217485
 20
139.8193581253
  0
VERTEX
  8
0
 62
7
  6
CONTINUOUS
 10
191.6615434412
 20
139.8261462263
  0
VERTEX
  8
0
 62
7
  6
CONTINUOUS
 10
191.6725370127
 20
139.833333488
  0
VERTEX
  8
0
 62
7
  6
CONTINUOUS
 10
191.6761997874
 20
139.8406537269
  0
SEQEND
  0
LINE
  8
0
 62
7
  6
CONTINUOUS
 10
191.3435272216
 20
133.173506225
 11
191.6761997874
 21
133.173506225
  0
LINE
  8
0
 62
7
  6
CONTINUOUS
 10
191.3761997874
 20
139.7936647516
 11
185.7761997874
 21
139.7936647516
  0
LINE
  8
AXES
 62
2
  6
CENTER
 10
42.0301997874
 20
142.504834439
 11
196.9301997874
 21
142.504834439
  0
LINE
  8
0
 62
7
  6
CONTINUOUS
 10
191.4683037099
 20
132.9732503458
 11
185.7761997874
 21
132.973506225
  0
LINE
  8
0
 62
7
  6
CONTINUOUS
 10
191.3435272136
 20
139.5936647516
 11
191.6761997874
 21
139.5936647516
  0
LINE
  8
AXES
 62
7
  6
CONTINUOUS
 10
55.6454771125
 20
120.7015158009
 11
55.7756165899
 21
120.1872095937
  0
LINE
  8
0
 62
7
  6
CONTINUOUS
 10
55.6454770104
 20
120.7015162043
 11
56.3756165899
 21
117.8160326809
  0
LINE
  8
0
 62
7
  6
CONTINUOUS
 10
56.7347829849
 20
141.8165008059
 11
57.4689225121
 21
138.9152096434
  0
LINE
  8
0
 62
7
  6
CONTINUOUS
 10
63.0801997874
 20
114.3053446963
 11
63.0801997874
 21
117.779236573
  0
LINE
  8
0
 62
7
  6
CONTINUOUS
 10
63.8301997874
 20
120.8241694939
 11
63.8301997874
 21
127.020834439
  0
LINE
  8
0
 62
7
  6
CONTINUOUS
 10
68.3301997874
 20
127.0208183018
 11
68.3301997874
 21
120.8241687265
  0
LINE
  8
0
 62
7
  6
CONTINUOUS
 10
69.0801997874
 20
117.779236573
 11
69.0801997874
 21
114.3053446963
  0
LINE
  8
0
 62
7
  6
CONTINUOUS
 10
69.4301997874
 20
141.8532969138
 11
69.4301997874
 21
146.104834439
  0
LINE
  8
0
 62
7
  6
CONTINUOUS
 10
70.1841997874
 20
134.608834439
 11
70.1841997874
 21
138.7925561469
  0
LINE
  8
0
 62
7
  6
CONTINUOUS
 10
74.6761997874
 20
138.7925569144
 11
74.6761997874
 21
134.6088539264
  0
LINE
  8
0
 62
7
  6
CONTINUOUS
 10
75.4301997874
 20
141.8532969138
 11
75.4301997874
 21
146.104834439
  0
LINE
  8
0
 62
7
  6
CONTINUOUS
 10
75.7801997874
 20
114.3053446963
 11
75.7801997874
 21
117.779236573
  0
LINE
  8
0
 62
7
  6
CONTINUOUS
 10
76.5301997874
 20
120.8241694939
 11
76.5301997874
 21
127.020834439
  0
LINE
  8
AXES
 62
7
  6
CONTINUOUS
 10
63.8149224624
 20
120.7015158009
 11
63.6847829849
 21
120.1872095937
  0
LINE
  8
0
 62
7
  6
CONTINUOUS
 10
63.0847829849
 20
117.8160326809
 11
63.8149225643
 21
120.7015162039
  0
LINE
  8
0
 62
7
  6
CONTINUOUS
 10
75.4256165899
 20
141.8165008059
 11
74.6914770105
 21
138.9152094368
  0
LINE
  8
0
 62
7
  6
CONTINUOUS
 10
44.7801997874
 20
146.854834439
 11
49.2801997874
 21
146.854834439
  0
LINE
  8
0
 62
7
  6
CONTINUOUS
 10
57.4801997874
 20
146.854834439
 11
61.9801997874
 21
146.854834439
  0
LINE
  8
0
 62
7
  6
CONTINUOUS
 10
70.1801997874
 20
146.854834439
 11
74.6801997874
 21
146.854834439
  0
LINE
  8
0
 62
7
  6
CONTINUOUS
 10
82.8801997874
 20
146.854834439
 11
87.3801997874
 21
146.854834439
  0
LINE
  8
0
 62
7
  6
CONTINUOUS
 10
95.5801997874
 20
146.854834439
 11
100.0801997874
 21
146.854834439
  0
LINE
  8
0
 62
7
  6
CONTINUOUS
 10
108.2801997874
 20
146.854834439
 11
112.7801997874
 21
146.854834439
  0
LINE
  8
0
 62
7
  6
CONTINUOUS
 10
120.9801997874
 20
146.854834439
 11
125.4801997874
 21
146.854834439
  0
LINE
  8
0
 62
7
  6
CONTINUOUS
 10
133.6801997874
 20
146.854834439
 11
138.1801997874
 21
146.854834439
  0
LINE
  8
0
 62
7
  6
CONTINUOUS
 10
147.1721997874
 20
146.854834439
 11
151.6841997874
 21
146.854834439
  0
LINE
  8
0
 62
7
  6
CONTINUOUS
 10
161.1761997874
 20
146.854834439
 11
165.6841997874
 21
146.854834439
  0
LINE
  8
0
 62
7
  6
CONTINUOUS
 10
176.1761997874
 20
146.854834439
 11
180.6841997874
 21
146.854834439
  0
LINE
  8
AXES
 62
7
  6
CONTINUOUS
 10
68.3454771125
 20
120.7015158009
 11
68.4756165899
 21
120.1872095937
  0
LINE
  8
0
 62
7
  6
CONTINUOUS
 10
68.3454770104
 20
120.7015162043
 11
69.0756165899
 21
117.8160326809
  0
LINE
  8
0
 62
7
  6
CONTINUOUS
 10
70.1689224624
 20
138.9152098398
 11
69.4347829849
 21
141.8165008059
  0
LINE
  8
0
 62
7
  6
CONTINUOUS
 10
81.0301997874
 20
127.0208183018
 11
81.0301997874
 21
120.8241687265
  0
LINE
  8
0
 62
7
  6
CONTINUOUS
 10
81.7801997874
 20
117.779236573
 11
81.7801997874
 21
114.3053446963
  0
LINE
  8
0
 62
7
  6
CONTINUOUS
 10
82.1301997874
 20
141.8532969138
 11
82.1301997874
 21
146.104834439
  0
LINE
  8
0
 62
7
  6
CONTINUOUS
 10
82.8841997874
 20
134.608834439
 11
82.8841997874
 21
138.7925561469
  0
LINE
  8
0
 62
7
  6
CONTINUOUS
 10
87.3761997874
 20
138.7925569144
 11
87.3761997874
 21
134.6088539264
  0
LINE
  8
0
 62
7
  6
CONTINUOUS
 10
88.1301997874
 20
141.8532969138
 11
88.1301997874
 21
146.104834439
  0
LINE
  8
0
 62
7
  6
CONTINUOUS
 10
88.4801997874
 20
114.3053446963
 11
88.4801997874
 21
117.779236573
  0
LINE
  8
0
 62
7
  6
CONTINUOUS
 10
89.2301997874
 20
120.8241694939
 11
89.2301997874
 21
127.020834439
  0
LINE
  8
AXES
 62
7
  6
CONTINUOUS
 10
76.5149224624
 20
120.7015158009
 11
76.3847829849
 21
120.1872095937
  0
LINE
  8
0
 62
7
  6
CONTINUOUS
 10
75.7847829849
 20
117.8160326809
 11
76.5149225643
 21
120.7015162039
  0
LINE
  8
0
 62
7
  6
CONTINUOUS
 10
88.1256165899
 20
141.8165008059
 11
87.3914770105
 21
138.9152094368
  0
LINE
  8
AXES
 62
7
  6
CONTINUOUS
 10
89.2149224624
 20
120.7015158009
 11
89.0847829849
 21
120.1872095937
  0
LINE
  8
0
 62
7
  6
CONTINUOUS
 10
88.4847829849
 20
117.8160326809
 11
89.2149225643
 21
120.7015162039
  0
LINE
  8
0
 62
7
  6
CONTINUOUS
 10
193.5887235004
 20
147.1534606036
 11
191.7757112102
 21
146.5054045142
  0
POLYLINE
  8
0
 62
7
  6
CONTINUOUS
 66
1
 70
0
  0
VERTEX
  8
0
 62
7
  6
CONTINUOUS
 10
191.6761997874
 20
132.9682088323
  0
VERTEX
  8
0
 62
7
  6
CONTINUOUS
 10
191.6724906866
 20
132.9690391419
  0
VERTEX
  8
0
 62
7
  6
CONTINUOUS
 10
191.6613759672
 20
132.9698532481
  0
VERTEX
  8
0
 62
7
  6
CONTINUOUS
 10
191.6432927013
 20
132.9706207975
  0
VERTEX
  8
0
 62
7
  6
CONTINUOUS
 10
191.6186189402
 20
132.971329273
  0
VERTEX
  8
0
 62
7
  6
CONTINUOUS
 10
191.5876956671
 20
132.9719656609
  0
VERTEX
  8
0
 62
7
  6
CONTINUOUS
 10
191.5515571829
 20
132.9725068657
  0
VERTEX
  8
0
 62
7
  6
CONTINUOUS
 10
191.4683037099
 20
132.9732503458
  0
SEQEND
  0
LINE
  8
AXES
 62
7
  6
CONTINUOUS
 10
81.0454771125
 20
120.7015158009
 11
81.1756165899
 21
120.1872095937
  0
LINE
  8
0
 62
7
  6
CONTINUOUS
 10
81.0454770104
 20
120.7015162043
 11
81.7756165899
 21
117.8160326809
  0
LINE
  8
0
 62
7
  6
CONTINUOUS
 10
82.8689224624
 20
138.9152098398
 11
82.1347829849
 21
141.8165008059
  0
LINE
  8
AXES
 62
7
  6
CONTINUOUS
 10
93.7454771125
 20
120.7015158009
 11
93.8756165899
 21
120.1872095937
  0
LINE
  8
0
 62
7
  6
CONTINUOUS
 10
93.7454770104
 20
120.7015162043
 11
94.4756165899
 21
117.8160326809
  0
LINE
  8
0
 62
7
  6
CONTINUOUS
 10
93.7301997874
 20
127.0208183018
 11
93.7301997874
 21
120.8241687265
  0
LINE
  8
0
 62
7
  6
CONTINUOUS
 10
94.4801997874
 20
117.779236573
 11
94.4801997874
 21
114.3053446963
  0
LINE
  8
0
 62
7
  6
CONTINUOUS
 10
94.8301997874
 20
141.8532969138
 11
94.8301997874
 21
146.104834439
  0
LINE
  8
0
 62
7
  6
CONTINUOUS
 10
95.5841997874
 20
134.608834439
 11
95.5841997874
 21
138.7925561469
  0
LINE
  8
0
 62
7
  6
CONTINUOUS
 10
100.0761997874
 20
138.7925569144
 11
100.0761997874
 21
134.6088539264
  0
LINE
  8
0
 62
7
  6
CONTINUOUS
 10
100.8301997874
 20
141.8532969138
 11
100.8301997874
 21
146.104834439
  0
LINE
  8
0
 62
7
  6
CONTINUOUS
 10
101.1801997874
 20
114.3053446963
 11
101.1801997874
 21
117.779236573
  0
LINE
  8
0
 62
7
  6
CONTINUOUS
 10
101.9301997874
 20
120.8241694939
 11
101.9301997874
 21
127.020834439
  0
LINE
  8
0
 62
7
  6
CONTINUOUS
 10
100.8256165899
 20
141.8165008059
 11
100.0914770105
 21
138.9152094368
  0
LINE
  8
AXES
 62
7
  6
CONTINUOUS
 10
101.9149224624
 20
120.7015158009
 11
101.7847829849
 21
120.1872095937
  0
LINE
  8
0
 62
7
  6
CONTINUOUS
 10
101.1847829849
 20
117.8160326809
 11
101.9149225643
 21
120.7015162039
  0
LINE
  8
0
 62
7
  6
CONTINUOUS
 10
194.9399713319
 20
130.5234329352
 11
192.7856566985
 21
129.7533792934
  0
LINE
  8
0
 62
7
  6
CONTINUOUS
 10
95.5689224624
 20
138.9152098398
 11
94.8347829849
 21
141.8165008059
  0
LINE
  8
AXES
 62
7
  6
CONTINUOUS
 10
106.4454771125
 20
120.7015158009
 11
106.5756165899
 21
120.1872095937
  0
LINE
  8
0
 62
7
  6
CONTINUOUS
 10
106.4454770104
 20
120.7015162043
 11
107.1756165899
 21
117.8160326809
  0
LINE
  8
0
 62
7
  6
CONTINUOUS
 10
106.4301997874
 20
127.0208183018
 11
106.4301997874
 21
120.8241687265
  0
LINE
  8
0
 62
7
  6
CONTINUOUS
 10
107.1801997874
 20
117.779236573
 11
107.1801997874
 21
114.3053446963
  0
LINE
  8
0
 62
7
  6
CONTINUOUS
 10
107.5301997874
 20
141.8532969138
 11
107.5301997874
 21
146.104834439
  0
LINE
  8
0
 62
7
  6
CONTINUOUS
 10
108.2841997874
 20
134.608834439
 11
108.2841997874
 21
138.7925561469
  0
LINE
  8
0
 62
7
  6
CONTINUOUS
 10
112.7761997874
 20
138.7925569144
 11
112.7761997874
 21
134.6088539264
  0
LINE
  8
0
 62
7
  6
CONTINUOUS
 10
113.5301997874
 20
141.8532969138
 11
113.5301997874
 21
146.104834439
  0
LINE
  8
0
 62
7
  6
CONTINUOUS
 10
113.8801997874
 20
114.3053446963
 11
113.8801997874
 21
117.779236573
  0
LINE
  8
0
 62
7
  6
CONTINUOUS
 10
114.6301997874
 20
120.8241694939
 11
114.6301997874
 21
127.020834439
  0
LINE
  8
0
 62
7
  6
CONTINUOUS
 10
119.1301997874
 20
127.0208183018
 11
119.1301997874
 21
120.8241687265
  0
LINE
  8
0
 62
7
  6
CONTINUOUS
 10
113.5256165899
 20
141.8165008059
 11
112.7914770105
 21
138.9152094368
  0
LINE
  8
AXES
 62
7
  6
CONTINUOUS
 10
114.6149224624
 20
120.7015158009
 11
114.4847829849
 21
120.1872095937
  0
LINE
  8
0
 62
7
  6
CONTINUOUS
 10
113.8847829849
 20
117.8160326809
 11
114.6149225643
 21
120.7015162039
  0
LINE
  8
0
 62
7
  6
CONTINUOUS
 10
108.2689224624
 20
138.9152098398
 11
107.5347829849
 21
141.8165008059
  0
LINE
  8
AXES
 62
7
  6
CONTINUOUS
 10
119.1454771125
 20
120.7015158009
 11
119.2756165899
 21
120.1872095937
  0
LINE
  8
0
 62
7
  6
CONTINUOUS
 10
119.1454770104
 20
120.7015162043
 11
119.8756165899
 21
117.8160326809
  0
LINE
  8
0
 62
7
  6
CONTINUOUS
 10
119.8801997874
 20
117.779236573
 11
119.8801997874
 21
114.3053446963
  0
LINE
  8
0
 62
7
  6
CONTINUOUS
 10
120.2301997874
 20
141.8532969138
 11
120.2301997874
 21
146.104834439
  0
LINE
  8
0
 62
7
  6
CONTINUOUS
 10
120.9841997874
 20
134.608834439
 11
120.9841997874
 21
138.7925561469
  0
LINE
  8
0
 62
7
  6
CONTINUOUS
 10
125.4761997874
 20
138.7925569144
 11
125.4761997874
 21
134.6088539264
  0
LINE
  8
0
 62
7
  6
CONTINUOUS
 10
126.2301997874
 20
141.8532969138
 11
126.2301997874
 21
146.104834439
  0
LINE
  8
0
 62
7
  6
CONTINUOUS
 10
126.5801997874
 20
114.3053446963
 11
126.5801997874
 21
117.779236573
  0
LINE
  8
0
 62
7
  6
CONTINUOUS
 10
127.3301997874
 20
120.8241694939
 11
127.3301997874
 21
127.020834439
  0
LINE
  8
0
 62
7
  6
CONTINUOUS
 10
131.8301997874
 20
127.0208183018
 11
131.8301997874
 21
120.8241687265
  0
LINE
  8
0
 62
7
  6
CONTINUOUS
 10
132.5801997874
 20
117.779236573
 11
132.5801997874
 21
114.3053446963
  0
LINE
  8
0
 62
7
  6
CONTINUOUS
 10
132.9301997874
 20
141.8532969138
 11
132.9301997874
 21
146.104834439
  0
LINE
  8
0
 62
7
  6
CONTINUOUS
 10
126.2256165899
 20
141.8165008059
 11
125.4914770105
 21
138.9152094368
  0
LINE
  8
AXES
 62
7
  6
CONTINUOUS
 10
127.3149224624
 20
120.7015158009
 11
127.1847829849
 21
120.1872095937
  0
LINE
  8
0
 62
7
  6
CONTINUOUS
 10
126.5847829849
 20
117.8160326809
 11
127.3149225643
 21
120.7015162039
  0
LINE
  8
0
 62
7
  6
CONTINUOUS
 10
138.1914771125
 20
138.9152098398
 11
138.9256165899
 21
141.8165008059
  0
LINE
  8
0
 62
7
  6
CONTINUOUS
 10
120.9689224624
 20
138.9152098398
 11
120.2347829849
 21
141.8165008059
  0
LINE
  8
AXES
 62
7
  6
CONTINUOUS
 10
131.8454771125
 20
120.7015158009
 11
131.9756165899
 21
120.1872095937
  0
LINE
  8
0
 62
7
  6
CONTINUOUS
 10
131.8454770104
 20
120.7015162043
 11
132.5756165899
 21
117.8160326809
  0
LINE
  8
0
 62
7
  6
CONTINUOUS
 10
133.6841997874
 20
134.608834439
 11
133.6841997874
 21
138.7925561469
  0
LINE
  8
0
 62
7
  6
CONTINUOUS
 10
138.1761997874
 20
134.1548555216
 11
138.1761997874
 21
138.7925563185
  0
LINE
  8
0
 62
7
  6
CONTINUOUS
 10
138.9301997874
 20
141.8532969138
 11
138.9301997874
 21
146.104834439
  0
LINE
  8
0
 62
7
  6
CONTINUOUS
 10
139.6762141506
 20
113.7846125867
 11
139.6762141506
 21
117.779236573
  0
LINE
  8
0
 62
7
  6
CONTINUOUS
 10
140.4261997874
 20
120.8241127312
 11
140.4261997874
 21
127.020834439
  0
LINE
  8
0
 62
7
  6
CONTINUOUS
 10
144.9261997874
 20
126.6548172808
 11
144.9261997874
 21
120.8241119638
  0
LINE
  8
0
 62
7
  6
CONTINUOUS
 10
145.6761854243
 20
117.779236573
 11
145.6761854243
 21
113.7846125867
  0
LINE
  8
0
 62
7
  6
CONTINUOUS
 10
146.4221997874
 20
141.8532969138
 11
146.4221997874
 21
146.104834439
  0
LINE
  8
0
 62
7
  6
CONTINUOUS
 10
147.1761997874
 20
138.7925561142
 11
147.1761997874
 21
134.1548533291
  0
LINE
  8
AXES
 62
7
  6
CONTINUOUS
 10
140.2807973481
 20
120.1872095937
 11
140.4109224624
 21
120.7014590383
  0
LINE
  8
0
 62
7
  6
CONTINUOUS
 10
139.6807973481
 20
117.8160326809
 11
140.410922656
 21
120.7014598035
  0
LINE
  8
0
 62
7
  6
CONTINUOUS
 10
151.6954771125
 20
138.9152098398
 11
152.4296165899
 21
141.8165008059
  0
LINE
  8
0
 62
7
  6
CONTINUOUS
 10
133.6689224624
 20
138.9152098398
 11
132.9347829849
 21
141.8165008059
  0
LINE
  8
AXES
 62
7
  6
CONTINUOUS
 10
144.9414771125
 20
120.7014590383
 11
145.0716022267
 21
120.1872095937
  0
LINE
  8
0
 62
7
  6
CONTINUOUS
 10
144.9414770104
 20
120.7014594416
 11
145.6716022267
 21
117.8160326809
  0
LINE
  8
0
 62
7
  6
CONTINUOUS
 10
146.4267829849
 20
141.8165008059
 11
147.1609225121
 21
138.9152096434
  0
LINE
  8
0
 62
7
  6
CONTINUOUS
 10
151.6801997874
 20
134.1548555216
 11
151.6801997874
 21
138.7925563185
  0
LINE
  8
0
 62
7
  6
CONTINUOUS
 10
152.4341997874
 20
141.8532969138
 11
152.4341997874
 21
146.104834439
  0
LINE
  8
0
 62
7
  6
CONTINUOUS
 10
153.4302141506
 20
113.7907245314
 11
153.4302141506
 21
117.779236573
  0
LINE
  8
0
 62
7
  6
CONTINUOUS
 10
154.1801997874
 20
120.8241123518
 11
154.1801997874
 21
126.6548177075
  0
LINE
  8
0
 62
7
  6
CONTINUOUS
 10
158.6801997874
 20
120.8241127639
 11
158.6801997874
 21
126.6548173959
  0
LINE
  8
0
 62
7
  6
CONTINUOUS
 10
159.4301854243
 20
117.779236573
 11
159.4301854243
 21
113.7907245314
  0
LINE
  8
0
 62
7
  6
CONTINUOUS
 10
160.4261997874
 20
141.8532969138
 11
160.4261997874
 21
146.104834439
  0
LINE
  8
0
 62
7
  6
CONTINUOUS
 10
161.1801997874
 20
138.7925561142
 11
161.1801997874
 21
134.1548533291
  0
LINE
  8
AXES
 62
7
  6
CONTINUOUS
 10
154.0347973481
 20
120.1872095937
 11
154.1649224624
 21
120.7014590383
  0
LINE
  8
0
 62
7
  6
CONTINUOUS
 10
153.4347973481
 20
117.8160326809
 11
154.164922656
 21
120.7014598035
  0
LINE
  8
0
 62
7
  6
CONTINUOUS
 10
165.6954771125
 20
138.9152098398
 11
166.4296165899
 21
141.8165008059
  0
LINE
  8
AXES
 62
7
  6
CONTINUOUS
 10
158.6954771125
 20
120.7014590383
 11
158.8256022267
 21
120.1872095937
  0
LINE
  8
0
 62
7
  6
CONTINUOUS
 10
159.4256022267
 20
117.8160326809
 11
158.6954770628
 21
120.7014592347
  0
LINE
  8
0
 62
7
  6
CONTINUOUS
 10
160.4307829849
 20
141.8165008059
 11
161.1649225121
 21
138.9152096434
  0
LINE
  8
0
 62
7
  6
CONTINUOUS
 10
165.6801997874
 20
134.6548547045
 11
165.6801997874
 21
138.7925563185
  0
LINE
  8
0
 62
7
  6
CONTINUOUS
 10
166.4341997874
 20
141.8532969138
 11
166.4341997874
 21
146.104834439
  0
LINE
  8
0
 62
7
  6
CONTINUOUS
 10
167.9302141506
 20
113.7907245314
 11
167.9302141506
 21
117.779236573
  0
LINE
  8
0
 62
7
  6
CONTINUOUS
 10
168.6801997874
 20
126.6548162087
 11
168.6801997874
 21
120.8241125596
  0
LINE
  8
0
 62
7
  6
CONTINUOUS
 10
173.1801997874
 20
126.5048159566
 11
173.1801997874
 21
120.8241119638
  0
LINE
  8
0
 62
7
  6
CONTINUOUS
 10
173.9301854243
 20
117.779236573
 11
173.9301854243
 21
113.7907245314
  0
LINE
  8
0
 62
7
  6
CONTINUOUS
 10
175.4261997874
 20
141.8532969138
 11
175.4261997874
 21
146.104834439
  0
LINE
  8
0
 62
7
  6
CONTINUOUS
 10
168.6649224525
 20
120.7014589992
 11
167.9347973481
 21
117.8160326809
  0
LINE
  8
AXES
 62
7
  6
CONTINUOUS
 10
168.5347973481
 20
120.1872095937
 11
168.6649224624
 21
120.7014590383
  0
LINE
  8
0
 62
7
  6
CONTINUOUS
 10
180.6954749492
 20
138.9152057683
 11
181.4296172389
 21
141.8167230403
  0
LINE
  8
AXES
 62
7
  6
CONTINUOUS
 10
173.1954771125
 20
120.7014590383
 11
173.3256022267
 21
120.1872095937
  0
LINE
  8
0
 62
7
  6
CONTINUOUS
 10
173.1954770104
 20
120.7014594416
 11
173.9256022267
 21
117.8160326809
  0
LINE
  8
0
 62
7
  6
CONTINUOUS
 10
175.4307829849
 20
141.8165008059
 11
176.1649225121
 21
138.9152096434
  0
POLYLINE
  8
0
 62
7
  6
CONTINUOUS
 66
1
 70
0
  0
VERTEX
  8
0
 62
7
  6
CONTINUOUS
 10
183.7761997874
 20
134.9695725861
  0
VERTEX
  8
0
 62
7
  6
CONTINUOUS
 10
183.7870939695
 20
134.7613515818
  0
VERTEX
  8
0
 62
7
  6
CONTINUOUS
 10
183.8199121677
 20
134.5542399947
  0
VERTEX
  8
0
 62
7
  6
CONTINUOUS
 10
183.8742919749
 20
134.3517457106
  0
VERTEX
  8
0
 62
7
  6
CONTINUOUS
 10
183.949269507
 20
134.1569113711
  0
VERTEX
  8
0
 62
7
  6
CONTINUOUS
 10
184.0446602836
 20
133.9702123819
  0
VERTEX
  8
0
 62
7
  6
CONTINUOUS
 10
184.1595777307
 20
133.7939470179
  0
VERTEX
  8
0
 62
7
  6
CONTINUOUS
 10
184.2920713034
 20
133.6311589544
  0
VERTEX
  8
0
 62
7
  6
CONTINUOUS
 10
184.4400619298
 20
133.4839619674
  0
VERTEX
  8
0
 62
7
  6
CONTINUOUS
 10
184.6033864934
 20
133.3524511978
  0
VERTEX
  8
0
 62
7
  6
CONTINUOUS
 10
184.7798283705
 20
133.2386372057
  0
VERTEX
  8
0
 62
7
  6
CONTINUOUS
 10
184.9663421594
 20
133.1443332198
  0
VERTEX
  8
0
 62
7
  6
CONTINUOUS
 10
185.1607573339
 20
133.0702798599
  0
VERTEX
  8
0
 62
7
  6
CONTINUOUS
 10
185.3626298826
 20
133.0166106285
  0
VERTEX
  8
0
 62
7
  6
CONTINUOUS
 10
185.5689227677
 20
132.9842454203
  0
VERTEX
  8
0
 62
7
  6
CONTINUOUS
 10
185.7761997874
 20
132.973506225
  0
SEQEND
  0
LINE
  8
0
 62
7
  6
CONTINUOUS
 10
176.1801997874
 20
138.7925561142
 11
176.1801997874
 21
134.6548524565
  0
LINE
  8
0
 62
7
  6
CONTINUOUS
 10
180.6801997874
 20
134.554834439
 11
180.6801997874
 21
138.7925606246
  0
LINE
  8
0
 62
7
  6
CONTINUOUS
 10
181.4341997874
 20
141.8535165834
 11
181.4341997874
 21
146.104834439
  0
LINE
  8
0
 62
7
  6
CONTINUOUS
 10
183.5552141506
 20
113.7907245314
 11
183.5552141506
 21
117.779236573
  0
LINE
  8
0
 62
7
  6
CONTINUOUS
 10
183.7761997874
 20
134.9695725861
 11
183.7761997874
 21
137.8070721349
  0
LINE
  8
0
 62
7
  6
CONTINUOUS
 10
184.3051997874
 20
120.8241127312
 11
184.3051997874
 21
125.504834439
  0
LINE
  8
0
 62
7
  6
CONTINUOUS
 10
188.8051997874
 20
120.8241127639
 11
188.8051997874
 21
124.1034546957
  0
LINE
  8
0
 62
7
  6
CONTINUOUS
 10
189.5551854243
 20
117.779236573
 11
189.5551854243
 21
113.7907245314
  0
LINE
  8
AXES
 62
7
  6
CONTINUOUS
 10
184.1597973481
 20
120.1872095937
 11
184.2899224624
 21
120.7014590383
  0
LINE
  8
0
 62
7
  6
CONTINUOUS
 10
183.5597973481
 20
117.8160326809
 11
184.289922656
 21
120.7014598035
  0
LINE
  8
AXES
 62
7
  6
CONTINUOUS
 10
188.8204771125
 20
120.7014590383
 11
188.9506022267
 21
120.1872095937
  0
LINE
  8
0
 62
7
  6
CONTINUOUS
 10
189.5506022267
 20
117.8160326809
 11
188.8204770628
 21
120.7014592347
  0
LINE
  8
0
 62
7
  6
CONTINUOUS
 10
191.6761997874
 20
132.8163523778
 11
191.6761997874
 21
146.3641568468
  0
LINE
  8
0
 62
7
  6
CONTINUOUS
 10
196.9301997874
 20
133.3484081533
 11
196.9301997874
 21
144.7993061484
  0
LINE
  8
0
 62
7
  6
CONTINUOUS
 10
288.7165203652
 20
138.2009114736
 11
288.7165203652
 21
134.0375317022
  0
LINE
  8
SURFACE
 62
7
  6
CONTINUOUS
 10
310.7165203652
 20
112.754834439
 11
306.7165203652
 21
112.754834439
  0
LINE
  8
DEFAULT_1
 62
2
  6
CENTER
 10
313.9665203652
 20
117.104834439
 11
310.7166203652
 21
117.104834439
  0
LINE
  8
0
 62
2
  6
CONTINUOUS
 10
309.7665203652
 20
117.104834439
 11
307.6665203652
 21
117.104834439
  0
LINE
  8
DEFAULT_1
 62
2
  6
CENTER
 10
303.4665203652
 20
117.104834439
 11
306.7164203652
 21
117.104834439
  0
POLYLINE
  8
0
 62
7
  6
CONTINUOUS
 66
1
 70
0
  0
VERTEX
  8
0
 62
7
  6
CONTINUOUS
 10
302.7165203652
 20
141.3803469749
  0
VERTEX
  8
0
 62
7
  6
CONTINUOUS
 10
302.6700403896
 20
141.3369498322
  0
VERTEX
  8
0
 62
7
  6
CONTINUOUS
 10
302.6164720589
 20
141.2979852938
  0
VERTEX
  8
0
 62
7
  6
CONTINUOUS
 10
302.559807348
 20
141.2671525439
  0
VERTEX
  8
0
 62
7
  6
CONTINUOUS
 10
302.5013089255
 20
141.2449250865
  0
VERTEX
  8
0
 62
7
  6
CONTINUOUS
 10
302.4423796048
 20
141.231363547
  0
SEQEND
  0
POLYLINE
  8
0
 62
7
  6
CONTINUOUS
 66
1
 70
0
  0
VERTEX
  8
0
 62
7
  6
CONTINUOUS
 10
303.1352188564
 20
144.8549146192
  0
VERTEX
  8
0
 62
7
  6
CONTINUOUS
 10
303.0158483019
 20
144.5275623013
  0
VERTEX
  8
0
 62
7
  6
CONTINUOUS
 10
302.9076029984
 20
144.1611210431
  0
VERTEX
  8
0
 62
7
  6
CONTINUOUS
 10
302.8231209638
 20
143.7872012329
  0
VERTEX
  8
0
 62
7
  6
CONTINUOUS
 10
302.8136499848
 20
143.7274949094
  0
SEQEND
  0
LINE
  8
0
 62
7
  6
CONTINUOUS
 10
302.7165203652
 20
116.754834439
 11
302.7165203652
 21
142.854834439
  0
LINE
  8
0
 62
7
  6
CONTINUOUS
 10
308.7165203652
 20
129.020834439
 11
316.8008722262
 21
129.020834439
  0
LINE
  8
AXES
 62
7
  6
CONTINUOUS
 10
306.6165203652
 20
117.104834439
 11
306.6165203652
 21
125.154834439
  0
LINE
  8
0
 62
7
  6
CONTINUOUS
 10
302.7165203652
 20
133.173506225
 11
293.4095439813
 21
133.173506225
  0
LINE
  8
0
 62
7
  6
CONTINUOUS
 10
289.6990679587
 20
133.037684007
 11
302.3235013277
 21
132.8173237029
  0
LINE
  8
AXES
 62
2
  6
CENTER
 10
308.7165203652
 20
147.754834439
 11
308.7165203652
 21
146.604834439
  0
LINE
  8
AXES
 62
2
  6
CONTINUOUS
 10
308.7165203652
 20
143.554834439
 11
308.7165203652
 21
141.454834439
  0
LINE
  8
DEFAULT_1
 62
2
  6
CENTER
 10
308.7165203652
 20
122.354834439
 11
308.7165203652
 21
119.104934439
  0
LINE
  8
0
 62
2
  6
CONTINUOUS
 10
308.7165203652
 20
118.154834439
 11
308.7165203652
 21
116.054834439
  0
LINE
  8
DEFAULT_1
 62
2
  6
CENTER
 10
308.7165203652
 20
111.854834439
 11
308.7165203652
 21
115.104734439
  0
LINE
  8
AXES
 62
2
  6
CENTER
 10
308.7165203652
 20
137.254834439
 11
308.7165203652
 21
138.404834439
  0
LINE
  8
AXES
 62
7
  6
CONTINUOUS
 10
310.8165203652
 20
117.104834439
 11
310.8165203652
 21
125.154834439
  0
LINE
  8
0
 62
7
  6
CONTINUOUS
 10
293.4095439832
 20
139.5936647516
 11
302.7165203652
 21
139.5936647516
  0
LINE
  8
0
 62
7
  6
CONTINUOUS
 10
289.5599057414
 20
139.188571263
 11
302.4423796048
 21
141.231363547
  0
LINE
  8
AXES
 62
2
  6
CENTER
 10
313.9665203652
 20
142.504834439
 11
312.8165203652
 21
142.504834439
  0
LINE
  8
AXES
 62
2
  6
CONTINUOUS
 10
309.7665203652
 20
142.504834439
 11
307.6665203652
 21
142.504834439
  0
LINE
  8
AXES
 62
2
  6
CENTER
 10
303.4665203652
 20
142.504834439
 11
304.6165203652
 21
142.504834439
  0
LINE
  8
0
 62
7
  6
CONTINUOUS
 10
315.3723412136
 20
118.2236398608
 11
315.373588285
 21
118.2281167356
  0
LINE
  8
0
 62
7
  6
CONTINUOUS
 10
315.003914866
 20
116.9745213217
 11
315.0026697131
 21
116.9705237964
  0
POLYLINE
  8
0
 62
7
  6
CONTINUOUS
 66
1
 70
0
  0
VERTEX
  8
0
 62
7
  6
CONTINUOUS
 10
306.8365710366
 20
147.2993337801
  0
VERTEX
  8
0
 62
7
  6
CONTINUOUS
 10
306.6000235478
 20
147.2936272291
  0
VERTEX
  8
0
 62
7
  6
CONTINUOUS
 10
306.2724815306
 20
147.2660748984
  0
VERTEX
  8
0
 62
7
  6
CONTINUOUS
 10
305.9635162838
 20
147.2177207674
  0
VERTEX
  8
0
 62
7
  6
CONTINUOUS
 10
305.6725077995
 20
147.1505605385
  0
VERTEX
  8
0
 62
7
  6
CONTINUOUS
 10
305.3980582782
 20
147.0660810017
  0
VERTEX
  8
0
 62
7
  6
CONTINUOUS
 10
305.1388498685
 20
146.9653379629
  0
VERTEX
  8
0
 62
7
  6
CONTINUOUS
 10
304.89444315
 20
146.8493845416
  0
VERTEX
  8
0
 62
7
  6
CONTINUOUS
 10
304.6651929364
 20
146.719592168
  0
VERTEX
  8
0
 62
7
  6
CONTINUOUS
 10
304.4514423827
 20
146.5774787861
  0
VERTEX
  8
0
 62
7
  6
CONTINUOUS
 10
304.2534574013
 20
146.4247131897
  0
VERTEX
  8
0
 62
7
  6
CONTINUOUS
 10
304.071344982
 20
146.2630704667
  0
VERTEX
  8
0
 62
7
  6
CONTINUOUS
 10
303.9050669314
 20
146.0944353355
  0
VERTEX
  8
0
 62
7
  6
CONTINUOUS
 10
303.7543407777
 20
145.9206752426
  0
VERTEX
  8
0
 62
7
  6
CONTINUOUS
 10
303.6183024947
 20
145.7430842179
  0
VERTEX
  8
0
 62
7
  6
CONTINUOUS
 10
303.4959555519
 20
145.5626656978
  0
VERTEX
  8
0
 62
7
  6
CONTINUOUS
 10
303.3863246364
 20
145.3802737226
  0
VERTEX
  8
0
 62
7
  6
CONTINUOUS
 10
303.2884610116
 20
145.1966152802
  0
VERTEX
  8
0
 62
7
  6
CONTINUOUS
 10
303.2014380994
 20
145.0122199882
  0
VERTEX
  8
0
 62
7
  6
CONTINUOUS
 10
303.1352190539
 20
144.8549145404
  0
SEQEND
  0
LINE
  8
0
 62
7
  6
CONTINUOUS
 10
310.7165203652
 20
146.854834439
 11
306.7165203652
 21
146.854834439
  0
POLYLINE
  8
0
 62
7
  6
CONTINUOUS
 66
1
 70
0
  0
VERTEX
  8
0
 62
7
  6
CONTINUOUS
 10
314.2302335063
 20
144.860089522
  0
VERTEX
  8
0
 62
7
  6
CONTINUOUS
 10
314.1537999396
 20
145.0253162454
  0
VERTEX
  8
0
 62
7
  6
CONTINUOUS
 10
314.0548910366
 20
145.2197409829
  0
VERTEX
  8
0
 62
7
  6
CONTINUOUS
 10
313.9454875497
 20
145.4133333024
  0
VERTEX
  8
0
 62
7
  6
CONTINUOUS
 10
313.8247075684
 20
145.6051866366
  0
VERTEX
  8
0
 62
7
  6
CONTINUOUS
 10
313.6916918388
 20
145.7942346461
  0
VERTEX
  8
0
 62
7
  6
CONTINUOUS
 10
313.5455804985
 20
145.9793102753
  0
VERTEX
  8
0
 62
7
  6
CONTINUOUS
 10
313.3855238045
 20
146.1591327845
  0
VERTEX
  8
0
 62
7
  6
CONTINUOUS
 10
313.2106930565
 20
146.3322997385
  0
VERTEX
  8
0
 62
7
  6
CONTINUOUS
 10
313.0202802144
 20
146.4972894643
  0
VERTEX
  8
0
 62
7
  6
CONTINUOUS
 10
312.8135882161
 20
146.6523978704
  0
VERTEX
  8
0
 62
7
  6
CONTINUOUS
 10
312.5904214915
 20
146.7955511199
  0
VERTEX
  8
0
 62
7
  6
CONTINUOUS
 10
312.3508313749
 20
146.9246559497
  0
VERTEX
  8
0
 62
7
  6
CONTINUOUS
 10
312.0949593415
 20
147.037724963
  0
VERTEX
  8
0
 62
7
  6
CONTINUOUS
 10
311.8228333066
 20
147.1329206172
  0
VERTEX
  8
0
 62
7
  6
CONTINUOUS
 10
311.5342391101
 20
147.2084813136
  0
VERTEX
  8
0
 62
7
  6
CONTINUOUS
 10
311.2289783031
 20
147.2625401607
  0
VERTEX
  8
0
 62
7
  6
CONTINUOUS
 10
310.9079112101
 20
147.2930344507
  0
VERTEX
  8
0
 62
7
  6
CONTINUOUS
 10
310.6767131511
 20
147.2993339819
  0
SEQEND
  0
POLYLINE
  8
0
 62
7
  6
CONTINUOUS
 66
1
 70
0
  0
VERTEX
  8
0
 62
7
  6
CONTINUOUS
 10
314.387927992
 20
144.4674673169
  0
VERTEX
  8
0
 62
7
  6
CONTINUOUS
 10
314.3428370108
 20
144.5881724378
  0
VERTEX
  8
0
 62
7
  6
CONTINUOUS
 10
314.2824733021
 20
144.7385875702
  0
VERTEX
  8
0
 62
7
  6
CONTINUOUS
 10
314.2302337972
 20
144.8600896509
  0
SEQEND
  0
LINE
  8
0
 62
7
  6
CONTINUOUS
 10
314.3882000557
 20
144.4667143239
 11
314.3879279813
 21
144.4674672419
  0
LINE
  8
0
 62
7
  6
CONTINUOUS
 10
315.5921164204
 20
140.5661106118
 11
315.5910411208
 21
140.5702851901
  0
LINE
  8
0
 62
7
  6
CONTINUOUS
 10
316.0277310079
 20
138.7048134198
 11
316.026977109
 21
138.7083892238
  0
LINE
  8
0
 62
7
  6
CONTINUOUS
 10
316.358543085
 20
136.9578038952
 11
316.3581174458
 21
136.9603355608
  0
LINE
  8
0
 62
7
  6
CONTINUOUS
 10
316.5741772043
 20
135.5290564851
 11
316.5736157904
 21
135.5332495364
  0
LINE
  8
0
 62
7
  6
CONTINUOUS
 10
306.8354211309
 20
147.299332775
 11
310.6759656371
 21
147.2993328122
  0
LINE
  8
0
 62
7
  6
CONTINUOUS
 10
310.6776381086
 20
147.2993327673
 11
310.6767349481
 21
147.2993327997
  0
POLYLINE
  8
AXES
 62
7
  6
CONTINUOUS
 66
1
 70
0
  0
VERTEX
  8
AXES
 62
7
  6
CONTINUOUS
 10
167.8120310267
 20
217.4595899979
  0
VERTEX
  8
AXES
 62
7
  6
CONTINUOUS
 10
167.6794920072
 20
217.4251793837
  0
VERTEX
  8
AXES
 62
7
  6
CONTINUOUS
 10
167.5458738916
 20
217.3796721613
  0
VERTEX
  8
AXES
 62
7
  6
CONTINUOUS
 10
167.4132313802
 20
217.3246378147
  0
VERTEX
  8
AXES
 62
7
  6
CONTINUOUS
 10
167.2838511397
 20
217.2623891425
  0
VERTEX
  8
AXES
 62
7
  6
CONTINUOUS
 10
167.1598876806
 20
217.1956141052
  0
VERTEX
  8
AXES
 62
7
  6
CONTINUOUS
 10
167.0449904316
 20
217.1281201436
  0
VERTEX
  8
AXES
 62
7
  6
CONTINUOUS
 10
166.9423415364
 20
217.0636847358
  0
VERTEX
  8
AXES
 62
7
  6
CONTINUOUS
 10
166.8542677494
 20
217.005515346
  0
VERTEX
  8
AXES
 62
7
  6
CONTINUOUS
 10
166.7817833286
 20
216.9557211194
  0
VERTEX
  8
AXES
 62
7
  6
CONTINUOUS
 10
166.7244042431
 20
216.9150402147
  0
VERTEX
  8
AXES
 62
7
  6
CONTINUOUS
 10
166.6813032953
 20
216.8836250829
  0
VERTEX
  8
AXES
 62
7
  6
CONTINUOUS
 10
166.6514988537
 20
216.8612440763
  0
VERTEX
  8
AXES
 62
7
  6
CONTINUOUS
 10
166.6346482455
 20
216.8479419422
  0
VERTEX
  8
AXES
 62
7
  6
CONTINUOUS
 10
166.6301997926
 20
216.8436534643
  0
SEQEND
  0
POLYLINE
  8
0
 62
7
  6
CONTINUOUS
 66
1
 70
0
  0
VERTEX
  8
0
 62
7
  6
CONTINUOUS
 10
167.1435833666
 20
212.9910536309
  0
VERTEX
  8
0
 62
7
  6
CONTINUOUS
 10
167.2424105254
 20
213.0077717131
  0
VERTEX
  8
0
 62
7
  6
CONTINUOUS
 10
167.3503218355
 20
213.0248000943
  0
VERTEX
  8
0
 62
7
  6
CONTINUOUS
 10
167.4658524935
 20
213.0411538444
  0
VERTEX
  8
0
 62
7
  6
CONTINUOUS
 10
167.5874012591
 20
213.0559202692
  0
VERTEX
  8
0
 62
7
  6
CONTINUOUS
 10
167.7133762663
 20
213.0683275916
  0
VERTEX
  8
0
 62
7
  6
CONTINUOUS
 10
167.8425627702
 20
213.0778003369
  0
VERTEX
  8
0
 62
7
  6
CONTINUOUS
 10
167.9742054343
 20
213.0839357651
  0
VERTEX
  8
0
 62
7
  6
CONTINUOUS
 10
168.1075036505
 20
213.0864500946
  0
SEQEND
  0
LINE
  8
0
 62
7
  6
CONTINUOUS
 10
184.7761997874
 20
198.9435699995
 11
193.4947120008
 21
198.9435699995
  0
LINE
  8
AXES
 62
7
  6
CONTINUOUS
 10
44.0301997874
 20
213.6935409429
 11
44.0301997874
 21
216.9471985779
  0
LINE
  8
AXES
 62
7
  6
CONTINUOUS
 10
44.0301997874
 20
216.9595849165
 11
44.0301997874
 21
220.9275550825
  0
LINE
  8
AXES
 62
7
  6
CONTINUOUS
 10
44.0301997874
 20
220.9399414212
 11
44.0301997874
 21
224.6847122142
  0
LINE
  8
0
 62
7
  6
CONTINUOUS
 10
44.7841997874
 20
213.0935699995
 11
44.7841997874
 21
227.0320535065
  0
POLYLINE
  8
AXES
 62
7
  6
CONTINUOUS
 66
1
 70
0
  0
VERTEX
  8
AXES
 62
7
  6
CONTINUOUS
 10
44.3919894909
 20
218.9435699995
  0
VERTEX
  8
AXES
 62
7
  6
CONTINUOUS
 10
44.3892494451
 20
218.7305848428
  0
VERTEX
  8
AXES
 62
7
  6
CONTINUOUS
 10
44.381048745
 20
218.5196270369
  0
VERTEX
  8
AXES
 62
7
  6
CONTINUOUS
 10
44.3674463116
 20
218.3127247224
  0
VERTEX
  8
AXES
 62
7
  6
CONTINUOUS
 10
44.3485425327
 20
218.1119079062
  0
VERTEX
  8
AXES
 62
7
  6
CONTINUOUS
 10
44.3244821567
 20
217.9192029512
  0
VERTEX
  8
AXES
 62
7
  6
CONTINUOUS
 10
44.2954580019
 20
217.7366238467
  0
VERTEX
  8
AXES
 62
7
  6
CONTINUOUS
 10
44.2617149726
 20
217.5661566972
  0
VERTEX
  8
AXES
 62
7
  6
CONTINUOUS
 10
44.2235535188
 20
217.4097358513
  0
VERTEX
  8
AXES
 62
7
  6
CONTINUOUS
 10
44.1813323735
 20
217.269214567
  0
VERTEX
  8
AXES
 62
7
  6
CONTINUOUS
 10
44.1354698255
 20
217.1463294367
  0
VERTEX
  8
AXES
 62
7
  6
CONTINUOUS
 10
44.0864427146
 20
217.0426596916
  0
VERTEX
  8
AXES
 62
7
  6
CONTINUOUS
 10
44.0347829849
 20
216.9595849165
  0
SEQEND
  0
LINE
  8
0
 62
7
  6
CONTINUOUS
 10
44.0309691696
 20
224.7205833511
 11
44.0302002957
 21
224.6847122272
  0
POLYLINE
  8
AXES
 62
7
  6
CONTINUOUS
 66
1
 70
0
  0
VERTEX
  8
AXES
 62
7
  6
CONTINUOUS
 10
44.0347829849
 20
216.9595849165
  0
VERTEX
  8
AXES
 62
7
  6
CONTINUOUS
 10
44.0313485011
 20
216.9533408894
  0
VERTEX
  8
AXES
 62
7
  6
CONTINUOUS
 10
44.0301997874
 20
216.9471985779
  0
SEQEND
  0
POLYLINE
  8
0
 62
7
  6
CONTINUOUS
 66
1
 70
0
  0
VERTEX
  8
0
 62
7
  6
CONTINUOUS
 10
44.6108338518
 20
225.9736020675
  0
VERTEX
  8
0
 62
7
  6
CONTINUOUS
 10
44.5877288883
 20
225.9490036515
  0
VERTEX
  8
0
 62
7
  6
CONTINUOUS
 10
44.5655227989
 20
225.9243722162
  0
VERTEX
  8
0
 62
7
  6
CONTINUOUS
 10
44.5440886762
 20
225.8996601973
  0
VERTEX
  8
0
 62
7
  6
CONTINUOUS
 10
44.5232973
 20
225.874791318
  0
VERTEX
  8
0
 62
7
  6
CONTINUOUS
 10
44.5030324173
 20
225.8496803252
  0
VERTEX
  8
0
 62
7
  6
CONTINUOUS
 10
44.4831873849
 20
225.8242350078
  0
VERTEX
  8
0
 62
7
  6
CONTINUOUS
 10
44.4637108789
 20
225.7984175311
  0
VERTEX
  8
0
 62
7
  6
CONTINUOUS
 10
44.4445947142
 20
225.7722381679
  0
VERTEX
  8
0
 62
7
  6
CONTINUOUS
 10
44.425833138
 20
225.7457098847
  0
VERTEX
  8
0
 62
7
  6
CONTINUOUS
 10
44.4074144522
 20
225.7188341349
  0
VERTEX
  8
0
 62
7
  6
CONTINUOUS
 10
44.3893332958
 20
225.6916167267
  0
VERTEX
  8
0
 62
7
  6
CONTINUOUS
 10
44.3715855129
 20
225.6640651851
  0
VERTEX
  8
0
 62
7
  6
CONTINUOUS
 10
44.3541613223
 20
225.6361744428
  0
VERTEX
  8
0
 62
7
  6
CONTINUOUS
 10
44.337058286
 20
225.6079469279
  0
VERTEX
  8
0
 62
7
  6
CONTINUOUS
 10
44.320272054
 20
225.5793819322
  0
VERTEX
  8
0
 62
7
  6
CONTINUOUS
 10
44.3037957962
 20
225.5504684217
  0
VERTEX
  8
0
 62
7
  6
CONTINUOUS
 10
44.2876314984
 20
225.5212088846
  0
VERTEX
  8
0
 62
7
  6
CONTINUOUS
 10
44.2717756225
 20
225.4915934553
  0
VERTEX
  8
0
 62
7
  6
CONTINUOUS
 10
44.256231206
 20
225.4616183909
  0
VERTEX
  8
0
 62
7
  6
CONTINUOUS
 10
44.2409989157
 20
225.4312754771
  0
VERTEX
  8
0
 62
7
  6
CONTINUOUS
 10
44.2260794887
 20
225.4005479415
  0
VERTEX
  8
0
 62
7
  6
CONTINUOUS
 10
44.2114777128
 20
225.3694262089
  0
VERTEX
  8
0
 62
7
  6
CONTINUOUS
 10
44.197193978
 20
225.3378816957
  0
VERTEX
  8
0
 62
7
  6
CONTINUOUS
 10
44.1832362509
 20
225.3058982137
  0
VERTEX
  8
0
 62
7
  6
CONTINUOUS
 10
44.1696066582
 20
225.2734344896
  0
VERTEX
  8
0
 62
7
  6
CONTINUOUS
 10
44.156316355
 20
225.2404624715
  0
VERTEX
  8
0
 62
7
  6
CONTINUOUS
 10
44.143371876
 20
225.2069253045
  0
VERTEX
  8
0
 62
7
  6
CONTINUOUS
 10
44.1307989741
 20
225.1728047652
  0
VERTEX
  8
0
 62
7
  6
CONTINUOUS
 10
44.1186350555
 20
225.1380938929
  0
VERTEX
  8
0
 62
7
  6
CONTINUOUS
 10
44.1069205095
 20
225.1027868789
  0
VERTEX
  8
0
 62
7
  6
CONTINUOUS
 10
44.0957038066
 20
225.0668761216
  0
VERTEX
  8
0
 62
7
  6
CONTINUOUS
 10
44.0850321518
 20
225.0303248295
  0
VERTEX
  8
0
 62
7
  6
CONTINUOUS
 10
44.0749650078
 20
224.9931025669
  0
VERTEX
  8
0
 62
7
  6
CONTINUOUS
 10
44.0655780853
 20
224.9551793628
  0
VERTEX
  8
0
 62
7
  6
CONTINUOUS
 10
44.0569839971
 20
224.9166218342
  0
VERTEX
  8
0
 62
7
  6
CONTINUOUS
 10
44.0493147721
 20
224.8775496359
  0
VERTEX
  8
0
 62
7
  6
CONTINUOUS
 10
44.0427173144
 20
224.8381266198
  0
VERTEX
  8
0
 62
7
  6
CONTINUOUS
 10
44.0373538076
 20
224.7985938616
  0
VERTEX
  8
0
 62
7
  6
CONTINUOUS
 10
44.0333865208
 20
224.7592507037
  0
VERTEX
  8
0
 62
7
  6
CONTINUOUS
 10
44.0309691696
 20
224.7205833511
  0
SEQEND
  0
POLYLINE
  8
0
 62
7
  6
CONTINUOUS
 66
1
 70
0
  0
VERTEX
  8
0
 62
7
  6
CONTINUOUS
 10
44.6790758594
 20
226.0402835432
  0
VERTEX
  8
0
 62
7
  6
CONTINUOUS
 10
44.660286443
 20
226.0228022891
  0
VERTEX
  8
0
 62
7
  6
CONTINUOUS
 10
44.6349690685
 20
225.9981955903
  0
VERTEX
  8
0
 62
7
  6
CONTINUOUS
 10
44.6108338518
 20
225.9736020675
  0
SEQEND
  0
POLYLINE
  8
0
 62
7
  6
CONTINUOUS
 66
1
 70
0
  0
VERTEX
  8
0
 62
7
  6
CONTINUOUS
 10
51.029213526
 20
226.0456837397
  0
VERTEX
  8
0
 62
7
  6
CONTINUOUS
 10
51.0110944203
 20
226.028878884
  0
VERTEX
  8
0
 62
7
  6
CONTINUOUS
 10
50.9857367068
 20
226.0043225401
  0
VERTEX
  8
0
 62
7
  6
CONTINUOUS
 10
50.9615658193
 20
225.9797771707
  0
VERTEX
  8
0
 62
7
  6
CONTINUOUS
 10
50.9384292117
 20
225.9552256021
  0
VERTEX
  8
0
 62
7
  6
CONTINUOUS
 10
50.9161951045
 20
225.9306400989
  0
VERTEX
  8
0
 62
7
  6
CONTINUOUS
 10
50.8947374728
 20
225.9059749341
  0
VERTEX
  8
0
 62
7
  6
CONTINUOUS
 10
50.873927199
 20
225.881155411
  0
VERTEX
  8
0
 62
7
  6
CONTINUOUS
 10
50.8536472793
 20
225.8560961694
  0
VERTEX
  8
0
 62
7
  6
CONTINUOUS
 10
50.8337919151
 20
225.830706711
  0
VERTEX
  8
0
 62
7
  6
CONTINUOUS
 10
50.8143105143
 20
225.8049514246
  0
VERTEX
  8
0
 62
7
  6
CONTINUOUS
 10
50.795192853
 20
225.7788384257
  0
VERTEX
  8
0
 62
7
  6
CONTINUOUS
 10
50.7764329939
 20
225.7523805552
  0
VERTEX
  8
0
 62
7
  6
CONTINUOUS
 10
50.7580193189
 20
225.725580416
  0
VERTEX
  8
0
 62
7
  6
CONTINUOUS
 10
50.7399442799
 20
225.6984409129
  0
VERTEX
  8
0
 62
7
  6
CONTINUOUS
 10
50.7222038944
 20
225.670969674
  0
VERTEX
  8
0
 62
7
  6
CONTINUOUS
 10
50.7047879667
 20
225.6431619595
  0
VERTEX
  8
0
 62
7
  6
CONTINUOUS
 10
50.6876921948
 20
225.6150170014
  0
VERTEX
  8
0
 62
7
  6
CONTINUOUS
 10
50.670913039
 20
225.5865352783
  0
VERTEX
  8
0
 62
7
  6
CONTINUOUS
 10
50.6544420923
 20
225.5577038102
  0
VERTEX
  8
0
 62
7
  6
CONTINUOUS
 10
50.6382812183
 20
225.5285240091
  0
VERTEX
  8
0
 62
7
  6
CONTINUOUS
 10
50.6224281549
 20
225.4989889832
  0
VERTEX
  8
0
 62
7
  6
CONTINUOUS
 10
50.6068843882
 20
225.469091835
  0
VERTEX
  8
0
 62
7
  6
CONTINUOUS
 10
50.5916524772
 20
225.43882791
  0
VERTEX
  8
0
 62
7
  6
CONTINUOUS
 10
50.5767316974
 20
225.4081782068
  0
VERTEX
  8
0
 62
7
  6
CONTINUOUS
 10
50.562128105
 20
225.3771352113
  0
VERTEX
  8
0
 62
7
  6
CONTINUOUS
 10
50.5478413233
 20
225.3456699273
  0
VERTEX
  8
0
 62
7
  6
CONTINUOUS
 10
50.5338800658
 20
225.3137671999
  0
VERTEX
  8
0
 62
7
  6
CONTINUOUS
 10
50.5202459083
 20
225.28138618
  0
VERTEX
  8
0
 62
7
  6
CONTINUOUS
 10
50.5069506811
 20
225.2484999692
  0
VERTEX
  8
0
 62
7
  6
CONTINUOUS
 10
50.4940000396
 20
225.2150517549
  0
VERTEX
  8
0
 62
7
  6
CONTINUOUS
 10
50.4814206947
 20
225.1810258499
  0
VERTEX
  8
0
 62
7
  6
CONTINUOUS
 10
50.4692480281
 20
225.1464119707
  0
VERTEX
  8
0
 62
7
  6
CONTINUOUS
 10
50.4575239202
 20
225.1112103754
  0
VERTEX
  8
0
 62
7
  6
CONTINUOUS
 10
50.4462947313
 20
225.0754086051
  0
VERTEX
  8
0
 62
7
  6
CONTINUOUS
 10
50.435607009
 20
225.0389722865
  0
VERTEX
  8
0
 62
7
  6
CONTINUOUS
 10
50.4255205077
 20
225.001875163
  0
VERTEX
  8
0
 62
7
  6
CONTINUOUS
 10
50.4161085388
 20
224.9640839076
  0
VERTEX
  8
0
 62
7
  6
CONTINUOUS
 10
50.4074817762
 20
224.9256654479
  0
VERTEX
  8
0
 62
7
  6
CONTINUOUS
 10
50.3997704989
 20
224.8867421351
  0
VERTEX
  8
0
 62
7
  6
CONTINUOUS
 10
50.3931189395
 20
224.8474747304
  0
VERTEX
  8
0
 62
7
  6
CONTINUOUS
 10
50.3876853388
 20
224.8080953344
  0
VERTEX
  8
0
 62
7
  6
CONTINUOUS
 10
50.3836285236
 20
224.7688942404
  0
VERTEX
  8
0
 62
7
  6
CONTINUOUS
 10
50.3810999137
 20
224.7303382135
  0
VERTEX
  8
0
 62
7
  6
CONTINUOUS
 10
50.3802002706
 20
224.6914818397
  0
SEQEND
  0
POLYLINE
  8
0
 62
7
  6
CONTINUOUS
 66
1
 70
0
  0
VERTEX
  8
0
 62
7
  6
CONTINUOUS
 10
44.7728446168
 20
226.1241943271
  0
VERTEX
  8
0
 62
7
  6
CONTINUOUS
 10
44.7219852964
 20
226.0790986165
  0
VERTEX
  8
0
 62
7
  6
CONTINUOUS
 10
44.6790729719
 20
226.0402802315
  0
SEQEND
  0
POLYLINE
  8
0
 62
7
  6
CONTINUOUS
 66
1
 70
0
  0
VERTEX
  8
0
 62
7
  6
CONTINUOUS
 10
63.8202571804
 20
226.1269971056
  0
VERTEX
  8
0
 62
7
  6
CONTINUOUS
 10
63.7707612821
 20
226.0831835696
  0
VERTEX
  8
0
 62
7
  6
CONTINUOUS
 10
63.7292104846
 20
226.0456802255
  0
SEQEND
  0
POLYLINE
  8
0
 62
7
  6
CONTINUOUS
 66
1
 70
0
  0
VERTEX
  8
0
 62
7
  6
CONTINUOUS
 10
51.1209111291
 20
226.1275697252
  0
VERTEX
  8
0
 62
7
  6
CONTINUOUS
 10
51.0714142125
 20
226.0837676245
  0
VERTEX
  8
0
 62
7
  6
CONTINUOUS
 10
51.029210483
 20
226.0456802207
  0
SEQEND
  0
LINE
  8
0
 62
7
  6
CONTINUOUS
 10
44.7841997874
 20
226.1340582316
 11
44.7728446168
 21
226.1241943271
  0
LINE
  8
0
 62
7
  6
CONTINUOUS
 10
63.8625544462
 20
226.1636990737
 11
63.8202571804
 21
226.1269971056
  0
LINE
  8
0
 62
7
  6
CONTINUOUS
 10
51.1625544457
 20
226.1636990732
 11
51.1209111291
 21
226.1275697252
  0
POLYLINE
  8
0
 62
7
  6
CONTINUOUS
 66
1
 70
0
  0
VERTEX
  8
0
 62
7
  6
CONTINUOUS
 10
166.8211543337
 20
212.9435699995
  0
VERTEX
  8
0
 62
7
  6
CONTINUOUS
 10
166.8610508708
 20
212.9458571301
  0
VERTEX
  8
0
 62
7
  6
CONTINUOUS
 10
166.9132744445
 20
212.9523162123
  0
VERTEX
  8
0
 62
7
  6
CONTINUOUS
 10
166.9781299749
 20
212.9624607719
  0
VERTEX
  8
0
 62
7
  6
CONTINUOUS
 10
167.1435833666
 20
212.9910536309
  0
SEQEND
  0
LINE
  8
0
 62
7
  6
CONTINUOUS
 10
191.3761997874
 20
203.6364472975
 11
191.3435272216
 21
203.6364243674
  0
LINE
  8
0
 62
7
  6
CONTINUOUS
 10
191.3761997874
 20
203.602860259
 11
185.7761997874
 21
203.602860259
  0
LINE
  8
0
 62
7
  6
CONTINUOUS
 10
191.2262003409
 20
203.8957204508
 11
183.7761997874
 21
203.8957204508
  0
LINE
  8
SURFACE
 62
7
  6
CONTINUOUS
 10
131.8301997874
 20
212.9435699995
 11
127.3301997874
 21
212.9435699995
  0
LINE
  8
SURFACE
 62
7
  6
CONTINUOUS
 10
119.1301997874
 20
212.9435699995
 11
114.6301997874
 21
212.9435699995
  0
LINE
  8
SURFACE
 62
7
  6
CONTINUOUS
 10
93.7301997874
 20
212.9435699995
 11
89.2301997874
 21
212.9435699995
  0
LINE
  8
SURFACE
 62
7
  6
CONTINUOUS
 10
81.0301997874
 20
212.9435699995
 11
76.5301997874
 21
212.9435699995
  0
LINE
  8
SURFACE
 62
7
  6
CONTINUOUS
 10
68.3301997874
 20
212.9435699995
 11
63.8301997874
 21
212.9435699995
  0
LINE
  8
SURFACE
 62
7
  6
CONTINUOUS
 10
55.6301997874
 20
212.9435699995
 11
51.1301997874
 21
212.9435699995
  0
LINE
  8
0
 62
7
  6
CONTINUOUS
 10
44.7802004534
 20
212.9435699995
 11
196.7801997874
 21
212.9435699995
  0
POLYLINE
  8
AXES
 62
7
  6
CONTINUOUS
 66
1
 70
0
  0
VERTEX
  8
AXES
 62
7
  6
CONTINUOUS
 10
44.0347829849
 20
220.9275550825
  0
VERTEX
  8
AXES
 62
7
  6
CONTINUOUS
 10
44.0864426985
 20
220.8444803374
  0
VERTEX
  8
AXES
 62
7
  6
CONTINUOUS
 10
44.1354698438
 20
220.7408105187
  0
VERTEX
  8
AXES
 62
7
  6
CONTINUOUS
 10
44.1813324441
 20
220.6179252209
  0
VERTEX
  8
AXES
 62
7
  6
CONTINUOUS
 10
44.2235536488
 20
220.4774036673
  0
VERTEX
  8
AXES
 62
7
  6
CONTINUOUS
 10
44.2617151558
 20
220.3209824686
  0
VERTEX
  8
AXES
 62
7
  6
CONTINUOUS
 10
44.2954582176
 20
220.1505149386
  0
VERTEX
  8
AXES
 62
7
  6
CONTINUOUS
 10
44.3244823775
 20
219.9679354865
  0
VERTEX
  8
AXES
 62
7
  6
CONTINUOUS
 10
44.3485427279
 20
219.7752303039
  0
VERTEX
  8
AXES
 62
7
  6
CONTINUOUS
 10
44.3674464555
 20
219.574413471
  0
VERTEX
  8
AXES
 62
7
  6
CONTINUOUS
 10
44.3810488257
 20
219.3675114146
  0
VERTEX
  8
AXES
 62
7
  6
CONTINUOUS
 10
44.3892494696
 20
219.1565542044
  0
VERTEX
  8
AXES
 62
7
  6
CONTINUOUS
 10
44.3919894909
 20
218.9435699995
  0
SEQEND
  0
POLYLINE
  8
AXES
 62
7
  6
CONTINUOUS
 66
1
 70
0
  0
VERTEX
  8
AXES
 62
7
  6
CONTINUOUS
 10
44.0301997874
 20
220.9399414212
  0
VERTEX
  8
AXES
 62
7
  6
CONTINUOUS
 10
44.0313485011
 20
220.9337991097
  0
VERTEX
  8
AXES
 62
7
  6
CONTINUOUS
 10
44.0347829849
 20
220.9275550825
  0
SEQEND
  0
POLYLINE
  8
0
 62
7
  6
CONTINUOUS
 66
1
 70
0
  0
VERTEX
  8
0
 62
7
  6
CONTINUOUS
 10
56.3801988035
 20
224.6914818366
  0
VERTEX
  8
0
 62
7
  6
CONTINUOUS
 10
56.3793053483
 20
224.7302180814
  0
VERTEX
  8
0
 62
7
  6
CONTINUOUS
 10
56.3767573989
 20
224.7690575027
  0
VERTEX
  8
0
 62
7
  6
CONTINUOUS
 10
56.3726741401
 20
224.8084250502
  0
VERTEX
  8
0
 62
7
  6
CONTINUOUS
 10
56.3672536006
 20
224.8476472792
  0
VERTEX
  8
0
 62
7
  6
CONTINUOUS
 10
56.3607080553
 20
224.8863122005
  0
VERTEX
  8
0
 62
7
  6
CONTINUOUS
 10
56.3532072824
 20
224.9242970731
  0
VERTEX
  8
0
 62
7
  6
CONTINUOUS
 10
56.3448736855
 20
224.9616191638
  0
VERTEX
  8
0
 62
7
  6
CONTINUOUS
 10
56.3358039517
 20
224.9983120012
  0
VERTEX
  8
0
 62
7
  6
CONTINUOUS
 10
56.3260794333
 20
225.0344016007
  0
VERTEX
  8
0
 62
7
  6
CONTINUOUS
 10
56.3157745424
 20
225.0698828966
  0
VERTEX
  8
0
 62
7
  6
CONTINUOUS
 10
56.3049323375
 20
225.1048175047
  0
VERTEX
  8
0
 62
7
  6
CONTINUOUS
 10
56.2935690244
 20
225.1393152354
  0
VERTEX
  8
0
 62
7
  6
CONTINUOUS
 10
56.2816968395
 20
225.1734507782
  0
VERTEX
  8
0
 62
7
  6
CONTINUOUS
 10
56.2693163533
 20
225.2073051562
  0
VERTEX
  8
0
 62
7
  6
CONTINUOUS
 10
56.2564326565
 20
225.2409246236
  0
VERTEX
  8
0
 62
7
  6
CONTINUOUS
 10
56.2430388381
 20
225.2743646555
  0
VERTEX
  8
0
 62
7
  6
CONTINUOUS
 10
56.229128364
 20
225.3076694033
  0
VERTEX
  8
0
 62
7
  6
CONTINUOUS
 10
56.2146893985
 20
225.3408764586
  0
VERTEX
  8
0
 62
7
  6
CONTINUOUS
 10
56.1997100763
 20
225.3740177936
  0
VERTEX
  8
0
 62
7
  6
CONTINUOUS
 10
56.1841771275
 20
225.4071134041
  0
VERTEX
  8
0
 62
7
  6
CONTINUOUS
 10
56.1680765848
 20
225.4401814132
  0
VERTEX
  8
0
 62
7
  6
CONTINUOUS
 10
56.1514094012
 20
225.4731987924
  0
VERTEX
  8
0
 62
7
  6
CONTINUOUS
 10
56.1341874856
 20
225.5061240108
  0
VERTEX
  8
0
 62
7
  6
CONTINUOUS
 10
56.1164225017
 20
225.5389122607
  0
VERTEX
  8
0
 62
7
  6
CONTINUOUS
 10
56.098127844
 20
225.5715202205
  0
VERTEX
  8
0
 62
7
  6
CONTINUOUS
 10
56.079312324
 20
225.6039094019
  0
VERTEX
  8
0
 62
7
  6
CONTINUOUS
 10
56.0599840017
 20
225.6360451151
  0
VERTEX
  8
0
 62
7
  6
CONTINUOUS
 10
56.0401387138
 20
225.6679093931
  0
VERTEX
  8
0
 62
7
  6
CONTINUOUS
 10
56.0197800868
 20
225.6994697391
  0
VERTEX
  8
0
 62
7
  6
CONTINUOUS
 10
55.9989027666
 20
225.7307063036
  0
VERTEX
  8
0
 62
7
  6
CONTINUOUS
 10
55.977506492
 20
225.7615863564
  0
VERTEX
  8
0
 62
7
  6
CONTINUOUS
 10
55.9555888742
 20
225.7920809164
  0
VERTEX
  8
0
 62
7
  6
CONTINUOUS
 10
55.933142069
 20
225.8221625494
  0
VERTEX
  8
0
 62
7
  6
CONTINUOUS
 10
55.9101653188
 20
225.8517924759
  0
VERTEX
  8
0
 62
7
  6
CONTINUOUS
 10
55.8866077341
 20
225.8809910515
  0
VERTEX
  8
0
 62
7
  6
CONTINUOUS
 10
55.8623067288
 20
225.9098935136
  0
VERTEX
  8
0
 62
7
  6
CONTINUOUS
 10
55.8370754666
 20
225.9386297746
  0
VERTEX
  8
0
 62
7
  6
CONTINUOUS
 10
55.8107064799
 20
225.9673088203
  0
VERTEX
  8
0
 62
7
  6
CONTINUOUS
 10
55.7829928798
 20
225.9959896559
  0
VERTEX
  8
0
 62
7
  6
CONTINUOUS
 10
55.7537119468
 20
226.0246984184
  0
VERTEX
  8
0
 62
7
  6
CONTINUOUS
 10
55.7311865164
 20
226.0456837566
  0
SEQEND
  0
LINE
  8
0
 62
7
  6
CONTINUOUS
 10
50.3801997874
 20
213.6935699995
 11
50.3801997874
 21
224.6914818262
  0
LINE
  8
0
 62
7
  6
CONTINUOUS
 10
51.1301997874
 20
226.9423760239
 11
51.1301997874
 21
226.1356284774
  0
LINE
  8
0
 62
7
  6
CONTINUOUS
 10
55.6301997874
 20
226.9423760296
 11
55.6301997874
 21
226.1356284774
  0
LINE
  8
0
 62
7
  6
CONTINUOUS
 10
56.3801997874
 20
224.6914818152
 11
56.3801997874
 21
213.6935699995
  0
POLYLINE
  8
0
 62
7
  6
CONTINUOUS
 66
1
 70
0
  0
VERTEX
  8
0
 62
7
  6
CONTINUOUS
 10
63.7292141914
 20
226.0456843476
  0
VERTEX
  8
0
 62
7
  6
CONTINUOUS
 10
63.7094464166
 20
226.0273200962
  0
VERTEX
  8
0
 62
7
  6
CONTINUOUS
 10
63.6832387228
 20
226.0018378546
  0
VERTEX
  8
0
 62
7
  6
CONTINUOUS
 10
63.6582987963
 20
225.9763732558
  0
VERTEX
  8
0
 62
7
  6
CONTINUOUS
 10
63.634465445
 20
225.9509143944
  0
VERTEX
  8
0
 62
7
  6
CONTINUOUS
 10
63.6115987508
 20
225.9254350785
  0
VERTEX
  8
0
 62
7
  6
CONTINUOUS
 10
63.589567541
 20
225.8998922275
  0
VERTEX
  8
0
 62
7
  6
CONTINUOUS
 10
63.5682374577
 20
225.8742125578
  0
VERTEX
  8
0
 62
7
  6
CONTINUOUS
 10
63.5474846175
 20
225.8483075852
  0
VERTEX
  8
0
 62
7
  6
CONTINUOUS
 10
63.5272079087
 20
225.8220970025
  0
VERTEX
  8
0
 62
7
  6
CONTINUOUS
 10
63.5073671076
 20
225.7955647515
  0
VERTEX
  8
0
 62
7
  6
CONTINUOUS
 10
63.4879431281
 20
225.7687133758
  0
VERTEX
  8
0
 62
7
  6
CONTINUOUS
 10
63.4689223136
 20
225.7415501291
  0
VERTEX
  8
0
 62
7
  6
CONTINUOUS
 10
63.4502853704
 20
225.7140707902
  0
VERTEX
  8
0
 62
7
  6
CONTINUOUS
 10
63.4320169658
 20
225.686269665
  0
VERTEX
  8
0
 62
7
  6
CONTINUOUS
 10
63.414105748
 20
225.6581451136
  0
VERTEX
  8
0
 62
7
  6
CONTINUOUS
 10
63.3965340367
 20
225.6296810242
  0
VERTEX
  8
0
 62
7
  6
CONTINUOUS
 10
63.3792909937
 20
225.6008654198
  0
VERTEX
  8
0
 62
7
  6
CONTINUOUS
 10
63.3623656437
 20
225.5716846118
  0
VERTEX
  8
0
 62
7
  6
CONTINUOUS
 10
63.3457470748
 20
225.5421174778
  0
VERTEX
  8
0
 62
7
  6
CONTINUOUS
 10
63.3294403034
 20
225.5121679443
  0
VERTEX
  8
0
 62
7
  6
CONTINUOUS
 10
63.3134440425
 20
225.4818265172
  0
VERTEX
  8
0
 62
7
  6
CONTINUOUS
 10
63.2977635489
 20
225.4510892788
  0
VERTEX
  8
0
 62
7
  6
CONTINUOUS
 10
63.2824017139
 20
225.4199478281
  0
VERTEX
  8
0
 62
7
  6
CONTINUOUS
 10
63.2673619543
 20
225.3883852978
  0
VERTEX
  8
0
 62
7
  6
CONTINUOUS
 10
63.2526510689
 20
225.3563907055
  0
VERTEX
  8
0
 62
7
  6
CONTINUOUS
 10
63.2382728358
 20
225.3239351392
  0
VERTEX
  8
0
 62
7
  6
CONTINUOUS
 10
63.2242370521
 20
225.290999135
  0
VERTEX
  8
0
 62
7
  6
CONTINUOUS
 10
63.2105503579
 20
225.2575405041
  0
VERTEX
  8
0
 62
7
  6
CONTINUOUS
 10
63.1972255317
 20
225.2235242276
  0
VERTEX
  8
0
 62
7
  6
CONTINUOUS
 10
63.1842809509
 20
225.1889071762
  0
VERTEX
  8
0
 62
7
  6
CONTINUOUS
 10
63.1717526402
 20
225.1536844547
  0
VERTEX
  8
0
 62
7
  6
CONTINUOUS
 10
63.1596859222
 20
225.1178557062
  0
VERTEX
  8
0
 62
7
  6
CONTINUOUS
 10
63.1481231119
 20
225.0813951993
  0
VERTEX
  8
0
 62
7
  6
CONTINUOUS
 10
63.1371180574
 20
225.0442870631
  0
VERTEX
  8
0
 62
7
  6
CONTINUOUS
 10
63.1267298204
 20
225.0064878634
  0
VERTEX
  8
0
 62
7
  6
CONTINUOUS
 10
63.117029213
 20
224.9679439492
  0
VERTEX
  8
0
 62
7
  6
CONTINUOUS
 10
63.1081315134
 20
224.9287209366
  0
VERTEX
  8
0
 62
7
  6
CONTINUOUS
 10
63.1001780231
 20
224.8889490814
  0
VERTEX
  8
0
 62
7
  6
CONTINUOUS
 10
63.0933213511
 20
224.8487836655
  0
VERTEX
  8
0
 62
7
  6
CONTINUOUS
 10
63.0877308407
 20
224.8084639003
  0
VERTEX
  8
0
 62
7
  6
CONTINUOUS
 10
63.0835802846
 20
224.7683200074
  0
VERTEX
  8
0
 62
7
  6
CONTINUOUS
 10
63.0810332708
 20
224.7288516464
  0
VERTEX
  8
0
 62
7
  6
CONTINUOUS
 10
63.0801997341
 20
224.6914818396
  0
SEQEND
  0
POLYLINE
  8
0
 62
7
  6
CONTINUOUS
 66
1
 70
0
  0
VERTEX
  8
0
 62
7
  6
CONTINUOUS
 10
76.4292141914
 20
226.0456843476
  0
VERTEX
  8
0
 62
7
  6
CONTINUOUS
 10
76.4094464166
 20
226.0273200962
  0
VERTEX
  8
0
 62
7
  6
CONTINUOUS
 10
76.3832387228
 20
226.0018378546
  0
VERTEX
  8
0
 62
7
  6
CONTINUOUS
 10
76.3582987963
 20
225.9763732558
  0
VERTEX
  8
0
 62
7
  6
CONTINUOUS
 10
76.334465445
 20
225.9509143944
  0
VERTEX
  8
0
 62
7
  6
CONTINUOUS
 10
76.3115987508
 20
225.9254350785
  0
VERTEX
  8
0
 62
7
  6
CONTINUOUS
 10
76.289567541
 20
225.8998922275
  0
VERTEX
  8
0
 62
7
  6
CONTINUOUS
 10
76.2682374577
 20
225.8742125578
  0
VERTEX
  8
0
 62
7
  6
CONTINUOUS
 10
76.2474846175
 20
225.8483075852
  0
VERTEX
  8
0
 62
7
  6
CONTINUOUS
 10
76.2272079087
 20
225.8220970025
  0
VERTEX
  8
0
 62
7
  6
CONTINUOUS
 10
76.2073671076
 20
225.7955647515
  0
VERTEX
  8
0
 62
7
  6
CONTINUOUS
 10
76.1879431281
 20
225.7687133758
  0
VERTEX
  8
0
 62
7
  6
CONTINUOUS
 10
76.1689223136
 20
225.7415501291
  0
VERTEX
  8
0
 62
7
  6
CONTINUOUS
 10
76.1502853704
 20
225.7140707902
  0
VERTEX
  8
0
 62
7
  6
CONTINUOUS
 10
76.1320169658
 20
225.686269665
  0
VERTEX
  8
0
 62
7
  6
CONTINUOUS
 10
76.114105748
 20
225.6581451136
  0
VERTEX
  8
0
 62
7
  6
CONTINUOUS
 10
76.0965340367
 20
225.6296810242
  0
VERTEX
  8
0
 62
7
  6
CONTINUOUS
 10
76.0792909937
 20
225.6008654198
  0
VERTEX
  8
0
 62
7
  6
CONTINUOUS
 10
76.0623656437
 20
225.5716846118
  0
VERTEX
  8
0
 62
7
  6
CONTINUOUS
 10
76.0457470748
 20
225.5421174778
  0
VERTEX
  8
0
 62
7
  6
CONTINUOUS
 10
76.0294403034
 20
225.5121679443
  0
VERTEX
  8
0
 62
7
  6
CONTINUOUS
 10
76.0134440425
 20
225.4818265172
  0
VERTEX
  8
0
 62
7
  6
CONTINUOUS
 10
75.9977635489
 20
225.4510892788
  0
VERTEX
  8
0
 62
7
  6
CONTINUOUS
 10
75.9824017139
 20
225.4199478281
  0
VERTEX
  8
0
 62
7
  6
CONTINUOUS
 10
75.9673619543
 20
225.3883852978
  0
VERTEX
  8
0
 62
7
  6
CONTINUOUS
 10
75.9526510689
 20
225.3563907055
  0
VERTEX
  8
0
 62
7
  6
CONTINUOUS
 10
75.9382728358
 20
225.3239351392
  0
VERTEX
  8
0
 62
7
  6
CONTINUOUS
 10
75.9242370521
 20
225.290999135
  0
VERTEX
  8
0
 62
7
  6
CONTINUOUS
 10
75.9105503579
 20
225.2575405041
  0
VERTEX
  8
0
 62
7
  6
CONTINUOUS
 10
75.8972255317
 20
225.2235242276
  0
VERTEX
  8
0
 62
7
  6
CONTINUOUS
 10
75.8842809509
 20
225.1889071762
  0
VERTEX
  8
0
 62
7
  6
CONTINUOUS
 10
75.8717526402
 20
225.1536844547
  0
VERTEX
  8
0
 62
7
  6
CONTINUOUS
 10
75.8596859222
 20
225.1178557062
  0
VERTEX
  8
0
 62
7
  6
CONTINUOUS
 10
75.8481231119
 20
225.0813951993
  0
VERTEX
  8
0
 62
7
  6
CONTINUOUS
 10
75.8371180574
 20
225.0442870631
  0
VERTEX
  8
0
 62
7
  6
CONTINUOUS
 10
75.8267298204
 20
225.0064878634
  0
VERTEX
  8
0
 62
7
  6
CONTINUOUS
 10
75.817029213
 20
224.9679439492
  0
VERTEX
  8
0
 62
7
  6
CONTINUOUS
 10
75.8081315134
 20
224.9287209366
  0
VERTEX
  8
0
 62
7
  6
CONTINUOUS
 10
75.8001780231
 20
224.8889490814
  0
VERTEX
  8
0
 62
7
  6
CONTINUOUS
 10
75.7933213511
 20
224.8487836655
  0
VERTEX
  8
0
 62
7
  6
CONTINUOUS
 10
75.7877308407
 20
224.8084639003
  0
VERTEX
  8
0
 62
7
  6
CONTINUOUS
 10
75.7835802846
 20
224.7683200074
  0
VERTEX
  8
0
 62
7
  6
CONTINUOUS
 10
75.7810332708
 20
224.7288516464
  0
VERTEX
  8
0
 62
7
  6
CONTINUOUS
 10
75.7801997341
 20
224.6914818396
  0
SEQEND
  0
POLYLINE
  8
0
 62
7
  6
CONTINUOUS
 66
1
 70
0
  0
VERTEX
  8
0
 62
7
  6
CONTINUOUS
 10
76.5202571804
 20
226.1269971056
  0
VERTEX
  8
0
 62
7
  6
CONTINUOUS
 10
76.4707612821
 20
226.0831835696
  0
VERTEX
  8
0
 62
7
  6
CONTINUOUS
 10
76.4292104846
 20
226.0456802255
  0
SEQEND
  0
LINE
  8
0
 62
7
  6
CONTINUOUS
 10
76.5625544462
 20
226.1636990737
 11
76.5202571804
 21
226.1269971056
  0
POLYLINE
  8
0
 62
7
  6
CONTINUOUS
 66
1
 70
0
  0
VERTEX
  8
0
 62
7
  6
CONTINUOUS
 10
44.9341997874
 20
227.182051614
  0
VERTEX
  8
0
 62
7
  6
CONTINUOUS
 10
44.9403838682
 20
227.1824452993
  0
VERTEX
  8
0
 62
7
  6
CONTINUOUS
 10
44.9588747467
 20
227.1825941448
  0
SEQEND
  0
POLYLINE
  8
0
 62
7
  6
CONTINUOUS
 66
1
 70
0
  0
VERTEX
  8
0
 62
7
  6
CONTINUOUS
 10
44.937345419
 20
227.1824151517
  0
VERTEX
  8
0
 62
7
  6
CONTINUOUS
 10
44.9350419812
 20
227.1823598408
  0
VERTEX
  8
0
 62
7
  6
CONTINUOUS
 10
44.9327137396
 20
227.1822888202
  0
VERTEX
  8
0
 62
7
  6
CONTINUOUS
 10
44.9302378582
 20
227.1821922737
  0
VERTEX
  8
0
 62
7
  6
CONTINUOUS
 10
44.9274170953
 20
227.1820498644
  0
VERTEX
  8
0
 62
7
  6
CONTINUOUS
 10
44.9240135736
 20
227.1818237142
  0
VERTEX
  8
0
 62
7
  6
CONTINUOUS
 10
44.9197827277
 20
227.1814490767
  0
VERTEX
  8
0
 62
7
  6
CONTINUOUS
 10
44.914322165
 20
227.1807995471
  0
VERTEX
  8
0
 62
7
  6
CONTINUOUS
 10
44.907013439
 20
227.1796212962
  0
VERTEX
  8
0
 62
7
  6
CONTINUOUS
 10
44.8978216229
 20
227.1776147386
  0
VERTEX
  8
0
 62
7
  6
CONTINUOUS
 10
44.8873574207
 20
227.1745822115
  0
VERTEX
  8
0
 62
7
  6
CONTINUOUS
 10
44.8763634192
 20
227.170478912
  0
VERTEX
  8
0
 62
7
  6
CONTINUOUS
 10
44.8654092271
 20
227.1653690514
  0
VERTEX
  8
0
 62
7
  6
CONTINUOUS
 10
44.8546112581
 20
227.1592136944
  0
VERTEX
  8
0
 62
7
  6
CONTINUOUS
 10
44.8440829153
 20
227.1519788691
  0
VERTEX
  8
0
 62
7
  6
CONTINUOUS
 10
44.833943437
 20
227.1436378422
  0
VERTEX
  8
0
 62
7
  6
CONTINUOUS
 10
44.8243253223
 20
227.1341778475
  0
VERTEX
  8
0
 62
7
  6
CONTINUOUS
 10
44.8153724565
 20
227.1236030748
  0
VERTEX
  8
0
 62
7
  6
CONTINUOUS
 10
44.8072235574
 20
227.1119150034
  0
VERTEX
  8
0
 62
7
  6
CONTINUOUS
 10
44.8000269618
 20
227.0991214888
  0
VERTEX
  8
0
 62
7
  6
CONTINUOUS
 10
44.7939489368
 20
227.0852500477
  0
VERTEX
  8
0
 62
7
  6
CONTINUOUS
 10
44.7891713959
 20
227.0703513129
  0
VERTEX
  8
0
 62
7
  6
CONTINUOUS
 10
44.7858900881
 20
227.0545044845
  0
VERTEX
  8
0
 62
7
  6
CONTINUOUS
 10
44.7843116255
 20
227.0378230779
  0
VERTEX
  8
0
 62
7
  6
CONTINUOUS
 10
44.7842006329
 20
227.0320531704
  0
SEQEND
  0
LINE
  8
0
 62
7
  6
CONTINUOUS
 10
44.9421796708
 20
227.1824964018
 11
44.937345419
 21
227.1824151517
  0
LINE
  8
0
 62
7
  6
CONTINUOUS
 10
44.9538578323
 20
227.1825832939
 11
44.9618440113
 21
227.1825960101
  0
LINE
  8
0
 62
7
  6
CONTINUOUS
 10
191.8751256568
 20
227.181585912
 11
192.5097645154
 21
227.1825958125
  0
LINE
  8
AXES
 62
2
  6
CENTER
 10
42.0301997874
 20
218.9435699995
 11
196.9301997874
 21
218.9435699995
  0
LINE
  8
0
 62
7
  6
CONTINUOUS
 10
151.4801997874
 20
227.1815458466
 11
147.6261997874
 21
227.1815458466
  0
LINE
  8
0
 62
7
  6
CONTINUOUS
 10
161.3801997874
 20
227.1815458466
 11
165.9801997874
 21
227.1815458466
  0
LINE
  8
0
 62
7
  6
CONTINUOUS
 10
161.3801997874
 20
227.1825960216
 11
151.4801997874
 21
227.1825960216
  0
LINE
  8
0
 62
7
  6
CONTINUOUS
 10
165.9801997874
 20
227.1825960216
 11
192.7351681212
 21
227.1825019421
  0
LINE
  8
0
 62
7
  6
CONTINUOUS
 10
44.9621502259
 20
227.1825960212
 11
147.6261997874
 21
227.1825960216
  0
POLYLINE
  8
0
 62
7
  6
CONTINUOUS
 66
1
 70
0
  0
VERTEX
  8
0
 62
7
  6
CONTINUOUS
 10
194.180648233
 20
227.1783208278
  0
VERTEX
  8
0
 62
7
  6
CONTINUOUS
 10
193.4428189718
 20
227.1812306676
  0
VERTEX
  8
0
 62
7
  6
CONTINUOUS
 10
192.7352800845
 20
227.1825022274
  0
SEQEND
  0
LINE
  8
0
 62
7
  6
CONTINUOUS
 10
45.4828674925
 20
227.1786868695
 11
45.7841997874
 21
227.1779055554
  0
LINE
  8
0
 62
7
  6
CONTINUOUS
 10
44.989405267
 20
227.1825110549
 11
45.4828674925
 21
227.1786868695
  0
LINE
  8
0
 62
7
  6
CONTINUOUS
 10
195.1524086208
 20
227.1716867653
 11
194.180648233
 21
227.1783208278
  0
POLYLINE
  8
0
 62
7
  6
CONTINUOUS
 66
1
 70
0
  0
VERTEX
  8
0
 62
7
  6
CONTINUOUS
 10
175.0392452412
 20
212.9435699995
  0
VERTEX
  8
0
 62
7
  6
CONTINUOUS
 10
174.995555688
 20
212.9462346243
  0
VERTEX
  8
0
 62
7
  6
CONTINUOUS
 10
174.9373076542
 20
212.9537480881
  0
VERTEX
  8
0
 62
7
  6
CONTINUOUS
 10
174.8642497244
 20
212.9654801914
  0
SEQEND
  0
POLYLINE
  8
0
 62
7
  6
CONTINUOUS
 66
1
 70
0
  0
VERTEX
  8
0
 62
7
  6
CONTINUOUS
 10
55.6889853844
 20
226.0837676057
  0
VERTEX
  8
0
 62
7
  6
CONTINUOUS
 10
55.6394884669
 20
226.1275697068
  0
VERTEX
  8
0
 62
7
  6
CONTINUOUS
 10
55.5978451291
 20
226.1636990731
  0
SEQEND
  0
LINE
  8
0
 62
7
  6
CONTINUOUS
 10
55.731189094
 20
226.04568022
 11
55.6889853844
 21
226.0837676057
  0
POLYLINE
  8
0
 62
7
  6
CONTINUOUS
 66
1
 70
0
  0
VERTEX
  8
0
 62
7
  6
CONTINUOUS
 10
69.0801988035
 20
224.6914818366
  0
VERTEX
  8
0
 62
7
  6
CONTINUOUS
 10
69.0793053483
 20
224.7302180814
  0
VERTEX
  8
0
 62
7
  6
CONTINUOUS
 10
69.0767573989
 20
224.7690575027
  0
VERTEX
  8
0
 62
7
  6
CONTINUOUS
 10
69.0726741401
 20
224.8084250502
  0
VERTEX
  8
0
 62
7
  6
CONTINUOUS
 10
69.0672536006
 20
224.8476472792
  0
VERTEX
  8
0
 62
7
  6
CONTINUOUS
 10
69.0607080553
 20
224.8863122005
  0
VERTEX
  8
0
 62
7
  6
CONTINUOUS
 10
69.0532072824
 20
224.9242970731
  0
VERTEX
  8
0
 62
7
  6
CONTINUOUS
 10
69.0448736855
 20
224.9616191638
  0
VERTEX
  8
0
 62
7
  6
CONTINUOUS
 10
69.0358039517
 20
224.9983120012
  0
VERTEX
  8
0
 62
7
  6
CONTINUOUS
 10
69.0260794333
 20
225.0344016007
  0
VERTEX
  8
0
 62
7
  6
CONTINUOUS
 10
69.0157745424
 20
225.0698828966
  0
VERTEX
  8
0
 62
7
  6
CONTINUOUS
 10
69.0049323375
 20
225.1048175047
  0
VERTEX
  8
0
 62
7
  6
CONTINUOUS
 10
68.9935690244
 20
225.1393152354
  0
VERTEX
  8
0
 62
7
  6
CONTINUOUS
 10
68.9816968395
 20
225.1734507782
  0
VERTEX
  8
0
 62
7
  6
CONTINUOUS
 10
68.9693163533
 20
225.2073051562
  0
VERTEX
  8
0
 62
7
  6
CONTINUOUS
 10
68.9564326565
 20
225.2409246236
  0
VERTEX
  8
0
 62
7
  6
CONTINUOUS
 10
68.9430388381
 20
225.2743646555
  0
VERTEX
  8
0
 62
7
  6
CONTINUOUS
 10
68.929128364
 20
225.3076694033
  0
VERTEX
  8
0
 62
7
  6
CONTINUOUS
 10
68.9146893985
 20
225.3408764586
  0
VERTEX
  8
0
 62
7
  6
CONTINUOUS
 10
68.8997100763
 20
225.3740177936
  0
VERTEX
  8
0
 62
7
  6
CONTINUOUS
 10
68.8841771275
 20
225.4071134041
  0
VERTEX
  8
0
 62
7
  6
CONTINUOUS
 10
68.8680765848
 20
225.4401814132
  0
VERTEX
  8
0
 62
7
  6
CONTINUOUS
 10
68.8514094012
 20
225.4731987924
  0
VERTEX
  8
0
 62
7
  6
CONTINUOUS
 10
68.8341874856
 20
225.5061240108
  0
VERTEX
  8
0
 62
7
  6
CONTINUOUS
 10
68.8164225017
 20
225.5389122607
  0
VERTEX
  8
0
 62
7
  6
CONTINUOUS
 10
68.798127844
 20
225.5715202205
  0
VERTEX
  8
0
 62
7
  6
CONTINUOUS
 10
68.779312324
 20
225.6039094019
  0
VERTEX
  8
0
 62
7
  6
CONTINUOUS
 10
68.7599840017
 20
225.6360451151
  0
VERTEX
  8
0
 62
7
  6
CONTINUOUS
 10
68.7401387138
 20
225.6679093931
  0
VERTEX
  8
0
 62
7
  6
CONTINUOUS
 10
68.7197800868
 20
225.6994697391
  0
VERTEX
  8
0
 62
7
  6
CONTINUOUS
 10
68.6989027666
 20
225.7307063036
  0
VERTEX
  8
0
 62
7
  6
CONTINUOUS
 10
68.677506492
 20
225.7615863564
  0
VERTEX
  8
0
 62
7
  6
CONTINUOUS
 10
68.6555888742
 20
225.7920809164
  0
VERTEX
  8
0
 62
7
  6
CONTINUOUS
 10
68.633142069
 20
225.8221625494
  0
VERTEX
  8
0
 62
7
  6
CONTINUOUS
 10
68.6101653188
 20
225.8517924759
  0
VERTEX
  8
0
 62
7
  6
CONTINUOUS
 10
68.5866077341
 20
225.8809910515
  0
VERTEX
  8
0
 62
7
  6
CONTINUOUS
 10
68.5623067288
 20
225.9098935136
  0
VERTEX
  8
0
 62
7
  6
CONTINUOUS
 10
68.5370754666
 20
225.9386297746
  0
VERTEX
  8
0
 62
7
  6
CONTINUOUS
 10
68.5107064799
 20
225.9673088203
  0
VERTEX
  8
0
 62
7
  6
CONTINUOUS
 10
68.4829928798
 20
225.9959896559
  0
VERTEX
  8
0
 62
7
  6
CONTINUOUS
 10
68.4537119468
 20
226.0246984184
  0
VERTEX
  8
0
 62
7
  6
CONTINUOUS
 10
68.4311865164
 20
226.0456837566
  0
SEQEND
  0
LINE
  8
0
 62
7
  6
CONTINUOUS
 10
63.0801997874
 20
213.6935699995
 11
63.0801997874
 21
224.6914689265
  0
LINE
  8
0
 62
7
  6
CONTINUOUS
 10
63.8301997874
 20
226.1356244539
 11
63.8301997874
 21
226.9423760311
  0
LINE
  8
0
 62
7
  6
CONTINUOUS
 10
68.3301997874
 20
226.9423760296
 11
68.3301997874
 21
226.1356284774
  0
LINE
  8
0
 62
7
  6
CONTINUOUS
 10
69.0801997874
 20
224.6914818152
 11
69.0801997874
 21
213.6935699995
  0
LINE
  8
0
 62
7
  6
CONTINUOUS
 10
75.7801997874
 20
213.6935699995
 11
75.7801997874
 21
224.6914689265
  0
POLYLINE
  8
0
 62
7
  6
CONTINUOUS
 66
1
 70
0
  0
VERTEX
  8
0
 62
7
  6
CONTINUOUS
 10
89.1292141914
 20
226.0456843476
  0
VERTEX
  8
0
 62
7
  6
CONTINUOUS
 10
89.1094464166
 20
226.0273200962
  0
VERTEX
  8
0
 62
7
  6
CONTINUOUS
 10
89.0832387228
 20
226.0018378546
  0
VERTEX
  8
0
 62
7
  6
CONTINUOUS
 10
89.0582987963
 20
225.9763732558
  0
VERTEX
  8
0
 62
7
  6
CONTINUOUS
 10
89.034465445
 20
225.9509143944
  0
VERTEX
  8
0
 62
7
  6
CONTINUOUS
 10
89.0115987508
 20
225.9254350785
  0
VERTEX
  8
0
 62
7
  6
CONTINUOUS
 10
88.989567541
 20
225.8998922275
  0
VERTEX
  8
0
 62
7
  6
CONTINUOUS
 10
88.9682374577
 20
225.8742125578
  0
VERTEX
  8
0
 62
7
  6
CONTINUOUS
 10
88.9474846175
 20
225.8483075852
  0
VERTEX
  8
0
 62
7
  6
CONTINUOUS
 10
88.9272079087
 20
225.8220970025
  0
VERTEX
  8
0
 62
7
  6
CONTINUOUS
 10
88.9073671076
 20
225.7955647515
  0
VERTEX
  8
0
 62
7
  6
CONTINUOUS
 10
88.8879431281
 20
225.7687133758
  0
VERTEX
  8
0
 62
7
  6
CONTINUOUS
 10
88.8689223136
 20
225.7415501291
  0
VERTEX
  8
0
 62
7
  6
CONTINUOUS
 10
88.8502853704
 20
225.7140707902
  0
VERTEX
  8
0
 62
7
  6
CONTINUOUS
 10
88.8320169658
 20
225.686269665
  0
VERTEX
  8
0
 62
7
  6
CONTINUOUS
 10
88.814105748
 20
225.6581451136
  0
VERTEX
  8
0
 62
7
  6
CONTINUOUS
 10
88.7965340367
 20
225.6296810242
  0
VERTEX
  8
0
 62
7
  6
CONTINUOUS
 10
88.7792909937
 20
225.6008654198
  0
VERTEX
  8
0
 62
7
  6
CONTINUOUS
 10
88.7623656437
 20
225.5716846118
  0
VERTEX
  8
0
 62
7
  6
CONTINUOUS
 10
88.7457470748
 20
225.5421174778
  0
VERTEX
  8
0
 62
7
  6
CONTINUOUS
 10
88.7294403034
 20
225.5121679443
  0
VERTEX
  8
0
 62
7
  6
CONTINUOUS
 10
88.7134440425
 20
225.4818265172
  0
VERTEX
  8
0
 62
7
  6
CONTINUOUS
 10
88.6977635489
 20
225.4510892788
  0
VERTEX
  8
0
 62
7
  6
CONTINUOUS
 10
88.6824017139
 20
225.4199478281
  0
VERTEX
  8
0
 62
7
  6
CONTINUOUS
 10
88.6673619543
 20
225.3883852978
  0
VERTEX
  8
0
 62
7
  6
CONTINUOUS
 10
88.6526510689
 20
225.3563907055
  0
VERTEX
  8
0
 62
7
  6
CONTINUOUS
 10
88.6382728358
 20
225.3239351392
  0
VERTEX
  8
0
 62
7
  6
CONTINUOUS
 10
88.6242370521
 20
225.290999135
  0
VERTEX
  8
0
 62
7
  6
CONTINUOUS
 10
88.6105503579
 20
225.2575405041
  0
VERTEX
  8
0
 62
7
  6
CONTINUOUS
 10
88.5972255317
 20
225.2235242276
  0
VERTEX
  8
0
 62
7
  6
CONTINUOUS
 10
88.5842809509
 20
225.1889071762
  0
VERTEX
  8
0
 62
7
  6
CONTINUOUS
 10
88.5717526402
 20
225.1536844547
  0
VERTEX
  8
0
 62
7
  6
CONTINUOUS
 10
88.5596859222
 20
225.1178557062
  0
VERTEX
  8
0
 62
7
  6
CONTINUOUS
 10
88.5481231119
 20
225.0813951993
  0
VERTEX
  8
0
 62
7
  6
CONTINUOUS
 10
88.5371180574
 20
225.0442870631
  0
VERTEX
  8
0
 62
7
  6
CONTINUOUS
 10
88.5267298204
 20
225.0064878634
  0
VERTEX
  8
0
 62
7
  6
CONTINUOUS
 10
88.517029213
 20
224.9679439492
  0
VERTEX
  8
0
 62
7
  6
CONTINUOUS
 10
88.5081315134
 20
224.9287209366
  0
VERTEX
  8
0
 62
7
  6
CONTINUOUS
 10
88.5001780231
 20
224.8889490814
  0
VERTEX
  8
0
 62
7
  6
CONTINUOUS
 10
88.4933213511
 20
224.8487836655
  0
VERTEX
  8
0
 62
7
  6
CONTINUOUS
 10
88.4877308407
 20
224.8084639003
  0
VERTEX
  8
0
 62
7
  6
CONTINUOUS
 10
88.4835802846
 20
224.7683200074
  0
VERTEX
  8
0
 62
7
  6
CONTINUOUS
 10
88.4810332708
 20
224.7288516464
  0
VERTEX
  8
0
 62
7
  6
CONTINUOUS
 10
88.4801997341
 20
224.6914818396
  0
SEQEND
  0
POLYLINE
  8
0
 62
7
  6
CONTINUOUS
 66
1
 70
0
  0
VERTEX
  8
0
 62
7
  6
CONTINUOUS
 10
101.8292141914
 20
226.0456843476
  0
VERTEX
  8
0
 62
7
  6
CONTINUOUS
 10
101.8094464166
 20
226.0273200962
  0
VERTEX
  8
0
 62
7
  6
CONTINUOUS
 10
101.7832387228
 20
226.0018378546
  0
VERTEX
  8
0
 62
7
  6
CONTINUOUS
 10
101.7582987963
 20
225.9763732558
  0
VERTEX
  8
0
 62
7
  6
CONTINUOUS
 10
101.734465445
 20
225.9509143944
  0
VERTEX
  8
0
 62
7
  6
CONTINUOUS
 10
101.7115987508
 20
225.9254350785
  0
VERTEX
  8
0
 62
7
  6
CONTINUOUS
 10
101.689567541
 20
225.8998922275
  0
VERTEX
  8
0
 62
7
  6
CONTINUOUS
 10
101.6682374577
 20
225.8742125578
  0
VERTEX
  8
0
 62
7
  6
CONTINUOUS
 10
101.6474846175
 20
225.8483075852
  0
VERTEX
  8
0
 62
7
  6
CONTINUOUS
 10
101.6272079087
 20
225.8220970025
  0
VERTEX
  8
0
 62
7
  6
CONTINUOUS
 10
101.6073671076
 20
225.7955647515
  0
VERTEX
  8
0
 62
7
  6
CONTINUOUS
 10
101.5879431281
 20
225.7687133758
  0
VERTEX
  8
0
 62
7
  6
CONTINUOUS
 10
101.5689223136
 20
225.7415501291
  0
VERTEX
  8
0
 62
7
  6
CONTINUOUS
 10
101.5502853704
 20
225.7140707902
  0
VERTEX
  8
0
 62
7
  6
CONTINUOUS
 10
101.5320169658
 20
225.686269665
  0
VERTEX
  8
0
 62
7
  6
CONTINUOUS
 10
101.514105748
 20
225.6581451136
  0
VERTEX
  8
0
 62
7
  6
CONTINUOUS
 10
101.4965340367
 20
225.6296810242
  0
VERTEX
  8
0
 62
7
  6
CONTINUOUS
 10
101.4792909937
 20
225.6008654198
  0
VERTEX
  8
0
 62
7
  6
CONTINUOUS
 10
101.4623656437
 20
225.5716846118
  0
VERTEX
  8
0
 62
7
  6
CONTINUOUS
 10
101.4457470748
 20
225.5421174778
  0
VERTEX
  8
0
 62
7
  6
CONTINUOUS
 10
101.4294403034
 20
225.5121679443
  0
VERTEX
  8
0
 62
7
  6
CONTINUOUS
 10
101.4134440425
 20
225.4818265172
  0
VERTEX
  8
0
 62
7
  6
CONTINUOUS
 10
101.3977635489
 20
225.4510892788
  0
VERTEX
  8
0
 62
7
  6
CONTINUOUS
 10
101.3824017139
 20
225.4199478281
  0
VERTEX
  8
0
 62
7
  6
CONTINUOUS
 10
101.3673619543
 20
225.3883852978
  0
VERTEX
  8
0
 62
7
  6
CONTINUOUS
 10
101.3526510689
 20
225.3563907055
  0
VERTEX
  8
0
 62
7
  6
CONTINUOUS
 10
101.3382728358
 20
225.3239351392
  0
VERTEX
  8
0
 62
7
  6
CONTINUOUS
 10
101.3242370521
 20
225.290999135
  0
VERTEX
  8
0
 62
7
  6
CONTINUOUS
 10
101.3105503579
 20
225.2575405041
  0
VERTEX
  8
0
 62
7
  6
CONTINUOUS
 10
101.2972255317
 20
225.2235242276
  0
VERTEX
  8
0
 62
7
  6
CONTINUOUS
 10
101.2842809509
 20
225.1889071762
  0
VERTEX
  8
0
 62
7
  6
CONTINUOUS
 10
101.2717526402
 20
225.1536844547
  0
VERTEX
  8
0
 62
7
  6
CONTINUOUS
 10
101.2596859222
 20
225.1178557062
  0
VERTEX
  8
0
 62
7
  6
CONTINUOUS
 10
101.2481231119
 20
225.0813951993
  0
VERTEX
  8
0
 62
7
  6
CONTINUOUS
 10
101.2371180574
 20
225.0442870631
  0
VERTEX
  8
0
 62
7
  6
CONTINUOUS
 10
101.2267298204
 20
225.0064878634
  0
VERTEX
  8
0
 62
7
  6
CONTINUOUS
 10
101.217029213
 20
224.9679439492
  0
VERTEX
  8
0
 62
7
  6
CONTINUOUS
 10
101.2081315134
 20
224.9287209366
  0
VERTEX
  8
0
 62
7
  6
CONTINUOUS
 10
101.2001780231
 20
224.8889490814
  0
VERTEX
  8
0
 62
7
  6
CONTINUOUS
 10
101.1933213511
 20
224.8487836655
  0
VERTEX
  8
0
 62
7
  6
CONTINUOUS
 10
101.1877308407
 20
224.8084639003
  0
VERTEX
  8
0
 62
7
  6
CONTINUOUS
 10
101.1835802846
 20
224.7683200074
  0
VERTEX
  8
0
 62
7
  6
CONTINUOUS
 10
101.1810332708
 20
224.7288516464
  0
VERTEX
  8
0
 62
7
  6
CONTINUOUS
 10
101.1801997341
 20
224.6914818396
  0
SEQEND
  0
POLYLINE
  8
0
 62
7
  6
CONTINUOUS
 66
1
 70
0
  0
VERTEX
  8
0
 62
7
  6
CONTINUOUS
 10
89.2202571804
 20
226.1269971056
  0
VERTEX
  8
0
 62
7
  6
CONTINUOUS
 10
89.1707612821
 20
226.0831835696
  0
VERTEX
  8
0
 62
7
  6
CONTINUOUS
 10
89.1292104846
 20
226.0456802255
  0
SEQEND
  0
POLYLINE
  8
0
 62
7
  6
CONTINUOUS
 66
1
 70
0
  0
VERTEX
  8
0
 62
7
  6
CONTINUOUS
 10
101.9202571804
 20
226.1269971056
  0
VERTEX
  8
0
 62
7
  6
CONTINUOUS
 10
101.8707612821
 20
226.0831835696
  0
VERTEX
  8
0
 62
7
  6
CONTINUOUS
 10
101.8292104846
 20
226.0456802255
  0
SEQEND
  0
LINE
  8
0
 62
7
  6
CONTINUOUS
 10
89.2625544462
 20
226.1636990737
 11
89.2202571804
 21
226.1269971056
  0
LINE
  8
0
 62
7
  6
CONTINUOUS
 10
101.9625544462
 20
226.1636990737
 11
101.9202571804
 21
226.1269971056
  0
LINE
  8
0
 62
7
  6
CONTINUOUS
 10
195.4179645876
 20
227.168215921
 11
195.1524086208
 21
227.1716867653
  0
LINE
  8
0
 62
7
  6
CONTINUOUS
 10
195.6570431733
 20
227.1636893483
 11
195.4179645876
 21
227.168215921
  0
POLYLINE
  8
0
 62
7
  6
CONTINUOUS
 66
1
 70
0
  0
VERTEX
  8
0
 62
7
  6
CONTINUOUS
 10
174.8642497244
 20
212.9654801914
  0
VERTEX
  8
0
 62
7
  6
CONTINUOUS
 10
174.6769376564
 20
212.9978991187
  0
VERTEX
  8
0
 62
7
  6
CONTINUOUS
 10
174.5651633223
 20
213.0162966459
  0
VERTEX
  8
0
 62
7
  6
CONTINUOUS
 10
174.4435731579
 20
213.0344739912
  0
VERTEX
  8
0
 62
7
  6
CONTINUOUS
 10
174.3141068555
 20
213.0512229295
  0
VERTEX
  8
0
 62
7
  6
CONTINUOUS
 10
174.1788595817
 20
213.0654816375
  0
VERTEX
  8
0
 62
7
  6
CONTINUOUS
 10
174.039559821
 20
213.0764439185
  0
VERTEX
  8
0
 62
7
  6
CONTINUOUS
 10
173.8972448084
 20
213.0835595804
  0
VERTEX
  8
0
 62
7
  6
CONTINUOUS
 10
173.752692553
 20
213.0864541674
  0
SEQEND
  0
POLYLINE
  8
0
 62
7
  6
CONTINUOUS
 66
1
 70
0
  0
VERTEX
  8
0
 62
7
  6
CONTINUOUS
 10
68.3889853844
 20
226.0837676057
  0
VERTEX
  8
0
 62
7
  6
CONTINUOUS
 10
68.3394884669
 20
226.1275697068
  0
VERTEX
  8
0
 62
7
  6
CONTINUOUS
 10
68.2978451291
 20
226.1636990731
  0
SEQEND
  0
LINE
  8
0
 62
7
  6
CONTINUOUS
 10
68.431189094
 20
226.04568022
 11
68.3889853844
 21
226.0837676057
  0
POLYLINE
  8
0
 62
7
  6
CONTINUOUS
 66
1
 70
0
  0
VERTEX
  8
0
 62
7
  6
CONTINUOUS
 10
81.7801988035
 20
224.6914818366
  0
VERTEX
  8
0
 62
7
  6
CONTINUOUS
 10
81.7793053483
 20
224.7302180814
  0
VERTEX
  8
0
 62
7
  6
CONTINUOUS
 10
81.7767573989
 20
224.7690575027
  0
VERTEX
  8
0
 62
7
  6
CONTINUOUS
 10
81.7726741401
 20
224.8084250502
  0
VERTEX
  8
0
 62
7
  6
CONTINUOUS
 10
81.7672536006
 20
224.8476472792
  0
VERTEX
  8
0
 62
7
  6
CONTINUOUS
 10
81.7607080553
 20
224.8863122005
  0
VERTEX
  8
0
 62
7
  6
CONTINUOUS
 10
81.7532072824
 20
224.9242970731
  0
VERTEX
  8
0
 62
7
  6
CONTINUOUS
 10
81.7448736855
 20
224.9616191638
  0
VERTEX
  8
0
 62
7
  6
CONTINUOUS
 10
81.7358039517
 20
224.9983120012
  0
VERTEX
  8
0
 62
7
  6
CONTINUOUS
 10
81.7260794333
 20
225.0344016007
  0
VERTEX
  8
0
 62
7
  6
CONTINUOUS
 10
81.7157745424
 20
225.0698828966
  0
VERTEX
  8
0
 62
7
  6
CONTINUOUS
 10
81.7049323375
 20
225.1048175047
  0
VERTEX
  8
0
 62
7
  6
CONTINUOUS
 10
81.6935690244
 20
225.1393152354
  0
VERTEX
  8
0
 62
7
  6
CONTINUOUS
 10
81.6816968395
 20
225.1734507782
  0
VERTEX
  8
0
 62
7
  6
CONTINUOUS
 10
81.6693163533
 20
225.2073051562
  0
VERTEX
  8
0
 62
7
  6
CONTINUOUS
 10
81.6564326565
 20
225.2409246236
  0
VERTEX
  8
0
 62
7
  6
CONTINUOUS
 10
81.6430388381
 20
225.2743646555
  0
VERTEX
  8
0
 62
7
  6
CONTINUOUS
 10
81.629128364
 20
225.3076694033
  0
VERTEX
  8
0
 62
7
  6
CONTINUOUS
 10
81.6146893985
 20
225.3408764586
  0
VERTEX
  8
0
 62
7
  6
CONTINUOUS
 10
81.5997100763
 20
225.3740177936
  0
VERTEX
  8
0
 62
7
  6
CONTINUOUS
 10
81.5841771275
 20
225.4071134041
  0
VERTEX
  8
0
 62
7
  6
CONTINUOUS
 10
81.5680765848
 20
225.4401814132
  0
VERTEX
  8
0
 62
7
  6
CONTINUOUS
 10
81.5514094012
 20
225.4731987924
  0
VERTEX
  8
0
 62
7
  6
CONTINUOUS
 10
81.5341874856
 20
225.5061240108
  0
VERTEX
  8
0
 62
7
  6
CONTINUOUS
 10
81.5164225017
 20
225.5389122607
  0
VERTEX
  8
0
 62
7
  6
CONTINUOUS
 10
81.498127844
 20
225.5715202205
  0
VERTEX
  8
0
 62
7
  6
CONTINUOUS
 10
81.479312324
 20
225.6039094019
  0
VERTEX
  8
0
 62
7
  6
CONTINUOUS
 10
81.4599840017
 20
225.6360451151
  0
VERTEX
  8
0
 62
7
  6
CONTINUOUS
 10
81.4401387138
 20
225.6679093931
  0
VERTEX
  8
0
 62
7
  6
CONTINUOUS
 10
81.4197800868
 20
225.6994697391
  0
VERTEX
  8
0
 62
7
  6
CONTINUOUS
 10
81.3989027666
 20
225.7307063036
  0
VERTEX
  8
0
 62
7
  6
CONTINUOUS
 10
81.377506492
 20
225.7615863564
  0
VERTEX
  8
0
 62
7
  6
CONTINUOUS
 10
81.3555888742
 20
225.7920809164
  0
VERTEX
  8
0
 62
7
  6
CONTINUOUS
 10
81.333142069
 20
225.8221625494
  0
VERTEX
  8
0
 62
7
  6
CONTINUOUS
 10
81.3101653188
 20
225.8517924759
  0
VERTEX
  8
0
 62
7
  6
CONTINUOUS
 10
81.2866077341
 20
225.8809910515
  0
VERTEX
  8
0
 62
7
  6
CONTINUOUS
 10
81.2623067288
 20
225.9098935136
  0
VERTEX
  8
0
 62
7
  6
CONTINUOUS
 10
81.2370754666
 20
225.9386297746
  0
VERTEX
  8
0
 62
7
  6
CONTINUOUS
 10
81.2107064799
 20
225.9673088203
  0
VERTEX
  8
0
 62
7
  6
CONTINUOUS
 10
81.1829928798
 20
225.9959896559
  0
VERTEX
  8
0
 62
7
  6
CONTINUOUS
 10
81.1537119468
 20
226.0246984184
  0
VERTEX
  8
0
 62
7
  6
CONTINUOUS
 10
81.1311865164
 20
226.0456837566
  0
SEQEND
  0
LINE
  8
0
 62
7
  6
CONTINUOUS
 10
76.5301997874
 20
226.1356244539
 11
76.5301997874
 21
226.9423760311
  0
LINE
  8
0
 62
7
  6
CONTINUOUS
 10
81.0301997874
 20
226.9423760296
 11
81.0301997874
 21
226.1356284774
  0
LINE
  8
0
 62
7
  6
CONTINUOUS
 10
81.7801997874
 20
224.6914818152
 11
81.7801997874
 21
213.6935699995
  0
LINE
  8
0
 62
7
  6
CONTINUOUS
 10
88.4801997874
 20
213.6935699995
 11
88.4801997874
 21
224.6914689265
  0
LINE
  8
0
 62
7
  6
CONTINUOUS
 10
89.2301997874
 20
226.1356244539
 11
89.2301997874
 21
226.9423760311
  0
POLYLINE
  8
0
 62
7
  6
CONTINUOUS
 66
1
 70
0
  0
VERTEX
  8
0
 62
7
  6
CONTINUOUS
 10
114.5292141914
 20
226.0456843476
  0
VERTEX
  8
0
 62
7
  6
CONTINUOUS
 10
114.5094464166
 20
226.0273200962
  0
VERTEX
  8
0
 62
7
  6
CONTINUOUS
 10
114.4832387228
 20
226.0018378546
  0
VERTEX
  8
0
 62
7
  6
CONTINUOUS
 10
114.4582987963
 20
225.9763732558
  0
VERTEX
  8
0
 62
7
  6
CONTINUOUS
 10
114.434465445
 20
225.9509143944
  0
VERTEX
  8
0
 62
7
  6
CONTINUOUS
 10
114.4115987508
 20
225.9254350785
  0
VERTEX
  8
0
 62
7
  6
CONTINUOUS
 10
114.389567541
 20
225.8998922275
  0
VERTEX
  8
0
 62
7
  6
CONTINUOUS
 10
114.3682374577
 20
225.8742125578
  0
VERTEX
  8
0
 62
7
  6
CONTINUOUS
 10
114.3474846175
 20
225.8483075852
  0
VERTEX
  8
0
 62
7
  6
CONTINUOUS
 10
114.3272079087
 20
225.8220970025
  0
VERTEX
  8
0
 62
7
  6
CONTINUOUS
 10
114.3073671076
 20
225.7955647515
  0
VERTEX
  8
0
 62
7
  6
CONTINUOUS
 10
114.2879431281
 20
225.7687133758
  0
VERTEX
  8
0
 62
7
  6
CONTINUOUS
 10
114.2689223136
 20
225.7415501291
  0
VERTEX
  8
0
 62
7
  6
CONTINUOUS
 10
114.2502853704
 20
225.7140707902
  0
VERTEX
  8
0
 62
7
  6
CONTINUOUS
 10
114.2320169658
 20
225.686269665
  0
VERTEX
  8
0
 62
7
  6
CONTINUOUS
 10
114.214105748
 20
225.6581451136
  0
VERTEX
  8
0
 62
7
  6
CONTINUOUS
 10
114.1965340367
 20
225.6296810242
  0
VERTEX
  8
0
 62
7
  6
CONTINUOUS
 10
114.1792909937
 20
225.6008654198
  0
VERTEX
  8
0
 62
7
  6
CONTINUOUS
 10
114.1623656437
 20
225.5716846118
  0
VERTEX
  8
0
 62
7
  6
CONTINUOUS
 10
114.1457470748
 20
225.5421174778
  0
VERTEX
  8
0
 62
7
  6
CONTINUOUS
 10
114.1294403034
 20
225.5121679443
  0
VERTEX
  8
0
 62
7
  6
CONTINUOUS
 10
114.1134440425
 20
225.4818265172
  0
VERTEX
  8
0
 62
7
  6
CONTINUOUS
 10
114.0977635489
 20
225.4510892788
  0
VERTEX
  8
0
 62
7
  6
CONTINUOUS
 10
114.0824017139
 20
225.4199478281
  0
VERTEX
  8
0
 62
7
  6
CONTINUOUS
 10
114.0673619543
 20
225.3883852978
  0
VERTEX
  8
0
 62
7
  6
CONTINUOUS
 10
114.0526510689
 20
225.3563907055
  0
VERTEX
  8
0
 62
7
  6
CONTINUOUS
 10
114.0382728358
 20
225.3239351392
  0
VERTEX
  8
0
 62
7
  6
CONTINUOUS
 10
114.0242370521
 20
225.290999135
  0
VERTEX
  8
0
 62
7
  6
CONTINUOUS
 10
114.0105503579
 20
225.2575405041
  0
VERTEX
  8
0
 62
7
  6
CONTINUOUS
 10
113.9972255317
 20
225.2235242276
  0
VERTEX
  8
0
 62
7
  6
CONTINUOUS
 10
113.9842809509
 20
225.1889071762
  0
VERTEX
  8
0
 62
7
  6
CONTINUOUS
 10
113.9717526402
 20
225.1536844547
  0
VERTEX
  8
0
 62
7
  6
CONTINUOUS
 10
113.9596859222
 20
225.1178557062
  0
VERTEX
  8
0
 62
7
  6
CONTINUOUS
 10
113.9481231119
 20
225.0813951993
  0
VERTEX
  8
0
 62
7
  6
CONTINUOUS
 10
113.9371180574
 20
225.0442870631
  0
VERTEX
  8
0
 62
7
  6
CONTINUOUS
 10
113.9267298204
 20
225.0064878634
  0
VERTEX
  8
0
 62
7
  6
CONTINUOUS
 10
113.917029213
 20
224.9679439492
  0
VERTEX
  8
0
 62
7
  6
CONTINUOUS
 10
113.9081315134
 20
224.9287209366
  0
VERTEX
  8
0
 62
7
  6
CONTINUOUS
 10
113.9001780231
 20
224.8889490814
  0
VERTEX
  8
0
 62
7
  6
CONTINUOUS
 10
113.8933213511
 20
224.8487836655
  0
VERTEX
  8
0
 62
7
  6
CONTINUOUS
 10
113.8877308407
 20
224.8084639003
  0
VERTEX
  8
0
 62
7
  6
CONTINUOUS
 10
113.8835802846
 20
224.7683200074
  0
VERTEX
  8
0
 62
7
  6
CONTINUOUS
 10
113.8810332708
 20
224.7288516464
  0
VERTEX
  8
0
 62
7
  6
CONTINUOUS
 10
113.8801997341
 20
224.6914818396
  0
SEQEND
  0
POLYLINE
  8
0
 62
7
  6
CONTINUOUS
 66
1
 70
0
  0
VERTEX
  8
0
 62
7
  6
CONTINUOUS
 10
114.6202571804
 20
226.1269971056
  0
VERTEX
  8
0
 62
7
  6
CONTINUOUS
 10
114.5707612821
 20
226.0831835696
  0
VERTEX
  8
0
 62
7
  6
CONTINUOUS
 10
114.5292104846
 20
226.0456802255
  0
SEQEND
  0
LINE
  8
0
 62
7
  6
CONTINUOUS
 10
114.6625544462
 20
226.1636990737
 11
114.6202571804
 21
226.1269971056
  0
LINE
  8
0
 62
7
  6
CONTINUOUS
 10
127.3625544462
 20
226.1636990737
 11
127.3202571804
 21
226.1269971056
  0
POLYLINE
  8
AXES
 62
7
  6
CONTINUOUS
 66
1
 70
0
  0
VERTEX
  8
AXES
 62
7
  6
CONTINUOUS
 10
174.0483685482
 20
217.4595899979
  0
VERTEX
  8
AXES
 62
7
  6
CONTINUOUS
 10
174.0233259268
 20
217.4674221426
  0
VERTEX
  8
AXES
 62
7
  6
CONTINUOUS
 10
173.9996122868
 20
217.4799550832
  0
VERTEX
  8
AXES
 62
7
  6
CONTINUOUS
 10
173.978268863
 20
217.4970874169
  0
VERTEX
  8
AXES
 62
7
  6
CONTINUOUS
 10
173.9593894144
 20
217.5196571624
  0
VERTEX
  8
AXES
 62
7
  6
CONTINUOUS
 10
173.9441671161
 20
217.5480204891
  0
VERTEX
  8
AXES
 62
7
  6
CONTINUOUS
 10
173.9339897023
 20
217.5821143679
  0
VERTEX
  8
AXES
 62
7
  6
CONTINUOUS
 10
173.9301854243
 20
217.6225507872
  0
SEQEND
  0
POLYLINE
  8
0
 62
7
  6
CONTINUOUS
 66
1
 70
0
  0
VERTEX
  8
0
 62
7
  6
CONTINUOUS
 10
81.0889853844
 20
226.0837676057
  0
VERTEX
  8
0
 62
7
  6
CONTINUOUS
 10
81.0394884669
 20
226.1275697068
  0
VERTEX
  8
0
 62
7
  6
CONTINUOUS
 10
80.9978451291
 20
226.1636990731
  0
SEQEND
  0
POLYLINE
  8
0
 62
7
  6
CONTINUOUS
 66
1
 70
0
  0
VERTEX
  8
0
 62
7
  6
CONTINUOUS
 10
93.7889853844
 20
226.0837676057
  0
VERTEX
  8
0
 62
7
  6
CONTINUOUS
 10
93.7394884669
 20
226.1275697068
  0
VERTEX
  8
0
 62
7
  6
CONTINUOUS
 10
93.6978451291
 20
226.1636990731
  0
SEQEND
  0
LINE
  8
0
 62
7
  6
CONTINUOUS
 10
81.131189094
 20
226.04568022
 11
81.0889853844
 21
226.0837676057
  0
LINE
  8
0
 62
7
  6
CONTINUOUS
 10
93.831189094
 20
226.04568022
 11
93.7889853844
 21
226.0837676057
  0
POLYLINE
  8
0
 62
7
  6
CONTINUOUS
 66
1
 70
0
  0
VERTEX
  8
0
 62
7
  6
CONTINUOUS
 10
94.4801988035
 20
224.6914818366
  0
VERTEX
  8
0
 62
7
  6
CONTINUOUS
 10
94.4793053483
 20
224.7302180814
  0
VERTEX
  8
0
 62
7
  6
CONTINUOUS
 10
94.4767573989
 20
224.7690575027
  0
VERTEX
  8
0
 62
7
  6
CONTINUOUS
 10
94.4726741401
 20
224.8084250502
  0
VERTEX
  8
0
 62
7
  6
CONTINUOUS
 10
94.4672536006
 20
224.8476472792
  0
VERTEX
  8
0
 62
7
  6
CONTINUOUS
 10
94.4607080553
 20
224.8863122005
  0
VERTEX
  8
0
 62
7
  6
CONTINUOUS
 10
94.4532072824
 20
224.9242970731
  0
VERTEX
  8
0
 62
7
  6
CONTINUOUS
 10
94.4448736855
 20
224.9616191638
  0
VERTEX
  8
0
 62
7
  6
CONTINUOUS
 10
94.4358039517
 20
224.9983120012
  0
VERTEX
  8
0
 62
7
  6
CONTINUOUS
 10
94.4260794333
 20
225.0344016007
  0
VERTEX
  8
0
 62
7
  6
CONTINUOUS
 10
94.4157745424
 20
225.0698828966
  0
VERTEX
  8
0
 62
7
  6
CONTINUOUS
 10
94.4049323375
 20
225.1048175047
  0
VERTEX
  8
0
 62
7
  6
CONTINUOUS
 10
94.3935690244
 20
225.1393152354
  0
VERTEX
  8
0
 62
7
  6
CONTINUOUS
 10
94.3816968395
 20
225.1734507782
  0
VERTEX
  8
0
 62
7
  6
CONTINUOUS
 10
94.3693163533
 20
225.2073051562
  0
VERTEX
  8
0
 62
7
  6
CONTINUOUS
 10
94.3564326565
 20
225.2409246236
  0
VERTEX
  8
0
 62
7
  6
CONTINUOUS
 10
94.3430388381
 20
225.2743646555
  0
VERTEX
  8
0
 62
7
  6
CONTINUOUS
 10
94.329128364
 20
225.3076694033
  0
VERTEX
  8
0
 62
7
  6
CONTINUOUS
 10
94.3146893985
 20
225.3408764586
  0
VERTEX
  8
0
 62
7
  6
CONTINUOUS
 10
94.2997100763
 20
225.3740177936
  0
VERTEX
  8
0
 62
7
  6
CONTINUOUS
 10
94.2841771275
 20
225.4071134041
  0
VERTEX
  8
0
 62
7
  6
CONTINUOUS
 10
94.2680765848
 20
225.4401814132
  0
VERTEX
  8
0
 62
7
  6
CONTINUOUS
 10
94.2514094012
 20
225.4731987924
  0
VERTEX
  8
0
 62
7
  6
CONTINUOUS
 10
94.2341874856
 20
225.5061240108
  0
VERTEX
  8
0
 62
7
  6
CONTINUOUS
 10
94.2164225017
 20
225.5389122607
  0
VERTEX
  8
0
 62
7
  6
CONTINUOUS
 10
94.198127844
 20
225.5715202205
  0
VERTEX
  8
0
 62
7
  6
CONTINUOUS
 10
94.179312324
 20
225.6039094019
  0
VERTEX
  8
0
 62
7
  6
CONTINUOUS
 10
94.1599840017
 20
225.6360451151
  0
VERTEX
  8
0
 62
7
  6
CONTINUOUS
 10
94.1401387138
 20
225.6679093931
  0
VERTEX
  8
0
 62
7
  6
CONTINUOUS
 10
94.1197800868
 20
225.6994697391
  0
VERTEX
  8
0
 62
7
  6
CONTINUOUS
 10
94.0989027666
 20
225.7307063036
  0
VERTEX
  8
0
 62
7
  6
CONTINUOUS
 10
94.077506492
 20
225.7615863564
  0
VERTEX
  8
0
 62
7
  6
CONTINUOUS
 10
94.0555888742
 20
225.7920809164
  0
VERTEX
  8
0
 62
7
  6
CONTINUOUS
 10
94.033142069
 20
225.8221625494
  0
VERTEX
  8
0
 62
7
  6
CONTINUOUS
 10
94.0101653188
 20
225.8517924759
  0
VERTEX
  8
0
 62
7
  6
CONTINUOUS
 10
93.9866077341
 20
225.8809910515
  0
VERTEX
  8
0
 62
7
  6
CONTINUOUS
 10
93.9623067288
 20
225.9098935136
  0
VERTEX
  8
0
 62
7
  6
CONTINUOUS
 10
93.9370754666
 20
225.9386297746
  0
VERTEX
  8
0
 62
7
  6
CONTINUOUS
 10
93.9107064799
 20
225.9673088203
  0
VERTEX
  8
0
 62
7
  6
CONTINUOUS
 10
93.8829928798
 20
225.9959896559
  0
VERTEX
  8
0
 62
7
  6
CONTINUOUS
 10
93.8537119468
 20
226.0246984184
  0
VERTEX
  8
0
 62
7
  6
CONTINUOUS
 10
93.8311865164
 20
226.0456837566
  0
SEQEND
  0
LINE
  8
0
 62
7
  6
CONTINUOUS
 10
93.7301997874
 20
226.9423760296
 11
93.7301997874
 21
226.1356284774
  0
LINE
  8
0
 62
7
  6
CONTINUOUS
 10
94.4801997874
 20
224.6914818152
 11
94.4801997874
 21
213.6935699995
  0
LINE
  8
0
 62
7
  6
CONTINUOUS
 10
101.1801997874
 20
213.6935699995
 11
101.1801997874
 21
224.6914689265
  0
LINE
  8
0
 62
7
  6
CONTINUOUS
 10
101.9301997874
 20
226.1356244539
 11
101.9301997874
 21
226.9423774706
  0
POLYLINE
  8
0
 62
7
  6
CONTINUOUS
 66
1
 70
0
  0
VERTEX
  8
0
 62
7
  6
CONTINUOUS
 10
127.2292141914
 20
226.0456843476
  0
VERTEX
  8
0
 62
7
  6
CONTINUOUS
 10
127.2094464166
 20
226.0273200962
  0
VERTEX
  8
0
 62
7
  6
CONTINUOUS
 10
127.1832387228
 20
226.0018378546
  0
VERTEX
  8
0
 62
7
  6
CONTINUOUS
 10
127.1582987963
 20
225.9763732558
  0
VERTEX
  8
0
 62
7
  6
CONTINUOUS
 10
127.134465445
 20
225.9509143944
  0
VERTEX
  8
0
 62
7
  6
CONTINUOUS
 10
127.1115987508
 20
225.9254350785
  0
VERTEX
  8
0
 62
7
  6
CONTINUOUS
 10
127.089567541
 20
225.8998922275
  0
VERTEX
  8
0
 62
7
  6
CONTINUOUS
 10
127.0682374577
 20
225.8742125578
  0
VERTEX
  8
0
 62
7
  6
CONTINUOUS
 10
127.0474846175
 20
225.8483075852
  0
VERTEX
  8
0
 62
7
  6
CONTINUOUS
 10
127.0272079087
 20
225.8220970025
  0
VERTEX
  8
0
 62
7
  6
CONTINUOUS
 10
127.0073671076
 20
225.7955647515
  0
VERTEX
  8
0
 62
7
  6
CONTINUOUS
 10
126.9879431281
 20
225.7687133758
  0
VERTEX
  8
0
 62
7
  6
CONTINUOUS
 10
126.9689223136
 20
225.7415501291
  0
VERTEX
  8
0
 62
7
  6
CONTINUOUS
 10
126.9502853704
 20
225.7140707902
  0
VERTEX
  8
0
 62
7
  6
CONTINUOUS
 10
126.9320169658
 20
225.686269665
  0
VERTEX
  8
0
 62
7
  6
CONTINUOUS
 10
126.914105748
 20
225.6581451136
  0
VERTEX
  8
0
 62
7
  6
CONTINUOUS
 10
126.8965340367
 20
225.6296810242
  0
VERTEX
  8
0
 62
7
  6
CONTINUOUS
 10
126.8792909937
 20
225.6008654198
  0
VERTEX
  8
0
 62
7
  6
CONTINUOUS
 10
126.8623656437
 20
225.5716846118
  0
VERTEX
  8
0
 62
7
  6
CONTINUOUS
 10
126.8457470748
 20
225.5421174778
  0
VERTEX
  8
0
 62
7
  6
CONTINUOUS
 10
126.8294403034
 20
225.5121679443
  0
VERTEX
  8
0
 62
7
  6
CONTINUOUS
 10
126.8134440425
 20
225.4818265172
  0
VERTEX
  8
0
 62
7
  6
CONTINUOUS
 10
126.7977635489
 20
225.4510892788
  0
VERTEX
  8
0
 62
7
  6
CONTINUOUS
 10
126.7824017139
 20
225.4199478281
  0
VERTEX
  8
0
 62
7
  6
CONTINUOUS
 10
126.7673619543
 20
225.3883852978
  0
VERTEX
  8
0
 62
7
  6
CONTINUOUS
 10
126.7526510689
 20
225.3563907055
  0
VERTEX
  8
0
 62
7
  6
CONTINUOUS
 10
126.7382728358
 20
225.3239351392
  0
VERTEX
  8
0
 62
7
  6
CONTINUOUS
 10
126.7242370521
 20
225.290999135
  0
VERTEX
  8
0
 62
7
  6
CONTINUOUS
 10
126.7105503579
 20
225.2575405041
  0
VERTEX
  8
0
 62
7
  6
CONTINUOUS
 10
126.6972255317
 20
225.2235242276
  0
VERTEX
  8
0
 62
7
  6
CONTINUOUS
 10
126.6842809509
 20
225.1889071762
  0
VERTEX
  8
0
 62
7
  6
CONTINUOUS
 10
126.6717526402
 20
225.1536844547
  0
VERTEX
  8
0
 62
7
  6
CONTINUOUS
 10
126.6596859222
 20
225.1178557062
  0
VERTEX
  8
0
 62
7
  6
CONTINUOUS
 10
126.6481231119
 20
225.0813951993
  0
VERTEX
  8
0
 62
7
  6
CONTINUOUS
 10
126.6371180574
 20
225.0442870631
  0
VERTEX
  8
0
 62
7
  6
CONTINUOUS
 10
126.6267298204
 20
225.0064878634
  0
VERTEX
  8
0
 62
7
  6
CONTINUOUS
 10
126.617029213
 20
224.9679439492
  0
VERTEX
  8
0
 62
7
  6
CONTINUOUS
 10
126.6081315134
 20
224.9287209366
  0
VERTEX
  8
0
 62
7
  6
CONTINUOUS
 10
126.6001780231
 20
224.8889490814
  0
VERTEX
  8
0
 62
7
  6
CONTINUOUS
 10
126.5933213511
 20
224.8487836655
  0
VERTEX
  8
0
 62
7
  6
CONTINUOUS
 10
126.5877308407
 20
224.8084639003
  0
VERTEX
  8
0
 62
7
  6
CONTINUOUS
 10
126.5835802846
 20
224.7683200074
  0
VERTEX
  8
0
 62
7
  6
CONTINUOUS
 10
126.5810332708
 20
224.7288516464
  0
VERTEX
  8
0
 62
7
  6
CONTINUOUS
 10
126.5801997341
 20
224.6914818396
  0
SEQEND
  0
POLYLINE
  8
0
 62
7
  6
CONTINUOUS
 66
1
 70
0
  0
VERTEX
  8
0
 62
7
  6
CONTINUOUS
 10
140.3252285545
 20
226.0456843476
  0
VERTEX
  8
0
 62
7
  6
CONTINUOUS
 10
140.3054607798
 20
226.0273200962
  0
VERTEX
  8
0
 62
7
  6
CONTINUOUS
 10
140.279253086
 20
226.0018378546
  0
VERTEX
  8
0
 62
7
  6
CONTINUOUS
 10
140.2543131594
 20
225.9763732558
  0
VERTEX
  8
0
 62
7
  6
CONTINUOUS
 10
140.2304798081
 20
225.9509143944
  0
VERTEX
  8
0
 62
7
  6
CONTINUOUS
 10
140.207613114
 20
225.9254350786
  0
VERTEX
  8
0
 62
7
  6
CONTINUOUS
 10
140.1855819041
 20
225.8998922275
  0
VERTEX
  8
0
 62
7
  6
CONTINUOUS
 10
140.1642518208
 20
225.8742125578
  0
VERTEX
  8
0
 62
7
  6
CONTINUOUS
 10
140.1434989807
 20
225.8483075853
  0
VERTEX
  8
0
 62
7
  6
CONTINUOUS
 10
140.1232222719
 20
225.8220970025
  0
VERTEX
  8
0
 62
7
  6
CONTINUOUS
 10
140.1033814708
 20
225.7955647515
  0
VERTEX
  8
0
 62
7
  6
CONTINUOUS
 10
140.0839574913
 20
225.7687133759
  0
VERTEX
  8
0
 62
7
  6
CONTINUOUS
 10
140.0649366768
 20
225.7415501292
  0
VERTEX
  8
0
 62
7
  6
CONTINUOUS
 10
140.0462997336
 20
225.7140707902
  0
VERTEX
  8
0
 62
7
  6
CONTINUOUS
 10
140.028031329
 20
225.686269665
  0
VERTEX
  8
0
 62
7
  6
CONTINUOUS
 10
140.0101201112
 20
225.6581451136
  0
VERTEX
  8
0
 62
7
  6
CONTINUOUS
 10
139.9925483999
 20
225.6296810242
  0
VERTEX
  8
0
 62
7
  6
CONTINUOUS
 10
139.9753053569
 20
225.6008654199
  0
VERTEX
  8
0
 62
7
  6
CONTINUOUS
 10
139.9583800069
 20
225.5716846118
  0
VERTEX
  8
0
 62
7
  6
CONTINUOUS
 10
139.941761438
 20
225.5421174779
  0
VERTEX
  8
0
 62
7
  6
CONTINUOUS
 10
139.9254546666
 20
225.5121679443
  0
VERTEX
  8
0
 62
7
  6
CONTINUOUS
 10
139.9094584057
 20
225.4818265172
  0
VERTEX
  8
0
 62
7
  6
CONTINUOUS
 10
139.893777912
 20
225.4510892788
  0
VERTEX
  8
0
 62
7
  6
CONTINUOUS
 10
139.8784160771
 20
225.4199478281
  0
VERTEX
  8
0
 62
7
  6
CONTINUOUS
 10
139.8633763175
 20
225.3883852978
  0
VERTEX
  8
0
 62
7
  6
CONTINUOUS
 10
139.8486654321
 20
225.3563907056
  0
VERTEX
  8
0
 62
7
  6
CONTINUOUS
 10
139.834287199
 20
225.3239351393
  0
VERTEX
  8
0
 62
7
  6
CONTINUOUS
 10
139.8202514153
 20
225.2909991351
  0
VERTEX
  8
0
 62
7
  6
CONTINUOUS
 10
139.806564721
 20
225.2575405041
  0
VERTEX
  8
0
 62
7
  6
CONTINUOUS
 10
139.7932398949
 20
225.2235242277
  0
VERTEX
  8
0
 62
7
  6
CONTINUOUS
 10
139.780295314
 20
225.1889071762
  0
VERTEX
  8
0
 62
7
  6
CONTINUOUS
 10
139.7677670034
 20
225.1536844547
  0
VERTEX
  8
0
 62
7
  6
CONTINUOUS
 10
139.7557002854
 20
225.1178557063
  0
VERTEX
  8
0
 62
7
  6
CONTINUOUS
 10
139.744137475
 20
225.0813951993
  0
VERTEX
  8
0
 62
7
  6
CONTINUOUS
 10
139.7331324206
 20
225.0442870632
  0
VERTEX
  8
0
 62
7
  6
CONTINUOUS
 10
139.7227441835
 20
225.0064878634
  0
VERTEX
  8
0
 62
7
  6
CONTINUOUS
 10
139.7130435762
 20
224.9679439492
  0
VERTEX
  8
0
 62
7
  6
CONTINUOUS
 10
139.7041458766
 20
224.9287209367
  0
VERTEX
  8
0
 62
7
  6
CONTINUOUS
 10
139.6961923863
 20
224.8889490815
  0
VERTEX
  8
0
 62
7
  6
CONTINUOUS
 10
139.6893357142
 20
224.8487836655
  0
VERTEX
  8
0
 62
7
  6
CONTINUOUS
 10
139.6837452039
 20
224.8084639003
  0
VERTEX
  8
0
 62
7
  6
CONTINUOUS
 10
139.6795946478
 20
224.7683200074
  0
VERTEX
  8
0
 62
7
  6
CONTINUOUS
 10
139.6770476339
 20
224.7288516464
  0
VERTEX
  8
0
 62
7
  6
CONTINUOUS
 10
139.6762140973
 20
224.6914818396
  0
SEQEND
  0
POLYLINE
  8
0
 62
7
  6
CONTINUOUS
 66
1
 70
0
  0
VERTEX
  8
0
 62
7
  6
CONTINUOUS
 10
127.3202571804
 20
226.1269971056
  0
VERTEX
  8
0
 62
7
  6
CONTINUOUS
 10
127.2707612821
 20
226.0831835696
  0
VERTEX
  8
0
 62
7
  6
CONTINUOUS
 10
127.2292104846
 20
226.0456802255
  0
SEQEND
  0
POLYLINE
  8
0
 62
7
  6
CONTINUOUS
 66
1
 70
0
  0
VERTEX
  8
0
 62
7
  6
CONTINUOUS
 10
140.4162617482
 20
226.1269885275
  0
VERTEX
  8
0
 62
7
  6
CONTINUOUS
 10
140.3667707602
 20
226.0831791994
  0
VERTEX
  8
0
 62
7
  6
CONTINUOUS
 10
140.3252248474
 20
226.045680225
  0
SEQEND
  0
LINE
  8
0
 62
7
  6
CONTINUOUS
 10
140.458554081
 20
226.1636864123
 11
140.4162617482
 21
226.1269885275
  0
POLYLINE
  8
0
 62
7
  6
CONTINUOUS
 66
1
 70
0
  0
VERTEX
  8
0
 62
7
  6
CONTINUOUS
 10
106.4889853844
 20
226.0837676057
  0
VERTEX
  8
0
 62
7
  6
CONTINUOUS
 10
106.4394884669
 20
226.1275697068
  0
VERTEX
  8
0
 62
7
  6
CONTINUOUS
 10
106.3978451291
 20
226.1636990731
  0
SEQEND
  0
LINE
  8
0
 62
7
  6
CONTINUOUS
 10
106.531189094
 20
226.04568022
 11
106.4889853844
 21
226.0837676057
  0
POLYLINE
  8
0
 62
7
  6
CONTINUOUS
 66
1
 70
0
  0
VERTEX
  8
0
 62
7
  6
CONTINUOUS
 10
107.1801988035
 20
224.6914818366
  0
VERTEX
  8
0
 62
7
  6
CONTINUOUS
 10
107.1793053483
 20
224.7302180814
  0
VERTEX
  8
0
 62
7
  6
CONTINUOUS
 10
107.1767573989
 20
224.7690575027
  0
VERTEX
  8
0
 62
7
  6
CONTINUOUS
 10
107.1726741401
 20
224.8084250502
  0
VERTEX
  8
0
 62
7
  6
CONTINUOUS
 10
107.1672536006
 20
224.8476472792
  0
VERTEX
  8
0
 62
7
  6
CONTINUOUS
 10
107.1607080553
 20
224.8863122005
  0
VERTEX
  8
0
 62
7
  6
CONTINUOUS
 10
107.1532072824
 20
224.9242970731
  0
VERTEX
  8
0
 62
7
  6
CONTINUOUS
 10
107.1448736855
 20
224.9616191638
  0
VERTEX
  8
0
 62
7
  6
CONTINUOUS
 10
107.1358039517
 20
224.9983120012
  0
VERTEX
  8
0
 62
7
  6
CONTINUOUS
 10
107.1260794333
 20
225.0344016007
  0
VERTEX
  8
0
 62
7
  6
CONTINUOUS
 10
107.1157745424
 20
225.0698828966
  0
VERTEX
  8
0
 62
7
  6
CONTINUOUS
 10
107.1049323375
 20
225.1048175047
  0
VERTEX
  8
0
 62
7
  6
CONTINUOUS
 10
107.0935690244
 20
225.1393152354
  0
VERTEX
  8
0
 62
7
  6
CONTINUOUS
 10
107.0816968395
 20
225.1734507782
  0
VERTEX
  8
0
 62
7
  6
CONTINUOUS
 10
107.0693163533
 20
225.2073051562
  0
VERTEX
  8
0
 62
7
  6
CONTINUOUS
 10
107.0564326565
 20
225.2409246236
  0
VERTEX
  8
0
 62
7
  6
CONTINUOUS
 10
107.0430388381
 20
225.2743646555
  0
VERTEX
  8
0
 62
7
  6
CONTINUOUS
 10
107.029128364
 20
225.3076694033
  0
VERTEX
  8
0
 62
7
  6
CONTINUOUS
 10
107.0146893985
 20
225.3408764586
  0
VERTEX
  8
0
 62
7
  6
CONTINUOUS
 10
106.9997100763
 20
225.3740177936
  0
VERTEX
  8
0
 62
7
  6
CONTINUOUS
 10
106.9841771275
 20
225.4071134041
  0
VERTEX
  8
0
 62
7
  6
CONTINUOUS
 10
106.9680765848
 20
225.4401814132
  0
VERTEX
  8
0
 62
7
  6
CONTINUOUS
 10
106.9514094012
 20
225.4731987924
  0
VERTEX
  8
0
 62
7
  6
CONTINUOUS
 10
106.9341874856
 20
225.5061240108
  0
VERTEX
  8
0
 62
7
  6
CONTINUOUS
 10
106.9164225017
 20
225.5389122607
  0
VERTEX
  8
0
 62
7
  6
CONTINUOUS
 10
106.898127844
 20
225.5715202205
  0
VERTEX
  8
0
 62
7
  6
CONTINUOUS
 10
106.879312324
 20
225.6039094019
  0
VERTEX
  8
0
 62
7
  6
CONTINUOUS
 10
106.8599840017
 20
225.6360451151
  0
VERTEX
  8
0
 62
7
  6
CONTINUOUS
 10
106.8401387138
 20
225.6679093931
  0
VERTEX
  8
0
 62
7
  6
CONTINUOUS
 10
106.8197800868
 20
225.6994697391
  0
VERTEX
  8
0
 62
7
  6
CONTINUOUS
 10
106.7989027666
 20
225.7307063036
  0
VERTEX
  8
0
 62
7
  6
CONTINUOUS
 10
106.777506492
 20
225.7615863564
  0
VERTEX
  8
0
 62
7
  6
CONTINUOUS
 10
106.7555888742
 20
225.7920809164
  0
VERTEX
  8
0
 62
7
  6
CONTINUOUS
 10
106.733142069
 20
225.8221625494
  0
VERTEX
  8
0
 62
7
  6
CONTINUOUS
 10
106.7101653188
 20
225.8517924759
  0
VERTEX
  8
0
 62
7
  6
CONTINUOUS
 10
106.6866077341
 20
225.8809910515
  0
VERTEX
  8
0
 62
7
  6
CONTINUOUS
 10
106.6623067288
 20
225.9098935136
  0
VERTEX
  8
0
 62
7
  6
CONTINUOUS
 10
106.6370754666
 20
225.9386297746
  0
VERTEX
  8
0
 62
7
  6
CONTINUOUS
 10
106.6107064799
 20
225.9673088203
  0
VERTEX
  8
0
 62
7
  6
CONTINUOUS
 10
106.5829928798
 20
225.9959896559
  0
VERTEX
  8
0
 62
7
  6
CONTINUOUS
 10
106.5537119468
 20
226.0246984184
  0
VERTEX
  8
0
 62
7
  6
CONTINUOUS
 10
106.5311865164
 20
226.0456837566
  0
SEQEND
  0
LINE
  8
0
 62
7
  6
CONTINUOUS
 10
106.4301997874
 20
226.9423760296
 11
106.4301997874
 21
226.1356284774
  0
LINE
  8
0
 62
7
  6
CONTINUOUS
 10
107.1801997874
 20
224.6914818152
 11
107.1801997874
 21
213.6935699995
  0
LINE
  8
0
 62
7
  6
CONTINUOUS
 10
113.8801997874
 20
213.6935699995
 11
113.8801997874
 21
224.6914689265
  0
LINE
  8
0
 62
7
  6
CONTINUOUS
 10
114.6301997874
 20
226.1356244539
 11
114.6301997874
 21
226.9423774706
  0
POLYLINE
  8
0
 62
7
  6
CONTINUOUS
 66
1
 70
0
  0
VERTEX
  8
0
 62
7
  6
CONTINUOUS
 10
154.0792285545
 20
226.0456843476
  0
VERTEX
  8
0
 62
7
  6
CONTINUOUS
 10
154.0594607798
 20
226.0273200962
  0
VERTEX
  8
0
 62
7
  6
CONTINUOUS
 10
154.033253086
 20
226.0018378546
  0
VERTEX
  8
0
 62
7
  6
CONTINUOUS
 10
154.0083131594
 20
225.9763732558
  0
VERTEX
  8
0
 62
7
  6
CONTINUOUS
 10
153.9844798081
 20
225.9509143944
  0
VERTEX
  8
0
 62
7
  6
CONTINUOUS
 10
153.961613114
 20
225.9254350786
  0
VERTEX
  8
0
 62
7
  6
CONTINUOUS
 10
153.9395819041
 20
225.8998922275
  0
VERTEX
  8
0
 62
7
  6
CONTINUOUS
 10
153.9182518208
 20
225.8742125578
  0
VERTEX
  8
0
 62
7
  6
CONTINUOUS
 10
153.8974989807
 20
225.8483075853
  0
VERTEX
  8
0
 62
7
  6
CONTINUOUS
 10
153.8772222719
 20
225.8220970025
  0
VERTEX
  8
0
 62
7
  6
CONTINUOUS
 10
153.8573814708
 20
225.7955647515
  0
VERTEX
  8
0
 62
7
  6
CONTINUOUS
 10
153.8379574913
 20
225.7687133759
  0
VERTEX
  8
0
 62
7
  6
CONTINUOUS
 10
153.8189366768
 20
225.7415501292
  0
VERTEX
  8
0
 62
7
  6
CONTINUOUS
 10
153.8002997336
 20
225.7140707902
  0
VERTEX
  8
0
 62
7
  6
CONTINUOUS
 10
153.782031329
 20
225.686269665
  0
VERTEX
  8
0
 62
7
  6
CONTINUOUS
 10
153.7641201112
 20
225.6581451136
  0
VERTEX
  8
0
 62
7
  6
CONTINUOUS
 10
153.7465483999
 20
225.6296810242
  0
VERTEX
  8
0
 62
7
  6
CONTINUOUS
 10
153.7293053569
 20
225.6008654199
  0
VERTEX
  8
0
 62
7
  6
CONTINUOUS
 10
153.7123800069
 20
225.5716846118
  0
VERTEX
  8
0
 62
7
  6
CONTINUOUS
 10
153.695761438
 20
225.5421174779
  0
VERTEX
  8
0
 62
7
  6
CONTINUOUS
 10
153.6794546666
 20
225.5121679443
  0
VERTEX
  8
0
 62
7
  6
CONTINUOUS
 10
153.6634584057
 20
225.4818265172
  0
VERTEX
  8
0
 62
7
  6
CONTINUOUS
 10
153.647777912
 20
225.4510892788
  0
VERTEX
  8
0
 62
7
  6
CONTINUOUS
 10
153.6324160771
 20
225.4199478281
  0
VERTEX
  8
0
 62
7
  6
CONTINUOUS
 10
153.6173763175
 20
225.3883852978
  0
VERTEX
  8
0
 62
7
  6
CONTINUOUS
 10
153.6026654321
 20
225.3563907056
  0
VERTEX
  8
0
 62
7
  6
CONTINUOUS
 10
153.588287199
 20
225.3239351393
  0
VERTEX
  8
0
 62
7
  6
CONTINUOUS
 10
153.5742514153
 20
225.2909991351
  0
VERTEX
  8
0
 62
7
  6
CONTINUOUS
 10
153.560564721
 20
225.2575405041
  0
VERTEX
  8
0
 62
7
  6
CONTINUOUS
 10
153.5472398949
 20
225.2235242277
  0
VERTEX
  8
0
 62
7
  6
CONTINUOUS
 10
153.534295314
 20
225.1889071762
  0
VERTEX
  8
0
 62
7
  6
CONTINUOUS
 10
153.5217670034
 20
225.1536844547
  0
VERTEX
  8
0
 62
7
  6
CONTINUOUS
 10
153.5097002854
 20
225.1178557063
  0
VERTEX
  8
0
 62
7
  6
CONTINUOUS
 10
153.498137475
 20
225.0813951993
  0
VERTEX
  8
0
 62
7
  6
CONTINUOUS
 10
153.4871324206
 20
225.0442870632
  0
VERTEX
  8
0
 62
7
  6
CONTINUOUS
 10
153.4767441835
 20
225.0064878634
  0
VERTEX
  8
0
 62
7
  6
CONTINUOUS
 10
153.4670435762
 20
224.9679439492
  0
VERTEX
  8
0
 62
7
  6
CONTINUOUS
 10
153.4581458766
 20
224.9287209367
  0
VERTEX
  8
0
 62
7
  6
CONTINUOUS
 10
153.4501923863
 20
224.8889490815
  0
VERTEX
  8
0
 62
7
  6
CONTINUOUS
 10
153.4433357142
 20
224.8487836655
  0
VERTEX
  8
0
 62
7
  6
CONTINUOUS
 10
153.4377452039
 20
224.8084639003
  0
VERTEX
  8
0
 62
7
  6
CONTINUOUS
 10
153.4335946478
 20
224.7683200074
  0
VERTEX
  8
0
 62
7
  6
CONTINUOUS
 10
153.4310476339
 20
224.7288516464
  0
VERTEX
  8
0
 62
7
  6
CONTINUOUS
 10
153.4302140973
 20
224.6914818396
  0
SEQEND
  0
POLYLINE
  8
0
 62
7
  6
CONTINUOUS
 66
1
 70
0
  0
VERTEX
  8
0
 62
7
  6
CONTINUOUS
 10
154.1702617482
 20
226.1269885275
  0
VERTEX
  8
0
 62
7
  6
CONTINUOUS
 10
154.1207707602
 20
226.0831791994
  0
VERTEX
  8
0
 62
7
  6
CONTINUOUS
 10
154.0792248474
 20
226.045680225
  0
SEQEND
  0
LINE
  8
0
 62
7
  6
CONTINUOUS
 10
154.212554081
 20
226.1636864123
 11
154.1702617482
 21
226.1269885275
  0
LINE
  8
0
 62
7
  6
CONTINUOUS
 10
168.7125540776
 20
226.1636864079
 11
168.6709156138
 21
226.1275610748
  0
POLYLINE
  8
0
 62
7
  6
CONTINUOUS
 66
1
 70
0
  0
VERTEX
  8
0
 62
7
  6
CONTINUOUS
 10
119.1889853844
 20
226.0837676057
  0
VERTEX
  8
0
 62
7
  6
CONTINUOUS
 10
119.1394884669
 20
226.1275697068
  0
VERTEX
  8
0
 62
7
  6
CONTINUOUS
 10
119.0978451291
 20
226.1636990731
  0
SEQEND
  0
POLYLINE
  8
0
 62
7
  6
CONTINUOUS
 66
1
 70
0
  0
VERTEX
  8
0
 62
7
  6
CONTINUOUS
 10
131.8889853844
 20
226.0837676057
  0
VERTEX
  8
0
 62
7
  6
CONTINUOUS
 10
131.8394884669
 20
226.1275697068
  0
VERTEX
  8
0
 62
7
  6
CONTINUOUS
 10
131.7978451291
 20
226.1636990731
  0
SEQEND
  0
LINE
  8
0
 62
7
  6
CONTINUOUS
 10
119.231189094
 20
226.04568022
 11
119.1889853844
 21
226.0837676057
  0
LINE
  8
0
 62
7
  6
CONTINUOUS
 10
131.931189094
 20
226.04568022
 11
131.8889853844
 21
226.0837676057
  0
POLYLINE
  8
0
 62
7
  6
CONTINUOUS
 66
1
 70
0
  0
VERTEX
  8
0
 62
7
  6
CONTINUOUS
 10
119.8801988035
 20
224.6914818366
  0
VERTEX
  8
0
 62
7
  6
CONTINUOUS
 10
119.8793053483
 20
224.7302180814
  0
VERTEX
  8
0
 62
7
  6
CONTINUOUS
 10
119.8767573989
 20
224.7690575027
  0
VERTEX
  8
0
 62
7
  6
CONTINUOUS
 10
119.8726741401
 20
224.8084250502
  0
VERTEX
  8
0
 62
7
  6
CONTINUOUS
 10
119.8672536006
 20
224.8476472792
  0
VERTEX
  8
0
 62
7
  6
CONTINUOUS
 10
119.8607080553
 20
224.8863122005
  0
VERTEX
  8
0
 62
7
  6
CONTINUOUS
 10
119.8532072824
 20
224.9242970731
  0
VERTEX
  8
0
 62
7
  6
CONTINUOUS
 10
119.8448736855
 20
224.9616191638
  0
VERTEX
  8
0
 62
7
  6
CONTINUOUS
 10
119.8358039517
 20
224.9983120012
  0
VERTEX
  8
0
 62
7
  6
CONTINUOUS
 10
119.8260794333
 20
225.0344016007
  0
VERTEX
  8
0
 62
7
  6
CONTINUOUS
 10
119.8157745424
 20
225.0698828966
  0
VERTEX
  8
0
 62
7
  6
CONTINUOUS
 10
119.8049323375
 20
225.1048175047
  0
VERTEX
  8
0
 62
7
  6
CONTINUOUS
 10
119.7935690244
 20
225.1393152354
  0
VERTEX
  8
0
 62
7
  6
CONTINUOUS
 10
119.7816968395
 20
225.1734507782
  0
VERTEX
  8
0
 62
7
  6
CONTINUOUS
 10
119.7693163533
 20
225.2073051562
  0
VERTEX
  8
0
 62
7
  6
CONTINUOUS
 10
119.7564326565
 20
225.2409246236
  0
VERTEX
  8
0
 62
7
  6
CONTINUOUS
 10
119.7430388381
 20
225.2743646555
  0
VERTEX
  8
0
 62
7
  6
CONTINUOUS
 10
119.729128364
 20
225.3076694033
  0
VERTEX
  8
0
 62
7
  6
CONTINUOUS
 10
119.7146893985
 20
225.3408764586
  0
VERTEX
  8
0
 62
7
  6
CONTINUOUS
 10
119.6997100763
 20
225.3740177936
  0
VERTEX
  8
0
 62
7
  6
CONTINUOUS
 10
119.6841771275
 20
225.4071134041
  0
VERTEX
  8
0
 62
7
  6
CONTINUOUS
 10
119.6680765848
 20
225.4401814132
  0
VERTEX
  8
0
 62
7
  6
CONTINUOUS
 10
119.6514094012
 20
225.4731987924
  0
VERTEX
  8
0
 62
7
  6
CONTINUOUS
 10
119.6341874856
 20
225.5061240108
  0
VERTEX
  8
0
 62
7
  6
CONTINUOUS
 10
119.6164225017
 20
225.5389122607
  0
VERTEX
  8
0
 62
7
  6
CONTINUOUS
 10
119.598127844
 20
225.5715202205
  0
VERTEX
  8
0
 62
7
  6
CONTINUOUS
 10
119.579312324
 20
225.6039094019
  0
VERTEX
  8
0
 62
7
  6
CONTINUOUS
 10
119.5599840017
 20
225.6360451151
  0
VERTEX
  8
0
 62
7
  6
CONTINUOUS
 10
119.5401387138
 20
225.6679093931
  0
VERTEX
  8
0
 62
7
  6
CONTINUOUS
 10
119.5197800868
 20
225.6994697391
  0
VERTEX
  8
0
 62
7
  6
CONTINUOUS
 10
119.4989027666
 20
225.7307063036
  0
VERTEX
  8
0
 62
7
  6
CONTINUOUS
 10
119.477506492
 20
225.7615863564
  0
VERTEX
  8
0
 62
7
  6
CONTINUOUS
 10
119.4555888742
 20
225.7920809164
  0
VERTEX
  8
0
 62
7
  6
CONTINUOUS
 10
119.433142069
 20
225.8221625494
  0
VERTEX
  8
0
 62
7
  6
CONTINUOUS
 10
119.4101653188
 20
225.8517924759
  0
VERTEX
  8
0
 62
7
  6
CONTINUOUS
 10
119.3866077341
 20
225.8809910515
  0
VERTEX
  8
0
 62
7
  6
CONTINUOUS
 10
119.3623067288
 20
225.9098935136
  0
VERTEX
  8
0
 62
7
  6
CONTINUOUS
 10
119.3370754666
 20
225.9386297746
  0
VERTEX
  8
0
 62
7
  6
CONTINUOUS
 10
119.3107064799
 20
225.9673088203
  0
VERTEX
  8
0
 62
7
  6
CONTINUOUS
 10
119.2829928798
 20
225.9959896559
  0
VERTEX
  8
0
 62
7
  6
CONTINUOUS
 10
119.2537119468
 20
226.0246984184
  0
VERTEX
  8
0
 62
7
  6
CONTINUOUS
 10
119.2311865164
 20
226.0456837566
  0
SEQEND
  0
LINE
  8
0
 62
7
  6
CONTINUOUS
 10
119.1301997874
 20
226.9423760296
 11
119.1301997874
 21
226.1356284774
  0
LINE
  8
0
 62
7
  6
CONTINUOUS
 10
119.8801997874
 20
224.6914818152
 11
119.8801997874
 21
213.6935699995
  0
LINE
  8
0
 62
7
  6
CONTINUOUS
 10
126.5801997874
 20
213.6935699995
 11
126.5801997874
 21
224.6914689265
  0
LINE
  8
0
 62
7
  6
CONTINUOUS
 10
127.3301997874
 20
226.1356244539
 11
127.3301997874
 21
226.9423774706
  0
POLYLINE
  8
0
 62
7
  6
CONTINUOUS
 66
1
 70
0
  0
VERTEX
  8
0
 62
7
  6
CONTINUOUS
 10
184.2042285545
 20
226.0456843476
  0
VERTEX
  8
0
 62
7
  6
CONTINUOUS
 10
184.1844607798
 20
226.0273200962
  0
VERTEX
  8
0
 62
7
  6
CONTINUOUS
 10
184.158253086
 20
226.0018378546
  0
VERTEX
  8
0
 62
7
  6
CONTINUOUS
 10
184.1333131594
 20
225.9763732558
  0
VERTEX
  8
0
 62
7
  6
CONTINUOUS
 10
184.1094798081
 20
225.9509143944
  0
VERTEX
  8
0
 62
7
  6
CONTINUOUS
 10
184.086613114
 20
225.9254350786
  0
VERTEX
  8
0
 62
7
  6
CONTINUOUS
 10
184.0645819041
 20
225.8998922275
  0
VERTEX
  8
0
 62
7
  6
CONTINUOUS
 10
184.0432518208
 20
225.8742125578
  0
VERTEX
  8
0
 62
7
  6
CONTINUOUS
 10
184.0224989807
 20
225.8483075853
  0
VERTEX
  8
0
 62
7
  6
CONTINUOUS
 10
184.0022222719
 20
225.8220970025
  0
VERTEX
  8
0
 62
7
  6
CONTINUOUS
 10
183.9823814708
 20
225.7955647515
  0
VERTEX
  8
0
 62
7
  6
CONTINUOUS
 10
183.9629574913
 20
225.7687133759
  0
VERTEX
  8
0
 62
7
  6
CONTINUOUS
 10
183.9439366768
 20
225.7415501292
  0
VERTEX
  8
0
 62
7
  6
CONTINUOUS
 10
183.9252997336
 20
225.7140707902
  0
VERTEX
  8
0
 62
7
  6
CONTINUOUS
 10
183.907031329
 20
225.686269665
  0
VERTEX
  8
0
 62
7
  6
CONTINUOUS
 10
183.8891201112
 20
225.6581451136
  0
VERTEX
  8
0
 62
7
  6
CONTINUOUS
 10
183.8715483999
 20
225.6296810242
  0
VERTEX
  8
0
 62
7
  6
CONTINUOUS
 10
183.8543053569
 20
225.6008654199
  0
VERTEX
  8
0
 62
7
  6
CONTINUOUS
 10
183.8373800069
 20
225.5716846118
  0
VERTEX
  8
0
 62
7
  6
CONTINUOUS
 10
183.820761438
 20
225.5421174779
  0
VERTEX
  8
0
 62
7
  6
CONTINUOUS
 10
183.8044546666
 20
225.5121679443
  0
VERTEX
  8
0
 62
7
  6
CONTINUOUS
 10
183.7884584057
 20
225.4818265172
  0
VERTEX
  8
0
 62
7
  6
CONTINUOUS
 10
183.772777912
 20
225.4510892788
  0
VERTEX
  8
0
 62
7
  6
CONTINUOUS
 10
183.7574160771
 20
225.4199478281
  0
VERTEX
  8
0
 62
7
  6
CONTINUOUS
 10
183.7423763175
 20
225.3883852978
  0
VERTEX
  8
0
 62
7
  6
CONTINUOUS
 10
183.7276654321
 20
225.3563907056
  0
VERTEX
  8
0
 62
7
  6
CONTINUOUS
 10
183.713287199
 20
225.3239351393
  0
VERTEX
  8
0
 62
7
  6
CONTINUOUS
 10
183.6992514153
 20
225.2909991351
  0
VERTEX
  8
0
 62
7
  6
CONTINUOUS
 10
183.685564721
 20
225.2575405041
  0
VERTEX
  8
0
 62
7
  6
CONTINUOUS
 10
183.6722398949
 20
225.2235242277
  0
VERTEX
  8
0
 62
7
  6
CONTINUOUS
 10
183.659295314
 20
225.1889071762
  0
VERTEX
  8
0
 62
7
  6
CONTINUOUS
 10
183.6467670034
 20
225.1536844547
  0
VERTEX
  8
0
 62
7
  6
CONTINUOUS
 10
183.6347002854
 20
225.1178557063
  0
VERTEX
  8
0
 62
7
  6
CONTINUOUS
 10
183.623137475
 20
225.0813951993
  0
VERTEX
  8
0
 62
7
  6
CONTINUOUS
 10
183.6121324206
 20
225.0442870632
  0
VERTEX
  8
0
 62
7
  6
CONTINUOUS
 10
183.6017441835
 20
225.0064878634
  0
VERTEX
  8
0
 62
7
  6
CONTINUOUS
 10
183.5920435762
 20
224.9679439492
  0
VERTEX
  8
0
 62
7
  6
CONTINUOUS
 10
183.5831458766
 20
224.9287209367
  0
VERTEX
  8
0
 62
7
  6
CONTINUOUS
 10
183.5751923863
 20
224.8889490815
  0
VERTEX
  8
0
 62
7
  6
CONTINUOUS
 10
183.5683357142
 20
224.8487836655
  0
VERTEX
  8
0
 62
7
  6
CONTINUOUS
 10
183.5627452039
 20
224.8084639003
  0
VERTEX
  8
0
 62
7
  6
CONTINUOUS
 10
183.5585946478
 20
224.7683200074
  0
VERTEX
  8
0
 62
7
  6
CONTINUOUS
 10
183.5560476339
 20
224.7288516464
  0
VERTEX
  8
0
 62
7
  6
CONTINUOUS
 10
183.5552140973
 20
224.6914818396
  0
SEQEND
  0
POLYLINE
  8
0
 62
7
  6
CONTINUOUS
 66
1
 70
0
  0
VERTEX
  8
0
 62
7
  6
CONTINUOUS
 10
168.5792278891
 20
226.0456837397
  0
VERTEX
  8
0
 62
7
  6
CONTINUOUS
 10
168.5611087834
 20
226.0288788839
  0
VERTEX
  8
0
 62
7
  6
CONTINUOUS
 10
168.5357510699
 20
226.0043225401
  0
VERTEX
  8
0
 62
7
  6
CONTINUOUS
 10
168.5115801825
 20
225.9797771707
  0
VERTEX
  8
0
 62
7
  6
CONTINUOUS
 10
168.4884435748
 20
225.955225602
  0
VERTEX
  8
0
 62
7
  6
CONTINUOUS
 10
168.4662094677
 20
225.9306400988
  0
VERTEX
  8
0
 62
7
  6
CONTINUOUS
 10
168.444751836
 20
225.9059749341
  0
VERTEX
  8
0
 62
7
  6
CONTINUOUS
 10
168.4239415621
 20
225.8811554109
  0
VERTEX
  8
0
 62
7
  6
CONTINUOUS
 10
168.4036616424
 20
225.8560961693
  0
VERTEX
  8
0
 62
7
  6
CONTINUOUS
 10
168.3838062783
 20
225.830706711
  0
VERTEX
  8
0
 62
7
  6
CONTINUOUS
 10
168.3643248775
 20
225.8049514245
  0
VERTEX
  8
0
 62
7
  6
CONTINUOUS
 10
168.3452072161
 20
225.7788384256
  0
VERTEX
  8
0
 62
7
  6
CONTINUOUS
 10
168.326447357
 20
225.7523805552
  0
VERTEX
  8
0
 62
7
  6
CONTINUOUS
 10
168.308033682
 20
225.725580416
  0
VERTEX
  8
0
 62
7
  6
CONTINUOUS
 10
168.289958643
 20
225.6984409128
  0
VERTEX
  8
0
 62
7
  6
CONTINUOUS
 10
168.2722182576
 20
225.670969674
  0
VERTEX
  8
0
 62
7
  6
CONTINUOUS
 10
168.2548023299
 20
225.6431619595
  0
VERTEX
  8
0
 62
7
  6
CONTINUOUS
 10
168.2377065579
 20
225.6150170014
  0
VERTEX
  8
0
 62
7
  6
CONTINUOUS
 10
168.2209274022
 20
225.5865352783
  0
VERTEX
  8
0
 62
7
  6
CONTINUOUS
 10
168.2044564555
 20
225.5577038102
  0
VERTEX
  8
0
 62
7
  6
CONTINUOUS
 10
168.1882955814
 20
225.5285240091
  0
VERTEX
  8
0
 62
7
  6
CONTINUOUS
 10
168.172442518
 20
225.4989889831
  0
VERTEX
  8
0
 62
7
  6
CONTINUOUS
 10
168.1568987513
 20
225.4690918349
  0
VERTEX
  8
0
 62
7
  6
CONTINUOUS
 10
168.1416668403
 20
225.43882791
  0
VERTEX
  8
0
 62
7
  6
CONTINUOUS
 10
168.1267460605
 20
225.4081782067
  0
VERTEX
  8
0
 62
7
  6
CONTINUOUS
 10
168.1121424682
 20
225.3771352113
  0
VERTEX
  8
0
 62
7
  6
CONTINUOUS
 10
168.0978556864
 20
225.3456699273
  0
VERTEX
  8
0
 62
7
  6
CONTINUOUS
 10
168.0838944289
 20
225.3137671998
  0
VERTEX
  8
0
 62
7
  6
CONTINUOUS
 10
168.0702602715
 20
225.28138618
  0
VERTEX
  8
0
 62
7
  6
CONTINUOUS
 10
168.0569650443
 20
225.2484999692
  0
VERTEX
  8
0
 62
7
  6
CONTINUOUS
 10
168.0440144027
 20
225.2150517549
  0
VERTEX
  8
0
 62
7
  6
CONTINUOUS
 10
168.0314350578
 20
225.1810258499
  0
VERTEX
  8
0
 62
7
  6
CONTINUOUS
 10
168.0192623913
 20
225.1464119707
  0
VERTEX
  8
0
 62
7
  6
CONTINUOUS
 10
168.0075382834
 20
225.1112103753
  0
VERTEX
  8
0
 62
7
  6
CONTINUOUS
 10
167.9963090945
 20
225.0754086051
  0
VERTEX
  8
0
 62
7
  6
CONTINUOUS
 10
167.9856213722
 20
225.0389722865
  0
VERTEX
  8
0
 62
7
  6
CONTINUOUS
 10
167.9755348708
 20
225.0018751629
  0
VERTEX
  8
0
 62
7
  6
CONTINUOUS
 10
167.9661229019
 20
224.9640839075
  0
VERTEX
  8
0
 62
7
  6
CONTINUOUS
 10
167.9574961393
 20
224.9256654479
  0
VERTEX
  8
0
 62
7
  6
CONTINUOUS
 10
167.9497848621
 20
224.886742135
  0
VERTEX
  8
0
 62
7
  6
CONTINUOUS
 10
167.9431333026
 20
224.8474747304
  0
VERTEX
  8
0
 62
7
  6
CONTINUOUS
 10
167.937699702
 20
224.8080953344
  0
VERTEX
  8
0
 62
7
  6
CONTINUOUS
 10
167.9336428867
 20
224.7688942404
  0
VERTEX
  8
0
 62
7
  6
CONTINUOUS
 10
167.9311142769
 20
224.7303382135
  0
VERTEX
  8
0
 62
7
  6
CONTINUOUS
 10
167.9302146338
 20
224.6914818397
  0
SEQEND
  0
POLYLINE
  8
0
 62
7
  6
CONTINUOUS
 66
1
 70
0
  0
VERTEX
  8
0
 62
7
  6
CONTINUOUS
 10
184.2952617482
 20
226.1269885275
  0
VERTEX
  8
0
 62
7
  6
CONTINUOUS
 10
184.2457707602
 20
226.0831791994
  0
VERTEX
  8
0
 62
7
  6
CONTINUOUS
 10
184.2042248474
 20
226.045680225
  0
SEQEND
  0
POLYLINE
  8
0
 62
7
  6
CONTINUOUS
 66
1
 70
0
  0
VERTEX
  8
0
 62
7
  6
CONTINUOUS
 10
168.6709156138
 20
226.1275610748
  0
VERTEX
  8
0
 62
7
  6
CONTINUOUS
 10
168.6214236095
 20
226.0837631826
  0
VERTEX
  8
0
 62
7
  6
CONTINUOUS
 10
168.5792248479
 20
226.0456802237
  0
SEQEND
  0
LINE
  8
0
 62
7
  6
CONTINUOUS
 10
184.337554081
 20
226.1636864123
 11
184.2952617482
 21
226.1269885275
  0
POLYLINE
  8
0
 62
7
  6
CONTINUOUS
 66
1
 70
0
  0
VERTEX
  8
0
 62
7
  6
CONTINUOUS
 10
144.9849759197
 20
226.0837632245
  0
VERTEX
  8
0
 62
7
  6
CONTINUOUS
 10
144.9354839132
 20
226.1275611185
  0
VERTEX
  8
0
 62
7
  6
CONTINUOUS
 10
144.8938454949
 20
226.163686411
  0
SEQEND
  0
POLYLINE
  8
0
 62
7
  6
CONTINUOUS
 66
1
 70
0
  0
VERTEX
  8
0
 62
7
  6
CONTINUOUS
 10
158.7396288077
 20
226.0831792047
  0
VERTEX
  8
0
 62
7
  6
CONTINUOUS
 10
158.6901378199
 20
226.1269885329
  0
VERTEX
  8
0
 62
7
  6
CONTINUOUS
 10
158.6478454944
 20
226.1636864117
  0
SEQEND
  0
LINE
  8
0
 62
7
  6
CONTINUOUS
 10
145.0271747308
 20
226.04568022
 11
144.9849759197
 21
226.0837632245
  0
POLYLINE
  8
0
 62
7
  6
CONTINUOUS
 66
1
 70
0
  0
VERTEX
  8
0
 62
7
  6
CONTINUOUS
 10
132.5801988035
 20
224.6914818366
  0
VERTEX
  8
0
 62
7
  6
CONTINUOUS
 10
132.5793053483
 20
224.7302180814
  0
VERTEX
  8
0
 62
7
  6
CONTINUOUS
 10
132.5767573989
 20
224.7690575027
  0
VERTEX
  8
0
 62
7
  6
CONTINUOUS
 10
132.5726741401
 20
224.8084250502
  0
VERTEX
  8
0
 62
7
  6
CONTINUOUS
 10
132.5672536006
 20
224.8476472792
  0
VERTEX
  8
0
 62
7
  6
CONTINUOUS
 10
132.5607080553
 20
224.8863122005
  0
VERTEX
  8
0
 62
7
  6
CONTINUOUS
 10
132.5532072824
 20
224.9242970731
  0
VERTEX
  8
0
 62
7
  6
CONTINUOUS
 10
132.5448736855
 20
224.9616191638
  0
VERTEX
  8
0
 62
7
  6
CONTINUOUS
 10
132.5358039517
 20
224.9983120012
  0
VERTEX
  8
0
 62
7
  6
CONTINUOUS
 10
132.5260794333
 20
225.0344016007
  0
VERTEX
  8
0
 62
7
  6
CONTINUOUS
 10
132.5157745424
 20
225.0698828966
  0
VERTEX
  8
0
 62
7
  6
CONTINUOUS
 10
132.5049323375
 20
225.1048175047
  0
VERTEX
  8
0
 62
7
  6
CONTINUOUS
 10
132.4935690244
 20
225.1393152354
  0
VERTEX
  8
0
 62
7
  6
CONTINUOUS
 10
132.4816968395
 20
225.1734507782
  0
VERTEX
  8
0
 62
7
  6
CONTINUOUS
 10
132.4693163533
 20
225.2073051562
  0
VERTEX
  8
0
 62
7
  6
CONTINUOUS
 10
132.4564326565
 20
225.2409246236
  0
VERTEX
  8
0
 62
7
  6
CONTINUOUS
 10
132.4430388381
 20
225.2743646555
  0
VERTEX
  8
0
 62
7
  6
CONTINUOUS
 10
132.429128364
 20
225.3076694033
  0
VERTEX
  8
0
 62
7
  6
CONTINUOUS
 10
132.4146893985
 20
225.3408764586
  0
VERTEX
  8
0
 62
7
  6
CONTINUOUS
 10
132.3997100763
 20
225.3740177936
  0
VERTEX
  8
0
 62
7
  6
CONTINUOUS
 10
132.3841771275
 20
225.4071134041
  0
VERTEX
  8
0
 62
7
  6
CONTINUOUS
 10
132.3680765848
 20
225.4401814132
  0
VERTEX
  8
0
 62
7
  6
CONTINUOUS
 10
132.3514094012
 20
225.4731987924
  0
VERTEX
  8
0
 62
7
  6
CONTINUOUS
 10
132.3341874856
 20
225.5061240108
  0
VERTEX
  8
0
 62
7
  6
CONTINUOUS
 10
132.3164225017
 20
225.5389122607
  0
VERTEX
  8
0
 62
7
  6
CONTINUOUS
 10
132.298127844
 20
225.5715202205
  0
VERTEX
  8
0
 62
7
  6
CONTINUOUS
 10
132.279312324
 20
225.6039094019
  0
VERTEX
  8
0
 62
7
  6
CONTINUOUS
 10
132.2599840017
 20
225.6360451151
  0
VERTEX
  8
0
 62
7
  6
CONTINUOUS
 10
132.2401387138
 20
225.6679093931
  0
VERTEX
  8
0
 62
7
  6
CONTINUOUS
 10
132.2197800868
 20
225.6994697391
  0
VERTEX
  8
0
 62
7
  6
CONTINUOUS
 10
132.1989027666
 20
225.7307063036
  0
VERTEX
  8
0
 62
7
  6
CONTINUOUS
 10
132.177506492
 20
225.7615863564
  0
VERTEX
  8
0
 62
7
  6
CONTINUOUS
 10
132.1555888742
 20
225.7920809164
  0
VERTEX
  8
0
 62
7
  6
CONTINUOUS
 10
132.133142069
 20
225.8221625494
  0
VERTEX
  8
0
 62
7
  6
CONTINUOUS
 10
132.1101653188
 20
225.8517924759
  0
VERTEX
  8
0
 62
7
  6
CONTINUOUS
 10
132.0866077341
 20
225.8809910515
  0
VERTEX
  8
0
 62
7
  6
CONTINUOUS
 10
132.0623067288
 20
225.9098935136
  0
VERTEX
  8
0
 62
7
  6
CONTINUOUS
 10
132.0370754666
 20
225.9386297746
  0
VERTEX
  8
0
 62
7
  6
CONTINUOUS
 10
132.0107064799
 20
225.9673088203
  0
VERTEX
  8
0
 62
7
  6
CONTINUOUS
 10
131.9829928798
 20
225.9959896559
  0
VERTEX
  8
0
 62
7
  6
CONTINUOUS
 10
131.9537119468
 20
226.0246984184
  0
VERTEX
  8
0
 62
7
  6
CONTINUOUS
 10
131.9311865164
 20
226.0456837566
  0
SEQEND
  0
LINE
  8
0
 62
7
  6
CONTINUOUS
 10
131.8301997874
 20
226.9423760296
 11
131.8301997874
 21
226.1356284774
  0
LINE
  8
0
 62
7
  6
CONTINUOUS
 10
132.5801997874
 20
224.6914818152
 11
132.5801997874
 21
213.6935699995
  0
LINE
  8
0
 62
7
  6
CONTINUOUS
 10
139.6762141506
 20
213.6935699995
 11
139.6762141506
 21
224.6914689265
  0
LINE
  8
0
 62
7
  6
CONTINUOUS
 10
140.4261997874
 20
226.1356119586
 11
140.4261997874
 21
226.9423774706
  0
POLYLINE
  8
0
 62
7
  6
CONTINUOUS
 66
1
 70
0
  0
VERTEX
  8
0
 62
7
  6
CONTINUOUS
 10
173.2389759197
 20
226.0837632245
  0
VERTEX
  8
0
 62
7
  6
CONTINUOUS
 10
173.1894839132
 20
226.1275611185
  0
VERTEX
  8
0
 62
7
  6
CONTINUOUS
 10
173.1478454949
 20
226.163686411
  0
SEQEND
  0
LINE
  8
0
 62
7
  6
CONTINUOUS
 10
158.7811747273
 20
226.045680224
 11
158.7396288077
 21
226.0831792047
  0
LINE
  8
0
 62
7
  6
CONTINUOUS
 10
173.2811747308
 20
226.04568022
 11
173.2389759197
 21
226.0837632245
  0
POLYLINE
  8
AXES
 62
7
  6
CONTINUOUS
 66
1
 70
0
  0
VERTEX
  8
AXES
 62
7
  6
CONTINUOUS
 10
175.2301997823
 20
216.8436534437
  0
VERTEX
  8
AXES
 62
7
  6
CONTINUOUS
 10
175.2257522462
 20
216.8479411745
  0
VERTEX
  8
AXES
 62
7
  6
CONTINUOUS
 10
175.2089043161
 20
216.8612413208
  0
VERTEX
  8
AXES
 62
7
  6
CONTINUOUS
 10
175.179109612
 20
216.8836152221
  0
VERTEX
  8
AXES
 62
7
  6
CONTINUOUS
 10
175.1360226495
 20
216.9150205594
  0
VERTEX
  8
AXES
 62
7
  6
CONTINUOUS
 10
175.0786608134
 20
216.9556899677
  0
VERTEX
  8
AXES
 62
7
  6
CONTINUOUS
 10
175.0062045856
 20
217.0054662282
  0
VERTEX
  8
AXES
 62
7
  6
CONTINUOUS
 10
174.9181636219
 20
217.0636165612
  0
VERTEX
  8
AXES
 62
7
  6
CONTINUOUS
 10
174.8155285355
 20
217.1280473943
  0
VERTEX
  8
AXES
 62
7
  6
CONTINUOUS
 10
174.7006253676
 20
217.1955500108
  0
VERTEX
  8
AXES
 62
7
  6
CONTINUOUS
 10
174.5766452558
 20
217.2623396112
  0
VERTEX
  8
AXES
 62
7
  6
CONTINUOUS
 10
174.4472442782
 20
217.324603607
  0
VERTEX
  8
AXES
 62
7
  6
CONTINUOUS
 10
174.314560856
 20
217.3796588289
  0
VERTEX
  8
AXES
 62
7
  6
CONTINUOUS
 10
174.1809170832
 20
217.4251765197
  0
VERTEX
  8
AXES
 62
7
  6
CONTINUOUS
 10
174.0483685482
 20
217.4595899979
  0
SEQEND
  0
POLYLINE
  8
0
 62
7
  6
CONTINUOUS
 66
1
 70
0
  0
VERTEX
  8
0
 62
7
  6
CONTINUOUS
 10
145.6761844501
 20
224.6914818367
  0
VERTEX
  8
0
 62
7
  6
CONTINUOUS
 10
145.6752909706
 20
224.7302182623
  0
VERTEX
  8
0
 62
7
  6
CONTINUOUS
 10
145.6727430138
 20
224.7690576366
  0
VERTEX
  8
0
 62
7
  6
CONTINUOUS
 10
145.6686597617
 20
224.8084252034
  0
VERTEX
  8
0
 62
7
  6
CONTINUOUS
 10
145.6632392273
 20
224.847647458
  0
VERTEX
  8
0
 62
7
  6
CONTINUOUS
 10
145.6566936905
 20
224.8863121823
  0
VERTEX
  8
0
 62
7
  6
CONTINUOUS
 10
145.6491928607
 20
224.9242972436
  0
VERTEX
  8
0
 62
7
  6
CONTINUOUS
 10
145.6408592561
 20
224.9616194451
  0
VERTEX
  8
0
 62
7
  6
CONTINUOUS
 10
145.6317895813
 20
224.9983121008
  0
VERTEX
  8
0
 62
7
  6
CONTINUOUS
 10
145.6220650533
 20
225.0344015714
  0
VERTEX
  8
0
 62
7
  6
CONTINUOUS
 10
145.6117601176
 20
225.0698831261
  0
VERTEX
  8
0
 62
7
  6
CONTINUOUS
 10
145.60091799
 20
225.1048174953
  0
VERTEX
  8
0
 62
7
  6
CONTINUOUS
 10
145.5895546135
 20
225.1393153562
  0
VERTEX
  8
0
 62
7
  6
CONTINUOUS
 10
145.5776824527
 20
225.173450879
  0
VERTEX
  8
0
 62
7
  6
CONTINUOUS
 10
145.5653019692
 20
225.2073052029
  0
VERTEX
  8
0
 62
7
  6
CONTINUOUS
 10
145.5524182598
 20
225.2409247138
  0
VERTEX
  8
0
 62
7
  6
CONTINUOUS
 10
145.5390244704
 20
225.2743646633
  0
VERTEX
  8
0
 62
7
  6
CONTINUOUS
 10
145.5251139648
 20
225.3076694872
  0
VERTEX
  8
0
 62
7
  6
CONTINUOUS
 10
145.5106750305
 20
225.3408764709
  0
VERTEX
  8
0
 62
7
  6
CONTINUOUS
 10
145.4956956747
 20
225.37401788
  0
VERTEX
  8
0
 62
7
  6
CONTINUOUS
 10
145.4801627469
 20
225.407113442
  0
VERTEX
  8
0
 62
7
  6
CONTINUOUS
 10
145.4640621833
 20
225.4401814933
  0
VERTEX
  8
0
 62
7
  6
CONTINUOUS
 10
145.4473950132
 20
225.473198841
  0
VERTEX
  8
0
 62
7
  6
CONTINUOUS
 10
145.4301730865
 20
225.5061240808
  0
VERTEX
  8
0
 62
7
  6
CONTINUOUS
 10
145.4124081068
 20
225.5389123179
  0
VERTEX
  8
0
 62
7
  6
CONTINUOUS
 10
145.3941134473
 20
225.5715202803
  0
VERTEX
  8
0
 62
7
  6
CONTINUOUS
 10
145.3752979274
 20
225.6039094586
  0
VERTEX
  8
0
 62
7
  6
CONTINUOUS
 10
145.3559696068
 20
225.6360451672
  0
VERTEX
  8
0
 62
7
  6
CONTINUOUS
 10
145.3361243192
 20
225.6679094432
  0
VERTEX
  8
0
 62
7
  6
CONTINUOUS
 10
145.3157656933
 20
225.699469785
  0
VERTEX
  8
0
 62
7
  6
CONTINUOUS
 10
145.2948883755
 20
225.730706345
  0
VERTEX
  8
0
 62
7
  6
CONTINUOUS
 10
145.2734920997
 20
225.7615863979
  0
VERTEX
  8
0
 62
7
  6
CONTINUOUS
 10
145.2515744867
 20
225.7920809495
  0
VERTEX
  8
0
 62
7
  6
CONTINUOUS
 10
145.2291276829
 20
225.8221625803
  0
VERTEX
  8
0
 62
7
  6
CONTINUOUS
 10
145.2061509324
 20
225.8517925046
  0
VERTEX
  8
0
 62
7
  6
CONTINUOUS
 10
145.1825933544
 20
225.8809910715
  0
VERTEX
  8
0
 62
7
  6
CONTINUOUS
 10
145.1582923487
 20
225.9098935341
  0
VERTEX
  8
0
 62
7
  6
CONTINUOUS
 10
145.1330610888
 20
225.9386297899
  0
VERTEX
  8
0
 62
7
  6
CONTINUOUS
 10
145.1066921085
 20
225.967308829
  0
VERTEX
  8
0
 62
7
  6
CONTINUOUS
 10
145.0789785062
 20
225.995989667
  0
VERTEX
  8
0
 62
7
  6
CONTINUOUS
 10
145.0496975788
 20
226.0246984215
  0
VERTEX
  8
0
 62
7
  6
CONTINUOUS
 10
145.0271721546
 20
226.0456837541
  0
SEQEND
  0
LINE
  8
0
 62
7
  6
CONTINUOUS
 10
144.9261997874
 20
226.9170612514
 11
144.9261997874
 21
226.1356159816
  0
LINE
  8
0
 62
7
  6
CONTINUOUS
 10
145.6761854243
 20
224.6914818154
 11
145.6761854243
 21
213.6935699995
  0
LINE
  8
0
 62
7
  6
CONTINUOUS
 10
153.4302141506
 20
213.6935699995
 11
153.4302141506
 21
224.6914818396
  0
LINE
  8
0
 62
7
  6
CONTINUOUS
 10
154.1801997874
 20
226.1356119586
 11
154.1801997874
 21
226.9170612925
  0
POLYLINE
  8
0
 62
7
  6
CONTINUOUS
 66
1
 70
0
  0
VERTEX
  8
0
 62
7
  6
CONTINUOUS
 10
188.8646288077
 20
226.0831792047
  0
VERTEX
  8
0
 62
7
  6
CONTINUOUS
 10
188.8151378199
 20
226.1269885329
  0
VERTEX
  8
0
 62
7
  6
CONTINUOUS
 10
188.7728454944
 20
226.1636864117
  0
SEQEND
  0
LINE
  8
0
 62
7
  6
CONTINUOUS
 10
188.9061747273
 20
226.045680224
 11
188.8646288077
 21
226.0831792047
  0
POLYLINE
  8
0
 62
7
  6
CONTINUOUS
 66
1
 70
0
  0
VERTEX
  8
0
 62
7
  6
CONTINUOUS
 10
183.7761997874
 20
203.8456720175
  0
VERTEX
  8
0
 62
7
  6
CONTINUOUS
 10
183.7870939695
 20
203.8298208105
  0
VERTEX
  8
0
 62
7
  6
CONTINUOUS
 10
183.8199121677
 20
203.8118821057
  0
VERTEX
  8
0
 62
7
  6
CONTINUOUS
 10
183.8742919749
 20
203.7922434414
  0
VERTEX
  8
0
 62
7
  6
CONTINUOUS
 10
183.949269507
 20
203.771382009
  0
VERTEX
  8
0
 62
7
  6
CONTINUOUS
 10
184.0446602836
 20
203.7495772612
  0
VERTEX
  8
0
 62
7
  6
CONTINUOUS
 10
184.1595777307
 20
203.7273561018
  0
VERTEX
  8
0
 62
7
  6
CONTINUOUS
 10
184.2920713034
 20
203.7054187871
  0
VERTEX
  8
0
 62
7
  6
CONTINUOUS
 10
184.4400619298
 20
203.6844087205
  0
VERTEX
  8
0
 62
7
  6
CONTINUOUS
 10
184.6033864934
 20
203.6646917167
  0
VERTEX
  8
0
 62
7
  6
CONTINUOUS
 10
184.7798283705
 20
203.646905233
  0
VERTEX
  8
0
 62
7
  6
CONTINUOUS
 10
184.9663421594
 20
203.6316583495
  0
VERTEX
  8
0
 62
7
  6
CONTINUOUS
 10
185.1607573339
 20
203.6193612357
  0
VERTEX
  8
0
 62
7
  6
CONTINUOUS
 10
185.3626298826
 20
203.610270415
  0
VERTEX
  8
0
 62
7
  6
CONTINUOUS
 10
185.5689227677
 20
203.6047155318
  0
VERTEX
  8
0
 62
7
  6
CONTINUOUS
 10
185.7761997874
 20
203.602860259
  0
SEQEND
  0
POLYLINE
  8
0
 62
7
  6
CONTINUOUS
 66
1
 70
0
  0
VERTEX
  8
0
 62
7
  6
CONTINUOUS
 10
159.4301847963
 20
224.6914818382
  0
VERTEX
  8
0
 62
7
  6
CONTINUOUS
 10
159.4294142957
 20
224.7273892602
  0
VERTEX
  8
0
 62
7
  6
CONTINUOUS
 10
159.426964173
 20
224.7664232055
  0
VERTEX
  8
0
 62
7
  6
CONTINUOUS
 10
159.4229502622
 20
224.8060148821
  0
VERTEX
  8
0
 62
7
  6
CONTINUOUS
 10
159.4175738902
 20
224.8454673214
  0
VERTEX
  8
0
 62
7
  6
CONTINUOUS
 10
159.4110525515
 20
224.8843527097
  0
VERTEX
  8
0
 62
7
  6
CONTINUOUS
 10
159.4035605203
 20
224.922547459
  0
VERTEX
  8
0
 62
7
  6
CONTINUOUS
 10
159.3952244563
 20
224.9600657901
  0
VERTEX
  8
0
 62
7
  6
CONTINUOUS
 10
159.3861438787
 20
224.9969401165
  0
VERTEX
  8
0
 62
7
  6
CONTINUOUS
 10
159.3764016431
 20
225.0331983252
  0
VERTEX
  8
0
 62
7
  6
CONTINUOUS
 10
159.3660737183
 20
225.0688388061
  0
VERTEX
  8
0
 62
7
  6
CONTINUOUS
 10
159.3552047741
 20
225.1039209287
  0
VERTEX
  8
0
 62
7
  6
CONTINUOUS
 10
159.3438094674
 20
225.1385622875
  0
VERTEX
  8
0
 62
7
  6
CONTINUOUS
 10
159.3319011473
 20
225.1728379063
  0
VERTEX
  8
0
 62
7
  6
CONTINUOUS
 10
159.3194800219
 20
225.2068295119
  0
VERTEX
  8
0
 62
7
  6
CONTINUOUS
 10
159.3065501895
 20
225.2405880434
  0
VERTEX
  8
0
 62
7
  6
CONTINUOUS
 10
159.2931062326
 20
225.2741647865
  0
VERTEX
  8
0
 62
7
  6
CONTINUOUS
 10
159.2791408798
 20
225.3076063454
  0
VERTEX
  8
0
 62
7
  6
CONTINUOUS
 10
159.2646455565
 20
225.3409429907
  0
VERTEX
  8
0
 62
7
  6
CONTINUOUS
 10
159.2496078374
 20
225.3742085374
  0
VERTEX
  8
0
 62
7
  6
CONTINUOUS
 10
159.2340174738
 20
225.4074173152
  0
VERTEX
  8
0
 62
7
  6
CONTINUOUS
 10
159.2178601484
 20
225.440588883
  0
VERTEX
  8
0
 62
7
  6
CONTINUOUS
 10
159.2011363462
 20
225.4737021117
  0
VERTEX
  8
0
 62
7
  6
CONTINUOUS
 10
159.1838505614
 20
225.5067297244
  0
VERTEX
  8
0
 62
7
  6
CONTINUOUS
 10
159.1660101362
 20
225.5396338397
  0
VERTEX
  8
0
 62
7
  6
CONTINUOUS
 10
159.1476203543
 20
225.5723836537
  0
VERTEX
  8
0
 62
7
  6
CONTINUOUS
 10
159.128686328
 20
225.6049435226
  0
VERTEX
  8
0
 62
7
  6
CONTINUOUS
 10
159.1092197274
 20
225.6372697171
  0
VERTEX
  8
0
 62
7
  6
CONTINUOUS
 10
159.0892282105
 20
225.6693221526
  0
VERTEX
  8
0
 62
7
  6
CONTINUOUS
 10
159.0687269488
 20
225.7010505776
  0
VERTEX
  8
0
 62
7
  6
CONTINUOUS
 10
159.0477217042
 20
225.732419246
  0
VERTEX
  8
0
 62
7
  6
CONTINUOUS
 10
159.02622551
 20
225.7633795235
  0
VERTEX
  8
0
 62
7
  6
CONTINUOUS
 10
159.0042467629
 20
225.7938922534
  0
VERTEX
  8
0
 62
7
  6
CONTINUOUS
 10
158.9817916021
 20
225.8239172915
  0
VERTEX
  8
0
 62
7
  6
CONTINUOUS
 10
158.9588718351
 20
225.8534082866
  0
VERTEX
  8
0
 62
7
  6
CONTINUOUS
 10
158.9354355789
 20
225.8823958226
  0
VERTEX
  8
0
 62
7
  6
CONTINUOUS
 10
158.9113149497
 20
225.9110305589
  0
VERTEX
  8
0
 62
7
  6
CONTINUOUS
 10
158.8863189994
 20
225.9394557148
  0
VERTEX
  8
0
 62
7
  6
CONTINUOUS
 10
158.8602385613
 20
225.9677900231
  0
VERTEX
  8
0
 62
7
  6
CONTINUOUS
 10
158.8328658352
 20
225.9961031982
  0
VERTEX
  8
0
 62
7
  6
CONTINUOUS
 10
158.8039714256
 20
226.0244374286
  0
VERTEX
  8
0
 62
7
  6
CONTINUOUS
 10
158.7811714716
 20
226.0456838945
  0
SEQEND
  0
LINE
  8
0
 62
7
  6
CONTINUOUS
 10
158.6801997874
 20
226.1356119583
 11
158.6801997874
 21
226.9170612625
  0
LINE
  8
0
 62
7
  6
CONTINUOUS
 10
159.4301854243
 20
224.6914818235
 11
159.4301854243
 21
213.6935699995
  0
LINE
  8
0
 62
7
  6
CONTINUOUS
 10
166.6301997874
 20
216.8442150794
 11
166.6301997874
 21
213.0935699995
  0
LINE
  8
0
 62
7
  6
CONTINUOUS
 10
167.9302141506
 20
213.9573094758
 11
167.9302141506
 21
224.6914818396
  0
LINE
  8
0
 62
7
  6
CONTINUOUS
 10
168.6801997874
 20
226.9170611479
 11
168.6801997874
 21
226.1356159797
  0
POLYLINE
  8
AXES
 62
7
  6
CONTINUOUS
 66
1
 70
0
  0
VERTEX
  8
AXES
 62
7
  6
CONTINUOUS
 10
167.9302141506
 20
217.6225507872
  0
VERTEX
  8
AXES
 62
7
  6
CONTINUOUS
 10
167.9264098726
 20
217.5821143679
  0
VERTEX
  8
AXES
 62
7
  6
CONTINUOUS
 10
167.9162324587
 20
217.5480204891
  0
VERTEX
  8
AXES
 62
7
  6
CONTINUOUS
 10
167.9010101604
 20
217.5196571624
  0
VERTEX
  8
AXES
 62
7
  6
CONTINUOUS
 10
167.8821307119
 20
217.4970874169
  0
VERTEX
  8
AXES
 62
7
  6
CONTINUOUS
 10
167.860787288
 20
217.4799550832
  0
VERTEX
  8
AXES
 62
7
  6
CONTINUOUS
 10
167.8370736481
 20
217.4674221426
  0
VERTEX
  8
AXES
 62
7
  6
CONTINUOUS
 10
167.8120310267
 20
217.4595899979
  0
SEQEND
  0
POLYLINE
  8
0
 62
7
  6
CONTINUOUS
 66
1
 70
0
  0
VERTEX
  8
0
 62
7
  6
CONTINUOUS
 10
173.9301844501
 20
224.6914818367
  0
VERTEX
  8
0
 62
7
  6
CONTINUOUS
 10
173.9292909706
 20
224.7302182623
  0
VERTEX
  8
0
 62
7
  6
CONTINUOUS
 10
173.9267430138
 20
224.7690576366
  0
VERTEX
  8
0
 62
7
  6
CONTINUOUS
 10
173.9226597617
 20
224.8084252034
  0
VERTEX
  8
0
 62
7
  6
CONTINUOUS
 10
173.9172392273
 20
224.847647458
  0
VERTEX
  8
0
 62
7
  6
CONTINUOUS
 10
173.9106936905
 20
224.8863121823
  0
VERTEX
  8
0
 62
7
  6
CONTINUOUS
 10
173.9031928607
 20
224.9242972436
  0
VERTEX
  8
0
 62
7
  6
CONTINUOUS
 10
173.8948592561
 20
224.9616194451
  0
VERTEX
  8
0
 62
7
  6
CONTINUOUS
 10
173.8857895813
 20
224.9983121008
  0
VERTEX
  8
0
 62
7
  6
CONTINUOUS
 10
173.8760650533
 20
225.0344015714
  0
VERTEX
  8
0
 62
7
  6
CONTINUOUS
 10
173.8657601176
 20
225.0698831261
  0
VERTEX
  8
0
 62
7
  6
CONTINUOUS
 10
173.85491799
 20
225.1048174953
  0
VERTEX
  8
0
 62
7
  6
CONTINUOUS
 10
173.8435546135
 20
225.1393153562
  0
VERTEX
  8
0
 62
7
  6
CONTINUOUS
 10
173.8316824527
 20
225.173450879
  0
VERTEX
  8
0
 62
7
  6
CONTINUOUS
 10
173.8193019692
 20
225.2073052029
  0
VERTEX
  8
0
 62
7
  6
CONTINUOUS
 10
173.8064182598
 20
225.2409247138
  0
VERTEX
  8
0
 62
7
  6
CONTINUOUS
 10
173.7930244704
 20
225.2743646633
  0
VERTEX
  8
0
 62
7
  6
CONTINUOUS
 10
173.7791139648
 20
225.3076694872
  0
VERTEX
  8
0
 62
7
  6
CONTINUOUS
 10
173.7646750305
 20
225.3408764709
  0
VERTEX
  8
0
 62
7
  6
CONTINUOUS
 10
173.7496956747
 20
225.37401788
  0
VERTEX
  8
0
 62
7
  6
CONTINUOUS
 10
173.7341627469
 20
225.407113442
  0
VERTEX
  8
0
 62
7
  6
CONTINUOUS
 10
173.7180621833
 20
225.4401814933
  0
VERTEX
  8
0
 62
7
  6
CONTINUOUS
 10
173.7013950132
 20
225.473198841
  0
VERTEX
  8
0
 62
7
  6
CONTINUOUS
 10
173.6841730865
 20
225.5061240808
  0
VERTEX
  8
0
 62
7
  6
CONTINUOUS
 10
173.6664081068
 20
225.5389123179
  0
VERTEX
  8
0
 62
7
  6
CONTINUOUS
 10
173.6481134473
 20
225.5715202803
  0
VERTEX
  8
0
 62
7
  6
CONTINUOUS
 10
173.6292979274
 20
225.6039094586
  0
VERTEX
  8
0
 62
7
  6
CONTINUOUS
 10
173.6099696068
 20
225.6360451672
  0
VERTEX
  8
0
 62
7
  6
CONTINUOUS
 10
173.5901243192
 20
225.6679094432
  0
VERTEX
  8
0
 62
7
  6
CONTINUOUS
 10
173.5697656933
 20
225.699469785
  0
VERTEX
  8
0
 62
7
  6
CONTINUOUS
 10
173.5488883755
 20
225.730706345
  0
VERTEX
  8
0
 62
7
  6
CONTINUOUS
 10
173.5274920997
 20
225.7615863979
  0
VERTEX
  8
0
 62
7
  6
CONTINUOUS
 10
173.5055744867
 20
225.7920809495
  0
VERTEX
  8
0
 62
7
  6
CONTINUOUS
 10
173.4831276829
 20
225.8221625803
  0
VERTEX
  8
0
 62
7
  6
CONTINUOUS
 10
173.4601509324
 20
225.8517925046
  0
VERTEX
  8
0
 62
7
  6
CONTINUOUS
 10
173.4365933544
 20
225.8809910715
  0
VERTEX
  8
0
 62
7
  6
CONTINUOUS
 10
173.4122923487
 20
225.9098935341
  0
VERTEX
  8
0
 62
7
  6
CONTINUOUS
 10
173.3870610888
 20
225.9386297899
  0
VERTEX
  8
0
 62
7
  6
CONTINUOUS
 10
173.3606921085
 20
225.967308829
  0
VERTEX
  8
0
 62
7
  6
CONTINUOUS
 10
173.3329785062
 20
225.995989667
  0
VERTEX
  8
0
 62
7
  6
CONTINUOUS
 10
173.3036975788
 20
226.0246984215
  0
VERTEX
  8
0
 62
7
  6
CONTINUOUS
 10
173.2811721546
 20
226.0456837541
  0
SEQEND
  0
LINE
  8
0
 62
7
  6
CONTINUOUS
 10
173.1801997874
 20
226.9057792771
 11
173.1801997874
 21
226.1356159816
  0
LINE
  8
0
 62
7
  6
CONTINUOUS
 10
173.9301854243
 20
224.6914818154
 11
173.9301854243
 21
213.9573096712
  0
LINE
  8
0
 62
7
  6
CONTINUOUS
 10
175.2301997874
 20
216.8442150228
 11
175.2301997874
 21
213.0935699995
  0
LINE
  8
0
 62
7
  6
CONTINUOUS
 10
183.5552141506
 20
213.6935699995
 11
183.5552141506
 21
224.6914689265
  0
LINE
  8
0
 62
7
  6
CONTINUOUS
 10
183.7761997874
 20
199.9435699995
 11
183.7761997874
 21
203.8957156896
  0
LINE
  8
0
 62
7
  6
CONTINUOUS
 10
184.3051997874
 20
226.1356119586
 11
184.3051997874
 21
226.8170558172
  0
POLYLINE
  8
0
 62
7
  6
CONTINUOUS
 66
1
 70
0
  0
VERTEX
  8
0
 62
7
  6
CONTINUOUS
 10
188.6551997874
 20
226.8016244746
  0
VERTEX
  8
0
 62
7
  6
CONTINUOUS
 10
188.6731133495
 20
226.8619571891
  0
VERTEX
  8
0
 62
7
  6
CONTINUOUS
 10
188.7270442588
 20
226.916946988
  0
VERTEX
  8
0
 62
7
  6
CONTINUOUS
 10
188.8168605505
 20
226.9662491562
  0
VERTEX
  8
0
 62
7
  6
CONTINUOUS
 10
188.9419025287
 20
227.0096983482
  0
VERTEX
  8
0
 62
7
  6
CONTINUOUS
 10
189.1011234837
 20
227.0473195764
  0
VERTEX
  8
0
 62
7
  6
CONTINUOUS
 10
189.2936546408
 20
227.0793560253
  0
VERTEX
  8
0
 62
7
  6
CONTINUOUS
 10
189.5186746741
 20
227.1061242952
  0
VERTEX
  8
0
 62
7
  6
CONTINUOUS
 10
189.7749548584
 20
227.1279635008
  0
VERTEX
  8
0
 62
7
  6
CONTINUOUS
 10
190.0610993384
 20
227.1452850294
  0
VERTEX
  8
0
 62
7
  6
CONTINUOUS
 10
190.3755082448
 20
227.158555391
  0
VERTEX
  8
0
 62
7
  6
CONTINUOUS
 10
190.7158767491
 20
227.1682713968
  0
VERTEX
  8
0
 62
7
  6
CONTINUOUS
 10
191.0805564628
 20
227.1749861743
  0
VERTEX
  8
0
 62
7
  6
CONTINUOUS
 10
191.4679112874
 20
227.1792484797
  0
VERTEX
  8
0
 62
7
  6
CONTINUOUS
 10
191.8751256568
 20
227.181585912
  0
SEQEND
  0
POLYLINE
  8
0
 62
7
  6
CONTINUOUS
 66
1
 70
0
  0
VERTEX
  8
0
 62
7
  6
CONTINUOUS
 10
196.9301993018
 20
226.8863268572
  0
VERTEX
  8
0
 62
7
  6
CONTINUOUS
 10
196.9265343683
 20
226.9213839505
  0
VERTEX
  8
0
 62
7
  6
CONTINUOUS
 10
196.9153269994
 20
226.9558340669
  0
VERTEX
  8
0
 62
7
  6
CONTINUOUS
 10
196.8983210752
 20
226.9856690452
  0
VERTEX
  8
0
 62
7
  6
CONTINUOUS
 10
196.8780415365
 20
227.0097473675
  0
VERTEX
  8
0
 62
7
  6
CONTINUOUS
 10
196.8565055995
 20
227.0285053569
  0
VERTEX
  8
0
 62
7
  6
CONTINUOUS
 10
196.8346918166
 20
227.0431281191
  0
VERTEX
  8
0
 62
7
  6
CONTINUOUS
 10
196.8125979066
 20
227.054899051
  0
VERTEX
  8
0
 62
7
  6
CONTINUOUS
 10
196.789770327
 20
227.0647867379
  0
VERTEX
  8
0
 62
7
  6
CONTINUOUS
 10
196.7656477447
 20
227.0734263925
  0
VERTEX
  8
0
 62
7
  6
CONTINUOUS
 10
196.7397146923
 20
227.0812103883
  0
VERTEX
  8
0
 62
7
  6
CONTINUOUS
 10
196.7115061816
 20
227.0883833837
  0
VERTEX
  8
0
 62
7
  6
CONTINUOUS
 10
196.6805593393
 20
227.0951067512
  0
VERTEX
  8
0
 62
7
  6
CONTINUOUS
 10
196.6464343134
 20
227.1014833986
  0
VERTEX
  8
0
 62
7
  6
CONTINUOUS
 10
196.6087251206
 20
227.107573916
  0
VERTEX
  8
0
 62
7
  6
CONTINUOUS
 10
196.567072241
 20
227.1134087325
  0
VERTEX
  8
0
 62
7
  6
CONTINUOUS
 10
196.5211521408
 20
227.1190020076
  0
VERTEX
  8
0
 62
7
  6
CONTINUOUS
 10
196.4706498035
 20
227.1243584545
  0
VERTEX
  8
0
 62
7
  6
CONTINUOUS
 10
196.4152650631
 20
227.1294765091
  0
VERTEX
  8
0
 62
7
  6
CONTINUOUS
 10
196.354713883
 20
227.1343512471
  0
VERTEX
  8
0
 62
7
  6
CONTINUOUS
 10
196.2887290092
 20
227.138974504
  0
VERTEX
  8
0
 62
7
  6
CONTINUOUS
 10
196.2170667205
 20
227.1433379482
  0
VERTEX
  8
0
 62
7
  6
CONTINUOUS
 10
196.1394994056
 20
227.1474330352
  0
VERTEX
  8
0
 62
7
  6
CONTINUOUS
 10
196.055828727
 20
227.1512522795
  0
VERTEX
  8
0
 62
7
  6
CONTINUOUS
 10
195.9658784739
 20
227.1547899642
  0
VERTEX
  8
0
 62
7
  6
CONTINUOUS
 10
195.8695022271
 20
227.158042344
  0
VERTEX
  8
0
 62
7
  6
CONTINUOUS
 10
195.6570431733
 20
227.1636893483
  0
SEQEND
  0
POLYLINE
  8
0
 62
7
  6
CONTINUOUS
 66
1
 70
0
  0
VERTEX
  8
0
 62
7
  6
CONTINUOUS
 10
189.5551847963
 20
224.6914818382
  0
VERTEX
  8
0
 62
7
  6
CONTINUOUS
 10
189.5544142957
 20
224.7273892602
  0
VERTEX
  8
0
 62
7
  6
CONTINUOUS
 10
189.551964173
 20
224.7664232055
  0
VERTEX
  8
0
 62
7
  6
CONTINUOUS
 10
189.5479502622
 20
224.8060148821
  0
VERTEX
  8
0
 62
7
  6
CONTINUOUS
 10
189.5425738902
 20
224.8454673214
  0
VERTEX
  8
0
 62
7
  6
CONTINUOUS
 10
189.5360525515
 20
224.8843527097
  0
VERTEX
  8
0
 62
7
  6
CONTINUOUS
 10
189.5285605203
 20
224.922547459
  0
VERTEX
  8
0
 62
7
  6
CONTINUOUS
 10
189.5202244563
 20
224.9600657901
  0
VERTEX
  8
0
 62
7
  6
CONTINUOUS
 10
189.5111438787
 20
224.9969401165
  0
VERTEX
  8
0
 62
7
  6
CONTINUOUS
 10
189.5014016431
 20
225.0331983252
  0
VERTEX
  8
0
 62
7
  6
CONTINUOUS
 10
189.4910737183
 20
225.0688388061
  0
VERTEX
  8
0
 62
7
  6
CONTINUOUS
 10
189.4802047741
 20
225.1039209287
  0
VERTEX
  8
0
 62
7
  6
CONTINUOUS
 10
189.4688094674
 20
225.1385622875
  0
VERTEX
  8
0
 62
7
  6
CONTINUOUS
 10
189.4569011473
 20
225.1728379063
  0
VERTEX
  8
0
 62
7
  6
CONTINUOUS
 10
189.4444800219
 20
225.2068295119
  0
VERTEX
  8
0
 62
7
  6
CONTINUOUS
 10
189.4315501895
 20
225.2405880434
  0
VERTEX
  8
0
 62
7
  6
CONTINUOUS
 10
189.4181062326
 20
225.2741647865
  0
VERTEX
  8
0
 62
7
  6
CONTINUOUS
 10
189.4041408798
 20
225.3076063454
  0
VERTEX
  8
0
 62
7
  6
CONTINUOUS
 10
189.3896455565
 20
225.3409429907
  0
VERTEX
  8
0
 62
7
  6
CONTINUOUS
 10
189.3746078374
 20
225.3742085374
  0
VERTEX
  8
0
 62
7
  6
CONTINUOUS
 10
189.3590174738
 20
225.4074173152
  0
VERTEX
  8
0
 62
7
  6
CONTINUOUS
 10
189.3428601484
 20
225.440588883
  0
VERTEX
  8
0
 62
7
  6
CONTINUOUS
 10
189.3261363462
 20
225.4737021117
  0
VERTEX
  8
0
 62
7
  6
CONTINUOUS
 10
189.3088505614
 20
225.5067297244
  0
VERTEX
  8
0
 62
7
  6
CONTINUOUS
 10
189.2910101362
 20
225.5396338397
  0
VERTEX
  8
0
 62
7
  6
CONTINUOUS
 10
189.2726203543
 20
225.5723836537
  0
VERTEX
  8
0
 62
7
  6
CONTINUOUS
 10
189.253686328
 20
225.6049435226
  0
VERTEX
  8
0
 62
7
  6
CONTINUOUS
 10
189.2342197274
 20
225.6372697171
  0
VERTEX
  8
0
 62
7
  6
CONTINUOUS
 10
189.2142282105
 20
225.6693221526
  0
VERTEX
  8
0
 62
7
  6
CONTINUOUS
 10
189.1937269488
 20
225.7010505776
  0
VERTEX
  8
0
 62
7
  6
CONTINUOUS
 10
189.1727217042
 20
225.732419246
  0
VERTEX
  8
0
 62
7
  6
CONTINUOUS
 10
189.15122551
 20
225.7633795235
  0
VERTEX
  8
0
 62
7
  6
CONTINUOUS
 10
189.1292467629
 20
225.7938922534
  0
VERTEX
  8
0
 62
7
  6
CONTINUOUS
 10
189.1067916021
 20
225.8239172915
  0
VERTEX
  8
0
 62
7
  6
CONTINUOUS
 10
189.0838718351
 20
225.8534082866
  0
VERTEX
  8
0
 62
7
  6
CONTINUOUS
 10
189.0604355789
 20
225.8823958226
  0
VERTEX
  8
0
 62
7
  6
CONTINUOUS
 10
189.0363149497
 20
225.9110305589
  0
VERTEX
  8
0
 62
7
  6
CONTINUOUS
 10
189.0113189993
 20
225.9394557148
  0
VERTEX
  8
0
 62
7
  6
CONTINUOUS
 10
188.9852385613
 20
225.9677900231
  0
VERTEX
  8
0
 62
7
  6
CONTINUOUS
 10
188.9578658352
 20
225.9961031982
  0
VERTEX
  8
0
 62
7
  6
CONTINUOUS
 10
188.9289714256
 20
226.0244374286
  0
VERTEX
  8
0
 62
7
  6
CONTINUOUS
 10
188.9061714716
 20
226.0456838945
  0
SEQEND
  0
LINE
  8
0
 62
7
  6
CONTINUOUS
 10
188.8051997874
 20
226.1356119583
 11
188.8051997874
 21
226.6529461955
  0
LINE
  8
0
 62
7
  6
CONTINUOUS
 10
189.5551854243
 20
224.6914818235
 11
189.5551854243
 21
213.6935699995
  0
LINE
  8
0
 62
7
  6
CONTINUOUS
 10
191.5261997874
 20
204.1957199711
 11
191.5261997874
 21
212.9435699995
  0
LINE
  8
0
 62
7
  6
CONTINUOUS
 10
191.6408414718
 20
212.9435699995
 11
191.640841473
 21
203.9368666014
  0
LINE
  8
0
 62
7
  6
CONTINUOUS
 10
191.6761997874
 20
203.9063476848
 11
191.6761997874
 21
212.9435699995
  0
LINE
  8
0
 62
7
  6
CONTINUOUS
 10
196.9301997874
 20
213.0935699995
 11
196.9301997874
 21
226.8863361584
  0
LINE
  8
0
 62
7
  6
CONTINUOUS
 10
196.2095049769
 20
212.5679894153
 11
195.4910572504
 21
200.8214729205
  0
POLYLINE
  8
0
 62
7
  6
CONTINUOUS
 66
1
 70
0
  0
VERTEX
  8
0
 62
7
  6
CONTINUOUS
 10
191.640841473
 20
203.9368666014
  0
VERTEX
  8
0
 62
7
  6
CONTINUOUS
 10
191.6376572665
 20
203.892797058
  0
VERTEX
  8
0
 62
7
  6
CONTINUOUS
 10
191.6281251091
 20
203.8495803352
  0
VERTEX
  8
0
 62
7
  6
CONTINUOUS
 10
191.6125963413
 20
203.8086156721
  0
VERTEX
  8
0
 62
7
  6
CONTINUOUS
 10
191.5913849515
 20
203.7704751516
  0
VERTEX
  8
0
 62
7
  6
CONTINUOUS
 10
191.5647152644
 20
203.7356654081
  0
VERTEX
  8
0
 62
7
  6
CONTINUOUS
 10
191.5332176587
 20
203.7051465772
  0
VERTEX
  8
0
 62
7
  6
CONTINUOUS
 10
191.4979021365
 20
203.6798166532
  0
VERTEX
  8
0
 62
7
  6
CONTINUOUS
 10
191.459556084
 20
203.6600661275
  0
VERTEX
  8
0
 62
7
  6
CONTINUOUS
 10
191.4186397352
 20
203.6460833847
  0
VERTEX
  8
0
 62
7
  6
CONTINUOUS
 10
191.3742208356
 20
203.6365936157
  0
SEQEND
  0
POLYLINE
  8
0
 62
7
  6
CONTINUOUS
 66
1
 70
0
  0
VERTEX
  8
0
 62
7
  6
CONTINUOUS
 10
191.6761997874
 20
203.9063476848
  0
VERTEX
  8
0
 62
7
  6
CONTINUOUS
 10
191.6724906866
 20
203.8587792801
  0
VERTEX
  8
0
 62
7
  6
CONTINUOUS
 10
191.6613759672
 20
203.8121391694
  0
VERTEX
  8
0
 62
7
  6
CONTINUOUS
 10
191.6432927013
 20
203.7681662898
  0
VERTEX
  8
0
 62
7
  6
CONTINUOUS
 10
191.6186189402
 20
203.72757776
  0
VERTEX
  8
0
 62
7
  6
CONTINUOUS
 10
191.5876956671
 20
203.6911191181
  0
VERTEX
  8
0
 62
7
  6
CONTINUOUS
 10
191.5515571829
 20
203.6601135188
  0
VERTEX
  8
0
 62
7
  6
CONTINUOUS
 10
191.5115263625
 20
203.6354966435
  0
VERTEX
  8
0
 62
7
  6
CONTINUOUS
 10
191.4683037099
 20
203.6175195718
  0
VERTEX
  8
0
 62
7
  6
CONTINUOUS
 10
191.4226315729
 20
203.6065178886
  0
VERTEX
  8
0
 62
7
  6
CONTINUOUS
 10
191.3761997874
 20
203.602860259
  0
SEQEND
  0
POLYLINE
  8
0
 62
7
  6
CONTINUOUS
 66
1
 70
0
  0
VERTEX
  8
0
 62
7
  6
CONTINUOUS
 10
191.6724510253
 20
203.8924237235
  0
VERTEX
  8
0
 62
7
  6
CONTINUOUS
 10
191.6613071775
 20
203.8457628561
  0
VERTEX
  8
0
 62
7
  6
CONTINUOUS
 10
191.6430775794
 20
203.801520964
  0
VERTEX
  8
0
 62
7
  6
CONTINUOUS
 10
191.6182518825
 20
203.7607960449
  0
VERTEX
  8
0
 62
7
  6
CONTINUOUS
 10
191.5874992965
 20
203.7246012729
  0
VERTEX
  8
0
 62
7
  6
CONTINUOUS
 10
191.5516246565
 20
203.6938019807
  0
VERTEX
  8
0
 62
7
  6
CONTINUOUS
 10
191.5115413968
 20
203.669111305
  0
VERTEX
  8
0
 62
7
  6
CONTINUOUS
 10
191.4682399718
 20
203.6510821214
  0
VERTEX
  8
0
 62
7
  6
CONTINUOUS
 10
191.4227663227
 20
203.640108225
  0
VERTEX
  8
0
 62
7
  6
CONTINUOUS
 10
191.3742208356
 20
203.6365936157
  0
SEQEND
  0
POLYLINE
  8
AXES
 62
7
  6
CONTINUOUS
 66
1
 70
0
  0
VERTEX
  8
AXES
 62
7
  6
CONTINUOUS
 10
189.5551854243
 20
219.926559308
  0
VERTEX
  8
AXES
 62
7
  6
CONTINUOUS
 10
189.5872322467
 20
219.8152739275
  0
VERTEX
  8
AXES
 62
7
  6
CONTINUOUS
 10
189.6312560193
 20
219.6237943907
  0
VERTEX
  8
AXES
 62
7
  6
CONTINUOUS
 10
189.6645818365
 20
219.4302216264
  0
VERTEX
  8
AXES
 62
7
  6
CONTINUOUS
 10
189.6868713791
 20
219.2358059343
  0
VERTEX
  8
AXES
 62
7
  6
CONTINUOUS
 10
189.6980390862
 20
219.0407408127
  0
VERTEX
  8
AXES
 62
7
  6
CONTINUOUS
 10
189.6980291116
 20
218.8460505898
  0
VERTEX
  8
AXES
 62
7
  6
CONTINUOUS
 10
189.6868406452
 20
218.6509767534
  0
VERTEX
  8
AXES
 62
7
  6
CONTINUOUS
 10
189.6645326594
 20
218.4565755324
  0
VERTEX
  8
AXES
 62
7
  6
CONTINUOUS
 10
189.6311866336
 20
218.263000568
  0
VERTEX
  8
AXES
 62
7
  6
CONTINUOUS
 10
189.5871464551
 20
218.0715348816
  0
VERTEX
  8
AXES
 62
7
  6
CONTINUOUS
 10
189.5551854243
 20
217.9605862388
  0
SEQEND
  0
ARC
  8
0
 62
7
  6
CONTINUOUS
 10
53.3801997874
 20
116.754834439
 40
4.0
 50
224.4153085972
 51
315.5846914028
  0
ARC
  8
0
 62
7
  6
CONTINUOUS
 10
66.0801997874
 20
116.754834439
 40
4.0
 50
224.4153085972
 51
315.5846914028
  0
ARC
  8
0
 62
7
  6
CONTINUOUS
 10
63.5801999944
 20
114.3053443985
 40
0.5000000086
 50
179.9999658822
 51
224.4152676244
  0
ARC
  8
0
 62
7
  6
CONTINUOUS
 10
50.8801999944
 20
114.3053443985
 40
0.5000000086
 50
179.9999658822
 51
224.4152676244
  0
ARC
  8
0
 62
7
  6
CONTINUOUS
 10
68.5801997874
 20
114.3053446963
 40
0.5
 50
315.5846914028
 51
360.0
  0
ARC
  8
0
 62
7
  6
CONTINUOUS
 10
55.8801997874
 20
114.3053446963
 40
0.5
 50
315.5846914028
 51
360.0
  0
ARC
  8
AXES
 62
7
  6
CONTINUOUS
 10
56.1301997874
 20
120.8241694939
 40
0.5
 50
189.9390834346
 51
194.2
  0
ARC
  8
AXES
 62
7
  6
CONTINUOUS
 10
56.1301997874
 20
120.8241694939
 40
0.5
 50
185.048130284
 51
189.1496625574
  0
ARC
  8
AXES
 62
7
  6
CONTINUOUS
 10
56.1301997874
 20
120.8241694939
 40
0.5
 50
180.0
 51
184.2617680015
  0
ARC
  8
0
 62
7
  6
CONTINUOUS
 10
56.1301997874
 20
120.8241694939
 40
0.5
 50
180.0000879381
 51
194.1999523252
  0
ARC
  8
AXES
 62
7
  6
CONTINUOUS
 10
50.6301997874
 20
120.8241694939
 40
0.5
 50
345.8
 51
350.0603159784
  0
ARC
  8
AXES
 62
7
  6
CONTINUOUS
 10
50.6301997874
 20
120.8241694939
 40
0.5
 50
350.8517291977
 51
354.9513625882
  0
ARC
  8
AXES
 62
7
  6
CONTINUOUS
 10
50.6301997874
 20
120.8241694939
 40
0.5
 50
355.7373127473
 51
360.0
  0
ARC
  8
0
 62
7
  6
CONTINUOUS
 10
50.6301997874
 20
120.8241694939
 40
0.5
 50
345.8000232446
 51
0.0000037398
  0
ARC
  8
AXES
 62
7
  6
CONTINUOUS
 10
68.8301997874
 20
120.8241694939
 40
0.5
 50
189.9390834345
 51
194.2
  0
ARC
  8
AXES
 62
7
  6
CONTINUOUS
 10
68.8301997874
 20
120.8241694939
 40
0.5
 50
185.048130284
 51
189.1496625574
  0
ARC
  8
AXES
 62
7
  6
CONTINUOUS
 10
68.8301997874
 20
120.8241694939
 40
0.5
 50
180.0
 51
184.2617680015
  0
ARC
  8
0
 62
7
  6
CONTINUOUS
 10
68.8301997874
 20
120.8241694939
 40
0.5
 50
180.0000879381
 51
194.1999523252
  0
ARC
  8
AXES
 62
7
  6
CONTINUOUS
 10
63.3301997874
 20
120.8241694939
 40
0.5
 50
345.8
 51
350.0609163038
  0
ARC
  8
AXES
 62
7
  6
CONTINUOUS
 10
63.3301997874
 20
120.8241694939
 40
0.5
 50
350.8503381195
 51
354.9518703932
  0
ARC
  8
AXES
 62
7
  6
CONTINUOUS
 10
63.3301997874
 20
120.8241694939
 40
0.5
 50
355.7382317298
 51
360.0
  0
ARC
  8
0
 62
7
  6
CONTINUOUS
 10
63.3301997874
 20
120.8241694939
 40
0.5
 50
345.8000476299
 51
359.9999120325
  0
ARC
  8
0
 62
7
  6
CONTINUOUS
 10
68.9301997874
 20
117.779236573
 40
0.15
 50
0.0
 51
14.2
  0
ARC
  8
AXES
 62
7
  6
CONTINUOUS
 10
68.9301997874
 20
117.779236573
 40
0.15
 50
0.0
 51
14.2
  0
ARC
  8
0
 62
7
  6
CONTINUOUS
 10
56.2301997874
 20
117.779236573
 40
0.15
 50
0.0
 51
14.2
  0
ARC
  8
AXES
 62
7
  6
CONTINUOUS
 10
56.2301997874
 20
117.779236573
 40
0.15
 50
0.0
 51
14.2
  0
ARC
  8
0
 62
7
  6
CONTINUOUS
 10
63.2301998316
 20
117.7792367476
 40
0.15
 50
165.8000688098
 51
180.0000666902
  0
ARC
  8
0
 62
7
  6
CONTINUOUS
 10
50.5301997874
 20
117.779236573
 40
0.15
 50
165.8
 51
180.0
  0
ARC
  8
AXES
 62
7
  6
CONTINUOUS
 10
50.5301997874
 20
117.779236573
 40
0.15
 50
165.8
 51
180.0
  0
ARC
  8
0
 62
7
  6
CONTINUOUS
 10
78.7801997874
 20
116.754834439
 40
4.0
 50
224.4153085972
 51
315.5846914028
  0
ARC
  8
0
 62
7
  6
CONTINUOUS
 10
91.4801997874
 20
116.754834439
 40
4.0
 50
224.4153085972
 51
315.5846914028
  0
ARC
  8
0
 62
7
  6
CONTINUOUS
 10
88.9801999944
 20
114.3053443985
 40
0.5000000086
 50
179.9999658822
 51
224.4152676244
  0
ARC
  8
0
 62
7
  6
CONTINUOUS
 10
76.2801999944
 20
114.3053443985
 40
0.5000000086
 50
179.9999658822
 51
224.4152676244
  0
ARC
  8
0
 62
7
  6
CONTINUOUS
 10
81.2801997874
 20
114.3053446963
 40
0.5
 50
315.5846914028
 51
360.0
  0
ARC
  8
AXES
 62
7
  6
CONTINUOUS
 10
81.5301997874
 20
120.8241694939
 40
0.5
 50
189.9390834345
 51
194.2
  0
ARC
  8
AXES
 62
7
  6
CONTINUOUS
 10
81.5301997874
 20
120.8241694939
 40
0.5
 50
185.0481302839
 51
189.1496625575
  0
ARC
  8
AXES
 62
7
  6
CONTINUOUS
 10
81.5301997874
 20
120.8241694939
 40
0.5
 50
180.0
 51
184.2617680016
  0
ARC
  8
0
 62
7
  6
CONTINUOUS
 10
81.5301997874
 20
120.8241694939
 40
0.5
 50
180.0000879381
 51
194.1999523252
  0
ARC
  8
AXES
 62
7
  6
CONTINUOUS
 10
76.0301997874
 20
120.8241694939
 40
0.5
 50
345.8
 51
350.0609163037
  0
ARC
  8
AXES
 62
7
  6
CONTINUOUS
 10
76.0301997874
 20
120.8241694939
 40
0.5
 50
350.8503381195
 51
354.9518703932
  0
ARC
  8
AXES
 62
7
  6
CONTINUOUS
 10
76.0301997874
 20
120.8241694939
 40
0.5
 50
355.7382317298
 51
360.0
  0
ARC
  8
0
 62
7
  6
CONTINUOUS
 10
76.0301997874
 20
120.8241694939
 40
0.5
 50
345.8000476299
 51
359.9999120325
  0
ARC
  8
AXES
 62
7
  6
CONTINUOUS
 10
88.7301997874
 20
120.8241694939
 40
0.5
 50
345.8
 51
350.0609163037
  0
ARC
  8
AXES
 62
7
  6
CONTINUOUS
 10
88.7301997874
 20
120.8241694939
 40
0.5
 50
350.8503381195
 51
354.9518703932
  0
ARC
  8
AXES
 62
7
  6
CONTINUOUS
 10
88.7301997874
 20
120.8241694939
 40
0.5
 50
355.7382317297
 51
360.0
  0
ARC
  8
0
 62
7
  6
CONTINUOUS
 10
88.7301997874
 20
120.8241694939
 40
0.5
 50
345.8000476299
 51
359.9999120325
  0
ARC
  8
0
 62
7
  6
CONTINUOUS
 10
81.6301997874
 20
117.779236573
 40
0.15
 50
0.0
 51
14.2
  0
ARC
  8
AXES
 62
7
  6
CONTINUOUS
 10
81.6301997874
 20
117.779236573
 40
0.15
 50
0.0
 51
14.2
  0
ARC
  8
0
 62
7
  6
CONTINUOUS
 10
88.6301998316
 20
117.7792367476
 40
0.15
 50
165.8000688098
 51
180.0000666902
  0
ARC
  8
0
 62
7
  6
CONTINUOUS
 10
75.9301998316
 20
117.7792367476
 40
0.15
 50
165.8000688098
 51
180.0000666902
  0
ARC
  8
0
 62
7
  6
CONTINUOUS
 10
57.6301997874
 20
127.020834439
 40
2.0
 50
89.9995342879
 51
180.0004622983
  0
ARC
  8
0
 62
7
  6
CONTINUOUS
 10
70.3301997874
 20
127.020834439
 40
2.0
 50
89.9995342879
 51
180.0004622983
  0
ARC
  8
0
 62
7
  6
CONTINUOUS
 10
61.8301997874
 20
127.020834439
 40
2.0
 50
359.9995381676
 51
90.0004661002
  0
ARC
  8
0
 62
7
  6
CONTINUOUS
 10
83.0301997874
 20
127.020834439
 40
2.0
 50
89.9995342879
 51
180.0004622983
  0
ARC
  8
0
 62
7
  6
CONTINUOUS
 10
74.5301997874
 20
127.020834439
 40
2.0
 50
359.9995381676
 51
90.0004661002
  0
ARC
  8
0
 62
7
  6
CONTINUOUS
 10
87.2301997874
 20
127.020834439
 40
2.0
 50
359.9995381676
 51
90.0004661002
  0
ARC
  8
0
 62
7
  6
CONTINUOUS
 10
49.1301997874
 20
127.020834439
 40
2.0
 50
359.9995358628
 51
90.000476611
  0
ARC
  8
0
 62
7
  6
CONTINUOUS
 10
45.7841997874
 20
130.020834439
 40
1.0
 50
180.0
 51
270.0
  0
ARC
  8
0
 62
7
  6
CONTINUOUS
 10
104.1801997874
 20
116.754834439
 40
4.0
 50
224.4153085972
 51
315.5846914028
  0
ARC
  8
0
 62
7
  6
CONTINUOUS
 10
116.8801997874
 20
116.754834439
 40
4.0
 50
224.4153085972
 51
315.5846914028
  0
ARC
  8
0
 62
7
  6
CONTINUOUS
 10
101.6801999944
 20
114.3053443985
 40
0.5000000086
 50
179.9999658822
 51
224.4152676244
  0
ARC
  8
0
 62
7
  6
CONTINUOUS
 10
114.3801999944
 20
114.3053443985
 40
0.5000000086
 50
179.9999658822
 51
224.4152676244
  0
ARC
  8
0
 62
7
  6
CONTINUOUS
 10
106.6801997874
 20
114.3053446963
 40
0.5
 50
315.5846914028
 51
360.0
  0
ARC
  8
0
 62
7
  6
CONTINUOUS
 10
93.9801997874
 20
114.3053446963
 40
0.5
 50
315.5846914028
 51
360.0
  0
ARC
  8
AXES
 62
7
  6
CONTINUOUS
 10
94.2301997874
 20
120.8241694939
 40
0.5
 50
189.9390834345
 51
194.2
  0
ARC
  8
AXES
 62
7
  6
CONTINUOUS
 10
94.2301997874
 20
120.8241694939
 40
0.5
 50
185.0481302839
 51
189.1496625574
  0
ARC
  8
AXES
 62
7
  6
CONTINUOUS
 10
94.2301997874
 20
120.8241694939
 40
0.5
 50
180.0
 51
184.2617680016
  0
ARC
  8
0
 62
7
  6
CONTINUOUS
 10
94.2301997874
 20
120.8241694939
 40
0.5
 50
180.0000879381
 51
194.1999523252
  0
ARC
  8
AXES
 62
7
  6
CONTINUOUS
 10
106.9301997874
 20
120.8241694939
 40
0.5
 50
189.9390834346
 51
194.2
  0
ARC
  8
AXES
 62
7
  6
CONTINUOUS
 10
106.9301997874
 20
120.8241694939
 40
0.5
 50
185.048130284
 51
189.1496625574
  0
ARC
  8
AXES
 62
7
  6
CONTINUOUS
 10
106.9301997874
 20
120.8241694939
 40
0.5
 50
180.0
 51
184.2617680015
  0
ARC
  8
0
 62
7
  6
CONTINUOUS
 10
106.9301997874
 20
120.8241694939
 40
0.5
 50
180.0000879381
 51
194.1999523252
  0
ARC
  8
AXES
 62
7
  6
CONTINUOUS
 10
101.4301997874
 20
120.8241694939
 40
0.5
 50
345.8
 51
350.0609163038
  0
ARC
  8
AXES
 62
7
  6
CONTINUOUS
 10
101.4301997874
 20
120.8241694939
 40
0.5
 50
350.8503381195
 51
354.9518703932
  0
ARC
  8
AXES
 62
7
  6
CONTINUOUS
 10
101.4301997874
 20
120.8241694939
 40
0.5
 50
355.7382317297
 51
360.0
  0
ARC
  8
0
 62
7
  6
CONTINUOUS
 10
101.4301997874
 20
120.8241694939
 40
0.5
 50
345.8000476299
 51
359.9999120326
  0
ARC
  8
AXES
 62
7
  6
CONTINUOUS
 10
114.1301997874
 20
120.8241694939
 40
0.5
 50
345.8
 51
350.0609163037
  0
ARC
  8
AXES
 62
7
  6
CONTINUOUS
 10
114.1301997874
 20
120.8241694939
 40
0.5
 50
350.8503381195
 51
354.9518703932
  0
ARC
  8
AXES
 62
7
  6
CONTINUOUS
 10
114.1301997874
 20
120.8241694939
 40
0.5
 50
355.7382317297
 51
360.0
  0
ARC
  8
0
 62
7
  6
CONTINUOUS
 10
114.1301997874
 20
120.8241694939
 40
0.5
 50
345.8000476299
 51
359.9999120325
  0
ARC
  8
0
 62
7
  6
CONTINUOUS
 10
107.0301997874
 20
117.779236573
 40
0.15
 50
0.0
 51
14.2
  0
ARC
  8
AXES
 62
7
  6
CONTINUOUS
 10
107.0301997874
 20
117.779236573
 40
0.15
 50
0.0
 51
14.2
  0
ARC
  8
0
 62
7
  6
CONTINUOUS
 10
114.0301998316
 20
117.7792367476
 40
0.15
 50
165.8000688098
 51
180.0000666902
  0
ARC
  8
0
 62
7
  6
CONTINUOUS
 10
94.3301997874
 20
117.779236573
 40
0.15
 50
0.0
 51
14.2
  0
ARC
  8
AXES
 62
7
  6
CONTINUOUS
 10
94.3301997874
 20
117.779236573
 40
0.15
 50
0.0
 51
14.2
  0
ARC
  8
0
 62
7
  6
CONTINUOUS
 10
101.3301998316
 20
117.7792367476
 40
0.15
 50
165.8000688098
 51
180.0000666902
  0
ARC
  8
0
 62
7
  6
CONTINUOUS
 10
129.5801997874
 20
116.754834439
 40
4.0
 50
224.4153085972
 51
315.5846914028
  0
ARC
  8
0
 62
7
  6
CONTINUOUS
 10
127.0801999944
 20
114.3053443985
 40
0.5000000086
 50
179.9999658822
 51
224.4152676244
  0
ARC
  8
0
 62
7
  6
CONTINUOUS
 10
140.1762138295
 20
113.7846127212
 40
0.5000000052
 50
180.0000154065
 51
240.3272592341
  0
ARC
  8
0
 62
7
  6
CONTINUOUS
 10
119.3801997874
 20
114.3053446963
 40
0.5
 50
315.5846914028
 51
360.0
  0
ARC
  8
0
 62
7
  6
CONTINUOUS
 10
132.0801997874
 20
114.3053446963
 40
0.5
 50
315.5846914028
 51
360.0
  0
ARC
  8
AXES
 62
7
  6
CONTINUOUS
 10
119.6301997874
 20
120.8241694939
 40
0.5
 50
189.9390834346
 51
194.2
  0
ARC
  8
AXES
 62
7
  6
CONTINUOUS
 10
119.6301997874
 20
120.8241694939
 40
0.5
 50
185.048130284
 51
189.1496625574
  0
ARC
  8
AXES
 62
7
  6
CONTINUOUS
 10
119.6301997874
 20
120.8241694939
 40
0.5
 50
180.0
 51
184.2617680015
  0
ARC
  8
0
 62
7
  6
CONTINUOUS
 10
119.6301997874
 20
120.8241694939
 40
0.5
 50
180.0000879381
 51
194.1999523252
  0
ARC
  8
AXES
 62
7
  6
CONTINUOUS
 10
132.3301997874
 20
120.8241694939
 40
0.5
 50
189.9390834346
 51
194.2
  0
ARC
  8
AXES
 62
7
  6
CONTINUOUS
 10
132.3301997874
 20
120.8241694939
 40
0.5
 50
185.048130284
 51
189.1496625574
  0
ARC
  8
AXES
 62
7
  6
CONTINUOUS
 10
132.3301997874
 20
120.8241694939
 40
0.5
 50
180.0
 51
184.2617680015
  0
ARC
  8
0
 62
7
  6
CONTINUOUS
 10
132.3301997874
 20
120.8241694939
 40
0.5
 50
180.0000879381
 51
194.1999523252
  0
ARC
  8
AXES
 62
7
  6
CONTINUOUS
 10
126.8301997874
 20
120.8241694939
 40
0.5
 50
345.8
 51
350.0609163038
  0
ARC
  8
AXES
 62
7
  6
CONTINUOUS
 10
126.8301997874
 20
120.8241694939
 40
0.5
 50
350.8503381195
 51
354.9518703933
  0
ARC
  8
AXES
 62
7
  6
CONTINUOUS
 10
126.8301997874
 20
120.8241694939
 40
0.5
 50
355.7382317296
 51
360.0
  0
ARC
  8
0
 62
7
  6
CONTINUOUS
 10
126.8301997874
 20
120.8241694939
 40
0.5
 50
345.8000476299
 51
359.9999120325
  0
ARC
  8
AXES
 62
7
  6
CONTINUOUS
 10
139.9261997874
 20
120.8241127312
 40
0.5
 50
355.7360267072
 51
360.0
  0
ARC
  8
AXES
 62
7
  6
CONTINUOUS
 10
139.9261997874
 20
120.8241127312
 40
0.5
 50
350.8509908989
 51
354.9518891788
  0
ARC
  8
AXES
 62
7
  6
CONTINUOUS
 10
139.9261997874
 20
120.8241127312
 40
0.5
 50
345.8
 51
350.0605334323
  0
ARC
  8
0
 62
7
  6
CONTINUOUS
 10
139.9261997874
 20
120.8241127312
 40
0.5
 50
345.8000904452
 51
359.9999565165
  0
ARC
  8
0
 62
7
  6
CONTINUOUS
 10
132.4301997874
 20
117.779236573
 40
0.15
 50
0.0
 51
14.2
  0
ARC
  8
AXES
 62
7
  6
CONTINUOUS
 10
132.4301997874
 20
117.779236573
 40
0.15
 50
0.0
 51
14.2
  0
ARC
  8
0
 62
7
  6
CONTINUOUS
 10
139.8262141948
 20
117.7792367476
 40
0.15
 50
165.8000688109
 51
180.0000666912
  0
ARC
  8
0
 62
7
  6
CONTINUOUS
 10
119.7301997874
 20
117.779236573
 40
0.15
 50
0.0
 51
14.2
  0
ARC
  8
AXES
 62
7
  6
CONTINUOUS
 10
119.7301997874
 20
117.779236573
 40
0.15
 50
0.0
 51
14.2
  0
ARC
  8
0
 62
7
  6
CONTINUOUS
 10
126.7301998316
 20
117.7792367476
 40
0.15
 50
165.8000688098
 51
180.0000666902
  0
ARC
  8
0
 62
7
  6
CONTINUOUS
 10
95.7301997874
 20
127.020834439
 40
2.0
 50
89.9995342879
 51
180.0004622983
  0
ARC
  8
0
 62
7
  6
CONTINUOUS
 10
108.4301997874
 20
127.020834439
 40
2.0
 50
89.9995342879
 51
180.0004622983
  0
ARC
  8
0
 62
7
  6
CONTINUOUS
 10
99.9301997874
 20
127.020834439
 40
2.0
 50
359.9995381676
 51
90.0004661002
  0
ARC
  8
0
 62
7
  6
CONTINUOUS
 10
121.1301997874
 20
127.020834439
 40
2.0
 50
89.9995342879
 51
180.0004622983
  0
ARC
  8
0
 62
7
  6
CONTINUOUS
 10
112.6301997874
 20
127.020834439
 40
2.0
 50
359.9995381676
 51
90.0004661002
  0
ARC
  8
0
 62
7
  6
CONTINUOUS
 10
133.8301997874
 20
127.020834439
 40
2.0
 50
89.9995342879
 51
180.0004622983
  0
ARC
  8
0
 62
7
  6
CONTINUOUS
 10
125.3301997874
 20
127.020834439
 40
2.0
 50
359.9995381676
 51
90.0004661002
  0
ARC
  8
0
 62
7
  6
CONTINUOUS
 10
138.4261997874
 20
127.020834439
 40
2.0
 50
359.9995443416
 51
90.0004725774
  0
ARC
  8
0
 62
7
  6
CONTINUOUS
 10
53.3801997874
 20
134.608834439
 40
4.104
 50
179.9997314726
 51
0.0003004745
  0
ARC
  8
0
 62
7
  6
CONTINUOUS
 10
66.0801997874
 20
134.608834439
 40
4.104
 50
179.9997279377
 51
0.0002641553
  0
ARC
  8
0
 62
7
  6
CONTINUOUS
 10
78.7801997874
 20
134.608834439
 40
4.104
 50
179.9997279377
 51
0.0002641553
  0
ARC
  8
0
 62
7
  6
CONTINUOUS
 10
91.4801997874
 20
134.608834439
 40
4.104
 50
179.9997279377
 51
0.0002641553
  0
ARC
  8
0
 62
7
  6
CONTINUOUS
 10
56.9841997874
 20
138.7925561469
 40
0.5
 50
359.9999962556
 51
14.1999767791
  0
ARC
  8
0
 62
7
  6
CONTINUOUS
 10
69.6841997874
 20
138.7925561469
 40
0.5
 50
0.0000879231
 51
14.1999523206
  0
ARC
  8
0
 62
7
  6
CONTINUOUS
 10
62.4761997874
 20
138.7925561469
 40
0.5
 50
165.8000476345
 51
179.9999120476
  0
ARC
  8
0
 62
7
  6
CONTINUOUS
 10
82.3841997874
 20
138.7925561469
 40
0.5
 50
0.0000879231
 51
14.1999523206
  0
ARC
  8
0
 62
7
  6
CONTINUOUS
 10
75.1761997874
 20
138.7925561469
 40
0.5
 50
165.8000476345
 51
179.9999120476
  0
ARC
  8
0
 62
7
  6
CONTINUOUS
 10
87.8761997874
 20
138.7925561469
 40
0.5
 50
165.8000476345
 51
179.9999120476
  0
ARC
  8
0
 62
7
  6
CONTINUOUS
 10
49.7761997874
 20
138.7925561469
 40
0.5
 50
165.8000232515
 51
180.0000037413
  0
ARC
  8
0
 62
7
  6
CONTINUOUS
 10
44.2841997874
 20
138.7925561469
 40
0.5
 50
359.9999962556
 51
14.1999767791
  0
ARC
  8
0
 62
7
  6
CONTINUOUS
 10
57.4801997874
 20
146.104834439
 40
0.75
 50
90.0
 51
180.0
  0
ARC
  8
0
 62
7
  6
CONTINUOUS
 10
49.2801997874
 20
146.104834439
 40
0.75
 50
0.0
 51
90.0
  0
ARC
  8
0
 62
7
  6
CONTINUOUS
 10
70.1801997874
 20
146.104834439
 40
0.75
 50
90.0
 51
180.0
  0
ARC
  8
0
 62
7
  6
CONTINUOUS
 10
44.7801997874
 20
146.104834439
 40
0.75
 50
90.0
 51
180.0
  0
ARC
  8
0
 62
7
  6
CONTINUOUS
 10
87.3801997874
 20
146.104834439
 40
0.75
 50
0.0
 51
90.0
  0
ARC
  8
0
 62
7
  6
CONTINUOUS
 10
82.8801997874
 20
146.104834439
 40
0.75
 50
90.0
 51
180.0
  0
ARC
  8
0
 62
7
  6
CONTINUOUS
 10
74.6801997874
 20
146.104834439
 40
0.75
 50
0.0
 51
90.0
  0
ARC
  8
0
 62
7
  6
CONTINUOUS
 10
61.9801997874
 20
146.104834439
 40
0.75
 50
0.0
 51
90.0
  0
ARC
  8
0
 62
7
  6
CONTINUOUS
 10
87.9801992051
 20
141.8532946125
 40
0.15
 50
345.8009067324
 51
0.0008790001
  0
ARC
  8
0
 62
7
  6
CONTINUOUS
 10
82.2801997874
 20
141.8532969138
 40
0.15
 50
180.0
 51
194.2
  0
ARC
  8
0
 62
7
  6
CONTINUOUS
 10
75.2801992051
 20
141.8532946125
 40
0.15
 50
345.8009067324
 51
0.0008790001
  0
ARC
  8
0
 62
7
  6
CONTINUOUS
 10
69.5801997874
 20
141.8532969138
 40
0.15
 50
180.0
 51
194.2
  0
ARC
  8
0
 62
7
  6
CONTINUOUS
 10
62.5801992051
 20
141.8532946125
 40
0.15
 50
345.8009067324
 51
0.0008790001
  0
ARC
  8
0
 62
7
  6
CONTINUOUS
 10
49.8801997874
 20
141.8532969138
 40
0.15
 50
345.8
 51
360.0
  0
ARC
  8
0
 62
7
  6
CONTINUOUS
 10
56.8802000614
 20
141.8532958311
 40
0.15
 50
179.9995864477
 51
194.1995734119
  0
ARC
  8
0
 62
7
  6
CONTINUOUS
 10
44.1802000614
 20
141.8532958311
 40
0.15
 50
179.9995864477
 51
194.199573412
  0
ARC
  8
0
 62
7
  6
CONTINUOUS
 10
104.1801997874
 20
134.608834439
 40
4.104
 50
179.9997279377
 51
0.0002641553
  0
ARC
  8
0
 62
7
  6
CONTINUOUS
 10
116.8801997874
 20
134.608834439
 40
4.104
 50
179.9997279377
 51
0.0002641553
  0
ARC
  8
0
 62
7
  6
CONTINUOUS
 10
129.5801997874
 20
134.608834439
 40
4.104
 50
179.9997279377
 51
0.0002641553
  0
ARC
  8
0
 62
7
  6
CONTINUOUS
 10
95.0841997874
 20
138.7925561469
 40
0.5
 50
0.0000879231
 51
14.1999523206
  0
ARC
  8
0
 62
7
  6
CONTINUOUS
 10
107.7841997874
 20
138.7925561469
 40
0.5
 50
0.0000879231
 51
14.1999523206
  0
ARC
  8
0
 62
7
  6
CONTINUOUS
 10
100.5761997874
 20
138.7925561469
 40
0.5
 50
165.8000476345
 51
179.9999120476
  0
ARC
  8
0
 62
7
  6
CONTINUOUS
 10
120.4841997874
 20
138.7925561469
 40
0.5
 50
0.0000879231
 51
14.1999523206
  0
ARC
  8
0
 62
7
  6
CONTINUOUS
 10
113.2761997874
 20
138.7925561469
 40
0.5
 50
165.8000476345
 51
179.9999120476
  0
ARC
  8
0
 62
7
  6
CONTINUOUS
 10
133.1841997874
 20
138.7925561469
 40
0.5
 50
0.0000879231
 51
14.1999523206
  0
ARC
  8
0
 62
7
  6
CONTINUOUS
 10
125.9761997874
 20
138.7925561469
 40
0.5
 50
165.8000476345
 51
179.9999120476
  0
ARC
  8
0
 62
7
  6
CONTINUOUS
 10
138.6761997874
 20
138.7925561469
 40
0.5
 50
165.799995375
 51
179.9999803326
  0
ARC
  8
0
 62
7
  6
CONTINUOUS
 10
108.2801997874
 20
146.104834439
 40
0.75
 50
90.0
 51
180.0
  0
ARC
  8
0
 62
7
  6
CONTINUOUS
 10
138.1801997874
 20
146.104834439
 40
0.75
 50
0.0
 51
90.0
  0
ARC
  8
0
 62
7
  6
CONTINUOUS
 10
133.6801997874
 20
146.104834439
 40
0.75
 50
90.0
 51
180.0
  0
ARC
  8
0
 62
7
  6
CONTINUOUS
 10
125.4801997874
 20
146.104834439
 40
0.75
 50
0.0
 51
90.0
  0
ARC
  8
0
 62
7
  6
CONTINUOUS
 10
120.9801997874
 20
146.104834439
 40
0.75
 50
90.0
 51
180.0
  0
ARC
  8
0
 62
7
  6
CONTINUOUS
 10
112.7801997874
 20
146.104834439
 40
0.75
 50
0.0
 51
90.0
  0
ARC
  8
0
 62
7
  6
CONTINUOUS
 10
100.0801997874
 20
146.104834439
 40
0.75
 50
0.0
 51
90.0
  0
ARC
  8
0
 62
7
  6
CONTINUOUS
 10
95.5801997874
 20
146.104834439
 40
0.75
 50
90.0
 51
180.0
  0
ARC
  8
0
 62
7
  6
CONTINUOUS
 10
138.7801997874
 20
141.8532969138
 40
0.15
 50
345.8
 51
360.0
  0
ARC
  8
0
 62
7
  6
CONTINUOUS
 10
133.0801997874
 20
141.8532969138
 40
0.15
 50
180.0
 51
194.2
  0
ARC
  8
0
 62
7
  6
CONTINUOUS
 10
126.0801992051
 20
141.8532946125
 40
0.15
 50
345.8009067324
 51
0.0008790001
  0
ARC
  8
0
 62
7
  6
CONTINUOUS
 10
120.3801997874
 20
141.8532969138
 40
0.15
 50
180.0
 51
194.2
  0
ARC
  8
0
 62
7
  6
CONTINUOUS
 10
113.3801992051
 20
141.8532946125
 40
0.15
 50
345.8009067324
 51
0.0008790001
  0
ARC
  8
0
 62
7
  6
CONTINUOUS
 10
107.6801997874
 20
141.8532969138
 40
0.15
 50
180.0
 51
194.2
  0
ARC
  8
0
 62
7
  6
CONTINUOUS
 10
100.6801992051
 20
141.8532946125
 40
0.15
 50
345.8009067324
 51
0.0008790001
  0
ARC
  8
0
 62
7
  6
CONTINUOUS
 10
94.9801997874
 20
141.8532969138
 40
0.15
 50
180.0
 51
194.2
  0
ARC
  8
0
 62
7
  6
CONTINUOUS
 10
142.1761997874
 20
117.294834439
 40
4.54
 50
240.3272196412
 51
270.0
  0
ARC
  8
0
 62
7
  6
CONTINUOUS
 10
143.1761997874
 20
117.294834439
 40
4.54
 50
270.0
 51
299.6727803588
  0
ARC
  8
0
 62
7
  6
CONTINUOUS
 10
155.9301997874
 20
117.254834439
 40
4.5
 50
240.0002375645
 51
270.0
  0
ARC
  8
0
 62
7
  6
CONTINUOUS
 10
156.9301997874
 20
117.254834439
 40
4.5
 50
270.0
 51
299.9997624355
  0
ARC
  8
AXES
 62
7
  6
CONTINUOUS
 10
168.1301997874
 20
117.084834439
 40
1.5
 50
94.1260708806
 51
257.7538206432
  0
ARC
  8
0
 62
7
  6
CONTINUOUS
 10
168.4302138387
 20
113.7907246621
 40
0.5000000053
 50
180.0000149795
 51
240.0002760067
  0
ARC
  8
0
 62
7
  6
CONTINUOUS
 10
153.9302138387
 20
113.7907246621
 40
0.5000000053
 50
180.0000149795
 51
240.0002760067
  0
ARC
  8
0
 62
7
  6
CONTINUOUS
 10
158.9301854243
 20
113.7907245314
 40
0.5
 50
299.9997624355
 51
360.0
  0
ARC
  8
0
 62
7
  6
CONTINUOUS
 10
145.1761854243
 20
113.7846125867
 40
0.5
 50
299.6727803588
 51
360.0
  0
ARC
  8
AXES
 62
7
  6
CONTINUOUS
 10
168.0114801505
 20
118.7305578811
 40
0.15
 50
274.1260708806
 51
345.8
  0
ARC
  8
AXES
 62
7
  6
CONTINUOUS
 10
167.7802141506
 20
115.4723797718
 40
0.15
 50
0.0
 51
77.7538206432
  0
ARC
  8
AXES
 62
7
  6
CONTINUOUS
 10
159.2801854243
 20
117.779236573
 40
0.15
 50
0.0
 51
14.2
  0
ARC
  8
0
 62
7
  6
CONTINUOUS
 10
159.2801850787
 20
117.7792379387
 40
0.15
 50
359.9994783736
 51
14.1994619301
  0
ARC
  8
0
 62
7
  6
CONTINUOUS
 10
168.0802141506
 20
117.779236573
 40
0.15
 50
165.8
 51
180.0
  0
ARC
  8
0
 62
7
  6
CONTINUOUS
 10
145.5261854243
 20
117.779236573
 40
0.15
 50
0.0
 51
14.2
  0
ARC
  8
AXES
 62
7
  6
CONTINUOUS
 10
145.5261854243
 20
117.779236573
 40
0.15
 50
0.0
 51
14.2
  0
ARC
  8
0
 62
7
  6
CONTINUOUS
 10
153.5802141948
 20
117.7792367476
 40
0.15
 50
165.8000688109
 51
180.0000666912
  0
ARC
  8
0
 62
7
  6
CONTINUOUS
 10
147.6261997874
 20
126.654834439
 40
2.7
 50
89.9996390188
 51
180.0003641097
  0
ARC
  8
0
 62
7
  6
CONTINUOUS
 10
161.3801997874
 20
126.654834439
 40
2.7
 50
89.9996057411
 51
180.0003616674
  0
ARC
  8
0
 62
7
  6
CONTINUOUS
 10
151.4801997874
 20
126.654834439
 40
2.7
 50
359.9996449448
 51
90.0003701983
  0
ARC
  8
0
 62
7
  6
CONTINUOUS
 10
165.9801997874
 20
126.654834439
 40
2.7
 50
359.9996131393
 51
90.000367938
  0
ARC
  8
AXES
 62
7
  6
CONTINUOUS
 10
145.4261997874
 20
120.8241127312
 40
0.5
 50
189.9390834438
 51
194.2000000002
  0
ARC
  8
AXES
 62
7
  6
CONTINUOUS
 10
145.4261997874
 20
120.8241127312
 40
0.5
 50
185.0481302598
 51
189.1496625329
  0
ARC
  8
AXES
 62
7
  6
CONTINUOUS
 10
145.4261997874
 20
120.8241127312
 40
0.5
 50
180.0
 51
184.2617680114
  0
ARC
  8
0
 62
7
  6
CONTINUOUS
 10
145.4261997874
 20
120.8241127312
 40
0.5
 50
180.000087938
 51
194.1999523252
  0
ARC
  8
AXES
 62
7
  6
CONTINUOUS
 10
153.6801997874
 20
120.8241127312
 40
0.5
 50
355.7360267073
 51
360.0
  0
ARC
  8
AXES
 62
7
  6
CONTINUOUS
 10
153.6801997874
 20
120.8241127312
 40
0.5
 50
350.850990899
 51
354.9518891788
  0
ARC
  8
AXES
 62
7
  6
CONTINUOUS
 10
153.6801997874
 20
120.8241127312
 40
0.5
 50
345.8
 51
350.0605334322
  0
ARC
  8
0
 62
7
  6
CONTINUOUS
 10
153.6801997874
 20
120.8241127312
 40
0.5
 50
345.8000904452
 51
359.9999565166
  0
ARC
  8
AXES
 62
7
  6
CONTINUOUS
 10
159.1801997874
 20
120.8241127312
 40
0.5
 50
189.9396841642
 51
194.2
  0
ARC
  8
AXES
 62
7
  6
CONTINUOUS
 10
159.1801997874
 20
120.8241127312
 40
0.5
 50
185.0486370375
 51
189.1482704277
  0
ARC
  8
AXES
 62
7
  6
CONTINUOUS
 10
159.1801997874
 20
120.8241127312
 40
0.5
 50
180.0
 51
184.2626873985
  0
ARC
  8
0
 62
7
  6
CONTINUOUS
 10
159.1801997874
 20
120.8241127312
 40
0.5
 50
179.999996257
 51
194.199976786
  0
ARC
  8
AXES
 62
7
  6
CONTINUOUS
 10
168.1801997874
 20
120.8241127312
 40
0.5
 50
355.7351544562
 51
360.0
  0
ARC
  8
AXES
 62
7
  6
CONTINUOUS
 10
168.1801997874
 20
120.8241127312
 40
0.5
 50
350.8496588582
 51
354.9516469416
  0
ARC
  8
AXES
 62
7
  6
CONTINUOUS
 10
168.1801997874
 20
120.8241127312
 40
0.5
 50
345.8
 51
350.0611589843
  0
ARC
  8
0
 62
7
  6
CONTINUOUS
 10
168.1801997874
 20
120.8241127312
 40
0.5
 50
345.7999953773
 51
359.9999803365
  0
ARC
  8
0
 62
7
  6
CONTINUOUS
 10
170.4301997874
 20
117.254834439
 40
4.5
 50
240.0002375645
 51
270.0
  0
ARC
  8
0
 62
7
  6
CONTINUOUS
 10
171.4301997874
 20
117.254834439
 40
4.5
 50
270.0
 51
299.9997624355
  0
ARC
  8
0
 62
7
  6
CONTINUOUS
 10
186.0551997874
 20
117.254834439
 40
4.5
 50
240.0002375645
 51
270.0
  0
ARC
  8
0
 62
7
  6
CONTINUOUS
 10
187.0551997874
 20
117.254834439
 40
4.5
 50
270.0
 51
299.9997624355
  0
ARC
  8
AXES
 62
7
  6
CONTINUOUS
 10
173.7301997874
 20
117.084834439
 40
1.5
 50
282.2461793568
 51
85.8739291194
  0
ARC
  8
0
 62
7
  6
CONTINUOUS
 10
184.0552138387
 20
113.7907246621
 40
0.5000000053
 50
180.0000149795
 51
240.0002760067
  0
ARC
  8
0
 62
7
  6
CONTINUOUS
 10
189.0551854243
 20
113.7907245314
 40
0.5
 50
299.9997624355
 51
360.0
  0
ARC
  8
0
 62
7
  6
CONTINUOUS
 10
173.4301854243
 20
113.7907245314
 40
0.5
 50
299.9997624355
 51
360.0
  0
ARC
  8
0
 62
7
  6
CONTINUOUS
 10
183.7052141948
 20
117.7792367476
 40
0.15
 50
165.8000688108
 51
180.0000666911
  0
ARC
  8
0
 62
7
  6
CONTINUOUS
 10
173.7801854243
 20
117.779236573
 40
0.15
 50
0.0
 51
14.2
  0
ARC
  8
AXES
 62
7
  6
CONTINUOUS
 10
173.8489194244
 20
118.7305578811
 40
0.15
 50
194.2
 51
265.8739291194
  0
ARC
  8
AXES
 62
7
  6
CONTINUOUS
 10
174.0801854243
 20
115.4723797718
 40
0.15
 50
102.2461793568
 51
180.0
  0
ARC
  8
AXES
 62
7
  6
CONTINUOUS
 10
189.4051854243
 20
117.779236573
 40
0.15
 50
0.0
 51
14.2
  0
ARC
  8
0
 62
7
  6
CONTINUOUS
 10
189.4051850787
 20
117.7792379387
 40
0.15
 50
359.9994783736
 51
14.1994619302
  0
ARC
  8
AXES
 62
7
  6
CONTINUOUS
 10
194.8051997874
 20
124.103472594
 40
6.0
 50
174.8452426403
 51
176.0406804051
  0
ARC
  8
AXES
 62
7
  6
CONTINUOUS
 10
194.8051997874
 20
124.103472594
 40
6.0
 50
169.9081331317
 51
171.9672755463
  0
ARC
  8
0
 62
7
  6
CONTINUOUS
 10
194.8051997874
 20
124.103472594
 40
6.0
 50
109.6690910198
 51
180.0001709168
  0
ARC
  8
0
 62
7
  6
CONTINUOUS
 10
180.3051997874
 20
125.504834439
 40
4.0
 50
359.9997286522
 51
90.0002792926
  0
ARC
  8
0
 62
7
  6
CONTINUOUS
 10
176.1801997874
 20
126.504834439
 40
3.0
 50
89.9996518478
 51
180.0003529885
  0
ARC
  8
AXES
 62
7
  6
CONTINUOUS
 10
173.6801997874
 20
120.8241127312
 40
0.5
 50
189.9390834437
 51
194.2
  0
ARC
  8
AXES
 62
7
  6
CONTINUOUS
 10
173.6801997874
 20
120.8241127312
 40
0.5
 50
185.0481302596
 51
189.1496625329
  0
ARC
  8
AXES
 62
7
  6
CONTINUOUS
 10
173.6801997874
 20
120.8241127312
 40
0.5
 50
180.0
 51
184.2617680115
  0
ARC
  8
0
 62
7
  6
CONTINUOUS
 10
173.6801997874
 20
120.8241127312
 40
0.5
 50
180.000087938
 51
194.1999523251
  0
ARC
  8
AXES
 62
7
  6
CONTINUOUS
 10
183.8051997874
 20
120.8241127312
 40
0.5
 50
355.7360267073
 51
360.0
  0
ARC
  8
AXES
 62
7
  6
CONTINUOUS
 10
183.8051997874
 20
120.8241127312
 40
0.5
 50
350.8509908991
 51
354.9518891788
  0
ARC
  8
AXES
 62
7
  6
CONTINUOUS
 10
183.8051997874
 20
120.8241127312
 40
0.5
 50
345.8
 51
350.0605334321
  0
ARC
  8
0
 62
7
  6
CONTINUOUS
 10
183.8051997874
 20
120.8241127312
 40
0.5
 50
345.8000904452
 51
359.9999565165
  0
ARC
  8
AXES
 62
7
  6
CONTINUOUS
 10
189.3051997874
 20
120.8241127312
 40
0.5
 50
189.9396841641
 51
194.2
  0
ARC
  8
AXES
 62
7
  6
CONTINUOUS
 10
189.3051997874
 20
120.8241127312
 40
0.5
 50
185.0486370376
 51
189.1482704278
  0
ARC
  8
AXES
 62
7
  6
CONTINUOUS
 10
189.3051997874
 20
120.8241127312
 40
0.5
 50
180.0
 51
184.2626873985
  0
ARC
  8
0
 62
7
  6
CONTINUOUS
 10
189.3051997874
 20
120.8241127312
 40
0.5
 50
179.999996257
 51
194.199976786
  0
ARC
  8
0
 62
7
  6
CONTINUOUS
 10
236.5261997874
 20
136.3835854883
 40
45.0
 50
175.9093257589
 51
184.0906742411
  0
ARC
  8
0
 62
7
  6
CONTINUOUS
 10
186.9301997874
 20
135.554834439
 40
5.5
 50
269.9997561736
 51
329.2118097615
  0
ARC
  8
0
 62
7
  6
CONTINUOUS
 10
171.6801997874
 20
134.654834439
 40
4.5
 50
269.9997425141
 51
0.0002294049
  0
ARC
  8
0
 62
7
  6
CONTINUOUS
 10
170.1801997874
 20
134.654834439
 40
4.5
 50
179.9997419725
 51
270.0002283809
  0
ARC
  8
0
 62
7
  6
CONTINUOUS
 10
185.1801997874
 20
134.554834439
 40
4.5
 50
179.9997414976
 51
270.0002283413
  0
ARC
  8
0
 62
7
  6
CONTINUOUS
 10
143.3261997874
 20
134.154834439
 40
3.85
 50
269.9996872643
 51
0.0002811218
  0
ARC
  8
0
 62
7
  6
CONTINUOUS
 10
142.0261997874
 20
134.154834439
 40
3.85
 50
179.9996862492
 51
270.0002796715
  0
ARC
  8
0
 62
7
  6
CONTINUOUS
 10
157.3301997874
 20
134.154834439
 40
3.85
 50
269.9996872643
 51
0.0002811218
  0
ARC
  8
0
 62
7
  6
CONTINUOUS
 10
155.5301997874
 20
134.154834439
 40
3.85
 50
179.9996862492
 51
270.0002796715
  0
ARC
  8
0
 62
7
  6
CONTINUOUS
 10
193.9301997874
 20
133.3483862849
 40
3.0
 50
289.6689023276
 51
360.0
  0
ARC
  8
0
 62
7
  6
CONTINUOUS
 10
194.4301997874
 20
144.7993328122
 40
2.5
 50
359.9993889107
 51
109.6692853863
  0
ARC
  8
0
 62
7
  6
CONTINUOUS
 10
180.6841997874
 20
146.104834439
 40
0.75
 50
0.0
 51
90.0
  0
ARC
  8
0
 62
7
  6
CONTINUOUS
 10
165.6841997874
 20
146.104834439
 40
0.75
 50
0.0
 51
90.0
  0
ARC
  8
0
 62
7
  6
CONTINUOUS
 10
161.1761997874
 20
146.104834439
 40
0.75
 50
90.0
 51
180.0
  0
ARC
  8
0
 62
7
  6
CONTINUOUS
 10
151.6841997874
 20
146.104834439
 40
0.75
 50
0.0
 51
90.0
  0
ARC
  8
0
 62
7
  6
CONTINUOUS
 10
147.1721997874
 20
146.104834439
 40
0.75
 50
90.0
 51
180.0
  0
ARC
  8
0
 62
7
  6
CONTINUOUS
 10
176.1761997874
 20
146.104834439
 40
0.75
 50
90.0
 51
180.0
  0
ARC
  8
0
 62
7
  6
CONTINUOUS
 10
146.6761997874
 20
138.7925561469
 40
0.5
 50
359.9999962556
 51
14.1999767791
  0
ARC
  8
0
 62
7
  6
CONTINUOUS
 10
160.6801997874
 20
138.7925561469
 40
0.5
 50
359.9999962556
 51
14.1999767791
  0
ARC
  8
0
 62
7
  6
CONTINUOUS
 10
152.1801997874
 20
138.7925561469
 40
0.5
 50
165.799995375
 51
179.9999803327
  0
ARC
  8
0
 62
7
  6
CONTINUOUS
 10
175.6801997874
 20
138.7925561469
 40
0.5
 50
359.9999962555
 51
14.1999767791
  0
ARC
  8
0
 62
7
  6
CONTINUOUS
 10
166.1801997874
 20
138.7925561469
 40
0.5
 50
165.7999953749
 51
179.9999803327
  0
ARC
  8
0
 62
7
  6
CONTINUOUS
 10
181.1801997874
 20
138.7925606246
 40
0.5
 50
165.8010059352
 51
179.9999803497
  0
ARC
  8
0
 62
7
  6
CONTINUOUS
 10
191.5261997874
 20
132.8163523778
 40
0.15
 50
329.2109930998
 51
0.0009496843
  0
ARC
  8
0
 62
7
  6
CONTINUOUS
 10
181.2841997874
 20
141.8535165834
 40
0.15
 50
345.8010105548
 51
360.0
  0
ARC
  8
0
 62
7
  6
CONTINUOUS
 10
191.8261997874
 20
146.3641568468
 40
0.15
 50
109.6692853863
 51
180.0
  0
ARC
  8
0
 62
7
  6
CONTINUOUS
 10
166.2841997874
 20
141.8532969138
 40
0.15
 50
345.8
 51
360.0
  0
ARC
  8
0
 62
7
  6
CONTINUOUS
 10
175.5762000614
 20
141.8532958311
 40
0.15
 50
179.9995864477
 51
194.199573412
  0
ARC
  8
0
 62
7
  6
CONTINUOUS
 10
152.2841997874
 20
141.8532969138
 40
0.15
 50
345.8
 51
360.0
  0
ARC
  8
0
 62
7
  6
CONTINUOUS
 10
160.5762000614
 20
141.8532958311
 40
0.15
 50
179.9995864477
 51
194.199573412
  0
ARC
  8
0
 62
7
  6
CONTINUOUS
 10
146.5722000614
 20
141.8532958311
 40
0.15
 50
179.9995864477
 51
194.199573412
  0
ARC
  8
0
 62
7
  6
CONTINUOUS
 10
273.8055463872
 20
129.804834439
 40
43.15
 50
340.5287793655
 51
19.8639975066
  0
ARC
  8
0
 62
7
  6
CONTINUOUS
 10
273.6686708164
 20
136.3835854883
 40
20.0
 50
350.1828781766
 51
9.8171218234
  0
ARC
  8
0
 62
7
  6
CONTINUOUS
 10
289.7165203652
 20
138.2009112404
 40
1.0
 50
99.0104490613
 51
179.9999866381
  0
ARC
  8
0
 62
7
  6
CONTINUOUS
 10
289.7165203652
 20
134.0375317097
 40
1.0
 50
180.0000004341
 51
269.0000000076
  0
ARC
  8
0
 62
7
  6
CONTINUOUS
 10
306.7165203652
 20
116.754834439
 40
4.0
 50
180.0
 51
270.0
  0
ARC
  8
AXES
 62
7
  6
CONTINUOUS
 10
308.7165203652
 20
117.104834439
 40
2.1
 50
180.0
 51
360.0
  0
ARC
  8
0
 62
7
  6
CONTINUOUS
 10
302.3165203652
 20
132.4173846248
 40
0.4
 50
8.9001227921
 51
89.0
  0
ARC
  8
0
 62
7
  6
CONTINUOUS
 10
302.8665203652
 20
129.904834439
 40
0.15
 50
146.25
 51
180.0
  0
ARC
  8
0
 62
7
  6
CONTINUOUS
 10
302.8665203652
 20
130.0642174625
 40
0.1499999671
 50
179.9998090059
 51
252.634248814
  0
ARC
  8
AXES
 62
7
  6
CONTINUOUS
 10
308.7165203652
 20
125.154834439
 40
2.1
 50
0.0
 51
180.0
  0
ARC
  8
0
 62
7
  6
CONTINUOUS
 10
310.7165203652
 20
116.754834439
 40
4.0
 50
270.0
 51
340.5287793655
  0
ARC
  8
0
 62
7
  6
CONTINUOUS
 10
316.8008722552
 20
129.1708337834
 40
0.1499999543
 50
269.9999889304
 51
359.1554400036
  0
ARC
  8
0
 62
7
  6
CONTINUOUS
 10
302.3165203652
 20
141.6164036252
 40
0.4
 50
285.1331967449
 51
360.0
  0
ARC
  8
0
 62
7
  6
CONTINUOUS
 10
306.7165203652
 20
142.854834439
 40
4.0
 50
90.0
 51
180.0
  0
CIRCLE
  8
AXES
 62
7
  6
CONTINUOUS
 10
308.7165203652
 20
142.504834439
 40
2.1
  0
ARC
  8
0
 62
7
  6
CONTINUOUS
 10
310.7165203652
 20
142.854834439
 40
4.0
 50
19.4712206345
 51
90.0
  0
ARC
  8
0
 62
7
  6
CONTINUOUS
 10
308.7165203652
 20
148.770834439
 40
19.75
 50
252.6343058201
 51
270.0
  0
ARC
  8
0
 62
7
  6
CONTINUOUS
 10
74.5261997874
 20
213.0935699995
 40
0.15
 50
271.5229755581
 51
281.25
  0
ARC
  8
0
 62
7
  6
CONTINUOUS
 10
70.3341997874
 20
213.0935699995
 40
0.15
 50
258.7500000115
 51
268.477024442
  0
ARC
  8
0
 62
7
  6
CONTINUOUS
 10
61.8261997874
 20
213.0935699995
 40
0.15
 50
271.5229755581
 51
281.25
  0
ARC
  8
0
 62
7
  6
CONTINUOUS
 10
57.6341997874
 20
213.0935699995
 40
0.15
 50
258.75
 51
268.4770244418
  0
ARC
  8
0
 62
7
  6
CONTINUOUS
 10
49.1261997874
 20
213.0935699995
 40
0.15
 50
271.522975558
 51
281.2499999874
  0
ARC
  8
0
 62
7
  6
CONTINUOUS
 10
44.9341997874
 20
213.0935699995
 40
0.15
 50
180.0
 51
270.0
  0
ARC
  8
0
 62
7
  6
CONTINUOUS
 10
81.0301997874
 20
213.6935699995
 40
0.75
 50
270.0
 51
360.0
  0
ARC
  8
0
 62
7
  6
CONTINUOUS
 10
76.5301997874
 20
213.6935699995
 40
0.75
 50
180.0
 51
270.0
  0
ARC
  8
0
 62
7
  6
CONTINUOUS
 10
68.3301997874
 20
213.6935699995
 40
0.75
 50
270.0
 51
360.0
  0
ARC
  8
0
 62
7
  6
CONTINUOUS
 10
63.8301997874
 20
213.6935699995
 40
0.75
 50
180.0
 51
270.0
  0
ARC
  8
0
 62
7
  6
CONTINUOUS
 10
55.6301997874
 20
213.6935699995
 40
0.75
 50
270.0
 51
360.0
  0
ARC
  8
0
 62
7
  6
CONTINUOUS
 10
51.1301997874
 20
213.6935699995
 40
0.75
 50
180.0
 51
270.0
  0
ARC
  8
0
 62
7
  6
CONTINUOUS
 10
44.7801997874
 20
213.6935699995
 40
0.75
 50
180.0022197664
 51
270.0000508801
  0
ARC
  8
0
 62
7
  6
CONTINUOUS
 10
112.6261997874
 20
213.0935699995
 40
0.15
 50
271.5229755581
 51
281.25
  0
ARC
  8
0
 62
7
  6
CONTINUOUS
 10
108.4341997874
 20
213.0935699995
 40
0.15
 50
258.7500000115
 51
268.477024442
  0
ARC
  8
0
 62
7
  6
CONTINUOUS
 10
99.9261997874
 20
213.0935699995
 40
0.15
 50
271.5229755581
 51
281.25
  0
ARC
  8
0
 62
7
  6
CONTINUOUS
 10
95.7341997874
 20
213.0935699995
 40
0.15
 50
258.7500000115
 51
268.477024442
  0
ARC
  8
0
 62
7
  6
CONTINUOUS
 10
87.2261997874
 20
213.0935699995
 40
0.15
 50
271.5229755581
 51
281.25
  0
ARC
  8
0
 62
7
  6
CONTINUOUS
 10
83.0341997874
 20
213.0935699995
 40
0.15
 50
258.7500000115
 51
268.477024442
  0
ARC
  8
0
 62
7
  6
CONTINUOUS
 10
93.7301997874
 20
213.6935699995
 40
0.75
 50
270.0
 51
360.0
  0
ARC
  8
0
 62
7
  6
CONTINUOUS
 10
89.2301997874
 20
213.6935699995
 40
0.75
 50
180.0
 51
270.0
  0
ARC
  8
0
 62
7
  6
CONTINUOUS
 10
101.9301997874
 20
213.6935699995
 40
0.75
 50
180.0
 51
270.0
  0
ARC
  8
0
 62
7
  6
CONTINUOUS
 10
119.1301997874
 20
213.6935699995
 40
0.75
 50
270.0
 51
360.0
  0
ARC
  8
0
 62
7
  6
CONTINUOUS
 10
114.6301997874
 20
213.6935699995
 40
0.75
 50
180.0
 51
270.0
  0
ARC
  8
0
 62
7
  6
CONTINUOUS
 10
106.4301997874
 20
213.6935699995
 40
0.75
 50
270.0
 51
360.0
  0
ARC
  8
0
 62
7
  6
CONTINUOUS
 10
193.4947876536
 20
200.9435699995
 40
2.0
 50
269.9971858617
 51
356.5
  0
ARC
  8
0
 62
7
  6
CONTINUOUS
 10
184.7762000402
 20
199.9435699995
 40
1.0
 50
180.0
 51
269.999985519
  0
ARC
  8
0
 62
7
  6
CONTINUOUS
 10
191.2262003409
 20
204.1957199711
 40
0.2999999929
 50
270.0
 51
360.0
  0
ARC
  8
0
 62
7
  6
CONTINUOUS
 10
133.8341997874
 20
213.0935699995
 40
0.15
 50
258.7500000115
 51
268.477024442
  0
ARC
  8
0
 62
7
  6
CONTINUOUS
 10
125.3261997874
 20
213.0935699995
 40
0.15
 50
271.5229755581
 51
281.25
  0
ARC
  8
0
 62
7
  6
CONTINUOUS
 10
121.1341997874
 20
213.0935699995
 40
0.15
 50
258.7500000114
 51
268.477024442
  0
ARC
  8
0
 62
7
  6
CONTINUOUS
 10
158.6801854243
 20
213.6935699995
 40
0.75
 50
270.0
 51
360.0
  0
ARC
  8
0
 62
7
  6
CONTINUOUS
 10
154.1802141506
 20
213.6935699995
 40
0.75
 50
180.0
 51
270.0
  0
ARC
  8
0
 62
7
  6
CONTINUOUS
 10
144.9261854243
 20
213.6935699995
 40
0.75
 50
270.0
 51
360.0
  0
ARC
  8
0
 62
7
  6
CONTINUOUS
 10
140.4262141506
 20
213.6935699995
 40
0.75
 50
180.0
 51
270.0
  0
ARC
  8
0
 62
7
  6
CONTINUOUS
 10
131.8301997874
 20
213.6935699995
 40
0.75
 50
270.0
 51
360.0
  0
ARC
  8
0
 62
7
  6
CONTINUOUS
 10
127.3301997874
 20
213.6935699995
 40
0.75
 50
180.0
 51
270.0
  0
ARC
  8
0
 62
7
  6
CONTINUOUS
 10
196.6087584225
 20
212.5435699995
 40
0.3999999212
 50
89.9999321408
 51
176.4999958573
  0
ARC
  8
0
 62
7
  6
CONTINUOUS
 10
166.7801997874
 20
213.0935699995
 40
0.15
 50
180.0
 51
270.0
  0
ARC
  8
0
 62
7
  6
CONTINUOUS
 10
175.0801997874
 20
213.0935699995
 40
0.15
 50
270.0
 51
360.0
  0
ARC
  8
0
 62
7
  6
CONTINUOUS
 10
196.7801997874
 20
213.0935699995
 40
0.15
 50
270.0
 51
360.0
  0
ARC
  8
0
 62
7
  6
CONTINUOUS
 10
188.8051854243
 20
213.6935699995
 40
0.75
 50
270.0
 51
360.0
  0
ARC
  8
0
 62
7
  6
CONTINUOUS
 10
184.3052141506
 20
213.6935699995
 40
0.75
 50
180.0
 51
270.0
  0
ENDSEC
  0
EOF
