  0
SECTION
  2
HEADER
  9
$EXTMAX
 10
420.0
 20
297.0
 30
0.0
  9
$EXTMIN
 10
0.0
 20
0.0
 30
0.0
  9
$LIMMIN
 10
0.0
 20
0.0
  9
$LIMMAX
 10
420.0
 20
297.0
  9
$VIEWCTR
 10
210.0
 20
148.5
  9
$VIEWSIZE
 40
297.0
  9
$CLAYER
  8
0
  9
$LTSCALE
 40
23.1
  9
$CELTYPE
  6
BYLAYER
  9
$DIMSCALE
 40
1.0
  9
$DIMASZ
 40
3.5
  9
$DIMEXO
 40
2.625
  9
$DIMDLI
 40
15.96
  9
$DIMEXE
 40
7.56
  9
$DIMCEN
 40
3.78
  9
$DIMLFAC
 40
1.0
  9
$DIMBLK
  1
_FILLED
  9
$DIMTXT
 40
3.5
  9
$PDMODE
 70
3
  9
$PDSIZE
 40
0.3125
  9
$TILEMODE
 70
1
  0
ENDSEC
  0
SECTION
  2
TABLES
  0
TABLE
  2
LTYPE
 70
6
  0
LTYPE
  2
BYBLOCK
 70
0
  3

 72
65
 73
0
 40
0.0
  0
LTYPE
  2
BYLAYER
 70
0
  3

 72
65
 73
0
 40
0.0
  0
LTYPE
  2
CONTINUOUS
 70
64
  3
Solid line
 72
65
 73
0
 40
0.0
  0
LTYPE
  2
CENTER
 70
64
  3
____ _ ____ _ ____ _ ____ _ ____ _ ____ _ ____
 72
65
 73
4
 40
0.6
 49
0.375
 49
-0.075
 49
0.075
 49
-0.075
  0
LTYPE
  2
HIDDEN
 70
64
  3
- - - - - - - - - - - - - - - - - - - -
 72
65
 73
2
 40
0.2
 49
0.1
 49
-0.1
  0
LTYPE
  2
PHANTOM
 70
64
  3
_____ _ _ _____ _ _ _____ _ _ _____
 72
65
 73
6
 40
0.8
 49
0.45
 49
-0.05
 49
0.1
 49
-0.05
 49
0.1
 49
-0.05
  0
LTYPE
  2
DOT
 70
64
  3
. . . . . . . . . . . . . . . . . . . .
 72
65
 73
2
 40
0.2
 49
0.1
 49
-0.1
  0
LTYPE
  2
DASHED
 70
64
  3
- - - - - - - - - - - - - - - - - - - -
 72
65
 73
2
 40
0.2
 49
0.1
 49
-0.1
  0
ENDTAB
  0
TABLE
  2
LAYER
 70
36
  0
LAYER
  2
0
 70
0
 62
7
  6
CONTINUOUS
  0
LAYER
  2
DEFAULT_1
 70
0
 62
7
  6
CENTER
  0
LAYER
  2
DEFAULT_2
 70
0
 62
8
  6
HIDDEN
  0
LAYER
  2
DEFAULT_3
 70
0
 62
7
  6
PHANTOM
  0
LAYER
  2
AXES
 70
0
 62
7
  6
CONTINUOUS
  0
LAYER
  2
CSYS
 70
0
 62
7
  6
CONTINUOUS
  0
LAYER
  2
CURVE
 70
0
 62
7
  6
CONTINUOUS
  0
LAYER
  2
CURVES
 70
0
 62
7
  6
CONTINUOUS
  0
LAYER
  2
PLANES
 70
0
 62
7
  6
CONTINUOUS
  0
LAYER
  2
QUILT
 70
0
 62
7
  6
CONTINUOUS
  0
LAYER
  2
SURF-A
 70
0
 62
7
  6
CONTINUOUS
  0
LAYER
  2
SURFACE
 70
0
 62
7
  6
CONTINUOUS
  0
ENDTAB
  0
TABLE
  2
STYLE
 70
1
  0
STYLE
  2
STANDARD
 70
0
 40
0.0
 41
0.8
 50
0.0
 71
0
 42
0.2
  3
txt
  4

  0
STYLE
  2
TEXTSTYLE_1
 70
0
 40
0.0
 41
0.8
 50
0.0
 71
0
 42
0.2
  3
gdt
  4

  0
STYLE
  2
TEXTSTYLE_2
 70
0
 40
0.0
 41
0.6
 50
0.0
 71
0
 42
0.2
  3
txt
  4

  0
STYLE
  2
TEXTSTYLE_3
 70
0
 40
0.0
 41
1.0
 50
0.0
 71
0
 42
0.2
  3
ftb_____.ttf
  4

  0
STYLE
  2
TEXTSTYLE_4
 70
0
 40
0.0
 41
1.0
 50
0.0
 71
0
 42
0.2
  3
fti_____.ttf
  4

  0
STYLE
  2
TEXTSTYLE_5
 70
0
 40
0.0
 41
1.0
 50
0.0
 71
0
 42
0.2
  3
frutiger light.ttf
  4

  0
STYLE
  2
TEXTSTYLE_6
 70
0
 40
0.0
 41
0.7
 50
0.0
 71
0
 42
0.2
  3
txt
  4

  0
STYLE
  2
TEXTSTYLE_7
 70
0
 40
0.0
 41
0.45
 50
0.0
 71
0
 42
0.2
  3
txt
  4

  0
ENDTAB
  0
ENDSEC
  0
SECTION
  2
BLOCKS
  0
BLOCK
  8
0
 62
2
  6
CONTINUOUS
  2
SYMBOL_5_BL1
 70
64
 10
382.7840918555
 20
35.5067593403
  0
TEXT
  8
0
 62
7
  6
CONTINUOUS
 10
373.842376864
 20
30.5995157174
  7
TEXTSTYLE_4
 40
1.0655737705
  1
The brand for plastic modular belts and chains
 41
1.0
 72
0
  0
LINE
  8
0
 62
7
  6
CONTINUOUS
 10
358.7621602445
 20
36.0805298321
 11
358.7621602445
 21
33.9493822911
  0
LINE
  8
0
 62
7
  6
CONTINUOUS
 10
359.0512227376
 20
30.9584509954
 11
359.0512227376
 21
31.0552420547
  0
LINE
  8
0
 62
7
  6
CONTINUOUS
 10
358.7621602445
 20
31.0229783683
 11
358.8199727462
 21
30.8293962497
  0
LINE
  8
0
 62
7
  6
CONTINUOUS
 10
360.1556028675
 20
33.867415078
 11
360.1556028675
 21
36.0805298321
  0
LINE
  8
0
 62
7
  6
CONTINUOUS
 10
361.0746601894
 20
32.0231527829
 11
361.0746601894
 21
30.5067593403
  0
LINE
  8
0
 62
7
  6
CONTINUOUS
 10
361.3637227445
 20
30.5067593403
 11
361.3637227445
 21
31.2488242184
  0
LINE
  8
0
 62
7
  6
CONTINUOUS
 10
361.3637227445
 20
31.3778789641
 11
361.3637227445
 21
32.0231527829
  0
LINE
  8
0
 62
7
  6
CONTINUOUS
 10
358.8199727462
 20
31.216560532
 11
358.7621602445
 21
31.0229783683
  0
LINE
  8
0
 62
7
  6
CONTINUOUS
 10
359.1668477307
 20
30.7971325633
 11
359.0512227376
 21
30.9584509954
  0
LINE
  8
0
 62
7
  6
CONTINUOUS
 10
360.2652852997
 20
31.3133515913
 11
360.3230977445
 21
31.216560532
  0
LINE
  8
0
 62
7
  6
CONTINUOUS
 10
360.6121602997
 20
31.216560532
 11
360.5543476894
 21
31.3456152777
  0
LINE
  8
0
 62
7
  6
CONTINUOUS
 10
362.0408487691
 20
36.0805298321
 11
362.0408487691
 21
34.2772511436
  0
LINE
  8
0
 62
7
  6
CONTINUOUS
 10
362.0408487691
 20
32.9657757338
 11
362.0408487691
 21
32.3100380288
  0
LINE
  8
0
 62
7
  6
CONTINUOUS
 10
362.4043477445
 20
31.1520331591
 11
362.4043477445
 21
30.5067593403
  0
LINE
  8
0
 62
7
  6
CONTINUOUS
 10
362.6934101343
 20
30.5067593403
 11
362.6934101343
 21
31.1520331591
  0
LINE
  8
0
 62
7
  6
CONTINUOUS
 10
359.0512227376
 20
31.0552420547
 11
359.1090352445
 21
31.1842968456
  0
LINE
  8
0
 62
7
  6
CONTINUOUS
 10
358.8199727462
 20
30.8293962497
 11
358.9355977445
 21
30.7003414814
  0
LINE
  8
0
 62
7
  6
CONTINUOUS
 10
362.3465351343
 20
31.2810879048
 11
362.4043477445
 21
31.1520331591
  0
LINE
  8
0
 62
7
  6
CONTINUOUS
 10
363.1559103548
 20
30.7971325633
 11
363.2137226343
 21
30.668077795
  0
LINE
  8
0
 62
7
  6
CONTINUOUS
 10
362.6934101343
 20
31.1520331591
 11
362.6355978548
 21
31.3133515913
  0
LINE
  8
0
 62
7
  6
CONTINUOUS
 10
363.1559103548
 20
31.3456152777
 11
363.1559103548
 21
31.2810879048
  0
LINE
  8
0
 62
7
  6
CONTINUOUS
 10
363.1559103548
 20
30.8939236226
 11
363.1559103548
 21
30.7971325633
  0
LINE
  8
0
 62
7
  6
CONTINUOUS
 10
363.4342913921
 20
32.3100380288
 11
363.4342913921
 21
36.0805298321
  0
LINE
  8
0
 62
7
  6
CONTINUOUS
 10
363.4449727445
 20
30.7648688543
 11
363.4449727445
 21
30.8293962497
  0
LINE
  8
0
 62
7
  6
CONTINUOUS
 10
363.7621602445
 20
36.0805298321
 11
363.7621602445
 21
32.3100380288
  0
LINE
  8
0
 62
7
  6
CONTINUOUS
 10
360.5543476894
 20
30.7003414814
 11
360.6121602997
 21
30.8293962497
  0
LINE
  8
0
 62
7
  6
CONTINUOUS
 10
364.9480979651
 20
30.6035504109
 11
364.890285024
 21
30.7648688543
  0
LINE
  8
0
 62
7
  6
CONTINUOUS
 10
364.6012229651
 20
31.2810879048
 11
364.6012229651
 21
31.1842968456
  0
LINE
  8
0
 62
7
  6
CONTINUOUS
 10
364.6012229651
 20
31.0552420547
 11
364.6012229651
 21
30.8616599362
  0
LINE
  8
0
 62
7
  6
CONTINUOUS
 10
364.890285024
 20
30.7648688543
 11
364.890285024
 21
31.2810879048
  0
LINE
  8
0
 62
7
  6
CONTINUOUS
 10
365.1556028675
 20
32.3100380288
 11
365.1556028675
 21
34.1133167174
  0
LINE
  8
0
 62
7
  6
CONTINUOUS
 10
365.1556028675
 20
35.4247921272
 11
365.1556028675
 21
36.0805298321
  0
LINE
  8
0
 62
7
  6
CONTINUOUS
 10
365.4684104651
 20
32.0231527829
 11
365.4684104651
 21
31.8618343508
  0
LINE
  8
0
 62
7
  6
CONTINUOUS
 10
365.4684104651
 20
31.5391973962
 11
365.4684104651
 21
30.5067593403
  0
LINE
  8
0
 62
7
  6
CONTINUOUS
 10
365.757472524
 20
30.5067593403
 11
365.757472524
 21
31.5391973962
  0
LINE
  8
0
 62
7
  6
CONTINUOUS
 10
365.757472524
 20
31.8618343508
 11
365.757472524
 21
32.0231527829
  0
LINE
  8
0
 62
7
  6
CONTINUOUS
 10
360.3230977445
 20
30.8293962497
 11
360.2652852997
 21
30.7326051679
  0
LINE
  8
0
 62
7
  6
CONTINUOUS
 10
362.6355978548
 20
31.3133515913
 11
362.5777852445
 21
31.3778789641
  0
LINE
  8
0
 62
7
  6
CONTINUOUS
 10
363.5027853548
 20
30.7003414814
 11
363.4449727445
 21
30.7648688543
  0
LINE
  8
0
 62
7
  6
CONTINUOUS
 10
364.6590352445
 20
30.5712867188
 11
364.716847524
 21
30.5067593403
  0
LINE
  8
0
 62
7
  6
CONTINUOUS
 10
364.6012229651
 20
30.668077795
 11
364.6590352445
 21
30.5712867188
  0
LINE
  8
0
 62
7
  6
CONTINUOUS
 10
365.0059102445
 20
30.5067593403
 11
364.9480979651
 21
30.6035504109
  0
LINE
  8
0
 62
7
  6
CONTINUOUS
 10
364.890285024
 20
31.2810879048
 11
364.8324727445
 21
31.3778789641
  0
LINE
  8
0
 62
7
  6
CONTINUOUS
 10
366.2199727445
 20
31.5391973962
 11
366.2199727445
 21
30.5067593403
  0
LINE
  8
0
 62
7
  6
CONTINUOUS
 10
366.5090354651
 20
30.5067593403
 11
366.5090354651
 21
31.2488242184
  0
LINE
  8
0
 62
7
  6
CONTINUOUS
 10
366.5090354651
 20
31.3778789641
 11
366.5090354651
 21
31.5391973962
  0
LINE
  8
0
 62
7
  6
CONTINUOUS
 10
367.0408487691
 20
34.5231527829
 11
367.0408487691
 21
32.3100380288
  0
LINE
  8
0
 62
7
  6
CONTINUOUS
 10
358.9355977445
 20
31.3456152777
 11
358.8199727462
 21
31.216560532
  0
LINE
  8
0
 62
7
  6
CONTINUOUS
 10
359.1090352445
 20
31.1842968456
 11
359.1668477307
 21
31.2488242184
  0
LINE
  8
0
 62
7
  6
CONTINUOUS
 10
358.9355977445
 20
30.7003414814
 11
359.0512227376
 21
30.6358140973
  0
LINE
  8
0
 62
7
  6
CONTINUOUS
 10
359.3402852307
 20
30.7003414814
 11
359.1668477307
 21
30.7971325633
  0
LINE
  8
0
 62
7
  6
CONTINUOUS
 10
364.543410024
 20
31.3456152777
 11
364.6012229651
 21
31.2810879048
  0
LINE
  8
0
 62
7
  6
CONTINUOUS
 10
367.491847524
 20
31.2810879048
 11
367.5496604651
 21
31.1197694727
  0
LINE
  8
0
 62
7
  6
CONTINUOUS
 10
367.838722524
 20
31.1197694727
 11
367.7809102445
 21
31.2810879048
  0
LINE
  8
0
 62
7
  6
CONTINUOUS
 10
367.5496604651
 20
31.1197694727
 11
367.5496604651
 21
30.5067593403
  0
LINE
  8
0
 62
7
  6
CONTINUOUS
 10
367.838722524
 20
30.5067593403
 11
367.838722524
 21
31.1197694727
  0
LINE
  8
0
 62
7
  6
CONTINUOUS
 10
368.3012227445
 20
31.3456152777
 11
368.3012227445
 21
31.2810879048
  0
LINE
  8
0
 62
7
  6
CONTINUOUS
 10
368.4342913921
 20
32.3100380288
 11
368.4342913921
 21
34.4411855698
  0
LINE
  8
0
 62
7
  6
CONTINUOUS
 10
368.7621602445
 20
36.0805298321
 11
368.7621602445
 21
32.3100380288
  0
LINE
  8
0
 62
7
  6
CONTINUOUS
 10
363.4449727445
 20
30.8293962497
 11
363.5027853548
 21
30.926187309
  0
LINE
  8
0
 62
7
  6
CONTINUOUS
 10
359.0512227376
 20
30.6358140973
 11
359.2246602583
 21
30.5712867188
  0
LINE
  8
0
 62
7
  6
CONTINUOUS
 10
360.5543476894
 20
31.3456152777
 11
360.3809101894
 21
31.4424063369
  0
LINE
  8
0
 62
7
  6
CONTINUOUS
 10
363.2137226343
 20
30.668077795
 11
363.3871601343
 21
30.5712867188
  0
LINE
  8
0
 62
7
  6
CONTINUOUS
 10
362.2309102445
 20
31.3456152777
 11
362.3465351343
 21
31.2810879048
  0
LINE
  8
0
 62
7
  6
CONTINUOUS
 10
362.5777852445
 20
31.3778789641
 11
362.4621603548
 21
31.4424063369
  0
LINE
  8
0
 62
7
  6
CONTINUOUS
 10
368.3012227445
 20
30.7648688543
 11
368.4168479651
 21
30.6358140973
  0
LINE
  8
0
 62
7
  6
CONTINUOUS
 10
368.6480977445
 20
30.7003414814
 11
368.5902854651
 21
30.7648688543
  0
LINE
  8
0
 62
7
  6
CONTINUOUS
 10
368.3012227445
 20
31.2810879048
 11
368.4168479651
 21
31.1520331591
  0
LINE
  8
0
 62
7
  6
CONTINUOUS
 10
367.7809102445
 20
31.2810879048
 11
367.7230979651
 21
31.3778789641
  0
LINE
  8
0
 62
7
  6
CONTINUOUS
 10
370.1512223035
 20
30.7003414814
 11
370.1512223035
 21
30.7648688543
  0
LINE
  8
0
 62
7
  6
CONTINUOUS
 10
370.1556028675
 20
32.3100380288
 11
370.1556028675
 21
36.0805298321
  0
LINE
  8
0
 62
7
  6
CONTINUOUS
 10
363.2137226343
 20
31.4101426505
 11
363.1559103548
 21
31.3456152777
  0
LINE
  8
0
 62
7
  6
CONTINUOUS
 10
360.091847717
 20
31.3778789641
 11
360.2652852997
 21
31.3133515913
  0
LINE
  8
0
 62
7
  6
CONTINUOUS
 10
364.8324727445
 20
31.3778789641
 11
364.716847524
 21
31.4424063369
  0
LINE
  8
0
 62
7
  6
CONTINUOUS
 10
368.6480977445
 20
31.216560532
 11
368.5902854651
 21
31.2810879048
  0
LINE
  8
0
 62
7
  6
CONTINUOUS
 10
369.8043479651
 20
30.8293962497
 11
369.8621602445
 21
30.7648688543
  0
LINE
  8
0
 62
7
  6
CONTINUOUS
 10
370.1512223035
 20
30.7648688543
 11
370.0355977445
 21
30.8939236226
  0
LINE
  8
0
 62
7
  6
CONTINUOUS
 10
369.8043479651
 20
31.3456152777
 11
369.8621602445
 21
31.2810879048
  0
LINE
  8
0
 62
7
  6
CONTINUOUS
 10
370.1512223035
 20
31.2810879048
 11
370.0355977445
 21
31.4101426505
  0
LINE
  8
0
 62
7
  6
CONTINUOUS
 10
363.4449727445
 20
31.2810879048
 11
363.5027853548
 21
31.3456152777
  0
LINE
  8
0
 62
7
  6
CONTINUOUS
 10
363.2715352445
 20
31.0229783683
 11
363.1559103548
 21
30.8939236226
  0
LINE
  8
0
 62
7
  6
CONTINUOUS
 10
364.6012229651
 20
30.8616599362
 11
364.543410024
 21
30.7971325633
  0
LINE
  8
0
 62
7
  6
CONTINUOUS
 10
364.543410024
 20
30.6035504109
 11
364.6012229651
 21
30.668077795
  0
LINE
  8
0
 62
7
  6
CONTINUOUS
 10
363.3871601343
 20
30.5712867188
 11
363.5027853548
 21
30.5390230296
  0
LINE
  8
0
 62
7
  6
CONTINUOUS
 10
360.3809101894
 20
31.4424063369
 11
360.1496602445
 21
31.5069337098
  0
LINE
  8
0
 62
7
  6
CONTINUOUS
 10
363.7340351343
 20
30.6358140973
 11
363.5027853548
 21
30.7003414814
  0
LINE
  8
0
 62
7
  6
CONTINUOUS
 10
362.4621603548
 20
31.4424063369
 11
362.2887228548
 21
31.5069337098
  0
LINE
  8
0
 62
7
  6
CONTINUOUS
 10
364.716847524
 20
31.4424063369
 11
364.543410024
 21
31.5069337098
  0
LINE
  8
0
 62
7
  6
CONTINUOUS
 10
367.3762229651
 20
31.3456152777
 11
367.491847524
 21
31.2810879048
  0
LINE
  8
0
 62
7
  6
CONTINUOUS
 10
367.7230979651
 20
31.3778789641
 11
367.6074727445
 21
31.4424063369
  0
LINE
  8
0
 62
7
  6
CONTINUOUS
 10
359.2246602583
 20
30.5712867188
 11
359.3980977583
 21
30.5390230296
  0
LINE
  8
0
 62
7
  6
CONTINUOUS
 10
359.6871602721
 20
30.6358140973
 11
359.3402852307
 21
30.7003414814
  0
LINE
  8
0
 62
7
  6
CONTINUOUS
 10
362.1152853548
 20
31.3778789641
 11
362.2309102445
 21
31.3456152777
  0
LINE
  8
0
 62
7
  6
CONTINUOUS
 10
364.4277854651
 20
31.3778789641
 11
364.543410024
 21
31.3456152777
  0
LINE
  8
0
 62
7
  6
CONTINUOUS
 10
368.7637229651
 20
30.668077795
 11
368.6480977445
 21
30.7003414814
  0
LINE
  8
0
 62
7
  6
CONTINUOUS
 10
367.2605977445
 20
31.3778789641
 11
367.3762229651
 21
31.3456152777
  0
LINE
  8
0
 62
7
  6
CONTINUOUS
 10
368.4168479651
 20
30.6358140973
 11
368.5902854651
 21
30.5712867188
  0
LINE
  8
0
 62
7
  6
CONTINUOUS
 10
367.6074727445
 20
31.4424063369
 11
367.4340352445
 21
31.5069337098
  0
LINE
  8
0
 62
7
  6
CONTINUOUS
 10
368.8215352445
 20
31.1520331591
 11
368.6480977445
 21
31.216560532
  0
LINE
  8
0
 62
7
  6
CONTINUOUS
 10
369.6309104651
 20
30.8939236226
 11
369.8043479651
 21
30.8293962497
  0
LINE
  8
0
 62
7
  6
CONTINUOUS
 10
370.0355977445
 20
31.4101426505
 11
369.8621602445
 21
31.4746700234
  0
LINE
  8
0
 62
7
  6
CONTINUOUS
 10
368.4168479651
 20
31.1520331591
 11
368.6480977445
 21
31.0552420547
  0
LINE
  8
0
 62
7
  6
CONTINUOUS
 10
370.0355977445
 20
30.8939236226
 11
369.8043479651
 21
30.9907146818
  0
LINE
  8
0
 62
7
  6
CONTINUOUS
 10
368.5902854651
 20
31.2810879048
 11
368.6480977445
 21
31.3456152777
  0
LINE
  8
0
 62
7
  6
CONTINUOUS
 10
359.0512227376
 20
31.4101426505
 11
358.9355977445
 21
31.3456152777
  0
LINE
  8
0
 62
7
  6
CONTINUOUS
 10
359.1668477307
 20
31.2488242184
 11
359.3402852307
 21
31.3456152777
  0
LINE
  8
0
 62
7
  6
CONTINUOUS
 10
361.4793477997
 20
31.4424063369
 11
361.3637227445
 21
31.3778789641
  0
LINE
  8
0
 62
7
  6
CONTINUOUS
 10
361.3637227445
 20
31.2488242184
 11
361.4793477997
 21
31.3133515913
  0
LINE
  8
0
 62
7
  6
CONTINUOUS
 10
360.3809101894
 20
30.6035504109
 11
360.5543476894
 21
30.7003414814
  0
LINE
  8
0
 62
7
  6
CONTINUOUS
 10
359.3980977583
 20
30.5390230296
 11
359.744972717
 21
30.5067593403
  0
LINE
  8
0
 62
7
  6
CONTINUOUS
 10
363.5027853548
 20
30.5390230296
 11
363.7340351343
 21
30.5067593403
  0
LINE
  8
0
 62
7
  6
CONTINUOUS
 10
361.8840352445
 20
31.4101426505
 11
362.1152853548
 21
31.3778789641
  0
LINE
  8
0
 62
7
  6
CONTINUOUS
 10
364.1965353548
 20
31.4101426505
 11
364.4277854651
 21
31.3778789641
  0
LINE
  8
0
 62
7
  6
CONTINUOUS
 10
368.6480977445
 20
31.0552420547
 11
369.6309104651
 21
30.8939236226
  0
LINE
  8
0
 62
7
  6
CONTINUOUS
 10
369.8043479651
 20
30.9907146818
 11
368.8215352445
 21
31.1520331591
  0
LINE
  8
0
 62
7
  6
CONTINUOUS
 10
362.2887228548
 20
31.5069337098
 11
362.1152853548
 21
31.5391973962
  0
LINE
  8
0
 62
7
  6
CONTINUOUS
 10
368.5902854651
 20
30.5712867188
 11
368.7637229651
 21
30.5390230296
  0
LINE
  8
0
 62
7
  6
CONTINUOUS
 10
367.4340352445
 20
31.5069337098
 11
367.2605977445
 21
31.5391973962
  0
LINE
  8
0
 62
7
  6
CONTINUOUS
 10
369.6887227445
 20
31.3778789641
 11
369.8043479651
 21
31.3456152777
  0
LINE
  8
0
 62
7
  6
CONTINUOUS
 10
369.8621602445
 20
30.7648688543
 11
369.8043479651
 21
30.7003414814
  0
LINE
  8
0
 62
7
  6
CONTINUOUS
 10
368.4168479651
 20
31.4424063369
 11
368.3012227445
 21
31.3456152777
  0
LINE
  8
0
 62
7
  6
CONTINUOUS
 10
363.3293478548
 20
31.4746700234
 11
363.2137226343
 21
31.4101426505
  0
LINE
  8
0
 62
7
  6
CONTINUOUS
 10
363.3871601343
 20
31.0875057863
 11
363.2715352445
 21
31.0229783683
  0
LINE
  8
0
 62
7
  6
CONTINUOUS
 10
363.5027853548
 20
30.926187309
 11
363.6184102445
 21
30.9907146818
  0
LINE
  8
0
 62
7
  6
CONTINUOUS
 10
361.0746601894
 20
30.5067593403
 11
361.3637227445
 21
30.5067593403
  0
LINE
  8
0
 62
7
  6
CONTINUOUS
 10
362.4043477445
 20
30.5067593403
 11
362.6934101343
 21
30.5067593403
  0
LINE
  8
0
 62
7
  6
CONTINUOUS
 10
363.7340351343
 20
30.5067593403
 11
364.0809101343
 21
30.5067593403
  0
LINE
  8
0
 62
7
  6
CONTINUOUS
 10
364.716847524
 20
30.5067593403
 11
365.0059102445
 21
30.5067593403
  0
LINE
  8
0
 62
7
  6
CONTINUOUS
 10
365.4684104651
 20
30.5067593403
 11
365.757472524
 21
30.5067593403
  0
LINE
  8
0
 62
7
  6
CONTINUOUS
 10
366.2199727445
 20
30.5067593403
 11
366.5090354651
 21
30.5067593403
  0
LINE
  8
0
 62
7
  6
CONTINUOUS
 10
367.5496604651
 20
30.5067593403
 11
367.838722524
 21
30.5067593403
  0
LINE
  8
0
 62
7
  6
CONTINUOUS
 10
369.1105979651
 20
30.5067593403
 11
369.4574729651
 21
30.5067593403
  0
LINE
  8
0
 62
7
  6
CONTINUOUS
 10
369.4574729651
 20
30.6358140973
 11
369.1105979651
 21
30.6358140973
  0
LINE
  8
0
 62
7
  6
CONTINUOUS
 10
364.0809101343
 20
30.6358140973
 11
363.7340351343
 21
30.6358140973
  0
LINE
  8
0
 62
7
  6
CONTINUOUS
 10
368.5902854651
 20
30.7648688543
 11
368.3012227445
 21
30.7648688543
  0
LINE
  8
0
 62
7
  6
CONTINUOUS
 10
360.6121602997
 20
30.8293962497
 11
360.3230977445
 21
30.8293962497
  0
LINE
  8
0
 62
7
  6
CONTINUOUS
 10
359.6871602721
 20
31.4101426505
 11
360.091847717
 21
31.3778789641
  0
LINE
  8
0
 62
7
  6
CONTINUOUS
 10
360.1496602445
 20
31.5069337098
 11
359.744972717
 21
31.5391973962
  0
LINE
  8
0
 62
7
  6
CONTINUOUS
 10
368.7637229651
 20
30.5390230296
 11
369.1105979651
 21
30.5067593403
  0
LINE
  8
0
 62
7
  6
CONTINUOUS
 10
369.1105979651
 20
30.6358140973
 11
368.7637229651
 21
30.668077795
  0
LINE
  8
0
 62
7
  6
CONTINUOUS
 10
364.543410024
 20
31.5069337098
 11
364.1965353548
 21
31.5391973962
  0
LINE
  8
0
 62
7
  6
CONTINUOUS
 10
369.3418477445
 20
31.4101426505
 11
369.6887227445
 21
31.3778789641
  0
LINE
  8
0
 62
7
  6
CONTINUOUS
 10
369.6887227445
 20
31.5069337098
 11
369.3418477445
 21
31.5391973962
  0
LINE
  8
0
 62
7
  6
CONTINUOUS
 10
367.0293479651
 20
31.4101426505
 11
367.2605977445
 21
31.3778789641
  0
LINE
  8
0
 62
7
  6
CONTINUOUS
 10
369.8621602445
 20
31.4746700234
 11
369.6887227445
 21
31.5069337098
  0
LINE
  8
0
 62
7
  6
CONTINUOUS
 10
370.0355977445
 20
30.6035504109
 11
370.1512223035
 21
30.7003414814
  0
LINE
  8
0
 62
7
  6
CONTINUOUS
 10
364.543410024
 20
30.7971325633
 11
364.369972524
 21
30.7003414814
  0
LINE
  8
0
 62
7
  6
CONTINUOUS
 10
366.624660024
 20
31.4424063369
 11
366.5090354651
 21
31.3778789641
  0
LINE
  8
0
 62
7
  6
CONTINUOUS
 10
366.5090354651
 20
31.2488242184
 11
366.624660024
 21
31.3133515913
  0
LINE
  8
0
 62
7
  6
CONTINUOUS
 10
359.2246602583
 20
31.4746700234
 11
359.0512227376
 21
31.4101426505
  0
LINE
  8
0
 62
7
  6
CONTINUOUS
 10
361.6527851343
 20
31.5069337098
 11
361.4793477997
 21
31.4424063369
  0
LINE
  8
0
 62
7
  6
CONTINUOUS
 10
361.4793477997
 20
31.3133515913
 11
361.6527851343
 21
31.3778789641
  0
LINE
  8
0
 62
7
  6
CONTINUOUS
 10
360.2652852997
 20
30.7326051679
 11
360.091847717
 21
30.668077795
  0
LINE
  8
0
 62
7
  6
CONTINUOUS
 10
369.6887227445
 20
30.668077795
 11
369.4574729651
 21
30.6358140973
  0
LINE
  8
0
 62
7
  6
CONTINUOUS
 10
364.0809101343
 20
30.5067593403
 11
364.369972524
 21
30.5390230296
  0
LINE
  8
0
 62
7
  6
CONTINUOUS
 10
369.4574729651
 20
30.5067593403
 11
369.8043479651
 21
30.5390230296
  0
LINE
  8
0
 62
7
  6
CONTINUOUS
 10
359.744972717
 20
30.5067593403
 11
360.1496602445
 21
30.5390230296
  0
LINE
  8
0
 62
7
  6
CONTINUOUS
 10
360.091847717
 20
30.668077795
 11
359.6871602721
 21
30.6358140973
  0
LINE
  8
0
 62
7
  6
CONTINUOUS
 10
363.9652852445
 20
31.0552420547
 11
364.6012229651
 21
31.0552420547
  0
LINE
  8
0
 62
7
  6
CONTINUOUS
 10
364.6012229651
 20
31.1842968456
 11
363.9652852445
 21
31.1842968456
  0
LINE
  8
0
 62
7
  6
CONTINUOUS
 10
360.3230977445
 20
31.216560532
 11
360.6121602997
 21
31.216560532
  0
LINE
  8
0
 62
7
  6
CONTINUOUS
 10
363.1559103548
 20
31.2810879048
 11
363.4449727445
 21
31.2810879048
  0
LINE
  8
0
 62
7
  6
CONTINUOUS
 10
369.8621602445
 20
31.2810879048
 11
370.1512223035
 21
31.2810879048
  0
LINE
  8
0
 62
7
  6
CONTINUOUS
 10
363.8496603548
 20
31.4101426505
 11
364.1965353548
 21
31.4101426505
  0
LINE
  8
0
 62
7
  6
CONTINUOUS
 10
368.9949727445
 20
31.4101426505
 11
369.3418477445
 21
31.4101426505
  0
LINE
  8
0
 62
7
  6
CONTINUOUS
 10
369.3418477445
 20
31.5391973962
 11
368.9949727445
 21
31.5391973962
  0
LINE
  8
0
 62
7
  6
CONTINUOUS
 10
367.2605977445
 20
31.5391973962
 11
367.0293479651
 21
31.5391973962
  0
LINE
  8
0
 62
7
  6
CONTINUOUS
 10
366.5090354651
 20
31.5391973962
 11
366.2199727445
 21
31.5391973962
  0
LINE
  8
0
 62
7
  6
CONTINUOUS
 10
365.757472524
 20
31.5391973962
 11
365.4684104651
 21
31.5391973962
  0
LINE
  8
0
 62
7
  6
CONTINUOUS
 10
364.1965353548
 20
31.5391973962
 11
363.8496603548
 21
31.5391973962
  0
LINE
  8
0
 62
7
  6
CONTINUOUS
 10
362.1152853548
 20
31.5391973962
 11
361.8840352445
 21
31.5391973962
  0
LINE
  8
0
 62
7
  6
CONTINUOUS
 10
365.4684104651
 20
31.8618343508
 11
365.757472524
 21
31.8618343508
  0
LINE
  8
0
 62
7
  6
CONTINUOUS
 10
365.757472524
 20
32.0231527829
 11
365.4684104651
 21
32.0231527829
  0
LINE
  8
0
 62
7
  6
CONTINUOUS
 10
361.3637227445
 20
32.0231527829
 11
361.0746601894
 21
32.0231527829
  0
LINE
  8
0
 62
7
  6
CONTINUOUS
 10
360.4015045068
 20
32.3100380288
 11
360.8140758554
 21
32.3100380288
  0
LINE
  8
0
 62
7
  6
CONTINUOUS
 10
362.0408487691
 20
32.3100380288
 11
363.4342913921
 21
32.3100380288
  0
LINE
  8
0
 62
7
  6
CONTINUOUS
 10
363.7621602445
 20
32.3100380288
 11
365.1556028675
 21
32.3100380288
  0
LINE
  8
0
 62
7
  6
CONTINUOUS
 10
367.0408487691
 20
32.3100380288
 11
368.4342913921
 21
32.3100380288
  0
LINE
  8
0
 62
7
  6
CONTINUOUS
 10
368.7621602445
 20
32.3100380288
 11
370.1556028675
 21
32.3100380288
  0
LINE
  8
0
 62
7
  6
CONTINUOUS
 10
366.798097524
 20
31.5069337098
 11
366.624660024
 21
31.4424063369
  0
LINE
  8
0
 62
7
  6
CONTINUOUS
 10
364.369972524
 20
30.5390230296
 11
364.543410024
 21
30.6035504109
  0
LINE
  8
0
 62
7
  6
CONTINUOUS
 10
369.8043479651
 20
30.5390230296
 11
370.0355977445
 21
30.6035504109
  0
LINE
  8
0
 62
7
  6
CONTINUOUS
 10
369.8043479651
 20
30.7003414814
 11
369.6887227445
 21
30.668077795
  0
LINE
  8
0
 62
7
  6
CONTINUOUS
 10
368.7637229651
 20
31.3778789641
 11
368.9949727445
 21
31.4101426505
  0
LINE
  8
0
 62
7
  6
CONTINUOUS
 10
366.798097524
 20
31.3778789641
 11
367.0293479651
 21
31.4101426505
  0
LINE
  8
0
 62
7
  6
CONTINUOUS
 10
363.7340351343
 20
31.0229783683
 11
363.9652852445
 21
31.0552420547
  0
LINE
  8
0
 62
7
  6
CONTINUOUS
 10
367.0293479651
 20
31.5391973962
 11
366.798097524
 21
31.5069337098
  0
LINE
  8
0
 62
7
  6
CONTINUOUS
 10
363.6184102445
 20
31.3778789641
 11
363.8496603548
 21
31.4101426505
  0
LINE
  8
0
 62
7
  6
CONTINUOUS
 10
368.9949727445
 20
31.5391973962
 11
368.6480977445
 21
31.5069337098
  0
LINE
  8
0
 62
7
  6
CONTINUOUS
 10
363.9652852445
 20
31.1842968456
 11
363.6184102445
 21
31.1520331591
  0
LINE
  8
0
 62
7
  6
CONTINUOUS
 10
359.744972717
 20
31.5391973962
 11
359.3980977583
 21
31.5069337098
  0
LINE
  8
0
 62
7
  6
CONTINUOUS
 10
363.8496603548
 20
31.5391973962
 11
363.4449727445
 21
31.5069337098
  0
LINE
  8
0
 62
7
  6
CONTINUOUS
 10
361.221176638
 20
33.4575790124
 11
360.565438933
 21
33.4575790124
  0
LINE
  8
0
 62
7
  6
CONTINUOUS
 10
366.624660024
 20
31.3133515913
 11
366.798097524
 21
31.3778789641
  0
LINE
  8
0
 62
7
  6
CONTINUOUS
 10
368.6480977445
 20
31.3456152777
 11
368.7637229651
 21
31.3778789641
  0
LINE
  8
0
 62
7
  6
CONTINUOUS
 10
368.6480977445
 20
31.5069337098
 11
368.4168479651
 21
31.4424063369
  0
LINE
  8
0
 62
7
  6
CONTINUOUS
 10
364.369972524
 20
30.7003414814
 11
364.0809101343
 21
30.6358140973
  0
LINE
  8
0
 62
7
  6
CONTINUOUS
 10
361.6527851343
 20
31.3778789641
 11
361.8840352445
 21
31.4101426505
  0
LINE
  8
0
 62
7
  6
CONTINUOUS
 10
361.8840352445
 20
31.5391973962
 11
361.6527851343
 21
31.5069337098
  0
LINE
  8
0
 62
7
  6
CONTINUOUS
 10
359.4559102445
 20
31.3778789641
 11
359.6871602721
 21
31.4101426505
  0
LINE
  8
0
 62
7
  6
CONTINUOUS
 10
365.9752749986
 20
34.9329888485
 11
366.6310127035
 21
34.9329888485
  0
LINE
  8
0
 62
7
  6
CONTINUOUS
 10
363.6184102445
 20
30.9907146818
 11
363.7340351343
 21
31.0229783683
  0
LINE
  8
0
 62
7
  6
CONTINUOUS
 10
363.6184102445
 20
31.1520331591
 11
363.3871601343
 21
31.0875057863
  0
LINE
  8
0
 62
7
  6
CONTINUOUS
 10
363.5027853548
 20
31.3456152777
 11
363.6184102445
 21
31.3778789641
  0
LINE
  8
0
 62
7
  6
CONTINUOUS
 10
360.1496602445
 20
30.5390230296
 11
360.3809101894
 21
30.6035504109
  0
LINE
  8
0
 62
7
  6
CONTINUOUS
 10
363.4449727445
 20
31.5069337098
 11
363.3293478548
 21
31.4746700234
  0
LINE
  8
0
 62
7
  6
CONTINUOUS
 10
359.3980977583
 20
31.5069337098
 11
359.2246602583
 21
31.4746700234
  0
LINE
  8
0
 62
7
  6
CONTINUOUS
 10
370.1556028675
 20
36.0805298321
 11
368.7621602445
 21
36.0805298321
  0
LINE
  8
0
 62
7
  6
CONTINUOUS
 10
366.7949471298
 20
36.0805298321
 11
366.3823757812
 21
36.0805298321
  0
LINE
  8
0
 62
7
  6
CONTINUOUS
 10
365.1556028675
 20
36.0805298321
 11
363.7621602445
 21
36.0805298321
  0
LINE
  8
0
 62
7
  6
CONTINUOUS
 10
363.4342913921
 20
36.0805298321
 11
362.0408487691
 21
36.0805298321
  0
LINE
  8
0
 62
7
  6
CONTINUOUS
 10
360.1556028675
 20
36.0805298321
 11
358.7621602445
 21
36.0805298321
  0
LINE
  8
0
 62
7
  6
CONTINUOUS
 10
359.3402852307
 20
31.3456152777
 11
359.4559102445
 21
31.3778789641
  0
CIRCLE
  8
0
 62
7
  6
CONTINUOUS
 10
369.458881556
 20
38.4165954059
 40
2.0901639344
  0
ARC
  8
0
 62
7
  6
CONTINUOUS
 10
360.4015045068
 20
33.9493822911
 40
1.6393442623
 50
180.0
 51
270.0
  0
ARC
  8
0
 62
7
  6
CONTINUOUS
 10
366.7949471298
 20
34.4411855698
 40
1.6393442623
 50
0.0
 51
90.0
  0
ARC
  8
0
 62
7
  6
CONTINUOUS
 10
360.8140758554
 20
33.7854478649
 40
1.4754098361
 50
270.0
 51
326.2510114041
  0
ARC
  8
0
 62
7
  6
CONTINUOUS
 10
366.3823757812
 20
34.6051199961
 40
1.4754098361
 50
90.0
 51
146.2510114041
  0
ARC
  8
0
 62
7
  6
CONTINUOUS
 10
361.221176638
 20
34.2772511436
 40
0.8196721311
 50
270.0
 51
360.0
  0
ARC
  8
0
 62
7
  6
CONTINUOUS
 10
365.9752749986
 20
34.1133167174
 40
0.8196721311
 50
90.0
 51
180.0
  0
ARC
  8
0
 62
7
  6
CONTINUOUS
 10
360.565438933
 20
33.867415078
 40
0.4098360656
 50
180.0
 51
270.0
  0
ARC
  8
0
 62
7
  6
CONTINUOUS
 10
366.6310127035
 20
34.5231527829
 40
0.4098360656
 50
0.0
 51
90.0
  0
SOLID
  8
0
 62
7
  6
CONTINUOUS
 10
365.4684104651
 20
31.8618347111
 11
365.4684104651
 21
32.0231531947
 12
365.757472524
 22
31.8618347111
 13
365.757472524
 23
32.0231531947
  0
SOLID
  8
0
 62
7
  6
CONTINUOUS
 10
359.744972717
 20
31.5391977439
 11
360.1496602445
 21
31.5069333244
 12
359.3980977583
 22
31.5069333244
 13
359.3980977583
 23
31.5069333244
  0
SOLID
  8
0
 62
7
  6
CONTINUOUS
 10
359.2246602583
 20
31.4746706537
 11
359.3980977583
 21
31.5069333244
 12
360.1496602445
 22
31.5069333244
 13
360.1496602445
 23
31.5069333244
  0
SOLID
  8
0
 62
7
  6
CONTINUOUS
 10
360.1496602445
 20
31.5069333244
 11
360.3809101894
 21
31.4424063504
 12
359.2246602583
 22
31.4746706537
 13
359.2246602583
 23
31.4746706537
  0
SOLID
  8
0
 62
7
  6
CONTINUOUS
 10
359.0512227376
 20
31.4101419116
 11
359.2246602583
 21
31.4746706537
 12
360.3809101894
 22
31.4424063504
 13
360.3809101894
 23
31.4424063504
  0
SOLID
  8
0
 62
7
  6
CONTINUOUS
 10
359.0512227376
 20
31.4101419116
 11
360.3809101894
 21
31.4424063504
 12
359.6871602721
 22
31.4101419116
 13
359.6871602721
 23
31.4101419116
  0
SOLID
  8
0
 62
7
  6
CONTINUOUS
 10
359.6871602721
 20
31.4101419116
 11
360.3809101894
 21
31.4424063504
 12
360.091847717
 22
31.3778792603
 13
360.091847717
 23
31.3778792603
  0
SOLID
  8
0
 62
7
  6
CONTINUOUS
 10
360.3809101894
 20
31.4424063504
 11
360.5543476894
 21
31.345614957
 12
360.091847717
 22
31.3778792603
 13
360.091847717
 23
31.3778792603
  0
SOLID
  8
0
 62
7
  6
CONTINUOUS
 10
360.2652852997
 20
31.3133521701
 11
360.091847717
 21
31.3778792603
 12
360.5543476894
 22
31.345614957
 13
360.5543476894
 23
31.345614957
  0
SOLID
  8
0
 62
7
  6
CONTINUOUS
 10
360.2652852997
 20
31.3133521701
 11
360.5543476894
 21
31.345614957
 12
360.3230977445
 22
31.2165606992
 13
360.3230977445
 23
31.2165606992
  0
SOLID
  8
0
 62
7
  6
CONTINUOUS
 10
360.5543476894
 20
31.345614957
 11
360.6121602997
 21
31.2165606992
 12
360.3230977445
 22
31.2165606992
 13
360.3230977445
 23
31.2165606992
  0
SOLID
  8
0
 62
7
  6
CONTINUOUS
 10
361.6527851343
 20
31.5069329918
 11
361.8840352445
 21
31.5391972951
 12
362.1152853548
 22
31.5391972951
 13
362.1152853548
 23
31.5391972951
  0
SOLID
  8
0
 62
7
  6
CONTINUOUS
 10
362.1152853548
 20
31.5391972951
 11
362.2887228548
 21
31.5069329918
 12
361.6527851343
 22
31.5069329918
 13
361.6527851343
 23
31.5069329918
  0
SOLID
  8
0
 62
7
  6
CONTINUOUS
 10
361.4793477997
 20
31.4424059016
 11
361.6527851343
 21
31.5069329918
 12
362.2887228548
 22
31.5069329918
 13
362.2887228548
 23
31.5069329918
  0
SOLID
  8
0
 62
7
  6
CONTINUOUS
 10
362.2887228548
 20
31.5069329918
 11
362.4621603548
 21
31.4424059016
 12
361.4793477997
 22
31.4424059016
 13
361.4793477997
 23
31.4424059016
  0
SOLID
  8
0
 62
7
  6
CONTINUOUS
 10
362.4621603548
 20
31.4424059016
 11
361.8840352445
 21
31.4101420472
 12
361.4793477997
 22
31.4424059016
 13
361.4793477997
 23
31.4424059016
  0
SOLID
  8
0
 62
7
  6
CONTINUOUS
 10
361.3637227445
 20
31.3778788115
 11
361.4793477997
 21
31.4424059016
 12
361.8840352445
 22
31.4101420472
 13
361.8840352445
 23
31.4101420472
  0
SOLID
  8
0
 62
7
  6
CONTINUOUS
 10
361.8840352445
 20
31.4101420472
 11
361.6527851343
 21
31.3778788115
 12
361.3637227445
 22
31.3778788115
 13
361.3637227445
 23
31.3778788115
  0
SOLID
  8
0
 62
7
  6
CONTINUOUS
 10
361.8840352445
 20
31.4101420472
 11
362.4621603548
 21
31.4424059016
 12
362.1152853548
 22
31.3778788115
 13
362.1152853548
 23
31.3778788115
  0
SOLID
  8
0
 62
7
  6
CONTINUOUS
 10
362.4621603548
 20
31.4424059016
 11
362.5777852445
 21
31.3778788115
 12
362.1152853548
 22
31.3778788115
 13
362.1152853548
 23
31.3778788115
  0
SOLID
  8
0
 62
7
  6
CONTINUOUS
 10
362.2309102445
 20
31.345614957
 11
362.1152853548
 21
31.3778788115
 12
362.5777852445
 22
31.3778788115
 13
362.5777852445
 23
31.3778788115
  0
SOLID
  8
0
 62
7
  6
CONTINUOUS
 10
362.5777852445
 20
31.3778788115
 11
362.6355978548
 21
31.3133517213
 12
362.2309102445
 22
31.345614957
 13
362.2309102445
 23
31.345614957
  0
SOLID
  8
0
 62
7
  6
CONTINUOUS
 10
362.3465351343
 20
31.2810878668
 11
362.2309102445
 21
31.345614957
 12
362.6355978548
 22
31.3133517213
 13
362.6355978548
 23
31.3133517213
  0
SOLID
  8
0
 62
7
  6
CONTINUOUS
 10
362.3465351343
 20
31.2810878668
 11
362.6355978548
 21
31.3133517213
 12
362.4043477445
 22
31.1520332377
 13
362.4043477445
 23
31.1520332377
  0
SOLID
  8
0
 62
7
  6
CONTINUOUS
 10
362.6355978548
 20
31.3133517213
 11
362.6934101343
 21
31.1520332377
 12
362.4043477445
 22
31.1520332377
 13
362.4043477445
 23
31.1520332377
  0
SOLID
  8
0
 62
7
  6
CONTINUOUS
 10
361.6527851343
 20
31.3778788115
 11
361.4793477997
 21
31.3133517213
 12
361.3637227445
 22
31.3778788115
 13
361.3637227445
 23
31.3778788115
  0
SOLID
  8
0
 62
7
  6
CONTINUOUS
 10
361.4793477997
 20
31.3133517213
 11
361.3637227445
 21
31.2488235635
 12
361.3637227445
 22
31.3778788115
 13
361.3637227445
 23
31.3778788115
  0
SOLID
  8
0
 62
7
  6
CONTINUOUS
 10
361.3637227445
 20
31.2488235635
 11
361.0746601894
 21
30.5067593033
 12
361.3637227445
 22
31.3778788115
 13
361.3637227445
 23
31.3778788115
  0
SOLID
  8
0
 62
7
  6
CONTINUOUS
 10
361.3637227445
 20
31.3778788115
 11
361.0746601894
 21
30.5067593033
 12
361.3637227445
 22
32.0231527459
 13
361.3637227445
 23
32.0231527459
  0
SOLID
  8
0
 62
7
  6
CONTINUOUS
 10
361.0746601894
 20
30.5067593033
 11
361.0746601894
 21
32.0231527459
 12
361.3637227445
 22
32.0231527459
 13
361.3637227445
 23
32.0231527459
  0
SOLID
  8
0
 62
7
  6
CONTINUOUS
 10
361.3637227445
 20
31.2488235635
 11
361.3637227445
 21
30.5067593033
 12
361.0746601894
 22
30.5067593033
 13
361.0746601894
 23
30.5067593033
  0
SOLID
  8
0
 62
7
  6
CONTINUOUS
 10
362.4043477445
 20
30.5067593033
 11
362.4043477445
 21
31.1520332377
 12
362.6934101343
 22
31.1520332377
 13
362.6934101343
 23
31.1520332377
  0
SOLID
  8
0
 62
7
  6
CONTINUOUS
 10
362.6934101343
 20
31.1520332377
 11
362.6934101343
 21
30.5067593033
 12
362.4043477445
 22
30.5067593033
 13
362.4043477445
 23
30.5067593033
  0
SOLID
  8
0
 62
7
  6
CONTINUOUS
 10
363.4449727445
 20
31.506933758
 11
363.8496603548
 21
31.5391977507
 12
364.1965353548
 22
31.5391977507
 13
364.1965353548
 23
31.5391977507
  0
SOLID
  8
0
 62
7
  6
CONTINUOUS
 10
364.1965353548
 20
31.5391977507
 11
364.543410024
 21
31.506933758
 12
363.4449727445
 22
31.506933758
 13
363.4449727445
 23
31.506933758
  0
SOLID
  8
0
 62
7
  6
CONTINUOUS
 10
363.3293478548
 20
31.4746706537
 11
363.4449727445
 21
31.506933758
 12
364.543410024
 22
31.506933758
 13
364.543410024
 23
31.506933758
  0
SOLID
  8
0
 62
7
  6
CONTINUOUS
 10
364.543410024
 20
31.506933758
 11
364.716847524
 21
31.4424063504
 12
363.3293478548
 22
31.4746706537
 13
363.3293478548
 23
31.4746706537
  0
SOLID
  8
0
 62
7
  6
CONTINUOUS
 10
363.2137226343
 20
31.4101417797
 11
363.3293478548
 21
31.4746706537
 12
364.716847524
 22
31.4424063504
 13
364.716847524
 23
31.4424063504
  0
SOLID
  8
0
 62
7
  6
CONTINUOUS
 10
363.2137226343
 20
31.4101417797
 11
364.716847524
 21
31.4424063504
 12
363.8496603548
 22
31.4101417797
 13
363.8496603548
 23
31.4101417797
  0
SOLID
  8
0
 62
7
  6
CONTINUOUS
 10
363.8496603548
 20
31.4101417797
 11
364.716847524
 21
31.4424063504
 12
364.1965353548
 22
31.4101417797
 13
364.1965353548
 23
31.4101417797
  0
SOLID
  8
0
 62
7
  6
CONTINUOUS
 10
364.1965353548
 20
31.4101417797
 11
364.716847524
 21
31.4424063504
 12
364.4277854651
 22
31.3778793357
 13
364.4277854651
 23
31.3778793357
  0
SOLID
  8
0
 62
7
  6
CONTINUOUS
 10
364.716847524
 20
31.4424063504
 11
364.8324727445
 21
31.3778793357
 12
364.4277854651
 22
31.3778793357
 13
364.4277854651
 23
31.3778793357
  0
SOLID
  8
0
 62
7
  6
CONTINUOUS
 10
363.1559103548
 20
31.3456153429
 11
363.2137226343
 21
31.4101417797
 12
363.8496603548
 22
31.4101417797
 13
363.8496603548
 23
31.4101417797
  0
SOLID
  8
0
 62
7
  6
CONTINUOUS
 10
364.543410024
 20
31.3456153429
 11
364.4277854651
 21
31.3778793357
 12
364.8324727445
 22
31.3778793357
 13
364.8324727445
 23
31.3778793357
  0
SOLID
  8
0
 62
7
  6
CONTINUOUS
 10
364.543410024
 20
31.3456153429
 11
364.8324727445
 21
31.3778793357
 12
364.6012229651
 22
31.2810881318
 13
364.6012229651
 23
31.2810881318
  0
SOLID
  8
0
 62
7
  6
CONTINUOUS
 10
364.8324727445
 20
31.3778793357
 11
364.890285024
 21
31.2810881318
 12
364.6012229651
 22
31.2810881318
 13
364.6012229651
 23
31.2810881318
  0
SOLID
  8
0
 62
7
  6
CONTINUOUS
 10
364.6012229651
 20
31.1842964734
 11
364.6012229651
 21
31.2810881318
 12
364.890285024
 22
31.2810881318
 13
364.890285024
 23
31.2810881318
  0
SOLID
  8
0
 62
7
  6
CONTINUOUS
 10
364.6012229651
 20
31.1842964734
 11
364.890285024
 21
31.2810881318
 12
364.6012229651
 22
31.0552422931
 13
364.6012229651
 23
31.0552422931
  0
SOLID
  8
0
 62
7
  6
CONTINUOUS
 10
364.6012229651
 20
31.0552422931
 11
364.890285024
 21
31.2810881318
 12
364.6012229651
 22
30.8616599362
 13
364.6012229651
 23
30.8616599362
  0
SOLID
  8
0
 62
7
  6
CONTINUOUS
 10
364.890285024
 20
31.2810881318
 11
364.890285024
 21
30.7648681127
 12
364.6012229651
 22
30.8616599362
 13
364.6012229651
 23
30.8616599362
  0
SOLID
  8
0
 62
7
  6
CONTINUOUS
 10
366.798097524
 20
31.5069339419
 11
367.0293479651
 21
31.5391976292
 12
367.2605977445
 22
31.5391976292
 13
367.2605977445
 23
31.5391976292
  0
SOLID
  8
0
 62
7
  6
CONTINUOUS
 10
367.2605977445
 20
31.5391976292
 11
367.4340352445
 21
31.5069339419
 12
366.798097524
 22
31.5069339419
 13
366.798097524
 23
31.5069339419
  0
SOLID
  8
0
 62
7
  6
CONTINUOUS
 10
366.624660024
 20
31.4424065674
 11
366.798097524
 21
31.5069339419
 12
367.4340352445
 22
31.5069339419
 13
367.4340352445
 23
31.5069339419
  0
SOLID
  8
0
 62
7
  6
CONTINUOUS
 10
367.4340352445
 20
31.5069339419
 11
367.6074727445
 21
31.4424065674
 12
366.624660024
 22
31.4424065674
 13
366.624660024
 23
31.4424065674
  0
SOLID
  8
0
 62
7
  6
CONTINUOUS
 10
367.6074727445
 20
31.4424065674
 11
367.0293479651
 21
31.4101420472
 12
366.624660024
 22
31.4424065674
 13
366.624660024
 23
31.4424065674
  0
SOLID
  8
0
 62
7
  6
CONTINUOUS
 10
366.5090354651
 20
31.377879193
 11
366.624660024
 21
31.4424065674
 12
367.0293479651
 22
31.4101420472
 13
367.0293479651
 23
31.4101420472
  0
SOLID
  8
0
 62
7
  6
CONTINUOUS
 10
367.0293479651
 20
31.4101420472
 11
366.798097524
 21
31.377879193
 12
366.5090354651
 22
31.377879193
 13
366.5090354651
 23
31.377879193
  0
SOLID
  8
0
 62
7
  6
CONTINUOUS
 10
367.0293479651
 20
31.4101420472
 11
367.6074727445
 21
31.4424065674
 12
367.2605977445
 22
31.377879193
 13
367.2605977445
 23
31.377879193
  0
SOLID
  8
0
 62
7
  6
CONTINUOUS
 10
367.6074727445
 20
31.4424065674
 11
367.7230979651
 21
31.377879193
 12
367.2605977445
 22
31.377879193
 13
367.2605977445
 23
31.377879193
  0
SOLID
  8
0
 62
7
  6
CONTINUOUS
 10
367.3762229651
 20
31.345614957
 11
367.2605977445
 21
31.377879193
 12
367.7230979651
 22
31.377879193
 13
367.7230979651
 23
31.377879193
  0
SOLID
  8
0
 62
7
  6
CONTINUOUS
 10
367.3762229651
 20
31.345614957
 11
367.7230979651
 21
31.377879193
 12
367.491847524
 22
31.2810881312
 13
367.491847524
 23
31.2810881312
  0
SOLID
  8
0
 62
7
  6
CONTINUOUS
 10
367.7230979651
 20
31.377879193
 11
367.7809102445
 21
31.2810881312
 12
367.491847524
 22
31.2810881312
 13
367.491847524
 23
31.2810881312
  0
SOLID
  8
0
 62
7
  6
CONTINUOUS
 10
367.5496604651
 20
31.119769695
 11
367.491847524
 21
31.2810881312
 12
367.7809102445
 22
31.2810881312
 13
367.7809102445
 23
31.2810881312
  0
SOLID
  8
0
 62
7
  6
CONTINUOUS
 10
367.7809102445
 20
31.2810881312
 11
367.838722524
 21
31.119769695
 12
367.5496604651
 22
31.119769695
 13
367.5496604651
 23
31.119769695
  0
SOLID
  8
0
 62
7
  6
CONTINUOUS
 10
366.798097524
 20
31.377879193
 11
366.624660024
 21
31.3133521701
 12
366.5090354651
 22
31.377879193
 13
366.5090354651
 23
31.377879193
  0
SOLID
  8
0
 62
7
  6
CONTINUOUS
 10
366.624660024
 20
31.3133521701
 11
366.5090354651
 21
31.2488235635
 12
366.5090354651
 22
31.377879193
 13
366.5090354651
 23
31.377879193
  0
SOLID
  8
0
 62
7
  6
CONTINUOUS
 10
366.5090354651
 20
31.2488235635
 11
366.2199727445
 21
30.5067596374
 12
366.5090354651
 22
31.377879193
 13
366.5090354651
 23
31.377879193
  0
SOLID
  8
0
 62
7
  6
CONTINUOUS
 10
366.5090354651
 20
31.377879193
 11
366.2199727445
 21
30.5067596374
 12
366.5090354651
 22
31.5391976292
 13
366.5090354651
 23
31.5391976292
  0
SOLID
  8
0
 62
7
  6
CONTINUOUS
 10
366.2199727445
 20
30.5067596374
 11
366.2199727445
 21
31.5391976292
 12
366.5090354651
 22
31.5391976292
 13
366.5090354651
 23
31.5391976292
  0
SOLID
  8
0
 62
7
  6
CONTINUOUS
 10
366.5090354651
 20
31.2488235635
 11
366.5090354651
 21
30.5067596374
 12
366.2199727445
 22
30.5067596374
 13
366.2199727445
 23
30.5067596374
  0
SOLID
  8
0
 62
7
  6
CONTINUOUS
 10
367.5496604651
 20
30.5067596374
 11
367.5496604651
 21
31.119769695
 12
367.838722524
 22
31.119769695
 13
367.838722524
 23
31.119769695
  0
SOLID
  8
0
 62
7
  6
CONTINUOUS
 10
367.838722524
 20
31.119769695
 11
367.838722524
 21
30.5067596374
 12
367.5496604651
 22
30.5067596374
 13
367.5496604651
 23
30.5067596374
  0
SOLID
  8
0
 62
7
  6
CONTINUOUS
 10
368.6480977445
 20
31.5069334157
 11
368.9949727445
 21
31.539197762
 12
369.3418477445
 22
31.539197762
 13
369.3418477445
 23
31.539197762
  0
SOLID
  8
0
 62
7
  6
CONTINUOUS
 10
369.3418477445
 20
31.539197762
 11
369.6887227445
 21
31.5069334157
 12
368.6480977445
 22
31.5069334157
 13
368.6480977445
 23
31.5069334157
  0
SOLID
  8
0
 62
7
  6
CONTINUOUS
 10
368.4168479651
 20
31.4424063504
 11
368.6480977445
 21
31.5069334157
 12
369.6887227445
 22
31.5069334157
 13
369.6887227445
 23
31.5069334157
  0
SOLID
  8
0
 62
7
  6
CONTINUOUS
 10
368.4168479651
 20
31.4424063504
 11
369.6887227445
 21
31.5069334406
 12
369.8621602445
 22
31.4746706537
 13
369.8621602445
 23
31.4746706537
  0
SOLID
  8
0
 62
7
  6
CONTINUOUS
 10
368.4168479651
 20
31.4424063504
 11
369.8621602445
 21
31.4746706537
 12
368.9949727445
 22
31.4101421267
 13
368.9949727445
 23
31.4101421267
  0
SOLID
  8
0
 62
7
  6
CONTINUOUS
 10
368.9949727445
 20
31.4101421267
 11
369.8621602445
 21
31.4746706537
 12
369.3418477445
 22
31.4101421267
 13
369.3418477445
 23
31.4101421267
  0
SOLID
  8
0
 62
7
  6
CONTINUOUS
 10
369.8621602445
 20
31.4746706537
 11
370.0355977445
 21
31.4101421267
 12
369.3418477445
 22
31.4101421267
 13
369.3418477445
 23
31.4101421267
  0
SOLID
  8
0
 62
7
  6
CONTINUOUS
 10
369.6887227445
 20
31.3778792603
 11
369.3418477445
 21
31.4101421267
 12
370.0355977445
 22
31.4101421267
 13
370.0355977445
 23
31.4101421267
  0
SOLID
  8
0
 62
7
  6
CONTINUOUS
 10
368.3012227445
 20
31.3456148845
 11
368.4168479651
 21
31.4424063504
 12
368.9949727445
 22
31.4101421267
 13
368.9949727445
 23
31.4101421267
  0
SOLID
  8
0
 62
7
  6
CONTINUOUS
 10
369.6887227445
 20
31.3778792603
 11
370.0355977445
 21
31.4101421267
 12
369.8043479651
 22
31.3456148845
 13
369.8043479651
 23
31.3456148845
  0
SOLID
  8
0
 62
7
  6
CONTINUOUS
 10
369.8043479651
 20
31.3456148845
 11
370.0355977445
 21
31.4101421267
 12
369.8621602445
 22
31.281087868
 13
369.8621602445
 23
31.281087868
  0
SOLID
  8
0
 62
7
  6
CONTINUOUS
 10
370.0355977445
 20
31.4101421267
 11
370.1512223035
 21
31.281087868
 12
369.8621602445
 22
31.281087868
 13
369.8621602445
 23
31.281087868
  0
SOLID
  8
0
 62
7
  6
CONTINUOUS
 10
359.4559102445
 20
31.3778792603
 11
358.9355977445
 21
31.3456148963
 12
359.6871602721
 22
31.4101421155
 13
359.6871602721
 23
31.4101421155
  0
SOLID
  8
0
 62
7
  6
CONTINUOUS
 10
358.9355977445
 20
31.3456148963
 11
359.0512227376
 21
31.4101421155
 12
359.6871602721
 22
31.4101421155
 13
359.6871602721
 23
31.4101421155
  0
SOLID
  8
0
 62
7
  6
CONTINUOUS
 10
359.4559102445
 20
31.3778792603
 11
359.3402852307
 21
31.3456148963
 12
358.9355977445
 22
31.3456148963
 13
358.9355977445
 23
31.3456148963
  0
SOLID
  8
0
 62
7
  6
CONTINUOUS
 10
358.8199727462
 20
31.2165607767
 11
358.9355977445
 21
31.3456148963
 12
359.3402852307
 22
31.3456148963
 13
359.3402852307
 23
31.3456148963
  0
SOLID
  8
0
 62
7
  6
CONTINUOUS
 10
363.1559103548
 20
31.3456149608
 11
363.8496603548
 21
31.4101420472
 12
363.6184102445
 22
31.3778792603
 13
363.6184102445
 23
31.3778792603
  0
SOLID
  8
0
 62
7
  6
CONTINUOUS
 10
363.6184102445
 20
31.3778792603
 11
363.5027853548
 21
31.3456149608
 12
363.1559103548
 22
31.3456149608
 13
363.1559103548
 23
31.3456149608
  0
SOLID
  8
0
 62
7
  6
CONTINUOUS
 10
363.1559103548
 20
31.2810878707
 11
363.1559103548
 21
31.3456149608
 12
363.5027853548
 22
31.3456149608
 13
363.5027853548
 23
31.3456149608
  0
SOLID
  8
0
 62
7
  6
CONTINUOUS
 10
363.5027853548
 20
31.3456149608
 11
363.4449727445
 21
31.2810878707
 12
363.1559103548
 22
31.2810878707
 13
363.1559103548
 23
31.2810878707
  0
SOLID
  8
0
 62
7
  6
CONTINUOUS
 10
368.3012227445
 20
31.3456149608
 11
368.9949727445
 21
31.4101420472
 12
368.7637229651
 22
31.3778792603
 13
368.7637229651
 23
31.3778792603
  0
SOLID
  8
0
 62
7
  6
CONTINUOUS
 10
368.7637229651
 20
31.3778792603
 11
368.6480977445
 21
31.3456149608
 12
368.3012227445
 22
31.3456149608
 13
368.3012227445
 23
31.3456149608
  0
SOLID
  8
0
 62
7
  6
CONTINUOUS
 10
368.3012227445
 20
31.2810878707
 11
368.3012227445
 21
31.3456149608
 12
368.6480977445
 22
31.3456149608
 13
368.6480977445
 23
31.3456149608
  0
SOLID
  8
0
 62
7
  6
CONTINUOUS
 10
368.6480977445
 20
31.3456149608
 11
368.5902854651
 21
31.2810878707
 12
368.3012227445
 22
31.2810878707
 13
368.3012227445
 23
31.2810878707
  0
SOLID
  8
0
 62
7
  6
CONTINUOUS
 10
368.4168479651
 20
31.1520336865
 11
368.3012227445
 21
31.2810878707
 12
368.5902854651
 22
31.2810878707
 13
368.5902854651
 23
31.2810878707
  0
SOLID
  8
0
 62
7
  6
CONTINUOUS
 10
358.8199727462
 20
31.2165607767
 11
359.3402852307
 21
31.345614957
 12
359.1668477307
 22
31.2488235635
 13
359.1668477307
 23
31.2488235635
  0
SOLID
  8
0
 62
7
  6
CONTINUOUS
 10
359.1668477307
 20
31.2488235635
 11
359.1090352445
 21
31.1842964734
 12
358.8199727462
 22
31.2165607767
 13
358.8199727462
 23
31.2165607767
  0
SOLID
  8
0
 62
7
  6
CONTINUOUS
 10
358.7621602445
 20
31.0229779898
 11
358.8199727462
 21
31.2165607767
 12
359.1090352445
 22
31.1842964734
 13
359.1090352445
 23
31.1842964734
  0
SOLID
  8
0
 62
7
  6
CONTINUOUS
 10
363.6184102445
 20
31.1520336865
 11
363.9652852445
 21
31.1842964611
 12
364.6012229651
 22
31.1842964611
 13
364.6012229651
 23
31.1842964611
  0
SOLID
  8
0
 62
7
  6
CONTINUOUS
 10
363.6184102445
 20
31.1520336865
 11
364.6012229651
 21
31.1842964611
 12
363.3871601343
 22
31.0875057863
 13
363.3871601343
 23
31.0875057863
  0
SOLID
  8
0
 62
7
  6
CONTINUOUS
 10
363.3871601343
 20
31.0875057863
 11
364.6012229651
 21
31.1842964611
 12
363.9652852445
 22
31.0552422808
 13
363.9652852445
 23
31.0552422808
  0
SOLID
  8
0
 62
7
  6
CONTINUOUS
 10
364.6012229651
 20
31.1842964611
 11
364.6012229651
 21
31.0552422808
 12
363.9652852445
 22
31.0552422808
 13
363.9652852445
 23
31.0552422808
  0
SOLID
  8
0
 62
7
  6
CONTINUOUS
 10
368.4168479651
 20
31.1520338754
 11
368.5902854651
 21
31.2810878668
 12
368.6480977445
 22
31.2165607767
 13
368.6480977445
 23
31.2165607767
  0
SOLID
  8
0
 62
7
  6
CONTINUOUS
 10
368.6480977445
 20
31.2165607767
 11
368.8215352445
 21
31.1520338754
 12
368.4168479651
 22
31.1520338754
 13
368.4168479651
 23
31.1520338754
  0
SOLID
  8
0
 62
7
  6
CONTINUOUS
 10
368.6480977445
 20
31.0552422931
 11
368.4168479651
 21
31.1520338754
 12
368.8215352445
 22
31.1520338754
 13
368.8215352445
 23
31.1520338754
  0
SOLID
  8
0
 62
7
  6
CONTINUOUS
 10
368.8215352445
 20
31.1520338754
 11
369.8043479651
 21
30.9907152029
 12
368.6480977445
 22
31.0552422931
 13
368.6480977445
 23
31.0552422931
  0
SOLID
  8
0
 62
7
  6
CONTINUOUS
 10
369.6309104651
 20
30.8939239876
 11
368.6480977445
 21
31.0552422931
 12
369.8043479651
 22
30.9907152029
 13
369.8043479651
 23
30.9907152029
  0
SOLID
  8
0
 62
7
  6
CONTINUOUS
 10
369.8043479651
 20
30.9907152029
 11
370.0355977445
 21
30.8939239876
 12
369.6309104651
 22
30.8939239876
 13
369.6309104651
 23
30.8939239876
  0
SOLID
  8
0
 62
7
  6
CONTINUOUS
 10
369.8043479651
 20
30.8293967193
 11
369.6309104651
 21
30.8939239876
 12
370.0355977445
 22
30.8939239876
 13
370.0355977445
 23
30.8939239876
  0
SOLID
  8
0
 62
7
  6
CONTINUOUS
 10
369.8043479651
 20
30.8293967193
 11
370.0355977445
 21
30.8939239876
 12
369.8621602445
 22
30.7648682694
 13
369.8621602445
 23
30.7648682694
  0
SOLID
  8
0
 62
7
  6
CONTINUOUS
 10
370.0355977445
 20
30.8939239876
 11
370.1512223035
 21
30.7648682694
 12
369.8621602445
 22
30.7648682694
 13
369.8621602445
 23
30.7648682694
  0
SOLID
  8
0
 62
7
  6
CONTINUOUS
 10
369.8043479651
 20
30.7003411846
 11
369.8621602445
 21
30.7648682694
 12
370.1512223035
 22
30.7648682694
 13
370.1512223035
 23
30.7648682694
  0
SOLID
  8
0
 62
7
  6
CONTINUOUS
 10
370.1512223035
 20
30.7648682694
 11
370.1512223035
 21
30.7003411846
 12
369.8043479651
 22
30.7003411846
 13
369.8043479651
 23
30.7003411846
  0
SOLID
  8
0
 62
7
  6
CONTINUOUS
 10
369.6887227445
 20
30.6680782357
 11
369.8043479651
 21
30.7003411846
 12
370.1512223035
 22
30.7003411846
 13
370.1512223035
 23
30.7003411846
  0
SOLID
  8
0
 62
7
  6
CONTINUOUS
 10
369.6887227445
 20
30.6680782357
 11
370.1512223035
 21
30.7003411846
 12
369.4574729651
 22
30.6358140998
 13
369.4574729651
 23
30.6358140998
  0
SOLID
  8
0
 62
7
  6
CONTINUOUS
 10
370.1512223035
 20
30.7003411846
 11
370.0355977445
 21
30.6035511455
 12
369.4574729651
 22
30.6358140998
 13
369.4574729651
 23
30.6358140998
  0
SOLID
  8
0
 62
7
  6
CONTINUOUS
 10
370.0355977445
 20
30.6035511455
 11
368.5902854651
 21
30.5712868422
 12
369.4574729651
 22
30.6358140998
 13
369.4574729651
 23
30.6358140998
  0
SOLID
  8
0
 62
7
  6
CONTINUOUS
 10
369.4574729651
 20
30.6358140998
 11
368.5902854651
 21
30.5712868422
 12
369.1105979651
 22
30.6358140998
 13
369.1105979651
 23
30.6358140998
  0
SOLID
  8
0
 62
7
  6
CONTINUOUS
 10
368.5902854651
 20
30.5712868422
 11
368.4168479651
 21
30.6358140998
 12
369.1105979651
 22
30.6358140998
 13
369.1105979651
 23
30.6358140998
  0
SOLID
  8
0
 62
7
  6
CONTINUOUS
 10
368.5902854651
 20
30.5712868422
 11
370.0355977445
 21
30.6035511455
 12
368.7637229651
 22
30.5390223111
 13
368.7637229651
 23
30.5390223111
  0
SOLID
  8
0
 62
7
  6
CONTINUOUS
 10
370.0355977445
 20
30.6035511455
 11
369.8043479651
 21
30.5390223111
 12
368.7637229651
 22
30.5390223111
 13
368.7637229651
 23
30.5390223111
  0
SOLID
  8
0
 62
7
  6
CONTINUOUS
 10
369.1105979651
 20
30.5067599302
 11
368.7637229651
 21
30.5390223111
 12
369.8043479651
 22
30.5390223111
 13
369.8043479651
 23
30.5390223111
  0
SOLID
  8
0
 62
7
  6
CONTINUOUS
 10
369.8043479651
 20
30.5390223111
 11
369.4574729651
 21
30.5067599302
 12
369.1105979651
 22
30.5067599302
 13
369.1105979651
 23
30.5067599302
  0
SOLID
  8
0
 62
7
  6
CONTINUOUS
 10
358.7621602445
 20
31.0229779898
 11
359.1090352445
 21
31.1842964734
 12
359.0512227376
 22
31.0552422931
 13
359.0512227376
 23
31.0552422931
  0
SOLID
  8
0
 62
7
  6
CONTINUOUS
 10
359.0512227376
 20
31.0552422931
 11
359.0512227376
 21
30.9584509954
 12
358.7621602445
 22
31.0229779898
 13
358.7621602445
 23
31.0229779898
  0
SOLID
  8
0
 62
7
  6
CONTINUOUS
 10
358.8199727462
 20
30.8293967193
 11
358.7621602445
 21
31.0229779898
 12
359.0512227376
 22
30.9584509954
 13
359.0512227376
 23
30.9584509954
  0
SOLID
  8
0
 62
7
  6
CONTINUOUS
 10
359.0512227376
 20
30.9584509954
 11
359.1668477307
 21
30.797132416
 12
358.8199727462
 22
30.8293967193
 13
358.8199727462
 23
30.8293967193
  0
SOLID
  8
0
 62
7
  6
CONTINUOUS
 10
358.9355977445
 20
30.7003413087
 11
358.8199727462
 21
30.8293967193
 12
359.1668477307
 22
30.797132416
 13
359.1668477307
 23
30.797132416
  0
SOLID
  8
0
 62
7
  6
CONTINUOUS
 10
359.1668477307
 20
30.797132416
 11
359.3402852307
 21
30.7003413087
 12
358.9355977445
 22
30.7003413087
 13
358.9355977445
 23
30.7003413087
  0
SOLID
  8
0
 62
7
  6
CONTINUOUS
 10
359.0512227376
 20
30.6358140759
 11
358.9355977445
 21
30.7003413087
 12
359.3402852307
 22
30.7003413087
 13
359.3402852307
 23
30.7003413087
  0
SOLID
  8
0
 62
7
  6
CONTINUOUS
 10
359.3402852307
 20
30.7003413087
 11
359.6871602721
 21
30.6358140759
 12
359.0512227376
 22
30.6358140759
 13
359.0512227376
 23
30.6358140759
  0
SOLID
  8
0
 62
7
  6
CONTINUOUS
 10
359.2246602583
 20
30.5712868422
 11
359.0512227376
 21
30.6358140759
 12
359.6871602721
 22
30.6358140759
 13
359.6871602721
 23
30.6358140759
  0
SOLID
  8
0
 62
7
  6
CONTINUOUS
 10
363.2715352445
 20
31.0229779808
 11
363.3871601343
 21
31.0875057863
 12
363.9652852445
 22
31.0552422931
 13
363.9652852445
 23
31.0552422931
  0
SOLID
  8
0
 62
7
  6
CONTINUOUS
 10
363.9652852445
 20
31.0552422931
 11
363.7340351343
 21
31.0229779808
 12
363.2715352445
 22
31.0229779808
 13
363.2715352445
 23
31.0229779808
  0
SOLID
  8
0
 62
7
  6
CONTINUOUS
 10
363.1559103548
 20
30.8939238094
 11
363.2715352445
 21
31.0229779808
 12
363.7340351343
 22
31.0229779808
 13
363.7340351343
 23
31.0229779808
  0
SOLID
  8
0
 62
7
  6
CONTINUOUS
 10
363.5027853548
 20
30.926187309
 11
363.1559103548
 21
30.8939238094
 12
363.6184102445
 22
30.9907152029
 13
363.6184102445
 23
30.9907152029
  0
SOLID
  8
0
 62
7
  6
CONTINUOUS
 10
363.1559103548
 20
30.8939238094
 11
363.7340351343
 21
31.0229779898
 12
363.6184102445
 22
30.9907152029
 13
363.6184102445
 23
30.9907152029
  0
SOLID
  8
0
 62
7
  6
CONTINUOUS
 10
363.5027853548
 20
30.926187309
 11
363.4449727445
 21
30.8293967193
 12
363.1559103548
 22
30.8939238094
 13
363.1559103548
 23
30.8939238094
  0
SOLID
  8
0
 62
7
  6
CONTINUOUS
 10
363.1559103548
 20
30.797132416
 11
363.1559103548
 21
30.8939238094
 12
363.4449727445
 22
30.8293967193
 13
363.4449727445
 23
30.8293967193
  0
SOLID
  8
0
 62
7
  6
CONTINUOUS
 10
363.4449727445
 20
30.8293967193
 11
363.4449727445
 21
30.7648681127
 12
363.1559103548
 22
30.797132416
 13
363.1559103548
 23
30.797132416
  0
SOLID
  8
0
 62
7
  6
CONTINUOUS
 10
363.2137226343
 20
30.6680782357
 11
363.1559103548
 21
30.797132416
 12
363.4449727445
 22
30.7648681127
 13
363.4449727445
 23
30.7648681127
  0
SOLID
  8
0
 62
7
  6
CONTINUOUS
 10
364.6012229651
 20
30.8616599362
 11
364.890285024
 21
30.7648681127
 12
364.543410024
 22
30.797132416
 13
364.543410024
 23
30.797132416
  0
SOLID
  8
0
 62
7
  6
CONTINUOUS
 10
364.369972524
 20
30.7003410226
 11
364.543410024
 21
30.797132416
 12
364.890285024
 22
30.7648681127
 13
364.890285024
 23
30.7648681127
  0
SOLID
  8
0
 62
7
  6
CONTINUOUS
 10
364.369972524
 20
30.7003410226
 11
364.890285024
 21
30.7648681127
 12
364.6012229651
 22
30.6680782357
 13
364.6012229651
 23
30.6680782357
  0
SOLID
  8
0
 62
7
  6
CONTINUOUS
 10
364.890285024
 20
30.7648681127
 11
364.9480979651
 21
30.6035511455
 12
364.6012229651
 22
30.6680782357
 13
364.6012229651
 23
30.6680782357
  0
SOLID
  8
0
 62
7
  6
CONTINUOUS
 10
364.6590352445
 20
30.5712868422
 11
364.6012229651
 21
30.6680782357
 12
364.9480979651
 22
30.6035511455
 13
364.9480979651
 23
30.6035511455
  0
SOLID
  8
0
 62
7
  6
CONTINUOUS
 10
364.6590352445
 20
30.5712868422
 11
364.9480979651
 21
30.6035511455
 12
364.716847524
 22
30.5067598731
 13
364.716847524
 23
30.5067598731
  0
SOLID
  8
0
 62
7
  6
CONTINUOUS
 10
364.9480979651
 20
30.6035511455
 11
365.0059102445
 21
30.5067598731
 12
364.716847524
 22
30.5067598731
 13
364.716847524
 23
30.5067598731
  0
SOLID
  8
0
 62
7
  6
CONTINUOUS
 10
360.2652852997
 20
30.7326051679
 11
360.3230977445
 21
30.8293966612
 12
360.6121602997
 22
30.8293966612
 13
360.6121602997
 23
30.8293966612
  0
SOLID
  8
0
 62
7
  6
CONTINUOUS
 10
360.6121602997
 20
30.8293966612
 11
360.5543476894
 21
30.7003410226
 12
360.2652852997
 22
30.7326051679
 13
360.2652852997
 23
30.7326051679
  0
SOLID
  8
0
 62
7
  6
CONTINUOUS
 10
360.091847717
 20
30.6680782357
 11
360.2652852997
 21
30.7326051679
 12
360.5543476894
 22
30.7003410226
 13
360.5543476894
 23
30.7003410226
  0
SOLID
  8
0
 62
7
  6
CONTINUOUS
 10
360.091847717
 20
30.6680782357
 11
360.5543476894
 21
30.7003410226
 12
359.6871602721
 22
30.6358139324
 13
359.6871602721
 23
30.6358139324
  0
SOLID
  8
0
 62
7
  6
CONTINUOUS
 10
360.5543476894
 20
30.7003410226
 11
360.3809101894
 21
30.6035511455
 12
359.6871602721
 22
30.6358139324
 13
359.6871602721
 23
30.6358139324
  0
SOLID
  8
0
 62
7
  6
CONTINUOUS
 10
359.2246602583
 20
30.5712868422
 11
359.6871602721
 21
30.6358139324
 12
360.3809101894
 22
30.6035511455
 13
360.3809101894
 23
30.6035511455
  0
SOLID
  8
0
 62
7
  6
CONTINUOUS
 10
359.2246602583
 20
30.5712868422
 11
360.3809101894
 21
30.6035511455
 12
359.3980977583
 22
30.5390224228
 13
359.3980977583
 23
30.5390224228
  0
SOLID
  8
0
 62
7
  6
CONTINUOUS
 10
360.3809101894
 20
30.6035511455
 11
360.1496602445
 21
30.5390224228
 12
359.3980977583
 22
30.5390224228
 13
359.3980977583
 23
30.5390224228
  0
SOLID
  8
0
 62
7
  6
CONTINUOUS
 10
359.744972717
 20
30.5067597521
 11
359.3980977583
 21
30.5390224228
 12
360.1496602445
 22
30.5390224228
 13
360.1496602445
 23
30.5390224228
  0
SOLID
  8
0
 62
7
  6
CONTINUOUS
 10
363.2137226343
 20
30.6680782357
 11
363.4449727445
 21
30.7648681127
 12
363.5027853548
 22
30.7003410226
 13
363.5027853548
 23
30.7003410226
  0
SOLID
  8
0
 62
7
  6
CONTINUOUS
 10
363.5027853548
 20
30.7003410226
 11
363.7340351343
 21
30.6358139324
 12
363.2137226343
 22
30.6680782357
 13
363.2137226343
 23
30.6680782357
  0
SOLID
  8
0
 62
7
  6
CONTINUOUS
 10
363.3871601343
 20
30.5712868422
 11
363.2137226343
 21
30.6680782357
 12
363.7340351343
 22
30.6358139324
 13
363.7340351343
 23
30.6358139324
  0
SOLID
  8
0
 62
7
  6
CONTINUOUS
 10
364.0809101343
 20
30.6358139363
 11
364.369972524
 21
30.7003410226
 12
364.6012229651
 22
30.6680782357
 13
364.6012229651
 23
30.6680782357
  0
SOLID
  8
0
 62
7
  6
CONTINUOUS
 10
364.6012229651
 20
30.6680782357
 11
364.543410024
 21
30.6035511455
 12
364.0809101343
 22
30.6358139363
 13
364.0809101343
 23
30.6358139363
  0
SOLID
  8
0
 62
7
  6
CONTINUOUS
 10
364.543410024
 20
30.6035511455
 11
363.3871601343
 21
30.5712868422
 12
364.0809101343
 22
30.6358139363
 13
364.0809101343
 23
30.6358139363
  0
SOLID
  8
0
 62
7
  6
CONTINUOUS
 10
363.3871601343
 20
30.5712868422
 11
363.7340351343
 21
30.6358139363
 12
364.0809101343
 22
30.6358139363
 13
364.0809101343
 23
30.6358139363
  0
SOLID
  8
0
 62
7
  6
CONTINUOUS
 10
363.3871601343
 20
30.5712868422
 11
364.543410024
 21
30.6035511455
 12
363.5027853548
 22
30.5390225267
 13
363.5027853548
 23
30.5390225267
  0
SOLID
  8
0
 62
7
  6
CONTINUOUS
 10
364.543410024
 20
30.6035511455
 11
364.369972524
 21
30.5390225267
 12
363.5027853548
 22
30.5390225267
 13
363.5027853548
 23
30.5390225267
  0
SOLID
  8
0
 62
7
  6
CONTINUOUS
 10
363.7340351343
 20
30.5067596914
 11
363.5027853548
 21
30.5390225267
 12
364.369972524
 22
30.5390225267
 13
364.369972524
 23
30.5390225267
  0
SOLID
  8
0
 62
7
  6
CONTINUOUS
 10
364.369972524
 20
30.5390225267
 11
364.0809101343
 21
30.5067596914
 12
363.7340351343
 22
30.5067596914
 13
363.7340351343
 23
30.5067596914
  0
SOLID
  8
0
 62
7
  6
CONTINUOUS
 10
368.7637229651
 20
30.6680782357
 11
368.4168479651
 21
30.6358138717
 12
368.6480977445
 22
30.7003410226
 13
368.6480977445
 23
30.7003410226
  0
SOLID
  8
0
 62
7
  6
CONTINUOUS
 10
368.6480977445
 20
30.7003410226
 11
368.4168479651
 21
30.6358138717
 12
368.5902854651
 22
30.7648680521
 13
368.5902854651
 23
30.7648680521
  0
SOLID
  8
0
 62
7
  6
CONTINUOUS
 10
368.4168479651
 20
30.6358138717
 11
368.3012227445
 21
30.7648680521
 12
368.5902854651
 22
30.7648680521
 13
368.5902854651
 23
30.7648680521
  0
SOLID
  8
0
 62
7
  6
CONTINUOUS
 10
368.7637229651
 20
30.6680782357
 11
369.1105979651
 21
30.6358138717
 12
368.4168479651
 22
30.6358138717
 13
368.4168479651
 23
30.6358138717
  0
SOLID
  8
0
 62
7
  6
CONTINUOUS
 10
365.4684104651
 20
30.5067597521
 11
365.4684104651
 21
31.5391977439
 12
365.757472524
 22
30.5067597521
 13
365.757472524
 23
31.5391977439
  0
ENDBLK
  8
0
  6
BYBLOCK
 62
0
  0
BLOCK
  8
0
 62
2
  6
CONTINUOUS
  2
SYMBOL_0_BL0
 70
64
 10
240.8592468615
 20
19.762288695
  0
TEXT
  8
0
 62
7
  6
CONTINUOUS
 10
227.1239507038
 20
19.1357028027
  7
TEXTSTYLE_3
 40
2.7338706658
  1
Ammeraal Beltech
 41
1.0
 51
15.0
 72
0
  0
TEXT
  8
0
 62
7
  6
CONTINUOUS
 10
237.9247515296
 20
16.8621661299
  7
TEXTSTYLE_4
 40
1.0935482663
  1
Innovation & Service in Belting
 41
1.0
 72
0
  0
LINE
  8
0
 62
7
  6
CONTINUOUS
 10
221.0994100525
 20
19.9022961113
 11
221.8775620458
 21
23.5632134089
  0
LINE
  8
0
 62
7
  6
CONTINUOUS
 10
231.9727303357
 20
27.2266073205
 11
222.3653797889
 21
24.1049898993
  0
LINE
  8
0
 62
7
  6
CONTINUOUS
 10
221.3246933848
 20
19.2089453082
 11
228.8317686459
 21
12.4495443822
  0
LINE
  8
0
 62
7
  6
CONTINUOUS
 10
221.5872277955
 20
20.4440726016
 11
232.3954971607
 21
23.9558922005
  0
LINE
  8
0
 62
7
  6
CONTINUOUS
 10
232.3912920235
 20
13.6061036368
 11
223.9458323548
 21
21.2104296785
  0
LINE
  8
0
 62
7
  6
CONTINUOUS
 10
232.9111147433
 20
26.3816822048
 11
231.9345552061
 21
21.7873308023
  0
LINE
  8
0
 62
7
  6
CONTINUOUS
 10
231.2347532584
 20
18.4950214885
 11
230.5483050469
 21
15.2655365641
  0
LINE
  8
0
 62
7
  6
CONTINUOUS
 10
233.5922108419
 20
13.9963058145
 11
234.5484423775
 21
18.4950214885
  0
LINE
  8
0
 62
7
  6
CONTINUOUS
 10
235.2482443252
 20
21.7873308023
 11
235.6924861276
 21
23.8773241617
  0
LINE
  8
0
 62
7
  6
CONTINUOUS
 10
229.5448697213
 20
12.2979700695
 11
233.1043930989
 21
13.4545293241
  0
LINE
  8
0
 62
7
  6
CONTINUOUS
 10
232.685831411
 20
27.0750330078
 11
235.4672027953
 21
24.5706749648
  0
ARC
  8
0
 62
7
  6
CONTINUOUS
 10
222.5906631212
 20
23.4116390962
 40
0.7290321776
 50
108.0
 51
168.0
  0
ARC
  8
0
 62
7
  6
CONTINUOUS
 10
232.198013668
 20
26.5332565175
 40
0.7290321776
 50
348.0
 51
108.0
  0
ARC
  8
0
 62
7
  6
CONTINUOUS
 10
234.9793850522
 20
24.0288984744
 40
0.7290321776
 50
348.0
 51
48.0
  0
ARC
  8
0
 62
7
  6
CONTINUOUS
 10
229.319586389
 20
12.9913208726
 40
0.7290321776
 50
228.0
 51
288.0
  0
ARC
  8
0
 62
7
  6
CONTINUOUS
 10
221.8125111278
 20
19.7507217986
 40
0.7290321776
 50
108.0
 51
228.0
  0
ARC
  8
0
 62
7
  6
CONTINUOUS
 10
232.8791097665
 20
14.1478801272
 40
0.7290321776
 50
228.0
 51
348.0
  0
ENDBLK
  8
0
  6
BYBLOCK
 62
0
  0
ENDSEC
  0
SECTION
  2
ENTITIES
  0
TEXT
  8
0
 62
5
  6
CONTINUOUS
 10
304.937007874
 20
25.636
  7
TEXTSTYLE_2
 40
2.8
  1
Scale :
 41
0.6
 51
0.000019
 72
0
  0
TEXT
  8
0
 62
5
  6
CONTINUOUS
 10
324.937007874
 20
25.636
  7
TEXTSTYLE_2
 40
2.8
  1
Belt type:
 41
0.6
 51
0.000019
 72
0
  0
INSERT
  8
0
 62
2
  6
CONTINUOUS
  2
SYMBOL_0_BL0
 10
240.8592468615
 20
19.762288695
  0
INSERT
  8
0
 62
2
  6
CONTINUOUS
  2
SYMBOL_5_BL1
 10
382.7840918555
 20
35.5067593403
  0
LINE
  8
0
 62
2
  6
CONTINUOUS
 10
218.937007874
 20
30.0
 11
408.937007874
 21
30.0
  0
LINE
  8
0
 62
2
  6
CONTINUOUS
 10
218.937007874
 20
30.0
 11
218.937007874
 21
10.0
  0
LINE
  8
0
 62
2
  6
CONTINUOUS
 10
218.937007874
 20
10.0
 11
408.937007874
 21
10.0
  0
LINE
  8
0
 62
2
  6
CONTINUOUS
 10
303.937007874
 20
30.0
 11
303.937007874
 21
10.0
  0
LINE
  8
0
 62
2
  6
CONTINUOUS
 10
323.937007874
 20
30.0
 11
323.937007874
 21
10.0
  0
LINE
  8
0
 62
2
  6
CONTINUOUS
 10
408.937007874
 20
30.0
 11
408.937007874
 21
10.0
  0
TEXT
  8
0
 62
5
  6
CONTINUOUS
 10
221.937007874
 20
23.303
  7
TEXTSTYLE_5
 40
1.52
  1
                                                                     Ammeraal Beltech Modular A/S
 41
1.0
 72
0
  0
TEXT
  8
0
 62
5
  6
CONTINUOUS
 10
221.937007874
 20
20.595
  7
TEXTSTYLE_5
 40
1.5
  1
                                                                      Hjulmagervej 21, 7100 Vejle,  DK
 41
1.0
 72
0
  0
TEXT
  8
0
 62
5
  6
CONTINUOUS
 10
221.937007874
 20
17.881
  7
TEXTSTYLE_5
 40
1.495
  1
                                                                      tel: 
 41
1.0
 72
0
  0
TEXT
  8
0
 62
5
  6
CONTINUOUS
 10
266.9239544389
 20
17.881
  7
TEXTSTYLE_5
 40
1.51
  1
+45 75723100     fax: +45 75723348
 41
1.0
 72
0
  0
TEXT
  8
0
 62
5
  6
CONTINUOUS
 10
221.937007874
 20
15.177
  7
TEXTSTYLE_5
 40
1.5
  1
                                                                      admin@unichains.dk  www.unichains.com
 41
1.0
 72
0
  0
TEXT
  8
0
 62
5
  6
CONTINUOUS
 10
308.687007874
 20
13.75
  7
TEXTSTYLE_6
 40
5.0
  1
1:1
 41
0.7
 72
1
 11
313.937007874
 21
13.75
  0
TEXT
  8
0
 62
5
  6
CONTINUOUS
 10
326.937007874
 20
13.75
  7
TEXTSTYLE_7
 40
7.5
  1
uni Flex ASB-43 CS Tab K580
 41
0.3861111111
 72
0
  0
LINE
  8
0
 62
7
  6
CONTINUOUS
 10
0.0
 20
0.0
 11
0.0
 21
297.0
  0
LINE
  8
0
 62
7
  6
CONTINUOUS
 10
8.937007874
 20
10.0
 11
8.937007874
 21
287.0
  0
LINE
  8
0
 62
7
  6
CONTINUOUS
 10
0.0
 20
0.0
 11
420.0
 21
0.0
  0
LINE
  8
0
 62
7
  6
CONTINUOUS
 10
408.937007874
 20
10.0
 11
8.937007874
 21
10.0
  0
LINE
  8
0
 62
7
  6
CONTINUOUS
 10
218.937007874
 20
30.0
 11
408.937007874
 21
30.0
  0
LINE
  8
0
 62
7
  6
CONTINUOUS
 10
210.0
 20
297.0
 11
210.0
 21
292.0
  0
LINE
  8
0
 62
7
  6
CONTINUOUS
 10
210.0
 20
0.0
 11
210.0
 21
5.0
  0
LINE
  8
0
 62
7
  6
CONTINUOUS
 10
8.937007874
 20
287.0
 11
408.937007874
 21
287.0
  0
LINE
  8
0
 62
7
  6
CONTINUOUS
 10
0.0
 20
297.0
 11
420.0
 21
297.0
  0
LINE
  8
0
 62
7
  6
CONTINUOUS
 10
408.937007874
 20
287.0
 11
408.937007874
 21
10.0
  0
LINE
  8
0
 62
7
  6
CONTINUOUS
 10
420.0
 20
0.0
 11
420.0
 21
297.0
  0
LINE
  8
0
 62
7
  6
CONTINUOUS
 10
93.3208035562
 20
228.088243191
 11
92.6024862448
 21
239.8326274181
  0
LINE
  8
0
 62
7
  6
CONTINUOUS
 10
91.8816610192
 20
254.150976455
 11
91.8816610192
 21
240.3582080023
  0
POLYLINE
  8
0
 62
7
  6
CONTINUOUS
 66
1
 70
0
  0
VERTEX
  8
0
 62
7
  6
CONTINUOUS
 10
105.2566461365
 20
251.9561198412
  0
VERTEX
  8
0
 62
7
  6
CONTINUOUS
 10
105.2558754977
 20
251.9920268658
  0
VERTEX
  8
0
 62
7
  6
CONTINUOUS
 10
105.2534254609
 20
252.0310598607
  0
VERTEX
  8
0
 62
7
  6
CONTINUOUS
 10
105.2494116749
 20
252.070651567
  0
VERTEX
  8
0
 62
7
  6
CONTINUOUS
 10
105.2440353804
 20
252.1101041878
  0
VERTEX
  8
0
 62
7
  6
CONTINUOUS
 10
105.2375141322
 20
252.1489889427
  0
VERTEX
  8
0
 62
7
  6
CONTINUOUS
 10
105.230021994
 20
252.1871839193
  0
VERTEX
  8
0
 62
7
  6
CONTINUOUS
 10
105.2216859057
 20
252.2247028204
  0
VERTEX
  8
0
 62
7
  6
CONTINUOUS
 10
105.2126054818
 20
252.2615769101
  0
VERTEX
  8
0
 62
7
  6
CONTINUOUS
 10
105.2028633896
 20
252.2978343426
  0
VERTEX
  8
0
 62
7
  6
CONTINUOUS
 10
105.192535231
 20
252.3334758102
  0
VERTEX
  8
0
 62
7
  6
CONTINUOUS
 10
105.181666428
 20
252.368557756
  0
VERTEX
  8
0
 62
7
  6
CONTINUOUS
 10
105.1702711057
 20
252.4031989173
  0
VERTEX
  8
0
 62
7
  6
CONTINUOUS
 10
105.1583626717
 20
252.437475155
  0
VERTEX
  8
0
 62
7
  6
CONTINUOUS
 10
105.1459418973
 20
252.471465737
  0
VERTEX
  8
0
 62
7
  6
CONTINUOUS
 10
105.1330116709
 20
252.505225414
  0
VERTEX
  8
0
 62
7
  6
CONTINUOUS
 10
105.1195680377
 20
252.5388014361
  0
VERTEX
  8
0
 62
7
  6
CONTINUOUS
 10
105.1056023553
 20
252.5722437471
  0
VERTEX
  8
0
 62
7
  6
CONTINUOUS
 10
105.091107278
 20
252.6055799548
  0
VERTEX
  8
0
 62
7
  6
CONTINUOUS
 10
105.0760693067
 20
252.6388459891
  0
VERTEX
  8
0
 62
7
  6
CONTINUOUS
 10
105.0604791491
 20
252.6720544477
  0
VERTEX
  8
0
 62
7
  6
CONTINUOUS
 10
105.0443215981
 20
252.7052264147
  0
VERTEX
  8
0
 62
7
  6
CONTINUOUS
 10
105.0275980084
 20
252.7383393215
  0
VERTEX
  8
0
 62
7
  6
CONTINUOUS
 10
105.0103119732
 20
252.7713673684
  0
VERTEX
  8
0
 62
7
  6
CONTINUOUS
 10
104.9924718322
 20
252.8042710186
  0
VERTEX
  8
0
 62
7
  6
CONTINUOUS
 10
104.9740817141
 20
252.8370214338
  0
VERTEX
  8
0
 62
7
  6
CONTINUOUS
 10
104.9551479624
 20
252.8695808046
  0
VERTEX
  8
0
 62
7
  6
CONTINUOUS
 10
104.9356810388
 20
252.901907627
  0
VERTEX
  8
0
 62
7
  6
CONTINUOUS
 10
104.915689602
 20
252.9339598226
  0
VERTEX
  8
0
 62
7
  6
CONTINUOUS
 10
104.8951882966
 20
252.9656884761
  0
VERTEX
  8
0
 62
7
  6
CONTINUOUS
 10
104.8741828482
 20
252.9970573207
  0
VERTEX
  8
0
 62
7
  6
CONTINUOUS
 10
104.8526871361
 20
253.0280169828
  0
VERTEX
  8
0
 62
7
  6
CONTINUOUS
 10
104.8307078043
 20
253.0585305547
  0
VERTEX
  8
0
 62
7
  6
CONTINUOUS
 10
104.8082528005
 20
253.0885552458
  0
VERTEX
  8
0
 62
7
  6
CONTINUOUS
 10
104.7853331188
 20
253.1180463134
  0
VERTEX
  8
0
 62
7
  6
CONTINUOUS
 10
104.7618964924
 20
253.1470342042
  0
VERTEX
  8
0
 62
7
  6
CONTINUOUS
 10
104.7377763748
 20
253.1756682751
  0
VERTEX
  8
0
 62
7
  6
CONTINUOUS
 10
104.7127801309
 20
253.2040939325
  0
VERTEX
  8
0
 62
7
  6
CONTINUOUS
 10
104.6866995143
 20
253.2324282885
  0
VERTEX
  8
0
 62
7
  6
CONTINUOUS
 10
104.6593276066
 20
253.26074067
  0
VERTEX
  8
0
 62
7
  6
CONTINUOUS
 10
104.6304324928
 20
253.2890757019
  0
VERTEX
  8
0
 62
7
  6
CONTINUOUS
 10
104.607632468
 20
253.3103221333
  0
SEQEND
  0
LINE
  8
0
 62
7
  6
CONTINUOUS
 10
97.1356610192
 20
240.2082080023
 11
97.1356610192
 21
231.1738279753
  0
LINE
  8
0
 62
7
  6
CONTINUOUS
 10
97.1710108422
 20
240.2082080023
 11
97.171010841
 21
231.2043478853
  0
LINE
  8
0
 62
7
  6
CONTINUOUS
 10
97.2856610192
 20
231.4632205304
 11
97.2856610192
 21
240.2082080023
  0
LINE
  8
0
 62
7
  6
CONTINUOUS
 10
99.2566753824
 20
240.9582080023
 11
99.2566753824
 21
251.9561198424
  0
LINE
  8
0
 62
7
  6
CONTINUOUS
 10
100.0066610192
 20
253.917586828
 11
100.0066610192
 21
253.4002539844
  0
LINE
  8
0
 62
7
  6
CONTINUOUS
 10
104.5066610192
 20
253.4002499591
 11
104.5066610192
 21
254.0816912461
  0
LINE
  8
0
 62
7
  6
CONTINUOUS
 10
105.0356610192
 20
231.163216248
 11
105.0356610192
 21
227.2103402701
  0
LINE
  8
0
 62
7
  6
CONTINUOUS
 10
105.256646656
 20
251.9561198289
 11
105.256646656
 21
240.9582080023
  0
POLYLINE
  8
AXES
 62
7
  6
CONTINUOUS
 66
1
 70
0
  0
VERTEX
  8
AXES
 62
7
  6
CONTINUOUS
 10
99.2566753824
 20
245.2252186938
  0
VERTEX
  8
AXES
 62
7
  6
CONTINUOUS
 10
99.2246285599
 20
245.3365040742
  0
VERTEX
  8
AXES
 62
7
  6
CONTINUOUS
 10
99.1806047873
 20
245.527983611
  0
VERTEX
  8
AXES
 62
7
  6
CONTINUOUS
 10
99.1472789701
 20
245.7215563754
  0
VERTEX
  8
AXES
 62
7
  6
CONTINUOUS
 10
99.1249894275
 20
245.9159720674
  0
VERTEX
  8
AXES
 62
7
  6
CONTINUOUS
 10
99.1138217204
 20
246.1110371891
  0
VERTEX
  8
AXES
 62
7
  6
CONTINUOUS
 10
99.113831695
 20
246.305727412
  0
VERTEX
  8
AXES
 62
7
  6
CONTINUOUS
 10
99.1250201614
 20
246.5008012484
  0
VERTEX
  8
AXES
 62
7
  6
CONTINUOUS
 10
99.1473281472
 20
246.6952024695
  0
VERTEX
  8
AXES
 62
7
  6
CONTINUOUS
 10
99.1806741731
 20
246.8887774338
  0
VERTEX
  8
AXES
 62
7
  6
CONTINUOUS
 10
99.2247143515
 20
247.0802431203
  0
VERTEX
  8
AXES
 62
7
  6
CONTINUOUS
 10
99.2566753824
 20
247.1911917629
  0
SEQEND
  0
LINE
  8
0
 62
7
  6
CONTINUOUS
 10
113.5816610192
 20
244.1088523243
 11
113.5816610192
 21
240.3582080023
  0
LINE
  8
0
 62
7
  6
CONTINUOUS
 10
114.8816753824
 20
241.2219477144
 11
114.8816753824
 21
251.9561198424
  0
LINE
  8
0
 62
7
  6
CONTINUOUS
 10
115.6316610192
 20
254.1704191171
 11
115.6316610192
 21
253.4002539844
  0
LINE
  8
0
 62
7
  6
CONTINUOUS
 10
120.1316610192
 20
254.1816992932
 11
120.1316610192
 21
253.4002539848
  0
POLYLINE
  8
AXES
 62
7
  6
CONTINUOUS
 66
1
 70
0
  0
VERTEX
  8
AXES
 62
7
  6
CONTINUOUS
 10
114.8816753824
 20
244.88718879
  0
VERTEX
  8
AXES
 62
7
  6
CONTINUOUS
 10
114.877889679
 20
244.8468475018
  0
VERTEX
  8
AXES
 62
7
  6
CONTINUOUS
 10
114.8677808044
 20
244.812869592
  0
VERTEX
  8
AXES
 62
7
  6
CONTINUOUS
 10
114.8526227413
 20
244.7845184499
  0
VERTEX
  8
AXES
 62
7
  6
CONTINUOUS
 10
114.8337534853
 20
244.7618831089
  0
VERTEX
  8
AXES
 62
7
  6
CONTINUOUS
 10
114.8123634606
 20
244.7446684792
  0
VERTEX
  8
AXES
 62
7
  6
CONTINUOUS
 10
114.788575304
 20
244.7320769079
  0
VERTEX
  8
AXES
 62
7
  6
CONTINUOUS
 10
114.7634922584
 20
244.7242280007
  0
SEQEND
  0
POLYLINE
  8
0
 62
7
  6
CONTINUOUS
 66
1
 70
0
  0
VERTEX
  8
0
 62
7
  6
CONTINUOUS
 10
120.8816466644
 20
251.956119845
  0
VERTEX
  8
0
 62
7
  6
CONTINUOUS
 10
120.8806666311
 20
251.9967157803
  0
VERTEX
  8
0
 62
7
  6
CONTINUOUS
 10
120.8779565382
 20
252.0365484894
  0
VERTEX
  8
0
 62
7
  6
CONTINUOUS
 10
120.8736491193
 20
252.0768853148
  0
VERTEX
  8
0
 62
7
  6
CONTINUOUS
 10
120.8679602467
 20
252.1170268587
  0
VERTEX
  8
0
 62
7
  6
CONTINUOUS
 10
120.8611173203
 20
252.1565361557
  0
VERTEX
  8
0
 62
7
  6
CONTINUOUS
 10
120.8532916806
 20
252.1953326629
  0
VERTEX
  8
0
 62
7
  6
CONTINUOUS
 10
120.8446090945
 20
252.2334496154
  0
VERTEX
  8
0
 62
7
  6
CONTINUOUS
 10
120.8351723829
 20
252.2709141569
  0
VERTEX
  8
0
 62
7
  6
CONTINUOUS
 10
120.8250685211
 20
252.3077341059
  0
VERTEX
  8
0
 62
7
  6
CONTINUOUS
 10
120.8143679138
 20
252.3439298147
  0
VERTEX
  8
0
 62
7
  6
CONTINUOUS
 10
120.8031097777
 20
252.37958523
  0
VERTEX
  8
0
 62
7
  6
CONTINUOUS
 10
120.7913109824
 20
252.4147986916
  0
VERTEX
  8
0
 62
7
  6
CONTINUOUS
 10
120.7789758939
 20
252.4496698326
  0
VERTEX
  8
0
 62
7
  6
CONTINUOUS
 10
120.7661124656
 20
252.4842567637
  0
VERTEX
  8
0
 62
7
  6
CONTINUOUS
 10
120.7527169912
 20
252.5186222615
  0
VERTEX
  8
0
 62
7
  6
CONTINUOUS
 10
120.7387850558
 20
252.5528175144
  0
VERTEX
  8
0
 62
7
  6
CONTINUOUS
 10
120.7243055653
 20
252.5868872737
  0
VERTEX
  8
0
 62
7
  6
CONTINUOUS
 10
120.7092660018
 20
252.6208723171
  0
VERTEX
  8
0
 62
7
  6
CONTINUOUS
 10
120.6936536316
 20
252.6547961992
  0
VERTEX
  8
0
 62
7
  6
CONTINUOUS
 10
120.6774520579
 20
252.6886859497
  0
VERTEX
  8
0
 62
7
  6
CONTINUOUS
 10
120.6606534142
 20
252.7225375903
  0
VERTEX
  8
0
 62
7
  6
CONTINUOUS
 10
120.6432658389
 20
252.7563156537
  0
VERTEX
  8
0
 62
7
  6
CONTINUOUS
 10
120.6253037975
 20
252.7899680517
  0
VERTEX
  8
0
 62
7
  6
CONTINUOUS
 10
120.6067794978
 20
252.823452083
  0
VERTEX
  8
0
 62
7
  6
CONTINUOUS
 10
120.587705407
 20
252.8567206191
  0
VERTEX
  8
0
 62
7
  6
CONTINUOUS
 10
120.5680915446
 20
252.889735025
  0
VERTEX
  8
0
 62
7
  6
CONTINUOUS
 10
120.5479356952
 20
252.9224721762
  0
VERTEX
  8
0
 62
7
  6
CONTINUOUS
 10
120.5272416435
 20
252.9548992245
  0
VERTEX
  8
0
 62
7
  6
CONTINUOUS
 10
120.506003134
 20
252.9869954637
  0
VERTEX
  8
0
 62
7
  6
CONTINUOUS
 10
120.4842221175
 20
253.0187238093
  0
VERTEX
  8
0
 62
7
  6
CONTINUOUS
 10
120.461893248
 20
253.0500578345
  0
VERTEX
  8
0
 62
7
  6
CONTINUOUS
 10
120.4390111519
 20
253.080964039
  0
VERTEX
  8
0
 62
7
  6
CONTINUOUS
 10
120.4155744423
 20
253.1114031691
  0
VERTEX
  8
0
 62
7
  6
CONTINUOUS
 10
120.3915442215
 20
253.141377969
  0
VERTEX
  8
0
 62
7
  6
CONTINUOUS
 10
120.3667640821
 20
253.1710167215
  0
VERTEX
  8
0
 62
7
  6
CONTINUOUS
 10
120.34103115
 20
253.2004678325
  0
VERTEX
  8
0
 62
7
  6
CONTINUOUS
 10
120.3141254852
 20
253.2298489663
  0
VERTEX
  8
0
 62
7
  6
CONTINUOUS
 10
120.2858282879
 20
253.259225757
  0
VERTEX
  8
0
 62
7
  6
CONTINUOUS
 10
120.2558924926
 20
253.2886370408
  0
VERTEX
  8
0
 62
7
  6
CONTINUOUS
 10
120.2326320034
 20
253.3103224656
  0
SEQEND
  0
LINE
  8
0
 62
7
  6
CONTINUOUS
 10
120.881646656
 20
251.9561198424
 11
120.881646656
 21
241.2219478238
  0
LINE
  8
0
 62
7
  6
CONTINUOUS
 10
122.1816610192
 20
244.1088522782
 11
122.1816610192
 21
240.3582080023
  0
LINE
  8
0
 62
7
  6
CONTINUOUS
 10
129.3816753824
 20
240.9582080023
 11
129.3816753824
 21
251.9561198424
  0
LINE
  8
0
 62
7
  6
CONTINUOUS
 10
130.1316610192
 20
253.400249961
 11
130.1316610192
 21
254.1816992574
  0
POLYLINE
  8
0
 62
7
  6
CONTINUOUS
 66
1
 70
0
  0
VERTEX
  8
0
 62
7
  6
CONTINUOUS
 10
135.3816466644
 20
251.956119845
  0
VERTEX
  8
0
 62
7
  6
CONTINUOUS
 10
135.3806666311
 20
251.9967157803
  0
VERTEX
  8
0
 62
7
  6
CONTINUOUS
 10
135.3779565382
 20
252.0365484894
  0
VERTEX
  8
0
 62
7
  6
CONTINUOUS
 10
135.3736491193
 20
252.0768853148
  0
VERTEX
  8
0
 62
7
  6
CONTINUOUS
 10
135.3679602467
 20
252.1170268587
  0
VERTEX
  8
0
 62
7
  6
CONTINUOUS
 10
135.3611173203
 20
252.1565361557
  0
VERTEX
  8
0
 62
7
  6
CONTINUOUS
 10
135.3532916806
 20
252.1953326629
  0
VERTEX
  8
0
 62
7
  6
CONTINUOUS
 10
135.3446090945
 20
252.2334496154
  0
VERTEX
  8
0
 62
7
  6
CONTINUOUS
 10
135.3351723829
 20
252.2709141569
  0
VERTEX
  8
0
 62
7
  6
CONTINUOUS
 10
135.3250685211
 20
252.3077341059
  0
VERTEX
  8
0
 62
7
  6
CONTINUOUS
 10
135.3143679138
 20
252.3439298147
  0
VERTEX
  8
0
 62
7
  6
CONTINUOUS
 10
135.3031097777
 20
252.37958523
  0
VERTEX
  8
0
 62
7
  6
CONTINUOUS
 10
135.2913109824
 20
252.4147986916
  0
VERTEX
  8
0
 62
7
  6
CONTINUOUS
 10
135.2789758939
 20
252.4496698326
  0
VERTEX
  8
0
 62
7
  6
CONTINUOUS
 10
135.2661124656
 20
252.4842567637
  0
VERTEX
  8
0
 62
7
  6
CONTINUOUS
 10
135.2527169912
 20
252.5186222615
  0
VERTEX
  8
0
 62
7
  6
CONTINUOUS
 10
135.2387850558
 20
252.5528175144
  0
VERTEX
  8
0
 62
7
  6
CONTINUOUS
 10
135.2243055653
 20
252.5868872737
  0
VERTEX
  8
0
 62
7
  6
CONTINUOUS
 10
135.2092660018
 20
252.6208723171
  0
VERTEX
  8
0
 62
7
  6
CONTINUOUS
 10
135.1936536316
 20
252.6547961992
  0
VERTEX
  8
0
 62
7
  6
CONTINUOUS
 10
135.1774520579
 20
252.6886859497
  0
VERTEX
  8
0
 62
7
  6
CONTINUOUS
 10
135.1606534142
 20
252.7225375903
  0
VERTEX
  8
0
 62
7
  6
CONTINUOUS
 10
135.1432658389
 20
252.7563156537
  0
VERTEX
  8
0
 62
7
  6
CONTINUOUS
 10
135.1253037975
 20
252.7899680517
  0
VERTEX
  8
0
 62
7
  6
CONTINUOUS
 10
135.1067794978
 20
252.823452083
  0
VERTEX
  8
0
 62
7
  6
CONTINUOUS
 10
135.087705407
 20
252.8567206191
  0
VERTEX
  8
0
 62
7
  6
CONTINUOUS
 10
135.0680915446
 20
252.889735025
  0
VERTEX
  8
0
 62
7
  6
CONTINUOUS
 10
135.0479356952
 20
252.9224721762
  0
VERTEX
  8
0
 62
7
  6
CONTINUOUS
 10
135.0272416435
 20
252.9548992245
  0
VERTEX
  8
0
 62
7
  6
CONTINUOUS
 10
135.006003134
 20
252.9869954637
  0
VERTEX
  8
0
 62
7
  6
CONTINUOUS
 10
134.9842221175
 20
253.0187238093
  0
VERTEX
  8
0
 62
7
  6
CONTINUOUS
 10
134.961893248
 20
253.0500578345
  0
VERTEX
  8
0
 62
7
  6
CONTINUOUS
 10
134.9390111519
 20
253.080964039
  0
VERTEX
  8
0
 62
7
  6
CONTINUOUS
 10
134.9155744423
 20
253.1114031691
  0
VERTEX
  8
0
 62
7
  6
CONTINUOUS
 10
134.8915442215
 20
253.141377969
  0
VERTEX
  8
0
 62
7
  6
CONTINUOUS
 10
134.8667640821
 20
253.1710167215
  0
VERTEX
  8
0
 62
7
  6
CONTINUOUS
 10
134.84103115
 20
253.2004678325
  0
VERTEX
  8
0
 62
7
  6
CONTINUOUS
 10
134.8141254852
 20
253.2298489663
  0
VERTEX
  8
0
 62
7
  6
CONTINUOUS
 10
134.7858282879
 20
253.259225757
  0
VERTEX
  8
0
 62
7
  6
CONTINUOUS
 10
134.7558924926
 20
253.2886370408
  0
VERTEX
  8
0
 62
7
  6
CONTINUOUS
 10
134.7326320034
 20
253.3103224656
  0
SEQEND
  0
LINE
  8
0
 62
7
  6
CONTINUOUS
 10
134.6316610192
 20
254.1816992932
 11
134.6316610192
 21
253.4002539848
  0
LINE
  8
0
 62
7
  6
CONTINUOUS
 10
135.381646656
 20
251.9561198424
 11
135.381646656
 21
240.9582080023
  0
LINE
  8
0
 62
7
  6
CONTINUOUS
 10
143.1356753824
 20
240.9582080023
 11
143.1356753824
 21
251.9561198424
  0
LINE
  8
0
 62
7
  6
CONTINUOUS
 10
143.8856610192
 20
254.1817009092
 11
143.8856610192
 21
253.400249961
  0
POLYLINE
  8
0
 62
7
  6
CONTINUOUS
 66
1
 70
0
  0
VERTEX
  8
0
 62
7
  6
CONTINUOUS
 10
99.9056890535
 20
253.3103217139
  0
VERTEX
  8
0
 62
7
  6
CONTINUOUS
 10
99.8875699341
 20
253.2935168103
  0
VERTEX
  8
0
 62
7
  6
CONTINUOUS
 10
99.8622123962
 20
253.2689606118
  0
VERTEX
  8
0
 62
7
  6
CONTINUOUS
 10
99.8380415037
 20
253.2444152884
  0
VERTEX
  8
0
 62
7
  6
CONTINUOUS
 10
99.8149048241
 20
253.2198636241
  0
VERTEX
  8
0
 62
7
  6
CONTINUOUS
 10
99.7926708101
 20
253.1952782039
  0
VERTEX
  8
0
 62
7
  6
CONTINUOUS
 10
99.7712132196
 20
253.1706131307
  0
VERTEX
  8
0
 62
7
  6
CONTINUOUS
 10
99.7504028554
 20
253.1457934924
  0
VERTEX
  8
0
 62
7
  6
CONTINUOUS
 10
99.7301229956
 20
253.1207343024
  0
VERTEX
  8
0
 62
7
  6
CONTINUOUS
 10
99.7102677237
 20
253.0953450035
  0
VERTEX
  8
0
 62
7
  6
CONTINUOUS
 10
99.6907862162
 20
253.069589578
  0
VERTEX
  8
0
 62
7
  6
CONTINUOUS
 10
99.6716686104
 20
253.0434766286
  0
VERTEX
  8
0
 62
7
  6
CONTINUOUS
 10
99.6529088571
 20
253.0170189551
  0
VERTEX
  8
0
 62
7
  6
CONTINUOUS
 10
99.6344950631
 20
252.9902186456
  0
VERTEX
  8
0
 62
7
  6
CONTINUOUS
 10
99.6164200954
 20
252.9630792212
  0
VERTEX
  8
0
 62
7
  6
CONTINUOUS
 10
99.5986797696
 20
252.9356081412
  0
VERTEX
  8
0
 62
7
  6
CONTINUOUS
 10
99.5812637481
 20
252.9078002601
  0
VERTEX
  8
0
 62
7
  6
CONTINUOUS
 10
99.5641680991
 20
252.8796554911
  0
VERTEX
  8
0
 62
7
  6
CONTINUOUS
 10
99.5473888815
 20
252.8511737391
  0
VERTEX
  8
0
 62
7
  6
CONTINUOUS
 10
99.5309179312
 20
252.8223422158
  0
VERTEX
  8
0
 62
7
  6
CONTINUOUS
 10
99.5147572016
 20
252.7931627449
  0
VERTEX
  8
0
 62
7
  6
CONTINUOUS
 10
99.4989039814
 20
252.7636274216
  0
VERTEX
  8
0
 62
7
  6
CONTINUOUS
 10
99.483360375
 20
252.7337305762
  0
VERTEX
  8
0
 62
7
  6
CONTINUOUS
 10
99.4681283234
 20
252.7034664461
  0
VERTEX
  8
0
 62
7
  6
CONTINUOUS
 10
99.453207645
 20
252.6728168974
  0
VERTEX
  8
0
 62
7
  6
CONTINUOUS
 10
99.4386039767
 20
252.6417738597
  0
VERTEX
  8
0
 62
7
  6
CONTINUOUS
 10
99.424317257
 20
252.6103086274
  0
VERTEX
  8
0
 62
7
  6
CONTINUOUS
 10
99.4103559499
 20
252.5784059382
  0
VERTEX
  8
0
 62
7
  6
CONTINUOUS
 10
99.3967218542
 20
252.5460249557
  0
VERTEX
  8
0
 62
7
  6
CONTINUOUS
 10
99.3834265481
 20
252.513138727
  0
VERTEX
  8
0
 62
7
  6
CONTINUOUS
 10
99.3704760411
 20
252.4796907468
  0
VERTEX
  8
0
 62
7
  6
CONTINUOUS
 10
99.3578965236
 20
252.4456645312
  0
VERTEX
  8
0
 62
7
  6
CONTINUOUS
 10
99.34572415
 20
252.4110515287
  0
VERTEX
  8
0
 62
7
  6
CONTINUOUS
 10
99.3339997614
 20
252.3758490363
  0
VERTEX
  8
0
 62
7
  6
CONTINUOUS
 10
99.3227705604
 20
252.3400475365
  0
VERTEX
  8
0
 62
7
  6
CONTINUOUS
 10
99.3120830353
 20
252.303611718
  0
VERTEX
  8
0
 62
7
  6
CONTINUOUS
 10
99.3019963191
 20
252.266513819
  0
VERTEX
  8
0
 62
7
  6
CONTINUOUS
 10
99.2925842898
 20
252.2287227601
  0
VERTEX
  8
0
 62
7
  6
CONTINUOUS
 10
99.2839576703
 20
252.1903052067
  0
VERTEX
  8
0
 62
7
  6
CONTINUOUS
 10
99.2762464162
 20
252.1513815146
  0
VERTEX
  8
0
 62
7
  6
CONTINUOUS
 10
99.2695947445
 20
252.1121135039
  0
VERTEX
  8
0
 62
7
  6
CONTINUOUS
 10
99.2641610766
 20
252.0727345654
  0
VERTEX
  8
0
 62
7
  6
CONTINUOUS
 10
99.2601041375
 20
252.0335334881
  0
VERTEX
  8
0
 62
7
  6
CONTINUOUS
 10
99.257575482
 20
251.9949762114
  0
VERTEX
  8
0
 62
7
  6
CONTINUOUS
 10
99.2566759867
 20
251.9561198424
  0
SEQEND
  0
POLYLINE
  8
0
 62
7
  6
CONTINUOUS
 66
1
 70
0
  0
VERTEX
  8
0
 62
7
  6
CONTINUOUS
 10
115.5306890535
 20
253.3103217139
  0
VERTEX
  8
0
 62
7
  6
CONTINUOUS
 10
115.5125699341
 20
253.2935168103
  0
VERTEX
  8
0
 62
7
  6
CONTINUOUS
 10
115.4872123962
 20
253.2689606118
  0
VERTEX
  8
0
 62
7
  6
CONTINUOUS
 10
115.4630415037
 20
253.2444152884
  0
VERTEX
  8
0
 62
7
  6
CONTINUOUS
 10
115.4399048241
 20
253.2198636241
  0
VERTEX
  8
0
 62
7
  6
CONTINUOUS
 10
115.4176708101
 20
253.1952782039
  0
VERTEX
  8
0
 62
7
  6
CONTINUOUS
 10
115.3962132196
 20
253.1706131307
  0
VERTEX
  8
0
 62
7
  6
CONTINUOUS
 10
115.3754028554
 20
253.1457934924
  0
VERTEX
  8
0
 62
7
  6
CONTINUOUS
 10
115.3551229956
 20
253.1207343024
  0
VERTEX
  8
0
 62
7
  6
CONTINUOUS
 10
115.3352677237
 20
253.0953450035
  0
VERTEX
  8
0
 62
7
  6
CONTINUOUS
 10
115.3157862162
 20
253.069589578
  0
VERTEX
  8
0
 62
7
  6
CONTINUOUS
 10
115.2966686104
 20
253.0434766286
  0
VERTEX
  8
0
 62
7
  6
CONTINUOUS
 10
115.2779088571
 20
253.0170189551
  0
VERTEX
  8
0
 62
7
  6
CONTINUOUS
 10
115.2594950631
 20
252.9902186456
  0
VERTEX
  8
0
 62
7
  6
CONTINUOUS
 10
115.2414200954
 20
252.9630792212
  0
VERTEX
  8
0
 62
7
  6
CONTINUOUS
 10
115.2236797696
 20
252.9356081412
  0
VERTEX
  8
0
 62
7
  6
CONTINUOUS
 10
115.2062637481
 20
252.9078002601
  0
VERTEX
  8
0
 62
7
  6
CONTINUOUS
 10
115.1891680991
 20
252.8796554911
  0
VERTEX
  8
0
 62
7
  6
CONTINUOUS
 10
115.1723888815
 20
252.8511737391
  0
VERTEX
  8
0
 62
7
  6
CONTINUOUS
 10
115.1559179312
 20
252.8223422158
  0
VERTEX
  8
0
 62
7
  6
CONTINUOUS
 10
115.1397572016
 20
252.7931627449
  0
VERTEX
  8
0
 62
7
  6
CONTINUOUS
 10
115.1239039814
 20
252.7636274216
  0
VERTEX
  8
0
 62
7
  6
CONTINUOUS
 10
115.108360375
 20
252.7337305762
  0
VERTEX
  8
0
 62
7
  6
CONTINUOUS
 10
115.0931283234
 20
252.7034664461
  0
VERTEX
  8
0
 62
7
  6
CONTINUOUS
 10
115.078207645
 20
252.6728168974
  0
VERTEX
  8
0
 62
7
  6
CONTINUOUS
 10
115.0636039767
 20
252.6417738597
  0
VERTEX
  8
0
 62
7
  6
CONTINUOUS
 10
115.049317257
 20
252.6103086274
  0
VERTEX
  8
0
 62
7
  6
CONTINUOUS
 10
115.0353559499
 20
252.5784059382
  0
VERTEX
  8
0
 62
7
  6
CONTINUOUS
 10
115.0217218542
 20
252.5460249557
  0
VERTEX
  8
0
 62
7
  6
CONTINUOUS
 10
115.0084265481
 20
252.513138727
  0
VERTEX
  8
0
 62
7
  6
CONTINUOUS
 10
114.9954760411
 20
252.4796907468
  0
VERTEX
  8
0
 62
7
  6
CONTINUOUS
 10
114.9828965236
 20
252.4456645312
  0
VERTEX
  8
0
 62
7
  6
CONTINUOUS
 10
114.97072415
 20
252.4110515287
  0
VERTEX
  8
0
 62
7
  6
CONTINUOUS
 10
114.9589997614
 20
252.3758490363
  0
VERTEX
  8
0
 62
7
  6
CONTINUOUS
 10
114.9477705604
 20
252.3400475365
  0
VERTEX
  8
0
 62
7
  6
CONTINUOUS
 10
114.9370830353
 20
252.303611718
  0
VERTEX
  8
0
 62
7
  6
CONTINUOUS
 10
114.9269963191
 20
252.266513819
  0
VERTEX
  8
0
 62
7
  6
CONTINUOUS
 10
114.9175842898
 20
252.2287227601
  0
VERTEX
  8
0
 62
7
  6
CONTINUOUS
 10
114.9089576703
 20
252.1903052067
  0
VERTEX
  8
0
 62
7
  6
CONTINUOUS
 10
114.9012464162
 20
252.1513815146
  0
VERTEX
  8
0
 62
7
  6
CONTINUOUS
 10
114.8945947445
 20
252.1121135039
  0
VERTEX
  8
0
 62
7
  6
CONTINUOUS
 10
114.8891610766
 20
252.0727345654
  0
VERTEX
  8
0
 62
7
  6
CONTINUOUS
 10
114.8851041375
 20
252.0335334881
  0
VERTEX
  8
0
 62
7
  6
CONTINUOUS
 10
114.882575482
 20
251.9949762114
  0
VERTEX
  8
0
 62
7
  6
CONTINUOUS
 10
114.8816759867
 20
251.9561198424
  0
SEQEND
  0
POLYLINE
  8
0
 62
7
  6
CONTINUOUS
 66
1
 70
0
  0
VERTEX
  8
0
 62
7
  6
CONTINUOUS
 10
99.9973769148
 20
253.3921991398
  0
VERTEX
  8
0
 62
7
  6
CONTINUOUS
 10
99.9478849089
 20
253.3484012461
  0
VERTEX
  8
0
 62
7
  6
CONTINUOUS
 10
99.9056860778
 20
253.3103182233
  0
SEQEND
  0
LINE
  8
0
 62
7
  6
CONTINUOUS
 10
100.0390153117
 20
253.4283244138
 11
99.9973769148
 21
253.3921991398
  0
POLYLINE
  8
0
 62
7
  6
CONTINUOUS
 66
1
 70
0
  0
VERTEX
  8
0
 62
7
  6
CONTINUOUS
 10
149.1356466644
 20
251.956119845
  0
VERTEX
  8
0
 62
7
  6
CONTINUOUS
 10
149.1346666311
 20
251.9967157803
  0
VERTEX
  8
0
 62
7
  6
CONTINUOUS
 10
149.1319565382
 20
252.0365484894
  0
VERTEX
  8
0
 62
7
  6
CONTINUOUS
 10
149.1276491193
 20
252.0768853148
  0
VERTEX
  8
0
 62
7
  6
CONTINUOUS
 10
149.1219602467
 20
252.1170268587
  0
VERTEX
  8
0
 62
7
  6
CONTINUOUS
 10
149.1151173203
 20
252.1565361557
  0
VERTEX
  8
0
 62
7
  6
CONTINUOUS
 10
149.1072916806
 20
252.1953326629
  0
VERTEX
  8
0
 62
7
  6
CONTINUOUS
 10
149.0986090945
 20
252.2334496154
  0
VERTEX
  8
0
 62
7
  6
CONTINUOUS
 10
149.0891723829
 20
252.2709141569
  0
VERTEX
  8
0
 62
7
  6
CONTINUOUS
 10
149.0790685211
 20
252.3077341059
  0
VERTEX
  8
0
 62
7
  6
CONTINUOUS
 10
149.0683679138
 20
252.3439298147
  0
VERTEX
  8
0
 62
7
  6
CONTINUOUS
 10
149.0571097777
 20
252.37958523
  0
VERTEX
  8
0
 62
7
  6
CONTINUOUS
 10
149.0453109824
 20
252.4147986916
  0
VERTEX
  8
0
 62
7
  6
CONTINUOUS
 10
149.0329758939
 20
252.4496698326
  0
VERTEX
  8
0
 62
7
  6
CONTINUOUS
 10
149.0201124656
 20
252.4842567637
  0
VERTEX
  8
0
 62
7
  6
CONTINUOUS
 10
149.0067169912
 20
252.5186222615
  0
VERTEX
  8
0
 62
7
  6
CONTINUOUS
 10
148.9927850558
 20
252.5528175144
  0
VERTEX
  8
0
 62
7
  6
CONTINUOUS
 10
148.9783055653
 20
252.5868872737
  0
VERTEX
  8
0
 62
7
  6
CONTINUOUS
 10
148.9632660018
 20
252.6208723171
  0
VERTEX
  8
0
 62
7
  6
CONTINUOUS
 10
148.9476536316
 20
252.6547961992
  0
VERTEX
  8
0
 62
7
  6
CONTINUOUS
 10
148.9314520579
 20
252.6886859497
  0
VERTEX
  8
0
 62
7
  6
CONTINUOUS
 10
148.9146534142
 20
252.7225375903
  0
VERTEX
  8
0
 62
7
  6
CONTINUOUS
 10
148.8972658389
 20
252.7563156537
  0
VERTEX
  8
0
 62
7
  6
CONTINUOUS
 10
148.8793037975
 20
252.7899680517
  0
VERTEX
  8
0
 62
7
  6
CONTINUOUS
 10
148.8607794978
 20
252.823452083
  0
VERTEX
  8
0
 62
7
  6
CONTINUOUS
 10
148.841705407
 20
252.8567206191
  0
VERTEX
  8
0
 62
7
  6
CONTINUOUS
 10
148.8220915446
 20
252.889735025
  0
VERTEX
  8
0
 62
7
  6
CONTINUOUS
 10
148.8019356952
 20
252.9224721762
  0
VERTEX
  8
0
 62
7
  6
CONTINUOUS
 10
148.7812416435
 20
252.9548992245
  0
VERTEX
  8
0
 62
7
  6
CONTINUOUS
 10
148.760003134
 20
252.9869954637
  0
VERTEX
  8
0
 62
7
  6
CONTINUOUS
 10
148.7382221175
 20
253.0187238093
  0
VERTEX
  8
0
 62
7
  6
CONTINUOUS
 10
148.715893248
 20
253.0500578345
  0
VERTEX
  8
0
 62
7
  6
CONTINUOUS
 10
148.6930111519
 20
253.080964039
  0
VERTEX
  8
0
 62
7
  6
CONTINUOUS
 10
148.6695744423
 20
253.1114031691
  0
VERTEX
  8
0
 62
7
  6
CONTINUOUS
 10
148.6455442215
 20
253.141377969
  0
VERTEX
  8
0
 62
7
  6
CONTINUOUS
 10
148.6207640821
 20
253.1710167215
  0
VERTEX
  8
0
 62
7
  6
CONTINUOUS
 10
148.59503115
 20
253.2004678325
  0
VERTEX
  8
0
 62
7
  6
CONTINUOUS
 10
148.5681254852
 20
253.2298489663
  0
VERTEX
  8
0
 62
7
  6
CONTINUOUS
 10
148.5398282879
 20
253.259225757
  0
VERTEX
  8
0
 62
7
  6
CONTINUOUS
 10
148.5098924926
 20
253.2886370408
  0
VERTEX
  8
0
 62
7
  6
CONTINUOUS
 10
148.4866320034
 20
253.3103224656
  0
SEQEND
  0
LINE
  8
0
 62
7
  6
CONTINUOUS
 10
148.3856610192
 20
254.2070140329
 11
148.3856610192
 21
253.4002539848
  0
LINE
  8
0
 62
7
  6
CONTINUOUS
 10
149.135646656
 20
251.9561198424
 11
149.135646656
 21
240.9582080023
  0
LINE
  8
0
 62
7
  6
CONTINUOUS
 10
156.2316610192
 20
240.9582080023
 11
156.2316610192
 21
251.9561198424
  0
LINE
  8
0
 62
7
  6
CONTINUOUS
 10
156.9816610192
 20
254.2070154733
 11
156.9816610192
 21
253.4002624567
  0
POLYLINE
  8
0
 62
7
  6
CONTINUOUS
 66
1
 70
0
  0
VERTEX
  8
0
 62
7
  6
CONTINUOUS
 10
130.0306876234
 20
253.3103206665
  0
VERTEX
  8
0
 62
7
  6
CONTINUOUS
 10
130.0115180967
 20
253.2925220924
  0
VERTEX
  8
0
 62
7
  6
CONTINUOUS
 10
129.9858536459
 20
253.2676102602
  0
VERTEX
  8
0
 62
7
  6
CONTINUOUS
 10
129.9614008592
 20
253.2427088753
  0
VERTEX
  8
0
 62
7
  6
CONTINUOUS
 10
129.9380168253
 20
253.2178138071
  0
VERTEX
  8
0
 62
7
  6
CONTINUOUS
 10
129.9155726211
 20
253.1929071028
  0
VERTEX
  8
0
 62
7
  6
CONTINUOUS
 10
129.8939377965
 20
253.167943069
  0
VERTEX
  8
0
 62
7
  6
CONTINUOUS
 10
129.872988909
 20
253.1428561304
  0
VERTEX
  8
0
 62
7
  6
CONTINUOUS
 10
129.8526131819
 20
253.1175718616
  0
VERTEX
  8
0
 62
7
  6
CONTINUOUS
 10
129.8327044755
 20
253.0920048476
  0
VERTEX
  8
0
 62
7
  6
CONTINUOUS
 10
129.8132147975
 20
253.0661261369
  0
VERTEX
  8
0
 62
7
  6
CONTINUOUS
 10
129.7941301604
 20
253.0399452003
  0
VERTEX
  8
0
 62
7
  6
CONTINUOUS
 10
129.7754336962
 20
253.0134653071
  0
VERTEX
  8
0
 62
7
  6
CONTINUOUS
 10
129.7571071968
 20
252.9866811901
  0
VERTEX
  8
0
 62
7
  6
CONTINUOUS
 10
129.7391395849
 20
252.9595946184
  0
VERTEX
  8
0
 62
7
  6
CONTINUOUS
 10
129.7215156995
 20
252.9321991008
  0
VERTEX
  8
0
 62
7
  6
CONTINUOUS
 10
129.7042209616
 20
252.9044820478
  0
VERTEX
  8
0
 62
7
  6
CONTINUOUS
 10
129.6872465087
 20
252.8764376087
  0
VERTEX
  8
0
 62
7
  6
CONTINUOUS
 10
129.6705772432
 20
252.8480459637
  0
VERTEX
  8
0
 62
7
  6
CONTINUOUS
 10
129.6542048363
 20
252.819291543
  0
VERTEX
  8
0
 62
7
  6
CONTINUOUS
 10
129.6381291042
 20
252.7901724065
  0
VERTEX
  8
0
 62
7
  6
CONTINUOUS
 10
129.6223487965
 20
252.7606788892
  0
VERTEX
  8
0
 62
7
  6
CONTINUOUS
 10
129.6068703095
 20
252.7308134951
  0
VERTEX
  8
0
 62
7
  6
CONTINUOUS
 10
129.5916927949
 20
252.7005621502
  0
VERTEX
  8
0
 62
7
  6
CONTINUOUS
 10
129.576823003
 20
252.6699191871
  0
VERTEX
  8
0
 62
7
  6
CONTINUOUS
 10
129.5622630365
 20
252.6388684221
  0
VERTEX
  8
0
 62
7
  6
CONTINUOUS
 10
129.5480193
 20
252.6073923248
  0
VERTEX
  8
0
 62
7
  6
CONTINUOUS
 10
129.5340974626
 20
252.5754701081
  0
VERTEX
  8
0
 62
7
  6
CONTINUOUS
 10
129.5205051154
 20
252.5430711876
  0
VERTEX
  8
0
 62
7
  6
CONTINUOUS
 10
129.5072510119
 20
252.510163257
  0
VERTEX
  8
0
 62
7
  6
CONTINUOUS
 10
129.4943475413
 20
252.4767033622
  0
VERTEX
  8
0
 62
7
  6
CONTINUOUS
 10
129.4818164771
 20
252.4426644267
  0
VERTEX
  8
0
 62
7
  6
CONTINUOUS
 10
129.4696986397
 20
252.4080509736
  0
VERTEX
  8
0
 62
7
  6
CONTINUOUS
 10
129.4580304022
 20
252.3728443745
  0
VERTEX
  8
0
 62
7
  6
CONTINUOUS
 10
129.4468597704
 20
252.3370405997
  0
VERTEX
  8
0
 62
7
  6
CONTINUOUS
 10
129.4362347461
 20
252.3006037271
  0
VERTEX
  8
0
 62
7
  6
CONTINUOUS
 10
129.4262104959
 20
252.2634883506
  0
VERTEX
  8
0
 62
7
  6
CONTINUOUS
 10
129.4168640617
 20
252.2256731797
  0
VERTEX
  8
0
 62
7
  6
CONTINUOUS
 10
129.4083088872
 20
252.1872275365
  0
VERTEX
  8
0
 62
7
  6
CONTINUOUS
 10
129.4006767026
 20
252.1482690086
  0
VERTEX
  8
0
 62
7
  6
CONTINUOUS
 10
129.394112585
 20
252.1089569376
  0
VERTEX
  8
0
 62
7
  6
CONTINUOUS
 10
129.3887786122
 20
252.0695418356
  0
VERTEX
  8
0
 62
7
  6
CONTINUOUS
 10
129.3848354348
 20
252.0303191056
  0
VERTEX
  8
0
 62
7
  6
CONTINUOUS
 10
129.3824354758
 20
251.991769378
  0
VERTEX
  8
0
 62
7
  6
CONTINUOUS
 10
129.3816763024
 20
251.9561198424
  0
SEQEND
  0
POLYLINE
  8
0
 62
7
  6
CONTINUOUS
 66
1
 70
0
  0
VERTEX
  8
0
 62
7
  6
CONTINUOUS
 10
130.1217229654
 20
253.3916265172
  0
VERTEX
  8
0
 62
7
  6
CONTINUOUS
 10
130.0722319778
 20
253.3478171894
  0
VERTEX
  8
0
 62
7
  6
CONTINUOUS
 10
130.0306860796
 20
253.3103182283
  0
SEQEND
  0
POLYLINE
  8
0
 62
7
  6
CONTINUOUS
 66
1
 70
0
  0
VERTEX
  8
0
 62
7
  6
CONTINUOUS
 10
115.6223769148
 20
253.3921991398
  0
VERTEX
  8
0
 62
7
  6
CONTINUOUS
 10
115.5728849089
 20
253.3484012461
  0
VERTEX
  8
0
 62
7
  6
CONTINUOUS
 10
115.5306860778
 20
253.3103182233
  0
SEQEND
  0
LINE
  8
0
 62
7
  6
CONTINUOUS
 10
130.1640153123
 20
253.4283244144
 11
130.1217229654
 21
253.3916265172
  0
LINE
  8
0
 62
7
  6
CONTINUOUS
 10
115.6640153117
 20
253.4283244138
 11
115.6223769148
 21
253.3921991398
  0
POLYLINE
  8
0
 62
7
  6
CONTINUOUS
 66
1
 70
0
  0
VERTEX
  8
0
 62
7
  6
CONTINUOUS
 10
104.5660901043
 20
253.347817149
  0
VERTEX
  8
0
 62
7
  6
CONTINUOUS
 10
104.5165991181
 20
253.3916264758
  0
VERTEX
  8
0
 62
7
  6
CONTINUOUS
 10
104.4743067285
 20
253.4283244113
  0
SEQEND
  0
LINE
  8
0
 62
7
  6
CONTINUOUS
 10
104.6076359574
 20
253.3103182294
 11
104.5660901043
 21
253.347817149
  0
POLYLINE
  8
0
 62
7
  6
CONTINUOUS
 66
1
 70
0
  0
VERTEX
  8
0
 62
7
  6
CONTINUOUS
 10
162.2316610276
 20
251.956119845
  0
VERTEX
  8
0
 62
7
  6
CONTINUOUS
 10
162.2306809943
 20
251.9967157803
  0
VERTEX
  8
0
 62
7
  6
CONTINUOUS
 10
162.2279709013
 20
252.0365484894
  0
VERTEX
  8
0
 62
7
  6
CONTINUOUS
 10
162.2236634824
 20
252.0768853148
  0
VERTEX
  8
0
 62
7
  6
CONTINUOUS
 10
162.2179746099
 20
252.1170268587
  0
VERTEX
  8
0
 62
7
  6
CONTINUOUS
 10
162.2111316834
 20
252.1565361556
  0
VERTEX
  8
0
 62
7
  6
CONTINUOUS
 10
162.2033060437
 20
252.1953326628
  0
VERTEX
  8
0
 62
7
  6
CONTINUOUS
 10
162.1946234577
 20
252.2334496154
  0
VERTEX
  8
0
 62
7
  6
CONTINUOUS
 10
162.1851867461
 20
252.2709141568
  0
VERTEX
  8
0
 62
7
  6
CONTINUOUS
 10
162.1750828843
 20
252.3077341057
  0
VERTEX
  8
0
 62
7
  6
CONTINUOUS
 10
162.164382277
 20
252.3439298147
  0
VERTEX
  8
0
 62
7
  6
CONTINUOUS
 10
162.1531241409
 20
252.3795852299
  0
VERTEX
  8
0
 62
7
  6
CONTINUOUS
 10
162.1413253456
 20
252.4147986915
  0
VERTEX
  8
0
 62
7
  6
CONTINUOUS
 10
162.1289902571
 20
252.4496698325
  0
VERTEX
  8
0
 62
7
  6
CONTINUOUS
 10
162.1161268289
 20
252.4842567635
  0
VERTEX
  8
0
 62
7
  6
CONTINUOUS
 10
162.1027313544
 20
252.5186222616
  0
VERTEX
  8
0
 62
7
  6
CONTINUOUS
 10
162.088799419
 20
252.5528175142
  0
VERTEX
  8
0
 62
7
  6
CONTINUOUS
 10
162.0743199285
 20
252.5868872737
  0
VERTEX
  8
0
 62
7
  6
CONTINUOUS
 10
162.059280365
 20
252.6208723169
  0
VERTEX
  8
0
 62
7
  6
CONTINUOUS
 10
162.0436679948
 20
252.6547961991
  0
VERTEX
  8
0
 62
7
  6
CONTINUOUS
 10
162.0274664211
 20
252.6886859495
  0
VERTEX
  8
0
 62
7
  6
CONTINUOUS
 10
162.0106677774
 20
252.7225375902
  0
VERTEX
  8
0
 62
7
  6
CONTINUOUS
 10
161.9932802022
 20
252.7563156536
  0
VERTEX
  8
0
 62
7
  6
CONTINUOUS
 10
161.9753181607
 20
252.7899680517
  0
VERTEX
  8
0
 62
7
  6
CONTINUOUS
 10
161.9567938611
 20
252.8234520828
  0
VERTEX
  8
0
 62
7
  6
CONTINUOUS
 10
161.9377197702
 20
252.856720619
  0
VERTEX
  8
0
 62
7
  6
CONTINUOUS
 10
161.9181059079
 20
252.8897350248
  0
VERTEX
  8
0
 62
7
  6
CONTINUOUS
 10
161.8979500585
 20
252.9224721761
  0
VERTEX
  8
0
 62
7
  6
CONTINUOUS
 10
161.8772560068
 20
252.9548992243
  0
VERTEX
  8
0
 62
7
  6
CONTINUOUS
 10
161.8560174973
 20
252.9869954635
  0
VERTEX
  8
0
 62
7
  6
CONTINUOUS
 10
161.8342364807
 20
253.0187238092
  0
VERTEX
  8
0
 62
7
  6
CONTINUOUS
 10
161.8119076113
 20
253.0500578342
  0
VERTEX
  8
0
 62
7
  6
CONTINUOUS
 10
161.7890255152
 20
253.0809640389
  0
VERTEX
  8
0
 62
7
  6
CONTINUOUS
 10
161.7655888056
 20
253.111403169
  0
VERTEX
  8
0
 62
7
  6
CONTINUOUS
 10
161.7415585848
 20
253.1413779688
  0
VERTEX
  8
0
 62
7
  6
CONTINUOUS
 10
161.7167784452
 20
253.1710167215
  0
VERTEX
  8
0
 62
7
  6
CONTINUOUS
 10
161.6910455132
 20
253.2004678323
  0
VERTEX
  8
0
 62
7
  6
CONTINUOUS
 10
161.6641398485
 20
253.2298489662
  0
VERTEX
  8
0
 62
7
  6
CONTINUOUS
 10
161.635842651
 20
253.259225757
  0
VERTEX
  8
0
 62
7
  6
CONTINUOUS
 10
161.6059068558
 20
253.2886370407
  0
VERTEX
  8
0
 62
7
  6
CONTINUOUS
 10
161.5826463666
 20
253.3103224655
  0
SEQEND
  0
LINE
  8
0
 62
7
  6
CONTINUOUS
 10
161.4816610192
 20
254.2070154733
 11
161.4816610192
 21
253.4002664802
  0
LINE
  8
0
 62
7
  6
CONTINUOUS
 10
162.2316610192
 20
251.9561198424
 11
162.2316610192
 21
240.9582080023
  0
LINE
  8
0
 62
7
  6
CONTINUOUS
 10
168.9316610192
 20
240.9582080023
 11
168.9316610192
 21
251.9561198424
  0
LINE
  8
0
 62
7
  6
CONTINUOUS
 10
169.6816610192
 20
254.2070154733
 11
169.6816610192
 21
253.4002624567
  0
LINE
  8
0
 62
7
  6
CONTINUOUS
 10
174.1816610192
 20
254.2070154733
 11
174.1816610192
 21
253.4002664802
  0
LINE
  8
0
 62
7
  6
CONTINUOUS
 10
174.9316610192
 20
251.9561052244
 11
174.9316610192
 21
240.9582080023
  0
POLYLINE
  8
0
 62
7
  6
CONTINUOUS
 66
1
 70
0
  0
VERTEX
  8
0
 62
7
  6
CONTINUOUS
 10
143.7846876234
 20
253.3103206665
  0
VERTEX
  8
0
 62
7
  6
CONTINUOUS
 10
143.7655180967
 20
253.2925220924
  0
VERTEX
  8
0
 62
7
  6
CONTINUOUS
 10
143.7398536459
 20
253.2676102602
  0
VERTEX
  8
0
 62
7
  6
CONTINUOUS
 10
143.7154008592
 20
253.2427088753
  0
VERTEX
  8
0
 62
7
  6
CONTINUOUS
 10
143.6920168253
 20
253.2178138071
  0
VERTEX
  8
0
 62
7
  6
CONTINUOUS
 10
143.6695726211
 20
253.1929071028
  0
VERTEX
  8
0
 62
7
  6
CONTINUOUS
 10
143.6479377965
 20
253.167943069
  0
VERTEX
  8
0
 62
7
  6
CONTINUOUS
 10
143.626988909
 20
253.1428561304
  0
VERTEX
  8
0
 62
7
  6
CONTINUOUS
 10
143.6066131819
 20
253.1175718616
  0
VERTEX
  8
0
 62
7
  6
CONTINUOUS
 10
143.5867044755
 20
253.0920048476
  0
VERTEX
  8
0
 62
7
  6
CONTINUOUS
 10
143.5672147975
 20
253.0661261369
  0
VERTEX
  8
0
 62
7
  6
CONTINUOUS
 10
143.5481301604
 20
253.0399452003
  0
VERTEX
  8
0
 62
7
  6
CONTINUOUS
 10
143.5294336962
 20
253.0134653071
  0
VERTEX
  8
0
 62
7
  6
CONTINUOUS
 10
143.5111071968
 20
252.9866811901
  0
VERTEX
  8
0
 62
7
  6
CONTINUOUS
 10
143.4931395849
 20
252.9595946184
  0
VERTEX
  8
0
 62
7
  6
CONTINUOUS
 10
143.4755156995
 20
252.9321991008
  0
VERTEX
  8
0
 62
7
  6
CONTINUOUS
 10
143.4582209616
 20
252.9044820478
  0
VERTEX
  8
0
 62
7
  6
CONTINUOUS
 10
143.4412465087
 20
252.8764376087
  0
VERTEX
  8
0
 62
7
  6
CONTINUOUS
 10
143.4245772432
 20
252.8480459637
  0
VERTEX
  8
0
 62
7
  6
CONTINUOUS
 10
143.4082048363
 20
252.819291543
  0
VERTEX
  8
0
 62
7
  6
CONTINUOUS
 10
143.3921291042
 20
252.7901724065
  0
VERTEX
  8
0
 62
7
  6
CONTINUOUS
 10
143.3763487965
 20
252.7606788892
  0
VERTEX
  8
0
 62
7
  6
CONTINUOUS
 10
143.3608703095
 20
252.7308134951
  0
VERTEX
  8
0
 62
7
  6
CONTINUOUS
 10
143.3456927949
 20
252.7005621502
  0
VERTEX
  8
0
 62
7
  6
CONTINUOUS
 10
143.330823003
 20
252.6699191871
  0
VERTEX
  8
0
 62
7
  6
CONTINUOUS
 10
143.3162630365
 20
252.6388684221
  0
VERTEX
  8
0
 62
7
  6
CONTINUOUS
 10
143.3020193
 20
252.6073923248
  0
VERTEX
  8
0
 62
7
  6
CONTINUOUS
 10
143.2880974626
 20
252.5754701081
  0
VERTEX
  8
0
 62
7
  6
CONTINUOUS
 10
143.2745051154
 20
252.5430711876
  0
VERTEX
  8
0
 62
7
  6
CONTINUOUS
 10
143.2612510119
 20
252.510163257
  0
VERTEX
  8
0
 62
7
  6
CONTINUOUS
 10
143.2483475413
 20
252.4767033622
  0
VERTEX
  8
0
 62
7
  6
CONTINUOUS
 10
143.2358164771
 20
252.4426644267
  0
VERTEX
  8
0
 62
7
  6
CONTINUOUS
 10
143.2236986397
 20
252.4080509736
  0
VERTEX
  8
0
 62
7
  6
CONTINUOUS
 10
143.2120304022
 20
252.3728443745
  0
VERTEX
  8
0
 62
7
  6
CONTINUOUS
 10
143.2008597704
 20
252.3370405997
  0
VERTEX
  8
0
 62
7
  6
CONTINUOUS
 10
143.1902347461
 20
252.3006037271
  0
VERTEX
  8
0
 62
7
  6
CONTINUOUS
 10
143.1802104959
 20
252.2634883506
  0
VERTEX
  8
0
 62
7
  6
CONTINUOUS
 10
143.1708640617
 20
252.2256731797
  0
VERTEX
  8
0
 62
7
  6
CONTINUOUS
 10
143.1623088872
 20
252.1872275365
  0
VERTEX
  8
0
 62
7
  6
CONTINUOUS
 10
143.1546767026
 20
252.1482690086
  0
VERTEX
  8
0
 62
7
  6
CONTINUOUS
 10
143.148112585
 20
252.1089569376
  0
VERTEX
  8
0
 62
7
  6
CONTINUOUS
 10
143.1427786122
 20
252.0695418356
  0
VERTEX
  8
0
 62
7
  6
CONTINUOUS
 10
143.1388354348
 20
252.0303191056
  0
VERTEX
  8
0
 62
7
  6
CONTINUOUS
 10
143.1364354758
 20
251.991769378
  0
VERTEX
  8
0
 62
7
  6
CONTINUOUS
 10
143.1356763024
 20
251.9561198424
  0
SEQEND
  0
POLYLINE
  8
0
 62
7
  6
CONTINUOUS
 66
1
 70
0
  0
VERTEX
  8
0
 62
7
  6
CONTINUOUS
 10
156.8806732607
 20
253.3103206672
  0
VERTEX
  8
0
 62
7
  6
CONTINUOUS
 10
156.8615037334
 20
253.2925220927
  0
VERTEX
  8
0
 62
7
  6
CONTINUOUS
 10
156.8358392816
 20
253.267610259
  0
VERTEX
  8
0
 62
7
  6
CONTINUOUS
 10
156.8113864967
 20
253.2427088759
  0
VERTEX
  8
0
 62
7
  6
CONTINUOUS
 10
156.7880024624
 20
253.2178138076
  0
VERTEX
  8
0
 62
7
  6
CONTINUOUS
 10
156.7655582562
 20
253.1929071008
  0
VERTEX
  8
0
 62
7
  6
CONTINUOUS
 10
156.7439234336
 20
253.1679430692
  0
VERTEX
  8
0
 62
7
  6
CONTINUOUS
 10
156.7229745461
 20
253.1428561309
  0
VERTEX
  8
0
 62
7
  6
CONTINUOUS
 10
156.7025988174
 20
253.11757186
  0
VERTEX
  8
0
 62
7
  6
CONTINUOUS
 10
156.6826901124
 20
253.0920048473
  0
VERTEX
  8
0
 62
7
  6
CONTINUOUS
 10
156.6632004345
 20
253.0661261372
  0
VERTEX
  8
0
 62
7
  6
CONTINUOUS
 10
156.6441157962
 20
253.0399451989
  0
VERTEX
  8
0
 62
7
  6
CONTINUOUS
 10
156.625419333
 20
253.0134653068
  0
VERTEX
  8
0
 62
7
  6
CONTINUOUS
 10
156.6070928337
 20
252.9866811904
  0
VERTEX
  8
0
 62
7
  6
CONTINUOUS
 10
156.5891252207
 20
252.9595946168
  0
VERTEX
  8
0
 62
7
  6
CONTINUOUS
 10
156.5715013365
 20
252.9321991008
  0
VERTEX
  8
0
 62
7
  6
CONTINUOUS
 10
156.5542065985
 20
252.904482048
  0
VERTEX
  8
0
 62
7
  6
CONTINUOUS
 10
156.537232145
 20
252.8764376078
  0
VERTEX
  8
0
 62
7
  6
CONTINUOUS
 10
156.5205628803
 20
252.8480459641
  0
VERTEX
  8
0
 62
7
  6
CONTINUOUS
 10
156.5041904728
 20
252.8192915426
  0
VERTEX
  8
0
 62
7
  6
CONTINUOUS
 10
156.4881147412
 20
252.7901724066
  0
VERTEX
  8
0
 62
7
  6
CONTINUOUS
 10
156.4723344334
 20
252.7606788896
  0
VERTEX
  8
0
 62
7
  6
CONTINUOUS
 10
156.4568559463
 20
252.7308134948
  0
VERTEX
  8
0
 62
7
  6
CONTINUOUS
 10
156.4416784321
 20
252.7005621511
  0
VERTEX
  8
0
 62
7
  6
CONTINUOUS
 10
156.4268086395
 20
252.6699191862
  0
VERTEX
  8
0
 62
7
  6
CONTINUOUS
 10
156.4122486738
 20
252.6388684232
  0
VERTEX
  8
0
 62
7
  6
CONTINUOUS
 10
156.3980049365
 20
252.6073923239
  0
VERTEX
  8
0
 62
7
  6
CONTINUOUS
 10
156.3840831
 20
252.5754701094
  0
VERTEX
  8
0
 62
7
  6
CONTINUOUS
 10
156.3704907518
 20
252.5430711865
  0
VERTEX
  8
0
 62
7
  6
CONTINUOUS
 10
156.3572366493
 20
252.5101632585
  0
VERTEX
  8
0
 62
7
  6
CONTINUOUS
 10
156.3443331778
 20
252.4767033612
  0
VERTEX
  8
0
 62
7
  6
CONTINUOUS
 10
156.3318021144
 20
252.4426644283
  0
VERTEX
  8
0
 62
7
  6
CONTINUOUS
 10
156.3196842769
 20
252.4080509742
  0
VERTEX
  8
0
 62
7
  6
CONTINUOUS
 10
156.3080160392
 20
252.3728443754
  0
VERTEX
  8
0
 62
7
  6
CONTINUOUS
 10
156.2968454078
 20
252.3370406017
  0
VERTEX
  8
0
 62
7
  6
CONTINUOUS
 10
156.2862203832
 20
252.3006037274
  0
VERTEX
  8
0
 62
7
  6
CONTINUOUS
 10
156.2761961329
 20
252.2634883516
  0
VERTEX
  8
0
 62
7
  6
CONTINUOUS
 10
156.2668496989
 20
252.2256731816
  0
VERTEX
  8
0
 62
7
  6
CONTINUOUS
 10
156.2582945245
 20
252.1872275379
  0
VERTEX
  8
0
 62
7
  6
CONTINUOUS
 10
156.2506623396
 20
252.1482690089
  0
VERTEX
  8
0
 62
7
  6
CONTINUOUS
 10
156.2440982218
 20
252.1089569385
  0
VERTEX
  8
0
 62
7
  6
CONTINUOUS
 10
156.2387642491
 20
252.0695418367
  0
VERTEX
  8
0
 62
7
  6
CONTINUOUS
 10
156.2348210718
 20
252.0303191065
  0
VERTEX
  8
0
 62
7
  6
CONTINUOUS
 10
156.2324211127
 20
251.991769379
  0
VERTEX
  8
0
 62
7
  6
CONTINUOUS
 10
156.2316619392
 20
251.9561198424
  0
SEQEND
  0
POLYLINE
  8
0
 62
7
  6
CONTINUOUS
 66
1
 70
0
  0
VERTEX
  8
0
 62
7
  6
CONTINUOUS
 10
143.8757229654
 20
253.3916265172
  0
VERTEX
  8
0
 62
7
  6
CONTINUOUS
 10
143.8262319778
 20
253.3478171894
  0
VERTEX
  8
0
 62
7
  6
CONTINUOUS
 10
143.7846860796
 20
253.3103182283
  0
SEQEND
  0
LINE
  8
0
 62
7
  6
CONTINUOUS
 10
143.9180153123
 20
253.4283244144
 11
143.8757229654
 21
253.3916265172
  0
POLYLINE
  8
0
 62
7
  6
CONTINUOUS
 66
1
 70
0
  0
VERTEX
  8
0
 62
7
  6
CONTINUOUS
 10
120.1904371376
 20
253.3484012399
  0
VERTEX
  8
0
 62
7
  6
CONTINUOUS
 10
120.1409451317
 20
253.3921991333
  0
VERTEX
  8
0
 62
7
  6
CONTINUOUS
 10
120.0993067261
 20
253.4283244145
  0
SEQEND
  0
LINE
  8
0
 62
7
  6
CONTINUOUS
 10
120.23263596
 20
253.310318225
 11
120.1904371376
 21
253.3484012399
  0
POLYLINE
  8
AXES
 62
7
  6
CONTINUOUS
 66
1
 70
0
  0
VERTEX
  8
AXES
 62
7
  6
CONTINUOUS
 10
122.1816610134
 20
244.1082905267
  0
VERTEX
  8
AXES
 62
7
  6
CONTINUOUS
 10
122.1772255811
 20
244.1125690422
  0
VERTEX
  8
AXES
 62
7
  6
CONTINUOUS
 10
122.1603996051
 20
244.1258532174
  0
VERTEX
  8
AXES
 62
7
  6
CONTINUOUS
 10
122.1306350739
 20
244.1482057182
  0
VERTEX
  8
AXES
 62
7
  6
CONTINUOUS
 10
122.0875958957
 20
244.1795779638
  0
VERTEX
  8
AXES
 62
7
  6
CONTINUOUS
 10
122.0302919186
 20
244.2202092256
  0
VERTEX
  8
AXES
 62
7
  6
CONTINUOUS
 10
121.9578993613
 20
244.269946562
  0
VERTEX
  8
AXES
 62
7
  6
CONTINUOUS
 10
121.8699035239
 20
244.3280746103
  0
VERTEX
  8
AXES
 62
7
  6
CONTINUOUS
 10
121.7672293966
 20
244.3925393678
  0
VERTEX
  8
AXES
 62
7
  6
CONTINUOUS
 10
121.6521821584
 20
244.4601340338
  0
VERTEX
  8
AXES
 62
7
  6
CONTINUOUS
 10
121.5280131439
 20
244.5270253665
  0
VERTEX
  8
AXES
 62
7
  6
CONTINUOUS
 10
121.3984527749
 20
244.5893552299
  0
VERTEX
  8
AXES
 62
7
  6
CONTINUOUS
 10
121.2657599421
 20
244.6443961822
  0
VERTEX
  8
AXES
 62
7
  6
CONTINUOUS
 10
121.1322167011
 20
244.6898631583
  0
VERTEX
  8
AXES
 62
7
  6
CONTINUOUS
 10
120.99982978
 20
244.7242280007
  0
SEQEND
  0
POLYLINE
  8
0
 62
7
  6
CONTINUOUS
 66
1
 70
0
  0
VERTEX
  8
0
 62
7
  6
CONTINUOUS
 10
174.9316610276
 20
251.956119845
  0
VERTEX
  8
0
 62
7
  6
CONTINUOUS
 10
174.9306809943
 20
251.9967157803
  0
VERTEX
  8
0
 62
7
  6
CONTINUOUS
 10
174.9279709013
 20
252.0365484894
  0
VERTEX
  8
0
 62
7
  6
CONTINUOUS
 10
174.9236634824
 20
252.0768853148
  0
VERTEX
  8
0
 62
7
  6
CONTINUOUS
 10
174.9179746099
 20
252.1170268587
  0
VERTEX
  8
0
 62
7
  6
CONTINUOUS
 10
174.9111316834
 20
252.1565361556
  0
VERTEX
  8
0
 62
7
  6
CONTINUOUS
 10
174.9033060437
 20
252.1953326628
  0
VERTEX
  8
0
 62
7
  6
CONTINUOUS
 10
174.8946234577
 20
252.2334496154
  0
VERTEX
  8
0
 62
7
  6
CONTINUOUS
 10
174.8851867461
 20
252.2709141568
  0
VERTEX
  8
0
 62
7
  6
CONTINUOUS
 10
174.8750828843
 20
252.3077341057
  0
VERTEX
  8
0
 62
7
  6
CONTINUOUS
 10
174.864382277
 20
252.3439298147
  0
VERTEX
  8
0
 62
7
  6
CONTINUOUS
 10
174.8531241409
 20
252.3795852299
  0
VERTEX
  8
0
 62
7
  6
CONTINUOUS
 10
174.8413253456
 20
252.4147986915
  0
VERTEX
  8
0
 62
7
  6
CONTINUOUS
 10
174.8289902571
 20
252.4496698325
  0
VERTEX
  8
0
 62
7
  6
CONTINUOUS
 10
174.8161268289
 20
252.4842567635
  0
VERTEX
  8
0
 62
7
  6
CONTINUOUS
 10
174.8027313544
 20
252.5186222616
  0
VERTEX
  8
0
 62
7
  6
CONTINUOUS
 10
174.788799419
 20
252.5528175142
  0
VERTEX
  8
0
 62
7
  6
CONTINUOUS
 10
174.7743199285
 20
252.5868872737
  0
VERTEX
  8
0
 62
7
  6
CONTINUOUS
 10
174.759280365
 20
252.6208723169
  0
VERTEX
  8
0
 62
7
  6
CONTINUOUS
 10
174.7436679948
 20
252.6547961991
  0
VERTEX
  8
0
 62
7
  6
CONTINUOUS
 10
174.7274664211
 20
252.6886859495
  0
VERTEX
  8
0
 62
7
  6
CONTINUOUS
 10
174.7106677774
 20
252.7225375902
  0
VERTEX
  8
0
 62
7
  6
CONTINUOUS
 10
174.6932802022
 20
252.7563156536
  0
VERTEX
  8
0
 62
7
  6
CONTINUOUS
 10
174.6753181607
 20
252.7899680517
  0
VERTEX
  8
0
 62
7
  6
CONTINUOUS
 10
174.6567938611
 20
252.8234520828
  0
VERTEX
  8
0
 62
7
  6
CONTINUOUS
 10
174.6377197702
 20
252.856720619
  0
VERTEX
  8
0
 62
7
  6
CONTINUOUS
 10
174.6181059079
 20
252.8897350248
  0
VERTEX
  8
0
 62
7
  6
CONTINUOUS
 10
174.5979500585
 20
252.9224721761
  0
VERTEX
  8
0
 62
7
  6
CONTINUOUS
 10
174.5772560068
 20
252.9548992243
  0
VERTEX
  8
0
 62
7
  6
CONTINUOUS
 10
174.5560174973
 20
252.9869954635
  0
VERTEX
  8
0
 62
7
  6
CONTINUOUS
 10
174.5342364807
 20
253.0187238092
  0
VERTEX
  8
0
 62
7
  6
CONTINUOUS
 10
174.5119076113
 20
253.0500578342
  0
VERTEX
  8
0
 62
7
  6
CONTINUOUS
 10
174.4890255152
 20
253.0809640389
  0
VERTEX
  8
0
 62
7
  6
CONTINUOUS
 10
174.4655888056
 20
253.111403169
  0
VERTEX
  8
0
 62
7
  6
CONTINUOUS
 10
174.4415585848
 20
253.1413779688
  0
VERTEX
  8
0
 62
7
  6
CONTINUOUS
 10
174.4167784452
 20
253.1710167215
  0
VERTEX
  8
0
 62
7
  6
CONTINUOUS
 10
174.3910455132
 20
253.2004678323
  0
VERTEX
  8
0
 62
7
  6
CONTINUOUS
 10
174.3641398485
 20
253.2298489662
  0
VERTEX
  8
0
 62
7
  6
CONTINUOUS
 10
174.335842651
 20
253.259225757
  0
VERTEX
  8
0
 62
7
  6
CONTINUOUS
 10
174.3059068558
 20
253.2886370407
  0
VERTEX
  8
0
 62
7
  6
CONTINUOUS
 10
174.2826463666
 20
253.3103224655
  0
SEQEND
  0
POLYLINE
  8
0
 62
7
  6
CONTINUOUS
 66
1
 70
0
  0
VERTEX
  8
0
 62
7
  6
CONTINUOUS
 10
187.6316610276
 20
251.956119845
  0
VERTEX
  8
0
 62
7
  6
CONTINUOUS
 10
187.6306809943
 20
251.9967157803
  0
VERTEX
  8
0
 62
7
  6
CONTINUOUS
 10
187.6279709013
 20
252.0365484894
  0
VERTEX
  8
0
 62
7
  6
CONTINUOUS
 10
187.6236634824
 20
252.0768853148
  0
VERTEX
  8
0
 62
7
  6
CONTINUOUS
 10
187.6179746099
 20
252.1170268587
  0
VERTEX
  8
0
 62
7
  6
CONTINUOUS
 10
187.6111316834
 20
252.1565361556
  0
VERTEX
  8
0
 62
7
  6
CONTINUOUS
 10
187.6033060437
 20
252.1953326628
  0
VERTEX
  8
0
 62
7
  6
CONTINUOUS
 10
187.5946234577
 20
252.2334496154
  0
VERTEX
  8
0
 62
7
  6
CONTINUOUS
 10
187.5851867461
 20
252.2709141568
  0
VERTEX
  8
0
 62
7
  6
CONTINUOUS
 10
187.5750828843
 20
252.3077341057
  0
VERTEX
  8
0
 62
7
  6
CONTINUOUS
 10
187.564382277
 20
252.3439298147
  0
VERTEX
  8
0
 62
7
  6
CONTINUOUS
 10
187.5531241409
 20
252.3795852299
  0
VERTEX
  8
0
 62
7
  6
CONTINUOUS
 10
187.5413253456
 20
252.4147986915
  0
VERTEX
  8
0
 62
7
  6
CONTINUOUS
 10
187.5289902571
 20
252.4496698325
  0
VERTEX
  8
0
 62
7
  6
CONTINUOUS
 10
187.5161268289
 20
252.4842567635
  0
VERTEX
  8
0
 62
7
  6
CONTINUOUS
 10
187.5027313544
 20
252.5186222616
  0
VERTEX
  8
0
 62
7
  6
CONTINUOUS
 10
187.488799419
 20
252.5528175142
  0
VERTEX
  8
0
 62
7
  6
CONTINUOUS
 10
187.4743199285
 20
252.5868872737
  0
VERTEX
  8
0
 62
7
  6
CONTINUOUS
 10
187.459280365
 20
252.6208723169
  0
VERTEX
  8
0
 62
7
  6
CONTINUOUS
 10
187.4436679948
 20
252.6547961991
  0
VERTEX
  8
0
 62
7
  6
CONTINUOUS
 10
187.4274664211
 20
252.6886859495
  0
VERTEX
  8
0
 62
7
  6
CONTINUOUS
 10
187.4106677774
 20
252.7225375902
  0
VERTEX
  8
0
 62
7
  6
CONTINUOUS
 10
187.3932802022
 20
252.7563156536
  0
VERTEX
  8
0
 62
7
  6
CONTINUOUS
 10
187.3753181607
 20
252.7899680517
  0
VERTEX
  8
0
 62
7
  6
CONTINUOUS
 10
187.3567938611
 20
252.8234520828
  0
VERTEX
  8
0
 62
7
  6
CONTINUOUS
 10
187.3377197702
 20
252.856720619
  0
VERTEX
  8
0
 62
7
  6
CONTINUOUS
 10
187.3181059079
 20
252.8897350248
  0
VERTEX
  8
0
 62
7
  6
CONTINUOUS
 10
187.2979500585
 20
252.9224721761
  0
VERTEX
  8
0
 62
7
  6
CONTINUOUS
 10
187.2772560068
 20
252.9548992243
  0
VERTEX
  8
0
 62
7
  6
CONTINUOUS
 10
187.2560174973
 20
252.9869954635
  0
VERTEX
  8
0
 62
7
  6
CONTINUOUS
 10
187.2342364807
 20
253.0187238092
  0
VERTEX
  8
0
 62
7
  6
CONTINUOUS
 10
187.2119076113
 20
253.0500578342
  0
VERTEX
  8
0
 62
7
  6
CONTINUOUS
 10
187.1890255152
 20
253.0809640389
  0
VERTEX
  8
0
 62
7
  6
CONTINUOUS
 10
187.1655888056
 20
253.111403169
  0
VERTEX
  8
0
 62
7
  6
CONTINUOUS
 10
187.1415585848
 20
253.1413779688
  0
VERTEX
  8
0
 62
7
  6
CONTINUOUS
 10
187.1167784452
 20
253.1710167215
  0
VERTEX
  8
0
 62
7
  6
CONTINUOUS
 10
187.0910455132
 20
253.2004678323
  0
VERTEX
  8
0
 62
7
  6
CONTINUOUS
 10
187.0641398485
 20
253.2298489662
  0
VERTEX
  8
0
 62
7
  6
CONTINUOUS
 10
187.035842651
 20
253.259225757
  0
VERTEX
  8
0
 62
7
  6
CONTINUOUS
 10
187.0059068558
 20
253.2886370407
  0
VERTEX
  8
0
 62
7
  6
CONTINUOUS
 10
186.9826463666
 20
253.3103224655
  0
SEQEND
  0
LINE
  8
0
 62
7
  6
CONTINUOUS
 10
181.6316610192
 20
240.9582080023
 11
181.6316610192
 21
251.9561198424
  0
LINE
  8
0
 62
7
  6
CONTINUOUS
 10
182.3816610192
 20
254.2070154733
 11
182.3816610192
 21
253.4002624567
  0
LINE
  8
0
 62
7
  6
CONTINUOUS
 10
186.8816610192
 20
254.2070154733
 11
186.8816610192
 21
253.4002664802
  0
LINE
  8
0
 62
7
  6
CONTINUOUS
 10
187.6316610192
 20
251.9561052244
 11
187.6316610192
 21
240.9582080023
  0
POLYLINE
  8
0
 62
7
  6
CONTINUOUS
 66
1
 70
0
  0
VERTEX
  8
0
 62
7
  6
CONTINUOUS
 10
169.5806732607
 20
253.3103206672
  0
VERTEX
  8
0
 62
7
  6
CONTINUOUS
 10
169.5615037334
 20
253.2925220927
  0
VERTEX
  8
0
 62
7
  6
CONTINUOUS
 10
169.5358392816
 20
253.267610259
  0
VERTEX
  8
0
 62
7
  6
CONTINUOUS
 10
169.5113864967
 20
253.2427088759
  0
VERTEX
  8
0
 62
7
  6
CONTINUOUS
 10
169.4880024624
 20
253.2178138076
  0
VERTEX
  8
0
 62
7
  6
CONTINUOUS
 10
169.4655582562
 20
253.1929071008
  0
VERTEX
  8
0
 62
7
  6
CONTINUOUS
 10
169.4439234336
 20
253.1679430692
  0
VERTEX
  8
0
 62
7
  6
CONTINUOUS
 10
169.4229745461
 20
253.1428561309
  0
VERTEX
  8
0
 62
7
  6
CONTINUOUS
 10
169.4025988174
 20
253.11757186
  0
VERTEX
  8
0
 62
7
  6
CONTINUOUS
 10
169.3826901124
 20
253.0920048473
  0
VERTEX
  8
0
 62
7
  6
CONTINUOUS
 10
169.3632004345
 20
253.0661261372
  0
VERTEX
  8
0
 62
7
  6
CONTINUOUS
 10
169.3441157962
 20
253.0399451989
  0
VERTEX
  8
0
 62
7
  6
CONTINUOUS
 10
169.325419333
 20
253.0134653068
  0
VERTEX
  8
0
 62
7
  6
CONTINUOUS
 10
169.3070928337
 20
252.9866811904
  0
VERTEX
  8
0
 62
7
  6
CONTINUOUS
 10
169.2891252207
 20
252.9595946168
  0
VERTEX
  8
0
 62
7
  6
CONTINUOUS
 10
169.2715013365
 20
252.9321991008
  0
VERTEX
  8
0
 62
7
  6
CONTINUOUS
 10
169.2542065985
 20
252.904482048
  0
VERTEX
  8
0
 62
7
  6
CONTINUOUS
 10
169.237232145
 20
252.8764376078
  0
VERTEX
  8
0
 62
7
  6
CONTINUOUS
 10
169.2205628803
 20
252.8480459641
  0
VERTEX
  8
0
 62
7
  6
CONTINUOUS
 10
169.2041904728
 20
252.8192915426
  0
VERTEX
  8
0
 62
7
  6
CONTINUOUS
 10
169.1881147412
 20
252.7901724066
  0
VERTEX
  8
0
 62
7
  6
CONTINUOUS
 10
169.1723344334
 20
252.7606788896
  0
VERTEX
  8
0
 62
7
  6
CONTINUOUS
 10
169.1568559463
 20
252.7308134948
  0
VERTEX
  8
0
 62
7
  6
CONTINUOUS
 10
169.1416784321
 20
252.7005621511
  0
VERTEX
  8
0
 62
7
  6
CONTINUOUS
 10
169.1268086395
 20
252.6699191862
  0
VERTEX
  8
0
 62
7
  6
CONTINUOUS
 10
169.1122486738
 20
252.6388684232
  0
VERTEX
  8
0
 62
7
  6
CONTINUOUS
 10
169.0980049365
 20
252.6073923239
  0
VERTEX
  8
0
 62
7
  6
CONTINUOUS
 10
169.0840831
 20
252.5754701094
  0
VERTEX
  8
0
 62
7
  6
CONTINUOUS
 10
169.0704907518
 20
252.5430711865
  0
VERTEX
  8
0
 62
7
  6
CONTINUOUS
 10
169.0572366493
 20
252.5101632585
  0
VERTEX
  8
0
 62
7
  6
CONTINUOUS
 10
169.0443331778
 20
252.4767033612
  0
VERTEX
  8
0
 62
7
  6
CONTINUOUS
 10
169.0318021144
 20
252.4426644283
  0
VERTEX
  8
0
 62
7
  6
CONTINUOUS
 10
169.0196842769
 20
252.4080509742
  0
VERTEX
  8
0
 62
7
  6
CONTINUOUS
 10
169.0080160392
 20
252.3728443754
  0
VERTEX
  8
0
 62
7
  6
CONTINUOUS
 10
168.9968454078
 20
252.3370406017
  0
VERTEX
  8
0
 62
7
  6
CONTINUOUS
 10
168.9862203832
 20
252.3006037274
  0
VERTEX
  8
0
 62
7
  6
CONTINUOUS
 10
168.9761961329
 20
252.2634883516
  0
VERTEX
  8
0
 62
7
  6
CONTINUOUS
 10
168.9668496989
 20
252.2256731816
  0
VERTEX
  8
0
 62
7
  6
CONTINUOUS
 10
168.9582945245
 20
252.1872275379
  0
VERTEX
  8
0
 62
7
  6
CONTINUOUS
 10
168.9506623396
 20
252.1482690089
  0
VERTEX
  8
0
 62
7
  6
CONTINUOUS
 10
168.9440982218
 20
252.1089569385
  0
VERTEX
  8
0
 62
7
  6
CONTINUOUS
 10
168.9387642491
 20
252.0695418367
  0
VERTEX
  8
0
 62
7
  6
CONTINUOUS
 10
168.9348210718
 20
252.0303191065
  0
VERTEX
  8
0
 62
7
  6
CONTINUOUS
 10
168.9324211127
 20
251.991769379
  0
VERTEX
  8
0
 62
7
  6
CONTINUOUS
 10
168.9316619392
 20
251.9561198424
  0
SEQEND
  0
POLYLINE
  8
0
 62
7
  6
CONTINUOUS
 66
1
 70
0
  0
VERTEX
  8
0
 62
7
  6
CONTINUOUS
 10
156.9717184114
 20
253.3916351077
  0
VERTEX
  8
0
 62
7
  6
CONTINUOUS
 10
156.922222513
 20
253.3478215717
  0
VERTEX
  8
0
 62
7
  6
CONTINUOUS
 10
156.8806717164
 20
253.3103182283
  0
SEQEND
  0
POLYLINE
  8
0
 62
7
  6
CONTINUOUS
 66
1
 70
0
  0
VERTEX
  8
0
 62
7
  6
CONTINUOUS
 10
169.6717184114
 20
253.3916351077
  0
VERTEX
  8
0
 62
7
  6
CONTINUOUS
 10
169.622222513
 20
253.3478215717
  0
VERTEX
  8
0
 62
7
  6
CONTINUOUS
 10
169.5806717164
 20
253.3103182283
  0
SEQEND
  0
LINE
  8
0
 62
7
  6
CONTINUOUS
 10
157.014015678
 20
253.4283370765
 11
156.9717184114
 21
253.3916351077
  0
LINE
  8
0
 62
7
  6
CONTINUOUS
 10
169.714015678
 20
253.4283370765
 11
169.6717184114
 21
253.3916351077
  0
POLYLINE
  8
0
 62
7
  6
CONTINUOUS
 66
1
 70
0
  0
VERTEX
  8
0
 62
7
  6
CONTINUOUS
 10
134.6904371376
 20
253.3484012399
  0
VERTEX
  8
0
 62
7
  6
CONTINUOUS
 10
134.6409451317
 20
253.3921991333
  0
VERTEX
  8
0
 62
7
  6
CONTINUOUS
 10
134.5993067261
 20
253.4283244145
  0
SEQEND
  0
LINE
  8
0
 62
7
  6
CONTINUOUS
 10
134.73263596
 20
253.310318225
 11
134.6904371376
 21
253.3484012399
  0
POLYLINE
  8
0
 62
7
  6
CONTINUOUS
 66
1
 70
0
  0
VERTEX
  8
0
 62
7
  6
CONTINUOUS
 10
200.3316610276
 20
251.956119845
  0
VERTEX
  8
0
 62
7
  6
CONTINUOUS
 10
200.3306809943
 20
251.9967157803
  0
VERTEX
  8
0
 62
7
  6
CONTINUOUS
 10
200.3279709013
 20
252.0365484894
  0
VERTEX
  8
0
 62
7
  6
CONTINUOUS
 10
200.3236634824
 20
252.0768853148
  0
VERTEX
  8
0
 62
7
  6
CONTINUOUS
 10
200.3179746099
 20
252.1170268587
  0
VERTEX
  8
0
 62
7
  6
CONTINUOUS
 10
200.3111316834
 20
252.1565361556
  0
VERTEX
  8
0
 62
7
  6
CONTINUOUS
 10
200.3033060437
 20
252.1953326628
  0
VERTEX
  8
0
 62
7
  6
CONTINUOUS
 10
200.2946234577
 20
252.2334496154
  0
VERTEX
  8
0
 62
7
  6
CONTINUOUS
 10
200.2851867461
 20
252.2709141568
  0
VERTEX
  8
0
 62
7
  6
CONTINUOUS
 10
200.2750828843
 20
252.3077341057
  0
VERTEX
  8
0
 62
7
  6
CONTINUOUS
 10
200.264382277
 20
252.3439298147
  0
VERTEX
  8
0
 62
7
  6
CONTINUOUS
 10
200.2531241409
 20
252.3795852299
  0
VERTEX
  8
0
 62
7
  6
CONTINUOUS
 10
200.2413253456
 20
252.4147986915
  0
VERTEX
  8
0
 62
7
  6
CONTINUOUS
 10
200.2289902571
 20
252.4496698325
  0
VERTEX
  8
0
 62
7
  6
CONTINUOUS
 10
200.2161268289
 20
252.4842567635
  0
VERTEX
  8
0
 62
7
  6
CONTINUOUS
 10
200.2027313544
 20
252.5186222616
  0
VERTEX
  8
0
 62
7
  6
CONTINUOUS
 10
200.188799419
 20
252.5528175142
  0
VERTEX
  8
0
 62
7
  6
CONTINUOUS
 10
200.1743199285
 20
252.5868872737
  0
VERTEX
  8
0
 62
7
  6
CONTINUOUS
 10
200.159280365
 20
252.6208723169
  0
VERTEX
  8
0
 62
7
  6
CONTINUOUS
 10
200.1436679948
 20
252.6547961991
  0
VERTEX
  8
0
 62
7
  6
CONTINUOUS
 10
200.1274664211
 20
252.6886859495
  0
VERTEX
  8
0
 62
7
  6
CONTINUOUS
 10
200.1106677774
 20
252.7225375902
  0
VERTEX
  8
0
 62
7
  6
CONTINUOUS
 10
200.0932802022
 20
252.7563156536
  0
VERTEX
  8
0
 62
7
  6
CONTINUOUS
 10
200.0753181607
 20
252.7899680517
  0
VERTEX
  8
0
 62
7
  6
CONTINUOUS
 10
200.0567938611
 20
252.8234520828
  0
VERTEX
  8
0
 62
7
  6
CONTINUOUS
 10
200.0377197702
 20
252.856720619
  0
VERTEX
  8
0
 62
7
  6
CONTINUOUS
 10
200.0181059079
 20
252.8897350248
  0
VERTEX
  8
0
 62
7
  6
CONTINUOUS
 10
199.9979500585
 20
252.9224721761
  0
VERTEX
  8
0
 62
7
  6
CONTINUOUS
 10
199.9772560068
 20
252.9548992243
  0
VERTEX
  8
0
 62
7
  6
CONTINUOUS
 10
199.9560174973
 20
252.9869954635
  0
VERTEX
  8
0
 62
7
  6
CONTINUOUS
 10
199.9342364807
 20
253.0187238092
  0
VERTEX
  8
0
 62
7
  6
CONTINUOUS
 10
199.9119076113
 20
253.0500578342
  0
VERTEX
  8
0
 62
7
  6
CONTINUOUS
 10
199.8890255152
 20
253.0809640389
  0
VERTEX
  8
0
 62
7
  6
CONTINUOUS
 10
199.8655888056
 20
253.111403169
  0
VERTEX
  8
0
 62
7
  6
CONTINUOUS
 10
199.8415585848
 20
253.1413779688
  0
VERTEX
  8
0
 62
7
  6
CONTINUOUS
 10
199.8167784452
 20
253.1710167215
  0
VERTEX
  8
0
 62
7
  6
CONTINUOUS
 10
199.7910455132
 20
253.2004678323
  0
VERTEX
  8
0
 62
7
  6
CONTINUOUS
 10
199.7641398485
 20
253.2298489662
  0
VERTEX
  8
0
 62
7
  6
CONTINUOUS
 10
199.735842651
 20
253.259225757
  0
VERTEX
  8
0
 62
7
  6
CONTINUOUS
 10
199.7059068558
 20
253.2886370407
  0
VERTEX
  8
0
 62
7
  6
CONTINUOUS
 10
199.6826463666
 20
253.3103224655
  0
SEQEND
  0
LINE
  8
0
 62
7
  6
CONTINUOUS
 10
194.3316610192
 20
240.9582080023
 11
194.3316610192
 21
251.9561198424
  0
LINE
  8
0
 62
7
  6
CONTINUOUS
 10
195.0816610192
 20
254.2070154733
 11
195.0816610192
 21
253.4002624567
  0
LINE
  8
0
 62
7
  6
CONTINUOUS
 10
199.5816610192
 20
254.2070140329
 11
199.5816610192
 21
253.4002664802
  0
LINE
  8
0
 62
7
  6
CONTINUOUS
 10
200.3316610192
 20
251.9561052244
 11
200.3316610192
 21
240.9582080023
  0
POLYLINE
  8
0
 62
7
  6
CONTINUOUS
 66
1
 70
0
  0
VERTEX
  8
0
 62
7
  6
CONTINUOUS
 10
182.2806732607
 20
253.3103206672
  0
VERTEX
  8
0
 62
7
  6
CONTINUOUS
 10
182.2615037334
 20
253.2925220927
  0
VERTEX
  8
0
 62
7
  6
CONTINUOUS
 10
182.2358392816
 20
253.267610259
  0
VERTEX
  8
0
 62
7
  6
CONTINUOUS
 10
182.2113864967
 20
253.2427088759
  0
VERTEX
  8
0
 62
7
  6
CONTINUOUS
 10
182.1880024624
 20
253.2178138076
  0
VERTEX
  8
0
 62
7
  6
CONTINUOUS
 10
182.1655582562
 20
253.1929071008
  0
VERTEX
  8
0
 62
7
  6
CONTINUOUS
 10
182.1439234336
 20
253.1679430692
  0
VERTEX
  8
0
 62
7
  6
CONTINUOUS
 10
182.1229745461
 20
253.1428561309
  0
VERTEX
  8
0
 62
7
  6
CONTINUOUS
 10
182.1025988174
 20
253.11757186
  0
VERTEX
  8
0
 62
7
  6
CONTINUOUS
 10
182.0826901124
 20
253.0920048473
  0
VERTEX
  8
0
 62
7
  6
CONTINUOUS
 10
182.0632004345
 20
253.0661261372
  0
VERTEX
  8
0
 62
7
  6
CONTINUOUS
 10
182.0441157962
 20
253.0399451989
  0
VERTEX
  8
0
 62
7
  6
CONTINUOUS
 10
182.025419333
 20
253.0134653068
  0
VERTEX
  8
0
 62
7
  6
CONTINUOUS
 10
182.0070928337
 20
252.9866811904
  0
VERTEX
  8
0
 62
7
  6
CONTINUOUS
 10
181.9891252207
 20
252.9595946168
  0
VERTEX
  8
0
 62
7
  6
CONTINUOUS
 10
181.9715013365
 20
252.9321991008
  0
VERTEX
  8
0
 62
7
  6
CONTINUOUS
 10
181.9542065985
 20
252.904482048
  0
VERTEX
  8
0
 62
7
  6
CONTINUOUS
 10
181.937232145
 20
252.8764376078
  0
VERTEX
  8
0
 62
7
  6
CONTINUOUS
 10
181.9205628803
 20
252.8480459641
  0
VERTEX
  8
0
 62
7
  6
CONTINUOUS
 10
181.9041904728
 20
252.8192915426
  0
VERTEX
  8
0
 62
7
  6
CONTINUOUS
 10
181.8881147412
 20
252.7901724066
  0
VERTEX
  8
0
 62
7
  6
CONTINUOUS
 10
181.8723344334
 20
252.7606788896
  0
VERTEX
  8
0
 62
7
  6
CONTINUOUS
 10
181.8568559463
 20
252.7308134948
  0
VERTEX
  8
0
 62
7
  6
CONTINUOUS
 10
181.8416784321
 20
252.7005621511
  0
VERTEX
  8
0
 62
7
  6
CONTINUOUS
 10
181.8268086395
 20
252.6699191862
  0
VERTEX
  8
0
 62
7
  6
CONTINUOUS
 10
181.8122486738
 20
252.6388684232
  0
VERTEX
  8
0
 62
7
  6
CONTINUOUS
 10
181.7980049365
 20
252.6073923239
  0
VERTEX
  8
0
 62
7
  6
CONTINUOUS
 10
181.7840831
 20
252.5754701094
  0
VERTEX
  8
0
 62
7
  6
CONTINUOUS
 10
181.7704907518
 20
252.5430711865
  0
VERTEX
  8
0
 62
7
  6
CONTINUOUS
 10
181.7572366493
 20
252.5101632585
  0
VERTEX
  8
0
 62
7
  6
CONTINUOUS
 10
181.7443331778
 20
252.4767033612
  0
VERTEX
  8
0
 62
7
  6
CONTINUOUS
 10
181.7318021144
 20
252.4426644283
  0
VERTEX
  8
0
 62
7
  6
CONTINUOUS
 10
181.7196842769
 20
252.4080509742
  0
VERTEX
  8
0
 62
7
  6
CONTINUOUS
 10
181.7080160392
 20
252.3728443754
  0
VERTEX
  8
0
 62
7
  6
CONTINUOUS
 10
181.6968454078
 20
252.3370406017
  0
VERTEX
  8
0
 62
7
  6
CONTINUOUS
 10
181.6862203832
 20
252.3006037274
  0
VERTEX
  8
0
 62
7
  6
CONTINUOUS
 10
181.6761961329
 20
252.2634883516
  0
VERTEX
  8
0
 62
7
  6
CONTINUOUS
 10
181.6668496989
 20
252.2256731816
  0
VERTEX
  8
0
 62
7
  6
CONTINUOUS
 10
181.6582945245
 20
252.1872275379
  0
VERTEX
  8
0
 62
7
  6
CONTINUOUS
 10
181.6506623396
 20
252.1482690089
  0
VERTEX
  8
0
 62
7
  6
CONTINUOUS
 10
181.6440982218
 20
252.1089569385
  0
VERTEX
  8
0
 62
7
  6
CONTINUOUS
 10
181.6387642491
 20
252.0695418367
  0
VERTEX
  8
0
 62
7
  6
CONTINUOUS
 10
181.6348210718
 20
252.0303191065
  0
VERTEX
  8
0
 62
7
  6
CONTINUOUS
 10
181.6324211127
 20
251.991769379
  0
VERTEX
  8
0
 62
7
  6
CONTINUOUS
 10
181.6316619392
 20
251.9561198424
  0
SEQEND
  0
POLYLINE
  8
0
 62
7
  6
CONTINUOUS
 66
1
 70
0
  0
VERTEX
  8
0
 62
7
  6
CONTINUOUS
 10
194.9806732607
 20
253.3103206672
  0
VERTEX
  8
0
 62
7
  6
CONTINUOUS
 10
194.9615037334
 20
253.2925220927
  0
VERTEX
  8
0
 62
7
  6
CONTINUOUS
 10
194.9358392816
 20
253.267610259
  0
VERTEX
  8
0
 62
7
  6
CONTINUOUS
 10
194.9113864967
 20
253.2427088759
  0
VERTEX
  8
0
 62
7
  6
CONTINUOUS
 10
194.8880024624
 20
253.2178138076
  0
VERTEX
  8
0
 62
7
  6
CONTINUOUS
 10
194.8655582562
 20
253.1929071008
  0
VERTEX
  8
0
 62
7
  6
CONTINUOUS
 10
194.8439234336
 20
253.1679430692
  0
VERTEX
  8
0
 62
7
  6
CONTINUOUS
 10
194.8229745461
 20
253.1428561309
  0
VERTEX
  8
0
 62
7
  6
CONTINUOUS
 10
194.8025988174
 20
253.11757186
  0
VERTEX
  8
0
 62
7
  6
CONTINUOUS
 10
194.7826901124
 20
253.0920048473
  0
VERTEX
  8
0
 62
7
  6
CONTINUOUS
 10
194.7632004345
 20
253.0661261372
  0
VERTEX
  8
0
 62
7
  6
CONTINUOUS
 10
194.7441157962
 20
253.0399451989
  0
VERTEX
  8
0
 62
7
  6
CONTINUOUS
 10
194.725419333
 20
253.0134653068
  0
VERTEX
  8
0
 62
7
  6
CONTINUOUS
 10
194.7070928337
 20
252.9866811904
  0
VERTEX
  8
0
 62
7
  6
CONTINUOUS
 10
194.6891252207
 20
252.9595946168
  0
VERTEX
  8
0
 62
7
  6
CONTINUOUS
 10
194.6715013365
 20
252.9321991008
  0
VERTEX
  8
0
 62
7
  6
CONTINUOUS
 10
194.6542065985
 20
252.904482048
  0
VERTEX
  8
0
 62
7
  6
CONTINUOUS
 10
194.637232145
 20
252.8764376078
  0
VERTEX
  8
0
 62
7
  6
CONTINUOUS
 10
194.6205628803
 20
252.8480459641
  0
VERTEX
  8
0
 62
7
  6
CONTINUOUS
 10
194.6041904728
 20
252.8192915426
  0
VERTEX
  8
0
 62
7
  6
CONTINUOUS
 10
194.5881147412
 20
252.7901724066
  0
VERTEX
  8
0
 62
7
  6
CONTINUOUS
 10
194.5723344334
 20
252.7606788896
  0
VERTEX
  8
0
 62
7
  6
CONTINUOUS
 10
194.5568559463
 20
252.7308134948
  0
VERTEX
  8
0
 62
7
  6
CONTINUOUS
 10
194.5416784321
 20
252.7005621511
  0
VERTEX
  8
0
 62
7
  6
CONTINUOUS
 10
194.5268086395
 20
252.6699191862
  0
VERTEX
  8
0
 62
7
  6
CONTINUOUS
 10
194.5122486738
 20
252.6388684232
  0
VERTEX
  8
0
 62
7
  6
CONTINUOUS
 10
194.4980049365
 20
252.6073923239
  0
VERTEX
  8
0
 62
7
  6
CONTINUOUS
 10
194.4840831
 20
252.5754701094
  0
VERTEX
  8
0
 62
7
  6
CONTINUOUS
 10
194.4704907518
 20
252.5430711865
  0
VERTEX
  8
0
 62
7
  6
CONTINUOUS
 10
194.4572366493
 20
252.5101632585
  0
VERTEX
  8
0
 62
7
  6
CONTINUOUS
 10
194.4443331778
 20
252.4767033612
  0
VERTEX
  8
0
 62
7
  6
CONTINUOUS
 10
194.4318021144
 20
252.4426644283
  0
VERTEX
  8
0
 62
7
  6
CONTINUOUS
 10
194.4196842769
 20
252.4080509742
  0
VERTEX
  8
0
 62
7
  6
CONTINUOUS
 10
194.4080160392
 20
252.3728443754
  0
VERTEX
  8
0
 62
7
  6
CONTINUOUS
 10
194.3968454078
 20
252.3370406017
  0
VERTEX
  8
0
 62
7
  6
CONTINUOUS
 10
194.3862203832
 20
252.3006037274
  0
VERTEX
  8
0
 62
7
  6
CONTINUOUS
 10
194.3761961329
 20
252.2634883516
  0
VERTEX
  8
0
 62
7
  6
CONTINUOUS
 10
194.3668496989
 20
252.2256731816
  0
VERTEX
  8
0
 62
7
  6
CONTINUOUS
 10
194.3582945245
 20
252.1872275379
  0
VERTEX
  8
0
 62
7
  6
CONTINUOUS
 10
194.3506623396
 20
252.1482690089
  0
VERTEX
  8
0
 62
7
  6
CONTINUOUS
 10
194.3440982218
 20
252.1089569385
  0
VERTEX
  8
0
 62
7
  6
CONTINUOUS
 10
194.3387642491
 20
252.0695418367
  0
VERTEX
  8
0
 62
7
  6
CONTINUOUS
 10
194.3348210718
 20
252.0303191065
  0
VERTEX
  8
0
 62
7
  6
CONTINUOUS
 10
194.3324211127
 20
251.991769379
  0
VERTEX
  8
0
 62
7
  6
CONTINUOUS
 10
194.3316619392
 20
251.9561198424
  0
SEQEND
  0
POLYLINE
  8
0
 62
7
  6
CONTINUOUS
 66
1
 70
0
  0
VERTEX
  8
0
 62
7
  6
CONTINUOUS
 10
182.3717184114
 20
253.3916351077
  0
VERTEX
  8
0
 62
7
  6
CONTINUOUS
 10
182.322222513
 20
253.3478215717
  0
VERTEX
  8
0
 62
7
  6
CONTINUOUS
 10
182.2806717164
 20
253.3103182283
  0
SEQEND
  0
POLYLINE
  8
0
 62
7
  6
CONTINUOUS
 66
1
 70
0
  0
VERTEX
  8
0
 62
7
  6
CONTINUOUS
 10
195.0717184114
 20
253.3916351077
  0
VERTEX
  8
0
 62
7
  6
CONTINUOUS
 10
195.022222513
 20
253.3478215717
  0
VERTEX
  8
0
 62
7
  6
CONTINUOUS
 10
194.9806717164
 20
253.3103182283
  0
SEQEND
  0
LINE
  8
0
 62
7
  6
CONTINUOUS
 10
182.414015678
 20
253.4283370765
 11
182.3717184114
 21
253.3916351077
  0
LINE
  8
0
 62
7
  6
CONTINUOUS
 10
195.114015678
 20
253.4283370765
 11
195.0717184114
 21
253.3916351077
  0
POLYLINE
  8
0
 62
7
  6
CONTINUOUS
 66
1
 70
0
  0
VERTEX
  8
0
 62
7
  6
CONTINUOUS
 10
97.437639991
 20
230.904074662
  0
VERTEX
  8
0
 62
7
  6
CONTINUOUS
 10
97.3932199639
 20
230.913562668
  0
VERTEX
  8
0
 62
7
  6
CONTINUOUS
 10
97.352302433
 20
230.9275446863
  0
VERTEX
  8
0
 62
7
  6
CONTINUOUS
 10
97.3139552385
 20
230.947294749
  0
VERTEX
  8
0
 62
7
  6
CONTINUOUS
 10
97.2786386268
 20
230.9726244471
  0
VERTEX
  8
0
 62
7
  6
CONTINUOUS
 10
97.2471399396
 20
231.003143351
  0
VERTEX
  8
0
 62
7
  6
CONTINUOUS
 10
97.2204692633
 20
231.0379534537
  0
VERTEX
  8
0
 62
7
  6
CONTINUOUS
 10
97.1992570749
 20
231.0760945215
  0
VERTEX
  8
0
 62
7
  6
CONTINUOUS
 10
97.1837277154
 20
231.1170598769
  0
VERTEX
  8
0
 62
7
  6
CONTINUOUS
 10
97.1741951825
 20
231.160277436
  0
VERTEX
  8
0
 62
7
  6
CONTINUOUS
 10
97.171010841
 20
231.2043478853
  0
SEQEND
  0
POLYLINE
  8
0
 62
7
  6
CONTINUOUS
 66
1
 70
0
  0
VERTEX
  8
0
 62
7
  6
CONTINUOUS
 10
148.4444371376
 20
253.3484012399
  0
VERTEX
  8
0
 62
7
  6
CONTINUOUS
 10
148.3949451317
 20
253.3921991333
  0
VERTEX
  8
0
 62
7
  6
CONTINUOUS
 10
148.3533067261
 20
253.4283244145
  0
SEQEND
  0
POLYLINE
  8
0
 62
7
  6
CONTINUOUS
 66
1
 70
0
  0
VERTEX
  8
0
 62
7
  6
CONTINUOUS
 10
161.5404466185
 20
253.3484056067
  0
VERTEX
  8
0
 62
7
  6
CONTINUOUS
 10
161.4909497019
 20
253.3922077068
  0
VERTEX
  8
0
 62
7
  6
CONTINUOUS
 10
161.4493063609
 20
253.428337076
  0
SEQEND
  0
LINE
  8
0
 62
7
  6
CONTINUOUS
 10
148.48663596
 20
253.310318225
 11
148.4444371376
 21
253.3484012399
  0
LINE
  8
0
 62
7
  6
CONTINUOUS
 10
161.5826503228
 20
253.3103182258
 11
161.5404466185
 21
253.3484056067
  0
POLYLINE
  8
0
 62
7
  6
CONTINUOUS
 66
1
 70
0
  0
VERTEX
  8
0
 62
7
  6
CONTINUOUS
 10
213.0316610276
 20
251.956119845
  0
VERTEX
  8
0
 62
7
  6
CONTINUOUS
 10
213.0306809943
 20
251.9967157803
  0
VERTEX
  8
0
 62
7
  6
CONTINUOUS
 10
213.0279709013
 20
252.0365484894
  0
VERTEX
  8
0
 62
7
  6
CONTINUOUS
 10
213.0236634824
 20
252.0768853148
  0
VERTEX
  8
0
 62
7
  6
CONTINUOUS
 10
213.0179746099
 20
252.1170268587
  0
VERTEX
  8
0
 62
7
  6
CONTINUOUS
 10
213.0111316834
 20
252.1565361556
  0
VERTEX
  8
0
 62
7
  6
CONTINUOUS
 10
213.0033060437
 20
252.1953326628
  0
VERTEX
  8
0
 62
7
  6
CONTINUOUS
 10
212.9946234577
 20
252.2334496154
  0
VERTEX
  8
0
 62
7
  6
CONTINUOUS
 10
212.9851867461
 20
252.2709141568
  0
VERTEX
  8
0
 62
7
  6
CONTINUOUS
 10
212.9750828843
 20
252.3077341057
  0
VERTEX
  8
0
 62
7
  6
CONTINUOUS
 10
212.964382277
 20
252.3439298147
  0
VERTEX
  8
0
 62
7
  6
CONTINUOUS
 10
212.9531241409
 20
252.3795852299
  0
VERTEX
  8
0
 62
7
  6
CONTINUOUS
 10
212.9413253456
 20
252.4147986915
  0
VERTEX
  8
0
 62
7
  6
CONTINUOUS
 10
212.9289902571
 20
252.4496698325
  0
VERTEX
  8
0
 62
7
  6
CONTINUOUS
 10
212.9161268289
 20
252.4842567635
  0
VERTEX
  8
0
 62
7
  6
CONTINUOUS
 10
212.9027313544
 20
252.5186222616
  0
VERTEX
  8
0
 62
7
  6
CONTINUOUS
 10
212.888799419
 20
252.5528175142
  0
VERTEX
  8
0
 62
7
  6
CONTINUOUS
 10
212.8743199285
 20
252.5868872737
  0
VERTEX
  8
0
 62
7
  6
CONTINUOUS
 10
212.859280365
 20
252.6208723169
  0
VERTEX
  8
0
 62
7
  6
CONTINUOUS
 10
212.8436679948
 20
252.6547961991
  0
VERTEX
  8
0
 62
7
  6
CONTINUOUS
 10
212.8274664211
 20
252.6886859495
  0
VERTEX
  8
0
 62
7
  6
CONTINUOUS
 10
212.8106677774
 20
252.7225375902
  0
VERTEX
  8
0
 62
7
  6
CONTINUOUS
 10
212.7932802022
 20
252.7563156536
  0
VERTEX
  8
0
 62
7
  6
CONTINUOUS
 10
212.7753181607
 20
252.7899680517
  0
VERTEX
  8
0
 62
7
  6
CONTINUOUS
 10
212.7567938611
 20
252.8234520828
  0
VERTEX
  8
0
 62
7
  6
CONTINUOUS
 10
212.7377197702
 20
252.856720619
  0
VERTEX
  8
0
 62
7
  6
CONTINUOUS
 10
212.7181059079
 20
252.8897350248
  0
VERTEX
  8
0
 62
7
  6
CONTINUOUS
 10
212.6979500585
 20
252.9224721761
  0
VERTEX
  8
0
 62
7
  6
CONTINUOUS
 10
212.6772560068
 20
252.9548992243
  0
VERTEX
  8
0
 62
7
  6
CONTINUOUS
 10
212.6560174973
 20
252.9869954635
  0
VERTEX
  8
0
 62
7
  6
CONTINUOUS
 10
212.6342364807
 20
253.0187238092
  0
VERTEX
  8
0
 62
7
  6
CONTINUOUS
 10
212.6119076113
 20
253.0500578342
  0
VERTEX
  8
0
 62
7
  6
CONTINUOUS
 10
212.5890255152
 20
253.0809640389
  0
VERTEX
  8
0
 62
7
  6
CONTINUOUS
 10
212.5655888056
 20
253.111403169
  0
VERTEX
  8
0
 62
7
  6
CONTINUOUS
 10
212.5415585848
 20
253.1413779688
  0
VERTEX
  8
0
 62
7
  6
CONTINUOUS
 10
212.5167784452
 20
253.1710167215
  0
VERTEX
  8
0
 62
7
  6
CONTINUOUS
 10
212.4910455132
 20
253.2004678323
  0
VERTEX
  8
0
 62
7
  6
CONTINUOUS
 10
212.4641398485
 20
253.2298489662
  0
VERTEX
  8
0
 62
7
  6
CONTINUOUS
 10
212.435842651
 20
253.259225757
  0
VERTEX
  8
0
 62
7
  6
CONTINUOUS
 10
212.4059068558
 20
253.2886370407
  0
VERTEX
  8
0
 62
7
  6
CONTINUOUS
 10
212.3826463666
 20
253.3103224655
  0
SEQEND
  0
LINE
  8
0
 62
7
  6
CONTINUOUS
 10
207.0316610192
 20
240.9582080023
 11
207.0316610192
 21
251.9561198424
  0
LINE
  8
0
 62
7
  6
CONTINUOUS
 10
207.7816610192
 20
254.2070154733
 11
207.7816610192
 21
253.4002624567
  0
LINE
  8
0
 62
7
  6
CONTINUOUS
 10
212.2816610192
 20
254.2070140329
 11
212.2816610192
 21
253.4002664802
  0
LINE
  8
0
 62
7
  6
CONTINUOUS
 10
213.0316610192
 20
251.9561052244
 11
213.0316610192
 21
240.9582080023
  0
POLYLINE
  8
0
 62
7
  6
CONTINUOUS
 66
1
 70
0
  0
VERTEX
  8
0
 62
7
  6
CONTINUOUS
 10
207.6806732607
 20
253.3103206672
  0
VERTEX
  8
0
 62
7
  6
CONTINUOUS
 10
207.6615037334
 20
253.2925220927
  0
VERTEX
  8
0
 62
7
  6
CONTINUOUS
 10
207.6358392816
 20
253.267610259
  0
VERTEX
  8
0
 62
7
  6
CONTINUOUS
 10
207.6113864967
 20
253.2427088759
  0
VERTEX
  8
0
 62
7
  6
CONTINUOUS
 10
207.5880024624
 20
253.2178138076
  0
VERTEX
  8
0
 62
7
  6
CONTINUOUS
 10
207.5655582562
 20
253.1929071008
  0
VERTEX
  8
0
 62
7
  6
CONTINUOUS
 10
207.5439234336
 20
253.1679430692
  0
VERTEX
  8
0
 62
7
  6
CONTINUOUS
 10
207.5229745461
 20
253.1428561309
  0
VERTEX
  8
0
 62
7
  6
CONTINUOUS
 10
207.5025988174
 20
253.11757186
  0
VERTEX
  8
0
 62
7
  6
CONTINUOUS
 10
207.4826901124
 20
253.0920048473
  0
VERTEX
  8
0
 62
7
  6
CONTINUOUS
 10
207.4632004345
 20
253.0661261372
  0
VERTEX
  8
0
 62
7
  6
CONTINUOUS
 10
207.4441157962
 20
253.0399451989
  0
VERTEX
  8
0
 62
7
  6
CONTINUOUS
 10
207.425419333
 20
253.0134653068
  0
VERTEX
  8
0
 62
7
  6
CONTINUOUS
 10
207.4070928337
 20
252.9866811904
  0
VERTEX
  8
0
 62
7
  6
CONTINUOUS
 10
207.3891252207
 20
252.9595946168
  0
VERTEX
  8
0
 62
7
  6
CONTINUOUS
 10
207.3715013365
 20
252.9321991008
  0
VERTEX
  8
0
 62
7
  6
CONTINUOUS
 10
207.3542065985
 20
252.904482048
  0
VERTEX
  8
0
 62
7
  6
CONTINUOUS
 10
207.337232145
 20
252.8764376078
  0
VERTEX
  8
0
 62
7
  6
CONTINUOUS
 10
207.3205628803
 20
252.8480459641
  0
VERTEX
  8
0
 62
7
  6
CONTINUOUS
 10
207.3041904728
 20
252.8192915426
  0
VERTEX
  8
0
 62
7
  6
CONTINUOUS
 10
207.2881147412
 20
252.7901724066
  0
VERTEX
  8
0
 62
7
  6
CONTINUOUS
 10
207.2723344334
 20
252.7606788896
  0
VERTEX
  8
0
 62
7
  6
CONTINUOUS
 10
207.2568559463
 20
252.7308134948
  0
VERTEX
  8
0
 62
7
  6
CONTINUOUS
 10
207.2416784321
 20
252.7005621511
  0
VERTEX
  8
0
 62
7
  6
CONTINUOUS
 10
207.2268086395
 20
252.6699191862
  0
VERTEX
  8
0
 62
7
  6
CONTINUOUS
 10
207.2122486738
 20
252.6388684232
  0
VERTEX
  8
0
 62
7
  6
CONTINUOUS
 10
207.1980049365
 20
252.6073923239
  0
VERTEX
  8
0
 62
7
  6
CONTINUOUS
 10
207.1840831
 20
252.5754701094
  0
VERTEX
  8
0
 62
7
  6
CONTINUOUS
 10
207.1704907518
 20
252.5430711865
  0
VERTEX
  8
0
 62
7
  6
CONTINUOUS
 10
207.1572366493
 20
252.5101632585
  0
VERTEX
  8
0
 62
7
  6
CONTINUOUS
 10
207.1443331778
 20
252.4767033612
  0
VERTEX
  8
0
 62
7
  6
CONTINUOUS
 10
207.1318021144
 20
252.4426644283
  0
VERTEX
  8
0
 62
7
  6
CONTINUOUS
 10
207.1196842769
 20
252.4080509742
  0
VERTEX
  8
0
 62
7
  6
CONTINUOUS
 10
207.1080160392
 20
252.3728443754
  0
VERTEX
  8
0
 62
7
  6
CONTINUOUS
 10
207.0968454078
 20
252.3370406017
  0
VERTEX
  8
0
 62
7
  6
CONTINUOUS
 10
207.0862203832
 20
252.3006037274
  0
VERTEX
  8
0
 62
7
  6
CONTINUOUS
 10
207.0761961329
 20
252.2634883516
  0
VERTEX
  8
0
 62
7
  6
CONTINUOUS
 10
207.0668496989
 20
252.2256731816
  0
VERTEX
  8
0
 62
7
  6
CONTINUOUS
 10
207.0582945245
 20
252.1872275379
  0
VERTEX
  8
0
 62
7
  6
CONTINUOUS
 10
207.0506623396
 20
252.1482690089
  0
VERTEX
  8
0
 62
7
  6
CONTINUOUS
 10
207.0440982218
 20
252.1089569385
  0
VERTEX
  8
0
 62
7
  6
CONTINUOUS
 10
207.0387642491
 20
252.0695418367
  0
VERTEX
  8
0
 62
7
  6
CONTINUOUS
 10
207.0348210718
 20
252.0303191065
  0
VERTEX
  8
0
 62
7
  6
CONTINUOUS
 10
207.0324211127
 20
251.991769379
  0
VERTEX
  8
0
 62
7
  6
CONTINUOUS
 10
207.0316619392
 20
251.9561198424
  0
SEQEND
  0
POLYLINE
  8
0
 62
7
  6
CONTINUOUS
 66
1
 70
0
  0
VERTEX
  8
0
 62
7
  6
CONTINUOUS
 10
207.7717184114
 20
253.3916351077
  0
VERTEX
  8
0
 62
7
  6
CONTINUOUS
 10
207.722222513
 20
253.3478215717
  0
VERTEX
  8
0
 62
7
  6
CONTINUOUS
 10
207.6806717164
 20
253.3103182283
  0
SEQEND
  0
LINE
  8
0
 62
7
  6
CONTINUOUS
 10
207.814015678
 20
253.4283370765
 11
207.7717184114
 21
253.3916351077
  0
POLYLINE
  8
AXES
 62
7
  6
CONTINUOUS
 66
1
 70
0
  0
VERTEX
  8
AXES
 62
7
  6
CONTINUOUS
 10
120.99982978
 20
244.7242280007
  0
VERTEX
  8
AXES
 62
7
  6
CONTINUOUS
 10
120.9747467344
 20
244.7320769079
  0
VERTEX
  8
AXES
 62
7
  6
CONTINUOUS
 10
120.9509585778
 20
244.7446684792
  0
VERTEX
  8
AXES
 62
7
  6
CONTINUOUS
 10
120.9295685531
 20
244.7618831089
  0
VERTEX
  8
AXES
 62
7
  6
CONTINUOUS
 10
120.9106992971
 20
244.7845184499
  0
VERTEX
  8
AXES
 62
7
  6
CONTINUOUS
 10
120.895541234
 20
244.812869592
  0
VERTEX
  8
AXES
 62
7
  6
CONTINUOUS
 10
120.8854323594
 20
244.8468475018
  0
VERTEX
  8
AXES
 62
7
  6
CONTINUOUS
 10
120.881646656
 20
244.88718879
  0
SEQEND
  0
POLYLINE
  8
0
 62
7
  6
CONTINUOUS
 66
1
 70
0
  0
VERTEX
  8
0
 62
7
  6
CONTINUOUS
 10
174.2404466185
 20
253.3484056067
  0
VERTEX
  8
0
 62
7
  6
CONTINUOUS
 10
174.1909497019
 20
253.3922077068
  0
VERTEX
  8
0
 62
7
  6
CONTINUOUS
 10
174.1493063609
 20
253.428337076
  0
SEQEND
  0
POLYLINE
  8
0
 62
7
  6
CONTINUOUS
 66
1
 70
0
  0
VERTEX
  8
0
 62
7
  6
CONTINUOUS
 10
186.9404466185
 20
253.3484056067
  0
VERTEX
  8
0
 62
7
  6
CONTINUOUS
 10
186.8909497019
 20
253.3922077068
  0
VERTEX
  8
0
 62
7
  6
CONTINUOUS
 10
186.8493063609
 20
253.428337076
  0
SEQEND
  0
LINE
  8
0
 62
7
  6
CONTINUOUS
 10
174.2826503228
 20
253.3103182258
 11
174.2404466185
 21
253.3484056067
  0
LINE
  8
0
 62
7
  6
CONTINUOUS
 10
186.9826503228
 20
253.3103182258
 11
186.9404466185
 21
253.3484056067
  0
POLYLINE
  8
0
 62
7
  6
CONTINUOUS
 66
1
 70
0
  0
VERTEX
  8
0
 62
7
  6
CONTINUOUS
 10
225.7316610276
 20
251.956119845
  0
VERTEX
  8
0
 62
7
  6
CONTINUOUS
 10
225.7306809943
 20
251.9967157803
  0
VERTEX
  8
0
 62
7
  6
CONTINUOUS
 10
225.7279709013
 20
252.0365484894
  0
VERTEX
  8
0
 62
7
  6
CONTINUOUS
 10
225.7236634824
 20
252.0768853148
  0
VERTEX
  8
0
 62
7
  6
CONTINUOUS
 10
225.7179746099
 20
252.1170268587
  0
VERTEX
  8
0
 62
7
  6
CONTINUOUS
 10
225.7111316834
 20
252.1565361556
  0
VERTEX
  8
0
 62
7
  6
CONTINUOUS
 10
225.7033060437
 20
252.1953326628
  0
VERTEX
  8
0
 62
7
  6
CONTINUOUS
 10
225.6946234577
 20
252.2334496154
  0
VERTEX
  8
0
 62
7
  6
CONTINUOUS
 10
225.6851867461
 20
252.2709141568
  0
VERTEX
  8
0
 62
7
  6
CONTINUOUS
 10
225.6750828843
 20
252.3077341057
  0
VERTEX
  8
0
 62
7
  6
CONTINUOUS
 10
225.664382277
 20
252.3439298147
  0
VERTEX
  8
0
 62
7
  6
CONTINUOUS
 10
225.6531241409
 20
252.3795852299
  0
VERTEX
  8
0
 62
7
  6
CONTINUOUS
 10
225.6413253456
 20
252.4147986915
  0
VERTEX
  8
0
 62
7
  6
CONTINUOUS
 10
225.6289902571
 20
252.4496698325
  0
VERTEX
  8
0
 62
7
  6
CONTINUOUS
 10
225.6161268289
 20
252.4842567635
  0
VERTEX
  8
0
 62
7
  6
CONTINUOUS
 10
225.6027313544
 20
252.5186222616
  0
VERTEX
  8
0
 62
7
  6
CONTINUOUS
 10
225.588799419
 20
252.5528175142
  0
VERTEX
  8
0
 62
7
  6
CONTINUOUS
 10
225.5743199285
 20
252.5868872737
  0
VERTEX
  8
0
 62
7
  6
CONTINUOUS
 10
225.559280365
 20
252.6208723169
  0
VERTEX
  8
0
 62
7
  6
CONTINUOUS
 10
225.5436679948
 20
252.6547961991
  0
VERTEX
  8
0
 62
7
  6
CONTINUOUS
 10
225.5274664211
 20
252.6886859495
  0
VERTEX
  8
0
 62
7
  6
CONTINUOUS
 10
225.5106677774
 20
252.7225375902
  0
VERTEX
  8
0
 62
7
  6
CONTINUOUS
 10
225.4932802022
 20
252.7563156536
  0
VERTEX
  8
0
 62
7
  6
CONTINUOUS
 10
225.4753181607
 20
252.7899680517
  0
VERTEX
  8
0
 62
7
  6
CONTINUOUS
 10
225.4567938611
 20
252.8234520828
  0
VERTEX
  8
0
 62
7
  6
CONTINUOUS
 10
225.4377197702
 20
252.856720619
  0
VERTEX
  8
0
 62
7
  6
CONTINUOUS
 10
225.4181059079
 20
252.8897350248
  0
VERTEX
  8
0
 62
7
  6
CONTINUOUS
 10
225.3979500585
 20
252.9224721761
  0
VERTEX
  8
0
 62
7
  6
CONTINUOUS
 10
225.3772560068
 20
252.9548992243
  0
VERTEX
  8
0
 62
7
  6
CONTINUOUS
 10
225.3560174973
 20
252.9869954635
  0
VERTEX
  8
0
 62
7
  6
CONTINUOUS
 10
225.3342364807
 20
253.0187238092
  0
VERTEX
  8
0
 62
7
  6
CONTINUOUS
 10
225.3119076113
 20
253.0500578342
  0
VERTEX
  8
0
 62
7
  6
CONTINUOUS
 10
225.2890255152
 20
253.0809640389
  0
VERTEX
  8
0
 62
7
  6
CONTINUOUS
 10
225.2655888056
 20
253.111403169
  0
VERTEX
  8
0
 62
7
  6
CONTINUOUS
 10
225.2415585848
 20
253.1413779688
  0
VERTEX
  8
0
 62
7
  6
CONTINUOUS
 10
225.2167784452
 20
253.1710167215
  0
VERTEX
  8
0
 62
7
  6
CONTINUOUS
 10
225.1910455132
 20
253.2004678323
  0
VERTEX
  8
0
 62
7
  6
CONTINUOUS
 10
225.1641398485
 20
253.2298489662
  0
VERTEX
  8
0
 62
7
  6
CONTINUOUS
 10
225.135842651
 20
253.259225757
  0
VERTEX
  8
0
 62
7
  6
CONTINUOUS
 10
225.1059068558
 20
253.2886370407
  0
VERTEX
  8
0
 62
7
  6
CONTINUOUS
 10
225.0826463666
 20
253.3103224655
  0
SEQEND
  0
LINE
  8
0
 62
7
  6
CONTINUOUS
 10
219.7316610192
 20
240.9582080023
 11
219.7316610192
 21
251.9561198424
  0
LINE
  8
0
 62
7
  6
CONTINUOUS
 10
220.4816610192
 20
254.2070154733
 11
220.4816610192
 21
253.4002624567
  0
LINE
  8
0
 62
7
  6
CONTINUOUS
 10
224.9816610192
 20
254.2070140329
 11
224.9816610192
 21
253.4002664802
  0
LINE
  8
0
 62
7
  6
CONTINUOUS
 10
225.7316610192
 20
251.9561052244
 11
225.7316610192
 21
240.9582080023
  0
POLYLINE
  8
0
 62
7
  6
CONTINUOUS
 66
1
 70
0
  0
VERTEX
  8
0
 62
7
  6
CONTINUOUS
 10
220.3806732607
 20
253.3103206672
  0
VERTEX
  8
0
 62
7
  6
CONTINUOUS
 10
220.3615037334
 20
253.2925220927
  0
VERTEX
  8
0
 62
7
  6
CONTINUOUS
 10
220.3358392816
 20
253.267610259
  0
VERTEX
  8
0
 62
7
  6
CONTINUOUS
 10
220.3113864967
 20
253.2427088759
  0
VERTEX
  8
0
 62
7
  6
CONTINUOUS
 10
220.2880024624
 20
253.2178138076
  0
VERTEX
  8
0
 62
7
  6
CONTINUOUS
 10
220.2655582562
 20
253.1929071008
  0
VERTEX
  8
0
 62
7
  6
CONTINUOUS
 10
220.2439234336
 20
253.1679430692
  0
VERTEX
  8
0
 62
7
  6
CONTINUOUS
 10
220.2229745461
 20
253.1428561309
  0
VERTEX
  8
0
 62
7
  6
CONTINUOUS
 10
220.2025988174
 20
253.11757186
  0
VERTEX
  8
0
 62
7
  6
CONTINUOUS
 10
220.1826901124
 20
253.0920048473
  0
VERTEX
  8
0
 62
7
  6
CONTINUOUS
 10
220.1632004345
 20
253.0661261372
  0
VERTEX
  8
0
 62
7
  6
CONTINUOUS
 10
220.1441157962
 20
253.0399451989
  0
VERTEX
  8
0
 62
7
  6
CONTINUOUS
 10
220.125419333
 20
253.0134653068
  0
VERTEX
  8
0
 62
7
  6
CONTINUOUS
 10
220.1070928337
 20
252.9866811904
  0
VERTEX
  8
0
 62
7
  6
CONTINUOUS
 10
220.0891252207
 20
252.9595946168
  0
VERTEX
  8
0
 62
7
  6
CONTINUOUS
 10
220.0715013365
 20
252.9321991008
  0
VERTEX
  8
0
 62
7
  6
CONTINUOUS
 10
220.0542065985
 20
252.904482048
  0
VERTEX
  8
0
 62
7
  6
CONTINUOUS
 10
220.037232145
 20
252.8764376078
  0
VERTEX
  8
0
 62
7
  6
CONTINUOUS
 10
220.0205628803
 20
252.8480459641
  0
VERTEX
  8
0
 62
7
  6
CONTINUOUS
 10
220.0041904728
 20
252.8192915426
  0
VERTEX
  8
0
 62
7
  6
CONTINUOUS
 10
219.9881147412
 20
252.7901724066
  0
VERTEX
  8
0
 62
7
  6
CONTINUOUS
 10
219.9723344334
 20
252.7606788896
  0
VERTEX
  8
0
 62
7
  6
CONTINUOUS
 10
219.9568559463
 20
252.7308134948
  0
VERTEX
  8
0
 62
7
  6
CONTINUOUS
 10
219.9416784321
 20
252.7005621511
  0
VERTEX
  8
0
 62
7
  6
CONTINUOUS
 10
219.9268086395
 20
252.6699191862
  0
VERTEX
  8
0
 62
7
  6
CONTINUOUS
 10
219.9122486738
 20
252.6388684232
  0
VERTEX
  8
0
 62
7
  6
CONTINUOUS
 10
219.8980049365
 20
252.6073923239
  0
VERTEX
  8
0
 62
7
  6
CONTINUOUS
 10
219.8840831
 20
252.5754701094
  0
VERTEX
  8
0
 62
7
  6
CONTINUOUS
 10
219.8704907518
 20
252.5430711865
  0
VERTEX
  8
0
 62
7
  6
CONTINUOUS
 10
219.8572366493
 20
252.5101632585
  0
VERTEX
  8
0
 62
7
  6
CONTINUOUS
 10
219.8443331778
 20
252.4767033612
  0
VERTEX
  8
0
 62
7
  6
CONTINUOUS
 10
219.8318021144
 20
252.4426644283
  0
VERTEX
  8
0
 62
7
  6
CONTINUOUS
 10
219.8196842769
 20
252.4080509742
  0
VERTEX
  8
0
 62
7
  6
CONTINUOUS
 10
219.8080160392
 20
252.3728443754
  0
VERTEX
  8
0
 62
7
  6
CONTINUOUS
 10
219.7968454078
 20
252.3370406017
  0
VERTEX
  8
0
 62
7
  6
CONTINUOUS
 10
219.7862203832
 20
252.3006037274
  0
VERTEX
  8
0
 62
7
  6
CONTINUOUS
 10
219.7761961329
 20
252.2634883516
  0
VERTEX
  8
0
 62
7
  6
CONTINUOUS
 10
219.7668496989
 20
252.2256731816
  0
VERTEX
  8
0
 62
7
  6
CONTINUOUS
 10
219.7582945245
 20
252.1872275379
  0
VERTEX
  8
0
 62
7
  6
CONTINUOUS
 10
219.7506623396
 20
252.1482690089
  0
VERTEX
  8
0
 62
7
  6
CONTINUOUS
 10
219.7440982218
 20
252.1089569385
  0
VERTEX
  8
0
 62
7
  6
CONTINUOUS
 10
219.7387642491
 20
252.0695418367
  0
VERTEX
  8
0
 62
7
  6
CONTINUOUS
 10
219.7348210718
 20
252.0303191065
  0
VERTEX
  8
0
 62
7
  6
CONTINUOUS
 10
219.7324211127
 20
251.991769379
  0
VERTEX
  8
0
 62
7
  6
CONTINUOUS
 10
219.7316619392
 20
251.9561198424
  0
SEQEND
  0
POLYLINE
  8
0
 62
7
  6
CONTINUOUS
 66
1
 70
0
  0
VERTEX
  8
0
 62
7
  6
CONTINUOUS
 10
233.0806732607
 20
253.3103206672
  0
VERTEX
  8
0
 62
7
  6
CONTINUOUS
 10
233.0615037334
 20
253.2925220927
  0
VERTEX
  8
0
 62
7
  6
CONTINUOUS
 10
233.0358392816
 20
253.267610259
  0
VERTEX
  8
0
 62
7
  6
CONTINUOUS
 10
233.0113864967
 20
253.2427088759
  0
VERTEX
  8
0
 62
7
  6
CONTINUOUS
 10
232.9880024624
 20
253.2178138076
  0
VERTEX
  8
0
 62
7
  6
CONTINUOUS
 10
232.9655582562
 20
253.1929071008
  0
VERTEX
  8
0
 62
7
  6
CONTINUOUS
 10
232.9439234336
 20
253.1679430692
  0
VERTEX
  8
0
 62
7
  6
CONTINUOUS
 10
232.9229745461
 20
253.1428561309
  0
VERTEX
  8
0
 62
7
  6
CONTINUOUS
 10
232.9025988174
 20
253.11757186
  0
VERTEX
  8
0
 62
7
  6
CONTINUOUS
 10
232.8826901124
 20
253.0920048473
  0
VERTEX
  8
0
 62
7
  6
CONTINUOUS
 10
232.8632004345
 20
253.0661261372
  0
VERTEX
  8
0
 62
7
  6
CONTINUOUS
 10
232.8441157962
 20
253.0399451989
  0
VERTEX
  8
0
 62
7
  6
CONTINUOUS
 10
232.825419333
 20
253.0134653068
  0
VERTEX
  8
0
 62
7
  6
CONTINUOUS
 10
232.8070928337
 20
252.9866811904
  0
VERTEX
  8
0
 62
7
  6
CONTINUOUS
 10
232.7891252207
 20
252.9595946168
  0
VERTEX
  8
0
 62
7
  6
CONTINUOUS
 10
232.7715013365
 20
252.9321991008
  0
VERTEX
  8
0
 62
7
  6
CONTINUOUS
 10
232.7542065985
 20
252.904482048
  0
VERTEX
  8
0
 62
7
  6
CONTINUOUS
 10
232.737232145
 20
252.8764376078
  0
VERTEX
  8
0
 62
7
  6
CONTINUOUS
 10
232.7205628803
 20
252.8480459641
  0
VERTEX
  8
0
 62
7
  6
CONTINUOUS
 10
232.7041904728
 20
252.8192915426
  0
VERTEX
  8
0
 62
7
  6
CONTINUOUS
 10
232.6881147412
 20
252.7901724066
  0
VERTEX
  8
0
 62
7
  6
CONTINUOUS
 10
232.6723344334
 20
252.7606788896
  0
VERTEX
  8
0
 62
7
  6
CONTINUOUS
 10
232.6568559463
 20
252.7308134948
  0
VERTEX
  8
0
 62
7
  6
CONTINUOUS
 10
232.6416784321
 20
252.7005621511
  0
VERTEX
  8
0
 62
7
  6
CONTINUOUS
 10
232.6268086395
 20
252.6699191862
  0
VERTEX
  8
0
 62
7
  6
CONTINUOUS
 10
232.6122486738
 20
252.6388684232
  0
VERTEX
  8
0
 62
7
  6
CONTINUOUS
 10
232.5980049365
 20
252.6073923239
  0
VERTEX
  8
0
 62
7
  6
CONTINUOUS
 10
232.5840831
 20
252.5754701094
  0
VERTEX
  8
0
 62
7
  6
CONTINUOUS
 10
232.5704907518
 20
252.5430711865
  0
VERTEX
  8
0
 62
7
  6
CONTINUOUS
 10
232.5572366493
 20
252.5101632585
  0
VERTEX
  8
0
 62
7
  6
CONTINUOUS
 10
232.5443331778
 20
252.4767033612
  0
VERTEX
  8
0
 62
7
  6
CONTINUOUS
 10
232.5318021144
 20
252.4426644283
  0
VERTEX
  8
0
 62
7
  6
CONTINUOUS
 10
232.5196842769
 20
252.4080509742
  0
VERTEX
  8
0
 62
7
  6
CONTINUOUS
 10
232.5080160392
 20
252.3728443754
  0
VERTEX
  8
0
 62
7
  6
CONTINUOUS
 10
232.4968454078
 20
252.3370406017
  0
VERTEX
  8
0
 62
7
  6
CONTINUOUS
 10
232.4862203832
 20
252.3006037274
  0
VERTEX
  8
0
 62
7
  6
CONTINUOUS
 10
232.4761961329
 20
252.2634883516
  0
VERTEX
  8
0
 62
7
  6
CONTINUOUS
 10
232.4668496989
 20
252.2256731816
  0
VERTEX
  8
0
 62
7
  6
CONTINUOUS
 10
232.4582945245
 20
252.1872275379
  0
VERTEX
  8
0
 62
7
  6
CONTINUOUS
 10
232.4506623396
 20
252.1482690089
  0
VERTEX
  8
0
 62
7
  6
CONTINUOUS
 10
232.4440982218
 20
252.1089569385
  0
VERTEX
  8
0
 62
7
  6
CONTINUOUS
 10
232.4387642491
 20
252.0695418367
  0
VERTEX
  8
0
 62
7
  6
CONTINUOUS
 10
232.4348210718
 20
252.0303191065
  0
VERTEX
  8
0
 62
7
  6
CONTINUOUS
 10
232.4324211127
 20
251.991769379
  0
VERTEX
  8
0
 62
7
  6
CONTINUOUS
 10
232.4316619392
 20
251.9561198424
  0
SEQEND
  0
POLYLINE
  8
0
 62
7
  6
CONTINUOUS
 66
1
 70
0
  0
VERTEX
  8
0
 62
7
  6
CONTINUOUS
 10
220.4717184114
 20
253.3916351077
  0
VERTEX
  8
0
 62
7
  6
CONTINUOUS
 10
220.422222513
 20
253.3478215717
  0
VERTEX
  8
0
 62
7
  6
CONTINUOUS
 10
220.3806717164
 20
253.3103182283
  0
SEQEND
  0
POLYLINE
  8
0
 62
7
  6
CONTINUOUS
 66
1
 70
0
  0
VERTEX
  8
0
 62
7
  6
CONTINUOUS
 10
233.1717184114
 20
253.3916351077
  0
VERTEX
  8
0
 62
7
  6
CONTINUOUS
 10
233.122222513
 20
253.3478215717
  0
VERTEX
  8
0
 62
7
  6
CONTINUOUS
 10
233.0806717164
 20
253.3103182283
  0
SEQEND
  0
LINE
  8
0
 62
7
  6
CONTINUOUS
 10
220.514015678
 20
253.4283370765
 11
220.4717184114
 21
253.3916351077
  0
LINE
  8
0
 62
7
  6
CONTINUOUS
 10
233.214015678
 20
253.4283370765
 11
233.1717184114
 21
253.3916351077
  0
LINE
  8
0
 62
7
  6
CONTINUOUS
 10
95.3171488245
 20
226.2103402701
 11
104.0356610192
 21
226.2103402701
  0
POLYLINE
  8
0
 62
7
  6
CONTINUOUS
 66
1
 70
0
  0
VERTEX
  8
0
 62
7
  6
CONTINUOUS
 10
97.437639991
 20
230.904074662
  0
VERTEX
  8
0
 62
7
  6
CONTINUOUS
 10
97.3890943832
 20
230.9075894937
  0
VERTEX
  8
0
 62
7
  6
CONTINUOUS
 10
97.3436209074
 20
230.9185633612
  0
VERTEX
  8
0
 62
7
  6
CONTINUOUS
 10
97.3003194746
 20
230.9365925529
  0
VERTEX
  8
0
 62
7
  6
CONTINUOUS
 10
97.260236319
 20
230.9612831625
  0
VERTEX
  8
0
 62
7
  6
CONTINUOUS
 10
97.2243616753
 20
230.9920824419
  0
VERTEX
  8
0
 62
7
  6
CONTINUOUS
 10
97.1936090232
 20
231.0282772777
  0
VERTEX
  8
0
 62
7
  6
CONTINUOUS
 10
97.1687832482
 20
231.0690023318
  0
VERTEX
  8
0
 62
7
  6
CONTINUOUS
 10
97.150553641
 20
231.113244271
  0
VERTEX
  8
0
 62
7
  6
CONTINUOUS
 10
97.1394097848
 20
231.1599051974
  0
SEQEND
  0
POLYLINE
  8
0
 62
7
  6
CONTINUOUS
 66
1
 70
0
  0
VERTEX
  8
0
 62
7
  6
CONTINUOUS
 10
97.4356610192
 20
230.8703402701
  0
VERTEX
  8
0
 62
7
  6
CONTINUOUS
 10
97.3892292571
 20
230.8739978994
  0
VERTEX
  8
0
 62
7
  6
CONTINUOUS
 10
97.3435571375
 20
230.8849995833
  0
VERTEX
  8
0
 62
7
  6
CONTINUOUS
 10
97.3003344951
 20
230.902976659
  0
VERTEX
  8
0
 62
7
  6
CONTINUOUS
 10
97.2603036779
 20
230.9275935438
  0
VERTEX
  8
0
 62
7
  6
CONTINUOUS
 10
97.2241651896
 20
230.9585991609
  0
VERTEX
  8
0
 62
7
  6
CONTINUOUS
 10
97.193241906
 20
230.9950578321
  0
VERTEX
  8
0
 62
7
  6
CONTINUOUS
 10
97.1685681315
 20
231.0356464023
  0
VERTEX
  8
0
 62
7
  6
CONTINUOUS
 10
97.1504848528
 20
231.0796193326
  0
VERTEX
  8
0
 62
7
  6
CONTINUOUS
 10
97.1393701237
 20
231.1262595038
  0
VERTEX
  8
0
 62
7
  6
CONTINUOUS
 10
97.1356610192
 20
231.1738279753
  0
SEQEND
  0
POLYLINE
  8
0
 62
7
  6
CONTINUOUS
 66
1
 70
0
  0
VERTEX
  8
0
 62
7
  6
CONTINUOUS
 10
121.8156155577
 20
240.2301343242
  0
VERTEX
  8
0
 62
7
  6
CONTINUOUS
 10
121.6283009073
 20
240.2625537964
  0
VERTEX
  8
0
 62
7
  6
CONTINUOUS
 10
121.5165321648
 20
240.2809492548
  0
VERTEX
  8
0
 62
7
  6
CONTINUOUS
 10
121.3949516592
 20
240.2991235973
  0
VERTEX
  8
0
 62
7
  6
CONTINUOUS
 10
121.2654983381
 20
240.3158691633
  0
VERTEX
  8
0
 62
7
  6
CONTINUOUS
 10
121.1302663951
 20
240.3301246731
  0
VERTEX
  8
0
 62
7
  6
CONTINUOUS
 10
120.9909836848
 20
240.3410843359
  0
VERTEX
  8
0
 62
7
  6
CONTINUOUS
 10
120.8486872116
 20
240.3481982438
  0
VERTEX
  8
0
 62
7
  6
CONTINUOUS
 10
120.7041386418
 20
240.3510924571
  0
SEQEND
  0
POLYLINE
  8
0
 62
7
  6
CONTINUOUS
 66
1
 70
0
  0
VERTEX
  8
0
 62
7
  6
CONTINUOUS
 10
199.6404466185
 20
253.3484056067
  0
VERTEX
  8
0
 62
7
  6
CONTINUOUS
 10
199.5909497019
 20
253.3922077068
  0
VERTEX
  8
0
 62
7
  6
CONTINUOUS
 10
199.5493063609
 20
253.428337076
  0
SEQEND
  0
LINE
  8
0
 62
7
  6
CONTINUOUS
 10
199.6826503228
 20
253.3103182258
 11
199.6404466185
 21
253.3484056067
  0
POLYLINE
  8
0
 62
7
  6
CONTINUOUS
 66
1
 70
0
  0
VERTEX
  8
0
 62
7
  6
CONTINUOUS
 10
238.4316610276
 20
251.956119845
  0
VERTEX
  8
0
 62
7
  6
CONTINUOUS
 10
238.4306809943
 20
251.9967157803
  0
VERTEX
  8
0
 62
7
  6
CONTINUOUS
 10
238.4279709013
 20
252.0365484894
  0
VERTEX
  8
0
 62
7
  6
CONTINUOUS
 10
238.4236634824
 20
252.0768853148
  0
VERTEX
  8
0
 62
7
  6
CONTINUOUS
 10
238.4179746099
 20
252.1170268587
  0
VERTEX
  8
0
 62
7
  6
CONTINUOUS
 10
238.4111316834
 20
252.1565361556
  0
VERTEX
  8
0
 62
7
  6
CONTINUOUS
 10
238.4033060437
 20
252.1953326628
  0
VERTEX
  8
0
 62
7
  6
CONTINUOUS
 10
238.3946234577
 20
252.2334496154
  0
VERTEX
  8
0
 62
7
  6
CONTINUOUS
 10
238.3851867461
 20
252.2709141568
  0
VERTEX
  8
0
 62
7
  6
CONTINUOUS
 10
238.3750828843
 20
252.3077341057
  0
VERTEX
  8
0
 62
7
  6
CONTINUOUS
 10
238.364382277
 20
252.3439298147
  0
VERTEX
  8
0
 62
7
  6
CONTINUOUS
 10
238.3531241409
 20
252.3795852299
  0
VERTEX
  8
0
 62
7
  6
CONTINUOUS
 10
238.3413253456
 20
252.4147986915
  0
VERTEX
  8
0
 62
7
  6
CONTINUOUS
 10
238.3289902571
 20
252.4496698325
  0
VERTEX
  8
0
 62
7
  6
CONTINUOUS
 10
238.3161268289
 20
252.4842567635
  0
VERTEX
  8
0
 62
7
  6
CONTINUOUS
 10
238.3027313544
 20
252.5186222616
  0
VERTEX
  8
0
 62
7
  6
CONTINUOUS
 10
238.288799419
 20
252.5528175142
  0
VERTEX
  8
0
 62
7
  6
CONTINUOUS
 10
238.2743199285
 20
252.5868872737
  0
VERTEX
  8
0
 62
7
  6
CONTINUOUS
 10
238.259280365
 20
252.6208723169
  0
VERTEX
  8
0
 62
7
  6
CONTINUOUS
 10
238.2436679948
 20
252.6547961991
  0
VERTEX
  8
0
 62
7
  6
CONTINUOUS
 10
238.2274664211
 20
252.6886859495
  0
VERTEX
  8
0
 62
7
  6
CONTINUOUS
 10
238.2106677774
 20
252.7225375902
  0
VERTEX
  8
0
 62
7
  6
CONTINUOUS
 10
238.1932802022
 20
252.7563156536
  0
VERTEX
  8
0
 62
7
  6
CONTINUOUS
 10
238.1753181607
 20
252.7899680517
  0
VERTEX
  8
0
 62
7
  6
CONTINUOUS
 10
238.1567938611
 20
252.8234520828
  0
VERTEX
  8
0
 62
7
  6
CONTINUOUS
 10
238.1377197702
 20
252.856720619
  0
VERTEX
  8
0
 62
7
  6
CONTINUOUS
 10
238.1181059079
 20
252.8897350248
  0
VERTEX
  8
0
 62
7
  6
CONTINUOUS
 10
238.0979500585
 20
252.9224721761
  0
VERTEX
  8
0
 62
7
  6
CONTINUOUS
 10
238.0772560068
 20
252.9548992243
  0
VERTEX
  8
0
 62
7
  6
CONTINUOUS
 10
238.0560174973
 20
252.9869954635
  0
VERTEX
  8
0
 62
7
  6
CONTINUOUS
 10
238.0342364807
 20
253.0187238092
  0
VERTEX
  8
0
 62
7
  6
CONTINUOUS
 10
238.0119076113
 20
253.0500578342
  0
VERTEX
  8
0
 62
7
  6
CONTINUOUS
 10
237.9890255152
 20
253.0809640389
  0
VERTEX
  8
0
 62
7
  6
CONTINUOUS
 10
237.9655888056
 20
253.111403169
  0
VERTEX
  8
0
 62
7
  6
CONTINUOUS
 10
237.9415585848
 20
253.1413779688
  0
VERTEX
  8
0
 62
7
  6
CONTINUOUS
 10
237.9167784452
 20
253.1710167215
  0
VERTEX
  8
0
 62
7
  6
CONTINUOUS
 10
237.8910455132
 20
253.2004678323
  0
VERTEX
  8
0
 62
7
  6
CONTINUOUS
 10
237.8641398485
 20
253.2298489662
  0
VERTEX
  8
0
 62
7
  6
CONTINUOUS
 10
237.835842651
 20
253.259225757
  0
VERTEX
  8
0
 62
7
  6
CONTINUOUS
 10
237.8059068558
 20
253.2886370407
  0
VERTEX
  8
0
 62
7
  6
CONTINUOUS
 10
237.7826463666
 20
253.3103224655
  0
SEQEND
  0
POLYLINE
  8
0
 62
7
  6
CONTINUOUS
 66
1
 70
0
  0
VERTEX
  8
0
 62
7
  6
CONTINUOUS
 10
237.6816601453
 20
254.2961870626
  0
VERTEX
  8
0
 62
7
  6
CONTINUOUS
 10
237.6815066503
 20
254.3029723546
  0
VERTEX
  8
0
 62
7
  6
CONTINUOUS
 10
237.6795432963
 20
254.3213019832
  0
VERTEX
  8
0
 62
7
  6
CONTINUOUS
 10
237.6755421778
 20
254.338595691
  0
VERTEX
  8
0
 62
7
  6
CONTINUOUS
 10
237.669777526
 20
254.3547074046
  0
VERTEX
  8
0
 62
7
  6
CONTINUOUS
 10
237.6625079035
 20
254.3695394831
  0
VERTEX
  8
0
 62
7
  6
CONTINUOUS
 10
237.6539715869
 20
254.3830344255
  0
VERTEX
  8
0
 62
7
  6
CONTINUOUS
 10
237.6443834341
 20
254.3951670489
  0
VERTEX
  8
0
 62
7
  6
CONTINUOUS
 10
237.6339422835
 20
254.4059284979
  0
VERTEX
  8
0
 62
7
  6
CONTINUOUS
 10
237.6228620599
 20
254.41530271
  0
VERTEX
  8
0
 62
7
  6
CONTINUOUS
 10
237.6113453848
 20
254.4233029556
  0
VERTEX
  8
0
 62
7
  6
CONTINUOUS
 10
237.5995796075
 20
254.42996858
  0
VERTEX
  8
0
 62
7
  6
CONTINUOUS
 10
237.5877477498
 20
254.4353554741
  0
VERTEX
  8
0
 62
7
  6
CONTINUOUS
 10
237.5763013021
 20
254.4394528268
  0
VERTEX
  8
0
 62
7
  6
CONTINUOUS
 10
237.5659604204
 20
254.4422938549
  0
VERTEX
  8
0
 62
7
  6
CONTINUOUS
 10
237.5573865329
 20
254.444070413
  0
VERTEX
  8
0
 62
7
  6
CONTINUOUS
 10
237.5507948889
 20
254.44509851
  0
VERTEX
  8
0
 62
7
  6
CONTINUOUS
 10
237.5457774311
 20
254.4456952973
  0
VERTEX
  8
0
 62
7
  6
CONTINUOUS
 10
237.5418178977
 20
254.4460610717
  0
VERTEX
  8
0
 62
7
  6
CONTINUOUS
 10
237.538522994
 20
254.4463017219
  0
VERTEX
  8
0
 62
7
  6
CONTINUOUS
 10
237.5356039094
 20
254.4464728565
  0
VERTEX
  8
0
 62
7
  6
CONTINUOUS
 10
237.5328733025
 20
254.446602877
  0
VERTEX
  8
0
 62
7
  6
CONTINUOUS
 10
237.5302088211
 20
254.4467068844
  0
VERTEX
  8
0
 62
7
  6
CONTINUOUS
 10
237.5275327198
 20
254.4467931442
  0
VERTEX
  8
0
 62
7
  6
CONTINUOUS
 10
237.5247979992
 20
254.4468663406
  0
SEQEND
  0
LINE
  8
0
 62
7
  6
CONTINUOUS
 10
232.4316610192
 20
240.9582080023
 11
232.4316610192
 21
251.9561198424
  0
LINE
  8
0
 62
7
  6
CONTINUOUS
 10
233.1816610192
 20
254.2070154733
 11
233.1816610192
 21
253.4002624567
  0
LINE
  8
0
 62
7
  6
CONTINUOUS
 10
237.6816610192
 20
254.2961875
 11
237.6816610192
 21
253.4002665008
  0
LINE
  8
0
 62
7
  6
CONTINUOUS
 10
238.4316610192
 20
251.9561052244
 11
238.4316610192
 21
240.9582080023
  0
POLYLINE
  8
0
 62
7
  6
CONTINUOUS
 66
1
 70
0
  0
VERTEX
  8
0
 62
7
  6
CONTINUOUS
 10
103.0356610192
 20
230.8703402701
  0
VERTEX
  8
0
 62
7
  6
CONTINUOUS
 10
103.2429379211
 20
230.8721956072
  0
VERTEX
  8
0
 62
7
  6
CONTINUOUS
 10
103.4492307082
 20
230.877750685
  0
VERTEX
  8
0
 62
7
  6
CONTINUOUS
 10
103.6511031833
 20
230.8868418292
  0
VERTEX
  8
0
 62
7
  6
CONTINUOUS
 10
103.8455183092
 20
230.8991393909
  0
VERTEX
  8
0
 62
7
  6
CONTINUOUS
 10
104.032032073
 20
230.9143868463
  0
VERTEX
  8
0
 62
7
  6
CONTINUOUS
 10
104.2084739539
 20
230.9321740223
  0
VERTEX
  8
0
 62
7
  6
CONTINUOUS
 10
104.3717985474
 20
230.9518918282
  0
VERTEX
  8
0
 62
7
  6
CONTINUOUS
 10
104.5197892212
 20
230.9729027938
  0
VERTEX
  8
0
 62
7
  6
CONTINUOUS
 10
104.652282852
 20
230.994841103
  0
VERTEX
  8
0
 62
7
  6
CONTINUOUS
 10
104.7672003617
 20
231.0170633388
  0
VERTEX
  8
0
 62
7
  6
CONTINUOUS
 10
104.8625911965
 20
231.0388692246
  0
VERTEX
  8
0
 62
7
  6
CONTINUOUS
 10
104.9375687748
 20
231.059731841
  0
VERTEX
  8
0
 62
7
  6
CONTINUOUS
 10
104.9919486145
 20
231.0793717315
  0
VERTEX
  8
0
 62
7
  6
CONTINUOUS
 10
105.0247668314
 20
231.097311686
  0
VERTEX
  8
0
 62
7
  6
CONTINUOUS
 10
105.0356610192
 20
231.1131641448
  0
SEQEND
  0
LINE
  8
0
 62
7
  6
CONTINUOUS
 10
97.4356610192
 20
230.8703402701
 11
103.0356610192
 21
230.8703402701
  0
LINE
  8
0
 62
7
  6
CONTINUOUS
 10
97.5856604656
 20
231.1632210101
 11
105.0356610192
 21
231.1632210101
  0
LINE
  8
0
 62
7
  6
CONTINUOUS
 10
92.0316610192
 20
240.2082080023
 11
237.6816610192
 21
240.2082080023
  0
LINE
  8
0
 62
7
  6
CONTINUOUS
 10
97.4683249012
 20
230.9039056166
 11
97.4356610192
 21
230.9039285363
  0
POLYLINE
  8
0
 62
7
  6
CONTINUOUS
 66
1
 70
0
  0
VERTEX
  8
0
 62
7
  6
CONTINUOUS
 10
121.990706473
 20
240.2082080023
  0
VERTEX
  8
0
 62
7
  6
CONTINUOUS
 10
121.9469347664
 20
240.2108810149
  0
VERTEX
  8
0
 62
7
  6
CONTINUOUS
 10
121.8886825427
 20
240.2183988962
  0
VERTEX
  8
0
 62
7
  6
CONTINUOUS
 10
121.8156155577
 20
240.2301343242
  0
SEQEND
  0
POLYLINE
  8
0
 62
7
  6
CONTINUOUS
 66
1
 70
0
  0
VERTEX
  8
0
 62
7
  6
CONTINUOUS
 10
212.3404466185
 20
253.3484056067
  0
VERTEX
  8
0
 62
7
  6
CONTINUOUS
 10
212.2909497019
 20
253.3922077068
  0
VERTEX
  8
0
 62
7
  6
CONTINUOUS
 10
212.2493063609
 20
253.428337076
  0
SEQEND
  0
POLYLINE
  8
0
 62
7
  6
CONTINUOUS
 66
1
 70
0
  0
VERTEX
  8
0
 62
7
  6
CONTINUOUS
 10
225.0404466185
 20
253.3484056067
  0
VERTEX
  8
0
 62
7
  6
CONTINUOUS
 10
224.9909497019
 20
253.3922077068
  0
VERTEX
  8
0
 62
7
  6
CONTINUOUS
 10
224.9493063609
 20
253.428337076
  0
SEQEND
  0
LINE
  8
0
 62
7
  6
CONTINUOUS
 10
212.3826503228
 20
253.3103182258
 11
212.3404466185
 21
253.3484056067
  0
LINE
  8
0
 62
7
  6
CONTINUOUS
 10
225.0826503228
 20
253.3103182258
 11
225.0404466185
 21
253.3484056067
  0
POLYLINE
  8
0
 62
7
  6
CONTINUOUS
 66
1
 70
0
  0
VERTEX
  8
0
 62
7
  6
CONTINUOUS
 10
113.772604632
 20
240.2082080024
  0
VERTEX
  8
0
 62
7
  6
CONTINUOUS
 10
113.8125902739
 20
240.2105027155
  0
VERTEX
  8
0
 62
7
  6
CONTINUOUS
 10
113.8648229492
 20
240.2169667224
  0
VERTEX
  8
0
 62
7
  6
CONTINUOUS
 10
113.9296856152
 20
240.2271144372
  0
VERTEX
  8
0
 62
7
  6
CONTINUOUS
 10
114.0951448326
 20
240.2557089693
  0
SEQEND
  0
LINE
  8
0
 62
7
  6
CONTINUOUS
 10
93.9213058397
 20
254.4386324131
 11
93.6572943473
 21
254.4363016999
  0
POLYLINE
  8
0
 62
7
  6
CONTINUOUS
 66
1
 70
0
  0
VERTEX
  8
0
 62
7
  6
CONTINUOUS
 10
95.3665305279
 20
254.4458615089
  0
VERTEX
  8
0
 62
7
  6
CONTINUOUS
 10
94.6287012857
 20
254.442946165
  0
VERTEX
  8
0
 62
7
  6
CONTINUOUS
 10
93.9213057152
 20
254.4386324082
  0
SEQEND
  0
LINE
  8
0
 62
7
  6
CONTINUOUS
 10
95.3665305279
 20
254.4458615089
 11
96.302096526
 21
254.4472338153
  0
LINE
  8
AXES
 62
2
  6
CENTER
 10
91.8816610192
 20
246.2082080023
 11
234.0816610192
 21
246.2082080023
  0
LINE
  8
0
 62
7
  6
CONTINUOUS
 10
141.1856610192
 20
254.4461838493
 11
137.3316610192
 21
254.4461838493
  0
LINE
  8
0
 62
7
  6
CONTINUOUS
 10
127.4316610192
 20
254.4461838493
 11
122.8316610192
 21
254.4461838493
  0
LINE
  8
0
 62
7
  6
CONTINUOUS
 10
108.5066610192
 20
254.446971483
 11
112.6316610192
 21
254.446971483
  0
LINE
  8
SURFACE
 62
7
  6
CONTINUOUS
 10
96.3005100131
 20
254.4472340243
 11
108.5066610192
 21
254.4472340243
  0
LINE
  8
SURFACE
 62
7
  6
CONTINUOUS
 10
112.6316610192
 20
254.4472340243
 11
122.8316610192
 21
254.4472340243
  0
LINE
  8
SURFACE
 62
7
  6
CONTINUOUS
 10
127.4316610192
 20
254.4472340243
 11
137.3316610192
 21
254.4472340243
  0
LINE
  8
SURFACE
 62
7
  6
CONTINUOUS
 10
141.1856610192
 20
254.4472340243
 11
237.4768712462
 21
254.4472340243
  0
POLYLINE
  8
0
 62
7
  6
CONTINUOUS
 66
1
 70
0
  0
VERTEX
  8
0
 62
7
  6
CONTINUOUS
 10
96.302096526
 20
254.4472338153
  0
VERTEX
  8
0
 62
7
  6
CONTINUOUS
 10
96.9367379748
 20
254.4462239043
  0
VERTEX
  8
0
 62
7
  6
CONTINUOUS
 10
97.3439504882
 20
254.4438864746
  0
VERTEX
  8
0
 62
7
  6
CONTINUOUS
 10
97.7313033111
 20
254.4396241919
  0
VERTEX
  8
0
 62
7
  6
CONTINUOUS
 10
98.0959820339
 20
254.4329094461
  0
VERTEX
  8
0
 62
7
  6
CONTINUOUS
 10
98.4363510869
 20
254.4231934451
  0
VERTEX
  8
0
 62
7
  6
CONTINUOUS
 10
98.7507618014
 20
254.4099230153
  0
VERTEX
  8
0
 62
7
  6
CONTINUOUS
 10
99.0369083711
 20
254.3926013294
  0
VERTEX
  8
0
 62
7
  6
CONTINUOUS
 10
99.2931892098
 20
254.3707619883
  0
VERTEX
  8
0
 62
7
  6
CONTINUOUS
 10
99.5182083678
 20
254.3439937188
  0
VERTEX
  8
0
 62
7
  6
CONTINUOUS
 10
99.7107388424
 20
254.3119572789
  0
VERTEX
  8
0
 62
7
  6
CONTINUOUS
 10
99.8699592752
 20
254.274336067
  0
VERTEX
  8
0
 62
7
  6
CONTINUOUS
 10
99.9950007418
 20
254.2308869495
  0
VERTEX
  8
0
 62
7
  6
CONTINUOUS
 10
100.0848166766
 20
254.1815848974
  0
VERTEX
  8
0
 62
7
  6
CONTINUOUS
 10
100.138747454
 20
254.1265951968
  0
VERTEX
  8
0
 62
7
  6
CONTINUOUS
 10
100.1566610192
 20
254.0662624774
  0
SEQEND
  0
POLYLINE
  8
0
 62
7
  6
CONTINUOUS
 66
1
 70
0
  0
VERTEX
  8
0
 62
7
  6
CONTINUOUS
 10
237.477388959
 20
254.4472340058
  0
VERTEX
  8
0
 62
7
  6
CONTINUOUS
 10
237.506987005
 20
254.4471249445
  0
VERTEX
  8
0
 62
7
  6
CONTINUOUS
 10
237.5254770982
 20
254.446778166
  0
VERTEX
  8
0
 62
7
  6
CONTINUOUS
 10
237.5316610192
 20
254.4461838493
  0
SEQEND
  0
LINE
  8
0
 62
7
  6
CONTINUOUS
 10
237.50873639
 20
254.4471155525
 11
237.4962223595
 21
254.4471974598
  0
LINE
  8
0
 62
7
  6
CONTINUOUS
 10
237.5157673831
 20
254.4470346259
 11
237.50873639
 21
254.4471155525
  0
POLYLINE
  8
0
 62
7
  6
CONTINUOUS
 66
1
 70
0
  0
VERTEX
  8
0
 62
7
  6
CONTINUOUS
 10
237.7404462647
 20
253.3484059654
  0
VERTEX
  8
0
 62
7
  6
CONTINUOUS
 10
237.6909493107
 20
253.3922080721
  0
VERTEX
  8
0
 62
7
  6
CONTINUOUS
 10
237.6493063414
 20
253.428337095
  0
SEQEND
  0
LINE
  8
0
 62
7
  6
CONTINUOUS
 10
237.7826503409
 20
253.3103182484
 11
237.7404462647
 21
253.3484059654
  0
POLYLINE
  8
0
 62
7
  6
CONTINUOUS
 66
1
 70
0
  0
VERTEX
  8
0
 62
7
  6
CONTINUOUS
 10
114.0951448326
 20
240.2557089693
  0
VERTEX
  8
0
 62
7
  6
CONTINUOUS
 10
114.1939688334
 20
240.2724256831
  0
VERTEX
  8
0
 62
7
  6
CONTINUOUS
 10
114.301873174
 20
240.289451657
  0
VERTEX
  8
0
 62
7
  6
CONTINUOUS
 10
114.4173936539
 20
240.3058024109
  0
VERTEX
  8
0
 62
7
  6
CONTINUOUS
 10
114.5389292371
 20
240.3205656458
  0
VERTEX
  8
0
 62
7
  6
CONTINUOUS
 10
114.6648889778
 20
240.3329700348
  0
VERTEX
  8
0
 62
7
  6
CONTINUOUS
 10
114.794059311
 20
240.3424404648
  0
VERTEX
  8
0
 62
7
  6
CONTINUOUS
 10
114.9256847748
 20
240.3485743612
  0
VERTEX
  8
0
 62
7
  6
CONTINUOUS
 10
115.0589647879
 20
240.3510880859
  0
SEQEND
  0
POLYLINE
  8
0
 62
7
  6
CONTINUOUS
 66
1
 70
0
  0
VERTEX
  8
0
 62
7
  6
CONTINUOUS
 10
92.9409855756
 20
254.4226374521
  0
VERTEX
  8
0
 62
7
  6
CONTINUOUS
 10
92.8447262137
 20
254.4193821292
  0
VERTEX
  8
0
 62
7
  6
CONTINUOUS
 10
92.7548871721
 20
254.4158416939
  0
VERTEX
  8
0
 62
7
  6
CONTINUOUS
 10
92.6713215681
 20
254.412019917
  0
VERTEX
  8
0
 62
7
  6
CONTINUOUS
 10
92.5938529728
 20
254.4079225151
  0
VERTEX
  8
0
 62
7
  6
CONTINUOUS
 10
92.5222828118
 20
254.4035569814
  0
VERTEX
  8
0
 62
7
  6
CONTINUOUS
 10
92.4563836091
 20
254.3989318498
  0
VERTEX
  8
0
 62
7
  6
CONTINUOUS
 10
92.3959121273
 20
254.3940554806
  0
VERTEX
  8
0
 62
7
  6
CONTINUOUS
 10
92.3406014186
 20
254.3889360474
  0
VERTEX
  8
0
 62
7
  6
CONTINUOUS
 10
92.2901678558
 20
254.3835784833
  0
VERTEX
  8
0
 62
7
  6
CONTINUOUS
 10
92.2443114204
 20
254.3779843621
  0
VERTEX
  8
0
 62
7
  6
CONTINUOUS
 10
92.202717045
 20
254.3721489106
  0
VERTEX
  8
0
 62
7
  6
CONTINUOUS
 10
92.1650612163
 20
254.3660579182
  0
VERTEX
  8
0
 62
7
  6
CONTINUOUS
 10
92.1309841276
 20
254.3596808111
  0
VERTEX
  8
0
 62
7
  6
CONTINUOUS
 10
92.1000797256
 20
254.3529567941
  0
VERTEX
  8
0
 62
7
  6
CONTINUOUS
 10
92.0719082442
 20
254.3457827301
  0
VERTEX
  8
0
 62
7
  6
CONTINUOUS
 10
92.0460071221
 20
254.3379969737
  0
VERTEX
  8
0
 62
7
  6
CONTINUOUS
 10
92.02191103
 20
254.3293542275
  0
VERTEX
  8
0
 62
7
  6
CONTINUOUS
 10
91.9991045514
 20
254.3194612655
  0
VERTEX
  8
0
 62
7
  6
CONTINUOUS
 10
91.9770267538
 20
254.3076815975
  0
VERTEX
  8
0
 62
7
  6
CONTINUOUS
 10
91.9552266485
 20
254.2930459341
  0
VERTEX
  8
0
 62
7
  6
CONTINUOUS
 10
91.9337060409
 20
254.2742715477
  0
VERTEX
  8
0
 62
7
  6
CONTINUOUS
 10
91.9134486698
 20
254.2501779341
  0
VERTEX
  8
0
 62
7
  6
CONTINUOUS
 10
91.896472447
 20
254.2203345299
  0
VERTEX
  8
0
 62
7
  6
CONTINUOUS
 10
91.8852984144
 20
254.185889094
  0
VERTEX
  8
0
 62
7
  6
CONTINUOUS
 10
91.8816615047
 20
254.1509645008
  0
SEQEND
  0
LINE
  8
0
 62
7
  6
CONTINUOUS
 10
93.153195772
 20
254.4282908128
 11
92.9409855756
 21
254.4226374521
  0
LINE
  8
0
 62
7
  6
CONTINUOUS
 10
93.3920104596
 20
254.4328241115
 11
93.153195772
 21
254.4282908128
  0
LINE
  8
0
 62
7
  6
CONTINUOUS
 10
93.6572943473
 20
254.4363016999
 11
93.3920104596
 21
254.4328241115
  0
POLYLINE
  8
AXES
 62
7
  6
CONTINUOUS
 66
1
 70
0
  0
VERTEX
  8
AXES
 62
7
  6
CONTINUOUS
 10
114.7634922584
 20
244.7242280007
  0
VERTEX
  8
AXES
 62
7
  6
CONTINUOUS
 10
114.6311156405
 20
244.6898662584
  0
VERTEX
  8
AXES
 62
7
  6
CONTINUOUS
 10
114.4975965913
 20
244.6444092526
  0
VERTEX
  8
AXES
 62
7
  6
CONTINUOUS
 10
114.3649430745
 20
244.5893884064
  0
VERTEX
  8
AXES
 62
7
  6
CONTINUOUS
 10
114.2354016598
 20
244.5270728193
  0
VERTEX
  8
AXES
 62
7
  6
CONTINUOUS
 10
114.1112488116
 20
244.4601955672
  0
VERTEX
  8
AXES
 62
7
  6
CONTINUOUS
 10
113.996207396
 20
244.3926093012
  0
VERTEX
  8
AXES
 62
7
  6
CONTINUOUS
 10
113.8935192037
 20
244.3281396343
  0
VERTEX
  8
AXES
 62
7
  6
CONTINUOUS
 10
113.8054917265
 20
244.2699931801
  0
VERTEX
  8
AXES
 62
7
  6
CONTINUOUS
 10
113.7330720955
 20
244.2202385684
  0
VERTEX
  8
AXES
 62
7
  6
CONTINUOUS
 10
113.6757514852
 20
244.179596199
  0
VERTEX
  8
AXES
 62
7
  6
CONTINUOUS
 10
113.6326992725
 20
244.1482148218
  0
VERTEX
  8
AXES
 62
7
  6
CONTINUOUS
 10
113.6029254637
 20
244.1258555404
  0
VERTEX
  8
AXES
 62
7
  6
CONTINUOUS
 10
113.5860972033
 20
244.1125696669
  0
VERTEX
  8
AXES
 62
7
  6
CONTINUOUS
 10
113.581661025
 20
244.1082905385
  0
SEQEND
  0
LINE
  8
0
 62
7
  6
CONTINUOUS
 10
91.8816610192
 20
150.5271768475
 11
91.8816610192
 21
139.07627887
  0
LINE
  8
0
 62
7
  6
CONTINUOUS
 10
97.1356610192
 20
138.5442231003
 11
97.1356610192
 21
152.0920275693
  0
LINE
  8
0
 62
7
  6
CONTINUOUS
 10
99.2566753824
 20
119.518595254
 11
99.2566753824
 21
123.5071072956
  0
LINE
  8
0
 62
7
  6
CONTINUOUS
 10
100.0066610192
 20
129.8313433166
 11
100.0066610192
 21
126.5519834538
  0
POLYLINE
  8
0
 62
7
  6
CONTINUOUS
 66
1
 70
0
  0
VERTEX
  8
0
 62
7
  6
CONTINUOUS
 10
105.0356610192
 20
143.5351681588
  0
VERTEX
  8
0
 62
7
  6
CONTINUOUS
 10
105.0247766623
 20
143.7436117941
  0
VERTEX
  8
0
 62
7
  6
CONTINUOUS
 10
104.9920505873
 20
143.9503501779
  0
VERTEX
  8
0
 62
7
  6
CONTINUOUS
 10
104.9379154651
 20
144.1519810362
  0
VERTEX
  8
0
 62
7
  6
CONTINUOUS
 10
104.8633732648
 20
144.3455892278
  0
VERTEX
  8
0
 62
7
  6
CONTINUOUS
 10
104.7686143734
 20
144.5308359943
  0
VERTEX
  8
0
 62
7
  6
CONTINUOUS
 10
104.6544556109
 20
144.7056226338
  0
VERTEX
  8
0
 62
7
  6
CONTINUOUS
 10
104.5227403418
 20
144.8670635587
  0
VERTEX
  8
0
 62
7
  6
CONTINUOUS
 10
104.3754464763
 20
145.013130059
  0
VERTEX
  8
0
 62
7
  6
CONTINUOUS
 10
104.2126305226
 20
145.1437738787
  0
VERTEX
  8
0
 62
7
  6
CONTINUOUS
 10
104.0363875383
 20
145.2570135099
  0
VERTEX
  8
0
 62
7
  6
CONTINUOUS
 10
103.849697575
 20
145.3510020592
  0
VERTEX
  8
0
 62
7
  6
CONTINUOUS
 10
103.6547689443
 20
145.4249155403
  0
VERTEX
  8
0
 62
7
  6
CONTINUOUS
 10
103.4520138441
 20
145.4785730449
  0
VERTEX
  8
0
 62
7
  6
CONTINUOUS
 10
103.2444779945
 20
145.5109881175
  0
VERTEX
  8
0
 62
7
  6
CONTINUOUS
 10
103.0356610192
 20
145.5217605805
  0
SEQEND
  0
LINE
  8
0
 62
7
  6
CONTINUOUS
 10
104.5066610192
 20
126.5519832819
 11
104.5066610192
 21
131.2326835503
  0
LINE
  8
0
 62
7
  6
CONTINUOUS
 10
105.0356610192
 20
143.5351681588
 11
105.0356610192
 21
140.6974307086
  0
LINE
  8
0
 62
7
  6
CONTINUOUS
 10
105.256646656
 20
123.5071072956
 11
105.256646656
 21
119.518595254
  0
LINE
  8
0
 62
7
  6
CONTINUOUS
 10
107.3776610192
 20
147.5813873059
 11
107.3776610192
 21
151.8327051616
  0
LINE
  8
0
 62
7
  6
CONTINUOUS
 10
108.1316610192
 20
140.2827228877
 11
108.1316610192
 21
144.520431726
  0
LINE
  8
0
 62
7
  6
CONTINUOUS
 10
112.6316610192
 20
140.3827231964
 11
112.6316610192
 21
144.5204268368
  0
LINE
  8
0
 62
7
  6
CONTINUOUS
 10
113.3856610192
 20
147.5811676364
 11
113.3856610192
 21
151.8327051616
  0
LINE
  8
0
 62
7
  6
CONTINUOUS
 10
114.8816753824
 20
119.518595254
 11
114.8816753824
 21
123.5071072956
  0
LINE
  8
0
 62
7
  6
CONTINUOUS
 10
115.6316610192
 20
132.2327051616
 11
115.6316610192
 21
126.5519834538
  0
LINE
  8
AXES
 62
7
  6
CONTINUOUS
 10
99.9913836941
 20
126.4293297609
 11
99.8612585799
 21
125.9150803163
  0
LINE
  8
0
 62
7
  6
CONTINUOUS
 10
99.9913837439
 20
126.4293299575
 11
99.2612585799
 21
123.5439034035
  0
LINE
  8
0
 62
7
  6
CONTINUOUS
 10
112.6469383443
 20
144.6430805624
 11
113.3810778217
 21
147.5443715285
  0
LINE
  8
0
 62
7
  6
CONTINUOUS
 10
105.2520634585
 20
123.5439034035
 11
104.5219383541
 21
126.4293297218
  0
LINE
  8
AXES
 62
7
  6
CONTINUOUS
 10
104.6520634585
 20
125.9150803163
 11
104.5219383443
 21
126.4293297609
  0
LINE
  8
0
 62
7
  6
CONTINUOUS
 10
108.1163858574
 20
144.6430764908
 11
107.3822435677
 21
147.5445937629
  0
LINE
  8
0
 62
7
  6
CONTINUOUS
 10
120.1316610192
 20
132.3826884084
 11
120.1316610192
 21
126.5519830748
  0
LINE
  8
0
 62
7
  6
CONTINUOUS
 10
120.881646656
 20
123.5071072956
 11
120.881646656
 21
119.518595254
  0
LINE
  8
0
 62
7
  6
CONTINUOUS
 10
122.3776610192
 20
147.5811676364
 11
122.3776610192
 21
151.8327051616
  0
LINE
  8
0
 62
7
  6
CONTINUOUS
 10
123.1316610192
 20
144.5204270413
 11
123.1316610192
 21
140.3827254157
  0
LINE
  8
0
 62
7
  6
CONTINUOUS
 10
127.6316610192
 20
144.5204268694
 11
127.6316610192
 21
139.8827051616
  0
LINE
  8
0
 62
7
  6
CONTINUOUS
 10
128.3856610192
 20
147.5811676364
 11
128.3856610192
 21
151.8327051616
  0
LINE
  8
0
 62
7
  6
CONTINUOUS
 10
129.3816753824
 20
119.518595254
 11
129.3816753824
 21
123.5071072956
  0
LINE
  8
0
 62
7
  6
CONTINUOUS
 10
130.1316610192
 20
126.5519826862
 11
130.1316610192
 21
132.3826880375
  0
LINE
  8
AXES
 62
7
  6
CONTINUOUS
 10
115.6163836941
 20
126.4293297609
 11
115.4862585799
 21
125.9150803163
  0
LINE
  8
0
 62
7
  6
CONTINUOUS
 10
115.6163837439
 20
126.4293299575
 11
114.8862585799
 21
123.5439034035
  0
LINE
  8
0
 62
7
  6
CONTINUOUS
 10
127.6469383443
 20
144.6430805624
 11
128.3810778217
 21
147.5443715285
  0
POLYLINE
  8
0
 62
7
  6
CONTINUOUS
 66
1
 70
0
  0
VERTEX
  8
0
 62
7
  6
CONTINUOUS
 10
97.1356610192
 20
145.5687565265
  0
VERTEX
  8
0
 62
7
  6
CONTINUOUS
 10
97.139323793
 20
145.5614352026
  0
VERTEX
  8
0
 62
7
  6
CONTINUOUS
 10
97.1503173619
 20
145.5542468753
  0
VERTEX
  8
0
 62
7
  6
CONTINUOUS
 10
97.1682390513
 20
145.5474577678
  0
VERTEX
  8
0
 62
7
  6
CONTINUOUS
 10
97.1927447619
 20
145.5411786054
  0
VERTEX
  8
0
 62
7
  6
CONTINUOUS
 10
97.2235338291
 20
145.5355246297
  0
VERTEX
  8
0
 62
7
  6
CONTINUOUS
 10
97.2596195338
 20
145.5307025887
  0
VERTEX
  8
0
 62
7
  6
CONTINUOUS
 10
97.2996887519
 20
145.5268649074
  0
VERTEX
  8
0
 62
7
  6
CONTINUOUS
 10
97.3430404161
 20
145.5240564304
  0
VERTEX
  8
0
 62
7
  6
CONTINUOUS
 10
97.3889334748
 20
145.5223341589
  0
VERTEX
  8
0
 62
7
  6
CONTINUOUS
 10
97.4356610192
 20
145.5217605805
  0
SEQEND
  0
LINE
  8
0
 62
7
  6
CONTINUOUS
 10
120.1469381506
 20
126.4293305262
 11
120.8770634585
 21
123.5439034035
  0
LINE
  8
AXES
 62
7
  6
CONTINUOUS
 10
120.2770634585
 20
125.9150803163
 11
120.1469383443
 21
126.4293297609
  0
LINE
  8
0
 62
7
  6
CONTINUOUS
 10
122.3822442167
 20
147.5443715285
 11
123.1163836843
 21
144.6430806015
  0
LINE
  8
0
 62
7
  6
CONTINUOUS
 10
134.6316610192
 20
132.3826884084
 11
134.6316610192
 21
126.5519830748
  0
LINE
  8
0
 62
7
  6
CONTINUOUS
 10
135.381646656
 20
123.5071072956
 11
135.381646656
 21
119.518595254
  0
LINE
  8
0
 62
7
  6
CONTINUOUS
 10
136.3776610192
 20
147.5811676364
 11
136.3776610192
 21
151.8327051616
  0
LINE
  8
0
 62
7
  6
CONTINUOUS
 10
137.1316610192
 20
144.5204270413
 11
137.1316610192
 21
139.8827262337
  0
LINE
  8
0
 62
7
  6
CONTINUOUS
 10
141.6356610192
 20
144.5204268694
 11
141.6356610192
 21
139.8827051616
  0
LINE
  8
0
 62
7
  6
CONTINUOUS
 10
142.3896610192
 20
147.5811676364
 11
142.3896610192
 21
151.8327051616
  0
LINE
  8
0
 62
7
  6
CONTINUOUS
 10
143.1356753824
 20
119.5124833093
 11
143.1356753824
 21
123.5071072956
  0
LINE
  8
0
 62
7
  6
CONTINUOUS
 10
143.8856610192
 20
132.3827051616
 11
143.8856610192
 21
126.5519834538
  0
LINE
  8
AXES
 62
7
  6
CONTINUOUS
 10
130.1163836941
 20
126.4293297609
 11
129.9862585799
 21
125.9150803163
  0
LINE
  8
0
 62
7
  6
CONTINUOUS
 10
129.3862585799
 20
123.5439034035
 11
130.1163837961
 21
126.4293301638
  0
LINE
  8
0
 62
7
  6
CONTINUOUS
 10
141.6509383443
 20
144.6430805624
 11
142.3850778217
 21
147.5443715285
  0
LINE
  8
0
 62
7
  6
CONTINUOUS
 10
134.6469381506
 20
126.4293305262
 11
135.3770634585
 21
123.5439034035
  0
LINE
  8
AXES
 62
7
  6
CONTINUOUS
 10
134.7770634585
 20
125.9150803163
 11
134.6469383443
 21
126.4293297609
  0
LINE
  8
0
 62
7
  6
CONTINUOUS
 10
136.3822442167
 20
147.5443715285
 11
137.1163836843
 21
144.6430806015
  0
LINE
  8
0
 62
7
  6
CONTINUOUS
 10
148.3856610192
 20
132.7486890303
 11
148.3856610192
 21
126.5519830748
  0
LINE
  8
0
 62
7
  6
CONTINUOUS
 10
149.135646656
 20
123.5071072956
 11
149.135646656
 21
119.5124833093
  0
LINE
  8
0
 62
7
  6
CONTINUOUS
 10
149.8816610192
 20
147.5811676364
 11
149.8816610192
 21
151.8327051616
  0
LINE
  8
0
 62
7
  6
CONTINUOUS
 10
150.6356610192
 20
144.5204270413
 11
150.6356610192
 21
139.8827262337
  0
LINE
  8
0
 62
7
  6
CONTINUOUS
 10
155.1276610192
 20
144.520427637
 11
155.1276610192
 21
140.3367240576
  0
LINE
  8
0
 62
7
  6
CONTINUOUS
 10
155.8816610192
 20
147.5811676364
 11
155.8816610192
 21
151.8327051616
  0
LINE
  8
0
 62
7
  6
CONTINUOUS
 10
156.2316610192
 20
120.0332154188
 11
156.2316610192
 21
123.5071072956
  0
LINE
  8
0
 62
7
  6
CONTINUOUS
 10
156.9816610192
 20
132.7487051616
 11
156.9816610192
 21
126.5520402165
  0
LINE
  8
AXES
 62
7
  6
CONTINUOUS
 10
143.8703836941
 20
126.4293297609
 11
143.7402585799
 21
125.9150803163
  0
LINE
  8
0
 62
7
  6
CONTINUOUS
 10
143.1402585799
 20
123.5439034035
 11
143.8703837961
 21
126.4293301638
  0
LINE
  8
0
 62
7
  6
CONTINUOUS
 10
155.8770778217
 20
147.5443715285
 11
155.1429382423
 21
144.6430801594
  0
LINE
  8
0
 62
7
  6
CONTINUOUS
 10
148.4009381506
 20
126.4293305262
 11
149.1310634585
 21
123.5439034035
  0
LINE
  8
AXES
 62
7
  6
CONTINUOUS
 10
148.5310634585
 20
125.9150803163
 11
148.4009383443
 21
126.4293297609
  0
LINE
  8
0
 62
7
  6
CONTINUOUS
 10
149.8862442167
 20
147.5443715285
 11
150.6203836843
 21
144.6430806015
  0
LINE
  8
0
 62
7
  6
CONTINUOUS
 10
161.4816610192
 20
132.7487051616
 11
161.4816610192
 21
126.5520402165
  0
LINE
  8
0
 62
7
  6
CONTINUOUS
 10
162.2316610192
 20
123.5071072956
 11
162.2316610192
 21
120.0332154188
  0
LINE
  8
0
 62
7
  6
CONTINUOUS
 10
162.5816610192
 20
147.5811676364
 11
162.5816610192
 21
151.8327051616
  0
LINE
  8
0
 62
7
  6
CONTINUOUS
 10
163.3356610192
 20
144.5204268694
 11
163.3356610192
 21
140.3367051616
  0
LINE
  8
0
 62
7
  6
CONTINUOUS
 10
167.8276610192
 20
144.520427637
 11
167.8276610192
 21
140.3367240576
  0
LINE
  8
0
 62
7
  6
CONTINUOUS
 10
168.5816610192
 20
147.5811676364
 11
168.5816610192
 21
151.8327051616
  0
LINE
  8
0
 62
7
  6
CONTINUOUS
 10
168.9316610192
 20
120.0332154188
 11
168.9316610192
 21
123.5071072956
  0
LINE
  8
0
 62
7
  6
CONTINUOUS
 10
169.6816610192
 20
132.7487051616
 11
169.6816610192
 21
126.5520402165
  0
LINE
  8
AXES
 62
7
  6
CONTINUOUS
 10
156.9663836941
 20
126.4293865235
 11
156.8362442167
 21
125.9150803163
  0
LINE
  8
0
 62
7
  6
CONTINUOUS
 10
156.2362442167
 20
123.5439034035
 11
156.9663837961
 21
126.4293869265
  0
LINE
  8
0
 62
7
  6
CONTINUOUS
 10
168.5770778217
 20
147.5443715285
 11
167.8429382423
 21
144.6430801594
  0
LINE
  8
AXES
 62
7
  6
CONTINUOUS
 10
161.4969383443
 20
126.4293865235
 11
161.6270778217
 21
125.9150803163
  0
LINE
  8
0
 62
7
  6
CONTINUOUS
 10
161.4969382422
 20
126.4293869269
 11
162.2270778217
 21
123.5439034035
  0
LINE
  8
0
 62
7
  6
CONTINUOUS
 10
163.3203836941
 20
144.6430805624
 11
162.5862442167
 21
147.5443715285
  0
LINE
  8
0
 62
7
  6
CONTINUOUS
 10
174.1816610192
 20
132.7487051616
 11
174.1816610192
 21
126.5520402165
  0
LINE
  8
0
 62
7
  6
CONTINUOUS
 10
174.9316610192
 20
123.5071072956
 11
174.9316610192
 21
120.0332154188
  0
LINE
  8
0
 62
7
  6
CONTINUOUS
 10
175.2816610192
 20
147.5811676364
 11
175.2816610192
 21
151.8327051616
  0
LINE
  8
0
 62
7
  6
CONTINUOUS
 10
176.0356610192
 20
140.3367246656
 11
176.0356610192
 21
144.5204276367
  0
LINE
  8
0
 62
7
  6
CONTINUOUS
 10
180.5276610192
 20
144.520427637
 11
180.5276610192
 21
140.3367240576
  0
LINE
  8
0
 62
7
  6
CONTINUOUS
 10
181.2816610192
 20
147.5811676364
 11
181.2816610192
 21
151.8327051616
  0
LINE
  8
0
 62
7
  6
CONTINUOUS
 10
181.6316610192
 20
120.0332154188
 11
181.6316610192
 21
123.5071072956
  0
LINE
  8
0
 62
7
  6
CONTINUOUS
 10
182.3816610192
 20
132.7487051616
 11
182.3816610192
 21
126.5520402165
  0
LINE
  8
0
 62
7
  6
CONTINUOUS
 10
186.8816610192
 20
132.7487051616
 11
186.8816610192
 21
126.5520402165
  0
LINE
  8
AXES
 62
7
  6
CONTINUOUS
 10
169.6663836941
 20
126.4293865235
 11
169.5362442167
 21
125.9150803163
  0
LINE
  8
0
 62
7
  6
CONTINUOUS
 10
168.9362442167
 20
123.5439034035
 11
169.6663837961
 21
126.4293869265
  0
LINE
  8
0
 62
7
  6
CONTINUOUS
 10
181.2770778217
 20
147.5443715285
 11
180.5429382423
 21
144.6430801594
  0
LINE
  8
AXES
 62
7
  6
CONTINUOUS
 10
182.3663836941
 20
126.4293865235
 11
182.2362442167
 21
125.9150803163
  0
LINE
  8
0
 62
7
  6
CONTINUOUS
 10
181.6362442167
 20
123.5439034035
 11
182.3663837961
 21
126.4293869265
  0
LINE
  8
AXES
 62
7
  6
CONTINUOUS
 10
174.1969383443
 20
126.4293865235
 11
174.3270778217
 21
125.9150803163
  0
LINE
  8
0
 62
7
  6
CONTINUOUS
 10
174.1969382422
 20
126.4293869269
 11
174.9270778217
 21
123.5439034035
  0
LINE
  8
0
 62
7
  6
CONTINUOUS
 10
176.0203836941
 20
144.6430805624
 11
175.2862442167
 21
147.5443715285
  0
LINE
  8
AXES
 62
7
  6
CONTINUOUS
 10
186.8969383443
 20
126.4293865235
 11
187.0270778217
 21
125.9150803163
  0
LINE
  8
0
 62
7
  6
CONTINUOUS
 10
186.8969382422
 20
126.4293869269
 11
187.6270778217
 21
123.5439034035
  0
LINE
  8
0
 62
7
  6
CONTINUOUS
 10
187.6316610192
 20
123.5071072956
 11
187.6316610192
 21
120.0332154188
  0
LINE
  8
0
 62
7
  6
CONTINUOUS
 10
187.9816610192
 20
147.5811676364
 11
187.9816610192
 21
151.8327051616
  0
LINE
  8
0
 62
7
  6
CONTINUOUS
 10
188.7356610192
 20
144.5204268694
 11
188.7356610192
 21
140.3367051616
  0
LINE
  8
0
 62
7
  6
CONTINUOUS
 10
193.2276610192
 20
144.520427637
 11
193.2276610192
 21
140.3367240576
  0
LINE
  8
0
 62
7
  6
CONTINUOUS
 10
193.9816610192
 20
147.5811676364
 11
193.9816610192
 21
151.8327051616
  0
LINE
  8
0
 62
7
  6
CONTINUOUS
 10
194.3316610192
 20
120.0332154188
 11
194.3316610192
 21
123.5071072956
  0
LINE
  8
0
 62
7
  6
CONTINUOUS
 10
195.0816610192
 20
132.7487051616
 11
195.0816610192
 21
126.5520402165
  0
LINE
  8
0
 62
7
  6
CONTINUOUS
 10
199.5816610192
 20
132.7487051616
 11
199.5816610192
 21
126.5520402165
  0
LINE
  8
0
 62
7
  6
CONTINUOUS
 10
200.3316610192
 20
123.5071072956
 11
200.3316610192
 21
120.0332154188
  0
LINE
  8
0
 62
7
  6
CONTINUOUS
 10
200.6816610192
 20
147.5811676364
 11
200.6816610192
 21
151.8327051616
  0
LINE
  8
0
 62
7
  6
CONTINUOUS
 10
201.4356610192
 20
140.3367246656
 11
201.4356610192
 21
144.5204276367
  0
LINE
  8
0
 62
7
  6
CONTINUOUS
 10
193.9770778217
 20
147.5443715285
 11
193.2429382423
 21
144.6430801594
  0
LINE
  8
AXES
 62
7
  6
CONTINUOUS
 10
195.0663836941
 20
126.4293865235
 11
194.9362442167
 21
125.9150803163
  0
LINE
  8
0
 62
7
  6
CONTINUOUS
 10
194.3362442167
 20
123.5439034035
 11
195.0663837961
 21
126.4293869265
  0
LINE
  8
0
 62
7
  6
CONTINUOUS
 10
96.0262041082
 20
135.481250016
 11
93.8718894747
 21
136.2513036577
  0
LINE
  8
0
 62
7
  6
CONTINUOUS
 10
188.7203836941
 20
144.6430805624
 11
187.9862442167
 21
147.5443715285
  0
LINE
  8
AXES
 62
7
  6
CONTINUOUS
 10
199.5969383443
 20
126.4293865235
 11
199.7270778217
 21
125.9150803163
  0
LINE
  8
0
 62
7
  6
CONTINUOUS
 10
199.5969382422
 20
126.4293869269
 11
200.3270778217
 21
123.5439034035
  0
LINE
  8
0
 62
7
  6
CONTINUOUS
 10
205.9276610192
 20
144.520427637
 11
205.9276610192
 21
140.3367240576
  0
LINE
  8
0
 62
7
  6
CONTINUOUS
 10
206.6816610192
 20
147.5811676364
 11
206.6816610192
 21
151.8327051616
  0
LINE
  8
0
 62
7
  6
CONTINUOUS
 10
207.0316610192
 20
120.0332154188
 11
207.0316610192
 21
123.5071072956
  0
LINE
  8
0
 62
7
  6
CONTINUOUS
 10
207.7816610192
 20
132.7487051616
 11
207.7816610192
 21
126.5520402165
  0
LINE
  8
0
 62
7
  6
CONTINUOUS
 10
212.2816610192
 20
132.7487051616
 11
212.2816610192
 21
126.5520402165
  0
LINE
  8
0
 62
7
  6
CONTINUOUS
 10
213.0316610192
 20
123.5071072956
 11
213.0316610192
 21
120.0332154188
  0
LINE
  8
0
 62
7
  6
CONTINUOUS
 10
213.3816610192
 20
147.5811676364
 11
213.3816610192
 21
151.8327051616
  0
LINE
  8
0
 62
7
  6
CONTINUOUS
 10
214.1356610192
 20
140.3367246656
 11
214.1356610192
 21
144.5204276367
  0
LINE
  8
0
 62
7
  6
CONTINUOUS
 10
206.6770778217
 20
147.5443715285
 11
205.9429382423
 21
144.6430801594
  0
LINE
  8
AXES
 62
7
  6
CONTINUOUS
 10
207.7663836941
 20
126.4293865235
 11
207.6362442167
 21
125.9150803163
  0
LINE
  8
0
 62
7
  6
CONTINUOUS
 10
207.0362442167
 20
123.5439034035
 11
207.7663837961
 21
126.4293869265
  0
LINE
  8
0
 62
7
  6
CONTINUOUS
 10
97.0361495964
 20
152.2332752368
 11
95.2231373063
 21
152.8813313262
  0
LINE
  8
0
 62
7
  6
CONTINUOUS
 10
201.4203836941
 20
144.6430805624
 11
200.6862442167
 21
147.5443715285
  0
LINE
  8
AXES
 62
7
  6
CONTINUOUS
 10
212.2969383443
 20
126.4293865235
 11
212.4270778217
 21
125.9150803163
  0
LINE
  8
0
 62
7
  6
CONTINUOUS
 10
212.2969382422
 20
126.4293869269
 11
213.0270778217
 21
123.5439034035
  0
LINE
  8
0
 62
7
  6
CONTINUOUS
 10
218.6276610192
 20
144.520427637
 11
218.6276610192
 21
140.3367240576
  0
LINE
  8
0
 62
7
  6
CONTINUOUS
 10
219.3816610192
 20
147.5811676364
 11
219.3816610192
 21
151.8327051616
  0
LINE
  8
0
 62
7
  6
CONTINUOUS
 10
219.7316610192
 20
120.0332154188
 11
219.7316610192
 21
123.5071072956
  0
LINE
  8
0
 62
7
  6
CONTINUOUS
 10
220.4816610192
 20
132.7487051616
 11
220.4816610192
 21
126.5520402165
  0
LINE
  8
0
 62
7
  6
CONTINUOUS
 10
224.9816610192
 20
132.7487051616
 11
224.9816610192
 21
126.5520402165
  0
LINE
  8
0
 62
7
  6
CONTINUOUS
 10
225.7316610192
 20
123.5071072956
 11
225.7316610192
 21
120.0332154188
  0
LINE
  8
0
 62
7
  6
CONTINUOUS
 10
226.0816610192
 20
147.5811676364
 11
226.0816610192
 21
151.8327051616
  0
LINE
  8
0
 62
7
  6
CONTINUOUS
 10
226.8356610192
 20
144.5204268694
 11
226.8356610192
 21
140.3367051616
  0
LINE
  8
0
 62
7
  6
CONTINUOUS
 10
219.3770778217
 20
147.5443715285
 11
218.6429382423
 21
144.6430801594
  0
LINE
  8
AXES
 62
7
  6
CONTINUOUS
 10
220.4663836941
 20
126.4293865235
 11
220.3362442167
 21
125.9150803163
  0
LINE
  8
0
 62
7
  6
CONTINUOUS
 10
219.7362442167
 20
123.5439034035
 11
220.4663837961
 21
126.4293869265
  0
LINE
  8
0
 62
7
  6
CONTINUOUS
 10
232.0770778217
 20
147.5443715285
 11
231.3429382423
 21
144.6430801594
  0
LINE
  8
0
 62
7
  6
CONTINUOUS
 10
101.7566610192
 20
118.4827051616
 11
102.7566610192
 21
118.4827051616
  0
LINE
  8
0
 62
7
  6
CONTINUOUS
 10
117.3816610192
 20
118.4827051616
 11
118.3816610192
 21
118.4827051616
  0
LINE
  8
0
 62
7
  6
CONTINUOUS
 10
131.8816610192
 20
118.4827051616
 11
132.8816610192
 21
118.4827051616
  0
LINE
  8
0
 62
7
  6
CONTINUOUS
 10
145.6356610192
 20
118.4827051616
 11
146.6356610192
 21
118.4827051616
  0
LINE
  8
DEFAULT_1
 62
2
  6
CENTER
 10
97.2566753824
 20
122.8327051616
 11
240.4316610192
 21
122.8327051616
  0
LINE
  8
0
 62
7
  6
CONTINUOUS
 10
214.1203836941
 20
144.6430805624
 11
213.3862442167
 21
147.5443715285
  0
LINE
  8
AXES
 62
7
  6
CONTINUOUS
 10
224.9969383443
 20
126.4293865235
 11
225.1270778217
 21
125.9150803163
  0
LINE
  8
0
 62
7
  6
CONTINUOUS
 10
224.9969382422
 20
126.4293869269
 11
225.7270778217
 21
123.5439034035
  0
LINE
  8
0
 62
7
  6
CONTINUOUS
 10
226.8203836941
 20
144.6430805624
 11
226.0862442167
 21
147.5443715285
  0
LINE
  8
0
 62
7
  6
CONTINUOUS
 10
231.3276610192
 20
144.520427637
 11
231.3276610192
 21
140.336724341
  0
LINE
  8
0
 62
7
  6
CONTINUOUS
 10
232.0816610192
 20
147.5811676364
 11
232.0816610192
 21
151.8327051616
  0
LINE
  8
0
 62
7
  6
CONTINUOUS
 10
232.4316610192
 20
120.0332154188
 11
232.4316610192
 21
123.5071072956
  0
LINE
  8
0
 62
7
  6
CONTINUOUS
 10
233.1816610192
 20
132.7487051616
 11
233.1816610192
 21
126.5520402165
  0
LINE
  8
0
 62
7
  6
CONTINUOUS
 10
237.6816610192
 20
135.2327051616
 11
237.6816610192
 21
126.5520394491
  0
LINE
  8
0
 62
7
  6
CONTINUOUS
 10
238.4316610192
 20
123.5071072956
 11
238.4316610192
 21
120.0332154188
  0
LINE
  8
AXES
 62
7
  6
CONTINUOUS
 10
233.1663836941
 20
126.4293865235
 11
233.0362442167
 21
125.9150803163
  0
LINE
  8
0
 62
7
  6
CONTINUOUS
 10
232.4362442167
 20
123.5439034035
 11
233.1663837961
 21
126.4293869265
  0
LINE
  8
0
 62
7
  6
CONTINUOUS
 10
231.1816610192
 20
134.7487051616
 11
226.9816610192
 21
134.7487051616
  0
LINE
  8
0
 62
7
  6
CONTINUOUS
 10
218.4816610192
 20
134.7487051616
 11
214.2816610192
 21
134.7487051616
  0
LINE
  8
0
 62
7
  6
CONTINUOUS
 10
205.7816610192
 20
134.7487051616
 11
201.5816610192
 21
134.7487051616
  0
LINE
  8
0
 62
7
  6
CONTINUOUS
 10
193.0816610192
 20
134.7487051616
 11
188.8816610192
 21
134.7487051616
  0
LINE
  8
0
 62
7
  6
CONTINUOUS
 10
180.3816610192
 20
134.7487051616
 11
176.1816610192
 21
134.7487051616
  0
LINE
  8
0
 62
7
  6
CONTINUOUS
 10
167.6816610192
 20
134.7487051616
 11
163.4816610192
 21
134.7487051616
  0
LINE
  8
0
 62
7
  6
CONTINUOUS
 10
154.9816610192
 20
134.7487051616
 11
150.3856610192
 21
134.7487051616
  0
LINE
  8
0
 62
7
  6
CONTINUOUS
 10
141.1856610192
 20
135.0827051616
 11
137.3316610192
 21
135.0827051616
  0
LINE
  8
0
 62
7
  6
CONTINUOUS
 10
127.4316610192
 20
135.0827051616
 11
122.8316610192
 21
135.0827051616
  0
LINE
  8
0
 62
7
  6
CONTINUOUS
 10
108.5066610192
 20
135.2327051616
 11
112.6316610192
 21
135.2327051616
  0
LINE
  8
0
 62
7
  6
CONTINUOUS
 10
101.8816815097
 20
135.7827051616
 11
103.6316428586
 21
135.7827051616
  0
LINE
  8
0
 62
7
  6
CONTINUOUS
 10
118.6316430533
 20
135.8827051616
 11
117.1316812218
 21
135.8827051616
  0
LINE
  8
0
 62
7
  6
CONTINUOUS
 10
146.7856610192
 20
136.0327051616
 11
145.4856610192
 21
136.0327051616
  0
LINE
  8
0
 62
7
  6
CONTINUOUS
 10
133.2816610192
 20
136.0327051616
 11
131.4816610192
 21
136.0327051616
  0
LINE
  8
0
 62
7
  6
CONTINUOUS
 10
235.4316610192
 20
136.2327051616
 11
236.6816610192
 21
136.2327051616
  0
LINE
  8
AXES
 62
7
  6
CONTINUOUS
 10
237.6969383443
 20
126.4293865235
 11
237.8270778217
 21
125.9150803163
  0
LINE
  8
0
 62
7
  6
CONTINUOUS
 10
237.6969382422
 20
126.4293869269
 11
238.4270778217
 21
123.5439034035
  0
POLYLINE
  8
0
 62
7
  6
CONTINUOUS
 66
1
 70
0
  0
VERTEX
  8
0
 62
7
  6
CONTINUOUS
 10
103.0356610192
 20
138.7013645591
  0
VERTEX
  8
0
 62
7
  6
CONTINUOUS
 10
103.2429379211
 20
138.7121037409
  0
VERTEX
  8
0
 62
7
  6
CONTINUOUS
 10
103.4492307082
 20
138.7444689123
  0
VERTEX
  8
0
 62
7
  6
CONTINUOUS
 10
103.6511031833
 20
138.7981380901
  0
VERTEX
  8
0
 62
7
  6
CONTINUOUS
 10
103.8455183092
 20
138.8721913861
  0
VERTEX
  8
0
 62
7
  6
CONTINUOUS
 10
104.032032073
 20
138.9664953031
  0
VERTEX
  8
0
 62
7
  6
CONTINUOUS
 10
104.2084739539
 20
139.0803092316
  0
VERTEX
  8
0
 62
7
  6
CONTINUOUS
 10
104.3717985474
 20
139.2118199516
  0
VERTEX
  8
0
 62
7
  6
CONTINUOUS
 10
104.5197892212
 20
139.3590169064
  0
VERTEX
  8
0
 62
7
  6
CONTINUOUS
 10
104.652282852
 20
139.5218049574
  0
VERTEX
  8
0
 62
7
  6
CONTINUOUS
 10
104.7672003617
 20
139.6980703308
  0
VERTEX
  8
0
 62
7
  6
CONTINUOUS
 10
104.8625911965
 20
139.8847693478
  0
VERTEX
  8
0
 62
7
  6
CONTINUOUS
 10
104.9375687748
 20
140.0796037231
  0
VERTEX
  8
0
 62
7
  6
CONTINUOUS
 10
104.9919486145
 20
140.2820980464
  0
VERTEX
  8
0
 62
7
  6
CONTINUOUS
 10
105.0247668314
 20
140.4892096719
  0
VERTEX
  8
0
 62
7
  6
CONTINUOUS
 10
105.0356610192
 20
140.6974307086
  0
SEQEND
  0
POLYLINE
  8
0
 62
7
  6
CONTINUOUS
 66
1
 70
0
  0
VERTEX
  8
0
 62
7
  6
CONTINUOUS
 10
97.2241651896
 20
138.6998239944
  0
VERTEX
  8
0
 62
7
  6
CONTINUOUS
 10
97.193241906
 20
138.6991876059
  0
VERTEX
  8
0
 62
7
  6
CONTINUOUS
 10
97.1685681315
 20
138.6984791298
  0
VERTEX
  8
0
 62
7
  6
CONTINUOUS
 10
97.1504848528
 20
138.6977115794
  0
VERTEX
  8
0
 62
7
  6
CONTINUOUS
 10
97.1393701237
 20
138.6968974722
  0
VERTEX
  8
0
 62
7
  6
CONTINUOUS
 10
97.1356610192
 20
138.6960671615
  0
SEQEND
  0
LINE
  8
0
 62
7
  6
CONTINUOUS
 10
97.3003344951
 20
138.7007948888
 11
97.2241651896
 21
138.6998239944
  0
LINE
  8
0
 62
7
  6
CONTINUOUS
 10
97.3892292571
 20
138.7013007149
 11
97.3003344951
 21
138.7007948888
  0
LINE
  8
0
 62
7
  6
CONTINUOUS
 10
97.3892292571
 20
138.7013007149
 11
103.0356610192
 21
138.7013645591
  0
LINE
  8
0
 62
7
  6
CONTINUOUS
 10
97.1356610192
 20
145.3217605805
 11
97.4683248932
 21
145.3217605805
  0
LINE
  8
0
 62
7
  6
CONTINUOUS
 10
97.4356610192
 20
145.5217605805
 11
103.0356610192
 21
145.5217605805
  0
LINE
  8
AXES
 62
2
  6
CENTER
 10
91.8816610192
 20
148.2327051616
 11
234.0816610192
 21
148.2327051616
  0
LINE
  8
0
 62
7
  6
CONTINUOUS
 10
97.4683249012
 20
138.9013645591
 11
97.1356610192
 21
138.9013645591
  0
LINE
  8
0
 62
7
  6
CONTINUOUS
 10
108.1276610192
 20
152.5827051616
 11
112.6356610192
 21
152.5827051616
  0
LINE
  8
0
 62
7
  6
CONTINUOUS
 10
123.1276610192
 20
152.5827051616
 11
127.6356610192
 21
152.5827051616
  0
LINE
  8
0
 62
7
  6
CONTINUOUS
 10
137.1276610192
 20
152.5827051616
 11
141.6396610192
 21
152.5827051616
  0
LINE
  8
0
 62
7
  6
CONTINUOUS
 10
150.6316610192
 20
152.5827051616
 11
155.1316610192
 21
152.5827051616
  0
LINE
  8
0
 62
7
  6
CONTINUOUS
 10
163.3316610192
 20
152.5827051616
 11
167.8316610192
 21
152.5827051616
  0
LINE
  8
0
 62
7
  6
CONTINUOUS
 10
176.0316610192
 20
152.5827051616
 11
180.5316610192
 21
152.5827051616
  0
LINE
  8
0
 62
7
  6
CONTINUOUS
 10
188.7316610192
 20
152.5827051616
 11
193.2316610192
 21
152.5827051616
  0
LINE
  8
0
 62
7
  6
CONTINUOUS
 10
201.4316610192
 20
152.5827051616
 11
205.9316610192
 21
152.5827051616
  0
LINE
  8
0
 62
7
  6
CONTINUOUS
 10
214.1316610192
 20
152.5827051616
 11
218.6316610192
 21
152.5827051616
  0
LINE
  8
0
 62
7
  6
CONTINUOUS
 10
226.8316610192
 20
152.5827051616
 11
231.3316610192
 21
152.5827051616
  0
LINE
  8
0
 62
7
  6
CONTINUOUS
 10
269.5795096235
 20
139.7672034234
 11
269.5795096235
 21
143.9274589213
  0
LINE
  8
0
 62
7
  6
CONTINUOUS
 10
287.5773773557
 20
118.4827051616
 11
291.5773773557
 21
118.4827051616
  0
LINE
  8
DEFAULT_1
 62
2
  6
CENTER
 10
294.8273773557
 20
122.8327051616
 11
291.5774773557
 21
122.8327051616
  0
LINE
  8
0
 62
2
  6
CONTINUOUS
 10
290.6273773557
 20
122.8327051616
 11
288.5273773557
 21
122.8327051616
  0
LINE
  8
DEFAULT_1
 62
2
  6
CENTER
 10
284.3273773557
 20
122.8327051616
 11
287.5772773557
 21
122.8327051616
  0
POLYLINE
  8
0
 62
7
  6
CONTINUOUS
 66
1
 70
0
  0
VERTEX
  8
0
 62
7
  6
CONTINUOUS
 10
283.9960758472
 20
150.5827853397
  0
VERTEX
  8
0
 62
7
  6
CONTINUOUS
 10
283.8758583787
 20
150.2528738801
  0
VERTEX
  8
0
 62
7
  6
CONTINUOUS
 10
283.7677796367
 20
149.8863761894
  0
VERTEX
  8
0
 62
7
  6
CONTINUOUS
 10
283.6834683111
 20
149.5124153446
  0
VERTEX
  8
0
 62
7
  6
CONTINUOUS
 10
283.6233865415
 20
149.1325326158
  0
VERTEX
  8
0
 62
7
  6
CONTINUOUS
 10
283.5879400463
 20
148.7482940748
  0
VERTEX
  8
0
 62
7
  6
CONTINUOUS
 10
283.5773774886
 20
148.3937039245
  0
SEQEND
  0
LINE
  8
0
 62
7
  6
CONTINUOUS
 10
283.5773773557
 20
122.4827051616
 11
283.5773773557
 21
148.5827051616
  0
LINE
  8
AXES
 62
7
  6
CONTINUOUS
 10
287.4773773557
 20
122.8327051616
 11
287.4773773557
 21
130.8827051616
  0
LINE
  8
0
 62
7
  6
CONTINUOUS
 10
270.5620572171
 20
138.7655547296
 11
283.1843583183
 21
138.5452316443
  0
LINE
  8
AXES
 62
2
  6
CENTER
 10
289.5773773557
 20
153.4827051616
 11
289.5773773557
 21
152.3327051616
  0
LINE
  8
AXES
 62
2
  6
CONTINUOUS
 10
289.5773773557
 20
149.2827051616
 11
289.5773773557
 21
147.1827051616
  0
LINE
  8
DEFAULT_1
 62
2
  6
CENTER
 10
289.5773773557
 20
128.0827051616
 11
289.5773773557
 21
124.8328051616
  0
LINE
  8
0
 62
2
  6
CONTINUOUS
 10
289.5773773557
 20
123.8827051616
 11
289.5773773557
 21
121.7827051616
  0
LINE
  8
DEFAULT_1
 62
2
  6
CENTER
 10
289.5773773557
 20
117.5827051616
 11
289.5773773557
 21
120.8326051616
  0
LINE
  8
AXES
 62
2
  6
CENTER
 10
289.5773773557
 20
142.9827051616
 11
289.5773773557
 21
144.1327051616
  0
LINE
  8
AXES
 62
7
  6
CONTINUOUS
 10
291.6773773557
 20
122.8327051616
 11
291.6773773557
 21
130.8827051616
  0
LINE
  8
0
 62
7
  6
CONTINUOUS
 10
283.2400325138
 20
146.9492037596
 11
270.4228717282
 21
144.9164586667
  0
LINE
  8
AXES
 62
2
  6
CENTER
 10
294.8273773557
 20
148.2327051616
 11
293.6773773557
 21
148.2327051616
  0
LINE
  8
AXES
 62
2
  6
CONTINUOUS
 10
290.6273773557
 20
148.2327051616
 11
288.5273773557
 21
148.2327051616
  0
LINE
  8
AXES
 62
2
  6
CENTER
 10
284.3273773557
 20
148.2327051616
 11
285.4773773557
 21
148.2327051616
  0
LINE
  8
0
 62
7
  6
CONTINUOUS
 10
297.2181058603
 20
128.372040679
 11
297.2187104457
 21
128.3756343086
  0
POLYLINE
  8
0
 62
7
  6
CONTINUOUS
 66
1
 70
0
  0
VERTEX
  8
0
 62
7
  6
CONTINUOUS
 10
287.6974275583
 20
153.0272045091
  0
VERTEX
  8
0
 62
7
  6
CONTINUOUS
 10
287.4584153851
 20
153.0213772363
  0
VERTEX
  8
0
 62
7
  6
CONTINUOUS
 10
287.1309418374
 20
152.9936564039
  0
VERTEX
  8
0
 62
7
  6
CONTINUOUS
 10
286.8220418885
 20
152.9451393514
  0
VERTEX
  8
0
 62
7
  6
CONTINUOUS
 10
286.5310897594
 20
152.8778182511
  0
VERTEX
  8
0
 62
7
  6
CONTINUOUS
 10
286.2566939925
 20
152.7931782366
  0
VERTEX
  8
0
 62
7
  6
CONTINUOUS
 10
285.9975437785
 20
152.692275514
  0
VERTEX
  8
0
 62
7
  6
CONTINUOUS
 10
285.7532031901
 20
152.5761646025
  0
VERTEX
  8
0
 62
7
  6
CONTINUOUS
 10
285.524025675
 20
152.4462173904
  0
VERTEX
  8
0
 62
7
  6
CONTINUOUS
 10
285.3103534303
 20
152.3039523674
  0
VERTEX
  8
0
 62
7
  6
CONTINUOUS
 10
285.112451575
 20
152.151039036
  0
VERTEX
  8
0
 62
7
  6
CONTINUOUS
 10
284.9304270711
 20
151.989253929
  0
VERTEX
  8
0
 62
7
  6
CONTINUOUS
 10
284.7642421014
 20
151.8204842454
  0
VERTEX
  8
0
 62
7
  6
CONTINUOUS
 10
284.6136139901
 20
151.6465998979
  0
VERTEX
  8
0
 62
7
  6
CONTINUOUS
 10
284.4776772295
 20
151.4688953789
  0
VERTEX
  8
0
 62
7
  6
CONTINUOUS
 10
284.3554340104
 20
151.288374381
  0
VERTEX
  8
0
 62
7
  6
CONTINUOUS
 10
284.2459076766
 20
151.1058906612
  0
VERTEX
  8
0
 62
7
  6
CONTINUOUS
 10
284.1481482157
 20
150.9221506591
  0
VERTEX
  8
0
 62
7
  6
CONTINUOUS
 10
284.0612276685
 20
150.7376824939
  0
VERTEX
  8
0
 62
7
  6
CONTINUOUS
 10
283.9960760407
 20
150.5827852626
  0
SEQEND
  0
POLYLINE
  8
0
 62
7
  6
CONTINUOUS
 66
1
 70
0
  0
VERTEX
  8
0
 62
7
  6
CONTINUOUS
 10
295.0910905017
 20
150.5879602417
  0
VERTEX
  8
0
 62
7
  6
CONTINUOUS
 10
295.0135110125
 20
150.7555586701
  0
VERTEX
  8
0
 62
7
  6
CONTINUOUS
 10
294.9145108512
 20
150.9499197153
  0
VERTEX
  8
0
 62
7
  6
CONTINUOUS
 10
294.8050155556
 20
151.1434327654
  0
VERTEX
  8
0
 62
7
  6
CONTINUOUS
 10
294.6841440468
 20
151.3351924004
  0
VERTEX
  8
0
 62
7
  6
CONTINUOUS
 10
294.5510366266
 20
151.5241352242
  0
VERTEX
  8
0
 62
7
  6
CONTINUOUS
 10
294.4048329542
 20
151.7090962764
  0
VERTEX
  8
0
 62
7
  6
CONTINUOUS
 10
294.2446826909
 20
151.8887962433
  0
VERTEX
  8
0
 62
7
  6
CONTINUOUS
 10
294.0697581402
 20
152.0618321932
  0
VERTEX
  8
0
 62
7
  6
CONTINUOUS
 10
293.8792540833
 20
152.2266807181
  0
VERTEX
  8
0
 62
7
  6
CONTINUOUS
 10
293.6724758838
 20
152.3816373211
  0
VERTEX
  8
0
 62
7
  6
CONTINUOUS
 10
293.4492263018
 20
152.524631224
  0
VERTEX
  8
0
 62
7
  6
CONTINUOUS
 10
293.2095532462
 20
152.6535720438
  0
VERTEX
  8
0
 62
7
  6
CONTINUOUS
 10
292.953594437
 20
152.766473756
  0
VERTEX
  8
0
 62
7
  6
CONTINUOUS
 10
292.6813810746
 20
152.8614963036
  0
VERTEX
  8
0
 62
7
  6
CONTINUOUS
 10
292.392713708
 20
152.9368738805
  0
VERTEX
  8
0
 62
7
  6
CONTINUOUS
 10
292.0874102956
 20
152.9907398764
  0
VERTEX
  8
0
 62
7
  6
CONTINUOUS
 10
291.7663414151
 20
153.0210378282
  0
VERTEX
  8
0
 62
7
  6
CONTINUOUS
 10
291.5375702952
 20
153.0272047033
  0
SEQEND
  0
POLYLINE
  8
0
 62
7
  6
CONTINUOUS
 66
1
 70
0
  0
VERTEX
  8
0
 62
7
  6
CONTINUOUS
 10
295.2487852083
 20
150.1953374065
  0
VERTEX
  8
0
 62
7
  6
CONTINUOUS
 10
295.2027265056
 20
150.3185493303
  0
VERTEX
  8
0
 62
7
  6
CONTINUOUS
 10
295.1422957885
 20
150.4689375213
  0
VERTEX
  8
0
 62
7
  6
CONTINUOUS
 10
295.0910907938
 20
150.5879603711
  0
SEQEND
  0
LINE
  8
0
 62
7
  6
CONTINUOUS
 10
295.2487851976
 20
150.1953373316
 11
295.2490570081
 21
150.1945851439
  0
LINE
  8
0
 62
7
  6
CONTINUOUS
 10
296.0605772389
 20
147.7165005616
 11
296.0599483844
 21
147.7186368775
  0
LINE
  8
0
 62
7
  6
CONTINUOUS
 10
296.4514321148
 20
146.2999644898
 11
296.4496808948
 21
146.3067582493
  0
LINE
  8
0
 62
7
  6
CONTINUOUS
 10
291.5368226391
 20
153.0272035348
 11
287.6962483201
 21
153.0272034935
  0
LINE
  8
0
 62
7
  6
CONTINUOUS
 10
291.5375920833
 20
153.0272035223
 11
291.5384951119
 21
153.0272034899
  0
ARC
  8
0
 62
7
  6
CONTINUOUS
 10
95.317073153
 20
228.2103402701
 40
2.0
 50
183.5
 51
270.0028131855
  0
ARC
  8
0
 62
7
  6
CONTINUOUS
 10
104.0356607716
 20
227.2103402701
 40
1.0
 50
270.0000141879
 51
360.0
  0
ARC
  8
0
 62
7
  6
CONTINUOUS
 10
97.5856604656
 20
231.4632205304
 40
0.2999999929
 50
180.0
 51
270.0
  0
ARC
  8
0
 62
7
  6
CONTINUOUS
 10
143.8856753824
 20
240.9582080023
 40
0.75
 50
180.0
 51
270.0
  0
ARC
  8
0
 62
7
  6
CONTINUOUS
 10
104.506646656
 20
240.9582080023
 40
0.75
 50
270.0
 51
360.0
  0
ARC
  8
0
 62
7
  6
CONTINUOUS
 10
100.0066753824
 20
240.9582080023
 40
0.75
 50
180.0
 51
270.0
  0
ARC
  8
0
 62
7
  6
CONTINUOUS
 10
130.1316753824
 20
240.9582080023
 40
0.75
 50
180.0
 51
270.0
  0
ARC
  8
0
 62
7
  6
CONTINUOUS
 10
134.631646656
 20
240.9582080023
 40
0.75
 50
270.0
 51
360.0
  0
ARC
  8
0
 62
7
  6
CONTINUOUS
 10
148.385646656
 20
240.9582080023
 40
0.75
 50
270.0
 51
360.0
  0
ARC
  8
0
 62
7
  6
CONTINUOUS
 10
156.9816610192
 20
240.9582080023
 40
0.75
 50
180.0
 51
270.0
  0
ARC
  8
0
 62
7
  6
CONTINUOUS
 10
161.4816610192
 20
240.9582080023
 40
0.75
 50
270.0
 51
360.0
  0
ARC
  8
0
 62
7
  6
CONTINUOUS
 10
92.2032328236
 20
239.8082080023
 40
0.3999999171
 50
3.5000043567
 51
90.0000713647
  0
ARC
  8
0
 62
7
  6
CONTINUOUS
 10
113.7316610192
 20
240.3582080023
 40
0.15
 50
180.0
 51
270.0
  0
ARC
  8
0
 62
7
  6
CONTINUOUS
 10
122.0316610192
 20
240.3582080023
 40
0.15
 50
270.0
 51
360.0
  0
ARC
  8
0
 62
7
  6
CONTINUOUS
 10
163.4856610192
 20
240.3582080023
 40
0.15
 50
258.7500000141
 51
268.477024442
  0
ARC
  8
0
 62
7
  6
CONTINUOUS
 10
154.9776610192
 20
240.3582080023
 40
0.15
 50
271.5229755582
 51
281.25
  0
ARC
  8
0
 62
7
  6
CONTINUOUS
 10
92.0316610192
 20
240.3582080023
 40
0.15
 50
180.0
 51
270.0
  0
ARC
  8
0
 62
7
  6
CONTINUOUS
 10
207.7816610192
 20
240.9582080023
 40
0.75
 50
180.0
 51
270.0
  0
ARC
  8
0
 62
7
  6
CONTINUOUS
 10
212.2816610192
 20
240.9582080023
 40
0.75
 50
270.0
 51
360.0
  0
ARC
  8
0
 62
7
  6
CONTINUOUS
 10
220.4816610192
 20
240.9582080023
 40
0.75
 50
180.0
 51
270.0
  0
ARC
  8
0
 62
7
  6
CONTINUOUS
 10
224.9816610192
 20
240.9582080023
 40
0.75
 50
270.0
 51
360.0
  0
ARC
  8
0
 62
7
  6
CONTINUOUS
 10
233.1816610192
 20
240.9582080023
 40
0.75
 50
180.0
 51
270.0
  0
ARC
  8
0
 62
7
  6
CONTINUOUS
 10
237.6816610192
 20
240.9582080023
 40
0.75
 50
270.0
 51
360.0
  0
ARC
  8
0
 62
7
  6
CONTINUOUS
 10
169.6816610192
 20
240.9582080023
 40
0.75
 50
180.0
 51
270.0
  0
ARC
  8
0
 62
7
  6
CONTINUOUS
 10
174.1816610192
 20
240.9582080023
 40
0.75
 50
270.0
 51
360.0
  0
ARC
  8
0
 62
7
  6
CONTINUOUS
 10
182.3816610192
 20
240.9582080023
 40
0.75
 50
180.0
 51
270.0
  0
ARC
  8
0
 62
7
  6
CONTINUOUS
 10
186.8816610192
 20
240.9582080023
 40
0.75
 50
270.0
 51
360.0
  0
ARC
  8
0
 62
7
  6
CONTINUOUS
 10
195.0816610192
 20
240.9582080023
 40
0.75
 50
180.0
 51
270.0
  0
ARC
  8
0
 62
7
  6
CONTINUOUS
 10
199.5816610192
 20
240.9582080023
 40
0.75
 50
270.0
 51
360.0
  0
ARC
  8
0
 62
7
  6
CONTINUOUS
 10
176.1856610192
 20
240.3582080023
 40
0.15
 50
258.7500000141
 51
268.477024442
  0
ARC
  8
0
 62
7
  6
CONTINUOUS
 10
167.6776610192
 20
240.3582080023
 40
0.15
 50
271.5229755582
 51
281.25
  0
ARC
  8
0
 62
7
  6
CONTINUOUS
 10
188.8856610192
 20
240.3582080023
 40
0.15
 50
258.7500000141
 51
268.477024442
  0
ARC
  8
0
 62
7
  6
CONTINUOUS
 10
180.3776610192
 20
240.3582080023
 40
0.15
 50
271.5229755582
 51
281.25
  0
ARC
  8
0
 62
7
  6
CONTINUOUS
 10
201.5856610192
 20
240.3582080023
 40
0.15
 50
258.7500000141
 51
268.477024442
  0
ARC
  8
0
 62
7
  6
CONTINUOUS
 10
193.0776610192
 20
240.3582080023
 40
0.15
 50
271.5229755582
 51
281.25
  0
ARC
  8
0
 62
7
  6
CONTINUOUS
 10
214.2856610192
 20
240.3582080023
 40
0.15
 50
258.7500000141
 51
268.477024442
  0
ARC
  8
0
 62
7
  6
CONTINUOUS
 10
205.7776610192
 20
240.3582080023
 40
0.15
 50
271.5229755582
 51
281.25
  0
ARC
  8
0
 62
7
  6
CONTINUOUS
 10
226.9856610192
 20
240.3582080023
 40
0.15
 50
258.7500000141
 51
268.477024442
  0
ARC
  8
0
 62
7
  6
CONTINUOUS
 10
218.4776610192
 20
240.3582080023
 40
0.15
 50
271.5229755582
 51
281.25
  0
ARC
  8
0
 62
7
  6
CONTINUOUS
 10
231.1776610192
 20
240.3582080023
 40
0.15
 50
271.5229755581
 51
281.25
  0
ARC
  8
0
 62
7
  6
CONTINUOUS
 10
118.3816610192
 20
122.9827051616
 40
4.5
 50
270.0
 51
299.9997624355
  0
ARC
  8
0
 62
7
  6
CONTINUOUS
 10
117.3816610192
 20
122.9827051616
 40
4.5
 50
240.0002375645
 51
270.0
  0
ARC
  8
0
 62
7
  6
CONTINUOUS
 10
102.7566610192
 20
122.9827051616
 40
4.5
 50
270.0
 51
299.9997624355
  0
ARC
  8
0
 62
7
  6
CONTINUOUS
 10
101.7566610192
 20
122.9827051616
 40
4.5
 50
240.0002375645
 51
270.0
  0
ARC
  8
AXES
 62
7
  6
CONTINUOUS
 10
115.0816610192
 20
122.8127051616
 40
1.5
 50
94.1260708806
 51
257.7538206432
  0
ARC
  8
0
 62
7
  6
CONTINUOUS
 10
115.3816750709
 20
119.5185953845
 40
0.5000000053
 50
180.0000149627
 51
240.0002759555
  0
ARC
  8
0
 62
7
  6
CONTINUOUS
 10
99.7566750709
 20
119.5185953845
 40
0.5000000053
 50
180.0000149627
 51
240.0002759555
  0
ARC
  8
0
 62
7
  6
CONTINUOUS
 10
104.756646656
 20
119.518595254
 40
0.5
 50
299.9997624355
 51
360.0
  0
ARC
  8
AXES
 62
7
  6
CONTINUOUS
 10
114.7316753824
 20
121.2002504944
 40
0.15
 50
0.0
 51
77.7538206431
  0
ARC
  8
AXES
 62
7
  6
CONTINUOUS
 10
114.9629413823
 20
124.4584286037
 40
0.15
 50
274.1260708806
 51
345.8
  0
ARC
  8
AXES
 62
7
  6
CONTINUOUS
 10
105.106646656
 20
123.5071072956
 40
0.15
 50
0.0
 51
14.2
  0
ARC
  8
0
 62
7
  6
CONTINUOUS
 10
105.1066463759
 20
123.5071084029
 40
0.15
 50
359.999577065
 51
14.1995637334
  0
ARC
  8
0
 62
7
  6
CONTINUOUS
 10
115.0316753824
 20
123.5071072956
 40
0.15
 50
165.8
 51
180.0
  0
ARC
  8
AXES
 62
7
  6
CONTINUOUS
 10
99.4066753824
 20
123.5071072956
 40
0.15
 50
165.8
 51
180.0
  0
ARC
  8
0
 62
7
  6
CONTINUOUS
 10
99.4066753824
 20
123.5071072956
 40
0.15
 50
165.8
 51
180.0
  0
ARC
  8
AXES
 62
7
  6
CONTINUOUS
 10
94.0066610192
 20
129.8313433166
 40
6.0
 50
3.9593198646
 51
5.1547598159
  0
ARC
  8
AXES
 62
7
  6
CONTINUOUS
 10
94.0066610192
 20
129.8313433166
 40
6.0
 50
8.032716553
 51
10.0918668683
  0
ARC
  8
0
 62
7
  6
CONTINUOUS
 10
94.0066610192
 20
129.8313433166
 40
6.0
 50
359.9998289054
 51
70.3309087661
  0
ARC
  8
0
 62
7
  6
CONTINUOUS
 10
108.5066610192
 20
131.2327051616
 40
4.0
 50
89.999723909
 51
180.00030956
  0
ARC
  8
0
 62
7
  6
CONTINUOUS
 10
112.6316610192
 20
132.2327051616
 40
3.0
 50
359.9996496356
 51
90.0003873252
  0
ARC
  8
0
 62
7
  6
CONTINUOUS
 10
115.1316610192
 20
126.5519834538
 40
0.5
 50
345.8000232447
 51
0.0000037398
  0
ARC
  8
AXES
 62
7
  6
CONTINUOUS
 10
115.1316610192
 20
126.5519834538
 40
0.5
 50
345.8
 51
350.0603159708
  0
ARC
  8
AXES
 62
7
  6
CONTINUOUS
 10
115.1316610192
 20
126.5519834538
 40
0.5
 50
350.8517292184
 51
354.95136261
  0
ARC
  8
AXES
 62
7
  6
CONTINUOUS
 10
115.1316610192
 20
126.5519834538
 40
0.5
 50
355.7373127391
 51
360.0
  0
ARC
  8
0
 62
7
  6
CONTINUOUS
 10
105.0066610192
 20
126.5519834538
 40
0.5
 50
180.000019695
 51
194.2000046172
  0
ARC
  8
AXES
 62
7
  6
CONTINUOUS
 10
105.0066610192
 20
126.5519834538
 40
0.5
 50
180.0
 51
184.2648459159
  0
ARC
  8
AXES
 62
7
  6
CONTINUOUS
 10
105.0066610192
 20
126.5519834538
 40
0.5
 50
185.0483520967
 51
189.150340182
  0
ARC
  8
AXES
 62
7
  6
CONTINUOUS
 10
105.0066610192
 20
126.5519834538
 40
0.5
 50
189.9388413887
 51
194.2
  0
ARC
  8
0
 62
7
  6
CONTINUOUS
 10
99.5066610192
 20
126.5519834538
 40
0.5
 50
345.8000232447
 51
0.0000037398
  0
ARC
  8
AXES
 62
7
  6
CONTINUOUS
 10
99.5066610192
 20
126.5519834538
 40
0.5
 50
345.8
 51
350.0603159709
  0
ARC
  8
AXES
 62
7
  6
CONTINUOUS
 10
99.5066610192
 20
126.5519834538
 40
0.5
 50
350.8517292183
 51
354.9513626099
  0
ARC
  8
AXES
 62
7
  6
CONTINUOUS
 10
99.5066610192
 20
126.5519834538
 40
0.5
 50
355.7373127392
 51
360.0
  0
ARC
  8
0
 62
7
  6
CONTINUOUS
 10
132.8816610192
 20
122.9827051616
 40
4.5
 50
270.0
 51
299.9997624355
  0
ARC
  8
0
 62
7
  6
CONTINUOUS
 10
131.8816610192
 20
122.9827051616
 40
4.5
 50
240.0002375645
 51
270.0
  0
ARC
  8
AXES
 62
7
  6
CONTINUOUS
 10
120.6816610192
 20
122.8127051616
 40
1.5
 50
282.2461793568
 51
85.8739291194
  0
ARC
  8
0
 62
7
  6
CONTINUOUS
 10
143.6356750617
 20
119.5124834436
 40
0.5000000052
 50
180.0000153891
 51
240.3272591819
  0
ARC
  8
0
 62
7
  6
CONTINUOUS
 10
129.8816750709
 20
119.5185953845
 40
0.5000000053
 50
180.0000149627
 51
240.0002759555
  0
ARC
  8
0
 62
7
  6
CONTINUOUS
 10
134.881646656
 20
119.518595254
 40
0.5
 50
299.9997624355
 51
360.0
  0
ARC
  8
0
 62
7
  6
CONTINUOUS
 10
120.381646656
 20
119.518595254
 40
0.5
 50
299.9997624355
 51
360.0
  0
ARC
  8
AXES
 62
7
  6
CONTINUOUS
 10
129.5316753824
 20
123.5071072956
 40
0.15
 50
165.8
 51
180.0
  0
ARC
  8
0
 62
7
  6
CONTINUOUS
 10
129.5316759183
 20
123.5071094138
 40
0.15
 50
165.8008345876
 51
180.0008090641
  0
ARC
  8
0
 62
7
  6
CONTINUOUS
 10
120.731646656
 20
123.5071072956
 40
0.15
 50
0.0
 51
14.2
  0
ARC
  8
AXES
 62
7
  6
CONTINUOUS
 10
120.8003806561
 20
124.4584286037
 40
0.15
 50
194.2
 51
265.8739291194
  0
ARC
  8
AXES
 62
7
  6
CONTINUOUS
 10
121.031646656
 20
121.2002504944
 40
0.15
 50
102.2461793568
 51
180.0
  0
ARC
  8
0
 62
7
  6
CONTINUOUS
 10
135.231646656
 20
123.5071072956
 40
0.15
 50
0.0
 51
14.2
  0
ARC
  8
0
 62
7
  6
CONTINUOUS
 10
143.2856759183
 20
123.5071094138
 40
0.15
 50
165.8008345876
 51
180.0008090641
  0
ARC
  8
AXES
 62
7
  6
CONTINUOUS
 10
143.2856753824
 20
123.5071072956
 40
0.15
 50
165.8
 51
180.0
  0
ARC
  8
0
 62
7
  6
CONTINUOUS
 10
141.1856610192
 20
132.3827051616
 40
2.7
 50
359.9996366147
 51
90.0003614392
  0
ARC
  8
0
 62
7
  6
CONTINUOUS
 10
127.4316610192
 20
132.3827051616
 40
2.7
 50
359.9996366147
 51
90.0003614392
  0
ARC
  8
0
 62
7
  6
CONTINUOUS
 10
137.3316610192
 20
132.3827051616
 40
2.7
 50
89.9996301902
 51
180.0003555156
  0
ARC
  8
0
 62
7
  6
CONTINUOUS
 10
122.8316610192
 20
132.3827051616
 40
2.7
 50
89.9996301902
 51
180.0003555156
  0
ARC
  8
0
 62
7
  6
CONTINUOUS
 10
143.3856610192
 20
126.5519834538
 40
0.5
 50
345.80004763
 51
359.9999120327
  0
ARC
  8
AXES
 62
7
  6
CONTINUOUS
 10
143.3856610192
 20
126.5519834538
 40
0.5
 50
345.7999999998
 51
350.0609162944
  0
ARC
  8
AXES
 62
7
  6
CONTINUOUS
 10
143.3856610192
 20
126.5519834538
 40
0.5
 50
350.8503381441
 51
354.9518704174
  0
ARC
  8
AXES
 62
7
  6
CONTINUOUS
 10
143.3856610192
 20
126.5519834538
 40
0.5
 50
355.7382317199
 51
360.0
  0
ARC
  8
0
 62
7
  6
CONTINUOUS
 10
135.1316610192
 20
126.5519834538
 40
0.5
 50
180.000043433
 51
194.1999095363
  0
ARC
  8
AXES
 62
7
  6
CONTINUOUS
 10
135.1316610192
 20
126.5519834538
 40
0.5
 50
180.0
 51
184.2639730728
  0
ARC
  8
AXES
 62
7
  6
CONTINUOUS
 10
135.1316610192
 20
126.5519834538
 40
0.5
 50
185.0481113768
 51
189.1490096539
  0
ARC
  8
AXES
 62
7
  6
CONTINUOUS
 10
135.1316610192
 20
126.5519834538
 40
0.5
 50
189.9394663558
 51
194.2
  0
ARC
  8
0
 62
7
  6
CONTINUOUS
 10
129.6316610192
 20
126.5519834538
 40
0.5
 50
345.80004763
 51
359.9999120327
  0
ARC
  8
AXES
 62
7
  6
CONTINUOUS
 10
129.6316610192
 20
126.5519834538
 40
0.5
 50
345.8
 51
350.0609162946
  0
ARC
  8
AXES
 62
7
  6
CONTINUOUS
 10
129.6316610192
 20
126.5519834538
 40
0.5
 50
350.850338144
 51
354.9518704175
  0
ARC
  8
AXES
 62
7
  6
CONTINUOUS
 10
129.6316610192
 20
126.5519834538
 40
0.5
 50
355.7382317198
 51
360.0
  0
ARC
  8
0
 62
7
  6
CONTINUOUS
 10
120.6316610192
 20
126.5519834538
 40
0.5
 50
180.0000434331
 51
194.1999095363
  0
ARC
  8
AXES
 62
7
  6
CONTINUOUS
 10
120.6316610192
 20
126.5519834538
 40
0.5
 50
180.0
 51
184.2639730727
  0
ARC
  8
AXES
 62
7
  6
CONTINUOUS
 10
120.6316610192
 20
126.5519834538
 40
0.5
 50
185.0481113768
 51
189.1490096538
  0
ARC
  8
AXES
 62
7
  6
CONTINUOUS
 10
120.6316610192
 20
126.5519834538
 40
0.5
 50
189.9394663559
 51
194.2
  0
ARC
  8
0
 62
7
  6
CONTINUOUS
 10
52.2856610192
 20
142.1115625698
 40
45.0
 50
355.9091741788
 51
4.0908258212
  0
ARC
  8
0
 62
7
  6
CONTINUOUS
 10
101.8816610192
 20
141.2827051616
 40
5.5
 50
210.7881902385
 51
270.0002134576
  0
ARC
  8
0
 62
7
  6
CONTINUOUS
 10
117.1316610192
 20
140.3827051616
 40
4.5
 50
179.9997703741
 51
270.000257228
  0
ARC
  8
0
 62
7
  6
CONTINUOUS
 10
118.6316610192
 20
140.3827051616
 40
4.5
 50
269.9997712509
 51
0.0002578827
  0
ARC
  8
0
 62
7
  6
CONTINUOUS
 10
103.6316610192
 20
140.2827051616
 40
4.5
 50
269.9997687717
 51
0.0002256948
  0
ARC
  8
0
 62
7
  6
CONTINUOUS
 10
131.4816610192
 20
139.8827051616
 40
3.85
 50
179.9997186273
 51
270.0003124557
  0
ARC
  8
0
 62
7
  6
CONTINUOUS
 10
133.2816610192
 20
139.8827051616
 40
3.85
 50
269.9997198972
 51
0.0003135951
  0
ARC
  8
0
 62
7
  6
CONTINUOUS
 10
94.8816610192
 20
139.0762570074
 40
3.0
 50
179.9995824555
 51
250.3310978759
  0
ARC
  8
0
 62
7
  6
CONTINUOUS
 10
94.3816610192
 20
150.5272035348
 40
2.5
 50
70.3307146137
 51
180.0006116278
  0
ARC
  8
0
 62
7
  6
CONTINUOUS
 10
127.6356610192
 20
151.8327051616
 40
0.75
 50
0.0
 51
90.0
  0
ARC
  8
0
 62
7
  6
CONTINUOUS
 10
123.1276610192
 20
151.8327051616
 40
0.75
 50
90.0
 51
180.0
  0
ARC
  8
0
 62
7
  6
CONTINUOUS
 10
112.6356610192
 20
151.8327051616
 40
0.75
 50
0.0
 51
90.0
  0
ARC
  8
0
 62
7
  6
CONTINUOUS
 10
108.1276610192
 20
151.8327051616
 40
0.75
 50
90.0
 51
180.0
  0
ARC
  8
0
 62
7
  6
CONTINUOUS
 10
141.6396610192
 20
151.8327051616
 40
0.75
 50
0.0
 51
90.0
  0
ARC
  8
0
 62
7
  6
CONTINUOUS
 10
137.1276610192
 20
151.8327051616
 40
0.75
 50
90.0
 51
180.0
  0
ARC
  8
0
 62
7
  6
CONTINUOUS
 10
142.1356610192
 20
144.5204268694
 40
0.5
 50
165.8000232516
 51
180.0000037413
  0
ARC
  8
0
 62
7
  6
CONTINUOUS
 10
136.6316610192
 20
144.5204268694
 40
0.5
 50
0.0000196988
 51
14.2000046196
  0
ARC
  8
0
 62
7
  6
CONTINUOUS
 10
128.1316610192
 20
144.5204268694
 40
0.5
 50
165.8000232516
 51
180.0000037413
  0
ARC
  8
0
 62
7
  6
CONTINUOUS
 10
122.6316610192
 20
144.5204268694
 40
0.5
 50
0.0000196988
 51
14.2000046195
  0
ARC
  8
0
 62
7
  6
CONTINUOUS
 10
113.1316610192
 20
144.5204268694
 40
0.5
 50
165.8000232515
 51
180.0000037413
  0
ARC
  8
0
 62
7
  6
CONTINUOUS
 10
107.6316610192
 20
144.5204313472
 40
0.5
 50
0.0000434023
 51
14.198899021
  0
ARC
  8
0
 62
7
  6
CONTINUOUS
 10
97.2856610192
 20
138.5442231003
 40
0.15
 50
179.9992181607
 51
210.7892060644
  0
ARC
  8
0
 62
7
  6
CONTINUOUS
 10
107.5276610192
 20
147.5813873059
 40
0.15
 50
180.0000000001
 51
194.1989894452
  0
ARC
  8
0
 62
7
  6
CONTINUOUS
 10
96.9856610192
 20
152.0920275693
 40
0.15
 50
0.0
 51
70.3307146137
  0
ARC
  8
0
 62
7
  6
CONTINUOUS
 10
113.2356610192
 20
147.5811676364
 40
0.15
 50
345.8
 51
360.0
  0
ARC
  8
0
 62
7
  6
CONTINUOUS
 10
122.5276613685
 20
147.581166256
 40
0.15
 50
179.9994727223
 51
194.1994561007
  0
ARC
  8
0
 62
7
  6
CONTINUOUS
 10
128.2356610192
 20
147.5811676364
 40
0.15
 50
345.8
 51
360.0
  0
ARC
  8
0
 62
7
  6
CONTINUOUS
 10
136.5276613685
 20
147.581166256
 40
0.15
 50
179.9994727223
 51
194.1994561007
  0
ARC
  8
0
 62
7
  6
CONTINUOUS
 10
142.2396610192
 20
147.5811676364
 40
0.15
 50
345.8
 51
360.0
  0
ARC
  8
0
 62
7
  6
CONTINUOUS
 10
146.6356610192
 20
123.0227051616
 40
4.54
 50
270.0
 51
299.6727803588
  0
ARC
  8
0
 62
7
  6
CONTINUOUS
 10
145.6356610192
 20
123.0227051616
 40
4.54
 50
240.3272196412
 51
270.0
  0
ARC
  8
0
 62
7
  6
CONTINUOUS
 10
159.2316610192
 20
122.4827051616
 40
4.0
 50
224.4153085972
 51
315.5846914028
  0
ARC
  8
0
 62
7
  6
CONTINUOUS
 10
156.7316612262
 20
120.0332151211
 40
0.5000000086
 50
179.9999658822
 51
224.4152676244
  0
ARC
  8
0
 62
7
  6
CONTINUOUS
 10
161.7316610192
 20
120.0332154188
 40
0.5
 50
315.5846914028
 51
360.0
  0
ARC
  8
0
 62
7
  6
CONTINUOUS
 10
148.635646656
 20
119.5124833093
 40
0.5
 50
299.6727803588
 51
360.0
  0
ARC
  8
0
 62
7
  6
CONTINUOUS
 10
156.4816610192
 20
126.5520402165
 40
0.5
 50
345.8000476299
 51
359.9999120325
  0
ARC
  8
AXES
 62
7
  6
CONTINUOUS
 10
156.4816610192
 20
126.5520402165
 40
0.5
 50
345.8
 51
350.0609163037
  0
ARC
  8
AXES
 62
7
  6
CONTINUOUS
 10
156.4816610192
 20
126.5520402165
 40
0.5
 50
350.8503381195
 51
354.9518703931
  0
ARC
  8
AXES
 62
7
  6
CONTINUOUS
 10
156.4816610192
 20
126.5520402165
 40
0.5
 50
355.7382317298
 51
360.0
  0
ARC
  8
0
 62
7
  6
CONTINUOUS
 10
161.9816610192
 20
126.5520402165
 40
0.5
 50
180.0000879381
 51
194.1999523252
  0
ARC
  8
AXES
 62
7
  6
CONTINUOUS
 10
161.9816610192
 20
126.5520402165
 40
0.5
 50
189.9390834344
 51
194.2
  0
ARC
  8
AXES
 62
7
  6
CONTINUOUS
 10
161.9816610192
 20
126.5520402165
 40
0.5
 50
185.0481302839
 51
189.1496625575
  0
ARC
  8
AXES
 62
7
  6
CONTINUOUS
 10
161.9816610192
 20
126.5520402165
 40
0.5
 50
180.0
 51
184.2617680017
  0
ARC
  8
0
 62
7
  6
CONTINUOUS
 10
148.8856610192
 20
126.5519834538
 40
0.5
 50
180.000043433
 51
194.1999095363
  0
ARC
  8
AXES
 62
7
  6
CONTINUOUS
 10
148.8856610192
 20
126.5519834538
 40
0.5
 50
180.0
 51
184.2639730728
  0
ARC
  8
AXES
 62
7
  6
CONTINUOUS
 10
148.8856610192
 20
126.5519834538
 40
0.5
 50
185.0481113767
 51
189.1490096539
  0
ARC
  8
AXES
 62
7
  6
CONTINUOUS
 10
148.8856610192
 20
126.5519834538
 40
0.5
 50
189.9394663558
 51
194.2
  0
ARC
  8
0
 62
7
  6
CONTINUOUS
 10
162.0816610192
 20
123.5071072956
 40
0.15
 50
0.0
 51
14.2
  0
ARC
  8
0
 62
7
  6
CONTINUOUS
 10
148.985646656
 20
123.5071072956
 40
0.15
 50
0.0
 51
14.2
  0
ARC
  8
0
 62
7
  6
CONTINUOUS
 10
156.3816615551
 20
123.5071094136
 40
0.15
 50
165.8008345302
 51
180.0008090084
  0
ARC
  8
AXES
 62
7
  6
CONTINUOUS
 10
156.3816610192
 20
123.5071072956
 40
0.15
 50
165.8
 51
180.0
  0
ARC
  8
0
 62
7
  6
CONTINUOUS
 10
184.6316610192
 20
122.4827051616
 40
4.0
 50
224.4153085972
 51
315.5846914028
  0
ARC
  8
0
 62
7
  6
CONTINUOUS
 10
171.9316610192
 20
122.4827051616
 40
4.0
 50
224.4153085972
 51
315.5846914028
  0
ARC
  8
0
 62
7
  6
CONTINUOUS
 10
182.1316612262
 20
120.0332151211
 40
0.5000000086
 50
179.9999658822
 51
224.4152676244
  0
ARC
  8
0
 62
7
  6
CONTINUOUS
 10
169.4316612262
 20
120.0332151211
 40
0.5000000086
 50
179.9999658822
 51
224.4152676244
  0
ARC
  8
0
 62
7
  6
CONTINUOUS
 10
174.4316610192
 20
120.0332154188
 40
0.5
 50
315.5846914028
 51
360.0
  0
ARC
  8
0
 62
7
  6
CONTINUOUS
 10
187.1316610192
 20
120.0332154188
 40
0.5
 50
315.5846914028
 51
360.0
  0
ARC
  8
0
 62
7
  6
CONTINUOUS
 10
181.8816610192
 20
126.5520402165
 40
0.5
 50
345.8000476299
 51
359.9999120325
  0
ARC
  8
AXES
 62
7
  6
CONTINUOUS
 10
181.8816610192
 20
126.5520402165
 40
0.5
 50
345.8
 51
350.0609163037
  0
ARC
  8
AXES
 62
7
  6
CONTINUOUS
 10
181.8816610192
 20
126.5520402165
 40
0.5
 50
350.8503381195
 51
354.9518703932
  0
ARC
  8
AXES
 62
7
  6
CONTINUOUS
 10
181.8816610192
 20
126.5520402165
 40
0.5
 50
355.7382317297
 51
360.0
  0
ARC
  8
0
 62
7
  6
CONTINUOUS
 10
187.3816610192
 20
126.5520402165
 40
0.5
 50
180.0000879381
 51
194.1999523252
  0
ARC
  8
AXES
 62
7
  6
CONTINUOUS
 10
187.3816610192
 20
126.5520402165
 40
0.5
 50
189.9390834345
 51
194.2
  0
ARC
  8
AXES
 62
7
  6
CONTINUOUS
 10
187.3816610192
 20
126.5520402165
 40
0.5
 50
185.048130284
 51
189.1496625575
  0
ARC
  8
AXES
 62
7
  6
CONTINUOUS
 10
187.3816610192
 20
126.5520402165
 40
0.5
 50
180.0
 51
184.2617680015
  0
ARC
  8
0
 62
7
  6
CONTINUOUS
 10
169.1816610192
 20
126.5520402165
 40
0.5
 50
345.8000476299
 51
359.9999120325
  0
ARC
  8
AXES
 62
7
  6
CONTINUOUS
 10
169.1816610192
 20
126.5520402165
 40
0.5
 50
345.8
 51
350.0609163037
  0
ARC
  8
AXES
 62
7
  6
CONTINUOUS
 10
169.1816610192
 20
126.5520402165
 40
0.5
 50
350.8503381195
 51
354.9518703932
  0
ARC
  8
AXES
 62
7
  6
CONTINUOUS
 10
169.1816610192
 20
126.5520402165
 40
0.5
 50
355.7382317297
 51
360.0
  0
ARC
  8
0
 62
7
  6
CONTINUOUS
 10
174.6816610192
 20
126.5520402165
 40
0.5
 50
180.0000879381
 51
194.1999523252
  0
ARC
  8
AXES
 62
7
  6
CONTINUOUS
 10
174.6816610192
 20
126.5520402165
 40
0.5
 50
189.9390834345
 51
194.2
  0
ARC
  8
AXES
 62
7
  6
CONTINUOUS
 10
174.6816610192
 20
126.5520402165
 40
0.5
 50
185.048130284
 51
189.1496625574
  0
ARC
  8
AXES
 62
7
  6
CONTINUOUS
 10
174.6816610192
 20
126.5520402165
 40
0.5
 50
180.0
 51
184.2617680015
  0
ARC
  8
0
 62
7
  6
CONTINUOUS
 10
187.4816610192
 20
123.5071072956
 40
0.15
 50
0.0
 51
14.2
  0
ARC
  8
0
 62
7
  6
CONTINUOUS
 10
174.7816610192
 20
123.5071072956
 40
0.15
 50
0.0
 51
14.2
  0
ARC
  8
0
 62
7
  6
CONTINUOUS
 10
181.7816615551
 20
123.5071094136
 40
0.15
 50
165.8008345302
 51
180.0008090085
  0
ARC
  8
AXES
 62
7
  6
CONTINUOUS
 10
181.7816610192
 20
123.5071072956
 40
0.15
 50
165.8
 51
180.0
  0
ARC
  8
0
 62
7
  6
CONTINUOUS
 10
169.0816615551
 20
123.5071094136
 40
0.15
 50
165.8008345302
 51
180.0008090084
  0
ARC
  8
AXES
 62
7
  6
CONTINUOUS
 10
169.0816610192
 20
123.5071072956
 40
0.15
 50
165.8
 51
180.0
  0
ARC
  8
0
 62
7
  6
CONTINUOUS
 10
180.3816610192
 20
132.7487051616
 40
2.0
 50
359.9995383467
 51
90.0004661199
  0
ARC
  8
0
 62
7
  6
CONTINUOUS
 10
188.8816610192
 20
132.7487051616
 40
2.0
 50
89.9995342696
 51
180.0004621291
  0
ARC
  8
0
 62
7
  6
CONTINUOUS
 10
167.6816610192
 20
132.7487051616
 40
2.0
 50
359.9995383467
 51
90.0004661199
  0
ARC
  8
0
 62
7
  6
CONTINUOUS
 10
176.1816610192
 20
132.7487051616
 40
2.0
 50
89.9995342696
 51
180.0004621291
  0
ARC
  8
0
 62
7
  6
CONTINUOUS
 10
154.9816610192
 20
132.7487051616
 40
2.0
 50
359.9995383467
 51
90.0004661199
  0
ARC
  8
0
 62
7
  6
CONTINUOUS
 10
163.4816610192
 20
132.7487051616
 40
2.0
 50
89.9995342696
 51
180.0004621291
  0
ARC
  8
0
 62
7
  6
CONTINUOUS
 10
150.3856610192
 20
132.7487051616
 40
2.0
 50
89.9995342696
 51
180.0004621291
  0
ARC
  8
0
 62
7
  6
CONTINUOUS
 10
210.0316610192
 20
122.4827051616
 40
4.0
 50
224.4153085972
 51
315.5846914028
  0
ARC
  8
0
 62
7
  6
CONTINUOUS
 10
197.3316610192
 20
122.4827051616
 40
4.0
 50
224.4153085972
 51
315.5846914028
  0
ARC
  8
0
 62
7
  6
CONTINUOUS
 10
207.5316612262
 20
120.0332151211
 40
0.5000000086
 50
179.9999658822
 51
224.4152676244
  0
ARC
  8
0
 62
7
  6
CONTINUOUS
 10
194.8316612262
 20
120.0332151211
 40
0.5000000086
 50
179.9999658822
 51
224.4152676244
  0
ARC
  8
0
 62
7
  6
CONTINUOUS
 10
212.5316610192
 20
120.0332154188
 40
0.5
 50
315.5846914028
 51
360.0
  0
ARC
  8
0
 62
7
  6
CONTINUOUS
 10
199.8316610192
 20
120.0332154188
 40
0.5
 50
315.5846914028
 51
360.0
  0
ARC
  8
0
 62
7
  6
CONTINUOUS
 10
207.2816610192
 20
126.5520402165
 40
0.5
 50
345.8000476299
 51
359.9999120325
  0
ARC
  8
AXES
 62
7
  6
CONTINUOUS
 10
207.2816610192
 20
126.5520402165
 40
0.5
 50
345.8
 51
350.0609163038
  0
ARC
  8
AXES
 62
7
  6
CONTINUOUS
 10
207.2816610192
 20
126.5520402165
 40
0.5
 50
350.8503381194
 51
354.9518703932
  0
ARC
  8
AXES
 62
7
  6
CONTINUOUS
 10
207.2816610192
 20
126.5520402165
 40
0.5
 50
355.7382317297
 51
360.0
  0
ARC
  8
0
 62
7
  6
CONTINUOUS
 10
212.7816610192
 20
126.5520402165
 40
0.5
 50
180.0000879381
 51
194.1999523252
  0
ARC
  8
AXES
 62
7
  6
CONTINUOUS
 10
212.7816610192
 20
126.5520402165
 40
0.5
 50
189.9390834345
 51
194.2
  0
ARC
  8
AXES
 62
7
  6
CONTINUOUS
 10
212.7816610192
 20
126.5520402165
 40
0.5
 50
185.048130284
 51
189.1496625575
  0
ARC
  8
AXES
 62
7
  6
CONTINUOUS
 10
212.7816610192
 20
126.5520402165
 40
0.5
 50
180.0
 51
184.2617680015
  0
ARC
  8
0
 62
7
  6
CONTINUOUS
 10
194.5816610192
 20
126.5520402165
 40
0.5
 50
345.8000476299
 51
359.9999120325
  0
ARC
  8
AXES
 62
7
  6
CONTINUOUS
 10
194.5816610192
 20
126.5520402165
 40
0.5
 50
345.8
 51
350.0609163037
  0
ARC
  8
AXES
 62
7
  6
CONTINUOUS
 10
194.5816610192
 20
126.5520402165
 40
0.5
 50
350.8503381195
 51
354.9518703932
  0
ARC
  8
AXES
 62
7
  6
CONTINUOUS
 10
194.5816610192
 20
126.5520402165
 40
0.5
 50
355.7382317297
 51
360.0
  0
ARC
  8
0
 62
7
  6
CONTINUOUS
 10
200.0816610192
 20
126.5520402165
 40
0.5
 50
180.0000879381
 51
194.1999523252
  0
ARC
  8
AXES
 62
7
  6
CONTINUOUS
 10
200.0816610192
 20
126.5520402165
 40
0.5
 50
189.9390834345
 51
194.2
  0
ARC
  8
AXES
 62
7
  6
CONTINUOUS
 10
200.0816610192
 20
126.5520402165
 40
0.5
 50
185.048130284
 51
189.1496625574
  0
ARC
  8
AXES
 62
7
  6
CONTINUOUS
 10
200.0816610192
 20
126.5520402165
 40
0.5
 50
180.0
 51
184.2617680015
  0
ARC
  8
0
 62
7
  6
CONTINUOUS
 10
212.8816610192
 20
123.5071072956
 40
0.15
 50
0.0
 51
14.2
  0
ARC
  8
0
 62
7
  6
CONTINUOUS
 10
200.1816610192
 20
123.5071072956
 40
0.15
 50
0.0
 51
14.2
  0
ARC
  8
0
 62
7
  6
CONTINUOUS
 10
207.1816615551
 20
123.5071094136
 40
0.15
 50
165.8008345302
 51
180.0008090084
  0
ARC
  8
AXES
 62
7
  6
CONTINUOUS
 10
207.1816610192
 20
123.5071072956
 40
0.15
 50
165.8
 51
180.0
  0
ARC
  8
0
 62
7
  6
CONTINUOUS
 10
194.4816615551
 20
123.5071094136
 40
0.15
 50
165.8008345302
 51
180.0008090084
  0
ARC
  8
AXES
 62
7
  6
CONTINUOUS
 10
194.4816610192
 20
123.5071072956
 40
0.15
 50
165.8
 51
180.0
  0
ARC
  8
0
 62
7
  6
CONTINUOUS
 10
235.4316610192
 20
122.4827051616
 40
4.0
 50
224.4153085972
 51
315.5846914028
  0
ARC
  8
0
 62
7
  6
CONTINUOUS
 10
222.7316610192
 20
122.4827051616
 40
4.0
 50
224.4153085972
 51
315.5846914028
  0
ARC
  8
0
 62
7
  6
CONTINUOUS
 10
232.9316612262
 20
120.0332151211
 40
0.5000000086
 50
179.9999658822
 51
224.4152676244
  0
ARC
  8
0
 62
7
  6
CONTINUOUS
 10
220.2316612262
 20
120.0332151211
 40
0.5000000086
 50
179.9999658822
 51
224.4152676244
  0
ARC
  8
0
 62
7
  6
CONTINUOUS
 10
237.9316610192
 20
120.0332154188
 40
0.5
 50
315.5846914028
 51
360.0
  0
ARC
  8
0
 62
7
  6
CONTINUOUS
 10
225.2316610192
 20
120.0332154188
 40
0.5
 50
315.5846914028
 51
360.0
  0
ARC
  8
0
 62
7
  6
CONTINUOUS
 10
232.6816610192
 20
126.5520402165
 40
0.5
 50
345.8000476299
 51
359.9999120325
  0
ARC
  8
AXES
 62
7
  6
CONTINUOUS
 10
232.6816610192
 20
126.5520402165
 40
0.5
 50
345.8
 51
350.0609163038
  0
ARC
  8
AXES
 62
7
  6
CONTINUOUS
 10
232.6816610192
 20
126.5520402165
 40
0.5
 50
350.8503381195
 51
354.9518703932
  0
ARC
  8
AXES
 62
7
  6
CONTINUOUS
 10
232.6816610192
 20
126.5520402165
 40
0.5
 50
355.7382317298
 51
360.0
  0
ARC
  8
0
 62
7
  6
CONTINUOUS
 10
238.1816610192
 20
126.5520402165
 40
0.5
 50
180.0000879381
 51
194.1999523252
  0
ARC
  8
AXES
 62
7
  6
CONTINUOUS
 10
238.1816610192
 20
126.5520402165
 40
0.5
 50
189.9390834345
 51
194.2
  0
ARC
  8
AXES
 62
7
  6
CONTINUOUS
 10
238.1816610192
 20
126.5520402165
 40
0.5
 50
185.0481302839
 51
189.1496625574
  0
ARC
  8
AXES
 62
7
  6
CONTINUOUS
 10
238.1816610192
 20
126.5520402165
 40
0.5
 50
180.0
 51
184.2617680016
  0
ARC
  8
0
 62
7
  6
CONTINUOUS
 10
219.9816610192
 20
126.5520402165
 40
0.5
 50
345.8000476299
 51
359.9999120325
  0
ARC
  8
AXES
 62
7
  6
CONTINUOUS
 10
219.9816610192
 20
126.5520402165
 40
0.5
 50
345.8
 51
350.0609163038
  0
ARC
  8
AXES
 62
7
  6
CONTINUOUS
 10
219.9816610192
 20
126.5520402165
 40
0.5
 50
350.8503381195
 51
354.9518703932
  0
ARC
  8
AXES
 62
7
  6
CONTINUOUS
 10
219.9816610192
 20
126.5520402165
 40
0.5
 50
355.7382317298
 51
360.0
  0
ARC
  8
0
 62
7
  6
CONTINUOUS
 10
225.4816610192
 20
126.5520402165
 40
0.5
 50
180.0000879381
 51
194.1999523252
  0
ARC
  8
AXES
 62
7
  6
CONTINUOUS
 10
225.4816610192
 20
126.5520402165
 40
0.5
 50
189.9390834345
 51
194.2
  0
ARC
  8
AXES
 62
7
  6
CONTINUOUS
 10
225.4816610192
 20
126.5520402165
 40
0.5
 50
185.0481302839
 51
189.1496625575
  0
ARC
  8
AXES
 62
7
  6
CONTINUOUS
 10
225.4816610192
 20
126.5520402165
 40
0.5
 50
180.0
 51
184.2617680016
  0
ARC
  8
0
 62
7
  6
CONTINUOUS
 10
238.2816610192
 20
123.5071072956
 40
0.15
 50
0.0
 51
14.2
  0
ARC
  8
0
 62
7
  6
CONTINUOUS
 10
225.5816610192
 20
123.5071072956
 40
0.15
 50
0.0
 51
14.2
  0
ARC
  8
0
 62
7
  6
CONTINUOUS
 10
232.5816615551
 20
123.5071094136
 40
0.15
 50
165.8008345302
 51
180.0008090084
  0
ARC
  8
AXES
 62
7
  6
CONTINUOUS
 10
232.5816610192
 20
123.5071072956
 40
0.15
 50
165.8
 51
180.0
  0
ARC
  8
0
 62
7
  6
CONTINUOUS
 10
219.8816615551
 20
123.5071094136
 40
0.15
 50
165.8008345302
 51
180.0008090084
  0
ARC
  8
AXES
 62
7
  6
CONTINUOUS
 10
219.8816610192
 20
123.5071072956
 40
0.15
 50
165.8
 51
180.0
  0
ARC
  8
0
 62
7
  6
CONTINUOUS
 10
231.1816610192
 20
132.7487051616
 40
2.0
 50
359.9995383467
 51
90.0004661199
  0
ARC
  8
0
 62
7
  6
CONTINUOUS
 10
218.4816610192
 20
132.7487051616
 40
2.0
 50
359.9995383467
 51
90.0004661199
  0
ARC
  8
0
 62
7
  6
CONTINUOUS
 10
226.9816610192
 20
132.7487051616
 40
2.0
 50
89.9995342697
 51
180.0004621291
  0
ARC
  8
0
 62
7
  6
CONTINUOUS
 10
205.7816610192
 20
132.7487051616
 40
2.0
 50
359.9995383467
 51
90.0004661199
  0
ARC
  8
0
 62
7
  6
CONTINUOUS
 10
214.2816610192
 20
132.7487051616
 40
2.0
 50
89.9995342696
 51
180.0004621291
  0
ARC
  8
0
 62
7
  6
CONTINUOUS
 10
193.0816610192
 20
132.7487051616
 40
2.0
 50
359.9995383467
 51
90.0004661199
  0
ARC
  8
0
 62
7
  6
CONTINUOUS
 10
201.5816610192
 20
132.7487051616
 40
2.0
 50
89.9995342696
 51
180.0004621291
  0
ARC
  8
0
 62
7
  6
CONTINUOUS
 10
236.6816610192
 20
135.2327051616
 40
1.0
 50
0.0
 51
90.0
  0
ARC
  8
0
 62
7
  6
CONTINUOUS
 10
184.6316610192
 20
140.3367051616
 40
4.104
 50
179.9997361945
 51
0.0002722935
  0
ARC
  8
0
 62
7
  6
CONTINUOUS
 10
171.9316610192
 20
140.3367051616
 40
4.104
 50
179.9997361945
 51
0.0002722935
  0
ARC
  8
0
 62
7
  6
CONTINUOUS
 10
159.2316610192
 20
140.3367051616
 40
4.104
 50
179.9997361945
 51
0.0002722935
  0
ARC
  8
0
 62
7
  6
CONTINUOUS
 10
145.4856610192
 20
139.8827051616
 40
3.85
 50
179.9997186273
 51
270.0003124557
  0
ARC
  8
0
 62
7
  6
CONTINUOUS
 10
146.7856610192
 20
139.8827051616
 40
3.85
 50
269.9997198972
 51
0.0003135951
  0
ARC
  8
0
 62
7
  6
CONTINUOUS
 10
181.0276610192
 20
144.5204268694
 40
0.5
 50
165.8000476345
 51
179.9999120476
  0
ARC
  8
0
 62
7
  6
CONTINUOUS
 10
188.2356610192
 20
144.5204268694
 40
0.5
 50
0.0000879231
 51
14.1999523206
  0
ARC
  8
0
 62
7
  6
CONTINUOUS
 10
168.3276610192
 20
144.5204268694
 40
0.5
 50
165.8000476345
 51
179.9999120476
  0
ARC
  8
0
 62
7
  6
CONTINUOUS
 10
175.5356610192
 20
144.5204268694
 40
0.5
 50
0.0000879231
 51
14.1999523206
  0
ARC
  8
0
 62
7
  6
CONTINUOUS
 10
155.6276610192
 20
144.5204268694
 40
0.5
 50
165.8000476345
 51
179.9999120476
  0
ARC
  8
0
 62
7
  6
CONTINUOUS
 10
162.8356610192
 20
144.5204268694
 40
0.5
 50
0.0000879231
 51
14.1999523206
  0
ARC
  8
0
 62
7
  6
CONTINUOUS
 10
150.1356610192
 20
144.5204268694
 40
0.5
 50
0.0000196988
 51
14.2000046195
  0
ARC
  8
0
 62
7
  6
CONTINUOUS
 10
188.7316610192
 20
151.8327051616
 40
0.75
 50
90.0
 51
180.0
  0
ARC
  8
0
 62
7
  6
CONTINUOUS
 10
180.5316610192
 20
151.8327051616
 40
0.75
 50
0.0
 51
90.0
  0
ARC
  8
0
 62
7
  6
CONTINUOUS
 10
176.0316610192
 20
151.8327051616
 40
0.75
 50
90.0
 51
180.0
  0
ARC
  8
0
 62
7
  6
CONTINUOUS
 10
167.8316610192
 20
151.8327051616
 40
0.75
 50
0.0
 51
90.0
  0
ARC
  8
0
 62
7
  6
CONTINUOUS
 10
163.3316610192
 20
151.8327051616
 40
0.75
 50
90.0
 51
180.0
  0
ARC
  8
0
 62
7
  6
CONTINUOUS
 10
155.1316610192
 20
151.8327051616
 40
0.75
 50
0.0
 51
90.0
  0
ARC
  8
0
 62
7
  6
CONTINUOUS
 10
150.6316610192
 20
151.8327051616
 40
0.75
 50
90.0
 51
180.0
  0
ARC
  8
0
 62
7
  6
CONTINUOUS
 10
150.0316613685
 20
147.581166256
 40
0.15
 50
179.9994727223
 51
194.1994561007
  0
ARC
  8
0
 62
7
  6
CONTINUOUS
 10
162.7316610192
 20
147.5811676364
 40
0.15
 50
180.0
 51
194.2
  0
ARC
  8
0
 62
7
  6
CONTINUOUS
 10
155.7316609526
 20
147.5811673732
 40
0.15
 50
345.8001037234
 51
0.0001005347
  0
ARC
  8
0
 62
7
  6
CONTINUOUS
 10
175.4316610192
 20
147.5811676364
 40
0.15
 50
180.0
 51
194.2
  0
ARC
  8
0
 62
7
  6
CONTINUOUS
 10
168.4316609526
 20
147.5811673732
 40
0.15
 50
345.8001037234
 51
0.0001005346
  0
ARC
  8
0
 62
7
  6
CONTINUOUS
 10
188.1316610192
 20
147.5811676364
 40
0.15
 50
180.0
 51
194.2
  0
ARC
  8
0
 62
7
  6
CONTINUOUS
 10
181.1316609526
 20
147.5811673732
 40
0.15
 50
345.8001037234
 51
0.0001005346
  0
ARC
  8
0
 62
7
  6
CONTINUOUS
 10
235.4316610192
 20
140.3367051616
 40
4.104
 50
179.9997322379
 51
270.0002768412
  0
ARC
  8
0
 62
7
  6
CONTINUOUS
 10
222.7316610192
 20
140.3367051616
 40
4.104
 50
179.9997361945
 51
0.0002722935
  0
ARC
  8
0
 62
7
  6
CONTINUOUS
 10
210.0316610192
 20
140.3367051616
 40
4.104
 50
179.9997361945
 51
0.0002722935
  0
ARC
  8
0
 62
7
  6
CONTINUOUS
 10
197.3316610192
 20
140.3367051616
 40
4.104
 50
180.0
 51
360.0
  0
ARC
  8
0
 62
7
  6
CONTINUOUS
 10
231.8276610192
 20
144.5204268694
 40
0.5
 50
165.8000476345
 51
179.9999120476
  0
ARC
  8
0
 62
7
  6
CONTINUOUS
 10
219.1276610192
 20
144.5204268694
 40
0.5
 50
165.8000476345
 51
179.9999120476
  0
ARC
  8
0
 62
7
  6
CONTINUOUS
 10
226.3356610192
 20
144.5204268694
 40
0.5
 50
0.0000879231
 51
14.1999523206
  0
ARC
  8
0
 62
7
  6
CONTINUOUS
 10
206.4276610192
 20
144.5204268694
 40
0.5
 50
165.8000476345
 51
179.9999120476
  0
ARC
  8
0
 62
7
  6
CONTINUOUS
 10
213.6356610192
 20
144.5204268694
 40
0.5
 50
0.0000879231
 51
14.1999523206
  0
ARC
  8
0
 62
7
  6
CONTINUOUS
 10
193.7276610192
 20
144.5204268694
 40
0.5
 50
165.8000476345
 51
179.9999120476
  0
ARC
  8
0
 62
7
  6
CONTINUOUS
 10
200.9356610192
 20
144.5204268694
 40
0.5
 50
0.0000879231
 51
14.1999523206
  0
ARC
  8
0
 62
7
  6
CONTINUOUS
 10
231.3316610192
 20
151.8327051616
 40
0.75
 50
0.0
 51
90.0
  0
ARC
  8
0
 62
7
  6
CONTINUOUS
 10
226.8316610192
 20
151.8327051616
 40
0.75
 50
90.0
 51
180.0
  0
ARC
  8
0
 62
7
  6
CONTINUOUS
 10
218.6316610192
 20
151.8327051616
 40
0.75
 50
0.0
 51
90.0
  0
ARC
  8
0
 62
7
  6
CONTINUOUS
 10
214.1316610192
 20
151.8327051616
 40
0.75
 50
90.0
 51
180.0
  0
ARC
  8
0
 62
7
  6
CONTINUOUS
 10
205.9316610192
 20
151.8327051616
 40
0.75
 50
0.0
 51
90.0
  0
ARC
  8
0
 62
7
  6
CONTINUOUS
 10
201.4316610192
 20
151.8327051616
 40
0.75
 50
90.0
 51
180.0
  0
ARC
  8
0
 62
7
  6
CONTINUOUS
 10
193.2316610192
 20
151.8327051616
 40
0.75
 50
0.0
 51
90.0
  0
ARC
  8
0
 62
7
  6
CONTINUOUS
 10
200.8316610192
 20
147.5811676364
 40
0.15
 50
180.0
 51
194.2
  0
ARC
  8
0
 62
7
  6
CONTINUOUS
 10
193.8316609526
 20
147.5811673732
 40
0.15
 50
345.8001037234
 51
0.0001005346
  0
ARC
  8
0
 62
7
  6
CONTINUOUS
 10
213.5316610192
 20
147.5811676364
 40
0.15
 50
180.0
 51
194.2
  0
ARC
  8
0
 62
7
  6
CONTINUOUS
 10
206.5316609526
 20
147.5811673732
 40
0.15
 50
345.8001037234
 51
0.0001005347
  0
ARC
  8
0
 62
7
  6
CONTINUOUS
 10
226.2316610192
 20
147.5811676364
 40
0.15
 50
180.0
 51
194.2
  0
ARC
  8
0
 62
7
  6
CONTINUOUS
 10
219.2316609526
 20
147.5811673732
 40
0.15
 50
345.8001037234
 51
0.0001005346
  0
ARC
  8
0
 62
7
  6
CONTINUOUS
 10
231.9316609526
 20
147.5811673732
 40
0.15
 50
345.8001037234
 51
0.0001005346
  0
ARC
  8
0
 62
7
  6
CONTINUOUS
 10
254.6664033777
 20
135.5327051616
 40
43.15
 50
340.5287793655
 51
19.8639976472
  0
ARC
  8
0
 62
7
  6
CONTINUOUS
 10
270.5795096235
 20
139.7654026507
 40
1.0
 50
180.0000129436
 51
269.0
  0
ARC
  8
0
 62
7
  6
CONTINUOUS
 10
270.5795096235
 20
143.9288025619
 40
1.0
 50
99.0118011229
 51
179.9999996674
  0
ARC
  8
0
 62
7
  6
CONTINUOUS
 10
287.5773773557
 20
122.4827051616
 40
4.0
 50
180.0
 51
270.0
  0
ARC
  8
AXES
 62
7
  6
CONTINUOUS
 10
289.5773773557
 20
122.8327051616
 40
2.1
 50
180.0
 51
360.0
  0
ARC
  8
0
 62
7
  6
CONTINUOUS
 10
291.5773773557
 20
122.4827051616
 40
4.0
 50
270.0
 51
340.5287793655
  0
ARC
  8
AXES
 62
7
  6
CONTINUOUS
 10
289.5773773557
 20
130.8827051616
 40
2.1
 50
0.0
 51
180.0
  0
ARC
  8
0
 62
7
  6
CONTINUOUS
 10
287.5773773557
 20
148.5827051616
 40
4.0
 50
167.4054487862
 51
180.0
  0
CIRCLE
  8
0
 62
7
  6
CONTINUOUS
 10
289.5773773557
 20
148.2327051616
 40
2.75
  0
CIRCLE
  8
0
 62
7
  6
CONTINUOUS
 10
289.5773773557
 20
148.2327051616
 40
2.1
  0
ARC
  8
0
 62
7
  6
CONTINUOUS
 10
283.1773773557
 20
138.1452925663
 40
0.4
 50
0.0
 51
89.0
  0
ARC
  8
0
 62
7
  6
CONTINUOUS
 10
283.1773773557
 20
147.3442657405
 40
0.3999999245
 50
279.0118114672
 51
0.0000657068
  0
ARC
  8
0
 62
7
  6
CONTINUOUS
 10
297.6662871165
 20
135.6327053658
 40
0.1499999934
 50
0.1331681488
 51
11.3665230546
  0
ENDSEC
  0
EOF
