  0
SECTION
  2
HEADER
  9
$EXTMAX
 10
420.0
 20
297.0
 30
0.0
  9
$EXTMIN
 10
0.0
 20
0.0
 30
0.0
  9
$LIMMIN
 10
0.0
 20
0.0
  9
$LIMMAX
 10
420.0
 20
297.0
  9
$VIEWCTR
 10
210.0
 20
148.5
  9
$VIEWSIZE
 40
297.0
  9
$CLAYER
  8
0
  9
$LTSCALE
 40
23.1
  9
$CELTYPE
  6
BYLAYER
  9
$DIMSCALE
 40
1.0
  9
$DIMASZ
 40
3.5
  9
$DIMEXO
 40
2.625
  9
$DIMDLI
 40
15.96
  9
$DIMEXE
 40
7.56
  9
$DIMCEN
 40
3.78
  9
$DIMLFAC
 40
1.0
  9
$DIMBLK
  1
_FILLED
  9
$DIMTXT
 40
3.5
  9
$PDMODE
 70
3
  9
$PDSIZE
 40
0.3125
  9
$TILEMODE
 70
1
  0
ENDSEC
  0
SECTION
  2
TABLES
  0
TABLE
  2
LTYPE
 70
6
  0
LTYPE
  2
BYBLOCK
 70
0
  3

 72
65
 73
0
 40
0.0
  0
LTYPE
  2
BYLAYER
 70
0
  3

 72
65
 73
0
 40
0.0
  0
LTYPE
  2
CONTINUOUS
 70
64
  3
Solid line
 72
65
 73
0
 40
0.0
  0
LTYPE
  2
CENTER
 70
64
  3
____ _ ____ _ ____ _ ____ _ ____ _ ____ _ ____
 72
65
 73
4
 40
0.6
 49
0.375
 49
-0.075
 49
0.075
 49
-0.075
  0
LTYPE
  2
HIDDEN
 70
64
  3
- - - - - - - - - - - - - - - - - - - -
 72
65
 73
2
 40
0.2
 49
0.1
 49
-0.1
  0
LTYPE
  2
PHANTOM
 70
64
  3
_____ _ _ _____ _ _ _____ _ _ _____
 72
65
 73
6
 40
0.8
 49
0.45
 49
-0.05
 49
0.1
 49
-0.05
 49
0.1
 49
-0.05
  0
LTYPE
  2
DOT
 70
64
  3
. . . . . . . . . . . . . . . . . . . .
 72
65
 73
2
 40
0.2
 49
0.1
 49
-0.1
  0
LTYPE
  2
DASHED
 70
64
  3
- - - - - - - - - - - - - - - - - - - -
 72
65
 73
2
 40
0.2
 49
0.1
 49
-0.1
  0
ENDTAB
  0
TABLE
  2
LAYER
 70
36
  0
LAYER
  2
0
 70
0
 62
7
  6
CONTINUOUS
  0
LAYER
  2
DEFAULT_1
 70
0
 62
7
  6
CENTER
  0
LAYER
  2
DEFAULT_2
 70
0
 62
8
  6
HIDDEN
  0
LAYER
  2
DEFAULT_3
 70
0
 62
7
  6
PHANTOM
  0
LAYER
  2
AXES
 70
0
 62
7
  6
CONTINUOUS
  0
LAYER
  2
CSYS
 70
0
 62
7
  6
CONTINUOUS
  0
LAYER
  2
CURVE
 70
0
 62
7
  6
CONTINUOUS
  0
LAYER
  2
CURVES
 70
0
 62
7
  6
CONTINUOUS
  0
LAYER
  2
PLANES
 70
0
 62
7
  6
CONTINUOUS
  0
LAYER
  2
QUILT
 70
0
 62
7
  6
CONTINUOUS
  0
LAYER
  2
SURF-A
 70
0
 62
7
  6
CONTINUOUS
  0
LAYER
  2
SURFACE
 70
0
 62
7
  6
CONTINUOUS
  0
ENDTAB
  0
TABLE
  2
STYLE
 70
1
  0
STYLE
  2
STANDARD
 70
0
 40
0.0
 41
0.8
 50
0.0
 71
0
 42
0.2
  3
txt
  4

  0
STYLE
  2
TEXTSTYLE_1
 70
0
 40
0.0
 41
0.8
 50
0.0
 71
0
 42
0.2
  3
gdt
  4

  0
STYLE
  2
TEXTSTYLE_2
 70
0
 40
0.0
 41
0.6
 50
0.0
 71
0
 42
0.2
  3
txt
  4

  0
STYLE
  2
TEXTSTYLE_3
 70
0
 40
0.0
 41
1.0
 50
0.0
 71
0
 42
0.2
  3
ftb_____.ttf
  4

  0
STYLE
  2
TEXTSTYLE_4
 70
0
 40
0.0
 41
1.0
 50
0.0
 71
0
 42
0.2
  3
fti_____.ttf
  4

  0
STYLE
  2
TEXTSTYLE_5
 70
0
 40
0.0
 41
1.0
 50
0.0
 71
0
 42
0.2
  3
frutiger light.ttf
  4

  0
STYLE
  2
TEXTSTYLE_6
 70
0
 40
0.0
 41
0.7
 50
0.0
 71
0
 42
0.2
  3
txt
  4

  0
STYLE
  2
TEXTSTYLE_7
 70
0
 40
0.0
 41
0.45
 50
0.0
 71
0
 42
0.2
  3
txt
  4

  0
ENDTAB
  0
ENDSEC
  0
SECTION
  2
BLOCKS
  0
BLOCK
  8
0
 62
2
  6
CONTINUOUS
  2
SYMBOL_5_BL1
 70
64
 10
382.7840918555
 20
35.5067593403
  0
TEXT
  8
0
 62
7
  6
CONTINUOUS
 10
373.842376864
 20
30.5995157174
  7
TEXTSTYLE_4
 40
1.0655737705
  1
The brand for plastic modular belts and chains
 41
1.0
 72
0
  0
LINE
  8
0
 62
7
  6
CONTINUOUS
 10
358.7621602445
 20
36.0805298321
 11
358.7621602445
 21
33.9493822911
  0
LINE
  8
0
 62
7
  6
CONTINUOUS
 10
359.0512227376
 20
30.9584509954
 11
359.0512227376
 21
31.0552420547
  0
LINE
  8
0
 62
7
  6
CONTINUOUS
 10
358.7621602445
 20
31.0229783683
 11
358.8199727462
 21
30.8293962497
  0
LINE
  8
0
 62
7
  6
CONTINUOUS
 10
360.1556028675
 20
33.867415078
 11
360.1556028675
 21
36.0805298321
  0
LINE
  8
0
 62
7
  6
CONTINUOUS
 10
361.0746601894
 20
32.0231527829
 11
361.0746601894
 21
30.5067593403
  0
LINE
  8
0
 62
7
  6
CONTINUOUS
 10
361.3637227445
 20
30.5067593403
 11
361.3637227445
 21
31.2488242184
  0
LINE
  8
0
 62
7
  6
CONTINUOUS
 10
361.3637227445
 20
31.3778789641
 11
361.3637227445
 21
32.0231527829
  0
LINE
  8
0
 62
7
  6
CONTINUOUS
 10
358.8199727462
 20
31.216560532
 11
358.7621602445
 21
31.0229783683
  0
LINE
  8
0
 62
7
  6
CONTINUOUS
 10
359.1668477307
 20
30.7971325633
 11
359.0512227376
 21
30.9584509954
  0
LINE
  8
0
 62
7
  6
CONTINUOUS
 10
360.2652852997
 20
31.3133515913
 11
360.3230977445
 21
31.216560532
  0
LINE
  8
0
 62
7
  6
CONTINUOUS
 10
360.6121602997
 20
31.216560532
 11
360.5543476894
 21
31.3456152777
  0
LINE
  8
0
 62
7
  6
CONTINUOUS
 10
362.0408487691
 20
36.0805298321
 11
362.0408487691
 21
34.2772511436
  0
LINE
  8
0
 62
7
  6
CONTINUOUS
 10
362.0408487691
 20
32.9657757338
 11
362.0408487691
 21
32.3100380288
  0
LINE
  8
0
 62
7
  6
CONTINUOUS
 10
362.4043477445
 20
31.1520331591
 11
362.4043477445
 21
30.5067593403
  0
LINE
  8
0
 62
7
  6
CONTINUOUS
 10
362.6934101343
 20
30.5067593403
 11
362.6934101343
 21
31.1520331591
  0
LINE
  8
0
 62
7
  6
CONTINUOUS
 10
359.0512227376
 20
31.0552420547
 11
359.1090352445
 21
31.1842968456
  0
LINE
  8
0
 62
7
  6
CONTINUOUS
 10
358.8199727462
 20
30.8293962497
 11
358.9355977445
 21
30.7003414814
  0
LINE
  8
0
 62
7
  6
CONTINUOUS
 10
362.3465351343
 20
31.2810879048
 11
362.4043477445
 21
31.1520331591
  0
LINE
  8
0
 62
7
  6
CONTINUOUS
 10
363.1559103548
 20
30.7971325633
 11
363.2137226343
 21
30.668077795
  0
LINE
  8
0
 62
7
  6
CONTINUOUS
 10
362.6934101343
 20
31.1520331591
 11
362.6355978548
 21
31.3133515913
  0
LINE
  8
0
 62
7
  6
CONTINUOUS
 10
363.1559103548
 20
31.3456152777
 11
363.1559103548
 21
31.2810879048
  0
LINE
  8
0
 62
7
  6
CONTINUOUS
 10
363.1559103548
 20
30.8939236226
 11
363.1559103548
 21
30.7971325633
  0
LINE
  8
0
 62
7
  6
CONTINUOUS
 10
363.4342913921
 20
32.3100380288
 11
363.4342913921
 21
36.0805298321
  0
LINE
  8
0
 62
7
  6
CONTINUOUS
 10
363.4449727445
 20
30.7648688543
 11
363.4449727445
 21
30.8293962497
  0
LINE
  8
0
 62
7
  6
CONTINUOUS
 10
363.7621602445
 20
36.0805298321
 11
363.7621602445
 21
32.3100380288
  0
LINE
  8
0
 62
7
  6
CONTINUOUS
 10
360.5543476894
 20
30.7003414814
 11
360.6121602997
 21
30.8293962497
  0
LINE
  8
0
 62
7
  6
CONTINUOUS
 10
364.9480979651
 20
30.6035504109
 11
364.890285024
 21
30.7648688543
  0
LINE
  8
0
 62
7
  6
CONTINUOUS
 10
364.6012229651
 20
31.2810879048
 11
364.6012229651
 21
31.1842968456
  0
LINE
  8
0
 62
7
  6
CONTINUOUS
 10
364.6012229651
 20
31.0552420547
 11
364.6012229651
 21
30.8616599362
  0
LINE
  8
0
 62
7
  6
CONTINUOUS
 10
364.890285024
 20
30.7648688543
 11
364.890285024
 21
31.2810879048
  0
LINE
  8
0
 62
7
  6
CONTINUOUS
 10
365.1556028675
 20
32.3100380288
 11
365.1556028675
 21
34.1133167174
  0
LINE
  8
0
 62
7
  6
CONTINUOUS
 10
365.1556028675
 20
35.4247921272
 11
365.1556028675
 21
36.0805298321
  0
LINE
  8
0
 62
7
  6
CONTINUOUS
 10
365.4684104651
 20
32.0231527829
 11
365.4684104651
 21
31.8618343508
  0
LINE
  8
0
 62
7
  6
CONTINUOUS
 10
365.4684104651
 20
31.5391973962
 11
365.4684104651
 21
30.5067593403
  0
LINE
  8
0
 62
7
  6
CONTINUOUS
 10
365.757472524
 20
30.5067593403
 11
365.757472524
 21
31.5391973962
  0
LINE
  8
0
 62
7
  6
CONTINUOUS
 10
365.757472524
 20
31.8618343508
 11
365.757472524
 21
32.0231527829
  0
LINE
  8
0
 62
7
  6
CONTINUOUS
 10
360.3230977445
 20
30.8293962497
 11
360.2652852997
 21
30.7326051679
  0
LINE
  8
0
 62
7
  6
CONTINUOUS
 10
362.6355978548
 20
31.3133515913
 11
362.5777852445
 21
31.3778789641
  0
LINE
  8
0
 62
7
  6
CONTINUOUS
 10
363.5027853548
 20
30.7003414814
 11
363.4449727445
 21
30.7648688543
  0
LINE
  8
0
 62
7
  6
CONTINUOUS
 10
364.6590352445
 20
30.5712867188
 11
364.716847524
 21
30.5067593403
  0
LINE
  8
0
 62
7
  6
CONTINUOUS
 10
364.6012229651
 20
30.668077795
 11
364.6590352445
 21
30.5712867188
  0
LINE
  8
0
 62
7
  6
CONTINUOUS
 10
365.0059102445
 20
30.5067593403
 11
364.9480979651
 21
30.6035504109
  0
LINE
  8
0
 62
7
  6
CONTINUOUS
 10
364.890285024
 20
31.2810879048
 11
364.8324727445
 21
31.3778789641
  0
LINE
  8
0
 62
7
  6
CONTINUOUS
 10
366.2199727445
 20
31.5391973962
 11
366.2199727445
 21
30.5067593403
  0
LINE
  8
0
 62
7
  6
CONTINUOUS
 10
366.5090354651
 20
30.5067593403
 11
366.5090354651
 21
31.2488242184
  0
LINE
  8
0
 62
7
  6
CONTINUOUS
 10
366.5090354651
 20
31.3778789641
 11
366.5090354651
 21
31.5391973962
  0
LINE
  8
0
 62
7
  6
CONTINUOUS
 10
367.0408487691
 20
34.5231527829
 11
367.0408487691
 21
32.3100380288
  0
LINE
  8
0
 62
7
  6
CONTINUOUS
 10
358.9355977445
 20
31.3456152777
 11
358.8199727462
 21
31.216560532
  0
LINE
  8
0
 62
7
  6
CONTINUOUS
 10
359.1090352445
 20
31.1842968456
 11
359.1668477307
 21
31.2488242184
  0
LINE
  8
0
 62
7
  6
CONTINUOUS
 10
358.9355977445
 20
30.7003414814
 11
359.0512227376
 21
30.6358140973
  0
LINE
  8
0
 62
7
  6
CONTINUOUS
 10
359.3402852307
 20
30.7003414814
 11
359.1668477307
 21
30.7971325633
  0
LINE
  8
0
 62
7
  6
CONTINUOUS
 10
364.543410024
 20
31.3456152777
 11
364.6012229651
 21
31.2810879048
  0
LINE
  8
0
 62
7
  6
CONTINUOUS
 10
367.491847524
 20
31.2810879048
 11
367.5496604651
 21
31.1197694727
  0
LINE
  8
0
 62
7
  6
CONTINUOUS
 10
367.838722524
 20
31.1197694727
 11
367.7809102445
 21
31.2810879048
  0
LINE
  8
0
 62
7
  6
CONTINUOUS
 10
367.5496604651
 20
31.1197694727
 11
367.5496604651
 21
30.5067593403
  0
LINE
  8
0
 62
7
  6
CONTINUOUS
 10
367.838722524
 20
30.5067593403
 11
367.838722524
 21
31.1197694727
  0
LINE
  8
0
 62
7
  6
CONTINUOUS
 10
368.3012227445
 20
31.3456152777
 11
368.3012227445
 21
31.2810879048
  0
LINE
  8
0
 62
7
  6
CONTINUOUS
 10
368.4342913921
 20
32.3100380288
 11
368.4342913921
 21
34.4411855698
  0
LINE
  8
0
 62
7
  6
CONTINUOUS
 10
368.7621602445
 20
36.0805298321
 11
368.7621602445
 21
32.3100380288
  0
LINE
  8
0
 62
7
  6
CONTINUOUS
 10
363.4449727445
 20
30.8293962497
 11
363.5027853548
 21
30.926187309
  0
LINE
  8
0
 62
7
  6
CONTINUOUS
 10
359.0512227376
 20
30.6358140973
 11
359.2246602583
 21
30.5712867188
  0
LINE
  8
0
 62
7
  6
CONTINUOUS
 10
360.5543476894
 20
31.3456152777
 11
360.3809101894
 21
31.4424063369
  0
LINE
  8
0
 62
7
  6
CONTINUOUS
 10
363.2137226343
 20
30.668077795
 11
363.3871601343
 21
30.5712867188
  0
LINE
  8
0
 62
7
  6
CONTINUOUS
 10
362.2309102445
 20
31.3456152777
 11
362.3465351343
 21
31.2810879048
  0
LINE
  8
0
 62
7
  6
CONTINUOUS
 10
362.5777852445
 20
31.3778789641
 11
362.4621603548
 21
31.4424063369
  0
LINE
  8
0
 62
7
  6
CONTINUOUS
 10
368.3012227445
 20
30.7648688543
 11
368.4168479651
 21
30.6358140973
  0
LINE
  8
0
 62
7
  6
CONTINUOUS
 10
368.6480977445
 20
30.7003414814
 11
368.5902854651
 21
30.7648688543
  0
LINE
  8
0
 62
7
  6
CONTINUOUS
 10
368.3012227445
 20
31.2810879048
 11
368.4168479651
 21
31.1520331591
  0
LINE
  8
0
 62
7
  6
CONTINUOUS
 10
367.7809102445
 20
31.2810879048
 11
367.7230979651
 21
31.3778789641
  0
LINE
  8
0
 62
7
  6
CONTINUOUS
 10
370.1512223035
 20
30.7003414814
 11
370.1512223035
 21
30.7648688543
  0
LINE
  8
0
 62
7
  6
CONTINUOUS
 10
370.1556028675
 20
32.3100380288
 11
370.1556028675
 21
36.0805298321
  0
LINE
  8
0
 62
7
  6
CONTINUOUS
 10
363.2137226343
 20
31.4101426505
 11
363.1559103548
 21
31.3456152777
  0
LINE
  8
0
 62
7
  6
CONTINUOUS
 10
360.091847717
 20
31.3778789641
 11
360.2652852997
 21
31.3133515913
  0
LINE
  8
0
 62
7
  6
CONTINUOUS
 10
364.8324727445
 20
31.3778789641
 11
364.716847524
 21
31.4424063369
  0
LINE
  8
0
 62
7
  6
CONTINUOUS
 10
368.6480977445
 20
31.216560532
 11
368.5902854651
 21
31.2810879048
  0
LINE
  8
0
 62
7
  6
CONTINUOUS
 10
369.8043479651
 20
30.8293962497
 11
369.8621602445
 21
30.7648688543
  0
LINE
  8
0
 62
7
  6
CONTINUOUS
 10
370.1512223035
 20
30.7648688543
 11
370.0355977445
 21
30.8939236226
  0
LINE
  8
0
 62
7
  6
CONTINUOUS
 10
369.8043479651
 20
31.3456152777
 11
369.8621602445
 21
31.2810879048
  0
LINE
  8
0
 62
7
  6
CONTINUOUS
 10
370.1512223035
 20
31.2810879048
 11
370.0355977445
 21
31.4101426505
  0
LINE
  8
0
 62
7
  6
CONTINUOUS
 10
363.4449727445
 20
31.2810879048
 11
363.5027853548
 21
31.3456152777
  0
LINE
  8
0
 62
7
  6
CONTINUOUS
 10
363.2715352445
 20
31.0229783683
 11
363.1559103548
 21
30.8939236226
  0
LINE
  8
0
 62
7
  6
CONTINUOUS
 10
364.6012229651
 20
30.8616599362
 11
364.543410024
 21
30.7971325633
  0
LINE
  8
0
 62
7
  6
CONTINUOUS
 10
364.543410024
 20
30.6035504109
 11
364.6012229651
 21
30.668077795
  0
LINE
  8
0
 62
7
  6
CONTINUOUS
 10
363.3871601343
 20
30.5712867188
 11
363.5027853548
 21
30.5390230296
  0
LINE
  8
0
 62
7
  6
CONTINUOUS
 10
360.3809101894
 20
31.4424063369
 11
360.1496602445
 21
31.5069337098
  0
LINE
  8
0
 62
7
  6
CONTINUOUS
 10
363.7340351343
 20
30.6358140973
 11
363.5027853548
 21
30.7003414814
  0
LINE
  8
0
 62
7
  6
CONTINUOUS
 10
362.4621603548
 20
31.4424063369
 11
362.2887228548
 21
31.5069337098
  0
LINE
  8
0
 62
7
  6
CONTINUOUS
 10
364.716847524
 20
31.4424063369
 11
364.543410024
 21
31.5069337098
  0
LINE
  8
0
 62
7
  6
CONTINUOUS
 10
367.3762229651
 20
31.3456152777
 11
367.491847524
 21
31.2810879048
  0
LINE
  8
0
 62
7
  6
CONTINUOUS
 10
367.7230979651
 20
31.3778789641
 11
367.6074727445
 21
31.4424063369
  0
LINE
  8
0
 62
7
  6
CONTINUOUS
 10
359.2246602583
 20
30.5712867188
 11
359.3980977583
 21
30.5390230296
  0
LINE
  8
0
 62
7
  6
CONTINUOUS
 10
359.6871602721
 20
30.6358140973
 11
359.3402852307
 21
30.7003414814
  0
LINE
  8
0
 62
7
  6
CONTINUOUS
 10
362.1152853548
 20
31.3778789641
 11
362.2309102445
 21
31.3456152777
  0
LINE
  8
0
 62
7
  6
CONTINUOUS
 10
364.4277854651
 20
31.3778789641
 11
364.543410024
 21
31.3456152777
  0
LINE
  8
0
 62
7
  6
CONTINUOUS
 10
368.7637229651
 20
30.668077795
 11
368.6480977445
 21
30.7003414814
  0
LINE
  8
0
 62
7
  6
CONTINUOUS
 10
367.2605977445
 20
31.3778789641
 11
367.3762229651
 21
31.3456152777
  0
LINE
  8
0
 62
7
  6
CONTINUOUS
 10
368.4168479651
 20
30.6358140973
 11
368.5902854651
 21
30.5712867188
  0
LINE
  8
0
 62
7
  6
CONTINUOUS
 10
367.6074727445
 20
31.4424063369
 11
367.4340352445
 21
31.5069337098
  0
LINE
  8
0
 62
7
  6
CONTINUOUS
 10
368.8215352445
 20
31.1520331591
 11
368.6480977445
 21
31.216560532
  0
LINE
  8
0
 62
7
  6
CONTINUOUS
 10
369.6309104651
 20
30.8939236226
 11
369.8043479651
 21
30.8293962497
  0
LINE
  8
0
 62
7
  6
CONTINUOUS
 10
370.0355977445
 20
31.4101426505
 11
369.8621602445
 21
31.4746700234
  0
LINE
  8
0
 62
7
  6
CONTINUOUS
 10
368.4168479651
 20
31.1520331591
 11
368.6480977445
 21
31.0552420547
  0
LINE
  8
0
 62
7
  6
CONTINUOUS
 10
370.0355977445
 20
30.8939236226
 11
369.8043479651
 21
30.9907146818
  0
LINE
  8
0
 62
7
  6
CONTINUOUS
 10
368.5902854651
 20
31.2810879048
 11
368.6480977445
 21
31.3456152777
  0
LINE
  8
0
 62
7
  6
CONTINUOUS
 10
359.0512227376
 20
31.4101426505
 11
358.9355977445
 21
31.3456152777
  0
LINE
  8
0
 62
7
  6
CONTINUOUS
 10
359.1668477307
 20
31.2488242184
 11
359.3402852307
 21
31.3456152777
  0
LINE
  8
0
 62
7
  6
CONTINUOUS
 10
361.4793477997
 20
31.4424063369
 11
361.3637227445
 21
31.3778789641
  0
LINE
  8
0
 62
7
  6
CONTINUOUS
 10
361.3637227445
 20
31.2488242184
 11
361.4793477997
 21
31.3133515913
  0
LINE
  8
0
 62
7
  6
CONTINUOUS
 10
360.3809101894
 20
30.6035504109
 11
360.5543476894
 21
30.7003414814
  0
LINE
  8
0
 62
7
  6
CONTINUOUS
 10
359.3980977583
 20
30.5390230296
 11
359.744972717
 21
30.5067593403
  0
LINE
  8
0
 62
7
  6
CONTINUOUS
 10
363.5027853548
 20
30.5390230296
 11
363.7340351343
 21
30.5067593403
  0
LINE
  8
0
 62
7
  6
CONTINUOUS
 10
361.8840352445
 20
31.4101426505
 11
362.1152853548
 21
31.3778789641
  0
LINE
  8
0
 62
7
  6
CONTINUOUS
 10
364.1965353548
 20
31.4101426505
 11
364.4277854651
 21
31.3778789641
  0
LINE
  8
0
 62
7
  6
CONTINUOUS
 10
368.6480977445
 20
31.0552420547
 11
369.6309104651
 21
30.8939236226
  0
LINE
  8
0
 62
7
  6
CONTINUOUS
 10
369.8043479651
 20
30.9907146818
 11
368.8215352445
 21
31.1520331591
  0
LINE
  8
0
 62
7
  6
CONTINUOUS
 10
362.2887228548
 20
31.5069337098
 11
362.1152853548
 21
31.5391973962
  0
LINE
  8
0
 62
7
  6
CONTINUOUS
 10
368.5902854651
 20
30.5712867188
 11
368.7637229651
 21
30.5390230296
  0
LINE
  8
0
 62
7
  6
CONTINUOUS
 10
367.4340352445
 20
31.5069337098
 11
367.2605977445
 21
31.5391973962
  0
LINE
  8
0
 62
7
  6
CONTINUOUS
 10
369.6887227445
 20
31.3778789641
 11
369.8043479651
 21
31.3456152777
  0
LINE
  8
0
 62
7
  6
CONTINUOUS
 10
369.8621602445
 20
30.7648688543
 11
369.8043479651
 21
30.7003414814
  0
LINE
  8
0
 62
7
  6
CONTINUOUS
 10
368.4168479651
 20
31.4424063369
 11
368.3012227445
 21
31.3456152777
  0
LINE
  8
0
 62
7
  6
CONTINUOUS
 10
363.3293478548
 20
31.4746700234
 11
363.2137226343
 21
31.4101426505
  0
LINE
  8
0
 62
7
  6
CONTINUOUS
 10
363.3871601343
 20
31.0875057863
 11
363.2715352445
 21
31.0229783683
  0
LINE
  8
0
 62
7
  6
CONTINUOUS
 10
363.5027853548
 20
30.926187309
 11
363.6184102445
 21
30.9907146818
  0
LINE
  8
0
 62
7
  6
CONTINUOUS
 10
361.0746601894
 20
30.5067593403
 11
361.3637227445
 21
30.5067593403
  0
LINE
  8
0
 62
7
  6
CONTINUOUS
 10
362.4043477445
 20
30.5067593403
 11
362.6934101343
 21
30.5067593403
  0
LINE
  8
0
 62
7
  6
CONTINUOUS
 10
363.7340351343
 20
30.5067593403
 11
364.0809101343
 21
30.5067593403
  0
LINE
  8
0
 62
7
  6
CONTINUOUS
 10
364.716847524
 20
30.5067593403
 11
365.0059102445
 21
30.5067593403
  0
LINE
  8
0
 62
7
  6
CONTINUOUS
 10
365.4684104651
 20
30.5067593403
 11
365.757472524
 21
30.5067593403
  0
LINE
  8
0
 62
7
  6
CONTINUOUS
 10
366.2199727445
 20
30.5067593403
 11
366.5090354651
 21
30.5067593403
  0
LINE
  8
0
 62
7
  6
CONTINUOUS
 10
367.5496604651
 20
30.5067593403
 11
367.838722524
 21
30.5067593403
  0
LINE
  8
0
 62
7
  6
CONTINUOUS
 10
369.1105979651
 20
30.5067593403
 11
369.4574729651
 21
30.5067593403
  0
LINE
  8
0
 62
7
  6
CONTINUOUS
 10
369.4574729651
 20
30.6358140973
 11
369.1105979651
 21
30.6358140973
  0
LINE
  8
0
 62
7
  6
CONTINUOUS
 10
364.0809101343
 20
30.6358140973
 11
363.7340351343
 21
30.6358140973
  0
LINE
  8
0
 62
7
  6
CONTINUOUS
 10
368.5902854651
 20
30.7648688543
 11
368.3012227445
 21
30.7648688543
  0
LINE
  8
0
 62
7
  6
CONTINUOUS
 10
360.6121602997
 20
30.8293962497
 11
360.3230977445
 21
30.8293962497
  0
LINE
  8
0
 62
7
  6
CONTINUOUS
 10
359.6871602721
 20
31.4101426505
 11
360.091847717
 21
31.3778789641
  0
LINE
  8
0
 62
7
  6
CONTINUOUS
 10
360.1496602445
 20
31.5069337098
 11
359.744972717
 21
31.5391973962
  0
LINE
  8
0
 62
7
  6
CONTINUOUS
 10
368.7637229651
 20
30.5390230296
 11
369.1105979651
 21
30.5067593403
  0
LINE
  8
0
 62
7
  6
CONTINUOUS
 10
369.1105979651
 20
30.6358140973
 11
368.7637229651
 21
30.668077795
  0
LINE
  8
0
 62
7
  6
CONTINUOUS
 10
364.543410024
 20
31.5069337098
 11
364.1965353548
 21
31.5391973962
  0
LINE
  8
0
 62
7
  6
CONTINUOUS
 10
369.3418477445
 20
31.4101426505
 11
369.6887227445
 21
31.3778789641
  0
LINE
  8
0
 62
7
  6
CONTINUOUS
 10
369.6887227445
 20
31.5069337098
 11
369.3418477445
 21
31.5391973962
  0
LINE
  8
0
 62
7
  6
CONTINUOUS
 10
367.0293479651
 20
31.4101426505
 11
367.2605977445
 21
31.3778789641
  0
LINE
  8
0
 62
7
  6
CONTINUOUS
 10
369.8621602445
 20
31.4746700234
 11
369.6887227445
 21
31.5069337098
  0
LINE
  8
0
 62
7
  6
CONTINUOUS
 10
370.0355977445
 20
30.6035504109
 11
370.1512223035
 21
30.7003414814
  0
LINE
  8
0
 62
7
  6
CONTINUOUS
 10
364.543410024
 20
30.7971325633
 11
364.369972524
 21
30.7003414814
  0
LINE
  8
0
 62
7
  6
CONTINUOUS
 10
366.624660024
 20
31.4424063369
 11
366.5090354651
 21
31.3778789641
  0
LINE
  8
0
 62
7
  6
CONTINUOUS
 10
366.5090354651
 20
31.2488242184
 11
366.624660024
 21
31.3133515913
  0
LINE
  8
0
 62
7
  6
CONTINUOUS
 10
359.2246602583
 20
31.4746700234
 11
359.0512227376
 21
31.4101426505
  0
LINE
  8
0
 62
7
  6
CONTINUOUS
 10
361.6527851343
 20
31.5069337098
 11
361.4793477997
 21
31.4424063369
  0
LINE
  8
0
 62
7
  6
CONTINUOUS
 10
361.4793477997
 20
31.3133515913
 11
361.6527851343
 21
31.3778789641
  0
LINE
  8
0
 62
7
  6
CONTINUOUS
 10
360.2652852997
 20
30.7326051679
 11
360.091847717
 21
30.668077795
  0
LINE
  8
0
 62
7
  6
CONTINUOUS
 10
369.6887227445
 20
30.668077795
 11
369.4574729651
 21
30.6358140973
  0
LINE
  8
0
 62
7
  6
CONTINUOUS
 10
364.0809101343
 20
30.5067593403
 11
364.369972524
 21
30.5390230296
  0
LINE
  8
0
 62
7
  6
CONTINUOUS
 10
369.4574729651
 20
30.5067593403
 11
369.8043479651
 21
30.5390230296
  0
LINE
  8
0
 62
7
  6
CONTINUOUS
 10
359.744972717
 20
30.5067593403
 11
360.1496602445
 21
30.5390230296
  0
LINE
  8
0
 62
7
  6
CONTINUOUS
 10
360.091847717
 20
30.668077795
 11
359.6871602721
 21
30.6358140973
  0
LINE
  8
0
 62
7
  6
CONTINUOUS
 10
363.9652852445
 20
31.0552420547
 11
364.6012229651
 21
31.0552420547
  0
LINE
  8
0
 62
7
  6
CONTINUOUS
 10
364.6012229651
 20
31.1842968456
 11
363.9652852445
 21
31.1842968456
  0
LINE
  8
0
 62
7
  6
CONTINUOUS
 10
360.3230977445
 20
31.216560532
 11
360.6121602997
 21
31.216560532
  0
LINE
  8
0
 62
7
  6
CONTINUOUS
 10
363.1559103548
 20
31.2810879048
 11
363.4449727445
 21
31.2810879048
  0
LINE
  8
0
 62
7
  6
CONTINUOUS
 10
369.8621602445
 20
31.2810879048
 11
370.1512223035
 21
31.2810879048
  0
LINE
  8
0
 62
7
  6
CONTINUOUS
 10
363.8496603548
 20
31.4101426505
 11
364.1965353548
 21
31.4101426505
  0
LINE
  8
0
 62
7
  6
CONTINUOUS
 10
368.9949727445
 20
31.4101426505
 11
369.3418477445
 21
31.4101426505
  0
LINE
  8
0
 62
7
  6
CONTINUOUS
 10
369.3418477445
 20
31.5391973962
 11
368.9949727445
 21
31.5391973962
  0
LINE
  8
0
 62
7
  6
CONTINUOUS
 10
367.2605977445
 20
31.5391973962
 11
367.0293479651
 21
31.5391973962
  0
LINE
  8
0
 62
7
  6
CONTINUOUS
 10
366.5090354651
 20
31.5391973962
 11
366.2199727445
 21
31.5391973962
  0
LINE
  8
0
 62
7
  6
CONTINUOUS
 10
365.757472524
 20
31.5391973962
 11
365.4684104651
 21
31.5391973962
  0
LINE
  8
0
 62
7
  6
CONTINUOUS
 10
364.1965353548
 20
31.5391973962
 11
363.8496603548
 21
31.5391973962
  0
LINE
  8
0
 62
7
  6
CONTINUOUS
 10
362.1152853548
 20
31.5391973962
 11
361.8840352445
 21
31.5391973962
  0
LINE
  8
0
 62
7
  6
CONTINUOUS
 10
365.4684104651
 20
31.8618343508
 11
365.757472524
 21
31.8618343508
  0
LINE
  8
0
 62
7
  6
CONTINUOUS
 10
365.757472524
 20
32.0231527829
 11
365.4684104651
 21
32.0231527829
  0
LINE
  8
0
 62
7
  6
CONTINUOUS
 10
361.3637227445
 20
32.0231527829
 11
361.0746601894
 21
32.0231527829
  0
LINE
  8
0
 62
7
  6
CONTINUOUS
 10
360.4015045068
 20
32.3100380288
 11
360.8140758554
 21
32.3100380288
  0
LINE
  8
0
 62
7
  6
CONTINUOUS
 10
362.0408487691
 20
32.3100380288
 11
363.4342913921
 21
32.3100380288
  0
LINE
  8
0
 62
7
  6
CONTINUOUS
 10
363.7621602445
 20
32.3100380288
 11
365.1556028675
 21
32.3100380288
  0
LINE
  8
0
 62
7
  6
CONTINUOUS
 10
367.0408487691
 20
32.3100380288
 11
368.4342913921
 21
32.3100380288
  0
LINE
  8
0
 62
7
  6
CONTINUOUS
 10
368.7621602445
 20
32.3100380288
 11
370.1556028675
 21
32.3100380288
  0
LINE
  8
0
 62
7
  6
CONTINUOUS
 10
366.798097524
 20
31.5069337098
 11
366.624660024
 21
31.4424063369
  0
LINE
  8
0
 62
7
  6
CONTINUOUS
 10
364.369972524
 20
30.5390230296
 11
364.543410024
 21
30.6035504109
  0
LINE
  8
0
 62
7
  6
CONTINUOUS
 10
369.8043479651
 20
30.5390230296
 11
370.0355977445
 21
30.6035504109
  0
LINE
  8
0
 62
7
  6
CONTINUOUS
 10
369.8043479651
 20
30.7003414814
 11
369.6887227445
 21
30.668077795
  0
LINE
  8
0
 62
7
  6
CONTINUOUS
 10
368.7637229651
 20
31.3778789641
 11
368.9949727445
 21
31.4101426505
  0
LINE
  8
0
 62
7
  6
CONTINUOUS
 10
366.798097524
 20
31.3778789641
 11
367.0293479651
 21
31.4101426505
  0
LINE
  8
0
 62
7
  6
CONTINUOUS
 10
363.7340351343
 20
31.0229783683
 11
363.9652852445
 21
31.0552420547
  0
LINE
  8
0
 62
7
  6
CONTINUOUS
 10
367.0293479651
 20
31.5391973962
 11
366.798097524
 21
31.5069337098
  0
LINE
  8
0
 62
7
  6
CONTINUOUS
 10
363.6184102445
 20
31.3778789641
 11
363.8496603548
 21
31.4101426505
  0
LINE
  8
0
 62
7
  6
CONTINUOUS
 10
368.9949727445
 20
31.5391973962
 11
368.6480977445
 21
31.5069337098
  0
LINE
  8
0
 62
7
  6
CONTINUOUS
 10
363.9652852445
 20
31.1842968456
 11
363.6184102445
 21
31.1520331591
  0
LINE
  8
0
 62
7
  6
CONTINUOUS
 10
359.744972717
 20
31.5391973962
 11
359.3980977583
 21
31.5069337098
  0
LINE
  8
0
 62
7
  6
CONTINUOUS
 10
363.8496603548
 20
31.5391973962
 11
363.4449727445
 21
31.5069337098
  0
LINE
  8
0
 62
7
  6
CONTINUOUS
 10
361.221176638
 20
33.4575790124
 11
360.565438933
 21
33.4575790124
  0
LINE
  8
0
 62
7
  6
CONTINUOUS
 10
366.624660024
 20
31.3133515913
 11
366.798097524
 21
31.3778789641
  0
LINE
  8
0
 62
7
  6
CONTINUOUS
 10
368.6480977445
 20
31.3456152777
 11
368.7637229651
 21
31.3778789641
  0
LINE
  8
0
 62
7
  6
CONTINUOUS
 10
368.6480977445
 20
31.5069337098
 11
368.4168479651
 21
31.4424063369
  0
LINE
  8
0
 62
7
  6
CONTINUOUS
 10
364.369972524
 20
30.7003414814
 11
364.0809101343
 21
30.6358140973
  0
LINE
  8
0
 62
7
  6
CONTINUOUS
 10
361.6527851343
 20
31.3778789641
 11
361.8840352445
 21
31.4101426505
  0
LINE
  8
0
 62
7
  6
CONTINUOUS
 10
361.8840352445
 20
31.5391973962
 11
361.6527851343
 21
31.5069337098
  0
LINE
  8
0
 62
7
  6
CONTINUOUS
 10
359.4559102445
 20
31.3778789641
 11
359.6871602721
 21
31.4101426505
  0
LINE
  8
0
 62
7
  6
CONTINUOUS
 10
365.9752749986
 20
34.9329888485
 11
366.6310127035
 21
34.9329888485
  0
LINE
  8
0
 62
7
  6
CONTINUOUS
 10
363.6184102445
 20
30.9907146818
 11
363.7340351343
 21
31.0229783683
  0
LINE
  8
0
 62
7
  6
CONTINUOUS
 10
363.6184102445
 20
31.1520331591
 11
363.3871601343
 21
31.0875057863
  0
LINE
  8
0
 62
7
  6
CONTINUOUS
 10
363.5027853548
 20
31.3456152777
 11
363.6184102445
 21
31.3778789641
  0
LINE
  8
0
 62
7
  6
CONTINUOUS
 10
360.1496602445
 20
30.5390230296
 11
360.3809101894
 21
30.6035504109
  0
LINE
  8
0
 62
7
  6
CONTINUOUS
 10
363.4449727445
 20
31.5069337098
 11
363.3293478548
 21
31.4746700234
  0
LINE
  8
0
 62
7
  6
CONTINUOUS
 10
359.3980977583
 20
31.5069337098
 11
359.2246602583
 21
31.4746700234
  0
LINE
  8
0
 62
7
  6
CONTINUOUS
 10
370.1556028675
 20
36.0805298321
 11
368.7621602445
 21
36.0805298321
  0
LINE
  8
0
 62
7
  6
CONTINUOUS
 10
366.7949471298
 20
36.0805298321
 11
366.3823757812
 21
36.0805298321
  0
LINE
  8
0
 62
7
  6
CONTINUOUS
 10
365.1556028675
 20
36.0805298321
 11
363.7621602445
 21
36.0805298321
  0
LINE
  8
0
 62
7
  6
CONTINUOUS
 10
363.4342913921
 20
36.0805298321
 11
362.0408487691
 21
36.0805298321
  0
LINE
  8
0
 62
7
  6
CONTINUOUS
 10
360.1556028675
 20
36.0805298321
 11
358.7621602445
 21
36.0805298321
  0
LINE
  8
0
 62
7
  6
CONTINUOUS
 10
359.3402852307
 20
31.3456152777
 11
359.4559102445
 21
31.3778789641
  0
CIRCLE
  8
0
 62
7
  6
CONTINUOUS
 10
369.458881556
 20
38.4165954059
 40
2.0901639344
  0
ARC
  8
0
 62
7
  6
CONTINUOUS
 10
360.4015045068
 20
33.9493822911
 40
1.6393442623
 50
180.0
 51
270.0
  0
ARC
  8
0
 62
7
  6
CONTINUOUS
 10
366.7949471298
 20
34.4411855698
 40
1.6393442623
 50
0.0
 51
90.0
  0
ARC
  8
0
 62
7
  6
CONTINUOUS
 10
360.8140758554
 20
33.7854478649
 40
1.4754098361
 50
270.0
 51
326.2510114041
  0
ARC
  8
0
 62
7
  6
CONTINUOUS
 10
366.3823757812
 20
34.6051199961
 40
1.4754098361
 50
90.0
 51
146.2510114041
  0
ARC
  8
0
 62
7
  6
CONTINUOUS
 10
361.221176638
 20
34.2772511436
 40
0.8196721311
 50
270.0
 51
360.0
  0
ARC
  8
0
 62
7
  6
CONTINUOUS
 10
365.9752749986
 20
34.1133167174
 40
0.8196721311
 50
90.0
 51
180.0
  0
ARC
  8
0
 62
7
  6
CONTINUOUS
 10
360.565438933
 20
33.867415078
 40
0.4098360656
 50
180.0
 51
270.0
  0
ARC
  8
0
 62
7
  6
CONTINUOUS
 10
366.6310127035
 20
34.5231527829
 40
0.4098360656
 50
0.0
 51
90.0
  0
SOLID
  8
0
 62
7
  6
CONTINUOUS
 10
365.4684104651
 20
31.8618347111
 11
365.4684104651
 21
32.0231531947
 12
365.757472524
 22
31.8618347111
 13
365.757472524
 23
32.0231531947
  0
SOLID
  8
0
 62
7
  6
CONTINUOUS
 10
359.744972717
 20
31.5391977439
 11
360.1496602445
 21
31.5069333244
 12
359.3980977583
 22
31.5069333244
 13
359.3980977583
 23
31.5069333244
  0
SOLID
  8
0
 62
7
  6
CONTINUOUS
 10
359.2246602583
 20
31.4746706537
 11
359.3980977583
 21
31.5069333244
 12
360.1496602445
 22
31.5069333244
 13
360.1496602445
 23
31.5069333244
  0
SOLID
  8
0
 62
7
  6
CONTINUOUS
 10
360.1496602445
 20
31.5069333244
 11
360.3809101894
 21
31.4424063504
 12
359.2246602583
 22
31.4746706537
 13
359.2246602583
 23
31.4746706537
  0
SOLID
  8
0
 62
7
  6
CONTINUOUS
 10
359.0512227376
 20
31.4101419116
 11
359.2246602583
 21
31.4746706537
 12
360.3809101894
 22
31.4424063504
 13
360.3809101894
 23
31.4424063504
  0
SOLID
  8
0
 62
7
  6
CONTINUOUS
 10
359.0512227376
 20
31.4101419116
 11
360.3809101894
 21
31.4424063504
 12
359.6871602721
 22
31.4101419116
 13
359.6871602721
 23
31.4101419116
  0
SOLID
  8
0
 62
7
  6
CONTINUOUS
 10
359.6871602721
 20
31.4101419116
 11
360.3809101894
 21
31.4424063504
 12
360.091847717
 22
31.3778792603
 13
360.091847717
 23
31.3778792603
  0
SOLID
  8
0
 62
7
  6
CONTINUOUS
 10
360.3809101894
 20
31.4424063504
 11
360.5543476894
 21
31.345614957
 12
360.091847717
 22
31.3778792603
 13
360.091847717
 23
31.3778792603
  0
SOLID
  8
0
 62
7
  6
CONTINUOUS
 10
360.2652852997
 20
31.3133521701
 11
360.091847717
 21
31.3778792603
 12
360.5543476894
 22
31.345614957
 13
360.5543476894
 23
31.345614957
  0
SOLID
  8
0
 62
7
  6
CONTINUOUS
 10
360.2652852997
 20
31.3133521701
 11
360.5543476894
 21
31.345614957
 12
360.3230977445
 22
31.2165606992
 13
360.3230977445
 23
31.2165606992
  0
SOLID
  8
0
 62
7
  6
CONTINUOUS
 10
360.5543476894
 20
31.345614957
 11
360.6121602997
 21
31.2165606992
 12
360.3230977445
 22
31.2165606992
 13
360.3230977445
 23
31.2165606992
  0
SOLID
  8
0
 62
7
  6
CONTINUOUS
 10
361.6527851343
 20
31.5069329918
 11
361.8840352445
 21
31.5391972951
 12
362.1152853548
 22
31.5391972951
 13
362.1152853548
 23
31.5391972951
  0
SOLID
  8
0
 62
7
  6
CONTINUOUS
 10
362.1152853548
 20
31.5391972951
 11
362.2887228548
 21
31.5069329918
 12
361.6527851343
 22
31.5069329918
 13
361.6527851343
 23
31.5069329918
  0
SOLID
  8
0
 62
7
  6
CONTINUOUS
 10
361.4793477997
 20
31.4424059016
 11
361.6527851343
 21
31.5069329918
 12
362.2887228548
 22
31.5069329918
 13
362.2887228548
 23
31.5069329918
  0
SOLID
  8
0
 62
7
  6
CONTINUOUS
 10
362.2887228548
 20
31.5069329918
 11
362.4621603548
 21
31.4424059016
 12
361.4793477997
 22
31.4424059016
 13
361.4793477997
 23
31.4424059016
  0
SOLID
  8
0
 62
7
  6
CONTINUOUS
 10
362.4621603548
 20
31.4424059016
 11
361.8840352445
 21
31.4101420472
 12
361.4793477997
 22
31.4424059016
 13
361.4793477997
 23
31.4424059016
  0
SOLID
  8
0
 62
7
  6
CONTINUOUS
 10
361.3637227445
 20
31.3778788115
 11
361.4793477997
 21
31.4424059016
 12
361.8840352445
 22
31.4101420472
 13
361.8840352445
 23
31.4101420472
  0
SOLID
  8
0
 62
7
  6
CONTINUOUS
 10
361.8840352445
 20
31.4101420472
 11
361.6527851343
 21
31.3778788115
 12
361.3637227445
 22
31.3778788115
 13
361.3637227445
 23
31.3778788115
  0
SOLID
  8
0
 62
7
  6
CONTINUOUS
 10
361.8840352445
 20
31.4101420472
 11
362.4621603548
 21
31.4424059016
 12
362.1152853548
 22
31.3778788115
 13
362.1152853548
 23
31.3778788115
  0
SOLID
  8
0
 62
7
  6
CONTINUOUS
 10
362.4621603548
 20
31.4424059016
 11
362.5777852445
 21
31.3778788115
 12
362.1152853548
 22
31.3778788115
 13
362.1152853548
 23
31.3778788115
  0
SOLID
  8
0
 62
7
  6
CONTINUOUS
 10
362.2309102445
 20
31.345614957
 11
362.1152853548
 21
31.3778788115
 12
362.5777852445
 22
31.3778788115
 13
362.5777852445
 23
31.3778788115
  0
SOLID
  8
0
 62
7
  6
CONTINUOUS
 10
362.5777852445
 20
31.3778788115
 11
362.6355978548
 21
31.3133517213
 12
362.2309102445
 22
31.345614957
 13
362.2309102445
 23
31.345614957
  0
SOLID
  8
0
 62
7
  6
CONTINUOUS
 10
362.3465351343
 20
31.2810878668
 11
362.2309102445
 21
31.345614957
 12
362.6355978548
 22
31.3133517213
 13
362.6355978548
 23
31.3133517213
  0
SOLID
  8
0
 62
7
  6
CONTINUOUS
 10
362.3465351343
 20
31.2810878668
 11
362.6355978548
 21
31.3133517213
 12
362.4043477445
 22
31.1520332377
 13
362.4043477445
 23
31.1520332377
  0
SOLID
  8
0
 62
7
  6
CONTINUOUS
 10
362.6355978548
 20
31.3133517213
 11
362.6934101343
 21
31.1520332377
 12
362.4043477445
 22
31.1520332377
 13
362.4043477445
 23
31.1520332377
  0
SOLID
  8
0
 62
7
  6
CONTINUOUS
 10
361.6527851343
 20
31.3778788115
 11
361.4793477997
 21
31.3133517213
 12
361.3637227445
 22
31.3778788115
 13
361.3637227445
 23
31.3778788115
  0
SOLID
  8
0
 62
7
  6
CONTINUOUS
 10
361.4793477997
 20
31.3133517213
 11
361.3637227445
 21
31.2488235635
 12
361.3637227445
 22
31.3778788115
 13
361.3637227445
 23
31.3778788115
  0
SOLID
  8
0
 62
7
  6
CONTINUOUS
 10
361.3637227445
 20
31.2488235635
 11
361.0746601894
 21
30.5067593033
 12
361.3637227445
 22
31.3778788115
 13
361.3637227445
 23
31.3778788115
  0
SOLID
  8
0
 62
7
  6
CONTINUOUS
 10
361.3637227445
 20
31.3778788115
 11
361.0746601894
 21
30.5067593033
 12
361.3637227445
 22
32.0231527459
 13
361.3637227445
 23
32.0231527459
  0
SOLID
  8
0
 62
7
  6
CONTINUOUS
 10
361.0746601894
 20
30.5067593033
 11
361.0746601894
 21
32.0231527459
 12
361.3637227445
 22
32.0231527459
 13
361.3637227445
 23
32.0231527459
  0
SOLID
  8
0
 62
7
  6
CONTINUOUS
 10
361.3637227445
 20
31.2488235635
 11
361.3637227445
 21
30.5067593033
 12
361.0746601894
 22
30.5067593033
 13
361.0746601894
 23
30.5067593033
  0
SOLID
  8
0
 62
7
  6
CONTINUOUS
 10
362.4043477445
 20
30.5067593033
 11
362.4043477445
 21
31.1520332377
 12
362.6934101343
 22
31.1520332377
 13
362.6934101343
 23
31.1520332377
  0
SOLID
  8
0
 62
7
  6
CONTINUOUS
 10
362.6934101343
 20
31.1520332377
 11
362.6934101343
 21
30.5067593033
 12
362.4043477445
 22
30.5067593033
 13
362.4043477445
 23
30.5067593033
  0
SOLID
  8
0
 62
7
  6
CONTINUOUS
 10
363.4449727445
 20
31.506933758
 11
363.8496603548
 21
31.5391977507
 12
364.1965353548
 22
31.5391977507
 13
364.1965353548
 23
31.5391977507
  0
SOLID
  8
0
 62
7
  6
CONTINUOUS
 10
364.1965353548
 20
31.5391977507
 11
364.543410024
 21
31.506933758
 12
363.4449727445
 22
31.506933758
 13
363.4449727445
 23
31.506933758
  0
SOLID
  8
0
 62
7
  6
CONTINUOUS
 10
363.3293478548
 20
31.4746706537
 11
363.4449727445
 21
31.506933758
 12
364.543410024
 22
31.506933758
 13
364.543410024
 23
31.506933758
  0
SOLID
  8
0
 62
7
  6
CONTINUOUS
 10
364.543410024
 20
31.506933758
 11
364.716847524
 21
31.4424063504
 12
363.3293478548
 22
31.4746706537
 13
363.3293478548
 23
31.4746706537
  0
SOLID
  8
0
 62
7
  6
CONTINUOUS
 10
363.2137226343
 20
31.4101417797
 11
363.3293478548
 21
31.4746706537
 12
364.716847524
 22
31.4424063504
 13
364.716847524
 23
31.4424063504
  0
SOLID
  8
0
 62
7
  6
CONTINUOUS
 10
363.2137226343
 20
31.4101417797
 11
364.716847524
 21
31.4424063504
 12
363.8496603548
 22
31.4101417797
 13
363.8496603548
 23
31.4101417797
  0
SOLID
  8
0
 62
7
  6
CONTINUOUS
 10
363.8496603548
 20
31.4101417797
 11
364.716847524
 21
31.4424063504
 12
364.1965353548
 22
31.4101417797
 13
364.1965353548
 23
31.4101417797
  0
SOLID
  8
0
 62
7
  6
CONTINUOUS
 10
364.1965353548
 20
31.4101417797
 11
364.716847524
 21
31.4424063504
 12
364.4277854651
 22
31.3778793357
 13
364.4277854651
 23
31.3778793357
  0
SOLID
  8
0
 62
7
  6
CONTINUOUS
 10
364.716847524
 20
31.4424063504
 11
364.8324727445
 21
31.3778793357
 12
364.4277854651
 22
31.3778793357
 13
364.4277854651
 23
31.3778793357
  0
SOLID
  8
0
 62
7
  6
CONTINUOUS
 10
363.1559103548
 20
31.3456153429
 11
363.2137226343
 21
31.4101417797
 12
363.8496603548
 22
31.4101417797
 13
363.8496603548
 23
31.4101417797
  0
SOLID
  8
0
 62
7
  6
CONTINUOUS
 10
364.543410024
 20
31.3456153429
 11
364.4277854651
 21
31.3778793357
 12
364.8324727445
 22
31.3778793357
 13
364.8324727445
 23
31.3778793357
  0
SOLID
  8
0
 62
7
  6
CONTINUOUS
 10
364.543410024
 20
31.3456153429
 11
364.8324727445
 21
31.3778793357
 12
364.6012229651
 22
31.2810881318
 13
364.6012229651
 23
31.2810881318
  0
SOLID
  8
0
 62
7
  6
CONTINUOUS
 10
364.8324727445
 20
31.3778793357
 11
364.890285024
 21
31.2810881318
 12
364.6012229651
 22
31.2810881318
 13
364.6012229651
 23
31.2810881318
  0
SOLID
  8
0
 62
7
  6
CONTINUOUS
 10
364.6012229651
 20
31.1842964734
 11
364.6012229651
 21
31.2810881318
 12
364.890285024
 22
31.2810881318
 13
364.890285024
 23
31.2810881318
  0
SOLID
  8
0
 62
7
  6
CONTINUOUS
 10
364.6012229651
 20
31.1842964734
 11
364.890285024
 21
31.2810881318
 12
364.6012229651
 22
31.0552422931
 13
364.6012229651
 23
31.0552422931
  0
SOLID
  8
0
 62
7
  6
CONTINUOUS
 10
364.6012229651
 20
31.0552422931
 11
364.890285024
 21
31.2810881318
 12
364.6012229651
 22
30.8616599362
 13
364.6012229651
 23
30.8616599362
  0
SOLID
  8
0
 62
7
  6
CONTINUOUS
 10
364.890285024
 20
31.2810881318
 11
364.890285024
 21
30.7648681127
 12
364.6012229651
 22
30.8616599362
 13
364.6012229651
 23
30.8616599362
  0
SOLID
  8
0
 62
7
  6
CONTINUOUS
 10
366.798097524
 20
31.5069339419
 11
367.0293479651
 21
31.5391976292
 12
367.2605977445
 22
31.5391976292
 13
367.2605977445
 23
31.5391976292
  0
SOLID
  8
0
 62
7
  6
CONTINUOUS
 10
367.2605977445
 20
31.5391976292
 11
367.4340352445
 21
31.5069339419
 12
366.798097524
 22
31.5069339419
 13
366.798097524
 23
31.5069339419
  0
SOLID
  8
0
 62
7
  6
CONTINUOUS
 10
366.624660024
 20
31.4424065674
 11
366.798097524
 21
31.5069339419
 12
367.4340352445
 22
31.5069339419
 13
367.4340352445
 23
31.5069339419
  0
SOLID
  8
0
 62
7
  6
CONTINUOUS
 10
367.4340352445
 20
31.5069339419
 11
367.6074727445
 21
31.4424065674
 12
366.624660024
 22
31.4424065674
 13
366.624660024
 23
31.4424065674
  0
SOLID
  8
0
 62
7
  6
CONTINUOUS
 10
367.6074727445
 20
31.4424065674
 11
367.0293479651
 21
31.4101420472
 12
366.624660024
 22
31.4424065674
 13
366.624660024
 23
31.4424065674
  0
SOLID
  8
0
 62
7
  6
CONTINUOUS
 10
366.5090354651
 20
31.377879193
 11
366.624660024
 21
31.4424065674
 12
367.0293479651
 22
31.4101420472
 13
367.0293479651
 23
31.4101420472
  0
SOLID
  8
0
 62
7
  6
CONTINUOUS
 10
367.0293479651
 20
31.4101420472
 11
366.798097524
 21
31.377879193
 12
366.5090354651
 22
31.377879193
 13
366.5090354651
 23
31.377879193
  0
SOLID
  8
0
 62
7
  6
CONTINUOUS
 10
367.0293479651
 20
31.4101420472
 11
367.6074727445
 21
31.4424065674
 12
367.2605977445
 22
31.377879193
 13
367.2605977445
 23
31.377879193
  0
SOLID
  8
0
 62
7
  6
CONTINUOUS
 10
367.6074727445
 20
31.4424065674
 11
367.7230979651
 21
31.377879193
 12
367.2605977445
 22
31.377879193
 13
367.2605977445
 23
31.377879193
  0
SOLID
  8
0
 62
7
  6
CONTINUOUS
 10
367.3762229651
 20
31.345614957
 11
367.2605977445
 21
31.377879193
 12
367.7230979651
 22
31.377879193
 13
367.7230979651
 23
31.377879193
  0
SOLID
  8
0
 62
7
  6
CONTINUOUS
 10
367.3762229651
 20
31.345614957
 11
367.7230979651
 21
31.377879193
 12
367.491847524
 22
31.2810881312
 13
367.491847524
 23
31.2810881312
  0
SOLID
  8
0
 62
7
  6
CONTINUOUS
 10
367.7230979651
 20
31.377879193
 11
367.7809102445
 21
31.2810881312
 12
367.491847524
 22
31.2810881312
 13
367.491847524
 23
31.2810881312
  0
SOLID
  8
0
 62
7
  6
CONTINUOUS
 10
367.5496604651
 20
31.119769695
 11
367.491847524
 21
31.2810881312
 12
367.7809102445
 22
31.2810881312
 13
367.7809102445
 23
31.2810881312
  0
SOLID
  8
0
 62
7
  6
CONTINUOUS
 10
367.7809102445
 20
31.2810881312
 11
367.838722524
 21
31.119769695
 12
367.5496604651
 22
31.119769695
 13
367.5496604651
 23
31.119769695
  0
SOLID
  8
0
 62
7
  6
CONTINUOUS
 10
366.798097524
 20
31.377879193
 11
366.624660024
 21
31.3133521701
 12
366.5090354651
 22
31.377879193
 13
366.5090354651
 23
31.377879193
  0
SOLID
  8
0
 62
7
  6
CONTINUOUS
 10
366.624660024
 20
31.3133521701
 11
366.5090354651
 21
31.2488235635
 12
366.5090354651
 22
31.377879193
 13
366.5090354651
 23
31.377879193
  0
SOLID
  8
0
 62
7
  6
CONTINUOUS
 10
366.5090354651
 20
31.2488235635
 11
366.2199727445
 21
30.5067596374
 12
366.5090354651
 22
31.377879193
 13
366.5090354651
 23
31.377879193
  0
SOLID
  8
0
 62
7
  6
CONTINUOUS
 10
366.5090354651
 20
31.377879193
 11
366.2199727445
 21
30.5067596374
 12
366.5090354651
 22
31.5391976292
 13
366.5090354651
 23
31.5391976292
  0
SOLID
  8
0
 62
7
  6
CONTINUOUS
 10
366.2199727445
 20
30.5067596374
 11
366.2199727445
 21
31.5391976292
 12
366.5090354651
 22
31.5391976292
 13
366.5090354651
 23
31.5391976292
  0
SOLID
  8
0
 62
7
  6
CONTINUOUS
 10
366.5090354651
 20
31.2488235635
 11
366.5090354651
 21
30.5067596374
 12
366.2199727445
 22
30.5067596374
 13
366.2199727445
 23
30.5067596374
  0
SOLID
  8
0
 62
7
  6
CONTINUOUS
 10
367.5496604651
 20
30.5067596374
 11
367.5496604651
 21
31.119769695
 12
367.838722524
 22
31.119769695
 13
367.838722524
 23
31.119769695
  0
SOLID
  8
0
 62
7
  6
CONTINUOUS
 10
367.838722524
 20
31.119769695
 11
367.838722524
 21
30.5067596374
 12
367.5496604651
 22
30.5067596374
 13
367.5496604651
 23
30.5067596374
  0
SOLID
  8
0
 62
7
  6
CONTINUOUS
 10
368.6480977445
 20
31.5069334157
 11
368.9949727445
 21
31.539197762
 12
369.3418477445
 22
31.539197762
 13
369.3418477445
 23
31.539197762
  0
SOLID
  8
0
 62
7
  6
CONTINUOUS
 10
369.3418477445
 20
31.539197762
 11
369.6887227445
 21
31.5069334157
 12
368.6480977445
 22
31.5069334157
 13
368.6480977445
 23
31.5069334157
  0
SOLID
  8
0
 62
7
  6
CONTINUOUS
 10
368.4168479651
 20
31.4424063504
 11
368.6480977445
 21
31.5069334157
 12
369.6887227445
 22
31.5069334157
 13
369.6887227445
 23
31.5069334157
  0
SOLID
  8
0
 62
7
  6
CONTINUOUS
 10
368.4168479651
 20
31.4424063504
 11
369.6887227445
 21
31.5069334406
 12
369.8621602445
 22
31.4746706537
 13
369.8621602445
 23
31.4746706537
  0
SOLID
  8
0
 62
7
  6
CONTINUOUS
 10
368.4168479651
 20
31.4424063504
 11
369.8621602445
 21
31.4746706537
 12
368.9949727445
 22
31.4101421267
 13
368.9949727445
 23
31.4101421267
  0
SOLID
  8
0
 62
7
  6
CONTINUOUS
 10
368.9949727445
 20
31.4101421267
 11
369.8621602445
 21
31.4746706537
 12
369.3418477445
 22
31.4101421267
 13
369.3418477445
 23
31.4101421267
  0
SOLID
  8
0
 62
7
  6
CONTINUOUS
 10
369.8621602445
 20
31.4746706537
 11
370.0355977445
 21
31.4101421267
 12
369.3418477445
 22
31.4101421267
 13
369.3418477445
 23
31.4101421267
  0
SOLID
  8
0
 62
7
  6
CONTINUOUS
 10
369.6887227445
 20
31.3778792603
 11
369.3418477445
 21
31.4101421267
 12
370.0355977445
 22
31.4101421267
 13
370.0355977445
 23
31.4101421267
  0
SOLID
  8
0
 62
7
  6
CONTINUOUS
 10
368.3012227445
 20
31.3456148845
 11
368.4168479651
 21
31.4424063504
 12
368.9949727445
 22
31.4101421267
 13
368.9949727445
 23
31.4101421267
  0
SOLID
  8
0
 62
7
  6
CONTINUOUS
 10
369.6887227445
 20
31.3778792603
 11
370.0355977445
 21
31.4101421267
 12
369.8043479651
 22
31.3456148845
 13
369.8043479651
 23
31.3456148845
  0
SOLID
  8
0
 62
7
  6
CONTINUOUS
 10
369.8043479651
 20
31.3456148845
 11
370.0355977445
 21
31.4101421267
 12
369.8621602445
 22
31.281087868
 13
369.8621602445
 23
31.281087868
  0
SOLID
  8
0
 62
7
  6
CONTINUOUS
 10
370.0355977445
 20
31.4101421267
 11
370.1512223035
 21
31.281087868
 12
369.8621602445
 22
31.281087868
 13
369.8621602445
 23
31.281087868
  0
SOLID
  8
0
 62
7
  6
CONTINUOUS
 10
359.4559102445
 20
31.3778792603
 11
358.9355977445
 21
31.3456148963
 12
359.6871602721
 22
31.4101421155
 13
359.6871602721
 23
31.4101421155
  0
SOLID
  8
0
 62
7
  6
CONTINUOUS
 10
358.9355977445
 20
31.3456148963
 11
359.0512227376
 21
31.4101421155
 12
359.6871602721
 22
31.4101421155
 13
359.6871602721
 23
31.4101421155
  0
SOLID
  8
0
 62
7
  6
CONTINUOUS
 10
359.4559102445
 20
31.3778792603
 11
359.3402852307
 21
31.3456148963
 12
358.9355977445
 22
31.3456148963
 13
358.9355977445
 23
31.3456148963
  0
SOLID
  8
0
 62
7
  6
CONTINUOUS
 10
358.8199727462
 20
31.2165607767
 11
358.9355977445
 21
31.3456148963
 12
359.3402852307
 22
31.3456148963
 13
359.3402852307
 23
31.3456148963
  0
SOLID
  8
0
 62
7
  6
CONTINUOUS
 10
363.1559103548
 20
31.3456149608
 11
363.8496603548
 21
31.4101420472
 12
363.6184102445
 22
31.3778792603
 13
363.6184102445
 23
31.3778792603
  0
SOLID
  8
0
 62
7
  6
CONTINUOUS
 10
363.6184102445
 20
31.3778792603
 11
363.5027853548
 21
31.3456149608
 12
363.1559103548
 22
31.3456149608
 13
363.1559103548
 23
31.3456149608
  0
SOLID
  8
0
 62
7
  6
CONTINUOUS
 10
363.1559103548
 20
31.2810878707
 11
363.1559103548
 21
31.3456149608
 12
363.5027853548
 22
31.3456149608
 13
363.5027853548
 23
31.3456149608
  0
SOLID
  8
0
 62
7
  6
CONTINUOUS
 10
363.5027853548
 20
31.3456149608
 11
363.4449727445
 21
31.2810878707
 12
363.1559103548
 22
31.2810878707
 13
363.1559103548
 23
31.2810878707
  0
SOLID
  8
0
 62
7
  6
CONTINUOUS
 10
368.3012227445
 20
31.3456149608
 11
368.9949727445
 21
31.4101420472
 12
368.7637229651
 22
31.3778792603
 13
368.7637229651
 23
31.3778792603
  0
SOLID
  8
0
 62
7
  6
CONTINUOUS
 10
368.7637229651
 20
31.3778792603
 11
368.6480977445
 21
31.3456149608
 12
368.3012227445
 22
31.3456149608
 13
368.3012227445
 23
31.3456149608
  0
SOLID
  8
0
 62
7
  6
CONTINUOUS
 10
368.3012227445
 20
31.2810878707
 11
368.3012227445
 21
31.3456149608
 12
368.6480977445
 22
31.3456149608
 13
368.6480977445
 23
31.3456149608
  0
SOLID
  8
0
 62
7
  6
CONTINUOUS
 10
368.6480977445
 20
31.3456149608
 11
368.5902854651
 21
31.2810878707
 12
368.3012227445
 22
31.2810878707
 13
368.3012227445
 23
31.2810878707
  0
SOLID
  8
0
 62
7
  6
CONTINUOUS
 10
368.4168479651
 20
31.1520336865
 11
368.3012227445
 21
31.2810878707
 12
368.5902854651
 22
31.2810878707
 13
368.5902854651
 23
31.2810878707
  0
SOLID
  8
0
 62
7
  6
CONTINUOUS
 10
358.8199727462
 20
31.2165607767
 11
359.3402852307
 21
31.345614957
 12
359.1668477307
 22
31.2488235635
 13
359.1668477307
 23
31.2488235635
  0
SOLID
  8
0
 62
7
  6
CONTINUOUS
 10
359.1668477307
 20
31.2488235635
 11
359.1090352445
 21
31.1842964734
 12
358.8199727462
 22
31.2165607767
 13
358.8199727462
 23
31.2165607767
  0
SOLID
  8
0
 62
7
  6
CONTINUOUS
 10
358.7621602445
 20
31.0229779898
 11
358.8199727462
 21
31.2165607767
 12
359.1090352445
 22
31.1842964734
 13
359.1090352445
 23
31.1842964734
  0
SOLID
  8
0
 62
7
  6
CONTINUOUS
 10
363.6184102445
 20
31.1520336865
 11
363.9652852445
 21
31.1842964611
 12
364.6012229651
 22
31.1842964611
 13
364.6012229651
 23
31.1842964611
  0
SOLID
  8
0
 62
7
  6
CONTINUOUS
 10
363.6184102445
 20
31.1520336865
 11
364.6012229651
 21
31.1842964611
 12
363.3871601343
 22
31.0875057863
 13
363.3871601343
 23
31.0875057863
  0
SOLID
  8
0
 62
7
  6
CONTINUOUS
 10
363.3871601343
 20
31.0875057863
 11
364.6012229651
 21
31.1842964611
 12
363.9652852445
 22
31.0552422808
 13
363.9652852445
 23
31.0552422808
  0
SOLID
  8
0
 62
7
  6
CONTINUOUS
 10
364.6012229651
 20
31.1842964611
 11
364.6012229651
 21
31.0552422808
 12
363.9652852445
 22
31.0552422808
 13
363.9652852445
 23
31.0552422808
  0
SOLID
  8
0
 62
7
  6
CONTINUOUS
 10
368.4168479651
 20
31.1520338754
 11
368.5902854651
 21
31.2810878668
 12
368.6480977445
 22
31.2165607767
 13
368.6480977445
 23
31.2165607767
  0
SOLID
  8
0
 62
7
  6
CONTINUOUS
 10
368.6480977445
 20
31.2165607767
 11
368.8215352445
 21
31.1520338754
 12
368.4168479651
 22
31.1520338754
 13
368.4168479651
 23
31.1520338754
  0
SOLID
  8
0
 62
7
  6
CONTINUOUS
 10
368.6480977445
 20
31.0552422931
 11
368.4168479651
 21
31.1520338754
 12
368.8215352445
 22
31.1520338754
 13
368.8215352445
 23
31.1520338754
  0
SOLID
  8
0
 62
7
  6
CONTINUOUS
 10
368.8215352445
 20
31.1520338754
 11
369.8043479651
 21
30.9907152029
 12
368.6480977445
 22
31.0552422931
 13
368.6480977445
 23
31.0552422931
  0
SOLID
  8
0
 62
7
  6
CONTINUOUS
 10
369.6309104651
 20
30.8939239876
 11
368.6480977445
 21
31.0552422931
 12
369.8043479651
 22
30.9907152029
 13
369.8043479651
 23
30.9907152029
  0
SOLID
  8
0
 62
7
  6
CONTINUOUS
 10
369.8043479651
 20
30.9907152029
 11
370.0355977445
 21
30.8939239876
 12
369.6309104651
 22
30.8939239876
 13
369.6309104651
 23
30.8939239876
  0
SOLID
  8
0
 62
7
  6
CONTINUOUS
 10
369.8043479651
 20
30.8293967193
 11
369.6309104651
 21
30.8939239876
 12
370.0355977445
 22
30.8939239876
 13
370.0355977445
 23
30.8939239876
  0
SOLID
  8
0
 62
7
  6
CONTINUOUS
 10
369.8043479651
 20
30.8293967193
 11
370.0355977445
 21
30.8939239876
 12
369.8621602445
 22
30.7648682694
 13
369.8621602445
 23
30.7648682694
  0
SOLID
  8
0
 62
7
  6
CONTINUOUS
 10
370.0355977445
 20
30.8939239876
 11
370.1512223035
 21
30.7648682694
 12
369.8621602445
 22
30.7648682694
 13
369.8621602445
 23
30.7648682694
  0
SOLID
  8
0
 62
7
  6
CONTINUOUS
 10
369.8043479651
 20
30.7003411846
 11
369.8621602445
 21
30.7648682694
 12
370.1512223035
 22
30.7648682694
 13
370.1512223035
 23
30.7648682694
  0
SOLID
  8
0
 62
7
  6
CONTINUOUS
 10
370.1512223035
 20
30.7648682694
 11
370.1512223035
 21
30.7003411846
 12
369.8043479651
 22
30.7003411846
 13
369.8043479651
 23
30.7003411846
  0
SOLID
  8
0
 62
7
  6
CONTINUOUS
 10
369.6887227445
 20
30.6680782357
 11
369.8043479651
 21
30.7003411846
 12
370.1512223035
 22
30.7003411846
 13
370.1512223035
 23
30.7003411846
  0
SOLID
  8
0
 62
7
  6
CONTINUOUS
 10
369.6887227445
 20
30.6680782357
 11
370.1512223035
 21
30.7003411846
 12
369.4574729651
 22
30.6358140998
 13
369.4574729651
 23
30.6358140998
  0
SOLID
  8
0
 62
7
  6
CONTINUOUS
 10
370.1512223035
 20
30.7003411846
 11
370.0355977445
 21
30.6035511455
 12
369.4574729651
 22
30.6358140998
 13
369.4574729651
 23
30.6358140998
  0
SOLID
  8
0
 62
7
  6
CONTINUOUS
 10
370.0355977445
 20
30.6035511455
 11
368.5902854651
 21
30.5712868422
 12
369.4574729651
 22
30.6358140998
 13
369.4574729651
 23
30.6358140998
  0
SOLID
  8
0
 62
7
  6
CONTINUOUS
 10
369.4574729651
 20
30.6358140998
 11
368.5902854651
 21
30.5712868422
 12
369.1105979651
 22
30.6358140998
 13
369.1105979651
 23
30.6358140998
  0
SOLID
  8
0
 62
7
  6
CONTINUOUS
 10
368.5902854651
 20
30.5712868422
 11
368.4168479651
 21
30.6358140998
 12
369.1105979651
 22
30.6358140998
 13
369.1105979651
 23
30.6358140998
  0
SOLID
  8
0
 62
7
  6
CONTINUOUS
 10
368.5902854651
 20
30.5712868422
 11
370.0355977445
 21
30.6035511455
 12
368.7637229651
 22
30.5390223111
 13
368.7637229651
 23
30.5390223111
  0
SOLID
  8
0
 62
7
  6
CONTINUOUS
 10
370.0355977445
 20
30.6035511455
 11
369.8043479651
 21
30.5390223111
 12
368.7637229651
 22
30.5390223111
 13
368.7637229651
 23
30.5390223111
  0
SOLID
  8
0
 62
7
  6
CONTINUOUS
 10
369.1105979651
 20
30.5067599302
 11
368.7637229651
 21
30.5390223111
 12
369.8043479651
 22
30.5390223111
 13
369.8043479651
 23
30.5390223111
  0
SOLID
  8
0
 62
7
  6
CONTINUOUS
 10
369.8043479651
 20
30.5390223111
 11
369.4574729651
 21
30.5067599302
 12
369.1105979651
 22
30.5067599302
 13
369.1105979651
 23
30.5067599302
  0
SOLID
  8
0
 62
7
  6
CONTINUOUS
 10
358.7621602445
 20
31.0229779898
 11
359.1090352445
 21
31.1842964734
 12
359.0512227376
 22
31.0552422931
 13
359.0512227376
 23
31.0552422931
  0
SOLID
  8
0
 62
7
  6
CONTINUOUS
 10
359.0512227376
 20
31.0552422931
 11
359.0512227376
 21
30.9584509954
 12
358.7621602445
 22
31.0229779898
 13
358.7621602445
 23
31.0229779898
  0
SOLID
  8
0
 62
7
  6
CONTINUOUS
 10
358.8199727462
 20
30.8293967193
 11
358.7621602445
 21
31.0229779898
 12
359.0512227376
 22
30.9584509954
 13
359.0512227376
 23
30.9584509954
  0
SOLID
  8
0
 62
7
  6
CONTINUOUS
 10
359.0512227376
 20
30.9584509954
 11
359.1668477307
 21
30.797132416
 12
358.8199727462
 22
30.8293967193
 13
358.8199727462
 23
30.8293967193
  0
SOLID
  8
0
 62
7
  6
CONTINUOUS
 10
358.9355977445
 20
30.7003413087
 11
358.8199727462
 21
30.8293967193
 12
359.1668477307
 22
30.797132416
 13
359.1668477307
 23
30.797132416
  0
SOLID
  8
0
 62
7
  6
CONTINUOUS
 10
359.1668477307
 20
30.797132416
 11
359.3402852307
 21
30.7003413087
 12
358.9355977445
 22
30.7003413087
 13
358.9355977445
 23
30.7003413087
  0
SOLID
  8
0
 62
7
  6
CONTINUOUS
 10
359.0512227376
 20
30.6358140759
 11
358.9355977445
 21
30.7003413087
 12
359.3402852307
 22
30.7003413087
 13
359.3402852307
 23
30.7003413087
  0
SOLID
  8
0
 62
7
  6
CONTINUOUS
 10
359.3402852307
 20
30.7003413087
 11
359.6871602721
 21
30.6358140759
 12
359.0512227376
 22
30.6358140759
 13
359.0512227376
 23
30.6358140759
  0
SOLID
  8
0
 62
7
  6
CONTINUOUS
 10
359.2246602583
 20
30.5712868422
 11
359.0512227376
 21
30.6358140759
 12
359.6871602721
 22
30.6358140759
 13
359.6871602721
 23
30.6358140759
  0
SOLID
  8
0
 62
7
  6
CONTINUOUS
 10
363.2715352445
 20
31.0229779808
 11
363.3871601343
 21
31.0875057863
 12
363.9652852445
 22
31.0552422931
 13
363.9652852445
 23
31.0552422931
  0
SOLID
  8
0
 62
7
  6
CONTINUOUS
 10
363.9652852445
 20
31.0552422931
 11
363.7340351343
 21
31.0229779808
 12
363.2715352445
 22
31.0229779808
 13
363.2715352445
 23
31.0229779808
  0
SOLID
  8
0
 62
7
  6
CONTINUOUS
 10
363.1559103548
 20
30.8939238094
 11
363.2715352445
 21
31.0229779808
 12
363.7340351343
 22
31.0229779808
 13
363.7340351343
 23
31.0229779808
  0
SOLID
  8
0
 62
7
  6
CONTINUOUS
 10
363.5027853548
 20
30.926187309
 11
363.1559103548
 21
30.8939238094
 12
363.6184102445
 22
30.9907152029
 13
363.6184102445
 23
30.9907152029
  0
SOLID
  8
0
 62
7
  6
CONTINUOUS
 10
363.1559103548
 20
30.8939238094
 11
363.7340351343
 21
31.0229779898
 12
363.6184102445
 22
30.9907152029
 13
363.6184102445
 23
30.9907152029
  0
SOLID
  8
0
 62
7
  6
CONTINUOUS
 10
363.5027853548
 20
30.926187309
 11
363.4449727445
 21
30.8293967193
 12
363.1559103548
 22
30.8939238094
 13
363.1559103548
 23
30.8939238094
  0
SOLID
  8
0
 62
7
  6
CONTINUOUS
 10
363.1559103548
 20
30.797132416
 11
363.1559103548
 21
30.8939238094
 12
363.4449727445
 22
30.8293967193
 13
363.4449727445
 23
30.8293967193
  0
SOLID
  8
0
 62
7
  6
CONTINUOUS
 10
363.4449727445
 20
30.8293967193
 11
363.4449727445
 21
30.7648681127
 12
363.1559103548
 22
30.797132416
 13
363.1559103548
 23
30.797132416
  0
SOLID
  8
0
 62
7
  6
CONTINUOUS
 10
363.2137226343
 20
30.6680782357
 11
363.1559103548
 21
30.797132416
 12
363.4449727445
 22
30.7648681127
 13
363.4449727445
 23
30.7648681127
  0
SOLID
  8
0
 62
7
  6
CONTINUOUS
 10
364.6012229651
 20
30.8616599362
 11
364.890285024
 21
30.7648681127
 12
364.543410024
 22
30.797132416
 13
364.543410024
 23
30.797132416
  0
SOLID
  8
0
 62
7
  6
CONTINUOUS
 10
364.369972524
 20
30.7003410226
 11
364.543410024
 21
30.797132416
 12
364.890285024
 22
30.7648681127
 13
364.890285024
 23
30.7648681127
  0
SOLID
  8
0
 62
7
  6
CONTINUOUS
 10
364.369972524
 20
30.7003410226
 11
364.890285024
 21
30.7648681127
 12
364.6012229651
 22
30.6680782357
 13
364.6012229651
 23
30.6680782357
  0
SOLID
  8
0
 62
7
  6
CONTINUOUS
 10
364.890285024
 20
30.7648681127
 11
364.9480979651
 21
30.6035511455
 12
364.6012229651
 22
30.6680782357
 13
364.6012229651
 23
30.6680782357
  0
SOLID
  8
0
 62
7
  6
CONTINUOUS
 10
364.6590352445
 20
30.5712868422
 11
364.6012229651
 21
30.6680782357
 12
364.9480979651
 22
30.6035511455
 13
364.9480979651
 23
30.6035511455
  0
SOLID
  8
0
 62
7
  6
CONTINUOUS
 10
364.6590352445
 20
30.5712868422
 11
364.9480979651
 21
30.6035511455
 12
364.716847524
 22
30.5067598731
 13
364.716847524
 23
30.5067598731
  0
SOLID
  8
0
 62
7
  6
CONTINUOUS
 10
364.9480979651
 20
30.6035511455
 11
365.0059102445
 21
30.5067598731
 12
364.716847524
 22
30.5067598731
 13
364.716847524
 23
30.5067598731
  0
SOLID
  8
0
 62
7
  6
CONTINUOUS
 10
360.2652852997
 20
30.7326051679
 11
360.3230977445
 21
30.8293966612
 12
360.6121602997
 22
30.8293966612
 13
360.6121602997
 23
30.8293966612
  0
SOLID
  8
0
 62
7
  6
CONTINUOUS
 10
360.6121602997
 20
30.8293966612
 11
360.5543476894
 21
30.7003410226
 12
360.2652852997
 22
30.7326051679
 13
360.2652852997
 23
30.7326051679
  0
SOLID
  8
0
 62
7
  6
CONTINUOUS
 10
360.091847717
 20
30.6680782357
 11
360.2652852997
 21
30.7326051679
 12
360.5543476894
 22
30.7003410226
 13
360.5543476894
 23
30.7003410226
  0
SOLID
  8
0
 62
7
  6
CONTINUOUS
 10
360.091847717
 20
30.6680782357
 11
360.5543476894
 21
30.7003410226
 12
359.6871602721
 22
30.6358139324
 13
359.6871602721
 23
30.6358139324
  0
SOLID
  8
0
 62
7
  6
CONTINUOUS
 10
360.5543476894
 20
30.7003410226
 11
360.3809101894
 21
30.6035511455
 12
359.6871602721
 22
30.6358139324
 13
359.6871602721
 23
30.6358139324
  0
SOLID
  8
0
 62
7
  6
CONTINUOUS
 10
359.2246602583
 20
30.5712868422
 11
359.6871602721
 21
30.6358139324
 12
360.3809101894
 22
30.6035511455
 13
360.3809101894
 23
30.6035511455
  0
SOLID
  8
0
 62
7
  6
CONTINUOUS
 10
359.2246602583
 20
30.5712868422
 11
360.3809101894
 21
30.6035511455
 12
359.3980977583
 22
30.5390224228
 13
359.3980977583
 23
30.5390224228
  0
SOLID
  8
0
 62
7
  6
CONTINUOUS
 10
360.3809101894
 20
30.6035511455
 11
360.1496602445
 21
30.5390224228
 12
359.3980977583
 22
30.5390224228
 13
359.3980977583
 23
30.5390224228
  0
SOLID
  8
0
 62
7
  6
CONTINUOUS
 10
359.744972717
 20
30.5067597521
 11
359.3980977583
 21
30.5390224228
 12
360.1496602445
 22
30.5390224228
 13
360.1496602445
 23
30.5390224228
  0
SOLID
  8
0
 62
7
  6
CONTINUOUS
 10
363.2137226343
 20
30.6680782357
 11
363.4449727445
 21
30.7648681127
 12
363.5027853548
 22
30.7003410226
 13
363.5027853548
 23
30.7003410226
  0
SOLID
  8
0
 62
7
  6
CONTINUOUS
 10
363.5027853548
 20
30.7003410226
 11
363.7340351343
 21
30.6358139324
 12
363.2137226343
 22
30.6680782357
 13
363.2137226343
 23
30.6680782357
  0
SOLID
  8
0
 62
7
  6
CONTINUOUS
 10
363.3871601343
 20
30.5712868422
 11
363.2137226343
 21
30.6680782357
 12
363.7340351343
 22
30.6358139324
 13
363.7340351343
 23
30.6358139324
  0
SOLID
  8
0
 62
7
  6
CONTINUOUS
 10
364.0809101343
 20
30.6358139363
 11
364.369972524
 21
30.7003410226
 12
364.6012229651
 22
30.6680782357
 13
364.6012229651
 23
30.6680782357
  0
SOLID
  8
0
 62
7
  6
CONTINUOUS
 10
364.6012229651
 20
30.6680782357
 11
364.543410024
 21
30.6035511455
 12
364.0809101343
 22
30.6358139363
 13
364.0809101343
 23
30.6358139363
  0
SOLID
  8
0
 62
7
  6
CONTINUOUS
 10
364.543410024
 20
30.6035511455
 11
363.3871601343
 21
30.5712868422
 12
364.0809101343
 22
30.6358139363
 13
364.0809101343
 23
30.6358139363
  0
SOLID
  8
0
 62
7
  6
CONTINUOUS
 10
363.3871601343
 20
30.5712868422
 11
363.7340351343
 21
30.6358139363
 12
364.0809101343
 22
30.6358139363
 13
364.0809101343
 23
30.6358139363
  0
SOLID
  8
0
 62
7
  6
CONTINUOUS
 10
363.3871601343
 20
30.5712868422
 11
364.543410024
 21
30.6035511455
 12
363.5027853548
 22
30.5390225267
 13
363.5027853548
 23
30.5390225267
  0
SOLID
  8
0
 62
7
  6
CONTINUOUS
 10
364.543410024
 20
30.6035511455
 11
364.369972524
 21
30.5390225267
 12
363.5027853548
 22
30.5390225267
 13
363.5027853548
 23
30.5390225267
  0
SOLID
  8
0
 62
7
  6
CONTINUOUS
 10
363.7340351343
 20
30.5067596914
 11
363.5027853548
 21
30.5390225267
 12
364.369972524
 22
30.5390225267
 13
364.369972524
 23
30.5390225267
  0
SOLID
  8
0
 62
7
  6
CONTINUOUS
 10
364.369972524
 20
30.5390225267
 11
364.0809101343
 21
30.5067596914
 12
363.7340351343
 22
30.5067596914
 13
363.7340351343
 23
30.5067596914
  0
SOLID
  8
0
 62
7
  6
CONTINUOUS
 10
368.7637229651
 20
30.6680782357
 11
368.4168479651
 21
30.6358138717
 12
368.6480977445
 22
30.7003410226
 13
368.6480977445
 23
30.7003410226
  0
SOLID
  8
0
 62
7
  6
CONTINUOUS
 10
368.6480977445
 20
30.7003410226
 11
368.4168479651
 21
30.6358138717
 12
368.5902854651
 22
30.7648680521
 13
368.5902854651
 23
30.7648680521
  0
SOLID
  8
0
 62
7
  6
CONTINUOUS
 10
368.4168479651
 20
30.6358138717
 11
368.3012227445
 21
30.7648680521
 12
368.5902854651
 22
30.7648680521
 13
368.5902854651
 23
30.7648680521
  0
SOLID
  8
0
 62
7
  6
CONTINUOUS
 10
368.7637229651
 20
30.6680782357
 11
369.1105979651
 21
30.6358138717
 12
368.4168479651
 22
30.6358138717
 13
368.4168479651
 23
30.6358138717
  0
SOLID
  8
0
 62
7
  6
CONTINUOUS
 10
365.4684104651
 20
30.5067597521
 11
365.4684104651
 21
31.5391977439
 12
365.757472524
 22
30.5067597521
 13
365.757472524
 23
31.5391977439
  0
ENDBLK
  8
0
  6
BYBLOCK
 62
0
  0
BLOCK
  8
0
 62
2
  6
CONTINUOUS
  2
SYMBOL_0_BL0
 70
64
 10
240.8592468615
 20
19.762288695
  0
TEXT
  8
0
 62
7
  6
CONTINUOUS
 10
227.1239507038
 20
19.1357028027
  7
TEXTSTYLE_3
 40
2.7338706658
  1
Ammeraal Beltech
 41
1.0
 51
15.0
 72
0
  0
TEXT
  8
0
 62
7
  6
CONTINUOUS
 10
237.9247515296
 20
16.8621661299
  7
TEXTSTYLE_4
 40
1.0935482663
  1
Innovation & Service in Belting
 41
1.0
 72
0
  0
LINE
  8
0
 62
7
  6
CONTINUOUS
 10
221.0994100525
 20
19.9022961113
 11
221.8775620458
 21
23.5632134089
  0
LINE
  8
0
 62
7
  6
CONTINUOUS
 10
231.9727303357
 20
27.2266073205
 11
222.3653797889
 21
24.1049898993
  0
LINE
  8
0
 62
7
  6
CONTINUOUS
 10
221.3246933848
 20
19.2089453082
 11
228.8317686459
 21
12.4495443822
  0
LINE
  8
0
 62
7
  6
CONTINUOUS
 10
221.5872277955
 20
20.4440726016
 11
232.3954971607
 21
23.9558922005
  0
LINE
  8
0
 62
7
  6
CONTINUOUS
 10
232.3912920235
 20
13.6061036368
 11
223.9458323548
 21
21.2104296785
  0
LINE
  8
0
 62
7
  6
CONTINUOUS
 10
232.9111147433
 20
26.3816822048
 11
231.9345552061
 21
21.7873308023
  0
LINE
  8
0
 62
7
  6
CONTINUOUS
 10
231.2347532584
 20
18.4950214885
 11
230.5483050469
 21
15.2655365641
  0
LINE
  8
0
 62
7
  6
CONTINUOUS
 10
233.5922108419
 20
13.9963058145
 11
234.5484423775
 21
18.4950214885
  0
LINE
  8
0
 62
7
  6
CONTINUOUS
 10
235.2482443252
 20
21.7873308023
 11
235.6924861276
 21
23.8773241617
  0
LINE
  8
0
 62
7
  6
CONTINUOUS
 10
229.5448697213
 20
12.2979700695
 11
233.1043930989
 21
13.4545293241
  0
LINE
  8
0
 62
7
  6
CONTINUOUS
 10
232.685831411
 20
27.0750330078
 11
235.4672027953
 21
24.5706749648
  0
ARC
  8
0
 62
7
  6
CONTINUOUS
 10
222.5906631212
 20
23.4116390962
 40
0.7290321776
 50
108.0
 51
168.0
  0
ARC
  8
0
 62
7
  6
CONTINUOUS
 10
232.198013668
 20
26.5332565175
 40
0.7290321776
 50
348.0
 51
108.0
  0
ARC
  8
0
 62
7
  6
CONTINUOUS
 10
234.9793850522
 20
24.0288984744
 40
0.7290321776
 50
348.0
 51
48.0
  0
ARC
  8
0
 62
7
  6
CONTINUOUS
 10
229.319586389
 20
12.9913208726
 40
0.7290321776
 50
228.0
 51
288.0
  0
ARC
  8
0
 62
7
  6
CONTINUOUS
 10
221.8125111278
 20
19.7507217986
 40
0.7290321776
 50
108.0
 51
228.0
  0
ARC
  8
0
 62
7
  6
CONTINUOUS
 10
232.8791097665
 20
14.1478801272
 40
0.7290321776
 50
228.0
 51
348.0
  0
ENDBLK
  8
0
  6
BYBLOCK
 62
0
  0
ENDSEC
  0
SECTION
  2
ENTITIES
  0
TEXT
  8
0
 62
5
  6
CONTINUOUS
 10
304.937007874
 20
25.636
  7
TEXTSTYLE_2
 40
2.8
  1
Scale :
 41
0.6
 51
0.000019
 72
0
  0
TEXT
  8
0
 62
5
  6
CONTINUOUS
 10
324.937007874
 20
25.636
  7
TEXTSTYLE_2
 40
2.8
  1
Belt type:
 41
0.6
 51
0.000019
 72
0
  0
INSERT
  8
0
 62
2
  6
CONTINUOUS
  2
SYMBOL_0_BL0
 10
240.8592468615
 20
19.762288695
  0
INSERT
  8
0
 62
2
  6
CONTINUOUS
  2
SYMBOL_5_BL1
 10
382.7840918555
 20
35.5067593403
  0
LINE
  8
0
 62
2
  6
CONTINUOUS
 10
218.937007874
 20
30.0
 11
408.937007874
 21
30.0
  0
LINE
  8
0
 62
2
  6
CONTINUOUS
 10
218.937007874
 20
30.0
 11
218.937007874
 21
10.0
  0
LINE
  8
0
 62
2
  6
CONTINUOUS
 10
218.937007874
 20
10.0
 11
408.937007874
 21
10.0
  0
LINE
  8
0
 62
2
  6
CONTINUOUS
 10
303.937007874
 20
30.0
 11
303.937007874
 21
10.0
  0
LINE
  8
0
 62
2
  6
CONTINUOUS
 10
323.937007874
 20
30.0
 11
323.937007874
 21
10.0
  0
LINE
  8
0
 62
2
  6
CONTINUOUS
 10
408.937007874
 20
30.0
 11
408.937007874
 21
10.0
  0
TEXT
  8
0
 62
5
  6
CONTINUOUS
 10
221.937007874
 20
23.303
  7
TEXTSTYLE_5
 40
1.52
  1
                                                                     Ammeraal Beltech Modular A/S
 41
1.0
 72
0
  0
TEXT
  8
0
 62
5
  6
CONTINUOUS
 10
221.937007874
 20
20.595
  7
TEXTSTYLE_5
 40
1.5
  1
                                                                      Hjulmagervej 21, 7100 Vejle,  DK
 41
1.0
 72
0
  0
TEXT
  8
0
 62
5
  6
CONTINUOUS
 10
221.937007874
 20
17.881
  7
TEXTSTYLE_5
 40
1.495
  1
                                                                      tel: 
 41
1.0
 72
0
  0
TEXT
  8
0
 62
5
  6
CONTINUOUS
 10
266.9239544389
 20
17.881
  7
TEXTSTYLE_5
 40
1.51
  1
+45 75723100     fax: +45 75723348
 41
1.0
 72
0
  0
TEXT
  8
0
 62
5
  6
CONTINUOUS
 10
221.937007874
 20
15.177
  7
TEXTSTYLE_5
 40
1.5
  1
                                                                      admin@unichains.dk  www.unichains.com
 41
1.0
 72
0
  0
TEXT
  8
0
 62
5
  6
CONTINUOUS
 10
308.687007874
 20
13.75
  7
TEXTSTYLE_6
 40
5.0
  1
1:1
 41
0.7
 72
1
 11
313.937007874
 21
13.75
  0
TEXT
  8
0
 62
5
  6
CONTINUOUS
 10
326.937007874
 20
13.75
  7
TEXTSTYLE_7
 40
7.5
  1
uni Flex ASB-43 CS Tab K279
 41
0.3861111111
 72
0
  0
LINE
  8
0
 62
7
  6
CONTINUOUS
 10
0.0
 20
0.0
 11
0.0
 21
297.0
  0
LINE
  8
0
 62
7
  6
CONTINUOUS
 10
8.937007874
 20
10.0
 11
8.937007874
 21
287.0
  0
LINE
  8
0
 62
7
  6
CONTINUOUS
 10
0.0
 20
0.0
 11
420.0
 21
0.0
  0
LINE
  8
0
 62
7
  6
CONTINUOUS
 10
408.937007874
 20
10.0
 11
8.937007874
 21
10.0
  0
LINE
  8
0
 62
7
  6
CONTINUOUS
 10
218.937007874
 20
30.0
 11
408.937007874
 21
30.0
  0
LINE
  8
0
 62
7
  6
CONTINUOUS
 10
210.0
 20
297.0
 11
210.0
 21
292.0
  0
LINE
  8
0
 62
7
  6
CONTINUOUS
 10
210.0
 20
0.0
 11
210.0
 21
5.0
  0
LINE
  8
0
 62
7
  6
CONTINUOUS
 10
8.937007874
 20
287.0
 11
408.937007874
 21
287.0
  0
LINE
  8
0
 62
7
  6
CONTINUOUS
 10
0.0
 20
297.0
 11
420.0
 21
297.0
  0
LINE
  8
0
 62
7
  6
CONTINUOUS
 10
408.937007874
 20
287.0
 11
408.937007874
 21
10.0
  0
LINE
  8
0
 62
7
  6
CONTINUOUS
 10
420.0
 20
0.0
 11
420.0
 21
297.0
  0
LINE
  8
0
 62
7
  6
CONTINUOUS
 10
99.5665956702
 20
138.4103995293
 11
99.5665956702
 21
126.9594938502
  0
LINE
  8
0
 62
7
  6
CONTINUOUS
 10
104.8205956702
 20
126.4274421188
 11
104.8205956702
 21
139.9752465878
  0
POLYLINE
  8
0
 62
7
  6
CONTINUOUS
 66
1
 70
0
  0
VERTEX
  8
0
 62
7
  6
CONTINUOUS
 10
112.7205956702
 20
131.4183871773
  0
VERTEX
  8
0
 62
7
  6
CONTINUOUS
 10
112.7110148713
 20
131.6139926961
  0
VERTEX
  8
0
 62
7
  6
CONTINUOUS
 10
112.682194344
 20
131.8082803462
  0
VERTEX
  8
0
 62
7
  6
CONTINUOUS
 10
112.6344412836
 20
131.9984178324
  0
VERTEX
  8
0
 62
7
  6
CONTINUOUS
 10
112.568563847
 20
132.1818321858
  0
VERTEX
  8
0
 62
7
  6
CONTINUOUS
 10
112.4850502756
 20
132.3576351072
  0
VERTEX
  8
0
 62
7
  6
CONTINUOUS
 10
112.3843195878
 20
132.5247892032
  0
VERTEX
  8
0
 62
7
  6
CONTINUOUS
 10
112.2677927763
 20
132.6808869341
  0
VERTEX
  8
0
 62
7
  6
CONTINUOUS
 10
112.136882412
 20
132.8243149319
  0
VERTEX
  8
0
 62
7
  6
CONTINUOUS
 10
111.9918510475
 20
132.9547900997
  0
VERTEX
  8
0
 62
7
  6
CONTINUOUS
 10
111.8337102107
 20
133.0710719556
  0
VERTEX
  8
0
 62
7
  6
CONTINUOUS
 10
111.6646710246
 20
133.171361916
  0
VERTEX
  8
0
 62
7
  6
CONTINUOUS
 10
111.4873222096
 20
133.25430622
  0
VERTEX
  8
0
 62
7
  6
CONTINUOUS
 10
111.3026828495
 20
133.3196292761
  0
VERTEX
  8
0
 62
7
  6
CONTINUOUS
 10
111.1115313844
 20
133.366955191
  0
VERTEX
  8
0
 62
7
  6
CONTINUOUS
 10
110.9165342686
 20
133.3954980661
  0
VERTEX
  8
0
 62
7
  6
CONTINUOUS
 10
110.7205956702
 20
133.404979599
  0
SEQEND
  0
LINE
  8
0
 62
7
  6
CONTINUOUS
 10
106.9416100334
 20
107.4018142725
 11
106.9416100334
 21
111.3903263141
  0
LINE
  8
0
 62
7
  6
CONTINUOUS
 10
107.6915956702
 20
117.7145445121
 11
107.6915956702
 21
114.4352025049
  0
LINE
  8
0
 62
7
  6
CONTINUOUS
 10
112.1915956702
 20
114.4352023004
 11
112.1915956702
 21
119.1159047388
  0
LINE
  8
0
 62
7
  6
CONTINUOUS
 10
112.7205956702
 20
131.4183871773
 11
112.7205956702
 21
128.5806497271
  0
LINE
  8
0
 62
7
  6
CONTINUOUS
 10
112.941581307
 20
111.3903263141
 11
112.941581307
 21
107.4018142725
  0
LINE
  8
0
 62
7
  6
CONTINUOUS
 10
115.0625956702
 20
135.4646063244
 11
115.0625956702
 21
139.7159241801
  0
LINE
  8
0
 62
7
  6
CONTINUOUS
 10
115.8165956702
 20
128.1659422588
 11
115.8165956702
 21
132.4036507445
  0
LINE
  8
0
 62
7
  6
CONTINUOUS
 10
120.3165956702
 20
128.2659424774
 11
120.3165956702
 21
132.4036458553
  0
LINE
  8
AXES
 62
7
  6
CONTINUOUS
 10
107.6763183452
 20
114.3125487794
 11
107.5461932309
 21
113.7982993348
  0
LINE
  8
0
 62
7
  6
CONTINUOUS
 10
107.6763183949
 20
114.312548976
 11
106.9461932309
 21
111.427122422
  0
LINE
  8
0
 62
7
  6
CONTINUOUS
 10
112.9369981095
 20
111.427122422
 11
112.2068730051
 21
114.3125487403
  0
LINE
  8
AXES
 62
7
  6
CONTINUOUS
 10
112.3369981095
 20
113.7982993348
 11
112.2068729953
 21
114.3125487794
  0
LINE
  8
0
 62
7
  6
CONTINUOUS
 10
115.8013205084
 20
132.5262955093
 11
115.0671782188
 21
135.4278127814
  0
LINE
  8
0
 62
7
  6
CONTINUOUS
 10
121.0705956702
 20
135.4643866549
 11
121.0705956702
 21
139.7159241801
  0
LINE
  8
0
 62
7
  6
CONTINUOUS
 10
122.5666100334
 20
107.4018142725
 11
122.5666100334
 21
111.3903263141
  0
LINE
  8
0
 62
7
  6
CONTINUOUS
 10
123.3165956702
 20
120.1159241801
 11
123.3165956702
 21
114.4352024723
  0
LINE
  8
0
 62
7
  6
CONTINUOUS
 10
127.8165956702
 20
120.2659241801
 11
127.8165956702
 21
114.4352024723
  0
LINE
  8
0
 62
7
  6
CONTINUOUS
 10
128.566581307
 20
111.3903263141
 11
128.566581307
 21
107.4018142725
  0
LINE
  8
0
 62
7
  6
CONTINUOUS
 10
130.0625956702
 20
135.4643866549
 11
130.0625956702
 21
139.7159241801
  0
LINE
  8
0
 62
7
  6
CONTINUOUS
 10
130.8165956702
 20
132.4036460598
 11
130.8165956702
 21
128.2659447271
  0
LINE
  8
0
 62
7
  6
CONTINUOUS
 10
120.3318729953
 20
132.5262995809
 11
121.0660124727
 21
135.427590547
  0
LINE
  8
AXES
 62
7
  6
CONTINUOUS
 10
123.3013183452
 20
114.3125487794
 11
123.1711932309
 21
113.7982993348
  0
LINE
  8
0
 62
7
  6
CONTINUOUS
 10
123.3013183949
 20
114.312548976
 11
122.5711932309
 21
111.427122422
  0
POLYLINE
  8
0
 62
7
  6
CONTINUOUS
 66
1
 70
0
  0
VERTEX
  8
0
 62
7
  6
CONTINUOUS
 10
104.8205956702
 20
133.451975545
  0
VERTEX
  8
0
 62
7
  6
CONTINUOUS
 10
104.824258444
 20
133.4446542211
  0
VERTEX
  8
0
 62
7
  6
CONTINUOUS
 10
104.8352520129
 20
133.4374658938
  0
VERTEX
  8
0
 62
7
  6
CONTINUOUS
 10
104.8531737023
 20
133.4306767863
  0
VERTEX
  8
0
 62
7
  6
CONTINUOUS
 10
104.8776794129
 20
133.4243976239
  0
VERTEX
  8
0
 62
7
  6
CONTINUOUS
 10
104.9084684801
 20
133.4187436482
  0
VERTEX
  8
0
 62
7
  6
CONTINUOUS
 10
104.9445541848
 20
133.4139216072
  0
VERTEX
  8
0
 62
7
  6
CONTINUOUS
 10
104.984623403
 20
133.4100839259
  0
VERTEX
  8
0
 62
7
  6
CONTINUOUS
 10
105.0279750672
 20
133.4072754489
  0
VERTEX
  8
0
 62
7
  6
CONTINUOUS
 10
105.0738681258
 20
133.4055531774
  0
VERTEX
  8
0
 62
7
  6
CONTINUOUS
 10
105.1205956702
 20
133.404979599
  0
SEQEND
  0
LINE
  8
0
 62
7
  6
CONTINUOUS
 10
127.8318728016
 20
114.3125495447
 11
128.5619981095
 21
111.427122422
  0
LINE
  8
AXES
 62
7
  6
CONTINUOUS
 10
127.9619981095
 20
113.7982993348
 11
127.8318729953
 21
114.3125487794
  0
LINE
  8
0
 62
7
  6
CONTINUOUS
 10
130.0671788677
 20
135.427590547
 11
130.8013183353
 21
132.52629962
  0
LINE
  8
0
 62
7
  6
CONTINUOUS
 10
135.3165956702
 20
132.4036458879
 11
135.3165956702
 21
127.7659241801
  0
LINE
  8
0
 62
7
  6
CONTINUOUS
 10
136.0705956702
 20
135.4643866549
 11
136.0705956702
 21
139.7159241801
  0
LINE
  8
0
 62
7
  6
CONTINUOUS
 10
137.0666100334
 20
107.4018142725
 11
137.0666100334
 21
111.3903263141
  0
LINE
  8
0
 62
7
  6
CONTINUOUS
 10
137.8165956702
 20
114.4352017047
 11
137.8165956702
 21
120.2659066657
  0
LINE
  8
0
 62
7
  6
CONTINUOUS
 10
142.3165956702
 20
120.2659241801
 11
142.3165956702
 21
114.4352024723
  0
LINE
  8
0
 62
7
  6
CONTINUOUS
 10
143.066581307
 20
111.3903263141
 11
143.066581307
 21
107.4018142725
  0
LINE
  8
0
 62
7
  6
CONTINUOUS
 10
144.0625956702
 20
135.4643866549
 11
144.0625956702
 21
139.7159241801
  0
LINE
  8
0
 62
7
  6
CONTINUOUS
 10
144.8165956702
 20
132.4036460598
 11
144.8165956702
 21
127.7659429832
  0
LINE
  8
0
 62
7
  6
CONTINUOUS
 10
149.3205956702
 20
127.7659410407
 11
149.3205956702
 21
132.4036458553
  0
LINE
  8
0
 62
7
  6
CONTINUOUS
 10
135.3318729953
 20
132.5262995809
 11
136.0660124727
 21
135.427590547
  0
LINE
  8
AXES
 62
7
  6
CONTINUOUS
 10
137.8013183452
 20
114.3125487794
 11
137.6711932309
 21
113.7982993348
  0
LINE
  8
0
 62
7
  6
CONTINUOUS
 10
137.0711932309
 20
111.427122422
 11
137.8013184471
 21
114.3125491823
  0
LINE
  8
0
 62
7
  6
CONTINUOUS
 10
142.3318728016
 20
114.3125495447
 11
143.0619981095
 21
111.427122422
  0
LINE
  8
AXES
 62
7
  6
CONTINUOUS
 10
142.4619981095
 20
113.7982993348
 11
142.3318729953
 21
114.3125487794
  0
LINE
  8
0
 62
7
  6
CONTINUOUS
 10
144.0671788677
 20
135.427590547
 11
144.8013183353
 21
132.52629962
  0
LINE
  8
0
 62
7
  6
CONTINUOUS
 10
150.0745956702
 20
135.4643866549
 11
150.0745956702
 21
139.7159241801
  0
LINE
  8
0
 62
7
  6
CONTINUOUS
 10
150.8206100334
 20
107.3957023278
 11
150.8206100334
 21
111.3903263141
  0
LINE
  8
0
 62
7
  6
CONTINUOUS
 10
151.5705956702
 20
120.2659241801
 11
151.5705956702
 21
114.4352024723
  0
LINE
  8
0
 62
7
  6
CONTINUOUS
 10
156.0705956702
 20
120.6319077417
 11
156.0705956702
 21
114.4352020933
  0
LINE
  8
0
 62
7
  6
CONTINUOUS
 10
156.820581307
 20
111.3903263141
 11
156.820581307
 21
107.3957023278
  0
LINE
  8
0
 62
7
  6
CONTINUOUS
 10
157.5665956702
 20
135.4643866549
 11
157.5665956702
 21
139.7159241801
  0
LINE
  8
0
 62
7
  6
CONTINUOUS
 10
158.3205956702
 20
132.4036460598
 11
158.3205956702
 21
127.7659429832
  0
LINE
  8
0
 62
7
  6
CONTINUOUS
 10
162.8125956702
 20
132.4036466555
 11
162.8125956702
 21
128.2199411639
  0
LINE
  8
0
 62
7
  6
CONTINUOUS
 10
163.5665956702
 20
135.4643866549
 11
163.5665956702
 21
139.7159241801
  0
LINE
  8
0
 62
7
  6
CONTINUOUS
 10
163.9165956702
 20
107.9164344373
 11
163.9165956702
 21
111.3903263141
  0
LINE
  8
0
 62
7
  6
CONTINUOUS
 10
149.3358729953
 20
132.5262995809
 11
150.0700124727
 21
135.427590547
  0
LINE
  8
AXES
 62
7
  6
CONTINUOUS
 10
151.5553183452
 20
114.3125487794
 11
151.4251932309
 21
113.7982993348
  0
LINE
  8
0
 62
7
  6
CONTINUOUS
 10
150.8251932309
 20
111.427122422
 11
151.5553184471
 21
114.3125491823
  0
LINE
  8
0
 62
7
  6
CONTINUOUS
 10
156.0858728016
 20
114.3125495447
 11
156.8159981095
 21
111.427122422
  0
LINE
  8
AXES
 62
7
  6
CONTINUOUS
 10
156.2159981095
 20
113.7982993348
 11
156.0858729953
 21
114.3125487794
  0
LINE
  8
0
 62
7
  6
CONTINUOUS
 10
157.5711788677
 20
135.427590547
 11
158.3053183353
 21
132.52629962
  0
LINE
  8
0
 62
7
  6
CONTINUOUS
 10
164.6665956702
 20
114.4352584673
 11
164.6665956702
 21
120.6319077518
  0
LINE
  8
0
 62
7
  6
CONTINUOUS
 10
169.1665956702
 20
123.1159241801
 11
169.1665956702
 21
114.4352584676
  0
LINE
  8
0
 62
7
  6
CONTINUOUS
 10
169.9165956702
 20
111.3903263141
 11
169.9165956702
 21
107.9164344373
  0
LINE
  8
0
 62
7
  6
CONTINUOUS
 10
163.5620124727
 20
135.427590547
 11
162.8278728933
 21
132.5262991779
  0
LINE
  8
AXES
 62
7
  6
CONTINUOUS
 10
164.6513183452
 20
114.312605542
 11
164.5211788677
 21
113.7982993348
  0
LINE
  8
0
 62
7
  6
CONTINUOUS
 10
163.9211788677
 20
111.427122422
 11
164.6513184471
 21
114.312605945
  0
LINE
  8
AXES
 62
7
  6
CONTINUOUS
 10
169.1818729953
 20
114.312605542
 11
169.3120124727
 21
113.7982993348
  0
LINE
  8
0
 62
7
  6
CONTINUOUS
 10
169.1818728932
 20
114.3126059454
 11
169.9120124727
 21
111.427122422
  0
LINE
  8
0
 62
7
  6
CONTINUOUS
 10
103.7111387592
 20
123.3644690345
 11
101.5568241257
 21
124.1345226762
  0
LINE
  8
0
 62
7
  6
CONTINUOUS
 10
104.7210842474
 20
140.1164942553
 11
102.9080719573
 21
140.7645503447
  0
LINE
  8
0
 62
7
  6
CONTINUOUS
 10
109.4415956702
 20
106.3659241801
 11
110.4415956702
 21
106.3659241801
  0
LINE
  8
0
 62
7
  6
CONTINUOUS
 10
125.0665956702
 20
106.3659241801
 11
126.0665956702
 21
106.3659241801
  0
LINE
  8
0
 62
7
  6
CONTINUOUS
 10
139.5665956702
 20
106.3659241801
 11
140.5665956702
 21
106.3659241801
  0
LINE
  8
0
 62
7
  6
CONTINUOUS
 10
153.3205956702
 20
106.3659241801
 11
154.3205956702
 21
106.3659241801
  0
LINE
  8
DEFAULT_1
 62
2
  6
CENTER
 10
104.9416100334
 20
110.7159241801
 11
171.9165956702
 21
110.7159241801
  0
POLYLINE
  8
0
 62
7
  6
CONTINUOUS
 66
1
 70
0
  0
VERTEX
  8
0
 62
7
  6
CONTINUOUS
 10
110.7205956702
 20
126.5845835776
  0
VERTEX
  8
0
 62
7
  6
CONTINUOUS
 10
110.9150448847
 20
126.5940315924
  0
VERTEX
  8
0
 62
7
  6
CONTINUOUS
 10
111.1088163587
 20
126.622516051
  0
VERTEX
  8
0
 62
7
  6
CONTINUOUS
 10
111.2990452677
 20
126.6698200421
  0
VERTEX
  8
0
 62
7
  6
CONTINUOUS
 10
111.4830760604
 20
126.7352099134
  0
VERTEX
  8
0
 62
7
  6
CONTINUOUS
 10
111.660064433
 20
126.8183225444
  0
VERTEX
  8
0
 62
7
  6
CONTINUOUS
 10
111.829104957
 20
126.9189811526
  0
VERTEX
  8
0
 62
7
  6
CONTINUOUS
 10
111.9876068349
 20
127.03590561
  0
VERTEX
  8
0
 62
7
  6
CONTINUOUS
 10
112.1333193412
 20
127.1673645709
  0
VERTEX
  8
0
 62
7
  6
CONTINUOUS
 10
112.2650891676
 20
127.3120917662
  0
VERTEX
  8
0
 62
7
  6
CONTINUOUS
 10
112.3824908714
 20
127.4696986485
  0
VERTEX
  8
0
 62
7
  6
CONTINUOUS
 10
112.4839387572
 20
127.6383365516
  0
VERTEX
  8
0
 62
7
  6
CONTINUOUS
 10
112.5679792733
 20
127.815465299
  0
VERTEX
  8
0
 62
7
  6
CONTINUOUS
 10
112.6341937586
 20
127.9999281865
  0
VERTEX
  8
0
 62
7
  6
CONTINUOUS
 10
112.6821288141
 20
128.1907708813
  0
VERTEX
  8
0
 62
7
  6
CONTINUOUS
 10
112.7110115961
 20
128.3853165462
  0
VERTEX
  8
0
 62
7
  6
CONTINUOUS
 10
112.7205956702
 20
128.5806497271
  0
SEQEND
  0
POLYLINE
  8
0
 62
7
  6
CONTINUOUS
 66
1
 70
0
  0
VERTEX
  8
0
 62
7
  6
CONTINUOUS
 10
104.9090998406
 20
126.5830430129
  0
VERTEX
  8
0
 62
7
  6
CONTINUOUS
 10
104.878176557
 20
126.5824066244
  0
VERTEX
  8
0
 62
7
  6
CONTINUOUS
 10
104.8535027826
 20
126.5816981483
  0
VERTEX
  8
0
 62
7
  6
CONTINUOUS
 10
104.8354195038
 20
126.5809305979
  0
VERTEX
  8
0
 62
7
  6
CONTINUOUS
 10
104.8243047747
 20
126.5801164907
  0
VERTEX
  8
0
 62
7
  6
CONTINUOUS
 10
104.8205956702
 20
126.57928618
  0
SEQEND
  0
LINE
  8
0
 62
7
  6
CONTINUOUS
 10
104.9852691461
 20
126.5840139073
 11
104.9090998406
 21
126.5830430129
  0
LINE
  8
0
 62
7
  6
CONTINUOUS
 10
105.0741639081
 20
126.5845197334
 11
104.9852691461
 21
126.5840139073
  0
LINE
  8
0
 62
7
  6
CONTINUOUS
 10
162.6665956702
 20
122.6319241801
 11
158.0705956702
 21
122.6319241801
  0
LINE
  8
0
 62
7
  6
CONTINUOUS
 10
148.8705956702
 20
122.9659241801
 11
145.0165956702
 21
122.9659241801
  0
LINE
  8
0
 62
7
  6
CONTINUOUS
 10
135.1165956702
 20
122.9659241801
 11
130.5165956702
 21
122.9659241801
  0
LINE
  8
0
 62
7
  6
CONTINUOUS
 10
116.1915956702
 20
123.1159241801
 11
120.3165956702
 21
123.1159241801
  0
LINE
  8
0
 62
7
  6
CONTINUOUS
 10
109.5666140908
 20
123.6659241801
 11
111.3165769196
 21
123.6659241801
  0
LINE
  8
0
 62
7
  6
CONTINUOUS
 10
126.3165776398
 20
123.7659241801
 11
124.8166159517
 21
123.7659241801
  0
LINE
  8
0
 62
7
  6
CONTINUOUS
 10
154.4705956702
 20
123.9159241801
 11
153.1705956702
 21
123.9159241801
  0
LINE
  8
0
 62
7
  6
CONTINUOUS
 10
140.9665956702
 20
123.9159241801
 11
139.1665956702
 21
123.9159241801
  0
LINE
  8
0
 62
7
  6
CONTINUOUS
 10
166.9165956702
 20
124.1159241801
 11
168.1665956702
 21
124.1159241801
  0
LINE
  8
0
 62
7
  6
CONTINUOUS
 10
105.0741639081
 20
126.5845197334
 11
110.7205956702
 21
126.5845835776
  0
LINE
  8
0
 62
7
  6
CONTINUOUS
 10
104.8205956702
 20
133.204979599
 11
105.1532595441
 21
133.204979599
  0
LINE
  8
0
 62
7
  6
CONTINUOUS
 10
105.1205956702
 20
133.404979599
 11
110.7205956702
 21
133.404979599
  0
LINE
  8
0
 62
7
  6
CONTINUOUS
 10
105.1532595521
 20
126.7845835776
 11
104.8205956702
 21
126.7845835776
  0
LINE
  8
AXES
 62
2
  6
CENTER
 10
99.5665956702
 20
136.1159241801
 11
165.5665956702
 21
136.1159241801
  0
LINE
  8
0
 62
7
  6
CONTINUOUS
 10
115.8125956702
 20
140.4659241801
 11
120.3205956702
 21
140.4659241801
  0
LINE
  8
0
 62
7
  6
CONTINUOUS
 10
130.8125956702
 20
140.4659241801
 11
135.3205956702
 21
140.4659241801
  0
LINE
  8
0
 62
7
  6
CONTINUOUS
 10
144.8125956702
 20
140.4659241801
 11
149.3245956702
 21
140.4659241801
  0
LINE
  8
0
 62
7
  6
CONTINUOUS
 10
158.3165956702
 20
140.4659241801
 11
162.8165956702
 21
140.4659241801
  0
LINE
  8
0
 62
7
  6
CONTINUOUS
 10
296.4514182236
 20
106.3659241801
 11
300.4514182236
 21
106.3659241801
  0
LINE
  8
DEFAULT_1
 62
2
  6
CENTER
 10
303.7014182236
 20
110.7159241801
 11
300.4515182236
 21
110.7159241801
  0
LINE
  8
0
 62
2
  6
CONTINUOUS
 10
299.5014182236
 20
110.7159241801
 11
297.4014182236
 21
110.7159241801
  0
LINE
  8
DEFAULT_1
 62
2
  6
CENTER
 10
293.2014182236
 20
110.7159241801
 11
296.4513182236
 21
110.7159241801
  0
LINE
  8
0
 62
7
  6
CONTINUOUS
 10
278.4535504914
 20
127.6504224419
 11
278.4535504914
 21
131.8106779398
  0
LINE
  8
0
 62
7
  6
CONTINUOUS
 10
279.4360980849
 20
126.6487737481
 11
292.0583991862
 21
126.4284506628
  0
LINE
  8
0
 62
7
  6
CONTINUOUS
 10
292.4514182236
 20
110.3659241801
 11
292.4514182236
 21
136.4659241801
  0
POLYLINE
  8
0
 62
7
  6
CONTINUOUS
 66
1
 70
0
  0
VERTEX
  8
0
 62
7
  6
CONTINUOUS
 10
292.8701167146
 20
138.4660043584
  0
VERTEX
  8
0
 62
7
  6
CONTINUOUS
 10
292.7498991129
 20
138.1360925088
  0
VERTEX
  8
0
 62
7
  6
CONTINUOUS
 10
292.6418203445
 20
137.7695945921
  0
VERTEX
  8
0
 62
7
  6
CONTINUOUS
 10
292.5575090334
 20
137.3956336037
  0
VERTEX
  8
0
 62
7
  6
CONTINUOUS
 10
292.4974273379
 20
137.0157510811
  0
VERTEX
  8
0
 62
7
  6
CONTINUOUS
 10
292.4619809037
 20
136.6315127677
  0
VERTEX
  8
0
 62
7
  6
CONTINUOUS
 10
292.4514183573
 20
136.276922943
  0
SEQEND
  0
LINE
  8
AXES
 62
7
  6
CONTINUOUS
 10
296.3514182236
 20
110.7159241801
 11
296.3514182236
 21
118.7659241801
  0
LINE
  8
0
 62
7
  6
CONTINUOUS
 10
292.1140733817
 20
134.8324227781
 11
279.2969125961
 21
132.7996776852
  0
LINE
  8
AXES
 62
2
  6
CENTER
 10
303.7014182236
 20
136.1159241801
 11
302.5514182236
 21
136.1159241801
  0
LINE
  8
AXES
 62
2
  6
CONTINUOUS
 10
299.5014182236
 20
136.1159241801
 11
297.4014182236
 21
136.1159241801
  0
LINE
  8
AXES
 62
2
  6
CENTER
 10
293.2014182236
 20
136.1159241801
 11
294.3514182236
 21
136.1159241801
  0
LINE
  8
AXES
 62
2
  6
CENTER
 10
298.4514182236
 20
141.3659241801
 11
298.4514182236
 21
140.2159241801
  0
LINE
  8
AXES
 62
2
  6
CONTINUOUS
 10
298.4514182236
 20
137.1659241801
 11
298.4514182236
 21
135.0659241801
  0
LINE
  8
DEFAULT_1
 62
2
  6
CENTER
 10
298.4514182236
 20
115.9659241801
 11
298.4514182236
 21
112.7160241801
  0
LINE
  8
0
 62
2
  6
CONTINUOUS
 10
298.4514182236
 20
111.7659241801
 11
298.4514182236
 21
109.6659241801
  0
LINE
  8
DEFAULT_1
 62
2
  6
CENTER
 10
298.4514182236
 20
105.4659241801
 11
298.4514182236
 21
108.7158241801
  0
LINE
  8
AXES
 62
2
  6
CENTER
 10
298.4514182236
 20
130.8659241801
 11
298.4514182236
 21
132.0159241801
  0
LINE
  8
AXES
 62
7
  6
CONTINUOUS
 10
300.5514182236
 20
110.7159241801
 11
300.5514182236
 21
118.7659241801
  0
POLYLINE
  8
0
 62
7
  6
CONTINUOUS
 66
1
 70
0
  0
VERTEX
  8
0
 62
7
  6
CONTINUOUS
 10
296.5714694001
 20
140.910423522
  0
VERTEX
  8
0
 62
7
  6
CONTINUOUS
 10
296.3324520187
 20
140.90459605
  0
VERTEX
  8
0
 62
7
  6
CONTINUOUS
 10
296.0049783562
 20
140.8768748981
  0
VERTEX
  8
0
 62
7
  6
CONTINUOUS
 10
295.6960784116
 20
140.8283575235
  0
VERTEX
  8
0
 62
7
  6
CONTINUOUS
 10
295.4051260363
 20
140.7610360344
  0
VERTEX
  8
0
 62
7
  6
CONTINUOUS
 10
295.1307302318
 20
140.6763956404
  0
VERTEX
  8
0
 62
7
  6
CONTINUOUS
 10
294.8715799528
 20
140.5754925058
  0
VERTEX
  8
0
 62
7
  6
CONTINUOUS
 10
294.6272391786
 20
140.4593810809
  0
VERTEX
  8
0
 62
7
  6
CONTINUOUS
 10
294.3980617764
 20
140.3294334711
  0
VERTEX
  8
0
 62
7
  6
CONTINUOUS
 10
294.1843897576
 20
140.1871681288
  0
VERTEX
  8
0
 62
7
  6
CONTINUOUS
 10
293.9864880263
 20
140.0342543848
  0
VERTEX
  8
0
 62
7
  6
CONTINUOUS
 10
293.8044636879
 20
139.8724689039
  0
VERTEX
  8
0
 62
7
  6
CONTINUOUS
 10
293.6382789394
 20
139.7036988875
  0
VERTEX
  8
0
 62
7
  6
CONTINUOUS
 10
293.4876509479
 20
139.5298141088
  0
VERTEX
  8
0
 62
7
  6
CONTINUOUS
 10
293.3517143915
 20
139.3521092628
  0
VERTEX
  8
0
 62
7
  6
CONTINUOUS
 10
293.2294714544
 20
139.1715880218
  0
VERTEX
  8
0
 62
7
  6
CONTINUOUS
 10
293.1199456465
 20
138.9891045457
  0
VERTEX
  8
0
 62
7
  6
CONTINUOUS
 10
293.0221870534
 20
138.8053656374
  0
VERTEX
  8
0
 62
7
  6
CONTINUOUS
 10
292.9352674926
 20
138.6208991037
  0
VERTEX
  8
0
 62
7
  6
CONTINUOUS
 10
292.8701169108
 20
138.4660042801
  0
SEQEND
  0
LINE
  8
0
 62
7
  6
CONTINUOUS
 10
300.4122940678
 20
140.9104225384
 11
296.5703189893
 21
140.9104225161
  0
POLYLINE
  8
0
 62
7
  6
CONTINUOUS
 66
1
 70
0
  0
VERTEX
  8
0
 62
7
  6
CONTINUOUS
 10
303.9651314167
 20
138.4711792814
  0
VERTEX
  8
0
 62
7
  6
CONTINUOUS
 10
303.8875424565
 20
138.6387978754
  0
VERTEX
  8
0
 62
7
  6
CONTINUOUS
 10
303.7885615662
 20
138.8331211897
  0
VERTEX
  8
0
 62
7
  6
CONTINUOUS
 10
303.6791052236
 20
139.0265707304
  0
VERTEX
  8
0
 62
7
  6
CONTINUOUS
 10
303.5582862766
 20
139.2182587265
  0
VERTEX
  8
0
 62
7
  6
CONTINUOUS
 10
303.42523132
 20
139.4071468099
  0
VERTEX
  8
0
 62
7
  6
CONTINUOUS
 10
303.2790648521
 20
139.5920871476
  0
VERTEX
  8
0
 62
7
  6
CONTINUOUS
 10
303.1189187921
 20
139.771810281
  0
VERTEX
  8
0
 62
7
  6
CONTINUOUS
 10
302.9439611692
 20
139.9449019325
  0
VERTEX
  8
0
 62
7
  6
CONTINUOUS
 10
302.7534078422
 20
140.1098087712
  0
VERTEX
  8
0
 62
7
  6
CONTINUOUS
 10
302.5465820409
 20
140.2648106116
  0
VERTEX
  8
0
 62
7
  6
CONTINUOUS
 10
302.3232794186
 20
140.4078429398
  0
VERTEX
  8
0
 62
7
  6
CONTINUOUS
 10
302.083541089
 20
140.5368172392
  0
VERTEX
  8
0
 62
7
  6
CONTINUOUS
 10
301.8274982104
 20
140.6497467948
  0
VERTEX
  8
0
 62
7
  6
CONTINUOUS
 10
301.5551810735
 20
140.7447882638
  0
VERTEX
  8
0
 62
7
  6
CONTINUOUS
 10
301.2664198757
 20
140.8201657815
  0
VERTEX
  8
0
 62
7
  6
CONTINUOUS
 10
300.9610696001
 20
140.8740109058
  0
VERTEX
  8
0
 62
7
  6
CONTINUOUS
 10
300.640022106
 20
140.9042766757
  0
VERTEX
  8
0
 62
7
  6
CONTINUOUS
 10
300.4115377167
 20
140.9104230235
  0
SEQEND
  0
POLYLINE
  8
0
 62
7
  6
CONTINUOUS
 66
1
 70
0
  0
VERTEX
  8
0
 62
7
  6
CONTINUOUS
 10
304.1228259091
 20
138.0785569264
  0
VERTEX
  8
0
 62
7
  6
CONTINUOUS
 10
304.076767384
 20
138.2017683529
  0
VERTEX
  8
0
 62
7
  6
CONTINUOUS
 10
304.016336665
 20
138.3521565412
  0
VERTEX
  8
0
 62
7
  6
CONTINUOUS
 10
303.965131667
 20
138.4711793923
  0
SEQEND
  0
LINE
  8
0
 62
7
  6
CONTINUOUS
 10
304.1228258984
 20
138.0785568514
 11
304.1230979185
 21
138.0778040836
  0
LINE
  8
0
 62
7
  6
CONTINUOUS
 10
101.0057382072
 20
193.3967544998
 11
100.2874208958
 21
205.1411387268
  0
LINE
  8
0
 62
7
  6
CONTINUOUS
 10
99.5665956702
 20
219.4594877638
 11
99.5665956702
 21
205.666719311
  0
POLYLINE
  8
0
 62
7
  6
CONTINUOUS
 66
1
 70
0
  0
VERTEX
  8
0
 62
7
  6
CONTINUOUS
 10
112.9415808669
 20
217.26463115
  0
VERTEX
  8
0
 62
7
  6
CONTINUOUS
 10
112.9408100079
 20
217.3005415284
  0
VERTEX
  8
0
 62
7
  6
CONTINUOUS
 10
112.9383598038
 20
217.3395724293
  0
VERTEX
  8
0
 62
7
  6
CONTINUOUS
 10
112.934346093
 20
217.3791645052
  0
VERTEX
  8
0
 62
7
  6
CONTINUOUS
 10
112.9289698122
 20
217.4186179169
  0
VERTEX
  8
0
 62
7
  6
CONTINUOUS
 10
112.9224488175
 20
217.457501044
  0
VERTEX
  8
0
 62
7
  6
CONTINUOUS
 10
112.9149564807
 20
217.4956949286
  0
VERTEX
  8
0
 62
7
  6
CONTINUOUS
 10
112.906619946
 20
217.5332163306
  0
VERTEX
  8
0
 62
7
  6
CONTINUOUS
 10
112.8975397668
 20
217.5700902928
  0
VERTEX
  8
0
 62
7
  6
CONTINUOUS
 10
112.8877982902
 20
217.6063446926
  0
VERTEX
  8
0
 62
7
  6
CONTINUOUS
 10
112.8774692885
 20
217.6419887112
  0
VERTEX
  8
0
 62
7
  6
CONTINUOUS
 10
112.8666006674
 20
217.6770707363
  0
VERTEX
  8
0
 62
7
  6
CONTINUOUS
 10
112.8552057719
 20
217.7117097877
  0
VERTEX
  8
0
 62
7
  6
CONTINUOUS
 10
112.8432965671
 20
217.7459886055
  0
VERTEX
  8
0
 62
7
  6
CONTINUOUS
 10
112.8308767491
 20
217.7799766792
  0
VERTEX
  8
0
 62
7
  6
CONTINUOUS
 10
112.8179455079
 20
217.8137386249
  0
VERTEX
  8
0
 62
7
  6
CONTINUOUS
 10
112.8045025029
 20
217.8473134929
  0
VERTEX
  8
0
 62
7
  6
CONTINUOUS
 10
112.790536231
 20
217.8807566168
  0
VERTEX
  8
0
 62
7
  6
CONTINUOUS
 10
112.7760415258
 20
217.9140924513
  0
VERTEX
  8
0
 62
7
  6
CONTINUOUS
 10
112.761003182
 20
217.9473587155
  0
VERTEX
  8
0
 62
7
  6
CONTINUOUS
 10
112.7454133162
 20
217.9805670351
  0
VERTEX
  8
0
 62
7
  6
CONTINUOUS
 10
112.7292554095
 20
218.0137391947
  0
VERTEX
  8
0
 62
7
  6
CONTINUOUS
 10
112.7125322005
 20
218.0468517606
  0
VERTEX
  8
0
 62
7
  6
CONTINUOUS
 10
112.6952456831
 20
218.0798802817
  0
VERTEX
  8
0
 62
7
  6
CONTINUOUS
 10
112.6774061807
 20
218.112783058
  0
VERTEX
  8
0
 62
7
  6
CONTINUOUS
 10
112.6590153174
 20
218.1455345069
  0
VERTEX
  8
0
 62
7
  6
CONTINUOUS
 10
112.6400826121
 20
218.1780921576
  0
VERTEX
  8
0
 62
7
  6
CONTINUOUS
 10
112.6206146006
 20
218.210420771
  0
VERTEX
  8
0
 62
7
  6
CONTINUOUS
 10
112.6006238838
 20
218.24247155
  0
VERTEX
  8
0
 62
7
  6
CONTINUOUS
 10
112.5801220123
 20
218.2742013846
  0
VERTEX
  8
0
 62
7
  6
CONTINUOUS
 10
112.5591164938
 20
218.3055699298
  0
VERTEX
  8
0
 62
7
  6
CONTINUOUS
 10
112.5376214477
 20
218.3365289264
  0
VERTEX
  8
0
 62
7
  6
CONTINUOUS
 10
112.5156412039
 20
218.3670435872
  0
VERTEX
  8
0
 62
7
  6
CONTINUOUS
 10
112.49318708
 20
218.3970668844
  0
VERTEX
  8
0
 62
7
  6
CONTINUOUS
 10
112.4702669939
 20
218.4265588126
  0
VERTEX
  8
0
 62
7
  6
CONTINUOUS
 10
112.4468300143
 20
218.4555468097
  0
VERTEX
  8
0
 62
7
  6
CONTINUOUS
 10
112.4227113986
 20
218.4841791307
  0
VERTEX
  8
0
 62
7
  6
CONTINUOUS
 10
112.3977140509
 20
218.5126062587
  0
VERTEX
  8
0
 62
7
  6
CONTINUOUS
 10
112.3716334117
 20
218.5409403159
  0
VERTEX
  8
0
 62
7
  6
CONTINUOUS
 10
112.3442628536
 20
218.56925148
  0
VERTEX
  8
0
 62
7
  6
CONTINUOUS
 10
112.3153667814
 20
218.5975876259
  0
VERTEX
  8
0
 62
7
  6
CONTINUOUS
 10
112.2925666821
 20
218.6188339661
  0
SEQEND
  0
LINE
  8
0
 62
7
  6
CONTINUOUS
 10
104.8205956702
 20
205.516719311
 11
104.8205956702
 21
196.482339284
  0
LINE
  8
0
 62
7
  6
CONTINUOUS
 10
104.8559454932
 20
205.516719311
 11
104.855945492
 21
196.5128591941
  0
LINE
  8
0
 62
7
  6
CONTINUOUS
 10
104.9705956702
 20
196.7717318392
 11
104.9705956702
 21
205.516719311
  0
LINE
  8
0
 62
7
  6
CONTINUOUS
 10
106.9416100334
 20
206.266719311
 11
106.9416100334
 21
217.2646311511
  0
LINE
  8
0
 62
7
  6
CONTINUOUS
 10
107.6915956702
 20
219.2260955181
 11
107.6915956702
 21
218.7087652995
  0
LINE
  8
0
 62
7
  6
CONTINUOUS
 10
112.1915956702
 20
218.7087612745
 11
112.1915956702
 21
219.3902028133
  0
LINE
  8
0
 62
7
  6
CONTINUOUS
 10
112.7205956702
 20
196.4717275567
 11
112.7205956702
 21
192.5188515788
  0
LINE
  8
0
 62
7
  6
CONTINUOUS
 10
112.941581307
 20
217.2646670663
 11
112.941581307
 21
206.266719311
  0
LINE
  8
0
 62
7
  6
CONTINUOUS
 10
121.2665956702
 20
209.4173637642
 11
121.2665956702
 21
205.666719311
  0
LINE
  8
0
 62
7
  6
CONTINUOUS
 10
122.5666100334
 20
206.5304572071
 11
122.5666100334
 21
217.2646311511
  0
LINE
  8
0
 62
7
  6
CONTINUOUS
 10
123.3165956702
 20
219.4789304259
 11
123.3165956702
 21
218.7087652995
  0
LINE
  8
0
 62
7
  6
CONTINUOUS
 10
127.8165956702
 20
219.490212218
 11
127.8165956702
 21
218.7087652998
  0
POLYLINE
  8
AXES
 62
7
  6
CONTINUOUS
 66
1
 70
0
  0
VERTEX
  8
AXES
 62
7
  6
CONTINUOUS
 10
122.5666100334
 20
210.1957000987
  0
VERTEX
  8
AXES
 62
7
  6
CONTINUOUS
 10
122.563618813
 20
210.1596937468
  0
VERTEX
  8
AXES
 62
7
  6
CONTINUOUS
 10
122.5555404118
 20
210.1287218511
  0
VERTEX
  8
AXES
 62
7
  6
CONTINUOUS
 10
122.5433609271
 20
210.1023122047
  0
VERTEX
  8
AXES
 62
7
  6
CONTINUOUS
 10
122.5280124377
 20
210.0804216222
  0
VERTEX
  8
AXES
 62
7
  6
CONTINUOUS
 10
122.510468219
 20
210.0629592188
  0
VERTEX
  8
AXES
 62
7
  6
CONTINUOUS
 10
122.4911979519
 20
210.0493907137
  0
VERTEX
  8
AXES
 62
7
  6
CONTINUOUS
 10
122.4702625901
 20
210.0392866851
  0
VERTEX
  8
AXES
 62
7
  6
CONTINUOUS
 10
122.4484269094
 20
210.0327393094
  0
SEQEND
  0
POLYLINE
  8
AXES
 62
7
  6
CONTINUOUS
 66
1
 70
0
  0
VERTEX
  8
AXES
 62
7
  6
CONTINUOUS
 10
106.9416100334
 20
210.5326094797
  0
VERTEX
  8
AXES
 62
7
  6
CONTINUOUS
 10
106.9270073282
 20
210.5801562456
  0
VERTEX
  8
AXES
 62
7
  6
CONTINUOUS
 10
106.8808343559
 20
210.764309359
  0
VERTEX
  8
AXES
 62
7
  6
CONTINUOUS
 10
106.8444220361
 20
210.9513382531
  0
VERTEX
  8
AXES
 62
7
  6
CONTINUOUS
 10
106.8183205257
 20
211.1392618356
  0
VERTEX
  8
AXES
 62
7
  6
CONTINUOUS
 10
106.8025964266
 20
211.3281261051
  0
VERTEX
  8
AXES
 62
7
  6
CONTINUOUS
 10
106.7973687328
 20
211.5168919419
  0
VERTEX
  8
AXES
 62
7
  6
CONTINUOUS
 10
106.8026164278
 20
211.705672892
  0
VERTEX
  8
AXES
 62
7
  6
CONTINUOUS
 10
106.8183599405
 20
211.8945313996
  0
VERTEX
  8
AXES
 62
7
  6
CONTINUOUS
 10
106.8444795669
 20
212.082445252
  0
VERTEX
  8
AXES
 62
7
  6
CONTINUOUS
 10
106.8809115566
 20
212.2694757655
  0
VERTEX
  8
AXES
 62
7
  6
CONTINUOUS
 10
106.9270986227
 20
212.453609592
  0
VERTEX
  8
AXES
 62
7
  6
CONTINUOUS
 10
106.9416100334
 20
212.5008433743
  0
SEQEND
  0
POLYLINE
  8
0
 62
7
  6
CONTINUOUS
 66
1
 70
0
  0
VERTEX
  8
0
 62
7
  6
CONTINUOUS
 10
128.5665811789
 20
217.2646311528
  0
VERTEX
  8
0
 62
7
  6
CONTINUOUS
 10
128.5656011555
 20
217.3052269336
  0
VERTEX
  8
0
 62
7
  6
CONTINUOUS
 10
128.5628911484
 20
217.3450653379
  0
VERTEX
  8
0
 62
7
  6
CONTINUOUS
 10
128.5585834265
 20
217.3854016054
  0
VERTEX
  8
0
 62
7
  6
CONTINUOUS
 10
128.5528940133
 20
217.4255400596
  0
VERTEX
  8
0
 62
7
  6
CONTINUOUS
 10
128.5460499153
 20
217.465054323
  0
VERTEX
  8
0
 62
7
  6
CONTINUOUS
 10
128.5382235814
 20
217.5038568231
  0
VERTEX
  8
0
 62
7
  6
CONTINUOUS
 10
128.5295415927
 20
217.5419722389
  0
VERTEX
  8
0
 62
7
  6
CONTINUOUS
 10
128.5201050748
 20
217.5794319664
  0
VERTEX
  8
0
 62
7
  6
CONTINUOUS
 10
128.5099989048
 20
217.6162589423
  0
VERTEX
  8
0
 62
7
  6
CONTINUOUS
 10
128.4992987502
 20
217.6524547995
  0
VERTEX
  8
0
 62
7
  6
CONTINUOUS
 10
128.4880417541
 20
217.6881041738
  0
VERTEX
  8
0
 62
7
  6
CONTINUOUS
 10
128.4762408022
 20
217.7233234639
  0
VERTEX
  8
0
 62
7
  6
CONTINUOUS
 10
128.4639074157
 20
217.7581904128
  0
VERTEX
  8
0
 62
7
  6
CONTINUOUS
 10
128.4510431942
 20
217.7927774847
  0
VERTEX
  8
0
 62
7
  6
CONTINUOUS
 10
128.4376474168
 20
217.8271448399
  0
VERTEX
  8
0
 62
7
  6
CONTINUOUS
 10
128.4237160336
 20
217.8613370902
  0
VERTEX
  8
0
 62
7
  6
CONTINUOUS
 10
128.4092353319
 20
217.8954101694
  0
VERTEX
  8
0
 62
7
  6
CONTINUOUS
 10
128.3941969181
 20
217.929391617
  0
VERTEX
  8
0
 62
7
  6
CONTINUOUS
 10
128.378583193
 20
217.9633184879
  0
VERTEX
  8
0
 62
7
  6
CONTINUOUS
 10
128.3623828154
 20
217.9972051073
  0
VERTEX
  8
0
 62
7
  6
CONTINUOUS
 10
128.3455829271
 20
218.0310591321
  0
VERTEX
  8
0
 62
7
  6
CONTINUOUS
 10
128.3281964861
 20
218.0648344781
  0
VERTEX
  8
0
 62
7
  6
CONTINUOUS
 10
128.3102334564
 20
218.0984886457
  0
VERTEX
  8
0
 62
7
  6
CONTINUOUS
 10
128.2917100938
 20
218.1319704331
  0
VERTEX
  8
0
 62
7
  6
CONTINUOUS
 10
128.2726355479
 20
218.1652397975
  0
VERTEX
  8
0
 62
7
  6
CONTINUOUS
 10
128.2530220652
 20
218.1982529725
  0
VERTEX
  8
0
 62
7
  6
CONTINUOUS
 10
128.2328663403
 20
218.2309899552
  0
VERTEX
  8
0
 62
7
  6
CONTINUOUS
 10
128.2121721162
 20
218.263416833
  0
VERTEX
  8
0
 62
7
  6
CONTINUOUS
 10
128.1909340627
 20
218.2955122374
  0
VERTEX
  8
0
 62
7
  6
CONTINUOUS
 10
128.1691528897
 20
218.3272406583
  0
VERTEX
  8
0
 62
7
  6
CONTINUOUS
 10
128.146824339
 20
218.3585739609
  0
VERTEX
  8
0
 62
7
  6
CONTINUOUS
 10
128.123942619
 20
218.3894795122
  0
VERTEX
  8
0
 62
7
  6
CONTINUOUS
 10
128.1005060401
 20
218.4199183866
  0
VERTEX
  8
0
 62
7
  6
CONTINUOUS
 10
128.0764760256
 20
218.4498926866
  0
VERTEX
  8
0
 62
7
  6
CONTINUOUS
 10
128.0516966789
 20
218.4795304004
  0
VERTEX
  8
0
 62
7
  6
CONTINUOUS
 10
128.0259636104
 20
218.5089816586
  0
VERTEX
  8
0
 62
7
  6
CONTINUOUS
 10
127.9990583393
 20
218.5383621107
  0
VERTEX
  8
0
 62
7
  6
CONTINUOUS
 10
127.9707622861
 20
218.5677377929
  0
VERTEX
  8
0
 62
7
  6
CONTINUOUS
 10
127.9408263455
 20
218.5971492661
  0
VERTEX
  8
0
 62
7
  6
CONTINUOUS
 10
127.9175663984
 20
218.6188340672
  0
SEQEND
  0
LINE
  8
0
 62
7
  6
CONTINUOUS
 10
128.566581307
 20
217.2646311488
 11
128.566581307
 21
206.5304574279
  0
LINE
  8
0
 62
7
  6
CONTINUOUS
 10
129.8665956702
 20
209.4173636443
 11
129.8665956702
 21
205.666719311
  0
LINE
  8
0
 62
7
  6
CONTINUOUS
 10
137.0666100334
 20
206.266719311
 11
137.0666100334
 21
217.2646311511
  0
LINE
  8
0
 62
7
  6
CONTINUOUS
 10
137.8165956702
 20
218.70876128
 11
137.8165956702
 21
219.4902105285
  0
POLYLINE
  8
0
 62
7
  6
CONTINUOUS
 66
1
 70
0
  0
VERTEX
  8
0
 62
7
  6
CONTINUOUS
 10
143.0665811789
 20
217.2646311528
  0
VERTEX
  8
0
 62
7
  6
CONTINUOUS
 10
143.0656011555
 20
217.3052269336
  0
VERTEX
  8
0
 62
7
  6
CONTINUOUS
 10
143.0628911484
 20
217.3450653379
  0
VERTEX
  8
0
 62
7
  6
CONTINUOUS
 10
143.0585834265
 20
217.3854016054
  0
VERTEX
  8
0
 62
7
  6
CONTINUOUS
 10
143.0528940133
 20
217.4255400596
  0
VERTEX
  8
0
 62
7
  6
CONTINUOUS
 10
143.0460499153
 20
217.465054323
  0
VERTEX
  8
0
 62
7
  6
CONTINUOUS
 10
143.0382235814
 20
217.5038568231
  0
VERTEX
  8
0
 62
7
  6
CONTINUOUS
 10
143.0295415927
 20
217.5419722389
  0
VERTEX
  8
0
 62
7
  6
CONTINUOUS
 10
143.0201050748
 20
217.5794319664
  0
VERTEX
  8
0
 62
7
  6
CONTINUOUS
 10
143.0099989048
 20
217.6162589423
  0
VERTEX
  8
0
 62
7
  6
CONTINUOUS
 10
142.9992987502
 20
217.6524547995
  0
VERTEX
  8
0
 62
7
  6
CONTINUOUS
 10
142.9880417541
 20
217.6881041738
  0
VERTEX
  8
0
 62
7
  6
CONTINUOUS
 10
142.9762408022
 20
217.7233234639
  0
VERTEX
  8
0
 62
7
  6
CONTINUOUS
 10
142.9639074157
 20
217.7581904128
  0
VERTEX
  8
0
 62
7
  6
CONTINUOUS
 10
142.9510431942
 20
217.7927774847
  0
VERTEX
  8
0
 62
7
  6
CONTINUOUS
 10
142.9376474168
 20
217.8271448399
  0
VERTEX
  8
0
 62
7
  6
CONTINUOUS
 10
142.9237160336
 20
217.8613370902
  0
VERTEX
  8
0
 62
7
  6
CONTINUOUS
 10
142.9092353319
 20
217.8954101694
  0
VERTEX
  8
0
 62
7
  6
CONTINUOUS
 10
142.8941969181
 20
217.929391617
  0
VERTEX
  8
0
 62
7
  6
CONTINUOUS
 10
142.878583193
 20
217.9633184879
  0
VERTEX
  8
0
 62
7
  6
CONTINUOUS
 10
142.8623828154
 20
217.9972051073
  0
VERTEX
  8
0
 62
7
  6
CONTINUOUS
 10
142.8455829271
 20
218.0310591321
  0
VERTEX
  8
0
 62
7
  6
CONTINUOUS
 10
142.8281964861
 20
218.0648344781
  0
VERTEX
  8
0
 62
7
  6
CONTINUOUS
 10
142.8102334564
 20
218.0984886457
  0
VERTEX
  8
0
 62
7
  6
CONTINUOUS
 10
142.7917100938
 20
218.1319704331
  0
VERTEX
  8
0
 62
7
  6
CONTINUOUS
 10
142.7726355479
 20
218.1652397975
  0
VERTEX
  8
0
 62
7
  6
CONTINUOUS
 10
142.7530220652
 20
218.1982529725
  0
VERTEX
  8
0
 62
7
  6
CONTINUOUS
 10
142.7328663403
 20
218.2309899552
  0
VERTEX
  8
0
 62
7
  6
CONTINUOUS
 10
142.7121721162
 20
218.263416833
  0
VERTEX
  8
0
 62
7
  6
CONTINUOUS
 10
142.6909340627
 20
218.2955122374
  0
VERTEX
  8
0
 62
7
  6
CONTINUOUS
 10
142.6691528897
 20
218.3272406583
  0
VERTEX
  8
0
 62
7
  6
CONTINUOUS
 10
142.646824339
 20
218.3585739609
  0
VERTEX
  8
0
 62
7
  6
CONTINUOUS
 10
142.623942619
 20
218.3894795122
  0
VERTEX
  8
0
 62
7
  6
CONTINUOUS
 10
142.6005060401
 20
218.4199183866
  0
VERTEX
  8
0
 62
7
  6
CONTINUOUS
 10
142.5764760256
 20
218.4498926866
  0
VERTEX
  8
0
 62
7
  6
CONTINUOUS
 10
142.5516966789
 20
218.4795304004
  0
VERTEX
  8
0
 62
7
  6
CONTINUOUS
 10
142.5259636104
 20
218.5089816586
  0
VERTEX
  8
0
 62
7
  6
CONTINUOUS
 10
142.4990583393
 20
218.5383621107
  0
VERTEX
  8
0
 62
7
  6
CONTINUOUS
 10
142.4707622861
 20
218.5677377929
  0
VERTEX
  8
0
 62
7
  6
CONTINUOUS
 10
142.4408263455
 20
218.5971492661
  0
VERTEX
  8
0
 62
7
  6
CONTINUOUS
 10
142.4175663984
 20
218.6188340672
  0
SEQEND
  0
LINE
  8
0
 62
7
  6
CONTINUOUS
 10
142.3165956702
 20
219.490212218
 11
142.3165956702
 21
218.7087652998
  0
LINE
  8
0
 62
7
  6
CONTINUOUS
 10
143.066581307
 20
217.2646311488
 11
143.066581307
 21
206.266719311
  0
LINE
  8
0
 62
7
  6
CONTINUOUS
 10
150.8206100334
 20
206.266719311
 11
150.8206100334
 21
217.2646311511
  0
LINE
  8
0
 62
7
  6
CONTINUOUS
 10
151.5705956702
 20
219.490212218
 11
151.5705956702
 21
218.70876128
  0
POLYLINE
  8
0
 62
7
  6
CONTINUOUS
 66
1
 70
0
  0
VERTEX
  8
0
 62
7
  6
CONTINUOUS
 10
107.5906240614
 20
218.6188334534
  0
VERTEX
  8
0
 62
7
  6
CONTINUOUS
 10
107.5725049314
 20
218.6020286507
  0
VERTEX
  8
0
 62
7
  6
CONTINUOUS
 10
107.5471468254
 20
218.5774718705
  0
VERTEX
  8
0
 62
7
  6
CONTINUOUS
 10
107.5229763173
 20
218.5529266656
  0
VERTEX
  8
0
 62
7
  6
CONTINUOUS
 10
107.4998402155
 20
218.5283757677
  0
VERTEX
  8
0
 62
7
  6
CONTINUOUS
 10
107.4776057901
 20
218.5037900566
  0
VERTEX
  8
0
 62
7
  6
CONTINUOUS
 10
107.4561478822
 20
218.4791243668
  0
VERTEX
  8
0
 62
7
  6
CONTINUOUS
 10
107.4353383675
 20
218.4543057927
  0
VERTEX
  8
0
 62
7
  6
CONTINUOUS
 10
107.4150583194
 20
218.429246598
  0
VERTEX
  8
0
 62
7
  6
CONTINUOUS
 10
107.3952023092
 20
218.403856191
  0
VERTEX
  8
0
 62
7
  6
CONTINUOUS
 10
107.3757217088
 20
218.378101921
  0
VERTEX
  8
0
 62
7
  6
CONTINUOUS
 10
107.3566040065
 20
218.3519890828
  0
VERTEX
  8
0
 62
7
  6
CONTINUOUS
 10
107.3378435422
 20
218.3255302836
  0
VERTEX
  8
0
 62
7
  6
CONTINUOUS
 10
107.3194305221
 20
218.2987310635
  0
VERTEX
  8
0
 62
7
  6
CONTINUOUS
 10
107.3013553897
 20
218.2715916242
  0
VERTEX
  8
0
 62
7
  6
CONTINUOUS
 10
107.2836146537
 20
218.2441197322
  0
VERTEX
  8
0
 62
7
  6
CONTINUOUS
 10
107.2661991718
 20
218.2163127981
  0
VERTEX
  8
0
 62
7
  6
CONTINUOUS
 10
107.2491031412
 20
218.188167576
  0
VERTEX
  8
0
 62
7
  6
CONTINUOUS
 10
107.2323240605
 20
218.15968583
  0
VERTEX
  8
0
 62
7
  6
CONTINUOUS
 10
107.2158532463
 20
218.1308548022
  0
VERTEX
  8
0
 62
7
  6
CONTINUOUS
 10
107.199691874
 20
218.1016740575
  0
VERTEX
  8
0
 62
7
  6
CONTINUOUS
 10
107.1838393597
 20
218.072140091
  0
VERTEX
  8
0
 62
7
  6
CONTINUOUS
 10
107.1682952399
 20
218.0422424389
  0
VERTEX
  8
0
 62
7
  6
CONTINUOUS
 10
107.1530636312
 20
218.0119789541
  0
VERTEX
  8
0
 62
7
  6
CONTINUOUS
 10
107.1381426942
 20
217.9813292357
  0
VERTEX
  8
0
 62
7
  6
CONTINUOUS
 10
107.1235391739
 20
217.9502861407
  0
VERTEX
  8
0
 62
7
  6
CONTINUOUS
 10
107.1092524109
 20
217.9188212655
  0
VERTEX
  8
0
 62
7
  6
CONTINUOUS
 10
107.0952911301
 20
217.8869182396
  0
VERTEX
  8
0
 62
7
  6
CONTINUOUS
 10
107.0816569944
 20
217.8545376922
  0
VERTEX
  8
0
 62
7
  6
CONTINUOUS
 10
107.068361819
 20
217.8216513446
  0
VERTEX
  8
0
 62
7
  6
CONTINUOUS
 10
107.055411012
 20
217.788203205
  0
VERTEX
  8
0
 62
7
  6
CONTINUOUS
 10
107.0428319069
 20
217.7541776654
  0
VERTEX
  8
0
 62
7
  6
CONTINUOUS
 10
107.030658755
 20
217.7195627539
  0
VERTEX
  8
0
 62
7
  6
CONTINUOUS
 10
107.0189350774
 20
217.6843625374
  0
VERTEX
  8
0
 62
7
  6
CONTINUOUS
 10
107.0077057605
 20
217.6485602475
  0
VERTEX
  8
0
 62
7
  6
CONTINUOUS
 10
106.9970178499
 20
217.6121238591
  0
VERTEX
  8
0
 62
7
  6
CONTINUOUS
 10
106.986931525
 20
217.575027643
  0
VERTEX
  8
0
 62
7
  6
CONTINUOUS
 10
106.9775195346
 20
217.5372360787
  0
VERTEX
  8
0
 62
7
  6
CONTINUOUS
 10
106.9688923716
 20
217.4988160787
  0
VERTEX
  8
0
 62
7
  6
CONTINUOUS
 10
106.9611810792
 20
217.4598938321
  0
VERTEX
  8
0
 62
7
  6
CONTINUOUS
 10
106.9545296068
 20
217.4206268954
  0
VERTEX
  8
0
 62
7
  6
CONTINUOUS
 10
106.9490959241
 20
217.3812471376
  0
VERTEX
  8
0
 62
7
  6
CONTINUOUS
 10
106.9450390444
 20
217.3420456589
  0
VERTEX
  8
0
 62
7
  6
CONTINUOUS
 10
106.9425102528
 20
217.3034903921
  0
VERTEX
  8
0
 62
7
  6
CONTINUOUS
 10
106.9416105753
 20
217.2646311512
  0
SEQEND
  0
POLYLINE
  8
0
 62
7
  6
CONTINUOUS
 66
1
 70
0
  0
VERTEX
  8
0
 62
7
  6
CONTINUOUS
 10
123.2156240614
 20
218.6188334534
  0
VERTEX
  8
0
 62
7
  6
CONTINUOUS
 10
123.1975049314
 20
218.6020286507
  0
VERTEX
  8
0
 62
7
  6
CONTINUOUS
 10
123.1721468254
 20
218.5774718705
  0
VERTEX
  8
0
 62
7
  6
CONTINUOUS
 10
123.1479763173
 20
218.5529266656
  0
VERTEX
  8
0
 62
7
  6
CONTINUOUS
 10
123.1248402155
 20
218.5283757677
  0
VERTEX
  8
0
 62
7
  6
CONTINUOUS
 10
123.1026057901
 20
218.5037900566
  0
VERTEX
  8
0
 62
7
  6
CONTINUOUS
 10
123.0811478822
 20
218.4791243668
  0
VERTEX
  8
0
 62
7
  6
CONTINUOUS
 10
123.0603383675
 20
218.4543057927
  0
VERTEX
  8
0
 62
7
  6
CONTINUOUS
 10
123.0400583194
 20
218.429246598
  0
VERTEX
  8
0
 62
7
  6
CONTINUOUS
 10
123.0202023092
 20
218.403856191
  0
VERTEX
  8
0
 62
7
  6
CONTINUOUS
 10
123.0007217088
 20
218.378101921
  0
VERTEX
  8
0
 62
7
  6
CONTINUOUS
 10
122.9816040065
 20
218.3519890828
  0
VERTEX
  8
0
 62
7
  6
CONTINUOUS
 10
122.9628435422
 20
218.3255302836
  0
VERTEX
  8
0
 62
7
  6
CONTINUOUS
 10
122.9444305221
 20
218.2987310635
  0
VERTEX
  8
0
 62
7
  6
CONTINUOUS
 10
122.9263553897
 20
218.2715916242
  0
VERTEX
  8
0
 62
7
  6
CONTINUOUS
 10
122.9086146537
 20
218.2441197322
  0
VERTEX
  8
0
 62
7
  6
CONTINUOUS
 10
122.8911991718
 20
218.2163127981
  0
VERTEX
  8
0
 62
7
  6
CONTINUOUS
 10
122.8741031412
 20
218.188167576
  0
VERTEX
  8
0
 62
7
  6
CONTINUOUS
 10
122.8573240605
 20
218.15968583
  0
VERTEX
  8
0
 62
7
  6
CONTINUOUS
 10
122.8408532463
 20
218.1308548022
  0
VERTEX
  8
0
 62
7
  6
CONTINUOUS
 10
122.824691874
 20
218.1016740575
  0
VERTEX
  8
0
 62
7
  6
CONTINUOUS
 10
122.8088393597
 20
218.072140091
  0
VERTEX
  8
0
 62
7
  6
CONTINUOUS
 10
122.7932952399
 20
218.0422424389
  0
VERTEX
  8
0
 62
7
  6
CONTINUOUS
 10
122.7780636312
 20
218.0119789541
  0
VERTEX
  8
0
 62
7
  6
CONTINUOUS
 10
122.7631426942
 20
217.9813292357
  0
VERTEX
  8
0
 62
7
  6
CONTINUOUS
 10
122.7485391739
 20
217.9502861407
  0
VERTEX
  8
0
 62
7
  6
CONTINUOUS
 10
122.7342524109
 20
217.9188212655
  0
VERTEX
  8
0
 62
7
  6
CONTINUOUS
 10
122.7202911301
 20
217.8869182396
  0
VERTEX
  8
0
 62
7
  6
CONTINUOUS
 10
122.7066569944
 20
217.8545376922
  0
VERTEX
  8
0
 62
7
  6
CONTINUOUS
 10
122.693361819
 20
217.8216513446
  0
VERTEX
  8
0
 62
7
  6
CONTINUOUS
 10
122.680411012
 20
217.788203205
  0
VERTEX
  8
0
 62
7
  6
CONTINUOUS
 10
122.6678319069
 20
217.7541776654
  0
VERTEX
  8
0
 62
7
  6
CONTINUOUS
 10
122.655658755
 20
217.7195627539
  0
VERTEX
  8
0
 62
7
  6
CONTINUOUS
 10
122.6439350774
 20
217.6843625374
  0
VERTEX
  8
0
 62
7
  6
CONTINUOUS
 10
122.6327057605
 20
217.6485602475
  0
VERTEX
  8
0
 62
7
  6
CONTINUOUS
 10
122.6220178499
 20
217.6121238591
  0
VERTEX
  8
0
 62
7
  6
CONTINUOUS
 10
122.611931525
 20
217.575027643
  0
VERTEX
  8
0
 62
7
  6
CONTINUOUS
 10
122.6025195346
 20
217.5372360787
  0
VERTEX
  8
0
 62
7
  6
CONTINUOUS
 10
122.5938923716
 20
217.4988160787
  0
VERTEX
  8
0
 62
7
  6
CONTINUOUS
 10
122.5861810792
 20
217.4598938321
  0
VERTEX
  8
0
 62
7
  6
CONTINUOUS
 10
122.5795296068
 20
217.4206268954
  0
VERTEX
  8
0
 62
7
  6
CONTINUOUS
 10
122.5740959241
 20
217.3812471376
  0
VERTEX
  8
0
 62
7
  6
CONTINUOUS
 10
122.5700390444
 20
217.3420456589
  0
VERTEX
  8
0
 62
7
  6
CONTINUOUS
 10
122.5675102528
 20
217.3034903921
  0
VERTEX
  8
0
 62
7
  6
CONTINUOUS
 10
122.5666105753
 20
217.2646311512
  0
SEQEND
  0
POLYLINE
  8
0
 62
7
  6
CONTINUOUS
 66
1
 70
0
  0
VERTEX
  8
0
 62
7
  6
CONTINUOUS
 10
107.6823110183
 20
218.7007099815
  0
VERTEX
  8
0
 62
7
  6
CONTINUOUS
 10
107.632819001
 20
218.6569120849
  0
VERTEX
  8
0
 62
7
  6
CONTINUOUS
 10
107.5906207232
 20
218.6188295623
  0
SEQEND
  0
LINE
  8
0
 62
7
  6
CONTINUOUS
 10
107.7239499706
 20
218.7368357301
 11
107.6823110183
 21
218.7007099815
  0
POLYLINE
  8
0
 62
7
  6
CONTINUOUS
 66
1
 70
0
  0
VERTEX
  8
0
 62
7
  6
CONTINUOUS
 10
156.8205811789
 20
217.2646311528
  0
VERTEX
  8
0
 62
7
  6
CONTINUOUS
 10
156.8196011555
 20
217.3052269336
  0
VERTEX
  8
0
 62
7
  6
CONTINUOUS
 10
156.8168911484
 20
217.3450653379
  0
VERTEX
  8
0
 62
7
  6
CONTINUOUS
 10
156.8125834265
 20
217.3854016054
  0
VERTEX
  8
0
 62
7
  6
CONTINUOUS
 10
156.8068940133
 20
217.4255400596
  0
VERTEX
  8
0
 62
7
  6
CONTINUOUS
 10
156.8000499153
 20
217.465054323
  0
VERTEX
  8
0
 62
7
  6
CONTINUOUS
 10
156.7922235814
 20
217.5038568231
  0
VERTEX
  8
0
 62
7
  6
CONTINUOUS
 10
156.7835415927
 20
217.5419722389
  0
VERTEX
  8
0
 62
7
  6
CONTINUOUS
 10
156.7741050748
 20
217.5794319664
  0
VERTEX
  8
0
 62
7
  6
CONTINUOUS
 10
156.7639989048
 20
217.6162589423
  0
VERTEX
  8
0
 62
7
  6
CONTINUOUS
 10
156.7532987502
 20
217.6524547995
  0
VERTEX
  8
0
 62
7
  6
CONTINUOUS
 10
156.7420417541
 20
217.6881041738
  0
VERTEX
  8
0
 62
7
  6
CONTINUOUS
 10
156.7302408022
 20
217.7233234639
  0
VERTEX
  8
0
 62
7
  6
CONTINUOUS
 10
156.7179074157
 20
217.7581904128
  0
VERTEX
  8
0
 62
7
  6
CONTINUOUS
 10
156.7050431942
 20
217.7927774847
  0
VERTEX
  8
0
 62
7
  6
CONTINUOUS
 10
156.6916474168
 20
217.8271448399
  0
VERTEX
  8
0
 62
7
  6
CONTINUOUS
 10
156.6777160336
 20
217.8613370902
  0
VERTEX
  8
0
 62
7
  6
CONTINUOUS
 10
156.6632353319
 20
217.8954101694
  0
VERTEX
  8
0
 62
7
  6
CONTINUOUS
 10
156.6481969181
 20
217.929391617
  0
VERTEX
  8
0
 62
7
  6
CONTINUOUS
 10
156.632583193
 20
217.9633184879
  0
VERTEX
  8
0
 62
7
  6
CONTINUOUS
 10
156.6163828154
 20
217.9972051073
  0
VERTEX
  8
0
 62
7
  6
CONTINUOUS
 10
156.5995829271
 20
218.0310591321
  0
VERTEX
  8
0
 62
7
  6
CONTINUOUS
 10
156.5821964861
 20
218.0648344781
  0
VERTEX
  8
0
 62
7
  6
CONTINUOUS
 10
156.5642334564
 20
218.0984886457
  0
VERTEX
  8
0
 62
7
  6
CONTINUOUS
 10
156.5457100938
 20
218.1319704331
  0
VERTEX
  8
0
 62
7
  6
CONTINUOUS
 10
156.5266355479
 20
218.1652397975
  0
VERTEX
  8
0
 62
7
  6
CONTINUOUS
 10
156.5070220652
 20
218.1982529725
  0
VERTEX
  8
0
 62
7
  6
CONTINUOUS
 10
156.4868663403
 20
218.2309899552
  0
VERTEX
  8
0
 62
7
  6
CONTINUOUS
 10
156.4661721162
 20
218.263416833
  0
VERTEX
  8
0
 62
7
  6
CONTINUOUS
 10
156.4449340627
 20
218.2955122374
  0
VERTEX
  8
0
 62
7
  6
CONTINUOUS
 10
156.4231528897
 20
218.3272406583
  0
VERTEX
  8
0
 62
7
  6
CONTINUOUS
 10
156.400824339
 20
218.3585739609
  0
VERTEX
  8
0
 62
7
  6
CONTINUOUS
 10
156.377942619
 20
218.3894795122
  0
VERTEX
  8
0
 62
7
  6
CONTINUOUS
 10
156.3545060401
 20
218.4199183866
  0
VERTEX
  8
0
 62
7
  6
CONTINUOUS
 10
156.3304760256
 20
218.4498926866
  0
VERTEX
  8
0
 62
7
  6
CONTINUOUS
 10
156.3056966789
 20
218.4795304004
  0
VERTEX
  8
0
 62
7
  6
CONTINUOUS
 10
156.2799636104
 20
218.5089816586
  0
VERTEX
  8
0
 62
7
  6
CONTINUOUS
 10
156.2530583393
 20
218.5383621107
  0
VERTEX
  8
0
 62
7
  6
CONTINUOUS
 10
156.2247622861
 20
218.5677377929
  0
VERTEX
  8
0
 62
7
  6
CONTINUOUS
 10
156.1948263455
 20
218.5971492661
  0
VERTEX
  8
0
 62
7
  6
CONTINUOUS
 10
156.1715663984
 20
218.6188340672
  0
SEQEND
  0
LINE
  8
0
 62
7
  6
CONTINUOUS
 10
156.0705956702
 20
219.5155254147
 11
156.0705956702
 21
218.7087652998
  0
LINE
  8
0
 62
7
  6
CONTINUOUS
 10
156.820581307
 20
217.2646311488
 11
156.820581307
 21
206.266719311
  0
LINE
  8
0
 62
7
  6
CONTINUOUS
 10
163.9165956702
 20
206.266719311
 11
163.9165956702
 21
217.2646311511
  0
LINE
  8
0
 62
7
  6
CONTINUOUS
 10
164.6665956702
 20
218.7087737757
 11
164.6665956702
 21
219.5155254156
  0
POLYLINE
  8
0
 62
7
  6
CONTINUOUS
 66
1
 70
0
  0
VERTEX
  8
0
 62
7
  6
CONTINUOUS
 10
137.7156225917
 20
218.6188324806
  0
VERTEX
  8
0
 62
7
  6
CONTINUOUS
 10
137.6964527288
 20
218.6010336536
  0
VERTEX
  8
0
 62
7
  6
CONTINUOUS
 10
137.6707874439
 20
218.5761207152
  0
VERTEX
  8
0
 62
7
  6
CONTINUOUS
 10
137.6463359941
 20
218.5512206267
  0
VERTEX
  8
0
 62
7
  6
CONTINUOUS
 10
137.6229518529
 20
218.5263257038
  0
VERTEX
  8
0
 62
7
  6
CONTINUOUS
 10
137.6005065125
 20
218.5014176287
  0
VERTEX
  8
0
 62
7
  6
CONTINUOUS
 10
137.5788727753
 20
218.4764546291
  0
VERTEX
  8
0
 62
7
  6
CONTINUOUS
 10
137.5579240403
 20
218.4513681372
  0
VERTEX
  8
0
 62
7
  6
CONTINUOUS
 10
137.5375473856
 20
218.4260827372
  0
VERTEX
  8
0
 62
7
  6
CONTINUOUS
 10
137.5176392771
 20
218.400516184
  0
VERTEX
  8
0
 62
7
  6
CONTINUOUS
 10
137.4981499279
 20
218.3746381594
  0
VERTEX
  8
0
 62
7
  6
CONTINUOUS
 10
137.479064504
 20
218.3484562196
  0
VERTEX
  8
0
 62
7
  6
CONTINUOUS
 10
137.4603685131
 20
218.3219766812
  0
VERTEX
  8
0
 62
7
  6
CONTINUOUS
 10
137.442042302
 20
218.2951932511
  0
VERTEX
  8
0
 62
7
  6
CONTINUOUS
 10
137.4240738613
 20
218.2681054537
  0
VERTEX
  8
0
 62
7
  6
CONTINUOUS
 10
137.4064506822
 20
218.2407107754
  0
VERTEX
  8
0
 62
7
  6
CONTINUOUS
 10
137.3891559754
 20
218.2129940924
  0
VERTEX
  8
0
 62
7
  6
CONTINUOUS
 10
137.3721807145
 20
218.1849481151
  0
VERTEX
  8
0
 62
7
  6
CONTINUOUS
 10
137.3555124286
 20
218.1565581353
  0
VERTEX
  8
0
 62
7
  6
CONTINUOUS
 10
137.3391395603
 20
218.1278031767
  0
VERTEX
  8
0
 62
7
  6
CONTINUOUS
 10
137.323064051
 20
218.0986840548
  0
VERTEX
  8
0
 62
7
  6
CONTINUOUS
 10
137.3072839333
 20
218.069191285
  0
VERTEX
  8
0
 62
7
  6
CONTINUOUS
 10
137.2918047686
 20
218.0393242876
  0
VERTEX
  8
0
 62
7
  6
CONTINUOUS
 10
137.2766281112
 20
218.0090748504
  0
VERTEX
  8
0
 62
7
  6
CONTINUOUS
 10
137.2617573766
 20
217.978429963
  0
VERTEX
  8
0
 62
7
  6
CONTINUOUS
 10
137.2471984145
 20
217.9473812369
  0
VERTEX
  8
0
 62
7
  6
CONTINUOUS
 10
137.2329538784
 20
217.9159036195
  0
VERTEX
  8
0
 62
7
  6
CONTINUOUS
 10
137.219032881
 20
217.883983106
  0
VERTEX
  8
0
 62
7
  6
CONTINUOUS
 10
137.2054396798
 20
217.8515824474
  0
VERTEX
  8
0
 62
7
  6
CONTINUOUS
 10
137.1921864691
 20
217.8186765757
  0
VERTEX
  8
0
 62
7
  6
CONTINUOUS
 10
137.1792819022
 20
217.7852138787
  0
VERTEX
  8
0
 62
7
  6
CONTINUOUS
 10
137.1667518917
 20
217.7511779987
  0
VERTEX
  8
0
 62
7
  6
CONTINUOUS
 10
137.15463362
 20
217.7165627796
  0
VERTEX
  8
0
 62
7
  6
CONTINUOUS
 10
137.1429655131
 20
217.6813575215
  0
VERTEX
  8
0
 62
7
  6
CONTINUOUS
 10
137.1317952688
 20
217.6455545186
  0
VERTEX
  8
0
 62
7
  6
CONTINUOUS
 10
137.1211695774
 20
217.6091152282
  0
VERTEX
  8
0
 62
7
  6
CONTINUOUS
 10
137.111145505
 20
217.5720017532
  0
VERTEX
  8
0
 62
7
  6
CONTINUOUS
 10
137.1017994196
 20
217.5341876263
  0
VERTEX
  8
0
 62
7
  6
CONTINUOUS
 10
137.0932441587
 20
217.4957406374
  0
VERTEX
  8
0
 62
7
  6
CONTINUOUS
 10
137.0856114137
 20
217.4567801306
  0
VERTEX
  8
0
 62
7
  6
CONTINUOUS
 10
137.0790473298
 20
217.41747006
  0
VERTEX
  8
0
 62
7
  6
CONTINUOUS
 10
137.0737133869
 20
217.3780552605
  0
VERTEX
  8
0
 62
7
  6
CONTINUOUS
 10
137.0697703372
 20
217.3388318519
  0
VERTEX
  8
0
 62
7
  6
CONTINUOUS
 10
137.0673702898
 20
217.3002832841
  0
VERTEX
  8
0
 62
7
  6
CONTINUOUS
 10
137.0666108763
 20
217.2646311511
  0
SEQEND
  0
POLYLINE
  8
0
 62
7
  6
CONTINUOUS
 66
1
 70
0
  0
VERTEX
  8
0
 62
7
  6
CONTINUOUS
 10
137.8066579839
 20
218.7001381574
  0
VERTEX
  8
0
 62
7
  6
CONTINUOUS
 10
137.7571669832
 20
218.6563288215
  0
VERTEX
  8
0
 62
7
  6
CONTINUOUS
 10
137.7156207212
 20
218.6188295278
  0
SEQEND
  0
POLYLINE
  8
0
 62
7
  6
CONTINUOUS
 66
1
 70
0
  0
VERTEX
  8
0
 62
7
  6
CONTINUOUS
 10
123.3073110183
 20
218.7007099815
  0
VERTEX
  8
0
 62
7
  6
CONTINUOUS
 10
123.257819001
 20
218.6569120849
  0
VERTEX
  8
0
 62
7
  6
CONTINUOUS
 10
123.2156207232
 20
218.6188295623
  0
SEQEND
  0
LINE
  8
0
 62
7
  6
CONTINUOUS
 10
137.8489499815
 20
218.7368357415
 11
137.8066579839
 21
218.7001381574
  0
LINE
  8
0
 62
7
  6
CONTINUOUS
 10
123.3489499706
 20
218.7368357301
 11
123.3073110183
 21
218.7007099815
  0
POLYLINE
  8
0
 62
7
  6
CONTINUOUS
 66
1
 70
0
  0
VERTEX
  8
0
 62
7
  6
CONTINUOUS
 10
112.2510253028
 20
218.6563279976
  0
VERTEX
  8
0
 62
7
  6
CONTINUOUS
 10
112.2015343046
 20
218.7001373284
  0
VERTEX
  8
0
 62
7
  6
CONTINUOUS
 10
112.1592413714
 20
218.7368357279
  0
SEQEND
  0
LINE
  8
0
 62
7
  6
CONTINUOUS
 10
112.2925706162
 20
218.6188295645
 11
112.2510253028
 21
218.6563279976
  0
POLYLINE
  8
0
 62
7
  6
CONTINUOUS
 66
1
 70
0
  0
VERTEX
  8
0
 62
7
  6
CONTINUOUS
 10
169.916595542
 20
217.2646311528
  0
VERTEX
  8
0
 62
7
  6
CONTINUOUS
 10
169.9156155187
 20
217.3052269336
  0
VERTEX
  8
0
 62
7
  6
CONTINUOUS
 10
169.9129055115
 20
217.345065338
  0
VERTEX
  8
0
 62
7
  6
CONTINUOUS
 10
169.9085977896
 20
217.3854016055
  0
VERTEX
  8
0
 62
7
  6
CONTINUOUS
 10
169.9029083764
 20
217.4255400598
  0
VERTEX
  8
0
 62
7
  6
CONTINUOUS
 10
169.8960642784
 20
217.4650543231
  0
VERTEX
  8
0
 62
7
  6
CONTINUOUS
 10
169.8882379446
 20
217.5038568233
  0
VERTEX
  8
0
 62
7
  6
CONTINUOUS
 10
169.8795559558
 20
217.5419722391
  0
VERTEX
  8
0
 62
7
  6
CONTINUOUS
 10
169.8701194379
 20
217.5794319665
  0
VERTEX
  8
0
 62
7
  6
CONTINUOUS
 10
169.860013268
 20
217.6162589423
  0
VERTEX
  8
0
 62
7
  6
CONTINUOUS
 10
169.8493131133
 20
217.6524547996
  0
VERTEX
  8
0
 62
7
  6
CONTINUOUS
 10
169.8380561172
 20
217.6881041738
  0
VERTEX
  8
0
 62
7
  6
CONTINUOUS
 10
169.8262551654
 20
217.7233234639
  0
VERTEX
  8
0
 62
7
  6
CONTINUOUS
 10
169.8139217789
 20
217.7581904128
  0
VERTEX
  8
0
 62
7
  6
CONTINUOUS
 10
169.8010575574
 20
217.7927774847
  0
VERTEX
  8
0
 62
7
  6
CONTINUOUS
 10
169.7876617799
 20
217.82714484
  0
VERTEX
  8
0
 62
7
  6
CONTINUOUS
 10
169.7737303967
 20
217.8613370903
  0
VERTEX
  8
0
 62
7
  6
CONTINUOUS
 10
169.759249695
 20
217.8954101694
  0
VERTEX
  8
0
 62
7
  6
CONTINUOUS
 10
169.7442112812
 20
217.929391617
  0
VERTEX
  8
0
 62
7
  6
CONTINUOUS
 10
169.7285975561
 20
217.9633184879
  0
VERTEX
  8
0
 62
7
  6
CONTINUOUS
 10
169.7123971786
 20
217.9972051073
  0
VERTEX
  8
0
 62
7
  6
CONTINUOUS
 10
169.6955972902
 20
218.0310591321
  0
VERTEX
  8
0
 62
7
  6
CONTINUOUS
 10
169.6782108492
 20
218.0648344781
  0
VERTEX
  8
0
 62
7
  6
CONTINUOUS
 10
169.6602478195
 20
218.0984886458
  0
VERTEX
  8
0
 62
7
  6
CONTINUOUS
 10
169.641724457
 20
218.1319704331
  0
VERTEX
  8
0
 62
7
  6
CONTINUOUS
 10
169.622649911
 20
218.1652397975
  0
VERTEX
  8
0
 62
7
  6
CONTINUOUS
 10
169.6030364284
 20
218.1982529726
  0
VERTEX
  8
0
 62
7
  6
CONTINUOUS
 10
169.5828807035
 20
218.2309899553
  0
VERTEX
  8
0
 62
7
  6
CONTINUOUS
 10
169.5621864793
 20
218.263416833
  0
VERTEX
  8
0
 62
7
  6
CONTINUOUS
 10
169.5409484259
 20
218.2955122374
  0
VERTEX
  8
0
 62
7
  6
CONTINUOUS
 10
169.5191672529
 20
218.3272406583
  0
VERTEX
  8
0
 62
7
  6
CONTINUOUS
 10
169.4968387021
 20
218.3585739609
  0
VERTEX
  8
0
 62
7
  6
CONTINUOUS
 10
169.4739569821
 20
218.3894795122
  0
VERTEX
  8
0
 62
7
  6
CONTINUOUS
 10
169.4505204032
 20
218.4199183866
  0
VERTEX
  8
0
 62
7
  6
CONTINUOUS
 10
169.4264903887
 20
218.4498926866
  0
VERTEX
  8
0
 62
7
  6
CONTINUOUS
 10
169.4017110421
 20
218.4795304004
  0
VERTEX
  8
0
 62
7
  6
CONTINUOUS
 10
169.3759779735
 20
218.5089816586
  0
VERTEX
  8
0
 62
7
  6
CONTINUOUS
 10
169.3490727025
 20
218.5383621107
  0
VERTEX
  8
0
 62
7
  6
CONTINUOUS
 10
169.3207766492
 20
218.5677377929
  0
VERTEX
  8
0
 62
7
  6
CONTINUOUS
 10
169.2908407087
 20
218.5971492661
  0
VERTEX
  8
0
 62
7
  6
CONTINUOUS
 10
169.2675807616
 20
218.6188340672
  0
SEQEND
  0
POLYLINE
  8
0
 62
7
  6
CONTINUOUS
 66
1
 70
0
  0
VERTEX
  8
0
 62
7
  6
CONTINUOUS
 10
169.166594964
 20
219.6046984702
  0
VERTEX
  8
0
 62
7
  6
CONTINUOUS
 10
169.1664414542
 20
219.6114840463
  0
VERTEX
  8
0
 62
7
  6
CONTINUOUS
 10
169.1644780974
 20
219.6298134508
  0
VERTEX
  8
0
 62
7
  6
CONTINUOUS
 10
169.1604770219
 20
219.6471069683
  0
VERTEX
  8
0
 62
7
  6
CONTINUOUS
 10
169.1547124516
 20
219.663218515
  0
VERTEX
  8
0
 62
7
  6
CONTINUOUS
 10
169.1474429495
 20
219.6780504396
  0
VERTEX
  8
0
 62
7
  6
CONTINUOUS
 10
169.1389067988
 20
219.6915452329
  0
VERTEX
  8
0
 62
7
  6
CONTINUOUS
 10
169.1293188691
 20
219.7036777076
  0
VERTEX
  8
0
 62
7
  6
CONTINUOUS
 10
169.1188779887
 20
219.7144390317
  0
VERTEX
  8
0
 62
7
  6
CONTINUOUS
 10
169.1077980301
 20
219.723813188
  0
VERTEX
  8
0
 62
7
  6
CONTINUOUS
 10
169.0962815482
 20
219.731813472
  0
VERTEX
  8
0
 62
7
  6
CONTINUOUS
 10
169.0845158184
 20
219.7384792324
  0
VERTEX
  8
0
 62
7
  6
CONTINUOUS
 10
169.0726838079
 20
219.7438663337
  0
VERTEX
  8
0
 62
7
  6
CONTINUOUS
 10
169.0612371284
 20
219.7479638718
  0
VERTEX
  8
0
 62
7
  6
CONTINUOUS
 10
169.0508961847
 20
219.750804991
  0
VERTEX
  8
0
 62
7
  6
CONTINUOUS
 10
169.0423223262
 20
219.7525815985
  0
VERTEX
  8
0
 62
7
  6
CONTINUOUS
 10
169.0357298888
 20
219.7536098408
  0
VERTEX
  8
0
 62
7
  6
CONTINUOUS
 10
169.0307105299
 20
219.754206824
  0
VERTEX
  8
0
 62
7
  6
CONTINUOUS
 10
169.0267483399
 20
219.754572765
  0
VERTEX
  8
0
 62
7
  6
CONTINUOUS
 10
169.0234504959
 20
219.7548135176
  0
VERTEX
  8
0
 62
7
  6
CONTINUOUS
 10
169.0205301327
 20
219.7549846088
  0
VERTEX
  8
0
 62
7
  6
CONTINUOUS
 10
169.0177989147
 20
219.7551145659
  0
VERTEX
  8
0
 62
7
  6
CONTINUOUS
 10
169.0151332307
 20
219.75521855
  0
VERTEX
  8
0
 62
7
  6
CONTINUOUS
 10
169.0124559891
 20
219.7553047894
  0
VERTEX
  8
0
 62
7
  6
CONTINUOUS
 10
169.0097200746
 20
219.755377968
  0
SEQEND
  0
LINE
  8
0
 62
7
  6
CONTINUOUS
 10
169.1665956702
 20
219.6046988087
 11
169.1665956702
 21
218.7087778095
  0
LINE
  8
0
 62
7
  6
CONTINUOUS
 10
169.9165956702
 20
217.2646311488
 11
169.9165956702
 21
206.266719311
  0
POLYLINE
  8
0
 62
7
  6
CONTINUOUS
 66
1
 70
0
  0
VERTEX
  8
0
 62
7
  6
CONTINUOUS
 10
151.4696225917
 20
218.6188324806
  0
VERTEX
  8
0
 62
7
  6
CONTINUOUS
 10
151.4504527288
 20
218.6010336536
  0
VERTEX
  8
0
 62
7
  6
CONTINUOUS
 10
151.4247874439
 20
218.5761207152
  0
VERTEX
  8
0
 62
7
  6
CONTINUOUS
 10
151.4003359941
 20
218.5512206267
  0
VERTEX
  8
0
 62
7
  6
CONTINUOUS
 10
151.3769518529
 20
218.5263257038
  0
VERTEX
  8
0
 62
7
  6
CONTINUOUS
 10
151.3545065125
 20
218.5014176287
  0
VERTEX
  8
0
 62
7
  6
CONTINUOUS
 10
151.3328727753
 20
218.4764546291
  0
VERTEX
  8
0
 62
7
  6
CONTINUOUS
 10
151.3119240403
 20
218.4513681372
  0
VERTEX
  8
0
 62
7
  6
CONTINUOUS
 10
151.2915473856
 20
218.4260827372
  0
VERTEX
  8
0
 62
7
  6
CONTINUOUS
 10
151.2716392771
 20
218.400516184
  0
VERTEX
  8
0
 62
7
  6
CONTINUOUS
 10
151.2521499279
 20
218.3746381594
  0
VERTEX
  8
0
 62
7
  6
CONTINUOUS
 10
151.233064504
 20
218.3484562196
  0
VERTEX
  8
0
 62
7
  6
CONTINUOUS
 10
151.2143685131
 20
218.3219766812
  0
VERTEX
  8
0
 62
7
  6
CONTINUOUS
 10
151.196042302
 20
218.2951932511
  0
VERTEX
  8
0
 62
7
  6
CONTINUOUS
 10
151.1780738613
 20
218.2681054537
  0
VERTEX
  8
0
 62
7
  6
CONTINUOUS
 10
151.1604506822
 20
218.2407107754
  0
VERTEX
  8
0
 62
7
  6
CONTINUOUS
 10
151.1431559754
 20
218.2129940924
  0
VERTEX
  8
0
 62
7
  6
CONTINUOUS
 10
151.1261807145
 20
218.1849481151
  0
VERTEX
  8
0
 62
7
  6
CONTINUOUS
 10
151.1095124286
 20
218.1565581353
  0
VERTEX
  8
0
 62
7
  6
CONTINUOUS
 10
151.0931395603
 20
218.1278031767
  0
VERTEX
  8
0
 62
7
  6
CONTINUOUS
 10
151.077064051
 20
218.0986840548
  0
VERTEX
  8
0
 62
7
  6
CONTINUOUS
 10
151.0612839333
 20
218.069191285
  0
VERTEX
  8
0
 62
7
  6
CONTINUOUS
 10
151.0458047686
 20
218.0393242876
  0
VERTEX
  8
0
 62
7
  6
CONTINUOUS
 10
151.0306281112
 20
218.0090748504
  0
VERTEX
  8
0
 62
7
  6
CONTINUOUS
 10
151.0157573766
 20
217.978429963
  0
VERTEX
  8
0
 62
7
  6
CONTINUOUS
 10
151.0011984145
 20
217.9473812369
  0
VERTEX
  8
0
 62
7
  6
CONTINUOUS
 10
150.9869538784
 20
217.9159036195
  0
VERTEX
  8
0
 62
7
  6
CONTINUOUS
 10
150.973032881
 20
217.883983106
  0
VERTEX
  8
0
 62
7
  6
CONTINUOUS
 10
150.9594396798
 20
217.8515824474
  0
VERTEX
  8
0
 62
7
  6
CONTINUOUS
 10
150.9461864691
 20
217.8186765757
  0
VERTEX
  8
0
 62
7
  6
CONTINUOUS
 10
150.9332819022
 20
217.7852138787
  0
VERTEX
  8
0
 62
7
  6
CONTINUOUS
 10
150.9207518917
 20
217.7511779987
  0
VERTEX
  8
0
 62
7
  6
CONTINUOUS
 10
150.90863362
 20
217.7165627796
  0
VERTEX
  8
0
 62
7
  6
CONTINUOUS
 10
150.8969655131
 20
217.6813575215
  0
VERTEX
  8
0
 62
7
  6
CONTINUOUS
 10
150.8857952688
 20
217.6455545186
  0
VERTEX
  8
0
 62
7
  6
CONTINUOUS
 10
150.8751695774
 20
217.6091152282
  0
VERTEX
  8
0
 62
7
  6
CONTINUOUS
 10
150.865145505
 20
217.5720017532
  0
VERTEX
  8
0
 62
7
  6
CONTINUOUS
 10
150.8557994196
 20
217.5341876263
  0
VERTEX
  8
0
 62
7
  6
CONTINUOUS
 10
150.8472441587
 20
217.4957406374
  0
VERTEX
  8
0
 62
7
  6
CONTINUOUS
 10
150.8396114137
 20
217.4567801306
  0
VERTEX
  8
0
 62
7
  6
CONTINUOUS
 10
150.8330473298
 20
217.41747006
  0
VERTEX
  8
0
 62
7
  6
CONTINUOUS
 10
150.8277133869
 20
217.3780552605
  0
VERTEX
  8
0
 62
7
  6
CONTINUOUS
 10
150.8237703372
 20
217.3388318519
  0
VERTEX
  8
0
 62
7
  6
CONTINUOUS
 10
150.8213702898
 20
217.3002832841
  0
VERTEX
  8
0
 62
7
  6
CONTINUOUS
 10
150.8206108763
 20
217.2646311511
  0
SEQEND
  0
POLYLINE
  8
0
 62
7
  6
CONTINUOUS
 66
1
 70
0
  0
VERTEX
  8
0
 62
7
  6
CONTINUOUS
 10
164.5656082286
 20
218.6188324806
  0
VERTEX
  8
0
 62
7
  6
CONTINUOUS
 10
164.5464383656
 20
218.6010336536
  0
VERTEX
  8
0
 62
7
  6
CONTINUOUS
 10
164.5207730807
 20
218.5761207152
  0
VERTEX
  8
0
 62
7
  6
CONTINUOUS
 10
164.4963216309
 20
218.5512206267
  0
VERTEX
  8
0
 62
7
  6
CONTINUOUS
 10
164.4729374897
 20
218.5263257038
  0
VERTEX
  8
0
 62
7
  6
CONTINUOUS
 10
164.4504921493
 20
218.5014176286
  0
VERTEX
  8
0
 62
7
  6
CONTINUOUS
 10
164.4288584121
 20
218.476454629
  0
VERTEX
  8
0
 62
7
  6
CONTINUOUS
 10
164.4079096771
 20
218.4513681371
  0
VERTEX
  8
0
 62
7
  6
CONTINUOUS
 10
164.3875330224
 20
218.4260827371
  0
VERTEX
  8
0
 62
7
  6
CONTINUOUS
 10
164.3676249138
 20
218.4005161839
  0
VERTEX
  8
0
 62
7
  6
CONTINUOUS
 10
164.3481355647
 20
218.3746381593
  0
VERTEX
  8
0
 62
7
  6
CONTINUOUS
 10
164.3290501407
 20
218.3484562195
  0
VERTEX
  8
0
 62
7
  6
CONTINUOUS
 10
164.3103541498
 20
218.3219766811
  0
VERTEX
  8
0
 62
7
  6
CONTINUOUS
 10
164.2920279388
 20
218.295193251
  0
VERTEX
  8
0
 62
7
  6
CONTINUOUS
 10
164.274059498
 20
218.2681054536
  0
VERTEX
  8
0
 62
7
  6
CONTINUOUS
 10
164.2564363189
 20
218.2407107752
  0
VERTEX
  8
0
 62
7
  6
CONTINUOUS
 10
164.2391416122
 20
218.2129940923
  0
VERTEX
  8
0
 62
7
  6
CONTINUOUS
 10
164.2221663513
 20
218.1849481149
  0
VERTEX
  8
0
 62
7
  6
CONTINUOUS
 10
164.2054980653
 20
218.1565581351
  0
VERTEX
  8
0
 62
7
  6
CONTINUOUS
 10
164.189125197
 20
218.1278031765
  0
VERTEX
  8
0
 62
7
  6
CONTINUOUS
 10
164.1730496877
 20
218.0986840546
  0
VERTEX
  8
0
 62
7
  6
CONTINUOUS
 10
164.1572695701
 20
218.0691912848
  0
VERTEX
  8
0
 62
7
  6
CONTINUOUS
 10
164.1417904054
 20
218.0393242875
  0
VERTEX
  8
0
 62
7
  6
CONTINUOUS
 10
164.1266137479
 20
218.0090748501
  0
VERTEX
  8
0
 62
7
  6
CONTINUOUS
 10
164.1117430134
 20
217.9784299628
  0
VERTEX
  8
0
 62
7
  6
CONTINUOUS
 10
164.0971840512
 20
217.9473812366
  0
VERTEX
  8
0
 62
7
  6
CONTINUOUS
 10
164.0829395152
 20
217.9159036193
  0
VERTEX
  8
0
 62
7
  6
CONTINUOUS
 10
164.0690185177
 20
217.8839831057
  0
VERTEX
  8
0
 62
7
  6
CONTINUOUS
 10
164.0554253165
 20
217.8515824472
  0
VERTEX
  8
0
 62
7
  6
CONTINUOUS
 10
164.0421721058
 20
217.8186765753
  0
VERTEX
  8
0
 62
7
  6
CONTINUOUS
 10
164.029267539
 20
217.7852138785
  0
VERTEX
  8
0
 62
7
  6
CONTINUOUS
 10
164.0167375284
 20
217.7511779981
  0
VERTEX
  8
0
 62
7
  6
CONTINUOUS
 10
164.0046192568
 20
217.7165627795
  0
VERTEX
  8
0
 62
7
  6
CONTINUOUS
 10
163.9929511498
 20
217.6813575208
  0
VERTEX
  8
0
 62
7
  6
CONTINUOUS
 10
163.9817809054
 20
217.6455545177
  0
VERTEX
  8
0
 62
7
  6
CONTINUOUS
 10
163.9711552144
 20
217.6091152287
  0
VERTEX
  8
0
 62
7
  6
CONTINUOUS
 10
163.9611311417
 20
217.5720017523
  0
VERTEX
  8
0
 62
7
  6
CONTINUOUS
 10
163.9517850562
 20
217.5341876253
  0
VERTEX
  8
0
 62
7
  6
CONTINUOUS
 10
163.9432297954
 20
217.4957406369
  0
VERTEX
  8
0
 62
7
  6
CONTINUOUS
 10
163.9355970505
 20
217.4567801305
  0
VERTEX
  8
0
 62
7
  6
CONTINUOUS
 10
163.9290329666
 20
217.4174700594
  0
VERTEX
  8
0
 62
7
  6
CONTINUOUS
 10
163.9236990237
 20
217.37805526
  0
VERTEX
  8
0
 62
7
  6
CONTINUOUS
 10
163.919755974
 20
217.3388318514
  0
VERTEX
  8
0
 62
7
  6
CONTINUOUS
 10
163.9173559266
 20
217.3002832834
  0
VERTEX
  8
0
 62
7
  6
CONTINUOUS
 10
163.9165965132
 20
217.2646311511
  0
SEQEND
  0
POLYLINE
  8
0
 62
7
  6
CONTINUOUS
 66
1
 70
0
  0
VERTEX
  8
0
 62
7
  6
CONTINUOUS
 10
151.5606579839
 20
218.7001381574
  0
VERTEX
  8
0
 62
7
  6
CONTINUOUS
 10
151.5111669832
 20
218.6563288215
  0
VERTEX
  8
0
 62
7
  6
CONTINUOUS
 10
151.4696207212
 20
218.6188295278
  0
SEQEND
  0
LINE
  8
0
 62
7
  6
CONTINUOUS
 10
151.6029499815
 20
218.7368357415
 11
151.5606579839
 21
218.7001381574
  0
POLYLINE
  8
0
 62
7
  6
CONTINUOUS
 66
1
 70
0
  0
VERTEX
  8
0
 62
7
  6
CONTINUOUS
 10
127.8753723582
 20
218.6569120691
  0
VERTEX
  8
0
 62
7
  6
CONTINUOUS
 10
127.8258803404
 20
218.700709966
  0
VERTEX
  8
0
 62
7
  6
CONTINUOUS
 10
127.7842413694
 20
218.7368357305
  0
SEQEND
  0
LINE
  8
0
 62
7
  6
CONTINUOUS
 10
127.9175706172
 20
218.6188295631
 11
127.8753723582
 21
218.6569120691
  0
POLYLINE
  8
AXES
 62
7
  6
CONTINUOUS
 66
1
 70
0
  0
VERTEX
  8
AXES
 62
7
  6
CONTINUOUS
 10
129.8665956673
 20
209.4168066779
  0
VERTEX
  8
AXES
 62
7
  6
CONTINUOUS
 10
129.8621593038
 20
209.4210811283
  0
VERTEX
  8
AXES
 62
7
  6
CONTINUOUS
 10
129.8454305229
 20
209.4342907243
  0
VERTEX
  8
AXES
 62
7
  6
CONTINUOUS
 10
129.8160365888
 20
209.4563716462
  0
VERTEX
  8
AXES
 62
7
  6
CONTINUOUS
 10
129.7733802587
 20
209.4874777134
  0
VERTEX
  8
AXES
 62
7
  6
CONTINUOUS
 10
129.7165129452
 20
209.5278210169
  0
VERTEX
  8
AXES
 62
7
  6
CONTINUOUS
 10
129.6447904059
 20
209.5771363777
  0
VERTEX
  8
AXES
 62
7
  6
CONTINUOUS
 10
129.5577058437
 20
209.6347325585
  0
VERTEX
  8
AXES
 62
7
  6
CONTINUOUS
 10
129.4549853736
 20
209.6993297798
  0
VERTEX
  8
AXES
 62
7
  6
CONTINUOUS
 10
129.3385279952
 20
209.7678477545
  0
VERTEX
  8
AXES
 62
7
  6
CONTINUOUS
 10
129.2114886304
 20
209.8362826381
  0
VERTEX
  8
AXES
 62
7
  6
CONTINUOUS
 10
129.0781915435
 20
209.9001952518
  0
VERTEX
  8
AXES
 62
7
  6
CONTINUOUS
 10
128.9442188614
 20
209.9553495238
  0
VERTEX
  8
AXES
 62
7
  6
CONTINUOUS
 10
128.8127889461
 20
209.9996812682
  0
VERTEX
  8
AXES
 62
7
  6
CONTINUOUS
 10
128.684764431
 20
210.0327393094
  0
SEQEND
  0
POLYLINE
  8
0
 62
7
  6
CONTINUOUS
 66
1
 70
0
  0
VERTEX
  8
0
 62
7
  6
CONTINUOUS
 10
164.6566534299
 20
218.7001467479
  0
VERTEX
  8
0
 62
7
  6
CONTINUOUS
 10
164.6071575185
 20
218.6563332039
  0
VERTEX
  8
0
 62
7
  6
CONTINUOUS
 10
164.565606358
 20
218.6188295278
  0
SEQEND
  0
LINE
  8
0
 62
7
  6
CONTINUOUS
 10
164.6989503472
 20
218.7368484036
 11
164.6566534299
 21
218.7001467479
  0
POLYLINE
  8
0
 62
7
  6
CONTINUOUS
 66
1
 70
0
  0
VERTEX
  8
0
 62
7
  6
CONTINUOUS
 10
142.3753723582
 20
218.6569120691
  0
VERTEX
  8
0
 62
7
  6
CONTINUOUS
 10
142.3258803404
 20
218.700709966
  0
VERTEX
  8
0
 62
7
  6
CONTINUOUS
 10
142.2842413694
 20
218.7368357305
  0
SEQEND
  0
LINE
  8
0
 62
7
  6
CONTINUOUS
 10
142.4175706172
 20
218.6188295631
 11
142.3753723582
 21
218.6569120691
  0
POLYLINE
  8
0
 62
7
  6
CONTINUOUS
 66
1
 70
0
  0
VERTEX
  8
0
 62
7
  6
CONTINUOUS
 10
105.122574642
 20
196.2125859707
  0
VERTEX
  8
0
 62
7
  6
CONTINUOUS
 10
105.0781546148
 20
196.2220739765
  0
VERTEX
  8
0
 62
7
  6
CONTINUOUS
 10
105.0372370838
 20
196.2360559948
  0
VERTEX
  8
0
 62
7
  6
CONTINUOUS
 10
104.9988898893
 20
196.2558060575
  0
VERTEX
  8
0
 62
7
  6
CONTINUOUS
 10
104.9635732777
 20
196.2811357556
  0
VERTEX
  8
0
 62
7
  6
CONTINUOUS
 10
104.9320745904
 20
196.3116546596
  0
VERTEX
  8
0
 62
7
  6
CONTINUOUS
 10
104.9054039141
 20
196.3464647623
  0
VERTEX
  8
0
 62
7
  6
CONTINUOUS
 10
104.8841917256
 20
196.3846058301
  0
VERTEX
  8
0
 62
7
  6
CONTINUOUS
 10
104.8686623662
 20
196.4255711855
  0
VERTEX
  8
0
 62
7
  6
CONTINUOUS
 10
104.8591298334
 20
196.4687887448
  0
VERTEX
  8
0
 62
7
  6
CONTINUOUS
 10
104.855945492
 20
196.5128591941
  0
SEQEND
  0
POLYLINE
  8
0
 62
7
  6
CONTINUOUS
 66
1
 70
0
  0
VERTEX
  8
0
 62
7
  6
CONTINUOUS
 10
156.1293723582
 20
218.6569120691
  0
VERTEX
  8
0
 62
7
  6
CONTINUOUS
 10
156.0798803404
 20
218.700709966
  0
VERTEX
  8
0
 62
7
  6
CONTINUOUS
 10
156.0382413694
 20
218.7368357305
  0
SEQEND
  0
POLYLINE
  8
0
 62
7
  6
CONTINUOUS
 66
1
 70
0
  0
VERTEX
  8
0
 62
7
  6
CONTINUOUS
 10
169.2253809157
 20
218.6569172741
  0
VERTEX
  8
0
 62
7
  6
CONTINUOUS
 10
169.1758839618
 20
218.7007193808
  0
VERTEX
  8
0
 62
7
  6
CONTINUOUS
 10
169.1342409924
 20
218.7368484037
  0
SEQEND
  0
LINE
  8
0
 62
7
  6
CONTINUOUS
 10
156.1715706172
 20
218.6188295631
 11
156.1293723582
 21
218.6569120691
  0
LINE
  8
0
 62
7
  6
CONTINUOUS
 10
169.267584992
 20
218.6188295571
 11
169.2253809157
 21
218.6569172741
  0
POLYLINE
  8
AXES
 62
7
  6
CONTINUOUS
 66
1
 70
0
  0
VERTEX
  8
AXES
 62
7
  6
CONTINUOUS
 10
128.684764431
 20
210.0327393094
  0
VERTEX
  8
AXES
 62
7
  6
CONTINUOUS
 10
128.6629287503
 20
210.0392866851
  0
VERTEX
  8
AXES
 62
7
  6
CONTINUOUS
 10
128.6419933885
 20
210.0493907137
  0
VERTEX
  8
AXES
 62
7
  6
CONTINUOUS
 10
128.6227231214
 20
210.0629592188
  0
VERTEX
  8
AXES
 62
7
  6
CONTINUOUS
 10
128.6051789027
 20
210.0804216222
  0
VERTEX
  8
AXES
 62
7
  6
CONTINUOUS
 10
128.5898304133
 20
210.1023122047
  0
VERTEX
  8
AXES
 62
7
  6
CONTINUOUS
 10
128.5776509286
 20
210.1287218511
  0
VERTEX
  8
AXES
 62
7
  6
CONTINUOUS
 10
128.5695725274
 20
210.1596937468
  0
VERTEX
  8
AXES
 62
7
  6
CONTINUOUS
 10
128.566581307
 20
210.1957000987
  0
SEQEND
  0
LINE
  8
0
 62
7
  6
CONTINUOUS
 10
103.0020834755
 20
191.5188515788
 11
111.7205956702
 21
191.5188515788
  0
POLYLINE
  8
0
 62
7
  6
CONTINUOUS
 66
1
 70
0
  0
VERTEX
  8
0
 62
7
  6
CONTINUOUS
 10
105.122574642
 20
196.2125859707
  0
VERTEX
  8
0
 62
7
  6
CONTINUOUS
 10
105.0740290342
 20
196.2161008025
  0
VERTEX
  8
0
 62
7
  6
CONTINUOUS
 10
105.0285555584
 20
196.2270746699
  0
VERTEX
  8
0
 62
7
  6
CONTINUOUS
 10
104.9852541256
 20
196.2451038617
  0
VERTEX
  8
0
 62
7
  6
CONTINUOUS
 10
104.94517097
 20
196.2697944712
  0
VERTEX
  8
0
 62
7
  6
CONTINUOUS
 10
104.9092963263
 20
196.3005937506
  0
VERTEX
  8
0
 62
7
  6
CONTINUOUS
 10
104.8785436743
 20
196.3367885865
  0
VERTEX
  8
0
 62
7
  6
CONTINUOUS
 10
104.8537178992
 20
196.3775136405
  0
VERTEX
  8
0
 62
7
  6
CONTINUOUS
 10
104.835488292
 20
196.4217555797
  0
VERTEX
  8
0
 62
7
  6
CONTINUOUS
 10
104.8243444358
 20
196.4684165062
  0
SEQEND
  0
POLYLINE
  8
0
 62
7
  6
CONTINUOUS
 66
1
 70
0
  0
VERTEX
  8
0
 62
7
  6
CONTINUOUS
 10
105.1205956702
 20
196.1788515788
  0
VERTEX
  8
0
 62
7
  6
CONTINUOUS
 10
105.0741639081
 20
196.1825092082
  0
VERTEX
  8
0
 62
7
  6
CONTINUOUS
 10
105.0284917885
 20
196.193510892
  0
VERTEX
  8
0
 62
7
  6
CONTINUOUS
 10
104.9852691461
 20
196.2114879677
  0
VERTEX
  8
0
 62
7
  6
CONTINUOUS
 10
104.9452383289
 20
196.2361048526
  0
VERTEX
  8
0
 62
7
  6
CONTINUOUS
 10
104.9090998406
 20
196.2671104696
  0
VERTEX
  8
0
 62
7
  6
CONTINUOUS
 10
104.878176557
 20
196.3035691408
  0
VERTEX
  8
0
 62
7
  6
CONTINUOUS
 10
104.8535027826
 20
196.344157711
  0
VERTEX
  8
0
 62
7
  6
CONTINUOUS
 10
104.8354195038
 20
196.3881306414
  0
VERTEX
  8
0
 62
7
  6
CONTINUOUS
 10
104.8243047747
 20
196.4347708126
  0
VERTEX
  8
0
 62
7
  6
CONTINUOUS
 10
104.8205956702
 20
196.482339284
  0
SEQEND
  0
POLYLINE
  8
0
 62
7
  6
CONTINUOUS
 66
1
 70
0
  0
VERTEX
  8
0
 62
7
  6
CONTINUOUS
 10
129.5195689152
 20
205.5354602968
  0
VERTEX
  8
0
 62
7
  6
CONTINUOUS
 10
129.3541569917
 20
205.5640394964
  0
VERTEX
  8
0
 62
7
  6
CONTINUOUS
 10
129.2552934193
 20
205.5807715485
  0
VERTEX
  8
0
 62
7
  6
CONTINUOUS
 10
129.1473061046
 20
205.5978240739
  0
VERTEX
  8
0
 62
7
  6
CONTINUOUS
 10
129.0316651679
 20
205.6142076599
  0
VERTEX
  8
0
 62
7
  6
CONTINUOUS
 10
128.909930675
 20
205.6290102826
  0
VERTEX
  8
0
 62
7
  6
CONTINUOUS
 10
128.7836870449
 20
205.6414537885
  0
VERTEX
  8
0
 62
7
  6
CONTINUOUS
 10
128.6542989581
 20
205.6509456628
  0
VERTEX
  8
0
 62
7
  6
CONTINUOUS
 10
128.5226259971
 20
205.6570839056
  0
VERTEX
  8
0
 62
7
  6
CONTINUOUS
 10
128.389290917
 20
205.659599346
  0
SEQEND
  0
POLYLINE
  8
0
 62
7
  6
CONTINUOUS
 66
1
 70
0
  0
VERTEX
  8
0
 62
7
  6
CONTINUOUS
 10
110.7205956702
 20
196.1788515788
  0
VERTEX
  8
0
 62
7
  6
CONTINUOUS
 10
110.9150448847
 20
196.1804841683
  0
VERTEX
  8
0
 62
7
  6
CONTINUOUS
 10
111.1088163587
 20
196.1853779773
  0
VERTEX
  8
0
 62
7
  6
CONTINUOUS
 10
111.2990452677
 20
196.1934115251
  0
VERTEX
  8
0
 62
7
  6
CONTINUOUS
 10
111.4830760604
 20
196.2043244571
  0
VERTEX
  8
0
 62
7
  6
CONTINUOUS
 10
111.660064433
 20
196.2178739152
  0
VERTEX
  8
0
 62
7
  6
CONTINUOUS
 10
111.829104957
 20
196.233803356
  0
VERTEX
  8
0
 62
7
  6
CONTINUOUS
 10
111.9876068349
 20
196.2516477116
  0
VERTEX
  8
0
 62
7
  6
CONTINUOUS
 10
112.1333193412
 20
196.2708664668
  0
VERTEX
  8
0
 62
7
  6
CONTINUOUS
 10
112.2650891676
 20
196.2909950528
  0
VERTEX
  8
0
 62
7
  6
CONTINUOUS
 10
112.3824908714
 20
196.311690891
  0
VERTEX
  8
0
 62
7
  6
CONTINUOUS
 10
112.4839387572
 20
196.3324263346
  0
VERTEX
  8
0
 62
7
  6
CONTINUOUS
 10
112.5679792733
 20
196.3526422706
  0
VERTEX
  8
0
 62
7
  6
CONTINUOUS
 10
112.6341937586
 20
196.3719976413
  0
VERTEX
  8
0
 62
7
  6
CONTINUOUS
 10
112.6821288141
 20
196.3902047846
  0
VERTEX
  8
0
 62
7
  6
CONTINUOUS
 10
112.7110115961
 20
196.4068676903
  0
VERTEX
  8
0
 62
7
  6
CONTINUOUS
 10
112.7205956702
 20
196.4216754536
  0
SEQEND
  0
LINE
  8
0
 62
7
  6
CONTINUOUS
 10
105.1205956702
 20
196.1788515788
 11
110.7205956702
 21
196.1788515788
  0
LINE
  8
0
 62
7
  6
CONTINUOUS
 10
105.2705951167
 20
196.4717323188
 11
112.7205956702
 21
196.4717323188
  0
LINE
  8
0
 62
7
  6
CONTINUOUS
 10
99.7165956702
 20
205.516719311
 11
169.1665956702
 21
205.516719311
  0
LINE
  8
0
 62
7
  6
CONTINUOUS
 10
105.1532595521
 20
196.2124169253
 11
105.1205956702
 21
196.212439845
  0
POLYLINE
  8
0
 62
7
  6
CONTINUOUS
 66
1
 70
0
  0
VERTEX
  8
0
 62
7
  6
CONTINUOUS
 10
129.675641124
 20
205.516719311
  0
VERTEX
  8
0
 62
7
  6
CONTINUOUS
 10
129.6364740816
 20
205.5189360951
  0
VERTEX
  8
0
 62
7
  6
CONTINUOUS
 10
129.5843631721
 20
205.5253450451
  0
VERTEX
  8
0
 62
7
  6
CONTINUOUS
 10
129.5195689152
 20
205.5354602968
  0
SEQEND
  0
POLYLINE
  8
0
 62
7
  6
CONTINUOUS
 66
1
 70
0
  0
VERTEX
  8
0
 62
7
  6
CONTINUOUS
 10
121.4575502164
 20
205.516719311
  0
VERTEX
  8
0
 62
7
  6
CONTINUOUS
 10
121.4968013403
 20
205.5189441647
  0
VERTEX
  8
0
 62
7
  6
CONTINUOUS
 10
121.5489222965
 20
205.5253584916
  0
VERTEX
  8
0
 62
7
  6
CONTINUOUS
 10
121.613720823
 20
205.5354766038
  0
VERTEX
  8
0
 62
7
  6
CONTINUOUS
 10
121.7791299982
 20
205.564056048
  0
SEQEND
  0
LINE
  8
0
 62
7
  6
CONTINUOUS
 10
101.6062404731
 20
219.7471437215
 11
101.3423070283
 21
219.7448138532
  0
POLYLINE
  8
0
 62
7
  6
CONTINUOUS
 66
1
 70
0
  0
VERTEX
  8
0
 62
7
  6
CONTINUOUS
 10
103.051465179
 20
219.7543728177
  0
VERTEX
  8
0
 62
7
  6
CONTINUOUS
 10
102.3136359368
 20
219.7514574738
  0
VERTEX
  8
0
 62
7
  6
CONTINUOUS
 10
101.6062403662
 20
219.7471437169
  0
SEQEND
  0
LINE
  8
0
 62
7
  6
CONTINUOUS
 10
103.051465179
 20
219.7543728177
 11
103.9870298338
 21
219.7557451239
  0
LINE
  8
AXES
 62
2
  6
CENTER
 10
99.5665956702
 20
211.516719311
 11
165.5665956702
 21
211.516719311
  0
LINE
  8
0
 62
7
  6
CONTINUOUS
 10
148.8705956702
 20
219.754695158
 11
145.0165956702
 21
219.754695158
  0
LINE
  8
0
 62
7
  6
CONTINUOUS
 10
135.1165956702
 20
219.754695158
 11
130.5165956702
 21
219.754695158
  0
LINE
  8
0
 62
7
  6
CONTINUOUS
 10
116.1915956702
 20
219.7554827917
 11
120.3165956702
 21
219.7554827917
  0
LINE
  8
SURFACE
 62
7
  6
CONTINUOUS
 10
103.9854460045
 20
219.7557453331
 11
116.1915956702
 21
219.7557453331
  0
LINE
  8
SURFACE
 62
7
  6
CONTINUOUS
 10
120.3165956702
 20
219.7557453331
 11
130.5165956702
 21
219.7557453331
  0
LINE
  8
SURFACE
 62
7
  6
CONTINUOUS
 10
135.1165956702
 20
219.7557453331
 11
145.0165956702
 21
219.7557453331
  0
LINE
  8
SURFACE
 62
7
  6
CONTINUOUS
 10
148.8705956702
 20
219.7557453331
 11
168.9609146945
 21
219.7557453331
  0
POLYLINE
  8
0
 62
7
  6
CONTINUOUS
 66
1
 70
0
  0
VERTEX
  8
0
 62
7
  6
CONTINUOUS
 10
103.9870298338
 20
219.7557451239
  0
VERTEX
  8
0
 62
7
  6
CONTINUOUS
 10
104.6216475796
 20
219.7547353062
  0
VERTEX
  8
0
 62
7
  6
CONTINUOUS
 10
105.0289034926
 20
219.7523976351
  0
VERTEX
  8
0
 62
7
  6
CONTINUOUS
 10
105.4163591229
 20
219.7481337623
  0
VERTEX
  8
0
 62
7
  6
CONTINUOUS
 10
105.781160678
 20
219.7414151361
  0
VERTEX
  8
0
 62
7
  6
CONTINUOUS
 10
106.1214878988
 20
219.7316977187
  0
VERTEX
  8
0
 62
7
  6
CONTINUOUS
 10
106.4356548741
 20
219.7184364287
  0
VERTEX
  8
0
 62
7
  6
CONTINUOUS
 10
106.7217095969
 20
219.7011222251
  0
VERTEX
  8
0
 62
7
  6
CONTINUOUS
 10
106.9779325954
 20
219.6792925432
  0
VERTEX
  8
0
 62
7
  6
CONTINUOUS
 10
107.2031003645
 20
219.6525110188
  0
VERTEX
  8
0
 62
7
  6
CONTINUOUS
 10
107.3959914179
 20
219.6204057449
  0
VERTEX
  8
0
 62
7
  6
CONTINUOUS
 10
107.5552203338
 20
219.5827544176
  0
VERTEX
  8
0
 62
7
  6
CONTINUOUS
 10
107.6801944101
 20
219.5392865096
  0
VERTEX
  8
0
 62
7
  6
CONTINUOUS
 10
107.7699299391
 20
219.4899665369
  0
VERTEX
  8
0
 62
7
  6
CONTINUOUS
 10
107.8237501555
 20
219.434996947
  0
VERTEX
  8
0
 62
7
  6
CONTINUOUS
 10
107.8415956702
 20
219.3747737861
  0
SEQEND
  0
LINE
  8
0
 62
7
  6
CONTINUOUS
 10
168.9811238452
 20
219.7557089359
 11
168.9622490077
 21
219.7557453033
  0
POLYLINE
  8
0
 62
7
  6
CONTINUOUS
 66
1
 70
0
  0
VERTEX
  8
0
 62
7
  6
CONTINUOUS
 10
168.9689218732
 20
219.7557409707
  0
VERTEX
  8
0
 62
7
  6
CONTINUOUS
 10
168.9953036161
 20
219.755601714
  0
VERTEX
  8
0
 62
7
  6
CONTINUOUS
 10
169.0112610211
 20
219.7552553542
  0
VERTEX
  8
0
 62
7
  6
CONTINUOUS
 10
169.0165956702
 20
219.754695158
  0
SEQEND
  0
LINE
  8
0
 62
7
  6
CONTINUOUS
 10
169.0006807572
 20
219.7555462343
 11
168.9936450024
 21
219.7556270905
  0
LINE
  8
0
 62
7
  6
CONTINUOUS
 10
169.0068719587
 20
219.7554414208
 11
169.0006807572
 21
219.7555462343
  0
POLYLINE
  8
0
 62
7
  6
CONTINUOUS
 66
1
 70
0
  0
VERTEX
  8
0
 62
7
  6
CONTINUOUS
 10
121.7791299982
 20
205.564056048
  0
VERTEX
  8
0
 62
7
  6
CONTINUOUS
 10
121.8779882089
 20
205.580786413
  0
VERTEX
  8
0
 62
7
  6
CONTINUOUS
 10
121.9859659256
 20
205.5978362327
  0
VERTEX
  8
0
 62
7
  6
CONTINUOUS
 10
122.1015950826
 20
205.6142167822
  0
VERTEX
  8
0
 62
7
  6
CONTINUOUS
 10
122.2233121628
 20
205.629015981
  0
VERTEX
  8
0
 62
7
  6
CONTINUOUS
 10
122.34952984
 20
205.6414559903
  0
VERTEX
  8
0
 62
7
  6
CONTINUOUS
 10
122.4789008813
 20
205.6509461601
  0
VERTEX
  8
0
 62
7
  6
CONTINUOUS
 10
122.6105752156
 20
205.6570842039
  0
VERTEX
  8
0
 62
7
  6
CONTINUOUS
 10
122.743899167
 20
205.65959921
  0
SEQEND
  0
POLYLINE
  8
0
 62
7
  6
CONTINUOUS
 66
1
 70
0
  0
VERTEX
  8
0
 62
7
  6
CONTINUOUS
 10
100.6259995972
 20
219.7311512592
  0
VERTEX
  8
0
 62
7
  6
CONTINUOUS
 10
100.5297388621
 20
219.7278962891
  0
VERTEX
  8
0
 62
7
  6
CONTINUOUS
 10
100.4399038132
 20
219.7243564978
  0
VERTEX
  8
0
 62
7
  6
CONTINUOUS
 10
100.3563468901
 20
219.7205357152
  0
VERTEX
  8
0
 62
7
  6
CONTINUOUS
 10
100.2788950202
 20
219.7164399032
  0
VERTEX
  8
0
 62
7
  6
CONTINUOUS
 10
100.2073462085
 20
219.7120768113
  0
VERTEX
  8
0
 62
7
  6
CONTINUOUS
 10
100.1414755401
 20
219.707454895
  0
VERTEX
  8
0
 62
7
  6
CONTINUOUS
 10
100.081029496
 20
219.7025827369
  0
VERTEX
  8
0
 62
7
  6
CONTINUOUS
 10
100.0257410565
 20
219.6974675869
  0
VERTEX
  8
0
 62
7
  6
CONTINUOUS
 10
99.9753224493
 20
219.6921149238
  0
VERTEX
  8
0
 62
7
  6
CONTINUOUS
 10
99.9294680232
 20
219.6865247706
  0
VERTEX
  8
0
 62
7
  6
CONTINUOUS
 10
99.8878706706
 20
219.6806930586
  0
VERTEX
  8
0
 62
7
  6
CONTINUOUS
 10
99.8502000344
 20
219.6746049155
  0
VERTEX
  8
0
 62
7
  6
CONTINUOUS
 10
99.8161014994
 20
219.6682289215
  0
VERTEX
  8
0
 62
7
  6
CONTINUOUS
 10
99.7851740803
 20
219.6615055986
  0
VERTEX
  8
0
 62
7
  6
CONTINUOUS
 10
99.7569672829
 20
219.6543286463
  0
VERTEX
  8
0
 62
7
  6
CONTINUOUS
 10
99.7310259756
 20
219.6465358713
  0
VERTEX
  8
0
 62
7
  6
CONTINUOUS
 10
99.706894795
 20
219.6378847096
  0
VERTEX
  8
0
 62
7
  6
CONTINUOUS
 10
99.6840553529
 20
219.6279804109
  0
VERTEX
  8
0
 62
7
  6
CONTINUOUS
 10
99.6619566237
 20
219.6161900947
  0
VERTEX
  8
0
 62
7
  6
CONTINUOUS
 10
99.6401495682
 20
219.601548265
  0
VERTEX
  8
0
 62
7
  6
CONTINUOUS
 10
99.618633448
 20
219.5827757661
  0
VERTEX
  8
0
 62
7
  6
CONTINUOUS
 10
99.5983777807
 20
219.5586820536
  0
VERTEX
  8
0
 62
7
  6
CONTINUOUS
 10
99.5814055638
 20
219.5288433477
  0
VERTEX
  8
0
 62
7
  6
CONTINUOUS
 10
99.5702331291
 20
219.4944019004
  0
VERTEX
  8
0
 62
7
  6
CONTINUOUS
 10
99.5665960699
 20
219.4594771617
  0
SEQEND
  0
LINE
  8
0
 62
7
  6
CONTINUOUS
 10
100.8382197032
 20
219.7368041447
 11
100.6259995972
 21
219.7311512592
  0
LINE
  8
0
 62
7
  6
CONTINUOUS
 10
101.0770415929
 20
219.7413369584
 11
100.8382197032
 21
219.7368041447
  0
LINE
  8
0
 62
7
  6
CONTINUOUS
 10
101.3423070283
 20
219.7448138532
 11
101.0770415929
 21
219.7413369584
  0
POLYLINE
  8
AXES
 62
7
  6
CONTINUOUS
 66
1
 70
0
  0
VERTEX
  8
AXES
 62
7
  6
CONTINUOUS
 10
122.4484269094
 20
210.0327393094
  0
VERTEX
  8
AXES
 62
7
  6
CONTINUOUS
 10
122.3204197269
 20
209.9996864372
  0
VERTEX
  8
AXES
 62
7
  6
CONTINUOUS
 10
122.1889919072
 20
209.9553568149
  0
VERTEX
  8
AXES
 62
7
  6
CONTINUOUS
 10
122.0550005657
 20
209.9001955954
  0
VERTEX
  8
AXES
 62
7
  6
CONTINUOUS
 10
121.9217147437
 20
209.836288786
  0
VERTEX
  8
AXES
 62
7
  6
CONTINUOUS
 10
121.7946832861
 20
209.7678590305
  0
VERTEX
  8
AXES
 62
7
  6
CONTINUOUS
 10
121.6782166514
 20
209.6993363025
  0
VERTEX
  8
AXES
 62
7
  6
CONTINUOUS
 10
121.5754938778
 20
209.6347379792
  0
VERTEX
  8
AXES
 62
7
  6
CONTINUOUS
 10
121.488410503
 20
209.5771428441
  0
VERTEX
  8
AXES
 62
7
  6
CONTINUOUS
 10
121.4166938572
 20
209.5278318322
  0
VERTEX
  8
AXES
 62
7
  6
CONTINUOUS
 10
121.3598303242
 20
209.4874915658
  0
VERTEX
  8
AXES
 62
7
  6
CONTINUOUS
 10
121.3171738083
 20
209.4563857467
  0
VERTEX
  8
AXES
 62
7
  6
CONTINUOUS
 10
121.2877695757
 20
209.4342974393
  0
VERTEX
  8
AXES
 62
7
  6
CONTINUOUS
 10
121.2710339782
 20
209.4210827544
  0
VERTEX
  8
AXES
 62
7
  6
CONTINUOUS
 10
121.2665956732
 20
209.4168066658
  0
SEQEND
  0
ARC
  8
AXES
 62
7
  6
CONTINUOUS
 10
101.6915956702
 20
117.7145623351
 40
6.0
 50
3.9535667926
 51
5.1476791904
  0
ARC
  8
AXES
 62
7
  6
CONTINUOUS
 10
101.6915956702
 20
117.7145623351
 40
6.0
 50
8.0235414364
 51
10.0918668683
  0
ARC
  8
0
 62
7
  6
CONTINUOUS
 10
101.6915956702
 20
117.7145623351
 40
6.0
 50
359.9998298028
 51
70.3309087368
  0
ARC
  8
0
 62
7
  6
CONTINUOUS
 10
110.4415956702
 20
110.8659241801
 40
4.5
 50
270.0
 51
299.9997624355
  0
ARC
  8
0
 62
7
  6
CONTINUOUS
 10
109.4415956702
 20
110.8659241801
 40
4.5
 50
240.0002375645
 51
270.0
  0
ARC
  8
0
 62
7
  6
CONTINUOUS
 10
107.4416097663
 20
107.4018143853
 40
0.5000000045
 50
180.0000129345
 51
240.0002705354
  0
ARC
  8
0
 62
7
  6
CONTINUOUS
 10
112.441581307
 20
107.4018142725
 40
0.5
 50
299.9997624355
 51
360.0
  0
ARC
  8
0
 62
7
  6
CONTINUOUS
 10
107.1915956702
 20
114.4352024723
 40
0.5
 50
345.8000232447
 51
0.0000037398
  0
ARC
  8
AXES
 62
7
  6
CONTINUOUS
 10
107.1915956702
 20
114.4352024723
 40
0.5
 50
345.8
 51
350.0603159708
  0
ARC
  8
AXES
 62
7
  6
CONTINUOUS
 10
107.1915956702
 20
114.4352024723
 40
0.5
 50
350.8517292184
 51
354.9513626099
  0
ARC
  8
AXES
 62
7
  6
CONTINUOUS
 10
107.1915956702
 20
114.4352024723
 40
0.5
 50
355.7373127393
 51
360.0
  0
ARC
  8
0
 62
7
  6
CONTINUOUS
 10
112.6915956702
 20
114.4352024723
 40
0.5
 50
180.000019695
 51
194.2000046172
  0
ARC
  8
AXES
 62
7
  6
CONTINUOUS
 10
112.6915956702
 20
114.4352024723
 40
0.5
 50
180.0
 51
184.264845916
  0
ARC
  8
AXES
 62
7
  6
CONTINUOUS
 10
112.6915956702
 20
114.4352024723
 40
0.5
 50
185.0483520966
 51
189.150340182
  0
ARC
  8
AXES
 62
7
  6
CONTINUOUS
 10
112.6915956702
 20
114.4352024723
 40
0.5
 50
189.9388413887
 51
194.2
  0
ARC
  8
AXES
 62
7
  6
CONTINUOUS
 10
112.791581307
 20
111.3903263141
 40
0.15
 50
0.0
 51
14.2
  0
ARC
  8
0
 62
7
  6
CONTINUOUS
 10
112.7915810682
 20
111.3903272581
 40
0.15
 50
359.9996394343
 51
14.199628069
  0
ARC
  8
AXES
 62
7
  6
CONTINUOUS
 10
107.0916100334
 20
111.3903263141
 40
0.15
 50
165.8
 51
180.0
  0
ARC
  8
0
 62
7
  6
CONTINUOUS
 10
107.0916100334
 20
111.3903263141
 40
0.15
 50
165.8
 51
180.0
  0
ARC
  8
0
 62
7
  6
CONTINUOUS
 10
59.9705956702
 20
129.9947815883
 40
45.0
 50
355.9091741788
 51
4.0908258212
  0
ARC
  8
0
 62
7
  6
CONTINUOUS
 10
109.5665956702
 20
129.1659241801
 40
5.5
 50
210.7881902385
 51
270.0001918945
  0
ARC
  8
0
 62
7
  6
CONTINUOUS
 10
111.3165956702
 20
128.1659241801
 40
4.5
 50
269.9997612597
 51
0.0002301846
  0
ARC
  8
0
 62
7
  6
CONTINUOUS
 10
102.5665956702
 20
126.9594760259
 40
3.0
 50
179.9996595825
 51
250.3310293015
  0
ARC
  8
0
 62
7
  6
CONTINUOUS
 10
102.0665956702
 20
138.4104225533
 40
2.5
 50
70.3307146137
 51
180.0005276699
  0
ARC
  8
0
 62
7
  6
CONTINUOUS
 10
104.9705956702
 20
126.4274421188
 40
0.15
 50
179.9992181607
 51
210.7892060643
  0
ARC
  8
0
 62
7
  6
CONTINUOUS
 10
104.6705956702
 20
139.9752465878
 40
0.15
 50
0.0
 51
70.3307146137
  0
ARC
  8
0
 62
7
  6
CONTINUOUS
 10
126.0665956702
 20
110.8659241801
 40
4.5
 50
270.0
 51
299.9997624355
  0
ARC
  8
0
 62
7
  6
CONTINUOUS
 10
125.0665956702
 20
110.8659241801
 40
4.5
 50
240.0002375645
 51
270.0
  0
ARC
  8
AXES
 62
7
  6
CONTINUOUS
 10
122.7665956702
 20
110.6959241801
 40
1.5
 50
94.1260708806
 51
257.7538206432
  0
ARC
  8
AXES
 62
7
  6
CONTINUOUS
 10
128.3665956702
 20
110.6959241801
 40
1.5
 50
282.2461793568
 51
85.8739291194
  0
ARC
  8
0
 62
7
  6
CONTINUOUS
 10
123.0666097663
 20
107.4018143853
 40
0.5000000045
 50
180.0000129345
 51
240.0002705354
  0
ARC
  8
0
 62
7
  6
CONTINUOUS
 10
128.066581307
 20
107.4018142725
 40
0.5
 50
299.9997624355
 51
360.0
  0
ARC
  8
AXES
 62
7
  6
CONTINUOUS
 10
128.716581307
 20
109.0834695129
 40
0.15
 50
102.2461793568
 51
180.0
  0
ARC
  8
AXES
 62
7
  6
CONTINUOUS
 10
122.4166100334
 20
109.0834695129
 40
0.15
 50
0.0
 51
77.7538206432
  0
ARC
  8
0
 62
7
  6
CONTINUOUS
 10
122.8165956702
 20
114.4352024723
 40
0.5
 50
345.8000232447
 51
0.0000037398
  0
ARC
  8
AXES
 62
7
  6
CONTINUOUS
 10
122.8165956702
 20
114.4352024723
 40
0.5
 50
345.8
 51
350.0603159708
  0
ARC
  8
AXES
 62
7
  6
CONTINUOUS
 10
122.8165956702
 20
114.4352024723
 40
0.5
 50
350.8517292184
 51
354.95136261
  0
ARC
  8
AXES
 62
7
  6
CONTINUOUS
 10
122.8165956702
 20
114.4352024723
 40
0.5
 50
355.7373127391
 51
360.0
  0
ARC
  8
0
 62
7
  6
CONTINUOUS
 10
128.3165956702
 20
114.4352024723
 40
0.5
 50
180.000043433
 51
194.1999095363
  0
ARC
  8
AXES
 62
7
  6
CONTINUOUS
 10
128.3165956702
 20
114.4352024723
 40
0.5
 50
180.0
 51
184.2639730727
  0
ARC
  8
AXES
 62
7
  6
CONTINUOUS
 10
128.3165956702
 20
114.4352024723
 40
0.5
 50
185.0481113768
 51
189.1490096538
  0
ARC
  8
AXES
 62
7
  6
CONTINUOUS
 10
128.3165956702
 20
114.4352024723
 40
0.5
 50
189.9394663559
 51
194.2
  0
ARC
  8
0
 62
7
  6
CONTINUOUS
 10
128.416581307
 20
111.3903263141
 40
0.15
 50
0.0
 51
14.2
  0
ARC
  8
AXES
 62
7
  6
CONTINUOUS
 10
128.4853153072
 20
112.3416476222
 40
0.15
 50
194.2
 51
265.8739291194
  0
ARC
  8
AXES
 62
7
  6
CONTINUOUS
 10
122.6478760333
 20
112.3416476222
 40
0.15
 50
274.1260708806
 51
345.8
  0
ARC
  8
0
 62
7
  6
CONTINUOUS
 10
122.7166100334
 20
111.3903263141
 40
0.15
 50
165.8
 51
180.0
  0
ARC
  8
0
 62
7
  6
CONTINUOUS
 10
140.5665956702
 20
110.8659241801
 40
4.5
 50
270.0
 51
299.9997624355
  0
ARC
  8
0
 62
7
  6
CONTINUOUS
 10
139.5665956702
 20
110.8659241801
 40
4.5
 50
240.0002375645
 51
270.0
  0
ARC
  8
0
 62
7
  6
CONTINUOUS
 10
137.5666097663
 20
107.4018143853
 40
0.5000000045
 50
180.0000129345
 51
240.0002705354
  0
ARC
  8
0
 62
7
  6
CONTINUOUS
 10
142.566581307
 20
107.4018142725
 40
0.5
 50
299.9997624355
 51
360.0
  0
ARC
  8
0
 62
7
  6
CONTINUOUS
 10
137.3165956702
 20
114.4352024723
 40
0.5
 50
345.80004763
 51
359.9999120327
  0
ARC
  8
AXES
 62
7
  6
CONTINUOUS
 10
137.3165956702
 20
114.4352024723
 40
0.5
 50
345.8
 51
350.0609162946
  0
ARC
  8
AXES
 62
7
  6
CONTINUOUS
 10
137.3165956702
 20
114.4352024723
 40
0.5
 50
350.850338144
 51
354.9518704175
  0
ARC
  8
AXES
 62
7
  6
CONTINUOUS
 10
137.3165956702
 20
114.4352024723
 40
0.5
 50
355.7382317198
 51
360.0
  0
ARC
  8
0
 62
7
  6
CONTINUOUS
 10
142.8165956702
 20
114.4352024723
 40
0.5
 50
180.000043433
 51
194.1999095363
  0
ARC
  8
AXES
 62
7
  6
CONTINUOUS
 10
142.8165956702
 20
114.4352024723
 40
0.5
 50
180.0
 51
184.2639730728
  0
ARC
  8
AXES
 62
7
  6
CONTINUOUS
 10
142.8165956702
 20
114.4352024723
 40
0.5
 50
185.0481113768
 51
189.1490096538
  0
ARC
  8
AXES
 62
7
  6
CONTINUOUS
 10
142.8165956702
 20
114.4352024723
 40
0.5
 50
189.9394663559
 51
194.2
  0
ARC
  8
AXES
 62
7
  6
CONTINUOUS
 10
137.2166100334
 20
111.3903263141
 40
0.15
 50
165.8
 51
180.0
  0
ARC
  8
0
 62
7
  6
CONTINUOUS
 10
137.216610527
 20
111.390328265
 40
0.15
 50
165.8007686563
 51
180.000745151
  0
ARC
  8
AXES
 62
7
  6
CONTINUOUS
 10
142.916581307
 20
111.3903263141
 40
0.15
 50
0.0
 51
14.2
  0
ARC
  8
0
 62
7
  6
CONTINUOUS
 10
142.916581307
 20
111.3903263141
 40
0.15
 50
0.0
 51
14.2
  0
ARC
  8
0
 62
7
  6
CONTINUOUS
 10
116.1915956702
 20
119.1159241801
 40
4.0
 50
89.9997613781
 51
180.0002784771
  0
ARC
  8
0
 62
7
  6
CONTINUOUS
 10
120.3165956702
 20
120.1159241801
 40
3.0
 50
359.9996937138
 51
90.0003308395
  0
ARC
  8
0
 62
7
  6
CONTINUOUS
 10
135.1165956702
 20
120.2659241801
 40
2.7
 50
359.9996283331
 51
90.0003635101
  0
ARC
  8
0
 62
7
  6
CONTINUOUS
 10
130.5165956702
 20
120.2659241801
 40
2.7
 50
89.9996279837
 51
180.0003632179
  0
ARC
  8
0
 62
7
  6
CONTINUOUS
 10
154.3205956702
 20
110.9059241801
 40
4.54
 50
270.0
 51
299.6727803588
  0
ARC
  8
0
 62
7
  6
CONTINUOUS
 10
153.3205956702
 20
110.9059241801
 40
4.54
 50
240.3272196412
 51
270.0
  0
ARC
  8
0
 62
7
  6
CONTINUOUS
 10
151.3206097582
 20
107.3957024439
 40
0.5000000044
 50
180.0000133015
 51
240.3272536194
  0
ARC
  8
0
 62
7
  6
CONTINUOUS
 10
156.320581307
 20
107.3957023278
 40
0.5
 50
299.6727803588
 51
360.0
  0
ARC
  8
0
 62
7
  6
CONTINUOUS
 10
151.0705956702
 20
114.4352024723
 40
0.5
 50
345.80004763
 51
359.9999120327
  0
ARC
  8
AXES
 62
7
  6
CONTINUOUS
 10
151.0705956702
 20
114.4352024723
 40
0.5
 50
345.7999999998
 51
350.0609162944
  0
ARC
  8
AXES
 62
7
  6
CONTINUOUS
 10
151.0705956702
 20
114.4352024723
 40
0.5
 50
350.8503381441
 51
354.9518704175
  0
ARC
  8
AXES
 62
7
  6
CONTINUOUS
 10
151.0705956702
 20
114.4352024723
 40
0.5
 50
355.7382317198
 51
360.0
  0
ARC
  8
0
 62
7
  6
CONTINUOUS
 10
156.5705956702
 20
114.4352024723
 40
0.5
 50
180.000043433
 51
194.1999095363
  0
ARC
  8
AXES
 62
7
  6
CONTINUOUS
 10
156.5705956702
 20
114.4352024723
 40
0.5
 50
180.0
 51
184.2639730728
  0
ARC
  8
AXES
 62
7
  6
CONTINUOUS
 10
156.5705956702
 20
114.4352024723
 40
0.5
 50
185.0481113767
 51
189.1490096539
  0
ARC
  8
AXES
 62
7
  6
CONTINUOUS
 10
156.5705956702
 20
114.4352024723
 40
0.5
 50
189.9394663558
 51
194.2
  0
ARC
  8
0
 62
7
  6
CONTINUOUS
 10
150.970610527
 20
111.390328265
 40
0.15
 50
165.8007686563
 51
180.000745151
  0
ARC
  8
AXES
 62
7
  6
CONTINUOUS
 10
150.9706100334
 20
111.3903263141
 40
0.15
 50
165.8
 51
180.0
  0
ARC
  8
AXES
 62
7
  6
CONTINUOUS
 10
156.670581307
 20
111.3903263141
 40
0.15
 50
0.0
 51
14.2
  0
ARC
  8
0
 62
7
  6
CONTINUOUS
 10
156.670581307
 20
111.3903263141
 40
0.15
 50
0.0
 51
14.2
  0
ARC
  8
0
 62
7
  6
CONTINUOUS
 10
166.9165956702
 20
110.3659241801
 40
4.0
 50
224.4153085972
 51
315.5846914028
  0
ARC
  8
0
 62
7
  6
CONTINUOUS
 10
164.4165958727
 20
107.9164341456
 40
0.5000000085
 50
179.9999665669
 51
224.4152684776
  0
ARC
  8
0
 62
7
  6
CONTINUOUS
 10
169.4165956702
 20
107.9164344373
 40
0.5
 50
315.5846914028
 51
360.0
  0
ARC
  8
0
 62
7
  6
CONTINUOUS
 10
164.1665956702
 20
114.435259235
 40
0.5
 50
345.8000476299
 51
359.9999120325
  0
ARC
  8
AXES
 62
7
  6
CONTINUOUS
 10
164.1665956702
 20
114.435259235
 40
0.5
 50
345.8
 51
350.0609163036
  0
ARC
  8
AXES
 62
7
  6
CONTINUOUS
 10
164.1665956702
 20
114.435259235
 40
0.5
 50
350.8503381196
 51
354.9518703931
  0
ARC
  8
AXES
 62
7
  6
CONTINUOUS
 10
164.1665956702
 20
114.435259235
 40
0.5
 50
355.7382317298
 51
360.0
  0
ARC
  8
0
 62
7
  6
CONTINUOUS
 10
169.6665956702
 20
114.435259235
 40
0.5
 50
180.0000879381
 51
194.1999523252
  0
ARC
  8
AXES
 62
7
  6
CONTINUOUS
 10
169.6665956702
 20
114.435259235
 40
0.5
 50
189.9390834344
 51
194.2
  0
ARC
  8
AXES
 62
7
  6
CONTINUOUS
 10
169.6665956702
 20
114.435259235
 40
0.5
 50
185.0481302839
 51
189.1496625575
  0
ARC
  8
AXES
 62
7
  6
CONTINUOUS
 10
169.6665956702
 20
114.435259235
 40
0.5
 50
180.0
 51
184.2617680016
  0
ARC
  8
AXES
 62
7
  6
CONTINUOUS
 10
169.7665956702
 20
111.3903263141
 40
0.15
 50
0.0
 51
14.2
  0
ARC
  8
0
 62
7
  6
CONTINUOUS
 10
169.7665956702
 20
111.3903263141
 40
0.15
 50
0.0
 51
14.2
  0
ARC
  8
0
 62
7
  6
CONTINUOUS
 10
164.0665961639
 20
111.390328265
 40
0.15
 50
165.8007686868
 51
180.0007451806
  0
ARC
  8
AXES
 62
7
  6
CONTINUOUS
 10
164.0665956702
 20
111.3903263141
 40
0.15
 50
165.8
 51
180.0
  0
ARC
  8
0
 62
7
  6
CONTINUOUS
 10
148.8705956702
 20
120.2659241801
 40
2.7
 50
359.9996283331
 51
90.0003635101
  0
ARC
  8
0
 62
7
  6
CONTINUOUS
 10
145.0165956702
 20
120.2659241801
 40
2.7
 50
89.9996279837
 51
180.0003632179
  0
ARC
  8
0
 62
7
  6
CONTINUOUS
 10
162.6665956702
 20
120.6319241801
 40
2.0
 50
359.9995293645
 51
90.0004656562
  0
ARC
  8
0
 62
7
  6
CONTINUOUS
 10
158.0705956702
 20
120.6319241801
 40
2.0
 50
89.9995347253
 51
180.0004709252
  0
ARC
  8
0
 62
7
  6
CONTINUOUS
 10
168.1665956702
 20
123.1159241801
 40
1.0
 50
0.0
 51
90.0
  0
ARC
  8
0
 62
7
  6
CONTINUOUS
 10
124.8165956702
 20
128.2659241801
 40
4.5
 50
179.9997670316
 51
270.0002582324
  0
ARC
  8
0
 62
7
  6
CONTINUOUS
 10
126.3165956702
 20
128.2659241801
 40
4.5
 50
269.9997704292
 51
0.0002616126
  0
ARC
  8
0
 62
7
  6
CONTINUOUS
 10
166.9165956702
 20
128.2199241801
 40
4.104
 50
179.9997628904
 51
270.0002393182
  0
ARC
  8
0
 62
7
  6
CONTINUOUS
 10
153.1705956702
 20
127.7659241801
 40
3.85
 50
179.9997490811
 51
270.0002687113
  0
ARC
  8
0
 62
7
  6
CONTINUOUS
 10
154.4705956702
 20
127.7659241801
 40
3.85
 50
269.9997578223
 51
0.0002798283
  0
ARC
  8
0
 62
7
  6
CONTINUOUS
 10
139.1665956702
 20
127.7659241801
 40
3.85
 50
179.9997490811
 51
270.0002687113
  0
ARC
  8
0
 62
7
  6
CONTINUOUS
 10
140.9665956702
 20
127.7659241801
 40
3.85
 50
269.9997578223
 51
0.0002798283
  0
ARC
  8
0
 62
7
  6
CONTINUOUS
 10
115.8125956702
 20
139.7159241801
 40
0.75
 50
90.0
 51
180.0
  0
ARC
  8
0
 62
7
  6
CONTINUOUS
 10
120.3205956702
 20
139.7159241801
 40
0.75
 50
0.0
 51
90.0
  0
ARC
  8
0
 62
7
  6
CONTINUOUS
 10
130.8125956702
 20
139.7159241801
 40
0.75
 50
90.0
 51
180.0
  0
ARC
  8
0
 62
7
  6
CONTINUOUS
 10
135.3205956702
 20
139.7159241801
 40
0.75
 50
0.0
 51
90.0
  0
ARC
  8
0
 62
7
  6
CONTINUOUS
 10
144.8125956702
 20
139.7159241801
 40
0.75
 50
90.0
 51
180.0
  0
ARC
  8
0
 62
7
  6
CONTINUOUS
 10
149.3245956702
 20
139.7159241801
 40
0.75
 50
0.0
 51
90.0
  0
ARC
  8
0
 62
7
  6
CONTINUOUS
 10
158.3165956702
 20
139.7159241801
 40
0.75
 50
90.0
 51
180.0
  0
ARC
  8
0
 62
7
  6
CONTINUOUS
 10
162.8165956702
 20
139.7159241801
 40
0.75
 50
0.0
 51
90.0
  0
ARC
  8
0
 62
7
  6
CONTINUOUS
 10
163.3125956702
 20
132.4036458879
 40
0.5
 50
165.8000476345
 51
179.9999120476
  0
ARC
  8
0
 62
7
  6
CONTINUOUS
 10
149.8205956702
 20
132.4036458879
 40
0.5
 50
165.8000232516
 51
180.0000037413
  0
ARC
  8
0
 62
7
  6
CONTINUOUS
 10
157.8205956702
 20
132.4036458879
 40
0.5
 50
0.0000196988
 51
14.2000046195
  0
ARC
  8
0
 62
7
  6
CONTINUOUS
 10
135.8165956702
 20
132.4036458879
 40
0.5
 50
165.8000232515
 51
180.0000037413
  0
ARC
  8
0
 62
7
  6
CONTINUOUS
 10
144.3165956702
 20
132.4036458879
 40
0.5
 50
0.0000196988
 51
14.2000046195
  0
ARC
  8
0
 62
7
  6
CONTINUOUS
 10
120.8165956702
 20
132.4036458879
 40
0.5
 50
165.8000232515
 51
180.0000037413
  0
ARC
  8
0
 62
7
  6
CONTINUOUS
 10
130.3165956702
 20
132.4036458879
 40
0.5
 50
0.0000196988
 51
14.2000046195
  0
ARC
  8
0
 62
7
  6
CONTINUOUS
 10
115.3165956702
 20
132.4036503657
 40
0.5
 50
0.0000434023
 51
14.198899021
  0
ARC
  8
0
 62
7
  6
CONTINUOUS
 10
115.2125956702
 20
135.4646063244
 40
0.15
 50
180.0
 51
194.1989894452
  0
ARC
  8
0
 62
7
  6
CONTINUOUS
 10
163.4165955475
 20
135.4643861698
 40
0.15
 50
345.8001911561
 51
0.0001852972
  0
ARC
  8
0
 62
7
  6
CONTINUOUS
 10
149.9245956702
 20
135.4643866549
 40
0.15
 50
345.8
 51
360.0
  0
ARC
  8
0
 62
7
  6
CONTINUOUS
 10
157.7165959705
 20
135.464385468
 40
0.15
 50
179.9995466552
 51
194.1995323646
  0
ARC
  8
0
 62
7
  6
CONTINUOUS
 10
135.9205956702
 20
135.4643866549
 40
0.15
 50
345.8
 51
360.0
  0
ARC
  8
0
 62
7
  6
CONTINUOUS
 10
144.2125959705
 20
135.464385468
 40
0.15
 50
179.9995466552
 51
194.1995323646
  0
ARC
  8
0
 62
7
  6
CONTINUOUS
 10
120.9205956702
 20
135.4643866549
 40
0.15
 50
345.8
 51
360.0
  0
ARC
  8
0
 62
7
  6
CONTINUOUS
 10
130.2125959705
 20
135.464385468
 40
0.15
 50
179.9995466552
 51
194.1995323646
  0
ARC
  8
0
 62
7
  6
CONTINUOUS
 10
263.5404442456
 20
123.4159241801
 40
43.15
 50
340.5287793655
 51
19.8639975283
  0
ARC
  8
0
 62
7
  6
CONTINUOUS
 10
279.4535504914
 20
127.6486216331
 40
1.0
 50
180.0000108799
 51
269.0
  0
ARC
  8
0
 62
7
  6
CONTINUOUS
 10
279.4535504914
 20
131.8120215804
 40
1.0
 50
99.0118011229
 51
179.9999996674
  0
ARC
  8
0
 62
7
  6
CONTINUOUS
 10
296.4514182236
 20
110.3659241801
 40
4.0
 50
180.0
 51
270.0
  0
ARC
  8
0
 62
7
  6
CONTINUOUS
 10
300.4514182236
 20
110.3659241801
 40
4.0
 50
270.0
 51
340.5287793655
  0
ARC
  8
AXES
 62
7
  6
CONTINUOUS
 10
298.4514182236
 20
110.7159241801
 40
2.1
 50
180.0
 51
360.0
  0
ARC
  8
AXES
 62
7
  6
CONTINUOUS
 10
298.4514182236
 20
118.7659241801
 40
2.1
 50
0.0
 51
180.0
  0
ARC
  8
0
 62
7
  6
CONTINUOUS
 10
296.4514182236
 20
136.4659241801
 40
4.0
 50
167.4054517089
 51
180.0
  0
CIRCLE
  8
0
 62
7
  6
CONTINUOUS
 10
298.4514182236
 20
136.1159241801
 40
2.75
  0
CIRCLE
  8
0
 62
7
  6
CONTINUOUS
 10
298.4514182236
 20
136.1159241801
 40
2.1
  0
ARC
  8
0
 62
7
  6
CONTINUOUS
 10
292.0514182236
 20
126.0285115848
 40
0.4
 50
0.0
 51
89.0
  0
ARC
  8
0
 62
7
  6
CONTINUOUS
 10
292.0514182236
 20
135.2274848286
 40
0.399999936
 50
279.0118099046
 51
0.000055731
  0
ARC
  8
0
 62
7
  6
CONTINUOUS
 10
306.5403279846
 20
123.5159243904
 40
0.1499999932
 50
0.1331658079
 51
11.366521021
  0
ARC
  8
0
 62
7
  6
CONTINUOUS
 10
103.002007804
 20
193.5188515788
 40
2.0
 50
183.5
 51
270.0028131855
  0
ARC
  8
0
 62
7
  6
CONTINUOUS
 10
111.7205954623
 20
192.5188515788
 40
1.0
 50
270.0000119125
 51
360.0
  0
ARC
  8
0
 62
7
  6
CONTINUOUS
 10
105.2705951167
 20
196.7717318392
 40
0.2999999929
 50
180.0
 51
270.0
  0
ARC
  8
0
 62
7
  6
CONTINUOUS
 10
107.6916100334
 20
206.266719311
 40
0.75
 50
180.0
 51
270.0
  0
ARC
  8
0
 62
7
  6
CONTINUOUS
 10
112.191581307
 20
206.266719311
 40
0.75
 50
270.0
 51
360.0
  0
ARC
  8
0
 62
7
  6
CONTINUOUS
 10
99.8881673986
 20
205.116719311
 40
0.3999999298
 50
3.5000036919
 51
90.0000604751
  0
ARC
  8
0
 62
7
  6
CONTINUOUS
 10
129.7165956702
 20
205.666719311
 40
0.15
 50
270.0
 51
360.0
  0
ARC
  8
0
 62
7
  6
CONTINUOUS
 10
121.4165956702
 20
205.666719311
 40
0.15
 50
180.0
 51
270.0
  0
ARC
  8
0
 62
7
  6
CONTINUOUS
 10
99.7165956702
 20
205.666719311
 40
0.15
 50
180.0
 51
270.0
  0
ARC
  8
0
 62
7
  6
CONTINUOUS
 10
169.1665956702
 20
206.266719311
 40
0.75
 50
270.0
 51
360.0
  0
ARC
  8
0
 62
7
  6
CONTINUOUS
 10
164.6665956702
 20
206.266719311
 40
0.75
 50
180.0
 51
270.0
  0
ARC
  8
0
 62
7
  6
CONTINUOUS
 10
156.070581307
 20
206.266719311
 40
0.75
 50
270.0
 51
360.0
  0
ARC
  8
0
 62
7
  6
CONTINUOUS
 10
142.316581307
 20
206.266719311
 40
0.75
 50
270.0
 51
360.0
  0
ARC
  8
0
 62
7
  6
CONTINUOUS
 10
137.8166100334
 20
206.266719311
 40
0.75
 50
180.0
 51
270.0
  0
ARC
  8
0
 62
7
  6
CONTINUOUS
 10
151.5706100334
 20
206.266719311
 40
0.75
 50
180.0
 51
270.0
  0
ARC
  8
0
 62
7
  6
CONTINUOUS
 10
162.6625956702
 20
205.666719311
 40
0.15
 50
271.5229755582
 51
281.25
  0
ENDSEC
  0
EOF
