  0
SECTION
  2
HEADER
  9
$EXTMAX
 10
420.0
 20
297.0
 30
0.0
  9
$EXTMIN
 10
0.0
 20
0.0
 30
0.0
  9
$LIMMIN
 10
0.0
 20
0.0
  9
$LIMMAX
 10
420.0
 20
297.0
  9
$VIEWCTR
 10
210.0
 20
148.5
  9
$VIEWSIZE
 40
297.0
  9
$CLAYER
  8
0
  9
$LTSCALE
 40
23.1
  9
$CELTYPE
  6
BYLAYER
  9
$DIMSCALE
 40
1.0
  9
$DIMASZ
 40
3.5
  9
$DIMEXO
 40
1.0
  9
$DIMDLI
 40
15.96
  9
$DIMEXE
 40
2.0
  9
$DIMCEN
 40
3.78
  9
$DIMLFAC
 40
1.0
  9
$DIMBLK
  1
_FILLED
  9
$DIMALT
 70
0
  9
$DIMALTF
 40
0.0393700787
  9
$DIMTXT
 40
3.5
  9
$AUNITS
 70
0
  9
$PDMODE
 70
3
  9
$PDSIZE
 40
0.3125
  9
$TILEMODE
 70
1
  0
ENDSEC
  0
SECTION
  2
TABLES
  0
TABLE
  2
LTYPE
 70
6
  0
LTYPE
  2
BYBLOCK
 70
0
  3

 72
65
 73
0
 40
0.0
  0
LTYPE
  2
BYLAYER
 70
0
  3

 72
65
 73
0
 40
0.0
  0
LTYPE
  2
CONTINUOUS
 70
64
  3
Solid line
 72
65
 73
0
 40
0.0
  0
LTYPE
  2
CENTER
 70
64
  3
____ _ ____ _ ____ _ ____ _ ____ _ ____ _ ____
 72
65
 73
4
 40
0.6
 49
0.375
 49
-0.075
 49
0.075
 49
-0.075
  0
LTYPE
  2
HIDDEN
 70
64
  3
- - - - - - - - - - - - - - - - - - - -
 72
65
 73
2
 40
0.2
 49
0.1
 49
-0.1
  0
LTYPE
  2
PHANTOM
 70
64
  3
_____ _ _ _____ _ _ _____ _ _ _____
 72
65
 73
6
 40
0.8
 49
0.45
 49
-0.05
 49
0.1
 49
-0.05
 49
0.1
 49
-0.05
  0
LTYPE
  2
DOT
 70
64
  3
. . . . . . . . . . . . . . . . . . . .
 72
65
 73
2
 40
0.2
 49
0.1
 49
-0.1
  0
LTYPE
  2
DASHED
 70
64
  3
- - - - - - - - - - - - - - - - - - - -
 72
65
 73
2
 40
0.2
 49
0.1
 49
-0.1
  0
ENDTAB
  0
TABLE
  2
LAYER
 70
36
  0
LAYER
  2
0
 70
0
 62
7
  6
CONTINUOUS
  0
LAYER
  2
DEFAULT_1
 70
0
 62
7
  6
CENTER
  0
LAYER
  2
DEFAULT_2
 70
0
 62
8
  6
HIDDEN
  0
LAYER
  2
DEFAULT_3
 70
0
 62
7
  6
PHANTOM
  0
LAYER
  2
AXES
 70
0
 62
7
  6
CONTINUOUS
  0
LAYER
  2
CSYS
 70
0
 62
7
  6
CONTINUOUS
  0
LAYER
  2
CURVE
 70
0
 62
7
  6
CONTINUOUS
  0
LAYER
  2
CURVES
 70
0
 62
7
  6
CONTINUOUS
  0
LAYER
  2
PLANES
 70
0
 62
7
  6
CONTINUOUS
  0
LAYER
  2
QUILT
 70
0
 62
7
  6
CONTINUOUS
  0
LAYER
  2
SURF-A
 70
0
 62
7
  6
CONTINUOUS
  0
LAYER
  2
SURFACE
 70
0
 62
7
  6
CONTINUOUS
  0
ENDTAB
  0
TABLE
  2
STYLE
 70
1
  0
STYLE
  2
STANDARD
 70
0
 40
0.0
 41
0.8
 50
0.0
 71
0
 42
0.2
  3
txt
  4

  0
STYLE
  2
TEXTSTYLE_1
 70
0
 40
0.0
 41
0.8
 50
0.0
 71
0
 42
0.2
  3
gdt
  4

  0
STYLE
  2
TEXTSTYLE_2
 70
0
 40
0.0
 41
0.6
 50
0.0
 71
0
 42
0.2
  3
txt
  4

  0
STYLE
  2
TEXTSTYLE_3
 70
0
 40
0.0
 41
1.0
 50
0.0
 71
0
 42
0.2
  3
ftb_____.ttf
  4

  0
STYLE
  2
TEXTSTYLE_4
 70
0
 40
0.0
 41
1.0
 50
0.0
 71
0
 42
0.2
  3
fti_____.ttf
  4

  0
STYLE
  2
TEXTSTYLE_5
 70
0
 40
0.0
 41
1.0
 50
0.0
 71
0
 42
0.2
  3
frutiger light.ttf
  4

  0
STYLE
  2
TEXTSTYLE_6
 70
0
 40
0.0
 41
0.7
 50
0.0
 71
0
 42
0.2
  3
txt
  4

  0
STYLE
  2
TEXTSTYLE_7
 70
0
 40
0.0
 41
0.5
 50
0.0
 71
0
 42
0.2
  3
txt
  4

  0
ENDTAB
  0
ENDSEC
  0
SECTION
  2
BLOCKS
  0
BLOCK
  8
0
 62
2
  6
CONTINUOUS
  2
UNI_LOGO2_BL1
 70
64
 10
382.7840918555
 20
35.5067593403
  0
TEXT
  8
0
 62
7
  6
CONTINUOUS
 10
373.842376864
 20
30.5995157174
  7
TEXTSTYLE_4
 40
1.0655737705
  1
The brand for plastic modular belts and chains
 41
1.0
 72
0
  0
LINE
  8
0
 62
7
  6
CONTINUOUS
 10
358.7621602445
 20
36.0805298321
 11
358.7621602445
 21
33.9493822911
  0
LINE
  8
0
 62
7
  6
CONTINUOUS
 10
359.0512227376
 20
30.9584509954
 11
359.0512227376
 21
31.0552420547
  0
LINE
  8
0
 62
7
  6
CONTINUOUS
 10
358.7621602445
 20
31.0229783683
 11
358.8199727462
 21
30.8293962497
  0
LINE
  8
0
 62
7
  6
CONTINUOUS
 10
360.1556028675
 20
33.867415078
 11
360.1556028675
 21
36.0805298321
  0
LINE
  8
0
 62
7
  6
CONTINUOUS
 10
361.0746601894
 20
32.0231527829
 11
361.0746601894
 21
30.5067593403
  0
LINE
  8
0
 62
7
  6
CONTINUOUS
 10
361.3637227445
 20
30.5067593403
 11
361.3637227445
 21
31.2488242184
  0
LINE
  8
0
 62
7
  6
CONTINUOUS
 10
361.3637227445
 20
31.3778789641
 11
361.3637227445
 21
32.0231527829
  0
LINE
  8
0
 62
7
  6
CONTINUOUS
 10
358.8199727462
 20
31.216560532
 11
358.7621602445
 21
31.0229783683
  0
LINE
  8
0
 62
7
  6
CONTINUOUS
 10
359.1668477307
 20
30.7971325633
 11
359.0512227376
 21
30.9584509954
  0
LINE
  8
0
 62
7
  6
CONTINUOUS
 10
360.2652852997
 20
31.3133515913
 11
360.3230977445
 21
31.216560532
  0
LINE
  8
0
 62
7
  6
CONTINUOUS
 10
360.6121602997
 20
31.216560532
 11
360.5543476894
 21
31.3456152777
  0
LINE
  8
0
 62
7
  6
CONTINUOUS
 10
362.0408487691
 20
36.0805298321
 11
362.0408487691
 21
34.2772511436
  0
LINE
  8
0
 62
7
  6
CONTINUOUS
 10
362.0408487691
 20
32.9657757338
 11
362.0408487691
 21
32.3100380288
  0
LINE
  8
0
 62
7
  6
CONTINUOUS
 10
362.4043477445
 20
31.1520331591
 11
362.4043477445
 21
30.5067593403
  0
LINE
  8
0
 62
7
  6
CONTINUOUS
 10
362.6934101343
 20
30.5067593403
 11
362.6934101343
 21
31.1520331591
  0
LINE
  8
0
 62
7
  6
CONTINUOUS
 10
359.0512227376
 20
31.0552420547
 11
359.1090352445
 21
31.1842968456
  0
LINE
  8
0
 62
7
  6
CONTINUOUS
 10
358.8199727462
 20
30.8293962497
 11
358.9355977445
 21
30.7003414814
  0
LINE
  8
0
 62
7
  6
CONTINUOUS
 10
362.3465351343
 20
31.2810879048
 11
362.4043477445
 21
31.1520331591
  0
LINE
  8
0
 62
7
  6
CONTINUOUS
 10
363.1559103548
 20
30.7971325633
 11
363.2137226343
 21
30.668077795
  0
LINE
  8
0
 62
7
  6
CONTINUOUS
 10
362.6934101343
 20
31.1520331591
 11
362.6355978548
 21
31.3133515913
  0
LINE
  8
0
 62
7
  6
CONTINUOUS
 10
363.1559103548
 20
31.3456152777
 11
363.1559103548
 21
31.2810879048
  0
LINE
  8
0
 62
7
  6
CONTINUOUS
 10
363.1559103548
 20
30.8939236226
 11
363.1559103548
 21
30.7971325633
  0
LINE
  8
0
 62
7
  6
CONTINUOUS
 10
363.4342913921
 20
32.3100380288
 11
363.4342913921
 21
36.0805298321
  0
LINE
  8
0
 62
7
  6
CONTINUOUS
 10
363.4449727445
 20
30.7648688543
 11
363.4449727445
 21
30.8293962497
  0
LINE
  8
0
 62
7
  6
CONTINUOUS
 10
363.7621602445
 20
36.0805298321
 11
363.7621602445
 21
32.3100380288
  0
LINE
  8
0
 62
7
  6
CONTINUOUS
 10
360.5543476894
 20
30.7003414814
 11
360.6121602997
 21
30.8293962497
  0
LINE
  8
0
 62
7
  6
CONTINUOUS
 10
364.9480979651
 20
30.6035504109
 11
364.890285024
 21
30.7648688543
  0
LINE
  8
0
 62
7
  6
CONTINUOUS
 10
364.6012229651
 20
31.2810879048
 11
364.6012229651
 21
31.1842968456
  0
LINE
  8
0
 62
7
  6
CONTINUOUS
 10
364.6012229651
 20
31.0552420547
 11
364.6012229651
 21
30.8616599362
  0
LINE
  8
0
 62
7
  6
CONTINUOUS
 10
364.890285024
 20
30.7648688543
 11
364.890285024
 21
31.2810879048
  0
LINE
  8
0
 62
7
  6
CONTINUOUS
 10
365.1556028675
 20
32.3100380288
 11
365.1556028675
 21
34.1133167174
  0
LINE
  8
0
 62
7
  6
CONTINUOUS
 10
365.1556028675
 20
35.4247921272
 11
365.1556028675
 21
36.0805298321
  0
LINE
  8
0
 62
7
  6
CONTINUOUS
 10
365.4684104651
 20
32.0231527829
 11
365.4684104651
 21
31.8618343508
  0
LINE
  8
0
 62
7
  6
CONTINUOUS
 10
365.4684104651
 20
31.5391973962
 11
365.4684104651
 21
30.5067593403
  0
LINE
  8
0
 62
7
  6
CONTINUOUS
 10
365.757472524
 20
30.5067593403
 11
365.757472524
 21
31.5391973962
  0
LINE
  8
0
 62
7
  6
CONTINUOUS
 10
365.757472524
 20
31.8618343508
 11
365.757472524
 21
32.0231527829
  0
LINE
  8
0
 62
7
  6
CONTINUOUS
 10
360.3230977445
 20
30.8293962497
 11
360.2652852997
 21
30.7326051679
  0
LINE
  8
0
 62
7
  6
CONTINUOUS
 10
362.6355978548
 20
31.3133515913
 11
362.5777852445
 21
31.3778789641
  0
LINE
  8
0
 62
7
  6
CONTINUOUS
 10
363.5027853548
 20
30.7003414814
 11
363.4449727445
 21
30.7648688543
  0
LINE
  8
0
 62
7
  6
CONTINUOUS
 10
364.6590352445
 20
30.5712867188
 11
364.716847524
 21
30.5067593403
  0
LINE
  8
0
 62
7
  6
CONTINUOUS
 10
364.6012229651
 20
30.668077795
 11
364.6590352445
 21
30.5712867188
  0
LINE
  8
0
 62
7
  6
CONTINUOUS
 10
365.0059102445
 20
30.5067593403
 11
364.9480979651
 21
30.6035504109
  0
LINE
  8
0
 62
7
  6
CONTINUOUS
 10
364.890285024
 20
31.2810879048
 11
364.8324727445
 21
31.3778789641
  0
LINE
  8
0
 62
7
  6
CONTINUOUS
 10
366.2199727445
 20
31.5391973962
 11
366.2199727445
 21
30.5067593403
  0
LINE
  8
0
 62
7
  6
CONTINUOUS
 10
366.5090354651
 20
30.5067593403
 11
366.5090354651
 21
31.2488242184
  0
LINE
  8
0
 62
7
  6
CONTINUOUS
 10
366.5090354651
 20
31.3778789641
 11
366.5090354651
 21
31.5391973962
  0
LINE
  8
0
 62
7
  6
CONTINUOUS
 10
367.0408487691
 20
34.5231527829
 11
367.0408487691
 21
32.3100380288
  0
LINE
  8
0
 62
7
  6
CONTINUOUS
 10
358.9355977445
 20
31.3456152777
 11
358.8199727462
 21
31.216560532
  0
LINE
  8
0
 62
7
  6
CONTINUOUS
 10
359.1090352445
 20
31.1842968456
 11
359.1668477307
 21
31.2488242184
  0
LINE
  8
0
 62
7
  6
CONTINUOUS
 10
358.9355977445
 20
30.7003414814
 11
359.0512227376
 21
30.6358140973
  0
LINE
  8
0
 62
7
  6
CONTINUOUS
 10
359.3402852307
 20
30.7003414814
 11
359.1668477307
 21
30.7971325633
  0
LINE
  8
0
 62
7
  6
CONTINUOUS
 10
364.543410024
 20
31.3456152777
 11
364.6012229651
 21
31.2810879048
  0
LINE
  8
0
 62
7
  6
CONTINUOUS
 10
367.491847524
 20
31.2810879048
 11
367.5496604651
 21
31.1197694727
  0
LINE
  8
0
 62
7
  6
CONTINUOUS
 10
367.838722524
 20
31.1197694727
 11
367.7809102445
 21
31.2810879048
  0
LINE
  8
0
 62
7
  6
CONTINUOUS
 10
367.5496604651
 20
31.1197694727
 11
367.5496604651
 21
30.5067593403
  0
LINE
  8
0
 62
7
  6
CONTINUOUS
 10
367.838722524
 20
30.5067593403
 11
367.838722524
 21
31.1197694727
  0
LINE
  8
0
 62
7
  6
CONTINUOUS
 10
368.3012227445
 20
31.3456152777
 11
368.3012227445
 21
31.2810879048
  0
LINE
  8
0
 62
7
  6
CONTINUOUS
 10
368.4342913921
 20
32.3100380288
 11
368.4342913921
 21
34.4411855698
  0
LINE
  8
0
 62
7
  6
CONTINUOUS
 10
368.7621602445
 20
36.0805298321
 11
368.7621602445
 21
32.3100380288
  0
LINE
  8
0
 62
7
  6
CONTINUOUS
 10
363.4449727445
 20
30.8293962497
 11
363.5027853548
 21
30.926187309
  0
LINE
  8
0
 62
7
  6
CONTINUOUS
 10
359.0512227376
 20
30.6358140973
 11
359.2246602583
 21
30.5712867188
  0
LINE
  8
0
 62
7
  6
CONTINUOUS
 10
360.5543476894
 20
31.3456152777
 11
360.3809101894
 21
31.4424063369
  0
LINE
  8
0
 62
7
  6
CONTINUOUS
 10
363.2137226343
 20
30.668077795
 11
363.3871601343
 21
30.5712867188
  0
LINE
  8
0
 62
7
  6
CONTINUOUS
 10
362.2309102445
 20
31.3456152777
 11
362.3465351343
 21
31.2810879048
  0
LINE
  8
0
 62
7
  6
CONTINUOUS
 10
362.5777852445
 20
31.3778789641
 11
362.4621603548
 21
31.4424063369
  0
LINE
  8
0
 62
7
  6
CONTINUOUS
 10
368.3012227445
 20
30.7648688543
 11
368.4168479651
 21
30.6358140973
  0
LINE
  8
0
 62
7
  6
CONTINUOUS
 10
368.6480977445
 20
30.7003414814
 11
368.5902854651
 21
30.7648688543
  0
LINE
  8
0
 62
7
  6
CONTINUOUS
 10
368.3012227445
 20
31.2810879048
 11
368.4168479651
 21
31.1520331591
  0
LINE
  8
0
 62
7
  6
CONTINUOUS
 10
367.7809102445
 20
31.2810879048
 11
367.7230979651
 21
31.3778789641
  0
LINE
  8
0
 62
7
  6
CONTINUOUS
 10
370.1512223035
 20
30.7003414814
 11
370.1512223035
 21
30.7648688543
  0
LINE
  8
0
 62
7
  6
CONTINUOUS
 10
370.1556028675
 20
32.3100380288
 11
370.1556028675
 21
36.0805298321
  0
LINE
  8
0
 62
7
  6
CONTINUOUS
 10
363.2137226343
 20
31.4101426505
 11
363.1559103548
 21
31.3456152777
  0
LINE
  8
0
 62
7
  6
CONTINUOUS
 10
360.091847717
 20
31.3778789641
 11
360.2652852997
 21
31.3133515913
  0
LINE
  8
0
 62
7
  6
CONTINUOUS
 10
364.8324727445
 20
31.3778789641
 11
364.716847524
 21
31.4424063369
  0
LINE
  8
0
 62
7
  6
CONTINUOUS
 10
368.6480977445
 20
31.216560532
 11
368.5902854651
 21
31.2810879048
  0
LINE
  8
0
 62
7
  6
CONTINUOUS
 10
369.8043479651
 20
30.8293962497
 11
369.8621602445
 21
30.7648688543
  0
LINE
  8
0
 62
7
  6
CONTINUOUS
 10
370.1512223035
 20
30.7648688543
 11
370.0355977445
 21
30.8939236226
  0
LINE
  8
0
 62
7
  6
CONTINUOUS
 10
369.8043479651
 20
31.3456152777
 11
369.8621602445
 21
31.2810879048
  0
LINE
  8
0
 62
7
  6
CONTINUOUS
 10
370.1512223035
 20
31.2810879048
 11
370.0355977445
 21
31.4101426505
  0
LINE
  8
0
 62
7
  6
CONTINUOUS
 10
363.4449727445
 20
31.2810879048
 11
363.5027853548
 21
31.3456152777
  0
LINE
  8
0
 62
7
  6
CONTINUOUS
 10
363.2715352445
 20
31.0229783683
 11
363.1559103548
 21
30.8939236226
  0
LINE
  8
0
 62
7
  6
CONTINUOUS
 10
364.6012229651
 20
30.8616599362
 11
364.543410024
 21
30.7971325633
  0
LINE
  8
0
 62
7
  6
CONTINUOUS
 10
364.543410024
 20
30.6035504109
 11
364.6012229651
 21
30.668077795
  0
LINE
  8
0
 62
7
  6
CONTINUOUS
 10
363.3871601343
 20
30.5712867188
 11
363.5027853548
 21
30.5390230296
  0
LINE
  8
0
 62
7
  6
CONTINUOUS
 10
360.3809101894
 20
31.4424063369
 11
360.1496602445
 21
31.5069337098
  0
LINE
  8
0
 62
7
  6
CONTINUOUS
 10
363.7340351343
 20
30.6358140973
 11
363.5027853548
 21
30.7003414814
  0
LINE
  8
0
 62
7
  6
CONTINUOUS
 10
362.4621603548
 20
31.4424063369
 11
362.2887228548
 21
31.5069337098
  0
LINE
  8
0
 62
7
  6
CONTINUOUS
 10
364.716847524
 20
31.4424063369
 11
364.543410024
 21
31.5069337098
  0
LINE
  8
0
 62
7
  6
CONTINUOUS
 10
367.3762229651
 20
31.3456152777
 11
367.491847524
 21
31.2810879048
  0
LINE
  8
0
 62
7
  6
CONTINUOUS
 10
367.7230979651
 20
31.3778789641
 11
367.6074727445
 21
31.4424063369
  0
LINE
  8
0
 62
7
  6
CONTINUOUS
 10
359.2246602583
 20
30.5712867188
 11
359.3980977583
 21
30.5390230296
  0
LINE
  8
0
 62
7
  6
CONTINUOUS
 10
359.6871602721
 20
30.6358140973
 11
359.3402852307
 21
30.7003414814
  0
LINE
  8
0
 62
7
  6
CONTINUOUS
 10
362.1152853548
 20
31.3778789641
 11
362.2309102445
 21
31.3456152777
  0
LINE
  8
0
 62
7
  6
CONTINUOUS
 10
364.4277854651
 20
31.3778789641
 11
364.543410024
 21
31.3456152777
  0
LINE
  8
0
 62
7
  6
CONTINUOUS
 10
368.7637229651
 20
30.668077795
 11
368.6480977445
 21
30.7003414814
  0
LINE
  8
0
 62
7
  6
CONTINUOUS
 10
367.2605977445
 20
31.3778789641
 11
367.3762229651
 21
31.3456152777
  0
LINE
  8
0
 62
7
  6
CONTINUOUS
 10
368.4168479651
 20
30.6358140973
 11
368.5902854651
 21
30.5712867188
  0
LINE
  8
0
 62
7
  6
CONTINUOUS
 10
367.6074727445
 20
31.4424063369
 11
367.4340352445
 21
31.5069337098
  0
LINE
  8
0
 62
7
  6
CONTINUOUS
 10
368.8215352445
 20
31.1520331591
 11
368.6480977445
 21
31.216560532
  0
LINE
  8
0
 62
7
  6
CONTINUOUS
 10
369.6309104651
 20
30.8939236226
 11
369.8043479651
 21
30.8293962497
  0
LINE
  8
0
 62
7
  6
CONTINUOUS
 10
370.0355977445
 20
31.4101426505
 11
369.8621602445
 21
31.4746700234
  0
LINE
  8
0
 62
7
  6
CONTINUOUS
 10
368.4168479651
 20
31.1520331591
 11
368.6480977445
 21
31.0552420547
  0
LINE
  8
0
 62
7
  6
CONTINUOUS
 10
370.0355977445
 20
30.8939236226
 11
369.8043479651
 21
30.9907146818
  0
LINE
  8
0
 62
7
  6
CONTINUOUS
 10
368.5902854651
 20
31.2810879048
 11
368.6480977445
 21
31.3456152777
  0
LINE
  8
0
 62
7
  6
CONTINUOUS
 10
359.0512227376
 20
31.4101426505
 11
358.9355977445
 21
31.3456152777
  0
LINE
  8
0
 62
7
  6
CONTINUOUS
 10
359.1668477307
 20
31.2488242184
 11
359.3402852307
 21
31.3456152777
  0
LINE
  8
0
 62
7
  6
CONTINUOUS
 10
361.4793477997
 20
31.4424063369
 11
361.3637227445
 21
31.3778789641
  0
LINE
  8
0
 62
7
  6
CONTINUOUS
 10
361.3637227445
 20
31.2488242184
 11
361.4793477997
 21
31.3133515913
  0
LINE
  8
0
 62
7
  6
CONTINUOUS
 10
360.3809101894
 20
30.6035504109
 11
360.5543476894
 21
30.7003414814
  0
LINE
  8
0
 62
7
  6
CONTINUOUS
 10
359.3980977583
 20
30.5390230296
 11
359.744972717
 21
30.5067593403
  0
LINE
  8
0
 62
7
  6
CONTINUOUS
 10
363.5027853548
 20
30.5390230296
 11
363.7340351343
 21
30.5067593403
  0
LINE
  8
0
 62
7
  6
CONTINUOUS
 10
361.8840352445
 20
31.4101426505
 11
362.1152853548
 21
31.3778789641
  0
LINE
  8
0
 62
7
  6
CONTINUOUS
 10
364.1965353548
 20
31.4101426505
 11
364.4277854651
 21
31.3778789641
  0
LINE
  8
0
 62
7
  6
CONTINUOUS
 10
368.6480977445
 20
31.0552420547
 11
369.6309104651
 21
30.8939236226
  0
LINE
  8
0
 62
7
  6
CONTINUOUS
 10
369.8043479651
 20
30.9907146818
 11
368.8215352445
 21
31.1520331591
  0
LINE
  8
0
 62
7
  6
CONTINUOUS
 10
362.2887228548
 20
31.5069337098
 11
362.1152853548
 21
31.5391973962
  0
LINE
  8
0
 62
7
  6
CONTINUOUS
 10
368.5902854651
 20
30.5712867188
 11
368.7637229651
 21
30.5390230296
  0
LINE
  8
0
 62
7
  6
CONTINUOUS
 10
367.4340352445
 20
31.5069337098
 11
367.2605977445
 21
31.5391973962
  0
LINE
  8
0
 62
7
  6
CONTINUOUS
 10
369.6887227445
 20
31.3778789641
 11
369.8043479651
 21
31.3456152777
  0
LINE
  8
0
 62
7
  6
CONTINUOUS
 10
369.8621602445
 20
30.7648688543
 11
369.8043479651
 21
30.7003414814
  0
LINE
  8
0
 62
7
  6
CONTINUOUS
 10
368.4168479651
 20
31.4424063369
 11
368.3012227445
 21
31.3456152777
  0
LINE
  8
0
 62
7
  6
CONTINUOUS
 10
363.3293478548
 20
31.4746700234
 11
363.2137226343
 21
31.4101426505
  0
LINE
  8
0
 62
7
  6
CONTINUOUS
 10
363.3871601343
 20
31.0875057863
 11
363.2715352445
 21
31.0229783683
  0
LINE
  8
0
 62
7
  6
CONTINUOUS
 10
363.5027853548
 20
30.926187309
 11
363.6184102445
 21
30.9907146818
  0
LINE
  8
0
 62
7
  6
CONTINUOUS
 10
361.0746601894
 20
30.5067593403
 11
361.3637227445
 21
30.5067593403
  0
LINE
  8
0
 62
7
  6
CONTINUOUS
 10
362.4043477445
 20
30.5067593403
 11
362.6934101343
 21
30.5067593403
  0
LINE
  8
0
 62
7
  6
CONTINUOUS
 10
363.7340351343
 20
30.5067593403
 11
364.0809101343
 21
30.5067593403
  0
LINE
  8
0
 62
7
  6
CONTINUOUS
 10
364.716847524
 20
30.5067593403
 11
365.0059102445
 21
30.5067593403
  0
LINE
  8
0
 62
7
  6
CONTINUOUS
 10
365.4684104651
 20
30.5067593403
 11
365.757472524
 21
30.5067593403
  0
LINE
  8
0
 62
7
  6
CONTINUOUS
 10
366.2199727445
 20
30.5067593403
 11
366.5090354651
 21
30.5067593403
  0
LINE
  8
0
 62
7
  6
CONTINUOUS
 10
367.5496604651
 20
30.5067593403
 11
367.838722524
 21
30.5067593403
  0
LINE
  8
0
 62
7
  6
CONTINUOUS
 10
369.1105979651
 20
30.5067593403
 11
369.4574729651
 21
30.5067593403
  0
LINE
  8
0
 62
7
  6
CONTINUOUS
 10
369.4574729651
 20
30.6358140973
 11
369.1105979651
 21
30.6358140973
  0
LINE
  8
0
 62
7
  6
CONTINUOUS
 10
364.0809101343
 20
30.6358140973
 11
363.7340351343
 21
30.6358140973
  0
LINE
  8
0
 62
7
  6
CONTINUOUS
 10
368.5902854651
 20
30.7648688543
 11
368.3012227445
 21
30.7648688543
  0
LINE
  8
0
 62
7
  6
CONTINUOUS
 10
360.6121602997
 20
30.8293962497
 11
360.3230977445
 21
30.8293962497
  0
LINE
  8
0
 62
7
  6
CONTINUOUS
 10
359.6871602721
 20
31.4101426505
 11
360.091847717
 21
31.3778789641
  0
LINE
  8
0
 62
7
  6
CONTINUOUS
 10
360.1496602445
 20
31.5069337098
 11
359.744972717
 21
31.5391973962
  0
LINE
  8
0
 62
7
  6
CONTINUOUS
 10
368.7637229651
 20
30.5390230296
 11
369.1105979651
 21
30.5067593403
  0
LINE
  8
0
 62
7
  6
CONTINUOUS
 10
369.1105979651
 20
30.6358140973
 11
368.7637229651
 21
30.668077795
  0
LINE
  8
0
 62
7
  6
CONTINUOUS
 10
364.543410024
 20
31.5069337098
 11
364.1965353548
 21
31.5391973962
  0
LINE
  8
0
 62
7
  6
CONTINUOUS
 10
369.3418477445
 20
31.4101426505
 11
369.6887227445
 21
31.3778789641
  0
LINE
  8
0
 62
7
  6
CONTINUOUS
 10
369.6887227445
 20
31.5069337098
 11
369.3418477445
 21
31.5391973962
  0
LINE
  8
0
 62
7
  6
CONTINUOUS
 10
367.0293479651
 20
31.4101426505
 11
367.2605977445
 21
31.3778789641
  0
LINE
  8
0
 62
7
  6
CONTINUOUS
 10
369.8621602445
 20
31.4746700234
 11
369.6887227445
 21
31.5069337098
  0
LINE
  8
0
 62
7
  6
CONTINUOUS
 10
370.0355977445
 20
30.6035504109
 11
370.1512223035
 21
30.7003414814
  0
LINE
  8
0
 62
7
  6
CONTINUOUS
 10
364.543410024
 20
30.7971325633
 11
364.369972524
 21
30.7003414814
  0
LINE
  8
0
 62
7
  6
CONTINUOUS
 10
366.624660024
 20
31.4424063369
 11
366.5090354651
 21
31.3778789641
  0
LINE
  8
0
 62
7
  6
CONTINUOUS
 10
366.5090354651
 20
31.2488242184
 11
366.624660024
 21
31.3133515913
  0
LINE
  8
0
 62
7
  6
CONTINUOUS
 10
359.2246602583
 20
31.4746700234
 11
359.0512227376
 21
31.4101426505
  0
LINE
  8
0
 62
7
  6
CONTINUOUS
 10
361.6527851343
 20
31.5069337098
 11
361.4793477997
 21
31.4424063369
  0
LINE
  8
0
 62
7
  6
CONTINUOUS
 10
361.4793477997
 20
31.3133515913
 11
361.6527851343
 21
31.3778789641
  0
LINE
  8
0
 62
7
  6
CONTINUOUS
 10
360.2652852997
 20
30.7326051679
 11
360.091847717
 21
30.668077795
  0
LINE
  8
0
 62
7
  6
CONTINUOUS
 10
369.6887227445
 20
30.668077795
 11
369.4574729651
 21
30.6358140973
  0
LINE
  8
0
 62
7
  6
CONTINUOUS
 10
364.0809101343
 20
30.5067593403
 11
364.369972524
 21
30.5390230296
  0
LINE
  8
0
 62
7
  6
CONTINUOUS
 10
369.4574729651
 20
30.5067593403
 11
369.8043479651
 21
30.5390230296
  0
LINE
  8
0
 62
7
  6
CONTINUOUS
 10
359.744972717
 20
30.5067593403
 11
360.1496602445
 21
30.5390230296
  0
LINE
  8
0
 62
7
  6
CONTINUOUS
 10
360.091847717
 20
30.668077795
 11
359.6871602721
 21
30.6358140973
  0
LINE
  8
0
 62
7
  6
CONTINUOUS
 10
363.9652852445
 20
31.0552420547
 11
364.6012229651
 21
31.0552420547
  0
LINE
  8
0
 62
7
  6
CONTINUOUS
 10
364.6012229651
 20
31.1842968456
 11
363.9652852445
 21
31.1842968456
  0
LINE
  8
0
 62
7
  6
CONTINUOUS
 10
360.3230977445
 20
31.216560532
 11
360.6121602997
 21
31.216560532
  0
LINE
  8
0
 62
7
  6
CONTINUOUS
 10
363.1559103548
 20
31.2810879048
 11
363.4449727445
 21
31.2810879048
  0
LINE
  8
0
 62
7
  6
CONTINUOUS
 10
369.8621602445
 20
31.2810879048
 11
370.1512223035
 21
31.2810879048
  0
LINE
  8
0
 62
7
  6
CONTINUOUS
 10
363.8496603548
 20
31.4101426505
 11
364.1965353548
 21
31.4101426505
  0
LINE
  8
0
 62
7
  6
CONTINUOUS
 10
368.9949727445
 20
31.4101426505
 11
369.3418477445
 21
31.4101426505
  0
LINE
  8
0
 62
7
  6
CONTINUOUS
 10
369.3418477445
 20
31.5391973962
 11
368.9949727445
 21
31.5391973962
  0
LINE
  8
0
 62
7
  6
CONTINUOUS
 10
367.2605977445
 20
31.5391973962
 11
367.0293479651
 21
31.5391973962
  0
LINE
  8
0
 62
7
  6
CONTINUOUS
 10
366.5090354651
 20
31.5391973962
 11
366.2199727445
 21
31.5391973962
  0
LINE
  8
0
 62
7
  6
CONTINUOUS
 10
365.757472524
 20
31.5391973962
 11
365.4684104651
 21
31.5391973962
  0
LINE
  8
0
 62
7
  6
CONTINUOUS
 10
364.1965353548
 20
31.5391973962
 11
363.8496603548
 21
31.5391973962
  0
LINE
  8
0
 62
7
  6
CONTINUOUS
 10
362.1152853548
 20
31.5391973962
 11
361.8840352445
 21
31.5391973962
  0
LINE
  8
0
 62
7
  6
CONTINUOUS
 10
365.4684104651
 20
31.8618343508
 11
365.757472524
 21
31.8618343508
  0
LINE
  8
0
 62
7
  6
CONTINUOUS
 10
365.757472524
 20
32.0231527829
 11
365.4684104651
 21
32.0231527829
  0
LINE
  8
0
 62
7
  6
CONTINUOUS
 10
361.3637227445
 20
32.0231527829
 11
361.0746601894
 21
32.0231527829
  0
LINE
  8
0
 62
7
  6
CONTINUOUS
 10
360.4015045068
 20
32.3100380288
 11
360.8140758554
 21
32.3100380288
  0
LINE
  8
0
 62
7
  6
CONTINUOUS
 10
362.0408487691
 20
32.3100380288
 11
363.4342913921
 21
32.3100380288
  0
LINE
  8
0
 62
7
  6
CONTINUOUS
 10
363.7621602445
 20
32.3100380288
 11
365.1556028675
 21
32.3100380288
  0
LINE
  8
0
 62
7
  6
CONTINUOUS
 10
367.0408487691
 20
32.3100380288
 11
368.4342913921
 21
32.3100380288
  0
LINE
  8
0
 62
7
  6
CONTINUOUS
 10
368.7621602445
 20
32.3100380288
 11
370.1556028675
 21
32.3100380288
  0
LINE
  8
0
 62
7
  6
CONTINUOUS
 10
366.798097524
 20
31.5069337098
 11
366.624660024
 21
31.4424063369
  0
LINE
  8
0
 62
7
  6
CONTINUOUS
 10
364.369972524
 20
30.5390230296
 11
364.543410024
 21
30.6035504109
  0
LINE
  8
0
 62
7
  6
CONTINUOUS
 10
369.8043479651
 20
30.5390230296
 11
370.0355977445
 21
30.6035504109
  0
LINE
  8
0
 62
7
  6
CONTINUOUS
 10
369.8043479651
 20
30.7003414814
 11
369.6887227445
 21
30.668077795
  0
LINE
  8
0
 62
7
  6
CONTINUOUS
 10
368.7637229651
 20
31.3778789641
 11
368.9949727445
 21
31.4101426505
  0
LINE
  8
0
 62
7
  6
CONTINUOUS
 10
366.798097524
 20
31.3778789641
 11
367.0293479651
 21
31.4101426505
  0
LINE
  8
0
 62
7
  6
CONTINUOUS
 10
363.7340351343
 20
31.0229783683
 11
363.9652852445
 21
31.0552420547
  0
LINE
  8
0
 62
7
  6
CONTINUOUS
 10
367.0293479651
 20
31.5391973962
 11
366.798097524
 21
31.5069337098
  0
LINE
  8
0
 62
7
  6
CONTINUOUS
 10
363.6184102445
 20
31.3778789641
 11
363.8496603548
 21
31.4101426505
  0
LINE
  8
0
 62
7
  6
CONTINUOUS
 10
368.9949727445
 20
31.5391973962
 11
368.6480977445
 21
31.5069337098
  0
LINE
  8
0
 62
7
  6
CONTINUOUS
 10
363.9652852445
 20
31.1842968456
 11
363.6184102445
 21
31.1520331591
  0
LINE
  8
0
 62
7
  6
CONTINUOUS
 10
359.744972717
 20
31.5391973962
 11
359.3980977583
 21
31.5069337098
  0
LINE
  8
0
 62
7
  6
CONTINUOUS
 10
363.8496603548
 20
31.5391973962
 11
363.4449727445
 21
31.5069337098
  0
LINE
  8
0
 62
7
  6
CONTINUOUS
 10
361.221176638
 20
33.4575790124
 11
360.565438933
 21
33.4575790124
  0
LINE
  8
0
 62
7
  6
CONTINUOUS
 10
366.624660024
 20
31.3133515913
 11
366.798097524
 21
31.3778789641
  0
LINE
  8
0
 62
7
  6
CONTINUOUS
 10
368.6480977445
 20
31.3456152777
 11
368.7637229651
 21
31.3778789641
  0
LINE
  8
0
 62
7
  6
CONTINUOUS
 10
368.6480977445
 20
31.5069337098
 11
368.4168479651
 21
31.4424063369
  0
LINE
  8
0
 62
7
  6
CONTINUOUS
 10
364.369972524
 20
30.7003414814
 11
364.0809101343
 21
30.6358140973
  0
LINE
  8
0
 62
7
  6
CONTINUOUS
 10
361.6527851343
 20
31.3778789641
 11
361.8840352445
 21
31.4101426505
  0
LINE
  8
0
 62
7
  6
CONTINUOUS
 10
361.8840352445
 20
31.5391973962
 11
361.6527851343
 21
31.5069337098
  0
LINE
  8
0
 62
7
  6
CONTINUOUS
 10
359.4559102445
 20
31.3778789641
 11
359.6871602721
 21
31.4101426505
  0
LINE
  8
0
 62
7
  6
CONTINUOUS
 10
365.9752749986
 20
34.9329888485
 11
366.6310127035
 21
34.9329888485
  0
LINE
  8
0
 62
7
  6
CONTINUOUS
 10
363.6184102445
 20
30.9907146818
 11
363.7340351343
 21
31.0229783683
  0
LINE
  8
0
 62
7
  6
CONTINUOUS
 10
363.6184102445
 20
31.1520331591
 11
363.3871601343
 21
31.0875057863
  0
LINE
  8
0
 62
7
  6
CONTINUOUS
 10
363.5027853548
 20
31.3456152777
 11
363.6184102445
 21
31.3778789641
  0
LINE
  8
0
 62
7
  6
CONTINUOUS
 10
360.1496602445
 20
30.5390230296
 11
360.3809101894
 21
30.6035504109
  0
LINE
  8
0
 62
7
  6
CONTINUOUS
 10
363.4449727445
 20
31.5069337098
 11
363.3293478548
 21
31.4746700234
  0
LINE
  8
0
 62
7
  6
CONTINUOUS
 10
359.3980977583
 20
31.5069337098
 11
359.2246602583
 21
31.4746700234
  0
LINE
  8
0
 62
7
  6
CONTINUOUS
 10
370.1556028675
 20
36.0805298321
 11
368.7621602445
 21
36.0805298321
  0
LINE
  8
0
 62
7
  6
CONTINUOUS
 10
366.7949471298
 20
36.0805298321
 11
366.3823757812
 21
36.0805298321
  0
LINE
  8
0
 62
7
  6
CONTINUOUS
 10
365.1556028675
 20
36.0805298321
 11
363.7621602445
 21
36.0805298321
  0
LINE
  8
0
 62
7
  6
CONTINUOUS
 10
363.4342913921
 20
36.0805298321
 11
362.0408487691
 21
36.0805298321
  0
LINE
  8
0
 62
7
  6
CONTINUOUS
 10
360.1556028675
 20
36.0805298321
 11
358.7621602445
 21
36.0805298321
  0
LINE
  8
0
 62
7
  6
CONTINUOUS
 10
359.3402852307
 20
31.3456152777
 11
359.4559102445
 21
31.3778789641
  0
CIRCLE
  8
0
 62
7
  6
CONTINUOUS
 10
369.458881556
 20
38.4165954059
 40
2.0901639344
  0
ARC
  8
0
 62
7
  6
CONTINUOUS
 10
360.4015045068
 20
33.9493822911
 40
1.6393442623
 50
180.0
 51
270.0
  0
ARC
  8
0
 62
7
  6
CONTINUOUS
 10
366.7949471298
 20
34.4411855698
 40
1.6393442623
 50
0.0
 51
90.0
  0
ARC
  8
0
 62
7
  6
CONTINUOUS
 10
360.8140758554
 20
33.7854478649
 40
1.4754098361
 50
270.0
 51
326.2510114041
  0
ARC
  8
0
 62
7
  6
CONTINUOUS
 10
366.3823757812
 20
34.6051199961
 40
1.4754098361
 50
90.0
 51
146.2510114041
  0
ARC
  8
0
 62
7
  6
CONTINUOUS
 10
361.221176638
 20
34.2772511436
 40
0.8196721311
 50
270.0
 51
360.0
  0
ARC
  8
0
 62
7
  6
CONTINUOUS
 10
365.9752749986
 20
34.1133167174
 40
0.8196721311
 50
90.0
 51
180.0
  0
ARC
  8
0
 62
7
  6
CONTINUOUS
 10
360.565438933
 20
33.867415078
 40
0.4098360656
 50
180.0
 51
270.0
  0
ARC
  8
0
 62
7
  6
CONTINUOUS
 10
366.6310127035
 20
34.5231527829
 40
0.4098360656
 50
0.0
 51
90.0
  0
SOLID
  8
0
 62
7
  6
CONTINUOUS
 10
365.4684104651
 20
31.8618347111
 11
365.4684104651
 21
32.0231531947
 12
365.757472524
 22
31.8618347111
 13
365.757472524
 23
32.0231531947
  0
SOLID
  8
0
 62
7
  6
CONTINUOUS
 10
359.744972717
 20
31.5391977439
 11
360.1496602445
 21
31.5069333244
 12
359.3980977583
 22
31.5069333244
 13
359.3980977583
 23
31.5069333244
  0
SOLID
  8
0
 62
7
  6
CONTINUOUS
 10
359.2246602583
 20
31.4746706537
 11
359.3980977583
 21
31.5069333244
 12
360.1496602445
 22
31.5069333244
 13
360.1496602445
 23
31.5069333244
  0
SOLID
  8
0
 62
7
  6
CONTINUOUS
 10
360.1496602445
 20
31.5069333244
 11
360.3809101894
 21
31.4424063504
 12
359.2246602583
 22
31.4746706537
 13
359.2246602583
 23
31.4746706537
  0
SOLID
  8
0
 62
7
  6
CONTINUOUS
 10
359.0512227376
 20
31.4101419116
 11
359.2246602583
 21
31.4746706537
 12
360.3809101894
 22
31.4424063504
 13
360.3809101894
 23
31.4424063504
  0
SOLID
  8
0
 62
7
  6
CONTINUOUS
 10
359.0512227376
 20
31.4101419116
 11
360.3809101894
 21
31.4424063504
 12
359.6871602721
 22
31.4101419116
 13
359.6871602721
 23
31.4101419116
  0
SOLID
  8
0
 62
7
  6
CONTINUOUS
 10
359.6871602721
 20
31.4101419116
 11
360.3809101894
 21
31.4424063504
 12
360.091847717
 22
31.3778792603
 13
360.091847717
 23
31.3778792603
  0
SOLID
  8
0
 62
7
  6
CONTINUOUS
 10
360.3809101894
 20
31.4424063504
 11
360.5543476894
 21
31.345614957
 12
360.091847717
 22
31.3778792603
 13
360.091847717
 23
31.3778792603
  0
SOLID
  8
0
 62
7
  6
CONTINUOUS
 10
360.2652852997
 20
31.3133521701
 11
360.091847717
 21
31.3778792603
 12
360.5543476894
 22
31.345614957
 13
360.5543476894
 23
31.345614957
  0
SOLID
  8
0
 62
7
  6
CONTINUOUS
 10
360.2652852997
 20
31.3133521701
 11
360.5543476894
 21
31.345614957
 12
360.3230977445
 22
31.2165606992
 13
360.3230977445
 23
31.2165606992
  0
SOLID
  8
0
 62
7
  6
CONTINUOUS
 10
360.5543476894
 20
31.345614957
 11
360.6121602997
 21
31.2165606992
 12
360.3230977445
 22
31.2165606992
 13
360.3230977445
 23
31.2165606992
  0
SOLID
  8
0
 62
7
  6
CONTINUOUS
 10
361.6527851343
 20
31.5069329918
 11
361.8840352445
 21
31.5391972951
 12
362.1152853548
 22
31.5391972951
 13
362.1152853548
 23
31.5391972951
  0
SOLID
  8
0
 62
7
  6
CONTINUOUS
 10
362.1152853548
 20
31.5391972951
 11
362.2887228548
 21
31.5069329918
 12
361.6527851343
 22
31.5069329918
 13
361.6527851343
 23
31.5069329918
  0
SOLID
  8
0
 62
7
  6
CONTINUOUS
 10
361.4793477997
 20
31.4424059016
 11
361.6527851343
 21
31.5069329918
 12
362.2887228548
 22
31.5069329918
 13
362.2887228548
 23
31.5069329918
  0
SOLID
  8
0
 62
7
  6
CONTINUOUS
 10
362.2887228548
 20
31.5069329918
 11
362.4621603548
 21
31.4424059016
 12
361.4793477997
 22
31.4424059016
 13
361.4793477997
 23
31.4424059016
  0
SOLID
  8
0
 62
7
  6
CONTINUOUS
 10
362.4621603548
 20
31.4424059016
 11
361.8840352445
 21
31.4101420472
 12
361.4793477997
 22
31.4424059016
 13
361.4793477997
 23
31.4424059016
  0
SOLID
  8
0
 62
7
  6
CONTINUOUS
 10
361.3637227445
 20
31.3778788115
 11
361.4793477997
 21
31.4424059016
 12
361.8840352445
 22
31.4101420472
 13
361.8840352445
 23
31.4101420472
  0
SOLID
  8
0
 62
7
  6
CONTINUOUS
 10
361.8840352445
 20
31.4101420472
 11
361.6527851343
 21
31.3778788115
 12
361.3637227445
 22
31.3778788115
 13
361.3637227445
 23
31.3778788115
  0
SOLID
  8
0
 62
7
  6
CONTINUOUS
 10
361.8840352445
 20
31.4101420472
 11
362.4621603548
 21
31.4424059016
 12
362.1152853548
 22
31.3778788115
 13
362.1152853548
 23
31.3778788115
  0
SOLID
  8
0
 62
7
  6
CONTINUOUS
 10
362.4621603548
 20
31.4424059016
 11
362.5777852445
 21
31.3778788115
 12
362.1152853548
 22
31.3778788115
 13
362.1152853548
 23
31.3778788115
  0
SOLID
  8
0
 62
7
  6
CONTINUOUS
 10
362.2309102445
 20
31.345614957
 11
362.1152853548
 21
31.3778788115
 12
362.5777852445
 22
31.3778788115
 13
362.5777852445
 23
31.3778788115
  0
SOLID
  8
0
 62
7
  6
CONTINUOUS
 10
362.5777852445
 20
31.3778788115
 11
362.6355978548
 21
31.3133517213
 12
362.2309102445
 22
31.345614957
 13
362.2309102445
 23
31.345614957
  0
SOLID
  8
0
 62
7
  6
CONTINUOUS
 10
362.3465351343
 20
31.2810878668
 11
362.2309102445
 21
31.345614957
 12
362.6355978548
 22
31.3133517213
 13
362.6355978548
 23
31.3133517213
  0
SOLID
  8
0
 62
7
  6
CONTINUOUS
 10
362.3465351343
 20
31.2810878668
 11
362.6355978548
 21
31.3133517213
 12
362.4043477445
 22
31.1520332377
 13
362.4043477445
 23
31.1520332377
  0
SOLID
  8
0
 62
7
  6
CONTINUOUS
 10
362.6355978548
 20
31.3133517213
 11
362.6934101343
 21
31.1520332377
 12
362.4043477445
 22
31.1520332377
 13
362.4043477445
 23
31.1520332377
  0
SOLID
  8
0
 62
7
  6
CONTINUOUS
 10
361.6527851343
 20
31.3778788115
 11
361.4793477997
 21
31.3133517213
 12
361.3637227445
 22
31.3778788115
 13
361.3637227445
 23
31.3778788115
  0
SOLID
  8
0
 62
7
  6
CONTINUOUS
 10
361.4793477997
 20
31.3133517213
 11
361.3637227445
 21
31.2488235635
 12
361.3637227445
 22
31.3778788115
 13
361.3637227445
 23
31.3778788115
  0
SOLID
  8
0
 62
7
  6
CONTINUOUS
 10
361.3637227445
 20
31.2488235635
 11
361.0746601894
 21
30.5067593033
 12
361.3637227445
 22
31.3778788115
 13
361.3637227445
 23
31.3778788115
  0
SOLID
  8
0
 62
7
  6
CONTINUOUS
 10
361.3637227445
 20
31.3778788115
 11
361.0746601894
 21
30.5067593033
 12
361.3637227445
 22
32.0231527459
 13
361.3637227445
 23
32.0231527459
  0
SOLID
  8
0
 62
7
  6
CONTINUOUS
 10
361.0746601894
 20
30.5067593033
 11
361.0746601894
 21
32.0231527459
 12
361.3637227445
 22
32.0231527459
 13
361.3637227445
 23
32.0231527459
  0
SOLID
  8
0
 62
7
  6
CONTINUOUS
 10
361.3637227445
 20
31.2488235635
 11
361.3637227445
 21
30.5067593033
 12
361.0746601894
 22
30.5067593033
 13
361.0746601894
 23
30.5067593033
  0
SOLID
  8
0
 62
7
  6
CONTINUOUS
 10
362.4043477445
 20
30.5067593033
 11
362.4043477445
 21
31.1520332377
 12
362.6934101343
 22
31.1520332377
 13
362.6934101343
 23
31.1520332377
  0
SOLID
  8
0
 62
7
  6
CONTINUOUS
 10
362.6934101343
 20
31.1520332377
 11
362.6934101343
 21
30.5067593033
 12
362.4043477445
 22
30.5067593033
 13
362.4043477445
 23
30.5067593033
  0
SOLID
  8
0
 62
7
  6
CONTINUOUS
 10
363.4449727445
 20
31.506933758
 11
363.8496603548
 21
31.5391977507
 12
364.1965353548
 22
31.5391977507
 13
364.1965353548
 23
31.5391977507
  0
SOLID
  8
0
 62
7
  6
CONTINUOUS
 10
364.1965353548
 20
31.5391977507
 11
364.543410024
 21
31.506933758
 12
363.4449727445
 22
31.506933758
 13
363.4449727445
 23
31.506933758
  0
SOLID
  8
0
 62
7
  6
CONTINUOUS
 10
363.3293478548
 20
31.4746706537
 11
363.4449727445
 21
31.506933758
 12
364.543410024
 22
31.506933758
 13
364.543410024
 23
31.506933758
  0
SOLID
  8
0
 62
7
  6
CONTINUOUS
 10
364.543410024
 20
31.506933758
 11
364.716847524
 21
31.4424063504
 12
363.3293478548
 22
31.4746706537
 13
363.3293478548
 23
31.4746706537
  0
SOLID
  8
0
 62
7
  6
CONTINUOUS
 10
363.2137226343
 20
31.4101417797
 11
363.3293478548
 21
31.4746706537
 12
364.716847524
 22
31.4424063504
 13
364.716847524
 23
31.4424063504
  0
SOLID
  8
0
 62
7
  6
CONTINUOUS
 10
363.2137226343
 20
31.4101417797
 11
364.716847524
 21
31.4424063504
 12
363.8496603548
 22
31.4101417797
 13
363.8496603548
 23
31.4101417797
  0
SOLID
  8
0
 62
7
  6
CONTINUOUS
 10
363.8496603548
 20
31.4101417797
 11
364.716847524
 21
31.4424063504
 12
364.1965353548
 22
31.4101417797
 13
364.1965353548
 23
31.4101417797
  0
SOLID
  8
0
 62
7
  6
CONTINUOUS
 10
364.1965353548
 20
31.4101417797
 11
364.716847524
 21
31.4424063504
 12
364.4277854651
 22
31.3778793357
 13
364.4277854651
 23
31.3778793357
  0
SOLID
  8
0
 62
7
  6
CONTINUOUS
 10
364.716847524
 20
31.4424063504
 11
364.8324727445
 21
31.3778793357
 12
364.4277854651
 22
31.3778793357
 13
364.4277854651
 23
31.3778793357
  0
SOLID
  8
0
 62
7
  6
CONTINUOUS
 10
363.1559103548
 20
31.3456153429
 11
363.2137226343
 21
31.4101417797
 12
363.8496603548
 22
31.4101417797
 13
363.8496603548
 23
31.4101417797
  0
SOLID
  8
0
 62
7
  6
CONTINUOUS
 10
364.543410024
 20
31.3456153429
 11
364.4277854651
 21
31.3778793357
 12
364.8324727445
 22
31.3778793357
 13
364.8324727445
 23
31.3778793357
  0
SOLID
  8
0
 62
7
  6
CONTINUOUS
 10
364.543410024
 20
31.3456153429
 11
364.8324727445
 21
31.3778793357
 12
364.6012229651
 22
31.2810881318
 13
364.6012229651
 23
31.2810881318
  0
SOLID
  8
0
 62
7
  6
CONTINUOUS
 10
364.8324727445
 20
31.3778793357
 11
364.890285024
 21
31.2810881318
 12
364.6012229651
 22
31.2810881318
 13
364.6012229651
 23
31.2810881318
  0
SOLID
  8
0
 62
7
  6
CONTINUOUS
 10
364.6012229651
 20
31.1842964734
 11
364.6012229651
 21
31.2810881318
 12
364.890285024
 22
31.2810881318
 13
364.890285024
 23
31.2810881318
  0
SOLID
  8
0
 62
7
  6
CONTINUOUS
 10
364.6012229651
 20
31.1842964734
 11
364.890285024
 21
31.2810881318
 12
364.6012229651
 22
31.0552422931
 13
364.6012229651
 23
31.0552422931
  0
SOLID
  8
0
 62
7
  6
CONTINUOUS
 10
364.6012229651
 20
31.0552422931
 11
364.890285024
 21
31.2810881318
 12
364.6012229651
 22
30.8616599362
 13
364.6012229651
 23
30.8616599362
  0
SOLID
  8
0
 62
7
  6
CONTINUOUS
 10
364.890285024
 20
31.2810881318
 11
364.890285024
 21
30.7648681127
 12
364.6012229651
 22
30.8616599362
 13
364.6012229651
 23
30.8616599362
  0
SOLID
  8
0
 62
7
  6
CONTINUOUS
 10
366.798097524
 20
31.5069339419
 11
367.0293479651
 21
31.5391976292
 12
367.2605977445
 22
31.5391976292
 13
367.2605977445
 23
31.5391976292
  0
SOLID
  8
0
 62
7
  6
CONTINUOUS
 10
367.2605977445
 20
31.5391976292
 11
367.4340352445
 21
31.5069339419
 12
366.798097524
 22
31.5069339419
 13
366.798097524
 23
31.5069339419
  0
SOLID
  8
0
 62
7
  6
CONTINUOUS
 10
366.624660024
 20
31.4424065674
 11
366.798097524
 21
31.5069339419
 12
367.4340352445
 22
31.5069339419
 13
367.4340352445
 23
31.5069339419
  0
SOLID
  8
0
 62
7
  6
CONTINUOUS
 10
367.4340352445
 20
31.5069339419
 11
367.6074727445
 21
31.4424065674
 12
366.624660024
 22
31.4424065674
 13
366.624660024
 23
31.4424065674
  0
SOLID
  8
0
 62
7
  6
CONTINUOUS
 10
367.6074727445
 20
31.4424065674
 11
367.0293479651
 21
31.4101420472
 12
366.624660024
 22
31.4424065674
 13
366.624660024
 23
31.4424065674
  0
SOLID
  8
0
 62
7
  6
CONTINUOUS
 10
366.5090354651
 20
31.377879193
 11
366.624660024
 21
31.4424065674
 12
367.0293479651
 22
31.4101420472
 13
367.0293479651
 23
31.4101420472
  0
SOLID
  8
0
 62
7
  6
CONTINUOUS
 10
367.0293479651
 20
31.4101420472
 11
366.798097524
 21
31.377879193
 12
366.5090354651
 22
31.377879193
 13
366.5090354651
 23
31.377879193
  0
SOLID
  8
0
 62
7
  6
CONTINUOUS
 10
367.0293479651
 20
31.4101420472
 11
367.6074727445
 21
31.4424065674
 12
367.2605977445
 22
31.377879193
 13
367.2605977445
 23
31.377879193
  0
SOLID
  8
0
 62
7
  6
CONTINUOUS
 10
367.6074727445
 20
31.4424065674
 11
367.7230979651
 21
31.377879193
 12
367.2605977445
 22
31.377879193
 13
367.2605977445
 23
31.377879193
  0
SOLID
  8
0
 62
7
  6
CONTINUOUS
 10
367.3762229651
 20
31.345614957
 11
367.2605977445
 21
31.377879193
 12
367.7230979651
 22
31.377879193
 13
367.7230979651
 23
31.377879193
  0
SOLID
  8
0
 62
7
  6
CONTINUOUS
 10
367.3762229651
 20
31.345614957
 11
367.7230979651
 21
31.377879193
 12
367.491847524
 22
31.2810881312
 13
367.491847524
 23
31.2810881312
  0
SOLID
  8
0
 62
7
  6
CONTINUOUS
 10
367.7230979651
 20
31.377879193
 11
367.7809102445
 21
31.2810881312
 12
367.491847524
 22
31.2810881312
 13
367.491847524
 23
31.2810881312
  0
SOLID
  8
0
 62
7
  6
CONTINUOUS
 10
367.5496604651
 20
31.119769695
 11
367.491847524
 21
31.2810881312
 12
367.7809102445
 22
31.2810881312
 13
367.7809102445
 23
31.2810881312
  0
SOLID
  8
0
 62
7
  6
CONTINUOUS
 10
367.7809102445
 20
31.2810881312
 11
367.838722524
 21
31.119769695
 12
367.5496604651
 22
31.119769695
 13
367.5496604651
 23
31.119769695
  0
SOLID
  8
0
 62
7
  6
CONTINUOUS
 10
366.798097524
 20
31.377879193
 11
366.624660024
 21
31.3133521701
 12
366.5090354651
 22
31.377879193
 13
366.5090354651
 23
31.377879193
  0
SOLID
  8
0
 62
7
  6
CONTINUOUS
 10
366.624660024
 20
31.3133521701
 11
366.5090354651
 21
31.2488235635
 12
366.5090354651
 22
31.377879193
 13
366.5090354651
 23
31.377879193
  0
SOLID
  8
0
 62
7
  6
CONTINUOUS
 10
366.5090354651
 20
31.2488235635
 11
366.2199727445
 21
30.5067596374
 12
366.5090354651
 22
31.377879193
 13
366.5090354651
 23
31.377879193
  0
SOLID
  8
0
 62
7
  6
CONTINUOUS
 10
366.5090354651
 20
31.377879193
 11
366.2199727445
 21
30.5067596374
 12
366.5090354651
 22
31.5391976292
 13
366.5090354651
 23
31.5391976292
  0
SOLID
  8
0
 62
7
  6
CONTINUOUS
 10
366.2199727445
 20
30.5067596374
 11
366.2199727445
 21
31.5391976292
 12
366.5090354651
 22
31.5391976292
 13
366.5090354651
 23
31.5391976292
  0
SOLID
  8
0
 62
7
  6
CONTINUOUS
 10
366.5090354651
 20
31.2488235635
 11
366.5090354651
 21
30.5067596374
 12
366.2199727445
 22
30.5067596374
 13
366.2199727445
 23
30.5067596374
  0
SOLID
  8
0
 62
7
  6
CONTINUOUS
 10
367.5496604651
 20
30.5067596374
 11
367.5496604651
 21
31.119769695
 12
367.838722524
 22
31.119769695
 13
367.838722524
 23
31.119769695
  0
SOLID
  8
0
 62
7
  6
CONTINUOUS
 10
367.838722524
 20
31.119769695
 11
367.838722524
 21
30.5067596374
 12
367.5496604651
 22
30.5067596374
 13
367.5496604651
 23
30.5067596374
  0
SOLID
  8
0
 62
7
  6
CONTINUOUS
 10
368.6480977445
 20
31.5069334157
 11
368.9949727445
 21
31.539197762
 12
369.3418477445
 22
31.539197762
 13
369.3418477445
 23
31.539197762
  0
SOLID
  8
0
 62
7
  6
CONTINUOUS
 10
369.3418477445
 20
31.539197762
 11
369.6887227445
 21
31.5069334157
 12
368.6480977445
 22
31.5069334157
 13
368.6480977445
 23
31.5069334157
  0
SOLID
  8
0
 62
7
  6
CONTINUOUS
 10
368.4168479651
 20
31.4424063504
 11
368.6480977445
 21
31.5069334157
 12
369.6887227445
 22
31.5069334157
 13
369.6887227445
 23
31.5069334157
  0
SOLID
  8
0
 62
7
  6
CONTINUOUS
 10
368.4168479651
 20
31.4424063504
 11
369.6887227445
 21
31.5069334406
 12
369.8621602445
 22
31.4746706537
 13
369.8621602445
 23
31.4746706537
  0
SOLID
  8
0
 62
7
  6
CONTINUOUS
 10
368.4168479651
 20
31.4424063504
 11
369.8621602445
 21
31.4746706537
 12
368.9949727445
 22
31.4101421267
 13
368.9949727445
 23
31.4101421267
  0
SOLID
  8
0
 62
7
  6
CONTINUOUS
 10
368.9949727445
 20
31.4101421267
 11
369.8621602445
 21
31.4746706537
 12
369.3418477445
 22
31.4101421267
 13
369.3418477445
 23
31.4101421267
  0
SOLID
  8
0
 62
7
  6
CONTINUOUS
 10
369.8621602445
 20
31.4746706537
 11
370.0355977445
 21
31.4101421267
 12
369.3418477445
 22
31.4101421267
 13
369.3418477445
 23
31.4101421267
  0
SOLID
  8
0
 62
7
  6
CONTINUOUS
 10
369.6887227445
 20
31.3778792603
 11
369.3418477445
 21
31.4101421267
 12
370.0355977445
 22
31.4101421267
 13
370.0355977445
 23
31.4101421267
  0
SOLID
  8
0
 62
7
  6
CONTINUOUS
 10
368.3012227445
 20
31.3456148845
 11
368.4168479651
 21
31.4424063504
 12
368.9949727445
 22
31.4101421267
 13
368.9949727445
 23
31.4101421267
  0
SOLID
  8
0
 62
7
  6
CONTINUOUS
 10
369.6887227445
 20
31.3778792603
 11
370.0355977445
 21
31.4101421267
 12
369.8043479651
 22
31.3456148845
 13
369.8043479651
 23
31.3456148845
  0
SOLID
  8
0
 62
7
  6
CONTINUOUS
 10
369.8043479651
 20
31.3456148845
 11
370.0355977445
 21
31.4101421267
 12
369.8621602445
 22
31.281087868
 13
369.8621602445
 23
31.281087868
  0
SOLID
  8
0
 62
7
  6
CONTINUOUS
 10
370.0355977445
 20
31.4101421267
 11
370.1512223035
 21
31.281087868
 12
369.8621602445
 22
31.281087868
 13
369.8621602445
 23
31.281087868
  0
SOLID
  8
0
 62
7
  6
CONTINUOUS
 10
359.4559102445
 20
31.3778792603
 11
358.9355977445
 21
31.3456148963
 12
359.6871602721
 22
31.4101421155
 13
359.6871602721
 23
31.4101421155
  0
SOLID
  8
0
 62
7
  6
CONTINUOUS
 10
358.9355977445
 20
31.3456148963
 11
359.0512227376
 21
31.4101421155
 12
359.6871602721
 22
31.4101421155
 13
359.6871602721
 23
31.4101421155
  0
SOLID
  8
0
 62
7
  6
CONTINUOUS
 10
359.4559102445
 20
31.3778792603
 11
359.3402852307
 21
31.3456148963
 12
358.9355977445
 22
31.3456148963
 13
358.9355977445
 23
31.3456148963
  0
SOLID
  8
0
 62
7
  6
CONTINUOUS
 10
358.8199727462
 20
31.2165607767
 11
358.9355977445
 21
31.3456148963
 12
359.3402852307
 22
31.3456148963
 13
359.3402852307
 23
31.3456148963
  0
SOLID
  8
0
 62
7
  6
CONTINUOUS
 10
363.1559103548
 20
31.3456149608
 11
363.8496603548
 21
31.4101420472
 12
363.6184102445
 22
31.3778792603
 13
363.6184102445
 23
31.3778792603
  0
SOLID
  8
0
 62
7
  6
CONTINUOUS
 10
363.6184102445
 20
31.3778792603
 11
363.5027853548
 21
31.3456149608
 12
363.1559103548
 22
31.3456149608
 13
363.1559103548
 23
31.3456149608
  0
SOLID
  8
0
 62
7
  6
CONTINUOUS
 10
363.1559103548
 20
31.2810878707
 11
363.1559103548
 21
31.3456149608
 12
363.5027853548
 22
31.3456149608
 13
363.5027853548
 23
31.3456149608
  0
SOLID
  8
0
 62
7
  6
CONTINUOUS
 10
363.5027853548
 20
31.3456149608
 11
363.4449727445
 21
31.2810878707
 12
363.1559103548
 22
31.2810878707
 13
363.1559103548
 23
31.2810878707
  0
SOLID
  8
0
 62
7
  6
CONTINUOUS
 10
368.3012227445
 20
31.3456149608
 11
368.9949727445
 21
31.4101420472
 12
368.7637229651
 22
31.3778792603
 13
368.7637229651
 23
31.3778792603
  0
SOLID
  8
0
 62
7
  6
CONTINUOUS
 10
368.7637229651
 20
31.3778792603
 11
368.6480977445
 21
31.3456149608
 12
368.3012227445
 22
31.3456149608
 13
368.3012227445
 23
31.3456149608
  0
SOLID
  8
0
 62
7
  6
CONTINUOUS
 10
368.3012227445
 20
31.2810878707
 11
368.3012227445
 21
31.3456149608
 12
368.6480977445
 22
31.3456149608
 13
368.6480977445
 23
31.3456149608
  0
SOLID
  8
0
 62
7
  6
CONTINUOUS
 10
368.6480977445
 20
31.3456149608
 11
368.5902854651
 21
31.2810878707
 12
368.3012227445
 22
31.2810878707
 13
368.3012227445
 23
31.2810878707
  0
SOLID
  8
0
 62
7
  6
CONTINUOUS
 10
368.4168479651
 20
31.1520336865
 11
368.3012227445
 21
31.2810878707
 12
368.5902854651
 22
31.2810878707
 13
368.5902854651
 23
31.2810878707
  0
SOLID
  8
0
 62
7
  6
CONTINUOUS
 10
358.8199727462
 20
31.2165607767
 11
359.3402852307
 21
31.345614957
 12
359.1668477307
 22
31.2488235635
 13
359.1668477307
 23
31.2488235635
  0
SOLID
  8
0
 62
7
  6
CONTINUOUS
 10
359.1668477307
 20
31.2488235635
 11
359.1090352445
 21
31.1842964734
 12
358.8199727462
 22
31.2165607767
 13
358.8199727462
 23
31.2165607767
  0
SOLID
  8
0
 62
7
  6
CONTINUOUS
 10
358.7621602445
 20
31.0229779898
 11
358.8199727462
 21
31.2165607767
 12
359.1090352445
 22
31.1842964734
 13
359.1090352445
 23
31.1842964734
  0
SOLID
  8
0
 62
7
  6
CONTINUOUS
 10
363.6184102445
 20
31.1520336865
 11
363.9652852445
 21
31.1842964611
 12
364.6012229651
 22
31.1842964611
 13
364.6012229651
 23
31.1842964611
  0
SOLID
  8
0
 62
7
  6
CONTINUOUS
 10
363.6184102445
 20
31.1520336865
 11
364.6012229651
 21
31.1842964611
 12
363.3871601343
 22
31.0875057863
 13
363.3871601343
 23
31.0875057863
  0
SOLID
  8
0
 62
7
  6
CONTINUOUS
 10
363.3871601343
 20
31.0875057863
 11
364.6012229651
 21
31.1842964611
 12
363.9652852445
 22
31.0552422808
 13
363.9652852445
 23
31.0552422808
  0
SOLID
  8
0
 62
7
  6
CONTINUOUS
 10
364.6012229651
 20
31.1842964611
 11
364.6012229651
 21
31.0552422808
 12
363.9652852445
 22
31.0552422808
 13
363.9652852445
 23
31.0552422808
  0
SOLID
  8
0
 62
7
  6
CONTINUOUS
 10
368.4168479651
 20
31.1520338754
 11
368.5902854651
 21
31.2810878668
 12
368.6480977445
 22
31.2165607767
 13
368.6480977445
 23
31.2165607767
  0
SOLID
  8
0
 62
7
  6
CONTINUOUS
 10
368.6480977445
 20
31.2165607767
 11
368.8215352445
 21
31.1520338754
 12
368.4168479651
 22
31.1520338754
 13
368.4168479651
 23
31.1520338754
  0
SOLID
  8
0
 62
7
  6
CONTINUOUS
 10
368.6480977445
 20
31.0552422931
 11
368.4168479651
 21
31.1520338754
 12
368.8215352445
 22
31.1520338754
 13
368.8215352445
 23
31.1520338754
  0
SOLID
  8
0
 62
7
  6
CONTINUOUS
 10
368.8215352445
 20
31.1520338754
 11
369.8043479651
 21
30.9907152029
 12
368.6480977445
 22
31.0552422931
 13
368.6480977445
 23
31.0552422931
  0
SOLID
  8
0
 62
7
  6
CONTINUOUS
 10
369.6309104651
 20
30.8939239876
 11
368.6480977445
 21
31.0552422931
 12
369.8043479651
 22
30.9907152029
 13
369.8043479651
 23
30.9907152029
  0
SOLID
  8
0
 62
7
  6
CONTINUOUS
 10
369.8043479651
 20
30.9907152029
 11
370.0355977445
 21
30.8939239876
 12
369.6309104651
 22
30.8939239876
 13
369.6309104651
 23
30.8939239876
  0
SOLID
  8
0
 62
7
  6
CONTINUOUS
 10
369.8043479651
 20
30.8293967193
 11
369.6309104651
 21
30.8939239876
 12
370.0355977445
 22
30.8939239876
 13
370.0355977445
 23
30.8939239876
  0
SOLID
  8
0
 62
7
  6
CONTINUOUS
 10
369.8043479651
 20
30.8293967193
 11
370.0355977445
 21
30.8939239876
 12
369.8621602445
 22
30.7648682694
 13
369.8621602445
 23
30.7648682694
  0
SOLID
  8
0
 62
7
  6
CONTINUOUS
 10
370.0355977445
 20
30.8939239876
 11
370.1512223035
 21
30.7648682694
 12
369.8621602445
 22
30.7648682694
 13
369.8621602445
 23
30.7648682694
  0
SOLID
  8
0
 62
7
  6
CONTINUOUS
 10
369.8043479651
 20
30.7003411846
 11
369.8621602445
 21
30.7648682694
 12
370.1512223035
 22
30.7648682694
 13
370.1512223035
 23
30.7648682694
  0
SOLID
  8
0
 62
7
  6
CONTINUOUS
 10
370.1512223035
 20
30.7648682694
 11
370.1512223035
 21
30.7003411846
 12
369.8043479651
 22
30.7003411846
 13
369.8043479651
 23
30.7003411846
  0
SOLID
  8
0
 62
7
  6
CONTINUOUS
 10
369.6887227445
 20
30.6680782357
 11
369.8043479651
 21
30.7003411846
 12
370.1512223035
 22
30.7003411846
 13
370.1512223035
 23
30.7003411846
  0
SOLID
  8
0
 62
7
  6
CONTINUOUS
 10
369.6887227445
 20
30.6680782357
 11
370.1512223035
 21
30.7003411846
 12
369.4574729651
 22
30.6358140998
 13
369.4574729651
 23
30.6358140998
  0
SOLID
  8
0
 62
7
  6
CONTINUOUS
 10
370.1512223035
 20
30.7003411846
 11
370.0355977445
 21
30.6035511455
 12
369.4574729651
 22
30.6358140998
 13
369.4574729651
 23
30.6358140998
  0
SOLID
  8
0
 62
7
  6
CONTINUOUS
 10
370.0355977445
 20
30.6035511455
 11
368.5902854651
 21
30.5712868422
 12
369.4574729651
 22
30.6358140998
 13
369.4574729651
 23
30.6358140998
  0
SOLID
  8
0
 62
7
  6
CONTINUOUS
 10
369.4574729651
 20
30.6358140998
 11
368.5902854651
 21
30.5712868422
 12
369.1105979651
 22
30.6358140998
 13
369.1105979651
 23
30.6358140998
  0
SOLID
  8
0
 62
7
  6
CONTINUOUS
 10
368.5902854651
 20
30.5712868422
 11
368.4168479651
 21
30.6358140998
 12
369.1105979651
 22
30.6358140998
 13
369.1105979651
 23
30.6358140998
  0
SOLID
  8
0
 62
7
  6
CONTINUOUS
 10
368.5902854651
 20
30.5712868422
 11
370.0355977445
 21
30.6035511455
 12
368.7637229651
 22
30.5390223111
 13
368.7637229651
 23
30.5390223111
  0
SOLID
  8
0
 62
7
  6
CONTINUOUS
 10
370.0355977445
 20
30.6035511455
 11
369.8043479651
 21
30.5390223111
 12
368.7637229651
 22
30.5390223111
 13
368.7637229651
 23
30.5390223111
  0
SOLID
  8
0
 62
7
  6
CONTINUOUS
 10
369.1105979651
 20
30.5067599302
 11
368.7637229651
 21
30.5390223111
 12
369.8043479651
 22
30.5390223111
 13
369.8043479651
 23
30.5390223111
  0
SOLID
  8
0
 62
7
  6
CONTINUOUS
 10
369.8043479651
 20
30.5390223111
 11
369.4574729651
 21
30.5067599302
 12
369.1105979651
 22
30.5067599302
 13
369.1105979651
 23
30.5067599302
  0
SOLID
  8
0
 62
7
  6
CONTINUOUS
 10
358.7621602445
 20
31.0229779898
 11
359.1090352445
 21
31.1842964734
 12
359.0512227376
 22
31.0552422931
 13
359.0512227376
 23
31.0552422931
  0
SOLID
  8
0
 62
7
  6
CONTINUOUS
 10
359.0512227376
 20
31.0552422931
 11
359.0512227376
 21
30.9584509954
 12
358.7621602445
 22
31.0229779898
 13
358.7621602445
 23
31.0229779898
  0
SOLID
  8
0
 62
7
  6
CONTINUOUS
 10
358.8199727462
 20
30.8293967193
 11
358.7621602445
 21
31.0229779898
 12
359.0512227376
 22
30.9584509954
 13
359.0512227376
 23
30.9584509954
  0
SOLID
  8
0
 62
7
  6
CONTINUOUS
 10
359.0512227376
 20
30.9584509954
 11
359.1668477307
 21
30.797132416
 12
358.8199727462
 22
30.8293967193
 13
358.8199727462
 23
30.8293967193
  0
SOLID
  8
0
 62
7
  6
CONTINUOUS
 10
358.9355977445
 20
30.7003413087
 11
358.8199727462
 21
30.8293967193
 12
359.1668477307
 22
30.797132416
 13
359.1668477307
 23
30.797132416
  0
SOLID
  8
0
 62
7
  6
CONTINUOUS
 10
359.1668477307
 20
30.797132416
 11
359.3402852307
 21
30.7003413087
 12
358.9355977445
 22
30.7003413087
 13
358.9355977445
 23
30.7003413087
  0
SOLID
  8
0
 62
7
  6
CONTINUOUS
 10
359.0512227376
 20
30.6358140759
 11
358.9355977445
 21
30.7003413087
 12
359.3402852307
 22
30.7003413087
 13
359.3402852307
 23
30.7003413087
  0
SOLID
  8
0
 62
7
  6
CONTINUOUS
 10
359.3402852307
 20
30.7003413087
 11
359.6871602721
 21
30.6358140759
 12
359.0512227376
 22
30.6358140759
 13
359.0512227376
 23
30.6358140759
  0
SOLID
  8
0
 62
7
  6
CONTINUOUS
 10
359.2246602583
 20
30.5712868422
 11
359.0512227376
 21
30.6358140759
 12
359.6871602721
 22
30.6358140759
 13
359.6871602721
 23
30.6358140759
  0
SOLID
  8
0
 62
7
  6
CONTINUOUS
 10
363.2715352445
 20
31.0229779808
 11
363.3871601343
 21
31.0875057863
 12
363.9652852445
 22
31.0552422931
 13
363.9652852445
 23
31.0552422931
  0
SOLID
  8
0
 62
7
  6
CONTINUOUS
 10
363.9652852445
 20
31.0552422931
 11
363.7340351343
 21
31.0229779808
 12
363.2715352445
 22
31.0229779808
 13
363.2715352445
 23
31.0229779808
  0
SOLID
  8
0
 62
7
  6
CONTINUOUS
 10
363.1559103548
 20
30.8939238094
 11
363.2715352445
 21
31.0229779808
 12
363.7340351343
 22
31.0229779808
 13
363.7340351343
 23
31.0229779808
  0
SOLID
  8
0
 62
7
  6
CONTINUOUS
 10
363.5027853548
 20
30.926187309
 11
363.1559103548
 21
30.8939238094
 12
363.6184102445
 22
30.9907152029
 13
363.6184102445
 23
30.9907152029
  0
SOLID
  8
0
 62
7
  6
CONTINUOUS
 10
363.1559103548
 20
30.8939238094
 11
363.7340351343
 21
31.0229779898
 12
363.6184102445
 22
30.9907152029
 13
363.6184102445
 23
30.9907152029
  0
SOLID
  8
0
 62
7
  6
CONTINUOUS
 10
363.5027853548
 20
30.926187309
 11
363.4449727445
 21
30.8293967193
 12
363.1559103548
 22
30.8939238094
 13
363.1559103548
 23
30.8939238094
  0
SOLID
  8
0
 62
7
  6
CONTINUOUS
 10
363.1559103548
 20
30.797132416
 11
363.1559103548
 21
30.8939238094
 12
363.4449727445
 22
30.8293967193
 13
363.4449727445
 23
30.8293967193
  0
SOLID
  8
0
 62
7
  6
CONTINUOUS
 10
363.4449727445
 20
30.8293967193
 11
363.4449727445
 21
30.7648681127
 12
363.1559103548
 22
30.797132416
 13
363.1559103548
 23
30.797132416
  0
SOLID
  8
0
 62
7
  6
CONTINUOUS
 10
363.2137226343
 20
30.6680782357
 11
363.1559103548
 21
30.797132416
 12
363.4449727445
 22
30.7648681127
 13
363.4449727445
 23
30.7648681127
  0
SOLID
  8
0
 62
7
  6
CONTINUOUS
 10
364.6012229651
 20
30.8616599362
 11
364.890285024
 21
30.7648681127
 12
364.543410024
 22
30.797132416
 13
364.543410024
 23
30.797132416
  0
SOLID
  8
0
 62
7
  6
CONTINUOUS
 10
364.369972524
 20
30.7003410226
 11
364.543410024
 21
30.797132416
 12
364.890285024
 22
30.7648681127
 13
364.890285024
 23
30.7648681127
  0
SOLID
  8
0
 62
7
  6
CONTINUOUS
 10
364.369972524
 20
30.7003410226
 11
364.890285024
 21
30.7648681127
 12
364.6012229651
 22
30.6680782357
 13
364.6012229651
 23
30.6680782357
  0
SOLID
  8
0
 62
7
  6
CONTINUOUS
 10
364.890285024
 20
30.7648681127
 11
364.9480979651
 21
30.6035511455
 12
364.6012229651
 22
30.6680782357
 13
364.6012229651
 23
30.6680782357
  0
SOLID
  8
0
 62
7
  6
CONTINUOUS
 10
364.6590352445
 20
30.5712868422
 11
364.6012229651
 21
30.6680782357
 12
364.9480979651
 22
30.6035511455
 13
364.9480979651
 23
30.6035511455
  0
SOLID
  8
0
 62
7
  6
CONTINUOUS
 10
364.6590352445
 20
30.5712868422
 11
364.9480979651
 21
30.6035511455
 12
364.716847524
 22
30.5067598731
 13
364.716847524
 23
30.5067598731
  0
SOLID
  8
0
 62
7
  6
CONTINUOUS
 10
364.9480979651
 20
30.6035511455
 11
365.0059102445
 21
30.5067598731
 12
364.716847524
 22
30.5067598731
 13
364.716847524
 23
30.5067598731
  0
SOLID
  8
0
 62
7
  6
CONTINUOUS
 10
360.2652852997
 20
30.7326051679
 11
360.3230977445
 21
30.8293966612
 12
360.6121602997
 22
30.8293966612
 13
360.6121602997
 23
30.8293966612
  0
SOLID
  8
0
 62
7
  6
CONTINUOUS
 10
360.6121602997
 20
30.8293966612
 11
360.5543476894
 21
30.7003410226
 12
360.2652852997
 22
30.7326051679
 13
360.2652852997
 23
30.7326051679
  0
SOLID
  8
0
 62
7
  6
CONTINUOUS
 10
360.091847717
 20
30.6680782357
 11
360.2652852997
 21
30.7326051679
 12
360.5543476894
 22
30.7003410226
 13
360.5543476894
 23
30.7003410226
  0
SOLID
  8
0
 62
7
  6
CONTINUOUS
 10
360.091847717
 20
30.6680782357
 11
360.5543476894
 21
30.7003410226
 12
359.6871602721
 22
30.6358139324
 13
359.6871602721
 23
30.6358139324
  0
SOLID
  8
0
 62
7
  6
CONTINUOUS
 10
360.5543476894
 20
30.7003410226
 11
360.3809101894
 21
30.6035511455
 12
359.6871602721
 22
30.6358139324
 13
359.6871602721
 23
30.6358139324
  0
SOLID
  8
0
 62
7
  6
CONTINUOUS
 10
359.2246602583
 20
30.5712868422
 11
359.6871602721
 21
30.6358139324
 12
360.3809101894
 22
30.6035511455
 13
360.3809101894
 23
30.6035511455
  0
SOLID
  8
0
 62
7
  6
CONTINUOUS
 10
359.2246602583
 20
30.5712868422
 11
360.3809101894
 21
30.6035511455
 12
359.3980977583
 22
30.5390224228
 13
359.3980977583
 23
30.5390224228
  0
SOLID
  8
0
 62
7
  6
CONTINUOUS
 10
360.3809101894
 20
30.6035511455
 11
360.1496602445
 21
30.5390224228
 12
359.3980977583
 22
30.5390224228
 13
359.3980977583
 23
30.5390224228
  0
SOLID
  8
0
 62
7
  6
CONTINUOUS
 10
359.744972717
 20
30.5067597521
 11
359.3980977583
 21
30.5390224228
 12
360.1496602445
 22
30.5390224228
 13
360.1496602445
 23
30.5390224228
  0
SOLID
  8
0
 62
7
  6
CONTINUOUS
 10
363.2137226343
 20
30.6680782357
 11
363.4449727445
 21
30.7648681127
 12
363.5027853548
 22
30.7003410226
 13
363.5027853548
 23
30.7003410226
  0
SOLID
  8
0
 62
7
  6
CONTINUOUS
 10
363.5027853548
 20
30.7003410226
 11
363.7340351343
 21
30.6358139324
 12
363.2137226343
 22
30.6680782357
 13
363.2137226343
 23
30.6680782357
  0
SOLID
  8
0
 62
7
  6
CONTINUOUS
 10
363.3871601343
 20
30.5712868422
 11
363.2137226343
 21
30.6680782357
 12
363.7340351343
 22
30.6358139324
 13
363.7340351343
 23
30.6358139324
  0
SOLID
  8
0
 62
7
  6
CONTINUOUS
 10
364.0809101343
 20
30.6358139363
 11
364.369972524
 21
30.7003410226
 12
364.6012229651
 22
30.6680782357
 13
364.6012229651
 23
30.6680782357
  0
SOLID
  8
0
 62
7
  6
CONTINUOUS
 10
364.6012229651
 20
30.6680782357
 11
364.543410024
 21
30.6035511455
 12
364.0809101343
 22
30.6358139363
 13
364.0809101343
 23
30.6358139363
  0
SOLID
  8
0
 62
7
  6
CONTINUOUS
 10
364.543410024
 20
30.6035511455
 11
363.3871601343
 21
30.5712868422
 12
364.0809101343
 22
30.6358139363
 13
364.0809101343
 23
30.6358139363
  0
SOLID
  8
0
 62
7
  6
CONTINUOUS
 10
363.3871601343
 20
30.5712868422
 11
363.7340351343
 21
30.6358139363
 12
364.0809101343
 22
30.6358139363
 13
364.0809101343
 23
30.6358139363
  0
SOLID
  8
0
 62
7
  6
CONTINUOUS
 10
363.3871601343
 20
30.5712868422
 11
364.543410024
 21
30.6035511455
 12
363.5027853548
 22
30.5390225267
 13
363.5027853548
 23
30.5390225267
  0
SOLID
  8
0
 62
7
  6
CONTINUOUS
 10
364.543410024
 20
30.6035511455
 11
364.369972524
 21
30.5390225267
 12
363.5027853548
 22
30.5390225267
 13
363.5027853548
 23
30.5390225267
  0
SOLID
  8
0
 62
7
  6
CONTINUOUS
 10
363.7340351343
 20
30.5067596914
 11
363.5027853548
 21
30.5390225267
 12
364.369972524
 22
30.5390225267
 13
364.369972524
 23
30.5390225267
  0
SOLID
  8
0
 62
7
  6
CONTINUOUS
 10
364.369972524
 20
30.5390225267
 11
364.0809101343
 21
30.5067596914
 12
363.7340351343
 22
30.5067596914
 13
363.7340351343
 23
30.5067596914
  0
SOLID
  8
0
 62
7
  6
CONTINUOUS
 10
368.7637229651
 20
30.6680782357
 11
368.4168479651
 21
30.6358138717
 12
368.6480977445
 22
30.7003410226
 13
368.6480977445
 23
30.7003410226
  0
SOLID
  8
0
 62
7
  6
CONTINUOUS
 10
368.6480977445
 20
30.7003410226
 11
368.4168479651
 21
30.6358138717
 12
368.5902854651
 22
30.7648680521
 13
368.5902854651
 23
30.7648680521
  0
SOLID
  8
0
 62
7
  6
CONTINUOUS
 10
368.4168479651
 20
30.6358138717
 11
368.3012227445
 21
30.7648680521
 12
368.5902854651
 22
30.7648680521
 13
368.5902854651
 23
30.7648680521
  0
SOLID
  8
0
 62
7
  6
CONTINUOUS
 10
368.7637229651
 20
30.6680782357
 11
369.1105979651
 21
30.6358138717
 12
368.4168479651
 22
30.6358138717
 13
368.4168479651
 23
30.6358138717
  0
SOLID
  8
0
 62
7
  6
CONTINUOUS
 10
365.4684104651
 20
30.5067597521
 11
365.4684104651
 21
31.5391977439
 12
365.757472524
 22
30.5067597521
 13
365.757472524
 23
31.5391977439
  0
ENDBLK
  8
0
  6
BYBLOCK
 62
0
  0
BLOCK
  8
0
 62
2
  6
CONTINUOUS
  2
AMMEAAL_LOGO_BL0
 70
64
 10
240.8592468615
 20
19.762288695
  0
TEXT
  8
0
 62
7
  6
CONTINUOUS
 10
227.1239507038
 20
19.1357028027
  7
TEXTSTYLE_3
 40
2.7338706658
  1
Ammeraal Beltech
 41
1.0
 51
15.0
 72
0
  0
TEXT
  8
0
 62
7
  6
CONTINUOUS
 10
237.9247515296
 20
16.8621661299
  7
TEXTSTYLE_4
 40
1.0935482663
  1
Innovation & Service in Belting
 41
1.0
 72
0
  0
LINE
  8
0
 62
7
  6
CONTINUOUS
 10
221.0994100525
 20
19.9022961113
 11
221.8775620458
 21
23.5632134089
  0
LINE
  8
0
 62
7
  6
CONTINUOUS
 10
231.9727303357
 20
27.2266073205
 11
222.3653797889
 21
24.1049898993
  0
LINE
  8
0
 62
7
  6
CONTINUOUS
 10
221.3246933848
 20
19.2089453082
 11
228.8317686459
 21
12.4495443822
  0
LINE
  8
0
 62
7
  6
CONTINUOUS
 10
221.5872277955
 20
20.4440726016
 11
232.3954971607
 21
23.9558922005
  0
LINE
  8
0
 62
7
  6
CONTINUOUS
 10
232.3912920235
 20
13.6061036368
 11
223.9458323548
 21
21.2104296785
  0
LINE
  8
0
 62
7
  6
CONTINUOUS
 10
232.9111147433
 20
26.3816822048
 11
231.9345552061
 21
21.7873308023
  0
LINE
  8
0
 62
7
  6
CONTINUOUS
 10
231.2347532584
 20
18.4950214885
 11
230.5483050469
 21
15.2655365641
  0
LINE
  8
0
 62
7
  6
CONTINUOUS
 10
233.5922108419
 20
13.9963058145
 11
234.5484423775
 21
18.4950214885
  0
LINE
  8
0
 62
7
  6
CONTINUOUS
 10
235.2482443252
 20
21.7873308023
 11
235.6924861276
 21
23.8773241617
  0
LINE
  8
0
 62
7
  6
CONTINUOUS
 10
229.5448697213
 20
12.2979700695
 11
233.1043930989
 21
13.4545293241
  0
LINE
  8
0
 62
7
  6
CONTINUOUS
 10
232.685831411
 20
27.0750330078
 11
235.4672027953
 21
24.5706749648
  0
ARC
  8
0
 62
7
  6
CONTINUOUS
 10
222.5906631212
 20
23.4116390962
 40
0.7290321776
 50
108.0
 51
168.0
  0
ARC
  8
0
 62
7
  6
CONTINUOUS
 10
232.198013668
 20
26.5332565175
 40
0.7290321776
 50
348.0
 51
108.0
  0
ARC
  8
0
 62
7
  6
CONTINUOUS
 10
234.9793850522
 20
24.0288984744
 40
0.7290321776
 50
348.0
 51
48.0
  0
ARC
  8
0
 62
7
  6
CONTINUOUS
 10
229.319586389
 20
12.9913208726
 40
0.7290321776
 50
228.0
 51
288.0
  0
ARC
  8
0
 62
7
  6
CONTINUOUS
 10
221.8125111278
 20
19.7507217986
 40
0.7290321776
 50
108.0
 51
228.0
  0
ARC
  8
0
 62
7
  6
CONTINUOUS
 10
232.8791097665
 20
14.1478801272
 40
0.7290321776
 50
228.0
 51
348.0
  0
ENDBLK
  8
0
  6
BYBLOCK
 62
0
  0
ENDSEC
  0
SECTION
  2
ENTITIES
  0
TEXT
  8
0
 62
5
  6
CONTINUOUS
 10
304.937007874
 20
25.636
  7
TEXTSTYLE_2
 40
2.8
  1
Scale :
 41
0.6
 51
0.000019
 72
0
  0
TEXT
  8
0
 62
5
  6
CONTINUOUS
 10
324.937007874
 20
25.636
  7
TEXTSTYLE_2
 40
2.8
  1
Belt type:
 41
0.6
 51
0.000019
 72
0
  0
INSERT
  8
0
 62
2
  6
CONTINUOUS
  2
AMMEAAL_LOGO_BL0
 10
240.8592468615
 20
19.762288695
  0
INSERT
  8
0
 62
2
  6
CONTINUOUS
  2
UNI_LOGO2_BL1
 10
382.7840918555
 20
35.5067593403
  0
LINE
  8
0
 62
2
  6
CONTINUOUS
 10
218.937007874
 20
30.0
 11
408.937007874
 21
30.0
  0
LINE
  8
0
 62
2
  6
CONTINUOUS
 10
218.937007874
 20
30.0
 11
218.937007874
 21
10.0
  0
LINE
  8
0
 62
2
  6
CONTINUOUS
 10
218.937007874
 20
10.0
 11
408.937007874
 21
10.0
  0
LINE
  8
0
 62
2
  6
CONTINUOUS
 10
303.937007874
 20
30.0
 11
303.937007874
 21
10.0
  0
LINE
  8
0
 62
2
  6
CONTINUOUS
 10
323.937007874
 20
30.0
 11
323.937007874
 21
10.0
  0
LINE
  8
0
 62
2
  6
CONTINUOUS
 10
408.937007874
 20
30.0
 11
408.937007874
 21
10.0
  0
TEXT
  8
0
 62
5
  6
CONTINUOUS
 10
221.937007874
 20
23.303
  7
TEXTSTYLE_5
 40
1.52
  1
                                                                     Ammeraal Beltech Modular A/S
 41
1.0
 72
0
  0
TEXT
  8
0
 62
5
  6
CONTINUOUS
 10
221.937007874
 20
20.595
  7
TEXTSTYLE_5
 40
1.5
  1
                                                                      Hjulmagervej 21, 7100 Vejle,  DK
 41
1.0
 72
0
  0
TEXT
  8
0
 62
5
  6
CONTINUOUS
 10
221.937007874
 20
17.881
  7
TEXTSTYLE_5
 40
1.495
  1
                                                                      tel: 
 41
1.0
 72
0
  0
TEXT
  8
0
 62
5
  6
CONTINUOUS
 10
266.9239544389
 20
17.881
  7
TEXTSTYLE_5
 40
1.51
  1
+45 75723100     fax: +45 75723348
 41
1.0
 72
0
  0
TEXT
  8
0
 62
5
  6
CONTINUOUS
 10
221.937007874
 20
15.177
  7
TEXTSTYLE_5
 40
1.5
  1
                                                                      admin@unichains.dk  www.unichains.com
 41
1.0
 72
0
  0
TEXT
  8
0
 62
5
  6
CONTINUOUS
 10
308.687007874
 20
13.75
  7
TEXTSTYLE_6
 40
5.0
  1
1:1
 41
0.7
 72
1
 11
313.937007874
 21
13.75
  0
TEXT
  8
0
 62
5
  6
CONTINUOUS
 10
326.937007874
 20
13.75
  7
TEXTSTYLE_7
 40
7.5
  1
uni Flex ASB-43 Both K630
 41
0.4158333333
 72
0
  0
LINE
  8
0
 62
7
  6
CONTINUOUS
 10
0.0
 20
0.0
 11
0.0
 21
297.0
  0
LINE
  8
0
 62
7
  6
CONTINUOUS
 10
8.937007874
 20
10.0
 11
8.937007874
 21
287.0
  0
LINE
  8
0
 62
7
  6
CONTINUOUS
 10
0.0
 20
0.0
 11
420.0
 21
0.0
  0
LINE
  8
0
 62
7
  6
CONTINUOUS
 10
408.937007874
 20
10.0
 11
8.937007874
 21
10.0
  0
LINE
  8
0
 62
7
  6
CONTINUOUS
 10
218.937007874
 20
30.0
 11
408.937007874
 21
30.0
  0
LINE
  8
0
 62
7
  6
CONTINUOUS
 10
210.0
 20
297.0
 11
210.0
 21
292.0
  0
LINE
  8
0
 62
7
  6
CONTINUOUS
 10
210.0
 20
0.0
 11
210.0
 21
5.0
  0
LINE
  8
0
 62
7
  6
CONTINUOUS
 10
8.937007874
 20
287.0
 11
408.937007874
 21
287.0
  0
LINE
  8
0
 62
7
  6
CONTINUOUS
 10
0.0
 20
297.0
 11
420.0
 21
297.0
  0
LINE
  8
0
 62
7
  6
CONTINUOUS
 10
408.937007874
 20
287.0
 11
408.937007874
 21
10.0
  0
LINE
  8
0
 62
7
  6
CONTINUOUS
 10
420.0
 20
0.0
 11
420.0
 21
297.0
  0
POLYLINE
  8
0
 62
7
  6
CONTINUOUS
 66
1
 70
0
  0
VERTEX
  8
0
 62
7
  6
CONTINUOUS
 10
63.5815028902
 20
221.9169776513
  0
VERTEX
  8
0
 62
7
  6
CONTINUOUS
 10
63.584212419
 20
221.7244981629
  0
VERTEX
  8
0
 62
7
  6
CONTINUOUS
 10
63.5999343763
 20
221.3058788399
  0
VERTEX
  8
0
 62
7
  6
CONTINUOUS
 10
63.6090568228
 20
221.084007479
  0
VERTEX
  8
0
 62
7
  6
CONTINUOUS
 10
63.6218331155
 20
220.6280335767
  0
VERTEX
  8
0
 62
7
  6
CONTINUOUS
 10
63.6235863356
 20
220.3992052023
  0
SEQEND
  0
LINE
  8
0
 62
7
  6
CONTINUOUS
 10
63.5815028902
 20
214.5492052023
 11
63.5815028902
 21
225.2800860856
  0
POLYLINE
  8
0
 62
7
  6
CONTINUOUS
 66
1
 70
0
  0
VERTEX
  8
0
 62
7
  6
CONTINUOUS
 10
63.6235863356
 20
220.3992052023
  0
VERTEX
  8
0
 62
7
  6
CONTINUOUS
 10
63.6218320816
 20
220.1703087377
  0
VERTEX
  8
0
 62
7
  6
CONTINUOUS
 10
63.609053253
 20
219.7143101916
  0
VERTEX
  8
0
 62
7
  6
CONTINUOUS
 10
63.5999306627
 20
219.492444478
  0
VERTEX
  8
0
 62
7
  6
CONTINUOUS
 10
63.5842122193
 20
219.0739044487
  0
VERTEX
  8
0
 62
7
  6
CONTINUOUS
 10
63.5815028902
 20
218.8814327532
  0
SEQEND
  0
POLYLINE
  8
0
 62
7
  6
CONTINUOUS
 66
1
 70
0
  0
VERTEX
  8
0
 62
7
  6
CONTINUOUS
 10
63.7832519358
 20
225.3241892831
  0
VERTEX
  8
0
 62
7
  6
CONTINUOUS
 10
63.7887700434
 20
225.3532457467
  0
VERTEX
  8
0
 62
7
  6
CONTINUOUS
 10
63.814032719
 20
225.407771646
  0
VERTEX
  8
0
 62
7
  6
CONTINUOUS
 10
63.8330866614
 20
225.4312257292
  0
VERTEX
  8
0
 62
7
  6
CONTINUOUS
 10
63.8811234302
 20
225.46578419
  0
VERTEX
  8
0
 62
7
  6
CONTINUOUS
 10
63.9084774037
 20
225.4752457868
  0
SEQEND
  0
LINE
  8
0
 62
7
  6
CONTINUOUS
 10
68.8355028902
 20
214.5492052023
 11
68.8355028902
 21
226.2492052023
  0
LINE
  8
0
 62
7
  6
CONTINUOUS
 10
79.0775028902
 20
225.6492052023
 11
79.0775028902
 21
215.1492052023
  0
LINE
  8
0
 62
7
  6
CONTINUOUS
 10
85.0815028902
 20
215.1492052023
 11
85.0815028902
 21
225.6492052023
  0
LINE
  8
0
 62
7
  6
CONTINUOUS
 10
94.0735028902
 20
225.6492052023
 11
94.0735028902
 21
215.1492052023
  0
LINE
  8
0
 62
7
  6
CONTINUOUS
 10
100.0815028902
 20
215.1492052023
 11
100.0815028902
 21
225.6492052023
  0
LINE
  8
0
 62
7
  6
CONTINUOUS
 10
108.0735028902
 20
215.1492052023
 11
108.0735028902
 21
225.6492052023
  0
LINE
  8
0
 62
7
  6
CONTINUOUS
 10
114.0855028902
 20
215.1492052023
 11
114.0855028902
 21
225.6492052023
  0
POLYLINE
  8
0
 62
7
  6
CONTINUOUS
 66
1
 70
0
  0
VERTEX
  8
0
 62
7
  6
CONTINUOUS
 10
114.0855028902
 20
217.1492052023
  0
VERTEX
  8
0
 62
7
  6
CONTINUOUS
 10
114.0646409741
 20
216.7453702019
  0
VERTEX
  8
0
 62
7
  6
CONTINUOUS
 10
113.9943173538
 20
216.3940416519
  0
VERTEX
  8
0
 62
7
  6
CONTINUOUS
 10
113.8858330557
 20
216.1333316294
  0
VERTEX
  8
0
 62
7
  6
CONTINUOUS
 10
113.757967232
 20
215.9549155714
  0
VERTEX
  8
0
 62
7
  6
CONTINUOUS
 10
113.6212011928
 20
215.8397485713
  0
VERTEX
  8
0
 62
7
  6
CONTINUOUS
 10
113.4789964175
 20
215.7744475459
  0
VERTEX
  8
0
 62
7
  6
CONTINUOUS
 10
113.3355028902
 20
215.7534538912
  0
SEQEND
  0
LINE
  8
0
 62
7
  6
CONTINUOUS
 10
121.5775028902
 20
225.6492052023
 11
121.5775028902
 21
215.1492052023
  0
LINE
  8
0
 62
7
  6
CONTINUOUS
 10
127.5815028902
 20
215.1492052023
 11
127.5815028902
 21
225.6492052023
  0
LINE
  8
0
 62
7
  6
CONTINUOUS
 10
134.2815028902
 20
225.6492052023
 11
134.2815028902
 21
215.1492052023
  0
LINE
  8
0
 62
7
  6
CONTINUOUS
 10
63.7315028902
 20
214.3992052023
 11
223.5315028902
 21
214.3992052023
  0
POLYLINE
  8
0
 62
7
  6
CONTINUOUS
 66
1
 70
0
  0
VERTEX
  8
0
 62
7
  6
CONTINUOUS
 10
108.8235028902
 20
215.7534538912
  0
VERTEX
  8
0
 62
7
  6
CONTINUOUS
 10
108.6800466123
 20
215.7744365205
  0
VERTEX
  8
0
 62
7
  6
CONTINUOUS
 10
108.5378750018
 20
215.8397038807
  0
VERTEX
  8
0
 62
7
  6
CONTINUOUS
 10
108.4010982798
 20
215.9548511114
  0
VERTEX
  8
0
 62
7
  6
CONTINUOUS
 10
108.2732469644
 20
216.1331986131
  0
VERTEX
  8
0
 62
7
  6
CONTINUOUS
 10
108.1647729568
 20
216.393762134
  0
VERTEX
  8
0
 62
7
  6
CONTINUOUS
 10
108.0944016022
 20
216.7450540117
  0
VERTEX
  8
0
 62
7
  6
CONTINUOUS
 10
108.0735028902
 20
217.1492052023
  0
SEQEND
  0
LINE
  8
0
 62
7
  6
CONTINUOUS
 10
140.2815028902
 20
215.1492052023
 11
140.2815028902
 21
225.6492052023
  0
LINE
  8
DEFAULT_1
 62
2
  6
CENTER
 10
143.6315028902
 20
211.6985615471
 11
143.6315028902
 21
228.3992055878
  0
LINE
  8
0
 62
7
  6
CONTINUOUS
 10
178.4395028902
 20
215.7534538912
 11
173.9275028902
 21
215.7534538912
  0
LINE
  8
0
 62
7
  6
CONTINUOUS
 10
113.3355028902
 20
215.7534538912
 11
108.8235028902
 21
215.7534538912
  0
LINE
  8
0
 62
7
  6
CONTINUOUS
 10
108.0735028902
 20
220.3992052023
 11
114.0855028902
 21
220.3992052023
  0
LINE
  8
0
 62
7
  6
CONTINUOUS
 10
173.1775028902
 20
220.3992052023
 11
179.1895028902
 21
220.3992052023
  0
POLYLINE
  8
0
 62
7
  6
CONTINUOUS
 66
1
 70
0
  0
VERTEX
  8
0
 62
7
  6
CONTINUOUS
 10
173.9275028902
 20
215.7534538912
  0
VERTEX
  8
0
 62
7
  6
CONTINUOUS
 10
173.7840466123
 20
215.7744365205
  0
VERTEX
  8
0
 62
7
  6
CONTINUOUS
 10
173.6418750018
 20
215.8397038807
  0
VERTEX
  8
0
 62
7
  6
CONTINUOUS
 10
173.5050982798
 20
215.9548511114
  0
VERTEX
  8
0
 62
7
  6
CONTINUOUS
 10
173.3772469644
 20
216.1331986131
  0
VERTEX
  8
0
 62
7
  6
CONTINUOUS
 10
173.2687729568
 20
216.393762134
  0
VERTEX
  8
0
 62
7
  6
CONTINUOUS
 10
173.1984016022
 20
216.7450540117
  0
VERTEX
  8
0
 62
7
  6
CONTINUOUS
 10
173.1775028902
 20
217.1492052023
  0
SEQEND
  0
LINE
  8
0
 62
7
  6
CONTINUOUS
 10
146.9815028902
 20
225.6492052023
 11
146.9815028902
 21
215.1492052023
  0
LINE
  8
0
 62
7
  6
CONTINUOUS
 10
67.8815028902
 20
226.3992052023
 11
219.3642906885
 21
226.3992052023
  0
LINE
  8
0
 62
7
  6
CONTINUOUS
 10
152.9815028902
 20
215.1492052023
 11
152.9815028902
 21
225.6492052023
  0
LINE
  8
0
 62
7
  6
CONTINUOUS
 10
159.6815028902
 20
225.6492052023
 11
159.6815028902
 21
215.1492052023
  0
LINE
  8
0
 62
7
  6
CONTINUOUS
 10
165.6855028902
 20
215.1492052023
 11
165.6855028902
 21
225.6492052023
  0
LINE
  8
0
 62
7
  6
CONTINUOUS
 10
63.697525866
 20
225.4261872897
 11
67.8815028902
 21
226.3992052023
  0
LINE
  8
0
 62
7
  6
CONTINUOUS
 10
223.5654799144
 20
225.4261872897
 11
219.3982677127
 21
226.3953064063
  0
LINE
  8
0
 62
7
  6
CONTINUOUS
 10
173.1775028902
 20
215.1492052023
 11
173.1775028902
 21
225.6492052023
  0
LINE
  8
0
 62
7
  6
CONTINUOUS
 10
179.1895028902
 20
215.1492052023
 11
179.1895028902
 21
225.6492052023
  0
POLYLINE
  8
0
 62
7
  6
CONTINUOUS
 66
1
 70
0
  0
VERTEX
  8
0
 62
7
  6
CONTINUOUS
 10
179.1895028902
 20
217.1492052023
  0
VERTEX
  8
0
 62
7
  6
CONTINUOUS
 10
179.1686409741
 20
216.7453702019
  0
VERTEX
  8
0
 62
7
  6
CONTINUOUS
 10
179.0983173538
 20
216.3940416519
  0
VERTEX
  8
0
 62
7
  6
CONTINUOUS
 10
178.9898330557
 20
216.1333316294
  0
VERTEX
  8
0
 62
7
  6
CONTINUOUS
 10
178.861967232
 20
215.9549155714
  0
VERTEX
  8
0
 62
7
  6
CONTINUOUS
 10
178.7252011928
 20
215.8397485713
  0
VERTEX
  8
0
 62
7
  6
CONTINUOUS
 10
178.5829964175
 20
215.7744475459
  0
VERTEX
  8
0
 62
7
  6
CONTINUOUS
 10
178.4395028902
 20
215.7534538912
  0
SEQEND
  0
LINE
  8
0
 62
7
  6
CONTINUOUS
 10
187.1815028902
 20
225.6492052023
 11
187.1815028902
 21
215.1492052023
  0
LINE
  8
0
 62
7
  6
CONTINUOUS
 10
193.1895028902
 20
215.1492052023
 11
193.1895028902
 21
225.6492052023
  0
LINE
  8
0
 62
7
  6
CONTINUOUS
 10
202.1815028902
 20
225.6492052023
 11
202.1815028902
 21
215.1492052023
  0
LINE
  8
0
 62
7
  6
CONTINUOUS
 10
208.1855028902
 20
215.1492052023
 11
208.1855028902
 21
225.6492052023
  0
POLYLINE
  8
0
 62
7
  6
CONTINUOUS
 66
1
 70
0
  0
VERTEX
  8
0
 62
7
  6
CONTINUOUS
 10
223.6815028902
 20
218.8814327532
  0
VERTEX
  8
0
 62
7
  6
CONTINUOUS
 10
223.6787925383
 20
219.0739443562
  0
VERTEX
  8
0
 62
7
  6
CONTINUOUS
 10
223.6630696995
 20
219.4925715382
  0
VERTEX
  8
0
 62
7
  6
CONTINUOUS
 10
223.6539478552
 20
219.7144315652
  0
VERTEX
  8
0
 62
7
  6
CONTINUOUS
 10
223.6411726403
 20
220.1703784448
  0
VERTEX
  8
0
 62
7
  6
CONTINUOUS
 10
223.6394194448
 20
220.3992052023
  0
SEQEND
  0
LINE
  8
0
 62
7
  6
CONTINUOUS
 10
218.4275028902
 20
226.2492052023
 11
218.4275028902
 21
214.5492052023
  0
LINE
  8
0
 62
7
  6
CONTINUOUS
 10
223.6815028902
 20
214.5492052023
 11
223.6815028902
 21
225.2800860856
  0
POLYLINE
  8
0
 62
7
  6
CONTINUOUS
 66
1
 70
0
  0
VERTEX
  8
0
 62
7
  6
CONTINUOUS
 10
223.6394194448
 20
220.3992052023
  0
VERTEX
  8
0
 62
7
  6
CONTINUOUS
 10
223.6411736753
 20
220.6281001191
  0
VERTEX
  8
0
 62
7
  6
CONTINUOUS
 10
223.6539513561
 20
221.0840697876
  0
VERTEX
  8
0
 62
7
  6
CONTINUOUS
 10
223.6630733248
 20
221.3059238829
  0
VERTEX
  8
0
 62
7
  6
CONTINUOUS
 10
223.6787927209
 20
221.7244731733
  0
VERTEX
  8
0
 62
7
  6
CONTINUOUS
 10
223.6815028902
 20
221.9169776513
  0
SEQEND
  0
POLYLINE
  8
0
 62
7
  6
CONTINUOUS
 66
1
 70
0
  0
VERTEX
  8
0
 62
7
  6
CONTINUOUS
 10
67.8815028902
 20
156.2469067182
  0
VERTEX
  8
0
 62
7
  6
CONTINUOUS
 10
67.8812581357
 20
156.2512317076
  0
VERTEX
  8
0
 62
7
  6
CONTINUOUS
 10
67.8805473897
 20
156.2552714229
  0
VERTEX
  8
0
 62
7
  6
CONTINUOUS
 10
67.8793972967
 20
156.2590582061
  0
SEQEND
  0
LINE
  8
0
 62
7
  6
CONTINUOUS
 10
63.5815028902
 20
152.7556507799
 11
63.5815028902
 21
141.3070706174
  0
LINE
  8
0
 62
7
  6
CONTINUOUS
 10
67.8815028902
 20
144.9225164838
 11
67.8815028902
 21
156.2469067182
  0
LINE
  8
0
 62
7
  6
CONTINUOUS
 10
68.8355028902
 20
139.7412736473
 11
68.8355028902
 21
153.2887521009
  0
LINE
  8
0
 62
7
  6
CONTINUOUS
 10
70.9565028902
 20
172.3143716548
 11
70.9565028902
 21
168.3259246683
  0
LINE
  8
0
 62
7
  6
CONTINUOUS
 10
71.7065028902
 20
161.9994604989
 11
71.7065028902
 21
165.2809917474
  0
LINE
  8
0
 62
7
  6
CONTINUOUS
 10
76.2065028902
 20
165.2809917474
 11
76.2065028902
 21
160.6002700396
  0
LINE
  8
0
 62
7
  6
CONTINUOUS
 10
76.9519196927
 20
168.2891285604
 11
76.2217802152
 21
165.4036454404
  0
POLYLINE
  8
0
 62
7
  6
CONTINUOUS
 66
1
 70
0
  0
VERTEX
  8
0
 62
7
  6
CONTINUOUS
 10
63.7832519358
 20
140.323157621
  0
VERTEX
  8
0
 62
7
  6
CONTINUOUS
 10
63.7887700434
 20
140.3171319355
  0
VERTEX
  8
0
 62
7
  6
CONTINUOUS
 10
63.814032719
 20
140.3123608052
  0
VERTEX
  8
0
 62
7
  6
CONTINUOUS
 10
63.8330866614
 20
140.3138856308
  0
VERTEX
  8
0
 62
7
  6
CONTINUOUS
 10
63.8811234302
 20
140.3248006762
  0
VERTEX
  8
0
 62
7
  6
CONTINUOUS
 10
63.9084774037
 20
140.3339251785
  0
SEQEND
  0
POLYLINE
  8
0
 62
7
  6
CONTINUOUS
 66
1
 70
0
  0
VERTEX
  8
0
 62
7
  6
CONTINUOUS
 10
67.8793972967
 20
156.2590582061
  0
VERTEX
  8
0
 62
7
  6
CONTINUOUS
 10
67.8617240515
 20
156.3098203246
  0
VERTEX
  8
0
 62
7
  6
CONTINUOUS
 10
67.8491719137
 20
156.3527304339
  0
VERTEX
  8
0
 62
7
  6
CONTINUOUS
 10
67.8434314625
 20
156.381954605
  0
VERTEX
  8
0
 62
7
  6
CONTINUOUS
 10
67.8452465015
 20
156.393590739
  0
SEQEND
  0
LINE
  8
0
 62
7
  6
CONTINUOUS
 10
71.6912255651
 20
165.4036454404
 11
70.9610860877
 21
168.2891285604
  0
LINE
  8
0
 62
7
  6
CONTINUOUS
 10
76.9565028902
 20
172.3143716548
 11
76.9565028902
 21
168.3259246683
  0
LINE
  8
0
 62
7
  6
CONTINUOUS
 10
79.0775028902
 20
144.2515878953
 11
79.0775028902
 21
140.0002700396
  0
LINE
  8
0
 62
7
  6
CONTINUOUS
 10
79.8315028902
 20
147.312543854
 11
79.8315028902
 21
151.5502700396
  0
LINE
  8
0
 62
7
  6
CONTINUOUS
 10
84.3275028902
 20
147.3125483318
 11
84.3275028902
 21
151.4502700396
  0
LINE
  8
0
 62
7
  6
CONTINUOUS
 10
85.0815028902
 20
140.0002700396
 11
85.0815028902
 21
144.2518075649
  0
LINE
  8
0
 62
7
  6
CONTINUOUS
 10
86.576736471
 20
172.3139290494
 11
86.576736471
 21
168.3289535273
  0
LINE
  8
0
 62
7
  6
CONTINUOUS
 10
87.3275028902
 20
159.3002700396
 11
87.3275028902
 21
165.2809917474
  0
LINE
  8
0
 62
7
  6
CONTINUOUS
 10
79.0820854387
 20
144.2883814384
 11
79.8162277284
 21
147.1898987104
  0
LINE
  8
0
 62
7
  6
CONTINUOUS
 10
85.0769196927
 20
144.2886036728
 11
84.3427802152
 21
147.1898946389
  0
LINE
  8
0
 62
7
  6
CONTINUOUS
 10
91.8275028902
 20
159.7502700396
 11
91.8275028902
 21
165.2809917474
  0
LINE
  8
0
 62
7
  6
CONTINUOUS
 10
92.5782693093
 20
172.3139290494
 11
92.5782693093
 21
168.3289535273
  0
LINE
  8
0
 62
7
  6
CONTINUOUS
 10
94.0735028902
 20
144.2518075649
 11
94.0735028902
 21
140.0002700396
  0
LINE
  8
0
 62
7
  6
CONTINUOUS
 10
94.8275028902
 20
151.4502700396
 11
94.8275028902
 21
147.3125483318
  0
LINE
  8
0
 62
7
  6
CONTINUOUS
 10
91.8427802152
 20
165.4036454404
 11
92.5736861118
 21
168.2921574194
  0
LINE
  8
0
 62
7
  6
CONTINUOUS
 10
87.3122255651
 20
165.4036454404
 11
86.5813196685
 21
168.2921574194
  0
LINE
  8
0
 62
7
  6
CONTINUOUS
 10
99.3275028902
 20
147.3125483318
 11
99.3275028902
 21
151.9502700396
  0
LINE
  8
0
 62
7
  6
CONTINUOUS
 10
100.0815028902
 20
140.0002700396
 11
100.0815028902
 21
144.2518075649
  0
LINE
  8
0
 62
7
  6
CONTINUOUS
 10
101.076736471
 20
172.3139290494
 11
101.076736471
 21
168.3289535273
  0
LINE
  8
0
 62
7
  6
CONTINUOUS
 10
101.8275028902
 20
165.2809917474
 11
101.8275028902
 21
159.4502700396
  0
LINE
  8
0
 62
7
  6
CONTINUOUS
 10
94.8122255651
 20
147.1898946389
 11
94.0780860877
 21
144.2886036728
  0
LINE
  8
0
 62
7
  6
CONTINUOUS
 10
100.0769196927
 20
144.2886036728
 11
99.3427802152
 21
147.1898946389
  0
LINE
  8
0
 62
7
  6
CONTINUOUS
 10
106.3275028902
 20
165.2809917474
 11
106.3275028902
 21
159.4502700396
  0
LINE
  8
0
 62
7
  6
CONTINUOUS
 10
107.0782693093
 20
172.3139290494
 11
107.0782693093
 21
168.3289535273
  0
LINE
  8
0
 62
7
  6
CONTINUOUS
 10
108.0735028902
 20
144.2518075649
 11
108.0735028902
 21
140.0002700396
  0
LINE
  8
0
 62
7
  6
CONTINUOUS
 10
108.8275028902
 20
151.9502700396
 11
108.8275028902
 21
147.3125483318
  0
LINE
  8
0
 62
7
  6
CONTINUOUS
 10
107.0736861118
 20
168.2921574194
 11
106.3427802152
 21
165.4036454404
  0
POLYLINE
  8
0
 62
7
  6
CONTINUOUS
 66
1
 70
0
  0
VERTEX
  8
0
 62
7
  6
CONTINUOUS
 10
63.9314203889
 20
140.3461716704
  0
VERTEX
  8
0
 62
7
  6
CONTINUOUS
 10
64.5687810127
 20
140.818238343
  0
VERTEX
  8
0
 62
7
  6
CONTINUOUS
 10
65.6255845312
 20
141.6761697087
  0
VERTEX
  8
0
 62
7
  6
CONTINUOUS
 10
66.4325570049
 20
142.4308064517
  0
VERTEX
  8
0
 62
7
  6
CONTINUOUS
 10
67.0282914027
 20
143.0925930503
  0
VERTEX
  8
0
 62
7
  6
CONTINUOUS
 10
67.2569850458
 20
143.3912338251
  0
VERTEX
  8
0
 62
7
  6
CONTINUOUS
 10
67.5934392338
 20
143.927783622
  0
VERTEX
  8
0
 62
7
  6
CONTINUOUS
 10
67.7894359339
 20
144.3843322571
  0
VERTEX
  8
0
 62
7
  6
CONTINUOUS
 10
67.8725217482
 20
144.761339106
  0
VERTEX
  8
0
 62
7
  6
CONTINUOUS
 10
67.8815028902
 20
144.9225164838
  0
SEQEND
  0
LINE
  8
0
 62
7
  6
CONTINUOUS
 10
101.0813196685
 20
168.2921574194
 11
101.8122255651
 21
165.4036454404
  0
LINE
  8
0
 62
7
  6
CONTINUOUS
 10
113.3315028902
 20
147.3125483318
 11
113.3315028902
 21
151.9502700396
  0
LINE
  8
0
 62
7
  6
CONTINUOUS
 10
114.0855028902
 20
140.0002700396
 11
114.0855028902
 21
144.2518075649
  0
LINE
  8
0
 62
7
  6
CONTINUOUS
 10
114.830736471
 20
172.320046918
 11
114.830736471
 21
168.3289535273
  0
LINE
  8
0
 62
7
  6
CONTINUOUS
 10
115.5815028902
 20
158.7502700396
 11
115.5815028902
 21
165.2809917474
  0
LINE
  8
0
 62
7
  6
CONTINUOUS
 10
108.8122255651
 20
147.1898946389
 11
108.0780860877
 21
144.2886036728
  0
LINE
  8
0
 62
7
  6
CONTINUOUS
 10
67.8452465015
 20
156.393590739
 11
67.7234197891
 21
156.3486157636
  0
LINE
  8
0
 62
7
  6
CONTINUOUS
 10
114.0809196927
 20
144.2886036728
 11
113.3467802152
 21
147.1898946389
  0
LINE
  8
0
 62
7
  6
CONTINUOUS
 10
120.0815028902
 20
165.2809917474
 11
120.0815028902
 21
159.7842700396
  0
LINE
  8
0
 62
7
  6
CONTINUOUS
 10
120.8322693093
 20
172.320046918
 11
120.8322693093
 21
168.3289535273
  0
LINE
  8
0
 62
7
  6
CONTINUOUS
 10
121.5775028902
 20
144.2518075649
 11
121.5775028902
 21
140.0002700396
  0
LINE
  8
0
 62
7
  6
CONTINUOUS
 10
122.3315028902
 20
151.9502700396
 11
122.3315028902
 21
147.3125483318
  0
LINE
  8
0
 62
7
  6
CONTINUOUS
 10
120.8276861118
 20
168.2921574194
 11
120.0967802152
 21
165.4036454404
  0
LINE
  8
0
 62
7
  6
CONTINUOUS
 10
67.7234197891
 20
156.3486157636
 11
65.5730623466
 21
155.5811035687
  0
LINE
  8
0
 62
7
  6
CONTINUOUS
 10
115.5662255651
 20
165.4036454404
 11
114.8353196685
 21
168.2921574194
  0
LINE
  8
0
 62
7
  6
CONTINUOUS
 10
126.8275028902
 20
151.4962700396
 11
126.8275028902
 21
147.3125483318
  0
LINE
  8
0
 62
7
  6
CONTINUOUS
 10
127.5815028902
 20
140.0002700396
 11
127.5815028902
 21
144.2518075649
  0
LINE
  8
0
 62
7
  6
CONTINUOUS
 10
127.9315028902
 20
171.7997597824
 11
127.9315028902
 21
168.3258679056
  0
LINE
  8
0
 62
7
  6
CONTINUOUS
 10
128.6815028902
 20
159.0842700396
 11
128.6815028902
 21
165.2809349848
  0
LINE
  8
0
 62
7
  6
CONTINUOUS
 10
122.3162255651
 20
147.1898946389
 11
121.5820860877
 21
144.2886036728
  0
POLYLINE
  8
0
 62
7
  6
CONTINUOUS
 66
1
 70
0
  0
VERTEX
  8
0
 62
7
  6
CONTINUOUS
 10
63.9084774037
 20
140.3339251785
  0
VERTEX
  8
0
 62
7
  6
CONTINUOUS
 10
63.9162517599
 20
140.3371835776
  0
VERTEX
  8
0
 62
7
  6
CONTINUOUS
 10
63.9238967946
 20
140.3412495201
  0
VERTEX
  8
0
 62
7
  6
CONTINUOUS
 10
63.9314203889
 20
140.3461716704
  0
SEQEND
  0
LINE
  8
0
 62
7
  6
CONTINUOUS
 10
207.4355028902
 20
139.2502700396
 11
202.9315028902
 21
139.2502700396
  0
LINE
  8
0
 62
7
  6
CONTINUOUS
 10
192.4395028902
 20
139.2502700396
 11
187.9315028902
 21
139.2502700396
  0
LINE
  8
0
 62
7
  6
CONTINUOUS
 10
178.4395028902
 20
139.2502700396
 11
173.9275028902
 21
139.2502700396
  0
LINE
  8
0
 62
7
  6
CONTINUOUS
 10
164.9355028902
 20
139.2502700396
 11
160.4315028902
 21
139.2502700396
  0
LINE
  8
0
 62
7
  6
CONTINUOUS
 10
152.2315028902
 20
139.2502700396
 11
147.7315028902
 21
139.2502700396
  0
LINE
  8
0
 62
7
  6
CONTINUOUS
 10
139.5315028902
 20
139.2502700396
 11
135.0315028902
 21
139.2502700396
  0
LINE
  8
0
 62
7
  6
CONTINUOUS
 10
126.8315028902
 20
139.2502700396
 11
122.3275028902
 21
139.2502700396
  0
LINE
  8
0
 62
7
  6
CONTINUOUS
 10
113.3355028902
 20
139.2502700396
 11
108.8235028902
 21
139.2502700396
  0
LINE
  8
0
 62
7
  6
CONTINUOUS
 10
99.3315028902
 20
139.2502700396
 11
94.8235028902
 21
139.2502700396
  0
LINE
  8
0
 62
7
  6
CONTINUOUS
 10
84.3315028902
 20
139.2502700396
 11
79.8275028902
 21
139.2502700396
  0
LINE
  8
0
 62
7
  6
CONTINUOUS
 10
126.8427802152
 20
147.1898946389
 11
127.5769196927
 21
144.2886036728
  0
LINE
  8
0
 62
7
  6
CONTINUOUS
 10
133.1815028902
 20
165.2809349848
 11
133.1815028902
 21
159.0842700396
  0
LINE
  8
0
 62
7
  6
CONTINUOUS
 10
133.9315028902
 20
171.7997597824
 11
133.9315028902
 21
168.3258679056
  0
LINE
  8
0
 62
7
  6
CONTINUOUS
 10
134.2815028902
 20
144.2518075649
 11
134.2815028902
 21
140.0002700396
  0
LINE
  8
0
 62
7
  6
CONTINUOUS
 10
135.0355028902
 20
147.3125483318
 11
135.0355028902
 21
151.4962700396
  0
LINE
  8
0
 62
7
  6
CONTINUOUS
 10
133.9269196927
 20
168.2890717978
 11
133.1967802152
 21
165.4035886777
  0
LINE
  8
0
 62
7
  6
CONTINUOUS
 10
134.2860860877
 20
144.2886036728
 11
135.0202255651
 21
147.1898946389
  0
LINE
  8
0
 62
7
  6
CONTINUOUS
 10
66.9218849281
 20
138.9525294747
 11
68.7359258125
 21
139.6000025288
  0
LINE
  8
AXES
 62
2
  6
CENTER
 10
63.5815028902
 20
143.6002700396
 11
223.6815028902
 21
143.6002700396
  0
LINE
  8
0
 62
7
  6
CONTINUOUS
 10
128.6662255651
 20
165.4035886777
 11
127.9360860877
 21
168.2890717978
  0
LINE
  8
0
 62
7
  6
CONTINUOUS
 10
139.5427802152
 20
147.1898946389
 11
140.2769196927
 21
144.2886036728
  0
LINE
  8
0
 62
7
  6
CONTINUOUS
 10
139.5275028902
 20
151.4962700396
 11
139.5275028902
 21
147.3125483318
  0
LINE
  8
0
 62
7
  6
CONTINUOUS
 10
140.2815028902
 20
140.0002700396
 11
140.2815028902
 21
144.2518075649
  0
LINE
  8
0
 62
7
  6
CONTINUOUS
 10
140.6315028902
 20
171.7997597824
 11
140.6315028902
 21
168.3258679056
  0
LINE
  8
0
 62
7
  6
CONTINUOUS
 10
141.3815028902
 20
159.0842700396
 11
141.3815028902
 21
165.2809349848
  0
LINE
  8
DEFAULT_1
 62
2
  6
CENTER
 10
143.6315028902
 20
161.9002700396
 11
143.6315028902
 21
158.6503700396
  0
LINE
  8
0
 62
2
  6
CONTINUOUS
 10
143.6315028902
 20
157.7002700396
 11
143.6315028902
 21
155.6002700396
  0
LINE
  8
DEFAULT_1
 62
2
  6
CENTER
 10
143.6315028902
 20
151.4002700396
 11
143.6315028902
 21
154.6501700396
  0
LINE
  8
0
 62
7
  6
CONTINUOUS
 10
146.6269196927
 20
168.2890717978
 11
145.8967802152
 21
165.4035886777
  0
LINE
  8
0
 62
7
  6
CONTINUOUS
 10
103.1775028902
 20
155.8002700396
 11
104.9775028902
 21
155.8002700396
  0
LINE
  8
0
 62
7
  6
CONTINUOUS
 10
117.1815028902
 20
155.8002700396
 11
118.4815028902
 21
155.8002700396
  0
LINE
  8
0
 62
7
  6
CONTINUOUS
 10
168.7815028902
 20
155.8002700396
 11
170.0815028902
 21
155.8002700396
  0
LINE
  8
0
 62
7
  6
CONTINUOUS
 10
182.2855028902
 20
155.8002700396
 11
184.0855028902
 21
155.8002700396
  0
LINE
  8
0
 62
7
  6
CONTINUOUS
 10
88.8275028902
 20
155.9502700396
 11
90.3275028902
 21
155.9502700396
  0
LINE
  8
0
 62
7
  6
CONTINUOUS
 10
196.9355028902
 20
155.9502700396
 11
198.4355028902
 21
155.9502700396
  0
LINE
  8
0
 62
7
  6
CONTINUOUS
 10
213.6815028902
 20
156.0502700396
 11
211.9315028902
 21
156.0502700396
  0
LINE
  8
0
 62
7
  6
CONTINUOUS
 10
75.3315028902
 20
156.0502700396
 11
73.5815028902
 21
156.0502700396
  0
LINE
  8
0
 62
7
  6
CONTINUOUS
 10
207.0565028902
 20
156.6002700396
 11
202.9355028902
 21
156.6002700396
  0
LINE
  8
0
 62
7
  6
CONTINUOUS
 10
80.2065028902
 20
156.6002700396
 11
84.6275028902
 21
156.6002700396
  0
LINE
  8
DEFAULT_1
 62
2
  6
CENTER
 10
148.8815028902
 20
156.6502700396
 11
145.6316028902
 21
156.6502700396
  0
LINE
  8
0
 62
2
  6
CONTINUOUS
 10
144.6815028902
 20
156.6502700396
 11
142.5815028902
 21
156.6502700396
  0
LINE
  8
DEFAULT_1
 62
2
  6
CENTER
 10
138.3815028902
 20
156.6502700396
 11
141.6314028902
 21
156.6502700396
  0
LINE
  8
0
 62
7
  6
CONTINUOUS
 10
99.1275028902
 20
156.7502700396
 11
94.8275028902
 21
156.7502700396
  0
LINE
  8
0
 62
7
  6
CONTINUOUS
 10
109.0275028902
 20
156.7502700396
 11
113.5815028902
 21
156.7502700396
  0
LINE
  8
0
 62
7
  6
CONTINUOUS
 10
174.3815028902
 20
156.7502700396
 11
178.2355028902
 21
156.7502700396
  0
LINE
  8
0
 62
7
  6
CONTINUOUS
 10
188.1355028902
 20
156.7502700396
 11
192.7355028902
 21
156.7502700396
  0
LINE
  8
0
 62
7
  6
CONTINUOUS
 10
141.3662255651
 20
165.4035886777
 11
140.6360860877
 21
168.2890717978
  0
LINE
  8
0
 62
7
  6
CONTINUOUS
 10
145.8815028902
 20
165.2809349848
 11
145.8815028902
 21
159.0842700396
  0
LINE
  8
0
 62
7
  6
CONTINUOUS
 10
146.6315028902
 20
171.7997597824
 11
146.6315028902
 21
168.3258679056
  0
LINE
  8
0
 62
7
  6
CONTINUOUS
 10
146.9815028902
 20
144.2518075649
 11
146.9815028902
 21
140.0002700396
  0
LINE
  8
0
 62
7
  6
CONTINUOUS
 10
147.7355028902
 20
147.3125483318
 11
147.7355028902
 21
151.4962700396
  0
LINE
  8
0
 62
7
  6
CONTINUOUS
 10
146.9860860877
 20
144.2886036728
 11
147.7202255651
 21
147.1898946389
  0
LINE
  8
0
 62
7
  6
CONTINUOUS
 10
122.7815028902
 20
157.0842700396
 11
126.6815028902
 21
157.0842700396
  0
LINE
  8
0
 62
7
  6
CONTINUOUS
 10
135.1815028902
 20
157.0842700396
 11
139.3815028902
 21
157.0842700396
  0
LINE
  8
0
 62
7
  6
CONTINUOUS
 10
147.8815028902
 20
157.0842700396
 11
152.0815028902
 21
157.0842700396
  0
LINE
  8
0
 62
7
  6
CONTINUOUS
 10
160.5815028902
 20
157.0842700396
 11
165.1815028902
 21
157.0842700396
  0
LINE
  8
DEFAULT_1
 62
2
  6
CENTER
 10
68.8136155219
 20
160.9502700396
 11
218.4493902584
 21
160.9502700396
  0
LINE
  8
0
 62
7
  6
CONTINUOUS
 10
152.2427802152
 20
147.1898946389
 11
152.9769196927
 21
144.2886036728
  0
LINE
  8
0
 62
7
  6
CONTINUOUS
 10
152.2275028902
 20
151.4962700396
 11
152.2275028902
 21
147.3125483318
  0
LINE
  8
0
 62
7
  6
CONTINUOUS
 10
152.9815028902
 20
140.0002700396
 11
152.9815028902
 21
144.2518075649
  0
LINE
  8
0
 62
7
  6
CONTINUOUS
 10
153.3315028902
 20
171.7997597824
 11
153.3315028902
 21
168.3258679056
  0
LINE
  8
0
 62
7
  6
CONTINUOUS
 10
154.0815028902
 20
159.0842700396
 11
154.0815028902
 21
165.2809349848
  0
LINE
  8
0
 62
7
  6
CONTINUOUS
 10
159.3269196927
 20
168.2890717978
 11
158.5967802152
 21
165.4035886777
  0
LINE
  8
DEFAULT_1
 62
2
  6
CENTER
 10
68.9565028902
 20
169.0002700396
 11
218.3065028902
 21
169.0002700396
  0
LINE
  8
0
 62
7
  6
CONTINUOUS
 10
218.5270799679
 20
139.6000025288
 11
220.3411208522
 21
138.9525294747
  0
LINE
  8
0
 62
7
  6
CONTINUOUS
 10
154.0662255651
 20
165.4035886777
 11
153.3360860877
 21
168.2890717978
  0
LINE
  8
0
 62
7
  6
CONTINUOUS
 10
158.5815028902
 20
165.2809349848
 11
158.5815028902
 21
159.0842700396
  0
LINE
  8
0
 62
7
  6
CONTINUOUS
 10
159.3315028902
 20
171.7997597824
 11
159.3315028902
 21
168.3258679056
  0
LINE
  8
0
 62
7
  6
CONTINUOUS
 10
159.6815028902
 20
144.2518075649
 11
159.6815028902
 21
140.0002700396
  0
LINE
  8
0
 62
7
  6
CONTINUOUS
 10
160.4355028902
 20
147.3125483318
 11
160.4355028902
 21
151.4962700396
  0
LINE
  8
0
 62
7
  6
CONTINUOUS
 10
159.6860860877
 20
144.2886036728
 11
160.4202255651
 21
147.1898946389
  0
LINE
  8
0
 62
7
  6
CONTINUOUS
 10
213.8065028902
 20
173.3502700396
 11
212.8065028902
 21
173.3502700396
  0
LINE
  8
0
 62
7
  6
CONTINUOUS
 10
198.1855028902
 20
173.3502700396
 11
197.1855028902
 21
173.3502700396
  0
LINE
  8
0
 62
7
  6
CONTINUOUS
 10
183.6855028902
 20
173.3502700396
 11
182.6855028902
 21
173.3502700396
  0
LINE
  8
0
 62
7
  6
CONTINUOUS
 10
169.9315028902
 20
173.3502700396
 11
168.9315028902
 21
173.3502700396
  0
LINE
  8
0
 62
7
  6
CONTINUOUS
 10
118.3315028902
 20
173.3502700396
 11
117.3315028902
 21
173.3502700396
  0
LINE
  8
0
 62
7
  6
CONTINUOUS
 10
104.5775028902
 20
173.3502700396
 11
103.5775028902
 21
173.3502700396
  0
LINE
  8
0
 62
7
  6
CONTINUOUS
 10
90.0775028902
 20
173.3502700396
 11
89.0775028902
 21
173.3502700396
  0
LINE
  8
0
 62
7
  6
CONTINUOUS
 10
74.4565028902
 20
173.3502700396
 11
73.4565028902
 21
173.3502700396
  0
LINE
  8
0
 62
7
  6
CONTINUOUS
 10
165.6809196927
 20
144.2886036728
 11
164.9467802152
 21
147.1898946389
  0
LINE
  8
0
 62
7
  6
CONTINUOUS
 10
164.9315028902
 20
147.3125483318
 11
164.9315028902
 21
151.9502700396
  0
LINE
  8
0
 62
7
  6
CONTINUOUS
 10
165.6855028902
 20
140.0002700396
 11
165.6855028902
 21
144.2518075649
  0
LINE
  8
0
 62
7
  6
CONTINUOUS
 10
166.430736471
 20
172.320046918
 11
166.430736471
 21
168.3289535273
  0
LINE
  8
0
 62
7
  6
CONTINUOUS
 10
167.1815028902
 20
159.0842700396
 11
167.1815028902
 21
165.2809917474
  0
LINE
  8
0
 62
7
  6
CONTINUOUS
 10
172.4276861118
 20
168.2921574194
 11
171.6967802152
 21
165.4036454404
  0
LINE
  8
0
 62
7
  6
CONTINUOUS
 10
221.6899434416
 20
155.5811035659
 11
219.5395859761
 21
156.348615769
  0
LINE
  8
0
 62
7
  6
CONTINUOUS
 10
219.5395859761
 20
156.348615769
 11
219.4177611173
 21
156.3935900376
  0
LINE
  8
0
 62
7
  6
CONTINUOUS
 10
167.1662255651
 20
165.4036454404
 11
166.4353196685
 21
168.2921574194
  0
LINE
  8
0
 62
7
  6
CONTINUOUS
 10
171.6815028902
 20
165.2809917474
 11
171.6815028902
 21
159.4502700396
  0
LINE
  8
0
 62
7
  6
CONTINUOUS
 10
172.4322693093
 20
172.320046918
 11
172.4322693093
 21
168.3289535273
  0
LINE
  8
0
 62
7
  6
CONTINUOUS
 10
173.1775028902
 20
144.2518075649
 11
173.1775028902
 21
140.0002700396
  0
LINE
  8
0
 62
7
  6
CONTINUOUS
 10
173.9315028902
 20
151.9502700396
 11
173.9315028902
 21
147.3125483318
  0
LINE
  8
0
 62
7
  6
CONTINUOUS
 10
173.9162255651
 20
147.1898946389
 11
173.1820860877
 21
144.2886036728
  0
LINE
  8
0
 62
7
  6
CONTINUOUS
 10
179.1849196927
 20
144.2886036728
 11
178.4507802152
 21
147.1898946389
  0
LINE
  8
0
 62
7
  6
CONTINUOUS
 10
178.4355028902
 20
147.3125483318
 11
178.4355028902
 21
151.9502700396
  0
LINE
  8
0
 62
7
  6
CONTINUOUS
 10
179.1895028902
 20
140.0002700396
 11
179.1895028902
 21
144.2518075649
  0
LINE
  8
0
 62
7
  6
CONTINUOUS
 10
180.184736471
 20
172.3139290494
 11
180.184736471
 21
168.3289535273
  0
LINE
  8
0
 62
7
  6
CONTINUOUS
 10
180.9355028902
 20
159.4502700396
 11
180.9355028902
 21
165.2809917474
  0
LINE
  8
0
 62
7
  6
CONTINUOUS
 10
186.1816861118
 20
168.2921574194
 11
185.4507802152
 21
165.4036454404
  0
LINE
  8
0
 62
7
  6
CONTINUOUS
 10
180.9202255651
 20
165.4036454404
 11
180.1893196685
 21
168.2921574194
  0
LINE
  8
0
 62
7
  6
CONTINUOUS
 10
185.4355028902
 20
165.2809917474
 11
185.4355028902
 21
159.4502700396
  0
LINE
  8
0
 62
7
  6
CONTINUOUS
 10
186.1862693093
 20
172.3139290494
 11
186.1862693093
 21
168.3289535273
  0
LINE
  8
0
 62
7
  6
CONTINUOUS
 10
187.1815028902
 20
144.2518075649
 11
187.1815028902
 21
140.0002700396
  0
LINE
  8
0
 62
7
  6
CONTINUOUS
 10
187.9355028902
 20
151.9502700396
 11
187.9355028902
 21
147.3125483318
  0
LINE
  8
0
 62
7
  6
CONTINUOUS
 10
187.9202255651
 20
147.1898946389
 11
187.1860860877
 21
144.2886036728
  0
LINE
  8
0
 62
7
  6
CONTINUOUS
 10
193.1849196927
 20
144.2886036728
 11
192.4507802152
 21
147.1898946389
  0
LINE
  8
0
 62
7
  6
CONTINUOUS
 10
192.4355028902
 20
147.3125483318
 11
192.4355028902
 21
151.4502700396
  0
LINE
  8
0
 62
7
  6
CONTINUOUS
 10
193.1895028902
 20
140.0002700396
 11
193.1895028902
 21
144.2518075649
  0
LINE
  8
0
 62
7
  6
CONTINUOUS
 10
194.684736471
 20
172.3139290494
 11
194.684736471
 21
168.3289535273
  0
LINE
  8
0
 62
7
  6
CONTINUOUS
 10
195.4355028902
 20
159.4502700396
 11
195.4355028902
 21
165.2809917474
  0
LINE
  8
0
 62
7
  6
CONTINUOUS
 10
199.9507802152
 20
165.4036454404
 11
200.6816861118
 21
168.2921574194
  0
LINE
  8
0
 62
7
  6
CONTINUOUS
 10
195.4202255651
 20
165.4036454404
 11
194.6893196685
 21
168.2921574194
  0
LINE
  8
0
 62
7
  6
CONTINUOUS
 10
199.9355028902
 20
159.6002700396
 11
199.9355028902
 21
165.2809917474
  0
LINE
  8
0
 62
7
  6
CONTINUOUS
 10
200.6862693093
 20
172.3139290494
 11
200.6862693093
 21
168.3289535273
  0
LINE
  8
0
 62
7
  6
CONTINUOUS
 10
202.1815028902
 20
144.2518075649
 11
202.1815028902
 21
140.0002700396
  0
LINE
  8
0
 62
7
  6
CONTINUOUS
 10
202.9355028902
 20
151.4502700396
 11
202.9355028902
 21
147.3125483318
  0
LINE
  8
0
 62
7
  6
CONTINUOUS
 10
202.9202255651
 20
147.1898946389
 11
202.1860860877
 21
144.2886036728
  0
LINE
  8
0
 62
7
  6
CONTINUOUS
 10
207.446778052
 20
147.1898987104
 11
208.1809203416
 21
144.2883814384
  0
LINE
  8
0
 62
7
  6
CONTINUOUS
 10
207.4315028902
 20
151.5502700396
 11
207.4315028902
 21
147.312543854
  0
LINE
  8
0
 62
7
  6
CONTINUOUS
 10
208.1855028902
 20
140.0002700396
 11
208.1855028902
 21
144.2515878953
  0
LINE
  8
0
 62
7
  6
CONTINUOUS
 10
210.3065028902
 20
172.3143716548
 11
210.3065028902
 21
168.3259246683
  0
LINE
  8
0
 62
7
  6
CONTINUOUS
 10
211.0565028902
 20
165.2809917474
 11
211.0565028902
 21
160.6002700396
  0
LINE
  8
0
 62
7
  6
CONTINUOUS
 10
216.3019196927
 20
168.2891285604
 11
215.5717802152
 21
165.4036454404
  0
LINE
  8
AXES
 62
7
  6
CONTINUOUS
 10
210.3110860877
 20
168.2891285604
 11
210.9110860877
 21
165.9179516476
  0
LINE
  8
0
 62
7
  6
CONTINUOUS
 10
210.3110860877
 20
168.2891285604
 11
211.0412255651
 21
165.4036454404
  0
LINE
  8
0
 62
7
  6
CONTINUOUS
 10
215.5565028902
 20
165.2809917474
 11
215.5565028902
 21
161.9994604989
  0
LINE
  8
0
 62
7
  6
CONTINUOUS
 10
216.3065028902
 20
172.3143716548
 11
216.3065028902
 21
168.3259246683
  0
LINE
  8
0
 62
7
  6
CONTINUOUS
 10
218.4275028902
 20
153.2887521009
 11
218.4275028902
 21
139.7412736473
  0
LINE
  8
0
 62
7
  6
CONTINUOUS
 10
223.6815028902
 20
141.3070749756
 11
223.6815028902
 21
152.7556507857
  0
LINE
  8
0
 62
7
  6
CONTINUOUS
 10
318.5012473014
 20
222.3992052023
 11
318.5012473014
 21
218.3992052023
  0
LINE
  8
DEFAULT_1
 62
2
  6
CENTER
 10
322.8512473014
 20
225.6492052023
 11
322.8512473014
 21
222.3993052023
  0
LINE
  8
0
 62
2
  6
CONTINUOUS
 10
322.8512473014
 20
221.4492052023
 11
322.8512473014
 21
219.3492052023
  0
LINE
  8
DEFAULT_1
 62
2
  6
CENTER
 10
322.8512473014
 20
215.1492052023
 11
322.8512473014
 21
218.3991052023
  0
LINE
  8
0
 62
7
  6
CONTINUOUS
 10
321.3722324821
 20
214.5618460143
 11
321.3196479404
 21
214.5777103442
  0
POLYLINE
  8
0
 62
7
  6
CONTINUOUS
 66
1
 70
0
  0
VERTEX
  8
0
 62
7
  6
CONTINUOUS
 10
348.4102316265
 20
214.3992053276
  0
VERTEX
  8
0
 62
7
  6
CONTINUOUS
 10
349.3019497131
 20
214.4663831532
  0
VERTEX
  8
0
 62
7
  6
CONTINUOUS
 10
349.7546227076
 20
214.5531685356
  0
VERTEX
  8
0
 62
7
  6
CONTINUOUS
 10
350.6000879471
 20
214.8183543485
  0
SEQEND
  0
LINE
  8
0
 62
7
  6
CONTINUOUS
 10
322.5012473014
 20
214.3992052023
 11
348.6012473014
 21
214.3992052023
  0
LINE
  8
DEFAULT_1
 62
2
  6
CENTER
 10
330.9012473014
 20
225.6492052023
 11
330.9012473014
 21
222.3993052023
  0
LINE
  8
0
 62
2
  6
CONTINUOUS
 10
330.9012473014
 20
221.4492052023
 11
330.9012473014
 21
219.3492052023
  0
LINE
  8
DEFAULT_1
 62
2
  6
CENTER
 10
330.9012473014
 20
215.1492052023
 11
330.9012473014
 21
218.3991052023
  0
POLYLINE
  8
0
 62
7
  6
CONTINUOUS
 66
1
 70
0
  0
VERTEX
  8
0
 62
7
  6
CONTINUOUS
 10
335.5924591349
 20
226.3987155294
  0
VERTEX
  8
0
 62
7
  6
CONTINUOUS
 10
335.5416970165
 20
226.3839823707
  0
VERTEX
  8
0
 62
7
  6
CONTINUOUS
 10
335.4987869072
 20
226.3507364826
  0
VERTEX
  8
0
 62
7
  6
CONTINUOUS
 10
335.469562736
 20
226.3036449414
  0
VERTEX
  8
0
 62
7
  6
CONTINUOUS
 10
335.457926602
 20
226.2492052023
  0
SEQEND
  0
LINE
  8
AXES
 62
7
  6
CONTINUOUS
 10
322.8512473014
 20
218.2992052023
 11
330.9012473014
 21
218.2992052023
  0
LINE
  8
DEFAULT_1
 62
2
  6
CENTER
 10
335.2012473014
 20
211.6985615471
 11
335.2012473014
 21
228.3992055878
  0
LINE
  8
AXES
 62
2
  6
CENTER
 10
353.5012473014
 20
220.3992052023
 11
352.3512473014
 21
220.3992052023
  0
LINE
  8
AXES
 62
2
  6
CONTINUOUS
 10
349.3012473014
 20
220.3992052023
 11
347.2012473014
 21
220.3992052023
  0
LINE
  8
DEFAULT_1
 62
2
  6
CENTER
 10
336.1512473014
 20
220.3992052023
 11
332.9013473014
 21
220.3992052023
  0
LINE
  8
0
 62
2
  6
CONTINUOUS
 10
331.9512473014
 20
220.3992052023
 11
329.8512473014
 21
220.3992052023
  0
LINE
  8
0
 62
2
  6
CONTINUOUS
 10
323.9012473014
 20
220.3992052023
 11
321.8012473014
 21
220.3992052023
  0
LINE
  8
DEFAULT_1
 62
2
  6
CENTER
 10
317.6012473014
 20
220.3992052023
 11
320.8511473014
 21
220.3992052023
  0
LINE
  8
DEFAULT_1
 62
2
  6
CENTER
 10
324.8513473014
 20
220.3992052023
 11
328.9011473014
 21
220.3992052023
  0
LINE
  8
AXES
 62
2
  6
CENTER
 10
343.0012473014
 20
220.3992052023
 11
344.1512473014
 21
220.3992052023
  0
LINE
  8
AXES
 62
7
  6
CONTINUOUS
 10
322.8512473014
 20
222.4992052023
 11
330.9012473014
 21
222.4992052023
  0
POLYLINE
  8
0
 62
7
  6
CONTINUOUS
 66
1
 70
0
  0
VERTEX
  8
0
 62
7
  6
CONTINUOUS
 10
335.6046106229
 20
226.3992052023
  0
VERTEX
  8
0
 62
7
  6
CONTINUOUS
 10
335.6002856334
 20
226.3991482826
  0
VERTEX
  8
0
 62
7
  6
CONTINUOUS
 10
335.5962459181
 20
226.3989829929
  0
VERTEX
  8
0
 62
7
  6
CONTINUOUS
 10
335.5924591349
 20
226.3987155294
  0
SEQEND
  0
LINE
  8
0
 62
7
  6
CONTINUOUS
 10
322.5012473014
 20
226.3992052023
 11
335.5924591349
 21
226.3992052023
  0
LINE
  8
0
 62
7
  6
CONTINUOUS
 10
335.6046106229
 20
226.3992052023
 11
348.6012473014
 21
226.3992052023
  0
POLYLINE
  8
0
 62
7
  6
CONTINUOUS
 66
1
 70
0
  0
VERTEX
  8
0
 62
7
  6
CONTINUOUS
 10
351.5053456707
 20
225.4805813648
  0
VERTEX
  8
0
 62
7
  6
CONTINUOUS
 10
351.033278998
 20
225.6288047657
  0
VERTEX
  8
0
 62
7
  6
CONTINUOUS
 10
350.1753476324
 20
225.8745730258
  0
VERTEX
  8
0
 62
7
  6
CONTINUOUS
 10
349.4207108893
 20
226.0622410429
  0
VERTEX
  8
0
 62
7
  6
CONTINUOUS
 10
348.7589242907
 20
226.2007839261
  0
VERTEX
  8
0
 62
7
  6
CONTINUOUS
 10
348.460283516
 20
226.2539684943
  0
VERTEX
  8
0
 62
7
  6
CONTINUOUS
 10
347.9237337191
 20
226.3322136543
  0
VERTEX
  8
0
 62
7
  6
CONTINUOUS
 10
347.467185084
 20
226.3777942822
  0
VERTEX
  8
0
 62
7
  6
CONTINUOUS
 10
347.090178235
 20
226.3971165646
  0
VERTEX
  8
0
 62
7
  6
CONTINUOUS
 10
346.9290008573
 20
226.3992052023
  0
SEQEND
  0
POLYLINE
  8
0
 62
7
  6
CONTINUOUS
 66
1
 70
0
  0
VERTEX
  8
0
 62
7
  6
CONTINUOUS
 10
350.6000878415
 20
214.8183546129
  0
VERTEX
  8
0
 62
7
  6
CONTINUOUS
 10
350.7896288167
 20
214.8990879991
  0
VERTEX
  8
0
 62
7
  6
CONTINUOUS
 10
351.2266795843
 20
215.1288846791
  0
VERTEX
  8
0
 62
7
  6
CONTINUOUS
 10
351.6547920266
 20
215.4288831898
  0
VERTEX
  8
0
 62
7
  6
CONTINUOUS
 10
352.0572167184
 20
215.8076230174
  0
VERTEX
  8
0
 62
7
  6
CONTINUOUS
 10
352.4090693722
 20
216.2613131318
  0
VERTEX
  8
0
 62
7
  6
CONTINUOUS
 10
352.5607823448
 20
216.5149227488
  0
VERTEX
  8
0
 62
7
  6
CONTINUOUS
 10
352.8100782766
 20
217.0788153245
  0
VERTEX
  8
0
 62
7
  6
CONTINUOUS
 10
352.9769240245
 20
217.7239988923
  0
VERTEX
  8
0
 62
7
  6
CONTINUOUS
 10
353.0440795037
 20
218.458165381
  0
VERTEX
  8
0
 62
7
  6
CONTINUOUS
 10
353.0444710785
 20
218.5205906166
  0
SEQEND
  0
LINE
  8
0
 62
7
  6
CONTINUOUS
 10
351.5102678209
 20
225.4788316917
 11
351.5053456707
 21
225.4805813648
  0
POLYLINE
  8
0
 62
7
  6
CONTINUOUS
 66
1
 70
0
  0
VERTEX
  8
0
 62
7
  6
CONTINUOUS
 10
351.5175921625
 20
225.4752457868
  0
VERTEX
  8
0
 62
7
  6
CONTINUOUS
 10
351.5143337634
 20
225.4770537766
  0
VERTEX
  8
0
 62
7
  6
CONTINUOUS
 10
351.5102678209
 20
225.4788316917
  0
SEQEND
  0
LINE
  8
AXES
 62
2
  6
CENTER
 10
348.2512473014
 20
225.6492052023
 11
348.2512473014
 21
224.4992052023
  0
LINE
  8
AXES
 62
2
  6
CONTINUOUS
 10
348.2512473014
 20
221.4492052023
 11
348.2512473014
 21
219.3492052023
  0
LINE
  8
AXES
 62
2
  6
CENTER
 10
348.2512473014
 20
215.1492052023
 11
348.2512473014
 21
216.2992052023
  0
LINE
  8
0
 62
7
  6
CONTINUOUS
 10
351.5189302336
 20
225.4743209128
 11
351.5175921625
 21
225.4752457868
  0
POLYLINE
  8
0
 62
7
  6
CONTINUOUS
 66
1
 70
0
  0
VERTEX
  8
0
 62
7
  6
CONTINUOUS
 10
351.52835972
 20
225.3241892831
  0
VERTEX
  8
0
 62
7
  6
CONTINUOUS
 10
351.5343854055
 20
225.3532457467
  0
VERTEX
  8
0
 62
7
  6
CONTINUOUS
 10
351.5391565358
 20
225.407771646
  0
VERTEX
  8
0
 62
7
  6
CONTINUOUS
 10
351.5376317103
 20
225.4312257292
  0
VERTEX
  8
0
 62
7
  6
CONTINUOUS
 10
351.5267166648
 20
225.46578419
  0
SEQEND
  0
LINE
  8
0
 62
7
  6
CONTINUOUS
 10
351.953570789
 20
225.099741471
 11
351.5598481357
 21
225.4437951431
  0
LINE
  8
0
 62
7
  6
CONTINUOUS
 10
351.5267166648
 20
225.46578419
 11
351.5189302336
 21
225.4743209128
  0
LINE
  8
0
 62
7
  6
CONTINUOUS
 10
352.1380723546
 20
224.8811618485
 11
351.953570789
 21
225.099741471
  0
POLYLINE
  8
0
 62
7
  6
CONTINUOUS
 66
1
 70
0
  0
VERTEX
  8
0
 62
7
  6
CONTINUOUS
 10
353.0444710317
 20
222.2778487111
  0
VERTEX
  8
0
 62
7
  6
CONTINUOUS
 10
353.0154522992
 20
222.8052728212
  0
VERTEX
  8
0
 62
7
  6
CONTINUOUS
 10
352.8675370412
 20
223.5413965611
  0
VERTEX
  8
0
 62
7
  6
CONTINUOUS
 10
352.622089831
 20
224.1659254955
  0
VERTEX
  8
0
 62
7
  6
CONTINUOUS
 10
352.2997188207
 20
224.6947634271
  0
VERTEX
  8
0
 62
7
  6
CONTINUOUS
 10
351.9169267698
 20
225.1361701324
  0
VERTEX
  8
0
 62
7
  6
CONTINUOUS
 10
351.5189404867
 20
225.4743216797
  0
SEQEND
  0
LINE
  8
0
 62
7
  6
CONTINUOUS
 10
353.0444692254
 20
218.520284084
 11
353.0444692254
 21
222.2781220194
  0
LINE
  8
0
 62
7
  6
CONTINUOUS
 10
352.6386767243
 20
224.1322568391
 11
352.4859301583
 21
224.3892904922
  0
LINE
  8
0
 62
7
  6
CONTINUOUS
 10
352.8762373698
 20
223.5116502759
 11
352.6386767243
 21
224.1322568391
  0
LINE
  8
0
 62
7
  6
CONTINUOUS
 10
353.0162723228
 20
222.7903686479
 11
352.8762373698
 21
223.5116502759
  0
ARC
  8
0
 62
7
  6
CONTINUOUS
 10
79.8275028902
 20
215.1492052023
 40
0.75
 50
180.0
 51
270.0
  0
ARC
  8
0
 62
7
  6
CONTINUOUS
 10
84.3315028902
 20
215.1492052023
 40
0.75
 50
270.0
 51
360.0
  0
ARC
  8
0
 62
7
  6
CONTINUOUS
 10
94.8235028902
 20
215.1492052023
 40
0.75
 50
180.0
 51
270.0
  0
ARC
  8
0
 62
7
  6
CONTINUOUS
 10
99.3315028902
 20
215.1492052023
 40
0.75
 50
270.0
 51
360.0
  0
ARC
  8
0
 62
7
  6
CONTINUOUS
 10
108.8235028902
 20
215.1492052023
 40
0.75
 50
180.0
 51
270.0
  0
ARC
  8
0
 62
7
  6
CONTINUOUS
 10
113.3355028902
 20
215.1492052023
 40
0.75
 50
270.0
 51
360.0
  0
ARC
  8
0
 62
7
  6
CONTINUOUS
 10
122.3275028902
 20
215.1492052023
 40
0.75
 50
180.0
 51
270.0
  0
ARC
  8
0
 62
7
  6
CONTINUOUS
 10
126.8315028902
 20
215.1492052023
 40
0.75
 50
270.0
 51
360.0
  0
ARC
  8
0
 62
7
  6
CONTINUOUS
 10
135.0315028902
 20
215.1492052023
 40
0.75
 50
180.0
 51
270.0
  0
ARC
  8
0
 62
7
  6
CONTINUOUS
 10
139.5315028902
 20
215.1492052023
 40
0.75
 50
270.0
 51
360.0
  0
ARC
  8
0
 62
7
  6
CONTINUOUS
 10
63.7315028902
 20
214.5492052023
 40
0.15
 50
180.0
 51
270.0
  0
ARC
  8
0
 62
7
  6
CONTINUOUS
 10
68.6855028902
 20
214.5492053664
 40
0.15
 50
270.0
 51
359.9999373186
  0
ARC
  8
0
 62
7
  6
CONTINUOUS
 10
79.8275028902
 20
225.6492052023
 40
0.75
 50
90.0
 51
180.0
  0
ARC
  8
0
 62
7
  6
CONTINUOUS
 10
84.3315028902
 20
225.6492052023
 40
0.75
 50
0.0
 51
90.0
  0
ARC
  8
0
 62
7
  6
CONTINUOUS
 10
94.8235028902
 20
225.6492052023
 40
0.75
 50
90.0
 51
180.0
  0
ARC
  8
0
 62
7
  6
CONTINUOUS
 10
99.3315028902
 20
225.6492052023
 40
0.75
 50
0.0
 51
90.0
  0
ARC
  8
0
 62
7
  6
CONTINUOUS
 10
108.8235028902
 20
225.6492052023
 40
0.75
 50
90.0
 51
180.0
  0
ARC
  8
0
 62
7
  6
CONTINUOUS
 10
113.3355028902
 20
225.6492052023
 40
0.75
 50
0.0
 51
90.0
  0
ARC
  8
0
 62
7
  6
CONTINUOUS
 10
122.3275028902
 20
225.6492052023
 40
0.75
 50
90.0
 51
180.0
  0
ARC
  8
0
 62
7
  6
CONTINUOUS
 10
126.8315028902
 20
225.6492052023
 40
0.75
 50
0.0
 51
90.0
  0
ARC
  8
0
 62
7
  6
CONTINUOUS
 10
135.0315028902
 20
225.6492052023
 40
0.75
 50
90.0
 51
180.0
  0
ARC
  8
0
 62
7
  6
CONTINUOUS
 10
139.5315028902
 20
225.6492052023
 40
0.75
 50
0.0
 51
90.0
  0
ARC
  8
0
 62
7
  6
CONTINUOUS
 10
63.7315032748
 20
225.2800861751
 40
0.15
 50
103.0920438894
 51
180.0000341637
  0
ARC
  8
0
 62
7
  6
CONTINUOUS
 10
68.6855028902
 20
226.2492052023
 40
0.15
 50
0.0
 51
90.0
  0
ARC
  8
0
 62
7
  6
CONTINUOUS
 10
164.9355028902
 20
215.1492052023
 40
0.75
 50
270.0
 51
360.0
  0
ARC
  8
0
 62
7
  6
CONTINUOUS
 10
147.7315028902
 20
215.1492052023
 40
0.75
 50
180.0
 51
270.0
  0
ARC
  8
0
 62
7
  6
CONTINUOUS
 10
152.2315028902
 20
215.1492052023
 40
0.75
 50
270.0
 51
360.0
  0
ARC
  8
0
 62
7
  6
CONTINUOUS
 10
160.4315028902
 20
215.1492052023
 40
0.75
 50
180.0
 51
270.0
  0
ARC
  8
0
 62
7
  6
CONTINUOUS
 10
173.9275028902
 20
215.1492052023
 40
0.75
 50
180.0
 51
270.0
  0
ARC
  8
0
 62
7
  6
CONTINUOUS
 10
178.4395028902
 20
215.1492052023
 40
0.75
 50
270.0
 51
360.0
  0
ARC
  8
0
 62
7
  6
CONTINUOUS
 10
187.9315028902
 20
215.1492052023
 40
0.75
 50
180.0
 51
270.0
  0
ARC
  8
0
 62
7
  6
CONTINUOUS
 10
192.4395028902
 20
215.1492052023
 40
0.75
 50
270.0
 51
360.0
  0
ARC
  8
0
 62
7
  6
CONTINUOUS
 10
202.9315028902
 20
215.1492052023
 40
0.75
 50
180.0
 51
270.0
  0
ARC
  8
0
 62
7
  6
CONTINUOUS
 10
207.4355028902
 20
215.1492052023
 40
0.75
 50
270.0
 51
360.0
  0
ARC
  8
0
 62
7
  6
CONTINUOUS
 10
218.5775028902
 20
214.5492052023
 40
0.15
 50
180.0
 51
270.0
  0
ARC
  8
0
 62
7
  6
CONTINUOUS
 10
223.5315028902
 20
214.5492052023
 40
0.15
 50
270.0
 51
360.0
  0
ARC
  8
0
 62
7
  6
CONTINUOUS
 10
147.7315028902
 20
225.6492052023
 40
0.75
 50
90.0
 51
180.0
  0
ARC
  8
0
 62
7
  6
CONTINUOUS
 10
152.2315028902
 20
225.6492052023
 40
0.75
 50
0.0
 51
90.0
  0
ARC
  8
0
 62
7
  6
CONTINUOUS
 10
160.4315028902
 20
225.6492052023
 40
0.75
 50
90.0
 51
180.0
  0
ARC
  8
0
 62
7
  6
CONTINUOUS
 10
164.9355028902
 20
225.6492052023
 40
0.75
 50
0.0
 51
90.0
  0
ARC
  8
0
 62
7
  6
CONTINUOUS
 10
173.9275028902
 20
225.6492052023
 40
0.75
 50
90.0
 51
180.0
  0
ARC
  8
0
 62
7
  6
CONTINUOUS
 10
178.4395028902
 20
225.6492052023
 40
0.75
 50
0.0
 51
90.0
  0
ARC
  8
0
 62
7
  6
CONTINUOUS
 10
187.9315028902
 20
225.6492052023
 40
0.75
 50
90.0
 51
180.0
  0
ARC
  8
0
 62
7
  6
CONTINUOUS
 10
192.4395028902
 20
225.6492052023
 40
0.75
 50
0.0
 51
90.0
  0
ARC
  8
0
 62
7
  6
CONTINUOUS
 10
202.9315028902
 20
225.6492052023
 40
0.75
 50
90.0
 51
180.0
  0
ARC
  8
0
 62
7
  6
CONTINUOUS
 10
207.4355028902
 20
225.6492052023
 40
0.75
 50
0.0
 51
90.0
  0
ARC
  8
0
 62
7
  6
CONTINUOUS
 10
219.3642906885
 20
226.2492052023
 40
0.15
 50
76.9081069357
 51
90.0
  0
ARC
  8
0
 62
7
  6
CONTINUOUS
 10
218.5775028902
 20
226.2492050382
 40
0.15
 50
90.0
 51
179.9999373186
  0
ARC
  8
0
 62
7
  6
CONTINUOUS
 10
223.5315028902
 20
225.2800860856
 40
0.15
 50
0.0
 51
76.9081069356
  0
ARC
  8
0
 62
7
  6
CONTINUOUS
 10
66.0815028902
 20
141.3070481156
 40
2.5
 50
179.9994842969
 51
289.6426552903
  0
ARC
  8
0
 62
7
  6
CONTINUOUS
 10
79.8275028902
 20
140.0002700396
 40
0.75
 50
180.0
 51
270.0
  0
ARC
  8
0
 62
7
  6
CONTINUOUS
 10
84.3315028902
 20
140.0002700396
 40
0.75
 50
270.0
 51
360.0
  0
ARC
  8
0
 62
7
  6
CONTINUOUS
 10
94.8235028902
 20
140.0002700396
 40
0.75
 50
180.0
 51
270.0
  0
ARC
  8
0
 62
7
  6
CONTINUOUS
 10
99.3315028902
 20
140.0002700396
 40
0.75
 50
270.0
 51
360.0
  0
ARC
  8
0
 62
7
  6
CONTINUOUS
 10
99.9315024978
 20
144.2518091155
 40
0.15
 50
359.9994077259
 51
14.1993890514
  0
ARC
  8
0
 62
7
  6
CONTINUOUS
 10
94.2235028902
 20
144.2518075649
 40
0.15
 50
165.8
 51
180.0
  0
ARC
  8
0
 62
7
  6
CONTINUOUS
 10
84.9315024978
 20
144.2518091155
 40
0.15
 50
359.9994077259
 51
14.1993890514
  0
ARC
  8
0
 62
7
  6
CONTINUOUS
 10
79.227503039
 20
144.2515884834
 40
0.15
 50
165.801242268
 51
180.0002246295
  0
ARC
  8
0
 62
7
  6
CONTINUOUS
 10
68.6855028902
 20
139.7412738356
 40
0.15
 50
289.6426311061
 51
359.9999280561
  0
ARC
  8
0
 62
7
  6
CONTINUOUS
 10
73.5815028902
 20
150.5502700396
 40
5.5
 50
90.0
 51
149.2118097615
  0
ARC
  8
0
 62
7
  6
CONTINUOUS
 10
75.3315028902
 20
151.5502700396
 40
4.5
 50
0.0
 51
90.0
  0
ARC
  8
0
 62
7
  6
CONTINUOUS
 10
88.8275028902
 20
151.4502700396
 40
4.5
 50
90.0
 51
180.0
  0
ARC
  8
0
 62
7
  6
CONTINUOUS
 10
90.3275028902
 20
151.4502700396
 40
4.5
 50
0.0
 51
90.0
  0
ARC
  8
0
 62
7
  6
CONTINUOUS
 10
66.5815028902
 20
152.75567481
 40
3.0
 50
109.6426552903
 51
180.0
  0
ARC
  8
0
 62
7
  6
CONTINUOUS
 10
79.3315028902
 20
147.312543854
 40
0.5
 50
345.8010105549
 51
360.0
  0
ARC
  8
0
 62
7
  6
CONTINUOUS
 10
99.8275028902
 20
147.3125483318
 40
0.5
 50
180.0
 51
194.2
  0
ARC
  8
0
 62
7
  6
CONTINUOUS
 10
94.3275028902
 20
147.3125483318
 40
0.5
 50
345.8
 51
360.0
  0
ARC
  8
0
 62
7
  6
CONTINUOUS
 10
84.8275028902
 20
147.3125483318
 40
0.5
 50
180.0
 51
194.2
  0
ARC
  8
0
 62
7
  6
CONTINUOUS
 10
68.9855028902
 20
153.2887521009
 40
0.15
 50
149.2118097615
 51
180.0
  0
ARC
  8
0
 62
7
  6
CONTINUOUS
 10
108.8235028902
 20
140.0002700396
 40
0.75
 50
180.0
 51
270.0
  0
ARC
  8
0
 62
7
  6
CONTINUOUS
 10
113.3355028902
 20
140.0002700396
 40
0.75
 50
270.0
 51
360.0
  0
ARC
  8
0
 62
7
  6
CONTINUOUS
 10
122.3275028902
 20
140.0002700396
 40
0.75
 50
180.0
 51
270.0
  0
ARC
  8
0
 62
7
  6
CONTINUOUS
 10
126.8315028902
 20
140.0002700396
 40
0.75
 50
270.0
 51
360.0
  0
ARC
  8
0
 62
7
  6
CONTINUOUS
 10
135.0315028902
 20
140.0002700396
 40
0.75
 50
180.0
 51
270.0
  0
ARC
  8
0
 62
7
  6
CONTINUOUS
 10
139.5315028902
 20
140.0002700396
 40
0.75
 50
270.0
 51
360.0
  0
ARC
  8
0
 62
7
  6
CONTINUOUS
 10
140.1315028902
 20
144.2518075649
 40
0.15
 50
0.0
 51
14.2
  0
ARC
  8
0
 62
7
  6
CONTINUOUS
 10
127.4315028902
 20
144.2518075649
 40
0.15
 50
0.0
 51
14.2
  0
ARC
  8
0
 62
7
  6
CONTINUOUS
 10
134.4315030389
 20
144.2518081528
 40
0.15
 50
165.8002316402
 51
180.0002245578
  0
ARC
  8
0
 62
7
  6
CONTINUOUS
 10
121.7275028902
 20
144.2518075649
 40
0.15
 50
165.8
 51
180.0
  0
ARC
  8
0
 62
7
  6
CONTINUOUS
 10
113.9355024978
 20
144.2518091155
 40
0.15
 50
359.9994077259
 51
14.1993890514
  0
ARC
  8
0
 62
7
  6
CONTINUOUS
 10
108.2235028902
 20
144.2518075649
 40
0.15
 50
165.8
 51
180.0
  0
ARC
  8
0
 62
7
  6
CONTINUOUS
 10
130.9315028902
 20
151.4962700396
 40
4.104
 50
0.0
 51
180.0
  0
ARC
  8
0
 62
7
  6
CONTINUOUS
 10
118.4815028902
 20
151.9502700396
 40
3.85
 50
0.0
 51
90.0
  0
ARC
  8
0
 62
7
  6
CONTINUOUS
 10
117.1815028902
 20
151.9502700396
 40
3.85
 50
90.0
 51
180.0
  0
ARC
  8
0
 62
7
  6
CONTINUOUS
 10
104.9775028902
 20
151.9502700396
 40
3.85
 50
0.0
 51
90.0
  0
ARC
  8
0
 62
7
  6
CONTINUOUS
 10
103.1775028902
 20
151.9502700396
 40
3.85
 50
90.0
 51
180.0
  0
ARC
  8
0
 62
7
  6
CONTINUOUS
 10
134.5355028902
 20
147.3125483318
 40
0.5
 50
345.8
 51
360.0
  0
ARC
  8
0
 62
7
  6
CONTINUOUS
 10
127.3275028902
 20
147.3125483318
 40
0.5
 50
180.0
 51
194.2
  0
ARC
  8
0
 62
7
  6
CONTINUOUS
 10
140.0275028902
 20
147.3125483318
 40
0.5
 50
180.0
 51
194.2
  0
ARC
  8
0
 62
7
  6
CONTINUOUS
 10
121.8315028902
 20
147.3125483318
 40
0.5
 50
345.8
 51
360.0
  0
ARC
  8
0
 62
7
  6
CONTINUOUS
 10
113.8315028902
 20
147.3125483318
 40
0.5
 50
180.0
 51
194.2
  0
ARC
  8
0
 62
7
  6
CONTINUOUS
 10
108.3275028902
 20
147.3125483318
 40
0.5
 50
345.8
 51
360.0
  0
ARC
  8
AXES
 62
7
  6
CONTINUOUS
 10
65.7065028902
 20
161.9994604989
 40
6.0
 50
354.9479277497
 51
355.7736640507
  0
ARC
  8
0
 62
7
  6
CONTINUOUS
 10
65.7065028902
 20
161.9994604989
 40
6.0
 50
290.8827834637
 51
360.0
  0
ARC
  8
0
 62
7
  6
CONTINUOUS
 10
80.2065028902
 20
160.6002700396
 40
4.0
 50
180.0
 51
270.0
  0
ARC
  8
0
 62
7
  6
CONTINUOUS
 10
94.8275028902
 20
159.7502700396
 40
3.0
 50
180.0
 51
270.0
  0
ARC
  8
0
 62
7
  6
CONTINUOUS
 10
99.1275028902
 20
159.4502700396
 40
2.7
 50
270.0
 51
360.0
  0
ARC
  8
0
 62
7
  6
CONTINUOUS
 10
84.6275028902
 20
159.3002700396
 40
2.7
 50
270.0
 51
360.0
  0
ARC
  8
0
 62
7
  6
CONTINUOUS
 10
71.2065028902
 20
165.2809917474
 40
0.5
 50
0.0
 51
14.2
  0
ARC
  8
0
 62
7
  6
CONTINUOUS
 10
76.7065028902
 20
165.2809917474
 40
0.5
 50
165.8
 51
180.0
  0
ARC
  8
0
 62
7
  6
CONTINUOUS
 10
101.3275028902
 20
165.2809917474
 40
0.5
 50
0.0
 51
14.2
  0
ARC
  8
AXES
 62
7
  6
CONTINUOUS
 10
92.3275028902
 20
165.2809917474
 40
0.5
 50
165.8
 51
180.0
  0
ARC
  8
0
 62
7
  6
CONTINUOUS
 10
92.3275028902
 20
165.2809917474
 40
0.5
 50
165.8
 51
180.0
  0
ARC
  8
0
 62
7
  6
CONTINUOUS
 10
86.8275028902
 20
165.2809917474
 40
0.5
 50
0.0
 51
14.2
  0
ARC
  8
0
 62
7
  6
CONTINUOUS
 10
73.4565028902
 20
168.8502700396
 40
4.5
 50
90.0
 51
120.0
  0
ARC
  8
0
 62
7
  6
CONTINUOUS
 10
74.4565028902
 20
168.8502700396
 40
4.5
 50
60.0
 51
90.0
  0
ARC
  8
0
 62
7
  6
CONTINUOUS
 10
90.0775028902
 20
168.8502700396
 40
4.5
 50
59.9873227195
 51
90.0
  0
ARC
  8
0
 62
7
  6
CONTINUOUS
 10
89.0775028902
 20
168.8502700396
 40
4.5
 50
90.0
 51
120.0126772805
  0
ARC
  8
AXES
 62
7
  6
CONTINUOUS
 10
86.7775028902
 20
169.0202700396
 40
1.5
 50
102.273924561
 51
265.8739291194
  0
ARC
  8
AXES
 62
7
  6
CONTINUOUS
 10
92.3775028902
 20
169.0202700396
 40
1.5
 50
274.1260708806
 51
77.726075439
  0
ARC
  8
0
 62
7
  6
CONTINUOUS
 10
76.4565032148
 20
172.3143715196
 40
0.5000000057
 50
0.0000154951
 51
60.0000399659
  0
ARC
  8
0
 62
7
  6
CONTINUOUS
 10
92.0782696321
 20
172.3139289149
 40
0.5000000056
 50
0.0000154096
 51
59.9873624553
  0
ARC
  8
0
 62
7
  6
CONTINUOUS
 10
71.4565028902
 20
172.3143716548
 40
0.5
 50
120.0
 51
180.0
  0
ARC
  8
0
 62
7
  6
CONTINUOUS
 10
87.076736471
 20
172.3139290494
 40
0.5
 50
120.0126772805
 51
180.0
  0
ARC
  8
0
 62
7
  6
CONTINUOUS
 10
101.576736471
 20
172.3139290494
 40
0.5
 50
120.0126772805
 51
180.0
  0
ARC
  8
AXES
 62
7
  6
CONTINUOUS
 10
86.6587832532
 20
167.3745465976
 40
0.15
 50
14.2
 51
85.8739291194
  0
ARC
  8
AXES
 62
7
  6
CONTINUOUS
 10
92.4962225271
 20
167.3745465976
 40
0.15
 50
94.1260708806
 51
165.8
  0
ARC
  8
0
 62
7
  6
CONTINUOUS
 10
92.4282693093
 20
168.3289535273
 40
0.15
 50
345.8
 51
360.0
  0
ARC
  8
0
 62
7
  6
CONTINUOUS
 10
101.2267368634
 20
168.3289519767
 40
0.15
 50
179.9994077259
 51
194.1993890514
  0
ARC
  8
AXES
 62
7
  6
CONTINUOUS
 10
101.226736471
 20
168.3289535273
 40
0.15
 50
180.0
 51
194.2
  0
ARC
  8
AXES
 62
7
  6
CONTINUOUS
 10
92.7282693093
 20
170.632555039
 40
0.15
 50
180.0
 51
257.726075439
  0
ARC
  8
AXES
 62
7
  6
CONTINUOUS
 10
71.1065028902
 20
168.3259246683
 40
0.15
 50
180.0
 51
194.2
  0
ARC
  8
0
 62
7
  6
CONTINUOUS
 10
71.1065028902
 20
168.3259246683
 40
0.15
 50
180.0
 51
194.2
  0
ARC
  8
AXES
 62
7
  6
CONTINUOUS
 10
86.426736471
 20
170.632555039
 40
0.15
 50
282.273924561
 51
360.0
  0
ARC
  8
AXES
 62
7
  6
CONTINUOUS
 10
76.8065028902
 20
168.3259246683
 40
0.15
 50
345.8
 51
360.0
  0
ARC
  8
0
 62
7
  6
CONTINUOUS
 10
76.8065025575
 20
168.3259233535
 40
0.15
 50
345.8005180599
 51
0.0005022201
  0
ARC
  8
0
 62
7
  6
CONTINUOUS
 10
86.726736471
 20
168.3289535273
 40
0.15
 50
180.0
 51
194.2
  0
ARC
  8
0
 62
7
  6
CONTINUOUS
 10
122.7815028902
 20
159.7842700396
 40
2.7
 50
180.0
 51
270.0
  0
ARC
  8
0
 62
7
  6
CONTINUOUS
 10
109.0275028902
 20
159.4502700396
 40
2.7
 50
180.0
 51
270.0
  0
ARC
  8
0
 62
7
  6
CONTINUOUS
 10
135.1815028902
 20
159.0842700396
 40
2.0
 50
180.0
 51
270.0
  0
ARC
  8
0
 62
7
  6
CONTINUOUS
 10
126.6815028902
 20
159.0842700396
 40
2.0
 50
270.0
 51
360.0
  0
ARC
  8
0
 62
7
  6
CONTINUOUS
 10
139.3815028902
 20
159.0842700396
 40
2.0
 50
270.0
 51
360.0
  0
ARC
  8
0
 62
7
  6
CONTINUOUS
 10
113.5815028902
 20
158.7502700396
 40
2.0
 50
270.0
 51
360.0
  0
ARC
  8
0
 62
7
  6
CONTINUOUS
 10
133.6815028902
 20
165.2809349848
 40
0.5
 50
165.8
 51
180.0
  0
ARC
  8
0
 62
7
  6
CONTINUOUS
 10
128.1815028902
 20
165.2809349848
 40
0.5
 50
0.0
 51
14.2
  0
ARC
  8
AXES
 62
7
  6
CONTINUOUS
 10
128.1815028902
 20
165.2809349848
 40
0.5
 50
0.0
 51
14.2
  0
ARC
  8
0
 62
7
  6
CONTINUOUS
 10
140.8815028902
 20
165.2809349848
 40
0.5
 50
0.0
 51
14.2
  0
ARC
  8
AXES
 62
7
  6
CONTINUOUS
 10
140.8815028902
 20
165.2809349848
 40
0.5
 50
0.0
 51
14.2
  0
ARC
  8
0
 62
7
  6
CONTINUOUS
 10
120.5815028902
 20
165.2809917474
 40
0.5
 50
165.8
 51
180.0
  0
ARC
  8
0
 62
7
  6
CONTINUOUS
 10
115.0815028902
 20
165.2809917474
 40
0.5
 50
0.0
 51
14.2
  0
ARC
  8
0
 62
7
  6
CONTINUOUS
 10
106.8275028902
 20
165.2809917474
 40
0.5
 50
165.8
 51
180.0
  0
ARC
  8
0
 62
7
  6
CONTINUOUS
 10
117.3315028902
 20
168.8102700396
 40
4.54
 50
90.0
 51
119.6855255266
  0
ARC
  8
0
 62
7
  6
CONTINUOUS
 10
118.3315028902
 20
168.8102700396
 40
4.54
 50
60.3144744734
 51
90.0
  0
ARC
  8
0
 62
7
  6
CONTINUOUS
 10
103.5775028902
 20
168.8502700396
 40
4.5
 50
90.0
 51
120.0126772805
  0
ARC
  8
0
 62
7
  6
CONTINUOUS
 10
104.5775028902
 20
168.8502700396
 40
4.5
 50
59.9873227195
 51
90.0
  0
ARC
  8
AXES
 62
7
  6
CONTINUOUS
 10
120.6822693093
 20
168.3289535273
 40
0.15
 50
345.8
 51
360.0
  0
ARC
  8
0
 62
7
  6
CONTINUOUS
 10
120.6822689766
 20
168.3289522125
 40
0.15
 50
345.8005180599
 51
0.0005022201
  0
ARC
  8
AXES
 62
7
  6
CONTINUOUS
 10
114.980736471
 20
168.3289535273
 40
0.15
 50
180.0
 51
194.2
  0
ARC
  8
0
 62
7
  6
CONTINUOUS
 10
114.980736471
 20
168.3289535273
 40
0.15
 50
180.0
 51
194.2
  0
ARC
  8
AXES
 62
7
  6
CONTINUOUS
 10
106.9282693093
 20
168.3289535273
 40
0.15
 50
345.8
 51
360.0
  0
ARC
  8
0
 62
7
  6
CONTINUOUS
 10
106.9282689766
 20
168.3289522125
 40
0.15
 50
345.8005180599
 51
0.0005022201
  0
ARC
  8
0
 62
7
  6
CONTINUOUS
 10
106.5782696321
 20
172.3139289149
 40
0.5000000056
 50
0.0000154096
 51
59.9873624553
  0
ARC
  8
0
 62
7
  6
CONTINUOUS
 10
120.3322696269
 20
172.3200467849
 40
0.5000000052
 50
0.0000152523
 51
60.3145136397
  0
ARC
  8
0
 62
7
  6
CONTINUOUS
 10
115.330736471
 20
172.320046918
 40
0.5
 50
119.6855255266
 51
180.0
  0
ARC
  8
0
 62
7
  6
CONTINUOUS
 10
130.9315028902
 20
169.3502700396
 40
4.0
 50
44.4153085972
 51
135.5846914028
  0
ARC
  8
AXES
 62
7
  6
CONTINUOUS
 10
140.7815028902
 20
168.3258679056
 40
0.15
 50
180.0000000001
 51
194.2
  0
ARC
  8
0
 62
7
  6
CONTINUOUS
 10
140.7815028902
 20
168.3258679056
 40
0.15
 50
180.0
 51
194.2
  0
ARC
  8
AXES
 62
7
  6
CONTINUOUS
 10
133.7815028902
 20
168.3258679056
 40
0.15
 50
345.8
 51
360.0
  0
ARC
  8
0
 62
7
  6
CONTINUOUS
 10
133.7815025575
 20
168.3258665908
 40
0.15
 50
345.8005180599
 51
0.0005022201
  0
ARC
  8
AXES
 62
7
  6
CONTINUOUS
 10
128.0815028902
 20
168.3258679056
 40
0.15
 50
180.0
 51
194.2
  0
ARC
  8
0
 62
7
  6
CONTINUOUS
 10
128.0815028902
 20
168.3258679056
 40
0.15
 50
180.0
 51
194.2
  0
ARC
  8
0
 62
7
  6
CONTINUOUS
 10
133.4315026827
 20
171.7997600806
 40
0.5000000087
 50
359.9999658252
 51
44.4152675513
  0
ARC
  8
0
 62
7
  6
CONTINUOUS
 10
128.4315028902
 20
171.7997597824
 40
0.5
 50
135.5846914028
 51
180.0
  0
ARC
  8
0
 62
7
  6
CONTINUOUS
 10
141.1315028902
 20
171.7997597824
 40
0.5
 50
135.5846914028
 51
180.0
  0
ARC
  8
0
 62
7
  6
CONTINUOUS
 10
164.9355028902
 20
140.0002700396
 40
0.75
 50
270.0
 51
360.0
  0
ARC
  8
0
 62
7
  6
CONTINUOUS
 10
147.7315028902
 20
140.0002700396
 40
0.75
 50
180.0
 51
270.0
  0
ARC
  8
0
 62
7
  6
CONTINUOUS
 10
152.2315028902
 20
140.0002700396
 40
0.75
 50
270.0
 51
360.0
  0
ARC
  8
0
 62
7
  6
CONTINUOUS
 10
160.4315028902
 20
140.0002700396
 40
0.75
 50
180.0
 51
270.0
  0
ARC
  8
0
 62
7
  6
CONTINUOUS
 10
173.9275028902
 20
140.0002700396
 40
0.75
 50
180.0
 51
270.0
  0
ARC
  8
0
 62
7
  6
CONTINUOUS
 10
178.4395028902
 20
140.0002700396
 40
0.75
 50
270.0
 51
360.0
  0
ARC
  8
0
 62
7
  6
CONTINUOUS
 10
152.8315028902
 20
144.2518075649
 40
0.15
 50
0.0
 51
14.2
  0
ARC
  8
0
 62
7
  6
CONTINUOUS
 10
159.8315030389
 20
144.2518081528
 40
0.15
 50
165.8002316402
 51
180.0002245578
  0
ARC
  8
0
 62
7
  6
CONTINUOUS
 10
147.1315030389
 20
144.2518081528
 40
0.15
 50
165.8002316402
 51
180.0002245578
  0
ARC
  8
0
 62
7
  6
CONTINUOUS
 10
173.3275028902
 20
144.2518075649
 40
0.15
 50
165.8
 51
180.0
  0
ARC
  8
0
 62
7
  6
CONTINUOUS
 10
165.5355024978
 20
144.2518091155
 40
0.15
 50
359.9994077259
 51
14.1993890514
  0
ARC
  8
0
 62
7
  6
CONTINUOUS
 10
179.0395024978
 20
144.2518091155
 40
0.15
 50
359.9994077259
 51
14.1993890514
  0
ARC
  8
0
 62
7
  6
CONTINUOUS
 10
143.6315028902
 20
151.4962700396
 40
4.104
 50
0.0
 51
180.0
  0
ARC
  8
0
 62
7
  6
CONTINUOUS
 10
156.3315028902
 20
151.4962700396
 40
4.104
 50
0.0
 51
180.0
  0
ARC
  8
0
 62
7
  6
CONTINUOUS
 10
170.0815028902
 20
151.9502700396
 40
3.85
 50
0.0
 51
90.0
  0
ARC
  8
0
 62
7
  6
CONTINUOUS
 10
168.7815028902
 20
151.9502700396
 40
3.85
 50
90.0
 51
180.0
  0
ARC
  8
0
 62
7
  6
CONTINUOUS
 10
182.2855028902
 20
151.9502700396
 40
3.85
 50
90.0
 51
180.0
  0
ARC
  8
0
 62
7
  6
CONTINUOUS
 10
147.2355028902
 20
147.3125483318
 40
0.5
 50
345.8
 51
360.0
  0
ARC
  8
0
 62
7
  6
CONTINUOUS
 10
159.9355028902
 20
147.3125483318
 40
0.5
 50
345.8
 51
360.0
  0
ARC
  8
0
 62
7
  6
CONTINUOUS
 10
152.7275028902
 20
147.3125483318
 40
0.5
 50
180.0
 51
194.2
  0
ARC
  8
0
 62
7
  6
CONTINUOUS
 10
173.4315028902
 20
147.3125483318
 40
0.5
 50
345.8
 51
360.0
  0
ARC
  8
0
 62
7
  6
CONTINUOUS
 10
165.4315028902
 20
147.3125483318
 40
0.5
 50
180.0
 51
194.2
  0
ARC
  8
0
 62
7
  6
CONTINUOUS
 10
178.9355028902
 20
147.3125483318
 40
0.5
 50
180.0
 51
194.2
  0
ARC
  8
0
 62
7
  6
CONTINUOUS
 10
221.1815028902
 20
141.3070481156
 40
2.5
 50
250.3573447097
 51
0.0006155855
  0
ARC
  8
0
 62
7
  6
CONTINUOUS
 10
187.9315028902
 20
140.0002700396
 40
0.75
 50
180.0
 51
270.0
  0
ARC
  8
0
 62
7
  6
CONTINUOUS
 10
192.4395028902
 20
140.0002700396
 40
0.75
 50
270.0
 51
360.0
  0
ARC
  8
0
 62
7
  6
CONTINUOUS
 10
202.9315028902
 20
140.0002700396
 40
0.75
 50
180.0
 51
270.0
  0
ARC
  8
0
 62
7
  6
CONTINUOUS
 10
207.4355028902
 20
140.0002700396
 40
0.75
 50
270.0
 51
360.0
  0
ARC
  8
0
 62
7
  6
CONTINUOUS
 10
187.3315028902
 20
144.2518075649
 40
0.15
 50
165.8
 51
180.0
  0
ARC
  8
0
 62
7
  6
CONTINUOUS
 10
202.3315028902
 20
144.2518075649
 40
0.15
 50
165.8
 51
180.0
  0
ARC
  8
0
 62
7
  6
CONTINUOUS
 10
193.0395024978
 20
144.2518091155
 40
0.15
 50
359.9994077259
 51
14.1993890514
  0
ARC
  8
0
 62
7
  6
CONTINUOUS
 10
218.5775028902
 20
139.7412736473
 40
0.15
 50
180.0
 51
250.3573447097
  0
ARC
  8
0
 62
7
  6
CONTINUOUS
 10
208.0355028902
 20
144.2515878953
 40
0.15
 50
0.0
 51
14.1989894451
  0
ARC
  8
0
 62
7
  6
CONTINUOUS
 10
213.6815028902
 20
150.5502700396
 40
5.5
 50
30.7881902385
 51
90.0
  0
ARC
  8
0
 62
7
  6
CONTINUOUS
 10
211.9315028902
 20
151.5502700396
 40
4.5
 50
90.0
 51
180.0
  0
ARC
  8
0
 62
7
  6
CONTINUOUS
 10
198.4355028902
 20
151.4502700396
 40
4.5
 50
0.0
 51
90.0
  0
ARC
  8
0
 62
7
  6
CONTINUOUS
 10
196.9355028902
 20
151.4502700396
 40
4.5
 50
90.0
 51
180.0
  0
ARC
  8
0
 62
7
  6
CONTINUOUS
 10
184.0855028902
 20
151.9502700396
 40
3.85
 50
0.0
 51
90.0
  0
ARC
  8
0
 62
7
  6
CONTINUOUS
 10
220.6815028902
 20
152.75567481
 40
3.0
 50
0.0
 51
70.3573447097
  0
ARC
  8
0
 62
7
  6
CONTINUOUS
 10
187.4355028902
 20
147.3125483318
 40
0.5
 50
345.8
 51
360.0
  0
ARC
  8
0
 62
7
  6
CONTINUOUS
 10
207.9315028902
 20
147.312543854
 40
0.5
 50
180.0
 51
194.1989894451
  0
ARC
  8
0
 62
7
  6
CONTINUOUS
 10
202.4355028902
 20
147.3125483318
 40
0.5
 50
345.8
 51
360.0
  0
ARC
  8
0
 62
7
  6
CONTINUOUS
 10
192.9355028902
 20
147.3125483318
 40
0.5
 50
180.0
 51
194.2
  0
ARC
  8
0
 62
7
  6
CONTINUOUS
 10
218.2775028902
 20
153.2887521009
 40
0.15
 50
0.0
 51
30.7881902385
  0
ARC
  8
0
 62
7
  6
CONTINUOUS
 10
174.3815028902
 20
159.4502700396
 40
2.7
 50
180.0
 51
270.0
  0
ARC
  8
0
 62
7
  6
CONTINUOUS
 10
178.2355028902
 20
159.4502700396
 40
2.7
 50
270.0
 51
360.0
  0
ARC
  8
0
 62
7
  6
CONTINUOUS
 10
147.8815028902
 20
159.0842700396
 40
2.0
 50
180.0
 51
270.0
  0
ARC
  8
0
 62
7
  6
CONTINUOUS
 10
160.5815028902
 20
159.0842700396
 40
2.0
 50
180.0
 51
270.0
  0
ARC
  8
0
 62
7
  6
CONTINUOUS
 10
152.0815028902
 20
159.0842700396
 40
2.0
 50
270.0
 51
360.0
  0
ARC
  8
0
 62
7
  6
CONTINUOUS
 10
165.1815028902
 20
159.0842700396
 40
2.0
 50
270.0
 51
360.0
  0
ARC
  8
0
 62
7
  6
CONTINUOUS
 10
146.3815028902
 20
165.2809349848
 40
0.5
 50
165.8
 51
180.0
  0
ARC
  8
0
 62
7
  6
CONTINUOUS
 10
159.0815028902
 20
165.2809349848
 40
0.5
 50
165.8
 51
180.0
  0
ARC
  8
0
 62
7
  6
CONTINUOUS
 10
153.5815028902
 20
165.2809349848
 40
0.5
 50
0.0
 51
14.2
  0
ARC
  8
AXES
 62
7
  6
CONTINUOUS
 10
153.5815028902
 20
165.2809349848
 40
0.5
 50
0.0
 51
14.2
  0
ARC
  8
0
 62
7
  6
CONTINUOUS
 10
172.1815028902
 20
165.2809917474
 40
0.5
 50
165.8
 51
180.0
  0
ARC
  8
0
 62
7
  6
CONTINUOUS
 10
166.6815028902
 20
165.2809917474
 40
0.5
 50
0.0
 51
14.2
  0
ARC
  8
0
 62
7
  6
CONTINUOUS
 10
180.4355028902
 20
165.2809917474
 40
0.5
 50
0.0
 51
14.2
  0
ARC
  8
0
 62
7
  6
CONTINUOUS
 10
143.6315028902
 20
169.3502700396
 40
4.0
 50
44.4153085972
 51
135.5846914028
  0
ARC
  8
0
 62
7
  6
CONTINUOUS
 10
156.3315028902
 20
169.3502700396
 40
4.0
 50
44.4153085972
 51
135.5846914028
  0
ARC
  8
AXES
 62
7
  6
CONTINUOUS
 10
159.1815028902
 20
168.3258679056
 40
0.15
 50
345.8
 51
360.0
  0
ARC
  8
0
 62
7
  6
CONTINUOUS
 10
159.1815025575
 20
168.3258665908
 40
0.15
 50
345.8005180599
 51
0.0005022201
  0
ARC
  8
AXES
 62
7
  6
CONTINUOUS
 10
153.4815028902
 20
168.3258679056
 40
0.15
 50
180.0000000001
 51
194.2
  0
ARC
  8
0
 62
7
  6
CONTINUOUS
 10
153.4815028902
 20
168.3258679056
 40
0.15
 50
180.0
 51
194.2
  0
ARC
  8
AXES
 62
7
  6
CONTINUOUS
 10
146.4815028902
 20
168.3258679056
 40
0.15
 50
345.8
 51
360.0
  0
ARC
  8
0
 62
7
  6
CONTINUOUS
 10
146.4815025575
 20
168.3258665908
 40
0.15
 50
345.8005180599
 51
0.0005022201
  0
ARC
  8
0
 62
7
  6
CONTINUOUS
 10
146.1315026827
 20
171.7997600806
 40
0.5000000087
 50
359.9999658252
 51
44.4152675513
  0
ARC
  8
0
 62
7
  6
CONTINUOUS
 10
158.8315026827
 20
171.7997600806
 40
0.5000000087
 50
359.9999658252
 51
44.4152675513
  0
ARC
  8
0
 62
7
  6
CONTINUOUS
 10
153.8315028902
 20
171.7997597824
 40
0.5
 50
135.5846914028
 51
180.0
  0
ARC
  8
0
 62
7
  6
CONTINUOUS
 10
168.9315028902
 20
168.8102700396
 40
4.54
 50
90.0
 51
119.6855255266
  0
ARC
  8
0
 62
7
  6
CONTINUOUS
 10
169.9315028902
 20
168.8102700396
 40
4.54
 50
60.3144744734
 51
90.0
  0
ARC
  8
AXES
 62
7
  6
CONTINUOUS
 10
166.580736471
 20
168.3289535273
 40
0.15
 50
180.0
 51
194.2
  0
ARC
  8
0
 62
7
  6
CONTINUOUS
 10
166.580736471
 20
168.3289535273
 40
0.15
 50
180.0
 51
194.2
  0
ARC
  8
AXES
 62
7
  6
CONTINUOUS
 10
180.334736471
 20
168.3289535273
 40
0.15
 50
180.0
 51
194.2
  0
ARC
  8
0
 62
7
  6
CONTINUOUS
 10
180.334736471
 20
168.3289535273
 40
0.15
 50
180.0
 51
194.2
  0
ARC
  8
AXES
 62
7
  6
CONTINUOUS
 10
172.2822693093
 20
168.3289535273
 40
0.15
 50
345.8
 51
360.0
  0
ARC
  8
0
 62
7
  6
CONTINUOUS
 10
172.2822689766
 20
168.3289522125
 40
0.15
 50
345.8005180599
 51
0.0005022202
  0
ARC
  8
0
 62
7
  6
CONTINUOUS
 10
171.9322696269
 20
172.3200467849
 40
0.5000000052
 50
0.0000152523
 51
60.3145136397
  0
ARC
  8
0
 62
7
  6
CONTINUOUS
 10
166.930736471
 20
172.320046918
 40
0.5
 50
119.6855255266
 51
180.0
  0
ARC
  8
0
 62
7
  6
CONTINUOUS
 10
180.684736471
 20
172.3139290494
 40
0.5
 50
120.0126772805
 51
180.0
  0
ARC
  8
0
 62
7
  6
CONTINUOUS
 10
221.5565028902
 20
161.9994604989
 40
6.0
 50
180.0
 51
249.1172353264
  0
ARC
  8
0
 62
7
  6
CONTINUOUS
 10
207.0565028902
 20
160.6002700396
 40
4.0
 50
270.0
 51
360.0
  0
ARC
  8
0
 62
7
  6
CONTINUOUS
 10
202.9355028902
 20
159.6002700396
 40
3.0
 50
180.0
 51
270.0
  0
ARC
  8
0
 62
7
  6
CONTINUOUS
 10
188.1355028902
 20
159.4502700396
 40
2.7
 50
180.0
 51
270.0
  0
ARC
  8
0
 62
7
  6
CONTINUOUS
 10
192.7355028902
 20
159.4502700396
 40
2.7
 50
270.0
 51
360.0
  0
ARC
  8
0
 62
7
  6
CONTINUOUS
 10
185.9355028902
 20
165.2809917474
 40
0.5
 50
165.8
 51
180.0
  0
ARC
  8
AXES
 62
7
  6
CONTINUOUS
 10
210.5565028902
 20
165.2809917474
 40
0.5
 50
0.0
 51
14.2
  0
ARC
  8
0
 62
7
  6
CONTINUOUS
 10
210.5565028902
 20
165.2809917474
 40
0.5
 50
0.0
 51
14.2
  0
ARC
  8
0
 62
7
  6
CONTINUOUS
 10
216.0565028902
 20
165.2809917474
 40
0.5
 50
165.8
 51
180.0
  0
ARC
  8
0
 62
7
  6
CONTINUOUS
 10
200.4355028902
 20
165.2809917474
 40
0.5
 50
165.8
 51
180.0
  0
ARC
  8
0
 62
7
  6
CONTINUOUS
 10
194.9355028902
 20
165.2809917474
 40
0.5
 50
0.0
 51
14.2
  0
ARC
  8
0
 62
7
  6
CONTINUOUS
 10
182.6855028902
 20
168.8502700396
 40
4.5
 50
90.0
 51
120.0126772805
  0
ARC
  8
0
 62
7
  6
CONTINUOUS
 10
183.6855028902
 20
168.8502700396
 40
4.5
 50
59.9873227195
 51
90.0
  0
ARC
  8
0
 62
7
  6
CONTINUOUS
 10
197.1855028902
 20
168.8502700396
 40
4.5
 50
90.0
 51
120.0126772805
  0
ARC
  8
0
 62
7
  6
CONTINUOUS
 10
198.1855028902
 20
168.8502700396
 40
4.5
 50
59.9873227195
 51
90.0
  0
ARC
  8
AXES
 62
7
  6
CONTINUOUS
 10
194.8855028902
 20
169.0202700396
 40
1.5
 50
102.273924561
 51
265.8739291194
  0
ARC
  8
AXES
 62
7
  6
CONTINUOUS
 10
194.7667832532
 20
167.3745465976
 40
0.15
 50
14.2
 51
85.8739291194
  0
ARC
  8
AXES
 62
7
  6
CONTINUOUS
 10
186.0362693093
 20
168.3289535273
 40
0.15
 50
345.8
 51
360.0
  0
ARC
  8
0
 62
7
  6
CONTINUOUS
 10
186.0362689766
 20
168.3289522125
 40
0.15
 50
345.8005180599
 51
0.0005022202
  0
ARC
  8
0
 62
7
  6
CONTINUOUS
 10
194.834736471
 20
168.3289535273
 40
0.15
 50
180.0
 51
194.2
  0
ARC
  8
0
 62
7
  6
CONTINUOUS
 10
185.6862696321
 20
172.3139289149
 40
0.5000000056
 50
0.0000154096
 51
59.9873624553
  0
ARC
  8
0
 62
7
  6
CONTINUOUS
 10
195.184736471
 20
172.3139290494
 40
0.5
 50
120.0126772805
 51
180.0
  0
ARC
  8
AXES
 62
7
  6
CONTINUOUS
 10
194.534736471
 20
170.632555039
 40
0.15
 50
282.273924561
 51
360.0
  0
ARC
  8
0
 62
7
  6
CONTINUOUS
 10
213.8065028902
 20
168.8502700396
 40
4.5
 50
60.0
 51
90.0
  0
ARC
  8
0
 62
7
  6
CONTINUOUS
 10
212.8065028902
 20
168.8502700396
 40
4.5
 50
90.0
 51
120.0
  0
ARC
  8
AXES
 62
7
  6
CONTINUOUS
 10
200.4855028902
 20
169.0202700396
 40
1.5
 50
274.1260708806
 51
77.726075439
  0
ARC
  8
AXES
 62
7
  6
CONTINUOUS
 10
200.6042225271
 20
167.3745465976
 40
0.15
 50
94.1260708806
 51
165.8
  0
ARC
  8
0
 62
7
  6
CONTINUOUS
 10
200.5362693093
 20
168.3289535273
 40
0.15
 50
345.8
 51
360.0
  0
ARC
  8
0
 62
7
  6
CONTINUOUS
 10
210.4565032825
 20
168.3259231177
 40
0.15
 50
179.9994077259
 51
194.1993890514
  0
ARC
  8
AXES
 62
7
  6
CONTINUOUS
 10
210.4565028902
 20
168.3259246683
 40
0.15
 50
180.0
 51
194.2
  0
ARC
  8
AXES
 62
7
  6
CONTINUOUS
 10
216.1565028902
 20
168.3259246683
 40
0.15
 50
345.8
 51
360.0
  0
ARC
  8
0
 62
7
  6
CONTINUOUS
 10
216.1565025575
 20
168.3259233535
 40
0.15
 50
345.8005180599
 51
0.0005022201
  0
ARC
  8
0
 62
7
  6
CONTINUOUS
 10
200.1862696321
 20
172.3139289149
 40
0.5000000056
 50
0.0000154096
 51
59.9873624553
  0
ARC
  8
0
 62
7
  6
CONTINUOUS
 10
215.8065032148
 20
172.3143715196
 40
0.5000000057
 50
0.0000154951
 51
60.0000399659
  0
ARC
  8
0
 62
7
  6
CONTINUOUS
 10
210.8065028902
 20
172.3143716548
 40
0.5
 50
120.0
 51
180.0
  0
ARC
  8
AXES
 62
7
  6
CONTINUOUS
 10
200.8362693093
 20
170.632555039
 40
0.15
 50
180.0
 51
257.726075439
  0
ARC
  8
0
 62
7
  6
CONTINUOUS
 10
322.5012473014
 20
218.3992052023
 40
4.0
 50
180.0
 51
270.0006004835
  0
ARC
  8
AXES
 62
7
  6
CONTINUOUS
 10
322.8512473014
 20
220.3992052023
 40
2.1
 50
90.0
 51
270.0
  0
ARC
  8
0
 62
7
  6
CONTINUOUS
 10
322.5012473014
 20
222.3992052023
 40
4.0
 50
90.0
 51
180.0
  0
ARC
  8
AXES
 62
7
  6
CONTINUOUS
 10
330.9012473014
 20
220.3992052023
 40
2.1
 50
270.0
 51
90.0
  0
ARC
  8
0
 62
7
  6
CONTINUOUS
 10
348.6012473014
 20
218.3992052023
 40
4.0
 50
270.0
 51
283.5360468866
  0
ARC
  8
0
 62
7
  6
CONTINUOUS
 10
348.6012473014
 20
222.3992052023
 40
4.0
 50
57.1822764697
 51
90.0
  0
CIRCLE
  8
0
 62
7
  6
CONTINUOUS
 10
348.2512473014
 20
220.3992052023
 40
2.75
  0
CIRCLE
  8
0
 62
7
  6
CONTINUOUS
 10
348.2512473014
 20
220.3992052023
 40
2.1
  0
ENDSEC
  0
EOF
