  0
SECTION
  2
HEADER
  9
$EXTMAX
 10
420.0
 20
297.0
 30
0.0
  9
$EXTMIN
 10
0.0
 20
0.0
 30
0.0
  9
$LIMMIN
 10
0.0
 20
0.0
  9
$LIMMAX
 10
420.0
 20
297.0
  9
$VIEWCTR
 10
210.0
 20
148.5
  9
$VIEWSIZE
 40
297.0
  9
$CLAYER
  8
0
  9
$LTSCALE
 40
23.1
  9
$CELTYPE
  6
BYLAYER
  9
$DIMSCALE
 40
1.0
  9
$DIMASZ
 40
3.5
  9
$DIMEXO
 40
1.0
  9
$DIMDLI
 40
15.96
  9
$DIMEXE
 40
2.0
  9
$DIMCEN
 40
3.78
  9
$DIMLFAC
 40
1.0
  9
$DIMBLK
  1
_FILLED
  9
$DIMTXT
 40
3.5
  9
$PDMODE
 70
3
  9
$PDSIZE
 40
0.3125
  9
$TILEMODE
 70
1
  0
ENDSEC
  0
SECTION
  2
TABLES
  0
TABLE
  2
LTYPE
 70
6
  0
LTYPE
  2
BYBLOCK
 70
0
  3

 72
65
 73
0
 40
0.0
  0
LTYPE
  2
BYLAYER
 70
0
  3

 72
65
 73
0
 40
0.0
  0
LTYPE
  2
CONTINUOUS
 70
64
  3
Solid line
 72
65
 73
0
 40
0.0
  0
LTYPE
  2
CENTER
 70
64
  3
____ _ ____ _ ____ _ ____ _ ____ _ ____ _ ____
 72
65
 73
4
 40
0.6
 49
0.375
 49
-0.075
 49
0.075
 49
-0.075
  0
LTYPE
  2
HIDDEN
 70
64
  3
- - - - - - - - - - - - - - - - - - - -
 72
65
 73
2
 40
0.2
 49
0.1
 49
-0.1
  0
LTYPE
  2
PHANTOM
 70
64
  3
_____ _ _ _____ _ _ _____ _ _ _____
 72
65
 73
6
 40
0.8
 49
0.45
 49
-0.05
 49
0.1
 49
-0.05
 49
0.1
 49
-0.05
  0
LTYPE
  2
DOT
 70
64
  3
. . . . . . . . . . . . . . . . . . . .
 72
65
 73
2
 40
0.2
 49
0.1
 49
-0.1
  0
LTYPE
  2
DASHED
 70
64
  3
- - - - - - - - - - - - - - - - - - - -
 72
65
 73
2
 40
0.2
 49
0.1
 49
-0.1
  0
ENDTAB
  0
TABLE
  2
LAYER
 70
36
  0
LAYER
  2
0
 70
0
 62
7
  6
CONTINUOUS
  0
LAYER
  2
DEFAULT_1
 70
0
 62
7
  6
CENTER
  0
LAYER
  2
DEFAULT_2
 70
0
 62
8
  6
HIDDEN
  0
LAYER
  2
DEFAULT_3
 70
0
 62
7
  6
PHANTOM
  0
LAYER
  2
AXES
 70
0
 62
7
  6
CONTINUOUS
  0
LAYER
  2
CSYS
 70
0
 62
7
  6
CONTINUOUS
  0
LAYER
  2
CURVE
 70
0
 62
7
  6
CONTINUOUS
  0
LAYER
  2
CURVES
 70
0
 62
7
  6
CONTINUOUS
  0
LAYER
  2
PLANES
 70
0
 62
7
  6
CONTINUOUS
  0
LAYER
  2
QUILT
 70
0
 62
7
  6
CONTINUOUS
  0
LAYER
  2
SURF-A
 70
0
 62
7
  6
CONTINUOUS
  0
LAYER
  2
SURFACE
 70
0
 62
7
  6
CONTINUOUS
  0
ENDTAB
  0
TABLE
  2
STYLE
 70
1
  0
STYLE
  2
STANDARD
 70
0
 40
0.0
 41
0.8
 50
0.0
 71
0
 42
0.2
  3
txt
  4

  0
STYLE
  2
TEXTSTYLE_1
 70
0
 40
0.0
 41
0.8
 50
0.0
 71
0
 42
0.2
  3
gdt
  4

  0
STYLE
  2
TEXTSTYLE_2
 70
0
 40
0.0
 41
0.6
 50
0.0
 71
0
 42
0.2
  3
txt
  4

  0
STYLE
  2
TEXTSTYLE_3
 70
0
 40
0.0
 41
1.0
 50
0.0
 71
0
 42
0.2
  3
ftb_____.ttf
  4

  0
STYLE
  2
TEXTSTYLE_4
 70
0
 40
0.0
 41
1.0
 50
0.0
 71
0
 42
0.2
  3
fti_____.ttf
  4

  0
STYLE
  2
TEXTSTYLE_5
 70
0
 40
0.0
 41
1.0
 50
0.0
 71
0
 42
0.2
  3
frutiger light.ttf
  4

  0
STYLE
  2
TEXTSTYLE_6
 70
0
 40
0.0
 41
0.7
 50
0.0
 71
0
 42
0.2
  3
txt
  4

  0
STYLE
  2
TEXTSTYLE_7
 70
0
 40
0.0
 41
0.32
 50
0.0
 71
0
 42
0.2
  3
txt
  4

  0
ENDTAB
  0
ENDSEC
  0
SECTION
  2
BLOCKS
  0
BLOCK
  8
0
 62
2
  6
CONTINUOUS
  2
SYMBOL_5_BL1
 70
64
 10
382.7840918555
 20
35.5067593403
  0
TEXT
  8
0
 62
7
  6
CONTINUOUS
 10
373.842376864
 20
30.5995157174
  7
TEXTSTYLE_4
 40
1.0655737705
  1
The brand for plastic modular belts and chains
 41
1.0
 72
0
  0
LINE
  8
0
 62
7
  6
CONTINUOUS
 10
358.7621602445
 20
36.0805298321
 11
358.7621602445
 21
33.9493822911
  0
LINE
  8
0
 62
7
  6
CONTINUOUS
 10
359.0512227376
 20
30.9584509954
 11
359.0512227376
 21
31.0552420547
  0
LINE
  8
0
 62
7
  6
CONTINUOUS
 10
358.7621602445
 20
31.0229783683
 11
358.8199727462
 21
30.8293962497
  0
LINE
  8
0
 62
7
  6
CONTINUOUS
 10
360.1556028675
 20
33.867415078
 11
360.1556028675
 21
36.0805298321
  0
LINE
  8
0
 62
7
  6
CONTINUOUS
 10
361.0746601894
 20
32.0231527829
 11
361.0746601894
 21
30.5067593403
  0
LINE
  8
0
 62
7
  6
CONTINUOUS
 10
361.3637227445
 20
30.5067593403
 11
361.3637227445
 21
31.2488242184
  0
LINE
  8
0
 62
7
  6
CONTINUOUS
 10
361.3637227445
 20
31.3778789641
 11
361.3637227445
 21
32.0231527829
  0
LINE
  8
0
 62
7
  6
CONTINUOUS
 10
358.8199727462
 20
31.216560532
 11
358.7621602445
 21
31.0229783683
  0
LINE
  8
0
 62
7
  6
CONTINUOUS
 10
359.1668477307
 20
30.7971325633
 11
359.0512227376
 21
30.9584509954
  0
LINE
  8
0
 62
7
  6
CONTINUOUS
 10
360.2652852997
 20
31.3133515913
 11
360.3230977445
 21
31.216560532
  0
LINE
  8
0
 62
7
  6
CONTINUOUS
 10
360.6121602997
 20
31.216560532
 11
360.5543476894
 21
31.3456152777
  0
LINE
  8
0
 62
7
  6
CONTINUOUS
 10
362.0408487691
 20
36.0805298321
 11
362.0408487691
 21
34.2772511436
  0
LINE
  8
0
 62
7
  6
CONTINUOUS
 10
362.0408487691
 20
32.9657757338
 11
362.0408487691
 21
32.3100380288
  0
LINE
  8
0
 62
7
  6
CONTINUOUS
 10
362.4043477445
 20
31.1520331591
 11
362.4043477445
 21
30.5067593403
  0
LINE
  8
0
 62
7
  6
CONTINUOUS
 10
362.6934101343
 20
30.5067593403
 11
362.6934101343
 21
31.1520331591
  0
LINE
  8
0
 62
7
  6
CONTINUOUS
 10
359.0512227376
 20
31.0552420547
 11
359.1090352445
 21
31.1842968456
  0
LINE
  8
0
 62
7
  6
CONTINUOUS
 10
358.8199727462
 20
30.8293962497
 11
358.9355977445
 21
30.7003414814
  0
LINE
  8
0
 62
7
  6
CONTINUOUS
 10
362.3465351343
 20
31.2810879048
 11
362.4043477445
 21
31.1520331591
  0
LINE
  8
0
 62
7
  6
CONTINUOUS
 10
363.1559103548
 20
30.7971325633
 11
363.2137226343
 21
30.668077795
  0
LINE
  8
0
 62
7
  6
CONTINUOUS
 10
362.6934101343
 20
31.1520331591
 11
362.6355978548
 21
31.3133515913
  0
LINE
  8
0
 62
7
  6
CONTINUOUS
 10
363.1559103548
 20
31.3456152777
 11
363.1559103548
 21
31.2810879048
  0
LINE
  8
0
 62
7
  6
CONTINUOUS
 10
363.1559103548
 20
30.8939236226
 11
363.1559103548
 21
30.7971325633
  0
LINE
  8
0
 62
7
  6
CONTINUOUS
 10
363.4342913921
 20
32.3100380288
 11
363.4342913921
 21
36.0805298321
  0
LINE
  8
0
 62
7
  6
CONTINUOUS
 10
363.4449727445
 20
30.7648688543
 11
363.4449727445
 21
30.8293962497
  0
LINE
  8
0
 62
7
  6
CONTINUOUS
 10
363.7621602445
 20
36.0805298321
 11
363.7621602445
 21
32.3100380288
  0
LINE
  8
0
 62
7
  6
CONTINUOUS
 10
360.5543476894
 20
30.7003414814
 11
360.6121602997
 21
30.8293962497
  0
LINE
  8
0
 62
7
  6
CONTINUOUS
 10
364.9480979651
 20
30.6035504109
 11
364.890285024
 21
30.7648688543
  0
LINE
  8
0
 62
7
  6
CONTINUOUS
 10
364.6012229651
 20
31.2810879048
 11
364.6012229651
 21
31.1842968456
  0
LINE
  8
0
 62
7
  6
CONTINUOUS
 10
364.6012229651
 20
31.0552420547
 11
364.6012229651
 21
30.8616599362
  0
LINE
  8
0
 62
7
  6
CONTINUOUS
 10
364.890285024
 20
30.7648688543
 11
364.890285024
 21
31.2810879048
  0
LINE
  8
0
 62
7
  6
CONTINUOUS
 10
365.1556028675
 20
32.3100380288
 11
365.1556028675
 21
34.1133167174
  0
LINE
  8
0
 62
7
  6
CONTINUOUS
 10
365.1556028675
 20
35.4247921272
 11
365.1556028675
 21
36.0805298321
  0
LINE
  8
0
 62
7
  6
CONTINUOUS
 10
365.4684104651
 20
32.0231527829
 11
365.4684104651
 21
31.8618343508
  0
LINE
  8
0
 62
7
  6
CONTINUOUS
 10
365.4684104651
 20
31.5391973962
 11
365.4684104651
 21
30.5067593403
  0
LINE
  8
0
 62
7
  6
CONTINUOUS
 10
365.757472524
 20
30.5067593403
 11
365.757472524
 21
31.5391973962
  0
LINE
  8
0
 62
7
  6
CONTINUOUS
 10
365.757472524
 20
31.8618343508
 11
365.757472524
 21
32.0231527829
  0
LINE
  8
0
 62
7
  6
CONTINUOUS
 10
360.3230977445
 20
30.8293962497
 11
360.2652852997
 21
30.7326051679
  0
LINE
  8
0
 62
7
  6
CONTINUOUS
 10
362.6355978548
 20
31.3133515913
 11
362.5777852445
 21
31.3778789641
  0
LINE
  8
0
 62
7
  6
CONTINUOUS
 10
363.5027853548
 20
30.7003414814
 11
363.4449727445
 21
30.7648688543
  0
LINE
  8
0
 62
7
  6
CONTINUOUS
 10
364.6590352445
 20
30.5712867188
 11
364.716847524
 21
30.5067593403
  0
LINE
  8
0
 62
7
  6
CONTINUOUS
 10
364.6012229651
 20
30.668077795
 11
364.6590352445
 21
30.5712867188
  0
LINE
  8
0
 62
7
  6
CONTINUOUS
 10
365.0059102445
 20
30.5067593403
 11
364.9480979651
 21
30.6035504109
  0
LINE
  8
0
 62
7
  6
CONTINUOUS
 10
364.890285024
 20
31.2810879048
 11
364.8324727445
 21
31.3778789641
  0
LINE
  8
0
 62
7
  6
CONTINUOUS
 10
366.2199727445
 20
31.5391973962
 11
366.2199727445
 21
30.5067593403
  0
LINE
  8
0
 62
7
  6
CONTINUOUS
 10
366.5090354651
 20
30.5067593403
 11
366.5090354651
 21
31.2488242184
  0
LINE
  8
0
 62
7
  6
CONTINUOUS
 10
366.5090354651
 20
31.3778789641
 11
366.5090354651
 21
31.5391973962
  0
LINE
  8
0
 62
7
  6
CONTINUOUS
 10
367.0408487691
 20
34.5231527829
 11
367.0408487691
 21
32.3100380288
  0
LINE
  8
0
 62
7
  6
CONTINUOUS
 10
358.9355977445
 20
31.3456152777
 11
358.8199727462
 21
31.216560532
  0
LINE
  8
0
 62
7
  6
CONTINUOUS
 10
359.1090352445
 20
31.1842968456
 11
359.1668477307
 21
31.2488242184
  0
LINE
  8
0
 62
7
  6
CONTINUOUS
 10
358.9355977445
 20
30.7003414814
 11
359.0512227376
 21
30.6358140973
  0
LINE
  8
0
 62
7
  6
CONTINUOUS
 10
359.3402852307
 20
30.7003414814
 11
359.1668477307
 21
30.7971325633
  0
LINE
  8
0
 62
7
  6
CONTINUOUS
 10
364.543410024
 20
31.3456152777
 11
364.6012229651
 21
31.2810879048
  0
LINE
  8
0
 62
7
  6
CONTINUOUS
 10
367.491847524
 20
31.2810879048
 11
367.5496604651
 21
31.1197694727
  0
LINE
  8
0
 62
7
  6
CONTINUOUS
 10
367.838722524
 20
31.1197694727
 11
367.7809102445
 21
31.2810879048
  0
LINE
  8
0
 62
7
  6
CONTINUOUS
 10
367.5496604651
 20
31.1197694727
 11
367.5496604651
 21
30.5067593403
  0
LINE
  8
0
 62
7
  6
CONTINUOUS
 10
367.838722524
 20
30.5067593403
 11
367.838722524
 21
31.1197694727
  0
LINE
  8
0
 62
7
  6
CONTINUOUS
 10
368.3012227445
 20
31.3456152777
 11
368.3012227445
 21
31.2810879048
  0
LINE
  8
0
 62
7
  6
CONTINUOUS
 10
368.4342913921
 20
32.3100380288
 11
368.4342913921
 21
34.4411855698
  0
LINE
  8
0
 62
7
  6
CONTINUOUS
 10
368.7621602445
 20
36.0805298321
 11
368.7621602445
 21
32.3100380288
  0
LINE
  8
0
 62
7
  6
CONTINUOUS
 10
363.4449727445
 20
30.8293962497
 11
363.5027853548
 21
30.926187309
  0
LINE
  8
0
 62
7
  6
CONTINUOUS
 10
359.0512227376
 20
30.6358140973
 11
359.2246602583
 21
30.5712867188
  0
LINE
  8
0
 62
7
  6
CONTINUOUS
 10
360.5543476894
 20
31.3456152777
 11
360.3809101894
 21
31.4424063369
  0
LINE
  8
0
 62
7
  6
CONTINUOUS
 10
363.2137226343
 20
30.668077795
 11
363.3871601343
 21
30.5712867188
  0
LINE
  8
0
 62
7
  6
CONTINUOUS
 10
362.2309102445
 20
31.3456152777
 11
362.3465351343
 21
31.2810879048
  0
LINE
  8
0
 62
7
  6
CONTINUOUS
 10
362.5777852445
 20
31.3778789641
 11
362.4621603548
 21
31.4424063369
  0
LINE
  8
0
 62
7
  6
CONTINUOUS
 10
368.3012227445
 20
30.7648688543
 11
368.4168479651
 21
30.6358140973
  0
LINE
  8
0
 62
7
  6
CONTINUOUS
 10
368.6480977445
 20
30.7003414814
 11
368.5902854651
 21
30.7648688543
  0
LINE
  8
0
 62
7
  6
CONTINUOUS
 10
368.3012227445
 20
31.2810879048
 11
368.4168479651
 21
31.1520331591
  0
LINE
  8
0
 62
7
  6
CONTINUOUS
 10
367.7809102445
 20
31.2810879048
 11
367.7230979651
 21
31.3778789641
  0
LINE
  8
0
 62
7
  6
CONTINUOUS
 10
370.1512223035
 20
30.7003414814
 11
370.1512223035
 21
30.7648688543
  0
LINE
  8
0
 62
7
  6
CONTINUOUS
 10
370.1556028675
 20
32.3100380288
 11
370.1556028675
 21
36.0805298321
  0
LINE
  8
0
 62
7
  6
CONTINUOUS
 10
363.2137226343
 20
31.4101426505
 11
363.1559103548
 21
31.3456152777
  0
LINE
  8
0
 62
7
  6
CONTINUOUS
 10
360.091847717
 20
31.3778789641
 11
360.2652852997
 21
31.3133515913
  0
LINE
  8
0
 62
7
  6
CONTINUOUS
 10
364.8324727445
 20
31.3778789641
 11
364.716847524
 21
31.4424063369
  0
LINE
  8
0
 62
7
  6
CONTINUOUS
 10
368.6480977445
 20
31.216560532
 11
368.5902854651
 21
31.2810879048
  0
LINE
  8
0
 62
7
  6
CONTINUOUS
 10
369.8043479651
 20
30.8293962497
 11
369.8621602445
 21
30.7648688543
  0
LINE
  8
0
 62
7
  6
CONTINUOUS
 10
370.1512223035
 20
30.7648688543
 11
370.0355977445
 21
30.8939236226
  0
LINE
  8
0
 62
7
  6
CONTINUOUS
 10
369.8043479651
 20
31.3456152777
 11
369.8621602445
 21
31.2810879048
  0
LINE
  8
0
 62
7
  6
CONTINUOUS
 10
370.1512223035
 20
31.2810879048
 11
370.0355977445
 21
31.4101426505
  0
LINE
  8
0
 62
7
  6
CONTINUOUS
 10
363.4449727445
 20
31.2810879048
 11
363.5027853548
 21
31.3456152777
  0
LINE
  8
0
 62
7
  6
CONTINUOUS
 10
363.2715352445
 20
31.0229783683
 11
363.1559103548
 21
30.8939236226
  0
LINE
  8
0
 62
7
  6
CONTINUOUS
 10
364.6012229651
 20
30.8616599362
 11
364.543410024
 21
30.7971325633
  0
LINE
  8
0
 62
7
  6
CONTINUOUS
 10
364.543410024
 20
30.6035504109
 11
364.6012229651
 21
30.668077795
  0
LINE
  8
0
 62
7
  6
CONTINUOUS
 10
363.3871601343
 20
30.5712867188
 11
363.5027853548
 21
30.5390230296
  0
LINE
  8
0
 62
7
  6
CONTINUOUS
 10
360.3809101894
 20
31.4424063369
 11
360.1496602445
 21
31.5069337098
  0
LINE
  8
0
 62
7
  6
CONTINUOUS
 10
363.7340351343
 20
30.6358140973
 11
363.5027853548
 21
30.7003414814
  0
LINE
  8
0
 62
7
  6
CONTINUOUS
 10
362.4621603548
 20
31.4424063369
 11
362.2887228548
 21
31.5069337098
  0
LINE
  8
0
 62
7
  6
CONTINUOUS
 10
364.716847524
 20
31.4424063369
 11
364.543410024
 21
31.5069337098
  0
LINE
  8
0
 62
7
  6
CONTINUOUS
 10
367.3762229651
 20
31.3456152777
 11
367.491847524
 21
31.2810879048
  0
LINE
  8
0
 62
7
  6
CONTINUOUS
 10
367.7230979651
 20
31.3778789641
 11
367.6074727445
 21
31.4424063369
  0
LINE
  8
0
 62
7
  6
CONTINUOUS
 10
359.2246602583
 20
30.5712867188
 11
359.3980977583
 21
30.5390230296
  0
LINE
  8
0
 62
7
  6
CONTINUOUS
 10
359.6871602721
 20
30.6358140973
 11
359.3402852307
 21
30.7003414814
  0
LINE
  8
0
 62
7
  6
CONTINUOUS
 10
362.1152853548
 20
31.3778789641
 11
362.2309102445
 21
31.3456152777
  0
LINE
  8
0
 62
7
  6
CONTINUOUS
 10
364.4277854651
 20
31.3778789641
 11
364.543410024
 21
31.3456152777
  0
LINE
  8
0
 62
7
  6
CONTINUOUS
 10
368.7637229651
 20
30.668077795
 11
368.6480977445
 21
30.7003414814
  0
LINE
  8
0
 62
7
  6
CONTINUOUS
 10
367.2605977445
 20
31.3778789641
 11
367.3762229651
 21
31.3456152777
  0
LINE
  8
0
 62
7
  6
CONTINUOUS
 10
368.4168479651
 20
30.6358140973
 11
368.5902854651
 21
30.5712867188
  0
LINE
  8
0
 62
7
  6
CONTINUOUS
 10
367.6074727445
 20
31.4424063369
 11
367.4340352445
 21
31.5069337098
  0
LINE
  8
0
 62
7
  6
CONTINUOUS
 10
368.8215352445
 20
31.1520331591
 11
368.6480977445
 21
31.216560532
  0
LINE
  8
0
 62
7
  6
CONTINUOUS
 10
369.6309104651
 20
30.8939236226
 11
369.8043479651
 21
30.8293962497
  0
LINE
  8
0
 62
7
  6
CONTINUOUS
 10
370.0355977445
 20
31.4101426505
 11
369.8621602445
 21
31.4746700234
  0
LINE
  8
0
 62
7
  6
CONTINUOUS
 10
368.4168479651
 20
31.1520331591
 11
368.6480977445
 21
31.0552420547
  0
LINE
  8
0
 62
7
  6
CONTINUOUS
 10
370.0355977445
 20
30.8939236226
 11
369.8043479651
 21
30.9907146818
  0
LINE
  8
0
 62
7
  6
CONTINUOUS
 10
368.5902854651
 20
31.2810879048
 11
368.6480977445
 21
31.3456152777
  0
LINE
  8
0
 62
7
  6
CONTINUOUS
 10
359.0512227376
 20
31.4101426505
 11
358.9355977445
 21
31.3456152777
  0
LINE
  8
0
 62
7
  6
CONTINUOUS
 10
359.1668477307
 20
31.2488242184
 11
359.3402852307
 21
31.3456152777
  0
LINE
  8
0
 62
7
  6
CONTINUOUS
 10
361.4793477997
 20
31.4424063369
 11
361.3637227445
 21
31.3778789641
  0
LINE
  8
0
 62
7
  6
CONTINUOUS
 10
361.3637227445
 20
31.2488242184
 11
361.4793477997
 21
31.3133515913
  0
LINE
  8
0
 62
7
  6
CONTINUOUS
 10
360.3809101894
 20
30.6035504109
 11
360.5543476894
 21
30.7003414814
  0
LINE
  8
0
 62
7
  6
CONTINUOUS
 10
359.3980977583
 20
30.5390230296
 11
359.744972717
 21
30.5067593403
  0
LINE
  8
0
 62
7
  6
CONTINUOUS
 10
363.5027853548
 20
30.5390230296
 11
363.7340351343
 21
30.5067593403
  0
LINE
  8
0
 62
7
  6
CONTINUOUS
 10
361.8840352445
 20
31.4101426505
 11
362.1152853548
 21
31.3778789641
  0
LINE
  8
0
 62
7
  6
CONTINUOUS
 10
364.1965353548
 20
31.4101426505
 11
364.4277854651
 21
31.3778789641
  0
LINE
  8
0
 62
7
  6
CONTINUOUS
 10
368.6480977445
 20
31.0552420547
 11
369.6309104651
 21
30.8939236226
  0
LINE
  8
0
 62
7
  6
CONTINUOUS
 10
369.8043479651
 20
30.9907146818
 11
368.8215352445
 21
31.1520331591
  0
LINE
  8
0
 62
7
  6
CONTINUOUS
 10
362.2887228548
 20
31.5069337098
 11
362.1152853548
 21
31.5391973962
  0
LINE
  8
0
 62
7
  6
CONTINUOUS
 10
368.5902854651
 20
30.5712867188
 11
368.7637229651
 21
30.5390230296
  0
LINE
  8
0
 62
7
  6
CONTINUOUS
 10
367.4340352445
 20
31.5069337098
 11
367.2605977445
 21
31.5391973962
  0
LINE
  8
0
 62
7
  6
CONTINUOUS
 10
369.6887227445
 20
31.3778789641
 11
369.8043479651
 21
31.3456152777
  0
LINE
  8
0
 62
7
  6
CONTINUOUS
 10
369.8621602445
 20
30.7648688543
 11
369.8043479651
 21
30.7003414814
  0
LINE
  8
0
 62
7
  6
CONTINUOUS
 10
368.4168479651
 20
31.4424063369
 11
368.3012227445
 21
31.3456152777
  0
LINE
  8
0
 62
7
  6
CONTINUOUS
 10
363.3293478548
 20
31.4746700234
 11
363.2137226343
 21
31.4101426505
  0
LINE
  8
0
 62
7
  6
CONTINUOUS
 10
363.3871601343
 20
31.0875057863
 11
363.2715352445
 21
31.0229783683
  0
LINE
  8
0
 62
7
  6
CONTINUOUS
 10
363.5027853548
 20
30.926187309
 11
363.6184102445
 21
30.9907146818
  0
LINE
  8
0
 62
7
  6
CONTINUOUS
 10
361.0746601894
 20
30.5067593403
 11
361.3637227445
 21
30.5067593403
  0
LINE
  8
0
 62
7
  6
CONTINUOUS
 10
362.4043477445
 20
30.5067593403
 11
362.6934101343
 21
30.5067593403
  0
LINE
  8
0
 62
7
  6
CONTINUOUS
 10
363.7340351343
 20
30.5067593403
 11
364.0809101343
 21
30.5067593403
  0
LINE
  8
0
 62
7
  6
CONTINUOUS
 10
364.716847524
 20
30.5067593403
 11
365.0059102445
 21
30.5067593403
  0
LINE
  8
0
 62
7
  6
CONTINUOUS
 10
365.4684104651
 20
30.5067593403
 11
365.757472524
 21
30.5067593403
  0
LINE
  8
0
 62
7
  6
CONTINUOUS
 10
366.2199727445
 20
30.5067593403
 11
366.5090354651
 21
30.5067593403
  0
LINE
  8
0
 62
7
  6
CONTINUOUS
 10
367.5496604651
 20
30.5067593403
 11
367.838722524
 21
30.5067593403
  0
LINE
  8
0
 62
7
  6
CONTINUOUS
 10
369.1105979651
 20
30.5067593403
 11
369.4574729651
 21
30.5067593403
  0
LINE
  8
0
 62
7
  6
CONTINUOUS
 10
369.4574729651
 20
30.6358140973
 11
369.1105979651
 21
30.6358140973
  0
LINE
  8
0
 62
7
  6
CONTINUOUS
 10
364.0809101343
 20
30.6358140973
 11
363.7340351343
 21
30.6358140973
  0
LINE
  8
0
 62
7
  6
CONTINUOUS
 10
368.5902854651
 20
30.7648688543
 11
368.3012227445
 21
30.7648688543
  0
LINE
  8
0
 62
7
  6
CONTINUOUS
 10
360.6121602997
 20
30.8293962497
 11
360.3230977445
 21
30.8293962497
  0
LINE
  8
0
 62
7
  6
CONTINUOUS
 10
359.6871602721
 20
31.4101426505
 11
360.091847717
 21
31.3778789641
  0
LINE
  8
0
 62
7
  6
CONTINUOUS
 10
360.1496602445
 20
31.5069337098
 11
359.744972717
 21
31.5391973962
  0
LINE
  8
0
 62
7
  6
CONTINUOUS
 10
368.7637229651
 20
30.5390230296
 11
369.1105979651
 21
30.5067593403
  0
LINE
  8
0
 62
7
  6
CONTINUOUS
 10
369.1105979651
 20
30.6358140973
 11
368.7637229651
 21
30.668077795
  0
LINE
  8
0
 62
7
  6
CONTINUOUS
 10
364.543410024
 20
31.5069337098
 11
364.1965353548
 21
31.5391973962
  0
LINE
  8
0
 62
7
  6
CONTINUOUS
 10
369.3418477445
 20
31.4101426505
 11
369.6887227445
 21
31.3778789641
  0
LINE
  8
0
 62
7
  6
CONTINUOUS
 10
369.6887227445
 20
31.5069337098
 11
369.3418477445
 21
31.5391973962
  0
LINE
  8
0
 62
7
  6
CONTINUOUS
 10
367.0293479651
 20
31.4101426505
 11
367.2605977445
 21
31.3778789641
  0
LINE
  8
0
 62
7
  6
CONTINUOUS
 10
369.8621602445
 20
31.4746700234
 11
369.6887227445
 21
31.5069337098
  0
LINE
  8
0
 62
7
  6
CONTINUOUS
 10
370.0355977445
 20
30.6035504109
 11
370.1512223035
 21
30.7003414814
  0
LINE
  8
0
 62
7
  6
CONTINUOUS
 10
364.543410024
 20
30.7971325633
 11
364.369972524
 21
30.7003414814
  0
LINE
  8
0
 62
7
  6
CONTINUOUS
 10
366.624660024
 20
31.4424063369
 11
366.5090354651
 21
31.3778789641
  0
LINE
  8
0
 62
7
  6
CONTINUOUS
 10
366.5090354651
 20
31.2488242184
 11
366.624660024
 21
31.3133515913
  0
LINE
  8
0
 62
7
  6
CONTINUOUS
 10
359.2246602583
 20
31.4746700234
 11
359.0512227376
 21
31.4101426505
  0
LINE
  8
0
 62
7
  6
CONTINUOUS
 10
361.6527851343
 20
31.5069337098
 11
361.4793477997
 21
31.4424063369
  0
LINE
  8
0
 62
7
  6
CONTINUOUS
 10
361.4793477997
 20
31.3133515913
 11
361.6527851343
 21
31.3778789641
  0
LINE
  8
0
 62
7
  6
CONTINUOUS
 10
360.2652852997
 20
30.7326051679
 11
360.091847717
 21
30.668077795
  0
LINE
  8
0
 62
7
  6
CONTINUOUS
 10
369.6887227445
 20
30.668077795
 11
369.4574729651
 21
30.6358140973
  0
LINE
  8
0
 62
7
  6
CONTINUOUS
 10
364.0809101343
 20
30.5067593403
 11
364.369972524
 21
30.5390230296
  0
LINE
  8
0
 62
7
  6
CONTINUOUS
 10
369.4574729651
 20
30.5067593403
 11
369.8043479651
 21
30.5390230296
  0
LINE
  8
0
 62
7
  6
CONTINUOUS
 10
359.744972717
 20
30.5067593403
 11
360.1496602445
 21
30.5390230296
  0
LINE
  8
0
 62
7
  6
CONTINUOUS
 10
360.091847717
 20
30.668077795
 11
359.6871602721
 21
30.6358140973
  0
LINE
  8
0
 62
7
  6
CONTINUOUS
 10
363.9652852445
 20
31.0552420547
 11
364.6012229651
 21
31.0552420547
  0
LINE
  8
0
 62
7
  6
CONTINUOUS
 10
364.6012229651
 20
31.1842968456
 11
363.9652852445
 21
31.1842968456
  0
LINE
  8
0
 62
7
  6
CONTINUOUS
 10
360.3230977445
 20
31.216560532
 11
360.6121602997
 21
31.216560532
  0
LINE
  8
0
 62
7
  6
CONTINUOUS
 10
363.1559103548
 20
31.2810879048
 11
363.4449727445
 21
31.2810879048
  0
LINE
  8
0
 62
7
  6
CONTINUOUS
 10
369.8621602445
 20
31.2810879048
 11
370.1512223035
 21
31.2810879048
  0
LINE
  8
0
 62
7
  6
CONTINUOUS
 10
363.8496603548
 20
31.4101426505
 11
364.1965353548
 21
31.4101426505
  0
LINE
  8
0
 62
7
  6
CONTINUOUS
 10
368.9949727445
 20
31.4101426505
 11
369.3418477445
 21
31.4101426505
  0
LINE
  8
0
 62
7
  6
CONTINUOUS
 10
369.3418477445
 20
31.5391973962
 11
368.9949727445
 21
31.5391973962
  0
LINE
  8
0
 62
7
  6
CONTINUOUS
 10
367.2605977445
 20
31.5391973962
 11
367.0293479651
 21
31.5391973962
  0
LINE
  8
0
 62
7
  6
CONTINUOUS
 10
366.5090354651
 20
31.5391973962
 11
366.2199727445
 21
31.5391973962
  0
LINE
  8
0
 62
7
  6
CONTINUOUS
 10
365.757472524
 20
31.5391973962
 11
365.4684104651
 21
31.5391973962
  0
LINE
  8
0
 62
7
  6
CONTINUOUS
 10
364.1965353548
 20
31.5391973962
 11
363.8496603548
 21
31.5391973962
  0
LINE
  8
0
 62
7
  6
CONTINUOUS
 10
362.1152853548
 20
31.5391973962
 11
361.8840352445
 21
31.5391973962
  0
LINE
  8
0
 62
7
  6
CONTINUOUS
 10
365.4684104651
 20
31.8618343508
 11
365.757472524
 21
31.8618343508
  0
LINE
  8
0
 62
7
  6
CONTINUOUS
 10
365.757472524
 20
32.0231527829
 11
365.4684104651
 21
32.0231527829
  0
LINE
  8
0
 62
7
  6
CONTINUOUS
 10
361.3637227445
 20
32.0231527829
 11
361.0746601894
 21
32.0231527829
  0
LINE
  8
0
 62
7
  6
CONTINUOUS
 10
360.4015045068
 20
32.3100380288
 11
360.8140758554
 21
32.3100380288
  0
LINE
  8
0
 62
7
  6
CONTINUOUS
 10
362.0408487691
 20
32.3100380288
 11
363.4342913921
 21
32.3100380288
  0
LINE
  8
0
 62
7
  6
CONTINUOUS
 10
363.7621602445
 20
32.3100380288
 11
365.1556028675
 21
32.3100380288
  0
LINE
  8
0
 62
7
  6
CONTINUOUS
 10
367.0408487691
 20
32.3100380288
 11
368.4342913921
 21
32.3100380288
  0
LINE
  8
0
 62
7
  6
CONTINUOUS
 10
368.7621602445
 20
32.3100380288
 11
370.1556028675
 21
32.3100380288
  0
LINE
  8
0
 62
7
  6
CONTINUOUS
 10
366.798097524
 20
31.5069337098
 11
366.624660024
 21
31.4424063369
  0
LINE
  8
0
 62
7
  6
CONTINUOUS
 10
364.369972524
 20
30.5390230296
 11
364.543410024
 21
30.6035504109
  0
LINE
  8
0
 62
7
  6
CONTINUOUS
 10
369.8043479651
 20
30.5390230296
 11
370.0355977445
 21
30.6035504109
  0
LINE
  8
0
 62
7
  6
CONTINUOUS
 10
369.8043479651
 20
30.7003414814
 11
369.6887227445
 21
30.668077795
  0
LINE
  8
0
 62
7
  6
CONTINUOUS
 10
368.7637229651
 20
31.3778789641
 11
368.9949727445
 21
31.4101426505
  0
LINE
  8
0
 62
7
  6
CONTINUOUS
 10
366.798097524
 20
31.3778789641
 11
367.0293479651
 21
31.4101426505
  0
LINE
  8
0
 62
7
  6
CONTINUOUS
 10
363.7340351343
 20
31.0229783683
 11
363.9652852445
 21
31.0552420547
  0
LINE
  8
0
 62
7
  6
CONTINUOUS
 10
367.0293479651
 20
31.5391973962
 11
366.798097524
 21
31.5069337098
  0
LINE
  8
0
 62
7
  6
CONTINUOUS
 10
363.6184102445
 20
31.3778789641
 11
363.8496603548
 21
31.4101426505
  0
LINE
  8
0
 62
7
  6
CONTINUOUS
 10
368.9949727445
 20
31.5391973962
 11
368.6480977445
 21
31.5069337098
  0
LINE
  8
0
 62
7
  6
CONTINUOUS
 10
363.9652852445
 20
31.1842968456
 11
363.6184102445
 21
31.1520331591
  0
LINE
  8
0
 62
7
  6
CONTINUOUS
 10
359.744972717
 20
31.5391973962
 11
359.3980977583
 21
31.5069337098
  0
LINE
  8
0
 62
7
  6
CONTINUOUS
 10
363.8496603548
 20
31.5391973962
 11
363.4449727445
 21
31.5069337098
  0
LINE
  8
0
 62
7
  6
CONTINUOUS
 10
361.221176638
 20
33.4575790124
 11
360.565438933
 21
33.4575790124
  0
LINE
  8
0
 62
7
  6
CONTINUOUS
 10
366.624660024
 20
31.3133515913
 11
366.798097524
 21
31.3778789641
  0
LINE
  8
0
 62
7
  6
CONTINUOUS
 10
368.6480977445
 20
31.3456152777
 11
368.7637229651
 21
31.3778789641
  0
LINE
  8
0
 62
7
  6
CONTINUOUS
 10
368.6480977445
 20
31.5069337098
 11
368.4168479651
 21
31.4424063369
  0
LINE
  8
0
 62
7
  6
CONTINUOUS
 10
364.369972524
 20
30.7003414814
 11
364.0809101343
 21
30.6358140973
  0
LINE
  8
0
 62
7
  6
CONTINUOUS
 10
361.6527851343
 20
31.3778789641
 11
361.8840352445
 21
31.4101426505
  0
LINE
  8
0
 62
7
  6
CONTINUOUS
 10
361.8840352445
 20
31.5391973962
 11
361.6527851343
 21
31.5069337098
  0
LINE
  8
0
 62
7
  6
CONTINUOUS
 10
359.4559102445
 20
31.3778789641
 11
359.6871602721
 21
31.4101426505
  0
LINE
  8
0
 62
7
  6
CONTINUOUS
 10
365.9752749986
 20
34.9329888485
 11
366.6310127035
 21
34.9329888485
  0
LINE
  8
0
 62
7
  6
CONTINUOUS
 10
363.6184102445
 20
30.9907146818
 11
363.7340351343
 21
31.0229783683
  0
LINE
  8
0
 62
7
  6
CONTINUOUS
 10
363.6184102445
 20
31.1520331591
 11
363.3871601343
 21
31.0875057863
  0
LINE
  8
0
 62
7
  6
CONTINUOUS
 10
363.5027853548
 20
31.3456152777
 11
363.6184102445
 21
31.3778789641
  0
LINE
  8
0
 62
7
  6
CONTINUOUS
 10
360.1496602445
 20
30.5390230296
 11
360.3809101894
 21
30.6035504109
  0
LINE
  8
0
 62
7
  6
CONTINUOUS
 10
363.4449727445
 20
31.5069337098
 11
363.3293478548
 21
31.4746700234
  0
LINE
  8
0
 62
7
  6
CONTINUOUS
 10
359.3980977583
 20
31.5069337098
 11
359.2246602583
 21
31.4746700234
  0
LINE
  8
0
 62
7
  6
CONTINUOUS
 10
370.1556028675
 20
36.0805298321
 11
368.7621602445
 21
36.0805298321
  0
LINE
  8
0
 62
7
  6
CONTINUOUS
 10
366.7949471298
 20
36.0805298321
 11
366.3823757812
 21
36.0805298321
  0
LINE
  8
0
 62
7
  6
CONTINUOUS
 10
365.1556028675
 20
36.0805298321
 11
363.7621602445
 21
36.0805298321
  0
LINE
  8
0
 62
7
  6
CONTINUOUS
 10
363.4342913921
 20
36.0805298321
 11
362.0408487691
 21
36.0805298321
  0
LINE
  8
0
 62
7
  6
CONTINUOUS
 10
360.1556028675
 20
36.0805298321
 11
358.7621602445
 21
36.0805298321
  0
LINE
  8
0
 62
7
  6
CONTINUOUS
 10
359.3402852307
 20
31.3456152777
 11
359.4559102445
 21
31.3778789641
  0
CIRCLE
  8
0
 62
7
  6
CONTINUOUS
 10
369.458881556
 20
38.4165954059
 40
2.0901639344
  0
ARC
  8
0
 62
7
  6
CONTINUOUS
 10
360.4015045068
 20
33.9493822911
 40
1.6393442623
 50
180.0
 51
270.0
  0
ARC
  8
0
 62
7
  6
CONTINUOUS
 10
366.7949471298
 20
34.4411855698
 40
1.6393442623
 50
0.0
 51
90.0
  0
ARC
  8
0
 62
7
  6
CONTINUOUS
 10
360.8140758554
 20
33.7854478649
 40
1.4754098361
 50
270.0
 51
326.2510114041
  0
ARC
  8
0
 62
7
  6
CONTINUOUS
 10
366.3823757812
 20
34.6051199961
 40
1.4754098361
 50
90.0
 51
146.2510114041
  0
ARC
  8
0
 62
7
  6
CONTINUOUS
 10
361.221176638
 20
34.2772511436
 40
0.8196721311
 50
270.0
 51
360.0
  0
ARC
  8
0
 62
7
  6
CONTINUOUS
 10
365.9752749986
 20
34.1133167174
 40
0.8196721311
 50
90.0
 51
180.0
  0
ARC
  8
0
 62
7
  6
CONTINUOUS
 10
360.565438933
 20
33.867415078
 40
0.4098360656
 50
180.0
 51
270.0
  0
ARC
  8
0
 62
7
  6
CONTINUOUS
 10
366.6310127035
 20
34.5231527829
 40
0.4098360656
 50
0.0
 51
90.0
  0
SOLID
  8
0
 62
7
  6
CONTINUOUS
 10
365.4684104651
 20
31.8618347111
 11
365.4684104651
 21
32.0231531947
 12
365.757472524
 22
31.8618347111
 13
365.757472524
 23
32.0231531947
  0
SOLID
  8
0
 62
7
  6
CONTINUOUS
 10
359.744972717
 20
31.5391977439
 11
360.1496602445
 21
31.5069333244
 12
359.3980977583
 22
31.5069333244
 13
359.3980977583
 23
31.5069333244
  0
SOLID
  8
0
 62
7
  6
CONTINUOUS
 10
359.2246602583
 20
31.4746706537
 11
359.3980977583
 21
31.5069333244
 12
360.1496602445
 22
31.5069333244
 13
360.1496602445
 23
31.5069333244
  0
SOLID
  8
0
 62
7
  6
CONTINUOUS
 10
360.1496602445
 20
31.5069333244
 11
360.3809101894
 21
31.4424063504
 12
359.2246602583
 22
31.4746706537
 13
359.2246602583
 23
31.4746706537
  0
SOLID
  8
0
 62
7
  6
CONTINUOUS
 10
359.0512227376
 20
31.4101419116
 11
359.2246602583
 21
31.4746706537
 12
360.3809101894
 22
31.4424063504
 13
360.3809101894
 23
31.4424063504
  0
SOLID
  8
0
 62
7
  6
CONTINUOUS
 10
359.0512227376
 20
31.4101419116
 11
360.3809101894
 21
31.4424063504
 12
359.6871602721
 22
31.4101419116
 13
359.6871602721
 23
31.4101419116
  0
SOLID
  8
0
 62
7
  6
CONTINUOUS
 10
359.6871602721
 20
31.4101419116
 11
360.3809101894
 21
31.4424063504
 12
360.091847717
 22
31.3778792603
 13
360.091847717
 23
31.3778792603
  0
SOLID
  8
0
 62
7
  6
CONTINUOUS
 10
360.3809101894
 20
31.4424063504
 11
360.5543476894
 21
31.345614957
 12
360.091847717
 22
31.3778792603
 13
360.091847717
 23
31.3778792603
  0
SOLID
  8
0
 62
7
  6
CONTINUOUS
 10
360.2652852997
 20
31.3133521701
 11
360.091847717
 21
31.3778792603
 12
360.5543476894
 22
31.345614957
 13
360.5543476894
 23
31.345614957
  0
SOLID
  8
0
 62
7
  6
CONTINUOUS
 10
360.2652852997
 20
31.3133521701
 11
360.5543476894
 21
31.345614957
 12
360.3230977445
 22
31.2165606992
 13
360.3230977445
 23
31.2165606992
  0
SOLID
  8
0
 62
7
  6
CONTINUOUS
 10
360.5543476894
 20
31.345614957
 11
360.6121602997
 21
31.2165606992
 12
360.3230977445
 22
31.2165606992
 13
360.3230977445
 23
31.2165606992
  0
SOLID
  8
0
 62
7
  6
CONTINUOUS
 10
361.6527851343
 20
31.5069329918
 11
361.8840352445
 21
31.5391972951
 12
362.1152853548
 22
31.5391972951
 13
362.1152853548
 23
31.5391972951
  0
SOLID
  8
0
 62
7
  6
CONTINUOUS
 10
362.1152853548
 20
31.5391972951
 11
362.2887228548
 21
31.5069329918
 12
361.6527851343
 22
31.5069329918
 13
361.6527851343
 23
31.5069329918
  0
SOLID
  8
0
 62
7
  6
CONTINUOUS
 10
361.4793477997
 20
31.4424059016
 11
361.6527851343
 21
31.5069329918
 12
362.2887228548
 22
31.5069329918
 13
362.2887228548
 23
31.5069329918
  0
SOLID
  8
0
 62
7
  6
CONTINUOUS
 10
362.2887228548
 20
31.5069329918
 11
362.4621603548
 21
31.4424059016
 12
361.4793477997
 22
31.4424059016
 13
361.4793477997
 23
31.4424059016
  0
SOLID
  8
0
 62
7
  6
CONTINUOUS
 10
362.4621603548
 20
31.4424059016
 11
361.8840352445
 21
31.4101420472
 12
361.4793477997
 22
31.4424059016
 13
361.4793477997
 23
31.4424059016
  0
SOLID
  8
0
 62
7
  6
CONTINUOUS
 10
361.3637227445
 20
31.3778788115
 11
361.4793477997
 21
31.4424059016
 12
361.8840352445
 22
31.4101420472
 13
361.8840352445
 23
31.4101420472
  0
SOLID
  8
0
 62
7
  6
CONTINUOUS
 10
361.8840352445
 20
31.4101420472
 11
361.6527851343
 21
31.3778788115
 12
361.3637227445
 22
31.3778788115
 13
361.3637227445
 23
31.3778788115
  0
SOLID
  8
0
 62
7
  6
CONTINUOUS
 10
361.8840352445
 20
31.4101420472
 11
362.4621603548
 21
31.4424059016
 12
362.1152853548
 22
31.3778788115
 13
362.1152853548
 23
31.3778788115
  0
SOLID
  8
0
 62
7
  6
CONTINUOUS
 10
362.4621603548
 20
31.4424059016
 11
362.5777852445
 21
31.3778788115
 12
362.1152853548
 22
31.3778788115
 13
362.1152853548
 23
31.3778788115
  0
SOLID
  8
0
 62
7
  6
CONTINUOUS
 10
362.2309102445
 20
31.345614957
 11
362.1152853548
 21
31.3778788115
 12
362.5777852445
 22
31.3778788115
 13
362.5777852445
 23
31.3778788115
  0
SOLID
  8
0
 62
7
  6
CONTINUOUS
 10
362.5777852445
 20
31.3778788115
 11
362.6355978548
 21
31.3133517213
 12
362.2309102445
 22
31.345614957
 13
362.2309102445
 23
31.345614957
  0
SOLID
  8
0
 62
7
  6
CONTINUOUS
 10
362.3465351343
 20
31.2810878668
 11
362.2309102445
 21
31.345614957
 12
362.6355978548
 22
31.3133517213
 13
362.6355978548
 23
31.3133517213
  0
SOLID
  8
0
 62
7
  6
CONTINUOUS
 10
362.3465351343
 20
31.2810878668
 11
362.6355978548
 21
31.3133517213
 12
362.4043477445
 22
31.1520332377
 13
362.4043477445
 23
31.1520332377
  0
SOLID
  8
0
 62
7
  6
CONTINUOUS
 10
362.6355978548
 20
31.3133517213
 11
362.6934101343
 21
31.1520332377
 12
362.4043477445
 22
31.1520332377
 13
362.4043477445
 23
31.1520332377
  0
SOLID
  8
0
 62
7
  6
CONTINUOUS
 10
361.6527851343
 20
31.3778788115
 11
361.4793477997
 21
31.3133517213
 12
361.3637227445
 22
31.3778788115
 13
361.3637227445
 23
31.3778788115
  0
SOLID
  8
0
 62
7
  6
CONTINUOUS
 10
361.4793477997
 20
31.3133517213
 11
361.3637227445
 21
31.2488235635
 12
361.3637227445
 22
31.3778788115
 13
361.3637227445
 23
31.3778788115
  0
SOLID
  8
0
 62
7
  6
CONTINUOUS
 10
361.3637227445
 20
31.2488235635
 11
361.0746601894
 21
30.5067593033
 12
361.3637227445
 22
31.3778788115
 13
361.3637227445
 23
31.3778788115
  0
SOLID
  8
0
 62
7
  6
CONTINUOUS
 10
361.3637227445
 20
31.3778788115
 11
361.0746601894
 21
30.5067593033
 12
361.3637227445
 22
32.0231527459
 13
361.3637227445
 23
32.0231527459
  0
SOLID
  8
0
 62
7
  6
CONTINUOUS
 10
361.0746601894
 20
30.5067593033
 11
361.0746601894
 21
32.0231527459
 12
361.3637227445
 22
32.0231527459
 13
361.3637227445
 23
32.0231527459
  0
SOLID
  8
0
 62
7
  6
CONTINUOUS
 10
361.3637227445
 20
31.2488235635
 11
361.3637227445
 21
30.5067593033
 12
361.0746601894
 22
30.5067593033
 13
361.0746601894
 23
30.5067593033
  0
SOLID
  8
0
 62
7
  6
CONTINUOUS
 10
362.4043477445
 20
30.5067593033
 11
362.4043477445
 21
31.1520332377
 12
362.6934101343
 22
31.1520332377
 13
362.6934101343
 23
31.1520332377
  0
SOLID
  8
0
 62
7
  6
CONTINUOUS
 10
362.6934101343
 20
31.1520332377
 11
362.6934101343
 21
30.5067593033
 12
362.4043477445
 22
30.5067593033
 13
362.4043477445
 23
30.5067593033
  0
SOLID
  8
0
 62
7
  6
CONTINUOUS
 10
363.4449727445
 20
31.506933758
 11
363.8496603548
 21
31.5391977507
 12
364.1965353548
 22
31.5391977507
 13
364.1965353548
 23
31.5391977507
  0
SOLID
  8
0
 62
7
  6
CONTINUOUS
 10
364.1965353548
 20
31.5391977507
 11
364.543410024
 21
31.506933758
 12
363.4449727445
 22
31.506933758
 13
363.4449727445
 23
31.506933758
  0
SOLID
  8
0
 62
7
  6
CONTINUOUS
 10
363.3293478548
 20
31.4746706537
 11
363.4449727445
 21
31.506933758
 12
364.543410024
 22
31.506933758
 13
364.543410024
 23
31.506933758
  0
SOLID
  8
0
 62
7
  6
CONTINUOUS
 10
364.543410024
 20
31.506933758
 11
364.716847524
 21
31.4424063504
 12
363.3293478548
 22
31.4746706537
 13
363.3293478548
 23
31.4746706537
  0
SOLID
  8
0
 62
7
  6
CONTINUOUS
 10
363.2137226343
 20
31.4101417797
 11
363.3293478548
 21
31.4746706537
 12
364.716847524
 22
31.4424063504
 13
364.716847524
 23
31.4424063504
  0
SOLID
  8
0
 62
7
  6
CONTINUOUS
 10
363.2137226343
 20
31.4101417797
 11
364.716847524
 21
31.4424063504
 12
363.8496603548
 22
31.4101417797
 13
363.8496603548
 23
31.4101417797
  0
SOLID
  8
0
 62
7
  6
CONTINUOUS
 10
363.8496603548
 20
31.4101417797
 11
364.716847524
 21
31.4424063504
 12
364.1965353548
 22
31.4101417797
 13
364.1965353548
 23
31.4101417797
  0
SOLID
  8
0
 62
7
  6
CONTINUOUS
 10
364.1965353548
 20
31.4101417797
 11
364.716847524
 21
31.4424063504
 12
364.4277854651
 22
31.3778793357
 13
364.4277854651
 23
31.3778793357
  0
SOLID
  8
0
 62
7
  6
CONTINUOUS
 10
364.716847524
 20
31.4424063504
 11
364.8324727445
 21
31.3778793357
 12
364.4277854651
 22
31.3778793357
 13
364.4277854651
 23
31.3778793357
  0
SOLID
  8
0
 62
7
  6
CONTINUOUS
 10
363.1559103548
 20
31.3456153429
 11
363.2137226343
 21
31.4101417797
 12
363.8496603548
 22
31.4101417797
 13
363.8496603548
 23
31.4101417797
  0
SOLID
  8
0
 62
7
  6
CONTINUOUS
 10
364.543410024
 20
31.3456153429
 11
364.4277854651
 21
31.3778793357
 12
364.8324727445
 22
31.3778793357
 13
364.8324727445
 23
31.3778793357
  0
SOLID
  8
0
 62
7
  6
CONTINUOUS
 10
364.543410024
 20
31.3456153429
 11
364.8324727445
 21
31.3778793357
 12
364.6012229651
 22
31.2810881318
 13
364.6012229651
 23
31.2810881318
  0
SOLID
  8
0
 62
7
  6
CONTINUOUS
 10
364.8324727445
 20
31.3778793357
 11
364.890285024
 21
31.2810881318
 12
364.6012229651
 22
31.2810881318
 13
364.6012229651
 23
31.2810881318
  0
SOLID
  8
0
 62
7
  6
CONTINUOUS
 10
364.6012229651
 20
31.1842964734
 11
364.6012229651
 21
31.2810881318
 12
364.890285024
 22
31.2810881318
 13
364.890285024
 23
31.2810881318
  0
SOLID
  8
0
 62
7
  6
CONTINUOUS
 10
364.6012229651
 20
31.1842964734
 11
364.890285024
 21
31.2810881318
 12
364.6012229651
 22
31.0552422931
 13
364.6012229651
 23
31.0552422931
  0
SOLID
  8
0
 62
7
  6
CONTINUOUS
 10
364.6012229651
 20
31.0552422931
 11
364.890285024
 21
31.2810881318
 12
364.6012229651
 22
30.8616599362
 13
364.6012229651
 23
30.8616599362
  0
SOLID
  8
0
 62
7
  6
CONTINUOUS
 10
364.890285024
 20
31.2810881318
 11
364.890285024
 21
30.7648681127
 12
364.6012229651
 22
30.8616599362
 13
364.6012229651
 23
30.8616599362
  0
SOLID
  8
0
 62
7
  6
CONTINUOUS
 10
366.798097524
 20
31.5069339419
 11
367.0293479651
 21
31.5391976292
 12
367.2605977445
 22
31.5391976292
 13
367.2605977445
 23
31.5391976292
  0
SOLID
  8
0
 62
7
  6
CONTINUOUS
 10
367.2605977445
 20
31.5391976292
 11
367.4340352445
 21
31.5069339419
 12
366.798097524
 22
31.5069339419
 13
366.798097524
 23
31.5069339419
  0
SOLID
  8
0
 62
7
  6
CONTINUOUS
 10
366.624660024
 20
31.4424065674
 11
366.798097524
 21
31.5069339419
 12
367.4340352445
 22
31.5069339419
 13
367.4340352445
 23
31.5069339419
  0
SOLID
  8
0
 62
7
  6
CONTINUOUS
 10
367.4340352445
 20
31.5069339419
 11
367.6074727445
 21
31.4424065674
 12
366.624660024
 22
31.4424065674
 13
366.624660024
 23
31.4424065674
  0
SOLID
  8
0
 62
7
  6
CONTINUOUS
 10
367.6074727445
 20
31.4424065674
 11
367.0293479651
 21
31.4101420472
 12
366.624660024
 22
31.4424065674
 13
366.624660024
 23
31.4424065674
  0
SOLID
  8
0
 62
7
  6
CONTINUOUS
 10
366.5090354651
 20
31.377879193
 11
366.624660024
 21
31.4424065674
 12
367.0293479651
 22
31.4101420472
 13
367.0293479651
 23
31.4101420472
  0
SOLID
  8
0
 62
7
  6
CONTINUOUS
 10
367.0293479651
 20
31.4101420472
 11
366.798097524
 21
31.377879193
 12
366.5090354651
 22
31.377879193
 13
366.5090354651
 23
31.377879193
  0
SOLID
  8
0
 62
7
  6
CONTINUOUS
 10
367.0293479651
 20
31.4101420472
 11
367.6074727445
 21
31.4424065674
 12
367.2605977445
 22
31.377879193
 13
367.2605977445
 23
31.377879193
  0
SOLID
  8
0
 62
7
  6
CONTINUOUS
 10
367.6074727445
 20
31.4424065674
 11
367.7230979651
 21
31.377879193
 12
367.2605977445
 22
31.377879193
 13
367.2605977445
 23
31.377879193
  0
SOLID
  8
0
 62
7
  6
CONTINUOUS
 10
367.3762229651
 20
31.345614957
 11
367.2605977445
 21
31.377879193
 12
367.7230979651
 22
31.377879193
 13
367.7230979651
 23
31.377879193
  0
SOLID
  8
0
 62
7
  6
CONTINUOUS
 10
367.3762229651
 20
31.345614957
 11
367.7230979651
 21
31.377879193
 12
367.491847524
 22
31.2810881312
 13
367.491847524
 23
31.2810881312
  0
SOLID
  8
0
 62
7
  6
CONTINUOUS
 10
367.7230979651
 20
31.377879193
 11
367.7809102445
 21
31.2810881312
 12
367.491847524
 22
31.2810881312
 13
367.491847524
 23
31.2810881312
  0
SOLID
  8
0
 62
7
  6
CONTINUOUS
 10
367.5496604651
 20
31.119769695
 11
367.491847524
 21
31.2810881312
 12
367.7809102445
 22
31.2810881312
 13
367.7809102445
 23
31.2810881312
  0
SOLID
  8
0
 62
7
  6
CONTINUOUS
 10
367.7809102445
 20
31.2810881312
 11
367.838722524
 21
31.119769695
 12
367.5496604651
 22
31.119769695
 13
367.5496604651
 23
31.119769695
  0
SOLID
  8
0
 62
7
  6
CONTINUOUS
 10
366.798097524
 20
31.377879193
 11
366.624660024
 21
31.3133521701
 12
366.5090354651
 22
31.377879193
 13
366.5090354651
 23
31.377879193
  0
SOLID
  8
0
 62
7
  6
CONTINUOUS
 10
366.624660024
 20
31.3133521701
 11
366.5090354651
 21
31.2488235635
 12
366.5090354651
 22
31.377879193
 13
366.5090354651
 23
31.377879193
  0
SOLID
  8
0
 62
7
  6
CONTINUOUS
 10
366.5090354651
 20
31.2488235635
 11
366.2199727445
 21
30.5067596374
 12
366.5090354651
 22
31.377879193
 13
366.5090354651
 23
31.377879193
  0
SOLID
  8
0
 62
7
  6
CONTINUOUS
 10
366.5090354651
 20
31.377879193
 11
366.2199727445
 21
30.5067596374
 12
366.5090354651
 22
31.5391976292
 13
366.5090354651
 23
31.5391976292
  0
SOLID
  8
0
 62
7
  6
CONTINUOUS
 10
366.2199727445
 20
30.5067596374
 11
366.2199727445
 21
31.5391976292
 12
366.5090354651
 22
31.5391976292
 13
366.5090354651
 23
31.5391976292
  0
SOLID
  8
0
 62
7
  6
CONTINUOUS
 10
366.5090354651
 20
31.2488235635
 11
366.5090354651
 21
30.5067596374
 12
366.2199727445
 22
30.5067596374
 13
366.2199727445
 23
30.5067596374
  0
SOLID
  8
0
 62
7
  6
CONTINUOUS
 10
367.5496604651
 20
30.5067596374
 11
367.5496604651
 21
31.119769695
 12
367.838722524
 22
31.119769695
 13
367.838722524
 23
31.119769695
  0
SOLID
  8
0
 62
7
  6
CONTINUOUS
 10
367.838722524
 20
31.119769695
 11
367.838722524
 21
30.5067596374
 12
367.5496604651
 22
30.5067596374
 13
367.5496604651
 23
30.5067596374
  0
SOLID
  8
0
 62
7
  6
CONTINUOUS
 10
368.6480977445
 20
31.5069334157
 11
368.9949727445
 21
31.539197762
 12
369.3418477445
 22
31.539197762
 13
369.3418477445
 23
31.539197762
  0
SOLID
  8
0
 62
7
  6
CONTINUOUS
 10
369.3418477445
 20
31.539197762
 11
369.6887227445
 21
31.5069334157
 12
368.6480977445
 22
31.5069334157
 13
368.6480977445
 23
31.5069334157
  0
SOLID
  8
0
 62
7
  6
CONTINUOUS
 10
368.4168479651
 20
31.4424063504
 11
368.6480977445
 21
31.5069334157
 12
369.6887227445
 22
31.5069334157
 13
369.6887227445
 23
31.5069334157
  0
SOLID
  8
0
 62
7
  6
CONTINUOUS
 10
368.4168479651
 20
31.4424063504
 11
369.6887227445
 21
31.5069334406
 12
369.8621602445
 22
31.4746706537
 13
369.8621602445
 23
31.4746706537
  0
SOLID
  8
0
 62
7
  6
CONTINUOUS
 10
368.4168479651
 20
31.4424063504
 11
369.8621602445
 21
31.4746706537
 12
368.9949727445
 22
31.4101421267
 13
368.9949727445
 23
31.4101421267
  0
SOLID
  8
0
 62
7
  6
CONTINUOUS
 10
368.9949727445
 20
31.4101421267
 11
369.8621602445
 21
31.4746706537
 12
369.3418477445
 22
31.4101421267
 13
369.3418477445
 23
31.4101421267
  0
SOLID
  8
0
 62
7
  6
CONTINUOUS
 10
369.8621602445
 20
31.4746706537
 11
370.0355977445
 21
31.4101421267
 12
369.3418477445
 22
31.4101421267
 13
369.3418477445
 23
31.4101421267
  0
SOLID
  8
0
 62
7
  6
CONTINUOUS
 10
369.6887227445
 20
31.3778792603
 11
369.3418477445
 21
31.4101421267
 12
370.0355977445
 22
31.4101421267
 13
370.0355977445
 23
31.4101421267
  0
SOLID
  8
0
 62
7
  6
CONTINUOUS
 10
368.3012227445
 20
31.3456148845
 11
368.4168479651
 21
31.4424063504
 12
368.9949727445
 22
31.4101421267
 13
368.9949727445
 23
31.4101421267
  0
SOLID
  8
0
 62
7
  6
CONTINUOUS
 10
369.6887227445
 20
31.3778792603
 11
370.0355977445
 21
31.4101421267
 12
369.8043479651
 22
31.3456148845
 13
369.8043479651
 23
31.3456148845
  0
SOLID
  8
0
 62
7
  6
CONTINUOUS
 10
369.8043479651
 20
31.3456148845
 11
370.0355977445
 21
31.4101421267
 12
369.8621602445
 22
31.281087868
 13
369.8621602445
 23
31.281087868
  0
SOLID
  8
0
 62
7
  6
CONTINUOUS
 10
370.0355977445
 20
31.4101421267
 11
370.1512223035
 21
31.281087868
 12
369.8621602445
 22
31.281087868
 13
369.8621602445
 23
31.281087868
  0
SOLID
  8
0
 62
7
  6
CONTINUOUS
 10
359.4559102445
 20
31.3778792603
 11
358.9355977445
 21
31.3456148963
 12
359.6871602721
 22
31.4101421155
 13
359.6871602721
 23
31.4101421155
  0
SOLID
  8
0
 62
7
  6
CONTINUOUS
 10
358.9355977445
 20
31.3456148963
 11
359.0512227376
 21
31.4101421155
 12
359.6871602721
 22
31.4101421155
 13
359.6871602721
 23
31.4101421155
  0
SOLID
  8
0
 62
7
  6
CONTINUOUS
 10
359.4559102445
 20
31.3778792603
 11
359.3402852307
 21
31.3456148963
 12
358.9355977445
 22
31.3456148963
 13
358.9355977445
 23
31.3456148963
  0
SOLID
  8
0
 62
7
  6
CONTINUOUS
 10
358.8199727462
 20
31.2165607767
 11
358.9355977445
 21
31.3456148963
 12
359.3402852307
 22
31.3456148963
 13
359.3402852307
 23
31.3456148963
  0
SOLID
  8
0
 62
7
  6
CONTINUOUS
 10
363.1559103548
 20
31.3456149608
 11
363.8496603548
 21
31.4101420472
 12
363.6184102445
 22
31.3778792603
 13
363.6184102445
 23
31.3778792603
  0
SOLID
  8
0
 62
7
  6
CONTINUOUS
 10
363.6184102445
 20
31.3778792603
 11
363.5027853548
 21
31.3456149608
 12
363.1559103548
 22
31.3456149608
 13
363.1559103548
 23
31.3456149608
  0
SOLID
  8
0
 62
7
  6
CONTINUOUS
 10
363.1559103548
 20
31.2810878707
 11
363.1559103548
 21
31.3456149608
 12
363.5027853548
 22
31.3456149608
 13
363.5027853548
 23
31.3456149608
  0
SOLID
  8
0
 62
7
  6
CONTINUOUS
 10
363.5027853548
 20
31.3456149608
 11
363.4449727445
 21
31.2810878707
 12
363.1559103548
 22
31.2810878707
 13
363.1559103548
 23
31.2810878707
  0
SOLID
  8
0
 62
7
  6
CONTINUOUS
 10
368.3012227445
 20
31.3456149608
 11
368.9949727445
 21
31.4101420472
 12
368.7637229651
 22
31.3778792603
 13
368.7637229651
 23
31.3778792603
  0
SOLID
  8
0
 62
7
  6
CONTINUOUS
 10
368.7637229651
 20
31.3778792603
 11
368.6480977445
 21
31.3456149608
 12
368.3012227445
 22
31.3456149608
 13
368.3012227445
 23
31.3456149608
  0
SOLID
  8
0
 62
7
  6
CONTINUOUS
 10
368.3012227445
 20
31.2810878707
 11
368.3012227445
 21
31.3456149608
 12
368.6480977445
 22
31.3456149608
 13
368.6480977445
 23
31.3456149608
  0
SOLID
  8
0
 62
7
  6
CONTINUOUS
 10
368.6480977445
 20
31.3456149608
 11
368.5902854651
 21
31.2810878707
 12
368.3012227445
 22
31.2810878707
 13
368.3012227445
 23
31.2810878707
  0
SOLID
  8
0
 62
7
  6
CONTINUOUS
 10
368.4168479651
 20
31.1520336865
 11
368.3012227445
 21
31.2810878707
 12
368.5902854651
 22
31.2810878707
 13
368.5902854651
 23
31.2810878707
  0
SOLID
  8
0
 62
7
  6
CONTINUOUS
 10
358.8199727462
 20
31.2165607767
 11
359.3402852307
 21
31.345614957
 12
359.1668477307
 22
31.2488235635
 13
359.1668477307
 23
31.2488235635
  0
SOLID
  8
0
 62
7
  6
CONTINUOUS
 10
359.1668477307
 20
31.2488235635
 11
359.1090352445
 21
31.1842964734
 12
358.8199727462
 22
31.2165607767
 13
358.8199727462
 23
31.2165607767
  0
SOLID
  8
0
 62
7
  6
CONTINUOUS
 10
358.7621602445
 20
31.0229779898
 11
358.8199727462
 21
31.2165607767
 12
359.1090352445
 22
31.1842964734
 13
359.1090352445
 23
31.1842964734
  0
SOLID
  8
0
 62
7
  6
CONTINUOUS
 10
363.6184102445
 20
31.1520336865
 11
363.9652852445
 21
31.1842964611
 12
364.6012229651
 22
31.1842964611
 13
364.6012229651
 23
31.1842964611
  0
SOLID
  8
0
 62
7
  6
CONTINUOUS
 10
363.6184102445
 20
31.1520336865
 11
364.6012229651
 21
31.1842964611
 12
363.3871601343
 22
31.0875057863
 13
363.3871601343
 23
31.0875057863
  0
SOLID
  8
0
 62
7
  6
CONTINUOUS
 10
363.3871601343
 20
31.0875057863
 11
364.6012229651
 21
31.1842964611
 12
363.9652852445
 22
31.0552422808
 13
363.9652852445
 23
31.0552422808
  0
SOLID
  8
0
 62
7
  6
CONTINUOUS
 10
364.6012229651
 20
31.1842964611
 11
364.6012229651
 21
31.0552422808
 12
363.9652852445
 22
31.0552422808
 13
363.9652852445
 23
31.0552422808
  0
SOLID
  8
0
 62
7
  6
CONTINUOUS
 10
368.4168479651
 20
31.1520338754
 11
368.5902854651
 21
31.2810878668
 12
368.6480977445
 22
31.2165607767
 13
368.6480977445
 23
31.2165607767
  0
SOLID
  8
0
 62
7
  6
CONTINUOUS
 10
368.6480977445
 20
31.2165607767
 11
368.8215352445
 21
31.1520338754
 12
368.4168479651
 22
31.1520338754
 13
368.4168479651
 23
31.1520338754
  0
SOLID
  8
0
 62
7
  6
CONTINUOUS
 10
368.6480977445
 20
31.0552422931
 11
368.4168479651
 21
31.1520338754
 12
368.8215352445
 22
31.1520338754
 13
368.8215352445
 23
31.1520338754
  0
SOLID
  8
0
 62
7
  6
CONTINUOUS
 10
368.8215352445
 20
31.1520338754
 11
369.8043479651
 21
30.9907152029
 12
368.6480977445
 22
31.0552422931
 13
368.6480977445
 23
31.0552422931
  0
SOLID
  8
0
 62
7
  6
CONTINUOUS
 10
369.6309104651
 20
30.8939239876
 11
368.6480977445
 21
31.0552422931
 12
369.8043479651
 22
30.9907152029
 13
369.8043479651
 23
30.9907152029
  0
SOLID
  8
0
 62
7
  6
CONTINUOUS
 10
369.8043479651
 20
30.9907152029
 11
370.0355977445
 21
30.8939239876
 12
369.6309104651
 22
30.8939239876
 13
369.6309104651
 23
30.8939239876
  0
SOLID
  8
0
 62
7
  6
CONTINUOUS
 10
369.8043479651
 20
30.8293967193
 11
369.6309104651
 21
30.8939239876
 12
370.0355977445
 22
30.8939239876
 13
370.0355977445
 23
30.8939239876
  0
SOLID
  8
0
 62
7
  6
CONTINUOUS
 10
369.8043479651
 20
30.8293967193
 11
370.0355977445
 21
30.8939239876
 12
369.8621602445
 22
30.7648682694
 13
369.8621602445
 23
30.7648682694
  0
SOLID
  8
0
 62
7
  6
CONTINUOUS
 10
370.0355977445
 20
30.8939239876
 11
370.1512223035
 21
30.7648682694
 12
369.8621602445
 22
30.7648682694
 13
369.8621602445
 23
30.7648682694
  0
SOLID
  8
0
 62
7
  6
CONTINUOUS
 10
369.8043479651
 20
30.7003411846
 11
369.8621602445
 21
30.7648682694
 12
370.1512223035
 22
30.7648682694
 13
370.1512223035
 23
30.7648682694
  0
SOLID
  8
0
 62
7
  6
CONTINUOUS
 10
370.1512223035
 20
30.7648682694
 11
370.1512223035
 21
30.7003411846
 12
369.8043479651
 22
30.7003411846
 13
369.8043479651
 23
30.7003411846
  0
SOLID
  8
0
 62
7
  6
CONTINUOUS
 10
369.6887227445
 20
30.6680782357
 11
369.8043479651
 21
30.7003411846
 12
370.1512223035
 22
30.7003411846
 13
370.1512223035
 23
30.7003411846
  0
SOLID
  8
0
 62
7
  6
CONTINUOUS
 10
369.6887227445
 20
30.6680782357
 11
370.1512223035
 21
30.7003411846
 12
369.4574729651
 22
30.6358140998
 13
369.4574729651
 23
30.6358140998
  0
SOLID
  8
0
 62
7
  6
CONTINUOUS
 10
370.1512223035
 20
30.7003411846
 11
370.0355977445
 21
30.6035511455
 12
369.4574729651
 22
30.6358140998
 13
369.4574729651
 23
30.6358140998
  0
SOLID
  8
0
 62
7
  6
CONTINUOUS
 10
370.0355977445
 20
30.6035511455
 11
368.5902854651
 21
30.5712868422
 12
369.4574729651
 22
30.6358140998
 13
369.4574729651
 23
30.6358140998
  0
SOLID
  8
0
 62
7
  6
CONTINUOUS
 10
369.4574729651
 20
30.6358140998
 11
368.5902854651
 21
30.5712868422
 12
369.1105979651
 22
30.6358140998
 13
369.1105979651
 23
30.6358140998
  0
SOLID
  8
0
 62
7
  6
CONTINUOUS
 10
368.5902854651
 20
30.5712868422
 11
368.4168479651
 21
30.6358140998
 12
369.1105979651
 22
30.6358140998
 13
369.1105979651
 23
30.6358140998
  0
SOLID
  8
0
 62
7
  6
CONTINUOUS
 10
368.5902854651
 20
30.5712868422
 11
370.0355977445
 21
30.6035511455
 12
368.7637229651
 22
30.5390223111
 13
368.7637229651
 23
30.5390223111
  0
SOLID
  8
0
 62
7
  6
CONTINUOUS
 10
370.0355977445
 20
30.6035511455
 11
369.8043479651
 21
30.5390223111
 12
368.7637229651
 22
30.5390223111
 13
368.7637229651
 23
30.5390223111
  0
SOLID
  8
0
 62
7
  6
CONTINUOUS
 10
369.1105979651
 20
30.5067599302
 11
368.7637229651
 21
30.5390223111
 12
369.8043479651
 22
30.5390223111
 13
369.8043479651
 23
30.5390223111
  0
SOLID
  8
0
 62
7
  6
CONTINUOUS
 10
369.8043479651
 20
30.5390223111
 11
369.4574729651
 21
30.5067599302
 12
369.1105979651
 22
30.5067599302
 13
369.1105979651
 23
30.5067599302
  0
SOLID
  8
0
 62
7
  6
CONTINUOUS
 10
358.7621602445
 20
31.0229779898
 11
359.1090352445
 21
31.1842964734
 12
359.0512227376
 22
31.0552422931
 13
359.0512227376
 23
31.0552422931
  0
SOLID
  8
0
 62
7
  6
CONTINUOUS
 10
359.0512227376
 20
31.0552422931
 11
359.0512227376
 21
30.9584509954
 12
358.7621602445
 22
31.0229779898
 13
358.7621602445
 23
31.0229779898
  0
SOLID
  8
0
 62
7
  6
CONTINUOUS
 10
358.8199727462
 20
30.8293967193
 11
358.7621602445
 21
31.0229779898
 12
359.0512227376
 22
30.9584509954
 13
359.0512227376
 23
30.9584509954
  0
SOLID
  8
0
 62
7
  6
CONTINUOUS
 10
359.0512227376
 20
30.9584509954
 11
359.1668477307
 21
30.797132416
 12
358.8199727462
 22
30.8293967193
 13
358.8199727462
 23
30.8293967193
  0
SOLID
  8
0
 62
7
  6
CONTINUOUS
 10
358.9355977445
 20
30.7003413087
 11
358.8199727462
 21
30.8293967193
 12
359.1668477307
 22
30.797132416
 13
359.1668477307
 23
30.797132416
  0
SOLID
  8
0
 62
7
  6
CONTINUOUS
 10
359.1668477307
 20
30.797132416
 11
359.3402852307
 21
30.7003413087
 12
358.9355977445
 22
30.7003413087
 13
358.9355977445
 23
30.7003413087
  0
SOLID
  8
0
 62
7
  6
CONTINUOUS
 10
359.0512227376
 20
30.6358140759
 11
358.9355977445
 21
30.7003413087
 12
359.3402852307
 22
30.7003413087
 13
359.3402852307
 23
30.7003413087
  0
SOLID
  8
0
 62
7
  6
CONTINUOUS
 10
359.3402852307
 20
30.7003413087
 11
359.6871602721
 21
30.6358140759
 12
359.0512227376
 22
30.6358140759
 13
359.0512227376
 23
30.6358140759
  0
SOLID
  8
0
 62
7
  6
CONTINUOUS
 10
359.2246602583
 20
30.5712868422
 11
359.0512227376
 21
30.6358140759
 12
359.6871602721
 22
30.6358140759
 13
359.6871602721
 23
30.6358140759
  0
SOLID
  8
0
 62
7
  6
CONTINUOUS
 10
363.2715352445
 20
31.0229779808
 11
363.3871601343
 21
31.0875057863
 12
363.9652852445
 22
31.0552422931
 13
363.9652852445
 23
31.0552422931
  0
SOLID
  8
0
 62
7
  6
CONTINUOUS
 10
363.9652852445
 20
31.0552422931
 11
363.7340351343
 21
31.0229779808
 12
363.2715352445
 22
31.0229779808
 13
363.2715352445
 23
31.0229779808
  0
SOLID
  8
0
 62
7
  6
CONTINUOUS
 10
363.1559103548
 20
30.8939238094
 11
363.2715352445
 21
31.0229779808
 12
363.7340351343
 22
31.0229779808
 13
363.7340351343
 23
31.0229779808
  0
SOLID
  8
0
 62
7
  6
CONTINUOUS
 10
363.5027853548
 20
30.926187309
 11
363.1559103548
 21
30.8939238094
 12
363.6184102445
 22
30.9907152029
 13
363.6184102445
 23
30.9907152029
  0
SOLID
  8
0
 62
7
  6
CONTINUOUS
 10
363.1559103548
 20
30.8939238094
 11
363.7340351343
 21
31.0229779898
 12
363.6184102445
 22
30.9907152029
 13
363.6184102445
 23
30.9907152029
  0
SOLID
  8
0
 62
7
  6
CONTINUOUS
 10
363.5027853548
 20
30.926187309
 11
363.4449727445
 21
30.8293967193
 12
363.1559103548
 22
30.8939238094
 13
363.1559103548
 23
30.8939238094
  0
SOLID
  8
0
 62
7
  6
CONTINUOUS
 10
363.1559103548
 20
30.797132416
 11
363.1559103548
 21
30.8939238094
 12
363.4449727445
 22
30.8293967193
 13
363.4449727445
 23
30.8293967193
  0
SOLID
  8
0
 62
7
  6
CONTINUOUS
 10
363.4449727445
 20
30.8293967193
 11
363.4449727445
 21
30.7648681127
 12
363.1559103548
 22
30.797132416
 13
363.1559103548
 23
30.797132416
  0
SOLID
  8
0
 62
7
  6
CONTINUOUS
 10
363.2137226343
 20
30.6680782357
 11
363.1559103548
 21
30.797132416
 12
363.4449727445
 22
30.7648681127
 13
363.4449727445
 23
30.7648681127
  0
SOLID
  8
0
 62
7
  6
CONTINUOUS
 10
364.6012229651
 20
30.8616599362
 11
364.890285024
 21
30.7648681127
 12
364.543410024
 22
30.797132416
 13
364.543410024
 23
30.797132416
  0
SOLID
  8
0
 62
7
  6
CONTINUOUS
 10
364.369972524
 20
30.7003410226
 11
364.543410024
 21
30.797132416
 12
364.890285024
 22
30.7648681127
 13
364.890285024
 23
30.7648681127
  0
SOLID
  8
0
 62
7
  6
CONTINUOUS
 10
364.369972524
 20
30.7003410226
 11
364.890285024
 21
30.7648681127
 12
364.6012229651
 22
30.6680782357
 13
364.6012229651
 23
30.6680782357
  0
SOLID
  8
0
 62
7
  6
CONTINUOUS
 10
364.890285024
 20
30.7648681127
 11
364.9480979651
 21
30.6035511455
 12
364.6012229651
 22
30.6680782357
 13
364.6012229651
 23
30.6680782357
  0
SOLID
  8
0
 62
7
  6
CONTINUOUS
 10
364.6590352445
 20
30.5712868422
 11
364.6012229651
 21
30.6680782357
 12
364.9480979651
 22
30.6035511455
 13
364.9480979651
 23
30.6035511455
  0
SOLID
  8
0
 62
7
  6
CONTINUOUS
 10
364.6590352445
 20
30.5712868422
 11
364.9480979651
 21
30.6035511455
 12
364.716847524
 22
30.5067598731
 13
364.716847524
 23
30.5067598731
  0
SOLID
  8
0
 62
7
  6
CONTINUOUS
 10
364.9480979651
 20
30.6035511455
 11
365.0059102445
 21
30.5067598731
 12
364.716847524
 22
30.5067598731
 13
364.716847524
 23
30.5067598731
  0
SOLID
  8
0
 62
7
  6
CONTINUOUS
 10
360.2652852997
 20
30.7326051679
 11
360.3230977445
 21
30.8293966612
 12
360.6121602997
 22
30.8293966612
 13
360.6121602997
 23
30.8293966612
  0
SOLID
  8
0
 62
7
  6
CONTINUOUS
 10
360.6121602997
 20
30.8293966612
 11
360.5543476894
 21
30.7003410226
 12
360.2652852997
 22
30.7326051679
 13
360.2652852997
 23
30.7326051679
  0
SOLID
  8
0
 62
7
  6
CONTINUOUS
 10
360.091847717
 20
30.6680782357
 11
360.2652852997
 21
30.7326051679
 12
360.5543476894
 22
30.7003410226
 13
360.5543476894
 23
30.7003410226
  0
SOLID
  8
0
 62
7
  6
CONTINUOUS
 10
360.091847717
 20
30.6680782357
 11
360.5543476894
 21
30.7003410226
 12
359.6871602721
 22
30.6358139324
 13
359.6871602721
 23
30.6358139324
  0
SOLID
  8
0
 62
7
  6
CONTINUOUS
 10
360.5543476894
 20
30.7003410226
 11
360.3809101894
 21
30.6035511455
 12
359.6871602721
 22
30.6358139324
 13
359.6871602721
 23
30.6358139324
  0
SOLID
  8
0
 62
7
  6
CONTINUOUS
 10
359.2246602583
 20
30.5712868422
 11
359.6871602721
 21
30.6358139324
 12
360.3809101894
 22
30.6035511455
 13
360.3809101894
 23
30.6035511455
  0
SOLID
  8
0
 62
7
  6
CONTINUOUS
 10
359.2246602583
 20
30.5712868422
 11
360.3809101894
 21
30.6035511455
 12
359.3980977583
 22
30.5390224228
 13
359.3980977583
 23
30.5390224228
  0
SOLID
  8
0
 62
7
  6
CONTINUOUS
 10
360.3809101894
 20
30.6035511455
 11
360.1496602445
 21
30.5390224228
 12
359.3980977583
 22
30.5390224228
 13
359.3980977583
 23
30.5390224228
  0
SOLID
  8
0
 62
7
  6
CONTINUOUS
 10
359.744972717
 20
30.5067597521
 11
359.3980977583
 21
30.5390224228
 12
360.1496602445
 22
30.5390224228
 13
360.1496602445
 23
30.5390224228
  0
SOLID
  8
0
 62
7
  6
CONTINUOUS
 10
363.2137226343
 20
30.6680782357
 11
363.4449727445
 21
30.7648681127
 12
363.5027853548
 22
30.7003410226
 13
363.5027853548
 23
30.7003410226
  0
SOLID
  8
0
 62
7
  6
CONTINUOUS
 10
363.5027853548
 20
30.7003410226
 11
363.7340351343
 21
30.6358139324
 12
363.2137226343
 22
30.6680782357
 13
363.2137226343
 23
30.6680782357
  0
SOLID
  8
0
 62
7
  6
CONTINUOUS
 10
363.3871601343
 20
30.5712868422
 11
363.2137226343
 21
30.6680782357
 12
363.7340351343
 22
30.6358139324
 13
363.7340351343
 23
30.6358139324
  0
SOLID
  8
0
 62
7
  6
CONTINUOUS
 10
364.0809101343
 20
30.6358139363
 11
364.369972524
 21
30.7003410226
 12
364.6012229651
 22
30.6680782357
 13
364.6012229651
 23
30.6680782357
  0
SOLID
  8
0
 62
7
  6
CONTINUOUS
 10
364.6012229651
 20
30.6680782357
 11
364.543410024
 21
30.6035511455
 12
364.0809101343
 22
30.6358139363
 13
364.0809101343
 23
30.6358139363
  0
SOLID
  8
0
 62
7
  6
CONTINUOUS
 10
364.543410024
 20
30.6035511455
 11
363.3871601343
 21
30.5712868422
 12
364.0809101343
 22
30.6358139363
 13
364.0809101343
 23
30.6358139363
  0
SOLID
  8
0
 62
7
  6
CONTINUOUS
 10
363.3871601343
 20
30.5712868422
 11
363.7340351343
 21
30.6358139363
 12
364.0809101343
 22
30.6358139363
 13
364.0809101343
 23
30.6358139363
  0
SOLID
  8
0
 62
7
  6
CONTINUOUS
 10
363.3871601343
 20
30.5712868422
 11
364.543410024
 21
30.6035511455
 12
363.5027853548
 22
30.5390225267
 13
363.5027853548
 23
30.5390225267
  0
SOLID
  8
0
 62
7
  6
CONTINUOUS
 10
364.543410024
 20
30.6035511455
 11
364.369972524
 21
30.5390225267
 12
363.5027853548
 22
30.5390225267
 13
363.5027853548
 23
30.5390225267
  0
SOLID
  8
0
 62
7
  6
CONTINUOUS
 10
363.7340351343
 20
30.5067596914
 11
363.5027853548
 21
30.5390225267
 12
364.369972524
 22
30.5390225267
 13
364.369972524
 23
30.5390225267
  0
SOLID
  8
0
 62
7
  6
CONTINUOUS
 10
364.369972524
 20
30.5390225267
 11
364.0809101343
 21
30.5067596914
 12
363.7340351343
 22
30.5067596914
 13
363.7340351343
 23
30.5067596914
  0
SOLID
  8
0
 62
7
  6
CONTINUOUS
 10
368.7637229651
 20
30.6680782357
 11
368.4168479651
 21
30.6358138717
 12
368.6480977445
 22
30.7003410226
 13
368.6480977445
 23
30.7003410226
  0
SOLID
  8
0
 62
7
  6
CONTINUOUS
 10
368.6480977445
 20
30.7003410226
 11
368.4168479651
 21
30.6358138717
 12
368.5902854651
 22
30.7648680521
 13
368.5902854651
 23
30.7648680521
  0
SOLID
  8
0
 62
7
  6
CONTINUOUS
 10
368.4168479651
 20
30.6358138717
 11
368.3012227445
 21
30.7648680521
 12
368.5902854651
 22
30.7648680521
 13
368.5902854651
 23
30.7648680521
  0
SOLID
  8
0
 62
7
  6
CONTINUOUS
 10
368.7637229651
 20
30.6680782357
 11
369.1105979651
 21
30.6358138717
 12
368.4168479651
 22
30.6358138717
 13
368.4168479651
 23
30.6358138717
  0
SOLID
  8
0
 62
7
  6
CONTINUOUS
 10
365.4684104651
 20
30.5067597521
 11
365.4684104651
 21
31.5391977439
 12
365.757472524
 22
30.5067597521
 13
365.757472524
 23
31.5391977439
  0
ENDBLK
  8
0
  6
BYBLOCK
 62
0
  0
BLOCK
  8
0
 62
2
  6
CONTINUOUS
  2
SYMBOL_0_BL0
 70
64
 10
240.8592468615
 20
19.762288695
  0
TEXT
  8
0
 62
7
  6
CONTINUOUS
 10
227.1239507038
 20
19.1357028027
  7
TEXTSTYLE_3
 40
2.7338706658
  1
Ammeraal Beltech
 41
1.0
 51
15.0
 72
0
  0
TEXT
  8
0
 62
7
  6
CONTINUOUS
 10
237.9247515296
 20
16.8621661299
  7
TEXTSTYLE_4
 40
1.0935482663
  1
Innovation & Service in Belting
 41
1.0
 72
0
  0
LINE
  8
0
 62
7
  6
CONTINUOUS
 10
221.0994100525
 20
19.9022961113
 11
221.8775620458
 21
23.5632134089
  0
LINE
  8
0
 62
7
  6
CONTINUOUS
 10
231.9727303357
 20
27.2266073205
 11
222.3653797889
 21
24.1049898993
  0
LINE
  8
0
 62
7
  6
CONTINUOUS
 10
221.3246933848
 20
19.2089453082
 11
228.8317686459
 21
12.4495443822
  0
LINE
  8
0
 62
7
  6
CONTINUOUS
 10
221.5872277955
 20
20.4440726016
 11
232.3954971607
 21
23.9558922005
  0
LINE
  8
0
 62
7
  6
CONTINUOUS
 10
232.3912920235
 20
13.6061036368
 11
223.9458323548
 21
21.2104296785
  0
LINE
  8
0
 62
7
  6
CONTINUOUS
 10
232.9111147433
 20
26.3816822048
 11
231.9345552061
 21
21.7873308023
  0
LINE
  8
0
 62
7
  6
CONTINUOUS
 10
231.2347532584
 20
18.4950214885
 11
230.5483050469
 21
15.2655365641
  0
LINE
  8
0
 62
7
  6
CONTINUOUS
 10
233.5922108419
 20
13.9963058145
 11
234.5484423775
 21
18.4950214885
  0
LINE
  8
0
 62
7
  6
CONTINUOUS
 10
235.2482443252
 20
21.7873308023
 11
235.6924861276
 21
23.8773241617
  0
LINE
  8
0
 62
7
  6
CONTINUOUS
 10
229.5448697213
 20
12.2979700695
 11
233.1043930989
 21
13.4545293241
  0
LINE
  8
0
 62
7
  6
CONTINUOUS
 10
232.685831411
 20
27.0750330078
 11
235.4672027953
 21
24.5706749648
  0
ARC
  8
0
 62
7
  6
CONTINUOUS
 10
222.5906631212
 20
23.4116390962
 40
0.7290321776
 50
108.0
 51
168.0
  0
ARC
  8
0
 62
7
  6
CONTINUOUS
 10
232.198013668
 20
26.5332565175
 40
0.7290321776
 50
348.0
 51
108.0
  0
ARC
  8
0
 62
7
  6
CONTINUOUS
 10
234.9793850522
 20
24.0288984744
 40
0.7290321776
 50
348.0
 51
48.0
  0
ARC
  8
0
 62
7
  6
CONTINUOUS
 10
229.319586389
 20
12.9913208726
 40
0.7290321776
 50
228.0
 51
288.0
  0
ARC
  8
0
 62
7
  6
CONTINUOUS
 10
221.8125111278
 20
19.7507217986
 40
0.7290321776
 50
108.0
 51
228.0
  0
ARC
  8
0
 62
7
  6
CONTINUOUS
 10
232.8791097665
 20
14.1478801272
 40
0.7290321776
 50
228.0
 51
348.0
  0
ENDBLK
  8
0
  6
BYBLOCK
 62
0
  0
ENDSEC
  0
SECTION
  2
ENTITIES
  0
TEXT
  8
0
 62
5
  6
CONTINUOUS
 10
304.937007874
 20
25.636
  7
TEXTSTYLE_2
 40
2.8
  1
Scale :
 41
0.6
 51
0.000019
 72
0
  0
TEXT
  8
0
 62
5
  6
CONTINUOUS
 10
324.937007874
 20
25.636
  7
TEXTSTYLE_2
 40
2.8
  1
Belt type:
 41
0.6
 51
0.000019
 72
0
  0
INSERT
  8
0
 62
2
  6
CONTINUOUS
  2
SYMBOL_0_BL0
 10
240.8592468615
 20
19.762288695
  0
INSERT
  8
0
 62
2
  6
CONTINUOUS
  2
SYMBOL_5_BL1
 10
382.7840918555
 20
35.5067593403
  0
LINE
  8
0
 62
2
  6
CONTINUOUS
 10
218.937007874
 20
30.0
 11
408.937007874
 21
30.0
  0
LINE
  8
0
 62
2
  6
CONTINUOUS
 10
218.937007874
 20
30.0
 11
218.937007874
 21
10.0
  0
LINE
  8
0
 62
2
  6
CONTINUOUS
 10
218.937007874
 20
10.0
 11
408.937007874
 21
10.0
  0
LINE
  8
0
 62
2
  6
CONTINUOUS
 10
303.937007874
 20
30.0
 11
303.937007874
 21
10.0
  0
LINE
  8
0
 62
2
  6
CONTINUOUS
 10
323.937007874
 20
30.0
 11
323.937007874
 21
10.0
  0
LINE
  8
0
 62
2
  6
CONTINUOUS
 10
408.937007874
 20
30.0
 11
408.937007874
 21
10.0
  0
TEXT
  8
0
 62
5
  6
CONTINUOUS
 10
221.937007874
 20
23.303
  7
TEXTSTYLE_5
 40
1.52
  1
                                                                     Ammeraal Beltech Modular A/S
 41
1.0
 72
0
  0
TEXT
  8
0
 62
5
  6
CONTINUOUS
 10
221.937007874
 20
20.595
  7
TEXTSTYLE_5
 40
1.5
  1
                                                                      Hjulmagervej 21, 7100 Vejle,  DK
 41
1.0
 72
0
  0
TEXT
  8
0
 62
5
  6
CONTINUOUS
 10
221.937007874
 20
17.881
  7
TEXTSTYLE_5
 40
1.495
  1
                                                                      tel: 
 41
1.0
 72
0
  0
TEXT
  8
0
 62
5
  6
CONTINUOUS
 10
266.9239544389
 20
17.881
  7
TEXTSTYLE_5
 40
1.51
  1
+45 75723100     fax: +45 75723348
 41
1.0
 72
0
  0
TEXT
  8
0
 62
5
  6
CONTINUOUS
 10
221.937007874
 20
15.177
  7
TEXTSTYLE_5
 40
1.5
  1
                                                                      admin@unichains.dk  www.unichains.com
 41
1.0
 72
0
  0
TEXT
  8
0
 62
5
  6
CONTINUOUS
 10
308.687007874
 20
13.75
  7
TEXTSTYLE_6
 40
5.0
  1
1:1
 41
0.7
 72
1
 11
313.937007874
 21
13.75
  0
TEXT
  8
0
 62
5
  6
CONTINUOUS
 10
326.937007874
 20
13.75
  7
TEXTSTYLE_7
 40
7.5
  1
un Flex ASB R2,2/43% Top K580 Outer 
 41
0.2762962963
 72
0
  0
LINE
  8
0
 62
7
  6
CONTINUOUS
 10
0.0
 20
0.0
 11
0.0
 21
297.0
  0
LINE
  8
0
 62
7
  6
CONTINUOUS
 10
8.937007874
 20
10.0
 11
8.937007874
 21
287.0
  0
LINE
  8
0
 62
7
  6
CONTINUOUS
 10
0.0
 20
0.0
 11
420.0
 21
0.0
  0
LINE
  8
0
 62
7
  6
CONTINUOUS
 10
408.937007874
 20
10.0
 11
8.937007874
 21
10.0
  0
LINE
  8
0
 62
7
  6
CONTINUOUS
 10
218.937007874
 20
30.0
 11
408.937007874
 21
30.0
  0
LINE
  8
0
 62
7
  6
CONTINUOUS
 10
210.0
 20
297.0
 11
210.0
 21
292.0
  0
LINE
  8
0
 62
7
  6
CONTINUOUS
 10
210.0
 20
0.0
 11
210.0
 21
5.0
  0
LINE
  8
0
 62
7
  6
CONTINUOUS
 10
8.937007874
 20
287.0
 11
408.937007874
 21
287.0
  0
LINE
  8
0
 62
7
  6
CONTINUOUS
 10
0.0
 20
297.0
 11
420.0
 21
297.0
  0
LINE
  8
0
 62
7
  6
CONTINUOUS
 10
408.937007874
 20
287.0
 11
408.937007874
 21
10.0
  0
LINE
  8
0
 62
7
  6
CONTINUOUS
 10
420.0
 20
0.0
 11
420.0
 21
297.0
  0
LINE
  8
0
 62
7
  6
CONTINUOUS
 10
44.9066338355
 20
152.1414753125
 11
44.9066338355
 21
140.6905775842
  0
LINE
  8
0
 62
7
  6
CONTINUOUS
 10
50.1606338355
 20
140.1585196768
 11
50.1606338355
 21
153.7063241458
  0
LINE
  8
0
 62
7
  6
CONTINUOUS
 10
52.2816481986
 20
121.1328918305
 11
52.2816481986
 21
125.1214038721
  0
LINE
  8
0
 62
7
  6
CONTINUOUS
 10
53.0316338355
 20
128.1662800303
 11
53.0316338355
 21
131.4456398931
  0
LINE
  8
0
 62
7
  6
CONTINUOUS
 10
57.5316338355
 20
128.1662800303
 11
57.5316338355
 21
132.8470017381
  0
LINE
  8
0
 62
7
  6
CONTINUOUS
 10
58.2816194723
 20
121.1328918305
 11
58.2816194723
 21
125.1214038721
  0
LINE
  8
0
 62
7
  6
CONTINUOUS
 10
60.4026338355
 20
153.4470017381
 11
60.4026338355
 21
149.1956838824
  0
LINE
  8
0
 62
7
  6
CONTINUOUS
 10
61.1566338355
 20
141.8970017381
 11
61.1566338355
 21
146.1347279237
  0
LINE
  8
0
 62
7
  6
CONTINUOUS
 10
65.6566338355
 20
141.9970017381
 11
65.6566338355
 21
146.1347234459
  0
LINE
  8
0
 62
7
  6
CONTINUOUS
 10
66.4106338355
 20
149.1954642129
 11
66.4106338355
 21
153.4470017381
  0
LINE
  8
0
 62
7
  6
CONTINUOUS
 10
66.9066338389
 20
137.2974850216
 11
66.9066338359
 21
136.7603034788
  0
LINE
  8
0
 62
7
  6
CONTINUOUS
 10
67.9066481986
 20
125.1214038721
 11
67.9066481986
 21
121.1328918305
  0
LINE
  8
0
 62
7
  6
CONTINUOUS
 10
68.6566338355
 20
133.8470017381
 11
68.6566338355
 21
128.1662800303
  0
LINE
  8
AXES
 62
7
  6
CONTINUOUS
 10
52.8862313961
 20
127.5293768928
 11
52.2862313961
 21
125.15819998
  0
LINE
  8
0
 62
7
  6
CONTINUOUS
 10
52.2862313961
 20
125.15819998
 11
53.0163565104
 21
128.0436263374
  0
LINE
  8
0
 62
7
  6
CONTINUOUS
 10
65.6719111605
 20
146.2573771389
 11
66.4060506379
 21
149.158668105
  0
LINE
  8
0
 62
7
  6
CONTINUOUS
 10
58.2770362748
 20
125.15819998
 11
57.5469111605
 21
128.0436263374
  0
LINE
  8
0
 62
7
  6
CONTINUOUS
 10
61.1413586736
 20
146.2573730673
 11
60.407216384
 21
149.1588903394
  0
LINE
  8
0
 62
7
  6
CONTINUOUS
 10
73.1566338355
 20
128.1662800303
 11
73.1566338355
 21
133.9970017381
  0
LINE
  8
0
 62
7
  6
CONTINUOUS
 10
73.9066194723
 20
121.1328918305
 11
73.9066194723
 21
125.1214038721
  0
LINE
  8
0
 62
7
  6
CONTINUOUS
 10
75.4026338355
 20
153.4470017381
 11
75.4026338355
 21
149.1954642129
  0
LINE
  8
0
 62
7
  6
CONTINUOUS
 10
76.1566338355
 20
146.1347234459
 11
76.1566338355
 21
141.9970017381
  0
LINE
  8
0
 62
7
  6
CONTINUOUS
 10
80.6566338355
 20
141.4970017381
 11
80.6566338355
 21
146.1347234459
  0
LINE
  8
0
 62
7
  6
CONTINUOUS
 10
81.4106338355
 20
149.1954642129
 11
81.4106338355
 21
153.4470017381
  0
LINE
  8
0
 62
7
  6
CONTINUOUS
 10
82.4066481986
 20
125.1214038721
 11
82.4066481986
 21
121.1328918305
  0
LINE
  8
0
 62
7
  6
CONTINUOUS
 10
83.1566338355
 20
133.9970017381
 11
83.1566338355
 21
128.1662800303
  0
LINE
  8
0
 62
7
  6
CONTINUOUS
 10
68.6413565104
 20
128.0436263374
 11
67.9112313961
 21
125.15819998
  0
LINE
  8
0
 62
7
  6
CONTINUOUS
 10
80.6719111605
 20
146.2573771389
 11
81.4060506379
 21
149.158668105
  0
LINE
  8
0
 62
7
  6
CONTINUOUS
 10
73.9020362748
 20
125.15819998
 11
73.1719111605
 21
128.0436263374
  0
LINE
  8
0
 62
7
  6
CONTINUOUS
 10
75.407217033
 20
149.158668105
 11
76.1413565104
 21
146.2573771389
  0
LINE
  8
0
 62
7
  6
CONTINUOUS
 10
87.6566338355
 20
128.1662800303
 11
87.6566338355
 21
133.9970017381
  0
LINE
  8
0
 62
7
  6
CONTINUOUS
 10
88.4066194723
 20
121.1328918305
 11
88.4066194723
 21
125.1214038721
  0
LINE
  8
0
 62
7
  6
CONTINUOUS
 10
89.4026338355
 20
153.4470017381
 11
89.4026338355
 21
149.1954642129
  0
LINE
  8
0
 62
7
  6
CONTINUOUS
 10
90.1566338355
 20
146.1347234459
 11
90.1566338355
 21
141.4970017381
  0
LINE
  8
0
 62
7
  6
CONTINUOUS
 10
94.6606338355
 20
141.4970017381
 11
94.6606338355
 21
146.1347234459
  0
LINE
  8
0
 62
7
  6
CONTINUOUS
 10
95.4146338355
 20
149.1954642129
 11
95.4146338355
 21
153.4470017381
  0
LINE
  8
0
 62
7
  6
CONTINUOUS
 10
96.1606481986
 20
125.1214038721
 11
96.1606481986
 21
121.1267798858
  0
LINE
  8
0
 62
7
  6
CONTINUOUS
 10
96.9106338355
 20
133.9970017381
 11
96.9106338355
 21
128.1662800303
  0
LINE
  8
0
 62
7
  6
CONTINUOUS
 10
83.1413565104
 20
128.0436263374
 11
82.4112313961
 21
125.15819998
  0
LINE
  8
0
 62
7
  6
CONTINUOUS
 10
94.6759111605
 20
146.2573771389
 11
95.4100506379
 21
149.158668105
  0
LINE
  8
0
 62
7
  6
CONTINUOUS
 10
88.4020362748
 20
125.15819998
 11
87.6719111605
 21
128.0436263374
  0
LINE
  8
0
 62
7
  6
CONTINUOUS
 10
89.407217033
 20
149.158668105
 11
90.1413565104
 21
146.2573771389
  0
LINE
  8
0
 62
7
  6
CONTINUOUS
 10
101.4106338355
 20
128.1662800303
 11
101.4106338355
 21
134.3630017381
  0
LINE
  8
0
 62
7
  6
CONTINUOUS
 10
102.1606194723
 20
121.1267798858
 11
102.1606194723
 21
125.1214038721
  0
LINE
  8
0
 62
7
  6
CONTINUOUS
 10
102.9066338355
 20
153.4470017381
 11
102.9066338355
 21
149.1954642129
  0
LINE
  8
0
 62
7
  6
CONTINUOUS
 10
103.6606338355
 20
146.1347234459
 11
103.6606338355
 21
141.4970017381
  0
LINE
  8
0
 62
7
  6
CONTINUOUS
 10
108.1526338355
 20
141.9510017381
 11
108.1526338355
 21
146.1347234459
  0
LINE
  8
0
 62
7
  6
CONTINUOUS
 10
108.9066338355
 20
149.1954642129
 11
108.9066338355
 21
153.4470017381
  0
LINE
  8
0
 62
7
  6
CONTINUOUS
 10
109.2566338355
 20
125.1214038721
 11
109.2566338355
 21
121.6475119953
  0
LINE
  8
0
 62
7
  6
CONTINUOUS
 10
110.0066338355
 20
134.3630017381
 11
110.0066338355
 21
128.166336793
  0
LINE
  8
0
 62
7
  6
CONTINUOUS
 10
96.8953565104
 20
128.0436263374
 11
96.1652313961
 21
125.15819998
  0
LINE
  8
0
 62
7
  6
CONTINUOUS
 10
108.1679111605
 20
146.2573771389
 11
108.9020506379
 21
149.158668105
  0
LINE
  8
0
 62
7
  6
CONTINUOUS
 10
102.1560362748
 20
125.15819998
 11
101.4259111605
 21
128.0436263374
  0
LINE
  8
0
 62
7
  6
CONTINUOUS
 10
102.911217033
 20
149.158668105
 11
103.6453565104
 21
146.2573771389
  0
LINE
  8
0
 62
7
  6
CONTINUOUS
 10
114.5066338355
 20
134.3630017381
 11
114.5066338355
 21
128.166336793
  0
LINE
  8
0
 62
7
  6
CONTINUOUS
 10
115.2566338355
 20
125.1214038721
 11
115.2566338355
 21
121.6475119953
  0
LINE
  8
0
 62
7
  6
CONTINUOUS
 10
115.6066338355
 20
149.1954642129
 11
115.6066338355
 21
153.4470017381
  0
LINE
  8
0
 62
7
  6
CONTINUOUS
 10
116.3606338355
 20
141.9510017381
 11
116.3606338355
 21
146.1347234459
  0
LINE
  8
DEFAULT_1
 62
2
  6
CENTER
 10
118.1816338355
 20
163.4880504056
 11
118.1816338355
 21
138.7971017381
  0
LINE
  8
0
 62
2
  6
CONTINUOUS
 10
118.1816338355
 20
137.8470017381
 11
118.1816338355
 21
135.7470017381
  0
LINE
  8
DEFAULT_1
 62
2
  6
CENTER
 10
118.1816338355
 20
115.0335312862
 11
118.1816338355
 21
134.7969017381
  0
LINE
  8
0
 62
7
  6
CONTINUOUS
 10
120.8526338355
 20
141.9510017381
 11
120.8526338355
 21
146.1347234459
  0
LINE
  8
0
 62
7
  6
CONTINUOUS
 10
121.6066338355
 20
149.1954642129
 11
121.6066338355
 21
153.4470017381
  0
LINE
  8
0
 62
7
  6
CONTINUOUS
 10
121.9566338355
 20
125.1214038721
 11
121.9566338355
 21
121.6475119953
  0
LINE
  8
0
 62
7
  6
CONTINUOUS
 10
122.7066338355
 20
134.3630017381
 11
122.7066338355
 21
128.166336793
  0
LINE
  8
0
 62
7
  6
CONTINUOUS
 10
109.9913565104
 20
128.0436831
 11
109.261217033
 21
125.15819998
  0
LINE
  8
0
 62
7
  6
CONTINUOUS
 10
120.8679111605
 20
146.2573771389
 11
121.6020506379
 21
149.158668105
  0
LINE
  8
0
 62
7
  6
CONTINUOUS
 10
114.5219111605
 20
128.0436831
 11
115.2520506379
 21
125.15819998
  0
LINE
  8
0
 62
7
  6
CONTINUOUS
 10
116.3453565104
 20
146.2573771389
 11
115.611217033
 21
149.158668105
  0
LINE
  8
0
 62
7
  6
CONTINUOUS
 10
127.2066338355
 20
134.3630017381
 11
127.2066338355
 21
128.166336793
  0
LINE
  8
0
 62
7
  6
CONTINUOUS
 10
127.9566338355
 20
125.1214038721
 11
127.9566338355
 21
121.6475119953
  0
LINE
  8
0
 62
7
  6
CONTINUOUS
 10
128.3066338355
 20
149.1954642129
 11
128.3066338355
 21
153.4470017381
  0
LINE
  8
0
 62
7
  6
CONTINUOUS
 10
129.0606338355
 20
141.9510017381
 11
129.0606338355
 21
146.1347234459
  0
LINE
  8
0
 62
7
  6
CONTINUOUS
 10
133.5526338355
 20
141.9510017381
 11
133.5526338355
 21
146.1347234459
  0
LINE
  8
0
 62
7
  6
CONTINUOUS
 10
134.3066338355
 20
149.1954642129
 11
134.3066338355
 21
153.4470017381
  0
LINE
  8
0
 62
7
  6
CONTINUOUS
 10
134.6566338355
 20
125.1214038721
 11
134.6566338355
 21
121.6475119953
  0
LINE
  8
0
 62
7
  6
CONTINUOUS
 10
135.4066338355
 20
134.3630017381
 11
135.4066338355
 21
128.166336793
  0
LINE
  8
0
 62
7
  6
CONTINUOUS
 10
139.9066338355
 20
134.3630017381
 11
139.9066338355
 21
128.166336793
  0
LINE
  8
0
 62
7
  6
CONTINUOUS
 10
122.6913565104
 20
128.0436831
 11
121.961217033
 21
125.15819998
  0
LINE
  8
0
 62
7
  6
CONTINUOUS
 10
133.5679111605
 20
146.2573771389
 11
134.3020506379
 21
149.158668105
  0
LINE
  8
0
 62
7
  6
CONTINUOUS
 10
135.3913565104
 20
128.0436831
 11
134.661217033
 21
125.15819998
  0
LINE
  8
0
 62
7
  6
CONTINUOUS
 10
127.2219111605
 20
128.0436831
 11
127.9520506379
 21
125.15819998
  0
LINE
  8
0
 62
7
  6
CONTINUOUS
 10
129.0453565104
 20
146.2573771389
 11
128.311217033
 21
149.158668105
  0
LINE
  8
0
 62
7
  6
CONTINUOUS
 10
139.9219111605
 20
128.0436831
 11
140.6520506379
 21
125.15819998
  0
LINE
  8
0
 62
7
  6
CONTINUOUS
 10
140.6566338355
 20
125.1214038721
 11
140.6566338355
 21
121.6475119953
  0
LINE
  8
0
 62
7
  6
CONTINUOUS
 10
141.0066338355
 20
149.1954642129
 11
141.0066338355
 21
153.4470017381
  0
LINE
  8
0
 62
7
  6
CONTINUOUS
 10
141.7606338355
 20
141.9510017381
 11
141.7606338355
 21
146.1347234459
  0
LINE
  8
0
 62
7
  6
CONTINUOUS
 10
146.2526338355
 20
141.9510017381
 11
146.2526338355
 21
146.1347234459
  0
LINE
  8
0
 62
7
  6
CONTINUOUS
 10
147.0066338355
 20
149.1954642129
 11
147.0066338355
 21
153.4470017381
  0
LINE
  8
0
 62
7
  6
CONTINUOUS
 10
147.3566338355
 20
125.1214038721
 11
147.3566338355
 21
121.6475119953
  0
LINE
  8
0
 62
7
  6
CONTINUOUS
 10
148.1066338355
 20
134.3630017381
 11
148.1066338355
 21
128.166336793
  0
LINE
  8
0
 62
7
  6
CONTINUOUS
 10
152.6066338355
 20
134.3630017381
 11
152.6066338355
 21
128.166336793
  0
LINE
  8
0
 62
7
  6
CONTINUOUS
 10
153.3566338355
 20
125.1214038721
 11
153.3566338355
 21
121.6475119953
  0
LINE
  8
0
 62
7
  6
CONTINUOUS
 10
153.7066338355
 20
149.1954642129
 11
153.7066338355
 21
153.4470017381
  0
LINE
  8
0
 62
7
  6
CONTINUOUS
 10
154.4606338355
 20
141.9510017381
 11
154.4606338355
 21
146.1347234459
  0
LINE
  8
0
 62
7
  6
CONTINUOUS
 10
146.2679111605
 20
146.2573771389
 11
147.0020506379
 21
149.158668105
  0
LINE
  8
0
 62
7
  6
CONTINUOUS
 10
148.0913565104
 20
128.0436831
 11
147.361217033
 21
125.15819998
  0
LINE
  8
0
 62
7
  6
CONTINUOUS
 10
46.8968801659
 20
137.8655938449
 11
49.0511769496
 21
137.0955465835
  0
LINE
  8
0
 62
7
  6
CONTINUOUS
 10
49.0511769496
 20
137.0955465835
 11
49.1703756208
 21
137.0515103497
  0
LINE
  8
0
 62
7
  6
CONTINUOUS
 10
141.7453565104
 20
146.2573771389
 11
141.011217033
 21
149.158668105
  0
LINE
  8
0
 62
7
  6
CONTINUOUS
 10
152.6219111605
 20
128.0436831
 11
153.3520506379
 21
125.15819998
  0
LINE
  8
0
 62
7
  6
CONTINUOUS
 10
158.9526338355
 20
141.9510017381
 11
158.9526338355
 21
146.1347234459
  0
LINE
  8
0
 62
7
  6
CONTINUOUS
 10
159.7066338355
 20
149.1954642129
 11
159.7066338355
 21
153.4470017381
  0
LINE
  8
0
 62
7
  6
CONTINUOUS
 10
160.0566338355
 20
125.1214038721
 11
160.0566338355
 21
121.6475119953
  0
LINE
  8
0
 62
7
  6
CONTINUOUS
 10
160.8066338355
 20
134.3630017381
 11
160.8066338355
 21
128.166336793
  0
LINE
  8
0
 62
7
  6
CONTINUOUS
 10
165.3066338355
 20
134.3630017381
 11
165.3066338355
 21
128.166336793
  0
LINE
  8
0
 62
7
  6
CONTINUOUS
 10
166.0566338355
 20
125.1214038721
 11
166.0566338355
 21
121.6475119953
  0
LINE
  8
0
 62
7
  6
CONTINUOUS
 10
166.4066338355
 20
149.1954642129
 11
166.4066338355
 21
153.4470017381
  0
LINE
  8
0
 62
7
  6
CONTINUOUS
 10
167.1606338355
 20
141.9510017381
 11
167.1606338355
 21
146.1347234459
  0
LINE
  8
0
 62
7
  6
CONTINUOUS
 10
158.9679111605
 20
146.2573771389
 11
159.7020506379
 21
149.158668105
  0
LINE
  8
0
 62
7
  6
CONTINUOUS
 10
160.7913565104
 20
128.0436831
 11
160.061217033
 21
125.15819998
  0
LINE
  8
0
 62
7
  6
CONTINUOUS
 10
50.0611224127
 20
153.8475718133
 11
48.2481101225
 21
154.4956279027
  0
LINE
  8
0
 62
7
  6
CONTINUOUS
 10
154.4453565104
 20
146.2573771389
 11
153.711217033
 21
149.158668105
  0
LINE
  8
0
 62
7
  6
CONTINUOUS
 10
165.3219111605
 20
128.0436831
 11
166.0520506379
 21
125.15819998
  0
LINE
  8
0
 62
7
  6
CONTINUOUS
 10
171.6526338355
 20
141.9510017381
 11
171.6526338355
 21
146.1347234459
  0
LINE
  8
0
 62
7
  6
CONTINUOUS
 10
172.4066338355
 20
149.1954642129
 11
172.4066338355
 21
153.4470017381
  0
LINE
  8
0
 62
7
  6
CONTINUOUS
 10
172.7566338355
 20
125.1214038721
 11
172.7566338355
 21
121.6475119953
  0
LINE
  8
0
 62
7
  6
CONTINUOUS
 10
173.5066338355
 20
134.3630017381
 11
173.5066338355
 21
128.166336793
  0
LINE
  8
0
 62
7
  6
CONTINUOUS
 10
178.0066338355
 20
134.3630017381
 11
178.0066338355
 21
128.166336793
  0
LINE
  8
0
 62
7
  6
CONTINUOUS
 10
178.7566338355
 20
125.1214038721
 11
178.7566338355
 21
121.6475119953
  0
LINE
  8
0
 62
7
  6
CONTINUOUS
 10
179.1066338355
 20
149.1954642129
 11
179.1066338355
 21
153.4470017381
  0
LINE
  8
0
 62
7
  6
CONTINUOUS
 10
179.8606338355
 20
141.9510017381
 11
179.8606338355
 21
146.1347234459
  0
LINE
  8
0
 62
7
  6
CONTINUOUS
 10
171.6679111605
 20
146.2573771389
 11
172.4020506379
 21
149.158668105
  0
LINE
  8
0
 62
7
  6
CONTINUOUS
 10
173.4913565104
 20
128.0436831
 11
172.761217033
 21
125.15819998
  0
LINE
  8
0
 62
7
  6
CONTINUOUS
 10
184.3679111605
 20
146.2573771389
 11
185.1020506379
 21
149.158668105
  0
LINE
  8
0
 62
7
  6
CONTINUOUS
 10
54.7816338355
 20
120.0970017381
 11
55.7816338355
 21
120.0970017381
  0
LINE
  8
0
 62
7
  6
CONTINUOUS
 10
70.4066338355
 20
120.0970017381
 11
71.4066338355
 21
120.0970017381
  0
LINE
  8
0
 62
7
  6
CONTINUOUS
 10
84.9066338355
 20
120.0970017381
 11
85.9066338355
 21
120.0970017381
  0
LINE
  8
0
 62
7
  6
CONTINUOUS
 10
98.6606338355
 20
120.0970017381
 11
99.6606338355
 21
120.0970017381
  0
LINE
  8
DEFAULT_1
 62
2
  6
CENTER
 10
50.2816481986
 20
124.4470017381
 11
193.4566338355
 21
124.4470017381
  0
LINE
  8
0
 62
7
  6
CONTINUOUS
 10
167.1453565104
 20
146.2573771389
 11
166.411217033
 21
149.158668105
  0
LINE
  8
0
 62
7
  6
CONTINUOUS
 10
178.0219111605
 20
128.0436831
 11
178.7520506379
 21
125.15819998
  0
LINE
  8
0
 62
7
  6
CONTINUOUS
 10
179.8453565104
 20
146.2573771389
 11
179.111217033
 21
149.158668105
  0
LINE
  8
0
 62
7
  6
CONTINUOUS
 10
184.3526338355
 20
141.9510017381
 11
184.3526338355
 21
146.1347234459
  0
LINE
  8
0
 62
7
  6
CONTINUOUS
 10
185.1066338355
 20
149.1954642129
 11
185.1066338355
 21
153.4470017381
  0
LINE
  8
0
 62
7
  6
CONTINUOUS
 10
185.4566338355
 20
125.1214038721
 11
185.4566338355
 21
121.6475119953
  0
LINE
  8
0
 62
7
  6
CONTINUOUS
 10
186.2066338355
 20
134.3630017381
 11
186.2066338355
 21
128.166336793
  0
LINE
  8
0
 62
7
  6
CONTINUOUS
 10
190.7066338355
 20
136.8470017381
 11
190.7066338355
 21
128.166336793
  0
LINE
  8
0
 62
7
  6
CONTINUOUS
 10
191.4566338355
 20
125.1214038721
 11
191.4566338355
 21
121.6475119953
  0
LINE
  8
0
 62
7
  6
CONTINUOUS
 10
186.1913565104
 20
128.0436831
 11
185.461217033
 21
125.15819998
  0
LINE
  8
0
 62
7
  6
CONTINUOUS
 10
103.4106338355
 20
136.3630017381
 11
108.0066338355
 21
136.3630017381
  0
LINE
  8
0
 62
7
  6
CONTINUOUS
 10
116.5066338355
 20
136.3630017381
 11
120.7066338355
 21
136.3630017381
  0
LINE
  8
0
 62
7
  6
CONTINUOUS
 10
129.2066338355
 20
136.3630017381
 11
133.4066338355
 21
136.3630017381
  0
LINE
  8
0
 62
7
  6
CONTINUOUS
 10
141.9066338355
 20
136.3630017381
 11
146.1066338355
 21
136.3630017381
  0
LINE
  8
0
 62
7
  6
CONTINUOUS
 10
154.6066338355
 20
136.3630017381
 11
158.8066338355
 21
136.3630017381
  0
LINE
  8
0
 62
7
  6
CONTINUOUS
 10
167.3066338355
 20
136.3630017381
 11
171.5066338355
 21
136.3630017381
  0
LINE
  8
0
 62
7
  6
CONTINUOUS
 10
180.0066338355
 20
136.3630017381
 11
184.2066338355
 21
136.3630017381
  0
LINE
  8
0
 62
7
  6
CONTINUOUS
 10
75.8566338355
 20
136.6970017381
 11
80.4566338355
 21
136.6970017381
  0
LINE
  8
0
 62
7
  6
CONTINUOUS
 10
90.3566338355
 20
136.6970017381
 11
94.2106338355
 21
136.6970017381
  0
LINE
  8
DEFAULT_1
 62
2
  6
CENTER
 10
197.6810544612
 20
136.7970017381
 11
120.1817338355
 21
136.7970017381
  0
LINE
  8
0
 62
2
  6
CONTINUOUS
 10
119.2316338355
 20
136.7970017381
 11
117.1316338355
 21
136.7970017381
  0
LINE
  8
DEFAULT_1
 62
2
  6
CENTER
 10
39.5879200463
 20
136.7970017381
 11
116.1815338355
 21
136.7970017381
  0
LINE
  8
0
 62
7
  6
CONTINUOUS
 10
61.5316338355
 20
136.8470017381
 11
65.6566338355
 21
136.8470017381
  0
LINE
  8
0
 62
7
  6
CONTINUOUS
 10
54.9066338355
 20
137.3970017381
 11
56.6566338355
 21
137.3970017381
  0
LINE
  8
0
 62
7
  6
CONTINUOUS
 10
71.6566338355
 20
137.4970017381
 11
70.1566338355
 21
137.4970017381
  0
LINE
  8
0
 62
7
  6
CONTINUOUS
 10
99.8106338355
 20
137.6470017381
 11
98.5106338355
 21
137.6470017381
  0
LINE
  8
0
 62
7
  6
CONTINUOUS
 10
86.3066338355
 20
137.6470017381
 11
84.5066338355
 21
137.6470017381
  0
LINE
  8
0
 62
7
  6
CONTINUOUS
 10
188.4566338355
 20
137.8470017381
 11
189.7066338355
 21
137.8470017381
  0
LINE
  8
0
 62
7
  6
CONTINUOUS
 10
190.7219111605
 20
128.0436831
 11
191.4520506379
 21
125.15819998
  0
LINE
  8
AXES
 62
2
  6
CENTER
 10
44.9066338355
 20
149.8470017381
 11
187.1066338355
 21
149.8470017381
  0
LINE
  8
0
 62
7
  6
CONTINUOUS
 10
184.3566338355
 20
154.1970017381
 11
179.8566338355
 21
154.1970017381
  0
LINE
  8
0
 62
7
  6
CONTINUOUS
 10
171.6566338355
 20
154.1970017381
 11
167.1566338355
 21
154.1970017381
  0
LINE
  8
0
 62
7
  6
CONTINUOUS
 10
158.9566338355
 20
154.1970017381
 11
154.4566338355
 21
154.1970017381
  0
LINE
  8
0
 62
7
  6
CONTINUOUS
 10
146.2566338355
 20
154.1970017381
 11
141.7566338355
 21
154.1970017381
  0
LINE
  8
0
 62
7
  6
CONTINUOUS
 10
133.5566338355
 20
154.1970017381
 11
129.0566338355
 21
154.1970017381
  0
LINE
  8
0
 62
7
  6
CONTINUOUS
 10
120.8566338355
 20
154.1970017381
 11
116.3566338355
 21
154.1970017381
  0
LINE
  8
0
 62
7
  6
CONTINUOUS
 10
108.1566338355
 20
154.1970017381
 11
103.6566338355
 21
154.1970017381
  0
LINE
  8
0
 62
7
  6
CONTINUOUS
 10
94.6646338355
 20
154.1970017381
 11
90.1526338355
 21
154.1970017381
  0
LINE
  8
0
 62
7
  6
CONTINUOUS
 10
80.6606338355
 20
154.1970017381
 11
76.1526338355
 21
154.1970017381
  0
LINE
  8
0
 62
7
  6
CONTINUOUS
 10
61.1526338355
 20
154.1970017381
 11
65.6606338355
 21
154.1970017381
  0
LINE
  8
0
 62
7
  6
CONTINUOUS
 10
44.9066338355
 20
212.6553451578
 11
44.9066338355
 21
201.9244642745
  0
LINE
  8
0
 62
7
  6
CONTINUOUS
 10
52.2816481986
 20
202.5244642745
 11
52.2816481986
 21
213.0244642745
  0
LINE
  8
0
 62
7
  6
CONTINUOUS
 10
58.2816194723
 20
202.5244642745
 11
58.2816194723
 21
213.0244642745
  0
POLYLINE
  8
AXES
 62
7
  6
CONTINUOUS
 66
1
 70
0
  0
VERTEX
  8
AXES
 62
7
  6
CONTINUOUS
 10
52.2816481986
 20
206.8015894372
  0
VERTEX
  8
AXES
 62
7
  6
CONTINUOUS
 10
52.2496013637
 20
206.9027603944
  0
VERTEX
  8
AXES
 62
7
  6
CONTINUOUS
 10
52.1722517822
 20
207.2878126768
  0
VERTEX
  8
AXES
 62
7
  6
CONTINUOUS
 10
52.1387945364
 20
207.6772934707
  0
VERTEX
  8
AXES
 62
7
  6
CONTINUOUS
 10
52.1388045112
 20
207.8719836836
  0
VERTEX
  8
AXES
 62
7
  6
CONTINUOUS
 10
52.1723009606
 20
208.2614587212
  0
VERTEX
  8
AXES
 62
7
  6
CONTINUOUS
 10
52.2496871576
 20
208.646499353
  0
VERTEX
  8
AXES
 62
7
  6
CONTINUOUS
 10
52.2816481986
 20
208.7473673266
  0
SEQEND
  0
LINE
  8
0
 62
7
  6
CONTINUOUS
 10
66.6066338355
 20
205.6751085965
 11
66.6066338355
 21
201.9244642745
  0
LINE
  8
0
 62
7
  6
CONTINUOUS
 10
66.9066338355
 20
214.274464299
 11
66.9066338355
 21
213.970393219
  0
LINE
  8
0
 62
7
  6
CONTINUOUS
 10
67.9066481986
 20
202.7882039994
 11
67.9066481986
 21
214.2744642745
  0
LINE
  8
0
 62
7
  6
CONTINUOUS
 10
67.089158059
 20
224.3290018813
 11
66.9066338359
 21
214.274464299
  0
LINE
  8
0
 62
7
  6
CONTINUOUS
 10
67.9066481986
 20
214.2744642745
 11
68.0891724222
 21
224.3290018814
  0
POLYLINE
  8
AXES
 62
7
  6
CONTINUOUS
 66
1
 70
0
  0
VERTEX
  8
AXES
 62
7
  6
CONTINUOUS
 10
67.9066481986
 20
206.4534450622
  0
VERTEX
  8
AXES
 62
7
  6
CONTINUOUS
 10
67.9028642067
 20
206.4131125516
  0
VERTEX
  8
AXES
 62
7
  6
CONTINUOUS
 10
67.8776053542
 20
206.3507892048
  0
VERTEX
  8
AXES
 62
7
  6
CONTINUOUS
 10
67.8587370356
 20
206.3281498768
  0
VERTEX
  8
AXES
 62
7
  6
CONTINUOUS
 10
67.81355221
 20
206.2983348768
  0
VERTEX
  8
AXES
 62
7
  6
CONTINUOUS
 10
67.7884650747
 20
206.2904842729
  0
SEQEND
  0
LINE
  8
0
 62
7
  6
CONTINUOUS
 10
73.9066194723
 20
214.2744642745
 11
73.7240952487
 21
224.3290018814
  0
LINE
  8
0
 62
7
  6
CONTINUOUS
 10
73.9066194723
 20
202.7882041099
 11
73.9066194723
 21
214.2744642745
  0
LINE
  8
0
 62
7
  6
CONTINUOUS
 10
75.2066338355
 20
205.6751085504
 11
75.2066338355
 21
201.9244642745
  0
LINE
  8
0
 62
7
  6
CONTINUOUS
 10
82.4066481986
 20
202.5244642745
 11
82.4066481986
 21
214.2744642745
  0
LINE
  8
0
 62
7
  6
CONTINUOUS
 10
82.4066481986
 20
214.2744642745
 11
82.5891724222
 21
224.3290018814
  0
LINE
  8
0
 62
7
  6
CONTINUOUS
 10
88.2240952487
 20
224.3290018814
 11
88.4066194723
 21
214.2744642745
  0
LINE
  8
0
 62
7
  6
CONTINUOUS
 10
88.4066194723
 20
202.5244642745
 11
88.4066194723
 21
214.2744642745
  0
LINE
  8
0
 62
7
  6
CONTINUOUS
 10
96.1606481986
 20
202.5244642745
 11
96.1606481986
 21
214.2744642745
  0
LINE
  8
0
 62
7
  6
CONTINUOUS
 10
96.1606481986
 20
214.2744642745
 11
96.3431724222
 21
224.3290018814
  0
LINE
  8
0
 62
7
  6
CONTINUOUS
 10
101.9780952487
 20
224.3290018814
 11
102.1606194723
 21
214.2744642745
  0
LINE
  8
0
 62
7
  6
CONTINUOUS
 10
102.1606194723
 20
214.2744642745
 11
102.1606194723
 21
202.5244642745
  0
LINE
  8
0
 62
7
  6
CONTINUOUS
 10
109.2566338355
 20
202.5244642745
 11
109.2566338355
 21
214.2744642745
  0
LINE
  8
0
 62
7
  6
CONTINUOUS
 10
109.2566338355
 20
214.2744642745
 11
109.439158059
 21
224.3290018814
  0
POLYLINE
  8
AXES
 62
7
  6
CONTINUOUS
 66
1
 70
0
  0
VERTEX
  8
AXES
 62
7
  6
CONTINUOUS
 10
75.2066338297
 20
205.6745467989
  0
VERTEX
  8
AXES
 62
7
  6
CONTINUOUS
 10
75.1853724214
 20
205.6921094896
  0
VERTEX
  8
AXES
 62
7
  6
CONTINUOUS
 10
75.1125687119
 20
205.745834236
  0
VERTEX
  8
AXES
 62
7
  6
CONTINUOUS
 10
74.9828721775
 20
205.8362028343
  0
VERTEX
  8
AXES
 62
7
  6
CONTINUOUS
 10
74.7922022127
 20
205.9587956401
  0
VERTEX
  8
AXES
 62
7
  6
CONTINUOUS
 10
74.5529859601
 20
206.0932816388
  0
VERTEX
  8
AXES
 62
7
  6
CONTINUOUS
 10
74.2907327583
 20
206.2106524544
  0
VERTEX
  8
AXES
 62
7
  6
CONTINUOUS
 10
74.0248025962
 20
206.2904842729
  0
SEQEND
  0
LINE
  8
0
 62
7
  6
CONTINUOUS
 10
115.2566338355
 20
214.2744642745
 11
115.0741096119
 21
224.3290018814
  0
LINE
  8
0
 62
7
  6
CONTINUOUS
 10
127.9566338355
 20
214.2744642745
 11
127.7741096119
 21
224.3290018814
  0
LINE
  8
0
 62
7
  6
CONTINUOUS
 10
115.2566338355
 20
202.5244642745
 11
115.2566338355
 21
214.2744642745
  0
LINE
  8
DEFAULT_1
 62
2
  6
CENTER
 10
118.1816338355
 20
199.2827504096
 11
118.1816338355
 21
226.5744642745
  0
LINE
  8
0
 62
7
  6
CONTINUOUS
 10
121.9566338355
 20
202.5244642745
 11
121.9566338355
 21
214.2744642745
  0
LINE
  8
0
 62
7
  6
CONTINUOUS
 10
127.9566338355
 20
202.5244642745
 11
127.9566338355
 21
214.2744642745
  0
LINE
  8
0
 62
7
  6
CONTINUOUS
 10
121.9566338355
 20
214.2744642745
 11
122.139158059
 21
224.3290018814
  0
LINE
  8
0
 62
7
  6
CONTINUOUS
 10
140.6566338355
 20
214.2744642745
 11
140.4741096119
 21
224.3290018814
  0
LINE
  8
0
 62
7
  6
CONTINUOUS
 10
134.6566338355
 20
202.5244642745
 11
134.6566338355
 21
214.2744642745
  0
LINE
  8
0
 62
7
  6
CONTINUOUS
 10
140.6566338355
 20
202.5244642745
 11
140.6566338355
 21
214.2744642745
  0
LINE
  8
0
 62
7
  6
CONTINUOUS
 10
134.6566338355
 20
214.2744642745
 11
134.839158059
 21
224.3290018814
  0
LINE
  8
0
 62
7
  6
CONTINUOUS
 10
153.3566338355
 20
214.2744642745
 11
153.1741096119
 21
224.3290018814
  0
LINE
  8
0
 62
7
  6
CONTINUOUS
 10
147.3566338355
 20
202.5244642745
 11
147.3566338355
 21
214.2744642745
  0
LINE
  8
0
 62
7
  6
CONTINUOUS
 10
153.3566338355
 20
202.5244642745
 11
153.3566338355
 21
214.2744642745
  0
LINE
  8
0
 62
7
  6
CONTINUOUS
 10
147.3566338355
 20
214.2744642745
 11
147.539158059
 21
224.3290018814
  0
POLYLINE
  8
AXES
 62
7
  6
CONTINUOUS
 66
1
 70
0
  0
VERTEX
  8
AXES
 62
7
  6
CONTINUOUS
 10
74.0248025962
 20
206.2904842729
  0
VERTEX
  8
AXES
 62
7
  6
CONTINUOUS
 10
73.9997154609
 20
206.2983348768
  0
VERTEX
  8
AXES
 62
7
  6
CONTINUOUS
 10
73.9545306353
 20
206.3281498768
  0
VERTEX
  8
AXES
 62
7
  6
CONTINUOUS
 10
73.9356623167
 20
206.3507892048
  0
VERTEX
  8
AXES
 62
7
  6
CONTINUOUS
 10
73.9104034643
 20
206.4131125516
  0
VERTEX
  8
AXES
 62
7
  6
CONTINUOUS
 10
73.9066194723
 20
206.4534450622
  0
SEQEND
  0
LINE
  8
0
 62
7
  6
CONTINUOUS
 10
166.0566338355
 20
214.2744642745
 11
165.8741096119
 21
224.3290018814
  0
LINE
  8
0
 62
7
  6
CONTINUOUS
 10
160.0566338355
 20
202.5244642745
 11
160.0566338355
 21
214.2744642745
  0
LINE
  8
0
 62
7
  6
CONTINUOUS
 10
166.0566338355
 20
202.5244642745
 11
166.0566338355
 21
214.2744642745
  0
LINE
  8
0
 62
7
  6
CONTINUOUS
 10
160.0566338355
 20
214.2744642745
 11
160.239158059
 21
224.3290018814
  0
POLYLINE
  8
AXES
 62
7
  6
CONTINUOUS
 66
1
 70
0
  0
VERTEX
  8
AXES
 62
7
  6
CONTINUOUS
 10
67.7884650747
 20
206.2904842729
  0
VERTEX
  8
AXES
 62
7
  6
CONTINUOUS
 10
67.5225694076
 20
206.2106655248
  0
VERTEX
  8
AXES
 62
7
  6
CONTINUOUS
 10
67.2603744762
 20
206.0933290916
  0
VERTEX
  8
AXES
 62
7
  6
CONTINUOUS
 10
67.0211802124
 20
205.9588655735
  0
VERTEX
  8
AXES
 62
7
  6
CONTINUOUS
 10
66.8304645428
 20
205.8362494524
  0
VERTEX
  8
AXES
 62
7
  6
CONTINUOUS
 10
66.7007243015
 20
205.7458524713
  0
VERTEX
  8
AXES
 62
7
  6
CONTINUOUS
 10
66.62789828
 20
205.6921118127
  0
VERTEX
  8
AXES
 62
7
  6
CONTINUOUS
 10
66.6066338412
 20
205.6745468107
  0
SEQEND
  0
LINE
  8
0
 62
7
  6
CONTINUOUS
 10
178.7566338355
 20
214.2744642745
 11
178.5741096119
 21
224.3290018814
  0
LINE
  8
0
 62
7
  6
CONTINUOUS
 10
172.7566338355
 20
202.5244642745
 11
172.7566338355
 21
214.2744642745
  0
LINE
  8
0
 62
7
  6
CONTINUOUS
 10
178.7566338355
 20
202.5244642745
 11
178.7566338355
 21
214.2744642745
  0
LINE
  8
0
 62
7
  6
CONTINUOUS
 10
172.7566338355
 20
214.2744642745
 11
172.939158059
 21
224.3290018814
  0
POLYLINE
  8
0
 62
7
  6
CONTINUOUS
 66
1
 70
0
  0
VERTEX
  8
0
 62
7
  6
CONTINUOUS
 10
73.7294695029
 20
201.9173419892
  0
VERTEX
  8
0
 62
7
  6
CONTINUOUS
 10
74.0154753695
 20
201.9073716986
  0
VERTEX
  8
0
 62
7
  6
CONTINUOUS
 10
74.2916634387
 20
201.8819846004
  0
VERTEX
  8
0
 62
7
  6
CONTINUOUS
 10
74.5427707747
 20
201.8470053143
  0
VERTEX
  8
0
 62
7
  6
CONTINUOUS
 10
74.91166016
 20
201.7849520586
  0
SEQEND
  0
LINE
  8
0
 62
7
  6
CONTINUOUS
 10
74.91166016
 20
201.7849520586
 11
75.0156811925
 21
201.7744642745
  0
LINE
  8
0
 62
7
  6
CONTINUOUS
 10
191.4566338355
 20
214.2744642745
 11
191.2741096119
 21
224.3290018814
  0
LINE
  8
0
 62
7
  6
CONTINUOUS
 10
185.4566338355
 20
202.5244642745
 11
185.4566338355
 21
214.2744642745
  0
LINE
  8
0
 62
7
  6
CONTINUOUS
 10
191.4566338355
 20
202.5244642745
 11
191.4566338355
 21
214.2744642745
  0
LINE
  8
0
 62
7
  6
CONTINUOUS
 10
185.4566338355
 20
214.2744642745
 11
185.639158059
 21
224.3290018814
  0
POLYLINE
  8
0
 62
7
  6
CONTINUOUS
 66
1
 70
0
  0
VERTEX
  8
0
 62
7
  6
CONTINUOUS
 10
66.7975867078
 20
201.7744642745
  0
VERTEX
  8
0
 62
7
  6
CONTINUOUS
 10
66.8898000564
 20
201.7832236097
  0
VERTEX
  8
0
 62
7
  6
CONTINUOUS
 10
67.0316832491
 20
201.8065533516
  0
VERTEX
  8
0
 62
7
  6
CONTINUOUS
 10
67.2189464077
 20
201.8386827379
  0
VERTEX
  8
0
 62
7
  6
CONTINUOUS
 10
67.3268504022
 20
201.8557085931
  0
VERTEX
  8
0
 62
7
  6
CONTINUOUS
 10
67.5639053168
 20
201.8868222785
  0
VERTEX
  8
0
 62
7
  6
CONTINUOUS
 10
67.8190338483
 20
201.9086968406
  0
VERTEX
  8
0
 62
7
  6
CONTINUOUS
 10
68.0839376025
 20
201.9173443579
  0
SEQEND
  0
LINE
  8
0
 62
7
  6
CONTINUOUS
 10
45.0566338355
 20
201.7744642745
 11
190.7066338355
 21
201.7744642745
  0
LINE
  8
AXES
 62
2
  6
CENTER
 10
44.9066338355
 20
207.7744642745
 11
187.1066338355
 21
207.7744642745
  0
LINE
  8
0
 62
7
  6
CONTINUOUS
 10
49.2238460371
 20
213.7744642745
 11
66.7066338355
 21
213.7744642745
  0
LINE
  8
0
 62
7
  6
CONTINUOUS
 10
190.1232217071
 20
214.2744634355
 11
191.4566338355
 21
214.2744642745
  0
LINE
  8
0
 62
7
  6
CONTINUOUS
 10
152.0232220056
 20
214.274465821
 11
161.3900458314
 21
214.2744644943
  0
LINE
  8
0
 62
7
  6
CONTINUOUS
 10
68.6405336093
 20
214.2744636629
 11
67.0657247445
 21
214.27446423
  0
LINE
  8
0
 62
7
  6
CONTINUOUS
 10
177.4232217071
 20
214.2744634355
 11
186.7900458314
 21
214.2744644943
  0
LINE
  8
0
 62
7
  6
CONTINUOUS
 10
164.7232217071
 20
214.2744634355
 11
174.0900458314
 21
214.2744644943
  0
LINE
  8
0
 62
7
  6
CONTINUOUS
 10
139.3232220056
 20
214.274465821
 11
148.6900456287
 21
214.274466118
  0
LINE
  8
0
 62
7
  6
CONTINUOUS
 10
126.6232219873
 20
214.2744656747
 11
135.9900456287
 21
214.274466118
  0
LINE
  8
0
 62
7
  6
CONTINUOUS
 10
113.9232219873
 20
214.2744656747
 11
123.2900456222
 21
214.2744661703
  0
LINE
  8
0
 62
7
  6
CONTINUOUS
 10
101.4344520131
 20
214.2744635061
 11
110.5900456222
 21
214.2744661703
  0
LINE
  8
0
 62
7
  6
CONTINUOUS
 10
87.6727340382
 20
214.2744634881
 11
96.8868156606
 21
214.2744634847
  0
LINE
  8
0
 62
7
  6
CONTINUOUS
 10
73.1727340282
 20
214.2744634136
 11
83.1405336108
 21
214.2744636519
  0
LINE
  8
0
 62
7
  6
CONTINUOUS
 10
67.3391168739
 20
224.5744642745
 11
191.024150795
 21
224.5744642745
  0
LINE
  8
0
 62
7
  6
CONTINUOUS
 10
45.0226568113
 20
212.8014463619
 11
49.1898690129
 21
213.7705654786
  0
LINE
  8
0
 62
7
  6
CONTINUOUS
 10
267.0691485155
 20
120.0970017381
 11
271.0691485155
 21
120.0970017381
  0
POLYLINE
  8
0
 62
7
  6
CONTINUOUS
 66
1
 70
0
  0
VERTEX
  8
0
 62
7
  6
CONTINUOUS
 10
263.4878470156
 20
152.1970819147
  0
VERTEX
  8
0
 62
7
  6
CONTINUOUS
 10
263.2602301241
 20
151.5032844046
  0
VERTEX
  8
0
 62
7
  6
CONTINUOUS
 10
263.1154932113
 20
150.7495063543
  0
VERTEX
  8
0
 62
7
  6
CONTINUOUS
 10
263.0691486408
 20
150.008000501
  0
SEQEND
  0
LINE
  8
0
 62
7
  6
CONTINUOUS
 10
283.0261563843
 20
120.828457526
 11
272.1974191929
 21
120.2609474573
  0
LINE
  8
0
 62
7
  6
CONTINUOUS
 10
263.0691485155
 20
124.0970017381
 11
263.0691485155
 21
150.1970017381
  0
LINE
  8
DEFAULT_1
 62
2
  6
CENTER
 10
274.3191485155
 20
124.4470017381
 11
271.0692485155
 21
124.4470017381
  0
LINE
  8
0
 62
2
  6
CONTINUOUS
 10
270.1191485155
 20
124.4470017381
 11
268.0191485155
 21
124.4470017381
  0
LINE
  8
DEFAULT_1
 62
2
  6
CENTER
 10
263.8191485155
 20
124.4470017381
 11
267.0690485155
 21
124.4470017381
  0
LINE
  8
AXES
 62
7
  6
CONTINUOUS
 10
266.9691485155
 20
124.4470017381
 11
266.9691485155
 21
132.4970017381
  0
LINE
  8
AXES
 62
2
  6
CENTER
 10
269.0691485155
 20
155.0970017381
 11
269.0691485155
 21
153.9470017381
  0
LINE
  8
AXES
 62
2
  6
CONTINUOUS
 10
269.0691485155
 20
150.8970017381
 11
269.0691485155
 21
148.7970017381
  0
LINE
  8
DEFAULT_1
 62
2
  6
CENTER
 10
269.0691485155
 20
129.6970017381
 11
269.0691485155
 21
126.4471017381
  0
LINE
  8
0
 62
2
  6
CONTINUOUS
 10
269.0691485155
 20
125.4970017381
 11
269.0691485155
 21
123.3970017381
  0
LINE
  8
DEFAULT_1
 62
2
  6
CENTER
 10
269.0691485155
 20
119.1970017381
 11
269.0691485155
 21
122.4469017381
  0
LINE
  8
CURVE
 62
40
  6
CONTINUOUS
 10
269.0691485155
 20
129.2970017381
 11
269.0691485155
 21
132.2970017381
  0
LINE
  8
AXES
 62
2
  6
CENTER
 10
269.0691485155
 20
144.5970017381
 11
269.0691485155
 21
145.7470017381
  0
LINE
  8
AXES
 62
7
  6
CONTINUOUS
 10
271.1691485155
 20
124.4470017381
 11
271.1691485155
 21
132.4970017381
  0
LINE
  8
DEFAULT_1
 62
2
  6
CENTER
 10
260.5774346506
 20
136.7970017381
 11
287.8691485155
 21
136.7970017381
  0
POLYLINE
  8
0
 62
7
  6
CONTINUOUS
 66
1
 70
0
  0
VERTEX
  8
0
 62
7
  6
CONTINUOUS
 10
275.5738591645
 20
138.0972676736
  0
VERTEX
  8
0
 62
7
  6
CONTINUOUS
 10
275.5750873274
 20
138.0804155948
  0
VERTEX
  8
0
 62
7
  6
CONTINUOUS
 10
275.5758567787
 20
138.0069443521
  0
VERTEX
  8
0
 62
7
  6
CONTINUOUS
 10
275.5758515295
 20
137.9501940079
  0
SEQEND
  0
POLYLINE
  8
0
 62
7
  6
CONTINUOUS
 66
1
 70
0
  0
VERTEX
  8
0
 62
7
  6
CONTINUOUS
 10
275.0691482891
 20
148.5184423455
  0
VERTEX
  8
0
 62
7
  6
CONTINUOUS
 10
275.0643660681
 20
148.7642903128
  0
VERTEX
  8
0
 62
7
  6
CONTINUOUS
 10
275.0465219973
 20
149.0711435914
  0
VERTEX
  8
0
 62
7
  6
CONTINUOUS
 10
275.015954946
 20
149.3926333637
  0
VERTEX
  8
0
 62
7
  6
CONTINUOUS
 10
274.9739934283
 20
149.7218298064
  0
VERTEX
  8
0
 62
7
  6
CONTINUOUS
 10
274.9217609462
 20
150.0566728712
  0
VERTEX
  8
0
 62
7
  6
CONTINUOUS
 10
274.8596671995
 20
150.3987973344
  0
VERTEX
  8
0
 62
7
  6
CONTINUOUS
 10
274.7876286648
 20
150.7506443735
  0
VERTEX
  8
0
 62
7
  6
CONTINUOUS
 10
274.7062259037
 20
151.1105101222
  0
VERTEX
  8
0
 62
7
  6
CONTINUOUS
 10
274.6158704996
 20
151.4776085202
  0
VERTEX
  8
0
 62
7
  6
CONTINUOUS
 10
274.5149576908
 20
151.8584822596
  0
VERTEX
  8
0
 62
7
  6
CONTINUOUS
 10
274.4012563323
 20
152.260040325
  0
VERTEX
  8
0
 62
7
  6
CONTINUOUS
 10
274.2735319028
 20
152.6843358965
  0
SEQEND
  0
LINE
  8
0
 62
7
  6
CONTINUOUS
 10
275.0691485155
 20
124.0970017381
 11
275.0691485155
 21
150.1970017381
  0
LINE
  8
0
 62
7
  6
CONTINUOUS
 10
275.5691487048
 20
137.2974850216
 11
275.56914854
 21
136.7603034788
  0
LINE
  8
0
 62
7
  6
CONTINUOUS
 10
275.5691485155
 20
138.0998874211
 11
275.5691487247
 21
153.6855112437
  0
LINE
  8
0
 62
7
  6
CONTINUOUS
 10
275.569148471
 20
136.495484853
 11
275.5691479039
 21
120.4580538052
  0
LINE
  8
0
 62
7
  6
CONTINUOUS
 10
275.5758515295
 20
137.9501940079
 11
275.5732985428
 21
137.614515851
  0
LINE
  8
0
 62
7
  6
CONTINUOUS
 10
275.5732985428
 20
137.614515851
 11
275.5691485155
 21
137.2972677031
  0
LINE
  8
0
 62
7
  6
CONTINUOUS
 10
275.5738291644
 20
138.0972677031
 11
275.1964797847
 21
138.0972677031
  0
POLYLINE
  8
0
 62
7
  6
CONTINUOUS
 66
1
 70
0
  0
VERTEX
  8
0
 62
7
  6
CONTINUOUS
 10
285.6261924207
 20
137.8053885625
  0
VERTEX
  8
0
 62
7
  6
CONTINUOUS
 10
282.1874885465
 20
137.9032748186
  0
VERTEX
  8
0
 62
7
  6
CONTINUOUS
 10
278.8136055084
 20
138.0012577098
  0
VERTEX
  8
0
 62
7
  6
CONTINUOUS
 10
275.5738590658
 20
138.0972676751
  0
SEQEND
  0
POLYLINE
  8
0
 62
7
  6
CONTINUOUS
 66
1
 70
0
  0
VERTEX
  8
0
 62
7
  6
CONTINUOUS
 10
275.197195794
 20
138.0972661823
  0
VERTEX
  8
0
 62
7
  6
CONTINUOUS
 10
275.1931308355
 20
138.0974862278
  0
VERTEX
  8
0
 62
7
  6
CONTINUOUS
 10
275.1722735371
 20
138.1020810247
  0
VERTEX
  8
0
 62
7
  6
CONTINUOUS
 10
275.1378965963
 20
138.1193176388
  0
VERTEX
  8
0
 62
7
  6
CONTINUOUS
 10
275.1007877529
 20
138.1552402271
  0
VERTEX
  8
0
 62
7
  6
CONTINUOUS
 10
275.0756455959
 20
138.2056430353
  0
VERTEX
  8
0
 62
7
  6
CONTINUOUS
 10
275.0693428486
 20
138.2576620921
  0
VERTEX
  8
0
 62
7
  6
CONTINUOUS
 10
275.0691487956
 20
138.2500339367
  0
SEQEND
  0
LINE
  8
0
 62
7
  6
CONTINUOUS
 10
274.11382244
 20
153.1577734983
 11
274.136813643
 21
153.1137991624
  0
LINE
  8
0
 62
7
  6
CONTINUOUS
 10
274.136813643
 20
153.1137991624
 11
274.1367996553
 21
153.1138419723
  0
LINE
  8
0
 62
7
  6
CONTINUOUS
 10
274.2735319028
 20
152.6843358965
 11
274.1368042085
 21
153.1138302335
  0
POLYLINE
  8
0
 62
7
  6
CONTINUOUS
 66
1
 70
0
  0
VERTEX
  8
0
 62
7
  6
CONTINUOUS
 10
274.1138219621
 20
153.1577726812
  0
VERTEX
  8
0
 62
7
  6
CONTINUOUS
 10
273.8197241567
 20
153.5009183703
  0
VERTEX
  8
0
 62
7
  6
CONTINUOUS
 10
273.4489122371
 20
153.8338482157
  0
VERTEX
  8
0
 62
7
  6
CONTINUOUS
 10
273.0137588347
 20
154.1248936079
  0
VERTEX
  8
0
 62
7
  6
CONTINUOUS
 10
272.5095302719
 20
154.3635436891
  0
VERTEX
  8
0
 62
7
  6
CONTINUOUS
 10
271.9292561543
 20
154.5377127265
  0
VERTEX
  8
0
 62
7
  6
CONTINUOUS
 10
271.2612988409
 20
154.6315020938
  0
VERTEX
  8
0
 62
7
  6
CONTINUOUS
 10
270.9491677965
 20
154.6415013965
  0
SEQEND
  0
LINE
  8
0
 62
7
  6
CONTINUOUS
 10
285.8691485155
 20
150.469657346
 11
285.8691485155
 21
123.8243461302
  0
LINE
  8
AXES
 62
2
  6
CENTER
 10
274.3191485155
 20
149.8470017381
 11
273.1691485155
 21
149.8470017381
  0
LINE
  8
AXES
 62
2
  6
CONTINUOUS
 10
270.1191485155
 20
149.8470017381
 11
268.0191485155
 21
149.8470017381
  0
LINE
  8
AXES
 62
2
  6
CENTER
 10
263.8191485155
 20
149.8470017381
 11
264.9691485155
 21
149.8470017381
  0
LINE
  8
0
 62
7
  6
CONTINUOUS
 10
273.2321469102
 20
153.9788282371
 11
283.0261563843
 21
153.4655459503
  0
POLYLINE
  8
0
 62
7
  6
CONTINUOUS
 66
1
 70
0
  0
VERTEX
  8
0
 62
7
  6
CONTINUOUS
 10
267.1891989766
 20
154.6415010792
  0
VERTEX
  8
0
 62
7
  6
CONTINUOUS
 10
266.9526462324
 20
154.6357942614
  0
VERTEX
  8
0
 62
7
  6
CONTINUOUS
 10
266.3161384295
 20
154.5598869012
  0
VERTEX
  8
0
 62
7
  6
CONTINUOUS
 10
265.7506799429
 20
154.4082460476
  0
VERTEX
  8
0
 62
7
  6
CONTINUOUS
 10
265.2470645842
 20
154.191548348
  0
VERTEX
  8
0
 62
7
  6
CONTINUOUS
 10
264.8040635989
 20
153.9196411072
  0
VERTEX
  8
0
 62
7
  6
CONTINUOUS
 10
264.4239665871
 20
153.6052315425
  0
VERTEX
  8
0
 62
7
  6
CONTINUOUS
 10
264.1069626973
 20
153.262834895
  0
VERTEX
  8
0
 62
7
  6
CONTINUOUS
 10
263.8485781667
 20
152.9048243448
  0
VERTEX
  8
0
 62
7
  6
CONTINUOUS
 10
263.6410856551
 20
152.5387755456
  0
VERTEX
  8
0
 62
7
  6
CONTINUOUS
 10
263.4878471838
 20
152.1970818476
  0
SEQEND
  0
LINE
  8
0
 62
7
  6
CONTINUOUS
 10
270.9503380137
 20
154.641500061
 11
267.1880241043
 21
154.6415000706
  0
ARC
  8
0
 62
7
  6
CONTINUOUS
 10
70.4066338355
 20
124.5970017381
 40
4.5
 50
240.0002375645
 51
270.0
  0
ARC
  8
0
 62
7
  6
CONTINUOUS
 10
71.4066338355
 20
124.5970017381
 40
4.5
 50
270.0
 51
299.9997624355
  0
ARC
  8
0
 62
7
  6
CONTINUOUS
 10
55.7816338355
 20
124.5970017381
 40
4.5
 50
270.0
 51
299.9997624355
  0
ARC
  8
0
 62
7
  6
CONTINUOUS
 10
54.7816338355
 20
124.5970017381
 40
4.5
 50
240.0002375645
 51
270.0
  0
ARC
  8
AXES
 62
7
  6
CONTINUOUS
 10
68.1066338355
 20
124.4270017381
 40
1.5
 50
94.1260708806
 51
257.7538206432
  0
ARC
  8
AXES
 62
7
  6
CONTINUOUS
 10
73.7066338355
 20
124.4270017381
 40
1.5
 50
282.2461793568
 51
85.8739291194
  0
ARC
  8
0
 62
7
  6
CONTINUOUS
 10
52.7816478872
 20
121.132891961
 40
0.5000000053
 50
180.0000149619
 51
240.000275953
  0
ARC
  8
0
 62
7
  6
CONTINUOUS
 10
73.4066194723
 20
121.1328918305
 40
0.5
 50
299.9997624355
 51
360.0
  0
ARC
  8
0
 62
7
  6
CONTINUOUS
 10
68.4066481986
 20
121.1328918305
 40
0.5
 50
180.0
 51
240.0002375645
  0
ARC
  8
0
 62
7
  6
CONTINUOUS
 10
73.6566338355
 20
128.1662800303
 40
0.5
 50
180.0
 51
194.2
  0
ARC
  8
0
 62
7
  6
CONTINUOUS
 10
68.1566338355
 20
128.1662800303
 40
0.5
 50
345.8
 51
360.0
  0
ARC
  8
0
 62
7
  6
CONTINUOUS
 10
58.0316338355
 20
128.1662800303
 40
0.5
 50
180.0
 51
194.2
  0
ARC
  8
0
 62
7
  6
CONTINUOUS
 10
52.5316338355
 20
128.1662800303
 40
0.5
 50
345.8
 51
360.0
  0
ARC
  8
0
 62
7
  6
CONTINUOUS
 10
57.7816194723
 20
121.1328918305
 40
0.5
 50
299.9997624355
 51
360.0
  0
ARC
  8
0
 62
7
  6
CONTINUOUS
 10
68.0566481986
 20
125.1214038721
 40
0.15
 50
165.8
 51
180.0
  0
ARC
  8
0
 62
7
  6
CONTINUOUS
 10
73.7566194723
 20
125.1214038721
 40
0.15
 50
0.0
 51
14.2
  0
ARC
  8
AXES
 62
7
  6
CONTINUOUS
 10
73.8253534724
 20
126.0727251802
 40
0.15
 50
194.2
 51
265.8739291194
  0
ARC
  8
AXES
 62
7
  6
CONTINUOUS
 10
74.0566194723
 20
122.8145470709
 40
0.15
 50
102.2461793568
 51
180.0
  0
ARC
  8
AXES
 62
7
  6
CONTINUOUS
 10
67.9879141985
 20
126.0727251802
 40
0.15
 50
274.1260708806
 51
345.8
  0
ARC
  8
AXES
 62
7
  6
CONTINUOUS
 10
67.7566481986
 20
122.8145470709
 40
0.15
 50
0.0
 51
77.7538206431
  0
ARC
  8
AXES
 62
7
  6
CONTINUOUS
 10
58.1316194723
 20
125.1214038721
 40
0.15
 50
0.0
 51
14.2
  0
ARC
  8
0
 62
7
  6
CONTINUOUS
 10
58.1316192465
 20
125.1214047645
 40
0.15
 50
359.9996591503
 51
14.1996484045
  0
ARC
  8
0
 62
7
  6
CONTINUOUS
 10
52.4316483748
 20
125.1214045685
 40
0.15
 50
165.8002743954
 51
180.0002660079
  0
ARC
  8
AXES
 62
7
  6
CONTINUOUS
 10
52.4316481986
 20
125.1214038721
 40
0.15
 50
165.8
 51
180.0
  0
ARC
  8
0
 62
7
  6
CONTINUOUS
 10
47.0316338355
 20
131.4456398931
 40
6.0
 50
0.0
 51
69.1172351997
  0
ARC
  8
0
 62
7
  6
CONTINUOUS
 10
61.5316338355
 20
132.8470017381
 40
4.0
 50
90.0
 51
180.0
  0
ARC
  8
0
 62
7
  6
CONTINUOUS
 10
65.6566338355
 20
133.8470017381
 40
3.0
 50
0.0
 51
90.0
  0
ARC
  8
0
 62
7
  6
CONTINUOUS
 10
75.8566338355
 20
133.9970017381
 40
2.7
 50
90.0
 51
180.0
  0
ARC
  8
0
 62
7
  6
CONTINUOUS
 10
80.4566338355
 20
133.9970017381
 40
2.7
 50
0.0
 51
90.0
  0
ARC
  8
0
 62
7
  6
CONTINUOUS
 10
67.7066338355
 20
137.2972677031
 40
0.8
 50
62.4666941989
 51
180.0
  0
ARC
  8
0
 62
7
  6
CONTINUOUS
 10
67.2066338355
 20
136.7603331645
 40
0.3
 50
180.0
 51
241.985372018
  0
ARC
  8
0
 62
7
  6
CONTINUOUS
 10
98.6606338355
 20
124.6370017381
 40
4.54
 50
240.3272196412
 51
270.0
  0
ARC
  8
0
 62
7
  6
CONTINUOUS
 10
99.6606338355
 20
124.6370017381
 40
4.54
 50
270.0
 51
299.6727803588
  0
ARC
  8
0
 62
7
  6
CONTINUOUS
 10
84.9066338355
 20
124.5970017381
 40
4.5
 50
240.0002375645
 51
270.0
  0
ARC
  8
0
 62
7
  6
CONTINUOUS
 10
85.9066338355
 20
124.5970017381
 40
4.5
 50
270.0
 51
299.9997624355
  0
ARC
  8
0
 62
7
  6
CONTINUOUS
 10
112.2566338355
 20
124.0970017381
 40
4.0
 50
224.4153085972
 51
315.5846914028
  0
ARC
  8
0
 62
7
  6
CONTINUOUS
 10
114.7566338355
 20
121.6475119953
 40
0.5
 50
315.5846914028
 51
360.0
  0
ARC
  8
0
 62
7
  6
CONTINUOUS
 10
109.7566338355
 20
121.6475119953
 40
0.5
 50
180.0
 51
224.4153085972
  0
ARC
  8
0
 62
7
  6
CONTINUOUS
 10
101.6606194723
 20
121.1267798858
 40
0.5
 50
299.6727803588
 51
360.0
  0
ARC
  8
0
 62
7
  6
CONTINUOUS
 10
96.6606481986
 20
121.1267798858
 40
0.5
 50
180.0
 51
240.3272196412
  0
ARC
  8
0
 62
7
  6
CONTINUOUS
 10
87.9066194723
 20
121.1328918305
 40
0.5
 50
299.9997624355
 51
360.0
  0
ARC
  8
0
 62
7
  6
CONTINUOUS
 10
82.9066481986
 20
121.1328918305
 40
0.5
 50
180.0
 51
240.0002375645
  0
ARC
  8
0
 62
7
  6
CONTINUOUS
 10
88.1566338355
 20
128.1662800303
 40
0.5
 50
180.0
 51
194.2
  0
ARC
  8
0
 62
7
  6
CONTINUOUS
 10
82.6566338355
 20
128.1662800303
 40
0.5
 50
345.8
 51
360.0
  0
ARC
  8
0
 62
7
  6
CONTINUOUS
 10
101.9106338355
 20
128.1662800303
 40
0.5
 50
180.0
 51
194.2
  0
ARC
  8
0
 62
7
  6
CONTINUOUS
 10
96.4106338355
 20
128.1662800303
 40
0.5
 50
345.8
 51
360.0
  0
ARC
  8
0
 62
7
  6
CONTINUOUS
 10
115.0066338355
 20
128.166336793
 40
0.5
 50
180.0
 51
194.2
  0
ARC
  8
0
 62
7
  6
CONTINUOUS
 10
109.5066338355
 20
128.166336793
 40
0.5
 50
345.8
 51
360.0
  0
ARC
  8
0
 62
7
  6
CONTINUOUS
 10
102.0106194723
 20
125.1214038721
 40
0.15
 50
0.0
 51
14.2
  0
ARC
  8
0
 62
7
  6
CONTINUOUS
 10
109.4066338355
 20
125.1214038721
 40
0.15
 50
165.8
 51
180.0
  0
ARC
  8
0
 62
7
  6
CONTINUOUS
 10
82.5566481986
 20
125.1214038721
 40
0.15
 50
165.8
 51
180.0
  0
ARC
  8
0
 62
7
  6
CONTINUOUS
 10
88.2566194723
 20
125.1214038721
 40
0.15
 50
0.0
 51
14.2
  0
ARC
  8
0
 62
7
  6
CONTINUOUS
 10
96.3106481986
 20
125.1214038721
 40
0.15
 50
165.8
 51
180.0
  0
ARC
  8
0
 62
7
  6
CONTINUOUS
 10
115.1066338355
 20
125.1214038721
 40
0.15
 50
0.0
 51
14.2
  0
ARC
  8
0
 62
7
  6
CONTINUOUS
 10
90.3566338355
 20
133.9970017381
 40
2.7
 50
90.0
 51
180.0
  0
ARC
  8
0
 62
7
  6
CONTINUOUS
 10
94.2106338355
 20
133.9970017381
 40
2.7
 50
0.0
 51
90.0
  0
ARC
  8
0
 62
7
  6
CONTINUOUS
 10
116.5066338355
 20
134.3630017381
 40
2.0
 50
90.0
 51
180.0
  0
ARC
  8
0
 62
7
  6
CONTINUOUS
 10
108.0066338355
 20
134.3630017381
 40
2.0
 50
0.0
 51
90.0
  0
ARC
  8
0
 62
7
  6
CONTINUOUS
 10
103.4106338355
 20
134.3630017381
 40
2.0
 50
90.0
 51
180.0
  0
ARC
  8
0
 62
7
  6
CONTINUOUS
 10
54.9066338355
 20
142.8970017381
 40
5.5
 50
210.7881902385
 51
270.0
  0
ARC
  8
0
 62
7
  6
CONTINUOUS
 10
71.6566338355
 20
141.9970017381
 40
4.5
 50
270.0
 51
360.0
  0
ARC
  8
0
 62
7
  6
CONTINUOUS
 10
56.6566338355
 20
141.8970017381
 40
4.5
 50
270.0
 51
360.0
  0
ARC
  8
0
 62
7
  6
CONTINUOUS
 10
70.1566338355
 20
141.9970017381
 40
4.5
 50
180.0
 51
270.0
  0
ARC
  8
0
 62
7
  6
CONTINUOUS
 10
47.9066338355
 20
140.6905535839
 40
3.0
 50
179.9995416281
 51
250.3310771527
  0
ARC
  8
0
 62
7
  6
CONTINUOUS
 10
75.6566338355
 20
146.1347234459
 40
0.5
 50
0.0
 51
14.2
  0
ARC
  8
0
 62
7
  6
CONTINUOUS
 10
81.1566338355
 20
146.1347234459
 40
0.5
 50
165.8
 51
180.0
  0
ARC
  8
0
 62
7
  6
CONTINUOUS
 10
66.1566338355
 20
146.1347234459
 40
0.5
 50
165.8
 51
180.0
  0
ARC
  8
0
 62
7
  6
CONTINUOUS
 10
60.6566338355
 20
146.1347279237
 40
0.5
 50
0.0
 51
14.1989894451
  0
ARC
  8
0
 62
7
  6
CONTINUOUS
 10
50.3106338355
 20
140.1585196768
 40
0.15
 50
180.0
 51
210.7881902385
  0
ARC
  8
0
 62
7
  6
CONTINUOUS
 10
60.5526338355
 20
149.1956838824
 40
0.15
 50
180.0
 51
194.1989894452
  0
ARC
  8
0
 62
7
  6
CONTINUOUS
 10
47.4066338355
 20
152.1415001112
 40
2.5
 50
70.3307146137
 51
180.0005683457
  0
ARC
  8
0
 62
7
  6
CONTINUOUS
 10
61.1526338355
 20
153.4470017381
 40
0.75
 50
90.0
 51
180.0
  0
ARC
  8
0
 62
7
  6
CONTINUOUS
 10
50.0106338355
 20
153.7063239574
 40
0.15
 50
0.0000719716
 51
70.3307388386
  0
ARC
  8
0
 62
7
  6
CONTINUOUS
 10
81.2606338355
 20
149.1954642129
 40
0.15
 50
345.8
 51
360.0
  0
ARC
  8
0
 62
7
  6
CONTINUOUS
 10
75.5526338355
 20
149.1954642129
 40
0.15
 50
180.0
 51
194.2
  0
ARC
  8
0
 62
7
  6
CONTINUOUS
 10
66.2606338355
 20
149.1954642129
 40
0.15
 50
345.8
 51
360.0
  0
ARC
  8
0
 62
7
  6
CONTINUOUS
 10
76.1526338355
 20
153.4470017381
 40
0.75
 50
90.0
 51
180.0
  0
ARC
  8
0
 62
7
  6
CONTINUOUS
 10
80.6606338355
 20
153.4470017381
 40
0.75
 50
0.0
 51
90.0
  0
ARC
  8
0
 62
7
  6
CONTINUOUS
 10
65.6606338355
 20
153.4470017381
 40
0.75
 50
0.0
 51
90.0
  0
ARC
  8
0
 62
7
  6
CONTINUOUS
 10
112.2566338355
 20
141.9510017381
 40
4.104
 50
180.0
 51
360.0
  0
ARC
  8
0
 62
7
  6
CONTINUOUS
 10
86.3066338355
 20
141.4970017381
 40
3.85
 50
270.0
 51
360.0
  0
ARC
  8
0
 62
7
  6
CONTINUOUS
 10
84.5066338355
 20
141.4970017381
 40
3.85
 50
180.0
 51
270.0
  0
ARC
  8
0
 62
7
  6
CONTINUOUS
 10
99.8106338355
 20
141.4970017381
 40
3.85
 50
270.0
 51
360.0
  0
ARC
  8
0
 62
7
  6
CONTINUOUS
 10
98.5106338355
 20
141.4970017381
 40
3.85
 50
180.0
 51
270.0
  0
ARC
  8
0
 62
7
  6
CONTINUOUS
 10
89.6566338355
 20
146.1347234459
 40
0.5
 50
0.0
 51
14.2
  0
ARC
  8
0
 62
7
  6
CONTINUOUS
 10
103.1606338355
 20
146.1347234459
 40
0.5
 50
0.0
 51
14.2
  0
ARC
  8
0
 62
7
  6
CONTINUOUS
 10
95.1606338355
 20
146.1347234459
 40
0.5
 50
165.8
 51
180.0
  0
ARC
  8
0
 62
7
  6
CONTINUOUS
 10
115.8606338355
 20
146.1347234459
 40
0.5
 50
0.0
 51
14.2
  0
ARC
  8
0
 62
7
  6
CONTINUOUS
 10
108.6526338355
 20
146.1347234459
 40
0.5
 50
165.8
 51
180.0
  0
ARC
  8
0
 62
7
  6
CONTINUOUS
 10
95.2646338355
 20
149.1954642129
 40
0.15
 50
345.8
 51
360.0
  0
ARC
  8
0
 62
7
  6
CONTINUOUS
 10
89.5526338355
 20
149.1954642129
 40
0.15
 50
180.0
 51
194.2
  0
ARC
  8
0
 62
7
  6
CONTINUOUS
 10
90.1526338355
 20
153.4470017381
 40
0.75
 50
90.0
 51
180.0
  0
ARC
  8
0
 62
7
  6
CONTINUOUS
 10
94.6646338355
 20
153.4470017381
 40
0.75
 50
0.0
 51
90.0
  0
ARC
  8
0
 62
7
  6
CONTINUOUS
 10
115.7566338355
 20
149.1954642129
 40
0.15
 50
180.0
 51
194.2
  0
ARC
  8
0
 62
7
  6
CONTINUOUS
 10
108.7566338355
 20
149.1954642129
 40
0.15
 50
345.8
 51
360.0
  0
ARC
  8
0
 62
7
  6
CONTINUOUS
 10
103.0566338355
 20
149.1954642129
 40
0.15
 50
180.0
 51
194.2
  0
ARC
  8
0
 62
7
  6
CONTINUOUS
 10
116.3566338355
 20
153.4470017381
 40
0.75
 50
90.0
 51
180.0
  0
ARC
  8
0
 62
7
  6
CONTINUOUS
 10
103.6566338355
 20
153.4470017381
 40
0.75
 50
90.0
 51
180.0
  0
ARC
  8
0
 62
7
  6
CONTINUOUS
 10
108.1566338355
 20
153.4470017381
 40
0.75
 50
0.0
 51
90.0
  0
ARC
  8
0
 62
7
  6
CONTINUOUS
 10
124.9566338355
 20
124.0970017381
 40
4.0
 50
224.4153085972
 51
315.5846914028
  0
ARC
  8
0
 62
7
  6
CONTINUOUS
 10
137.6566338355
 20
124.0970017381
 40
4.0
 50
224.4153085972
 51
315.5846914028
  0
ARC
  8
0
 62
7
  6
CONTINUOUS
 10
150.3566338355
 20
124.0970017381
 40
4.0
 50
224.4153085972
 51
315.5846914028
  0
ARC
  8
0
 62
7
  6
CONTINUOUS
 10
147.8566338355
 20
121.6475119953
 40
0.5
 50
180.0
 51
224.4153085972
  0
ARC
  8
0
 62
7
  6
CONTINUOUS
 10
152.8566338355
 20
121.6475119953
 40
0.5
 50
315.5846914028
 51
360.0
  0
ARC
  8
0
 62
7
  6
CONTINUOUS
 10
135.1566338355
 20
121.6475119953
 40
0.5
 50
180.0
 51
224.4153085972
  0
ARC
  8
0
 62
7
  6
CONTINUOUS
 10
140.1566338355
 20
121.6475119953
 40
0.5
 50
315.5846914028
 51
360.0
  0
ARC
  8
0
 62
7
  6
CONTINUOUS
 10
122.4566338355
 20
121.6475119953
 40
0.5
 50
180.0
 51
224.4153085972
  0
ARC
  8
0
 62
7
  6
CONTINUOUS
 10
127.4566338355
 20
121.6475119953
 40
0.5
 50
315.5846914028
 51
360.0
  0
ARC
  8
0
 62
7
  6
CONTINUOUS
 10
127.7066338355
 20
128.166336793
 40
0.5
 50
180.0
 51
194.2
  0
ARC
  8
0
 62
7
  6
CONTINUOUS
 10
122.2066338355
 20
128.166336793
 40
0.5
 50
345.8
 51
360.0
  0
ARC
  8
0
 62
7
  6
CONTINUOUS
 10
140.4066338355
 20
128.166336793
 40
0.5
 50
180.0
 51
194.2
  0
ARC
  8
0
 62
7
  6
CONTINUOUS
 10
134.9066338355
 20
128.166336793
 40
0.5
 50
345.8
 51
360.0
  0
ARC
  8
0
 62
7
  6
CONTINUOUS
 10
153.1066338355
 20
128.166336793
 40
0.5
 50
180.0
 51
194.2
  0
ARC
  8
0
 62
7
  6
CONTINUOUS
 10
147.6066338355
 20
128.166336793
 40
0.5
 50
345.8
 51
360.0
  0
ARC
  8
0
 62
7
  6
CONTINUOUS
 10
122.1066338355
 20
125.1214038721
 40
0.15
 50
165.8
 51
180.0
  0
ARC
  8
0
 62
7
  6
CONTINUOUS
 10
127.8066338355
 20
125.1214038721
 40
0.15
 50
0.0
 51
14.2
  0
ARC
  8
0
 62
7
  6
CONTINUOUS
 10
134.8066338355
 20
125.1214038721
 40
0.15
 50
165.8
 51
180.0
  0
ARC
  8
0
 62
7
  6
CONTINUOUS
 10
140.5066338355
 20
125.1214038721
 40
0.15
 50
0.0
 51
14.2
  0
ARC
  8
0
 62
7
  6
CONTINUOUS
 10
147.5066338355
 20
125.1214038721
 40
0.15
 50
165.8
 51
180.0
  0
ARC
  8
0
 62
7
  6
CONTINUOUS
 10
153.2066338355
 20
125.1214038721
 40
0.15
 50
0.0
 51
14.2
  0
ARC
  8
0
 62
7
  6
CONTINUOUS
 10
154.6066338355
 20
134.3630017381
 40
2.0
 50
90.0
 51
180.0
  0
ARC
  8
0
 62
7
  6
CONTINUOUS
 10
146.1066338355
 20
134.3630017381
 40
2.0
 50
0.0
 51
90.0
  0
ARC
  8
0
 62
7
  6
CONTINUOUS
 10
141.9066338355
 20
134.3630017381
 40
2.0
 50
90.0
 51
180.0
  0
ARC
  8
0
 62
7
  6
CONTINUOUS
 10
133.4066338355
 20
134.3630017381
 40
2.0
 50
0.0
 51
90.0
  0
ARC
  8
0
 62
7
  6
CONTINUOUS
 10
129.2066338355
 20
134.3630017381
 40
2.0
 50
90.0
 51
180.0
  0
ARC
  8
0
 62
7
  6
CONTINUOUS
 10
120.7066338355
 20
134.3630017381
 40
2.0
 50
0.0
 51
90.0
  0
ARC
  8
0
 62
7
  6
CONTINUOUS
 10
163.0566338355
 20
124.0970017381
 40
4.0
 50
224.4153085972
 51
315.5846914028
  0
ARC
  8
0
 62
7
  6
CONTINUOUS
 10
175.7566338355
 20
124.0970017381
 40
4.0
 50
224.4153085972
 51
315.5846914028
  0
ARC
  8
0
 62
7
  6
CONTINUOUS
 10
188.4566338355
 20
124.0970017381
 40
4.0
 50
224.4153085972
 51
315.5846914028
  0
ARC
  8
0
 62
7
  6
CONTINUOUS
 10
185.9566338355
 20
121.6475119953
 40
0.5
 50
180.0
 51
224.4153085972
  0
ARC
  8
0
 62
7
  6
CONTINUOUS
 10
190.9566338355
 20
121.6475119953
 40
0.5
 50
315.5846914028
 51
360.0
  0
ARC
  8
0
 62
7
  6
CONTINUOUS
 10
173.2566338355
 20
121.6475119953
 40
0.5
 50
180.0
 51
224.4153085972
  0
ARC
  8
0
 62
7
  6
CONTINUOUS
 10
178.2566338355
 20
121.6475119953
 40
0.5
 50
315.5846914028
 51
360.0
  0
ARC
  8
0
 62
7
  6
CONTINUOUS
 10
160.5566338355
 20
121.6475119953
 40
0.5
 50
180.0
 51
224.4153085972
  0
ARC
  8
0
 62
7
  6
CONTINUOUS
 10
165.5566338355
 20
121.6475119953
 40
0.5
 50
315.5846914028
 51
360.0
  0
ARC
  8
0
 62
7
  6
CONTINUOUS
 10
165.8066338355
 20
128.166336793
 40
0.5
 50
180.0
 51
194.2
  0
ARC
  8
0
 62
7
  6
CONTINUOUS
 10
160.3066338355
 20
128.166336793
 40
0.5
 50
345.8
 51
360.0
  0
ARC
  8
0
 62
7
  6
CONTINUOUS
 10
178.5066338355
 20
128.166336793
 40
0.5
 50
180.0
 51
194.2
  0
ARC
  8
0
 62
7
  6
CONTINUOUS
 10
173.0066338355
 20
128.166336793
 40
0.5
 50
345.8
 51
360.0
  0
ARC
  8
0
 62
7
  6
CONTINUOUS
 10
191.2066338355
 20
128.166336793
 40
0.5
 50
180.0
 51
194.2
  0
ARC
  8
0
 62
7
  6
CONTINUOUS
 10
185.7066338355
 20
128.166336793
 40
0.5
 50
345.8
 51
360.0
  0
ARC
  8
0
 62
7
  6
CONTINUOUS
 10
160.2066338355
 20
125.1214038721
 40
0.15
 50
165.8
 51
180.0
  0
ARC
  8
0
 62
7
  6
CONTINUOUS
 10
165.9066338355
 20
125.1214038721
 40
0.15
 50
0.0
 51
14.2
  0
ARC
  8
0
 62
7
  6
CONTINUOUS
 10
172.9066338355
 20
125.1214038721
 40
0.15
 50
165.8
 51
180.0
  0
ARC
  8
0
 62
7
  6
CONTINUOUS
 10
178.6066338355
 20
125.1214038721
 40
0.15
 50
0.0
 51
14.2
  0
ARC
  8
0
 62
7
  6
CONTINUOUS
 10
185.6066338355
 20
125.1214038721
 40
0.15
 50
165.8
 51
180.0
  0
ARC
  8
0
 62
7
  6
CONTINUOUS
 10
191.3066338355
 20
125.1214038721
 40
0.15
 50
0.0
 51
14.2
  0
ARC
  8
0
 62
7
  6
CONTINUOUS
 10
184.2066338355
 20
134.3630017381
 40
2.0
 50
0.0
 51
90.0
  0
ARC
  8
0
 62
7
  6
CONTINUOUS
 10
180.0066338355
 20
134.3630017381
 40
2.0
 50
90.0
 51
180.0
  0
ARC
  8
0
 62
7
  6
CONTINUOUS
 10
171.5066338355
 20
134.3630017381
 40
2.0
 50
0.0
 51
90.0
  0
ARC
  8
0
 62
7
  6
CONTINUOUS
 10
167.3066338355
 20
134.3630017381
 40
2.0
 50
90.0
 51
180.0
  0
ARC
  8
0
 62
7
  6
CONTINUOUS
 10
158.8066338355
 20
134.3630017381
 40
2.0
 50
0.0
 51
90.0
  0
ARC
  8
0
 62
7
  6
CONTINUOUS
 10
189.7066338355
 20
136.8470017381
 40
1.0
 50
0.0
 51
90.0
  0
ARC
  8
0
 62
7
  6
CONTINUOUS
 10
124.9566338355
 20
141.9510017381
 40
4.104
 50
180.0
 51
360.0
  0
ARC
  8
0
 62
7
  6
CONTINUOUS
 10
137.6566338355
 20
141.9510017381
 40
4.104
 50
180.0
 51
360.0
  0
ARC
  8
0
 62
7
  6
CONTINUOUS
 10
150.3566338355
 20
141.9510017381
 40
4.104
 50
180.0
 51
360.0
  0
ARC
  8
0
 62
7
  6
CONTINUOUS
 10
128.5606338355
 20
146.1347234459
 40
0.5
 50
0.0
 51
14.2
  0
ARC
  8
0
 62
7
  6
CONTINUOUS
 10
121.3526338355
 20
146.1347234459
 40
0.5
 50
165.8
 51
180.0
  0
ARC
  8
0
 62
7
  6
CONTINUOUS
 10
141.2606338355
 20
146.1347234459
 40
0.5
 50
0.0
 51
14.2
  0
ARC
  8
0
 62
7
  6
CONTINUOUS
 10
134.0526338355
 20
146.1347234459
 40
0.5
 50
165.8
 51
180.0
  0
ARC
  8
0
 62
7
  6
CONTINUOUS
 10
153.9606338355
 20
146.1347234459
 40
0.5
 50
0.0
 51
14.2
  0
ARC
  8
0
 62
7
  6
CONTINUOUS
 10
146.7526338355
 20
146.1347234459
 40
0.5
 50
165.8
 51
180.0
  0
ARC
  8
0
 62
7
  6
CONTINUOUS
 10
134.1566338355
 20
149.1954642129
 40
0.15
 50
345.8
 51
360.0
  0
ARC
  8
0
 62
7
  6
CONTINUOUS
 10
128.4566338355
 20
149.1954642129
 40
0.15
 50
180.0
 51
194.2
  0
ARC
  8
0
 62
7
  6
CONTINUOUS
 10
121.4566338355
 20
149.1954642129
 40
0.15
 50
345.8
 51
360.0
  0
ARC
  8
0
 62
7
  6
CONTINUOUS
 10
129.0566338355
 20
153.4470017381
 40
0.75
 50
90.0
 51
180.0
  0
ARC
  8
0
 62
7
  6
CONTINUOUS
 10
133.5566338355
 20
153.4470017381
 40
0.75
 50
0.0
 51
90.0
  0
ARC
  8
0
 62
7
  6
CONTINUOUS
 10
120.8566338355
 20
153.4470017381
 40
0.75
 50
0.0
 51
90.0
  0
ARC
  8
0
 62
7
  6
CONTINUOUS
 10
153.8566338355
 20
149.1954642129
 40
0.15
 50
180.0
 51
194.2
  0
ARC
  8
0
 62
7
  6
CONTINUOUS
 10
146.8566338355
 20
149.1954642129
 40
0.15
 50
345.8
 51
360.0
  0
ARC
  8
0
 62
7
  6
CONTINUOUS
 10
141.1566338355
 20
149.1954642129
 40
0.15
 50
180.0
 51
194.2
  0
ARC
  8
0
 62
7
  6
CONTINUOUS
 10
154.4566338355
 20
153.4470017381
 40
0.75
 50
90.0
 51
180.0
  0
ARC
  8
0
 62
7
  6
CONTINUOUS
 10
141.7566338355
 20
153.4470017381
 40
0.75
 50
90.0
 51
180.0
  0
ARC
  8
0
 62
7
  6
CONTINUOUS
 10
146.2566338355
 20
153.4470017381
 40
0.75
 50
0.0
 51
90.0
  0
ARC
  8
0
 62
7
  6
CONTINUOUS
 10
163.0566338355
 20
141.9510017381
 40
4.104
 50
180.0
 51
360.0
  0
ARC
  8
0
 62
7
  6
CONTINUOUS
 10
175.7566338355
 20
141.9510017381
 40
4.104
 50
180.0
 51
360.0
  0
ARC
  8
0
 62
7
  6
CONTINUOUS
 10
188.4566338355
 20
141.9510017381
 40
4.104
 50
180.0
 51
270.0
  0
ARC
  8
0
 62
7
  6
CONTINUOUS
 10
166.6606338355
 20
146.1347234459
 40
0.5
 50
0.0
 51
14.2
  0
ARC
  8
0
 62
7
  6
CONTINUOUS
 10
159.4526338355
 20
146.1347234459
 40
0.5
 50
165.8
 51
180.0
  0
ARC
  8
0
 62
7
  6
CONTINUOUS
 10
179.3606338355
 20
146.1347234459
 40
0.5
 50
0.0
 51
14.2
  0
ARC
  8
0
 62
7
  6
CONTINUOUS
 10
172.1526338355
 20
146.1347234459
 40
0.5
 50
165.8
 51
180.0
  0
ARC
  8
0
 62
7
  6
CONTINUOUS
 10
184.8526338355
 20
146.1347234459
 40
0.5
 50
165.8
 51
180.0
  0
ARC
  8
0
 62
7
  6
CONTINUOUS
 10
166.5566338355
 20
149.1954642129
 40
0.15
 50
180.0
 51
194.2
  0
ARC
  8
0
 62
7
  6
CONTINUOUS
 10
159.5566338355
 20
149.1954642129
 40
0.15
 50
345.8
 51
360.0
  0
ARC
  8
0
 62
7
  6
CONTINUOUS
 10
167.1566338355
 20
153.4470017381
 40
0.75
 50
90.0
 51
180.0
  0
ARC
  8
0
 62
7
  6
CONTINUOUS
 10
171.6566338355
 20
153.4470017381
 40
0.75
 50
0.0
 51
90.0
  0
ARC
  8
0
 62
7
  6
CONTINUOUS
 10
158.9566338355
 20
153.4470017381
 40
0.75
 50
0.0
 51
90.0
  0
ARC
  8
0
 62
7
  6
CONTINUOUS
 10
184.9566338355
 20
149.1954642129
 40
0.15
 50
345.8
 51
360.0
  0
ARC
  8
0
 62
7
  6
CONTINUOUS
 10
179.2566338355
 20
149.1954642129
 40
0.15
 50
180.0
 51
194.2
  0
ARC
  8
0
 62
7
  6
CONTINUOUS
 10
172.2566338355
 20
149.1954642129
 40
0.15
 50
345.8
 51
360.0
  0
ARC
  8
0
 62
7
  6
CONTINUOUS
 10
179.8566338355
 20
153.4470017381
 40
0.75
 50
90.0
 51
180.0
  0
ARC
  8
0
 62
7
  6
CONTINUOUS
 10
184.3566338355
 20
153.4470017381
 40
0.75
 50
0.0
 51
90.0
  0
ARC
  8
0
 62
7
  6
CONTINUOUS
 10
45.0566338355
 20
201.9244642745
 40
0.15
 50
180.0
 51
270.0
  0
ARC
  8
0
 62
7
  6
CONTINUOUS
 10
57.5316194723
 20
202.5244642745
 40
0.75
 50
270.0
 51
360.0
  0
ARC
  8
0
 62
7
  6
CONTINUOUS
 10
53.0316481986
 20
202.5244642745
 40
0.75
 50
180.0
 51
270.0
  0
ARC
  8
0
 62
7
  6
CONTINUOUS
 10
75.0566338355
 20
201.9244642745
 40
0.15
 50
270.0
 51
360.0
  0
ARC
  8
0
 62
7
  6
CONTINUOUS
 10
66.7566338355
 20
201.9244642745
 40
0.15
 50
180.0
 51
270.0
  0
ARC
  8
0
 62
7
  6
CONTINUOUS
 10
53.0316481986
 20
213.0244642745
 40
0.75
 50
90.0
 51
180.0
  0
ARC
  8
0
 62
7
  6
CONTINUOUS
 10
57.5316194723
 20
213.0244642745
 40
0.75
 50
0.0
 51
90.0
  0
ARC
  8
0
 62
7
  6
CONTINUOUS
 10
45.0566338355
 20
212.6553451578
 40
0.15
 50
103.0918930644
 51
180.0
  0
ARC
  8
0
 62
7
  6
CONTINUOUS
 10
87.6566194723
 20
202.5244642745
 40
0.75
 50
270.0
 51
360.0
  0
ARC
  8
0
 62
7
  6
CONTINUOUS
 10
83.1566481986
 20
202.5244642745
 40
0.75
 50
180.0
 51
270.0
  0
ARC
  8
0
 62
7
  6
CONTINUOUS
 10
114.5066338355
 20
202.5244642745
 40
0.75
 50
270.0
 51
360.0
  0
ARC
  8
0
 62
7
  6
CONTINUOUS
 10
110.0066338355
 20
202.5244642745
 40
0.75
 50
180.0
 51
270.0
  0
ARC
  8
0
 62
7
  6
CONTINUOUS
 10
101.4106194723
 20
202.5244642745
 40
0.75
 50
270.0
 51
360.0
  0
ARC
  8
0
 62
7
  6
CONTINUOUS
 10
96.9106481986
 20
202.5244642745
 40
0.75
 50
180.0
 51
270.0
  0
ARC
  8
0
 62
7
  6
CONTINUOUS
 10
66.7066338355
 20
213.9744642745
 40
0.2
 50
270.0
 51
358.8487549954
  0
ARC
  8
0
 62
7
  6
CONTINUOUS
 10
49.2238460371
 20
213.6244642745
 40
0.15
 50
90.0
 51
103.0918930643
  0
ARC
  8
0
 62
7
  6
CONTINUOUS
 10
67.3391168759
 20
224.3244642745
 40
0.25
 50
90.0000004416
 51
178.9599999411
  0
ARC
  8
0
 62
7
  6
CONTINUOUS
 10
68.3391312346
 20
224.3244640285
 40
0.25
 50
89.9999989766
 51
178.9599436143
  0
ARC
  8
0
 62
7
  6
CONTINUOUS
 10
73.4741364319
 20
224.3244642745
 40
0.25
 50
1.04
 51
90.0
  0
ARC
  8
0
 62
7
  6
CONTINUOUS
 10
82.8391312346
 20
224.3244640285
 40
0.25
 50
89.9999989766
 51
178.9599436143
  0
ARC
  8
0
 62
7
  6
CONTINUOUS
 10
87.9741364319
 20
224.3244642745
 40
0.25
 50
1.04
 51
90.0
  0
ARC
  8
0
 62
7
  6
CONTINUOUS
 10
96.5931312344
 20
224.3244640176
 40
0.25
 50
89.999998931
 51
178.9599411063
  0
ARC
  8
0
 62
7
  6
CONTINUOUS
 10
101.7281364319
 20
224.3244642745
 40
0.25
 50
1.04
 51
90.0
  0
ARC
  8
0
 62
7
  6
CONTINUOUS
 10
109.6891168711
 20
224.3244640088
 40
0.25
 50
89.9999988947
 51
178.9599391041
  0
ARC
  8
0
 62
7
  6
CONTINUOUS
 10
114.824150795
 20
224.3244642745
 40
0.25
 50
1.04
 51
90.0
  0
ARC
  8
0
 62
7
  6
CONTINUOUS
 10
190.7066338355
 20
202.5244642745
 40
0.75
 50
270.0
 51
360.0
  0
ARC
  8
0
 62
7
  6
CONTINUOUS
 10
186.2066338355
 20
202.5244642745
 40
0.75
 50
180.0
 51
270.0
  0
ARC
  8
0
 62
7
  6
CONTINUOUS
 10
178.0066338355
 20
202.5244642745
 40
0.75
 50
270.0
 51
360.0
  0
ARC
  8
0
 62
7
  6
CONTINUOUS
 10
173.5066338355
 20
202.5244642745
 40
0.75
 50
180.0
 51
270.0
  0
ARC
  8
0
 62
7
  6
CONTINUOUS
 10
165.3066338355
 20
202.5244642745
 40
0.75
 50
270.0
 51
360.0
  0
ARC
  8
0
 62
7
  6
CONTINUOUS
 10
160.8066338355
 20
202.5244642745
 40
0.75
 50
180.0
 51
270.0
  0
ARC
  8
0
 62
7
  6
CONTINUOUS
 10
152.6066338355
 20
202.5244642745
 40
0.75
 50
270.0
 51
360.0
  0
ARC
  8
0
 62
7
  6
CONTINUOUS
 10
148.1066338355
 20
202.5244642745
 40
0.75
 50
180.0
 51
270.0
  0
ARC
  8
0
 62
7
  6
CONTINUOUS
 10
139.9066338355
 20
202.5244642745
 40
0.75
 50
270.0
 51
360.0
  0
ARC
  8
0
 62
7
  6
CONTINUOUS
 10
135.4066338355
 20
202.5244642745
 40
0.75
 50
180.0
 51
270.0
  0
ARC
  8
0
 62
7
  6
CONTINUOUS
 10
127.2066338355
 20
202.5244642745
 40
0.75
 50
270.0
 51
360.0
  0
ARC
  8
0
 62
7
  6
CONTINUOUS
 10
122.7066338355
 20
202.5244642745
 40
0.75
 50
180.0
 51
270.0
  0
ARC
  8
0
 62
7
  6
CONTINUOUS
 10
122.3891168711
 20
224.3244640088
 40
0.25
 50
89.9999988947
 51
178.9599391041
  0
ARC
  8
0
 62
7
  6
CONTINUOUS
 10
127.524150795
 20
224.3244642745
 40
0.25
 50
1.04
 51
90.0
  0
ARC
  8
0
 62
7
  6
CONTINUOUS
 10
135.0891168711
 20
224.3244640088
 40
0.25
 50
89.9999988947
 51
178.9599391041
  0
ARC
  8
0
 62
7
  6
CONTINUOUS
 10
140.224150795
 20
224.3244642745
 40
0.25
 50
1.04
 51
90.0
  0
ARC
  8
0
 62
7
  6
CONTINUOUS
 10
147.7891168711
 20
224.3244640088
 40
0.25
 50
89.9999988947
 51
178.9599391041
  0
ARC
  8
0
 62
7
  6
CONTINUOUS
 10
152.924150795
 20
224.3244642745
 40
0.25
 50
1.04
 51
90.0
  0
ARC
  8
0
 62
7
  6
CONTINUOUS
 10
160.4891168711
 20
224.3244640088
 40
0.25
 50
89.9999988947
 51
178.9599391041
  0
ARC
  8
0
 62
7
  6
CONTINUOUS
 10
165.624150795
 20
224.3244642745
 40
0.25
 50
1.04
 51
90.0
  0
ARC
  8
0
 62
7
  6
CONTINUOUS
 10
173.1891168711
 20
224.3244640088
 40
0.25
 50
89.9999988947
 51
178.9599391041
  0
ARC
  8
0
 62
7
  6
CONTINUOUS
 10
178.324150795
 20
224.3244642745
 40
0.25
 50
1.04
 51
90.0
  0
ARC
  8
0
 62
7
  6
CONTINUOUS
 10
185.8891168711
 20
224.3244640088
 40
0.25
 50
89.9999988947
 51
178.9599391041
  0
ARC
  8
0
 62
7
  6
CONTINUOUS
 10
191.024150795
 20
224.3244642745
 40
0.25
 50
1.04
 51
90.0
  0
ARC
  8
0
 62
7
  6
CONTINUOUS
 10
271.0691485155
 20
124.0970017381
 40
4.0
 50
270.0
 51
360.0
  0
ARC
  8
0
 62
7
  6
CONTINUOUS
 10
267.0691485155
 20
124.0970017381
 40
4.0
 50
180.0
 51
270.0
  0
ARC
  8
AXES
 62
7
  6
CONTINUOUS
 10
269.0691485155
 20
124.4470017381
 40
2.1
 50
180.0
 51
360.0
  0
ARC
  8
AXES
 62
7
  6
CONTINUOUS
 10
269.0691485155
 20
132.4970017381
 40
2.1
 50
0.0
 51
180.0
  0
ARC
  8
0
 62
7
  6
CONTINUOUS
 10
271.0691485155
 20
150.1970017381
 40
4.0
 50
0.0
 51
34.9570781379
  0
ARC
  8
0
 62
7
  6
CONTINUOUS
 10
267.0691485155
 20
150.1970017381
 40
4.0
 50
167.4855975759
 51
180.0
  0
CIRCLE
  8
0
 62
7
  6
CONTINUOUS
 10
269.0691485155
 20
149.8470017381
 40
2.75
  0
CIRCLE
  8
0
 62
7
  6
CONTINUOUS
 10
269.0691485155
 20
149.8470017381
 40
2.1
  0
ARC
  8
0
 62
7
  6
CONTINUOUS
 10
282.8691485155
 20
123.8243461302
 40
3.0
 50
273.0
 51
360.0
  0
ARC
  8
0
 62
7
  6
CONTINUOUS
 10
282.8691485155
 20
150.469657346
 40
3.0
 50
0.0
 51
87.0
  0
ARC
  8
0
 62
7
  6
CONTINUOUS
 10
285.6191485155
 20
137.5554874325
 40
0.25
 50
0.0
 51
88.3854289993
  0
ENDSEC
  0
EOF
